  0
SECTION
  2
HEADER
  9
$EXTMAX
 10
210.0
 20
297.0
 30
0.0
  9
$EXTMIN
 10
0.0
 20
0.0
 30
0.0
  9
$LIMMIN
 10
0.0
 20
0.0
  9
$LIMMAX
 10
210.0
 20
297.0
  9
$VIEWCTR
 10
105.0
 20
148.5
  9
$VIEWSIZE
 40
297.0
  9
$CLAYER
  8
0
  9
$LTSCALE
 40
19.36
  9
$CELTYPE
  6
BYLAYER
  9
$DIMSCALE
 40
1.0
  9
$DIMASZ
 40
3.5
  9
$DIMEXO
 40
2.2
  9
$DIMDLI
 40
13.376
  9
$DIMEXE
 40
6.336
  9
$DIMCEN
 40
3.168
  9
$DIMLFAC
 40
1.0
  9
$DIMBLK
  1
_FILLED
  9
$DIMTXT
 40
3.5
  9
$PDMODE
 70
3
  9
$PDSIZE
 40
0.3125
  9
$TILEMODE
 70
1
  0
ENDSEC
  0
SECTION
  2
TABLES
  0
TABLE
  2
LTYPE
 70
6
  0
LTYPE
  2
BYBLOCK
 70
0
  3

 72
65
 73
0
 40
0.0
  0
LTYPE
  2
BYLAYER
 70
0
  3

 72
65
 73
0
 40
0.0
  0
LTYPE
  2
CONTINUOUS
 70
64
  3
Solid line
 72
65
 73
0
 40
0.0
  0
LTYPE
  2
CENTER
 70
64
  3
____ _ ____ _ ____ _ ____ _ ____ _ ____ _ ____
 72
65
 73
4
 40
0.6
 49
0.375
 49
-0.075
 49
0.075
 49
-0.075
  0
LTYPE
  2
HIDDEN
 70
64
  3
- - - - - - - - - - - - - - - - - - - -
 72
65
 73
2
 40
0.2
 49
0.1
 49
-0.1
  0
LTYPE
  2
PHANTOM
 70
64
  3
_____ _ _ _____ _ _ _____ _ _ _____
 72
65
 73
6
 40
0.8
 49
0.45
 49
-0.05
 49
0.1
 49
-0.05
 49
0.1
 49
-0.05
  0
LTYPE
  2
DOT
 70
64
  3
. . . . . . . . . . . . . . . . . . . .
 72
65
 73
2
 40
0.2
 49
0.1
 49
-0.1
  0
LTYPE
  2
DASHED
 70
64
  3
- - - - - - - - - - - - - - - - - - - -
 72
65
 73
2
 40
0.2
 49
0.1
 49
-0.1
  0
ENDTAB
  0
TABLE
  2
LAYER
 70
36
  0
LAYER
  2
0
 70
0
 62
7
  6
CONTINUOUS
  0
LAYER
  2
DEFAULT_1
 70
0
 62
7
  6
CENTER
  0
LAYER
  2
DEFAULT_2
 70
0
 62
8
  6
HIDDEN
  0
LAYER
  2
DEFAULT_3
 70
0
 62
7
  6
PHANTOM
  0
LAYER
  2
CURVE
 70
0
 62
7
  6
CONTINUOUS
  0
LAYER
  2
SURFACE
 70
0
 62
7
  6
CONTINUOUS
  0
ENDTAB
  0
TABLE
  2
STYLE
 70
1
  0
STYLE
  2
STANDARD
 70
0
 40
0.0
 41
0.8
 50
0.0
 71
0
 42
0.2
  3
txt
  4

  0
STYLE
  2
TEXTSTYLE_1
 70
0
 40
0.0
 41
0.8
 50
0.0
 71
0
 42
0.2
  3
gdt
  4

  0
STYLE
  2
TEXTSTYLE_2
 70
0
 40
0.0
 41
0.6
 50
0.0
 71
0
 42
0.2
  3
txt
  4

  0
STYLE
  2
TEXTSTYLE_3
 70
0
 40
0.0
 41
1.0
 50
0.0
 71
0
 42
0.2
  3
ftb_____.ttf
  4

  0
STYLE
  2
TEXTSTYLE_4
 70
0
 40
0.0
 41
1.0
 50
0.0
 71
0
 42
0.2
  3
fti_____.ttf
  4

  0
STYLE
  2
TEXTSTYLE_5
 70
0
 40
0.0
 41
1.0
 50
0.0
 71
0
 42
0.2
  3
frutiger light.ttf
  4

  0
STYLE
  2
TEXTSTYLE_6
 70
0
 40
0.0
 41
0.7
 50
0.0
 71
0
 42
0.2
  3
txt
  4

  0
STYLE
  2
TEXTSTYLE_7
 70
0
 40
0.0
 41
0.7
 50
0.0
 71
0
 42
0.2
  3
txt
  4

  0
ENDTAB
  0
ENDSEC
  0
SECTION
  2
BLOCKS
  0
BLOCK
  8
0
 62
2
  6
CONTINUOUS
  2
SYMBOL_8_BL1
 70
64
 10
173.5956734183
 20
35.5937998301
  0
TEXT
  8
0
 62
7
  6
CONTINUOUS
 10
164.6539584268
 20
30.6865562072
  7
TEXTSTYLE_4
 40
1.0655737705
  1
The brand for plastic modular belts and chains
 41
1.0
 72
0
  0
LINE
  8
0
 62
7
  6
CONTINUOUS
 10
149.5737418074
 20
36.1675703219
 11
149.5737418074
 21
34.0364227809
  0
LINE
  8
0
 62
7
  6
CONTINUOUS
 10
149.8628043005
 20
31.0454914852
 11
149.8628043005
 21
31.1422825445
  0
LINE
  8
0
 62
7
  6
CONTINUOUS
 10
149.5737418074
 20
31.1100188581
 11
149.6315543091
 21
30.9164367395
  0
LINE
  8
0
 62
7
  6
CONTINUOUS
 10
150.9671844304
 20
33.9544555678
 11
150.9671844304
 21
36.1675703219
  0
LINE
  8
0
 62
7
  6
CONTINUOUS
 10
151.8862417523
 20
32.1101932727
 11
151.8862417523
 21
30.5937998301
  0
LINE
  8
0
 62
7
  6
CONTINUOUS
 10
152.1753043074
 20
30.5937998301
 11
152.1753043074
 21
31.3358647082
  0
LINE
  8
0
 62
7
  6
CONTINUOUS
 10
152.1753043074
 20
31.4649194539
 11
152.1753043074
 21
32.1101932727
  0
LINE
  8
0
 62
7
  6
CONTINUOUS
 10
149.6315543091
 20
31.3036010218
 11
149.5737418074
 21
31.1100188581
  0
LINE
  8
0
 62
7
  6
CONTINUOUS
 10
149.9784292936
 20
30.8841730531
 11
149.8628043005
 21
31.0454914852
  0
LINE
  8
0
 62
7
  6
CONTINUOUS
 10
151.0768668626
 20
31.400392081
 11
151.1346793074
 21
31.3036010218
  0
LINE
  8
0
 62
7
  6
CONTINUOUS
 10
151.4237418626
 20
31.3036010218
 11
151.3659292523
 21
31.4326557675
  0
LINE
  8
0
 62
7
  6
CONTINUOUS
 10
152.852430332
 20
36.1675703219
 11
152.852430332
 21
34.3642916334
  0
LINE
  8
0
 62
7
  6
CONTINUOUS
 10
152.852430332
 20
33.0528162235
 11
152.852430332
 21
32.3970785186
  0
LINE
  8
0
 62
7
  6
CONTINUOUS
 10
153.2159293074
 20
31.2390736489
 11
153.2159293074
 21
30.5937998301
  0
LINE
  8
0
 62
7
  6
CONTINUOUS
 10
153.5049916972
 20
30.5937998301
 11
153.5049916972
 21
31.2390736489
  0
LINE
  8
0
 62
7
  6
CONTINUOUS
 10
149.8628043005
 20
31.1422825445
 11
149.9206168074
 21
31.2713373354
  0
LINE
  8
0
 62
7
  6
CONTINUOUS
 10
149.6315543091
 20
30.9164367395
 11
149.7471793074
 21
30.7873819712
  0
LINE
  8
0
 62
7
  6
CONTINUOUS
 10
153.1581166972
 20
31.3681283946
 11
153.2159293074
 21
31.2390736489
  0
LINE
  8
0
 62
7
  6
CONTINUOUS
 10
153.9674919177
 20
30.8841730531
 11
154.0253041972
 21
30.7551182848
  0
LINE
  8
0
 62
7
  6
CONTINUOUS
 10
153.5049916972
 20
31.2390736489
 11
153.4471794177
 21
31.400392081
  0
LINE
  8
0
 62
7
  6
CONTINUOUS
 10
153.9674919177
 20
31.4326557675
 11
153.9674919177
 21
31.3681283946
  0
LINE
  8
0
 62
7
  6
CONTINUOUS
 10
153.9674919177
 20
30.9809641124
 11
153.9674919177
 21
30.8841730531
  0
LINE
  8
0
 62
7
  6
CONTINUOUS
 10
154.245872955
 20
32.3970785186
 11
154.245872955
 21
36.1675703219
  0
LINE
  8
0
 62
7
  6
CONTINUOUS
 10
154.2565543074
 20
30.8519093441
 11
154.2565543074
 21
30.9164367395
  0
LINE
  8
0
 62
7
  6
CONTINUOUS
 10
154.5737418074
 20
36.1675703219
 11
154.5737418074
 21
32.3970785186
  0
LINE
  8
0
 62
7
  6
CONTINUOUS
 10
151.3659292523
 20
30.7873819712
 11
151.4237418626
 21
30.9164367395
  0
LINE
  8
0
 62
7
  6
CONTINUOUS
 10
155.759679528
 20
30.6905909007
 11
155.7018665869
 21
30.8519093441
  0
LINE
  8
0
 62
7
  6
CONTINUOUS
 10
155.412804528
 20
31.3681283946
 11
155.412804528
 21
31.2713373354
  0
LINE
  8
0
 62
7
  6
CONTINUOUS
 10
155.412804528
 20
31.1422825445
 11
155.412804528
 21
30.9487004259
  0
LINE
  8
0
 62
7
  6
CONTINUOUS
 10
155.7018665869
 20
30.8519093441
 11
155.7018665869
 21
31.3681283946
  0
LINE
  8
0
 62
7
  6
CONTINUOUS
 10
155.9671844304
 20
32.3970785186
 11
155.9671844304
 21
34.2003572071
  0
LINE
  8
0
 62
7
  6
CONTINUOUS
 10
155.9671844304
 20
35.511832617
 11
155.9671844304
 21
36.1675703219
  0
LINE
  8
0
 62
7
  6
CONTINUOUS
 10
156.279992028
 20
32.1101932727
 11
156.279992028
 21
31.9488748406
  0
LINE
  8
0
 62
7
  6
CONTINUOUS
 10
156.279992028
 20
31.626237886
 11
156.279992028
 21
30.5937998301
  0
LINE
  8
0
 62
7
  6
CONTINUOUS
 10
156.5690540869
 20
30.5937998301
 11
156.5690540869
 21
31.626237886
  0
LINE
  8
0
 62
7
  6
CONTINUOUS
 10
156.5690540869
 20
31.9488748406
 11
156.5690540869
 21
32.1101932727
  0
LINE
  8
0
 62
7
  6
CONTINUOUS
 10
151.1346793074
 20
30.9164367395
 11
151.0768668626
 21
30.8196456577
  0
LINE
  8
0
 62
7
  6
CONTINUOUS
 10
153.4471794177
 20
31.400392081
 11
153.3893668074
 21
31.4649194539
  0
LINE
  8
0
 62
7
  6
CONTINUOUS
 10
154.3143669177
 20
30.7873819712
 11
154.2565543074
 21
30.8519093441
  0
LINE
  8
0
 62
7
  6
CONTINUOUS
 10
155.4706168074
 20
30.6583272086
 11
155.5284290869
 21
30.5937998301
  0
LINE
  8
0
 62
7
  6
CONTINUOUS
 10
155.412804528
 20
30.7551182848
 11
155.4706168074
 21
30.6583272086
  0
LINE
  8
0
 62
7
  6
CONTINUOUS
 10
155.8174918074
 20
30.5937998301
 11
155.759679528
 21
30.6905909007
  0
LINE
  8
0
 62
7
  6
CONTINUOUS
 10
155.7018665869
 20
31.3681283946
 11
155.6440543074
 21
31.4649194539
  0
LINE
  8
0
 62
7
  6
CONTINUOUS
 10
157.0315543074
 20
31.626237886
 11
157.0315543074
 21
30.5937998301
  0
LINE
  8
0
 62
7
  6
CONTINUOUS
 10
157.320617028
 20
30.5937998301
 11
157.320617028
 21
31.3358647082
  0
LINE
  8
0
 62
7
  6
CONTINUOUS
 10
157.320617028
 20
31.4649194539
 11
157.320617028
 21
31.626237886
  0
LINE
  8
0
 62
7
  6
CONTINUOUS
 10
157.852430332
 20
34.6101932727
 11
157.852430332
 21
32.3970785186
  0
LINE
  8
0
 62
7
  6
CONTINUOUS
 10
149.7471793074
 20
31.4326557675
 11
149.6315543091
 21
31.3036010218
  0
LINE
  8
0
 62
7
  6
CONTINUOUS
 10
149.9206168074
 20
31.2713373354
 11
149.9784292936
 21
31.3358647082
  0
LINE
  8
0
 62
7
  6
CONTINUOUS
 10
149.7471793074
 20
30.7873819712
 11
149.8628043005
 21
30.7228545871
  0
LINE
  8
0
 62
7
  6
CONTINUOUS
 10
150.1518667936
 20
30.7873819712
 11
149.9784292936
 21
30.8841730531
  0
LINE
  8
0
 62
7
  6
CONTINUOUS
 10
155.3549915869
 20
31.4326557675
 11
155.412804528
 21
31.3681283946
  0
LINE
  8
0
 62
7
  6
CONTINUOUS
 10
158.3034290869
 20
31.3681283946
 11
158.361242028
 21
31.2068099625
  0
LINE
  8
0
 62
7
  6
CONTINUOUS
 10
158.6503040869
 20
31.2068099625
 11
158.5924918074
 21
31.3681283946
  0
LINE
  8
0
 62
7
  6
CONTINUOUS
 10
158.361242028
 20
31.2068099625
 11
158.361242028
 21
30.5937998301
  0
LINE
  8
0
 62
7
  6
CONTINUOUS
 10
158.6503040869
 20
30.5937998301
 11
158.6503040869
 21
31.2068099625
  0
LINE
  8
0
 62
7
  6
CONTINUOUS
 10
159.1128043074
 20
31.4326557675
 11
159.1128043074
 21
31.3681283946
  0
LINE
  8
0
 62
7
  6
CONTINUOUS
 10
159.245872955
 20
32.3970785186
 11
159.245872955
 21
34.5282260596
  0
LINE
  8
0
 62
7
  6
CONTINUOUS
 10
159.5737418074
 20
36.1675703219
 11
159.5737418074
 21
32.3970785186
  0
LINE
  8
0
 62
7
  6
CONTINUOUS
 10
154.2565543074
 20
30.9164367395
 11
154.3143669177
 21
31.0132277988
  0
LINE
  8
0
 62
7
  6
CONTINUOUS
 10
149.8628043005
 20
30.7228545871
 11
150.0362418212
 21
30.6583272086
  0
LINE
  8
0
 62
7
  6
CONTINUOUS
 10
151.3659292523
 20
31.4326557675
 11
151.1924917523
 21
31.5294468267
  0
LINE
  8
0
 62
7
  6
CONTINUOUS
 10
154.0253041972
 20
30.7551182848
 11
154.1987416972
 21
30.6583272086
  0
LINE
  8
0
 62
7
  6
CONTINUOUS
 10
153.0424918074
 20
31.4326557675
 11
153.1581166972
 21
31.3681283946
  0
LINE
  8
0
 62
7
  6
CONTINUOUS
 10
153.3893668074
 20
31.4649194539
 11
153.2737419177
 21
31.5294468267
  0
LINE
  8
0
 62
7
  6
CONTINUOUS
 10
159.1128043074
 20
30.8519093441
 11
159.228429528
 21
30.7228545871
  0
LINE
  8
0
 62
7
  6
CONTINUOUS
 10
159.4596793074
 20
30.7873819712
 11
159.401867028
 21
30.8519093441
  0
LINE
  8
0
 62
7
  6
CONTINUOUS
 10
159.1128043074
 20
31.3681283946
 11
159.228429528
 21
31.2390736489
  0
LINE
  8
0
 62
7
  6
CONTINUOUS
 10
158.5924918074
 20
31.3681283946
 11
158.534679528
 21
31.4649194539
  0
LINE
  8
0
 62
7
  6
CONTINUOUS
 10
160.9628038663
 20
30.7873819712
 11
160.9628038663
 21
30.8519093441
  0
LINE
  8
0
 62
7
  6
CONTINUOUS
 10
160.9671844304
 20
32.3970785186
 11
160.9671844304
 21
36.1675703219
  0
LINE
  8
0
 62
7
  6
CONTINUOUS
 10
154.0253041972
 20
31.4971831403
 11
153.9674919177
 21
31.4326557675
  0
LINE
  8
0
 62
7
  6
CONTINUOUS
 10
150.9034292799
 20
31.4649194539
 11
151.0768668626
 21
31.400392081
  0
LINE
  8
0
 62
7
  6
CONTINUOUS
 10
155.6440543074
 20
31.4649194539
 11
155.5284290869
 21
31.5294468267
  0
LINE
  8
0
 62
7
  6
CONTINUOUS
 10
159.4596793074
 20
31.3036010218
 11
159.401867028
 21
31.3681283946
  0
LINE
  8
0
 62
7
  6
CONTINUOUS
 10
160.615929528
 20
30.9164367395
 11
160.6737418074
 21
30.8519093441
  0
LINE
  8
0
 62
7
  6
CONTINUOUS
 10
160.9628038663
 20
30.8519093441
 11
160.8471793074
 21
30.9809641124
  0
LINE
  8
0
 62
7
  6
CONTINUOUS
 10
160.615929528
 20
31.4326557675
 11
160.6737418074
 21
31.3681283946
  0
LINE
  8
0
 62
7
  6
CONTINUOUS
 10
160.9628038663
 20
31.3681283946
 11
160.8471793074
 21
31.4971831403
  0
LINE
  8
0
 62
7
  6
CONTINUOUS
 10
154.2565543074
 20
31.3681283946
 11
154.3143669177
 21
31.4326557675
  0
LINE
  8
0
 62
7
  6
CONTINUOUS
 10
154.0831168074
 20
31.1100188581
 11
153.9674919177
 21
30.9809641124
  0
LINE
  8
0
 62
7
  6
CONTINUOUS
 10
155.412804528
 20
30.9487004259
 11
155.3549915869
 21
30.8841730531
  0
LINE
  8
0
 62
7
  6
CONTINUOUS
 10
155.3549915869
 20
30.6905909007
 11
155.412804528
 21
30.7551182848
  0
LINE
  8
0
 62
7
  6
CONTINUOUS
 10
154.1987416972
 20
30.6583272086
 11
154.3143669177
 21
30.6260635193
  0
LINE
  8
0
 62
7
  6
CONTINUOUS
 10
151.1924917523
 20
31.5294468267
 11
150.9612418074
 21
31.5939741996
  0
LINE
  8
0
 62
7
  6
CONTINUOUS
 10
154.5456166972
 20
30.7228545871
 11
154.3143669177
 21
30.7873819712
  0
LINE
  8
0
 62
7
  6
CONTINUOUS
 10
153.2737419177
 20
31.5294468267
 11
153.1003044177
 21
31.5939741996
  0
LINE
  8
0
 62
7
  6
CONTINUOUS
 10
155.5284290869
 20
31.5294468267
 11
155.3549915869
 21
31.5939741996
  0
LINE
  8
0
 62
7
  6
CONTINUOUS
 10
158.187804528
 20
31.4326557675
 11
158.3034290869
 21
31.3681283946
  0
LINE
  8
0
 62
7
  6
CONTINUOUS
 10
158.534679528
 20
31.4649194539
 11
158.4190543074
 21
31.5294468267
  0
LINE
  8
0
 62
7
  6
CONTINUOUS
 10
150.0362418212
 20
30.6583272086
 11
150.2096793212
 21
30.6260635193
  0
LINE
  8
0
 62
7
  6
CONTINUOUS
 10
150.498741835
 20
30.7228545871
 11
150.1518667936
 21
30.7873819712
  0
LINE
  8
0
 62
7
  6
CONTINUOUS
 10
152.9268669177
 20
31.4649194539
 11
153.0424918074
 21
31.4326557675
  0
LINE
  8
0
 62
7
  6
CONTINUOUS
 10
155.239367028
 20
31.4649194539
 11
155.3549915869
 21
31.4326557675
  0
LINE
  8
0
 62
7
  6
CONTINUOUS
 10
159.575304528
 20
30.7551182848
 11
159.4596793074
 21
30.7873819712
  0
LINE
  8
0
 62
7
  6
CONTINUOUS
 10
158.0721793074
 20
31.4649194539
 11
158.187804528
 21
31.4326557675
  0
LINE
  8
0
 62
7
  6
CONTINUOUS
 10
159.228429528
 20
30.7228545871
 11
159.401867028
 21
30.6583272086
  0
LINE
  8
0
 62
7
  6
CONTINUOUS
 10
158.4190543074
 20
31.5294468267
 11
158.2456168074
 21
31.5939741996
  0
LINE
  8
0
 62
7
  6
CONTINUOUS
 10
159.6331168074
 20
31.2390736489
 11
159.4596793074
 21
31.3036010218
  0
LINE
  8
0
 62
7
  6
CONTINUOUS
 10
160.442492028
 20
30.9809641124
 11
160.615929528
 21
30.9164367395
  0
LINE
  8
0
 62
7
  6
CONTINUOUS
 10
160.8471793074
 20
31.4971831403
 11
160.6737418074
 21
31.5617105132
  0
LINE
  8
0
 62
7
  6
CONTINUOUS
 10
159.228429528
 20
31.2390736489
 11
159.4596793074
 21
31.1422825445
  0
LINE
  8
0
 62
7
  6
CONTINUOUS
 10
160.8471793074
 20
30.9809641124
 11
160.615929528
 21
31.0777551716
  0
LINE
  8
0
 62
7
  6
CONTINUOUS
 10
159.401867028
 20
31.3681283946
 11
159.4596793074
 21
31.4326557675
  0
LINE
  8
0
 62
7
  6
CONTINUOUS
 10
149.8628043005
 20
31.4971831403
 11
149.7471793074
 21
31.4326557675
  0
LINE
  8
0
 62
7
  6
CONTINUOUS
 10
149.9784292936
 20
31.3358647082
 11
150.1518667936
 21
31.4326557675
  0
LINE
  8
0
 62
7
  6
CONTINUOUS
 10
152.2909293626
 20
31.5294468267
 11
152.1753043074
 21
31.4649194539
  0
LINE
  8
0
 62
7
  6
CONTINUOUS
 10
152.1753043074
 20
31.3358647082
 11
152.2909293626
 21
31.400392081
  0
LINE
  8
0
 62
7
  6
CONTINUOUS
 10
151.1924917523
 20
30.6905909007
 11
151.3659292523
 21
30.7873819712
  0
LINE
  8
0
 62
7
  6
CONTINUOUS
 10
150.2096793212
 20
30.6260635193
 11
150.5565542799
 21
30.5937998301
  0
LINE
  8
0
 62
7
  6
CONTINUOUS
 10
154.3143669177
 20
30.6260635193
 11
154.5456166972
 21
30.5937998301
  0
LINE
  8
0
 62
7
  6
CONTINUOUS
 10
152.6956168074
 20
31.4971831403
 11
152.9268669177
 21
31.4649194539
  0
LINE
  8
0
 62
7
  6
CONTINUOUS
 10
155.0081169177
 20
31.4971831403
 11
155.239367028
 21
31.4649194539
  0
LINE
  8
0
 62
7
  6
CONTINUOUS
 10
159.4596793074
 20
31.1422825445
 11
160.442492028
 21
30.9809641124
  0
LINE
  8
0
 62
7
  6
CONTINUOUS
 10
160.615929528
 20
31.0777551716
 11
159.6331168074
 21
31.2390736489
  0
LINE
  8
0
 62
7
  6
CONTINUOUS
 10
153.1003044177
 20
31.5939741996
 11
152.9268669177
 21
31.626237886
  0
LINE
  8
0
 62
7
  6
CONTINUOUS
 10
159.401867028
 20
30.6583272086
 11
159.575304528
 21
30.6260635193
  0
LINE
  8
0
 62
7
  6
CONTINUOUS
 10
158.2456168074
 20
31.5939741996
 11
158.0721793074
 21
31.626237886
  0
LINE
  8
0
 62
7
  6
CONTINUOUS
 10
160.5003043074
 20
31.4649194539
 11
160.615929528
 21
31.4326557675
  0
LINE
  8
0
 62
7
  6
CONTINUOUS
 10
160.6737418074
 20
30.8519093441
 11
160.615929528
 21
30.7873819712
  0
LINE
  8
0
 62
7
  6
CONTINUOUS
 10
159.228429528
 20
31.5294468267
 11
159.1128043074
 21
31.4326557675
  0
LINE
  8
0
 62
7
  6
CONTINUOUS
 10
154.1409294177
 20
31.5617105132
 11
154.0253041972
 21
31.4971831403
  0
LINE
  8
0
 62
7
  6
CONTINUOUS
 10
154.1987416972
 20
31.1745462761
 11
154.0831168074
 21
31.1100188581
  0
LINE
  8
0
 62
7
  6
CONTINUOUS
 10
154.3143669177
 20
31.0132277988
 11
154.4299918074
 21
31.0777551716
  0
LINE
  8
0
 62
7
  6
CONTINUOUS
 10
151.8862417523
 20
30.5937998301
 11
152.1753043074
 21
30.5937998301
  0
LINE
  8
0
 62
7
  6
CONTINUOUS
 10
153.2159293074
 20
30.5937998301
 11
153.5049916972
 21
30.5937998301
  0
LINE
  8
0
 62
7
  6
CONTINUOUS
 10
154.5456166972
 20
30.5937998301
 11
154.8924916972
 21
30.5937998301
  0
LINE
  8
0
 62
7
  6
CONTINUOUS
 10
155.5284290869
 20
30.5937998301
 11
155.8174918074
 21
30.5937998301
  0
LINE
  8
0
 62
7
  6
CONTINUOUS
 10
156.279992028
 20
30.5937998301
 11
156.5690540869
 21
30.5937998301
  0
LINE
  8
0
 62
7
  6
CONTINUOUS
 10
157.0315543074
 20
30.5937998301
 11
157.320617028
 21
30.5937998301
  0
LINE
  8
0
 62
7
  6
CONTINUOUS
 10
158.361242028
 20
30.5937998301
 11
158.6503040869
 21
30.5937998301
  0
LINE
  8
0
 62
7
  6
CONTINUOUS
 10
159.922179528
 20
30.5937998301
 11
160.269054528
 21
30.5937998301
  0
LINE
  8
0
 62
7
  6
CONTINUOUS
 10
160.269054528
 20
30.7228545871
 11
159.922179528
 21
30.7228545871
  0
LINE
  8
0
 62
7
  6
CONTINUOUS
 10
154.8924916972
 20
30.7228545871
 11
154.5456166972
 21
30.7228545871
  0
LINE
  8
0
 62
7
  6
CONTINUOUS
 10
159.401867028
 20
30.8519093441
 11
159.1128043074
 21
30.8519093441
  0
LINE
  8
0
 62
7
  6
CONTINUOUS
 10
151.4237418626
 20
30.9164367395
 11
151.1346793074
 21
30.9164367395
  0
LINE
  8
0
 62
7
  6
CONTINUOUS
 10
150.498741835
 20
31.4971831403
 11
150.9034292799
 21
31.4649194539
  0
LINE
  8
0
 62
7
  6
CONTINUOUS
 10
150.9612418074
 20
31.5939741996
 11
150.5565542799
 21
31.626237886
  0
LINE
  8
0
 62
7
  6
CONTINUOUS
 10
159.575304528
 20
30.6260635193
 11
159.922179528
 21
30.5937998301
  0
LINE
  8
0
 62
7
  6
CONTINUOUS
 10
159.922179528
 20
30.7228545871
 11
159.575304528
 21
30.7551182848
  0
LINE
  8
0
 62
7
  6
CONTINUOUS
 10
155.3549915869
 20
31.5939741996
 11
155.0081169177
 21
31.626237886
  0
LINE
  8
0
 62
7
  6
CONTINUOUS
 10
160.1534293074
 20
31.4971831403
 11
160.5003043074
 21
31.4649194539
  0
LINE
  8
0
 62
7
  6
CONTINUOUS
 10
160.5003043074
 20
31.5939741996
 11
160.1534293074
 21
31.626237886
  0
LINE
  8
0
 62
7
  6
CONTINUOUS
 10
157.840929528
 20
31.4971831403
 11
158.0721793074
 21
31.4649194539
  0
LINE
  8
0
 62
7
  6
CONTINUOUS
 10
160.6737418074
 20
31.5617105132
 11
160.5003043074
 21
31.5939741996
  0
LINE
  8
0
 62
7
  6
CONTINUOUS
 10
160.8471793074
 20
30.6905909007
 11
160.9628038663
 21
30.7873819712
  0
LINE
  8
0
 62
7
  6
CONTINUOUS
 10
155.3549915869
 20
30.8841730531
 11
155.1815540869
 21
30.7873819712
  0
LINE
  8
0
 62
7
  6
CONTINUOUS
 10
157.4362415869
 20
31.5294468267
 11
157.320617028
 21
31.4649194539
  0
LINE
  8
0
 62
7
  6
CONTINUOUS
 10
157.320617028
 20
31.3358647082
 11
157.4362415869
 21
31.400392081
  0
LINE
  8
0
 62
7
  6
CONTINUOUS
 10
150.0362418212
 20
31.5617105132
 11
149.8628043005
 21
31.4971831403
  0
LINE
  8
0
 62
7
  6
CONTINUOUS
 10
152.4643666972
 20
31.5939741996
 11
152.2909293626
 21
31.5294468267
  0
LINE
  8
0
 62
7
  6
CONTINUOUS
 10
152.2909293626
 20
31.400392081
 11
152.4643666972
 21
31.4649194539
  0
LINE
  8
0
 62
7
  6
CONTINUOUS
 10
151.0768668626
 20
30.8196456577
 11
150.9034292799
 21
30.7551182848
  0
LINE
  8
0
 62
7
  6
CONTINUOUS
 10
160.5003043074
 20
30.7551182848
 11
160.269054528
 21
30.7228545871
  0
LINE
  8
0
 62
7
  6
CONTINUOUS
 10
154.8924916972
 20
30.5937998301
 11
155.1815540869
 21
30.6260635193
  0
LINE
  8
0
 62
7
  6
CONTINUOUS
 10
160.269054528
 20
30.5937998301
 11
160.615929528
 21
30.6260635193
  0
LINE
  8
0
 62
7
  6
CONTINUOUS
 10
150.5565542799
 20
30.5937998301
 11
150.9612418074
 21
30.6260635193
  0
LINE
  8
0
 62
7
  6
CONTINUOUS
 10
150.9034292799
 20
30.7551182848
 11
150.498741835
 21
30.7228545871
  0
LINE
  8
0
 62
7
  6
CONTINUOUS
 10
154.7768668074
 20
31.1422825445
 11
155.412804528
 21
31.1422825445
  0
LINE
  8
0
 62
7
  6
CONTINUOUS
 10
155.412804528
 20
31.2713373354
 11
154.7768668074
 21
31.2713373354
  0
LINE
  8
0
 62
7
  6
CONTINUOUS
 10
151.1346793074
 20
31.3036010218
 11
151.4237418626
 21
31.3036010218
  0
LINE
  8
0
 62
7
  6
CONTINUOUS
 10
153.9674919177
 20
31.3681283946
 11
154.2565543074
 21
31.3681283946
  0
LINE
  8
0
 62
7
  6
CONTINUOUS
 10
160.6737418074
 20
31.3681283946
 11
160.9628038663
 21
31.3681283946
  0
LINE
  8
0
 62
7
  6
CONTINUOUS
 10
154.6612419177
 20
31.4971831403
 11
155.0081169177
 21
31.4971831403
  0
LINE
  8
0
 62
7
  6
CONTINUOUS
 10
159.8065543074
 20
31.4971831403
 11
160.1534293074
 21
31.4971831403
  0
LINE
  8
0
 62
7
  6
CONTINUOUS
 10
160.1534293074
 20
31.626237886
 11
159.8065543074
 21
31.626237886
  0
LINE
  8
0
 62
7
  6
CONTINUOUS
 10
158.0721793074
 20
31.626237886
 11
157.840929528
 21
31.626237886
  0
LINE
  8
0
 62
7
  6
CONTINUOUS
 10
157.320617028
 20
31.626237886
 11
157.0315543074
 21
31.626237886
  0
LINE
  8
0
 62
7
  6
CONTINUOUS
 10
156.5690540869
 20
31.626237886
 11
156.279992028
 21
31.626237886
  0
LINE
  8
0
 62
7
  6
CONTINUOUS
 10
155.0081169177
 20
31.626237886
 11
154.6612419177
 21
31.626237886
  0
LINE
  8
0
 62
7
  6
CONTINUOUS
 10
152.9268669177
 20
31.626237886
 11
152.6956168074
 21
31.626237886
  0
LINE
  8
0
 62
7
  6
CONTINUOUS
 10
156.279992028
 20
31.9488748406
 11
156.5690540869
 21
31.9488748406
  0
LINE
  8
0
 62
7
  6
CONTINUOUS
 10
156.5690540869
 20
32.1101932727
 11
156.279992028
 21
32.1101932727
  0
LINE
  8
0
 62
7
  6
CONTINUOUS
 10
152.1753043074
 20
32.1101932727
 11
151.8862417523
 21
32.1101932727
  0
LINE
  8
0
 62
7
  6
CONTINUOUS
 10
151.2130860697
 20
32.3970785186
 11
151.6256574183
 21
32.3970785186
  0
LINE
  8
0
 62
7
  6
CONTINUOUS
 10
152.852430332
 20
32.3970785186
 11
154.245872955
 21
32.3970785186
  0
LINE
  8
0
 62
7
  6
CONTINUOUS
 10
154.5737418074
 20
32.3970785186
 11
155.9671844304
 21
32.3970785186
  0
LINE
  8
0
 62
7
  6
CONTINUOUS
 10
157.852430332
 20
32.3970785186
 11
159.245872955
 21
32.3970785186
  0
LINE
  8
0
 62
7
  6
CONTINUOUS
 10
159.5737418074
 20
32.3970785186
 11
160.9671844304
 21
32.3970785186
  0
LINE
  8
0
 62
7
  6
CONTINUOUS
 10
157.6096790869
 20
31.5939741996
 11
157.4362415869
 21
31.5294468267
  0
LINE
  8
0
 62
7
  6
CONTINUOUS
 10
155.1815540869
 20
30.6260635193
 11
155.3549915869
 21
30.6905909007
  0
LINE
  8
0
 62
7
  6
CONTINUOUS
 10
160.615929528
 20
30.6260635193
 11
160.8471793074
 21
30.6905909007
  0
LINE
  8
0
 62
7
  6
CONTINUOUS
 10
160.615929528
 20
30.7873819712
 11
160.5003043074
 21
30.7551182848
  0
LINE
  8
0
 62
7
  6
CONTINUOUS
 10
159.575304528
 20
31.4649194539
 11
159.8065543074
 21
31.4971831403
  0
LINE
  8
0
 62
7
  6
CONTINUOUS
 10
157.6096790869
 20
31.4649194539
 11
157.840929528
 21
31.4971831403
  0
LINE
  8
0
 62
7
  6
CONTINUOUS
 10
154.5456166972
 20
31.1100188581
 11
154.7768668074
 21
31.1422825445
  0
LINE
  8
0
 62
7
  6
CONTINUOUS
 10
157.840929528
 20
31.626237886
 11
157.6096790869
 21
31.5939741996
  0
LINE
  8
0
 62
7
  6
CONTINUOUS
 10
154.4299918074
 20
31.4649194539
 11
154.6612419177
 21
31.4971831403
  0
LINE
  8
0
 62
7
  6
CONTINUOUS
 10
159.8065543074
 20
31.626237886
 11
159.4596793074
 21
31.5939741996
  0
LINE
  8
0
 62
7
  6
CONTINUOUS
 10
154.7768668074
 20
31.2713373354
 11
154.4299918074
 21
31.2390736489
  0
LINE
  8
0
 62
7
  6
CONTINUOUS
 10
150.5565542799
 20
31.626237886
 11
150.2096793212
 21
31.5939741996
  0
LINE
  8
0
 62
7
  6
CONTINUOUS
 10
154.6612419177
 20
31.626237886
 11
154.2565543074
 21
31.5939741996
  0
LINE
  8
0
 62
7
  6
CONTINUOUS
 10
152.0327582009
 20
33.5446195022
 11
151.3770204959
 21
33.5446195022
  0
LINE
  8
0
 62
7
  6
CONTINUOUS
 10
157.4362415869
 20
31.400392081
 11
157.6096790869
 21
31.4649194539
  0
LINE
  8
0
 62
7
  6
CONTINUOUS
 10
159.4596793074
 20
31.4326557675
 11
159.575304528
 21
31.4649194539
  0
LINE
  8
0
 62
7
  6
CONTINUOUS
 10
159.4596793074
 20
31.5939741996
 11
159.228429528
 21
31.5294468267
  0
LINE
  8
0
 62
7
  6
CONTINUOUS
 10
155.1815540869
 20
30.7873819712
 11
154.8924916972
 21
30.7228545871
  0
LINE
  8
0
 62
7
  6
CONTINUOUS
 10
152.4643666972
 20
31.4649194539
 11
152.6956168074
 21
31.4971831403
  0
LINE
  8
0
 62
7
  6
CONTINUOUS
 10
152.6956168074
 20
31.626237886
 11
152.4643666972
 21
31.5939741996
  0
LINE
  8
0
 62
7
  6
CONTINUOUS
 10
150.2674918074
 20
31.4649194539
 11
150.498741835
 21
31.4971831403
  0
LINE
  8
0
 62
7
  6
CONTINUOUS
 10
156.7868565615
 20
35.0200293383
 11
157.4425942664
 21
35.0200293383
  0
LINE
  8
0
 62
7
  6
CONTINUOUS
 10
154.4299918074
 20
31.0777551716
 11
154.5456166972
 21
31.1100188581
  0
LINE
  8
0
 62
7
  6
CONTINUOUS
 10
154.4299918074
 20
31.2390736489
 11
154.1987416972
 21
31.1745462761
  0
LINE
  8
0
 62
7
  6
CONTINUOUS
 10
154.3143669177
 20
31.4326557675
 11
154.4299918074
 21
31.4649194539
  0
LINE
  8
0
 62
7
  6
CONTINUOUS
 10
150.9612418074
 20
30.6260635193
 11
151.1924917523
 21
30.6905909007
  0
LINE
  8
0
 62
7
  6
CONTINUOUS
 10
154.2565543074
 20
31.5939741996
 11
154.1409294177
 21
31.5617105132
  0
LINE
  8
0
 62
7
  6
CONTINUOUS
 10
150.2096793212
 20
31.5939741996
 11
150.0362418212
 21
31.5617105132
  0
LINE
  8
0
 62
7
  6
CONTINUOUS
 10
160.9671844304
 20
36.1675703219
 11
159.5737418074
 21
36.1675703219
  0
LINE
  8
0
 62
7
  6
CONTINUOUS
 10
157.6065286927
 20
36.1675703219
 11
157.1939573441
 21
36.1675703219
  0
LINE
  8
0
 62
7
  6
CONTINUOUS
 10
155.9671844304
 20
36.1675703219
 11
154.5737418074
 21
36.1675703219
  0
LINE
  8
0
 62
7
  6
CONTINUOUS
 10
154.245872955
 20
36.1675703219
 11
152.852430332
 21
36.1675703219
  0
LINE
  8
0
 62
7
  6
CONTINUOUS
 10
150.9671844304
 20
36.1675703219
 11
149.5737418074
 21
36.1675703219
  0
LINE
  8
0
 62
7
  6
CONTINUOUS
 10
150.1518667936
 20
31.4326557675
 11
150.2674918074
 21
31.4649194539
  0
CIRCLE
  8
0
 62
7
  6
CONTINUOUS
 10
160.2704631189
 20
38.5036358957
 40
2.0901639344
  0
ARC
  8
0
 62
7
  6
CONTINUOUS
 10
151.2130860697
 20
34.0364227809
 40
1.6393442623
 50
180.0
 51
270.0
  0
ARC
  8
0
 62
7
  6
CONTINUOUS
 10
157.6065286927
 20
34.5282260596
 40
1.6393442623
 50
0.0
 51
90.0
  0
ARC
  8
0
 62
7
  6
CONTINUOUS
 10
151.6256574183
 20
33.8724883547
 40
1.4754098361
 50
270.0
 51
326.2510114041
  0
ARC
  8
0
 62
7
  6
CONTINUOUS
 10
157.1939573441
 20
34.6921604858
 40
1.4754098361
 50
90.0
 51
146.2510114041
  0
ARC
  8
0
 62
7
  6
CONTINUOUS
 10
152.0327582009
 20
34.3642916334
 40
0.8196721311
 50
270.0
 51
360.0
  0
ARC
  8
0
 62
7
  6
CONTINUOUS
 10
156.7868565615
 20
34.2003572071
 40
0.8196721311
 50
90.0
 51
180.0
  0
ARC
  8
0
 62
7
  6
CONTINUOUS
 10
151.3770204959
 20
33.9544555678
 40
0.4098360656
 50
180.0
 51
270.0
  0
ARC
  8
0
 62
7
  6
CONTINUOUS
 10
157.4425942664
 20
34.6101932727
 40
0.4098360656
 50
0.0
 51
90.0
  0
SOLID
  8
0
 62
7
  6
CONTINUOUS
 10
156.279992028
 20
31.9488752009
 11
156.279992028
 21
32.1101936845
 12
156.5690540869
 22
31.9488752009
 13
156.5690540869
 23
32.1101936845
  0
SOLID
  8
0
 62
7
  6
CONTINUOUS
 10
150.5565542799
 20
31.6262382337
 11
150.9612418074
 21
31.5939740028
 12
150.2096793212
 22
31.5939740028
 13
150.2096793212
 23
31.5939740028
  0
SOLID
  8
0
 62
7
  6
CONTINUOUS
 10
150.0362418212
 20
31.5617111435
 11
150.2096793212
 21
31.5939740028
 12
150.9612418074
 22
31.5939740028
 13
150.9612418074
 23
31.5939740028
  0
SOLID
  8
0
 62
7
  6
CONTINUOUS
 10
150.9612418074
 20
31.5939740028
 11
151.1924917523
 21
31.5294468402
 12
150.0362418212
 22
31.5617111435
 13
150.0362418212
 23
31.5617111435
  0
SOLID
  8
0
 62
7
  6
CONTINUOUS
 10
149.8628043005
 20
31.49718259
 11
150.0362418212
 21
31.5617111435
 12
151.1924917523
 22
31.5294468402
 13
151.1924917523
 23
31.5294468402
  0
SOLID
  8
0
 62
7
  6
CONTINUOUS
 10
149.8628043005
 20
31.49718259
 11
151.1924917523
 21
31.5294468402
 12
150.498741835
 22
31.49718259
 13
150.498741835
 23
31.49718259
  0
SOLID
  8
0
 62
7
  6
CONTINUOUS
 10
150.498741835
 20
31.49718259
 11
151.1924917523
 21
31.5294468402
 12
150.9034292799
 22
31.4649197501
 13
150.9034292799
 23
31.4649197501
  0
SOLID
  8
0
 62
7
  6
CONTINUOUS
 10
151.1924917523
 20
31.5294468402
 11
151.3659292523
 21
31.4326554468
 12
150.9034292799
 22
31.4649197501
 13
150.9034292799
 23
31.4649197501
  0
SOLID
  8
0
 62
7
  6
CONTINUOUS
 10
151.0768668626
 20
31.4003926599
 11
150.9034292799
 21
31.4649197501
 12
151.3659292523
 22
31.4326554468
 13
151.3659292523
 23
31.4326554468
  0
SOLID
  8
0
 62
7
  6
CONTINUOUS
 10
151.0768668626
 20
31.4003926599
 11
151.3659292523
 21
31.4326554468
 12
151.1346793074
 22
31.3036013776
 13
151.1346793074
 23
31.3036013776
  0
SOLID
  8
0
 62
7
  6
CONTINUOUS
 10
151.3659292523
 20
31.4326554468
 11
151.4237418626
 21
31.3036013776
 12
151.1346793074
 22
31.3036013776
 13
151.1346793074
 23
31.3036013776
  0
SOLID
  8
0
 62
7
  6
CONTINUOUS
 10
152.4643666972
 20
31.5939739754
 11
152.6956168074
 21
31.6262382787
 12
152.9268669177
 22
31.6262382787
 13
152.9268669177
 23
31.6262382787
  0
SOLID
  8
0
 62
7
  6
CONTINUOUS
 10
152.9268669177
 20
31.6262382787
 11
153.1003044177
 21
31.5939739754
 12
152.4643666972
 22
31.5939739754
 13
152.4643666972
 23
31.5939739754
  0
SOLID
  8
0
 62
7
  6
CONTINUOUS
 10
152.2909293626
 20
31.5294468852
 11
152.4643666972
 21
31.5939739754
 12
153.1003044177
 22
31.5939739754
 13
153.1003044177
 23
31.5939739754
  0
SOLID
  8
0
 62
7
  6
CONTINUOUS
 10
153.1003044177
 20
31.5939739754
 11
153.2737419177
 21
31.5294468852
 12
152.2909293626
 22
31.5294468852
 13
152.2909293626
 23
31.5294468852
  0
SOLID
  8
0
 62
7
  6
CONTINUOUS
 10
153.2737419177
 20
31.5294468852
 11
152.6956168074
 21
31.4971825369
 12
152.2909293626
 22
31.5294468852
 13
152.2909293626
 23
31.5294468852
  0
SOLID
  8
0
 62
7
  6
CONTINUOUS
 10
152.1753043074
 20
31.4649197951
 11
152.2909293626
 21
31.5294468852
 12
152.6956168074
 22
31.4971825369
 13
152.6956168074
 23
31.4971825369
  0
SOLID
  8
0
 62
7
  6
CONTINUOUS
 10
152.6956168074
 20
31.4971825369
 11
152.4643666972
 21
31.4649197951
 12
152.1753043074
 22
31.4649197951
 13
152.1753043074
 23
31.4649197951
  0
SOLID
  8
0
 62
7
  6
CONTINUOUS
 10
152.6956168074
 20
31.4971825369
 11
153.2737419177
 21
31.5294468852
 12
152.9268669177
 22
31.4649197951
 13
152.9268669177
 23
31.4649197951
  0
SOLID
  8
0
 62
7
  6
CONTINUOUS
 10
153.2737419177
 20
31.5294468852
 11
153.3893668074
 21
31.4649197951
 12
152.9268669177
 22
31.4649197951
 13
152.9268669177
 23
31.4649197951
  0
SOLID
  8
0
 62
7
  6
CONTINUOUS
 10
153.0424918074
 20
31.4326554468
 11
152.9268669177
 21
31.4649197951
 12
153.3893668074
 22
31.4649197951
 13
153.3893668074
 23
31.4649197951
  0
SOLID
  8
0
 62
7
  6
CONTINUOUS
 10
153.3893668074
 20
31.4649197951
 11
153.4471794177
 21
31.4003927049
 12
153.0424918074
 22
31.4326554468
 13
153.0424918074
 23
31.4326554468
  0
SOLID
  8
0
 62
7
  6
CONTINUOUS
 10
153.1581166972
 20
31.3681283566
 11
153.0424918074
 21
31.4326554468
 12
153.4471794177
 22
31.4003927049
 13
153.4471794177
 23
31.4003927049
  0
SOLID
  8
0
 62
7
  6
CONTINUOUS
 10
153.1581166972
 20
31.3681283566
 11
153.4471794177
 21
31.4003927049
 12
153.2159293074
 22
31.2390742213
 13
153.2159293074
 23
31.2390742213
  0
SOLID
  8
0
 62
7
  6
CONTINUOUS
 10
153.4471794177
 20
31.4003927049
 11
153.5049916972
 21
31.2390742213
 12
153.2159293074
 22
31.2390742213
 13
153.2159293074
 23
31.2390742213
  0
SOLID
  8
0
 62
7
  6
CONTINUOUS
 10
152.4643666972
 20
31.4649197951
 11
152.2909293626
 21
31.4003927049
 12
152.1753043074
 22
31.4649197951
 13
152.1753043074
 23
31.4649197951
  0
SOLID
  8
0
 62
7
  6
CONTINUOUS
 10
152.2909293626
 20
31.4003927049
 11
152.1753043074
 21
31.3358640533
 12
152.1753043074
 22
31.4649197951
 13
152.1753043074
 23
31.4649197951
  0
SOLID
  8
0
 62
7
  6
CONTINUOUS
 10
152.1753043074
 20
31.3358640533
 11
151.8862417523
 21
30.5938002869
 12
152.1753043074
 22
31.4649197951
 13
152.1753043074
 23
31.4649197951
  0
SOLID
  8
0
 62
7
  6
CONTINUOUS
 10
152.1753043074
 20
31.4649197951
 11
151.8862417523
 21
30.5938002869
 12
152.1753043074
 22
32.1101937295
 13
152.1753043074
 23
32.1101937295
  0
SOLID
  8
0
 62
7
  6
CONTINUOUS
 10
151.8862417523
 20
30.5938002869
 11
151.8862417523
 21
32.1101937295
 12
152.1753043074
 22
32.1101937295
 13
152.1753043074
 23
32.1101937295
  0
SOLID
  8
0
 62
7
  6
CONTINUOUS
 10
152.1753043074
 20
31.3358640533
 11
152.1753043074
 21
30.5938002869
 12
151.8862417523
 22
30.5938002869
 13
151.8862417523
 23
30.5938002869
  0
SOLID
  8
0
 62
7
  6
CONTINUOUS
 10
153.2159293074
 20
30.5938002869
 11
153.2159293074
 21
31.2390742213
 12
153.5049916972
 22
31.2390742213
 13
153.5049916972
 23
31.2390742213
  0
SOLID
  8
0
 62
7
  6
CONTINUOUS
 10
153.5049916972
 20
31.2390742213
 11
153.5049916972
 21
30.5938002869
 12
153.2159293074
 22
30.5938002869
 13
153.2159293074
 23
30.5938002869
  0
SOLID
  8
0
 62
7
  6
CONTINUOUS
 10
154.2565543074
 20
31.5939738288
 11
154.6612419177
 21
31.6262385959
 12
155.0081169177
 22
31.6262385959
 13
155.0081169177
 23
31.6262385959
  0
SOLID
  8
0
 62
7
  6
CONTINUOUS
 10
155.0081169177
 20
31.6262385959
 11
155.3549915869
 21
31.5939738288
 12
154.2565543074
 22
31.5939738288
 13
154.2565543074
 23
31.5939738288
  0
SOLID
  8
0
 62
7
  6
CONTINUOUS
 10
154.1409294177
 20
31.5617111435
 11
154.2565543074
 21
31.5939738288
 12
155.3549915869
 22
31.5939738288
 13
155.3549915869
 23
31.5939738288
  0
SOLID
  8
0
 62
7
  6
CONTINUOUS
 10
155.3549915869
 20
31.5939738288
 11
155.5284290869
 21
31.5294468402
 12
154.1409294177
 22
31.5617111435
 13
154.1409294177
 23
31.5617111435
  0
SOLID
  8
0
 62
7
  6
CONTINUOUS
 10
154.0253041972
 20
31.4971826249
 11
154.1409294177
 21
31.5617111435
 12
155.5284290869
 22
31.5294468402
 13
155.5284290869
 23
31.5294468402
  0
SOLID
  8
0
 62
7
  6
CONTINUOUS
 10
154.0253041972
 20
31.4971826249
 11
155.5284290869
 21
31.5294468402
 12
154.6612419177
 22
31.4971826249
 13
154.6612419177
 23
31.4971826249
  0
SOLID
  8
0
 62
7
  6
CONTINUOUS
 10
154.6612419177
 20
31.4971826249
 11
155.5284290869
 21
31.5294468402
 12
155.0081169177
 22
31.4971826249
 13
155.0081169177
 23
31.4971826249
  0
SOLID
  8
0
 62
7
  6
CONTINUOUS
 10
155.0081169177
 20
31.4971826249
 11
155.5284290869
 21
31.5294468402
 12
155.239367028
 22
31.4649194065
 13
155.239367028
 23
31.4649194065
  0
SOLID
  8
0
 62
7
  6
CONTINUOUS
 10
155.5284290869
 20
31.5294468402
 11
155.6440543074
 21
31.4649194065
 12
155.239367028
 22
31.4649194065
 13
155.239367028
 23
31.4649194065
  0
SOLID
  8
0
 62
7
  6
CONTINUOUS
 10
153.9674919177
 20
31.4326554138
 11
154.0253041972
 21
31.4971826249
 12
154.6612419177
 22
31.4971826249
 13
154.6612419177
 23
31.4971826249
  0
SOLID
  8
0
 62
7
  6
CONTINUOUS
 10
155.3549915869
 20
31.4326554138
 11
155.239367028
 21
31.4649194065
 12
155.6440543074
 22
31.4649194065
 13
155.6440543074
 23
31.4649194065
  0
SOLID
  8
0
 62
7
  6
CONTINUOUS
 10
155.3549915869
 20
31.4326554138
 11
155.6440543074
 21
31.4649194065
 12
155.412804528
 22
31.3681282026
 13
155.412804528
 23
31.3681282026
  0
SOLID
  8
0
 62
7
  6
CONTINUOUS
 10
155.6440543074
 20
31.4649194065
 11
155.7018665869
 21
31.3681282026
 12
155.412804528
 22
31.3681282026
 13
155.412804528
 23
31.3681282026
  0
SOLID
  8
0
 62
7
  6
CONTINUOUS
 10
155.412804528
 20
31.2713369632
 11
155.412804528
 21
31.3681282026
 12
155.7018665869
 22
31.3681282026
 13
155.7018665869
 23
31.3681282026
  0
SOLID
  8
0
 62
7
  6
CONTINUOUS
 10
155.412804528
 20
31.2713369632
 11
155.7018665869
 21
31.3681282026
 12
155.412804528
 22
31.1422827828
 13
155.412804528
 23
31.1422827828
  0
SOLID
  8
0
 62
7
  6
CONTINUOUS
 10
155.412804528
 20
31.1422827828
 11
155.7018665869
 21
31.3681282026
 12
155.412804528
 22
30.9487004259
 13
155.412804528
 23
30.9487004259
  0
SOLID
  8
0
 62
7
  6
CONTINUOUS
 10
155.7018665869
 20
31.3681282026
 11
155.7018665869
 21
30.8519086025
 12
155.412804528
 22
30.9487004259
 13
155.412804528
 23
30.9487004259
  0
SOLID
  8
0
 62
7
  6
CONTINUOUS
 10
157.6096790869
 20
31.5939736268
 11
157.840929528
 21
31.6262383465
 12
158.0721793074
 22
31.6262383465
 13
158.0721793074
 23
31.6262383465
  0
SOLID
  8
0
 62
7
  6
CONTINUOUS
 10
158.0721793074
 20
31.6262383465
 11
158.2456168074
 21
31.5939736268
 12
157.6096790869
 22
31.5939736268
 13
157.6096790869
 23
31.5939736268
  0
SOLID
  8
0
 62
7
  6
CONTINUOUS
 10
157.4362415869
 20
31.5294472848
 11
157.6096790869
 21
31.5939736268
 12
158.2456168074
 22
31.5939736268
 13
158.2456168074
 23
31.5939736268
  0
SOLID
  8
0
 62
7
  6
CONTINUOUS
 10
158.2456168074
 20
31.5939736268
 11
158.4190543074
 21
31.5294472848
 12
157.4362415869
 22
31.5294472848
 13
157.4362415869
 23
31.5294472848
  0
SOLID
  8
0
 62
7
  6
CONTINUOUS
 10
158.4190543074
 20
31.5294472848
 11
157.840929528
 21
31.4971825369
 12
157.4362415869
 22
31.5294472848
 13
157.4362415869
 23
31.5294472848
  0
SOLID
  8
0
 62
7
  6
CONTINUOUS
 10
157.320617028
 20
31.4649199103
 11
157.4362415869
 21
31.5294472848
 12
157.840929528
 22
31.4971825369
 13
157.840929528
 23
31.4971825369
  0
SOLID
  8
0
 62
7
  6
CONTINUOUS
 10
157.840929528
 20
31.4971825369
 11
157.6096790869
 21
31.4649199103
 12
157.320617028
 22
31.4649199103
 13
157.320617028
 23
31.4649199103
  0
SOLID
  8
0
 62
7
  6
CONTINUOUS
 10
157.840929528
 20
31.4971825369
 11
158.4190543074
 21
31.5294472848
 12
158.0721793074
 22
31.4649199103
 13
158.0721793074
 23
31.4649199103
  0
SOLID
  8
0
 62
7
  6
CONTINUOUS
 10
158.4190543074
 20
31.5294472848
 11
158.534679528
 21
31.4649199103
 12
158.0721793074
 22
31.4649199103
 13
158.0721793074
 23
31.4649199103
  0
SOLID
  8
0
 62
7
  6
CONTINUOUS
 10
158.187804528
 20
31.4326554468
 11
158.0721793074
 21
31.4649199103
 12
158.534679528
 22
31.4649199103
 13
158.534679528
 23
31.4649199103
  0
SOLID
  8
0
 62
7
  6
CONTINUOUS
 10
158.187804528
 20
31.4326554468
 11
158.534679528
 21
31.4649199103
 12
158.3034290869
 22
31.3681288486
 13
158.3034290869
 23
31.3681288486
  0
SOLID
  8
0
 62
7
  6
CONTINUOUS
 10
158.534679528
 20
31.4649199103
 11
158.5924918074
 21
31.3681288486
 12
158.3034290869
 22
31.3681288486
 13
158.3034290869
 23
31.3681288486
  0
SOLID
  8
0
 62
7
  6
CONTINUOUS
 10
158.361242028
 20
31.2068093799
 11
158.3034290869
 21
31.3681288486
 12
158.5924918074
 22
31.3681288486
 13
158.5924918074
 23
31.3681288486
  0
SOLID
  8
0
 62
7
  6
CONTINUOUS
 10
158.5924918074
 20
31.3681288486
 11
158.6503040869
 21
31.2068093799
 12
158.361242028
 22
31.2068093799
 13
158.361242028
 23
31.2068093799
  0
SOLID
  8
0
 62
7
  6
CONTINUOUS
 10
157.6096790869
 20
31.4649199103
 11
157.4362415869
 21
31.4003926599
 12
157.320617028
 22
31.4649199103
 13
157.320617028
 23
31.4649199103
  0
SOLID
  8
0
 62
7
  6
CONTINUOUS
 10
157.4362415869
 20
31.4003926599
 11
157.320617028
 21
31.3358640533
 12
157.320617028
 22
31.4649199103
 13
157.320617028
 23
31.4649199103
  0
SOLID
  8
0
 62
7
  6
CONTINUOUS
 10
157.320617028
 20
31.3358640533
 11
157.0315543074
 21
30.5938003547
 12
157.320617028
 22
31.4649199103
 13
157.320617028
 23
31.4649199103
  0
SOLID
  8
0
 62
7
  6
CONTINUOUS
 10
157.320617028
 20
31.4649199103
 11
157.0315543074
 21
30.5938003547
 12
157.320617028
 22
31.6262383465
 13
157.320617028
 23
31.6262383465
  0
SOLID
  8
0
 62
7
  6
CONTINUOUS
 10
157.0315543074
 20
30.5938003547
 11
157.0315543074
 21
31.6262383465
 12
157.320617028
 22
31.6262383465
 13
157.320617028
 23
31.6262383465
  0
SOLID
  8
0
 62
7
  6
CONTINUOUS
 10
157.320617028
 20
31.3358640533
 11
157.320617028
 21
30.5938003547
 12
157.0315543074
 22
30.5938003547
 13
157.0315543074
 23
30.5938003547
  0
SOLID
  8
0
 62
7
  6
CONTINUOUS
 10
158.361242028
 20
30.5938003547
 11
158.361242028
 21
31.2068093799
 12
158.6503040869
 22
31.2068093799
 13
158.6503040869
 23
31.2068093799
  0
SOLID
  8
0
 62
7
  6
CONTINUOUS
 10
158.6503040869
 20
31.2068093799
 11
158.6503040869
 21
30.5938003547
 12
158.361242028
 22
30.5938003547
 13
158.361242028
 23
30.5938003547
  0
SOLID
  8
0
 62
7
  6
CONTINUOUS
 10
159.4596793074
 20
31.5939739474
 11
159.8065543074
 21
31.6262381969
 12
160.1534293074
 22
31.6262381969
 13
160.1534293074
 23
31.6262381969
  0
SOLID
  8
0
 62
7
  6
CONTINUOUS
 10
160.1534293074
 20
31.6262381969
 11
160.5003043074
 21
31.5939739474
 12
159.4596793074
 22
31.5939739474
 13
159.4596793074
 23
31.5939739474
  0
SOLID
  8
0
 62
7
  6
CONTINUOUS
 10
159.228429528
 20
31.5294468402
 11
159.4596793074
 21
31.5939739474
 12
160.5003043074
 22
31.5939739474
 13
160.5003043074
 23
31.5939739474
  0
SOLID
  8
0
 62
7
  6
CONTINUOUS
 10
159.228429528
 20
31.5294468402
 11
160.5003043074
 21
31.5939739304
 12
160.6737418074
 22
31.5617111435
 13
160.6737418074
 23
31.5617111435
  0
SOLID
  8
0
 62
7
  6
CONTINUOUS
 10
159.228429528
 20
31.5294468402
 11
160.6737418074
 21
31.5617111435
 12
159.8065543074
 22
31.4971825592
 13
159.8065543074
 23
31.4971825592
  0
SOLID
  8
0
 62
7
  6
CONTINUOUS
 10
159.8065543074
 20
31.4971825592
 11
160.6737418074
 21
31.5617111435
 12
160.1534293074
 22
31.4971825592
 13
160.1534293074
 23
31.4971825592
  0
SOLID
  8
0
 62
7
  6
CONTINUOUS
 10
160.6737418074
 20
31.5617111435
 11
160.8471793074
 21
31.4971825592
 12
160.1534293074
 22
31.4971825592
 13
160.1534293074
 23
31.4971825592
  0
SOLID
  8
0
 62
7
  6
CONTINUOUS
 10
160.5003043074
 20
31.4649197501
 11
160.1534293074
 21
31.4971825592
 12
160.8471793074
 22
31.4971825592
 13
160.8471793074
 23
31.4971825592
  0
SOLID
  8
0
 62
7
  6
CONTINUOUS
 10
159.1128043074
 20
31.4326555427
 11
159.228429528
 21
31.5294468402
 12
159.8065543074
 22
31.4971825592
 13
159.8065543074
 23
31.4971825592
  0
SOLID
  8
0
 62
7
  6
CONTINUOUS
 10
160.5003043074
 20
31.4649197501
 11
160.8471793074
 21
31.4971825592
 12
160.615929528
 22
31.4326555427
 13
160.615929528
 23
31.4326555427
  0
SOLID
  8
0
 62
7
  6
CONTINUOUS
 10
160.615929528
 20
31.4326555427
 11
160.8471793074
 21
31.4971825592
 12
160.6737418074
 22
31.3681283005
 13
160.6737418074
 23
31.3681283005
  0
SOLID
  8
0
 62
7
  6
CONTINUOUS
 10
160.8471793074
 20
31.4971825592
 11
160.9628038663
 21
31.3681283005
 12
160.6737418074
 22
31.3681283005
 13
160.6737418074
 23
31.3681283005
  0
SOLID
  8
0
 62
7
  6
CONTINUOUS
 10
150.2674918074
 20
31.4649197501
 11
149.7471793074
 21
31.4326554237
 12
150.498741835
 22
31.4971824493
 13
150.498741835
 23
31.4971824493
  0
SOLID
  8
0
 62
7
  6
CONTINUOUS
 10
149.7471793074
 20
31.4326554237
 11
149.8628043005
 21
31.4971824493
 12
150.498741835
 22
31.4971824493
 13
150.498741835
 23
31.4971824493
  0
SOLID
  8
0
 62
7
  6
CONTINUOUS
 10
150.2674918074
 20
31.4649197501
 11
150.1518667936
 21
31.4326554237
 12
149.7471793074
 22
31.4326554237
 13
149.7471793074
 23
31.4326554237
  0
SOLID
  8
0
 62
7
  6
CONTINUOUS
 10
149.6315543091
 20
31.3036012664
 11
149.7471793074
 21
31.4326554237
 12
150.1518667936
 22
31.4326554237
 13
150.1518667936
 23
31.4326554237
  0
SOLID
  8
0
 62
7
  6
CONTINUOUS
 10
153.9674919177
 20
31.4326554237
 11
154.6612419177
 21
31.4971825369
 12
154.4299918074
 22
31.4649197501
 13
154.4299918074
 23
31.4649197501
  0
SOLID
  8
0
 62
7
  6
CONTINUOUS
 10
154.4299918074
 20
31.4649197501
 11
154.3143669177
 21
31.4326554237
 12
153.9674919177
 22
31.4326554237
 13
153.9674919177
 23
31.4326554237
  0
SOLID
  8
0
 62
7
  6
CONTINUOUS
 10
153.9674919177
 20
31.3681283335
 11
153.9674919177
 21
31.4326554237
 12
154.3143669177
 22
31.4326554237
 13
154.3143669177
 23
31.4326554237
  0
SOLID
  8
0
 62
7
  6
CONTINUOUS
 10
154.3143669177
 20
31.4326554237
 11
154.2565543074
 21
31.3681283335
 12
153.9674919177
 22
31.3681283335
 13
153.9674919177
 23
31.3681283335
  0
SOLID
  8
0
 62
7
  6
CONTINUOUS
 10
159.1128043074
 20
31.4326555528
 11
159.8065543074
 21
31.4971825369
 12
159.575304528
 22
31.4649197501
 13
159.575304528
 23
31.4649197501
  0
SOLID
  8
0
 62
7
  6
CONTINUOUS
 10
159.575304528
 20
31.4649197501
 11
159.4596793074
 21
31.4326555528
 12
159.1128043074
 22
31.4326555528
 13
159.1128043074
 23
31.4326555528
  0
SOLID
  8
0
 62
7
  6
CONTINUOUS
 10
159.1128043074
 20
31.3681284626
 11
159.1128043074
 21
31.4326555528
 12
159.4596793074
 22
31.4326555528
 13
159.4596793074
 23
31.4326555528
  0
SOLID
  8
0
 62
7
  6
CONTINUOUS
 10
159.4596793074
 20
31.4326555528
 11
159.401867028
 21
31.3681284626
 12
159.1128043074
 22
31.3681284626
 13
159.1128043074
 23
31.3681284626
  0
SOLID
  8
0
 62
7
  6
CONTINUOUS
 10
159.228429528
 20
31.2390741763
 11
159.1128043074
 21
31.3681284626
 12
159.401867028
 22
31.3681284626
 13
159.401867028
 23
31.3681284626
  0
SOLID
  8
0
 62
7
  6
CONTINUOUS
 10
149.6315543091
 20
31.3036012664
 11
150.1518667936
 21
31.4326554468
 12
149.9784292936
 22
31.3358640533
 13
149.9784292936
 23
31.3358640533
  0
SOLID
  8
0
 62
7
  6
CONTINUOUS
 10
149.9784292936
 20
31.3358640533
 11
149.9206168074
 21
31.2713369632
 12
149.6315543091
 22
31.3036012664
 13
149.6315543091
 23
31.3036012664
  0
SOLID
  8
0
 62
7
  6
CONTINUOUS
 10
149.5737418074
 20
31.1100184796
 11
149.6315543091
 21
31.3036012664
 12
149.9206168074
 22
31.2713369632
 13
149.9206168074
 23
31.2713369632
  0
SOLID
  8
0
 62
7
  6
CONTINUOUS
 10
154.4299918074
 20
31.2390741763
 11
154.7768668074
 21
31.271336924
 12
155.412804528
 22
31.271336924
 13
155.412804528
 23
31.271336924
  0
SOLID
  8
0
 62
7
  6
CONTINUOUS
 10
154.4299918074
 20
31.2390741763
 11
155.412804528
 21
31.271336924
 12
154.1987416972
 22
31.1745462761
 13
154.1987416972
 23
31.1745462761
  0
SOLID
  8
0
 62
7
  6
CONTINUOUS
 10
154.1987416972
 20
31.1745462761
 11
155.412804528
 21
31.271336924
 12
154.7768668074
 22
31.1422827436
 13
154.7768668074
 23
31.1422827436
  0
SOLID
  8
0
 62
7
  6
CONTINUOUS
 10
155.412804528
 20
31.271336924
 11
155.412804528
 21
31.1422827436
 12
154.7768668074
 22
31.1422827436
 13
154.7768668074
 23
31.1422827436
  0
SOLID
  8
0
 62
7
  6
CONTINUOUS
 10
159.228429528
 20
31.2390745501
 11
159.401867028
 21
31.3681283566
 12
159.4596793074
 22
31.3036012664
 13
159.4596793074
 23
31.3036012664
  0
SOLID
  8
0
 62
7
  6
CONTINUOUS
 10
159.4596793074
 20
31.3036012664
 11
159.6331168074
 21
31.2390745501
 12
159.228429528
 22
31.2390745501
 13
159.228429528
 23
31.2390745501
  0
SOLID
  8
0
 62
7
  6
CONTINUOUS
 10
159.4596793074
 20
31.1422827828
 11
159.228429528
 21
31.2390745501
 12
159.6331168074
 22
31.2390745501
 13
159.6331168074
 23
31.2390745501
  0
SOLID
  8
0
 62
7
  6
CONTINUOUS
 10
159.6331168074
 20
31.2390745501
 11
160.615929528
 21
31.0777556927
 12
159.4596793074
 22
31.1422827828
 13
159.4596793074
 23
31.1422827828
  0
SOLID
  8
0
 62
7
  6
CONTINUOUS
 10
160.442492028
 20
30.9809646623
 11
159.4596793074
 21
31.1422827828
 12
160.615929528
 22
31.0777556927
 13
160.615929528
 23
31.0777556927
  0
SOLID
  8
0
 62
7
  6
CONTINUOUS
 10
160.615929528
 20
31.0777556927
 11
160.8471793074
 21
30.9809646623
 12
160.442492028
 22
30.9809646623
 13
160.442492028
 23
30.9809646623
  0
SOLID
  8
0
 62
7
  6
CONTINUOUS
 10
160.615929528
 20
30.9164372091
 11
160.442492028
 21
30.9809646623
 12
160.8471793074
 22
30.9809646623
 13
160.8471793074
 23
30.9809646623
  0
SOLID
  8
0
 62
7
  6
CONTINUOUS
 10
160.615929528
 20
30.9164372091
 11
160.8471793074
 21
30.9809646623
 12
160.6737418074
 22
30.8519089441
 13
160.6737418074
 23
30.8519089441
  0
SOLID
  8
0
 62
7
  6
CONTINUOUS
 10
160.8471793074
 20
30.9809646623
 11
160.9628038663
 21
30.8519089441
 12
160.6737418074
 22
30.8519089441
 13
160.6737418074
 23
30.8519089441
  0
SOLID
  8
0
 62
7
  6
CONTINUOUS
 10
160.615929528
 20
30.7873818593
 11
160.6737418074
 21
30.8519089441
 12
160.9628038663
 22
30.8519089441
 13
160.9628038663
 23
30.8519089441
  0
SOLID
  8
0
 62
7
  6
CONTINUOUS
 10
160.9628038663
 20
30.8519089441
 11
160.9628038663
 21
30.7873818593
 12
160.615929528
 22
30.7873818593
 13
160.615929528
 23
30.7873818593
  0
SOLID
  8
0
 62
7
  6
CONTINUOUS
 10
160.5003043074
 20
30.7551187255
 11
160.615929528
 21
30.7873818593
 12
160.9628038663
 22
30.7873818593
 13
160.9628038663
 23
30.7873818593
  0
SOLID
  8
0
 62
7
  6
CONTINUOUS
 10
160.5003043074
 20
30.7551187255
 11
160.9628038663
 21
30.7873818593
 12
160.269054528
 22
30.7228547745
 13
160.269054528
 23
30.7228547745
  0
SOLID
  8
0
 62
7
  6
CONTINUOUS
 10
160.9628038663
 20
30.7873818593
 11
160.8471793074
 21
30.6905916353
 12
160.269054528
 22
30.7228547745
 13
160.269054528
 23
30.7228547745
  0
SOLID
  8
0
 62
7
  6
CONTINUOUS
 10
160.8471793074
 20
30.6905916353
 11
159.401867028
 21
30.658327332
 12
160.269054528
 22
30.7228547745
 13
160.269054528
 23
30.7228547745
  0
SOLID
  8
0
 62
7
  6
CONTINUOUS
 10
160.269054528
 20
30.7228547745
 11
159.401867028
 21
30.658327332
 12
159.922179528
 22
30.7228547745
 13
159.922179528
 23
30.7228547745
  0
SOLID
  8
0
 62
7
  6
CONTINUOUS
 10
159.401867028
 20
30.658327332
 11
159.228429528
 21
30.7228547745
 12
159.922179528
 22
30.7228547745
 13
159.922179528
 23
30.7228547745
  0
SOLID
  8
0
 62
7
  6
CONTINUOUS
 10
159.401867028
 20
30.658327332
 11
160.8471793074
 21
30.6905916353
 12
159.575304528
 22
30.6260629858
 13
159.575304528
 23
30.6260629858
  0
SOLID
  8
0
 62
7
  6
CONTINUOUS
 10
160.8471793074
 20
30.6905916353
 11
160.615929528
 21
30.6260629858
 12
159.575304528
 22
30.6260629858
 13
159.575304528
 23
30.6260629858
  0
SOLID
  8
0
 62
7
  6
CONTINUOUS
 10
159.922179528
 20
30.5938006049
 11
159.575304528
 21
30.6260629858
 12
160.615929528
 22
30.6260629858
 13
160.615929528
 23
30.6260629858
  0
SOLID
  8
0
 62
7
  6
CONTINUOUS
 10
160.615929528
 20
30.6260629858
 11
160.269054528
 21
30.5938006049
 12
159.922179528
 22
30.5938006049
 13
159.922179528
 23
30.5938006049
  0
SOLID
  8
0
 62
7
  6
CONTINUOUS
 10
149.5737418074
 20
31.1100184796
 11
149.9206168074
 21
31.2713369632
 12
149.8628043005
 22
31.1422827828
 13
149.8628043005
 23
31.1422827828
  0
SOLID
  8
0
 62
7
  6
CONTINUOUS
 10
149.8628043005
 20
31.1422827828
 11
149.8628043005
 21
31.0454914852
 12
149.5737418074
 22
31.1100184796
 13
149.5737418074
 23
31.1100184796
  0
SOLID
  8
0
 62
7
  6
CONTINUOUS
 10
149.6315543091
 20
30.9164372091
 11
149.5737418074
 21
31.1100184796
 12
149.8628043005
 22
31.0454914852
 13
149.8628043005
 23
31.0454914852
  0
SOLID
  8
0
 62
7
  6
CONTINUOUS
 10
149.8628043005
 20
31.0454914852
 11
149.9784292936
 21
30.8841729058
 12
149.6315543091
 22
30.9164372091
 13
149.6315543091
 23
30.9164372091
  0
SOLID
  8
0
 62
7
  6
CONTINUOUS
 10
149.7471793074
 20
30.7873813202
 11
149.6315543091
 21
30.9164372091
 12
149.9784292936
 22
30.8841729058
 13
149.9784292936
 23
30.8841729058
  0
SOLID
  8
0
 62
7
  6
CONTINUOUS
 10
149.9784292936
 20
30.8841729058
 11
150.1518667936
 21
30.7873813202
 12
149.7471793074
 22
30.7873813202
 13
149.7471793074
 23
30.7873813202
  0
SOLID
  8
0
 62
7
  6
CONTINUOUS
 10
149.8628043005
 20
30.7228547004
 11
149.7471793074
 21
30.7873813202
 12
150.1518667936
 22
30.7873813202
 13
150.1518667936
 23
30.7873813202
  0
SOLID
  8
0
 62
7
  6
CONTINUOUS
 10
150.1518667936
 20
30.7873813202
 11
150.498741835
 21
30.7228547004
 12
149.8628043005
 22
30.7228547004
 13
149.8628043005
 23
30.7228547004
  0
SOLID
  8
0
 62
7
  6
CONTINUOUS
 10
150.0362418212
 20
30.658327332
 11
149.8628043005
 21
30.7228547004
 12
150.498741835
 22
30.7228547004
 13
150.498741835
 23
30.7228547004
  0
SOLID
  8
0
 62
7
  6
CONTINUOUS
 10
154.0831168074
 20
31.1100184386
 11
154.1987416972
 21
31.1745462761
 12
154.7768668074
 22
31.1422827828
 13
154.7768668074
 23
31.1422827828
  0
SOLID
  8
0
 62
7
  6
CONTINUOUS
 10
154.7768668074
 20
31.1422827828
 11
154.5456166972
 21
31.1100184386
 12
154.0831168074
 22
31.1100184386
 13
154.0831168074
 23
31.1100184386
  0
SOLID
  8
0
 62
7
  6
CONTINUOUS
 10
153.9674919177
 20
30.9809642992
 11
154.0831168074
 21
31.1100184386
 12
154.5456166972
 22
31.1100184386
 13
154.5456166972
 23
31.1100184386
  0
SOLID
  8
0
 62
7
  6
CONTINUOUS
 10
154.3143669177
 20
31.0132277988
 11
153.9674919177
 21
30.9809642992
 12
154.4299918074
 22
31.0777556927
 13
154.4299918074
 23
31.0777556927
  0
SOLID
  8
0
 62
7
  6
CONTINUOUS
 10
153.9674919177
 20
30.9809642992
 11
154.5456166972
 21
31.1100184796
 12
154.4299918074
 22
31.0777556927
 13
154.4299918074
 23
31.0777556927
  0
SOLID
  8
0
 62
7
  6
CONTINUOUS
 10
154.3143669177
 20
31.0132277988
 11
154.2565543074
 21
30.9164372091
 12
153.9674919177
 22
30.9809642992
 13
153.9674919177
 23
30.9809642992
  0
SOLID
  8
0
 62
7
  6
CONTINUOUS
 10
153.9674919177
 20
30.8841729058
 11
153.9674919177
 21
30.9809642992
 12
154.2565543074
 22
30.9164372091
 13
154.2565543074
 23
30.9164372091
  0
SOLID
  8
0
 62
7
  6
CONTINUOUS
 10
154.2565543074
 20
30.9164372091
 11
154.2565543074
 21
30.8519086025
 12
153.9674919177
 22
30.8841729058
 13
153.9674919177
 23
30.8841729058
  0
SOLID
  8
0
 62
7
  6
CONTINUOUS
 10
154.0253041972
 20
30.7551187255
 11
153.9674919177
 21
30.8841729058
 12
154.2565543074
 22
30.8519086025
 13
154.2565543074
 23
30.8519086025
  0
SOLID
  8
0
 62
7
  6
CONTINUOUS
 10
155.412804528
 20
30.9487004259
 11
155.7018665869
 21
30.8519086025
 12
155.3549915869
 22
30.8841729058
 13
155.3549915869
 23
30.8841729058
  0
SOLID
  8
0
 62
7
  6
CONTINUOUS
 10
155.1815540869
 20
30.7873815123
 11
155.3549915869
 21
30.8841729058
 12
155.7018665869
 22
30.8519086025
 13
155.7018665869
 23
30.8519086025
  0
SOLID
  8
0
 62
7
  6
CONTINUOUS
 10
155.1815540869
 20
30.7873815123
 11
155.7018665869
 21
30.8519086025
 12
155.412804528
 22
30.7551187255
 13
155.412804528
 23
30.7551187255
  0
SOLID
  8
0
 62
7
  6
CONTINUOUS
 10
155.7018665869
 20
30.8519086025
 11
155.759679528
 21
30.6905916353
 12
155.412804528
 22
30.7551187255
 13
155.412804528
 23
30.7551187255
  0
SOLID
  8
0
 62
7
  6
CONTINUOUS
 10
155.4706168074
 20
30.658327332
 11
155.412804528
 21
30.7551187255
 12
155.759679528
 22
30.6905916353
 13
155.759679528
 23
30.6905916353
  0
SOLID
  8
0
 62
7
  6
CONTINUOUS
 10
155.4706168074
 20
30.658327332
 11
155.759679528
 21
30.6905916353
 12
155.5284290869
 22
30.5938002079
 13
155.5284290869
 23
30.5938002079
  0
SOLID
  8
0
 62
7
  6
CONTINUOUS
 10
155.759679528
 20
30.6905916353
 11
155.8174918074
 21
30.5938002079
 12
155.5284290869
 22
30.5938002079
 13
155.5284290869
 23
30.5938002079
  0
SOLID
  8
0
 62
7
  6
CONTINUOUS
 10
151.0768668626
 20
30.8196456577
 11
151.1346793074
 21
30.9164373395
 12
151.4237418626
 22
30.9164373395
 13
151.4237418626
 23
30.9164373395
  0
SOLID
  8
0
 62
7
  6
CONTINUOUS
 10
151.4237418626
 20
30.9164373395
 11
151.3659292523
 21
30.7873815123
 12
151.0768668626
 22
30.8196456577
 13
151.0768668626
 23
30.8196456577
  0
SOLID
  8
0
 62
7
  6
CONTINUOUS
 10
150.9034292799
 20
30.7551187255
 11
151.0768668626
 21
30.8196456577
 12
151.3659292523
 22
30.7873815123
 13
151.3659292523
 23
30.7873815123
  0
SOLID
  8
0
 62
7
  6
CONTINUOUS
 10
150.9034292799
 20
30.7551187255
 11
151.3659292523
 21
30.7873815123
 12
150.498741835
 22
30.7228544222
 13
150.498741835
 23
30.7228544222
  0
SOLID
  8
0
 62
7
  6
CONTINUOUS
 10
151.3659292523
 20
30.7873815123
 11
151.1924917523
 21
30.6905916353
 12
150.498741835
 22
30.7228544222
 13
150.498741835
 23
30.7228544222
  0
SOLID
  8
0
 62
7
  6
CONTINUOUS
 10
150.0362418212
 20
30.658327332
 11
150.498741835
 21
30.7228544222
 12
151.1924917523
 22
30.6905916353
 13
151.1924917523
 23
30.6905916353
  0
SOLID
  8
0
 62
7
  6
CONTINUOUS
 10
150.0362418212
 20
30.658327332
 11
151.1924917523
 21
30.6905916353
 12
150.2096793212
 22
30.6260631011
 13
150.2096793212
 23
30.6260631011
  0
SOLID
  8
0
 62
7
  6
CONTINUOUS
 10
151.1924917523
 20
30.6905916353
 11
150.9612418074
 21
30.6260631011
 12
150.2096793212
 22
30.6260631011
 13
150.2096793212
 23
30.6260631011
  0
SOLID
  8
0
 62
7
  6
CONTINUOUS
 10
150.5565542799
 20
30.5938002419
 11
150.2096793212
 21
30.6260631011
 12
150.9612418074
 22
30.6260631011
 13
150.9612418074
 23
30.6260631011
  0
SOLID
  8
0
 62
7
  6
CONTINUOUS
 10
154.0253041972
 20
30.7551187255
 11
154.2565543074
 21
30.8519086025
 12
154.3143669177
 22
30.7873815123
 13
154.3143669177
 23
30.7873815123
  0
SOLID
  8
0
 62
7
  6
CONTINUOUS
 10
154.3143669177
 20
30.7873815123
 11
154.5456166972
 21
30.7228544222
 12
154.0253041972
 22
30.7551187255
 13
154.0253041972
 23
30.7551187255
  0
SOLID
  8
0
 62
7
  6
CONTINUOUS
 10
154.1987416972
 20
30.658327332
 11
154.0253041972
 21
30.7551187255
 12
154.5456166972
 22
30.7228544222
 13
154.5456166972
 23
30.7228544222
  0
SOLID
  8
0
 62
7
  6
CONTINUOUS
 10
154.8924916972
 20
30.7228544637
 11
155.1815540869
 21
30.7873815123
 12
155.412804528
 22
30.7551187255
 13
155.412804528
 23
30.7551187255
  0
SOLID
  8
0
 62
7
  6
CONTINUOUS
 10
155.412804528
 20
30.7551187255
 11
155.3549915869
 21
30.6905916353
 12
154.8924916972
 22
30.7228544637
 13
154.8924916972
 23
30.7228544637
  0
SOLID
  8
0
 62
7
  6
CONTINUOUS
 10
155.3549915869
 20
30.6905916353
 11
154.1987416972
 21
30.658327332
 12
154.8924916972
 22
30.7228544637
 13
154.8924916972
 23
30.7228544637
  0
SOLID
  8
0
 62
7
  6
CONTINUOUS
 10
154.1987416972
 20
30.658327332
 11
154.5456166972
 21
30.7228544637
 12
154.8924916972
 22
30.7228544637
 13
154.8924916972
 23
30.7228544637
  0
SOLID
  8
0
 62
7
  6
CONTINUOUS
 10
154.1987416972
 20
30.658327332
 11
155.3549915869
 21
30.6905916353
 12
154.3143669177
 22
30.6260630541
 13
154.3143669177
 23
30.6260630541
  0
SOLID
  8
0
 62
7
  6
CONTINUOUS
 10
155.3549915869
 20
30.6905916353
 11
155.1815540869
 21
30.6260630541
 12
154.3143669177
 22
30.6260630541
 13
154.3143669177
 23
30.6260630541
  0
SOLID
  8
0
 62
7
  6
CONTINUOUS
 10
154.5456166972
 20
30.5938002188
 11
154.3143669177
 21
30.6260630541
 12
155.1815540869
 22
30.6260630541
 13
155.1815540869
 23
30.6260630541
  0
SOLID
  8
0
 62
7
  6
CONTINUOUS
 10
155.1815540869
 20
30.6260630541
 11
154.8924916972
 21
30.5938002188
 12
154.5456166972
 22
30.5938002188
 13
154.5456166972
 23
30.5938002188
  0
SOLID
  8
0
 62
7
  6
CONTINUOUS
 10
159.575304528
 20
30.7551187255
 11
159.228429528
 21
30.7228544637
 12
159.4596793074
 22
30.7873815123
 13
159.4596793074
 23
30.7873815123
  0
SOLID
  8
0
 62
7
  6
CONTINUOUS
 10
159.4596793074
 20
30.7873815123
 11
159.228429528
 21
30.7228544637
 12
159.401867028
 22
30.851908644
 13
159.401867028
 23
30.851908644
  0
SOLID
  8
0
 62
7
  6
CONTINUOUS
 10
159.228429528
 20
30.7228544637
 11
159.1128043074
 21
30.851908644
 12
159.401867028
 22
30.851908644
 13
159.401867028
 23
30.851908644
  0
SOLID
  8
0
 62
7
  6
CONTINUOUS
 10
159.575304528
 20
30.7551187255
 11
159.922179528
 21
30.7228544637
 12
159.228429528
 22
30.7228544637
 13
159.228429528
 23
30.7228544637
  0
SOLID
  8
0
 62
7
  6
CONTINUOUS
 10
156.279992028
 20
30.5938002419
 11
156.279992028
 21
31.6262382337
 12
156.5690540869
 22
30.5938002419
 13
156.5690540869
 23
31.6262382337
  0
ENDBLK
  8
0
  6
BYBLOCK
 62
0
  0
BLOCK
  8
0
 62
2
  6
CONTINUOUS
  2
SYMBOL_3_BL0
 70
64
 10
32.1213064866
 20
19.8534310916
  0
TEXT
  8
0
 62
7
  6
CONTINUOUS
 10
18.3860103289
 20
19.2268451992
  7
TEXTSTYLE_3
 40
2.7338706658
  1
Ammeraal Beltech
 41
1.0
 51
15.0
 72
0
  0
TEXT
  8
0
 62
7
  6
CONTINUOUS
 10
29.1868111546
 20
16.9533085264
  7
TEXTSTYLE_4
 40
1.0935482663
  1
Innovation & Service in Belting
 41
1.0
 72
0
  0
LINE
  8
0
 62
7
  6
CONTINUOUS
 10
12.3614696776
 20
19.9934385078
 11
13.1396216709
 21
23.6543558055
  0
LINE
  8
0
 62
7
  6
CONTINUOUS
 10
23.2347899607
 20
27.3177497171
 11
13.6274394139
 21
24.1961322958
  0
LINE
  8
0
 62
7
  6
CONTINUOUS
 10
12.5867530099
 20
19.3000877048
 11
20.093828271
 21
12.5406867788
  0
LINE
  8
0
 62
7
  6
CONTINUOUS
 10
12.8492874206
 20
20.5352149982
 11
23.6575567857
 21
24.0470345971
  0
LINE
  8
0
 62
7
  6
CONTINUOUS
 10
23.6533516486
 20
13.6972460334
 11
15.2078919798
 21
21.3015720751
  0
LINE
  8
0
 62
7
  6
CONTINUOUS
 10
24.1731743684
 20
26.4728246013
 11
23.1966148312
 21
21.8784731989
  0
LINE
  8
0
 62
7
  6
CONTINUOUS
 10
22.4968128835
 20
18.5861638851
 11
21.810364672
 21
15.3566789607
  0
LINE
  8
0
 62
7
  6
CONTINUOUS
 10
24.8542704669
 20
14.087448211
 11
25.8105020025
 21
18.5861638851
  0
LINE
  8
0
 62
7
  6
CONTINUOUS
 10
26.5103039502
 20
21.8784731989
 11
26.9545457526
 21
23.9684665583
  0
LINE
  8
0
 62
7
  6
CONTINUOUS
 10
20.8069293463
 20
12.3891124661
 11
24.3664527239
 21
13.5456717207
  0
LINE
  8
0
 62
7
  6
CONTINUOUS
 10
23.9478910361
 20
27.1661754044
 11
26.7292624203
 21
24.6618173613
  0
ARC
  8
0
 62
7
  6
CONTINUOUS
 10
13.8527227462
 20
23.5027814928
 40
0.7290321776
 50
108.0
 51
168.0
  0
ARC
  8
0
 62
7
  6
CONTINUOUS
 10
23.4600732931
 20
26.624398914
 40
0.7290321776
 50
348.0
 51
108.0
  0
ARC
  8
0
 62
7
  6
CONTINUOUS
 10
26.2414446773
 20
24.120040871
 40
0.7290321776
 50
348.0
 51
48.0
  0
ARC
  8
0
 62
7
  6
CONTINUOUS
 10
20.581646014
 20
13.0824632691
 40
0.7290321776
 50
228.0
 51
288.0
  0
ARC
  8
0
 62
7
  6
CONTINUOUS
 10
13.0745707529
 20
19.8418641951
 40
0.7290321776
 50
108.0
 51
228.0
  0
ARC
  8
0
 62
7
  6
CONTINUOUS
 10
24.1411693916
 20
14.2390225237
 40
0.7290321776
 50
228.0
 51
348.0
  0
ENDBLK
  8
0
  6
BYBLOCK
 62
0
  0
ENDSEC
  0
SECTION
  2
ENTITIES
  0
TEXT
  8
0
 62
5
  6
CONTINUOUS
 10
96.0
 20
25.636
  7
TEXTSTYLE_2
 40
2.8
  1
Scale :
 41
0.6
 51
0.000019
 72
0
  0
TEXT
  8
0
 62
5
  6
CONTINUOUS
 10
116.0
 20
25.636
  7
TEXTSTYLE_2
 40
2.8
  1
Belt type:
 41
0.6
 51
0.000019
 72
0
  0
INSERT
  8
0
 62
2
  6
CONTINUOUS
  2
SYMBOL_3_BL0
 10
32.1213064866
 20
19.8534310916
  0
INSERT
  8
0
 62
2
  6
CONTINUOUS
  2
SYMBOL_8_BL1
 10
173.5956734183
 20
35.5937998301
  0
LINE
  8
0
 62
2
  6
CONTINUOUS
 10
10.0
 20
30.0
 11
200.0
 21
30.0
  0
LINE
  8
0
 62
2
  6
CONTINUOUS
 10
10.0
 20
30.0
 11
10.0
 21
10.0
  0
LINE
  8
0
 62
2
  6
CONTINUOUS
 10
10.0
 20
10.0
 11
200.0
 21
10.0
  0
LINE
  8
0
 62
2
  6
CONTINUOUS
 10
95.0
 20
30.0
 11
95.0
 21
10.0
  0
LINE
  8
0
 62
2
  6
CONTINUOUS
 10
115.0
 20
30.0
 11
115.0
 21
10.0
  0
LINE
  8
0
 62
2
  6
CONTINUOUS
 10
200.0
 20
30.0
 11
200.0
 21
10.0
  0
TEXT
  8
0
 62
5
  6
CONTINUOUS
 10
13.0
 20
23.303
  7
TEXTSTYLE_5
 40
1.52
  1
                                                                     Ammeraal Beltech Modular A/S
 41
1.0
 72
0
  0
TEXT
  8
0
 62
5
  6
CONTINUOUS
 10
13.0
 20
20.595
  7
TEXTSTYLE_5
 40
1.5
  1
                                                                      Hjulmagervej 21,  7100 Vejle,  DK
 41
1.0
 72
0
  0
TEXT
  8
0
 62
5
  6
CONTINUOUS
 10
13.0
 20
17.881
  7
TEXTSTYLE_5
 40
1.495
  1
                                                                      tel: 
 41
1.0
 72
0
  0
TEXT
  8
0
 62
5
  6
CONTINUOUS
 10
57.9869465649
 20
17.881
  7
TEXTSTYLE_5
 40
1.51
  1
+45 75723100     fax: +45 75723348
 41
1.0
 72
0
  0
TEXT
  8
0
 62
5
  6
CONTINUOUS
 10
13.0
 20
15.177
  7
TEXTSTYLE_5
 40
1.5
  1
                                                                      admin@unichains.dk  www.unichains.com
 41
1.0
 72
0
  0
TEXT
  8
0
 62
5
  6
CONTINUOUS
 10
99.75
 20
13.75
  7
TEXTSTYLE_6
 40
5.0
  1
1:1
 41
0.7
 72
1
 11
105.0
 21
13.75
  0
TEXT
  8
0
 62
5
  6
CONTINUOUS
 10
118.0
 20
13.75
  7
TEXTSTYLE_7
 40
7.5
  1
uni S-MPB C K300
 41
0.6079427083
 72
0
  0
LINE
  8
0
 62
7
  6
CONTINUOUS
 10
210.0
 20
0.0
 11
0.0
 21
0.0
  0
LINE
  8
0
 62
7
  6
CONTINUOUS
 10
10.0
 20
10.0
 11
200.0
 21
10.0
  0
LINE
  8
0
 62
7
  6
CONTINUOUS
 10
10.0
 20
30.0
 11
200.0
 21
30.0
  0
LINE
  8
0
 62
7
  6
CONTINUOUS
 10
0.0
 20
0.0
 11
0.0
 21
297.0
  0
LINE
  8
0
 62
7
  6
CONTINUOUS
 10
10.0
 20
10.0
 11
10.0
 21
287.0
  0
LINE
  8
0
 62
7
  6
CONTINUOUS
 10
200.0
 20
287.0
 11
200.0
 21
10.0
  0
LINE
  8
0
 62
7
  6
CONTINUOUS
 10
210.0
 20
0.0
 11
210.0
 21
297.0
  0
LINE
  8
0
 62
7
  6
CONTINUOUS
 10
10.0
 20
287.0
 11
200.0
 21
287.0
  0
LINE
  8
0
 62
7
  6
CONTINUOUS
 10
0.0
 20
297.0
 11
210.0
 21
297.0
  0
LINE
  8
SURFACE
 62
7
  6
CONTINUOUS
 10
70.6132406475
 20
174.2290289529
 11
70.2683174451
 21
178.1715191968
  0
LINE
  8
0
 62
7
  6
CONTINUOUS
 10
56.3821041716
 20
174.3161846957
 11
56.3821041716
 21
183.2661846957
  0
LINE
  8
SURFACE
 62
7
  6
CONTINUOUS
 10
61.217890898
 20
178.1715191966
 11
60.8729676957
 21
174.2290289529
  0
LINE
  8
SURFACE
 62
7
  6
CONTINUOUS
 10
73.917890898
 20
178.1715191966
 11
73.5729676957
 21
174.2290289529
  0
LINE
  8
SURFACE
 62
7
  6
CONTINUOUS
 10
62.4587488909
 20
183.2045018587
 11
61.299226568
 21
178.6502591685
  0
LINE
  8
SURFACE
 62
7
  6
CONTINUOUS
 10
75.1587488909
 20
183.2045018587
 11
73.999226568
 21
178.6502591685
  0
POLYLINE
  8
SURFACE
 62
7
  6
CONTINUOUS
 66
1
 70
0
  0
VERTEX
  8
SURFACE
 62
7
  6
CONTINUOUS
 10
61.4542586679
 20
179.2591770437
  0
VERTEX
  8
SURFACE
 62
7
  6
CONTINUOUS
 10
61.465367733
 20
179.2972255056
  0
VERTEX
  8
SURFACE
 62
7
  6
CONTINUOUS
 10
61.4861045519
 20
179.3507860268
  0
VERTEX
  8
SURFACE
 62
7
  6
CONTINUOUS
 10
61.5085154732
 20
179.3952337192
  0
VERTEX
  8
SURFACE
 62
7
  6
CONTINUOUS
 10
61.5298880813
 20
179.4295940997
  0
VERTEX
  8
SURFACE
 62
7
  6
CONTINUOUS
 10
61.5485525835
 20
179.4547701909
  0
VERTEX
  8
SURFACE
 62
7
  6
CONTINUOUS
 10
61.56348619
 20
179.4720812135
  0
VERTEX
  8
SURFACE
 62
7
  6
CONTINUOUS
 10
61.5739435807
 20
179.4826797644
  0
VERTEX
  8
SURFACE
 62
7
  6
CONTINUOUS
 10
61.579446077
 20
179.4876276915
  0
VERTEX
  8
SURFACE
 62
7
  6
CONTINUOUS
 10
61.5802581037
 20
179.4882948635
  0
SEQEND
  0
POLYLINE
  8
SURFACE
 62
7
  6
CONTINUOUS
 66
1
 70
0
  0
VERTEX
  8
SURFACE
 62
7
  6
CONTINUOUS
 10
74.1542586679
 20
179.2591770437
  0
VERTEX
  8
SURFACE
 62
7
  6
CONTINUOUS
 10
74.165367733
 20
179.2972255056
  0
VERTEX
  8
SURFACE
 62
7
  6
CONTINUOUS
 10
74.1861045519
 20
179.3507860268
  0
VERTEX
  8
SURFACE
 62
7
  6
CONTINUOUS
 10
74.2085154732
 20
179.3952337192
  0
VERTEX
  8
SURFACE
 62
7
  6
CONTINUOUS
 10
74.2298880813
 20
179.4295940997
  0
VERTEX
  8
SURFACE
 62
7
  6
CONTINUOUS
 10
74.2485525835
 20
179.4547701909
  0
VERTEX
  8
SURFACE
 62
7
  6
CONTINUOUS
 10
74.26348619
 20
179.4720812135
  0
VERTEX
  8
SURFACE
 62
7
  6
CONTINUOUS
 10
74.2739435807
 20
179.4826797644
  0
VERTEX
  8
SURFACE
 62
7
  6
CONTINUOUS
 10
74.279446077
 20
179.4876276915
  0
VERTEX
  8
SURFACE
 62
7
  6
CONTINUOUS
 10
74.2802581037
 20
179.4882948635
  0
SEQEND
  0
LINE
  8
SURFACE
 62
7
  6
CONTINUOUS
 10
61.5802581016
 20
179.4882948662
 11
61.5803043152
 21
179.4883313652
  0
POLYLINE
  8
SURFACE
 62
7
  6
CONTINUOUS
 66
1
 70
0
  0
VERTEX
  8
SURFACE
 62
7
  6
CONTINUOUS
 10
61.5803043152
 20
179.4883313652
  0
VERTEX
  8
SURFACE
 62
7
  6
CONTINUOUS
 10
61.5925893107
 20
179.4975965735
  0
VERTEX
  8
SURFACE
 62
7
  6
CONTINUOUS
 10
61.6166207082
 20
179.513333503
  0
VERTEX
  8
SURFACE
 62
7
  6
CONTINUOUS
 10
61.6358790389
 20
179.5237201738
  0
VERTEX
  8
SURFACE
 62
7
  6
CONTINUOUS
 10
61.6490564248
 20
179.5295768386
  0
VERTEX
  8
SURFACE
 62
7
  6
CONTINUOUS
 10
61.6540979487
 20
179.5314692854
  0
SEQEND
  0
LINE
  8
SURFACE
 62
7
  6
CONTINUOUS
 10
70.1869850707
 20
178.6502462249
 11
69.0274594523
 21
183.2045018587
  0
LINE
  8
SURFACE
 62
7
  6
CONTINUOUS
 10
83.3132406475
 20
174.2290289529
 11
82.9683174451
 21
178.1715191968
  0
LINE
  8
SURFACE
 62
7
  6
CONTINUOUS
 10
96.0132406475
 20
174.2290289529
 11
95.6683174451
 21
178.1715191968
  0
LINE
  8
SURFACE
 62
7
  6
CENTER
 10
94.3071041716
 20
171.3131198764
 11
94.3071041716
 21
185.7617694973
  0
LINE
  8
SURFACE
 62
7
  6
CONTINUOUS
 10
86.617890898
 20
178.1715191966
 11
86.2729676957
 21
174.2290289529
  0
LINE
  8
SURFACE
 62
7
  6
CONTINUOUS
 10
87.8587488909
 20
183.2045018587
 11
86.699226568
 21
178.6502591685
  0
POLYLINE
  8
SURFACE
 62
7
  6
CONTINUOUS
 66
1
 70
0
  0
VERTEX
  8
SURFACE
 62
7
  6
CONTINUOUS
 10
86.8542586679
 20
179.2591770437
  0
VERTEX
  8
SURFACE
 62
7
  6
CONTINUOUS
 10
86.865367733
 20
179.2972255056
  0
VERTEX
  8
SURFACE
 62
7
  6
CONTINUOUS
 10
86.8861045519
 20
179.3507860268
  0
VERTEX
  8
SURFACE
 62
7
  6
CONTINUOUS
 10
86.9085154732
 20
179.3952337192
  0
VERTEX
  8
SURFACE
 62
7
  6
CONTINUOUS
 10
86.9298880813
 20
179.4295940997
  0
VERTEX
  8
SURFACE
 62
7
  6
CONTINUOUS
 10
86.9485525835
 20
179.4547701909
  0
VERTEX
  8
SURFACE
 62
7
  6
CONTINUOUS
 10
86.96348619
 20
179.4720812135
  0
VERTEX
  8
SURFACE
 62
7
  6
CONTINUOUS
 10
86.9739435807
 20
179.4826797644
  0
VERTEX
  8
SURFACE
 62
7
  6
CONTINUOUS
 10
86.979446077
 20
179.4876276915
  0
VERTEX
  8
SURFACE
 62
7
  6
CONTINUOUS
 10
86.9802581037
 20
179.4882948635
  0
SEQEND
  0
LINE
  8
SURFACE
 62
7
  6
CONTINUOUS
 10
74.2802581016
 20
179.4882948662
 11
74.2803043152
 21
179.4883313652
  0
LINE
  8
SURFACE
 62
7
  6
CONTINUOUS
 10
86.9802581016
 20
179.4882948662
 11
86.9803043152
 21
179.4883313652
  0
LINE
  8
SURFACE
 62
7
  6
CONTINUOUS
 10
99.6802581016
 20
179.4882948662
 11
99.6803043152
 21
179.4883313652
  0
POLYLINE
  8
SURFACE
 62
7
  6
CONTINUOUS
 66
1
 70
0
  0
VERTEX
  8
SURFACE
 62
7
  6
CONTINUOUS
 10
74.2803043152
 20
179.4883313652
  0
VERTEX
  8
SURFACE
 62
7
  6
CONTINUOUS
 10
74.2925893107
 20
179.4975965735
  0
VERTEX
  8
SURFACE
 62
7
  6
CONTINUOUS
 10
74.3166207082
 20
179.513333503
  0
VERTEX
  8
SURFACE
 62
7
  6
CONTINUOUS
 10
74.3358790389
 20
179.5237201738
  0
VERTEX
  8
SURFACE
 62
7
  6
CONTINUOUS
 10
74.3490564248
 20
179.5295768386
  0
VERTEX
  8
SURFACE
 62
7
  6
CONTINUOUS
 10
74.3540979487
 20
179.5314692854
  0
SEQEND
  0
POLYLINE
  8
SURFACE
 62
7
  6
CONTINUOUS
 66
1
 70
0
  0
VERTEX
  8
SURFACE
 62
7
  6
CONTINUOUS
 10
86.9803043152
 20
179.4883313652
  0
VERTEX
  8
SURFACE
 62
7
  6
CONTINUOUS
 10
86.9925893107
 20
179.4975965735
  0
VERTEX
  8
SURFACE
 62
7
  6
CONTINUOUS
 10
87.0166207082
 20
179.513333503
  0
VERTEX
  8
SURFACE
 62
7
  6
CONTINUOUS
 10
87.0358790389
 20
179.5237201738
  0
VERTEX
  8
SURFACE
 62
7
  6
CONTINUOUS
 10
87.0490564248
 20
179.5295768386
  0
VERTEX
  8
SURFACE
 62
7
  6
CONTINUOUS
 10
87.0540979487
 20
179.5314692854
  0
SEQEND
  0
POLYLINE
  8
SURFACE
 62
7
  6
CONTINUOUS
 66
1
 70
0
  0
VERTEX
  8
SURFACE
 62
7
  6
CONTINUOUS
 10
99.6803043152
 20
179.4883313652
  0
VERTEX
  8
SURFACE
 62
7
  6
CONTINUOUS
 10
99.6925893107
 20
179.4975965735
  0
VERTEX
  8
SURFACE
 62
7
  6
CONTINUOUS
 10
99.7166207082
 20
179.513333503
  0
VERTEX
  8
SURFACE
 62
7
  6
CONTINUOUS
 10
99.7358790389
 20
179.5237201738
  0
VERTEX
  8
SURFACE
 62
7
  6
CONTINUOUS
 10
99.7490564248
 20
179.5295768386
  0
VERTEX
  8
SURFACE
 62
7
  6
CONTINUOUS
 10
99.7540979487
 20
179.5314692854
  0
SEQEND
  0
LINE
  8
SURFACE
 62
7
  6
CONTINUOUS
 10
117.0047729976
 20
173.3161846957
 11
116.0374353456
 21
173.3161846957
  0
LINE
  8
SURFACE
 62
7
  6
CONTINUOUS
 10
104.3047729976
 20
173.3161846957
 11
103.3374353456
 21
173.3161846957
  0
LINE
  8
SURFACE
 62
7
  6
CONTINUOUS
 10
91.6047729976
 20
173.3161846957
 11
90.6374353456
 21
173.3161846957
  0
LINE
  8
SURFACE
 62
7
  6
CONTINUOUS
 10
78.9047729976
 20
173.3161846957
 11
77.9374353456
 21
173.3161846957
  0
LINE
  8
SURFACE
 62
7
  6
CONTINUOUS
 10
66.2047729976
 20
173.3161846957
 11
65.2374353456
 21
173.3161846957
  0
LINE
  8
SURFACE
 62
7
  6
CONTINUOUS
 10
59.8767729976
 20
173.3161846957
 11
59.8678617812
 21
173.3161846957
  0
LINE
  8
0
 62
7
  6
CONTINUOUS
 10
59.8678617812
 20
173.3161846957
 11
57.3821041716
 21
173.3161846957
  0
LINE
  8
SURFACE
 62
7
  6
CONTINUOUS
 10
71.6094353456
 20
173.3161846957
 11
72.5767729976
 21
173.3161846957
  0
LINE
  8
SURFACE
 62
7
  6
CONTINUOUS
 10
84.3094353456
 20
173.3161846957
 11
85.2767729976
 21
173.3161846957
  0
LINE
  8
SURFACE
 62
7
  6
CONTINUOUS
 10
97.0094353456
 20
173.3161846957
 11
97.9767729976
 21
173.3161846957
  0
LINE
  8
SURFACE
 62
7
  6
CONTINUOUS
 10
109.7094353456
 20
173.3161846957
 11
110.6767729976
 21
173.3161846957
  0
LINE
  8
SURFACE
 62
7
  6
CONTINUOUS
 10
122.4094353456
 20
173.3161846957
 11
123.3767729976
 21
173.3161846957
  0
LINE
  8
0
 62
7
  6
CONTINUOUS
 10
128.7374353456
 20
173.3161846957
 11
131.2321041716
 21
173.3161846957
  0
LINE
  8
0
 62
7
  6
CONTINUOUS
 10
60.4742157143
 20
173.5161846957
 11
71.0120482557
 21
173.5161846957
  0
LINE
  8
0
 62
7
  6
CONTINUOUS
 10
73.1742157143
 20
173.5161846957
 11
83.7120482557
 21
173.5161846957
  0
LINE
  8
0
 62
7
  6
CONTINUOUS
 10
85.8742157143
 20
173.5161846957
 11
96.4120482557
 21
173.5161846957
  0
LINE
  8
0
 62
7
  6
CONTINUOUS
 10
98.5742157143
 20
173.5161846957
 11
109.1120482557
 21
173.5161846957
  0
LINE
  8
0
 62
7
  6
CONTINUOUS
 10
111.2742157143
 20
173.5161846957
 11
121.8114419744
 21
173.5161846957
  0
LINE
  8
0
 62
7
  6
CONTINUOUS
 10
123.9742157143
 20
173.5161846957
 11
131.2321041716
 21
173.5161846957
  0
LINE
  8
DEFAULT_1
 62
7
  6
CENTER
 10
61.1998806992
 20
178.4161846957
 11
134.2321041716
 21
178.4161846957
  0
LINE
  8
0
 62
7
  6
CONTINUOUS
 10
61.5196935143
 20
179.5161846957
 11
69.8643525348
 21
179.5161846957
  0
LINE
  8
0
 62
7
  6
CONTINUOUS
 10
74.2196935143
 20
179.5161846957
 11
82.5643525348
 21
179.5161846957
  0
LINE
  8
0
 62
7
  6
CONTINUOUS
 10
86.9196935143
 20
179.5161846957
 11
95.2643525348
 21
179.5161846957
  0
LINE
  8
0
 62
7
  6
CONTINUOUS
 10
99.6196935143
 20
179.5161846957
 11
107.9643525348
 21
179.5161846957
  0
LINE
  8
0
 62
7
  6
CONTINUOUS
 10
112.3196935143
 20
179.5161846957
 11
120.6643525348
 21
179.5161846957
  0
LINE
  8
0
 62
7
  6
CONTINUOUS
 10
125.0196935143
 20
179.5161846957
 11
131.2321041716
 21
179.5161846957
  0
POLYLINE
  8
SURFACE
 62
7
  6
CONTINUOUS
 66
1
 70
0
  0
VERTEX
  8
SURFACE
 62
7
  6
CONTINUOUS
 10
69.8302556762
 20
179.5320892894
  0
VERTEX
  8
SURFACE
 62
7
  6
CONTINUOUS
 10
69.8306135587
 20
179.5319729931
  0
VERTEX
  8
SURFACE
 62
7
  6
CONTINUOUS
 10
69.836736617
 20
179.5297416016
  0
VERTEX
  8
SURFACE
 62
7
  6
CONTINUOUS
 10
69.8496241538
 20
179.5240613304
  0
VERTEX
  8
SURFACE
 62
7
  6
CONTINUOUS
 10
69.8686301165
 20
179.513897075
  0
VERTEX
  8
SURFACE
 62
7
  6
CONTINUOUS
 10
69.8924830799
 20
179.4984104351
  0
VERTEX
  8
SURFACE
 62
7
  6
CONTINUOUS
 10
69.9059036113
 20
179.488331693
  0
SEQEND
  0
POLYLINE
  8
SURFACE
 62
7
  6
CONTINUOUS
 66
1
 70
0
  0
VERTEX
  8
SURFACE
 62
7
  6
CONTINUOUS
 10
82.5302556762
 20
179.5320892894
  0
VERTEX
  8
SURFACE
 62
7
  6
CONTINUOUS
 10
82.5306135587
 20
179.5319729931
  0
VERTEX
  8
SURFACE
 62
7
  6
CONTINUOUS
 10
82.536736617
 20
179.5297416016
  0
VERTEX
  8
SURFACE
 62
7
  6
CONTINUOUS
 10
82.5496241538
 20
179.5240613304
  0
VERTEX
  8
SURFACE
 62
7
  6
CONTINUOUS
 10
82.5686301165
 20
179.513897075
  0
VERTEX
  8
SURFACE
 62
7
  6
CONTINUOUS
 10
82.5924830799
 20
179.4984104351
  0
VERTEX
  8
SURFACE
 62
7
  6
CONTINUOUS
 10
82.6059036113
 20
179.488331693
  0
SEQEND
  0
POLYLINE
  8
SURFACE
 62
7
  6
CONTINUOUS
 66
1
 70
0
  0
VERTEX
  8
SURFACE
 62
7
  6
CONTINUOUS
 10
95.2302556762
 20
179.5320892894
  0
VERTEX
  8
SURFACE
 62
7
  6
CONTINUOUS
 10
95.2306135587
 20
179.5319729931
  0
VERTEX
  8
SURFACE
 62
7
  6
CONTINUOUS
 10
95.236736617
 20
179.5297416016
  0
VERTEX
  8
SURFACE
 62
7
  6
CONTINUOUS
 10
95.2496241538
 20
179.5240613304
  0
VERTEX
  8
SURFACE
 62
7
  6
CONTINUOUS
 10
95.2686301165
 20
179.513897075
  0
VERTEX
  8
SURFACE
 62
7
  6
CONTINUOUS
 10
95.2924830799
 20
179.4984104351
  0
VERTEX
  8
SURFACE
 62
7
  6
CONTINUOUS
 10
95.3059036113
 20
179.488331693
  0
SEQEND
  0
LINE
  8
SURFACE
 62
7
  6
CONTINUOUS
 10
69.9059503778
 20
179.4882947543
 11
69.9059036098
 21
179.488331691
  0
LINE
  8
SURFACE
 62
7
  6
CONTINUOUS
 10
82.6059503778
 20
179.4882947543
 11
82.6059036098
 21
179.488331691
  0
LINE
  8
SURFACE
 62
7
  6
CONTINUOUS
 10
95.3059503778
 20
179.4882947543
 11
95.3059036098
 21
179.488331691
  0
POLYLINE
  8
SURFACE
 62
7
  6
CONTINUOUS
 66
1
 70
0
  0
VERTEX
  8
SURFACE
 62
7
  6
CONTINUOUS
 10
69.9059503778
 20
179.4882947543
  0
VERTEX
  8
SURFACE
 62
7
  6
CONTINUOUS
 10
69.9066636468
 20
179.4877103199
  0
VERTEX
  8
SURFACE
 62
7
  6
CONTINUOUS
 10
69.9120309505
 20
179.4829004989
  0
VERTEX
  8
SURFACE
 62
7
  6
CONTINUOUS
 10
69.9224129625
 20
179.4724134036
  0
VERTEX
  8
SURFACE
 62
7
  6
CONTINUOUS
 10
69.9373249376
 20
179.4551803222
  0
VERTEX
  8
SURFACE
 62
7
  6
CONTINUOUS
 10
69.9560202262
 20
179.4300318091
  0
VERTEX
  8
SURFACE
 62
7
  6
CONTINUOUS
 10
69.9774793187
 20
179.3956125535
  0
VERTEX
  8
SURFACE
 62
7
  6
CONTINUOUS
 10
69.999975296
 20
179.3510775447
  0
VERTEX
  8
SURFACE
 62
7
  6
CONTINUOUS
 10
70.0207858396
 20
179.2973940057
  0
VERTEX
  8
SURFACE
 62
7
  6
CONTINUOUS
 10
70.03195001
 20
179.2591757264
  0
SEQEND
  0
POLYLINE
  8
SURFACE
 62
7
  6
CONTINUOUS
 66
1
 70
0
  0
VERTEX
  8
SURFACE
 62
7
  6
CONTINUOUS
 10
82.6059503778
 20
179.4882947543
  0
VERTEX
  8
SURFACE
 62
7
  6
CONTINUOUS
 10
82.6066636468
 20
179.4877103199
  0
VERTEX
  8
SURFACE
 62
7
  6
CONTINUOUS
 10
82.6120309505
 20
179.4829004989
  0
VERTEX
  8
SURFACE
 62
7
  6
CONTINUOUS
 10
82.6224129625
 20
179.4724134036
  0
VERTEX
  8
SURFACE
 62
7
  6
CONTINUOUS
 10
82.6373249376
 20
179.4551803222
  0
VERTEX
  8
SURFACE
 62
7
  6
CONTINUOUS
 10
82.6560202262
 20
179.4300318091
  0
VERTEX
  8
SURFACE
 62
7
  6
CONTINUOUS
 10
82.6774793187
 20
179.3956125535
  0
VERTEX
  8
SURFACE
 62
7
  6
CONTINUOUS
 10
82.699975296
 20
179.3510775447
  0
VERTEX
  8
SURFACE
 62
7
  6
CONTINUOUS
 10
82.7207858396
 20
179.2973940057
  0
VERTEX
  8
SURFACE
 62
7
  6
CONTINUOUS
 10
82.73195001
 20
179.2591757264
  0
SEQEND
  0
POLYLINE
  8
SURFACE
 62
7
  6
CONTINUOUS
 66
1
 70
0
  0
VERTEX
  8
SURFACE
 62
7
  6
CONTINUOUS
 10
95.3059503778
 20
179.4882947543
  0
VERTEX
  8
SURFACE
 62
7
  6
CONTINUOUS
 10
95.3066636468
 20
179.4877103199
  0
VERTEX
  8
SURFACE
 62
7
  6
CONTINUOUS
 10
95.3120309505
 20
179.4829004989
  0
VERTEX
  8
SURFACE
 62
7
  6
CONTINUOUS
 10
95.3224129625
 20
179.4724134036
  0
VERTEX
  8
SURFACE
 62
7
  6
CONTINUOUS
 10
95.3373249376
 20
179.4551803222
  0
VERTEX
  8
SURFACE
 62
7
  6
CONTINUOUS
 10
95.3560202262
 20
179.4300318091
  0
VERTEX
  8
SURFACE
 62
7
  6
CONTINUOUS
 10
95.3774793187
 20
179.3956125535
  0
VERTEX
  8
SURFACE
 62
7
  6
CONTINUOUS
 10
95.399975296
 20
179.3510775447
  0
VERTEX
  8
SURFACE
 62
7
  6
CONTINUOUS
 10
95.4207858396
 20
179.2973940057
  0
VERTEX
  8
SURFACE
 62
7
  6
CONTINUOUS
 10
95.43195001
 20
179.2591757264
  0
SEQEND
  0
LINE
  8
SURFACE
 62
7
  6
CONTINUOUS
 10
82.8869850707
 20
178.6502462249
 11
81.7274594523
 21
183.2045018587
  0
LINE
  8
SURFACE
 62
7
  6
CONTINUOUS
 10
95.5869850707
 20
178.6502462249
 11
94.4274594523
 21
183.2045018587
  0
LINE
  8
SURFACE
 62
7
  6
CONTINUOUS
 10
108.7132406475
 20
174.2290289529
 11
108.3683174451
 21
178.1715191968
  0
LINE
  8
SURFACE
 62
7
  6
CONTINUOUS
 10
99.317890898
 20
178.1715191966
 11
98.9729676957
 21
174.2290289529
  0
LINE
  8
SURFACE
 62
7
  6
CONTINUOUS
 10
112.017890898
 20
178.1715191966
 11
111.6729676957
 21
174.2290289529
  0
LINE
  8
SURFACE
 62
7
  6
CONTINUOUS
 10
100.5587488909
 20
183.2045018587
 11
99.399226568
 21
178.6502591685
  0
LINE
  8
SURFACE
 62
7
  6
CONTINUOUS
 10
113.2587488909
 20
183.2045018587
 11
112.099226568
 21
178.6502591685
  0
POLYLINE
  8
SURFACE
 62
7
  6
CONTINUOUS
 66
1
 70
0
  0
VERTEX
  8
SURFACE
 62
7
  6
CONTINUOUS
 10
99.5542586679
 20
179.2591770437
  0
VERTEX
  8
SURFACE
 62
7
  6
CONTINUOUS
 10
99.565367733
 20
179.2972255056
  0
VERTEX
  8
SURFACE
 62
7
  6
CONTINUOUS
 10
99.5861045519
 20
179.3507860268
  0
VERTEX
  8
SURFACE
 62
7
  6
CONTINUOUS
 10
99.6085154732
 20
179.3952337192
  0
VERTEX
  8
SURFACE
 62
7
  6
CONTINUOUS
 10
99.6298880813
 20
179.4295940997
  0
VERTEX
  8
SURFACE
 62
7
  6
CONTINUOUS
 10
99.6485525835
 20
179.4547701909
  0
VERTEX
  8
SURFACE
 62
7
  6
CONTINUOUS
 10
99.66348619
 20
179.4720812135
  0
VERTEX
  8
SURFACE
 62
7
  6
CONTINUOUS
 10
99.6739435807
 20
179.4826797644
  0
VERTEX
  8
SURFACE
 62
7
  6
CONTINUOUS
 10
99.679446077
 20
179.4876276915
  0
VERTEX
  8
SURFACE
 62
7
  6
CONTINUOUS
 10
99.6802581037
 20
179.4882948635
  0
SEQEND
  0
POLYLINE
  8
SURFACE
 62
7
  6
CONTINUOUS
 66
1
 70
0
  0
VERTEX
  8
SURFACE
 62
7
  6
CONTINUOUS
 10
112.2542586679
 20
179.2591770437
  0
VERTEX
  8
SURFACE
 62
7
  6
CONTINUOUS
 10
112.265367733
 20
179.2972255056
  0
VERTEX
  8
SURFACE
 62
7
  6
CONTINUOUS
 10
112.2861045519
 20
179.3507860268
  0
VERTEX
  8
SURFACE
 62
7
  6
CONTINUOUS
 10
112.3085154732
 20
179.3952337192
  0
VERTEX
  8
SURFACE
 62
7
  6
CONTINUOUS
 10
112.3298880813
 20
179.4295940997
  0
VERTEX
  8
SURFACE
 62
7
  6
CONTINUOUS
 10
112.3485525835
 20
179.4547701909
  0
VERTEX
  8
SURFACE
 62
7
  6
CONTINUOUS
 10
112.36348619
 20
179.4720812135
  0
VERTEX
  8
SURFACE
 62
7
  6
CONTINUOUS
 10
112.3739435807
 20
179.4826797644
  0
VERTEX
  8
SURFACE
 62
7
  6
CONTINUOUS
 10
112.379446077
 20
179.4876276915
  0
VERTEX
  8
SURFACE
 62
7
  6
CONTINUOUS
 10
112.3802581037
 20
179.4882948635
  0
SEQEND
  0
LINE
  8
SURFACE
 62
7
  6
CONTINUOUS
 10
112.3802581016
 20
179.4882948662
 11
112.3803043152
 21
179.4883313652
  0
LINE
  8
SURFACE
 62
7
  6
CONTINUOUS
 10
125.0802581016
 20
179.4882948662
 11
125.0803043152
 21
179.4883313652
  0
POLYLINE
  8
SURFACE
 62
7
  6
CONTINUOUS
 66
1
 70
0
  0
VERTEX
  8
SURFACE
 62
7
  6
CONTINUOUS
 10
112.3803043152
 20
179.4883313652
  0
VERTEX
  8
SURFACE
 62
7
  6
CONTINUOUS
 10
112.3925893107
 20
179.4975965735
  0
VERTEX
  8
SURFACE
 62
7
  6
CONTINUOUS
 10
112.4166207082
 20
179.513333503
  0
VERTEX
  8
SURFACE
 62
7
  6
CONTINUOUS
 10
112.4358790389
 20
179.5237201738
  0
VERTEX
  8
SURFACE
 62
7
  6
CONTINUOUS
 10
112.4490564248
 20
179.5295768386
  0
VERTEX
  8
SURFACE
 62
7
  6
CONTINUOUS
 10
112.4540979487
 20
179.5314692854
  0
SEQEND
  0
POLYLINE
  8
SURFACE
 62
7
  6
CONTINUOUS
 66
1
 70
0
  0
VERTEX
  8
SURFACE
 62
7
  6
CONTINUOUS
 10
125.0803043152
 20
179.4883313652
  0
VERTEX
  8
SURFACE
 62
7
  6
CONTINUOUS
 10
125.0925893107
 20
179.4975965735
  0
VERTEX
  8
SURFACE
 62
7
  6
CONTINUOUS
 10
125.1166207082
 20
179.513333503
  0
VERTEX
  8
SURFACE
 62
7
  6
CONTINUOUS
 10
125.1358790389
 20
179.5237201738
  0
VERTEX
  8
SURFACE
 62
7
  6
CONTINUOUS
 10
125.1490564248
 20
179.5295768386
  0
VERTEX
  8
SURFACE
 62
7
  6
CONTINUOUS
 10
125.1540979487
 20
179.5314692854
  0
SEQEND
  0
LINE
  8
0
 62
7
  6
CONTINUOUS
 10
132.2321041716
 20
181.8161846957
 11
132.3821041716
 21
181.8161846957
  0
LINE
  8
0
 62
7
  6
CONTINUOUS
 10
132.2321041716
 20
181.8417166098
 11
132.3821041716
 21
181.8417166098
  0
LINE
  8
0
 62
7
  6
CONTINUOUS
 10
132.2321041716
 20
181.8927804402
 11
132.3821041716
 21
181.8927804402
  0
LINE
  8
0
 62
7
  6
CONTINUOUS
 10
132.2321041716
 20
181.9693761847
 11
132.3821041716
 21
181.9693761847
  0
LINE
  8
0
 62
7
  6
CONTINUOUS
 10
132.2321041716
 20
182.0204400084
 11
132.3821041716
 21
182.0204400084
  0
LINE
  8
0
 62
7
  6
CONTINUOUS
 10
132.2321041716
 20
182.1225676736
 11
132.3821041716
 21
182.1225676736
  0
LINE
  8
0
 62
7
  6
CONTINUOUS
 10
132.2321041716
 20
182.6332059464
 11
132.3821041716
 21
182.6332059464
  0
LINE
  8
0
 62
7
  6
CONTINUOUS
 10
132.2321041716
 20
182.7353336653
 11
132.3821041716
 21
182.7353336653
  0
LINE
  8
0
 62
7
  6
CONTINUOUS
 10
132.2321041716
 20
182.8374613127
 11
132.3821041716
 21
182.8374613127
  0
LINE
  8
0
 62
7
  6
CONTINUOUS
 10
132.2321041716
 20
182.8885251364
 11
132.3821041716
 21
182.8885251364
  0
LINE
  8
0
 62
7
  6
CONTINUOUS
 10
132.2321041716
 20
183.0161846957
 11
132.3821041716
 21
183.0161846957
  0
LINE
  8
0
 62
7
  6
CONTINUOUS
 10
56.6321041716
 20
183.5161846957
 11
62.2164779111
 21
183.5161846957
  0
LINE
  8
SURFACE
 62
7
  6
CONTINUOUS
 10
62.2194479583
 20
183.5161846957
 11
69.2667603849
 21
183.5161846957
  0
LINE
  8
0
 62
7
  6
CONTINUOUS
 10
62.2194479583
 20
183.5161846957
 11
69.2667603849
 21
183.5161846957
  0
LINE
  8
SURFACE
 62
7
  6
CONTINUOUS
 10
69.269730432
 20
183.5161846957
 11
74.9164779111
 21
183.5161846957
  0
LINE
  8
SURFACE
 62
7
  6
CONTINUOUS
 10
74.9194479583
 20
183.5161846957
 11
81.9667603849
 21
183.5161846957
  0
LINE
  8
0
 62
7
  6
CONTINUOUS
 10
74.9194479583
 20
183.5161846957
 11
81.9667603849
 21
183.5161846957
  0
LINE
  8
SURFACE
 62
7
  6
CONTINUOUS
 10
81.969730432
 20
183.5161846957
 11
87.6164779111
 21
183.5161846957
  0
LINE
  8
SURFACE
 62
7
  6
CONTINUOUS
 10
87.6194479583
 20
183.5161846957
 11
94.6667603849
 21
183.5161846957
  0
LINE
  8
0
 62
7
  6
CONTINUOUS
 10
87.6194479583
 20
183.5161846957
 11
94.6667603849
 21
183.5161846957
  0
LINE
  8
SURFACE
 62
7
  6
CONTINUOUS
 10
94.669730432
 20
183.5161846957
 11
100.3164779111
 21
183.5161846957
  0
LINE
  8
SURFACE
 62
7
  6
CONTINUOUS
 10
100.3194479583
 20
183.5161846957
 11
107.3667603849
 21
183.5161846957
  0
LINE
  8
0
 62
7
  6
CONTINUOUS
 10
100.3194479583
 20
183.5161846957
 11
107.3667603849
 21
183.5161846957
  0
LINE
  8
SURFACE
 62
7
  6
CONTINUOUS
 10
107.369730432
 20
183.5161846957
 11
113.0164779111
 21
183.5161846957
  0
LINE
  8
SURFACE
 62
7
  6
CONTINUOUS
 10
113.0194479583
 20
183.5161846957
 11
120.0667603849
 21
183.5161846957
  0
LINE
  8
0
 62
7
  6
CONTINUOUS
 10
113.0194479583
 20
183.5161846957
 11
120.0667603849
 21
183.5161846957
  0
LINE
  8
SURFACE
 62
7
  6
CONTINUOUS
 10
120.069730432
 20
183.5161846957
 11
125.7164779111
 21
183.5161846957
  0
LINE
  8
0
 62
7
  6
CONTINUOUS
 10
125.7194479583
 20
183.5161846957
 11
131.9821041716
 21
183.5161846957
  0
POLYLINE
  8
SURFACE
 62
7
  6
CONTINUOUS
 66
1
 70
0
  0
VERTEX
  8
SURFACE
 62
7
  6
CONTINUOUS
 10
107.9302556762
 20
179.5320892894
  0
VERTEX
  8
SURFACE
 62
7
  6
CONTINUOUS
 10
107.9306135587
 20
179.5319729931
  0
VERTEX
  8
SURFACE
 62
7
  6
CONTINUOUS
 10
107.936736617
 20
179.5297416016
  0
VERTEX
  8
SURFACE
 62
7
  6
CONTINUOUS
 10
107.9496241538
 20
179.5240613304
  0
VERTEX
  8
SURFACE
 62
7
  6
CONTINUOUS
 10
107.9686301165
 20
179.513897075
  0
VERTEX
  8
SURFACE
 62
7
  6
CONTINUOUS
 10
107.9924830799
 20
179.4984104351
  0
VERTEX
  8
SURFACE
 62
7
  6
CONTINUOUS
 10
108.0059036113
 20
179.488331693
  0
SEQEND
  0
POLYLINE
  8
SURFACE
 62
7
  6
CONTINUOUS
 66
1
 70
0
  0
VERTEX
  8
SURFACE
 62
7
  6
CONTINUOUS
 10
120.6302556762
 20
179.5320892894
  0
VERTEX
  8
SURFACE
 62
7
  6
CONTINUOUS
 10
120.6306135587
 20
179.5319729931
  0
VERTEX
  8
SURFACE
 62
7
  6
CONTINUOUS
 10
120.636736617
 20
179.5297416016
  0
VERTEX
  8
SURFACE
 62
7
  6
CONTINUOUS
 10
120.6496241538
 20
179.5240613304
  0
VERTEX
  8
SURFACE
 62
7
  6
CONTINUOUS
 10
120.6686301165
 20
179.513897075
  0
VERTEX
  8
SURFACE
 62
7
  6
CONTINUOUS
 10
120.6924830799
 20
179.4984104351
  0
VERTEX
  8
SURFACE
 62
7
  6
CONTINUOUS
 10
120.7059036113
 20
179.488331693
  0
SEQEND
  0
LINE
  8
SURFACE
 62
7
  6
CONTINUOUS
 10
108.0059503778
 20
179.4882947543
 11
108.0059036098
 21
179.488331691
  0
LINE
  8
SURFACE
 62
7
  6
CONTINUOUS
 10
120.7059503778
 20
179.4882947543
 11
120.7059036098
 21
179.488331691
  0
POLYLINE
  8
SURFACE
 62
7
  6
CONTINUOUS
 66
1
 70
0
  0
VERTEX
  8
SURFACE
 62
7
  6
CONTINUOUS
 10
108.0059503778
 20
179.4882947543
  0
VERTEX
  8
SURFACE
 62
7
  6
CONTINUOUS
 10
108.0066636468
 20
179.4877103199
  0
VERTEX
  8
SURFACE
 62
7
  6
CONTINUOUS
 10
108.0120309505
 20
179.4829004989
  0
VERTEX
  8
SURFACE
 62
7
  6
CONTINUOUS
 10
108.0224129625
 20
179.4724134036
  0
VERTEX
  8
SURFACE
 62
7
  6
CONTINUOUS
 10
108.0373249376
 20
179.4551803222
  0
VERTEX
  8
SURFACE
 62
7
  6
CONTINUOUS
 10
108.0560202262
 20
179.4300318091
  0
VERTEX
  8
SURFACE
 62
7
  6
CONTINUOUS
 10
108.0774793187
 20
179.3956125535
  0
VERTEX
  8
SURFACE
 62
7
  6
CONTINUOUS
 10
108.099975296
 20
179.3510775447
  0
VERTEX
  8
SURFACE
 62
7
  6
CONTINUOUS
 10
108.1207858396
 20
179.2973940057
  0
VERTEX
  8
SURFACE
 62
7
  6
CONTINUOUS
 10
108.13195001
 20
179.2591757264
  0
SEQEND
  0
POLYLINE
  8
SURFACE
 62
7
  6
CONTINUOUS
 66
1
 70
0
  0
VERTEX
  8
SURFACE
 62
7
  6
CONTINUOUS
 10
120.7059503778
 20
179.4882947543
  0
VERTEX
  8
SURFACE
 62
7
  6
CONTINUOUS
 10
120.7066636468
 20
179.4877103199
  0
VERTEX
  8
SURFACE
 62
7
  6
CONTINUOUS
 10
120.7120309505
 20
179.4829004989
  0
VERTEX
  8
SURFACE
 62
7
  6
CONTINUOUS
 10
120.7224129625
 20
179.4724134036
  0
VERTEX
  8
SURFACE
 62
7
  6
CONTINUOUS
 10
120.7373249376
 20
179.4551803222
  0
VERTEX
  8
SURFACE
 62
7
  6
CONTINUOUS
 10
120.7560202262
 20
179.4300318091
  0
VERTEX
  8
SURFACE
 62
7
  6
CONTINUOUS
 10
120.7774793187
 20
179.3956125535
  0
VERTEX
  8
SURFACE
 62
7
  6
CONTINUOUS
 10
120.799975296
 20
179.3510775447
  0
VERTEX
  8
SURFACE
 62
7
  6
CONTINUOUS
 10
120.8207858396
 20
179.2973940057
  0
VERTEX
  8
SURFACE
 62
7
  6
CONTINUOUS
 10
120.83195001
 20
179.2591757264
  0
SEQEND
  0
LINE
  8
SURFACE
 62
7
  6
CONTINUOUS
 10
108.2869850707
 20
178.6502462249
 11
107.1274594523
 21
183.2045018587
  0
POLYLINE
  8
0
 62
7
  6
CONTINUOUS
 66
1
 70
0
  0
VERTEX
  8
0
 62
7
  6
CONTINUOUS
 10
121.3109265903
 20
175.3984770989
  0
VERTEX
  8
0
 62
7
  6
CONTINUOUS
 10
121.3149850312
 20
175.361055767
  0
VERTEX
  8
0
 62
7
  6
CONTINUOUS
 10
121.3275147397
 20
175.2872550253
  0
VERTEX
  8
0
 62
7
  6
CONTINUOUS
 10
121.3450987562
 20
175.2163355976
  0
VERTEX
  8
0
 62
7
  6
CONTINUOUS
 10
121.3668792327
 20
175.1485962933
  0
VERTEX
  8
0
 62
7
  6
CONTINUOUS
 10
121.3919669812
 20
175.0843104637
  0
VERTEX
  8
0
 62
7
  6
CONTINUOUS
 10
121.419510844
 20
175.0235312766
  0
VERTEX
  8
0
 62
7
  6
CONTINUOUS
 10
121.4487084253
 20
174.9661654294
  0
VERTEX
  8
0
 62
7
  6
CONTINUOUS
 10
121.4787440904
 20
174.9121352235
  0
VERTEX
  8
0
 62
7
  6
CONTINUOUS
 10
121.5087913068
 20
174.8613803435
  0
VERTEX
  8
0
 62
7
  6
CONTINUOUS
 10
121.5380294241
 20
174.8138645728
  0
VERTEX
  8
0
 62
7
  6
CONTINUOUS
 10
121.5656930968
 20
174.7695532703
  0
VERTEX
  8
0
 62
7
  6
CONTINUOUS
 10
121.5910836444
 20
174.7284703395
  0
VERTEX
  8
0
 62
7
  6
CONTINUOUS
 10
121.6136148904
 20
174.6907050979
  0
VERTEX
  8
0
 62
7
  6
CONTINUOUS
 10
121.6328881522
 20
174.6563582283
  0
VERTEX
  8
0
 62
7
  6
CONTINUOUS
 10
121.6487017716
 20
174.6255605496
  0
VERTEX
  8
0
 62
7
  6
CONTINUOUS
 10
121.6610675725
 20
174.5984330126
  0
VERTEX
  8
0
 62
7
  6
CONTINUOUS
 10
121.6701738774
 20
174.5751034855
  0
VERTEX
  8
0
 62
7
  6
CONTINUOUS
 10
121.6763369326
 20
174.555755978
  0
VERTEX
  8
0
 62
7
  6
CONTINUOUS
 10
121.6799807167
 20
174.5406704587
  0
VERTEX
  8
0
 62
7
  6
CONTINUOUS
 10
121.681665469
 20
174.5301413985
  0
VERTEX
  8
0
 62
7
  6
CONTINUOUS
 10
121.6820963155
 20
174.5244127481
  0
VERTEX
  8
0
 62
7
  6
CONTINUOUS
 10
121.6821042815
 20
174.5237614455
  0
SEQEND
  0
LINE
  8
0
 62
7
  6
CONTINUOUS
 10
121.0683174362
 20
178.1715192992
 11
121.3109319297
 21
175.3984229481
  0
POLYLINE
  8
0
 62
7
  6
CONTINUOUS
 66
1
 70
0
  0
VERTEX
  8
0
 62
7
  6
CONTINUOUS
 10
121.681410717
 20
174.5317335014
  0
VERTEX
  8
0
 62
7
  6
CONTINUOUS
 10
121.6815653571
 20
174.5297932707
  0
VERTEX
  8
0
 62
7
  6
CONTINUOUS
 10
121.6820990156
 20
174.513955607
  0
SEQEND
  0
LINE
  8
0
 62
7
  6
CONTINUOUS
 10
121.6821041716
 20
174.5237639777
 11
121.6821041716
 21
173.7376910049
  0
LINE
  8
0
 62
7
  6
CONTINUOUS
 10
132.2321041716
 20
183.2661846957
 11
132.2321041716
 21
174.3161846957
  0
LINE
  8
0
 62
7
  6
CONTINUOUS
 10
132.3821041716
 20
183.0161846957
 11
132.3821041716
 21
181.8161846957
  0
POLYLINE
  8
0
 62
7
  6
CONTINUOUS
 66
1
 70
0
  0
VERTEX
  8
0
 62
7
  6
CONTINUOUS
 10
132.2321041716
 20
180.5161846957
  0
VERTEX
  8
0
 62
7
  6
CONTINUOUS
 10
132.2278411441
 20
180.4337419115
  0
VERTEX
  8
0
 62
7
  6
CONTINUOUS
 10
132.2150885849
 20
180.3518530014
  0
VERTEX
  8
0
 62
7
  6
CONTINUOUS
 10
132.1939548384
 20
180.271212624
  0
VERTEX
  8
0
 62
7
  6
CONTINUOUS
 10
132.1646191308
 20
180.192510485
  0
VERTEX
  8
0
 62
7
  6
CONTINUOUS
 10
132.1273303218
 20
180.1164252361
  0
VERTEX
  8
0
 62
7
  6
CONTINUOUS
 10
132.0824049362
 20
180.0436181873
  0
VERTEX
  8
0
 62
7
  6
CONTINUOUS
 10
132.0302244938
 20
179.9747237403
  0
VERTEX
  8
0
 62
7
  6
CONTINUOUS
 10
131.9712322365
 20
179.9103387454
  0
VERTEX
  8
0
 62
7
  6
CONTINUOUS
 10
131.9059294009
 20
179.8510197474
  0
VERTEX
  8
0
 62
7
  6
CONTINUOUS
 10
131.8348717509
 20
179.7972817838
  0
VERTEX
  8
0
 62
7
  6
CONTINUOUS
 10
131.7586651224
 20
179.7495946264
  0
VERTEX
  8
0
 62
7
  6
CONTINUOUS
 10
131.6779596537
 20
179.708376132
  0
VERTEX
  8
0
 62
7
  6
CONTINUOUS
 10
131.5934448019
 20
179.6739886058
  0
VERTEX
  8
0
 62
7
  6
CONTINUOUS
 10
131.5058432582
 20
179.6467353182
  0
VERTEX
  8
0
 62
7
  6
CONTINUOUS
 10
131.4159042529
 20
179.626857815
  0
VERTEX
  8
0
 62
7
  6
CONTINUOUS
 10
131.3243970294
 20
179.6145340218
  0
VERTEX
  8
0
 62
7
  6
CONTINUOUS
 10
131.2321041716
 20
179.6098769086
  0
SEQEND
  0
LINE
  8
SURFACE
 62
7
  6
CONTINUOUS
 10
124.717890898
 20
178.1715191966
 11
124.3729676957
 21
174.2290289529
  0
POLYLINE
  8
0
 62
7
  6
CONTINUOUS
 66
1
 70
0
  0
VERTEX
  8
0
 62
7
  6
CONTINUOUS
 10
132.2321041716
 20
174.5161846957
  0
VERTEX
  8
0
 62
7
  6
CONTINUOUS
 10
132.2278411441
 20
174.4902771202
  0
VERTEX
  8
0
 62
7
  6
CONTINUOUS
 10
132.2150885849
 20
174.4642534065
  0
VERTEX
  8
0
 62
7
  6
CONTINUOUS
 10
132.1939548384
 20
174.4383315065
  0
VERTEX
  8
0
 62
7
  6
CONTINUOUS
 10
132.1646191308
 20
174.4127397547
  0
VERTEX
  8
0
 62
7
  6
CONTINUOUS
 10
132.1273303218
 20
174.387714654
  0
VERTEX
  8
0
 62
7
  6
CONTINUOUS
 10
132.0824049361
 20
174.3634980929
  0
VERTEX
  8
0
 62
7
  6
CONTINUOUS
 10
132.0302244937
 20
174.3403267908
  0
VERTEX
  8
0
 62
7
  6
CONTINUOUS
 10
131.9712322364
 20
174.3184186508
  0
VERTEX
  8
0
 62
7
  6
CONTINUOUS
 10
131.9059294008
 20
174.2979760345
  0
VERTEX
  8
0
 62
7
  6
CONTINUOUS
 10
131.8348717508
 20
174.2791909542
  0
VERTEX
  8
0
 62
7
  6
CONTINUOUS
 10
131.7586651223
 20
174.2622454524
  0
VERTEX
  8
0
 62
7
  6
CONTINUOUS
 10
131.6779596536
 20
174.2473054648
  0
VERTEX
  8
0
 62
7
  6
CONTINUOUS
 10
131.5934448017
 20
174.2345189059
  0
VERTEX
  8
0
 62
7
  6
CONTINUOUS
 10
131.5058432579
 20
174.2240141959
  0
VERTEX
  8
0
 62
7
  6
CONTINUOUS
 10
131.4159042527
 20
174.2158994619
  0
VERTEX
  8
0
 62
7
  6
CONTINUOUS
 10
131.3243970292
 20
174.210261963
  0
VERTEX
  8
0
 62
7
  6
CONTINUOUS
 10
131.2321041716
 20
174.2071677013
  0
SEQEND
  0
LINE
  8
SURFACE
 62
7
  6
CONTINUOUS
 10
125.9587488909
 20
183.2045018587
 11
124.799226568
 21
178.6502591685
  0
POLYLINE
  8
SURFACE
 62
7
  6
CONTINUOUS
 66
1
 70
0
  0
VERTEX
  8
SURFACE
 62
7
  6
CONTINUOUS
 10
124.9542586679
 20
179.2591770437
  0
VERTEX
  8
SURFACE
 62
7
  6
CONTINUOUS
 10
124.965367733
 20
179.2972255056
  0
VERTEX
  8
SURFACE
 62
7
  6
CONTINUOUS
 10
124.9861045519
 20
179.3507860268
  0
VERTEX
  8
SURFACE
 62
7
  6
CONTINUOUS
 10
125.0085154732
 20
179.3952337192
  0
VERTEX
  8
SURFACE
 62
7
  6
CONTINUOUS
 10
125.0298880813
 20
179.4295940997
  0
VERTEX
  8
SURFACE
 62
7
  6
CONTINUOUS
 10
125.0485525835
 20
179.4547701909
  0
VERTEX
  8
SURFACE
 62
7
  6
CONTINUOUS
 10
125.06348619
 20
179.4720812135
  0
VERTEX
  8
SURFACE
 62
7
  6
CONTINUOUS
 10
125.0739435807
 20
179.4826797644
  0
VERTEX
  8
SURFACE
 62
7
  6
CONTINUOUS
 10
125.079446077
 20
179.4876276915
  0
VERTEX
  8
SURFACE
 62
7
  6
CONTINUOUS
 10
125.0802581037
 20
179.4882948635
  0
SEQEND
  0
LINE
  8
SURFACE
 62
7
  6
CONTINUOUS
 10
120.9869850707
 20
178.6502462249
 11
119.8274594523
 21
183.2045018587
  0
POLYLINE
  8
0
 62
7
  6
CONTINUOUS
 66
1
 70
0
  0
VERTEX
  8
0
 62
7
  6
CONTINUOUS
 10
56.3821038087
 20
90.7499272011
  0
VERTEX
  8
0
 62
7
  6
CONTINUOUS
 10
56.3841055314
 20
90.7183545794
  0
VERTEX
  8
0
 62
7
  6
CONTINUOUS
 10
56.3903018723
 20
90.6864312929
  0
VERTEX
  8
0
 62
7
  6
CONTINUOUS
 10
56.4005916238
 20
90.6555772955
  0
VERTEX
  8
0
 62
7
  6
CONTINUOUS
 10
56.4148012461
 20
90.6263179637
  0
VERTEX
  8
0
 62
7
  6
CONTINUOUS
 10
56.4326904188
 20
90.599150005
  0
VERTEX
  8
0
 62
7
  6
CONTINUOUS
 10
56.4539561276
 20
90.5745343524
  0
VERTEX
  8
0
 62
7
  6
CONTINUOUS
 10
56.4782378576
 20
90.5528884345
  0
VERTEX
  8
0
 62
7
  6
CONTINUOUS
 10
56.5051242712
 20
90.5345787815
  0
VERTEX
  8
0
 62
7
  6
CONTINUOUS
 10
56.5341601914
 20
90.5199152093
  0
VERTEX
  8
0
 62
7
  6
CONTINUOUS
 10
56.5648541041
 20
90.5091458455
  0
VERTEX
  8
0
 62
7
  6
CONTINUOUS
 10
56.5966864525
 20
90.502452943
  0
VERTEX
  8
0
 62
7
  6
CONTINUOUS
 10
56.6320995722
 20
90.4999320199
  0
SEQEND
  0
POLYLINE
  8
SURFACE
 62
7
  6
CONTINUOUS
 66
1
 70
0
  0
VERTEX
  8
SURFACE
 62
7
  6
CONTINUOUS
 10
69.019751163
 20
94.2622040332
  0
VERTEX
  8
SURFACE
 62
7
  6
CONTINUOUS
 10
69.0415511009
 20
94.0180999421
  0
VERTEX
  8
SURFACE
 62
7
  6
CONTINUOUS
 10
69.0725263794
 20
93.7246558457
  0
VERTEX
  8
SURFACE
 62
7
  6
CONTINUOUS
 10
69.1081685832
 20
93.438115585
  0
VERTEX
  8
SURFACE
 62
7
  6
CONTINUOUS
 10
69.1484378055
 20
93.1593379756
  0
VERTEX
  8
SURFACE
 62
7
  6
CONTINUOUS
 10
69.1932970554
 20
92.8891877546
  0
VERTEX
  8
SURFACE
 62
7
  6
CONTINUOUS
 10
69.2427140865
 20
92.6285363763
  0
VERTEX
  8
SURFACE
 62
7
  6
CONTINUOUS
 10
69.2966654814
 20
92.3782567783
  0
VERTEX
  8
SURFACE
 62
7
  6
CONTINUOUS
 10
69.3551368393
 20
92.1392421324
  0
VERTEX
  8
SURFACE
 62
7
  6
CONTINUOUS
 10
69.4181260012
 20
91.9124088186
  0
VERTEX
  8
SURFACE
 62
7
  6
CONTINUOUS
 10
69.4856668113
 20
91.6986418544
  0
VERTEX
  8
SURFACE
 62
7
  6
CONTINUOUS
 10
69.5579554878
 20
91.4985224501
  0
VERTEX
  8
SURFACE
 62
7
  6
CONTINUOUS
 10
69.6355810505
 20
91.3120720039
  0
VERTEX
  8
SURFACE
 62
7
  6
CONTINUOUS
 10
69.7194156782
 20
91.139540774
  0
VERTEX
  8
SURFACE
 62
7
  6
CONTINUOUS
 10
69.8091795673
 20
90.9839739878
  0
VERTEX
  8
SURFACE
 62
7
  6
CONTINUOUS
 10
69.9024926946
 20
90.8505108415
  0
VERTEX
  8
SURFACE
 62
7
  6
CONTINUOUS
 10
69.9966305168
 20
90.741749054
  0
VERTEX
  8
SURFACE
 62
7
  6
CONTINUOUS
 10
70.0911456827
 20
90.6557909144
  0
VERTEX
  8
SURFACE
 62
7
  6
CONTINUOUS
 10
70.1872818604
 20
90.589641199
  0
VERTEX
  8
SURFACE
 62
7
  6
CONTINUOUS
 10
70.2858537883
 20
90.5418051111
  0
VERTEX
  8
SURFACE
 62
7
  6
CONTINUOUS
 10
70.3736437846
 20
90.5147767982
  0
SEQEND
  0
POLYLINE
  8
SURFACE
 62
7
  6
CONTINUOUS
 66
1
 70
0
  0
VERTEX
  8
SURFACE
 62
7
  6
CONTINUOUS
 10
68.7944571802
 20
122.8376600057
  0
VERTEX
  8
SURFACE
 62
7
  6
CONTINUOUS
 10
68.7726572423
 20
123.0817640969
  0
VERTEX
  8
SURFACE
 62
7
  6
CONTINUOUS
 10
68.7416819638
 20
123.3752081933
  0
VERTEX
  8
SURFACE
 62
7
  6
CONTINUOUS
 10
68.7060397599
 20
123.6617484539
  0
VERTEX
  8
SURFACE
 62
7
  6
CONTINUOUS
 10
68.6657705377
 20
123.9405260633
  0
VERTEX
  8
SURFACE
 62
7
  6
CONTINUOUS
 10
68.6209112877
 20
124.2106762843
  0
VERTEX
  8
SURFACE
 62
7
  6
CONTINUOUS
 10
68.5714942566
 20
124.4713276626
  0
VERTEX
  8
SURFACE
 62
7
  6
CONTINUOUS
 10
68.5175428618
 20
124.7216072606
  0
VERTEX
  8
SURFACE
 62
7
  6
CONTINUOUS
 10
68.4590715039
 20
124.9606219065
  0
VERTEX
  8
SURFACE
 62
7
  6
CONTINUOUS
 10
68.3960823419
 20
125.1874552203
  0
VERTEX
  8
SURFACE
 62
7
  6
CONTINUOUS
 10
68.3285415319
 20
125.4012221845
  0
VERTEX
  8
SURFACE
 62
7
  6
CONTINUOUS
 10
68.2562528554
 20
125.6013415888
  0
VERTEX
  8
SURFACE
 62
7
  6
CONTINUOUS
 10
68.1786272926
 20
125.7877920351
  0
VERTEX
  8
SURFACE
 62
7
  6
CONTINUOUS
 10
68.094792665
 20
125.9603232649
  0
VERTEX
  8
SURFACE
 62
7
  6
CONTINUOUS
 10
68.0050287758
 20
126.1158900511
  0
VERTEX
  8
SURFACE
 62
7
  6
CONTINUOUS
 10
67.9117156485
 20
126.2493531974
  0
VERTEX
  8
SURFACE
 62
7
  6
CONTINUOUS
 10
67.8175778264
 20
126.3581149849
  0
VERTEX
  8
SURFACE
 62
7
  6
CONTINUOUS
 10
67.7230626605
 20
126.4440731245
  0
VERTEX
  8
SURFACE
 62
7
  6
CONTINUOUS
 10
67.6269264828
 20
126.5102228399
  0
VERTEX
  8
SURFACE
 62
7
  6
CONTINUOUS
 10
67.5283545549
 20
126.5580589278
  0
VERTEX
  8
SURFACE
 62
7
  6
CONTINUOUS
 10
67.4405645585
 20
126.5850872407
  0
SEQEND
  0
LINE
  8
SURFACE
 62
7
  6
CONTINUOUS
 10
69.0197511604
 20
94.262202756
 11
69.0197304323
 21
94.2627108825
  0
LINE
  8
SURFACE
 62
7
  6
CONTINUOUS
 10
68.7944571828
 20
122.8376612829
 11
68.7944779109
 21
122.8371531564
  0
LINE
  8
0
 62
7
  6
CONTINUOUS
 10
56.3821041716
 20
90.7499295646
 11
56.3821041716
 21
117.8691657233
  0
LINE
  8
DEFAULT_1
 62
7
  6
CENTER
 10
59.3931041716
 20
100.2499320195
 11
59.3931041716
 21
97.8500320195
  0
LINE
  8
0
 62
2
  6
CONTINUOUS
 10
59.3931041716
 20
96.7299320195
 11
59.3931041716
 21
94.9699320195
  0
LINE
  8
DEFAULT_1
 62
7
  6
CENTER
 10
59.3931041716
 20
91.4499320195
 11
59.3931041716
 21
93.8498320195
  0
LINE
  8
SURFACE
 62
7
  6
CONTINUOUS
 10
62.4664779111
 20
94.2627453541
 11
62.4664779111
 21
98.827019925
  0
LINE
  8
SURFACE
 62
7
  6
CONTINUOUS
 10
62.647730432
 20
122.8371186848
 11
62.647730432
 21
118.272844114
  0
LINE
  8
DEFAULT_1
 62
7
  6
CENTER
 10
65.7211041716
 20
125.6499320195
 11
65.7211041716
 21
123.2500320195
  0
LINE
  8
0
 62
2
  6
CONTINUOUS
 10
65.7211041716
 20
122.1299320195
 11
65.7211041716
 21
120.3699320195
  0
LINE
  8
DEFAULT_1
 62
7
  6
CENTER
 10
65.7211041716
 20
116.8499320195
 11
65.7211041716
 21
119.2498320195
  0
LINE
  8
SURFACE
 62
7
  6
CONTINUOUS
 10
68.7944779111
 20
122.8371186846
 11
68.7944779111
 21
118.2728483648
  0
LINE
  8
SURFACE
 62
7
  6
CONTINUOUS
 10
69.019730432
 20
94.2627453543
 11
69.019730432
 21
98.8270156742
  0
LINE
  8
DEFAULT_1
 62
7
  6
CENTER
 10
72.0931041716
 20
100.2499320195
 11
72.0931041716
 21
97.8500320195
  0
LINE
  8
0
 62
2
  6
CONTINUOUS
 10
72.0931041716
 20
96.7299320195
 11
72.0931041716
 21
94.9699320195
  0
LINE
  8
DEFAULT_1
 62
7
  6
CENTER
 10
72.0931041716
 20
91.4499320195
 11
72.0931041716
 21
93.8498320195
  0
LINE
  8
SURFACE
 62
7
  6
CONTINUOUS
 10
75.1664779111
 20
94.2627453541
 11
75.1664779111
 21
98.827019925
  0
LINE
  8
SURFACE
 62
7
  6
CONTINUOUS
 10
75.347730432
 20
122.8371186848
 11
75.347730432
 21
118.272844114
  0
LINE
  8
SURFACE
 62
7
  6
CONTINUOUS
 10
62.64775116
 20
122.837661278
 11
62.6477304323
 21
122.8371531566
  0
LINE
  8
SURFACE
 62
7
  6
CONTINUOUS
 10
62.4664571832
 20
94.2622027609
 11
62.4664779109
 21
94.2627108823
  0
LINE
  8
SURFACE
 62
7
  6
CONTINUOUS
 10
75.34775116
 20
122.837661278
 11
75.3477304323
 21
122.8371531566
  0
LINE
  8
SURFACE
 62
7
  6
CONTINUOUS
 10
75.1664571832
 20
94.2622027609
 11
75.1664779109
 21
94.2627108823
  0
POLYLINE
  8
SURFACE
 62
7
  6
CONTINUOUS
 66
1
 70
0
  0
VERTEX
  8
SURFACE
 62
7
  6
CONTINUOUS
 10
62.6477305207
 20
118.2730569755
  0
VERTEX
  8
SURFACE
 62
7
  6
CONTINUOUS
 10
62.6466354234
 20
118.2546098198
  0
VERTEX
  8
SURFACE
 62
7
  6
CONTINUOUS
 10
62.6422884418
 20
118.2322352267
  0
VERTEX
  8
SURFACE
 62
7
  6
CONTINUOUS
 10
62.6347355683
 20
118.2107804677
  0
VERTEX
  8
SURFACE
 62
7
  6
CONTINUOUS
 10
62.6242382496
 20
118.1908414825
  0
VERTEX
  8
SURFACE
 62
7
  6
CONTINUOUS
 10
62.611200681
 20
118.1729310997
  0
VERTEX
  8
SURFACE
 62
7
  6
CONTINUOUS
 10
62.5961348955
 20
118.1574376243
  0
VERTEX
  8
SURFACE
 62
7
  6
CONTINUOUS
 10
62.5795973164
 20
118.1445901552
  0
VERTEX
  8
SURFACE
 62
7
  6
CONTINUOUS
 10
62.5621710458
 20
118.1344858314
  0
VERTEX
  8
SURFACE
 62
7
  6
CONTINUOUS
 10
62.5444302815
 20
118.1270914369
  0
VERTEX
  8
SURFACE
 62
7
  6
CONTINUOUS
 10
62.5270053535
 20
118.1222774514
  0
VERTEX
  8
SURFACE
 62
7
  6
CONTINUOUS
 10
62.5106326278
 20
118.119790456
  0
VERTEX
  8
SURFACE
 62
7
  6
CONTINUOUS
 10
62.4977864448
 20
118.1191890854
  0
SEQEND
  0
POLYLINE
  8
SURFACE
 62
7
  6
CONTINUOUS
 66
1
 70
0
  0
VERTEX
  8
SURFACE
 62
7
  6
CONTINUOUS
 10
62.4664778225
 20
98.8268070634
  0
VERTEX
  8
SURFACE
 62
7
  6
CONTINUOUS
 10
62.4675729197
 20
98.8452542192
  0
VERTEX
  8
SURFACE
 62
7
  6
CONTINUOUS
 10
62.4719199014
 20
98.8676288122
  0
VERTEX
  8
SURFACE
 62
7
  6
CONTINUOUS
 10
62.4794727749
 20
98.8890835712
  0
VERTEX
  8
SURFACE
 62
7
  6
CONTINUOUS
 10
62.4899700936
 20
98.9090225565
  0
VERTEX
  8
SURFACE
 62
7
  6
CONTINUOUS
 10
62.5030076622
 20
98.9269329393
  0
VERTEX
  8
SURFACE
 62
7
  6
CONTINUOUS
 10
62.5180734477
 20
98.9424264146
  0
VERTEX
  8
SURFACE
 62
7
  6
CONTINUOUS
 10
62.5346110268
 20
98.9552738837
  0
VERTEX
  8
SURFACE
 62
7
  6
CONTINUOUS
 10
62.5520372974
 20
98.9653782075
  0
VERTEX
  8
SURFACE
 62
7
  6
CONTINUOUS
 10
62.5697780617
 20
98.9727726021
  0
VERTEX
  8
SURFACE
 62
7
  6
CONTINUOUS
 10
62.5872029896
 20
98.9775865876
  0
VERTEX
  8
SURFACE
 62
7
  6
CONTINUOUS
 10
62.6035757154
 20
98.9800735829
  0
VERTEX
  8
SURFACE
 62
7
  6
CONTINUOUS
 10
62.6164218983
 20
98.9806749536
  0
SEQEND
  0
POLYLINE
  8
SURFACE
 62
7
  6
CONTINUOUS
 66
1
 70
0
  0
VERTEX
  8
SURFACE
 62
7
  6
CONTINUOUS
 10
75.3477305207
 20
118.2730569755
  0
VERTEX
  8
SURFACE
 62
7
  6
CONTINUOUS
 10
75.3466354234
 20
118.2546098198
  0
VERTEX
  8
SURFACE
 62
7
  6
CONTINUOUS
 10
75.3422884418
 20
118.2322352267
  0
VERTEX
  8
SURFACE
 62
7
  6
CONTINUOUS
 10
75.3347355683
 20
118.2107804677
  0
VERTEX
  8
SURFACE
 62
7
  6
CONTINUOUS
 10
75.3242382496
 20
118.1908414825
  0
VERTEX
  8
SURFACE
 62
7
  6
CONTINUOUS
 10
75.311200681
 20
118.1729310997
  0
VERTEX
  8
SURFACE
 62
7
  6
CONTINUOUS
 10
75.2961348955
 20
118.1574376243
  0
VERTEX
  8
SURFACE
 62
7
  6
CONTINUOUS
 10
75.2795973164
 20
118.1445901552
  0
VERTEX
  8
SURFACE
 62
7
  6
CONTINUOUS
 10
75.2621710458
 20
118.1344858314
  0
VERTEX
  8
SURFACE
 62
7
  6
CONTINUOUS
 10
75.2444302815
 20
118.1270914369
  0
VERTEX
  8
SURFACE
 62
7
  6
CONTINUOUS
 10
75.2270053535
 20
118.1222774514
  0
VERTEX
  8
SURFACE
 62
7
  6
CONTINUOUS
 10
75.2106326278
 20
118.119790456
  0
VERTEX
  8
SURFACE
 62
7
  6
CONTINUOUS
 10
75.1977864448
 20
118.1191890854
  0
SEQEND
  0
POLYLINE
  8
SURFACE
 62
7
  6
CONTINUOUS
 66
1
 70
0
  0
VERTEX
  8
SURFACE
 62
7
  6
CONTINUOUS
 10
75.1664778225
 20
98.8268070634
  0
VERTEX
  8
SURFACE
 62
7
  6
CONTINUOUS
 10
75.1675729197
 20
98.8452542192
  0
VERTEX
  8
SURFACE
 62
7
  6
CONTINUOUS
 10
75.1719199014
 20
98.8676288122
  0
VERTEX
  8
SURFACE
 62
7
  6
CONTINUOUS
 10
75.1794727749
 20
98.8890835712
  0
VERTEX
  8
SURFACE
 62
7
  6
CONTINUOUS
 10
75.1899700936
 20
98.9090225565
  0
VERTEX
  8
SURFACE
 62
7
  6
CONTINUOUS
 10
75.2030076622
 20
98.9269329393
  0
VERTEX
  8
SURFACE
 62
7
  6
CONTINUOUS
 10
75.2180734477
 20
98.9424264146
  0
VERTEX
  8
SURFACE
 62
7
  6
CONTINUOUS
 10
75.2346110268
 20
98.9552738837
  0
VERTEX
  8
SURFACE
 62
7
  6
CONTINUOUS
 10
75.2520372974
 20
98.9653782075
  0
VERTEX
  8
SURFACE
 62
7
  6
CONTINUOUS
 10
75.2697780617
 20
98.9727726021
  0
VERTEX
  8
SURFACE
 62
7
  6
CONTINUOUS
 10
75.2872029896
 20
98.9775865876
  0
VERTEX
  8
SURFACE
 62
7
  6
CONTINUOUS
 10
75.3035757154
 20
98.9800735829
  0
VERTEX
  8
SURFACE
 62
7
  6
CONTINUOUS
 10
75.3164218983
 20
98.9806749536
  0
SEQEND
  0
POLYLINE
  8
SURFACE
 62
7
  6
CONTINUOUS
 66
1
 70
0
  0
VERTEX
  8
SURFACE
 62
7
  6
CONTINUOUS
 10
64.0016516622
 20
126.585089211
  0
VERTEX
  8
SURFACE
 62
7
  6
CONTINUOUS
 10
63.9129065041
 20
126.5576894661
  0
VERTEX
  8
SURFACE
 62
7
  6
CONTINUOUS
 10
63.8144207055
 20
126.5097187311
  0
VERTEX
  8
SURFACE
 62
7
  6
CONTINUOUS
 10
63.7183624153
 20
126.4434492864
  0
VERTEX
  8
SURFACE
 62
7
  6
CONTINUOUS
 10
63.6239147938
 20
126.357378656
  0
VERTEX
  8
SURFACE
 62
7
  6
CONTINUOUS
 10
63.529838558
 20
126.248510073
  0
VERTEX
  8
SURFACE
 62
7
  6
CONTINUOUS
 10
63.4365990818
 20
126.1149732307
  0
VERTEX
  8
SURFACE
 62
7
  6
CONTINUOUS
 10
63.3469035495
 20
125.9593526798
  0
VERTEX
  8
SURFACE
 62
7
  6
CONTINUOUS
 10
63.2631121958
 20
125.7867465062
  0
VERTEX
  8
SURFACE
 62
7
  6
CONTINUOUS
 10
63.1855043065
 20
125.6001757092
  0
VERTEX
  8
SURFACE
 62
7
  6
CONTINUOUS
 10
63.1132248141
 20
125.3999119404
  0
VERTEX
  8
SURFACE
 62
7
  6
CONTINUOUS
 10
63.0456974677
 20
125.1860069414
  0
VERTEX
  8
SURFACE
 62
7
  6
CONTINUOUS
 10
62.9827270401
 20
124.9590484294
  0
VERTEX
  8
SURFACE
 62
7
  6
CONTINUOUS
 10
62.9242772269
 20
124.7199157371
  0
VERTEX
  8
SURFACE
 62
7
  6
CONTINUOUS
 10
62.8703482867
 20
124.4695178325
  0
VERTEX
  8
SURFACE
 62
7
  6
CONTINUOUS
 10
62.8209544587
 20
124.2087455805
  0
VERTEX
  8
SURFACE
 62
7
  6
CONTINUOUS
 10
62.7761198486
 20
123.9384739383
  0
VERTEX
  8
SURFACE
 62
7
  6
CONTINUOUS
 10
62.7358772499
 20
123.6595768945
  0
VERTEX
  8
SURFACE
 62
7
  6
CONTINUOUS
 10
62.7002640415
 20
123.3729220994
  0
VERTEX
  8
SURFACE
 62
7
  6
CONTINUOUS
 10
62.6693203536
 20
123.0793715743
  0
VERTEX
  8
SURFACE
 62
7
  6
CONTINUOUS
 10
62.6477511626
 20
122.8376600007
  0
SEQEND
  0
POLYLINE
  8
SURFACE
 62
7
  6
CONTINUOUS
 66
1
 70
0
  0
VERTEX
  8
SURFACE
 62
7
  6
CONTINUOUS
 10
76.7016516622
 20
126.585089211
  0
VERTEX
  8
SURFACE
 62
7
  6
CONTINUOUS
 10
76.6129065041
 20
126.5576894661
  0
VERTEX
  8
SURFACE
 62
7
  6
CONTINUOUS
 10
76.5144207055
 20
126.5097187311
  0
VERTEX
  8
SURFACE
 62
7
  6
CONTINUOUS
 10
76.4183624153
 20
126.4434492864
  0
VERTEX
  8
SURFACE
 62
7
  6
CONTINUOUS
 10
76.3239147938
 20
126.357378656
  0
VERTEX
  8
SURFACE
 62
7
  6
CONTINUOUS
 10
76.229838558
 20
126.248510073
  0
VERTEX
  8
SURFACE
 62
7
  6
CONTINUOUS
 10
76.1365990818
 20
126.1149732307
  0
VERTEX
  8
SURFACE
 62
7
  6
CONTINUOUS
 10
76.0469035495
 20
125.9593526798
  0
VERTEX
  8
SURFACE
 62
7
  6
CONTINUOUS
 10
75.9631121958
 20
125.7867465062
  0
VERTEX
  8
SURFACE
 62
7
  6
CONTINUOUS
 10
75.8855043065
 20
125.6001757092
  0
VERTEX
  8
SURFACE
 62
7
  6
CONTINUOUS
 10
75.8132248141
 20
125.3999119404
  0
VERTEX
  8
SURFACE
 62
7
  6
CONTINUOUS
 10
75.7456974677
 20
125.1860069414
  0
VERTEX
  8
SURFACE
 62
7
  6
CONTINUOUS
 10
75.6827270401
 20
124.9590484294
  0
VERTEX
  8
SURFACE
 62
7
  6
CONTINUOUS
 10
75.6242772269
 20
124.7199157372
  0
VERTEX
  8
SURFACE
 62
7
  6
CONTINUOUS
 10
75.5703482867
 20
124.4695178325
  0
VERTEX
  8
SURFACE
 62
7
  6
CONTINUOUS
 10
75.5209544587
 20
124.2087455805
  0
VERTEX
  8
SURFACE
 62
7
  6
CONTINUOUS
 10
75.4761198486
 20
123.9384739383
  0
VERTEX
  8
SURFACE
 62
7
  6
CONTINUOUS
 10
75.4358772499
 20
123.6595768945
  0
VERTEX
  8
SURFACE
 62
7
  6
CONTINUOUS
 10
75.4002640415
 20
123.3729220994
  0
VERTEX
  8
SURFACE
 62
7
  6
CONTINUOUS
 10
75.3693203536
 20
123.0793715743
  0
VERTEX
  8
SURFACE
 62
7
  6
CONTINUOUS
 10
75.3477511626
 20
122.8376600007
  0
SEQEND
  0
POLYLINE
  8
SURFACE
 62
7
  6
CONTINUOUS
 66
1
 70
0
  0
VERTEX
  8
SURFACE
 62
7
  6
CONTINUOUS
 10
89.4016516622
 20
126.585089211
  0
VERTEX
  8
SURFACE
 62
7
  6
CONTINUOUS
 10
89.3129065041
 20
126.5576894661
  0
VERTEX
  8
SURFACE
 62
7
  6
CONTINUOUS
 10
89.2144207055
 20
126.5097187311
  0
VERTEX
  8
SURFACE
 62
7
  6
CONTINUOUS
 10
89.1183624153
 20
126.4434492864
  0
VERTEX
  8
SURFACE
 62
7
  6
CONTINUOUS
 10
89.0239147938
 20
126.357378656
  0
VERTEX
  8
SURFACE
 62
7
  6
CONTINUOUS
 10
88.929838558
 20
126.248510073
  0
VERTEX
  8
SURFACE
 62
7
  6
CONTINUOUS
 10
88.8365990818
 20
126.1149732307
  0
VERTEX
  8
SURFACE
 62
7
  6
CONTINUOUS
 10
88.7469035495
 20
125.9593526798
  0
VERTEX
  8
SURFACE
 62
7
  6
CONTINUOUS
 10
88.6631121958
 20
125.7867465063
  0
VERTEX
  8
SURFACE
 62
7
  6
CONTINUOUS
 10
88.5855043065
 20
125.6001757092
  0
VERTEX
  8
SURFACE
 62
7
  6
CONTINUOUS
 10
88.5132248141
 20
125.3999119404
  0
VERTEX
  8
SURFACE
 62
7
  6
CONTINUOUS
 10
88.4456974677
 20
125.1860069414
  0
VERTEX
  8
SURFACE
 62
7
  6
CONTINUOUS
 10
88.3827270401
 20
124.9590484294
  0
VERTEX
  8
SURFACE
 62
7
  6
CONTINUOUS
 10
88.3242772269
 20
124.7199157372
  0
VERTEX
  8
SURFACE
 62
7
  6
CONTINUOUS
 10
88.2703482867
 20
124.4695178325
  0
VERTEX
  8
SURFACE
 62
7
  6
CONTINUOUS
 10
88.2209544587
 20
124.2087455805
  0
VERTEX
  8
SURFACE
 62
7
  6
CONTINUOUS
 10
88.1761198486
 20
123.9384739383
  0
VERTEX
  8
SURFACE
 62
7
  6
CONTINUOUS
 10
88.1358772499
 20
123.6595768945
  0
VERTEX
  8
SURFACE
 62
7
  6
CONTINUOUS
 10
88.1002640415
 20
123.3729220994
  0
VERTEX
  8
SURFACE
 62
7
  6
CONTINUOUS
 10
88.0693203536
 20
123.0793715743
  0
VERTEX
  8
SURFACE
 62
7
  6
CONTINUOUS
 10
88.0477511626
 20
122.8376600007
  0
SEQEND
  0
LINE
  8
SURFACE
 62
7
  6
CONTINUOUS
 10
124.6125949929
 20
90.5147850819
 11
124.6125563537
 21
90.5147762637
  0
LINE
  8
SURFACE
 62
7
  6
CONTINUOUS
 10
111.9125949929
 20
90.5147850819
 11
111.9125563537
 21
90.5147762637
  0
LINE
  8
SURFACE
 62
7
  6
CONTINUOUS
 10
99.2125949929
 20
90.5147850819
 11
99.2125563537
 21
90.5147762637
  0
LINE
  8
SURFACE
 62
7
  6
CONTINUOUS
 10
124.5890356544
 20
90.5097992985
 11
124.6125949929
 21
90.5147850819
  0
LINE
  8
SURFACE
 62
7
  6
CONTINUOUS
 10
111.8890356544
 20
90.5097992985
 11
111.9125949929
 21
90.5147850819
  0
LINE
  8
SURFACE
 62
7
  6
CONTINUOUS
 10
99.1890356544
 20
90.5097992985
 11
99.2125949929
 21
90.5147850819
  0
POLYLINE
  8
SURFACE
 62
7
  6
CONTINUOUS
 66
1
 70
0
  0
VERTEX
  8
SURFACE
 62
7
  6
CONTINUOUS
 10
124.4949978381
 20
90.4999320232
  0
VERTEX
  8
SURFACE
 62
7
  6
CONTINUOUS
 10
124.5201520589
 20
90.500714384
  0
VERTEX
  8
SURFACE
 62
7
  6
CONTINUOUS
 10
124.5546981679
 20
90.5041254847
  0
VERTEX
  8
SURFACE
 62
7
  6
CONTINUOUS
 10
124.5890356544
 20
90.5097992985
  0
SEQEND
  0
POLYLINE
  8
SURFACE
 62
7
  6
CONTINUOUS
 66
1
 70
0
  0
VERTEX
  8
SURFACE
 62
7
  6
CONTINUOUS
 10
111.7949978381
 20
90.4999320232
  0
VERTEX
  8
SURFACE
 62
7
  6
CONTINUOUS
 10
111.8201520589
 20
90.500714384
  0
VERTEX
  8
SURFACE
 62
7
  6
CONTINUOUS
 10
111.8546981679
 20
90.5041254847
  0
VERTEX
  8
SURFACE
 62
7
  6
CONTINUOUS
 10
111.8890356544
 20
90.5097992985
  0
SEQEND
  0
POLYLINE
  8
SURFACE
 62
7
  6
CONTINUOUS
 66
1
 70
0
  0
VERTEX
  8
SURFACE
 62
7
  6
CONTINUOUS
 10
99.0949978381
 20
90.4999320232
  0
VERTEX
  8
SURFACE
 62
7
  6
CONTINUOUS
 10
99.1201520589
 20
90.500714384
  0
VERTEX
  8
SURFACE
 62
7
  6
CONTINUOUS
 10
99.1546981679
 20
90.5041254847
  0
VERTEX
  8
SURFACE
 62
7
  6
CONTINUOUS
 10
99.1890356544
 20
90.5097992985
  0
SEQEND
  0
LINE
  8
0
 62
7
  6
CONTINUOUS
 10
60.9951444095
 20
90.4999320195
 11
56.6321156427
 21
90.4999320195
  0
LINE
  8
SURFACE
 62
7
  6
CONTINUOUS
 10
70.4910649364
 20
90.4999320195
 11
73.6951444095
 21
90.4999320195
  0
LINE
  8
SURFACE
 62
7
  6
CONTINUOUS
 10
83.1910649364
 20
90.4999320195
 11
86.3951444095
 21
90.4999320195
  0
LINE
  8
SURFACE
 62
7
  6
CONTINUOUS
 10
95.8910649364
 20
90.4999320195
 11
99.0951444095
 21
90.4999320195
  0
LINE
  8
SURFACE
 62
7
  6
CONTINUOUS
 10
108.5910649364
 20
90.4999320195
 11
111.7951444095
 21
90.4999320195
  0
LINE
  8
SURFACE
 62
7
  6
CONTINUOUS
 10
121.2910649364
 20
90.4999320195
 11
124.4951444095
 21
90.4999320195
  0
POLYLINE
  8
SURFACE
 62
7
  6
CONTINUOUS
 66
1
 70
0
  0
VERTEX
  8
SURFACE
 62
7
  6
CONTINUOUS
 10
70.3979294908
 20
90.5096528294
  0
VERTEX
  8
SURFACE
 62
7
  6
CONTINUOUS
 10
70.4320851247
 20
90.504048677
  0
VERTEX
  8
SURFACE
 62
7
  6
CONTINUOUS
 10
70.4664567347
 20
90.5006901376
  0
VERTEX
  8
SURFACE
 62
7
  6
CONTINUOUS
 10
70.4912113681
 20
90.4999320232
  0
SEQEND
  0
POLYLINE
  8
SURFACE
 62
7
  6
CONTINUOUS
 66
1
 70
0
  0
VERTEX
  8
SURFACE
 62
7
  6
CONTINUOUS
 10
83.0979294908
 20
90.5096528294
  0
VERTEX
  8
SURFACE
 62
7
  6
CONTINUOUS
 10
83.1320851247
 20
90.504048677
  0
VERTEX
  8
SURFACE
 62
7
  6
CONTINUOUS
 10
83.1664567347
 20
90.5006901376
  0
VERTEX
  8
SURFACE
 62
7
  6
CONTINUOUS
 10
83.1912113681
 20
90.4999320232
  0
SEQEND
  0
LINE
  8
SURFACE
 62
7
  6
CONTINUOUS
 10
70.3736150001
 20
90.5147847052
 11
70.3979294908
 21
90.5096528294
  0
LINE
  8
SURFACE
 62
7
  6
CONTINUOUS
 10
83.0736150001
 20
90.5147847052
 11
83.0979294908
 21
90.5096528294
  0
POLYLINE
  8
SURFACE
 62
7
  6
CONTINUOUS
 66
1
 70
0
  0
VERTEX
  8
SURFACE
 62
7
  6
CONTINUOUS
 10
81.719751163
 20
94.2622040332
  0
VERTEX
  8
SURFACE
 62
7
  6
CONTINUOUS
 10
81.7415511009
 20
94.0180999421
  0
VERTEX
  8
SURFACE
 62
7
  6
CONTINUOUS
 10
81.7725263794
 20
93.7246558457
  0
VERTEX
  8
SURFACE
 62
7
  6
CONTINUOUS
 10
81.8081685832
 20
93.438115585
  0
VERTEX
  8
SURFACE
 62
7
  6
CONTINUOUS
 10
81.8484378055
 20
93.1593379756
  0
VERTEX
  8
SURFACE
 62
7
  6
CONTINUOUS
 10
81.8932970554
 20
92.8891877546
  0
VERTEX
  8
SURFACE
 62
7
  6
CONTINUOUS
 10
81.9427140865
 20
92.6285363763
  0
VERTEX
  8
SURFACE
 62
7
  6
CONTINUOUS
 10
81.9966654814
 20
92.3782567783
  0
VERTEX
  8
SURFACE
 62
7
  6
CONTINUOUS
 10
82.0551368393
 20
92.1392421324
  0
VERTEX
  8
SURFACE
 62
7
  6
CONTINUOUS
 10
82.1181260012
 20
91.9124088186
  0
VERTEX
  8
SURFACE
 62
7
  6
CONTINUOUS
 10
82.1856668113
 20
91.6986418544
  0
VERTEX
  8
SURFACE
 62
7
  6
CONTINUOUS
 10
82.2579554878
 20
91.4985224501
  0
VERTEX
  8
SURFACE
 62
7
  6
CONTINUOUS
 10
82.3355810505
 20
91.3120720039
  0
VERTEX
  8
SURFACE
 62
7
  6
CONTINUOUS
 10
82.4194156782
 20
91.139540774
  0
VERTEX
  8
SURFACE
 62
7
  6
CONTINUOUS
 10
82.5091795673
 20
90.9839739878
  0
VERTEX
  8
SURFACE
 62
7
  6
CONTINUOUS
 10
82.6024926946
 20
90.8505108415
  0
VERTEX
  8
SURFACE
 62
7
  6
CONTINUOUS
 10
82.6966305168
 20
90.741749054
  0
VERTEX
  8
SURFACE
 62
7
  6
CONTINUOUS
 10
82.7911456827
 20
90.6557909144
  0
VERTEX
  8
SURFACE
 62
7
  6
CONTINUOUS
 10
82.8872818604
 20
90.589641199
  0
VERTEX
  8
SURFACE
 62
7
  6
CONTINUOUS
 10
82.9858537883
 20
90.5418051111
  0
VERTEX
  8
SURFACE
 62
7
  6
CONTINUOUS
 10
83.0736437846
 20
90.5147767982
  0
SEQEND
  0
POLYLINE
  8
SURFACE
 62
7
  6
CONTINUOUS
 66
1
 70
0
  0
VERTEX
  8
SURFACE
 62
7
  6
CONTINUOUS
 10
81.4944571802
 20
122.8376600057
  0
VERTEX
  8
SURFACE
 62
7
  6
CONTINUOUS
 10
81.4726572423
 20
123.0817640969
  0
VERTEX
  8
SURFACE
 62
7
  6
CONTINUOUS
 10
81.4416819638
 20
123.3752081933
  0
VERTEX
  8
SURFACE
 62
7
  6
CONTINUOUS
 10
81.4060397599
 20
123.6617484539
  0
VERTEX
  8
SURFACE
 62
7
  6
CONTINUOUS
 10
81.3657705377
 20
123.9405260633
  0
VERTEX
  8
SURFACE
 62
7
  6
CONTINUOUS
 10
81.3209112877
 20
124.2106762843
  0
VERTEX
  8
SURFACE
 62
7
  6
CONTINUOUS
 10
81.2714942566
 20
124.4713276626
  0
VERTEX
  8
SURFACE
 62
7
  6
CONTINUOUS
 10
81.2175428618
 20
124.7216072606
  0
VERTEX
  8
SURFACE
 62
7
  6
CONTINUOUS
 10
81.1590715039
 20
124.9606219065
  0
VERTEX
  8
SURFACE
 62
7
  6
CONTINUOUS
 10
81.0960823419
 20
125.1874552203
  0
VERTEX
  8
SURFACE
 62
7
  6
CONTINUOUS
 10
81.0285415319
 20
125.4012221845
  0
VERTEX
  8
SURFACE
 62
7
  6
CONTINUOUS
 10
80.9562528554
 20
125.6013415888
  0
VERTEX
  8
SURFACE
 62
7
  6
CONTINUOUS
 10
80.8786272926
 20
125.7877920351
  0
VERTEX
  8
SURFACE
 62
7
  6
CONTINUOUS
 10
80.794792665
 20
125.9603232649
  0
VERTEX
  8
SURFACE
 62
7
  6
CONTINUOUS
 10
80.7050287758
 20
126.1158900511
  0
VERTEX
  8
SURFACE
 62
7
  6
CONTINUOUS
 10
80.6117156485
 20
126.2493531974
  0
VERTEX
  8
SURFACE
 62
7
  6
CONTINUOUS
 10
80.5175778264
 20
126.3581149849
  0
VERTEX
  8
SURFACE
 62
7
  6
CONTINUOUS
 10
80.4230626605
 20
126.4440731245
  0
VERTEX
  8
SURFACE
 62
7
  6
CONTINUOUS
 10
80.3269264828
 20
126.5102228399
  0
VERTEX
  8
SURFACE
 62
7
  6
CONTINUOUS
 10
80.2283545549
 20
126.5580589278
  0
VERTEX
  8
SURFACE
 62
7
  6
CONTINUOUS
 10
80.1405645585
 20
126.5850872407
  0
SEQEND
  0
POLYLINE
  8
SURFACE
 62
7
  6
CONTINUOUS
 66
1
 70
0
  0
VERTEX
  8
SURFACE
 62
7
  6
CONTINUOUS
 10
94.419751163
 20
94.2622040332
  0
VERTEX
  8
SURFACE
 62
7
  6
CONTINUOUS
 10
94.4415511009
 20
94.0180999421
  0
VERTEX
  8
SURFACE
 62
7
  6
CONTINUOUS
 10
94.4725263794
 20
93.7246558457
  0
VERTEX
  8
SURFACE
 62
7
  6
CONTINUOUS
 10
94.5081685832
 20
93.438115585
  0
VERTEX
  8
SURFACE
 62
7
  6
CONTINUOUS
 10
94.5484378055
 20
93.1593379756
  0
VERTEX
  8
SURFACE
 62
7
  6
CONTINUOUS
 10
94.5932970554
 20
92.8891877546
  0
VERTEX
  8
SURFACE
 62
7
  6
CONTINUOUS
 10
94.6427140865
 20
92.6285363763
  0
VERTEX
  8
SURFACE
 62
7
  6
CONTINUOUS
 10
94.6966654814
 20
92.3782567783
  0
VERTEX
  8
SURFACE
 62
7
  6
CONTINUOUS
 10
94.7551368393
 20
92.1392421324
  0
VERTEX
  8
SURFACE
 62
7
  6
CONTINUOUS
 10
94.8181260012
 20
91.9124088186
  0
VERTEX
  8
SURFACE
 62
7
  6
CONTINUOUS
 10
94.8856668113
 20
91.6986418544
  0
VERTEX
  8
SURFACE
 62
7
  6
CONTINUOUS
 10
94.9579554878
 20
91.4985224501
  0
VERTEX
  8
SURFACE
 62
7
  6
CONTINUOUS
 10
95.0355810505
 20
91.3120720039
  0
VERTEX
  8
SURFACE
 62
7
  6
CONTINUOUS
 10
95.1194156782
 20
91.139540774
  0
VERTEX
  8
SURFACE
 62
7
  6
CONTINUOUS
 10
95.2091795673
 20
90.9839739878
  0
VERTEX
  8
SURFACE
 62
7
  6
CONTINUOUS
 10
95.3024926946
 20
90.8505108415
  0
VERTEX
  8
SURFACE
 62
7
  6
CONTINUOUS
 10
95.3966305168
 20
90.741749054
  0
VERTEX
  8
SURFACE
 62
7
  6
CONTINUOUS
 10
95.4911456827
 20
90.6557909144
  0
VERTEX
  8
SURFACE
 62
7
  6
CONTINUOUS
 10
95.5872818604
 20
90.589641199
  0
VERTEX
  8
SURFACE
 62
7
  6
CONTINUOUS
 10
95.6858537883
 20
90.5418051111
  0
VERTEX
  8
SURFACE
 62
7
  6
CONTINUOUS
 10
95.7736437846
 20
90.5147767982
  0
SEQEND
  0
POLYLINE
  8
SURFACE
 62
7
  6
CONTINUOUS
 66
1
 70
0
  0
VERTEX
  8
SURFACE
 62
7
  6
CONTINUOUS
 10
94.1944571802
 20
122.8376600057
  0
VERTEX
  8
SURFACE
 62
7
  6
CONTINUOUS
 10
94.1726572423
 20
123.0817640968
  0
VERTEX
  8
SURFACE
 62
7
  6
CONTINUOUS
 10
94.1416819638
 20
123.3752081933
  0
VERTEX
  8
SURFACE
 62
7
  6
CONTINUOUS
 10
94.1060397599
 20
123.6617484539
  0
VERTEX
  8
SURFACE
 62
7
  6
CONTINUOUS
 10
94.0657705377
 20
123.9405260633
  0
VERTEX
  8
SURFACE
 62
7
  6
CONTINUOUS
 10
94.0209112877
 20
124.2106762843
  0
VERTEX
  8
SURFACE
 62
7
  6
CONTINUOUS
 10
93.9714942566
 20
124.4713276626
  0
VERTEX
  8
SURFACE
 62
7
  6
CONTINUOUS
 10
93.9175428618
 20
124.7216072606
  0
VERTEX
  8
SURFACE
 62
7
  6
CONTINUOUS
 10
93.8590715039
 20
124.9606219065
  0
VERTEX
  8
SURFACE
 62
7
  6
CONTINUOUS
 10
93.7960823419
 20
125.1874552203
  0
VERTEX
  8
SURFACE
 62
7
  6
CONTINUOUS
 10
93.7285415319
 20
125.4012221845
  0
VERTEX
  8
SURFACE
 62
7
  6
CONTINUOUS
 10
93.6562528554
 20
125.6013415888
  0
VERTEX
  8
SURFACE
 62
7
  6
CONTINUOUS
 10
93.5786272926
 20
125.7877920351
  0
VERTEX
  8
SURFACE
 62
7
  6
CONTINUOUS
 10
93.494792665
 20
125.9603232649
  0
VERTEX
  8
SURFACE
 62
7
  6
CONTINUOUS
 10
93.4050287758
 20
126.1158900511
  0
VERTEX
  8
SURFACE
 62
7
  6
CONTINUOUS
 10
93.3117156485
 20
126.2493531974
  0
VERTEX
  8
SURFACE
 62
7
  6
CONTINUOUS
 10
93.2175778264
 20
126.3581149849
  0
VERTEX
  8
SURFACE
 62
7
  6
CONTINUOUS
 10
93.1230626605
 20
126.4440731245
  0
VERTEX
  8
SURFACE
 62
7
  6
CONTINUOUS
 10
93.0269264828
 20
126.5102228399
  0
VERTEX
  8
SURFACE
 62
7
  6
CONTINUOUS
 10
92.9283545549
 20
126.5580589278
  0
VERTEX
  8
SURFACE
 62
7
  6
CONTINUOUS
 10
92.8405645585
 20
126.5850872407
  0
SEQEND
  0
LINE
  8
SURFACE
 62
7
  6
CONTINUOUS
 10
81.7197511604
 20
94.262202756
 11
81.7197304323
 21
94.2627108825
  0
LINE
  8
SURFACE
 62
7
  6
CONTINUOUS
 10
81.4944571828
 20
122.8376612829
 11
81.4944779109
 21
122.8371531564
  0
LINE
  8
SURFACE
 62
7
  6
CONTINUOUS
 10
94.4197511604
 20
94.262202756
 11
94.4197304323
 21
94.2627108825
  0
LINE
  8
SURFACE
 62
7
  6
CONTINUOUS
 10
94.1944571828
 20
122.8376612829
 11
94.1944779109
 21
122.8371531564
  0
LINE
  8
DEFAULT_1
 62
7
  6
CENTER
 10
78.4211041716
 20
125.6499320195
 11
78.4211041716
 21
123.2500320195
  0
LINE
  8
0
 62
2
  6
CONTINUOUS
 10
78.4211041716
 20
122.1299320195
 11
78.4211041716
 21
120.3699320195
  0
LINE
  8
DEFAULT_1
 62
7
  6
CENTER
 10
78.4211041716
 20
116.8499320195
 11
78.4211041716
 21
119.2498320195
  0
LINE
  8
SURFACE
 62
7
  6
CONTINUOUS
 10
81.4944779111
 20
122.8371186846
 11
81.4944779111
 21
118.2728483648
  0
LINE
  8
SURFACE
 62
7
  6
CONTINUOUS
 10
81.719730432
 20
94.2627453543
 11
81.719730432
 21
98.8270156742
  0
LINE
  8
DEFAULT_1
 62
7
  6
CENTER
 10
84.7931041716
 20
100.2499320195
 11
84.7931041716
 21
97.8500320195
  0
LINE
  8
0
 62
2
  6
CONTINUOUS
 10
84.7931041716
 20
96.7299320195
 11
84.7931041716
 21
94.9699320195
  0
LINE
  8
DEFAULT_1
 62
7
  6
CENTER
 10
84.7931041716
 20
91.4499320195
 11
84.7931041716
 21
93.8498320195
  0
LINE
  8
SURFACE
 62
7
  6
CONTINUOUS
 10
87.8664779111
 20
94.2627453541
 11
87.8664779111
 21
98.827019925
  0
LINE
  8
SURFACE
 62
7
  6
CONTINUOUS
 10
88.047730432
 20
122.8371186848
 11
88.047730432
 21
118.272844114
  0
LINE
  8
DEFAULT_1
 62
7
  6
CENTER
 10
91.1211041716
 20
125.6499320195
 11
91.1211041716
 21
123.2500320195
  0
LINE
  8
0
 62
2
  6
CONTINUOUS
 10
91.1211041716
 20
122.1299320195
 11
91.1211041716
 21
120.3699320195
  0
LINE
  8
DEFAULT_1
 62
7
  6
CENTER
 10
91.1211041716
 20
116.8499320195
 11
91.1211041716
 21
119.2498320195
  0
LINE
  8
SURFACE
 62
7
  6
CONTINUOUS
 10
94.1944779111
 20
122.8371186846
 11
94.1944779111
 21
118.2728483648
  0
LINE
  8
SURFACE
 62
7
  6
CENTER
 10
94.3071041716
 20
112.9499320195
 11
94.3071041716
 21
110.5500320195
  0
LINE
  8
SURFACE
 62
2
  6
CONTINUOUS
 10
94.3071041716
 20
109.4299320195
 11
94.3071041716
 21
107.6699320195
  0
LINE
  8
SURFACE
 62
7
  6
CENTER
 10
94.3071041716
 20
104.1499320195
 11
94.3071041716
 21
106.5498320195
  0
LINE
  8
SURFACE
 62
7
  6
CONTINUOUS
 10
94.419730432
 20
94.2627453543
 11
94.419730432
 21
98.8270156742
  0
LINE
  8
SURFACE
 62
7
  6
CONTINUOUS
 10
88.04775116
 20
122.837661278
 11
88.0477304323
 21
122.8371531566
  0
LINE
  8
SURFACE
 62
7
  6
CONTINUOUS
 10
87.8664571832
 20
94.2622027609
 11
87.8664779109
 21
94.2627108823
  0
POLYLINE
  8
SURFACE
 62
7
  6
CONTINUOUS
 66
1
 70
0
  0
VERTEX
  8
SURFACE
 62
7
  6
CONTINUOUS
 10
88.0477305207
 20
118.2730569755
  0
VERTEX
  8
SURFACE
 62
7
  6
CONTINUOUS
 10
88.0466354234
 20
118.2546098198
  0
VERTEX
  8
SURFACE
 62
7
  6
CONTINUOUS
 10
88.0422884418
 20
118.2322352267
  0
VERTEX
  8
SURFACE
 62
7
  6
CONTINUOUS
 10
88.0347355683
 20
118.2107804677
  0
VERTEX
  8
SURFACE
 62
7
  6
CONTINUOUS
 10
88.0242382496
 20
118.1908414825
  0
VERTEX
  8
SURFACE
 62
7
  6
CONTINUOUS
 10
88.011200681
 20
118.1729310997
  0
VERTEX
  8
SURFACE
 62
7
  6
CONTINUOUS
 10
87.9961348955
 20
118.1574376243
  0
VERTEX
  8
SURFACE
 62
7
  6
CONTINUOUS
 10
87.9795973164
 20
118.1445901552
  0
VERTEX
  8
SURFACE
 62
7
  6
CONTINUOUS
 10
87.9621710458
 20
118.1344858314
  0
VERTEX
  8
SURFACE
 62
7
  6
CONTINUOUS
 10
87.9444302815
 20
118.1270914369
  0
VERTEX
  8
SURFACE
 62
7
  6
CONTINUOUS
 10
87.9270053535
 20
118.1222774514
  0
VERTEX
  8
SURFACE
 62
7
  6
CONTINUOUS
 10
87.9106326278
 20
118.119790456
  0
VERTEX
  8
SURFACE
 62
7
  6
CONTINUOUS
 10
87.8977864448
 20
118.1191890854
  0
SEQEND
  0
POLYLINE
  8
SURFACE
 62
7
  6
CONTINUOUS
 66
1
 70
0
  0
VERTEX
  8
SURFACE
 62
7
  6
CONTINUOUS
 10
87.8664778225
 20
98.8268070634
  0
VERTEX
  8
SURFACE
 62
7
  6
CONTINUOUS
 10
87.8675729197
 20
98.8452542192
  0
VERTEX
  8
SURFACE
 62
7
  6
CONTINUOUS
 10
87.8719199014
 20
98.8676288122
  0
VERTEX
  8
SURFACE
 62
7
  6
CONTINUOUS
 10
87.8794727749
 20
98.8890835712
  0
VERTEX
  8
SURFACE
 62
7
  6
CONTINUOUS
 10
87.8899700936
 20
98.9090225565
  0
VERTEX
  8
SURFACE
 62
7
  6
CONTINUOUS
 10
87.9030076622
 20
98.9269329393
  0
VERTEX
  8
SURFACE
 62
7
  6
CONTINUOUS
 10
87.9180734477
 20
98.9424264146
  0
VERTEX
  8
SURFACE
 62
7
  6
CONTINUOUS
 10
87.9346110268
 20
98.9552738837
  0
VERTEX
  8
SURFACE
 62
7
  6
CONTINUOUS
 10
87.9520372974
 20
98.9653782075
  0
VERTEX
  8
SURFACE
 62
7
  6
CONTINUOUS
 10
87.9697780617
 20
98.9727726021
  0
VERTEX
  8
SURFACE
 62
7
  6
CONTINUOUS
 10
87.9872029896
 20
98.9775865876
  0
VERTEX
  8
SURFACE
 62
7
  6
CONTINUOUS
 10
88.0035757154
 20
98.9800735829
  0
VERTEX
  8
SURFACE
 62
7
  6
CONTINUOUS
 10
88.0164218983
 20
98.9806749536
  0
SEQEND
  0
POLYLINE
  8
SURFACE
 62
7
  6
CONTINUOUS
 66
1
 70
0
  0
VERTEX
  8
SURFACE
 62
7
  6
CONTINUOUS
 10
102.1016516622
 20
126.585089211
  0
VERTEX
  8
SURFACE
 62
7
  6
CONTINUOUS
 10
102.0129065041
 20
126.5576894661
  0
VERTEX
  8
SURFACE
 62
7
  6
CONTINUOUS
 10
101.9144207055
 20
126.5097187311
  0
VERTEX
  8
SURFACE
 62
7
  6
CONTINUOUS
 10
101.8183624153
 20
126.4434492864
  0
VERTEX
  8
SURFACE
 62
7
  6
CONTINUOUS
 10
101.7239147938
 20
126.357378656
  0
VERTEX
  8
SURFACE
 62
7
  6
CONTINUOUS
 10
101.629838558
 20
126.248510073
  0
VERTEX
  8
SURFACE
 62
7
  6
CONTINUOUS
 10
101.5365990818
 20
126.1149732307
  0
VERTEX
  8
SURFACE
 62
7
  6
CONTINUOUS
 10
101.4469035495
 20
125.9593526798
  0
VERTEX
  8
SURFACE
 62
7
  6
CONTINUOUS
 10
101.3631121958
 20
125.7867465062
  0
VERTEX
  8
SURFACE
 62
7
  6
CONTINUOUS
 10
101.2855043065
 20
125.6001757092
  0
VERTEX
  8
SURFACE
 62
7
  6
CONTINUOUS
 10
101.2132248141
 20
125.3999119404
  0
VERTEX
  8
SURFACE
 62
7
  6
CONTINUOUS
 10
101.1456974677
 20
125.1860069414
  0
VERTEX
  8
SURFACE
 62
7
  6
CONTINUOUS
 10
101.0827270401
 20
124.9590484294
  0
VERTEX
  8
SURFACE
 62
7
  6
CONTINUOUS
 10
101.0242772269
 20
124.7199157372
  0
VERTEX
  8
SURFACE
 62
7
  6
CONTINUOUS
 10
100.9703482867
 20
124.4695178325
  0
VERTEX
  8
SURFACE
 62
7
  6
CONTINUOUS
 10
100.9209544587
 20
124.2087455805
  0
VERTEX
  8
SURFACE
 62
7
  6
CONTINUOUS
 10
100.8761198486
 20
123.9384739383
  0
VERTEX
  8
SURFACE
 62
7
  6
CONTINUOUS
 10
100.8358772499
 20
123.6595768945
  0
VERTEX
  8
SURFACE
 62
7
  6
CONTINUOUS
 10
100.8002640415
 20
123.3729220994
  0
VERTEX
  8
SURFACE
 62
7
  6
CONTINUOUS
 10
100.7693203536
 20
123.0793715743
  0
VERTEX
  8
SURFACE
 62
7
  6
CONTINUOUS
 10
100.7477511626
 20
122.8376600007
  0
SEQEND
  0
POLYLINE
  8
SURFACE
 62
7
  6
CONTINUOUS
 66
1
 70
0
  0
VERTEX
  8
SURFACE
 62
7
  6
CONTINUOUS
 10
114.8016516622
 20
126.585089211
  0
VERTEX
  8
SURFACE
 62
7
  6
CONTINUOUS
 10
114.7129065041
 20
126.5576894661
  0
VERTEX
  8
SURFACE
 62
7
  6
CONTINUOUS
 10
114.6144207055
 20
126.5097187311
  0
VERTEX
  8
SURFACE
 62
7
  6
CONTINUOUS
 10
114.5183624153
 20
126.4434492864
  0
VERTEX
  8
SURFACE
 62
7
  6
CONTINUOUS
 10
114.4239147938
 20
126.357378656
  0
VERTEX
  8
SURFACE
 62
7
  6
CONTINUOUS
 10
114.329838558
 20
126.248510073
  0
VERTEX
  8
SURFACE
 62
7
  6
CONTINUOUS
 10
114.2365990818
 20
126.1149732307
  0
VERTEX
  8
SURFACE
 62
7
  6
CONTINUOUS
 10
114.1469035495
 20
125.9593526798
  0
VERTEX
  8
SURFACE
 62
7
  6
CONTINUOUS
 10
114.0631121958
 20
125.7867465062
  0
VERTEX
  8
SURFACE
 62
7
  6
CONTINUOUS
 10
113.9855043065
 20
125.6001757092
  0
VERTEX
  8
SURFACE
 62
7
  6
CONTINUOUS
 10
113.9132248141
 20
125.3999119404
  0
VERTEX
  8
SURFACE
 62
7
  6
CONTINUOUS
 10
113.8456974677
 20
125.1860069414
  0
VERTEX
  8
SURFACE
 62
7
  6
CONTINUOUS
 10
113.7827270401
 20
124.9590484294
  0
VERTEX
  8
SURFACE
 62
7
  6
CONTINUOUS
 10
113.7242772269
 20
124.7199157371
  0
VERTEX
  8
SURFACE
 62
7
  6
CONTINUOUS
 10
113.6703482867
 20
124.4695178325
  0
VERTEX
  8
SURFACE
 62
7
  6
CONTINUOUS
 10
113.6209544587
 20
124.2087455805
  0
VERTEX
  8
SURFACE
 62
7
  6
CONTINUOUS
 10
113.5761198486
 20
123.9384739383
  0
VERTEX
  8
SURFACE
 62
7
  6
CONTINUOUS
 10
113.5358772499
 20
123.6595768945
  0
VERTEX
  8
SURFACE
 62
7
  6
CONTINUOUS
 10
113.5002640415
 20
123.3729220994
  0
VERTEX
  8
SURFACE
 62
7
  6
CONTINUOUS
 10
113.4693203536
 20
123.0793715743
  0
VERTEX
  8
SURFACE
 62
7
  6
CONTINUOUS
 10
113.4477511626
 20
122.8376600007
  0
SEQEND
  0
POLYLINE
  8
SURFACE
 62
7
  6
CONTINUOUS
 66
1
 70
0
  0
VERTEX
  8
SURFACE
 62
7
  6
CONTINUOUS
 10
127.5016516622
 20
126.585089211
  0
VERTEX
  8
SURFACE
 62
7
  6
CONTINUOUS
 10
127.4129065041
 20
126.5576894661
  0
VERTEX
  8
SURFACE
 62
7
  6
CONTINUOUS
 10
127.3144207055
 20
126.5097187311
  0
VERTEX
  8
SURFACE
 62
7
  6
CONTINUOUS
 10
127.2183624153
 20
126.4434492864
  0
VERTEX
  8
SURFACE
 62
7
  6
CONTINUOUS
 10
127.1239147938
 20
126.357378656
  0
VERTEX
  8
SURFACE
 62
7
  6
CONTINUOUS
 10
127.029838558
 20
126.248510073
  0
VERTEX
  8
SURFACE
 62
7
  6
CONTINUOUS
 10
126.9365990818
 20
126.1149732307
  0
VERTEX
  8
SURFACE
 62
7
  6
CONTINUOUS
 10
126.8469035495
 20
125.9593526798
  0
VERTEX
  8
SURFACE
 62
7
  6
CONTINUOUS
 10
126.7631121958
 20
125.7867465062
  0
VERTEX
  8
SURFACE
 62
7
  6
CONTINUOUS
 10
126.6855043065
 20
125.6001757092
  0
VERTEX
  8
SURFACE
 62
7
  6
CONTINUOUS
 10
126.6132248141
 20
125.3999119404
  0
VERTEX
  8
SURFACE
 62
7
  6
CONTINUOUS
 10
126.5456974677
 20
125.1860069414
  0
VERTEX
  8
SURFACE
 62
7
  6
CONTINUOUS
 10
126.4827270401
 20
124.9590484294
  0
VERTEX
  8
SURFACE
 62
7
  6
CONTINUOUS
 10
126.4242772269
 20
124.7199157371
  0
VERTEX
  8
SURFACE
 62
7
  6
CONTINUOUS
 10
126.3703482867
 20
124.4695178325
  0
VERTEX
  8
SURFACE
 62
7
  6
CONTINUOUS
 10
126.3209544587
 20
124.2087455805
  0
VERTEX
  8
SURFACE
 62
7
  6
CONTINUOUS
 10
126.2761198486
 20
123.9384739383
  0
VERTEX
  8
SURFACE
 62
7
  6
CONTINUOUS
 10
126.2358772499
 20
123.6595768945
  0
VERTEX
  8
SURFACE
 62
7
  6
CONTINUOUS
 10
126.2002640415
 20
123.3729220994
  0
VERTEX
  8
SURFACE
 62
7
  6
CONTINUOUS
 10
126.1693203536
 20
123.0793715743
  0
VERTEX
  8
SURFACE
 62
7
  6
CONTINUOUS
 10
126.1477511626
 20
122.8376600007
  0
SEQEND
  0
LINE
  8
SURFACE
 62
7
  6
CONTINUOUS
 10
86.5125949929
 20
90.5147850819
 11
86.5125563537
 21
90.5147762637
  0
LINE
  8
SURFACE
 62
7
  6
CONTINUOUS
 10
73.8125949929
 20
90.5147850819
 11
73.8125563537
 21
90.5147762637
  0
LINE
  8
SURFACE
 62
7
  6
CONTINUOUS
 10
61.1125949929
 20
90.5147850819
 11
61.1125563537
 21
90.5147762637
  0
LINE
  8
SURFACE
 62
7
  6
CONTINUOUS
 10
86.4890356544
 20
90.5097992985
 11
86.5125949929
 21
90.5147850819
  0
LINE
  8
SURFACE
 62
7
  6
CONTINUOUS
 10
73.7890356544
 20
90.5097992985
 11
73.8125949929
 21
90.5147850819
  0
LINE
  8
SURFACE
 62
7
  6
CONTINUOUS
 10
61.0890356544
 20
90.5097992985
 11
61.1125949929
 21
90.5147850819
  0
POLYLINE
  8
0
 62
7
  6
CONTINUOUS
 66
1
 70
0
  0
VERTEX
  8
0
 62
7
  6
CONTINUOUS
 10
131.9820812457
 20
98.9806753888
  0
VERTEX
  8
0
 62
7
  6
CONTINUOUS
 10
132.0173627132
 20
98.9831772417
  0
VERTEX
  8
0
 62
7
  6
CONTINUOUS
 10
132.0491352242
 20
98.9898348104
  0
VERTEX
  8
0
 62
7
  6
CONTINUOUS
 10
132.0797773418
 20
99.000552846
  0
VERTEX
  8
0
 62
7
  6
CONTINUOUS
 10
132.1087725025
 20
99.0151506641
  0
VERTEX
  8
0
 62
7
  6
CONTINUOUS
 10
132.1356319071
 20
99.0333821752
  0
VERTEX
  8
0
 62
7
  6
CONTINUOUS
 10
132.1599027609
 20
99.0549400334
  0
VERTEX
  8
0
 62
7
  6
CONTINUOUS
 10
132.181175907
 20
99.079460817
  0
VERTEX
  8
0
 62
7
  6
CONTINUOUS
 10
132.1990927235
 20
99.1065311555
  0
VERTEX
  8
0
 62
7
  6
CONTINUOUS
 10
132.2133511696
 20
99.1356946983
  0
VERTEX
  8
0
 62
7
  6
CONTINUOUS
 10
132.223710877
 20
99.1664598074
  0
VERTEX
  8
0
 62
7
  6
CONTINUOUS
 10
132.2299972025
 20
99.198307846
  0
VERTEX
  8
0
 62
7
  6
CONTINUOUS
 10
132.2321041716
 20
99.2306983033
  0
SEQEND
  0
POLYLINE
  8
SURFACE
 62
7
  6
CONTINUOUS
 66
1
 70
0
  0
VERTEX
  8
SURFACE
 62
7
  6
CONTINUOUS
 10
86.3949978381
 20
90.4999320232
  0
VERTEX
  8
SURFACE
 62
7
  6
CONTINUOUS
 10
86.4201520589
 20
90.500714384
  0
VERTEX
  8
SURFACE
 62
7
  6
CONTINUOUS
 10
86.4546981679
 20
90.5041254847
  0
VERTEX
  8
SURFACE
 62
7
  6
CONTINUOUS
 10
86.4890356544
 20
90.5097992985
  0
SEQEND
  0
POLYLINE
  8
SURFACE
 62
7
  6
CONTINUOUS
 66
1
 70
0
  0
VERTEX
  8
SURFACE
 62
7
  6
CONTINUOUS
 10
73.6949978381
 20
90.4999320232
  0
VERTEX
  8
SURFACE
 62
7
  6
CONTINUOUS
 10
73.7201520589
 20
90.500714384
  0
VERTEX
  8
SURFACE
 62
7
  6
CONTINUOUS
 10
73.7546981679
 20
90.5041254847
  0
VERTEX
  8
SURFACE
 62
7
  6
CONTINUOUS
 10
73.7890356544
 20
90.5097992985
  0
SEQEND
  0
POLYLINE
  8
SURFACE
 62
7
  6
CONTINUOUS
 66
1
 70
0
  0
VERTEX
  8
SURFACE
 62
7
  6
CONTINUOUS
 10
60.9949978381
 20
90.4999320232
  0
VERTEX
  8
SURFACE
 62
7
  6
CONTINUOUS
 10
61.0201520589
 20
90.500714384
  0
VERTEX
  8
SURFACE
 62
7
  6
CONTINUOUS
 10
61.0546981679
 20
90.5041254847
  0
VERTEX
  8
SURFACE
 62
7
  6
CONTINUOUS
 10
61.0890356544
 20
90.5097992985
  0
SEQEND
  0
POLYLINE
  8
SURFACE
 62
7
  6
CONTINUOUS
 66
1
 70
0
  0
VERTEX
  8
SURFACE
 62
7
  6
CONTINUOUS
 10
120.0667603849
 20
94.2335533681
  0
VERTEX
  8
SURFACE
 62
7
  6
CONTINUOUS
 10
120.0255806982
 20
94.2325385516
  0
VERTEX
  8
SURFACE
 62
7
  6
CONTINUOUS
 10
119.9856530753
 20
94.232610658
  0
VERTEX
  8
SURFACE
 62
7
  6
CONTINUOUS
 10
119.9480620219
 20
94.2337642708
  0
VERTEX
  8
SURFACE
 62
7
  6
CONTINUOUS
 10
119.9138274956
 20
94.2359662897
  0
VERTEX
  8
SURFACE
 62
7
  6
CONTINUOUS
 10
119.8838731234
 20
94.2391562329
  0
VERTEX
  8
SURFACE
 62
7
  6
CONTINUOUS
 10
119.8589962198
 20
94.2432476779
  0
VERTEX
  8
SURFACE
 62
7
  6
CONTINUOUS
 10
119.8398442549
 20
94.2481306837
  0
VERTEX
  8
SURFACE
 62
7
  6
CONTINUOUS
 10
119.8268981271
 20
94.2536750335
  0
VERTEX
  8
SURFACE
 62
7
  6
CONTINUOUS
 10
119.8204629314
 20
94.2597340664
  0
VERTEX
  8
SURFACE
 62
7
  6
CONTINUOUS
 10
119.8197511604
 20
94.262202756
  0
SEQEND
  0
POLYLINE
  8
SURFACE
 62
7
  6
CONTINUOUS
 66
1
 70
0
  0
VERTEX
  8
SURFACE
 62
7
  6
CONTINUOUS
 10
107.3667603849
 20
94.2335533681
  0
VERTEX
  8
SURFACE
 62
7
  6
CONTINUOUS
 10
107.3255806982
 20
94.2325385516
  0
VERTEX
  8
SURFACE
 62
7
  6
CONTINUOUS
 10
107.2856530753
 20
94.232610658
  0
VERTEX
  8
SURFACE
 62
7
  6
CONTINUOUS
 10
107.2480620219
 20
94.2337642708
  0
VERTEX
  8
SURFACE
 62
7
  6
CONTINUOUS
 10
107.2138274956
 20
94.2359662897
  0
VERTEX
  8
SURFACE
 62
7
  6
CONTINUOUS
 10
107.1838731234
 20
94.2391562329
  0
VERTEX
  8
SURFACE
 62
7
  6
CONTINUOUS
 10
107.1589962198
 20
94.2432476779
  0
VERTEX
  8
SURFACE
 62
7
  6
CONTINUOUS
 10
107.1398442549
 20
94.2481306837
  0
VERTEX
  8
SURFACE
 62
7
  6
CONTINUOUS
 10
107.1268981271
 20
94.2536750335
  0
VERTEX
  8
SURFACE
 62
7
  6
CONTINUOUS
 10
107.1204629314
 20
94.2597340664
  0
VERTEX
  8
SURFACE
 62
7
  6
CONTINUOUS
 10
107.1197511604
 20
94.262202756
  0
SEQEND
  0
POLYLINE
  8
SURFACE
 62
7
  6
CONTINUOUS
 66
1
 70
0
  0
VERTEX
  8
SURFACE
 62
7
  6
CONTINUOUS
 10
94.6667603849
 20
94.2335533681
  0
VERTEX
  8
SURFACE
 62
7
  6
CONTINUOUS
 10
94.6255806982
 20
94.2325385516
  0
VERTEX
  8
SURFACE
 62
7
  6
CONTINUOUS
 10
94.5856530753
 20
94.232610658
  0
VERTEX
  8
SURFACE
 62
7
  6
CONTINUOUS
 10
94.5480620219
 20
94.2337642708
  0
VERTEX
  8
SURFACE
 62
7
  6
CONTINUOUS
 10
94.5138274956
 20
94.2359662897
  0
VERTEX
  8
SURFACE
 62
7
  6
CONTINUOUS
 10
94.4838731234
 20
94.2391562329
  0
VERTEX
  8
SURFACE
 62
7
  6
CONTINUOUS
 10
94.4589962198
 20
94.2432476779
  0
VERTEX
  8
SURFACE
 62
7
  6
CONTINUOUS
 10
94.4398442549
 20
94.2481306837
  0
VERTEX
  8
SURFACE
 62
7
  6
CONTINUOUS
 10
94.4268981271
 20
94.2536750335
  0
VERTEX
  8
SURFACE
 62
7
  6
CONTINUOUS
 10
94.4204629314
 20
94.2597340664
  0
VERTEX
  8
SURFACE
 62
7
  6
CONTINUOUS
 10
94.4197511604
 20
94.262202756
  0
SEQEND
  0
POLYLINE
  8
SURFACE
 62
7
  6
CONTINUOUS
 66
1
 70
0
  0
VERTEX
  8
SURFACE
 62
7
  6
CONTINUOUS
 10
81.9667603849
 20
94.2335533681
  0
VERTEX
  8
SURFACE
 62
7
  6
CONTINUOUS
 10
81.9255806982
 20
94.2325385516
  0
VERTEX
  8
SURFACE
 62
7
  6
CONTINUOUS
 10
81.8856530753
 20
94.232610658
  0
VERTEX
  8
SURFACE
 62
7
  6
CONTINUOUS
 10
81.8480620219
 20
94.2337642708
  0
VERTEX
  8
SURFACE
 62
7
  6
CONTINUOUS
 10
81.8138274956
 20
94.2359662897
  0
VERTEX
  8
SURFACE
 62
7
  6
CONTINUOUS
 10
81.7838731234
 20
94.2391562329
  0
VERTEX
  8
SURFACE
 62
7
  6
CONTINUOUS
 10
81.7589962198
 20
94.2432476779
  0
VERTEX
  8
SURFACE
 62
7
  6
CONTINUOUS
 10
81.7398442549
 20
94.2481306837
  0
VERTEX
  8
SURFACE
 62
7
  6
CONTINUOUS
 10
81.7268981271
 20
94.2536750335
  0
VERTEX
  8
SURFACE
 62
7
  6
CONTINUOUS
 10
81.7204629314
 20
94.2597340664
  0
VERTEX
  8
SURFACE
 62
7
  6
CONTINUOUS
 10
81.7197511604
 20
94.262202756
  0
SEQEND
  0
POLYLINE
  8
SURFACE
 62
7
  6
CONTINUOUS
 66
1
 70
0
  0
VERTEX
  8
SURFACE
 62
7
  6
CONTINUOUS
 10
69.2667603849
 20
94.2335533681
  0
VERTEX
  8
SURFACE
 62
7
  6
CONTINUOUS
 10
69.2255806982
 20
94.2325385516
  0
VERTEX
  8
SURFACE
 62
7
  6
CONTINUOUS
 10
69.1856530753
 20
94.232610658
  0
VERTEX
  8
SURFACE
 62
7
  6
CONTINUOUS
 10
69.1480620219
 20
94.2337642708
  0
VERTEX
  8
SURFACE
 62
7
  6
CONTINUOUS
 10
69.1138274956
 20
94.2359662897
  0
VERTEX
  8
SURFACE
 62
7
  6
CONTINUOUS
 10
69.0838731234
 20
94.2391562329
  0
VERTEX
  8
SURFACE
 62
7
  6
CONTINUOUS
 10
69.0589962198
 20
94.2432476779
  0
VERTEX
  8
SURFACE
 62
7
  6
CONTINUOUS
 10
69.0398442549
 20
94.2481306837
  0
VERTEX
  8
SURFACE
 62
7
  6
CONTINUOUS
 10
69.0268981271
 20
94.2536750335
  0
VERTEX
  8
SURFACE
 62
7
  6
CONTINUOUS
 10
69.0204629314
 20
94.2597340664
  0
VERTEX
  8
SURFACE
 62
7
  6
CONTINUOUS
 10
69.0197511604
 20
94.262202756
  0
SEQEND
  0
LINE
  8
SURFACE
 62
7
  6
CONTINUOUS
 10
120.069730432
 20
94.2336090319
 11
120.0667603849
 21
94.2335533677
  0
LINE
  8
SURFACE
 62
7
  6
CONTINUOUS
 10
107.369730432
 20
94.2336090319
 11
107.3667603849
 21
94.2335533677
  0
LINE
  8
SURFACE
 62
7
  6
CONTINUOUS
 10
94.669730432
 20
94.2336090319
 11
94.6667603849
 21
94.2335533677
  0
LINE
  8
SURFACE
 62
7
  6
CONTINUOUS
 10
81.969730432
 20
94.2336090319
 11
81.9667603849
 21
94.2335533677
  0
LINE
  8
SURFACE
 62
7
  6
CONTINUOUS
 10
69.269730432
 20
94.2336090319
 11
69.2667603849
 21
94.2335533677
  0
LINE
  8
0
 62
7
  6
CONTINUOUS
 10
56.6321041716
 20
94.2336090329
 11
62.2164779111
 21
94.2336090319
  0
LINE
  8
SURFACE
 62
7
  6
CONTINUOUS
 10
69.269730432
 20
94.2336090319
 11
74.9164779111
 21
94.2336090319
  0
LINE
  8
SURFACE
 62
7
  6
CONTINUOUS
 10
81.969730432
 20
94.2336090319
 11
87.6164779111
 21
94.2336090319
  0
LINE
  8
SURFACE
 62
7
  6
CONTINUOUS
 10
94.669730432
 20
94.2336090319
 11
100.3164779111
 21
94.2336090319
  0
LINE
  8
SURFACE
 62
7
  6
CONTINUOUS
 10
107.369730432
 20
94.2336090319
 11
113.0164779111
 21
94.2336090319
  0
LINE
  8
SURFACE
 62
7
  6
CONTINUOUS
 10
120.069730432
 20
94.2336090319
 11
125.7164779111
 21
94.2336090319
  0
LINE
  8
DEFAULT_1
 62
7
  6
CENTER
 10
54.3821041716
 20
95.8499320195
 11
127.414327644
 21
95.8499320195
  0
LINE
  8
SURFACE
 62
7
  6
CONTINUOUS
 10
62.616171789
 20
98.9806753791
 11
68.8700350738
 21
98.9806753791
  0
LINE
  8
SURFACE
 62
7
  6
CONTINUOUS
 10
75.316171789
 20
98.9806753791
 11
81.5700350738
 21
98.9806753791
  0
LINE
  8
SURFACE
 62
7
  6
CONTINUOUS
 10
88.016171789
 20
98.9806753791
 11
94.2700350738
 21
98.9806753791
  0
LINE
  8
SURFACE
 62
7
  6
CONTINUOUS
 10
100.716171789
 20
98.9806753791
 11
106.9700350738
 21
98.9806753791
  0
LINE
  8
SURFACE
 62
7
  6
CONTINUOUS
 10
113.416171789
 20
98.9806753791
 11
119.6700350738
 21
98.9806753791
  0
LINE
  8
SURFACE
 62
7
  6
CONTINUOUS
 10
126.116171789
 20
98.9806753791
 11
131.982081249
 21
98.9806753791
  0
LINE
  8
0
 62
7
  6
CONTINUOUS
 10
132.2321041716
 20
103.5499320195
 11
132.3821041716
 21
103.5499320195
  0
LINE
  8
0
 62
7
  6
CONTINUOUS
 10
132.2321041716
 20
103.6499320171
 11
132.3821041716
 21
103.6499320171
  0
LINE
  8
0
 62
7
  6
CONTINUOUS
 10
132.2321041716
 20
103.6699320195
 11
132.3821041716
 21
103.6699320195
  0
LINE
  8
0
 62
7
  6
CONTINUOUS
 10
132.2321041716
 20
103.7099320242
 11
132.3821041716
 21
103.7099320242
  0
LINE
  8
0
 62
7
  6
CONTINUOUS
 10
132.2321041716
 20
103.7899320195
 11
132.3821041716
 21
103.7899320195
  0
LINE
  8
0
 62
7
  6
CONTINUOUS
 10
132.2321041716
 20
103.869932029
 11
132.3821041716
 21
103.869932029
  0
LINE
  8
0
 62
7
  6
CONTINUOUS
 10
132.2321041716
 20
103.9499320099
 11
132.3821041716
 21
103.9499320099
  0
LINE
  8
0
 62
7
  6
CONTINUOUS
 10
132.2321041716
 20
104.0099320099
 11
132.3821041716
 21
104.0099320099
  0
LINE
  8
0
 62
7
  6
CONTINUOUS
 10
132.2321041716
 20
104.0499320004
 11
132.3821041716
 21
104.0499320004
  0
LINE
  8
0
 62
7
  6
CONTINUOUS
 10
132.2321041716
 20
104.1499320195
 11
132.3821041716
 21
104.1499320195
  0
LINE
  8
0
 62
7
  6
CONTINUOUS
 10
132.2321041716
 20
104.1699320004
 11
132.3821041716
 21
104.1699320004
  0
LINE
  8
0
 62
7
  6
CONTINUOUS
 10
132.2321041716
 20
104.1899320385
 11
132.3821041716
 21
104.1899320385
  0
LINE
  8
0
 62
7
  6
CONTINUOUS
 10
132.2321041716
 20
104.3499320004
 11
132.3821041716
 21
104.3499320004
  0
LINE
  8
0
 62
7
  6
CONTINUOUS
 10
132.2321041716
 20
104.4499320195
 11
132.3821041716
 21
104.4499320195
  0
LINE
  8
0
 62
7
  6
CONTINUOUS
 10
132.2321041716
 20
104.4899320385
 11
132.3821041716
 21
104.4899320385
  0
LINE
  8
0
 62
7
  6
CONTINUOUS
 10
132.2321041716
 20
104.5499319813
 11
132.3821041716
 21
104.5499319813
  0
LINE
  8
0
 62
7
  6
CONTINUOUS
 10
132.2321041716
 20
104.6299320195
 11
132.3821041716
 21
104.6299320195
  0
LINE
  8
0
 62
7
  6
CONTINUOUS
 10
132.2321041716
 20
104.7099320576
 11
132.3821041716
 21
104.7099320576
  0
LINE
  8
0
 62
7
  6
CONTINUOUS
 10
132.2321041716
 20
104.7699320576
 11
132.3821041716
 21
104.7699320576
  0
LINE
  8
0
 62
7
  6
CONTINUOUS
 10
132.2321041716
 20
104.8299320576
 11
132.3821041716
 21
104.8299320576
  0
LINE
  8
0
 62
7
  6
CONTINUOUS
 10
132.2321041716
 20
104.8699320195
 11
132.3821041716
 21
104.8699320195
  0
LINE
  8
0
 62
7
  6
CONTINUOUS
 10
132.2321041716
 20
104.8899320576
 11
132.3821041716
 21
104.8899320576
  0
LINE
  8
0
 62
7
  6
CONTINUOUS
 10
132.2321041716
 20
104.9099319813
 11
132.3821041716
 21
104.9099319813
  0
LINE
  8
0
 62
7
  6
CONTINUOUS
 10
132.2321041716
 20
105.0699320576
 11
132.3821041716
 21
105.0699320576
  0
LINE
  8
0
 62
7
  6
CONTINUOUS
 10
132.2321041716
 20
105.1699320195
 11
132.3821041716
 21
105.1699320195
  0
LINE
  8
0
 62
7
  6
CONTINUOUS
 10
132.2321041716
 20
106.2899320958
 11
132.3821041716
 21
106.2899320958
  0
LINE
  8
0
 62
7
  6
CONTINUOUS
 10
132.2321041716
 20
106.3499320958
 11
132.3821041716
 21
106.3499320958
  0
LINE
  8
0
 62
7
  6
CONTINUOUS
 10
132.2321041716
 20
106.3699320195
 11
132.3821041716
 21
106.3699320195
  0
LINE
  8
0
 62
7
  6
CONTINUOUS
 10
132.2321041716
 20
106.4499319432
 11
132.3821041716
 21
106.4499319432
  0
LINE
  8
0
 62
7
  6
CONTINUOUS
 10
132.2321041716
 20
106.5299320958
 11
132.3821041716
 21
106.5299320958
  0
LINE
  8
0
 62
7
  6
CONTINUOUS
 10
132.2321041716
 20
106.6099320195
 11
132.3821041716
 21
106.6099320195
  0
LINE
  8
0
 62
7
  6
CONTINUOUS
 10
132.2321041716
 20
106.7099320958
 11
132.3821041716
 21
106.7099320958
  0
LINE
  8
0
 62
7
  6
CONTINUOUS
 10
132.2321041716
 20
106.8099319432
 11
132.3821041716
 21
106.8099319432
  0
LINE
  8
0
 62
7
  6
CONTINUOUS
 10
132.2321041716
 20
106.8899320958
 11
132.3821041716
 21
106.8899320958
  0
LINE
  8
0
 62
7
  6
CONTINUOUS
 10
132.2321041716
 20
106.9499320958
 11
132.3821041716
 21
106.9499320958
  0
LINE
  8
0
 62
7
  6
CONTINUOUS
 10
132.2321041716
 20
106.9699320195
 11
132.3821041716
 21
106.9699320195
  0
LINE
  8
0
 62
7
  6
CONTINUOUS
 10
132.2321041716
 20
106.9899319432
 11
132.3821041716
 21
106.9899319432
  0
LINE
  8
0
 62
7
  6
CONTINUOUS
 10
132.2321041716
 20
107.0299320195
 11
132.3821041716
 21
107.0299320195
  0
LINE
  8
0
 62
7
  6
CONTINUOUS
 10
132.2321041716
 20
107.1899320958
 11
132.3821041716
 21
107.1899320958
  0
LINE
  8
0
 62
7
  6
CONTINUOUS
 10
132.2321041716
 20
107.4699321721
 11
132.3821041716
 21
107.4699321721
  0
LINE
  8
0
 62
7
  6
CONTINUOUS
 10
132.2321041716
 20
107.6299320195
 11
132.3821041716
 21
107.6299320195
  0
LINE
  8
0
 62
7
  6
CONTINUOUS
 10
132.2321041716
 20
107.8099320195
 11
132.3821041716
 21
107.8099320195
  0
LINE
  8
0
 62
7
  6
CONTINUOUS
 10
132.2321041716
 20
108.1099320195
 11
132.3821041716
 21
108.1099320195
  0
LINE
  8
0
 62
7
  6
CONTINUOUS
 10
132.2321041716
 20
108.4099320195
 11
132.3821041716
 21
108.4099320195
  0
LINE
  8
SURFACE
 62
7
  6
CENTER
 10
98.7071041716
 20
108.5499320195
 11
96.3072041716
 21
108.5499320195
  0
LINE
  8
SURFACE
 62
2
  6
CONTINUOUS
 10
95.1871041716
 20
108.5499320195
 11
93.4271041716
 21
108.5499320195
  0
LINE
  8
SURFACE
 62
7
  6
CENTER
 10
89.9071041716
 20
108.5499320195
 11
92.3070041716
 21
108.5499320195
  0
LINE
  8
0
 62
7
  6
CONTINUOUS
 10
132.2321041716
 20
108.5899320195
 11
132.3821041716
 21
108.5899320195
  0
LINE
  8
0
 62
7
  6
CONTINUOUS
 10
132.2321041716
 20
108.7499318669
 11
132.3821041716
 21
108.7499318669
  0
LINE
  8
0
 62
7
  6
CONTINUOUS
 10
132.2321041716
 20
109.2299318669
 11
132.3821041716
 21
109.2299318669
  0
LINE
  8
0
 62
7
  6
CONTINUOUS
 10
132.2321041716
 20
109.3299321721
 11
132.3821041716
 21
109.3299321721
  0
LINE
  8
0
 62
7
  6
CONTINUOUS
 10
132.2321041716
 20
109.4099318669
 11
132.3821041716
 21
109.4099318669
  0
LINE
  8
0
 62
7
  6
CONTINUOUS
 10
132.2321041716
 20
109.4699318669
 11
132.3821041716
 21
109.4699318669
  0
LINE
  8
0
 62
7
  6
CONTINUOUS
 10
132.2321041716
 20
109.4899320195
 11
132.3821041716
 21
109.4899320195
  0
LINE
  8
0
 62
7
  6
CONTINUOUS
 10
132.2321041716
 20
109.6499318669
 11
132.3821041716
 21
109.6499318669
  0
LINE
  8
0
 62
7
  6
CONTINUOUS
 10
132.2321041716
 20
110.1299318669
 11
132.3821041716
 21
110.1299318669
  0
LINE
  8
0
 62
7
  6
CONTINUOUS
 10
132.2321041716
 20
110.2299321721
 11
132.3821041716
 21
110.2299321721
  0
LINE
  8
0
 62
7
  6
CONTINUOUS
 10
132.2321041716
 20
110.3099318669
 11
132.3821041716
 21
110.3099318669
  0
LINE
  8
0
 62
7
  6
CONTINUOUS
 10
132.2321041716
 20
110.3699318669
 11
132.3821041716
 21
110.3699318669
  0
LINE
  8
0
 62
7
  6
CONTINUOUS
 10
132.2321041716
 20
110.3899320195
 11
132.3821041716
 21
110.3899320195
  0
POLYLINE
  8
0
 62
7
  6
CONTINUOUS
 66
1
 70
0
  0
VERTEX
  8
0
 62
7
  6
CONTINUOUS
 10
56.6321041716
 20
94.2336090319
  0
VERTEX
  8
0
 62
7
  6
CONTINUOUS
 10
56.5992192109
 20
94.2339450619
  0
VERTEX
  8
0
 62
7
  6
CONTINUOUS
 10
56.5669490199
 20
94.2349459055
  0
VERTEX
  8
0
 62
7
  6
CONTINUOUS
 10
56.5358484397
 20
94.2365928235
  0
VERTEX
  8
0
 62
7
  6
CONTINUOUS
 10
56.5064500056
 20
94.2388567083
  0
VERTEX
  8
0
 62
7
  6
CONTINUOUS
 10
56.479254245
 20
94.2416984466
  0
VERTEX
  8
0
 62
7
  6
CONTINUOUS
 10
56.4547200083
 20
94.2450695491
  0
VERTEX
  8
0
 62
7
  6
CONTINUOUS
 10
56.433256347
 20
94.2489129644
  0
VERTEX
  8
0
 62
7
  6
CONTINUOUS
 10
56.4152157503
 20
94.2531640575
  0
VERTEX
  8
0
 62
7
  6
CONTINUOUS
 10
56.4008888875
 20
94.2577517208
  0
VERTEX
  8
0
 62
7
  6
CONTINUOUS
 10
56.3905009588
 20
94.2625995716
  0
VERTEX
  8
0
 62
7
  6
CONTINUOUS
 10
56.3842096676
 20
94.2676271106
  0
VERTEX
  8
0
 62
7
  6
CONTINUOUS
 10
56.3821041716
 20
94.2727509899
  0
SEQEND
  0
LINE
  8
SURFACE
 62
7
  6
CONTINUOUS
 10
62.2194479583
 20
94.233553368
 11
62.2164779111
 21
94.2336090319
  0
LINE
  8
SURFACE
 62
7
  6
CONTINUOUS
 10
74.9194479583
 20
94.233553368
 11
74.9164779111
 21
94.2336090319
  0
LINE
  8
SURFACE
 62
7
  6
CONTINUOUS
 10
87.6194479583
 20
94.233553368
 11
87.6164779111
 21
94.2336090319
  0
LINE
  8
SURFACE
 62
7
  6
CONTINUOUS
 10
100.3194479583
 20
94.233553368
 11
100.3164779111
 21
94.2336090319
  0
LINE
  8
SURFACE
 62
7
  6
CONTINUOUS
 10
113.0194479583
 20
94.233553368
 11
113.0164779111
 21
94.2336090319
  0
LINE
  8
SURFACE
 62
7
  6
CONTINUOUS
 10
125.7194479583
 20
94.233553368
 11
125.7164779111
 21
94.2336090319
  0
POLYLINE
  8
SURFACE
 62
7
  6
CONTINUOUS
 66
1
 70
0
  0
VERTEX
  8
SURFACE
 62
7
  6
CONTINUOUS
 10
62.2194479583
 20
94.2335533684
  0
VERTEX
  8
SURFACE
 62
7
  6
CONTINUOUS
 10
62.2606276449
 20
94.2325385518
  0
VERTEX
  8
SURFACE
 62
7
  6
CONTINUOUS
 10
62.3005552679
 20
94.2326106583
  0
VERTEX
  8
SURFACE
 62
7
  6
CONTINUOUS
 10
62.3381463213
 20
94.233764271
  0
VERTEX
  8
SURFACE
 62
7
  6
CONTINUOUS
 10
62.3723808475
 20
94.2359662899
  0
VERTEX
  8
SURFACE
 62
7
  6
CONTINUOUS
 10
62.4023352197
 20
94.2391562332
  0
VERTEX
  8
SURFACE
 62
7
  6
CONTINUOUS
 10
62.4272121233
 20
94.2432476781
  0
VERTEX
  8
SURFACE
 62
7
  6
CONTINUOUS
 10
62.4463640883
 20
94.2481306838
  0
VERTEX
  8
SURFACE
 62
7
  6
CONTINUOUS
 10
62.4593102161
 20
94.2536750335
  0
VERTEX
  8
SURFACE
 62
7
  6
CONTINUOUS
 10
62.4657454117
 20
94.2597340662
  0
VERTEX
  8
SURFACE
 62
7
  6
CONTINUOUS
 10
62.4664571832
 20
94.2622027609
  0
SEQEND
  0
POLYLINE
  8
SURFACE
 62
7
  6
CONTINUOUS
 66
1
 70
0
  0
VERTEX
  8
SURFACE
 62
7
  6
CONTINUOUS
 10
74.9194479583
 20
94.2335533684
  0
VERTEX
  8
SURFACE
 62
7
  6
CONTINUOUS
 10
74.9606276449
 20
94.2325385518
  0
VERTEX
  8
SURFACE
 62
7
  6
CONTINUOUS
 10
75.0005552679
 20
94.2326106583
  0
VERTEX
  8
SURFACE
 62
7
  6
CONTINUOUS
 10
75.0381463213
 20
94.233764271
  0
VERTEX
  8
SURFACE
 62
7
  6
CONTINUOUS
 10
75.0723808475
 20
94.2359662899
  0
VERTEX
  8
SURFACE
 62
7
  6
CONTINUOUS
 10
75.1023352197
 20
94.2391562332
  0
VERTEX
  8
SURFACE
 62
7
  6
CONTINUOUS
 10
75.1272121233
 20
94.2432476781
  0
VERTEX
  8
SURFACE
 62
7
  6
CONTINUOUS
 10
75.1463640883
 20
94.2481306838
  0
VERTEX
  8
SURFACE
 62
7
  6
CONTINUOUS
 10
75.1593102161
 20
94.2536750335
  0
VERTEX
  8
SURFACE
 62
7
  6
CONTINUOUS
 10
75.1657454117
 20
94.2597340662
  0
VERTEX
  8
SURFACE
 62
7
  6
CONTINUOUS
 10
75.1664571832
 20
94.2622027609
  0
SEQEND
  0
POLYLINE
  8
SURFACE
 62
7
  6
CONTINUOUS
 66
1
 70
0
  0
VERTEX
  8
SURFACE
 62
7
  6
CONTINUOUS
 10
87.6194479583
 20
94.2335533684
  0
VERTEX
  8
SURFACE
 62
7
  6
CONTINUOUS
 10
87.6606276449
 20
94.2325385518
  0
VERTEX
  8
SURFACE
 62
7
  6
CONTINUOUS
 10
87.7005552679
 20
94.2326106583
  0
VERTEX
  8
SURFACE
 62
7
  6
CONTINUOUS
 10
87.7381463213
 20
94.233764271
  0
VERTEX
  8
SURFACE
 62
7
  6
CONTINUOUS
 10
87.7723808475
 20
94.2359662899
  0
VERTEX
  8
SURFACE
 62
7
  6
CONTINUOUS
 10
87.8023352197
 20
94.2391562332
  0
VERTEX
  8
SURFACE
 62
7
  6
CONTINUOUS
 10
87.8272121233
 20
94.2432476781
  0
VERTEX
  8
SURFACE
 62
7
  6
CONTINUOUS
 10
87.8463640883
 20
94.2481306838
  0
VERTEX
  8
SURFACE
 62
7
  6
CONTINUOUS
 10
87.8593102161
 20
94.2536750335
  0
VERTEX
  8
SURFACE
 62
7
  6
CONTINUOUS
 10
87.8657454117
 20
94.2597340662
  0
VERTEX
  8
SURFACE
 62
7
  6
CONTINUOUS
 10
87.8664571832
 20
94.2622027609
  0
SEQEND
  0
POLYLINE
  8
SURFACE
 62
7
  6
CONTINUOUS
 66
1
 70
0
  0
VERTEX
  8
SURFACE
 62
7
  6
CONTINUOUS
 10
100.3194479583
 20
94.2335533684
  0
VERTEX
  8
SURFACE
 62
7
  6
CONTINUOUS
 10
100.3606276449
 20
94.2325385518
  0
VERTEX
  8
SURFACE
 62
7
  6
CONTINUOUS
 10
100.4005552679
 20
94.2326106583
  0
VERTEX
  8
SURFACE
 62
7
  6
CONTINUOUS
 10
100.4381463213
 20
94.233764271
  0
VERTEX
  8
SURFACE
 62
7
  6
CONTINUOUS
 10
100.4723808475
 20
94.2359662899
  0
VERTEX
  8
SURFACE
 62
7
  6
CONTINUOUS
 10
100.5023352197
 20
94.2391562332
  0
VERTEX
  8
SURFACE
 62
7
  6
CONTINUOUS
 10
100.5272121233
 20
94.2432476781
  0
VERTEX
  8
SURFACE
 62
7
  6
CONTINUOUS
 10
100.5463640883
 20
94.2481306838
  0
VERTEX
  8
SURFACE
 62
7
  6
CONTINUOUS
 10
100.5593102161
 20
94.2536750335
  0
VERTEX
  8
SURFACE
 62
7
  6
CONTINUOUS
 10
100.5657454117
 20
94.2597340662
  0
VERTEX
  8
SURFACE
 62
7
  6
CONTINUOUS
 10
100.5664571832
 20
94.2622027609
  0
SEQEND
  0
POLYLINE
  8
SURFACE
 62
7
  6
CONTINUOUS
 66
1
 70
0
  0
VERTEX
  8
SURFACE
 62
7
  6
CONTINUOUS
 10
113.0194479583
 20
94.2335533684
  0
VERTEX
  8
SURFACE
 62
7
  6
CONTINUOUS
 10
113.0606276449
 20
94.2325385518
  0
VERTEX
  8
SURFACE
 62
7
  6
CONTINUOUS
 10
113.1005552679
 20
94.2326106583
  0
VERTEX
  8
SURFACE
 62
7
  6
CONTINUOUS
 10
113.1381463213
 20
94.233764271
  0
VERTEX
  8
SURFACE
 62
7
  6
CONTINUOUS
 10
113.1723808475
 20
94.2359662899
  0
VERTEX
  8
SURFACE
 62
7
  6
CONTINUOUS
 10
113.2023352197
 20
94.2391562332
  0
VERTEX
  8
SURFACE
 62
7
  6
CONTINUOUS
 10
113.2272121233
 20
94.2432476781
  0
VERTEX
  8
SURFACE
 62
7
  6
CONTINUOUS
 10
113.2463640883
 20
94.2481306838
  0
VERTEX
  8
SURFACE
 62
7
  6
CONTINUOUS
 10
113.2593102161
 20
94.2536750335
  0
VERTEX
  8
SURFACE
 62
7
  6
CONTINUOUS
 10
113.2657454117
 20
94.2597340662
  0
VERTEX
  8
SURFACE
 62
7
  6
CONTINUOUS
 10
113.2664571832
 20
94.2622027609
  0
SEQEND
  0
POLYLINE
  8
SURFACE
 62
7
  6
CONTINUOUS
 66
1
 70
0
  0
VERTEX
  8
SURFACE
 62
7
  6
CONTINUOUS
 10
125.7194479583
 20
94.2335533684
  0
VERTEX
  8
SURFACE
 62
7
  6
CONTINUOUS
 10
125.7606276449
 20
94.2325385518
  0
VERTEX
  8
SURFACE
 62
7
  6
CONTINUOUS
 10
125.8005552679
 20
94.2326106583
  0
VERTEX
  8
SURFACE
 62
7
  6
CONTINUOUS
 10
125.8381463213
 20
94.233764271
  0
VERTEX
  8
SURFACE
 62
7
  6
CONTINUOUS
 10
125.8723808475
 20
94.2359662899
  0
VERTEX
  8
SURFACE
 62
7
  6
CONTINUOUS
 10
125.9023352197
 20
94.2391562332
  0
VERTEX
  8
SURFACE
 62
7
  6
CONTINUOUS
 10
125.9272121233
 20
94.2432476781
  0
VERTEX
  8
SURFACE
 62
7
  6
CONTINUOUS
 10
125.9463640883
 20
94.2481306838
  0
VERTEX
  8
SURFACE
 62
7
  6
CONTINUOUS
 10
125.9593102161
 20
94.2536750335
  0
VERTEX
  8
SURFACE
 62
7
  6
CONTINUOUS
 10
125.9657454117
 20
94.2597340662
  0
VERTEX
  8
SURFACE
 62
7
  6
CONTINUOUS
 10
125.9664571832
 20
94.2622027609
  0
SEQEND
  0
POLYLINE
  8
SURFACE
 62
7
  6
CONTINUOUS
 66
1
 70
0
  0
VERTEX
  8
SURFACE
 62
7
  6
CONTINUOUS
 10
68.8697848783
 20
98.9806749546
  0
VERTEX
  8
SURFACE
 62
7
  6
CONTINUOUS
 10
68.8826303641
 20
98.9800736151
  0
VERTEX
  8
SURFACE
 62
7
  6
CONTINUOUS
 10
68.8990019549
 20
98.9775868422
  0
VERTEX
  8
SURFACE
 62
7
  6
CONTINUOUS
 10
68.9164259736
 20
98.972773286
  0
VERTEX
  8
SURFACE
 62
7
  6
CONTINUOUS
 10
68.9341659431
 20
98.9653795819
  0
VERTEX
  8
SURFACE
 62
7
  6
CONTINUOUS
 10
68.9515917006
 20
98.9552761507
  0
VERTEX
  8
SURFACE
 62
7
  6
CONTINUOUS
 10
68.9681292826
 20
98.942429552
  0
VERTEX
  8
SURFACE
 62
7
  6
CONTINUOUS
 10
68.983195711
 20
98.9269365795
  0
VERTEX
  8
SURFACE
 62
7
  6
CONTINUOUS
 10
68.9962344777
 20
98.9090259836
  0
VERTEX
  8
SURFACE
 62
7
  6
CONTINUOUS
 10
69.0067331782
 20
98.8890860403
  0
VERTEX
  8
SURFACE
 62
7
  6
CONTINUOUS
 10
69.0142872643
 20
98.8676297626
  0
VERTEX
  8
SURFACE
 62
7
  6
CONTINUOUS
 10
69.0186350739
 20
98.8452533808
  0
VERTEX
  8
SURFACE
 62
7
  6
CONTINUOUS
 10
69.0197305205
 20
98.8268029764
  0
SEQEND
  0
POLYLINE
  8
SURFACE
 62
7
  6
CONTINUOUS
 66
1
 70
0
  0
VERTEX
  8
SURFACE
 62
7
  6
CONTINUOUS
 10
81.5697848783
 20
98.9806749546
  0
VERTEX
  8
SURFACE
 62
7
  6
CONTINUOUS
 10
81.5826303641
 20
98.9800736151
  0
VERTEX
  8
SURFACE
 62
7
  6
CONTINUOUS
 10
81.5990019549
 20
98.9775868422
  0
VERTEX
  8
SURFACE
 62
7
  6
CONTINUOUS
 10
81.6164259736
 20
98.972773286
  0
VERTEX
  8
SURFACE
 62
7
  6
CONTINUOUS
 10
81.6341659431
 20
98.9653795819
  0
VERTEX
  8
SURFACE
 62
7
  6
CONTINUOUS
 10
81.6515917006
 20
98.9552761507
  0
VERTEX
  8
SURFACE
 62
7
  6
CONTINUOUS
 10
81.6681292826
 20
98.942429552
  0
VERTEX
  8
SURFACE
 62
7
  6
CONTINUOUS
 10
81.683195711
 20
98.9269365795
  0
VERTEX
  8
SURFACE
 62
7
  6
CONTINUOUS
 10
81.6962344777
 20
98.9090259836
  0
VERTEX
  8
SURFACE
 62
7
  6
CONTINUOUS
 10
81.7067331782
 20
98.8890860403
  0
VERTEX
  8
SURFACE
 62
7
  6
CONTINUOUS
 10
81.7142872643
 20
98.8676297626
  0
VERTEX
  8
SURFACE
 62
7
  6
CONTINUOUS
 10
81.7186350739
 20
98.8452533808
  0
VERTEX
  8
SURFACE
 62
7
  6
CONTINUOUS
 10
81.7197305205
 20
98.8268029764
  0
SEQEND
  0
POLYLINE
  8
SURFACE
 62
7
  6
CONTINUOUS
 66
1
 70
0
  0
VERTEX
  8
SURFACE
 62
7
  6
CONTINUOUS
 10
94.2697848783
 20
98.9806749546
  0
VERTEX
  8
SURFACE
 62
7
  6
CONTINUOUS
 10
94.2826303641
 20
98.9800736151
  0
VERTEX
  8
SURFACE
 62
7
  6
CONTINUOUS
 10
94.2990019549
 20
98.9775868422
  0
VERTEX
  8
SURFACE
 62
7
  6
CONTINUOUS
 10
94.3164259736
 20
98.972773286
  0
VERTEX
  8
SURFACE
 62
7
  6
CONTINUOUS
 10
94.3341659431
 20
98.9653795819
  0
VERTEX
  8
SURFACE
 62
7
  6
CONTINUOUS
 10
94.3515917006
 20
98.9552761507
  0
VERTEX
  8
SURFACE
 62
7
  6
CONTINUOUS
 10
94.3681292826
 20
98.942429552
  0
VERTEX
  8
SURFACE
 62
7
  6
CONTINUOUS
 10
94.383195711
 20
98.9269365795
  0
VERTEX
  8
SURFACE
 62
7
  6
CONTINUOUS
 10
94.3962344777
 20
98.9090259836
  0
VERTEX
  8
SURFACE
 62
7
  6
CONTINUOUS
 10
94.4067331782
 20
98.8890860403
  0
VERTEX
  8
SURFACE
 62
7
  6
CONTINUOUS
 10
94.4142872643
 20
98.8676297626
  0
VERTEX
  8
SURFACE
 62
7
  6
CONTINUOUS
 10
94.4186350739
 20
98.8452533808
  0
VERTEX
  8
SURFACE
 62
7
  6
CONTINUOUS
 10
94.4197305205
 20
98.8268029764
  0
SEQEND
  0
POLYLINE
  8
SURFACE
 62
7
  6
CONTINUOUS
 66
1
 70
0
  0
VERTEX
  8
SURFACE
 62
7
  6
CONTINUOUS
 10
106.9697848783
 20
98.9806749546
  0
VERTEX
  8
SURFACE
 62
7
  6
CONTINUOUS
 10
106.9826303641
 20
98.9800736151
  0
VERTEX
  8
SURFACE
 62
7
  6
CONTINUOUS
 10
106.9990019549
 20
98.9775868422
  0
VERTEX
  8
SURFACE
 62
7
  6
CONTINUOUS
 10
107.0164259736
 20
98.972773286
  0
VERTEX
  8
SURFACE
 62
7
  6
CONTINUOUS
 10
107.0341659431
 20
98.9653795819
  0
VERTEX
  8
SURFACE
 62
7
  6
CONTINUOUS
 10
107.0515917006
 20
98.9552761507
  0
VERTEX
  8
SURFACE
 62
7
  6
CONTINUOUS
 10
107.0681292826
 20
98.942429552
  0
VERTEX
  8
SURFACE
 62
7
  6
CONTINUOUS
 10
107.083195711
 20
98.9269365795
  0
VERTEX
  8
SURFACE
 62
7
  6
CONTINUOUS
 10
107.0962344777
 20
98.9090259836
  0
VERTEX
  8
SURFACE
 62
7
  6
CONTINUOUS
 10
107.1067331782
 20
98.8890860403
  0
VERTEX
  8
SURFACE
 62
7
  6
CONTINUOUS
 10
107.1142872643
 20
98.8676297626
  0
VERTEX
  8
SURFACE
 62
7
  6
CONTINUOUS
 10
107.1186350739
 20
98.8452533808
  0
VERTEX
  8
SURFACE
 62
7
  6
CONTINUOUS
 10
107.1197305205
 20
98.8268029764
  0
SEQEND
  0
POLYLINE
  8
SURFACE
 62
7
  6
CONTINUOUS
 66
1
 70
0
  0
VERTEX
  8
SURFACE
 62
7
  6
CONTINUOUS
 10
119.6697848783
 20
98.9806749546
  0
VERTEX
  8
SURFACE
 62
7
  6
CONTINUOUS
 10
119.6826303641
 20
98.9800736151
  0
VERTEX
  8
SURFACE
 62
7
  6
CONTINUOUS
 10
119.6990019549
 20
98.9775868422
  0
VERTEX
  8
SURFACE
 62
7
  6
CONTINUOUS
 10
119.7164259736
 20
98.972773286
  0
VERTEX
  8
SURFACE
 62
7
  6
CONTINUOUS
 10
119.7341659431
 20
98.9653795819
  0
VERTEX
  8
SURFACE
 62
7
  6
CONTINUOUS
 10
119.7515917006
 20
98.9552761507
  0
VERTEX
  8
SURFACE
 62
7
  6
CONTINUOUS
 10
119.7681292826
 20
98.942429552
  0
VERTEX
  8
SURFACE
 62
7
  6
CONTINUOUS
 10
119.783195711
 20
98.9269365795
  0
VERTEX
  8
SURFACE
 62
7
  6
CONTINUOUS
 10
119.7962344777
 20
98.9090259836
  0
VERTEX
  8
SURFACE
 62
7
  6
CONTINUOUS
 10
119.8067331782
 20
98.8890860403
  0
VERTEX
  8
SURFACE
 62
7
  6
CONTINUOUS
 10
119.8142872643
 20
98.8676297626
  0
VERTEX
  8
SURFACE
 62
7
  6
CONTINUOUS
 10
119.8186350739
 20
98.8452533808
  0
VERTEX
  8
SURFACE
 62
7
  6
CONTINUOUS
 10
119.8197305205
 20
98.8268029764
  0
SEQEND
  0
POLYLINE
  8
SURFACE
 62
7
  6
CONTINUOUS
 66
1
 70
0
  0
VERTEX
  8
SURFACE
 62
7
  6
CONTINUOUS
 10
95.7979294908
 20
90.5096528294
  0
VERTEX
  8
SURFACE
 62
7
  6
CONTINUOUS
 10
95.8320851247
 20
90.504048677
  0
VERTEX
  8
SURFACE
 62
7
  6
CONTINUOUS
 10
95.8664567347
 20
90.5006901376
  0
VERTEX
  8
SURFACE
 62
7
  6
CONTINUOUS
 10
95.8912113681
 20
90.4999320232
  0
SEQEND
  0
POLYLINE
  8
SURFACE
 62
7
  6
CONTINUOUS
 66
1
 70
0
  0
VERTEX
  8
SURFACE
 62
7
  6
CONTINUOUS
 10
108.4979294908
 20
90.5096528294
  0
VERTEX
  8
SURFACE
 62
7
  6
CONTINUOUS
 10
108.5320851247
 20
90.504048677
  0
VERTEX
  8
SURFACE
 62
7
  6
CONTINUOUS
 10
108.5664567347
 20
90.5006901376
  0
VERTEX
  8
SURFACE
 62
7
  6
CONTINUOUS
 10
108.5912113681
 20
90.4999320232
  0
SEQEND
  0
POLYLINE
  8
SURFACE
 62
7
  6
CONTINUOUS
 66
1
 70
0
  0
VERTEX
  8
SURFACE
 62
7
  6
CONTINUOUS
 10
121.1979294908
 20
90.5096528294
  0
VERTEX
  8
SURFACE
 62
7
  6
CONTINUOUS
 10
121.2320851247
 20
90.504048677
  0
VERTEX
  8
SURFACE
 62
7
  6
CONTINUOUS
 10
121.2664567347
 20
90.5006901376
  0
VERTEX
  8
SURFACE
 62
7
  6
CONTINUOUS
 10
121.2912113681
 20
90.4999320232
  0
SEQEND
  0
LINE
  8
SURFACE
 62
7
  6
CONTINUOUS
 10
95.7736150001
 20
90.5147847052
 11
95.7979294908
 21
90.5096528294
  0
LINE
  8
SURFACE
 62
7
  6
CONTINUOUS
 10
108.4736150001
 20
90.5147847052
 11
108.4979294908
 21
90.5096528294
  0
LINE
  8
SURFACE
 62
7
  6
CONTINUOUS
 10
121.1736150001
 20
90.5147847052
 11
121.1979294908
 21
90.5096528294
  0
POLYLINE
  8
SURFACE
 62
7
  6
CONTINUOUS
 66
1
 70
0
  0
VERTEX
  8
SURFACE
 62
7
  6
CONTINUOUS
 10
107.119751163
 20
94.2622040332
  0
VERTEX
  8
SURFACE
 62
7
  6
CONTINUOUS
 10
107.1415511009
 20
94.0180999421
  0
VERTEX
  8
SURFACE
 62
7
  6
CONTINUOUS
 10
107.1725263794
 20
93.7246558457
  0
VERTEX
  8
SURFACE
 62
7
  6
CONTINUOUS
 10
107.2081685832
 20
93.438115585
  0
VERTEX
  8
SURFACE
 62
7
  6
CONTINUOUS
 10
107.2484378055
 20
93.1593379756
  0
VERTEX
  8
SURFACE
 62
7
  6
CONTINUOUS
 10
107.2932970554
 20
92.8891877546
  0
VERTEX
  8
SURFACE
 62
7
  6
CONTINUOUS
 10
107.3427140865
 20
92.6285363763
  0
VERTEX
  8
SURFACE
 62
7
  6
CONTINUOUS
 10
107.3966654814
 20
92.3782567783
  0
VERTEX
  8
SURFACE
 62
7
  6
CONTINUOUS
 10
107.4551368393
 20
92.1392421324
  0
VERTEX
  8
SURFACE
 62
7
  6
CONTINUOUS
 10
107.5181260012
 20
91.9124088186
  0
VERTEX
  8
SURFACE
 62
7
  6
CONTINUOUS
 10
107.5856668113
 20
91.6986418544
  0
VERTEX
  8
SURFACE
 62
7
  6
CONTINUOUS
 10
107.6579554878
 20
91.4985224501
  0
VERTEX
  8
SURFACE
 62
7
  6
CONTINUOUS
 10
107.7355810505
 20
91.3120720039
  0
VERTEX
  8
SURFACE
 62
7
  6
CONTINUOUS
 10
107.8194156782
 20
91.139540774
  0
VERTEX
  8
SURFACE
 62
7
  6
CONTINUOUS
 10
107.9091795673
 20
90.9839739878
  0
VERTEX
  8
SURFACE
 62
7
  6
CONTINUOUS
 10
108.0024926946
 20
90.8505108415
  0
VERTEX
  8
SURFACE
 62
7
  6
CONTINUOUS
 10
108.0966305168
 20
90.741749054
  0
VERTEX
  8
SURFACE
 62
7
  6
CONTINUOUS
 10
108.1911456827
 20
90.6557909144
  0
VERTEX
  8
SURFACE
 62
7
  6
CONTINUOUS
 10
108.2872818604
 20
90.589641199
  0
VERTEX
  8
SURFACE
 62
7
  6
CONTINUOUS
 10
108.3858537883
 20
90.5418051111
  0
VERTEX
  8
SURFACE
 62
7
  6
CONTINUOUS
 10
108.4736437846
 20
90.5147767982
  0
SEQEND
  0
POLYLINE
  8
SURFACE
 62
7
  6
CONTINUOUS
 66
1
 70
0
  0
VERTEX
  8
SURFACE
 62
7
  6
CONTINUOUS
 10
106.8944571802
 20
122.8376600057
  0
VERTEX
  8
SURFACE
 62
7
  6
CONTINUOUS
 10
106.8726572423
 20
123.0817640968
  0
VERTEX
  8
SURFACE
 62
7
  6
CONTINUOUS
 10
106.8416819638
 20
123.3752081933
  0
VERTEX
  8
SURFACE
 62
7
  6
CONTINUOUS
 10
106.8060397599
 20
123.6617484539
  0
VERTEX
  8
SURFACE
 62
7
  6
CONTINUOUS
 10
106.7657705377
 20
123.9405260633
  0
VERTEX
  8
SURFACE
 62
7
  6
CONTINUOUS
 10
106.7209112877
 20
124.2106762843
  0
VERTEX
  8
SURFACE
 62
7
  6
CONTINUOUS
 10
106.6714942566
 20
124.4713276626
  0
VERTEX
  8
SURFACE
 62
7
  6
CONTINUOUS
 10
106.6175428618
 20
124.7216072606
  0
VERTEX
  8
SURFACE
 62
7
  6
CONTINUOUS
 10
106.5590715039
 20
124.9606219065
  0
VERTEX
  8
SURFACE
 62
7
  6
CONTINUOUS
 10
106.4960823419
 20
125.1874552203
  0
VERTEX
  8
SURFACE
 62
7
  6
CONTINUOUS
 10
106.4285415319
 20
125.4012221845
  0
VERTEX
  8
SURFACE
 62
7
  6
CONTINUOUS
 10
106.3562528554
 20
125.6013415888
  0
VERTEX
  8
SURFACE
 62
7
  6
CONTINUOUS
 10
106.2786272926
 20
125.7877920351
  0
VERTEX
  8
SURFACE
 62
7
  6
CONTINUOUS
 10
106.194792665
 20
125.9603232649
  0
VERTEX
  8
SURFACE
 62
7
  6
CONTINUOUS
 10
106.1050287758
 20
126.1158900511
  0
VERTEX
  8
SURFACE
 62
7
  6
CONTINUOUS
 10
106.0117156485
 20
126.2493531974
  0
VERTEX
  8
SURFACE
 62
7
  6
CONTINUOUS
 10
105.9175778264
 20
126.3581149849
  0
VERTEX
  8
SURFACE
 62
7
  6
CONTINUOUS
 10
105.8230626605
 20
126.4440731245
  0
VERTEX
  8
SURFACE
 62
7
  6
CONTINUOUS
 10
105.7269264828
 20
126.5102228399
  0
VERTEX
  8
SURFACE
 62
7
  6
CONTINUOUS
 10
105.6283545549
 20
126.5580589278
  0
VERTEX
  8
SURFACE
 62
7
  6
CONTINUOUS
 10
105.5405645585
 20
126.5850872407
  0
SEQEND
  0
LINE
  8
SURFACE
 62
7
  6
CONTINUOUS
 10
107.1197511604
 20
94.262202756
 11
107.1197304323
 21
94.2627108825
  0
LINE
  8
SURFACE
 62
7
  6
CONTINUOUS
 10
106.8944571828
 20
122.8376612829
 11
106.8944779109
 21
122.8371531564
  0
LINE
  8
DEFAULT_1
 62
7
  6
CENTER
 10
97.4931041716
 20
100.2499320195
 11
97.4931041716
 21
97.8500320195
  0
LINE
  8
0
 62
2
  6
CONTINUOUS
 10
97.4931041716
 20
96.7299320195
 11
97.4931041716
 21
94.9699320195
  0
LINE
  8
DEFAULT_1
 62
7
  6
CENTER
 10
97.4931041716
 20
91.4499320195
 11
97.4931041716
 21
93.8498320195
  0
LINE
  8
SURFACE
 62
7
  6
CONTINUOUS
 10
100.5664779111
 20
94.2627453541
 11
100.5664779111
 21
98.827019925
  0
LINE
  8
SURFACE
 62
7
  6
CONTINUOUS
 10
100.747730432
 20
122.8371186848
 11
100.747730432
 21
118.272844114
  0
LINE
  8
DEFAULT_1
 62
7
  6
CENTER
 10
103.8211041716
 20
125.6499320195
 11
103.8211041716
 21
123.2500320195
  0
LINE
  8
0
 62
2
  6
CONTINUOUS
 10
103.8211041716
 20
122.1299320195
 11
103.8211041716
 21
120.3699320195
  0
LINE
  8
DEFAULT_1
 62
7
  6
CENTER
 10
103.8211041716
 20
116.8499320195
 11
103.8211041716
 21
119.2498320195
  0
LINE
  8
SURFACE
 62
7
  6
CONTINUOUS
 10
106.8944779111
 20
122.8371186846
 11
106.8944779111
 21
118.2728483648
  0
LINE
  8
SURFACE
 62
7
  6
CONTINUOUS
 10
107.119730432
 20
94.2627453543
 11
107.119730432
 21
98.8270156742
  0
LINE
  8
DEFAULT_1
 62
7
  6
CENTER
 10
110.1931041716
 20
100.2499320195
 11
110.1931041716
 21
97.8500320195
  0
LINE
  8
0
 62
2
  6
CONTINUOUS
 10
110.1931041716
 20
96.7299320195
 11
110.1931041716
 21
94.9699320195
  0
LINE
  8
DEFAULT_1
 62
7
  6
CENTER
 10
110.1931041716
 20
91.4499320195
 11
110.1931041716
 21
93.8498320195
  0
LINE
  8
SURFACE
 62
7
  6
CONTINUOUS
 10
113.2664779111
 20
94.2627453541
 11
113.2664779111
 21
98.827019925
  0
LINE
  8
SURFACE
 62
7
  6
CONTINUOUS
 10
113.447730432
 20
122.8371186848
 11
113.447730432
 21
118.272844114
  0
LINE
  8
DEFAULT_1
 62
7
  6
CENTER
 10
116.5211041716
 20
125.6499320195
 11
116.5211041716
 21
123.2500320195
  0
LINE
  8
0
 62
2
  6
CONTINUOUS
 10
116.5211041716
 20
122.1299320195
 11
116.5211041716
 21
120.3699320195
  0
LINE
  8
DEFAULT_1
 62
7
  6
CENTER
 10
116.5211041716
 20
116.8499320195
 11
116.5211041716
 21
119.2498320195
  0
LINE
  8
SURFACE
 62
7
  6
CONTINUOUS
 10
100.74775116
 20
122.837661278
 11
100.7477304323
 21
122.8371531566
  0
LINE
  8
SURFACE
 62
7
  6
CONTINUOUS
 10
100.5664571832
 20
94.2622027609
 11
100.5664779109
 21
94.2627108823
  0
LINE
  8
SURFACE
 62
7
  6
CONTINUOUS
 10
113.44775116
 20
122.837661278
 11
113.4477304323
 21
122.8371531566
  0
LINE
  8
SURFACE
 62
7
  6
CONTINUOUS
 10
113.2664571832
 20
94.2622027609
 11
113.2664779109
 21
94.2627108823
  0
POLYLINE
  8
SURFACE
 62
7
  6
CONTINUOUS
 66
1
 70
0
  0
VERTEX
  8
SURFACE
 62
7
  6
CONTINUOUS
 10
100.7477305207
 20
118.2730569755
  0
VERTEX
  8
SURFACE
 62
7
  6
CONTINUOUS
 10
100.7466354234
 20
118.2546098198
  0
VERTEX
  8
SURFACE
 62
7
  6
CONTINUOUS
 10
100.7422884418
 20
118.2322352267
  0
VERTEX
  8
SURFACE
 62
7
  6
CONTINUOUS
 10
100.7347355683
 20
118.2107804677
  0
VERTEX
  8
SURFACE
 62
7
  6
CONTINUOUS
 10
100.7242382496
 20
118.1908414825
  0
VERTEX
  8
SURFACE
 62
7
  6
CONTINUOUS
 10
100.711200681
 20
118.1729310997
  0
VERTEX
  8
SURFACE
 62
7
  6
CONTINUOUS
 10
100.6961348955
 20
118.1574376243
  0
VERTEX
  8
SURFACE
 62
7
  6
CONTINUOUS
 10
100.6795973164
 20
118.1445901552
  0
VERTEX
  8
SURFACE
 62
7
  6
CONTINUOUS
 10
100.6621710458
 20
118.1344858314
  0
VERTEX
  8
SURFACE
 62
7
  6
CONTINUOUS
 10
100.6444302815
 20
118.1270914369
  0
VERTEX
  8
SURFACE
 62
7
  6
CONTINUOUS
 10
100.6270053535
 20
118.1222774514
  0
VERTEX
  8
SURFACE
 62
7
  6
CONTINUOUS
 10
100.6106326278
 20
118.119790456
  0
VERTEX
  8
SURFACE
 62
7
  6
CONTINUOUS
 10
100.5977864448
 20
118.1191890854
  0
SEQEND
  0
POLYLINE
  8
SURFACE
 62
7
  6
CONTINUOUS
 66
1
 70
0
  0
VERTEX
  8
SURFACE
 62
7
  6
CONTINUOUS
 10
100.5664778225
 20
98.8268070634
  0
VERTEX
  8
SURFACE
 62
7
  6
CONTINUOUS
 10
100.5675729197
 20
98.8452542192
  0
VERTEX
  8
SURFACE
 62
7
  6
CONTINUOUS
 10
100.5719199014
 20
98.8676288122
  0
VERTEX
  8
SURFACE
 62
7
  6
CONTINUOUS
 10
100.5794727749
 20
98.8890835712
  0
VERTEX
  8
SURFACE
 62
7
  6
CONTINUOUS
 10
100.5899700936
 20
98.9090225565
  0
VERTEX
  8
SURFACE
 62
7
  6
CONTINUOUS
 10
100.6030076622
 20
98.9269329393
  0
VERTEX
  8
SURFACE
 62
7
  6
CONTINUOUS
 10
100.6180734477
 20
98.9424264146
  0
VERTEX
  8
SURFACE
 62
7
  6
CONTINUOUS
 10
100.6346110268
 20
98.9552738837
  0
VERTEX
  8
SURFACE
 62
7
  6
CONTINUOUS
 10
100.6520372974
 20
98.9653782075
  0
VERTEX
  8
SURFACE
 62
7
  6
CONTINUOUS
 10
100.6697780617
 20
98.9727726021
  0
VERTEX
  8
SURFACE
 62
7
  6
CONTINUOUS
 10
100.6872029896
 20
98.9775865876
  0
VERTEX
  8
SURFACE
 62
7
  6
CONTINUOUS
 10
100.7035757154
 20
98.9800735829
  0
VERTEX
  8
SURFACE
 62
7
  6
CONTINUOUS
 10
100.7164218983
 20
98.9806749536
  0
SEQEND
  0
POLYLINE
  8
SURFACE
 62
7
  6
CONTINUOUS
 66
1
 70
0
  0
VERTEX
  8
SURFACE
 62
7
  6
CONTINUOUS
 10
113.4477305207
 20
118.2730569755
  0
VERTEX
  8
SURFACE
 62
7
  6
CONTINUOUS
 10
113.4466354234
 20
118.2546098198
  0
VERTEX
  8
SURFACE
 62
7
  6
CONTINUOUS
 10
113.4422884418
 20
118.2322352267
  0
VERTEX
  8
SURFACE
 62
7
  6
CONTINUOUS
 10
113.4347355683
 20
118.2107804677
  0
VERTEX
  8
SURFACE
 62
7
  6
CONTINUOUS
 10
113.4242382496
 20
118.1908414825
  0
VERTEX
  8
SURFACE
 62
7
  6
CONTINUOUS
 10
113.411200681
 20
118.1729310997
  0
VERTEX
  8
SURFACE
 62
7
  6
CONTINUOUS
 10
113.3961348955
 20
118.1574376243
  0
VERTEX
  8
SURFACE
 62
7
  6
CONTINUOUS
 10
113.3795973164
 20
118.1445901552
  0
VERTEX
  8
SURFACE
 62
7
  6
CONTINUOUS
 10
113.3621710458
 20
118.1344858314
  0
VERTEX
  8
SURFACE
 62
7
  6
CONTINUOUS
 10
113.3444302815
 20
118.1270914369
  0
VERTEX
  8
SURFACE
 62
7
  6
CONTINUOUS
 10
113.3270053535
 20
118.1222774514
  0
VERTEX
  8
SURFACE
 62
7
  6
CONTINUOUS
 10
113.3106326278
 20
118.119790456
  0
VERTEX
  8
SURFACE
 62
7
  6
CONTINUOUS
 10
113.2977864448
 20
118.1191890854
  0
SEQEND
  0
POLYLINE
  8
SURFACE
 62
7
  6
CONTINUOUS
 66
1
 70
0
  0
VERTEX
  8
SURFACE
 62
7
  6
CONTINUOUS
 10
113.2664778225
 20
98.8268070634
  0
VERTEX
  8
SURFACE
 62
7
  6
CONTINUOUS
 10
113.2675729197
 20
98.8452542192
  0
VERTEX
  8
SURFACE
 62
7
  6
CONTINUOUS
 10
113.2719199014
 20
98.8676288122
  0
VERTEX
  8
SURFACE
 62
7
  6
CONTINUOUS
 10
113.2794727749
 20
98.8890835712
  0
VERTEX
  8
SURFACE
 62
7
  6
CONTINUOUS
 10
113.2899700936
 20
98.9090225565
  0
VERTEX
  8
SURFACE
 62
7
  6
CONTINUOUS
 10
113.3030076622
 20
98.9269329393
  0
VERTEX
  8
SURFACE
 62
7
  6
CONTINUOUS
 10
113.3180734477
 20
98.9424264146
  0
VERTEX
  8
SURFACE
 62
7
  6
CONTINUOUS
 10
113.3346110268
 20
98.9552738837
  0
VERTEX
  8
SURFACE
 62
7
  6
CONTINUOUS
 10
113.3520372974
 20
98.9653782075
  0
VERTEX
  8
SURFACE
 62
7
  6
CONTINUOUS
 10
113.3697780617
 20
98.9727726021
  0
VERTEX
  8
SURFACE
 62
7
  6
CONTINUOUS
 10
113.3872029896
 20
98.9775865876
  0
VERTEX
  8
SURFACE
 62
7
  6
CONTINUOUS
 10
113.4035757154
 20
98.9800735829
  0
VERTEX
  8
SURFACE
 62
7
  6
CONTINUOUS
 10
113.4164218983
 20
98.9806749536
  0
SEQEND
  0
POLYLINE
  8
SURFACE
 62
7
  6
CONTINUOUS
 66
1
 70
0
  0
VERTEX
  8
SURFACE
 62
7
  6
CONTINUOUS
 10
61.1125566809
 20
90.514774828
  0
VERTEX
  8
SURFACE
 62
7
  6
CONTINUOUS
 10
61.2013018391
 20
90.5421745728
  0
VERTEX
  8
SURFACE
 62
7
  6
CONTINUOUS
 10
61.2997876376
 20
90.5901453079
  0
VERTEX
  8
SURFACE
 62
7
  6
CONTINUOUS
 10
61.3958459279
 20
90.6564147525
  0
VERTEX
  8
SURFACE
 62
7
  6
CONTINUOUS
 10
61.4902935494
 20
90.742485383
  0
VERTEX
  8
SURFACE
 62
7
  6
CONTINUOUS
 10
61.5843697851
 20
90.8513539659
  0
VERTEX
  8
SURFACE
 62
7
  6
CONTINUOUS
 10
61.6776092614
 20
90.9848908082
  0
VERTEX
  8
SURFACE
 62
7
  6
CONTINUOUS
 10
61.7673047937
 20
91.1405113591
  0
VERTEX
  8
SURFACE
 62
7
  6
CONTINUOUS
 10
61.8510961474
 20
91.3131175327
  0
VERTEX
  8
SURFACE
 62
7
  6
CONTINUOUS
 10
61.9287040367
 20
91.4996883298
  0
VERTEX
  8
SURFACE
 62
7
  6
CONTINUOUS
 10
62.000983529
 20
91.6999520985
  0
VERTEX
  8
SURFACE
 62
7
  6
CONTINUOUS
 10
62.0685108755
 20
91.9138570975
  0
VERTEX
  8
SURFACE
 62
7
  6
CONTINUOUS
 10
62.1314813031
 20
92.1408156095
  0
VERTEX
  8
SURFACE
 62
7
  6
CONTINUOUS
 10
62.1899311163
 20
92.3799483018
  0
VERTEX
  8
SURFACE
 62
7
  6
CONTINUOUS
 10
62.2438600565
 20
92.6303462064
  0
VERTEX
  8
SURFACE
 62
7
  6
CONTINUOUS
 10
62.2932538844
 20
92.8911184584
  0
VERTEX
  8
SURFACE
 62
7
  6
CONTINUOUS
 10
62.3380884946
 20
93.1613901007
  0
VERTEX
  8
SURFACE
 62
7
  6
CONTINUOUS
 10
62.3783310933
 20
93.4402871444
  0
VERTEX
  8
SURFACE
 62
7
  6
CONTINUOUS
 10
62.4139443016
 20
93.7269419395
  0
VERTEX
  8
SURFACE
 62
7
  6
CONTINUOUS
 10
62.4448879896
 20
94.0204924646
  0
VERTEX
  8
SURFACE
 62
7
  6
CONTINUOUS
 10
62.4664571806
 20
94.2622040382
  0
SEQEND
  0
POLYLINE
  8
SURFACE
 62
7
  6
CONTINUOUS
 66
1
 70
0
  0
VERTEX
  8
SURFACE
 62
7
  6
CONTINUOUS
 10
73.8125566809
 20
90.514774828
  0
VERTEX
  8
SURFACE
 62
7
  6
CONTINUOUS
 10
73.9013018391
 20
90.5421745728
  0
VERTEX
  8
SURFACE
 62
7
  6
CONTINUOUS
 10
73.9997876376
 20
90.5901453079
  0
VERTEX
  8
SURFACE
 62
7
  6
CONTINUOUS
 10
74.0958459279
 20
90.6564147525
  0
VERTEX
  8
SURFACE
 62
7
  6
CONTINUOUS
 10
74.1902935494
 20
90.742485383
  0
VERTEX
  8
SURFACE
 62
7
  6
CONTINUOUS
 10
74.2843697851
 20
90.8513539659
  0
VERTEX
  8
SURFACE
 62
7
  6
CONTINUOUS
 10
74.3776092614
 20
90.9848908082
  0
VERTEX
  8
SURFACE
 62
7
  6
CONTINUOUS
 10
74.4673047937
 20
91.1405113591
  0
VERTEX
  8
SURFACE
 62
7
  6
CONTINUOUS
 10
74.5510961474
 20
91.3131175327
  0
VERTEX
  8
SURFACE
 62
7
  6
CONTINUOUS
 10
74.6287040367
 20
91.4996883298
  0
VERTEX
  8
SURFACE
 62
7
  6
CONTINUOUS
 10
74.700983529
 20
91.6999520985
  0
VERTEX
  8
SURFACE
 62
7
  6
CONTINUOUS
 10
74.7685108755
 20
91.9138570975
  0
VERTEX
  8
SURFACE
 62
7
  6
CONTINUOUS
 10
74.8314813031
 20
92.1408156095
  0
VERTEX
  8
SURFACE
 62
7
  6
CONTINUOUS
 10
74.8899311163
 20
92.3799483018
  0
VERTEX
  8
SURFACE
 62
7
  6
CONTINUOUS
 10
74.9438600565
 20
92.6303462064
  0
VERTEX
  8
SURFACE
 62
7
  6
CONTINUOUS
 10
74.9932538844
 20
92.8911184584
  0
VERTEX
  8
SURFACE
 62
7
  6
CONTINUOUS
 10
75.0380884946
 20
93.1613901007
  0
VERTEX
  8
SURFACE
 62
7
  6
CONTINUOUS
 10
75.0783310933
 20
93.4402871444
  0
VERTEX
  8
SURFACE
 62
7
  6
CONTINUOUS
 10
75.1139443016
 20
93.7269419395
  0
VERTEX
  8
SURFACE
 62
7
  6
CONTINUOUS
 10
75.1448879896
 20
94.0204924646
  0
VERTEX
  8
SURFACE
 62
7
  6
CONTINUOUS
 10
75.1664571806
 20
94.2622040382
  0
SEQEND
  0
POLYLINE
  8
SURFACE
 62
7
  6
CONTINUOUS
 66
1
 70
0
  0
VERTEX
  8
SURFACE
 62
7
  6
CONTINUOUS
 10
86.5125566809
 20
90.514774828
  0
VERTEX
  8
SURFACE
 62
7
  6
CONTINUOUS
 10
86.6013018391
 20
90.5421745728
  0
VERTEX
  8
SURFACE
 62
7
  6
CONTINUOUS
 10
86.6997876376
 20
90.5901453079
  0
VERTEX
  8
SURFACE
 62
7
  6
CONTINUOUS
 10
86.7958459279
 20
90.6564147525
  0
VERTEX
  8
SURFACE
 62
7
  6
CONTINUOUS
 10
86.8902935494
 20
90.742485383
  0
VERTEX
  8
SURFACE
 62
7
  6
CONTINUOUS
 10
86.9843697851
 20
90.8513539659
  0
VERTEX
  8
SURFACE
 62
7
  6
CONTINUOUS
 10
87.0776092614
 20
90.9848908082
  0
VERTEX
  8
SURFACE
 62
7
  6
CONTINUOUS
 10
87.1673047937
 20
91.1405113591
  0
VERTEX
  8
SURFACE
 62
7
  6
CONTINUOUS
 10
87.2510961474
 20
91.3131175327
  0
VERTEX
  8
SURFACE
 62
7
  6
CONTINUOUS
 10
87.3287040367
 20
91.4996883298
  0
VERTEX
  8
SURFACE
 62
7
  6
CONTINUOUS
 10
87.400983529
 20
91.6999520985
  0
VERTEX
  8
SURFACE
 62
7
  6
CONTINUOUS
 10
87.4685108755
 20
91.9138570975
  0
VERTEX
  8
SURFACE
 62
7
  6
CONTINUOUS
 10
87.5314813031
 20
92.1408156095
  0
VERTEX
  8
SURFACE
 62
7
  6
CONTINUOUS
 10
87.5899311163
 20
92.3799483018
  0
VERTEX
  8
SURFACE
 62
7
  6
CONTINUOUS
 10
87.6438600565
 20
92.6303462064
  0
VERTEX
  8
SURFACE
 62
7
  6
CONTINUOUS
 10
87.6932538844
 20
92.8911184584
  0
VERTEX
  8
SURFACE
 62
7
  6
CONTINUOUS
 10
87.7380884946
 20
93.1613901007
  0
VERTEX
  8
SURFACE
 62
7
  6
CONTINUOUS
 10
87.7783310933
 20
93.4402871444
  0
VERTEX
  8
SURFACE
 62
7
  6
CONTINUOUS
 10
87.8139443016
 20
93.7269419395
  0
VERTEX
  8
SURFACE
 62
7
  6
CONTINUOUS
 10
87.8448879896
 20
94.0204924646
  0
VERTEX
  8
SURFACE
 62
7
  6
CONTINUOUS
 10
87.8664571806
 20
94.2622040382
  0
SEQEND
  0
POLYLINE
  8
SURFACE
 62
7
  6
CONTINUOUS
 66
1
 70
0
  0
VERTEX
  8
SURFACE
 62
7
  6
CONTINUOUS
 10
99.2125566809
 20
90.514774828
  0
VERTEX
  8
SURFACE
 62
7
  6
CONTINUOUS
 10
99.3013018391
 20
90.5421745728
  0
VERTEX
  8
SURFACE
 62
7
  6
CONTINUOUS
 10
99.3997876376
 20
90.5901453079
  0
VERTEX
  8
SURFACE
 62
7
  6
CONTINUOUS
 10
99.4958459279
 20
90.6564147525
  0
VERTEX
  8
SURFACE
 62
7
  6
CONTINUOUS
 10
99.5902935494
 20
90.742485383
  0
VERTEX
  8
SURFACE
 62
7
  6
CONTINUOUS
 10
99.6843697851
 20
90.8513539659
  0
VERTEX
  8
SURFACE
 62
7
  6
CONTINUOUS
 10
99.7776092614
 20
90.9848908082
  0
VERTEX
  8
SURFACE
 62
7
  6
CONTINUOUS
 10
99.8673047937
 20
91.1405113591
  0
VERTEX
  8
SURFACE
 62
7
  6
CONTINUOUS
 10
99.9510961474
 20
91.3131175327
  0
VERTEX
  8
SURFACE
 62
7
  6
CONTINUOUS
 10
100.0287040367
 20
91.4996883298
  0
VERTEX
  8
SURFACE
 62
7
  6
CONTINUOUS
 10
100.100983529
 20
91.6999520985
  0
VERTEX
  8
SURFACE
 62
7
  6
CONTINUOUS
 10
100.1685108755
 20
91.9138570975
  0
VERTEX
  8
SURFACE
 62
7
  6
CONTINUOUS
 10
100.2314813031
 20
92.1408156095
  0
VERTEX
  8
SURFACE
 62
7
  6
CONTINUOUS
 10
100.2899311163
 20
92.3799483018
  0
VERTEX
  8
SURFACE
 62
7
  6
CONTINUOUS
 10
100.3438600565
 20
92.6303462064
  0
VERTEX
  8
SURFACE
 62
7
  6
CONTINUOUS
 10
100.3932538844
 20
92.8911184584
  0
VERTEX
  8
SURFACE
 62
7
  6
CONTINUOUS
 10
100.4380884946
 20
93.1613901007
  0
VERTEX
  8
SURFACE
 62
7
  6
CONTINUOUS
 10
100.4783310933
 20
93.4402871444
  0
VERTEX
  8
SURFACE
 62
7
  6
CONTINUOUS
 10
100.5139443016
 20
93.7269419395
  0
VERTEX
  8
SURFACE
 62
7
  6
CONTINUOUS
 10
100.5448879896
 20
94.0204924646
  0
VERTEX
  8
SURFACE
 62
7
  6
CONTINUOUS
 10
100.5664571806
 20
94.2622040382
  0
SEQEND
  0
POLYLINE
  8
SURFACE
 62
7
  6
CONTINUOUS
 66
1
 70
0
  0
VERTEX
  8
SURFACE
 62
7
  6
CONTINUOUS
 10
111.9125566809
 20
90.514774828
  0
VERTEX
  8
SURFACE
 62
7
  6
CONTINUOUS
 10
112.0013018391
 20
90.5421745728
  0
VERTEX
  8
SURFACE
 62
7
  6
CONTINUOUS
 10
112.0997876376
 20
90.5901453079
  0
VERTEX
  8
SURFACE
 62
7
  6
CONTINUOUS
 10
112.1958459279
 20
90.6564147525
  0
VERTEX
  8
SURFACE
 62
7
  6
CONTINUOUS
 10
112.2902935494
 20
90.742485383
  0
VERTEX
  8
SURFACE
 62
7
  6
CONTINUOUS
 10
112.3843697851
 20
90.8513539659
  0
VERTEX
  8
SURFACE
 62
7
  6
CONTINUOUS
 10
112.4776092614
 20
90.9848908082
  0
VERTEX
  8
SURFACE
 62
7
  6
CONTINUOUS
 10
112.5673047937
 20
91.1405113591
  0
VERTEX
  8
SURFACE
 62
7
  6
CONTINUOUS
 10
112.6510961474
 20
91.3131175327
  0
VERTEX
  8
SURFACE
 62
7
  6
CONTINUOUS
 10
112.7287040367
 20
91.4996883298
  0
VERTEX
  8
SURFACE
 62
7
  6
CONTINUOUS
 10
112.800983529
 20
91.6999520985
  0
VERTEX
  8
SURFACE
 62
7
  6
CONTINUOUS
 10
112.8685108755
 20
91.9138570975
  0
VERTEX
  8
SURFACE
 62
7
  6
CONTINUOUS
 10
112.9314813031
 20
92.1408156095
  0
VERTEX
  8
SURFACE
 62
7
  6
CONTINUOUS
 10
112.9899311163
 20
92.3799483018
  0
VERTEX
  8
SURFACE
 62
7
  6
CONTINUOUS
 10
113.0438600565
 20
92.6303462064
  0
VERTEX
  8
SURFACE
 62
7
  6
CONTINUOUS
 10
113.0932538844
 20
92.8911184584
  0
VERTEX
  8
SURFACE
 62
7
  6
CONTINUOUS
 10
113.1380884946
 20
93.1613901007
  0
VERTEX
  8
SURFACE
 62
7
  6
CONTINUOUS
 10
113.1783310933
 20
93.4402871444
  0
VERTEX
  8
SURFACE
 62
7
  6
CONTINUOUS
 10
113.2139443016
 20
93.7269419395
  0
VERTEX
  8
SURFACE
 62
7
  6
CONTINUOUS
 10
113.2448879896
 20
94.0204924646
  0
VERTEX
  8
SURFACE
 62
7
  6
CONTINUOUS
 10
113.2664571806
 20
94.2622040382
  0
SEQEND
  0
LINE
  8
SURFACE
 62
7
  6
CONTINUOUS
 10
127.5016133502
 20
126.585078957
 11
127.5016519895
 21
126.5850877752
  0
LINE
  8
SURFACE
 62
7
  6
CONTINUOUS
 10
114.8016133502
 20
126.585078957
 11
114.8016519895
 21
126.5850877752
  0
LINE
  8
SURFACE
 62
7
  6
CONTINUOUS
 10
102.1016133502
 20
126.585078957
 11
102.1016519895
 21
126.5850877752
  0
LINE
  8
SURFACE
 62
7
  6
CONTINUOUS
 10
89.4016133502
 20
126.585078957
 11
89.4016519895
 21
126.5850877752
  0
LINE
  8
SURFACE
 62
7
  6
CONTINUOUS
 10
76.7016133502
 20
126.585078957
 11
76.7016519895
 21
126.5850877752
  0
LINE
  8
SURFACE
 62
7
  6
CONTINUOUS
 10
127.5251726888
 20
126.5900647404
 11
127.5016133502
 21
126.585078957
  0
LINE
  8
SURFACE
 62
7
  6
CONTINUOUS
 10
114.8251726888
 20
126.5900647404
 11
114.8016133502
 21
126.585078957
  0
LINE
  8
SURFACE
 62
7
  6
CONTINUOUS
 10
102.1251726888
 20
126.5900647404
 11
102.1016133502
 21
126.585078957
  0
LINE
  8
SURFACE
 62
7
  6
CONTINUOUS
 10
89.4251726888
 20
126.5900647404
 11
89.4016133502
 21
126.585078957
  0
LINE
  8
SURFACE
 62
7
  6
CONTINUOUS
 10
76.7251726888
 20
126.5900647404
 11
76.7016133502
 21
126.585078957
  0
POLYLINE
  8
0
 62
7
  6
CONTINUOUS
 66
1
 70
0
  0
VERTEX
  8
0
 62
7
  6
CONTINUOUS
 10
56.6321270975
 20
118.1191886501
  0
VERTEX
  8
0
 62
7
  6
CONTINUOUS
 10
56.59684563
 20
118.1166867973
  0
VERTEX
  8
0
 62
7
  6
CONTINUOUS
 10
56.565073119
 20
118.1100292285
  0
VERTEX
  8
0
 62
7
  6
CONTINUOUS
 10
56.5344310014
 20
118.0993111929
  0
VERTEX
  8
0
 62
7
  6
CONTINUOUS
 10
56.5054358407
 20
118.0847133748
  0
VERTEX
  8
0
 62
7
  6
CONTINUOUS
 10
56.4785764361
 20
118.0664818637
  0
VERTEX
  8
0
 62
7
  6
CONTINUOUS
 10
56.4543055823
 20
118.0449240056
  0
VERTEX
  8
0
 62
7
  6
CONTINUOUS
 10
56.4330324362
 20
118.020403222
  0
VERTEX
  8
0
 62
7
  6
CONTINUOUS
 10
56.4151156196
 20
117.9933328834
  0
VERTEX
  8
0
 62
7
  6
CONTINUOUS
 10
56.4008571736
 20
117.9641693407
  0
VERTEX
  8
0
 62
7
  6
CONTINUOUS
 10
56.3904974661
 20
117.9334042315
  0
VERTEX
  8
0
 62
7
  6
CONTINUOUS
 10
56.3842111406
 20
117.901556193
  0
VERTEX
  8
0
 62
7
  6
CONTINUOUS
 10
56.3821041716
 20
117.8691657356
  0
SEQEND
  0
POLYLINE
  8
SURFACE
 62
7
  6
CONTINUOUS
 66
1
 70
0
  0
VERTEX
  8
SURFACE
 62
7
  6
CONTINUOUS
 10
127.6192105051
 20
126.5999320157
  0
VERTEX
  8
SURFACE
 62
7
  6
CONTINUOUS
 10
127.5940562843
 20
126.5991496549
  0
VERTEX
  8
SURFACE
 62
7
  6
CONTINUOUS
 10
127.5595101753
 20
126.5957385542
  0
VERTEX
  8
SURFACE
 62
7
  6
CONTINUOUS
 10
127.5251726888
 20
126.5900647404
  0
SEQEND
  0
POLYLINE
  8
SURFACE
 62
7
  6
CONTINUOUS
 66
1
 70
0
  0
VERTEX
  8
SURFACE
 62
7
  6
CONTINUOUS
 10
114.9192105051
 20
126.5999320157
  0
VERTEX
  8
SURFACE
 62
7
  6
CONTINUOUS
 10
114.8940562843
 20
126.5991496549
  0
VERTEX
  8
SURFACE
 62
7
  6
CONTINUOUS
 10
114.8595101753
 20
126.5957385542
  0
VERTEX
  8
SURFACE
 62
7
  6
CONTINUOUS
 10
114.8251726888
 20
126.5900647404
  0
SEQEND
  0
POLYLINE
  8
SURFACE
 62
7
  6
CONTINUOUS
 66
1
 70
0
  0
VERTEX
  8
SURFACE
 62
7
  6
CONTINUOUS
 10
102.2192105051
 20
126.5999320157
  0
VERTEX
  8
SURFACE
 62
7
  6
CONTINUOUS
 10
102.1940562843
 20
126.5991496549
  0
VERTEX
  8
SURFACE
 62
7
  6
CONTINUOUS
 10
102.1595101753
 20
126.5957385542
  0
VERTEX
  8
SURFACE
 62
7
  6
CONTINUOUS
 10
102.1251726888
 20
126.5900647404
  0
SEQEND
  0
POLYLINE
  8
SURFACE
 62
7
  6
CONTINUOUS
 66
1
 70
0
  0
VERTEX
  8
SURFACE
 62
7
  6
CONTINUOUS
 10
89.5192105051
 20
126.5999320157
  0
VERTEX
  8
SURFACE
 62
7
  6
CONTINUOUS
 10
89.4940562843
 20
126.5991496549
  0
VERTEX
  8
SURFACE
 62
7
  6
CONTINUOUS
 10
89.4595101753
 20
126.5957385542
  0
VERTEX
  8
SURFACE
 62
7
  6
CONTINUOUS
 10
89.4251726888
 20
126.5900647404
  0
SEQEND
  0
POLYLINE
  8
SURFACE
 62
7
  6
CONTINUOUS
 66
1
 70
0
  0
VERTEX
  8
SURFACE
 62
7
  6
CONTINUOUS
 10
76.8192105051
 20
126.5999320157
  0
VERTEX
  8
SURFACE
 62
7
  6
CONTINUOUS
 10
76.7940562843
 20
126.5991496549
  0
VERTEX
  8
SURFACE
 62
7
  6
CONTINUOUS
 10
76.7595101753
 20
126.5957385542
  0
VERTEX
  8
SURFACE
 62
7
  6
CONTINUOUS
 10
76.7251726888
 20
126.5900647404
  0
SEQEND
  0
POLYLINE
  8
SURFACE
 62
7
  6
CONTINUOUS
 66
1
 70
0
  0
VERTEX
  8
SURFACE
 62
7
  6
CONTINUOUS
 10
64.1192105051
 20
126.5999320157
  0
VERTEX
  8
SURFACE
 62
7
  6
CONTINUOUS
 10
64.0940562843
 20
126.5991496549
  0
VERTEX
  8
SURFACE
 62
7
  6
CONTINUOUS
 10
64.0595101753
 20
126.5957385542
  0
VERTEX
  8
SURFACE
 62
7
  6
CONTINUOUS
 10
64.0251726888
 20
126.5900647404
  0
SEQEND
  0
POLYLINE
  8
SURFACE
 62
7
  6
CONTINUOUS
 66
1
 70
0
  0
VERTEX
  8
SURFACE
 62
7
  6
CONTINUOUS
 10
119.3474479583
 20
122.8663106708
  0
VERTEX
  8
SURFACE
 62
7
  6
CONTINUOUS
 10
119.3886276449
 20
122.8673254874
  0
VERTEX
  8
SURFACE
 62
7
  6
CONTINUOUS
 10
119.4285552679
 20
122.8672533809
  0
VERTEX
  8
SURFACE
 62
7
  6
CONTINUOUS
 10
119.4661463213
 20
122.8660997682
  0
VERTEX
  8
SURFACE
 62
7
  6
CONTINUOUS
 10
119.5003808475
 20
122.8638977492
  0
VERTEX
  8
SURFACE
 62
7
  6
CONTINUOUS
 10
119.5303352197
 20
122.860707806
  0
VERTEX
  8
SURFACE
 62
7
  6
CONTINUOUS
 10
119.5552121234
 20
122.856616361
  0
VERTEX
  8
SURFACE
 62
7
  6
CONTINUOUS
 10
119.5743640883
 20
122.8517333552
  0
VERTEX
  8
SURFACE
 62
7
  6
CONTINUOUS
 10
119.5873102161
 20
122.8461890055
  0
VERTEX
  8
SURFACE
 62
7
  6
CONTINUOUS
 10
119.5937454117
 20
122.8401299726
  0
VERTEX
  8
SURFACE
 62
7
  6
CONTINUOUS
 10
119.5944571828
 20
122.8376612829
  0
SEQEND
  0
POLYLINE
  8
SURFACE
 62
7
  6
CONTINUOUS
 66
1
 70
0
  0
VERTEX
  8
SURFACE
 62
7
  6
CONTINUOUS
 10
106.6474479583
 20
122.8663106708
  0
VERTEX
  8
SURFACE
 62
7
  6
CONTINUOUS
 10
106.6886276449
 20
122.8673254874
  0
VERTEX
  8
SURFACE
 62
7
  6
CONTINUOUS
 10
106.7285552679
 20
122.8672533809
  0
VERTEX
  8
SURFACE
 62
7
  6
CONTINUOUS
 10
106.7661463213
 20
122.8660997682
  0
VERTEX
  8
SURFACE
 62
7
  6
CONTINUOUS
 10
106.8003808475
 20
122.8638977492
  0
VERTEX
  8
SURFACE
 62
7
  6
CONTINUOUS
 10
106.8303352197
 20
122.860707806
  0
VERTEX
  8
SURFACE
 62
7
  6
CONTINUOUS
 10
106.8552121234
 20
122.856616361
  0
VERTEX
  8
SURFACE
 62
7
  6
CONTINUOUS
 10
106.8743640883
 20
122.8517333552
  0
VERTEX
  8
SURFACE
 62
7
  6
CONTINUOUS
 10
106.8873102161
 20
122.8461890055
  0
VERTEX
  8
SURFACE
 62
7
  6
CONTINUOUS
 10
106.8937454117
 20
122.8401299726
  0
VERTEX
  8
SURFACE
 62
7
  6
CONTINUOUS
 10
106.8944571828
 20
122.8376612829
  0
SEQEND
  0
POLYLINE
  8
SURFACE
 62
7
  6
CONTINUOUS
 66
1
 70
0
  0
VERTEX
  8
SURFACE
 62
7
  6
CONTINUOUS
 10
93.9474479583
 20
122.8663106708
  0
VERTEX
  8
SURFACE
 62
7
  6
CONTINUOUS
 10
93.9886276449
 20
122.8673254874
  0
VERTEX
  8
SURFACE
 62
7
  6
CONTINUOUS
 10
94.0285552679
 20
122.8672533809
  0
VERTEX
  8
SURFACE
 62
7
  6
CONTINUOUS
 10
94.0661463213
 20
122.8660997682
  0
VERTEX
  8
SURFACE
 62
7
  6
CONTINUOUS
 10
94.1003808475
 20
122.8638977492
  0
VERTEX
  8
SURFACE
 62
7
  6
CONTINUOUS
 10
94.1303352197
 20
122.860707806
  0
VERTEX
  8
SURFACE
 62
7
  6
CONTINUOUS
 10
94.1552121234
 20
122.856616361
  0
VERTEX
  8
SURFACE
 62
7
  6
CONTINUOUS
 10
94.1743640883
 20
122.8517333552
  0
VERTEX
  8
SURFACE
 62
7
  6
CONTINUOUS
 10
94.1873102161
 20
122.8461890055
  0
VERTEX
  8
SURFACE
 62
7
  6
CONTINUOUS
 10
94.1937454117
 20
122.8401299726
  0
VERTEX
  8
SURFACE
 62
7
  6
CONTINUOUS
 10
94.1944571828
 20
122.8376612829
  0
SEQEND
  0
POLYLINE
  8
SURFACE
 62
7
  6
CONTINUOUS
 66
1
 70
0
  0
VERTEX
  8
SURFACE
 62
7
  6
CONTINUOUS
 10
81.2474479583
 20
122.8663106708
  0
VERTEX
  8
SURFACE
 62
7
  6
CONTINUOUS
 10
81.2886276449
 20
122.8673254874
  0
VERTEX
  8
SURFACE
 62
7
  6
CONTINUOUS
 10
81.3285552679
 20
122.8672533809
  0
VERTEX
  8
SURFACE
 62
7
  6
CONTINUOUS
 10
81.3661463213
 20
122.8660997682
  0
VERTEX
  8
SURFACE
 62
7
  6
CONTINUOUS
 10
81.4003808475
 20
122.8638977492
  0
VERTEX
  8
SURFACE
 62
7
  6
CONTINUOUS
 10
81.4303352197
 20
122.860707806
  0
VERTEX
  8
SURFACE
 62
7
  6
CONTINUOUS
 10
81.4552121234
 20
122.856616361
  0
VERTEX
  8
SURFACE
 62
7
  6
CONTINUOUS
 10
81.4743640883
 20
122.8517333552
  0
VERTEX
  8
SURFACE
 62
7
  6
CONTINUOUS
 10
81.4873102161
 20
122.8461890055
  0
VERTEX
  8
SURFACE
 62
7
  6
CONTINUOUS
 10
81.4937454117
 20
122.8401299726
  0
VERTEX
  8
SURFACE
 62
7
  6
CONTINUOUS
 10
81.4944571828
 20
122.8376612829
  0
SEQEND
  0
POLYLINE
  8
SURFACE
 62
7
  6
CONTINUOUS
 66
1
 70
0
  0
VERTEX
  8
SURFACE
 62
7
  6
CONTINUOUS
 10
68.5474479583
 20
122.8663106708
  0
VERTEX
  8
SURFACE
 62
7
  6
CONTINUOUS
 10
68.5886276449
 20
122.8673254874
  0
VERTEX
  8
SURFACE
 62
7
  6
CONTINUOUS
 10
68.6285552679
 20
122.8672533809
  0
VERTEX
  8
SURFACE
 62
7
  6
CONTINUOUS
 10
68.6661463213
 20
122.8660997682
  0
VERTEX
  8
SURFACE
 62
7
  6
CONTINUOUS
 10
68.7003808475
 20
122.8638977492
  0
VERTEX
  8
SURFACE
 62
7
  6
CONTINUOUS
 10
68.7303352197
 20
122.860707806
  0
VERTEX
  8
SURFACE
 62
7
  6
CONTINUOUS
 10
68.7552121234
 20
122.856616361
  0
VERTEX
  8
SURFACE
 62
7
  6
CONTINUOUS
 10
68.7743640883
 20
122.8517333552
  0
VERTEX
  8
SURFACE
 62
7
  6
CONTINUOUS
 10
68.7873102161
 20
122.8461890055
  0
VERTEX
  8
SURFACE
 62
7
  6
CONTINUOUS
 10
68.7937454117
 20
122.8401299726
  0
VERTEX
  8
SURFACE
 62
7
  6
CONTINUOUS
 10
68.7944571828
 20
122.8376612829
  0
SEQEND
  0
LINE
  8
SURFACE
 62
7
  6
CONTINUOUS
 10
119.3444779111
 20
122.866255007
 11
119.3474479583
 21
122.8663106712
  0
LINE
  8
SURFACE
 62
7
  6
CONTINUOUS
 10
106.6444779111
 20
122.866255007
 11
106.6474479583
 21
122.8663106712
  0
LINE
  8
SURFACE
 62
7
  6
CONTINUOUS
 10
93.9444779111
 20
122.866255007
 11
93.9474479583
 21
122.8663106712
  0
LINE
  8
SURFACE
 62
7
  6
CONTINUOUS
 10
81.2444779111
 20
122.866255007
 11
81.2474479583
 21
122.8663106712
  0
LINE
  8
SURFACE
 62
7
  6
CONTINUOUS
 10
68.5444779111
 20
122.866255007
 11
68.5474479583
 21
122.8663106712
  0
LINE
  8
0
 62
7
  6
CONTINUOUS
 10
132.2321041716
 20
111.5099323246
 11
132.3821041716
 21
111.5099323246
  0
LINE
  8
0
 62
7
  6
CONTINUOUS
 10
132.2321041716
 20
111.9899323246
 11
132.3821041716
 21
111.9899323246
  0
LINE
  8
0
 62
7
  6
CONTINUOUS
 10
132.2321041716
 20
112.0899317143
 11
132.3821041716
 21
112.0899317143
  0
LINE
  8
0
 62
7
  6
CONTINUOUS
 10
132.2321041716
 20
112.1699323246
 11
132.3821041716
 21
112.1699323246
  0
LINE
  8
0
 62
7
  6
CONTINUOUS
 10
132.2321041716
 20
112.2299323246
 11
132.3821041716
 21
112.2299323246
  0
LINE
  8
0
 62
7
  6
CONTINUOUS
 10
132.2321041716
 20
112.2499320195
 11
132.3821041716
 21
112.2499320195
  0
LINE
  8
0
 62
7
  6
CONTINUOUS
 10
132.2321041716
 20
112.4099323246
 11
132.3821041716
 21
112.4099323246
  0
LINE
  8
0
 62
7
  6
CONTINUOUS
 10
132.2321041716
 20
112.8899323246
 11
132.3821041716
 21
112.8899323246
  0
LINE
  8
0
 62
7
  6
CONTINUOUS
 10
132.2321041716
 20
112.9899317143
 11
132.3821041716
 21
112.9899317143
  0
LINE
  8
0
 62
7
  6
CONTINUOUS
 10
132.2321041716
 20
113.0699323246
 11
132.3821041716
 21
113.0699323246
  0
LINE
  8
0
 62
7
  6
CONTINUOUS
 10
132.2321041716
 20
113.1299323246
 11
132.3821041716
 21
113.1299323246
  0
LINE
  8
0
 62
7
  6
CONTINUOUS
 10
132.2321041716
 20
113.1499320195
 11
132.3821041716
 21
113.1499320195
  0
LINE
  8
0
 62
7
  6
CONTINUOUS
 10
125.9980365542
 20
118.1191886598
 11
119.7441732693
 21
118.1191886598
  0
LINE
  8
0
 62
7
  6
CONTINUOUS
 10
113.2980365542
 20
118.1191886598
 11
107.0441732693
 21
118.1191886598
  0
LINE
  8
0
 62
7
  6
CONTINUOUS
 10
100.5980365542
 20
118.1191886598
 11
94.3441732693
 21
118.1191886598
  0
LINE
  8
0
 62
7
  6
CONTINUOUS
 10
87.8980365542
 20
118.1191886598
 11
81.6441732693
 21
118.1191886598
  0
LINE
  8
0
 62
7
  6
CONTINUOUS
 10
75.1980365542
 20
118.1191886598
 11
68.9441732693
 21
118.1191886598
  0
LINE
  8
0
 62
7
  6
CONTINUOUS
 10
62.4980365542
 20
118.1191886598
 11
56.6321270942
 21
118.1191886598
  0
LINE
  8
DEFAULT_1
 62
7
  6
CENTER
 10
61.1998806992
 20
121.2499320195
 11
134.2321041716
 21
121.2499320195
  0
LINE
  8
0
 62
7
  6
CONTINUOUS
 10
131.9821041716
 20
122.866255006
 11
126.397730432
 21
122.866255007
  0
LINE
  8
SURFACE
 62
7
  6
CONTINUOUS
 10
119.3444779111
 20
122.866255007
 11
113.697730432
 21
122.866255007
  0
LINE
  8
SURFACE
 62
7
  6
CONTINUOUS
 10
106.6444779111
 20
122.866255007
 11
100.997730432
 21
122.866255007
  0
LINE
  8
SURFACE
 62
7
  6
CONTINUOUS
 10
93.9444779111
 20
122.866255007
 11
88.297730432
 21
122.866255007
  0
LINE
  8
SURFACE
 62
7
  6
CONTINUOUS
 10
81.2444779111
 20
122.866255007
 11
75.597730432
 21
122.866255007
  0
LINE
  8
SURFACE
 62
7
  6
CONTINUOUS
 10
68.5444779111
 20
122.866255007
 11
62.897730432
 21
122.866255007
  0
LINE
  8
SURFACE
 62
7
  6
CONTINUOUS
 10
118.1231434068
 20
126.5999320195
 11
114.9190639337
 21
126.5999320195
  0
LINE
  8
SURFACE
 62
7
  6
CONTINUOUS
 10
105.4231434068
 20
126.5999320195
 11
102.2190639337
 21
126.5999320195
  0
LINE
  8
SURFACE
 62
7
  6
CONTINUOUS
 10
92.7231434068
 20
126.5999320195
 11
89.5190639337
 21
126.5999320195
  0
LINE
  8
SURFACE
 62
7
  6
CONTINUOUS
 10
80.0231434068
 20
126.5999320195
 11
76.8190639337
 21
126.5999320195
  0
LINE
  8
SURFACE
 62
7
  6
CONTINUOUS
 10
67.3231434068
 20
126.5999320195
 11
64.1190639337
 21
126.5999320195
  0
LINE
  8
SURFACE
 62
7
  6
CONTINUOUS
 10
127.6190639337
 20
126.5999320195
 11
131.9820927004
 21
126.5999320195
  0
POLYLINE
  8
0
 62
7
  6
CONTINUOUS
 66
1
 70
0
  0
VERTEX
  8
0
 62
7
  6
CONTINUOUS
 10
131.9821041716
 20
122.866255007
  0
VERTEX
  8
0
 62
7
  6
CONTINUOUS
 10
132.0149891323
 20
122.865918977
  0
VERTEX
  8
0
 62
7
  6
CONTINUOUS
 10
132.0472593233
 20
122.8649181334
  0
VERTEX
  8
0
 62
7
  6
CONTINUOUS
 10
132.0783599035
 20
122.8632712154
  0
VERTEX
  8
0
 62
7
  6
CONTINUOUS
 10
132.1077583376
 20
122.8610073307
  0
VERTEX
  8
0
 62
7
  6
CONTINUOUS
 10
132.1349540981
 20
122.8581655923
  0
VERTEX
  8
0
 62
7
  6
CONTINUOUS
 10
132.1594883349
 20
122.8547944898
  0
VERTEX
  8
0
 62
7
  6
CONTINUOUS
 10
132.1809519961
 20
122.8509510746
  0
VERTEX
  8
0
 62
7
  6
CONTINUOUS
 10
132.1989925929
 20
122.8466999815
  0
VERTEX
  8
0
 62
7
  6
CONTINUOUS
 10
132.2133194557
 20
122.8421123181
  0
VERTEX
  8
0
 62
7
  6
CONTINUOUS
 10
132.2237073843
 20
122.8372644673
  0
VERTEX
  8
0
 62
7
  6
CONTINUOUS
 10
132.2299986755
 20
122.8322369283
  0
VERTEX
  8
0
 62
7
  6
CONTINUOUS
 10
132.2321041716
 20
122.827113049
  0
SEQEND
  0
LINE
  8
SURFACE
 62
7
  6
CONTINUOUS
 10
62.8947603849
 20
122.866310671
 11
62.897730432
 21
122.866255007
  0
LINE
  8
SURFACE
 62
7
  6
CONTINUOUS
 10
75.5947603849
 20
122.866310671
 11
75.597730432
 21
122.866255007
  0
LINE
  8
SURFACE
 62
7
  6
CONTINUOUS
 10
88.2947603849
 20
122.866310671
 11
88.297730432
 21
122.866255007
  0
LINE
  8
SURFACE
 62
7
  6
CONTINUOUS
 10
100.9947603849
 20
122.866310671
 11
100.997730432
 21
122.866255007
  0
LINE
  8
SURFACE
 62
7
  6
CONTINUOUS
 10
113.6947603849
 20
122.866310671
 11
113.697730432
 21
122.866255007
  0
LINE
  8
SURFACE
 62
7
  6
CONTINUOUS
 10
126.3947603849
 20
122.866310671
 11
126.397730432
 21
122.866255007
  0
POLYLINE
  8
SURFACE
 62
7
  6
CONTINUOUS
 66
1
 70
0
  0
VERTEX
  8
SURFACE
 62
7
  6
CONTINUOUS
 10
62.8947603849
 20
122.8663106706
  0
VERTEX
  8
SURFACE
 62
7
  6
CONTINUOUS
 10
62.8535806983
 20
122.8673254871
  0
VERTEX
  8
SURFACE
 62
7
  6
CONTINUOUS
 10
62.8136530753
 20
122.8672533807
  0
VERTEX
  8
SURFACE
 62
7
  6
CONTINUOUS
 10
62.7760620219
 20
122.8660997679
  0
VERTEX
  8
SURFACE
 62
7
  6
CONTINUOUS
 10
62.7418274956
 20
122.863897749
  0
VERTEX
  8
SURFACE
 62
7
  6
CONTINUOUS
 10
62.7118731235
 20
122.8607078058
  0
VERTEX
  8
SURFACE
 62
7
  6
CONTINUOUS
 10
62.6869962198
 20
122.8566163609
  0
VERTEX
  8
SURFACE
 62
7
  6
CONTINUOUS
 10
62.6678442549
 20
122.8517333551
  0
VERTEX
  8
SURFACE
 62
7
  6
CONTINUOUS
 10
62.6548981271
 20
122.8461890055
  0
VERTEX
  8
SURFACE
 62
7
  6
CONTINUOUS
 10
62.6484629314
 20
122.8401299727
  0
VERTEX
  8
SURFACE
 62
7
  6
CONTINUOUS
 10
62.64775116
 20
122.837661278
  0
SEQEND
  0
POLYLINE
  8
SURFACE
 62
7
  6
CONTINUOUS
 66
1
 70
0
  0
VERTEX
  8
SURFACE
 62
7
  6
CONTINUOUS
 10
75.5947603849
 20
122.8663106706
  0
VERTEX
  8
SURFACE
 62
7
  6
CONTINUOUS
 10
75.5535806983
 20
122.8673254871
  0
VERTEX
  8
SURFACE
 62
7
  6
CONTINUOUS
 10
75.5136530753
 20
122.8672533807
  0
VERTEX
  8
SURFACE
 62
7
  6
CONTINUOUS
 10
75.4760620219
 20
122.8660997679
  0
VERTEX
  8
SURFACE
 62
7
  6
CONTINUOUS
 10
75.4418274956
 20
122.863897749
  0
VERTEX
  8
SURFACE
 62
7
  6
CONTINUOUS
 10
75.4118731235
 20
122.8607078058
  0
VERTEX
  8
SURFACE
 62
7
  6
CONTINUOUS
 10
75.3869962198
 20
122.8566163609
  0
VERTEX
  8
SURFACE
 62
7
  6
CONTINUOUS
 10
75.3678442549
 20
122.8517333551
  0
VERTEX
  8
SURFACE
 62
7
  6
CONTINUOUS
 10
75.3548981271
 20
122.8461890055
  0
VERTEX
  8
SURFACE
 62
7
  6
CONTINUOUS
 10
75.3484629314
 20
122.8401299727
  0
VERTEX
  8
SURFACE
 62
7
  6
CONTINUOUS
 10
75.34775116
 20
122.837661278
  0
SEQEND
  0
POLYLINE
  8
SURFACE
 62
7
  6
CONTINUOUS
 66
1
 70
0
  0
VERTEX
  8
SURFACE
 62
7
  6
CONTINUOUS
 10
88.2947603849
 20
122.8663106706
  0
VERTEX
  8
SURFACE
 62
7
  6
CONTINUOUS
 10
88.2535806983
 20
122.8673254871
  0
VERTEX
  8
SURFACE
 62
7
  6
CONTINUOUS
 10
88.2136530753
 20
122.8672533807
  0
VERTEX
  8
SURFACE
 62
7
  6
CONTINUOUS
 10
88.1760620219
 20
122.8660997679
  0
VERTEX
  8
SURFACE
 62
7
  6
CONTINUOUS
 10
88.1418274956
 20
122.863897749
  0
VERTEX
  8
SURFACE
 62
7
  6
CONTINUOUS
 10
88.1118731235
 20
122.8607078058
  0
VERTEX
  8
SURFACE
 62
7
  6
CONTINUOUS
 10
88.0869962198
 20
122.8566163609
  0
VERTEX
  8
SURFACE
 62
7
  6
CONTINUOUS
 10
88.0678442549
 20
122.8517333551
  0
VERTEX
  8
SURFACE
 62
7
  6
CONTINUOUS
 10
88.0548981271
 20
122.8461890055
  0
VERTEX
  8
SURFACE
 62
7
  6
CONTINUOUS
 10
88.0484629314
 20
122.8401299727
  0
VERTEX
  8
SURFACE
 62
7
  6
CONTINUOUS
 10
88.04775116
 20
122.837661278
  0
SEQEND
  0
POLYLINE
  8
SURFACE
 62
7
  6
CONTINUOUS
 66
1
 70
0
  0
VERTEX
  8
SURFACE
 62
7
  6
CONTINUOUS
 10
100.9947603849
 20
122.8663106706
  0
VERTEX
  8
SURFACE
 62
7
  6
CONTINUOUS
 10
100.9535806983
 20
122.8673254871
  0
VERTEX
  8
SURFACE
 62
7
  6
CONTINUOUS
 10
100.9136530753
 20
122.8672533807
  0
VERTEX
  8
SURFACE
 62
7
  6
CONTINUOUS
 10
100.8760620219
 20
122.8660997679
  0
VERTEX
  8
SURFACE
 62
7
  6
CONTINUOUS
 10
100.8418274956
 20
122.863897749
  0
VERTEX
  8
SURFACE
 62
7
  6
CONTINUOUS
 10
100.8118731235
 20
122.8607078058
  0
VERTEX
  8
SURFACE
 62
7
  6
CONTINUOUS
 10
100.7869962198
 20
122.8566163609
  0
VERTEX
  8
SURFACE
 62
7
  6
CONTINUOUS
 10
100.7678442549
 20
122.8517333551
  0
VERTEX
  8
SURFACE
 62
7
  6
CONTINUOUS
 10
100.7548981271
 20
122.8461890055
  0
VERTEX
  8
SURFACE
 62
7
  6
CONTINUOUS
 10
100.7484629314
 20
122.8401299727
  0
VERTEX
  8
SURFACE
 62
7
  6
CONTINUOUS
 10
100.74775116
 20
122.837661278
  0
SEQEND
  0
POLYLINE
  8
SURFACE
 62
7
  6
CONTINUOUS
 66
1
 70
0
  0
VERTEX
  8
SURFACE
 62
7
  6
CONTINUOUS
 10
113.6947603849
 20
122.8663106706
  0
VERTEX
  8
SURFACE
 62
7
  6
CONTINUOUS
 10
113.6535806983
 20
122.8673254871
  0
VERTEX
  8
SURFACE
 62
7
  6
CONTINUOUS
 10
113.6136530753
 20
122.8672533807
  0
VERTEX
  8
SURFACE
 62
7
  6
CONTINUOUS
 10
113.5760620219
 20
122.8660997679
  0
VERTEX
  8
SURFACE
 62
7
  6
CONTINUOUS
 10
113.5418274956
 20
122.863897749
  0
VERTEX
  8
SURFACE
 62
7
  6
CONTINUOUS
 10
113.5118731235
 20
122.8607078058
  0
VERTEX
  8
SURFACE
 62
7
  6
CONTINUOUS
 10
113.4869962198
 20
122.8566163609
  0
VERTEX
  8
SURFACE
 62
7
  6
CONTINUOUS
 10
113.4678442549
 20
122.8517333551
  0
VERTEX
  8
SURFACE
 62
7
  6
CONTINUOUS
 10
113.4548981271
 20
122.8461890055
  0
VERTEX
  8
SURFACE
 62
7
  6
CONTINUOUS
 10
113.4484629314
 20
122.8401299727
  0
VERTEX
  8
SURFACE
 62
7
  6
CONTINUOUS
 10
113.44775116
 20
122.837661278
  0
SEQEND
  0
POLYLINE
  8
SURFACE
 62
7
  6
CONTINUOUS
 66
1
 70
0
  0
VERTEX
  8
SURFACE
 62
7
  6
CONTINUOUS
 10
126.3947603849
 20
122.8663106706
  0
VERTEX
  8
SURFACE
 62
7
  6
CONTINUOUS
 10
126.3535806983
 20
122.8673254871
  0
VERTEX
  8
SURFACE
 62
7
  6
CONTINUOUS
 10
126.3136530753
 20
122.8672533807
  0
VERTEX
  8
SURFACE
 62
7
  6
CONTINUOUS
 10
126.2760620219
 20
122.8660997679
  0
VERTEX
  8
SURFACE
 62
7
  6
CONTINUOUS
 10
126.2418274956
 20
122.863897749
  0
VERTEX
  8
SURFACE
 62
7
  6
CONTINUOUS
 10
126.2118731235
 20
122.8607078058
  0
VERTEX
  8
SURFACE
 62
7
  6
CONTINUOUS
 10
126.1869962198
 20
122.8566163609
  0
VERTEX
  8
SURFACE
 62
7
  6
CONTINUOUS
 10
126.1678442549
 20
122.8517333551
  0
VERTEX
  8
SURFACE
 62
7
  6
CONTINUOUS
 10
126.1548981271
 20
122.8461890055
  0
VERTEX
  8
SURFACE
 62
7
  6
CONTINUOUS
 10
126.1484629314
 20
122.8401299727
  0
VERTEX
  8
SURFACE
 62
7
  6
CONTINUOUS
 10
126.14775116
 20
122.837661278
  0
SEQEND
  0
POLYLINE
  8
SURFACE
 62
7
  6
CONTINUOUS
 66
1
 70
0
  0
VERTEX
  8
SURFACE
 62
7
  6
CONTINUOUS
 10
68.9444234649
 20
118.1191890843
  0
VERTEX
  8
SURFACE
 62
7
  6
CONTINUOUS
 10
68.9315779791
 20
118.1197904238
  0
VERTEX
  8
SURFACE
 62
7
  6
CONTINUOUS
 10
68.9152063883
 20
118.1222771967
  0
VERTEX
  8
SURFACE
 62
7
  6
CONTINUOUS
 10
68.8977823696
 20
118.127090753
  0
VERTEX
  8
SURFACE
 62
7
  6
CONTINUOUS
 10
68.8800424001
 20
118.134484457
  0
VERTEX
  8
SURFACE
 62
7
  6
CONTINUOUS
 10
68.8626166426
 20
118.1445878883
  0
VERTEX
  8
SURFACE
 62
7
  6
CONTINUOUS
 10
68.8460790605
 20
118.157434487
  0
VERTEX
  8
SURFACE
 62
7
  6
CONTINUOUS
 10
68.8310126322
 20
118.1729274595
  0
VERTEX
  8
SURFACE
 62
7
  6
CONTINUOUS
 10
68.8179738655
 20
118.1908380554
  0
VERTEX
  8
SURFACE
 62
7
  6
CONTINUOUS
 10
68.807475165
 20
118.2107779987
  0
VERTEX
  8
SURFACE
 62
7
  6
CONTINUOUS
 10
68.7999210789
 20
118.2322342763
  0
VERTEX
  8
SURFACE
 62
7
  6
CONTINUOUS
 10
68.7955732693
 20
118.2546106581
  0
VERTEX
  8
SURFACE
 62
7
  6
CONTINUOUS
 10
68.7944778226
 20
118.2730610625
  0
SEQEND
  0
POLYLINE
  8
SURFACE
 62
7
  6
CONTINUOUS
 66
1
 70
0
  0
VERTEX
  8
SURFACE
 62
7
  6
CONTINUOUS
 10
81.6444234649
 20
118.1191890843
  0
VERTEX
  8
SURFACE
 62
7
  6
CONTINUOUS
 10
81.6315779791
 20
118.1197904238
  0
VERTEX
  8
SURFACE
 62
7
  6
CONTINUOUS
 10
81.6152063883
 20
118.1222771967
  0
VERTEX
  8
SURFACE
 62
7
  6
CONTINUOUS
 10
81.5977823696
 20
118.127090753
  0
VERTEX
  8
SURFACE
 62
7
  6
CONTINUOUS
 10
81.5800424001
 20
118.134484457
  0
VERTEX
  8
SURFACE
 62
7
  6
CONTINUOUS
 10
81.5626166426
 20
118.1445878883
  0
VERTEX
  8
SURFACE
 62
7
  6
CONTINUOUS
 10
81.5460790605
 20
118.157434487
  0
VERTEX
  8
SURFACE
 62
7
  6
CONTINUOUS
 10
81.5310126322
 20
118.1729274595
  0
VERTEX
  8
SURFACE
 62
7
  6
CONTINUOUS
 10
81.5179738655
 20
118.1908380554
  0
VERTEX
  8
SURFACE
 62
7
  6
CONTINUOUS
 10
81.507475165
 20
118.2107779987
  0
VERTEX
  8
SURFACE
 62
7
  6
CONTINUOUS
 10
81.4999210789
 20
118.2322342763
  0
VERTEX
  8
SURFACE
 62
7
  6
CONTINUOUS
 10
81.4955732693
 20
118.2546106581
  0
VERTEX
  8
SURFACE
 62
7
  6
CONTINUOUS
 10
81.4944778226
 20
118.2730610625
  0
SEQEND
  0
POLYLINE
  8
SURFACE
 62
7
  6
CONTINUOUS
 66
1
 70
0
  0
VERTEX
  8
SURFACE
 62
7
  6
CONTINUOUS
 10
94.3444234649
 20
118.1191890843
  0
VERTEX
  8
SURFACE
 62
7
  6
CONTINUOUS
 10
94.3315779791
 20
118.1197904238
  0
VERTEX
  8
SURFACE
 62
7
  6
CONTINUOUS
 10
94.3152063883
 20
118.1222771967
  0
VERTEX
  8
SURFACE
 62
7
  6
CONTINUOUS
 10
94.2977823696
 20
118.127090753
  0
VERTEX
  8
SURFACE
 62
7
  6
CONTINUOUS
 10
94.2800424001
 20
118.134484457
  0
VERTEX
  8
SURFACE
 62
7
  6
CONTINUOUS
 10
94.2626166426
 20
118.1445878883
  0
VERTEX
  8
SURFACE
 62
7
  6
CONTINUOUS
 10
94.2460790605
 20
118.157434487
  0
VERTEX
  8
SURFACE
 62
7
  6
CONTINUOUS
 10
94.2310126322
 20
118.1729274595
  0
VERTEX
  8
SURFACE
 62
7
  6
CONTINUOUS
 10
94.2179738655
 20
118.1908380554
  0
VERTEX
  8
SURFACE
 62
7
  6
CONTINUOUS
 10
94.207475165
 20
118.2107779987
  0
VERTEX
  8
SURFACE
 62
7
  6
CONTINUOUS
 10
94.1999210789
 20
118.2322342763
  0
VERTEX
  8
SURFACE
 62
7
  6
CONTINUOUS
 10
94.1955732693
 20
118.2546106581
  0
VERTEX
  8
SURFACE
 62
7
  6
CONTINUOUS
 10
94.1944778226
 20
118.2730610625
  0
SEQEND
  0
POLYLINE
  8
SURFACE
 62
7
  6
CONTINUOUS
 66
1
 70
0
  0
VERTEX
  8
SURFACE
 62
7
  6
CONTINUOUS
 10
107.0444234649
 20
118.1191890843
  0
VERTEX
  8
SURFACE
 62
7
  6
CONTINUOUS
 10
107.0315779791
 20
118.1197904238
  0
VERTEX
  8
SURFACE
 62
7
  6
CONTINUOUS
 10
107.0152063883
 20
118.1222771967
  0
VERTEX
  8
SURFACE
 62
7
  6
CONTINUOUS
 10
106.9977823696
 20
118.127090753
  0
VERTEX
  8
SURFACE
 62
7
  6
CONTINUOUS
 10
106.9800424001
 20
118.134484457
  0
VERTEX
  8
SURFACE
 62
7
  6
CONTINUOUS
 10
106.9626166426
 20
118.1445878883
  0
VERTEX
  8
SURFACE
 62
7
  6
CONTINUOUS
 10
106.9460790605
 20
118.157434487
  0
VERTEX
  8
SURFACE
 62
7
  6
CONTINUOUS
 10
106.9310126322
 20
118.1729274595
  0
VERTEX
  8
SURFACE
 62
7
  6
CONTINUOUS
 10
106.9179738655
 20
118.1908380554
  0
VERTEX
  8
SURFACE
 62
7
  6
CONTINUOUS
 10
106.907475165
 20
118.2107779987
  0
VERTEX
  8
SURFACE
 62
7
  6
CONTINUOUS
 10
106.8999210789
 20
118.2322342763
  0
VERTEX
  8
SURFACE
 62
7
  6
CONTINUOUS
 10
106.8955732693
 20
118.2546106581
  0
VERTEX
  8
SURFACE
 62
7
  6
CONTINUOUS
 10
106.8944778226
 20
118.2730610625
  0
SEQEND
  0
POLYLINE
  8
SURFACE
 62
7
  6
CONTINUOUS
 66
1
 70
0
  0
VERTEX
  8
SURFACE
 62
7
  6
CONTINUOUS
 10
119.7444234649
 20
118.1191890843
  0
VERTEX
  8
SURFACE
 62
7
  6
CONTINUOUS
 10
119.7315779791
 20
118.1197904238
  0
VERTEX
  8
SURFACE
 62
7
  6
CONTINUOUS
 10
119.7152063883
 20
118.1222771967
  0
VERTEX
  8
SURFACE
 62
7
  6
CONTINUOUS
 10
119.6977823696
 20
118.127090753
  0
VERTEX
  8
SURFACE
 62
7
  6
CONTINUOUS
 10
119.6800424001
 20
118.134484457
  0
VERTEX
  8
SURFACE
 62
7
  6
CONTINUOUS
 10
119.6626166426
 20
118.1445878883
  0
VERTEX
  8
SURFACE
 62
7
  6
CONTINUOUS
 10
119.6460790605
 20
118.157434487
  0
VERTEX
  8
SURFACE
 62
7
  6
CONTINUOUS
 10
119.6310126322
 20
118.1729274595
  0
VERTEX
  8
SURFACE
 62
7
  6
CONTINUOUS
 10
119.6179738655
 20
118.1908380554
  0
VERTEX
  8
SURFACE
 62
7
  6
CONTINUOUS
 10
119.607475165
 20
118.2107779987
  0
VERTEX
  8
SURFACE
 62
7
  6
CONTINUOUS
 10
119.5999210789
 20
118.2322342763
  0
VERTEX
  8
SURFACE
 62
7
  6
CONTINUOUS
 10
119.5955732693
 20
118.2546106581
  0
VERTEX
  8
SURFACE
 62
7
  6
CONTINUOUS
 10
119.5944778226
 20
118.2730610625
  0
SEQEND
  0
POLYLINE
  8
SURFACE
 62
7
  6
CONTINUOUS
 66
1
 70
0
  0
VERTEX
  8
SURFACE
 62
7
  6
CONTINUOUS
 10
67.4162788524
 20
126.5902112095
  0
VERTEX
  8
SURFACE
 62
7
  6
CONTINUOUS
 10
67.3821232185
 20
126.595815362
  0
VERTEX
  8
SURFACE
 62
7
  6
CONTINUOUS
 10
67.3477516085
 20
126.5991739013
  0
VERTEX
  8
SURFACE
 62
7
  6
CONTINUOUS
 10
67.3229969751
 20
126.5999320158
  0
SEQEND
  0
POLYLINE
  8
SURFACE
 62
7
  6
CONTINUOUS
 66
1
 70
0
  0
VERTEX
  8
SURFACE
 62
7
  6
CONTINUOUS
 10
80.1162788524
 20
126.5902112095
  0
VERTEX
  8
SURFACE
 62
7
  6
CONTINUOUS
 10
80.0821232185
 20
126.595815362
  0
VERTEX
  8
SURFACE
 62
7
  6
CONTINUOUS
 10
80.0477516085
 20
126.5991739013
  0
VERTEX
  8
SURFACE
 62
7
  6
CONTINUOUS
 10
80.0229969751
 20
126.5999320158
  0
SEQEND
  0
POLYLINE
  8
SURFACE
 62
7
  6
CONTINUOUS
 66
1
 70
0
  0
VERTEX
  8
SURFACE
 62
7
  6
CONTINUOUS
 10
92.8162788524
 20
126.5902112095
  0
VERTEX
  8
SURFACE
 62
7
  6
CONTINUOUS
 10
92.7821232185
 20
126.595815362
  0
VERTEX
  8
SURFACE
 62
7
  6
CONTINUOUS
 10
92.7477516085
 20
126.5991739013
  0
VERTEX
  8
SURFACE
 62
7
  6
CONTINUOUS
 10
92.7229969751
 20
126.5999320158
  0
SEQEND
  0
POLYLINE
  8
SURFACE
 62
7
  6
CONTINUOUS
 66
1
 70
0
  0
VERTEX
  8
SURFACE
 62
7
  6
CONTINUOUS
 10
105.5162788524
 20
126.5902112095
  0
VERTEX
  8
SURFACE
 62
7
  6
CONTINUOUS
 10
105.4821232185
 20
126.595815362
  0
VERTEX
  8
SURFACE
 62
7
  6
CONTINUOUS
 10
105.4477516085
 20
126.5991739013
  0
VERTEX
  8
SURFACE
 62
7
  6
CONTINUOUS
 10
105.4229969751
 20
126.5999320158
  0
SEQEND
  0
POLYLINE
  8
SURFACE
 62
7
  6
CONTINUOUS
 66
1
 70
0
  0
VERTEX
  8
SURFACE
 62
7
  6
CONTINUOUS
 10
118.2162788524
 20
126.5902112095
  0
VERTEX
  8
SURFACE
 62
7
  6
CONTINUOUS
 10
118.1821232185
 20
126.595815362
  0
VERTEX
  8
SURFACE
 62
7
  6
CONTINUOUS
 10
118.1477516085
 20
126.5991739013
  0
VERTEX
  8
SURFACE
 62
7
  6
CONTINUOUS
 10
118.1229969751
 20
126.5999320158
  0
SEQEND
  0
LINE
  8
SURFACE
 62
7
  6
CONTINUOUS
 10
67.4405933431
 20
126.5850793337
 11
67.4162788524
 21
126.5902112095
  0
LINE
  8
SURFACE
 62
7
  6
CONTINUOUS
 10
80.1405933431
 20
126.5850793337
 11
80.1162788524
 21
126.5902112095
  0
LINE
  8
SURFACE
 62
7
  6
CONTINUOUS
 10
92.8405933431
 20
126.5850793337
 11
92.8162788524
 21
126.5902112095
  0
LINE
  8
SURFACE
 62
7
  6
CONTINUOUS
 10
105.5405933431
 20
126.5850793337
 11
105.5162788524
 21
126.5902112095
  0
LINE
  8
SURFACE
 62
7
  6
CONTINUOUS
 10
118.2405933431
 20
126.5850793337
 11
118.2162788524
 21
126.5902112095
  0
POLYLINE
  8
SURFACE
 62
7
  6
CONTINUOUS
 66
1
 70
0
  0
VERTEX
  8
SURFACE
 62
7
  6
CONTINUOUS
 10
119.819751163
 20
94.2622040332
  0
VERTEX
  8
SURFACE
 62
7
  6
CONTINUOUS
 10
119.8415511009
 20
94.0180999421
  0
VERTEX
  8
SURFACE
 62
7
  6
CONTINUOUS
 10
119.8725263794
 20
93.7246558457
  0
VERTEX
  8
SURFACE
 62
7
  6
CONTINUOUS
 10
119.9081685832
 20
93.438115585
  0
VERTEX
  8
SURFACE
 62
7
  6
CONTINUOUS
 10
119.9484378055
 20
93.1593379756
  0
VERTEX
  8
SURFACE
 62
7
  6
CONTINUOUS
 10
119.9932970554
 20
92.8891877546
  0
VERTEX
  8
SURFACE
 62
7
  6
CONTINUOUS
 10
120.0427140865
 20
92.6285363763
  0
VERTEX
  8
SURFACE
 62
7
  6
CONTINUOUS
 10
120.0966654814
 20
92.3782567783
  0
VERTEX
  8
SURFACE
 62
7
  6
CONTINUOUS
 10
120.1551368393
 20
92.1392421324
  0
VERTEX
  8
SURFACE
 62
7
  6
CONTINUOUS
 10
120.2181260012
 20
91.9124088186
  0
VERTEX
  8
SURFACE
 62
7
  6
CONTINUOUS
 10
120.2856668113
 20
91.6986418544
  0
VERTEX
  8
SURFACE
 62
7
  6
CONTINUOUS
 10
120.3579554878
 20
91.4985224501
  0
VERTEX
  8
SURFACE
 62
7
  6
CONTINUOUS
 10
120.4355810505
 20
91.3120720039
  0
VERTEX
  8
SURFACE
 62
7
  6
CONTINUOUS
 10
120.5194156782
 20
91.139540774
  0
VERTEX
  8
SURFACE
 62
7
  6
CONTINUOUS
 10
120.6091795673
 20
90.9839739878
  0
VERTEX
  8
SURFACE
 62
7
  6
CONTINUOUS
 10
120.7024926946
 20
90.8505108415
  0
VERTEX
  8
SURFACE
 62
7
  6
CONTINUOUS
 10
120.7966305168
 20
90.741749054
  0
VERTEX
  8
SURFACE
 62
7
  6
CONTINUOUS
 10
120.8911456827
 20
90.6557909144
  0
VERTEX
  8
SURFACE
 62
7
  6
CONTINUOUS
 10
120.9872818604
 20
90.589641199
  0
VERTEX
  8
SURFACE
 62
7
  6
CONTINUOUS
 10
121.0858537883
 20
90.5418051111
  0
VERTEX
  8
SURFACE
 62
7
  6
CONTINUOUS
 10
121.1736437846
 20
90.5147767982
  0
SEQEND
  0
POLYLINE
  8
SURFACE
 62
7
  6
CONTINUOUS
 66
1
 70
0
  0
VERTEX
  8
SURFACE
 62
7
  6
CONTINUOUS
 10
119.5944571802
 20
122.8376600057
  0
VERTEX
  8
SURFACE
 62
7
  6
CONTINUOUS
 10
119.5726572423
 20
123.0817640969
  0
VERTEX
  8
SURFACE
 62
7
  6
CONTINUOUS
 10
119.5416819638
 20
123.3752081933
  0
VERTEX
  8
SURFACE
 62
7
  6
CONTINUOUS
 10
119.5060397599
 20
123.6617484539
  0
VERTEX
  8
SURFACE
 62
7
  6
CONTINUOUS
 10
119.4657705377
 20
123.9405260633
  0
VERTEX
  8
SURFACE
 62
7
  6
CONTINUOUS
 10
119.4209112877
 20
124.2106762843
  0
VERTEX
  8
SURFACE
 62
7
  6
CONTINUOUS
 10
119.3714942566
 20
124.4713276626
  0
VERTEX
  8
SURFACE
 62
7
  6
CONTINUOUS
 10
119.3175428618
 20
124.7216072606
  0
VERTEX
  8
SURFACE
 62
7
  6
CONTINUOUS
 10
119.2590715039
 20
124.9606219065
  0
VERTEX
  8
SURFACE
 62
7
  6
CONTINUOUS
 10
119.1960823419
 20
125.1874552203
  0
VERTEX
  8
SURFACE
 62
7
  6
CONTINUOUS
 10
119.1285415319
 20
125.4012221845
  0
VERTEX
  8
SURFACE
 62
7
  6
CONTINUOUS
 10
119.0562528554
 20
125.6013415888
  0
VERTEX
  8
SURFACE
 62
7
  6
CONTINUOUS
 10
118.9786272926
 20
125.7877920351
  0
VERTEX
  8
SURFACE
 62
7
  6
CONTINUOUS
 10
118.894792665
 20
125.9603232649
  0
VERTEX
  8
SURFACE
 62
7
  6
CONTINUOUS
 10
118.8050287758
 20
126.1158900511
  0
VERTEX
  8
SURFACE
 62
7
  6
CONTINUOUS
 10
118.7117156485
 20
126.2493531974
  0
VERTEX
  8
SURFACE
 62
7
  6
CONTINUOUS
 10
118.6175778264
 20
126.3581149849
  0
VERTEX
  8
SURFACE
 62
7
  6
CONTINUOUS
 10
118.5230626605
 20
126.4440731245
  0
VERTEX
  8
SURFACE
 62
7
  6
CONTINUOUS
 10
118.4269264828
 20
126.5102228399
  0
VERTEX
  8
SURFACE
 62
7
  6
CONTINUOUS
 10
118.3283545549
 20
126.5580589278
  0
VERTEX
  8
SURFACE
 62
7
  6
CONTINUOUS
 10
118.2405645585
 20
126.5850872407
  0
SEQEND
  0
POLYLINE
  8
0
 62
7
  6
CONTINUOUS
 66
1
 70
0
  0
VERTEX
  8
0
 62
7
  6
CONTINUOUS
 10
132.2321045344
 20
126.3499368378
  0
VERTEX
  8
0
 62
7
  6
CONTINUOUS
 10
132.2301028118
 20
126.3815094595
  0
VERTEX
  8
0
 62
7
  6
CONTINUOUS
 10
132.2239064709
 20
126.4134327459
  0
VERTEX
  8
0
 62
7
  6
CONTINUOUS
 10
132.2136167194
 20
126.4442867433
  0
VERTEX
  8
0
 62
7
  6
CONTINUOUS
 10
132.1994070971
 20
126.4735460752
  0
VERTEX
  8
0
 62
7
  6
CONTINUOUS
 10
132.1815179244
 20
126.5007140339
  0
VERTEX
  8
0
 62
7
  6
CONTINUOUS
 10
132.1602522157
 20
126.5253296864
  0
VERTEX
  8
0
 62
7
  6
CONTINUOUS
 10
132.1359704856
 20
126.5469756044
  0
VERTEX
  8
0
 62
7
  6
CONTINUOUS
 10
132.109084072
 20
126.5652852574
  0
VERTEX
  8
0
 62
7
  6
CONTINUOUS
 10
132.0800481518
 20
126.5799488296
  0
VERTEX
  8
0
 62
7
  6
CONTINUOUS
 10
132.0493542391
 20
126.5907181934
  0
VERTEX
  8
0
 62
7
  6
CONTINUOUS
 10
132.0175218907
 20
126.597411096
  0
VERTEX
  8
0
 62
7
  6
CONTINUOUS
 10
131.982108771
 20
126.599932019
  0
SEQEND
  0
LINE
  8
SURFACE
 62
7
  6
CONTINUOUS
 10
119.8197511604
 20
94.262202756
 11
119.8197304323
 21
94.2627108825
  0
LINE
  8
SURFACE
 62
7
  6
CONTINUOUS
 10
119.5944571828
 20
122.8376612829
 11
119.5944779109
 21
122.8371531564
  0
LINE
  8
SURFACE
 62
7
  6
CONTINUOUS
 10
119.5944779111
 20
122.8371186846
 11
119.5944779111
 21
118.2728483648
  0
LINE
  8
SURFACE
 62
7
  6
CONTINUOUS
 10
119.819730432
 20
94.2627453543
 11
119.819730432
 21
98.8270156742
  0
LINE
  8
DEFAULT_1
 62
7
  6
CENTER
 10
122.8931041716
 20
100.2499320195
 11
122.8931041716
 21
97.8500320195
  0
LINE
  8
0
 62
2
  6
CONTINUOUS
 10
122.8931041716
 20
96.7299320195
 11
122.8931041716
 21
94.9699320195
  0
LINE
  8
DEFAULT_1
 62
7
  6
CENTER
 10
122.8931041716
 20
91.4499320195
 11
122.8931041716
 21
93.8498320195
  0
LINE
  8
SURFACE
 62
7
  6
CONTINUOUS
 10
125.9664779111
 20
94.2627453541
 11
125.9664779111
 21
98.827019925
  0
LINE
  8
SURFACE
 62
7
  6
CONTINUOUS
 10
126.147730432
 20
122.8371186848
 11
126.147730432
 21
118.272844114
  0
LINE
  8
DEFAULT_1
 62
7
  6
CENTER
 10
129.2211041716
 20
125.6499320195
 11
129.2211041716
 21
123.2500320195
  0
LINE
  8
0
 62
2
  6
CONTINUOUS
 10
129.2211041716
 20
122.1299320195
 11
129.2211041716
 21
120.3699320195
  0
LINE
  8
DEFAULT_1
 62
7
  6
CENTER
 10
129.2211041716
 20
116.8499320195
 11
129.2211041716
 21
119.2498320195
  0
LINE
  8
0
 62
7
  6
CONTINUOUS
 10
132.2321041716
 20
126.3499344744
 11
132.2321041716
 21
99.2306983156
  0
LINE
  8
0
 62
7
  6
CONTINUOUS
 10
132.3821041716
 20
113.1499320195
 11
132.3821041716
 21
112.4099323246
  0
LINE
  8
0
 62
7
  6
CONTINUOUS
 10
132.3821041716
 20
112.2499320195
 11
132.3821041716
 21
111.5099323246
  0
LINE
  8
0
 62
7
  6
CONTINUOUS
 10
132.3821041716
 20
110.3899320195
 11
132.3821041716
 21
109.6499318669
  0
LINE
  8
0
 62
7
  6
CONTINUOUS
 10
132.3821041716
 20
109.4899320195
 11
132.3821041716
 21
108.7499318669
  0
LINE
  8
0
 62
7
  6
CONTINUOUS
 10
132.3821041716
 20
108.5899320195
 11
132.3821041716
 21
107.6299320195
  0
LINE
  8
0
 62
7
  6
CONTINUOUS
 10
132.3821041716
 20
107.4699321721
 11
132.3821041716
 21
107.1899320958
  0
LINE
  8
0
 62
7
  6
CONTINUOUS
 10
132.3821041716
 20
107.0299320195
 11
132.3821041716
 21
106.2899320958
  0
LINE
  8
0
 62
7
  6
CONTINUOUS
 10
132.3821041716
 20
105.1699320195
 11
132.3821041716
 21
105.0699320576
  0
LINE
  8
0
 62
7
  6
CONTINUOUS
 10
132.3821041716
 20
104.9099319813
 11
132.3821041716
 21
104.3499320004
  0
LINE
  8
0
 62
7
  6
CONTINUOUS
 10
132.3821041716
 20
104.1899320385
 11
132.3821041716
 21
103.5499320195
  0
LINE
  8
SURFACE
 62
7
  6
CONTINUOUS
 10
126.14775116
 20
122.837661278
 11
126.1477304323
 21
122.8371531566
  0
LINE
  8
SURFACE
 62
7
  6
CONTINUOUS
 10
125.9664571832
 20
94.2622027609
 11
125.9664779109
 21
94.2627108823
  0
POLYLINE
  8
SURFACE
 62
7
  6
CONTINUOUS
 66
1
 70
0
  0
VERTEX
  8
SURFACE
 62
7
  6
CONTINUOUS
 10
126.1477305207
 20
118.2730569755
  0
VERTEX
  8
SURFACE
 62
7
  6
CONTINUOUS
 10
126.1466354234
 20
118.2546098198
  0
VERTEX
  8
SURFACE
 62
7
  6
CONTINUOUS
 10
126.1422884418
 20
118.2322352267
  0
VERTEX
  8
SURFACE
 62
7
  6
CONTINUOUS
 10
126.1347355683
 20
118.2107804677
  0
VERTEX
  8
SURFACE
 62
7
  6
CONTINUOUS
 10
126.1242382496
 20
118.1908414825
  0
VERTEX
  8
SURFACE
 62
7
  6
CONTINUOUS
 10
126.111200681
 20
118.1729310997
  0
VERTEX
  8
SURFACE
 62
7
  6
CONTINUOUS
 10
126.0961348955
 20
118.1574376243
  0
VERTEX
  8
SURFACE
 62
7
  6
CONTINUOUS
 10
126.0795973164
 20
118.1445901552
  0
VERTEX
  8
SURFACE
 62
7
  6
CONTINUOUS
 10
126.0621710458
 20
118.1344858314
  0
VERTEX
  8
SURFACE
 62
7
  6
CONTINUOUS
 10
126.0444302815
 20
118.1270914369
  0
VERTEX
  8
SURFACE
 62
7
  6
CONTINUOUS
 10
126.0270053535
 20
118.1222774514
  0
VERTEX
  8
SURFACE
 62
7
  6
CONTINUOUS
 10
126.0106326278
 20
118.119790456
  0
VERTEX
  8
SURFACE
 62
7
  6
CONTINUOUS
 10
125.9977864448
 20
118.1191890854
  0
SEQEND
  0
POLYLINE
  8
SURFACE
 62
7
  6
CONTINUOUS
 66
1
 70
0
  0
VERTEX
  8
SURFACE
 62
7
  6
CONTINUOUS
 10
125.9664778225
 20
98.8268070634
  0
VERTEX
  8
SURFACE
 62
7
  6
CONTINUOUS
 10
125.9675729197
 20
98.8452542192
  0
VERTEX
  8
SURFACE
 62
7
  6
CONTINUOUS
 10
125.9719199014
 20
98.8676288122
  0
VERTEX
  8
SURFACE
 62
7
  6
CONTINUOUS
 10
125.9794727749
 20
98.8890835712
  0
VERTEX
  8
SURFACE
 62
7
  6
CONTINUOUS
 10
125.9899700936
 20
98.9090225565
  0
VERTEX
  8
SURFACE
 62
7
  6
CONTINUOUS
 10
126.0030076622
 20
98.9269329393
  0
VERTEX
  8
SURFACE
 62
7
  6
CONTINUOUS
 10
126.0180734477
 20
98.9424264146
  0
VERTEX
  8
SURFACE
 62
7
  6
CONTINUOUS
 10
126.0346110268
 20
98.9552738837
  0
VERTEX
  8
SURFACE
 62
7
  6
CONTINUOUS
 10
126.0520372974
 20
98.9653782075
  0
VERTEX
  8
SURFACE
 62
7
  6
CONTINUOUS
 10
126.0697780617
 20
98.9727726021
  0
VERTEX
  8
SURFACE
 62
7
  6
CONTINUOUS
 10
126.0872029896
 20
98.9775865876
  0
VERTEX
  8
SURFACE
 62
7
  6
CONTINUOUS
 10
126.1035757154
 20
98.9800735829
  0
VERTEX
  8
SURFACE
 62
7
  6
CONTINUOUS
 10
126.1164218983
 20
98.9806749536
  0
SEQEND
  0
POLYLINE
  8
SURFACE
 62
7
  6
CONTINUOUS
 66
1
 70
0
  0
VERTEX
  8
SURFACE
 62
7
  6
CONTINUOUS
 10
124.6125566809
 20
90.514774828
  0
VERTEX
  8
SURFACE
 62
7
  6
CONTINUOUS
 10
124.7013018391
 20
90.5421745728
  0
VERTEX
  8
SURFACE
 62
7
  6
CONTINUOUS
 10
124.7997876376
 20
90.5901453079
  0
VERTEX
  8
SURFACE
 62
7
  6
CONTINUOUS
 10
124.8958459279
 20
90.6564147525
  0
VERTEX
  8
SURFACE
 62
7
  6
CONTINUOUS
 10
124.9902935494
 20
90.742485383
  0
VERTEX
  8
SURFACE
 62
7
  6
CONTINUOUS
 10
125.0843697851
 20
90.8513539659
  0
VERTEX
  8
SURFACE
 62
7
  6
CONTINUOUS
 10
125.1776092614
 20
90.9848908082
  0
VERTEX
  8
SURFACE
 62
7
  6
CONTINUOUS
 10
125.2673047937
 20
91.1405113591
  0
VERTEX
  8
SURFACE
 62
7
  6
CONTINUOUS
 10
125.3510961474
 20
91.3131175327
  0
VERTEX
  8
SURFACE
 62
7
  6
CONTINUOUS
 10
125.4287040367
 20
91.4996883298
  0
VERTEX
  8
SURFACE
 62
7
  6
CONTINUOUS
 10
125.500983529
 20
91.6999520985
  0
VERTEX
  8
SURFACE
 62
7
  6
CONTINUOUS
 10
125.5685108755
 20
91.9138570975
  0
VERTEX
  8
SURFACE
 62
7
  6
CONTINUOUS
 10
125.6314813031
 20
92.1408156095
  0
VERTEX
  8
SURFACE
 62
7
  6
CONTINUOUS
 10
125.6899311163
 20
92.3799483018
  0
VERTEX
  8
SURFACE
 62
7
  6
CONTINUOUS
 10
125.7438600565
 20
92.6303462064
  0
VERTEX
  8
SURFACE
 62
7
  6
CONTINUOUS
 10
125.7932538844
 20
92.8911184584
  0
VERTEX
  8
SURFACE
 62
7
  6
CONTINUOUS
 10
125.8380884946
 20
93.1613901007
  0
VERTEX
  8
SURFACE
 62
7
  6
CONTINUOUS
 10
125.8783310933
 20
93.4402871444
  0
VERTEX
  8
SURFACE
 62
7
  6
CONTINUOUS
 10
125.9139443016
 20
93.7269419395
  0
VERTEX
  8
SURFACE
 62
7
  6
CONTINUOUS
 10
125.9448879896
 20
94.0204924646
  0
VERTEX
  8
SURFACE
 62
7
  6
CONTINUOUS
 10
125.9664571806
 20
94.2622040382
  0
SEQEND
  0
LINE
  8
SURFACE
 62
7
  6
CONTINUOUS
 10
64.0016133502
 20
126.585078957
 11
64.0016519895
 21
126.5850877752
  0
LINE
  8
SURFACE
 62
7
  6
CONTINUOUS
 10
64.0251726888
 20
126.5900647404
 11
64.0016133502
 21
126.585078957
  0
POLYLINE
  8
0
 62
7
  6
CONTINUOUS
 66
1
 70
0
  0
VERTEX
  8
0
 62
7
  6
CONTINUOUS
 10
157.6230241447
 20
94.2336090319
  0
VERTEX
  8
0
 62
7
  6
CONTINUOUS
 10
157.6275435023
 20
94.2334348864
  0
VERTEX
  8
0
 62
7
  6
CONTINUOUS
 10
157.6410201254
 20
94.2328354157
  0
VERTEX
  8
0
 62
7
  6
CONTINUOUS
 10
157.6632673669
 20
94.2316928564
  0
VERTEX
  8
0
 62
7
  6
CONTINUOUS
 10
157.6940151436
 20
94.2298864186
  0
VERTEX
  8
0
 62
7
  6
CONTINUOUS
 10
157.7329137042
 20
94.2272921774
  0
VERTEX
  8
0
 62
7
  6
CONTINUOUS
 10
157.779538031
 20
94.2237830241
  0
VERTEX
  8
0
 62
7
  6
CONTINUOUS
 10
157.8333928559
 20
94.2192286984
  0
VERTEX
  8
0
 62
7
  6
CONTINUOUS
 10
157.8939181179
 20
94.213495905
  0
VERTEX
  8
0
 62
7
  6
CONTINUOUS
 10
157.9604949384
 20
94.2064486136
  0
VERTEX
  8
0
 62
7
  6
CONTINUOUS
 10
158.0324521174
 20
94.1979486247
  0
VERTEX
  8
0
 62
7
  6
CONTINUOUS
 10
158.1090731823
 20
94.1878563616
  0
VERTEX
  8
0
 62
7
  6
CONTINUOUS
 10
158.1896040816
 20
94.1760320274
  0
VERTEX
  8
0
 62
7
  6
CONTINUOUS
 10
158.2732616309
 20
94.162337122
  0
VERTEX
  8
0
 62
7
  6
CONTINUOUS
 10
158.359242934
 20
94.1466362098
  0
VERTEX
  8
0
 62
7
  6
CONTINUOUS
 10
158.4467355216
 20
94.1287989518
  0
VERTEX
  8
0
 62
7
  6
CONTINUOUS
 10
158.5349284616
 20
94.1087021227
  0
VERTEX
  8
0
 62
7
  6
CONTINUOUS
 10
158.6230241447
 20
94.0862315055
  0
SEQEND
  0
LINE
  8
DEFAULT_1
 62
7
  6
CENTER
 10
155.6199593254
 20
95.8499320195
 11
170.0686089463
 21
95.8499320195
  0
LINE
  8
0
 62
7
  6
CONTINUOUS
 10
167.8230241447
 20
94.2336090319
 11
167.5730241447
 21
94.2727509899
  0
LINE
  8
SURFACE
 62
7
  6
CONTINUOUS
 10
157.6230241447
 20
122.8660697241
 11
157.6230241447
 21
119.8999320195
  0
LINE
  8
0
 62
7
  6
CONTINUOUS
 10
157.6230241447
 20
97.1999320195
 11
157.6230241447
 21
94.2336090319
  0
LINE
  8
0
 62
7
  6
CONTINUOUS
 10
157.8230241447
 20
108.8233894915
 11
157.8230241447
 21
108.2764745475
  0
POLYLINE
  8
0
 62
7
  6
CONTINUOUS
 66
1
 70
0
  0
VERTEX
  8
0
 62
7
  6
CONTINUOUS
 10
158.8230241447
 20
108.8233894915
  0
VERTEX
  8
0
 62
7
  6
CONTINUOUS
 10
158.7982174525
 20
108.9122818854
  0
VERTEX
  8
0
 62
7
  6
CONTINUOUS
 10
158.7731431307
 20
109.0002593298
  0
VERTEX
  8
0
 62
7
  6
CONTINUOUS
 10
158.7480091059
 20
109.0865752594
  0
VERTEX
  8
0
 62
7
  6
CONTINUOUS
 10
158.7230398738
 20
109.1705005802
  0
VERTEX
  8
0
 62
7
  6
CONTINUOUS
 10
158.6984741593
 20
109.2513300222
  0
VERTEX
  8
0
 62
7
  6
CONTINUOUS
 10
158.6745617492
 20
109.3283882239
  0
VERTEX
  8
0
 62
7
  6
CONTINUOUS
 10
158.6515493543
 20
109.4010320128
  0
VERTEX
  8
0
 62
7
  6
CONTINUOUS
 10
158.6296620582
 20
109.4686507254
  0
VERTEX
  8
0
 62
7
  6
CONTINUOUS
 10
158.6091086375
 20
109.5306736069
  0
VERTEX
  8
0
 62
7
  6
CONTINUOUS
 10
158.5900896232
 20
109.58657658
  0
VERTEX
  8
0
 62
7
  6
CONTINUOUS
 10
158.5727984177
 20
109.6358883481
  0
VERTEX
  8
0
 62
7
  6
CONTINUOUS
 10
158.5574130721
 20
109.6781939479
  0
VERTEX
  8
0
 62
7
  6
CONTINUOUS
 10
158.5440941868
 20
109.7131376883
  0
VERTEX
  8
0
 62
7
  6
CONTINUOUS
 10
158.5329831719
 20
109.7404268884
  0
VERTEX
  8
0
 62
7
  6
CONTINUOUS
 10
158.5242013578
 20
109.7598351218
  0
VERTEX
  8
0
 62
7
  6
CONTINUOUS
 10
158.5178494458
 20
109.7712042788
  0
VERTEX
  8
0
 62
7
  6
CONTINUOUS
 10
158.5140071503
 20
109.7744460078
  0
SEQEND
  0
LINE
  8
0
 62
7
  6
CONTINUOUS
 10
163.132041139
 20
111.2749362086
 11
158.5140071503
 21
109.7744460078
  0
LINE
  8
0
 62
7
  6
CONTINUOUS
 10
158.5140071503
 20
107.3254180312
 11
163.132041139
 21
105.8249278304
  0
LINE
  8
0
 62
2
  6
CONTINUOUS
 10
162.7230241447
 20
122.1299320195
 11
162.7230241447
 21
120.3699320195
  0
LINE
  8
0
 62
2
  6
CONTINUOUS
 10
162.7230241447
 20
96.7299320195
 11
162.7230241447
 21
94.9699320195
  0
LINE
  8
DEFAULT_1
 62
7
  6
CENTER
 10
162.7230241447
 20
91.1999320195
 11
162.7230241447
 21
93.8498320195
  0
LINE
  8
DEFAULT_1
 62
7
  6
CENTER
 10
162.7230241447
 20
97.8500320195
 11
162.7230241447
 21
100.4999320195
  0
LINE
  8
DEFAULT_1
 62
7
  6
CENTER
 10
162.7230241447
 20
116.5999320195
 11
162.7230241447
 21
119.2498320195
  0
LINE
  8
DEFAULT_1
 62
7
  6
CENTER
 10
162.7230241447
 20
123.2500320195
 11
162.7230241447
 21
125.8999320195
  0
LINE
  8
0
 62
7
  6
CONTINUOUS
 10
164.7994593272
 20
115.5655986885
 11
163.9167163576
 21
113.6725502812
  0
LINE
  8
SURFACE
 62
7
  6
CENTER
 10
155.6199593254
 20
108.5499320195
 11
170.0686089463
 21
108.5499320195
  0
POLYLINE
  8
0
 62
7
  6
CONTINUOUS
 66
1
 70
0
  0
VERTEX
  8
0
 62
7
  6
CONTINUOUS
 10
158.8230241447
 20
108.2764745475
  0
VERTEX
  8
0
 62
7
  6
CONTINUOUS
 10
158.7308167648
 20
108.2803512417
  0
VERTEX
  8
0
 62
7
  6
CONTINUOUS
 10
158.6393968514
 20
108.28369067
  0
VERTEX
  8
0
 62
7
  6
CONTINUOUS
 10
158.5495386832
 20
108.286459881
  0
VERTEX
  8
0
 62
7
  6
CONTINUOUS
 10
158.462005043
 20
108.2886470805
  0
VERTEX
  8
0
 62
7
  6
CONTINUOUS
 10
158.3775404522
 20
108.2902613689
  0
VERTEX
  8
0
 62
7
  6
CONTINUOUS
 10
158.2968644062
 20
108.2913316093
  0
VERTEX
  8
0
 62
7
  6
CONTINUOUS
 10
158.2206648364
 20
108.2918936865
  0
VERTEX
  8
0
 62
7
  6
CONTINUOUS
 10
158.1495920726
 20
108.2919729622
  0
VERTEX
  8
0
 62
7
  6
CONTINUOUS
 10
158.0842534507
 20
108.291591622
  0
VERTEX
  8
0
 62
7
  6
CONTINUOUS
 10
158.0252093653
 20
108.2907784332
  0
VERTEX
  8
0
 62
7
  6
CONTINUOUS
 10
157.9729678105
 20
108.2895716938
  0
VERTEX
  8
0
 62
7
  6
CONTINUOUS
 10
157.9279784609
 20
108.28801251
  0
VERTEX
  8
0
 62
7
  6
CONTINUOUS
 10
157.890629227
 20
108.286143707
  0
VERTEX
  8
0
 62
7
  6
CONTINUOUS
 10
157.861242163
 20
108.2840093304
  0
VERTEX
  8
0
 62
7
  6
CONTINUOUS
 10
157.8400701063
 20
108.2816548029
  0
VERTEX
  8
0
 62
7
  6
CONTINUOUS
 10
157.8272945467
 20
108.2791270383
  0
VERTEX
  8
0
 62
7
  6
CONTINUOUS
 10
157.8230241447
 20
108.2764745475
  0
SEQEND
  0
LINE
  8
0
 62
7
  6
CONTINUOUS
 10
163.8230241447
 20
113.2499320195
 11
163.8230241447
 21
112.2259927249
  0
LINE
  8
0
 62
7
  6
CONTINUOUS
 10
163.8230241447
 20
104.8738713141
 11
163.8230241447
 21
104.1196851703
  0
LINE
  8
SURFACE
 62
7
  6
CONTINUOUS
 10
167.8230241447
 20
122.866255007
 11
167.8230241447
 21
117.8191886598
  0
LINE
  8
0
 62
7
  6
CONTINUOUS
 10
167.8230241447
 20
94.2336090329
 11
167.8230241447
 21
117.8191888744
  0
LINE
  8
0
 62
7
  6
CONTINUOUS
 10
163.4514664273
 20
103.3418289514
 11
158.7376972966
 21
99.5335006763
  0
POLYLINE
  8
0
 62
7
  6
CONTINUOUS
 66
1
 70
0
  0
VERTEX
  8
0
 62
7
  6
CONTINUOUS
 10
164.2815631893
 20
113.5143971934
  0
VERTEX
  8
0
 62
7
  6
CONTINUOUS
 10
164.2171781944
 20
113.5444815701
  0
VERTEX
  8
0
 62
7
  6
CONTINUOUS
 10
164.1578591964
 20
113.5718456788
  0
VERTEX
  8
0
 62
7
  6
CONTINUOUS
 10
164.1041212328
 20
113.5962717831
  0
VERTEX
  8
0
 62
7
  6
CONTINUOUS
 10
164.0564340754
 20
113.6175707256
  0
VERTEX
  8
0
 62
7
  6
CONTINUOUS
 10
164.015215581
 20
113.6355797371
  0
VERTEX
  8
0
 62
7
  6
CONTINUOUS
 10
163.9808280548
 20
113.65016321
  0
VERTEX
  8
0
 62
7
  6
CONTINUOUS
 10
163.9535747671
 20
113.6612139328
  0
VERTEX
  8
0
 62
7
  6
CONTINUOUS
 10
163.933697264
 20
113.6686545056
  0
VERTEX
  8
0
 62
7
  6
CONTINUOUS
 10
163.9213734708
 20
113.6724383216
  0
VERTEX
  8
0
 62
7
  6
CONTINUOUS
 10
163.9167163576
 20
113.6725502812
  0
SEQEND
  0
LINE
  8
0
 62
7
  6
CONTINUOUS
 10
164.4232646851
 20
113.4470531385
 11
164.2815631893
 21
113.5143971934
  0
LINE
  8
0
 62
7
  6
CONTINUOUS
 10
164.578052073
 20
113.3719213756
 11
164.4232646851
 21
113.4470531385
  0
POLYLINE
  8
0
 62
7
  6
CONTINUOUS
 66
1
 70
0
  0
VERTEX
  8
0
 62
7
  6
CONTINUOUS
 10
164.8230241447
 20
113.2499320195
  0
VERTEX
  8
0
 62
7
  6
CONTINUOUS
 10
164.7405813605
 20
113.2913870233
  0
VERTEX
  8
0
 62
7
  6
CONTINUOUS
 10
164.578052073
 20
113.3719213756
  0
SEQEND
  0
LINE
  8
0
 62
7
  6
CONTINUOUS
 10
162.5753746281
 20
114.4658434417
 11
161.9370722082
 21
114.9815380136
  0
LINE
  8
SURFACE
 62
7
  6
CONTINUOUS
 10
158.7376972966
 20
117.5663633627
 11
163.4514664273
 21
113.7580350875
  0
POLYLINE
  8
SURFACE
 62
7
  6
CONTINUOUS
 66
1
 70
0
  0
VERTEX
  8
SURFACE
 62
7
  6
CONTINUOUS
 10
157.6230241447
 20
122.8660697241
  0
VERTEX
  8
SURFACE
 62
7
  6
CONTINUOUS
 10
157.6296027033
 20
122.8621052638
  0
VERTEX
  8
SURFACE
 62
7
  6
CONTINUOUS
 10
157.6492291796
 20
122.8568951524
  0
VERTEX
  8
SURFACE
 62
7
  6
CONTINUOUS
 10
157.68162475
 20
122.8504556097
  0
VERTEX
  8
SURFACE
 62
7
  6
CONTINUOUS
 10
157.7263333801
 20
122.8428715083
  0
VERTEX
  8
SURFACE
 62
7
  6
CONTINUOUS
 10
157.7827164034
 20
122.8343394229
  0
VERTEX
  8
SURFACE
 62
7
  6
CONTINUOUS
 10
157.8499682922
 20
122.8250870917
  0
VERTEX
  8
SURFACE
 62
7
  6
CONTINUOUS
 10
157.9271631846
 20
122.815285648
  0
VERTEX
  8
SURFACE
 62
7
  6
CONTINUOUS
 10
158.0132716667
 20
122.8050936201
  0
VERTEX
  8
SURFACE
 62
7
  6
CONTINUOUS
 10
158.1071788321
 20
122.7946818163
  0
VERTEX
  8
SURFACE
 62
7
  6
CONTINUOUS
 10
158.2076891681
 20
122.7842469813
  0
VERTEX
  8
SURFACE
 62
7
  6
CONTINUOUS
 10
158.3135321363
 20
122.7740004566
  0
VERTEX
  8
SURFACE
 62
7
  6
CONTINUOUS
 10
158.423380204
 20
122.7641651303
  0
VERTEX
  8
SURFACE
 62
7
  6
CONTINUOUS
 10
158.5358684019
 20
122.7549698376
  0
SEQEND
  0
LINE
  8
DEFAULT_1
 62
7
  6
CENTER
 10
155.6199593254
 20
121.2499320195
 11
170.0686089463
 21
121.2499320195
  0
POLYLINE
  8
SURFACE
 62
7
  6
CONTINUOUS
 66
1
 70
0
  0
VERTEX
  8
SURFACE
 62
7
  6
CONTINUOUS
 10
167.8230065017
 20
122.8663106706
  0
VERTEX
  8
SURFACE
 62
7
  6
CONTINUOUS
 10
167.8190948683
 20
122.8673254871
  0
VERTEX
  8
SURFACE
 62
7
  6
CONTINUOUS
 10
167.8084620305
 20
122.8672533807
  0
VERTEX
  8
SURFACE
 62
7
  6
CONTINUOUS
 10
167.7914201107
 20
122.8660997679
  0
VERTEX
  8
SURFACE
 62
7
  6
CONTINUOUS
 10
167.7684576997
 20
122.863897749
  0
VERTEX
  8
SURFACE
 62
7
  6
CONTINUOUS
 10
167.7402277955
 20
122.8607078058
  0
VERTEX
  8
SURFACE
 62
7
  6
CONTINUOUS
 10
167.707527274
 20
122.8566163609
  0
VERTEX
  8
SURFACE
 62
7
  6
CONTINUOUS
 10
167.6712704961
 20
122.8517333551
  0
VERTEX
  8
SURFACE
 62
7
  6
CONTINUOUS
 10
167.6324587445
 20
122.8461890055
  0
VERTEX
  8
SURFACE
 62
7
  6
CONTINUOUS
 10
167.5921477725
 20
122.8401299727
  0
VERTEX
  8
SURFACE
 62
7
  6
CONTINUOUS
 10
167.5514173051
 20
122.8337154576
  0
VERTEX
  8
SURFACE
 62
7
  6
CONTINUOUS
 10
167.5113413077
 20
122.827113049
  0
SEQEND
  0
ARC
  8
SURFACE
 62
7
  6
CONTINUOUS
 10
92.6797333419
 20
177.9100520709
 40
3.0
 50
4.9999980366
 51
14.2841762942
  0
ARC
  8
SURFACE
 62
7
  6
CONTINUOUS
 10
89.6064750013
 20
177.9100520709
 40
3.0
 50
165.7155686146
 51
175.0000019671
  0
ARC
  8
SURFACE
 62
7
  6
CONTINUOUS
 10
79.9797333419
 20
177.9100520709
 40
3.0
 50
4.9999980366
 51
14.2841762942
  0
ARC
  8
SURFACE
 62
7
  6
CONTINUOUS
 10
76.9064750013
 20
177.9100520709
 40
3.0
 50
165.7155686146
 51
175.0000019671
  0
ARC
  8
SURFACE
 62
7
  6
CONTINUOUS
 10
67.2797333419
 20
177.9100520709
 40
3.0
 50
4.9999980366
 51
14.2841762942
  0
ARC
  8
SURFACE
 62
7
  6
CONTINUOUS
 10
64.2064750013
 20
177.9100520709
 40
3.0
 50
165.7155686146
 51
175.0000019671
  0
ARC
  8
SURFACE
 62
7
  6
CONTINUOUS
 10
84.3094353456
 20
174.3161846957
 40
1.0
 50
185.0
 51
270.0
  0
ARC
  8
SURFACE
 62
7
  6
CONTINUOUS
 10
71.6094353456
 20
174.3161846957
 40
1.0
 50
185.0
 51
270.0
  0
ARC
  8
SURFACE
 62
7
  6
CONTINUOUS
 10
66.2047729976
 20
174.3161846957
 40
1.0
 50
270.0
 51
306.7769561063
  0
ARC
  8
SURFACE
 62
7
  6
CONTINUOUS
 10
78.9047729976
 20
174.3161846957
 40
1.0
 50
270.0
 51
306.7516920739
  0
ARC
  8
SURFACE
 62
7
  6
CONTINUOUS
 10
91.6047729976
 20
174.3161846957
 40
1.0
 50
270.0
 51
306.7516920739
  0
ARC
  8
0
 62
7
  6
CONTINUOUS
 10
57.3821041716
 20
174.3161846957
 40
1.0
 50
180.0
 51
270.0
  0
ARC
  8
SURFACE
 62
7
  6
CONTINUOUS
 10
85.2767729976
 20
174.3161846957
 40
1.0
 50
270.0
 51
355.0
  0
ARC
  8
SURFACE
 62
7
  6
CONTINUOUS
 10
72.5767729976
 20
174.3161846957
 40
1.0
 50
270.0
 51
355.0
  0
ARC
  8
SURFACE
 62
7
  6
CONTINUOUS
 10
59.8767729976
 20
174.3161846957
 40
1.0
 50
270.0
 51
355.0
  0
ARC
  8
SURFACE
 62
7
  6
CONTINUOUS
 10
65.2374353451
 20
174.3161847009
 40
0.9999999974
 50
233.2483081255
 51
270.0000000261
  0
ARC
  8
SURFACE
 62
7
  6
CONTINUOUS
 10
77.9374353451
 20
174.3161847009
 40
0.9999999974
 50
233.2483081255
 51
270.0000000261
  0
ARC
  8
SURFACE
 62
7
  6
CONTINUOUS
 10
90.6374353451
 20
174.3161847009
 40
0.9999999974
 50
233.2483081255
 51
270.0000000261
  0
ARC
  8
SURFACE
 62
7
  6
CONTINUOUS
 10
87.6164779111
 20
183.2661846957
 40
0.25
 50
345.7158258888
 51
90.0
  0
ARC
  8
SURFACE
 62
7
  6
CONTINUOUS
 10
81.969730432
 20
183.2661846957
 40
0.25
 50
90.0
 51
194.2841741112
  0
ARC
  8
SURFACE
 62
7
  6
CONTINUOUS
 10
74.9164779111
 20
183.2661846957
 40
0.25
 50
345.7158258888
 51
90.0
  0
ARC
  8
SURFACE
 62
7
  6
CONTINUOUS
 10
69.269730432
 20
183.2661846957
 40
0.25
 50
90.0
 51
194.2841741112
  0
ARC
  8
0
 62
7
  6
CONTINUOUS
 10
56.6321041716
 20
183.2661846957
 40
0.25
 50
90.0
 51
180.0
  0
ARC
  8
SURFACE
 62
7
  6
CONTINUOUS
 10
62.2164779111
 20
183.2661846957
 40
0.25
 50
345.7158258888
 51
90.0
  0
ARC
  8
SURFACE
 62
7
  6
CONTINUOUS
 10
127.7064750013
 20
177.9100520709
 40
3.0
 50
165.7155686146
 51
175.0000019671
  0
ARC
  8
SURFACE
 62
7
  6
CONTINUOUS
 10
118.0797333419
 20
177.9100520709
 40
3.0
 50
4.9999980366
 51
14.2841762942
  0
ARC
  8
SURFACE
 62
7
  6
CONTINUOUS
 10
115.0064750013
 20
177.9100520709
 40
3.0
 50
165.7155686146
 51
175.0000019671
  0
ARC
  8
SURFACE
 62
7
  6
CONTINUOUS
 10
105.3797333419
 20
177.9100520709
 40
3.0
 50
4.9999980366
 51
14.2841762942
  0
ARC
  8
SURFACE
 62
7
  6
CONTINUOUS
 10
102.3064750013
 20
177.9100520709
 40
3.0
 50
165.7155686146
 51
175.0000019671
  0
ARC
  8
0
 62
7
  6
CONTINUOUS
 10
122.4094353456
 20
174.3161846957
 40
1.0
 50
230.4730151388
 51
270.0
  0
ARC
  8
SURFACE
 62
7
  6
CONTINUOUS
 10
109.7094353456
 20
174.3161846957
 40
1.0
 50
185.0
 51
270.0
  0
ARC
  8
SURFACE
 62
7
  6
CONTINUOUS
 10
97.0094353456
 20
174.3161846957
 40
1.0
 50
185.0
 51
270.0
  0
ARC
  8
0
 62
7
  6
CONTINUOUS
 10
131.2321041716
 20
174.5161846957
 40
1.0
 50
270.0
 51
360.0
  0
ARC
  8
0
 62
7
  6
CONTINUOUS
 10
131.2321041716
 20
174.3161846957
 40
1.0
 50
270.0
 51
360.0
  0
ARC
  8
SURFACE
 62
7
  6
CONTINUOUS
 10
104.3047729976
 20
174.3161846957
 40
1.0
 50
270.0
 51
306.7516920739
  0
ARC
  8
SURFACE
 62
7
  6
CONTINUOUS
 10
117.0047729976
 20
174.3161846957
 40
1.0
 50
270.0
 51
306.7516920739
  0
ARC
  8
SURFACE
 62
7
  6
CONTINUOUS
 10
123.3767729976
 20
174.3161846957
 40
1.0
 50
270.0
 51
355.0
  0
ARC
  8
SURFACE
 62
7
  6
CONTINUOUS
 10
110.6767729976
 20
174.3161846957
 40
1.0
 50
270.0
 51
355.0
  0
ARC
  8
SURFACE
 62
7
  6
CONTINUOUS
 10
97.9767729976
 20
174.3161846957
 40
1.0
 50
270.0
 51
355.0
  0
ARC
  8
SURFACE
 62
7
  6
CONTINUOUS
 10
103.3374353451
 20
174.3161847009
 40
0.9999999974
 50
233.2483081255
 51
270.0000000261
  0
ARC
  8
SURFACE
 62
7
  6
CONTINUOUS
 10
116.0374353451
 20
174.3161847009
 40
0.9999999974
 50
233.2483081255
 51
270.0000000261
  0
ARC
  8
SURFACE
 62
7
  6
CONTINUOUS
 10
128.7374353451
 20
174.3161847009
 40
0.9999999974
 50
233.2483081255
 51
270.0000000261
  0
ARC
  8
0
 62
7
  6
CONTINUOUS
 10
121.9321041716
 20
173.7376910049
 40
0.25
 50
180.0
 51
230.4730151388
  0
ARC
  8
0
 62
7
  6
CONTINUOUS
 10
131.2321041716
 20
180.5161846957
 40
1.0
 50
270.0
 51
360.0
  0
ARC
  8
SURFACE
 62
7
  6
CONTINUOUS
 10
125.7164779111
 20
183.2661846957
 40
0.25
 50
345.7158258888
 51
90.0
  0
ARC
  8
SURFACE
 62
7
  6
CONTINUOUS
 10
120.069730432
 20
183.2661846957
 40
0.25
 50
90.0
 51
194.2841741112
  0
ARC
  8
SURFACE
 62
7
  6
CONTINUOUS
 10
113.0164779111
 20
183.2661846957
 40
0.25
 50
345.7158258888
 51
90.0
  0
ARC
  8
SURFACE
 62
7
  6
CONTINUOUS
 10
107.369730432
 20
183.2661846957
 40
0.25
 50
90.0
 51
194.2841741112
  0
ARC
  8
SURFACE
 62
7
  6
CONTINUOUS
 10
100.3164779111
 20
183.2661846957
 40
0.25
 50
345.7158258888
 51
90.0
  0
ARC
  8
SURFACE
 62
7
  6
CONTINUOUS
 10
94.669730432
 20
183.2661846957
 40
0.25
 50
90.0
 51
194.2841741112
  0
ARC
  8
0
 62
7
  6
CONTINUOUS
 10
131.9821041716
 20
183.2661846957
 40
0.25
 50
0.0
 51
90.0
  0
ARC
  8
SURFACE
 62
7
  6
CONTINUOUS
 10
162.7230241447
 20
95.8499320195
 40
5.35
 50
267.2078978743
 51
269.660203636
  0
ARC
  8
SURFACE
 62
7
  6
CONTINUOUS
 10
162.7230241447
 20
95.8499320195
 40
5.35
 50
273.4992432994
 51
342.4146084135
  0
ARC
  8
0
 62
7
  6
CONTINUOUS
 10
162.7230241447
 20
95.8499320195
 40
5.35
 50
197.5847662302
 51
342.4152337803
  0
ARC
  8
SURFACE
 62
7
  6
CONTINUOUS
 10
160.6230241447
 20
97.1999320195
 40
3.0
 50
178.649544373
 51
180.0
  0
ARC
  8
SURFACE
 62
7
  6
CONTINUOUS
 10
160.6230241447
 20
97.1999320195
 40
3.0
 50
132.728234058
 51
176.2063463621
  0
ARC
  8
SURFACE
 62
7
  6
CONTINUOUS
 10
160.6230241447
 20
97.1999320195
 40
3.0
 50
128.9352902541
 51
130.2869274739
  0
ARC
  8
0
 62
7
  6
CONTINUOUS
 10
160.6230241447
 20
97.1999320195
 40
3.0
 50
128.9352902541
 51
180.0
  0
CIRCLE
  8
0
 62
7
  6
CONTINUOUS
 10
162.7230241447
 20
95.8499320195
 40
2.65
  0
ARC
  8
0
 62
7
  6
CONTINUOUS
 10
162.8230241447
 20
104.1196851703
 40
1.0
 50
308.9352902541
 51
360.0
  0
ARC
  8
0
 62
7
  6
CONTINUOUS
 10
158.8230241447
 20
108.2764745475
 40
1.0
 50
180.0
 51
252.0
  0
ARC
  8
0
 62
7
  6
CONTINUOUS
 10
162.8230241447
 20
104.8738713141
 40
1.0
 50
0.0
 51
72.0
  0
ARC
  8
0
 62
7
  6
CONTINUOUS
 10
158.8230241447
 20
108.8233894915
 40
1.0
 50
108.0
 51
180.0
  0
ARC
  8
SURFACE
 62
7
  6
CONTINUOUS
 10
160.6230241447
 20
119.8999320195
 40
3.0
 50
180.0
 51
231.0647097459
  0
ARC
  8
0
 62
7
  6
CONTINUOUS
 10
162.8230241447
 20
112.2259927249
 40
1.0
 50
288.0
 51
360.0
  0
ARC
  8
0
 62
7
  6
CONTINUOUS
 10
162.8230241447
 20
112.9801788686
 40
1.0
 50
19.2084296277
 51
44.7409731551
  0
ARC
  8
SURFACE
 62
7
  6
CONTINUOUS
 10
162.8230241447
 20
112.9801788686
 40
1.0
 50
0.0
 51
51.0647097459
  0
ARC
  8
0
 62
7
  6
CONTINUOUS
 10
162.7230241447
 20
121.2499320195
 40
5.6
 50
300.7782787869
 51
324.4451610848
  0
ARC
  8
SURFACE
 62
7
  6
CONTINUOUS
 10
162.7230241447
 20
121.2499320195
 40
5.35
 50
17.5853915865
 51
162.4152337697
  0
CIRCLE
  8
0
 62
7
  6
CONTINUOUS
 10
162.7230241447
 20
121.2499320195
 40
2.65
  0
ARC
  8
0
 62
7
  6
CONTINUOUS
 10
166.6120748158
 20
114.7203619818
 40
2.0
 50
120.7782795299
 51
154.9999942076
  0
ARC
  8
SURFACE
 62
7
  6
CONTINUOUS
 10
164.8230241447
 20
113.2499320195
 40
1.0
 50
154.9999981684
 51
159.8511108178
  0
ARC
  8
SURFACE
 62
7
  6
CONTINUOUS
 10
164.8230241447
 20
113.2499320195
 40
1.0
 50
160.0476151837
 51
179.9999978485
  0
ARC
  8
0
 62
7
  6
CONTINUOUS
 10
164.8230241447
 20
113.2499320195
 40
1.0
 50
155.0
 51
180.0
  0
ARC
  8
0
 62
7
  6
CONTINUOUS
 10
167.5230241447
 20
117.8191886598
 40
0.3
 50
0.0000409841
 51
144.4451197832
  0
ENDSEC
  0
EOF
