  0
SECTION
  2
HEADER
  9
$EXTMAX
 10
210.0
 20
297.0
 30
0.0
  9
$EXTMIN
 10
0.0
 20
0.0
 30
0.0
  9
$LIMMIN
 10
0.0
 20
0.0
  9
$LIMMAX
 10
210.0
 20
297.0
  9
$VIEWCTR
 10
105.0
 20
148.5
  9
$VIEWSIZE
 40
297.0
  9
$CLAYER
  8
0
  9
$LTSCALE
 40
19.36
  9
$CELTYPE
  6
BYLAYER
  9
$DIMSCALE
 40
1.0
  9
$DIMASZ
 40
3.5
  9
$DIMEXO
 40
2.2
  9
$DIMDLI
 40
13.376
  9
$DIMEXE
 40
6.336
  9
$DIMCEN
 40
3.168
  9
$DIMLFAC
 40
1.0
  9
$DIMBLK
  1
_FILLED
  9
$DIMTXT
 40
3.5
  9
$PDMODE
 70
3
  9
$PDSIZE
 40
0.3125
  9
$TILEMODE
 70
1
  0
ENDSEC
  0
SECTION
  2
TABLES
  0
TABLE
  2
LTYPE
 70
6
  0
LTYPE
  2
BYBLOCK
 70
0
  3

 72
65
 73
0
 40
0.0
  0
LTYPE
  2
BYLAYER
 70
0
  3

 72
65
 73
0
 40
0.0
  0
LTYPE
  2
CONTINUOUS
 70
64
  3
Solid line
 72
65
 73
0
 40
0.0
  0
LTYPE
  2
CENTER
 70
64
  3
____ _ ____ _ ____ _ ____ _ ____ _ ____ _ ____
 72
65
 73
4
 40
0.6
 49
0.375
 49
-0.075
 49
0.075
 49
-0.075
  0
LTYPE
  2
HIDDEN
 70
64
  3
- - - - - - - - - - - - - - - - - - - -
 72
65
 73
2
 40
0.2
 49
0.1
 49
-0.1
  0
LTYPE
  2
PHANTOM
 70
64
  3
_____ _ _ _____ _ _ _____ _ _ _____
 72
65
 73
6
 40
0.8
 49
0.45
 49
-0.05
 49
0.1
 49
-0.05
 49
0.1
 49
-0.05
  0
LTYPE
  2
DOT
 70
64
  3
. . . . . . . . . . . . . . . . . . . .
 72
65
 73
2
 40
0.2
 49
0.1
 49
-0.1
  0
LTYPE
  2
DASHED
 70
64
  3
- - - - - - - - - - - - - - - - - - - -
 72
65
 73
2
 40
0.2
 49
0.1
 49
-0.1
  0
ENDTAB
  0
TABLE
  2
LAYER
 70
36
  0
LAYER
  2
0
 70
0
 62
7
  6
CONTINUOUS
  0
LAYER
  2
DEFAULT_1
 70
0
 62
7
  6
CENTER
  0
LAYER
  2
DEFAULT_2
 70
0
 62
8
  6
HIDDEN
  0
LAYER
  2
DEFAULT_3
 70
0
 62
7
  6
PHANTOM
  0
LAYER
  2
AXES
 70
0
 62
7
  6
CONTINUOUS
  0
LAYER
  2
CSYS
 70
0
 62
7
  6
CONTINUOUS
  0
LAYER
  2
CURVE
 70
0
 62
7
  6
CONTINUOUS
  0
LAYER
  2
CURVES
 70
0
 62
7
  6
CONTINUOUS
  0
LAYER
  2
PLANES
 70
0
 62
7
  6
CONTINUOUS
  0
LAYER
  2
SURFACE
 70
0
 62
7
  6
CONTINUOUS
  0
ENDTAB
  0
TABLE
  2
STYLE
 70
1
  0
STYLE
  2
STANDARD
 70
0
 40
0.0
 41
0.8
 50
0.0
 71
0
 42
0.2
  3
txt
  4

  0
STYLE
  2
TEXTSTYLE_1
 70
0
 40
0.0
 41
0.8
 50
0.0
 71
0
 42
0.2
  3
gdt
  4

  0
STYLE
  2
TEXTSTYLE_2
 70
0
 40
0.0
 41
0.6
 50
0.0
 71
0
 42
0.2
  3
txt
  4

  0
STYLE
  2
TEXTSTYLE_3
 70
0
 40
0.0
 41
1.0
 50
0.0
 71
0
 42
0.2
  3
ftb_____.ttf
  4

  0
STYLE
  2
TEXTSTYLE_4
 70
0
 40
0.0
 41
1.0
 50
0.0
 71
0
 42
0.2
  3
fti_____.ttf
  4

  0
STYLE
  2
TEXTSTYLE_5
 70
0
 40
0.0
 41
1.0
 50
0.0
 71
0
 42
0.2
  3
frutiger light.ttf
  4

  0
STYLE
  2
TEXTSTYLE_6
 70
0
 40
0.0
 41
0.7
 50
0.0
 71
0
 42
0.2
  3
txt
  4

  0
STYLE
  2
TEXTSTYLE_7
 70
0
 40
0.0
 41
0.45
 50
0.0
 71
0
 42
0.2
  3
txt
  4

  0
ENDTAB
  0
ENDSEC
  0
SECTION
  2
BLOCKS
  0
BLOCK
  8
0
 62
2
  6
CONTINUOUS
  2
SYMBOL_8_BL1
 70
64
 10
173.5956734183
 20
35.5937998301
  0
TEXT
  8
0
 62
7
  6
CONTINUOUS
 10
164.6539584268
 20
30.6865562072
  7
TEXTSTYLE_4
 40
1.0655737705
  1
The brand for plastic modular belts and chains
 41
1.0
 72
0
  0
LINE
  8
0
 62
7
  6
CONTINUOUS
 10
149.5737418074
 20
36.1675703219
 11
149.5737418074
 21
34.0364227809
  0
LINE
  8
0
 62
7
  6
CONTINUOUS
 10
149.8628043005
 20
31.0454914852
 11
149.8628043005
 21
31.1422825445
  0
LINE
  8
0
 62
7
  6
CONTINUOUS
 10
149.5737418074
 20
31.1100188581
 11
149.6315543091
 21
30.9164367395
  0
LINE
  8
0
 62
7
  6
CONTINUOUS
 10
150.9671844304
 20
33.9544555678
 11
150.9671844304
 21
36.1675703219
  0
LINE
  8
0
 62
7
  6
CONTINUOUS
 10
151.8862417523
 20
32.1101932727
 11
151.8862417523
 21
30.5937998301
  0
LINE
  8
0
 62
7
  6
CONTINUOUS
 10
152.1753043074
 20
30.5937998301
 11
152.1753043074
 21
31.3358647082
  0
LINE
  8
0
 62
7
  6
CONTINUOUS
 10
152.1753043074
 20
31.4649194539
 11
152.1753043074
 21
32.1101932727
  0
LINE
  8
0
 62
7
  6
CONTINUOUS
 10
149.6315543091
 20
31.3036010218
 11
149.5737418074
 21
31.1100188581
  0
LINE
  8
0
 62
7
  6
CONTINUOUS
 10
149.9784292936
 20
30.8841730531
 11
149.8628043005
 21
31.0454914852
  0
LINE
  8
0
 62
7
  6
CONTINUOUS
 10
151.0768668626
 20
31.400392081
 11
151.1346793074
 21
31.3036010218
  0
LINE
  8
0
 62
7
  6
CONTINUOUS
 10
151.4237418626
 20
31.3036010218
 11
151.3659292523
 21
31.4326557675
  0
LINE
  8
0
 62
7
  6
CONTINUOUS
 10
152.852430332
 20
36.1675703219
 11
152.852430332
 21
34.3642916334
  0
LINE
  8
0
 62
7
  6
CONTINUOUS
 10
152.852430332
 20
33.0528162235
 11
152.852430332
 21
32.3970785186
  0
LINE
  8
0
 62
7
  6
CONTINUOUS
 10
153.2159293074
 20
31.2390736489
 11
153.2159293074
 21
30.5937998301
  0
LINE
  8
0
 62
7
  6
CONTINUOUS
 10
153.5049916972
 20
30.5937998301
 11
153.5049916972
 21
31.2390736489
  0
LINE
  8
0
 62
7
  6
CONTINUOUS
 10
149.8628043005
 20
31.1422825445
 11
149.9206168074
 21
31.2713373354
  0
LINE
  8
0
 62
7
  6
CONTINUOUS
 10
149.6315543091
 20
30.9164367395
 11
149.7471793074
 21
30.7873819712
  0
LINE
  8
0
 62
7
  6
CONTINUOUS
 10
153.1581166972
 20
31.3681283946
 11
153.2159293074
 21
31.2390736489
  0
LINE
  8
0
 62
7
  6
CONTINUOUS
 10
153.9674919177
 20
30.8841730531
 11
154.0253041972
 21
30.7551182848
  0
LINE
  8
0
 62
7
  6
CONTINUOUS
 10
153.5049916972
 20
31.2390736489
 11
153.4471794177
 21
31.400392081
  0
LINE
  8
0
 62
7
  6
CONTINUOUS
 10
153.9674919177
 20
31.4326557675
 11
153.9674919177
 21
31.3681283946
  0
LINE
  8
0
 62
7
  6
CONTINUOUS
 10
153.9674919177
 20
30.9809641124
 11
153.9674919177
 21
30.8841730531
  0
LINE
  8
0
 62
7
  6
CONTINUOUS
 10
154.245872955
 20
32.3970785186
 11
154.245872955
 21
36.1675703219
  0
LINE
  8
0
 62
7
  6
CONTINUOUS
 10
154.2565543074
 20
30.8519093441
 11
154.2565543074
 21
30.9164367395
  0
LINE
  8
0
 62
7
  6
CONTINUOUS
 10
154.5737418074
 20
36.1675703219
 11
154.5737418074
 21
32.3970785186
  0
LINE
  8
0
 62
7
  6
CONTINUOUS
 10
151.3659292523
 20
30.7873819712
 11
151.4237418626
 21
30.9164367395
  0
LINE
  8
0
 62
7
  6
CONTINUOUS
 10
155.759679528
 20
30.6905909007
 11
155.7018665869
 21
30.8519093441
  0
LINE
  8
0
 62
7
  6
CONTINUOUS
 10
155.412804528
 20
31.3681283946
 11
155.412804528
 21
31.2713373354
  0
LINE
  8
0
 62
7
  6
CONTINUOUS
 10
155.412804528
 20
31.1422825445
 11
155.412804528
 21
30.9487004259
  0
LINE
  8
0
 62
7
  6
CONTINUOUS
 10
155.7018665869
 20
30.8519093441
 11
155.7018665869
 21
31.3681283946
  0
LINE
  8
0
 62
7
  6
CONTINUOUS
 10
155.9671844304
 20
32.3970785186
 11
155.9671844304
 21
34.2003572071
  0
LINE
  8
0
 62
7
  6
CONTINUOUS
 10
155.9671844304
 20
35.511832617
 11
155.9671844304
 21
36.1675703219
  0
LINE
  8
0
 62
7
  6
CONTINUOUS
 10
156.279992028
 20
32.1101932727
 11
156.279992028
 21
31.9488748406
  0
LINE
  8
0
 62
7
  6
CONTINUOUS
 10
156.279992028
 20
31.626237886
 11
156.279992028
 21
30.5937998301
  0
LINE
  8
0
 62
7
  6
CONTINUOUS
 10
156.5690540869
 20
30.5937998301
 11
156.5690540869
 21
31.626237886
  0
LINE
  8
0
 62
7
  6
CONTINUOUS
 10
156.5690540869
 20
31.9488748406
 11
156.5690540869
 21
32.1101932727
  0
LINE
  8
0
 62
7
  6
CONTINUOUS
 10
151.1346793074
 20
30.9164367395
 11
151.0768668626
 21
30.8196456577
  0
LINE
  8
0
 62
7
  6
CONTINUOUS
 10
153.4471794177
 20
31.400392081
 11
153.3893668074
 21
31.4649194539
  0
LINE
  8
0
 62
7
  6
CONTINUOUS
 10
154.3143669177
 20
30.7873819712
 11
154.2565543074
 21
30.8519093441
  0
LINE
  8
0
 62
7
  6
CONTINUOUS
 10
155.4706168074
 20
30.6583272086
 11
155.5284290869
 21
30.5937998301
  0
LINE
  8
0
 62
7
  6
CONTINUOUS
 10
155.412804528
 20
30.7551182848
 11
155.4706168074
 21
30.6583272086
  0
LINE
  8
0
 62
7
  6
CONTINUOUS
 10
155.8174918074
 20
30.5937998301
 11
155.759679528
 21
30.6905909007
  0
LINE
  8
0
 62
7
  6
CONTINUOUS
 10
155.7018665869
 20
31.3681283946
 11
155.6440543074
 21
31.4649194539
  0
LINE
  8
0
 62
7
  6
CONTINUOUS
 10
157.0315543074
 20
31.626237886
 11
157.0315543074
 21
30.5937998301
  0
LINE
  8
0
 62
7
  6
CONTINUOUS
 10
157.320617028
 20
30.5937998301
 11
157.320617028
 21
31.3358647082
  0
LINE
  8
0
 62
7
  6
CONTINUOUS
 10
157.320617028
 20
31.4649194539
 11
157.320617028
 21
31.626237886
  0
LINE
  8
0
 62
7
  6
CONTINUOUS
 10
157.852430332
 20
34.6101932727
 11
157.852430332
 21
32.3970785186
  0
LINE
  8
0
 62
7
  6
CONTINUOUS
 10
149.7471793074
 20
31.4326557675
 11
149.6315543091
 21
31.3036010218
  0
LINE
  8
0
 62
7
  6
CONTINUOUS
 10
149.9206168074
 20
31.2713373354
 11
149.9784292936
 21
31.3358647082
  0
LINE
  8
0
 62
7
  6
CONTINUOUS
 10
149.7471793074
 20
30.7873819712
 11
149.8628043005
 21
30.7228545871
  0
LINE
  8
0
 62
7
  6
CONTINUOUS
 10
150.1518667936
 20
30.7873819712
 11
149.9784292936
 21
30.8841730531
  0
LINE
  8
0
 62
7
  6
CONTINUOUS
 10
155.3549915869
 20
31.4326557675
 11
155.412804528
 21
31.3681283946
  0
LINE
  8
0
 62
7
  6
CONTINUOUS
 10
158.3034290869
 20
31.3681283946
 11
158.361242028
 21
31.2068099625
  0
LINE
  8
0
 62
7
  6
CONTINUOUS
 10
158.6503040869
 20
31.2068099625
 11
158.5924918074
 21
31.3681283946
  0
LINE
  8
0
 62
7
  6
CONTINUOUS
 10
158.361242028
 20
31.2068099625
 11
158.361242028
 21
30.5937998301
  0
LINE
  8
0
 62
7
  6
CONTINUOUS
 10
158.6503040869
 20
30.5937998301
 11
158.6503040869
 21
31.2068099625
  0
LINE
  8
0
 62
7
  6
CONTINUOUS
 10
159.1128043074
 20
31.4326557675
 11
159.1128043074
 21
31.3681283946
  0
LINE
  8
0
 62
7
  6
CONTINUOUS
 10
159.245872955
 20
32.3970785186
 11
159.245872955
 21
34.5282260596
  0
LINE
  8
0
 62
7
  6
CONTINUOUS
 10
159.5737418074
 20
36.1675703219
 11
159.5737418074
 21
32.3970785186
  0
LINE
  8
0
 62
7
  6
CONTINUOUS
 10
154.2565543074
 20
30.9164367395
 11
154.3143669177
 21
31.0132277988
  0
LINE
  8
0
 62
7
  6
CONTINUOUS
 10
149.8628043005
 20
30.7228545871
 11
150.0362418212
 21
30.6583272086
  0
LINE
  8
0
 62
7
  6
CONTINUOUS
 10
151.3659292523
 20
31.4326557675
 11
151.1924917523
 21
31.5294468267
  0
LINE
  8
0
 62
7
  6
CONTINUOUS
 10
154.0253041972
 20
30.7551182848
 11
154.1987416972
 21
30.6583272086
  0
LINE
  8
0
 62
7
  6
CONTINUOUS
 10
153.0424918074
 20
31.4326557675
 11
153.1581166972
 21
31.3681283946
  0
LINE
  8
0
 62
7
  6
CONTINUOUS
 10
153.3893668074
 20
31.4649194539
 11
153.2737419177
 21
31.5294468267
  0
LINE
  8
0
 62
7
  6
CONTINUOUS
 10
159.1128043074
 20
30.8519093441
 11
159.228429528
 21
30.7228545871
  0
LINE
  8
0
 62
7
  6
CONTINUOUS
 10
159.4596793074
 20
30.7873819712
 11
159.401867028
 21
30.8519093441
  0
LINE
  8
0
 62
7
  6
CONTINUOUS
 10
159.1128043074
 20
31.3681283946
 11
159.228429528
 21
31.2390736489
  0
LINE
  8
0
 62
7
  6
CONTINUOUS
 10
158.5924918074
 20
31.3681283946
 11
158.534679528
 21
31.4649194539
  0
LINE
  8
0
 62
7
  6
CONTINUOUS
 10
160.9628038663
 20
30.7873819712
 11
160.9628038663
 21
30.8519093441
  0
LINE
  8
0
 62
7
  6
CONTINUOUS
 10
160.9671844304
 20
32.3970785186
 11
160.9671844304
 21
36.1675703219
  0
LINE
  8
0
 62
7
  6
CONTINUOUS
 10
154.0253041972
 20
31.4971831403
 11
153.9674919177
 21
31.4326557675
  0
LINE
  8
0
 62
7
  6
CONTINUOUS
 10
150.9034292799
 20
31.4649194539
 11
151.0768668626
 21
31.400392081
  0
LINE
  8
0
 62
7
  6
CONTINUOUS
 10
155.6440543074
 20
31.4649194539
 11
155.5284290869
 21
31.5294468267
  0
LINE
  8
0
 62
7
  6
CONTINUOUS
 10
159.4596793074
 20
31.3036010218
 11
159.401867028
 21
31.3681283946
  0
LINE
  8
0
 62
7
  6
CONTINUOUS
 10
160.615929528
 20
30.9164367395
 11
160.6737418074
 21
30.8519093441
  0
LINE
  8
0
 62
7
  6
CONTINUOUS
 10
160.9628038663
 20
30.8519093441
 11
160.8471793074
 21
30.9809641124
  0
LINE
  8
0
 62
7
  6
CONTINUOUS
 10
160.615929528
 20
31.4326557675
 11
160.6737418074
 21
31.3681283946
  0
LINE
  8
0
 62
7
  6
CONTINUOUS
 10
160.9628038663
 20
31.3681283946
 11
160.8471793074
 21
31.4971831403
  0
LINE
  8
0
 62
7
  6
CONTINUOUS
 10
154.2565543074
 20
31.3681283946
 11
154.3143669177
 21
31.4326557675
  0
LINE
  8
0
 62
7
  6
CONTINUOUS
 10
154.0831168074
 20
31.1100188581
 11
153.9674919177
 21
30.9809641124
  0
LINE
  8
0
 62
7
  6
CONTINUOUS
 10
155.412804528
 20
30.9487004259
 11
155.3549915869
 21
30.8841730531
  0
LINE
  8
0
 62
7
  6
CONTINUOUS
 10
155.3549915869
 20
30.6905909007
 11
155.412804528
 21
30.7551182848
  0
LINE
  8
0
 62
7
  6
CONTINUOUS
 10
154.1987416972
 20
30.6583272086
 11
154.3143669177
 21
30.6260635193
  0
LINE
  8
0
 62
7
  6
CONTINUOUS
 10
151.1924917523
 20
31.5294468267
 11
150.9612418074
 21
31.5939741996
  0
LINE
  8
0
 62
7
  6
CONTINUOUS
 10
154.5456166972
 20
30.7228545871
 11
154.3143669177
 21
30.7873819712
  0
LINE
  8
0
 62
7
  6
CONTINUOUS
 10
153.2737419177
 20
31.5294468267
 11
153.1003044177
 21
31.5939741996
  0
LINE
  8
0
 62
7
  6
CONTINUOUS
 10
155.5284290869
 20
31.5294468267
 11
155.3549915869
 21
31.5939741996
  0
LINE
  8
0
 62
7
  6
CONTINUOUS
 10
158.187804528
 20
31.4326557675
 11
158.3034290869
 21
31.3681283946
  0
LINE
  8
0
 62
7
  6
CONTINUOUS
 10
158.534679528
 20
31.4649194539
 11
158.4190543074
 21
31.5294468267
  0
LINE
  8
0
 62
7
  6
CONTINUOUS
 10
150.0362418212
 20
30.6583272086
 11
150.2096793212
 21
30.6260635193
  0
LINE
  8
0
 62
7
  6
CONTINUOUS
 10
150.498741835
 20
30.7228545871
 11
150.1518667936
 21
30.7873819712
  0
LINE
  8
0
 62
7
  6
CONTINUOUS
 10
152.9268669177
 20
31.4649194539
 11
153.0424918074
 21
31.4326557675
  0
LINE
  8
0
 62
7
  6
CONTINUOUS
 10
155.239367028
 20
31.4649194539
 11
155.3549915869
 21
31.4326557675
  0
LINE
  8
0
 62
7
  6
CONTINUOUS
 10
159.575304528
 20
30.7551182848
 11
159.4596793074
 21
30.7873819712
  0
LINE
  8
0
 62
7
  6
CONTINUOUS
 10
158.0721793074
 20
31.4649194539
 11
158.187804528
 21
31.4326557675
  0
LINE
  8
0
 62
7
  6
CONTINUOUS
 10
159.228429528
 20
30.7228545871
 11
159.401867028
 21
30.6583272086
  0
LINE
  8
0
 62
7
  6
CONTINUOUS
 10
158.4190543074
 20
31.5294468267
 11
158.2456168074
 21
31.5939741996
  0
LINE
  8
0
 62
7
  6
CONTINUOUS
 10
159.6331168074
 20
31.2390736489
 11
159.4596793074
 21
31.3036010218
  0
LINE
  8
0
 62
7
  6
CONTINUOUS
 10
160.442492028
 20
30.9809641124
 11
160.615929528
 21
30.9164367395
  0
LINE
  8
0
 62
7
  6
CONTINUOUS
 10
160.8471793074
 20
31.4971831403
 11
160.6737418074
 21
31.5617105132
  0
LINE
  8
0
 62
7
  6
CONTINUOUS
 10
159.228429528
 20
31.2390736489
 11
159.4596793074
 21
31.1422825445
  0
LINE
  8
0
 62
7
  6
CONTINUOUS
 10
160.8471793074
 20
30.9809641124
 11
160.615929528
 21
31.0777551716
  0
LINE
  8
0
 62
7
  6
CONTINUOUS
 10
159.401867028
 20
31.3681283946
 11
159.4596793074
 21
31.4326557675
  0
LINE
  8
0
 62
7
  6
CONTINUOUS
 10
149.8628043005
 20
31.4971831403
 11
149.7471793074
 21
31.4326557675
  0
LINE
  8
0
 62
7
  6
CONTINUOUS
 10
149.9784292936
 20
31.3358647082
 11
150.1518667936
 21
31.4326557675
  0
LINE
  8
0
 62
7
  6
CONTINUOUS
 10
152.2909293626
 20
31.5294468267
 11
152.1753043074
 21
31.4649194539
  0
LINE
  8
0
 62
7
  6
CONTINUOUS
 10
152.1753043074
 20
31.3358647082
 11
152.2909293626
 21
31.400392081
  0
LINE
  8
0
 62
7
  6
CONTINUOUS
 10
151.1924917523
 20
30.6905909007
 11
151.3659292523
 21
30.7873819712
  0
LINE
  8
0
 62
7
  6
CONTINUOUS
 10
150.2096793212
 20
30.6260635193
 11
150.5565542799
 21
30.5937998301
  0
LINE
  8
0
 62
7
  6
CONTINUOUS
 10
154.3143669177
 20
30.6260635193
 11
154.5456166972
 21
30.5937998301
  0
LINE
  8
0
 62
7
  6
CONTINUOUS
 10
152.6956168074
 20
31.4971831403
 11
152.9268669177
 21
31.4649194539
  0
LINE
  8
0
 62
7
  6
CONTINUOUS
 10
155.0081169177
 20
31.4971831403
 11
155.239367028
 21
31.4649194539
  0
LINE
  8
0
 62
7
  6
CONTINUOUS
 10
159.4596793074
 20
31.1422825445
 11
160.442492028
 21
30.9809641124
  0
LINE
  8
0
 62
7
  6
CONTINUOUS
 10
160.615929528
 20
31.0777551716
 11
159.6331168074
 21
31.2390736489
  0
LINE
  8
0
 62
7
  6
CONTINUOUS
 10
153.1003044177
 20
31.5939741996
 11
152.9268669177
 21
31.626237886
  0
LINE
  8
0
 62
7
  6
CONTINUOUS
 10
159.401867028
 20
30.6583272086
 11
159.575304528
 21
30.6260635193
  0
LINE
  8
0
 62
7
  6
CONTINUOUS
 10
158.2456168074
 20
31.5939741996
 11
158.0721793074
 21
31.626237886
  0
LINE
  8
0
 62
7
  6
CONTINUOUS
 10
160.5003043074
 20
31.4649194539
 11
160.615929528
 21
31.4326557675
  0
LINE
  8
0
 62
7
  6
CONTINUOUS
 10
160.6737418074
 20
30.8519093441
 11
160.615929528
 21
30.7873819712
  0
LINE
  8
0
 62
7
  6
CONTINUOUS
 10
159.228429528
 20
31.5294468267
 11
159.1128043074
 21
31.4326557675
  0
LINE
  8
0
 62
7
  6
CONTINUOUS
 10
154.1409294177
 20
31.5617105132
 11
154.0253041972
 21
31.4971831403
  0
LINE
  8
0
 62
7
  6
CONTINUOUS
 10
154.1987416972
 20
31.1745462761
 11
154.0831168074
 21
31.1100188581
  0
LINE
  8
0
 62
7
  6
CONTINUOUS
 10
154.3143669177
 20
31.0132277988
 11
154.4299918074
 21
31.0777551716
  0
LINE
  8
0
 62
7
  6
CONTINUOUS
 10
151.8862417523
 20
30.5937998301
 11
152.1753043074
 21
30.5937998301
  0
LINE
  8
0
 62
7
  6
CONTINUOUS
 10
153.2159293074
 20
30.5937998301
 11
153.5049916972
 21
30.5937998301
  0
LINE
  8
0
 62
7
  6
CONTINUOUS
 10
154.5456166972
 20
30.5937998301
 11
154.8924916972
 21
30.5937998301
  0
LINE
  8
0
 62
7
  6
CONTINUOUS
 10
155.5284290869
 20
30.5937998301
 11
155.8174918074
 21
30.5937998301
  0
LINE
  8
0
 62
7
  6
CONTINUOUS
 10
156.279992028
 20
30.5937998301
 11
156.5690540869
 21
30.5937998301
  0
LINE
  8
0
 62
7
  6
CONTINUOUS
 10
157.0315543074
 20
30.5937998301
 11
157.320617028
 21
30.5937998301
  0
LINE
  8
0
 62
7
  6
CONTINUOUS
 10
158.361242028
 20
30.5937998301
 11
158.6503040869
 21
30.5937998301
  0
LINE
  8
0
 62
7
  6
CONTINUOUS
 10
159.922179528
 20
30.5937998301
 11
160.269054528
 21
30.5937998301
  0
LINE
  8
0
 62
7
  6
CONTINUOUS
 10
160.269054528
 20
30.7228545871
 11
159.922179528
 21
30.7228545871
  0
LINE
  8
0
 62
7
  6
CONTINUOUS
 10
154.8924916972
 20
30.7228545871
 11
154.5456166972
 21
30.7228545871
  0
LINE
  8
0
 62
7
  6
CONTINUOUS
 10
159.401867028
 20
30.8519093441
 11
159.1128043074
 21
30.8519093441
  0
LINE
  8
0
 62
7
  6
CONTINUOUS
 10
151.4237418626
 20
30.9164367395
 11
151.1346793074
 21
30.9164367395
  0
LINE
  8
0
 62
7
  6
CONTINUOUS
 10
150.498741835
 20
31.4971831403
 11
150.9034292799
 21
31.4649194539
  0
LINE
  8
0
 62
7
  6
CONTINUOUS
 10
150.9612418074
 20
31.5939741996
 11
150.5565542799
 21
31.626237886
  0
LINE
  8
0
 62
7
  6
CONTINUOUS
 10
159.575304528
 20
30.6260635193
 11
159.922179528
 21
30.5937998301
  0
LINE
  8
0
 62
7
  6
CONTINUOUS
 10
159.922179528
 20
30.7228545871
 11
159.575304528
 21
30.7551182848
  0
LINE
  8
0
 62
7
  6
CONTINUOUS
 10
155.3549915869
 20
31.5939741996
 11
155.0081169177
 21
31.626237886
  0
LINE
  8
0
 62
7
  6
CONTINUOUS
 10
160.1534293074
 20
31.4971831403
 11
160.5003043074
 21
31.4649194539
  0
LINE
  8
0
 62
7
  6
CONTINUOUS
 10
160.5003043074
 20
31.5939741996
 11
160.1534293074
 21
31.626237886
  0
LINE
  8
0
 62
7
  6
CONTINUOUS
 10
157.840929528
 20
31.4971831403
 11
158.0721793074
 21
31.4649194539
  0
LINE
  8
0
 62
7
  6
CONTINUOUS
 10
160.6737418074
 20
31.5617105132
 11
160.5003043074
 21
31.5939741996
  0
LINE
  8
0
 62
7
  6
CONTINUOUS
 10
160.8471793074
 20
30.6905909007
 11
160.9628038663
 21
30.7873819712
  0
LINE
  8
0
 62
7
  6
CONTINUOUS
 10
155.3549915869
 20
30.8841730531
 11
155.1815540869
 21
30.7873819712
  0
LINE
  8
0
 62
7
  6
CONTINUOUS
 10
157.4362415869
 20
31.5294468267
 11
157.320617028
 21
31.4649194539
  0
LINE
  8
0
 62
7
  6
CONTINUOUS
 10
157.320617028
 20
31.3358647082
 11
157.4362415869
 21
31.400392081
  0
LINE
  8
0
 62
7
  6
CONTINUOUS
 10
150.0362418212
 20
31.5617105132
 11
149.8628043005
 21
31.4971831403
  0
LINE
  8
0
 62
7
  6
CONTINUOUS
 10
152.4643666972
 20
31.5939741996
 11
152.2909293626
 21
31.5294468267
  0
LINE
  8
0
 62
7
  6
CONTINUOUS
 10
152.2909293626
 20
31.400392081
 11
152.4643666972
 21
31.4649194539
  0
LINE
  8
0
 62
7
  6
CONTINUOUS
 10
151.0768668626
 20
30.8196456577
 11
150.9034292799
 21
30.7551182848
  0
LINE
  8
0
 62
7
  6
CONTINUOUS
 10
160.5003043074
 20
30.7551182848
 11
160.269054528
 21
30.7228545871
  0
LINE
  8
0
 62
7
  6
CONTINUOUS
 10
154.8924916972
 20
30.5937998301
 11
155.1815540869
 21
30.6260635193
  0
LINE
  8
0
 62
7
  6
CONTINUOUS
 10
160.269054528
 20
30.5937998301
 11
160.615929528
 21
30.6260635193
  0
LINE
  8
0
 62
7
  6
CONTINUOUS
 10
150.5565542799
 20
30.5937998301
 11
150.9612418074
 21
30.6260635193
  0
LINE
  8
0
 62
7
  6
CONTINUOUS
 10
150.9034292799
 20
30.7551182848
 11
150.498741835
 21
30.7228545871
  0
LINE
  8
0
 62
7
  6
CONTINUOUS
 10
154.7768668074
 20
31.1422825445
 11
155.412804528
 21
31.1422825445
  0
LINE
  8
0
 62
7
  6
CONTINUOUS
 10
155.412804528
 20
31.2713373354
 11
154.7768668074
 21
31.2713373354
  0
LINE
  8
0
 62
7
  6
CONTINUOUS
 10
151.1346793074
 20
31.3036010218
 11
151.4237418626
 21
31.3036010218
  0
LINE
  8
0
 62
7
  6
CONTINUOUS
 10
153.9674919177
 20
31.3681283946
 11
154.2565543074
 21
31.3681283946
  0
LINE
  8
0
 62
7
  6
CONTINUOUS
 10
160.6737418074
 20
31.3681283946
 11
160.9628038663
 21
31.3681283946
  0
LINE
  8
0
 62
7
  6
CONTINUOUS
 10
154.6612419177
 20
31.4971831403
 11
155.0081169177
 21
31.4971831403
  0
LINE
  8
0
 62
7
  6
CONTINUOUS
 10
159.8065543074
 20
31.4971831403
 11
160.1534293074
 21
31.4971831403
  0
LINE
  8
0
 62
7
  6
CONTINUOUS
 10
160.1534293074
 20
31.626237886
 11
159.8065543074
 21
31.626237886
  0
LINE
  8
0
 62
7
  6
CONTINUOUS
 10
158.0721793074
 20
31.626237886
 11
157.840929528
 21
31.626237886
  0
LINE
  8
0
 62
7
  6
CONTINUOUS
 10
157.320617028
 20
31.626237886
 11
157.0315543074
 21
31.626237886
  0
LINE
  8
0
 62
7
  6
CONTINUOUS
 10
156.5690540869
 20
31.626237886
 11
156.279992028
 21
31.626237886
  0
LINE
  8
0
 62
7
  6
CONTINUOUS
 10
155.0081169177
 20
31.626237886
 11
154.6612419177
 21
31.626237886
  0
LINE
  8
0
 62
7
  6
CONTINUOUS
 10
152.9268669177
 20
31.626237886
 11
152.6956168074
 21
31.626237886
  0
LINE
  8
0
 62
7
  6
CONTINUOUS
 10
156.279992028
 20
31.9488748406
 11
156.5690540869
 21
31.9488748406
  0
LINE
  8
0
 62
7
  6
CONTINUOUS
 10
156.5690540869
 20
32.1101932727
 11
156.279992028
 21
32.1101932727
  0
LINE
  8
0
 62
7
  6
CONTINUOUS
 10
152.1753043074
 20
32.1101932727
 11
151.8862417523
 21
32.1101932727
  0
LINE
  8
0
 62
7
  6
CONTINUOUS
 10
151.2130860697
 20
32.3970785186
 11
151.6256574183
 21
32.3970785186
  0
LINE
  8
0
 62
7
  6
CONTINUOUS
 10
152.852430332
 20
32.3970785186
 11
154.245872955
 21
32.3970785186
  0
LINE
  8
0
 62
7
  6
CONTINUOUS
 10
154.5737418074
 20
32.3970785186
 11
155.9671844304
 21
32.3970785186
  0
LINE
  8
0
 62
7
  6
CONTINUOUS
 10
157.852430332
 20
32.3970785186
 11
159.245872955
 21
32.3970785186
  0
LINE
  8
0
 62
7
  6
CONTINUOUS
 10
159.5737418074
 20
32.3970785186
 11
160.9671844304
 21
32.3970785186
  0
LINE
  8
0
 62
7
  6
CONTINUOUS
 10
157.6096790869
 20
31.5939741996
 11
157.4362415869
 21
31.5294468267
  0
LINE
  8
0
 62
7
  6
CONTINUOUS
 10
155.1815540869
 20
30.6260635193
 11
155.3549915869
 21
30.6905909007
  0
LINE
  8
0
 62
7
  6
CONTINUOUS
 10
160.615929528
 20
30.6260635193
 11
160.8471793074
 21
30.6905909007
  0
LINE
  8
0
 62
7
  6
CONTINUOUS
 10
160.615929528
 20
30.7873819712
 11
160.5003043074
 21
30.7551182848
  0
LINE
  8
0
 62
7
  6
CONTINUOUS
 10
159.575304528
 20
31.4649194539
 11
159.8065543074
 21
31.4971831403
  0
LINE
  8
0
 62
7
  6
CONTINUOUS
 10
157.6096790869
 20
31.4649194539
 11
157.840929528
 21
31.4971831403
  0
LINE
  8
0
 62
7
  6
CONTINUOUS
 10
154.5456166972
 20
31.1100188581
 11
154.7768668074
 21
31.1422825445
  0
LINE
  8
0
 62
7
  6
CONTINUOUS
 10
157.840929528
 20
31.626237886
 11
157.6096790869
 21
31.5939741996
  0
LINE
  8
0
 62
7
  6
CONTINUOUS
 10
154.4299918074
 20
31.4649194539
 11
154.6612419177
 21
31.4971831403
  0
LINE
  8
0
 62
7
  6
CONTINUOUS
 10
159.8065543074
 20
31.626237886
 11
159.4596793074
 21
31.5939741996
  0
LINE
  8
0
 62
7
  6
CONTINUOUS
 10
154.7768668074
 20
31.2713373354
 11
154.4299918074
 21
31.2390736489
  0
LINE
  8
0
 62
7
  6
CONTINUOUS
 10
150.5565542799
 20
31.626237886
 11
150.2096793212
 21
31.5939741996
  0
LINE
  8
0
 62
7
  6
CONTINUOUS
 10
154.6612419177
 20
31.626237886
 11
154.2565543074
 21
31.5939741996
  0
LINE
  8
0
 62
7
  6
CONTINUOUS
 10
152.0327582009
 20
33.5446195022
 11
151.3770204959
 21
33.5446195022
  0
LINE
  8
0
 62
7
  6
CONTINUOUS
 10
157.4362415869
 20
31.400392081
 11
157.6096790869
 21
31.4649194539
  0
LINE
  8
0
 62
7
  6
CONTINUOUS
 10
159.4596793074
 20
31.4326557675
 11
159.575304528
 21
31.4649194539
  0
LINE
  8
0
 62
7
  6
CONTINUOUS
 10
159.4596793074
 20
31.5939741996
 11
159.228429528
 21
31.5294468267
  0
LINE
  8
0
 62
7
  6
CONTINUOUS
 10
155.1815540869
 20
30.7873819712
 11
154.8924916972
 21
30.7228545871
  0
LINE
  8
0
 62
7
  6
CONTINUOUS
 10
152.4643666972
 20
31.4649194539
 11
152.6956168074
 21
31.4971831403
  0
LINE
  8
0
 62
7
  6
CONTINUOUS
 10
152.6956168074
 20
31.626237886
 11
152.4643666972
 21
31.5939741996
  0
LINE
  8
0
 62
7
  6
CONTINUOUS
 10
150.2674918074
 20
31.4649194539
 11
150.498741835
 21
31.4971831403
  0
LINE
  8
0
 62
7
  6
CONTINUOUS
 10
156.7868565615
 20
35.0200293383
 11
157.4425942664
 21
35.0200293383
  0
LINE
  8
0
 62
7
  6
CONTINUOUS
 10
154.4299918074
 20
31.0777551716
 11
154.5456166972
 21
31.1100188581
  0
LINE
  8
0
 62
7
  6
CONTINUOUS
 10
154.4299918074
 20
31.2390736489
 11
154.1987416972
 21
31.1745462761
  0
LINE
  8
0
 62
7
  6
CONTINUOUS
 10
154.3143669177
 20
31.4326557675
 11
154.4299918074
 21
31.4649194539
  0
LINE
  8
0
 62
7
  6
CONTINUOUS
 10
150.9612418074
 20
30.6260635193
 11
151.1924917523
 21
30.6905909007
  0
LINE
  8
0
 62
7
  6
CONTINUOUS
 10
154.2565543074
 20
31.5939741996
 11
154.1409294177
 21
31.5617105132
  0
LINE
  8
0
 62
7
  6
CONTINUOUS
 10
150.2096793212
 20
31.5939741996
 11
150.0362418212
 21
31.5617105132
  0
LINE
  8
0
 62
7
  6
CONTINUOUS
 10
160.9671844304
 20
36.1675703219
 11
159.5737418074
 21
36.1675703219
  0
LINE
  8
0
 62
7
  6
CONTINUOUS
 10
157.6065286927
 20
36.1675703219
 11
157.1939573441
 21
36.1675703219
  0
LINE
  8
0
 62
7
  6
CONTINUOUS
 10
155.9671844304
 20
36.1675703219
 11
154.5737418074
 21
36.1675703219
  0
LINE
  8
0
 62
7
  6
CONTINUOUS
 10
154.245872955
 20
36.1675703219
 11
152.852430332
 21
36.1675703219
  0
LINE
  8
0
 62
7
  6
CONTINUOUS
 10
150.9671844304
 20
36.1675703219
 11
149.5737418074
 21
36.1675703219
  0
LINE
  8
0
 62
7
  6
CONTINUOUS
 10
150.1518667936
 20
31.4326557675
 11
150.2674918074
 21
31.4649194539
  0
CIRCLE
  8
0
 62
7
  6
CONTINUOUS
 10
160.2704631189
 20
38.5036358957
 40
2.0901639344
  0
ARC
  8
0
 62
7
  6
CONTINUOUS
 10
151.2130860697
 20
34.0364227809
 40
1.6393442623
 50
180.0
 51
270.0
  0
ARC
  8
0
 62
7
  6
CONTINUOUS
 10
157.6065286927
 20
34.5282260596
 40
1.6393442623
 50
0.0
 51
90.0
  0
ARC
  8
0
 62
7
  6
CONTINUOUS
 10
151.6256574183
 20
33.8724883547
 40
1.4754098361
 50
270.0
 51
326.2510114041
  0
ARC
  8
0
 62
7
  6
CONTINUOUS
 10
157.1939573441
 20
34.6921604858
 40
1.4754098361
 50
90.0
 51
146.2510114041
  0
ARC
  8
0
 62
7
  6
CONTINUOUS
 10
152.0327582009
 20
34.3642916334
 40
0.8196721311
 50
270.0
 51
360.0
  0
ARC
  8
0
 62
7
  6
CONTINUOUS
 10
156.7868565615
 20
34.2003572071
 40
0.8196721311
 50
90.0
 51
180.0
  0
ARC
  8
0
 62
7
  6
CONTINUOUS
 10
151.3770204959
 20
33.9544555678
 40
0.4098360656
 50
180.0
 51
270.0
  0
ARC
  8
0
 62
7
  6
CONTINUOUS
 10
157.4425942664
 20
34.6101932727
 40
0.4098360656
 50
0.0
 51
90.0
  0
SOLID
  8
0
 62
7
  6
CONTINUOUS
 10
156.279992028
 20
31.9488752009
 11
156.279992028
 21
32.1101936845
 12
156.5690540869
 22
31.9488752009
 13
156.5690540869
 23
32.1101936845
  0
SOLID
  8
0
 62
7
  6
CONTINUOUS
 10
150.5565542799
 20
31.6262382337
 11
150.9612418074
 21
31.5939740028
 12
150.2096793212
 22
31.5939740028
 13
150.2096793212
 23
31.5939740028
  0
SOLID
  8
0
 62
7
  6
CONTINUOUS
 10
150.0362418212
 20
31.5617111435
 11
150.2096793212
 21
31.5939740028
 12
150.9612418074
 22
31.5939740028
 13
150.9612418074
 23
31.5939740028
  0
SOLID
  8
0
 62
7
  6
CONTINUOUS
 10
150.9612418074
 20
31.5939740028
 11
151.1924917523
 21
31.5294468402
 12
150.0362418212
 22
31.5617111435
 13
150.0362418212
 23
31.5617111435
  0
SOLID
  8
0
 62
7
  6
CONTINUOUS
 10
149.8628043005
 20
31.49718259
 11
150.0362418212
 21
31.5617111435
 12
151.1924917523
 22
31.5294468402
 13
151.1924917523
 23
31.5294468402
  0
SOLID
  8
0
 62
7
  6
CONTINUOUS
 10
149.8628043005
 20
31.49718259
 11
151.1924917523
 21
31.5294468402
 12
150.498741835
 22
31.49718259
 13
150.498741835
 23
31.49718259
  0
SOLID
  8
0
 62
7
  6
CONTINUOUS
 10
150.498741835
 20
31.49718259
 11
151.1924917523
 21
31.5294468402
 12
150.9034292799
 22
31.4649197501
 13
150.9034292799
 23
31.4649197501
  0
SOLID
  8
0
 62
7
  6
CONTINUOUS
 10
151.1924917523
 20
31.5294468402
 11
151.3659292523
 21
31.4326554468
 12
150.9034292799
 22
31.4649197501
 13
150.9034292799
 23
31.4649197501
  0
SOLID
  8
0
 62
7
  6
CONTINUOUS
 10
151.0768668626
 20
31.4003926599
 11
150.9034292799
 21
31.4649197501
 12
151.3659292523
 22
31.4326554468
 13
151.3659292523
 23
31.4326554468
  0
SOLID
  8
0
 62
7
  6
CONTINUOUS
 10
151.0768668626
 20
31.4003926599
 11
151.3659292523
 21
31.4326554468
 12
151.1346793074
 22
31.3036013776
 13
151.1346793074
 23
31.3036013776
  0
SOLID
  8
0
 62
7
  6
CONTINUOUS
 10
151.3659292523
 20
31.4326554468
 11
151.4237418626
 21
31.3036013776
 12
151.1346793074
 22
31.3036013776
 13
151.1346793074
 23
31.3036013776
  0
SOLID
  8
0
 62
7
  6
CONTINUOUS
 10
152.4643666972
 20
31.5939739754
 11
152.6956168074
 21
31.6262382787
 12
152.9268669177
 22
31.6262382787
 13
152.9268669177
 23
31.6262382787
  0
SOLID
  8
0
 62
7
  6
CONTINUOUS
 10
152.9268669177
 20
31.6262382787
 11
153.1003044177
 21
31.5939739754
 12
152.4643666972
 22
31.5939739754
 13
152.4643666972
 23
31.5939739754
  0
SOLID
  8
0
 62
7
  6
CONTINUOUS
 10
152.2909293626
 20
31.5294468852
 11
152.4643666972
 21
31.5939739754
 12
153.1003044177
 22
31.5939739754
 13
153.1003044177
 23
31.5939739754
  0
SOLID
  8
0
 62
7
  6
CONTINUOUS
 10
153.1003044177
 20
31.5939739754
 11
153.2737419177
 21
31.5294468852
 12
152.2909293626
 22
31.5294468852
 13
152.2909293626
 23
31.5294468852
  0
SOLID
  8
0
 62
7
  6
CONTINUOUS
 10
153.2737419177
 20
31.5294468852
 11
152.6956168074
 21
31.4971825369
 12
152.2909293626
 22
31.5294468852
 13
152.2909293626
 23
31.5294468852
  0
SOLID
  8
0
 62
7
  6
CONTINUOUS
 10
152.1753043074
 20
31.4649197951
 11
152.2909293626
 21
31.5294468852
 12
152.6956168074
 22
31.4971825369
 13
152.6956168074
 23
31.4971825369
  0
SOLID
  8
0
 62
7
  6
CONTINUOUS
 10
152.6956168074
 20
31.4971825369
 11
152.4643666972
 21
31.4649197951
 12
152.1753043074
 22
31.4649197951
 13
152.1753043074
 23
31.4649197951
  0
SOLID
  8
0
 62
7
  6
CONTINUOUS
 10
152.6956168074
 20
31.4971825369
 11
153.2737419177
 21
31.5294468852
 12
152.9268669177
 22
31.4649197951
 13
152.9268669177
 23
31.4649197951
  0
SOLID
  8
0
 62
7
  6
CONTINUOUS
 10
153.2737419177
 20
31.5294468852
 11
153.3893668074
 21
31.4649197951
 12
152.9268669177
 22
31.4649197951
 13
152.9268669177
 23
31.4649197951
  0
SOLID
  8
0
 62
7
  6
CONTINUOUS
 10
153.0424918074
 20
31.4326554468
 11
152.9268669177
 21
31.4649197951
 12
153.3893668074
 22
31.4649197951
 13
153.3893668074
 23
31.4649197951
  0
SOLID
  8
0
 62
7
  6
CONTINUOUS
 10
153.3893668074
 20
31.4649197951
 11
153.4471794177
 21
31.4003927049
 12
153.0424918074
 22
31.4326554468
 13
153.0424918074
 23
31.4326554468
  0
SOLID
  8
0
 62
7
  6
CONTINUOUS
 10
153.1581166972
 20
31.3681283566
 11
153.0424918074
 21
31.4326554468
 12
153.4471794177
 22
31.4003927049
 13
153.4471794177
 23
31.4003927049
  0
SOLID
  8
0
 62
7
  6
CONTINUOUS
 10
153.1581166972
 20
31.3681283566
 11
153.4471794177
 21
31.4003927049
 12
153.2159293074
 22
31.2390742213
 13
153.2159293074
 23
31.2390742213
  0
SOLID
  8
0
 62
7
  6
CONTINUOUS
 10
153.4471794177
 20
31.4003927049
 11
153.5049916972
 21
31.2390742213
 12
153.2159293074
 22
31.2390742213
 13
153.2159293074
 23
31.2390742213
  0
SOLID
  8
0
 62
7
  6
CONTINUOUS
 10
152.4643666972
 20
31.4649197951
 11
152.2909293626
 21
31.4003927049
 12
152.1753043074
 22
31.4649197951
 13
152.1753043074
 23
31.4649197951
  0
SOLID
  8
0
 62
7
  6
CONTINUOUS
 10
152.2909293626
 20
31.4003927049
 11
152.1753043074
 21
31.3358640533
 12
152.1753043074
 22
31.4649197951
 13
152.1753043074
 23
31.4649197951
  0
SOLID
  8
0
 62
7
  6
CONTINUOUS
 10
152.1753043074
 20
31.3358640533
 11
151.8862417523
 21
30.5938002869
 12
152.1753043074
 22
31.4649197951
 13
152.1753043074
 23
31.4649197951
  0
SOLID
  8
0
 62
7
  6
CONTINUOUS
 10
152.1753043074
 20
31.4649197951
 11
151.8862417523
 21
30.5938002869
 12
152.1753043074
 22
32.1101937295
 13
152.1753043074
 23
32.1101937295
  0
SOLID
  8
0
 62
7
  6
CONTINUOUS
 10
151.8862417523
 20
30.5938002869
 11
151.8862417523
 21
32.1101937295
 12
152.1753043074
 22
32.1101937295
 13
152.1753043074
 23
32.1101937295
  0
SOLID
  8
0
 62
7
  6
CONTINUOUS
 10
152.1753043074
 20
31.3358640533
 11
152.1753043074
 21
30.5938002869
 12
151.8862417523
 22
30.5938002869
 13
151.8862417523
 23
30.5938002869
  0
SOLID
  8
0
 62
7
  6
CONTINUOUS
 10
153.2159293074
 20
30.5938002869
 11
153.2159293074
 21
31.2390742213
 12
153.5049916972
 22
31.2390742213
 13
153.5049916972
 23
31.2390742213
  0
SOLID
  8
0
 62
7
  6
CONTINUOUS
 10
153.5049916972
 20
31.2390742213
 11
153.5049916972
 21
30.5938002869
 12
153.2159293074
 22
30.5938002869
 13
153.2159293074
 23
30.5938002869
  0
SOLID
  8
0
 62
7
  6
CONTINUOUS
 10
154.2565543074
 20
31.5939738288
 11
154.6612419177
 21
31.6262385959
 12
155.0081169177
 22
31.6262385959
 13
155.0081169177
 23
31.6262385959
  0
SOLID
  8
0
 62
7
  6
CONTINUOUS
 10
155.0081169177
 20
31.6262385959
 11
155.3549915869
 21
31.5939738288
 12
154.2565543074
 22
31.5939738288
 13
154.2565543074
 23
31.5939738288
  0
SOLID
  8
0
 62
7
  6
CONTINUOUS
 10
154.1409294177
 20
31.5617111435
 11
154.2565543074
 21
31.5939738288
 12
155.3549915869
 22
31.5939738288
 13
155.3549915869
 23
31.5939738288
  0
SOLID
  8
0
 62
7
  6
CONTINUOUS
 10
155.3549915869
 20
31.5939738288
 11
155.5284290869
 21
31.5294468402
 12
154.1409294177
 22
31.5617111435
 13
154.1409294177
 23
31.5617111435
  0
SOLID
  8
0
 62
7
  6
CONTINUOUS
 10
154.0253041972
 20
31.4971826249
 11
154.1409294177
 21
31.5617111435
 12
155.5284290869
 22
31.5294468402
 13
155.5284290869
 23
31.5294468402
  0
SOLID
  8
0
 62
7
  6
CONTINUOUS
 10
154.0253041972
 20
31.4971826249
 11
155.5284290869
 21
31.5294468402
 12
154.6612419177
 22
31.4971826249
 13
154.6612419177
 23
31.4971826249
  0
SOLID
  8
0
 62
7
  6
CONTINUOUS
 10
154.6612419177
 20
31.4971826249
 11
155.5284290869
 21
31.5294468402
 12
155.0081169177
 22
31.4971826249
 13
155.0081169177
 23
31.4971826249
  0
SOLID
  8
0
 62
7
  6
CONTINUOUS
 10
155.0081169177
 20
31.4971826249
 11
155.5284290869
 21
31.5294468402
 12
155.239367028
 22
31.4649194065
 13
155.239367028
 23
31.4649194065
  0
SOLID
  8
0
 62
7
  6
CONTINUOUS
 10
155.5284290869
 20
31.5294468402
 11
155.6440543074
 21
31.4649194065
 12
155.239367028
 22
31.4649194065
 13
155.239367028
 23
31.4649194065
  0
SOLID
  8
0
 62
7
  6
CONTINUOUS
 10
153.9674919177
 20
31.4326554138
 11
154.0253041972
 21
31.4971826249
 12
154.6612419177
 22
31.4971826249
 13
154.6612419177
 23
31.4971826249
  0
SOLID
  8
0
 62
7
  6
CONTINUOUS
 10
155.3549915869
 20
31.4326554138
 11
155.239367028
 21
31.4649194065
 12
155.6440543074
 22
31.4649194065
 13
155.6440543074
 23
31.4649194065
  0
SOLID
  8
0
 62
7
  6
CONTINUOUS
 10
155.3549915869
 20
31.4326554138
 11
155.6440543074
 21
31.4649194065
 12
155.412804528
 22
31.3681282026
 13
155.412804528
 23
31.3681282026
  0
SOLID
  8
0
 62
7
  6
CONTINUOUS
 10
155.6440543074
 20
31.4649194065
 11
155.7018665869
 21
31.3681282026
 12
155.412804528
 22
31.3681282026
 13
155.412804528
 23
31.3681282026
  0
SOLID
  8
0
 62
7
  6
CONTINUOUS
 10
155.412804528
 20
31.2713369632
 11
155.412804528
 21
31.3681282026
 12
155.7018665869
 22
31.3681282026
 13
155.7018665869
 23
31.3681282026
  0
SOLID
  8
0
 62
7
  6
CONTINUOUS
 10
155.412804528
 20
31.2713369632
 11
155.7018665869
 21
31.3681282026
 12
155.412804528
 22
31.1422827828
 13
155.412804528
 23
31.1422827828
  0
SOLID
  8
0
 62
7
  6
CONTINUOUS
 10
155.412804528
 20
31.1422827828
 11
155.7018665869
 21
31.3681282026
 12
155.412804528
 22
30.9487004259
 13
155.412804528
 23
30.9487004259
  0
SOLID
  8
0
 62
7
  6
CONTINUOUS
 10
155.7018665869
 20
31.3681282026
 11
155.7018665869
 21
30.8519086025
 12
155.412804528
 22
30.9487004259
 13
155.412804528
 23
30.9487004259
  0
SOLID
  8
0
 62
7
  6
CONTINUOUS
 10
157.6096790869
 20
31.5939736268
 11
157.840929528
 21
31.6262383465
 12
158.0721793074
 22
31.6262383465
 13
158.0721793074
 23
31.6262383465
  0
SOLID
  8
0
 62
7
  6
CONTINUOUS
 10
158.0721793074
 20
31.6262383465
 11
158.2456168074
 21
31.5939736268
 12
157.6096790869
 22
31.5939736268
 13
157.6096790869
 23
31.5939736268
  0
SOLID
  8
0
 62
7
  6
CONTINUOUS
 10
157.4362415869
 20
31.5294472848
 11
157.6096790869
 21
31.5939736268
 12
158.2456168074
 22
31.5939736268
 13
158.2456168074
 23
31.5939736268
  0
SOLID
  8
0
 62
7
  6
CONTINUOUS
 10
158.2456168074
 20
31.5939736268
 11
158.4190543074
 21
31.5294472848
 12
157.4362415869
 22
31.5294472848
 13
157.4362415869
 23
31.5294472848
  0
SOLID
  8
0
 62
7
  6
CONTINUOUS
 10
158.4190543074
 20
31.5294472848
 11
157.840929528
 21
31.4971825369
 12
157.4362415869
 22
31.5294472848
 13
157.4362415869
 23
31.5294472848
  0
SOLID
  8
0
 62
7
  6
CONTINUOUS
 10
157.320617028
 20
31.4649199103
 11
157.4362415869
 21
31.5294472848
 12
157.840929528
 22
31.4971825369
 13
157.840929528
 23
31.4971825369
  0
SOLID
  8
0
 62
7
  6
CONTINUOUS
 10
157.840929528
 20
31.4971825369
 11
157.6096790869
 21
31.4649199103
 12
157.320617028
 22
31.4649199103
 13
157.320617028
 23
31.4649199103
  0
SOLID
  8
0
 62
7
  6
CONTINUOUS
 10
157.840929528
 20
31.4971825369
 11
158.4190543074
 21
31.5294472848
 12
158.0721793074
 22
31.4649199103
 13
158.0721793074
 23
31.4649199103
  0
SOLID
  8
0
 62
7
  6
CONTINUOUS
 10
158.4190543074
 20
31.5294472848
 11
158.534679528
 21
31.4649199103
 12
158.0721793074
 22
31.4649199103
 13
158.0721793074
 23
31.4649199103
  0
SOLID
  8
0
 62
7
  6
CONTINUOUS
 10
158.187804528
 20
31.4326554468
 11
158.0721793074
 21
31.4649199103
 12
158.534679528
 22
31.4649199103
 13
158.534679528
 23
31.4649199103
  0
SOLID
  8
0
 62
7
  6
CONTINUOUS
 10
158.187804528
 20
31.4326554468
 11
158.534679528
 21
31.4649199103
 12
158.3034290869
 22
31.3681288486
 13
158.3034290869
 23
31.3681288486
  0
SOLID
  8
0
 62
7
  6
CONTINUOUS
 10
158.534679528
 20
31.4649199103
 11
158.5924918074
 21
31.3681288486
 12
158.3034290869
 22
31.3681288486
 13
158.3034290869
 23
31.3681288486
  0
SOLID
  8
0
 62
7
  6
CONTINUOUS
 10
158.361242028
 20
31.2068093799
 11
158.3034290869
 21
31.3681288486
 12
158.5924918074
 22
31.3681288486
 13
158.5924918074
 23
31.3681288486
  0
SOLID
  8
0
 62
7
  6
CONTINUOUS
 10
158.5924918074
 20
31.3681288486
 11
158.6503040869
 21
31.2068093799
 12
158.361242028
 22
31.2068093799
 13
158.361242028
 23
31.2068093799
  0
SOLID
  8
0
 62
7
  6
CONTINUOUS
 10
157.6096790869
 20
31.4649199103
 11
157.4362415869
 21
31.4003926599
 12
157.320617028
 22
31.4649199103
 13
157.320617028
 23
31.4649199103
  0
SOLID
  8
0
 62
7
  6
CONTINUOUS
 10
157.4362415869
 20
31.4003926599
 11
157.320617028
 21
31.3358640533
 12
157.320617028
 22
31.4649199103
 13
157.320617028
 23
31.4649199103
  0
SOLID
  8
0
 62
7
  6
CONTINUOUS
 10
157.320617028
 20
31.3358640533
 11
157.0315543074
 21
30.5938003547
 12
157.320617028
 22
31.4649199103
 13
157.320617028
 23
31.4649199103
  0
SOLID
  8
0
 62
7
  6
CONTINUOUS
 10
157.320617028
 20
31.4649199103
 11
157.0315543074
 21
30.5938003547
 12
157.320617028
 22
31.6262383465
 13
157.320617028
 23
31.6262383465
  0
SOLID
  8
0
 62
7
  6
CONTINUOUS
 10
157.0315543074
 20
30.5938003547
 11
157.0315543074
 21
31.6262383465
 12
157.320617028
 22
31.6262383465
 13
157.320617028
 23
31.6262383465
  0
SOLID
  8
0
 62
7
  6
CONTINUOUS
 10
157.320617028
 20
31.3358640533
 11
157.320617028
 21
30.5938003547
 12
157.0315543074
 22
30.5938003547
 13
157.0315543074
 23
30.5938003547
  0
SOLID
  8
0
 62
7
  6
CONTINUOUS
 10
158.361242028
 20
30.5938003547
 11
158.361242028
 21
31.2068093799
 12
158.6503040869
 22
31.2068093799
 13
158.6503040869
 23
31.2068093799
  0
SOLID
  8
0
 62
7
  6
CONTINUOUS
 10
158.6503040869
 20
31.2068093799
 11
158.6503040869
 21
30.5938003547
 12
158.361242028
 22
30.5938003547
 13
158.361242028
 23
30.5938003547
  0
SOLID
  8
0
 62
7
  6
CONTINUOUS
 10
159.4596793074
 20
31.5939739474
 11
159.8065543074
 21
31.6262381969
 12
160.1534293074
 22
31.6262381969
 13
160.1534293074
 23
31.6262381969
  0
SOLID
  8
0
 62
7
  6
CONTINUOUS
 10
160.1534293074
 20
31.6262381969
 11
160.5003043074
 21
31.5939739474
 12
159.4596793074
 22
31.5939739474
 13
159.4596793074
 23
31.5939739474
  0
SOLID
  8
0
 62
7
  6
CONTINUOUS
 10
159.228429528
 20
31.5294468402
 11
159.4596793074
 21
31.5939739474
 12
160.5003043074
 22
31.5939739474
 13
160.5003043074
 23
31.5939739474
  0
SOLID
  8
0
 62
7
  6
CONTINUOUS
 10
159.228429528
 20
31.5294468402
 11
160.5003043074
 21
31.5939739304
 12
160.6737418074
 22
31.5617111435
 13
160.6737418074
 23
31.5617111435
  0
SOLID
  8
0
 62
7
  6
CONTINUOUS
 10
159.228429528
 20
31.5294468402
 11
160.6737418074
 21
31.5617111435
 12
159.8065543074
 22
31.4971825592
 13
159.8065543074
 23
31.4971825592
  0
SOLID
  8
0
 62
7
  6
CONTINUOUS
 10
159.8065543074
 20
31.4971825592
 11
160.6737418074
 21
31.5617111435
 12
160.1534293074
 22
31.4971825592
 13
160.1534293074
 23
31.4971825592
  0
SOLID
  8
0
 62
7
  6
CONTINUOUS
 10
160.6737418074
 20
31.5617111435
 11
160.8471793074
 21
31.4971825592
 12
160.1534293074
 22
31.4971825592
 13
160.1534293074
 23
31.4971825592
  0
SOLID
  8
0
 62
7
  6
CONTINUOUS
 10
160.5003043074
 20
31.4649197501
 11
160.1534293074
 21
31.4971825592
 12
160.8471793074
 22
31.4971825592
 13
160.8471793074
 23
31.4971825592
  0
SOLID
  8
0
 62
7
  6
CONTINUOUS
 10
159.1128043074
 20
31.4326555427
 11
159.228429528
 21
31.5294468402
 12
159.8065543074
 22
31.4971825592
 13
159.8065543074
 23
31.4971825592
  0
SOLID
  8
0
 62
7
  6
CONTINUOUS
 10
160.5003043074
 20
31.4649197501
 11
160.8471793074
 21
31.4971825592
 12
160.615929528
 22
31.4326555427
 13
160.615929528
 23
31.4326555427
  0
SOLID
  8
0
 62
7
  6
CONTINUOUS
 10
160.615929528
 20
31.4326555427
 11
160.8471793074
 21
31.4971825592
 12
160.6737418074
 22
31.3681283005
 13
160.6737418074
 23
31.3681283005
  0
SOLID
  8
0
 62
7
  6
CONTINUOUS
 10
160.8471793074
 20
31.4971825592
 11
160.9628038663
 21
31.3681283005
 12
160.6737418074
 22
31.3681283005
 13
160.6737418074
 23
31.3681283005
  0
SOLID
  8
0
 62
7
  6
CONTINUOUS
 10
150.2674918074
 20
31.4649197501
 11
149.7471793074
 21
31.4326554237
 12
150.498741835
 22
31.4971824493
 13
150.498741835
 23
31.4971824493
  0
SOLID
  8
0
 62
7
  6
CONTINUOUS
 10
149.7471793074
 20
31.4326554237
 11
149.8628043005
 21
31.4971824493
 12
150.498741835
 22
31.4971824493
 13
150.498741835
 23
31.4971824493
  0
SOLID
  8
0
 62
7
  6
CONTINUOUS
 10
150.2674918074
 20
31.4649197501
 11
150.1518667936
 21
31.4326554237
 12
149.7471793074
 22
31.4326554237
 13
149.7471793074
 23
31.4326554237
  0
SOLID
  8
0
 62
7
  6
CONTINUOUS
 10
149.6315543091
 20
31.3036012664
 11
149.7471793074
 21
31.4326554237
 12
150.1518667936
 22
31.4326554237
 13
150.1518667936
 23
31.4326554237
  0
SOLID
  8
0
 62
7
  6
CONTINUOUS
 10
153.9674919177
 20
31.4326554237
 11
154.6612419177
 21
31.4971825369
 12
154.4299918074
 22
31.4649197501
 13
154.4299918074
 23
31.4649197501
  0
SOLID
  8
0
 62
7
  6
CONTINUOUS
 10
154.4299918074
 20
31.4649197501
 11
154.3143669177
 21
31.4326554237
 12
153.9674919177
 22
31.4326554237
 13
153.9674919177
 23
31.4326554237
  0
SOLID
  8
0
 62
7
  6
CONTINUOUS
 10
153.9674919177
 20
31.3681283335
 11
153.9674919177
 21
31.4326554237
 12
154.3143669177
 22
31.4326554237
 13
154.3143669177
 23
31.4326554237
  0
SOLID
  8
0
 62
7
  6
CONTINUOUS
 10
154.3143669177
 20
31.4326554237
 11
154.2565543074
 21
31.3681283335
 12
153.9674919177
 22
31.3681283335
 13
153.9674919177
 23
31.3681283335
  0
SOLID
  8
0
 62
7
  6
CONTINUOUS
 10
159.1128043074
 20
31.4326555528
 11
159.8065543074
 21
31.4971825369
 12
159.575304528
 22
31.4649197501
 13
159.575304528
 23
31.4649197501
  0
SOLID
  8
0
 62
7
  6
CONTINUOUS
 10
159.575304528
 20
31.4649197501
 11
159.4596793074
 21
31.4326555528
 12
159.1128043074
 22
31.4326555528
 13
159.1128043074
 23
31.4326555528
  0
SOLID
  8
0
 62
7
  6
CONTINUOUS
 10
159.1128043074
 20
31.3681284626
 11
159.1128043074
 21
31.4326555528
 12
159.4596793074
 22
31.4326555528
 13
159.4596793074
 23
31.4326555528
  0
SOLID
  8
0
 62
7
  6
CONTINUOUS
 10
159.4596793074
 20
31.4326555528
 11
159.401867028
 21
31.3681284626
 12
159.1128043074
 22
31.3681284626
 13
159.1128043074
 23
31.3681284626
  0
SOLID
  8
0
 62
7
  6
CONTINUOUS
 10
159.228429528
 20
31.2390741763
 11
159.1128043074
 21
31.3681284626
 12
159.401867028
 22
31.3681284626
 13
159.401867028
 23
31.3681284626
  0
SOLID
  8
0
 62
7
  6
CONTINUOUS
 10
149.6315543091
 20
31.3036012664
 11
150.1518667936
 21
31.4326554468
 12
149.9784292936
 22
31.3358640533
 13
149.9784292936
 23
31.3358640533
  0
SOLID
  8
0
 62
7
  6
CONTINUOUS
 10
149.9784292936
 20
31.3358640533
 11
149.9206168074
 21
31.2713369632
 12
149.6315543091
 22
31.3036012664
 13
149.6315543091
 23
31.3036012664
  0
SOLID
  8
0
 62
7
  6
CONTINUOUS
 10
149.5737418074
 20
31.1100184796
 11
149.6315543091
 21
31.3036012664
 12
149.9206168074
 22
31.2713369632
 13
149.9206168074
 23
31.2713369632
  0
SOLID
  8
0
 62
7
  6
CONTINUOUS
 10
154.4299918074
 20
31.2390741763
 11
154.7768668074
 21
31.271336924
 12
155.412804528
 22
31.271336924
 13
155.412804528
 23
31.271336924
  0
SOLID
  8
0
 62
7
  6
CONTINUOUS
 10
154.4299918074
 20
31.2390741763
 11
155.412804528
 21
31.271336924
 12
154.1987416972
 22
31.1745462761
 13
154.1987416972
 23
31.1745462761
  0
SOLID
  8
0
 62
7
  6
CONTINUOUS
 10
154.1987416972
 20
31.1745462761
 11
155.412804528
 21
31.271336924
 12
154.7768668074
 22
31.1422827436
 13
154.7768668074
 23
31.1422827436
  0
SOLID
  8
0
 62
7
  6
CONTINUOUS
 10
155.412804528
 20
31.271336924
 11
155.412804528
 21
31.1422827436
 12
154.7768668074
 22
31.1422827436
 13
154.7768668074
 23
31.1422827436
  0
SOLID
  8
0
 62
7
  6
CONTINUOUS
 10
159.228429528
 20
31.2390745501
 11
159.401867028
 21
31.3681283566
 12
159.4596793074
 22
31.3036012664
 13
159.4596793074
 23
31.3036012664
  0
SOLID
  8
0
 62
7
  6
CONTINUOUS
 10
159.4596793074
 20
31.3036012664
 11
159.6331168074
 21
31.2390745501
 12
159.228429528
 22
31.2390745501
 13
159.228429528
 23
31.2390745501
  0
SOLID
  8
0
 62
7
  6
CONTINUOUS
 10
159.4596793074
 20
31.1422827828
 11
159.228429528
 21
31.2390745501
 12
159.6331168074
 22
31.2390745501
 13
159.6331168074
 23
31.2390745501
  0
SOLID
  8
0
 62
7
  6
CONTINUOUS
 10
159.6331168074
 20
31.2390745501
 11
160.615929528
 21
31.0777556927
 12
159.4596793074
 22
31.1422827828
 13
159.4596793074
 23
31.1422827828
  0
SOLID
  8
0
 62
7
  6
CONTINUOUS
 10
160.442492028
 20
30.9809646623
 11
159.4596793074
 21
31.1422827828
 12
160.615929528
 22
31.0777556927
 13
160.615929528
 23
31.0777556927
  0
SOLID
  8
0
 62
7
  6
CONTINUOUS
 10
160.615929528
 20
31.0777556927
 11
160.8471793074
 21
30.9809646623
 12
160.442492028
 22
30.9809646623
 13
160.442492028
 23
30.9809646623
  0
SOLID
  8
0
 62
7
  6
CONTINUOUS
 10
160.615929528
 20
30.9164372091
 11
160.442492028
 21
30.9809646623
 12
160.8471793074
 22
30.9809646623
 13
160.8471793074
 23
30.9809646623
  0
SOLID
  8
0
 62
7
  6
CONTINUOUS
 10
160.615929528
 20
30.9164372091
 11
160.8471793074
 21
30.9809646623
 12
160.6737418074
 22
30.8519089441
 13
160.6737418074
 23
30.8519089441
  0
SOLID
  8
0
 62
7
  6
CONTINUOUS
 10
160.8471793074
 20
30.9809646623
 11
160.9628038663
 21
30.8519089441
 12
160.6737418074
 22
30.8519089441
 13
160.6737418074
 23
30.8519089441
  0
SOLID
  8
0
 62
7
  6
CONTINUOUS
 10
160.615929528
 20
30.7873818593
 11
160.6737418074
 21
30.8519089441
 12
160.9628038663
 22
30.8519089441
 13
160.9628038663
 23
30.8519089441
  0
SOLID
  8
0
 62
7
  6
CONTINUOUS
 10
160.9628038663
 20
30.8519089441
 11
160.9628038663
 21
30.7873818593
 12
160.615929528
 22
30.7873818593
 13
160.615929528
 23
30.7873818593
  0
SOLID
  8
0
 62
7
  6
CONTINUOUS
 10
160.5003043074
 20
30.7551187255
 11
160.615929528
 21
30.7873818593
 12
160.9628038663
 22
30.7873818593
 13
160.9628038663
 23
30.7873818593
  0
SOLID
  8
0
 62
7
  6
CONTINUOUS
 10
160.5003043074
 20
30.7551187255
 11
160.9628038663
 21
30.7873818593
 12
160.269054528
 22
30.7228547745
 13
160.269054528
 23
30.7228547745
  0
SOLID
  8
0
 62
7
  6
CONTINUOUS
 10
160.9628038663
 20
30.7873818593
 11
160.8471793074
 21
30.6905916353
 12
160.269054528
 22
30.7228547745
 13
160.269054528
 23
30.7228547745
  0
SOLID
  8
0
 62
7
  6
CONTINUOUS
 10
160.8471793074
 20
30.6905916353
 11
159.401867028
 21
30.658327332
 12
160.269054528
 22
30.7228547745
 13
160.269054528
 23
30.7228547745
  0
SOLID
  8
0
 62
7
  6
CONTINUOUS
 10
160.269054528
 20
30.7228547745
 11
159.401867028
 21
30.658327332
 12
159.922179528
 22
30.7228547745
 13
159.922179528
 23
30.7228547745
  0
SOLID
  8
0
 62
7
  6
CONTINUOUS
 10
159.401867028
 20
30.658327332
 11
159.228429528
 21
30.7228547745
 12
159.922179528
 22
30.7228547745
 13
159.922179528
 23
30.7228547745
  0
SOLID
  8
0
 62
7
  6
CONTINUOUS
 10
159.401867028
 20
30.658327332
 11
160.8471793074
 21
30.6905916353
 12
159.575304528
 22
30.6260629858
 13
159.575304528
 23
30.6260629858
  0
SOLID
  8
0
 62
7
  6
CONTINUOUS
 10
160.8471793074
 20
30.6905916353
 11
160.615929528
 21
30.6260629858
 12
159.575304528
 22
30.6260629858
 13
159.575304528
 23
30.6260629858
  0
SOLID
  8
0
 62
7
  6
CONTINUOUS
 10
159.922179528
 20
30.5938006049
 11
159.575304528
 21
30.6260629858
 12
160.615929528
 22
30.6260629858
 13
160.615929528
 23
30.6260629858
  0
SOLID
  8
0
 62
7
  6
CONTINUOUS
 10
160.615929528
 20
30.6260629858
 11
160.269054528
 21
30.5938006049
 12
159.922179528
 22
30.5938006049
 13
159.922179528
 23
30.5938006049
  0
SOLID
  8
0
 62
7
  6
CONTINUOUS
 10
149.5737418074
 20
31.1100184796
 11
149.9206168074
 21
31.2713369632
 12
149.8628043005
 22
31.1422827828
 13
149.8628043005
 23
31.1422827828
  0
SOLID
  8
0
 62
7
  6
CONTINUOUS
 10
149.8628043005
 20
31.1422827828
 11
149.8628043005
 21
31.0454914852
 12
149.5737418074
 22
31.1100184796
 13
149.5737418074
 23
31.1100184796
  0
SOLID
  8
0
 62
7
  6
CONTINUOUS
 10
149.6315543091
 20
30.9164372091
 11
149.5737418074
 21
31.1100184796
 12
149.8628043005
 22
31.0454914852
 13
149.8628043005
 23
31.0454914852
  0
SOLID
  8
0
 62
7
  6
CONTINUOUS
 10
149.8628043005
 20
31.0454914852
 11
149.9784292936
 21
30.8841729058
 12
149.6315543091
 22
30.9164372091
 13
149.6315543091
 23
30.9164372091
  0
SOLID
  8
0
 62
7
  6
CONTINUOUS
 10
149.7471793074
 20
30.7873813202
 11
149.6315543091
 21
30.9164372091
 12
149.9784292936
 22
30.8841729058
 13
149.9784292936
 23
30.8841729058
  0
SOLID
  8
0
 62
7
  6
CONTINUOUS
 10
149.9784292936
 20
30.8841729058
 11
150.1518667936
 21
30.7873813202
 12
149.7471793074
 22
30.7873813202
 13
149.7471793074
 23
30.7873813202
  0
SOLID
  8
0
 62
7
  6
CONTINUOUS
 10
149.8628043005
 20
30.7228547004
 11
149.7471793074
 21
30.7873813202
 12
150.1518667936
 22
30.7873813202
 13
150.1518667936
 23
30.7873813202
  0
SOLID
  8
0
 62
7
  6
CONTINUOUS
 10
150.1518667936
 20
30.7873813202
 11
150.498741835
 21
30.7228547004
 12
149.8628043005
 22
30.7228547004
 13
149.8628043005
 23
30.7228547004
  0
SOLID
  8
0
 62
7
  6
CONTINUOUS
 10
150.0362418212
 20
30.658327332
 11
149.8628043005
 21
30.7228547004
 12
150.498741835
 22
30.7228547004
 13
150.498741835
 23
30.7228547004
  0
SOLID
  8
0
 62
7
  6
CONTINUOUS
 10
154.0831168074
 20
31.1100184386
 11
154.1987416972
 21
31.1745462761
 12
154.7768668074
 22
31.1422827828
 13
154.7768668074
 23
31.1422827828
  0
SOLID
  8
0
 62
7
  6
CONTINUOUS
 10
154.7768668074
 20
31.1422827828
 11
154.5456166972
 21
31.1100184386
 12
154.0831168074
 22
31.1100184386
 13
154.0831168074
 23
31.1100184386
  0
SOLID
  8
0
 62
7
  6
CONTINUOUS
 10
153.9674919177
 20
30.9809642992
 11
154.0831168074
 21
31.1100184386
 12
154.5456166972
 22
31.1100184386
 13
154.5456166972
 23
31.1100184386
  0
SOLID
  8
0
 62
7
  6
CONTINUOUS
 10
154.3143669177
 20
31.0132277988
 11
153.9674919177
 21
30.9809642992
 12
154.4299918074
 22
31.0777556927
 13
154.4299918074
 23
31.0777556927
  0
SOLID
  8
0
 62
7
  6
CONTINUOUS
 10
153.9674919177
 20
30.9809642992
 11
154.5456166972
 21
31.1100184796
 12
154.4299918074
 22
31.0777556927
 13
154.4299918074
 23
31.0777556927
  0
SOLID
  8
0
 62
7
  6
CONTINUOUS
 10
154.3143669177
 20
31.0132277988
 11
154.2565543074
 21
30.9164372091
 12
153.9674919177
 22
30.9809642992
 13
153.9674919177
 23
30.9809642992
  0
SOLID
  8
0
 62
7
  6
CONTINUOUS
 10
153.9674919177
 20
30.8841729058
 11
153.9674919177
 21
30.9809642992
 12
154.2565543074
 22
30.9164372091
 13
154.2565543074
 23
30.9164372091
  0
SOLID
  8
0
 62
7
  6
CONTINUOUS
 10
154.2565543074
 20
30.9164372091
 11
154.2565543074
 21
30.8519086025
 12
153.9674919177
 22
30.8841729058
 13
153.9674919177
 23
30.8841729058
  0
SOLID
  8
0
 62
7
  6
CONTINUOUS
 10
154.0253041972
 20
30.7551187255
 11
153.9674919177
 21
30.8841729058
 12
154.2565543074
 22
30.8519086025
 13
154.2565543074
 23
30.8519086025
  0
SOLID
  8
0
 62
7
  6
CONTINUOUS
 10
155.412804528
 20
30.9487004259
 11
155.7018665869
 21
30.8519086025
 12
155.3549915869
 22
30.8841729058
 13
155.3549915869
 23
30.8841729058
  0
SOLID
  8
0
 62
7
  6
CONTINUOUS
 10
155.1815540869
 20
30.7873815123
 11
155.3549915869
 21
30.8841729058
 12
155.7018665869
 22
30.8519086025
 13
155.7018665869
 23
30.8519086025
  0
SOLID
  8
0
 62
7
  6
CONTINUOUS
 10
155.1815540869
 20
30.7873815123
 11
155.7018665869
 21
30.8519086025
 12
155.412804528
 22
30.7551187255
 13
155.412804528
 23
30.7551187255
  0
SOLID
  8
0
 62
7
  6
CONTINUOUS
 10
155.7018665869
 20
30.8519086025
 11
155.759679528
 21
30.6905916353
 12
155.412804528
 22
30.7551187255
 13
155.412804528
 23
30.7551187255
  0
SOLID
  8
0
 62
7
  6
CONTINUOUS
 10
155.4706168074
 20
30.658327332
 11
155.412804528
 21
30.7551187255
 12
155.759679528
 22
30.6905916353
 13
155.759679528
 23
30.6905916353
  0
SOLID
  8
0
 62
7
  6
CONTINUOUS
 10
155.4706168074
 20
30.658327332
 11
155.759679528
 21
30.6905916353
 12
155.5284290869
 22
30.5938002079
 13
155.5284290869
 23
30.5938002079
  0
SOLID
  8
0
 62
7
  6
CONTINUOUS
 10
155.759679528
 20
30.6905916353
 11
155.8174918074
 21
30.5938002079
 12
155.5284290869
 22
30.5938002079
 13
155.5284290869
 23
30.5938002079
  0
SOLID
  8
0
 62
7
  6
CONTINUOUS
 10
151.0768668626
 20
30.8196456577
 11
151.1346793074
 21
30.9164373395
 12
151.4237418626
 22
30.9164373395
 13
151.4237418626
 23
30.9164373395
  0
SOLID
  8
0
 62
7
  6
CONTINUOUS
 10
151.4237418626
 20
30.9164373395
 11
151.3659292523
 21
30.7873815123
 12
151.0768668626
 22
30.8196456577
 13
151.0768668626
 23
30.8196456577
  0
SOLID
  8
0
 62
7
  6
CONTINUOUS
 10
150.9034292799
 20
30.7551187255
 11
151.0768668626
 21
30.8196456577
 12
151.3659292523
 22
30.7873815123
 13
151.3659292523
 23
30.7873815123
  0
SOLID
  8
0
 62
7
  6
CONTINUOUS
 10
150.9034292799
 20
30.7551187255
 11
151.3659292523
 21
30.7873815123
 12
150.498741835
 22
30.7228544222
 13
150.498741835
 23
30.7228544222
  0
SOLID
  8
0
 62
7
  6
CONTINUOUS
 10
151.3659292523
 20
30.7873815123
 11
151.1924917523
 21
30.6905916353
 12
150.498741835
 22
30.7228544222
 13
150.498741835
 23
30.7228544222
  0
SOLID
  8
0
 62
7
  6
CONTINUOUS
 10
150.0362418212
 20
30.658327332
 11
150.498741835
 21
30.7228544222
 12
151.1924917523
 22
30.6905916353
 13
151.1924917523
 23
30.6905916353
  0
SOLID
  8
0
 62
7
  6
CONTINUOUS
 10
150.0362418212
 20
30.658327332
 11
151.1924917523
 21
30.6905916353
 12
150.2096793212
 22
30.6260631011
 13
150.2096793212
 23
30.6260631011
  0
SOLID
  8
0
 62
7
  6
CONTINUOUS
 10
151.1924917523
 20
30.6905916353
 11
150.9612418074
 21
30.6260631011
 12
150.2096793212
 22
30.6260631011
 13
150.2096793212
 23
30.6260631011
  0
SOLID
  8
0
 62
7
  6
CONTINUOUS
 10
150.5565542799
 20
30.5938002419
 11
150.2096793212
 21
30.6260631011
 12
150.9612418074
 22
30.6260631011
 13
150.9612418074
 23
30.6260631011
  0
SOLID
  8
0
 62
7
  6
CONTINUOUS
 10
154.0253041972
 20
30.7551187255
 11
154.2565543074
 21
30.8519086025
 12
154.3143669177
 22
30.7873815123
 13
154.3143669177
 23
30.7873815123
  0
SOLID
  8
0
 62
7
  6
CONTINUOUS
 10
154.3143669177
 20
30.7873815123
 11
154.5456166972
 21
30.7228544222
 12
154.0253041972
 22
30.7551187255
 13
154.0253041972
 23
30.7551187255
  0
SOLID
  8
0
 62
7
  6
CONTINUOUS
 10
154.1987416972
 20
30.658327332
 11
154.0253041972
 21
30.7551187255
 12
154.5456166972
 22
30.7228544222
 13
154.5456166972
 23
30.7228544222
  0
SOLID
  8
0
 62
7
  6
CONTINUOUS
 10
154.8924916972
 20
30.7228544637
 11
155.1815540869
 21
30.7873815123
 12
155.412804528
 22
30.7551187255
 13
155.412804528
 23
30.7551187255
  0
SOLID
  8
0
 62
7
  6
CONTINUOUS
 10
155.412804528
 20
30.7551187255
 11
155.3549915869
 21
30.6905916353
 12
154.8924916972
 22
30.7228544637
 13
154.8924916972
 23
30.7228544637
  0
SOLID
  8
0
 62
7
  6
CONTINUOUS
 10
155.3549915869
 20
30.6905916353
 11
154.1987416972
 21
30.658327332
 12
154.8924916972
 22
30.7228544637
 13
154.8924916972
 23
30.7228544637
  0
SOLID
  8
0
 62
7
  6
CONTINUOUS
 10
154.1987416972
 20
30.658327332
 11
154.5456166972
 21
30.7228544637
 12
154.8924916972
 22
30.7228544637
 13
154.8924916972
 23
30.7228544637
  0
SOLID
  8
0
 62
7
  6
CONTINUOUS
 10
154.1987416972
 20
30.658327332
 11
155.3549915869
 21
30.6905916353
 12
154.3143669177
 22
30.6260630541
 13
154.3143669177
 23
30.6260630541
  0
SOLID
  8
0
 62
7
  6
CONTINUOUS
 10
155.3549915869
 20
30.6905916353
 11
155.1815540869
 21
30.6260630541
 12
154.3143669177
 22
30.6260630541
 13
154.3143669177
 23
30.6260630541
  0
SOLID
  8
0
 62
7
  6
CONTINUOUS
 10
154.5456166972
 20
30.5938002188
 11
154.3143669177
 21
30.6260630541
 12
155.1815540869
 22
30.6260630541
 13
155.1815540869
 23
30.6260630541
  0
SOLID
  8
0
 62
7
  6
CONTINUOUS
 10
155.1815540869
 20
30.6260630541
 11
154.8924916972
 21
30.5938002188
 12
154.5456166972
 22
30.5938002188
 13
154.5456166972
 23
30.5938002188
  0
SOLID
  8
0
 62
7
  6
CONTINUOUS
 10
159.575304528
 20
30.7551187255
 11
159.228429528
 21
30.7228544637
 12
159.4596793074
 22
30.7873815123
 13
159.4596793074
 23
30.7873815123
  0
SOLID
  8
0
 62
7
  6
CONTINUOUS
 10
159.4596793074
 20
30.7873815123
 11
159.228429528
 21
30.7228544637
 12
159.401867028
 22
30.851908644
 13
159.401867028
 23
30.851908644
  0
SOLID
  8
0
 62
7
  6
CONTINUOUS
 10
159.228429528
 20
30.7228544637
 11
159.1128043074
 21
30.851908644
 12
159.401867028
 22
30.851908644
 13
159.401867028
 23
30.851908644
  0
SOLID
  8
0
 62
7
  6
CONTINUOUS
 10
159.575304528
 20
30.7551187255
 11
159.922179528
 21
30.7228544637
 12
159.228429528
 22
30.7228544637
 13
159.228429528
 23
30.7228544637
  0
SOLID
  8
0
 62
7
  6
CONTINUOUS
 10
156.279992028
 20
30.5938002419
 11
156.279992028
 21
31.6262382337
 12
156.5690540869
 22
30.5938002419
 13
156.5690540869
 23
31.6262382337
  0
ENDBLK
  8
0
  6
BYBLOCK
 62
0
  0
BLOCK
  8
0
 62
2
  6
CONTINUOUS
  2
SYMBOL_3_BL0
 70
64
 10
32.1213064866
 20
19.8534310916
  0
TEXT
  8
0
 62
7
  6
CONTINUOUS
 10
18.3860103289
 20
19.2268451992
  7
TEXTSTYLE_3
 40
2.7338706658
  1
Ammeraal Beltech
 41
1.0
 51
15.0
 72
0
  0
TEXT
  8
0
 62
7
  6
CONTINUOUS
 10
29.1868111546
 20
16.9533085264
  7
TEXTSTYLE_4
 40
1.0935482663
  1
Innovation & Service in Belting
 41
1.0
 72
0
  0
LINE
  8
0
 62
7
  6
CONTINUOUS
 10
12.3614696776
 20
19.9934385078
 11
13.1396216709
 21
23.6543558055
  0
LINE
  8
0
 62
7
  6
CONTINUOUS
 10
23.2347899607
 20
27.3177497171
 11
13.6274394139
 21
24.1961322958
  0
LINE
  8
0
 62
7
  6
CONTINUOUS
 10
12.5867530099
 20
19.3000877048
 11
20.093828271
 21
12.5406867788
  0
LINE
  8
0
 62
7
  6
CONTINUOUS
 10
12.8492874206
 20
20.5352149982
 11
23.6575567857
 21
24.0470345971
  0
LINE
  8
0
 62
7
  6
CONTINUOUS
 10
23.6533516486
 20
13.6972460334
 11
15.2078919798
 21
21.3015720751
  0
LINE
  8
0
 62
7
  6
CONTINUOUS
 10
24.1731743684
 20
26.4728246013
 11
23.1966148312
 21
21.8784731989
  0
LINE
  8
0
 62
7
  6
CONTINUOUS
 10
22.4968128835
 20
18.5861638851
 11
21.810364672
 21
15.3566789607
  0
LINE
  8
0
 62
7
  6
CONTINUOUS
 10
24.8542704669
 20
14.087448211
 11
25.8105020025
 21
18.5861638851
  0
LINE
  8
0
 62
7
  6
CONTINUOUS
 10
26.5103039502
 20
21.8784731989
 11
26.9545457526
 21
23.9684665583
  0
LINE
  8
0
 62
7
  6
CONTINUOUS
 10
20.8069293463
 20
12.3891124661
 11
24.3664527239
 21
13.5456717207
  0
LINE
  8
0
 62
7
  6
CONTINUOUS
 10
23.9478910361
 20
27.1661754044
 11
26.7292624203
 21
24.6618173613
  0
ARC
  8
0
 62
7
  6
CONTINUOUS
 10
13.8527227462
 20
23.5027814928
 40
0.7290321776
 50
108.0
 51
168.0
  0
ARC
  8
0
 62
7
  6
CONTINUOUS
 10
23.4600732931
 20
26.624398914
 40
0.7290321776
 50
348.0
 51
108.0
  0
ARC
  8
0
 62
7
  6
CONTINUOUS
 10
26.2414446773
 20
24.120040871
 40
0.7290321776
 50
348.0
 51
48.0
  0
ARC
  8
0
 62
7
  6
CONTINUOUS
 10
20.581646014
 20
13.0824632691
 40
0.7290321776
 50
228.0
 51
288.0
  0
ARC
  8
0
 62
7
  6
CONTINUOUS
 10
13.0745707529
 20
19.8418641951
 40
0.7290321776
 50
108.0
 51
228.0
  0
ARC
  8
0
 62
7
  6
CONTINUOUS
 10
24.1411693916
 20
14.2390225237
 40
0.7290321776
 50
228.0
 51
348.0
  0
ENDBLK
  8
0
  6
BYBLOCK
 62
0
  0
ENDSEC
  0
SECTION
  2
ENTITIES
  0
TEXT
  8
0
 62
5
  6
CONTINUOUS
 10
96.0
 20
25.636
  7
TEXTSTYLE_2
 40
2.8
  1
Scale :
 41
0.6
 51
0.000019
 72
0
  0
TEXT
  8
0
 62
5
  6
CONTINUOUS
 10
116.0
 20
25.636
  7
TEXTSTYLE_2
 40
2.8
  1
Belt type:
 41
0.6
 51
0.000019
 72
0
  0
INSERT
  8
0
 62
2
  6
CONTINUOUS
  2
SYMBOL_3_BL0
 10
32.1213064866
 20
19.8534310916
  0
INSERT
  8
0
 62
2
  6
CONTINUOUS
  2
SYMBOL_8_BL1
 10
173.5956734183
 20
35.5937998301
  0
LINE
  8
0
 62
2
  6
CONTINUOUS
 10
10.0
 20
30.0
 11
200.0
 21
30.0
  0
LINE
  8
0
 62
2
  6
CONTINUOUS
 10
10.0
 20
30.0
 11
10.0
 21
10.0
  0
LINE
  8
0
 62
2
  6
CONTINUOUS
 10
10.0
 20
10.0
 11
200.0
 21
10.0
  0
LINE
  8
0
 62
2
  6
CONTINUOUS
 10
95.0
 20
30.0
 11
95.0
 21
10.0
  0
LINE
  8
0
 62
2
  6
CONTINUOUS
 10
115.0
 20
30.0
 11
115.0
 21
10.0
  0
LINE
  8
0
 62
2
  6
CONTINUOUS
 10
200.0
 20
30.0
 11
200.0
 21
10.0
  0
TEXT
  8
0
 62
5
  6
CONTINUOUS
 10
13.0
 20
23.303
  7
TEXTSTYLE_5
 40
1.52
  1
                                                                     Ammeraal Beltech Modular A/S
 41
1.0
 72
0
  0
TEXT
  8
0
 62
5
  6
CONTINUOUS
 10
13.0
 20
20.595
  7
TEXTSTYLE_5
 40
1.5
  1
                                                                      Hjulmagervej 21,  7100 Vejle,  DK
 41
1.0
 72
0
  0
TEXT
  8
0
 62
5
  6
CONTINUOUS
 10
13.0
 20
17.881
  7
TEXTSTYLE_5
 40
1.495
  1
                                                                      tel: 
 41
1.0
 72
0
  0
TEXT
  8
0
 62
5
  6
CONTINUOUS
 10
57.9869465649
 20
17.881
  7
TEXTSTYLE_5
 40
1.51
  1
+45 75723100     fax: +45 75723348
 41
1.0
 72
0
  0
TEXT
  8
0
 62
5
  6
CONTINUOUS
 10
13.0
 20
15.177
  7
TEXTSTYLE_5
 40
1.5
  1
                                                                      admin@unichains.dk  www.unichains.com
 41
1.0
 72
0
  0
TEXT
  8
0
 62
5
  6
CONTINUOUS
 10
99.75
 20
13.75
  7
TEXTSTYLE_6
 40
5.0
  1
1:1
 41
0.7
 72
1
 11
105.0
 21
13.75
  0
TEXT
  8
0
 62
5
  6
CONTINUOUS
 10
118.0
 20
13.75
  7
TEXTSTYLE_7
 40
7.5
  1
uni S-MPB Side Guard 3" Right
 41
0.3588362069
 72
0
  0
LINE
  8
0
 62
7
  6
CONTINUOUS
 10
210.0
 20
0.0
 11
0.0
 21
0.0
  0
LINE
  8
0
 62
7
  6
CONTINUOUS
 10
10.0
 20
10.0
 11
200.0
 21
10.0
  0
LINE
  8
0
 62
7
  6
CONTINUOUS
 10
10.0
 20
30.0
 11
200.0
 21
30.0
  0
LINE
  8
0
 62
7
  6
CONTINUOUS
 10
0.0
 20
0.0
 11
0.0
 21
297.0
  0
LINE
  8
0
 62
7
  6
CONTINUOUS
 10
10.0
 20
10.0
 11
10.0
 21
287.0
  0
LINE
  8
0
 62
7
  6
CONTINUOUS
 10
200.0
 20
287.0
 11
200.0
 21
10.0
  0
LINE
  8
0
 62
7
  6
CONTINUOUS
 10
210.0
 20
0.0
 11
210.0
 21
297.0
  0
LINE
  8
0
 62
7
  6
CONTINUOUS
 10
10.0
 20
287.0
 11
200.0
 21
287.0
  0
LINE
  8
0
 62
7
  6
CONTINUOUS
 10
0.0
 20
297.0
 11
210.0
 21
297.0
  0
LINE
  8
0
 62
7
  6
CONTINUOUS
 10
35.6293963974
 20
106.188016033
 11
35.6293963974
 21
108.2102282888
  0
LINE
  8
0
 62
7
  6
CONTINUOUS
 10
51.3112565764
 20
102.925181183
 11
51.3112565764
 21
103.4141341143
  0
LINE
  8
0
 62
7
  6
CONTINUOUS
 10
51.3112565764
 20
106.4474524979
 11
51.3112565764
 21
106.9785497837
  0
LINE
  8
0
 62
7
  6
CONTINUOUS
 10
55.0112565764
 20
107.6104001892
 11
55.0112565764
 21
106.2426509316
  0
LINE
  8
DEFAULT_1
 62
7
  6
CENTER
 10
55.7112565764
 20
100.425181183
 11
55.7112565764
 21
110.1928726366
  0
LINE
  8
0
 62
7
  6
CONTINUOUS
 10
57.5112565764
 20
107.5165953802
 11
57.5112565764
 21
105.7793528275
  0
LINE
  8
0
 62
7
  6
CONTINUOUS
 10
58.3962565764
 20
105.3885921533
 11
58.3962565764
 21
108.0235684966
  0
LINE
  8
0
 62
7
  6
CONTINUOUS
 10
59.2962565764
 20
107.6106043341
 11
59.2962565764
 21
105.2540862521
  0
POLYLINE
  8
0
 62
7
  6
CONTINUOUS
 66
1
 70
0
  0
VERTEX
  8
0
 62
7
  6
CONTINUOUS
 10
82.2616536426
 20
96.2716473262
  0
VERTEX
  8
0
 62
7
  6
CONTINUOUS
 10
82.6457563895
 20
96.3079422517
  0
VERTEX
  8
0
 62
7
  6
CONTINUOUS
 10
83.0314172941
 20
96.3567930798
  0
VERTEX
  8
0
 62
7
  6
CONTINUOUS
 10
83.4076396941
 20
96.4182703885
  0
VERTEX
  8
0
 62
7
  6
CONTINUOUS
 10
83.7644956959
 20
96.4918016982
  0
VERTEX
  8
0
 62
7
  6
CONTINUOUS
 10
84.0937011235
 20
96.5762825881
  0
VERTEX
  8
0
 62
7
  6
CONTINUOUS
 10
84.389412538
 20
96.6703611885
  0
VERTEX
  8
0
 62
7
  6
CONTINUOUS
 10
84.6485302522
 20
96.7727913514
  0
VERTEX
  8
0
 62
7
  6
CONTINUOUS
 10
84.8691663848
 20
96.8820372735
  0
VERTEX
  8
0
 62
7
  6
CONTINUOUS
 10
85.0514942265
 20
96.9965316409
  0
VERTEX
  8
0
 62
7
  6
CONTINUOUS
 10
85.2011553475
 20
97.1180575845
  0
VERTEX
  8
0
 62
7
  6
CONTINUOUS
 10
85.3232997823
 20
97.2508497931
  0
VERTEX
  8
0
 62
7
  6
CONTINUOUS
 10
85.4179093572
 20
97.3976012141
  0
VERTEX
  8
0
 62
7
  6
CONTINUOUS
 10
85.4812208135
 20
97.5567111427
  0
VERTEX
  8
0
 62
7
  6
CONTINUOUS
 10
85.5096375226
 20
97.7215650269
  0
VERTEX
  8
0
 62
7
  6
CONTINUOUS
 10
85.5112564088
 20
97.7718885883
  0
SEQEND
  0
POLYLINE
  8
0
 62
7
  6
CONTINUOUS
 66
1
 70
0
  0
VERTEX
  8
0
 62
7
  6
CONTINUOUS
 10
81.3083173766
 20
96.1743655776
  0
VERTEX
  8
0
 62
7
  6
CONTINUOUS
 10
81.3459100321
 20
96.1754667228
  0
VERTEX
  8
0
 62
7
  6
CONTINUOUS
 10
81.4173405372
 20
96.1826067157
  0
VERTEX
  8
0
 62
7
  6
CONTINUOUS
 10
81.4889364243
 20
96.1936901966
  0
VERTEX
  8
0
 62
7
  6
CONTINUOUS
 10
81.5549102509
 20
96.2050405211
  0
VERTEX
  8
0
 62
7
  6
CONTINUOUS
 10
81.6220626391
 20
96.2162398881
  0
VERTEX
  8
0
 62
7
  6
CONTINUOUS
 10
81.6936033349
 20
96.226893605
  0
VERTEX
  8
0
 62
7
  6
CONTINUOUS
 10
81.7721414387
 20
96.2365946757
  0
VERTEX
  8
0
 62
7
  6
CONTINUOUS
 10
81.8587173971
 20
96.2446800259
  0
VERTEX
  8
0
 62
7
  6
CONTINUOUS
 10
82.2616536426
 20
96.2716473262
  0
SEQEND
  0
LINE
  8
0
 62
7
  6
CONTINUOUS
 10
79.811256892
 20
96.1742306434
 11
81.3083159909
 21
96.1743652941
  0
LINE
  8
0
 62
7
  6
CONTINUOUS
 10
78.9262565764
 20
96.2267938694
 11
79.1070152309
 21
96.2267938694
  0
POLYLINE
  8
0
 62
7
  6
CONTINUOUS
 66
1
 70
0
  0
VERTEX
  8
0
 62
7
  6
CONTINUOUS
 10
79.1070152236
 20
96.2267948513
  0
VERTEX
  8
0
 62
7
  6
CONTINUOUS
 10
79.1747940802
 20
96.2260339528
  0
VERTEX
  8
0
 62
7
  6
CONTINUOUS
 10
79.2748705018
 20
96.222254031
  0
VERTEX
  8
0
 62
7
  6
CONTINUOUS
 10
79.367893039
 20
96.2160966318
  0
VERTEX
  8
0
 62
7
  6
CONTINUOUS
 10
79.454008436
 20
96.2083578073
  0
VERTEX
  8
0
 62
7
  6
CONTINUOUS
 10
79.5345133579
 20
96.1996910302
  0
VERTEX
  8
0
 62
7
  6
CONTINUOUS
 10
79.687797288
 20
96.182036733
  0
SEQEND
  0
POLYLINE
  8
0
 62
7
  6
CONTINUOUS
 66
1
 70
0
  0
VERTEX
  8
0
 62
7
  6
CONTINUOUS
 10
78.9262565764
 20
96.2267938697
  0
VERTEX
  8
0
 62
7
  6
CONTINUOUS
 10
78.8958472537
 20
96.227719453
  0
VERTEX
  8
0
 62
7
  6
CONTINUOUS
 10
78.8151929068
 20
96.2392850374
  0
VERTEX
  8
0
 62
7
  6
CONTINUOUS
 10
78.7371539658
 20
96.2639329803
  0
VERTEX
  8
0
 62
7
  6
CONTINUOUS
 10
78.6616567619
 20
96.3025451945
  0
VERTEX
  8
0
 62
7
  6
CONTINUOUS
 10
78.5928738817
 20
96.3541600292
  0
VERTEX
  8
0
 62
7
  6
CONTINUOUS
 10
78.5346085627
 20
96.4159694281
  0
VERTEX
  8
0
 62
7
  6
CONTINUOUS
 10
78.4876240023
 20
96.4867908174
  0
VERTEX
  8
0
 62
7
  6
CONTINUOUS
 10
78.4532216747
 20
96.5648124453
  0
VERTEX
  8
0
 62
7
  6
CONTINUOUS
 10
78.4328892224
 20
96.6456233451
  0
VERTEX
  8
0
 62
7
  6
CONTINUOUS
 10
78.4262565764
 20
96.7267938694
  0
SEQEND
  0
POLYLINE
  8
0
 62
7
  6
CONTINUOUS
 66
1
 70
0
  0
VERTEX
  8
0
 62
7
  6
CONTINUOUS
 10
79.687797288
 20
96.182036733
  0
VERTEX
  8
0
 62
7
  6
CONTINUOUS
 10
79.7644587274
 20
96.1756005847
  0
VERTEX
  8
0
 62
7
  6
CONTINUOUS
 10
79.8112568661
 20
96.1742320222
  0
SEQEND
  0
LINE
  8
0
 62
7
  6
CONTINUOUS
 10
77.8827211133
 20
96.6608033672
 11
78.4263875188
 21
96.4978747749
  0
POLYLINE
  8
0
 62
7
  6
CONTINUOUS
 66
1
 70
0
  0
VERTEX
  8
0
 62
7
  6
CONTINUOUS
 10
78.4264180316
 20
96.4978658525
  0
VERTEX
  8
0
 62
7
  6
CONTINUOUS
 10
78.4632583835
 20
96.4861530641
  0
VERTEX
  8
0
 62
7
  6
CONTINUOUS
 10
78.4960642183
 20
96.4740685993
  0
SEQEND
  0
POLYLINE
  8
0
 62
7
  6
CONTINUOUS
 66
1
 70
0
  0
VERTEX
  8
0
 62
7
  6
CONTINUOUS
 10
77.88271131
 20
96.6608063053
  0
VERTEX
  8
0
 62
7
  6
CONTINUOUS
 10
77.832588799
 20
96.6787886273
  0
VERTEX
  8
0
 62
7
  6
CONTINUOUS
 10
77.7585736808
 20
96.7174478765
  0
VERTEX
  8
0
 62
7
  6
CONTINUOUS
 10
77.6915908052
 20
96.7682761056
  0
VERTEX
  8
0
 62
7
  6
CONTINUOUS
 10
77.6340565031
 20
96.8296304735
  0
VERTEX
  8
0
 62
7
  6
CONTINUOUS
 10
77.5877108612
 20
96.8995963037
  0
VERTEX
  8
0
 62
7
  6
CONTINUOUS
 10
77.5538028229
 20
96.9760893091
  0
VERTEX
  8
0
 62
7
  6
CONTINUOUS
 10
77.533169523
 20
97.0569017845
  0
VERTEX
  8
0
 62
7
  6
CONTINUOUS
 10
77.5262565764
 20
97.1397580319
  0
SEQEND
  0
LINE
  8
DEFAULT_1
 62
7
  6
CENTER
 10
68.4112565764
 20
106.775181183
 11
68.4112565764
 21
104.375281183
  0
LINE
  8
0
 62
2
  6
CONTINUOUS
 10
68.4112565764
 20
103.255181183
 11
68.4112565764
 21
101.495181183
  0
LINE
  8
DEFAULT_1
 62
7
  6
CENTER
 10
68.4112565764
 20
97.975181183
 11
68.4112565764
 21
100.375081183
  0
LINE
  8
0
 62
7
  6
CONTINUOUS
 10
85.0112527183
 20
102.325181183
 11
78.8940180009
 21
102.325181183
  0
LINE
  8
DEFAULT_1
 62
7
  6
CENTER
 10
72.8112565764
 20
102.375181183
 11
70.4113565764
 21
102.375181183
  0
LINE
  8
0
 62
2
  6
CONTINUOUS
 10
69.2912565764
 20
102.375181183
 11
67.5312565764
 21
102.375181183
  0
LINE
  8
DEFAULT_1
 62
7
  6
CENTER
 10
64.0112565764
 20
102.375181183
 11
66.4111565764
 21
102.375181183
  0
LINE
  8
0
 62
7
  6
CONTINUOUS
 10
51.8112604345
 20
102.425181183
 11
57.9284951519
 21
102.425181183
  0
LINE
  8
0
 62
7
  6
CONTINUOUS
 10
36.0554971182
 20
105.6941226416
 11
100.6192066308
 21
96.0450116042
  0
LINE
  8
0
 62
7
  6
CONTINUOUS
 10
100.7670160419
 20
99.0562397233
 11
36.2033065293
 21
108.7053507607
  0
POLYLINE
  8
0
 62
7
  6
CONTINUOUS
 66
1
 70
0
  0
VERTEX
  8
0
 62
7
  6
CONTINUOUS
 10
58.9398018428
 20
108.0895560607
  0
VERTEX
  8
0
 62
7
  6
CONTINUOUS
 10
58.9899243538
 20
108.0715737387
  0
VERTEX
  8
0
 62
7
  6
CONTINUOUS
 10
59.063939472
 20
108.0329144895
  0
VERTEX
  8
0
 62
7
  6
CONTINUOUS
 10
59.1309223476
 20
107.9820862604
  0
VERTEX
  8
0
 62
7
  6
CONTINUOUS
 10
59.1884566497
 20
107.9207318925
  0
VERTEX
  8
0
 62
7
  6
CONTINUOUS
 10
59.2348022916
 20
107.8507660623
  0
VERTEX
  8
0
 62
7
  6
CONTINUOUS
 10
59.2687103299
 20
107.7742730569
  0
VERTEX
  8
0
 62
7
  6
CONTINUOUS
 10
59.2893436298
 20
107.6934605815
  0
VERTEX
  8
0
 62
7
  6
CONTINUOUS
 10
59.2962565764
 20
107.6106043341
  0
SEQEND
  0
LINE
  8
0
 62
7
  6
CONTINUOUS
 10
58.9397920395
 20
108.0895589988
 11
58.3961256332
 21
108.2524875913
  0
POLYLINE
  8
0
 62
7
  6
CONTINUOUS
 66
1
 70
0
  0
VERTEX
  8
0
 62
7
  6
CONTINUOUS
 10
58.3960949522
 20
108.2524965288
  0
VERTEX
  8
0
 62
7
  6
CONTINUOUS
 10
58.359253412
 20
108.2642097818
  0
VERTEX
  8
0
 62
7
  6
CONTINUOUS
 10
58.3264488398
 20
108.2762939093
  0
SEQEND
  0
POLYLINE
  8
0
 62
7
  6
CONTINUOUS
 66
1
 70
0
  0
VERTEX
  8
0
 62
7
  6
CONTINUOUS
 10
55.5141957766
 20
108.5759967882
  0
VERTEX
  8
0
 62
7
  6
CONTINUOUS
 10
55.4766036747
 20
108.5748956747
  0
VERTEX
  8
0
 62
7
  6
CONTINUOUS
 10
55.4051730271
 20
108.5677557055
  0
VERTEX
  8
0
 62
7
  6
CONTINUOUS
 10
55.3335768779
 20
108.5566721946
  0
VERTEX
  8
0
 62
7
  6
CONTINUOUS
 10
55.2676030244
 20
108.545321866
  0
VERTEX
  8
0
 62
7
  6
CONTINUOUS
 10
55.200450617
 20
108.5341224944
  0
VERTEX
  8
0
 62
7
  6
CONTINUOUS
 10
55.1289099046
 20
108.5234687731
  0
VERTEX
  8
0
 62
7
  6
CONTINUOUS
 10
55.0503717803
 20
108.5137676976
  0
VERTEX
  8
0
 62
7
  6
CONTINUOUS
 10
54.9637957953
 20
108.505682344
  0
VERTEX
  8
0
 62
7
  6
CONTINUOUS
 10
54.5608697643
 20
108.4787158563
  0
SEQEND
  0
LINE
  8
0
 62
7
  6
CONTINUOUS
 10
57.8962565764
 20
108.5235684966
 11
57.7154979219
 21
108.5235684966
  0
LINE
  8
0
 62
7
  6
CONTINUOUS
 10
57.0112562608
 20
108.5761317226
 11
55.514197162
 21
108.575997072
  0
POLYLINE
  8
0
 62
7
  6
CONTINUOUS
 66
1
 70
0
  0
VERTEX
  8
0
 62
7
  6
CONTINUOUS
 10
57.7154979292
 20
108.5235675147
  0
VERTEX
  8
0
 62
7
  6
CONTINUOUS
 10
57.6477190726
 20
108.5243284132
  0
VERTEX
  8
0
 62
7
  6
CONTINUOUS
 10
57.547642651
 20
108.528108335
  0
VERTEX
  8
0
 62
7
  6
CONTINUOUS
 10
57.4546201138
 20
108.5342657342
  0
VERTEX
  8
0
 62
7
  6
CONTINUOUS
 10
57.3685047168
 20
108.5420045587
  0
VERTEX
  8
0
 62
7
  6
CONTINUOUS
 10
57.2879997949
 20
108.5506713358
  0
VERTEX
  8
0
 62
7
  6
CONTINUOUS
 10
57.1347158648
 20
108.568325633
  0
SEQEND
  0
POLYLINE
  8
0
 62
7
  6
CONTINUOUS
 66
1
 70
0
  0
VERTEX
  8
0
 62
7
  6
CONTINUOUS
 10
57.8962565764
 20
108.5235684963
  0
VERTEX
  8
0
 62
7
  6
CONTINUOUS
 10
57.9266658991
 20
108.522642913
  0
VERTEX
  8
0
 62
7
  6
CONTINUOUS
 10
58.007320246
 20
108.5110773286
  0
VERTEX
  8
0
 62
7
  6
CONTINUOUS
 10
58.085359187
 20
108.4864293857
  0
VERTEX
  8
0
 62
7
  6
CONTINUOUS
 10
58.1608563909
 20
108.4478171715
  0
VERTEX
  8
0
 62
7
  6
CONTINUOUS
 10
58.2296392711
 20
108.3962023368
  0
VERTEX
  8
0
 62
7
  6
CONTINUOUS
 10
58.2879045901
 20
108.3343929379
  0
VERTEX
  8
0
 62
7
  6
CONTINUOUS
 10
58.3348891505
 20
108.2635715486
  0
VERTEX
  8
0
 62
7
  6
CONTINUOUS
 10
58.3692914781
 20
108.1855499207
  0
VERTEX
  8
0
 62
7
  6
CONTINUOUS
 10
58.3896239304
 20
108.1047390209
  0
VERTEX
  8
0
 62
7
  6
CONTINUOUS
 10
58.3962565764
 20
108.0235684966
  0
SEQEND
  0
POLYLINE
  8
0
 62
7
  6
CONTINUOUS
 66
1
 70
0
  0
VERTEX
  8
0
 62
7
  6
CONTINUOUS
 10
57.1347158648
 20
108.568325633
  0
VERTEX
  8
0
 62
7
  6
CONTINUOUS
 10
57.0580544254
 20
108.5747617813
  0
VERTEX
  8
0
 62
7
  6
CONTINUOUS
 10
57.0112562866
 20
108.5761303438
  0
SEQEND
  0
LINE
  8
0
 62
7
  6
CONTINUOUS
 10
77.5262565764
 20
97.1397580319
 11
77.5262565764
 21
99.4962761139
  0
POLYLINE
  8
0
 62
7
  6
CONTINUOUS
 66
1
 70
0
  0
VERTEX
  8
0
 62
7
  6
CONTINUOUS
 10
54.5608697643
 20
108.4787158563
  0
VERTEX
  8
0
 62
7
  6
CONTINUOUS
 10
54.176774472
 20
108.4424220634
  0
VERTEX
  8
0
 62
7
  6
CONTINUOUS
 10
53.7911183216
 20
108.3935725317
  0
VERTEX
  8
0
 62
7
  6
CONTINUOUS
 10
53.4148980971
 20
108.3320965125
  0
VERTEX
  8
0
 62
7
  6
CONTINUOUS
 10
53.0580420033
 20
108.2585663235
  0
VERTEX
  8
0
 62
7
  6
CONTINUOUS
 10
52.7288346662
 20
108.1740862518
  0
VERTEX
  8
0
 62
7
  6
CONTINUOUS
 10
52.4331200739
 20
108.0800080777
  0
VERTEX
  8
0
 62
7
  6
CONTINUOUS
 10
52.173998442
 20
107.9775778865
  0
VERTEX
  8
0
 62
7
  6
CONTINUOUS
 10
51.9533582597
 20
107.8683314985
  0
VERTEX
  8
0
 62
7
  6
CONTINUOUS
 10
51.7710271192
 20
107.7538365707
  0
VERTEX
  8
0
 62
7
  6
CONTINUOUS
 10
51.6213637395
 20
107.6323103336
  0
VERTEX
  8
0
 62
7
  6
CONTINUOUS
 10
51.4992173674
 20
107.4995176816
  0
VERTEX
  8
0
 62
7
  6
CONTINUOUS
 10
51.4046060091
 20
107.3527654173
  0
VERTEX
  8
0
 62
7
  6
CONTINUOUS
 10
51.3412933709
 20
107.1936549162
  0
VERTEX
  8
0
 62
7
  6
CONTINUOUS
 10
51.3128757873
 20
107.0287995668
  0
VERTEX
  8
0
 62
7
  6
CONTINUOUS
 10
51.3112567571
 20
106.9784736638
  0
SEQEND
  0
LINE
  8
0
 62
7
  6
CONTINUOUS
 10
78.4262565764
 20
99.3617702127
 11
78.4262565764
 21
96.7267938694
  0
LINE
  8
0
 62
7
  6
CONTINUOUS
 10
79.3112565764
 20
97.2337669858
 11
79.3112565764
 21
98.9710095385
  0
LINE
  8
DEFAULT_1
 62
7
  6
CENTER
 10
81.1112565764
 20
94.5574897294
 11
81.1112565764
 21
104.325181183
  0
LINE
  8
0
 62
7
  6
CONTINUOUS
 10
81.8112565764
 20
98.5077114344
 11
81.8112565764
 21
97.1399621564
  0
LINE
  8
0
 62
7
  6
CONTINUOUS
 10
85.5112565764
 20
97.7718125747
 11
85.5112565764
 21
98.3029098681
  0
LINE
  8
0
 62
7
  6
CONTINUOUS
 10
85.5112565764
 20
101.3362282517
 11
85.5112565764
 21
101.825181183
  0
LINE
  8
0
 62
7
  6
CONTINUOUS
 10
101.1931167554
 20
96.540134074
 11
101.1931167554
 21
98.5623463297
  0
LINE
  8
0
 62
7
  6
CONTINUOUS
 10
107.3642567903
 20
98.8157441963
 11
107.3642567903
 21
101.825181183
  0
LINE
  8
0
 62
7
  6
CONTINUOUS
 10
107.3642567903
 20
102.925181183
 11
107.3642567903
 21
105.9346181695
  0
LINE
  8
0
 62
9
  6
CONTINUOUS
 10
109.0724116041
 20
101.825181183
 11
109.0724116041
 21
98.4111100837
  0
LINE
  8
0
 62
9
  6
CONTINUOUS
 10
109.3783031025
 20
98.4111100837
 11
109.3783031025
 21
102.325181183
  0
POLYLINE
  8
0
 62
9
  6
CONTINUOUS
 66
1
 70
0
  0
VERTEX
  8
0
 62
9
  6
CONTINUOUS
 10
109.0724116041
 20
101.825181183
  0
VERTEX
  8
0
 62
9
  6
CONTINUOUS
 10
109.0770578935
 20
101.9119970226
  0
VERTEX
  8
0
 62
9
  6
CONTINUOUS
 10
109.0908576041
 20
101.9961844524
  0
VERTEX
  8
0
 62
9
  6
CONTINUOUS
 10
109.113391428
 20
102.0751758999
  0
VERTEX
  8
0
 62
9
  6
CONTINUOUS
 10
109.1439747811
 20
102.1465714057
  0
VERTEX
  8
0
 62
9
  6
CONTINUOUS
 10
109.1816782828
 20
102.2082012722
  0
VERTEX
  8
0
 62
9
  6
CONTINUOUS
 10
109.2253562537
 20
102.2581928472
  0
VERTEX
  8
0
 62
9
  6
CONTINUOUS
 10
109.273681607
 20
102.2950272308
  0
VERTEX
  8
0
 62
9
  6
CONTINUOUS
 10
109.32518537
 20
102.3175849928
  0
VERTEX
  8
0
 62
9
  6
CONTINUOUS
 10
109.3783031025
 20
102.325181183
  0
SEQEND
  0
POLYLINE
  8
0
 62
9
  6
CONTINUOUS
 66
1
 70
0
  0
VERTEX
  8
0
 62
9
  6
CONTINUOUS
 10
109.0724116041
 20
98.4111100837
  0
VERTEX
  8
0
 62
9
  6
CONTINUOUS
 10
109.0627650278
 20
98.3252382577
  0
VERTEX
  8
0
 62
9
  6
CONTINUOUS
 10
109.0629197539
 20
98.2420338346
  0
VERTEX
  8
0
 62
9
  6
CONTINUOUS
 10
109.0728709609
 20
98.1640813311
  0
VERTEX
  8
0
 62
9
  6
CONTINUOUS
 10
109.0923095237
 20
98.0938021121
  0
VERTEX
  8
0
 62
9
  6
CONTINUOUS
 10
109.1206316207
 20
98.0333791788
  0
VERTEX
  8
0
 62
9
  6
CONTINUOUS
 10
109.1569574953
 20
97.9846893648
  0
VERTEX
  8
0
 62
9
  6
CONTINUOUS
 10
109.2001587867
 20
97.9492450459
  0
VERTEX
  8
0
 62
9
  6
CONTINUOUS
 10
109.24889358
 20
97.9281471706
  0
SEQEND
  0
LINE
  8
DEFAULT_1
 62
2
  6
CENTER
 10
111.7642567903
 20
94.5574897294
 11
111.7642567903
 21
110.1928726366
  0
LINE
  8
0
 62
9
  6
CONTINUOUS
 10
109.3783031025
 20
98.4111100837
 11
109.24889358
 21
97.9281471706
  0
POLYLINE
  8
0
 62
9
  6
CONTINUOUS
 66
1
 70
0
  0
VERTEX
  8
0
 62
9
  6
CONTINUOUS
 10
116.1642530416
 20
96.7268029785
  0
VERTEX
  8
0
 62
9
  6
CONTINUOUS
 10
116.1656527099
 20
96.7067715726
  0
VERTEX
  8
0
 62
9
  6
CONTINUOUS
 10
116.1690638436
 20
96.6858169263
  0
VERTEX
  8
0
 62
9
  6
CONTINUOUS
 10
116.1736982384
 20
96.6642523032
  0
VERTEX
  8
0
 62
9
  6
CONTINUOUS
 10
116.1790133294
 20
96.6425682796
  0
VERTEX
  8
0
 62
9
  6
CONTINUOUS
 10
116.1845489464
 20
96.6213502916
  0
SEQEND
  0
POLYLINE
  8
0
 62
9
  6
CONTINUOUS
 66
1
 70
0
  0
VERTEX
  8
0
 62
9
  6
CONTINUOUS
 10
115.064377567
 20
101.825181183
  0
VERTEX
  8
0
 62
9
  6
CONTINUOUS
 10
115.0593145041
 20
101.9120052718
  0
VERTEX
  8
0
 62
9
  6
CONTINUOUS
 10
115.0442791538
 20
101.9961912547
  0
VERTEX
  8
0
 62
9
  6
CONTINUOUS
 10
115.0197283578
 20
102.075181183
  0
VERTEX
  8
0
 62
9
  6
CONTINUOUS
 10
114.9864080794
 20
102.1465749878
  0
VERTEX
  8
0
 62
9
  6
CONTINUOUS
 10
114.9453307386
 20
102.2082034046
  0
VERTEX
  8
0
 62
9
  6
CONTINUOUS
 10
114.8977444495
 20
102.2581938849
  0
VERTEX
  8
0
 62
9
  6
CONTINUOUS
 10
114.8450950974
 20
102.2950274934
  0
VERTEX
  8
0
 62
9
  6
CONTINUOUS
 10
114.7889824063
 20
102.3175850595
  0
VERTEX
  8
0
 62
9
  6
CONTINUOUS
 10
114.7311113319
 20
102.325181183
  0
SEQEND
  0
POLYLINE
  8
0
 62
9
  6
CONTINUOUS
 66
1
 70
0
  0
VERTEX
  8
0
 62
9
  6
CONTINUOUS
 10
114.4563197892
 20
101.825181183
  0
VERTEX
  8
0
 62
9
  6
CONTINUOUS
 10
114.4512580223
 20
101.9119942434
  0
VERTEX
  8
0
 62
9
  6
CONTINUOUS
 10
114.4362235978
 20
101.9961820962
  0
VERTEX
  8
0
 62
9
  6
CONTINUOUS
 10
114.4116733484
 20
102.0751739888
  0
VERTEX
  8
0
 62
9
  6
CONTINUOUS
 10
114.3783530717
 20
102.1465700348
  0
VERTEX
  8
0
 62
9
  6
CONTINUOUS
 10
114.337275379
 20
102.2082003603
  0
VERTEX
  8
0
 62
9
  6
CONTINUOUS
 10
114.289688458
 20
102.2581923375
  0
VERTEX
  8
0
 62
9
  6
CONTINUOUS
 10
114.2370381924
 20
102.2950270168
  0
VERTEX
  8
0
 62
9
  6
CONTINUOUS
 10
114.1809250851
 20
102.3175849387
  0
VERTEX
  8
0
 62
9
  6
CONTINUOUS
 10
114.1230535541
 20
102.325181183
  0
SEQEND
  0
POLYLINE
  8
0
 62
9
  6
CONTINUOUS
 66
1
 70
0
  0
VERTEX
  8
0
 62
9
  6
CONTINUOUS
 10
115.729485063
 20
103.3953565655
  0
VERTEX
  8
0
 62
9
  6
CONTINUOUS
 10
115.7308125204
 20
103.3340336436
  0
VERTEX
  8
0
 62
9
  6
CONTINUOUS
 10
115.7354620262
 20
103.2652381644
  0
VERTEX
  8
0
 62
9
  6
CONTINUOUS
 10
115.7444769856
 20
103.1892446674
  0
VERTEX
  8
0
 62
9
  6
CONTINUOUS
 10
115.7589264871
 20
103.10656176
  0
VERTEX
  8
0
 62
9
  6
CONTINUOUS
 10
115.7798751686
 20
103.0180577236
  0
VERTEX
  8
0
 62
9
  6
CONTINUOUS
 10
115.8084453539
 20
102.9251848883
  0
SEQEND
  0
LINE
  8
0
 62
9
  6
CONTINUOUS
 10
114.1230535541
 20
97.1397580319
 11
114.1230535541
 21
102.325181183
  0
LINE
  8
0
 62
9
  6
CONTINUOUS
 10
114.4563197892
 20
97.1397580319
 11
114.4563197892
 21
101.825181183
  0
LINE
  8
0
 62
9
  6
CONTINUOUS
 10
115.064377567
 20
96.9768294414
 11
115.064377567
 21
101.825181183
  0
LINE
  8
0
 62
9
  6
CONTINUOUS
 10
115.6642567903
 20
96.7267938694
 11
115.6642567903
 21
102.325181183
  0
LINE
  8
0
 62
9
  6
CONTINUOUS
 10
115.729485063
 20
103.3953565655
 11
115.729485063
 21
105.8384345578
  0
POLYLINE
  8
0
 62
9
  6
CONTINUOUS
 66
1
 70
0
  0
VERTEX
  8
0
 62
9
  6
CONTINUOUS
 10
116.0750147597
 20
108.0023739283
  0
VERTEX
  8
0
 62
9
  6
CONTINUOUS
 10
116.0689819827
 20
107.8828280836
  0
VERTEX
  8
0
 62
9
  6
CONTINUOUS
 10
116.0649700353
 20
107.7521157149
  0
VERTEX
  8
0
 62
9
  6
CONTINUOUS
 10
116.063510834
 20
107.6104001892
  0
SEQEND
  0
POLYLINE
  8
0
 62
9
  6
CONTINUOUS
 66
1
 70
0
  0
VERTEX
  8
0
 62
9
  6
CONTINUOUS
 10
116.1845489464
 20
96.6213502916
  0
VERTEX
  8
0
 62
9
  6
CONTINUOUS
 10
116.2004360673
 20
96.561706063
  0
VERTEX
  8
0
 62
9
  6
CONTINUOUS
 10
116.20553264
 20
96.5419305806
  0
VERTEX
  8
0
 62
9
  6
CONTINUOUS
 10
116.2106199813
 20
96.5213967152
  0
VERTEX
  8
0
 62
9
  6
CONTINUOUS
 10
116.21545989
 20
96.5007814308
  0
VERTEX
  8
0
 62
9
  6
CONTINUOUS
 10
116.219831051
 20
96.4808781202
  0
VERTEX
  8
0
 62
9
  6
CONTINUOUS
 10
116.2235643063
 20
96.4624868059
  0
VERTEX
  8
0
 62
9
  6
CONTINUOUS
 10
116.226632892
 20
96.4459799954
  0
VERTEX
  8
0
 62
9
  6
CONTINUOUS
 10
116.2291164649
 20
96.4312917495
  0
VERTEX
  8
0
 62
9
  6
CONTINUOUS
 10
116.2311445629
 20
96.4180008967
  0
VERTEX
  8
0
 62
9
  6
CONTINUOUS
 10
116.2328581802
 20
96.4054140641
  0
VERTEX
  8
0
 62
9
  6
CONTINUOUS
 10
116.2343443952
 20
96.392958015
  0
VERTEX
  8
0
 62
9
  6
CONTINUOUS
 10
116.2355974549
 20
96.3806383824
  0
VERTEX
  8
0
 62
9
  6
CONTINUOUS
 10
116.2365664687
 20
96.3689754572
  0
VERTEX
  8
0
 62
9
  6
CONTINUOUS
 10
116.2372282522
 20
96.3589777759
  0
VERTEX
  8
0
 62
9
  6
CONTINUOUS
 10
116.2376034682
 20
96.3516320591
  0
VERTEX
  8
0
 62
9
  6
CONTINUOUS
 10
116.2377759178
 20
96.3474572897
  0
SEQEND
  0
POLYLINE
  8
0
 62
9
  6
CONTINUOUS
 66
1
 70
0
  0
VERTEX
  8
0
 62
9
  6
CONTINUOUS
 10
116.0750142578
 20
108.0023739278
  0
VERTEX
  8
0
 62
9
  6
CONTINUOUS
 10
116.0658837679
 20
108.0930939878
  0
VERTEX
  8
0
 62
9
  6
CONTINUOUS
 10
116.0407486167
 20
108.1807937286
  0
VERTEX
  8
0
 62
9
  6
CONTINUOUS
 10
116.0004456169
 20
108.262553404
  0
VERTEX
  8
0
 62
9
  6
CONTINUOUS
 10
115.9463165571
 20
108.3356510276
  0
VERTEX
  8
0
 62
9
  6
CONTINUOUS
 10
115.8801635305
 20
108.3976529945
  0
VERTEX
  8
0
 62
9
  6
CONTINUOUS
 10
115.8041889387
 20
108.4464951025
  0
VERTEX
  8
0
 62
9
  6
CONTINUOUS
 10
115.7209221677
 20
108.4805512741
  0
VERTEX
  8
0
 62
9
  6
CONTINUOUS
 10
115.633135379
 20
108.4986876933
  0
VERTEX
  8
0
 62
9
  6
CONTINUOUS
 10
115.5437512164
 20
108.5003005528
  0
VERTEX
  8
0
 62
9
  6
CONTINUOUS
 10
115.4557455049
 20
108.4853361563
  0
SEQEND
  0
POLYLINE
  8
0
 62
9
  6
CONTINUOUS
 66
1
 70
0
  0
VERTEX
  8
0
 62
9
  6
CONTINUOUS
 10
117.1642567903
 20
99.9569938774
  0
VERTEX
  8
0
 62
9
  6
CONTINUOUS
 10
117.1718529138
 20
99.8711234763
  0
VERTEX
  8
0
 62
9
  6
CONTINUOUS
 10
117.1944104799
 20
99.7878622038
  0
VERTEX
  8
0
 62
9
  6
CONTINUOUS
 10
117.2312440884
 20
99.7097399116
  0
VERTEX
  8
0
 62
9
  6
CONTINUOUS
 10
117.2812345687
 20
99.6391303061
  0
VERTEX
  8
0
 62
9
  6
CONTINUOUS
 10
117.3428629854
 20
99.5781788243
  0
VERTEX
  8
0
 62
9
  6
CONTINUOUS
 10
117.4142567903
 20
99.5287374462
  0
VERTEX
  8
0
 62
9
  6
CONTINUOUS
 10
117.4932467186
 20
99.4923084231
  0
VERTEX
  8
0
 62
9
  6
CONTINUOUS
 10
117.5774327014
 20
99.4699986324
  0
VERTEX
  8
0
 62
9
  6
CONTINUOUS
 10
117.6642567903
 20
99.4624859458
  0
SEQEND
  0
LINE
  8
0
 62
9
  6
CONTINUOUS
 10
116.2377759178
 20
96.3474572897
 11
116.2378201611
 21
96.3462490738
  0
POLYLINE
  8
0
 62
9
  6
CONTINUOUS
 66
1
 70
0
  0
VERTEX
  8
0
 62
9
  6
CONTINUOUS
 10
117.735270527
 20
105.4514382409
  0
VERTEX
  8
0
 62
9
  6
CONTINUOUS
 10
117.7339828423
 20
105.5366583872
  0
VERTEX
  8
0
 62
9
  6
CONTINUOUS
 10
117.7365256446
 20
105.6193808988
  0
VERTEX
  8
0
 62
9
  6
CONTINUOUS
 10
117.7428244097
 20
105.697181335
  0
VERTEX
  8
0
 62
9
  6
CONTINUOUS
 10
117.7526945337
 20
105.7677795107
  0
VERTEX
  8
0
 62
9
  6
CONTINUOUS
 10
117.7658467425
 20
105.8291063246
  0
VERTEX
  8
0
 62
9
  6
CONTINUOUS
 10
117.7818955699
 20
105.8793644013
  0
VERTEX
  8
0
 62
9
  6
CONTINUOUS
 10
117.8003706553
 20
105.917080769
  0
VERTEX
  8
0
 62
9
  6
CONTINUOUS
 10
117.8207305288
 20
105.9411500299
  0
VERTEX
  8
0
 62
9
  6
CONTINUOUS
 10
117.8423784806
 20
105.9508667577
  0
VERTEX
  8
0
 62
9
  6
CONTINUOUS
 10
117.8446714579
 20
105.9510377368
  0
SEQEND
  0
LINE
  8
0
 62
9
  6
CONTINUOUS
 10
116.063510834
 20
107.6104001892
 11
116.063510834
 21
106.2426509271
  0
LINE
  8
0
 62
7
  6
CONTINUOUS
 10
116.1642567903
 20
98.9837128737
 11
116.1642567903
 21
96.7267938694
  0
LINE
  8
0
 62
9
  6
CONTINUOUS
 10
116.3365604228
 20
102.325181183
 11
116.3365604228
 21
101.825181183
  0
LINE
  8
0
 62
9
  6
CONTINUOUS
 10
116.3566417915
 20
107.6104002097
 11
116.3566425116
 21
105.946905023
  0
LINE
  8
0
 62
9
  6
CONTINUOUS
 10
116.4554696777
 20
99.7925978481
 11
116.4554698175
 21
99.298089705
  0
LINE
  8
0
 62
9
  6
CONTINUOUS
 10
116.4642567903
 20
99.2804176327
 11
116.4642567903
 21
97.2337669858
  0
LINE
  8
0
 62
9
  6
CONTINUOUS
 10
116.4642567903
 20
101.8148100317
 11
116.4642567902
 21
102.3148100317
  0
LINE
  8
0
 62
9
  6
CONTINUOUS
 10
116.4642567902
 20
102.4355523343
 11
116.4642567903
 21
102.749922629
  0
LINE
  8
0
 62
9
  6
CONTINUOUS
 10
116.5642567902
 20
99.2980898443
 11
116.5642567903
 21
102.3148100311
  0
LINE
  8
0
 62
9
  6
CONTINUOUS
 10
116.5642567903
 20
102.4355523343
 11
116.5642567903
 21
102.4410444026
  0
LINE
  8
0
 62
9
  6
CONTINUOUS
 10
116.889492352
 20
103.3953565655
 11
116.889492352
 21
105.450026053
  0
LINE
  8
0
 62
7
  6
CONTINUOUS
 10
117.1642567903
 20
99.9569938774
 11
117.1642567903
 21
102.406148899
  0
LINE
  8
0
 62
9
  6
CONTINUOUS
 10
117.6642567903
 20
99.4624859458
 11
117.6642567903
 21
102.2766483012
  0
LINE
  8
0
 62
9
  6
CONTINUOUS
 10
118.2341098383
 20
106.2426509316
 11
118.2341098238
 21
105.9666329033
  0
POLYLINE
  8
0
 62
9
  6
CONTINUOUS
 66
1
 70
0
  0
VERTEX
  8
0
 62
9
  6
CONTINUOUS
 10
116.2448044341
 20
108.3758299755
  0
VERTEX
  8
0
 62
9
  6
CONTINUOUS
 10
116.2439492094
 20
108.351048102
  0
VERTEX
  8
0
 62
9
  6
CONTINUOUS
 10
116.2448693472
 20
108.3132307657
  0
VERTEX
  8
0
 62
9
  6
CONTINUOUS
 10
116.2480284642
 20
108.261482264
  0
VERTEX
  8
0
 62
9
  6
CONTINUOUS
 10
116.2540560596
 20
108.1944654055
  0
VERTEX
  8
0
 62
9
  6
CONTINUOUS
 10
116.263747938
 20
108.1109689992
  0
VERTEX
  8
0
 62
9
  6
CONTINUOUS
 10
116.2779132898
 20
108.0108922158
  0
VERTEX
  8
0
 62
9
  6
CONTINUOUS
 10
116.297492253
 20
107.8938929029
  0
VERTEX
  8
0
 62
9
  6
CONTINUOUS
 10
116.3234197815
 20
107.7602282292
  0
VERTEX
  8
0
 62
9
  6
CONTINUOUS
 10
116.3566417915
 20
107.6104001892
  0
SEQEND
  0
POLYLINE
  8
0
 62
9
  6
CONTINUOUS
 66
1
 70
0
  0
VERTEX
  8
0
 62
9
  6
CONTINUOUS
 10
116.8894923394
 20
105.450026053
  0
VERTEX
  8
0
 62
9
  6
CONTINUOUS
 10
116.8946389338
 20
105.5394579209
  0
VERTEX
  8
0
 62
9
  6
CONTINUOUS
 10
116.9037983549
 20
105.6260017385
  0
VERTEX
  8
0
 62
9
  6
CONTINUOUS
 10
116.9166748194
 20
105.7068627542
  0
VERTEX
  8
0
 62
9
  6
CONTINUOUS
 10
116.9328525105
 20
105.7794297257
  0
VERTEX
  8
0
 62
9
  6
CONTINUOUS
 10
116.9518090041
 20
105.8413592441
  0
VERTEX
  8
0
 62
9
  6
CONTINUOUS
 10
116.9729321394
 20
105.890651411
  0
VERTEX
  8
0
 62
9
  6
CONTINUOUS
 10
116.9955397865
 20
105.9257144241
  0
VERTEX
  8
0
 62
9
  6
CONTINUOUS
 10
117.0189018745
 20
105.9454159849
  0
SEQEND
  0
POLYLINE
  8
0
 62
9
  6
CONTINUOUS
 66
1
 70
0
  0
VERTEX
  8
0
 62
9
  6
CONTINUOUS
 10
115.8084448624
 20
102.925181183
  0
VERTEX
  8
0
 62
9
  6
CONTINUOUS
 10
115.801462801
 20
102.8383636305
  0
VERTEX
  8
0
 62
9
  6
CONTINUOUS
 10
115.7807301839
 20
102.7541766127
  0
VERTEX
  8
0
 62
9
  6
CONTINUOUS
 10
115.7468757828
 20
102.6751855677
  0
VERTEX
  8
0
 62
9
  6
CONTINUOUS
 10
115.7009282589
 20
102.6037906407
  0
VERTEX
  8
0
 62
9
  6
CONTINUOUS
 10
115.6442837227
 20
102.5421611717
  0
VERTEX
  8
0
 62
9
  6
CONTINUOUS
 10
115.5786633143
 20
102.4921697806
  0
VERTEX
  8
0
 62
9
  6
CONTINUOUS
 10
115.5060609073
 20
102.455335467
  0
VERTEX
  8
0
 62
9
  6
CONTINUOUS
 10
115.4286825267
 20
102.4327774546
  0
VERTEX
  8
0
 62
9
  6
CONTINUOUS
 10
115.3488793189
 20
102.425181183
  0
SEQEND
  0
POLYLINE
  8
0
 62
9
  6
CONTINUOUS
 66
1
 70
0
  0
VERTEX
  8
0
 62
9
  6
CONTINUOUS
 10
116.1642567903
 20
98.9837128737
  0
VERTEX
  8
0
 62
9
  6
CONTINUOUS
 10
116.1700212061
 20
99.0415971006
  0
VERTEX
  8
0
 62
9
  6
CONTINUOUS
 10
116.1870929305
 20
99.0972568692
  0
VERTEX
  8
0
 62
9
  6
CONTINUOUS
 10
116.2148159066
 20
99.1485532058
  0
VERTEX
  8
0
 62
9
  6
CONTINUOUS
 10
116.2521247559
 20
99.1935148208
  0
VERTEX
  8
0
 62
9
  6
CONTINUOUS
 10
116.2975857204
 20
99.2304138646
  0
VERTEX
  8
0
 62
9
  6
CONTINUOUS
 10
116.3494517606
 20
99.2578323277
  0
VERTEX
  8
0
 62
9
  6
CONTINUOUS
 10
116.4057296937
 20
99.2747165339
  0
VERTEX
  8
0
 62
9
  6
CONTINUOUS
 10
116.4642567903
 20
99.2804176327
  0
SEQEND
  0
POLYLINE
  8
0
 62
9
  6
CONTINUOUS
 66
1
 70
0
  0
VERTEX
  8
0
 62
9
  6
CONTINUOUS
 10
116.1655098715
 20
98.9835880406
  0
VERTEX
  8
0
 62
9
  6
CONTINUOUS
 10
116.1700252884
 20
99.0289140593
  0
VERTEX
  8
0
 62
9
  6
CONTINUOUS
 10
116.1871088977
 20
99.0845916514
  0
VERTEX
  8
0
 62
9
  6
CONTINUOUS
 10
116.2148506016
 20
99.1359012135
  0
VERTEX
  8
0
 62
9
  6
CONTINUOUS
 10
116.2521825112
 20
99.180868591
  0
VERTEX
  8
0
 62
9
  6
CONTINUOUS
 10
116.2976699657
 20
99.2177661818
  0
VERTEX
  8
0
 62
9
  6
CONTINUOUS
 10
116.3495566784
 20
99.2451719506
  0
VERTEX
  8
0
 62
9
  6
CONTINUOUS
 10
116.4058530171
 20
99.2620374333
  0
VERTEX
  8
0
 62
9
  6
CONTINUOUS
 10
116.4642567903
 20
99.2677142976
  0
SEQEND
  0
LINE
  8
0
 62
9
  6
CONTINUOUS
 10
116.3365604228
 20
101.825181183
 11
116.4172361227
 21
102.3186296924
  0
POLYLINE
  8
0
 62
9
  6
CONTINUOUS
 66
1
 70
0
  0
VERTEX
  8
0
 62
9
  6
CONTINUOUS
 10
114.4563197892
 20
97.1397580319
  0
VERTEX
  8
0
 62
9
  6
CONTINUOUS
 10
114.4385994225
 20
97.0546944015
  0
VERTEX
  8
0
 62
9
  6
CONTINUOUS
 10
114.4112995057
 20
96.9721862138
  0
VERTEX
  8
0
 62
9
  6
CONTINUOUS
 10
114.3752523526
 20
96.8947632266
  0
VERTEX
  8
0
 62
9
  6
CONTINUOUS
 10
114.3315508886
 20
96.824773595
  0
VERTEX
  8
0
 62
9
  6
CONTINUOUS
 10
114.2815220707
 20
96.7643430721
  0
VERTEX
  8
0
 62
9
  6
CONTINUOUS
 10
114.2266840464
 20
96.7153054509
  0
VERTEX
  8
0
 62
9
  6
CONTINUOUS
 10
114.1687010115
 20
96.6791489516
  0
VERTEX
  8
0
 62
9
  6
CONTINUOUS
 10
114.1093333087
 20
96.6569710616
  0
VERTEX
  8
0
 62
9
  6
CONTINUOUS
 10
114.0503819763
 20
96.6494443621
  0
VERTEX
  8
0
 62
9
  6
CONTINUOUS
 10
113.9936440315
 20
96.6567951188
  0
SEQEND
  0
POLYLINE
  8
0
 62
9
  6
CONTINUOUS
 66
1
 70
0
  0
VERTEX
  8
0
 62
9
  6
CONTINUOUS
 10
115.064377567
 20
96.9768294414
  0
VERTEX
  8
0
 62
9
  6
CONTINUOUS
 10
115.0466511178
 20
96.8917431575
  0
VERTEX
  8
0
 62
9
  6
CONTINUOUS
 10
115.0193498172
 20
96.8092387566
  0
VERTEX
  8
0
 62
9
  6
CONTINUOUS
 10
114.9833021002
 20
96.7318197754
  0
VERTEX
  8
0
 62
9
  6
CONTINUOUS
 10
114.9396018043
 20
96.6618354407
  0
VERTEX
  8
0
 62
9
  6
CONTINUOUS
 10
114.8895749786
 20
96.601409385
  0
VERTEX
  8
0
 62
9
  6
CONTINUOUS
 10
114.8347396479
 20
96.5523752072
  0
VERTEX
  8
0
 62
9
  6
CONTINUOUS
 10
114.7767597506
 20
96.5162208326
  0
VERTEX
  8
0
 62
9
  6
CONTINUOUS
 10
114.7173946489
 20
96.4940433622
  0
VERTEX
  8
0
 62
9
  6
CONTINUOUS
 10
114.658445743
 20
96.4865157798
  0
VERTEX
  8
0
 62
9
  6
CONTINUOUS
 10
114.6017018094
 20
96.4938665283
  0
SEQEND
  0
POLYLINE
  8
0
 62
9
  6
CONTINUOUS
 66
1
 70
0
  0
VERTEX
  8
0
 62
9
  6
CONTINUOUS
 10
117.1642567903
 20
101.9792061332
  0
VERTEX
  8
0
 62
9
  6
CONTINUOUS
 10
117.1591640088
 20
101.9578326866
  0
VERTEX
  8
0
 62
9
  6
CONTINUOUS
 10
117.1437628032
 20
101.9366080867
  0
VERTEX
  8
0
 62
9
  6
CONTINUOUS
 10
117.1181868206
 20
101.9160330872
  0
VERTEX
  8
0
 62
9
  6
CONTINUOUS
 10
117.0829744167
 20
101.8965846049
  0
VERTEX
  8
0
 62
9
  6
CONTINUOUS
 10
117.038947958
 20
101.8786588834
  0
VERTEX
  8
0
 62
9
  6
CONTINUOUS
 10
116.9869438326
 20
101.862530187
  0
VERTEX
  8
0
 62
9
  6
CONTINUOUS
 10
116.9278308377
 20
101.8484291109
  0
VERTEX
  8
0
 62
9
  6
CONTINUOUS
 10
116.8624759524
 20
101.8365537836
  0
VERTEX
  8
0
 62
9
  6
CONTINUOUS
 10
116.7918462473
 20
101.8270953537
  0
VERTEX
  8
0
 62
9
  6
CONTINUOUS
 10
116.7174236808
 20
101.8202565401
  0
VERTEX
  8
0
 62
9
  6
CONTINUOUS
 10
116.6409625917
 20
101.8161589078
  0
VERTEX
  8
0
 62
9
  6
CONTINUOUS
 10
116.5642567903
 20
101.8148100317
  0
SEQEND
  0
LINE
  8
0
 62
9
  6
CONTINUOUS
 10
116.4642567903
 20
97.2337669758
 11
116.3678053921
 21
96.8294008872
  0
LINE
  8
0
 62
9
  6
CONTINUOUS
 10
116.3678053921
 20
96.8294008872
 11
116.2550367471
 21
96.3644613039
  0
LINE
  8
0
 62
9
  6
CONTINUOUS
 10
114.1230535541
 20
97.1397580319
 11
113.9936440315
 21
96.6567951188
  0
LINE
  8
0
 62
9
  6
CONTINUOUS
 10
115.6642567902
 20
96.7267938694
 11
115.5348472677
 21
96.2438309563
  0
POLYLINE
  8
0
 62
9
  6
CONTINUOUS
 66
1
 70
0
  0
VERTEX
  8
0
 62
9
  6
CONTINUOUS
 10
116.2102191449
 20
108.3405499858
  0
VERTEX
  8
0
 62
9
  6
CONTINUOUS
 10
116.2063475388
 20
108.3279724655
  0
VERTEX
  8
0
 62
9
  6
CONTINUOUS
 10
116.202142466
 20
108.3145705386
  0
VERTEX
  8
0
 62
9
  6
CONTINUOUS
 10
116.1977305066
 20
108.3008642333
  0
VERTEX
  8
0
 62
9
  6
CONTINUOUS
 10
116.1930130073
 20
108.286599281
  0
VERTEX
  8
0
 62
9
  6
CONTINUOUS
 10
116.1879286922
 20
108.2716659629
  0
VERTEX
  8
0
 62
9
  6
CONTINUOUS
 10
116.1824390036
 20
108.2560386801
  0
VERTEX
  8
0
 62
9
  6
CONTINUOUS
 10
116.1765090465
 20
108.2396994308
  0
VERTEX
  8
0
 62
9
  6
CONTINUOUS
 10
116.1701086972
 20
108.2226381156
  0
VERTEX
  8
0
 62
9
  6
CONTINUOUS
 10
116.1631994521
 20
108.2048143124
  0
VERTEX
  8
0
 62
9
  6
CONTINUOUS
 10
116.1557436393
 20
108.1861952146
  0
VERTEX
  8
0
 62
9
  6
CONTINUOUS
 10
116.1477128839
 20
108.166772415
  0
VERTEX
  8
0
 62
9
  6
CONTINUOUS
 10
116.1391420155
 20
108.1466648276
  0
VERTEX
  8
0
 62
9
  6
CONTINUOUS
 10
116.1302085083
 20
108.1262738818
  0
VERTEX
  8
0
 62
9
  6
CONTINUOUS
 10
116.1209822692
 20
108.1057001352
  0
SEQEND
  0
POLYLINE
  8
0
 62
9
  6
CONTINUOUS
 66
1
 70
0
  0
VERTEX
  8
0
 62
9
  6
CONTINUOUS
 10
115.9349693544
 20
106.0121252271
  0
VERTEX
  8
0
 62
9
  6
CONTINUOUS
 10
115.9023645013
 20
105.9342770165
  0
VERTEX
  8
0
 62
9
  6
CONTINUOUS
 10
115.8932333518
 20
105.9131165482
  0
VERTEX
  8
0
 62
9
  6
CONTINUOUS
 10
115.8849208998
 20
105.8945596815
  0
VERTEX
  8
0
 62
9
  6
CONTINUOUS
 10
115.8774836541
 20
105.878771594
  0
VERTEX
  8
0
 62
9
  6
CONTINUOUS
 10
115.870482191
 20
105.8648341296
  0
VERTEX
  8
0
 62
9
  6
CONTINUOUS
 10
115.8634653379
 20
105.851970602
  0
VERTEX
  8
0
 62
9
  6
CONTINUOUS
 10
115.8561677706
 20
105.8399785593
  0
VERTEX
  8
0
 62
9
  6
CONTINUOUS
 10
115.8485607545
 20
105.8291409546
  0
VERTEX
  8
0
 62
9
  6
CONTINUOUS
 10
115.8406560563
 20
105.8197700919
  0
VERTEX
  8
0
 62
9
  6
CONTINUOUS
 10
115.8324156357
 20
105.8119908469
  0
VERTEX
  8
0
 62
9
  6
CONTINUOUS
 10
115.8234547274
 20
105.8057059187
  0
VERTEX
  8
0
 62
9
  6
CONTINUOUS
 10
115.8130176202
 20
105.800930317
  0
VERTEX
  8
0
 62
9
  6
CONTINUOUS
 10
115.8005408264
 20
105.7984589401
  0
VERTEX
  8
0
 62
9
  6
CONTINUOUS
 10
115.7859017469
 20
105.7995109671
  0
VERTEX
  8
0
 62
9
  6
CONTINUOUS
 10
115.7691357088
 20
105.8054800718
  0
VERTEX
  8
0
 62
9
  6
CONTINUOUS
 10
115.7502750391
 20
105.8178836494
  0
VERTEX
  8
0
 62
9
  6
CONTINUOUS
 10
115.729485063
 20
105.8384345578
  0
SEQEND
  0
POLYLINE
  8
0
 62
9
  6
CONTINUOUS
 66
1
 70
0
  0
VERTEX
  8
0
 62
9
  6
CONTINUOUS
 10
116.0921160064
 20
108.04262751
  0
VERTEX
  8
0
 62
9
  6
CONTINUOUS
 10
116.0829901893
 20
108.0219912221
  0
VERTEX
  8
0
 62
9
  6
CONTINUOUS
 10
116.0750131371
 20
108.0023746026
  0
SEQEND
  0
LINE
  8
0
 62
9
  6
CONTINUOUS
 10
116.1209822692
 20
108.1057001352
 11
116.0921160064
 21
108.04262751
  0
POLYLINE
  8
0
 62
9
  6
CONTINUOUS
 66
1
 70
0
  0
VERTEX
  8
0
 62
9
  6
CONTINUOUS
 10
116.2311686199
 20
108.4038201364
  0
VERTEX
  8
0
 62
9
  6
CONTINUOUS
 10
116.2287762811
 20
108.3986897732
  0
VERTEX
  8
0
 62
9
  6
CONTINUOUS
 10
116.22612172
 20
108.3916177495
  0
VERTEX
  8
0
 62
9
  6
CONTINUOUS
 10
116.2232341935
 20
108.3829924631
  0
VERTEX
  8
0
 62
9
  6
CONTINUOUS
 10
116.2201650189
 20
108.3732420747
  0
VERTEX
  8
0
 62
9
  6
CONTINUOUS
 10
116.2102191449
 20
108.3405499858
  0
SEQEND
  0
LINE
  8
0
 62
9
  6
CONTINUOUS
 10
116.1593827295
 20
99.0003660553
 11
116.1642567903
 21
98.9837128737
  0
LINE
  8
0
 62
9
  6
CONTINUOUS
 10
116.4172361202
 20
102.4317326732
 11
116.4163706525
 21
102.4370136053
  0
POLYLINE
  8
0
 62
9
  6
CONTINUOUS
 66
1
 70
0
  0
VERTEX
  8
0
 62
9
  6
CONTINUOUS
 10
116.063510834
 20
106.2426509316
  0
VERTEX
  8
0
 62
9
  6
CONTINUOUS
 10
116.0708881056
 20
106.1862129832
  0
VERTEX
  8
0
 62
9
  6
CONTINUOUS
 10
116.0887546877
 20
106.1318467587
  0
VERTEX
  8
0
 62
9
  6
CONTINUOUS
 10
116.1164547277
 20
106.0815478808
  0
VERTEX
  8
0
 62
9
  6
CONTINUOUS
 10
116.1529714277
 20
106.0371626901
  0
VERTEX
  8
0
 62
9
  6
CONTINUOUS
 10
116.1969643548
 20
106.0003204521
  0
VERTEX
  8
0
 62
9
  6
CONTINUOUS
 10
116.2468186439
 20
105.9723735516
  0
VERTEX
  8
0
 62
9
  6
CONTINUOUS
 10
116.3007042749
 20
105.9543478507
  0
VERTEX
  8
0
 62
9
  6
CONTINUOUS
 10
116.3566425116
 20
105.9469050295
  0
SEQEND
  0
LINE
  8
0
 62
9
  6
CONTINUOUS
 10
119.0867668692
 20
99.2677142976
 11
119.0867668692
 21
98.9710095385
  0
POLYLINE
  8
0
 62
9
  6
CONTINUOUS
 66
1
 70
0
  0
VERTEX
  8
0
 62
9
  6
CONTINUOUS
 10
116.1264201358
 20
102.7087528273
  0
VERTEX
  8
0
 62
9
  6
CONTINUOUS
 10
116.0797729181
 20
102.6286532735
  0
VERTEX
  8
0
 62
9
  6
CONTINUOUS
 10
116.0194996308
 20
102.5589137263
  0
VERTEX
  8
0
 62
9
  6
CONTINUOUS
 10
115.9477060849
 20
102.5019707259
  0
VERTEX
  8
0
 62
9
  6
CONTINUOUS
 10
115.8669005827
 20
102.4598137306
  0
VERTEX
  8
0
 62
9
  6
CONTINUOUS
 10
115.7799062836
 20
102.4339156093
  0
VERTEX
  8
0
 62
9
  6
CONTINUOUS
 10
115.6897625695
 20
102.425181183
  0
SEQEND
  0
POLYLINE
  8
0
 62
9
  6
CONTINUOUS
 66
1
 70
0
  0
VERTEX
  8
0
 62
9
  6
CONTINUOUS
 10
116.1264200747
 20
102.7087528349
  0
VERTEX
  8
0
 62
9
  6
CONTINUOUS
 10
116.1553765115
 20
102.7548956708
  0
VERTEX
  8
0
 62
9
  6
CONTINUOUS
 10
116.1920242124
 20
102.7952301681
  0
VERTEX
  8
0
 62
9
  6
CONTINUOUS
 10
116.2351535152
 20
102.8284248391
  0
VERTEX
  8
0
 62
9
  6
CONTINUOUS
 10
116.2833409945
 20
102.8533841376
  0
VERTEX
  8
0
 62
9
  6
CONTINUOUS
 10
116.3349962853
 20
102.869284315
  0
VERTEX
  8
0
 62
9
  6
CONTINUOUS
 10
116.3884145725
 20
102.875600608
  0
SEQEND
  0
POLYLINE
  8
0
 62
9
  6
CONTINUOUS
 66
1
 70
0
  0
VERTEX
  8
0
 62
9
  6
CONTINUOUS
 10
116.455469691
 20
99.298089705
  0
VERTEX
  8
0
 62
9
  6
CONTINUOUS
 10
116.4619920228
 20
99.2894064087
  0
VERTEX
  8
0
 62
9
  6
CONTINUOUS
 10
116.4642567903
 20
99.2804176327
  0
SEQEND
  0
POLYLINE
  8
0
 62
9
  6
CONTINUOUS
 66
1
 70
0
  0
VERTEX
  8
0
 62
9
  6
CONTINUOUS
 10
116.3884145725
 20
102.8756005964
  0
VERTEX
  8
0
 62
9
  6
CONTINUOUS
 10
116.38720799
 20
102.8775991648
  0
VERTEX
  8
0
 62
9
  6
CONTINUOUS
 10
116.3867163657
 20
102.8800343342
  0
VERTEX
  8
0
 62
9
  6
CONTINUOUS
 10
116.3870034243
 20
102.8829575124
  0
VERTEX
  8
0
 62
9
  6
CONTINUOUS
 10
116.3881461384
 20
102.8864319449
  0
VERTEX
  8
0
 62
9
  6
CONTINUOUS
 10
116.3902366775
 20
102.8905289423
  0
VERTEX
  8
0
 62
9
  6
CONTINUOUS
 10
116.3933784207
 20
102.895323571
  0
VERTEX
  8
0
 62
9
  6
CONTINUOUS
 10
116.3976884536
 20
102.9009016561
  0
VERTEX
  8
0
 62
9
  6
CONTINUOUS
 10
116.4033172245
 20
102.9073803006
  0
VERTEX
  8
0
 62
9
  6
CONTINUOUS
 10
116.4104294459
 20
102.9148810711
  0
VERTEX
  8
0
 62
9
  6
CONTINUOUS
 10
116.4191586531
 20
102.9234915886
  0
VERTEX
  8
0
 62
9
  6
CONTINUOUS
 10
116.4296858614
 20
102.9333503262
  0
VERTEX
  8
0
 62
9
  6
CONTINUOUS
 10
116.4422729232
 20
102.944668568
  0
VERTEX
  8
0
 62
9
  6
CONTINUOUS
 10
116.4570920278
 20
102.9575791511
  0
VERTEX
  8
0
 62
9
  6
CONTINUOUS
 10
116.4741200027
 20
102.9720649913
  0
VERTEX
  8
0
 62
9
  6
CONTINUOUS
 10
116.4929297205
 20
102.9878002389
  0
SEQEND
  0
POLYLINE
  8
0
 62
9
  6
CONTINUOUS
 66
1
 70
0
  0
VERTEX
  8
0
 62
9
  6
CONTINUOUS
 10
116.2234742882
 20
102.6302041494
  0
VERTEX
  8
0
 62
9
  6
CONTINUOUS
 10
116.2318283038
 20
102.6125267941
  0
VERTEX
  8
0
 62
9
  6
CONTINUOUS
 10
116.2402218559
 20
102.5962999213
  0
VERTEX
  8
0
 62
9
  6
CONTINUOUS
 10
116.2486183204
 20
102.5813882693
  0
VERTEX
  8
0
 62
9
  6
CONTINUOUS
 10
116.2570234053
 20
102.5676188178
  0
VERTEX
  8
0
 62
9
  6
CONTINUOUS
 10
116.2654718248
 20
102.5548150961
  0
VERTEX
  8
0
 62
9
  6
CONTINUOUS
 10
116.27401567
 20
102.5428174337
  0
VERTEX
  8
0
 62
9
  6
CONTINUOUS
 10
116.2826455683
 20
102.5315807511
  0
VERTEX
  8
0
 62
9
  6
CONTINUOUS
 10
116.2912627733
 20
102.5211713805
  0
VERTEX
  8
0
 62
9
  6
CONTINUOUS
 10
116.2997773229
 20
102.5116218826
  0
VERTEX
  8
0
 62
9
  6
CONTINUOUS
 10
116.3081574376
 20
102.5028889648
  0
VERTEX
  8
0
 62
9
  6
CONTINUOUS
 10
116.3163995029
 20
102.4949049347
  0
VERTEX
  8
0
 62
9
  6
CONTINUOUS
 10
116.3245076286
 20
102.4876040331
  0
VERTEX
  8
0
 62
9
  6
CONTINUOUS
 10
116.3324815863
 20
102.4809328343
  0
VERTEX
  8
0
 62
9
  6
CONTINUOUS
 10
116.3403013044
 20
102.4748589959
  0
VERTEX
  8
0
 62
9
  6
CONTINUOUS
 10
116.3479306663
 20
102.4693621088
  0
VERTEX
  8
0
 62
9
  6
CONTINUOUS
 10
116.3553384037
 20
102.4644159116
  0
VERTEX
  8
0
 62
9
  6
CONTINUOUS
 10
116.3625189075
 20
102.4599774037
  0
VERTEX
  8
0
 62
9
  6
CONTINUOUS
 10
116.3694953925
 20
102.4559910861
  0
VERTEX
  8
0
 62
9
  6
CONTINUOUS
 10
116.3763108976
 20
102.452399219
  0
VERTEX
  8
0
 62
9
  6
CONTINUOUS
 10
116.3830239575
 20
102.4491469331
  0
VERTEX
  8
0
 62
9
  6
CONTINUOUS
 10
116.3896898354
 20
102.4461922202
  0
VERTEX
  8
0
 62
9
  6
CONTINUOUS
 10
116.396337071
 20
102.4435133433
  0
VERTEX
  8
0
 62
9
  6
CONTINUOUS
 10
116.4029790528
 20
102.4410990295
  0
VERTEX
  8
0
 62
9
  6
CONTINUOUS
 10
116.4096420359
 20
102.4389367357
  0
VERTEX
  8
0
 62
9
  6
CONTINUOUS
 10
116.4163701393
 20
102.4370134958
  0
SEQEND
  0
POLYLINE
  8
0
 62
9
  6
CONTINUOUS
 66
1
 70
0
  0
VERTEX
  8
0
 62
9
  6
CONTINUOUS
 10
117.6642567903
 20
102.2766483012
  0
VERTEX
  8
0
 62
9
  6
CONTINUOUS
 10
117.6549527578
 20
102.297985016
  0
VERTEX
  8
0
 62
9
  6
CONTINUOUS
 10
117.6267536376
 20
102.3192086985
  0
VERTEX
  8
0
 62
9
  6
CONTINUOUS
 10
117.5798915376
 20
102.339787686
  0
VERTEX
  8
0
 62
9
  6
CONTINUOUS
 10
117.5153399428
 20
102.3592448914
  0
VERTEX
  8
0
 62
9
  6
CONTINUOUS
 10
117.4346095716
 20
102.3771796226
  0
SEQEND
  0
POLYLINE
  8
0
 62
9
  6
CONTINUOUS
 66
1
 70
0
  0
VERTEX
  8
0
 62
9
  6
CONTINUOUS
 10
116.2234743319
 20
102.6302040424
  0
VERTEX
  8
0
 62
9
  6
CONTINUOUS
 10
116.1616183622
 20
102.5599628452
  0
VERTEX
  8
0
 62
9
  6
CONTINUOUS
 10
116.0878054508
 20
102.502586336
  0
VERTEX
  8
0
 62
9
  6
CONTINUOUS
 10
116.0046356316
 20
102.4600955821
  0
VERTEX
  8
0
 62
9
  6
CONTINUOUS
 10
115.9150385323
 20
102.4339873055
  0
VERTEX
  8
0
 62
9
  6
CONTINUOUS
 10
115.8221701793
 20
102.425181161
  0
SEQEND
  0
POLYLINE
  8
0
 62
9
  6
CONTINUOUS
 66
1
 70
0
  0
VERTEX
  8
0
 62
9
  6
CONTINUOUS
 10
116.063510834
 20
106.2426509271
  0
VERTEX
  8
0
 62
9
  6
CONTINUOUS
 10
116.0395460628
 20
106.2166049715
  0
VERTEX
  8
0
 62
9
  6
CONTINUOUS
 10
116.0174670048
 20
106.1837492992
  0
VERTEX
  8
0
 62
9
  6
CONTINUOUS
 10
115.9975178814
 20
106.1482942229
  0
VERTEX
  8
0
 62
9
  6
CONTINUOUS
 10
115.9793823594
 20
106.1121481979
  0
VERTEX
  8
0
 62
9
  6
CONTINUOUS
 10
115.9629476616
 20
106.0767263453
  0
VERTEX
  8
0
 62
9
  6
CONTINUOUS
 10
115.9482008183
 20
106.0432145475
  0
VERTEX
  8
0
 62
9
  6
CONTINUOUS
 10
115.9349693544
 20
106.0121252271
  0
SEQEND
  0
POLYLINE
  8
0
 62
9
  6
CONTINUOUS
 66
1
 70
0
  0
VERTEX
  8
0
 62
9
  6
CONTINUOUS
 10
116.2234742882
 20
102.6302041494
  0
VERTEX
  8
0
 62
9
  6
CONTINUOUS
 10
116.2607938107
 20
102.6712567656
  0
VERTEX
  8
0
 62
9
  6
CONTINUOUS
 10
116.3051569704
 20
102.7047610766
  0
VERTEX
  8
0
 62
9
  6
CONTINUOUS
 10
116.3550279915
 20
102.7295572374
  0
VERTEX
  8
0
 62
9
  6
CONTINUOUS
 10
116.4086803939
 20
102.7447868322
  0
VERTEX
  8
0
 62
9
  6
CONTINUOUS
 10
116.4642567903
 20
102.749922629
  0
SEQEND
  0
POLYLINE
  8
0
 62
9
  6
CONTINUOUS
 66
1
 70
0
  0
VERTEX
  8
0
 62
9
  6
CONTINUOUS
 10
116.3883977997
 20
102.8755999247
  0
VERTEX
  8
0
 62
9
  6
CONTINUOUS
 10
116.4451209197
 20
102.8132428334
  0
VERTEX
  8
0
 62
9
  6
CONTINUOUS
 10
116.4642567903
 20
102.749922629
  0
SEQEND
  0
POLYLINE
  8
0
 62
9
  6
CONTINUOUS
 66
1
 70
0
  0
VERTEX
  8
0
 62
9
  6
CONTINUOUS
 10
116.6591449257
 20
103.1258442091
  0
VERTEX
  8
0
 62
9
  6
CONTINUOUS
 10
116.6762347434
 20
103.1404652528
  0
VERTEX
  8
0
 62
9
  6
CONTINUOUS
 10
116.69307235
 20
103.1550150932
  0
VERTEX
  8
0
 62
9
  6
CONTINUOUS
 10
116.7096188598
 20
103.1694746992
  0
VERTEX
  8
0
 62
9
  6
CONTINUOUS
 10
116.7258332827
 20
103.1838260227
  0
VERTEX
  8
0
 62
9
  6
CONTINUOUS
 10
116.7416733212
 20
103.1980540404
  0
VERTEX
  8
0
 62
9
  6
CONTINUOUS
 10
116.7570935709
 20
103.21214656
  0
VERTEX
  8
0
 62
9
  6
CONTINUOUS
 10
116.7719838833
 20
103.2260374355
  0
VERTEX
  8
0
 62
9
  6
CONTINUOUS
 10
116.7862452635
 20
103.2396736458
  0
VERTEX
  8
0
 62
9
  6
CONTINUOUS
 10
116.79980106
 20
103.2530264277
  0
VERTEX
  8
0
 62
9
  6
CONTINUOUS
 10
116.8125764877
 20
103.2660717195
  0
VERTEX
  8
0
 62
9
  6
CONTINUOUS
 10
116.8244950333
 20
103.2787842705
  0
VERTEX
  8
0
 62
9
  6
CONTINUOUS
 10
116.8354668038
 20
103.2911196489
  0
VERTEX
  8
0
 62
9
  6
CONTINUOUS
 10
116.8454565335
 20
103.3030862318
  0
VERTEX
  8
0
 62
9
  6
CONTINUOUS
 10
116.854449355
 20
103.3147135429
  0
VERTEX
  8
0
 62
9
  6
CONTINUOUS
 10
116.8623779213
 20
103.3259503882
  0
VERTEX
  8
0
 62
9
  6
CONTINUOUS
 10
116.8691540587
 20
103.3366639817
  0
VERTEX
  8
0
 62
9
  6
CONTINUOUS
 10
116.8747440407
 20
103.3467147316
  0
VERTEX
  8
0
 62
9
  6
CONTINUOUS
 10
116.8792259506
 20
103.3560745831
  0
VERTEX
  8
0
 62
9
  6
CONTINUOUS
 10
116.8827324368
 20
103.3647966584
  0
VERTEX
  8
0
 62
9
  6
CONTINUOUS
 10
116.8853965228
 20
103.3729518706
  0
VERTEX
  8
0
 62
9
  6
CONTINUOUS
 10
116.8873463692
 20
103.3806527077
  0
VERTEX
  8
0
 62
9
  6
CONTINUOUS
 10
116.8886911431
 20
103.3880730958
  0
VERTEX
  8
0
 62
9
  6
CONTINUOUS
 10
116.889492352
 20
103.3953565655
  0
SEQEND
  0
LINE
  8
0
 62
9
  6
CONTINUOUS
 10
116.6242484097
 20
103.0963738311
 11
116.6591449257
 21
103.1258442091
  0
LINE
  8
0
 62
9
  6
CONTINUOUS
 10
116.5883365588
 20
103.0664718193
 11
116.6242484097
 21
103.0963738311
  0
LINE
  8
0
 62
9
  6
CONTINUOUS
 10
116.4929297205
 20
102.9878002389
 11
116.5883365588
 21
103.0664718193
  0
POLYLINE
  8
0
 62
9
  6
CONTINUOUS
 66
1
 70
0
  0
VERTEX
  8
0
 62
9
  6
CONTINUOUS
 10
116.1883625116
 20
105.8397331371
  0
VERTEX
  8
0
 62
9
  6
CONTINUOUS
 10
116.1577952473
 20
105.8182941796
  0
VERTEX
  8
0
 62
9
  6
CONTINUOUS
 10
116.1285759607
 20
105.798603029
  0
VERTEX
  8
0
 62
9
  6
CONTINUOUS
 10
116.1006403115
 20
105.7808495123
  0
VERTEX
  8
0
 62
9
  6
CONTINUOUS
 10
116.073876203
 20
105.7650990764
  0
VERTEX
  8
0
 62
9
  6
CONTINUOUS
 10
116.0480814804
 20
105.751350305
  0
VERTEX
  8
0
 62
9
  6
CONTINUOUS
 10
116.023123549
 20
105.7396361393
  0
VERTEX
  8
0
 62
9
  6
CONTINUOUS
 10
115.9995153462
 20
105.7301954807
  0
VERTEX
  8
0
 62
9
  6
CONTINUOUS
 10
115.9777245976
 20
105.7231361575
  0
VERTEX
  8
0
 62
9
  6
CONTINUOUS
 10
115.9568580897
 20
105.7180061298
  0
VERTEX
  8
0
 62
9
  6
CONTINUOUS
 10
115.9359516497
 20
105.7146870594
  0
VERTEX
  8
0
 62
9
  6
CONTINUOUS
 10
115.9147125066
 20
105.7133335475
  0
VERTEX
  8
0
 62
9
  6
CONTINUOUS
 10
115.8939308828
 20
105.7142141033
  0
VERTEX
  8
0
 62
9
  6
CONTINUOUS
 10
115.8743548512
 20
105.7171766598
  0
VERTEX
  8
0
 62
9
  6
CONTINUOUS
 10
115.8564446752
 20
105.7219284968
  0
VERTEX
  8
0
 62
9
  6
CONTINUOUS
 10
115.8395307489
 20
105.7283629334
  0
VERTEX
  8
0
 62
9
  6
CONTINUOUS
 10
115.8225344562
 20
105.736992424
  0
VERTEX
  8
0
 62
9
  6
CONTINUOUS
 10
115.8048755612
 20
105.7485914028
  0
VERTEX
  8
0
 62
9
  6
CONTINUOUS
 10
115.7867323591
 20
105.7636700833
  0
VERTEX
  8
0
 62
9
  6
CONTINUOUS
 10
115.7681247725
 20
105.7830095599
  0
VERTEX
  8
0
 62
9
  6
CONTINUOUS
 10
115.7490389858
 20
105.8075235718
  0
VERTEX
  8
0
 62
9
  6
CONTINUOUS
 10
115.7294844131
 20
105.8384345578
  0
SEQEND
  0
POLYLINE
  8
0
 62
9
  6
CONTINUOUS
 66
1
 70
0
  0
VERTEX
  8
0
 62
9
  6
CONTINUOUS
 10
116.2349715264
 20
108.4066541472
  0
VERTEX
  8
0
 62
9
  6
CONTINUOUS
 10
116.2426630087
 20
108.3982536116
  0
VERTEX
  8
0
 62
9
  6
CONTINUOUS
 10
116.2506696523
 20
108.3901514479
  0
SEQEND
  0
POLYLINE
  8
0
 62
9
  6
CONTINUOUS
 66
1
 70
0
  0
VERTEX
  8
0
 62
9
  6
CONTINUOUS
 10
116.3566432393
 20
105.9469050132
  0
VERTEX
  8
0
 62
9
  6
CONTINUOUS
 10
116.3214617699
 20
105.9299914596
  0
VERTEX
  8
0
 62
9
  6
CONTINUOUS
 10
116.2867263114
 20
105.908743902
  0
VERTEX
  8
0
 62
9
  6
CONTINUOUS
 10
116.2530563758
 20
105.88584198
  0
VERTEX
  8
0
 62
9
  6
CONTINUOUS
 10
116.1883625116
 20
105.8397331371
  0
SEQEND
  0
POLYLINE
  8
0
 62
9
  6
CONTINUOUS
 66
1
 70
0
  0
VERTEX
  8
0
 62
9
  6
CONTINUOUS
 10
116.2506703397
 20
108.3901521536
  0
VERTEX
  8
0
 62
9
  6
CONTINUOUS
 10
116.2470940958
 20
108.3886258619
  0
VERTEX
  8
0
 62
9
  6
CONTINUOUS
 10
116.2448044341
 20
108.3758299755
  0
SEQEND
  0
LINE
  8
0
 62
9
  6
CONTINUOUS
 10
115.064377567
 20
96.9768294414
 11
115.6642567903
 21
96.7267938694
  0
POLYLINE
  8
0
 62
9
  6
CONTINUOUS
 66
1
 70
0
  0
VERTEX
  8
0
 62
9
  6
CONTINUOUS
 10
115.8084441185
 20
102.9251882048
  0
VERTEX
  8
0
 62
9
  6
CONTINUOUS
 10
115.870598999
 20
102.8833534568
  0
VERTEX
  8
0
 62
9
  6
CONTINUOUS
 10
115.9324680167
 20
102.8385765865
  0
VERTEX
  8
0
 62
9
  6
CONTINUOUS
 10
115.9859800533
 20
102.7983376362
  0
VERTEX
  8
0
 62
9
  6
CONTINUOUS
 10
116.029320021
 20
102.7663910072
  0
VERTEX
  8
0
 62
9
  6
CONTINUOUS
 10
116.0629746577
 20
102.7433957677
  0
VERTEX
  8
0
 62
9
  6
CONTINUOUS
 10
116.0889017467
 20
102.7276369515
  0
VERTEX
  8
0
 62
9
  6
CONTINUOUS
 10
116.109434841
 20
102.7167341431
  0
VERTEX
  8
0
 62
9
  6
CONTINUOUS
 10
116.1264200747
 20
102.7087528349
  0
SEQEND
  0
POLYLINE
  8
0
 62
9
  6
CONTINUOUS
 66
1
 70
0
  0
VERTEX
  8
0
 62
9
  6
CONTINUOUS
 10
117.3680619843
 20
102.3748904776
  0
VERTEX
  8
0
 62
9
  6
CONTINUOUS
 10
117.4142563772
 20
102.3429000375
  0
VERTEX
  8
0
 62
9
  6
CONTINUOUS
 10
117.4932463583
 20
102.3064709082
  0
VERTEX
  8
0
 62
9
  6
CONTINUOUS
 10
117.5774324799
 20
102.2841610264
  0
VERTEX
  8
0
 62
9
  6
CONTINUOUS
 10
117.6642567903
 20
102.2766483012
  0
SEQEND
  0
LINE
  8
0
 62
9
  6
CONTINUOUS
 10
116.2378200187
 20
108.4041154326
 11
116.2349716018
 21
108.4066554145
  0
POLYLINE
  8
0
 62
9
  6
CONTINUOUS
 66
1
 70
0
  0
VERTEX
  8
0
 62
9
  6
CONTINUOUS
 10
116.2349711331
 20
108.4066536845
  0
VERTEX
  8
0
 62
9
  6
CONTINUOUS
 10
116.167747052
 20
108.4700026546
  0
VERTEX
  8
0
 62
9
  6
CONTINUOUS
 10
116.090017291
 20
108.5199046332
  0
VERTEX
  8
0
 62
9
  6
CONTINUOUS
 10
116.0044346864
 20
108.5546565176
  0
VERTEX
  8
0
 62
9
  6
CONTINUOUS
 10
115.9139200837
 20
108.5730722618
  0
VERTEX
  8
0
 62
9
  6
CONTINUOUS
 10
115.8215626525
 20
108.5745233557
  0
VERTEX
  8
0
 62
9
  6
CONTINUOUS
 10
115.730514456
 20
108.5589602748
  0
SEQEND
  0
LINE
  8
0
 62
9
  6
CONTINUOUS
 10
186.1795644849
 20
96.0628350377
 11
186.1995710873
 21
96.0679266815
  0
LINE
  8
0
 62
7
  6
CONTINUOUS
 10
107.7348516406
 20
98.3338334855
 11
115.7310158959
 21
96.1912677308
  0
LINE
  8
0
 62
9
  6
CONTINUOUS
 10
109.3783031025
 20
98.4111100837
 11
114.1230535541
 21
97.1397580319
  0
LINE
  8
0
 62
9
  6
CONTINUOUS
 10
114.4563197892
 20
97.1397580319
 11
115.064377567
 21
96.9768294414
  0
POLYLINE
  8
0
 62
9
  6
CONTINUOUS
 66
1
 70
0
  0
VERTEX
  8
0
 62
9
  6
CONTINUOUS
 10
116.1264201552
 20
102.7087528173
  0
VERTEX
  8
0
 62
9
  6
CONTINUOUS
 10
116.1732268833
 20
102.6828929719
  0
VERTEX
  8
0
 62
9
  6
CONTINUOUS
 10
116.2056728196
 20
102.6566842209
  0
VERTEX
  8
0
 62
9
  6
CONTINUOUS
 10
116.2234741411
 20
102.6302043273
  0
SEQEND
  0
LINE
  8
0
 62
9
  6
CONTINUOUS
 10
107.3642567904
 20
98.8167963994
 11
109.0724116041
 21
98.4111100837
  0
POLYLINE
  8
0
 62
9
  6
CONTINUOUS
 66
1
 70
0
  0
VERTEX
  8
0
 62
9
  6
CONTINUOUS
 10
120.8866403853
 20
99.1480348193
  0
VERTEX
  8
0
 62
9
  6
CONTINUOUS
 10
120.9051705568
 20
99.1562092108
  0
VERTEX
  8
0
 62
9
  6
CONTINUOUS
 10
120.9119145385
 20
99.1638924929
  0
VERTEX
  8
0
 62
9
  6
CONTINUOUS
 10
120.9082110716
 20
99.1713682366
  0
VERTEX
  8
0
 62
9
  6
CONTINUOUS
 10
120.8936713829
 20
99.1789966209
  0
VERTEX
  8
0
 62
9
  6
CONTINUOUS
 10
120.8664841343
 20
99.1869511015
  0
VERTEX
  8
0
 62
9
  6
CONTINUOUS
 10
120.8252376919
 20
99.1951068429
  0
VERTEX
  8
0
 62
9
  6
CONTINUOUS
 10
120.7697896758
 20
99.2032429748
  0
VERTEX
  8
0
 62
9
  6
CONTINUOUS
 10
120.7002815519
 20
99.2112399823
  0
VERTEX
  8
0
 62
9
  6
CONTINUOUS
 10
120.6167734994
 20
99.2190346689
  0
VERTEX
  8
0
 62
9
  6
CONTINUOUS
 10
120.5190464571
 20
99.2265909992
  0
VERTEX
  8
0
 62
9
  6
CONTINUOUS
 10
120.4064589229
 20
99.2338812628
  0
VERTEX
  8
0
 62
9
  6
CONTINUOUS
 10
120.2781250572
 20
99.2408559865
  0
VERTEX
  8
0
 62
9
  6
CONTINUOUS
 10
120.1329072762
 20
99.2474364881
  0
VERTEX
  8
0
 62
9
  6
CONTINUOUS
 10
119.9693205034
 20
99.2535072427
  0
VERTEX
  8
0
 62
9
  6
CONTINUOUS
 10
119.7855068611
 20
99.2588967505
  0
VERTEX
  8
0
 62
9
  6
CONTINUOUS
 10
119.5791684944
 20
99.2633503996
  0
VERTEX
  8
0
 62
9
  6
CONTINUOUS
 10
119.3474546704
 20
99.2664859843
  0
VERTEX
  8
0
 62
9
  6
CONTINUOUS
 10
119.0867668692
 20
99.2677142976
  0
SEQEND
  0
LINE
  8
0
 62
9
  6
CONTINUOUS
 10
120.2781114967
 20
98.9239772538
 11
120.5835474151
 21
99.0412401483
  0
POLYLINE
  8
0
 62
7
  6
CONTINUOUS
 66
1
 70
0
  0
VERTEX
  8
0
 62
7
  6
CONTINUOUS
 10
120.1666661186
 20
98.9058039351
  0
VERTEX
  8
0
 62
7
  6
CONTINUOUS
 10
120.172694182
 20
98.9080703463
  0
VERTEX
  8
0
 62
7
  6
CONTINUOUS
 10
120.1755372843
 20
98.909007779
  0
SEQEND
  0
LINE
  8
0
 62
9
  6
CONTINUOUS
 10
120.5835474151
 20
99.0412401483
 11
120.8866403853
 21
99.1480348193
  0
LINE
  8
0
 62
9
  6
CONTINUOUS
 10
120.2026665713
 20
98.9172354115
 11
120.1666818016
 21
98.9058105559
  0
LINE
  8
0
 62
9
  6
CONTINUOUS
 10
115.6642567903
 20
96.7267938694
 11
116.1642567903
 21
96.7267938694
  0
POLYLINE
  8
0
 62
9
  6
CONTINUOUS
 66
1
 70
0
  0
VERTEX
  8
0
 62
9
  6
CONTINUOUS
 10
117.4346095716
 20
102.3771796226
  0
VERTEX
  8
0
 62
9
  6
CONTINUOUS
 10
117.3392385204
 20
102.3933161615
  0
VERTEX
  8
0
 62
9
  6
CONTINUOUS
 10
117.230834484
 20
102.4074221123
  0
VERTEX
  8
0
 62
9
  6
CONTINUOUS
 10
117.1109959085
 20
102.4192997138
  0
VERTEX
  8
0
 62
9
  6
CONTINUOUS
 10
116.9814907308
 20
102.4287594008
  0
VERTEX
  8
0
 62
9
  6
CONTINUOUS
 10
116.8450119894
 20
102.4355994337
  0
VERTEX
  8
0
 62
9
  6
CONTINUOUS
 10
116.7047701154
 20
102.439697622
  0
VERTEX
  8
0
 62
9
  6
CONTINUOUS
 10
116.5642567903
 20
102.4410444026
  0
SEQEND
  0
LINE
  8
0
 62
9
  6
CONTINUOUS
 10
120.2781107108
 20
98.9239769921
 11
120.2400386171
 21
98.9233282442
  0
POLYLINE
  8
0
 62
9
  6
CONTINUOUS
 66
1
 70
0
  0
VERTEX
  8
0
 62
9
  6
CONTINUOUS
 10
116.5642567903
 20
99.2980898443
  0
VERTEX
  8
0
 62
9
  6
CONTINUOUS
 10
116.7046951115
 20
99.2994351881
  0
VERTEX
  8
0
 62
9
  6
CONTINUOUS
 10
116.8448974706
 20
99.3035303176
  0
VERTEX
  8
0
 62
9
  6
CONTINUOUS
 10
116.981372982
 20
99.3103676315
  0
VERTEX
  8
0
 62
9
  6
CONTINUOUS
 10
117.11090291
 20
99.3198265649
  0
VERTEX
  8
0
 62
9
  6
CONTINUOUS
 10
117.2307658688
 20
99.3317043149
  0
VERTEX
  8
0
 62
9
  6
CONTINUOUS
 10
117.3391849404
 20
99.3458101365
  0
VERTEX
  8
0
 62
9
  6
CONTINUOUS
 10
117.434558224
 20
99.3619447119
  0
VERTEX
  8
0
 62
9
  6
CONTINUOUS
 10
117.5152894528
 20
99.379876408
  0
VERTEX
  8
0
 62
9
  6
CONTINUOUS
 10
117.5798472841
 20
99.3993307099
  0
VERTEX
  8
0
 62
9
  6
CONTINUOUS
 10
117.6267259169
 20
99.4199101944
  0
VERTEX
  8
0
 62
9
  6
CONTINUOUS
 10
117.6549438204
 20
99.4411390782
  0
VERTEX
  8
0
 62
9
  6
CONTINUOUS
 10
117.6642567903
 20
99.4624859458
  0
SEQEND
  0
LINE
  8
0
 62
9
  6
CONTINUOUS
 10
114.1230535541
 20
97.1397580319
 11
114.4563197892
 21
97.1397580319
  0
LINE
  8
0
 62
9
  6
CONTINUOUS
 10
116.1642567903
 20
97.2337669758
 11
116.4642567903
 21
97.2337669758
  0
LINE
  8
0
 62
9
  6
CONTINUOUS
 10
109.0724116041
 20
98.4111100837
 11
109.3783031025
 21
98.4111100837
  0
LINE
  8
0
 62
9
  6
CONTINUOUS
 10
116.1642567903
 20
98.9710095385
 11
119.0860709005
 21
98.9710095385
  0
LINE
  8
0
 62
9
  6
CONTINUOUS
 10
119.0867668692
 20
99.2677142976
 11
116.4642567903
 21
99.2677142976
  0
LINE
  8
0
 62
9
  6
CONTINUOUS
 10
116.455469691
 20
99.298089705
 11
116.5642567903
 21
99.2980898443
  0
LINE
  8
0
 62
9
  6
CONTINUOUS
 10
116.4554696777
 20
99.7925978481
 11
116.5642567903
 21
99.7925977759
  0
POLYLINE
  8
0
 62
9
  6
CONTINUOUS
 66
1
 70
0
  0
VERTEX
  8
0
 62
9
  6
CONTINUOUS
 10
115.6642567903
 20
99.1032736996
  0
VERTEX
  8
0
 62
9
  6
CONTINUOUS
 10
115.7276649622
 20
99.1023082458
  0
VERTEX
  8
0
 62
9
  6
CONTINUOUS
 10
115.7908974368
 20
99.0993750969
  0
VERTEX
  8
0
 62
9
  6
CONTINUOUS
 10
115.8525523498
 20
99.0944716831
  0
VERTEX
  8
0
 62
9
  6
CONTINUOUS
 10
115.9110586139
 20
99.0876935997
  0
VERTEX
  8
0
 62
9
  6
CONTINUOUS
 10
115.9652242598
 20
99.0791878687
  0
VERTEX
  8
0
 62
9
  6
CONTINUOUS
 10
116.0142830918
 20
99.0690904138
  0
VERTEX
  8
0
 62
9
  6
CONTINUOUS
 10
116.0576360373
 20
99.0575130255
  0
VERTEX
  8
0
 62
9
  6
CONTINUOUS
 10
116.0945630799
 20
99.0446000568
  0
VERTEX
  8
0
 62
9
  6
CONTINUOUS
 10
116.1241696439
 20
99.03061936
  0
VERTEX
  8
0
 62
9
  6
CONTINUOUS
 10
116.1457501746
 20
99.0159397104
  0
VERTEX
  8
0
 62
9
  6
CONTINUOUS
 10
116.1593827295
 20
99.0003660553
  0
SEQEND
  0
POLYLINE
  8
0
 62
7
  6
CONTINUOUS
 66
1
 70
0
  0
VERTEX
  8
0
 62
7
  6
CONTINUOUS
 10
186.1795638406
 20
96.0628351009
  0
VERTEX
  8
0
 62
7
  6
CONTINUOUS
 10
186.6184424997
 20
96.0486647244
  0
VERTEX
  8
0
 62
7
  6
CONTINUOUS
 10
187.0765910762
 20
96.0408718014
  0
VERTEX
  8
0
 62
7
  6
CONTINUOUS
 10
187.5222338387
 20
96.0399265212
  0
VERTEX
  8
0
 62
7
  6
CONTINUOUS
 10
187.9511604751
 20
96.0451682055
  0
VERTEX
  8
0
 62
7
  6
CONTINUOUS
 10
188.359954649
 20
96.0559060902
  0
VERTEX
  8
0
 62
7
  6
CONTINUOUS
 10
188.7460390646
 20
96.0714391002
  0
VERTEX
  8
0
 62
7
  6
CONTINUOUS
 10
189.1076252973
 20
96.0910749658
  0
VERTEX
  8
0
 62
7
  6
CONTINUOUS
 10
189.4441402381
 20
96.1141845586
  0
VERTEX
  8
0
 62
7
  6
CONTINUOUS
 10
189.7560407555
 20
96.1402437447
  0
VERTEX
  8
0
 62
7
  6
CONTINUOUS
 10
190.0441450643
 20
96.1688173014
  0
VERTEX
  8
0
 62
7
  6
CONTINUOUS
 10
190.3094885365
 20
96.199554994
  0
VERTEX
  8
0
 62
7
  6
CONTINUOUS
 10
190.552882863
 20
96.2321377613
  0
VERTEX
  8
0
 62
7
  6
CONTINUOUS
 10
190.7749527668
 20
96.2662550955
  0
VERTEX
  8
0
 62
7
  6
CONTINUOUS
 10
190.9765520365
 20
96.3016549145
  0
VERTEX
  8
0
 62
7
  6
CONTINUOUS
 10
191.1587548756
 20
96.3381588173
  0
VERTEX
  8
0
 62
7
  6
CONTINUOUS
 10
191.3228635302
 20
96.3756858029
  0
VERTEX
  8
0
 62
7
  6
CONTINUOUS
 10
191.470331078
 20
96.414269866
  0
VERTEX
  8
0
 62
7
  6
CONTINUOUS
 10
191.602789846
 20
96.4541109463
  0
VERTEX
  8
0
 62
7
  6
CONTINUOUS
 10
191.7220859601
 20
96.4956579478
  0
VERTEX
  8
0
 62
7
  6
CONTINUOUS
 10
191.8303147638
 20
96.5397600461
  0
VERTEX
  8
0
 62
7
  6
CONTINUOUS
 10
191.9295538032
 20
96.5877640925
  0
VERTEX
  8
0
 62
7
  6
CONTINUOUS
 10
192.0215704525
 20
96.6416405574
  0
VERTEX
  8
0
 62
7
  6
CONTINUOUS
 10
192.1079657612
 20
96.7044971446
  0
VERTEX
  8
0
 62
7
  6
CONTINUOUS
 10
192.1889803878
 20
96.7805034005
  0
VERTEX
  8
0
 62
7
  6
CONTINUOUS
 10
192.2617638284
 20
96.8735591513
  0
VERTEX
  8
0
 62
7
  6
CONTINUOUS
 10
192.3198258036
 20
96.9846071329
  0
VERTEX
  8
0
 62
7
  6
CONTINUOUS
 10
192.3554184844
 20
97.1093475618
  0
VERTEX
  8
0
 62
7
  6
CONTINUOUS
 10
192.3642562479
 20
97.2115259037
  0
SEQEND
  0
LINE
  8
0
 62
7
  6
CONTINUOUS
 10
186.1795644849
 20
96.0628350377
 11
119.7510430848
 21
98.7229834529
  0
LINE
  8
0
 62
9
  6
CONTINUOUS
 10
186.1995710873
 20
96.0679266815
 11
119.7627218103
 21
98.7284085889
  0
POLYLINE
  8
0
 62
7
  6
CONTINUOUS
 66
1
 70
0
  0
VERTEX
  8
0
 62
7
  6
CONTINUOUS
 10
116.4172361227
 20
102.3186296924
  0
VERTEX
  8
0
 62
7
  6
CONTINUOUS
 10
116.3904576282
 20
102.3222677864
  0
VERTEX
  8
0
 62
7
  6
CONTINUOUS
 10
116.3635406558
 20
102.3244527194
  0
VERTEX
  8
0
 62
7
  6
CONTINUOUS
 10
116.3365604228
 20
102.325181183
  0
SEQEND
  0
POLYLINE
  8
0
 62
9
  6
CONTINUOUS
 66
1
 70
0
  0
VERTEX
  8
0
 62
9
  6
CONTINUOUS
 10
116.4554696777
 20
99.7925978481
  0
VERTEX
  8
0
 62
9
  6
CONTINUOUS
 10
116.3401871264
 20
99.7843359078
  0
VERTEX
  8
0
 62
9
  6
CONTINUOUS
 10
116.2246475122
 20
99.7589411449
  0
VERTEX
  8
0
 62
9
  6
CONTINUOUS
 10
116.1136936437
 20
99.7167797594
  0
VERTEX
  8
0
 62
9
  6
CONTINUOUS
 10
116.0117439158
 20
99.6598763422
  0
VERTEX
  8
0
 62
9
  6
CONTINUOUS
 10
115.9222844864
 20
99.5916784574
  0
VERTEX
  8
0
 62
9
  6
CONTINUOUS
 10
115.8477782096
 20
99.5169423791
  0
VERTEX
  8
0
 62
9
  6
CONTINUOUS
 10
115.7892118413
 20
99.4411898006
  0
VERTEX
  8
0
 62
9
  6
CONTINUOUS
 10
115.7460416327
 20
99.37006167
  0
VERTEX
  8
0
 62
9
  6
CONTINUOUS
 10
115.7158899937
 20
99.3073048423
  0
VERTEX
  8
0
 62
9
  6
CONTINUOUS
 10
115.6953001069
 20
99.2533148618
  0
VERTEX
  8
0
 62
9
  6
CONTINUOUS
 10
115.681592397
 20
99.2077233962
  0
VERTEX
  8
0
 62
9
  6
CONTINUOUS
 10
115.6730001521
 20
99.1708489177
  0
VERTEX
  8
0
 62
9
  6
CONTINUOUS
 10
115.6679926361
 20
99.1422255914
  0
VERTEX
  8
0
 62
9
  6
CONTINUOUS
 10
115.665424509
 20
99.1214222796
  0
VERTEX
  8
0
 62
9
  6
CONTINUOUS
 10
115.6644307363
 20
99.1084593723
  0
VERTEX
  8
0
 62
9
  6
CONTINUOUS
 10
115.6642567903
 20
99.1032282426
  0
SEQEND
  0
POLYLINE
  8
0
 62
9
  6
CONTINUOUS
 66
1
 70
0
  0
VERTEX
  8
0
 62
9
  6
CONTINUOUS
 10
116.4554699564
 20
99.2980897054
  0
VERTEX
  8
0
 62
9
  6
CONTINUOUS
 10
116.4104373051
 20
99.2966497333
  0
VERTEX
  8
0
 62
9
  6
CONTINUOUS
 10
116.3646373337
 20
99.2891114373
  0
VERTEX
  8
0
 62
9
  6
CONTINUOUS
 10
116.3195588167
 20
99.2756832904
  0
VERTEX
  8
0
 62
9
  6
CONTINUOUS
 10
116.2763941806
 20
99.2572226702
  0
VERTEX
  8
0
 62
9
  6
CONTINUOUS
 10
116.2357512561
 20
99.2351344343
  0
VERTEX
  8
0
 62
9
  6
CONTINUOUS
 10
116.1975595317
 20
99.2112985683
  0
VERTEX
  8
0
 62
9
  6
CONTINUOUS
 10
116.1609744213
 20
99.1878272152
  0
VERTEX
  8
0
 62
9
  6
CONTINUOUS
 10
116.124712699
 20
99.1667561947
  0
VERTEX
  8
0
 62
9
  6
CONTINUOUS
 10
116.0870158678
 20
99.1491554308
  0
VERTEX
  8
0
 62
9
  6
CONTINUOUS
 10
116.0455327121
 20
99.1350434834
  0
VERTEX
  8
0
 62
9
  6
CONTINUOUS
 10
115.9983284091
 20
99.1241070192
  0
VERTEX
  8
0
 62
9
  6
CONTINUOUS
 10
115.9449446148
 20
99.1160063794
  0
VERTEX
  8
0
 62
9
  6
CONTINUOUS
 10
115.8850955735
 20
99.1102633706
  0
VERTEX
  8
0
 62
9
  6
CONTINUOUS
 10
115.8184364304
 20
99.1063384242
  0
VERTEX
  8
0
 62
9
  6
CONTINUOUS
 10
115.7443382359
 20
99.1043707438
  0
VERTEX
  8
0
 62
9
  6
CONTINUOUS
 10
115.6642584309
 20
99.1032736747
  0
SEQEND
  0
POLYLINE
  8
0
 62
9
  6
CONTINUOUS
 66
1
 70
0
  0
VERTEX
  8
0
 62
9
  6
CONTINUOUS
 10
116.5642567903
 20
99.7925977759
  0
VERTEX
  8
0
 62
9
  6
CONTINUOUS
 10
116.6409625917
 20
99.793946652
  0
VERTEX
  8
0
 62
9
  6
CONTINUOUS
 10
116.7174236808
 20
99.7980442842
  0
VERTEX
  8
0
 62
9
  6
CONTINUOUS
 10
116.7918462473
 20
99.8048830981
  0
VERTEX
  8
0
 62
9
  6
CONTINUOUS
 10
116.8624759524
 20
99.8143415277
  0
VERTEX
  8
0
 62
9
  6
CONTINUOUS
 10
116.9278308377
 20
99.8262168553
  0
VERTEX
  8
0
 62
9
  6
CONTINUOUS
 10
116.9869438326
 20
99.8403179312
  0
VERTEX
  8
0
 62
9
  6
CONTINUOUS
 10
117.038947958
 20
99.8564466278
  0
VERTEX
  8
0
 62
9
  6
CONTINUOUS
 10
117.0829744167
 20
99.874372349
  0
VERTEX
  8
0
 62
9
  6
CONTINUOUS
 10
117.1181868206
 20
99.8938208319
  0
VERTEX
  8
0
 62
9
  6
CONTINUOUS
 10
117.1437628033
 20
99.9143958303
  0
VERTEX
  8
0
 62
9
  6
CONTINUOUS
 10
117.1591640088
 20
99.9356204321
  0
VERTEX
  8
0
 62
9
  6
CONTINUOUS
 10
117.1642567903
 20
99.9569938774
  0
SEQEND
  0
LINE
  8
0
 62
9
  6
CONTINUOUS
 10
116.5642567903
 20
101.8148100317
 11
116.4642567903
 21
101.8148100317
  0
LINE
  8
0
 62
9
  6
CONTINUOUS
 10
116.3366144431
 20
101.825181183
 11
107.3642567903
 21
101.825181183
  0
LINE
  8
0
 62
7
  6
CONTINUOUS
 10
116.5642567903
 20
102.3148100317
 11
116.4642567902
 21
102.3148100317
  0
LINE
  8
0
 62
7
  6
CONTINUOUS
 10
116.3365600851
 20
102.325181183
 11
107.8642627685
 21
102.325181183
  0
LINE
  8
DEFAULT_1
 62
2
  6
CENTER
 10
105.3642567903
 20
102.375181183
 11
194.3642567903
 21
102.375181183
  0
LINE
  8
0
 62
7
  6
CONTINUOUS
 10
107.8642627686
 20
102.425181183
 11
116.3365600851
 21
102.425181183
  0
LINE
  8
0
 62
7
  6
CONTINUOUS
 10
116.5642567903
 20
102.4355523343
 11
116.4642567902
 21
102.4355523343
  0
LINE
  8
0
 62
9
  6
CONTINUOUS
 10
116.5642567903
 20
102.4410444026
 11
116.4642567903
 21
102.4410444026
  0
POLYLINE
  8
0
 62
7
  6
CONTINUOUS
 66
1
 70
0
  0
VERTEX
  8
0
 62
7
  6
CONTINUOUS
 10
116.5642567902
 20
102.435553839
  0
VERTEX
  8
0
 62
7
  6
CONTINUOUS
 10
116.6415660216
 20
102.4351162218
  0
VERTEX
  8
0
 62
7
  6
CONTINUOUS
 10
116.752479269
 20
102.4329466973
  0
VERTEX
  8
0
 62
7
  6
CONTINUOUS
 10
116.8551990368
 20
102.4292446574
  0
VERTEX
  8
0
 62
7
  6
CONTINUOUS
 10
116.9493113121
 20
102.4243014427
  0
VERTEX
  8
0
 62
7
  6
CONTINUOUS
 10
117.0346732822
 20
102.4183844921
  0
VERTEX
  8
0
 62
7
  6
CONTINUOUS
 10
117.1113350828
 20
102.4117293688
  0
VERTEX
  8
0
 62
7
  6
CONTINUOUS
 10
117.1793811983
 20
102.4045540657
  0
VERTEX
  8
0
 62
7
  6
CONTINUOUS
 10
117.2388926314
 20
102.3970780413
  0
VERTEX
  8
0
 62
7
  6
CONTINUOUS
 10
117.2899688768
 20
102.3895192514
  0
VERTEX
  8
0
 62
7
  6
CONTINUOUS
 10
117.3324865353
 20
102.382152231
  0
VERTEX
  8
0
 62
7
  6
CONTINUOUS
 10
117.3662705797
 20
102.3753144491
  0
VERTEX
  8
0
 62
7
  6
CONTINUOUS
 10
117.3909177221
 20
102.3694812132
  0
VERTEX
  8
0
 62
7
  6
CONTINUOUS
 10
117.4059738787
 20
102.3653061863
  0
VERTEX
  8
0
 62
7
  6
CONTINUOUS
 10
117.409473406
 20
102.3642044711
  0
SEQEND
  0
POLYLINE
  8
0
 62
7
  6
CONTINUOUS
 66
1
 70
0
  0
VERTEX
  8
0
 62
7
  6
CONTINUOUS
 10
116.4642567902
 20
102.3148100695
  0
VERTEX
  8
0
 62
7
  6
CONTINUOUS
 10
116.4567409527
 20
102.3149069315
  0
VERTEX
  8
0
 62
7
  6
CONTINUOUS
 10
116.4265490972
 20
102.3172609938
  0
VERTEX
  8
0
 62
7
  6
CONTINUOUS
 10
116.4172361585
 20
102.3186297785
  0
SEQEND
  0
POLYLINE
  8
0
 62
9
  6
CONTINUOUS
 66
1
 70
0
  0
VERTEX
  8
0
 62
9
  6
CONTINUOUS
 10
116.4642567903
 20
101.8148100317
  0
VERTEX
  8
0
 62
9
  6
CONTINUOUS
 10
116.4002055238
 20
101.817406811
  0
VERTEX
  8
0
 62
9
  6
CONTINUOUS
 10
116.3366144431
 20
101.825181183
  0
SEQEND
  0
LINE
  8
0
 62
9
  6
CONTINUOUS
 10
118.5235164204
 20
106.1888055678
 11
118.2341098383
 21
106.2426509316
  0
LINE
  8
0
 62
9
  6
CONTINUOUS
 10
118.9291912866
 20
106.1108850296
 11
118.5235164204
 21
106.1888055678
  0
POLYLINE
  8
0
 62
9
  6
CONTINUOUS
 66
1
 70
0
  0
VERTEX
  8
0
 62
9
  6
CONTINUOUS
 10
119.4187218104
 20
106.0140710162
  0
VERTEX
  8
0
 62
9
  6
CONTINUOUS
 10
119.3219593458
 20
106.033478549
  0
VERTEX
  8
0
 62
9
  6
CONTINUOUS
 10
118.9291912866
 20
106.1108850296
  0
SEQEND
  0
POLYLINE
  8
0
 62
9
  6
CONTINUOUS
 66
1
 70
0
  0
VERTEX
  8
0
 62
9
  6
CONTINUOUS
 10
120.2030403359
 20
98.9048114574
  0
VERTEX
  8
0
 62
9
  6
CONTINUOUS
 10
120.2481051302
 20
98.9145861835
  0
VERTEX
  8
0
 62
9
  6
CONTINUOUS
 10
120.2781114967
 20
98.9239772538
  0
SEQEND
  0
LINE
  8
0
 62
9
  6
CONTINUOUS
 10
120.142462581
 20
98.8948353676
 11
120.2030403359
 21
98.9048114574
  0
LINE
  8
0
 62
9
  6
CONTINUOUS
 10
120.2400386171
 20
98.9233282442
 11
120.2026665713
 21
98.9172354115
  0
POLYLINE
  8
0
 62
9
  6
CONTINUOUS
 66
1
 70
0
  0
VERTEX
  8
0
 62
9
  6
CONTINUOUS
 10
119.0867668692
 20
98.9710095385
  0
VERTEX
  8
0
 62
9
  6
CONTINUOUS
 10
119.29402698
 20
99.0033096989
  0
VERTEX
  8
0
 62
9
  6
CONTINUOUS
 10
119.4831680202
 20
99.0310186401
  0
VERTEX
  8
0
 62
9
  6
CONTINUOUS
 10
119.6542051724
 20
99.0546089641
  0
VERTEX
  8
0
 62
9
  6
CONTINUOUS
 10
119.8078871645
 20
99.0745813288
  0
VERTEX
  8
0
 62
9
  6
CONTINUOUS
 10
119.9461799167
 20
99.0915135853
  0
VERTEX
  8
0
 62
9
  6
CONTINUOUS
 10
120.0715483537
 20
99.1059523427
  0
VERTEX
  8
0
 62
9
  6
CONTINUOUS
 10
120.185824375
 20
99.1182890042
  0
VERTEX
  8
0
 62
9
  6
CONTINUOUS
 10
120.2894473221
 20
99.1287146909
  0
VERTEX
  8
0
 62
9
  6
CONTINUOUS
 10
120.3823451571
 20
99.1373528003
  0
VERTEX
  8
0
 62
9
  6
CONTINUOUS
 10
120.4651024362
 20
99.1443762303
  0
VERTEX
  8
0
 62
9
  6
CONTINUOUS
 10
120.5388028993
 20
99.1499706693
  0
VERTEX
  8
0
 62
9
  6
CONTINUOUS
 10
120.6040577463
 20
99.1542478596
  0
VERTEX
  8
0
 62
9
  6
CONTINUOUS
 10
120.6605841262
 20
99.1572420508
  0
VERTEX
  8
0
 62
9
  6
CONTINUOUS
 10
120.7082141948
 20
99.1589992015
  0
VERTEX
  8
0
 62
9
  6
CONTINUOUS
 10
120.7473348724
 20
99.1595780457
  0
VERTEX
  8
0
 62
9
  6
CONTINUOUS
 10
120.7779438346
 20
99.1590026459
  0
VERTEX
  8
0
 62
9
  6
CONTINUOUS
 10
120.7995562355
 20
99.157338876
  0
VERTEX
  8
0
 62
9
  6
CONTINUOUS
 10
120.8123871155
 20
99.1547683818
  0
VERTEX
  8
0
 62
9
  6
CONTINUOUS
 10
120.8176039384
 20
99.1514963135
  0
VERTEX
  8
0
 62
9
  6
CONTINUOUS
 10
120.8163012062
 20
99.147441245
  0
VERTEX
  8
0
 62
9
  6
CONTINUOUS
 10
120.8079495488
 20
99.1422730046
  0
VERTEX
  8
0
 62
9
  6
CONTINUOUS
 10
120.7910907155
 20
99.1357351738
  0
SEQEND
  0
LINE
  8
0
 62
9
  6
CONTINUOUS
 10
120.1413117851
 20
98.8946835557
 11
120.142462581
 21
98.8948353676
  0
POLYLINE
  8
0
 62
7
  6
CONTINUOUS
 66
1
 70
0
  0
VERTEX
  8
0
 62
7
  6
CONTINUOUS
 10
116.4265490581
 20
102.4331013676
  0
VERTEX
  8
0
 62
7
  6
CONTINUOUS
 10
116.456740922
 20
102.435455434
  0
VERTEX
  8
0
 62
7
  6
CONTINUOUS
 10
116.4642567902
 20
102.4355522975
  0
SEQEND
  0
POLYLINE
  8
0
 62
9
  6
CONTINUOUS
 66
1
 70
0
  0
VERTEX
  8
0
 62
9
  6
CONTINUOUS
 10
116.4642567903
 20
102.4410444026
  0
VERTEX
  8
0
 62
9
  6
CONTINUOUS
 10
116.4402925755
 20
102.4400397905
  0
VERTEX
  8
0
 62
9
  6
CONTINUOUS
 10
116.4163701393
 20
102.4370134958
  0
SEQEND
  0
LINE
  8
0
 62
9
  6
CONTINUOUS
 10
186.1995710873
 20
105.6712075654
 11
116.3883977997
 21
102.8755999247
  0
LINE
  8
0
 62
9
  6
CONTINUOUS
 10
116.889492352
 20
103.3953565655
 11
186.0701615648
 21
106.1657154971
  0
POLYLINE
  8
0
 62
9
  6
CONTINUOUS
 66
1
 70
0
  0
VERTEX
  8
0
 62
9
  6
CONTINUOUS
 10
186.1995710873
 20
105.6712075654
  0
VERTEX
  8
0
 62
9
  6
CONTINUOUS
 10
186.6216099345
 20
105.6849018248
  0
VERTEX
  8
0
 62
9
  6
CONTINUOUS
 10
187.0504917747
 20
105.6924866371
  0
VERTEX
  8
0
 62
9
  6
CONTINUOUS
 10
187.4822379729
 20
105.6938922689
  0
VERTEX
  8
0
 62
9
  6
CONTINUOUS
 10
187.9129139354
 20
105.6891060157
  0
VERTEX
  8
0
 62
9
  6
CONTINUOUS
 10
188.3386337978
 20
105.6781686015
  0
VERTEX
  8
0
 62
9
  6
CONTINUOUS
 10
188.7555595455
 20
105.6611722359
  0
VERTEX
  8
0
 62
9
  6
CONTINUOUS
 10
189.1599067835
 20
105.6382607439
  0
VERTEX
  8
0
 62
9
  6
CONTINUOUS
 10
189.5479641133
 20
105.6096304114
  0
VERTEX
  8
0
 62
9
  6
CONTINUOUS
 10
189.9161465042
 20
105.5755283702
  0
VERTEX
  8
0
 62
9
  6
CONTINUOUS
 10
190.2610118579
 20
105.5362527265
  0
VERTEX
  8
0
 62
9
  6
CONTINUOUS
 10
190.5793029327
 20
105.4921505357
  0
VERTEX
  8
0
 62
9
  6
CONTINUOUS
 10
190.8679705094
 20
105.4436174869
  0
VERTEX
  8
0
 62
9
  6
CONTINUOUS
 10
191.1242218929
 20
105.3910935979
  0
VERTEX
  8
0
 62
9
  6
CONTINUOUS
 10
191.3455442415
 20
105.3350618602
  0
VERTEX
  8
0
 62
9
  6
CONTINUOUS
 10
191.5297436613
 20
105.2760436093
  0
VERTEX
  8
0
 62
9
  6
CONTINUOUS
 10
191.6749765924
 20
105.214593862
  0
VERTEX
  8
0
 62
9
  6
CONTINUOUS
 10
191.7797803694
 20
105.1512938651
  0
VERTEX
  8
0
 62
9
  6
CONTINUOUS
 10
191.8430884193
 20
105.0867499018
  0
VERTEX
  8
0
 62
9
  6
CONTINUOUS
 10
191.8642567903
 20
105.0215939465
  0
SEQEND
  0
POLYLINE
  8
0
 62
9
  6
CONTINUOUS
 66
1
 70
0
  0
VERTEX
  8
0
 62
9
  6
CONTINUOUS
 10
186.0701615648
 20
106.1657154971
  0
VERTEX
  8
0
 62
9
  6
CONTINUOUS
 10
186.5392100965
 20
106.1794123851
  0
VERTEX
  8
0
 62
9
  6
CONTINUOUS
 10
187.0157342717
 20
106.1869955498
  0
VERTEX
  8
0
 62
9
  6
CONTINUOUS
 10
187.4954398193
 20
106.188399873
  0
VERTEX
  8
0
 62
9
  6
CONTINUOUS
 10
187.9739552494
 20
106.1836126372
  0
VERTEX
  8
0
 62
9
  6
CONTINUOUS
 10
188.4469632978
 20
106.1726745857
  0
VERTEX
  8
0
 62
9
  6
CONTINUOUS
 10
188.910199873
 20
106.1556779359
  0
VERTEX
  8
0
 62
9
  6
CONTINUOUS
 10
189.3594604534
 20
106.1327665137
  0
VERTEX
  8
0
 62
9
  6
CONTINUOUS
 10
189.7906216364
 20
106.1041366013
  0
VERTEX
  8
0
 62
9
  6
CONTINUOUS
 10
190.1997004253
 20
106.0700353199
  0
VERTEX
  8
0
 62
9
  6
CONTINUOUS
 10
190.5828726314
 20
106.0307607592
  0
VERTEX
  8
0
 62
9
  6
CONTINUOUS
 10
190.9365196022
 20
105.9866599306
  0
VERTEX
  8
0
 62
9
  6
CONTINUOUS
 10
191.2572537211
 20
105.9381284687
  0
VERTEX
  8
0
 62
9
  6
CONTINUOUS
 10
191.5419722059
 20
105.8856063458
  0
VERTEX
  8
0
 62
9
  6
CONTINUOUS
 10
191.7878831735
 20
105.8295765077
  0
VERTEX
  8
0
 62
9
  6
CONTINUOUS
 10
191.9925490983
 20
105.7705602303
  0
VERTEX
  8
0
 62
9
  6
CONTINUOUS
 10
192.1539215845
 20
105.7091125033
  0
VERTEX
  8
0
 62
9
  6
CONTINUOUS
 10
192.2703756692
 20
105.6458144481
  0
VERTEX
  8
0
 62
9
  6
CONTINUOUS
 10
192.3407256318
 20
105.5812724702
  0
VERTEX
  8
0
 62
9
  6
CONTINUOUS
 10
192.3642567903
 20
105.5161018782
  0
SEQEND
  0
LINE
  8
0
 62
9
  6
CONTINUOUS
 10
107.3642567903
 20
102.925181183
 11
115.8084453539
 21
102.9251848883
  0
LINE
  8
0
 62
9
  6
CONTINUOUS
 10
116.889492352
 20
103.3953565655
 11
115.729485063
 21
103.3953565655
  0
LINE
  8
0
 62
9
  6
CONTINUOUS
 10
117.0189018745
 20
105.9454166021
 11
116.8205303264
 21
105.9477888937
  0
POLYLINE
  8
0
 62
9
  6
CONTINUOUS
 66
1
 70
0
  0
VERTEX
  8
0
 62
9
  6
CONTINUOUS
 10
116.889492352
 20
105.450026053
  0
VERTEX
  8
0
 62
9
  6
CONTINUOUS
 10
116.8113422785
 20
105.4540899546
  0
VERTEX
  8
0
 62
9
  6
CONTINUOUS
 10
116.7374770744
 20
105.4570129346
  0
VERTEX
  8
0
 62
9
  6
CONTINUOUS
 10
116.6653655902
 20
105.4585266778
  0
VERTEX
  8
0
 62
9
  6
CONTINUOUS
 10
116.5940394199
 20
105.4585057707
  0
VERTEX
  8
0
 62
9
  6
CONTINUOUS
 10
116.5226505505
 20
105.4569753749
  0
VERTEX
  8
0
 62
9
  6
CONTINUOUS
 10
116.4517432651
 20
105.4541721348
  0
VERTEX
  8
0
 62
9
  6
CONTINUOUS
 10
116.3147765597
 20
105.4469348574
  0
SEQEND
  0
POLYLINE
  8
0
 62
9
  6
CONTINUOUS
 66
1
 70
0
  0
VERTEX
  8
0
 62
9
  6
CONTINUOUS
 10
120.7910907553
 20
99.1357350557
  0
VERTEX
  8
0
 62
9
  6
CONTINUOUS
 10
120.8222704797
 20
99.1440148069
  0
VERTEX
  8
0
 62
9
  6
CONTINUOUS
 10
120.8543606822
 20
99.1481739496
  0
VERTEX
  8
0
 62
9
  6
CONTINUOUS
 10
120.8869094095
 20
99.1481538802
  0
SEQEND
  0
LINE
  8
0
 62
7
  6
CONTINUOUS
 10
116.4172361564
 20
102.431732585
 11
116.4265490581
 21
102.4331013676
  0
POLYLINE
  8
0
 62
7
  6
CONTINUOUS
 66
1
 70
0
  0
VERTEX
  8
0
 62
7
  6
CONTINUOUS
 10
116.4172361202
 20
102.4317326732
  0
VERTEX
  8
0
 62
7
  6
CONTINUOUS
 10
116.390457624
 20
102.4280945792
  0
VERTEX
  8
0
 62
7
  6
CONTINUOUS
 10
116.3635406536
 20
102.4259096465
  0
VERTEX
  8
0
 62
7
  6
CONTINUOUS
 10
116.3365604228
 20
102.425181183
  0
SEQEND
  0
POLYLINE
  8
0
 62
7
  6
CONTINUOUS
 66
1
 70
0
  0
VERTEX
  8
0
 62
7
  6
CONTINUOUS
 10
117.1642567903
 20
102.3442744723
  0
VERTEX
  8
0
 62
7
  6
CONTINUOUS
 10
117.1306716695
 20
102.3405401726
  0
VERTEX
  8
0
 62
7
  6
CONTINUOUS
 10
117.0527396503
 20
102.3334242644
  0
VERTEX
  8
0
 62
7
  6
CONTINUOUS
 10
116.9653535419
 20
102.327062951
  0
VERTEX
  8
0
 62
7
  6
CONTINUOUS
 10
116.8684448038
 20
102.3217202614
  0
VERTEX
  8
0
 62
7
  6
CONTINUOUS
 10
116.762114478
 20
102.3176921684
  0
VERTEX
  8
0
 62
7
  6
CONTINUOUS
 10
116.6467701713
 20
102.3153069806
  0
VERTEX
  8
0
 62
7
  6
CONTINUOUS
 10
116.5642567902
 20
102.3148086311
  0
SEQEND
  0
POLYLINE
  8
0
 62
9
  6
CONTINUOUS
 66
1
 70
0
  0
VERTEX
  8
0
 62
9
  6
CONTINUOUS
 10
116.3147765597
 20
105.4469348574
  0
VERTEX
  8
0
 62
9
  6
CONTINUOUS
 10
116.2421222725
 20
105.4437348104
  0
VERTEX
  8
0
 62
9
  6
CONTINUOUS
 10
116.1631132837
 20
105.4427831574
  0
VERTEX
  8
0
 62
9
  6
CONTINUOUS
 10
116.0833171045
 20
105.4471954163
  0
VERTEX
  8
0
 62
9
  6
CONTINUOUS
 10
116.010912603
 20
105.4594997405
  0
VERTEX
  8
0
 62
9
  6
CONTINUOUS
 10
115.9492404245
 20
105.480351942
  0
VERTEX
  8
0
 62
9
  6
CONTINUOUS
 10
115.8966462064
 20
105.5102437075
  0
VERTEX
  8
0
 62
9
  6
CONTINUOUS
 10
115.8510436575
 20
105.5505001753
  0
VERTEX
  8
0
 62
9
  6
CONTINUOUS
 10
115.8114309543
 20
105.6029111028
  0
VERTEX
  8
0
 62
9
  6
CONTINUOUS
 10
115.7775582402
 20
105.6693170148
  0
VERTEX
  8
0
 62
9
  6
CONTINUOUS
 10
115.7501357496
 20
105.7490242344
  0
VERTEX
  8
0
 62
9
  6
CONTINUOUS
 10
115.729485063
 20
105.8384345578
  0
SEQEND
  0
LINE
  8
0
 62
9
  6
CONTINUOUS
 10
186.0701615648
 20
108.1879277528
 11
117.735270527
 21
105.4514382409
  0
LINE
  8
0
 62
7
  6
CONTINUOUS
 10
186.1795644849
 20
108.6875273283
 11
117.8446734478
 21
105.9510378165
  0
POLYLINE
  8
0
 62
7
  6
CONTINUOUS
 66
1
 70
0
  0
VERTEX
  8
0
 62
7
  6
CONTINUOUS
 10
117.844671461
 20
105.9510376592
  0
VERTEX
  8
0
 62
7
  6
CONTINUOUS
 10
117.6717671095
 20
105.9455553412
  0
VERTEX
  8
0
 62
7
  6
CONTINUOUS
 10
117.4669966273
 20
105.9427401146
  0
VERTEX
  8
0
 62
7
  6
CONTINUOUS
 10
117.4233986614
 20
105.9426507846
  0
SEQEND
  0
POLYLINE
  8
0
 62
9
  6
CONTINUOUS
 66
1
 70
0
  0
VERTEX
  8
0
 62
9
  6
CONTINUOUS
 10
117.735270527
 20
105.4514382409
  0
VERTEX
  8
0
 62
9
  6
CONTINUOUS
 10
117.4794340703
 20
105.4441959022
  0
VERTEX
  8
0
 62
9
  6
CONTINUOUS
 10
117.1975048242
 20
105.4430685484
  0
VERTEX
  8
0
 62
9
  6
CONTINUOUS
 10
116.889492352
 20
105.450026053
  0
SEQEND
  0
LINE
  8
0
 62
9
  6
CONTINUOUS
 10
116.063510834
 20
106.2426509316
 11
118.2340037475
 21
106.2426509316
  0
LINE
  8
0
 62
9
  6
CONTINUOUS
 10
116.063510834
 20
107.6104001892
 11
116.3566417915
 21
107.6104001892
  0
POLYLINE
  8
0
 62
9
  6
CONTINUOUS
 66
1
 70
0
  0
VERTEX
  8
0
 62
9
  6
CONTINUOUS
 10
117.4233978142
 20
105.9426509318
  0
VERTEX
  8
0
 62
9
  6
CONTINUOUS
 10
117.3269140663
 20
105.9428075427
  0
VERTEX
  8
0
 62
9
  6
CONTINUOUS
 10
117.0189018745
 20
105.9454166021
  0
SEQEND
  0
POLYLINE
  8
0
 62
9
  6
CONTINUOUS
 66
1
 70
0
  0
VERTEX
  8
0
 62
9
  6
CONTINUOUS
 10
116.8205303264
 20
105.9477888937
  0
VERTEX
  8
0
 62
9
  6
CONTINUOUS
 10
116.7263934995
 20
105.9484422507
  0
VERTEX
  8
0
 62
9
  6
CONTINUOUS
 10
116.6335100473
 20
105.94867292
  0
VERTEX
  8
0
 62
9
  6
CONTINUOUS
 10
116.5409813313
 20
105.9484701584
  0
VERTEX
  8
0
 62
9
  6
CONTINUOUS
 10
116.3566425116
 20
105.946905023
  0
SEQEND
  0
POLYLINE
  8
0
 62
9
  6
CONTINUOUS
 66
1
 70
0
  0
VERTEX
  8
0
 62
9
  6
CONTINUOUS
 10
116.4163706525
 20
102.4370136053
  0
VERTEX
  8
0
 62
9
  6
CONTINUOUS
 10
116.3900023947
 20
102.4304516252
  0
VERTEX
  8
0
 62
9
  6
CONTINUOUS
 10
116.3633521033
 20
102.4265005341
  0
VERTEX
  8
0
 62
9
  6
CONTINUOUS
 10
116.3365604228
 20
102.425181183
  0
SEQEND
  0
POLYLINE
  8
0
 62
9
  6
CONTINUOUS
 66
1
 70
0
  0
VERTEX
  8
0
 62
9
  6
CONTINUOUS
 10
116.2349715264
 20
108.4066541472
  0
VERTEX
  8
0
 62
9
  6
CONTINUOUS
 10
116.233255767
 20
108.4066115323
  0
VERTEX
  8
0
 62
9
  6
CONTINUOUS
 10
116.2311686199
 20
108.4038201364
  0
SEQEND
  0
LINE
  8
0
 62
9
  6
CONTINUOUS
 10
116.0750147597
 20
108.0023739283
 11
107.3642567903
 21
105.9335659685
  0
LINE
  8
0
 62
7
  6
CONTINUOUS
 10
115.7310158961
 20
108.5590946353
 11
107.7348516453
 21
106.4165288817
  0
POLYLINE
  8
0
 62
9
  6
CONTINUOUS
 66
1
 70
0
  0
VERTEX
  8
0
 62
9
  6
CONTINUOUS
 10
186.0701615648
 20
106.1657154971
  0
VERTEX
  8
0
 62
9
  6
CONTINUOUS
 10
186.0755297953
 20
106.0770336652
  0
VERTEX
  8
0
 62
9
  6
CONTINUOUS
 10
186.0848372127
 20
105.9911681107
  0
VERTEX
  8
0
 62
9
  6
CONTINUOUS
 10
186.0977882401
 20
105.9108456721
  0
VERTEX
  8
0
 62
9
  6
CONTINUOUS
 10
186.1139715904
 20
105.8386171539
  0
VERTEX
  8
0
 62
9
  6
CONTINUOUS
 10
186.132873327
 20
105.7767763201
  0
VERTEX
  8
0
 62
9
  6
CONTINUOUS
 10
186.1538931859
 20
105.727287051
  0
VERTEX
  8
0
 62
9
  6
CONTINUOUS
 10
186.1763636378
 20
105.6917209763
  0
VERTEX
  8
0
 62
9
  6
CONTINUOUS
 10
186.1995710873
 20
105.6712075654
  0
SEQEND
  0
POLYLINE
  8
0
 62
9
  6
CONTINUOUS
 66
1
 70
0
  0
VERTEX
  8
0
 62
9
  6
CONTINUOUS
 10
186.0701615648
 20
108.1879277528
  0
VERTEX
  8
0
 62
9
  6
CONTINUOUS
 10
186.0688738794
 20
108.2731479214
  0
VERTEX
  8
0
 62
9
  6
CONTINUOUS
 10
186.0714166828
 20
108.3558704476
  0
VERTEX
  8
0
 62
9
  6
CONTINUOUS
 10
186.0777154502
 20
108.43367089
  0
VERTEX
  8
0
 62
9
  6
CONTINUOUS
 10
186.0875855765
 20
108.5042690645
  0
VERTEX
  8
0
 62
9
  6
CONTINUOUS
 10
186.100737787
 20
108.5655958715
  0
VERTEX
  8
0
 62
9
  6
CONTINUOUS
 10
186.1167866151
 20
108.6158539382
  0
VERTEX
  8
0
 62
9
  6
CONTINUOUS
 10
186.1352617001
 20
108.6535702951
  0
VERTEX
  8
0
 62
9
  6
CONTINUOUS
 10
186.1556215719
 20
108.6776395472
  0
VERTEX
  8
0
 62
9
  6
CONTINUOUS
 10
186.1772695212
 20
108.6873562699
  0
VERTEX
  8
0
 62
9
  6
CONTINUOUS
 10
186.1795638496
 20
108.6875273029
  0
SEQEND
  0
LINE
  8
0
 62
9
  6
CONTINUOUS
 10
186.0701615648
 20
106.1657154971
 11
186.0701615648
 21
108.1879277528
  0
POLYLINE
  8
0
 62
7
  6
CONTINUOUS
 66
1
 70
0
  0
VERTEX
  8
0
 62
7
  6
CONTINUOUS
 10
192.3642562775
 20
107.5388352836
  0
VERTEX
  8
0
 62
7
  6
CONTINUOUS
 10
192.3554186065
 20
107.6410142741
  0
VERTEX
  8
0
 62
7
  6
CONTINUOUS
 10
192.319826137
 20
107.7657543363
  0
VERTEX
  8
0
 62
7
  6
CONTINUOUS
 10
192.2617651325
 20
107.8768011981
  0
VERTEX
  8
0
 62
7
  6
CONTINUOUS
 10
192.1889816643
 20
107.9698575898
  0
VERTEX
  8
0
 62
7
  6
CONTINUOUS
 10
192.1079676691
 20
108.0458636594
  0
VERTEX
  8
0
 62
7
  6
CONTINUOUS
 10
192.0215724705
 20
108.1087205066
  0
VERTEX
  8
0
 62
7
  6
CONTINUOUS
 10
191.9295564675
 20
108.1625968504
  0
VERTEX
  8
0
 62
7
  6
CONTINUOUS
 10
191.8303177967
 20
108.2106009812
  0
VERTEX
  8
0
 62
7
  6
CONTINUOUS
 10
191.7220897607
 20
108.254702986
  0
VERTEX
  8
0
 62
7
  6
CONTINUOUS
 10
191.6027942699
 20
108.2962499892
  0
VERTEX
  8
0
 62
7
  6
CONTINUOUS
 10
191.4703365384
 20
108.3360909725
  0
VERTEX
  8
0
 62
7
  6
CONTINUOUS
 10
191.3228699912
 20
108.3746749788
  0
VERTEX
  8
0
 62
7
  6
CONTINUOUS
 10
191.1587626642
 20
108.4122018853
  0
VERTEX
  8
0
 62
7
  6
CONTINUOUS
 10
190.976561368
 20
108.4487056987
  0
VERTEX
  8
0
 62
7
  6
CONTINUOUS
 10
190.7749637437
 20
108.4841054635
  0
VERTEX
  8
0
 62
7
  6
CONTINUOUS
 10
190.5528956828
 20
108.5182227671
  0
VERTEX
  8
0
 62
7
  6
CONTINUOUS
 10
190.3095032337
 20
108.5508055403
  0
VERTEX
  8
0
 62
7
  6
CONTINUOUS
 10
190.0441615488
 20
108.5815432903
  0
VERTEX
  8
0
 62
7
  6
CONTINUOUS
 10
189.7560591422
 20
108.6101169412
  0
VERTEX
  8
0
 62
7
  6
CONTINUOUS
 10
189.4441609299
 20
108.6361762348
  0
VERTEX
  8
0
 62
7
  6
CONTINUOUS
 10
189.1076490475
 20
108.6592859424
  0
VERTEX
  8
0
 62
7
  6
CONTINUOUS
 10
188.7460669627
 20
108.6789219474
  0
VERTEX
  8
0
 62
7
  6
CONTINUOUS
 10
188.3599870734
 20
108.6944551945
  0
VERTEX
  8
0
 62
7
  6
CONTINUOUS
 10
187.9511960659
 20
108.7051934701
  0
VERTEX
  8
0
 62
7
  6
CONTINUOUS
 10
187.5222693944
 20
108.7104356591
  0
VERTEX
  8
0
 62
7
  6
CONTINUOUS
 10
187.0766211683
 20
108.7094908444
  0
VERTEX
  8
0
 62
7
  6
CONTINUOUS
 10
186.618460995
 20
108.7016980992
  0
VERTEX
  8
0
 62
7
  6
CONTINUOUS
 10
186.1795638513
 20
108.6875272611
  0
SEQEND
  0
LINE
  8
0
 62
9
  6
CONTINUOUS
 10
191.8642567903
 20
105.0215939465
 11
191.8642567903
 21
96.7175403004
  0
LINE
  8
0
 62
7
  6
CONTINUOUS
 10
192.3642567903
 20
97.212048232
 11
192.3642567903
 21
107.538314134
  0
POLYLINE
  8
0
 62
9
  6
CONTINUOUS
 66
1
 70
0
  0
VERTEX
  8
0
 62
9
  6
CONTINUOUS
 10
192.3642567903
 20
105.5161018782
  0
VERTEX
  8
0
 62
9
  6
CONTINUOUS
 10
192.3566606668
 20
105.430231477
  0
VERTEX
  8
0
 62
9
  6
CONTINUOUS
 10
192.3341031007
 20
105.3469702046
  0
VERTEX
  8
0
 62
9
  6
CONTINUOUS
 10
192.2972694922
 20
105.2688479124
  0
VERTEX
  8
0
 62
9
  6
CONTINUOUS
 10
192.2472790118
 20
105.1982383069
  0
VERTEX
  8
0
 62
9
  6
CONTINUOUS
 10
192.1856505951
 20
105.1372868251
  0
VERTEX
  8
0
 62
9
  6
CONTINUOUS
 10
192.1142567903
 20
105.087845447
  0
VERTEX
  8
0
 62
9
  6
CONTINUOUS
 10
192.0352668619
 20
105.0514164239
  0
VERTEX
  8
0
 62
9
  6
CONTINUOUS
 10
191.9510808791
 20
105.0291066332
  0
VERTEX
  8
0
 62
9
  6
CONTINUOUS
 10
191.8642567903
 20
105.0215939465
  0
SEQEND
  0
POLYLINE
  8
0
 62
9
  6
CONTINUOUS
 66
1
 70
0
  0
VERTEX
  8
0
 62
9
  6
CONTINUOUS
 10
192.3566606639
 20
97.1261778147
  0
VERTEX
  8
0
 62
9
  6
CONTINUOUS
 10
192.3341030898
 20
97.0429165289
  0
VERTEX
  8
0
 62
9
  6
CONTINUOUS
 10
192.2972694702
 20
96.9647942285
  0
VERTEX
  8
0
 62
9
  6
CONTINUOUS
 10
192.2472789782
 20
96.894184621
  0
VERTEX
  8
0
 62
9
  6
CONTINUOUS
 10
192.1856505527
 20
96.8332331436
  0
VERTEX
  8
0
 62
9
  6
CONTINUOUS
 10
192.1142567448
 20
96.7837917749
  0
VERTEX
  8
0
 62
9
  6
CONTINUOUS
 10
192.0352668219
 20
96.7473627633
  0
VERTEX
  8
0
 62
9
  6
CONTINUOUS
 10
191.9510808543
 20
96.7250529827
  0
VERTEX
  8
0
 62
9
  6
CONTINUOUS
 10
191.8642567903
 20
96.7175403004
  0
SEQEND
  0
POLYLINE
  8
0
 62
9
  6
CONTINUOUS
 66
1
 70
0
  0
VERTEX
  8
0
 62
9
  6
CONTINUOUS
 10
191.8642567903
 20
96.7175403004
  0
VERTEX
  8
0
 62
9
  6
CONTINUOUS
 10
191.843089308
 20
96.6523856925
  0
VERTEX
  8
0
 62
9
  6
CONTINUOUS
 10
191.7797821184
 20
96.5878417246
  0
VERTEX
  8
0
 62
9
  6
CONTINUOUS
 10
191.6749792395
 20
96.5245417071
  0
VERTEX
  8
0
 62
9
  6
CONTINUOUS
 10
191.5297471779
 20
96.4630919263
  0
VERTEX
  8
0
 62
9
  6
CONTINUOUS
 10
191.3455486061
 20
96.4040736263
  0
VERTEX
  8
0
 62
9
  6
CONTINUOUS
 10
191.1242270768
 20
96.3480418284
  0
VERTEX
  8
0
 62
9
  6
CONTINUOUS
 10
190.8679764802
 20
96.2955178679
  0
VERTEX
  8
0
 62
9
  6
CONTINUOUS
 10
190.5793096368
 20
96.2469847347
  0
VERTEX
  8
0
 62
9
  6
CONTINUOUS
 10
190.2610192421
 20
96.2028824489
  0
VERTEX
  8
0
 62
9
  6
CONTINUOUS
 10
189.9161543759
 20
96.1636066866
  0
VERTEX
  8
0
 62
9
  6
CONTINUOUS
 10
189.547972273
 20
96.129504512
  0
VERTEX
  8
0
 62
9
  6
CONTINUOUS
 10
189.1599151398
 20
96.100874046
  0
VERTEX
  8
0
 62
9
  6
CONTINUOUS
 10
188.7555680233
 20
96.0779624223
  0
VERTEX
  8
0
 62
9
  6
CONTINUOUS
 10
188.338642325
 20
96.0609659273
  0
VERTEX
  8
0
 62
9
  6
CONTINUOUS
 10
187.9129223848
 20
96.0500283851
  0
VERTEX
  8
0
 62
9
  6
CONTINUOUS
 10
187.4822462397
 20
96.0452420098
  0
VERTEX
  8
0
 62
9
  6
CONTINUOUS
 10
187.0504999101
 20
96.0466475222
  0
VERTEX
  8
0
 62
9
  6
CONTINUOUS
 10
186.6216180391
 20
96.0542322209
  0
VERTEX
  8
0
 62
9
  6
CONTINUOUS
 10
186.1995710873
 20
96.0679266815
  0
SEQEND
  0
POLYLINE
  8
0
 62
9
  6
CONTINUOUS
 66
1
 70
0
  0
VERTEX
  8
0
 62
9
  6
CONTINUOUS
 10
192.3642567903
 20
107.538314134
  0
VERTEX
  8
0
 62
9
  6
CONTINUOUS
 10
192.3407256318
 20
107.6034847259
  0
VERTEX
  8
0
 62
9
  6
CONTINUOUS
 10
192.2703756692
 20
107.6680267038
  0
VERTEX
  8
0
 62
9
  6
CONTINUOUS
 10
192.1539215845
 20
107.731324759
  0
VERTEX
  8
0
 62
9
  6
CONTINUOUS
 10
191.9925490983
 20
107.792772486
  0
VERTEX
  8
0
 62
9
  6
CONTINUOUS
 10
191.7878831735
 20
107.8517887634
  0
VERTEX
  8
0
 62
9
  6
CONTINUOUS
 10
191.5419722059
 20
107.9078186015
  0
VERTEX
  8
0
 62
9
  6
CONTINUOUS
 10
191.2572537211
 20
107.9603407244
  0
VERTEX
  8
0
 62
9
  6
CONTINUOUS
 10
190.9365196022
 20
108.0088721864
  0
VERTEX
  8
0
 62
9
  6
CONTINUOUS
 10
190.5828726314
 20
108.052973015
  0
VERTEX
  8
0
 62
9
  6
CONTINUOUS
 10
190.1997004253
 20
108.0922475756
  0
VERTEX
  8
0
 62
9
  6
CONTINUOUS
 10
189.7906216364
 20
108.126348857
  0
VERTEX
  8
0
 62
9
  6
CONTINUOUS
 10
189.3594604534
 20
108.1549787694
  0
VERTEX
  8
0
 62
9
  6
CONTINUOUS
 10
188.910199873
 20
108.1778901916
  0
VERTEX
  8
0
 62
9
  6
CONTINUOUS
 10
188.4469632978
 20
108.1948868414
  0
VERTEX
  8
0
 62
9
  6
CONTINUOUS
 10
187.9739552494
 20
108.2058248929
  0
VERTEX
  8
0
 62
9
  6
CONTINUOUS
 10
187.4954398193
 20
108.2106121287
  0
VERTEX
  8
0
 62
9
  6
CONTINUOUS
 10
187.0157342717
 20
108.2092078056
  0
VERTEX
  8
0
 62
9
  6
CONTINUOUS
 10
186.5392100965
 20
108.2016246408
  0
VERTEX
  8
0
 62
9
  6
CONTINUOUS
 10
186.0701615648
 20
108.1879277528
  0
SEQEND
  0
LINE
  8
0
 62
2
  6
CONTINUOUS
 10
81.9912565764
 20
137.5975375184
 11
80.2312565764
 21
137.5975375184
  0
LINE
  8
DEFAULT_1
 62
2
  6
CENTER
 10
76.7112565764
 20
137.5975375184
 11
76.5112565764
 21
137.5975375184
  0
LINE
  8
0
 62
2
  6
CONTINUOUS
 10
56.5912565764
 20
137.5975375184
 11
54.8312565764
 21
137.5975375184
  0
LINE
  8
DEFAULT_1
 62
2
  6
CENTER
 10
51.3112565764
 20
137.5975375184
 11
51.1112565764
 21
137.5975375184
  0
LINE
  8
DEFAULT_1
 62
2
  6
CENTER
 10
60.1112565764
 20
137.5975375184
 11
60.3112565764
 21
137.5975375184
  0
LINE
  8
DEFAULT_1
 62
2
  6
CENTER
 10
85.5112565764
 20
137.5975375184
 11
85.7112565764
 21
137.5975375184
  0
LINE
  8
0
 62
7
  6
CONTINUOUS
 10
78.9262565764
 20
141.9975375184
 11
79.1070145565
 21
141.9975375184
  0
LINE
  8
0
 62
7
  6
CONTINUOUS
 10
77.8262565764
 20
142.9975375184
 11
58.9962565764
 21
142.9975375184
  0
LINE
  8
0
 62
7
  6
CONTINUOUS
 10
58.6253281767
 20
140.8976582952
 11
59.1689945762
 21
140.2896005173
  0
LINE
  8
0
 62
7
  6
CONTINUOUS
 10
54.3366717133
 20
142.7227730801
 11
35.7997672659
 21
211.9034422929
  0
LINE
  8
0
 62
2
  6
CONTINUOUS
 10
55.7112565764
 20
138.4775375184
 11
55.7112565764
 21
136.7175375184
  0
LINE
  8
DEFAULT_1
 62
2
  6
CENTER
 10
55.7112565764
 20
133.1975375184
 11
55.7112565764
 21
132.9975375184
  0
LINE
  8
DEFAULT_1
 62
2
  6
CENTER
 10
55.7112565764
 20
141.9975375184
 11
55.7112565764
 21
142.1975375184
  0
LINE
  8
0
 62
7
  6
CONTINUOUS
 10
58.3962565764
 20
142.3975375184
 11
58.3962565764
 21
141.4975375184
  0
LINE
  8
0
 62
7
  6
CONTINUOUS
 10
59.2962565764
 20
139.9563342822
 11
59.2962565764
 21
135.2115838306
  0
LINE
  8
DEFAULT_1
 62
2
  6
CENTER
 10
68.4112565764
 20
131.1975375184
 11
68.4112565764
 21
220.1975375184
  0
LINE
  8
0
 62
7
  6
CONTINUOUS
 10
77.5262565764
 20
135.2115838306
 11
77.5262565764
 21
139.9563342822
  0
LINE
  8
0
 62
7
  6
CONTINUOUS
 10
78.4262565764
 20
141.4975375184
 11
78.4262565764
 21
142.3975375184
  0
LINE
  8
0
 62
7
  6
CONTINUOUS
 10
79.3112565764
 20
142.2975375184
 11
79.3112565764
 21
144.9193516286
  0
LINE
  8
0
 62
2
  6
CONTINUOUS
 10
81.1112565764
 20
138.4775375184
 11
81.1112565764
 21
136.7175375184
  0
LINE
  8
DEFAULT_1
 62
2
  6
CENTER
 10
81.1112565764
 20
133.1975375184
 11
81.1112565764
 21
132.9975375184
  0
LINE
  8
DEFAULT_1
 62
2
  6
CENTER
 10
81.1112565764
 20
141.9975375184
 11
81.1112565764
 21
142.1975375184
  0
LINE
  8
0
 62
7
  6
CONTINUOUS
 10
81.8112565764
 20
144.0672844756
 11
81.8112565764
 21
142.1899225197
  0
LINE
  8
0
 62
7
  6
CONTINUOUS
 10
78.4326999169
 20
141.577618964
 11
78.426257025
 21
141.497539159
  0
LINE
  8
0
 62
7
  6
CONTINUOUS
 10
78.4504839043
 20
141.6517171585
 11
78.4326999169
 21
141.577618964
  0
POLYLINE
  8
0
 62
7
  6
CONTINUOUS
 66
1
 70
0
  0
VERTEX
  8
0
 62
7
  6
CONTINUOUS
 10
78.852353766
 20
142.2887506845
  0
VERTEX
  8
0
 62
7
  6
CONTINUOUS
 10
78.8412450048
 20
142.2437180332
  0
VERTEX
  8
0
 62
7
  6
CONTINUOUS
 10
78.8279623476
 20
142.1979180618
  0
VERTEX
  8
0
 62
7
  6
CONTINUOUS
 10
78.8120098322
 20
142.1528395449
  0
VERTEX
  8
0
 62
7
  6
CONTINUOUS
 10
78.7927311668
 20
142.1096749087
  0
VERTEX
  8
0
 62
7
  6
CONTINUOUS
 10
78.7693707249
 20
142.0690319842
  0
VERTEX
  8
0
 62
7
  6
CONTINUOUS
 10
78.741233669
 20
142.0308402599
  0
VERTEX
  8
0
 62
7
  6
CONTINUOUS
 10
78.7080880093
 20
141.9942551494
  0
VERTEX
  8
0
 62
7
  6
CONTINUOUS
 10
78.6707700009
 20
141.9579934271
  0
VERTEX
  8
0
 62
7
  6
CONTINUOUS
 10
78.6308698216
 20
141.920296596
  0
VERTEX
  8
0
 62
7
  6
CONTINUOUS
 10
78.5895845333
 20
141.8788134402
  0
VERTEX
  8
0
 62
7
  6
CONTINUOUS
 10
78.548518603
 20
141.8316091372
  0
VERTEX
  8
0
 62
7
  6
CONTINUOUS
 10
78.5102779743
 20
141.7782253429
  0
VERTEX
  8
0
 62
7
  6
CONTINUOUS
 10
78.4769855429
 20
141.7183763016
  0
SEQEND
  0
LINE
  8
0
 62
7
  6
CONTINUOUS
 10
78.4769855429
 20
141.7183763016
 11
78.4504839043
 21
141.6517171585
  0
LINE
  8
0
 62
7
  6
CONTINUOUS
 10
101.0227458868
 20
211.9034422929
 11
82.4858414395
 21
142.7227730801
  0
LINE
  8
0
 62
7
  6
CONTINUOUS
 10
77.6535185766
 20
140.2896005173
 11
78.1971849761
 21
140.8976582952
  0
LINE
  8
0
 62
7
  6
CONTINUOUS
 10
40.6293963974
 20
218.1975375184
 11
96.1931167554
 21
218.1975375184
  0
ARC
  8
0
 62
7
  6
CONTINUOUS
 10
51.8112565764
 20
102.925181183
 40
0.5
 50
180.0
 51
270.0
  0
ARC
  8
0
 62
7
  6
CONTINUOUS
 10
85.0112565764
 20
101.825181183
 40
0.5
 50
0.0
 51
90.0
  0
ARC
  8
0
 62
7
  6
CONTINUOUS
 10
100.6931159975
 20
98.561731095
 40
0.5
 50
0.0000032101
 51
81.5000000009
  0
ARC
  8
0
 62
7
  6
CONTINUOUS
 10
36.1293971317
 20
108.2108435303
 40
0.5
 50
81.4999999995
 51
180.0000031085
  0
ARC
  8
0
 62
7
  6
CONTINUOUS
 10
36.1293971317
 20
106.1886312746
 40
0.5
 50
180.0000031088
 51
261.5000000009
  0
ARC
  8
0
 62
7
  6
CONTINUOUS
 10
100.6931159975
 20
96.5395188392
 40
0.5
 50
261.4999999995
 51
0.0000032098
  0
ARC
  8
0
 62
7
  6
CONTINUOUS
 10
57.8962565764
 20
102.925181183
 40
0.5
 50
270.0
 51
272.3419583004
  0
ARC
  8
0
 62
7
  6
CONTINUOUS
 10
78.9262565764
 20
101.825181183
 40
0.5
 50
90.0
 51
92.3419583004
  0
ARC
  8
0
 62
7
  6
CONTINUOUS
 10
82.1112574557
 20
98.5077113029
 40
0.3000003298
 50
81.5001698079
 51
179.9999749009
  0
ARC
  8
0
 62
7
  6
CONTINUOUS
 10
79.0112565764
 20
98.9710095385
 40
0.3
 50
0.0
 51
81.5
  0
ARC
  8
0
 62
7
  6
CONTINUOUS
 10
54.711255697
 20
106.2426510631
 40
0.3000003298
 50
261.5001698079
 51
359.9999749009
  0
ARC
  8
0
 62
7
  6
CONTINUOUS
 10
57.8112565764
 20
105.7793528275
 40
0.3
 50
180.0
 51
261.5
  0
ARC
  8
0
 62
7
  6
CONTINUOUS
 10
107.8642567903
 20
101.825181183
 40
0.5
 50
90.0
 51
180.0
  0
ARC
  8
0
 62
7
  6
CONTINUOUS
 10
107.8642577023
 20
98.816797326
 40
0.5
 50
180.0000109332
 51
255.0000000017
  0
ARC
  8
0
 62
7
  6
CONTINUOUS
 10
115.8604254203
 20
96.6742306434
 40
0.5
 50
254.9999171546
 51
319.0069551005
  0
ARC
  8
0
 62
7
  6
CONTINUOUS
 10
115.6642567903
 20
96.7267938694
 40
0.5
 50
255.0
 51
360.0
  0
ARC
  8
0
 62
7
  6
CONTINUOUS
 10
107.8642567903
 20
102.925181183
 40
0.5
 50
180.0
 51
270.0
  0
ARC
  8
0
 62
7
  6
CONTINUOUS
 10
107.8642577197
 20
105.9335650447
 40
0.5
 50
104.9999999988
 51
179.9999888581
  0
ARC
  8
0
 62
7
  6
CONTINUOUS
 10
115.8604254203
 20
108.0761317226
 40
0.5
 50
40.9930442647
 51
105.0000828454
  0
ARC
  8
0
 62
9
  6
CONTINUOUS
 10
124.6238384725
 20
87.7642777197
 40
12.5
 50
116.2961198909
 51
130.7505129133
  0
ARC
  8
0
 62
7
  6
CONTINUOUS
 10
124.6238384725
 20
87.7642777197
 40
12.0
 50
108.626534658
 51
134.2187875593
  0
ARC
  8
0
 62
7
  6
CONTINUOUS
 10
116.4642567775
 20
96.1494567074
 40
0.2999999992
 50
134.2187848983
 51
139.0069526076
  0
ARC
  8
0
 62
9
  6
CONTINUOUS
 10
124.6238384725
 20
116.9860846463
 40
12.5
 50
228.5951212338
 51
239.2572350413
  0
ARC
  8
0
 62
7
  6
CONTINUOUS
 10
124.6238384725
 20
116.9860846463
 40
12.0
 50
225.7521155549
 51
246.0223433166
  0
ARC
  8
0
 62
7
  6
CONTINUOUS
 10
116.4642567789
 20
108.6009056579
 40
0.2999999993
 50
220.9930471334
 51
225.7812148169
  0
ARC
  8
0
 62
7
  6
CONTINUOUS
 10
55.7112565764
 20
137.5975375184
 40
4.4
 50
113.2002290416
 51
322.2814627975
  0
CIRCLE
  8
0
 62
7
  6
CONTINUOUS
 10
55.7112565764
 20
137.5975375184
 40
2.6
  0
ARC
  8
0
 62
7
  6
CONTINUOUS
 10
53.370745887
 20
142.463954035
 40
1.0
 50
295.6853011765
 51
15.0
  0
ARC
  8
0
 62
7
  6
CONTINUOUS
 10
58.7962565764
 20
135.2115838306
 40
0.5
 50
322.2814627974
 51
360.0
  0
ARC
  8
0
 62
7
  6
CONTINUOUS
 10
59.2962565764
 20
141.4975375184
 40
0.9
 50
180.0
 51
221.8
  0
ARC
  8
0
 62
7
  6
CONTINUOUS
 10
58.9962565764
 20
142.3975375184
 40
0.6
 50
90.0
 51
180.0
  0
ARC
  8
0
 62
7
  6
CONTINUOUS
 10
58.7962565764
 20
139.9563342822
 40
0.5
 50
0.0
 51
41.8
  0
ARC
  8
0
 62
7
  6
CONTINUOUS
 10
40.6293963974
 20
213.1975375184
 40
5.0
 50
90.0
 51
195.0
  0
ARC
  8
0
 62
7
  6
CONTINUOUS
 10
78.0262565764
 20
135.2115838306
 40
0.5
 50
180.0
 51
217.7185372025
  0
ARC
  8
0
 62
7
  6
CONTINUOUS
 10
77.5262565764
 20
141.4975375184
 40
0.9
 50
318.2
 51
360.0
  0
ARC
  8
0
 62
7
  6
CONTINUOUS
 10
77.8262565764
 20
142.3975375184
 40
0.6
 50
0.0
 51
90.0
  0
ARC
  8
0
 62
7
  6
CONTINUOUS
 10
78.0262565764
 20
139.9563342822
 40
0.5
 50
138.2
 51
180.0
  0
ARC
  8
0
 62
7
  6
CONTINUOUS
 10
78.9262565764
 20
141.4975375184
 40
0.5
 50
90.0
 51
180.0
  0
ARC
  8
0
 62
7
  6
CONTINUOUS
 10
79.0112565764
 20
142.2975375184
 40
0.3
 50
270.0
 51
360.0
  0
ARC
  8
0
 62
7
  6
CONTINUOUS
 10
81.1112565764
 20
137.5975375184
 40
4.4
 50
217.7185372025
 51
78.4406661981
  0
CIRCLE
  8
0
 62
7
  6
CONTINUOUS
 10
81.1112565764
 20
137.5975375184
 40
2.6
  0
ARC
  8
0
 62
7
  6
CONTINUOUS
 10
83.4517672658
 20
142.463954035
 40
1.0
 50
165.0
 51
244.3146988235
  0
ARC
  8
0
 62
7
  6
CONTINUOUS
 10
82.1112565764
 20
142.1899225197
 40
0.3
 50
180.0
 51
257.7155061437
  0
ARC
  8
0
 62
7
  6
CONTINUOUS
 10
96.1931167554
 20
213.1975375184
 40
5.0
 50
345.0
 51
90.0
  0
ENDSEC
  0
EOF
