  0
SECTION
  2
HEADER
  9
$EXTMAX
 10
210.0
 20
297.0
 30
0.0
  9
$EXTMIN
 10
0.0
 20
0.0
 30
0.0
  9
$LIMMIN
 10
0.0
 20
0.0
  9
$LIMMAX
 10
210.0
 20
297.0
  9
$VIEWCTR
 10
105.0
 20
148.5
  9
$VIEWSIZE
 40
297.0
  9
$CLAYER
  8
0
  9
$LTSCALE
 40
19.36
  9
$CELTYPE
  6
BYLAYER
  9
$DIMSCALE
 40
1.0
  9
$DIMASZ
 40
3.5
  9
$DIMEXO
 40
2.2
  9
$DIMDLI
 40
13.376
  9
$DIMEXE
 40
6.336
  9
$DIMCEN
 40
3.168
  9
$DIMLFAC
 40
1.0
  9
$DIMBLK
  1
_FILLED
  9
$DIMTXT
 40
3.5
  9
$PDMODE
 70
3
  9
$PDSIZE
 40
0.3125
  9
$TILEMODE
 70
1
  0
ENDSEC
  0
SECTION
  2
TABLES
  0
TABLE
  2
LTYPE
 70
6
  0
LTYPE
  2
BYBLOCK
 70
0
  3

 72
65
 73
0
 40
0.0
  0
LTYPE
  2
BYLAYER
 70
0
  3

 72
65
 73
0
 40
0.0
  0
LTYPE
  2
CONTINUOUS
 70
64
  3
Solid line
 72
65
 73
0
 40
0.0
  0
LTYPE
  2
CENTER
 70
64
  3
____ _ ____ _ ____ _ ____ _ ____ _ ____ _ ____
 72
65
 73
4
 40
0.6
 49
0.375
 49
-0.075
 49
0.075
 49
-0.075
  0
LTYPE
  2
HIDDEN
 70
64
  3
- - - - - - - - - - - - - - - - - - - -
 72
65
 73
2
 40
0.2
 49
0.1
 49
-0.1
  0
LTYPE
  2
PHANTOM
 70
64
  3
_____ _ _ _____ _ _ _____ _ _ _____
 72
65
 73
6
 40
0.8
 49
0.45
 49
-0.05
 49
0.1
 49
-0.05
 49
0.1
 49
-0.05
  0
LTYPE
  2
DOT
 70
64
  3
. . . . . . . . . . . . . . . . . . . .
 72
65
 73
2
 40
0.2
 49
0.1
 49
-0.1
  0
LTYPE
  2
DASHED
 70
64
  3
- - - - - - - - - - - - - - - - - - - -
 72
65
 73
2
 40
0.2
 49
0.1
 49
-0.1
  0
ENDTAB
  0
TABLE
  2
LAYER
 70
36
  0
LAYER
  2
0
 70
0
 62
7
  6
CONTINUOUS
  0
LAYER
  2
DEFAULT_1
 70
0
 62
7
  6
CENTER
  0
LAYER
  2
DEFAULT_2
 70
0
 62
8
  6
HIDDEN
  0
LAYER
  2
DEFAULT_3
 70
0
 62
7
  6
PHANTOM
  0
LAYER
  2
AXES
 70
0
 62
7
  6
CONTINUOUS
  0
LAYER
  2
CSYS
 70
0
 62
7
  6
CONTINUOUS
  0
LAYER
  2
CURVE
 70
0
 62
7
  6
CONTINUOUS
  0
LAYER
  2
CURVES
 70
0
 62
7
  6
CONTINUOUS
  0
LAYER
  2
PLANES
 70
0
 62
7
  6
CONTINUOUS
  0
LAYER
  2
SURFACE
 70
0
 62
7
  6
CONTINUOUS
  0
ENDTAB
  0
TABLE
  2
STYLE
 70
1
  0
STYLE
  2
STANDARD
 70
0
 40
0.0
 41
0.8
 50
0.0
 71
0
 42
0.2
  3
txt
  4

  0
STYLE
  2
TEXTSTYLE_1
 70
0
 40
0.0
 41
0.8
 50
0.0
 71
0
 42
0.2
  3
gdt
  4

  0
STYLE
  2
TEXTSTYLE_2
 70
0
 40
0.0
 41
0.6
 50
0.0
 71
0
 42
0.2
  3
txt
  4

  0
STYLE
  2
TEXTSTYLE_3
 70
0
 40
0.0
 41
1.0
 50
0.0
 71
0
 42
0.2
  3
ftb_____.ttf
  4

  0
STYLE
  2
TEXTSTYLE_4
 70
0
 40
0.0
 41
1.0
 50
0.0
 71
0
 42
0.2
  3
fti_____.ttf
  4

  0
STYLE
  2
TEXTSTYLE_5
 70
0
 40
0.0
 41
1.0
 50
0.0
 71
0
 42
0.2
  3
frutiger light.ttf
  4

  0
STYLE
  2
TEXTSTYLE_6
 70
0
 40
0.0
 41
0.7
 50
0.0
 71
0
 42
0.2
  3
txt
  4

  0
STYLE
  2
TEXTSTYLE_7
 70
0
 40
0.0
 41
0.45
 50
0.0
 71
0
 42
0.2
  3
txt
  4

  0
ENDTAB
  0
ENDSEC
  0
SECTION
  2
BLOCKS
  0
BLOCK
  8
0
 62
2
  6
CONTINUOUS
  2
SYMBOL_8_BL1
 70
64
 10
173.5956734183
 20
35.5937998301
  0
TEXT
  8
0
 62
7
  6
CONTINUOUS
 10
164.6539584268
 20
30.6865562072
  7
TEXTSTYLE_4
 40
1.0655737705
  1
The brand for plastic modular belts and chains
 41
1.0
 72
0
  0
LINE
  8
0
 62
7
  6
CONTINUOUS
 10
149.5737418074
 20
36.1675703219
 11
149.5737418074
 21
34.0364227809
  0
LINE
  8
0
 62
7
  6
CONTINUOUS
 10
149.8628043005
 20
31.0454914852
 11
149.8628043005
 21
31.1422825445
  0
LINE
  8
0
 62
7
  6
CONTINUOUS
 10
149.5737418074
 20
31.1100188581
 11
149.6315543091
 21
30.9164367395
  0
LINE
  8
0
 62
7
  6
CONTINUOUS
 10
150.9671844304
 20
33.9544555678
 11
150.9671844304
 21
36.1675703219
  0
LINE
  8
0
 62
7
  6
CONTINUOUS
 10
151.8862417523
 20
32.1101932727
 11
151.8862417523
 21
30.5937998301
  0
LINE
  8
0
 62
7
  6
CONTINUOUS
 10
152.1753043074
 20
30.5937998301
 11
152.1753043074
 21
31.3358647082
  0
LINE
  8
0
 62
7
  6
CONTINUOUS
 10
152.1753043074
 20
31.4649194539
 11
152.1753043074
 21
32.1101932727
  0
LINE
  8
0
 62
7
  6
CONTINUOUS
 10
149.6315543091
 20
31.3036010218
 11
149.5737418074
 21
31.1100188581
  0
LINE
  8
0
 62
7
  6
CONTINUOUS
 10
149.9784292936
 20
30.8841730531
 11
149.8628043005
 21
31.0454914852
  0
LINE
  8
0
 62
7
  6
CONTINUOUS
 10
151.0768668626
 20
31.400392081
 11
151.1346793074
 21
31.3036010218
  0
LINE
  8
0
 62
7
  6
CONTINUOUS
 10
151.4237418626
 20
31.3036010218
 11
151.3659292523
 21
31.4326557675
  0
LINE
  8
0
 62
7
  6
CONTINUOUS
 10
152.852430332
 20
36.1675703219
 11
152.852430332
 21
34.3642916334
  0
LINE
  8
0
 62
7
  6
CONTINUOUS
 10
152.852430332
 20
33.0528162235
 11
152.852430332
 21
32.3970785186
  0
LINE
  8
0
 62
7
  6
CONTINUOUS
 10
153.2159293074
 20
31.2390736489
 11
153.2159293074
 21
30.5937998301
  0
LINE
  8
0
 62
7
  6
CONTINUOUS
 10
153.5049916972
 20
30.5937998301
 11
153.5049916972
 21
31.2390736489
  0
LINE
  8
0
 62
7
  6
CONTINUOUS
 10
149.8628043005
 20
31.1422825445
 11
149.9206168074
 21
31.2713373354
  0
LINE
  8
0
 62
7
  6
CONTINUOUS
 10
149.6315543091
 20
30.9164367395
 11
149.7471793074
 21
30.7873819712
  0
LINE
  8
0
 62
7
  6
CONTINUOUS
 10
153.1581166972
 20
31.3681283946
 11
153.2159293074
 21
31.2390736489
  0
LINE
  8
0
 62
7
  6
CONTINUOUS
 10
153.9674919177
 20
30.8841730531
 11
154.0253041972
 21
30.7551182848
  0
LINE
  8
0
 62
7
  6
CONTINUOUS
 10
153.5049916972
 20
31.2390736489
 11
153.4471794177
 21
31.400392081
  0
LINE
  8
0
 62
7
  6
CONTINUOUS
 10
153.9674919177
 20
31.4326557675
 11
153.9674919177
 21
31.3681283946
  0
LINE
  8
0
 62
7
  6
CONTINUOUS
 10
153.9674919177
 20
30.9809641124
 11
153.9674919177
 21
30.8841730531
  0
LINE
  8
0
 62
7
  6
CONTINUOUS
 10
154.245872955
 20
32.3970785186
 11
154.245872955
 21
36.1675703219
  0
LINE
  8
0
 62
7
  6
CONTINUOUS
 10
154.2565543074
 20
30.8519093441
 11
154.2565543074
 21
30.9164367395
  0
LINE
  8
0
 62
7
  6
CONTINUOUS
 10
154.5737418074
 20
36.1675703219
 11
154.5737418074
 21
32.3970785186
  0
LINE
  8
0
 62
7
  6
CONTINUOUS
 10
151.3659292523
 20
30.7873819712
 11
151.4237418626
 21
30.9164367395
  0
LINE
  8
0
 62
7
  6
CONTINUOUS
 10
155.759679528
 20
30.6905909007
 11
155.7018665869
 21
30.8519093441
  0
LINE
  8
0
 62
7
  6
CONTINUOUS
 10
155.412804528
 20
31.3681283946
 11
155.412804528
 21
31.2713373354
  0
LINE
  8
0
 62
7
  6
CONTINUOUS
 10
155.412804528
 20
31.1422825445
 11
155.412804528
 21
30.9487004259
  0
LINE
  8
0
 62
7
  6
CONTINUOUS
 10
155.7018665869
 20
30.8519093441
 11
155.7018665869
 21
31.3681283946
  0
LINE
  8
0
 62
7
  6
CONTINUOUS
 10
155.9671844304
 20
32.3970785186
 11
155.9671844304
 21
34.2003572071
  0
LINE
  8
0
 62
7
  6
CONTINUOUS
 10
155.9671844304
 20
35.511832617
 11
155.9671844304
 21
36.1675703219
  0
LINE
  8
0
 62
7
  6
CONTINUOUS
 10
156.279992028
 20
32.1101932727
 11
156.279992028
 21
31.9488748406
  0
LINE
  8
0
 62
7
  6
CONTINUOUS
 10
156.279992028
 20
31.626237886
 11
156.279992028
 21
30.5937998301
  0
LINE
  8
0
 62
7
  6
CONTINUOUS
 10
156.5690540869
 20
30.5937998301
 11
156.5690540869
 21
31.626237886
  0
LINE
  8
0
 62
7
  6
CONTINUOUS
 10
156.5690540869
 20
31.9488748406
 11
156.5690540869
 21
32.1101932727
  0
LINE
  8
0
 62
7
  6
CONTINUOUS
 10
151.1346793074
 20
30.9164367395
 11
151.0768668626
 21
30.8196456577
  0
LINE
  8
0
 62
7
  6
CONTINUOUS
 10
153.4471794177
 20
31.400392081
 11
153.3893668074
 21
31.4649194539
  0
LINE
  8
0
 62
7
  6
CONTINUOUS
 10
154.3143669177
 20
30.7873819712
 11
154.2565543074
 21
30.8519093441
  0
LINE
  8
0
 62
7
  6
CONTINUOUS
 10
155.4706168074
 20
30.6583272086
 11
155.5284290869
 21
30.5937998301
  0
LINE
  8
0
 62
7
  6
CONTINUOUS
 10
155.412804528
 20
30.7551182848
 11
155.4706168074
 21
30.6583272086
  0
LINE
  8
0
 62
7
  6
CONTINUOUS
 10
155.8174918074
 20
30.5937998301
 11
155.759679528
 21
30.6905909007
  0
LINE
  8
0
 62
7
  6
CONTINUOUS
 10
155.7018665869
 20
31.3681283946
 11
155.6440543074
 21
31.4649194539
  0
LINE
  8
0
 62
7
  6
CONTINUOUS
 10
157.0315543074
 20
31.626237886
 11
157.0315543074
 21
30.5937998301
  0
LINE
  8
0
 62
7
  6
CONTINUOUS
 10
157.320617028
 20
30.5937998301
 11
157.320617028
 21
31.3358647082
  0
LINE
  8
0
 62
7
  6
CONTINUOUS
 10
157.320617028
 20
31.4649194539
 11
157.320617028
 21
31.626237886
  0
LINE
  8
0
 62
7
  6
CONTINUOUS
 10
157.852430332
 20
34.6101932727
 11
157.852430332
 21
32.3970785186
  0
LINE
  8
0
 62
7
  6
CONTINUOUS
 10
149.7471793074
 20
31.4326557675
 11
149.6315543091
 21
31.3036010218
  0
LINE
  8
0
 62
7
  6
CONTINUOUS
 10
149.9206168074
 20
31.2713373354
 11
149.9784292936
 21
31.3358647082
  0
LINE
  8
0
 62
7
  6
CONTINUOUS
 10
149.7471793074
 20
30.7873819712
 11
149.8628043005
 21
30.7228545871
  0
LINE
  8
0
 62
7
  6
CONTINUOUS
 10
150.1518667936
 20
30.7873819712
 11
149.9784292936
 21
30.8841730531
  0
LINE
  8
0
 62
7
  6
CONTINUOUS
 10
155.3549915869
 20
31.4326557675
 11
155.412804528
 21
31.3681283946
  0
LINE
  8
0
 62
7
  6
CONTINUOUS
 10
158.3034290869
 20
31.3681283946
 11
158.361242028
 21
31.2068099625
  0
LINE
  8
0
 62
7
  6
CONTINUOUS
 10
158.6503040869
 20
31.2068099625
 11
158.5924918074
 21
31.3681283946
  0
LINE
  8
0
 62
7
  6
CONTINUOUS
 10
158.361242028
 20
31.2068099625
 11
158.361242028
 21
30.5937998301
  0
LINE
  8
0
 62
7
  6
CONTINUOUS
 10
158.6503040869
 20
30.5937998301
 11
158.6503040869
 21
31.2068099625
  0
LINE
  8
0
 62
7
  6
CONTINUOUS
 10
159.1128043074
 20
31.4326557675
 11
159.1128043074
 21
31.3681283946
  0
LINE
  8
0
 62
7
  6
CONTINUOUS
 10
159.245872955
 20
32.3970785186
 11
159.245872955
 21
34.5282260596
  0
LINE
  8
0
 62
7
  6
CONTINUOUS
 10
159.5737418074
 20
36.1675703219
 11
159.5737418074
 21
32.3970785186
  0
LINE
  8
0
 62
7
  6
CONTINUOUS
 10
154.2565543074
 20
30.9164367395
 11
154.3143669177
 21
31.0132277988
  0
LINE
  8
0
 62
7
  6
CONTINUOUS
 10
149.8628043005
 20
30.7228545871
 11
150.0362418212
 21
30.6583272086
  0
LINE
  8
0
 62
7
  6
CONTINUOUS
 10
151.3659292523
 20
31.4326557675
 11
151.1924917523
 21
31.5294468267
  0
LINE
  8
0
 62
7
  6
CONTINUOUS
 10
154.0253041972
 20
30.7551182848
 11
154.1987416972
 21
30.6583272086
  0
LINE
  8
0
 62
7
  6
CONTINUOUS
 10
153.0424918074
 20
31.4326557675
 11
153.1581166972
 21
31.3681283946
  0
LINE
  8
0
 62
7
  6
CONTINUOUS
 10
153.3893668074
 20
31.4649194539
 11
153.2737419177
 21
31.5294468267
  0
LINE
  8
0
 62
7
  6
CONTINUOUS
 10
159.1128043074
 20
30.8519093441
 11
159.228429528
 21
30.7228545871
  0
LINE
  8
0
 62
7
  6
CONTINUOUS
 10
159.4596793074
 20
30.7873819712
 11
159.401867028
 21
30.8519093441
  0
LINE
  8
0
 62
7
  6
CONTINUOUS
 10
159.1128043074
 20
31.3681283946
 11
159.228429528
 21
31.2390736489
  0
LINE
  8
0
 62
7
  6
CONTINUOUS
 10
158.5924918074
 20
31.3681283946
 11
158.534679528
 21
31.4649194539
  0
LINE
  8
0
 62
7
  6
CONTINUOUS
 10
160.9628038663
 20
30.7873819712
 11
160.9628038663
 21
30.8519093441
  0
LINE
  8
0
 62
7
  6
CONTINUOUS
 10
160.9671844304
 20
32.3970785186
 11
160.9671844304
 21
36.1675703219
  0
LINE
  8
0
 62
7
  6
CONTINUOUS
 10
154.0253041972
 20
31.4971831403
 11
153.9674919177
 21
31.4326557675
  0
LINE
  8
0
 62
7
  6
CONTINUOUS
 10
150.9034292799
 20
31.4649194539
 11
151.0768668626
 21
31.400392081
  0
LINE
  8
0
 62
7
  6
CONTINUOUS
 10
155.6440543074
 20
31.4649194539
 11
155.5284290869
 21
31.5294468267
  0
LINE
  8
0
 62
7
  6
CONTINUOUS
 10
159.4596793074
 20
31.3036010218
 11
159.401867028
 21
31.3681283946
  0
LINE
  8
0
 62
7
  6
CONTINUOUS
 10
160.615929528
 20
30.9164367395
 11
160.6737418074
 21
30.8519093441
  0
LINE
  8
0
 62
7
  6
CONTINUOUS
 10
160.9628038663
 20
30.8519093441
 11
160.8471793074
 21
30.9809641124
  0
LINE
  8
0
 62
7
  6
CONTINUOUS
 10
160.615929528
 20
31.4326557675
 11
160.6737418074
 21
31.3681283946
  0
LINE
  8
0
 62
7
  6
CONTINUOUS
 10
160.9628038663
 20
31.3681283946
 11
160.8471793074
 21
31.4971831403
  0
LINE
  8
0
 62
7
  6
CONTINUOUS
 10
154.2565543074
 20
31.3681283946
 11
154.3143669177
 21
31.4326557675
  0
LINE
  8
0
 62
7
  6
CONTINUOUS
 10
154.0831168074
 20
31.1100188581
 11
153.9674919177
 21
30.9809641124
  0
LINE
  8
0
 62
7
  6
CONTINUOUS
 10
155.412804528
 20
30.9487004259
 11
155.3549915869
 21
30.8841730531
  0
LINE
  8
0
 62
7
  6
CONTINUOUS
 10
155.3549915869
 20
30.6905909007
 11
155.412804528
 21
30.7551182848
  0
LINE
  8
0
 62
7
  6
CONTINUOUS
 10
154.1987416972
 20
30.6583272086
 11
154.3143669177
 21
30.6260635193
  0
LINE
  8
0
 62
7
  6
CONTINUOUS
 10
151.1924917523
 20
31.5294468267
 11
150.9612418074
 21
31.5939741996
  0
LINE
  8
0
 62
7
  6
CONTINUOUS
 10
154.5456166972
 20
30.7228545871
 11
154.3143669177
 21
30.7873819712
  0
LINE
  8
0
 62
7
  6
CONTINUOUS
 10
153.2737419177
 20
31.5294468267
 11
153.1003044177
 21
31.5939741996
  0
LINE
  8
0
 62
7
  6
CONTINUOUS
 10
155.5284290869
 20
31.5294468267
 11
155.3549915869
 21
31.5939741996
  0
LINE
  8
0
 62
7
  6
CONTINUOUS
 10
158.187804528
 20
31.4326557675
 11
158.3034290869
 21
31.3681283946
  0
LINE
  8
0
 62
7
  6
CONTINUOUS
 10
158.534679528
 20
31.4649194539
 11
158.4190543074
 21
31.5294468267
  0
LINE
  8
0
 62
7
  6
CONTINUOUS
 10
150.0362418212
 20
30.6583272086
 11
150.2096793212
 21
30.6260635193
  0
LINE
  8
0
 62
7
  6
CONTINUOUS
 10
150.498741835
 20
30.7228545871
 11
150.1518667936
 21
30.7873819712
  0
LINE
  8
0
 62
7
  6
CONTINUOUS
 10
152.9268669177
 20
31.4649194539
 11
153.0424918074
 21
31.4326557675
  0
LINE
  8
0
 62
7
  6
CONTINUOUS
 10
155.239367028
 20
31.4649194539
 11
155.3549915869
 21
31.4326557675
  0
LINE
  8
0
 62
7
  6
CONTINUOUS
 10
159.575304528
 20
30.7551182848
 11
159.4596793074
 21
30.7873819712
  0
LINE
  8
0
 62
7
  6
CONTINUOUS
 10
158.0721793074
 20
31.4649194539
 11
158.187804528
 21
31.4326557675
  0
LINE
  8
0
 62
7
  6
CONTINUOUS
 10
159.228429528
 20
30.7228545871
 11
159.401867028
 21
30.6583272086
  0
LINE
  8
0
 62
7
  6
CONTINUOUS
 10
158.4190543074
 20
31.5294468267
 11
158.2456168074
 21
31.5939741996
  0
LINE
  8
0
 62
7
  6
CONTINUOUS
 10
159.6331168074
 20
31.2390736489
 11
159.4596793074
 21
31.3036010218
  0
LINE
  8
0
 62
7
  6
CONTINUOUS
 10
160.442492028
 20
30.9809641124
 11
160.615929528
 21
30.9164367395
  0
LINE
  8
0
 62
7
  6
CONTINUOUS
 10
160.8471793074
 20
31.4971831403
 11
160.6737418074
 21
31.5617105132
  0
LINE
  8
0
 62
7
  6
CONTINUOUS
 10
159.228429528
 20
31.2390736489
 11
159.4596793074
 21
31.1422825445
  0
LINE
  8
0
 62
7
  6
CONTINUOUS
 10
160.8471793074
 20
30.9809641124
 11
160.615929528
 21
31.0777551716
  0
LINE
  8
0
 62
7
  6
CONTINUOUS
 10
159.401867028
 20
31.3681283946
 11
159.4596793074
 21
31.4326557675
  0
LINE
  8
0
 62
7
  6
CONTINUOUS
 10
149.8628043005
 20
31.4971831403
 11
149.7471793074
 21
31.4326557675
  0
LINE
  8
0
 62
7
  6
CONTINUOUS
 10
149.9784292936
 20
31.3358647082
 11
150.1518667936
 21
31.4326557675
  0
LINE
  8
0
 62
7
  6
CONTINUOUS
 10
152.2909293626
 20
31.5294468267
 11
152.1753043074
 21
31.4649194539
  0
LINE
  8
0
 62
7
  6
CONTINUOUS
 10
152.1753043074
 20
31.3358647082
 11
152.2909293626
 21
31.400392081
  0
LINE
  8
0
 62
7
  6
CONTINUOUS
 10
151.1924917523
 20
30.6905909007
 11
151.3659292523
 21
30.7873819712
  0
LINE
  8
0
 62
7
  6
CONTINUOUS
 10
150.2096793212
 20
30.6260635193
 11
150.5565542799
 21
30.5937998301
  0
LINE
  8
0
 62
7
  6
CONTINUOUS
 10
154.3143669177
 20
30.6260635193
 11
154.5456166972
 21
30.5937998301
  0
LINE
  8
0
 62
7
  6
CONTINUOUS
 10
152.6956168074
 20
31.4971831403
 11
152.9268669177
 21
31.4649194539
  0
LINE
  8
0
 62
7
  6
CONTINUOUS
 10
155.0081169177
 20
31.4971831403
 11
155.239367028
 21
31.4649194539
  0
LINE
  8
0
 62
7
  6
CONTINUOUS
 10
159.4596793074
 20
31.1422825445
 11
160.442492028
 21
30.9809641124
  0
LINE
  8
0
 62
7
  6
CONTINUOUS
 10
160.615929528
 20
31.0777551716
 11
159.6331168074
 21
31.2390736489
  0
LINE
  8
0
 62
7
  6
CONTINUOUS
 10
153.1003044177
 20
31.5939741996
 11
152.9268669177
 21
31.626237886
  0
LINE
  8
0
 62
7
  6
CONTINUOUS
 10
159.401867028
 20
30.6583272086
 11
159.575304528
 21
30.6260635193
  0
LINE
  8
0
 62
7
  6
CONTINUOUS
 10
158.2456168074
 20
31.5939741996
 11
158.0721793074
 21
31.626237886
  0
LINE
  8
0
 62
7
  6
CONTINUOUS
 10
160.5003043074
 20
31.4649194539
 11
160.615929528
 21
31.4326557675
  0
LINE
  8
0
 62
7
  6
CONTINUOUS
 10
160.6737418074
 20
30.8519093441
 11
160.615929528
 21
30.7873819712
  0
LINE
  8
0
 62
7
  6
CONTINUOUS
 10
159.228429528
 20
31.5294468267
 11
159.1128043074
 21
31.4326557675
  0
LINE
  8
0
 62
7
  6
CONTINUOUS
 10
154.1409294177
 20
31.5617105132
 11
154.0253041972
 21
31.4971831403
  0
LINE
  8
0
 62
7
  6
CONTINUOUS
 10
154.1987416972
 20
31.1745462761
 11
154.0831168074
 21
31.1100188581
  0
LINE
  8
0
 62
7
  6
CONTINUOUS
 10
154.3143669177
 20
31.0132277988
 11
154.4299918074
 21
31.0777551716
  0
LINE
  8
0
 62
7
  6
CONTINUOUS
 10
151.8862417523
 20
30.5937998301
 11
152.1753043074
 21
30.5937998301
  0
LINE
  8
0
 62
7
  6
CONTINUOUS
 10
153.2159293074
 20
30.5937998301
 11
153.5049916972
 21
30.5937998301
  0
LINE
  8
0
 62
7
  6
CONTINUOUS
 10
154.5456166972
 20
30.5937998301
 11
154.8924916972
 21
30.5937998301
  0
LINE
  8
0
 62
7
  6
CONTINUOUS
 10
155.5284290869
 20
30.5937998301
 11
155.8174918074
 21
30.5937998301
  0
LINE
  8
0
 62
7
  6
CONTINUOUS
 10
156.279992028
 20
30.5937998301
 11
156.5690540869
 21
30.5937998301
  0
LINE
  8
0
 62
7
  6
CONTINUOUS
 10
157.0315543074
 20
30.5937998301
 11
157.320617028
 21
30.5937998301
  0
LINE
  8
0
 62
7
  6
CONTINUOUS
 10
158.361242028
 20
30.5937998301
 11
158.6503040869
 21
30.5937998301
  0
LINE
  8
0
 62
7
  6
CONTINUOUS
 10
159.922179528
 20
30.5937998301
 11
160.269054528
 21
30.5937998301
  0
LINE
  8
0
 62
7
  6
CONTINUOUS
 10
160.269054528
 20
30.7228545871
 11
159.922179528
 21
30.7228545871
  0
LINE
  8
0
 62
7
  6
CONTINUOUS
 10
154.8924916972
 20
30.7228545871
 11
154.5456166972
 21
30.7228545871
  0
LINE
  8
0
 62
7
  6
CONTINUOUS
 10
159.401867028
 20
30.8519093441
 11
159.1128043074
 21
30.8519093441
  0
LINE
  8
0
 62
7
  6
CONTINUOUS
 10
151.4237418626
 20
30.9164367395
 11
151.1346793074
 21
30.9164367395
  0
LINE
  8
0
 62
7
  6
CONTINUOUS
 10
150.498741835
 20
31.4971831403
 11
150.9034292799
 21
31.4649194539
  0
LINE
  8
0
 62
7
  6
CONTINUOUS
 10
150.9612418074
 20
31.5939741996
 11
150.5565542799
 21
31.626237886
  0
LINE
  8
0
 62
7
  6
CONTINUOUS
 10
159.575304528
 20
30.6260635193
 11
159.922179528
 21
30.5937998301
  0
LINE
  8
0
 62
7
  6
CONTINUOUS
 10
159.922179528
 20
30.7228545871
 11
159.575304528
 21
30.7551182848
  0
LINE
  8
0
 62
7
  6
CONTINUOUS
 10
155.3549915869
 20
31.5939741996
 11
155.0081169177
 21
31.626237886
  0
LINE
  8
0
 62
7
  6
CONTINUOUS
 10
160.1534293074
 20
31.4971831403
 11
160.5003043074
 21
31.4649194539
  0
LINE
  8
0
 62
7
  6
CONTINUOUS
 10
160.5003043074
 20
31.5939741996
 11
160.1534293074
 21
31.626237886
  0
LINE
  8
0
 62
7
  6
CONTINUOUS
 10
157.840929528
 20
31.4971831403
 11
158.0721793074
 21
31.4649194539
  0
LINE
  8
0
 62
7
  6
CONTINUOUS
 10
160.6737418074
 20
31.5617105132
 11
160.5003043074
 21
31.5939741996
  0
LINE
  8
0
 62
7
  6
CONTINUOUS
 10
160.8471793074
 20
30.6905909007
 11
160.9628038663
 21
30.7873819712
  0
LINE
  8
0
 62
7
  6
CONTINUOUS
 10
155.3549915869
 20
30.8841730531
 11
155.1815540869
 21
30.7873819712
  0
LINE
  8
0
 62
7
  6
CONTINUOUS
 10
157.4362415869
 20
31.5294468267
 11
157.320617028
 21
31.4649194539
  0
LINE
  8
0
 62
7
  6
CONTINUOUS
 10
157.320617028
 20
31.3358647082
 11
157.4362415869
 21
31.400392081
  0
LINE
  8
0
 62
7
  6
CONTINUOUS
 10
150.0362418212
 20
31.5617105132
 11
149.8628043005
 21
31.4971831403
  0
LINE
  8
0
 62
7
  6
CONTINUOUS
 10
152.4643666972
 20
31.5939741996
 11
152.2909293626
 21
31.5294468267
  0
LINE
  8
0
 62
7
  6
CONTINUOUS
 10
152.2909293626
 20
31.400392081
 11
152.4643666972
 21
31.4649194539
  0
LINE
  8
0
 62
7
  6
CONTINUOUS
 10
151.0768668626
 20
30.8196456577
 11
150.9034292799
 21
30.7551182848
  0
LINE
  8
0
 62
7
  6
CONTINUOUS
 10
160.5003043074
 20
30.7551182848
 11
160.269054528
 21
30.7228545871
  0
LINE
  8
0
 62
7
  6
CONTINUOUS
 10
154.8924916972
 20
30.5937998301
 11
155.1815540869
 21
30.6260635193
  0
LINE
  8
0
 62
7
  6
CONTINUOUS
 10
160.269054528
 20
30.5937998301
 11
160.615929528
 21
30.6260635193
  0
LINE
  8
0
 62
7
  6
CONTINUOUS
 10
150.5565542799
 20
30.5937998301
 11
150.9612418074
 21
30.6260635193
  0
LINE
  8
0
 62
7
  6
CONTINUOUS
 10
150.9034292799
 20
30.7551182848
 11
150.498741835
 21
30.7228545871
  0
LINE
  8
0
 62
7
  6
CONTINUOUS
 10
154.7768668074
 20
31.1422825445
 11
155.412804528
 21
31.1422825445
  0
LINE
  8
0
 62
7
  6
CONTINUOUS
 10
155.412804528
 20
31.2713373354
 11
154.7768668074
 21
31.2713373354
  0
LINE
  8
0
 62
7
  6
CONTINUOUS
 10
151.1346793074
 20
31.3036010218
 11
151.4237418626
 21
31.3036010218
  0
LINE
  8
0
 62
7
  6
CONTINUOUS
 10
153.9674919177
 20
31.3681283946
 11
154.2565543074
 21
31.3681283946
  0
LINE
  8
0
 62
7
  6
CONTINUOUS
 10
160.6737418074
 20
31.3681283946
 11
160.9628038663
 21
31.3681283946
  0
LINE
  8
0
 62
7
  6
CONTINUOUS
 10
154.6612419177
 20
31.4971831403
 11
155.0081169177
 21
31.4971831403
  0
LINE
  8
0
 62
7
  6
CONTINUOUS
 10
159.8065543074
 20
31.4971831403
 11
160.1534293074
 21
31.4971831403
  0
LINE
  8
0
 62
7
  6
CONTINUOUS
 10
160.1534293074
 20
31.626237886
 11
159.8065543074
 21
31.626237886
  0
LINE
  8
0
 62
7
  6
CONTINUOUS
 10
158.0721793074
 20
31.626237886
 11
157.840929528
 21
31.626237886
  0
LINE
  8
0
 62
7
  6
CONTINUOUS
 10
157.320617028
 20
31.626237886
 11
157.0315543074
 21
31.626237886
  0
LINE
  8
0
 62
7
  6
CONTINUOUS
 10
156.5690540869
 20
31.626237886
 11
156.279992028
 21
31.626237886
  0
LINE
  8
0
 62
7
  6
CONTINUOUS
 10
155.0081169177
 20
31.626237886
 11
154.6612419177
 21
31.626237886
  0
LINE
  8
0
 62
7
  6
CONTINUOUS
 10
152.9268669177
 20
31.626237886
 11
152.6956168074
 21
31.626237886
  0
LINE
  8
0
 62
7
  6
CONTINUOUS
 10
156.279992028
 20
31.9488748406
 11
156.5690540869
 21
31.9488748406
  0
LINE
  8
0
 62
7
  6
CONTINUOUS
 10
156.5690540869
 20
32.1101932727
 11
156.279992028
 21
32.1101932727
  0
LINE
  8
0
 62
7
  6
CONTINUOUS
 10
152.1753043074
 20
32.1101932727
 11
151.8862417523
 21
32.1101932727
  0
LINE
  8
0
 62
7
  6
CONTINUOUS
 10
151.2130860697
 20
32.3970785186
 11
151.6256574183
 21
32.3970785186
  0
LINE
  8
0
 62
7
  6
CONTINUOUS
 10
152.852430332
 20
32.3970785186
 11
154.245872955
 21
32.3970785186
  0
LINE
  8
0
 62
7
  6
CONTINUOUS
 10
154.5737418074
 20
32.3970785186
 11
155.9671844304
 21
32.3970785186
  0
LINE
  8
0
 62
7
  6
CONTINUOUS
 10
157.852430332
 20
32.3970785186
 11
159.245872955
 21
32.3970785186
  0
LINE
  8
0
 62
7
  6
CONTINUOUS
 10
159.5737418074
 20
32.3970785186
 11
160.9671844304
 21
32.3970785186
  0
LINE
  8
0
 62
7
  6
CONTINUOUS
 10
157.6096790869
 20
31.5939741996
 11
157.4362415869
 21
31.5294468267
  0
LINE
  8
0
 62
7
  6
CONTINUOUS
 10
155.1815540869
 20
30.6260635193
 11
155.3549915869
 21
30.6905909007
  0
LINE
  8
0
 62
7
  6
CONTINUOUS
 10
160.615929528
 20
30.6260635193
 11
160.8471793074
 21
30.6905909007
  0
LINE
  8
0
 62
7
  6
CONTINUOUS
 10
160.615929528
 20
30.7873819712
 11
160.5003043074
 21
30.7551182848
  0
LINE
  8
0
 62
7
  6
CONTINUOUS
 10
159.575304528
 20
31.4649194539
 11
159.8065543074
 21
31.4971831403
  0
LINE
  8
0
 62
7
  6
CONTINUOUS
 10
157.6096790869
 20
31.4649194539
 11
157.840929528
 21
31.4971831403
  0
LINE
  8
0
 62
7
  6
CONTINUOUS
 10
154.5456166972
 20
31.1100188581
 11
154.7768668074
 21
31.1422825445
  0
LINE
  8
0
 62
7
  6
CONTINUOUS
 10
157.840929528
 20
31.626237886
 11
157.6096790869
 21
31.5939741996
  0
LINE
  8
0
 62
7
  6
CONTINUOUS
 10
154.4299918074
 20
31.4649194539
 11
154.6612419177
 21
31.4971831403
  0
LINE
  8
0
 62
7
  6
CONTINUOUS
 10
159.8065543074
 20
31.626237886
 11
159.4596793074
 21
31.5939741996
  0
LINE
  8
0
 62
7
  6
CONTINUOUS
 10
154.7768668074
 20
31.2713373354
 11
154.4299918074
 21
31.2390736489
  0
LINE
  8
0
 62
7
  6
CONTINUOUS
 10
150.5565542799
 20
31.626237886
 11
150.2096793212
 21
31.5939741996
  0
LINE
  8
0
 62
7
  6
CONTINUOUS
 10
154.6612419177
 20
31.626237886
 11
154.2565543074
 21
31.5939741996
  0
LINE
  8
0
 62
7
  6
CONTINUOUS
 10
152.0327582009
 20
33.5446195022
 11
151.3770204959
 21
33.5446195022
  0
LINE
  8
0
 62
7
  6
CONTINUOUS
 10
157.4362415869
 20
31.400392081
 11
157.6096790869
 21
31.4649194539
  0
LINE
  8
0
 62
7
  6
CONTINUOUS
 10
159.4596793074
 20
31.4326557675
 11
159.575304528
 21
31.4649194539
  0
LINE
  8
0
 62
7
  6
CONTINUOUS
 10
159.4596793074
 20
31.5939741996
 11
159.228429528
 21
31.5294468267
  0
LINE
  8
0
 62
7
  6
CONTINUOUS
 10
155.1815540869
 20
30.7873819712
 11
154.8924916972
 21
30.7228545871
  0
LINE
  8
0
 62
7
  6
CONTINUOUS
 10
152.4643666972
 20
31.4649194539
 11
152.6956168074
 21
31.4971831403
  0
LINE
  8
0
 62
7
  6
CONTINUOUS
 10
152.6956168074
 20
31.626237886
 11
152.4643666972
 21
31.5939741996
  0
LINE
  8
0
 62
7
  6
CONTINUOUS
 10
150.2674918074
 20
31.4649194539
 11
150.498741835
 21
31.4971831403
  0
LINE
  8
0
 62
7
  6
CONTINUOUS
 10
156.7868565615
 20
35.0200293383
 11
157.4425942664
 21
35.0200293383
  0
LINE
  8
0
 62
7
  6
CONTINUOUS
 10
154.4299918074
 20
31.0777551716
 11
154.5456166972
 21
31.1100188581
  0
LINE
  8
0
 62
7
  6
CONTINUOUS
 10
154.4299918074
 20
31.2390736489
 11
154.1987416972
 21
31.1745462761
  0
LINE
  8
0
 62
7
  6
CONTINUOUS
 10
154.3143669177
 20
31.4326557675
 11
154.4299918074
 21
31.4649194539
  0
LINE
  8
0
 62
7
  6
CONTINUOUS
 10
150.9612418074
 20
30.6260635193
 11
151.1924917523
 21
30.6905909007
  0
LINE
  8
0
 62
7
  6
CONTINUOUS
 10
154.2565543074
 20
31.5939741996
 11
154.1409294177
 21
31.5617105132
  0
LINE
  8
0
 62
7
  6
CONTINUOUS
 10
150.2096793212
 20
31.5939741996
 11
150.0362418212
 21
31.5617105132
  0
LINE
  8
0
 62
7
  6
CONTINUOUS
 10
160.9671844304
 20
36.1675703219
 11
159.5737418074
 21
36.1675703219
  0
LINE
  8
0
 62
7
  6
CONTINUOUS
 10
157.6065286927
 20
36.1675703219
 11
157.1939573441
 21
36.1675703219
  0
LINE
  8
0
 62
7
  6
CONTINUOUS
 10
155.9671844304
 20
36.1675703219
 11
154.5737418074
 21
36.1675703219
  0
LINE
  8
0
 62
7
  6
CONTINUOUS
 10
154.245872955
 20
36.1675703219
 11
152.852430332
 21
36.1675703219
  0
LINE
  8
0
 62
7
  6
CONTINUOUS
 10
150.9671844304
 20
36.1675703219
 11
149.5737418074
 21
36.1675703219
  0
LINE
  8
0
 62
7
  6
CONTINUOUS
 10
150.1518667936
 20
31.4326557675
 11
150.2674918074
 21
31.4649194539
  0
CIRCLE
  8
0
 62
7
  6
CONTINUOUS
 10
160.2704631189
 20
38.5036358957
 40
2.0901639344
  0
ARC
  8
0
 62
7
  6
CONTINUOUS
 10
151.2130860697
 20
34.0364227809
 40
1.6393442623
 50
180.0
 51
270.0
  0
ARC
  8
0
 62
7
  6
CONTINUOUS
 10
157.6065286927
 20
34.5282260596
 40
1.6393442623
 50
0.0
 51
90.0
  0
ARC
  8
0
 62
7
  6
CONTINUOUS
 10
151.6256574183
 20
33.8724883547
 40
1.4754098361
 50
270.0
 51
326.2510114041
  0
ARC
  8
0
 62
7
  6
CONTINUOUS
 10
157.1939573441
 20
34.6921604858
 40
1.4754098361
 50
90.0
 51
146.2510114041
  0
ARC
  8
0
 62
7
  6
CONTINUOUS
 10
152.0327582009
 20
34.3642916334
 40
0.8196721311
 50
270.0
 51
360.0
  0
ARC
  8
0
 62
7
  6
CONTINUOUS
 10
156.7868565615
 20
34.2003572071
 40
0.8196721311
 50
90.0
 51
180.0
  0
ARC
  8
0
 62
7
  6
CONTINUOUS
 10
151.3770204959
 20
33.9544555678
 40
0.4098360656
 50
180.0
 51
270.0
  0
ARC
  8
0
 62
7
  6
CONTINUOUS
 10
157.4425942664
 20
34.6101932727
 40
0.4098360656
 50
0.0
 51
90.0
  0
SOLID
  8
0
 62
7
  6
CONTINUOUS
 10
156.279992028
 20
31.9488752009
 11
156.279992028
 21
32.1101936845
 12
156.5690540869
 22
31.9488752009
 13
156.5690540869
 23
32.1101936845
  0
SOLID
  8
0
 62
7
  6
CONTINUOUS
 10
150.5565542799
 20
31.6262382337
 11
150.9612418074
 21
31.5939740028
 12
150.2096793212
 22
31.5939740028
 13
150.2096793212
 23
31.5939740028
  0
SOLID
  8
0
 62
7
  6
CONTINUOUS
 10
150.0362418212
 20
31.5617111435
 11
150.2096793212
 21
31.5939740028
 12
150.9612418074
 22
31.5939740028
 13
150.9612418074
 23
31.5939740028
  0
SOLID
  8
0
 62
7
  6
CONTINUOUS
 10
150.9612418074
 20
31.5939740028
 11
151.1924917523
 21
31.5294468402
 12
150.0362418212
 22
31.5617111435
 13
150.0362418212
 23
31.5617111435
  0
SOLID
  8
0
 62
7
  6
CONTINUOUS
 10
149.8628043005
 20
31.49718259
 11
150.0362418212
 21
31.5617111435
 12
151.1924917523
 22
31.5294468402
 13
151.1924917523
 23
31.5294468402
  0
SOLID
  8
0
 62
7
  6
CONTINUOUS
 10
149.8628043005
 20
31.49718259
 11
151.1924917523
 21
31.5294468402
 12
150.498741835
 22
31.49718259
 13
150.498741835
 23
31.49718259
  0
SOLID
  8
0
 62
7
  6
CONTINUOUS
 10
150.498741835
 20
31.49718259
 11
151.1924917523
 21
31.5294468402
 12
150.9034292799
 22
31.4649197501
 13
150.9034292799
 23
31.4649197501
  0
SOLID
  8
0
 62
7
  6
CONTINUOUS
 10
151.1924917523
 20
31.5294468402
 11
151.3659292523
 21
31.4326554468
 12
150.9034292799
 22
31.4649197501
 13
150.9034292799
 23
31.4649197501
  0
SOLID
  8
0
 62
7
  6
CONTINUOUS
 10
151.0768668626
 20
31.4003926599
 11
150.9034292799
 21
31.4649197501
 12
151.3659292523
 22
31.4326554468
 13
151.3659292523
 23
31.4326554468
  0
SOLID
  8
0
 62
7
  6
CONTINUOUS
 10
151.0768668626
 20
31.4003926599
 11
151.3659292523
 21
31.4326554468
 12
151.1346793074
 22
31.3036013776
 13
151.1346793074
 23
31.3036013776
  0
SOLID
  8
0
 62
7
  6
CONTINUOUS
 10
151.3659292523
 20
31.4326554468
 11
151.4237418626
 21
31.3036013776
 12
151.1346793074
 22
31.3036013776
 13
151.1346793074
 23
31.3036013776
  0
SOLID
  8
0
 62
7
  6
CONTINUOUS
 10
152.4643666972
 20
31.5939739754
 11
152.6956168074
 21
31.6262382787
 12
152.9268669177
 22
31.6262382787
 13
152.9268669177
 23
31.6262382787
  0
SOLID
  8
0
 62
7
  6
CONTINUOUS
 10
152.9268669177
 20
31.6262382787
 11
153.1003044177
 21
31.5939739754
 12
152.4643666972
 22
31.5939739754
 13
152.4643666972
 23
31.5939739754
  0
SOLID
  8
0
 62
7
  6
CONTINUOUS
 10
152.2909293626
 20
31.5294468852
 11
152.4643666972
 21
31.5939739754
 12
153.1003044177
 22
31.5939739754
 13
153.1003044177
 23
31.5939739754
  0
SOLID
  8
0
 62
7
  6
CONTINUOUS
 10
153.1003044177
 20
31.5939739754
 11
153.2737419177
 21
31.5294468852
 12
152.2909293626
 22
31.5294468852
 13
152.2909293626
 23
31.5294468852
  0
SOLID
  8
0
 62
7
  6
CONTINUOUS
 10
153.2737419177
 20
31.5294468852
 11
152.6956168074
 21
31.4971825369
 12
152.2909293626
 22
31.5294468852
 13
152.2909293626
 23
31.5294468852
  0
SOLID
  8
0
 62
7
  6
CONTINUOUS
 10
152.1753043074
 20
31.4649197951
 11
152.2909293626
 21
31.5294468852
 12
152.6956168074
 22
31.4971825369
 13
152.6956168074
 23
31.4971825369
  0
SOLID
  8
0
 62
7
  6
CONTINUOUS
 10
152.6956168074
 20
31.4971825369
 11
152.4643666972
 21
31.4649197951
 12
152.1753043074
 22
31.4649197951
 13
152.1753043074
 23
31.4649197951
  0
SOLID
  8
0
 62
7
  6
CONTINUOUS
 10
152.6956168074
 20
31.4971825369
 11
153.2737419177
 21
31.5294468852
 12
152.9268669177
 22
31.4649197951
 13
152.9268669177
 23
31.4649197951
  0
SOLID
  8
0
 62
7
  6
CONTINUOUS
 10
153.2737419177
 20
31.5294468852
 11
153.3893668074
 21
31.4649197951
 12
152.9268669177
 22
31.4649197951
 13
152.9268669177
 23
31.4649197951
  0
SOLID
  8
0
 62
7
  6
CONTINUOUS
 10
153.0424918074
 20
31.4326554468
 11
152.9268669177
 21
31.4649197951
 12
153.3893668074
 22
31.4649197951
 13
153.3893668074
 23
31.4649197951
  0
SOLID
  8
0
 62
7
  6
CONTINUOUS
 10
153.3893668074
 20
31.4649197951
 11
153.4471794177
 21
31.4003927049
 12
153.0424918074
 22
31.4326554468
 13
153.0424918074
 23
31.4326554468
  0
SOLID
  8
0
 62
7
  6
CONTINUOUS
 10
153.1581166972
 20
31.3681283566
 11
153.0424918074
 21
31.4326554468
 12
153.4471794177
 22
31.4003927049
 13
153.4471794177
 23
31.4003927049
  0
SOLID
  8
0
 62
7
  6
CONTINUOUS
 10
153.1581166972
 20
31.3681283566
 11
153.4471794177
 21
31.4003927049
 12
153.2159293074
 22
31.2390742213
 13
153.2159293074
 23
31.2390742213
  0
SOLID
  8
0
 62
7
  6
CONTINUOUS
 10
153.4471794177
 20
31.4003927049
 11
153.5049916972
 21
31.2390742213
 12
153.2159293074
 22
31.2390742213
 13
153.2159293074
 23
31.2390742213
  0
SOLID
  8
0
 62
7
  6
CONTINUOUS
 10
152.4643666972
 20
31.4649197951
 11
152.2909293626
 21
31.4003927049
 12
152.1753043074
 22
31.4649197951
 13
152.1753043074
 23
31.4649197951
  0
SOLID
  8
0
 62
7
  6
CONTINUOUS
 10
152.2909293626
 20
31.4003927049
 11
152.1753043074
 21
31.3358640533
 12
152.1753043074
 22
31.4649197951
 13
152.1753043074
 23
31.4649197951
  0
SOLID
  8
0
 62
7
  6
CONTINUOUS
 10
152.1753043074
 20
31.3358640533
 11
151.8862417523
 21
30.5938002869
 12
152.1753043074
 22
31.4649197951
 13
152.1753043074
 23
31.4649197951
  0
SOLID
  8
0
 62
7
  6
CONTINUOUS
 10
152.1753043074
 20
31.4649197951
 11
151.8862417523
 21
30.5938002869
 12
152.1753043074
 22
32.1101937295
 13
152.1753043074
 23
32.1101937295
  0
SOLID
  8
0
 62
7
  6
CONTINUOUS
 10
151.8862417523
 20
30.5938002869
 11
151.8862417523
 21
32.1101937295
 12
152.1753043074
 22
32.1101937295
 13
152.1753043074
 23
32.1101937295
  0
SOLID
  8
0
 62
7
  6
CONTINUOUS
 10
152.1753043074
 20
31.3358640533
 11
152.1753043074
 21
30.5938002869
 12
151.8862417523
 22
30.5938002869
 13
151.8862417523
 23
30.5938002869
  0
SOLID
  8
0
 62
7
  6
CONTINUOUS
 10
153.2159293074
 20
30.5938002869
 11
153.2159293074
 21
31.2390742213
 12
153.5049916972
 22
31.2390742213
 13
153.5049916972
 23
31.2390742213
  0
SOLID
  8
0
 62
7
  6
CONTINUOUS
 10
153.5049916972
 20
31.2390742213
 11
153.5049916972
 21
30.5938002869
 12
153.2159293074
 22
30.5938002869
 13
153.2159293074
 23
30.5938002869
  0
SOLID
  8
0
 62
7
  6
CONTINUOUS
 10
154.2565543074
 20
31.5939738288
 11
154.6612419177
 21
31.6262385959
 12
155.0081169177
 22
31.6262385959
 13
155.0081169177
 23
31.6262385959
  0
SOLID
  8
0
 62
7
  6
CONTINUOUS
 10
155.0081169177
 20
31.6262385959
 11
155.3549915869
 21
31.5939738288
 12
154.2565543074
 22
31.5939738288
 13
154.2565543074
 23
31.5939738288
  0
SOLID
  8
0
 62
7
  6
CONTINUOUS
 10
154.1409294177
 20
31.5617111435
 11
154.2565543074
 21
31.5939738288
 12
155.3549915869
 22
31.5939738288
 13
155.3549915869
 23
31.5939738288
  0
SOLID
  8
0
 62
7
  6
CONTINUOUS
 10
155.3549915869
 20
31.5939738288
 11
155.5284290869
 21
31.5294468402
 12
154.1409294177
 22
31.5617111435
 13
154.1409294177
 23
31.5617111435
  0
SOLID
  8
0
 62
7
  6
CONTINUOUS
 10
154.0253041972
 20
31.4971826249
 11
154.1409294177
 21
31.5617111435
 12
155.5284290869
 22
31.5294468402
 13
155.5284290869
 23
31.5294468402
  0
SOLID
  8
0
 62
7
  6
CONTINUOUS
 10
154.0253041972
 20
31.4971826249
 11
155.5284290869
 21
31.5294468402
 12
154.6612419177
 22
31.4971826249
 13
154.6612419177
 23
31.4971826249
  0
SOLID
  8
0
 62
7
  6
CONTINUOUS
 10
154.6612419177
 20
31.4971826249
 11
155.5284290869
 21
31.5294468402
 12
155.0081169177
 22
31.4971826249
 13
155.0081169177
 23
31.4971826249
  0
SOLID
  8
0
 62
7
  6
CONTINUOUS
 10
155.0081169177
 20
31.4971826249
 11
155.5284290869
 21
31.5294468402
 12
155.239367028
 22
31.4649194065
 13
155.239367028
 23
31.4649194065
  0
SOLID
  8
0
 62
7
  6
CONTINUOUS
 10
155.5284290869
 20
31.5294468402
 11
155.6440543074
 21
31.4649194065
 12
155.239367028
 22
31.4649194065
 13
155.239367028
 23
31.4649194065
  0
SOLID
  8
0
 62
7
  6
CONTINUOUS
 10
153.9674919177
 20
31.4326554138
 11
154.0253041972
 21
31.4971826249
 12
154.6612419177
 22
31.4971826249
 13
154.6612419177
 23
31.4971826249
  0
SOLID
  8
0
 62
7
  6
CONTINUOUS
 10
155.3549915869
 20
31.4326554138
 11
155.239367028
 21
31.4649194065
 12
155.6440543074
 22
31.4649194065
 13
155.6440543074
 23
31.4649194065
  0
SOLID
  8
0
 62
7
  6
CONTINUOUS
 10
155.3549915869
 20
31.4326554138
 11
155.6440543074
 21
31.4649194065
 12
155.412804528
 22
31.3681282026
 13
155.412804528
 23
31.3681282026
  0
SOLID
  8
0
 62
7
  6
CONTINUOUS
 10
155.6440543074
 20
31.4649194065
 11
155.7018665869
 21
31.3681282026
 12
155.412804528
 22
31.3681282026
 13
155.412804528
 23
31.3681282026
  0
SOLID
  8
0
 62
7
  6
CONTINUOUS
 10
155.412804528
 20
31.2713369632
 11
155.412804528
 21
31.3681282026
 12
155.7018665869
 22
31.3681282026
 13
155.7018665869
 23
31.3681282026
  0
SOLID
  8
0
 62
7
  6
CONTINUOUS
 10
155.412804528
 20
31.2713369632
 11
155.7018665869
 21
31.3681282026
 12
155.412804528
 22
31.1422827828
 13
155.412804528
 23
31.1422827828
  0
SOLID
  8
0
 62
7
  6
CONTINUOUS
 10
155.412804528
 20
31.1422827828
 11
155.7018665869
 21
31.3681282026
 12
155.412804528
 22
30.9487004259
 13
155.412804528
 23
30.9487004259
  0
SOLID
  8
0
 62
7
  6
CONTINUOUS
 10
155.7018665869
 20
31.3681282026
 11
155.7018665869
 21
30.8519086025
 12
155.412804528
 22
30.9487004259
 13
155.412804528
 23
30.9487004259
  0
SOLID
  8
0
 62
7
  6
CONTINUOUS
 10
157.6096790869
 20
31.5939736268
 11
157.840929528
 21
31.6262383465
 12
158.0721793074
 22
31.6262383465
 13
158.0721793074
 23
31.6262383465
  0
SOLID
  8
0
 62
7
  6
CONTINUOUS
 10
158.0721793074
 20
31.6262383465
 11
158.2456168074
 21
31.5939736268
 12
157.6096790869
 22
31.5939736268
 13
157.6096790869
 23
31.5939736268
  0
SOLID
  8
0
 62
7
  6
CONTINUOUS
 10
157.4362415869
 20
31.5294472848
 11
157.6096790869
 21
31.5939736268
 12
158.2456168074
 22
31.5939736268
 13
158.2456168074
 23
31.5939736268
  0
SOLID
  8
0
 62
7
  6
CONTINUOUS
 10
158.2456168074
 20
31.5939736268
 11
158.4190543074
 21
31.5294472848
 12
157.4362415869
 22
31.5294472848
 13
157.4362415869
 23
31.5294472848
  0
SOLID
  8
0
 62
7
  6
CONTINUOUS
 10
158.4190543074
 20
31.5294472848
 11
157.840929528
 21
31.4971825369
 12
157.4362415869
 22
31.5294472848
 13
157.4362415869
 23
31.5294472848
  0
SOLID
  8
0
 62
7
  6
CONTINUOUS
 10
157.320617028
 20
31.4649199103
 11
157.4362415869
 21
31.5294472848
 12
157.840929528
 22
31.4971825369
 13
157.840929528
 23
31.4971825369
  0
SOLID
  8
0
 62
7
  6
CONTINUOUS
 10
157.840929528
 20
31.4971825369
 11
157.6096790869
 21
31.4649199103
 12
157.320617028
 22
31.4649199103
 13
157.320617028
 23
31.4649199103
  0
SOLID
  8
0
 62
7
  6
CONTINUOUS
 10
157.840929528
 20
31.4971825369
 11
158.4190543074
 21
31.5294472848
 12
158.0721793074
 22
31.4649199103
 13
158.0721793074
 23
31.4649199103
  0
SOLID
  8
0
 62
7
  6
CONTINUOUS
 10
158.4190543074
 20
31.5294472848
 11
158.534679528
 21
31.4649199103
 12
158.0721793074
 22
31.4649199103
 13
158.0721793074
 23
31.4649199103
  0
SOLID
  8
0
 62
7
  6
CONTINUOUS
 10
158.187804528
 20
31.4326554468
 11
158.0721793074
 21
31.4649199103
 12
158.534679528
 22
31.4649199103
 13
158.534679528
 23
31.4649199103
  0
SOLID
  8
0
 62
7
  6
CONTINUOUS
 10
158.187804528
 20
31.4326554468
 11
158.534679528
 21
31.4649199103
 12
158.3034290869
 22
31.3681288486
 13
158.3034290869
 23
31.3681288486
  0
SOLID
  8
0
 62
7
  6
CONTINUOUS
 10
158.534679528
 20
31.4649199103
 11
158.5924918074
 21
31.3681288486
 12
158.3034290869
 22
31.3681288486
 13
158.3034290869
 23
31.3681288486
  0
SOLID
  8
0
 62
7
  6
CONTINUOUS
 10
158.361242028
 20
31.2068093799
 11
158.3034290869
 21
31.3681288486
 12
158.5924918074
 22
31.3681288486
 13
158.5924918074
 23
31.3681288486
  0
SOLID
  8
0
 62
7
  6
CONTINUOUS
 10
158.5924918074
 20
31.3681288486
 11
158.6503040869
 21
31.2068093799
 12
158.361242028
 22
31.2068093799
 13
158.361242028
 23
31.2068093799
  0
SOLID
  8
0
 62
7
  6
CONTINUOUS
 10
157.6096790869
 20
31.4649199103
 11
157.4362415869
 21
31.4003926599
 12
157.320617028
 22
31.4649199103
 13
157.320617028
 23
31.4649199103
  0
SOLID
  8
0
 62
7
  6
CONTINUOUS
 10
157.4362415869
 20
31.4003926599
 11
157.320617028
 21
31.3358640533
 12
157.320617028
 22
31.4649199103
 13
157.320617028
 23
31.4649199103
  0
SOLID
  8
0
 62
7
  6
CONTINUOUS
 10
157.320617028
 20
31.3358640533
 11
157.0315543074
 21
30.5938003547
 12
157.320617028
 22
31.4649199103
 13
157.320617028
 23
31.4649199103
  0
SOLID
  8
0
 62
7
  6
CONTINUOUS
 10
157.320617028
 20
31.4649199103
 11
157.0315543074
 21
30.5938003547
 12
157.320617028
 22
31.6262383465
 13
157.320617028
 23
31.6262383465
  0
SOLID
  8
0
 62
7
  6
CONTINUOUS
 10
157.0315543074
 20
30.5938003547
 11
157.0315543074
 21
31.6262383465
 12
157.320617028
 22
31.6262383465
 13
157.320617028
 23
31.6262383465
  0
SOLID
  8
0
 62
7
  6
CONTINUOUS
 10
157.320617028
 20
31.3358640533
 11
157.320617028
 21
30.5938003547
 12
157.0315543074
 22
30.5938003547
 13
157.0315543074
 23
30.5938003547
  0
SOLID
  8
0
 62
7
  6
CONTINUOUS
 10
158.361242028
 20
30.5938003547
 11
158.361242028
 21
31.2068093799
 12
158.6503040869
 22
31.2068093799
 13
158.6503040869
 23
31.2068093799
  0
SOLID
  8
0
 62
7
  6
CONTINUOUS
 10
158.6503040869
 20
31.2068093799
 11
158.6503040869
 21
30.5938003547
 12
158.361242028
 22
30.5938003547
 13
158.361242028
 23
30.5938003547
  0
SOLID
  8
0
 62
7
  6
CONTINUOUS
 10
159.4596793074
 20
31.5939739474
 11
159.8065543074
 21
31.6262381969
 12
160.1534293074
 22
31.6262381969
 13
160.1534293074
 23
31.6262381969
  0
SOLID
  8
0
 62
7
  6
CONTINUOUS
 10
160.1534293074
 20
31.6262381969
 11
160.5003043074
 21
31.5939739474
 12
159.4596793074
 22
31.5939739474
 13
159.4596793074
 23
31.5939739474
  0
SOLID
  8
0
 62
7
  6
CONTINUOUS
 10
159.228429528
 20
31.5294468402
 11
159.4596793074
 21
31.5939739474
 12
160.5003043074
 22
31.5939739474
 13
160.5003043074
 23
31.5939739474
  0
SOLID
  8
0
 62
7
  6
CONTINUOUS
 10
159.228429528
 20
31.5294468402
 11
160.5003043074
 21
31.5939739304
 12
160.6737418074
 22
31.5617111435
 13
160.6737418074
 23
31.5617111435
  0
SOLID
  8
0
 62
7
  6
CONTINUOUS
 10
159.228429528
 20
31.5294468402
 11
160.6737418074
 21
31.5617111435
 12
159.8065543074
 22
31.4971825592
 13
159.8065543074
 23
31.4971825592
  0
SOLID
  8
0
 62
7
  6
CONTINUOUS
 10
159.8065543074
 20
31.4971825592
 11
160.6737418074
 21
31.5617111435
 12
160.1534293074
 22
31.4971825592
 13
160.1534293074
 23
31.4971825592
  0
SOLID
  8
0
 62
7
  6
CONTINUOUS
 10
160.6737418074
 20
31.5617111435
 11
160.8471793074
 21
31.4971825592
 12
160.1534293074
 22
31.4971825592
 13
160.1534293074
 23
31.4971825592
  0
SOLID
  8
0
 62
7
  6
CONTINUOUS
 10
160.5003043074
 20
31.4649197501
 11
160.1534293074
 21
31.4971825592
 12
160.8471793074
 22
31.4971825592
 13
160.8471793074
 23
31.4971825592
  0
SOLID
  8
0
 62
7
  6
CONTINUOUS
 10
159.1128043074
 20
31.4326555427
 11
159.228429528
 21
31.5294468402
 12
159.8065543074
 22
31.4971825592
 13
159.8065543074
 23
31.4971825592
  0
SOLID
  8
0
 62
7
  6
CONTINUOUS
 10
160.5003043074
 20
31.4649197501
 11
160.8471793074
 21
31.4971825592
 12
160.615929528
 22
31.4326555427
 13
160.615929528
 23
31.4326555427
  0
SOLID
  8
0
 62
7
  6
CONTINUOUS
 10
160.615929528
 20
31.4326555427
 11
160.8471793074
 21
31.4971825592
 12
160.6737418074
 22
31.3681283005
 13
160.6737418074
 23
31.3681283005
  0
SOLID
  8
0
 62
7
  6
CONTINUOUS
 10
160.8471793074
 20
31.4971825592
 11
160.9628038663
 21
31.3681283005
 12
160.6737418074
 22
31.3681283005
 13
160.6737418074
 23
31.3681283005
  0
SOLID
  8
0
 62
7
  6
CONTINUOUS
 10
150.2674918074
 20
31.4649197501
 11
149.7471793074
 21
31.4326554237
 12
150.498741835
 22
31.4971824493
 13
150.498741835
 23
31.4971824493
  0
SOLID
  8
0
 62
7
  6
CONTINUOUS
 10
149.7471793074
 20
31.4326554237
 11
149.8628043005
 21
31.4971824493
 12
150.498741835
 22
31.4971824493
 13
150.498741835
 23
31.4971824493
  0
SOLID
  8
0
 62
7
  6
CONTINUOUS
 10
150.2674918074
 20
31.4649197501
 11
150.1518667936
 21
31.4326554237
 12
149.7471793074
 22
31.4326554237
 13
149.7471793074
 23
31.4326554237
  0
SOLID
  8
0
 62
7
  6
CONTINUOUS
 10
149.6315543091
 20
31.3036012664
 11
149.7471793074
 21
31.4326554237
 12
150.1518667936
 22
31.4326554237
 13
150.1518667936
 23
31.4326554237
  0
SOLID
  8
0
 62
7
  6
CONTINUOUS
 10
153.9674919177
 20
31.4326554237
 11
154.6612419177
 21
31.4971825369
 12
154.4299918074
 22
31.4649197501
 13
154.4299918074
 23
31.4649197501
  0
SOLID
  8
0
 62
7
  6
CONTINUOUS
 10
154.4299918074
 20
31.4649197501
 11
154.3143669177
 21
31.4326554237
 12
153.9674919177
 22
31.4326554237
 13
153.9674919177
 23
31.4326554237
  0
SOLID
  8
0
 62
7
  6
CONTINUOUS
 10
153.9674919177
 20
31.3681283335
 11
153.9674919177
 21
31.4326554237
 12
154.3143669177
 22
31.4326554237
 13
154.3143669177
 23
31.4326554237
  0
SOLID
  8
0
 62
7
  6
CONTINUOUS
 10
154.3143669177
 20
31.4326554237
 11
154.2565543074
 21
31.3681283335
 12
153.9674919177
 22
31.3681283335
 13
153.9674919177
 23
31.3681283335
  0
SOLID
  8
0
 62
7
  6
CONTINUOUS
 10
159.1128043074
 20
31.4326555528
 11
159.8065543074
 21
31.4971825369
 12
159.575304528
 22
31.4649197501
 13
159.575304528
 23
31.4649197501
  0
SOLID
  8
0
 62
7
  6
CONTINUOUS
 10
159.575304528
 20
31.4649197501
 11
159.4596793074
 21
31.4326555528
 12
159.1128043074
 22
31.4326555528
 13
159.1128043074
 23
31.4326555528
  0
SOLID
  8
0
 62
7
  6
CONTINUOUS
 10
159.1128043074
 20
31.3681284626
 11
159.1128043074
 21
31.4326555528
 12
159.4596793074
 22
31.4326555528
 13
159.4596793074
 23
31.4326555528
  0
SOLID
  8
0
 62
7
  6
CONTINUOUS
 10
159.4596793074
 20
31.4326555528
 11
159.401867028
 21
31.3681284626
 12
159.1128043074
 22
31.3681284626
 13
159.1128043074
 23
31.3681284626
  0
SOLID
  8
0
 62
7
  6
CONTINUOUS
 10
159.228429528
 20
31.2390741763
 11
159.1128043074
 21
31.3681284626
 12
159.401867028
 22
31.3681284626
 13
159.401867028
 23
31.3681284626
  0
SOLID
  8
0
 62
7
  6
CONTINUOUS
 10
149.6315543091
 20
31.3036012664
 11
150.1518667936
 21
31.4326554468
 12
149.9784292936
 22
31.3358640533
 13
149.9784292936
 23
31.3358640533
  0
SOLID
  8
0
 62
7
  6
CONTINUOUS
 10
149.9784292936
 20
31.3358640533
 11
149.9206168074
 21
31.2713369632
 12
149.6315543091
 22
31.3036012664
 13
149.6315543091
 23
31.3036012664
  0
SOLID
  8
0
 62
7
  6
CONTINUOUS
 10
149.5737418074
 20
31.1100184796
 11
149.6315543091
 21
31.3036012664
 12
149.9206168074
 22
31.2713369632
 13
149.9206168074
 23
31.2713369632
  0
SOLID
  8
0
 62
7
  6
CONTINUOUS
 10
154.4299918074
 20
31.2390741763
 11
154.7768668074
 21
31.271336924
 12
155.412804528
 22
31.271336924
 13
155.412804528
 23
31.271336924
  0
SOLID
  8
0
 62
7
  6
CONTINUOUS
 10
154.4299918074
 20
31.2390741763
 11
155.412804528
 21
31.271336924
 12
154.1987416972
 22
31.1745462761
 13
154.1987416972
 23
31.1745462761
  0
SOLID
  8
0
 62
7
  6
CONTINUOUS
 10
154.1987416972
 20
31.1745462761
 11
155.412804528
 21
31.271336924
 12
154.7768668074
 22
31.1422827436
 13
154.7768668074
 23
31.1422827436
  0
SOLID
  8
0
 62
7
  6
CONTINUOUS
 10
155.412804528
 20
31.271336924
 11
155.412804528
 21
31.1422827436
 12
154.7768668074
 22
31.1422827436
 13
154.7768668074
 23
31.1422827436
  0
SOLID
  8
0
 62
7
  6
CONTINUOUS
 10
159.228429528
 20
31.2390745501
 11
159.401867028
 21
31.3681283566
 12
159.4596793074
 22
31.3036012664
 13
159.4596793074
 23
31.3036012664
  0
SOLID
  8
0
 62
7
  6
CONTINUOUS
 10
159.4596793074
 20
31.3036012664
 11
159.6331168074
 21
31.2390745501
 12
159.228429528
 22
31.2390745501
 13
159.228429528
 23
31.2390745501
  0
SOLID
  8
0
 62
7
  6
CONTINUOUS
 10
159.4596793074
 20
31.1422827828
 11
159.228429528
 21
31.2390745501
 12
159.6331168074
 22
31.2390745501
 13
159.6331168074
 23
31.2390745501
  0
SOLID
  8
0
 62
7
  6
CONTINUOUS
 10
159.6331168074
 20
31.2390745501
 11
160.615929528
 21
31.0777556927
 12
159.4596793074
 22
31.1422827828
 13
159.4596793074
 23
31.1422827828
  0
SOLID
  8
0
 62
7
  6
CONTINUOUS
 10
160.442492028
 20
30.9809646623
 11
159.4596793074
 21
31.1422827828
 12
160.615929528
 22
31.0777556927
 13
160.615929528
 23
31.0777556927
  0
SOLID
  8
0
 62
7
  6
CONTINUOUS
 10
160.615929528
 20
31.0777556927
 11
160.8471793074
 21
30.9809646623
 12
160.442492028
 22
30.9809646623
 13
160.442492028
 23
30.9809646623
  0
SOLID
  8
0
 62
7
  6
CONTINUOUS
 10
160.615929528
 20
30.9164372091
 11
160.442492028
 21
30.9809646623
 12
160.8471793074
 22
30.9809646623
 13
160.8471793074
 23
30.9809646623
  0
SOLID
  8
0
 62
7
  6
CONTINUOUS
 10
160.615929528
 20
30.9164372091
 11
160.8471793074
 21
30.9809646623
 12
160.6737418074
 22
30.8519089441
 13
160.6737418074
 23
30.8519089441
  0
SOLID
  8
0
 62
7
  6
CONTINUOUS
 10
160.8471793074
 20
30.9809646623
 11
160.9628038663
 21
30.8519089441
 12
160.6737418074
 22
30.8519089441
 13
160.6737418074
 23
30.8519089441
  0
SOLID
  8
0
 62
7
  6
CONTINUOUS
 10
160.615929528
 20
30.7873818593
 11
160.6737418074
 21
30.8519089441
 12
160.9628038663
 22
30.8519089441
 13
160.9628038663
 23
30.8519089441
  0
SOLID
  8
0
 62
7
  6
CONTINUOUS
 10
160.9628038663
 20
30.8519089441
 11
160.9628038663
 21
30.7873818593
 12
160.615929528
 22
30.7873818593
 13
160.615929528
 23
30.7873818593
  0
SOLID
  8
0
 62
7
  6
CONTINUOUS
 10
160.5003043074
 20
30.7551187255
 11
160.615929528
 21
30.7873818593
 12
160.9628038663
 22
30.7873818593
 13
160.9628038663
 23
30.7873818593
  0
SOLID
  8
0
 62
7
  6
CONTINUOUS
 10
160.5003043074
 20
30.7551187255
 11
160.9628038663
 21
30.7873818593
 12
160.269054528
 22
30.7228547745
 13
160.269054528
 23
30.7228547745
  0
SOLID
  8
0
 62
7
  6
CONTINUOUS
 10
160.9628038663
 20
30.7873818593
 11
160.8471793074
 21
30.6905916353
 12
160.269054528
 22
30.7228547745
 13
160.269054528
 23
30.7228547745
  0
SOLID
  8
0
 62
7
  6
CONTINUOUS
 10
160.8471793074
 20
30.6905916353
 11
159.401867028
 21
30.658327332
 12
160.269054528
 22
30.7228547745
 13
160.269054528
 23
30.7228547745
  0
SOLID
  8
0
 62
7
  6
CONTINUOUS
 10
160.269054528
 20
30.7228547745
 11
159.401867028
 21
30.658327332
 12
159.922179528
 22
30.7228547745
 13
159.922179528
 23
30.7228547745
  0
SOLID
  8
0
 62
7
  6
CONTINUOUS
 10
159.401867028
 20
30.658327332
 11
159.228429528
 21
30.7228547745
 12
159.922179528
 22
30.7228547745
 13
159.922179528
 23
30.7228547745
  0
SOLID
  8
0
 62
7
  6
CONTINUOUS
 10
159.401867028
 20
30.658327332
 11
160.8471793074
 21
30.6905916353
 12
159.575304528
 22
30.6260629858
 13
159.575304528
 23
30.6260629858
  0
SOLID
  8
0
 62
7
  6
CONTINUOUS
 10
160.8471793074
 20
30.6905916353
 11
160.615929528
 21
30.6260629858
 12
159.575304528
 22
30.6260629858
 13
159.575304528
 23
30.6260629858
  0
SOLID
  8
0
 62
7
  6
CONTINUOUS
 10
159.922179528
 20
30.5938006049
 11
159.575304528
 21
30.6260629858
 12
160.615929528
 22
30.6260629858
 13
160.615929528
 23
30.6260629858
  0
SOLID
  8
0
 62
7
  6
CONTINUOUS
 10
160.615929528
 20
30.6260629858
 11
160.269054528
 21
30.5938006049
 12
159.922179528
 22
30.5938006049
 13
159.922179528
 23
30.5938006049
  0
SOLID
  8
0
 62
7
  6
CONTINUOUS
 10
149.5737418074
 20
31.1100184796
 11
149.9206168074
 21
31.2713369632
 12
149.8628043005
 22
31.1422827828
 13
149.8628043005
 23
31.1422827828
  0
SOLID
  8
0
 62
7
  6
CONTINUOUS
 10
149.8628043005
 20
31.1422827828
 11
149.8628043005
 21
31.0454914852
 12
149.5737418074
 22
31.1100184796
 13
149.5737418074
 23
31.1100184796
  0
SOLID
  8
0
 62
7
  6
CONTINUOUS
 10
149.6315543091
 20
30.9164372091
 11
149.5737418074
 21
31.1100184796
 12
149.8628043005
 22
31.0454914852
 13
149.8628043005
 23
31.0454914852
  0
SOLID
  8
0
 62
7
  6
CONTINUOUS
 10
149.8628043005
 20
31.0454914852
 11
149.9784292936
 21
30.8841729058
 12
149.6315543091
 22
30.9164372091
 13
149.6315543091
 23
30.9164372091
  0
SOLID
  8
0
 62
7
  6
CONTINUOUS
 10
149.7471793074
 20
30.7873813202
 11
149.6315543091
 21
30.9164372091
 12
149.9784292936
 22
30.8841729058
 13
149.9784292936
 23
30.8841729058
  0
SOLID
  8
0
 62
7
  6
CONTINUOUS
 10
149.9784292936
 20
30.8841729058
 11
150.1518667936
 21
30.7873813202
 12
149.7471793074
 22
30.7873813202
 13
149.7471793074
 23
30.7873813202
  0
SOLID
  8
0
 62
7
  6
CONTINUOUS
 10
149.8628043005
 20
30.7228547004
 11
149.7471793074
 21
30.7873813202
 12
150.1518667936
 22
30.7873813202
 13
150.1518667936
 23
30.7873813202
  0
SOLID
  8
0
 62
7
  6
CONTINUOUS
 10
150.1518667936
 20
30.7873813202
 11
150.498741835
 21
30.7228547004
 12
149.8628043005
 22
30.7228547004
 13
149.8628043005
 23
30.7228547004
  0
SOLID
  8
0
 62
7
  6
CONTINUOUS
 10
150.0362418212
 20
30.658327332
 11
149.8628043005
 21
30.7228547004
 12
150.498741835
 22
30.7228547004
 13
150.498741835
 23
30.7228547004
  0
SOLID
  8
0
 62
7
  6
CONTINUOUS
 10
154.0831168074
 20
31.1100184386
 11
154.1987416972
 21
31.1745462761
 12
154.7768668074
 22
31.1422827828
 13
154.7768668074
 23
31.1422827828
  0
SOLID
  8
0
 62
7
  6
CONTINUOUS
 10
154.7768668074
 20
31.1422827828
 11
154.5456166972
 21
31.1100184386
 12
154.0831168074
 22
31.1100184386
 13
154.0831168074
 23
31.1100184386
  0
SOLID
  8
0
 62
7
  6
CONTINUOUS
 10
153.9674919177
 20
30.9809642992
 11
154.0831168074
 21
31.1100184386
 12
154.5456166972
 22
31.1100184386
 13
154.5456166972
 23
31.1100184386
  0
SOLID
  8
0
 62
7
  6
CONTINUOUS
 10
154.3143669177
 20
31.0132277988
 11
153.9674919177
 21
30.9809642992
 12
154.4299918074
 22
31.0777556927
 13
154.4299918074
 23
31.0777556927
  0
SOLID
  8
0
 62
7
  6
CONTINUOUS
 10
153.9674919177
 20
30.9809642992
 11
154.5456166972
 21
31.1100184796
 12
154.4299918074
 22
31.0777556927
 13
154.4299918074
 23
31.0777556927
  0
SOLID
  8
0
 62
7
  6
CONTINUOUS
 10
154.3143669177
 20
31.0132277988
 11
154.2565543074
 21
30.9164372091
 12
153.9674919177
 22
30.9809642992
 13
153.9674919177
 23
30.9809642992
  0
SOLID
  8
0
 62
7
  6
CONTINUOUS
 10
153.9674919177
 20
30.8841729058
 11
153.9674919177
 21
30.9809642992
 12
154.2565543074
 22
30.9164372091
 13
154.2565543074
 23
30.9164372091
  0
SOLID
  8
0
 62
7
  6
CONTINUOUS
 10
154.2565543074
 20
30.9164372091
 11
154.2565543074
 21
30.8519086025
 12
153.9674919177
 22
30.8841729058
 13
153.9674919177
 23
30.8841729058
  0
SOLID
  8
0
 62
7
  6
CONTINUOUS
 10
154.0253041972
 20
30.7551187255
 11
153.9674919177
 21
30.8841729058
 12
154.2565543074
 22
30.8519086025
 13
154.2565543074
 23
30.8519086025
  0
SOLID
  8
0
 62
7
  6
CONTINUOUS
 10
155.412804528
 20
30.9487004259
 11
155.7018665869
 21
30.8519086025
 12
155.3549915869
 22
30.8841729058
 13
155.3549915869
 23
30.8841729058
  0
SOLID
  8
0
 62
7
  6
CONTINUOUS
 10
155.1815540869
 20
30.7873815123
 11
155.3549915869
 21
30.8841729058
 12
155.7018665869
 22
30.8519086025
 13
155.7018665869
 23
30.8519086025
  0
SOLID
  8
0
 62
7
  6
CONTINUOUS
 10
155.1815540869
 20
30.7873815123
 11
155.7018665869
 21
30.8519086025
 12
155.412804528
 22
30.7551187255
 13
155.412804528
 23
30.7551187255
  0
SOLID
  8
0
 62
7
  6
CONTINUOUS
 10
155.7018665869
 20
30.8519086025
 11
155.759679528
 21
30.6905916353
 12
155.412804528
 22
30.7551187255
 13
155.412804528
 23
30.7551187255
  0
SOLID
  8
0
 62
7
  6
CONTINUOUS
 10
155.4706168074
 20
30.658327332
 11
155.412804528
 21
30.7551187255
 12
155.759679528
 22
30.6905916353
 13
155.759679528
 23
30.6905916353
  0
SOLID
  8
0
 62
7
  6
CONTINUOUS
 10
155.4706168074
 20
30.658327332
 11
155.759679528
 21
30.6905916353
 12
155.5284290869
 22
30.5938002079
 13
155.5284290869
 23
30.5938002079
  0
SOLID
  8
0
 62
7
  6
CONTINUOUS
 10
155.759679528
 20
30.6905916353
 11
155.8174918074
 21
30.5938002079
 12
155.5284290869
 22
30.5938002079
 13
155.5284290869
 23
30.5938002079
  0
SOLID
  8
0
 62
7
  6
CONTINUOUS
 10
151.0768668626
 20
30.8196456577
 11
151.1346793074
 21
30.9164373395
 12
151.4237418626
 22
30.9164373395
 13
151.4237418626
 23
30.9164373395
  0
SOLID
  8
0
 62
7
  6
CONTINUOUS
 10
151.4237418626
 20
30.9164373395
 11
151.3659292523
 21
30.7873815123
 12
151.0768668626
 22
30.8196456577
 13
151.0768668626
 23
30.8196456577
  0
SOLID
  8
0
 62
7
  6
CONTINUOUS
 10
150.9034292799
 20
30.7551187255
 11
151.0768668626
 21
30.8196456577
 12
151.3659292523
 22
30.7873815123
 13
151.3659292523
 23
30.7873815123
  0
SOLID
  8
0
 62
7
  6
CONTINUOUS
 10
150.9034292799
 20
30.7551187255
 11
151.3659292523
 21
30.7873815123
 12
150.498741835
 22
30.7228544222
 13
150.498741835
 23
30.7228544222
  0
SOLID
  8
0
 62
7
  6
CONTINUOUS
 10
151.3659292523
 20
30.7873815123
 11
151.1924917523
 21
30.6905916353
 12
150.498741835
 22
30.7228544222
 13
150.498741835
 23
30.7228544222
  0
SOLID
  8
0
 62
7
  6
CONTINUOUS
 10
150.0362418212
 20
30.658327332
 11
150.498741835
 21
30.7228544222
 12
151.1924917523
 22
30.6905916353
 13
151.1924917523
 23
30.6905916353
  0
SOLID
  8
0
 62
7
  6
CONTINUOUS
 10
150.0362418212
 20
30.658327332
 11
151.1924917523
 21
30.6905916353
 12
150.2096793212
 22
30.6260631011
 13
150.2096793212
 23
30.6260631011
  0
SOLID
  8
0
 62
7
  6
CONTINUOUS
 10
151.1924917523
 20
30.6905916353
 11
150.9612418074
 21
30.6260631011
 12
150.2096793212
 22
30.6260631011
 13
150.2096793212
 23
30.6260631011
  0
SOLID
  8
0
 62
7
  6
CONTINUOUS
 10
150.5565542799
 20
30.5938002419
 11
150.2096793212
 21
30.6260631011
 12
150.9612418074
 22
30.6260631011
 13
150.9612418074
 23
30.6260631011
  0
SOLID
  8
0
 62
7
  6
CONTINUOUS
 10
154.0253041972
 20
30.7551187255
 11
154.2565543074
 21
30.8519086025
 12
154.3143669177
 22
30.7873815123
 13
154.3143669177
 23
30.7873815123
  0
SOLID
  8
0
 62
7
  6
CONTINUOUS
 10
154.3143669177
 20
30.7873815123
 11
154.5456166972
 21
30.7228544222
 12
154.0253041972
 22
30.7551187255
 13
154.0253041972
 23
30.7551187255
  0
SOLID
  8
0
 62
7
  6
CONTINUOUS
 10
154.1987416972
 20
30.658327332
 11
154.0253041972
 21
30.7551187255
 12
154.5456166972
 22
30.7228544222
 13
154.5456166972
 23
30.7228544222
  0
SOLID
  8
0
 62
7
  6
CONTINUOUS
 10
154.8924916972
 20
30.7228544637
 11
155.1815540869
 21
30.7873815123
 12
155.412804528
 22
30.7551187255
 13
155.412804528
 23
30.7551187255
  0
SOLID
  8
0
 62
7
  6
CONTINUOUS
 10
155.412804528
 20
30.7551187255
 11
155.3549915869
 21
30.6905916353
 12
154.8924916972
 22
30.7228544637
 13
154.8924916972
 23
30.7228544637
  0
SOLID
  8
0
 62
7
  6
CONTINUOUS
 10
155.3549915869
 20
30.6905916353
 11
154.1987416972
 21
30.658327332
 12
154.8924916972
 22
30.7228544637
 13
154.8924916972
 23
30.7228544637
  0
SOLID
  8
0
 62
7
  6
CONTINUOUS
 10
154.1987416972
 20
30.658327332
 11
154.5456166972
 21
30.7228544637
 12
154.8924916972
 22
30.7228544637
 13
154.8924916972
 23
30.7228544637
  0
SOLID
  8
0
 62
7
  6
CONTINUOUS
 10
154.1987416972
 20
30.658327332
 11
155.3549915869
 21
30.6905916353
 12
154.3143669177
 22
30.6260630541
 13
154.3143669177
 23
30.6260630541
  0
SOLID
  8
0
 62
7
  6
CONTINUOUS
 10
155.3549915869
 20
30.6905916353
 11
155.1815540869
 21
30.6260630541
 12
154.3143669177
 22
30.6260630541
 13
154.3143669177
 23
30.6260630541
  0
SOLID
  8
0
 62
7
  6
CONTINUOUS
 10
154.5456166972
 20
30.5938002188
 11
154.3143669177
 21
30.6260630541
 12
155.1815540869
 22
30.6260630541
 13
155.1815540869
 23
30.6260630541
  0
SOLID
  8
0
 62
7
  6
CONTINUOUS
 10
155.1815540869
 20
30.6260630541
 11
154.8924916972
 21
30.5938002188
 12
154.5456166972
 22
30.5938002188
 13
154.5456166972
 23
30.5938002188
  0
SOLID
  8
0
 62
7
  6
CONTINUOUS
 10
159.575304528
 20
30.7551187255
 11
159.228429528
 21
30.7228544637
 12
159.4596793074
 22
30.7873815123
 13
159.4596793074
 23
30.7873815123
  0
SOLID
  8
0
 62
7
  6
CONTINUOUS
 10
159.4596793074
 20
30.7873815123
 11
159.228429528
 21
30.7228544637
 12
159.401867028
 22
30.851908644
 13
159.401867028
 23
30.851908644
  0
SOLID
  8
0
 62
7
  6
CONTINUOUS
 10
159.228429528
 20
30.7228544637
 11
159.1128043074
 21
30.851908644
 12
159.401867028
 22
30.851908644
 13
159.401867028
 23
30.851908644
  0
SOLID
  8
0
 62
7
  6
CONTINUOUS
 10
159.575304528
 20
30.7551187255
 11
159.922179528
 21
30.7228544637
 12
159.228429528
 22
30.7228544637
 13
159.228429528
 23
30.7228544637
  0
SOLID
  8
0
 62
7
  6
CONTINUOUS
 10
156.279992028
 20
30.5938002419
 11
156.279992028
 21
31.6262382337
 12
156.5690540869
 22
30.5938002419
 13
156.5690540869
 23
31.6262382337
  0
ENDBLK
  8
0
  6
BYBLOCK
 62
0
  0
BLOCK
  8
0
 62
2
  6
CONTINUOUS
  2
SYMBOL_3_BL0
 70
64
 10
32.1213064866
 20
19.8534310916
  0
TEXT
  8
0
 62
7
  6
CONTINUOUS
 10
18.3860103289
 20
19.2268451992
  7
TEXTSTYLE_3
 40
2.7338706658
  1
Ammeraal Beltech
 41
1.0
 51
15.0
 72
0
  0
TEXT
  8
0
 62
7
  6
CONTINUOUS
 10
29.1868111546
 20
16.9533085264
  7
TEXTSTYLE_4
 40
1.0935482663
  1
Innovation & Service in Belting
 41
1.0
 72
0
  0
LINE
  8
0
 62
7
  6
CONTINUOUS
 10
12.3614696776
 20
19.9934385078
 11
13.1396216709
 21
23.6543558055
  0
LINE
  8
0
 62
7
  6
CONTINUOUS
 10
23.2347899607
 20
27.3177497171
 11
13.6274394139
 21
24.1961322958
  0
LINE
  8
0
 62
7
  6
CONTINUOUS
 10
12.5867530099
 20
19.3000877048
 11
20.093828271
 21
12.5406867788
  0
LINE
  8
0
 62
7
  6
CONTINUOUS
 10
12.8492874206
 20
20.5352149982
 11
23.6575567857
 21
24.0470345971
  0
LINE
  8
0
 62
7
  6
CONTINUOUS
 10
23.6533516486
 20
13.6972460334
 11
15.2078919798
 21
21.3015720751
  0
LINE
  8
0
 62
7
  6
CONTINUOUS
 10
24.1731743684
 20
26.4728246013
 11
23.1966148312
 21
21.8784731989
  0
LINE
  8
0
 62
7
  6
CONTINUOUS
 10
22.4968128835
 20
18.5861638851
 11
21.810364672
 21
15.3566789607
  0
LINE
  8
0
 62
7
  6
CONTINUOUS
 10
24.8542704669
 20
14.087448211
 11
25.8105020025
 21
18.5861638851
  0
LINE
  8
0
 62
7
  6
CONTINUOUS
 10
26.5103039502
 20
21.8784731989
 11
26.9545457526
 21
23.9684665583
  0
LINE
  8
0
 62
7
  6
CONTINUOUS
 10
20.8069293463
 20
12.3891124661
 11
24.3664527239
 21
13.5456717207
  0
LINE
  8
0
 62
7
  6
CONTINUOUS
 10
23.9478910361
 20
27.1661754044
 11
26.7292624203
 21
24.6618173613
  0
ARC
  8
0
 62
7
  6
CONTINUOUS
 10
13.8527227462
 20
23.5027814928
 40
0.7290321776
 50
108.0
 51
168.0
  0
ARC
  8
0
 62
7
  6
CONTINUOUS
 10
23.4600732931
 20
26.624398914
 40
0.7290321776
 50
348.0
 51
108.0
  0
ARC
  8
0
 62
7
  6
CONTINUOUS
 10
26.2414446773
 20
24.120040871
 40
0.7290321776
 50
348.0
 51
48.0
  0
ARC
  8
0
 62
7
  6
CONTINUOUS
 10
20.581646014
 20
13.0824632691
 40
0.7290321776
 50
228.0
 51
288.0
  0
ARC
  8
0
 62
7
  6
CONTINUOUS
 10
13.0745707529
 20
19.8418641951
 40
0.7290321776
 50
108.0
 51
228.0
  0
ARC
  8
0
 62
7
  6
CONTINUOUS
 10
24.1411693916
 20
14.2390225237
 40
0.7290321776
 50
228.0
 51
348.0
  0
ENDBLK
  8
0
  6
BYBLOCK
 62
0
  0
ENDSEC
  0
SECTION
  2
ENTITIES
  0
TEXT
  8
0
 62
5
  6
CONTINUOUS
 10
96.0
 20
25.636
  7
TEXTSTYLE_2
 40
2.8
  1
Scale :
 41
0.6
 51
0.000019
 72
0
  0
TEXT
  8
0
 62
5
  6
CONTINUOUS
 10
116.0
 20
25.636
  7
TEXTSTYLE_2
 40
2.8
  1
Belt type:
 41
0.6
 51
0.000019
 72
0
  0
INSERT
  8
0
 62
2
  6
CONTINUOUS
  2
SYMBOL_3_BL0
 10
32.1213064866
 20
19.8534310916
  0
INSERT
  8
0
 62
2
  6
CONTINUOUS
  2
SYMBOL_8_BL1
 10
173.5956734183
 20
35.5937998301
  0
LINE
  8
0
 62
2
  6
CONTINUOUS
 10
10.0
 20
30.0
 11
200.0
 21
30.0
  0
LINE
  8
0
 62
2
  6
CONTINUOUS
 10
10.0
 20
30.0
 11
10.0
 21
10.0
  0
LINE
  8
0
 62
2
  6
CONTINUOUS
 10
10.0
 20
10.0
 11
200.0
 21
10.0
  0
LINE
  8
0
 62
2
  6
CONTINUOUS
 10
95.0
 20
30.0
 11
95.0
 21
10.0
  0
LINE
  8
0
 62
2
  6
CONTINUOUS
 10
115.0
 20
30.0
 11
115.0
 21
10.0
  0
LINE
  8
0
 62
2
  6
CONTINUOUS
 10
200.0
 20
30.0
 11
200.0
 21
10.0
  0
TEXT
  8
0
 62
5
  6
CONTINUOUS
 10
13.0
 20
23.303
  7
TEXTSTYLE_5
 40
1.52
  1
                                                                     Ammeraal Beltech Modular A/S
 41
1.0
 72
0
  0
TEXT
  8
0
 62
5
  6
CONTINUOUS
 10
13.0
 20
20.595
  7
TEXTSTYLE_5
 40
1.5
  1
                                                                      Hjulmagervej 21,  7100 Vejle,  DK
 41
1.0
 72
0
  0
TEXT
  8
0
 62
5
  6
CONTINUOUS
 10
13.0
 20
17.881
  7
TEXTSTYLE_5
 40
1.495
  1
                                                                      tel: 
 41
1.0
 72
0
  0
TEXT
  8
0
 62
5
  6
CONTINUOUS
 10
57.9869465649
 20
17.881
  7
TEXTSTYLE_5
 40
1.51
  1
+45 75723100     fax: +45 75723348
 41
1.0
 72
0
  0
TEXT
  8
0
 62
5
  6
CONTINUOUS
 10
13.0
 20
15.177
  7
TEXTSTYLE_5
 40
1.5
  1
                                                                      admin@unichains.dk  www.unichains.com
 41
1.0
 72
0
  0
TEXT
  8
0
 62
5
  6
CONTINUOUS
 10
99.75
 20
13.75
  7
TEXTSTYLE_6
 40
5.0
  1
1:1
 41
0.7
 72
1
 11
105.0
 21
13.75
  0
TEXT
  8
0
 62
5
  6
CONTINUOUS
 10
118.0
 20
13.75
  7
TEXTSTYLE_7
 40
7.5
  1
uni S-MPB Side Guard 2" Right
 41
0.3588362069
 72
0
  0
LINE
  8
0
 62
7
  6
CONTINUOUS
 10
210.0
 20
0.0
 11
0.0
 21
0.0
  0
LINE
  8
0
 62
7
  6
CONTINUOUS
 10
10.0
 20
10.0
 11
200.0
 21
10.0
  0
LINE
  8
0
 62
7
  6
CONTINUOUS
 10
10.0
 20
30.0
 11
200.0
 21
30.0
  0
LINE
  8
0
 62
7
  6
CONTINUOUS
 10
0.0
 20
0.0
 11
0.0
 21
297.0
  0
LINE
  8
0
 62
7
  6
CONTINUOUS
 10
10.0
 20
10.0
 11
10.0
 21
287.0
  0
LINE
  8
0
 62
7
  6
CONTINUOUS
 10
200.0
 20
287.0
 11
200.0
 21
10.0
  0
LINE
  8
0
 62
7
  6
CONTINUOUS
 10
210.0
 20
0.0
 11
210.0
 21
297.0
  0
LINE
  8
0
 62
7
  6
CONTINUOUS
 10
10.0
 20
287.0
 11
200.0
 21
287.0
  0
LINE
  8
0
 62
7
  6
CONTINUOUS
 10
0.0
 20
297.0
 11
210.0
 21
297.0
  0
LINE
  8
0
 62
7
  6
CONTINUOUS
 10
42.4353058935
 20
105.1706421825
 11
42.4353058935
 21
107.1928544382
  0
LINE
  8
0
 62
7
  6
CONTINUOUS
 10
51.3112565848
 20
102.9251811848
 11
51.3112565848
 21
103.4141341161
  0
LINE
  8
0
 62
7
  6
CONTINUOUS
 10
51.3112565848
 20
106.4474524996
 11
51.3112565848
 21
106.978545602
  0
LINE
  8
0
 62
7
  6
CONTINUOUS
 10
55.0112565848
 20
107.610400191
 11
55.0112565848
 21
106.2426509334
  0
LINE
  8
DEFAULT_1
 62
7
  6
CENTER
 10
55.7112565848
 20
100.4251811848
 11
55.7112565848
 21
110.1928726384
  0
LINE
  8
0
 62
7
  6
CONTINUOUS
 10
57.5112565848
 20
107.5165953816
 11
57.5112565848
 21
105.7793528292
  0
LINE
  8
0
 62
7
  6
CONTINUOUS
 10
58.3962565848
 20
105.3885921551
 11
58.3962565848
 21
108.0235684984
  0
LINE
  8
0
 62
7
  6
CONTINUOUS
 10
59.2962565848
 20
107.6106043359
 11
59.2962565848
 21
105.2540862539
  0
LINE
  8
0
 62
7
  6
CONTINUOUS
 10
82.0514478705
 20
98.8016891865
 11
82.0532211674
 21
98.8020443944
  0
POLYLINE
  8
0
 62
7
  6
CONTINUOUS
 66
1
 70
0
  0
VERTEX
  8
0
 62
7
  6
CONTINUOUS
 10
82.3098626499
 20
96.2755728249
  0
VERTEX
  8
0
 62
7
  6
CONTINUOUS
 10
82.725895781
 20
96.3170185859
  0
VERTEX
  8
0
 62
7
  6
CONTINUOUS
 10
83.1305289743
 20
96.3715689417
  0
VERTEX
  8
0
 62
7
  6
CONTINUOUS
 10
83.516301081
 20
96.4389394105
  0
VERTEX
  8
0
 62
7
  6
CONTINUOUS
 10
83.8766747594
 20
96.5185694817
  0
VERTEX
  8
0
 62
7
  6
CONTINUOUS
 10
84.2061014501
 20
96.6096922157
  0
VERTEX
  8
0
 62
7
  6
CONTINUOUS
 10
84.4986296049
 20
96.7108126818
  0
VERTEX
  8
0
 62
7
  6
CONTINUOUS
 10
84.7510032047
 20
96.8204128166
  0
VERTEX
  8
0
 62
7
  6
CONTINUOUS
 10
84.9633779546
 20
96.9376882687
  0
VERTEX
  8
0
 62
7
  6
CONTINUOUS
 10
85.1387731938
 20
97.0633549458
  0
VERTEX
  8
0
 62
7
  6
CONTINUOUS
 10
85.2815307359
 20
97.2005357156
  0
VERTEX
  8
0
 62
7
  6
CONTINUOUS
 10
85.3928163123
 20
97.3524584885
  0
VERTEX
  8
0
 62
7
  6
CONTINUOUS
 10
85.469633795
 20
97.5192185997
  0
VERTEX
  8
0
 62
7
  6
CONTINUOUS
 10
85.5074611168
 20
97.6949211945
  0
VERTEX
  8
0
 62
7
  6
CONTINUOUS
 10
85.5112558517
 20
97.771862135
  0
SEQEND
  0
POLYLINE
  8
0
 62
7
  6
CONTINUOUS
 66
1
 70
0
  0
VERTEX
  8
0
 62
7
  6
CONTINUOUS
 10
81.3082987315
 20
96.1743659082
  0
VERTEX
  8
0
 62
7
  6
CONTINUOUS
 10
81.3455122391
 20
96.1754439589
  0
VERTEX
  8
0
 62
7
  6
CONTINUOUS
 10
81.4170221058
 20
96.1825639964
  0
VERTEX
  8
0
 62
7
  6
CONTINUOUS
 10
81.4888019664
 20
96.1936676323
  0
VERTEX
  8
0
 62
7
  6
CONTINUOUS
 10
81.5547920531
 20
96.205020193
  0
VERTEX
  8
0
 62
7
  6
CONTINUOUS
 10
81.6219657287
 20
96.2162244283
  0
VERTEX
  8
0
 62
7
  6
CONTINUOUS
 10
81.6935258689
 20
96.2268828811
  0
VERTEX
  8
0
 62
7
  6
CONTINUOUS
 10
81.7720837558
 20
96.2365884645
  0
VERTEX
  8
0
 62
7
  6
CONTINUOUS
 10
81.858684359
 20
96.2446772345
  0
VERTEX
  8
0
 62
7
  6
CONTINUOUS
 10
82.3098626499
 20
96.2755728249
  0
SEQEND
  0
LINE
  8
0
 62
7
  6
CONTINUOUS
 10
79.8112571421
 20
96.1742306452
 11
81.3082976177
 21
96.1743652719
  0
LINE
  8
0
 62
7
  6
CONTINUOUS
 10
78.9262565848
 20
96.2267938712
 11
79.1070148911
 21
96.2267938712
  0
POLYLINE
  8
0
 62
7
  6
CONTINUOUS
 66
1
 70
0
  0
VERTEX
  8
0
 62
7
  6
CONTINUOUS
 10
79.1070148796
 20
96.2267947787
  0
VERTEX
  8
0
 62
7
  6
CONTINUOUS
 10
79.1747891533
 20
96.2260339277
  0
VERTEX
  8
0
 62
7
  6
CONTINUOUS
 10
79.2748623547
 20
96.2222545488
  0
VERTEX
  8
0
 62
7
  6
CONTINUOUS
 10
79.3678832575
 20
96.2160974036
  0
VERTEX
  8
0
 62
7
  6
CONTINUOUS
 10
79.4539962115
 20
96.2083590406
  0
VERTEX
  8
0
 62
7
  6
CONTINUOUS
 10
79.5344997714
 20
96.199692572
  0
VERTEX
  8
0
 62
7
  6
CONTINUOUS
 10
79.6877389735
 20
96.1820428076
  0
SEQEND
  0
LINE
  8
0
 62
7
  6
CONTINUOUS
 10
82.070614816
 20
98.8049457656
 11
82.0578983736
 21
98.8029281384
  0
POLYLINE
  8
0
 62
7
  6
CONTINUOUS
 66
1
 70
0
  0
VERTEX
  8
0
 62
7
  6
CONTINUOUS
 10
78.9262565848
 20
96.2267938712
  0
VERTEX
  8
0
 62
7
  6
CONTINUOUS
 10
78.8795172809
 20
96.228983227
  0
VERTEX
  8
0
 62
7
  6
CONTINUOUS
 10
78.7916951288
 20
96.2452409514
  0
VERTEX
  8
0
 62
7
  6
CONTINUOUS
 10
78.7056840845
 20
96.2780759508
  0
VERTEX
  8
0
 62
7
  6
CONTINUOUS
 10
78.6274198479
 20
96.3259240611
  0
VERTEX
  8
0
 62
7
  6
CONTINUOUS
 10
78.5569272632
 20
96.3897540335
  0
VERTEX
  8
0
 62
7
  6
CONTINUOUS
 10
78.4998775963
 20
96.4656407395
  0
VERTEX
  8
0
 62
7
  6
CONTINUOUS
 10
78.4587395851
 20
96.5495148397
  0
VERTEX
  8
0
 62
7
  6
CONTINUOUS
 10
78.4342601711
 20
96.6376898373
  0
VERTEX
  8
0
 62
7
  6
CONTINUOUS
 10
78.4262565848
 20
96.7267938712
  0
SEQEND
  0
POLYLINE
  8
0
 62
7
  6
CONTINUOUS
 66
1
 70
0
  0
VERTEX
  8
0
 62
7
  6
CONTINUOUS
 10
79.6877389735
 20
96.1820428076
  0
VERTEX
  8
0
 62
7
  6
CONTINUOUS
 10
79.7643813883
 20
96.1756048964
  0
VERTEX
  8
0
 62
7
  6
CONTINUOUS
 10
79.8112571196
 20
96.1742320473
  0
SEQEND
  0
LINE
  8
0
 62
7
  6
CONTINUOUS
 10
77.8827211217
 20
96.660803369
 11
78.4263875273
 21
96.4978747767
  0
POLYLINE
  8
0
 62
7
  6
CONTINUOUS
 66
1
 70
0
  0
VERTEX
  8
0
 62
7
  6
CONTINUOUS
 10
78.4264135583
 20
96.4978671969
  0
VERTEX
  8
0
 62
7
  6
CONTINUOUS
 10
78.4681815105
 20
96.4844739886
  0
VERTEX
  8
0
 62
7
  6
CONTINUOUS
 10
78.4957425335
 20
96.4740714988
  0
SEQEND
  0
POLYLINE
  8
0
 62
7
  6
CONTINUOUS
 66
1
 70
0
  0
VERTEX
  8
0
 62
7
  6
CONTINUOUS
 10
77.8827041815
 20
96.6608084463
  0
VERTEX
  8
0
 62
7
  6
CONTINUOUS
 10
77.8071123274
 20
96.6903408618
  0
VERTEX
  8
0
 62
7
  6
CONTINUOUS
 10
77.7275870452
 20
96.7387636371
  0
VERTEX
  8
0
 62
7
  6
CONTINUOUS
 10
77.6583509238
 20
96.801164731
  0
VERTEX
  8
0
 62
7
  6
CONTINUOUS
 10
77.6019070502
 20
96.8753200023
  0
VERTEX
  8
0
 62
7
  6
CONTINUOUS
 10
77.5602570987
 20
96.9585275754
  0
VERTEX
  8
0
 62
7
  6
CONTINUOUS
 10
77.5347959548
 20
97.0477447238
  0
VERTEX
  8
0
 62
7
  6
CONTINUOUS
 10
77.5262565848
 20
97.1397580337
  0
SEQEND
  0
LINE
  8
DEFAULT_1
 62
7
  6
CENTER
 10
68.4112565848
 20
106.7751811848
 11
68.4112565848
 21
104.3752811848
  0
LINE
  8
0
 62
2
  6
CONTINUOUS
 10
68.4112565848
 20
103.2551811848
 11
68.4112565848
 21
101.4951811848
  0
LINE
  8
DEFAULT_1
 62
7
  6
CENTER
 10
68.4112565848
 20
97.9751811848
 11
68.4112565848
 21
100.3750811848
  0
LINE
  8
0
 62
7
  6
CONTINUOUS
 10
85.0112431352
 20
102.3251811848
 11
78.8940180093
 21
102.3251811848
  0
LINE
  8
DEFAULT_1
 62
7
  6
CENTER
 10
72.8112565848
 20
102.3751811848
 11
70.4113565848
 21
102.3751811848
  0
LINE
  8
0
 62
2
  6
CONTINUOUS
 10
69.2912565848
 20
102.3751811848
 11
67.5312565848
 21
102.3751811848
  0
LINE
  8
DEFAULT_1
 62
7
  6
CENTER
 10
64.0112565848
 20
102.3751811848
 11
66.4111565848
 21
102.3751811848
  0
LINE
  8
0
 62
7
  6
CONTINUOUS
 10
51.8112700344
 20
102.4251811848
 11
57.9284951603
 21
102.4251811848
  0
LINE
  8
0
 62
7
  6
CONTINUOUS
 10
42.8614113553
 20
104.6769719468
 11
93.813292415
 21
97.0621623018
  0
LINE
  8
0
 62
7
  6
CONTINUOUS
 10
93.9611018262
 20
100.0733904209
 11
43.0092207664
 21
107.6882000659
  0
POLYLINE
  8
0
 62
7
  6
CONTINUOUS
 66
1
 70
0
  0
VERTEX
  8
0
 62
7
  6
CONTINUOUS
 10
58.9398089881
 20
108.0895539232
  0
VERTEX
  8
0
 62
7
  6
CONTINUOUS
 10
59.0154008422
 20
108.0600215078
  0
VERTEX
  8
0
 62
7
  6
CONTINUOUS
 10
59.0949261244
 20
108.0115987325
  0
VERTEX
  8
0
 62
7
  6
CONTINUOUS
 10
59.1641622458
 20
107.9491976385
  0
VERTEX
  8
0
 62
7
  6
CONTINUOUS
 10
59.2206061194
 20
107.8750423673
  0
VERTEX
  8
0
 62
7
  6
CONTINUOUS
 10
59.2622560708
 20
107.7918347941
  0
VERTEX
  8
0
 62
7
  6
CONTINUOUS
 10
59.2877172148
 20
107.7026176458
  0
VERTEX
  8
0
 62
7
  6
CONTINUOUS
 10
59.2962565848
 20
107.6106043359
  0
SEQEND
  0
LINE
  8
0
 62
7
  6
CONTINUOUS
 10
58.9397920479
 20
108.0895590005
 11
58.3961256416
 21
108.2524875931
  0
POLYLINE
  8
0
 62
7
  6
CONTINUOUS
 66
1
 70
0
  0
VERTEX
  8
0
 62
7
  6
CONTINUOUS
 10
58.3960993552
 20
108.2524952142
  0
VERTEX
  8
0
 62
7
  6
CONTINUOUS
 10
58.3543307966
 20
108.2658887054
  0
VERTEX
  8
0
 62
7
  6
CONTINUOUS
 10
58.3267706045
 20
108.2762909351
  0
SEQEND
  0
LINE
  8
0
 62
7
  6
CONTINUOUS
 10
54.7710644848
 20
105.9486730174
 11
54.7693716907
 21
105.948333699
  0
LINE
  8
0
 62
7
  6
CONTINUOUS
 10
54.7518983536
 20
105.9454166039
 11
54.7643974365
 21
105.9473950277
  0
LINE
  8
0
 62
7
  6
CONTINUOUS
 10
57.8962565848
 20
108.5235684984
 11
57.7154982785
 21
108.5235684984
  0
LINE
  8
0
 62
7
  6
CONTINUOUS
 10
57.0112560274
 20
108.5761317244
 11
55.5142155534
 21
108.5759970977
  0
POLYLINE
  8
0
 62
7
  6
CONTINUOUS
 66
1
 70
0
  0
VERTEX
  8
0
 62
7
  6
CONTINUOUS
 10
57.71549829
 20
108.5235675909
  0
VERTEX
  8
0
 62
7
  6
CONTINUOUS
 10
57.6477240163
 20
108.5243284418
  0
VERTEX
  8
0
 62
7
  6
CONTINUOUS
 10
57.5476508149
 20
108.5281078207
  0
VERTEX
  8
0
 62
7
  6
CONTINUOUS
 10
57.4546299121
 20
108.534264966
  0
VERTEX
  8
0
 62
7
  6
CONTINUOUS
 10
57.3685169581
 20
108.542003329
  0
VERTEX
  8
0
 62
7
  6
CONTINUOUS
 10
57.2880133982
 20
108.5506697976
  0
VERTEX
  8
0
 62
7
  6
CONTINUOUS
 10
57.1347741961
 20
108.5683195619
  0
SEQEND
  0
POLYLINE
  8
0
 62
7
  6
CONTINUOUS
 66
1
 70
0
  0
VERTEX
  8
0
 62
7
  6
CONTINUOUS
 10
57.8962565848
 20
108.5235684984
  0
VERTEX
  8
0
 62
7
  6
CONTINUOUS
 10
57.9429958887
 20
108.5213791425
  0
VERTEX
  8
0
 62
7
  6
CONTINUOUS
 10
58.0308180408
 20
108.5051214182
  0
VERTEX
  8
0
 62
7
  6
CONTINUOUS
 10
58.1168290851
 20
108.4722864188
  0
VERTEX
  8
0
 62
7
  6
CONTINUOUS
 10
58.1950933217
 20
108.4244383085
  0
VERTEX
  8
0
 62
7
  6
CONTINUOUS
 10
58.2655859064
 20
108.3606083361
  0
VERTEX
  8
0
 62
7
  6
CONTINUOUS
 10
58.3226355733
 20
108.28472163
  0
VERTEX
  8
0
 62
7
  6
CONTINUOUS
 10
58.3637735845
 20
108.2008475298
  0
VERTEX
  8
0
 62
7
  6
CONTINUOUS
 10
58.3882529985
 20
108.1126725323
  0
VERTEX
  8
0
 62
7
  6
CONTINUOUS
 10
58.3962565848
 20
108.0235684984
  0
SEQEND
  0
POLYLINE
  8
0
 62
7
  6
CONTINUOUS
 66
1
 70
0
  0
VERTEX
  8
0
 62
7
  6
CONTINUOUS
 10
57.1347741961
 20
108.5683195619
  0
VERTEX
  8
0
 62
7
  6
CONTINUOUS
 10
57.0581317813
 20
108.5747574731
  0
VERTEX
  8
0
 62
7
  6
CONTINUOUS
 10
57.01125605
 20
108.5761303222
  0
SEQEND
  0
POLYLINE
  8
0
 62
7
  6
CONTINUOUS
 66
1
 70
0
  0
VERTEX
  8
0
 62
7
  6
CONTINUOUS
 10
54.5126412847
 20
108.4747887688
  0
VERTEX
  8
0
 62
7
  6
CONTINUOUS
 10
54.0966053156
 20
108.4333423724
  0
VERTEX
  8
0
 62
7
  6
CONTINUOUS
 10
53.6919734324
 20
108.3787917701
  0
VERTEX
  8
0
 62
7
  6
CONTINUOUS
 10
53.3062044764
 20
108.3114214646
  0
VERTEX
  8
0
 62
7
  6
CONTINUOUS
 10
52.9458338403
 20
108.2317917637
  0
VERTEX
  8
0
 62
7
  6
CONTINUOUS
 10
52.6164088757
 20
108.1406692827
  0
VERTEX
  8
0
 62
7
  6
CONTINUOUS
 10
52.3238814833
 20
108.0395488912
  0
VERTEX
  8
0
 62
7
  6
CONTINUOUS
 10
52.0715082691
 20
107.9299487326
  0
VERTEX
  8
0
 62
7
  6
CONTINUOUS
 10
51.8591340054
 20
107.8126733422
  0
VERTEX
  8
0
 62
7
  6
CONTINUOUS
 10
51.6837391169
 20
107.6870066978
  0
VERTEX
  8
0
 62
7
  6
CONTINUOUS
 10
51.5409818186
 20
107.5498259478
  0
VERTEX
  8
0
 62
7
  6
CONTINUOUS
 10
51.4296965534
 20
107.3979034009
  0
VERTEX
  8
0
 62
7
  6
CONTINUOUS
 10
51.3528793809
 20
107.2311437424
  0
VERTEX
  8
0
 62
7
  6
CONTINUOUS
 10
51.3150520219
 20
107.0554408935
  0
VERTEX
  8
0
 62
7
  6
CONTINUOUS
 10
51.3112573354
 20
106.9785003598
  0
SEQEND
  0
POLYLINE
  8
0
 62
7
  6
CONTINUOUS
 66
1
 70
0
  0
VERTEX
  8
0
 62
7
  6
CONTINUOUS
 10
55.5142144397
 20
108.5759964614
  0
VERTEX
  8
0
 62
7
  6
CONTINUOUS
 10
55.4770009328
 20
108.5749184108
  0
VERTEX
  8
0
 62
7
  6
CONTINUOUS
 10
55.4054910658
 20
108.5677983735
  0
VERTEX
  8
0
 62
7
  6
CONTINUOUS
 10
55.3337112047
 20
108.5566947376
  0
VERTEX
  8
0
 62
7
  6
CONTINUOUS
 10
55.2677211176
 20
108.5453421768
  0
VERTEX
  8
0
 62
7
  6
CONTINUOUS
 10
55.2005474419
 20
108.5341379414
  0
VERTEX
  8
0
 62
7
  6
CONTINUOUS
 10
55.1289873015
 20
108.5234794885
  0
VERTEX
  8
0
 62
7
  6
CONTINUOUS
 10
55.0504294144
 20
108.5137739052
  0
VERTEX
  8
0
 62
7
  6
CONTINUOUS
 10
54.9638288109
 20
108.5056851351
  0
VERTEX
  8
0
 62
7
  6
CONTINUOUS
 10
54.5126412847
 20
108.4747887688
  0
SEQEND
  0
LINE
  8
0
 62
7
  6
CONTINUOUS
 10
77.5262565848
 20
97.1397580337
 11
77.5262565848
 21
99.4962761157
  0
LINE
  8
0
 62
7
  6
CONTINUOUS
 10
78.4262565848
 20
96.7267938712
 11
78.4262565848
 21
99.3617702145
  0
LINE
  8
0
 62
7
  6
CONTINUOUS
 10
79.3112565848
 20
97.2337669879
 11
79.3112565848
 21
98.9710095403
  0
LINE
  8
DEFAULT_1
 62
7
  6
CENTER
 10
81.1112565848
 20
94.5574897312
 11
81.1112565848
 21
104.3251811848
  0
LINE
  8
0
 62
7
  6
CONTINUOUS
 10
81.8112565848
 20
98.5077114361
 11
81.8112565848
 21
97.1399621797
  0
LINE
  8
0
 62
7
  6
CONTINUOUS
 10
85.5112565848
 20
97.7718167763
 11
85.5112565848
 21
98.3029098699
  0
LINE
  8
0
 62
7
  6
CONTINUOUS
 10
85.5112565848
 20
101.3362282535
 11
85.5112565848
 21
101.8251811848
  0
LINE
  8
0
 62
7
  6
CONTINUOUS
 10
94.3872072761
 20
97.5575079284
 11
94.3872072761
 21
99.5797201841
  0
LINE
  8
0
 62
7
  6
CONTINUOUS
 10
120.0622235466
 20
98.8153966911
 11
120.0622235466
 21
101.8251811848
  0
LINE
  8
0
 62
7
  6
CONTINUOUS
 10
120.0622235466
 20
102.9251811848
 11
120.0622235466
 21
105.9349656857
  0
LINE
  8
0
 62
9
  6
CONTINUOUS
 10
121.7703783604
 20
101.8251811848
 11
121.7703783604
 21
98.4111100855
  0
LINE
  8
0
 62
9
  6
CONTINUOUS
 10
122.0762698589
 20
98.4111100855
 11
122.0762698589
 21
102.3251811848
  0
POLYLINE
  8
0
 62
9
  6
CONTINUOUS
 66
1
 70
0
  0
VERTEX
  8
0
 62
9
  6
CONTINUOUS
 10
121.7703783604
 20
101.8251811848
  0
VERTEX
  8
0
 62
9
  6
CONTINUOUS
 10
121.7750240899
 20
101.9119918337
  0
VERTEX
  8
0
 62
9
  6
CONTINUOUS
 10
121.7888230596
 20
101.9961786122
  0
VERTEX
  8
0
 62
9
  6
CONTINUOUS
 10
121.8113567356
 20
102.0751717997
  0
VERTEX
  8
0
 62
9
  6
CONTINUOUS
 10
121.8419399015
 20
102.1465682207
  0
VERTEX
  8
0
 62
9
  6
CONTINUOUS
 10
121.8796436318
 20
102.2081993438
  0
VERTEX
  8
0
 62
9
  6
CONTINUOUS
 10
121.9233221096
 20
102.2581919992
  0
VERTEX
  8
0
 62
9
  6
CONTINUOUS
 10
121.9716477922
 20
102.2950268928
  0
VERTEX
  8
0
 62
9
  6
CONTINUOUS
 10
122.023151951
 20
102.3175849441
  0
VERTEX
  8
0
 62
9
  6
CONTINUOUS
 10
122.0762698589
 20
102.3251811848
  0
SEQEND
  0
POLYLINE
  8
0
 62
9
  6
CONTINUOUS
 66
1
 70
0
  0
VERTEX
  8
0
 62
9
  6
CONTINUOUS
 10
121.7703783604
 20
98.4111100855
  0
VERTEX
  8
0
 62
9
  6
CONTINUOUS
 10
121.7607317841
 20
98.3252382594
  0
VERTEX
  8
0
 62
9
  6
CONTINUOUS
 10
121.7608865102
 20
98.2420338363
  0
VERTEX
  8
0
 62
9
  6
CONTINUOUS
 10
121.7708377173
 20
98.1640813328
  0
VERTEX
  8
0
 62
9
  6
CONTINUOUS
 10
121.79027628
 20
98.0938021139
  0
VERTEX
  8
0
 62
9
  6
CONTINUOUS
 10
121.818598377
 20
98.0333791806
  0
VERTEX
  8
0
 62
9
  6
CONTINUOUS
 10
121.8549242516
 20
97.9846893666
  0
VERTEX
  8
0
 62
9
  6
CONTINUOUS
 10
121.8981255431
 20
97.9492450476
  0
VERTEX
  8
0
 62
9
  6
CONTINUOUS
 10
121.9468603363
 20
97.9281471723
  0
SEQEND
  0
LINE
  8
DEFAULT_1
 62
2
  6
CENTER
 10
124.4622235466
 20
94.5574897312
 11
124.4622235466
 21
110.1928726384
  0
LINE
  8
0
 62
9
  6
CONTINUOUS
 10
122.0762698589
 20
98.4111100855
 11
121.9468603363
 21
97.9281471723
  0
POLYLINE
  8
0
 62
9
  6
CONTINUOUS
 66
1
 70
0
  0
VERTEX
  8
0
 62
9
  6
CONTINUOUS
 10
127.7623443234
 20
101.8251811848
  0
VERTEX
  8
0
 62
9
  6
CONTINUOUS
 10
127.7572812604
 20
101.9120052736
  0
VERTEX
  8
0
 62
9
  6
CONTINUOUS
 10
127.7422459101
 20
101.9961912564
  0
VERTEX
  8
0
 62
9
  6
CONTINUOUS
 10
127.7176951141
 20
102.0751811848
  0
VERTEX
  8
0
 62
9
  6
CONTINUOUS
 10
127.6843748357
 20
102.1465749896
  0
VERTEX
  8
0
 62
9
  6
CONTINUOUS
 10
127.6432974949
 20
102.2082034063
  0
VERTEX
  8
0
 62
9
  6
CONTINUOUS
 10
127.5957112058
 20
102.2581938867
  0
VERTEX
  8
0
 62
9
  6
CONTINUOUS
 10
127.5430618537
 20
102.2950274952
  0
VERTEX
  8
0
 62
9
  6
CONTINUOUS
 10
127.4869491626
 20
102.3175850613
  0
VERTEX
  8
0
 62
9
  6
CONTINUOUS
 10
127.4290780882
 20
102.3251811848
  0
SEQEND
  0
POLYLINE
  8
0
 62
9
  6
CONTINUOUS
 66
1
 70
0
  0
VERTEX
  8
0
 62
9
  6
CONTINUOUS
 10
127.1542865455
 20
101.8251811848
  0
VERTEX
  8
0
 62
9
  6
CONTINUOUS
 10
127.1492255898
 20
101.9119873424
  0
VERTEX
  8
0
 62
9
  6
CONTINUOUS
 10
127.1341922485
 20
101.9961742885
  0
VERTEX
  8
0
 62
9
  6
CONTINUOUS
 10
127.1096422339
 20
102.0751684575
  0
VERTEX
  8
0
 62
9
  6
CONTINUOUS
 10
127.0763222567
 20
102.146565694
  0
VERTEX
  8
0
 62
9
  6
CONTINUOUS
 10
127.0352442347
 20
102.208197719
  0
VERTEX
  8
0
 62
9
  6
CONTINUOUS
 10
126.987656657
 20
102.2581910897
  0
VERTEX
  8
0
 62
9
  6
CONTINUOUS
 10
126.9350058909
 20
102.2950265041
  0
VERTEX
  8
0
 62
9
  6
CONTINUOUS
 10
126.8788921818
 20
102.3175848505
  0
VERTEX
  8
0
 62
9
  6
CONTINUOUS
 10
126.8210203104
 20
102.3251811848
  0
SEQEND
  0
LINE
  8
0
 62
9
  6
CONTINUOUS
 10
126.8210203104
 20
97.1397580337
 11
126.8210203104
 21
102.3251811848
  0
LINE
  8
0
 62
9
  6
CONTINUOUS
 10
127.1542865455
 20
97.1397580337
 11
127.1542865455
 21
101.8251811848
  0
LINE
  8
0
 62
9
  6
CONTINUOUS
 10
127.7623443234
 20
96.9768294432
 11
127.7623443234
 21
101.8251811848
  0
POLYLINE
  8
0
 62
9
  6
CONTINUOUS
 66
1
 70
0
  0
VERTEX
  8
0
 62
9
  6
CONTINUOUS
 10
128.772982179
 20
108.0023732846
  0
VERTEX
  8
0
 62
9
  6
CONTINUOUS
 10
128.7638518603
 20
108.0930934207
  0
VERTEX
  8
0
 62
9
  6
CONTINUOUS
 10
128.7387168498
 20
108.1807932619
  0
VERTEX
  8
0
 62
9
  6
CONTINUOUS
 10
128.6984139567
 20
108.262553055
  0
VERTEX
  8
0
 62
9
  6
CONTINUOUS
 10
128.6442849681
 20
108.3356508063
  0
VERTEX
  8
0
 62
9
  6
CONTINUOUS
 10
128.5781319772
 20
108.3976529036
  0
VERTEX
  8
0
 62
9
  6
CONTINUOUS
 10
128.5021573873
 20
108.4464951377
  0
VERTEX
  8
0
 62
9
  6
CONTINUOUS
 10
128.4188905878
 20
108.4805514251
  0
VERTEX
  8
0
 62
9
  6
CONTINUOUS
 10
128.3311037447
 20
108.4986879444
  0
VERTEX
  8
0
 62
9
  6
CONTINUOUS
 10
128.2417195079
 20
108.5003008843
  0
VERTEX
  8
0
 62
9
  6
CONTINUOUS
 10
128.1537137085
 20
108.4853365458
  0
SEQEND
  0
POLYLINE
  8
0
 62
9
  6
CONTINUOUS
 66
1
 70
0
  0
VERTEX
  8
0
 62
9
  6
CONTINUOUS
 10
129.8622235466
 20
99.9569938792
  0
VERTEX
  8
0
 62
9
  6
CONTINUOUS
 10
129.8718309064
 20
99.8605201676
  0
VERTEX
  8
0
 62
9
  6
CONTINUOUS
 10
129.9002837803
 20
99.7677538866
  0
VERTEX
  8
0
 62
9
  6
CONTINUOUS
 10
129.9464887404
 20
99.6822599924
  0
VERTEX
  8
0
 62
9
  6
CONTINUOUS
 10
130.008670156
 20
99.6073239674
  0
VERTEX
  8
0
 62
9
  6
CONTINUOUS
 10
130.0844384301
 20
99.545825561
  0
VERTEX
  8
0
 62
9
  6
CONTINUOUS
 10
130.1708818304
 20
99.5001281225
  0
VERTEX
  8
0
 62
9
  6
CONTINUOUS
 10
130.2646783856
 20
99.4719877788
  0
VERTEX
  8
0
 62
9
  6
CONTINUOUS
 10
130.3622235466
 20
99.4624859475
  0
SEQEND
  0
POLYLINE
  8
0
 62
9
  6
CONTINUOUS
 66
1
 70
0
  0
VERTEX
  8
0
 62
9
  6
CONTINUOUS
 10
128.8622200309
 20
96.7268079694
  0
VERTEX
  8
0
 62
9
  6
CONTINUOUS
 10
128.8636022629
 20
96.706913724
  0
VERTEX
  8
0
 62
9
  6
CONTINUOUS
 10
128.8669842758
 20
96.6860442537
  0
VERTEX
  8
0
 62
9
  6
CONTINUOUS
 10
128.871591255
 20
96.664566789
  0
VERTEX
  8
0
 62
9
  6
CONTINUOUS
 10
128.8768842779
 20
96.6429480732
  0
VERTEX
  8
0
 62
9
  6
CONTINUOUS
 10
128.8824095269
 20
96.6217550135
  0
SEQEND
  0
LINE
  8
0
 62
9
  6
CONTINUOUS
 10
128.9357425151
 20
96.3474612747
 11
128.9357869204
 21
96.3462491186
  0
POLYLINE
  8
0
 62
9
  6
CONTINUOUS
 66
1
 70
0
  0
VERTEX
  8
0
 62
9
  6
CONTINUOUS
 10
128.4274518194
 20
103.3953565673
  0
VERTEX
  8
0
 62
9
  6
CONTINUOUS
 10
128.4288291044
 20
103.3329149838
  0
VERTEX
  8
0
 62
9
  6
CONTINUOUS
 10
128.4336159687
 20
103.2632036472
  0
VERTEX
  8
0
 62
9
  6
CONTINUOUS
 10
128.4428033147
 20
103.1867761123
  0
VERTEX
  8
0
 62
9
  6
CONTINUOUS
 10
128.4573735186
 20
103.1042342084
  0
VERTEX
  8
0
 62
9
  6
CONTINUOUS
 10
128.4782589183
 20
103.0165150047
  0
VERTEX
  8
0
 62
9
  6
CONTINUOUS
 10
128.5064118716
 20
102.9251847502
  0
SEQEND
  0
LINE
  8
0
 62
9
  6
CONTINUOUS
 10
128.3622235466
 20
96.7267938712
 11
128.3622235466
 21
102.3251811848
  0
LINE
  8
0
 62
9
  6
CONTINUOUS
 10
128.4274518194
 20
103.3953565673
 11
128.4274518194
 21
105.8384345596
  0
LINE
  8
0
 62
9
  6
CONTINUOUS
 10
128.7614775903
 20
107.610400191
 11
128.7614775903
 21
106.2426482352
  0
LINE
  8
0
 62
7
  6
CONTINUOUS
 10
128.8622235466
 20
98.9837128754
 11
128.8622235466
 21
96.7267938712
  0
LINE
  8
0
 62
9
  6
CONTINUOUS
 10
129.0345271792
 20
102.3251811848
 11
129.0345271792
 21
101.8251811848
  0
LINE
  8
0
 62
9
  6
CONTINUOUS
 10
129.0546085479
 20
107.6104001899
 11
129.0546154363
 21
105.9469053604
  0
LINE
  8
0
 62
9
  6
CONTINUOUS
 10
129.1534365396
 20
99.7925978805
 11
129.1534367152
 21
99.2980896703
  0
LINE
  8
0
 62
9
  6
CONTINUOUS
 10
129.1622235466
 20
99.2804176344
 11
129.1622235466
 21
97.2337669879
  0
LINE
  8
0
 62
9
  6
CONTINUOUS
 10
129.1622235466
 20
101.8148100335
 11
129.1622235465
 21
102.3148100335
  0
LINE
  8
0
 62
9
  6
CONTINUOUS
 10
129.1622235465
 20
102.4355523361
 11
129.1622235466
 21
102.7499226308
  0
LINE
  8
0
 62
9
  6
CONTINUOUS
 10
129.2622235465
 20
99.2980898461
 11
129.2622235466
 21
102.3148100334
  0
LINE
  8
0
 62
9
  6
CONTINUOUS
 10
129.2622235466
 20
102.4355523361
 11
129.2622235466
 21
102.4410444044
  0
LINE
  8
0
 62
9
  6
CONTINUOUS
 10
129.5874591083
 20
103.3953565673
 11
129.5874591083
 21
105.4500260548
  0
POLYLINE
  8
0
 62
9
  6
CONTINUOUS
 66
1
 70
0
  0
VERTEX
  8
0
 62
9
  6
CONTINUOUS
 10
128.9426044969
 20
108.3737370671
  0
VERTEX
  8
0
 62
9
  6
CONTINUOUS
 10
128.9419331014
 20
108.3458310976
  0
VERTEX
  8
0
 62
9
  6
CONTINUOUS
 10
128.9433099753
 20
108.3032597052
  0
VERTEX
  8
0
 62
9
  6
CONTINUOUS
 10
128.9473000051
 20
108.24505058
  0
VERTEX
  8
0
 62
9
  6
CONTINUOUS
 10
128.9547918245
 20
108.1686162899
  0
VERTEX
  8
0
 62
9
  6
CONTINUOUS
 10
128.9661746862
 20
108.0774428195
  0
VERTEX
  8
0
 62
9
  6
CONTINUOUS
 10
128.9801134696
 20
107.9839681931
  0
VERTEX
  8
0
 62
9
  6
CONTINUOUS
 10
128.9952730224
 20
107.8949352915
  0
VERTEX
  8
0
 62
9
  6
CONTINUOUS
 10
129.0109306398
 20
107.8119295365
  0
VERTEX
  8
0
 62
9
  6
CONTINUOUS
 10
129.0264020586
 20
107.736323813
  0
VERTEX
  8
0
 62
9
  6
CONTINUOUS
 10
129.0411140058
 20
107.6689872061
  0
VERTEX
  8
0
 62
9
  6
CONTINUOUS
 10
129.0546085479
 20
107.610400191
  0
SEQEND
  0
POLYLINE
  8
0
 62
9
  6
CONTINUOUS
 66
1
 70
0
  0
VERTEX
  8
0
 62
9
  6
CONTINUOUS
 10
128.3622227018
 20
99.103273519
  0
VERTEX
  8
0
 62
9
  6
CONTINUOUS
 10
128.3624517716
 20
99.1094879442
  0
VERTEX
  8
0
 62
9
  6
CONTINUOUS
 10
128.363757989
 20
99.1250184561
  0
VERTEX
  8
0
 62
9
  6
CONTINUOUS
 10
128.3670998531
 20
99.1496116768
  0
VERTEX
  8
0
 62
9
  6
CONTINUOUS
 10
128.3736312797
 20
99.1833982939
  0
VERTEX
  8
0
 62
9
  6
CONTINUOUS
 10
128.3848934194
 20
99.2268277296
  0
VERTEX
  8
0
 62
9
  6
CONTINUOUS
 10
128.4029723641
 20
99.2803343514
  0
VERTEX
  8
0
 62
9
  6
CONTINUOUS
 10
128.4298337299
 20
99.3423484026
  0
VERTEX
  8
0
 62
9
  6
CONTINUOUS
 10
128.4643549969
 20
99.4057028195
  0
VERTEX
  8
0
 62
9
  6
CONTINUOUS
 10
128.5040588477
 20
99.4650185128
  0
VERTEX
  8
0
 62
9
  6
CONTINUOUS
 10
128.5494932023
 20
99.5212047614
  0
VERTEX
  8
0
 62
9
  6
CONTINUOUS
 10
128.6014751572
 20
99.5746398167
  0
VERTEX
  8
0
 62
9
  6
CONTINUOUS
 10
128.6597283192
 20
99.6242264817
  0
VERTEX
  8
0
 62
9
  6
CONTINUOUS
 10
128.7219151689
 20
99.6677435663
  0
VERTEX
  8
0
 62
9
  6
CONTINUOUS
 10
128.7854972701
 20
99.7039899947
  0
VERTEX
  8
0
 62
9
  6
CONTINUOUS
 10
128.8582777474
 20
99.7367809408
  0
VERTEX
  8
0
 62
9
  6
CONTINUOUS
 10
128.9445300749
 20
99.765137921
  0
VERTEX
  8
0
 62
9
  6
CONTINUOUS
 10
129.042577395
 20
99.7849607364
  0
VERTEX
  8
0
 62
9
  6
CONTINUOUS
 10
129.1534365396
 20
99.7925978805
  0
SEQEND
  0
POLYLINE
  8
0
 62
9
  6
CONTINUOUS
 66
1
 70
0
  0
VERTEX
  8
0
 62
9
  6
CONTINUOUS
 10
128.7729821442
 20
108.002373286
  0
VERTEX
  8
0
 62
9
  6
CONTINUOUS
 10
128.7681031831
 20
107.9096865632
  0
VERTEX
  8
0
 62
9
  6
CONTINUOUS
 10
128.7648000146
 20
107.8234197407
  0
VERTEX
  8
0
 62
9
  6
CONTINUOUS
 10
128.7627820603
 20
107.7444466738
  0
VERTEX
  8
0
 62
9
  6
CONTINUOUS
 10
128.7617630874
 20
107.6733322926
  0
VERTEX
  8
0
 62
9
  6
CONTINUOUS
 10
128.7614775903
 20
107.610400191
  0
SEQEND
  0
POLYLINE
  8
0
 62
9
  6
CONTINUOUS
 66
1
 70
0
  0
VERTEX
  8
0
 62
9
  6
CONTINUOUS
 10
129.5874590338
 20
105.4500260548
  0
VERTEX
  8
0
 62
9
  6
CONTINUOUS
 10
129.5926056153
 20
105.5394576109
  0
VERTEX
  8
0
 62
9
  6
CONTINUOUS
 10
129.6017650159
 20
105.6260010473
  0
VERTEX
  8
0
 62
9
  6
CONTINUOUS
 10
129.6146414584
 20
105.7068616602
  0
VERTEX
  8
0
 62
9
  6
CONTINUOUS
 10
129.6308191338
 20
105.7794282452
  0
VERTEX
  8
0
 62
9
  6
CONTINUOUS
 10
129.6497756265
 20
105.8413574182
  0
VERTEX
  8
0
 62
9
  6
CONTINUOUS
 10
129.670898782
 20
105.8906492931
  0
VERTEX
  8
0
 62
9
  6
CONTINUOUS
 10
129.6935064738
 20
105.9257120715
  0
VERTEX
  8
0
 62
9
  6
CONTINUOUS
 10
129.7168686314
 20
105.9454134569
  0
SEQEND
  0
POLYLINE
  8
0
 62
9
  6
CONTINUOUS
 66
1
 70
0
  0
VERTEX
  8
0
 62
9
  6
CONTINUOUS
 10
128.5064116155
 20
102.9251811848
  0
VERTEX
  8
0
 62
9
  6
CONTINUOUS
 10
128.497581598
 20
102.82764235
  0
VERTEX
  8
0
 62
9
  6
CONTINUOUS
 10
128.4714308793
 20
102.7338447884
  0
VERTEX
  8
0
 62
9
  6
CONTINUOUS
 10
128.4289632716
 20
102.6474002409
  0
VERTEX
  8
0
 62
9
  6
CONTINUOUS
 10
128.3718107664
 20
102.5716307677
  0
VERTEX
  8
0
 62
9
  6
CONTINUOUS
 10
128.3021696912
 20
102.5094482098
  0
VERTEX
  8
0
 62
9
  6
CONTINUOUS
 10
128.2227163141
 20
102.4632422877
  0
VERTEX
  8
0
 62
9
  6
CONTINUOUS
 10
128.1365040049
 20
102.4347887624
  0
VERTEX
  8
0
 62
9
  6
CONTINUOUS
 10
128.046845903
 20
102.4251811848
  0
SEQEND
  0
POLYLINE
  8
0
 62
9
  6
CONTINUOUS
 66
1
 70
0
  0
VERTEX
  8
0
 62
9
  6
CONTINUOUS
 10
128.8634769566
 20
98.9835879762
  0
VERTEX
  8
0
 62
9
  6
CONTINUOUS
 10
128.867995104
 20
99.0289292644
  0
VERTEX
  8
0
 62
9
  6
CONTINUOUS
 10
128.8850880083
 20
99.0846211355
  0
VERTEX
  8
0
 62
9
  6
CONTINUOUS
 10
128.9128432451
 20
99.1359395089
  0
VERTEX
  8
0
 62
9
  6
CONTINUOUS
 10
128.9501966457
 20
99.1809154146
  0
VERTEX
  8
0
 62
9
  6
CONTINUOUS
 10
128.9956978633
 20
99.2178065478
  0
VERTEX
  8
0
 62
9
  6
CONTINUOUS
 10
129.0476121826
 20
99.2452082538
  0
VERTEX
  8
0
 62
9
  6
CONTINUOUS
 10
129.1038930723
 20
99.2620518141
  0
VERTEX
  8
0
 62
9
  6
CONTINUOUS
 10
129.1622235466
 20
99.2677142993
  0
SEQEND
  0
POLYLINE
  8
0
 62
9
  6
CONTINUOUS
 66
1
 70
0
  0
VERTEX
  8
0
 62
9
  6
CONTINUOUS
 10
128.8622235466
 20
98.9837128754
  0
VERTEX
  8
0
 62
9
  6
CONTINUOUS
 10
128.8697451729
 20
99.0497358955
  0
VERTEX
  8
0
 62
9
  6
CONTINUOUS
 10
128.8919328862
 20
99.1124482457
  0
VERTEX
  8
0
 62
9
  6
CONTINUOUS
 10
128.9276741019
 20
99.1687052668
  0
VERTEX
  8
0
 62
9
  6
CONTINUOUS
 10
128.975176606
 20
99.215685997
  0
VERTEX
  8
0
 62
9
  6
CONTINUOUS
 10
129.0320584249
 20
99.2510346263
  0
VERTEX
  8
0
 62
9
  6
CONTINUOUS
 10
129.0954672664
 20
99.2729786267
  0
SEQEND
  0
LINE
  8
0
 62
9
  6
CONTINUOUS
 10
129.0345271792
 20
101.8251811848
 11
129.115202869
 21
102.3186296958
  0
POLYLINE
  8
0
 62
9
  6
CONTINUOUS
 66
1
 70
0
  0
VERTEX
  8
0
 62
9
  6
CONTINUOUS
 10
127.1542865455
 20
97.1397580337
  0
VERTEX
  8
0
 62
9
  6
CONTINUOUS
 10
127.1365685622
 20
97.0547032757
  0
VERTEX
  8
0
 62
9
  6
CONTINUOUS
 10
127.109270549
 20
96.972197039
  0
VERTEX
  8
0
 62
9
  6
CONTINUOUS
 10
127.0732229612
 20
96.8947703491
  0
VERTEX
  8
0
 62
9
  6
CONTINUOUS
 10
127.0295217161
 20
96.8247792617
  0
VERTEX
  8
0
 62
9
  6
CONTINUOUS
 10
126.979491685
 20
96.7643460573
  0
VERTEX
  8
0
 62
9
  6
CONTINUOUS
 10
126.9246522908
 20
96.7153065763
  0
VERTEX
  8
0
 62
9
  6
CONTINUOUS
 10
126.8666681071
 20
96.6791491221
  0
VERTEX
  8
0
 62
9
  6
CONTINUOUS
 10
126.807298423
 20
96.6569706511
  0
VERTEX
  8
0
 62
9
  6
CONTINUOUS
 10
126.7483470478
 20
96.6494443614
  0
VERTEX
  8
0
 62
9
  6
CONTINUOUS
 10
126.6916107879
 20
96.6567951206
  0
SEQEND
  0
POLYLINE
  8
0
 62
9
  6
CONTINUOUS
 66
1
 70
0
  0
VERTEX
  8
0
 62
9
  6
CONTINUOUS
 10
127.7623443234
 20
96.9768294432
  0
VERTEX
  8
0
 62
9
  6
CONTINUOUS
 10
127.7420445091
 20
96.8824017541
  0
VERTEX
  8
0
 62
9
  6
CONTINUOUS
 10
127.7100272678
 20
96.7915094191
  0
VERTEX
  8
0
 62
9
  6
CONTINUOUS
 10
127.6674913133
 20
96.707555429
  0
VERTEX
  8
0
 62
9
  6
CONTINUOUS
 10
127.6160291763
 20
96.6336830102
  0
VERTEX
  8
0
 62
9
  6
CONTINUOUS
 10
127.5575675826
 20
96.5726579449
  0
VERTEX
  8
0
 62
9
  6
CONTINUOUS
 10
127.4942953195
 20
96.5267650209
  0
VERTEX
  8
0
 62
9
  6
CONTINUOUS
 10
127.4285812902
 20
96.4977224886
  0
VERTEX
  8
0
 62
9
  6
CONTINUOUS
 10
127.3628858246
 20
96.4866177273
  0
VERTEX
  8
0
 62
9
  6
CONTINUOUS
 10
127.2996685657
 20
96.49386653
  0
SEQEND
  0
LINE
  8
0
 62
9
  6
CONTINUOUS
 10
126.8210203104
 20
97.1397580337
 11
126.6916107879
 21
96.6567951206
  0
POLYLINE
  8
0
 62
9
  6
CONTINUOUS
 66
1
 70
0
  0
VERTEX
  8
0
 62
9
  6
CONTINUOUS
 10
128.9163750098
 20
108.3675203958
  0
VERTEX
  8
0
 62
9
  6
CONTINUOUS
 10
128.9044572184
 20
108.3284319736
  0
VERTEX
  8
0
 62
9
  6
CONTINUOUS
 10
128.8999616131
 20
108.3141237527
  0
VERTEX
  8
0
 62
9
  6
CONTINUOUS
 10
128.8949726751
 20
108.2986467945
  0
VERTEX
  8
0
 62
9
  6
CONTINUOUS
 10
128.8895521278
 20
108.2823524214
  0
VERTEX
  8
0
 62
9
  6
CONTINUOUS
 10
128.8837588887
 20
108.2655260495
  0
VERTEX
  8
0
 62
9
  6
CONTINUOUS
 10
128.8775301314
 20
108.2480555487
  0
VERTEX
  8
0
 62
9
  6
CONTINUOUS
 10
128.8708285254
 20
108.2299097468
  0
VERTEX
  8
0
 62
9
  6
CONTINUOUS
 10
128.8636403246
 20
108.2111239357
  0
VERTEX
  8
0
 62
9
  6
CONTINUOUS
 10
128.8559609797
 20
108.19174843
  0
VERTEX
  8
0
 62
9
  6
CONTINUOUS
 10
128.8477919659
 20
108.1718247632
  0
VERTEX
  8
0
 62
9
  6
CONTINUOUS
 10
128.8391148159
 20
108.1513211887
  0
VERTEX
  8
0
 62
9
  6
CONTINUOUS
 10
128.8299282041
 20
108.1302356828
  0
VERTEX
  8
0
 62
9
  6
CONTINUOUS
 10
128.8202719436
 20
108.1086254965
  0
SEQEND
  0
POLYLINE
  8
0
 62
9
  6
CONTINUOUS
 66
1
 70
0
  0
VERTEX
  8
0
 62
9
  6
CONTINUOUS
 10
128.60522513
 20
105.9458415241
  0
VERTEX
  8
0
 62
9
  6
CONTINUOUS
 10
128.5959616446
 20
105.9240700977
  0
VERTEX
  8
0
 62
9
  6
CONTINUOUS
 10
128.5875014698
 20
105.9047588854
  0
VERTEX
  8
0
 62
9
  6
CONTINUOUS
 10
128.5797941709
 20
105.8878857075
  0
VERTEX
  8
0
 62
9
  6
CONTINUOUS
 10
128.572415418
 20
105.8726067845
  0
VERTEX
  8
0
 62
9
  6
CONTINUOUS
 10
128.565011771
 20
105.8583834948
  0
VERTEX
  8
0
 62
9
  6
CONTINUOUS
 10
128.5577361172
 20
105.8457081288
  0
VERTEX
  8
0
 62
9
  6
CONTINUOUS
 10
128.5507427154
 20
105.8349315068
  0
VERTEX
  8
0
 62
9
  6
CONTINUOUS
 10
128.5437922161
 20
105.8256803563
  0
VERTEX
  8
0
 62
9
  6
CONTINUOUS
 10
128.5366479283
 20
105.8177246389
  0
VERTEX
  8
0
 62
9
  6
CONTINUOUS
 10
128.5290871274
 20
105.8109525052
  0
VERTEX
  8
0
 62
9
  6
CONTINUOUS
 10
128.521110353
 20
105.8055174832
  0
VERTEX
  8
0
 62
9
  6
CONTINUOUS
 10
128.5128336119
 20
105.8015991092
  0
VERTEX
  8
0
 62
9
  6
CONTINUOUS
 10
128.5043494741
 20
105.799207196
  0
VERTEX
  8
0
 62
9
  6
CONTINUOUS
 10
128.4951191846
 20
105.7983286419
  0
VERTEX
  8
0
 62
9
  6
CONTINUOUS
 10
128.4845579866
 20
105.7993780176
  0
VERTEX
  8
0
 62
9
  6
CONTINUOUS
 10
128.4725264538
 20
105.8030259382
  0
VERTEX
  8
0
 62
9
  6
CONTINUOUS
 10
128.4589790222
 20
105.8100894101
  0
VERTEX
  8
0
 62
9
  6
CONTINUOUS
 10
128.4439243151
 20
105.8215280979
  0
VERTEX
  8
0
 62
9
  6
CONTINUOUS
 10
128.4274518194
 20
105.8384345596
  0
SEQEND
  0
POLYLINE
  8
0
 62
9
  6
CONTINUOUS
 66
1
 70
0
  0
VERTEX
  8
0
 62
9
  6
CONTINUOUS
 10
128.790355487
 20
108.0432397565
  0
VERTEX
  8
0
 62
9
  6
CONTINUOUS
 10
128.7810820461
 20
108.0222942001
  0
VERTEX
  8
0
 62
9
  6
CONTINUOUS
 10
128.7729821234
 20
108.0023729407
  0
SEQEND
  0
LINE
  8
0
 62
9
  6
CONTINUOUS
 10
128.8202719436
 20
108.1086254965
 11
128.790355487
 21
108.0432397565
  0
POLYLINE
  8
0
 62
9
  6
CONTINUOUS
 66
1
 70
0
  0
VERTEX
  8
0
 62
9
  6
CONTINUOUS
 10
128.9293452883
 20
108.4041901232
  0
VERTEX
  8
0
 62
9
  6
CONTINUOUS
 10
128.9267268786
 20
108.3986435912
  0
VERTEX
  8
0
 62
9
  6
CONTINUOUS
 10
128.9236082142
 20
108.3902416903
  0
VERTEX
  8
0
 62
9
  6
CONTINUOUS
 10
128.920110481
 20
108.379570154
  0
VERTEX
  8
0
 62
9
  6
CONTINUOUS
 10
128.9163750098
 20
108.3675203958
  0
SEQEND
  0
LINE
  8
0
 62
9
  6
CONTINUOUS
 10
128.8575098166
 20
99.0000912191
 11
128.8622235466
 21
98.9837128754
  0
POLYLINE
  8
0
 62
9
  6
CONTINUOUS
 66
1
 70
0
  0
VERTEX
  8
0
 62
9
  6
CONTINUOUS
 10
128.8824095269
 20
96.6217550135
  0
VERTEX
  8
0
 62
9
  6
CONTINUOUS
 10
128.8983082286
 20
96.5620681399
  0
VERTEX
  8
0
 62
9
  6
CONTINUOUS
 10
128.9034105294
 20
96.5422826323
  0
VERTEX
  8
0
 62
9
  6
CONTINUOUS
 10
128.908507585
 20
96.5217242354
  0
VERTEX
  8
0
 62
9
  6
CONTINUOUS
 10
128.9133606347
 20
96.5010704955
  0
VERTEX
  8
0
 62
9
  6
CONTINUOUS
 10
128.9177464105
 20
96.4811210713
  0
VERTEX
  8
0
 62
9
  6
CONTINUOUS
 10
128.9214935127
 20
96.4626798916
  0
VERTEX
  8
0
 62
9
  6
CONTINUOUS
 10
128.9245733275
 20
96.4461286638
  0
VERTEX
  8
0
 62
9
  6
CONTINUOUS
 10
128.9270656135
 20
96.4314019294
  0
VERTEX
  8
0
 62
9
  6
CONTINUOUS
 10
128.9290998192
 20
96.4180801263
  0
VERTEX
  8
0
 62
9
  6
CONTINUOUS
 10
128.9308171185
 20
96.4054741815
  0
VERTEX
  8
0
 62
9
  6
CONTINUOUS
 10
128.9323054146
 20
96.3930111196
  0
VERTEX
  8
0
 62
9
  6
CONTINUOUS
 10
128.93355985
 20
96.3806862691
  0
VERTEX
  8
0
 62
9
  6
CONTINUOUS
 10
128.9345301373
 20
96.3690159661
  0
VERTEX
  8
0
 62
9
  6
CONTINUOUS
 10
128.9351934534
 20
96.3590059372
  0
VERTEX
  8
0
 62
9
  6
CONTINUOUS
 10
128.9355695465
 20
96.3516466788
  0
VERTEX
  8
0
 62
9
  6
CONTINUOUS
 10
128.9357425151
 20
96.3474612747
  0
SEQEND
  0
LINE
  8
0
 62
9
  6
CONTINUOUS
 10
129.1152028662
 20
102.4317326733
 11
129.1143374088
 21
102.4370136071
  0
POLYLINE
  8
0
 62
9
  6
CONTINUOUS
 66
1
 70
0
  0
VERTEX
  8
0
 62
9
  6
CONTINUOUS
 10
128.7614775965
 20
106.2426509329
  0
VERTEX
  8
0
 62
9
  6
CONTINUOUS
 10
128.7707775433
 20
106.1782676015
  0
VERTEX
  8
0
 62
9
  6
CONTINUOUS
 10
128.7936735167
 20
106.1169713283
  0
VERTEX
  8
0
 62
9
  6
CONTINUOUS
 10
128.8290685764
 20
106.0616954987
  0
VERTEX
  8
0
 62
9
  6
CONTINUOUS
 10
128.8752671524
 20
106.0150878049
  0
VERTEX
  8
0
 62
9
  6
CONTINUOUS
 10
128.930056232
 20
105.9793807007
  0
VERTEX
  8
0
 62
9
  6
CONTINUOUS
 10
128.990811366
 20
105.9562844939
  0
VERTEX
  8
0
 62
9
  6
CONTINUOUS
 10
129.0546154363
 20
105.9469054187
  0
SEQEND
  0
POLYLINE
  8
0
 62
9
  6
CONTINUOUS
 66
1
 70
0
  0
VERTEX
  8
0
 62
9
  6
CONTINUOUS
 10
130.4332372833
 20
105.4514382427
  0
VERTEX
  8
0
 62
9
  6
CONTINUOUS
 10
130.4320433682
 20
105.5460183633
  0
VERTEX
  8
0
 62
9
  6
CONTINUOUS
 10
130.4355723423
 20
105.6371782779
  0
VERTEX
  8
0
 62
9
  6
CONTINUOUS
 10
130.4436965914
 20
105.721621455
  0
VERTEX
  8
0
 62
9
  6
CONTINUOUS
 10
130.4561223267
 20
105.796294253
  0
VERTEX
  8
0
 62
9
  6
CONTINUOUS
 10
130.4724002084
 20
105.8584963465
  0
VERTEX
  8
0
 62
9
  6
CONTINUOUS
 10
130.4919415949
 20
105.9059783764
  0
VERTEX
  8
0
 62
9
  6
CONTINUOUS
 10
130.5140398294
 20
105.9370232916
  0
VERTEX
  8
0
 62
9
  6
CONTINUOUS
 10
130.5378957935
 20
105.9505084416
  0
VERTEX
  8
0
 62
9
  6
CONTINUOUS
 10
130.5426382304
 20
105.9510377392
  0
SEQEND
  0
LINE
  8
0
 62
7
  6
CONTINUOUS
 10
129.8622235466
 20
99.9569938792
 11
129.8622235466
 21
102.4061334523
  0
LINE
  8
0
 62
9
  6
CONTINUOUS
 10
130.3622235466
 20
99.4624859475
 11
130.3622235466
 21
102.2766483029
  0
LINE
  8
0
 62
9
  6
CONTINUOUS
 10
130.9320765947
 20
106.2426509334
 11
130.9320765816
 21
105.9666329052
  0
LINE
  8
0
 62
9
  6
CONTINUOUS
 10
131.7847336255
 20
99.2677142993
 11
131.7847336255
 21
98.9710095403
  0
POLYLINE
  8
0
 62
9
  6
CONTINUOUS
 66
1
 70
0
  0
VERTEX
  8
0
 62
9
  6
CONTINUOUS
 10
129.8622235466
 20
101.9792061349
  0
VERTEX
  8
0
 62
9
  6
CONTINUOUS
 10
129.8572049901
 20
101.9579883592
  0
VERTEX
  8
0
 62
9
  6
CONTINUOUS
 10
129.8419165733
 20
101.93679953
  0
VERTEX
  8
0
 62
9
  6
CONTINUOUS
 10
129.8163645954
 20
101.9161721987
  0
VERTEX
  8
0
 62
9
  6
CONTINUOUS
 10
129.7810421813
 20
101.8966322568
  0
VERTEX
  8
0
 62
9
  6
CONTINUOUS
 10
129.736878772
 20
101.8786461399
  0
VERTEX
  8
0
 62
9
  6
CONTINUOUS
 10
129.6849089259
 20
101.8625297383
  0
VERTEX
  8
0
 62
9
  6
CONTINUOUS
 10
129.6257958461
 20
101.8484287566
  0
VERTEX
  8
0
 62
9
  6
CONTINUOUS
 10
129.5601308135
 20
101.8365048533
  0
VERTEX
  8
0
 62
9
  6
CONTINUOUS
 10
129.4891484583
 20
101.8270208291
  0
VERTEX
  8
0
 62
9
  6
CONTINUOUS
 10
129.4145854651
 20
101.8201984785
  0
VERTEX
  8
0
 62
9
  6
CONTINUOUS
 10
129.3383283465
 20
101.8161377727
  0
VERTEX
  8
0
 62
9
  6
CONTINUOUS
 10
129.2622235466
 20
101.8148100335
  0
SEQEND
  0
LINE
  8
0
 62
9
  6
CONTINUOUS
 10
129.1622235466
 20
97.2337669776
 11
129.06658025
 21
96.832758771
  0
LINE
  8
0
 62
9
  6
CONTINUOUS
 10
129.06658025
 20
96.832758771
 11
128.9530035035
 21
96.3644613057
  0
LINE
  8
0
 62
9
  6
CONTINUOUS
 10
128.3622235466
 20
96.7267938712
 11
128.232814024
 21
96.2438309581
  0
POLYLINE
  8
0
 62
9
  6
CONTINUOUS
 66
1
 70
0
  0
VERTEX
  8
0
 62
9
  6
CONTINUOUS
 10
128.8243868061
 20
102.7087527753
  0
VERTEX
  8
0
 62
9
  6
CONTINUOUS
 10
128.7777395892
 20
102.628653243
  0
VERTEX
  8
0
 62
9
  6
CONTINUOUS
 10
128.7174663032
 20
102.5589137142
  0
VERTEX
  8
0
 62
9
  6
CONTINUOUS
 10
128.6456727584
 20
102.5019707273
  0
VERTEX
  8
0
 62
9
  6
CONTINUOUS
 10
128.5648672567
 20
102.4598137393
  0
VERTEX
  8
0
 62
9
  6
CONTINUOUS
 10
128.4778729569
 20
102.4339156182
  0
VERTEX
  8
0
 62
9
  6
CONTINUOUS
 10
128.38772924
 20
102.4251811848
  0
SEQEND
  0
POLYLINE
  8
0
 62
9
  6
CONTINUOUS
 66
1
 70
0
  0
VERTEX
  8
0
 62
9
  6
CONTINUOUS
 10
128.8243868363
 20
102.708752852
  0
VERTEX
  8
0
 62
9
  6
CONTINUOUS
 10
128.8533431578
 20
102.7548955273
  0
VERTEX
  8
0
 62
9
  6
CONTINUOUS
 10
128.8899908573
 20
102.7952300644
  0
VERTEX
  8
0
 62
9
  6
CONTINUOUS
 10
128.9331201704
 20
102.8284247727
  0
VERTEX
  8
0
 62
9
  6
CONTINUOUS
 10
128.9813076717
 20
102.8533841036
  0
VERTEX
  8
0
 62
9
  6
CONTINUOUS
 10
129.0329629965
 20
102.8692843055
  0
VERTEX
  8
0
 62
9
  6
CONTINUOUS
 10
129.0863813289
 20
102.875600611
  0
SEQEND
  0
POLYLINE
  8
0
 62
9
  6
CONTINUOUS
 66
1
 70
0
  0
VERTEX
  8
0
 62
9
  6
CONTINUOUS
 10
128.7614775903
 20
106.2426482352
  0
VERTEX
  8
0
 62
9
  6
CONTINUOUS
 10
128.738836374
 20
106.2183224736
  0
VERTEX
  8
0
 62
9
  6
CONTINUOUS
 10
128.7178481548
 20
106.1876909147
  0
VERTEX
  8
0
 62
9
  6
CONTINUOUS
 10
128.6987813886
 20
106.1544867506
  0
VERTEX
  8
0
 62
9
  6
CONTINUOUS
 10
128.6814243177
 20
106.1205592895
  0
VERTEX
  8
0
 62
9
  6
CONTINUOUS
 10
128.6654688523
 20
106.0867656217
  0
VERTEX
  8
0
 62
9
  6
CONTINUOUS
 10
128.6508621012
 20
106.0540337859
  0
VERTEX
  8
0
 62
9
  6
CONTINUOUS
 10
128.6377801957
 20
106.0235947364
  0
VERTEX
  8
0
 62
9
  6
CONTINUOUS
 10
128.60522513
 20
105.9458415241
  0
SEQEND
  0
POLYLINE
  8
0
 62
9
  6
CONTINUOUS
 66
1
 70
0
  0
VERTEX
  8
0
 62
9
  6
CONTINUOUS
 10
129.153436706
 20
99.2980896703
  0
VERTEX
  8
0
 62
9
  6
CONTINUOUS
 10
129.1599780167
 20
99.2893668194
  0
VERTEX
  8
0
 62
9
  6
CONTINUOUS
 10
129.1622235466
 20
99.2804176344
  0
SEQEND
  0
POLYLINE
  8
0
 62
9
  6
CONTINUOUS
 66
1
 70
0
  0
VERTEX
  8
0
 62
9
  6
CONTINUOUS
 10
128.9214410295
 20
102.6302041312
  0
VERTEX
  8
0
 62
9
  6
CONTINUOUS
 10
128.9300351961
 20
102.6120423651
  0
VERTEX
  8
0
 62
9
  6
CONTINUOUS
 10
128.938679664
 20
102.5953932729
  0
VERTEX
  8
0
 62
9
  6
CONTINUOUS
 10
128.9473346631
 20
102.5801153452
  0
VERTEX
  8
0
 62
9
  6
CONTINUOUS
 10
128.9560088085
 20
102.566022183
  0
VERTEX
  8
0
 62
9
  6
CONTINUOUS
 10
128.9647424523
 20
102.5529246424
  0
VERTEX
  8
0
 62
9
  6
CONTINUOUS
 10
128.9735869301
 20
102.5406635311
  0
VERTEX
  8
0
 62
9
  6
CONTINUOUS
 10
128.9825158498
 20
102.5292138738
  0
VERTEX
  8
0
 62
9
  6
CONTINUOUS
 10
128.9914165234
 20
102.5186508213
  0
VERTEX
  8
0
 62
9
  6
CONTINUOUS
 10
129.0002050137
 20
102.5089907007
  0
VERTEX
  8
0
 62
9
  6
CONTINUOUS
 10
129.008859025
 20
102.5001748884
  0
VERTEX
  8
0
 62
9
  6
CONTINUOUS
 10
129.0173768
 20
102.4921315053
  0
VERTEX
  8
0
 62
9
  6
CONTINUOUS
 10
129.025760049
 20
102.4847953041
  0
VERTEX
  8
0
 62
9
  6
CONTINUOUS
 10
129.0339994811
 20
102.4781181469
  0
VERTEX
  8
0
 62
9
  6
CONTINUOUS
 10
129.0420618786
 20
102.4720735124
  0
VERTEX
  8
0
 62
9
  6
CONTINUOUS
 10
129.0499058327
 20
102.4666385667
  0
VERTEX
  8
0
 62
9
  6
CONTINUOUS
 10
129.0575096185
 20
102.4617750523
  0
VERTEX
  8
0
 62
9
  6
CONTINUOUS
 10
129.0648873808
 20
102.4574253188
  0
VERTEX
  8
0
 62
9
  6
CONTINUOUS
 10
129.072081235
 20
102.4535244525
  0
VERTEX
  8
0
 62
9
  6
CONTINUOUS
 10
129.0791518221
 20
102.4500098818
  0
VERTEX
  8
0
 62
9
  6
CONTINUOUS
 10
129.0861686586
 20
102.4468281944
  0
VERTEX
  8
0
 62
9
  6
CONTINUOUS
 10
129.0931714796
 20
102.4439509039
  0
VERTEX
  8
0
 62
9
  6
CONTINUOUS
 10
129.1001761119
 20
102.4413654094
  0
VERTEX
  8
0
 62
9
  6
CONTINUOUS
 10
129.107213066
 20
102.4390578829
  0
VERTEX
  8
0
 62
9
  6
CONTINUOUS
 10
129.1143363064
 20
102.4370133959
  0
SEQEND
  0
POLYLINE
  8
0
 62
9
  6
CONTINUOUS
 66
1
 70
0
  0
VERTEX
  8
0
 62
9
  6
CONTINUOUS
 10
129.0863813289
 20
102.8756005981
  0
VERTEX
  8
0
 62
9
  6
CONTINUOUS
 10
129.0851175736
 20
102.8777514761
  0
VERTEX
  8
0
 62
9
  6
CONTINUOUS
 10
129.0846748268
 20
102.8804073486
  0
VERTEX
  8
0
 62
9
  6
CONTINUOUS
 10
129.085132273
 20
102.8836240937
  0
VERTEX
  8
0
 62
9
  6
CONTINUOUS
 10
129.0865794888
 20
102.8874731257
  0
VERTEX
  8
0
 62
9
  6
CONTINUOUS
 10
129.0891333913
 20
102.8920535297
  0
VERTEX
  8
0
 62
9
  6
CONTINUOUS
 10
129.0929383249
 20
102.8974771117
  0
VERTEX
  8
0
 62
9
  6
CONTINUOUS
 10
129.0981555406
 20
102.9038604189
  0
VERTEX
  8
0
 62
9
  6
CONTINUOUS
 10
129.1049536216
 20
102.9113212417
  0
VERTEX
  8
0
 62
9
  6
CONTINUOUS
 10
129.1135215398
 20
102.9199968667
  0
VERTEX
  8
0
 62
9
  6
CONTINUOUS
 10
129.1240723492
 20
102.9300466492
  0
VERTEX
  8
0
 62
9
  6
CONTINUOUS
 10
129.1368459217
 20
102.9416553994
  0
VERTEX
  8
0
 62
9
  6
CONTINUOUS
 10
129.1521743486
 20
102.9550927141
  0
VERTEX
  8
0
 62
9
  6
CONTINUOUS
 10
129.1701593041
 20
102.9704389491
  0
VERTEX
  8
0
 62
9
  6
CONTINUOUS
 10
129.1904524532
 20
102.9874308846
  0
SEQEND
  0
POLYLINE
  8
0
 62
9
  6
CONTINUOUS
 66
1
 70
0
  0
VERTEX
  8
0
 62
9
  6
CONTINUOUS
 10
130.3622235466
 20
102.2766483029
  0
VERTEX
  8
0
 62
9
  6
CONTINUOUS
 10
130.3530590173
 20
102.2978250992
  0
VERTEX
  8
0
 62
9
  6
CONTINUOUS
 10
130.3250773307
 20
102.3190091681
  0
VERTEX
  8
0
 62
9
  6
CONTINUOUS
 10
130.2782735435
 20
102.3396382828
  0
VERTEX
  8
0
 62
9
  6
CONTINUOUS
 10
130.2135299484
 20
102.3591874469
  0
VERTEX
  8
0
 62
9
  6
CONTINUOUS
 10
130.1325461371
 20
102.3771854626
  0
SEQEND
  0
POLYLINE
  8
0
 62
9
  6
CONTINUOUS
 66
1
 70
0
  0
VERTEX
  8
0
 62
9
  6
CONTINUOUS
 10
128.9214410434
 20
102.6302040885
  0
VERTEX
  8
0
 62
9
  6
CONTINUOUS
 10
128.8595850709
 20
102.5599628883
  0
VERTEX
  8
0
 62
9
  6
CONTINUOUS
 10
128.7857721556
 20
102.5025863731
  0
VERTEX
  8
0
 62
9
  6
CONTINUOUS
 10
128.7026023311
 20
102.4600956101
  0
VERTEX
  8
0
 62
9
  6
CONTINUOUS
 10
128.6130052251
 20
102.4339873215
  0
VERTEX
  8
0
 62
9
  6
CONTINUOUS
 10
128.5201368639
 20
102.4251811624
  0
SEQEND
  0
POLYLINE
  8
0
 62
9
  6
CONTINUOUS
 66
1
 70
0
  0
VERTEX
  8
0
 62
9
  6
CONTINUOUS
 10
128.9214410295
 20
102.6302041312
  0
VERTEX
  8
0
 62
9
  6
CONTINUOUS
 10
128.9587605396
 20
102.6712567423
  0
VERTEX
  8
0
 62
9
  6
CONTINUOUS
 10
129.003123703
 20
102.7047610637
  0
VERTEX
  8
0
 62
9
  6
CONTINUOUS
 10
129.0529947304
 20
102.7295572325
  0
VERTEX
  8
0
 62
9
  6
CONTINUOUS
 10
129.1066471411
 20
102.7447868322
  0
VERTEX
  8
0
 62
9
  6
CONTINUOUS
 10
129.1622235466
 20
102.7499226308
  0
SEQEND
  0
POLYLINE
  8
0
 62
9
  6
CONTINUOUS
 66
1
 70
0
  0
VERTEX
  8
0
 62
9
  6
CONTINUOUS
 10
128.948637096
 20
108.3901521553
  0
VERTEX
  8
0
 62
9
  6
CONTINUOUS
 10
128.9449048245
 20
108.3882264348
  0
VERTEX
  8
0
 62
9
  6
CONTINUOUS
 10
128.9426044969
 20
108.3737370671
  0
SEQEND
  0
POLYLINE
  8
0
 62
9
  6
CONTINUOUS
 66
1
 70
0
  0
VERTEX
  8
0
 62
9
  6
CONTINUOUS
 10
129.0863916962
 20
102.8756010133
  0
VERTEX
  8
0
 62
9
  6
CONTINUOUS
 10
129.1257378148
 20
102.8372760717
  0
VERTEX
  8
0
 62
9
  6
CONTINUOUS
 10
129.1520887365
 20
102.7960263696
  0
VERTEX
  8
0
 62
9
  6
CONTINUOUS
 10
129.1622235466
 20
102.7499226308
  0
SEQEND
  0
POLYLINE
  8
0
 62
9
  6
CONTINUOUS
 66
1
 70
0
  0
VERTEX
  8
0
 62
9
  6
CONTINUOUS
 10
129.3490880643
 20
103.1190252678
  0
VERTEX
  8
0
 62
9
  6
CONTINUOUS
 10
129.367444639
 20
103.1346678162
  0
VERTEX
  8
0
 62
9
  6
CONTINUOUS
 10
129.385529162
 20
103.1502366408
  0
VERTEX
  8
0
 62
9
  6
CONTINUOUS
 10
129.4033040829
 20
103.1657162837
  0
VERTEX
  8
0
 62
9
  6
CONTINUOUS
 10
129.4207250258
 20
103.181088817
  0
VERTEX
  8
0
 62
9
  6
CONTINUOUS
 10
129.4377254799
 20
103.1963217243
  0
VERTEX
  8
0
 62
9
  6
CONTINUOUS
 10
129.4542315208
 20
103.2113818459
  0
VERTEX
  8
0
 62
9
  6
CONTINUOUS
 10
129.4701468174
 20
103.2262222484
  0
VERTEX
  8
0
 62
9
  6
CONTINUOUS
 10
129.4853556147
 20
103.2407834821
  0
VERTEX
  8
0
 62
9
  6
CONTINUOUS
 10
129.4997480344
 20
103.2550153482
  0
VERTEX
  8
0
 62
9
  6
CONTINUOUS
 10
129.513234679
 20
103.2688902956
  0
VERTEX
  8
0
 62
9
  6
CONTINUOUS
 10
129.525729421
 20
103.2823848562
  0
VERTEX
  8
0
 62
9
  6
CONTINUOUS
 10
129.5371343805
 20
103.2954571481
  0
VERTEX
  8
0
 62
9
  6
CONTINUOUS
 10
129.5473797516
 20
103.3080827771
  0
VERTEX
  8
0
 62
9
  6
CONTINUOUS
 10
129.556413298
 20
103.3202377843
  0
VERTEX
  8
0
 62
9
  6
CONTINUOUS
 10
129.5641710251
 20
103.331842476
  0
VERTEX
  8
0
 62
9
  6
CONTINUOUS
 10
129.5706203763
 20
103.3427899164
  0
VERTEX
  8
0
 62
9
  6
CONTINUOUS
 10
129.5757958569
 20
103.3529900536
  0
VERTEX
  8
0
 62
9
  6
CONTINUOUS
 10
129.5798306658
 20
103.3624739898
  0
VERTEX
  8
0
 62
9
  6
CONTINUOUS
 10
129.582882883
 20
103.3713326058
  0
VERTEX
  8
0
 62
9
  6
CONTINUOUS
 10
129.5850953571
 20
103.3796687226
  0
VERTEX
  8
0
 62
9
  6
CONTINUOUS
 10
129.5865906665
 20
103.387616398
  0
VERTEX
  8
0
 62
9
  6
CONTINUOUS
 10
129.5874591083
 20
103.3953565673
  0
SEQEND
  0
LINE
  8
0
 62
9
  6
CONTINUOUS
 10
129.3115272559
 20
103.0874354845
 11
129.3490880643
 21
103.1190252678
  0
LINE
  8
0
 62
9
  6
CONTINUOUS
 10
129.2727715222
 20
103.0552870995
 11
129.3115272559
 21
103.0874354845
  0
LINE
  8
0
 62
9
  6
CONTINUOUS
 10
129.1904524532
 20
102.9874308846
 11
129.2727715222
 21
103.0552870995
  0
POLYLINE
  8
0
 62
9
  6
CONTINUOUS
 66
1
 70
0
  0
VERTEX
  8
0
 62
9
  6
CONTINUOUS
 10
129.0546223826
 20
105.9469001824
  0
VERTEX
  8
0
 62
9
  6
CONTINUOUS
 10
129.0214181053
 20
105.9310988693
  0
VERTEX
  8
0
 62
9
  6
CONTINUOUS
 10
128.9885773474
 20
105.9112880927
  0
VERTEX
  8
0
 62
9
  6
CONTINUOUS
 10
128.9567509304
 20
105.8898370861
  0
VERTEX
  8
0
 62
9
  6
CONTINUOUS
 10
128.9257799846
 20
105.8679416144
  0
VERTEX
  8
0
 62
9
  6
CONTINUOUS
 10
128.8953666922
 20
105.846177752
  0
VERTEX
  8
0
 62
9
  6
CONTINUOUS
 10
128.865699468
 20
105.8251945701
  0
VERTEX
  8
0
 62
9
  6
CONTINUOUS
 10
128.8374498314
 20
105.8058362414
  0
VERTEX
  8
0
 62
9
  6
CONTINUOUS
 10
128.810425345
 20
105.7882129351
  0
VERTEX
  8
0
 62
9
  6
CONTINUOUS
 10
128.7843627081
 20
105.7722985526
  0
VERTEX
  8
0
 62
9
  6
CONTINUOUS
 10
128.7589687532
 20
105.758046427
  0
VERTEX
  8
0
 62
9
  6
CONTINUOUS
 10
128.7342445497
 20
105.7455967395
  0
VERTEX
  8
0
 62
9
  6
CONTINUOUS
 10
128.710678299
 20
105.7352676635
  0
VERTEX
  8
0
 62
9
  6
CONTINUOUS
 10
128.6884839544
 20
105.7270733209
  0
VERTEX
  8
0
 62
9
  6
CONTINUOUS
 10
128.6666701158
 20
105.7207147723
  0
VERTEX
  8
0
 62
9
  6
CONTINUOUS
 10
128.6445476785
 20
105.716131823
  0
VERTEX
  8
0
 62
9
  6
CONTINUOUS
 10
128.6230665202
 20
105.7137327503
  0
VERTEX
  8
0
 62
9
  6
CONTINUOUS
 10
128.603183592
 20
105.7134545528
  0
VERTEX
  8
0
 62
9
  6
CONTINUOUS
 10
128.5848807818
 20
105.7150199566
  0
VERTEX
  8
0
 62
9
  6
CONTINUOUS
 10
128.5677689816
 20
105.7182082587
  0
VERTEX
  8
0
 62
9
  6
CONTINUOUS
 10
128.5518305282
 20
105.7227658021
  0
VERTEX
  8
0
 62
9
  6
CONTINUOUS
 10
128.536940058
 20
105.7286188707
  0
VERTEX
  8
0
 62
9
  6
CONTINUOUS
 10
128.5233162523
 20
105.7354156249
  0
VERTEX
  8
0
 62
9
  6
CONTINUOUS
 10
128.5108227053
 20
105.7429836974
  0
VERTEX
  8
0
 62
9
  6
CONTINUOUS
 10
128.4984392027
 20
105.7519318146
  0
VERTEX
  8
0
 62
9
  6
CONTINUOUS
 10
128.4854940811
 20
105.762951374
  0
VERTEX
  8
0
 62
9
  6
CONTINUOUS
 10
128.4719120404
 20
105.7765100505
  0
VERTEX
  8
0
 62
9
  6
CONTINUOUS
 10
128.4576810222
 20
105.7931741599
  0
VERTEX
  8
0
 62
9
  6
CONTINUOUS
 10
128.442837589
 20
105.8135685134
  0
VERTEX
  8
0
 62
9
  6
CONTINUOUS
 10
128.4274517841
 20
105.8384345596
  0
SEQEND
  0
LINE
  8
0
 62
9
  6
CONTINUOUS
 10
127.7623443234
 20
96.9768294432
 11
128.3622235466
 21
96.7267938712
  0
LINE
  8
0
 62
9
  6
CONTINUOUS
 10
130.0661848128
 20
102.3748036957
 11
130.0844380314
 21
102.3599881799
  0
LINE
  8
0
 62
9
  6
CONTINUOUS
 10
173.4775312412
 20
97.0799850275
 11
173.4975378436
 21
97.0850766713
  0
LINE
  8
0
 62
9
  6
CONTINUOUS
 10
120.0622235466
 20
98.8167955299
 11
121.7703783604
 21
98.4111100855
  0
LINE
  8
0
 62
7
  6
CONTINUOUS
 10
120.4328216196
 20
98.3338326238
 11
128.4289826523
 21
96.1912677325
  0
LINE
  8
0
 62
9
  6
CONTINUOUS
 10
122.0762698589
 20
98.4111100855
 11
126.8210203104
 21
97.1397580337
  0
LINE
  8
0
 62
9
  6
CONTINUOUS
 10
127.1542865455
 20
97.1397580337
 11
127.7623443234
 21
96.9768294432
  0
POLYLINE
  8
0
 62
9
  6
CONTINUOUS
 66
1
 70
0
  0
VERTEX
  8
0
 62
9
  6
CONTINUOUS
 10
128.8243867401
 20
102.7087528059
  0
VERTEX
  8
0
 62
9
  6
CONTINUOUS
 10
128.871198806
 20
102.6828896016
  0
VERTEX
  8
0
 62
9
  6
CONTINUOUS
 10
128.9036432073
 20
102.6566827363
  0
VERTEX
  8
0
 62
9
  6
CONTINUOUS
 10
128.9214409731
 20
102.6302042064
  0
SEQEND
  0
POLYLINE
  8
0
 62
9
  6
CONTINUOUS
 66
1
 70
0
  0
VERTEX
  8
0
 62
9
  6
CONTINUOUS
 10
128.5064105102
 20
102.9251880505
  0
VERTEX
  8
0
 62
9
  6
CONTINUOUS
 10
128.5673433458
 20
102.8842377561
  0
VERTEX
  8
0
 62
9
  6
CONTINUOUS
 10
128.6292821595
 20
102.8394493677
  0
VERTEX
  8
0
 62
9
  6
CONTINUOUS
 10
128.6825290912
 20
102.7993777454
  0
VERTEX
  8
0
 62
9
  6
CONTINUOUS
 10
128.7260099125
 20
102.7672895087
  0
VERTEX
  8
0
 62
9
  6
CONTINUOUS
 10
128.7599841579
 20
102.7440148593
  0
VERTEX
  8
0
 62
9
  6
CONTINUOUS
 10
128.7862562384
 20
102.7279864349
  0
VERTEX
  8
0
 62
9
  6
CONTINUOUS
 10
128.807103362
 20
102.7168827008
  0
VERTEX
  8
0
 62
9
  6
CONTINUOUS
 10
128.8243868363
 20
102.708752852
  0
SEQEND
  0
POLYLINE
  8
0
 62
9
  6
CONTINUOUS
 66
1
 70
0
  0
VERTEX
  8
0
 62
9
  6
CONTINUOUS
 10
128.9329375758
 20
108.4066524917
  0
VERTEX
  8
0
 62
9
  6
CONTINUOUS
 10
128.8657136573
 20
108.4700016354
  0
VERTEX
  8
0
 62
9
  6
CONTINUOUS
 10
128.787983989
 20
108.5199037997
  0
VERTEX
  8
0
 62
9
  6
CONTINUOUS
 10
128.7024014008
 20
108.5546558738
  0
VERTEX
  8
0
 62
9
  6
CONTINUOUS
 10
128.6118867355
 20
108.5730718047
  0
VERTEX
  8
0
 62
9
  6
CONTINUOUS
 10
128.5195291637
 20
108.5745230748
  0
VERTEX
  8
0
 62
9
  6
CONTINUOUS
 10
128.4284807532
 20
108.5589601536
  0
SEQEND
  0
POLYLINE
  8
0
 62
9
  6
CONTINUOUS
 66
1
 70
0
  0
VERTEX
  8
0
 62
9
  6
CONTINUOUS
 10
128.9329381136
 20
108.4066530957
  0
VERTEX
  8
0
 62
9
  6
CONTINUOUS
 10
128.9406293675
 20
108.3982527757
  0
VERTEX
  8
0
 62
9
  6
CONTINUOUS
 10
128.9486357791
 20
108.3901508034
  0
SEQEND
  0
POLYLINE
  8
0
 62
9
  6
CONTINUOUS
 66
1
 70
0
  0
VERTEX
  8
0
 62
9
  6
CONTINUOUS
 10
130.0844380314
 20
102.3599881799
  0
VERTEX
  8
0
 62
9
  6
CONTINUOUS
 10
130.1708814618
 20
102.3142906289
  0
VERTEX
  8
0
 62
9
  6
CONTINUOUS
 10
130.2646781501
 20
102.2861501805
  0
VERTEX
  8
0
 62
9
  6
CONTINUOUS
 10
130.3622235466
 20
102.2766483029
  0
SEQEND
  0
LINE
  8
0
 62
9
  6
CONTINUOUS
 10
128.935786775
 20
108.4041154343
 11
128.9329383635
 21
108.4066554102
  0
LINE
  8
0
 62
9
  6
CONTINUOUS
 10
128.3622235466
 20
96.7267938712
 11
128.8622235466
 21
96.7267938712
  0
LINE
  8
0
 62
9
  6
CONTINUOUS
 10
126.8210203104
 20
97.1397580337
 11
127.1542865455
 21
97.1397580337
  0
LINE
  8
0
 62
9
  6
CONTINUOUS
 10
128.8622235466
 20
97.2337669776
 11
129.1622235466
 21
97.2337669776
  0
LINE
  8
0
 62
9
  6
CONTINUOUS
 10
121.7703783604
 20
98.4111100855
 11
122.0762698589
 21
98.4111100855
  0
POLYLINE
  8
0
 62
7
  6
CONTINUOUS
 66
1
 70
0
  0
VERTEX
  8
0
 62
7
  6
CONTINUOUS
 10
173.4775305649
 20
97.0799850979
  0
VERTEX
  8
0
 62
7
  6
CONTINUOUS
 10
173.9333060437
 20
97.0654023844
  0
VERTEX
  8
0
 62
7
  6
CONTINUOUS
 10
174.4076670488
 20
97.0577280206
  0
VERTEX
  8
0
 62
7
  6
CONTINUOUS
 10
174.8683065751
 20
97.0573627932
  0
VERTEX
  8
0
 62
7
  6
CONTINUOUS
 10
175.3105885965
 20
97.0635696025
  0
VERTEX
  8
0
 62
7
  6
CONTINUOUS
 10
175.7307995954
 20
97.0755774549
  0
VERTEX
  8
0
 62
7
  6
CONTINUOUS
 10
176.12618578
 20
97.0926050437
  0
VERTEX
  8
0
 62
7
  6
CONTINUOUS
 10
176.4949489132
 20
97.1138870001
  0
VERTEX
  8
0
 62
7
  6
CONTINUOUS
 10
176.8368084596
 20
97.138749634
  0
VERTEX
  8
0
 62
7
  6
CONTINUOUS
 10
177.1524183205
 20
97.1666365742
  0
VERTEX
  8
0
 62
7
  6
CONTINUOUS
 10
177.4427874888
 20
97.1970932839
  0
VERTEX
  8
0
 62
7
  6
CONTINUOUS
 10
177.7090627683
 20
97.2297527753
  0
VERTEX
  8
0
 62
7
  6
CONTINUOUS
 10
177.95198736
 20
97.2642556434
  0
VERTEX
  8
0
 62
7
  6
CONTINUOUS
 10
178.1723555557
 20
97.3002803883
  0
VERTEX
  8
0
 62
7
  6
CONTINUOUS
 10
178.3712345839
 20
97.3375820348
  0
VERTEX
  8
0
 62
7
  6
CONTINUOUS
 10
178.5499510807
 20
97.3760118573
  0
VERTEX
  8
0
 62
7
  6
CONTINUOUS
 10
178.7100575573
 20
97.4155460249
  0
VERTEX
  8
0
 62
7
  6
CONTINUOUS
 10
178.8532781193
 20
97.4563192156
  0
VERTEX
  8
0
 62
7
  6
CONTINUOUS
 10
178.981581965
 20
97.498711527
  0
VERTEX
  8
0
 62
7
  6
CONTINUOUS
 10
179.0971902926
 20
97.5434861036
  0
VERTEX
  8
0
 62
7
  6
CONTINUOUS
 10
179.2025305451
 20
97.5919873988
  0
VERTEX
  8
0
 62
7
  6
CONTINUOUS
 10
179.2995940631
 20
97.6461545876
  0
VERTEX
  8
0
 62
7
  6
CONTINUOUS
 10
179.3902999564
 20
97.7091363068
  0
VERTEX
  8
0
 62
7
  6
CONTINUOUS
 10
179.4753296854
 20
97.7853706088
  0
VERTEX
  8
0
 62
7
  6
CONTINUOUS
 10
179.5522265729
 20
97.8794575762
  0
VERTEX
  8
0
 62
7
  6
CONTINUOUS
 10
179.6141675499
 20
97.9929618379
  0
VERTEX
  8
0
 62
7
  6
CONTINUOUS
 10
179.6525381878
 20
98.1217219214
  0
VERTEX
  8
0
 62
7
  6
CONTINUOUS
 10
179.6622229083
 20
98.2286268311
  0
SEQEND
  0
LINE
  8
0
 62
7
  6
CONTINUOUS
 10
173.4775312412
 20
97.0799850275
 11
132.4490107969
 21
98.7229834164
  0
LINE
  8
0
 62
9
  6
CONTINUOUS
 10
173.4975378436
 20
97.0850766713
 11
132.4606895723
 21
98.7284085504
  0
POLYLINE
  8
0
 62
9
  6
CONTINUOUS
 66
1
 70
0
  0
VERTEX
  8
0
 62
9
  6
CONTINUOUS
 10
133.5850978677
 20
99.1482537194
  0
VERTEX
  8
0
 62
9
  6
CONTINUOUS
 10
133.6040736868
 20
99.1568318047
  0
VERTEX
  8
0
 62
9
  6
CONTINUOUS
 10
133.6099711102
 20
99.1651583744
  0
VERTEX
  8
0
 62
9
  6
CONTINUOUS
 10
133.6035363674
 20
99.1733005758
  0
VERTEX
  8
0
 62
9
  6
CONTINUOUS
 10
133.5837333284
 20
99.1817218159
  0
VERTEX
  8
0
 62
9
  6
CONTINUOUS
 10
133.548429381
 20
99.1904558037
  0
VERTEX
  8
0
 62
9
  6
CONTINUOUS
 10
133.4970213944
 20
99.1992210991
  0
VERTEX
  8
0
 62
9
  6
CONTINUOUS
 10
133.4298221941
 20
99.2078266193
  0
VERTEX
  8
0
 62
9
  6
CONTINUOUS
 10
133.3472014711
 20
99.2161829452
  0
VERTEX
  8
0
 62
9
  6
CONTINUOUS
 10
133.2492491142
 20
99.224246508
  0
VERTEX
  8
0
 62
9
  6
CONTINUOUS
 10
133.1355608218
 20
99.2319898942
  0
VERTEX
  8
0
 62
9
  6
CONTINUOUS
 10
133.0052695482
 20
99.2393758887
  0
VERTEX
  8
0
 62
9
  6
CONTINUOUS
 10
132.8573004947
 20
99.2463290335
  0
VERTEX
  8
0
 62
9
  6
CONTINUOUS
 10
132.6901688342
 20
99.252734574
  0
VERTEX
  8
0
 62
9
  6
CONTINUOUS
 10
132.5019930644
 20
99.2584168951
  0
VERTEX
  8
0
 62
9
  6
CONTINUOUS
 10
132.290431648
 20
99.26311155
  0
VERTEX
  8
0
 62
9
  6
CONTINUOUS
 10
132.0525687023
 20
99.2664179887
  0
VERTEX
  8
0
 62
9
  6
CONTINUOUS
 10
131.7847336255
 20
99.2677142993
  0
SEQEND
  0
POLYLINE
  8
0
 62
9
  6
CONTINUOUS
 66
1
 70
0
  0
VERTEX
  8
0
 62
9
  6
CONTINUOUS
 10
132.9760641345
 20
98.9239728642
  0
VERTEX
  8
0
 62
9
  6
CONTINUOUS
 10
133.185954025
 20
99.0056048979
  0
VERTEX
  8
0
 62
9
  6
CONTINUOUS
 10
133.3897011645
 20
99.0804452529
  0
SEQEND
  0
POLYLINE
  8
0
 62
7
  6
CONTINUOUS
 66
1
 70
0
  0
VERTEX
  8
0
 62
7
  6
CONTINUOUS
 10
132.8646304374
 20
98.9058028493
  0
VERTEX
  8
0
 62
7
  6
CONTINUOUS
 10
132.8713546368
 20
98.9083095175
  0
VERTEX
  8
0
 62
7
  6
CONTINUOUS
 10
132.8733814421
 20
98.9089726002
  0
SEQEND
  0
LINE
  8
0
 62
9
  6
CONTINUOUS
 10
133.3897011645
 20
99.0804452529
 11
133.5850978677
 21
99.1482537194
  0
LINE
  8
0
 62
9
  6
CONTINUOUS
 10
132.9006331092
 20
98.9172360485
 11
132.8646461223
 21
98.9058106567
  0
POLYLINE
  8
0
 62
9
  6
CONTINUOUS
 66
1
 70
0
  0
VERTEX
  8
0
 62
9
  6
CONTINUOUS
 10
129.2622235466
 20
99.7925977777
  0
VERTEX
  8
0
 62
9
  6
CONTINUOUS
 10
129.3383283465
 20
99.793925517
  0
VERTEX
  8
0
 62
9
  6
CONTINUOUS
 10
129.4145854651
 20
99.7979862226
  0
VERTEX
  8
0
 62
9
  6
CONTINUOUS
 10
129.4891484583
 20
99.8048085737
  0
VERTEX
  8
0
 62
9
  6
CONTINUOUS
 10
129.5601308135
 20
99.8142925974
  0
VERTEX
  8
0
 62
9
  6
CONTINUOUS
 10
129.6257958461
 20
99.826216501
  0
VERTEX
  8
0
 62
9
  6
CONTINUOUS
 10
129.6849089259
 20
99.8403174825
  0
VERTEX
  8
0
 62
9
  6
CONTINUOUS
 10
129.7368787719
 20
99.8564338843
  0
VERTEX
  8
0
 62
9
  6
CONTINUOUS
 10
129.7810421813
 20
99.8744200008
  0
VERTEX
  8
0
 62
9
  6
CONTINUOUS
 10
129.8163645954
 20
99.8939599436
  0
VERTEX
  8
0
 62
9
  6
CONTINUOUS
 10
129.8419165734
 20
99.9145872732
  0
VERTEX
  8
0
 62
9
  6
CONTINUOUS
 10
129.8572049901
 20
99.9357761053
  0
VERTEX
  8
0
 62
9
  6
CONTINUOUS
 10
129.8622235466
 20
99.9569938792
  0
SEQEND
  0
LINE
  8
0
 62
9
  6
CONTINUOUS
 10
132.9760751513
 20
98.9239771204
 11
132.9380052797
 21
98.923328571
  0
POLYLINE
  8
0
 62
7
  6
CONTINUOUS
 66
1
 70
0
  0
VERTEX
  8
0
 62
7
  6
CONTINUOUS
 10
128.362222898
 20
99.1032736765
  0
VERTEX
  8
0
 62
7
  6
CONTINUOUS
 10
128.4503024624
 20
99.104368208
  0
VERTEX
  8
0
 62
7
  6
CONTINUOUS
 10
128.5300328014
 20
99.1070156034
  0
VERTEX
  8
0
 62
7
  6
CONTINUOUS
 10
128.6005903621
 20
99.1117707794
  0
VERTEX
  8
0
 62
7
  6
CONTINUOUS
 10
128.6631797955
 20
99.1186358891
  0
VERTEX
  8
0
 62
7
  6
CONTINUOUS
 10
128.7180235896
 20
99.1286680239
  0
VERTEX
  8
0
 62
7
  6
CONTINUOUS
 10
128.7657939068
 20
99.1420124641
  0
VERTEX
  8
0
 62
7
  6
CONTINUOUS
 10
128.806987894
 20
99.1588343961
  0
VERTEX
  8
0
 62
7
  6
CONTINUOUS
 10
128.8413756379
 20
99.177167138
  0
VERTEX
  8
0
 62
7
  6
CONTINUOUS
 10
128.8705106852
 20
99.195140314
  0
VERTEX
  8
0
 62
7
  6
CONTINUOUS
 10
128.8976496929
 20
99.2126517736
  0
VERTEX
  8
0
 62
7
  6
CONTINUOUS
 10
128.9246333392
 20
99.2296645405
  0
VERTEX
  8
0
 62
7
  6
CONTINUOUS
 10
128.9521318007
 20
99.2456558268
  0
VERTEX
  8
0
 62
7
  6
CONTINUOUS
 10
128.9796758491
 20
99.2597831153
  0
VERTEX
  8
0
 62
7
  6
CONTINUOUS
 10
129.0066716758
 20
99.2715522461
  0
VERTEX
  8
0
 62
7
  6
CONTINUOUS
 10
129.036654946
 20
99.2821125701
  0
VERTEX
  8
0
 62
7
  6
CONTINUOUS
 10
129.0713763786
 20
99.2910278595
  0
VERTEX
  8
0
 62
7
  6
CONTINUOUS
 10
129.1101583621
 20
99.2968159562
  0
VERTEX
  8
0
 62
7
  6
CONTINUOUS
 10
129.1534368868
 20
99.2980896936
  0
SEQEND
  0
POLYLINE
  8
0
 62
9
  6
CONTINUOUS
 66
1
 70
0
  0
VERTEX
  8
0
 62
9
  6
CONTINUOUS
 10
129.2622235466
 20
99.298089846
  0
VERTEX
  8
0
 62
9
  6
CONTINUOUS
 10
129.4015633815
 20
99.2994141452
  0
VERTEX
  8
0
 62
9
  6
CONTINUOUS
 10
129.5413895804
 20
99.3034723329
  0
VERTEX
  8
0
 62
9
  6
CONTINUOUS
 10
129.6781207427
 20
99.3102931063
  0
VERTEX
  8
0
 62
9
  6
CONTINUOUS
 10
129.8082967637
 20
99.3197775703
  0
VERTEX
  8
0
 62
9
  6
CONTINUOUS
 10
129.9287291595
 20
99.3317039216
  0
VERTEX
  8
0
 62
9
  6
CONTINUOUS
 10
130.0371487456
 20
99.3458097005
  0
VERTEX
  8
0
 62
9
  6
CONTINUOUS
 10
130.1324594649
 20
99.3619320475
  0
VERTEX
  8
0
 62
9
  6
CONTINUOUS
 10
130.2134419881
 20
99.3799242023
  0
VERTEX
  8
0
 62
9
  6
CONTINUOUS
 10
130.2782010249
 20
99.3994698953
  0
VERTEX
  8
0
 62
9
  6
CONTINUOUS
 10
130.3250350402
 20
99.4201014898
  0
VERTEX
  8
0
 62
9
  6
CONTINUOUS
 10
130.3530460248
 20
99.4412942605
  0
VERTEX
  8
0
 62
9
  6
CONTINUOUS
 10
130.3622235466
 20
99.4624859475
  0
SEQEND
  0
LINE
  8
0
 62
9
  6
CONTINUOUS
 10
128.8622235466
 20
98.9710095403
 11
131.7838901262
 21
98.9710095403
  0
LINE
  8
0
 62
9
  6
CONTINUOUS
 10
131.7847336255
 20
99.2677142993
 11
129.1622235466
 21
99.2677142993
  0
LINE
  8
0
 62
9
  6
CONTINUOUS
 10
129.153436706
 20
99.2980896703
 11
129.2622235466
 21
99.298089846
  0
LINE
  8
0
 62
9
  6
CONTINUOUS
 10
129.1534365396
 20
99.7925978805
 11
129.2622235466
 21
99.7925977777
  0
POLYLINE
  8
0
 62
9
  6
CONTINUOUS
 66
1
 70
0
  0
VERTEX
  8
0
 62
9
  6
CONTINUOUS
 10
128.3622235466
 20
99.1032736666
  0
VERTEX
  8
0
 62
9
  6
CONTINUOUS
 10
128.4257682057
 20
99.1023041248
  0
VERTEX
  8
0
 62
9
  6
CONTINUOUS
 10
128.4890981452
 20
99.0993606103
  0
VERTEX
  8
0
 62
9
  6
CONTINUOUS
 10
128.5508004191
 20
99.0944442307
  0
VERTEX
  8
0
 62
9
  6
CONTINUOUS
 10
128.6093363721
 20
99.0876506777
  0
VERTEX
  8
0
 62
9
  6
CONTINUOUS
 10
128.663547933
 20
99.0791226591
  0
VERTEX
  8
0
 62
9
  6
CONTINUOUS
 10
128.7126610982
 20
99.0689934415
  0
VERTEX
  8
0
 62
9
  6
CONTINUOUS
 10
128.7560402214
 20
99.0573798106
  0
VERTEX
  8
0
 62
9
  6
CONTINUOUS
 10
128.7929239621
 20
99.0444414405
  0
VERTEX
  8
0
 62
9
  6
CONTINUOUS
 10
128.8224332798
 20
99.0304535743
  0
VERTEX
  8
0
 62
9
  6
CONTINUOUS
 10
128.844010043
 20
99.0156881114
  0
VERTEX
  8
0
 62
9
  6
CONTINUOUS
 10
128.8575098166
 20
99.0000912191
  0
SEQEND
  0
POLYLINE
  8
0
 62
7
  6
CONTINUOUS
 66
1
 70
0
  0
VERTEX
  8
0
 62
7
  6
CONTINUOUS
 10
129.1152028689
 20
102.3186296959
  0
VERTEX
  8
0
 62
7
  6
CONTINUOUS
 10
129.0884243982
 20
102.3222677867
  0
VERTEX
  8
0
 62
7
  6
CONTINUOUS
 10
129.0615074189
 20
102.3244527208
  0
VERTEX
  8
0
 62
7
  6
CONTINUOUS
 10
129.0345271792
 20
102.3251811848
  0
SEQEND
  0
POLYLINE
  8
0
 62
9
  6
CONTINUOUS
 66
1
 70
0
  0
VERTEX
  8
0
 62
9
  6
CONTINUOUS
 10
130.1325461371
 20
102.3771854626
  0
VERTEX
  8
0
 62
9
  6
CONTINUOUS
 10
130.0372385351
 20
102.3933112286
  0
VERTEX
  8
0
 62
9
  6
CONTINUOUS
 10
129.9288466625
 20
102.4074169431
  0
VERTEX
  8
0
 62
9
  6
CONTINUOUS
 10
129.8084566573
 20
102.4193430036
  0
VERTEX
  8
0
 62
9
  6
CONTINUOUS
 10
129.6783027172
 20
102.4288300327
  0
VERTEX
  8
0
 62
9
  6
CONTINUOUS
 10
129.5415513731
 20
102.4356555931
  0
VERTEX
  8
0
 62
9
  6
CONTINUOUS
 10
129.401663382
 20
102.4397182034
  0
VERTEX
  8
0
 62
9
  6
CONTINUOUS
 10
129.2622235466
 20
102.4410444044
  0
SEQEND
  0
POLYLINE
  8
0
 62
9
  6
CONTINUOUS
 66
1
 70
0
  0
VERTEX
  8
0
 62
9
  6
CONTINUOUS
 10
132.8982211192
 20
98.9042924317
  0
VERTEX
  8
0
 62
9
  6
CONTINUOUS
 10
132.9449510965
 20
98.9142994017
  0
VERTEX
  8
0
 62
9
  6
CONTINUOUS
 10
132.9760641345
 20
98.9239728642
  0
SEQEND
  0
LINE
  8
0
 62
9
  6
CONTINUOUS
 10
132.9380052797
 20
98.923328571
 11
132.9006331092
 21
98.9172360485
  0
LINE
  8
0
 62
9
  6
CONTINUOUS
 10
132.8356922531
 20
98.8941456043
 11
132.8982211192
 21
98.9042924317
  0
POLYLINE
  8
0
 62
9
  6
CONTINUOUS
 66
1
 70
0
  0
VERTEX
  8
0
 62
9
  6
CONTINUOUS
 10
131.7847336255
 20
98.9710095403
  0
VERTEX
  8
0
 62
9
  6
CONTINUOUS
 10
131.9869598554
 20
99.0025491898
  0
VERTEX
  8
0
 62
9
  6
CONTINUOUS
 10
132.1720335652
 20
99.0297240421
  0
VERTEX
  8
0
 62
9
  6
CONTINUOUS
 10
132.3405234358
 20
99.0530472588
  0
VERTEX
  8
0
 62
9
  6
CONTINUOUS
 10
132.4930725734
 20
99.0729657243
  0
VERTEX
  8
0
 62
9
  6
CONTINUOUS
 10
132.6309976739
 20
99.0899477644
  0
VERTEX
  8
0
 62
9
  6
CONTINUOUS
 10
132.7561324291
 20
99.1044545681
  0
VERTEX
  8
0
 62
9
  6
CONTINUOUS
 10
132.870085495
 20
99.1168537511
  0
VERTEX
  8
0
 62
9
  6
CONTINUOUS
 10
132.9735716501
 20
99.1273674676
  0
VERTEX
  8
0
 62
9
  6
CONTINUOUS
 10
133.0668291823
 20
99.1361451201
  0
VERTEX
  8
0
 62
9
  6
CONTINUOUS
 10
133.150392182
 20
99.1433468589
  0
VERTEX
  8
0
 62
9
  6
CONTINUOUS
 10
133.2251229432
 20
99.1491347785
  0
VERTEX
  8
0
 62
9
  6
CONTINUOUS
 10
133.29161695
 20
99.1536170202
  0
VERTEX
  8
0
 62
9
  6
CONTINUOUS
 10
133.3496935356
 20
99.1568278576
  0
VERTEX
  8
0
 62
9
  6
CONTINUOUS
 10
133.3990480239
 20
99.1587955433
  0
VERTEX
  8
0
 62
9
  6
CONTINUOUS
 10
133.439903165
 20
99.1595649489
  0
VERTEX
  8
0
 62
9
  6
CONTINUOUS
 10
133.4722107537
 20
99.1591496791
  0
VERTEX
  8
0
 62
9
  6
CONTINUOUS
 10
133.4954137957
 20
99.1575901224
  0
VERTEX
  8
0
 62
9
  6
CONTINUOUS
 10
133.5094939647
 20
99.155042343
  0
VERTEX
  8
0
 62
9
  6
CONTINUOUS
 10
133.515430493
 20
99.1517351702
  0
VERTEX
  8
0
 62
9
  6
CONTINUOUS
 10
133.5144432209
 20
99.147618891
  0
VERTEX
  8
0
 62
9
  6
CONTINUOUS
 10
133.5061137463
 20
99.142366376
  0
VERTEX
  8
0
 62
9
  6
CONTINUOUS
 10
133.4890574719
 20
99.1357351756
  0
SEQEND
  0
LINE
  8
0
 62
9
  6
CONTINUOUS
 10
129.0954672664
 20
99.2729786267
 11
129.1622235466
 21
99.2804176344
  0
LINE
  8
0
 62
9
  6
CONTINUOUS
 10
129.2622235466
 20
101.8148100335
 11
129.1622235466
 21
101.8148100335
  0
LINE
  8
0
 62
9
  6
CONTINUOUS
 10
129.0345813427
 20
101.8251811848
 11
120.0622235466
 21
101.8251811848
  0
LINE
  8
0
 62
7
  6
CONTINUOUS
 10
129.2622235466
 20
102.3148100335
 11
129.1622235465
 21
102.3148100335
  0
LINE
  8
0
 62
7
  6
CONTINUOUS
 10
129.03452482
 20
102.3251811848
 11
120.5622313387
 21
102.3251811848
  0
LINE
  8
DEFAULT_1
 62
2
  6
CENTER
 10
118.0622235466
 20
102.3751811848
 11
181.6622235466
 21
102.3751811848
  0
LINE
  8
0
 62
7
  6
CONTINUOUS
 10
120.5622313389
 20
102.4251811848
 11
129.03452482
 21
102.4251811848
  0
LINE
  8
0
 62
7
  6
CONTINUOUS
 10
129.2622235466
 20
102.4355523361
 11
129.1622235465
 21
102.4355523361
  0
LINE
  8
0
 62
9
  6
CONTINUOUS
 10
129.2622235466
 20
102.4410444044
 11
129.1622235466
 21
102.4410444044
  0
POLYLINE
  8
0
 62
7
  6
CONTINUOUS
 66
1
 70
0
  0
VERTEX
  8
0
 62
7
  6
CONTINUOUS
 10
129.2622235466
 20
102.4355537884
  0
VERTEX
  8
0
 62
7
  6
CONTINUOUS
 10
129.3319942275
 20
102.4351974357
  0
VERTEX
  8
0
 62
7
  6
CONTINUOUS
 10
129.4391889196
 20
102.4332516669
  0
VERTEX
  8
0
 62
7
  6
CONTINUOUS
 10
129.5413581572
 20
102.4297569784
  0
VERTEX
  8
0
 62
7
  6
CONTINUOUS
 10
129.6373055711
 20
102.4249000034
  0
VERTEX
  8
0
 62
7
  6
CONTINUOUS
 10
129.7260058738
 20
102.4188978482
  0
VERTEX
  8
0
 62
7
  6
CONTINUOUS
 10
129.8066395383
 20
102.4119843148
  0
VERTEX
  8
0
 62
7
  6
CONTINUOUS
 10
129.8785668488
 20
102.4044131299
  0
VERTEX
  8
0
 62
7
  6
CONTINUOUS
 10
129.9412996264
 20
102.3964670492
  0
VERTEX
  8
0
 62
7
  6
CONTINUOUS
 10
129.9945020223
 20
102.3884539453
  0
VERTEX
  8
0
 62
7
  6
CONTINUOUS
 10
130.0379295394
 20
102.3807271971
  0
VERTEX
  8
0
 62
7
  6
CONTINUOUS
 10
130.0714374653
 20
102.3737025174
  0
VERTEX
  8
0
 62
7
  6
CONTINUOUS
 10
130.0946522197
 20
102.3679588268
  0
VERTEX
  8
0
 62
7
  6
CONTINUOUS
 10
130.10692528
 20
102.3643723906
  0
VERTEX
  8
0
 62
7
  6
CONTINUOUS
 10
130.1086756026
 20
102.3637877468
  0
SEQEND
  0
POLYLINE
  8
0
 62
7
  6
CONTINUOUS
 66
1
 70
0
  0
VERTEX
  8
0
 62
7
  6
CONTINUOUS
 10
129.1622235465
 20
102.3148101366
  0
VERTEX
  8
0
 62
7
  6
CONTINUOUS
 10
129.1547082767
 20
102.3149068876
  0
VERTEX
  8
0
 62
7
  6
CONTINUOUS
 10
129.1245160921
 20
102.3172609426
  0
VERTEX
  8
0
 62
7
  6
CONTINUOUS
 10
129.115202922
 20
102.3186297568
  0
SEQEND
  0
POLYLINE
  8
0
 62
9
  6
CONTINUOUS
 66
1
 70
0
  0
VERTEX
  8
0
 62
9
  6
CONTINUOUS
 10
129.1622235466
 20
101.8148100335
  0
VERTEX
  8
0
 62
9
  6
CONTINUOUS
 10
129.0981729788
 20
101.817406599
  0
VERTEX
  8
0
 62
9
  6
CONTINUOUS
 10
129.0345813427
 20
101.8251811848
  0
SEQEND
  0
LINE
  8
0
 62
9
  6
CONTINUOUS
 10
131.6116851079
 20
106.1138969752
 11
131.2146287434
 21
106.1901007001
  0
POLYLINE
  8
0
 62
9
  6
CONTINUOUS
 66
1
 70
0
  0
VERTEX
  8
0
 62
9
  6
CONTINUOUS
 10
132.1167413585
 20
106.0140731321
  0
VERTEX
  8
0
 62
9
  6
CONTINUOUS
 10
132.0004785355
 20
106.0373572114
  0
VERTEX
  8
0
 62
9
  6
CONTINUOUS
 10
131.6116851079
 20
106.1138969752
  0
SEQEND
  0
POLYLINE
  8
0
 62
9
  6
CONTINUOUS
 66
1
 70
0
  0
VERTEX
  8
0
 62
9
  6
CONTINUOUS
 10
133.4890575172
 20
99.1357350412
  0
VERTEX
  8
0
 62
9
  6
CONTINUOUS
 10
133.5202372575
 20
99.1440148095
  0
VERTEX
  8
0
 62
9
  6
CONTINUOUS
 10
133.5523274573
 20
99.1481739737
  0
VERTEX
  8
0
 62
9
  6
CONTINUOUS
 10
133.5848761658
 20
99.1481539372
  0
SEQEND
  0
POLYLINE
  8
0
 62
7
  6
CONTINUOUS
 66
1
 70
0
  0
VERTEX
  8
0
 62
7
  6
CONTINUOUS
 10
129.8622235466
 20
102.3442953491
  0
VERTEX
  8
0
 62
7
  6
CONTINUOUS
 10
129.8278929487
 20
102.3404647739
  0
VERTEX
  8
0
 62
7
  6
CONTINUOUS
 10
129.7456618273
 20
102.3330131746
  0
VERTEX
  8
0
 62
7
  6
CONTINUOUS
 10
129.6543483881
 20
102.3264965573
  0
VERTEX
  8
0
 62
7
  6
CONTINUOUS
 10
129.554919905
 20
102.3211958103
  0
VERTEX
  8
0
 62
7
  6
CONTINUOUS
 10
129.4485920994
 20
102.3173640672
  0
VERTEX
  8
0
 62
7
  6
CONTINUOUS
 10
129.3367895391
 20
102.3152155218
  0
VERTEX
  8
0
 62
7
  6
CONTINUOUS
 10
129.2622235466
 20
102.3148086795
  0
SEQEND
  0
POLYLINE
  8
0
 62
7
  6
CONTINUOUS
 66
1
 70
0
  0
VERTEX
  8
0
 62
7
  6
CONTINUOUS
 10
129.1245160579
 20
102.4331014228
  0
VERTEX
  8
0
 62
7
  6
CONTINUOUS
 10
129.1547082512
 20
102.4354554816
  0
VERTEX
  8
0
 62
7
  6
CONTINUOUS
 10
129.1622235465
 20
102.4355522345
  0
SEQEND
  0
POLYLINE
  8
0
 62
9
  6
CONTINUOUS
 66
1
 70
0
  0
VERTEX
  8
0
 62
9
  6
CONTINUOUS
 10
129.1622235466
 20
102.4410444044
  0
VERTEX
  8
0
 62
9
  6
CONTINUOUS
 10
129.1382590274
 20
102.4400397746
  0
VERTEX
  8
0
 62
9
  6
CONTINUOUS
 10
129.1143363064
 20
102.4370133959
  0
SEQEND
  0
LINE
  8
0
 62
9
  6
CONTINUOUS
 10
173.4975378436
 20
104.6540575792
 11
129.0863916962
 21
102.8756010133
  0
LINE
  8
0
 62
9
  6
CONTINUOUS
 10
129.5874591083
 20
103.3953565673
 11
173.3681283211
 21
105.1485655108
  0
POLYLINE
  8
0
 62
9
  6
CONTINUOUS
 66
1
 70
0
  0
VERTEX
  8
0
 62
9
  6
CONTINUOUS
 10
173.4975378436
 20
104.6540575792
  0
VERTEX
  8
0
 62
9
  6
CONTINUOUS
 10
173.9432451031
 20
104.6683340366
  0
VERTEX
  8
0
 62
9
  6
CONTINUOUS
 10
174.3963369353
 20
104.675798467
  0
VERTEX
  8
0
 62
9
  6
CONTINUOUS
 10
174.8521540328
 20
104.6763741733
  0
VERTEX
  8
0
 62
9
  6
CONTINUOUS
 10
175.3060604429
 20
104.6700543888
  0
VERTEX
  8
0
 62
9
  6
CONTINUOUS
 10
175.7534812112
 20
104.6568991175
  0
VERTEX
  8
0
 62
9
  6
CONTINUOUS
 10
176.1899208992
 20
104.6370321238
  0
VERTEX
  8
0
 62
9
  6
CONTINUOUS
 10
176.6109555283
 20
104.6106413122
  0
VERTEX
  8
0
 62
9
  6
CONTINUOUS
 10
177.0122703178
 20
104.5779791949
  0
VERTEX
  8
0
 62
9
  6
CONTINUOUS
 10
177.3897115235
 20
104.5393618382
  0
VERTEX
  8
0
 62
9
  6
CONTINUOUS
 10
177.7393290125
 20
104.4951674542
  0
VERTEX
  8
0
 62
9
  6
CONTINUOUS
 10
178.0574184515
 20
104.4458345711
  0
VERTEX
  8
0
 62
9
  6
CONTINUOUS
 10
178.3405667771
 20
104.3918592107
  0
VERTEX
  8
0
 62
9
  6
CONTINUOUS
 10
178.5856952252
 20
104.3337917161
  0
VERTEX
  8
0
 62
9
  6
CONTINUOUS
 10
178.7901035062
 20
104.2722327478
  0
VERTEX
  8
0
 62
9
  6
CONTINUOUS
 10
178.9515219528
 20
104.207824713
  0
VERTEX
  8
0
 62
9
  6
CONTINUOUS
 10
179.0681415875
 20
104.141245517
  0
VERTEX
  8
0
 62
9
  6
CONTINUOUS
 10
179.1386410596
 20
104.0732057095
  0
VERTEX
  8
0
 62
9
  6
CONTINUOUS
 10
179.1622235466
 20
104.0044439603
  0
SEQEND
  0
POLYLINE
  8
0
 62
9
  6
CONTINUOUS
 66
1
 70
0
  0
VERTEX
  8
0
 62
9
  6
CONTINUOUS
 10
173.3681283211
 20
105.1485655108
  0
VERTEX
  8
0
 62
9
  6
CONTINUOUS
 10
173.8634885873
 20
105.1628448065
  0
VERTEX
  8
0
 62
9
  6
CONTINUOUS
 10
174.366910517
 20
105.1703073172
  0
VERTEX
  8
0
 62
9
  6
CONTINUOUS
 10
174.8733590106
 20
105.1708815279
  0
VERTEX
  8
0
 62
9
  6
CONTINUOUS
 10
175.3776833951
 20
105.1645606603
  0
VERTEX
  8
0
 62
9
  6
CONTINUOUS
 10
175.8748008682
 20
105.1514047396
  0
VERTEX
  8
0
 62
9
  6
CONTINUOUS
 10
176.3597169894
 20
105.1315375389
  0
VERTEX
  8
0
 62
9
  6
CONTINUOUS
 10
176.8275167055
 20
105.1051469604
  0
VERTEX
  8
0
 62
9
  6
CONTINUOUS
 10
177.2734063059
 20
105.0724855084
  0
VERTEX
  8
0
 62
9
  6
CONTINUOUS
 10
177.6927710031
 20
105.0338692311
  0
VERTEX
  8
0
 62
9
  6
CONTINUOUS
 10
178.081222287
 20
104.9896763075
  0
VERTEX
  8
0
 62
9
  6
CONTINUOUS
 10
178.4346448968
 20
104.9403451926
  0
VERTEX
  8
0
 62
9
  6
CONTINUOUS
 10
178.7492468808
 20
104.8863718475
  0
VERTEX
  8
0
 62
9
  6
CONTINUOUS
 10
179.0216076314
 20
104.8283065565
  0
VERTEX
  8
0
 62
9
  6
CONTINUOUS
 10
179.2487270232
 20
104.7667499044
  0
VERTEX
  8
0
 62
9
  6
CONTINUOUS
 10
179.4280832426
 20
104.7023442595
  0
VERTEX
  8
0
 62
9
  6
CONTINUOUS
 10
179.5576665879
 20
104.6357673718
  0
VERTEX
  8
0
 62
9
  6
CONTINUOUS
 10
179.6360081572
 20
104.5677299289
  0
VERTEX
  8
0
 62
9
  6
CONTINUOUS
 10
179.6622235466
 20
104.498951892
  0
SEQEND
  0
LINE
  8
0
 62
9
  6
CONTINUOUS
 10
120.0622235466
 20
102.9251811848
 11
128.5064118716
 21
102.9251847502
  0
LINE
  8
0
 62
9
  6
CONTINUOUS
 10
129.5874591083
 20
103.3953565673
 11
128.4274518194
 21
103.3953565673
  0
POLYLINE
  8
0
 62
9
  6
CONTINUOUS
 66
1
 70
0
  0
VERTEX
  8
0
 62
9
  6
CONTINUOUS
 10
129.5874591083
 20
105.4500260548
  0
VERTEX
  8
0
 62
9
  6
CONTINUOUS
 10
129.4504993733
 20
105.4565157155
  0
VERTEX
  8
0
 62
9
  6
CONTINUOUS
 10
129.3163032671
 20
105.4586840781
  0
VERTEX
  8
0
 62
9
  6
CONTINUOUS
 10
129.1811991259
 20
105.4555508629
  0
SEQEND
  0
LINE
  8
0
 62
9
  6
CONTINUOUS
 10
131.2146287434
 20
106.1901007001
 11
130.9320765947
 21
106.2426509334
  0
LINE
  8
0
 62
7
  6
CONTINUOUS
 10
129.1152029196
 20
102.4317326101
 11
129.1245160579
 21
102.4331014228
  0
POLYLINE
  8
0
 62
7
  6
CONTINUOUS
 66
1
 70
0
  0
VERTEX
  8
0
 62
7
  6
CONTINUOUS
 10
129.1152028662
 20
102.4317326733
  0
VERTEX
  8
0
 62
7
  6
CONTINUOUS
 10
129.0884243934
 20
102.4280945824
  0
VERTEX
  8
0
 62
7
  6
CONTINUOUS
 10
129.0615074165
 20
102.4259096486
  0
VERTEX
  8
0
 62
7
  6
CONTINUOUS
 10
129.0345271792
 20
102.4251811848
  0
SEQEND
  0
POLYLINE
  8
0
 62
9
  6
CONTINUOUS
 66
1
 70
0
  0
VERTEX
  8
0
 62
9
  6
CONTINUOUS
 10
129.1811991259
 20
105.4555508629
  0
VERTEX
  8
0
 62
9
  6
CONTINUOUS
 10
128.9322089886
 20
105.4434875866
  0
VERTEX
  8
0
 62
9
  6
CONTINUOUS
 10
128.8320210102
 20
105.4435804138
  0
VERTEX
  8
0
 62
9
  6
CONTINUOUS
 10
128.7473746954
 20
105.4516923916
  0
VERTEX
  8
0
 62
9
  6
CONTINUOUS
 10
128.6756473889
 20
105.4692197127
  0
VERTEX
  8
0
 62
9
  6
CONTINUOUS
 10
128.6146662488
 20
105.4971615407
  0
VERTEX
  8
0
 62
9
  6
CONTINUOUS
 10
128.562605511
 20
105.5366853502
  0
VERTEX
  8
0
 62
9
  6
CONTINUOUS
 10
128.5180021916
 20
105.5896768504
  0
VERTEX
  8
0
 62
9
  6
CONTINUOUS
 10
128.4801952778
 20
105.6584970169
  0
VERTEX
  8
0
 62
9
  6
CONTINUOUS
 10
128.4499056961
 20
105.742711722
  0
VERTEX
  8
0
 62
9
  6
CONTINUOUS
 10
128.4274518194
 20
105.8384345596
  0
SEQEND
  0
LINE
  8
0
 62
9
  6
CONTINUOUS
 10
173.3681283211
 20
107.1707777666
 11
130.4332372833
 21
105.4514382427
  0
POLYLINE
  8
0
 62
7
  6
CONTINUOUS
 66
1
 70
0
  0
VERTEX
  8
0
 62
7
  6
CONTINUOUS
 10
130.5426382329
 20
105.9510376771
  0
VERTEX
  8
0
 62
7
  6
CONTINUOUS
 10
130.3698002403
 20
105.9455568661
  0
VERTEX
  8
0
 62
7
  6
CONTINUOUS
 10
130.1650303065
 20
105.9427405427
  0
VERTEX
  8
0
 62
7
  6
CONTINUOUS
 10
130.1213806692
 20
105.9426508182
  0
SEQEND
  0
POLYLINE
  8
0
 62
9
  6
CONTINUOUS
 66
1
 70
0
  0
VERTEX
  8
0
 62
9
  6
CONTINUOUS
 10
130.4332372833
 20
105.4514382427
  0
VERTEX
  8
0
 62
9
  6
CONTINUOUS
 10
130.2476946969
 20
105.4455914929
  0
VERTEX
  8
0
 62
9
  6
CONTINUOUS
 10
130.0446956225
 20
105.4427757078
  0
VERTEX
  8
0
 62
9
  6
CONTINUOUS
 10
129.8245547136
 20
105.4439089902
  0
VERTEX
  8
0
 62
9
  6
CONTINUOUS
 10
129.5874591083
 20
105.4500260548
  0
SEQEND
  0
LINE
  8
0
 62
9
  6
CONTINUOUS
 10
128.7614775903
 20
106.2426509334
 11
130.9319386682
 21
106.2426509334
  0
LINE
  8
0
 62
9
  6
CONTINUOUS
 10
130.121380815
 20
105.9426509334
 11
129.9539633885
 21
105.9431227252
  0
POLYLINE
  8
0
 62
9
  6
CONTINUOUS
 66
1
 70
0
  0
VERTEX
  8
0
 62
9
  6
CONTINUOUS
 10
129.9539633885
 20
105.9431227252
  0
VERTEX
  8
0
 62
9
  6
CONTINUOUS
 10
129.5491776378
 20
105.9474952432
  0
VERTEX
  8
0
 62
9
  6
CONTINUOUS
 10
129.3844768434
 20
105.9485942042
  0
VERTEX
  8
0
 62
9
  6
CONTINUOUS
 10
129.2193276835
 20
105.9483724593
  0
VERTEX
  8
0
 62
9
  6
CONTINUOUS
 10
129.0546154363
 20
105.9469053604
  0
SEQEND
  0
POLYLINE
  8
0
 62
9
  6
CONTINUOUS
 66
1
 70
0
  0
VERTEX
  8
0
 62
9
  6
CONTINUOUS
 10
129.1143374088
 20
102.4370136071
  0
VERTEX
  8
0
 62
9
  6
CONTINUOUS
 10
129.0879691517
 20
102.4304516274
  0
VERTEX
  8
0
 62
9
  6
CONTINUOUS
 10
129.0613188604
 20
102.4265005361
  0
VERTEX
  8
0
 62
9
  6
CONTINUOUS
 10
129.0345271792
 20
102.4251811848
  0
SEQEND
  0
LINE
  8
0
 62
7
  6
CONTINUOUS
 10
173.4775312412
 20
107.6703773421
 11
130.5426402043
 21
105.9510378183
  0
LINE
  8
0
 62
9
  6
CONTINUOUS
 10
128.7614775903
 20
107.610400191
 11
129.0546085479
 21
107.610400191
  0
POLYLINE
  8
0
 62
9
  6
CONTINUOUS
 66
1
 70
0
  0
VERTEX
  8
0
 62
9
  6
CONTINUOUS
 10
128.9329381136
 20
108.4066530957
  0
VERTEX
  8
0
 62
9
  6
CONTINUOUS
 10
128.9314212048
 20
108.406752162
  0
VERTEX
  8
0
 62
9
  6
CONTINUOUS
 10
128.9293452883
 20
108.4041901232
  0
SEQEND
  0
LINE
  8
0
 62
9
  6
CONTINUOUS
 10
128.7729821442
 20
108.002373286
 11
120.0622235468
 21
105.9335668444
  0
LINE
  8
0
 62
7
  6
CONTINUOUS
 10
128.4289826524
 20
108.5590946371
 11
120.4328216327
 21
106.4165297493
  0
POLYLINE
  8
0
 62
9
  6
CONTINUOUS
 66
1
 70
0
  0
VERTEX
  8
0
 62
9
  6
CONTINUOUS
 10
173.3681283211
 20
105.1485655108
  0
VERTEX
  8
0
 62
9
  6
CONTINUOUS
 10
173.3734965518
 20
105.0598836761
  0
VERTEX
  8
0
 62
9
  6
CONTINUOUS
 10
173.3828039697
 20
104.9740181194
  0
VERTEX
  8
0
 62
9
  6
CONTINUOUS
 10
173.3957549977
 20
104.8936956798
  0
VERTEX
  8
0
 62
9
  6
CONTINUOUS
 10
173.4119383483
 20
104.8214671616
  0
VERTEX
  8
0
 62
9
  6
CONTINUOUS
 10
173.4308400852
 20
104.7596263289
  0
VERTEX
  8
0
 62
9
  6
CONTINUOUS
 10
173.4518599439
 20
104.7101370616
  0
VERTEX
  8
0
 62
9
  6
CONTINUOUS
 10
173.4743303952
 20
104.6745709888
  0
VERTEX
  8
0
 62
9
  6
CONTINUOUS
 10
173.4975378436
 20
104.6540575792
  0
SEQEND
  0
POLYLINE
  8
0
 62
9
  6
CONTINUOUS
 66
1
 70
0
  0
VERTEX
  8
0
 62
9
  6
CONTINUOUS
 10
173.3681283211
 20
107.1707777666
  0
VERTEX
  8
0
 62
9
  6
CONTINUOUS
 10
173.3669344052
 20
107.2653579069
  0
VERTEX
  8
0
 62
9
  6
CONTINUOUS
 10
173.3704633802
 20
107.3565178334
  0
VERTEX
  8
0
 62
9
  6
CONTINUOUS
 10
173.3785876312
 20
107.4409610142
  0
VERTEX
  8
0
 62
9
  6
CONTINUOUS
 10
173.3910133683
 20
107.5156338088
  0
VERTEX
  8
0
 62
9
  6
CONTINUOUS
 10
173.4072912512
 20
107.5778358944
  0
VERTEX
  8
0
 62
9
  6
CONTINUOUS
 10
173.4268326378
 20
107.6253179146
  0
VERTEX
  8
0
 62
9
  6
CONTINUOUS
 10
173.4489308713
 20
107.6563628212
  0
VERTEX
  8
0
 62
9
  6
CONTINUOUS
 10
173.4727868335
 20
107.669847966
  0
VERTEX
  8
0
 62
9
  6
CONTINUOUS
 10
173.4775305752
 20
107.6703773154
  0
SEQEND
  0
LINE
  8
0
 62
9
  6
CONTINUOUS
 10
173.3681283211
 20
105.1485655108
 11
173.3681283211
 21
107.1707777666
  0
POLYLINE
  8
0
 62
7
  6
CONTINUOUS
 66
1
 70
0
  0
VERTEX
  8
0
 62
7
  6
CONTINUOUS
 10
179.6622229424
 20
106.5217341854
  0
VERTEX
  8
0
 62
7
  6
CONTINUOUS
 10
179.6525383393
 20
106.6286398132
  0
VERTEX
  8
0
 62
7
  6
CONTINUOUS
 10
179.6141679435
 20
106.7573995222
  0
VERTEX
  8
0
 62
7
  6
CONTINUOUS
 10
179.5522281044
 20
106.8709025217
  0
VERTEX
  8
0
 62
7
  6
CONTINUOUS
 10
179.4753311767
 20
106.9649902248
  0
VERTEX
  8
0
 62
7
  6
CONTINUOUS
 10
179.3903021321
 20
107.0412243603
  0
VERTEX
  8
0
 62
7
  6
CONTINUOUS
 10
179.2995964453
 20
107.1042063175
  0
VERTEX
  8
0
 62
7
  6
CONTINUOUS
 10
179.2025336266
 20
107.1583734017
  0
VERTEX
  8
0
 62
7
  6
CONTINUOUS
 10
179.0971938925
 20
107.2068747555
  0
VERTEX
  8
0
 62
7
  6
CONTINUOUS
 10
178.981586451
 20
107.2516492355
  0
VERTEX
  8
0
 62
7
  6
CONTINUOUS
 10
178.8532834366
 20
107.2940415258
  0
VERTEX
  8
0
 62
7
  6
CONTINUOUS
 10
178.7100641377
 20
107.334814603
  0
VERTEX
  8
0
 62
7
  6
CONTINUOUS
 10
178.5499588995
 20
107.3743487066
  0
VERTEX
  8
0
 62
7
  6
CONTINUOUS
 10
178.3712440596
 20
107.412778436
  0
VERTEX
  8
0
 62
7
  6
CONTINUOUS
 10
178.1723669025
 20
107.4500799899
  0
VERTEX
  8
0
 62
7
  6
CONTINUOUS
 10
177.9520007281
 20
107.4861046849
  0
VERTEX
  8
0
 62
7
  6
CONTINUOUS
 10
177.7090783207
 20
107.5206075424
  0
VERTEX
  8
0
 62
7
  6
CONTINUOUS
 10
177.4428051805
 20
107.5532670752
  0
VERTEX
  8
0
 62
7
  6
CONTINUOUS
 10
177.1524381058
 20
107.5837238809
  0
VERTEX
  8
0
 62
7
  6
CONTINUOUS
 10
176.8368307299
 20
107.6116109416
  0
VERTEX
  8
0
 62
7
  6
CONTINUOUS
 10
176.4949744509
 20
107.6364737062
  0
VERTEX
  8
0
 62
7
  6
CONTINUOUS
 10
176.1262158098
 20
107.6577558149
  0
VERTEX
  8
0
 62
7
  6
CONTINUOUS
 10
175.7308349226
 20
107.674783649
  0
VERTEX
  8
0
 62
7
  6
CONTINUOUS
 10
175.3106279887
 20
107.6867919234
  0
VERTEX
  8
0
 62
7
  6
CONTINUOUS
 10
174.868346516
 20
107.6929993058
  0
VERTEX
  8
0
 62
7
  6
CONTINUOUS
 10
174.4077013414
 20
107.6926346308
  0
VERTEX
  8
0
 62
7
  6
CONTINUOUS
 10
173.9333273788
 20
107.6849605014
  0
VERTEX
  8
0
 62
7
  6
CONTINUOUS
 10
173.4775305771
 20
107.670377267
  0
SEQEND
  0
LINE
  8
0
 62
9
  6
CONTINUOUS
 10
179.1622235466
 20
104.0044439603
 11
179.1622235466
 21
97.7346902902
  0
LINE
  8
0
 62
7
  6
CONTINUOUS
 10
179.6622235466
 20
98.2291982219
 11
179.6622235466
 21
106.5211641477
  0
POLYLINE
  8
0
 62
9
  6
CONTINUOUS
 66
1
 70
0
  0
VERTEX
  8
0
 62
9
  6
CONTINUOUS
 10
179.6622235466
 20
104.498951892
  0
VERTEX
  8
0
 62
9
  6
CONTINUOUS
 10
179.6526161868
 20
104.4024781803
  0
VERTEX
  8
0
 62
9
  6
CONTINUOUS
 10
179.6241633128
 20
104.3097118993
  0
VERTEX
  8
0
 62
9
  6
CONTINUOUS
 10
179.5779583527
 20
104.2242180051
  0
VERTEX
  8
0
 62
9
  6
CONTINUOUS
 10
179.5157769372
 20
104.1492819801
  0
VERTEX
  8
0
 62
9
  6
CONTINUOUS
 10
179.4400086631
 20
104.0877835737
  0
VERTEX
  8
0
 62
9
  6
CONTINUOUS
 10
179.3535652628
 20
104.0420861352
  0
VERTEX
  8
0
 62
9
  6
CONTINUOUS
 10
179.2597687076
 20
104.0139457915
  0
VERTEX
  8
0
 62
9
  6
CONTINUOUS
 10
179.1622235466
 20
104.0044439603
  0
SEQEND
  0
POLYLINE
  8
0
 62
9
  6
CONTINUOUS
 66
1
 70
0
  0
VERTEX
  8
0
 62
9
  6
CONTINUOUS
 10
179.6622232128
 20
98.2286268308
  0
VERTEX
  8
0
 62
9
  6
CONTINUOUS
 10
179.6526161826
 20
98.1327244894
  0
VERTEX
  8
0
 62
9
  6
CONTINUOUS
 10
179.6241632973
 20
98.0399581922
  0
VERTEX
  8
0
 62
9
  6
CONTINUOUS
 10
179.5779583222
 20
97.9544642897
  0
VERTEX
  8
0
 62
9
  6
CONTINUOUS
 10
179.5157768926
 20
97.8795282659
  0
VERTEX
  8
0
 62
9
  6
CONTINUOUS
 10
179.4400086109
 20
97.8180298691
  0
VERTEX
  8
0
 62
9
  6
CONTINUOUS
 10
179.3535652139
 20
97.7723324451
  0
VERTEX
  8
0
 62
9
  6
CONTINUOUS
 10
179.2597686761
 20
97.7441921152
  0
VERTEX
  8
0
 62
9
  6
CONTINUOUS
 10
179.1622235466
 20
97.7346902902
  0
SEQEND
  0
POLYLINE
  8
0
 62
9
  6
CONTINUOUS
 66
1
 70
0
  0
VERTEX
  8
0
 62
9
  6
CONTINUOUS
 10
179.1622235466
 20
97.7346902902
  0
VERTEX
  8
0
 62
9
  6
CONTINUOUS
 10
179.1386421263
 20
97.6659300721
  0
VERTEX
  8
0
 62
9
  6
CONTINUOUS
 10
179.0681436857
 20
97.5978902568
  0
VERTEX
  8
0
 62
9
  6
CONTINUOUS
 10
178.9515251184
 20
97.5313110302
  0
VERTEX
  8
0
 62
9
  6
CONTINUOUS
 10
178.7901077057
 20
97.4669029515
  0
VERTEX
  8
0
 62
9
  6
CONTINUOUS
 10
178.5857004191
 20
97.4053439178
  0
VERTEX
  8
0
 62
9
  6
CONTINUOUS
 10
178.3405729224
 20
97.3472763441
  0
VERTEX
  8
0
 62
9
  6
CONTINUOUS
 10
178.0574255053
 20
97.2933008919
  0
VERTEX
  8
0
 62
9
  6
CONTINUOUS
 10
177.7393369069
 20
97.2439679023
  0
VERTEX
  8
0
 62
9
  6
CONTINUOUS
 10
177.389720146
 20
97.1997733943
  0
VERTEX
  8
0
 62
9
  6
CONTINUOUS
 10
177.012279355
 20
97.1611558824
  0
VERTEX
  8
0
 62
9
  6
CONTINUOUS
 10
176.6109648515
 20
97.1284936072
  0
VERTEX
  8
0
 62
9
  6
CONTINUOUS
 10
176.1899304159
 20
97.1021026393
  0
VERTEX
  8
0
 62
9
  6
CONTINUOUS
 10
175.7534908141
 20
97.0822354909
  0
VERTEX
  8
0
 62
9
  6
CONTINUOUS
 10
175.3060699697
 20
97.0690800662
  0
VERTEX
  8
0
 62
9
  6
CONTINUOUS
 10
174.8521633628
 20
97.0627601354
  0
VERTEX
  8
0
 62
9
  6
CONTINUOUS
 10
174.3963461638
 20
97.0633356988
  0
VERTEX
  8
0
 62
9
  6
CONTINUOUS
 10
173.9432543163
 20
97.0707999929
  0
VERTEX
  8
0
 62
9
  6
CONTINUOUS
 10
173.4975378436
 20
97.0850766713
  0
SEQEND
  0
POLYLINE
  8
0
 62
9
  6
CONTINUOUS
 66
1
 70
0
  0
VERTEX
  8
0
 62
9
  6
CONTINUOUS
 10
179.6622235466
 20
106.5211641477
  0
VERTEX
  8
0
 62
9
  6
CONTINUOUS
 10
179.6360081572
 20
106.5899421847
  0
VERTEX
  8
0
 62
9
  6
CONTINUOUS
 10
179.5576665879
 20
106.6579796276
  0
VERTEX
  8
0
 62
9
  6
CONTINUOUS
 10
179.4280832426
 20
106.7245565153
  0
VERTEX
  8
0
 62
9
  6
CONTINUOUS
 10
179.2487270232
 20
106.7889621601
  0
VERTEX
  8
0
 62
9
  6
CONTINUOUS
 10
179.0216076314
 20
106.8505188122
  0
VERTEX
  8
0
 62
9
  6
CONTINUOUS
 10
178.7492468808
 20
106.9085841032
  0
VERTEX
  8
0
 62
9
  6
CONTINUOUS
 10
178.4346448968
 20
106.9625574483
  0
VERTEX
  8
0
 62
9
  6
CONTINUOUS
 10
178.081222287
 20
107.0118885632
  0
VERTEX
  8
0
 62
9
  6
CONTINUOUS
 10
177.6927710031
 20
107.0560814868
  0
VERTEX
  8
0
 62
9
  6
CONTINUOUS
 10
177.2734063059
 20
107.0946977641
  0
VERTEX
  8
0
 62
9
  6
CONTINUOUS
 10
176.8275167055
 20
107.1273592162
  0
VERTEX
  8
0
 62
9
  6
CONTINUOUS
 10
176.3597169894
 20
107.1537497947
  0
VERTEX
  8
0
 62
9
  6
CONTINUOUS
 10
175.8748008682
 20
107.1736169954
  0
VERTEX
  8
0
 62
9
  6
CONTINUOUS
 10
175.3776833951
 20
107.186772916
  0
VERTEX
  8
0
 62
9
  6
CONTINUOUS
 10
174.8733590106
 20
107.1930937836
  0
VERTEX
  8
0
 62
9
  6
CONTINUOUS
 10
174.366910517
 20
107.1925195729
  0
VERTEX
  8
0
 62
9
  6
CONTINUOUS
 10
173.8634885873
 20
107.1850570623
  0
VERTEX
  8
0
 62
9
  6
CONTINUOUS
 10
173.3681283211
 20
107.1707777666
  0
SEQEND
  0
LINE
  8
0
 62
2
  6
CONTINUOUS
 10
81.9912565848
 20
150.2955042747
 11
80.2312565848
 21
150.2955042747
  0
LINE
  8
DEFAULT_1
 62
2
  6
CENTER
 10
76.7112565848
 20
150.2955042747
 11
76.5112565848
 21
150.2955042747
  0
LINE
  8
0
 62
2
  6
CONTINUOUS
 10
56.5912565848
 20
150.2955042747
 11
54.8312565848
 21
150.2955042747
  0
LINE
  8
DEFAULT_1
 62
2
  6
CENTER
 10
51.3112565848
 20
150.2955042747
 11
51.1112565848
 21
150.2955042747
  0
LINE
  8
DEFAULT_1
 62
2
  6
CENTER
 10
60.1112565848
 20
150.2955042747
 11
60.3112565848
 21
150.2955042747
  0
LINE
  8
DEFAULT_1
 62
2
  6
CENTER
 10
85.5112565848
 20
150.2955042747
 11
85.7112565848
 21
150.2955042747
  0
LINE
  8
0
 62
7
  6
CONTINUOUS
 10
78.9262565848
 20
154.6955042747
 11
79.107013817
 21
154.6955042747
  0
LINE
  8
0
 62
7
  6
CONTINUOUS
 10
77.8262565848
 20
155.6955042747
 11
58.9962565848
 21
155.6955042747
  0
LINE
  8
0
 62
7
  6
CONTINUOUS
 10
58.6253281851
 20
153.5956250515
 11
59.1689945846
 21
152.9875672737
  0
LINE
  8
0
 62
7
  6
CONTINUOUS
 10
54.3366717217
 20
155.4207398364
 11
42.6056767621
 21
199.2014090492
  0
LINE
  8
0
 62
2
  6
CONTINUOUS
 10
55.7112565848
 20
151.1755042747
 11
55.7112565848
 21
149.4155042747
  0
LINE
  8
DEFAULT_1
 62
2
  6
CENTER
 10
55.7112565848
 20
145.8955042747
 11
55.7112565848
 21
145.6955042747
  0
LINE
  8
DEFAULT_1
 62
2
  6
CENTER
 10
55.7112565848
 20
154.6955042747
 11
55.7112565848
 21
154.8955042747
  0
LINE
  8
0
 62
7
  6
CONTINUOUS
 10
58.3962565848
 20
155.0955042747
 11
58.3962565848
 21
154.1955042747
  0
LINE
  8
0
 62
7
  6
CONTINUOUS
 10
59.2962565848
 20
152.6543010385
 11
59.2962565848
 21
147.909550587
  0
LINE
  8
DEFAULT_1
 62
2
  6
CENTER
 10
68.4112565848
 20
143.8955042747
 11
68.4112565848
 21
207.4955042747
  0
LINE
  8
0
 62
7
  6
CONTINUOUS
 10
77.5262565848
 20
147.909550587
 11
77.5262565848
 21
152.6543010385
  0
LINE
  8
0
 62
7
  6
CONTINUOUS
 10
78.4262565848
 20
154.1955042747
 11
78.4262565848
 21
155.0955042747
  0
LINE
  8
0
 62
7
  6
CONTINUOUS
 10
79.3112565848
 20
154.9955042747
 11
79.3112565848
 21
157.6171708543
  0
LINE
  8
0
 62
2
  6
CONTINUOUS
 10
81.1112565848
 20
151.1755042747
 11
81.1112565848
 21
149.4155042747
  0
LINE
  8
DEFAULT_1
 62
2
  6
CENTER
 10
81.1112565848
 20
145.8955042747
 11
81.1112565848
 21
145.6955042747
  0
LINE
  8
DEFAULT_1
 62
2
  6
CENTER
 10
81.1112565848
 20
154.6955042747
 11
81.1112565848
 21
154.8955042747
  0
LINE
  8
0
 62
7
  6
CONTINUOUS
 10
81.8112565848
 20
156.7652193964
 11
81.8112565848
 21
154.887889276
  0
LINE
  8
0
 62
7
  6
CONTINUOUS
 10
78.4262572435
 20
154.1955036261
 11
78.4340614483
 21
154.2835831906
  0
LINE
  8
0
 62
7
  6
CONTINUOUS
 10
78.4340614483
 20
154.2835831906
 11
78.4550574178
 21
154.3633135295
  0
LINE
  8
0
 62
7
  6
CONTINUOUS
 10
94.2168364075
 20
199.2014090492
 11
82.4858414479
 21
155.4207398364
  0
POLYLINE
  8
0
 62
7
  6
CONTINUOUS
 66
1
 70
0
  0
VERTEX
  8
0
 62
7
  6
CONTINUOUS
 10
78.4550574178
 20
154.3633135295
  0
VERTEX
  8
0
 62
7
  6
CONTINUOUS
 10
78.4857453758
 20
154.4338710902
  0
VERTEX
  8
0
 62
7
  6
CONTINUOUS
 10
78.5238046435
 20
154.4964605236
  0
VERTEX
  8
0
 62
7
  6
CONTINUOUS
 10
78.5665498802
 20
154.5513043177
  0
VERTEX
  8
0
 62
7
  6
CONTINUOUS
 10
78.611252318
 20
154.5990746349
  0
VERTEX
  8
0
 62
7
  6
CONTINUOUS
 10
78.6540854137
 20
154.6402686221
  0
VERTEX
  8
0
 62
7
  6
CONTINUOUS
 10
78.6904031666
 20
154.674656366
  0
VERTEX
  8
0
 62
7
  6
CONTINUOUS
 10
78.7191847974
 20
154.7037914133
  0
VERTEX
  8
0
 62
7
  6
CONTINUOUS
 10
78.743002402
 20
154.730930421
  0
VERTEX
  8
0
 62
7
  6
CONTINUOUS
 10
78.7632817583
 20
154.7579140673
  0
VERTEX
  8
0
 62
7
  6
CONTINUOUS
 10
78.7807078265
 20
154.7854125289
  0
VERTEX
  8
0
 62
7
  6
CONTINUOUS
 10
78.7953838859
 20
154.8129565773
  0
VERTEX
  8
0
 62
7
  6
CONTINUOUS
 10
78.807599644
 20
154.8399524039
  0
VERTEX
  8
0
 62
7
  6
CONTINUOUS
 10
78.8192135006
 20
154.8699356742
  0
VERTEX
  8
0
 62
7
  6
CONTINUOUS
 10
78.8307073865
 20
154.9046571067
  0
VERTEX
  8
0
 62
7
  6
CONTINUOUS
 10
78.8417148332
 20
154.9434390902
  0
VERTEX
  8
0
 62
7
  6
CONTINUOUS
 10
78.852354275
 20
154.9867176149
  0
SEQEND
  0
LINE
  8
0
 62
7
  6
CONTINUOUS
 10
77.653518585
 20
152.9875672737
 11
78.1971849845
 21
153.5956250515
  0
LINE
  8
0
 62
7
  6
CONTINUOUS
 10
47.4353058935
 20
205.4955042747
 11
89.3872072761
 21
205.4955042747
  0
ARC
  8
0
 62
7
  6
CONTINUOUS
 10
51.8112565848
 20
102.9251811848
 40
0.5
 50
180.0
 51
270.0
  0
ARC
  8
0
 62
7
  6
CONTINUOUS
 10
85.0112565848
 20
101.8251811848
 40
0.5
 50
0.0
 51
90.0
  0
ARC
  8
0
 62
7
  6
CONTINUOUS
 10
93.8872056727
 20
99.5788812111
 40
0.5
 50
0.0000068266
 51
81.5000000005
  0
ARC
  8
0
 62
7
  6
CONTINUOUS
 10
42.9353074791
 20
107.1936934168
 40
0.5
 50
81.4999999997
 51
180.0000067508
  0
ARC
  8
0
 62
7
  6
CONTINUOUS
 10
42.9353074791
 20
105.1714811611
 40
0.5
 50
180.0000067508
 51
261.5000000005
  0
ARC
  8
0
 62
7
  6
CONTINUOUS
 10
93.8872056726
 20
97.5566689554
 40
0.5
 50
261.4999999998
 51
0.0000068267
  0
ARC
  8
0
 62
7
  6
CONTINUOUS
 10
57.8962565848
 20
102.9251811848
 40
0.5
 50
270.0
 51
272.3419240191
  0
ARC
  8
0
 62
7
  6
CONTINUOUS
 10
78.9262565848
 20
101.8251811848
 40
0.5
 50
90.0
 51
92.3419240191
  0
ARC
  8
0
 62
7
  6
CONTINUOUS
 10
82.1112573668
 20
98.5077113193
 40
0.3000002932
 50
81.5001510096
 51
179.9999776794
  0
ARC
  8
0
 62
7
  6
CONTINUOUS
 10
79.0112565848
 20
98.9710095403
 40
0.3
 50
0.0
 51
81.5
  0
ARC
  8
0
 62
7
  6
CONTINUOUS
 10
54.7112558028
 20
106.2426510503
 40
0.3000002932
 50
261.7390985413
 51
359.9999776794
  0
ARC
  8
0
 62
7
  6
CONTINUOUS
 10
57.8112565848
 20
105.7793528292
 40
0.3
 50
180.0
 51
261.5
  0
ARC
  8
0
 62
7
  6
CONTINUOUS
 10
120.5622235466
 20
101.8251811848
 40
0.5
 50
90.0
 51
180.0
  0
ARC
  8
0
 62
7
  6
CONTINUOUS
 10
120.5622248998
 20
98.8167972096
 40
0.5
 50
180.0000162435
 51
255.000000002
  0
ARC
  8
0
 62
7
  6
CONTINUOUS
 10
128.5583921767
 20
96.6742306452
 40
0.5
 50
254.9999154969
 51
319.0069551025
  0
ARC
  8
0
 62
7
  6
CONTINUOUS
 10
128.3622235466
 20
96.7267938712
 40
0.5
 50
255.0
 51
360.0
  0
ARC
  8
0
 62
7
  6
CONTINUOUS
 10
120.5622235466
 20
102.9251811848
 40
0.5
 50
180.0
 51
270.0
  0
ARC
  8
0
 62
7
  6
CONTINUOUS
 10
120.5622248804
 20
105.9335651548
 40
0.5
 50
104.9999999985
 51
179.99998399
  0
ARC
  8
0
 62
7
  6
CONTINUOUS
 10
128.5583921767
 20
108.0761317244
 40
0.5
 50
40.9930442647
 51
105.0000845031
  0
ARC
  8
0
 62
9
  6
CONTINUOUS
 10
137.3218052288
 20
87.7642777214
 40
12.5
 50
116.2967261245
 51
130.7505129123
  0
ARC
  8
0
 62
7
  6
CONTINUOUS
 10
137.3218052288
 20
87.7642777214
 40
12.0
 50
108.6261757635
 51
134.2187875593
  0
ARC
  8
0
 62
7
  6
CONTINUOUS
 10
129.1622235339
 20
96.1494567091
 40
0.2999999992
 50
134.2187848983
 51
139.0069526076
  0
ARC
  8
0
 62
9
  6
CONTINUOUS
 10
137.3218052288
 20
116.9860846481
 40
12.5
 50
228.5951212992
 51
239.2571096249
  0
ARC
  8
0
 62
7
  6
CONTINUOUS
 10
137.3218052288
 20
116.9860846481
 40
12.0
 50
225.7521155549
 51
246.0509372587
  0
ARC
  8
0
 62
7
  6
CONTINUOUS
 10
129.1622235352
 20
108.6009056597
 40
0.2999999993
 50
220.9930471334
 51
225.7812148169
  0
ARC
  8
0
 62
7
  6
CONTINUOUS
 10
55.7112565848
 20
150.2955042747
 40
4.4
 50
113.2002369293
 51
322.2814627975
  0
CIRCLE
  8
0
 62
7
  6
CONTINUOUS
 10
55.7112565848
 20
150.2955042747
 40
2.6
  0
ARC
  8
0
 62
7
  6
CONTINUOUS
 10
53.3707458954
 20
155.1619207913
 40
1.0
 50
295.6853011765
 51
15.0
  0
ARC
  8
0
 62
7
  6
CONTINUOUS
 10
58.7962565848
 20
147.909550587
 40
0.5
 50
322.2814627974
 51
360.0
  0
ARC
  8
0
 62
7
  6
CONTINUOUS
 10
59.2962565848
 20
154.1955042747
 40
0.9
 50
180.0
 51
221.8
  0
ARC
  8
0
 62
7
  6
CONTINUOUS
 10
58.9962565848
 20
155.0955042747
 40
0.6
 50
90.0
 51
180.0
  0
ARC
  8
0
 62
7
  6
CONTINUOUS
 10
58.7962565848
 20
152.6543010385
 40
0.5
 50
0.0
 51
41.8
  0
ARC
  8
0
 62
7
  6
CONTINUOUS
 10
47.4353058935
 20
200.4955042747
 40
5.0
 50
90.0
 51
195.0
  0
ARC
  8
0
 62
7
  6
CONTINUOUS
 10
78.0262565848
 20
147.909550587
 40
0.5
 50
180.0
 51
217.7185372025
  0
ARC
  8
0
 62
7
  6
CONTINUOUS
 10
77.5262565848
 20
154.1955042747
 40
0.9
 50
318.2
 51
360.0
  0
ARC
  8
0
 62
7
  6
CONTINUOUS
 10
77.8262565848
 20
155.0955042747
 40
0.6
 50
0.0
 51
90.0
  0
ARC
  8
0
 62
7
  6
CONTINUOUS
 10
78.0262565848
 20
152.6543010385
 40
0.5
 50
138.2
 51
180.0
  0
ARC
  8
0
 62
7
  6
CONTINUOUS
 10
78.9262565848
 20
154.1955042747
 40
0.5
 50
90.0
 51
180.0
  0
ARC
  8
0
 62
7
  6
CONTINUOUS
 10
79.0112565848
 20
154.9955042747
 40
0.3
 50
270.0
 51
360.0
  0
ARC
  8
0
 62
7
  6
CONTINUOUS
 10
81.1112565848
 20
150.2955042747
 40
4.4
 50
217.7185372025
 51
78.4407071878
  0
CIRCLE
  8
0
 62
7
  6
CONTINUOUS
 10
81.1112565848
 20
150.2955042747
 40
2.6
  0
ARC
  8
0
 62
7
  6
CONTINUOUS
 10
83.4517672742
 20
155.1619207913
 40
1.0
 50
165.0
 51
244.3146988235
  0
ARC
  8
0
 62
7
  6
CONTINUOUS
 10
82.1112565848
 20
154.887889276
 40
0.3
 50
180.0
 51
257.7155061437
  0
ARC
  8
0
 62
7
  6
CONTINUOUS
 10
89.3872072761
 20
200.4955042747
 40
5.0
 50
345.0
 51
90.0
  0
ENDSEC
  0
EOF
