  0
SECTION
  2
HEADER
  9
$EXTMAX
 10
210.0
 20
297.0
 30
0.0
  9
$EXTMIN
 10
0.0
 20
0.0
 30
0.0
  9
$LIMMIN
 10
0.0
 20
0.0
  9
$LIMMAX
 10
210.0
 20
297.0
  9
$VIEWCTR
 10
105.0
 20
148.5
  9
$VIEWSIZE
 40
297.0
  9
$CLAYER
  8
0
  9
$LTSCALE
 40
19.36
  9
$CELTYPE
  6
BYLAYER
  9
$DIMSCALE
 40
1.0
  9
$DIMASZ
 40
3.5
  9
$DIMEXO
 40
2.2
  9
$DIMDLI
 40
13.376
  9
$DIMEXE
 40
6.336
  9
$DIMCEN
 40
3.168
  9
$DIMLFAC
 40
1.0
  9
$DIMBLK
  1
_FILLED
  9
$DIMTXT
 40
3.5
  9
$PDMODE
 70
3
  9
$PDSIZE
 40
0.3125
  9
$TILEMODE
 70
1
  0
ENDSEC
  0
SECTION
  2
TABLES
  0
TABLE
  2
LTYPE
 70
6
  0
LTYPE
  2
BYBLOCK
 70
0
  3

 72
65
 73
0
 40
0.0
  0
LTYPE
  2
BYLAYER
 70
0
  3

 72
65
 73
0
 40
0.0
  0
LTYPE
  2
CONTINUOUS
 70
64
  3
Solid line
 72
65
 73
0
 40
0.0
  0
LTYPE
  2
CENTER
 70
64
  3
____ _ ____ _ ____ _ ____ _ ____ _ ____ _ ____
 72
65
 73
4
 40
0.6
 49
0.375
 49
-0.075
 49
0.075
 49
-0.075
  0
LTYPE
  2
HIDDEN
 70
64
  3
- - - - - - - - - - - - - - - - - - - -
 72
65
 73
2
 40
0.2
 49
0.1
 49
-0.1
  0
LTYPE
  2
PHANTOM
 70
64
  3
_____ _ _ _____ _ _ _____ _ _ _____
 72
65
 73
6
 40
0.8
 49
0.45
 49
-0.05
 49
0.1
 49
-0.05
 49
0.1
 49
-0.05
  0
LTYPE
  2
DOT
 70
64
  3
. . . . . . . . . . . . . . . . . . . .
 72
65
 73
2
 40
0.2
 49
0.1
 49
-0.1
  0
LTYPE
  2
DASHED
 70
64
  3
- - - - - - - - - - - - - - - - - - - -
 72
65
 73
2
 40
0.2
 49
0.1
 49
-0.1
  0
ENDTAB
  0
TABLE
  2
LAYER
 70
36
  0
LAYER
  2
0
 70
0
 62
7
  6
CONTINUOUS
  0
LAYER
  2
DEFAULT_1
 70
0
 62
7
  6
CENTER
  0
LAYER
  2
DEFAULT_2
 70
0
 62
8
  6
HIDDEN
  0
LAYER
  2
DEFAULT_3
 70
0
 62
7
  6
PHANTOM
  0
LAYER
  2
AXES
 70
0
 62
7
  6
CONTINUOUS
  0
LAYER
  2
CSYS
 70
0
 62
7
  6
CONTINUOUS
  0
LAYER
  2
CURVE
 70
0
 62
7
  6
CONTINUOUS
  0
LAYER
  2
CURVES
 70
0
 62
7
  6
CONTINUOUS
  0
LAYER
  2
PLANES
 70
0
 62
7
  6
CONTINUOUS
  0
LAYER
  2
SURFACE
 70
0
 62
7
  6
CONTINUOUS
  0
ENDTAB
  0
TABLE
  2
STYLE
 70
1
  0
STYLE
  2
STANDARD
 70
0
 40
0.0
 41
0.8
 50
0.0
 71
0
 42
0.2
  3
txt
  4

  0
STYLE
  2
TEXTSTYLE_1
 70
0
 40
0.0
 41
0.8
 50
0.0
 71
0
 42
0.2
  3
gdt
  4

  0
STYLE
  2
TEXTSTYLE_2
 70
0
 40
0.0
 41
0.6
 50
0.0
 71
0
 42
0.2
  3
txt
  4

  0
STYLE
  2
TEXTSTYLE_3
 70
0
 40
0.0
 41
1.0
 50
0.0
 71
0
 42
0.2
  3
ftb_____.ttf
  4

  0
STYLE
  2
TEXTSTYLE_4
 70
0
 40
0.0
 41
1.0
 50
0.0
 71
0
 42
0.2
  3
fti_____.ttf
  4

  0
STYLE
  2
TEXTSTYLE_5
 70
0
 40
0.0
 41
1.0
 50
0.0
 71
0
 42
0.2
  3
frutiger light.ttf
  4

  0
STYLE
  2
TEXTSTYLE_6
 70
0
 40
0.0
 41
0.7
 50
0.0
 71
0
 42
0.2
  3
txt
  4

  0
STYLE
  2
TEXTSTYLE_7
 70
0
 40
0.0
 41
0.45
 50
0.0
 71
0
 42
0.2
  3
txt
  4

  0
ENDTAB
  0
ENDSEC
  0
SECTION
  2
BLOCKS
  0
BLOCK
  8
0
 62
2
  6
CONTINUOUS
  2
SYMBOL_8_BL1
 70
64
 10
173.5956734183
 20
35.5937998301
  0
TEXT
  8
0
 62
7
  6
CONTINUOUS
 10
164.6539584268
 20
30.6865562072
  7
TEXTSTYLE_4
 40
1.0655737705
  1
The brand for plastic modular belts and chains
 41
1.0
 72
0
  0
LINE
  8
0
 62
7
  6
CONTINUOUS
 10
149.5737418074
 20
36.1675703219
 11
149.5737418074
 21
34.0364227809
  0
LINE
  8
0
 62
7
  6
CONTINUOUS
 10
149.8628043005
 20
31.0454914852
 11
149.8628043005
 21
31.1422825445
  0
LINE
  8
0
 62
7
  6
CONTINUOUS
 10
149.5737418074
 20
31.1100188581
 11
149.6315543091
 21
30.9164367395
  0
LINE
  8
0
 62
7
  6
CONTINUOUS
 10
150.9671844304
 20
33.9544555678
 11
150.9671844304
 21
36.1675703219
  0
LINE
  8
0
 62
7
  6
CONTINUOUS
 10
151.8862417523
 20
32.1101932727
 11
151.8862417523
 21
30.5937998301
  0
LINE
  8
0
 62
7
  6
CONTINUOUS
 10
152.1753043074
 20
30.5937998301
 11
152.1753043074
 21
31.3358647082
  0
LINE
  8
0
 62
7
  6
CONTINUOUS
 10
152.1753043074
 20
31.4649194539
 11
152.1753043074
 21
32.1101932727
  0
LINE
  8
0
 62
7
  6
CONTINUOUS
 10
149.6315543091
 20
31.3036010218
 11
149.5737418074
 21
31.1100188581
  0
LINE
  8
0
 62
7
  6
CONTINUOUS
 10
149.9784292936
 20
30.8841730531
 11
149.8628043005
 21
31.0454914852
  0
LINE
  8
0
 62
7
  6
CONTINUOUS
 10
151.0768668626
 20
31.400392081
 11
151.1346793074
 21
31.3036010218
  0
LINE
  8
0
 62
7
  6
CONTINUOUS
 10
151.4237418626
 20
31.3036010218
 11
151.3659292523
 21
31.4326557675
  0
LINE
  8
0
 62
7
  6
CONTINUOUS
 10
152.852430332
 20
36.1675703219
 11
152.852430332
 21
34.3642916334
  0
LINE
  8
0
 62
7
  6
CONTINUOUS
 10
152.852430332
 20
33.0528162235
 11
152.852430332
 21
32.3970785186
  0
LINE
  8
0
 62
7
  6
CONTINUOUS
 10
153.2159293074
 20
31.2390736489
 11
153.2159293074
 21
30.5937998301
  0
LINE
  8
0
 62
7
  6
CONTINUOUS
 10
153.5049916972
 20
30.5937998301
 11
153.5049916972
 21
31.2390736489
  0
LINE
  8
0
 62
7
  6
CONTINUOUS
 10
149.8628043005
 20
31.1422825445
 11
149.9206168074
 21
31.2713373354
  0
LINE
  8
0
 62
7
  6
CONTINUOUS
 10
149.6315543091
 20
30.9164367395
 11
149.7471793074
 21
30.7873819712
  0
LINE
  8
0
 62
7
  6
CONTINUOUS
 10
153.1581166972
 20
31.3681283946
 11
153.2159293074
 21
31.2390736489
  0
LINE
  8
0
 62
7
  6
CONTINUOUS
 10
153.9674919177
 20
30.8841730531
 11
154.0253041972
 21
30.7551182848
  0
LINE
  8
0
 62
7
  6
CONTINUOUS
 10
153.5049916972
 20
31.2390736489
 11
153.4471794177
 21
31.400392081
  0
LINE
  8
0
 62
7
  6
CONTINUOUS
 10
153.9674919177
 20
31.4326557675
 11
153.9674919177
 21
31.3681283946
  0
LINE
  8
0
 62
7
  6
CONTINUOUS
 10
153.9674919177
 20
30.9809641124
 11
153.9674919177
 21
30.8841730531
  0
LINE
  8
0
 62
7
  6
CONTINUOUS
 10
154.245872955
 20
32.3970785186
 11
154.245872955
 21
36.1675703219
  0
LINE
  8
0
 62
7
  6
CONTINUOUS
 10
154.2565543074
 20
30.8519093441
 11
154.2565543074
 21
30.9164367395
  0
LINE
  8
0
 62
7
  6
CONTINUOUS
 10
154.5737418074
 20
36.1675703219
 11
154.5737418074
 21
32.3970785186
  0
LINE
  8
0
 62
7
  6
CONTINUOUS
 10
151.3659292523
 20
30.7873819712
 11
151.4237418626
 21
30.9164367395
  0
LINE
  8
0
 62
7
  6
CONTINUOUS
 10
155.759679528
 20
30.6905909007
 11
155.7018665869
 21
30.8519093441
  0
LINE
  8
0
 62
7
  6
CONTINUOUS
 10
155.412804528
 20
31.3681283946
 11
155.412804528
 21
31.2713373354
  0
LINE
  8
0
 62
7
  6
CONTINUOUS
 10
155.412804528
 20
31.1422825445
 11
155.412804528
 21
30.9487004259
  0
LINE
  8
0
 62
7
  6
CONTINUOUS
 10
155.7018665869
 20
30.8519093441
 11
155.7018665869
 21
31.3681283946
  0
LINE
  8
0
 62
7
  6
CONTINUOUS
 10
155.9671844304
 20
32.3970785186
 11
155.9671844304
 21
34.2003572071
  0
LINE
  8
0
 62
7
  6
CONTINUOUS
 10
155.9671844304
 20
35.511832617
 11
155.9671844304
 21
36.1675703219
  0
LINE
  8
0
 62
7
  6
CONTINUOUS
 10
156.279992028
 20
32.1101932727
 11
156.279992028
 21
31.9488748406
  0
LINE
  8
0
 62
7
  6
CONTINUOUS
 10
156.279992028
 20
31.626237886
 11
156.279992028
 21
30.5937998301
  0
LINE
  8
0
 62
7
  6
CONTINUOUS
 10
156.5690540869
 20
30.5937998301
 11
156.5690540869
 21
31.626237886
  0
LINE
  8
0
 62
7
  6
CONTINUOUS
 10
156.5690540869
 20
31.9488748406
 11
156.5690540869
 21
32.1101932727
  0
LINE
  8
0
 62
7
  6
CONTINUOUS
 10
151.1346793074
 20
30.9164367395
 11
151.0768668626
 21
30.8196456577
  0
LINE
  8
0
 62
7
  6
CONTINUOUS
 10
153.4471794177
 20
31.400392081
 11
153.3893668074
 21
31.4649194539
  0
LINE
  8
0
 62
7
  6
CONTINUOUS
 10
154.3143669177
 20
30.7873819712
 11
154.2565543074
 21
30.8519093441
  0
LINE
  8
0
 62
7
  6
CONTINUOUS
 10
155.4706168074
 20
30.6583272086
 11
155.5284290869
 21
30.5937998301
  0
LINE
  8
0
 62
7
  6
CONTINUOUS
 10
155.412804528
 20
30.7551182848
 11
155.4706168074
 21
30.6583272086
  0
LINE
  8
0
 62
7
  6
CONTINUOUS
 10
155.8174918074
 20
30.5937998301
 11
155.759679528
 21
30.6905909007
  0
LINE
  8
0
 62
7
  6
CONTINUOUS
 10
155.7018665869
 20
31.3681283946
 11
155.6440543074
 21
31.4649194539
  0
LINE
  8
0
 62
7
  6
CONTINUOUS
 10
157.0315543074
 20
31.626237886
 11
157.0315543074
 21
30.5937998301
  0
LINE
  8
0
 62
7
  6
CONTINUOUS
 10
157.320617028
 20
30.5937998301
 11
157.320617028
 21
31.3358647082
  0
LINE
  8
0
 62
7
  6
CONTINUOUS
 10
157.320617028
 20
31.4649194539
 11
157.320617028
 21
31.626237886
  0
LINE
  8
0
 62
7
  6
CONTINUOUS
 10
157.852430332
 20
34.6101932727
 11
157.852430332
 21
32.3970785186
  0
LINE
  8
0
 62
7
  6
CONTINUOUS
 10
149.7471793074
 20
31.4326557675
 11
149.6315543091
 21
31.3036010218
  0
LINE
  8
0
 62
7
  6
CONTINUOUS
 10
149.9206168074
 20
31.2713373354
 11
149.9784292936
 21
31.3358647082
  0
LINE
  8
0
 62
7
  6
CONTINUOUS
 10
149.7471793074
 20
30.7873819712
 11
149.8628043005
 21
30.7228545871
  0
LINE
  8
0
 62
7
  6
CONTINUOUS
 10
150.1518667936
 20
30.7873819712
 11
149.9784292936
 21
30.8841730531
  0
LINE
  8
0
 62
7
  6
CONTINUOUS
 10
155.3549915869
 20
31.4326557675
 11
155.412804528
 21
31.3681283946
  0
LINE
  8
0
 62
7
  6
CONTINUOUS
 10
158.3034290869
 20
31.3681283946
 11
158.361242028
 21
31.2068099625
  0
LINE
  8
0
 62
7
  6
CONTINUOUS
 10
158.6503040869
 20
31.2068099625
 11
158.5924918074
 21
31.3681283946
  0
LINE
  8
0
 62
7
  6
CONTINUOUS
 10
158.361242028
 20
31.2068099625
 11
158.361242028
 21
30.5937998301
  0
LINE
  8
0
 62
7
  6
CONTINUOUS
 10
158.6503040869
 20
30.5937998301
 11
158.6503040869
 21
31.2068099625
  0
LINE
  8
0
 62
7
  6
CONTINUOUS
 10
159.1128043074
 20
31.4326557675
 11
159.1128043074
 21
31.3681283946
  0
LINE
  8
0
 62
7
  6
CONTINUOUS
 10
159.245872955
 20
32.3970785186
 11
159.245872955
 21
34.5282260596
  0
LINE
  8
0
 62
7
  6
CONTINUOUS
 10
159.5737418074
 20
36.1675703219
 11
159.5737418074
 21
32.3970785186
  0
LINE
  8
0
 62
7
  6
CONTINUOUS
 10
154.2565543074
 20
30.9164367395
 11
154.3143669177
 21
31.0132277988
  0
LINE
  8
0
 62
7
  6
CONTINUOUS
 10
149.8628043005
 20
30.7228545871
 11
150.0362418212
 21
30.6583272086
  0
LINE
  8
0
 62
7
  6
CONTINUOUS
 10
151.3659292523
 20
31.4326557675
 11
151.1924917523
 21
31.5294468267
  0
LINE
  8
0
 62
7
  6
CONTINUOUS
 10
154.0253041972
 20
30.7551182848
 11
154.1987416972
 21
30.6583272086
  0
LINE
  8
0
 62
7
  6
CONTINUOUS
 10
153.0424918074
 20
31.4326557675
 11
153.1581166972
 21
31.3681283946
  0
LINE
  8
0
 62
7
  6
CONTINUOUS
 10
153.3893668074
 20
31.4649194539
 11
153.2737419177
 21
31.5294468267
  0
LINE
  8
0
 62
7
  6
CONTINUOUS
 10
159.1128043074
 20
30.8519093441
 11
159.228429528
 21
30.7228545871
  0
LINE
  8
0
 62
7
  6
CONTINUOUS
 10
159.4596793074
 20
30.7873819712
 11
159.401867028
 21
30.8519093441
  0
LINE
  8
0
 62
7
  6
CONTINUOUS
 10
159.1128043074
 20
31.3681283946
 11
159.228429528
 21
31.2390736489
  0
LINE
  8
0
 62
7
  6
CONTINUOUS
 10
158.5924918074
 20
31.3681283946
 11
158.534679528
 21
31.4649194539
  0
LINE
  8
0
 62
7
  6
CONTINUOUS
 10
160.9628038663
 20
30.7873819712
 11
160.9628038663
 21
30.8519093441
  0
LINE
  8
0
 62
7
  6
CONTINUOUS
 10
160.9671844304
 20
32.3970785186
 11
160.9671844304
 21
36.1675703219
  0
LINE
  8
0
 62
7
  6
CONTINUOUS
 10
154.0253041972
 20
31.4971831403
 11
153.9674919177
 21
31.4326557675
  0
LINE
  8
0
 62
7
  6
CONTINUOUS
 10
150.9034292799
 20
31.4649194539
 11
151.0768668626
 21
31.400392081
  0
LINE
  8
0
 62
7
  6
CONTINUOUS
 10
155.6440543074
 20
31.4649194539
 11
155.5284290869
 21
31.5294468267
  0
LINE
  8
0
 62
7
  6
CONTINUOUS
 10
159.4596793074
 20
31.3036010218
 11
159.401867028
 21
31.3681283946
  0
LINE
  8
0
 62
7
  6
CONTINUOUS
 10
160.615929528
 20
30.9164367395
 11
160.6737418074
 21
30.8519093441
  0
LINE
  8
0
 62
7
  6
CONTINUOUS
 10
160.9628038663
 20
30.8519093441
 11
160.8471793074
 21
30.9809641124
  0
LINE
  8
0
 62
7
  6
CONTINUOUS
 10
160.615929528
 20
31.4326557675
 11
160.6737418074
 21
31.3681283946
  0
LINE
  8
0
 62
7
  6
CONTINUOUS
 10
160.9628038663
 20
31.3681283946
 11
160.8471793074
 21
31.4971831403
  0
LINE
  8
0
 62
7
  6
CONTINUOUS
 10
154.2565543074
 20
31.3681283946
 11
154.3143669177
 21
31.4326557675
  0
LINE
  8
0
 62
7
  6
CONTINUOUS
 10
154.0831168074
 20
31.1100188581
 11
153.9674919177
 21
30.9809641124
  0
LINE
  8
0
 62
7
  6
CONTINUOUS
 10
155.412804528
 20
30.9487004259
 11
155.3549915869
 21
30.8841730531
  0
LINE
  8
0
 62
7
  6
CONTINUOUS
 10
155.3549915869
 20
30.6905909007
 11
155.412804528
 21
30.7551182848
  0
LINE
  8
0
 62
7
  6
CONTINUOUS
 10
154.1987416972
 20
30.6583272086
 11
154.3143669177
 21
30.6260635193
  0
LINE
  8
0
 62
7
  6
CONTINUOUS
 10
151.1924917523
 20
31.5294468267
 11
150.9612418074
 21
31.5939741996
  0
LINE
  8
0
 62
7
  6
CONTINUOUS
 10
154.5456166972
 20
30.7228545871
 11
154.3143669177
 21
30.7873819712
  0
LINE
  8
0
 62
7
  6
CONTINUOUS
 10
153.2737419177
 20
31.5294468267
 11
153.1003044177
 21
31.5939741996
  0
LINE
  8
0
 62
7
  6
CONTINUOUS
 10
155.5284290869
 20
31.5294468267
 11
155.3549915869
 21
31.5939741996
  0
LINE
  8
0
 62
7
  6
CONTINUOUS
 10
158.187804528
 20
31.4326557675
 11
158.3034290869
 21
31.3681283946
  0
LINE
  8
0
 62
7
  6
CONTINUOUS
 10
158.534679528
 20
31.4649194539
 11
158.4190543074
 21
31.5294468267
  0
LINE
  8
0
 62
7
  6
CONTINUOUS
 10
150.0362418212
 20
30.6583272086
 11
150.2096793212
 21
30.6260635193
  0
LINE
  8
0
 62
7
  6
CONTINUOUS
 10
150.498741835
 20
30.7228545871
 11
150.1518667936
 21
30.7873819712
  0
LINE
  8
0
 62
7
  6
CONTINUOUS
 10
152.9268669177
 20
31.4649194539
 11
153.0424918074
 21
31.4326557675
  0
LINE
  8
0
 62
7
  6
CONTINUOUS
 10
155.239367028
 20
31.4649194539
 11
155.3549915869
 21
31.4326557675
  0
LINE
  8
0
 62
7
  6
CONTINUOUS
 10
159.575304528
 20
30.7551182848
 11
159.4596793074
 21
30.7873819712
  0
LINE
  8
0
 62
7
  6
CONTINUOUS
 10
158.0721793074
 20
31.4649194539
 11
158.187804528
 21
31.4326557675
  0
LINE
  8
0
 62
7
  6
CONTINUOUS
 10
159.228429528
 20
30.7228545871
 11
159.401867028
 21
30.6583272086
  0
LINE
  8
0
 62
7
  6
CONTINUOUS
 10
158.4190543074
 20
31.5294468267
 11
158.2456168074
 21
31.5939741996
  0
LINE
  8
0
 62
7
  6
CONTINUOUS
 10
159.6331168074
 20
31.2390736489
 11
159.4596793074
 21
31.3036010218
  0
LINE
  8
0
 62
7
  6
CONTINUOUS
 10
160.442492028
 20
30.9809641124
 11
160.615929528
 21
30.9164367395
  0
LINE
  8
0
 62
7
  6
CONTINUOUS
 10
160.8471793074
 20
31.4971831403
 11
160.6737418074
 21
31.5617105132
  0
LINE
  8
0
 62
7
  6
CONTINUOUS
 10
159.228429528
 20
31.2390736489
 11
159.4596793074
 21
31.1422825445
  0
LINE
  8
0
 62
7
  6
CONTINUOUS
 10
160.8471793074
 20
30.9809641124
 11
160.615929528
 21
31.0777551716
  0
LINE
  8
0
 62
7
  6
CONTINUOUS
 10
159.401867028
 20
31.3681283946
 11
159.4596793074
 21
31.4326557675
  0
LINE
  8
0
 62
7
  6
CONTINUOUS
 10
149.8628043005
 20
31.4971831403
 11
149.7471793074
 21
31.4326557675
  0
LINE
  8
0
 62
7
  6
CONTINUOUS
 10
149.9784292936
 20
31.3358647082
 11
150.1518667936
 21
31.4326557675
  0
LINE
  8
0
 62
7
  6
CONTINUOUS
 10
152.2909293626
 20
31.5294468267
 11
152.1753043074
 21
31.4649194539
  0
LINE
  8
0
 62
7
  6
CONTINUOUS
 10
152.1753043074
 20
31.3358647082
 11
152.2909293626
 21
31.400392081
  0
LINE
  8
0
 62
7
  6
CONTINUOUS
 10
151.1924917523
 20
30.6905909007
 11
151.3659292523
 21
30.7873819712
  0
LINE
  8
0
 62
7
  6
CONTINUOUS
 10
150.2096793212
 20
30.6260635193
 11
150.5565542799
 21
30.5937998301
  0
LINE
  8
0
 62
7
  6
CONTINUOUS
 10
154.3143669177
 20
30.6260635193
 11
154.5456166972
 21
30.5937998301
  0
LINE
  8
0
 62
7
  6
CONTINUOUS
 10
152.6956168074
 20
31.4971831403
 11
152.9268669177
 21
31.4649194539
  0
LINE
  8
0
 62
7
  6
CONTINUOUS
 10
155.0081169177
 20
31.4971831403
 11
155.239367028
 21
31.4649194539
  0
LINE
  8
0
 62
7
  6
CONTINUOUS
 10
159.4596793074
 20
31.1422825445
 11
160.442492028
 21
30.9809641124
  0
LINE
  8
0
 62
7
  6
CONTINUOUS
 10
160.615929528
 20
31.0777551716
 11
159.6331168074
 21
31.2390736489
  0
LINE
  8
0
 62
7
  6
CONTINUOUS
 10
153.1003044177
 20
31.5939741996
 11
152.9268669177
 21
31.626237886
  0
LINE
  8
0
 62
7
  6
CONTINUOUS
 10
159.401867028
 20
30.6583272086
 11
159.575304528
 21
30.6260635193
  0
LINE
  8
0
 62
7
  6
CONTINUOUS
 10
158.2456168074
 20
31.5939741996
 11
158.0721793074
 21
31.626237886
  0
LINE
  8
0
 62
7
  6
CONTINUOUS
 10
160.5003043074
 20
31.4649194539
 11
160.615929528
 21
31.4326557675
  0
LINE
  8
0
 62
7
  6
CONTINUOUS
 10
160.6737418074
 20
30.8519093441
 11
160.615929528
 21
30.7873819712
  0
LINE
  8
0
 62
7
  6
CONTINUOUS
 10
159.228429528
 20
31.5294468267
 11
159.1128043074
 21
31.4326557675
  0
LINE
  8
0
 62
7
  6
CONTINUOUS
 10
154.1409294177
 20
31.5617105132
 11
154.0253041972
 21
31.4971831403
  0
LINE
  8
0
 62
7
  6
CONTINUOUS
 10
154.1987416972
 20
31.1745462761
 11
154.0831168074
 21
31.1100188581
  0
LINE
  8
0
 62
7
  6
CONTINUOUS
 10
154.3143669177
 20
31.0132277988
 11
154.4299918074
 21
31.0777551716
  0
LINE
  8
0
 62
7
  6
CONTINUOUS
 10
151.8862417523
 20
30.5937998301
 11
152.1753043074
 21
30.5937998301
  0
LINE
  8
0
 62
7
  6
CONTINUOUS
 10
153.2159293074
 20
30.5937998301
 11
153.5049916972
 21
30.5937998301
  0
LINE
  8
0
 62
7
  6
CONTINUOUS
 10
154.5456166972
 20
30.5937998301
 11
154.8924916972
 21
30.5937998301
  0
LINE
  8
0
 62
7
  6
CONTINUOUS
 10
155.5284290869
 20
30.5937998301
 11
155.8174918074
 21
30.5937998301
  0
LINE
  8
0
 62
7
  6
CONTINUOUS
 10
156.279992028
 20
30.5937998301
 11
156.5690540869
 21
30.5937998301
  0
LINE
  8
0
 62
7
  6
CONTINUOUS
 10
157.0315543074
 20
30.5937998301
 11
157.320617028
 21
30.5937998301
  0
LINE
  8
0
 62
7
  6
CONTINUOUS
 10
158.361242028
 20
30.5937998301
 11
158.6503040869
 21
30.5937998301
  0
LINE
  8
0
 62
7
  6
CONTINUOUS
 10
159.922179528
 20
30.5937998301
 11
160.269054528
 21
30.5937998301
  0
LINE
  8
0
 62
7
  6
CONTINUOUS
 10
160.269054528
 20
30.7228545871
 11
159.922179528
 21
30.7228545871
  0
LINE
  8
0
 62
7
  6
CONTINUOUS
 10
154.8924916972
 20
30.7228545871
 11
154.5456166972
 21
30.7228545871
  0
LINE
  8
0
 62
7
  6
CONTINUOUS
 10
159.401867028
 20
30.8519093441
 11
159.1128043074
 21
30.8519093441
  0
LINE
  8
0
 62
7
  6
CONTINUOUS
 10
151.4237418626
 20
30.9164367395
 11
151.1346793074
 21
30.9164367395
  0
LINE
  8
0
 62
7
  6
CONTINUOUS
 10
150.498741835
 20
31.4971831403
 11
150.9034292799
 21
31.4649194539
  0
LINE
  8
0
 62
7
  6
CONTINUOUS
 10
150.9612418074
 20
31.5939741996
 11
150.5565542799
 21
31.626237886
  0
LINE
  8
0
 62
7
  6
CONTINUOUS
 10
159.575304528
 20
30.6260635193
 11
159.922179528
 21
30.5937998301
  0
LINE
  8
0
 62
7
  6
CONTINUOUS
 10
159.922179528
 20
30.7228545871
 11
159.575304528
 21
30.7551182848
  0
LINE
  8
0
 62
7
  6
CONTINUOUS
 10
155.3549915869
 20
31.5939741996
 11
155.0081169177
 21
31.626237886
  0
LINE
  8
0
 62
7
  6
CONTINUOUS
 10
160.1534293074
 20
31.4971831403
 11
160.5003043074
 21
31.4649194539
  0
LINE
  8
0
 62
7
  6
CONTINUOUS
 10
160.5003043074
 20
31.5939741996
 11
160.1534293074
 21
31.626237886
  0
LINE
  8
0
 62
7
  6
CONTINUOUS
 10
157.840929528
 20
31.4971831403
 11
158.0721793074
 21
31.4649194539
  0
LINE
  8
0
 62
7
  6
CONTINUOUS
 10
160.6737418074
 20
31.5617105132
 11
160.5003043074
 21
31.5939741996
  0
LINE
  8
0
 62
7
  6
CONTINUOUS
 10
160.8471793074
 20
30.6905909007
 11
160.9628038663
 21
30.7873819712
  0
LINE
  8
0
 62
7
  6
CONTINUOUS
 10
155.3549915869
 20
30.8841730531
 11
155.1815540869
 21
30.7873819712
  0
LINE
  8
0
 62
7
  6
CONTINUOUS
 10
157.4362415869
 20
31.5294468267
 11
157.320617028
 21
31.4649194539
  0
LINE
  8
0
 62
7
  6
CONTINUOUS
 10
157.320617028
 20
31.3358647082
 11
157.4362415869
 21
31.400392081
  0
LINE
  8
0
 62
7
  6
CONTINUOUS
 10
150.0362418212
 20
31.5617105132
 11
149.8628043005
 21
31.4971831403
  0
LINE
  8
0
 62
7
  6
CONTINUOUS
 10
152.4643666972
 20
31.5939741996
 11
152.2909293626
 21
31.5294468267
  0
LINE
  8
0
 62
7
  6
CONTINUOUS
 10
152.2909293626
 20
31.400392081
 11
152.4643666972
 21
31.4649194539
  0
LINE
  8
0
 62
7
  6
CONTINUOUS
 10
151.0768668626
 20
30.8196456577
 11
150.9034292799
 21
30.7551182848
  0
LINE
  8
0
 62
7
  6
CONTINUOUS
 10
160.5003043074
 20
30.7551182848
 11
160.269054528
 21
30.7228545871
  0
LINE
  8
0
 62
7
  6
CONTINUOUS
 10
154.8924916972
 20
30.5937998301
 11
155.1815540869
 21
30.6260635193
  0
LINE
  8
0
 62
7
  6
CONTINUOUS
 10
160.269054528
 20
30.5937998301
 11
160.615929528
 21
30.6260635193
  0
LINE
  8
0
 62
7
  6
CONTINUOUS
 10
150.5565542799
 20
30.5937998301
 11
150.9612418074
 21
30.6260635193
  0
LINE
  8
0
 62
7
  6
CONTINUOUS
 10
150.9034292799
 20
30.7551182848
 11
150.498741835
 21
30.7228545871
  0
LINE
  8
0
 62
7
  6
CONTINUOUS
 10
154.7768668074
 20
31.1422825445
 11
155.412804528
 21
31.1422825445
  0
LINE
  8
0
 62
7
  6
CONTINUOUS
 10
155.412804528
 20
31.2713373354
 11
154.7768668074
 21
31.2713373354
  0
LINE
  8
0
 62
7
  6
CONTINUOUS
 10
151.1346793074
 20
31.3036010218
 11
151.4237418626
 21
31.3036010218
  0
LINE
  8
0
 62
7
  6
CONTINUOUS
 10
153.9674919177
 20
31.3681283946
 11
154.2565543074
 21
31.3681283946
  0
LINE
  8
0
 62
7
  6
CONTINUOUS
 10
160.6737418074
 20
31.3681283946
 11
160.9628038663
 21
31.3681283946
  0
LINE
  8
0
 62
7
  6
CONTINUOUS
 10
154.6612419177
 20
31.4971831403
 11
155.0081169177
 21
31.4971831403
  0
LINE
  8
0
 62
7
  6
CONTINUOUS
 10
159.8065543074
 20
31.4971831403
 11
160.1534293074
 21
31.4971831403
  0
LINE
  8
0
 62
7
  6
CONTINUOUS
 10
160.1534293074
 20
31.626237886
 11
159.8065543074
 21
31.626237886
  0
LINE
  8
0
 62
7
  6
CONTINUOUS
 10
158.0721793074
 20
31.626237886
 11
157.840929528
 21
31.626237886
  0
LINE
  8
0
 62
7
  6
CONTINUOUS
 10
157.320617028
 20
31.626237886
 11
157.0315543074
 21
31.626237886
  0
LINE
  8
0
 62
7
  6
CONTINUOUS
 10
156.5690540869
 20
31.626237886
 11
156.279992028
 21
31.626237886
  0
LINE
  8
0
 62
7
  6
CONTINUOUS
 10
155.0081169177
 20
31.626237886
 11
154.6612419177
 21
31.626237886
  0
LINE
  8
0
 62
7
  6
CONTINUOUS
 10
152.9268669177
 20
31.626237886
 11
152.6956168074
 21
31.626237886
  0
LINE
  8
0
 62
7
  6
CONTINUOUS
 10
156.279992028
 20
31.9488748406
 11
156.5690540869
 21
31.9488748406
  0
LINE
  8
0
 62
7
  6
CONTINUOUS
 10
156.5690540869
 20
32.1101932727
 11
156.279992028
 21
32.1101932727
  0
LINE
  8
0
 62
7
  6
CONTINUOUS
 10
152.1753043074
 20
32.1101932727
 11
151.8862417523
 21
32.1101932727
  0
LINE
  8
0
 62
7
  6
CONTINUOUS
 10
151.2130860697
 20
32.3970785186
 11
151.6256574183
 21
32.3970785186
  0
LINE
  8
0
 62
7
  6
CONTINUOUS
 10
152.852430332
 20
32.3970785186
 11
154.245872955
 21
32.3970785186
  0
LINE
  8
0
 62
7
  6
CONTINUOUS
 10
154.5737418074
 20
32.3970785186
 11
155.9671844304
 21
32.3970785186
  0
LINE
  8
0
 62
7
  6
CONTINUOUS
 10
157.852430332
 20
32.3970785186
 11
159.245872955
 21
32.3970785186
  0
LINE
  8
0
 62
7
  6
CONTINUOUS
 10
159.5737418074
 20
32.3970785186
 11
160.9671844304
 21
32.3970785186
  0
LINE
  8
0
 62
7
  6
CONTINUOUS
 10
157.6096790869
 20
31.5939741996
 11
157.4362415869
 21
31.5294468267
  0
LINE
  8
0
 62
7
  6
CONTINUOUS
 10
155.1815540869
 20
30.6260635193
 11
155.3549915869
 21
30.6905909007
  0
LINE
  8
0
 62
7
  6
CONTINUOUS
 10
160.615929528
 20
30.6260635193
 11
160.8471793074
 21
30.6905909007
  0
LINE
  8
0
 62
7
  6
CONTINUOUS
 10
160.615929528
 20
30.7873819712
 11
160.5003043074
 21
30.7551182848
  0
LINE
  8
0
 62
7
  6
CONTINUOUS
 10
159.575304528
 20
31.4649194539
 11
159.8065543074
 21
31.4971831403
  0
LINE
  8
0
 62
7
  6
CONTINUOUS
 10
157.6096790869
 20
31.4649194539
 11
157.840929528
 21
31.4971831403
  0
LINE
  8
0
 62
7
  6
CONTINUOUS
 10
154.5456166972
 20
31.1100188581
 11
154.7768668074
 21
31.1422825445
  0
LINE
  8
0
 62
7
  6
CONTINUOUS
 10
157.840929528
 20
31.626237886
 11
157.6096790869
 21
31.5939741996
  0
LINE
  8
0
 62
7
  6
CONTINUOUS
 10
154.4299918074
 20
31.4649194539
 11
154.6612419177
 21
31.4971831403
  0
LINE
  8
0
 62
7
  6
CONTINUOUS
 10
159.8065543074
 20
31.626237886
 11
159.4596793074
 21
31.5939741996
  0
LINE
  8
0
 62
7
  6
CONTINUOUS
 10
154.7768668074
 20
31.2713373354
 11
154.4299918074
 21
31.2390736489
  0
LINE
  8
0
 62
7
  6
CONTINUOUS
 10
150.5565542799
 20
31.626237886
 11
150.2096793212
 21
31.5939741996
  0
LINE
  8
0
 62
7
  6
CONTINUOUS
 10
154.6612419177
 20
31.626237886
 11
154.2565543074
 21
31.5939741996
  0
LINE
  8
0
 62
7
  6
CONTINUOUS
 10
152.0327582009
 20
33.5446195022
 11
151.3770204959
 21
33.5446195022
  0
LINE
  8
0
 62
7
  6
CONTINUOUS
 10
157.4362415869
 20
31.400392081
 11
157.6096790869
 21
31.4649194539
  0
LINE
  8
0
 62
7
  6
CONTINUOUS
 10
159.4596793074
 20
31.4326557675
 11
159.575304528
 21
31.4649194539
  0
LINE
  8
0
 62
7
  6
CONTINUOUS
 10
159.4596793074
 20
31.5939741996
 11
159.228429528
 21
31.5294468267
  0
LINE
  8
0
 62
7
  6
CONTINUOUS
 10
155.1815540869
 20
30.7873819712
 11
154.8924916972
 21
30.7228545871
  0
LINE
  8
0
 62
7
  6
CONTINUOUS
 10
152.4643666972
 20
31.4649194539
 11
152.6956168074
 21
31.4971831403
  0
LINE
  8
0
 62
7
  6
CONTINUOUS
 10
152.6956168074
 20
31.626237886
 11
152.4643666972
 21
31.5939741996
  0
LINE
  8
0
 62
7
  6
CONTINUOUS
 10
150.2674918074
 20
31.4649194539
 11
150.498741835
 21
31.4971831403
  0
LINE
  8
0
 62
7
  6
CONTINUOUS
 10
156.7868565615
 20
35.0200293383
 11
157.4425942664
 21
35.0200293383
  0
LINE
  8
0
 62
7
  6
CONTINUOUS
 10
154.4299918074
 20
31.0777551716
 11
154.5456166972
 21
31.1100188581
  0
LINE
  8
0
 62
7
  6
CONTINUOUS
 10
154.4299918074
 20
31.2390736489
 11
154.1987416972
 21
31.1745462761
  0
LINE
  8
0
 62
7
  6
CONTINUOUS
 10
154.3143669177
 20
31.4326557675
 11
154.4299918074
 21
31.4649194539
  0
LINE
  8
0
 62
7
  6
CONTINUOUS
 10
150.9612418074
 20
30.6260635193
 11
151.1924917523
 21
30.6905909007
  0
LINE
  8
0
 62
7
  6
CONTINUOUS
 10
154.2565543074
 20
31.5939741996
 11
154.1409294177
 21
31.5617105132
  0
LINE
  8
0
 62
7
  6
CONTINUOUS
 10
150.2096793212
 20
31.5939741996
 11
150.0362418212
 21
31.5617105132
  0
LINE
  8
0
 62
7
  6
CONTINUOUS
 10
160.9671844304
 20
36.1675703219
 11
159.5737418074
 21
36.1675703219
  0
LINE
  8
0
 62
7
  6
CONTINUOUS
 10
157.6065286927
 20
36.1675703219
 11
157.1939573441
 21
36.1675703219
  0
LINE
  8
0
 62
7
  6
CONTINUOUS
 10
155.9671844304
 20
36.1675703219
 11
154.5737418074
 21
36.1675703219
  0
LINE
  8
0
 62
7
  6
CONTINUOUS
 10
154.245872955
 20
36.1675703219
 11
152.852430332
 21
36.1675703219
  0
LINE
  8
0
 62
7
  6
CONTINUOUS
 10
150.9671844304
 20
36.1675703219
 11
149.5737418074
 21
36.1675703219
  0
LINE
  8
0
 62
7
  6
CONTINUOUS
 10
150.1518667936
 20
31.4326557675
 11
150.2674918074
 21
31.4649194539
  0
CIRCLE
  8
0
 62
7
  6
CONTINUOUS
 10
160.2704631189
 20
38.5036358957
 40
2.0901639344
  0
ARC
  8
0
 62
7
  6
CONTINUOUS
 10
151.2130860697
 20
34.0364227809
 40
1.6393442623
 50
180.0
 51
270.0
  0
ARC
  8
0
 62
7
  6
CONTINUOUS
 10
157.6065286927
 20
34.5282260596
 40
1.6393442623
 50
0.0
 51
90.0
  0
ARC
  8
0
 62
7
  6
CONTINUOUS
 10
151.6256574183
 20
33.8724883547
 40
1.4754098361
 50
270.0
 51
326.2510114041
  0
ARC
  8
0
 62
7
  6
CONTINUOUS
 10
157.1939573441
 20
34.6921604858
 40
1.4754098361
 50
90.0
 51
146.2510114041
  0
ARC
  8
0
 62
7
  6
CONTINUOUS
 10
152.0327582009
 20
34.3642916334
 40
0.8196721311
 50
270.0
 51
360.0
  0
ARC
  8
0
 62
7
  6
CONTINUOUS
 10
156.7868565615
 20
34.2003572071
 40
0.8196721311
 50
90.0
 51
180.0
  0
ARC
  8
0
 62
7
  6
CONTINUOUS
 10
151.3770204959
 20
33.9544555678
 40
0.4098360656
 50
180.0
 51
270.0
  0
ARC
  8
0
 62
7
  6
CONTINUOUS
 10
157.4425942664
 20
34.6101932727
 40
0.4098360656
 50
0.0
 51
90.0
  0
SOLID
  8
0
 62
7
  6
CONTINUOUS
 10
156.279992028
 20
31.9488752009
 11
156.279992028
 21
32.1101936845
 12
156.5690540869
 22
31.9488752009
 13
156.5690540869
 23
32.1101936845
  0
SOLID
  8
0
 62
7
  6
CONTINUOUS
 10
150.5565542799
 20
31.6262382337
 11
150.9612418074
 21
31.5939740028
 12
150.2096793212
 22
31.5939740028
 13
150.2096793212
 23
31.5939740028
  0
SOLID
  8
0
 62
7
  6
CONTINUOUS
 10
150.0362418212
 20
31.5617111435
 11
150.2096793212
 21
31.5939740028
 12
150.9612418074
 22
31.5939740028
 13
150.9612418074
 23
31.5939740028
  0
SOLID
  8
0
 62
7
  6
CONTINUOUS
 10
150.9612418074
 20
31.5939740028
 11
151.1924917523
 21
31.5294468402
 12
150.0362418212
 22
31.5617111435
 13
150.0362418212
 23
31.5617111435
  0
SOLID
  8
0
 62
7
  6
CONTINUOUS
 10
149.8628043005
 20
31.49718259
 11
150.0362418212
 21
31.5617111435
 12
151.1924917523
 22
31.5294468402
 13
151.1924917523
 23
31.5294468402
  0
SOLID
  8
0
 62
7
  6
CONTINUOUS
 10
149.8628043005
 20
31.49718259
 11
151.1924917523
 21
31.5294468402
 12
150.498741835
 22
31.49718259
 13
150.498741835
 23
31.49718259
  0
SOLID
  8
0
 62
7
  6
CONTINUOUS
 10
150.498741835
 20
31.49718259
 11
151.1924917523
 21
31.5294468402
 12
150.9034292799
 22
31.4649197501
 13
150.9034292799
 23
31.4649197501
  0
SOLID
  8
0
 62
7
  6
CONTINUOUS
 10
151.1924917523
 20
31.5294468402
 11
151.3659292523
 21
31.4326554468
 12
150.9034292799
 22
31.4649197501
 13
150.9034292799
 23
31.4649197501
  0
SOLID
  8
0
 62
7
  6
CONTINUOUS
 10
151.0768668626
 20
31.4003926599
 11
150.9034292799
 21
31.4649197501
 12
151.3659292523
 22
31.4326554468
 13
151.3659292523
 23
31.4326554468
  0
SOLID
  8
0
 62
7
  6
CONTINUOUS
 10
151.0768668626
 20
31.4003926599
 11
151.3659292523
 21
31.4326554468
 12
151.1346793074
 22
31.3036013776
 13
151.1346793074
 23
31.3036013776
  0
SOLID
  8
0
 62
7
  6
CONTINUOUS
 10
151.3659292523
 20
31.4326554468
 11
151.4237418626
 21
31.3036013776
 12
151.1346793074
 22
31.3036013776
 13
151.1346793074
 23
31.3036013776
  0
SOLID
  8
0
 62
7
  6
CONTINUOUS
 10
152.4643666972
 20
31.5939739754
 11
152.6956168074
 21
31.6262382787
 12
152.9268669177
 22
31.6262382787
 13
152.9268669177
 23
31.6262382787
  0
SOLID
  8
0
 62
7
  6
CONTINUOUS
 10
152.9268669177
 20
31.6262382787
 11
153.1003044177
 21
31.5939739754
 12
152.4643666972
 22
31.5939739754
 13
152.4643666972
 23
31.5939739754
  0
SOLID
  8
0
 62
7
  6
CONTINUOUS
 10
152.2909293626
 20
31.5294468852
 11
152.4643666972
 21
31.5939739754
 12
153.1003044177
 22
31.5939739754
 13
153.1003044177
 23
31.5939739754
  0
SOLID
  8
0
 62
7
  6
CONTINUOUS
 10
153.1003044177
 20
31.5939739754
 11
153.2737419177
 21
31.5294468852
 12
152.2909293626
 22
31.5294468852
 13
152.2909293626
 23
31.5294468852
  0
SOLID
  8
0
 62
7
  6
CONTINUOUS
 10
153.2737419177
 20
31.5294468852
 11
152.6956168074
 21
31.4971825369
 12
152.2909293626
 22
31.5294468852
 13
152.2909293626
 23
31.5294468852
  0
SOLID
  8
0
 62
7
  6
CONTINUOUS
 10
152.1753043074
 20
31.4649197951
 11
152.2909293626
 21
31.5294468852
 12
152.6956168074
 22
31.4971825369
 13
152.6956168074
 23
31.4971825369
  0
SOLID
  8
0
 62
7
  6
CONTINUOUS
 10
152.6956168074
 20
31.4971825369
 11
152.4643666972
 21
31.4649197951
 12
152.1753043074
 22
31.4649197951
 13
152.1753043074
 23
31.4649197951
  0
SOLID
  8
0
 62
7
  6
CONTINUOUS
 10
152.6956168074
 20
31.4971825369
 11
153.2737419177
 21
31.5294468852
 12
152.9268669177
 22
31.4649197951
 13
152.9268669177
 23
31.4649197951
  0
SOLID
  8
0
 62
7
  6
CONTINUOUS
 10
153.2737419177
 20
31.5294468852
 11
153.3893668074
 21
31.4649197951
 12
152.9268669177
 22
31.4649197951
 13
152.9268669177
 23
31.4649197951
  0
SOLID
  8
0
 62
7
  6
CONTINUOUS
 10
153.0424918074
 20
31.4326554468
 11
152.9268669177
 21
31.4649197951
 12
153.3893668074
 22
31.4649197951
 13
153.3893668074
 23
31.4649197951
  0
SOLID
  8
0
 62
7
  6
CONTINUOUS
 10
153.3893668074
 20
31.4649197951
 11
153.4471794177
 21
31.4003927049
 12
153.0424918074
 22
31.4326554468
 13
153.0424918074
 23
31.4326554468
  0
SOLID
  8
0
 62
7
  6
CONTINUOUS
 10
153.1581166972
 20
31.3681283566
 11
153.0424918074
 21
31.4326554468
 12
153.4471794177
 22
31.4003927049
 13
153.4471794177
 23
31.4003927049
  0
SOLID
  8
0
 62
7
  6
CONTINUOUS
 10
153.1581166972
 20
31.3681283566
 11
153.4471794177
 21
31.4003927049
 12
153.2159293074
 22
31.2390742213
 13
153.2159293074
 23
31.2390742213
  0
SOLID
  8
0
 62
7
  6
CONTINUOUS
 10
153.4471794177
 20
31.4003927049
 11
153.5049916972
 21
31.2390742213
 12
153.2159293074
 22
31.2390742213
 13
153.2159293074
 23
31.2390742213
  0
SOLID
  8
0
 62
7
  6
CONTINUOUS
 10
152.4643666972
 20
31.4649197951
 11
152.2909293626
 21
31.4003927049
 12
152.1753043074
 22
31.4649197951
 13
152.1753043074
 23
31.4649197951
  0
SOLID
  8
0
 62
7
  6
CONTINUOUS
 10
152.2909293626
 20
31.4003927049
 11
152.1753043074
 21
31.3358640533
 12
152.1753043074
 22
31.4649197951
 13
152.1753043074
 23
31.4649197951
  0
SOLID
  8
0
 62
7
  6
CONTINUOUS
 10
152.1753043074
 20
31.3358640533
 11
151.8862417523
 21
30.5938002869
 12
152.1753043074
 22
31.4649197951
 13
152.1753043074
 23
31.4649197951
  0
SOLID
  8
0
 62
7
  6
CONTINUOUS
 10
152.1753043074
 20
31.4649197951
 11
151.8862417523
 21
30.5938002869
 12
152.1753043074
 22
32.1101937295
 13
152.1753043074
 23
32.1101937295
  0
SOLID
  8
0
 62
7
  6
CONTINUOUS
 10
151.8862417523
 20
30.5938002869
 11
151.8862417523
 21
32.1101937295
 12
152.1753043074
 22
32.1101937295
 13
152.1753043074
 23
32.1101937295
  0
SOLID
  8
0
 62
7
  6
CONTINUOUS
 10
152.1753043074
 20
31.3358640533
 11
152.1753043074
 21
30.5938002869
 12
151.8862417523
 22
30.5938002869
 13
151.8862417523
 23
30.5938002869
  0
SOLID
  8
0
 62
7
  6
CONTINUOUS
 10
153.2159293074
 20
30.5938002869
 11
153.2159293074
 21
31.2390742213
 12
153.5049916972
 22
31.2390742213
 13
153.5049916972
 23
31.2390742213
  0
SOLID
  8
0
 62
7
  6
CONTINUOUS
 10
153.5049916972
 20
31.2390742213
 11
153.5049916972
 21
30.5938002869
 12
153.2159293074
 22
30.5938002869
 13
153.2159293074
 23
30.5938002869
  0
SOLID
  8
0
 62
7
  6
CONTINUOUS
 10
154.2565543074
 20
31.5939738288
 11
154.6612419177
 21
31.6262385959
 12
155.0081169177
 22
31.6262385959
 13
155.0081169177
 23
31.6262385959
  0
SOLID
  8
0
 62
7
  6
CONTINUOUS
 10
155.0081169177
 20
31.6262385959
 11
155.3549915869
 21
31.5939738288
 12
154.2565543074
 22
31.5939738288
 13
154.2565543074
 23
31.5939738288
  0
SOLID
  8
0
 62
7
  6
CONTINUOUS
 10
154.1409294177
 20
31.5617111435
 11
154.2565543074
 21
31.5939738288
 12
155.3549915869
 22
31.5939738288
 13
155.3549915869
 23
31.5939738288
  0
SOLID
  8
0
 62
7
  6
CONTINUOUS
 10
155.3549915869
 20
31.5939738288
 11
155.5284290869
 21
31.5294468402
 12
154.1409294177
 22
31.5617111435
 13
154.1409294177
 23
31.5617111435
  0
SOLID
  8
0
 62
7
  6
CONTINUOUS
 10
154.0253041972
 20
31.4971826249
 11
154.1409294177
 21
31.5617111435
 12
155.5284290869
 22
31.5294468402
 13
155.5284290869
 23
31.5294468402
  0
SOLID
  8
0
 62
7
  6
CONTINUOUS
 10
154.0253041972
 20
31.4971826249
 11
155.5284290869
 21
31.5294468402
 12
154.6612419177
 22
31.4971826249
 13
154.6612419177
 23
31.4971826249
  0
SOLID
  8
0
 62
7
  6
CONTINUOUS
 10
154.6612419177
 20
31.4971826249
 11
155.5284290869
 21
31.5294468402
 12
155.0081169177
 22
31.4971826249
 13
155.0081169177
 23
31.4971826249
  0
SOLID
  8
0
 62
7
  6
CONTINUOUS
 10
155.0081169177
 20
31.4971826249
 11
155.5284290869
 21
31.5294468402
 12
155.239367028
 22
31.4649194065
 13
155.239367028
 23
31.4649194065
  0
SOLID
  8
0
 62
7
  6
CONTINUOUS
 10
155.5284290869
 20
31.5294468402
 11
155.6440543074
 21
31.4649194065
 12
155.239367028
 22
31.4649194065
 13
155.239367028
 23
31.4649194065
  0
SOLID
  8
0
 62
7
  6
CONTINUOUS
 10
153.9674919177
 20
31.4326554138
 11
154.0253041972
 21
31.4971826249
 12
154.6612419177
 22
31.4971826249
 13
154.6612419177
 23
31.4971826249
  0
SOLID
  8
0
 62
7
  6
CONTINUOUS
 10
155.3549915869
 20
31.4326554138
 11
155.239367028
 21
31.4649194065
 12
155.6440543074
 22
31.4649194065
 13
155.6440543074
 23
31.4649194065
  0
SOLID
  8
0
 62
7
  6
CONTINUOUS
 10
155.3549915869
 20
31.4326554138
 11
155.6440543074
 21
31.4649194065
 12
155.412804528
 22
31.3681282026
 13
155.412804528
 23
31.3681282026
  0
SOLID
  8
0
 62
7
  6
CONTINUOUS
 10
155.6440543074
 20
31.4649194065
 11
155.7018665869
 21
31.3681282026
 12
155.412804528
 22
31.3681282026
 13
155.412804528
 23
31.3681282026
  0
SOLID
  8
0
 62
7
  6
CONTINUOUS
 10
155.412804528
 20
31.2713369632
 11
155.412804528
 21
31.3681282026
 12
155.7018665869
 22
31.3681282026
 13
155.7018665869
 23
31.3681282026
  0
SOLID
  8
0
 62
7
  6
CONTINUOUS
 10
155.412804528
 20
31.2713369632
 11
155.7018665869
 21
31.3681282026
 12
155.412804528
 22
31.1422827828
 13
155.412804528
 23
31.1422827828
  0
SOLID
  8
0
 62
7
  6
CONTINUOUS
 10
155.412804528
 20
31.1422827828
 11
155.7018665869
 21
31.3681282026
 12
155.412804528
 22
30.9487004259
 13
155.412804528
 23
30.9487004259
  0
SOLID
  8
0
 62
7
  6
CONTINUOUS
 10
155.7018665869
 20
31.3681282026
 11
155.7018665869
 21
30.8519086025
 12
155.412804528
 22
30.9487004259
 13
155.412804528
 23
30.9487004259
  0
SOLID
  8
0
 62
7
  6
CONTINUOUS
 10
157.6096790869
 20
31.5939736268
 11
157.840929528
 21
31.6262383465
 12
158.0721793074
 22
31.6262383465
 13
158.0721793074
 23
31.6262383465
  0
SOLID
  8
0
 62
7
  6
CONTINUOUS
 10
158.0721793074
 20
31.6262383465
 11
158.2456168074
 21
31.5939736268
 12
157.6096790869
 22
31.5939736268
 13
157.6096790869
 23
31.5939736268
  0
SOLID
  8
0
 62
7
  6
CONTINUOUS
 10
157.4362415869
 20
31.5294472848
 11
157.6096790869
 21
31.5939736268
 12
158.2456168074
 22
31.5939736268
 13
158.2456168074
 23
31.5939736268
  0
SOLID
  8
0
 62
7
  6
CONTINUOUS
 10
158.2456168074
 20
31.5939736268
 11
158.4190543074
 21
31.5294472848
 12
157.4362415869
 22
31.5294472848
 13
157.4362415869
 23
31.5294472848
  0
SOLID
  8
0
 62
7
  6
CONTINUOUS
 10
158.4190543074
 20
31.5294472848
 11
157.840929528
 21
31.4971825369
 12
157.4362415869
 22
31.5294472848
 13
157.4362415869
 23
31.5294472848
  0
SOLID
  8
0
 62
7
  6
CONTINUOUS
 10
157.320617028
 20
31.4649199103
 11
157.4362415869
 21
31.5294472848
 12
157.840929528
 22
31.4971825369
 13
157.840929528
 23
31.4971825369
  0
SOLID
  8
0
 62
7
  6
CONTINUOUS
 10
157.840929528
 20
31.4971825369
 11
157.6096790869
 21
31.4649199103
 12
157.320617028
 22
31.4649199103
 13
157.320617028
 23
31.4649199103
  0
SOLID
  8
0
 62
7
  6
CONTINUOUS
 10
157.840929528
 20
31.4971825369
 11
158.4190543074
 21
31.5294472848
 12
158.0721793074
 22
31.4649199103
 13
158.0721793074
 23
31.4649199103
  0
SOLID
  8
0
 62
7
  6
CONTINUOUS
 10
158.4190543074
 20
31.5294472848
 11
158.534679528
 21
31.4649199103
 12
158.0721793074
 22
31.4649199103
 13
158.0721793074
 23
31.4649199103
  0
SOLID
  8
0
 62
7
  6
CONTINUOUS
 10
158.187804528
 20
31.4326554468
 11
158.0721793074
 21
31.4649199103
 12
158.534679528
 22
31.4649199103
 13
158.534679528
 23
31.4649199103
  0
SOLID
  8
0
 62
7
  6
CONTINUOUS
 10
158.187804528
 20
31.4326554468
 11
158.534679528
 21
31.4649199103
 12
158.3034290869
 22
31.3681288486
 13
158.3034290869
 23
31.3681288486
  0
SOLID
  8
0
 62
7
  6
CONTINUOUS
 10
158.534679528
 20
31.4649199103
 11
158.5924918074
 21
31.3681288486
 12
158.3034290869
 22
31.3681288486
 13
158.3034290869
 23
31.3681288486
  0
SOLID
  8
0
 62
7
  6
CONTINUOUS
 10
158.361242028
 20
31.2068093799
 11
158.3034290869
 21
31.3681288486
 12
158.5924918074
 22
31.3681288486
 13
158.5924918074
 23
31.3681288486
  0
SOLID
  8
0
 62
7
  6
CONTINUOUS
 10
158.5924918074
 20
31.3681288486
 11
158.6503040869
 21
31.2068093799
 12
158.361242028
 22
31.2068093799
 13
158.361242028
 23
31.2068093799
  0
SOLID
  8
0
 62
7
  6
CONTINUOUS
 10
157.6096790869
 20
31.4649199103
 11
157.4362415869
 21
31.4003926599
 12
157.320617028
 22
31.4649199103
 13
157.320617028
 23
31.4649199103
  0
SOLID
  8
0
 62
7
  6
CONTINUOUS
 10
157.4362415869
 20
31.4003926599
 11
157.320617028
 21
31.3358640533
 12
157.320617028
 22
31.4649199103
 13
157.320617028
 23
31.4649199103
  0
SOLID
  8
0
 62
7
  6
CONTINUOUS
 10
157.320617028
 20
31.3358640533
 11
157.0315543074
 21
30.5938003547
 12
157.320617028
 22
31.4649199103
 13
157.320617028
 23
31.4649199103
  0
SOLID
  8
0
 62
7
  6
CONTINUOUS
 10
157.320617028
 20
31.4649199103
 11
157.0315543074
 21
30.5938003547
 12
157.320617028
 22
31.6262383465
 13
157.320617028
 23
31.6262383465
  0
SOLID
  8
0
 62
7
  6
CONTINUOUS
 10
157.0315543074
 20
30.5938003547
 11
157.0315543074
 21
31.6262383465
 12
157.320617028
 22
31.6262383465
 13
157.320617028
 23
31.6262383465
  0
SOLID
  8
0
 62
7
  6
CONTINUOUS
 10
157.320617028
 20
31.3358640533
 11
157.320617028
 21
30.5938003547
 12
157.0315543074
 22
30.5938003547
 13
157.0315543074
 23
30.5938003547
  0
SOLID
  8
0
 62
7
  6
CONTINUOUS
 10
158.361242028
 20
30.5938003547
 11
158.361242028
 21
31.2068093799
 12
158.6503040869
 22
31.2068093799
 13
158.6503040869
 23
31.2068093799
  0
SOLID
  8
0
 62
7
  6
CONTINUOUS
 10
158.6503040869
 20
31.2068093799
 11
158.6503040869
 21
30.5938003547
 12
158.361242028
 22
30.5938003547
 13
158.361242028
 23
30.5938003547
  0
SOLID
  8
0
 62
7
  6
CONTINUOUS
 10
159.4596793074
 20
31.5939739474
 11
159.8065543074
 21
31.6262381969
 12
160.1534293074
 22
31.6262381969
 13
160.1534293074
 23
31.6262381969
  0
SOLID
  8
0
 62
7
  6
CONTINUOUS
 10
160.1534293074
 20
31.6262381969
 11
160.5003043074
 21
31.5939739474
 12
159.4596793074
 22
31.5939739474
 13
159.4596793074
 23
31.5939739474
  0
SOLID
  8
0
 62
7
  6
CONTINUOUS
 10
159.228429528
 20
31.5294468402
 11
159.4596793074
 21
31.5939739474
 12
160.5003043074
 22
31.5939739474
 13
160.5003043074
 23
31.5939739474
  0
SOLID
  8
0
 62
7
  6
CONTINUOUS
 10
159.228429528
 20
31.5294468402
 11
160.5003043074
 21
31.5939739304
 12
160.6737418074
 22
31.5617111435
 13
160.6737418074
 23
31.5617111435
  0
SOLID
  8
0
 62
7
  6
CONTINUOUS
 10
159.228429528
 20
31.5294468402
 11
160.6737418074
 21
31.5617111435
 12
159.8065543074
 22
31.4971825592
 13
159.8065543074
 23
31.4971825592
  0
SOLID
  8
0
 62
7
  6
CONTINUOUS
 10
159.8065543074
 20
31.4971825592
 11
160.6737418074
 21
31.5617111435
 12
160.1534293074
 22
31.4971825592
 13
160.1534293074
 23
31.4971825592
  0
SOLID
  8
0
 62
7
  6
CONTINUOUS
 10
160.6737418074
 20
31.5617111435
 11
160.8471793074
 21
31.4971825592
 12
160.1534293074
 22
31.4971825592
 13
160.1534293074
 23
31.4971825592
  0
SOLID
  8
0
 62
7
  6
CONTINUOUS
 10
160.5003043074
 20
31.4649197501
 11
160.1534293074
 21
31.4971825592
 12
160.8471793074
 22
31.4971825592
 13
160.8471793074
 23
31.4971825592
  0
SOLID
  8
0
 62
7
  6
CONTINUOUS
 10
159.1128043074
 20
31.4326555427
 11
159.228429528
 21
31.5294468402
 12
159.8065543074
 22
31.4971825592
 13
159.8065543074
 23
31.4971825592
  0
SOLID
  8
0
 62
7
  6
CONTINUOUS
 10
160.5003043074
 20
31.4649197501
 11
160.8471793074
 21
31.4971825592
 12
160.615929528
 22
31.4326555427
 13
160.615929528
 23
31.4326555427
  0
SOLID
  8
0
 62
7
  6
CONTINUOUS
 10
160.615929528
 20
31.4326555427
 11
160.8471793074
 21
31.4971825592
 12
160.6737418074
 22
31.3681283005
 13
160.6737418074
 23
31.3681283005
  0
SOLID
  8
0
 62
7
  6
CONTINUOUS
 10
160.8471793074
 20
31.4971825592
 11
160.9628038663
 21
31.3681283005
 12
160.6737418074
 22
31.3681283005
 13
160.6737418074
 23
31.3681283005
  0
SOLID
  8
0
 62
7
  6
CONTINUOUS
 10
150.2674918074
 20
31.4649197501
 11
149.7471793074
 21
31.4326554237
 12
150.498741835
 22
31.4971824493
 13
150.498741835
 23
31.4971824493
  0
SOLID
  8
0
 62
7
  6
CONTINUOUS
 10
149.7471793074
 20
31.4326554237
 11
149.8628043005
 21
31.4971824493
 12
150.498741835
 22
31.4971824493
 13
150.498741835
 23
31.4971824493
  0
SOLID
  8
0
 62
7
  6
CONTINUOUS
 10
150.2674918074
 20
31.4649197501
 11
150.1518667936
 21
31.4326554237
 12
149.7471793074
 22
31.4326554237
 13
149.7471793074
 23
31.4326554237
  0
SOLID
  8
0
 62
7
  6
CONTINUOUS
 10
149.6315543091
 20
31.3036012664
 11
149.7471793074
 21
31.4326554237
 12
150.1518667936
 22
31.4326554237
 13
150.1518667936
 23
31.4326554237
  0
SOLID
  8
0
 62
7
  6
CONTINUOUS
 10
153.9674919177
 20
31.4326554237
 11
154.6612419177
 21
31.4971825369
 12
154.4299918074
 22
31.4649197501
 13
154.4299918074
 23
31.4649197501
  0
SOLID
  8
0
 62
7
  6
CONTINUOUS
 10
154.4299918074
 20
31.4649197501
 11
154.3143669177
 21
31.4326554237
 12
153.9674919177
 22
31.4326554237
 13
153.9674919177
 23
31.4326554237
  0
SOLID
  8
0
 62
7
  6
CONTINUOUS
 10
153.9674919177
 20
31.3681283335
 11
153.9674919177
 21
31.4326554237
 12
154.3143669177
 22
31.4326554237
 13
154.3143669177
 23
31.4326554237
  0
SOLID
  8
0
 62
7
  6
CONTINUOUS
 10
154.3143669177
 20
31.4326554237
 11
154.2565543074
 21
31.3681283335
 12
153.9674919177
 22
31.3681283335
 13
153.9674919177
 23
31.3681283335
  0
SOLID
  8
0
 62
7
  6
CONTINUOUS
 10
159.1128043074
 20
31.4326555528
 11
159.8065543074
 21
31.4971825369
 12
159.575304528
 22
31.4649197501
 13
159.575304528
 23
31.4649197501
  0
SOLID
  8
0
 62
7
  6
CONTINUOUS
 10
159.575304528
 20
31.4649197501
 11
159.4596793074
 21
31.4326555528
 12
159.1128043074
 22
31.4326555528
 13
159.1128043074
 23
31.4326555528
  0
SOLID
  8
0
 62
7
  6
CONTINUOUS
 10
159.1128043074
 20
31.3681284626
 11
159.1128043074
 21
31.4326555528
 12
159.4596793074
 22
31.4326555528
 13
159.4596793074
 23
31.4326555528
  0
SOLID
  8
0
 62
7
  6
CONTINUOUS
 10
159.4596793074
 20
31.4326555528
 11
159.401867028
 21
31.3681284626
 12
159.1128043074
 22
31.3681284626
 13
159.1128043074
 23
31.3681284626
  0
SOLID
  8
0
 62
7
  6
CONTINUOUS
 10
159.228429528
 20
31.2390741763
 11
159.1128043074
 21
31.3681284626
 12
159.401867028
 22
31.3681284626
 13
159.401867028
 23
31.3681284626
  0
SOLID
  8
0
 62
7
  6
CONTINUOUS
 10
149.6315543091
 20
31.3036012664
 11
150.1518667936
 21
31.4326554468
 12
149.9784292936
 22
31.3358640533
 13
149.9784292936
 23
31.3358640533
  0
SOLID
  8
0
 62
7
  6
CONTINUOUS
 10
149.9784292936
 20
31.3358640533
 11
149.9206168074
 21
31.2713369632
 12
149.6315543091
 22
31.3036012664
 13
149.6315543091
 23
31.3036012664
  0
SOLID
  8
0
 62
7
  6
CONTINUOUS
 10
149.5737418074
 20
31.1100184796
 11
149.6315543091
 21
31.3036012664
 12
149.9206168074
 22
31.2713369632
 13
149.9206168074
 23
31.2713369632
  0
SOLID
  8
0
 62
7
  6
CONTINUOUS
 10
154.4299918074
 20
31.2390741763
 11
154.7768668074
 21
31.271336924
 12
155.412804528
 22
31.271336924
 13
155.412804528
 23
31.271336924
  0
SOLID
  8
0
 62
7
  6
CONTINUOUS
 10
154.4299918074
 20
31.2390741763
 11
155.412804528
 21
31.271336924
 12
154.1987416972
 22
31.1745462761
 13
154.1987416972
 23
31.1745462761
  0
SOLID
  8
0
 62
7
  6
CONTINUOUS
 10
154.1987416972
 20
31.1745462761
 11
155.412804528
 21
31.271336924
 12
154.7768668074
 22
31.1422827436
 13
154.7768668074
 23
31.1422827436
  0
SOLID
  8
0
 62
7
  6
CONTINUOUS
 10
155.412804528
 20
31.271336924
 11
155.412804528
 21
31.1422827436
 12
154.7768668074
 22
31.1422827436
 13
154.7768668074
 23
31.1422827436
  0
SOLID
  8
0
 62
7
  6
CONTINUOUS
 10
159.228429528
 20
31.2390745501
 11
159.401867028
 21
31.3681283566
 12
159.4596793074
 22
31.3036012664
 13
159.4596793074
 23
31.3036012664
  0
SOLID
  8
0
 62
7
  6
CONTINUOUS
 10
159.4596793074
 20
31.3036012664
 11
159.6331168074
 21
31.2390745501
 12
159.228429528
 22
31.2390745501
 13
159.228429528
 23
31.2390745501
  0
SOLID
  8
0
 62
7
  6
CONTINUOUS
 10
159.4596793074
 20
31.1422827828
 11
159.228429528
 21
31.2390745501
 12
159.6331168074
 22
31.2390745501
 13
159.6331168074
 23
31.2390745501
  0
SOLID
  8
0
 62
7
  6
CONTINUOUS
 10
159.6331168074
 20
31.2390745501
 11
160.615929528
 21
31.0777556927
 12
159.4596793074
 22
31.1422827828
 13
159.4596793074
 23
31.1422827828
  0
SOLID
  8
0
 62
7
  6
CONTINUOUS
 10
160.442492028
 20
30.9809646623
 11
159.4596793074
 21
31.1422827828
 12
160.615929528
 22
31.0777556927
 13
160.615929528
 23
31.0777556927
  0
SOLID
  8
0
 62
7
  6
CONTINUOUS
 10
160.615929528
 20
31.0777556927
 11
160.8471793074
 21
30.9809646623
 12
160.442492028
 22
30.9809646623
 13
160.442492028
 23
30.9809646623
  0
SOLID
  8
0
 62
7
  6
CONTINUOUS
 10
160.615929528
 20
30.9164372091
 11
160.442492028
 21
30.9809646623
 12
160.8471793074
 22
30.9809646623
 13
160.8471793074
 23
30.9809646623
  0
SOLID
  8
0
 62
7
  6
CONTINUOUS
 10
160.615929528
 20
30.9164372091
 11
160.8471793074
 21
30.9809646623
 12
160.6737418074
 22
30.8519089441
 13
160.6737418074
 23
30.8519089441
  0
SOLID
  8
0
 62
7
  6
CONTINUOUS
 10
160.8471793074
 20
30.9809646623
 11
160.9628038663
 21
30.8519089441
 12
160.6737418074
 22
30.8519089441
 13
160.6737418074
 23
30.8519089441
  0
SOLID
  8
0
 62
7
  6
CONTINUOUS
 10
160.615929528
 20
30.7873818593
 11
160.6737418074
 21
30.8519089441
 12
160.9628038663
 22
30.8519089441
 13
160.9628038663
 23
30.8519089441
  0
SOLID
  8
0
 62
7
  6
CONTINUOUS
 10
160.9628038663
 20
30.8519089441
 11
160.9628038663
 21
30.7873818593
 12
160.615929528
 22
30.7873818593
 13
160.615929528
 23
30.7873818593
  0
SOLID
  8
0
 62
7
  6
CONTINUOUS
 10
160.5003043074
 20
30.7551187255
 11
160.615929528
 21
30.7873818593
 12
160.9628038663
 22
30.7873818593
 13
160.9628038663
 23
30.7873818593
  0
SOLID
  8
0
 62
7
  6
CONTINUOUS
 10
160.5003043074
 20
30.7551187255
 11
160.9628038663
 21
30.7873818593
 12
160.269054528
 22
30.7228547745
 13
160.269054528
 23
30.7228547745
  0
SOLID
  8
0
 62
7
  6
CONTINUOUS
 10
160.9628038663
 20
30.7873818593
 11
160.8471793074
 21
30.6905916353
 12
160.269054528
 22
30.7228547745
 13
160.269054528
 23
30.7228547745
  0
SOLID
  8
0
 62
7
  6
CONTINUOUS
 10
160.8471793074
 20
30.6905916353
 11
159.401867028
 21
30.658327332
 12
160.269054528
 22
30.7228547745
 13
160.269054528
 23
30.7228547745
  0
SOLID
  8
0
 62
7
  6
CONTINUOUS
 10
160.269054528
 20
30.7228547745
 11
159.401867028
 21
30.658327332
 12
159.922179528
 22
30.7228547745
 13
159.922179528
 23
30.7228547745
  0
SOLID
  8
0
 62
7
  6
CONTINUOUS
 10
159.401867028
 20
30.658327332
 11
159.228429528
 21
30.7228547745
 12
159.922179528
 22
30.7228547745
 13
159.922179528
 23
30.7228547745
  0
SOLID
  8
0
 62
7
  6
CONTINUOUS
 10
159.401867028
 20
30.658327332
 11
160.8471793074
 21
30.6905916353
 12
159.575304528
 22
30.6260629858
 13
159.575304528
 23
30.6260629858
  0
SOLID
  8
0
 62
7
  6
CONTINUOUS
 10
160.8471793074
 20
30.6905916353
 11
160.615929528
 21
30.6260629858
 12
159.575304528
 22
30.6260629858
 13
159.575304528
 23
30.6260629858
  0
SOLID
  8
0
 62
7
  6
CONTINUOUS
 10
159.922179528
 20
30.5938006049
 11
159.575304528
 21
30.6260629858
 12
160.615929528
 22
30.6260629858
 13
160.615929528
 23
30.6260629858
  0
SOLID
  8
0
 62
7
  6
CONTINUOUS
 10
160.615929528
 20
30.6260629858
 11
160.269054528
 21
30.5938006049
 12
159.922179528
 22
30.5938006049
 13
159.922179528
 23
30.5938006049
  0
SOLID
  8
0
 62
7
  6
CONTINUOUS
 10
149.5737418074
 20
31.1100184796
 11
149.9206168074
 21
31.2713369632
 12
149.8628043005
 22
31.1422827828
 13
149.8628043005
 23
31.1422827828
  0
SOLID
  8
0
 62
7
  6
CONTINUOUS
 10
149.8628043005
 20
31.1422827828
 11
149.8628043005
 21
31.0454914852
 12
149.5737418074
 22
31.1100184796
 13
149.5737418074
 23
31.1100184796
  0
SOLID
  8
0
 62
7
  6
CONTINUOUS
 10
149.6315543091
 20
30.9164372091
 11
149.5737418074
 21
31.1100184796
 12
149.8628043005
 22
31.0454914852
 13
149.8628043005
 23
31.0454914852
  0
SOLID
  8
0
 62
7
  6
CONTINUOUS
 10
149.8628043005
 20
31.0454914852
 11
149.9784292936
 21
30.8841729058
 12
149.6315543091
 22
30.9164372091
 13
149.6315543091
 23
30.9164372091
  0
SOLID
  8
0
 62
7
  6
CONTINUOUS
 10
149.7471793074
 20
30.7873813202
 11
149.6315543091
 21
30.9164372091
 12
149.9784292936
 22
30.8841729058
 13
149.9784292936
 23
30.8841729058
  0
SOLID
  8
0
 62
7
  6
CONTINUOUS
 10
149.9784292936
 20
30.8841729058
 11
150.1518667936
 21
30.7873813202
 12
149.7471793074
 22
30.7873813202
 13
149.7471793074
 23
30.7873813202
  0
SOLID
  8
0
 62
7
  6
CONTINUOUS
 10
149.8628043005
 20
30.7228547004
 11
149.7471793074
 21
30.7873813202
 12
150.1518667936
 22
30.7873813202
 13
150.1518667936
 23
30.7873813202
  0
SOLID
  8
0
 62
7
  6
CONTINUOUS
 10
150.1518667936
 20
30.7873813202
 11
150.498741835
 21
30.7228547004
 12
149.8628043005
 22
30.7228547004
 13
149.8628043005
 23
30.7228547004
  0
SOLID
  8
0
 62
7
  6
CONTINUOUS
 10
150.0362418212
 20
30.658327332
 11
149.8628043005
 21
30.7228547004
 12
150.498741835
 22
30.7228547004
 13
150.498741835
 23
30.7228547004
  0
SOLID
  8
0
 62
7
  6
CONTINUOUS
 10
154.0831168074
 20
31.1100184386
 11
154.1987416972
 21
31.1745462761
 12
154.7768668074
 22
31.1422827828
 13
154.7768668074
 23
31.1422827828
  0
SOLID
  8
0
 62
7
  6
CONTINUOUS
 10
154.7768668074
 20
31.1422827828
 11
154.5456166972
 21
31.1100184386
 12
154.0831168074
 22
31.1100184386
 13
154.0831168074
 23
31.1100184386
  0
SOLID
  8
0
 62
7
  6
CONTINUOUS
 10
153.9674919177
 20
30.9809642992
 11
154.0831168074
 21
31.1100184386
 12
154.5456166972
 22
31.1100184386
 13
154.5456166972
 23
31.1100184386
  0
SOLID
  8
0
 62
7
  6
CONTINUOUS
 10
154.3143669177
 20
31.0132277988
 11
153.9674919177
 21
30.9809642992
 12
154.4299918074
 22
31.0777556927
 13
154.4299918074
 23
31.0777556927
  0
SOLID
  8
0
 62
7
  6
CONTINUOUS
 10
153.9674919177
 20
30.9809642992
 11
154.5456166972
 21
31.1100184796
 12
154.4299918074
 22
31.0777556927
 13
154.4299918074
 23
31.0777556927
  0
SOLID
  8
0
 62
7
  6
CONTINUOUS
 10
154.3143669177
 20
31.0132277988
 11
154.2565543074
 21
30.9164372091
 12
153.9674919177
 22
30.9809642992
 13
153.9674919177
 23
30.9809642992
  0
SOLID
  8
0
 62
7
  6
CONTINUOUS
 10
153.9674919177
 20
30.8841729058
 11
153.9674919177
 21
30.9809642992
 12
154.2565543074
 22
30.9164372091
 13
154.2565543074
 23
30.9164372091
  0
SOLID
  8
0
 62
7
  6
CONTINUOUS
 10
154.2565543074
 20
30.9164372091
 11
154.2565543074
 21
30.8519086025
 12
153.9674919177
 22
30.8841729058
 13
153.9674919177
 23
30.8841729058
  0
SOLID
  8
0
 62
7
  6
CONTINUOUS
 10
154.0253041972
 20
30.7551187255
 11
153.9674919177
 21
30.8841729058
 12
154.2565543074
 22
30.8519086025
 13
154.2565543074
 23
30.8519086025
  0
SOLID
  8
0
 62
7
  6
CONTINUOUS
 10
155.412804528
 20
30.9487004259
 11
155.7018665869
 21
30.8519086025
 12
155.3549915869
 22
30.8841729058
 13
155.3549915869
 23
30.8841729058
  0
SOLID
  8
0
 62
7
  6
CONTINUOUS
 10
155.1815540869
 20
30.7873815123
 11
155.3549915869
 21
30.8841729058
 12
155.7018665869
 22
30.8519086025
 13
155.7018665869
 23
30.8519086025
  0
SOLID
  8
0
 62
7
  6
CONTINUOUS
 10
155.1815540869
 20
30.7873815123
 11
155.7018665869
 21
30.8519086025
 12
155.412804528
 22
30.7551187255
 13
155.412804528
 23
30.7551187255
  0
SOLID
  8
0
 62
7
  6
CONTINUOUS
 10
155.7018665869
 20
30.8519086025
 11
155.759679528
 21
30.6905916353
 12
155.412804528
 22
30.7551187255
 13
155.412804528
 23
30.7551187255
  0
SOLID
  8
0
 62
7
  6
CONTINUOUS
 10
155.4706168074
 20
30.658327332
 11
155.412804528
 21
30.7551187255
 12
155.759679528
 22
30.6905916353
 13
155.759679528
 23
30.6905916353
  0
SOLID
  8
0
 62
7
  6
CONTINUOUS
 10
155.4706168074
 20
30.658327332
 11
155.759679528
 21
30.6905916353
 12
155.5284290869
 22
30.5938002079
 13
155.5284290869
 23
30.5938002079
  0
SOLID
  8
0
 62
7
  6
CONTINUOUS
 10
155.759679528
 20
30.6905916353
 11
155.8174918074
 21
30.5938002079
 12
155.5284290869
 22
30.5938002079
 13
155.5284290869
 23
30.5938002079
  0
SOLID
  8
0
 62
7
  6
CONTINUOUS
 10
151.0768668626
 20
30.8196456577
 11
151.1346793074
 21
30.9164373395
 12
151.4237418626
 22
30.9164373395
 13
151.4237418626
 23
30.9164373395
  0
SOLID
  8
0
 62
7
  6
CONTINUOUS
 10
151.4237418626
 20
30.9164373395
 11
151.3659292523
 21
30.7873815123
 12
151.0768668626
 22
30.8196456577
 13
151.0768668626
 23
30.8196456577
  0
SOLID
  8
0
 62
7
  6
CONTINUOUS
 10
150.9034292799
 20
30.7551187255
 11
151.0768668626
 21
30.8196456577
 12
151.3659292523
 22
30.7873815123
 13
151.3659292523
 23
30.7873815123
  0
SOLID
  8
0
 62
7
  6
CONTINUOUS
 10
150.9034292799
 20
30.7551187255
 11
151.3659292523
 21
30.7873815123
 12
150.498741835
 22
30.7228544222
 13
150.498741835
 23
30.7228544222
  0
SOLID
  8
0
 62
7
  6
CONTINUOUS
 10
151.3659292523
 20
30.7873815123
 11
151.1924917523
 21
30.6905916353
 12
150.498741835
 22
30.7228544222
 13
150.498741835
 23
30.7228544222
  0
SOLID
  8
0
 62
7
  6
CONTINUOUS
 10
150.0362418212
 20
30.658327332
 11
150.498741835
 21
30.7228544222
 12
151.1924917523
 22
30.6905916353
 13
151.1924917523
 23
30.6905916353
  0
SOLID
  8
0
 62
7
  6
CONTINUOUS
 10
150.0362418212
 20
30.658327332
 11
151.1924917523
 21
30.6905916353
 12
150.2096793212
 22
30.6260631011
 13
150.2096793212
 23
30.6260631011
  0
SOLID
  8
0
 62
7
  6
CONTINUOUS
 10
151.1924917523
 20
30.6905916353
 11
150.9612418074
 21
30.6260631011
 12
150.2096793212
 22
30.6260631011
 13
150.2096793212
 23
30.6260631011
  0
SOLID
  8
0
 62
7
  6
CONTINUOUS
 10
150.5565542799
 20
30.5938002419
 11
150.2096793212
 21
30.6260631011
 12
150.9612418074
 22
30.6260631011
 13
150.9612418074
 23
30.6260631011
  0
SOLID
  8
0
 62
7
  6
CONTINUOUS
 10
154.0253041972
 20
30.7551187255
 11
154.2565543074
 21
30.8519086025
 12
154.3143669177
 22
30.7873815123
 13
154.3143669177
 23
30.7873815123
  0
SOLID
  8
0
 62
7
  6
CONTINUOUS
 10
154.3143669177
 20
30.7873815123
 11
154.5456166972
 21
30.7228544222
 12
154.0253041972
 22
30.7551187255
 13
154.0253041972
 23
30.7551187255
  0
SOLID
  8
0
 62
7
  6
CONTINUOUS
 10
154.1987416972
 20
30.658327332
 11
154.0253041972
 21
30.7551187255
 12
154.5456166972
 22
30.7228544222
 13
154.5456166972
 23
30.7228544222
  0
SOLID
  8
0
 62
7
  6
CONTINUOUS
 10
154.8924916972
 20
30.7228544637
 11
155.1815540869
 21
30.7873815123
 12
155.412804528
 22
30.7551187255
 13
155.412804528
 23
30.7551187255
  0
SOLID
  8
0
 62
7
  6
CONTINUOUS
 10
155.412804528
 20
30.7551187255
 11
155.3549915869
 21
30.6905916353
 12
154.8924916972
 22
30.7228544637
 13
154.8924916972
 23
30.7228544637
  0
SOLID
  8
0
 62
7
  6
CONTINUOUS
 10
155.3549915869
 20
30.6905916353
 11
154.1987416972
 21
30.658327332
 12
154.8924916972
 22
30.7228544637
 13
154.8924916972
 23
30.7228544637
  0
SOLID
  8
0
 62
7
  6
CONTINUOUS
 10
154.1987416972
 20
30.658327332
 11
154.5456166972
 21
30.7228544637
 12
154.8924916972
 22
30.7228544637
 13
154.8924916972
 23
30.7228544637
  0
SOLID
  8
0
 62
7
  6
CONTINUOUS
 10
154.1987416972
 20
30.658327332
 11
155.3549915869
 21
30.6905916353
 12
154.3143669177
 22
30.6260630541
 13
154.3143669177
 23
30.6260630541
  0
SOLID
  8
0
 62
7
  6
CONTINUOUS
 10
155.3549915869
 20
30.6905916353
 11
155.1815540869
 21
30.6260630541
 12
154.3143669177
 22
30.6260630541
 13
154.3143669177
 23
30.6260630541
  0
SOLID
  8
0
 62
7
  6
CONTINUOUS
 10
154.5456166972
 20
30.5938002188
 11
154.3143669177
 21
30.6260630541
 12
155.1815540869
 22
30.6260630541
 13
155.1815540869
 23
30.6260630541
  0
SOLID
  8
0
 62
7
  6
CONTINUOUS
 10
155.1815540869
 20
30.6260630541
 11
154.8924916972
 21
30.5938002188
 12
154.5456166972
 22
30.5938002188
 13
154.5456166972
 23
30.5938002188
  0
SOLID
  8
0
 62
7
  6
CONTINUOUS
 10
159.575304528
 20
30.7551187255
 11
159.228429528
 21
30.7228544637
 12
159.4596793074
 22
30.7873815123
 13
159.4596793074
 23
30.7873815123
  0
SOLID
  8
0
 62
7
  6
CONTINUOUS
 10
159.4596793074
 20
30.7873815123
 11
159.228429528
 21
30.7228544637
 12
159.401867028
 22
30.851908644
 13
159.401867028
 23
30.851908644
  0
SOLID
  8
0
 62
7
  6
CONTINUOUS
 10
159.228429528
 20
30.7228544637
 11
159.1128043074
 21
30.851908644
 12
159.401867028
 22
30.851908644
 13
159.401867028
 23
30.851908644
  0
SOLID
  8
0
 62
7
  6
CONTINUOUS
 10
159.575304528
 20
30.7551187255
 11
159.922179528
 21
30.7228544637
 12
159.228429528
 22
30.7228544637
 13
159.228429528
 23
30.7228544637
  0
SOLID
  8
0
 62
7
  6
CONTINUOUS
 10
156.279992028
 20
30.5938002419
 11
156.279992028
 21
31.6262382337
 12
156.5690540869
 22
30.5938002419
 13
156.5690540869
 23
31.6262382337
  0
ENDBLK
  8
0
  6
BYBLOCK
 62
0
  0
BLOCK
  8
0
 62
2
  6
CONTINUOUS
  2
SYMBOL_3_BL0
 70
64
 10
32.1213064866
 20
19.8534310916
  0
TEXT
  8
0
 62
7
  6
CONTINUOUS
 10
18.3860103289
 20
19.2268451992
  7
TEXTSTYLE_3
 40
2.7338706658
  1
Ammeraal Beltech
 41
1.0
 51
15.0
 72
0
  0
TEXT
  8
0
 62
7
  6
CONTINUOUS
 10
29.1868111546
 20
16.9533085264
  7
TEXTSTYLE_4
 40
1.0935482663
  1
Innovation & Service in Belting
 41
1.0
 72
0
  0
LINE
  8
0
 62
7
  6
CONTINUOUS
 10
12.3614696776
 20
19.9934385078
 11
13.1396216709
 21
23.6543558055
  0
LINE
  8
0
 62
7
  6
CONTINUOUS
 10
23.2347899607
 20
27.3177497171
 11
13.6274394139
 21
24.1961322958
  0
LINE
  8
0
 62
7
  6
CONTINUOUS
 10
12.5867530099
 20
19.3000877048
 11
20.093828271
 21
12.5406867788
  0
LINE
  8
0
 62
7
  6
CONTINUOUS
 10
12.8492874206
 20
20.5352149982
 11
23.6575567857
 21
24.0470345971
  0
LINE
  8
0
 62
7
  6
CONTINUOUS
 10
23.6533516486
 20
13.6972460334
 11
15.2078919798
 21
21.3015720751
  0
LINE
  8
0
 62
7
  6
CONTINUOUS
 10
24.1731743684
 20
26.4728246013
 11
23.1966148312
 21
21.8784731989
  0
LINE
  8
0
 62
7
  6
CONTINUOUS
 10
22.4968128835
 20
18.5861638851
 11
21.810364672
 21
15.3566789607
  0
LINE
  8
0
 62
7
  6
CONTINUOUS
 10
24.8542704669
 20
14.087448211
 11
25.8105020025
 21
18.5861638851
  0
LINE
  8
0
 62
7
  6
CONTINUOUS
 10
26.5103039502
 20
21.8784731989
 11
26.9545457526
 21
23.9684665583
  0
LINE
  8
0
 62
7
  6
CONTINUOUS
 10
20.8069293463
 20
12.3891124661
 11
24.3664527239
 21
13.5456717207
  0
LINE
  8
0
 62
7
  6
CONTINUOUS
 10
23.9478910361
 20
27.1661754044
 11
26.7292624203
 21
24.6618173613
  0
ARC
  8
0
 62
7
  6
CONTINUOUS
 10
13.8527227462
 20
23.5027814928
 40
0.7290321776
 50
108.0
 51
168.0
  0
ARC
  8
0
 62
7
  6
CONTINUOUS
 10
23.4600732931
 20
26.624398914
 40
0.7290321776
 50
348.0
 51
108.0
  0
ARC
  8
0
 62
7
  6
CONTINUOUS
 10
26.2414446773
 20
24.120040871
 40
0.7290321776
 50
348.0
 51
48.0
  0
ARC
  8
0
 62
7
  6
CONTINUOUS
 10
20.581646014
 20
13.0824632691
 40
0.7290321776
 50
228.0
 51
288.0
  0
ARC
  8
0
 62
7
  6
CONTINUOUS
 10
13.0745707529
 20
19.8418641951
 40
0.7290321776
 50
108.0
 51
228.0
  0
ARC
  8
0
 62
7
  6
CONTINUOUS
 10
24.1411693916
 20
14.2390225237
 40
0.7290321776
 50
228.0
 51
348.0
  0
ENDBLK
  8
0
  6
BYBLOCK
 62
0
  0
ENDSEC
  0
SECTION
  2
ENTITIES
  0
TEXT
  8
0
 62
5
  6
CONTINUOUS
 10
96.0
 20
25.636
  7
TEXTSTYLE_2
 40
2.8
  1
Scale :
 41
0.6
 51
0.000019
 72
0
  0
TEXT
  8
0
 62
5
  6
CONTINUOUS
 10
116.0
 20
25.636
  7
TEXTSTYLE_2
 40
2.8
  1
Belt type:
 41
0.6
 51
0.000019
 72
0
  0
INSERT
  8
0
 62
2
  6
CONTINUOUS
  2
SYMBOL_3_BL0
 10
32.1213064866
 20
19.8534310916
  0
INSERT
  8
0
 62
2
  6
CONTINUOUS
  2
SYMBOL_8_BL1
 10
173.5956734183
 20
35.5937998301
  0
LINE
  8
0
 62
2
  6
CONTINUOUS
 10
10.0
 20
30.0
 11
200.0
 21
30.0
  0
LINE
  8
0
 62
2
  6
CONTINUOUS
 10
10.0
 20
30.0
 11
10.0
 21
10.0
  0
LINE
  8
0
 62
2
  6
CONTINUOUS
 10
10.0
 20
10.0
 11
200.0
 21
10.0
  0
LINE
  8
0
 62
2
  6
CONTINUOUS
 10
95.0
 20
30.0
 11
95.0
 21
10.0
  0
LINE
  8
0
 62
2
  6
CONTINUOUS
 10
115.0
 20
30.0
 11
115.0
 21
10.0
  0
LINE
  8
0
 62
2
  6
CONTINUOUS
 10
200.0
 20
30.0
 11
200.0
 21
10.0
  0
TEXT
  8
0
 62
5
  6
CONTINUOUS
 10
13.0
 20
23.303
  7
TEXTSTYLE_5
 40
1.52
  1
                                                                     Ammeraal Beltech Modular A/S
 41
1.0
 72
0
  0
TEXT
  8
0
 62
5
  6
CONTINUOUS
 10
13.0
 20
20.595
  7
TEXTSTYLE_5
 40
1.5
  1
                                                                      Hjulmagervej 21,  7100 Vejle,  DK
 41
1.0
 72
0
  0
TEXT
  8
0
 62
5
  6
CONTINUOUS
 10
13.0
 20
17.881
  7
TEXTSTYLE_5
 40
1.495
  1
                                                                      tel: 
 41
1.0
 72
0
  0
TEXT
  8
0
 62
5
  6
CONTINUOUS
 10
57.9869465649
 20
17.881
  7
TEXTSTYLE_5
 40
1.51
  1
+45 75723100     fax: +45 75723348
 41
1.0
 72
0
  0
TEXT
  8
0
 62
5
  6
CONTINUOUS
 10
13.0
 20
15.177
  7
TEXTSTYLE_5
 40
1.5
  1
                                                                      admin@unichains.dk  www.unichains.com
 41
1.0
 72
0
  0
TEXT
  8
0
 62
5
  6
CONTINUOUS
 10
99.75
 20
13.75
  7
TEXTSTYLE_6
 40
5.0
  1
1:1
 41
0.7
 72
1
 11
105.0
 21
13.75
  0
TEXT
  8
0
 62
5
  6
CONTINUOUS
 10
118.0
 20
13.75
  7
TEXTSTYLE_7
 40
7.5
  1
uni S-MPB Side Guard 1" Right
 41
0.3510775862
 72
0
  0
LINE
  8
0
 62
7
  6
CONTINUOUS
 10
210.0
 20
0.0
 11
0.0
 21
0.0
  0
LINE
  8
0
 62
7
  6
CONTINUOUS
 10
10.0
 20
10.0
 11
200.0
 21
10.0
  0
LINE
  8
0
 62
7
  6
CONTINUOUS
 10
10.0
 20
30.0
 11
200.0
 21
30.0
  0
LINE
  8
0
 62
7
  6
CONTINUOUS
 10
0.0
 20
0.0
 11
0.0
 21
297.0
  0
LINE
  8
0
 62
7
  6
CONTINUOUS
 10
10.0
 20
10.0
 11
10.0
 21
287.0
  0
LINE
  8
0
 62
7
  6
CONTINUOUS
 10
200.0
 20
287.0
 11
200.0
 21
10.0
  0
LINE
  8
0
 62
7
  6
CONTINUOUS
 10
210.0
 20
0.0
 11
210.0
 21
297.0
  0
LINE
  8
0
 62
7
  6
CONTINUOUS
 10
10.0
 20
287.0
 11
200.0
 21
287.0
  0
LINE
  8
0
 62
7
  6
CONTINUOUS
 10
0.0
 20
297.0
 11
210.0
 21
297.0
  0
LINE
  8
0
 62
7
  6
CONTINUOUS
 10
49.2412153813
 20
104.1533778733
 11
49.2412153813
 21
106.175590129
  0
LINE
  8
0
 62
7
  6
CONTINUOUS
 10
51.3112565848
 20
102.9251811848
 11
51.3112565848
 21
103.4141341161
  0
LINE
  8
0
 62
7
  6
CONTINUOUS
 10
51.3112565848
 20
106.4474524996
 11
51.3112565848
 21
106.9785455975
  0
LINE
  8
0
 62
7
  6
CONTINUOUS
 10
55.0112565848
 20
107.610400191
 11
55.0112565848
 21
106.2426509334
  0
LINE
  8
DEFAULT_1
 62
7
  6
CENTER
 10
55.7112565848
 20
100.4251811848
 11
55.7112565848
 21
110.1932714233
  0
LINE
  8
0
 62
7
  6
CONTINUOUS
 10
57.5112565848
 20
107.5165953803
 11
57.5112565848
 21
105.7793528292
  0
LINE
  8
0
 62
7
  6
CONTINUOUS
 10
58.3962565848
 20
105.3885921551
 11
58.3962565848
 21
108.0235684984
  0
LINE
  8
0
 62
7
  6
CONTINUOUS
 10
59.2962565848
 20
107.6106043359
 11
59.2962565848
 21
105.2540862539
  0
LINE
  8
0
 62
7
  6
CONTINUOUS
 10
82.0514451658
 20
98.8016886362
 11
82.0533132993
 21
98.8020625456
  0
POLYLINE
  8
0
 62
7
  6
CONTINUOUS
 66
1
 70
0
  0
VERTEX
  8
0
 62
7
  6
CONTINUOUS
 10
82.3379090622
 20
96.2779375975
  0
VERTEX
  8
0
 62
7
  6
CONTINUOUS
 10
82.7807935429
 20
96.3235518436
  0
VERTEX
  8
0
 62
7
  6
CONTINUOUS
 10
83.2094834287
 20
96.3840429629
  0
VERTEX
  8
0
 62
7
  6
CONTINUOUS
 10
83.6151207027
 20
96.4590017352
  0
VERTEX
  8
0
 62
7
  6
CONTINUOUS
 10
83.990175958
 20
96.54771228
  0
VERTEX
  8
0
 62
7
  6
CONTINUOUS
 10
84.3277538846
 20
96.6490181921
  0
VERTEX
  8
0
 62
7
  6
CONTINUOUS
 10
84.6214154116
 20
96.7609556438
  0
VERTEX
  8
0
 62
7
  6
CONTINUOUS
 10
84.8691052246
 20
96.8820032857
  0
VERTEX
  8
0
 62
7
  6
CONTINUOUS
 10
85.0727140011
 20
97.0118982496
  0
VERTEX
  8
0
 62
7
  6
CONTINUOUS
 10
85.2374060039
 20
97.1532966618
  0
VERTEX
  8
0
 62
7
  6
CONTINUOUS
 10
85.3662940915
 20
97.3103625156
  0
VERTEX
  8
0
 62
7
  6
CONTINUOUS
 10
85.457259253
 20
97.4848616784
  0
VERTEX
  8
0
 62
7
  6
CONTINUOUS
 10
85.5047653299
 20
97.6713048526
  0
VERTEX
  8
0
 62
7
  6
CONTINUOUS
 10
85.5112556235
 20
97.7718030639
  0
SEQEND
  0
POLYLINE
  8
0
 62
7
  6
CONTINUOUS
 66
1
 70
0
  0
VERTEX
  8
0
 62
7
  6
CONTINUOUS
 10
81.3082963407
 20
96.1743660538
  0
VERTEX
  8
0
 62
7
  6
CONTINUOUS
 10
81.3461078238
 20
96.1754776332
  0
VERTEX
  8
0
 62
7
  6
CONTINUOUS
 10
81.4174456914
 20
96.1826209692
  0
VERTEX
  8
0
 62
7
  6
CONTINUOUS
 10
81.4889430815
 20
96.193691401
  0
VERTEX
  8
0
 62
7
  6
CONTINUOUS
 10
81.5549120223
 20
96.2050407757
  0
VERTEX
  8
0
 62
7
  6
CONTINUOUS
 10
81.6220647146
 20
96.2162402298
  0
VERTEX
  8
0
 62
7
  6
CONTINUOUS
 10
81.6936060757
 20
96.2268939347
  0
VERTEX
  8
0
 62
7
  6
CONTINUOUS
 10
81.7721435227
 20
96.2365949453
  0
VERTEX
  8
0
 62
7
  6
CONTINUOUS
 10
81.8587184896
 20
96.2446799145
  0
VERTEX
  8
0
 62
7
  6
CONTINUOUS
 10
82.3379090622
 20
96.2779375975
  0
SEQEND
  0
LINE
  8
0
 62
7
  6
CONTINUOUS
 10
79.8112633
 20
96.1742306452
 11
81.3082948652
 21
96.1743652683
  0
LINE
  8
0
 62
7
  6
CONTINUOUS
 10
78.9262565848
 20
96.2267938712
 11
79.1070168219
 21
96.2267938712
  0
POLYLINE
  8
0
 62
7
  6
CONTINUOUS
 66
1
 70
0
  0
VERTEX
  8
0
 62
7
  6
CONTINUOUS
 10
79.107016839
 20
96.226795279
  0
VERTEX
  8
0
 62
7
  6
CONTINUOUS
 10
79.1643460175
 20
96.2262496768
  0
VERTEX
  8
0
 62
7
  6
CONTINUOUS
 10
79.2552657145
 20
96.2232348675
  0
VERTEX
  8
0
 62
7
  6
CONTINUOUS
 10
79.3405256947
 20
96.2181586452
  0
VERTEX
  8
0
 62
7
  6
CONTINUOUS
 10
79.4200716523
 20
96.2116223478
  0
VERTEX
  8
0
 62
7
  6
CONTINUOUS
 10
79.4945509871
 20
96.2041364615
  0
VERTEX
  8
0
 62
7
  6
CONTINUOUS
 10
79.5651743644
 20
96.1961404842
  0
VERTEX
  8
0
 62
7
  6
CONTINUOUS
 10
79.633254298
 20
96.1881167933
  0
VERTEX
  8
0
 62
7
  6
CONTINUOUS
 10
79.7017005125
 20
96.1806241797
  0
VERTEX
  8
0
 62
7
  6
CONTINUOUS
 10
79.7698035296
 20
96.175316802
  0
VERTEX
  8
0
 62
7
  6
CONTINUOUS
 10
79.8112634616
 20
96.1742320622
  0
SEQEND
  0
LINE
  8
0
 62
7
  6
CONTINUOUS
 10
82.070614816
 20
98.8049457656
 11
82.0575833595
 21
98.8028710284
  0
POLYLINE
  8
0
 62
7
  6
CONTINUOUS
 66
1
 70
0
  0
VERTEX
  8
0
 62
7
  6
CONTINUOUS
 10
78.9262565848
 20
96.2267938712
  0
VERTEX
  8
0
 62
7
  6
CONTINUOUS
 10
78.8795172809
 20
96.228983227
  0
VERTEX
  8
0
 62
7
  6
CONTINUOUS
 10
78.7916951288
 20
96.2452409514
  0
VERTEX
  8
0
 62
7
  6
CONTINUOUS
 10
78.7056840845
 20
96.2780759508
  0
VERTEX
  8
0
 62
7
  6
CONTINUOUS
 10
78.6274198479
 20
96.3259240611
  0
VERTEX
  8
0
 62
7
  6
CONTINUOUS
 10
78.5569272632
 20
96.3897540335
  0
VERTEX
  8
0
 62
7
  6
CONTINUOUS
 10
78.4998775963
 20
96.4656407395
  0
VERTEX
  8
0
 62
7
  6
CONTINUOUS
 10
78.4587395851
 20
96.5495148397
  0
VERTEX
  8
0
 62
7
  6
CONTINUOUS
 10
78.434260171
 20
96.6376898373
  0
VERTEX
  8
0
 62
7
  6
CONTINUOUS
 10
78.4262565848
 20
96.7267938712
  0
SEQEND
  0
LINE
  8
0
 62
7
  6
CONTINUOUS
 10
77.8827211217
 20
96.660803369
 11
78.4263875273
 21
96.4978747767
  0
POLYLINE
  8
0
 62
7
  6
CONTINUOUS
 66
1
 70
0
  0
VERTEX
  8
0
 62
7
  6
CONTINUOUS
 10
78.4264135583
 20
96.4978671969
  0
VERTEX
  8
0
 62
7
  6
CONTINUOUS
 10
78.4681815105
 20
96.4844739886
  0
VERTEX
  8
0
 62
7
  6
CONTINUOUS
 10
78.4957425335
 20
96.4740714988
  0
SEQEND
  0
POLYLINE
  8
0
 62
7
  6
CONTINUOUS
 66
1
 70
0
  0
VERTEX
  8
0
 62
7
  6
CONTINUOUS
 10
77.8827041815
 20
96.6608084463
  0
VERTEX
  8
0
 62
7
  6
CONTINUOUS
 10
77.8071123274
 20
96.6903408618
  0
VERTEX
  8
0
 62
7
  6
CONTINUOUS
 10
77.7275870452
 20
96.7387636371
  0
VERTEX
  8
0
 62
7
  6
CONTINUOUS
 10
77.6583509238
 20
96.801164731
  0
VERTEX
  8
0
 62
7
  6
CONTINUOUS
 10
77.6019070502
 20
96.8753200023
  0
VERTEX
  8
0
 62
7
  6
CONTINUOUS
 10
77.5602570987
 20
96.9585275754
  0
VERTEX
  8
0
 62
7
  6
CONTINUOUS
 10
77.5347959548
 20
97.0477447238
  0
VERTEX
  8
0
 62
7
  6
CONTINUOUS
 10
77.5262565848
 20
97.1397580337
  0
SEQEND
  0
LINE
  8
DEFAULT_1
 62
7
  6
CENTER
 10
68.4112565848
 20
106.7751811848
 11
68.4112565848
 21
104.3752811848
  0
LINE
  8
0
 62
2
  6
CONTINUOUS
 10
68.4112565848
 20
103.2551811848
 11
68.4112565848
 21
101.4951811848
  0
LINE
  8
DEFAULT_1
 62
7
  6
CENTER
 10
68.4112565848
 20
97.9751811848
 11
68.4112565848
 21
100.3750811848
  0
LINE
  8
0
 62
7
  6
CONTINUOUS
 10
85.0112490916
 20
102.3251811848
 11
78.8940180093
 21
102.3251811848
  0
LINE
  8
DEFAULT_1
 62
7
  6
CENTER
 10
72.8112565848
 20
102.3751811848
 11
70.4113565848
 21
102.3751811848
  0
LINE
  8
0
 62
2
  6
CONTINUOUS
 10
69.2912565848
 20
102.3751811848
 11
67.5312565848
 21
102.3751811848
  0
LINE
  8
DEFAULT_1
 62
7
  6
CENTER
 10
64.0112565848
 20
102.3751811848
 11
66.4111565848
 21
102.3751811848
  0
LINE
  8
0
 62
7
  6
CONTINUOUS
 10
51.8112640779
 20
102.4251811848
 11
57.9284951603
 21
102.4251811848
  0
LINE
  8
0
 62
7
  6
CONTINUOUS
 10
49.6673239097
 20
103.6598215005
 11
87.0073798657
 21
98.0793127474
  0
LINE
  8
0
 62
7
  6
CONTINUOUS
 10
87.1551892768
 20
101.0905408665
 11
49.8151333209
 21
106.6710496196
  0
POLYLINE
  8
0
 62
7
  6
CONTINUOUS
 66
1
 70
0
  0
VERTEX
  8
0
 62
7
  6
CONTINUOUS
 10
58.9398089881
 20
108.0895539232
  0
VERTEX
  8
0
 62
7
  6
CONTINUOUS
 10
59.0154008422
 20
108.0600215078
  0
VERTEX
  8
0
 62
7
  6
CONTINUOUS
 10
59.0949261244
 20
108.0115987325
  0
VERTEX
  8
0
 62
7
  6
CONTINUOUS
 10
59.1641622458
 20
107.9491976385
  0
VERTEX
  8
0
 62
7
  6
CONTINUOUS
 10
59.2206061194
 20
107.8750423673
  0
VERTEX
  8
0
 62
7
  6
CONTINUOUS
 10
59.2622560708
 20
107.7918347941
  0
VERTEX
  8
0
 62
7
  6
CONTINUOUS
 10
59.2877172148
 20
107.7026176458
  0
VERTEX
  8
0
 62
7
  6
CONTINUOUS
 10
59.2962565848
 20
107.6106043359
  0
SEQEND
  0
LINE
  8
0
 62
7
  6
CONTINUOUS
 10
58.9397920479
 20
108.0895590005
 11
58.3961256416
 21
108.2524875931
  0
POLYLINE
  8
0
 62
7
  6
CONTINUOUS
 66
1
 70
0
  0
VERTEX
  8
0
 62
7
  6
CONTINUOUS
 10
58.3960993552
 20
108.2524952142
  0
VERTEX
  8
0
 62
7
  6
CONTINUOUS
 10
58.3543307966
 20
108.2658887054
  0
VERTEX
  8
0
 62
7
  6
CONTINUOUS
 10
58.3267706045
 20
108.2762909351
  0
SEQEND
  0
LINE
  8
0
 62
7
  6
CONTINUOUS
 10
54.7710672307
 20
105.9486735761
 11
54.769275359
 21
105.948314694
  0
LINE
  8
0
 62
7
  6
CONTINUOUS
 10
54.7518983536
 20
105.9454166039
 11
54.76473164
 21
105.9474553737
  0
LINE
  8
0
 62
7
  6
CONTINUOUS
 10
57.8962565848
 20
108.5235684984
 11
57.7154963477
 21
108.5235684984
  0
LINE
  8
0
 62
7
  6
CONTINUOUS
 10
57.0112498696
 20
108.5761317244
 11
55.5142183059
 21
108.5759971013
  0
POLYLINE
  8
0
 62
7
  6
CONTINUOUS
 66
1
 70
0
  0
VERTEX
  8
0
 62
7
  6
CONTINUOUS
 10
57.7154963306
 20
108.5235670905
  0
VERTEX
  8
0
 62
7
  6
CONTINUOUS
 10
57.6581671521
 20
108.5241126928
  0
VERTEX
  8
0
 62
7
  6
CONTINUOUS
 10
57.5672474551
 20
108.5271275021
  0
VERTEX
  8
0
 62
7
  6
CONTINUOUS
 10
57.4819874749
 20
108.5322037244
  0
VERTEX
  8
0
 62
7
  6
CONTINUOUS
 10
57.4024415173
 20
108.5387400217
  0
VERTEX
  8
0
 62
7
  6
CONTINUOUS
 10
57.3279621825
 20
108.5462259081
  0
VERTEX
  8
0
 62
7
  6
CONTINUOUS
 10
57.2573388051
 20
108.5542218853
  0
VERTEX
  8
0
 62
7
  6
CONTINUOUS
 10
57.1892588716
 20
108.5622455762
  0
VERTEX
  8
0
 62
7
  6
CONTINUOUS
 10
57.1208126571
 20
108.5697381899
  0
VERTEX
  8
0
 62
7
  6
CONTINUOUS
 10
57.05270964
 20
108.5750455676
  0
VERTEX
  8
0
 62
7
  6
CONTINUOUS
 10
57.011249708
 20
108.5761303074
  0
SEQEND
  0
POLYLINE
  8
0
 62
7
  6
CONTINUOUS
 66
1
 70
0
  0
VERTEX
  8
0
 62
7
  6
CONTINUOUS
 10
57.8962565848
 20
108.5235684984
  0
VERTEX
  8
0
 62
7
  6
CONTINUOUS
 10
57.9429958887
 20
108.5213791426
  0
VERTEX
  8
0
 62
7
  6
CONTINUOUS
 10
58.0308180408
 20
108.5051214182
  0
VERTEX
  8
0
 62
7
  6
CONTINUOUS
 10
58.1168290851
 20
108.4722864188
  0
VERTEX
  8
0
 62
7
  6
CONTINUOUS
 10
58.1950933217
 20
108.4244383085
  0
VERTEX
  8
0
 62
7
  6
CONTINUOUS
 10
58.2655859064
 20
108.3606083361
  0
VERTEX
  8
0
 62
7
  6
CONTINUOUS
 10
58.3226355733
 20
108.28472163
  0
VERTEX
  8
0
 62
7
  6
CONTINUOUS
 10
58.3637735845
 20
108.2008475298
  0
VERTEX
  8
0
 62
7
  6
CONTINUOUS
 10
58.3882529985
 20
108.1126725323
  0
VERTEX
  8
0
 62
7
  6
CONTINUOUS
 10
58.3962565848
 20
108.0235684984
  0
SEQEND
  0
POLYLINE
  8
0
 62
7
  6
CONTINUOUS
 66
1
 70
0
  0
VERTEX
  8
0
 62
7
  6
CONTINUOUS
 10
54.484601882
 20
108.472424574
  0
VERTEX
  8
0
 62
7
  6
CONTINUOUS
 10
54.0417144915
 20
108.426809902
  0
VERTEX
  8
0
 62
7
  6
CONTINUOUS
 10
53.6130220089
 20
108.3663181587
  0
VERTEX
  8
0
 62
7
  6
CONTINUOUS
 10
53.2073831896
 20
108.2913587006
  0
VERTEX
  8
0
 62
7
  6
CONTINUOUS
 10
52.8323279363
 20
108.2026476274
  0
VERTEX
  8
0
 62
7
  6
CONTINUOUS
 10
52.4947514044
 20
108.1013415224
  0
VERTEX
  8
0
 62
7
  6
CONTINUOUS
 10
52.2010918046
 20
107.9894041686
  0
VERTEX
  8
0
 62
7
  6
CONTINUOUS
 10
51.9534037736
 20
107.8683567722
  0
VERTEX
  8
0
 62
7
  6
CONTINUOUS
 10
51.7497963273
 20
107.7384620446
  0
VERTEX
  8
0
 62
7
  6
CONTINUOUS
 10
51.5851054498
 20
107.5970639727
  0
VERTEX
  8
0
 62
7
  6
CONTINUOUS
 10
51.4562178658
 20
107.4399980057
  0
VERTEX
  8
0
 62
7
  6
CONTINUOUS
 10
51.3652532283
 20
107.2654989291
  0
VERTEX
  8
0
 62
7
  6
CONTINUOUS
 10
51.3177477596
 20
107.0790569267
  0
VERTEX
  8
0
 62
7
  6
CONTINUOUS
 10
51.3112575297
 20
106.978559464
  0
SEQEND
  0
POLYLINE
  8
0
 62
7
  6
CONTINUOUS
 66
1
 70
0
  0
VERTEX
  8
0
 62
7
  6
CONTINUOUS
 10
55.5142168304
 20
108.5759963157
  0
VERTEX
  8
0
 62
7
  6
CONTINUOUS
 10
55.476405348
 20
108.5748847365
  0
VERTEX
  8
0
 62
7
  6
CONTINUOUS
 10
55.4050674802
 20
108.5677414006
  0
VERTEX
  8
0
 62
7
  6
CONTINUOUS
 10
55.3335700895
 20
108.5566709688
  0
VERTEX
  8
0
 62
7
  6
CONTINUOUS
 10
55.2676011484
 20
108.545321594
  0
VERTEX
  8
0
 62
7
  6
CONTINUOUS
 10
55.200448456
 20
108.5341221399
  0
VERTEX
  8
0
 62
7
  6
CONTINUOUS
 10
55.1289070947
 20
108.523468435
  0
VERTEX
  8
0
 62
7
  6
CONTINUOUS
 10
55.0503696475
 20
108.5137674243
  0
VERTEX
  8
0
 62
7
  6
CONTINUOUS
 10
54.9637946803
 20
108.5056824551
  0
VERTEX
  8
0
 62
7
  6
CONTINUOUS
 10
54.484601882
 20
108.472424574
  0
SEQEND
  0
LINE
  8
0
 62
7
  6
CONTINUOUS
 10
77.5262565848
 20
97.1397580337
 11
77.5262565848
 21
99.4962761157
  0
LINE
  8
0
 62
7
  6
CONTINUOUS
 10
78.4262565848
 20
96.7267938712
 11
78.4262565848
 21
99.3617702145
  0
LINE
  8
0
 62
7
  6
CONTINUOUS
 10
79.3112565848
 20
97.2337669893
 11
79.3112565848
 21
98.9710095403
  0
LINE
  8
DEFAULT_1
 62
7
  6
CENTER
 10
81.1112565848
 20
94.5570909463
 11
81.1112565848
 21
104.3251811848
  0
LINE
  8
0
 62
7
  6
CONTINUOUS
 10
81.8112565848
 20
98.5077114361
 11
81.8112565848
 21
97.13996218
  0
LINE
  8
0
 62
7
  6
CONTINUOUS
 10
85.5112565848
 20
97.7718167746
 11
85.5112565848
 21
98.3029098699
  0
LINE
  8
0
 62
7
  6
CONTINUOUS
 10
85.5112565848
 20
101.3362282535
 11
85.5112565848
 21
101.8251811848
  0
LINE
  8
0
 62
7
  6
CONTINUOUS
 10
87.5812977883
 20
98.5747722384
 11
87.5812977883
 21
100.5969844941
  0
LINE
  8
0
 62
7
  6
CONTINUOUS
 10
132.7634043294
 20
98.8153968826
 11
132.7634043294
 21
101.8251811848
  0
LINE
  8
0
 62
7
  6
CONTINUOUS
 10
132.7634043294
 20
102.9251811848
 11
132.7634043294
 21
105.9349654927
  0
LINE
  8
0
 62
9
  6
CONTINUOUS
 10
134.4715591433
 20
101.8251811848
 11
134.4715591433
 21
98.4111100855
  0
LINE
  8
0
 62
9
  6
CONTINUOUS
 10
134.7774506417
 20
98.4111100855
 11
134.7774506417
 21
102.3251811848
  0
POLYLINE
  8
0
 62
9
  6
CONTINUOUS
 66
1
 70
0
  0
VERTEX
  8
0
 62
9
  6
CONTINUOUS
 10
134.4715591433
 20
101.8251811848
  0
VERTEX
  8
0
 62
9
  6
CONTINUOUS
 10
134.4762048728
 20
101.9119918337
  0
VERTEX
  8
0
 62
9
  6
CONTINUOUS
 10
134.4900038425
 20
101.9961786122
  0
VERTEX
  8
0
 62
9
  6
CONTINUOUS
 10
134.5125375184
 20
102.0751717997
  0
VERTEX
  8
0
 62
9
  6
CONTINUOUS
 10
134.5431206844
 20
102.1465682207
  0
VERTEX
  8
0
 62
9
  6
CONTINUOUS
 10
134.5808244147
 20
102.2081993438
  0
VERTEX
  8
0
 62
9
  6
CONTINUOUS
 10
134.6245028924
 20
102.2581919992
  0
VERTEX
  8
0
 62
9
  6
CONTINUOUS
 10
134.6728285751
 20
102.2950268928
  0
VERTEX
  8
0
 62
9
  6
CONTINUOUS
 10
134.7243327338
 20
102.3175849441
  0
VERTEX
  8
0
 62
9
  6
CONTINUOUS
 10
134.7774506417
 20
102.3251811848
  0
SEQEND
  0
POLYLINE
  8
0
 62
9
  6
CONTINUOUS
 66
1
 70
0
  0
VERTEX
  8
0
 62
9
  6
CONTINUOUS
 10
134.4715591432
 20
98.4111100855
  0
VERTEX
  8
0
 62
9
  6
CONTINUOUS
 10
134.4613313798
 20
98.3131268859
  0
VERTEX
  8
0
 62
9
  6
CONTINUOUS
 10
134.4639187409
 20
98.2191159079
  0
VERTEX
  8
0
 62
9
  6
CONTINUOUS
 10
134.4792162931
 20
98.1328882596
  0
VERTEX
  8
0
 62
9
  6
CONTINUOUS
 10
134.5066038391
 20
98.0579394723
  0
VERTEX
  8
0
 62
9
  6
CONTINUOUS
 10
134.5449710788
 20
97.9973078049
  0
VERTEX
  8
0
 62
9
  6
CONTINUOUS
 10
134.5927626364
 20
97.953451099
  0
VERTEX
  8
0
 62
9
  6
CONTINUOUS
 10
134.6480411192
 20
97.9281471723
  0
SEQEND
  0
LINE
  8
0
 62
9
  6
CONTINUOUS
 10
134.7774506417
 20
98.4111100855
 11
134.6480411192
 21
97.9281471723
  0
LINE
  8
DEFAULT_1
 62
2
  6
CENTER
 10
137.1634043294
 20
94.5570909463
 11
137.1634043294
 21
110.1932714233
  0
POLYLINE
  8
0
 62
9
  6
CONTINUOUS
 66
1
 70
0
  0
VERTEX
  8
0
 62
9
  6
CONTINUOUS
 10
139.8554673284
 20
101.8251811848
  0
VERTEX
  8
0
 62
9
  6
CONTINUOUS
 10
139.8504063726
 20
101.9119873424
  0
VERTEX
  8
0
 62
9
  6
CONTINUOUS
 10
139.8353730313
 20
101.9961742885
  0
VERTEX
  8
0
 62
9
  6
CONTINUOUS
 10
139.8108230167
 20
102.0751684575
  0
VERTEX
  8
0
 62
9
  6
CONTINUOUS
 10
139.7775030396
 20
102.146565694
  0
VERTEX
  8
0
 62
9
  6
CONTINUOUS
 10
139.7364250176
 20
102.208197719
  0
VERTEX
  8
0
 62
9
  6
CONTINUOUS
 10
139.6888374398
 20
102.2581910897
  0
VERTEX
  8
0
 62
9
  6
CONTINUOUS
 10
139.6361866737
 20
102.2950265041
  0
VERTEX
  8
0
 62
9
  6
CONTINUOUS
 10
139.5800729646
 20
102.3175848505
  0
VERTEX
  8
0
 62
9
  6
CONTINUOUS
 10
139.5222010933
 20
102.3251811848
  0
SEQEND
  0
LINE
  8
0
 62
9
  6
CONTINUOUS
 10
139.5222010933
 20
97.1397580337
 11
139.5222010933
 21
102.3251811848
  0
LINE
  8
0
 62
9
  6
CONTINUOUS
 10
139.8554673284
 20
97.1397580337
 11
139.8554673284
 21
101.8251811848
  0
POLYLINE
  8
0
 62
9
  6
CONTINUOUS
 66
1
 70
0
  0
VERTEX
  8
0
 62
9
  6
CONTINUOUS
 10
141.6175648984
 20
108.367547712
  0
VERTEX
  8
0
 62
9
  6
CONTINUOUS
 10
141.6056179684
 20
108.3283598421
  0
VERTEX
  8
0
 62
9
  6
CONTINUOUS
 10
141.6011084552
 20
108.3140160085
  0
VERTEX
  8
0
 62
9
  6
CONTINUOUS
 10
141.5961060905
 20
108.2985079743
  0
VERTEX
  8
0
 62
9
  6
CONTINUOUS
 10
141.5906718182
 20
108.282172614
  0
VERTEX
  8
0
 62
9
  6
CONTINUOUS
 10
141.5848607066
 20
108.2652961851
  0
VERTEX
  8
0
 62
9
  6
CONTINUOUS
 10
141.5786126449
 20
108.2477812338
  0
VERTEX
  8
0
 62
9
  6
CONTINUOUS
 10
141.5718932377
 20
108.2296042628
  0
VERTEX
  8
0
 62
9
  6
CONTINUOUS
 10
141.5646892342
 20
108.2107898784
  0
VERTEX
  8
0
 62
9
  6
CONTINUOUS
 10
141.5569964804
 20
108.1913889226
  0
VERTEX
  8
0
 62
9
  6
CONTINUOUS
 10
141.5488163198
 20
108.1714463166
  0
VERTEX
  8
0
 62
9
  6
CONTINUOUS
 10
141.5401313313
 20
108.150937516
  0
VERTEX
  8
0
 62
9
  6
CONTINUOUS
 10
141.5309420456
 20
108.1298566153
  0
VERTEX
  8
0
 62
9
  6
CONTINUOUS
 10
141.5212900267
 20
108.1082649026
  0
SEQEND
  0
POLYLINE
  8
0
 62
9
  6
CONTINUOUS
 66
1
 70
0
  0
VERTEX
  8
0
 62
9
  6
CONTINUOUS
 10
141.4914494993
 20
108.0430443988
  0
VERTEX
  8
0
 62
9
  6
CONTINUOUS
 10
141.4822192352
 20
108.0221906103
  0
VERTEX
  8
0
 62
9
  6
CONTINUOUS
 10
141.4741630677
 20
108.0023772985
  0
SEQEND
  0
LINE
  8
0
 62
9
  6
CONTINUOUS
 10
141.5212900267
 20
108.1082649026
 11
141.4914494993
 21
108.0430443988
  0
POLYLINE
  8
0
 62
9
  6
CONTINUOUS
 66
1
 70
0
  0
VERTEX
  8
0
 62
9
  6
CONTINUOUS
 10
141.6305460838
 20
108.4042244683
  0
VERTEX
  8
0
 62
9
  6
CONTINUOUS
 10
141.6279319084
 20
108.3987013258
  0
VERTEX
  8
0
 62
9
  6
CONTINUOUS
 10
141.6248097686
 20
108.3903041258
  0
VERTEX
  8
0
 62
9
  6
CONTINUOUS
 10
141.6213083036
 20
108.3796228676
  0
VERTEX
  8
0
 62
9
  6
CONTINUOUS
 10
141.6175648984
 20
108.367547712
  0
SEQEND
  0
POLYLINE
  8
0
 62
9
  6
CONTINUOUS
 66
1
 70
0
  0
VERTEX
  8
0
 62
9
  6
CONTINUOUS
 10
141.5633989047
 20
96.7267750947
  0
VERTEX
  8
0
 62
9
  6
CONTINUOUS
 10
141.5647940092
 20
96.7067693655
  0
VERTEX
  8
0
 62
9
  6
CONTINUOUS
 10
141.5682345045
 20
96.6857110449
  0
VERTEX
  8
0
 62
9
  6
CONTINUOUS
 10
141.5729411146
 20
96.6638969239
  0
VERTEX
  8
0
 62
9
  6
CONTINUOUS
 10
141.5783398829
 20
96.6418544055
  0
VERTEX
  8
0
 62
9
  6
CONTINUOUS
 10
141.5839756101
 20
96.6202594081
  0
SEQEND
  0
POLYLINE
  8
0
 62
9
  6
CONTINUOUS
 66
1
 70
0
  0
VERTEX
  8
0
 62
9
  6
CONTINUOUS
 10
140.4635251062
 20
101.8251811848
  0
VERTEX
  8
0
 62
9
  6
CONTINUOUS
 10
140.4584620433
 20
101.9120052736
  0
VERTEX
  8
0
 62
9
  6
CONTINUOUS
 10
140.443426693
 20
101.9961912564
  0
VERTEX
  8
0
 62
9
  6
CONTINUOUS
 10
140.4188758969
 20
102.0751811848
  0
VERTEX
  8
0
 62
9
  6
CONTINUOUS
 10
140.3855556186
 20
102.1465749896
  0
VERTEX
  8
0
 62
9
  6
CONTINUOUS
 10
140.3444782778
 20
102.2082034063
  0
VERTEX
  8
0
 62
9
  6
CONTINUOUS
 10
140.2968919887
 20
102.2581938867
  0
VERTEX
  8
0
 62
9
  6
CONTINUOUS
 10
140.2442426366
 20
102.2950274952
  0
VERTEX
  8
0
 62
9
  6
CONTINUOUS
 10
140.1881299455
 20
102.3175850613
  0
VERTEX
  8
0
 62
9
  6
CONTINUOUS
 10
140.1302588711
 20
102.3251811848
  0
SEQEND
  0
LINE
  8
0
 62
9
  6
CONTINUOUS
 10
141.6367609649
 20
96.3514219143
 11
141.6369677692
 21
96.3462500734
  0
POLYLINE
  8
0
 62
9
  6
CONTINUOUS
 66
1
 70
0
  0
VERTEX
  8
0
 62
9
  6
CONTINUOUS
 10
141.1286326022
 20
103.3953565673
  0
VERTEX
  8
0
 62
9
  6
CONTINUOUS
 10
141.1300385503
 20
103.3322602604
  0
VERTEX
  8
0
 62
9
  6
CONTINUOUS
 10
141.1349105917
 20
103.2619986001
  0
VERTEX
  8
0
 62
9
  6
CONTINUOUS
 10
141.14420921
 20
103.1852614694
  0
VERTEX
  8
0
 62
9
  6
CONTINUOUS
 10
141.1588514912
 20
103.1027643412
  0
VERTEX
  8
0
 62
9
  6
CONTINUOUS
 10
141.1796865161
 20
103.0156230299
  0
VERTEX
  8
0
 62
9
  6
CONTINUOUS
 10
141.2075932195
 20
102.9251838216
  0
SEQEND
  0
LINE
  8
0
 62
9
  6
CONTINUOUS
 10
140.4635251062
 20
96.9768294432
 11
140.4635251062
 21
101.8251811848
  0
LINE
  8
0
 62
9
  6
CONTINUOUS
 10
141.0634043294
 20
96.7267938712
 11
141.0634043295
 21
102.3251811848
  0
LINE
  8
0
 62
9
  6
CONTINUOUS
 10
141.1286326022
 20
103.3953565673
 11
141.1286326022
 21
105.8384345596
  0
LINE
  8
0
 62
9
  6
CONTINUOUS
 10
141.4626583732
 20
107.610400191
 11
141.4626583732
 21
106.242648458
  0
POLYLINE
  8
0
 62
9
  6
CONTINUOUS
 66
1
 70
0
  0
VERTEX
  8
0
 62
9
  6
CONTINUOUS
 10
141.643687656
 20
108.3723265635
  0
VERTEX
  8
0
 62
9
  6
CONTINUOUS
 10
141.6431491294
 20
108.3424020452
  0
VERTEX
  8
0
 62
9
  6
CONTINUOUS
 10
141.64483708
 20
108.2967958322
  0
VERTEX
  8
0
 62
9
  6
CONTINUOUS
 10
141.6494305746
 20
108.233951321
  0
VERTEX
  8
0
 62
9
  6
CONTINUOUS
 10
141.6577736626
 20
108.1527961016
  0
VERTEX
  8
0
 62
9
  6
CONTINUOUS
 10
141.6697316615
 20
108.0604288479
  0
VERTEX
  8
0
 62
9
  6
CONTINUOUS
 10
141.6836612076
 20
107.9693546639
  0
VERTEX
  8
0
 62
9
  6
CONTINUOUS
 10
141.6984718781
 20
107.8837950241
  0
VERTEX
  8
0
 62
9
  6
CONTINUOUS
 10
141.7135367887
 20
107.8047251879
  0
VERTEX
  8
0
 62
9
  6
CONTINUOUS
 10
141.7283404323
 20
107.7327565655
  0
VERTEX
  8
0
 62
9
  6
CONTINUOUS
 10
141.7425078671
 20
107.6680400028
  0
VERTEX
  8
0
 62
9
  6
CONTINUOUS
 10
141.7557893307
 20
107.610400191
  0
SEQEND
  0
POLYLINE
  8
0
 62
9
  6
CONTINUOUS
 66
1
 70
0
  0
VERTEX
  8
0
 62
9
  6
CONTINUOUS
 10
141.0633967977
 20
99.1028196428
  0
VERTEX
  8
0
 62
9
  6
CONTINUOUS
 10
141.0635620932
 20
99.1082404991
  0
VERTEX
  8
0
 62
9
  6
CONTINUOUS
 10
141.0647327415
 20
99.1231666708
  0
VERTEX
  8
0
 62
9
  6
CONTINUOUS
 10
141.0678938884
 20
99.1471506143
  0
VERTEX
  8
0
 62
9
  6
CONTINUOUS
 10
141.0740591844
 20
99.1799991285
  0
VERTEX
  8
0
 62
9
  6
CONTINUOUS
 10
141.0846848295
 20
99.2220412648
  0
VERTEX
  8
0
 62
9
  6
CONTINUOUS
 10
141.1015695363
 20
99.2734472957
  0
VERTEX
  8
0
 62
9
  6
CONTINUOUS
 10
141.1269290523
 20
99.3338160944
  0
VERTEX
  8
0
 62
9
  6
CONTINUOUS
 10
141.1638431562
 20
99.4028903656
  0
VERTEX
  8
0
 62
9
  6
CONTINUOUS
 10
141.2158663007
 20
99.479116977
  0
VERTEX
  8
0
 62
9
  6
CONTINUOUS
 10
141.285546422
 20
99.5581285728
  0
VERTEX
  8
0
 62
9
  6
CONTINUOUS
 10
141.3738937493
 20
99.6340465672
  0
VERTEX
  8
0
 62
9
  6
CONTINUOUS
 10
141.4799431626
 20
99.7005047015
  0
VERTEX
  8
0
 62
9
  6
CONTINUOUS
 10
141.5995844783
 20
99.7513113856
  0
VERTEX
  8
0
 62
9
  6
CONTINUOUS
 10
141.7264156851
 20
99.7823680681
  0
VERTEX
  8
0
 62
9
  6
CONTINUOUS
 10
141.854617379
 20
99.7925978975
  0
SEQEND
  0
POLYLINE
  8
0
 62
9
  6
CONTINUOUS
 66
1
 70
0
  0
VERTEX
  8
0
 62
9
  6
CONTINUOUS
 10
141.4741630492
 20
108.0023754702
  0
VERTEX
  8
0
 62
9
  6
CONTINUOUS
 10
141.4692958264
 20
107.9099501725
  0
VERTEX
  8
0
 62
9
  6
CONTINUOUS
 10
141.4660096338
 20
107.8243311282
  0
VERTEX
  8
0
 62
9
  6
CONTINUOUS
 10
141.4639911372
 20
107.7458821586
  0
VERTEX
  8
0
 62
9
  6
CONTINUOUS
 10
141.4629558368
 20
107.674633407
  0
VERTEX
  8
0
 62
9
  6
CONTINUOUS
 10
141.4626583732
 20
107.610400191
  0
SEQEND
  0
POLYLINE
  8
0
 62
9
  6
CONTINUOUS
 66
1
 70
0
  0
VERTEX
  8
0
 62
9
  6
CONTINUOUS
 10
141.2075931865
 20
102.9251811848
  0
VERTEX
  8
0
 62
9
  6
CONTINUOUS
 10
141.1987622176
 20
102.8276409744
  0
VERTEX
  8
0
 62
9
  6
CONTINUOUS
 10
141.1726106276
 20
102.7338438422
  0
VERTEX
  8
0
 62
9
  6
CONTINUOUS
 10
141.1301425134
 20
102.6473996595
  0
VERTEX
  8
0
 62
9
  6
CONTINUOUS
 10
141.0729898499
 20
102.5716304647
  0
VERTEX
  8
0
 62
9
  6
CONTINUOUS
 10
141.0033489368
 20
102.5094480926
  0
VERTEX
  8
0
 62
9
  6
CONTINUOUS
 10
140.923896009
 20
102.4632422713
  0
VERTEX
  8
0
 62
9
  6
CONTINUOUS
 10
140.8376844012
 20
102.4347887782
  0
VERTEX
  8
0
 62
9
  6
CONTINUOUS
 10
140.7480272167
 20
102.4251811848
  0
SEQEND
  0
POLYLINE
  8
0
 62
9
  6
CONTINUOUS
 66
1
 70
0
  0
VERTEX
  8
0
 62
9
  6
CONTINUOUS
 10
139.8554673284
 20
97.1397580337
  0
VERTEX
  8
0
 62
9
  6
CONTINUOUS
 10
139.8351769183
 20
97.0453636735
  0
VERTEX
  8
0
 62
9
  6
CONTINUOUS
 10
139.8031616904
 20
96.9544648058
  0
VERTEX
  8
0
 62
9
  6
CONTINUOUS
 10
139.7606262173
 20
96.8705040161
  0
VERTEX
  8
0
 62
9
  6
CONTINUOUS
 10
139.7091615977
 20
96.7966231714
  0
VERTEX
  8
0
 62
9
  6
CONTINUOUS
 10
139.6506962377
 20
96.7355915091
  0
VERTEX
  8
0
 62
9
  6
CONTINUOUS
 10
139.5874189736
 20
96.6896939959
  0
VERTEX
  8
0
 62
9
  6
CONTINUOUS
 10
139.521700505
 20
96.660649925
  0
VERTEX
  8
0
 62
9
  6
CONTINUOUS
 10
139.456000782
 20
96.6495460784
  0
VERTEX
  8
0
 62
9
  6
CONTINUOUS
 10
139.3927915707
 20
96.6567951206
  0
SEQEND
  0
LINE
  8
0
 62
9
  6
CONTINUOUS
 10
139.5222010933
 20
97.1397580337
 11
139.3927915707
 21
96.6567951206
  0
POLYLINE
  8
0
 62
9
  6
CONTINUOUS
 66
1
 70
0
  0
VERTEX
  8
0
 62
9
  6
CONTINUOUS
 10
141.3066839724
 20
105.9465021043
  0
VERTEX
  8
0
 62
9
  6
CONTINUOUS
 10
141.2973892918
 20
105.9246435189
  0
VERTEX
  8
0
 62
9
  6
CONTINUOUS
 10
141.28889407
 20
105.905232891
  0
VERTEX
  8
0
 62
9
  6
CONTINUOUS
 10
141.2811570454
 20
105.8882753944
  0
VERTEX
  8
0
 62
9
  6
CONTINUOUS
 10
141.2737524856
 20
105.8729204293
  0
VERTEX
  8
0
 62
9
  6
CONTINUOUS
 10
141.2663264693
 20
105.8586286351
  0
VERTEX
  8
0
 62
9
  6
CONTINUOUS
 10
141.2590185872
 20
105.8458780694
  0
VERTEX
  8
0
 62
9
  6
CONTINUOUS
 10
141.2519945656
 20
105.8350301412
  0
VERTEX
  8
0
 62
9
  6
CONTINUOUS
 10
141.2450268958
 20
105.8257519956
  0
VERTEX
  8
0
 62
9
  6
CONTINUOUS
 10
141.2378443737
 20
105.8177355438
  0
VERTEX
  8
0
 62
9
  6
CONTINUOUS
 10
141.2302917427
 20
105.8109758486
  0
VERTEX
  8
0
 62
9
  6
CONTINUOUS
 10
141.2222709381
 20
105.8055129802
  0
VERTEX
  8
0
 62
9
  6
CONTINUOUS
 10
141.2139865347
 20
105.8015765121
  0
VERTEX
  8
0
 62
9
  6
CONTINUOUS
 10
141.2054890071
 20
105.7992062779
  0
VERTEX
  8
0
 62
9
  6
CONTINUOUS
 10
141.1962137252
 20
105.7983452238
  0
VERTEX
  8
0
 62
9
  6
CONTINUOUS
 10
141.1856245643
 20
105.7993903719
  0
VERTEX
  8
0
 62
9
  6
CONTINUOUS
 10
141.1735896975
 20
105.8030643174
  0
VERTEX
  8
0
 62
9
  6
CONTINUOUS
 10
141.1600545747
 20
105.8101715834
  0
VERTEX
  8
0
 62
9
  6
CONTINUOUS
 10
141.1450377552
 20
105.8216091549
  0
VERTEX
  8
0
 62
9
  6
CONTINUOUS
 10
141.1286326022
 20
105.8384345596
  0
SEQEND
  0
POLYLINE
  8
0
 62
9
  6
CONTINUOUS
 66
1
 70
0
  0
VERTEX
  8
0
 62
9
  6
CONTINUOUS
 10
141.4626583732
 20
106.242648458
  0
VERTEX
  8
0
 62
9
  6
CONTINUOUS
 10
141.4402397189
 20
106.2186093392
  0
VERTEX
  8
0
 62
9
  6
CONTINUOUS
 10
141.4193321529
 20
106.1881803005
  0
VERTEX
  8
0
 62
9
  6
CONTINUOUS
 10
141.4003154172
 20
106.1551427342
  0
VERTEX
  8
0
 62
9
  6
CONTINUOUS
 10
141.3829885712
 20
106.1213425653
  0
VERTEX
  8
0
 62
9
  6
CONTINUOUS
 10
141.367046215
 20
106.0876318632
  0
VERTEX
  8
0
 62
9
  6
CONTINUOUS
 10
141.3524269994
 20
106.0549130375
  0
VERTEX
  8
0
 62
9
  6
CONTINUOUS
 10
141.3393211876
 20
106.0244441514
  0
VERTEX
  8
0
 62
9
  6
CONTINUOUS
 10
141.3066839724
 20
105.9465021043
  0
SEQEND
  0
POLYLINE
  8
0
 62
9
  6
CONTINUOUS
 66
1
 70
0
  0
VERTEX
  8
0
 62
9
  6
CONTINUOUS
 10
141.6498178789
 20
108.3901521553
  0
VERTEX
  8
0
 62
9
  6
CONTINUOUS
 10
141.6459853127
 20
108.3879474095
  0
VERTEX
  8
0
 62
9
  6
CONTINUOUS
 10
141.643687656
 20
108.3723265635
  0
SEQEND
  0
LINE
  8
0
 62
9
  6
CONTINUOUS
 10
140.4635251062
 20
96.9768294432
 11
141.0634043294
 21
96.7267938712
  0
LINE
  8
0
 62
9
  6
CONTINUOUS
 10
141.5581513362
 20
99.0009979835
 11
141.5634043294
 21
98.9837128754
  0
POLYLINE
  8
0
 62
9
  6
CONTINUOUS
 66
1
 70
0
  0
VERTEX
  8
0
 62
9
  6
CONTINUOUS
 10
141.5839756101
 20
96.6202594081
  0
VERTEX
  8
0
 62
9
  6
CONTINUOUS
 10
141.600422383
 20
96.5585086734
  0
VERTEX
  8
0
 62
9
  6
CONTINUOUS
 10
141.6053780859
 20
96.5391556568
  0
VERTEX
  8
0
 62
9
  6
CONTINUOUS
 10
141.6099065669
 20
96.52080887
  0
VERTEX
  8
0
 62
9
  6
CONTINUOUS
 10
141.6140104297
 20
96.5033941472
  0
VERTEX
  8
0
 62
9
  6
CONTINUOUS
 10
141.617715024
 20
96.4867886811
  0
VERTEX
  8
0
 62
9
  6
CONTINUOUS
 10
141.6210558255
 20
96.4708394407
  0
VERTEX
  8
0
 62
9
  6
CONTINUOUS
 10
141.6240495362
 20
96.4554803146
  0
VERTEX
  8
0
 62
9
  6
CONTINUOUS
 10
141.6266557931
 20
96.4409666629
  0
VERTEX
  8
0
 62
9
  6
CONTINUOUS
 10
141.6288447244
 20
96.4276196505
  0
VERTEX
  8
0
 62
9
  6
CONTINUOUS
 10
141.6306886327
 20
96.4152076816
  0
VERTEX
  8
0
 62
9
  6
CONTINUOUS
 10
141.6322922596
 20
96.4031558435
  0
VERTEX
  8
0
 62
9
  6
CONTINUOUS
 10
141.6336991226
 20
96.3910785917
  0
VERTEX
  8
0
 62
9
  6
CONTINUOUS
 10
141.6348795727
 20
96.3791294827
  0
VERTEX
  8
0
 62
9
  6
CONTINUOUS
 10
141.6357915886
 20
96.3679405779
  0
VERTEX
  8
0
 62
9
  6
CONTINUOUS
 10
141.6364076601
 20
96.3584064174
  0
VERTEX
  8
0
 62
9
  6
CONTINUOUS
 10
141.6367609649
 20
96.3514219143
  0
SEQEND
  0
POLYLINE
  8
0
 62
9
  6
CONTINUOUS
 66
1
 70
0
  0
VERTEX
  8
0
 62
9
  6
CONTINUOUS
 10
142.5634043294
 20
99.9569938792
  0
VERTEX
  8
0
 62
9
  6
CONTINUOUS
 10
142.5730116892
 20
99.8605201676
  0
VERTEX
  8
0
 62
9
  6
CONTINUOUS
 10
142.6014645632
 20
99.7677538866
  0
VERTEX
  8
0
 62
9
  6
CONTINUOUS
 10
142.6476695233
 20
99.6822599924
  0
VERTEX
  8
0
 62
9
  6
CONTINUOUS
 10
142.7098509388
 20
99.6073239674
  0
VERTEX
  8
0
 62
9
  6
CONTINUOUS
 10
142.7856192129
 20
99.545825561
  0
VERTEX
  8
0
 62
9
  6
CONTINUOUS
 10
142.8720626133
 20
99.5001281225
  0
VERTEX
  8
0
 62
9
  6
CONTINUOUS
 10
142.9658591684
 20
99.4719877788
  0
VERTEX
  8
0
 62
9
  6
CONTINUOUS
 10
143.0634043294
 20
99.4624859475
  0
SEQEND
  0
LINE
  8
0
 62
7
  6
CONTINUOUS
 10
141.5634043294
 20
98.9837128754
 11
141.5634043294
 21
96.7267938712
  0
LINE
  8
0
 62
9
  6
CONTINUOUS
 10
141.735707962
 20
102.3251811848
 11
141.735707962
 21
101.8251811848
  0
LINE
  8
0
 62
9
  6
CONTINUOUS
 10
141.7557893307
 20
107.6104001896
 11
141.7557965642
 21
105.9469053832
  0
LINE
  8
0
 62
9
  6
CONTINUOUS
 10
141.854617379
 20
99.7925978975
 11
141.8546175646
 21
99.2980896626
  0
LINE
  8
0
 62
9
  6
CONTINUOUS
 10
141.8634043294
 20
99.2804176344
 11
141.8634043294
 21
97.2337669893
  0
LINE
  8
0
 62
9
  6
CONTINUOUS
 10
141.8634043294
 20
101.8148100335
 11
141.8634043297
 21
102.3148100335
  0
LINE
  8
0
 62
9
  6
CONTINUOUS
 10
141.8634043297
 20
102.4355523361
 11
141.8634043294
 21
102.7499226308
  0
LINE
  8
0
 62
9
  6
CONTINUOUS
 10
141.9634043294
 20
99.2980898461
 11
141.9634043294
 21
102.3148100333
  0
LINE
  8
0
 62
9
  6
CONTINUOUS
 10
141.9634043294
 20
102.4355523361
 11
141.9634043294
 21
102.4410444044
  0
LINE
  8
0
 62
9
  6
CONTINUOUS
 10
142.2886398911
 20
103.3953565673
 11
142.2886398911
 21
105.4500260548
  0
LINE
  8
0
 62
7
  6
CONTINUOUS
 10
142.5634043294
 20
99.9569938792
 11
142.5634043294
 21
102.4061714219
  0
POLYLINE
  8
0
 62
9
  6
CONTINUOUS
 66
1
 70
0
  0
VERTEX
  8
0
 62
9
  6
CONTINUOUS
 10
142.2886398088
 20
105.4500260548
  0
VERTEX
  8
0
 62
9
  6
CONTINUOUS
 10
142.2948547361
 20
105.5520644
  0
VERTEX
  8
0
 62
9
  6
CONTINUOUS
 10
142.3062615414
 20
105.6498023169
  0
VERTEX
  8
0
 62
9
  6
CONTINUOUS
 10
142.32237951
 20
105.7391208251
  0
VERTEX
  8
0
 62
9
  6
CONTINUOUS
 10
142.3425293846
 20
105.8162557416
  0
VERTEX
  8
0
 62
9
  6
CONTINUOUS
 10
142.365861987
 20
105.877956316
  0
VERTEX
  8
0
 62
9
  6
CONTINUOUS
 10
142.3913940015
 20
105.9216222385
  0
VERTEX
  8
0
 62
9
  6
CONTINUOUS
 10
142.4180494143
 20
105.9454132445
  0
SEQEND
  0
POLYLINE
  8
0
 62
9
  6
CONTINUOUS
 66
1
 70
0
  0
VERTEX
  8
0
 62
9
  6
CONTINUOUS
 10
141.5646577395
 20
98.9835879762
  0
VERTEX
  8
0
 62
9
  6
CONTINUOUS
 10
141.5691758868
 20
99.0289292644
  0
VERTEX
  8
0
 62
9
  6
CONTINUOUS
 10
141.5862687912
 20
99.0846211355
  0
VERTEX
  8
0
 62
9
  6
CONTINUOUS
 10
141.6140240279
 20
99.1359395089
  0
VERTEX
  8
0
 62
9
  6
CONTINUOUS
 10
141.6513774285
 20
99.1809154146
  0
VERTEX
  8
0
 62
9
  6
CONTINUOUS
 10
141.6968786461
 20
99.2178065478
  0
VERTEX
  8
0
 62
9
  6
CONTINUOUS
 10
141.7487929654
 20
99.2452082538
  0
VERTEX
  8
0
 62
9
  6
CONTINUOUS
 10
141.8050738552
 20
99.2620518141
  0
VERTEX
  8
0
 62
9
  6
CONTINUOUS
 10
141.8634043294
 20
99.2677142993
  0
SEQEND
  0
POLYLINE
  8
0
 62
9
  6
CONTINUOUS
 66
1
 70
0
  0
VERTEX
  8
0
 62
9
  6
CONTINUOUS
 10
141.5634043294
 20
98.9837128754
  0
VERTEX
  8
0
 62
9
  6
CONTINUOUS
 10
141.5709259558
 20
99.0497358955
  0
VERTEX
  8
0
 62
9
  6
CONTINUOUS
 10
141.5931136691
 20
99.1124482457
  0
VERTEX
  8
0
 62
9
  6
CONTINUOUS
 10
141.6288548847
 20
99.1687052668
  0
VERTEX
  8
0
 62
9
  6
CONTINUOUS
 10
141.6763573889
 20
99.215685997
  0
VERTEX
  8
0
 62
9
  6
CONTINUOUS
 10
141.7332392077
 20
99.2510346263
  0
VERTEX
  8
0
 62
9
  6
CONTINUOUS
 10
141.7966480492
 20
99.2729786267
  0
VERTEX
  8
0
 62
9
  6
CONTINUOUS
 10
141.8634043294
 20
99.2804176344
  0
SEQEND
  0
LINE
  8
0
 62
9
  6
CONTINUOUS
 10
141.735707962
 20
101.8251811848
 11
141.8163840354
 21
102.3186296331
  0
POLYLINE
  8
0
 62
9
  6
CONTINUOUS
 66
1
 70
0
  0
VERTEX
  8
0
 62
9
  6
CONTINUOUS
 10
140.4635251062
 20
96.9768294432
  0
VERTEX
  8
0
 62
9
  6
CONTINUOUS
 10
140.443225292
 20
96.8824017541
  0
VERTEX
  8
0
 62
9
  6
CONTINUOUS
 10
140.4112080507
 20
96.7915094191
  0
VERTEX
  8
0
 62
9
  6
CONTINUOUS
 10
140.3686720962
 20
96.707555429
  0
VERTEX
  8
0
 62
9
  6
CONTINUOUS
 10
140.3172099592
 20
96.6336830102
  0
VERTEX
  8
0
 62
9
  6
CONTINUOUS
 10
140.2587483655
 20
96.5726579449
  0
VERTEX
  8
0
 62
9
  6
CONTINUOUS
 10
140.1954761023
 20
96.5267650209
  0
VERTEX
  8
0
 62
9
  6
CONTINUOUS
 10
140.129762073
 20
96.4977224886
  0
VERTEX
  8
0
 62
9
  6
CONTINUOUS
 10
140.0640666075
 20
96.4866177273
  0
VERTEX
  8
0
 62
9
  6
CONTINUOUS
 10
140.0008493485
 20
96.49386653
  0
SEQEND
  0
POLYLINE
  8
0
 62
9
  6
CONTINUOUS
 66
1
 70
0
  0
VERTEX
  8
0
 62
9
  6
CONTINUOUS
 10
141.5255673463
 20
102.708752834
  0
VERTEX
  8
0
 62
9
  6
CONTINUOUS
 10
141.478920166
 20
102.6286533044
  0
VERTEX
  8
0
 62
9
  6
CONTINUOUS
 10
141.4186469245
 20
102.5589137737
  0
VERTEX
  8
0
 62
9
  6
CONTINUOUS
 10
141.34685343
 20
102.5019707798
  0
VERTEX
  8
0
 62
9
  6
CONTINUOUS
 10
141.266047982
 20
102.4598137794
  0
VERTEX
  8
0
 62
9
  6
CONTINUOUS
 10
141.1790537367
 20
102.4339156407
  0
VERTEX
  8
0
 62
9
  6
CONTINUOUS
 10
141.0889100725
 20
102.4251811848
  0
SEQEND
  0
POLYLINE
  8
0
 62
9
  6
CONTINUOUS
 66
1
 70
0
  0
VERTEX
  8
0
 62
9
  6
CONTINUOUS
 10
141.5255676193
 20
102.708752853
  0
VERTEX
  8
0
 62
9
  6
CONTINUOUS
 10
141.5612734258
 20
102.7634727283
  0
VERTEX
  8
0
 62
9
  6
CONTINUOUS
 10
141.607720912
 20
102.8094317366
  0
VERTEX
  8
0
 62
9
  6
CONTINUOUS
 10
141.6627050507
 20
102.8444477547
  0
VERTEX
  8
0
 62
9
  6
CONTINUOUS
 10
141.7236158808
 20
102.8668586467
  0
VERTEX
  8
0
 62
9
  6
CONTINUOUS
 10
141.7875621117
 20
102.8756006088
  0
SEQEND
  0
LINE
  8
0
 62
9
  6
CONTINUOUS
 10
132.7634043295
 20
98.816795305
 11
134.4715591433
 21
98.4111100855
  0
LINE
  8
0
 62
7
  6
CONTINUOUS
 10
133.1340030353
 20
98.3338324542
 11
141.1301624148
 21
96.1912680059
  0
LINE
  8
0
 62
9
  6
CONTINUOUS
 10
134.7774506417
 20
98.4111100855
 11
139.5222010933
 21
97.1397580337
  0
LINE
  8
0
 62
9
  6
CONTINUOUS
 10
139.8554673284
 20
97.1397580337
 11
140.4635251062
 21
96.9768294432
  0
POLYLINE
  8
0
 62
9
  6
CONTINUOUS
 66
1
 70
0
  0
VERTEX
  8
0
 62
9
  6
CONTINUOUS
 10
141.8546174848
 20
99.2980896626
  0
VERTEX
  8
0
 62
9
  6
CONTINUOUS
 10
141.8611844177
 20
99.2893141929
  0
VERTEX
  8
0
 62
9
  6
CONTINUOUS
 10
141.8634043294
 20
99.2804176344
  0
SEQEND
  0
POLYLINE
  8
0
 62
9
  6
CONTINUOUS
 66
1
 70
0
  0
VERTEX
  8
0
 62
9
  6
CONTINUOUS
 10
141.6226218164
 20
102.6302041366
  0
VERTEX
  8
0
 62
9
  6
CONTINUOUS
 10
141.6307902602
 20
102.6129020324
  0
VERTEX
  8
0
 62
9
  6
CONTINUOUS
 10
141.6390061854
 20
102.5969734259
  0
VERTEX
  8
0
 62
9
  6
CONTINUOUS
 10
141.6472378654
 20
102.5822904013
  0
VERTEX
  8
0
 62
9
  6
CONTINUOUS
 10
141.655489234
 20
102.568695747
  0
VERTEX
  8
0
 62
9
  6
CONTINUOUS
 10
141.6637903538
 20
102.556028598
  0
VERTEX
  8
0
 62
9
  6
CONTINUOUS
 10
141.672189842
 20
102.54413896
  0
VERTEX
  8
0
 62
9
  6
CONTINUOUS
 10
141.6806881456
 20
102.5329727252
  0
VERTEX
  8
0
 62
9
  6
CONTINUOUS
 10
141.6892037634
 20
102.5225824943
  0
VERTEX
  8
0
 62
9
  6
CONTINUOUS
 10
141.6976497366
 20
102.5130074882
  0
VERTEX
  8
0
 62
9
  6
CONTINUOUS
 10
141.7059878231
 20
102.5042195398
  0
VERTEX
  8
0
 62
9
  6
CONTINUOUS
 10
141.7142101388
 20
102.4961606373
  0
VERTEX
  8
0
 62
9
  6
CONTINUOUS
 10
141.7223165939
 20
102.4887726872
  0
VERTEX
  8
0
 62
9
  6
CONTINUOUS
 10
141.7303043908
 20
102.4820071395
  0
VERTEX
  8
0
 62
9
  6
CONTINUOUS
 10
141.7381553351
 20
102.4758324646
  0
VERTEX
  8
0
 62
9
  6
CONTINUOUS
 10
141.7458350681
 20
102.4702294762
  0
VERTEX
  8
0
 62
9
  6
CONTINUOUS
 10
141.7533105988
 20
102.4651754355
  0
VERTEX
  8
0
 62
9
  6
CONTINUOUS
 10
141.7605717149
 20
102.4606317802
  0
VERTEX
  8
0
 62
9
  6
CONTINUOUS
 10
141.7676386722
 20
102.456545333
  0
VERTEX
  8
0
 62
9
  6
CONTINUOUS
 10
141.7745538891
 20
102.4528588558
  0
VERTEX
  8
0
 62
9
  6
CONTINUOUS
 10
141.7813745314
 20
102.449518265
  0
VERTEX
  8
0
 62
9
  6
CONTINUOUS
 10
141.7881599068
 20
102.4464799924
  0
VERTEX
  8
0
 62
9
  6
CONTINUOUS
 10
141.7949438806
 20
102.4437211763
  0
VERTEX
  8
0
 62
9
  6
CONTINUOUS
 10
141.8017417399
 20
102.4412315834
  0
VERTEX
  8
0
 62
9
  6
CONTINUOUS
 10
141.8085827788
 20
102.4389996787
  0
VERTEX
  8
0
 62
9
  6
CONTINUOUS
 10
141.8155183957
 20
102.4370135968
  0
SEQEND
  0
LINE
  8
0
 62
9
  6
CONTINUOUS
 10
141.8163840362
 20
102.4317327366
 11
141.8155181917
 21
102.4370136071
  0
POLYLINE
  8
0
 62
9
  6
CONTINUOUS
 66
1
 70
0
  0
VERTEX
  8
0
 62
9
  6
CONTINUOUS
 10
141.4626583788
 20
106.2426509329
  0
VERTEX
  8
0
 62
9
  6
CONTINUOUS
 10
141.4719583008
 20
106.1782677565
  0
VERTEX
  8
0
 62
9
  6
CONTINUOUS
 10
141.4948543017
 20
106.1169714037
  0
VERTEX
  8
0
 62
9
  6
CONTINUOUS
 10
141.5302494377
 20
106.0616954879
  0
VERTEX
  8
0
 62
9
  6
CONTINUOUS
 10
141.5764481382
 20
106.0150877259
  0
VERTEX
  8
0
 62
9
  6
CONTINUOUS
 10
141.6312373789
 20
105.9793805952
  0
VERTEX
  8
0
 62
9
  6
CONTINUOUS
 10
141.6919926893
 20
105.9562844212
  0
VERTEX
  8
0
 62
9
  6
CONTINUOUS
 10
141.7557965641
 20
105.9469054452
  0
SEQEND
  0
POLYLINE
  8
0
 62
9
  6
CONTINUOUS
 66
1
 70
0
  0
VERTEX
  8
0
 62
9
  6
CONTINUOUS
 10
141.4741631318
 20
108.0023754729
  0
VERTEX
  8
0
 62
9
  6
CONTINUOUS
 10
141.4630192211
 20
108.1030435474
  0
VERTEX
  8
0
 62
9
  6
CONTINUOUS
 10
141.4322121263
 20
108.1995766146
  0
VERTEX
  8
0
 62
9
  6
CONTINUOUS
 10
141.3830072461
 20
108.2880095859
  0
VERTEX
  8
0
 62
9
  6
CONTINUOUS
 10
141.3174256668
 20
108.3647100834
  0
VERTEX
  8
0
 62
9
  6
CONTINUOUS
 10
141.2381611464
 20
108.4265276399
  0
VERTEX
  8
0
 62
9
  6
CONTINUOUS
 10
141.1484694686
 20
108.4709231037
  0
VERTEX
  8
0
 62
9
  6
CONTINUOUS
 10
141.0520347119
 20
108.4960729343
  0
VERTEX
  8
0
 62
9
  6
CONTINUOUS
 10
140.9528179263
 20
108.5009441042
  0
VERTEX
  8
0
 62
9
  6
CONTINUOUS
 10
140.8548944332
 20
108.4853365302
  0
SEQEND
  0
POLYLINE
  8
0
 62
9
  6
CONTINUOUS
 66
1
 70
0
  0
VERTEX
  8
0
 62
9
  6
CONTINUOUS
 10
143.1344180661
 20
105.4514382427
  0
VERTEX
  8
0
 62
9
  6
CONTINUOUS
 10
143.1332241511
 20
105.5460183632
  0
VERTEX
  8
0
 62
9
  6
CONTINUOUS
 10
143.1367531252
 20
105.6371782777
  0
VERTEX
  8
0
 62
9
  6
CONTINUOUS
 10
143.1448773742
 20
105.7216214548
  0
VERTEX
  8
0
 62
9
  6
CONTINUOUS
 10
143.1573031095
 20
105.7962942528
  0
VERTEX
  8
0
 62
9
  6
CONTINUOUS
 10
143.1735809912
 20
105.8584963463
  0
VERTEX
  8
0
 62
9
  6
CONTINUOUS
 10
143.1931223778
 20
105.9059783763
  0
VERTEX
  8
0
 62
9
  6
CONTINUOUS
 10
143.2152206122
 20
105.9370232915
  0
VERTEX
  8
0
 62
9
  6
CONTINUOUS
 10
143.2390765764
 20
105.9505084416
  0
VERTEX
  8
0
 62
9
  6
CONTINUOUS
 10
143.2438190127
 20
105.9510377392
  0
SEQEND
  0
LINE
  8
0
 62
9
  6
CONTINUOUS
 10
143.0634043294
 20
99.4624859475
 11
143.0634043294
 21
102.2766483029
  0
LINE
  8
0
 62
9
  6
CONTINUOUS
 10
143.6332573775
 20
106.2426509334
 11
143.6332573631
 21
105.9666329051
  0
LINE
  8
0
 62
9
  6
CONTINUOUS
 10
141.8634043294
 20
97.2337669776
 11
141.7592504442
 21
96.7974061663
  0
LINE
  8
0
 62
9
  6
CONTINUOUS
 10
141.7592504442
 20
96.7974061663
 11
141.6541842863
 21
96.3644613057
  0
POLYLINE
  8
0
 62
9
  6
CONTINUOUS
 66
1
 70
0
  0
VERTEX
  8
0
 62
9
  6
CONTINUOUS
 10
142.5634043294
 20
101.9792061349
  0
VERTEX
  8
0
 62
9
  6
CONTINUOUS
 10
142.557425477
 20
101.9560565856
  0
VERTEX
  8
0
 62
9
  6
CONTINUOUS
 10
142.539210568
 20
101.9329954919
  0
VERTEX
  8
0
 62
9
  6
CONTINUOUS
 10
142.5088531324
 20
101.91071696
  0
VERTEX
  8
0
 62
9
  6
CONTINUOUS
 10
142.4671301369
 20
101.8898920292
  0
VERTEX
  8
0
 62
9
  6
CONTINUOUS
 10
142.415361426
 20
101.8710798955
  0
VERTEX
  8
0
 62
9
  6
CONTINUOUS
 10
142.3546972077
 20
101.8545796515
  0
VERTEX
  8
0
 62
9
  6
CONTINUOUS
 10
142.2858857564
 20
101.840572979
  0
VERTEX
  8
0
 62
9
  6
CONTINUOUS
 10
142.210115492
 20
101.82934998
  0
VERTEX
  8
0
 62
9
  6
CONTINUOUS
 10
142.1294972601
 20
101.8212339104
  0
VERTEX
  8
0
 62
9
  6
CONTINUOUS
 10
142.0464540907
 20
101.8163923543
  0
VERTEX
  8
0
 62
9
  6
CONTINUOUS
 10
141.9634043294
 20
101.8148100335
  0
SEQEND
  0
LINE
  8
0
 62
9
  6
CONTINUOUS
 10
141.0634043294
 20
96.7267938712
 11
140.9339948069
 21
96.2438309581
  0
POLYLINE
  8
0
 62
9
  6
CONTINUOUS
 66
1
 70
0
  0
VERTEX
  8
0
 62
9
  6
CONTINUOUS
 10
141.6226218379
 20
102.6302040779
  0
VERTEX
  8
0
 62
9
  6
CONTINUOUS
 10
141.5607658664
 20
102.5599628788
  0
VERTEX
  8
0
 62
9
  6
CONTINUOUS
 10
141.4869529523
 20
102.5025863652
  0
VERTEX
  8
0
 62
9
  6
CONTINUOUS
 10
141.4037831295
 20
102.4600956047
  0
VERTEX
  8
0
 62
9
  6
CONTINUOUS
 10
141.3141860255
 20
102.433987319
  0
VERTEX
  8
0
 62
9
  6
CONTINUOUS
 10
141.2213176667
 20
102.4251811634
  0
SEQEND
  0
POLYLINE
  8
0
 62
9
  6
CONTINUOUS
 66
1
 70
0
  0
VERTEX
  8
0
 62
9
  6
CONTINUOUS
 10
141.6226218164
 20
102.6302041366
  0
VERTEX
  8
0
 62
9
  6
CONTINUOUS
 10
141.6599413307
 20
102.6712567498
  0
VERTEX
  8
0
 62
9
  6
CONTINUOUS
 10
141.7043044929
 20
102.7047610681
  0
VERTEX
  8
0
 62
9
  6
CONTINUOUS
 10
141.7541755185
 20
102.7295572345
  0
VERTEX
  8
0
 62
9
  6
CONTINUOUS
 10
141.8078279267
 20
102.7447868328
  0
VERTEX
  8
0
 62
9
  6
CONTINUOUS
 10
141.8634043294
 20
102.7499226308
  0
SEQEND
  0
POLYLINE
  8
0
 62
9
  6
CONTINUOUS
 66
1
 70
0
  0
VERTEX
  8
0
 62
9
  6
CONTINUOUS
 10
141.7558038684
 20
105.946900635
  0
VERTEX
  8
0
 62
9
  6
CONTINUOUS
 10
141.7229385399
 20
105.9312847726
  0
VERTEX
  8
0
 62
9
  6
CONTINUOUS
 10
141.6902483332
 20
105.9116040483
  0
VERTEX
  8
0
 62
9
  6
CONTINUOUS
 10
141.6585401566
 20
105.8902603765
  0
VERTEX
  8
0
 62
9
  6
CONTINUOUS
 10
141.627668779
 20
105.868446635
  0
VERTEX
  8
0
 62
9
  6
CONTINUOUS
 10
141.5973280256
 20
105.8467343645
  0
VERTEX
  8
0
 62
9
  6
CONTINUOUS
 10
141.5676817998
 20
105.8257566673
  0
VERTEX
  8
0
 62
9
  6
CONTINUOUS
 10
141.5394316004
 20
105.8063734031
  0
VERTEX
  8
0
 62
9
  6
CONTINUOUS
 10
141.5123898992
 20
105.7887079079
  0
VERTEX
  8
0
 62
9
  6
CONTINUOUS
 10
141.4862976224
 20
105.7727427426
  0
VERTEX
  8
0
 62
9
  6
CONTINUOUS
 10
141.460869864
 20
105.758434
  0
VERTEX
  8
0
 62
9
  6
CONTINUOUS
 10
141.4361033002
 20
105.745915099
  0
VERTEX
  8
0
 62
9
  6
CONTINUOUS
 10
141.4124633851
 20
105.7355105173
  0
VERTEX
  8
0
 62
9
  6
CONTINUOUS
 10
141.3901823935
 20
105.7272546911
  0
VERTEX
  8
0
 62
9
  6
CONTINUOUS
 10
141.3683297733
 20
105.7208218319
  0
VERTEX
  8
0
 62
9
  6
CONTINUOUS
 10
141.3461060601
 20
105.716212013
  0
VERTEX
  8
0
 62
9
  6
CONTINUOUS
 10
141.3245494341
 20
105.7137328787
  0
VERTEX
  8
0
 62
9
  6
CONTINUOUS
 10
141.3045558432
 20
105.7134686247
  0
VERTEX
  8
0
 62
9
  6
CONTINUOUS
 10
141.2861783582
 20
105.7149959378
  0
VERTEX
  8
0
 62
9
  6
CONTINUOUS
 10
141.2690355547
 20
105.7181818815
  0
VERTEX
  8
0
 62
9
  6
CONTINUOUS
 10
141.2530047649
 20
105.7227926109
  0
VERTEX
  8
0
 62
9
  6
CONTINUOUS
 10
141.2381311984
 20
105.7285914984
  0
VERTEX
  8
0
 62
9
  6
CONTINUOUS
 10
141.2244514778
 20
105.7354354933
  0
VERTEX
  8
0
 62
9
  6
CONTINUOUS
 10
141.2119118861
 20
105.7430743458
  0
VERTEX
  8
0
 62
9
  6
CONTINUOUS
 10
141.1995229604
 20
105.7520088493
  0
VERTEX
  8
0
 62
9
  6
CONTINUOUS
 10
141.1865543023
 20
105.7630422881
  0
VERTEX
  8
0
 62
9
  6
CONTINUOUS
 10
141.1729582597
 20
105.7766560616
  0
VERTEX
  8
0
 62
9
  6
CONTINUOUS
 10
141.1587513597
 20
105.7933315214
  0
VERTEX
  8
0
 62
9
  6
CONTINUOUS
 10
141.1439544015
 20
105.8136750419
  0
VERTEX
  8
0
 62
9
  6
CONTINUOUS
 10
141.1286332602
 20
105.838431619
  0
SEQEND
  0
LINE
  8
0
 62
9
  6
CONTINUOUS
 10
160.778712024
 20
98.0971350155
 11
160.7987186265
 21
98.1022266594
  0
POLYLINE
  8
0
 62
9
  6
CONTINUOUS
 66
1
 70
0
  0
VERTEX
  8
0
 62
9
  6
CONTINUOUS
 10
141.7875621117
 20
102.8756005981
  0
VERTEX
  8
0
 62
9
  6
CONTINUOUS
 10
141.7862591344
 20
102.8778628203
  0
VERTEX
  8
0
 62
9
  6
CONTINUOUS
 10
141.7858587808
 20
102.8806774122
  0
VERTEX
  8
0
 62
9
  6
CONTINUOUS
 10
141.7864520006
 20
102.8841170839
  0
VERTEX
  8
0
 62
9
  6
CONTINUOUS
 10
141.7881496479
 20
102.8882707677
  0
VERTEX
  8
0
 62
9
  6
CONTINUOUS
 10
141.7910898846
 20
102.8932477039
  0
VERTEX
  8
0
 62
9
  6
CONTINUOUS
 10
141.7954329833
 20
102.8991659247
  0
VERTEX
  8
0
 62
9
  6
CONTINUOUS
 10
141.8013641922
 20
102.9061614161
  0
VERTEX
  8
0
 62
9
  6
CONTINUOUS
 10
141.8091095615
 20
102.91440421
  0
VERTEX
  8
0
 62
9
  6
CONTINUOUS
 10
141.818876416
 20
102.9240379004
  0
VERTEX
  8
0
 62
9
  6
CONTINUOUS
 10
141.8308751838
 20
102.9352151943
  0
VERTEX
  8
0
 62
9
  6
CONTINUOUS
 10
141.8454977412
 20
102.9482572973
  0
VERTEX
  8
0
 62
9
  6
CONTINUOUS
 10
141.863081645
 20
102.9634353046
  0
VERTEX
  8
0
 62
9
  6
CONTINUOUS
 10
141.8835152155
 20
102.9806635831
  0
SEQEND
  0
POLYLINE
  8
0
 62
9
  6
CONTINUOUS
 66
1
 70
0
  0
VERTEX
  8
0
 62
9
  6
CONTINUOUS
 10
143.0634043294
 20
102.2766483029
  0
VERTEX
  8
0
 62
9
  6
CONTINUOUS
 10
143.0524907745
 20
102.299748521
  0
VERTEX
  8
0
 62
9
  6
CONTINUOUS
 10
143.019152639
 20
102.3228074506
  0
VERTEX
  8
0
 62
9
  6
CONTINUOUS
 10
142.963538299
 20
102.3450915578
  0
VERTEX
  8
0
 62
9
  6
CONTINUOUS
 10
142.8870455613
 20
102.3659303074
  0
SEQEND
  0
LINE
  8
0
 62
9
  6
CONTINUOUS
 10
144.4859144084
 20
99.2677142993
 11
144.4859144084
 21
98.9710095403
  0
POLYLINE
  8
0
 62
9
  6
CONTINUOUS
 66
1
 70
0
  0
VERTEX
  8
0
 62
9
  6
CONTINUOUS
 10
142.0501347364
 20
103.1189115223
  0
VERTEX
  8
0
 62
9
  6
CONTINUOUS
 10
142.0693459646
 20
103.135284969
  0
VERTEX
  8
0
 62
9
  6
CONTINUOUS
 10
142.0882502146
 20
103.1515706532
  0
VERTEX
  8
0
 62
9
  6
CONTINUOUS
 10
142.1068108723
 20
103.1677564843
  0
VERTEX
  8
0
 62
9
  6
CONTINUOUS
 10
142.124977649
 20
103.1838229814
  0
VERTEX
  8
0
 62
9
  6
CONTINUOUS
 10
142.1426791586
 20
103.1997384014
  0
VERTEX
  8
0
 62
9
  6
CONTINUOUS
 10
142.1598051947
 20
103.2154432659
  0
VERTEX
  8
0
 62
9
  6
CONTINUOUS
 10
142.1762416131
 20
103.2308813597
  0
VERTEX
  8
0
 62
9
  6
CONTINUOUS
 10
142.1918753663
 20
103.2460043426
  0
VERTEX
  8
0
 62
9
  6
CONTINUOUS
 10
142.2065951357
 20
103.2607713499
  0
VERTEX
  8
0
 62
9
  6
CONTINUOUS
 10
142.2202602234
 20
103.2751127805
  0
VERTEX
  8
0
 62
9
  6
CONTINUOUS
 10
142.2327614275
 20
103.2889841257
  0
VERTEX
  8
0
 62
9
  6
CONTINUOUS
 10
142.2441354114
 20
103.3025048895
  0
VERTEX
  8
0
 62
9
  6
CONTINUOUS
 10
142.2542491864
 20
103.3155977514
  0
VERTEX
  8
0
 62
9
  6
CONTINUOUS
 10
142.2628946137
 20
103.3280171736
  0
VERTEX
  8
0
 62
9
  6
CONTINUOUS
 10
142.2699869179
 20
103.3395524829
  0
VERTEX
  8
0
 62
9
  6
CONTINUOUS
 10
142.2756628031
 20
103.3502371318
  0
VERTEX
  8
0
 62
9
  6
CONTINUOUS
 10
142.2801182237
 20
103.3602084762
  0
VERTEX
  8
0
 62
9
  6
CONTINUOUS
 10
142.2835268804
 20
103.3696131152
  0
VERTEX
  8
0
 62
9
  6
CONTINUOUS
 10
142.2860185181
 20
103.3785557164
  0
VERTEX
  8
0
 62
9
  6
CONTINUOUS
 10
142.2876944079
 20
103.387110518
  0
VERTEX
  8
0
 62
9
  6
CONTINUOUS
 10
142.2886398911
 20
103.3953565673
  0
SEQEND
  0
LINE
  8
0
 62
9
  6
CONTINUOUS
 10
142.0107933814
 20
103.0858380381
 11
142.0501347364
 21
103.1189115223
  0
LINE
  8
0
 62
9
  6
CONTINUOUS
 10
141.9701584234
 20
103.052157313
 11
142.0107933814
 21
103.0858380381
  0
POLYLINE
  8
0
 62
9
  6
CONTINUOUS
 66
1
 70
0
  0
VERTEX
  8
0
 62
9
  6
CONTINUOUS
 10
141.8835152155
 20
102.9806635831
  0
VERTEX
  8
0
 62
9
  6
CONTINUOUS
 10
141.9278508481
 20
103.0173462082
  0
VERTEX
  8
0
 62
9
  6
CONTINUOUS
 10
141.9701584234
 20
103.052157313
  0
SEQEND
  0
LINE
  8
0
 62
9
  6
CONTINUOUS
 10
141.0634043294
 20
96.7267938712
 11
141.5634043294
 21
96.7267938712
  0
LINE
  8
0
 62
9
  6
CONTINUOUS
 10
139.5222010933
 20
97.1397580337
 11
139.8554673284
 21
97.1397580337
  0
LINE
  8
0
 62
9
  6
CONTINUOUS
 10
141.5634043294
 20
97.2337669776
 11
141.8634043294
 21
97.2337669776
  0
POLYLINE
  8
0
 62
9
  6
CONTINUOUS
 66
1
 70
0
  0
VERTEX
  8
0
 62
9
  6
CONTINUOUS
 10
141.7876599061
 20
102.8756045143
  0
VERTEX
  8
0
 62
9
  6
CONTINUOUS
 10
141.8269300325
 20
102.8372625197
  0
VERTEX
  8
0
 62
9
  6
CONTINUOUS
 10
141.8533567416
 20
102.7958269724
  0
VERTEX
  8
0
 62
9
  6
CONTINUOUS
 10
141.8634043294
 20
102.7499226308
  0
SEQEND
  0
LINE
  8
0
 62
9
  6
CONTINUOUS
 10
134.4715591433
 20
98.4111100855
 11
134.7774506417
 21
98.4111100855
  0
POLYLINE
  8
0
 62
7
  6
CONTINUOUS
 66
1
 70
0
  0
VERTEX
  8
0
 62
7
  6
CONTINUOUS
 10
160.7787117282
 20
98.0971350779
  0
VERTEX
  8
0
 62
7
  6
CONTINUOUS
 10
161.2484126454
 20
98.082219836
  0
VERTEX
  8
0
 62
7
  6
CONTINUOUS
 10
161.7527027366
 20
98.074544284
  0
VERTEX
  8
0
 62
7
  6
CONTINUOUS
 10
162.2493493879
 20
98.0751555701
  0
VERTEX
  8
0
 62
7
  6
CONTINUOUS
 10
162.7231686406
 20
98.0833124667
  0
VERTEX
  8
0
 62
7
  6
CONTINUOUS
 10
163.1614437399
 20
98.0976727508
  0
VERTEX
  8
0
 62
7
  6
CONTINUOUS
 10
163.5615915982
 20
98.1168728245
  0
VERTEX
  8
0
 62
7
  6
CONTINUOUS
 10
163.9268298689
 20
98.1399288016
  0
VERTEX
  8
0
 62
7
  6
CONTINUOUS
 10
164.2607687481
 20
98.1661502998
  0
VERTEX
  8
0
 62
7
  6
CONTINUOUS
 10
164.5667649493
 20
98.1950700237
  0
VERTEX
  8
0
 62
7
  6
CONTINUOUS
 10
164.8480880474
 20
98.226431298
  0
VERTEX
  8
0
 62
7
  6
CONTINUOUS
 10
165.1069935457
 20
98.2600567217
  0
VERTEX
  8
0
 62
7
  6
CONTINUOUS
 10
165.3439900389
 20
98.2956518755
  0
VERTEX
  8
0
 62
7
  6
CONTINUOUS
 10
165.5596593511
 20
98.332961562
  0
VERTEX
  8
0
 62
7
  6
CONTINUOUS
 10
165.7548906202
 20
98.3718149012
  0
VERTEX
  8
0
 62
7
  6
CONTINUOUS
 10
165.9308387128
 20
98.4121528366
  0
VERTEX
  8
0
 62
7
  6
CONTINUOUS
 10
166.0889469076
 20
98.4540825427
  0
VERTEX
  8
0
 62
7
  6
CONTINUOUS
 10
166.230953726
 20
98.4979544355
  0
VERTEX
  8
0
 62
7
  6
CONTINUOUS
 10
166.3586109493
 20
98.5443902024
  0
VERTEX
  8
0
 62
7
  6
CONTINUOUS
 10
166.4738581119
 20
98.5944753035
  0
VERTEX
  8
0
 62
7
  6
CONTINUOUS
 10
166.5790897768
 20
98.6502115334
  0
VERTEX
  8
0
 62
7
  6
CONTINUOUS
 10
166.676690642
 20
98.7149583309
  0
VERTEX
  8
0
 62
7
  6
CONTINUOUS
 10
166.767499349
 20
98.7933589302
  0
VERTEX
  8
0
 62
7
  6
CONTINUOUS
 10
166.8490116133
 20
98.8902366588
  0
VERTEX
  8
0
 62
7
  6
CONTINUOUS
 10
166.9140298799
 20
99.0070055215
  0
VERTEX
  8
0
 62
7
  6
CONTINUOUS
 10
166.9536007076
 20
99.1382246584
  0
VERTEX
  8
0
 62
7
  6
CONTINUOUS
 10
166.963403594
 20
99.245738332
  0
SEQEND
  0
LINE
  8
0
 62
7
  6
CONTINUOUS
 10
160.778712024
 20
98.0971350155
 11
145.1501965562
 21
98.7229832171
  0
LINE
  8
0
 62
9
  6
CONTINUOUS
 10
160.7987186265
 20
98.1022266594
 11
145.1618755905
 21
98.7284083407
  0
POLYLINE
  8
0
 62
9
  6
CONTINUOUS
 66
1
 70
0
  0
VERTEX
  8
0
 62
9
  6
CONTINUOUS
 10
141.5255673018
 20
102.7087528544
  0
VERTEX
  8
0
 62
9
  6
CONTINUOUS
 10
141.5723821588
 20
102.6828879521
  0
VERTEX
  8
0
 62
9
  6
CONTINUOUS
 10
141.6048248182
 20
102.6566813662
  0
VERTEX
  8
0
 62
9
  6
CONTINUOUS
 10
141.6226217419
 20
102.6302042358
  0
SEQEND
  0
POLYLINE
  8
0
 62
9
  6
CONTINUOUS
 66
1
 70
0
  0
VERTEX
  8
0
 62
9
  6
CONTINUOUS
 10
141.207592467
 20
102.9251863676
  0
VERTEX
  8
0
 62
9
  6
CONTINUOUS
 10
141.2693085267
 20
102.8836919931
  0
VERTEX
  8
0
 62
9
  6
CONTINUOUS
 10
141.3302906374
 20
102.8395738706
  0
VERTEX
  8
0
 62
9
  6
CONTINUOUS
 10
141.3830932614
 20
102.7998427127
  0
VERTEX
  8
0
 62
9
  6
CONTINUOUS
 10
141.426482633
 20
102.7677998194
  0
VERTEX
  8
0
 62
9
  6
CONTINUOUS
 10
141.4605688793
 20
102.7444027909
  0
VERTEX
  8
0
 62
9
  6
CONTINUOUS
 10
141.4870308787
 20
102.7282176069
  0
VERTEX
  8
0
 62
9
  6
CONTINUOUS
 10
141.5080764128
 20
102.7169859046
  0
VERTEX
  8
0
 62
9
  6
CONTINUOUS
 10
141.5255676193
 20
102.708752853
  0
SEQEND
  0
LINE
  8
0
 62
9
  6
CONTINUOUS
 10
142.7674111035
 20
102.3747667489
 11
142.7856186896
 21
102.3599882622
  0
POLYLINE
  8
0
 62
9
  6
CONTINUOUS
 66
1
 70
0
  0
VERTEX
  8
0
 62
9
  6
CONTINUOUS
 10
145.588172512
 20
98.9022711739
  0
VERTEX
  8
0
 62
9
  6
CONTINUOUS
 10
145.6420465954
 20
98.9132793986
  0
VERTEX
  8
0
 62
9
  6
CONTINUOUS
 10
145.6772520858
 20
98.9239751365
  0
SEQEND
  0
LINE
  8
0
 62
9
  6
CONTINUOUS
 10
145.639186079
 20
98.9233283716
 11
145.6018139808
 21
98.917235673
  0
POLYLINE
  8
0
 62
9
  6
CONTINUOUS
 66
1
 70
0
  0
VERTEX
  8
0
 62
9
  6
CONTINUOUS
 10
144.4859144084
 20
98.9710095403
  0
VERTEX
  8
0
 62
9
  6
CONTINUOUS
 10
144.6944117013
 20
99.0034964335
  0
VERTEX
  8
0
 62
9
  6
CONTINUOUS
 10
144.8837116583
 20
99.0312168819
  0
VERTEX
  8
0
 62
9
  6
CONTINUOUS
 10
145.0553807126
 20
99.0548801782
  0
VERTEX
  8
0
 62
9
  6
CONTINUOUS
 10
145.2110395699
 20
99.0750858299
  0
VERTEX
  8
0
 62
9
  6
CONTINUOUS
 10
145.3523030017
 20
99.0923403951
  0
VERTEX
  8
0
 62
9
  6
CONTINUOUS
 10
145.4803555339
 20
99.1070267456
  0
VERTEX
  8
0
 62
9
  6
CONTINUOUS
 10
145.596124082
 20
99.1194475079
  0
VERTEX
  8
0
 62
9
  6
CONTINUOUS
 10
145.7005069984
 20
99.1298621305
  0
VERTEX
  8
0
 62
9
  6
CONTINUOUS
 10
145.7943126021
 20
99.1384855348
  0
VERTEX
  8
0
 62
9
  6
CONTINUOUS
 10
145.8782776033
 20
99.1454938363
  0
VERTEX
  8
0
 62
9
  6
CONTINUOUS
 10
145.9531425544
 20
99.1510305811
  0
VERTEX
  8
0
 62
9
  6
CONTINUOUS
 10
146.019158055
 20
99.1551711361
  0
VERTEX
  8
0
 62
9
  6
CONTINUOUS
 10
146.0759326891
 20
99.1579360904
  0
VERTEX
  8
0
 62
9
  6
CONTINUOUS
 10
146.1233673404
 20
99.1593591503
  0
VERTEX
  8
0
 62
9
  6
CONTINUOUS
 10
146.1614908594
 20
99.1594584577
  0
VERTEX
  8
0
 62
9
  6
CONTINUOUS
 10
146.1897615973
 20
99.158240709
  0
VERTEX
  8
0
 62
9
  6
CONTINUOUS
 10
146.2077111788
 20
99.155818772
  0
VERTEX
  8
0
 62
9
  6
CONTINUOUS
 10
146.2159955711
 20
99.1524558035
  0
VERTEX
  8
0
 62
9
  6
CONTINUOUS
 10
146.2161368969
 20
99.1482054743
  0
VERTEX
  8
0
 62
9
  6
CONTINUOUS
 10
146.2080421218
 20
99.1427263714
  0
VERTEX
  8
0
 62
9
  6
CONTINUOUS
 10
146.1902382547
 20
99.1357351756
  0
SEQEND
  0
LINE
  8
0
 62
9
  6
CONTINUOUS
 10
145.5420984105
 20
98.8952206715
 11
145.588172512
 21
98.9022711739
  0
POLYLINE
  8
0
 62
9
  6
CONTINUOUS
 66
1
 70
0
  0
VERTEX
  8
0
 62
9
  6
CONTINUOUS
 10
141.9634043294
 20
99.7925977777
  0
VERTEX
  8
0
 62
9
  6
CONTINUOUS
 10
142.0464540907
 20
99.7941800986
  0
VERTEX
  8
0
 62
9
  6
CONTINUOUS
 10
142.1294972602
 20
99.7990216542
  0
VERTEX
  8
0
 62
9
  6
CONTINUOUS
 10
142.210115492
 20
99.8071377248
  0
VERTEX
  8
0
 62
9
  6
CONTINUOUS
 10
142.2858857564
 20
99.818360723
  0
VERTEX
  8
0
 62
9
  6
CONTINUOUS
 10
142.3546972076
 20
99.8323673959
  0
VERTEX
  8
0
 62
9
  6
CONTINUOUS
 10
142.415361426
 20
99.8488676399
  0
VERTEX
  8
0
 62
9
  6
CONTINUOUS
 10
142.4671301369
 20
99.8676797731
  0
VERTEX
  8
0
 62
9
  6
CONTINUOUS
 10
142.5088531323
 20
99.8885047053
  0
VERTEX
  8
0
 62
9
  6
CONTINUOUS
 10
142.5392105681
 20
99.9107832344
  0
VERTEX
  8
0
 62
9
  6
CONTINUOUS
 10
142.5574254769
 20
99.9338443327
  0
VERTEX
  8
0
 62
9
  6
CONTINUOUS
 10
142.5634043294
 20
99.9569938792
  0
SEQEND
  0
LINE
  8
0
 62
9
  6
CONTINUOUS
 10
145.677257248
 20
98.9239770486
 11
145.639186079
 21
98.9233283716
  0
POLYLINE
  8
0
 62
9
  6
CONTINUOUS
 66
1
 70
0
  0
VERTEX
  8
0
 62
9
  6
CONTINUOUS
 10
141.9634043294
 20
99.298089846
  0
VERTEX
  8
0
 62
9
  6
CONTINUOUS
 10
142.1154226673
 20
99.2996673161
  0
VERTEX
  8
0
 62
9
  6
CONTINUOUS
 10
142.2677035189
 20
99.3045056259
  0
VERTEX
  8
0
 62
9
  6
CONTINUOUS
 10
142.4155544488
 20
99.3126200844
  0
VERTEX
  8
0
 62
9
  6
CONTINUOUS
 10
142.5545285215
 20
99.3238447224
  0
VERTEX
  8
0
 62
9
  6
CONTINUOUS
 10
142.6807469315
 20
99.3378560353
  0
VERTEX
  8
0
 62
9
  6
CONTINUOUS
 10
142.7920198819
 20
99.3543639404
  0
VERTEX
  8
0
 62
9
  6
CONTINUOUS
 10
142.8869609828
 20
99.3731844407
  0
VERTEX
  8
0
 62
9
  6
CONTINUOUS
 10
142.9634621485
 20
99.3940178979
  0
VERTEX
  8
0
 62
9
  6
CONTINUOUS
 10
143.0191058742
 20
99.4163030432
  0
VERTEX
  8
0
 62
9
  6
CONTINUOUS
 10
143.0524761581
 20
99.4393704034
  0
VERTEX
  8
0
 62
9
  6
CONTINUOUS
 10
143.0634043294
 20
99.4624859475
  0
SEQEND
  0
POLYLINE
  8
0
 62
9
  6
CONTINUOUS
 66
1
 70
0
  0
VERTEX
  8
0
 62
9
  6
CONTINUOUS
 10
141.0633970858
 20
99.1032736766
  0
VERTEX
  8
0
 62
9
  6
CONTINUOUS
 10
141.1509191215
 20
99.1041531434
  0
VERTEX
  8
0
 62
9
  6
CONTINUOUS
 10
141.2307219293
 20
99.1070624709
  0
VERTEX
  8
0
 62
9
  6
CONTINUOUS
 10
141.3013266233
 20
99.1118048378
  0
VERTEX
  8
0
 62
9
  6
CONTINUOUS
 10
141.3633122717
 20
99.1183781718
  0
VERTEX
  8
0
 62
9
  6
CONTINUOUS
 10
141.4172783648
 20
99.1282568358
  0
VERTEX
  8
0
 62
9
  6
CONTINUOUS
 10
141.4639546163
 20
99.1409728215
  0
VERTEX
  8
0
 62
9
  6
CONTINUOUS
 10
141.5049214321
 20
99.1573291644
  0
VERTEX
  8
0
 62
9
  6
CONTINUOUS
 10
141.5427099898
 20
99.1773200532
  0
VERTEX
  8
0
 62
9
  6
CONTINUOUS
 10
141.5798405818
 20
99.2003887856
  0
VERTEX
  8
0
 62
9
  6
CONTINUOUS
 10
141.6184860052
 20
99.2251612486
  0
VERTEX
  8
0
 62
9
  6
CONTINUOUS
 10
141.6602728693
 20
99.2494259603
  0
VERTEX
  8
0
 62
9
  6
CONTINUOUS
 10
141.7059240257
 20
99.2707857956
  0
VERTEX
  8
0
 62
9
  6
CONTINUOUS
 10
141.7547041307
 20
99.2868884971
  0
VERTEX
  8
0
 62
9
  6
CONTINUOUS
 10
141.8048401775
 20
99.2961516634
  0
VERTEX
  8
0
 62
9
  6
CONTINUOUS
 10
141.8546177504
 20
99.2980897112
  0
SEQEND
  0
LINE
  8
0
 62
9
  6
CONTINUOUS
 10
141.5634043294
 20
98.9710095403
 11
144.4858975988
 21
98.9710095403
  0
LINE
  8
0
 62
9
  6
CONTINUOUS
 10
144.4859144084
 20
99.2677142993
 11
141.8634043294
 21
99.2677142993
  0
LINE
  8
0
 62
9
  6
CONTINUOUS
 10
141.8546174848
 20
99.2980896626
 11
141.9634043294
 21
99.298089846
  0
LINE
  8
0
 62
9
  6
CONTINUOUS
 10
141.854617379
 20
99.7925978975
 11
141.9634043294
 21
99.7925977777
  0
POLYLINE
  8
0
 62
9
  6
CONTINUOUS
 66
1
 70
0
  0
VERTEX
  8
0
 62
9
  6
CONTINUOUS
 10
141.0634043294
 20
99.1032735558
  0
VERTEX
  8
0
 62
9
  6
CONTINUOUS
 10
141.1330219658
 20
99.1021091021
  0
VERTEX
  8
0
 62
9
  6
CONTINUOUS
 10
141.2022702419
 20
99.0985701438
  0
VERTEX
  8
0
 62
9
  6
CONTINUOUS
 10
141.269124161
 20
99.092684617
  0
VERTEX
  8
0
 62
9
  6
CONTINUOUS
 10
141.3317432794
 20
99.0845960444
  0
VERTEX
  8
0
 62
9
  6
CONTINUOUS
 10
141.3888157381
 20
99.0744865292
  0
VERTEX
  8
0
 62
9
  6
CONTINUOUS
 10
141.4394220342
 20
99.0625182689
  0
VERTEX
  8
0
 62
9
  6
CONTINUOUS
 10
141.4826222394
 20
99.0488742179
  0
VERTEX
  8
0
 62
9
  6
CONTINUOUS
 10
141.5173176877
 20
99.0338509877
  0
VERTEX
  8
0
 62
9
  6
CONTINUOUS
 10
141.5426360762
 20
99.0178125385
  0
VERTEX
  8
0
 62
9
  6
CONTINUOUS
 10
141.5581513362
 20
99.0009979835
  0
SEQEND
  0
POLYLINE
  8
0
 62
9
  6
CONTINUOUS
 66
1
 70
0
  0
VERTEX
  8
0
 62
9
  6
CONTINUOUS
 10
142.7856186896
 20
102.3599882622
  0
VERTEX
  8
0
 62
9
  6
CONTINUOUS
 10
142.8720621292
 20
102.3142906762
  0
VERTEX
  8
0
 62
9
  6
CONTINUOUS
 10
142.9658588592
 20
102.286150195
  0
VERTEX
  8
0
 62
9
  6
CONTINUOUS
 10
143.0634043294
 20
102.2766483029
  0
SEQEND
  0
POLYLINE
  8
0
 62
9
  6
CONTINUOUS
 66
1
 70
0
  0
VERTEX
  8
0
 62
9
  6
CONTINUOUS
 10
146.1902383312
 20
99.1357349485
  0
VERTEX
  8
0
 62
9
  6
CONTINUOUS
 10
146.2214179775
 20
99.1440147817
  0
VERTEX
  8
0
 62
9
  6
CONTINUOUS
 10
146.2535081586
 20
99.1481741027
  0
VERTEX
  8
0
 62
9
  6
CONTINUOUS
 10
146.2860569486
 20
99.1481542789
  0
SEQEND
  0
POLYLINE
  8
0
 62
7
  6
CONTINUOUS
 66
1
 70
0
  0
VERTEX
  8
0
 62
7
  6
CONTINUOUS
 10
141.8163840354
 20
102.3186296331
  0
VERTEX
  8
0
 62
7
  6
CONTINUOUS
 10
141.7896058433
 20
102.3222677149
  0
VERTEX
  8
0
 62
7
  6
CONTINUOUS
 10
141.762688534
 20
102.3244527028
  0
VERTEX
  8
0
 62
7
  6
CONTINUOUS
 10
141.735707962
 20
102.3251811848
  0
SEQEND
  0
LINE
  8
0
 62
9
  6
CONTINUOUS
 10
142.8870455613
 20
102.3659303074
 11
142.7921024625
 21
102.3847561822
  0
POLYLINE
  8
0
 62
9
  6
CONTINUOUS
 66
1
 70
0
  0
VERTEX
  8
0
 62
9
  6
CONTINUOUS
 10
141.6341183344
 20
108.4066521291
  0
VERTEX
  8
0
 62
9
  6
CONTINUOUS
 10
141.566894441
 20
108.4700013349
  0
VERTEX
  8
0
 62
9
  6
CONTINUOUS
 10
141.4891647754
 20
108.5199035609
  0
VERTEX
  8
0
 62
9
  6
CONTINUOUS
 10
141.4035821683
 20
108.5546556935
  0
VERTEX
  8
0
 62
9
  6
CONTINUOUS
 10
141.3130674641
 20
108.5730716768
  0
VERTEX
  8
0
 62
9
  6
CONTINUOUS
 10
141.2207098358
 20
108.5745229913
  0
VERTEX
  8
0
 62
9
  6
CONTINUOUS
 10
141.1296613546
 20
108.558960105
  0
SEQEND
  0
POLYLINE
  8
0
 62
9
  6
CONTINUOUS
 66
1
 70
0
  0
VERTEX
  8
0
 62
9
  6
CONTINUOUS
 10
141.6341188145
 20
108.406652684
  0
VERTEX
  8
0
 62
9
  6
CONTINUOUS
 10
141.6418099706
 20
108.3982524558
  0
VERTEX
  8
0
 62
9
  6
CONTINUOUS
 10
141.6498163068
 20
108.3901505415
  0
SEQEND
  0
LINE
  8
0
 62
9
  6
CONTINUOUS
 10
141.9634043294
 20
101.8148100335
 11
141.8634043294
 21
101.8148100335
  0
LINE
  8
0
 62
9
  6
CONTINUOUS
 10
141.7357257758
 20
101.8251811848
 11
132.7634043294
 21
101.8251811848
  0
LINE
  8
0
 62
7
  6
CONTINUOUS
 10
141.9634043294
 20
102.3148100335
 11
141.8634043297
 21
102.3148100335
  0
LINE
  8
0
 62
7
  6
CONTINUOUS
 10
141.7357083743
 20
102.3251811848
 11
133.2634043314
 21
102.3251811848
  0
LINE
  8
DEFAULT_1
 62
2
  6
CENTER
 10
130.7634043294
 20
102.3751811848
 11
168.9634043294
 21
102.3751811848
  0
LINE
  8
0
 62
7
  6
CONTINUOUS
 10
133.2634043314
 20
102.4251811848
 11
141.7357083743
 21
102.4251811848
  0
LINE
  8
0
 62
7
  6
CONTINUOUS
 10
141.9634043294
 20
102.4355523361
 11
141.8634043297
 21
102.4355523361
  0
LINE
  8
0
 62
9
  6
CONTINUOUS
 10
141.9634043294
 20
102.4410444044
 11
141.8634043294
 21
102.4410444044
  0
POLYLINE
  8
0
 62
7
  6
CONTINUOUS
 66
1
 70
0
  0
VERTEX
  8
0
 62
7
  6
CONTINUOUS
 10
141.9634043294
 20
102.4355542578
  0
VERTEX
  8
0
 62
7
  6
CONTINUOUS
 10
142.044434331
 20
102.4350734714
  0
VERTEX
  8
0
 62
7
  6
CONTINUOUS
 10
142.1620307581
 20
102.4326478419
  0
VERTEX
  8
0
 62
7
  6
CONTINUOUS
 10
142.2732555025
 20
102.4283759587
  0
VERTEX
  8
0
 62
7
  6
CONTINUOUS
 10
142.3765215011
 20
102.4225158308
  0
VERTEX
  8
0
 62
7
  6
CONTINUOUS
 10
142.4704936825
 20
102.415372589
  0
VERTEX
  8
0
 62
7
  6
CONTINUOUS
 10
142.5541489473
 20
102.4072783195
  0
VERTEX
  8
0
 62
7
  6
CONTINUOUS
 10
142.6267399758
 20
102.3985967943
  0
VERTEX
  8
0
 62
7
  6
CONTINUOUS
 10
142.6876989807
 20
102.3897462229
  0
VERTEX
  8
0
 62
7
  6
CONTINUOUS
 10
142.7368047026
 20
102.381172184
  0
VERTEX
  8
0
 62
7
  6
CONTINUOUS
 10
142.7738629481
 20
102.37341648
  0
VERTEX
  8
0
 62
7
  6
CONTINUOUS
 10
142.7984540791
 20
102.3672399431
  0
VERTEX
  8
0
 62
7
  6
CONTINUOUS
 10
142.8054959764
 20
102.3651920509
  0
SEQEND
  0
POLYLINE
  8
0
 62
7
  6
CONTINUOUS
 66
1
 70
0
  0
VERTEX
  8
0
 62
7
  6
CONTINUOUS
 10
141.8634043297
 20
102.3148104199
  0
VERTEX
  8
0
 62
7
  6
CONTINUOUS
 10
141.8558862382
 20
102.3149070132
  0
VERTEX
  8
0
 62
7
  6
CONTINUOUS
 10
141.8256949533
 20
102.3172612871
  0
VERTEX
  8
0
 62
7
  6
CONTINUOUS
 10
141.8163840769
 20
102.3186295737
  0
SEQEND
  0
POLYLINE
  8
0
 62
9
  6
CONTINUOUS
 66
1
 70
0
  0
VERTEX
  8
0
 62
9
  6
CONTINUOUS
 10
141.8634043294
 20
101.8148100335
  0
VERTEX
  8
0
 62
9
  6
CONTINUOUS
 10
141.799339554
 20
101.8174077908
  0
VERTEX
  8
0
 62
9
  6
CONTINUOUS
 10
141.7357257758
 20
101.8251811848
  0
SEQEND
  0
POLYLINE
  8
0
 62
9
  6
CONTINUOUS
 66
1
 70
0
  0
VERTEX
  8
0
 62
9
  6
CONTINUOUS
 10
142.7921024625
 20
102.3847561822
  0
VERTEX
  8
0
 62
9
  6
CONTINUOUS
 10
142.6808449911
 20
102.4012656008
  0
VERTEX
  8
0
 62
9
  6
CONTINUOUS
 10
142.5546669679
 20
102.4152763291
  0
VERTEX
  8
0
 62
9
  6
CONTINUOUS
 10
142.4157287947
 20
102.4265024085
  0
VERTEX
  8
0
 62
9
  6
CONTINUOUS
 10
142.2678675386
 20
102.4346215883
  0
VERTEX
  8
0
 62
9
  6
CONTINUOUS
 10
142.1155262155
 20
102.439464781
  0
VERTEX
  8
0
 62
9
  6
CONTINUOUS
 10
141.9634043294
 20
102.4410444044
  0
SEQEND
  0
LINE
  8
0
 62
9
  6
CONTINUOUS
 10
141.6369675579
 20
108.4041154343
 11
141.6341191405
 21
108.4066554168
  0
LINE
  8
0
 62
7
  6
CONTINUOUS
 10
141.8163840776
 20
102.4317327965
 11
141.8256950279
 21
102.4331010943
  0
POLYLINE
  8
0
 62
7
  6
CONTINUOUS
 66
1
 70
0
  0
VERTEX
  8
0
 62
7
  6
CONTINUOUS
 10
141.8163840362
 20
102.4317327366
  0
VERTEX
  8
0
 62
7
  6
CONTINUOUS
 10
141.7896058446
 20
102.4280946548
  0
VERTEX
  8
0
 62
7
  6
CONTINUOUS
 10
141.7626885347
 20
102.4259096668
  0
VERTEX
  8
0
 62
7
  6
CONTINUOUS
 10
141.735707962
 20
102.4251811848
  0
SEQEND
  0
POLYLINE
  8
0
 62
7
  6
CONTINUOUS
 66
1
 70
0
  0
VERTEX
  8
0
 62
7
  6
CONTINUOUS
 10
142.5634043294
 20
102.344209135
  0
VERTEX
  8
0
 62
7
  6
CONTINUOUS
 10
142.5518998947
 20
102.34284183
  0
VERTEX
  8
0
 62
7
  6
CONTINUOUS
 10
142.4683559118
 20
102.3348056422
  0
VERTEX
  8
0
 62
7
  6
CONTINUOUS
 10
142.3746123114
 20
102.3277203878
  0
VERTEX
  8
0
 62
7
  6
CONTINUOUS
 10
142.2716888757
 20
102.3219121972
  0
VERTEX
  8
0
 62
7
  6
CONTINUOUS
 10
142.1609076129
 20
102.3176813663
  0
VERTEX
  8
0
 62
7
  6
CONTINUOUS
 10
142.0438392847
 20
102.3152816501
  0
VERTEX
  8
0
 62
7
  6
CONTINUOUS
 10
141.9634043294
 20
102.3148082636
  0
SEQEND
  0
POLYLINE
  8
0
 62
7
  6
CONTINUOUS
 66
1
 70
0
  0
VERTEX
  8
0
 62
7
  6
CONTINUOUS
 10
141.8256950279
 20
102.4331010943
  0
VERTEX
  8
0
 62
7
  6
CONTINUOUS
 10
141.8558863253
 20
102.4354553594
  0
VERTEX
  8
0
 62
7
  6
CONTINUOUS
 10
141.8634043297
 20
102.435551952
  0
SEQEND
  0
POLYLINE
  8
0
 62
9
  6
CONTINUOUS
 66
1
 70
0
  0
VERTEX
  8
0
 62
9
  6
CONTINUOUS
 10
141.8634043294
 20
102.4410444044
  0
VERTEX
  8
0
 62
9
  6
CONTINUOUS
 10
141.8394535903
 20
102.4400409444
  0
VERTEX
  8
0
 62
9
  6
CONTINUOUS
 10
141.8155183957
 20
102.4370135968
  0
SEQEND
  0
LINE
  8
0
 62
9
  6
CONTINUOUS
 10
160.7987186265
 20
103.6369075911
 11
141.7876599061
 21
102.8756045143
  0
LINE
  8
0
 62
9
  6
CONTINUOUS
 10
142.2886398911
 20
103.3953565673
 11
160.6693091039
 21
104.1314155228
  0
POLYLINE
  8
0
 62
9
  6
CONTINUOUS
 66
1
 70
0
  0
VERTEX
  8
0
 62
9
  6
CONTINUOUS
 10
160.7987186265
 20
103.6369075911
  0
VERTEX
  8
0
 62
9
  6
CONTINUOUS
 10
161.2709063405
 20
103.6518124964
  0
VERTEX
  8
0
 62
9
  6
CONTINUOUS
 10
161.751078446
 20
103.6590744124
  0
VERTEX
  8
0
 62
9
  6
CONTINUOUS
 10
162.2336958035
 20
103.6586092145
  0
VERTEX
  8
0
 62
9
  6
CONTINUOUS
 10
162.7132582655
 20
103.6504206916
  0
VERTEX
  8
0
 62
9
  6
CONTINUOUS
 10
163.1843599665
 20
103.6345956968
  0
VERTEX
  8
0
 62
9
  6
CONTINUOUS
 10
163.6416806228
 20
103.6113013647
  0
VERTEX
  8
0
 62
9
  6
CONTINUOUS
 10
164.080010417
 20
103.5807853062
  0
VERTEX
  8
0
 62
9
  6
CONTINUOUS
 10
164.4942888918
 20
103.5433766943
  0
VERTEX
  8
0
 62
9
  6
CONTINUOUS
 10
164.87969242
 20
103.4994829361
  0
VERTEX
  8
0
 62
9
  6
CONTINUOUS
 10
165.2316666185
 20
103.4495897088
  0
VERTEX
  8
0
 62
9
  6
CONTINUOUS
 10
165.5460063775
 20
103.3942554568
  0
VERTEX
  8
0
 62
9
  6
CONTINUOUS
 10
165.8188963268
 20
103.3341098698
  0
VERTEX
  8
0
 62
9
  6
CONTINUOUS
 10
166.0469829092
 20
103.2698467213
  0
VERTEX
  8
0
 62
9
  6
CONTINUOUS
 10
166.227430131
 20
103.2022169856
  0
VERTEX
  8
0
 62
9
  6
CONTINUOUS
 10
166.3579780092
 20
103.1320163204
  0
VERTEX
  8
0
 62
9
  6
CONTINUOUS
 10
166.4369698374
 20
103.0600834688
  0
VERTEX
  8
0
 62
9
  6
CONTINUOUS
 10
166.4634043294
 20
102.9872939723
  0
SEQEND
  0
LINE
  8
0
 62
9
  6
CONTINUOUS
 10
132.7634043294
 20
102.9251811848
 11
141.2075932195
 21
102.9251838216
  0
LINE
  8
0
 62
9
  6
CONTINUOUS
 10
142.2886398911
 20
103.3953565673
 11
141.1286326022
 21
103.3953565673
  0
POLYLINE
  8
0
 62
9
  6
CONTINUOUS
 66
1
 70
0
  0
VERTEX
  8
0
 62
9
  6
CONTINUOUS
 10
146.2860796529
 20
99.1481638164
  0
VERTEX
  8
0
 62
9
  6
CONTINUOUS
 10
146.3054540254
 20
99.1569686961
  0
VERTEX
  8
0
 62
9
  6
CONTINUOUS
 10
146.3111359549
 20
99.1654327312
  0
VERTEX
  8
0
 62
9
  6
CONTINUOUS
 10
146.3040088062
 20
99.1737450034
  0
VERTEX
  8
0
 62
9
  6
CONTINUOUS
 10
146.2828286027
 20
99.1823677158
  0
VERTEX
  8
0
 62
9
  6
CONTINUOUS
 10
146.2454807992
 20
99.1912785549
  0
VERTEX
  8
0
 62
9
  6
CONTINUOUS
 10
146.191785979
 20
99.2001464607
  0
VERTEX
  8
0
 62
9
  6
CONTINUOUS
 10
146.1223673335
 20
99.2087919477
  0
VERTEX
  8
0
 62
9
  6
CONTINUOUS
 10
146.0377775405
 20
99.2171374306
  0
VERTEX
  8
0
 62
9
  6
CONTINUOUS
 10
145.9381712115
 20
99.2251536396
  0
VERTEX
  8
0
 62
9
  6
CONTINUOUS
 10
145.8231989005
 20
99.2328230965
  0
VERTEX
  8
0
 62
9
  6
CONTINUOUS
 10
145.69212359
 20
99.2401098687
  0
VERTEX
  8
0
 62
9
  6
CONTINUOUS
 10
145.5439723975
 20
99.2469418032
  0
VERTEX
  8
0
 62
9
  6
CONTINUOUS
 10
145.3774074099
 20
99.2532082123
  0
VERTEX
  8
0
 62
9
  6
CONTINUOUS
 10
145.1907167288
 20
99.2587411581
  0
VERTEX
  8
0
 62
9
  6
CONTINUOUS
 10
144.9817655383
 20
99.2632890526
  0
VERTEX
  8
0
 62
9
  6
CONTINUOUS
 10
144.747921792
 20
99.2664735794
  0
VERTEX
  8
0
 62
9
  6
CONTINUOUS
 10
144.4859144084
 20
99.2677142993
  0
SEQEND
  0
LINE
  8
0
 62
9
  6
CONTINUOUS
 10
145.6772520858
 20
98.9239751365
 11
145.9779476482
 21
99.0394933385
  0
LINE
  8
0
 62
7
  6
CONTINUOUS
 10
145.5658009595
 20
98.90579848
 11
145.5742064802
 21
98.9088732429
  0
LINE
  8
0
 62
9
  6
CONTINUOUS
 10
145.9779476482
 20
99.0394933385
 11
146.2860796529
 21
99.1481638164
  0
LINE
  8
0
 62
9
  6
CONTINUOUS
 10
145.6018139808
 20
98.917235673
 11
145.565828307
 21
98.9058106063
  0
POLYLINE
  8
0
 62
9
  6
CONTINUOUS
 66
1
 70
0
  0
VERTEX
  8
0
 62
9
  6
CONTINUOUS
 10
141.8155181917
 20
102.4370136071
  0
VERTEX
  8
0
 62
9
  6
CONTINUOUS
 10
141.7891499389
 20
102.4304516271
  0
VERTEX
  8
0
 62
9
  6
CONTINUOUS
 10
141.7624996475
 20
102.426500536
  0
VERTEX
  8
0
 62
9
  6
CONTINUOUS
 10
141.735707962
 20
102.4251811848
  0
SEQEND
  0
POLYLINE
  8
0
 62
9
  6
CONTINUOUS
 66
1
 70
0
  0
VERTEX
  8
0
 62
9
  6
CONTINUOUS
 10
160.6693091039
 20
104.1314155228
  0
VERTEX
  8
0
 62
9
  6
CONTINUOUS
 10
161.1941079474
 20
104.1463234935
  0
VERTEX
  8
0
 62
9
  6
CONTINUOUS
 10
161.727616223
 20
104.1535831573
  0
VERTEX
  8
0
 62
9
  6
CONTINUOUS
 10
162.2638396043
 20
104.1531162449
  0
VERTEX
  8
0
 62
9
  6
CONTINUOUS
 10
162.7966673655
 20
104.1449265358
  0
VERTEX
  8
0
 62
9
  6
CONTINUOUS
 10
163.3200936278
 20
104.1291009059
  0
VERTEX
  8
0
 62
9
  6
CONTINUOUS
 10
163.8282076231
 20
104.1058064983
  0
VERTEX
  8
0
 62
9
  6
CONTINUOUS
 10
164.3152213072
 20
104.0752909166
  0
VERTEX
  8
0
 62
9
  6
CONTINUOUS
 10
164.7755126029
 20
104.0378833182
  0
VERTEX
  8
0
 62
9
  6
CONTINUOUS
 10
165.2037225637
 20
103.9939910799
  0
VERTEX
  8
0
 62
9
  6
CONTINUOUS
 10
165.5947916006
 20
103.9440998057
  0
VERTEX
  8
0
 62
9
  6
CONTINUOUS
 10
165.9440480053
 20
103.8887678504
  0
VERTEX
  8
0
 62
9
  6
CONTINUOUS
 10
166.2472528372
 20
103.8286248277
  0
VERTEX
  8
0
 62
9
  6
CONTINUOUS
 10
166.5006802143
 20
103.7643644135
  0
VERTEX
  8
0
 62
9
  6
CONTINUOUS
 10
166.7011791301
 20
103.6967375265
  0
VERTEX
  8
0
 62
9
  6
CONTINUOUS
 10
166.8462388386
 20
103.62653963
  0
VERTEX
  8
0
 62
9
  6
CONTINUOUS
 10
166.9340177125
 20
103.5546096206
  0
VERTEX
  8
0
 62
9
  6
CONTINUOUS
 10
166.9634043294
 20
103.4818019039
  0
SEQEND
  0
LINE
  8
0
 62
9
  6
CONTINUOUS
 10
144.8178121489
 20
106.0140687274
 11
144.6114164523
 21
106.0552873606
  0
LINE
  8
0
 62
9
  6
CONTINUOUS
 10
160.6693091039
 20
106.1536277785
 11
143.1344180661
 21
105.4514382427
  0
POLYLINE
  8
0
 62
7
  6
CONTINUOUS
 66
1
 70
0
  0
VERTEX
  8
0
 62
7
  6
CONTINUOUS
 10
143.2438190152
 20
105.9510376767
  0
VERTEX
  8
0
 62
7
  6
CONTINUOUS
 10
143.0709812231
 20
105.9455568712
  0
VERTEX
  8
0
 62
7
  6
CONTINUOUS
 10
142.8662112939
 20
105.9427405446
  0
VERTEX
  8
0
 62
7
  6
CONTINUOUS
 10
142.8225615458
 20
105.9426508187
  0
SEQEND
  0
POLYLINE
  8
0
 62
9
  6
CONTINUOUS
 66
1
 70
0
  0
VERTEX
  8
0
 62
9
  6
CONTINUOUS
 10
143.1344180661
 20
105.4514382427
  0
VERTEX
  8
0
 62
9
  6
CONTINUOUS
 10
142.9486965365
 20
105.4455873726
  0
VERTEX
  8
0
 62
9
  6
CONTINUOUS
 10
142.7456371574
 20
105.442774579
  0
VERTEX
  8
0
 62
9
  6
CONTINUOUS
 10
142.525555987
 20
105.4439116936
  0
VERTEX
  8
0
 62
9
  6
CONTINUOUS
 10
142.2886398911
 20
105.4500260548
  0
SEQEND
  0
POLYLINE
  8
0
 62
9
  6
CONTINUOUS
 66
1
 70
0
  0
VERTEX
  8
0
 62
9
  6
CONTINUOUS
 10
141.6508632439
 20
105.4440681688
  0
VERTEX
  8
0
 62
9
  6
CONTINUOUS
 10
141.5471980049
 20
105.4430972913
  0
VERTEX
  8
0
 62
9
  6
CONTINUOUS
 10
141.4586321992
 20
105.4501484989
  0
VERTEX
  8
0
 62
9
  6
CONTINUOUS
 10
141.3838769377
 20
105.466889444
  0
VERTEX
  8
0
 62
9
  6
CONTINUOUS
 10
141.3208184348
 20
105.4942691418
  0
VERTEX
  8
0
 62
9
  6
CONTINUOUS
 10
141.2672641826
 20
105.5334283286
  0
VERTEX
  8
0
 62
9
  6
CONTINUOUS
 10
141.2214640461
 20
105.5863655476
  0
VERTEX
  8
0
 62
9
  6
CONTINUOUS
 10
141.1827707742
 20
105.6553858724
  0
VERTEX
  8
0
 62
9
  6
CONTINUOUS
 10
141.1517148047
 20
105.7405562013
  0
VERTEX
  8
0
 62
9
  6
CONTINUOUS
 10
141.1286326022
 20
105.8384391385
  0
SEQEND
  0
LINE
  8
0
 62
9
  6
CONTINUOUS
 10
142.8225616944
 20
105.9426509334
 11
142.6549646727
 21
105.9431237385
  0
POLYLINE
  8
0
 62
9
  6
CONTINUOUS
 66
1
 70
0
  0
VERTEX
  8
0
 62
9
  6
CONTINUOUS
 10
142.6549646727
 20
105.9431237385
  0
VERTEX
  8
0
 62
9
  6
CONTINUOUS
 10
142.2478302065
 20
105.9475208205
  0
VERTEX
  8
0
 62
9
  6
CONTINUOUS
 10
142.0836543219
 20
105.9485997525
  0
VERTEX
  8
0
 62
9
  6
CONTINUOUS
 10
141.9196065884
 20
105.9483675562
  0
VERTEX
  8
0
 62
9
  6
CONTINUOUS
 10
141.7557965642
 20
105.9469053832
  0
SEQEND
  0
POLYLINE
  8
0
 62
9
  6
CONTINUOUS
 66
1
 70
0
  0
VERTEX
  8
0
 62
9
  6
CONTINUOUS
 10
142.2886398911
 20
105.4500260548
  0
VERTEX
  8
0
 62
9
  6
CONTINUOUS
 10
142.1545610092
 20
105.4564158302
  0
VERTEX
  8
0
 62
9
  6
CONTINUOUS
 10
142.0257408499
 20
105.4587065452
  0
VERTEX
  8
0
 62
9
  6
CONTINUOUS
 10
141.8959390031
 20
105.4560834177
  0
VERTEX
  8
0
 62
9
  6
CONTINUOUS
 10
141.6508632439
 20
105.4440681688
  0
SEQEND
  0
LINE
  8
0
 62
9
  6
CONTINUOUS
 10
143.9269379261
 20
106.1879976066
 11
143.6332573775
 21
106.2426509334
  0
LINE
  8
0
 62
9
  6
CONTINUOUS
 10
144.3399821148
 20
106.1086167133
 11
143.9269379261
 21
106.1879976066
  0
LINE
  8
0
 62
9
  6
CONTINUOUS
 10
144.6114164523
 20
106.0552873606
 11
144.3399821148
 21
106.1086167133
  0
LINE
  8
0
 62
7
  6
CONTINUOUS
 10
160.778712024
 20
106.653227354
 11
143.2438209872
 21
105.9510378183
  0
LINE
  8
0
 62
9
  6
CONTINUOUS
 10
141.4626583732
 20
106.2426509334
 11
143.6331204286
 21
106.2426509334
  0
LINE
  8
0
 62
9
  6
CONTINUOUS
 10
141.4626583732
 20
107.610400191
 11
141.7557893307
 21
107.610400191
  0
POLYLINE
  8
0
 62
9
  6
CONTINUOUS
 66
1
 70
0
  0
VERTEX
  8
0
 62
9
  6
CONTINUOUS
 10
141.6341188145
 20
108.406652684
  0
VERTEX
  8
0
 62
9
  6
CONTINUOUS
 10
141.6326137049
 20
108.4067598313
  0
VERTEX
  8
0
 62
9
  6
CONTINUOUS
 10
141.6305460838
 20
108.4042244683
  0
SEQEND
  0
LINE
  8
0
 62
9
  6
CONTINUOUS
 10
141.4741630492
 20
108.0023754702
 11
132.7634043294
 21
105.9335670529
  0
LINE
  8
0
 62
7
  6
CONTINUOUS
 10
141.1301634353
 20
108.5590946371
 11
133.1340030039
 21
106.4165299069
  0
POLYLINE
  8
0
 62
9
  6
CONTINUOUS
 66
1
 70
0
  0
VERTEX
  8
0
 62
9
  6
CONTINUOUS
 10
160.6693091039
 20
104.1314155228
  0
VERTEX
  8
0
 62
9
  6
CONTINUOUS
 10
160.6757713658
 20
104.0302297716
  0
VERTEX
  8
0
 62
9
  6
CONTINUOUS
 10
160.6873291663
 20
103.933237661
  0
VERTEX
  8
0
 62
9
  6
CONTINUOUS
 10
160.7035034923
 20
103.8444590221
  0
VERTEX
  8
0
 62
9
  6
CONTINUOUS
 10
160.7236239985
 20
103.7675732769
  0
VERTEX
  8
0
 62
9
  6
CONTINUOUS
 10
160.7468567911
 20
103.7057669443
  0
VERTEX
  8
0
 62
9
  6
CONTINUOUS
 10
160.7722389881
 20
103.6616015755
  0
VERTEX
  8
0
 62
9
  6
CONTINUOUS
 10
160.7987186265
 20
103.6369075911
  0
SEQEND
  0
POLYLINE
  8
0
 62
9
  6
CONTINUOUS
 66
1
 70
0
  0
VERTEX
  8
0
 62
9
  6
CONTINUOUS
 10
160.6693091039
 20
106.1536277785
  0
VERTEX
  8
0
 62
9
  6
CONTINUOUS
 10
160.668115188
 20
106.2482079189
  0
VERTEX
  8
0
 62
9
  6
CONTINUOUS
 10
160.671644163
 20
106.3393678453
  0
VERTEX
  8
0
 62
9
  6
CONTINUOUS
 10
160.679768414
 20
106.4238110261
  0
VERTEX
  8
0
 62
9
  6
CONTINUOUS
 10
160.6921941511
 20
106.4984838208
  0
VERTEX
  8
0
 62
9
  6
CONTINUOUS
 10
160.708472034
 20
106.5606859064
  0
VERTEX
  8
0
 62
9
  6
CONTINUOUS
 10
160.7280134207
 20
106.6081679266
  0
VERTEX
  8
0
 62
9
  6
CONTINUOUS
 10
160.7501116541
 20
106.6392128332
  0
VERTEX
  8
0
 62
9
  6
CONTINUOUS
 10
160.7739676164
 20
106.652697978
  0
VERTEX
  8
0
 62
9
  6
CONTINUOUS
 10
160.7787117397
 20
106.6532273427
  0
SEQEND
  0
LINE
  8
0
 62
9
  6
CONTINUOUS
 10
160.6693091039
 20
104.1314155228
 11
160.6693091039
 21
106.1536277785
  0
POLYLINE
  8
0
 62
7
  6
CONTINUOUS
 66
1
 70
0
  0
VERTEX
  8
0
 62
7
  6
CONTINUOUS
 10
166.9634036337
 20
105.5046224815
  0
VERTEX
  8
0
 62
7
  6
CONTINUOUS
 10
166.9536008901
 20
105.6121369619
  0
VERTEX
  8
0
 62
7
  6
CONTINUOUS
 10
166.9140302897
 20
105.7433558157
  0
VERTEX
  8
0
 62
7
  6
CONTINUOUS
 10
166.8490134324
 20
105.8601230637
  0
VERTEX
  8
0
 62
7
  6
CONTINUOUS
 10
166.7675010894
 20
105.9570017077
  0
VERTEX
  8
0
 62
7
  6
CONTINUOUS
 10
166.6766931318
 20
106.035402168
  0
VERTEX
  8
0
 62
7
  6
CONTINUOUS
 10
166.57909268
 20
106.1001491386
  0
VERTEX
  8
0
 62
7
  6
CONTINUOUS
 10
166.4738618915
 20
106.1558852445
  0
VERTEX
  8
0
 62
7
  6
CONTINUOUS
 10
166.3586155609
 20
106.205970345
  0
VERTEX
  8
0
 62
7
  6
CONTINUOUS
 10
166.2309595235
 20
106.2524059885
  0
VERTEX
  8
0
 62
7
  6
CONTINUOUS
 10
166.0889538481
 20
106.2962778434
  0
VERTEX
  8
0
 62
7
  6
CONTINUOUS
 10
165.9308472352
 20
106.3382074359
  0
VERTEX
  8
0
 62
7
  6
CONTINUOUS
 10
165.754900701
 20
106.3785453105
  0
VERTEX
  8
0
 62
7
  6
CONTINUOUS
 10
165.55967139
 20
106.4173985786
  0
VERTEX
  8
0
 62
7
  6
CONTINUOUS
 10
165.3440042438
 20
106.454708199
  0
VERTEX
  8
0
 62
7
  6
CONTINUOUS
 10
165.1070101711
 20
106.4903033214
  0
VERTEX
  8
0
 62
7
  6
CONTINUOUS
 10
164.848107465
 20
106.5239287362
  0
VERTEX
  8
0
 62
7
  6
CONTINUOUS
 10
164.5667874834
 20
106.5552900245
  0
VERTEX
  8
0
 62
7
  6
CONTINUOUS
 10
164.2607947662
 20
106.5842098156
  0
VERTEX
  8
0
 62
7
  6
CONTINUOUS
 10
163.9268595396
 20
106.6104314669
  0
VERTEX
  8
0
 62
7
  6
CONTINUOUS
 10
163.5616249135
 20
106.6334876951
  0
VERTEX
  8
0
 62
7
  6
CONTINUOUS
 10
163.1614817425
 20
106.6526880811
  0
VERTEX
  8
0
 62
7
  6
CONTINUOUS
 10
162.7232139339
 20
106.6670487618
  0
VERTEX
  8
0
 62
7
  6
CONTINUOUS
 10
162.2494020441
 20
106.6752063053
  0
VERTEX
  8
0
 62
7
  6
CONTINUOUS
 10
161.7527551535
 20
106.6758184428
  0
VERTEX
  8
0
 62
7
  6
CONTINUOUS
 10
161.2484494585
 20
106.6681434073
  0
VERTEX
  8
0
 62
7
  6
CONTINUOUS
 10
160.7787117419
 20
106.6532272862
  0
SEQEND
  0
LINE
  8
0
 62
9
  6
CONTINUOUS
 10
166.4634043294
 20
102.9872939723
 11
166.4634043294
 21
98.7518402782
  0
LINE
  8
0
 62
7
  6
CONTINUOUS
 10
166.9634043294
 20
99.2463482099
 11
166.9634043294
 21
105.5040141597
  0
POLYLINE
  8
0
 62
9
  6
CONTINUOUS
 66
1
 70
0
  0
VERTEX
  8
0
 62
9
  6
CONTINUOUS
 10
166.9634043294
 20
103.4818019039
  0
VERTEX
  8
0
 62
9
  6
CONTINUOUS
 10
166.9537969696
 20
103.3853281923
  0
VERTEX
  8
0
 62
9
  6
CONTINUOUS
 10
166.9253440957
 20
103.2925619113
  0
VERTEX
  8
0
 62
9
  6
CONTINUOUS
 10
166.8791391356
 20
103.2070680171
  0
VERTEX
  8
0
 62
9
  6
CONTINUOUS
 10
166.81695772
 20
103.1321319921
  0
VERTEX
  8
0
 62
9
  6
CONTINUOUS
 10
166.741189446
 20
103.0706335857
  0
VERTEX
  8
0
 62
9
  6
CONTINUOUS
 10
166.6547460456
 20
103.0249361472
  0
VERTEX
  8
0
 62
9
  6
CONTINUOUS
 10
166.5609494904
 20
102.9967958035
  0
VERTEX
  8
0
 62
9
  6
CONTINUOUS
 10
166.4634043294
 20
102.9872939723
  0
SEQEND
  0
POLYLINE
  8
0
 62
9
  6
CONTINUOUS
 66
1
 70
0
  0
VERTEX
  8
0
 62
9
  6
CONTINUOUS
 10
166.9634039492
 20
99.2457383316
  0
VERTEX
  8
0
 62
9
  6
CONTINUOUS
 10
166.9537969648
 20
99.149874474
  0
VERTEX
  8
0
 62
9
  6
CONTINUOUS
 10
166.9253440776
 20
99.0571081741
  0
VERTEX
  8
0
 62
9
  6
CONTINUOUS
 10
166.8791390999
 20
98.9716142702
  0
VERTEX
  8
0
 62
9
  6
CONTINUOUS
 10
166.816957668
 20
98.8966782466
  0
VERTEX
  8
0
 62
9
  6
CONTINUOUS
 10
166.741189385
 20
98.8351798513
  0
VERTEX
  8
0
 62
9
  6
CONTINUOUS
 10
166.6547459887
 20
98.7894824298
  0
VERTEX
  8
0
 62
9
  6
CONTINUOUS
 10
166.5609494537
 20
98.7613421022
  0
VERTEX
  8
0
 62
9
  6
CONTINUOUS
 10
166.4634043294
 20
98.7518402782
  0
SEQEND
  0
POLYLINE
  8
0
 62
9
  6
CONTINUOUS
 66
1
 70
0
  0
VERTEX
  8
0
 62
9
  6
CONTINUOUS
 10
166.4634043294
 20
98.7518402782
  0
VERTEX
  8
0
 62
9
  6
CONTINUOUS
 10
166.4369711179
 20
98.6790525161
  0
VERTEX
  8
0
 62
9
  6
CONTINUOUS
 10
166.3579805247
 20
98.6071196515
  0
VERTEX
  8
0
 62
9
  6
CONTINUOUS
 10
166.2274339247
 20
98.5369189474
  0
VERTEX
  8
0
 62
9
  6
CONTINUOUS
 10
166.0469879281
 20
98.4692891524
  0
VERTEX
  8
0
 62
9
  6
CONTINUOUS
 10
165.8189025228
 20
98.4050259206
  0
VERTEX
  8
0
 62
9
  6
CONTINUOUS
 10
165.5460136926
 20
98.3448802331
  0
VERTEX
  8
0
 62
9
  6
CONTINUOUS
 10
165.2316749888
 20
98.289545864
  0
VERTEX
  8
0
 62
9
  6
CONTINUOUS
 10
164.8797017486
 20
98.239652501
  0
VERTEX
  8
0
 62
9
  6
CONTINUOUS
 10
164.4942989084
 20
98.1957585743
  0
VERTEX
  8
0
 62
9
  6
CONTINUOUS
 10
164.0800208488
 20
98.1583497749
  0
VERTEX
  8
0
 62
9
  6
CONTINUOUS
 10
163.6416913418
 20
98.127833529
  0
VERTEX
  8
0
 62
9
  6
CONTINUOUS
 10
163.1843708517
 20
98.1045390114
  0
VERTEX
  8
0
 62
9
  6
CONTINUOUS
 10
162.7132691332
 20
98.088713832
  0
VERTEX
  8
0
 62
9
  6
CONTINUOUS
 10
162.2337064872
 20
98.0805251315
  0
VERTEX
  8
0
 62
9
  6
CONTINUOUS
 10
161.7510889829
 20
98.0800597601
  0
VERTEX
  8
0
 62
9
  6
CONTINUOUS
 10
161.2709168289
 20
98.0873215123
  0
VERTEX
  8
0
 62
9
  6
CONTINUOUS
 10
160.7987186265
 20
98.1022266594
  0
SEQEND
  0
POLYLINE
  8
0
 62
9
  6
CONTINUOUS
 66
1
 70
0
  0
VERTEX
  8
0
 62
9
  6
CONTINUOUS
 10
166.9634043294
 20
105.5040141597
  0
VERTEX
  8
0
 62
9
  6
CONTINUOUS
 10
166.9340177125
 20
105.5768218763
  0
VERTEX
  8
0
 62
9
  6
CONTINUOUS
 10
166.8462388386
 20
105.6487518857
  0
VERTEX
  8
0
 62
9
  6
CONTINUOUS
 10
166.7011791301
 20
105.7189497823
  0
VERTEX
  8
0
 62
9
  6
CONTINUOUS
 10
166.5006802143
 20
105.7865766692
  0
VERTEX
  8
0
 62
9
  6
CONTINUOUS
 10
166.2472528372
 20
105.8508370834
  0
VERTEX
  8
0
 62
9
  6
CONTINUOUS
 10
165.9440480053
 20
105.9109801062
  0
VERTEX
  8
0
 62
9
  6
CONTINUOUS
 10
165.5947916006
 20
105.9663120614
  0
VERTEX
  8
0
 62
9
  6
CONTINUOUS
 10
165.2037225637
 20
106.0162033356
  0
VERTEX
  8
0
 62
9
  6
CONTINUOUS
 10
164.7755126029
 20
106.0600955739
  0
VERTEX
  8
0
 62
9
  6
CONTINUOUS
 10
164.3152213072
 20
106.0975031723
  0
VERTEX
  8
0
 62
9
  6
CONTINUOUS
 10
163.8282076231
 20
106.128018754
  0
VERTEX
  8
0
 62
9
  6
CONTINUOUS
 10
163.3200936278
 20
106.1513131616
  0
VERTEX
  8
0
 62
9
  6
CONTINUOUS
 10
162.7966673655
 20
106.1671387916
  0
VERTEX
  8
0
 62
9
  6
CONTINUOUS
 10
162.2638396043
 20
106.1753285006
  0
VERTEX
  8
0
 62
9
  6
CONTINUOUS
 10
161.727616223
 20
106.1757954131
  0
VERTEX
  8
0
 62
9
  6
CONTINUOUS
 10
161.1941079474
 20
106.1685357493
  0
VERTEX
  8
0
 62
9
  6
CONTINUOUS
 10
160.6693091039
 20
106.1536277785
  0
SEQEND
  0
LINE
  8
0
 62
7
  6
CONTINUOUS
 10
58.6253281851
 20
166.2968058343
 11
59.1689945846
 21
165.6887480565
  0
LINE
  8
0
 62
7
  6
CONTINUOUS
 10
54.3366717217
 20
168.1219206192
 11
49.4115862498
 21
186.502589832
  0
LINE
  8
0
 62
2
  6
CONTINUOUS
 10
55.7112565848
 20
163.8766850576
 11
55.7112565848
 21
162.1166850576
  0
LINE
  8
DEFAULT_1
 62
2
  6
CENTER
 10
55.7112565848
 20
158.5966850576
 11
55.7112565848
 21
158.3966850576
  0
LINE
  8
DEFAULT_1
 62
2
  6
CENTER
 10
55.7112565848
 20
167.3966850576
 11
55.7112565848
 21
167.5966850576
  0
LINE
  8
0
 62
2
  6
CONTINUOUS
 10
81.9912565848
 20
162.9966850576
 11
80.2312565848
 21
162.9966850576
  0
LINE
  8
DEFAULT_1
 62
2
  6
CENTER
 10
76.7112565848
 20
162.9966850576
 11
76.5112565848
 21
162.9966850576
  0
LINE
  8
0
 62
2
  6
CONTINUOUS
 10
56.5912565848
 20
162.9966850576
 11
54.8312565848
 21
162.9966850576
  0
LINE
  8
DEFAULT_1
 62
2
  6
CENTER
 10
51.3112565848
 20
162.9966850576
 11
51.1112565848
 21
162.9966850576
  0
LINE
  8
DEFAULT_1
 62
2
  6
CENTER
 10
60.1112565848
 20
162.9966850576
 11
60.3112565848
 21
162.9966850576
  0
LINE
  8
DEFAULT_1
 62
2
  6
CENTER
 10
85.5112565848
 20
162.9966850576
 11
85.7112565848
 21
162.9966850576
  0
LINE
  8
0
 62
7
  6
CONTINUOUS
 10
58.3962565848
 20
167.7966850576
 11
58.3962565848
 21
166.8966850576
  0
LINE
  8
0
 62
7
  6
CONTINUOUS
 10
59.2962565848
 20
165.3554818214
 11
59.2962565848
 21
160.6107313698
  0
LINE
  8
0
 62
7
  6
CONTINUOUS
 10
78.9262565848
 20
167.3966850576
 11
79.1070186395
 21
167.3966850576
  0
LINE
  8
0
 62
7
  6
CONTINUOUS
 10
77.8262565848
 20
168.3966850576
 11
58.9962565848
 21
168.3966850576
  0
LINE
  8
DEFAULT_1
 62
2
  6
CENTER
 10
68.4112565848
 20
156.5966850576
 11
68.4112565848
 21
194.7966850576
  0
LINE
  8
0
 62
7
  6
CONTINUOUS
 10
77.5262565848
 20
160.6107313698
 11
77.5262565848
 21
165.3554818214
  0
LINE
  8
0
 62
7
  6
CONTINUOUS
 10
78.4262565848
 20
166.8966850575
 11
78.4262565848
 21
167.7966850576
  0
LINE
  8
0
 62
7
  6
CONTINUOUS
 10
79.3112565848
 20
167.6966850576
 11
79.3112565848
 21
170.3191783269
  0
LINE
  8
0
 62
7
  6
CONTINUOUS
 10
78.4262575481
 20
166.896677814
 11
78.4339273082
 21
166.9837875394
  0
LINE
  8
0
 62
2
  6
CONTINUOUS
 10
81.1112565848
 20
163.8766850576
 11
81.1112565848
 21
162.1166850576
  0
LINE
  8
DEFAULT_1
 62
2
  6
CENTER
 10
81.1112565848
 20
158.5966850576
 11
81.1112565848
 21
158.3966850576
  0
LINE
  8
DEFAULT_1
 62
2
  6
CENTER
 10
81.1112565848
 20
167.3966850576
 11
81.1112565848
 21
167.5966850576
  0
LINE
  8
0
 62
7
  6
CONTINUOUS
 10
81.8112565848
 20
169.4664011568
 11
81.8112565848
 21
167.5890700588
  0
LINE
  8
0
 62
7
  6
CONTINUOUS
 10
78.4339636109
 20
166.9841998496
 11
78.4548830207
 21
167.0640026574
  0
POLYLINE
  8
0
 62
7
  6
CONTINUOUS
 66
1
 70
0
  0
VERTEX
  8
0
 62
7
  6
CONTINUOUS
 10
78.4548830207
 20
167.0640026574
  0
VERTEX
  8
0
 62
7
  6
CONTINUOUS
 10
78.485507349
 20
167.1346073514
  0
VERTEX
  8
0
 62
7
  6
CONTINUOUS
 10
78.5230926042
 20
167.1965929998
  0
VERTEX
  8
0
 62
7
  6
CONTINUOUS
 10
78.5648846067
 20
167.250559093
  0
VERTEX
  8
0
 62
7
  6
CONTINUOUS
 10
78.6082478294
 20
167.2972353444
  0
VERTEX
  8
0
 62
7
  6
CONTINUOUS
 10
78.6506151377
 20
167.3382021602
  0
VERTEX
  8
0
 62
7
  6
CONTINUOUS
 10
78.6905002106
 20
167.3759907179
  0
VERTEX
  8
0
 62
7
  6
CONTINUOUS
 10
78.7266639963
 20
167.4131213099
  0
VERTEX
  8
0
 62
7
  6
CONTINUOUS
 10
78.7580676382
 20
167.4517667333
  0
VERTEX
  8
0
 62
7
  6
CONTINUOUS
 10
78.7846352297
 20
167.4935535974
  0
VERTEX
  8
0
 62
7
  6
CONTINUOUS
 10
78.8067744554
 20
167.5392047538
  0
VERTEX
  8
0
 62
7
  6
CONTINUOUS
 10
78.8250147602
 20
167.5879848588
  0
VERTEX
  8
0
 62
7
  6
CONTINUOUS
 10
78.8399805017
 20
167.6381209056
  0
VERTEX
  8
0
 62
7
  6
CONTINUOUS
 10
78.852354386
 20
167.6878984785
  0
SEQEND
  0
LINE
  8
0
 62
7
  6
CONTINUOUS
 10
77.653518585
 20
165.6887480565
 11
78.1971849845
 21
166.2968058343
  0
LINE
  8
0
 62
7
  6
CONTINUOUS
 10
87.4109269198
 20
186.502589832
 11
82.4858414479
 21
168.1219206192
  0
LINE
  8
0
 62
7
  6
CONTINUOUS
 10
54.2412153813
 20
192.7966850576
 11
82.5812977883
 21
192.7966850576
  0
ARC
  8
0
 62
7
  6
CONTINUOUS
 10
51.8112565848
 20
102.9251811848
 40
0.5
 50
180.0
 51
270.0
  0
ARC
  8
0
 62
7
  6
CONTINUOUS
 10
85.0112565848
 20
101.8251811848
 40
0.5
 50
0.0
 51
90.0
  0
ARC
  8
0
 62
7
  6
CONTINUOUS
 10
87.0812954716
 20
100.5960313058
 40
0.5
 50
0.0000098248
 51
81.5
  0
ARC
  8
0
 62
7
  6
CONTINUOUS
 10
49.741217699
 20
106.1765433194
 40
0.5
 50
81.5
 51
180.0000098319
  0
ARC
  8
0
 62
7
  6
CONTINUOUS
 10
49.7412176989
 20
104.1543310636
 40
0.5
 50
180.0000098314
 51
261.5
  0
ARC
  8
0
 62
7
  6
CONTINUOUS
 10
87.0812954715
 20
98.5738190501
 40
0.5
 50
261.5
 51
0.0000098253
  0
ARC
  8
0
 62
7
  6
CONTINUOUS
 10
57.8962565848
 20
102.9251811848
 40
0.5
 50
270.0
 51
272.3419240191
  0
ARC
  8
0
 62
7
  6
CONTINUOUS
 10
78.9262565848
 20
101.8251811848
 40
0.5
 50
90.0
 51
92.3419240191
  0
ARC
  8
0
 62
7
  6
CONTINUOUS
 10
82.1112574706
 20
98.5077113037
 40
0.3000003322
 50
81.5001710649
 51
179.9999747151
  0
ARC
  8
0
 62
7
  6
CONTINUOUS
 10
79.0112565848
 20
98.9710095403
 40
0.3
 50
0.0
 51
81.5
  0
ARC
  8
0
 62
7
  6
CONTINUOUS
 10
54.7112556989
 20
106.2426510658
 40
0.3000003322
 50
261.5001710649
 51
359.9999747151
  0
ARC
  8
0
 62
7
  6
CONTINUOUS
 10
57.8112565848
 20
105.7793528292
 40
0.3
 50
180.0
 51
261.5
  0
ARC
  8
0
 62
7
  6
CONTINUOUS
 10
133.2634043294
 20
101.8251811848
 40
0.5
 50
90.0
 51
180.0
  0
ARC
  8
0
 62
7
  6
CONTINUOUS
 10
133.2634060147
 20
98.8167971206
 40
0.5
 50
180.0000202445
 51
255.0000000009
  0
ARC
  8
0
 62
7
  6
CONTINUOUS
 10
141.2595729595
 20
96.6742306452
 40
0.5
 50
254.9998787391
 51
319.0069551353
  0
ARC
  8
0
 62
7
  6
CONTINUOUS
 10
141.0634043294
 20
96.7267938712
 40
0.5
 50
255.0
 51
360.0
  0
ARC
  8
0
 62
7
  6
CONTINUOUS
 10
133.2634043294
 20
102.9251811848
 40
0.5
 50
180.0
 51
270.0
  0
ARC
  8
0
 62
7
  6
CONTINUOUS
 10
133.2634060273
 20
105.9335652523
 40
0.5
 50
104.9999999994
 51
179.9999796046
  0
ARC
  8
0
 62
7
  6
CONTINUOUS
 10
141.2595729595
 20
108.0761317244
 40
0.5
 50
40.9930442647
 51
105.0001212609
  0
ARC
  8
0
 62
9
  6
CONTINUOUS
 10
150.0229860116
 20
87.7642777214
 40
12.5
 50
116.2933290045
 51
130.7505129083
  0
ARC
  8
0
 62
7
  6
CONTINUOUS
 10
150.0229860116
 20
87.7642777214
 40
12.0
 50
108.6263050602
 51
134.2187875593
  0
ARC
  8
0
 62
7
  6
CONTINUOUS
 10
141.8634043167
 20
96.1494567091
 40
0.2999999992
 50
134.2187848983
 51
139.0069526076
  0
ARC
  8
0
 62
9
  6
CONTINUOUS
 10
150.0229860116
 20
116.9860846481
 40
12.5
 50
228.5951213002
 51
239.257113476
  0
ARC
  8
0
 62
7
  6
CONTINUOUS
 10
150.0229860116
 20
116.9860846481
 40
12.0
 50
225.7521155549
 51
246.0509361978
  0
ARC
  8
0
 62
7
  6
CONTINUOUS
 10
141.8634043181
 20
108.6009056597
 40
0.2999999993
 50
220.9930471334
 51
225.7812148169
  0
ARC
  8
0
 62
7
  6
CONTINUOUS
 10
55.7112565848
 20
162.9966850576
 40
4.4
 50
113.2002182499
 51
322.2814627975
  0
CIRCLE
  8
0
 62
7
  6
CONTINUOUS
 10
55.7112565848
 20
162.9966850576
 40
2.6
  0
ARC
  8
0
 62
7
  6
CONTINUOUS
 10
53.3707458954
 20
167.8631015741
 40
1.0
 50
295.6853011765
 51
15.0
  0
ARC
  8
0
 62
7
  6
CONTINUOUS
 10
58.7962565848
 20
160.6107313698
 40
0.5
 50
322.2814627975
 51
360.0
  0
ARC
  8
0
 62
7
  6
CONTINUOUS
 10
59.2962565848
 20
166.8966850576
 40
0.9
 50
180.0
 51
221.8
  0
ARC
  8
0
 62
7
  6
CONTINUOUS
 10
58.9962565848
 20
167.7966850576
 40
0.6
 50
90.0
 51
180.0
  0
ARC
  8
0
 62
7
  6
CONTINUOUS
 10
58.7962565848
 20
165.3554818214
 40
0.5
 50
0.0
 51
41.8
  0
ARC
  8
0
 62
7
  6
CONTINUOUS
 10
54.2412153813
 20
187.7966850576
 40
5.0
 50
90.0
 51
195.0
  0
ARC
  8
0
 62
7
  6
CONTINUOUS
 10
78.0262565848
 20
160.6107313698
 40
0.5
 50
180.0
 51
217.7185372025
  0
ARC
  8
0
 62
7
  6
CONTINUOUS
 10
77.5262565848
 20
166.8966850576
 40
0.9
 50
318.2
 51
359.9999999999
  0
ARC
  8
0
 62
7
  6
CONTINUOUS
 10
77.8262565848
 20
167.7966850576
 40
0.6
 50
0.0
 51
90.0
  0
ARC
  8
0
 62
7
  6
CONTINUOUS
 10
78.9262565848
 20
166.8966850576
 40
0.5
 50
90.0
 51
180.0
  0
ARC
  8
0
 62
7
  6
CONTINUOUS
 10
78.0262565848
 20
165.3554818214
 40
0.5
 50
138.2
 51
180.0
  0
ARC
  8
0
 62
7
  6
CONTINUOUS
 10
79.0112565848
 20
167.6966850576
 40
0.3
 50
270.0
 51
360.0
  0
ARC
  8
0
 62
7
  6
CONTINUOUS
 10
81.1112565848
 20
162.9966850576
 40
4.4
 50
217.7185372025
 51
78.4407151287
  0
CIRCLE
  8
0
 62
7
  6
CONTINUOUS
 10
81.1112565848
 20
162.9966850576
 40
2.6
  0
ARC
  8
0
 62
7
  6
CONTINUOUS
 10
83.4517672742
 20
167.8631015741
 40
1.0
 50
165.0
 51
244.3146988235
  0
ARC
  8
0
 62
7
  6
CONTINUOUS
 10
82.1112565848
 20
167.5890700588
 40
0.3
 50
180.0
 51
257.7155061437
  0
ARC
  8
0
 62
7
  6
CONTINUOUS
 10
82.5812977883
 20
187.7966850576
 40
5.0
 50
345.0
 51
90.0
  0
ENDSEC
  0
EOF
