  0
SECTION
  2
HEADER
  9
$EXTMAX
 10
210.0
 20
297.0
 30
0.0
  9
$EXTMIN
 10
0.0
 20
0.0
 30
0.0
  9
$LIMMIN
 10
0.0
 20
0.0
  9
$LIMMAX
 10
210.0
 20
297.0
  9
$VIEWCTR
 10
105.0
 20
148.5
  9
$VIEWSIZE
 40
297.0
  9
$CLAYER
  8
0
  9
$LTSCALE
 40
19.36
  9
$CELTYPE
  6
BYLAYER
  9
$DIMSCALE
 40
1.0
  9
$DIMASZ
 40
3.5
  9
$DIMEXO
 40
2.2
  9
$DIMDLI
 40
13.376
  9
$DIMEXE
 40
6.336
  9
$DIMCEN
 40
3.168
  9
$DIMLFAC
 40
1.0
  9
$DIMBLK
  1
_FILLED
  9
$DIMTXT
 40
3.5
  9
$PDMODE
 70
3
  9
$PDSIZE
 40
0.3125
  9
$TILEMODE
 70
1
  0
ENDSEC
  0
SECTION
  2
TABLES
  0
TABLE
  2
LTYPE
 70
6
  0
LTYPE
  2
BYBLOCK
 70
0
  3

 72
65
 73
0
 40
0.0
  0
LTYPE
  2
BYLAYER
 70
0
  3

 72
65
 73
0
 40
0.0
  0
LTYPE
  2
CONTINUOUS
 70
64
  3
Solid line
 72
65
 73
0
 40
0.0
  0
LTYPE
  2
CENTER
 70
64
  3
____ _ ____ _ ____ _ ____ _ ____ _ ____ _ ____
 72
65
 73
4
 40
0.6
 49
0.375
 49
-0.075
 49
0.075
 49
-0.075
  0
LTYPE
  2
HIDDEN
 70
64
  3
- - - - - - - - - - - - - - - - - - - -
 72
65
 73
2
 40
0.2
 49
0.1
 49
-0.1
  0
LTYPE
  2
PHANTOM
 70
64
  3
_____ _ _ _____ _ _ _____ _ _ _____
 72
65
 73
6
 40
0.8
 49
0.45
 49
-0.05
 49
0.1
 49
-0.05
 49
0.1
 49
-0.05
  0
LTYPE
  2
DOT
 70
64
  3
. . . . . . . . . . . . . . . . . . . .
 72
65
 73
2
 40
0.2
 49
0.1
 49
-0.1
  0
LTYPE
  2
DASHED
 70
64
  3
- - - - - - - - - - - - - - - - - - - -
 72
65
 73
2
 40
0.2
 49
0.1
 49
-0.1
  0
ENDTAB
  0
TABLE
  2
LAYER
 70
36
  0
LAYER
  2
0
 70
0
 62
7
  6
CONTINUOUS
  0
LAYER
  2
DEFAULT_1
 70
0
 62
7
  6
CENTER
  0
LAYER
  2
DEFAULT_2
 70
0
 62
8
  6
HIDDEN
  0
LAYER
  2
DEFAULT_3
 70
0
 62
7
  6
PHANTOM
  0
LAYER
  2
AXES
 70
0
 62
7
  6
CONTINUOUS
  0
LAYER
  2
CSYS
 70
0
 62
7
  6
CONTINUOUS
  0
LAYER
  2
CURVE
 70
0
 62
7
  6
CONTINUOUS
  0
LAYER
  2
CURVES
 70
0
 62
7
  6
CONTINUOUS
  0
LAYER
  2
PLANES
 70
0
 62
7
  6
CONTINUOUS
  0
LAYER
  2
SURFACE
 70
0
 62
7
  6
CONTINUOUS
  0
ENDTAB
  0
TABLE
  2
STYLE
 70
1
  0
STYLE
  2
STANDARD
 70
0
 40
0.0
 41
0.8
 50
0.0
 71
0
 42
0.2
  3
txt
  4

  0
STYLE
  2
TEXTSTYLE_1
 70
0
 40
0.0
 41
0.8
 50
0.0
 71
0
 42
0.2
  3
gdt
  4

  0
STYLE
  2
TEXTSTYLE_2
 70
0
 40
0.0
 41
0.6
 50
0.0
 71
0
 42
0.2
  3
txt
  4

  0
STYLE
  2
TEXTSTYLE_3
 70
0
 40
0.0
 41
1.0
 50
0.0
 71
0
 42
0.2
  3
ftb_____.ttf
  4

  0
STYLE
  2
TEXTSTYLE_4
 70
0
 40
0.0
 41
1.0
 50
0.0
 71
0
 42
0.2
  3
fti_____.ttf
  4

  0
STYLE
  2
TEXTSTYLE_5
 70
0
 40
0.0
 41
1.0
 50
0.0
 71
0
 42
0.2
  3
frutiger light.ttf
  4

  0
STYLE
  2
TEXTSTYLE_6
 70
0
 40
0.0
 41
0.7
 50
0.0
 71
0
 42
0.2
  3
txt
  4

  0
STYLE
  2
TEXTSTYLE_7
 70
0
 40
0.0
 41
0.45
 50
0.0
 71
0
 42
0.2
  3
txt
  4

  0
ENDTAB
  0
ENDSEC
  0
SECTION
  2
BLOCKS
  0
BLOCK
  8
0
 62
2
  6
CONTINUOUS
  2
SYMBOL_8_BL1
 70
64
 10
173.5956734183
 20
35.5937998301
  0
TEXT
  8
0
 62
7
  6
CONTINUOUS
 10
164.6539584268
 20
30.6865562072
  7
TEXTSTYLE_4
 40
1.0655737705
  1
The brand for plastic modular belts and chains
 41
1.0
 72
0
  0
LINE
  8
0
 62
7
  6
CONTINUOUS
 10
149.5737418074
 20
36.1675703219
 11
149.5737418074
 21
34.0364227809
  0
LINE
  8
0
 62
7
  6
CONTINUOUS
 10
149.8628043005
 20
31.0454914852
 11
149.8628043005
 21
31.1422825445
  0
LINE
  8
0
 62
7
  6
CONTINUOUS
 10
149.5737418074
 20
31.1100188581
 11
149.6315543091
 21
30.9164367395
  0
LINE
  8
0
 62
7
  6
CONTINUOUS
 10
150.9671844304
 20
33.9544555678
 11
150.9671844304
 21
36.1675703219
  0
LINE
  8
0
 62
7
  6
CONTINUOUS
 10
151.8862417523
 20
32.1101932727
 11
151.8862417523
 21
30.5937998301
  0
LINE
  8
0
 62
7
  6
CONTINUOUS
 10
152.1753043074
 20
30.5937998301
 11
152.1753043074
 21
31.3358647082
  0
LINE
  8
0
 62
7
  6
CONTINUOUS
 10
152.1753043074
 20
31.4649194539
 11
152.1753043074
 21
32.1101932727
  0
LINE
  8
0
 62
7
  6
CONTINUOUS
 10
149.6315543091
 20
31.3036010218
 11
149.5737418074
 21
31.1100188581
  0
LINE
  8
0
 62
7
  6
CONTINUOUS
 10
149.9784292936
 20
30.8841730531
 11
149.8628043005
 21
31.0454914852
  0
LINE
  8
0
 62
7
  6
CONTINUOUS
 10
151.0768668626
 20
31.400392081
 11
151.1346793074
 21
31.3036010218
  0
LINE
  8
0
 62
7
  6
CONTINUOUS
 10
151.4237418626
 20
31.3036010218
 11
151.3659292523
 21
31.4326557675
  0
LINE
  8
0
 62
7
  6
CONTINUOUS
 10
152.852430332
 20
36.1675703219
 11
152.852430332
 21
34.3642916334
  0
LINE
  8
0
 62
7
  6
CONTINUOUS
 10
152.852430332
 20
33.0528162235
 11
152.852430332
 21
32.3970785186
  0
LINE
  8
0
 62
7
  6
CONTINUOUS
 10
153.2159293074
 20
31.2390736489
 11
153.2159293074
 21
30.5937998301
  0
LINE
  8
0
 62
7
  6
CONTINUOUS
 10
153.5049916972
 20
30.5937998301
 11
153.5049916972
 21
31.2390736489
  0
LINE
  8
0
 62
7
  6
CONTINUOUS
 10
149.8628043005
 20
31.1422825445
 11
149.9206168074
 21
31.2713373354
  0
LINE
  8
0
 62
7
  6
CONTINUOUS
 10
149.6315543091
 20
30.9164367395
 11
149.7471793074
 21
30.7873819712
  0
LINE
  8
0
 62
7
  6
CONTINUOUS
 10
153.1581166972
 20
31.3681283946
 11
153.2159293074
 21
31.2390736489
  0
LINE
  8
0
 62
7
  6
CONTINUOUS
 10
153.9674919177
 20
30.8841730531
 11
154.0253041972
 21
30.7551182848
  0
LINE
  8
0
 62
7
  6
CONTINUOUS
 10
153.5049916972
 20
31.2390736489
 11
153.4471794177
 21
31.400392081
  0
LINE
  8
0
 62
7
  6
CONTINUOUS
 10
153.9674919177
 20
31.4326557675
 11
153.9674919177
 21
31.3681283946
  0
LINE
  8
0
 62
7
  6
CONTINUOUS
 10
153.9674919177
 20
30.9809641124
 11
153.9674919177
 21
30.8841730531
  0
LINE
  8
0
 62
7
  6
CONTINUOUS
 10
154.245872955
 20
32.3970785186
 11
154.245872955
 21
36.1675703219
  0
LINE
  8
0
 62
7
  6
CONTINUOUS
 10
154.2565543074
 20
30.8519093441
 11
154.2565543074
 21
30.9164367395
  0
LINE
  8
0
 62
7
  6
CONTINUOUS
 10
154.5737418074
 20
36.1675703219
 11
154.5737418074
 21
32.3970785186
  0
LINE
  8
0
 62
7
  6
CONTINUOUS
 10
151.3659292523
 20
30.7873819712
 11
151.4237418626
 21
30.9164367395
  0
LINE
  8
0
 62
7
  6
CONTINUOUS
 10
155.759679528
 20
30.6905909007
 11
155.7018665869
 21
30.8519093441
  0
LINE
  8
0
 62
7
  6
CONTINUOUS
 10
155.412804528
 20
31.3681283946
 11
155.412804528
 21
31.2713373354
  0
LINE
  8
0
 62
7
  6
CONTINUOUS
 10
155.412804528
 20
31.1422825445
 11
155.412804528
 21
30.9487004259
  0
LINE
  8
0
 62
7
  6
CONTINUOUS
 10
155.7018665869
 20
30.8519093441
 11
155.7018665869
 21
31.3681283946
  0
LINE
  8
0
 62
7
  6
CONTINUOUS
 10
155.9671844304
 20
32.3970785186
 11
155.9671844304
 21
34.2003572071
  0
LINE
  8
0
 62
7
  6
CONTINUOUS
 10
155.9671844304
 20
35.511832617
 11
155.9671844304
 21
36.1675703219
  0
LINE
  8
0
 62
7
  6
CONTINUOUS
 10
156.279992028
 20
32.1101932727
 11
156.279992028
 21
31.9488748406
  0
LINE
  8
0
 62
7
  6
CONTINUOUS
 10
156.279992028
 20
31.626237886
 11
156.279992028
 21
30.5937998301
  0
LINE
  8
0
 62
7
  6
CONTINUOUS
 10
156.5690540869
 20
30.5937998301
 11
156.5690540869
 21
31.626237886
  0
LINE
  8
0
 62
7
  6
CONTINUOUS
 10
156.5690540869
 20
31.9488748406
 11
156.5690540869
 21
32.1101932727
  0
LINE
  8
0
 62
7
  6
CONTINUOUS
 10
151.1346793074
 20
30.9164367395
 11
151.0768668626
 21
30.8196456577
  0
LINE
  8
0
 62
7
  6
CONTINUOUS
 10
153.4471794177
 20
31.400392081
 11
153.3893668074
 21
31.4649194539
  0
LINE
  8
0
 62
7
  6
CONTINUOUS
 10
154.3143669177
 20
30.7873819712
 11
154.2565543074
 21
30.8519093441
  0
LINE
  8
0
 62
7
  6
CONTINUOUS
 10
155.4706168074
 20
30.6583272086
 11
155.5284290869
 21
30.5937998301
  0
LINE
  8
0
 62
7
  6
CONTINUOUS
 10
155.412804528
 20
30.7551182848
 11
155.4706168074
 21
30.6583272086
  0
LINE
  8
0
 62
7
  6
CONTINUOUS
 10
155.8174918074
 20
30.5937998301
 11
155.759679528
 21
30.6905909007
  0
LINE
  8
0
 62
7
  6
CONTINUOUS
 10
155.7018665869
 20
31.3681283946
 11
155.6440543074
 21
31.4649194539
  0
LINE
  8
0
 62
7
  6
CONTINUOUS
 10
157.0315543074
 20
31.626237886
 11
157.0315543074
 21
30.5937998301
  0
LINE
  8
0
 62
7
  6
CONTINUOUS
 10
157.320617028
 20
30.5937998301
 11
157.320617028
 21
31.3358647082
  0
LINE
  8
0
 62
7
  6
CONTINUOUS
 10
157.320617028
 20
31.4649194539
 11
157.320617028
 21
31.626237886
  0
LINE
  8
0
 62
7
  6
CONTINUOUS
 10
157.852430332
 20
34.6101932727
 11
157.852430332
 21
32.3970785186
  0
LINE
  8
0
 62
7
  6
CONTINUOUS
 10
149.7471793074
 20
31.4326557675
 11
149.6315543091
 21
31.3036010218
  0
LINE
  8
0
 62
7
  6
CONTINUOUS
 10
149.9206168074
 20
31.2713373354
 11
149.9784292936
 21
31.3358647082
  0
LINE
  8
0
 62
7
  6
CONTINUOUS
 10
149.7471793074
 20
30.7873819712
 11
149.8628043005
 21
30.7228545871
  0
LINE
  8
0
 62
7
  6
CONTINUOUS
 10
150.1518667936
 20
30.7873819712
 11
149.9784292936
 21
30.8841730531
  0
LINE
  8
0
 62
7
  6
CONTINUOUS
 10
155.3549915869
 20
31.4326557675
 11
155.412804528
 21
31.3681283946
  0
LINE
  8
0
 62
7
  6
CONTINUOUS
 10
158.3034290869
 20
31.3681283946
 11
158.361242028
 21
31.2068099625
  0
LINE
  8
0
 62
7
  6
CONTINUOUS
 10
158.6503040869
 20
31.2068099625
 11
158.5924918074
 21
31.3681283946
  0
LINE
  8
0
 62
7
  6
CONTINUOUS
 10
158.361242028
 20
31.2068099625
 11
158.361242028
 21
30.5937998301
  0
LINE
  8
0
 62
7
  6
CONTINUOUS
 10
158.6503040869
 20
30.5937998301
 11
158.6503040869
 21
31.2068099625
  0
LINE
  8
0
 62
7
  6
CONTINUOUS
 10
159.1128043074
 20
31.4326557675
 11
159.1128043074
 21
31.3681283946
  0
LINE
  8
0
 62
7
  6
CONTINUOUS
 10
159.245872955
 20
32.3970785186
 11
159.245872955
 21
34.5282260596
  0
LINE
  8
0
 62
7
  6
CONTINUOUS
 10
159.5737418074
 20
36.1675703219
 11
159.5737418074
 21
32.3970785186
  0
LINE
  8
0
 62
7
  6
CONTINUOUS
 10
154.2565543074
 20
30.9164367395
 11
154.3143669177
 21
31.0132277988
  0
LINE
  8
0
 62
7
  6
CONTINUOUS
 10
149.8628043005
 20
30.7228545871
 11
150.0362418212
 21
30.6583272086
  0
LINE
  8
0
 62
7
  6
CONTINUOUS
 10
151.3659292523
 20
31.4326557675
 11
151.1924917523
 21
31.5294468267
  0
LINE
  8
0
 62
7
  6
CONTINUOUS
 10
154.0253041972
 20
30.7551182848
 11
154.1987416972
 21
30.6583272086
  0
LINE
  8
0
 62
7
  6
CONTINUOUS
 10
153.0424918074
 20
31.4326557675
 11
153.1581166972
 21
31.3681283946
  0
LINE
  8
0
 62
7
  6
CONTINUOUS
 10
153.3893668074
 20
31.4649194539
 11
153.2737419177
 21
31.5294468267
  0
LINE
  8
0
 62
7
  6
CONTINUOUS
 10
159.1128043074
 20
30.8519093441
 11
159.228429528
 21
30.7228545871
  0
LINE
  8
0
 62
7
  6
CONTINUOUS
 10
159.4596793074
 20
30.7873819712
 11
159.401867028
 21
30.8519093441
  0
LINE
  8
0
 62
7
  6
CONTINUOUS
 10
159.1128043074
 20
31.3681283946
 11
159.228429528
 21
31.2390736489
  0
LINE
  8
0
 62
7
  6
CONTINUOUS
 10
158.5924918074
 20
31.3681283946
 11
158.534679528
 21
31.4649194539
  0
LINE
  8
0
 62
7
  6
CONTINUOUS
 10
160.9628038663
 20
30.7873819712
 11
160.9628038663
 21
30.8519093441
  0
LINE
  8
0
 62
7
  6
CONTINUOUS
 10
160.9671844304
 20
32.3970785186
 11
160.9671844304
 21
36.1675703219
  0
LINE
  8
0
 62
7
  6
CONTINUOUS
 10
154.0253041972
 20
31.4971831403
 11
153.9674919177
 21
31.4326557675
  0
LINE
  8
0
 62
7
  6
CONTINUOUS
 10
150.9034292799
 20
31.4649194539
 11
151.0768668626
 21
31.400392081
  0
LINE
  8
0
 62
7
  6
CONTINUOUS
 10
155.6440543074
 20
31.4649194539
 11
155.5284290869
 21
31.5294468267
  0
LINE
  8
0
 62
7
  6
CONTINUOUS
 10
159.4596793074
 20
31.3036010218
 11
159.401867028
 21
31.3681283946
  0
LINE
  8
0
 62
7
  6
CONTINUOUS
 10
160.615929528
 20
30.9164367395
 11
160.6737418074
 21
30.8519093441
  0
LINE
  8
0
 62
7
  6
CONTINUOUS
 10
160.9628038663
 20
30.8519093441
 11
160.8471793074
 21
30.9809641124
  0
LINE
  8
0
 62
7
  6
CONTINUOUS
 10
160.615929528
 20
31.4326557675
 11
160.6737418074
 21
31.3681283946
  0
LINE
  8
0
 62
7
  6
CONTINUOUS
 10
160.9628038663
 20
31.3681283946
 11
160.8471793074
 21
31.4971831403
  0
LINE
  8
0
 62
7
  6
CONTINUOUS
 10
154.2565543074
 20
31.3681283946
 11
154.3143669177
 21
31.4326557675
  0
LINE
  8
0
 62
7
  6
CONTINUOUS
 10
154.0831168074
 20
31.1100188581
 11
153.9674919177
 21
30.9809641124
  0
LINE
  8
0
 62
7
  6
CONTINUOUS
 10
155.412804528
 20
30.9487004259
 11
155.3549915869
 21
30.8841730531
  0
LINE
  8
0
 62
7
  6
CONTINUOUS
 10
155.3549915869
 20
30.6905909007
 11
155.412804528
 21
30.7551182848
  0
LINE
  8
0
 62
7
  6
CONTINUOUS
 10
154.1987416972
 20
30.6583272086
 11
154.3143669177
 21
30.6260635193
  0
LINE
  8
0
 62
7
  6
CONTINUOUS
 10
151.1924917523
 20
31.5294468267
 11
150.9612418074
 21
31.5939741996
  0
LINE
  8
0
 62
7
  6
CONTINUOUS
 10
154.5456166972
 20
30.7228545871
 11
154.3143669177
 21
30.7873819712
  0
LINE
  8
0
 62
7
  6
CONTINUOUS
 10
153.2737419177
 20
31.5294468267
 11
153.1003044177
 21
31.5939741996
  0
LINE
  8
0
 62
7
  6
CONTINUOUS
 10
155.5284290869
 20
31.5294468267
 11
155.3549915869
 21
31.5939741996
  0
LINE
  8
0
 62
7
  6
CONTINUOUS
 10
158.187804528
 20
31.4326557675
 11
158.3034290869
 21
31.3681283946
  0
LINE
  8
0
 62
7
  6
CONTINUOUS
 10
158.534679528
 20
31.4649194539
 11
158.4190543074
 21
31.5294468267
  0
LINE
  8
0
 62
7
  6
CONTINUOUS
 10
150.0362418212
 20
30.6583272086
 11
150.2096793212
 21
30.6260635193
  0
LINE
  8
0
 62
7
  6
CONTINUOUS
 10
150.498741835
 20
30.7228545871
 11
150.1518667936
 21
30.7873819712
  0
LINE
  8
0
 62
7
  6
CONTINUOUS
 10
152.9268669177
 20
31.4649194539
 11
153.0424918074
 21
31.4326557675
  0
LINE
  8
0
 62
7
  6
CONTINUOUS
 10
155.239367028
 20
31.4649194539
 11
155.3549915869
 21
31.4326557675
  0
LINE
  8
0
 62
7
  6
CONTINUOUS
 10
159.575304528
 20
30.7551182848
 11
159.4596793074
 21
30.7873819712
  0
LINE
  8
0
 62
7
  6
CONTINUOUS
 10
158.0721793074
 20
31.4649194539
 11
158.187804528
 21
31.4326557675
  0
LINE
  8
0
 62
7
  6
CONTINUOUS
 10
159.228429528
 20
30.7228545871
 11
159.401867028
 21
30.6583272086
  0
LINE
  8
0
 62
7
  6
CONTINUOUS
 10
158.4190543074
 20
31.5294468267
 11
158.2456168074
 21
31.5939741996
  0
LINE
  8
0
 62
7
  6
CONTINUOUS
 10
159.6331168074
 20
31.2390736489
 11
159.4596793074
 21
31.3036010218
  0
LINE
  8
0
 62
7
  6
CONTINUOUS
 10
160.442492028
 20
30.9809641124
 11
160.615929528
 21
30.9164367395
  0
LINE
  8
0
 62
7
  6
CONTINUOUS
 10
160.8471793074
 20
31.4971831403
 11
160.6737418074
 21
31.5617105132
  0
LINE
  8
0
 62
7
  6
CONTINUOUS
 10
159.228429528
 20
31.2390736489
 11
159.4596793074
 21
31.1422825445
  0
LINE
  8
0
 62
7
  6
CONTINUOUS
 10
160.8471793074
 20
30.9809641124
 11
160.615929528
 21
31.0777551716
  0
LINE
  8
0
 62
7
  6
CONTINUOUS
 10
159.401867028
 20
31.3681283946
 11
159.4596793074
 21
31.4326557675
  0
LINE
  8
0
 62
7
  6
CONTINUOUS
 10
149.8628043005
 20
31.4971831403
 11
149.7471793074
 21
31.4326557675
  0
LINE
  8
0
 62
7
  6
CONTINUOUS
 10
149.9784292936
 20
31.3358647082
 11
150.1518667936
 21
31.4326557675
  0
LINE
  8
0
 62
7
  6
CONTINUOUS
 10
152.2909293626
 20
31.5294468267
 11
152.1753043074
 21
31.4649194539
  0
LINE
  8
0
 62
7
  6
CONTINUOUS
 10
152.1753043074
 20
31.3358647082
 11
152.2909293626
 21
31.400392081
  0
LINE
  8
0
 62
7
  6
CONTINUOUS
 10
151.1924917523
 20
30.6905909007
 11
151.3659292523
 21
30.7873819712
  0
LINE
  8
0
 62
7
  6
CONTINUOUS
 10
150.2096793212
 20
30.6260635193
 11
150.5565542799
 21
30.5937998301
  0
LINE
  8
0
 62
7
  6
CONTINUOUS
 10
154.3143669177
 20
30.6260635193
 11
154.5456166972
 21
30.5937998301
  0
LINE
  8
0
 62
7
  6
CONTINUOUS
 10
152.6956168074
 20
31.4971831403
 11
152.9268669177
 21
31.4649194539
  0
LINE
  8
0
 62
7
  6
CONTINUOUS
 10
155.0081169177
 20
31.4971831403
 11
155.239367028
 21
31.4649194539
  0
LINE
  8
0
 62
7
  6
CONTINUOUS
 10
159.4596793074
 20
31.1422825445
 11
160.442492028
 21
30.9809641124
  0
LINE
  8
0
 62
7
  6
CONTINUOUS
 10
160.615929528
 20
31.0777551716
 11
159.6331168074
 21
31.2390736489
  0
LINE
  8
0
 62
7
  6
CONTINUOUS
 10
153.1003044177
 20
31.5939741996
 11
152.9268669177
 21
31.626237886
  0
LINE
  8
0
 62
7
  6
CONTINUOUS
 10
159.401867028
 20
30.6583272086
 11
159.575304528
 21
30.6260635193
  0
LINE
  8
0
 62
7
  6
CONTINUOUS
 10
158.2456168074
 20
31.5939741996
 11
158.0721793074
 21
31.626237886
  0
LINE
  8
0
 62
7
  6
CONTINUOUS
 10
160.5003043074
 20
31.4649194539
 11
160.615929528
 21
31.4326557675
  0
LINE
  8
0
 62
7
  6
CONTINUOUS
 10
160.6737418074
 20
30.8519093441
 11
160.615929528
 21
30.7873819712
  0
LINE
  8
0
 62
7
  6
CONTINUOUS
 10
159.228429528
 20
31.5294468267
 11
159.1128043074
 21
31.4326557675
  0
LINE
  8
0
 62
7
  6
CONTINUOUS
 10
154.1409294177
 20
31.5617105132
 11
154.0253041972
 21
31.4971831403
  0
LINE
  8
0
 62
7
  6
CONTINUOUS
 10
154.1987416972
 20
31.1745462761
 11
154.0831168074
 21
31.1100188581
  0
LINE
  8
0
 62
7
  6
CONTINUOUS
 10
154.3143669177
 20
31.0132277988
 11
154.4299918074
 21
31.0777551716
  0
LINE
  8
0
 62
7
  6
CONTINUOUS
 10
151.8862417523
 20
30.5937998301
 11
152.1753043074
 21
30.5937998301
  0
LINE
  8
0
 62
7
  6
CONTINUOUS
 10
153.2159293074
 20
30.5937998301
 11
153.5049916972
 21
30.5937998301
  0
LINE
  8
0
 62
7
  6
CONTINUOUS
 10
154.5456166972
 20
30.5937998301
 11
154.8924916972
 21
30.5937998301
  0
LINE
  8
0
 62
7
  6
CONTINUOUS
 10
155.5284290869
 20
30.5937998301
 11
155.8174918074
 21
30.5937998301
  0
LINE
  8
0
 62
7
  6
CONTINUOUS
 10
156.279992028
 20
30.5937998301
 11
156.5690540869
 21
30.5937998301
  0
LINE
  8
0
 62
7
  6
CONTINUOUS
 10
157.0315543074
 20
30.5937998301
 11
157.320617028
 21
30.5937998301
  0
LINE
  8
0
 62
7
  6
CONTINUOUS
 10
158.361242028
 20
30.5937998301
 11
158.6503040869
 21
30.5937998301
  0
LINE
  8
0
 62
7
  6
CONTINUOUS
 10
159.922179528
 20
30.5937998301
 11
160.269054528
 21
30.5937998301
  0
LINE
  8
0
 62
7
  6
CONTINUOUS
 10
160.269054528
 20
30.7228545871
 11
159.922179528
 21
30.7228545871
  0
LINE
  8
0
 62
7
  6
CONTINUOUS
 10
154.8924916972
 20
30.7228545871
 11
154.5456166972
 21
30.7228545871
  0
LINE
  8
0
 62
7
  6
CONTINUOUS
 10
159.401867028
 20
30.8519093441
 11
159.1128043074
 21
30.8519093441
  0
LINE
  8
0
 62
7
  6
CONTINUOUS
 10
151.4237418626
 20
30.9164367395
 11
151.1346793074
 21
30.9164367395
  0
LINE
  8
0
 62
7
  6
CONTINUOUS
 10
150.498741835
 20
31.4971831403
 11
150.9034292799
 21
31.4649194539
  0
LINE
  8
0
 62
7
  6
CONTINUOUS
 10
150.9612418074
 20
31.5939741996
 11
150.5565542799
 21
31.626237886
  0
LINE
  8
0
 62
7
  6
CONTINUOUS
 10
159.575304528
 20
30.6260635193
 11
159.922179528
 21
30.5937998301
  0
LINE
  8
0
 62
7
  6
CONTINUOUS
 10
159.922179528
 20
30.7228545871
 11
159.575304528
 21
30.7551182848
  0
LINE
  8
0
 62
7
  6
CONTINUOUS
 10
155.3549915869
 20
31.5939741996
 11
155.0081169177
 21
31.626237886
  0
LINE
  8
0
 62
7
  6
CONTINUOUS
 10
160.1534293074
 20
31.4971831403
 11
160.5003043074
 21
31.4649194539
  0
LINE
  8
0
 62
7
  6
CONTINUOUS
 10
160.5003043074
 20
31.5939741996
 11
160.1534293074
 21
31.626237886
  0
LINE
  8
0
 62
7
  6
CONTINUOUS
 10
157.840929528
 20
31.4971831403
 11
158.0721793074
 21
31.4649194539
  0
LINE
  8
0
 62
7
  6
CONTINUOUS
 10
160.6737418074
 20
31.5617105132
 11
160.5003043074
 21
31.5939741996
  0
LINE
  8
0
 62
7
  6
CONTINUOUS
 10
160.8471793074
 20
30.6905909007
 11
160.9628038663
 21
30.7873819712
  0
LINE
  8
0
 62
7
  6
CONTINUOUS
 10
155.3549915869
 20
30.8841730531
 11
155.1815540869
 21
30.7873819712
  0
LINE
  8
0
 62
7
  6
CONTINUOUS
 10
157.4362415869
 20
31.5294468267
 11
157.320617028
 21
31.4649194539
  0
LINE
  8
0
 62
7
  6
CONTINUOUS
 10
157.320617028
 20
31.3358647082
 11
157.4362415869
 21
31.400392081
  0
LINE
  8
0
 62
7
  6
CONTINUOUS
 10
150.0362418212
 20
31.5617105132
 11
149.8628043005
 21
31.4971831403
  0
LINE
  8
0
 62
7
  6
CONTINUOUS
 10
152.4643666972
 20
31.5939741996
 11
152.2909293626
 21
31.5294468267
  0
LINE
  8
0
 62
7
  6
CONTINUOUS
 10
152.2909293626
 20
31.400392081
 11
152.4643666972
 21
31.4649194539
  0
LINE
  8
0
 62
7
  6
CONTINUOUS
 10
151.0768668626
 20
30.8196456577
 11
150.9034292799
 21
30.7551182848
  0
LINE
  8
0
 62
7
  6
CONTINUOUS
 10
160.5003043074
 20
30.7551182848
 11
160.269054528
 21
30.7228545871
  0
LINE
  8
0
 62
7
  6
CONTINUOUS
 10
154.8924916972
 20
30.5937998301
 11
155.1815540869
 21
30.6260635193
  0
LINE
  8
0
 62
7
  6
CONTINUOUS
 10
160.269054528
 20
30.5937998301
 11
160.615929528
 21
30.6260635193
  0
LINE
  8
0
 62
7
  6
CONTINUOUS
 10
150.5565542799
 20
30.5937998301
 11
150.9612418074
 21
30.6260635193
  0
LINE
  8
0
 62
7
  6
CONTINUOUS
 10
150.9034292799
 20
30.7551182848
 11
150.498741835
 21
30.7228545871
  0
LINE
  8
0
 62
7
  6
CONTINUOUS
 10
154.7768668074
 20
31.1422825445
 11
155.412804528
 21
31.1422825445
  0
LINE
  8
0
 62
7
  6
CONTINUOUS
 10
155.412804528
 20
31.2713373354
 11
154.7768668074
 21
31.2713373354
  0
LINE
  8
0
 62
7
  6
CONTINUOUS
 10
151.1346793074
 20
31.3036010218
 11
151.4237418626
 21
31.3036010218
  0
LINE
  8
0
 62
7
  6
CONTINUOUS
 10
153.9674919177
 20
31.3681283946
 11
154.2565543074
 21
31.3681283946
  0
LINE
  8
0
 62
7
  6
CONTINUOUS
 10
160.6737418074
 20
31.3681283946
 11
160.9628038663
 21
31.3681283946
  0
LINE
  8
0
 62
7
  6
CONTINUOUS
 10
154.6612419177
 20
31.4971831403
 11
155.0081169177
 21
31.4971831403
  0
LINE
  8
0
 62
7
  6
CONTINUOUS
 10
159.8065543074
 20
31.4971831403
 11
160.1534293074
 21
31.4971831403
  0
LINE
  8
0
 62
7
  6
CONTINUOUS
 10
160.1534293074
 20
31.626237886
 11
159.8065543074
 21
31.626237886
  0
LINE
  8
0
 62
7
  6
CONTINUOUS
 10
158.0721793074
 20
31.626237886
 11
157.840929528
 21
31.626237886
  0
LINE
  8
0
 62
7
  6
CONTINUOUS
 10
157.320617028
 20
31.626237886
 11
157.0315543074
 21
31.626237886
  0
LINE
  8
0
 62
7
  6
CONTINUOUS
 10
156.5690540869
 20
31.626237886
 11
156.279992028
 21
31.626237886
  0
LINE
  8
0
 62
7
  6
CONTINUOUS
 10
155.0081169177
 20
31.626237886
 11
154.6612419177
 21
31.626237886
  0
LINE
  8
0
 62
7
  6
CONTINUOUS
 10
152.9268669177
 20
31.626237886
 11
152.6956168074
 21
31.626237886
  0
LINE
  8
0
 62
7
  6
CONTINUOUS
 10
156.279992028
 20
31.9488748406
 11
156.5690540869
 21
31.9488748406
  0
LINE
  8
0
 62
7
  6
CONTINUOUS
 10
156.5690540869
 20
32.1101932727
 11
156.279992028
 21
32.1101932727
  0
LINE
  8
0
 62
7
  6
CONTINUOUS
 10
152.1753043074
 20
32.1101932727
 11
151.8862417523
 21
32.1101932727
  0
LINE
  8
0
 62
7
  6
CONTINUOUS
 10
151.2130860697
 20
32.3970785186
 11
151.6256574183
 21
32.3970785186
  0
LINE
  8
0
 62
7
  6
CONTINUOUS
 10
152.852430332
 20
32.3970785186
 11
154.245872955
 21
32.3970785186
  0
LINE
  8
0
 62
7
  6
CONTINUOUS
 10
154.5737418074
 20
32.3970785186
 11
155.9671844304
 21
32.3970785186
  0
LINE
  8
0
 62
7
  6
CONTINUOUS
 10
157.852430332
 20
32.3970785186
 11
159.245872955
 21
32.3970785186
  0
LINE
  8
0
 62
7
  6
CONTINUOUS
 10
159.5737418074
 20
32.3970785186
 11
160.9671844304
 21
32.3970785186
  0
LINE
  8
0
 62
7
  6
CONTINUOUS
 10
157.6096790869
 20
31.5939741996
 11
157.4362415869
 21
31.5294468267
  0
LINE
  8
0
 62
7
  6
CONTINUOUS
 10
155.1815540869
 20
30.6260635193
 11
155.3549915869
 21
30.6905909007
  0
LINE
  8
0
 62
7
  6
CONTINUOUS
 10
160.615929528
 20
30.6260635193
 11
160.8471793074
 21
30.6905909007
  0
LINE
  8
0
 62
7
  6
CONTINUOUS
 10
160.615929528
 20
30.7873819712
 11
160.5003043074
 21
30.7551182848
  0
LINE
  8
0
 62
7
  6
CONTINUOUS
 10
159.575304528
 20
31.4649194539
 11
159.8065543074
 21
31.4971831403
  0
LINE
  8
0
 62
7
  6
CONTINUOUS
 10
157.6096790869
 20
31.4649194539
 11
157.840929528
 21
31.4971831403
  0
LINE
  8
0
 62
7
  6
CONTINUOUS
 10
154.5456166972
 20
31.1100188581
 11
154.7768668074
 21
31.1422825445
  0
LINE
  8
0
 62
7
  6
CONTINUOUS
 10
157.840929528
 20
31.626237886
 11
157.6096790869
 21
31.5939741996
  0
LINE
  8
0
 62
7
  6
CONTINUOUS
 10
154.4299918074
 20
31.4649194539
 11
154.6612419177
 21
31.4971831403
  0
LINE
  8
0
 62
7
  6
CONTINUOUS
 10
159.8065543074
 20
31.626237886
 11
159.4596793074
 21
31.5939741996
  0
LINE
  8
0
 62
7
  6
CONTINUOUS
 10
154.7768668074
 20
31.2713373354
 11
154.4299918074
 21
31.2390736489
  0
LINE
  8
0
 62
7
  6
CONTINUOUS
 10
150.5565542799
 20
31.626237886
 11
150.2096793212
 21
31.5939741996
  0
LINE
  8
0
 62
7
  6
CONTINUOUS
 10
154.6612419177
 20
31.626237886
 11
154.2565543074
 21
31.5939741996
  0
LINE
  8
0
 62
7
  6
CONTINUOUS
 10
152.0327582009
 20
33.5446195022
 11
151.3770204959
 21
33.5446195022
  0
LINE
  8
0
 62
7
  6
CONTINUOUS
 10
157.4362415869
 20
31.400392081
 11
157.6096790869
 21
31.4649194539
  0
LINE
  8
0
 62
7
  6
CONTINUOUS
 10
159.4596793074
 20
31.4326557675
 11
159.575304528
 21
31.4649194539
  0
LINE
  8
0
 62
7
  6
CONTINUOUS
 10
159.4596793074
 20
31.5939741996
 11
159.228429528
 21
31.5294468267
  0
LINE
  8
0
 62
7
  6
CONTINUOUS
 10
155.1815540869
 20
30.7873819712
 11
154.8924916972
 21
30.7228545871
  0
LINE
  8
0
 62
7
  6
CONTINUOUS
 10
152.4643666972
 20
31.4649194539
 11
152.6956168074
 21
31.4971831403
  0
LINE
  8
0
 62
7
  6
CONTINUOUS
 10
152.6956168074
 20
31.626237886
 11
152.4643666972
 21
31.5939741996
  0
LINE
  8
0
 62
7
  6
CONTINUOUS
 10
150.2674918074
 20
31.4649194539
 11
150.498741835
 21
31.4971831403
  0
LINE
  8
0
 62
7
  6
CONTINUOUS
 10
156.7868565615
 20
35.0200293383
 11
157.4425942664
 21
35.0200293383
  0
LINE
  8
0
 62
7
  6
CONTINUOUS
 10
154.4299918074
 20
31.0777551716
 11
154.5456166972
 21
31.1100188581
  0
LINE
  8
0
 62
7
  6
CONTINUOUS
 10
154.4299918074
 20
31.2390736489
 11
154.1987416972
 21
31.1745462761
  0
LINE
  8
0
 62
7
  6
CONTINUOUS
 10
154.3143669177
 20
31.4326557675
 11
154.4299918074
 21
31.4649194539
  0
LINE
  8
0
 62
7
  6
CONTINUOUS
 10
150.9612418074
 20
30.6260635193
 11
151.1924917523
 21
30.6905909007
  0
LINE
  8
0
 62
7
  6
CONTINUOUS
 10
154.2565543074
 20
31.5939741996
 11
154.1409294177
 21
31.5617105132
  0
LINE
  8
0
 62
7
  6
CONTINUOUS
 10
150.2096793212
 20
31.5939741996
 11
150.0362418212
 21
31.5617105132
  0
LINE
  8
0
 62
7
  6
CONTINUOUS
 10
160.9671844304
 20
36.1675703219
 11
159.5737418074
 21
36.1675703219
  0
LINE
  8
0
 62
7
  6
CONTINUOUS
 10
157.6065286927
 20
36.1675703219
 11
157.1939573441
 21
36.1675703219
  0
LINE
  8
0
 62
7
  6
CONTINUOUS
 10
155.9671844304
 20
36.1675703219
 11
154.5737418074
 21
36.1675703219
  0
LINE
  8
0
 62
7
  6
CONTINUOUS
 10
154.245872955
 20
36.1675703219
 11
152.852430332
 21
36.1675703219
  0
LINE
  8
0
 62
7
  6
CONTINUOUS
 10
150.9671844304
 20
36.1675703219
 11
149.5737418074
 21
36.1675703219
  0
LINE
  8
0
 62
7
  6
CONTINUOUS
 10
150.1518667936
 20
31.4326557675
 11
150.2674918074
 21
31.4649194539
  0
CIRCLE
  8
0
 62
7
  6
CONTINUOUS
 10
160.2704631189
 20
38.5036358957
 40
2.0901639344
  0
ARC
  8
0
 62
7
  6
CONTINUOUS
 10
151.2130860697
 20
34.0364227809
 40
1.6393442623
 50
180.0
 51
270.0
  0
ARC
  8
0
 62
7
  6
CONTINUOUS
 10
157.6065286927
 20
34.5282260596
 40
1.6393442623
 50
0.0
 51
90.0
  0
ARC
  8
0
 62
7
  6
CONTINUOUS
 10
151.6256574183
 20
33.8724883547
 40
1.4754098361
 50
270.0
 51
326.2510114041
  0
ARC
  8
0
 62
7
  6
CONTINUOUS
 10
157.1939573441
 20
34.6921604858
 40
1.4754098361
 50
90.0
 51
146.2510114041
  0
ARC
  8
0
 62
7
  6
CONTINUOUS
 10
152.0327582009
 20
34.3642916334
 40
0.8196721311
 50
270.0
 51
360.0
  0
ARC
  8
0
 62
7
  6
CONTINUOUS
 10
156.7868565615
 20
34.2003572071
 40
0.8196721311
 50
90.0
 51
180.0
  0
ARC
  8
0
 62
7
  6
CONTINUOUS
 10
151.3770204959
 20
33.9544555678
 40
0.4098360656
 50
180.0
 51
270.0
  0
ARC
  8
0
 62
7
  6
CONTINUOUS
 10
157.4425942664
 20
34.6101932727
 40
0.4098360656
 50
0.0
 51
90.0
  0
SOLID
  8
0
 62
7
  6
CONTINUOUS
 10
156.279992028
 20
31.9488752009
 11
156.279992028
 21
32.1101936845
 12
156.5690540869
 22
31.9488752009
 13
156.5690540869
 23
32.1101936845
  0
SOLID
  8
0
 62
7
  6
CONTINUOUS
 10
150.5565542799
 20
31.6262382337
 11
150.9612418074
 21
31.5939740028
 12
150.2096793212
 22
31.5939740028
 13
150.2096793212
 23
31.5939740028
  0
SOLID
  8
0
 62
7
  6
CONTINUOUS
 10
150.0362418212
 20
31.5617111435
 11
150.2096793212
 21
31.5939740028
 12
150.9612418074
 22
31.5939740028
 13
150.9612418074
 23
31.5939740028
  0
SOLID
  8
0
 62
7
  6
CONTINUOUS
 10
150.9612418074
 20
31.5939740028
 11
151.1924917523
 21
31.5294468402
 12
150.0362418212
 22
31.5617111435
 13
150.0362418212
 23
31.5617111435
  0
SOLID
  8
0
 62
7
  6
CONTINUOUS
 10
149.8628043005
 20
31.49718259
 11
150.0362418212
 21
31.5617111435
 12
151.1924917523
 22
31.5294468402
 13
151.1924917523
 23
31.5294468402
  0
SOLID
  8
0
 62
7
  6
CONTINUOUS
 10
149.8628043005
 20
31.49718259
 11
151.1924917523
 21
31.5294468402
 12
150.498741835
 22
31.49718259
 13
150.498741835
 23
31.49718259
  0
SOLID
  8
0
 62
7
  6
CONTINUOUS
 10
150.498741835
 20
31.49718259
 11
151.1924917523
 21
31.5294468402
 12
150.9034292799
 22
31.4649197501
 13
150.9034292799
 23
31.4649197501
  0
SOLID
  8
0
 62
7
  6
CONTINUOUS
 10
151.1924917523
 20
31.5294468402
 11
151.3659292523
 21
31.4326554468
 12
150.9034292799
 22
31.4649197501
 13
150.9034292799
 23
31.4649197501
  0
SOLID
  8
0
 62
7
  6
CONTINUOUS
 10
151.0768668626
 20
31.4003926599
 11
150.9034292799
 21
31.4649197501
 12
151.3659292523
 22
31.4326554468
 13
151.3659292523
 23
31.4326554468
  0
SOLID
  8
0
 62
7
  6
CONTINUOUS
 10
151.0768668626
 20
31.4003926599
 11
151.3659292523
 21
31.4326554468
 12
151.1346793074
 22
31.3036013776
 13
151.1346793074
 23
31.3036013776
  0
SOLID
  8
0
 62
7
  6
CONTINUOUS
 10
151.3659292523
 20
31.4326554468
 11
151.4237418626
 21
31.3036013776
 12
151.1346793074
 22
31.3036013776
 13
151.1346793074
 23
31.3036013776
  0
SOLID
  8
0
 62
7
  6
CONTINUOUS
 10
152.4643666972
 20
31.5939739754
 11
152.6956168074
 21
31.6262382787
 12
152.9268669177
 22
31.6262382787
 13
152.9268669177
 23
31.6262382787
  0
SOLID
  8
0
 62
7
  6
CONTINUOUS
 10
152.9268669177
 20
31.6262382787
 11
153.1003044177
 21
31.5939739754
 12
152.4643666972
 22
31.5939739754
 13
152.4643666972
 23
31.5939739754
  0
SOLID
  8
0
 62
7
  6
CONTINUOUS
 10
152.2909293626
 20
31.5294468852
 11
152.4643666972
 21
31.5939739754
 12
153.1003044177
 22
31.5939739754
 13
153.1003044177
 23
31.5939739754
  0
SOLID
  8
0
 62
7
  6
CONTINUOUS
 10
153.1003044177
 20
31.5939739754
 11
153.2737419177
 21
31.5294468852
 12
152.2909293626
 22
31.5294468852
 13
152.2909293626
 23
31.5294468852
  0
SOLID
  8
0
 62
7
  6
CONTINUOUS
 10
153.2737419177
 20
31.5294468852
 11
152.6956168074
 21
31.4971825369
 12
152.2909293626
 22
31.5294468852
 13
152.2909293626
 23
31.5294468852
  0
SOLID
  8
0
 62
7
  6
CONTINUOUS
 10
152.1753043074
 20
31.4649197951
 11
152.2909293626
 21
31.5294468852
 12
152.6956168074
 22
31.4971825369
 13
152.6956168074
 23
31.4971825369
  0
SOLID
  8
0
 62
7
  6
CONTINUOUS
 10
152.6956168074
 20
31.4971825369
 11
152.4643666972
 21
31.4649197951
 12
152.1753043074
 22
31.4649197951
 13
152.1753043074
 23
31.4649197951
  0
SOLID
  8
0
 62
7
  6
CONTINUOUS
 10
152.6956168074
 20
31.4971825369
 11
153.2737419177
 21
31.5294468852
 12
152.9268669177
 22
31.4649197951
 13
152.9268669177
 23
31.4649197951
  0
SOLID
  8
0
 62
7
  6
CONTINUOUS
 10
153.2737419177
 20
31.5294468852
 11
153.3893668074
 21
31.4649197951
 12
152.9268669177
 22
31.4649197951
 13
152.9268669177
 23
31.4649197951
  0
SOLID
  8
0
 62
7
  6
CONTINUOUS
 10
153.0424918074
 20
31.4326554468
 11
152.9268669177
 21
31.4649197951
 12
153.3893668074
 22
31.4649197951
 13
153.3893668074
 23
31.4649197951
  0
SOLID
  8
0
 62
7
  6
CONTINUOUS
 10
153.3893668074
 20
31.4649197951
 11
153.4471794177
 21
31.4003927049
 12
153.0424918074
 22
31.4326554468
 13
153.0424918074
 23
31.4326554468
  0
SOLID
  8
0
 62
7
  6
CONTINUOUS
 10
153.1581166972
 20
31.3681283566
 11
153.0424918074
 21
31.4326554468
 12
153.4471794177
 22
31.4003927049
 13
153.4471794177
 23
31.4003927049
  0
SOLID
  8
0
 62
7
  6
CONTINUOUS
 10
153.1581166972
 20
31.3681283566
 11
153.4471794177
 21
31.4003927049
 12
153.2159293074
 22
31.2390742213
 13
153.2159293074
 23
31.2390742213
  0
SOLID
  8
0
 62
7
  6
CONTINUOUS
 10
153.4471794177
 20
31.4003927049
 11
153.5049916972
 21
31.2390742213
 12
153.2159293074
 22
31.2390742213
 13
153.2159293074
 23
31.2390742213
  0
SOLID
  8
0
 62
7
  6
CONTINUOUS
 10
152.4643666972
 20
31.4649197951
 11
152.2909293626
 21
31.4003927049
 12
152.1753043074
 22
31.4649197951
 13
152.1753043074
 23
31.4649197951
  0
SOLID
  8
0
 62
7
  6
CONTINUOUS
 10
152.2909293626
 20
31.4003927049
 11
152.1753043074
 21
31.3358640533
 12
152.1753043074
 22
31.4649197951
 13
152.1753043074
 23
31.4649197951
  0
SOLID
  8
0
 62
7
  6
CONTINUOUS
 10
152.1753043074
 20
31.3358640533
 11
151.8862417523
 21
30.5938002869
 12
152.1753043074
 22
31.4649197951
 13
152.1753043074
 23
31.4649197951
  0
SOLID
  8
0
 62
7
  6
CONTINUOUS
 10
152.1753043074
 20
31.4649197951
 11
151.8862417523
 21
30.5938002869
 12
152.1753043074
 22
32.1101937295
 13
152.1753043074
 23
32.1101937295
  0
SOLID
  8
0
 62
7
  6
CONTINUOUS
 10
151.8862417523
 20
30.5938002869
 11
151.8862417523
 21
32.1101937295
 12
152.1753043074
 22
32.1101937295
 13
152.1753043074
 23
32.1101937295
  0
SOLID
  8
0
 62
7
  6
CONTINUOUS
 10
152.1753043074
 20
31.3358640533
 11
152.1753043074
 21
30.5938002869
 12
151.8862417523
 22
30.5938002869
 13
151.8862417523
 23
30.5938002869
  0
SOLID
  8
0
 62
7
  6
CONTINUOUS
 10
153.2159293074
 20
30.5938002869
 11
153.2159293074
 21
31.2390742213
 12
153.5049916972
 22
31.2390742213
 13
153.5049916972
 23
31.2390742213
  0
SOLID
  8
0
 62
7
  6
CONTINUOUS
 10
153.5049916972
 20
31.2390742213
 11
153.5049916972
 21
30.5938002869
 12
153.2159293074
 22
30.5938002869
 13
153.2159293074
 23
30.5938002869
  0
SOLID
  8
0
 62
7
  6
CONTINUOUS
 10
154.2565543074
 20
31.5939738288
 11
154.6612419177
 21
31.6262385959
 12
155.0081169177
 22
31.6262385959
 13
155.0081169177
 23
31.6262385959
  0
SOLID
  8
0
 62
7
  6
CONTINUOUS
 10
155.0081169177
 20
31.6262385959
 11
155.3549915869
 21
31.5939738288
 12
154.2565543074
 22
31.5939738288
 13
154.2565543074
 23
31.5939738288
  0
SOLID
  8
0
 62
7
  6
CONTINUOUS
 10
154.1409294177
 20
31.5617111435
 11
154.2565543074
 21
31.5939738288
 12
155.3549915869
 22
31.5939738288
 13
155.3549915869
 23
31.5939738288
  0
SOLID
  8
0
 62
7
  6
CONTINUOUS
 10
155.3549915869
 20
31.5939738288
 11
155.5284290869
 21
31.5294468402
 12
154.1409294177
 22
31.5617111435
 13
154.1409294177
 23
31.5617111435
  0
SOLID
  8
0
 62
7
  6
CONTINUOUS
 10
154.0253041972
 20
31.4971826249
 11
154.1409294177
 21
31.5617111435
 12
155.5284290869
 22
31.5294468402
 13
155.5284290869
 23
31.5294468402
  0
SOLID
  8
0
 62
7
  6
CONTINUOUS
 10
154.0253041972
 20
31.4971826249
 11
155.5284290869
 21
31.5294468402
 12
154.6612419177
 22
31.4971826249
 13
154.6612419177
 23
31.4971826249
  0
SOLID
  8
0
 62
7
  6
CONTINUOUS
 10
154.6612419177
 20
31.4971826249
 11
155.5284290869
 21
31.5294468402
 12
155.0081169177
 22
31.4971826249
 13
155.0081169177
 23
31.4971826249
  0
SOLID
  8
0
 62
7
  6
CONTINUOUS
 10
155.0081169177
 20
31.4971826249
 11
155.5284290869
 21
31.5294468402
 12
155.239367028
 22
31.4649194065
 13
155.239367028
 23
31.4649194065
  0
SOLID
  8
0
 62
7
  6
CONTINUOUS
 10
155.5284290869
 20
31.5294468402
 11
155.6440543074
 21
31.4649194065
 12
155.239367028
 22
31.4649194065
 13
155.239367028
 23
31.4649194065
  0
SOLID
  8
0
 62
7
  6
CONTINUOUS
 10
153.9674919177
 20
31.4326554138
 11
154.0253041972
 21
31.4971826249
 12
154.6612419177
 22
31.4971826249
 13
154.6612419177
 23
31.4971826249
  0
SOLID
  8
0
 62
7
  6
CONTINUOUS
 10
155.3549915869
 20
31.4326554138
 11
155.239367028
 21
31.4649194065
 12
155.6440543074
 22
31.4649194065
 13
155.6440543074
 23
31.4649194065
  0
SOLID
  8
0
 62
7
  6
CONTINUOUS
 10
155.3549915869
 20
31.4326554138
 11
155.6440543074
 21
31.4649194065
 12
155.412804528
 22
31.3681282026
 13
155.412804528
 23
31.3681282026
  0
SOLID
  8
0
 62
7
  6
CONTINUOUS
 10
155.6440543074
 20
31.4649194065
 11
155.7018665869
 21
31.3681282026
 12
155.412804528
 22
31.3681282026
 13
155.412804528
 23
31.3681282026
  0
SOLID
  8
0
 62
7
  6
CONTINUOUS
 10
155.412804528
 20
31.2713369632
 11
155.412804528
 21
31.3681282026
 12
155.7018665869
 22
31.3681282026
 13
155.7018665869
 23
31.3681282026
  0
SOLID
  8
0
 62
7
  6
CONTINUOUS
 10
155.412804528
 20
31.2713369632
 11
155.7018665869
 21
31.3681282026
 12
155.412804528
 22
31.1422827828
 13
155.412804528
 23
31.1422827828
  0
SOLID
  8
0
 62
7
  6
CONTINUOUS
 10
155.412804528
 20
31.1422827828
 11
155.7018665869
 21
31.3681282026
 12
155.412804528
 22
30.9487004259
 13
155.412804528
 23
30.9487004259
  0
SOLID
  8
0
 62
7
  6
CONTINUOUS
 10
155.7018665869
 20
31.3681282026
 11
155.7018665869
 21
30.8519086025
 12
155.412804528
 22
30.9487004259
 13
155.412804528
 23
30.9487004259
  0
SOLID
  8
0
 62
7
  6
CONTINUOUS
 10
157.6096790869
 20
31.5939736268
 11
157.840929528
 21
31.6262383465
 12
158.0721793074
 22
31.6262383465
 13
158.0721793074
 23
31.6262383465
  0
SOLID
  8
0
 62
7
  6
CONTINUOUS
 10
158.0721793074
 20
31.6262383465
 11
158.2456168074
 21
31.5939736268
 12
157.6096790869
 22
31.5939736268
 13
157.6096790869
 23
31.5939736268
  0
SOLID
  8
0
 62
7
  6
CONTINUOUS
 10
157.4362415869
 20
31.5294472848
 11
157.6096790869
 21
31.5939736268
 12
158.2456168074
 22
31.5939736268
 13
158.2456168074
 23
31.5939736268
  0
SOLID
  8
0
 62
7
  6
CONTINUOUS
 10
158.2456168074
 20
31.5939736268
 11
158.4190543074
 21
31.5294472848
 12
157.4362415869
 22
31.5294472848
 13
157.4362415869
 23
31.5294472848
  0
SOLID
  8
0
 62
7
  6
CONTINUOUS
 10
158.4190543074
 20
31.5294472848
 11
157.840929528
 21
31.4971825369
 12
157.4362415869
 22
31.5294472848
 13
157.4362415869
 23
31.5294472848
  0
SOLID
  8
0
 62
7
  6
CONTINUOUS
 10
157.320617028
 20
31.4649199103
 11
157.4362415869
 21
31.5294472848
 12
157.840929528
 22
31.4971825369
 13
157.840929528
 23
31.4971825369
  0
SOLID
  8
0
 62
7
  6
CONTINUOUS
 10
157.840929528
 20
31.4971825369
 11
157.6096790869
 21
31.4649199103
 12
157.320617028
 22
31.4649199103
 13
157.320617028
 23
31.4649199103
  0
SOLID
  8
0
 62
7
  6
CONTINUOUS
 10
157.840929528
 20
31.4971825369
 11
158.4190543074
 21
31.5294472848
 12
158.0721793074
 22
31.4649199103
 13
158.0721793074
 23
31.4649199103
  0
SOLID
  8
0
 62
7
  6
CONTINUOUS
 10
158.4190543074
 20
31.5294472848
 11
158.534679528
 21
31.4649199103
 12
158.0721793074
 22
31.4649199103
 13
158.0721793074
 23
31.4649199103
  0
SOLID
  8
0
 62
7
  6
CONTINUOUS
 10
158.187804528
 20
31.4326554468
 11
158.0721793074
 21
31.4649199103
 12
158.534679528
 22
31.4649199103
 13
158.534679528
 23
31.4649199103
  0
SOLID
  8
0
 62
7
  6
CONTINUOUS
 10
158.187804528
 20
31.4326554468
 11
158.534679528
 21
31.4649199103
 12
158.3034290869
 22
31.3681288486
 13
158.3034290869
 23
31.3681288486
  0
SOLID
  8
0
 62
7
  6
CONTINUOUS
 10
158.534679528
 20
31.4649199103
 11
158.5924918074
 21
31.3681288486
 12
158.3034290869
 22
31.3681288486
 13
158.3034290869
 23
31.3681288486
  0
SOLID
  8
0
 62
7
  6
CONTINUOUS
 10
158.361242028
 20
31.2068093799
 11
158.3034290869
 21
31.3681288486
 12
158.5924918074
 22
31.3681288486
 13
158.5924918074
 23
31.3681288486
  0
SOLID
  8
0
 62
7
  6
CONTINUOUS
 10
158.5924918074
 20
31.3681288486
 11
158.6503040869
 21
31.2068093799
 12
158.361242028
 22
31.2068093799
 13
158.361242028
 23
31.2068093799
  0
SOLID
  8
0
 62
7
  6
CONTINUOUS
 10
157.6096790869
 20
31.4649199103
 11
157.4362415869
 21
31.4003926599
 12
157.320617028
 22
31.4649199103
 13
157.320617028
 23
31.4649199103
  0
SOLID
  8
0
 62
7
  6
CONTINUOUS
 10
157.4362415869
 20
31.4003926599
 11
157.320617028
 21
31.3358640533
 12
157.320617028
 22
31.4649199103
 13
157.320617028
 23
31.4649199103
  0
SOLID
  8
0
 62
7
  6
CONTINUOUS
 10
157.320617028
 20
31.3358640533
 11
157.0315543074
 21
30.5938003547
 12
157.320617028
 22
31.4649199103
 13
157.320617028
 23
31.4649199103
  0
SOLID
  8
0
 62
7
  6
CONTINUOUS
 10
157.320617028
 20
31.4649199103
 11
157.0315543074
 21
30.5938003547
 12
157.320617028
 22
31.6262383465
 13
157.320617028
 23
31.6262383465
  0
SOLID
  8
0
 62
7
  6
CONTINUOUS
 10
157.0315543074
 20
30.5938003547
 11
157.0315543074
 21
31.6262383465
 12
157.320617028
 22
31.6262383465
 13
157.320617028
 23
31.6262383465
  0
SOLID
  8
0
 62
7
  6
CONTINUOUS
 10
157.320617028
 20
31.3358640533
 11
157.320617028
 21
30.5938003547
 12
157.0315543074
 22
30.5938003547
 13
157.0315543074
 23
30.5938003547
  0
SOLID
  8
0
 62
7
  6
CONTINUOUS
 10
158.361242028
 20
30.5938003547
 11
158.361242028
 21
31.2068093799
 12
158.6503040869
 22
31.2068093799
 13
158.6503040869
 23
31.2068093799
  0
SOLID
  8
0
 62
7
  6
CONTINUOUS
 10
158.6503040869
 20
31.2068093799
 11
158.6503040869
 21
30.5938003547
 12
158.361242028
 22
30.5938003547
 13
158.361242028
 23
30.5938003547
  0
SOLID
  8
0
 62
7
  6
CONTINUOUS
 10
159.4596793074
 20
31.5939739474
 11
159.8065543074
 21
31.6262381969
 12
160.1534293074
 22
31.6262381969
 13
160.1534293074
 23
31.6262381969
  0
SOLID
  8
0
 62
7
  6
CONTINUOUS
 10
160.1534293074
 20
31.6262381969
 11
160.5003043074
 21
31.5939739474
 12
159.4596793074
 22
31.5939739474
 13
159.4596793074
 23
31.5939739474
  0
SOLID
  8
0
 62
7
  6
CONTINUOUS
 10
159.228429528
 20
31.5294468402
 11
159.4596793074
 21
31.5939739474
 12
160.5003043074
 22
31.5939739474
 13
160.5003043074
 23
31.5939739474
  0
SOLID
  8
0
 62
7
  6
CONTINUOUS
 10
159.228429528
 20
31.5294468402
 11
160.5003043074
 21
31.5939739304
 12
160.6737418074
 22
31.5617111435
 13
160.6737418074
 23
31.5617111435
  0
SOLID
  8
0
 62
7
  6
CONTINUOUS
 10
159.228429528
 20
31.5294468402
 11
160.6737418074
 21
31.5617111435
 12
159.8065543074
 22
31.4971825592
 13
159.8065543074
 23
31.4971825592
  0
SOLID
  8
0
 62
7
  6
CONTINUOUS
 10
159.8065543074
 20
31.4971825592
 11
160.6737418074
 21
31.5617111435
 12
160.1534293074
 22
31.4971825592
 13
160.1534293074
 23
31.4971825592
  0
SOLID
  8
0
 62
7
  6
CONTINUOUS
 10
160.6737418074
 20
31.5617111435
 11
160.8471793074
 21
31.4971825592
 12
160.1534293074
 22
31.4971825592
 13
160.1534293074
 23
31.4971825592
  0
SOLID
  8
0
 62
7
  6
CONTINUOUS
 10
160.5003043074
 20
31.4649197501
 11
160.1534293074
 21
31.4971825592
 12
160.8471793074
 22
31.4971825592
 13
160.8471793074
 23
31.4971825592
  0
SOLID
  8
0
 62
7
  6
CONTINUOUS
 10
159.1128043074
 20
31.4326555427
 11
159.228429528
 21
31.5294468402
 12
159.8065543074
 22
31.4971825592
 13
159.8065543074
 23
31.4971825592
  0
SOLID
  8
0
 62
7
  6
CONTINUOUS
 10
160.5003043074
 20
31.4649197501
 11
160.8471793074
 21
31.4971825592
 12
160.615929528
 22
31.4326555427
 13
160.615929528
 23
31.4326555427
  0
SOLID
  8
0
 62
7
  6
CONTINUOUS
 10
160.615929528
 20
31.4326555427
 11
160.8471793074
 21
31.4971825592
 12
160.6737418074
 22
31.3681283005
 13
160.6737418074
 23
31.3681283005
  0
SOLID
  8
0
 62
7
  6
CONTINUOUS
 10
160.8471793074
 20
31.4971825592
 11
160.9628038663
 21
31.3681283005
 12
160.6737418074
 22
31.3681283005
 13
160.6737418074
 23
31.3681283005
  0
SOLID
  8
0
 62
7
  6
CONTINUOUS
 10
150.2674918074
 20
31.4649197501
 11
149.7471793074
 21
31.4326554237
 12
150.498741835
 22
31.4971824493
 13
150.498741835
 23
31.4971824493
  0
SOLID
  8
0
 62
7
  6
CONTINUOUS
 10
149.7471793074
 20
31.4326554237
 11
149.8628043005
 21
31.4971824493
 12
150.498741835
 22
31.4971824493
 13
150.498741835
 23
31.4971824493
  0
SOLID
  8
0
 62
7
  6
CONTINUOUS
 10
150.2674918074
 20
31.4649197501
 11
150.1518667936
 21
31.4326554237
 12
149.7471793074
 22
31.4326554237
 13
149.7471793074
 23
31.4326554237
  0
SOLID
  8
0
 62
7
  6
CONTINUOUS
 10
149.6315543091
 20
31.3036012664
 11
149.7471793074
 21
31.4326554237
 12
150.1518667936
 22
31.4326554237
 13
150.1518667936
 23
31.4326554237
  0
SOLID
  8
0
 62
7
  6
CONTINUOUS
 10
153.9674919177
 20
31.4326554237
 11
154.6612419177
 21
31.4971825369
 12
154.4299918074
 22
31.4649197501
 13
154.4299918074
 23
31.4649197501
  0
SOLID
  8
0
 62
7
  6
CONTINUOUS
 10
154.4299918074
 20
31.4649197501
 11
154.3143669177
 21
31.4326554237
 12
153.9674919177
 22
31.4326554237
 13
153.9674919177
 23
31.4326554237
  0
SOLID
  8
0
 62
7
  6
CONTINUOUS
 10
153.9674919177
 20
31.3681283335
 11
153.9674919177
 21
31.4326554237
 12
154.3143669177
 22
31.4326554237
 13
154.3143669177
 23
31.4326554237
  0
SOLID
  8
0
 62
7
  6
CONTINUOUS
 10
154.3143669177
 20
31.4326554237
 11
154.2565543074
 21
31.3681283335
 12
153.9674919177
 22
31.3681283335
 13
153.9674919177
 23
31.3681283335
  0
SOLID
  8
0
 62
7
  6
CONTINUOUS
 10
159.1128043074
 20
31.4326555528
 11
159.8065543074
 21
31.4971825369
 12
159.575304528
 22
31.4649197501
 13
159.575304528
 23
31.4649197501
  0
SOLID
  8
0
 62
7
  6
CONTINUOUS
 10
159.575304528
 20
31.4649197501
 11
159.4596793074
 21
31.4326555528
 12
159.1128043074
 22
31.4326555528
 13
159.1128043074
 23
31.4326555528
  0
SOLID
  8
0
 62
7
  6
CONTINUOUS
 10
159.1128043074
 20
31.3681284626
 11
159.1128043074
 21
31.4326555528
 12
159.4596793074
 22
31.4326555528
 13
159.4596793074
 23
31.4326555528
  0
SOLID
  8
0
 62
7
  6
CONTINUOUS
 10
159.4596793074
 20
31.4326555528
 11
159.401867028
 21
31.3681284626
 12
159.1128043074
 22
31.3681284626
 13
159.1128043074
 23
31.3681284626
  0
SOLID
  8
0
 62
7
  6
CONTINUOUS
 10
159.228429528
 20
31.2390741763
 11
159.1128043074
 21
31.3681284626
 12
159.401867028
 22
31.3681284626
 13
159.401867028
 23
31.3681284626
  0
SOLID
  8
0
 62
7
  6
CONTINUOUS
 10
149.6315543091
 20
31.3036012664
 11
150.1518667936
 21
31.4326554468
 12
149.9784292936
 22
31.3358640533
 13
149.9784292936
 23
31.3358640533
  0
SOLID
  8
0
 62
7
  6
CONTINUOUS
 10
149.9784292936
 20
31.3358640533
 11
149.9206168074
 21
31.2713369632
 12
149.6315543091
 22
31.3036012664
 13
149.6315543091
 23
31.3036012664
  0
SOLID
  8
0
 62
7
  6
CONTINUOUS
 10
149.5737418074
 20
31.1100184796
 11
149.6315543091
 21
31.3036012664
 12
149.9206168074
 22
31.2713369632
 13
149.9206168074
 23
31.2713369632
  0
SOLID
  8
0
 62
7
  6
CONTINUOUS
 10
154.4299918074
 20
31.2390741763
 11
154.7768668074
 21
31.271336924
 12
155.412804528
 22
31.271336924
 13
155.412804528
 23
31.271336924
  0
SOLID
  8
0
 62
7
  6
CONTINUOUS
 10
154.4299918074
 20
31.2390741763
 11
155.412804528
 21
31.271336924
 12
154.1987416972
 22
31.1745462761
 13
154.1987416972
 23
31.1745462761
  0
SOLID
  8
0
 62
7
  6
CONTINUOUS
 10
154.1987416972
 20
31.1745462761
 11
155.412804528
 21
31.271336924
 12
154.7768668074
 22
31.1422827436
 13
154.7768668074
 23
31.1422827436
  0
SOLID
  8
0
 62
7
  6
CONTINUOUS
 10
155.412804528
 20
31.271336924
 11
155.412804528
 21
31.1422827436
 12
154.7768668074
 22
31.1422827436
 13
154.7768668074
 23
31.1422827436
  0
SOLID
  8
0
 62
7
  6
CONTINUOUS
 10
159.228429528
 20
31.2390745501
 11
159.401867028
 21
31.3681283566
 12
159.4596793074
 22
31.3036012664
 13
159.4596793074
 23
31.3036012664
  0
SOLID
  8
0
 62
7
  6
CONTINUOUS
 10
159.4596793074
 20
31.3036012664
 11
159.6331168074
 21
31.2390745501
 12
159.228429528
 22
31.2390745501
 13
159.228429528
 23
31.2390745501
  0
SOLID
  8
0
 62
7
  6
CONTINUOUS
 10
159.4596793074
 20
31.1422827828
 11
159.228429528
 21
31.2390745501
 12
159.6331168074
 22
31.2390745501
 13
159.6331168074
 23
31.2390745501
  0
SOLID
  8
0
 62
7
  6
CONTINUOUS
 10
159.6331168074
 20
31.2390745501
 11
160.615929528
 21
31.0777556927
 12
159.4596793074
 22
31.1422827828
 13
159.4596793074
 23
31.1422827828
  0
SOLID
  8
0
 62
7
  6
CONTINUOUS
 10
160.442492028
 20
30.9809646623
 11
159.4596793074
 21
31.1422827828
 12
160.615929528
 22
31.0777556927
 13
160.615929528
 23
31.0777556927
  0
SOLID
  8
0
 62
7
  6
CONTINUOUS
 10
160.615929528
 20
31.0777556927
 11
160.8471793074
 21
30.9809646623
 12
160.442492028
 22
30.9809646623
 13
160.442492028
 23
30.9809646623
  0
SOLID
  8
0
 62
7
  6
CONTINUOUS
 10
160.615929528
 20
30.9164372091
 11
160.442492028
 21
30.9809646623
 12
160.8471793074
 22
30.9809646623
 13
160.8471793074
 23
30.9809646623
  0
SOLID
  8
0
 62
7
  6
CONTINUOUS
 10
160.615929528
 20
30.9164372091
 11
160.8471793074
 21
30.9809646623
 12
160.6737418074
 22
30.8519089441
 13
160.6737418074
 23
30.8519089441
  0
SOLID
  8
0
 62
7
  6
CONTINUOUS
 10
160.8471793074
 20
30.9809646623
 11
160.9628038663
 21
30.8519089441
 12
160.6737418074
 22
30.8519089441
 13
160.6737418074
 23
30.8519089441
  0
SOLID
  8
0
 62
7
  6
CONTINUOUS
 10
160.615929528
 20
30.7873818593
 11
160.6737418074
 21
30.8519089441
 12
160.9628038663
 22
30.8519089441
 13
160.9628038663
 23
30.8519089441
  0
SOLID
  8
0
 62
7
  6
CONTINUOUS
 10
160.9628038663
 20
30.8519089441
 11
160.9628038663
 21
30.7873818593
 12
160.615929528
 22
30.7873818593
 13
160.615929528
 23
30.7873818593
  0
SOLID
  8
0
 62
7
  6
CONTINUOUS
 10
160.5003043074
 20
30.7551187255
 11
160.615929528
 21
30.7873818593
 12
160.9628038663
 22
30.7873818593
 13
160.9628038663
 23
30.7873818593
  0
SOLID
  8
0
 62
7
  6
CONTINUOUS
 10
160.5003043074
 20
30.7551187255
 11
160.9628038663
 21
30.7873818593
 12
160.269054528
 22
30.7228547745
 13
160.269054528
 23
30.7228547745
  0
SOLID
  8
0
 62
7
  6
CONTINUOUS
 10
160.9628038663
 20
30.7873818593
 11
160.8471793074
 21
30.6905916353
 12
160.269054528
 22
30.7228547745
 13
160.269054528
 23
30.7228547745
  0
SOLID
  8
0
 62
7
  6
CONTINUOUS
 10
160.8471793074
 20
30.6905916353
 11
159.401867028
 21
30.658327332
 12
160.269054528
 22
30.7228547745
 13
160.269054528
 23
30.7228547745
  0
SOLID
  8
0
 62
7
  6
CONTINUOUS
 10
160.269054528
 20
30.7228547745
 11
159.401867028
 21
30.658327332
 12
159.922179528
 22
30.7228547745
 13
159.922179528
 23
30.7228547745
  0
SOLID
  8
0
 62
7
  6
CONTINUOUS
 10
159.401867028
 20
30.658327332
 11
159.228429528
 21
30.7228547745
 12
159.922179528
 22
30.7228547745
 13
159.922179528
 23
30.7228547745
  0
SOLID
  8
0
 62
7
  6
CONTINUOUS
 10
159.401867028
 20
30.658327332
 11
160.8471793074
 21
30.6905916353
 12
159.575304528
 22
30.6260629858
 13
159.575304528
 23
30.6260629858
  0
SOLID
  8
0
 62
7
  6
CONTINUOUS
 10
160.8471793074
 20
30.6905916353
 11
160.615929528
 21
30.6260629858
 12
159.575304528
 22
30.6260629858
 13
159.575304528
 23
30.6260629858
  0
SOLID
  8
0
 62
7
  6
CONTINUOUS
 10
159.922179528
 20
30.5938006049
 11
159.575304528
 21
30.6260629858
 12
160.615929528
 22
30.6260629858
 13
160.615929528
 23
30.6260629858
  0
SOLID
  8
0
 62
7
  6
CONTINUOUS
 10
160.615929528
 20
30.6260629858
 11
160.269054528
 21
30.5938006049
 12
159.922179528
 22
30.5938006049
 13
159.922179528
 23
30.5938006049
  0
SOLID
  8
0
 62
7
  6
CONTINUOUS
 10
149.5737418074
 20
31.1100184796
 11
149.9206168074
 21
31.2713369632
 12
149.8628043005
 22
31.1422827828
 13
149.8628043005
 23
31.1422827828
  0
SOLID
  8
0
 62
7
  6
CONTINUOUS
 10
149.8628043005
 20
31.1422827828
 11
149.8628043005
 21
31.0454914852
 12
149.5737418074
 22
31.1100184796
 13
149.5737418074
 23
31.1100184796
  0
SOLID
  8
0
 62
7
  6
CONTINUOUS
 10
149.6315543091
 20
30.9164372091
 11
149.5737418074
 21
31.1100184796
 12
149.8628043005
 22
31.0454914852
 13
149.8628043005
 23
31.0454914852
  0
SOLID
  8
0
 62
7
  6
CONTINUOUS
 10
149.8628043005
 20
31.0454914852
 11
149.9784292936
 21
30.8841729058
 12
149.6315543091
 22
30.9164372091
 13
149.6315543091
 23
30.9164372091
  0
SOLID
  8
0
 62
7
  6
CONTINUOUS
 10
149.7471793074
 20
30.7873813202
 11
149.6315543091
 21
30.9164372091
 12
149.9784292936
 22
30.8841729058
 13
149.9784292936
 23
30.8841729058
  0
SOLID
  8
0
 62
7
  6
CONTINUOUS
 10
149.9784292936
 20
30.8841729058
 11
150.1518667936
 21
30.7873813202
 12
149.7471793074
 22
30.7873813202
 13
149.7471793074
 23
30.7873813202
  0
SOLID
  8
0
 62
7
  6
CONTINUOUS
 10
149.8628043005
 20
30.7228547004
 11
149.7471793074
 21
30.7873813202
 12
150.1518667936
 22
30.7873813202
 13
150.1518667936
 23
30.7873813202
  0
SOLID
  8
0
 62
7
  6
CONTINUOUS
 10
150.1518667936
 20
30.7873813202
 11
150.498741835
 21
30.7228547004
 12
149.8628043005
 22
30.7228547004
 13
149.8628043005
 23
30.7228547004
  0
SOLID
  8
0
 62
7
  6
CONTINUOUS
 10
150.0362418212
 20
30.658327332
 11
149.8628043005
 21
30.7228547004
 12
150.498741835
 22
30.7228547004
 13
150.498741835
 23
30.7228547004
  0
SOLID
  8
0
 62
7
  6
CONTINUOUS
 10
154.0831168074
 20
31.1100184386
 11
154.1987416972
 21
31.1745462761
 12
154.7768668074
 22
31.1422827828
 13
154.7768668074
 23
31.1422827828
  0
SOLID
  8
0
 62
7
  6
CONTINUOUS
 10
154.7768668074
 20
31.1422827828
 11
154.5456166972
 21
31.1100184386
 12
154.0831168074
 22
31.1100184386
 13
154.0831168074
 23
31.1100184386
  0
SOLID
  8
0
 62
7
  6
CONTINUOUS
 10
153.9674919177
 20
30.9809642992
 11
154.0831168074
 21
31.1100184386
 12
154.5456166972
 22
31.1100184386
 13
154.5456166972
 23
31.1100184386
  0
SOLID
  8
0
 62
7
  6
CONTINUOUS
 10
154.3143669177
 20
31.0132277988
 11
153.9674919177
 21
30.9809642992
 12
154.4299918074
 22
31.0777556927
 13
154.4299918074
 23
31.0777556927
  0
SOLID
  8
0
 62
7
  6
CONTINUOUS
 10
153.9674919177
 20
30.9809642992
 11
154.5456166972
 21
31.1100184796
 12
154.4299918074
 22
31.0777556927
 13
154.4299918074
 23
31.0777556927
  0
SOLID
  8
0
 62
7
  6
CONTINUOUS
 10
154.3143669177
 20
31.0132277988
 11
154.2565543074
 21
30.9164372091
 12
153.9674919177
 22
30.9809642992
 13
153.9674919177
 23
30.9809642992
  0
SOLID
  8
0
 62
7
  6
CONTINUOUS
 10
153.9674919177
 20
30.8841729058
 11
153.9674919177
 21
30.9809642992
 12
154.2565543074
 22
30.9164372091
 13
154.2565543074
 23
30.9164372091
  0
SOLID
  8
0
 62
7
  6
CONTINUOUS
 10
154.2565543074
 20
30.9164372091
 11
154.2565543074
 21
30.8519086025
 12
153.9674919177
 22
30.8841729058
 13
153.9674919177
 23
30.8841729058
  0
SOLID
  8
0
 62
7
  6
CONTINUOUS
 10
154.0253041972
 20
30.7551187255
 11
153.9674919177
 21
30.8841729058
 12
154.2565543074
 22
30.8519086025
 13
154.2565543074
 23
30.8519086025
  0
SOLID
  8
0
 62
7
  6
CONTINUOUS
 10
155.412804528
 20
30.9487004259
 11
155.7018665869
 21
30.8519086025
 12
155.3549915869
 22
30.8841729058
 13
155.3549915869
 23
30.8841729058
  0
SOLID
  8
0
 62
7
  6
CONTINUOUS
 10
155.1815540869
 20
30.7873815123
 11
155.3549915869
 21
30.8841729058
 12
155.7018665869
 22
30.8519086025
 13
155.7018665869
 23
30.8519086025
  0
SOLID
  8
0
 62
7
  6
CONTINUOUS
 10
155.1815540869
 20
30.7873815123
 11
155.7018665869
 21
30.8519086025
 12
155.412804528
 22
30.7551187255
 13
155.412804528
 23
30.7551187255
  0
SOLID
  8
0
 62
7
  6
CONTINUOUS
 10
155.7018665869
 20
30.8519086025
 11
155.759679528
 21
30.6905916353
 12
155.412804528
 22
30.7551187255
 13
155.412804528
 23
30.7551187255
  0
SOLID
  8
0
 62
7
  6
CONTINUOUS
 10
155.4706168074
 20
30.658327332
 11
155.412804528
 21
30.7551187255
 12
155.759679528
 22
30.6905916353
 13
155.759679528
 23
30.6905916353
  0
SOLID
  8
0
 62
7
  6
CONTINUOUS
 10
155.4706168074
 20
30.658327332
 11
155.759679528
 21
30.6905916353
 12
155.5284290869
 22
30.5938002079
 13
155.5284290869
 23
30.5938002079
  0
SOLID
  8
0
 62
7
  6
CONTINUOUS
 10
155.759679528
 20
30.6905916353
 11
155.8174918074
 21
30.5938002079
 12
155.5284290869
 22
30.5938002079
 13
155.5284290869
 23
30.5938002079
  0
SOLID
  8
0
 62
7
  6
CONTINUOUS
 10
151.0768668626
 20
30.8196456577
 11
151.1346793074
 21
30.9164373395
 12
151.4237418626
 22
30.9164373395
 13
151.4237418626
 23
30.9164373395
  0
SOLID
  8
0
 62
7
  6
CONTINUOUS
 10
151.4237418626
 20
30.9164373395
 11
151.3659292523
 21
30.7873815123
 12
151.0768668626
 22
30.8196456577
 13
151.0768668626
 23
30.8196456577
  0
SOLID
  8
0
 62
7
  6
CONTINUOUS
 10
150.9034292799
 20
30.7551187255
 11
151.0768668626
 21
30.8196456577
 12
151.3659292523
 22
30.7873815123
 13
151.3659292523
 23
30.7873815123
  0
SOLID
  8
0
 62
7
  6
CONTINUOUS
 10
150.9034292799
 20
30.7551187255
 11
151.3659292523
 21
30.7873815123
 12
150.498741835
 22
30.7228544222
 13
150.498741835
 23
30.7228544222
  0
SOLID
  8
0
 62
7
  6
CONTINUOUS
 10
151.3659292523
 20
30.7873815123
 11
151.1924917523
 21
30.6905916353
 12
150.498741835
 22
30.7228544222
 13
150.498741835
 23
30.7228544222
  0
SOLID
  8
0
 62
7
  6
CONTINUOUS
 10
150.0362418212
 20
30.658327332
 11
150.498741835
 21
30.7228544222
 12
151.1924917523
 22
30.6905916353
 13
151.1924917523
 23
30.6905916353
  0
SOLID
  8
0
 62
7
  6
CONTINUOUS
 10
150.0362418212
 20
30.658327332
 11
151.1924917523
 21
30.6905916353
 12
150.2096793212
 22
30.6260631011
 13
150.2096793212
 23
30.6260631011
  0
SOLID
  8
0
 62
7
  6
CONTINUOUS
 10
151.1924917523
 20
30.6905916353
 11
150.9612418074
 21
30.6260631011
 12
150.2096793212
 22
30.6260631011
 13
150.2096793212
 23
30.6260631011
  0
SOLID
  8
0
 62
7
  6
CONTINUOUS
 10
150.5565542799
 20
30.5938002419
 11
150.2096793212
 21
30.6260631011
 12
150.9612418074
 22
30.6260631011
 13
150.9612418074
 23
30.6260631011
  0
SOLID
  8
0
 62
7
  6
CONTINUOUS
 10
154.0253041972
 20
30.7551187255
 11
154.2565543074
 21
30.8519086025
 12
154.3143669177
 22
30.7873815123
 13
154.3143669177
 23
30.7873815123
  0
SOLID
  8
0
 62
7
  6
CONTINUOUS
 10
154.3143669177
 20
30.7873815123
 11
154.5456166972
 21
30.7228544222
 12
154.0253041972
 22
30.7551187255
 13
154.0253041972
 23
30.7551187255
  0
SOLID
  8
0
 62
7
  6
CONTINUOUS
 10
154.1987416972
 20
30.658327332
 11
154.0253041972
 21
30.7551187255
 12
154.5456166972
 22
30.7228544222
 13
154.5456166972
 23
30.7228544222
  0
SOLID
  8
0
 62
7
  6
CONTINUOUS
 10
154.8924916972
 20
30.7228544637
 11
155.1815540869
 21
30.7873815123
 12
155.412804528
 22
30.7551187255
 13
155.412804528
 23
30.7551187255
  0
SOLID
  8
0
 62
7
  6
CONTINUOUS
 10
155.412804528
 20
30.7551187255
 11
155.3549915869
 21
30.6905916353
 12
154.8924916972
 22
30.7228544637
 13
154.8924916972
 23
30.7228544637
  0
SOLID
  8
0
 62
7
  6
CONTINUOUS
 10
155.3549915869
 20
30.6905916353
 11
154.1987416972
 21
30.658327332
 12
154.8924916972
 22
30.7228544637
 13
154.8924916972
 23
30.7228544637
  0
SOLID
  8
0
 62
7
  6
CONTINUOUS
 10
154.1987416972
 20
30.658327332
 11
154.5456166972
 21
30.7228544637
 12
154.8924916972
 22
30.7228544637
 13
154.8924916972
 23
30.7228544637
  0
SOLID
  8
0
 62
7
  6
CONTINUOUS
 10
154.1987416972
 20
30.658327332
 11
155.3549915869
 21
30.6905916353
 12
154.3143669177
 22
30.6260630541
 13
154.3143669177
 23
30.6260630541
  0
SOLID
  8
0
 62
7
  6
CONTINUOUS
 10
155.3549915869
 20
30.6905916353
 11
155.1815540869
 21
30.6260630541
 12
154.3143669177
 22
30.6260630541
 13
154.3143669177
 23
30.6260630541
  0
SOLID
  8
0
 62
7
  6
CONTINUOUS
 10
154.5456166972
 20
30.5938002188
 11
154.3143669177
 21
30.6260630541
 12
155.1815540869
 22
30.6260630541
 13
155.1815540869
 23
30.6260630541
  0
SOLID
  8
0
 62
7
  6
CONTINUOUS
 10
155.1815540869
 20
30.6260630541
 11
154.8924916972
 21
30.5938002188
 12
154.5456166972
 22
30.5938002188
 13
154.5456166972
 23
30.5938002188
  0
SOLID
  8
0
 62
7
  6
CONTINUOUS
 10
159.575304528
 20
30.7551187255
 11
159.228429528
 21
30.7228544637
 12
159.4596793074
 22
30.7873815123
 13
159.4596793074
 23
30.7873815123
  0
SOLID
  8
0
 62
7
  6
CONTINUOUS
 10
159.4596793074
 20
30.7873815123
 11
159.228429528
 21
30.7228544637
 12
159.401867028
 22
30.851908644
 13
159.401867028
 23
30.851908644
  0
SOLID
  8
0
 62
7
  6
CONTINUOUS
 10
159.228429528
 20
30.7228544637
 11
159.1128043074
 21
30.851908644
 12
159.401867028
 22
30.851908644
 13
159.401867028
 23
30.851908644
  0
SOLID
  8
0
 62
7
  6
CONTINUOUS
 10
159.575304528
 20
30.7551187255
 11
159.922179528
 21
30.7228544637
 12
159.228429528
 22
30.7228544637
 13
159.228429528
 23
30.7228544637
  0
SOLID
  8
0
 62
7
  6
CONTINUOUS
 10
156.279992028
 20
30.5938002419
 11
156.279992028
 21
31.6262382337
 12
156.5690540869
 22
30.5938002419
 13
156.5690540869
 23
31.6262382337
  0
ENDBLK
  8
0
  6
BYBLOCK
 62
0
  0
BLOCK
  8
0
 62
2
  6
CONTINUOUS
  2
SYMBOL_3_BL0
 70
64
 10
32.1213064866
 20
19.8534310916
  0
TEXT
  8
0
 62
7
  6
CONTINUOUS
 10
18.3860103289
 20
19.2268451992
  7
TEXTSTYLE_3
 40
2.7338706658
  1
Ammeraal Beltech
 41
1.0
 51
15.0
 72
0
  0
TEXT
  8
0
 62
7
  6
CONTINUOUS
 10
29.1868111546
 20
16.9533085264
  7
TEXTSTYLE_4
 40
1.0935482663
  1
Innovation & Service in Belting
 41
1.0
 72
0
  0
LINE
  8
0
 62
7
  6
CONTINUOUS
 10
12.3614696776
 20
19.9934385078
 11
13.1396216709
 21
23.6543558055
  0
LINE
  8
0
 62
7
  6
CONTINUOUS
 10
23.2347899607
 20
27.3177497171
 11
13.6274394139
 21
24.1961322958
  0
LINE
  8
0
 62
7
  6
CONTINUOUS
 10
12.5867530099
 20
19.3000877048
 11
20.093828271
 21
12.5406867788
  0
LINE
  8
0
 62
7
  6
CONTINUOUS
 10
12.8492874206
 20
20.5352149982
 11
23.6575567857
 21
24.0470345971
  0
LINE
  8
0
 62
7
  6
CONTINUOUS
 10
23.6533516486
 20
13.6972460334
 11
15.2078919798
 21
21.3015720751
  0
LINE
  8
0
 62
7
  6
CONTINUOUS
 10
24.1731743684
 20
26.4728246013
 11
23.1966148312
 21
21.8784731989
  0
LINE
  8
0
 62
7
  6
CONTINUOUS
 10
22.4968128835
 20
18.5861638851
 11
21.810364672
 21
15.3566789607
  0
LINE
  8
0
 62
7
  6
CONTINUOUS
 10
24.8542704669
 20
14.087448211
 11
25.8105020025
 21
18.5861638851
  0
LINE
  8
0
 62
7
  6
CONTINUOUS
 10
26.5103039502
 20
21.8784731989
 11
26.9545457526
 21
23.9684665583
  0
LINE
  8
0
 62
7
  6
CONTINUOUS
 10
20.8069293463
 20
12.3891124661
 11
24.3664527239
 21
13.5456717207
  0
LINE
  8
0
 62
7
  6
CONTINUOUS
 10
23.9478910361
 20
27.1661754044
 11
26.7292624203
 21
24.6618173613
  0
ARC
  8
0
 62
7
  6
CONTINUOUS
 10
13.8527227462
 20
23.5027814928
 40
0.7290321776
 50
108.0
 51
168.0
  0
ARC
  8
0
 62
7
  6
CONTINUOUS
 10
23.4600732931
 20
26.624398914
 40
0.7290321776
 50
348.0
 51
108.0
  0
ARC
  8
0
 62
7
  6
CONTINUOUS
 10
26.2414446773
 20
24.120040871
 40
0.7290321776
 50
348.0
 51
48.0
  0
ARC
  8
0
 62
7
  6
CONTINUOUS
 10
20.581646014
 20
13.0824632691
 40
0.7290321776
 50
228.0
 51
288.0
  0
ARC
  8
0
 62
7
  6
CONTINUOUS
 10
13.0745707529
 20
19.8418641951
 40
0.7290321776
 50
108.0
 51
228.0
  0
ARC
  8
0
 62
7
  6
CONTINUOUS
 10
24.1411693916
 20
14.2390225237
 40
0.7290321776
 50
228.0
 51
348.0
  0
ENDBLK
  8
0
  6
BYBLOCK
 62
0
  0
ENDSEC
  0
SECTION
  2
ENTITIES
  0
TEXT
  8
0
 62
5
  6
CONTINUOUS
 10
96.0
 20
25.636
  7
TEXTSTYLE_2
 40
2.8
  1
Scale :
 41
0.6
 51
0.000019
 72
0
  0
TEXT
  8
0
 62
5
  6
CONTINUOUS
 10
116.0
 20
25.636
  7
TEXTSTYLE_2
 40
2.8
  1
Belt type:
 41
0.6
 51
0.000019
 72
0
  0
INSERT
  8
0
 62
2
  6
CONTINUOUS
  2
SYMBOL_3_BL0
 10
32.1213064866
 20
19.8534310916
  0
INSERT
  8
0
 62
2
  6
CONTINUOUS
  2
SYMBOL_8_BL1
 10
173.5956734183
 20
35.5937998301
  0
LINE
  8
0
 62
2
  6
CONTINUOUS
 10
10.0
 20
30.0
 11
200.0
 21
30.0
  0
LINE
  8
0
 62
2
  6
CONTINUOUS
 10
10.0
 20
30.0
 11
10.0
 21
10.0
  0
LINE
  8
0
 62
2
  6
CONTINUOUS
 10
10.0
 20
10.0
 11
200.0
 21
10.0
  0
LINE
  8
0
 62
2
  6
CONTINUOUS
 10
95.0
 20
30.0
 11
95.0
 21
10.0
  0
LINE
  8
0
 62
2
  6
CONTINUOUS
 10
115.0
 20
30.0
 11
115.0
 21
10.0
  0
LINE
  8
0
 62
2
  6
CONTINUOUS
 10
200.0
 20
30.0
 11
200.0
 21
10.0
  0
TEXT
  8
0
 62
5
  6
CONTINUOUS
 10
13.0
 20
23.303
  7
TEXTSTYLE_5
 40
1.52
  1
                                                                     Ammeraal Beltech Modular A/S
 41
1.0
 72
0
  0
TEXT
  8
0
 62
5
  6
CONTINUOUS
 10
13.0
 20
20.595
  7
TEXTSTYLE_5
 40
1.5
  1
                                                                      Hjulmagervej 21,  7100 Vejle,  DK
 41
1.0
 72
0
  0
TEXT
  8
0
 62
5
  6
CONTINUOUS
 10
13.0
 20
17.881
  7
TEXTSTYLE_5
 40
1.495
  1
                                                                      tel: 
 41
1.0
 72
0
  0
TEXT
  8
0
 62
5
  6
CONTINUOUS
 10
57.9869465649
 20
17.881
  7
TEXTSTYLE_5
 40
1.51
  1
+45 75723100     fax: +45 75723348
 41
1.0
 72
0
  0
TEXT
  8
0
 62
5
  6
CONTINUOUS
 10
13.0
 20
15.177
  7
TEXTSTYLE_5
 40
1.5
  1
                                                                      admin@unichains.dk  www.unichains.com
 41
1.0
 72
0
  0
TEXT
  8
0
 62
5
  6
CONTINUOUS
 10
99.75
 20
13.75
  7
TEXTSTYLE_6
 40
5.0
  1
1:1
 41
0.7
 72
1
 11
105.0
 21
13.75
  0
TEXT
  8
0
 62
5
  6
CONTINUOUS
 10
118.0
 20
13.75
  7
TEXTSTYLE_7
 40
7.5
  1
uni S-MPB Side Guard 1" Left
 41
0.3579241071
 72
0
  0
LINE
  8
0
 62
7
  6
CONTINUOUS
 10
210.0
 20
0.0
 11
0.0
 21
0.0
  0
LINE
  8
0
 62
7
  6
CONTINUOUS
 10
10.0
 20
10.0
 11
200.0
 21
10.0
  0
LINE
  8
0
 62
7
  6
CONTINUOUS
 10
10.0
 20
30.0
 11
200.0
 21
30.0
  0
LINE
  8
0
 62
7
  6
CONTINUOUS
 10
0.0
 20
0.0
 11
0.0
 21
297.0
  0
LINE
  8
0
 62
7
  6
CONTINUOUS
 10
10.0
 20
10.0
 11
10.0
 21
287.0
  0
LINE
  8
0
 62
7
  6
CONTINUOUS
 10
200.0
 20
287.0
 11
200.0
 21
10.0
  0
LINE
  8
0
 62
7
  6
CONTINUOUS
 10
210.0
 20
0.0
 11
210.0
 21
297.0
  0
LINE
  8
0
 62
7
  6
CONTINUOUS
 10
10.0
 20
287.0
 11
200.0
 21
287.0
  0
LINE
  8
0
 62
7
  6
CONTINUOUS
 10
0.0
 20
297.0
 11
210.0
 21
297.0
  0
LINE
  8
0
 62
7
  6
CONTINUOUS
 10
42.8172965657
 20
114.1693195926
 11
42.8172965657
 21
116.19153185
  0
POLYLINE
  8
0
 62
7
  6
CONTINUOUS
 66
1
 70
0
  0
VERTEX
  8
0
 62
7
  6
CONTINUOUS
 10
44.8873387142
 20
113.3663507894
  0
VERTEX
  8
0
 62
7
  6
CONTINUOUS
 10
44.8938045753
 20
113.2660410819
  0
VERTEX
  8
0
 62
7
  6
CONTINUOUS
 10
44.9412428063
 20
113.0796487968
  0
VERTEX
  8
0
 62
7
  6
CONTINUOUS
 10
45.032129646
 20
112.9051656863
  0
VERTEX
  8
0
 62
7
  6
CONTINUOUS
 10
45.1609386106
 20
112.7480970666
  0
VERTEX
  8
0
 62
7
  6
CONTINUOUS
 10
45.3255397299
 20
112.6066965136
  0
VERTEX
  8
0
 62
7
  6
CONTINUOUS
 10
45.5290165928
 20
112.476813926
  0
VERTEX
  8
0
 62
7
  6
CONTINUOUS
 10
45.7765163864
 20
112.3557886801
  0
VERTEX
  8
0
 62
7
  6
CONTINUOUS
 10
46.0699366274
 20
112.2438711973
  0
VERTEX
  8
0
 62
7
  6
CONTINUOUS
 10
46.4072425775
 20
112.1425730949
  0
VERTEX
  8
0
 62
7
  6
CONTINUOUS
 10
46.7820293503
 20
112.0538516443
  0
VERTEX
  8
0
 62
7
  6
CONTINUOUS
 10
47.1874176104
 20
111.9788648662
  0
VERTEX
  8
0
 62
7
  6
CONTINUOUS
 10
47.6158676352
 20
111.9183340123
  0
VERTEX
  8
0
 62
7
  6
CONTINUOUS
 10
48.0585036033
 20
111.8726714177
  0
VERTEX
  8
0
 62
7
  6
CONTINUOUS
 10
48.4784895276
 20
111.8432851397
  0
SEQEND
  0
LINE
  8
0
 62
7
  6
CONTINUOUS
 10
44.8873377692
 20
113.3663641257
 11
44.8873377692
 21
113.8974572236
  0
LINE
  8
0
 62
7
  6
CONTINUOUS
 10
44.8873377692
 20
116.9307756072
 11
44.8873377692
 21
117.4197285385
  0
LINE
  8
0
 62
7
  6
CONTINUOUS
 10
48.5873377692
 20
114.1022587898
 11
48.5873377692
 21
112.7345095322
  0
LINE
  8
DEFAULT_1
 62
7
  6
CENTER
 10
49.2873377692
 20
110.1516383
 11
49.2873377692
 21
119.9197285385
  0
LINE
  8
0
 62
7
  6
CONTINUOUS
 10
51.0873377692
 20
114.565556894
 11
51.0873377692
 21
112.8283143425
  0
LINE
  8
0
 62
7
  6
CONTINUOUS
 10
51.9723377692
 20
112.3213412249
 11
51.9723377692
 21
114.9563175682
  0
LINE
  8
0
 62
7
  6
CONTINUOUS
 10
52.8723377692
 20
115.0908234694
 11
52.8723377692
 21
112.7343053874
  0
POLYLINE
  8
0
 62
7
  6
CONTINUOUS
 66
1
 70
0
  0
VERTEX
  8
0
 62
7
  6
CONTINUOUS
 10
50.5873359931
 20
111.7687794652
  0
VERTEX
  8
0
 62
7
  6
CONTINUOUS
 10
50.6267469209
 20
111.7697634656
  0
VERTEX
  8
0
 62
7
  6
CONTINUOUS
 10
50.694724423
 20
111.7749583553
  0
VERTEX
  8
0
 62
7
  6
CONTINUOUS
 10
50.7632236003
 20
111.7824179206
  0
SEQEND
  0
LINE
  8
0
 62
7
  6
CONTINUOUS
 10
51.2915794146
 20
111.8213412249
 11
51.4723377692
 21
111.8213412249
  0
LINE
  8
0
 62
7
  6
CONTINUOUS
 10
49.0902707706
 20
111.7689126592
 11
50.5873358281
 21
111.7687779989
  0
POLYLINE
  8
0
 62
7
  6
CONTINUOUS
 66
1
 70
0
  0
VERTEX
  8
0
 62
7
  6
CONTINUOUS
 10
48.4784782506
 20
111.8432856544
  0
VERTEX
  8
0
 62
7
  6
CONTINUOUS
 10
48.5370632349
 20
111.8394435496
  0
VERTEX
  8
0
 62
7
  6
CONTINUOUS
 10
48.6238685926
 20
111.8314234011
  0
VERTEX
  8
0
 62
7
  6
CONTINUOUS
 10
48.7026123098
 20
111.8217667629
  0
VERTEX
  8
0
 62
7
  6
CONTINUOUS
 10
48.7743185652
 20
111.8111396431
  0
VERTEX
  8
0
 62
7
  6
CONTINUOUS
 10
48.8415476309
 20
111.7999553001
  0
VERTEX
  8
0
 62
7
  6
CONTINUOUS
 10
48.9074661335
 20
111.7886075579
  0
VERTEX
  8
0
 62
7
  6
CONTINUOUS
 10
48.9786233427
 20
111.7775113427
  0
VERTEX
  8
0
 62
7
  6
CONTINUOUS
 10
49.0499567696
 20
111.77017441
  0
VERTEX
  8
0
 62
7
  6
CONTINUOUS
 10
49.0902674051
 20
111.768913527
  0
SEQEND
  0
LINE
  8
0
 62
7
  6
CONTINUOUS
 10
48.347148518
 20
114.3962361262
 11
48.3451603767
 21
114.3966336292
  0
POLYLINE
  8
0
 62
7
  6
CONTINUOUS
 66
1
 70
0
  0
VERTEX
  8
0
 62
7
  6
CONTINUOUS
 10
50.7632236003
 20
111.7824179206
  0
VERTEX
  8
0
 62
7
  6
CONTINUOUS
 10
50.9017689998
 20
111.7984377023
  0
VERTEX
  8
0
 62
7
  6
CONTINUOUS
 10
50.9760937198
 20
111.8059449412
  0
VERTEX
  8
0
 62
7
  6
CONTINUOUS
 10
51.0554573268
 20
111.8125180101
  0
VERTEX
  8
0
 62
7
  6
CONTINUOUS
 10
51.1405211255
 20
111.8176488008
  0
VERTEX
  8
0
 62
7
  6
CONTINUOUS
 10
51.231246543
 20
111.8207389063
  0
VERTEX
  8
0
 62
7
  6
CONTINUOUS
 10
51.2915794155
 20
111.8213426333
  0
SEQEND
  0
POLYLINE
  8
0
 62
7
  6
CONTINUOUS
 66
1
 70
0
  0
VERTEX
  8
0
 62
7
  6
CONTINUOUS
 10
51.4723377692
 20
111.8213412249
  0
VERTEX
  8
0
 62
7
  6
CONTINUOUS
 10
51.5190770731
 20
111.8235305807
  0
VERTEX
  8
0
 62
7
  6
CONTINUOUS
 10
51.6068992252
 20
111.8397883051
  0
VERTEX
  8
0
 62
7
  6
CONTINUOUS
 10
51.6929102695
 20
111.8726233045
  0
VERTEX
  8
0
 62
7
  6
CONTINUOUS
 10
51.7711745061
 20
111.9204714148
  0
VERTEX
  8
0
 62
7
  6
CONTINUOUS
 10
51.8416670908
 20
111.9843013871
  0
VERTEX
  8
0
 62
7
  6
CONTINUOUS
 10
51.8987167577
 20
112.0601880932
  0
VERTEX
  8
0
 62
7
  6
CONTINUOUS
 10
51.9398547689
 20
112.1440621934
  0
VERTEX
  8
0
 62
7
  6
CONTINUOUS
 10
51.964334183
 20
112.232237191
  0
VERTEX
  8
0
 62
7
  6
CONTINUOUS
 10
51.9723377692
 20
112.3213412249
  0
SEQEND
  0
POLYLINE
  8
0
 62
7
  6
CONTINUOUS
 66
1
 70
0
  0
VERTEX
  8
0
 62
7
  6
CONTINUOUS
 10
51.9723370484
 20
114.6978208579
  0
VERTEX
  8
0
 62
7
  6
CONTINUOUS
 10
51.9646071412
 20
114.6985544243
  0
VERTEX
  8
0
 62
7
  6
CONTINUOUS
 10
51.9436041737
 20
114.7016026426
  0
VERTEX
  8
0
 62
7
  6
CONTINUOUS
 10
51.9128768644
 20
114.7064361324
  0
VERTEX
  8
0
 62
7
  6
CONTINUOUS
 10
51.8752256136
 20
114.7129558909
  0
VERTEX
  8
0
 62
7
  6
CONTINUOUS
 10
51.8334014529
 20
114.7228954896
  0
VERTEX
  8
0
 62
7
  6
CONTINUOUS
 10
51.7900070048
 20
114.735569627
  0
VERTEX
  8
0
 62
7
  6
CONTINUOUS
 10
51.747619141
 20
114.7520072539
  0
VERTEX
  8
0
 62
7
  6
CONTINUOUS
 10
51.7077445741
 20
114.7720013718
  0
VERTEX
  8
0
 62
7
  6
CONTINUOUS
 10
51.6716796524
 20
114.7950727299
  0
VERTEX
  8
0
 62
7
  6
CONTINUOUS
 10
51.6403569029
 20
114.8198285289
  0
VERTEX
  8
0
 62
7
  6
CONTINUOUS
 10
51.6137430007
 20
114.8441648475
  0
VERTEX
  8
0
 62
7
  6
CONTINUOUS
 10
51.59152341
 20
114.8656079321
  0
VERTEX
  8
0
 62
7
  6
CONTINUOUS
 10
51.5733012763
 20
114.8816509651
  0
VERTEX
  8
0
 62
7
  6
CONTINUOUS
 10
51.5584535008
 20
114.8907667321
  0
VERTEX
  8
0
 62
7
  6
CONTINUOUS
 10
51.5462400295
 20
114.8926370651
  0
SEQEND
  0
LINE
  8
0
 62
7
  6
CONTINUOUS
 10
48.327979538
 20
114.3994931193
 11
48.3409437305
 21
114.3974306057
  0
POLYLINE
  8
0
 62
7
  6
CONTINUOUS
 66
1
 70
0
  0
VERTEX
  8
0
 62
7
  6
CONTINUOUS
 10
71.458785366
 20
123.6841012769
  0
VERTEX
  8
0
 62
7
  6
CONTINUOUS
 10
71.3831935118
 20
123.6545688615
  0
VERTEX
  8
0
 62
7
  6
CONTINUOUS
 10
71.3036682297
 20
123.6061460862
  0
VERTEX
  8
0
 62
7
  6
CONTINUOUS
 10
71.2344321083
 20
123.5437449922
  0
VERTEX
  8
0
 62
7
  6
CONTINUOUS
 10
71.1779882346
 20
123.469589721
  0
VERTEX
  8
0
 62
7
  6
CONTINUOUS
 10
71.1363382832
 20
123.3863821478
  0
VERTEX
  8
0
 62
7
  6
CONTINUOUS
 10
71.1108771393
 20
123.2971649994
  0
VERTEX
  8
0
 62
7
  6
CONTINUOUS
 10
71.1023377692
 20
123.2051516895
  0
SEQEND
  0
POLYLINE
  8
0
 62
7
  6
CONTINUOUS
 66
1
 70
0
  0
VERTEX
  8
0
 62
7
  6
CONTINUOUS
 10
72.071824899
 20
123.8708406324
  0
VERTEX
  8
0
 62
7
  6
CONTINUOUS
 10
72.0454211982
 20
123.8608352699
  0
VERTEX
  8
0
 62
7
  6
CONTINUOUS
 10
72.0024937946
 20
123.8470422452
  0
SEQEND
  0
LINE
  8
0
 62
7
  6
CONTINUOUS
 10
72.0024687057
 20
123.8470349448
 11
71.4588023061
 21
123.6841063542
  0
LINE
  8
DEFAULT_1
 62
7
  6
CENTER
 10
61.9873377692
 20
122.3697285385
 11
61.9873377692
 21
119.9698285385
  0
LINE
  8
0
 62
2
  6
CONTINUOUS
 10
61.9873377692
 20
118.8497285385
 11
61.9873377692
 21
117.0897285385
  0
LINE
  8
DEFAULT_1
 62
7
  6
CENTER
 10
61.9873377692
 20
113.5697285385
 11
61.9873377692
 21
115.9696285385
  0
LINE
  8
0
 62
7
  6
CONTINUOUS
 10
80.7312703708
 20
119.2543688432
 11
43.3912144901
 21
113.6738601014
  0
LINE
  8
0
 62
7
  6
CONTINUOUS
 10
45.3873452503
 20
117.9197285385
 11
51.5045763447
 21
117.9197285385
  0
LINE
  8
DEFAULT_1
 62
7
  6
CENTER
 10
66.3873377692
 20
117.9697285385
 11
63.9874377692
 21
117.9697285385
  0
LINE
  8
0
 62
2
  6
CONTINUOUS
 10
62.8673377692
 20
117.9697285385
 11
61.1073377692
 21
117.9697285385
  0
LINE
  8
DEFAULT_1
 62
7
  6
CENTER
 10
57.5873377692
 20
117.9697285385
 11
59.9872377692
 21
117.9697285385
  0
LINE
  8
0
 62
7
  6
CONTINUOUS
 10
78.5873302882
 20
118.0197285385
 11
72.4700991937
 21
118.0197285385
  0
POLYLINE
  8
0
 62
7
  6
CONTINUOUS
 66
1
 70
0
  0
VERTEX
  8
0
 62
7
  6
CONTINUOUS
 10
52.5158901725
 20
112.2553558
  0
VERTEX
  8
0
 62
7
  6
CONTINUOUS
 10
52.5914820267
 20
112.2848882154
  0
VERTEX
  8
0
 62
7
  6
CONTINUOUS
 10
52.6710073088
 20
112.3333109908
  0
VERTEX
  8
0
 62
7
  6
CONTINUOUS
 10
52.7402434302
 20
112.3957120847
  0
VERTEX
  8
0
 62
7
  6
CONTINUOUS
 10
52.7966873038
 20
112.4698673559
  0
VERTEX
  8
0
 62
7
  6
CONTINUOUS
 10
52.8383372553
 20
112.5530749291
  0
VERTEX
  8
0
 62
7
  6
CONTINUOUS
 10
52.8637983992
 20
112.6422920775
  0
VERTEX
  8
0
 62
7
  6
CONTINUOUS
 10
52.8723377692
 20
112.7343053874
  0
SEQEND
  0
POLYLINE
  8
0
 62
7
  6
CONTINUOUS
 66
1
 70
0
  0
VERTEX
  8
0
 62
7
  6
CONTINUOUS
 10
51.9028506099
 20
112.0686163842
  0
VERTEX
  8
0
 62
7
  6
CONTINUOUS
 10
51.9292534319
 20
112.0786214646
  0
VERTEX
  8
0
 62
7
  6
CONTINUOUS
 10
51.9721814921
 20
112.0924147914
  0
SEQEND
  0
LINE
  8
0
 62
7
  6
CONTINUOUS
 10
80.5834610501
 20
122.2655969758
 11
43.2434050942
 21
116.6850882228
  0
LINE
  8
0
 62
7
  6
CONTINUOUS
 10
51.9722068328
 20
112.0924221322
 11
52.5158732323
 21
112.2553507227
  0
POLYLINE
  8
0
 62
7
  6
CONTINUOUS
 66
1
 70
0
  0
VERTEX
  8
0
 62
7
  6
CONTINUOUS
 10
72.00233849
 20
121.241636219
  0
VERTEX
  8
0
 62
7
  6
CONTINUOUS
 10
72.0100683972
 20
121.2409026526
  0
VERTEX
  8
0
 62
7
  6
CONTINUOUS
 10
72.0310713648
 20
121.2378544344
  0
VERTEX
  8
0
 62
7
  6
CONTINUOUS
 10
72.061798674
 20
121.2330209446
  0
VERTEX
  8
0
 62
7
  6
CONTINUOUS
 10
72.0994499249
 20
121.226501186
  0
VERTEX
  8
0
 62
7
  6
CONTINUOUS
 10
72.1412740856
 20
121.2165615873
  0
VERTEX
  8
0
 62
7
  6
CONTINUOUS
 10
72.1846685336
 20
121.20388745
  0
VERTEX
  8
0
 62
7
  6
CONTINUOUS
 10
72.2270563975
 20
121.187449823
  0
VERTEX
  8
0
 62
7
  6
CONTINUOUS
 10
72.2669309644
 20
121.1674557051
  0
VERTEX
  8
0
 62
7
  6
CONTINUOUS
 10
72.3029958861
 20
121.144384347
  0
VERTEX
  8
0
 62
7
  6
CONTINUOUS
 10
72.3343186356
 20
121.1196285481
  0
VERTEX
  8
0
 62
7
  6
CONTINUOUS
 10
72.3609325377
 20
121.0952922294
  0
VERTEX
  8
0
 62
7
  6
CONTINUOUS
 10
72.3831521285
 20
121.0738491448
  0
VERTEX
  8
0
 62
7
  6
CONTINUOUS
 10
72.4013742621
 20
121.0578061118
  0
VERTEX
  8
0
 62
7
  6
CONTINUOUS
 10
72.4162220376
 20
121.0486903449
  0
VERTEX
  8
0
 62
7
  6
CONTINUOUS
 10
72.428435509
 20
121.0468200118
  0
SEQEND
  0
POLYLINE
  8
0
 62
7
  6
CONTINUOUS
 66
1
 70
0
  0
VERTEX
  8
0
 62
7
  6
CONTINUOUS
 10
73.2114519381
 20
124.1570391564
  0
VERTEX
  8
0
 62
7
  6
CONTINUOUS
 10
73.0729065387
 20
124.1410193746
  0
VERTEX
  8
0
 62
7
  6
CONTINUOUS
 10
72.9985818186
 20
124.1335121358
  0
VERTEX
  8
0
 62
7
  6
CONTINUOUS
 10
72.9192182117
 20
124.1269390669
  0
VERTEX
  8
0
 62
7
  6
CONTINUOUS
 10
72.834154413
 20
124.1218082761
  0
VERTEX
  8
0
 62
7
  6
CONTINUOUS
 10
72.7434289955
 20
124.1187181706
  0
VERTEX
  8
0
 62
7
  6
CONTINUOUS
 10
72.6830961229
 20
124.1181144437
  0
SEQEND
  0
POLYLINE
  8
0
 62
7
  6
CONTINUOUS
 66
1
 70
0
  0
VERTEX
  8
0
 62
7
  6
CONTINUOUS
 10
72.5023377692
 20
124.118115852
  0
VERTEX
  8
0
 62
7
  6
CONTINUOUS
 10
72.4555984653
 20
124.1159264962
  0
VERTEX
  8
0
 62
7
  6
CONTINUOUS
 10
72.3677763133
 20
124.0996687718
  0
VERTEX
  8
0
 62
7
  6
CONTINUOUS
 10
72.2817652689
 20
124.0668337725
  0
VERTEX
  8
0
 62
7
  6
CONTINUOUS
 10
72.2035010323
 20
124.0189856622
  0
VERTEX
  8
0
 62
7
  6
CONTINUOUS
 10
72.1330084477
 20
123.9551556898
  0
VERTEX
  8
0
 62
7
  6
CONTINUOUS
 10
72.0759587807
 20
123.8792689837
  0
VERTEX
  8
0
 62
7
  6
CONTINUOUS
 10
72.0348207695
 20
123.7953948835
  0
VERTEX
  8
0
 62
7
  6
CONTINUOUS
 10
72.0103413555
 20
123.707219886
  0
VERTEX
  8
0
 62
7
  6
CONTINUOUS
 10
72.0023377692
 20
123.618115852
  0
SEQEND
  0
POLYLINE
  8
0
 62
7
  6
CONTINUOUS
 66
1
 70
0
  0
VERTEX
  8
0
 62
7
  6
CONTINUOUS
 10
73.3873395454
 20
124.1706776117
  0
VERTEX
  8
0
 62
7
  6
CONTINUOUS
 10
73.3479286175
 20
124.1696936113
  0
VERTEX
  8
0
 62
7
  6
CONTINUOUS
 10
73.2799511154
 20
124.1644987216
  0
VERTEX
  8
0
 62
7
  6
CONTINUOUS
 10
73.2114519381
 20
124.1570391564
  0
SEQEND
  0
LINE
  8
0
 62
7
  6
CONTINUOUS
 10
72.6830961239
 20
124.118115852
 11
72.5023377692
 21
124.118115852
  0
LINE
  8
0
 62
7
  6
CONTINUOUS
 10
74.8844047681
 20
124.1705444177
 11
73.3873397104
 21
124.1706790781
  0
POLYLINE
  8
0
 62
7
  6
CONTINUOUS
 66
1
 70
0
  0
VERTEX
  8
0
 62
7
  6
CONTINUOUS
 10
75.4961972878
 20
124.0961714226
  0
VERTEX
  8
0
 62
7
  6
CONTINUOUS
 10
75.4376123039
 20
124.1000135273
  0
VERTEX
  8
0
 62
7
  6
CONTINUOUS
 10
75.3508069465
 20
124.1080336758
  0
VERTEX
  8
0
 62
7
  6
CONTINUOUS
 10
75.2720632294
 20
124.1176903139
  0
VERTEX
  8
0
 62
7
  6
CONTINUOUS
 10
75.2003569742
 20
124.1283174337
  0
VERTEX
  8
0
 62
7
  6
CONTINUOUS
 10
75.1331279087
 20
124.1395017766
  0
VERTEX
  8
0
 62
7
  6
CONTINUOUS
 10
75.0672094063
 20
124.1508495188
  0
VERTEX
  8
0
 62
7
  6
CONTINUOUS
 10
74.9960521977
 20
124.161945734
  0
VERTEX
  8
0
 62
7
  6
CONTINUOUS
 10
74.924718771
 20
124.1692826668
  0
VERTEX
  8
0
 62
7
  6
CONTINUOUS
 10
74.8844081336
 20
124.1705435499
  0
SEQEND
  0
LINE
  8
0
 62
7
  6
CONTINUOUS
 10
71.1023377692
 20
120.8486336076
 11
71.1023377692
 21
123.2051516895
  0
LINE
  8
0
 62
7
  6
CONTINUOUS
 10
72.0023377692
 20
123.618115852
 11
72.0023377692
 21
120.9831395088
  0
LINE
  8
0
 62
7
  6
CONTINUOUS
 10
72.8873377692
 20
121.3739001829
 11
72.8873377692
 21
123.1111427345
  0
LINE
  8
DEFAULT_1
 62
7
  6
CENTER
 10
74.6873377692
 20
116.0197285385
 11
74.6873377692
 21
125.787818777
  0
LINE
  8
0
 62
7
  6
CONTINUOUS
 10
75.3873377692
 20
123.2049475433
 11
75.3873377692
 21
121.8371982871
  0
POLYLINE
  8
0
 62
7
  6
CONTINUOUS
 66
1
 70
0
  0
VERTEX
  8
0
 62
7
  6
CONTINUOUS
 10
79.0873368079
 20
122.5731061293
  0
VERTEX
  8
0
 62
7
  6
CONTINUOUS
 10
79.080870878
 20
122.6734166238
  0
VERTEX
  8
0
 62
7
  6
CONTINUOUS
 10
79.033432023
 20
122.8598100981
  0
VERTEX
  8
0
 62
7
  6
CONTINUOUS
 10
78.9425446363
 20
123.0342933059
  0
VERTEX
  8
0
 62
7
  6
CONTINUOUS
 10
78.813735136
 20
123.191361823
  0
VERTEX
  8
0
 62
7
  6
CONTINUOUS
 10
78.6491328578
 20
123.3327627204
  0
VERTEX
  8
0
 62
7
  6
CONTINUOUS
 10
78.4456546143
 20
123.4626455532
  0
VERTEX
  8
0
 62
7
  6
CONTINUOUS
 10
78.1981529655
 20
123.5836710562
  0
VERTEX
  8
0
 62
7
  6
CONTINUOUS
 10
77.9047307178
 20
123.6955886424
  0
VERTEX
  8
0
 62
7
  6
CONTINUOUS
 10
77.5674233172
 20
123.7968865444
  0
VERTEX
  8
0
 62
7
  6
CONTINUOUS
 10
77.192636548
 20
123.8856074442
  0
VERTEX
  8
0
 62
7
  6
CONTINUOUS
 10
76.7872499037
 20
123.9605935073
  0
VERTEX
  8
0
 62
7
  6
CONTINUOUS
 10
76.3588025855
 20
124.0211237112
  0
VERTEX
  8
0
 62
7
  6
CONTINUOUS
 10
75.9161696368
 20
124.0667858636
  0
VERTEX
  8
0
 62
7
  6
CONTINUOUS
 10
75.4961860126
 20
124.0961719373
  0
SEQEND
  0
LINE
  8
0
 62
7
  6
CONTINUOUS
 10
79.0873377692
 20
118.5197285385
 11
79.0873377692
 21
119.0086814697
  0
LINE
  8
0
 62
7
  6
CONTINUOUS
 10
79.0873377692
 20
122.0419998533
 11
79.0873377692
 21
122.5730929487
  0
LINE
  8
0
 62
7
  6
CONTINUOUS
 10
81.1573789728
 20
119.7479252167
 11
81.1573789728
 21
121.7701374848
  0
LINE
  8
0
 62
7
  6
CONTINUOUS
 10
52.2014093695
 20
185.730198828
 11
52.7450757691
 21
185.1221410501
  0
LINE
  8
0
 62
7
  6
CONTINUOUS
 10
42.9876674343
 20
205.9359828257
 11
47.9127529062
 21
187.5553136129
  0
LINE
  8
0
 62
7
  6
CONTINUOUS
 10
48.5873377692
 20
188.8999310992
 11
48.5873377692
 21
187.0224630525
  0
LINE
  8
0
 62
2
  6
CONTINUOUS
 10
49.2873377692
 20
183.3100780512
 11
49.2873377692
 21
181.5500780512
  0
LINE
  8
DEFAULT_1
 62
2
  6
CENTER
 10
49.2873377692
 20
178.0300780512
 11
49.2873377692
 21
177.8300780512
  0
LINE
  8
DEFAULT_1
 62
2
  6
CENTER
 10
49.2873377692
 20
186.8300780512
 11
49.2873377692
 21
187.0300780512
  0
LINE
  8
0
 62
2
  6
CONTINUOUS
 10
75.5673377692
 20
182.4300780512
 11
73.8073377692
 21
182.4300780512
  0
LINE
  8
DEFAULT_1
 62
2
  6
CENTER
 10
70.2873377692
 20
182.4300780512
 11
70.0873377692
 21
182.4300780512
  0
LINE
  8
0
 62
2
  6
CONTINUOUS
 10
50.1673377692
 20
182.4300780512
 11
48.4073377692
 21
182.4300780512
  0
LINE
  8
DEFAULT_1
 62
2
  6
CENTER
 10
44.8873377692
 20
182.4300780512
 11
44.6873377692
 21
182.4300780512
  0
LINE
  8
DEFAULT_1
 62
2
  6
CENTER
 10
53.6873377692
 20
182.4300780512
 11
53.8873377692
 21
182.4300780512
  0
LINE
  8
DEFAULT_1
 62
2
  6
CENTER
 10
79.0873377692
 20
182.4300780512
 11
79.2873377692
 21
182.4300780512
  0
LINE
  8
0
 62
7
  6
CONTINUOUS
 10
51.0873377692
 20
189.7526040653
 11
51.0873377692
 21
187.1300780512
  0
LINE
  8
0
 62
7
  6
CONTINUOUS
 10
51.9723377692
 20
186.3454531668
 11
51.9723377692
 21
186.3300780512
  0
LINE
  8
0
 62
7
  6
CONTINUOUS
 10
51.9723377692
 20
186.3522888117
 11
51.9723377692
 21
187.2300780512
  0
LINE
  8
0
 62
7
  6
CONTINUOUS
 10
52.8723377692
 20
184.788874815
 11
52.8723377692
 21
180.0441243635
  0
LINE
  8
0
 62
7
  6
CONTINUOUS
 10
51.2915757101
 20
186.8300780512
 11
51.4723377692
 21
186.8300780512
  0
LINE
  8
CURVE
 62
4
  6
CONTINUOUS
 10
71.1023377692
 20
187.2300780512
 11
52.8723377692
 21
187.2300780512
  0
LINE
  8
0
 62
7
  6
CONTINUOUS
 10
52.5723377692
 20
187.8300780512
 11
71.4023377692
 21
187.8300780512
  0
LINE
  8
DEFAULT_1
 62
2
  6
CENTER
 10
61.9873377692
 20
176.0300780512
 11
61.9873377692
 21
214.2300780512
  0
LINE
  8
0
 62
7
  6
CONTINUOUS
 10
47.3934161562
 20
186.4017553896
 11
47.3802549853
 21
186.395306324
  0
LINE
  8
0
 62
7
  6
CONTINUOUS
 10
71.1023377692
 20
184.788874815
 11
71.1023377692
 21
180.0441243635
  0
LINE
  8
0
 62
7
  6
CONTINUOUS
 10
72.0023377692
 20
187.2300780512
 11
72.0023377692
 21
186.3300780512
  0
LINE
  8
0
 62
2
  6
CONTINUOUS
 10
74.6873377692
 20
183.3100780512
 11
74.6873377692
 21
181.5500780512
  0
LINE
  8
DEFAULT_1
 62
2
  6
CENTER
 10
74.6873377692
 20
178.0300780512
 11
74.6873377692
 21
177.8300780512
  0
LINE
  8
DEFAULT_1
 62
2
  6
CENTER
 10
74.6873377692
 20
186.8300780512
 11
74.6873377692
 21
187.0300780512
  0
LINE
  8
0
 62
7
  6
CONTINUOUS
 10
71.7732661689
 20
185.730198828
 11
71.2295997694
 21
185.1221410501
  0
LINE
  8
CURVE
 62
4
  6
CONTINUOUS
 10
71.7732661689
 20
185.730198828
 11
71.2295997694
 21
185.1221410501
  0
LINE
  8
0
 62
7
  6
CONTINUOUS
 10
76.0619226323
 20
187.5553136129
 11
80.9870081042
 21
205.9359828257
  0
LINE
  8
0
 62
7
  6
CONTINUOUS
 10
76.1573789728
 20
212.2300780512
 11
47.8172965657
 21
212.2300780512
  0
LINE
  8
0
 62
7
  6
CONTINUOUS
 10
132.8077622617
 20
114.4099442306
 11
132.8077622617
 21
117.4197285385
  0
LINE
  8
0
 62
7
  6
CONTINUOUS
 10
132.8077622617
 20
118.5197285385
 11
132.8077622617
 21
121.5295128407
  0
POLYLINE
  8
0
 62
9
  6
CONTINUOUS
 66
1
 70
0
  0
VERTEX
  8
0
 62
9
  6
CONTINUOUS
 10
134.5159170754
 20
121.9337996377
  0
VERTEX
  8
0
 62
9
  6
CONTINUOUS
 10
134.5056893244
 20
122.0317825128
  0
VERTEX
  8
0
 62
9
  6
CONTINUOUS
 10
134.5082766201
 20
122.1257932901
  0
VERTEX
  8
0
 62
9
  6
CONTINUOUS
 10
134.5235740747
 20
122.2120208988
  0
VERTEX
  8
0
 62
9
  6
CONTINUOUS
 10
134.5509615467
 20
122.2869697899
  0
VERTEX
  8
0
 62
9
  6
CONTINUOUS
 10
134.5893287814
 20
122.3476016407
  0
VERTEX
  8
0
 62
9
  6
CONTINUOUS
 10
134.6371204197
 20
122.3914585245
  0
VERTEX
  8
0
 62
9
  6
CONTINUOUS
 10
134.6923990514
 20
122.4167625509
  0
SEQEND
  0
LINE
  8
0
 62
9
  6
CONTINUOUS
 10
134.5159170756
 20
121.9337996378
 11
134.5159170756
 21
118.5197285385
  0
LINE
  8
0
 62
9
  6
CONTINUOUS
 10
134.821808574
 20
118.0197285385
 11
134.821808574
 21
121.9337996378
  0
LINE
  8
0
 62
9
  6
CONTINUOUS
 10
134.821808574
 20
121.9337996378
 11
134.6923990514
 21
122.4167625509
  0
LINE
  8
DEFAULT_1
 62
7
  6
CENTER
 10
137.2077622617
 20
110.1516383
 11
137.2077622617
 21
125.787818777
  0
LINE
  8
0
 62
9
  6
CONTINUOUS
 10
139.5665590255
 20
118.0197285385
 11
139.5665590255
 21
123.2051516895
  0
LINE
  8
0
 62
9
  6
CONTINUOUS
 10
139.8998252607
 20
118.5197285385
 11
139.8998252607
 21
123.2051516895
  0
POLYLINE
  8
0
 62
9
  6
CONTINUOUS
 66
1
 70
0
  0
VERTEX
  8
0
 62
9
  6
CONTINUOUS
 10
141.535708457
 20
112.3020840506
  0
VERTEX
  8
0
 62
9
  6
CONTINUOUS
 10
141.5653823959
 20
112.2372323359
  0
VERTEX
  8
0
 62
9
  6
CONTINUOUS
 10
141.5749880838
 20
112.2157588271
  0
VERTEX
  8
0
 62
9
  6
CONTINUOUS
 10
141.5841355967
 20
112.1947944991
  0
VERTEX
  8
0
 62
9
  6
CONTINUOUS
 10
141.5927860955
 20
112.1743937333
  0
VERTEX
  8
0
 62
9
  6
CONTINUOUS
 10
141.600941662
 20
112.1545431694
  0
VERTEX
  8
0
 62
9
  6
CONTINUOUS
 10
141.6086217281
 20
112.1352106473
  0
VERTEX
  8
0
 62
9
  6
CONTINUOUS
 10
141.6158198786
 20
112.1164505936
  0
VERTEX
  8
0
 62
9
  6
CONTINUOUS
 10
141.6225307012
 20
112.0983383443
  0
VERTEX
  8
0
 62
9
  6
CONTINUOUS
 10
141.628759342
 20
112.0809222484
  0
VERTEX
  8
0
 62
9
  6
CONTINUOUS
 10
141.6345624813
 20
112.0641163612
  0
VERTEX
  8
0
 62
9
  6
CONTINUOUS
 10
141.6401245201
 20
112.0474378333
  0
VERTEX
  8
0
 62
9
  6
CONTINUOUS
 10
141.6453363718
 20
112.0313019869
  0
VERTEX
  8
0
 62
9
  6
CONTINUOUS
 10
141.6500155489
 20
112.0164216692
  0
SEQEND
  0
POLYLINE
  8
0
 62
9
  6
CONTINUOUS
 66
1
 70
0
  0
VERTEX
  8
0
 62
9
  6
CONTINUOUS
 10
141.518521
 20
112.3425324247
  0
VERTEX
  8
0
 62
9
  6
CONTINUOUS
 10
141.5265326076
 20
112.3228229309
  0
VERTEX
  8
0
 62
9
  6
CONTINUOUS
 10
141.535708457
 20
112.3020840506
  0
SEQEND
  0
POLYLINE
  8
0
 62
9
  6
CONTINUOUS
 66
1
 70
0
  0
VERTEX
  8
0
 62
9
  6
CONTINUOUS
 10
141.6620644492
 20
111.9768985322
  0
VERTEX
  8
0
 62
9
  6
CONTINUOUS
 10
141.6657715472
 20
111.9649545768
  0
VERTEX
  8
0
 62
9
  6
CONTINUOUS
 10
141.6692437513
 20
111.954385054
  0
VERTEX
  8
0
 62
9
  6
CONTINUOUS
 10
141.6723403042
 20
111.9460857484
  0
VERTEX
  8
0
 62
9
  6
CONTINUOUS
 10
141.6749380881
 20
111.9406272169
  0
VERTEX
  8
0
 62
9
  6
CONTINUOUS
 10
141.6769888578
 20
111.9381391143
  0
VERTEX
  8
0
 62
9
  6
CONTINUOUS
 10
141.6784767475
 20
111.938257038
  0
SEQEND
  0
LINE
  8
0
 62
9
  6
CONTINUOUS
 10
141.6500155489
 20
112.0164216692
 11
141.6620644492
 21
111.9768985322
  0
POLYLINE
  8
0
 62
9
  6
CONTINUOUS
 66
1
 70
0
  0
VERTEX
  8
0
 62
9
  6
CONTINUOUS
 10
141.1077517375
 20
121.2416362191
  0
VERTEX
  8
0
 62
9
  6
CONTINUOUS
 10
141.1079537584
 20
121.2360619154
  0
VERTEX
  8
0
 62
9
  6
CONTINUOUS
 10
141.1092506056
 20
121.2202563394
  0
VERTEX
  8
0
 62
9
  6
CONTINUOUS
 10
141.1125914266
 20
121.1956072973
  0
VERTEX
  8
0
 62
9
  6
CONTINUOUS
 10
141.1190098572
 20
121.1622193145
  0
VERTEX
  8
0
 62
9
  6
CONTINUOUS
 10
141.1299730223
 20
121.1196556331
  0
VERTEX
  8
0
 62
9
  6
CONTINUOUS
 10
141.1472506067
 20
121.0679102657
  0
VERTEX
  8
0
 62
9
  6
CONTINUOUS
 10
141.1730219779
 20
121.0074369416
  0
VERTEX
  8
0
 62
9
  6
CONTINUOUS
 10
141.2104764356
 20
120.9382539936
  0
VERTEX
  8
0
 62
9
  6
CONTINUOUS
 10
141.2629208793
 20
120.8623153276
  0
VERTEX
  8
0
 62
9
  6
CONTINUOUS
 10
141.3328360909
 20
120.7838836928
  0
VERTEX
  8
0
 62
9
  6
CONTINUOUS
 10
141.4216130299
 20
120.7083880519
  0
VERTEX
  8
0
 62
9
  6
CONTINUOUS
 10
141.5281871565
 20
120.6423861268
  0
VERTEX
  8
0
 62
9
  6
CONTINUOUS
 10
141.6476797054
 20
120.5923673
  0
VERTEX
  8
0
 62
9
  6
CONTINUOUS
 10
141.7732252705
 20
120.5621521938
  0
VERTEX
  8
0
 62
9
  6
CONTINUOUS
 10
141.8989752894
 20
120.5523118301
  0
SEQEND
  0
POLYLINE
  8
0
 62
9
  6
CONTINUOUS
 66
1
 70
0
  0
VERTEX
  8
0
 62
9
  6
CONTINUOUS
 10
141.5070163055
 20
112.7345095322
  0
VERTEX
  8
0
 62
9
  6
CONTINUOUS
 10
141.507313769
 20
112.670276311
  0
VERTEX
  8
0
 62
9
  6
CONTINUOUS
 10
141.5083490698
 20
112.5990275532
  0
VERTEX
  8
0
 62
9
  6
CONTINUOUS
 10
141.5103675666
 20
112.5205785761
  0
VERTEX
  8
0
 62
9
  6
CONTINUOUS
 10
141.5136537599
 20
112.4349595234
  0
VERTEX
  8
0
 62
9
  6
CONTINUOUS
 10
141.5185209818
 20
112.3425342529
  0
SEQEND
  0
LINE
  8
0
 62
9
  6
CONTINUOUS
 10
140.5078830385
 20
118.5197285385
 11
140.5078830385
 21
123.3680802801
  0
LINE
  8
0
 62
9
  6
CONTINUOUS
 10
141.1077622617
 20
118.0197285385
 11
141.1077622617
 21
123.618115852
  0
LINE
  8
0
 62
9
  6
CONTINUOUS
 10
141.1729905345
 20
114.5064705497
 11
141.1729905345
 21
116.949553156
  0
LINE
  8
0
 62
9
  6
CONTINUOUS
 10
141.5070163055
 20
114.1022610476
 11
141.5070163055
 21
112.7345095322
  0
POLYLINE
  8
0
 62
9
  6
CONTINUOUS
 66
1
 70
0
  0
VERTEX
  8
0
 62
9
  6
CONTINUOUS
 10
141.6813257021
 20
123.9986596485
  0
VERTEX
  8
0
 62
9
  6
CONTINUOUS
 10
141.6811198783
 20
123.9935107148
  0
VERTEX
  8
0
 62
9
  6
CONTINUOUS
 10
141.6807676033
 20
123.9865368552
  0
VERTEX
  8
0
 62
9
  6
CONTINUOUS
 10
141.6801518488
 20
123.9770030197
  0
VERTEX
  8
0
 62
9
  6
CONTINUOUS
 10
141.6792395827
 20
123.9658026964
  0
SEQEND
  0
POLYLINE
  8
0
 62
9
  6
CONTINUOUS
 66
1
 70
0
  0
VERTEX
  8
0
 62
9
  6
CONTINUOUS
 10
141.6792395827
 20
123.9658026964
  0
VERTEX
  8
0
 62
9
  6
CONTINUOUS
 10
141.6780574366
 20
123.9538355888
  0
VERTEX
  8
0
 62
9
  6
CONTINUOUS
 10
141.6766480595
 20
123.9417369265
  0
VERTEX
  8
0
 62
9
  6
CONTINUOUS
 10
141.675041282
 20
123.9296646689
  0
VERTEX
  8
0
 62
9
  6
CONTINUOUS
 10
141.6731941881
 20
123.9172359901
  0
VERTEX
  8
0
 62
9
  6
CONTINUOUS
 10
141.6710018436
 20
123.9038739693
  0
VERTEX
  8
0
 62
9
  6
CONTINUOUS
 10
141.6683916386
 20
123.8893449793
  0
VERTEX
  8
0
 62
9
  6
CONTINUOUS
 10
141.6653933978
 20
123.8739696833
  0
VERTEX
  8
0
 62
9
  6
CONTINUOUS
 10
141.662047464
 20
123.8580032899
  0
VERTEX
  8
0
 62
9
  6
CONTINUOUS
 10
141.6583375471
 20
123.841381357
  0
VERTEX
  8
0
 62
9
  6
CONTINUOUS
 10
141.6542283139
 20
123.8239510193
  0
VERTEX
  8
0
 62
9
  6
CONTINUOUS
 10
141.6496945781
 20
123.8055894753
  0
VERTEX
  8
0
 62
9
  6
CONTINUOUS
 10
141.6447338886
 20
123.7862225456
  0
SEQEND
  0
POLYLINE
  8
0
 62
9
  6
CONTINUOUS
 66
1
 70
0
  0
VERTEX
  8
0
 62
9
  6
CONTINUOUS
 10
141.9077622617
 20
121.0644920888
  0
VERTEX
  8
0
 62
9
  6
CONTINUOUS
 10
141.9055499107
 20
121.0556102519
  0
VERTEX
  8
0
 62
9
  6
CONTINUOUS
 10
141.8989753207
 20
121.0468200561
  0
SEQEND
  0
POLYLINE
  8
0
 62
9
  6
CONTINUOUS
 66
1
 70
0
  0
VERTEX
  8
0
 62
9
  6
CONTINUOUS
 10
141.6282865556
 20
123.7244733918
  0
VERTEX
  8
0
 62
9
  6
CONTINUOUS
 10
141.622659462
 20
123.7029047194
  0
VERTEX
  8
0
 62
9
  6
CONTINUOUS
 10
141.617273003
 20
123.6809010217
  0
VERTEX
  8
0
 62
9
  6
CONTINUOUS
 10
141.6125790388
 20
123.6591297192
  0
VERTEX
  8
0
 62
9
  6
CONTINUOUS
 10
141.6091480103
 20
123.6381089142
  0
VERTEX
  8
0
 62
9
  6
CONTINUOUS
 10
141.6077568403
 20
123.6181346251
  0
SEQEND
  0
LINE
  8
0
 62
9
  6
CONTINUOUS
 10
141.6447338886
 20
123.7862225456
 11
141.6282865556
 21
123.7244733918
  0
LINE
  8
0
 62
9
  6
CONTINUOUS
 10
141.6077622617
 20
121.3611968478
 11
141.6025619631
 21
121.3439981979
  0
POLYLINE
  8
0
 62
9
  6
CONTINUOUS
 66
1
 70
0
  0
VERTEX
  8
0
 62
9
  6
CONTINUOUS
 10
141.6025619631
 20
121.3439981979
  0
VERTEX
  8
0
 62
9
  6
CONTINUOUS
 10
141.5870645265
 20
121.3271540523
  0
VERTEX
  8
0
 62
9
  6
CONTINUOUS
 10
141.5615512568
 20
121.3109944475
  0
VERTEX
  8
0
 62
9
  6
CONTINUOUS
 10
141.5267588471
 20
121.2959541652
  0
VERTEX
  8
0
 62
9
  6
CONTINUOUS
 10
141.4835688603
 20
121.2823337566
  0
VERTEX
  8
0
 62
9
  6
CONTINUOUS
 10
141.4327422917
 20
121.2703347372
  0
VERTEX
  8
0
 62
9
  6
CONTINUOUS
 10
141.3751235763
 20
121.2601653385
  0
VERTEX
  8
0
 62
9
  6
CONTINUOUS
 10
141.3120100018
 20
121.252066995
  0
VERTEX
  8
0
 62
9
  6
CONTINUOUS
 10
141.2452162932
 20
121.2462426537
  0
VERTEX
  8
0
 62
9
  6
CONTINUOUS
 10
141.1766686659
 20
121.2427767901
  0
VERTEX
  8
0
 62
9
  6
CONTINUOUS
 10
141.1077622617
 20
121.2416364129
  0
SEQEND
  0
LINE
  8
0
 62
9
  6
CONTINUOUS
 10
141.1077622617
 20
123.618115852
 11
140.5078830385
 21
123.3680802801
  0
POLYLINE
  8
0
 62
9
  6
CONTINUOUS
 66
1
 70
0
  0
VERTEX
  8
0
 62
9
  6
CONTINUOUS
 10
141.3829083723
 20
114.3222833397
  0
VERTEX
  8
0
 62
9
  6
CONTINUOUS
 10
141.396088838
 20
114.2915909534
  0
VERTEX
  8
0
 62
9
  6
CONTINUOUS
 10
141.410776583
 20
114.2586496535
  0
VERTEX
  8
0
 62
9
  6
CONTINUOUS
 10
141.4267347733
 20
114.2248172294
  0
VERTEX
  8
0
 62
9
  6
CONTINUOUS
 10
141.4441325283
 20
114.1907717678
  0
VERTEX
  8
0
 62
9
  6
CONTINUOUS
 10
141.4632848464
 20
114.1573841581
  0
VERTEX
  8
0
 62
9
  6
CONTINUOUS
 10
141.4843601192
 20
114.1266061256
  0
VERTEX
  8
0
 62
9
  6
CONTINUOUS
 10
141.5070163055
 20
114.1022610476
  0
SEQEND
  0
LINE
  8
0
 62
9
  6
CONTINUOUS
 10
141.3501966489
 20
114.4004139273
 11
141.3829083723
 21
114.3222833397
  0
LINE
  8
0
 62
9
  6
CONTINUOUS
 10
139.5665590255
 20
123.2051516895
 11
139.437149503
 21
123.6881146027
  0
POLYLINE
  8
0
 62
9
  6
CONTINUOUS
 66
1
 70
0
  0
VERTEX
  8
0
 62
9
  6
CONTINUOUS
 10
139.8998252607
 20
123.2051516895
  0
VERTEX
  8
0
 62
9
  6
CONTINUOUS
 10
139.8795348483
 20
123.2995460578
  0
VERTEX
  8
0
 62
9
  6
CONTINUOUS
 10
139.8475196184
 20
123.3904449276
  0
VERTEX
  8
0
 62
9
  6
CONTINUOUS
 10
139.8049841477
 20
123.4744057103
  0
VERTEX
  8
0
 62
9
  6
CONTINUOUS
 10
139.7535195189
 20
123.5482865655
  0
VERTEX
  8
0
 62
9
  6
CONTINUOUS
 10
139.6950541606
 20
123.6093182224
  0
VERTEX
  8
0
 62
9
  6
CONTINUOUS
 10
139.631776907
 20
123.6552157267
  0
VERTEX
  8
0
 62
9
  6
CONTINUOUS
 10
139.5660584303
 20
123.6842598003
  0
VERTEX
  8
0
 62
9
  6
CONTINUOUS
 10
139.5003587116
 20
123.695363645
  0
VERTEX
  8
0
 62
9
  6
CONTINUOUS
 10
139.437149503
 20
123.6881146027
  0
SEQEND
  0
POLYLINE
  8
0
 62
9
  6
CONTINUOUS
 66
1
 70
0
  0
VERTEX
  8
0
 62
9
  6
CONTINUOUS
 10
141.688045589
 20
111.9725831604
  0
VERTEX
  8
0
 62
9
  6
CONTINUOUS
 10
141.6903432442
 20
111.956962313
  0
VERTEX
  8
0
 62
9
  6
CONTINUOUS
 10
141.6941758111
 20
111.9547575679
  0
SEQEND
  0
POLYLINE
  8
0
 62
9
  6
CONTINUOUS
 66
1
 70
0
  0
VERTEX
  8
0
 62
9
  6
CONTINUOUS
 10
141.6090156724
 20
121.3613217472
  0
VERTEX
  8
0
 62
9
  6
CONTINUOUS
 10
141.6135338251
 20
121.3159804291
  0
VERTEX
  8
0
 62
9
  6
CONTINUOUS
 10
141.6306266993
 20
121.2602886454
  0
VERTEX
  8
0
 62
9
  6
CONTINUOUS
 10
141.6583818852
 20
121.2089703253
  0
VERTEX
  8
0
 62
9
  6
CONTINUOUS
 10
141.6957352547
 20
121.1639944135
  0
VERTEX
  8
0
 62
9
  6
CONTINUOUS
 10
141.7412365049
 20
121.1271032239
  0
VERTEX
  8
0
 62
9
  6
CONTINUOUS
 10
141.7931508797
 20
121.0997014768
  0
VERTEX
  8
0
 62
9
  6
CONTINUOUS
 10
141.8494317568
 20
121.0828579152
  0
VERTEX
  8
0
 62
9
  6
CONTINUOUS
 10
141.9077622617
 20
121.0771954239
  0
SEQEND
  0
LINE
  8
0
 62
7
  6
CONTINUOUS
 10
141.6077622617
 20
123.618115852
 11
141.6077622617
 21
121.3611968478
  0
LINE
  8
0
 62
9
  6
CONTINUOUS
 10
141.7800658943
 20
118.5197285385
 11
141.7800658943
 21
118.0197285385
  0
LINE
  8
0
 62
9
  6
CONTINUOUS
 10
141.8001550306
 20
114.3980043079
 11
141.800147263
 21
112.7345095337
  0
LINE
  8
0
 62
9
  6
CONTINUOUS
 10
141.8989754709
 20
121.0468200561
 11
141.8989752894
 21
120.5523118301
  0
LINE
  8
0
 62
9
  6
CONTINUOUS
 10
141.9077622617
 20
123.1111427345
 11
141.9077622617
 21
121.0644920888
  0
LINE
  8
0
 62
9
  6
CONTINUOUS
 10
141.9077622617
 20
117.5949870925
 11
141.9077622622
 21
117.9093573871
  0
LINE
  8
0
 62
9
  6
CONTINUOUS
 10
141.9077622622
 20
118.0300996898
 11
141.9077622616
 21
118.5300996898
  0
LINE
  8
0
 62
9
  6
CONTINUOUS
 10
142.0077622617
 20
117.9038653188
 11
142.0077622617
 21
117.9093573871
  0
LINE
  8
0
 62
9
  6
CONTINUOUS
 10
142.0077622617
 20
118.03009969
 11
142.0077622617
 21
121.0468198772
  0
LINE
  8
0
 62
9
  6
CONTINUOUS
 10
142.3329978234
 20
114.8948836685
 11
142.3329978234
 21
116.949553156
  0
LINE
  8
0
 62
7
  6
CONTINUOUS
 10
142.6077622617
 20
120.387915844
 11
142.6077622617
 21
117.9387617578
  0
POLYLINE
  8
0
 62
9
  6
CONTINUOUS
 66
1
 70
0
  0
VERTEX
  8
0
 62
9
  6
CONTINUOUS
 10
141.5185211475
 20
112.3425323937
  0
VERTEX
  8
0
 62
9
  6
CONTINUOUS
 10
141.5073769227
 20
112.2418644907
  0
VERTEX
  8
0
 62
9
  6
CONTINUOUS
 10
141.4765695898
 20
112.1453316494
  0
VERTEX
  8
0
 62
9
  6
CONTINUOUS
 10
141.4273645556
 20
112.0568989378
  0
VERTEX
  8
0
 62
9
  6
CONTINUOUS
 10
141.3617829087
 20
111.9801987125
  0
VERTEX
  8
0
 62
9
  6
CONTINUOUS
 10
141.282518404
 20
111.9183814204
  0
VERTEX
  8
0
 62
9
  6
CONTINUOUS
 10
141.1928268172
 20
111.8739861947
  0
VERTEX
  8
0
 62
9
  6
CONTINUOUS
 10
141.0963922143
 20
111.8488365608
  0
VERTEX
  8
0
 62
9
  6
CONTINUOUS
 10
140.9971756293
 20
111.8439655348
  0
VERTEX
  8
0
 62
9
  6
CONTINUOUS
 10
140.8992523654
 20
111.859573193
  0
SEQEND
  0
POLYLINE
  8
0
 62
9
  6
CONTINUOUS
 66
1
 70
0
  0
VERTEX
  8
0
 62
9
  6
CONTINUOUS
 10
141.5070163106
 20
114.1022587903
  0
VERTEX
  8
0
 62
9
  6
CONTINUOUS
 10
141.5163158412
 20
114.1666403895
  0
VERTEX
  8
0
 62
9
  6
CONTINUOUS
 10
141.5392108657
 20
114.2279358726
  0
VERTEX
  8
0
 62
9
  6
CONTINUOUS
 10
141.5746047749
 20
114.2832113948
  0
VERTEX
  8
0
 62
9
  6
CONTINUOUS
 10
141.6208021867
 20
114.3298192533
  0
VERTEX
  8
0
 62
9
  6
CONTINUOUS
 10
141.6755902329
 20
114.3655269338
  0
VERTEX
  8
0
 62
9
  6
CONTINUOUS
 10
141.7363445588
 20
114.3886240443
  0
VERTEX
  8
0
 62
9
  6
CONTINUOUS
 10
141.8001550306
 20
114.39800424
  0
SEQEND
  0
POLYLINE
  8
0
 62
9
  6
CONTINUOUS
 66
1
 70
0
  0
VERTEX
  8
0
 62
9
  6
CONTINUOUS
 10
141.9077622617
 20
117.5949870925
  0
VERTEX
  8
0
 62
9
  6
CONTINUOUS
 10
141.9023394632
 20
117.561255271
  0
VERTEX
  8
0
 62
9
  6
CONTINUOUS
 10
141.8872957796
 20
117.5295066661
  0
VERTEX
  8
0
 62
9
  6
CONTINUOUS
 10
141.8636748451
 20
117.4990031885
  0
VERTEX
  8
0
 62
9
  6
CONTINUOUS
 10
141.8319200653
 20
117.4693091243
  0
SEQEND
  0
LINE
  8
0
 62
9
  6
CONTINUOUS
 10
141.8598761239
 20
117.9078961162
 11
141.8607417959
 21
117.9131770149
  0
POLYLINE
  8
0
 62
9
  6
CONTINUOUS
 66
1
 70
0
  0
VERTEX
  8
0
 62
9
  6
CONTINUOUS
 10
141.251879123
 20
117.4197255461
  0
VERTEX
  8
0
 62
9
  6
CONTINUOUS
 10
141.2239318434
 20
117.3290394702
  0
VERTEX
  8
0
 62
9
  6
CONTINUOUS
 10
141.2031104899
 20
117.2417845026
  0
VERTEX
  8
0
 62
9
  6
CONTINUOUS
 10
141.1885035102
 20
117.1592863212
  0
VERTEX
  8
0
 62
9
  6
CONTINUOUS
 10
141.1792371124
 20
117.0826062604
  0
VERTEX
  8
0
 62
9
  6
CONTINUOUS
 10
141.1743862356
 20
117.012426716
  0
VERTEX
  8
0
 62
9
  6
CONTINUOUS
 10
141.1729905345
 20
116.949553156
  0
SEQEND
  0
POLYLINE
  8
0
 62
9
  6
CONTINUOUS
 66
1
 70
0
  0
VERTEX
  8
0
 62
9
  6
CONTINUOUS
 10
141.6669797414
 20
117.7147055963
  0
VERTEX
  8
0
 62
9
  6
CONTINUOUS
 10
141.675740891
 20
117.7332034881
  0
VERTEX
  8
0
 62
9
  6
CONTINUOUS
 10
141.684474395
 20
117.7499873688
  0
VERTEX
  8
0
 62
9
  6
CONTINUOUS
 10
141.6930474157
 20
117.7650886091
  0
VERTEX
  8
0
 62
9
  6
CONTINUOUS
 10
141.7014482782
 20
117.7787326229
  0
VERTEX
  8
0
 62
9
  6
CONTINUOUS
 10
141.7096706149
 20
117.7911025836
  0
VERTEX
  8
0
 62
9
  6
CONTINUOUS
 10
141.7176977867
 20
117.8023309043
  0
VERTEX
  8
0
 62
9
  6
CONTINUOUS
 10
141.7255364042
 20
117.8125563469
  0
VERTEX
  8
0
 62
9
  6
CONTINUOUS
 10
141.7333014362
 20
117.8220209206
  0
VERTEX
  8
0
 62
9
  6
CONTINUOUS
 10
141.7412461366
 20
117.8310673782
  0
VERTEX
  8
0
 62
9
  6
CONTINUOUS
 10
141.7495717821
 20
117.8399011118
  0
VERTEX
  8
0
 62
9
  6
CONTINUOUS
 10
141.7582578177
 20
117.8484555044
  0
VERTEX
  8
0
 62
9
  6
CONTINUOUS
 10
141.7671131237
 20
117.8565215052
  0
VERTEX
  8
0
 62
9
  6
CONTINUOUS
 10
141.7758792848
 20
117.8638899846
  0
VERTEX
  8
0
 62
9
  6
CONTINUOUS
 10
141.7843358199
 20
117.8704453923
  0
VERTEX
  8
0
 62
9
  6
CONTINUOUS
 10
141.7924146583
 20
117.8762227888
  0
VERTEX
  8
0
 62
9
  6
CONTINUOUS
 10
141.8001893445
 20
117.8813518665
  0
VERTEX
  8
0
 62
9
  6
CONTINUOUS
 10
141.8077692536
 20
117.8859591554
  0
VERTEX
  8
0
 62
9
  6
CONTINUOUS
 10
141.8152296494
 20
117.8901258229
  0
VERTEX
  8
0
 62
9
  6
CONTINUOUS
 10
141.822609094
 20
117.8938976353
  0
VERTEX
  8
0
 62
9
  6
CONTINUOUS
 10
141.8299465483
 20
117.897311401
  0
VERTEX
  8
0
 62
9
  6
CONTINUOUS
 10
141.8373036783
 20
117.9004045519
  0
VERTEX
  8
0
 62
9
  6
CONTINUOUS
 10
141.8447390052
 20
117.9032015458
  0
VERTEX
  8
0
 62
9
  6
CONTINUOUS
 10
141.8522679061
 20
117.9057025152
  0
VERTEX
  8
0
 62
9
  6
CONTINUOUS
 10
141.8598750236
 20
117.9078962606
  0
SEQEND
  0
LINE
  8
0
 62
7
  6
CONTINUOUS
 10
141.1745205943
 20
111.7858152934
 11
141.2540232769
 21
111.7712750067
  0
LINE
  8
0
 62
9
  6
CONTINUOUS
 10
132.8077622617
 20
114.4113426703
 11
141.5185209818
 21
112.3425342529
  0
LINE
  8
0
 62
7
  6
CONTINUOUS
 10
133.1783609361
 20
113.9283798163
 11
141.1740192878
 21
111.785949618
  0
POLYLINE
  8
0
 62
9
  6
CONTINUOUS
 66
1
 70
0
  0
VERTEX
  8
0
 62
9
  6
CONTINUOUS
 10
142.4624073465
 20
114.399496317
  0
VERTEX
  8
0
 62
9
  6
CONTINUOUS
 10
142.4357519368
 20
114.4232873322
  0
VERTEX
  8
0
 62
9
  6
CONTINUOUS
 10
142.4102199234
 20
114.466953269
  0
VERTEX
  8
0
 62
9
  6
CONTINUOUS
 10
142.3868873201
 20
114.528653864
  0
VERTEX
  8
0
 62
9
  6
CONTINUOUS
 10
142.3667374435
 20
114.6057888081
  0
VERTEX
  8
0
 62
9
  6
CONTINUOUS
 10
142.3506194731
 20
114.6951073488
  0
VERTEX
  8
0
 62
9
  6
CONTINUOUS
 10
142.3392126676
 20
114.7928452983
  0
VERTEX
  8
0
 62
9
  6
CONTINUOUS
 10
142.3329977428
 20
114.8948836685
  0
SEQEND
  0
POLYLINE
  8
0
 62
9
  6
CONTINUOUS
 66
1
 70
0
  0
VERTEX
  8
0
 62
9
  6
CONTINUOUS
 10
140.5078830385
 20
123.3680802801
  0
VERTEX
  8
0
 62
9
  6
CONTINUOUS
 10
140.4875831897
 20
123.4625080775
  0
VERTEX
  8
0
 62
9
  6
CONTINUOUS
 10
140.4555658912
 20
123.5534005017
  0
VERTEX
  8
0
 62
9
  6
CONTINUOUS
 10
140.4130298696
 20
123.6373545439
  0
VERTEX
  8
0
 62
9
  6
CONTINUOUS
 10
140.3615676718
 20
123.7112269679
  0
VERTEX
  8
0
 62
9
  6
CONTINUOUS
 10
140.3031060407
 20
123.7722519929
  0
VERTEX
  8
0
 62
9
  6
CONTINUOUS
 10
140.2398337773
 20
123.8181448444
  0
VERTEX
  8
0
 62
9
  6
CONTINUOUS
 10
140.174119793
 20
123.8471872957
  0
VERTEX
  8
0
 62
9
  6
CONTINUOUS
 10
140.1084244167
 20
123.8582919985
  0
VERTEX
  8
0
 62
9
  6
CONTINUOUS
 10
140.0452072808
 20
123.8510431932
  0
SEQEND
  0
LINE
  8
0
 62
9
  6
CONTINUOUS
 10
141.8607417795
 20
118.0262800593
 11
141.7800658943
 21
118.5197285385
  0
POLYLINE
  8
0
 62
9
  6
CONTINUOUS
 66
1
 70
0
  0
VERTEX
  8
0
 62
9
  6
CONTINUOUS
 10
142.3329978234
 20
116.949553156
  0
VERTEX
  8
0
 62
9
  6
CONTINUOUS
 10
142.3320519784
 20
116.9578018558
  0
VERTEX
  8
0
 62
9
  6
CONTINUOUS
 10
142.3303749839
 20
116.9663619907
  0
VERTEX
  8
0
 62
9
  6
CONTINUOUS
 10
142.3278811273
 20
116.9753128175
  0
VERTEX
  8
0
 62
9
  6
CONTINUOUS
 10
142.3244687451
 20
116.9847287434
  0
VERTEX
  8
0
 62
9
  6
CONTINUOUS
 10
142.3200078938
 20
116.9947141876
  0
VERTEX
  8
0
 62
9
  6
CONTINUOUS
 10
142.3143251485
 20
117.0054149335
  0
VERTEX
  8
0
 62
9
  6
CONTINUOUS
 10
142.3072252404
 20
117.0169674167
  0
VERTEX
  8
0
 62
9
  6
CONTINUOUS
 10
142.2985728627
 20
117.0294035985
  0
VERTEX
  8
0
 62
9
  6
CONTINUOUS
 10
142.2884541557
 20
117.0425116213
  0
VERTEX
  8
0
 62
9
  6
CONTINUOUS
 10
142.2770780062
 20
117.0560454103
  0
VERTEX
  8
0
 62
9
  6
CONTINUOUS
 10
142.264577079
 20
117.0699281111
  0
VERTEX
  8
0
 62
9
  6
CONTINUOUS
 10
142.2509152808
 20
117.084278585
  0
VERTEX
  8
0
 62
9
  6
CONTINUOUS
 10
142.2362026668
 20
117.0990512367
  0
VERTEX
  8
0
 62
9
  6
CONTINUOUS
 10
142.2205790561
 20
117.1141770371
  0
VERTEX
  8
0
 62
9
  6
CONTINUOUS
 10
142.2041551431
 20
117.1296153567
  0
VERTEX
  8
0
 62
9
  6
CONTINUOUS
 10
142.1870433893
 20
117.1453180458
  0
VERTEX
  8
0
 62
9
  6
CONTINUOUS
 10
142.1693573893
 20
117.1612290858
  0
VERTEX
  8
0
 62
9
  6
CONTINUOUS
 10
142.1512067929
 20
117.177289261
  0
VERTEX
  8
0
 62
9
  6
CONTINUOUS
 10
142.132661879
 20
117.193467638
  0
VERTEX
  8
0
 62
9
  6
CONTINUOUS
 10
142.1137714124
 20
117.2097459191
  0
VERTEX
  8
0
 62
9
  6
CONTINUOUS
 10
142.0945717353
 20
117.2261121208
  0
VERTEX
  8
0
 62
9
  6
CONTINUOUS
 10
142.0750706176
 20
117.2425760696
  0
VERTEX
  8
0
 62
9
  6
CONTINUOUS
 10
142.0351270123
 20
117.2758921376
  0
SEQEND
  0
POLYLINE
  8
0
 62
9
  6
CONTINUOUS
 66
1
 70
0
  0
VERTEX
  8
0
 62
9
  6
CONTINUOUS
 10
141.6077622617
 20
121.3611968478
  0
VERTEX
  8
0
 62
9
  6
CONTINUOUS
 10
141.6152838176
 20
121.2951741332
  0
VERTEX
  8
0
 62
9
  6
CONTINUOUS
 10
141.6374713506
 20
121.2324619925
  0
VERTEX
  8
0
 62
9
  6
CONTINUOUS
 10
141.6732123507
 20
121.1762050346
  0
VERTEX
  8
0
 62
9
  6
CONTINUOUS
 10
141.720714699
 20
121.129224217
  0
VERTEX
  8
0
 62
9
  6
CONTINUOUS
 10
141.7775965117
 20
121.0938753962
  0
VERTEX
  8
0
 62
9
  6
CONTINUOUS
 10
141.8410055573
 20
121.0719311923
  0
VERTEX
  8
0
 62
9
  6
CONTINUOUS
 10
141.9077622617
 20
121.0644920888
  0
SEQEND
  0
LINE
  8
0
 62
9
  6
CONTINUOUS
 10
143.1077622617
 20
120.8824237757
 11
143.1077622617
 21
118.0682614203
  0
LINE
  8
0
 62
9
  6
CONTINUOUS
 10
143.6776152973
 20
114.3782768181
 11
143.6776153098
 21
114.1022587898
  0
POLYLINE
  8
0
 62
9
  6
CONTINUOUS
 66
1
 70
0
  0
VERTEX
  8
0
 62
9
  6
CONTINUOUS
 10
141.800147263
 20
112.7345095322
  0
VERTEX
  8
0
 62
9
  6
CONTINUOUS
 10
141.7868658001
 20
112.6768697202
  0
VERTEX
  8
0
 62
9
  6
CONTINUOUS
 10
141.7726983642
 20
112.6121531578
  0
VERTEX
  8
0
 62
9
  6
CONTINUOUS
 10
141.7578947211
 20
112.5401845353
  0
VERTEX
  8
0
 62
9
  6
CONTINUOUS
 10
141.7428298103
 20
112.4611146992
  0
VERTEX
  8
0
 62
9
  6
CONTINUOUS
 10
141.7280191399
 20
112.3755550594
  0
VERTEX
  8
0
 62
9
  6
CONTINUOUS
 10
141.7140895938
 20
112.2844808754
  0
VERTEX
  8
0
 62
9
  6
CONTINUOUS
 10
141.7021315949
 20
112.1921136217
  0
VERTEX
  8
0
 62
9
  6
CONTINUOUS
 10
141.6937885068
 20
112.1109584022
  0
VERTEX
  8
0
 62
9
  6
CONTINUOUS
 10
141.6891950124
 20
112.0481138912
  0
VERTEX
  8
0
 62
9
  6
CONTINUOUS
 10
141.6875070613
 20
112.0025076778
  0
VERTEX
  8
0
 62
9
  6
CONTINUOUS
 10
141.688045589
 20
111.9725831604
  0
SEQEND
  0
POLYLINE
  8
0
 62
9
  6
CONTINUOUS
 66
1
 70
0
  0
VERTEX
  8
0
 62
9
  6
CONTINUOUS
 10
143.1077622617
 20
118.0682614203
  0
VERTEX
  8
0
 62
9
  6
CONTINUOUS
 10
143.0967901744
 20
118.045099927
  0
VERTEX
  8
0
 62
9
  6
CONTINUOUS
 10
143.0633326832
 20
118.022011871
  0
VERTEX
  8
0
 62
9
  6
CONTINUOUS
 10
143.007617616
 20
117.9997274826
  0
VERTEX
  8
0
 62
9
  6
CONTINUOUS
 10
142.931112607
 20
117.9789123579
  0
SEQEND
  0
POLYLINE
  8
0
 62
9
  6
CONTINUOUS
 66
1
 70
0
  0
VERTEX
  8
0
 62
9
  6
CONTINUOUS
 10
141.6669797414
 20
117.7147055963
  0
VERTEX
  8
0
 62
9
  6
CONTINUOUS
 10
141.7042992391
 20
117.6736529952
  0
VERTEX
  8
0
 62
9
  6
CONTINUOUS
 10
141.7486624006
 20
117.6401486704
  0
VERTEX
  8
0
 62
9
  6
CONTINUOUS
 10
141.7985334297
 20
117.6153524969
  0
VERTEX
  8
0
 62
9
  6
CONTINUOUS
 10
141.8521858462
 20
117.6001228929
  0
VERTEX
  8
0
 62
9
  6
CONTINUOUS
 10
141.9077622617
 20
117.5949870925
  0
SEQEND
  0
LINE
  8
0
 62
9
  6
CONTINUOUS
 10
141.1077622616
 20
123.618115852
 11
140.9783527392
 21
124.1010787652
  0
POLYLINE
  8
0
 62
9
  6
CONTINUOUS
 66
1
 70
0
  0
VERTEX
  8
0
 62
9
  6
CONTINUOUS
 10
142.6077622617
 20
118.3657035883
  0
VERTEX
  8
0
 62
9
  6
CONTINUOUS
 10
142.601794467
 20
118.3888318337
  0
VERTEX
  8
0
 62
9
  6
CONTINUOUS
 10
142.5836013129
 20
118.4118833598
  0
VERTEX
  8
0
 62
9
  6
CONTINUOUS
 10
142.5532566113
 20
118.4341657608
  0
VERTEX
  8
0
 62
9
  6
CONTINUOUS
 10
142.5115191694
 20
118.4550050691
  0
VERTEX
  8
0
 62
9
  6
CONTINUOUS
 10
142.4597278235
 20
118.4738281051
  0
VERTEX
  8
0
 62
9
  6
CONTINUOUS
 10
142.3990629279
 20
118.4903289367
  0
VERTEX
  8
0
 62
9
  6
CONTINUOUS
 10
142.3302847297
 20
118.5043298859
  0
VERTEX
  8
0
 62
9
  6
CONTINUOUS
 10
142.2545346681
 20
118.515552204
  0
VERTEX
  8
0
 62
9
  6
CONTINUOUS
 10
142.1738000329
 20
118.5236798605
  0
VERTEX
  8
0
 62
9
  6
CONTINUOUS
 10
142.0910272696
 20
118.5285090404
  0
VERTEX
  8
0
 62
9
  6
CONTINUOUS
 10
142.0077622617
 20
118.5300996898
  0
SEQEND
  0
LINE
  8
0
 62
9
  6
CONTINUOUS
 10
141.6985422186
 20
123.9804484176
 11
141.8036083759
 21
123.5475035569
  0
LINE
  8
0
 62
9
  6
CONTINUOUS
 10
141.8036083759
 20
123.5475035569
 11
141.9077622617
 21
123.1111427457
  0
LINE
  8
0
 62
9
  6
CONTINUOUS
 10
144.5302723407
 20
121.3739001829
 11
144.5302723407
 21
121.0771954239
  0
POLYLINE
  8
0
 62
9
  6
CONTINUOUS
 66
1
 70
0
  0
VERTEX
  8
0
 62
9
  6
CONTINUOUS
 10
141.1729912136
 20
114.5064781007
  0
VERTEX
  8
0
 62
9
  6
CONTINUOUS
 10
141.1895903213
 20
114.5331196715
  0
VERTEX
  8
0
 62
9
  6
CONTINUOUS
 10
141.2056546792
 20
114.5547623079
  0
VERTEX
  8
0
 62
9
  6
CONTINUOUS
 10
141.2211129792
 20
114.5722771643
  0
VERTEX
  8
0
 62
9
  6
CONTINUOUS
 10
141.2359566791
 20
114.5863756027
  0
VERTEX
  8
0
 62
9
  6
CONTINUOUS
 10
141.2501661102
 20
114.5976161691
  0
VERTEX
  8
0
 62
9
  6
CONTINUOUS
 10
141.2646890671
 20
114.6071143679
  0
VERTEX
  8
0
 62
9
  6
CONTINUOUS
 10
141.2812406148
 20
114.6157506094
  0
VERTEX
  8
0
 62
9
  6
CONTINUOUS
 10
141.2995010274
 20
114.6228325369
  0
VERTEX
  8
0
 62
9
  6
CONTINUOUS
 10
141.3193398493
 20
114.628026612
  0
VERTEX
  8
0
 62
9
  6
CONTINUOUS
 10
141.3406068707
 20
114.6309828306
  0
VERTEX
  8
0
 62
9
  6
CONTINUOUS
 10
141.3632365082
 20
114.631444101
  0
VERTEX
  8
0
 62
9
  6
CONTINUOUS
 10
141.3867151003
 20
114.6292868077
  0
VERTEX
  8
0
 62
9
  6
CONTINUOUS
 10
141.4100273263
 20
114.6247400886
  0
VERTEX
  8
0
 62
9
  6
CONTINUOUS
 10
141.4320549334
 20
114.6184758316
  0
VERTEX
  8
0
 62
9
  6
CONTINUOUS
 10
141.4544887279
 20
114.6103360693
  0
VERTEX
  8
0
 62
9
  6
CONTINUOUS
 10
141.4782465191
 20
114.6000371084
  0
VERTEX
  8
0
 62
9
  6
CONTINUOUS
 10
141.5030203848
 20
114.5876514312
  0
VERTEX
  8
0
 62
9
  6
CONTINUOUS
 10
141.5285276379
 20
114.5734152274
  0
VERTEX
  8
0
 62
9
  6
CONTINUOUS
 10
141.5547930434
 20
114.5574381055
  0
VERTEX
  8
0
 62
9
  6
CONTINUOUS
 10
141.5820717069
 20
114.5396872256
  0
VERTEX
  8
0
 62
9
  6
CONTINUOUS
 10
141.6105782279
 20
114.5201734882
  0
VERTEX
  8
0
 62
9
  6
CONTINUOUS
 10
141.6404510639
 20
114.4990578259
  0
VERTEX
  8
0
 62
9
  6
CONTINUOUS
 10
141.6708972174
 20
114.4772705279
  0
VERTEX
  8
0
 62
9
  6
CONTINUOUS
 10
141.7019616782
 20
114.4552989487
  0
VERTEX
  8
0
 62
9
  6
CONTINUOUS
 10
141.7339498394
 20
114.4337299599
  0
VERTEX
  8
0
 62
9
  6
CONTINUOUS
 10
141.7669411188
 20
114.4138229364
  0
VERTEX
  8
0
 62
9
  6
CONTINUOUS
 10
141.8001628901
 20
114.3980086345
  0
SEQEND
  0
LINE
  8
0
 62
9
  6
CONTINUOUS
 10
141.5070163055
 20
112.7345095322
 11
141.800147263
 21
112.7345095322
  0
LINE
  8
0
 62
9
  6
CONTINUOUS
 10
142.0351270123
 20
117.2758921376
 11
141.9503470439
 21
117.3457173276
  0
POLYLINE
  8
0
 62
9
  6
CONTINUOUS
 66
1
 70
0
  0
VERTEX
  8
0
 62
9
  6
CONTINUOUS
 10
141.9503470439
 20
117.3457173276
  0
VERTEX
  8
0
 62
9
  6
CONTINUOUS
 10
141.9279748282
 20
117.3642809397
  0
VERTEX
  8
0
 62
9
  6
CONTINUOUS
 10
141.9075144349
 20
117.3815126443
  0
VERTEX
  8
0
 62
9
  6
CONTINUOUS
 10
141.8899040646
 20
117.3966945639
  0
VERTEX
  8
0
 62
9
  6
CONTINUOUS
 10
141.8752639884
 20
117.4097347786
  0
VERTEX
  8
0
 62
9
  6
CONTINUOUS
 10
141.8632462108
 20
117.4209142528
  0
VERTEX
  8
0
 62
9
  6
CONTINUOUS
 10
141.85347119
 20
117.430542667
  0
VERTEX
  8
0
 62
9
  6
CONTINUOUS
 10
141.8457310538
 20
117.4387683034
  0
VERTEX
  8
0
 62
9
  6
CONTINUOUS
 10
141.8397922179
 20
117.4457630319
  0
VERTEX
  8
0
 62
9
  6
CONTINUOUS
 10
141.8354447363
 20
117.4516802042
  0
VERTEX
  8
0
 62
9
  6
CONTINUOUS
 10
141.8325054645
 20
117.4566509784
  0
VERTEX
  8
0
 62
9
  6
CONTINUOUS
 10
141.8308093705
 20
117.4607977728
  0
VERTEX
  8
0
 62
9
  6
CONTINUOUS
 10
141.8302163282
 20
117.4642333135
  0
VERTEX
  8
0
 62
9
  6
CONTINUOUS
 10
141.8306165025
 20
117.4670467156
  0
VERTEX
  8
0
 62
9
  6
CONTINUOUS
 10
141.8319200442
 20
117.4693091251
  0
SEQEND
  0
POLYLINE
  8
0
 62
9
  6
CONTINUOUS
 66
1
 70
0
  0
VERTEX
  8
0
 62
9
  6
CONTINUOUS
 10
141.1729905345
 20
114.5064751637
  0
VERTEX
  8
0
 62
9
  6
CONTINUOUS
 10
141.1907269958
 20
114.5244630745
  0
VERTEX
  8
0
 62
9
  6
CONTINUOUS
 10
141.2069043699
 20
114.5362772776
  0
VERTEX
  8
0
 62
9
  6
CONTINUOUS
 10
141.2214034132
 20
114.5431622235
  0
VERTEX
  8
0
 62
9
  6
CONTINUOUS
 10
141.2342047601
 20
114.5461867219
  0
VERTEX
  8
0
 62
9
  6
CONTINUOUS
 10
141.245384272
 20
114.5463325727
  0
VERTEX
  8
0
 62
9
  6
CONTINUOUS
 10
141.2556541924
 20
114.5442580228
  0
VERTEX
  8
0
 62
9
  6
CONTINUOUS
 10
141.2659098022
 20
114.5398047817
  0
VERTEX
  8
0
 62
9
  6
CONTINUOUS
 10
141.2757206207
 20
114.5330754261
  0
VERTEX
  8
0
 62
9
  6
CONTINUOUS
 10
141.2847781135
 20
114.5244792969
  0
VERTEX
  8
0
 62
9
  6
CONTINUOUS
 10
141.2932883547
 20
114.5141429855
  0
VERTEX
  8
0
 62
9
  6
CONTINUOUS
 10
141.301416369
 20
114.5022046623
  0
VERTEX
  8
0
 62
9
  6
CONTINUOUS
 10
141.3094276297
 20
114.4885722675
  0
VERTEX
  8
0
 62
9
  6
CONTINUOUS
 10
141.3172179978
 20
114.4737703789
  0
VERTEX
  8
0
 62
9
  6
CONTINUOUS
 10
141.3246653724
 20
114.4584440237
  0
VERTEX
  8
0
 62
9
  6
CONTINUOUS
 10
141.3324323228
 20
114.4415104098
  0
VERTEX
  8
0
 62
9
  6
CONTINUOUS
 10
141.3409368863
 20
114.4221455207
  0
VERTEX
  8
0
 62
9
  6
CONTINUOUS
 10
141.3501966489
 20
114.4004139273
  0
SEQEND
  0
LINE
  8
0
 62
9
  6
CONTINUOUS
 10
142.8299764438
 20
117.9849213434
 11
142.8117212663
 21
117.9701042153
  0
POLYLINE
  8
0
 62
9
  6
CONTINUOUS
 66
1
 70
0
  0
VERTEX
  8
0
 62
9
  6
CONTINUOUS
 10
141.2518781476
 20
117.4197229134
  0
VERTEX
  8
0
 62
9
  6
CONTINUOUS
 10
141.3148713584
 20
117.4621442618
  0
VERTEX
  8
0
 62
9
  6
CONTINUOUS
 10
141.375702146
 20
117.5061739291
  0
VERTEX
  8
0
 62
9
  6
CONTINUOUS
 10
141.4285212746
 20
117.5458917114
  0
VERTEX
  8
0
 62
9
  6
CONTINUOUS
 10
141.4717312736
 20
117.5777820691
  0
VERTEX
  8
0
 62
9
  6
CONTINUOUS
 10
141.5055690305
 20
117.6009556855
  0
VERTEX
  8
0
 62
9
  6
CONTINUOUS
 10
141.5317980731
 20
117.6169411451
  0
VERTEX
  8
0
 62
9
  6
CONTINUOUS
 10
141.5526320154
 20
117.6280254137
  0
VERTEX
  8
0
 62
9
  6
CONTINUOUS
 10
141.5699262752
 20
117.6361568395
  0
SEQEND
  0
POLYLINE
  8
0
 62
9
  6
CONTINUOUS
 66
1
 70
0
  0
VERTEX
  8
0
 62
9
  6
CONTINUOUS
 10
141.5699261676
 20
117.6361570767
  0
VERTEX
  8
0
 62
9
  6
CONTINUOUS
 10
141.6167357387
 20
117.6620189951
  0
VERTEX
  8
0
 62
9
  6
CONTINUOUS
 10
141.6491817928
 20
117.6882266212
  0
VERTEX
  8
0
 62
9
  6
CONTINUOUS
 10
141.6669796958
 20
117.7147055381
  0
SEQEND
  0
POLYLINE
  8
0
 62
9
  6
CONTINUOUS
 66
1
 70
0
  0
VERTEX
  8
0
 62
9
  6
CONTINUOUS
 10
142.2922501995
 20
114.3973894793
  0
VERTEX
  8
0
 62
9
  6
CONTINUOUS
 10
142.1279893748
 20
114.3963099123
  0
VERTEX
  8
0
 62
9
  6
CONTINUOUS
 10
141.9638868185
 20
114.3965425736
  0
VERTEX
  8
0
 62
9
  6
CONTINUOUS
 10
141.8001550306
 20
114.3980043079
  0
SEQEND
  0
POLYLINE
  8
0
 62
9
  6
CONTINUOUS
 66
1
 70
0
  0
VERTEX
  8
0
 62
9
  6
CONTINUOUS
 10
142.866913801
 20
114.4022587898
  0
VERTEX
  8
0
 62
9
  6
CONTINUOUS
 10
142.6989646557
 20
114.4017839606
  0
VERTEX
  8
0
 62
9
  6
CONTINUOUS
 10
142.2922501995
 20
114.3973894793
  0
SEQEND
  0
LINE
  8
0
 62
9
  6
CONTINUOUS
 10
141.5070163055
 20
114.1022587898
 11
143.6778026564
 21
114.1022587898
  0
POLYLINE
  8
0
 62
7
  6
CONTINUOUS
 66
1
 70
0
  0
VERTEX
  8
0
 62
7
  6
CONTINUOUS
 10
142.866913801
 20
114.4022587898
  0
VERTEX
  8
0
 62
7
  6
CONTINUOUS
 10
142.900784947
 20
114.4022048699
  0
VERTEX
  8
0
 62
7
  6
CONTINUOUS
 10
143.110442987
 20
114.3994664863
  0
VERTEX
  8
0
 62
7
  6
CONTINUOUS
 10
143.2881768441
 20
114.393872054
  0
SEQEND
  0
POLYLINE
  8
0
 62
7
  6
CONTINUOUS
 66
1
 70
0
  0
VERTEX
  8
0
 62
7
  6
CONTINUOUS
 10
160.8230696773
 20
113.6916824338
  0
VERTEX
  8
0
 62
7
  6
CONTINUOUS
 10
161.2923465133
 20
113.6767772192
  0
VERTEX
  8
0
 62
7
  6
CONTINUOUS
 10
161.7965886228
 20
113.669094893
  0
VERTEX
  8
0
 62
7
  6
CONTINUOUS
 10
162.2934328195
 20
113.6697003552
  0
VERTEX
  8
0
 62
7
  6
CONTINUOUS
 10
162.7675444999
 20
113.6778602708
  0
VERTEX
  8
0
 62
7
  6
CONTINUOUS
 10
163.2060658126
 20
113.6922308133
  0
VERTEX
  8
0
 62
7
  6
CONTINUOUS
 10
163.6063854682
 20
113.7114444484
  0
VERTEX
  8
0
 62
7
  6
CONTINUOUS
 10
163.9717518703
 20
113.7345161404
  0
VERTEX
  8
0
 62
7
  6
CONTINUOUS
 10
164.3057987862
 20
113.7607558015
  0
VERTEX
  8
0
 62
7
  6
CONTINUOUS
 10
164.6118927157
 20
113.7896966181
  0
VERTEX
  8
0
 62
7
  6
CONTINUOUS
 10
164.8933099824
 20
113.8210828175
  0
VERTEX
  8
0
 62
7
  6
CONTINUOUS
 10
165.1523000832
 20
113.8547367459
  0
VERTEX
  8
0
 62
7
  6
CONTINUOUS
 10
165.3893600773
 20
113.8903625329
  0
VERTEX
  8
0
 62
7
  6
CONTINUOUS
 10
165.6050651587
 20
113.9277034914
  0
VERTEX
  8
0
 62
7
  6
CONTINUOUS
 10
165.8003008163
 20
113.9665870904
  0
VERTEX
  8
0
 62
7
  6
CONTINUOUS
 10
165.9762207155
 20
114.006952694
  0
VERTEX
  8
0
 62
7
  6
CONTINUOUS
 10
166.1342709199
 20
114.0489062686
  0
VERTEX
  8
0
 62
7
  6
CONTINUOUS
 10
166.2761916195
 20
114.0927964125
  0
VERTEX
  8
0
 62
7
  6
CONTINUOUS
 10
166.4037375151
 20
114.1392425578
  0
VERTEX
  8
0
 62
7
  6
CONTINUOUS
 10
166.5188610943
 20
114.189331049
  0
VERTEX
  8
0
 62
7
  6
CONTINUOUS
 10
166.6239640895
 20
114.2450633573
  0
VERTEX
  8
0
 62
7
  6
CONTINUOUS
 10
166.7214260265
 20
114.3097889552
  0
VERTEX
  8
0
 62
7
  6
CONTINUOUS
 10
166.8120908426
 20
114.3881399492
  0
VERTEX
  8
0
 62
7
  6
CONTINUOUS
 10
166.8934640217
 20
114.4849191737
  0
VERTEX
  8
0
 62
7
  6
CONTINUOUS
 10
166.9583995363
 20
114.6015800307
  0
VERTEX
  8
0
 62
7
  6
CONTINUOUS
 10
166.9979504327
 20
114.7327281643
  0
VERTEX
  8
0
 62
7
  6
CONTINUOUS
 10
167.0077613422
 20
114.8402805999
  0
SEQEND
  0
LINE
  8
0
 62
7
  6
CONTINUOUS
 10
160.8230699563
 20
113.6916823692
 11
143.2881789195
 21
114.393871905
  0
POLYLINE
  8
0
 62
9
  6
CONTINUOUS
 66
1
 70
0
  0
VERTEX
  8
0
 62
9
  6
CONTINUOUS
 10
143.2881768414
 20
114.3938719882
  0
VERTEX
  8
0
 62
9
  6
CONTINUOUS
 10
143.2834345085
 20
114.3944012817
  0
VERTEX
  8
0
 62
9
  6
CONTINUOUS
 10
143.2595785443
 20
114.407886432
  0
VERTEX
  8
0
 62
9
  6
CONTINUOUS
 10
143.2374803098
 20
114.4389313478
  0
VERTEX
  8
0
 62
9
  6
CONTINUOUS
 10
143.2179389233
 20
114.4864133783
  0
VERTEX
  8
0
 62
9
  6
CONTINUOUS
 10
143.2016610416
 20
114.5486154722
  0
VERTEX
  8
0
 62
9
  6
CONTINUOUS
 10
143.1892353065
 20
114.6232882704
  0
VERTEX
  8
0
 62
9
  6
CONTINUOUS
 10
143.1811110575
 20
114.7077314472
  0
VERTEX
  8
0
 62
9
  6
CONTINUOUS
 10
143.1775820834
 20
114.7988913612
  0
VERTEX
  8
0
 62
9
  6
CONTINUOUS
 10
143.1787759984
 20
114.8934714805
  0
SEQEND
  0
LINE
  8
0
 62
9
  6
CONTINUOUS
 10
142.9164198976
 20
118.0306189799
 11
142.8299764438
 21
117.9849213434
  0
POLYLINE
  8
0
 62
7
  6
CONTINUOUS
 66
1
 70
0
  0
VERTEX
  8
0
 62
7
  6
CONTINUOUS
 10
142.8542326457
 20
117.9811274044
  0
VERTEX
  8
0
 62
7
  6
CONTINUOUS
 10
142.8534936834
 20
117.9808761321
  0
VERTEX
  8
0
 62
7
  6
CONTINUOUS
 10
142.841544639
 20
117.9773195983
  0
VERTEX
  8
0
 62
7
  6
CONTINUOUS
 10
142.8162506139
 20
117.9710419069
  0
VERTEX
  8
0
 62
7
  6
CONTINUOUS
 10
142.7787123372
 20
117.9632705167
  0
VERTEX
  8
0
 62
7
  6
CONTINUOUS
 10
142.7292838588
 20
117.9547223616
  0
VERTEX
  8
0
 62
7
  6
CONTINUOUS
 10
142.6681496706
 20
117.9459249751
  0
VERTEX
  8
0
 62
7
  6
CONTINUOUS
 10
142.595562132
 20
117.9373145657
  0
VERTEX
  8
0
 62
7
  6
CONTINUOUS
 10
142.5120584115
 20
117.9292966214
  0
VERTEX
  8
0
 62
7
  6
CONTINUOUS
 10
142.4183962817
 20
117.9222299745
  0
VERTEX
  8
0
 62
7
  6
CONTINUOUS
 10
142.3155896606
 20
117.9164379217
  0
VERTEX
  8
0
 62
7
  6
CONTINUOUS
 10
142.2049500271
 20
117.9122194143
  0
VERTEX
  8
0
 62
7
  6
CONTINUOUS
 10
142.0880379932
 20
117.9098271128
  0
VERTEX
  8
0
 62
7
  6
CONTINUOUS
 10
142.0077622616
 20
117.9093554805
  0
SEQEND
  0
LINE
  8
0
 62
9
  6
CONTINUOUS
 10
144.6128242708
 20
114.2811255744
 11
144.8623041798
 21
114.3308356258
  0
LINE
  8
0
 62
9
  6
CONTINUOUS
 10
144.2225186995
 20
114.2049150275
 11
144.6128242708
 21
114.2811255744
  0
POLYLINE
  8
0
 62
9
  6
CONTINUOUS
 66
1
 70
0
  0
VERTEX
  8
0
 62
9
  6
CONTINUOUS
 10
143.6776153098
 20
114.1022587898
  0
VERTEX
  8
0
 62
9
  6
CONTINUOUS
 10
143.8209810199
 20
114.128703805
  0
VERTEX
  8
0
 62
9
  6
CONTINUOUS
 10
144.2225186995
 20
114.2049150275
  0
SEQEND
  0
POLYLINE
  8
0
 62
9
  6
CONTINUOUS
 66
1
 70
0
  0
VERTEX
  8
0
 62
9
  6
CONTINUOUS
 10
142.3329978234
 20
114.8948836685
  0
VERTEX
  8
0
 62
9
  6
CONTINUOUS
 10
142.1985575654
 20
114.8884809241
  0
VERTEX
  8
0
 62
9
  6
CONTINUOUS
 10
142.0692707195
 20
114.8862041311
  0
VERTEX
  8
0
 62
9
  6
CONTINUOUS
 10
141.9390644535
 20
114.8888727999
  0
SEQEND
  0
POLYLINE
  8
0
 62
9
  6
CONTINUOUS
 66
1
 70
0
  0
VERTEX
  8
0
 62
9
  6
CONTINUOUS
 10
143.1787759984
 20
114.8934714805
  0
VERTEX
  8
0
 62
9
  6
CONTINUOUS
 10
142.9926679139
 20
114.8993312695
  0
VERTEX
  8
0
 62
9
  6
CONTINUOUS
 10
142.7894956736
 20
114.9021375
  0
VERTEX
  8
0
 62
9
  6
CONTINUOUS
 10
142.5695563177
 20
114.9009926193
  0
VERTEX
  8
0
 62
9
  6
CONTINUOUS
 10
142.3329978234
 20
114.8948836685
  0
SEQEND
  0
LINE
  8
0
 62
9
  6
CONTINUOUS
 10
160.7136670362
 20
114.1912819447
 11
143.1787759984
 21
114.8934714805
  0
POLYLINE
  8
0
 62
9
  6
CONTINUOUS
 66
1
 70
0
  0
VERTEX
  8
0
 62
9
  6
CONTINUOUS
 10
141.9390644535
 20
114.8888727999
  0
VERTEX
  8
0
 62
9
  6
CONTINUOUS
 10
141.6939931403
 20
114.9008863876
  0
VERTEX
  8
0
 62
9
  6
CONTINUOUS
 10
141.5906440787
 20
114.9017869349
  0
VERTEX
  8
0
 62
9
  6
CONTINUOUS
 10
141.5023486459
 20
114.8946685917
  0
VERTEX
  8
0
 62
9
  6
CONTINUOUS
 10
141.4277863455
 20
114.8778765728
  0
VERTEX
  8
0
 62
9
  6
CONTINUOUS
 10
141.3648750676
 20
114.8504687759
  0
VERTEX
  8
0
 62
9
  6
CONTINUOUS
 10
141.3114284341
 20
114.8113027351
  0
VERTEX
  8
0
 62
9
  6
CONTINUOUS
 10
141.2656953047
 20
114.7583625425
  0
VERTEX
  8
0
 62
9
  6
CONTINUOUS
 10
141.2270484559
 20
114.6893466677
  0
VERTEX
  8
0
 62
9
  6
CONTINUOUS
 10
141.1960360823
 20
114.6042284973
  0
VERTEX
  8
0
 62
9
  6
CONTINUOUS
 10
141.1729905345
 20
114.5064705497
  0
SEQEND
  0
POLYLINE
  8
0
 62
9
  6
CONTINUOUS
 66
1
 70
0
  0
VERTEX
  8
0
 62
9
  6
CONTINUOUS
 10
160.8230696752
 20
113.6916823805
  0
VERTEX
  8
0
 62
9
  6
CONTINUOUS
 10
160.8183255487
 20
113.6922117453
  0
VERTEX
  8
0
 62
9
  6
CONTINUOUS
 10
160.7944695864
 20
113.7056968901
  0
VERTEX
  8
0
 62
9
  6
CONTINUOUS
 10
160.772371353
 20
113.7367417966
  0
VERTEX
  8
0
 62
9
  6
CONTINUOUS
 10
160.7528299663
 20
113.7842238168
  0
VERTEX
  8
0
 62
9
  6
CONTINUOUS
 10
160.7365520834
 20
113.8464259024
  0
VERTEX
  8
0
 62
9
  6
CONTINUOUS
 10
160.7241263463
 20
113.9210986971
  0
VERTEX
  8
0
 62
9
  6
CONTINUOUS
 10
160.7160020953
 20
114.0055418779
  0
VERTEX
  8
0
 62
9
  6
CONTINUOUS
 10
160.7124731203
 20
114.0967018044
  0
VERTEX
  8
0
 62
9
  6
CONTINUOUS
 10
160.7136670362
 20
114.1912819447
  0
SEQEND
  0
POLYLINE
  8
0
 62
9
  6
CONTINUOUS
 66
1
 70
0
  0
VERTEX
  8
0
 62
9
  6
CONTINUOUS
 10
141.6784770731
 20
111.9382543067
  0
VERTEX
  8
0
 62
9
  6
CONTINUOUS
 10
141.6861694842
 20
111.9466557995
  0
VERTEX
  8
0
 62
9
  6
CONTINUOUS
 10
141.6941758096
 20
111.9547575695
  0
SEQEND
  0
POLYLINE
  8
0
 62
9
  6
CONTINUOUS
 66
1
 70
0
  0
VERTEX
  8
0
 62
9
  6
CONTINUOUS
 10
141.6784766375
 20
111.9382539249
  0
VERTEX
  8
0
 62
9
  6
CONTINUOUS
 10
141.611252299
 20
111.8749054198
  0
VERTEX
  8
0
 62
9
  6
CONTINUOUS
 10
141.5335223492
 20
111.8250038996
  0
VERTEX
  8
0
 62
9
  6
CONTINUOUS
 10
141.4479396188
 20
111.7902524439
  0
VERTEX
  8
0
 62
9
  6
CONTINUOUS
 10
141.3574249443
 20
111.7718370788
  0
VERTEX
  8
0
 62
9
  6
CONTINUOUS
 10
141.2650674839
 20
111.770386299
  0
VERTEX
  8
0
 62
9
  6
CONTINUOUS
 10
141.1740192878
 20
111.7859496181
  0
SEQEND
  0
LINE
  8
0
 62
9
  6
CONTINUOUS
 10
160.7136670362
 20
116.2134942005
 11
142.3329978234
 21
116.949553156
  0
LINE
  8
0
 62
7
  6
CONTINUOUS
 10
141.8607417959
 20
117.9131770149
 11
141.833963479
 21
117.9168151007
  0
POLYLINE
  8
0
 62
9
  6
CONTINUOUS
 66
1
 70
0
  0
VERTEX
  8
0
 62
9
  6
CONTINUOUS
 10
141.8319200464
 20
117.4693091247
  0
VERTEX
  8
0
 62
9
  6
CONTINUOUS
 10
141.7679742766
 20
117.4780512694
  0
VERTEX
  8
0
 62
9
  6
CONTINUOUS
 10
141.7070637798
 20
117.5004622127
  0
VERTEX
  8
0
 62
9
  6
CONTINUOUS
 10
141.6520798215
 20
117.5354781638
  0
VERTEX
  8
0
 62
9
  6
CONTINUOUS
 10
141.6056323514
 20
117.5814370036
  0
VERTEX
  8
0
 62
9
  6
CONTINUOUS
 10
141.5699261676
 20
117.6361570767
  0
SEQEND
  0
POLYLINE
  8
0
 62
9
  6
CONTINUOUS
 66
1
 70
0
  0
VERTEX
  8
0
 62
9
  6
CONTINUOUS
 10
134.821808574
 20
118.0197285385
  0
VERTEX
  8
0
 62
9
  6
CONTINUOUS
 10
134.768690666
 20
118.0273247792
  0
VERTEX
  8
0
 62
9
  6
CONTINUOUS
 10
134.7171865074
 20
118.0498828304
  0
VERTEX
  8
0
 62
9
  6
CONTINUOUS
 10
134.6688608246
 20
118.0867177242
  0
VERTEX
  8
0
 62
9
  6
CONTINUOUS
 10
134.6251823469
 20
118.1367103795
  0
VERTEX
  8
0
 62
9
  6
CONTINUOUS
 10
134.5874786167
 20
118.1983415025
  0
VERTEX
  8
0
 62
9
  6
CONTINUOUS
 10
134.5568954507
 20
118.2697379235
  0
VERTEX
  8
0
 62
9
  6
CONTINUOUS
 10
134.5343617747
 20
118.3487311112
  0
VERTEX
  8
0
 62
9
  6
CONTINUOUS
 10
134.520562805
 20
118.4329178895
  0
VERTEX
  8
0
 62
9
  6
CONTINUOUS
 10
134.5159170756
 20
118.5197285385
  0
SEQEND
  0
LINE
  8
0
 62
7
  6
CONTINUOUS
 10
141.8700588206
 20
117.9118077999
 11
141.8607418463
 21
117.9131770319
  0
LINE
  8
0
 62
9
  6
CONTINUOUS
 10
141.8335078774
 20
117.9144580965
 11
141.8598761239
 21
117.9078961162
  0
LINE
  8
0
 62
9
  6
CONTINUOUS
 10
141.6784770731
 20
111.9382543067
 11
141.6813254902
 21
111.9407942889
  0
LINE
  8
0
 62
9
  6
CONTINUOUS
 10
142.3329978234
 20
116.949553156
 11
141.1729905345
 21
116.949553156
  0
LINE
  8
0
 62
9
  6
CONTINUOUS
 10
132.8077622617
 20
117.4197285385
 11
141.251879123
 21
117.4197255461
  0
LINE
  8
0
 62
9
  6
CONTINUOUS
 10
142.0077622617
 20
117.9038653188
 11
141.9077622617
 21
117.9038653188
  0
LINE
  8
0
 62
7
  6
CONTINUOUS
 10
142.0077622617
 20
117.9093573871
 11
141.9077622622
 21
117.9093573871
  0
LINE
  8
0
 62
7
  6
CONTINUOUS
 10
133.3077622638
 20
117.9197285385
 11
141.7800658943
 21
117.9197285385
  0
LINE
  8
CURVE
 62
4
  6
CONTINUOUS
 10
142.0077622617
 20
117.9697285385
 11
139.8998252607
 21
117.9697285385
  0
LINE
  8
DEFAULT_1
 62
7
  6
CENTER
 10
130.8077622617
 20
117.9697285385
 11
169.0077622617
 21
117.9697285385
  0
LINE
  8
0
 62
7
  6
CONTINUOUS
 10
141.7800658943
 20
118.0197285385
 11
133.3077622638
 21
118.0197285385
  0
LINE
  8
0
 62
7
  6
CONTINUOUS
 10
142.0077622617
 20
118.0300996898
 11
141.9077622622
 21
118.0300996898
  0
POLYLINE
  8
0
 62
7
  6
CONTINUOUS
 66
1
 70
0
  0
VERTEX
  8
0
 62
7
  6
CONTINUOUS
 10
142.0077622617
 20
118.0301021916
  0
VERTEX
  8
0
 62
7
  6
CONTINUOUS
 10
142.0886078885
 20
118.0296224855
  0
VERTEX
  8
0
 62
7
  6
CONTINUOUS
 10
142.2060303506
 20
118.0272054723
  0
VERTEX
  8
0
 62
7
  6
CONTINUOUS
 10
142.3171105037
 20
118.0229474493
  0
VERTEX
  8
0
 62
7
  6
CONTINUOUS
 10
142.4202626369
 20
118.0171043633
  0
VERTEX
  8
0
 62
7
  6
CONTINUOUS
 10
142.5141511029
 20
118.0099800947
  0
VERTEX
  8
0
 62
7
  6
CONTINUOUS
 10
142.5977593567
 20
118.0019064122
  0
VERTEX
  8
0
 62
7
  6
CONTINUOUS
 10
142.6077622617
 20
118.000712607
  0
SEQEND
  0
POLYLINE
  8
0
 62
7
  6
CONTINUOUS
 66
1
 70
0
  0
VERTEX
  8
0
 62
7
  6
CONTINUOUS
 10
141.9077622622
 20
117.9093587067
  0
VERTEX
  8
0
 62
7
  6
CONTINUOUS
 10
141.9002463613
 20
117.9094552641
  0
VERTEX
  8
0
 62
7
  6
CONTINUOUS
 10
141.8700588206
 20
117.9118077999
  0
SEQEND
  0
LINE
  8
0
 62
9
  6
CONTINUOUS
 10
141.8319200653
 20
117.4693091243
 11
160.8430765588
 21
116.7080021321
  0
POLYLINE
  8
0
 62
9
  6
CONTINUOUS
 66
1
 70
0
  0
VERTEX
  8
0
 62
9
  6
CONTINUOUS
 10
141.9077622617
 20
117.9038653188
  0
VERTEX
  8
0
 62
9
  6
CONTINUOUS
 10
141.8837428703
 20
117.9048745813
  0
VERTEX
  8
0
 62
9
  6
CONTINUOUS
 10
141.8598750236
 20
117.9078962606
  0
SEQEND
  0
POLYLINE
  8
0
 62
9
  6
CONTINUOUS
 66
1
 70
0
  0
VERTEX
  8
0
 62
9
  6
CONTINUOUS
 10
141.7800658943
 20
117.9197285385
  0
VERTEX
  8
0
 62
9
  6
CONTINUOUS
 10
141.806857586
 20
117.9184091875
  0
VERTEX
  8
0
 62
9
  6
CONTINUOUS
 10
141.8335078774
 20
117.9144580965
  0
SEQEND
  0
POLYLINE
  8
0
 62
7
  6
CONTINUOUS
 66
1
 70
0
  0
VERTEX
  8
0
 62
7
  6
CONTINUOUS
 10
141.833963479
 20
117.9168151007
  0
VERTEX
  8
0
 62
7
  6
CONTINUOUS
 10
141.8070463175
 20
117.9190000646
  0
VERTEX
  8
0
 62
7
  6
CONTINUOUS
 10
141.7800658943
 20
117.9197285385
  0
SEQEND
  0
POLYLINE
  8
0
 62
9
  6
CONTINUOUS
 66
1
 70
0
  0
VERTEX
  8
0
 62
9
  6
CONTINUOUS
 10
141.2656755627
 20
117.9197285867
  0
VERTEX
  8
0
 62
9
  6
CONTINUOUS
 10
141.3585439248
 20
117.9109224168
  0
VERTEX
  8
0
 62
9
  6
CONTINUOUS
 10
141.4481410307
 20
117.8848141187
  0
VERTEX
  8
0
 62
9
  6
CONTINUOUS
 10
141.5313108544
 20
117.8423233476
  0
VERTEX
  8
0
 62
9
  6
CONTINUOUS
 10
141.6051237685
 20
117.7849468256
  0
VERTEX
  8
0
 62
9
  6
CONTINUOUS
 10
141.6669797394
 20
117.7147056198
  0
SEQEND
  0
POLYLINE
  8
0
 62
9
  6
CONTINUOUS
 66
1
 70
0
  0
VERTEX
  8
0
 62
9
  6
CONTINUOUS
 10
141.1332694077
 20
117.9197285385
  0
VERTEX
  8
0
 62
9
  6
CONTINUOUS
 10
141.2234130057
 20
117.9109941173
  0
VERTEX
  8
0
 62
9
  6
CONTINUOUS
 10
141.3104071917
 20
117.8850960238
  0
VERTEX
  8
0
 62
9
  6
CONTINUOUS
 10
141.3912125899
 20
117.8429390769
  0
VERTEX
  8
0
 62
9
  6
CONTINUOUS
 10
141.4630060465
 20
117.7859961418
  0
VERTEX
  8
0
 62
9
  6
CONTINUOUS
 10
141.5232792639
 20
117.7162566719
  0
VERTEX
  8
0
 62
9
  6
CONTINUOUS
 10
141.5699264348
 20
117.6361572012
  0
SEQEND
  0
POLYLINE
  8
0
 62
9
  6
CONTINUOUS
 66
1
 70
0
  0
VERTEX
  8
0
 62
9
  6
CONTINUOUS
 10
140.7923210101
 20
117.9197285385
  0
VERTEX
  8
0
 62
9
  6
CONTINUOUS
 10
140.8819766787
 20
117.9101210129
  0
VERTEX
  8
0
 62
9
  6
CONTINUOUS
 10
140.9681868739
 20
117.8816676626
  0
VERTEX
  8
0
 62
9
  6
CONTINUOUS
 10
141.0476385371
 20
117.8354619726
  0
VERTEX
  8
0
 62
9
  6
CONTINUOUS
 10
141.1172783471
 20
117.7732796474
  0
VERTEX
  8
0
 62
9
  6
CONTINUOUS
 10
141.1744300574
 20
117.6975103679
  0
VERTEX
  8
0
 62
9
  6
CONTINUOUS
 10
141.2168973418
 20
117.6110659549
  0
VERTEX
  8
0
 62
9
  6
CONTINUOUS
 10
141.2430481963
 20
117.5172684672
  0
VERTEX
  8
0
 62
9
  6
CONTINUOUS
 10
141.2518776546
 20
117.4197285385
  0
SEQEND
  0
LINE
  8
0
 62
9
  6
CONTINUOUS
 10
142.931112607
 20
117.9789123579
 11
142.836206216
 21
117.9601100829
  0
POLYLINE
  8
0
 62
9
  6
CONTINUOUS
 66
1
 70
0
  0
VERTEX
  8
0
 62
9
  6
CONTINUOUS
 10
142.836206216
 20
117.9601100829
  0
VERTEX
  8
0
 62
9
  6
CONTINUOUS
 10
142.7249508685
 20
117.9436117204
  0
VERTEX
  8
0
 62
9
  6
CONTINUOUS
 10
142.5987057862
 20
117.9296029714
  0
VERTEX
  8
0
 62
9
  6
CONTINUOUS
 10
142.4597015437
 20
117.918381327
  0
VERTEX
  8
0
 62
9
  6
CONTINUOUS
 10
142.3118716303
 20
117.9102728815
  0
VERTEX
  8
0
 62
9
  6
CONTINUOUS
 10
142.1596629658
 20
117.9054403194
  0
VERTEX
  8
0
 62
9
  6
CONTINUOUS
 10
142.0077622617
 20
117.9038653188
  0
SEQEND
  0
POLYLINE
  8
0
 62
7
  6
CONTINUOUS
 66
1
 70
0
  0
VERTEX
  8
0
 62
7
  6
CONTINUOUS
 10
141.8607418249
 20
118.02628007
  0
VERTEX
  8
0
 62
7
  6
CONTINUOUS
 10
141.8700622539
 20
118.0276497404
  0
VERTEX
  8
0
 62
7
  6
CONTINUOUS
 10
141.9002500894
 20
118.0300019654
  0
VERTEX
  8
0
 62
7
  6
CONTINUOUS
 10
141.9077622622
 20
118.0300984245
  0
SEQEND
  0
POLYLINE
  8
0
 62
7
  6
CONTINUOUS
 66
1
 70
0
  0
VERTEX
  8
0
 62
7
  6
CONTINUOUS
 10
141.8607417794
 20
118.0262800593
  0
VERTEX
  8
0
 62
7
  6
CONTINUOUS
 10
141.8339634506
 20
118.0226419731
  0
VERTEX
  8
0
 62
7
  6
CONTINUOUS
 10
141.8070463033
 20
118.0204570116
  0
VERTEX
  8
0
 62
7
  6
CONTINUOUS
 10
141.7800658943
 20
118.0197285385
  0
SEQEND
  0
POLYLINE
  8
0
 62
9
  6
CONTINUOUS
 66
1
 70
0
  0
VERTEX
  8
0
 62
9
  6
CONTINUOUS
 10
140.1746168034
 20
118.0197285385
  0
VERTEX
  8
0
 62
9
  6
CONTINUOUS
 10
140.2324878778
 20
118.027324662
  0
VERTEX
  8
0
 62
9
  6
CONTINUOUS
 10
140.2886005689
 20
118.0498822281
  0
VERTEX
  8
0
 62
9
  6
CONTINUOUS
 10
140.3412499209
 20
118.0867158366
  0
VERTEX
  8
0
 62
9
  6
CONTINUOUS
 10
140.38883621
 20
118.1367063169
  0
VERTEX
  8
0
 62
9
  6
CONTINUOUS
 10
140.4299135509
 20
118.1983347336
  0
VERTEX
  8
0
 62
9
  6
CONTINUOUS
 10
140.4632338292
 20
118.2697285385
  0
VERTEX
  8
0
 62
9
  6
CONTINUOUS
 10
140.4877846253
 20
118.3487184668
  0
VERTEX
  8
0
 62
9
  6
CONTINUOUS
 10
140.5028199755
 20
118.4329044496
  0
VERTEX
  8
0
 62
9
  6
CONTINUOUS
 10
140.5078830385
 20
118.5197285385
  0
SEQEND
  0
POLYLINE
  8
0
 62
9
  6
CONTINUOUS
 66
1
 70
0
  0
VERTEX
  8
0
 62
9
  6
CONTINUOUS
 10
143.1077622617
 20
118.0682614203
  0
VERTEX
  8
0
 62
9
  6
CONTINUOUS
 10
143.0102166871
 20
118.0587595077
  0
VERTEX
  8
0
 62
9
  6
CONTINUOUS
 10
142.9164198976
 20
118.0306189799
  0
SEQEND
  0
POLYLINE
  8
0
 62
9
  6
CONTINUOUS
 66
1
 70
0
  0
VERTEX
  8
0
 62
9
  6
CONTINUOUS
 10
141.9077622617
 20
118.5300996898
  0
VERTEX
  8
0
 62
9
  6
CONTINUOUS
 10
141.8434838459
 20
118.5274848197
  0
VERTEX
  8
0
 62
9
  6
CONTINUOUS
 10
141.780048423
 20
118.5197285385
  0
SEQEND
  0
LINE
  8
0
 62
9
  6
CONTINUOUS
 10
141.780048423
 20
118.5197285385
 11
132.8077622617
 21
118.5197285385
  0
LINE
  8
0
 62
9
  6
CONTINUOUS
 10
142.0077622617
 20
118.5300996898
 11
141.9077622617
 21
118.5300996898
  0
POLYLINE
  8
0
 62
9
  6
CONTINUOUS
 66
1
 70
0
  0
VERTEX
  8
0
 62
9
  6
CONTINUOUS
 10
139.5665590255
 20
118.0197285385
  0
VERTEX
  8
0
 62
9
  6
CONTINUOUS
 10
139.6244308958
 20
118.0273248725
  0
VERTEX
  8
0
 62
9
  6
CONTINUOUS
 10
139.6805446065
 20
118.0498832194
  0
VERTEX
  8
0
 62
9
  6
CONTINUOUS
 10
139.7331953682
 20
118.0867186302
  0
VERTEX
  8
0
 62
9
  6
CONTINUOUS
 10
139.7807829464
 20
118.1367119999
  0
VERTEX
  8
0
 62
9
  6
CONTINUOUS
 10
139.8218609732
 20
118.1983440317
  0
VERTEX
  8
0
 62
9
  6
CONTINUOUS
 10
139.8551809502
 20
118.2697412689
  0
VERTEX
  8
0
 62
9
  6
CONTINUOUS
 10
139.8797309629
 20
118.348735432
  0
VERTEX
  8
0
 62
9
  6
CONTINUOUS
 10
139.894764305
 20
118.4329223816
  0
VERTEX
  8
0
 62
9
  6
CONTINUOUS
 10
139.8998252607
 20
118.5197285385
  0
SEQEND
  0
LINE
  8
0
 62
9
  6
CONTINUOUS
 10
141.8989752894
 20
120.5523118301
 11
142.0077622617
 21
120.5523119455
  0
POLYLINE
  8
0
 62
9
  6
CONTINUOUS
 66
1
 70
0
  0
VERTEX
  8
0
 62
9
  6
CONTINUOUS
 10
142.0077622617
 20
120.5523119455
  0
VERTEX
  8
0
 62
9
  6
CONTINUOUS
 10
142.0910272696
 20
120.5507212965
  0
VERTEX
  8
0
 62
9
  6
CONTINUOUS
 10
142.1738000329
 20
120.5458921162
  0
VERTEX
  8
0
 62
9
  6
CONTINUOUS
 10
142.2545346681
 20
120.5377644596
  0
VERTEX
  8
0
 62
9
  6
CONTINUOUS
 10
142.3302847297
 20
120.5265421416
  0
VERTEX
  8
0
 62
9
  6
CONTINUOUS
 10
142.3990629279
 20
120.5125411924
  0
VERTEX
  8
0
 62
9
  6
CONTINUOUS
 10
142.4597278235
 20
120.4960403607
  0
VERTEX
  8
0
 62
9
  6
CONTINUOUS
 10
142.5115191695
 20
120.4772173254
  0
VERTEX
  8
0
 62
9
  6
CONTINUOUS
 10
142.5532566112
 20
120.4563780153
  0
VERTEX
  8
0
 62
9
  6
CONTINUOUS
 10
142.583601313
 20
120.4340956179
  0
VERTEX
  8
0
 62
9
  6
CONTINUOUS
 10
142.6017944669
 20
120.411044086
  0
VERTEX
  8
0
 62
9
  6
CONTINUOUS
 10
142.6077622617
 20
120.387915844
  0
SEQEND
  0
POLYLINE
  8
0
 62
7
  6
CONTINUOUS
 66
1
 70
0
  0
VERTEX
  8
0
 62
7
  6
CONTINUOUS
 10
145.6174002856
 20
121.4363287488
  0
VERTEX
  8
0
 62
7
  6
CONTINUOUS
 10
145.6187607048
 20
121.4359820331
  0
VERTEX
  8
0
 62
7
  6
CONTINUOUS
 10
145.6170125455
 20
121.4365597958
  0
VERTEX
  8
0
 62
7
  6
CONTINUOUS
 10
145.6101619834
 20
121.4391098839
  0
SEQEND
  0
POLYLINE
  8
0
 62
9
  6
CONTINUOUS
 66
1
 70
0
  0
VERTEX
  8
0
 62
9
  6
CONTINUOUS
 10
145.7216147347
 20
121.4209331547
  0
VERTEX
  8
0
 62
9
  6
CONTINUOUS
 10
145.6867848991
 20
121.4315367838
  0
VERTEX
  8
0
 62
9
  6
CONTINUOUS
 10
145.6336665497
 20
121.442438203
  0
SEQEND
  0
LINE
  8
0
 62
9
  6
CONTINUOUS
 10
145.6101874365
 20
121.4390997026
 11
145.646172044
 21
121.4276744261
  0
POLYLINE
  8
0
 62
9
  6
CONTINUOUS
 66
1
 70
0
  0
VERTEX
  8
0
 62
9
  6
CONTINUOUS
 10
146.330452473
 20
121.1967389992
  0
VERTEX
  8
0
 62
9
  6
CONTINUOUS
 10
146.0220947302
 20
121.3054934645
  0
VERTEX
  8
0
 62
9
  6
CONTINUOUS
 10
145.7216147347
 20
121.4209331547
  0
SEQEND
  0
POLYLINE
  8
0
 62
9
  6
CONTINUOUS
 66
1
 70
0
  0
VERTEX
  8
0
 62
9
  6
CONTINUOUS
 10
146.234596187
 20
121.2091745476
  0
VERTEX
  8
0
 62
9
  6
CONTINUOUS
 10
146.2524037378
 20
121.2021815517
  0
VERTEX
  8
0
 62
9
  6
CONTINUOUS
 10
146.2604970148
 20
121.1967014589
  0
VERTEX
  8
0
 62
9
  6
CONTINUOUS
 10
146.2603499224
 20
121.1924505792
  0
VERTEX
  8
0
 62
9
  6
CONTINUOUS
 10
146.252053738
 20
121.1890874474
  0
VERTEX
  8
0
 62
9
  6
CONTINUOUS
 10
146.234085333
 20
121.1866662688
  0
VERTEX
  8
0
 62
9
  6
CONTINUOUS
 10
146.2057889712
 20
121.1854502496
  0
VERTEX
  8
0
 62
9
  6
CONTINUOUS
 10
146.1676361758
 20
121.1855521613
  0
VERTEX
  8
0
 62
9
  6
CONTINUOUS
 10
146.1201674243
 20
121.186978577
  0
VERTEX
  8
0
 62
9
  6
CONTINUOUS
 10
146.0633521065
 20
121.1897477907
  0
VERTEX
  8
0
 62
9
  6
CONTINUOUS
 10
145.9972925518
 20
121.1938934112
  0
VERTEX
  8
0
 62
9
  6
CONTINUOUS
 10
145.9223833128
 20
121.1994357817
  0
VERTEX
  8
0
 62
9
  6
CONTINUOUS
 10
145.8383660838
 20
121.2064509135
  0
VERTEX
  8
0
 62
9
  6
CONTINUOUS
 10
145.7444825745
 20
121.2150842539
  0
VERTEX
  8
0
 62
9
  6
CONTINUOUS
 10
145.6400042377
 20
121.2255116782
  0
VERTEX
  8
0
 62
9
  6
CONTINUOUS
 10
145.5241826428
 20
121.2379418765
  0
VERTEX
  8
0
 62
9
  6
CONTINUOUS
 10
145.3961347206
 20
121.2526316098
  0
VERTEX
  8
0
 62
9
  6
CONTINUOUS
 10
145.2548085458
 20
121.2698980358
  0
VERTEX
  8
0
 62
9
  6
CONTINUOUS
 10
145.0989682251
 20
121.2901325553
  0
VERTEX
  8
0
 62
9
  6
CONTINUOUS
 10
144.9271821155
 20
121.31381885
  0
VERTEX
  8
0
 62
9
  6
CONTINUOUS
 10
144.7380634564
 20
121.3415198673
  0
VERTEX
  8
0
 62
9
  6
CONTINUOUS
 10
144.5302723406
 20
121.3739001829
  0
SEQEND
  0
POLYLINE
  8
0
 62
9
  6
CONTINUOUS
 66
1
 70
0
  0
VERTEX
  8
0
 62
9
  6
CONTINUOUS
 10
143.1077622617
 20
120.8824237757
  0
VERTEX
  8
0
 62
9
  6
CONTINUOUS
 10
143.0102171007
 20
120.8729219445
  0
VERTEX
  8
0
 62
9
  6
CONTINUOUS
 10
142.9164205455
 20
120.8447816008
  0
VERTEX
  8
0
 62
9
  6
CONTINUOUS
 10
142.8299771452
 20
120.7990841623
  0
VERTEX
  8
0
 62
9
  6
CONTINUOUS
 10
142.7542088711
 20
120.7375857559
  0
VERTEX
  8
0
 62
9
  6
CONTINUOUS
 10
142.6920274556
 20
120.6626497309
  0
VERTEX
  8
0
 62
9
  6
CONTINUOUS
 10
142.6458224955
 20
120.5771558367
  0
VERTEX
  8
0
 62
9
  6
CONTINUOUS
 10
142.6173696215
 20
120.4843895557
  0
VERTEX
  8
0
 62
9
  6
CONTINUOUS
 10
142.6077622617
 20
120.387915844
  0
SEQEND
  0
POLYLINE
  8
0
 62
9
  6
CONTINUOUS
 66
1
 70
0
  0
VERTEX
  8
0
 62
9
  6
CONTINUOUS
 10
144.5302723406
 20
121.0771954239
  0
VERTEX
  8
0
 62
9
  6
CONTINUOUS
 10
144.7911538092
 20
121.0784255531
  0
VERTEX
  8
0
 62
9
  6
CONTINUOUS
 10
145.0241249475
 20
121.0815850744
  0
VERTEX
  8
0
 62
9
  6
CONTINUOUS
 10
145.2324208301
 20
121.0861002724
  0
VERTEX
  8
0
 62
9
  6
CONTINUOUS
 10
145.4186651108
 20
121.0915973958
  0
VERTEX
  8
0
 62
9
  6
CONTINUOUS
 10
145.5849609204
 20
121.0978272811
  0
VERTEX
  8
0
 62
9
  6
CONTINUOUS
 10
145.7330048379
 20
121.1046238461
  0
VERTEX
  8
0
 62
9
  6
CONTINUOUS
 10
145.8641379408
 20
121.1118788385
  0
VERTEX
  8
0
 62
9
  6
CONTINUOUS
 10
145.9793714929
 20
121.1195256164
  0
VERTEX
  8
0
 62
9
  6
CONTINUOUS
 10
146.07934775
 20
121.1275252977
  0
VERTEX
  8
0
 62
9
  6
CONTINUOUS
 10
146.1643182665
 20
121.1358530865
  0
VERTEX
  8
0
 62
9
  6
CONTINUOUS
 10
146.2341429273
 20
121.1444797201
  0
VERTEX
  8
0
 62
9
  6
CONTINUOUS
 10
146.2883198137
 20
121.1533356838
  0
VERTEX
  8
0
 62
9
  6
CONTINUOUS
 10
146.3262147092
 20
121.1622498259
  0
VERTEX
  8
0
 62
9
  6
CONTINUOUS
 10
146.3479046737
 20
121.1708864734
  0
VERTEX
  8
0
 62
9
  6
CONTINUOUS
 10
146.3554638002
 20
121.1792247157
  0
VERTEX
  8
0
 62
9
  6
CONTINUOUS
 10
146.3501006822
 20
121.1877355948
  0
VERTEX
  8
0
 62
9
  6
CONTINUOUS
 10
146.330452473
 20
121.1967389992
  0
SEQEND
  0
POLYLINE
  8
0
 62
9
  6
CONTINUOUS
 66
1
 70
0
  0
VERTEX
  8
0
 62
9
  6
CONTINUOUS
 10
146.3304053377
 20
121.1967556064
  0
VERTEX
  8
0
 62
9
  6
CONTINUOUS
 10
146.2978659318
 20
121.1967346937
  0
VERTEX
  8
0
 62
9
  6
CONTINUOUS
 10
146.265775307
 20
121.2008924791
  0
VERTEX
  8
0
 62
9
  6
CONTINUOUS
 10
146.2345860149
 20
121.2091740458
  0
SEQEND
  0
LINE
  8
0
 62
9
  6
CONTINUOUS
 10
141.8989753207
 20
121.0468200561
 11
142.0077622617
 21
121.0468198772
  0
LINE
  8
0
 62
9
  6
CONTINUOUS
 10
141.9077622617
 20
121.0771954239
 11
144.5302723406
 21
121.0771954239
  0
LINE
  8
0
 62
9
  6
CONTINUOUS
 10
141.6077622617
 20
121.3739001829
 11
144.5302882758
 21
121.3739001829
  0
POLYLINE
  8
0
 62
9
  6
CONTINUOUS
 66
1
 70
0
  0
VERTEX
  8
0
 62
9
  6
CONTINUOUS
 10
141.1077460768
 20
121.241636219
  0
VERTEX
  8
0
 62
9
  6
CONTINUOUS
 10
141.195403696
 20
121.2409026526
  0
VERTEX
  8
0
 62
9
  6
CONTINUOUS
 10
141.2753837009
 20
121.2378544344
  0
VERTEX
  8
0
 62
9
  6
CONTINUOUS
 10
141.3460953532
 20
121.2330209446
  0
VERTEX
  8
0
 62
9
  6
CONTINUOUS
 10
141.4080622695
 20
121.226501186
  0
VERTEX
  8
0
 62
9
  6
CONTINUOUS
 10
141.4619984506
 20
121.2165615873
  0
VERTEX
  8
0
 62
9
  6
CONTINUOUS
 10
141.5086296988
 20
121.20388745
  0
VERTEX
  8
0
 62
9
  6
CONTINUOUS
 10
141.5496052211
 20
121.187449823
  0
VERTEX
  8
0
 62
9
  6
CONTINUOUS
 10
141.5873677274
 20
121.1674557051
  0
VERTEX
  8
0
 62
9
  6
CONTINUOUS
 10
141.6244431764
 20
121.144384347
  0
VERTEX
  8
0
 62
9
  6
CONTINUOUS
 10
141.6630520642
 20
121.1196285481
  0
VERTEX
  8
0
 62
9
  6
CONTINUOUS
 10
141.7049995748
 20
121.0952922294
  0
VERTEX
  8
0
 62
9
  6
CONTINUOUS
 10
141.7509706986
 20
121.0738491448
  0
VERTEX
  8
0
 62
9
  6
CONTINUOUS
 10
141.7999003128
 20
121.0578061118
  0
VERTEX
  8
0
 62
9
  6
CONTINUOUS
 10
141.8498042318
 20
121.0486903449
  0
VERTEX
  8
0
 62
9
  6
CONTINUOUS
 10
141.8989756542
 20
121.0468200118
  0
SEQEND
  0
POLYLINE
  8
0
 62
9
  6
CONTINUOUS
 66
1
 70
0
  0
VERTEX
  8
0
 62
9
  6
CONTINUOUS
 10
142.0077622617
 20
121.0468198772
  0
VERTEX
  8
0
 62
9
  6
CONTINUOUS
 10
142.1601995985
 20
121.0452336211
  0
VERTEX
  8
0
 62
9
  6
CONTINUOUS
 10
142.3119699131
 20
121.0404078737
  0
VERTEX
  8
0
 62
9
  6
CONTINUOUS
 10
142.4600157114
 20
121.032282571
  0
VERTEX
  8
0
 62
9
  6
CONTINUOUS
 10
142.5989392899
 20
121.0210598708
  0
VERTEX
  8
0
 62
9
  6
CONTINUOUS
 10
142.725088616
 20
121.0070557321
  0
VERTEX
  8
0
 62
9
  6
CONTINUOUS
 10
142.8363634074
 20
120.990548251
  0
VERTEX
  8
0
 62
9
  6
CONTINUOUS
 10
142.9313627207
 20
120.9717152237
  0
VERTEX
  8
0
 62
9
  6
CONTINUOUS
 10
143.0079012144
 20
120.950865425
  0
VERTEX
  8
0
 62
9
  6
CONTINUOUS
 10
143.0635257266
 20
120.9285751656
  0
VERTEX
  8
0
 62
9
  6
CONTINUOUS
 10
143.0968558942
 20
120.9055164349
  0
VERTEX
  8
0
 62
9
  6
CONTINUOUS
 10
143.1077622617
 20
120.8824237757
  0
SEQEND
  0
LINE
  8
0
 62
9
  6
CONTINUOUS
 10
145.6336665497
 20
121.442438203
 11
145.5863949532
 21
121.4497142059
  0
POLYLINE
  8
0
 62
9
  6
CONTINUOUS
 66
1
 70
0
  0
VERTEX
  8
0
 62
9
  6
CONTINUOUS
 10
145.646172044
 20
121.4276744261
  0
VERTEX
  8
0
 62
9
  6
CONTINUOUS
 10
145.6835439768
 20
121.4215808302
  0
VERTEX
  8
0
 62
9
  6
CONTINUOUS
 10
145.7216161395
 20
121.4209310203
  0
SEQEND
  0
LINE
  8
0
 62
9
  6
CONTINUOUS
 10
145.2062335538
 20
121.6165013838
 11
160.8430765588
 21
122.2426830639
  0
LINE
  8
0
 62
7
  6
CONTINUOUS
 10
145.1945545179
 20
121.6219265073
 11
160.8230699564
 21
122.2477747077
  0
LINE
  8
0
 62
7
  6
CONTINUOUS
 10
161.2901819893
 20
122.262628566
 11
160.8230696206
 21
122.2477746437
  0
POLYLINE
  8
0
 62
9
  6
CONTINUOUS
 66
1
 70
0
  0
VERTEX
  8
0
 62
9
  6
CONTINUOUS
 10
160.8430765588
 20
122.2426830639
  0
VERTEX
  8
0
 62
9
  6
CONTINUOUS
 10
161.3152747612
 20
122.257588211
  0
VERTEX
  8
0
 62
9
  6
CONTINUOUS
 10
161.7954469151
 20
122.2648499631
  0
VERTEX
  8
0
 62
9
  6
CONTINUOUS
 10
162.2780644195
 20
122.2643845918
  0
VERTEX
  8
0
 62
9
  6
CONTINUOUS
 10
162.7576270655
 20
122.2561958912
  0
VERTEX
  8
0
 62
9
  6
CONTINUOUS
 10
163.228728784
 20
122.2403707118
  0
VERTEX
  8
0
 62
9
  6
CONTINUOUS
 10
163.6860492741
 20
122.2170761943
  0
VERTEX
  8
0
 62
9
  6
CONTINUOUS
 10
164.124378781
 20
122.1865599484
  0
VERTEX
  8
0
 62
9
  6
CONTINUOUS
 10
164.5386568407
 20
122.149151149
  0
VERTEX
  8
0
 62
9
  6
CONTINUOUS
 10
164.9240596809
 20
122.1052572223
  0
VERTEX
  8
0
 62
9
  6
CONTINUOUS
 10
165.276032921
 20
122.0553638592
  0
VERTEX
  8
0
 62
9
  6
CONTINUOUS
 10
165.5903716249
 20
122.0000294901
  0
VERTEX
  8
0
 62
9
  6
CONTINUOUS
 10
165.8632604551
 20
121.9398838026
  0
VERTEX
  8
0
 62
9
  6
CONTINUOUS
 10
166.0913458604
 20
121.8756205708
  0
VERTEX
  8
0
 62
9
  6
CONTINUOUS
 10
166.271791857
 20
121.8079907758
  0
VERTEX
  8
0
 62
9
  6
CONTINUOUS
 10
166.4023384569
 20
121.7377900717
  0
VERTEX
  8
0
 62
9
  6
CONTINUOUS
 10
166.4813290501
 20
121.6658572072
  0
VERTEX
  8
0
 62
9
  6
CONTINUOUS
 10
166.5077622617
 20
121.593069445
  0
SEQEND
  0
LINE
  8
0
 62
9
  6
CONTINUOUS
 10
134.821808574
 20
121.9337996378
 11
134.5159170756
 21
121.9337996378
  0
LINE
  8
0
 62
9
  6
CONTINUOUS
 10
141.6077622617
 20
123.1111427457
 11
141.9077622617
 21
123.1111427457
  0
LINE
  8
0
 62
9
  6
CONTINUOUS
 10
139.8998252607
 20
123.2051516895
 11
139.5665590255
 21
123.2051516895
  0
LINE
  8
0
 62
9
  6
CONTINUOUS
 10
141.6077622617
 20
123.618115852
 11
141.1077622617
 21
123.618115852
  0
LINE
  8
0
 62
9
  6
CONTINUOUS
 10
134.5159170756
 20
121.9337996378
 11
132.8077622618
 21
121.5281144183
  0
LINE
  8
0
 62
9
  6
CONTINUOUS
 10
160.8230699567
 20
122.2477747077
 11
160.8430765588
 21
122.2426830639
  0
LINE
  8
0
 62
9
  6
CONTINUOUS
 10
140.5078830385
 20
123.3680802801
 11
139.8998252607
 21
123.2051516895
  0
LINE
  8
0
 62
9
  6
CONTINUOUS
 10
139.5665590255
 20
123.2051516895
 11
134.821808574
 21
121.9337996378
  0
LINE
  8
0
 62
7
  6
CONTINUOUS
 10
141.1745203469
 20
124.1536417173
 11
133.1783609676
 21
122.011077269
  0
LINE
  8
0
 62
7
  6
CONTINUOUS
 10
141.2540264195
 20
124.1681823882
 11
141.1745213674
 21
124.1536419907
  0
LINE
  8
0
 62
9
  6
CONTINUOUS
 10
160.7136670362
 20
114.1912819447
 11
160.7136670362
 21
116.2134942005
  0
POLYLINE
  8
0
 62
9
  6
CONTINUOUS
 66
1
 70
0
  0
VERTEX
  8
0
 62
9
  6
CONTINUOUS
 10
160.7136670362
 20
116.2134942005
  0
VERTEX
  8
0
 62
9
  6
CONTINUOUS
 10
160.7201292953
 20
116.3146799237
  0
VERTEX
  8
0
 62
9
  6
CONTINUOUS
 10
160.7316870913
 20
116.411672015
  0
VERTEX
  8
0
 62
9
  6
CONTINUOUS
 10
160.7478614124
 20
116.500450647
  0
VERTEX
  8
0
 62
9
  6
CONTINUOUS
 10
160.7679819154
 20
116.5773363983
  0
VERTEX
  8
0
 62
9
  6
CONTINUOUS
 10
160.7912147084
 20
116.6391427469
  0
VERTEX
  8
0
 62
9
  6
CONTINUOUS
 10
160.8165969104
 20
116.6833081348
  0
VERTEX
  8
0
 62
9
  6
CONTINUOUS
 10
160.8430765588
 20
116.7080021321
  0
SEQEND
  0
POLYLINE
  8
0
 62
9
  6
CONTINUOUS
 66
1
 70
0
  0
VERTEX
  8
0
 62
9
  6
CONTINUOUS
 10
166.5077622617
 20
117.357615751
  0
VERTEX
  8
0
 62
9
  6
CONTINUOUS
 10
166.4813277696
 20
117.2848262545
  0
VERTEX
  8
0
 62
9
  6
CONTINUOUS
 10
166.4023359414
 20
117.2128934028
  0
VERTEX
  8
0
 62
9
  6
CONTINUOUS
 10
166.2717880633
 20
117.1426927377
  0
VERTEX
  8
0
 62
9
  6
CONTINUOUS
 10
166.0913408415
 20
117.075063002
  0
VERTEX
  8
0
 62
9
  6
CONTINUOUS
 10
165.863254259
 20
117.0107998534
  0
VERTEX
  8
0
 62
9
  6
CONTINUOUS
 10
165.5903643097
 20
116.9506542664
  0
VERTEX
  8
0
 62
9
  6
CONTINUOUS
 10
165.2760245508
 20
116.8953200145
  0
VERTEX
  8
0
 62
9
  6
CONTINUOUS
 10
164.9240503523
 20
116.8454267871
  0
VERTEX
  8
0
 62
9
  6
CONTINUOUS
 10
164.538646824
 20
116.8015330289
  0
VERTEX
  8
0
 62
9
  6
CONTINUOUS
 10
164.1243683493
 20
116.7641244171
  0
VERTEX
  8
0
 62
9
  6
CONTINUOUS
 10
163.6860385551
 20
116.7336083585
  0
VERTEX
  8
0
 62
9
  6
CONTINUOUS
 10
163.2287178988
 20
116.7103140264
  0
VERTEX
  8
0
 62
9
  6
CONTINUOUS
 10
162.7576161978
 20
116.6944890317
  0
VERTEX
  8
0
 62
9
  6
CONTINUOUS
 10
162.2780537358
 20
116.6863005088
  0
VERTEX
  8
0
 62
9
  6
CONTINUOUS
 10
161.7954363783
 20
116.6858353108
  0
VERTEX
  8
0
 62
9
  6
CONTINUOUS
 10
161.3152642728
 20
116.6930972268
  0
VERTEX
  8
0
 62
9
  6
CONTINUOUS
 10
160.8430765588
 20
116.7080021321
  0
SEQEND
  0
POLYLINE
  8
0
 62
9
  6
CONTINUOUS
 66
1
 70
0
  0
VERTEX
  8
0
 62
9
  6
CONTINUOUS
 10
167.0077619191
 20
121.0991404074
  0
VERTEX
  8
0
 62
9
  6
CONTINUOUS
 10
166.9981549019
 20
121.195035225
  0
VERTEX
  8
0
 62
9
  6
CONTINUOUS
 10
166.969702028
 20
121.287801506
  0
VERTEX
  8
0
 62
9
  6
CONTINUOUS
 10
166.9234970679
 20
121.3732954002
  0
VERTEX
  8
0
 62
9
  6
CONTINUOUS
 10
166.8613156523
 20
121.4482314252
  0
VERTEX
  8
0
 62
9
  6
CONTINUOUS
 10
166.7855473782
 20
121.5097298316
  0
VERTEX
  8
0
 62
9
  6
CONTINUOUS
 10
166.6991039779
 20
121.5554272701
  0
VERTEX
  8
0
 62
9
  6
CONTINUOUS
 10
166.6053074227
 20
121.5835676138
  0
VERTEX
  8
0
 62
9
  6
CONTINUOUS
 10
166.5077622617
 20
121.593069445
  0
SEQEND
  0
POLYLINE
  8
0
 62
9
  6
CONTINUOUS
 66
1
 70
0
  0
VERTEX
  8
0
 62
9
  6
CONTINUOUS
 10
167.0077622617
 20
116.8631078193
  0
VERTEX
  8
0
 62
9
  6
CONTINUOUS
 10
166.9981548976
 20
116.9595815526
  0
VERTEX
  8
0
 62
9
  6
CONTINUOUS
 10
166.9697020118
 20
117.0523478504
  0
VERTEX
  8
0
 62
9
  6
CONTINUOUS
 10
166.923497036
 20
117.1378417533
  0
VERTEX
  8
0
 62
9
  6
CONTINUOUS
 10
166.8613156058
 20
117.2127777771
  0
VERTEX
  8
0
 62
9
  6
CONTINUOUS
 10
166.7855473238
 20
117.2742761735
  0
VERTEX
  8
0
 62
9
  6
CONTINUOUS
 10
166.699103927
 20
117.3199735969
  0
VERTEX
  8
0
 62
9
  6
CONTINUOUS
 10
166.6053073898
 20
117.3481139262
  0
VERTEX
  8
0
 62
9
  6
CONTINUOUS
 10
166.5077622617
 20
117.357615751
  0
SEQEND
  0
POLYLINE
  8
0
 62
7
  6
CONTINUOUS
 66
1
 70
0
  0
VERTEX
  8
0
 62
7
  6
CONTINUOUS
 10
167.007761564
 20
121.099140407
  0
VERTEX
  8
0
 62
7
  6
CONTINUOUS
 10
166.9975696249
 20
121.2087948342
  0
VERTEX
  8
0
 62
7
  6
CONTINUOUS
 10
166.9575741182
 20
121.3397997909
  0
VERTEX
  8
0
 62
7
  6
CONTINUOUS
 10
166.8922618871
 20
121.4562542956
  0
VERTEX
  8
0
 62
7
  6
CONTINUOUS
 10
166.8105906797
 20
121.5528143292
  0
VERTEX
  8
0
 62
7
  6
CONTINUOUS
 10
166.7196951972
 20
121.6309646769
  0
VERTEX
  8
0
 62
7
  6
CONTINUOUS
 10
166.6220212856
 20
121.6955372973
  0
VERTEX
  8
0
 62
7
  6
CONTINUOUS
 10
166.5167023212
 20
121.7511568367
  0
VERTEX
  8
0
 62
7
  6
CONTINUOUS
 10
166.4013469841
 20
121.8011619312
  0
VERTEX
  8
0
 62
7
  6
CONTINUOUS
 10
166.2735650318
 20
121.847539186
  0
VERTEX
  8
0
 62
7
  6
CONTINUOUS
 10
166.1314245482
 20
121.8913642988
  0
VERTEX
  8
0
 62
7
  6
CONTINUOUS
 10
165.9731765661
 20
121.9332542938
  0
VERTEX
  8
0
 62
7
  6
CONTINUOUS
 10
165.7970888866
 20
121.9735557334
  0
VERTEX
  8
0
 62
7
  6
CONTINUOUS
 10
165.6017224773
 20
122.012373756
  0
VERTEX
  8
0
 62
7
  6
CONTINUOUS
 10
165.3859264875
 20
122.0496481563
  0
VERTEX
  8
0
 62
7
  6
CONTINUOUS
 10
165.148814591
 20
122.0852074523
  0
VERTEX
  8
0
 62
7
  6
CONTINUOUS
 10
164.8898068094
 20
122.1187962622
  0
VERTEX
  8
0
 62
7
  6
CONTINUOUS
 10
164.6083940602
 20
122.15012032
  0
VERTEX
  8
0
 62
7
  6
CONTINUOUS
 10
164.3023189943
 20
122.1790021083
  0
VERTEX
  8
0
 62
7
  6
CONTINUOUS
 10
163.9683162783
 20
122.2051842394
  0
VERTEX
  8
0
 62
7
  6
CONTINUOUS
 10
163.6030345126
 20
122.2281989582
  0
VERTEX
  8
0
 62
7
  6
CONTINUOUS
 10
163.2028690897
 20
122.2473556673
  0
VERTEX
  8
0
 62
7
  6
CONTINUOUS
 10
162.7646101352
 20
122.2616705033
  0
VERTEX
  8
0
 62
7
  6
CONTINUOUS
 10
162.2908553885
 20
122.2697807136
  0
VERTEX
  8
0
 62
7
  6
CONTINUOUS
 10
161.7943211095
 20
122.2703464433
  0
VERTEX
  8
0
 62
7
  6
CONTINUOUS
 10
161.2901819893
 20
122.262628566
  0
SEQEND
  0
LINE
  8
0
 62
9
  6
CONTINUOUS
 10
166.5077622617
 20
121.593069445
 11
166.5077622617
 21
117.357615751
  0
LINE
  8
0
 62
7
  6
CONTINUOUS
 10
167.0077622617
 20
114.8408955636
 11
167.0077619191
 21
121.0991404074
  0
POLYLINE
  8
0
 62
9
  6
CONTINUOUS
 66
1
 70
0
  0
VERTEX
  8
0
 62
9
  6
CONTINUOUS
 10
167.0077622617
 20
116.8631078193
  0
VERTEX
  8
0
 62
9
  6
CONTINUOUS
 10
166.9783756448
 20
116.7903001027
  0
VERTEX
  8
0
 62
9
  6
CONTINUOUS
 10
166.8905967709
 20
116.7183700933
  0
VERTEX
  8
0
 62
9
  6
CONTINUOUS
 10
166.7455370623
 20
116.6481721967
  0
VERTEX
  8
0
 62
9
  6
CONTINUOUS
 10
166.5450381465
 20
116.5805453098
  0
VERTEX
  8
0
 62
9
  6
CONTINUOUS
 10
166.2916107695
 20
116.5162848955
  0
VERTEX
  8
0
 62
9
  6
CONTINUOUS
 10
165.9884059376
 20
116.4561418728
  0
VERTEX
  8
0
 62
9
  6
CONTINUOUS
 10
165.6391495329
 20
116.4008099176
  0
VERTEX
  8
0
 62
9
  6
CONTINUOUS
 10
165.248080496
 20
116.3509186434
  0
VERTEX
  8
0
 62
9
  6
CONTINUOUS
 10
164.8198705352
 20
116.3070264051
  0
VERTEX
  8
0
 62
9
  6
CONTINUOUS
 10
164.3595792395
 20
116.2696188067
  0
VERTEX
  8
0
 62
9
  6
CONTINUOUS
 10
163.8725655554
 20
116.239103225
  0
VERTEX
  8
0
 62
9
  6
CONTINUOUS
 10
163.3644515601
 20
116.2158088173
  0
VERTEX
  8
0
 62
9
  6
CONTINUOUS
 10
162.8410252978
 20
116.1999831874
  0
VERTEX
  8
0
 62
9
  6
CONTINUOUS
 10
162.3081975366
 20
116.1917934784
  0
VERTEX
  8
0
 62
9
  6
CONTINUOUS
 10
161.7719741553
 20
116.1913265659
  0
VERTEX
  8
0
 62
9
  6
CONTINUOUS
 10
161.2384658797
 20
116.1985862297
  0
VERTEX
  8
0
 62
9
  6
CONTINUOUS
 10
160.7136670362
 20
116.2134942005
  0
SEQEND
  0
POLYLINE
  8
0
 62
9
  6
CONTINUOUS
 66
1
 70
0
  0
VERTEX
  8
0
 62
9
  6
CONTINUOUS
 10
167.0077622617
 20
114.8408955636
  0
VERTEX
  8
0
 62
9
  6
CONTINUOUS
 10
166.9783760159
 20
114.7680883198
  0
VERTEX
  8
0
 62
9
  6
CONTINUOUS
 10
166.8905975319
 20
114.6961583155
  0
VERTEX
  8
0
 62
9
  6
CONTINUOUS
 10
166.745538156
 20
114.6259603906
  0
VERTEX
  8
0
 62
9
  6
CONTINUOUS
 10
166.5450395415
 20
114.5583334731
  0
VERTEX
  8
0
 62
9
  6
CONTINUOUS
 10
166.2916123355
 20
114.4940730026
  0
VERTEX
  8
0
 62
9
  6
CONTINUOUS
 10
165.9884076177
 20
114.4339299263
  0
VERTEX
  8
0
 62
9
  6
CONTINUOUS
 10
165.6391512824
 20
114.3785979208
  0
VERTEX
  8
0
 62
9
  6
CONTINUOUS
 10
165.2480822096
 20
114.3287065925
  0
VERTEX
  8
0
 62
9
  6
CONTINUOUS
 10
164.8198720891
 20
114.284814298
  0
VERTEX
  8
0
 62
9
  6
CONTINUOUS
 10
164.3595805881
 20
114.2474066519
  0
VERTEX
  8
0
 62
9
  6
CONTINUOUS
 10
163.8725666567
 20
114.2168910307
  0
VERTEX
  8
0
 62
9
  6
CONTINUOUS
 10
163.3644524265
 20
114.1935965949
  0
VERTEX
  8
0
 62
9
  6
CONTINUOUS
 10
162.841025791
 20
114.1777709412
  0
VERTEX
  8
0
 62
9
  6
CONTINUOUS
 10
162.3081975508
 20
114.169581222
  0
VERTEX
  8
0
 62
9
  6
CONTINUOUS
 10
161.7719738237
 20
114.1691143075
  0
VERTEX
  8
0
 62
9
  6
CONTINUOUS
 10
161.2384656725
 20
114.1763739797
  0
VERTEX
  8
0
 62
9
  6
CONTINUOUS
 10
160.7136670362
 20
114.1912819447
  0
SEQEND
  0
ARC
  8
0
 62
7
  6
CONTINUOUS
 10
45.3873377692
 20
117.4197285385
 40
0.5
 50
90.0
 51
180.0
  0
ARC
  8
0
 62
7
  6
CONTINUOUS
 10
78.5873377692
 20
118.5197285385
 40
0.5
 50
270.0
 51
360.0
  0
ARC
  8
0
 62
7
  6
CONTINUOUS
 10
43.3172988834
 20
116.1905786596
 40
0.5
 50
98.5
 51
179.9999901681
  0
ARC
  8
0
 62
7
  6
CONTINUOUS
 10
80.657376656
 20
121.7710906732
 40
0.5
 50
359.9999901752
 51
98.5
  0
ARC
  8
0
 62
7
  6
CONTINUOUS
 10
80.6573766458
 20
119.7488784159
 40
0.5
 50
278.5
 51
359.9999901198
  0
ARC
  8
0
 62
7
  6
CONTINUOUS
 10
43.3172988948
 20
114.1683664056
 40
0.5
 50
179.999990123
 51
278.5
  0
ARC
  8
0
 62
7
  6
CONTINUOUS
 10
51.4723377692
 20
117.4197285385
 40
0.5
 50
87.6580759809
 51
90.0
  0
ARC
  8
0
 62
7
  6
CONTINUOUS
 10
72.5023377692
 20
118.5197285385
 40
0.5
 50
267.6580759809
 51
270.0
  0
ARC
  8
0
 62
7
  6
CONTINUOUS
 10
51.3873377692
 20
114.565556894
 40
0.3
 50
98.5
 51
180.0000308273
  0
ARC
  8
0
 62
7
  6
CONTINUOUS
 10
48.2873377692
 20
114.1022587898
 40
0.3
 50
0.0
 51
98.5
  0
ARC
  8
0
 62
7
  6
CONTINUOUS
 10
72.5873377692
 20
121.3739001829
 40
0.3
 50
278.5
 51
0.0000308273
  0
ARC
  8
0
 62
7
  6
CONTINUOUS
 10
75.6873377692
 20
121.8371982871
 40
0.3
 50
180.0
 51
278.5
  0
ARC
  8
0
 62
7
  6
CONTINUOUS
 10
49.2873377692
 20
182.4300780512
 40
4.4
 50
101.5592848522
 51
322.2814627975
  0
CIRCLE
  8
0
 62
7
  6
CONTINUOUS
 10
49.2873377692
 20
182.4300780512
 40
2.6
  0
ARC
  8
0
 62
7
  6
CONTINUOUS
 10
46.9468270799
 20
187.2964945678
 40
1.0
 50
295.6853011765
 51
15.0
  0
ARC
  8
0
 62
7
  6
CONTINUOUS
 10
48.2873377692
 20
187.0224630525
 40
0.3
 50
282.2844938563
 51
359.9999993048
  0
ARC
  8
0
 62
7
  6
CONTINUOUS
 10
52.3723377692
 20
180.0441243635
 40
0.5
 50
322.2814627974
 51
360.0
  0
ARC
  8
0
 62
7
  6
CONTINUOUS
 10
52.8723377692
 20
186.3300780512
 40
0.9
 50
180.0000000001
 51
221.8
  0
ARC
  8
CURVE
 62
4
  6
CONTINUOUS
 10
52.8723377692
 20
186.3300780512
 40
0.9
 50
90.0
 51
179.3559322034
  0
ARC
  8
0
 62
7
  6
CONTINUOUS
 10
52.5723377692
 20
187.2300780512
 40
0.6
 50
90.0
 51
180.0
  0
ARC
  8
0
 62
7
  6
CONTINUOUS
 10
51.4723377692
 20
186.3300780512
 40
0.5
 50
0.0
 51
90.0
  0
ARC
  8
0
 62
7
  6
CONTINUOUS
 10
52.3723377692
 20
184.788874815
 40
0.5
 50
0.0
 51
41.8
  0
ARC
  8
0
 62
7
  6
CONTINUOUS
 10
51.3873377692
 20
187.1300780512
 40
0.3
 50
180.0
 51
270.0
  0
ARC
  8
0
 62
7
  6
CONTINUOUS
 10
47.8172965657
 20
207.2300780512
 40
5.0
 50
90.0
 51
195.0
  0
ARC
  8
0
 62
7
  6
CONTINUOUS
 10
74.6873377692
 20
182.4300780512
 40
4.4
 50
217.7185372025
 51
66.7973823519
  0
CIRCLE
  8
0
 62
7
  6
CONTINUOUS
 10
74.6873377692
 20
182.4300780512
 40
2.6
  0
ARC
  8
0
 62
7
  6
CONTINUOUS
 10
77.0278484586
 20
187.2964945678
 40
1.0
 50
165.0
 51
244.3146988235
  0
ARC
  8
0
 62
7
  6
CONTINUOUS
 10
71.1023377692
 20
186.3300780512
 40
0.9
 50
318.2
 51
360.0
  0
ARC
  8
CURVE
 62
4
  6
CONTINUOUS
 10
71.1023377692
 20
186.3300780512
 40
0.9
 50
318.2
 51
90.0
  0
ARC
  8
0
 62
7
  6
CONTINUOUS
 10
71.4023377692
 20
187.2300780512
 40
0.6
 50
0.0
 51
90.0
  0
ARC
  8
0
 62
7
  6
CONTINUOUS
 10
71.6023377692
 20
184.788874815
 40
0.5
 50
138.2
 51
180.0
  0
ARC
  8
0
 62
7
  6
CONTINUOUS
 10
71.6023377692
 20
180.0441243635
 40
0.5
 50
180.0
 51
217.7185372025
  0
ARC
  8
0
 62
7
  6
CONTINUOUS
 10
76.1573789728
 20
207.2300780512
 40
5.0
 50
345.0
 51
90.0
  0
ARC
  8
0
 62
7
  6
CONTINUOUS
 10
133.3077622617
 20
117.4197285385
 40
0.5
 50
90.0
 51
180.0
  0
ARC
  8
0
 62
7
  6
CONTINUOUS
 10
133.3077639596
 20
114.4113444709
 40
0.5
 50
180.0000203956
 51
255.0000000008
  0
ARC
  8
0
 62
7
  6
CONTINUOUS
 10
141.3039308918
 20
112.2687779989
 40
0.5
 50
255.0001428475
 51
319.0069549303
  0
ARC
  8
0
 62
7
  6
CONTINUOUS
 10
133.3077622617
 20
118.5197285385
 40
0.5
 50
180.0
 51
270.0
  0
ARC
  8
0
 62
7
  6
CONTINUOUS
 10
133.307763947
 20
121.5281126027
 40
0.5
 50
104.9999999993
 51
179.9999797558
  0
ARC
  8
0
 62
7
  6
CONTINUOUS
 10
141.1077622617
 20
123.618115852
 40
0.5
 50
0.0010365612
 51
105.0003209675
  0
ARC
  8
0
 62
7
  6
CONTINUOUS
 10
141.3039308918
 20
123.6706790781
 40
0.5
 50
40.9930450807
 51
104.999857164
  0
ARC
  8
0
 62
9
  6
CONTINUOUS
 10
150.0673439439
 20
103.3588250751
 40
12.5
 50
120.7416089459
 51
131.4048786999
  0
ARC
  8
0
 62
7
  6
CONTINUOUS
 10
150.0673439439
 20
103.3588250751
 40
12.0
 50
113.94904458
 51
134.2478844451
  0
ARC
  8
0
 62
7
  6
CONTINUOUS
 10
141.9077622617
 20
111.7440089925
 40
0.2999987081
 50
134.2194432446
 51
139.0069551786
  0
ARC
  8
0
 62
9
  6
CONTINUOUS
 10
150.0673439439
 20
132.5806320018
 40
12.5
 50
229.2494870902
 51
243.7068055576
  0
ARC
  8
0
 62
7
  6
CONTINUOUS
 10
150.0673439439
 20
132.5806320018
 40
12.0
 50
225.7812124407
 51
251.3735775966
  0
ARC
  8
0
 62
7
  6
CONTINUOUS
 10
141.9077622617
 20
124.1954480845
 40
0.2999987081
 50
220.9923355335
 51
225.7805567554
  0
ENDSEC
  0
EOF
