  0
SECTION
  2
HEADER
  9
$EXTMAX
 10
420.0
 20
297.0
 30
0.0
  9
$EXTMIN
 10
0.0
 20
0.0
 30
0.0
  9
$LIMMIN
 10
0.0
 20
0.0
  9
$LIMMAX
 10
420.0
 20
297.0
  9
$VIEWCTR
 10
210.0
 20
148.5
  9
$VIEWSIZE
 40
297.0
  9
$CLAYER
  8
0
  9
$LTSCALE
 40
23.1
  9
$CELTYPE
  6
BYLAYER
  9
$DIMSCALE
 40
1.0
  9
$DIMASZ
 40
3.5
  9
$DIMEXO
 40
2.625
  9
$DIMDLI
 40
15.96
  9
$DIMEXE
 40
7.56
  9
$DIMCEN
 40
3.78
  9
$DIMLFAC
 40
1.0
  9
$DIMBLK
  1
_FILLED
  9
$DIMTXT
 40
3.5
  9
$PDMODE
 70
3
  9
$PDSIZE
 40
0.3125
  9
$TILEMODE
 70
1
  0
ENDSEC
  0
SECTION
  2
TABLES
  0
TABLE
  2
LTYPE
 70
6
  0
LTYPE
  2
BYBLOCK
 70
0
  3

 72
65
 73
0
 40
0.0
  0
LTYPE
  2
BYLAYER
 70
0
  3

 72
65
 73
0
 40
0.0
  0
LTYPE
  2
CONTINUOUS
 70
64
  3
Solid line
 72
65
 73
0
 40
0.0
  0
LTYPE
  2
CENTER
 70
64
  3
____ _ ____ _ ____ _ ____ _ ____ _ ____ _ ____
 72
65
 73
4
 40
0.6
 49
0.375
 49
-0.075
 49
0.075
 49
-0.075
  0
LTYPE
  2
HIDDEN
 70
64
  3
- - - - - - - - - - - - - - - - - - - -
 72
65
 73
2
 40
0.2
 49
0.1
 49
-0.1
  0
LTYPE
  2
PHANTOM
 70
64
  3
_____ _ _ _____ _ _ _____ _ _ _____
 72
65
 73
6
 40
0.8
 49
0.45
 49
-0.05
 49
0.1
 49
-0.05
 49
0.1
 49
-0.05
  0
LTYPE
  2
DOT
 70
64
  3
. . . . . . . . . . . . . . . . . . . .
 72
65
 73
2
 40
0.2
 49
0.1
 49
-0.1
  0
LTYPE
  2
DASHED
 70
64
  3
- - - - - - - - - - - - - - - - - - - -
 72
65
 73
2
 40
0.2
 49
0.1
 49
-0.1
  0
ENDTAB
  0
TABLE
  2
LAYER
 70
36
  0
LAYER
  2
0
 70
0
 62
7
  6
CONTINUOUS
  0
LAYER
  2
DEFAULT_1
 70
0
 62
7
  6
CENTER
  0
LAYER
  2
DEFAULT_2
 70
0
 62
8
  6
HIDDEN
  0
LAYER
  2
DEFAULT_3
 70
0
 62
7
  6
PHANTOM
  0
LAYER
  2
1_AXIS
 70
0
 62
7
  6
CONTINUOUS
  0
LAYER
  2
1_DATUM_PLANE
 70
0
 62
7
  6
CONTINUOUS
  0
LAYER
  2
2_FEATURE
 70
0
 62
7
  6
CONTINUOUS
  0
LAYER
  2
4_QUILT
 70
0
 62
7
  6
CONTINUOUS
  0
LAYER
  2
6_DIM
 70
0
 62
7
  6
CONTINUOUS
  0
LAYER
  2
AXES
 70
0
 62
7
  6
CONTINUOUS
  0
LAYER
  2
COM_SKETCH
 70
0
 62
7
  6
CONTINUOUS
  0
LAYER
  2
CSYS
 70
0
 62
7
  6
CONTINUOUS
  0
LAYER
  2
PLANES
 70
0
 62
7
  6
CONTINUOUS
  0
LAYER
  2
QUILTS
 70
0
 62
7
  6
CONTINUOUS
  0
ENDTAB
  0
TABLE
  2
STYLE
 70
1
  0
STYLE
  2
STANDARD
 70
0
 40
0.0
 41
0.8
 50
0.0
 71
0
 42
0.2
  3
txt
  4

  0
STYLE
  2
TEXTSTYLE_1
 70
0
 40
0.0
 41
0.8
 50
0.0
 71
0
 42
0.2
  3
gdt
  4

  0
STYLE
  2
TEXTSTYLE_2
 70
0
 40
0.0
 41
0.6
 50
0.0
 71
0
 42
0.2
  3
txt
  4

  0
STYLE
  2
TEXTSTYLE_3
 70
0
 40
0.0
 41
1.0
 50
0.0
 71
0
 42
0.2
  3
ftb_____.ttf
  4

  0
STYLE
  2
TEXTSTYLE_4
 70
0
 40
0.0
 41
1.0
 50
0.0
 71
0
 42
0.2
  3
fti_____.ttf
  4

  0
STYLE
  2
TEXTSTYLE_5
 70
0
 40
0.0
 41
1.0
 50
0.0
 71
0
 42
0.2
  3
frutiger light.ttf
  4

  0
STYLE
  2
TEXTSTYLE_6
 70
0
 40
0.0
 41
0.7
 50
0.0
 71
0
 42
0.2
  3
txt
  4

  0
STYLE
  2
TEXTSTYLE_7
 70
0
 40
0.0
 41
0.8
 50
0.0
 71
0
 42
0.2
  3
txt
  4

  0
ENDTAB
  0
ENDSEC
  0
SECTION
  2
BLOCKS
  0
BLOCK
  8
0
 62
2
  6
CONTINUOUS
  2
SYMBOL_5_BL1
 70
64
 10
382.7840918555
 20
35.5067593403
  0
TEXT
  8
0
 62
7
  6
CONTINUOUS
 10
373.842376864
 20
30.5995157174
  7
TEXTSTYLE_4
 40
1.0655737705
  1
The brand for plastic modular belts and chains
 41
1.0
 72
0
  0
LINE
  8
0
 62
7
  6
CONTINUOUS
 10
358.7621602445
 20
36.0805298321
 11
358.7621602445
 21
33.9493822911
  0
LINE
  8
0
 62
7
  6
CONTINUOUS
 10
359.0512227376
 20
30.9584509954
 11
359.0512227376
 21
31.0552420547
  0
LINE
  8
0
 62
7
  6
CONTINUOUS
 10
358.7621602445
 20
31.0229783683
 11
358.8199727462
 21
30.8293962497
  0
LINE
  8
0
 62
7
  6
CONTINUOUS
 10
360.1556028675
 20
33.867415078
 11
360.1556028675
 21
36.0805298321
  0
LINE
  8
0
 62
7
  6
CONTINUOUS
 10
361.0746601894
 20
32.0231527829
 11
361.0746601894
 21
30.5067593403
  0
LINE
  8
0
 62
7
  6
CONTINUOUS
 10
361.3637227445
 20
30.5067593403
 11
361.3637227445
 21
31.2488242184
  0
LINE
  8
0
 62
7
  6
CONTINUOUS
 10
361.3637227445
 20
31.3778789641
 11
361.3637227445
 21
32.0231527829
  0
LINE
  8
0
 62
7
  6
CONTINUOUS
 10
358.8199727462
 20
31.216560532
 11
358.7621602445
 21
31.0229783683
  0
LINE
  8
0
 62
7
  6
CONTINUOUS
 10
359.1668477307
 20
30.7971325633
 11
359.0512227376
 21
30.9584509954
  0
LINE
  8
0
 62
7
  6
CONTINUOUS
 10
360.2652852997
 20
31.3133515913
 11
360.3230977445
 21
31.216560532
  0
LINE
  8
0
 62
7
  6
CONTINUOUS
 10
360.6121602997
 20
31.216560532
 11
360.5543476894
 21
31.3456152777
  0
LINE
  8
0
 62
7
  6
CONTINUOUS
 10
362.0408487691
 20
36.0805298321
 11
362.0408487691
 21
34.2772511436
  0
LINE
  8
0
 62
7
  6
CONTINUOUS
 10
362.0408487691
 20
32.9657757338
 11
362.0408487691
 21
32.3100380288
  0
LINE
  8
0
 62
7
  6
CONTINUOUS
 10
362.4043477445
 20
31.1520331591
 11
362.4043477445
 21
30.5067593403
  0
LINE
  8
0
 62
7
  6
CONTINUOUS
 10
362.6934101343
 20
30.5067593403
 11
362.6934101343
 21
31.1520331591
  0
LINE
  8
0
 62
7
  6
CONTINUOUS
 10
359.0512227376
 20
31.0552420547
 11
359.1090352445
 21
31.1842968456
  0
LINE
  8
0
 62
7
  6
CONTINUOUS
 10
358.8199727462
 20
30.8293962497
 11
358.9355977445
 21
30.7003414814
  0
LINE
  8
0
 62
7
  6
CONTINUOUS
 10
362.3465351343
 20
31.2810879048
 11
362.4043477445
 21
31.1520331591
  0
LINE
  8
0
 62
7
  6
CONTINUOUS
 10
363.1559103548
 20
30.7971325633
 11
363.2137226343
 21
30.668077795
  0
LINE
  8
0
 62
7
  6
CONTINUOUS
 10
362.6934101343
 20
31.1520331591
 11
362.6355978548
 21
31.3133515913
  0
LINE
  8
0
 62
7
  6
CONTINUOUS
 10
363.1559103548
 20
31.3456152777
 11
363.1559103548
 21
31.2810879048
  0
LINE
  8
0
 62
7
  6
CONTINUOUS
 10
363.1559103548
 20
30.8939236226
 11
363.1559103548
 21
30.7971325633
  0
LINE
  8
0
 62
7
  6
CONTINUOUS
 10
363.4342913921
 20
32.3100380288
 11
363.4342913921
 21
36.0805298321
  0
LINE
  8
0
 62
7
  6
CONTINUOUS
 10
363.4449727445
 20
30.7648688543
 11
363.4449727445
 21
30.8293962497
  0
LINE
  8
0
 62
7
  6
CONTINUOUS
 10
363.7621602445
 20
36.0805298321
 11
363.7621602445
 21
32.3100380288
  0
LINE
  8
0
 62
7
  6
CONTINUOUS
 10
360.5543476894
 20
30.7003414814
 11
360.6121602997
 21
30.8293962497
  0
LINE
  8
0
 62
7
  6
CONTINUOUS
 10
364.9480979651
 20
30.6035504109
 11
364.890285024
 21
30.7648688543
  0
LINE
  8
0
 62
7
  6
CONTINUOUS
 10
364.6012229651
 20
31.2810879048
 11
364.6012229651
 21
31.1842968456
  0
LINE
  8
0
 62
7
  6
CONTINUOUS
 10
364.6012229651
 20
31.0552420547
 11
364.6012229651
 21
30.8616599362
  0
LINE
  8
0
 62
7
  6
CONTINUOUS
 10
364.890285024
 20
30.7648688543
 11
364.890285024
 21
31.2810879048
  0
LINE
  8
0
 62
7
  6
CONTINUOUS
 10
365.1556028675
 20
32.3100380288
 11
365.1556028675
 21
34.1133167174
  0
LINE
  8
0
 62
7
  6
CONTINUOUS
 10
365.1556028675
 20
35.4247921272
 11
365.1556028675
 21
36.0805298321
  0
LINE
  8
0
 62
7
  6
CONTINUOUS
 10
365.4684104651
 20
32.0231527829
 11
365.4684104651
 21
31.8618343508
  0
LINE
  8
0
 62
7
  6
CONTINUOUS
 10
365.4684104651
 20
31.5391973962
 11
365.4684104651
 21
30.5067593403
  0
LINE
  8
0
 62
7
  6
CONTINUOUS
 10
365.757472524
 20
30.5067593403
 11
365.757472524
 21
31.5391973962
  0
LINE
  8
0
 62
7
  6
CONTINUOUS
 10
365.757472524
 20
31.8618343508
 11
365.757472524
 21
32.0231527829
  0
LINE
  8
0
 62
7
  6
CONTINUOUS
 10
360.3230977445
 20
30.8293962497
 11
360.2652852997
 21
30.7326051679
  0
LINE
  8
0
 62
7
  6
CONTINUOUS
 10
362.6355978548
 20
31.3133515913
 11
362.5777852445
 21
31.3778789641
  0
LINE
  8
0
 62
7
  6
CONTINUOUS
 10
363.5027853548
 20
30.7003414814
 11
363.4449727445
 21
30.7648688543
  0
LINE
  8
0
 62
7
  6
CONTINUOUS
 10
364.6590352445
 20
30.5712867188
 11
364.716847524
 21
30.5067593403
  0
LINE
  8
0
 62
7
  6
CONTINUOUS
 10
364.6012229651
 20
30.668077795
 11
364.6590352445
 21
30.5712867188
  0
LINE
  8
0
 62
7
  6
CONTINUOUS
 10
365.0059102445
 20
30.5067593403
 11
364.9480979651
 21
30.6035504109
  0
LINE
  8
0
 62
7
  6
CONTINUOUS
 10
364.890285024
 20
31.2810879048
 11
364.8324727445
 21
31.3778789641
  0
LINE
  8
0
 62
7
  6
CONTINUOUS
 10
366.2199727445
 20
31.5391973962
 11
366.2199727445
 21
30.5067593403
  0
LINE
  8
0
 62
7
  6
CONTINUOUS
 10
366.5090354651
 20
30.5067593403
 11
366.5090354651
 21
31.2488242184
  0
LINE
  8
0
 62
7
  6
CONTINUOUS
 10
366.5090354651
 20
31.3778789641
 11
366.5090354651
 21
31.5391973962
  0
LINE
  8
0
 62
7
  6
CONTINUOUS
 10
367.0408487691
 20
34.5231527829
 11
367.0408487691
 21
32.3100380288
  0
LINE
  8
0
 62
7
  6
CONTINUOUS
 10
358.9355977445
 20
31.3456152777
 11
358.8199727462
 21
31.216560532
  0
LINE
  8
0
 62
7
  6
CONTINUOUS
 10
359.1090352445
 20
31.1842968456
 11
359.1668477307
 21
31.2488242184
  0
LINE
  8
0
 62
7
  6
CONTINUOUS
 10
358.9355977445
 20
30.7003414814
 11
359.0512227376
 21
30.6358140973
  0
LINE
  8
0
 62
7
  6
CONTINUOUS
 10
359.3402852307
 20
30.7003414814
 11
359.1668477307
 21
30.7971325633
  0
LINE
  8
0
 62
7
  6
CONTINUOUS
 10
364.543410024
 20
31.3456152777
 11
364.6012229651
 21
31.2810879048
  0
LINE
  8
0
 62
7
  6
CONTINUOUS
 10
367.491847524
 20
31.2810879048
 11
367.5496604651
 21
31.1197694727
  0
LINE
  8
0
 62
7
  6
CONTINUOUS
 10
367.838722524
 20
31.1197694727
 11
367.7809102445
 21
31.2810879048
  0
LINE
  8
0
 62
7
  6
CONTINUOUS
 10
367.5496604651
 20
31.1197694727
 11
367.5496604651
 21
30.5067593403
  0
LINE
  8
0
 62
7
  6
CONTINUOUS
 10
367.838722524
 20
30.5067593403
 11
367.838722524
 21
31.1197694727
  0
LINE
  8
0
 62
7
  6
CONTINUOUS
 10
368.3012227445
 20
31.3456152777
 11
368.3012227445
 21
31.2810879048
  0
LINE
  8
0
 62
7
  6
CONTINUOUS
 10
368.4342913921
 20
32.3100380288
 11
368.4342913921
 21
34.4411855698
  0
LINE
  8
0
 62
7
  6
CONTINUOUS
 10
368.7621602445
 20
36.0805298321
 11
368.7621602445
 21
32.3100380288
  0
LINE
  8
0
 62
7
  6
CONTINUOUS
 10
363.4449727445
 20
30.8293962497
 11
363.5027853548
 21
30.926187309
  0
LINE
  8
0
 62
7
  6
CONTINUOUS
 10
359.0512227376
 20
30.6358140973
 11
359.2246602583
 21
30.5712867188
  0
LINE
  8
0
 62
7
  6
CONTINUOUS
 10
360.5543476894
 20
31.3456152777
 11
360.3809101894
 21
31.4424063369
  0
LINE
  8
0
 62
7
  6
CONTINUOUS
 10
363.2137226343
 20
30.668077795
 11
363.3871601343
 21
30.5712867188
  0
LINE
  8
0
 62
7
  6
CONTINUOUS
 10
362.2309102445
 20
31.3456152777
 11
362.3465351343
 21
31.2810879048
  0
LINE
  8
0
 62
7
  6
CONTINUOUS
 10
362.5777852445
 20
31.3778789641
 11
362.4621603548
 21
31.4424063369
  0
LINE
  8
0
 62
7
  6
CONTINUOUS
 10
368.3012227445
 20
30.7648688543
 11
368.4168479651
 21
30.6358140973
  0
LINE
  8
0
 62
7
  6
CONTINUOUS
 10
368.6480977445
 20
30.7003414814
 11
368.5902854651
 21
30.7648688543
  0
LINE
  8
0
 62
7
  6
CONTINUOUS
 10
368.3012227445
 20
31.2810879048
 11
368.4168479651
 21
31.1520331591
  0
LINE
  8
0
 62
7
  6
CONTINUOUS
 10
367.7809102445
 20
31.2810879048
 11
367.7230979651
 21
31.3778789641
  0
LINE
  8
0
 62
7
  6
CONTINUOUS
 10
370.1512223035
 20
30.7003414814
 11
370.1512223035
 21
30.7648688543
  0
LINE
  8
0
 62
7
  6
CONTINUOUS
 10
370.1556028675
 20
32.3100380288
 11
370.1556028675
 21
36.0805298321
  0
LINE
  8
0
 62
7
  6
CONTINUOUS
 10
363.2137226343
 20
31.4101426505
 11
363.1559103548
 21
31.3456152777
  0
LINE
  8
0
 62
7
  6
CONTINUOUS
 10
360.091847717
 20
31.3778789641
 11
360.2652852997
 21
31.3133515913
  0
LINE
  8
0
 62
7
  6
CONTINUOUS
 10
364.8324727445
 20
31.3778789641
 11
364.716847524
 21
31.4424063369
  0
LINE
  8
0
 62
7
  6
CONTINUOUS
 10
368.6480977445
 20
31.216560532
 11
368.5902854651
 21
31.2810879048
  0
LINE
  8
0
 62
7
  6
CONTINUOUS
 10
369.8043479651
 20
30.8293962497
 11
369.8621602445
 21
30.7648688543
  0
LINE
  8
0
 62
7
  6
CONTINUOUS
 10
370.1512223035
 20
30.7648688543
 11
370.0355977445
 21
30.8939236226
  0
LINE
  8
0
 62
7
  6
CONTINUOUS
 10
369.8043479651
 20
31.3456152777
 11
369.8621602445
 21
31.2810879048
  0
LINE
  8
0
 62
7
  6
CONTINUOUS
 10
370.1512223035
 20
31.2810879048
 11
370.0355977445
 21
31.4101426505
  0
LINE
  8
0
 62
7
  6
CONTINUOUS
 10
363.4449727445
 20
31.2810879048
 11
363.5027853548
 21
31.3456152777
  0
LINE
  8
0
 62
7
  6
CONTINUOUS
 10
363.2715352445
 20
31.0229783683
 11
363.1559103548
 21
30.8939236226
  0
LINE
  8
0
 62
7
  6
CONTINUOUS
 10
364.6012229651
 20
30.8616599362
 11
364.543410024
 21
30.7971325633
  0
LINE
  8
0
 62
7
  6
CONTINUOUS
 10
364.543410024
 20
30.6035504109
 11
364.6012229651
 21
30.668077795
  0
LINE
  8
0
 62
7
  6
CONTINUOUS
 10
363.3871601343
 20
30.5712867188
 11
363.5027853548
 21
30.5390230296
  0
LINE
  8
0
 62
7
  6
CONTINUOUS
 10
360.3809101894
 20
31.4424063369
 11
360.1496602445
 21
31.5069337098
  0
LINE
  8
0
 62
7
  6
CONTINUOUS
 10
363.7340351343
 20
30.6358140973
 11
363.5027853548
 21
30.7003414814
  0
LINE
  8
0
 62
7
  6
CONTINUOUS
 10
362.4621603548
 20
31.4424063369
 11
362.2887228548
 21
31.5069337098
  0
LINE
  8
0
 62
7
  6
CONTINUOUS
 10
364.716847524
 20
31.4424063369
 11
364.543410024
 21
31.5069337098
  0
LINE
  8
0
 62
7
  6
CONTINUOUS
 10
367.3762229651
 20
31.3456152777
 11
367.491847524
 21
31.2810879048
  0
LINE
  8
0
 62
7
  6
CONTINUOUS
 10
367.7230979651
 20
31.3778789641
 11
367.6074727445
 21
31.4424063369
  0
LINE
  8
0
 62
7
  6
CONTINUOUS
 10
359.2246602583
 20
30.5712867188
 11
359.3980977583
 21
30.5390230296
  0
LINE
  8
0
 62
7
  6
CONTINUOUS
 10
359.6871602721
 20
30.6358140973
 11
359.3402852307
 21
30.7003414814
  0
LINE
  8
0
 62
7
  6
CONTINUOUS
 10
362.1152853548
 20
31.3778789641
 11
362.2309102445
 21
31.3456152777
  0
LINE
  8
0
 62
7
  6
CONTINUOUS
 10
364.4277854651
 20
31.3778789641
 11
364.543410024
 21
31.3456152777
  0
LINE
  8
0
 62
7
  6
CONTINUOUS
 10
368.7637229651
 20
30.668077795
 11
368.6480977445
 21
30.7003414814
  0
LINE
  8
0
 62
7
  6
CONTINUOUS
 10
367.2605977445
 20
31.3778789641
 11
367.3762229651
 21
31.3456152777
  0
LINE
  8
0
 62
7
  6
CONTINUOUS
 10
368.4168479651
 20
30.6358140973
 11
368.5902854651
 21
30.5712867188
  0
LINE
  8
0
 62
7
  6
CONTINUOUS
 10
367.6074727445
 20
31.4424063369
 11
367.4340352445
 21
31.5069337098
  0
LINE
  8
0
 62
7
  6
CONTINUOUS
 10
368.8215352445
 20
31.1520331591
 11
368.6480977445
 21
31.216560532
  0
LINE
  8
0
 62
7
  6
CONTINUOUS
 10
369.6309104651
 20
30.8939236226
 11
369.8043479651
 21
30.8293962497
  0
LINE
  8
0
 62
7
  6
CONTINUOUS
 10
370.0355977445
 20
31.4101426505
 11
369.8621602445
 21
31.4746700234
  0
LINE
  8
0
 62
7
  6
CONTINUOUS
 10
368.4168479651
 20
31.1520331591
 11
368.6480977445
 21
31.0552420547
  0
LINE
  8
0
 62
7
  6
CONTINUOUS
 10
370.0355977445
 20
30.8939236226
 11
369.8043479651
 21
30.9907146818
  0
LINE
  8
0
 62
7
  6
CONTINUOUS
 10
368.5902854651
 20
31.2810879048
 11
368.6480977445
 21
31.3456152777
  0
LINE
  8
0
 62
7
  6
CONTINUOUS
 10
359.0512227376
 20
31.4101426505
 11
358.9355977445
 21
31.3456152777
  0
LINE
  8
0
 62
7
  6
CONTINUOUS
 10
359.1668477307
 20
31.2488242184
 11
359.3402852307
 21
31.3456152777
  0
LINE
  8
0
 62
7
  6
CONTINUOUS
 10
361.4793477997
 20
31.4424063369
 11
361.3637227445
 21
31.3778789641
  0
LINE
  8
0
 62
7
  6
CONTINUOUS
 10
361.3637227445
 20
31.2488242184
 11
361.4793477997
 21
31.3133515913
  0
LINE
  8
0
 62
7
  6
CONTINUOUS
 10
360.3809101894
 20
30.6035504109
 11
360.5543476894
 21
30.7003414814
  0
LINE
  8
0
 62
7
  6
CONTINUOUS
 10
359.3980977583
 20
30.5390230296
 11
359.744972717
 21
30.5067593403
  0
LINE
  8
0
 62
7
  6
CONTINUOUS
 10
363.5027853548
 20
30.5390230296
 11
363.7340351343
 21
30.5067593403
  0
LINE
  8
0
 62
7
  6
CONTINUOUS
 10
361.8840352445
 20
31.4101426505
 11
362.1152853548
 21
31.3778789641
  0
LINE
  8
0
 62
7
  6
CONTINUOUS
 10
364.1965353548
 20
31.4101426505
 11
364.4277854651
 21
31.3778789641
  0
LINE
  8
0
 62
7
  6
CONTINUOUS
 10
368.6480977445
 20
31.0552420547
 11
369.6309104651
 21
30.8939236226
  0
LINE
  8
0
 62
7
  6
CONTINUOUS
 10
369.8043479651
 20
30.9907146818
 11
368.8215352445
 21
31.1520331591
  0
LINE
  8
0
 62
7
  6
CONTINUOUS
 10
362.2887228548
 20
31.5069337098
 11
362.1152853548
 21
31.5391973962
  0
LINE
  8
0
 62
7
  6
CONTINUOUS
 10
368.5902854651
 20
30.5712867188
 11
368.7637229651
 21
30.5390230296
  0
LINE
  8
0
 62
7
  6
CONTINUOUS
 10
367.4340352445
 20
31.5069337098
 11
367.2605977445
 21
31.5391973962
  0
LINE
  8
0
 62
7
  6
CONTINUOUS
 10
369.6887227445
 20
31.3778789641
 11
369.8043479651
 21
31.3456152777
  0
LINE
  8
0
 62
7
  6
CONTINUOUS
 10
369.8621602445
 20
30.7648688543
 11
369.8043479651
 21
30.7003414814
  0
LINE
  8
0
 62
7
  6
CONTINUOUS
 10
368.4168479651
 20
31.4424063369
 11
368.3012227445
 21
31.3456152777
  0
LINE
  8
0
 62
7
  6
CONTINUOUS
 10
363.3293478548
 20
31.4746700234
 11
363.2137226343
 21
31.4101426505
  0
LINE
  8
0
 62
7
  6
CONTINUOUS
 10
363.3871601343
 20
31.0875057863
 11
363.2715352445
 21
31.0229783683
  0
LINE
  8
0
 62
7
  6
CONTINUOUS
 10
363.5027853548
 20
30.926187309
 11
363.6184102445
 21
30.9907146818
  0
LINE
  8
0
 62
7
  6
CONTINUOUS
 10
361.0746601894
 20
30.5067593403
 11
361.3637227445
 21
30.5067593403
  0
LINE
  8
0
 62
7
  6
CONTINUOUS
 10
362.4043477445
 20
30.5067593403
 11
362.6934101343
 21
30.5067593403
  0
LINE
  8
0
 62
7
  6
CONTINUOUS
 10
363.7340351343
 20
30.5067593403
 11
364.0809101343
 21
30.5067593403
  0
LINE
  8
0
 62
7
  6
CONTINUOUS
 10
364.716847524
 20
30.5067593403
 11
365.0059102445
 21
30.5067593403
  0
LINE
  8
0
 62
7
  6
CONTINUOUS
 10
365.4684104651
 20
30.5067593403
 11
365.757472524
 21
30.5067593403
  0
LINE
  8
0
 62
7
  6
CONTINUOUS
 10
366.2199727445
 20
30.5067593403
 11
366.5090354651
 21
30.5067593403
  0
LINE
  8
0
 62
7
  6
CONTINUOUS
 10
367.5496604651
 20
30.5067593403
 11
367.838722524
 21
30.5067593403
  0
LINE
  8
0
 62
7
  6
CONTINUOUS
 10
369.1105979651
 20
30.5067593403
 11
369.4574729651
 21
30.5067593403
  0
LINE
  8
0
 62
7
  6
CONTINUOUS
 10
369.4574729651
 20
30.6358140973
 11
369.1105979651
 21
30.6358140973
  0
LINE
  8
0
 62
7
  6
CONTINUOUS
 10
364.0809101343
 20
30.6358140973
 11
363.7340351343
 21
30.6358140973
  0
LINE
  8
0
 62
7
  6
CONTINUOUS
 10
368.5902854651
 20
30.7648688543
 11
368.3012227445
 21
30.7648688543
  0
LINE
  8
0
 62
7
  6
CONTINUOUS
 10
360.6121602997
 20
30.8293962497
 11
360.3230977445
 21
30.8293962497
  0
LINE
  8
0
 62
7
  6
CONTINUOUS
 10
359.6871602721
 20
31.4101426505
 11
360.091847717
 21
31.3778789641
  0
LINE
  8
0
 62
7
  6
CONTINUOUS
 10
360.1496602445
 20
31.5069337098
 11
359.744972717
 21
31.5391973962
  0
LINE
  8
0
 62
7
  6
CONTINUOUS
 10
368.7637229651
 20
30.5390230296
 11
369.1105979651
 21
30.5067593403
  0
LINE
  8
0
 62
7
  6
CONTINUOUS
 10
369.1105979651
 20
30.6358140973
 11
368.7637229651
 21
30.668077795
  0
LINE
  8
0
 62
7
  6
CONTINUOUS
 10
364.543410024
 20
31.5069337098
 11
364.1965353548
 21
31.5391973962
  0
LINE
  8
0
 62
7
  6
CONTINUOUS
 10
369.3418477445
 20
31.4101426505
 11
369.6887227445
 21
31.3778789641
  0
LINE
  8
0
 62
7
  6
CONTINUOUS
 10
369.6887227445
 20
31.5069337098
 11
369.3418477445
 21
31.5391973962
  0
LINE
  8
0
 62
7
  6
CONTINUOUS
 10
367.0293479651
 20
31.4101426505
 11
367.2605977445
 21
31.3778789641
  0
LINE
  8
0
 62
7
  6
CONTINUOUS
 10
369.8621602445
 20
31.4746700234
 11
369.6887227445
 21
31.5069337098
  0
LINE
  8
0
 62
7
  6
CONTINUOUS
 10
370.0355977445
 20
30.6035504109
 11
370.1512223035
 21
30.7003414814
  0
LINE
  8
0
 62
7
  6
CONTINUOUS
 10
364.543410024
 20
30.7971325633
 11
364.369972524
 21
30.7003414814
  0
LINE
  8
0
 62
7
  6
CONTINUOUS
 10
366.624660024
 20
31.4424063369
 11
366.5090354651
 21
31.3778789641
  0
LINE
  8
0
 62
7
  6
CONTINUOUS
 10
366.5090354651
 20
31.2488242184
 11
366.624660024
 21
31.3133515913
  0
LINE
  8
0
 62
7
  6
CONTINUOUS
 10
359.2246602583
 20
31.4746700234
 11
359.0512227376
 21
31.4101426505
  0
LINE
  8
0
 62
7
  6
CONTINUOUS
 10
361.6527851343
 20
31.5069337098
 11
361.4793477997
 21
31.4424063369
  0
LINE
  8
0
 62
7
  6
CONTINUOUS
 10
361.4793477997
 20
31.3133515913
 11
361.6527851343
 21
31.3778789641
  0
LINE
  8
0
 62
7
  6
CONTINUOUS
 10
360.2652852997
 20
30.7326051679
 11
360.091847717
 21
30.668077795
  0
LINE
  8
0
 62
7
  6
CONTINUOUS
 10
369.6887227445
 20
30.668077795
 11
369.4574729651
 21
30.6358140973
  0
LINE
  8
0
 62
7
  6
CONTINUOUS
 10
364.0809101343
 20
30.5067593403
 11
364.369972524
 21
30.5390230296
  0
LINE
  8
0
 62
7
  6
CONTINUOUS
 10
369.4574729651
 20
30.5067593403
 11
369.8043479651
 21
30.5390230296
  0
LINE
  8
0
 62
7
  6
CONTINUOUS
 10
359.744972717
 20
30.5067593403
 11
360.1496602445
 21
30.5390230296
  0
LINE
  8
0
 62
7
  6
CONTINUOUS
 10
360.091847717
 20
30.668077795
 11
359.6871602721
 21
30.6358140973
  0
LINE
  8
0
 62
7
  6
CONTINUOUS
 10
363.9652852445
 20
31.0552420547
 11
364.6012229651
 21
31.0552420547
  0
LINE
  8
0
 62
7
  6
CONTINUOUS
 10
364.6012229651
 20
31.1842968456
 11
363.9652852445
 21
31.1842968456
  0
LINE
  8
0
 62
7
  6
CONTINUOUS
 10
360.3230977445
 20
31.216560532
 11
360.6121602997
 21
31.216560532
  0
LINE
  8
0
 62
7
  6
CONTINUOUS
 10
363.1559103548
 20
31.2810879048
 11
363.4449727445
 21
31.2810879048
  0
LINE
  8
0
 62
7
  6
CONTINUOUS
 10
369.8621602445
 20
31.2810879048
 11
370.1512223035
 21
31.2810879048
  0
LINE
  8
0
 62
7
  6
CONTINUOUS
 10
363.8496603548
 20
31.4101426505
 11
364.1965353548
 21
31.4101426505
  0
LINE
  8
0
 62
7
  6
CONTINUOUS
 10
368.9949727445
 20
31.4101426505
 11
369.3418477445
 21
31.4101426505
  0
LINE
  8
0
 62
7
  6
CONTINUOUS
 10
369.3418477445
 20
31.5391973962
 11
368.9949727445
 21
31.5391973962
  0
LINE
  8
0
 62
7
  6
CONTINUOUS
 10
367.2605977445
 20
31.5391973962
 11
367.0293479651
 21
31.5391973962
  0
LINE
  8
0
 62
7
  6
CONTINUOUS
 10
366.5090354651
 20
31.5391973962
 11
366.2199727445
 21
31.5391973962
  0
LINE
  8
0
 62
7
  6
CONTINUOUS
 10
365.757472524
 20
31.5391973962
 11
365.4684104651
 21
31.5391973962
  0
LINE
  8
0
 62
7
  6
CONTINUOUS
 10
364.1965353548
 20
31.5391973962
 11
363.8496603548
 21
31.5391973962
  0
LINE
  8
0
 62
7
  6
CONTINUOUS
 10
362.1152853548
 20
31.5391973962
 11
361.8840352445
 21
31.5391973962
  0
LINE
  8
0
 62
7
  6
CONTINUOUS
 10
365.4684104651
 20
31.8618343508
 11
365.757472524
 21
31.8618343508
  0
LINE
  8
0
 62
7
  6
CONTINUOUS
 10
365.757472524
 20
32.0231527829
 11
365.4684104651
 21
32.0231527829
  0
LINE
  8
0
 62
7
  6
CONTINUOUS
 10
361.3637227445
 20
32.0231527829
 11
361.0746601894
 21
32.0231527829
  0
LINE
  8
0
 62
7
  6
CONTINUOUS
 10
360.4015045068
 20
32.3100380288
 11
360.8140758554
 21
32.3100380288
  0
LINE
  8
0
 62
7
  6
CONTINUOUS
 10
362.0408487691
 20
32.3100380288
 11
363.4342913921
 21
32.3100380288
  0
LINE
  8
0
 62
7
  6
CONTINUOUS
 10
363.7621602445
 20
32.3100380288
 11
365.1556028675
 21
32.3100380288
  0
LINE
  8
0
 62
7
  6
CONTINUOUS
 10
367.0408487691
 20
32.3100380288
 11
368.4342913921
 21
32.3100380288
  0
LINE
  8
0
 62
7
  6
CONTINUOUS
 10
368.7621602445
 20
32.3100380288
 11
370.1556028675
 21
32.3100380288
  0
LINE
  8
0
 62
7
  6
CONTINUOUS
 10
366.798097524
 20
31.5069337098
 11
366.624660024
 21
31.4424063369
  0
LINE
  8
0
 62
7
  6
CONTINUOUS
 10
364.369972524
 20
30.5390230296
 11
364.543410024
 21
30.6035504109
  0
LINE
  8
0
 62
7
  6
CONTINUOUS
 10
369.8043479651
 20
30.5390230296
 11
370.0355977445
 21
30.6035504109
  0
LINE
  8
0
 62
7
  6
CONTINUOUS
 10
369.8043479651
 20
30.7003414814
 11
369.6887227445
 21
30.668077795
  0
LINE
  8
0
 62
7
  6
CONTINUOUS
 10
368.7637229651
 20
31.3778789641
 11
368.9949727445
 21
31.4101426505
  0
LINE
  8
0
 62
7
  6
CONTINUOUS
 10
366.798097524
 20
31.3778789641
 11
367.0293479651
 21
31.4101426505
  0
LINE
  8
0
 62
7
  6
CONTINUOUS
 10
363.7340351343
 20
31.0229783683
 11
363.9652852445
 21
31.0552420547
  0
LINE
  8
0
 62
7
  6
CONTINUOUS
 10
367.0293479651
 20
31.5391973962
 11
366.798097524
 21
31.5069337098
  0
LINE
  8
0
 62
7
  6
CONTINUOUS
 10
363.6184102445
 20
31.3778789641
 11
363.8496603548
 21
31.4101426505
  0
LINE
  8
0
 62
7
  6
CONTINUOUS
 10
368.9949727445
 20
31.5391973962
 11
368.6480977445
 21
31.5069337098
  0
LINE
  8
0
 62
7
  6
CONTINUOUS
 10
363.9652852445
 20
31.1842968456
 11
363.6184102445
 21
31.1520331591
  0
LINE
  8
0
 62
7
  6
CONTINUOUS
 10
359.744972717
 20
31.5391973962
 11
359.3980977583
 21
31.5069337098
  0
LINE
  8
0
 62
7
  6
CONTINUOUS
 10
363.8496603548
 20
31.5391973962
 11
363.4449727445
 21
31.5069337098
  0
LINE
  8
0
 62
7
  6
CONTINUOUS
 10
361.221176638
 20
33.4575790124
 11
360.565438933
 21
33.4575790124
  0
LINE
  8
0
 62
7
  6
CONTINUOUS
 10
366.624660024
 20
31.3133515913
 11
366.798097524
 21
31.3778789641
  0
LINE
  8
0
 62
7
  6
CONTINUOUS
 10
368.6480977445
 20
31.3456152777
 11
368.7637229651
 21
31.3778789641
  0
LINE
  8
0
 62
7
  6
CONTINUOUS
 10
368.6480977445
 20
31.5069337098
 11
368.4168479651
 21
31.4424063369
  0
LINE
  8
0
 62
7
  6
CONTINUOUS
 10
364.369972524
 20
30.7003414814
 11
364.0809101343
 21
30.6358140973
  0
LINE
  8
0
 62
7
  6
CONTINUOUS
 10
361.6527851343
 20
31.3778789641
 11
361.8840352445
 21
31.4101426505
  0
LINE
  8
0
 62
7
  6
CONTINUOUS
 10
361.8840352445
 20
31.5391973962
 11
361.6527851343
 21
31.5069337098
  0
LINE
  8
0
 62
7
  6
CONTINUOUS
 10
359.4559102445
 20
31.3778789641
 11
359.6871602721
 21
31.4101426505
  0
LINE
  8
0
 62
7
  6
CONTINUOUS
 10
365.9752749986
 20
34.9329888485
 11
366.6310127035
 21
34.9329888485
  0
LINE
  8
0
 62
7
  6
CONTINUOUS
 10
363.6184102445
 20
30.9907146818
 11
363.7340351343
 21
31.0229783683
  0
LINE
  8
0
 62
7
  6
CONTINUOUS
 10
363.6184102445
 20
31.1520331591
 11
363.3871601343
 21
31.0875057863
  0
LINE
  8
0
 62
7
  6
CONTINUOUS
 10
363.5027853548
 20
31.3456152777
 11
363.6184102445
 21
31.3778789641
  0
LINE
  8
0
 62
7
  6
CONTINUOUS
 10
360.1496602445
 20
30.5390230296
 11
360.3809101894
 21
30.6035504109
  0
LINE
  8
0
 62
7
  6
CONTINUOUS
 10
363.4449727445
 20
31.5069337098
 11
363.3293478548
 21
31.4746700234
  0
LINE
  8
0
 62
7
  6
CONTINUOUS
 10
359.3980977583
 20
31.5069337098
 11
359.2246602583
 21
31.4746700234
  0
LINE
  8
0
 62
7
  6
CONTINUOUS
 10
370.1556028675
 20
36.0805298321
 11
368.7621602445
 21
36.0805298321
  0
LINE
  8
0
 62
7
  6
CONTINUOUS
 10
366.7949471298
 20
36.0805298321
 11
366.3823757812
 21
36.0805298321
  0
LINE
  8
0
 62
7
  6
CONTINUOUS
 10
365.1556028675
 20
36.0805298321
 11
363.7621602445
 21
36.0805298321
  0
LINE
  8
0
 62
7
  6
CONTINUOUS
 10
363.4342913921
 20
36.0805298321
 11
362.0408487691
 21
36.0805298321
  0
LINE
  8
0
 62
7
  6
CONTINUOUS
 10
360.1556028675
 20
36.0805298321
 11
358.7621602445
 21
36.0805298321
  0
LINE
  8
0
 62
7
  6
CONTINUOUS
 10
359.3402852307
 20
31.3456152777
 11
359.4559102445
 21
31.3778789641
  0
CIRCLE
  8
0
 62
7
  6
CONTINUOUS
 10
369.458881556
 20
38.4165954059
 40
2.0901639344
  0
ARC
  8
0
 62
7
  6
CONTINUOUS
 10
360.4015045068
 20
33.9493822911
 40
1.6393442623
 50
180.0
 51
270.0
  0
ARC
  8
0
 62
7
  6
CONTINUOUS
 10
366.7949471298
 20
34.4411855698
 40
1.6393442623
 50
0.0
 51
90.0
  0
ARC
  8
0
 62
7
  6
CONTINUOUS
 10
360.8140758554
 20
33.7854478649
 40
1.4754098361
 50
270.0
 51
326.2510114041
  0
ARC
  8
0
 62
7
  6
CONTINUOUS
 10
366.3823757812
 20
34.6051199961
 40
1.4754098361
 50
90.0
 51
146.2510114041
  0
ARC
  8
0
 62
7
  6
CONTINUOUS
 10
361.221176638
 20
34.2772511436
 40
0.8196721311
 50
270.0
 51
360.0
  0
ARC
  8
0
 62
7
  6
CONTINUOUS
 10
365.9752749986
 20
34.1133167174
 40
0.8196721311
 50
90.0
 51
180.0
  0
ARC
  8
0
 62
7
  6
CONTINUOUS
 10
360.565438933
 20
33.867415078
 40
0.4098360656
 50
180.0
 51
270.0
  0
ARC
  8
0
 62
7
  6
CONTINUOUS
 10
366.6310127035
 20
34.5231527829
 40
0.4098360656
 50
0.0
 51
90.0
  0
SOLID
  8
0
 62
7
  6
CONTINUOUS
 10
365.4684104651
 20
31.8618347111
 11
365.4684104651
 21
32.0231531947
 12
365.757472524
 22
31.8618347111
 13
365.757472524
 23
32.0231531947
  0
SOLID
  8
0
 62
7
  6
CONTINUOUS
 10
359.744972717
 20
31.5391977439
 11
360.1496602445
 21
31.5069333244
 12
359.3980977583
 22
31.5069333244
 13
359.3980977583
 23
31.5069333244
  0
SOLID
  8
0
 62
7
  6
CONTINUOUS
 10
359.2246602583
 20
31.4746706537
 11
359.3980977583
 21
31.5069333244
 12
360.1496602445
 22
31.5069333244
 13
360.1496602445
 23
31.5069333244
  0
SOLID
  8
0
 62
7
  6
CONTINUOUS
 10
360.1496602445
 20
31.5069333244
 11
360.3809101894
 21
31.4424063504
 12
359.2246602583
 22
31.4746706537
 13
359.2246602583
 23
31.4746706537
  0
SOLID
  8
0
 62
7
  6
CONTINUOUS
 10
359.0512227376
 20
31.4101419116
 11
359.2246602583
 21
31.4746706537
 12
360.3809101894
 22
31.4424063504
 13
360.3809101894
 23
31.4424063504
  0
SOLID
  8
0
 62
7
  6
CONTINUOUS
 10
359.0512227376
 20
31.4101419116
 11
360.3809101894
 21
31.4424063504
 12
359.6871602721
 22
31.4101419116
 13
359.6871602721
 23
31.4101419116
  0
SOLID
  8
0
 62
7
  6
CONTINUOUS
 10
359.6871602721
 20
31.4101419116
 11
360.3809101894
 21
31.4424063504
 12
360.091847717
 22
31.3778792603
 13
360.091847717
 23
31.3778792603
  0
SOLID
  8
0
 62
7
  6
CONTINUOUS
 10
360.3809101894
 20
31.4424063504
 11
360.5543476894
 21
31.345614957
 12
360.091847717
 22
31.3778792603
 13
360.091847717
 23
31.3778792603
  0
SOLID
  8
0
 62
7
  6
CONTINUOUS
 10
360.2652852997
 20
31.3133521701
 11
360.091847717
 21
31.3778792603
 12
360.5543476894
 22
31.345614957
 13
360.5543476894
 23
31.345614957
  0
SOLID
  8
0
 62
7
  6
CONTINUOUS
 10
360.2652852997
 20
31.3133521701
 11
360.5543476894
 21
31.345614957
 12
360.3230977445
 22
31.2165606992
 13
360.3230977445
 23
31.2165606992
  0
SOLID
  8
0
 62
7
  6
CONTINUOUS
 10
360.5543476894
 20
31.345614957
 11
360.6121602997
 21
31.2165606992
 12
360.3230977445
 22
31.2165606992
 13
360.3230977445
 23
31.2165606992
  0
SOLID
  8
0
 62
7
  6
CONTINUOUS
 10
361.6527851343
 20
31.5069329918
 11
361.8840352445
 21
31.5391972951
 12
362.1152853548
 22
31.5391972951
 13
362.1152853548
 23
31.5391972951
  0
SOLID
  8
0
 62
7
  6
CONTINUOUS
 10
362.1152853548
 20
31.5391972951
 11
362.2887228548
 21
31.5069329918
 12
361.6527851343
 22
31.5069329918
 13
361.6527851343
 23
31.5069329918
  0
SOLID
  8
0
 62
7
  6
CONTINUOUS
 10
361.4793477997
 20
31.4424059016
 11
361.6527851343
 21
31.5069329918
 12
362.2887228548
 22
31.5069329918
 13
362.2887228548
 23
31.5069329918
  0
SOLID
  8
0
 62
7
  6
CONTINUOUS
 10
362.2887228548
 20
31.5069329918
 11
362.4621603548
 21
31.4424059016
 12
361.4793477997
 22
31.4424059016
 13
361.4793477997
 23
31.4424059016
  0
SOLID
  8
0
 62
7
  6
CONTINUOUS
 10
362.4621603548
 20
31.4424059016
 11
361.8840352445
 21
31.4101420472
 12
361.4793477997
 22
31.4424059016
 13
361.4793477997
 23
31.4424059016
  0
SOLID
  8
0
 62
7
  6
CONTINUOUS
 10
361.3637227445
 20
31.3778788115
 11
361.4793477997
 21
31.4424059016
 12
361.8840352445
 22
31.4101420472
 13
361.8840352445
 23
31.4101420472
  0
SOLID
  8
0
 62
7
  6
CONTINUOUS
 10
361.8840352445
 20
31.4101420472
 11
361.6527851343
 21
31.3778788115
 12
361.3637227445
 22
31.3778788115
 13
361.3637227445
 23
31.3778788115
  0
SOLID
  8
0
 62
7
  6
CONTINUOUS
 10
361.8840352445
 20
31.4101420472
 11
362.4621603548
 21
31.4424059016
 12
362.1152853548
 22
31.3778788115
 13
362.1152853548
 23
31.3778788115
  0
SOLID
  8
0
 62
7
  6
CONTINUOUS
 10
362.4621603548
 20
31.4424059016
 11
362.5777852445
 21
31.3778788115
 12
362.1152853548
 22
31.3778788115
 13
362.1152853548
 23
31.3778788115
  0
SOLID
  8
0
 62
7
  6
CONTINUOUS
 10
362.2309102445
 20
31.345614957
 11
362.1152853548
 21
31.3778788115
 12
362.5777852445
 22
31.3778788115
 13
362.5777852445
 23
31.3778788115
  0
SOLID
  8
0
 62
7
  6
CONTINUOUS
 10
362.5777852445
 20
31.3778788115
 11
362.6355978548
 21
31.3133517213
 12
362.2309102445
 22
31.345614957
 13
362.2309102445
 23
31.345614957
  0
SOLID
  8
0
 62
7
  6
CONTINUOUS
 10
362.3465351343
 20
31.2810878668
 11
362.2309102445
 21
31.345614957
 12
362.6355978548
 22
31.3133517213
 13
362.6355978548
 23
31.3133517213
  0
SOLID
  8
0
 62
7
  6
CONTINUOUS
 10
362.3465351343
 20
31.2810878668
 11
362.6355978548
 21
31.3133517213
 12
362.4043477445
 22
31.1520332377
 13
362.4043477445
 23
31.1520332377
  0
SOLID
  8
0
 62
7
  6
CONTINUOUS
 10
362.6355978548
 20
31.3133517213
 11
362.6934101343
 21
31.1520332377
 12
362.4043477445
 22
31.1520332377
 13
362.4043477445
 23
31.1520332377
  0
SOLID
  8
0
 62
7
  6
CONTINUOUS
 10
361.6527851343
 20
31.3778788115
 11
361.4793477997
 21
31.3133517213
 12
361.3637227445
 22
31.3778788115
 13
361.3637227445
 23
31.3778788115
  0
SOLID
  8
0
 62
7
  6
CONTINUOUS
 10
361.4793477997
 20
31.3133517213
 11
361.3637227445
 21
31.2488235635
 12
361.3637227445
 22
31.3778788115
 13
361.3637227445
 23
31.3778788115
  0
SOLID
  8
0
 62
7
  6
CONTINUOUS
 10
361.3637227445
 20
31.2488235635
 11
361.0746601894
 21
30.5067593033
 12
361.3637227445
 22
31.3778788115
 13
361.3637227445
 23
31.3778788115
  0
SOLID
  8
0
 62
7
  6
CONTINUOUS
 10
361.3637227445
 20
31.3778788115
 11
361.0746601894
 21
30.5067593033
 12
361.3637227445
 22
32.0231527459
 13
361.3637227445
 23
32.0231527459
  0
SOLID
  8
0
 62
7
  6
CONTINUOUS
 10
361.0746601894
 20
30.5067593033
 11
361.0746601894
 21
32.0231527459
 12
361.3637227445
 22
32.0231527459
 13
361.3637227445
 23
32.0231527459
  0
SOLID
  8
0
 62
7
  6
CONTINUOUS
 10
361.3637227445
 20
31.2488235635
 11
361.3637227445
 21
30.5067593033
 12
361.0746601894
 22
30.5067593033
 13
361.0746601894
 23
30.5067593033
  0
SOLID
  8
0
 62
7
  6
CONTINUOUS
 10
362.4043477445
 20
30.5067593033
 11
362.4043477445
 21
31.1520332377
 12
362.6934101343
 22
31.1520332377
 13
362.6934101343
 23
31.1520332377
  0
SOLID
  8
0
 62
7
  6
CONTINUOUS
 10
362.6934101343
 20
31.1520332377
 11
362.6934101343
 21
30.5067593033
 12
362.4043477445
 22
30.5067593033
 13
362.4043477445
 23
30.5067593033
  0
SOLID
  8
0
 62
7
  6
CONTINUOUS
 10
363.4449727445
 20
31.506933758
 11
363.8496603548
 21
31.5391977507
 12
364.1965353548
 22
31.5391977507
 13
364.1965353548
 23
31.5391977507
  0
SOLID
  8
0
 62
7
  6
CONTINUOUS
 10
364.1965353548
 20
31.5391977507
 11
364.543410024
 21
31.506933758
 12
363.4449727445
 22
31.506933758
 13
363.4449727445
 23
31.506933758
  0
SOLID
  8
0
 62
7
  6
CONTINUOUS
 10
363.3293478548
 20
31.4746706537
 11
363.4449727445
 21
31.506933758
 12
364.543410024
 22
31.506933758
 13
364.543410024
 23
31.506933758
  0
SOLID
  8
0
 62
7
  6
CONTINUOUS
 10
364.543410024
 20
31.506933758
 11
364.716847524
 21
31.4424063504
 12
363.3293478548
 22
31.4746706537
 13
363.3293478548
 23
31.4746706537
  0
SOLID
  8
0
 62
7
  6
CONTINUOUS
 10
363.2137226343
 20
31.4101417797
 11
363.3293478548
 21
31.4746706537
 12
364.716847524
 22
31.4424063504
 13
364.716847524
 23
31.4424063504
  0
SOLID
  8
0
 62
7
  6
CONTINUOUS
 10
363.2137226343
 20
31.4101417797
 11
364.716847524
 21
31.4424063504
 12
363.8496603548
 22
31.4101417797
 13
363.8496603548
 23
31.4101417797
  0
SOLID
  8
0
 62
7
  6
CONTINUOUS
 10
363.8496603548
 20
31.4101417797
 11
364.716847524
 21
31.4424063504
 12
364.1965353548
 22
31.4101417797
 13
364.1965353548
 23
31.4101417797
  0
SOLID
  8
0
 62
7
  6
CONTINUOUS
 10
364.1965353548
 20
31.4101417797
 11
364.716847524
 21
31.4424063504
 12
364.4277854651
 22
31.3778793357
 13
364.4277854651
 23
31.3778793357
  0
SOLID
  8
0
 62
7
  6
CONTINUOUS
 10
364.716847524
 20
31.4424063504
 11
364.8324727445
 21
31.3778793357
 12
364.4277854651
 22
31.3778793357
 13
364.4277854651
 23
31.3778793357
  0
SOLID
  8
0
 62
7
  6
CONTINUOUS
 10
363.1559103548
 20
31.3456153429
 11
363.2137226343
 21
31.4101417797
 12
363.8496603548
 22
31.4101417797
 13
363.8496603548
 23
31.4101417797
  0
SOLID
  8
0
 62
7
  6
CONTINUOUS
 10
364.543410024
 20
31.3456153429
 11
364.4277854651
 21
31.3778793357
 12
364.8324727445
 22
31.3778793357
 13
364.8324727445
 23
31.3778793357
  0
SOLID
  8
0
 62
7
  6
CONTINUOUS
 10
364.543410024
 20
31.3456153429
 11
364.8324727445
 21
31.3778793357
 12
364.6012229651
 22
31.2810881318
 13
364.6012229651
 23
31.2810881318
  0
SOLID
  8
0
 62
7
  6
CONTINUOUS
 10
364.8324727445
 20
31.3778793357
 11
364.890285024
 21
31.2810881318
 12
364.6012229651
 22
31.2810881318
 13
364.6012229651
 23
31.2810881318
  0
SOLID
  8
0
 62
7
  6
CONTINUOUS
 10
364.6012229651
 20
31.1842964734
 11
364.6012229651
 21
31.2810881318
 12
364.890285024
 22
31.2810881318
 13
364.890285024
 23
31.2810881318
  0
SOLID
  8
0
 62
7
  6
CONTINUOUS
 10
364.6012229651
 20
31.1842964734
 11
364.890285024
 21
31.2810881318
 12
364.6012229651
 22
31.0552422931
 13
364.6012229651
 23
31.0552422931
  0
SOLID
  8
0
 62
7
  6
CONTINUOUS
 10
364.6012229651
 20
31.0552422931
 11
364.890285024
 21
31.2810881318
 12
364.6012229651
 22
30.8616599362
 13
364.6012229651
 23
30.8616599362
  0
SOLID
  8
0
 62
7
  6
CONTINUOUS
 10
364.890285024
 20
31.2810881318
 11
364.890285024
 21
30.7648681127
 12
364.6012229651
 22
30.8616599362
 13
364.6012229651
 23
30.8616599362
  0
SOLID
  8
0
 62
7
  6
CONTINUOUS
 10
366.798097524
 20
31.5069339419
 11
367.0293479651
 21
31.5391976292
 12
367.2605977445
 22
31.5391976292
 13
367.2605977445
 23
31.5391976292
  0
SOLID
  8
0
 62
7
  6
CONTINUOUS
 10
367.2605977445
 20
31.5391976292
 11
367.4340352445
 21
31.5069339419
 12
366.798097524
 22
31.5069339419
 13
366.798097524
 23
31.5069339419
  0
SOLID
  8
0
 62
7
  6
CONTINUOUS
 10
366.624660024
 20
31.4424065674
 11
366.798097524
 21
31.5069339419
 12
367.4340352445
 22
31.5069339419
 13
367.4340352445
 23
31.5069339419
  0
SOLID
  8
0
 62
7
  6
CONTINUOUS
 10
367.4340352445
 20
31.5069339419
 11
367.6074727445
 21
31.4424065674
 12
366.624660024
 22
31.4424065674
 13
366.624660024
 23
31.4424065674
  0
SOLID
  8
0
 62
7
  6
CONTINUOUS
 10
367.6074727445
 20
31.4424065674
 11
367.0293479651
 21
31.4101420472
 12
366.624660024
 22
31.4424065674
 13
366.624660024
 23
31.4424065674
  0
SOLID
  8
0
 62
7
  6
CONTINUOUS
 10
366.5090354651
 20
31.377879193
 11
366.624660024
 21
31.4424065674
 12
367.0293479651
 22
31.4101420472
 13
367.0293479651
 23
31.4101420472
  0
SOLID
  8
0
 62
7
  6
CONTINUOUS
 10
367.0293479651
 20
31.4101420472
 11
366.798097524
 21
31.377879193
 12
366.5090354651
 22
31.377879193
 13
366.5090354651
 23
31.377879193
  0
SOLID
  8
0
 62
7
  6
CONTINUOUS
 10
367.0293479651
 20
31.4101420472
 11
367.6074727445
 21
31.4424065674
 12
367.2605977445
 22
31.377879193
 13
367.2605977445
 23
31.377879193
  0
SOLID
  8
0
 62
7
  6
CONTINUOUS
 10
367.6074727445
 20
31.4424065674
 11
367.7230979651
 21
31.377879193
 12
367.2605977445
 22
31.377879193
 13
367.2605977445
 23
31.377879193
  0
SOLID
  8
0
 62
7
  6
CONTINUOUS
 10
367.3762229651
 20
31.345614957
 11
367.2605977445
 21
31.377879193
 12
367.7230979651
 22
31.377879193
 13
367.7230979651
 23
31.377879193
  0
SOLID
  8
0
 62
7
  6
CONTINUOUS
 10
367.3762229651
 20
31.345614957
 11
367.7230979651
 21
31.377879193
 12
367.491847524
 22
31.2810881312
 13
367.491847524
 23
31.2810881312
  0
SOLID
  8
0
 62
7
  6
CONTINUOUS
 10
367.7230979651
 20
31.377879193
 11
367.7809102445
 21
31.2810881312
 12
367.491847524
 22
31.2810881312
 13
367.491847524
 23
31.2810881312
  0
SOLID
  8
0
 62
7
  6
CONTINUOUS
 10
367.5496604651
 20
31.119769695
 11
367.491847524
 21
31.2810881312
 12
367.7809102445
 22
31.2810881312
 13
367.7809102445
 23
31.2810881312
  0
SOLID
  8
0
 62
7
  6
CONTINUOUS
 10
367.7809102445
 20
31.2810881312
 11
367.838722524
 21
31.119769695
 12
367.5496604651
 22
31.119769695
 13
367.5496604651
 23
31.119769695
  0
SOLID
  8
0
 62
7
  6
CONTINUOUS
 10
366.798097524
 20
31.377879193
 11
366.624660024
 21
31.3133521701
 12
366.5090354651
 22
31.377879193
 13
366.5090354651
 23
31.377879193
  0
SOLID
  8
0
 62
7
  6
CONTINUOUS
 10
366.624660024
 20
31.3133521701
 11
366.5090354651
 21
31.2488235635
 12
366.5090354651
 22
31.377879193
 13
366.5090354651
 23
31.377879193
  0
SOLID
  8
0
 62
7
  6
CONTINUOUS
 10
366.5090354651
 20
31.2488235635
 11
366.2199727445
 21
30.5067596374
 12
366.5090354651
 22
31.377879193
 13
366.5090354651
 23
31.377879193
  0
SOLID
  8
0
 62
7
  6
CONTINUOUS
 10
366.5090354651
 20
31.377879193
 11
366.2199727445
 21
30.5067596374
 12
366.5090354651
 22
31.5391976292
 13
366.5090354651
 23
31.5391976292
  0
SOLID
  8
0
 62
7
  6
CONTINUOUS
 10
366.2199727445
 20
30.5067596374
 11
366.2199727445
 21
31.5391976292
 12
366.5090354651
 22
31.5391976292
 13
366.5090354651
 23
31.5391976292
  0
SOLID
  8
0
 62
7
  6
CONTINUOUS
 10
366.5090354651
 20
31.2488235635
 11
366.5090354651
 21
30.5067596374
 12
366.2199727445
 22
30.5067596374
 13
366.2199727445
 23
30.5067596374
  0
SOLID
  8
0
 62
7
  6
CONTINUOUS
 10
367.5496604651
 20
30.5067596374
 11
367.5496604651
 21
31.119769695
 12
367.838722524
 22
31.119769695
 13
367.838722524
 23
31.119769695
  0
SOLID
  8
0
 62
7
  6
CONTINUOUS
 10
367.838722524
 20
31.119769695
 11
367.838722524
 21
30.5067596374
 12
367.5496604651
 22
30.5067596374
 13
367.5496604651
 23
30.5067596374
  0
SOLID
  8
0
 62
7
  6
CONTINUOUS
 10
368.6480977445
 20
31.5069334157
 11
368.9949727445
 21
31.539197762
 12
369.3418477445
 22
31.539197762
 13
369.3418477445
 23
31.539197762
  0
SOLID
  8
0
 62
7
  6
CONTINUOUS
 10
369.3418477445
 20
31.539197762
 11
369.6887227445
 21
31.5069334157
 12
368.6480977445
 22
31.5069334157
 13
368.6480977445
 23
31.5069334157
  0
SOLID
  8
0
 62
7
  6
CONTINUOUS
 10
368.4168479651
 20
31.4424063504
 11
368.6480977445
 21
31.5069334157
 12
369.6887227445
 22
31.5069334157
 13
369.6887227445
 23
31.5069334157
  0
SOLID
  8
0
 62
7
  6
CONTINUOUS
 10
368.4168479651
 20
31.4424063504
 11
369.6887227445
 21
31.5069334406
 12
369.8621602445
 22
31.4746706537
 13
369.8621602445
 23
31.4746706537
  0
SOLID
  8
0
 62
7
  6
CONTINUOUS
 10
368.4168479651
 20
31.4424063504
 11
369.8621602445
 21
31.4746706537
 12
368.9949727445
 22
31.4101421267
 13
368.9949727445
 23
31.4101421267
  0
SOLID
  8
0
 62
7
  6
CONTINUOUS
 10
368.9949727445
 20
31.4101421267
 11
369.8621602445
 21
31.4746706537
 12
369.3418477445
 22
31.4101421267
 13
369.3418477445
 23
31.4101421267
  0
SOLID
  8
0
 62
7
  6
CONTINUOUS
 10
369.8621602445
 20
31.4746706537
 11
370.0355977445
 21
31.4101421267
 12
369.3418477445
 22
31.4101421267
 13
369.3418477445
 23
31.4101421267
  0
SOLID
  8
0
 62
7
  6
CONTINUOUS
 10
369.6887227445
 20
31.3778792603
 11
369.3418477445
 21
31.4101421267
 12
370.0355977445
 22
31.4101421267
 13
370.0355977445
 23
31.4101421267
  0
SOLID
  8
0
 62
7
  6
CONTINUOUS
 10
368.3012227445
 20
31.3456148845
 11
368.4168479651
 21
31.4424063504
 12
368.9949727445
 22
31.4101421267
 13
368.9949727445
 23
31.4101421267
  0
SOLID
  8
0
 62
7
  6
CONTINUOUS
 10
369.6887227445
 20
31.3778792603
 11
370.0355977445
 21
31.4101421267
 12
369.8043479651
 22
31.3456148845
 13
369.8043479651
 23
31.3456148845
  0
SOLID
  8
0
 62
7
  6
CONTINUOUS
 10
369.8043479651
 20
31.3456148845
 11
370.0355977445
 21
31.4101421267
 12
369.8621602445
 22
31.281087868
 13
369.8621602445
 23
31.281087868
  0
SOLID
  8
0
 62
7
  6
CONTINUOUS
 10
370.0355977445
 20
31.4101421267
 11
370.1512223035
 21
31.281087868
 12
369.8621602445
 22
31.281087868
 13
369.8621602445
 23
31.281087868
  0
SOLID
  8
0
 62
7
  6
CONTINUOUS
 10
359.4559102445
 20
31.3778792603
 11
358.9355977445
 21
31.3456148963
 12
359.6871602721
 22
31.4101421155
 13
359.6871602721
 23
31.4101421155
  0
SOLID
  8
0
 62
7
  6
CONTINUOUS
 10
358.9355977445
 20
31.3456148963
 11
359.0512227376
 21
31.4101421155
 12
359.6871602721
 22
31.4101421155
 13
359.6871602721
 23
31.4101421155
  0
SOLID
  8
0
 62
7
  6
CONTINUOUS
 10
359.4559102445
 20
31.3778792603
 11
359.3402852307
 21
31.3456148963
 12
358.9355977445
 22
31.3456148963
 13
358.9355977445
 23
31.3456148963
  0
SOLID
  8
0
 62
7
  6
CONTINUOUS
 10
358.8199727462
 20
31.2165607767
 11
358.9355977445
 21
31.3456148963
 12
359.3402852307
 22
31.3456148963
 13
359.3402852307
 23
31.3456148963
  0
SOLID
  8
0
 62
7
  6
CONTINUOUS
 10
363.1559103548
 20
31.3456149608
 11
363.8496603548
 21
31.4101420472
 12
363.6184102445
 22
31.3778792603
 13
363.6184102445
 23
31.3778792603
  0
SOLID
  8
0
 62
7
  6
CONTINUOUS
 10
363.6184102445
 20
31.3778792603
 11
363.5027853548
 21
31.3456149608
 12
363.1559103548
 22
31.3456149608
 13
363.1559103548
 23
31.3456149608
  0
SOLID
  8
0
 62
7
  6
CONTINUOUS
 10
363.1559103548
 20
31.2810878707
 11
363.1559103548
 21
31.3456149608
 12
363.5027853548
 22
31.3456149608
 13
363.5027853548
 23
31.3456149608
  0
SOLID
  8
0
 62
7
  6
CONTINUOUS
 10
363.5027853548
 20
31.3456149608
 11
363.4449727445
 21
31.2810878707
 12
363.1559103548
 22
31.2810878707
 13
363.1559103548
 23
31.2810878707
  0
SOLID
  8
0
 62
7
  6
CONTINUOUS
 10
368.3012227445
 20
31.3456149608
 11
368.9949727445
 21
31.4101420472
 12
368.7637229651
 22
31.3778792603
 13
368.7637229651
 23
31.3778792603
  0
SOLID
  8
0
 62
7
  6
CONTINUOUS
 10
368.7637229651
 20
31.3778792603
 11
368.6480977445
 21
31.3456149608
 12
368.3012227445
 22
31.3456149608
 13
368.3012227445
 23
31.3456149608
  0
SOLID
  8
0
 62
7
  6
CONTINUOUS
 10
368.3012227445
 20
31.2810878707
 11
368.3012227445
 21
31.3456149608
 12
368.6480977445
 22
31.3456149608
 13
368.6480977445
 23
31.3456149608
  0
SOLID
  8
0
 62
7
  6
CONTINUOUS
 10
368.6480977445
 20
31.3456149608
 11
368.5902854651
 21
31.2810878707
 12
368.3012227445
 22
31.2810878707
 13
368.3012227445
 23
31.2810878707
  0
SOLID
  8
0
 62
7
  6
CONTINUOUS
 10
368.4168479651
 20
31.1520336865
 11
368.3012227445
 21
31.2810878707
 12
368.5902854651
 22
31.2810878707
 13
368.5902854651
 23
31.2810878707
  0
SOLID
  8
0
 62
7
  6
CONTINUOUS
 10
358.8199727462
 20
31.2165607767
 11
359.3402852307
 21
31.345614957
 12
359.1668477307
 22
31.2488235635
 13
359.1668477307
 23
31.2488235635
  0
SOLID
  8
0
 62
7
  6
CONTINUOUS
 10
359.1668477307
 20
31.2488235635
 11
359.1090352445
 21
31.1842964734
 12
358.8199727462
 22
31.2165607767
 13
358.8199727462
 23
31.2165607767
  0
SOLID
  8
0
 62
7
  6
CONTINUOUS
 10
358.7621602445
 20
31.0229779898
 11
358.8199727462
 21
31.2165607767
 12
359.1090352445
 22
31.1842964734
 13
359.1090352445
 23
31.1842964734
  0
SOLID
  8
0
 62
7
  6
CONTINUOUS
 10
363.6184102445
 20
31.1520336865
 11
363.9652852445
 21
31.1842964611
 12
364.6012229651
 22
31.1842964611
 13
364.6012229651
 23
31.1842964611
  0
SOLID
  8
0
 62
7
  6
CONTINUOUS
 10
363.6184102445
 20
31.1520336865
 11
364.6012229651
 21
31.1842964611
 12
363.3871601343
 22
31.0875057863
 13
363.3871601343
 23
31.0875057863
  0
SOLID
  8
0
 62
7
  6
CONTINUOUS
 10
363.3871601343
 20
31.0875057863
 11
364.6012229651
 21
31.1842964611
 12
363.9652852445
 22
31.0552422808
 13
363.9652852445
 23
31.0552422808
  0
SOLID
  8
0
 62
7
  6
CONTINUOUS
 10
364.6012229651
 20
31.1842964611
 11
364.6012229651
 21
31.0552422808
 12
363.9652852445
 22
31.0552422808
 13
363.9652852445
 23
31.0552422808
  0
SOLID
  8
0
 62
7
  6
CONTINUOUS
 10
368.4168479651
 20
31.1520338754
 11
368.5902854651
 21
31.2810878668
 12
368.6480977445
 22
31.2165607767
 13
368.6480977445
 23
31.2165607767
  0
SOLID
  8
0
 62
7
  6
CONTINUOUS
 10
368.6480977445
 20
31.2165607767
 11
368.8215352445
 21
31.1520338754
 12
368.4168479651
 22
31.1520338754
 13
368.4168479651
 23
31.1520338754
  0
SOLID
  8
0
 62
7
  6
CONTINUOUS
 10
368.6480977445
 20
31.0552422931
 11
368.4168479651
 21
31.1520338754
 12
368.8215352445
 22
31.1520338754
 13
368.8215352445
 23
31.1520338754
  0
SOLID
  8
0
 62
7
  6
CONTINUOUS
 10
368.8215352445
 20
31.1520338754
 11
369.8043479651
 21
30.9907152029
 12
368.6480977445
 22
31.0552422931
 13
368.6480977445
 23
31.0552422931
  0
SOLID
  8
0
 62
7
  6
CONTINUOUS
 10
369.6309104651
 20
30.8939239876
 11
368.6480977445
 21
31.0552422931
 12
369.8043479651
 22
30.9907152029
 13
369.8043479651
 23
30.9907152029
  0
SOLID
  8
0
 62
7
  6
CONTINUOUS
 10
369.8043479651
 20
30.9907152029
 11
370.0355977445
 21
30.8939239876
 12
369.6309104651
 22
30.8939239876
 13
369.6309104651
 23
30.8939239876
  0
SOLID
  8
0
 62
7
  6
CONTINUOUS
 10
369.8043479651
 20
30.8293967193
 11
369.6309104651
 21
30.8939239876
 12
370.0355977445
 22
30.8939239876
 13
370.0355977445
 23
30.8939239876
  0
SOLID
  8
0
 62
7
  6
CONTINUOUS
 10
369.8043479651
 20
30.8293967193
 11
370.0355977445
 21
30.8939239876
 12
369.8621602445
 22
30.7648682694
 13
369.8621602445
 23
30.7648682694
  0
SOLID
  8
0
 62
7
  6
CONTINUOUS
 10
370.0355977445
 20
30.8939239876
 11
370.1512223035
 21
30.7648682694
 12
369.8621602445
 22
30.7648682694
 13
369.8621602445
 23
30.7648682694
  0
SOLID
  8
0
 62
7
  6
CONTINUOUS
 10
369.8043479651
 20
30.7003411846
 11
369.8621602445
 21
30.7648682694
 12
370.1512223035
 22
30.7648682694
 13
370.1512223035
 23
30.7648682694
  0
SOLID
  8
0
 62
7
  6
CONTINUOUS
 10
370.1512223035
 20
30.7648682694
 11
370.1512223035
 21
30.7003411846
 12
369.8043479651
 22
30.7003411846
 13
369.8043479651
 23
30.7003411846
  0
SOLID
  8
0
 62
7
  6
CONTINUOUS
 10
369.6887227445
 20
30.6680782357
 11
369.8043479651
 21
30.7003411846
 12
370.1512223035
 22
30.7003411846
 13
370.1512223035
 23
30.7003411846
  0
SOLID
  8
0
 62
7
  6
CONTINUOUS
 10
369.6887227445
 20
30.6680782357
 11
370.1512223035
 21
30.7003411846
 12
369.4574729651
 22
30.6358140998
 13
369.4574729651
 23
30.6358140998
  0
SOLID
  8
0
 62
7
  6
CONTINUOUS
 10
370.1512223035
 20
30.7003411846
 11
370.0355977445
 21
30.6035511455
 12
369.4574729651
 22
30.6358140998
 13
369.4574729651
 23
30.6358140998
  0
SOLID
  8
0
 62
7
  6
CONTINUOUS
 10
370.0355977445
 20
30.6035511455
 11
368.5902854651
 21
30.5712868422
 12
369.4574729651
 22
30.6358140998
 13
369.4574729651
 23
30.6358140998
  0
SOLID
  8
0
 62
7
  6
CONTINUOUS
 10
369.4574729651
 20
30.6358140998
 11
368.5902854651
 21
30.5712868422
 12
369.1105979651
 22
30.6358140998
 13
369.1105979651
 23
30.6358140998
  0
SOLID
  8
0
 62
7
  6
CONTINUOUS
 10
368.5902854651
 20
30.5712868422
 11
368.4168479651
 21
30.6358140998
 12
369.1105979651
 22
30.6358140998
 13
369.1105979651
 23
30.6358140998
  0
SOLID
  8
0
 62
7
  6
CONTINUOUS
 10
368.5902854651
 20
30.5712868422
 11
370.0355977445
 21
30.6035511455
 12
368.7637229651
 22
30.5390223111
 13
368.7637229651
 23
30.5390223111
  0
SOLID
  8
0
 62
7
  6
CONTINUOUS
 10
370.0355977445
 20
30.6035511455
 11
369.8043479651
 21
30.5390223111
 12
368.7637229651
 22
30.5390223111
 13
368.7637229651
 23
30.5390223111
  0
SOLID
  8
0
 62
7
  6
CONTINUOUS
 10
369.1105979651
 20
30.5067599302
 11
368.7637229651
 21
30.5390223111
 12
369.8043479651
 22
30.5390223111
 13
369.8043479651
 23
30.5390223111
  0
SOLID
  8
0
 62
7
  6
CONTINUOUS
 10
369.8043479651
 20
30.5390223111
 11
369.4574729651
 21
30.5067599302
 12
369.1105979651
 22
30.5067599302
 13
369.1105979651
 23
30.5067599302
  0
SOLID
  8
0
 62
7
  6
CONTINUOUS
 10
358.7621602445
 20
31.0229779898
 11
359.1090352445
 21
31.1842964734
 12
359.0512227376
 22
31.0552422931
 13
359.0512227376
 23
31.0552422931
  0
SOLID
  8
0
 62
7
  6
CONTINUOUS
 10
359.0512227376
 20
31.0552422931
 11
359.0512227376
 21
30.9584509954
 12
358.7621602445
 22
31.0229779898
 13
358.7621602445
 23
31.0229779898
  0
SOLID
  8
0
 62
7
  6
CONTINUOUS
 10
358.8199727462
 20
30.8293967193
 11
358.7621602445
 21
31.0229779898
 12
359.0512227376
 22
30.9584509954
 13
359.0512227376
 23
30.9584509954
  0
SOLID
  8
0
 62
7
  6
CONTINUOUS
 10
359.0512227376
 20
30.9584509954
 11
359.1668477307
 21
30.797132416
 12
358.8199727462
 22
30.8293967193
 13
358.8199727462
 23
30.8293967193
  0
SOLID
  8
0
 62
7
  6
CONTINUOUS
 10
358.9355977445
 20
30.7003413087
 11
358.8199727462
 21
30.8293967193
 12
359.1668477307
 22
30.797132416
 13
359.1668477307
 23
30.797132416
  0
SOLID
  8
0
 62
7
  6
CONTINUOUS
 10
359.1668477307
 20
30.797132416
 11
359.3402852307
 21
30.7003413087
 12
358.9355977445
 22
30.7003413087
 13
358.9355977445
 23
30.7003413087
  0
SOLID
  8
0
 62
7
  6
CONTINUOUS
 10
359.0512227376
 20
30.6358140759
 11
358.9355977445
 21
30.7003413087
 12
359.3402852307
 22
30.7003413087
 13
359.3402852307
 23
30.7003413087
  0
SOLID
  8
0
 62
7
  6
CONTINUOUS
 10
359.3402852307
 20
30.7003413087
 11
359.6871602721
 21
30.6358140759
 12
359.0512227376
 22
30.6358140759
 13
359.0512227376
 23
30.6358140759
  0
SOLID
  8
0
 62
7
  6
CONTINUOUS
 10
359.2246602583
 20
30.5712868422
 11
359.0512227376
 21
30.6358140759
 12
359.6871602721
 22
30.6358140759
 13
359.6871602721
 23
30.6358140759
  0
SOLID
  8
0
 62
7
  6
CONTINUOUS
 10
363.2715352445
 20
31.0229779808
 11
363.3871601343
 21
31.0875057863
 12
363.9652852445
 22
31.0552422931
 13
363.9652852445
 23
31.0552422931
  0
SOLID
  8
0
 62
7
  6
CONTINUOUS
 10
363.9652852445
 20
31.0552422931
 11
363.7340351343
 21
31.0229779808
 12
363.2715352445
 22
31.0229779808
 13
363.2715352445
 23
31.0229779808
  0
SOLID
  8
0
 62
7
  6
CONTINUOUS
 10
363.1559103548
 20
30.8939238094
 11
363.2715352445
 21
31.0229779808
 12
363.7340351343
 22
31.0229779808
 13
363.7340351343
 23
31.0229779808
  0
SOLID
  8
0
 62
7
  6
CONTINUOUS
 10
363.5027853548
 20
30.926187309
 11
363.1559103548
 21
30.8939238094
 12
363.6184102445
 22
30.9907152029
 13
363.6184102445
 23
30.9907152029
  0
SOLID
  8
0
 62
7
  6
CONTINUOUS
 10
363.1559103548
 20
30.8939238094
 11
363.7340351343
 21
31.0229779898
 12
363.6184102445
 22
30.9907152029
 13
363.6184102445
 23
30.9907152029
  0
SOLID
  8
0
 62
7
  6
CONTINUOUS
 10
363.5027853548
 20
30.926187309
 11
363.4449727445
 21
30.8293967193
 12
363.1559103548
 22
30.8939238094
 13
363.1559103548
 23
30.8939238094
  0
SOLID
  8
0
 62
7
  6
CONTINUOUS
 10
363.1559103548
 20
30.797132416
 11
363.1559103548
 21
30.8939238094
 12
363.4449727445
 22
30.8293967193
 13
363.4449727445
 23
30.8293967193
  0
SOLID
  8
0
 62
7
  6
CONTINUOUS
 10
363.4449727445
 20
30.8293967193
 11
363.4449727445
 21
30.7648681127
 12
363.1559103548
 22
30.797132416
 13
363.1559103548
 23
30.797132416
  0
SOLID
  8
0
 62
7
  6
CONTINUOUS
 10
363.2137226343
 20
30.6680782357
 11
363.1559103548
 21
30.797132416
 12
363.4449727445
 22
30.7648681127
 13
363.4449727445
 23
30.7648681127
  0
SOLID
  8
0
 62
7
  6
CONTINUOUS
 10
364.6012229651
 20
30.8616599362
 11
364.890285024
 21
30.7648681127
 12
364.543410024
 22
30.797132416
 13
364.543410024
 23
30.797132416
  0
SOLID
  8
0
 62
7
  6
CONTINUOUS
 10
364.369972524
 20
30.7003410226
 11
364.543410024
 21
30.797132416
 12
364.890285024
 22
30.7648681127
 13
364.890285024
 23
30.7648681127
  0
SOLID
  8
0
 62
7
  6
CONTINUOUS
 10
364.369972524
 20
30.7003410226
 11
364.890285024
 21
30.7648681127
 12
364.6012229651
 22
30.6680782357
 13
364.6012229651
 23
30.6680782357
  0
SOLID
  8
0
 62
7
  6
CONTINUOUS
 10
364.890285024
 20
30.7648681127
 11
364.9480979651
 21
30.6035511455
 12
364.6012229651
 22
30.6680782357
 13
364.6012229651
 23
30.6680782357
  0
SOLID
  8
0
 62
7
  6
CONTINUOUS
 10
364.6590352445
 20
30.5712868422
 11
364.6012229651
 21
30.6680782357
 12
364.9480979651
 22
30.6035511455
 13
364.9480979651
 23
30.6035511455
  0
SOLID
  8
0
 62
7
  6
CONTINUOUS
 10
364.6590352445
 20
30.5712868422
 11
364.9480979651
 21
30.6035511455
 12
364.716847524
 22
30.5067598731
 13
364.716847524
 23
30.5067598731
  0
SOLID
  8
0
 62
7
  6
CONTINUOUS
 10
364.9480979651
 20
30.6035511455
 11
365.0059102445
 21
30.5067598731
 12
364.716847524
 22
30.5067598731
 13
364.716847524
 23
30.5067598731
  0
SOLID
  8
0
 62
7
  6
CONTINUOUS
 10
360.2652852997
 20
30.7326051679
 11
360.3230977445
 21
30.8293966612
 12
360.6121602997
 22
30.8293966612
 13
360.6121602997
 23
30.8293966612
  0
SOLID
  8
0
 62
7
  6
CONTINUOUS
 10
360.6121602997
 20
30.8293966612
 11
360.5543476894
 21
30.7003410226
 12
360.2652852997
 22
30.7326051679
 13
360.2652852997
 23
30.7326051679
  0
SOLID
  8
0
 62
7
  6
CONTINUOUS
 10
360.091847717
 20
30.6680782357
 11
360.2652852997
 21
30.7326051679
 12
360.5543476894
 22
30.7003410226
 13
360.5543476894
 23
30.7003410226
  0
SOLID
  8
0
 62
7
  6
CONTINUOUS
 10
360.091847717
 20
30.6680782357
 11
360.5543476894
 21
30.7003410226
 12
359.6871602721
 22
30.6358139324
 13
359.6871602721
 23
30.6358139324
  0
SOLID
  8
0
 62
7
  6
CONTINUOUS
 10
360.5543476894
 20
30.7003410226
 11
360.3809101894
 21
30.6035511455
 12
359.6871602721
 22
30.6358139324
 13
359.6871602721
 23
30.6358139324
  0
SOLID
  8
0
 62
7
  6
CONTINUOUS
 10
359.2246602583
 20
30.5712868422
 11
359.6871602721
 21
30.6358139324
 12
360.3809101894
 22
30.6035511455
 13
360.3809101894
 23
30.6035511455
  0
SOLID
  8
0
 62
7
  6
CONTINUOUS
 10
359.2246602583
 20
30.5712868422
 11
360.3809101894
 21
30.6035511455
 12
359.3980977583
 22
30.5390224228
 13
359.3980977583
 23
30.5390224228
  0
SOLID
  8
0
 62
7
  6
CONTINUOUS
 10
360.3809101894
 20
30.6035511455
 11
360.1496602445
 21
30.5390224228
 12
359.3980977583
 22
30.5390224228
 13
359.3980977583
 23
30.5390224228
  0
SOLID
  8
0
 62
7
  6
CONTINUOUS
 10
359.744972717
 20
30.5067597521
 11
359.3980977583
 21
30.5390224228
 12
360.1496602445
 22
30.5390224228
 13
360.1496602445
 23
30.5390224228
  0
SOLID
  8
0
 62
7
  6
CONTINUOUS
 10
363.2137226343
 20
30.6680782357
 11
363.4449727445
 21
30.7648681127
 12
363.5027853548
 22
30.7003410226
 13
363.5027853548
 23
30.7003410226
  0
SOLID
  8
0
 62
7
  6
CONTINUOUS
 10
363.5027853548
 20
30.7003410226
 11
363.7340351343
 21
30.6358139324
 12
363.2137226343
 22
30.6680782357
 13
363.2137226343
 23
30.6680782357
  0
SOLID
  8
0
 62
7
  6
CONTINUOUS
 10
363.3871601343
 20
30.5712868422
 11
363.2137226343
 21
30.6680782357
 12
363.7340351343
 22
30.6358139324
 13
363.7340351343
 23
30.6358139324
  0
SOLID
  8
0
 62
7
  6
CONTINUOUS
 10
364.0809101343
 20
30.6358139363
 11
364.369972524
 21
30.7003410226
 12
364.6012229651
 22
30.6680782357
 13
364.6012229651
 23
30.6680782357
  0
SOLID
  8
0
 62
7
  6
CONTINUOUS
 10
364.6012229651
 20
30.6680782357
 11
364.543410024
 21
30.6035511455
 12
364.0809101343
 22
30.6358139363
 13
364.0809101343
 23
30.6358139363
  0
SOLID
  8
0
 62
7
  6
CONTINUOUS
 10
364.543410024
 20
30.6035511455
 11
363.3871601343
 21
30.5712868422
 12
364.0809101343
 22
30.6358139363
 13
364.0809101343
 23
30.6358139363
  0
SOLID
  8
0
 62
7
  6
CONTINUOUS
 10
363.3871601343
 20
30.5712868422
 11
363.7340351343
 21
30.6358139363
 12
364.0809101343
 22
30.6358139363
 13
364.0809101343
 23
30.6358139363
  0
SOLID
  8
0
 62
7
  6
CONTINUOUS
 10
363.3871601343
 20
30.5712868422
 11
364.543410024
 21
30.6035511455
 12
363.5027853548
 22
30.5390225267
 13
363.5027853548
 23
30.5390225267
  0
SOLID
  8
0
 62
7
  6
CONTINUOUS
 10
364.543410024
 20
30.6035511455
 11
364.369972524
 21
30.5390225267
 12
363.5027853548
 22
30.5390225267
 13
363.5027853548
 23
30.5390225267
  0
SOLID
  8
0
 62
7
  6
CONTINUOUS
 10
363.7340351343
 20
30.5067596914
 11
363.5027853548
 21
30.5390225267
 12
364.369972524
 22
30.5390225267
 13
364.369972524
 23
30.5390225267
  0
SOLID
  8
0
 62
7
  6
CONTINUOUS
 10
364.369972524
 20
30.5390225267
 11
364.0809101343
 21
30.5067596914
 12
363.7340351343
 22
30.5067596914
 13
363.7340351343
 23
30.5067596914
  0
SOLID
  8
0
 62
7
  6
CONTINUOUS
 10
368.7637229651
 20
30.6680782357
 11
368.4168479651
 21
30.6358138717
 12
368.6480977445
 22
30.7003410226
 13
368.6480977445
 23
30.7003410226
  0
SOLID
  8
0
 62
7
  6
CONTINUOUS
 10
368.6480977445
 20
30.7003410226
 11
368.4168479651
 21
30.6358138717
 12
368.5902854651
 22
30.7648680521
 13
368.5902854651
 23
30.7648680521
  0
SOLID
  8
0
 62
7
  6
CONTINUOUS
 10
368.4168479651
 20
30.6358138717
 11
368.3012227445
 21
30.7648680521
 12
368.5902854651
 22
30.7648680521
 13
368.5902854651
 23
30.7648680521
  0
SOLID
  8
0
 62
7
  6
CONTINUOUS
 10
368.7637229651
 20
30.6680782357
 11
369.1105979651
 21
30.6358138717
 12
368.4168479651
 22
30.6358138717
 13
368.4168479651
 23
30.6358138717
  0
SOLID
  8
0
 62
7
  6
CONTINUOUS
 10
365.4684104651
 20
30.5067597521
 11
365.4684104651
 21
31.5391977439
 12
365.757472524
 22
30.5067597521
 13
365.757472524
 23
31.5391977439
  0
ENDBLK
  8
0
  6
BYBLOCK
 62
0
  0
BLOCK
  8
0
 62
2
  6
CONTINUOUS
  2
SYMBOL_0_BL0
 70
64
 10
240.8592468615
 20
19.762288695
  0
TEXT
  8
0
 62
7
  6
CONTINUOUS
 10
227.1239507038
 20
19.1357028027
  7
TEXTSTYLE_3
 40
2.7338706658
  1
Ammeraal Beltech
 41
1.0
 51
15.0
 72
0
  0
TEXT
  8
0
 62
7
  6
CONTINUOUS
 10
237.9247515296
 20
16.8621661299
  7
TEXTSTYLE_4
 40
1.0935482663
  1
Innovation & Service in Belting
 41
1.0
 72
0
  0
LINE
  8
0
 62
7
  6
CONTINUOUS
 10
221.0994100525
 20
19.9022961113
 11
221.8775620458
 21
23.5632134089
  0
LINE
  8
0
 62
7
  6
CONTINUOUS
 10
231.9727303357
 20
27.2266073205
 11
222.3653797889
 21
24.1049898993
  0
LINE
  8
0
 62
7
  6
CONTINUOUS
 10
221.3246933848
 20
19.2089453082
 11
228.8317686459
 21
12.4495443822
  0
LINE
  8
0
 62
7
  6
CONTINUOUS
 10
221.5872277955
 20
20.4440726016
 11
232.3954971607
 21
23.9558922005
  0
LINE
  8
0
 62
7
  6
CONTINUOUS
 10
232.3912920235
 20
13.6061036368
 11
223.9458323548
 21
21.2104296785
  0
LINE
  8
0
 62
7
  6
CONTINUOUS
 10
232.9111147433
 20
26.3816822048
 11
231.9345552061
 21
21.7873308023
  0
LINE
  8
0
 62
7
  6
CONTINUOUS
 10
231.2347532584
 20
18.4950214885
 11
230.5483050469
 21
15.2655365641
  0
LINE
  8
0
 62
7
  6
CONTINUOUS
 10
233.5922108419
 20
13.9963058145
 11
234.5484423775
 21
18.4950214885
  0
LINE
  8
0
 62
7
  6
CONTINUOUS
 10
235.2482443252
 20
21.7873308023
 11
235.6924861276
 21
23.8773241617
  0
LINE
  8
0
 62
7
  6
CONTINUOUS
 10
229.5448697213
 20
12.2979700695
 11
233.1043930989
 21
13.4545293241
  0
LINE
  8
0
 62
7
  6
CONTINUOUS
 10
232.685831411
 20
27.0750330078
 11
235.4672027953
 21
24.5706749648
  0
ARC
  8
0
 62
7
  6
CONTINUOUS
 10
222.5906631212
 20
23.4116390962
 40
0.7290321776
 50
108.0
 51
168.0
  0
ARC
  8
0
 62
7
  6
CONTINUOUS
 10
232.198013668
 20
26.5332565175
 40
0.7290321776
 50
348.0
 51
108.0
  0
ARC
  8
0
 62
7
  6
CONTINUOUS
 10
234.9793850522
 20
24.0288984744
 40
0.7290321776
 50
348.0
 51
48.0
  0
ARC
  8
0
 62
7
  6
CONTINUOUS
 10
229.319586389
 20
12.9913208726
 40
0.7290321776
 50
228.0
 51
288.0
  0
ARC
  8
0
 62
7
  6
CONTINUOUS
 10
221.8125111278
 20
19.7507217986
 40
0.7290321776
 50
108.0
 51
228.0
  0
ARC
  8
0
 62
7
  6
CONTINUOUS
 10
232.8791097665
 20
14.1478801272
 40
0.7290321776
 50
228.0
 51
348.0
  0
ENDBLK
  8
0
  6
BYBLOCK
 62
0
  0
ENDSEC
  0
SECTION
  2
ENTITIES
  0
TEXT
  8
0
 62
5
  6
CONTINUOUS
 10
304.937007874
 20
25.636
  7
TEXTSTYLE_2
 40
2.8
  1
Scale :
 41
0.6
 51
0.000019
 72
0
  0
TEXT
  8
0
 62
5
  6
CONTINUOUS
 10
324.937007874
 20
25.636
  7
TEXTSTYLE_2
 40
2.8
  1
Belt type:
 41
0.6
 51
0.000019
 72
0
  0
INSERT
  8
0
 62
2
  6
CONTINUOUS
  2
SYMBOL_0_BL0
 10
240.8592468615
 20
19.762288695
  0
INSERT
  8
0
 62
2
  6
CONTINUOUS
  2
SYMBOL_5_BL1
 10
382.7840918555
 20
35.5067593403
  0
LINE
  8
0
 62
2
  6
CONTINUOUS
 10
218.937007874
 20
30.0
 11
408.937007874
 21
30.0
  0
LINE
  8
0
 62
2
  6
CONTINUOUS
 10
218.937007874
 20
30.0
 11
218.937007874
 21
10.0
  0
LINE
  8
0
 62
2
  6
CONTINUOUS
 10
218.937007874
 20
10.0
 11
408.937007874
 21
10.0
  0
LINE
  8
0
 62
2
  6
CONTINUOUS
 10
303.937007874
 20
30.0
 11
303.937007874
 21
10.0
  0
LINE
  8
0
 62
2
  6
CONTINUOUS
 10
323.937007874
 20
30.0
 11
323.937007874
 21
10.0
  0
LINE
  8
0
 62
2
  6
CONTINUOUS
 10
408.937007874
 20
30.0
 11
408.937007874
 21
10.0
  0
TEXT
  8
0
 62
5
  6
CONTINUOUS
 10
221.937007874
 20
23.303
  7
TEXTSTYLE_5
 40
1.52
  1
                                                                     Ammeraal Beltech Modular A/S
 41
1.0
 72
0
  0
TEXT
  8
0
 62
5
  6
CONTINUOUS
 10
221.937007874
 20
20.595
  7
TEXTSTYLE_5
 40
1.5
  1
                                                                      Hjulmagervej 21, 7100 Vejle,  DK
 41
1.0
 72
0
  0
TEXT
  8
0
 62
5
  6
CONTINUOUS
 10
221.937007874
 20
17.881
  7
TEXTSTYLE_5
 40
1.495
  1
                                                                      tel: 
 41
1.0
 72
0
  0
TEXT
  8
0
 62
5
  6
CONTINUOUS
 10
266.9239544389
 20
17.881
  7
TEXTSTYLE_5
 40
1.51
  1
+45 75723100     fax: +45 75723348
 41
1.0
 72
0
  0
TEXT
  8
0
 62
5
  6
CONTINUOUS
 10
221.937007874
 20
15.177
  7
TEXTSTYLE_5
 40
1.5
  1
                                                                      admin@unichains.dk  www.unichains.com
 41
1.0
 72
0
  0
TEXT
  8
0
 62
5
  6
CONTINUOUS
 10
308.687007874
 20
13.75
  7
TEXTSTYLE_6
 40
5.0
  1
1:1
 41
0.7
 72
1
 11
313.937007874
 21
13.75
  0
TEXT
  8
0
 62
5
  6
CONTINUOUS
 10
326.937007874
 20
13.75
  7
TEXTSTYLE_7
 40
7.5
  1
Sprocket Z12
 41
0.6361111111
 72
0
  0
LINE
  8
0
 62
7
  6
CONTINUOUS
 10
0.0
 20
0.0
 11
0.0
 21
297.0
  0
LINE
  8
0
 62
7
  6
CONTINUOUS
 10
8.937007874
 20
10.0
 11
8.937007874
 21
287.0
  0
LINE
  8
0
 62
7
  6
CONTINUOUS
 10
0.0
 20
0.0
 11
420.0
 21
0.0
  0
LINE
  8
0
 62
7
  6
CONTINUOUS
 10
408.937007874
 20
10.0
 11
8.937007874
 21
10.0
  0
LINE
  8
0
 62
7
  6
CONTINUOUS
 10
218.937007874
 20
30.0
 11
408.937007874
 21
30.0
  0
LINE
  8
0
 62
7
  6
CONTINUOUS
 10
210.0
 20
297.0
 11
210.0
 21
292.0
  0
LINE
  8
0
 62
7
  6
CONTINUOUS
 10
210.0
 20
0.0
 11
210.0
 21
5.0
  0
LINE
  8
0
 62
7
  6
CONTINUOUS
 10
8.937007874
 20
287.0
 11
408.937007874
 21
287.0
  0
LINE
  8
0
 62
7
  6
CONTINUOUS
 10
0.0
 20
297.0
 11
420.0
 21
297.0
  0
LINE
  8
0
 62
7
  6
CONTINUOUS
 10
408.937007874
 20
287.0
 11
408.937007874
 21
10.0
  0
LINE
  8
0
 62
7
  6
CONTINUOUS
 10
420.0
 20
0.0
 11
420.0
 21
297.0
  0
LINE
  8
0
 62
7
  6
CONTINUOUS
 10
52.0600328228
 20
138.0531026187
 11
52.0600328228
 21
167.7423028463
  0
LINE
  8
0
 62
7
  6
CONTINUOUS
 10
50.8437577875
 20
184.8923028463
 11
65.6883579013
 21
210.6039044615
  0
LINE
  8
0
 62
7
  6
CONTINUOUS
 10
73.2100328228
 20
226.064377654
 11
98.9216344379
 21
240.9089777678
  0
LINE
  8
0
 62
7
  6
CONTINUOUS
 10
102.3449232623
 20
238.2821278452
 11
101.5983907402
 21
237.9118129682
  0
LINE
  8
0
 62
7
  6
CONTINUOUS
 10
116.2271790105
 20
243.6035607156
 11
114.7885951059
 21
243.1787356347
  0
LINE
  8
0
 62
7
  6
CONTINUOUS
 10
164.5442330503
 20
76.9473028463
 11
134.8550328228
 21
76.9473028463
  0
LINE
  8
0
 62
7
  6
CONTINUOUS
 10
117.7050328228
 20
75.7310278111
 11
91.9934312076
 21
90.5756279249
  0
LINE
  8
0
 62
7
  6
CONTINUOUS
 10
76.5329580151
 20
98.0973028463
 11
61.6883579013
 21
123.8089044615
  0
LINE
  8
0
 62
7
  6
CONTINUOUS
 10
96.6162890196
 20
226.7479918987
 11
96.1618485695
 21
226.2313677521
  0
LINE
  8
0
 62
7
  6
CONTINUOUS
 10
99.2374768565
 20
233.7575742595
 11
98.7410810691
 21
233.2811202016
  0
LINE
  8
0
 62
7
  6
CONTINUOUS
 10
99.0763790456
 20
232.6885551609
 11
99.572774833
 21
233.1650092187
  0
LINE
  8
0
 62
7
  6
CONTINUOUS
 10
114.0375883114
 20
242.7794779766
 11
113.4946324882
 21
242.2641799212
  0
LINE
  8
0
 62
7
  6
CONTINUOUS
 10
95.3998846244
 20
231.482863155
 11
94.7118079184
 21
231.012761936
  0
LINE
  8
0
 62
7
  6
CONTINUOUS
 10
91.9595017345
 20
229.132357497
 11
91.2714251762
 21
228.6622563789
  0
LINE
  8
0
 62
7
  6
CONTINUOUS
 10
96.1618485695
 20
226.2313677521
 11
95.6113872441
 21
225.8552868038
  0
LINE
  8
0
 62
7
  6
CONTINUOUS
 10
95.9954698568
 20
225.2931136201
 11
96.5459311821
 21
225.6691945685
  0
LINE
  8
0
 62
7
  6
CONTINUOUS
 10
98.0596995808
 20
226.7034170082
 11
98.7477762868
 21
227.1735182272
  0
LINE
  8
0
 62
7
  6
CONTINUOUS
 10
114.4866747608
 20
241.8472198584
 11
115.0778376797
 21
242.1992743696
  0
LINE
  8
0
 62
7
  6
CONTINUOUS
 10
118.7948330867
 20
237.262629115
 11
118.2036701678
 21
236.9105746038
  0
LINE
  8
0
 62
7
  6
CONTINUOUS
 10
99.8176971381
 20
234.0858870572
 11
99.2374768565
 21
233.7575742595
  0
LINE
  8
0
 62
7
  6
CONTINUOUS
 10
97.9319818454
 20
233.018870817
 11
97.2067067009
 21
232.6084799373
  0
LINE
  8
0
 62
7
  6
CONTINUOUS
 10
99.8890907478
 20
227.8679591961
 11
100.6143658923
 21
228.2783500757
  0
LINE
  8
0
 62
7
  6
CONTINUOUS
 10
103.2253559145
 20
229.7557569608
 11
103.9506306439
 21
230.1661476057
  0
LINE
  8
0
 62
7
  6
CONTINUOUS
 10
125.7446339048
 20
242.4393951464
 11
125.2844561988
 21
242.1801484345
  0
LINE
  8
0
 62
7
  6
CONTINUOUS
 10
114.7885951059
 20
243.1787356347
 11
114.0375883114
 21
242.7794779766
  0
LINE
  8
0
 62
7
  6
CONTINUOUS
 10
118.4929127754
 20
235.9311132243
 11
119.2439195657
 21
236.3303708967
  0
LINE
  8
0
 62
7
  6
CONTINUOUS
 10
101.9765847564
 20
237.1493965755
 11
102.7231172784
 21
237.5197114525
  0
LINE
  8
0
 62
7
  6
CONTINUOUS
 10
103.4795055226
 20
235.99487824
 11
102.7329730006
 21
235.6245633629
  0
LINE
  8
0
 62
7
  6
CONTINUOUS
 10
105.1534149158
 20
230.7450980226
 11
105.8999474378
 21
231.1154128996
  0
LINE
  8
0
 62
7
  6
CONTINUOUS
 10
133.6667309576
 20
243.3550933829
 11
133.1829707356
 21
243.1430829434
  0
LINE
  8
0
 62
7
  6
CONTINUOUS
 10
125.3084179492
 20
241.1456396617
 11
126.0962444626
 21
241.4661768494
  0
LINE
  8
0
 62
7
  6
CONTINUOUS
 10
115.0778376797
 20
242.1992743696
 11
116.5164215843
 21
242.6240994505
  0
LINE
  8
0
 62
7
  6
CONTINUOUS
 10
118.0844061515
 20
242.0222602023
 11
119.0434620879
 21
242.3054769229
  0
LINE
  8
0
 62
7
  6
CONTINUOUS
 10
120.152225355
 20
238.550875178
 11
119.1931694186
 21
238.2676584574
  0
LINE
  8
0
 62
7
  6
CONTINUOUS
 10
118.2036701678
 20
236.9105746038
 11
116.7650862632
 21
236.4857495228
  0
LINE
  8
0
 62
7
  6
CONTINUOUS
 10
117.0543288708
 20
235.5062881434
 11
118.4929127754
 21
235.9311132243
  0
LINE
  8
0
 62
7
  6
CONTINUOUS
 10
133.4067286385
 20
238.5497641161
 11
134.2226196253
 21
238.7900485449
  0
LINE
  8
0
 62
7
  6
CONTINUOUS
 10
98.7410810691
 20
233.2811202016
 11
98.4735654686
 21
232.7386034352
  0
LINE
  8
0
 62
7
  6
CONTINUOUS
 10
98.8088634451
 20
232.1460383944
 11
99.0763790456
 21
232.6885551609
  0
LINE
  8
0
 62
7
  6
CONTINUOUS
 10
97.0003716575
 20
226.1858186782
 11
97.1795817654
 21
226.5144025155
  0
LINE
  8
0
 62
7
  6
CONTINUOUS
 10
114.1035609839
 20
241.3791244097
 11
114.4866747608
 21
241.8472198584
  0
LINE
  8
0
 62
7
  6
CONTINUOUS
 10
96.5459311821
 20
225.6691945685
 11
97.0003716575
 21
226.1858186782
  0
LINE
  8
0
 62
7
  6
CONTINUOUS
 10
119.2439195657
 20
236.3303708967
 11
119.7868753762
 21
236.845668995
  0
LINE
  8
0
 62
7
  6
CONTINUOUS
 10
134.2226803175
 20
242.7191072432
 11
134.5403770569
 21
242.9169808572
  0
LINE
  8
0
 62
7
  6
CONTINUOUS
 10
133.9699253674
 20
239.7935073946
 11
133.4861651454
 21
239.5814969552
  0
LINE
  8
0
 62
7
  6
CONTINUOUS
 10
95.3489879767
 20
225.057576035
 11
95.9954698568
 21
225.2931136201
  0
LINE
  8
0
 62
7
  6
CONTINUOUS
 10
98.4735654686
 20
232.7386034352
 11
98.3511043161
 21
232.278164516
  0
LINE
  8
0
 62
7
  6
CONTINUOUS
 10
98.6864022926
 20
231.6855994752
 11
98.8088634451
 21
232.1460383944
  0
LINE
  8
0
 62
7
  6
CONTINUOUS
 10
96.8370936749
 20
227.3111391436
 11
96.6162890196
 21
226.7479918987
  0
LINE
  8
0
 62
7
  6
CONTINUOUS
 10
113.4946324882
 20
242.2641799212
 11
113.0480908562
 21
241.4223947775
  0
LINE
  8
0
 62
7
  6
CONTINUOUS
 10
126.0096917021
 20
242.8353076188
 11
125.7446339048
 21
242.4393951464
  0
LINE
  8
0
 62
7
  6
CONTINUOUS
 10
119.1779468299
 20
237.730724678
 11
118.7948330867
 21
237.262629115
  0
LINE
  8
0
 62
7
  6
CONTINUOUS
 10
133.9699898694
 20
243.7225663126
 11
133.6667309576
 21
243.3550933829
  0
LINE
  8
0
 62
7
  6
CONTINUOUS
 10
126.0962444626
 20
241.4661768494
 11
126.6576536874
 21
242.0906904452
  0
LINE
  8
0
 62
7
  6
CONTINUOUS
 10
134.2226196253
 20
238.7900485449
 11
134.8435714718
 21
239.3553948095
  0
LINE
  8
0
 62
7
  6
CONTINUOUS
 10
155.6648147074
 20
240.6917570362
 11
156.4169925598
 21
241.0651549839
  0
LINE
  8
0
 62
7
  6
CONTINUOUS
 10
162.2310697119
 20
235.2068695852
 11
163.0167637615
 21
235.5033107577
  0
LINE
  8
0
 62
7
  6
CONTINUOUS
 10
97.1795817654
 20
226.5144025155
 11
97.3043655287
 21
227.2180929832
  0
LINE
  8
0
 62
7
  6
CONTINUOUS
 10
113.9284964839
 20
240.7949875662
 11
114.1035609839
 21
241.3791244097
  0
LINE
  8
0
 62
7
  6
CONTINUOUS
 10
119.7868753762
 20
236.845668995
 11
120.2334169914
 21
237.6874541959
  0
LINE
  8
0
 62
7
  6
CONTINUOUS
 10
134.2731842691
 20
240.1609804431
 11
133.9699253674
 21
239.7935073946
  0
LINE
  8
0
 62
7
  6
CONTINUOUS
 10
156.089376972
 20
241.9962712475
 11
155.6969784098
 21
241.7260432938
  0
LINE
  8
0
 62
7
  6
CONTINUOUS
 10
163.8156380687
 20
239.884763895
 11
163.3982184328
 21
239.6550615458
  0
LINE
  8
0
 62
7
  6
CONTINUOUS
 10
162.7837414565
 20
236.462482473
 11
162.3663217862
 21
236.2327800097
  0
LINE
  8
0
 62
7
  6
CONTINUOUS
 10
213.3438011272
 20
130.2387940377
 11
214.1640376719
 21
130.4407100381
  0
LINE
  8
0
 62
7
  6
CONTINUOUS
 10
213.7258913594
 20
131.1629190587
 11
213.1266304904
 21
131.0499778669
  0
LINE
  8
0
 62
7
  6
CONTINUOUS
 10
96.8242622376
 20
227.9208094997
 11
96.8370936749
 21
227.3111391436
  0
LINE
  8
0
 62
7
  6
CONTINUOUS
 10
113.0480908562
 20
241.4223947775
 11
112.9212333168
 21
240.6750148471
  0
LINE
  8
0
 62
7
  6
CONTINUOUS
 10
126.6576536874
 20
242.0906904452
 11
127.0239392538
 21
242.8518690999
  0
LINE
  8
0
 62
7
  6
CONTINUOUS
 10
139.0196067061
 20
245.0439697088
 11
136.8863995976
 21
240.7717801431
  0
LINE
  8
0
 62
7
  6
CONTINUOUS
 10
134.5403770569
 20
242.9169808572
 11
134.9808237961
 21
243.637789244
  0
LINE
  8
0
 62
7
  6
CONTINUOUS
 10
134.8435714718
 20
239.3553948095
 11
135.2840182059
 21
240.0762032558
  0
LINE
  8
0
 62
7
  6
CONTINUOUS
 10
156.4169925598
 20
241.0651549839
 11
157.0382152909
 21
241.6375537775
  0
LINE
  8
0
 62
7
  6
CONTINUOUS
 10
164.0486604253
 20
238.9255923509
 11
164.7239241576
 21
239.4331127469
  0
LINE
  8
0
 62
7
  6
CONTINUOUS
 10
163.0167637615
 20
235.5033107577
 11
163.692027511
 21
236.0108312108
  0
LINE
  8
0
 62
7
  6
CONTINUOUS
 10
210.3780179452
 20
136.8755549147
 11
209.5577813454
 21
136.6736389371
  0
LINE
  8
0
 62
7
  6
CONTINUOUS
 10
209.995927713
 20
135.9514298938
 11
210.595182862
 21
136.064356939
  0
LINE
  8
0
 62
7
  6
CONTINUOUS
 10
137.3890554292
 20
240.4352884935
 11
139.5222625414
 21
244.7074775825
  0
LINE
  8
0
 62
7
  6
CONTINUOUS
 10
218.0041333684
 20
145.6695601883
 11
218.5368212494
 21
145.7386579726
  0
LINE
  8
0
 62
7
  6
CONTINUOUS
 10
218.7222435228
 20
146.7213169066
 11
218.1895556418
 21
146.6522191223
  0
LINE
  8
0
 62
7
  6
CONTINUOUS
 10
209.7742157796
 20
139.1134454468
 11
218.2026631932
 21
139.3825410319
  0
LINE
  8
0
 62
7
  6
CONTINUOUS
 10
209.84950057
 20
131.1425008874
 11
210.7633513231
 21
131.1253547231
  0
LINE
  8
0
 62
7
  6
CONTINUOUS
 10
212.8082239069
 20
130.2798783831
 11
213.3438011272
 21
130.2387940377
  0
LINE
  8
0
 62
7
  6
CONTINUOUS
 10
210.5461865166
 20
131.9365526534
 11
210.010609076
 21
131.9776370899
  0
LINE
  8
0
 62
7
  6
CONTINUOUS
 10
112.9212333168
 20
240.6750148471
 11
113.0024268837
 21
239.8115940622
  0
LINE
  8
0
 62
7
  6
CONTINUOUS
 10
113.9614828202
 20
240.0948107828
 11
113.9284964839
 21
240.7949875662
  0
LINE
  8
0
 62
7
  6
CONTINUOUS
 10
119.1931694186
 20
238.2676584574
 11
119.1779468299
 21
237.730724678
  0
LINE
  8
0
 62
7
  6
CONTINUOUS
 10
126.0796220914
 20
243.3678844488
 11
126.0096917021
 21
242.8353076188
  0
LINE
  8
0
 62
7
  6
CONTINUOUS
 10
127.0239392538
 20
242.8518690999
 11
127.0938696431
 21
243.3844459299
  0
LINE
  8
0
 62
7
  6
CONTINUOUS
 10
134.0927398692
 20
244.2455010855
 11
133.9699898694
 21
243.7225663126
  0
LINE
  8
0
 62
7
  6
CONTINUOUS
 10
134.9808237961
 20
243.637789244
 11
135.1035737959
 21
244.1607240169
  0
LINE
  8
0
 62
7
  6
CONTINUOUS
 10
134.3959342689
 20
240.683915216
 11
134.2731842691
 21
240.1609804431
  0
LINE
  8
0
 62
7
  6
CONTINUOUS
 10
135.2840182059
 20
240.0762032558
 11
135.4067681956
 21
240.5991381474
  0
LINE
  8
0
 62
7
  6
CONTINUOUS
 10
143.3345169795
 20
250.8955462119
 11
145.3277339463
 21
257.6374949048
  0
LINE
  8
0
 62
7
  6
CONTINUOUS
 10
148.0320575032
 20
246.2712808966
 11
144.96437637
 21
239.3469310659
  0
LINE
  8
0
 62
7
  6
CONTINUOUS
 10
145.5603265055
 20
238.4449365193
 11
148.3933369807
 21
244.5344115814
  0
LINE
  8
0
 62
7
  6
CONTINUOUS
 10
156.3508204129
 20
242.4655000471
 11
156.089376972
 21
241.9962712475
  0
LINE
  8
0
 62
7
  6
CONTINUOUS
 10
157.0382152909
 20
241.6375537775
 11
157.2996587319
 21
242.1067825771
  0
LINE
  8
0
 62
7
  6
CONTINUOUS
 10
164.1226200957
 20
240.325547713
 11
163.8156380687
 21
239.884763895
  0
LINE
  8
0
 62
7
  6
CONTINUOUS
 10
164.7239241576
 20
239.4331127469
 11
165.0309061846
 21
239.873896565
  0
LINE
  8
0
 62
7
  6
CONTINUOUS
 10
163.0907234835
 20
236.903266291
 11
162.7837414565
 21
236.462482473
  0
LINE
  8
0
 62
7
  6
CONTINUOUS
 10
163.692027511
 20
236.0108312108
 11
163.9990095724
 21
236.451615143
  0
LINE
  8
DEFAULT_1
 62
2
  6
CENTER
 10
120.1005552232
 20
175.534838194
 11
127.062497475
 21
182.4967804459
  0
LINE
  8
DEFAULT_1
 62
2
  6
CENTER
 10
134.7227281403
 20
187.8942694113
 11
131.1871942344
 21
184.3587355054
  0
LINE
  8
DEFAULT_1
 62
2
  6
CENTER
 10
114.7030662578
 20
167.8746075288
 11
118.2386001637
 21
171.4101414347
  0
LINE
  8
0
 62
7
  6
CONTINUOUS
 10
186.3110015811
 20
236.9794835447
 11
191.4081524561
 21
241.8215739005
  0
LINE
  8
0
 62
7
  6
CONTINUOUS
 10
61.1383679676
 20
124.0450282392
 11
54.3030606451
 21
122.4002304211
  0
LINE
  8
0
 62
7
  6
CONTINUOUS
 10
217.7407362134
 20
140.2159751368
 11
212.9079839277
 21
140.0919749168
  0
LINE
  8
0
 62
7
  6
CONTINUOUS
 10
212.2079010803
 20
140.1268526247
 11
210.0600097981
 21
140.071736519
  0
LINE
  8
0
 62
7
  6
CONTINUOUS
 10
236.2742511526
 20
146.8423028463
 11
234.2275237902
 21
146.8423028463
  0
LINE
  8
0
 62
7
  6
CONTINUOUS
 10
211.2918688085
 20
136.8584087049
 11
210.3780179452
 21
136.8755549147
  0
LINE
  8
0
 62
7
  6
CONTINUOUS
 10
210.595182862
 20
136.064356939
 11
211.1307600822
 21
136.0232725936
  0
LINE
  8
0
 62
7
  6
CONTINUOUS
 10
51.7017894572
 20
168.2217870031
 11
44.9598407643
 21
170.2150039698
  0
LINE
  8
0
 62
7
  6
CONTINUOUS
 10
214.7725507132
 20
100.3968643574
 11
213.0000328228
 21
101.4202280387
  0
LINE
  8
DEFAULT_1
 62
2
  6
CENTER
 10
120.1005552232
 20
151.9497674986
 11
127.062497475
 21
144.9878252468
  0
LINE
  8
DEFAULT_1
 62
2
  6
CENTER
 10
131.1871942344
 20
143.1258701873
 11
134.7227281403
 21
139.5903362813
  0
LINE
  8
DEFAULT_1
 62
2
  6
CENTER
 10
118.2386001637
 20
156.0744642579
 11
114.7030662578
 21
159.6099981639
  0
LINE
  8
0
 62
7
  6
CONTINUOUS
 10
65.6178521244
 20
211.1982716047
 11
60.7757617686
 21
216.2954224796
  0
LINE
  8
0
 62
7
  6
CONTINUOUS
 10
99.1577582156
 20
241.4589677015
 11
97.5129603976
 21
248.294275024
  0
LINE
  8
0
 62
7
  6
CONTINUOUS
 10
120.2334169914
 20
237.6874541959
 11
120.152225355
 21
238.550875178
  0
LINE
  8
0
 62
7
  6
CONTINUOUS
 10
121.9550328228
 20
68.3698118789
 11
121.9550328228
 21
66.3230845165
  0
LINE
  8
0
 62
7
  6
CONTINUOUS
 10
76.5329580151
 20
89.5973028463
 11
75.5095943339
 21
87.8247849559
  0
LINE
  8
0
 62
7
  6
CONTINUOUS
 10
47.8100328228
 20
130.6918866866
 11
46.0375149323
 21
129.6685230054
  0
LINE
  8
0
 62
4
  6
CONTINUOUS
 10
135.8550328228
 20
151.4173028463
 11
141.8550328228
 21
151.4173028463
  0
LINE
  8
0
 62
7
  6
CONTINUOUS
 10
212.4566376778
 20
136.5571777583
 11
211.2918688085
 21
136.8584087049
  0
LINE
  8
0
 62
7
  6
CONTINUOUS
 10
171.9054489825
 20
72.6973028463
 11
172.9288126637
 21
70.9247849559
  0
LINE
  8
0
 62
7
  6
CONTINUOUS
 10
128.7425662641
 20
246.1816439203
 11
129.421144242
 21
238.2104751272
  0
LINE
  8
0
 62
7
  6
CONTINUOUS
 10
130.3309133654
 20
239.312893388
 11
130.1143459212
 21
241.8568834814
  0
LINE
  8
0
 62
7
  6
CONTINUOUS
 10
130.0277189556
 20
242.8744793763
 11
129.8255893288
 21
245.2488702727
  0
LINE
  8
0
 62
4
  6
CONTINUOUS
 10
135.8550328228
 20
176.0673028463
 11
135.8550328228
 21
172.7825254653
  0
LINE
  8
0
 62
4
  6
CONTINUOUS
 10
135.8550328228
 20
154.7020802274
 11
135.8550328228
 21
151.4173028463
  0
LINE
  8
1_AXIS
 62
2
  6
CONTINUOUS
 10
138.8550328228
 20
164.7923028463
 11
138.8550328228
 21
162.6923028463
  0
LINE
  8
1_AXIS
 62
2
  6
CENTER
 10
138.8550328228
 20
158.4923028463
 11
138.8550328228
 21
62.9087926036
  0
LINE
  8
1_AXIS
 62
2
  6
CENTER
 10
138.8550328228
 20
168.9923028463
 11
138.8550328228
 21
264.5758130891
  0
LINE
  8
0
 62
7
  6
CONTINUOUS
 10
141.5531756195
 20
246.7948165076
 11
140.9088240982
 21
238.8208080352
  0
LINE
  8
0
 62
7
  6
CONTINUOUS
 10
141.9055751573
 20
238.7402640951
 11
142.4128306265
 21
245.0176752223
  0
LINE
  8
0
 62
7
  6
CONTINUOUS
 10
151.7366616598
 20
245.7945458084
 11
150.2033797284
 21
237.9428551294
  0
LINE
  8
0
 62
7
  6
CONTINUOUS
 10
151.1848410632
 20
237.751194888
 11
151.8699244891
 21
241.259397156
  0
LINE
  8
0
 62
7
  6
CONTINUOUS
 10
152.0656625847
 20
242.2617405275
 11
152.555007915
 21
244.7675994241
  0
LINE
  8
0
 62
7
  6
CONTINUOUS
 10
159.8638629296
 20
244.0986093452
 11
157.5543799144
 21
236.439217189
  0
LINE
  8
0
 62
7
  6
CONTINUOUS
 10
158.8066315521
 20
237.128326553
 11
159.5437006149
 21
239.5728134624
  0
LINE
  8
0
 62
7
  6
CONTINUOUS
 10
159.8385281987
 20
240.5506080892
 11
160.5264593653
 21
242.8321293415
  0
LINE
  8
0
 62
7
  6
CONTINUOUS
 10
166.0459079132
 20
237.6535685844
 11
165.73970561
 21
236.8594967835
  0
LINE
  8
0
 62
7
  6
CONTINUOUS
 10
171.5801127541
 20
240.0913714167
 11
168.1359030379
 21
232.8707468293
  0
LINE
  8
0
 62
7
  6
CONTINUOUS
 10
169.0384811114
 20
232.4402206148
 11
170.6506643958
 21
235.8200874704
  0
LINE
  8
0
 62
7
  6
CONTINUOUS
 10
171.0903506902
 20
236.7418692227
 11
172.4826908275
 21
239.6608452021
  0
LINE
  8
0
 62
7
  6
CONTINUOUS
 10
210.6989959746
 20
205.4382985925
 11
209.9463673516
 21
205.0409830687
  0
LINE
  8
0
 62
7
  6
CONTINUOUS
 10
204.828491977
 20
202.3392371172
 11
203.6242860747
 21
201.7035322234
  0
LINE
  8
0
 62
7
  6
CONTINUOUS
 10
213.4791794602
 20
197.2813722242
 11
212.23042337
 21
196.7383788832
  0
LINE
  8
0
 62
7
  6
CONTINUOUS
 10
213.7218456462
 20
196.2964430385
 11
207.634160964
 21
193.6493510478
  0
LINE
  8
0
 62
7
  6
CONTINUOUS
 10
209.3900906216
 20
191.7992005386
 11
208.5874780614
 21
191.5161409145
  0
LINE
  8
1_AXIS
 62
2
  6
CONTINUOUS
 10
139.9050328228
 20
163.7423028463
 11
137.8050328228
 21
163.7423028463
  0
LINE
  8
1_AXIS
 62
2
  6
CENTER
 10
133.6050328228
 20
163.7423028463
 11
38.02152258
 21
163.7423028463
  0
LINE
  8
1_AXIS
 62
2
  6
CENTER
 10
144.1050328228
 20
163.7423028463
 11
239.6885430655
 21
163.7423028463
  0
LINE
  8
0
 62
7
  6
CONTINUOUS
 10
217.335088599
 20
145.7958052138
 11
218.0041333684
 21
145.6695601883
  0
LINE
  8
0
 62
7
  6
CONTINUOUS
 10
218.1895556418
 20
146.6522191223
 11
217.6877719476
 21
146.7469029135
  0
LINE
  8
0
 62
7
  6
CONTINUOUS
 10
209.0630110639
 20
131.4676841161
 11
209.84950057
 21
131.1425008874
  0
LINE
  8
0
 62
7
  6
CONTINUOUS
 10
210.010609076
 20
131.9776370899
 11
209.5387155045
 21
132.1727469724
  0
LINE
  8
0
 62
7
  6
CONTINUOUS
 10
91.2714251762
 20
228.6622563789
 11
93.1918382059
 21
225.8513905099
  0
LINE
  8
0
 62
7
  6
CONTINUOUS
 10
93.8799147642
 20
226.321491628
 11
91.9595017345
 21
229.132357497
  0
LINE
  8
0
 62
7
  6
CONTINUOUS
 10
94.7118079184
 20
231.012761936
 11
96.8242622376
 21
227.9208094997
  0
LINE
  8
0
 62
7
  6
CONTINUOUS
 10
97.2067067009
 20
232.6084799373
 11
99.8890907478
 21
227.8679591961
  0
LINE
  8
0
 62
7
  6
CONTINUOUS
 10
100.6143658923
 20
228.2783500757
 11
98.6864022926
 21
231.6855994752
  0
LINE
  8
0
 62
7
  6
CONTINUOUS
 10
98.3511043161
 20
232.278164516
 11
97.9319818454
 21
233.018870817
  0
LINE
  8
0
 62
7
  6
CONTINUOUS
 10
101.5983907402
 20
237.9118129682
 11
101.9765847564
 21
237.1493965755
  0
LINE
  8
0
 62
7
  6
CONTINUOUS
 10
102.7329730006
 20
235.6245633629
 11
105.1534149158
 21
230.7450980226
  0
LINE
  8
0
 62
7
  6
CONTINUOUS
 10
105.8999474378
 20
231.1154128996
 11
103.4795055226
 21
235.99487824
  0
LINE
  8
0
 62
7
  6
CONTINUOUS
 10
102.7231172784
 20
237.5197114525
 11
102.3449232623
 21
238.2821278452
  0
LINE
  8
0
 62
7
  6
CONTINUOUS
 10
113.0024268837
 20
239.8115940622
 11
113.7255333858
 21
237.3629406708
  0
LINE
  8
0
 62
7
  6
CONTINUOUS
 10
114.6845893222
 20
237.6461573914
 11
113.9614828202
 21
240.0948107828
  0
LINE
  8
0
 62
7
  6
CONTINUOUS
 10
120.5628834226
 20
244.7602281024
 11
122.0338604522
 21
236.8966267279
  0
LINE
  8
0
 62
7
  6
CONTINUOUS
 10
123.0168106241
 20
237.0804988566
 11
122.3595655589
 21
240.5940229249
  0
LINE
  8
0
 62
7
  6
CONTINUOUS
 10
122.1717812797
 20
241.5978868105
 11
121.7023204938
 21
244.1075469932
  0
LINE
  8
0
 62
7
  6
CONTINUOUS
 10
134.063864214
 20
244.5846997171
 11
134.0927398692
 21
244.2455010855
  0
LINE
  8
0
 62
7
  6
CONTINUOUS
 10
134.3526207861
 20
241.1927131634
 11
134.3959342689
 21
240.683915216
  0
LINE
  8
0
 62
7
  6
CONTINUOUS
 10
135.4067681956
 20
240.5991381474
 11
135.3345790576
 21
241.4471347265
  0
LINE
  8
0
 62
7
  6
CONTINUOUS
 10
135.1035737959
 20
244.1607240169
 11
135.0458224451
 21
244.8391217553
  0
LINE
  8
0
 62
4
  6
CONTINUOUS
 10
141.8550328228
 20
151.4173028463
 11
141.8550328228
 21
154.7020802274
  0
LINE
  8
0
 62
4
  6
CONTINUOUS
 10
141.8550328228
 20
172.7825254653
 11
141.8550328228
 21
176.0673028463
  0
LINE
  8
0
 62
7
  6
CONTINUOUS
 10
148.3933369807
 20
244.5344115814
 11
147.8860815115
 21
238.2570004541
  0
LINE
  8
0
 62
7
  6
CONTINUOUS
 10
148.8828325706
 20
238.176456514
 11
149.5271840918
 21
246.1504649863
  0
LINE
  8
0
 62
7
  6
CONTINUOUS
 10
156.4486895521
 20
242.9666722008
 11
156.3508204129
 21
242.4655000471
  0
LINE
  8
0
 62
7
  6
CONTINUOUS
 10
157.2996587319
 20
242.1067825771
 11
157.430150887
 21
242.7750119594
  0
LINE
  8
0
 62
7
  6
CONTINUOUS
 10
164.220895957
 20
240.6514792553
 11
164.1226200957
 21
240.325547713
  0
LINE
  8
0
 62
7
  6
CONTINUOUS
 10
163.2381372754
 20
237.3921636044
 11
163.0907234835
 21
236.903266291
  0
LINE
  8
0
 62
7
  6
CONTINUOUS
 10
163.9990095724
 20
236.451615143
 11
164.2446992256
 21
237.2664439987
  0
LINE
  8
0
 62
7
  6
CONTINUOUS
 10
165.0309061846
 20
239.873896565
 11
165.2274580448
 21
240.5257601061
  0
LINE
  8
0
 62
7
  6
CONTINUOUS
 10
167.9167878199
 20
236.0199913555
 11
168.2229901231
 21
236.8140631564
  0
LINE
  8
0
 62
7
  6
CONTINUOUS
 10
176.6947264275
 20
237.651720678
 11
175.3023862902
 21
234.7327446985
  0
LINE
  8
0
 62
7
  6
CONTINUOUS
 10
174.8626999959
 20
233.8109629462
 11
173.2505167114
 21
230.4310960906
  0
LINE
  8
0
 62
7
  6
CONTINUOUS
 10
174.1530947848
 20
230.0005698761
 11
177.5973045009
 21
237.2211944634
  0
LINE
  8
0
 62
7
  6
CONTINUOUS
 10
206.736590195
 20
195.8079428891
 11
207.6397446481
 21
196.2847215734
  0
LINE
  8
0
 62
7
  6
CONTINUOUS
 10
212.7576200227
 20
198.9864675249
 11
213.8113000949
 21
199.5427092582
  0
LINE
  8
0
 62
7
  6
CONTINUOUS
 10
208.0329216067
 20
192.7322960059
 11
215.3693619418
 21
195.9223811474
  0
LINE
  8
0
 62
7
  6
CONTINUOUS
 10
216.0292638417
 20
188.8388215468
 11
215.7082184129
 21
188.7255975544
  0
LINE
  8
0
 62
7
  6
CONTINUOUS
 10
210.5830483696
 20
185.8577224831
 11
211.3856609298
 21
186.1407821072
  0
LINE
  8
0
 62
7
  6
CONTINUOUS
 10
216.0408134642
 20
187.7825278159
 11
216.3618588931
 21
187.8957518082
  0
LINE
  8
0
 62
7
  6
CONTINUOUS
 10
212.940749746
 20
151.8828409554
 11
216.4532327939
 21
151.2200549476
  0
LINE
  8
0
 62
7
  6
CONTINUOUS
 10
217.4567992452
 20
151.030687542
 11
219.9657158418
 21
150.5572689397
  0
LINE
  8
0
 62
7
  6
CONTINUOUS
 10
220.9874434912
 20
151.3821217024
 11
213.1261720194
 21
152.8654998894
  0
LINE
  8
0
 62
7
  6
CONTINUOUS
 10
211.1307600822
 20
136.0232725936
 11
211.6026536537
 21
135.828162711
  0
LINE
  8
0
 62
7
  6
CONTINUOUS
 10
212.9247145499
 20
135.4618810359
 11
213.2393102642
 21
135.3318077808
  0
LINE
  8
0
 62
7
  6
CONTINUOUS
 10
213.5577226779
 20
136.1019213657
 11
212.4566376778
 21
136.5571777583
  0
LINE
  8
0
 62
7
  6
CONTINUOUS
 10
97.8964215898
 20
227.8287374859
 11
95.3998846244
 21
231.482863155
  0
LINE
  8
0
 62
7
  6
CONTINUOUS
 10
101.6326902913
 20
232.5704413195
 11
103.2253559145
 21
229.7557569608
  0
LINE
  8
0
 62
7
  6
CONTINUOUS
 10
103.9506306439
 20
230.1661476057
 11
102.3579650207
 21
232.9808319644
  0
LINE
  8
0
 62
7
  6
CONTINUOUS
 10
125.985729864
 20
243.8698168603
 11
126.0796220914
 21
243.3678844488
  0
LINE
  8
0
 62
7
  6
CONTINUOUS
 10
127.0938696431
 20
243.3844459299
 11
126.9686800359
 21
244.053688989
  0
LINE
  8
0
 62
7
  6
CONTINUOUS
 10
155.7550328228
 20
261.1615211762
 11
155.7550328228
 21
259.1147938138
  0
LINE
  8
0
 62
7
  6
CONTINUOUS
 10
202.2004713116
 20
239.6598207368
 11
201.1771076304
 21
237.8873028463
  0
LINE
  8
0
 62
7
  6
CONTINUOUS
 10
231.6725507132
 20
197.8160826873
 11
229.9000328228
 21
196.7927190061
  0
LINE
  8
0
 62
7
  6
CONTINUOUS
 10
215.3432893058
 20
187.7132632348
 11
216.0408134642
 21
187.7825278159
  0
LINE
  8
0
 62
4
  6
CONTINUOUS
 10
141.8550328228
 20
176.0673028463
 11
135.8550328228
 21
176.0673028463
  0
LINE
  8
0
 62
7
  6
CONTINUOUS
 10
43.4825418553
 20
180.6423028463
 11
41.4358144929
 21
180.6423028463
  0
LINE
  8
0
 62
7
  6
CONTINUOUS
 10
62.9375149323
 20
227.0877413352
 11
64.7100328228
 21
226.064377654
  0
LINE
  8
0
 62
7
  6
CONTINUOUS
 10
214.5951240293
 20
135.4926394358
 11
213.5577226779
 21
136.1019213657
  0
LINE
  8
0
 62
7
  6
CONTINUOUS
 10
213.2393102642
 20
135.3318077808
 11
214.1194195886
 21
134.7875765795
  0
LINE
  8
0
 62
7
  6
CONTINUOUS
 10
93.1918382059
 20
225.8513905099
 11
93.7135361712
 21
225.3832375057
  0
LINE
  8
DEFAULT_1
 62
2
  6
CENTER
 10
159.4714654818
 20
171.4101414347
 11
163.0069993878
 21
167.8746075288
  0
LINE
  8
DEFAULT_1
 62
2
  6
CENTER
 10
146.5228714112
 20
184.3587355054
 11
142.9873375052
 21
187.8942694113
  0
LINE
  8
0
 62
7
  6
CONTINUOUS
 10
101.0685125427
 20
233.2290693037
 11
101.6326902913
 21
232.5704413195
  0
LINE
  8
0
 62
7
  6
CONTINUOUS
 10
102.3579650207
 20
232.9808319644
 11
101.7937881022
 21
233.6394604182
  0
LINE
  8
0
 62
7
  6
CONTINUOUS
 10
115.037259751
 20
237.0403858214
 11
114.6845893222
 21
237.6461573914
  0
LINE
  8
0
 62
7
  6
CONTINUOUS
 10
104.7812529818
 20
256.5598207368
 11
105.804616663
 21
254.7873028463
  0
LINE
  8
0
 62
7
  6
CONTINUOUS
 10
113.7255333858
 20
237.3629406708
 11
114.1264109103
 21
236.5939255566
  0
LINE
  8
0
 62
7
  6
CONTINUOUS
 10
119.0434620879
 20
242.3054769229
 11
118.6425825991
 21
243.0744919543
  0
LINE
  8
0
 62
7
  6
CONTINUOUS
 10
163.2259829011
 20
237.9291746414
 11
163.2381372754
 21
237.3921636044
  0
LINE
  8
0
 62
7
  6
CONTINUOUS
 10
164.2446992256
 20
237.2664439987
 11
164.2325448513
 21
237.8034550356
  0
LINE
  8
0
 62
7
  6
CONTINUOUS
 10
164.2087416515
 20
241.1884905205
 11
164.220895957
 21
240.6514792553
  0
LINE
  8
0
 62
7
  6
CONTINUOUS
 10
165.2274580448
 20
240.5257601061
 11
165.2153036016
 21
241.0627709148
  0
LINE
  8
0
 62
7
  6
CONTINUOUS
 10
134.375548666
 20
76.5890594808
 11
132.3823316992
 21
69.8471107878
  0
LINE
  8
DEFAULT_1
 62
2
  6
CENTER
 10
163.0069993878
 20
159.6099981639
 11
159.4714654818
 21
156.0744642579
  0
LINE
  8
DEFAULT_1
 62
2
  6
CENTER
 10
142.9873375052
 20
139.5903362813
 11
146.5228714112
 21
143.1258701873
  0
LINE
  8
DEFAULT_1
 62
2
  6
CENTER
 10
150.6475681705
 20
144.9878252468
 11
157.6095104223
 21
151.9497674986
  0
LINE
  8
0
 62
7
  6
CONTINUOUS
 10
91.3990640644
 20
90.505122148
 11
86.3019131894
 21
85.6630317922
  0
LINE
  8
0
 62
7
  6
CONTINUOUS
 10
216.3618588931
 20
187.8957518082
 11
216.9485146511
 21
188.2793825622
  0
LINE
  8
0
 62
7
  6
CONTINUOUS
 10
216.5716976779
 20
203.4395774535
 11
223.4070050004
 21
205.0843752715
  0
LINE
  8
0
 62
7
  6
CONTINUOUS
 10
215.1192418685
 20
193.4662661244
 11
214.4217227851
 21
193.3969871532
  0
LINE
  8
0
 62
7
  6
CONTINUOUS
 10
226.0082761883
 20
159.2628186896
 11
232.7502248813
 21
157.2696017228
  0
LINE
  8
0
 62
7
  6
CONTINUOUS
 10
216.8642100288
 20
146.0542704036
 11
217.335088599
 21
145.7958052138
  0
LINE
  8
0
 62
7
  6
CONTINUOUS
 10
217.6877719476
 20
146.7469029135
 11
217.2168933773
 21
147.0053681033
  0
LINE
  8
0
 62
7
  6
CONTINUOUS
 10
97.3043655287
 20
227.2180929832
 11
98.0596995808
 21
226.7034170082
  0
LINE
  8
0
 62
7
  6
CONTINUOUS
 10
211.3937166714
 20
144.5437663965
 11
213.1605463551
 21
143.3211513245
  0
LINE
  8
0
 62
7
  6
CONTINUOUS
 10
213.7653659832
 20
142.9668481333
 11
217.7407362134
 21
140.2159751368
  0
LINE
  8
0
 62
7
  6
CONTINUOUS
 10
218.5837204309
 20
140.6602575874
 11
211.6795106899
 21
145.5020574687
  0
LINE
  8
0
 62
7
  6
CONTINUOUS
 10
94.3055920298
 20
225.9938820143
 11
93.8799147642
 21
226.321491628
  0
LINE
  8
0
 62
7
  6
CONTINUOUS
 10
209.5387155045
 20
132.1727469724
 11
209.1305055818
 21
132.5218823922
  0
LINE
  8
0
 62
7
  6
CONTINUOUS
 10
211.6026536537
 20
135.828162711
 11
212.0108637968
 21
135.4790272002
  0
LINE
  8
0
 62
7
  6
CONTINUOUS
 10
214.1194195886
 20
134.7875765795
 11
214.527629952
 21
134.4384409776
  0
LINE
  8
0
 62
7
  6
CONTINUOUS
 10
98.418119403
 20
227.3605844138
 11
97.8964215898
 21
227.8287374859
  0
LINE
  8
0
 62
7
  6
CONTINUOUS
 10
101.7937881022
 20
233.6394604182
 11
101.3972593419
 21
234.0018058819
  0
LINE
  8
0
 62
7
  6
CONTINUOUS
 10
208.4038831352
 20
132.1009042726
 11
209.0630110639
 21
131.4676841161
  0
LINE
  8
DEFAULT_1
 62
2
  6
CENTER
 10
150.6475681705
 20
182.4967804459
 11
157.6095104223
 21
175.534838194
  0
LINE
  8
0
 62
7
  6
CONTINUOUS
 10
212.0922135211
 20
116.286334088
 11
216.9343038769
 21
111.189183213
  0
LINE
  8
0
 62
7
  6
CONTINUOUS
 10
117.7799408539
 20
242.4647881453
 11
118.0844061515
 21
242.0222602023
  0
LINE
  8
0
 62
7
  6
CONTINUOUS
 10
125.7280151955
 20
244.3411039159
 11
125.985729864
 21
243.8698168603
  0
LINE
  8
0
 62
7
  6
CONTINUOUS
 10
126.9686800359
 20
244.053688989
 11
126.7109653674
 21
244.5249760446
  0
LINE
  8
0
 62
7
  6
CONTINUOUS
 10
134.1432438005
 20
241.6873745229
 11
134.3526207861
 21
241.1927131634
  0
LINE
  8
0
 62
7
  6
CONTINUOUS
 10
135.3345790576
 20
241.4471347265
 11
135.1252020721
 21
241.941796086
  0
LINE
  8
0
 62
7
  6
CONTINUOUS
 10
133.8544872082
 20
245.0793613142
 11
134.063864214
 21
244.5846997171
  0
LINE
  8
0
 62
7
  6
CONTINUOUS
 10
135.0458224451
 20
244.8391217553
 11
134.8364454797
 21
245.3337828772
  0
LINE
  8
0
 62
7
  6
CONTINUOUS
 10
142.4128306265
 20
245.0176752223
 11
144.2313263609
 21
238.5523283371
  0
LINE
  8
0
 62
7
  6
CONTINUOUS
 10
144.96437637
 20
239.3469310659
 11
143.048302208
 21
246.6740005973
  0
LINE
  8
0
 62
7
  6
CONTINUOUS
 10
178.5523074299
 20
86.0256379912
 11
180.1971052479
 21
79.1903306687
  0
LINE
  8
0
 62
7
  6
CONTINUOUS
 10
156.3829842067
 20
243.4997867727
 11
156.4486895521
 21
242.9666722008
  0
LINE
  8
0
 62
7
  6
CONTINUOUS
 10
157.430150887
 20
242.7750119594
 11
157.3644455416
 21
243.3081265313
  0
LINE
  8
0
 62
7
  6
CONTINUOUS
 10
215.7082184129
 20
188.7255975544
 11
214.9552651292
 21
188.8135016697
  0
LINE
  8
0
 62
7
  6
CONTINUOUS
 10
93.7135361712
 20
225.3832375057
 11
94.0431927798
 21
225.1961711672
  0
LINE
  8
0
 62
7
  6
CONTINUOUS
 10
98.7477762868
 20
227.1735182272
 11
98.418119403
 21
227.3605844138
  0
LINE
  8
0
 62
7
  6
CONTINUOUS
 10
215.2542522884
 20
134.8594191427
 11
214.5951240293
 21
135.4926394358
  0
LINE
  8
0
 62
7
  6
CONTINUOUS
 10
114.1264109103
 20
236.5939255566
 11
114.6389252485
 21
236.0353570191
  0
LINE
  8
0
 62
7
  6
CONTINUOUS
 10
216.3999679849
 20
189.3230090803
 11
216.0292638417
 21
188.8388215468
  0
LINE
  8
0
 62
7
  6
CONTINUOUS
 10
214.7508585117
 20
187.8577792669
 11
215.3432893058
 21
187.7132632348
  0
LINE
  8
0
 62
7
  6
CONTINUOUS
 10
214.6988836362
 20
192.6111005011
 11
215.2913144303
 21
192.4665844689
  0
LINE
  8
0
 62
7
  6
CONTINUOUS
 10
94.868884694
 20
225.7602925392
 11
94.3055920298
 21
225.9938820143
  0
LINE
  8
0
 62
7
  6
CONTINUOUS
 10
115.5015669598
 20
236.6450609424
 11
115.037259751
 21
237.0403858214
  0
LINE
  8
0
 62
7
  6
CONTINUOUS
 10
216.2878768646
 20
146.6718448076
 11
216.8642100288
 21
146.0542704036
  0
LINE
  8
0
 62
7
  6
CONTINUOUS
 10
209.1305055818
 20
132.5218823922
 11
208.7859733675
 21
133.0250292936
  0
LINE
  8
0
 62
7
  6
CONTINUOUS
 10
214.527629952
 20
134.4384409776
 11
214.8721620562
 21
133.9352941217
  0
LINE
  8
0
 62
7
  6
CONTINUOUS
 10
207.9657367676
 20
132.823113316
 11
208.4038831352
 21
132.1009042726
  0
LINE
  8
0
 62
7
  6
CONTINUOUS
 10
218.5368212494
 20
145.7386579726
 11
219.2985766869
 21
146.1037425026
  0
LINE
  8
0
 62
7
  6
CONTINUOUS
 10
210.9881436982
 20
132.1145163716
 11
210.5461865166
 21
131.9365526534
  0
LINE
  8
0
 62
7
  6
CONTINUOUS
 10
94.0431927798
 20
225.1961711672
 11
94.7441006679
 21
225.0566019279
  0
LINE
  8
0
 62
7
  6
CONTINUOUS
 10
100.6107538287
 20
233.36119566
 11
101.0685125427
 21
233.2290693037
  0
LINE
  8
0
 62
7
  6
CONTINUOUS
 10
101.3972593419
 20
234.0018058819
 11
100.9395006279
 21
234.1339322383
  0
LINE
  8
0
 62
7
  6
CONTINUOUS
 10
212.23042337
 20
196.7383788832
 11
213.7218456462
 21
196.2964430385
  0
LINE
  8
0
 62
7
  6
CONTINUOUS
 10
214.9706012991
 20
196.8394361893
 11
213.4791794602
 21
197.2813722242
  0
LINE
  8
0
 62
7
  6
CONTINUOUS
 10
204.9942863239
 20
201.2959721702
 11
212.7576200227
 21
198.9864675249
  0
LINE
  8
0
 62
7
  6
CONTINUOUS
 10
212.669635683
 20
199.8823381843
 11
204.828491977
 21
202.3392371172
  0
LINE
  8
0
 62
7
  6
CONTINUOUS
 10
114.6389252485
 20
236.0353570191
 11
115.4711236624
 21
235.5711937522
  0
LINE
  8
0
 62
7
  6
CONTINUOUS
 10
133.7822335783
 20
241.9982988564
 11
134.1432438005
 21
241.6873745229
  0
LINE
  8
0
 62
7
  6
CONTINUOUS
 10
126.7109653674
 20
244.5249760446
 11
126.0943007619
 21
245.1022825707
  0
LINE
  8
0
 62
7
  6
CONTINUOUS
 10
135.1252020721
 20
241.941796086
 11
134.5692527121
 21
242.5777822256
  0
LINE
  8
0
 62
7
  6
CONTINUOUS
 10
134.8364454797
 20
245.3337828772
 11
134.2804961198
 21
245.9697690168
  0
LINE
  8
0
 62
7
  6
CONTINUOUS
 10
217.2168933773
 20
147.0053681033
 11
216.9441777083
 21
147.3960385518
  0
LINE
  8
0
 62
7
  6
CONTINUOUS
 10
215.6923986009
 20
134.1372101221
 11
215.2542522884
 21
134.8594191427
  0
LINE
  8
0
 62
7
  6
CONTINUOUS
 10
163.0051149877
 20
238.3513353768
 11
163.2259829011
 21
237.9291746414
  0
LINE
  8
0
 62
7
  6
CONTINUOUS
 10
157.3644455416
 20
243.3081265313
 11
157.0042069379
 21
244.0721855663
  0
LINE
  8
0
 62
7
  6
CONTINUOUS
 10
212.0108637968
 20
135.4790272002
 11
212.1980980437
 21
135.0409169718
  0
LINE
  8
0
 62
7
  6
CONTINUOUS
 10
164.2325448513
 20
237.8034550356
 11
163.950384564
 21
238.5996608086
  0
LINE
  8
0
 62
7
  6
CONTINUOUS
 10
165.2153036016
 20
241.0627709148
 11
164.9331433144
 21
241.8589766877
  0
LINE
  8
0
 62
7
  6
CONTINUOUS
 10
216.9485146511
 20
188.2793825622
 11
217.3688779584
 21
189.1345337954
  0
LINE
  8
0
 62
7
  6
CONTINUOUS
 10
209.5577813454
 20
136.6736389371
 11
208.7674753189
 21
136.0986352519
  0
LINE
  8
0
 62
7
  6
CONTINUOUS
 10
219.1185721545
 20
146.985742418
 11
218.7222435228
 21
146.7213169066
  0
LINE
  8
0
 62
7
  6
CONTINUOUS
 10
209.4902868825
 20
135.6194406383
 11
209.995927713
 21
135.9514298938
  0
LINE
  8
0
 62
7
  6
CONTINUOUS
 10
210.7633513231
 20
131.1253547231
 11
211.4262900108
 21
131.392307351
  0
LINE
  8
0
 62
7
  6
CONTINUOUS
 10
94.7441006679
 20
225.0566019279
 11
95.3489879767
 21
225.057576035
  0
LINE
  8
0
 62
7
  6
CONTINUOUS
 10
115.4711236624
 20
235.5711937522
 11
116.2069078808
 21
235.433517588
  0
LINE
  8
0
 62
7
  6
CONTINUOUS
 10
116.0775091531
 20
236.4601821
 11
115.5015669598
 21
236.6450609424
  0
LINE
  8
0
 62
7
  6
CONTINUOUS
 10
215.9830635527
 20
193.0639958362
 11
215.1192418685
 21
193.4662661244
  0
LINE
  8
0
 62
7
  6
CONTINUOUS
 10
214.9552651292
 20
188.8135016697
 11
209.3900906216
 21
191.7992005386
  0
LINE
  8
0
 62
7
  6
CONTINUOUS
 10
209.8335489985
 20
190.5417790172
 11
214.7508585117
 21
187.8577792669
  0
LINE
  8
0
 62
7
  6
CONTINUOUS
 10
118.6425825991
 20
243.0744919543
 11
117.810384202
 21
243.538655164
  0
LINE
  8
0
 62
7
  6
CONTINUOUS
 10
136.8863995976
 20
240.7717801431
 11
137.3890554292
 21
240.4352884935
  0
LINE
  8
0
 62
7
  6
CONTINUOUS
 10
125.3377678787
 20
244.6144340339
 11
125.7280151955
 21
244.3411039159
  0
LINE
  8
0
 62
7
  6
CONTINUOUS
 10
133.493476986
 20
245.3902856476
 11
133.8544872082
 21
245.0793613142
  0
LINE
  8
0
 62
7
  6
CONTINUOUS
 10
156.1210777083
 20
243.8977877333
 11
156.3829842067
 21
243.4997867727
  0
LINE
  8
0
 62
7
  6
CONTINUOUS
 10
163.9878737381
 20
241.6106512559
 11
164.2087416515
 21
241.1884905205
  0
LINE
  8
0
 62
7
  6
CONTINUOUS
 10
215.9097066017
 20
147.4216244702
 11
216.2878768646
 21
146.6718448076
  0
LINE
  8
0
 62
7
  6
CONTINUOUS
 10
208.7859733675
 20
133.0250292936
 11
208.6624227693
 21
133.6171650591
  0
LINE
  8
0
 62
7
  6
CONTINUOUS
 10
212.1980980437
 20
135.0409169718
 11
212.3216486419
 21
134.4487812062
  0
LINE
  8
0
 62
7
  6
CONTINUOUS
 10
207.8122497383
 20
133.7883226994
 11
207.9657367676
 21
132.823113316
  0
LINE
  8
0
 62
7
  6
CONTINUOUS
 10
208.6624227693
 20
133.6171650591
 11
208.6961700282
 21
134.1442641972
  0
LINE
  8
0
 62
7
  6
CONTINUOUS
 10
212.3216486419
 20
134.4487812062
 11
212.287901383
 21
133.9216820682
  0
LINE
  8
0
 62
7
  6
CONTINUOUS
 10
217.3688779584
 20
189.1345337954
 11
217.4681912116
 21
189.876475585
  0
LINE
  8
0
 62
7
  6
CONTINUOUS
 10
213.1261720194
 20
152.8654998894
 11
212.940749746
 21
151.8828409554
  0
LINE
  8
0
 62
7
  6
CONTINUOUS
 10
207.973364281
 20
134.6234729175
 11
207.8122497383
 21
133.7883226994
  0
LINE
  8
0
 62
7
  6
CONTINUOUS
 10
216.5547154383
 20
189.9077677834
 11
216.3999679849
 21
189.3230090803
  0
LINE
  8
0
 62
7
  6
CONTINUOUS
 10
211.6795106899
 20
145.5020574687
 11
211.3937166714
 21
144.5437663965
  0
LINE
  8
0
 62
7
  6
CONTINUOUS
 10
210.0600097981
 20
140.071736519
 11
209.7742157796
 21
139.1134454468
  0
LINE
  8
0
 62
7
  6
CONTINUOUS
 10
208.2917708645
 20
135.3935724013
 11
207.973364281
 21
134.6234729175
  0
LINE
  8
0
 62
7
  6
CONTINUOUS
 10
208.7674753189
 20
136.0986352519
 11
208.2917708645
 21
135.3935724013
  0
LINE
  8
0
 62
7
  6
CONTINUOUS
 10
209.1419439092
 20
135.2224147553
 11
209.4902868825
 21
135.6194406383
  0
LINE
  8
0
 62
7
  6
CONTINUOUS
 10
219.2985766869
 20
146.1037425026
 11
219.9239728752
 21
146.6641547597
  0
LINE
  8
0
 62
7
  6
CONTINUOUS
 10
211.4262900108
 20
131.392307351
 11
212.2165901657
 21
131.9672969523
  0
LINE
  8
0
 62
7
  6
CONTINUOUS
 10
214.1640376719
 20
130.4407100381
 11
214.9543378269
 21
131.0156996394
  0
LINE
  8
0
 62
7
  6
CONTINUOUS
 10
211.4937845287
 20
132.4465056271
 11
210.9881436982
 21
132.1145163716
  0
LINE
  8
0
 62
7
  6
CONTINUOUS
 10
214.2315321899
 20
131.4949083142
 11
213.7258913594
 21
131.1629190587
  0
LINE
  8
0
 62
7
  6
CONTINUOUS
 10
122.0338604522
 20
236.8966267279
 11
123.0168106241
 21
237.0804988566
  0
LINE
  8
0
 62
7
  6
CONTINUOUS
 10
163.68037872
 20
238.8588557729
 11
164.0486604253
 21
238.9255923509
  0
LINE
  8
0
 62
7
  6
CONTINUOUS
 10
155.6969784098
 20
241.7260432938
 11
155.1736247265
 21
241.6548161859
  0
LINE
  8
0
 62
7
  6
CONTINUOUS
 10
95.6113872441
 20
225.8552868038
 11
94.868884694
 21
225.7602925392
  0
LINE
  8
0
 62
7
  6
CONTINUOUS
 10
116.2069078808
 20
235.433517588
 11
117.0543288708
 21
235.5062881434
  0
LINE
  8
0
 62
7
  6
CONTINUOUS
 10
129.421144242
 20
238.2104751272
 11
133.4067286385
 21
238.5497641161
  0
LINE
  8
0
 62
7
  6
CONTINUOUS
 10
100.2368196088
 20
233.3451807562
 11
100.6107538287
 21
233.36119566
  0
LINE
  8
0
 62
7
  6
CONTINUOUS
 10
116.7650862632
 20
236.4857495228
 11
116.0775091531
 21
236.4601821
  0
LINE
  8
0
 62
7
  6
CONTINUOUS
 10
162.3663217862
 20
236.2327800097
 11
161.8384718458
 21
236.214156927
  0
LINE
  8
0
 62
7
  6
CONTINUOUS
 10
163.3982184328
 20
239.6550615458
 11
162.8703684924
 21
239.6364384632
  0
LINE
  8
0
 62
7
  6
CONTINUOUS
 10
140.9088240982
 20
238.8208080352
 11
141.9055751573
 21
238.7402640951
  0
LINE
  8
0
 62
7
  6
CONTINUOUS
 10
144.2313263609
 20
238.5523283371
 11
145.5603265055
 21
238.4449365193
  0
LINE
  8
0
 62
7
  6
CONTINUOUS
 10
147.8860815115
 20
238.2570004541
 11
148.8828325706
 21
238.176456514
  0
LINE
  8
0
 62
7
  6
CONTINUOUS
 10
100.9395006279
 20
234.1339322383
 11
100.336686636
 21
234.1839802778
  0
LINE
  8
0
 62
7
  6
CONTINUOUS
 10
161.3840759925
 20
235.2844756814
 11
162.2310697119
 21
235.2068695852
  0
LINE
  8
0
 62
7
  6
CONTINUOUS
 10
117.810384202
 20
243.538655164
 11
117.0745999962
 21
243.6763312853
  0
LINE
  8
0
 62
7
  6
CONTINUOUS
 10
150.2033797284
 20
237.9428551294
 11
151.1848410632
 21
237.751194888
  0
LINE
  8
0
 62
7
  6
CONTINUOUS
 10
133.2695977011
 20
242.1254870486
 11
133.7822335783
 21
241.9982988564
  0
LINE
  8
0
 62
7
  6
CONTINUOUS
 10
157.5543799144
 20
236.439217189
 11
161.3840759925
 21
235.2844756814
  0
LINE
  8
0
 62
7
  6
CONTINUOUS
 10
117.2039986945
 20
242.6496668733
 11
117.7799408539
 21
242.4647881453
  0
LINE
  8
0
 62
7
  6
CONTINUOUS
 10
134.5692527121
 20
242.5777822256
 11
134.2226803175
 21
242.7191072432
  0
LINE
  8
0
 62
7
  6
CONTINUOUS
 10
168.1359030379
 20
232.8707468293
 11
169.0384811114
 21
232.4402206148
  0
LINE
  8
0
 62
7
  6
CONTINUOUS
 10
173.2505167114
 20
230.4310960906
 11
174.1530947848
 21
230.0005698761
  0
LINE
  8
0
 62
7
  6
CONTINUOUS
 10
126.0943007619
 20
245.1022825707
 11
125.3451072579
 21
245.4816328605
  0
LINE
  8
0
 62
7
  6
CONTINUOUS
 10
134.2804961198
 20
245.9697690168
 11
133.5729173039
 21
246.4220186915
  0
LINE
  8
0
 62
7
  6
CONTINUOUS
 10
139.5222625414
 20
244.7074775825
 11
139.0196067061
 21
245.0439697088
  0
LINE
  8
0
 62
7
  6
CONTINUOUS
 10
162.5755409085
 20
238.6586438364
 11
163.0051149877
 21
238.3513353768
  0
LINE
  8
0
 62
7
  6
CONTINUOUS
 10
215.2913144303
 20
192.4665844689
 11
215.7786569351
 21
192.1082734334
  0
LINE
  8
0
 62
7
  6
CONTINUOUS
 10
216.5258402577
 20
192.5485017142
 11
215.9830635527
 21
193.0639958362
  0
LINE
  8
0
 62
7
  6
CONTINUOUS
 10
163.950384564
 20
238.5996608086
 11
163.68037872
 21
238.8588557729
  0
LINE
  8
0
 62
7
  6
CONTINUOUS
 10
157.0042069379
 20
244.0721855663
 11
156.4477671811
 21
244.70113099
  0
LINE
  8
0
 62
7
  6
CONTINUOUS
 10
164.9331433144
 20
241.8589766877
 11
164.4422768615
 21
242.5403301849
  0
LINE
  8
0
 62
7
  6
CONTINUOUS
 10
203.6242860747
 20
201.7035322234
 11
206.736590195
 21
195.8079428891
  0
LINE
  8
0
 62
7
  6
CONTINUOUS
 10
207.634160964
 20
193.6493510478
 11
208.0329216067
 21
192.7322960059
  0
LINE
  8
0
 62
7
  6
CONTINUOUS
 10
208.5874780614
 20
191.5161409145
 11
210.5830483696
 21
185.8577224831
  0
LINE
  8
0
 62
7
  6
CONTINUOUS
 10
213.1718157463
 20
134.2776095048
 11
212.9247145499
 21
135.4618810359
  0
LINE
  8
0
 62
7
  6
CONTINUOUS
 10
214.8721620562
 20
133.9352941217
 11
214.9957126544
 21
133.3431583562
  0
LINE
  8
0
 62
7
  6
CONTINUOUS
 10
215.8458797587
 20
133.1719866547
 11
215.6923986009
 21
134.1372101221
  0
LINE
  8
0
 62
7
  6
CONTINUOUS
 10
216.9441777083
 20
147.3960385518
 11
216.8696277697
 21
147.918929253
  0
LINE
  8
0
 62
7
  6
CONTINUOUS
 10
215.8969659738
 20
148.2720781456
 11
215.9097066017
 21
147.4216244702
  0
LINE
  8
0
 62
7
  6
CONTINUOUS
 10
214.9957126544
 20
133.3431583562
 11
214.9619653954
 21
132.8160592181
  0
LINE
  8
0
 62
7
  6
CONTINUOUS
 10
216.4532327939
 20
151.2200549476
 11
215.8969659738
 21
148.2720781456
  0
LINE
  8
0
 62
7
  6
CONTINUOUS
 10
216.8696277697
 20
147.918929253
 11
217.4567992452
 21
151.030687542
  0
LINE
  8
0
 62
7
  6
CONTINUOUS
 10
219.9657158418
 20
150.5572689397
 11
219.3785443664
 21
147.4455106507
  0
LINE
  8
0
 62
7
  6
CONTINUOUS
 10
220.2457543978
 20
147.4514859665
 11
220.9874434912
 21
151.3821217024
  0
LINE
  8
0
 62
7
  6
CONTINUOUS
 10
213.01070702
 20
133.4424733934
 11
213.1718157463
 21
134.2776095048
  0
LINE
  8
0
 62
7
  6
CONTINUOUS
 10
215.6847710324
 20
132.3368505434
 11
215.8458797587
 21
133.1719866547
  0
LINE
  8
0
 62
7
  6
CONTINUOUS
 10
213.1605463551
 20
143.3211513245
 11
212.2079010803
 21
140.1268526247
  0
LINE
  8
0
 62
7
  6
CONTINUOUS
 10
212.9079839277
 20
140.0919749168
 11
213.7653659832
 21
142.9668481333
  0
LINE
  8
0
 62
7
  6
CONTINUOUS
 10
218.2026631932
 20
139.3825410319
 11
218.5837204309
 21
140.6602575874
  0
LINE
  8
0
 62
7
  6
CONTINUOUS
 10
219.9239728752
 20
146.6641547597
 11
220.2457543978
 21
147.4514859665
  0
LINE
  8
0
 62
7
  6
CONTINUOUS
 10
208.6961700282
 20
134.1442641972
 11
209.1419439092
 21
135.2224147553
  0
LINE
  8
0
 62
7
  6
CONTINUOUS
 10
212.287901383
 20
133.9216820682
 11
211.842127502
 21
132.8435315101
  0
LINE
  8
0
 62
7
  6
CONTINUOUS
 10
212.6923004366
 20
132.6723739096
 11
213.01070702
 21
133.4424733934
  0
LINE
  8
0
 62
7
  6
CONTINUOUS
 10
213.1266304904
 20
131.0499778669
 11
212.8082239069
 21
130.2798783831
  0
LINE
  8
0
 62
7
  6
CONTINUOUS
 10
214.9619653954
 20
132.8160592181
 11
214.5798751632
 21
131.8919341972
  0
LINE
  8
0
 62
7
  6
CONTINUOUS
 10
215.4300422675
 20
131.7207624957
 11
215.6847710324
 21
132.3368505434
  0
LINE
  8
0
 62
7
  6
CONTINUOUS
 10
219.3785443664
 20
147.4455106507
 11
219.1185721545
 21
146.985742418
  0
LINE
  8
0
 62
7
  6
CONTINUOUS
 10
212.2165901657
 20
131.9672969523
 11
212.6923004366
 21
132.6723739096
  0
LINE
  8
0
 62
7
  6
CONTINUOUS
 10
214.9543378269
 20
131.0156996394
 11
215.4300422675
 21
131.7207624957
  0
LINE
  8
0
 62
7
  6
CONTINUOUS
 10
211.842127502
 20
132.8435315101
 11
211.4937845287
 21
132.4465056271
  0
LINE
  8
0
 62
7
  6
CONTINUOUS
 10
214.5798751632
 20
131.8919341972
 11
214.2315321899
 21
131.4949083142
  0
LINE
  8
0
 62
7
  6
CONTINUOUS
 10
99.572774833
 20
233.1650092187
 11
100.2368196088
 21
233.3451807562
  0
LINE
  8
0
 62
7
  6
CONTINUOUS
 10
100.336686636
 20
234.1839802778
 11
99.8176971381
 21
234.0858870572
  0
LINE
  8
0
 62
7
  6
CONTINUOUS
 10
122.3595655589
 20
240.5940229249
 11
125.3084179492
 21
241.1456396617
  0
LINE
  8
0
 62
7
  6
CONTINUOUS
 10
125.2844561988
 20
242.1801484345
 11
122.1717812797
 21
241.5978868105
  0
LINE
  8
0
 62
7
  6
CONTINUOUS
 10
121.7023204938
 20
244.1075469932
 11
124.8149954129
 21
244.6898086172
  0
LINE
  8
0
 62
7
  6
CONTINUOUS
 10
124.4946859847
 20
245.495716968
 11
120.5628834226
 21
244.7602281024
  0
LINE
  8
0
 62
7
  6
CONTINUOUS
 10
117.0745999962
 20
243.6763312853
 11
116.2271790105
 21
243.6035607156
  0
LINE
  8
0
 62
7
  6
CONTINUOUS
 10
133.4861651454
 20
239.5814969552
 11
130.3309133654
 21
239.312893388
  0
LINE
  8
0
 62
7
  6
CONTINUOUS
 10
130.1143459212
 20
241.8568834814
 11
133.2695977011
 21
242.1254870486
  0
LINE
  8
0
 62
7
  6
CONTINUOUS
 10
133.1829707356
 20
243.1430829434
 11
130.0277189556
 21
242.8744793763
  0
LINE
  8
0
 62
7
  6
CONTINUOUS
 10
129.8255893288
 20
245.2488702727
 11
132.9808411088
 21
245.5174738398
  0
LINE
  8
0
 62
7
  6
CONTINUOUS
 10
132.7281506607
 20
246.5209329092
 11
128.7425662641
 21
246.1816439203
  0
LINE
  8
0
 62
7
  6
CONTINUOUS
 10
116.5164215843
 20
242.6240994505
 11
117.2039986945
 21
242.6496668733
  0
LINE
  8
0
 62
7
  6
CONTINUOUS
 10
154.8143084938
 20
240.6844164318
 11
155.6648147074
 21
240.6917570362
  0
LINE
  8
0
 62
7
  6
CONTINUOUS
 10
125.3451072579
 20
245.4816328605
 11
124.4946859847
 21
245.495716968
  0
LINE
  8
0
 62
7
  6
CONTINUOUS
 10
149.5271840918
 20
246.1504649863
 11
148.0320575032
 21
246.2712808966
  0
LINE
  8
0
 62
7
  6
CONTINUOUS
 10
143.048302208
 20
246.6740005973
 11
141.5531756195
 21
246.7948165076
  0
LINE
  8
0
 62
7
  6
CONTINUOUS
 10
133.5729173039
 20
246.4220186915
 11
132.7281506607
 21
246.5209329092
  0
LINE
  8
0
 62
7
  6
CONTINUOUS
 10
124.8149954129
 20
244.6898086172
 11
125.3377678787
 21
244.6144340339
  0
LINE
  8
0
 62
7
  6
CONTINUOUS
 10
151.8699244891
 20
241.259397156
 11
154.8143084938
 21
240.6844164318
  0
LINE
  8
0
 62
7
  6
CONTINUOUS
 10
155.1736247265
 20
241.6548161859
 11
152.0656625847
 21
242.2617405275
  0
LINE
  8
0
 62
7
  6
CONTINUOUS
 10
152.555007915
 20
244.7675994241
 11
155.6629700568
 21
244.1606750826
  0
LINE
  8
0
 62
7
  6
CONTINUOUS
 10
155.6625069993
 20
245.0279048427
 11
151.7366616598
 21
245.7945458084
  0
LINE
  8
0
 62
7
  6
CONTINUOUS
 10
132.9808411088
 20
245.5174738398
 11
133.493476986
 21
245.3902856476
  0
LINE
  8
0
 62
7
  6
CONTINUOUS
 10
161.8384718458
 20
236.214156927
 11
158.8066315521
 21
237.128326553
  0
LINE
  8
0
 62
7
  6
CONTINUOUS
 10
159.5437006149
 20
239.5728134624
 11
162.5755409085
 21
238.6586438364
  0
LINE
  8
0
 62
7
  6
CONTINUOUS
 10
162.8703684924
 20
239.6364384632
 11
159.8385281987
 21
240.5506080892
  0
LINE
  8
0
 62
7
  6
CONTINUOUS
 10
160.5264593653
 20
242.8321293415
 11
163.5582996589
 21
241.9179597155
  0
LINE
  8
0
 62
7
  6
CONTINUOUS
 10
163.6935590077
 20
242.9438678376
 11
159.8638629296
 21
244.0986093452
  0
LINE
  8
0
 62
7
  6
CONTINUOUS
 10
165.73970561
 20
236.8594967835
 11
167.9167878199
 21
236.0199913555
  0
LINE
  8
0
 62
7
  6
CONTINUOUS
 10
168.2229901231
 20
236.8140631564
 11
166.0459079132
 21
237.6535685844
  0
LINE
  8
0
 62
7
  6
CONTINUOUS
 10
156.4477671811
 20
244.70113099
 11
155.6625069993
 21
245.0279048427
  0
LINE
  8
0
 62
7
  6
CONTINUOUS
 10
170.6506643958
 20
235.8200874704
 11
174.8626999959
 21
233.8109629462
  0
LINE
  8
0
 62
7
  6
CONTINUOUS
 10
175.3023862902
 20
234.7327446985
 11
171.0903506902
 21
236.7418692227
  0
LINE
  8
0
 62
7
  6
CONTINUOUS
 10
177.5973045009
 20
237.2211944634
 11
176.6947264275
 21
237.651720678
  0
LINE
  8
0
 62
7
  6
CONTINUOUS
 10
172.4826908275
 20
239.6608452021
 11
171.5801127541
 21
240.0913714167
  0
LINE
  8
0
 62
7
  6
CONTINUOUS
 10
164.4422768615
 20
242.5403301849
 11
163.6935590077
 21
242.9438678376
  0
LINE
  8
0
 62
7
  6
CONTINUOUS
 10
155.6629700568
 20
244.1606750826
 11
156.1210777083
 21
243.8977877333
  0
LINE
  8
0
 62
7
  6
CONTINUOUS
 10
163.5582996589
 20
241.9179597155
 11
163.9878737381
 21
241.6106512559
  0
LINE
  8
0
 62
7
  6
CONTINUOUS
 10
215.7786569351
 20
192.1082734334
 11
216.2163453508
 21
191.3789843081
  0
LINE
  8
0
 62
7
  6
CONTINUOUS
 10
207.6397446481
 20
196.2847215734
 11
204.9942863239
 21
201.2959721702
  0
LINE
  8
0
 62
7
  6
CONTINUOUS
 10
209.9463673516
 20
205.0409830687
 11
212.669635683
 21
199.8823381843
  0
LINE
  8
0
 62
7
  6
CONTINUOUS
 10
213.8113000949
 20
199.5427092582
 11
210.6989959746
 21
205.4382985925
  0
LINE
  8
0
 62
7
  6
CONTINUOUS
 10
217.0743869239
 20
191.5048751962
 11
216.5258402577
 21
192.5485017142
  0
LINE
  8
0
 62
7
  6
CONTINUOUS
 10
215.3693619418
 20
195.9223811474
 11
214.9706012991
 21
196.8394361893
  0
LINE
  8
0
 62
7
  6
CONTINUOUS
 10
211.3856609298
 20
186.1407821072
 11
209.8335489985
 21
190.5417790172
  0
LINE
  8
0
 62
7
  6
CONTINUOUS
 10
214.4217227851
 20
193.3969871532
 11
214.6988836362
 21
192.6111005011
  0
LINE
  8
0
 62
7
  6
CONTINUOUS
 10
216.2163453508
 20
191.3789843081
 11
216.4380720018
 21
190.7502807425
  0
LINE
  8
0
 62
7
  6
CONTINUOUS
 10
217.2961186498
 20
190.8761572404
 11
217.0743869239
 21
191.5048751962
  0
LINE
  8
0
 62
7
  6
CONTINUOUS
 10
217.4681912116
 20
189.876475585
 11
217.2961186498
 21
190.8761572404
  0
LINE
  8
0
 62
7
  6
CONTINUOUS
 10
216.4380720018
 20
190.7502807425
 11
216.5547154383
 21
189.9077677834
  0
LINE
  8
0
 62
7
  6
CONTINUOUS
 10
225.6500328228
 20
189.4315030739
 11
225.6500328228
 21
159.7423028463
  0
LINE
  8
0
 62
7
  6
CONTINUOUS
 10
226.866307858
 20
142.5923028463
 11
212.0217077442
 21
116.8807012312
  0
LINE
  8
0
 62
7
  6
CONTINUOUS
 10
204.5000328228
 20
101.4202280387
 11
178.7884312076
 21
86.5756279249
  0
LINE
  8
0
 62
7
  6
CONTINUOUS
 10
113.1658325952
 20
250.5373028463
 11
142.8550328228
 21
250.5373028463
  0
LINE
  8
0
 62
7
  6
CONTINUOUS
 10
160.0050328228
 20
251.7535778816
 11
185.7166344379
 21
236.9089777678
  0
LINE
  8
0
 62
7
  6
CONTINUOUS
 10
201.1771076304
 20
229.3873028463
 11
216.0217077442
 21
203.6757012312
  0
LINE
  8
0
 62
7
  6
CONTINUOUS
 10
300.3421825834
 20
65.8230845165
 11
308.0891631496
 21
65.8230845165
  0
LINE
  8
DEFAULT_2
 62
8
  6
HIDDEN
 10
300.3421825834
 20
70.6747849559
 11
308.0891631496
 21
70.6747849559
  0
LINE
  8
DEFAULT_2
 62
8
  6
HIDDEN
 10
299.9656728665
 20
76.9473028463
 11
308.4656728665
 21
76.9473028463
  0
POLYLINE
  8
0
 62
7
  6
CONTINUOUS
 66
1
 70
0
  0
VERTEX
  8
0
 62
7
  6
CONTINUOUS
 10
308.5335621368
 20
85.3926890417
  0
VERTEX
  8
0
 62
7
  6
CONTINUOUS
 10
308.5701681121
 20
85.3991066417
  0
VERTEX
  8
0
 62
7
  6
CONTINUOUS
 10
308.6058765793
 20
85.4081318876
  0
VERTEX
  8
0
 62
7
  6
CONTINUOUS
 10
308.6404832973
 20
85.4196339265
  0
VERTEX
  8
0
 62
7
  6
CONTINUOUS
 10
308.6738015777
 20
85.4334635666
  0
VERTEX
  8
0
 62
7
  6
CONTINUOUS
 10
308.7056639634
 20
85.4494556263
  0
VERTEX
  8
0
 62
7
  6
CONTINUOUS
 10
308.7359235711
 20
85.467431424
  0
VERTEX
  8
0
 62
7
  6
CONTINUOUS
 10
308.7644550889
 20
85.4872013613
  0
VERTEX
  8
0
 62
7
  6
CONTINUOUS
 10
308.7911554248
 20
85.5085675475
  0
VERTEX
  8
0
 62
7
  6
CONTINUOUS
 10
308.8159442822
 20
85.5313266822
  0
VERTEX
  8
0
 62
7
  6
CONTINUOUS
 10
308.8387634207
 20
85.555272008
  0
VERTEX
  8
0
 62
7
  6
CONTINUOUS
 10
308.8595761823
 20
85.5801953052
  0
VERTEX
  8
0
 62
7
  6
CONTINUOUS
 10
308.878367864
 20
85.6058901318
  0
VERTEX
  8
0
 62
7
  6
CONTINUOUS
 10
308.8951447969
 20
85.6321541535
  0
VERTEX
  8
0
 62
7
  6
CONTINUOUS
 10
308.909933131
 20
85.6587912178
  0
VERTEX
  8
0
 62
7
  6
CONTINUOUS
 10
308.9227773342
 20
85.6856130042
  0
VERTEX
  8
0
 62
7
  6
CONTINUOUS
 10
308.9337377262
 20
85.7124380939
  0
VERTEX
  8
0
 62
7
  6
CONTINUOUS
 10
308.9428794446
 20
85.73906071
  0
VERTEX
  8
0
 62
7
  6
CONTINUOUS
 10
308.9502859684
 20
85.7652715924
  0
VERTEX
  8
0
 62
7
  6
CONTINUOUS
 10
308.956064272
 20
85.7908789933
  0
VERTEX
  8
0
 62
7
  6
CONTINUOUS
 10
308.9603312604
 20
85.8156472049
  0
VERTEX
  8
0
 62
7
  6
CONTINUOUS
 10
308.9631885052
 20
85.838926161
  0
VERTEX
  8
0
 62
7
  6
CONTINUOUS
 10
308.9648246414
 20
85.859881826
  0
VERTEX
  8
0
 62
7
  6
CONTINUOUS
 10
308.9655233243
 20
85.8772621809
  0
VERTEX
  8
0
 62
7
  6
CONTINUOUS
 10
308.9656728566
 20
85.8902767672
  0
SEQEND
  0
POLYLINE
  8
0
 62
7
  6
CONTINUOUS
 66
1
 70
0
  0
VERTEX
  8
0
 62
7
  6
CONTINUOUS
 10
308.4655825924
 20
85.3880463329
  0
VERTEX
  8
0
 62
7
  6
CONTINUOUS
 10
308.4962784505
 20
85.3889894446
  0
VERTEX
  8
0
 62
7
  6
CONTINUOUS
 10
308.5335621368
 20
85.3926890417
  0
SEQEND
  0
LINE
  8
DEFAULT_2
 62
8
  6
HIDDEN
 10
299.9656728665
 20
90.642615223
 11
308.4656728665
 21
90.642615223
  0
POLYLINE
  8
0
 62
7
  6
CONTINUOUS
 66
1
 70
0
  0
VERTEX
  8
0
 62
7
  6
CONTINUOUS
 10
299.8782828576
 20
85.3957578902
  0
VERTEX
  8
0
 62
7
  6
CONTINUOUS
 10
299.9191912606
 20
85.3902193512
  0
VERTEX
  8
0
 62
7
  6
CONTINUOUS
 10
299.9614097009
 20
85.3880646696
  0
VERTEX
  8
0
 62
7
  6
CONTINUOUS
 10
308.4655618917
 20
85.3880456422
  0
SEQEND
  0
LINE
  8
DEFAULT_2
 62
8
  6
HIDDEN
 10
308.1987458451
 20
100.3420331982
 11
308.0891631496
 21
100.3298770674
  0
LINE
  8
DEFAULT_2
 62
8
  6
HIDDEN
 10
300.3421825834
 20
100.3298770593
 11
308.0891631496
 21
100.3298770593
  0
LINE
  8
DEFAULT_2
 62
8
  6
HIDDEN
 10
299.9656728665
 20
102.5590121065
 11
308.4656728665
 21
102.5590121065
  0
LINE
  8
DEFAULT_2
 62
8
  6
HIDDEN
 10
300.284357219
 20
100.3332320883
 11
300.3421825834
 21
100.3298770605
  0
LINE
  8
0
 62
7
  6
CONTINUOUS
 10
299.9656728665
 20
122.3724779766
 11
308.4656728665
 21
122.3724779766
  0
LINE
  8
DEFAULT_2
 62
8
  6
HIDDEN
 10
299.9656728665
 20
124.0589044615
 11
308.4656728665
 21
124.0589044615
  0
POLYLINE
  8
0
 62
7
  6
CONTINUOUS
 66
1
 70
0
  0
VERTEX
  8
0
 62
7
  6
CONTINUOUS
 10
299.8587503083
 20
256.4374656951
  0
VERTEX
  8
0
 62
7
  6
CONTINUOUS
 10
299.8934844286
 20
256.5304334424
  0
VERTEX
  8
0
 62
7
  6
CONTINUOUS
 10
299.9470032213
 20
256.6161429066
  0
VERTEX
  8
0
 62
7
  6
CONTINUOUS
 10
300.0182033342
 20
256.690658558
  0
VERTEX
  8
0
 62
7
  6
CONTINUOUS
 10
300.1051211764
 20
256.7500500967
  0
VERTEX
  8
0
 62
7
  6
CONTINUOUS
 10
300.2055304666
 20
256.7907845597
  0
VERTEX
  8
0
 62
7
  6
CONTINUOUS
 10
300.3155315265
 20
256.8091099528
  0
VERTEX
  8
0
 62
7
  6
CONTINUOUS
 10
300.3421825834
 20
256.8098207326
  0
SEQEND
  0
LINE
  8
DEFAULT_2
 62
8
  6
HIDDEN
 10
308.9656728665
 20
130.2387940377
 11
309.2656728665
 21
130.2387940377
  0
LINE
  8
DEFAULT_2
 62
8
  6
HIDDEN
 10
308.9656728665
 20
130.2798783831
 11
309.2656728665
 21
130.2798783831
  0
LINE
  8
DEFAULT_2
 62
8
  6
HIDDEN
 10
308.9656728665
 20
130.4407100381
 11
309.2656728665
 21
130.4407100381
  0
LINE
  8
DEFAULT_2
 62
8
  6
HIDDEN
 10
308.9656728665
 20
131.0156996394
 11
309.2656728665
 21
131.0156996394
  0
LINE
  8
DEFAULT_2
 62
8
  6
HIDDEN
 10
308.9656728665
 20
131.0499778669
 11
309.2656728665
 21
131.0499778669
  0
LINE
  8
DEFAULT_2
 62
8
  6
HIDDEN
 10
308.9656728665
 20
131.1253547231
 11
309.2656728665
 21
131.1253547231
  0
LINE
  8
DEFAULT_2
 62
8
  6
HIDDEN
 10
308.9656728665
 20
131.1425008874
 11
309.2656728665
 21
131.1425008874
  0
LINE
  8
DEFAULT_2
 62
8
  6
HIDDEN
 10
308.9656728665
 20
131.1629190587
 11
309.2656728665
 21
131.1629190587
  0
LINE
  8
1_AXIS
 62
7
  6
CONTINUOUS
 10
285.0656728665
 20
131.2423028463
 11
296.9656728665
 21
131.2423028463
  0
LINE
  8
1_AXIS
 62
7
  6
CONTINUOUS
 10
311.4656728665
 20
131.2423028463
 11
323.3656728665
 21
131.2423028463
  0
LINE
  8
DEFAULT_2
 62
8
  6
HIDDEN
 10
308.9656728665
 20
131.392307351
 11
309.2656728665
 21
131.392307351
  0
LINE
  8
DEFAULT_2
 62
8
  6
HIDDEN
 10
308.9656728665
 20
131.4676841161
 11
309.2656728665
 21
131.4676841161
  0
LINE
  8
DEFAULT_2
 62
8
  6
HIDDEN
 10
308.9656728665
 20
131.4949083142
 11
309.2656728665
 21
131.4949083142
  0
POLYLINE
  8
0
 62
7
  6
CONTINUOUS
 66
1
 70
0
  0
VERTEX
  8
0
 62
7
  6
CONTINUOUS
 10
299.8463341086
 20
261.2258196205
  0
VERTEX
  8
0
 62
7
  6
CONTINUOUS
 10
299.8706185052
 20
261.3277358569
  0
VERTEX
  8
0
 62
7
  6
CONTINUOUS
 10
299.9158401098
 20
261.4227339155
  0
VERTEX
  8
0
 62
7
  6
CONTINUOUS
 10
299.980582845
 20
261.5068407806
  0
VERTEX
  8
0
 62
7
  6
CONTINUOUS
 10
300.0625561039
 20
261.5760197069
  0
VERTEX
  8
0
 62
7
  6
CONTINUOUS
 10
300.1584403595
 20
261.6265360094
  0
VERTEX
  8
0
 62
7
  6
CONTINUOUS
 10
300.2638930582
 20
261.655353891
  0
VERTEX
  8
0
 62
7
  6
CONTINUOUS
 10
300.3421825834
 20
261.6615210474
  0
SEQEND
  0
LINE
  8
DEFAULT_2
 62
8
  6
HIDDEN
 10
308.9656728665
 20
237.0102520388
 11
309.2656728665
 21
237.529867281
  0
LINE
  8
0
 62
7
  6
CONTINUOUS
 10
309.2656728665
 20
237.529867281
 11
309.9656728665
 21
238.7423028463
  0
LINE
  8
DEFAULT_2
 62
8
  6
HIDDEN
 10
308.9656728665
 20
131.7207624957
 11
309.2656728665
 21
131.7207624957
  0
LINE
  8
DEFAULT_2
 62
8
  6
HIDDEN
 10
308.9656728665
 20
131.8919341972
 11
309.2656728665
 21
131.8919341972
  0
LINE
  8
DEFAULT_2
 62
8
  6
HIDDEN
 10
308.9656728665
 20
131.9365526534
 11
309.2656728665
 21
131.9365526534
  0
LINE
  8
DEFAULT_2
 62
8
  6
HIDDEN
 10
308.9656728665
 20
131.9672969523
 11
309.2656728665
 21
131.9672969523
  0
LINE
  8
DEFAULT_2
 62
8
  6
HIDDEN
 10
308.9656728665
 20
131.9776370899
 11
309.2656728665
 21
131.9776370899
  0
LINE
  8
DEFAULT_2
 62
8
  6
HIDDEN
 10
308.9656728665
 20
132.1009042726
 11
309.2656728665
 21
132.1009042726
  0
LINE
  8
DEFAULT_2
 62
8
  6
HIDDEN
 10
308.9656728665
 20
132.1145163716
 11
309.2656728665
 21
132.1145163716
  0
LINE
  8
DEFAULT_2
 62
8
  6
HIDDEN
 10
308.9656728665
 20
132.1727469724
 11
309.2656728665
 21
132.1727469724
  0
LINE
  8
DEFAULT_2
 62
8
  6
HIDDEN
 10
308.9656728665
 20
132.3368505434
 11
309.2656728665
 21
132.3368505434
  0
LINE
  8
DEFAULT_2
 62
8
  6
HIDDEN
 10
308.9656728665
 20
132.4465056271
 11
309.2656728665
 21
132.4465056271
  0
LINE
  8
DEFAULT_2
 62
8
  6
HIDDEN
 10
308.9656728665
 20
132.5218823922
 11
309.2656728665
 21
132.5218823922
  0
LINE
  8
DEFAULT_2
 62
8
  6
HIDDEN
 10
308.9656728665
 20
132.6723739096
 11
309.2656728665
 21
132.6723739096
  0
LINE
  8
DEFAULT_2
 62
8
  6
HIDDEN
 10
308.9656728665
 20
132.8160592181
 11
309.2656728665
 21
132.8160592181
  0
LINE
  8
DEFAULT_2
 62
8
  6
HIDDEN
 10
308.9656728665
 20
132.823113316
 11
309.2656728665
 21
132.823113316
  0
LINE
  8
DEFAULT_2
 62
8
  6
HIDDEN
 10
308.9656728665
 20
132.8435315101
 11
309.2656728665
 21
132.8435315101
  0
LINE
  8
DEFAULT_2
 62
8
  6
HIDDEN
 10
308.9656728665
 20
133.0250292936
 11
309.2656728665
 21
133.0250292936
  0
LINE
  8
DEFAULT_2
 62
8
  6
HIDDEN
 10
308.9656728665
 20
133.1719866547
 11
309.2656728665
 21
133.1719866547
  0
LINE
  8
DEFAULT_2
 62
8
  6
HIDDEN
 10
308.9656728665
 20
133.3431583562
 11
309.2656728665
 21
133.3431583562
  0
LINE
  8
DEFAULT_2
 62
8
  6
HIDDEN
 10
308.9656728665
 20
133.4424733934
 11
309.2656728665
 21
133.4424733934
  0
LINE
  8
DEFAULT_2
 62
8
  6
HIDDEN
 10
308.9656728665
 20
133.6171650591
 11
309.2656728665
 21
133.6171650591
  0
LINE
  8
DEFAULT_2
 62
8
  6
HIDDEN
 10
308.9656728665
 20
133.7883226994
 11
309.2656728665
 21
133.7883226994
  0
LINE
  8
DEFAULT_2
 62
8
  6
HIDDEN
 10
308.9656728665
 20
133.9216820682
 11
309.2656728665
 21
133.9216820682
  0
LINE
  8
DEFAULT_2
 62
8
  6
HIDDEN
 10
308.9656728665
 20
133.9352941217
 11
309.2656728665
 21
133.9352941217
  0
LINE
  8
DEFAULT_2
 62
8
  6
HIDDEN
 10
308.9656728665
 20
134.1372101221
 11
309.2656728665
 21
134.1372101221
  0
LINE
  8
DEFAULT_2
 62
8
  6
HIDDEN
 10
308.9656728665
 20
134.1442641972
 11
309.2656728665
 21
134.1442641972
  0
LINE
  8
DEFAULT_2
 62
8
  6
HIDDEN
 10
308.9656728665
 20
134.2776095048
 11
309.2656728665
 21
134.2776095048
  0
LINE
  8
DEFAULT_2
 62
8
  6
HIDDEN
 10
308.9656728665
 20
134.4384409776
 11
309.2656728665
 21
134.4384409776
  0
LINE
  8
DEFAULT_2
 62
8
  6
HIDDEN
 10
308.9656728665
 20
134.4487812062
 11
309.2656728665
 21
134.4487812062
  0
LINE
  8
DEFAULT_2
 62
8
  6
HIDDEN
 10
308.9656728665
 20
134.6234729175
 11
309.2656728665
 21
134.6234729175
  0
LINE
  8
DEFAULT_2
 62
8
  6
HIDDEN
 10
308.9656728665
 20
134.7875765795
 11
309.2656728665
 21
134.7875765795
  0
LINE
  8
DEFAULT_2
 62
8
  6
HIDDEN
 10
308.9656728665
 20
134.8594191427
 11
309.2656728665
 21
134.8594191427
  0
LINE
  8
DEFAULT_2
 62
8
  6
HIDDEN
 10
308.9656728665
 20
135.0409169718
 11
309.2656728665
 21
135.0409169718
  0
LINE
  8
DEFAULT_2
 62
8
  6
HIDDEN
 10
308.9656728665
 20
135.2224147553
 11
309.2656728665
 21
135.2224147553
  0
LINE
  8
DEFAULT_2
 62
8
  6
HIDDEN
 10
308.9656728665
 20
135.3318077808
 11
309.2656728665
 21
135.3318077808
  0
LINE
  8
DEFAULT_2
 62
8
  6
HIDDEN
 10
308.9656728665
 20
135.3935724013
 11
309.2656728665
 21
135.3935724013
  0
LINE
  8
DEFAULT_2
 62
8
  6
HIDDEN
 10
308.9656728665
 20
135.4618810359
 11
309.2656728665
 21
135.4618810359
  0
LINE
  8
DEFAULT_2
 62
8
  6
HIDDEN
 10
308.9656728665
 20
135.4790272002
 11
309.2656728665
 21
135.4790272002
  0
LINE
  8
DEFAULT_2
 62
8
  6
HIDDEN
 10
308.9656728665
 20
135.4926394358
 11
309.2656728665
 21
135.4926394358
  0
LINE
  8
DEFAULT_2
 62
8
  6
HIDDEN
 10
308.9656728665
 20
135.6194406383
 11
309.2656728665
 21
135.6194406383
  0
LINE
  8
DEFAULT_2
 62
8
  6
HIDDEN
 10
308.9656728665
 20
135.828162711
 11
309.2656728665
 21
135.828162711
  0
LINE
  8
DEFAULT_2
 62
8
  6
HIDDEN
 10
308.9656728665
 20
135.9514298938
 11
309.2656728665
 21
135.9514298938
  0
LINE
  8
DEFAULT_2
 62
8
  6
HIDDEN
 10
308.9656728665
 20
136.0232725936
 11
309.2656728665
 21
136.0232725936
  0
LINE
  8
DEFAULT_2
 62
8
  6
HIDDEN
 10
308.9656728665
 20
136.064356939
 11
309.2656728665
 21
136.064356939
  0
LINE
  8
DEFAULT_2
 62
8
  6
HIDDEN
 10
308.9656728665
 20
136.0986352519
 11
309.2656728665
 21
136.0986352519
  0
LINE
  8
DEFAULT_2
 62
8
  6
HIDDEN
 10
308.9656728665
 20
136.1019213657
 11
309.2656728665
 21
136.1019213657
  0
LINE
  8
DEFAULT_2
 62
8
  6
HIDDEN
 10
308.9656728665
 20
136.5571777583
 11
309.2656728665
 21
136.5571777583
  0
LINE
  8
DEFAULT_2
 62
8
  6
HIDDEN
 10
308.9656728665
 20
136.6736389371
 11
309.2656728665
 21
136.6736389371
  0
LINE
  8
DEFAULT_2
 62
8
  6
HIDDEN
 10
308.9656728665
 20
136.8584087049
 11
309.2656728665
 21
136.8584087049
  0
LINE
  8
DEFAULT_2
 62
8
  6
HIDDEN
 10
308.9656728665
 20
136.8755549147
 11
309.2656728665
 21
136.8755549147
  0
LINE
  8
1_AXIS
 62
7
  6
CONTINUOUS
 10
283.0656728665
 20
194.2423028463
 11
283.0656728665
 21
133.2423028463
  0
LINE
  8
0
 62
7
  6
CONTINUOUS
 10
299.8446051662
 20
256.3589789449
 11
299.8587503083
 21
256.4374656951
  0
LINE
  8
0
 62
7
  6
CONTINUOUS
 10
299.5024783618
 20
224.91565825
 11
299.5023948001
 21
224.9153689827
  0
LINE
  8
DEFAULT_2
 62
8
  6
HIDDEN
 10
308.9656728665
 20
139.1134454468
 11
309.2656728665
 21
139.1134454468
  0
LINE
  8
DEFAULT_2
 62
8
  6
HIDDEN
 10
308.9656728665
 20
139.3825410319
 11
309.2656728665
 21
139.3825410319
  0
LINE
  8
DEFAULT_2
 62
8
  6
HIDDEN
 10
308.9656728665
 20
140.071736519
 11
309.2656728665
 21
140.071736519
  0
LINE
  8
DEFAULT_2
 62
8
  6
HIDDEN
 10
308.9656728665
 20
140.0919749168
 11
309.2656728665
 21
140.0919749168
  0
LINE
  8
DEFAULT_2
 62
8
  6
HIDDEN
 10
308.9656728665
 20
140.1268526247
 11
309.2656728665
 21
140.1268526247
  0
LINE
  8
DEFAULT_2
 62
8
  6
HIDDEN
 10
308.9656728665
 20
140.2159751368
 11
309.2656728665
 21
140.2159751368
  0
LINE
  8
DEFAULT_2
 62
8
  6
HIDDEN
 10
308.9656728665
 20
140.6602575874
 11
309.2656728665
 21
140.6602575874
  0
LINE
  8
DEFAULT_2
 62
8
  6
HIDDEN
 10
308.9656728665
 20
142.9668481333
 11
309.2656728665
 21
142.9668481333
  0
LINE
  8
DEFAULT_2
 62
8
  6
HIDDEN
 10
308.9656728665
 20
143.3211513245
 11
309.2656728665
 21
143.3211513245
  0
LINE
  8
DEFAULT_2
 62
8
  6
HIDDEN
 10
308.9656728665
 20
144.5437663965
 11
309.2656728665
 21
144.5437663965
  0
POLYLINE
  8
DEFAULT_2
 62
8
  6
HIDDEN
 66
1
 70
0
  0
VERTEX
  8
DEFAULT_2
 62
8
  6
HIDDEN
 10
299.5024783618
 20
102.5689474427
  0
VERTEX
  8
DEFAULT_2
 62
8
  6
HIDDEN
 10
299.5500515152
 20
102.3859929357
  0
VERTEX
  8
DEFAULT_2
 62
8
  6
HIDDEN
 10
299.6115125899
 20
102.1013533488
  0
VERTEX
  8
DEFAULT_2
 62
8
  6
HIDDEN
 10
299.672918161
 20
101.7683205654
  0
SEQEND
  0
POLYLINE
  8
0
 62
7
  6
CONTINUOUS
 66
1
 70
0
  0
VERTEX
  8
0
 62
7
  6
CONTINUOUS
 10
299.8461981135
 20
66.2598439153
  0
VERTEX
  8
0
 62
7
  6
CONTINUOUS
 10
299.8635307356
 20
66.1785424516
  0
VERTEX
  8
0
 62
7
  6
CONTINUOUS
 10
299.9022834064
 20
66.0854109713
  0
VERTEX
  8
0
 62
7
  6
CONTINUOUS
 10
299.9575729462
 20
66.0035920644
  0
VERTEX
  8
0
 62
7
  6
CONTINUOUS
 10
300.0269556275
 20
65.9349711745
  0
VERTEX
  8
0
 62
7
  6
CONTINUOUS
 10
300.1090537804
 20
65.8807600189
  0
VERTEX
  8
0
 62
7
  6
CONTINUOUS
 10
300.2017924671
 20
65.8431984725
  0
VERTEX
  8
0
 62
7
  6
CONTINUOUS
 10
300.2996045319
 20
65.8249007055
  0
VERTEX
  8
0
 62
7
  6
CONTINUOUS
 10
300.3421825834
 20
65.8230845166
  0
SEQEND
  0
POLYLINE
  8
DEFAULT_2
 62
8
  6
HIDDEN
 66
1
 70
0
  0
VERTEX
  8
DEFAULT_2
 62
8
  6
HIDDEN
 10
299.8446051662
 20
71.1256267478
  0
VERTEX
  8
DEFAULT_2
 62
8
  6
HIDDEN
 10
299.8587503083
 20
71.0471399976
  0
VERTEX
  8
DEFAULT_2
 62
8
  6
HIDDEN
 10
299.8934844286
 20
70.9541722503
  0
VERTEX
  8
DEFAULT_2
 62
8
  6
HIDDEN
 10
299.9470032213
 20
70.868462786
  0
VERTEX
  8
DEFAULT_2
 62
8
  6
HIDDEN
 10
300.0182033342
 20
70.7939471347
  0
VERTEX
  8
DEFAULT_2
 62
8
  6
HIDDEN
 10
300.1051211764
 20
70.734555596
  0
VERTEX
  8
DEFAULT_2
 62
8
  6
HIDDEN
 10
300.2055304666
 20
70.6938211329
  0
VERTEX
  8
DEFAULT_2
 62
8
  6
HIDDEN
 10
300.3155315265
 20
70.6754957399
  0
VERTEX
  8
DEFAULT_2
 62
8
  6
HIDDEN
 10
300.3421825834
 20
70.6747849601
  0
SEQEND
  0
LINE
  8
0
 62
7
  6
CONTINUOUS
 10
299.4855778969
 20
69.3408395532
 11
299.6022507311
 21
68.2750432846
  0
POLYLINE
  8
DEFAULT_2
 62
8
  6
HIDDEN
 66
1
 70
0
  0
VERTEX
  8
DEFAULT_2
 62
8
  6
HIDDEN
 10
299.4858452089
 20
74.6375419156
  0
VERTEX
  8
DEFAULT_2
 62
8
  6
HIDDEN
 10
299.5424153401
 20
74.1178022154
  0
VERTEX
  8
DEFAULT_2
 62
8
  6
HIDDEN
 10
299.6077543829
 20
73.4943833241
  0
SEQEND
  0
LINE
  8
DEFAULT_2
 62
8
  6
HIDDEN
 10
299.6077543829
 20
73.4943833241
 11
299.8446445563
 21
71.1252277966
  0
LINE
  8
DEFAULT_2
 62
8
  6
HIDDEN
 10
299.4847204635
 20
69.350080516
 11
299.4855778421
 21
69.3408398218
  0
LINE
  8
0
 62
7
  6
CONTINUOUS
 10
299.4770735427
 20
69.432497848
 11
299.4847204635
 21
69.350080516
  0
POLYLINE
  8
0
 62
7
  6
CONTINUOUS
 66
1
 70
0
  0
VERTEX
  8
0
 62
7
  6
CONTINUOUS
 10
299.4855778421
 20
258.1437658708
  0
VERTEX
  8
0
 62
7
  6
CONTINUOUS
 10
299.4770735427
 20
258.0521078446
  0
VERTEX
  8
0
 62
7
  6
CONTINUOUS
 10
299.4692164111
 20
257.9251114536
  0
VERTEX
  8
0
 62
7
  6
CONTINUOUS
 10
299.4662206366
 20
257.8274452958
  0
SEQEND
  0
LINE
  8
0
 62
7
  6
CONTINUOUS
 10
299.4858451701
 20
252.8470620858
 11
299.4761359536
 21
252.7455128134
  0
LINE
  8
0
 62
7
  6
CONTINUOUS
 10
299.8446463071
 20
256.3593945123
 11
299.6672419974
 21
254.5782209043
  0
POLYLINE
  8
0
 62
7
  6
CONTINUOUS
 66
1
 70
0
  0
VERTEX
  8
0
 62
7
  6
CONTINUOUS
 10
299.6672419974
 20
254.5782209043
  0
VERTEX
  8
0
 62
7
  6
CONTINUOUS
 10
299.6077543829
 20
253.9902223686
  0
VERTEX
  8
0
 62
7
  6
CONTINUOUS
 10
299.5424153401
 20
253.3668034773
  0
VERTEX
  8
0
 62
7
  6
CONTINUOUS
 10
299.4858452089
 20
252.8470637771
  0
SEQEND
  0
POLYLINE
  8
0
 62
7
  6
CONTINUOUS
 66
1
 70
0
  0
VERTEX
  8
0
 62
7
  6
CONTINUOUS
 10
299.8463334987
 20
261.2258149167
  0
VERTEX
  8
0
 62
7
  6
CONTINUOUS
 10
299.7246058204
 20
260.2545473924
  0
VERTEX
  8
0
 62
7
  6
CONTINUOUS
 10
299.6022505245
 20
259.2095605828
  0
VERTEX
  8
0
 62
7
  6
CONTINUOUS
 10
299.4855778969
 20
258.1437661394
  0
SEQEND
  0
POLYLINE
  8
DEFAULT_2
 62
8
  6
HIDDEN
 66
1
 70
0
  0
VERTEX
  8
DEFAULT_2
 62
8
  6
HIDDEN
 10
299.4715059263
 20
241.6722365303
  0
VERTEX
  8
DEFAULT_2
 62
8
  6
HIDDEN
 10
299.4684801103
 20
241.6488362877
  0
VERTEX
  8
DEFAULT_2
 62
8
  6
HIDDEN
 10
299.4666954827
 20
241.6276265436
  0
VERTEX
  8
DEFAULT_2
 62
8
  6
HIDDEN
 10
299.4658832293
 20
241.6097114588
  0
VERTEX
  8
DEFAULT_2
 62
8
  6
HIDDEN
 10
299.4656761479
 20
241.5963039418
  0
SEQEND
  0
LINE
  8
0
 62
7
  6
CONTINUOUS
 10
299.4830543331
 20
224.8365050502
 11
299.4677089025
 21
224.7241034785
  0
LINE
  8
0
 62
7
  6
CONTINUOUS
 10
299.8494874945
 20
226.7398842445
 11
299.6729266155
 21
225.7163339836
  0
POLYLINE
  8
0
 62
7
  6
CONTINUOUS
 66
1
 70
0
  0
VERTEX
  8
0
 62
7
  6
CONTINUOUS
 10
299.672918161
 20
225.7162851272
  0
VERTEX
  8
0
 62
7
  6
CONTINUOUS
 10
299.61151259
 20
225.3832523441
  0
VERTEX
  8
0
 62
7
  6
CONTINUOUS
 10
299.5500515153
 20
225.0986127572
  0
VERTEX
  8
0
 62
7
  6
CONTINUOUS
 10
299.5024783618
 20
224.91565825
  0
SEQEND
  0
POLYLINE
  8
0
 62
7
  6
CONTINUOUS
 66
1
 70
0
  0
VERTEX
  8
0
 62
7
  6
CONTINUOUS
 10
299.8493106074
 20
226.7388541328
  0
VERTEX
  8
0
 62
7
  6
CONTINUOUS
 10
299.8641467026
 20
226.8012949889
  0
VERTEX
  8
0
 62
7
  6
CONTINUOUS
 10
299.900583239
 20
226.8892281408
  0
VERTEX
  8
0
 62
7
  6
CONTINUOUS
 10
299.9530955325
 20
226.9687529426
  0
VERTEX
  8
0
 62
7
  6
CONTINUOUS
 10
300.0186961368
 20
227.0359851334
  0
VERTEX
  8
0
 62
7
  6
CONTINUOUS
 10
300.0963012186
 20
227.0900932557
  0
VERTEX
  8
0
 62
7
  6
CONTINUOUS
 10
300.1867441913
 20
227.1299537445
  0
VERTEX
  8
0
 62
7
  6
CONTINUOUS
 10
300.284357219
 20
227.1513736043
  0
VERTEX
  8
0
 62
7
  6
CONTINUOUS
 10
300.3421827403
 20
227.1547286322
  0
SEQEND
  0
LINE
  8
0
 62
7
  6
CONTINUOUS
 10
299.50239498
 20
224.9153689308
 11
299.4830543331
 21
224.8365050502
  0
LINE
  8
DEFAULT_2
 62
8
  6
HIDDEN
 10
308.9656728665
 20
145.5020574687
 11
309.2656728665
 21
145.5020574687
  0
LINE
  8
DEFAULT_2
 62
8
  6
HIDDEN
 10
308.9656728665
 20
145.6695601883
 11
309.2656728665
 21
145.6695601883
  0
LINE
  8
DEFAULT_2
 62
8
  6
HIDDEN
 10
308.9656728665
 20
145.7386579726
 11
309.2656728665
 21
145.7386579726
  0
LINE
  8
DEFAULT_2
 62
8
  6
HIDDEN
 10
308.9656728665
 20
145.7958052138
 11
309.2656728665
 21
145.7958052138
  0
LINE
  8
DEFAULT_2
 62
8
  6
HIDDEN
 10
308.9656728665
 20
146.0542704036
 11
309.2656728665
 21
146.0542704036
  0
LINE
  8
DEFAULT_2
 62
8
  6
HIDDEN
 10
308.9656728665
 20
146.1037425026
 11
309.2656728665
 21
146.1037425026
  0
LINE
  8
DEFAULT_2
 62
8
  6
HIDDEN
 10
308.9656728665
 20
146.6522191223
 11
309.2656728665
 21
146.6522191223
  0
LINE
  8
DEFAULT_2
 62
8
  6
HIDDEN
 10
308.9656728665
 20
146.6641547597
 11
309.2656728665
 21
146.6641547597
  0
LINE
  8
DEFAULT_2
 62
8
  6
HIDDEN
 10
308.9656728665
 20
146.6718448076
 11
309.2656728665
 21
146.6718448076
  0
LINE
  8
DEFAULT_2
 62
8
  6
HIDDEN
 10
308.9656728665
 20
146.7213169066
 11
309.2656728665
 21
146.7213169066
  0
LINE
  8
DEFAULT_2
 62
8
  6
HIDDEN
 10
308.9656728665
 20
146.7469029135
 11
309.2656728665
 21
146.7469029135
  0
LINE
  8
DEFAULT_2
 62
8
  6
HIDDEN
 10
300.1656539885
 20
146.8423028463
 11
308.2656917445
 21
146.8423028463
  0
LINE
  8
DEFAULT_2
 62
8
  6
HIDDEN
 10
308.9656728665
 20
146.985742418
 11
309.2656728665
 21
146.985742418
  0
LINE
  8
DEFAULT_2
 62
8
  6
HIDDEN
 10
308.9656728665
 20
147.0053681033
 11
309.2656728665
 21
147.0053681033
  0
LINE
  8
DEFAULT_2
 62
8
  6
HIDDEN
 10
308.9656728665
 20
147.3960385518
 11
309.2656728665
 21
147.3960385518
  0
LINE
  8
DEFAULT_2
 62
8
  6
HIDDEN
 10
308.9656728665
 20
147.4216244702
 11
309.2656728665
 21
147.4216244702
  0
LINE
  8
DEFAULT_2
 62
8
  6
HIDDEN
 10
308.9656728665
 20
147.4455106507
 11
309.2656728665
 21
147.4455106507
  0
LINE
  8
DEFAULT_2
 62
8
  6
HIDDEN
 10
308.9656728665
 20
147.4514859665
 11
309.2656728665
 21
147.4514859665
  0
LINE
  8
DEFAULT_2
 62
8
  6
HIDDEN
 10
308.9656728665
 20
147.918929253
 11
309.2656728665
 21
147.918929253
  0
LINE
  8
DEFAULT_2
 62
8
  6
HIDDEN
 10
308.9656728665
 20
148.2720781456
 11
309.2656728665
 21
148.2720781456
  0
LINE
  8
DEFAULT_2
 62
8
  6
HIDDEN
 10
308.9656728665
 20
150.5572689397
 11
309.2656728665
 21
150.5572689397
  0
LINE
  8
DEFAULT_2
 62
8
  6
HIDDEN
 10
308.9656728665
 20
151.030687542
 11
309.2656728665
 21
151.030687542
  0
LINE
  8
DEFAULT_2
 62
8
  6
HIDDEN
 10
308.9656728665
 20
151.2200549476
 11
309.2656728665
 21
151.2200549476
  0
LINE
  8
DEFAULT_2
 62
8
  6
HIDDEN
 10
308.9656728665
 20
151.3821217024
 11
309.2656728665
 21
151.3821217024
  0
POLYLINE
  8
DEFAULT_2
 62
8
  6
HIDDEN
 66
1
 70
0
  0
VERTEX
  8
DEFAULT_2
 62
8
  6
HIDDEN
 10
299.8493106074
 20
100.7457515599
  0
VERTEX
  8
DEFAULT_2
 62
8
  6
HIDDEN
 10
299.8641467025
 20
100.6833107039
  0
VERTEX
  8
DEFAULT_2
 62
8
  6
HIDDEN
 10
299.9005832389
 20
100.595377552
  0
VERTEX
  8
DEFAULT_2
 62
8
  6
HIDDEN
 10
299.9530955324
 20
100.5158527502
  0
VERTEX
  8
DEFAULT_2
 62
8
  6
HIDDEN
 10
300.0186961367
 20
100.4486205593
  0
VERTEX
  8
DEFAULT_2
 62
8
  6
HIDDEN
 10
300.0963012185
 20
100.394512437
  0
VERTEX
  8
DEFAULT_2
 62
8
  6
HIDDEN
 10
300.1867441912
 20
100.3546519482
  0
VERTEX
  8
DEFAULT_2
 62
8
  6
HIDDEN
 10
300.284357219
 20
100.3332320883
  0
SEQEND
  0
LINE
  8
DEFAULT_2
 62
8
  6
HIDDEN
 10
299.6729266155
 20
101.768271709
 11
299.8494616969
 21
100.7448704211
  0
LINE
  8
0
 62
7
  6
CONTINUOUS
 10
299.7246062429
 20
67.2300548132
 11
299.8463329405
 21
66.2587950807
  0
LINE
  8
0
 62
7
  6
CONTINUOUS
 10
299.6022507311
 20
68.2750432846
 11
299.7246062429
 21
67.2300548132
  0
POLYLINE
  8
DEFAULT_2
 62
8
  6
HIDDEN
 66
1
 70
0
  0
VERTEX
  8
DEFAULT_2
 62
8
  6
HIDDEN
 10
299.4656729963
 20
102.8177567079
  0
VERTEX
  8
DEFAULT_2
 62
8
  6
HIDDEN
 10
299.4677089025
 20
102.7605022142
  0
VERTEX
  8
DEFAULT_2
 62
8
  6
HIDDEN
 10
299.4830543331
 20
102.6481006424
  0
VERTEX
  8
DEFAULT_2
 62
8
  6
HIDDEN
 10
299.50239498
 20
102.5692367618
  0
SEQEND
  0
POLYLINE
  8
0
 62
7
  6
CONTINUOUS
 66
1
 70
0
  0
VERTEX
  8
0
 62
7
  6
CONTINUOUS
 10
299.4662206366
 20
69.6571603969
  0
VERTEX
  8
0
 62
7
  6
CONTINUOUS
 10
299.4692164111
 20
69.5594942391
  0
VERTEX
  8
0
 62
7
  6
CONTINUOUS
 10
299.4770735427
 20
69.432497848
  0
SEQEND
  0
POLYLINE
  8
DEFAULT_2
 62
8
  6
HIDDEN
 66
1
 70
0
  0
VERTEX
  8
DEFAULT_2
 62
8
  6
HIDDEN
 10
299.4656729683
 20
74.9984935505
  0
VERTEX
  8
DEFAULT_2
 62
8
  6
HIDDEN
 10
299.467158929
 20
74.900990845
  0
VERTEX
  8
DEFAULT_2
 62
8
  6
HIDDEN
 10
299.4761359536
 20
74.7390928793
  0
VERTEX
  8
DEFAULT_2
 62
8
  6
HIDDEN
 10
299.4858451701
 20
74.6375436068
  0
SEQEND
  0
POLYLINE
  8
0
 62
7
  6
CONTINUOUS
 66
1
 70
0
  0
VERTEX
  8
0
 62
7
  6
CONTINUOUS
 10
299.4656749016
 20
85.8887164543
  0
VERTEX
  8
0
 62
7
  6
CONTINUOUS
 10
299.4658807435
 20
85.8749834684
  0
VERTEX
  8
0
 62
7
  6
CONTINUOUS
 10
299.4666874602
 20
85.8571068479
  0
VERTEX
  8
0
 62
7
  6
CONTINUOUS
 10
299.4683835363
 20
85.8366932317
  0
VERTEX
  8
0
 62
7
  6
CONTINUOUS
 10
299.471054164
 20
85.8153767925
  0
VERTEX
  8
0
 62
7
  6
CONTINUOUS
 10
299.4748545439
 20
85.7930576724
  0
VERTEX
  8
0
 62
7
  6
CONTINUOUS
 10
299.4799154173
 20
85.7698791858
  0
VERTEX
  8
0
 62
7
  6
CONTINUOUS
 10
299.4863383485
 20
85.7460553812
  0
VERTEX
  8
0
 62
7
  6
CONTINUOUS
 10
299.4941893501
 20
85.7218348752
  0
VERTEX
  8
0
 62
7
  6
CONTINUOUS
 10
299.5034954415
 20
85.6974800709
  0
VERTEX
  8
0
 62
7
  6
CONTINUOUS
 10
299.5143245695
 20
85.6730830884
  0
VERTEX
  8
0
 62
7
  6
CONTINUOUS
 10
299.5268013946
 20
85.6486350248
  0
VERTEX
  8
0
 62
7
  6
CONTINUOUS
 10
299.5410706012
 20
85.6241509759
  0
VERTEX
  8
0
 62
7
  6
CONTINUOUS
 10
299.5572949137
 20
85.599675683
  0
VERTEX
  8
0
 62
7
  6
CONTINUOUS
 10
299.5756282125
 20
85.5753193851
  0
VERTEX
  8
0
 62
7
  6
CONTINUOUS
 10
299.5961449731
 20
85.5513189092
  0
VERTEX
  8
0
 62
7
  6
CONTINUOUS
 10
299.6188795087
 20
85.5279431712
  0
VERTEX
  8
0
 62
7
  6
CONTINUOUS
 10
299.6438368085
 20
85.505468736
  0
VERTEX
  8
0
 62
7
  6
CONTINUOUS
 10
299.6710073434
 20
85.4841640697
  0
VERTEX
  8
0
 62
7
  6
CONTINUOUS
 10
299.7003841112
 20
85.4642827747
  0
VERTEX
  8
0
 62
7
  6
CONTINUOUS
 10
299.7319376989
 20
85.4460881885
  0
VERTEX
  8
0
 62
7
  6
CONTINUOUS
 10
299.7656104508
 20
85.4298542005
  0
VERTEX
  8
0
 62
7
  6
CONTINUOUS
 10
299.801313541
 20
85.415862805
  0
VERTEX
  8
0
 62
7
  6
CONTINUOUS
 10
299.8389241387
 20
85.4044011298
  0
VERTEX
  8
0
 62
7
  6
CONTINUOUS
 10
299.8782828576
 20
85.3957578902
  0
SEQEND
  0
POLYLINE
  8
0
 62
7
  6
CONTINUOUS
 66
1
 70
0
  0
VERTEX
  8
0
 62
7
  6
CONTINUOUS
 10
299.4662204784
 20
69.6571603938
  0
VERTEX
  8
0
 62
7
  6
CONTINUOUS
 10
299.465830476
 20
69.6872769349
  0
VERTEX
  8
0
 62
7
  6
CONTINUOUS
 10
299.4656728665
 20
69.7231681282
  0
SEQEND
  0
POLYLINE
  8
0
 62
7
  6
CONTINUOUS
 66
1
 70
0
  0
VERTEX
  8
0
 62
7
  6
CONTINUOUS
 10
299.4661986587
 20
257.826039631
  0
VERTEX
  8
0
 62
7
  6
CONTINUOUS
 10
299.4658338175
 20
257.7977015312
  0
VERTEX
  8
0
 62
7
  6
CONTINUOUS
 10
299.4656728665
 20
257.7614375645
  0
SEQEND
  0
LINE
  8
0
 62
7
  6
CONTINUOUS
 10
299.4677089025
 20
224.7241034785
 11
299.4656729963
 21
224.6668489848
  0
POLYLINE
  8
0
 62
7
  6
CONTINUOUS
 66
1
 70
0
  0
VERTEX
  8
0
 62
7
  6
CONTINUOUS
 10
299.4761359536
 20
252.7455128134
  0
VERTEX
  8
0
 62
7
  6
CONTINUOUS
 10
299.467158929
 20
252.5836148477
  0
VERTEX
  8
0
 62
7
  6
CONTINUOUS
 10
299.4656729683
 20
252.4861121421
  0
SEQEND
  0
LINE
  8
DEFAULT_2
 62
8
  6
HIDDEN
 10
308.9656728665
 20
151.8828409554
 11
309.2656728665
 21
151.8828409554
  0
LINE
  8
DEFAULT_2
 62
8
  6
HIDDEN
 10
308.9656728665
 20
152.8654998894
 11
309.2656728665
 21
152.8654998894
  0
LINE
  8
DEFAULT_2
 62
8
  6
HIDDEN
 10
299.4661986587
 20
204.5072077049
 11
299.4658338175
 21
204.5398410259
  0
LINE
  8
DEFAULT_2
 62
8
  6
HIDDEN
 10
299.4658338175
 20
204.5398410259
 11
299.4656728665
 21
204.5668233072
  0
LINE
  8
DEFAULT_2
 62
8
  6
HIDDEN
 10
299.4661986587
 20
156.4942896745
 11
299.4656728665
 21
156.600425863
  0
LINE
  8
DEFAULT_2
 62
8
  6
HIDDEN
 10
299.4661986587
 20
78.6393901219
 11
299.4656728665
 21
78.7484052469
  0
LINE
  8
DEFAULT_2
 62
8
  6
HIDDEN
 10
299.4661986587
 20
110.4234709203
 11
299.4656728665
 21
110.547688589
  0
LINE
  8
1_AXIS
 62
7
  6
CONTINUOUS
 10
299.4656728665
 20
252.4863758744
 11
299.4656728665
 21
248.7362004458
  0
LINE
  8
1_AXIS
 62
7
  6
CONTINUOUS
 10
299.4656728665
 20
224.6666577152
 11
299.4656728665
 21
216.9369171037
  0
LINE
  8
1_AXIS
 62
7
  6
CONTINUOUS
 10
299.4656728665
 20
180.5223078695
 11
299.4656728665
 21
170.8841798297
  0
LINE
  8
1_AXIS
 62
7
  6
CONTINUOUS
 10
299.4656728665
 20
131.8817692289
 11
299.4656728665
 21
122.9177823855
  0
LINE
  8
1_AXIS
 62
7
  6
CONTINUOUS
 10
299.4656728665
 20
91.7782348415
 11
299.4656728665
 21
85.8902822302
  0
LINE
  8
1_AXIS
 62
7
  6
CONTINUOUS
 10
299.4656728665
 20
70.95741436
 11
299.4656728665
 21
69.7231681282
  0
LINE
  8
1_AXIS
 62
8
  6
HIDDEN
 10
299.4656728665
 20
74.9982298183
 11
299.4656728665
 21
78.7484052469
  0
LINE
  8
1_AXIS
 62
8
  6
HIDDEN
 10
299.4656728665
 20
102.8179479774
 11
299.4656728665
 21
110.547688589
  0
LINE
  8
1_AXIS
 62
8
  6
HIDDEN
 10
299.4656728665
 20
131.8817692289
 11
299.4656728665
 21
170.8841798297
  0
LINE
  8
1_AXIS
 62
8
  6
HIDDEN
 10
299.4656728665
 20
180.5223078695
 11
299.4656728665
 21
204.5668233072
  0
LINE
  8
1_AXIS
 62
8
  6
HIDDEN
 10
299.4656728665
 20
235.7063708512
 11
299.4656728665
 21
241.5943234624
  0
LINE
  8
0
 62
7
  6
CONTINUOUS
 10
299.4656728665
 20
69.7231681303
 11
299.4656728665
 21
257.7614375645
  0
LINE
  8
1_AXIS
 62
8
  6
HIDDEN
 10
299.4656728665
 20
256.5271913327
 11
299.4656728665
 21
257.7614375645
  0
LINE
  8
0
 62
7
  6
CONTINUOUS
 10
299.4658338175
 20
122.9447646668
 11
299.4656728665
 21
122.9177823855
  0
LINE
  8
0
 62
7
  6
CONTINUOUS
 10
299.4661986587
 20
217.0611347724
 11
299.4658338175
 21
217.0001633517
  0
LINE
  8
0
 62
7
  6
CONTINUOUS
 10
299.4661986587
 20
170.9903160181
 11
299.4658338175
 21
170.9362732953
  0
LINE
  8
0
 62
7
  6
CONTINUOUS
 10
299.4661986587
 20
248.8452155707
 11
299.4658338175
 21
248.793652695
  0
LINE
  8
0
 62
7
  6
CONTINUOUS
 10
299.4661986587
 20
122.9773979877
 11
299.4658338175
 21
122.9447646668
  0
LINE
  8
1_AXIS
 62
2
  6
CENTER
 10
281.0656728665
 20
163.7423028463
 11
327.3656728665
 21
163.7423028463
  0
LINE
  8
0
 62
7
  6
CONTINUOUS
 10
308.9656727092
 20
224.666851764
 11
308.9633547041
 21
224.7279825359
  0
POLYLINE
  8
0
 62
7
  6
CONTINUOUS
 66
1
 70
0
  0
VERTEX
  8
0
 62
7
  6
CONTINUOUS
 10
308.9651250931
 20
257.8274452925
  0
VERTEX
  8
0
 62
7
  6
CONTINUOUS
 10
308.9622518882
 20
257.9223100475
  0
VERTEX
  8
0
 62
7
  6
CONTINUOUS
 10
308.9544939185
 20
258.0493125012
  0
VERTEX
  8
0
 62
7
  6
CONTINUOUS
 10
308.945767875
 20
258.1437659887
  0
SEQEND
  0
POLYLINE
  8
0
 62
7
  6
CONTINUOUS
 66
1
 70
0
  0
VERTEX
  8
0
 62
7
  6
CONTINUOUS
 10
308.9656727488
 20
252.486407617
  0
VERTEX
  8
0
 62
7
  6
CONTINUOUS
 10
308.9640175523
 20
252.5890197998
  0
VERTEX
  8
0
 62
7
  6
CONTINUOUS
 10
308.9547652634
 20
252.7509955029
  0
SEQEND
  0
LINE
  8
DEFAULT_2
 62
8
  6
HIDDEN
 10
308.9656728566
 20
241.5943289282
 11
308.9655073893
 21
241.6080056667
  0
LINE
  8
0
 62
7
  6
CONTINUOUS
 10
308.965515614
 20
122.9443821912
 11
308.9651470743
 21
122.9773979877
  0
LINE
  8
0
 62
7
  6
CONTINUOUS
 10
308.9656728665
 20
122.9177823855
 11
308.965515614
 21
122.9443821912
  0
POLYLINE
  8
0
 62
7
  6
CONTINUOUS
 66
1
 70
0
  0
VERTEX
  8
0
 62
7
  6
CONTINUOUS
 10
308.9656728665
 20
257.7614375645
  0
VERTEX
  8
0
 62
7
  6
CONTINUOUS
 10
308.965515614
 20
257.7972885805
  0
VERTEX
  8
0
 62
7
  6
CONTINUOUS
 10
308.9651470743
 20
257.826039631
  0
SEQEND
  0
LINE
  8
0
 62
7
  6
CONTINUOUS
 10
308.9656728665
 20
170.8841798297
 11
308.9651470743
 21
170.9903160181
  0
LINE
  8
0
 62
7
  6
CONTINUOUS
 10
308.9656728665
 20
248.7362004458
 11
308.9651470743
 21
248.8452155707
  0
LINE
  8
0
 62
7
  6
CONTINUOUS
 10
308.9656728665
 20
216.9369171037
 11
308.9651470743
 21
217.0611347724
  0
LINE
  8
1_AXIS
 62
8
  6
HIDDEN
 10
308.9656728665
 20
128.7423028463
 11
308.9656728665
 21
198.7423028463
  0
LINE
  8
0
 62
7
  6
CONTINUOUS
 10
308.9656728665
 20
69.7231681269
 11
308.9656728665
 21
257.7614375663
  0
LINE
  8
0
 62
7
  6
CONTINUOUS
 10
309.2656728665
 20
246.7948165076
 11
309.2656728665
 21
225.0566019279
  0
LINE
  8
0
 62
7
  6
CONTINUOUS
 10
309.2656728665
 20
205.4382985925
 11
309.2656728665
 21
197.5680979443
  0
LINE
  8
DEFAULT_2
 62
8
  6
HIDDEN
 10
309.2656728665
 20
197.5680979443
 11
309.2656728665
 21
185.8577224831
  0
LINE
  8
DEFAULT_2
 62
8
  6
HIDDEN
 10
309.2656728665
 20
152.8654998894
 11
309.2656728665
 21
145.6695601883
  0
LINE
  8
DEFAULT_2
 62
8
  6
HIDDEN
 10
309.2656728665
 20
145.5020574687
 11
309.2656728665
 21
139.1134454468
  0
LINE
  8
DEFAULT_2
 62
8
  6
HIDDEN
 10
309.2656728665
 20
136.8755549147
 11
309.2656728665
 21
130.2387940377
  0
POLYLINE
  8
0
 62
7
  6
CONTINUOUS
 66
1
 70
0
  0
VERTEX
  8
0
 62
7
  6
CONTINUOUS
 10
308.9656728665
 20
69.7231681282
  0
VERTEX
  8
0
 62
7
  6
CONTINUOUS
 10
308.96551529
 20
69.6872807321
  0
VERTEX
  8
0
 62
7
  6
CONTINUOUS
 10
308.9651470743
 20
69.6585660616
  0
SEQEND
  0
LINE
  8
DEFAULT_2
 62
8
  6
HIDDEN
 10
308.9656728665
 20
204.5668233072
 11
308.965515614
 21
204.5402235015
  0
LINE
  8
DEFAULT_2
 62
8
  6
HIDDEN
 10
308.965515614
 20
110.4852377673
 11
308.9651470743
 21
110.4234709203
  0
LINE
  8
DEFAULT_2
 62
8
  6
HIDDEN
 10
308.965515614
 20
156.5490124593
 11
308.9651470743
 21
156.4942896745
  0
LINE
  8
DEFAULT_2
 62
8
  6
HIDDEN
 10
308.965515614
 20
78.6916506544
 11
308.9651470743
 21
78.6393901219
  0
LINE
  8
DEFAULT_2
 62
8
  6
HIDDEN
 10
308.965515614
 20
204.5402235015
 11
308.9651470743
 21
204.5072077049
  0
POLYLINE
  8
0
 62
7
  6
CONTINUOUS
 66
1
 70
0
  0
VERTEX
  8
0
 62
7
  6
CONTINUOUS
 10
308.9455004518
 20
252.847064208
  0
VERTEX
  8
0
 62
7
  6
CONTINUOUS
 10
308.8883541863
 20
253.3721956281
  0
VERTEX
  8
0
 62
7
  6
CONTINUOUS
 10
308.8229989078
 20
253.995983252
  0
SEQEND
  0
LINE
  8
0
 62
7
  6
CONTINUOUS
 10
308.8229989078
 20
253.995983252
 11
308.5867003584
 21
256.3593861102
  0
LINE
  8
0
 62
7
  6
CONTINUOUS
 10
308.9547652634
 20
252.7509955029
 11
308.9455005096
 21
252.8470629805
  0
POLYLINE
  8
DEFAULT_2
 62
8
  6
HIDDEN
 66
1
 70
0
  0
VERTEX
  8
DEFAULT_2
 62
8
  6
HIDDEN
 10
308.9655073893
 20
241.6080056667
  0
VERTEX
  8
DEFAULT_2
 62
8
  6
HIDDEN
 10
308.9647150306
 20
241.6265804899
  0
VERTEX
  8
DEFAULT_2
 62
8
  6
HIDDEN
 10
308.9629551628
 20
241.647980376
  0
VERTEX
  8
DEFAULT_2
 62
8
  6
HIDDEN
 10
308.9600549685
 20
241.6708194711
  0
SEQEND
  0
POLYLINE
  8
0
 62
7
  6
CONTINUOUS
 66
1
 70
0
  0
VERTEX
  8
0
 62
7
  6
CONTINUOUS
 10
308.9544939185
 20
69.4352931914
  0
VERTEX
  8
0
 62
7
  6
CONTINUOUS
 10
308.9622518882
 20
69.5622956452
  0
VERTEX
  8
0
 62
7
  6
CONTINUOUS
 10
308.9651250931
 20
69.6571604002
  0
SEQEND
  0
LINE
  8
0
 62
7
  6
CONTINUOUS
 10
308.945767875
 20
69.340839704
 11
308.9544939185
 21
69.4352931914
  0
POLYLINE
  8
DEFAULT_2
 62
8
  6
HIDDEN
 66
1
 70
0
  0
VERTEX
  8
DEFAULT_2
 62
8
  6
HIDDEN
 10
308.9455005096
 20
74.6375427121
  0
VERTEX
  8
DEFAULT_2
 62
8
  6
HIDDEN
 10
308.9547652634
 20
74.7336101897
  0
VERTEX
  8
DEFAULT_2
 62
8
  6
HIDDEN
 10
308.9640175523
 20
74.8955858928
  0
VERTEX
  8
DEFAULT_2
 62
8
  6
HIDDEN
 10
308.9656727488
 20
74.9981980756
  0
SEQEND
  0
POLYLINE
  8
DEFAULT_2
 62
8
  6
HIDDEN
 66
1
 70
0
  0
VERTEX
  8
DEFAULT_2
 62
8
  6
HIDDEN
 10
308.5867003584
 20
71.1252195825
  0
VERTEX
  8
DEFAULT_2
 62
8
  6
HIDDEN
 10
308.8229989078
 20
73.4886224407
  0
VERTEX
  8
DEFAULT_2
 62
8
  6
HIDDEN
 10
308.8883541863
 20
74.1124100645
  0
VERTEX
  8
DEFAULT_2
 62
8
  6
HIDDEN
 10
308.9455004518
 20
74.6375414847
  0
SEQEND
  0
LINE
  8
0
 62
7
  6
CONTINUOUS
 10
308.9633547041
 20
224.7279825359
 11
308.9475532356
 21
224.8401355735
  0
POLYLINE
  8
0
 62
7
  6
CONTINUOUS
 66
1
 70
0
  0
VERTEX
  8
0
 62
7
  6
CONTINUOUS
 10
308.9457678391
 20
258.1437661119
  0
VERTEX
  8
0
 62
7
  6
CONTINUOUS
 10
308.8293584365
 20
259.2072343137
  0
VERTEX
  8
0
 62
7
  6
CONTINUOUS
 10
308.7070087985
 20
260.2523283625
  0
VERTEX
  8
0
 62
7
  6
CONTINUOUS
 10
308.5850128034
 20
261.2258105282
  0
SEQEND
  0
LINE
  8
0
 62
7
  6
CONTINUOUS
 10
308.8293584365
 20
68.277371379
 11
308.9457678391
 21
69.3408395808
  0
POLYLINE
  8
0
 62
7
  6
CONTINUOUS
 66
1
 70
0
  0
VERTEX
  8
0
 62
7
  6
CONTINUOUS
 10
308.5850128034
 20
66.2587951644
  0
VERTEX
  8
0
 62
7
  6
CONTINUOUS
 10
308.7070087985
 20
67.2322773301
  0
VERTEX
  8
0
 62
7
  6
CONTINUOUS
 10
308.8293584365
 20
68.277371379
  0
SEQEND
  0
LINE
  8
DEFAULT_2
 62
8
  6
HIDDEN
 10
308.5818820164
 20
100.7448587158
 11
308.7584191176
 21
101.768271709
  0
POLYLINE
  8
DEFAULT_2
 62
8
  6
HIDDEN
 66
1
 70
0
  0
VERTEX
  8
DEFAULT_2
 62
8
  6
HIDDEN
 10
308.758428185
 20
101.76832411
  0
VERTEX
  8
DEFAULT_2
 62
8
  6
HIDDEN
 10
308.8192436529
 20
102.0983803585
  0
VERTEX
  8
DEFAULT_2
 62
8
  6
HIDDEN
 10
308.8807428165
 20
102.3836713708
  0
VERTEX
  8
DEFAULT_2
 62
8
  6
HIDDEN
 10
308.9288715838
 20
102.5689617195
  0
SEQEND
  0
POLYLINE
  8
DEFAULT_2
 62
8
  6
HIDDEN
 66
1
 70
0
  0
VERTEX
  8
DEFAULT_2
 62
8
  6
HIDDEN
 10
308.9289502841
 20
102.569234999
  0
VERTEX
  8
DEFAULT_2
 62
8
  6
HIDDEN
 10
308.9475532356
 20
102.6444701191
  0
VERTEX
  8
DEFAULT_2
 62
8
  6
HIDDEN
 10
308.9633547041
 20
102.7566231568
  0
VERTEX
  8
DEFAULT_2
 62
8
  6
HIDDEN
 10
308.9656727092
 20
102.8177539286
  0
SEQEND
  0
POLYLINE
  8
DEFAULT_2
 62
8
  6
HIDDEN
 66
1
 70
0
  0
VERTEX
  8
DEFAULT_2
 62
8
  6
HIDDEN
 10
308.5818820148
 20
100.7448587092
  0
VERTEX
  8
DEFAULT_2
 62
8
  6
HIDDEN
 10
308.5567408496
 20
100.6527581885
  0
VERTEX
  8
DEFAULT_2
 62
8
  6
HIDDEN
 10
308.5143252105
 20
100.5667473918
  0
VERTEX
  8
DEFAULT_2
 62
8
  6
HIDDEN
 10
308.4555405828
 20
100.4896307126
  0
VERTEX
  8
DEFAULT_2
 62
8
  6
HIDDEN
 10
308.3817129402
 20
100.4243963323
  0
VERTEX
  8
DEFAULT_2
 62
8
  6
HIDDEN
 10
308.2949981568
 20
100.3742105696
  0
VERTEX
  8
DEFAULT_2
 62
8
  6
HIDDEN
 10
308.1987458451
 20
100.3420331982
  0
SEQEND
  0
LINE
  8
0
 62
7
  6
CONTINUOUS
 10
300.1656539885
 20
180.6423028463
 11
308.2656917445
 21
180.6423028463
  0
POLYLINE
  8
0
 62
7
  6
CONTINUOUS
 66
1
 70
0
  0
VERTEX
  8
0
 62
7
  6
CONTINUOUS
 10
308.5818820148
 20
226.7397469835
  0
VERTEX
  8
0
 62
7
  6
CONTINUOUS
 10
308.5567408496
 20
226.8318475042
  0
VERTEX
  8
0
 62
7
  6
CONTINUOUS
 10
308.5143252105
 20
226.9178583009
  0
VERTEX
  8
0
 62
7
  6
CONTINUOUS
 10
308.4555405828
 20
226.99497498
  0
VERTEX
  8
0
 62
7
  6
CONTINUOUS
 10
308.3817129402
 20
227.0602093604
  0
VERTEX
  8
0
 62
7
  6
CONTINUOUS
 10
308.2949981568
 20
227.110395123
  0
VERTEX
  8
0
 62
7
  6
CONTINUOUS
 10
308.1987458451
 20
227.1425724945
  0
VERTEX
  8
0
 62
7
  6
CONTINUOUS
 10
308.0891631496
 20
227.1547286253
  0
SEQEND
  0
POLYLINE
  8
0
 62
7
  6
CONTINUOUS
 66
1
 70
0
  0
VERTEX
  8
0
 62
7
  6
CONTINUOUS
 10
308.9288715838
 20
224.9156439732
  0
VERTEX
  8
0
 62
7
  6
CONTINUOUS
 10
308.8807428164
 20
225.1009343221
  0
VERTEX
  8
0
 62
7
  6
CONTINUOUS
 10
308.8192436528
 20
225.3862253344
  0
SEQEND
  0
LINE
  8
0
 62
7
  6
CONTINUOUS
 10
308.9475532356
 20
224.8401355735
 11
308.9289502841
 21
224.9153706937
  0
LINE
  8
0
 62
7
  6
CONTINUOUS
 10
308.8192436528
 20
225.3862253344
 11
308.758428185
 21
225.7162815827
  0
POLYLINE
  8
DEFAULT_2
 62
8
  6
HIDDEN
 66
1
 70
0
  0
VERTEX
  8
DEFAULT_2
 62
8
  6
HIDDEN
 10
308.9600549685
 20
241.6708194711
  0
VERTEX
  8
DEFAULT_2
 62
8
  6
HIDDEN
 10
308.9558670141
 20
241.6947165141
  0
VERTEX
  8
DEFAULT_2
 62
8
  6
HIDDEN
 10
308.9502475368
 20
241.7194856702
  0
VERTEX
  8
DEFAULT_2
 62
8
  6
HIDDEN
 10
308.9431113473
 20
241.7448001705
  0
VERTEX
  8
DEFAULT_2
 62
8
  6
HIDDEN
 10
308.9344469574
 20
241.7702653935
  0
VERTEX
  8
DEFAULT_2
 62
8
  6
HIDDEN
 10
308.9241970832
 20
241.7957556559
  0
VERTEX
  8
DEFAULT_2
 62
8
  6
HIDDEN
 10
308.9122377749
 20
241.8212916651
  0
VERTEX
  8
DEFAULT_2
 62
8
  6
HIDDEN
 10
308.8984284113
 20
241.846857487
  0
VERTEX
  8
DEFAULT_2
 62
8
  6
HIDDEN
 10
308.882609694
 20
241.8724077908
  0
VERTEX
  8
DEFAULT_2
 62
8
  6
HIDDEN
 10
308.8646157837
 20
241.8978496894
  0
VERTEX
  8
DEFAULT_2
 62
8
  6
HIDDEN
 10
308.8443445594
 20
241.9229673605
  0
VERTEX
  8
DEFAULT_2
 62
8
  6
HIDDEN
 10
308.8217441403
 20
241.9474885297
  0
VERTEX
  8
DEFAULT_2
 62
8
  6
HIDDEN
 10
308.7967916814
 20
241.9711290358
  0
VERTEX
  8
DEFAULT_2
 62
8
  6
HIDDEN
 10
308.7694901157
 20
241.9936005917
  0
VERTEX
  8
DEFAULT_2
 62
8
  6
HIDDEN
 10
308.7398435225
 20
242.0146288854
  0
VERTEX
  8
DEFAULT_2
 62
8
  6
HIDDEN
 10
308.7078743012
 20
242.0339329057
  0
VERTEX
  8
DEFAULT_2
 62
8
  6
HIDDEN
 10
308.6736350722
 20
242.0512183548
  0
VERTEX
  8
DEFAULT_2
 62
8
  6
HIDDEN
 10
308.6372122102
 20
242.0661801602
  0
VERTEX
  8
DEFAULT_2
 62
8
  6
HIDDEN
 10
308.5987293328
 20
242.078505617
  0
VERTEX
  8
DEFAULT_2
 62
8
  6
HIDDEN
 10
308.5583505521
 20
242.0878782232
  0
VERTEX
  8
DEFAULT_2
 62
8
  6
HIDDEN
 10
308.5162836087
 20
242.0939821608
  0
VERTEX
  8
DEFAULT_2
 62
8
  6
HIDDEN
 10
308.4727827847
 20
242.0965075152
  0
VERTEX
  8
DEFAULT_2
 62
8
  6
HIDDEN
 10
308.4655825922
 20
242.0965593598
  0
SEQEND
  0
LINE
  8
0
 62
7
  6
CONTINUOUS
 10
308.7584191516
 20
225.7163339896
 11
308.758428185
 21
225.7162815827
  0
LINE
  8
0
 62
7
  6
CONTINUOUS
 10
308.7584191176
 20
225.7163339837
 11
308.5818820164
 21
226.7397469769
  0
LINE
  8
1_AXIS
 62
7
  6
CONTINUOUS
 10
325.3656728665
 20
194.2423028463
 11
325.3656728665
 21
133.2423028463
  0
POLYLINE
  8
DEFAULT_2
 62
8
  6
HIDDEN
 66
1
 70
0
  0
VERTEX
  8
DEFAULT_2
 62
8
  6
HIDDEN
 10
308.586700358
 20
71.1252195823
  0
VERTEX
  8
DEFAULT_2
 62
8
  6
HIDDEN
 10
308.5658233641
 20
71.0238046924
  0
VERTEX
  8
DEFAULT_2
 62
8
  6
HIDDEN
 10
308.5264410501
 20
70.9323225098
  0
VERTEX
  8
DEFAULT_2
 62
8
  6
HIDDEN
 10
308.4700598102
 20
70.8508748851
  0
VERTEX
  8
DEFAULT_2
 62
8
  6
HIDDEN
 10
308.3973213421
 20
70.7810356341
  0
VERTEX
  8
DEFAULT_2
 62
8
  6
HIDDEN
 10
308.3079670807
 20
70.7252019938
  0
VERTEX
  8
DEFAULT_2
 62
8
  6
HIDDEN
 10
308.2069095111
 20
70.6888468998
  0
VERTEX
  8
DEFAULT_2
 62
8
  6
HIDDEN
 10
308.0891631496
 20
70.674784958
  0
SEQEND
  0
POLYLINE
  8
0
 62
7
  6
CONTINUOUS
 66
1
 70
0
  0
VERTEX
  8
0
 62
7
  6
CONTINUOUS
 10
308.5851476764
 20
66.2598443611
  0
VERTEX
  8
0
 62
7
  6
CONTINUOUS
 10
308.5678149974
 20
66.1785424513
  0
VERTEX
  8
0
 62
7
  6
CONTINUOUS
 10
308.5290623265
 20
66.0854109711
  0
VERTEX
  8
0
 62
7
  6
CONTINUOUS
 10
308.4737727867
 20
66.0035920642
  0
VERTEX
  8
0
 62
7
  6
CONTINUOUS
 10
308.4043901054
 20
65.9349711744
  0
VERTEX
  8
0
 62
7
  6
CONTINUOUS
 10
308.3222919525
 20
65.8807600188
  0
VERTEX
  8
0
 62
7
  6
CONTINUOUS
 10
308.2295532658
 20
65.8431984724
  0
VERTEX
  8
0
 62
7
  6
CONTINUOUS
 10
308.1317412011
 20
65.8249007055
  0
VERTEX
  8
0
 62
7
  6
CONTINUOUS
 10
308.0891631496
 20
65.8230845166
  0
SEQEND
  0
LINE
  8
DEFAULT_2
 62
8
  6
HIDDEN
 10
308.9656728665
 20
185.8577224831
 11
309.2656728665
 21
185.8577224831
  0
LINE
  8
DEFAULT_2
 62
8
  6
HIDDEN
 10
308.9656728665
 20
186.1407821072
 11
309.2656728665
 21
186.1407821072
  0
LINE
  8
DEFAULT_2
 62
8
  6
HIDDEN
 10
308.9656728665
 20
187.7132632348
 11
309.2656728665
 21
187.7132632348
  0
LINE
  8
DEFAULT_2
 62
8
  6
HIDDEN
 10
308.9656728665
 20
187.7825278159
 11
309.2656728665
 21
187.7825278159
  0
LINE
  8
DEFAULT_2
 62
8
  6
HIDDEN
 10
308.9656728665
 20
187.8577792669
 11
309.2656728665
 21
187.8577792669
  0
LINE
  8
DEFAULT_2
 62
8
  6
HIDDEN
 10
308.9656728665
 20
187.8957518082
 11
309.2656728665
 21
187.8957518082
  0
LINE
  8
DEFAULT_2
 62
8
  6
HIDDEN
 10
308.9656728665
 20
188.2793825622
 11
309.2656728665
 21
188.2793825622
  0
LINE
  8
DEFAULT_2
 62
8
  6
HIDDEN
 10
308.9656728665
 20
188.7255975544
 11
309.2656728665
 21
188.7255975544
  0
LINE
  8
DEFAULT_2
 62
8
  6
HIDDEN
 10
308.9656728665
 20
188.8135016697
 11
309.2656728665
 21
188.8135016697
  0
LINE
  8
DEFAULT_2
 62
8
  6
HIDDEN
 10
308.9656728665
 20
188.8388215468
 11
309.2656728665
 21
188.8388215468
  0
LINE
  8
DEFAULT_2
 62
8
  6
HIDDEN
 10
308.9656728665
 20
189.1345337954
 11
309.2656728665
 21
189.1345337954
  0
LINE
  8
DEFAULT_2
 62
8
  6
HIDDEN
 10
308.9656728665
 20
189.3230090803
 11
309.2656728665
 21
189.3230090803
  0
LINE
  8
DEFAULT_2
 62
8
  6
HIDDEN
 10
308.9656728665
 20
189.876475585
 11
309.2656728665
 21
189.876475585
  0
LINE
  8
DEFAULT_2
 62
8
  6
HIDDEN
 10
308.9656728665
 20
189.9077677834
 11
309.2656728665
 21
189.9077677834
  0
LINE
  8
DEFAULT_2
 62
8
  6
HIDDEN
 10
308.9656728665
 20
190.5417790172
 11
309.2656728665
 21
190.5417790172
  0
LINE
  8
DEFAULT_2
 62
8
  6
HIDDEN
 10
308.9656728665
 20
190.7502807425
 11
309.2656728665
 21
190.7502807425
  0
LINE
  8
DEFAULT_2
 62
8
  6
HIDDEN
 10
308.9656728665
 20
190.8761572404
 11
309.2656728665
 21
190.8761572404
  0
LINE
  8
DEFAULT_2
 62
8
  6
HIDDEN
 10
308.9656728665
 20
191.3789843081
 11
309.2656728665
 21
191.3789843081
  0
LINE
  8
DEFAULT_2
 62
8
  6
HIDDEN
 10
308.9656728665
 20
191.5048751962
 11
309.2656728665
 21
191.5048751962
  0
LINE
  8
DEFAULT_2
 62
8
  6
HIDDEN
 10
308.9656728665
 20
191.5161409145
 11
309.2656728665
 21
191.5161409145
  0
LINE
  8
DEFAULT_2
 62
8
  6
HIDDEN
 10
308.9656728665
 20
191.7992005386
 11
309.2656728665
 21
191.7992005386
  0
LINE
  8
0
 62
7
  6
CONTINUOUS
 10
308.9288713634
 20
224.9156439095
 11
308.9289502841
 21
224.9153706937
  0
POLYLINE
  8
0
 62
7
  6
CONTINUOUS
 66
1
 70
0
  0
VERTEX
  8
0
 62
7
  6
CONTINUOUS
 10
308.5851476764
 20
261.2247613315
  0
VERTEX
  8
0
 62
7
  6
CONTINUOUS
 10
308.5678149974
 20
261.3060632413
  0
VERTEX
  8
0
 62
7
  6
CONTINUOUS
 10
308.5290623265
 20
261.3991947216
  0
VERTEX
  8
0
 62
7
  6
CONTINUOUS
 10
308.4737727867
 20
261.4810136284
  0
VERTEX
  8
0
 62
7
  6
CONTINUOUS
 10
308.4043901054
 20
261.5496345183
  0
VERTEX
  8
0
 62
7
  6
CONTINUOUS
 10
308.3222919525
 20
261.6038456739
  0
VERTEX
  8
0
 62
7
  6
CONTINUOUS
 10
308.2295532658
 20
261.6414072202
  0
VERTEX
  8
0
 62
7
  6
CONTINUOUS
 10
308.1317412011
 20
261.6597049872
  0
SEQEND
  0
POLYLINE
  8
0
 62
7
  6
CONTINUOUS
 66
1
 70
0
  0
VERTEX
  8
0
 62
7
  6
CONTINUOUS
 10
308.586700358
 20
256.3593861104
  0
VERTEX
  8
0
 62
7
  6
CONTINUOUS
 10
308.5658233641
 20
256.4608010002
  0
VERTEX
  8
0
 62
7
  6
CONTINUOUS
 10
308.5264410501
 20
256.5522831829
  0
VERTEX
  8
0
 62
7
  6
CONTINUOUS
 10
308.4700598102
 20
256.6337308076
  0
VERTEX
  8
0
 62
7
  6
CONTINUOUS
 10
308.3973213421
 20
256.7035700586
  0
VERTEX
  8
0
 62
7
  6
CONTINUOUS
 10
308.3079670807
 20
256.7594036988
  0
VERTEX
  8
0
 62
7
  6
CONTINUOUS
 10
308.2069095111
 20
256.7957587929
  0
VERTEX
  8
0
 62
7
  6
CONTINUOUS
 10
308.0891631496
 20
256.8098207347
  0
SEQEND
  0
LINE
  8
DEFAULT_2
 62
8
  6
HIDDEN
 10
308.9656728665
 20
192.1082734334
 11
309.2656728665
 21
192.1082734334
  0
LINE
  8
DEFAULT_2
 62
8
  6
HIDDEN
 10
308.9656728665
 20
192.4665844689
 11
309.2656728665
 21
192.4665844689
  0
LINE
  8
DEFAULT_2
 62
8
  6
HIDDEN
 10
308.9656728665
 20
192.5485017142
 11
309.2656728665
 21
192.5485017142
  0
LINE
  8
DEFAULT_2
 62
8
  6
HIDDEN
 10
308.9656728665
 20
192.6111005011
 11
309.2656728665
 21
192.6111005011
  0
LINE
  8
DEFAULT_2
 62
8
  6
HIDDEN
 10
308.9656728665
 20
192.7322960059
 11
309.2656728665
 21
192.7322960059
  0
LINE
  8
DEFAULT_2
 62
8
  6
HIDDEN
 10
308.9656728665
 20
193.0639958362
 11
309.2656728665
 21
193.0639958362
  0
LINE
  8
DEFAULT_2
 62
8
  6
HIDDEN
 10
308.9656728665
 20
193.3969871532
 11
309.2656728665
 21
193.3969871532
  0
LINE
  8
DEFAULT_2
 62
8
  6
HIDDEN
 10
308.9656728665
 20
193.4662661244
 11
309.2656728665
 21
193.4662661244
  0
LINE
  8
DEFAULT_2
 62
8
  6
HIDDEN
 10
308.9656728665
 20
193.6493510478
 11
309.2656728665
 21
193.6493510478
  0
LINE
  8
DEFAULT_2
 62
8
  6
HIDDEN
 10
308.9656728665
 20
195.8079428891
 11
309.2656728665
 21
195.8079428891
  0
LINE
  8
DEFAULT_2
 62
8
  6
HIDDEN
 10
308.9656728665
 20
195.9223811474
 11
309.2656728665
 21
195.9223811474
  0
LINE
  8
1_AXIS
 62
7
  6
CONTINUOUS
 10
285.0656728665
 20
196.2423028463
 11
296.9656728665
 21
196.2423028463
  0
LINE
  8
1_AXIS
 62
7
  6
CONTINUOUS
 10
311.4656728665
 20
196.2423028463
 11
323.3656728665
 21
196.2423028463
  0
LINE
  8
DEFAULT_2
 62
8
  6
HIDDEN
 10
308.9656728665
 20
196.2847215734
 11
309.2656728665
 21
196.2847215734
  0
LINE
  8
DEFAULT_2
 62
8
  6
HIDDEN
 10
308.9656728665
 20
196.2964430385
 11
309.2656728665
 21
196.2964430385
  0
LINE
  8
DEFAULT_2
 62
8
  6
HIDDEN
 10
308.9656728665
 20
196.7383788832
 11
309.2656728665
 21
196.7383788832
  0
LINE
  8
DEFAULT_2
 62
8
  6
HIDDEN
 10
308.9656728665
 20
196.8394361893
 11
309.2656728665
 21
196.8394361893
  0
LINE
  8
DEFAULT_2
 62
8
  6
HIDDEN
 10
308.9656728665
 20
197.2813722242
 11
309.2656728665
 21
197.2813722242
  0
LINE
  8
DEFAULT_2
 62
8
  6
HIDDEN
 10
308.9656728665
 20
198.9864675249
 11
309.2656728665
 21
198.9864675249
  0
LINE
  8
DEFAULT_2
 62
8
  6
HIDDEN
 10
308.9656728665
 20
199.5427092582
 11
309.2656728665
 21
199.5427092582
  0
LINE
  8
DEFAULT_2
 62
8
  6
HIDDEN
 10
308.9656728665
 20
199.8823381843
 11
309.2656728665
 21
199.8823381843
  0
LINE
  8
DEFAULT_2
 62
8
  6
HIDDEN
 10
308.9656728665
 20
201.2959721702
 11
309.2656728665
 21
201.2959721702
  0
LINE
  8
0
 62
7
  6
CONTINUOUS
 10
308.9656728665
 20
201.7035322234
 11
309.2656728665
 21
201.7035322234
  0
LINE
  8
0
 62
7
  6
CONTINUOUS
 10
308.9656728665
 20
202.3392371172
 11
309.2656728665
 21
202.3392371172
  0
LINE
  8
DEFAULT_2
 62
8
  6
HIDDEN
 10
299.9656728665
 20
203.4257012312
 11
308.4656728665
 21
203.4257012312
  0
LINE
  8
0
 62
7
  6
CONTINUOUS
 10
308.9656728665
 20
205.0409830687
 11
309.2656728665
 21
205.0409830687
  0
LINE
  8
DEFAULT_2
 62
8
  6
HIDDEN
 10
299.9656728665
 20
205.1121277161
 11
308.4656728665
 21
205.1121277161
  0
LINE
  8
0
 62
7
  6
CONTINUOUS
 10
308.9656728665
 20
205.4382985925
 11
309.2656728665
 21
205.4382985925
  0
LINE
  8
DEFAULT_2
 62
8
  6
HIDDEN
 10
308.9656728665
 20
240.4743536539
 11
309.2656728665
 21
239.9547384116
  0
LINE
  8
0
 62
7
  6
CONTINUOUS
 10
309.2656728665
 20
239.9547384116
 11
309.9656728665
 21
238.7423028463
  0
LINE
  8
DEFAULT_2
 62
8
  6
HIDDEN
 10
299.9656728665
 20
224.9255935862
 11
308.4656728665
 21
224.9255935862
  0
LINE
  8
0
 62
7
  6
CONTINUOUS
 10
308.9656728665
 20
225.0566019279
 11
309.2656728665
 21
225.0566019279
  0
LINE
  8
0
 62
7
  6
CONTINUOUS
 10
308.9656728665
 20
225.1961711672
 11
309.2656728665
 21
225.1961711672
  0
LINE
  8
DEFAULT_2
 62
8
  6
HIDDEN
 10
308.9656728665
 20
225.2931136201
 11
309.2656728665
 21
225.2931136201
  0
LINE
  8
0
 62
7
  6
CONTINUOUS
 10
308.9656728665
 20
225.3832375057
 11
309.2656728665
 21
225.3832375057
  0
LINE
  8
DEFAULT_2
 62
8
  6
HIDDEN
 10
308.9656728665
 20
225.6691945685
 11
309.2656728665
 21
225.6691945685
  0
LINE
  8
DEFAULT_2
 62
8
  6
HIDDEN
 10
308.9656728665
 20
225.7602925392
 11
309.2656728665
 21
225.7602925392
  0
LINE
  8
0
 62
7
  6
CONTINUOUS
 10
308.9656728665
 20
225.8513905099
 11
309.2656728665
 21
225.8513905099
  0
LINE
  8
DEFAULT_2
 62
8
  6
HIDDEN
 10
308.9656728665
 20
225.8552868038
 11
309.2656728665
 21
225.8552868038
  0
LINE
  8
DEFAULT_2
 62
8
  6
HIDDEN
 10
308.9656728665
 20
225.9938820143
 11
309.2656728665
 21
225.9938820143
  0
LINE
  8
DEFAULT_2
 62
8
  6
HIDDEN
 10
308.9656728665
 20
226.1858186782
 11
309.2656728665
 21
226.1858186782
  0
LINE
  8
DEFAULT_2
 62
8
  6
HIDDEN
 10
308.9656728665
 20
226.2313677521
 11
309.2656728665
 21
226.2313677521
  0
LINE
  8
DEFAULT_2
 62
8
  6
HIDDEN
 10
308.9656728665
 20
226.321491628
 11
309.2656728665
 21
226.321491628
  0
LINE
  8
DEFAULT_2
 62
8
  6
HIDDEN
 10
308.9656728665
 20
226.5144025155
 11
309.2656728665
 21
226.5144025155
  0
LINE
  8
DEFAULT_2
 62
8
  6
HIDDEN
 10
308.9656728665
 20
226.7034170082
 11
309.2656728665
 21
226.7034170082
  0
LINE
  8
DEFAULT_2
 62
8
  6
HIDDEN
 10
308.9656728665
 20
226.7479918987
 11
309.2656728665
 21
226.7479918987
  0
LINE
  8
0
 62
7
  6
CONTINUOUS
 10
300.3421825834
 20
227.1547286333
 11
308.0891631496
 21
227.1547286333
  0
LINE
  8
DEFAULT_2
 62
8
  6
HIDDEN
 10
308.9656728665
 20
227.1735182272
 11
309.2656728665
 21
227.1735182272
  0
LINE
  8
DEFAULT_2
 62
8
  6
HIDDEN
 10
308.9656728665
 20
227.2180929832
 11
309.2656728665
 21
227.2180929832
  0
LINE
  8
DEFAULT_2
 62
8
  6
HIDDEN
 10
308.9656728665
 20
227.3111391436
 11
309.2656728665
 21
227.3111391436
  0
LINE
  8
DEFAULT_2
 62
8
  6
HIDDEN
 10
308.9656728665
 20
227.3605844138
 11
309.2656728665
 21
227.3605844138
  0
LINE
  8
DEFAULT_2
 62
8
  6
HIDDEN
 10
308.9656728665
 20
227.8287374859
 11
309.2656728665
 21
227.8287374859
  0
LINE
  8
DEFAULT_2
 62
8
  6
HIDDEN
 10
308.9656728665
 20
227.8679591961
 11
309.2656728665
 21
227.8679591961
  0
LINE
  8
DEFAULT_2
 62
8
  6
HIDDEN
 10
308.9656728665
 20
227.9208094997
 11
309.2656728665
 21
227.9208094997
  0
LINE
  8
DEFAULT_2
 62
8
  6
HIDDEN
 10
308.9656728665
 20
228.2783500757
 11
309.2656728665
 21
228.2783500757
  0
LINE
  8
0
 62
7
  6
CONTINUOUS
 10
308.9656728665
 20
228.6622563789
 11
309.2656728665
 21
228.6622563789
  0
LINE
  8
0
 62
7
  6
CONTINUOUS
 10
308.9656728665
 20
229.132357497
 11
309.2656728665
 21
229.132357497
  0
LINE
  8
DEFAULT_2
 62
8
  6
HIDDEN
 10
308.9656728665
 20
229.7557569608
 11
309.2656728665
 21
229.7557569608
  0
LINE
  8
DEFAULT_2
 62
8
  6
HIDDEN
 10
308.9656728665
 20
230.0005698761
 11
309.2656728665
 21
230.0005698761
  0
LINE
  8
DEFAULT_2
 62
8
  6
HIDDEN
 10
308.9656728665
 20
230.1661476057
 11
309.2656728665
 21
230.1661476057
  0
LINE
  8
DEFAULT_2
 62
8
  6
HIDDEN
 10
308.9656728665
 20
230.4310960906
 11
309.2656728665
 21
230.4310960906
  0
LINE
  8
DEFAULT_2
 62
8
  6
HIDDEN
 10
308.9656728665
 20
230.7450980226
 11
309.2656728665
 21
230.7450980226
  0
LINE
  8
0
 62
7
  6
CONTINUOUS
 10
308.9656728665
 20
231.012761936
 11
309.2656728665
 21
231.012761936
  0
LINE
  8
DEFAULT_2
 62
8
  6
HIDDEN
 10
308.9656728665
 20
231.1154128996
 11
309.2656728665
 21
231.1154128996
  0
LINE
  8
0
 62
7
  6
CONTINUOUS
 10
308.9656728665
 20
231.482863155
 11
309.2656728665
 21
231.482863155
  0
LINE
  8
DEFAULT_2
 62
8
  6
HIDDEN
 10
308.9656728665
 20
231.6855994752
 11
309.2656728665
 21
231.6855994752
  0
LINE
  8
DEFAULT_2
 62
8
  6
HIDDEN
 10
308.9656728665
 20
232.1460383944
 11
309.2656728665
 21
232.1460383944
  0
LINE
  8
DEFAULT_2
 62
8
  6
HIDDEN
 10
308.9656728665
 20
232.278164516
 11
309.2656728665
 21
232.278164516
  0
LINE
  8
DEFAULT_2
 62
8
  6
HIDDEN
 10
308.9656728665
 20
232.4402206148
 11
309.2656728665
 21
232.4402206148
  0
LINE
  8
DEFAULT_2
 62
8
  6
HIDDEN
 10
308.9656728665
 20
232.5704413195
 11
309.2656728665
 21
232.5704413195
  0
LINE
  8
0
 62
7
  6
CONTINUOUS
 10
308.9656728665
 20
232.6084799373
 11
309.2656728665
 21
232.6084799373
  0
LINE
  8
DEFAULT_2
 62
8
  6
HIDDEN
 10
308.9656728665
 20
232.6885551609
 11
309.2656728665
 21
232.6885551609
  0
LINE
  8
DEFAULT_2
 62
8
  6
HIDDEN
 10
308.9656728665
 20
232.7386034352
 11
309.2656728665
 21
232.7386034352
  0
LINE
  8
DEFAULT_2
 62
8
  6
HIDDEN
 10
308.9656728665
 20
232.8707468293
 11
309.2656728665
 21
232.8707468293
  0
LINE
  8
DEFAULT_2
 62
8
  6
HIDDEN
 10
308.9656728665
 20
232.9808319644
 11
309.2656728665
 21
232.9808319644
  0
LINE
  8
0
 62
7
  6
CONTINUOUS
 10
308.9656728665
 20
233.018870817
 11
309.2656728665
 21
233.018870817
  0
LINE
  8
DEFAULT_2
 62
8
  6
HIDDEN
 10
308.9656728665
 20
233.1650092187
 11
309.2656728665
 21
233.1650092187
  0
LINE
  8
DEFAULT_2
 62
8
  6
HIDDEN
 10
308.9656728665
 20
233.2290693037
 11
309.2656728665
 21
233.2290693037
  0
LINE
  8
0
 62
7
  6
CONTINUOUS
 10
308.9656728665
 20
233.2811202016
 11
309.2656728665
 21
233.2811202016
  0
LINE
  8
DEFAULT_2
 62
8
  6
HIDDEN
 10
308.9656728665
 20
233.3451807562
 11
309.2656728665
 21
233.3451807562
  0
LINE
  8
DEFAULT_2
 62
8
  6
HIDDEN
 10
308.9656728665
 20
233.36119566
 11
309.2656728665
 21
233.36119566
  0
LINE
  8
DEFAULT_2
 62
8
  6
HIDDEN
 10
308.9656728665
 20
233.6394604182
 11
309.2656728665
 21
233.6394604182
  0
LINE
  8
0
 62
7
  6
CONTINUOUS
 10
308.9656728665
 20
233.7575742595
 11
309.2656728665
 21
233.7575742595
  0
LINE
  8
DEFAULT_2
 62
8
  6
HIDDEN
 10
308.9656728665
 20
233.8109629462
 11
309.2656728665
 21
233.8109629462
  0
LINE
  8
DEFAULT_2
 62
8
  6
HIDDEN
 10
308.9656728665
 20
234.0018058819
 11
309.2656728665
 21
234.0018058819
  0
LINE
  8
0
 62
7
  6
CONTINUOUS
 10
308.9656728665
 20
234.0858870572
 11
309.2656728665
 21
234.0858870572
  0
LINE
  8
DEFAULT_2
 62
8
  6
HIDDEN
 10
308.9656728665
 20
234.1339322383
 11
309.2656728665
 21
234.1339322383
  0
LINE
  8
0
 62
7
  6
CONTINUOUS
 10
308.9656728665
 20
234.1839802778
 11
309.2656728665
 21
234.1839802778
  0
LINE
  8
DEFAULT_2
 62
8
  6
HIDDEN
 10
308.9656728665
 20
234.7327446985
 11
309.2656728665
 21
234.7327446985
  0
LINE
  8
DEFAULT_2
 62
8
  6
HIDDEN
 10
308.9656728665
 20
235.2068695852
 11
309.2656728665
 21
235.2068695852
  0
LINE
  8
DEFAULT_2
 62
8
  6
HIDDEN
 10
308.9656728665
 20
235.2844756814
 11
309.2656728665
 21
235.2844756814
  0
LINE
  8
DEFAULT_2
 62
8
  6
HIDDEN
 10
308.9656728665
 20
235.433517588
 11
309.2656728665
 21
235.433517588
  0
LINE
  8
DEFAULT_2
 62
8
  6
HIDDEN
 10
308.9656728665
 20
235.5033107577
 11
309.2656728665
 21
235.5033107577
  0
LINE
  8
DEFAULT_2
 62
8
  6
HIDDEN
 10
308.9656728665
 20
235.5062881434
 11
309.2656728665
 21
235.5062881434
  0
LINE
  8
DEFAULT_2
 62
8
  6
HIDDEN
 10
308.9656728665
 20
235.5711937522
 11
309.2656728665
 21
235.5711937522
  0
LINE
  8
0
 62
7
  6
CONTINUOUS
 10
308.9656728665
 20
235.6245633629
 11
309.2656728665
 21
235.6245633629
  0
LINE
  8
DEFAULT_2
 62
8
  6
HIDDEN
 10
308.9656728665
 20
235.8200874704
 11
309.2656728665
 21
235.8200874704
  0
LINE
  8
DEFAULT_2
 62
8
  6
HIDDEN
 10
308.9656728665
 20
235.9311132243
 11
309.2656728665
 21
235.9311132243
  0
LINE
  8
0
 62
7
  6
CONTINUOUS
 10
308.9656728665
 20
235.99487824
 11
309.2656728665
 21
235.99487824
  0
LINE
  8
DEFAULT_2
 62
8
  6
HIDDEN
 10
308.9656728665
 20
236.0108312108
 11
309.2656728665
 21
236.0108312108
  0
LINE
  8
DEFAULT_2
 62
8
  6
HIDDEN
 10
308.9656728665
 20
236.0199913555
 11
309.2656728665
 21
236.0199913555
  0
LINE
  8
0
 62
7
  6
CONTINUOUS
 10
308.9656728665
 20
236.0353570191
 11
309.2656728665
 21
236.0353570191
  0
LINE
  8
DEFAULT_2
 62
8
  6
HIDDEN
 10
308.9656728665
 20
236.214156927
 11
309.2656728665
 21
236.214156927
  0
LINE
  8
DEFAULT_2
 62
8
  6
HIDDEN
 10
308.9656728665
 20
236.2327800097
 11
309.2656728665
 21
236.2327800097
  0
LINE
  8
DEFAULT_2
 62
8
  6
HIDDEN
 10
308.9656728665
 20
236.3303708967
 11
309.2656728665
 21
236.3303708967
  0
LINE
  8
DEFAULT_2
 62
8
  6
HIDDEN
 10
308.9656728665
 20
236.439217189
 11
309.2656728665
 21
236.439217189
  0
LINE
  8
DEFAULT_2
 62
8
  6
HIDDEN
 10
308.9656728665
 20
236.451615143
 11
309.2656728665
 21
236.451615143
  0
LINE
  8
DEFAULT_2
 62
8
  6
HIDDEN
 10
308.9656728665
 20
236.4601821
 11
309.2656728665
 21
236.4601821
  0
LINE
  8
DEFAULT_2
 62
8
  6
HIDDEN
 10
308.9656728665
 20
236.462482473
 11
309.2656728665
 21
236.462482473
  0
LINE
  8
DEFAULT_2
 62
8
  6
HIDDEN
 10
308.9656728665
 20
236.4857495228
 11
309.2656728665
 21
236.4857495228
  0
LINE
  8
0
 62
7
  6
CONTINUOUS
 10
308.9656728665
 20
236.5939255566
 11
309.2656728665
 21
236.5939255566
  0
LINE
  8
DEFAULT_2
 62
8
  6
HIDDEN
 10
308.9656728665
 20
236.6450609424
 11
309.2656728665
 21
236.6450609424
  0
LINE
  8
DEFAULT_2
 62
8
  6
HIDDEN
 10
308.9656728665
 20
236.7418692227
 11
309.2656728665
 21
236.7418692227
  0
LINE
  8
DEFAULT_2
 62
8
  6
HIDDEN
 10
308.9656728665
 20
236.8140631564
 11
309.2656728665
 21
236.8140631564
  0
LINE
  8
DEFAULT_2
 62
8
  6
HIDDEN
 10
299.9656728665
 20
236.8419904697
 11
308.4656728665
 21
236.8419904697
  0
LINE
  8
DEFAULT_2
 62
8
  6
HIDDEN
 10
308.9656728665
 20
236.845668995
 11
309.2656728665
 21
236.845668995
  0
LINE
  8
DEFAULT_2
 62
8
  6
HIDDEN
 10
308.9656728665
 20
236.8594967835
 11
309.2656728665
 21
236.8594967835
  0
LINE
  8
DEFAULT_2
 62
8
  6
HIDDEN
 10
308.9656728665
 20
236.8966267279
 11
309.2656728665
 21
236.8966267279
  0
LINE
  8
DEFAULT_2
 62
8
  6
HIDDEN
 10
308.9656728665
 20
236.903266291
 11
309.2656728665
 21
236.903266291
  0
LINE
  8
DEFAULT_2
 62
8
  6
HIDDEN
 10
308.9656728665
 20
236.9105746038
 11
309.2656728665
 21
236.9105746038
  0
LINE
  8
DEFAULT_2
 62
8
  6
HIDDEN
 10
308.9656728665
 20
237.0403858214
 11
309.2656728665
 21
237.0403858214
  0
LINE
  8
DEFAULT_2
 62
8
  6
HIDDEN
 10
308.9656728665
 20
237.0804988566
 11
309.2656728665
 21
237.0804988566
  0
LINE
  8
DEFAULT_2
 62
8
  6
HIDDEN
 10
308.9656728665
 20
237.128326553
 11
309.2656728665
 21
237.128326553
  0
LINE
  8
0
 62
7
  6
CONTINUOUS
 10
308.9656728665
 20
237.1493965755
 11
309.2656728665
 21
237.1493965755
  0
LINE
  8
DEFAULT_2
 62
8
  6
HIDDEN
 10
308.9656728665
 20
237.2211944634
 11
309.2656728665
 21
237.2211944634
  0
LINE
  8
DEFAULT_2
 62
8
  6
HIDDEN
 10
308.9656728665
 20
237.262629115
 11
309.2656728665
 21
237.262629115
  0
LINE
  8
DEFAULT_2
 62
8
  6
HIDDEN
 10
308.9656728665
 20
237.2664439987
 11
309.2656728665
 21
237.2664439987
  0
LINE
  8
DEFAULT_2
 62
8
  6
HIDDEN
 10
308.9656728665
 20
237.3629406708
 11
309.2656728665
 21
237.3629406708
  0
LINE
  8
DEFAULT_2
 62
8
  6
HIDDEN
 10
308.9656728665
 20
237.3921636044
 11
309.2656728665
 21
237.3921636044
  0
LINE
  8
DEFAULT_2
 62
8
  6
HIDDEN
 10
308.9656728665
 20
237.5197114525
 11
309.2656728665
 21
237.5197114525
  0
LINE
  8
DEFAULT_2
 62
8
  6
HIDDEN
 10
308.9656728665
 20
237.6461573914
 11
309.2656728665
 21
237.6461573914
  0
LINE
  8
DEFAULT_2
 62
8
  6
HIDDEN
 10
308.9656728665
 20
237.651720678
 11
309.2656728665
 21
237.651720678
  0
LINE
  8
DEFAULT_2
 62
8
  6
HIDDEN
 10
308.9656728665
 20
237.6535685844
 11
309.2656728665
 21
237.6535685844
  0
LINE
  8
DEFAULT_2
 62
8
  6
HIDDEN
 10
308.9656728665
 20
237.6874541959
 11
309.2656728665
 21
237.6874541959
  0
LINE
  8
DEFAULT_2
 62
8
  6
HIDDEN
 10
308.9656728665
 20
237.730724678
 11
309.2656728665
 21
237.730724678
  0
LINE
  8
DEFAULT_2
 62
8
  6
HIDDEN
 10
308.9656728665
 20
237.751194888
 11
309.2656728665
 21
237.751194888
  0
LINE
  8
DEFAULT_2
 62
8
  6
HIDDEN
 10
308.9656728665
 20
237.8034550356
 11
309.2656728665
 21
237.8034550356
  0
LINE
  8
0
 62
7
  6
CONTINUOUS
 10
308.9656728665
 20
237.9118129682
 11
309.2656728665
 21
237.9118129682
  0
LINE
  8
DEFAULT_2
 62
8
  6
HIDDEN
 10
308.9656728665
 20
237.9291746414
 11
309.2656728665
 21
237.9291746414
  0
LINE
  8
DEFAULT_2
 62
8
  6
HIDDEN
 10
308.9656728665
 20
237.9428551294
 11
309.2656728665
 21
237.9428551294
  0
LINE
  8
DEFAULT_2
 62
8
  6
HIDDEN
 10
308.9656728665
 20
238.176456514
 11
309.2656728665
 21
238.176456514
  0
LINE
  8
DEFAULT_2
 62
8
  6
HIDDEN
 10
308.9656728665
 20
238.2104751272
 11
309.2656728665
 21
238.2104751272
  0
LINE
  8
DEFAULT_2
 62
8
  6
HIDDEN
 10
308.9656728665
 20
238.2570004541
 11
309.2656728665
 21
238.2570004541
  0
LINE
  8
DEFAULT_2
 62
8
  6
HIDDEN
 10
308.9656728665
 20
238.2676584574
 11
309.2656728665
 21
238.2676584574
  0
LINE
  8
0
 62
7
  6
CONTINUOUS
 10
308.9656728665
 20
238.2821278452
 11
309.2656728665
 21
238.2821278452
  0
LINE
  8
DEFAULT_2
 62
8
  6
HIDDEN
 10
308.9656728665
 20
238.3513353768
 11
309.2656728665
 21
238.3513353768
  0
LINE
  8
DEFAULT_2
 62
8
  6
HIDDEN
 10
308.9656728665
 20
238.4449365193
 11
309.2656728665
 21
238.4449365193
  0
LINE
  8
DEFAULT_2
 62
8
  6
HIDDEN
 10
308.9656728665
 20
238.5497641161
 11
309.2656728665
 21
238.5497641161
  0
LINE
  8
DEFAULT_2
 62
8
  6
HIDDEN
 10
308.9656728665
 20
238.5523283371
 11
309.2656728665
 21
238.5523283371
  0
LINE
  8
DEFAULT_2
 62
8
  6
HIDDEN
 10
308.9656728665
 20
238.5996608086
 11
309.2656728665
 21
238.5996608086
  0
LINE
  8
DEFAULT_2
 62
8
  6
HIDDEN
 10
308.9656728665
 20
238.6586438364
 11
309.2656728665
 21
238.6586438364
  0
LINE
  8
DEFAULT_2
 62
8
  6
HIDDEN
 10
308.9656728665
 20
238.7402640951
 11
309.2656728665
 21
238.7402640951
  0
LINE
  8
DEFAULT_2
 62
8
  6
HIDDEN
 10
308.9656728665
 20
238.7900485449
 11
309.2656728665
 21
238.7900485449
  0
LINE
  8
DEFAULT_2
 62
8
  6
HIDDEN
 10
308.9656728665
 20
238.8208080352
 11
309.2656728665
 21
238.8208080352
  0
LINE
  8
DEFAULT_2
 62
8
  6
HIDDEN
 10
308.9656728665
 20
238.8588557729
 11
309.2656728665
 21
238.8588557729
  0
LINE
  8
DEFAULT_2
 62
8
  6
HIDDEN
 10
308.9656728665
 20
238.9255923509
 11
309.2656728665
 21
238.9255923509
  0
POLYLINE
  8
DEFAULT_2
 62
8
  6
HIDDEN
 66
1
 70
0
  0
VERTEX
  8
DEFAULT_2
 62
8
  6
HIDDEN
 10
299.9657630935
 20
242.0965599754
  0
VERTEX
  8
DEFAULT_2
 62
8
  6
HIDDEN
 10
299.9357095233
 20
242.0956559516
  0
VERTEX
  8
DEFAULT_2
 62
8
  6
HIDDEN
 10
299.8986257721
 20
242.0920321098
  0
VERTEX
  8
DEFAULT_2
 62
8
  6
HIDDEN
 10
299.8622063746
 20
242.0857185819
  0
VERTEX
  8
DEFAULT_2
 62
8
  6
HIDDEN
 10
299.8266679111
 20
242.0768232175
  0
VERTEX
  8
DEFAULT_2
 62
8
  6
HIDDEN
 10
299.7922118233
 20
242.0654739954
  0
VERTEX
  8
DEFAULT_2
 62
8
  6
HIDDEN
 10
299.7590224582
 20
242.0518169319
  0
VERTEX
  8
DEFAULT_2
 62
8
  6
HIDDEN
 10
299.7272654183
 20
242.0360138033
  0
VERTEX
  8
DEFAULT_2
 62
8
  6
HIDDEN
 10
299.697086237
 20
242.0182397276
  0
VERTEX
  8
DEFAULT_2
 62
8
  6
HIDDEN
 10
299.6686093879
 20
241.9986806541
  0
VERTEX
  8
DEFAULT_2
 62
8
  6
HIDDEN
 10
299.6419376315
 20
241.9775308095
  0
VERTEX
  8
DEFAULT_2
 62
8
  6
HIDDEN
 10
299.6171514609
 20
241.9549899191
  0
VERTEX
  8
DEFAULT_2
 62
8
  6
HIDDEN
 10
299.5943096544
 20
241.9312611556
  0
VERTEX
  8
DEFAULT_2
 62
8
  6
HIDDEN
 10
299.5734499434
 20
241.9065493864
  0
VERTEX
  8
DEFAULT_2
 62
8
  6
HIDDEN
 10
299.5545885243
 20
241.8810579487
  0
VERTEX
  8
DEFAULT_2
 62
8
  6
HIDDEN
 10
299.5377209177
 20
241.8549863523
  0
VERTEX
  8
DEFAULT_2
 62
8
  6
HIDDEN
 10
299.5228231252
 20
241.8285282341
  0
VERTEX
  8
DEFAULT_2
 62
8
  6
HIDDEN
 10
299.5098530641
 20
241.8018696977
  0
VERTEX
  8
DEFAULT_2
 62
8
  6
HIDDEN
 10
299.4987525223
 20
241.7751889925
  0
VERTEX
  8
DEFAULT_2
 62
8
  6
HIDDEN
 10
299.489457608
 20
241.7486841037
  0
VERTEX
  8
DEFAULT_2
 62
8
  6
HIDDEN
 10
299.481888874
 20
241.7225612645
  0
VERTEX
  8
DEFAULT_2
 62
8
  6
HIDDEN
 10
299.4759434844
 20
241.6970088305
  0
VERTEX
  8
DEFAULT_2
 62
8
  6
HIDDEN
 10
299.4715059263
 20
241.6722365303
  0
SEQEND
  0
LINE
  8
DEFAULT_2
 62
8
  6
HIDDEN
 10
308.9656728665
 20
239.312893388
 11
309.2656728665
 21
239.312893388
  0
LINE
  8
DEFAULT_2
 62
8
  6
HIDDEN
 10
308.9656728665
 20
239.3469310659
 11
309.2656728665
 21
239.3469310659
  0
LINE
  8
DEFAULT_2
 62
8
  6
HIDDEN
 10
308.9656728665
 20
239.3553948095
 11
309.2656728665
 21
239.3553948095
  0
LINE
  8
DEFAULT_2
 62
8
  6
HIDDEN
 10
308.9656728665
 20
239.4331127469
 11
309.2656728665
 21
239.4331127469
  0
LINE
  8
DEFAULT_2
 62
8
  6
HIDDEN
 10
308.9656728665
 20
239.5728134624
 11
309.2656728665
 21
239.5728134624
  0
LINE
  8
DEFAULT_2
 62
8
  6
HIDDEN
 10
308.9656728665
 20
239.5814969552
 11
309.2656728665
 21
239.5814969552
  0
LINE
  8
DEFAULT_2
 62
8
  6
HIDDEN
 10
308.9656728665
 20
239.6364384632
 11
309.2656728665
 21
239.6364384632
  0
LINE
  8
DEFAULT_2
 62
8
  6
HIDDEN
 10
308.9656728665
 20
239.6550615458
 11
309.2656728665
 21
239.6550615458
  0
LINE
  8
DEFAULT_2
 62
8
  6
HIDDEN
 10
308.9656728665
 20
239.6608452021
 11
309.2656728665
 21
239.6608452021
  0
LINE
  8
DEFAULT_2
 62
8
  6
HIDDEN
 10
308.9656728665
 20
239.7935073946
 11
309.2656728665
 21
239.7935073946
  0
LINE
  8
0
 62
7
  6
CONTINUOUS
 10
308.9656728665
 20
239.8115940622
 11
309.2656728665
 21
239.8115940622
  0
LINE
  8
DEFAULT_2
 62
8
  6
HIDDEN
 10
308.9656728665
 20
239.873896565
 11
309.2656728665
 21
239.873896565
  0
LINE
  8
DEFAULT_2
 62
8
  6
HIDDEN
 10
308.9656728665
 20
239.884763895
 11
309.2656728665
 21
239.884763895
  0
LINE
  8
DEFAULT_2
 62
8
  6
HIDDEN
 10
308.9656728665
 20
240.0762032558
 11
309.2656728665
 21
240.0762032558
  0
LINE
  8
DEFAULT_2
 62
8
  6
HIDDEN
 10
308.9656728665
 20
240.0913714167
 11
309.2656728665
 21
240.0913714167
  0
LINE
  8
DEFAULT_2
 62
8
  6
HIDDEN
 10
308.9656728665
 20
240.0948107828
 11
309.2656728665
 21
240.0948107828
  0
LINE
  8
DEFAULT_2
 62
8
  6
HIDDEN
 10
308.9656728665
 20
240.1609804431
 11
309.2656728665
 21
240.1609804431
  0
LINE
  8
DEFAULT_2
 62
8
  6
HIDDEN
 10
308.9656728665
 20
240.325547713
 11
309.2656728665
 21
240.325547713
  0
LINE
  8
DEFAULT_2
 62
8
  6
HIDDEN
 10
308.9656728665
 20
240.4352884935
 11
309.2656728665
 21
240.4352884935
  0
LINE
  8
DEFAULT_2
 62
8
  6
HIDDEN
 10
308.9656728665
 20
240.5257601061
 11
309.2656728665
 21
240.5257601061
  0
LINE
  8
DEFAULT_2
 62
8
  6
HIDDEN
 10
308.9656728665
 20
240.5506080892
 11
309.2656728665
 21
240.5506080892
  0
LINE
  8
DEFAULT_2
 62
8
  6
HIDDEN
 10
308.9656728665
 20
240.5940229249
 11
309.2656728665
 21
240.5940229249
  0
LINE
  8
DEFAULT_2
 62
8
  6
HIDDEN
 10
308.9656728665
 20
240.5991381474
 11
309.2656728665
 21
240.5991381474
  0
LINE
  8
DEFAULT_2
 62
8
  6
HIDDEN
 10
308.9656728665
 20
240.6514792553
 11
309.2656728665
 21
240.6514792553
  0
LINE
  8
0
 62
7
  6
CONTINUOUS
 10
308.9656728665
 20
240.6750148471
 11
309.2656728665
 21
240.6750148471
  0
LINE
  8
DEFAULT_2
 62
8
  6
HIDDEN
 10
308.9656728665
 20
240.683915216
 11
309.2656728665
 21
240.683915216
  0
LINE
  8
DEFAULT_2
 62
8
  6
HIDDEN
 10
308.9656728665
 20
240.6917570362
 11
309.2656728665
 21
240.6917570362
  0
LINE
  8
DEFAULT_2
 62
8
  6
HIDDEN
 10
308.9656728665
 20
240.7717801431
 11
309.2656728665
 21
240.7717801431
  0
LINE
  8
DEFAULT_2
 62
8
  6
HIDDEN
 10
308.9656728665
 20
240.7949875662
 11
309.2656728665
 21
240.7949875662
  0
LINE
  8
DEFAULT_2
 62
8
  6
HIDDEN
 10
308.9656728665
 20
241.0627709148
 11
309.2656728665
 21
241.0627709148
  0
LINE
  8
DEFAULT_2
 62
8
  6
HIDDEN
 10
308.9656728665
 20
241.0651549839
 11
309.2656728665
 21
241.0651549839
  0
LINE
  8
DEFAULT_2
 62
8
  6
HIDDEN
 10
308.9656728665
 20
241.1456396617
 11
309.2656728665
 21
241.1456396617
  0
LINE
  8
DEFAULT_2
 62
8
  6
HIDDEN
 10
308.9656728665
 20
241.1884905205
 11
309.2656728665
 21
241.1884905205
  0
LINE
  8
DEFAULT_2
 62
8
  6
HIDDEN
 10
308.9656728665
 20
241.1927131634
 11
309.2656728665
 21
241.1927131634
  0
LINE
  8
DEFAULT_2
 62
8
  6
HIDDEN
 10
308.9656728665
 20
241.259397156
 11
309.2656728665
 21
241.259397156
  0
LINE
  8
DEFAULT_2
 62
8
  6
HIDDEN
 10
308.9656728665
 20
241.3791244097
 11
309.2656728665
 21
241.3791244097
  0
LINE
  8
0
 62
7
  6
CONTINUOUS
 10
308.9656728665
 20
241.4223947775
 11
309.2656728665
 21
241.4223947775
  0
LINE
  8
DEFAULT_2
 62
8
  6
HIDDEN
 10
308.9656728665
 20
241.4471347265
 11
309.2656728665
 21
241.4471347265
  0
LINE
  8
DEFAULT_2
 62
8
  6
HIDDEN
 10
308.9656728665
 20
241.4661768494
 11
309.2656728665
 21
241.4661768494
  0
LINE
  8
DEFAULT_2
 62
8
  6
HIDDEN
 10
308.9656728665
 20
241.5978868105
 11
309.2656728665
 21
241.5978868105
  0
LINE
  8
DEFAULT_2
 62
8
  6
HIDDEN
 10
308.9656728665
 20
241.6106512559
 11
309.2656728665
 21
241.6106512559
  0
LINE
  8
DEFAULT_2
 62
8
  6
HIDDEN
 10
308.9656728665
 20
241.6375537775
 11
309.2656728665
 21
241.6375537775
  0
LINE
  8
DEFAULT_2
 62
8
  6
HIDDEN
 10
308.9656728665
 20
241.6548161859
 11
309.2656728665
 21
241.6548161859
  0
LINE
  8
DEFAULT_2
 62
8
  6
HIDDEN
 10
308.9656728665
 20
241.6873745229
 11
309.2656728665
 21
241.6873745229
  0
LINE
  8
DEFAULT_2
 62
8
  6
HIDDEN
 10
308.9656728665
 20
241.7260432938
 11
309.2656728665
 21
241.7260432938
  0
LINE
  8
DEFAULT_2
 62
8
  6
HIDDEN
 10
308.9656728665
 20
241.8472198584
 11
309.2656728665
 21
241.8472198584
  0
LINE
  8
DEFAULT_2
 62
8
  6
HIDDEN
 10
308.9656728665
 20
241.8568834814
 11
309.2656728665
 21
241.8568834814
  0
LINE
  8
DEFAULT_2
 62
8
  6
HIDDEN
 10
308.9656728665
 20
241.8589766877
 11
309.2656728665
 21
241.8589766877
  0
LINE
  8
DEFAULT_2
 62
8
  6
HIDDEN
 10
308.9656728665
 20
241.9179597155
 11
309.2656728665
 21
241.9179597155
  0
LINE
  8
DEFAULT_2
 62
8
  6
HIDDEN
 10
308.9656728665
 20
241.941796086
 11
309.2656728665
 21
241.941796086
  0
LINE
  8
DEFAULT_2
 62
8
  6
HIDDEN
 10
308.9656728665
 20
241.9962712475
 11
309.2656728665
 21
241.9962712475
  0
LINE
  8
DEFAULT_2
 62
8
  6
HIDDEN
 10
308.9656728665
 20
241.9982988564
 11
309.2656728665
 21
241.9982988564
  0
LINE
  8
DEFAULT_2
 62
8
  6
HIDDEN
 10
308.9656728665
 20
242.0222602023
 11
309.2656728665
 21
242.0222602023
  0
LINE
  8
DEFAULT_2
 62
8
  6
HIDDEN
 10
308.9656728665
 20
242.0906904452
 11
309.2656728665
 21
242.0906904452
  0
LINE
  8
DEFAULT_2
 62
8
  6
HIDDEN
 10
299.96578507
 20
242.0965600505
 11
308.4655618917
 21
242.0965600505
  0
LINE
  8
DEFAULT_2
 62
8
  6
HIDDEN
 10
308.9656728665
 20
242.1067825771
 11
309.2656728665
 21
242.1067825771
  0
LINE
  8
DEFAULT_2
 62
8
  6
HIDDEN
 10
308.9656728665
 20
242.1254870486
 11
309.2656728665
 21
242.1254870486
  0
LINE
  8
DEFAULT_2
 62
8
  6
HIDDEN
 10
308.9656728665
 20
242.1801484345
 11
309.2656728665
 21
242.1801484345
  0
LINE
  8
DEFAULT_2
 62
8
  6
HIDDEN
 10
308.9656728665
 20
242.1992743696
 11
309.2656728665
 21
242.1992743696
  0
LINE
  8
DEFAULT_2
 62
8
  6
HIDDEN
 10
308.9656728665
 20
242.2617405275
 11
309.2656728665
 21
242.2617405275
  0
LINE
  8
0
 62
7
  6
CONTINUOUS
 10
308.9656728665
 20
242.2641799212
 11
309.2656728665
 21
242.2641799212
  0
LINE
  8
DEFAULT_2
 62
8
  6
HIDDEN
 10
308.9656728665
 20
242.3054769229
 11
309.2656728665
 21
242.3054769229
  0
LINE
  8
DEFAULT_2
 62
8
  6
HIDDEN
 10
308.9656728665
 20
242.4393951464
 11
309.2656728665
 21
242.4393951464
  0
LINE
  8
DEFAULT_2
 62
8
  6
HIDDEN
 10
308.9656728665
 20
242.4647881453
 11
309.2656728665
 21
242.4647881453
  0
LINE
  8
DEFAULT_2
 62
8
  6
HIDDEN
 10
308.9656728665
 20
242.5403301849
 11
309.2656728665
 21
242.5403301849
  0
LINE
  8
DEFAULT_2
 62
8
  6
HIDDEN
 10
308.9656728665
 20
242.5777822256
 11
309.2656728665
 21
242.5777822256
  0
LINE
  8
DEFAULT_2
 62
8
  6
HIDDEN
 10
308.9656728665
 20
242.6240994505
 11
309.2656728665
 21
242.6240994505
  0
LINE
  8
DEFAULT_2
 62
8
  6
HIDDEN
 10
308.9656728665
 20
242.6496668733
 11
309.2656728665
 21
242.6496668733
  0
LINE
  8
DEFAULT_2
 62
8
  6
HIDDEN
 10
308.9656728665
 20
242.7191072432
 11
309.2656728665
 21
242.7191072432
  0
LINE
  8
DEFAULT_2
 62
8
  6
HIDDEN
 10
308.9656728665
 20
242.7750119594
 11
309.2656728665
 21
242.7750119594
  0
LINE
  8
0
 62
7
  6
CONTINUOUS
 10
308.9656728665
 20
242.7794779766
 11
309.2656728665
 21
242.7794779766
  0
LINE
  8
DEFAULT_2
 62
8
  6
HIDDEN
 10
308.9656728665
 20
242.8321293415
 11
309.2656728665
 21
242.8321293415
  0
LINE
  8
DEFAULT_2
 62
8
  6
HIDDEN
 10
308.9656728665
 20
242.8353076188
 11
309.2656728665
 21
242.8353076188
  0
LINE
  8
DEFAULT_2
 62
8
  6
HIDDEN
 10
308.9656728665
 20
242.8518690999
 11
309.2656728665
 21
242.8518690999
  0
LINE
  8
DEFAULT_2
 62
8
  6
HIDDEN
 10
308.9656728665
 20
242.8744793763
 11
309.2656728665
 21
242.8744793763
  0
LINE
  8
DEFAULT_2
 62
8
  6
HIDDEN
 10
308.9656728665
 20
242.9169808572
 11
309.2656728665
 21
242.9169808572
  0
LINE
  8
DEFAULT_2
 62
8
  6
HIDDEN
 10
308.9656728665
 20
242.9438678376
 11
309.2656728665
 21
242.9438678376
  0
LINE
  8
DEFAULT_2
 62
8
  6
HIDDEN
 10
308.9656728665
 20
242.9666722008
 11
309.2656728665
 21
242.9666722008
  0
LINE
  8
DEFAULT_2
 62
8
  6
HIDDEN
 10
308.9656728665
 20
243.0744919543
 11
309.2656728665
 21
243.0744919543
  0
LINE
  8
DEFAULT_2
 62
8
  6
HIDDEN
 10
308.9656728665
 20
243.1430829434
 11
309.2656728665
 21
243.1430829434
  0
LINE
  8
0
 62
7
  6
CONTINUOUS
 10
308.9656728665
 20
243.1787356347
 11
309.2656728665
 21
243.1787356347
  0
LINE
  8
DEFAULT_2
 62
8
  6
HIDDEN
 10
308.9656728665
 20
243.3081265313
 11
309.2656728665
 21
243.3081265313
  0
LINE
  8
DEFAULT_2
 62
8
  6
HIDDEN
 10
308.9656728665
 20
243.3550933829
 11
309.2656728665
 21
243.3550933829
  0
LINE
  8
DEFAULT_2
 62
8
  6
HIDDEN
 10
308.9656728665
 20
243.3678844488
 11
309.2656728665
 21
243.3678844488
  0
LINE
  8
DEFAULT_2
 62
8
  6
HIDDEN
 10
308.9656728665
 20
243.3844459299
 11
309.2656728665
 21
243.3844459299
  0
LINE
  8
DEFAULT_2
 62
8
  6
HIDDEN
 10
308.9656728665
 20
243.4997867727
 11
309.2656728665
 21
243.4997867727
  0
LINE
  8
DEFAULT_2
 62
8
  6
HIDDEN
 10
308.9656728665
 20
243.538655164
 11
309.2656728665
 21
243.538655164
  0
LINE
  8
0
 62
7
  6
CONTINUOUS
 10
308.9656728665
 20
243.6035607156
 11
309.2656728665
 21
243.6035607156
  0
LINE
  8
DEFAULT_2
 62
8
  6
HIDDEN
 10
308.9656728665
 20
243.637789244
 11
309.2656728665
 21
243.637789244
  0
LINE
  8
0
 62
7
  6
CONTINUOUS
 10
308.9656728665
 20
243.6763312853
 11
309.2656728665
 21
243.6763312853
  0
LINE
  8
DEFAULT_2
 62
8
  6
HIDDEN
 10
308.9656728665
 20
243.7225663126
 11
309.2656728665
 21
243.7225663126
  0
LINE
  8
DEFAULT_2
 62
8
  6
HIDDEN
 10
308.9656728665
 20
243.8698168603
 11
309.2656728665
 21
243.8698168603
  0
LINE
  8
DEFAULT_2
 62
8
  6
HIDDEN
 10
308.9656728665
 20
243.8977877333
 11
309.2656728665
 21
243.8977877333
  0
LINE
  8
DEFAULT_2
 62
8
  6
HIDDEN
 10
308.9656728665
 20
244.053688989
 11
309.2656728665
 21
244.053688989
  0
LINE
  8
DEFAULT_2
 62
8
  6
HIDDEN
 10
308.9656728665
 20
244.0721855663
 11
309.2656728665
 21
244.0721855663
  0
LINE
  8
DEFAULT_2
 62
8
  6
HIDDEN
 10
308.9656728665
 20
244.0986093452
 11
309.2656728665
 21
244.0986093452
  0
LINE
  8
DEFAULT_2
 62
8
  6
HIDDEN
 10
308.9656728665
 20
244.1075469932
 11
309.2656728665
 21
244.1075469932
  0
LINE
  8
DEFAULT_2
 62
8
  6
HIDDEN
 10
308.9656728665
 20
244.1606750826
 11
309.2656728665
 21
244.1606750826
  0
LINE
  8
DEFAULT_2
 62
8
  6
HIDDEN
 10
308.9656728665
 20
244.2455010855
 11
309.2656728665
 21
244.2455010855
  0
LINE
  8
DEFAULT_2
 62
8
  6
HIDDEN
 10
308.9656728665
 20
244.3411039159
 11
309.2656728665
 21
244.3411039159
  0
LINE
  8
DEFAULT_2
 62
8
  6
HIDDEN
 10
308.9656728665
 20
244.5249760446
 11
309.2656728665
 21
244.5249760446
  0
LINE
  8
DEFAULT_2
 62
8
  6
HIDDEN
 10
308.9656728665
 20
244.5344115814
 11
309.2656728665
 21
244.5344115814
  0
LINE
  8
DEFAULT_2
 62
8
  6
HIDDEN
 10
308.9656728665
 20
244.5846997171
 11
309.2656728665
 21
244.5846997171
  0
LINE
  8
DEFAULT_2
 62
8
  6
HIDDEN
 10
308.9656728665
 20
244.6144340339
 11
309.2656728665
 21
244.6144340339
  0
LINE
  8
DEFAULT_2
 62
8
  6
HIDDEN
 10
308.9656728665
 20
244.6898086172
 11
309.2656728665
 21
244.6898086172
  0
LINE
  8
DEFAULT_2
 62
8
  6
HIDDEN
 10
308.9656728665
 20
244.70113099
 11
309.2656728665
 21
244.70113099
  0
LINE
  8
DEFAULT_2
 62
8
  6
HIDDEN
 10
308.9656728665
 20
244.7074775825
 11
309.2656728665
 21
244.7074775825
  0
LINE
  8
0
 62
7
  6
CONTINUOUS
 10
308.9656728665
 20
244.7602281024
 11
309.2656728665
 21
244.7602281024
  0
LINE
  8
DEFAULT_2
 62
8
  6
HIDDEN
 10
308.9656728665
 20
244.7675994241
 11
309.2656728665
 21
244.7675994241
  0
LINE
  8
DEFAULT_2
 62
8
  6
HIDDEN
 10
308.9656728665
 20
244.8391217553
 11
309.2656728665
 21
244.8391217553
  0
LINE
  8
DEFAULT_2
 62
8
  6
HIDDEN
 10
308.9656728665
 20
245.0176752223
 11
309.2656728665
 21
245.0176752223
  0
LINE
  8
DEFAULT_2
 62
8
  6
HIDDEN
 10
308.9656728665
 20
245.0279048427
 11
309.2656728665
 21
245.0279048427
  0
LINE
  8
DEFAULT_2
 62
8
  6
HIDDEN
 10
308.9656728665
 20
245.0439697088
 11
309.2656728665
 21
245.0439697088
  0
LINE
  8
DEFAULT_2
 62
8
  6
HIDDEN
 10
308.9656728665
 20
245.0793613142
 11
309.2656728665
 21
245.0793613142
  0
LINE
  8
DEFAULT_2
 62
8
  6
HIDDEN
 10
308.9656728665
 20
245.1022825707
 11
309.2656728665
 21
245.1022825707
  0
LINE
  8
DEFAULT_2
 62
8
  6
HIDDEN
 10
308.9656728665
 20
245.2488702727
 11
309.2656728665
 21
245.2488702727
  0
LINE
  8
DEFAULT_2
 62
8
  6
HIDDEN
 10
308.9656728665
 20
245.3337828772
 11
309.2656728665
 21
245.3337828772
  0
LINE
  8
DEFAULT_2
 62
8
  6
HIDDEN
 10
308.9656728665
 20
245.3902856476
 11
309.2656728665
 21
245.3902856476
  0
LINE
  8
DEFAULT_2
 62
8
  6
HIDDEN
 10
308.9656728665
 20
245.4816328605
 11
309.2656728665
 21
245.4816328605
  0
LINE
  8
0
 62
7
  6
CONTINUOUS
 10
308.9656728665
 20
245.495716968
 11
309.2656728665
 21
245.495716968
  0
LINE
  8
DEFAULT_2
 62
8
  6
HIDDEN
 10
308.9656728665
 20
245.5174738398
 11
309.2656728665
 21
245.5174738398
  0
LINE
  8
DEFAULT_2
 62
8
  6
HIDDEN
 10
308.9656728665
 20
245.7945458084
 11
309.2656728665
 21
245.7945458084
  0
LINE
  8
DEFAULT_2
 62
8
  6
HIDDEN
 10
308.9656728665
 20
245.9697690168
 11
309.2656728665
 21
245.9697690168
  0
LINE
  8
DEFAULT_2
 62
8
  6
HIDDEN
 10
308.9656728665
 20
246.1504649863
 11
309.2656728665
 21
246.1504649863
  0
LINE
  8
0
 62
7
  6
CONTINUOUS
 10
308.9656728665
 20
246.1816439203
 11
309.2656728665
 21
246.1816439203
  0
LINE
  8
DEFAULT_2
 62
8
  6
HIDDEN
 10
308.9656728665
 20
246.2712808966
 11
309.2656728665
 21
246.2712808966
  0
LINE
  8
DEFAULT_2
 62
8
  6
HIDDEN
 10
308.9656728665
 20
246.4220186915
 11
309.2656728665
 21
246.4220186915
  0
LINE
  8
0
 62
7
  6
CONTINUOUS
 10
308.9656728665
 20
246.5209329092
 11
309.2656728665
 21
246.5209329092
  0
LINE
  8
DEFAULT_2
 62
8
  6
HIDDEN
 10
308.9656728665
 20
246.6740005973
 11
309.2656728665
 21
246.6740005973
  0
LINE
  8
0
 62
7
  6
CONTINUOUS
 10
308.9656728665
 20
246.7948165076
 11
309.2656728665
 21
246.7948165076
  0
LINE
  8
DEFAULT_2
 62
8
  6
HIDDEN
 10
308.4656728665
 20
250.5373028463
 11
299.9656728665
 21
250.5373028463
  0
LINE
  8
0
 62
7
  6
CONTINUOUS
 10
300.3421825834
 20
256.8098207368
 11
308.0891631496
 21
256.8098207368
  0
LINE
  8
0
 62
7
  6
CONTINUOUS
 10
300.3421825834
 20
261.6615211762
 11
308.0891631496
 21
261.6615211762
  0
LINE
  8
0
 62
7
  6
CONTINUOUS
 10
308.1317412011
 20
261.6597049872
 11
308.0891631496
 21
261.6615211761
  0
ARC
  8
0
 62
7
  6
CONTINUOUS
 10
66.0581250071
 20
90.3623028463
 40
180.0
 50
18.508015808
 51
21.6186036948
  0
ARC
  8
0
 62
7
  6
CONTINUOUS
 10
69.1717420829
 20
93.8473028463
 40
8.5
 50
330.0
 51
30.0
  0
ARC
  8
0
 62
7
  6
CONTINUOUS
 10
85.613178903
 20
86.3880456422
 40
1.0
 50
261.6186036948
 51
313.53
  0
ARC
  8
0
 62
7
  6
CONTINUOUS
 10
75.9426070358
 20
87.5747849559
 40
0.5
 50
150.0
 51
258.508015808
  0
ARC
  8
0
 62
7
  6
CONTINUOUS
 10
46.2875149323
 20
129.2355103035
 40
0.5
 50
120.0
 51
228.508015808
  0
ARC
  8
0
 62
7
  6
CONTINUOUS
 10
39.1210613374
 20
136.5918126245
 40
180.0
 50
348.508015808
 51
351.6186036948
  0
ARC
  8
0
 62
7
  6
CONTINUOUS
 10
43.5600328228
 20
138.0531026187
 40
8.5
 50
300.0
 51
360.0
  0
ARC
  8
0
 62
7
  6
CONTINUOUS
 10
54.0691061816
 20
123.3724779766
 40
1.0
 50
231.6186036948
 51
283.53
  0
ARC
  8
0
 62
7
  6
CONTINUOUS
 10
61.2553451994
 20
123.5589044615
 40
0.5
 50
30.0
 51
103.53
  0
ARC
  8
0
 62
7
  6
CONTINUOUS
 10
112.5010613374
 20
63.7949048088
 40
180.0
 50
48.508015808
 51
51.6186036948
  0
ARC
  8
0
 62
7
  6
CONTINUOUS
 10
91.7434312076
 20
90.142615223
 40
0.5
 50
60.0
 51
133.53
  0
ARC
  8
0
 62
7
  6
CONTINUOUS
 10
113.4550328228
 20
68.3698118789
 40
8.5
 50
0.0
 51
60.0
  0
ARC
  8
0
 62
7
  6
CONTINUOUS
 10
122.4550328228
 20
66.3230845165
 40
0.5
 50
180.0
 51
288.508015808
  0
ARC
  8
0
 62
7
  6
CONTINUOUS
 10
131.4233633857
 20
70.1306240568
 40
1.0
 50
291.6186036948
 51
343.53
  0
ARC
  8
0
 62
7
  6
CONTINUOUS
 10
134.8550328228
 20
76.4473028463
 40
0.5
 50
90.0
 51
163.53
  0
ARC
  8
DEFAULT_1
 62
2
  6
CENTER
 10
132.4599864405
 20
137.3275945815
 40
3.2
 50
2.2544307753
 51
45.0
  0
ARC
  8
DEFAULT_1
 62
2
  6
CENTER
 10
128.9244525346
 20
140.8631284875
 40
3.2
 50
45.0
 51
86.4096221093
  0
ARC
  8
DEFAULT_1
 62
2
  6
CENTER
 10
129.3252391748
 20
147.2505669466
 40
3.2
 50
225.0
 51
266.4096221093
  0
ARC
  8
DEFAULT_1
 62
2
  6
CENTER
 10
122.363296923
 20
154.2125091984
 40
3.2
 50
183.5903778907
 51
225.0
  0
ARC
  8
DEFAULT_1
 62
2
  6
CENTER
 10
115.9758584639
 20
153.8117225581
 40
3.2
 50
3.5903778907
 51
45.0
  0
ARC
  8
DEFAULT_1
 62
2
  6
CENTER
 10
112.440324558
 20
157.3472564641
 40
3.2
 50
45.0
 51
87.7455692247
  0
ARC
  8
0
 62
7
  6
CONTINUOUS
 10
45.2433540332
 20
171.1739722834
 40
1.0
 50
201.6186036948
 51
253.53
  0
ARC
  8
0
 62
7
  6
CONTINUOUS
 10
43.4825418553
 20
189.1423028463
 40
8.5
 50
270.0
 51
330.0
  0
ARC
  8
0
 62
7
  6
CONTINUOUS
 10
41.4358144929
 20
180.1423028463
 40
0.5
 50
90.0
 51
198.508015808
  0
ARC
  8
0
 62
7
  6
CONTINUOUS
 10
51.5600328228
 20
167.7423028463
 40
0.5
 50
0.0
 51
73.53
  0
ARC
  8
0
 62
7
  6
CONTINUOUS
 10
38.9076347852
 20
190.0962743317
 40
180.0
 50
318.508015808
 51
321.6186036948
  0
ARC
  8
0
 62
7
  6
CONTINUOUS
 10
65.2553451994
 20
210.8539044615
 40
0.5
 50
330.0
 51
43.53
  0
ARC
  8
0
 62
7
  6
CONTINUOUS
 10
61.5007756186
 20
216.9841567661
 40
1.0
 50
171.6186036948
 51
223.53
  0
ARC
  8
0
 62
7
  6
CONTINUOUS
 10
62.6875149323
 20
226.6547286333
 40
0.5
 50
60.0
 51
168.508015808
  0
ARC
  8
0
 62
7
  6
CONTINUOUS
 10
65.4750328228
 20
236.539210662
 40
180.0
 50
288.508015808
 51
291.6186036948
  0
ARC
  8
0
 62
7
  6
CONTINUOUS
 10
68.9600328228
 20
233.4255935862
 40
8.5
 50
240.0
 51
300.0
  0
ARC
  8
DEFAULT_1
 62
2
  6
CENTER
 10
112.6920819189
 20
163.7423028463
 40
3.2
 50
92.2544307753
 51
267.7455692247
  0
ARC
  8
DEFAULT_1
 62
2
  6
CENTER
 10
112.440324558
 20
170.1373492286
 40
3.2
 50
272.2544307753
 51
315.0
  0
ARC
  8
DEFAULT_1
 62
2
  6
CENTER
 10
115.9758584639
 20
173.6728831345
 40
3.2
 50
315.0
 51
356.4096221093
  0
ARC
  8
DEFAULT_1
 62
2
  6
CENTER
 10
122.363296923
 20
173.2720964942
 40
3.2
 50
135.0
 51
176.4096221093
  0
ARC
  8
DEFAULT_1
 62
2
  6
CENTER
 10
129.3252391748
 20
180.2340387461
 40
3.2
 50
93.5903778907
 51
135.0
  0
ARC
  8
DEFAULT_1
 62
2
  6
CENTER
 10
128.9244525346
 20
186.6214772052
 40
3.2
 50
273.5903778907
 51
315.0
  0
ARC
  8
DEFAULT_1
 62
2
  6
CENTER
 10
132.4599864405
 20
190.1570111111
 40
3.2
 50
315.0
 51
357.7455692247
  0
ARC
  8
0
 62
7
  6
CONTINUOUS
 10
98.485207953
 20
248.5282294875
 40
1.0
 50
141.6186036948
 51
193.53
  0
ARC
  8
0
 62
7
  6
CONTINUOUS
 10
98.6716344379
 20
241.3419904697
 40
0.5
 50
300.0
 51
13.53
  0
ARC
  8
0
 62
7
  6
CONTINUOUS
 10
104.3482402799
 20
256.3098207368
 40
0.5
 50
30.0
 51
138.508015808
  0
ARC
  8
0
 62
7
  6
CONTINUOUS
 10
111.7045426009
 20
263.4762743317
 40
180.0
 50
258.508015808
 51
261.6186036948
  0
ARC
  8
0
 62
7
  6
CONTINUOUS
 10
113.1658325952
 20
259.0373028463
 40
8.5
 50
210.0
 51
270.0
  0
ARC
  8
0
 62
7
  6
CONTINUOUS
 10
166.0055230446
 20
64.008331361
 40
180.0
 50
78.508015808
 51
81.6186036948
  0
ARC
  8
0
 62
7
  6
CONTINUOUS
 10
164.5442330503
 20
68.4473028463
 40
8.5
 50
30.0
 51
90.0
  0
ARC
  8
0
 62
7
  6
CONTINUOUS
 10
173.3618253656
 20
71.1747849559
 40
0.5
 50
210.0
 51
318.508015808
  0
ARC
  8
0
 62
7
  6
CONTINUOUS
 10
179.2248576925
 20
78.9563762052
 40
1.0
 50
321.6186036948
 51
13.53
  0
ARC
  8
0
 62
7
  6
CONTINUOUS
 10
179.0384312076
 20
86.142615223
 40
0.5
 50
120.0
 51
193.53
  0
ARC
  8
DEFAULT_1
 62
2
  6
CENTER
 10
165.2697410876
 20
157.3472564641
 40
3.2
 50
92.2544307753
 51
135.0
  0
ARC
  8
DEFAULT_1
 62
2
  6
CENTER
 10
161.7342071816
 20
153.8117225581
 40
3.2
 50
135.0
 51
176.4096221093
  0
ARC
  8
DEFAULT_1
 62
2
  6
CENTER
 10
155.3467687225
 20
154.2125091984
 40
3.2
 50
315.0
 51
356.4096221093
  0
ARC
  8
DEFAULT_1
 62
2
  6
CENTER
 10
148.3848264707
 20
147.2505669466
 40
3.2
 50
273.5903778907
 51
315.0
  0
ARC
  8
DEFAULT_1
 62
2
  6
CENTER
 10
148.7856131109
 20
140.8631284875
 40
3.2
 50
93.5903778907
 51
135.0
  0
ARC
  8
DEFAULT_1
 62
2
  6
CENTER
 10
145.250079205
 20
137.3275945815
 40
3.2
 50
135.0
 51
177.7455692247
  0
ARC
  8
DEFAULT_1
 62
2
  6
CENTER
 10
138.8550328228
 20
137.5793519424
 40
3.2
 50
182.2544307753
 51
357.7455692247
  0
ARC
  8
0
 62
7
  6
CONTINUOUS
 10
212.2350328228
 20
90.9453950306
 40
180.0
 50
108.508015808
 51
111.6186036948
  0
ARC
  8
0
 62
7
  6
CONTINUOUS
 10
208.7500328228
 20
94.0590121065
 40
8.5
 50
60.0
 51
120.0
  0
ARC
  8
0
 62
7
  6
CONTINUOUS
 10
216.2092900269
 20
110.5004489266
 40
1.0
 50
351.6186036948
 51
43.53
  0
ARC
  8
0
 62
7
  6
CONTINUOUS
 10
215.0225507132
 20
100.8298770593
 40
0.5
 50
240.0
 51
348.508015808
  0
ARC
  8
0
 62
7
  6
CONTINUOUS
 10
212.4547204461
 20
116.6307012312
 40
0.5
 50
150.0
 51
223.53
  0
ARC
  8
0
 62
7
  6
CONTINUOUS
 10
238.8024308603
 20
137.388331361
 40
180.0
 50
138.508015808
 51
141.6186036948
  0
ARC
  8
0
 62
7
  6
CONTINUOUS
 10
234.2275237902
 20
138.3423028463
 40
8.5
 50
90.0
 51
150.0
  0
ARC
  8
0
 62
7
  6
CONTINUOUS
 10
232.4667116123
 20
156.3106334093
 40
1.0
 50
21.6186036948
 51
73.53
  0
ARC
  8
0
 62
7
  6
CONTINUOUS
 10
226.1500328228
 20
159.7423028463
 40
0.5
 50
180.0
 51
253.53
  0
ARC
  8
0
 62
7
  6
CONTINUOUS
 10
236.2742511526
 20
147.3423028463
 40
0.5
 50
270.0
 51
18.508015808
  0
CIRCLE
  8
1_AXIS
 62
7
  6
CONTINUOUS
 10
138.8550328228
 20
163.7423028463
 40
32.5
  0
ARC
  8
DEFAULT_1
 62
2
  6
CENTER
 10
138.8550328228
 20
163.7423028463
 40
9.525
 50
108.3584370753
 51
251.6415629247
  0
ARC
  8
DEFAULT_1
 62
2
  6
CENTER
 10
138.8550328228
 20
163.7423028463
 40
9.525
 50
288.3584370753
 51
71.6415629247
  0
ARC
  8
DEFAULT_1
 62
2
  6
CENTER
 10
165.2697410876
 20
170.1373492286
 40
3.2
 50
225.0
 51
267.7455692247
  0
ARC
  8
DEFAULT_1
 62
2
  6
CENTER
 10
165.0179837267
 20
163.7423028463
 40
3.2
 50
272.2544307753
 51
87.7455692247
  0
ARC
  8
DEFAULT_1
 62
2
  6
CENTER
 10
138.8550328228
 20
189.9052537502
 40
3.2
 50
2.2544307753
 51
177.7455692247
  0
ARC
  8
DEFAULT_1
 62
2
  6
CENTER
 10
145.250079205
 20
190.1570111111
 40
3.2
 50
182.2544307753
 51
225.0
  0
ARC
  8
DEFAULT_1
 62
2
  6
CENTER
 10
148.7856131109
 20
186.6214772052
 40
3.2
 50
225.0
 51
266.4096221093
  0
ARC
  8
DEFAULT_1
 62
2
  6
CENTER
 10
148.3848264707
 20
180.2340387461
 40
3.2
 50
45.0
 51
86.4096221093
  0
ARC
  8
DEFAULT_1
 62
2
  6
CENTER
 10
155.3467687225
 20
173.2720964942
 40
3.2
 50
3.5903778907
 51
45.0
  0
ARC
  8
DEFAULT_1
 62
2
  6
CENTER
 10
161.7342071816
 20
173.6728831345
 40
3.2
 50
183.5903778907
 51
225.0
  0
CIRCLE
  8
0
 62
7
  6
CONTINUOUS
 10
138.8550328228
 20
238.7423028463
 40
1.7320508076
  0
ARC
  8
0
 62
7
  6
CONTINUOUS
 10
146.2867022598
 20
257.3539816359
 40
1.0
 50
111.6186036948
 51
163.53
  0
ARC
  8
0
 62
7
  6
CONTINUOUS
 10
142.8550328228
 20
251.0373028463
 40
0.5
 50
270.0
 51
343.53
  0
ARC
  8
0
 62
7
  6
CONTINUOUS
 10
155.2550328228
 20
261.1615211762
 40
0.5
 50
0.0
 51
108.508015808
  0
ARC
  8
0
 62
7
  6
CONTINUOUS
 10
185.9666344379
 20
237.3419904697
 40
0.5
 50
240.0
 51
313.53
  0
ARC
  8
0
 62
7
  6
CONTINUOUS
 10
165.2090043081
 20
263.6897008839
 40
180.0
 50
228.508015808
 51
231.6186036948
  0
ARC
  8
0
 62
7
  6
CONTINUOUS
 10
164.2550328228
 20
259.1147938138
 40
8.5
 50
180.0
 51
240.0
  0
ARC
  8
0
 62
7
  6
CONTINUOUS
 10
223.6409594639
 20
204.1121277161
 40
1.0
 50
51.6186036948
 51
103.53
  0
ARC
  8
0
 62
7
  6
CONTINUOUS
 10
216.4547204461
 20
203.9257012312
 40
0.5
 50
210.0
 51
283.53
  0
ARC
  8
0
 62
7
  6
CONTINUOUS
 10
238.5890043081
 20
190.8927930682
 40
180.0
 50
168.508015808
 51
171.6186036948
  0
ARC
  8
0
 62
7
  6
CONTINUOUS
 10
234.1500328228
 20
189.4315030739
 40
8.5
 50
120.0
 51
180.0
  0
ARC
  8
0
 62
7
  6
CONTINUOUS
 10
231.4225507132
 20
198.2490953892
 40
0.5
 50
300.0
 51
48.508015808
  0
ARC
  8
0
 62
7
  6
CONTINUOUS
 10
192.0968867425
 20
241.0965600505
 40
1.0
 50
81.6186036948
 51
133.53
  0
ARC
  8
0
 62
7
  6
CONTINUOUS
 10
201.7674586097
 20
239.9098207368
 40
0.5
 50
330.0
 51
78.508015808
  0
ARC
  8
0
 62
7
  6
CONTINUOUS
 10
211.6519406385
 20
237.1223028463
 40
180.0
 50
198.508015808
 51
201.6186036948
  0
ARC
  8
0
 62
7
  6
CONTINUOUS
 10
208.5383235626
 20
233.6373028463
 40
8.5
 50
150.0
 51
210.0
  0
ARC
  8
1_AXIS
 62
7
  6
CONTINUOUS
 10
296.9656728665
 20
128.7423028463
 40
2.5
 50
0.0
 51
90.0
  0
ARC
  8
1_AXIS
 62
7
  6
CONTINUOUS
 10
285.0656728665
 20
133.2423028463
 40
2.0
 50
180.0
 51
270.0
  0
ARC
  8
DEFAULT_2
 62
8
  6
HIDDEN
 10
299.9656728665
 20
91.142615223
 40
0.5
 50
180.0002643013
 51
270.0
  0
ARC
  8
DEFAULT_2
 62
8
  6
HIDDEN
 10
299.9656728665
 20
124.5589044615
 40
0.5
 50
180.0001681944
 51
270.0
  0
ARC
  8
DEFAULT_2
 62
8
  6
HIDDEN
 10
299.9656728665
 20
103.0590121065
 40
0.5
 50
180.0000087358
 51
270.0
  0
ARC
  8
DEFAULT_2
 62
8
  6
HIDDEN
 10
299.9656728665
 20
77.4473028463
 40
0.5
 50
180.0
 51
270.0
  0
ARC
  8
0
 62
7
  6
CONTINUOUS
 10
299.9656728665
 20
122.8724779766
 40
0.5
 50
179.9999365816
 51
270.0
  0
ARC
  8
1_AXIS
 62
7
  6
CONTINUOUS
 10
296.9656728665
 20
198.7423028463
 40
2.5
 50
270.0
 51
360.0
  0
ARC
  8
1_AXIS
 62
7
  6
CONTINUOUS
 10
285.0656728665
 20
194.2423028463
 40
2.0
 50
90.0
 51
180.0
  0
ARC
  8
DEFAULT_2
 62
8
  6
HIDDEN
 10
299.9656728665
 20
224.4255935862
 40
0.5
 50
90.0
 51
179.9999912642
  0
ARC
  8
DEFAULT_2
 62
8
  6
HIDDEN
 10
299.9656728665
 20
236.3419904697
 40
0.5
 50
90.0
 51
179.9997356987
  0
ARC
  8
DEFAULT_2
 62
8
  6
HIDDEN
 10
299.9656728665
 20
202.9257012312
 40
0.5
 50
90.0
 51
179.9998318056
  0
ARC
  8
DEFAULT_2
 62
8
  6
HIDDEN
 10
299.9656728665
 20
204.6121277161
 40
0.5
 50
90.0
 51
180.0000634184
  0
ARC
  8
DEFAULT_2
 62
8
  6
HIDDEN
 10
299.9656728665
 20
250.0373028463
 40
0.5
 50
90.0
 51
180.0
  0
ARC
  8
1_AXIS
 62
7
  6
CONTINUOUS
 10
311.4656728665
 20
128.7423028463
 40
2.5
 50
90.0
 51
180.0
  0
ARC
  8
1_AXIS
 62
7
  6
CONTINUOUS
 10
323.3656728665
 20
133.2423028463
 40
2.0
 50
270.0
 51
360.0
  0
ARC
  8
DEFAULT_2
 62
8
  6
HIDDEN
 10
308.4656728665
 20
124.5589044615
 40
0.5
 50
270.0
 51
359.9998317137
  0
ARC
  8
DEFAULT_2
 62
8
  6
HIDDEN
 10
308.4656728665
 20
91.142615223
 40
0.5
 50
270.0
 51
359.9997357896
  0
ARC
  8
DEFAULT_2
 62
8
  6
HIDDEN
 10
308.4656728665
 20
103.0590121065
 40
0.5
 50
270.0
 51
359.9999912653
  0
ARC
  8
DEFAULT_2
 62
8
  6
HIDDEN
 10
308.4656728665
 20
77.4473028463
 40
0.5
 50
270.0
 51
359.9999999999
  0
ARC
  8
0
 62
7
  6
CONTINUOUS
 10
308.4656728665
 20
122.8724779766
 40
0.5
 50
270.0
 51
0.0000634185
  0
ARC
  8
1_AXIS
 62
7
  6
CONTINUOUS
 10
311.4656728665
 20
198.7423028463
 40
2.5
 50
180.0
 51
270.0
  0
ARC
  8
1_AXIS
 62
7
  6
CONTINUOUS
 10
323.3656728665
 20
194.2423028463
 40
2.0
 50
0.0
 51
90.0
  0
ARC
  8
DEFAULT_2
 62
8
  6
HIDDEN
 10
308.4656728665
 20
202.9257012312
 40
0.5
 50
0.0001682863
 51
90.0
  0
ARC
  8
DEFAULT_2
 62
8
  6
HIDDEN
 10
308.4656728665
 20
236.3419904697
 40
0.5
 50
0.0002642104
 51
90.0
  0
ARC
  8
DEFAULT_2
 62
8
  6
HIDDEN
 10
308.4656728665
 20
224.4255935862
 40
0.5
 50
0.0000087346
 51
90.0
  0
ARC
  8
DEFAULT_2
 62
8
  6
HIDDEN
 10
308.4656728665
 20
204.6121277161
 40
0.5
 50
359.9999365815
 51
90.0
  0
ARC
  8
DEFAULT_2
 62
8
  6
HIDDEN
 10
308.4656728665
 20
250.0373028463
 40
0.5
 50
0.0000000001
 51
90.0
  0
ENDSEC
  0
EOF
