  0
SECTION
  2
HEADER
  9
$EXTMAX
 10
420.0
 20
297.0
 30
0.0
  9
$EXTMIN
 10
0.0
 20
0.0
 30
0.0
  9
$LIMMIN
 10
0.0
 20
0.0
  9
$LIMMAX
 10
420.0
 20
297.0
  9
$VIEWCTR
 10
210.0
 20
148.5
  9
$VIEWSIZE
 40
297.0
  9
$CLAYER
  8
0
  9
$LTSCALE
 40
23.1
  9
$CELTYPE
  6
BYLAYER
  9
$DIMSCALE
 40
1.0
  9
$DIMASZ
 40
3.5
  9
$DIMEXO
 40
2.625
  9
$DIMDLI
 40
15.96
  9
$DIMEXE
 40
7.56
  9
$DIMCEN
 40
3.78
  9
$DIMLFAC
 40
1.0
  9
$DIMBLK
  1
_FILLED
  9
$DIMTXT
 40
3.5
  9
$PDMODE
 70
3
  9
$PDSIZE
 40
0.3125
  9
$TILEMODE
 70
1
  0
ENDSEC
  0
SECTION
  2
TABLES
  0
TABLE
  2
LTYPE
 70
6
  0
LTYPE
  2
BYBLOCK
 70
0
  3

 72
65
 73
0
 40
0.0
  0
LTYPE
  2
BYLAYER
 70
0
  3

 72
65
 73
0
 40
0.0
  0
LTYPE
  2
CONTINUOUS
 70
64
  3
Solid line
 72
65
 73
0
 40
0.0
  0
LTYPE
  2
CENTER
 70
64
  3
____ _ ____ _ ____ _ ____ _ ____ _ ____ _ ____
 72
65
 73
4
 40
0.6
 49
0.375
 49
-0.075
 49
0.075
 49
-0.075
  0
LTYPE
  2
HIDDEN
 70
64
  3
- - - - - - - - - - - - - - - - - - - -
 72
65
 73
2
 40
0.2
 49
0.1
 49
-0.1
  0
LTYPE
  2
PHANTOM
 70
64
  3
_____ _ _ _____ _ _ _____ _ _ _____
 72
65
 73
6
 40
0.8
 49
0.45
 49
-0.05
 49
0.1
 49
-0.05
 49
0.1
 49
-0.05
  0
LTYPE
  2
DOT
 70
64
  3
. . . . . . . . . . . . . . . . . . . .
 72
65
 73
2
 40
0.2
 49
0.1
 49
-0.1
  0
LTYPE
  2
DASHED
 70
64
  3
- - - - - - - - - - - - - - - - - - - -
 72
65
 73
2
 40
0.2
 49
0.1
 49
-0.1
  0
ENDTAB
  0
TABLE
  2
LAYER
 70
36
  0
LAYER
  2
0
 70
0
 62
7
  6
CONTINUOUS
  0
LAYER
  2
DEFAULT_1
 70
0
 62
7
  6
CENTER
  0
LAYER
  2
DEFAULT_2
 70
0
 62
8
  6
HIDDEN
  0
LAYER
  2
DEFAULT_3
 70
0
 62
7
  6
PHANTOM
  0
LAYER
  2
1_AXIS
 70
0
 62
7
  6
CONTINUOUS
  0
LAYER
  2
1_DATUM_PLANE
 70
0
 62
7
  6
CONTINUOUS
  0
LAYER
  2
2_FEATURE
 70
0
 62
7
  6
CONTINUOUS
  0
LAYER
  2
4_QUILT
 70
0
 62
7
  6
CONTINUOUS
  0
LAYER
  2
6_DIM
 70
0
 62
7
  6
CONTINUOUS
  0
LAYER
  2
AXES
 70
0
 62
7
  6
CONTINUOUS
  0
LAYER
  2
COM_SKETCH
 70
0
 62
7
  6
CONTINUOUS
  0
LAYER
  2
CSYS
 70
0
 62
7
  6
CONTINUOUS
  0
LAYER
  2
PLANES
 70
0
 62
7
  6
CONTINUOUS
  0
LAYER
  2
QUILTS
 70
0
 62
7
  6
CONTINUOUS
  0
ENDTAB
  0
TABLE
  2
STYLE
 70
1
  0
STYLE
  2
STANDARD
 70
0
 40
0.0
 41
0.8
 50
0.0
 71
0
 42
0.2
  3
txt
  4

  0
STYLE
  2
TEXTSTYLE_1
 70
0
 40
0.0
 41
0.8
 50
0.0
 71
0
 42
0.2
  3
gdt
  4

  0
STYLE
  2
TEXTSTYLE_2
 70
0
 40
0.0
 41
0.6
 50
0.0
 71
0
 42
0.2
  3
txt
  4

  0
STYLE
  2
TEXTSTYLE_3
 70
0
 40
0.0
 41
1.0
 50
0.0
 71
0
 42
0.2
  3
ftb_____.ttf
  4

  0
STYLE
  2
TEXTSTYLE_4
 70
0
 40
0.0
 41
1.0
 50
0.0
 71
0
 42
0.2
  3
fti_____.ttf
  4

  0
STYLE
  2
TEXTSTYLE_5
 70
0
 40
0.0
 41
1.0
 50
0.0
 71
0
 42
0.2
  3
frutiger light.ttf
  4

  0
STYLE
  2
TEXTSTYLE_6
 70
0
 40
0.0
 41
0.7
 50
0.0
 71
0
 42
0.2
  3
txt
  4

  0
STYLE
  2
TEXTSTYLE_7
 70
0
 40
0.0
 41
0.8
 50
0.0
 71
0
 42
0.2
  3
txt
  4

  0
ENDTAB
  0
ENDSEC
  0
SECTION
  2
BLOCKS
  0
BLOCK
  8
0
 62
2
  6
CONTINUOUS
  2
SYMBOL_5_BL1
 70
64
 10
382.7840918555
 20
35.5067593403
  0
TEXT
  8
0
 62
7
  6
CONTINUOUS
 10
373.842376864
 20
30.5995157174
  7
TEXTSTYLE_4
 40
1.0655737705
  1
The brand for plastic modular belts and chains
 41
1.0
 72
0
  0
LINE
  8
0
 62
7
  6
CONTINUOUS
 10
358.7621602445
 20
36.0805298321
 11
358.7621602445
 21
33.9493822911
  0
LINE
  8
0
 62
7
  6
CONTINUOUS
 10
359.0512227376
 20
30.9584509954
 11
359.0512227376
 21
31.0552420547
  0
LINE
  8
0
 62
7
  6
CONTINUOUS
 10
358.7621602445
 20
31.0229783683
 11
358.8199727462
 21
30.8293962497
  0
LINE
  8
0
 62
7
  6
CONTINUOUS
 10
360.1556028675
 20
33.867415078
 11
360.1556028675
 21
36.0805298321
  0
LINE
  8
0
 62
7
  6
CONTINUOUS
 10
361.0746601894
 20
32.0231527829
 11
361.0746601894
 21
30.5067593403
  0
LINE
  8
0
 62
7
  6
CONTINUOUS
 10
361.3637227445
 20
30.5067593403
 11
361.3637227445
 21
31.2488242184
  0
LINE
  8
0
 62
7
  6
CONTINUOUS
 10
361.3637227445
 20
31.3778789641
 11
361.3637227445
 21
32.0231527829
  0
LINE
  8
0
 62
7
  6
CONTINUOUS
 10
358.8199727462
 20
31.216560532
 11
358.7621602445
 21
31.0229783683
  0
LINE
  8
0
 62
7
  6
CONTINUOUS
 10
359.1668477307
 20
30.7971325633
 11
359.0512227376
 21
30.9584509954
  0
LINE
  8
0
 62
7
  6
CONTINUOUS
 10
360.2652852997
 20
31.3133515913
 11
360.3230977445
 21
31.216560532
  0
LINE
  8
0
 62
7
  6
CONTINUOUS
 10
360.6121602997
 20
31.216560532
 11
360.5543476894
 21
31.3456152777
  0
LINE
  8
0
 62
7
  6
CONTINUOUS
 10
362.0408487691
 20
36.0805298321
 11
362.0408487691
 21
34.2772511436
  0
LINE
  8
0
 62
7
  6
CONTINUOUS
 10
362.0408487691
 20
32.9657757338
 11
362.0408487691
 21
32.3100380288
  0
LINE
  8
0
 62
7
  6
CONTINUOUS
 10
362.4043477445
 20
31.1520331591
 11
362.4043477445
 21
30.5067593403
  0
LINE
  8
0
 62
7
  6
CONTINUOUS
 10
362.6934101343
 20
30.5067593403
 11
362.6934101343
 21
31.1520331591
  0
LINE
  8
0
 62
7
  6
CONTINUOUS
 10
359.0512227376
 20
31.0552420547
 11
359.1090352445
 21
31.1842968456
  0
LINE
  8
0
 62
7
  6
CONTINUOUS
 10
358.8199727462
 20
30.8293962497
 11
358.9355977445
 21
30.7003414814
  0
LINE
  8
0
 62
7
  6
CONTINUOUS
 10
362.3465351343
 20
31.2810879048
 11
362.4043477445
 21
31.1520331591
  0
LINE
  8
0
 62
7
  6
CONTINUOUS
 10
363.1559103548
 20
30.7971325633
 11
363.2137226343
 21
30.668077795
  0
LINE
  8
0
 62
7
  6
CONTINUOUS
 10
362.6934101343
 20
31.1520331591
 11
362.6355978548
 21
31.3133515913
  0
LINE
  8
0
 62
7
  6
CONTINUOUS
 10
363.1559103548
 20
31.3456152777
 11
363.1559103548
 21
31.2810879048
  0
LINE
  8
0
 62
7
  6
CONTINUOUS
 10
363.1559103548
 20
30.8939236226
 11
363.1559103548
 21
30.7971325633
  0
LINE
  8
0
 62
7
  6
CONTINUOUS
 10
363.4342913921
 20
32.3100380288
 11
363.4342913921
 21
36.0805298321
  0
LINE
  8
0
 62
7
  6
CONTINUOUS
 10
363.4449727445
 20
30.7648688543
 11
363.4449727445
 21
30.8293962497
  0
LINE
  8
0
 62
7
  6
CONTINUOUS
 10
363.7621602445
 20
36.0805298321
 11
363.7621602445
 21
32.3100380288
  0
LINE
  8
0
 62
7
  6
CONTINUOUS
 10
360.5543476894
 20
30.7003414814
 11
360.6121602997
 21
30.8293962497
  0
LINE
  8
0
 62
7
  6
CONTINUOUS
 10
364.9480979651
 20
30.6035504109
 11
364.890285024
 21
30.7648688543
  0
LINE
  8
0
 62
7
  6
CONTINUOUS
 10
364.6012229651
 20
31.2810879048
 11
364.6012229651
 21
31.1842968456
  0
LINE
  8
0
 62
7
  6
CONTINUOUS
 10
364.6012229651
 20
31.0552420547
 11
364.6012229651
 21
30.8616599362
  0
LINE
  8
0
 62
7
  6
CONTINUOUS
 10
364.890285024
 20
30.7648688543
 11
364.890285024
 21
31.2810879048
  0
LINE
  8
0
 62
7
  6
CONTINUOUS
 10
365.1556028675
 20
32.3100380288
 11
365.1556028675
 21
34.1133167174
  0
LINE
  8
0
 62
7
  6
CONTINUOUS
 10
365.1556028675
 20
35.4247921272
 11
365.1556028675
 21
36.0805298321
  0
LINE
  8
0
 62
7
  6
CONTINUOUS
 10
365.4684104651
 20
32.0231527829
 11
365.4684104651
 21
31.8618343508
  0
LINE
  8
0
 62
7
  6
CONTINUOUS
 10
365.4684104651
 20
31.5391973962
 11
365.4684104651
 21
30.5067593403
  0
LINE
  8
0
 62
7
  6
CONTINUOUS
 10
365.757472524
 20
30.5067593403
 11
365.757472524
 21
31.5391973962
  0
LINE
  8
0
 62
7
  6
CONTINUOUS
 10
365.757472524
 20
31.8618343508
 11
365.757472524
 21
32.0231527829
  0
LINE
  8
0
 62
7
  6
CONTINUOUS
 10
360.3230977445
 20
30.8293962497
 11
360.2652852997
 21
30.7326051679
  0
LINE
  8
0
 62
7
  6
CONTINUOUS
 10
362.6355978548
 20
31.3133515913
 11
362.5777852445
 21
31.3778789641
  0
LINE
  8
0
 62
7
  6
CONTINUOUS
 10
363.5027853548
 20
30.7003414814
 11
363.4449727445
 21
30.7648688543
  0
LINE
  8
0
 62
7
  6
CONTINUOUS
 10
364.6590352445
 20
30.5712867188
 11
364.716847524
 21
30.5067593403
  0
LINE
  8
0
 62
7
  6
CONTINUOUS
 10
364.6012229651
 20
30.668077795
 11
364.6590352445
 21
30.5712867188
  0
LINE
  8
0
 62
7
  6
CONTINUOUS
 10
365.0059102445
 20
30.5067593403
 11
364.9480979651
 21
30.6035504109
  0
LINE
  8
0
 62
7
  6
CONTINUOUS
 10
364.890285024
 20
31.2810879048
 11
364.8324727445
 21
31.3778789641
  0
LINE
  8
0
 62
7
  6
CONTINUOUS
 10
366.2199727445
 20
31.5391973962
 11
366.2199727445
 21
30.5067593403
  0
LINE
  8
0
 62
7
  6
CONTINUOUS
 10
366.5090354651
 20
30.5067593403
 11
366.5090354651
 21
31.2488242184
  0
LINE
  8
0
 62
7
  6
CONTINUOUS
 10
366.5090354651
 20
31.3778789641
 11
366.5090354651
 21
31.5391973962
  0
LINE
  8
0
 62
7
  6
CONTINUOUS
 10
367.0408487691
 20
34.5231527829
 11
367.0408487691
 21
32.3100380288
  0
LINE
  8
0
 62
7
  6
CONTINUOUS
 10
358.9355977445
 20
31.3456152777
 11
358.8199727462
 21
31.216560532
  0
LINE
  8
0
 62
7
  6
CONTINUOUS
 10
359.1090352445
 20
31.1842968456
 11
359.1668477307
 21
31.2488242184
  0
LINE
  8
0
 62
7
  6
CONTINUOUS
 10
358.9355977445
 20
30.7003414814
 11
359.0512227376
 21
30.6358140973
  0
LINE
  8
0
 62
7
  6
CONTINUOUS
 10
359.3402852307
 20
30.7003414814
 11
359.1668477307
 21
30.7971325633
  0
LINE
  8
0
 62
7
  6
CONTINUOUS
 10
364.543410024
 20
31.3456152777
 11
364.6012229651
 21
31.2810879048
  0
LINE
  8
0
 62
7
  6
CONTINUOUS
 10
367.491847524
 20
31.2810879048
 11
367.5496604651
 21
31.1197694727
  0
LINE
  8
0
 62
7
  6
CONTINUOUS
 10
367.838722524
 20
31.1197694727
 11
367.7809102445
 21
31.2810879048
  0
LINE
  8
0
 62
7
  6
CONTINUOUS
 10
367.5496604651
 20
31.1197694727
 11
367.5496604651
 21
30.5067593403
  0
LINE
  8
0
 62
7
  6
CONTINUOUS
 10
367.838722524
 20
30.5067593403
 11
367.838722524
 21
31.1197694727
  0
LINE
  8
0
 62
7
  6
CONTINUOUS
 10
368.3012227445
 20
31.3456152777
 11
368.3012227445
 21
31.2810879048
  0
LINE
  8
0
 62
7
  6
CONTINUOUS
 10
368.4342913921
 20
32.3100380288
 11
368.4342913921
 21
34.4411855698
  0
LINE
  8
0
 62
7
  6
CONTINUOUS
 10
368.7621602445
 20
36.0805298321
 11
368.7621602445
 21
32.3100380288
  0
LINE
  8
0
 62
7
  6
CONTINUOUS
 10
363.4449727445
 20
30.8293962497
 11
363.5027853548
 21
30.926187309
  0
LINE
  8
0
 62
7
  6
CONTINUOUS
 10
359.0512227376
 20
30.6358140973
 11
359.2246602583
 21
30.5712867188
  0
LINE
  8
0
 62
7
  6
CONTINUOUS
 10
360.5543476894
 20
31.3456152777
 11
360.3809101894
 21
31.4424063369
  0
LINE
  8
0
 62
7
  6
CONTINUOUS
 10
363.2137226343
 20
30.668077795
 11
363.3871601343
 21
30.5712867188
  0
LINE
  8
0
 62
7
  6
CONTINUOUS
 10
362.2309102445
 20
31.3456152777
 11
362.3465351343
 21
31.2810879048
  0
LINE
  8
0
 62
7
  6
CONTINUOUS
 10
362.5777852445
 20
31.3778789641
 11
362.4621603548
 21
31.4424063369
  0
LINE
  8
0
 62
7
  6
CONTINUOUS
 10
368.3012227445
 20
30.7648688543
 11
368.4168479651
 21
30.6358140973
  0
LINE
  8
0
 62
7
  6
CONTINUOUS
 10
368.6480977445
 20
30.7003414814
 11
368.5902854651
 21
30.7648688543
  0
LINE
  8
0
 62
7
  6
CONTINUOUS
 10
368.3012227445
 20
31.2810879048
 11
368.4168479651
 21
31.1520331591
  0
LINE
  8
0
 62
7
  6
CONTINUOUS
 10
367.7809102445
 20
31.2810879048
 11
367.7230979651
 21
31.3778789641
  0
LINE
  8
0
 62
7
  6
CONTINUOUS
 10
370.1512223035
 20
30.7003414814
 11
370.1512223035
 21
30.7648688543
  0
LINE
  8
0
 62
7
  6
CONTINUOUS
 10
370.1556028675
 20
32.3100380288
 11
370.1556028675
 21
36.0805298321
  0
LINE
  8
0
 62
7
  6
CONTINUOUS
 10
363.2137226343
 20
31.4101426505
 11
363.1559103548
 21
31.3456152777
  0
LINE
  8
0
 62
7
  6
CONTINUOUS
 10
360.091847717
 20
31.3778789641
 11
360.2652852997
 21
31.3133515913
  0
LINE
  8
0
 62
7
  6
CONTINUOUS
 10
364.8324727445
 20
31.3778789641
 11
364.716847524
 21
31.4424063369
  0
LINE
  8
0
 62
7
  6
CONTINUOUS
 10
368.6480977445
 20
31.216560532
 11
368.5902854651
 21
31.2810879048
  0
LINE
  8
0
 62
7
  6
CONTINUOUS
 10
369.8043479651
 20
30.8293962497
 11
369.8621602445
 21
30.7648688543
  0
LINE
  8
0
 62
7
  6
CONTINUOUS
 10
370.1512223035
 20
30.7648688543
 11
370.0355977445
 21
30.8939236226
  0
LINE
  8
0
 62
7
  6
CONTINUOUS
 10
369.8043479651
 20
31.3456152777
 11
369.8621602445
 21
31.2810879048
  0
LINE
  8
0
 62
7
  6
CONTINUOUS
 10
370.1512223035
 20
31.2810879048
 11
370.0355977445
 21
31.4101426505
  0
LINE
  8
0
 62
7
  6
CONTINUOUS
 10
363.4449727445
 20
31.2810879048
 11
363.5027853548
 21
31.3456152777
  0
LINE
  8
0
 62
7
  6
CONTINUOUS
 10
363.2715352445
 20
31.0229783683
 11
363.1559103548
 21
30.8939236226
  0
LINE
  8
0
 62
7
  6
CONTINUOUS
 10
364.6012229651
 20
30.8616599362
 11
364.543410024
 21
30.7971325633
  0
LINE
  8
0
 62
7
  6
CONTINUOUS
 10
364.543410024
 20
30.6035504109
 11
364.6012229651
 21
30.668077795
  0
LINE
  8
0
 62
7
  6
CONTINUOUS
 10
363.3871601343
 20
30.5712867188
 11
363.5027853548
 21
30.5390230296
  0
LINE
  8
0
 62
7
  6
CONTINUOUS
 10
360.3809101894
 20
31.4424063369
 11
360.1496602445
 21
31.5069337098
  0
LINE
  8
0
 62
7
  6
CONTINUOUS
 10
363.7340351343
 20
30.6358140973
 11
363.5027853548
 21
30.7003414814
  0
LINE
  8
0
 62
7
  6
CONTINUOUS
 10
362.4621603548
 20
31.4424063369
 11
362.2887228548
 21
31.5069337098
  0
LINE
  8
0
 62
7
  6
CONTINUOUS
 10
364.716847524
 20
31.4424063369
 11
364.543410024
 21
31.5069337098
  0
LINE
  8
0
 62
7
  6
CONTINUOUS
 10
367.3762229651
 20
31.3456152777
 11
367.491847524
 21
31.2810879048
  0
LINE
  8
0
 62
7
  6
CONTINUOUS
 10
367.7230979651
 20
31.3778789641
 11
367.6074727445
 21
31.4424063369
  0
LINE
  8
0
 62
7
  6
CONTINUOUS
 10
359.2246602583
 20
30.5712867188
 11
359.3980977583
 21
30.5390230296
  0
LINE
  8
0
 62
7
  6
CONTINUOUS
 10
359.6871602721
 20
30.6358140973
 11
359.3402852307
 21
30.7003414814
  0
LINE
  8
0
 62
7
  6
CONTINUOUS
 10
362.1152853548
 20
31.3778789641
 11
362.2309102445
 21
31.3456152777
  0
LINE
  8
0
 62
7
  6
CONTINUOUS
 10
364.4277854651
 20
31.3778789641
 11
364.543410024
 21
31.3456152777
  0
LINE
  8
0
 62
7
  6
CONTINUOUS
 10
368.7637229651
 20
30.668077795
 11
368.6480977445
 21
30.7003414814
  0
LINE
  8
0
 62
7
  6
CONTINUOUS
 10
367.2605977445
 20
31.3778789641
 11
367.3762229651
 21
31.3456152777
  0
LINE
  8
0
 62
7
  6
CONTINUOUS
 10
368.4168479651
 20
30.6358140973
 11
368.5902854651
 21
30.5712867188
  0
LINE
  8
0
 62
7
  6
CONTINUOUS
 10
367.6074727445
 20
31.4424063369
 11
367.4340352445
 21
31.5069337098
  0
LINE
  8
0
 62
7
  6
CONTINUOUS
 10
368.8215352445
 20
31.1520331591
 11
368.6480977445
 21
31.216560532
  0
LINE
  8
0
 62
7
  6
CONTINUOUS
 10
369.6309104651
 20
30.8939236226
 11
369.8043479651
 21
30.8293962497
  0
LINE
  8
0
 62
7
  6
CONTINUOUS
 10
370.0355977445
 20
31.4101426505
 11
369.8621602445
 21
31.4746700234
  0
LINE
  8
0
 62
7
  6
CONTINUOUS
 10
368.4168479651
 20
31.1520331591
 11
368.6480977445
 21
31.0552420547
  0
LINE
  8
0
 62
7
  6
CONTINUOUS
 10
370.0355977445
 20
30.8939236226
 11
369.8043479651
 21
30.9907146818
  0
LINE
  8
0
 62
7
  6
CONTINUOUS
 10
368.5902854651
 20
31.2810879048
 11
368.6480977445
 21
31.3456152777
  0
LINE
  8
0
 62
7
  6
CONTINUOUS
 10
359.0512227376
 20
31.4101426505
 11
358.9355977445
 21
31.3456152777
  0
LINE
  8
0
 62
7
  6
CONTINUOUS
 10
359.1668477307
 20
31.2488242184
 11
359.3402852307
 21
31.3456152777
  0
LINE
  8
0
 62
7
  6
CONTINUOUS
 10
361.4793477997
 20
31.4424063369
 11
361.3637227445
 21
31.3778789641
  0
LINE
  8
0
 62
7
  6
CONTINUOUS
 10
361.3637227445
 20
31.2488242184
 11
361.4793477997
 21
31.3133515913
  0
LINE
  8
0
 62
7
  6
CONTINUOUS
 10
360.3809101894
 20
30.6035504109
 11
360.5543476894
 21
30.7003414814
  0
LINE
  8
0
 62
7
  6
CONTINUOUS
 10
359.3980977583
 20
30.5390230296
 11
359.744972717
 21
30.5067593403
  0
LINE
  8
0
 62
7
  6
CONTINUOUS
 10
363.5027853548
 20
30.5390230296
 11
363.7340351343
 21
30.5067593403
  0
LINE
  8
0
 62
7
  6
CONTINUOUS
 10
361.8840352445
 20
31.4101426505
 11
362.1152853548
 21
31.3778789641
  0
LINE
  8
0
 62
7
  6
CONTINUOUS
 10
364.1965353548
 20
31.4101426505
 11
364.4277854651
 21
31.3778789641
  0
LINE
  8
0
 62
7
  6
CONTINUOUS
 10
368.6480977445
 20
31.0552420547
 11
369.6309104651
 21
30.8939236226
  0
LINE
  8
0
 62
7
  6
CONTINUOUS
 10
369.8043479651
 20
30.9907146818
 11
368.8215352445
 21
31.1520331591
  0
LINE
  8
0
 62
7
  6
CONTINUOUS
 10
362.2887228548
 20
31.5069337098
 11
362.1152853548
 21
31.5391973962
  0
LINE
  8
0
 62
7
  6
CONTINUOUS
 10
368.5902854651
 20
30.5712867188
 11
368.7637229651
 21
30.5390230296
  0
LINE
  8
0
 62
7
  6
CONTINUOUS
 10
367.4340352445
 20
31.5069337098
 11
367.2605977445
 21
31.5391973962
  0
LINE
  8
0
 62
7
  6
CONTINUOUS
 10
369.6887227445
 20
31.3778789641
 11
369.8043479651
 21
31.3456152777
  0
LINE
  8
0
 62
7
  6
CONTINUOUS
 10
369.8621602445
 20
30.7648688543
 11
369.8043479651
 21
30.7003414814
  0
LINE
  8
0
 62
7
  6
CONTINUOUS
 10
368.4168479651
 20
31.4424063369
 11
368.3012227445
 21
31.3456152777
  0
LINE
  8
0
 62
7
  6
CONTINUOUS
 10
363.3293478548
 20
31.4746700234
 11
363.2137226343
 21
31.4101426505
  0
LINE
  8
0
 62
7
  6
CONTINUOUS
 10
363.3871601343
 20
31.0875057863
 11
363.2715352445
 21
31.0229783683
  0
LINE
  8
0
 62
7
  6
CONTINUOUS
 10
363.5027853548
 20
30.926187309
 11
363.6184102445
 21
30.9907146818
  0
LINE
  8
0
 62
7
  6
CONTINUOUS
 10
361.0746601894
 20
30.5067593403
 11
361.3637227445
 21
30.5067593403
  0
LINE
  8
0
 62
7
  6
CONTINUOUS
 10
362.4043477445
 20
30.5067593403
 11
362.6934101343
 21
30.5067593403
  0
LINE
  8
0
 62
7
  6
CONTINUOUS
 10
363.7340351343
 20
30.5067593403
 11
364.0809101343
 21
30.5067593403
  0
LINE
  8
0
 62
7
  6
CONTINUOUS
 10
364.716847524
 20
30.5067593403
 11
365.0059102445
 21
30.5067593403
  0
LINE
  8
0
 62
7
  6
CONTINUOUS
 10
365.4684104651
 20
30.5067593403
 11
365.757472524
 21
30.5067593403
  0
LINE
  8
0
 62
7
  6
CONTINUOUS
 10
366.2199727445
 20
30.5067593403
 11
366.5090354651
 21
30.5067593403
  0
LINE
  8
0
 62
7
  6
CONTINUOUS
 10
367.5496604651
 20
30.5067593403
 11
367.838722524
 21
30.5067593403
  0
LINE
  8
0
 62
7
  6
CONTINUOUS
 10
369.1105979651
 20
30.5067593403
 11
369.4574729651
 21
30.5067593403
  0
LINE
  8
0
 62
7
  6
CONTINUOUS
 10
369.4574729651
 20
30.6358140973
 11
369.1105979651
 21
30.6358140973
  0
LINE
  8
0
 62
7
  6
CONTINUOUS
 10
364.0809101343
 20
30.6358140973
 11
363.7340351343
 21
30.6358140973
  0
LINE
  8
0
 62
7
  6
CONTINUOUS
 10
368.5902854651
 20
30.7648688543
 11
368.3012227445
 21
30.7648688543
  0
LINE
  8
0
 62
7
  6
CONTINUOUS
 10
360.6121602997
 20
30.8293962497
 11
360.3230977445
 21
30.8293962497
  0
LINE
  8
0
 62
7
  6
CONTINUOUS
 10
359.6871602721
 20
31.4101426505
 11
360.091847717
 21
31.3778789641
  0
LINE
  8
0
 62
7
  6
CONTINUOUS
 10
360.1496602445
 20
31.5069337098
 11
359.744972717
 21
31.5391973962
  0
LINE
  8
0
 62
7
  6
CONTINUOUS
 10
368.7637229651
 20
30.5390230296
 11
369.1105979651
 21
30.5067593403
  0
LINE
  8
0
 62
7
  6
CONTINUOUS
 10
369.1105979651
 20
30.6358140973
 11
368.7637229651
 21
30.668077795
  0
LINE
  8
0
 62
7
  6
CONTINUOUS
 10
364.543410024
 20
31.5069337098
 11
364.1965353548
 21
31.5391973962
  0
LINE
  8
0
 62
7
  6
CONTINUOUS
 10
369.3418477445
 20
31.4101426505
 11
369.6887227445
 21
31.3778789641
  0
LINE
  8
0
 62
7
  6
CONTINUOUS
 10
369.6887227445
 20
31.5069337098
 11
369.3418477445
 21
31.5391973962
  0
LINE
  8
0
 62
7
  6
CONTINUOUS
 10
367.0293479651
 20
31.4101426505
 11
367.2605977445
 21
31.3778789641
  0
LINE
  8
0
 62
7
  6
CONTINUOUS
 10
369.8621602445
 20
31.4746700234
 11
369.6887227445
 21
31.5069337098
  0
LINE
  8
0
 62
7
  6
CONTINUOUS
 10
370.0355977445
 20
30.6035504109
 11
370.1512223035
 21
30.7003414814
  0
LINE
  8
0
 62
7
  6
CONTINUOUS
 10
364.543410024
 20
30.7971325633
 11
364.369972524
 21
30.7003414814
  0
LINE
  8
0
 62
7
  6
CONTINUOUS
 10
366.624660024
 20
31.4424063369
 11
366.5090354651
 21
31.3778789641
  0
LINE
  8
0
 62
7
  6
CONTINUOUS
 10
366.5090354651
 20
31.2488242184
 11
366.624660024
 21
31.3133515913
  0
LINE
  8
0
 62
7
  6
CONTINUOUS
 10
359.2246602583
 20
31.4746700234
 11
359.0512227376
 21
31.4101426505
  0
LINE
  8
0
 62
7
  6
CONTINUOUS
 10
361.6527851343
 20
31.5069337098
 11
361.4793477997
 21
31.4424063369
  0
LINE
  8
0
 62
7
  6
CONTINUOUS
 10
361.4793477997
 20
31.3133515913
 11
361.6527851343
 21
31.3778789641
  0
LINE
  8
0
 62
7
  6
CONTINUOUS
 10
360.2652852997
 20
30.7326051679
 11
360.091847717
 21
30.668077795
  0
LINE
  8
0
 62
7
  6
CONTINUOUS
 10
369.6887227445
 20
30.668077795
 11
369.4574729651
 21
30.6358140973
  0
LINE
  8
0
 62
7
  6
CONTINUOUS
 10
364.0809101343
 20
30.5067593403
 11
364.369972524
 21
30.5390230296
  0
LINE
  8
0
 62
7
  6
CONTINUOUS
 10
369.4574729651
 20
30.5067593403
 11
369.8043479651
 21
30.5390230296
  0
LINE
  8
0
 62
7
  6
CONTINUOUS
 10
359.744972717
 20
30.5067593403
 11
360.1496602445
 21
30.5390230296
  0
LINE
  8
0
 62
7
  6
CONTINUOUS
 10
360.091847717
 20
30.668077795
 11
359.6871602721
 21
30.6358140973
  0
LINE
  8
0
 62
7
  6
CONTINUOUS
 10
363.9652852445
 20
31.0552420547
 11
364.6012229651
 21
31.0552420547
  0
LINE
  8
0
 62
7
  6
CONTINUOUS
 10
364.6012229651
 20
31.1842968456
 11
363.9652852445
 21
31.1842968456
  0
LINE
  8
0
 62
7
  6
CONTINUOUS
 10
360.3230977445
 20
31.216560532
 11
360.6121602997
 21
31.216560532
  0
LINE
  8
0
 62
7
  6
CONTINUOUS
 10
363.1559103548
 20
31.2810879048
 11
363.4449727445
 21
31.2810879048
  0
LINE
  8
0
 62
7
  6
CONTINUOUS
 10
369.8621602445
 20
31.2810879048
 11
370.1512223035
 21
31.2810879048
  0
LINE
  8
0
 62
7
  6
CONTINUOUS
 10
363.8496603548
 20
31.4101426505
 11
364.1965353548
 21
31.4101426505
  0
LINE
  8
0
 62
7
  6
CONTINUOUS
 10
368.9949727445
 20
31.4101426505
 11
369.3418477445
 21
31.4101426505
  0
LINE
  8
0
 62
7
  6
CONTINUOUS
 10
369.3418477445
 20
31.5391973962
 11
368.9949727445
 21
31.5391973962
  0
LINE
  8
0
 62
7
  6
CONTINUOUS
 10
367.2605977445
 20
31.5391973962
 11
367.0293479651
 21
31.5391973962
  0
LINE
  8
0
 62
7
  6
CONTINUOUS
 10
366.5090354651
 20
31.5391973962
 11
366.2199727445
 21
31.5391973962
  0
LINE
  8
0
 62
7
  6
CONTINUOUS
 10
365.757472524
 20
31.5391973962
 11
365.4684104651
 21
31.5391973962
  0
LINE
  8
0
 62
7
  6
CONTINUOUS
 10
364.1965353548
 20
31.5391973962
 11
363.8496603548
 21
31.5391973962
  0
LINE
  8
0
 62
7
  6
CONTINUOUS
 10
362.1152853548
 20
31.5391973962
 11
361.8840352445
 21
31.5391973962
  0
LINE
  8
0
 62
7
  6
CONTINUOUS
 10
365.4684104651
 20
31.8618343508
 11
365.757472524
 21
31.8618343508
  0
LINE
  8
0
 62
7
  6
CONTINUOUS
 10
365.757472524
 20
32.0231527829
 11
365.4684104651
 21
32.0231527829
  0
LINE
  8
0
 62
7
  6
CONTINUOUS
 10
361.3637227445
 20
32.0231527829
 11
361.0746601894
 21
32.0231527829
  0
LINE
  8
0
 62
7
  6
CONTINUOUS
 10
360.4015045068
 20
32.3100380288
 11
360.8140758554
 21
32.3100380288
  0
LINE
  8
0
 62
7
  6
CONTINUOUS
 10
362.0408487691
 20
32.3100380288
 11
363.4342913921
 21
32.3100380288
  0
LINE
  8
0
 62
7
  6
CONTINUOUS
 10
363.7621602445
 20
32.3100380288
 11
365.1556028675
 21
32.3100380288
  0
LINE
  8
0
 62
7
  6
CONTINUOUS
 10
367.0408487691
 20
32.3100380288
 11
368.4342913921
 21
32.3100380288
  0
LINE
  8
0
 62
7
  6
CONTINUOUS
 10
368.7621602445
 20
32.3100380288
 11
370.1556028675
 21
32.3100380288
  0
LINE
  8
0
 62
7
  6
CONTINUOUS
 10
366.798097524
 20
31.5069337098
 11
366.624660024
 21
31.4424063369
  0
LINE
  8
0
 62
7
  6
CONTINUOUS
 10
364.369972524
 20
30.5390230296
 11
364.543410024
 21
30.6035504109
  0
LINE
  8
0
 62
7
  6
CONTINUOUS
 10
369.8043479651
 20
30.5390230296
 11
370.0355977445
 21
30.6035504109
  0
LINE
  8
0
 62
7
  6
CONTINUOUS
 10
369.8043479651
 20
30.7003414814
 11
369.6887227445
 21
30.668077795
  0
LINE
  8
0
 62
7
  6
CONTINUOUS
 10
368.7637229651
 20
31.3778789641
 11
368.9949727445
 21
31.4101426505
  0
LINE
  8
0
 62
7
  6
CONTINUOUS
 10
366.798097524
 20
31.3778789641
 11
367.0293479651
 21
31.4101426505
  0
LINE
  8
0
 62
7
  6
CONTINUOUS
 10
363.7340351343
 20
31.0229783683
 11
363.9652852445
 21
31.0552420547
  0
LINE
  8
0
 62
7
  6
CONTINUOUS
 10
367.0293479651
 20
31.5391973962
 11
366.798097524
 21
31.5069337098
  0
LINE
  8
0
 62
7
  6
CONTINUOUS
 10
363.6184102445
 20
31.3778789641
 11
363.8496603548
 21
31.4101426505
  0
LINE
  8
0
 62
7
  6
CONTINUOUS
 10
368.9949727445
 20
31.5391973962
 11
368.6480977445
 21
31.5069337098
  0
LINE
  8
0
 62
7
  6
CONTINUOUS
 10
363.9652852445
 20
31.1842968456
 11
363.6184102445
 21
31.1520331591
  0
LINE
  8
0
 62
7
  6
CONTINUOUS
 10
359.744972717
 20
31.5391973962
 11
359.3980977583
 21
31.5069337098
  0
LINE
  8
0
 62
7
  6
CONTINUOUS
 10
363.8496603548
 20
31.5391973962
 11
363.4449727445
 21
31.5069337098
  0
LINE
  8
0
 62
7
  6
CONTINUOUS
 10
361.221176638
 20
33.4575790124
 11
360.565438933
 21
33.4575790124
  0
LINE
  8
0
 62
7
  6
CONTINUOUS
 10
366.624660024
 20
31.3133515913
 11
366.798097524
 21
31.3778789641
  0
LINE
  8
0
 62
7
  6
CONTINUOUS
 10
368.6480977445
 20
31.3456152777
 11
368.7637229651
 21
31.3778789641
  0
LINE
  8
0
 62
7
  6
CONTINUOUS
 10
368.6480977445
 20
31.5069337098
 11
368.4168479651
 21
31.4424063369
  0
LINE
  8
0
 62
7
  6
CONTINUOUS
 10
364.369972524
 20
30.7003414814
 11
364.0809101343
 21
30.6358140973
  0
LINE
  8
0
 62
7
  6
CONTINUOUS
 10
361.6527851343
 20
31.3778789641
 11
361.8840352445
 21
31.4101426505
  0
LINE
  8
0
 62
7
  6
CONTINUOUS
 10
361.8840352445
 20
31.5391973962
 11
361.6527851343
 21
31.5069337098
  0
LINE
  8
0
 62
7
  6
CONTINUOUS
 10
359.4559102445
 20
31.3778789641
 11
359.6871602721
 21
31.4101426505
  0
LINE
  8
0
 62
7
  6
CONTINUOUS
 10
365.9752749986
 20
34.9329888485
 11
366.6310127035
 21
34.9329888485
  0
LINE
  8
0
 62
7
  6
CONTINUOUS
 10
363.6184102445
 20
30.9907146818
 11
363.7340351343
 21
31.0229783683
  0
LINE
  8
0
 62
7
  6
CONTINUOUS
 10
363.6184102445
 20
31.1520331591
 11
363.3871601343
 21
31.0875057863
  0
LINE
  8
0
 62
7
  6
CONTINUOUS
 10
363.5027853548
 20
31.3456152777
 11
363.6184102445
 21
31.3778789641
  0
LINE
  8
0
 62
7
  6
CONTINUOUS
 10
360.1496602445
 20
30.5390230296
 11
360.3809101894
 21
30.6035504109
  0
LINE
  8
0
 62
7
  6
CONTINUOUS
 10
363.4449727445
 20
31.5069337098
 11
363.3293478548
 21
31.4746700234
  0
LINE
  8
0
 62
7
  6
CONTINUOUS
 10
359.3980977583
 20
31.5069337098
 11
359.2246602583
 21
31.4746700234
  0
LINE
  8
0
 62
7
  6
CONTINUOUS
 10
370.1556028675
 20
36.0805298321
 11
368.7621602445
 21
36.0805298321
  0
LINE
  8
0
 62
7
  6
CONTINUOUS
 10
366.7949471298
 20
36.0805298321
 11
366.3823757812
 21
36.0805298321
  0
LINE
  8
0
 62
7
  6
CONTINUOUS
 10
365.1556028675
 20
36.0805298321
 11
363.7621602445
 21
36.0805298321
  0
LINE
  8
0
 62
7
  6
CONTINUOUS
 10
363.4342913921
 20
36.0805298321
 11
362.0408487691
 21
36.0805298321
  0
LINE
  8
0
 62
7
  6
CONTINUOUS
 10
360.1556028675
 20
36.0805298321
 11
358.7621602445
 21
36.0805298321
  0
LINE
  8
0
 62
7
  6
CONTINUOUS
 10
359.3402852307
 20
31.3456152777
 11
359.4559102445
 21
31.3778789641
  0
CIRCLE
  8
0
 62
7
  6
CONTINUOUS
 10
369.458881556
 20
38.4165954059
 40
2.0901639344
  0
ARC
  8
0
 62
7
  6
CONTINUOUS
 10
360.4015045068
 20
33.9493822911
 40
1.6393442623
 50
180.0
 51
270.0
  0
ARC
  8
0
 62
7
  6
CONTINUOUS
 10
366.7949471298
 20
34.4411855698
 40
1.6393442623
 50
0.0
 51
90.0
  0
ARC
  8
0
 62
7
  6
CONTINUOUS
 10
360.8140758554
 20
33.7854478649
 40
1.4754098361
 50
270.0
 51
326.2510114041
  0
ARC
  8
0
 62
7
  6
CONTINUOUS
 10
366.3823757812
 20
34.6051199961
 40
1.4754098361
 50
90.0
 51
146.2510114041
  0
ARC
  8
0
 62
7
  6
CONTINUOUS
 10
361.221176638
 20
34.2772511436
 40
0.8196721311
 50
270.0
 51
360.0
  0
ARC
  8
0
 62
7
  6
CONTINUOUS
 10
365.9752749986
 20
34.1133167174
 40
0.8196721311
 50
90.0
 51
180.0
  0
ARC
  8
0
 62
7
  6
CONTINUOUS
 10
360.565438933
 20
33.867415078
 40
0.4098360656
 50
180.0
 51
270.0
  0
ARC
  8
0
 62
7
  6
CONTINUOUS
 10
366.6310127035
 20
34.5231527829
 40
0.4098360656
 50
0.0
 51
90.0
  0
SOLID
  8
0
 62
7
  6
CONTINUOUS
 10
365.4684104651
 20
31.8618347111
 11
365.4684104651
 21
32.0231531947
 12
365.757472524
 22
31.8618347111
 13
365.757472524
 23
32.0231531947
  0
SOLID
  8
0
 62
7
  6
CONTINUOUS
 10
359.744972717
 20
31.5391977439
 11
360.1496602445
 21
31.5069333244
 12
359.3980977583
 22
31.5069333244
 13
359.3980977583
 23
31.5069333244
  0
SOLID
  8
0
 62
7
  6
CONTINUOUS
 10
359.2246602583
 20
31.4746706537
 11
359.3980977583
 21
31.5069333244
 12
360.1496602445
 22
31.5069333244
 13
360.1496602445
 23
31.5069333244
  0
SOLID
  8
0
 62
7
  6
CONTINUOUS
 10
360.1496602445
 20
31.5069333244
 11
360.3809101894
 21
31.4424063504
 12
359.2246602583
 22
31.4746706537
 13
359.2246602583
 23
31.4746706537
  0
SOLID
  8
0
 62
7
  6
CONTINUOUS
 10
359.0512227376
 20
31.4101419116
 11
359.2246602583
 21
31.4746706537
 12
360.3809101894
 22
31.4424063504
 13
360.3809101894
 23
31.4424063504
  0
SOLID
  8
0
 62
7
  6
CONTINUOUS
 10
359.0512227376
 20
31.4101419116
 11
360.3809101894
 21
31.4424063504
 12
359.6871602721
 22
31.4101419116
 13
359.6871602721
 23
31.4101419116
  0
SOLID
  8
0
 62
7
  6
CONTINUOUS
 10
359.6871602721
 20
31.4101419116
 11
360.3809101894
 21
31.4424063504
 12
360.091847717
 22
31.3778792603
 13
360.091847717
 23
31.3778792603
  0
SOLID
  8
0
 62
7
  6
CONTINUOUS
 10
360.3809101894
 20
31.4424063504
 11
360.5543476894
 21
31.345614957
 12
360.091847717
 22
31.3778792603
 13
360.091847717
 23
31.3778792603
  0
SOLID
  8
0
 62
7
  6
CONTINUOUS
 10
360.2652852997
 20
31.3133521701
 11
360.091847717
 21
31.3778792603
 12
360.5543476894
 22
31.345614957
 13
360.5543476894
 23
31.345614957
  0
SOLID
  8
0
 62
7
  6
CONTINUOUS
 10
360.2652852997
 20
31.3133521701
 11
360.5543476894
 21
31.345614957
 12
360.3230977445
 22
31.2165606992
 13
360.3230977445
 23
31.2165606992
  0
SOLID
  8
0
 62
7
  6
CONTINUOUS
 10
360.5543476894
 20
31.345614957
 11
360.6121602997
 21
31.2165606992
 12
360.3230977445
 22
31.2165606992
 13
360.3230977445
 23
31.2165606992
  0
SOLID
  8
0
 62
7
  6
CONTINUOUS
 10
361.6527851343
 20
31.5069329918
 11
361.8840352445
 21
31.5391972951
 12
362.1152853548
 22
31.5391972951
 13
362.1152853548
 23
31.5391972951
  0
SOLID
  8
0
 62
7
  6
CONTINUOUS
 10
362.1152853548
 20
31.5391972951
 11
362.2887228548
 21
31.5069329918
 12
361.6527851343
 22
31.5069329918
 13
361.6527851343
 23
31.5069329918
  0
SOLID
  8
0
 62
7
  6
CONTINUOUS
 10
361.4793477997
 20
31.4424059016
 11
361.6527851343
 21
31.5069329918
 12
362.2887228548
 22
31.5069329918
 13
362.2887228548
 23
31.5069329918
  0
SOLID
  8
0
 62
7
  6
CONTINUOUS
 10
362.2887228548
 20
31.5069329918
 11
362.4621603548
 21
31.4424059016
 12
361.4793477997
 22
31.4424059016
 13
361.4793477997
 23
31.4424059016
  0
SOLID
  8
0
 62
7
  6
CONTINUOUS
 10
362.4621603548
 20
31.4424059016
 11
361.8840352445
 21
31.4101420472
 12
361.4793477997
 22
31.4424059016
 13
361.4793477997
 23
31.4424059016
  0
SOLID
  8
0
 62
7
  6
CONTINUOUS
 10
361.3637227445
 20
31.3778788115
 11
361.4793477997
 21
31.4424059016
 12
361.8840352445
 22
31.4101420472
 13
361.8840352445
 23
31.4101420472
  0
SOLID
  8
0
 62
7
  6
CONTINUOUS
 10
361.8840352445
 20
31.4101420472
 11
361.6527851343
 21
31.3778788115
 12
361.3637227445
 22
31.3778788115
 13
361.3637227445
 23
31.3778788115
  0
SOLID
  8
0
 62
7
  6
CONTINUOUS
 10
361.8840352445
 20
31.4101420472
 11
362.4621603548
 21
31.4424059016
 12
362.1152853548
 22
31.3778788115
 13
362.1152853548
 23
31.3778788115
  0
SOLID
  8
0
 62
7
  6
CONTINUOUS
 10
362.4621603548
 20
31.4424059016
 11
362.5777852445
 21
31.3778788115
 12
362.1152853548
 22
31.3778788115
 13
362.1152853548
 23
31.3778788115
  0
SOLID
  8
0
 62
7
  6
CONTINUOUS
 10
362.2309102445
 20
31.345614957
 11
362.1152853548
 21
31.3778788115
 12
362.5777852445
 22
31.3778788115
 13
362.5777852445
 23
31.3778788115
  0
SOLID
  8
0
 62
7
  6
CONTINUOUS
 10
362.5777852445
 20
31.3778788115
 11
362.6355978548
 21
31.3133517213
 12
362.2309102445
 22
31.345614957
 13
362.2309102445
 23
31.345614957
  0
SOLID
  8
0
 62
7
  6
CONTINUOUS
 10
362.3465351343
 20
31.2810878668
 11
362.2309102445
 21
31.345614957
 12
362.6355978548
 22
31.3133517213
 13
362.6355978548
 23
31.3133517213
  0
SOLID
  8
0
 62
7
  6
CONTINUOUS
 10
362.3465351343
 20
31.2810878668
 11
362.6355978548
 21
31.3133517213
 12
362.4043477445
 22
31.1520332377
 13
362.4043477445
 23
31.1520332377
  0
SOLID
  8
0
 62
7
  6
CONTINUOUS
 10
362.6355978548
 20
31.3133517213
 11
362.6934101343
 21
31.1520332377
 12
362.4043477445
 22
31.1520332377
 13
362.4043477445
 23
31.1520332377
  0
SOLID
  8
0
 62
7
  6
CONTINUOUS
 10
361.6527851343
 20
31.3778788115
 11
361.4793477997
 21
31.3133517213
 12
361.3637227445
 22
31.3778788115
 13
361.3637227445
 23
31.3778788115
  0
SOLID
  8
0
 62
7
  6
CONTINUOUS
 10
361.4793477997
 20
31.3133517213
 11
361.3637227445
 21
31.2488235635
 12
361.3637227445
 22
31.3778788115
 13
361.3637227445
 23
31.3778788115
  0
SOLID
  8
0
 62
7
  6
CONTINUOUS
 10
361.3637227445
 20
31.2488235635
 11
361.0746601894
 21
30.5067593033
 12
361.3637227445
 22
31.3778788115
 13
361.3637227445
 23
31.3778788115
  0
SOLID
  8
0
 62
7
  6
CONTINUOUS
 10
361.3637227445
 20
31.3778788115
 11
361.0746601894
 21
30.5067593033
 12
361.3637227445
 22
32.0231527459
 13
361.3637227445
 23
32.0231527459
  0
SOLID
  8
0
 62
7
  6
CONTINUOUS
 10
361.0746601894
 20
30.5067593033
 11
361.0746601894
 21
32.0231527459
 12
361.3637227445
 22
32.0231527459
 13
361.3637227445
 23
32.0231527459
  0
SOLID
  8
0
 62
7
  6
CONTINUOUS
 10
361.3637227445
 20
31.2488235635
 11
361.3637227445
 21
30.5067593033
 12
361.0746601894
 22
30.5067593033
 13
361.0746601894
 23
30.5067593033
  0
SOLID
  8
0
 62
7
  6
CONTINUOUS
 10
362.4043477445
 20
30.5067593033
 11
362.4043477445
 21
31.1520332377
 12
362.6934101343
 22
31.1520332377
 13
362.6934101343
 23
31.1520332377
  0
SOLID
  8
0
 62
7
  6
CONTINUOUS
 10
362.6934101343
 20
31.1520332377
 11
362.6934101343
 21
30.5067593033
 12
362.4043477445
 22
30.5067593033
 13
362.4043477445
 23
30.5067593033
  0
SOLID
  8
0
 62
7
  6
CONTINUOUS
 10
363.4449727445
 20
31.506933758
 11
363.8496603548
 21
31.5391977507
 12
364.1965353548
 22
31.5391977507
 13
364.1965353548
 23
31.5391977507
  0
SOLID
  8
0
 62
7
  6
CONTINUOUS
 10
364.1965353548
 20
31.5391977507
 11
364.543410024
 21
31.506933758
 12
363.4449727445
 22
31.506933758
 13
363.4449727445
 23
31.506933758
  0
SOLID
  8
0
 62
7
  6
CONTINUOUS
 10
363.3293478548
 20
31.4746706537
 11
363.4449727445
 21
31.506933758
 12
364.543410024
 22
31.506933758
 13
364.543410024
 23
31.506933758
  0
SOLID
  8
0
 62
7
  6
CONTINUOUS
 10
364.543410024
 20
31.506933758
 11
364.716847524
 21
31.4424063504
 12
363.3293478548
 22
31.4746706537
 13
363.3293478548
 23
31.4746706537
  0
SOLID
  8
0
 62
7
  6
CONTINUOUS
 10
363.2137226343
 20
31.4101417797
 11
363.3293478548
 21
31.4746706537
 12
364.716847524
 22
31.4424063504
 13
364.716847524
 23
31.4424063504
  0
SOLID
  8
0
 62
7
  6
CONTINUOUS
 10
363.2137226343
 20
31.4101417797
 11
364.716847524
 21
31.4424063504
 12
363.8496603548
 22
31.4101417797
 13
363.8496603548
 23
31.4101417797
  0
SOLID
  8
0
 62
7
  6
CONTINUOUS
 10
363.8496603548
 20
31.4101417797
 11
364.716847524
 21
31.4424063504
 12
364.1965353548
 22
31.4101417797
 13
364.1965353548
 23
31.4101417797
  0
SOLID
  8
0
 62
7
  6
CONTINUOUS
 10
364.1965353548
 20
31.4101417797
 11
364.716847524
 21
31.4424063504
 12
364.4277854651
 22
31.3778793357
 13
364.4277854651
 23
31.3778793357
  0
SOLID
  8
0
 62
7
  6
CONTINUOUS
 10
364.716847524
 20
31.4424063504
 11
364.8324727445
 21
31.3778793357
 12
364.4277854651
 22
31.3778793357
 13
364.4277854651
 23
31.3778793357
  0
SOLID
  8
0
 62
7
  6
CONTINUOUS
 10
363.1559103548
 20
31.3456153429
 11
363.2137226343
 21
31.4101417797
 12
363.8496603548
 22
31.4101417797
 13
363.8496603548
 23
31.4101417797
  0
SOLID
  8
0
 62
7
  6
CONTINUOUS
 10
364.543410024
 20
31.3456153429
 11
364.4277854651
 21
31.3778793357
 12
364.8324727445
 22
31.3778793357
 13
364.8324727445
 23
31.3778793357
  0
SOLID
  8
0
 62
7
  6
CONTINUOUS
 10
364.543410024
 20
31.3456153429
 11
364.8324727445
 21
31.3778793357
 12
364.6012229651
 22
31.2810881318
 13
364.6012229651
 23
31.2810881318
  0
SOLID
  8
0
 62
7
  6
CONTINUOUS
 10
364.8324727445
 20
31.3778793357
 11
364.890285024
 21
31.2810881318
 12
364.6012229651
 22
31.2810881318
 13
364.6012229651
 23
31.2810881318
  0
SOLID
  8
0
 62
7
  6
CONTINUOUS
 10
364.6012229651
 20
31.1842964734
 11
364.6012229651
 21
31.2810881318
 12
364.890285024
 22
31.2810881318
 13
364.890285024
 23
31.2810881318
  0
SOLID
  8
0
 62
7
  6
CONTINUOUS
 10
364.6012229651
 20
31.1842964734
 11
364.890285024
 21
31.2810881318
 12
364.6012229651
 22
31.0552422931
 13
364.6012229651
 23
31.0552422931
  0
SOLID
  8
0
 62
7
  6
CONTINUOUS
 10
364.6012229651
 20
31.0552422931
 11
364.890285024
 21
31.2810881318
 12
364.6012229651
 22
30.8616599362
 13
364.6012229651
 23
30.8616599362
  0
SOLID
  8
0
 62
7
  6
CONTINUOUS
 10
364.890285024
 20
31.2810881318
 11
364.890285024
 21
30.7648681127
 12
364.6012229651
 22
30.8616599362
 13
364.6012229651
 23
30.8616599362
  0
SOLID
  8
0
 62
7
  6
CONTINUOUS
 10
366.798097524
 20
31.5069339419
 11
367.0293479651
 21
31.5391976292
 12
367.2605977445
 22
31.5391976292
 13
367.2605977445
 23
31.5391976292
  0
SOLID
  8
0
 62
7
  6
CONTINUOUS
 10
367.2605977445
 20
31.5391976292
 11
367.4340352445
 21
31.5069339419
 12
366.798097524
 22
31.5069339419
 13
366.798097524
 23
31.5069339419
  0
SOLID
  8
0
 62
7
  6
CONTINUOUS
 10
366.624660024
 20
31.4424065674
 11
366.798097524
 21
31.5069339419
 12
367.4340352445
 22
31.5069339419
 13
367.4340352445
 23
31.5069339419
  0
SOLID
  8
0
 62
7
  6
CONTINUOUS
 10
367.4340352445
 20
31.5069339419
 11
367.6074727445
 21
31.4424065674
 12
366.624660024
 22
31.4424065674
 13
366.624660024
 23
31.4424065674
  0
SOLID
  8
0
 62
7
  6
CONTINUOUS
 10
367.6074727445
 20
31.4424065674
 11
367.0293479651
 21
31.4101420472
 12
366.624660024
 22
31.4424065674
 13
366.624660024
 23
31.4424065674
  0
SOLID
  8
0
 62
7
  6
CONTINUOUS
 10
366.5090354651
 20
31.377879193
 11
366.624660024
 21
31.4424065674
 12
367.0293479651
 22
31.4101420472
 13
367.0293479651
 23
31.4101420472
  0
SOLID
  8
0
 62
7
  6
CONTINUOUS
 10
367.0293479651
 20
31.4101420472
 11
366.798097524
 21
31.377879193
 12
366.5090354651
 22
31.377879193
 13
366.5090354651
 23
31.377879193
  0
SOLID
  8
0
 62
7
  6
CONTINUOUS
 10
367.0293479651
 20
31.4101420472
 11
367.6074727445
 21
31.4424065674
 12
367.2605977445
 22
31.377879193
 13
367.2605977445
 23
31.377879193
  0
SOLID
  8
0
 62
7
  6
CONTINUOUS
 10
367.6074727445
 20
31.4424065674
 11
367.7230979651
 21
31.377879193
 12
367.2605977445
 22
31.377879193
 13
367.2605977445
 23
31.377879193
  0
SOLID
  8
0
 62
7
  6
CONTINUOUS
 10
367.3762229651
 20
31.345614957
 11
367.2605977445
 21
31.377879193
 12
367.7230979651
 22
31.377879193
 13
367.7230979651
 23
31.377879193
  0
SOLID
  8
0
 62
7
  6
CONTINUOUS
 10
367.3762229651
 20
31.345614957
 11
367.7230979651
 21
31.377879193
 12
367.491847524
 22
31.2810881312
 13
367.491847524
 23
31.2810881312
  0
SOLID
  8
0
 62
7
  6
CONTINUOUS
 10
367.7230979651
 20
31.377879193
 11
367.7809102445
 21
31.2810881312
 12
367.491847524
 22
31.2810881312
 13
367.491847524
 23
31.2810881312
  0
SOLID
  8
0
 62
7
  6
CONTINUOUS
 10
367.5496604651
 20
31.119769695
 11
367.491847524
 21
31.2810881312
 12
367.7809102445
 22
31.2810881312
 13
367.7809102445
 23
31.2810881312
  0
SOLID
  8
0
 62
7
  6
CONTINUOUS
 10
367.7809102445
 20
31.2810881312
 11
367.838722524
 21
31.119769695
 12
367.5496604651
 22
31.119769695
 13
367.5496604651
 23
31.119769695
  0
SOLID
  8
0
 62
7
  6
CONTINUOUS
 10
366.798097524
 20
31.377879193
 11
366.624660024
 21
31.3133521701
 12
366.5090354651
 22
31.377879193
 13
366.5090354651
 23
31.377879193
  0
SOLID
  8
0
 62
7
  6
CONTINUOUS
 10
366.624660024
 20
31.3133521701
 11
366.5090354651
 21
31.2488235635
 12
366.5090354651
 22
31.377879193
 13
366.5090354651
 23
31.377879193
  0
SOLID
  8
0
 62
7
  6
CONTINUOUS
 10
366.5090354651
 20
31.2488235635
 11
366.2199727445
 21
30.5067596374
 12
366.5090354651
 22
31.377879193
 13
366.5090354651
 23
31.377879193
  0
SOLID
  8
0
 62
7
  6
CONTINUOUS
 10
366.5090354651
 20
31.377879193
 11
366.2199727445
 21
30.5067596374
 12
366.5090354651
 22
31.5391976292
 13
366.5090354651
 23
31.5391976292
  0
SOLID
  8
0
 62
7
  6
CONTINUOUS
 10
366.2199727445
 20
30.5067596374
 11
366.2199727445
 21
31.5391976292
 12
366.5090354651
 22
31.5391976292
 13
366.5090354651
 23
31.5391976292
  0
SOLID
  8
0
 62
7
  6
CONTINUOUS
 10
366.5090354651
 20
31.2488235635
 11
366.5090354651
 21
30.5067596374
 12
366.2199727445
 22
30.5067596374
 13
366.2199727445
 23
30.5067596374
  0
SOLID
  8
0
 62
7
  6
CONTINUOUS
 10
367.5496604651
 20
30.5067596374
 11
367.5496604651
 21
31.119769695
 12
367.838722524
 22
31.119769695
 13
367.838722524
 23
31.119769695
  0
SOLID
  8
0
 62
7
  6
CONTINUOUS
 10
367.838722524
 20
31.119769695
 11
367.838722524
 21
30.5067596374
 12
367.5496604651
 22
30.5067596374
 13
367.5496604651
 23
30.5067596374
  0
SOLID
  8
0
 62
7
  6
CONTINUOUS
 10
368.6480977445
 20
31.5069334157
 11
368.9949727445
 21
31.539197762
 12
369.3418477445
 22
31.539197762
 13
369.3418477445
 23
31.539197762
  0
SOLID
  8
0
 62
7
  6
CONTINUOUS
 10
369.3418477445
 20
31.539197762
 11
369.6887227445
 21
31.5069334157
 12
368.6480977445
 22
31.5069334157
 13
368.6480977445
 23
31.5069334157
  0
SOLID
  8
0
 62
7
  6
CONTINUOUS
 10
368.4168479651
 20
31.4424063504
 11
368.6480977445
 21
31.5069334157
 12
369.6887227445
 22
31.5069334157
 13
369.6887227445
 23
31.5069334157
  0
SOLID
  8
0
 62
7
  6
CONTINUOUS
 10
368.4168479651
 20
31.4424063504
 11
369.6887227445
 21
31.5069334406
 12
369.8621602445
 22
31.4746706537
 13
369.8621602445
 23
31.4746706537
  0
SOLID
  8
0
 62
7
  6
CONTINUOUS
 10
368.4168479651
 20
31.4424063504
 11
369.8621602445
 21
31.4746706537
 12
368.9949727445
 22
31.4101421267
 13
368.9949727445
 23
31.4101421267
  0
SOLID
  8
0
 62
7
  6
CONTINUOUS
 10
368.9949727445
 20
31.4101421267
 11
369.8621602445
 21
31.4746706537
 12
369.3418477445
 22
31.4101421267
 13
369.3418477445
 23
31.4101421267
  0
SOLID
  8
0
 62
7
  6
CONTINUOUS
 10
369.8621602445
 20
31.4746706537
 11
370.0355977445
 21
31.4101421267
 12
369.3418477445
 22
31.4101421267
 13
369.3418477445
 23
31.4101421267
  0
SOLID
  8
0
 62
7
  6
CONTINUOUS
 10
369.6887227445
 20
31.3778792603
 11
369.3418477445
 21
31.4101421267
 12
370.0355977445
 22
31.4101421267
 13
370.0355977445
 23
31.4101421267
  0
SOLID
  8
0
 62
7
  6
CONTINUOUS
 10
368.3012227445
 20
31.3456148845
 11
368.4168479651
 21
31.4424063504
 12
368.9949727445
 22
31.4101421267
 13
368.9949727445
 23
31.4101421267
  0
SOLID
  8
0
 62
7
  6
CONTINUOUS
 10
369.6887227445
 20
31.3778792603
 11
370.0355977445
 21
31.4101421267
 12
369.8043479651
 22
31.3456148845
 13
369.8043479651
 23
31.3456148845
  0
SOLID
  8
0
 62
7
  6
CONTINUOUS
 10
369.8043479651
 20
31.3456148845
 11
370.0355977445
 21
31.4101421267
 12
369.8621602445
 22
31.281087868
 13
369.8621602445
 23
31.281087868
  0
SOLID
  8
0
 62
7
  6
CONTINUOUS
 10
370.0355977445
 20
31.4101421267
 11
370.1512223035
 21
31.281087868
 12
369.8621602445
 22
31.281087868
 13
369.8621602445
 23
31.281087868
  0
SOLID
  8
0
 62
7
  6
CONTINUOUS
 10
359.4559102445
 20
31.3778792603
 11
358.9355977445
 21
31.3456148963
 12
359.6871602721
 22
31.4101421155
 13
359.6871602721
 23
31.4101421155
  0
SOLID
  8
0
 62
7
  6
CONTINUOUS
 10
358.9355977445
 20
31.3456148963
 11
359.0512227376
 21
31.4101421155
 12
359.6871602721
 22
31.4101421155
 13
359.6871602721
 23
31.4101421155
  0
SOLID
  8
0
 62
7
  6
CONTINUOUS
 10
359.4559102445
 20
31.3778792603
 11
359.3402852307
 21
31.3456148963
 12
358.9355977445
 22
31.3456148963
 13
358.9355977445
 23
31.3456148963
  0
SOLID
  8
0
 62
7
  6
CONTINUOUS
 10
358.8199727462
 20
31.2165607767
 11
358.9355977445
 21
31.3456148963
 12
359.3402852307
 22
31.3456148963
 13
359.3402852307
 23
31.3456148963
  0
SOLID
  8
0
 62
7
  6
CONTINUOUS
 10
363.1559103548
 20
31.3456149608
 11
363.8496603548
 21
31.4101420472
 12
363.6184102445
 22
31.3778792603
 13
363.6184102445
 23
31.3778792603
  0
SOLID
  8
0
 62
7
  6
CONTINUOUS
 10
363.6184102445
 20
31.3778792603
 11
363.5027853548
 21
31.3456149608
 12
363.1559103548
 22
31.3456149608
 13
363.1559103548
 23
31.3456149608
  0
SOLID
  8
0
 62
7
  6
CONTINUOUS
 10
363.1559103548
 20
31.2810878707
 11
363.1559103548
 21
31.3456149608
 12
363.5027853548
 22
31.3456149608
 13
363.5027853548
 23
31.3456149608
  0
SOLID
  8
0
 62
7
  6
CONTINUOUS
 10
363.5027853548
 20
31.3456149608
 11
363.4449727445
 21
31.2810878707
 12
363.1559103548
 22
31.2810878707
 13
363.1559103548
 23
31.2810878707
  0
SOLID
  8
0
 62
7
  6
CONTINUOUS
 10
368.3012227445
 20
31.3456149608
 11
368.9949727445
 21
31.4101420472
 12
368.7637229651
 22
31.3778792603
 13
368.7637229651
 23
31.3778792603
  0
SOLID
  8
0
 62
7
  6
CONTINUOUS
 10
368.7637229651
 20
31.3778792603
 11
368.6480977445
 21
31.3456149608
 12
368.3012227445
 22
31.3456149608
 13
368.3012227445
 23
31.3456149608
  0
SOLID
  8
0
 62
7
  6
CONTINUOUS
 10
368.3012227445
 20
31.2810878707
 11
368.3012227445
 21
31.3456149608
 12
368.6480977445
 22
31.3456149608
 13
368.6480977445
 23
31.3456149608
  0
SOLID
  8
0
 62
7
  6
CONTINUOUS
 10
368.6480977445
 20
31.3456149608
 11
368.5902854651
 21
31.2810878707
 12
368.3012227445
 22
31.2810878707
 13
368.3012227445
 23
31.2810878707
  0
SOLID
  8
0
 62
7
  6
CONTINUOUS
 10
368.4168479651
 20
31.1520336865
 11
368.3012227445
 21
31.2810878707
 12
368.5902854651
 22
31.2810878707
 13
368.5902854651
 23
31.2810878707
  0
SOLID
  8
0
 62
7
  6
CONTINUOUS
 10
358.8199727462
 20
31.2165607767
 11
359.3402852307
 21
31.345614957
 12
359.1668477307
 22
31.2488235635
 13
359.1668477307
 23
31.2488235635
  0
SOLID
  8
0
 62
7
  6
CONTINUOUS
 10
359.1668477307
 20
31.2488235635
 11
359.1090352445
 21
31.1842964734
 12
358.8199727462
 22
31.2165607767
 13
358.8199727462
 23
31.2165607767
  0
SOLID
  8
0
 62
7
  6
CONTINUOUS
 10
358.7621602445
 20
31.0229779898
 11
358.8199727462
 21
31.2165607767
 12
359.1090352445
 22
31.1842964734
 13
359.1090352445
 23
31.1842964734
  0
SOLID
  8
0
 62
7
  6
CONTINUOUS
 10
363.6184102445
 20
31.1520336865
 11
363.9652852445
 21
31.1842964611
 12
364.6012229651
 22
31.1842964611
 13
364.6012229651
 23
31.1842964611
  0
SOLID
  8
0
 62
7
  6
CONTINUOUS
 10
363.6184102445
 20
31.1520336865
 11
364.6012229651
 21
31.1842964611
 12
363.3871601343
 22
31.0875057863
 13
363.3871601343
 23
31.0875057863
  0
SOLID
  8
0
 62
7
  6
CONTINUOUS
 10
363.3871601343
 20
31.0875057863
 11
364.6012229651
 21
31.1842964611
 12
363.9652852445
 22
31.0552422808
 13
363.9652852445
 23
31.0552422808
  0
SOLID
  8
0
 62
7
  6
CONTINUOUS
 10
364.6012229651
 20
31.1842964611
 11
364.6012229651
 21
31.0552422808
 12
363.9652852445
 22
31.0552422808
 13
363.9652852445
 23
31.0552422808
  0
SOLID
  8
0
 62
7
  6
CONTINUOUS
 10
368.4168479651
 20
31.1520338754
 11
368.5902854651
 21
31.2810878668
 12
368.6480977445
 22
31.2165607767
 13
368.6480977445
 23
31.2165607767
  0
SOLID
  8
0
 62
7
  6
CONTINUOUS
 10
368.6480977445
 20
31.2165607767
 11
368.8215352445
 21
31.1520338754
 12
368.4168479651
 22
31.1520338754
 13
368.4168479651
 23
31.1520338754
  0
SOLID
  8
0
 62
7
  6
CONTINUOUS
 10
368.6480977445
 20
31.0552422931
 11
368.4168479651
 21
31.1520338754
 12
368.8215352445
 22
31.1520338754
 13
368.8215352445
 23
31.1520338754
  0
SOLID
  8
0
 62
7
  6
CONTINUOUS
 10
368.8215352445
 20
31.1520338754
 11
369.8043479651
 21
30.9907152029
 12
368.6480977445
 22
31.0552422931
 13
368.6480977445
 23
31.0552422931
  0
SOLID
  8
0
 62
7
  6
CONTINUOUS
 10
369.6309104651
 20
30.8939239876
 11
368.6480977445
 21
31.0552422931
 12
369.8043479651
 22
30.9907152029
 13
369.8043479651
 23
30.9907152029
  0
SOLID
  8
0
 62
7
  6
CONTINUOUS
 10
369.8043479651
 20
30.9907152029
 11
370.0355977445
 21
30.8939239876
 12
369.6309104651
 22
30.8939239876
 13
369.6309104651
 23
30.8939239876
  0
SOLID
  8
0
 62
7
  6
CONTINUOUS
 10
369.8043479651
 20
30.8293967193
 11
369.6309104651
 21
30.8939239876
 12
370.0355977445
 22
30.8939239876
 13
370.0355977445
 23
30.8939239876
  0
SOLID
  8
0
 62
7
  6
CONTINUOUS
 10
369.8043479651
 20
30.8293967193
 11
370.0355977445
 21
30.8939239876
 12
369.8621602445
 22
30.7648682694
 13
369.8621602445
 23
30.7648682694
  0
SOLID
  8
0
 62
7
  6
CONTINUOUS
 10
370.0355977445
 20
30.8939239876
 11
370.1512223035
 21
30.7648682694
 12
369.8621602445
 22
30.7648682694
 13
369.8621602445
 23
30.7648682694
  0
SOLID
  8
0
 62
7
  6
CONTINUOUS
 10
369.8043479651
 20
30.7003411846
 11
369.8621602445
 21
30.7648682694
 12
370.1512223035
 22
30.7648682694
 13
370.1512223035
 23
30.7648682694
  0
SOLID
  8
0
 62
7
  6
CONTINUOUS
 10
370.1512223035
 20
30.7648682694
 11
370.1512223035
 21
30.7003411846
 12
369.8043479651
 22
30.7003411846
 13
369.8043479651
 23
30.7003411846
  0
SOLID
  8
0
 62
7
  6
CONTINUOUS
 10
369.6887227445
 20
30.6680782357
 11
369.8043479651
 21
30.7003411846
 12
370.1512223035
 22
30.7003411846
 13
370.1512223035
 23
30.7003411846
  0
SOLID
  8
0
 62
7
  6
CONTINUOUS
 10
369.6887227445
 20
30.6680782357
 11
370.1512223035
 21
30.7003411846
 12
369.4574729651
 22
30.6358140998
 13
369.4574729651
 23
30.6358140998
  0
SOLID
  8
0
 62
7
  6
CONTINUOUS
 10
370.1512223035
 20
30.7003411846
 11
370.0355977445
 21
30.6035511455
 12
369.4574729651
 22
30.6358140998
 13
369.4574729651
 23
30.6358140998
  0
SOLID
  8
0
 62
7
  6
CONTINUOUS
 10
370.0355977445
 20
30.6035511455
 11
368.5902854651
 21
30.5712868422
 12
369.4574729651
 22
30.6358140998
 13
369.4574729651
 23
30.6358140998
  0
SOLID
  8
0
 62
7
  6
CONTINUOUS
 10
369.4574729651
 20
30.6358140998
 11
368.5902854651
 21
30.5712868422
 12
369.1105979651
 22
30.6358140998
 13
369.1105979651
 23
30.6358140998
  0
SOLID
  8
0
 62
7
  6
CONTINUOUS
 10
368.5902854651
 20
30.5712868422
 11
368.4168479651
 21
30.6358140998
 12
369.1105979651
 22
30.6358140998
 13
369.1105979651
 23
30.6358140998
  0
SOLID
  8
0
 62
7
  6
CONTINUOUS
 10
368.5902854651
 20
30.5712868422
 11
370.0355977445
 21
30.6035511455
 12
368.7637229651
 22
30.5390223111
 13
368.7637229651
 23
30.5390223111
  0
SOLID
  8
0
 62
7
  6
CONTINUOUS
 10
370.0355977445
 20
30.6035511455
 11
369.8043479651
 21
30.5390223111
 12
368.7637229651
 22
30.5390223111
 13
368.7637229651
 23
30.5390223111
  0
SOLID
  8
0
 62
7
  6
CONTINUOUS
 10
369.1105979651
 20
30.5067599302
 11
368.7637229651
 21
30.5390223111
 12
369.8043479651
 22
30.5390223111
 13
369.8043479651
 23
30.5390223111
  0
SOLID
  8
0
 62
7
  6
CONTINUOUS
 10
369.8043479651
 20
30.5390223111
 11
369.4574729651
 21
30.5067599302
 12
369.1105979651
 22
30.5067599302
 13
369.1105979651
 23
30.5067599302
  0
SOLID
  8
0
 62
7
  6
CONTINUOUS
 10
358.7621602445
 20
31.0229779898
 11
359.1090352445
 21
31.1842964734
 12
359.0512227376
 22
31.0552422931
 13
359.0512227376
 23
31.0552422931
  0
SOLID
  8
0
 62
7
  6
CONTINUOUS
 10
359.0512227376
 20
31.0552422931
 11
359.0512227376
 21
30.9584509954
 12
358.7621602445
 22
31.0229779898
 13
358.7621602445
 23
31.0229779898
  0
SOLID
  8
0
 62
7
  6
CONTINUOUS
 10
358.8199727462
 20
30.8293967193
 11
358.7621602445
 21
31.0229779898
 12
359.0512227376
 22
30.9584509954
 13
359.0512227376
 23
30.9584509954
  0
SOLID
  8
0
 62
7
  6
CONTINUOUS
 10
359.0512227376
 20
30.9584509954
 11
359.1668477307
 21
30.797132416
 12
358.8199727462
 22
30.8293967193
 13
358.8199727462
 23
30.8293967193
  0
SOLID
  8
0
 62
7
  6
CONTINUOUS
 10
358.9355977445
 20
30.7003413087
 11
358.8199727462
 21
30.8293967193
 12
359.1668477307
 22
30.797132416
 13
359.1668477307
 23
30.797132416
  0
SOLID
  8
0
 62
7
  6
CONTINUOUS
 10
359.1668477307
 20
30.797132416
 11
359.3402852307
 21
30.7003413087
 12
358.9355977445
 22
30.7003413087
 13
358.9355977445
 23
30.7003413087
  0
SOLID
  8
0
 62
7
  6
CONTINUOUS
 10
359.0512227376
 20
30.6358140759
 11
358.9355977445
 21
30.7003413087
 12
359.3402852307
 22
30.7003413087
 13
359.3402852307
 23
30.7003413087
  0
SOLID
  8
0
 62
7
  6
CONTINUOUS
 10
359.3402852307
 20
30.7003413087
 11
359.6871602721
 21
30.6358140759
 12
359.0512227376
 22
30.6358140759
 13
359.0512227376
 23
30.6358140759
  0
SOLID
  8
0
 62
7
  6
CONTINUOUS
 10
359.2246602583
 20
30.5712868422
 11
359.0512227376
 21
30.6358140759
 12
359.6871602721
 22
30.6358140759
 13
359.6871602721
 23
30.6358140759
  0
SOLID
  8
0
 62
7
  6
CONTINUOUS
 10
363.2715352445
 20
31.0229779808
 11
363.3871601343
 21
31.0875057863
 12
363.9652852445
 22
31.0552422931
 13
363.9652852445
 23
31.0552422931
  0
SOLID
  8
0
 62
7
  6
CONTINUOUS
 10
363.9652852445
 20
31.0552422931
 11
363.7340351343
 21
31.0229779808
 12
363.2715352445
 22
31.0229779808
 13
363.2715352445
 23
31.0229779808
  0
SOLID
  8
0
 62
7
  6
CONTINUOUS
 10
363.1559103548
 20
30.8939238094
 11
363.2715352445
 21
31.0229779808
 12
363.7340351343
 22
31.0229779808
 13
363.7340351343
 23
31.0229779808
  0
SOLID
  8
0
 62
7
  6
CONTINUOUS
 10
363.5027853548
 20
30.926187309
 11
363.1559103548
 21
30.8939238094
 12
363.6184102445
 22
30.9907152029
 13
363.6184102445
 23
30.9907152029
  0
SOLID
  8
0
 62
7
  6
CONTINUOUS
 10
363.1559103548
 20
30.8939238094
 11
363.7340351343
 21
31.0229779898
 12
363.6184102445
 22
30.9907152029
 13
363.6184102445
 23
30.9907152029
  0
SOLID
  8
0
 62
7
  6
CONTINUOUS
 10
363.5027853548
 20
30.926187309
 11
363.4449727445
 21
30.8293967193
 12
363.1559103548
 22
30.8939238094
 13
363.1559103548
 23
30.8939238094
  0
SOLID
  8
0
 62
7
  6
CONTINUOUS
 10
363.1559103548
 20
30.797132416
 11
363.1559103548
 21
30.8939238094
 12
363.4449727445
 22
30.8293967193
 13
363.4449727445
 23
30.8293967193
  0
SOLID
  8
0
 62
7
  6
CONTINUOUS
 10
363.4449727445
 20
30.8293967193
 11
363.4449727445
 21
30.7648681127
 12
363.1559103548
 22
30.797132416
 13
363.1559103548
 23
30.797132416
  0
SOLID
  8
0
 62
7
  6
CONTINUOUS
 10
363.2137226343
 20
30.6680782357
 11
363.1559103548
 21
30.797132416
 12
363.4449727445
 22
30.7648681127
 13
363.4449727445
 23
30.7648681127
  0
SOLID
  8
0
 62
7
  6
CONTINUOUS
 10
364.6012229651
 20
30.8616599362
 11
364.890285024
 21
30.7648681127
 12
364.543410024
 22
30.797132416
 13
364.543410024
 23
30.797132416
  0
SOLID
  8
0
 62
7
  6
CONTINUOUS
 10
364.369972524
 20
30.7003410226
 11
364.543410024
 21
30.797132416
 12
364.890285024
 22
30.7648681127
 13
364.890285024
 23
30.7648681127
  0
SOLID
  8
0
 62
7
  6
CONTINUOUS
 10
364.369972524
 20
30.7003410226
 11
364.890285024
 21
30.7648681127
 12
364.6012229651
 22
30.6680782357
 13
364.6012229651
 23
30.6680782357
  0
SOLID
  8
0
 62
7
  6
CONTINUOUS
 10
364.890285024
 20
30.7648681127
 11
364.9480979651
 21
30.6035511455
 12
364.6012229651
 22
30.6680782357
 13
364.6012229651
 23
30.6680782357
  0
SOLID
  8
0
 62
7
  6
CONTINUOUS
 10
364.6590352445
 20
30.5712868422
 11
364.6012229651
 21
30.6680782357
 12
364.9480979651
 22
30.6035511455
 13
364.9480979651
 23
30.6035511455
  0
SOLID
  8
0
 62
7
  6
CONTINUOUS
 10
364.6590352445
 20
30.5712868422
 11
364.9480979651
 21
30.6035511455
 12
364.716847524
 22
30.5067598731
 13
364.716847524
 23
30.5067598731
  0
SOLID
  8
0
 62
7
  6
CONTINUOUS
 10
364.9480979651
 20
30.6035511455
 11
365.0059102445
 21
30.5067598731
 12
364.716847524
 22
30.5067598731
 13
364.716847524
 23
30.5067598731
  0
SOLID
  8
0
 62
7
  6
CONTINUOUS
 10
360.2652852997
 20
30.7326051679
 11
360.3230977445
 21
30.8293966612
 12
360.6121602997
 22
30.8293966612
 13
360.6121602997
 23
30.8293966612
  0
SOLID
  8
0
 62
7
  6
CONTINUOUS
 10
360.6121602997
 20
30.8293966612
 11
360.5543476894
 21
30.7003410226
 12
360.2652852997
 22
30.7326051679
 13
360.2652852997
 23
30.7326051679
  0
SOLID
  8
0
 62
7
  6
CONTINUOUS
 10
360.091847717
 20
30.6680782357
 11
360.2652852997
 21
30.7326051679
 12
360.5543476894
 22
30.7003410226
 13
360.5543476894
 23
30.7003410226
  0
SOLID
  8
0
 62
7
  6
CONTINUOUS
 10
360.091847717
 20
30.6680782357
 11
360.5543476894
 21
30.7003410226
 12
359.6871602721
 22
30.6358139324
 13
359.6871602721
 23
30.6358139324
  0
SOLID
  8
0
 62
7
  6
CONTINUOUS
 10
360.5543476894
 20
30.7003410226
 11
360.3809101894
 21
30.6035511455
 12
359.6871602721
 22
30.6358139324
 13
359.6871602721
 23
30.6358139324
  0
SOLID
  8
0
 62
7
  6
CONTINUOUS
 10
359.2246602583
 20
30.5712868422
 11
359.6871602721
 21
30.6358139324
 12
360.3809101894
 22
30.6035511455
 13
360.3809101894
 23
30.6035511455
  0
SOLID
  8
0
 62
7
  6
CONTINUOUS
 10
359.2246602583
 20
30.5712868422
 11
360.3809101894
 21
30.6035511455
 12
359.3980977583
 22
30.5390224228
 13
359.3980977583
 23
30.5390224228
  0
SOLID
  8
0
 62
7
  6
CONTINUOUS
 10
360.3809101894
 20
30.6035511455
 11
360.1496602445
 21
30.5390224228
 12
359.3980977583
 22
30.5390224228
 13
359.3980977583
 23
30.5390224228
  0
SOLID
  8
0
 62
7
  6
CONTINUOUS
 10
359.744972717
 20
30.5067597521
 11
359.3980977583
 21
30.5390224228
 12
360.1496602445
 22
30.5390224228
 13
360.1496602445
 23
30.5390224228
  0
SOLID
  8
0
 62
7
  6
CONTINUOUS
 10
363.2137226343
 20
30.6680782357
 11
363.4449727445
 21
30.7648681127
 12
363.5027853548
 22
30.7003410226
 13
363.5027853548
 23
30.7003410226
  0
SOLID
  8
0
 62
7
  6
CONTINUOUS
 10
363.5027853548
 20
30.7003410226
 11
363.7340351343
 21
30.6358139324
 12
363.2137226343
 22
30.6680782357
 13
363.2137226343
 23
30.6680782357
  0
SOLID
  8
0
 62
7
  6
CONTINUOUS
 10
363.3871601343
 20
30.5712868422
 11
363.2137226343
 21
30.6680782357
 12
363.7340351343
 22
30.6358139324
 13
363.7340351343
 23
30.6358139324
  0
SOLID
  8
0
 62
7
  6
CONTINUOUS
 10
364.0809101343
 20
30.6358139363
 11
364.369972524
 21
30.7003410226
 12
364.6012229651
 22
30.6680782357
 13
364.6012229651
 23
30.6680782357
  0
SOLID
  8
0
 62
7
  6
CONTINUOUS
 10
364.6012229651
 20
30.6680782357
 11
364.543410024
 21
30.6035511455
 12
364.0809101343
 22
30.6358139363
 13
364.0809101343
 23
30.6358139363
  0
SOLID
  8
0
 62
7
  6
CONTINUOUS
 10
364.543410024
 20
30.6035511455
 11
363.3871601343
 21
30.5712868422
 12
364.0809101343
 22
30.6358139363
 13
364.0809101343
 23
30.6358139363
  0
SOLID
  8
0
 62
7
  6
CONTINUOUS
 10
363.3871601343
 20
30.5712868422
 11
363.7340351343
 21
30.6358139363
 12
364.0809101343
 22
30.6358139363
 13
364.0809101343
 23
30.6358139363
  0
SOLID
  8
0
 62
7
  6
CONTINUOUS
 10
363.3871601343
 20
30.5712868422
 11
364.543410024
 21
30.6035511455
 12
363.5027853548
 22
30.5390225267
 13
363.5027853548
 23
30.5390225267
  0
SOLID
  8
0
 62
7
  6
CONTINUOUS
 10
364.543410024
 20
30.6035511455
 11
364.369972524
 21
30.5390225267
 12
363.5027853548
 22
30.5390225267
 13
363.5027853548
 23
30.5390225267
  0
SOLID
  8
0
 62
7
  6
CONTINUOUS
 10
363.7340351343
 20
30.5067596914
 11
363.5027853548
 21
30.5390225267
 12
364.369972524
 22
30.5390225267
 13
364.369972524
 23
30.5390225267
  0
SOLID
  8
0
 62
7
  6
CONTINUOUS
 10
364.369972524
 20
30.5390225267
 11
364.0809101343
 21
30.5067596914
 12
363.7340351343
 22
30.5067596914
 13
363.7340351343
 23
30.5067596914
  0
SOLID
  8
0
 62
7
  6
CONTINUOUS
 10
368.7637229651
 20
30.6680782357
 11
368.4168479651
 21
30.6358138717
 12
368.6480977445
 22
30.7003410226
 13
368.6480977445
 23
30.7003410226
  0
SOLID
  8
0
 62
7
  6
CONTINUOUS
 10
368.6480977445
 20
30.7003410226
 11
368.4168479651
 21
30.6358138717
 12
368.5902854651
 22
30.7648680521
 13
368.5902854651
 23
30.7648680521
  0
SOLID
  8
0
 62
7
  6
CONTINUOUS
 10
368.4168479651
 20
30.6358138717
 11
368.3012227445
 21
30.7648680521
 12
368.5902854651
 22
30.7648680521
 13
368.5902854651
 23
30.7648680521
  0
SOLID
  8
0
 62
7
  6
CONTINUOUS
 10
368.7637229651
 20
30.6680782357
 11
369.1105979651
 21
30.6358138717
 12
368.4168479651
 22
30.6358138717
 13
368.4168479651
 23
30.6358138717
  0
SOLID
  8
0
 62
7
  6
CONTINUOUS
 10
365.4684104651
 20
30.5067597521
 11
365.4684104651
 21
31.5391977439
 12
365.757472524
 22
30.5067597521
 13
365.757472524
 23
31.5391977439
  0
ENDBLK
  8
0
  6
BYBLOCK
 62
0
  0
BLOCK
  8
0
 62
2
  6
CONTINUOUS
  2
SYMBOL_0_BL0
 70
64
 10
240.8592468615
 20
19.762288695
  0
TEXT
  8
0
 62
7
  6
CONTINUOUS
 10
227.1239507038
 20
19.1357028027
  7
TEXTSTYLE_3
 40
2.7338706658
  1
Ammeraal Beltech
 41
1.0
 51
15.0
 72
0
  0
TEXT
  8
0
 62
7
  6
CONTINUOUS
 10
237.9247515296
 20
16.8621661299
  7
TEXTSTYLE_4
 40
1.0935482663
  1
Innovation & Service in Belting
 41
1.0
 72
0
  0
LINE
  8
0
 62
7
  6
CONTINUOUS
 10
221.0994100525
 20
19.9022961113
 11
221.8775620458
 21
23.5632134089
  0
LINE
  8
0
 62
7
  6
CONTINUOUS
 10
231.9727303357
 20
27.2266073205
 11
222.3653797889
 21
24.1049898993
  0
LINE
  8
0
 62
7
  6
CONTINUOUS
 10
221.3246933848
 20
19.2089453082
 11
228.8317686459
 21
12.4495443822
  0
LINE
  8
0
 62
7
  6
CONTINUOUS
 10
221.5872277955
 20
20.4440726016
 11
232.3954971607
 21
23.9558922005
  0
LINE
  8
0
 62
7
  6
CONTINUOUS
 10
232.3912920235
 20
13.6061036368
 11
223.9458323548
 21
21.2104296785
  0
LINE
  8
0
 62
7
  6
CONTINUOUS
 10
232.9111147433
 20
26.3816822048
 11
231.9345552061
 21
21.7873308023
  0
LINE
  8
0
 62
7
  6
CONTINUOUS
 10
231.2347532584
 20
18.4950214885
 11
230.5483050469
 21
15.2655365641
  0
LINE
  8
0
 62
7
  6
CONTINUOUS
 10
233.5922108419
 20
13.9963058145
 11
234.5484423775
 21
18.4950214885
  0
LINE
  8
0
 62
7
  6
CONTINUOUS
 10
235.2482443252
 20
21.7873308023
 11
235.6924861276
 21
23.8773241617
  0
LINE
  8
0
 62
7
  6
CONTINUOUS
 10
229.5448697213
 20
12.2979700695
 11
233.1043930989
 21
13.4545293241
  0
LINE
  8
0
 62
7
  6
CONTINUOUS
 10
232.685831411
 20
27.0750330078
 11
235.4672027953
 21
24.5706749648
  0
ARC
  8
0
 62
7
  6
CONTINUOUS
 10
222.5906631212
 20
23.4116390962
 40
0.7290321776
 50
108.0
 51
168.0
  0
ARC
  8
0
 62
7
  6
CONTINUOUS
 10
232.198013668
 20
26.5332565175
 40
0.7290321776
 50
348.0
 51
108.0
  0
ARC
  8
0
 62
7
  6
CONTINUOUS
 10
234.9793850522
 20
24.0288984744
 40
0.7290321776
 50
348.0
 51
48.0
  0
ARC
  8
0
 62
7
  6
CONTINUOUS
 10
229.319586389
 20
12.9913208726
 40
0.7290321776
 50
228.0
 51
288.0
  0
ARC
  8
0
 62
7
  6
CONTINUOUS
 10
221.8125111278
 20
19.7507217986
 40
0.7290321776
 50
108.0
 51
228.0
  0
ARC
  8
0
 62
7
  6
CONTINUOUS
 10
232.8791097665
 20
14.1478801272
 40
0.7290321776
 50
228.0
 51
348.0
  0
ENDBLK
  8
0
  6
BYBLOCK
 62
0
  0
ENDSEC
  0
SECTION
  2
ENTITIES
  0
TEXT
  8
0
 62
5
  6
CONTINUOUS
 10
304.937007874
 20
25.636
  7
TEXTSTYLE_2
 40
2.8
  1
Scale :
 41
0.6
 51
0.000019
 72
0
  0
TEXT
  8
0
 62
5
  6
CONTINUOUS
 10
324.937007874
 20
25.636
  7
TEXTSTYLE_2
 40
2.8
  1
Belt type:
 41
0.6
 51
0.000019
 72
0
  0
INSERT
  8
0
 62
2
  6
CONTINUOUS
  2
SYMBOL_0_BL0
 10
240.8592468615
 20
19.762288695
  0
INSERT
  8
0
 62
2
  6
CONTINUOUS
  2
SYMBOL_5_BL1
 10
382.7840918555
 20
35.5067593403
  0
LINE
  8
0
 62
2
  6
CONTINUOUS
 10
218.937007874
 20
30.0
 11
408.937007874
 21
30.0
  0
LINE
  8
0
 62
2
  6
CONTINUOUS
 10
218.937007874
 20
30.0
 11
218.937007874
 21
10.0
  0
LINE
  8
0
 62
2
  6
CONTINUOUS
 10
218.937007874
 20
10.0
 11
408.937007874
 21
10.0
  0
LINE
  8
0
 62
2
  6
CONTINUOUS
 10
303.937007874
 20
30.0
 11
303.937007874
 21
10.0
  0
LINE
  8
0
 62
2
  6
CONTINUOUS
 10
323.937007874
 20
30.0
 11
323.937007874
 21
10.0
  0
LINE
  8
0
 62
2
  6
CONTINUOUS
 10
408.937007874
 20
30.0
 11
408.937007874
 21
10.0
  0
TEXT
  8
0
 62
5
  6
CONTINUOUS
 10
221.937007874
 20
23.303
  7
TEXTSTYLE_5
 40
1.52
  1
                                                                     Ammeraal Beltech Modular A/S
 41
1.0
 72
0
  0
TEXT
  8
0
 62
5
  6
CONTINUOUS
 10
221.937007874
 20
20.595
  7
TEXTSTYLE_5
 40
1.5
  1
                                                                      Hjulmagervej 21, 7100 Vejle,  DK
 41
1.0
 72
0
  0
TEXT
  8
0
 62
5
  6
CONTINUOUS
 10
221.937007874
 20
17.881
  7
TEXTSTYLE_5
 40
1.495
  1
                                                                      tel: 
 41
1.0
 72
0
  0
TEXT
  8
0
 62
5
  6
CONTINUOUS
 10
266.9239544389
 20
17.881
  7
TEXTSTYLE_5
 40
1.51
  1
+45 75723100     fax: +45 75723348
 41
1.0
 72
0
  0
TEXT
  8
0
 62
5
  6
CONTINUOUS
 10
221.937007874
 20
15.177
  7
TEXTSTYLE_5
 40
1.5
  1
                                                                      admin@unichains.dk  www.unichains.com
 41
1.0
 72
0
  0
TEXT
  8
0
 62
5
  6
CONTINUOUS
 10
308.687007874
 20
13.75
  7
TEXTSTYLE_6
 40
5.0
  1
1:1
 41
0.7
 72
1
 11
313.937007874
 21
13.75
  0
TEXT
  8
0
 62
5
  6
CONTINUOUS
 10
326.937007874
 20
13.75
  7
TEXTSTYLE_7
 40
7.5
  1
Sprocket Z10
 41
0.6361111111
 72
0
  0
LINE
  8
0
 62
7
  6
CONTINUOUS
 10
0.0
 20
0.0
 11
0.0
 21
297.0
  0
LINE
  8
0
 62
7
  6
CONTINUOUS
 10
8.937007874
 20
10.0
 11
8.937007874
 21
287.0
  0
LINE
  8
0
 62
7
  6
CONTINUOUS
 10
0.0
 20
0.0
 11
420.0
 21
0.0
  0
LINE
  8
0
 62
7
  6
CONTINUOUS
 10
408.937007874
 20
10.0
 11
8.937007874
 21
10.0
  0
LINE
  8
0
 62
7
  6
CONTINUOUS
 10
218.937007874
 20
30.0
 11
408.937007874
 21
30.0
  0
LINE
  8
0
 62
7
  6
CONTINUOUS
 10
210.0
 20
297.0
 11
210.0
 21
292.0
  0
LINE
  8
0
 62
7
  6
CONTINUOUS
 10
210.0
 20
0.0
 11
210.0
 21
5.0
  0
LINE
  8
0
 62
7
  6
CONTINUOUS
 10
8.937007874
 20
287.0
 11
408.937007874
 21
287.0
  0
LINE
  8
0
 62
7
  6
CONTINUOUS
 10
0.0
 20
297.0
 11
420.0
 21
297.0
  0
LINE
  8
0
 62
7
  6
CONTINUOUS
 10
408.937007874
 20
287.0
 11
408.937007874
 21
10.0
  0
LINE
  8
0
 62
7
  6
CONTINUOUS
 10
420.0
 20
0.0
 11
420.0
 21
297.0
  0
LINE
  8
0
 62
7
  6
CONTINUOUS
 10
62.7944885888
 20
167.1669738638
 11
71.9922579093
 21
195.4747970801
  0
LINE
  8
0
 62
7
  6
CONTINUOUS
 10
97.4765009942
 20
237.6056888076
 11
97.3362449998
 21
237.3850601467
  0
LINE
  8
0
 62
7
  6
CONTINUOUS
 10
75.4047461591
 20
211.6140151289
 11
99.4848188607
 21
229.1092120241
  0
LINE
  8
0
 62
7
  6
CONTINUOUS
 10
144.8659214285
 20
248.2145571687
 11
144.6227696724
 21
248.1185052376
  0
LINE
  8
0
 62
7
  6
CONTINUOUS
 10
163.2611877251
 20
99.8103034346
 11
133.4965809628
 21
99.8103034346
  0
LINE
  8
0
 62
7
  6
CONTINUOUS
 10
85.552657646
 20
111.0280973514
 11
85.8058294575
 21
110.9628839797
  0
LINE
  8
0
 62
7
  6
CONTINUOUS
 10
117.0927556073
 20
98.0684799684
 11
93.0126829057
 21
115.5636768636
  0
LINE
  8
0
 62
7
  6
CONTINUOUS
 10
60.8188879929
 20
152.8197938443
 11
60.9853768327
 21
152.6182244612
  0
LINE
  8
0
 62
7
  6
CONTINUOUS
 10
78.7178912747
 20
123.7964387033
 11
69.5201219543
 21
152.1042619196
  0
LINE
  8
0
 62
7
  6
CONTINUOUS
 10
121.8735476916
 20
231.0190009965
 11
121.297804395
 21
230.7443335329
  0
LINE
  8
0
 62
7
  6
CONTINUOUS
 10
112.3988371133
 20
227.7711227145
 11
111.8268144362
 21
227.5192998424
  0
LINE
  8
0
 62
7
  6
CONTINUOUS
 10
112.0839953092
 20
226.9351063168
 11
112.6560179862
 21
227.1869291889
  0
LINE
  8
0
 62
7
  6
CONTINUOUS
 10
107.7090007437
 20
219.3322734301
 11
107.3501177727
 21
218.9614636832
  0
LINE
  8
0
 62
7
  6
CONTINUOUS
 10
107.6177889136
 20
218.5266032285
 11
107.9766719022
 21
218.8974129468
  0
LINE
  8
0
 62
7
  6
CONTINUOUS
 10
109.9175361561
 20
224.4902251717
 11
109.5290331878
 21
224.1505744024
  0
LINE
  8
0
 62
7
  6
CONTINUOUS
 10
109.7595789912
 20
223.6949429268
 11
110.1480819595
 21
224.0345936961
  0
LINE
  8
0
 62
7
  6
CONTINUOUS
 10
121.297804395
 20
230.7443335329
 11
120.8741673151
 21
230.3759329357
  0
LINE
  8
0
 62
7
  6
CONTINUOUS
 10
106.9667227994
 20
222.9228181698
 11
106.4344716037
 21
222.5951997734
  0
LINE
  8
0
 62
7
  6
CONTINUOUS
 10
104.3054673156
 20
221.2847264926
 11
103.7732162341
 21
220.9571081665
  0
LINE
  8
0
 62
7
  6
CONTINUOUS
 10
107.3501177727
 20
218.9614636832
 11
106.9243168465
 21
218.6993689849
  0
LINE
  8
0
 62
7
  6
CONTINUOUS
 10
107.1919879874
 20
218.2645085302
 11
107.6177889136
 21
218.5266032285
  0
LINE
  8
0
 62
7
  6
CONTINUOUS
 10
108.7887412701
 20
219.2473635318
 11
109.3209924659
 21
219.5749819282
  0
LINE
  8
0
 62
7
  6
CONTINUOUS
 10
121.6038969635
 20
230.0311552604
 11
122.0583313138
 21
230.2756668298
  0
LINE
  8
0
 62
7
  6
CONTINUOUS
 10
124.6824424652
 20
226.4554627967
 11
124.2280081149
 21
226.2109512273
  0
LINE
  8
0
 62
7
  6
CONTINUOUS
 10
130.0530302607
 20
230.1124178185
 11
129.7000100414
 21
229.9326994616
  0
LINE
  8
0
 62
7
  6
CONTINUOUS
 10
110.3636755753
 20
224.7159680722
 11
109.9175361561
 21
224.4902251717
  0
LINE
  8
0
 62
7
  6
CONTINUOUS
 10
108.9137229417
 20
223.982303888
 11
108.3560488273
 21
223.7001253432
  0
LINE
  8
0
 62
7
  6
CONTINUOUS
 10
110.2004154163
 20
220.0550732189
 11
110.7580895307
 21
220.3372517637
  0
LINE
  8
0
 62
7
  6
CONTINUOUS
 10
112.7657159596
 20
221.3530943312
 11
113.3233897549
 21
221.6352727146
  0
LINE
  8
0
 62
7
  6
CONTINUOUS
 10
124.4127917587
 20
225.4676169738
 11
124.9885350526
 21
225.7422844483
  0
LINE
  8
0
 62
7
  6
CONTINUOUS
 10
113.1703798763
 20
226.0185418105
 11
112.5983571992
 21
225.7667189385
  0
LINE
  8
0
 62
7
  6
CONTINUOUS
 10
114.2443149303
 20
222.0278800477
 11
114.8163376074
 21
222.2797029198
  0
LINE
  8
0
 62
7
  6
CONTINUOUS
 10
136.0132163917
 20
230.5532484141
 11
135.6442071407
 21
230.4091854566
  0
LINE
  8
0
 62
7
  6
CONTINUOUS
 10
136.1313700342
 20
227.8750023709
 11
135.7623607831
 21
227.7309394134
  0
LINE
  8
0
 62
7
  6
CONTINUOUS
 10
129.6852696373
 20
229.1567497763
 11
130.2857452684
 21
229.3720397839
  0
LINE
  8
0
 62
7
  6
CONTINUOUS
 10
106.6992693522
 20
218.1111289924
 11
107.1919879874
 21
218.2645085302
  0
LINE
  8
0
 62
7
  6
CONTINUOUS
 10
107.8945158415
 20
219.7462746387
 11
107.7090007437
 21
219.3322734301
  0
LINE
  8
0
 62
7
  6
CONTINUOUS
 10
109.5290331878
 20
224.1505744024
 11
109.3097020038
 21
223.7534517315
  0
LINE
  8
0
 62
7
  6
CONTINUOUS
 10
109.5402478073
 20
223.2978202558
 11
109.7595789912
 21
223.6949429268
  0
LINE
  8
0
 62
7
  6
CONTINUOUS
 10
107.9766719022
 20
218.8974129468
 11
108.1226546562
 21
219.1371754565
  0
LINE
  8
0
 62
7
  6
CONTINUOUS
 10
121.3015674417
 20
229.6929102124
 11
121.6038969635
 21
230.0311552604
  0
LINE
  8
0
 62
7
  6
CONTINUOUS
 10
124.9847719654
 20
226.7937079315
 11
124.6824424652
 21
226.4554627967
  0
LINE
  8
0
 62
7
  6
CONTINUOUS
 10
130.2857452684
 20
229.3720397839
 11
130.726165981
 21
229.8222655242
  0
LINE
  8
0
 62
7
  6
CONTINUOUS
 10
124.9885350526
 20
225.7422844483
 11
125.4121721243
 21
226.110685078
  0
LINE
  8
0
 62
7
  6
CONTINUOUS
 10
136.4103574596
 20
230.059633806
 11
136.654490078
 21
230.1981876994
  0
LINE
  8
0
 62
7
  6
CONTINUOUS
 10
152.4115607493
 20
227.9190930718
 11
152.9857145512
 21
228.1779772796
  0
LINE
  8
0
 62
7
  6
CONTINUOUS
 10
108.1226546562
 20
219.1371754565
 11
108.2412517872
 21
219.6598917327
  0
LINE
  8
0
 62
7
  6
CONTINUOUS
 10
109.3097020038
 20
223.7534517315
 11
109.201905196
 21
223.4127645434
  0
LINE
  8
0
 62
7
  6
CONTINUOUS
 10
109.4324509994
 20
222.9571330678
 11
109.5402478073
 21
223.2978202558
  0
LINE
  8
0
 62
7
  6
CONTINUOUS
 10
120.8741673151
 20
230.3759329357
 11
120.512124776
 21
229.759754283
  0
LINE
  8
0
 62
7
  6
CONTINUOUS
 10
125.4121721243
 20
226.110685078
 11
125.7742146527
 21
226.7268637741
  0
LINE
  8
0
 62
7
  6
CONTINUOUS
 10
130.2641598758
 20
230.4007112308
 11
130.0530302607
 21
230.1124178185
  0
LINE
  8
0
 62
7
  6
CONTINUOUS
 10
136.2517226468
 20
230.8193378206
 11
136.0132163917
 21
230.5532484141
  0
LINE
  8
0
 62
7
  6
CONTINUOUS
 10
136.3698762853
 20
228.1410918667
 11
136.1313700342
 21
227.8750023709
  0
LINE
  8
0
 62
7
  6
CONTINUOUS
 10
136.2900077087
 20
227.1152984042
 11
136.7726437224
 21
227.5199416116
  0
LINE
  8
0
 62
7
  6
CONTINUOUS
 10
152.7661321779
 20
228.8849657222
 11
152.4645027193
 21
228.6933748948
  0
LINE
  8
0
 62
7
  6
CONTINUOUS
 10
158.4948777526
 20
227.0939800418
 11
158.1758367983
 21
226.9330400672
  0
LINE
  8
0
 62
7
  6
CONTINUOUS
 10
157.6294149252
 20
224.5566712774
 11
157.310373942
 21
224.3957312182
  0
LINE
  8
0
 62
7
  6
CONTINUOUS
 10
157.1814095119
 20
223.6304306761
 11
157.7782735028
 21
223.8314882855
  0
LINE
  8
0
 62
7
  6
CONTINUOUS
 10
193.6977406752
 20
143.7878332916
 11
194.3149624736
 21
143.9307096739
  0
LINE
  8
0
 62
7
  6
CONTINUOUS
 10
107.9066628435
 20
220.2034673296
 11
107.8945158415
 21
219.7462746387
  0
LINE
  8
0
 62
7
  6
CONTINUOUS
 10
121.1513428347
 20
229.2609313386
 11
121.3015674417
 21
229.6929102124
  0
LINE
  8
0
 62
7
  6
CONTINUOUS
 10
130.726165981
 20
229.8222655242
 11
131.0246932574
 21
230.3810659128
  0
LINE
  8
0
 62
7
  6
CONTINUOUS
 10
136.654490078
 20
230.1981876994
 11
137.006620239
 21
230.7248571962
  0
LINE
  8
0
 62
7
  6
CONTINUOUS
 10
136.7726437224
 20
227.5199416116
 11
137.1247738814
 21
228.046611153
  0
LINE
  8
0
 62
7
  6
CONTINUOUS
 10
152.9857145512
 20
228.1779772796
 11
153.4672680328
 21
228.5896599892
  0
LINE
  8
0
 62
7
  6
CONTINUOUS
 10
158.6437363734
 20
226.3687971768
 11
159.1635076099
 21
226.7310322812
  0
LINE
  8
0
 62
7
  6
CONTINUOUS
 10
157.7782735028
 20
223.8314882855
 11
158.2980447537
 21
224.1937234322
  0
LINE
  8
0
 62
7
  6
CONTINUOUS
 10
191.542766021
 20
148.7958239767
 11
190.9255441815
 21
148.652947612
  0
LINE
  8
0
 62
7
  6
CONTINUOUS
 10
193.99390911
 20
144.4768791959
 11
193.5433300998
 21
144.3984251458
  0
LINE
  8
0
 62
7
  6
CONTINUOUS
 10
191.2465975862
 20
148.1067780723
 11
191.6971721594
 21
148.1852215731
  0
LINE
  8
0
 62
7
  6
CONTINUOUS
 10
120.512124776
 20
229.759754283
 11
120.392697353
 21
229.2038867285
  0
LINE
  8
0
 62
7
  6
CONTINUOUS
 10
140.0714853209
 20
231.657913167
 11
138.3452847173
 21
228.5200069194
  0
LINE
  8
0
 62
7
  6
CONTINUOUS
 10
138.71193037
 20
228.2528294174
 11
140.4381309622
 21
231.3907353075
  0
LINE
  8
0
 62
7
  6
CONTINUOUS
 10
191.0866838287
 20
144.5019549724
 11
191.7718271102
 21
144.4795752235
  0
LINE
  8
0
 62
7
  6
CONTINUOUS
 10
121.153224358
 20
228.7352196783
 11
121.1513428347
 21
229.2609313386
  0
LINE
  8
0
 62
7
  6
CONTINUOUS
 10
120.5965809628
 20
91.1918355162
 11
120.5965809628
 21
88.9991509146
  0
LINE
  8
0
 62
7
  6
CONTINUOUS
 10
125.0136891006
 20
227.1955309091
 11
124.9847719654
 21
226.7937079315
  0
LINE
  8
0
 62
7
  6
CONTINUOUS
 10
130.3333932228
 20
230.7975788843
 11
130.2641598758
 21
230.4007112308
  0
LINE
  8
0
 62
7
  6
CONTINUOUS
 10
131.0246932574
 20
230.3810659128
 11
131.0939266045
 21
230.7779335664
  0
LINE
  8
0
 62
7
  6
CONTINUOUS
 10
136.3597201893
 20
231.207453424
 11
136.2517226468
 21
230.8193378206
  0
LINE
  8
0
 62
7
  6
CONTINUOUS
 10
137.006620239
 20
230.7248571962
 11
137.1146177815
 21
231.1129727995
  0
LINE
  8
0
 62
7
  6
CONTINUOUS
 10
136.4778738278
 20
228.5292074701
 11
136.3698762853
 21
228.1410918667
  0
LINE
  8
0
 62
7
  6
CONTINUOUS
 10
137.1247738814
 20
228.046611153
 11
137.23277142
 21
228.4347268457
  0
LINE
  8
0
 62
7
  6
CONTINUOUS
 10
141.9760651196
 20
240.5185468002
 11
144.0318780882
 21
247.4722230875
  0
LINE
  8
0
 62
7
  6
CONTINUOUS
 10
146.8556989287
 20
232.3144501952
 11
144.3559435433
 21
227.2139896693
  0
LINE
  8
0
 62
7
  6
CONTINUOUS
 10
144.7764264205
 20
226.5207246165
 11
147.0761101096
 21
231.0022992061
  0
LINE
  8
0
 62
7
  6
CONTINUOUS
 10
152.9751613162
 20
229.2293550515
 11
152.7661321779
 21
228.8849657222
  0
LINE
  8
0
 62
7
  6
CONTINUOUS
 10
153.4672680328
 20
228.5896599892
 11
153.6762971711
 21
228.9340493185
  0
LINE
  8
0
 62
7
  6
CONTINUOUS
 10
77.5105553384
 20
116.1736196066
 11
76.2217276667
 21
114.3997005006
  0
LINE
  8
0
 62
7
  6
CONTINUOUS
 10
158.7368205475
 20
227.4160993904
 11
158.4948777526
 21
227.0939800418
  0
LINE
  8
0
 62
7
  6
CONTINUOUS
 10
159.1635076099
 20
226.7310322812
 11
159.4054504049
 21
227.0531516298
  0
LINE
  8
0
 62
7
  6
CONTINUOUS
 10
157.8713577202
 20
224.878790626
 11
157.6294149252
 21
224.5566712774
  0
LINE
  8
0
 62
7
  6
CONTINUOUS
 10
158.2980447537
 20
224.1937234322
 11
158.5399875775
 21
224.5158428654
  0
LINE
  8
DEFAULT_1
 62
2
  6
CENTER
 10
118.7421033633
 20
181.7778387824
 11
125.7040456151
 21
188.7397810342
  0
LINE
  8
DEFAULT_1
 62
2
  6
CENTER
 10
133.3642762803
 20
194.1372699996
 11
129.8287423744
 21
190.6017360937
  0
LINE
  8
DEFAULT_1
 62
2
  6
CENTER
 10
113.3446143978
 20
174.1176081171
 11
116.8801483037
 21
177.653142023
  0
LINE
  8
0
 62
7
  6
CONTINUOUS
 10
182.5789600183
 20
224.4149212605
 11
188.3294160181
 21
228.8321870059
  0
LINE
  8
0
 62
7
  6
CONTINUOUS
 10
57.3371526525
 20
161.7096379275
 11
55.251785674
 21
161.0320611223
  0
LINE
  8
0
 62
7
  6
CONTINUOUS
 10
197.35985982
 20
155.2961478107
 11
197.7601807818
 21
155.3413335262
  0
LINE
  8
0
 62
7
  6
CONTINUOUS
 10
197.9114597088
 20
156.0759182295
 11
197.5111387471
 21
156.0307325139
  0
LINE
  8
0
 62
7
  6
CONTINUOUS
 10
69.0312435141
 20
152.4495751632
 11
61.7826232243
 21
152.2559653372
  0
LINE
  8
0
 62
7
  6
CONTINUOUS
 10
191.1137133814
 20
150.4800959058
 11
197.4373902371
 21
150.5855771058
  0
LINE
  8
0
 62
7
  6
CONTINUOUS
 10
197.100509385
 20
151.2158588454
 11
193.4749489089
 21
151.1780963135
  0
LINE
  8
0
 62
7
  6
CONTINUOUS
 10
192.9503462954
 20
151.2122518357
 11
191.3389849949
 21
151.1954648318
  0
LINE
  8
0
 62
7
  6
CONTINUOUS
 10
192.2279093847
 20
148.7734441925
 11
191.542766021
 21
148.7958239767
  0
LINE
  8
0
 62
7
  6
CONTINUOUS
 10
193.2965245772
 20
143.8242237303
 11
193.6977406752
 21
143.7878332916
  0
LINE
  8
0
 62
7
  6
CONTINUOUS
 10
191.617421054
 20
145.0901775918
 11
191.2162047918
 21
145.1265681011
  0
LINE
  8
0
 62
7
  6
CONTINUOUS
 10
191.6971721594
 20
148.1852215731
 11
192.0983882573
 21
148.1488311344
  0
LINE
  8
0
 62
7
  6
CONTINUOUS
 10
209.2966018417
 20
128.8863508715
 11
207.2112348632
 21
129.5639276767
  0
LINE
  8
0
 62
7
  6
CONTINUOUS
 10
71.7997169751
 20
196.0415168999
 11
65.8216589744
 21
200.1455153662
  0
LINE
  8
DEFAULT_1
 62
2
  6
CENTER
 10
118.7421033633
 20
158.1927680869
 11
125.7040456151
 21
151.2308258351
  0
LINE
  8
DEFAULT_1
 62
2
  6
CENTER
 10
129.8287423744
 20
149.3688707756
 11
133.3642762803
 21
145.8333368696
  0
LINE
  8
DEFAULT_1
 62
2
  6
CENTER
 10
116.8801483037
 20
162.3174648463
 11
113.3446143978
 21
165.8529987522
  0
LINE
  8
0
 62
7
  6
CONTINUOUS
 10
170.1378321773
 20
96.3064780791
 11
171.4266598491
 21
94.5325589731
  0
LINE
  8
0
 62
7
  6
CONTINUOUS
 10
99.662159525
 20
229.680870711
 11
97.2380787831
 21
236.5148895452
  0
LINE
  8
0
 62
7
  6
CONTINUOUS
 10
120.392697353
 20
229.2038867285
 11
120.425376233
 21
228.5542856934
  0
LINE
  8
0
 62
7
  6
CONTINUOUS
 10
125.7742146527
 20
226.7268637741
 11
125.7415372257
 21
227.376464894
  0
LINE
  8
0
 62
4
  6
CONTINUOUS
 10
134.4965809628
 20
157.6603034346
 11
140.4965809628
 21
157.6603034346
  0
LINE
  8
0
 62
7
  6
CONTINUOUS
 10
132.4097183098
 20
232.8221674572
 11
132.6741574193
 21
226.8279976267
  0
LINE
  8
0
 62
7
  6
CONTINUOUS
 10
133.389670464
 20
227.6262656833
 11
133.3052750018
 21
229.5392986479
  0
LINE
  8
0
 62
7
  6
CONTINUOUS
 10
133.2715168216
 20
230.3045117265
 11
133.1927477188
 21
232.0900092673
  0
LINE
  8
0
 62
4
  6
CONTINUOUS
 10
134.4965809628
 20
182.3103034346
 11
134.4965809628
 21
179.0255260536
  0
LINE
  8
0
 62
4
  6
CONTINUOUS
 10
134.4965809628
 20
160.9450808157
 11
134.4965809628
 21
157.6603034346
  0
LINE
  8
1_AXIS
 62
2
  6
CONTINUOUS
 10
137.4965809628
 20
171.0353034346
 11
137.4965809628
 21
168.9353034346
  0
LINE
  8
1_AXIS
 62
2
  6
CENTER
 10
137.4965809628
 20
164.7353034346
 11
137.4965809628
 21
85.3117064053
  0
LINE
  8
1_AXIS
 62
2
  6
CENTER
 10
137.4965809628
 20
175.2353034346
 11
137.4965809628
 21
254.658900464
  0
LINE
  8
0
 62
7
  6
CONTINUOUS
 10
142.0153435464
 20
232.894609461
 11
141.3013013732
 21
226.9372489905
  0
LINE
  8
0
 62
7
  6
CONTINUOUS
 10
142.045971432
 20
226.8479937189
 11
142.6080897567
 21
231.5378308361
  0
LINE
  8
0
 62
7
  6
CONTINUOUS
 10
149.6097477956
 20
231.8530562718
 11
148.2416762891
 21
226.0111062247
  0
LINE
  8
0
 62
7
  6
CONTINUOUS
 10
148.971920045
 20
225.8400972864
 11
149.583186046
 21
228.4503303232
  0
LINE
  8
0
 62
7
  6
CONTINUOUS
 10
149.7578334515
 20
229.1961110914
 11
150.1944520469
 21
231.06056336
  0
LINE
  8
0
 62
7
  6
CONTINUOUS
 10
155.6462787354
 20
230.3586098093
 11
153.709290401
 21
224.6798708478
  0
LINE
  8
0
 62
7
  6
CONTINUOUS
 10
154.6664078771
 20
225.1626927035
 11
155.2845956563
 21
226.9750562397
  0
LINE
  8
0
 62
7
  6
CONTINUOUS
 10
155.5318707333
 20
227.7000015526
 11
156.1088460285
 21
229.3915409545
  0
LINE
  8
0
 62
7
  6
CONTINUOUS
 10
160.1043606144
 20
225.3638795405
 11
159.8540817645
 21
224.7766957513
  0
LINE
  8
0
 62
7
  6
CONTINUOUS
 10
164.3106420813
 20
227.0489182507
 11
161.5456159945
 21
221.7240116093
  0
LINE
  8
0
 62
7
  6
CONTINUOUS
 10
162.2112293246
 20
221.3783833484
 11
163.5054968652
 21
223.8708928604
  0
LINE
  8
0
 62
7
  6
CONTINUOUS
 10
163.8584788767
 20
224.5506680953
 11
164.9762554115
 21
226.7032899898
  0
LINE
  8
0
 62
7
  6
CONTINUOUS
 10
192.8296007451
 20
200.2095803823
 11
192.2577313741
 21
199.9260499619
  0
LINE
  8
0
 62
7
  6
CONTINUOUS
 10
188.3690190912
 20
197.998042825
 11
187.4540280177
 21
197.5443941126
  0
LINE
  8
0
 62
7
  6
CONTINUOUS
 10
194.7577718355
 20
194.0460877064
 11
193.8115293398
 21
193.6618592508
  0
LINE
  8
0
 62
7
  6
CONTINUOUS
 10
194.9216592719
 20
193.303162494
 11
190.3087280578
 21
191.4300491597
  0
LINE
  8
0
 62
7
  6
CONTINUOUS
 10
194.3821457464
 20
190.9223804692
 11
193.2899345052
 21
190.5658294726
  0
LINE
  8
0
 62
7
  6
CONTINUOUS
 10
193.6052472885
 20
190.0113071165
 11
194.4547449205
 21
190.2886245583
  0
LINE
  8
1_AXIS
 62
2
  6
CONTINUOUS
 10
138.5465809628
 20
169.9853034346
 11
136.4465809628
 21
169.9853034346
  0
LINE
  8
1_AXIS
 62
2
  6
CENTER
 10
132.2465809628
 20
169.9853034346
 11
52.8229839334
 21
169.9853034346
  0
LINE
  8
1_AXIS
 62
2
  6
CENTER
 10
142.7465809628
 20
169.9853034346
 11
222.1701779922
 21
169.9853034346
  0
LINE
  8
0
 62
7
  6
CONTINUOUS
 10
196.8597167527
 20
155.3991462889
 11
197.35985982
 21
155.2961478107
  0
LINE
  8
0
 62
7
  6
CONTINUOUS
 10
197.5111387471
 20
156.0307325139
 11
197.136031359
 21
156.1079813906
  0
LINE
  8
0
 62
7
  6
CONTINUOUS
 10
193.6401832251
 20
160.0184916465
 11
196.2659328399
 21
159.4777499422
  0
LINE
  8
0
 62
7
  6
CONTINUOUS
 10
197.0161469155
 20
159.323252333
 11
198.8916824547
 21
158.9370082378
  0
LINE
  8
0
 62
7
  6
CONTINUOUS
 10
193.098263228
 20
148.5354071133
 11
192.2279093847
 21
148.7734441925
  0
LINE
  8
0
 62
7
  6
CONTINUOUS
 10
190.5002616881
 20
144.7540132554
 11
191.0866838287
 21
144.5019549724
  0
LINE
  8
0
 62
7
  6
CONTINUOUS
 10
191.2162047918
 20
145.1265681011
 11
190.864351606
 21
145.2778030285
  0
LINE
  8
0
 62
7
  6
CONTINUOUS
 10
192.0983882573
 20
148.1488311344
 11
192.4502414431
 21
147.997596207
  0
LINE
  8
0
 62
7
  6
CONTINUOUS
 10
103.7732162341
 20
220.9571081665
 11
105.1115719151
 21
218.7828059311
  0
LINE
  8
0
 62
7
  6
CONTINUOUS
 10
105.6438229967
 20
219.1104242571
 11
104.3054673156
 21
221.2847264926
  0
LINE
  8
0
 62
7
  6
CONTINUOUS
 10
106.4344716037
 20
222.5951997734
 11
107.9066628435
 21
220.2034673296
  0
LINE
  8
0
 62
7
  6
CONTINUOUS
 10
108.3560488273
 20
223.7001253432
 11
110.2004154163
 21
220.0550732189
  0
LINE
  8
0
 62
7
  6
CONTINUOUS
 10
110.7580895307
 20
220.3372517637
 11
109.4324509994
 21
222.9571330678
  0
LINE
  8
0
 62
7
  6
CONTINUOUS
 10
109.201905196
 20
223.4127645434
 11
108.9137229417
 21
223.982303888
  0
LINE
  8
0
 62
7
  6
CONTINUOUS
 10
111.6706232317
 20
223.5173441596
 11
112.7657159596
 21
221.3530943312
  0
LINE
  8
0
 62
7
  6
CONTINUOUS
 10
111.8268144362
 20
227.5192998424
 11
112.0839953092
 21
226.9351063168
  0
LINE
  8
0
 62
7
  6
CONTINUOUS
 10
112.5983571992
 20
225.7667189385
 11
114.2443149303
 21
222.0278800477
  0
LINE
  8
0
 62
7
  6
CONTINUOUS
 10
114.8163376074
 20
222.2797029198
 11
113.1703798763
 21
226.0185418105
  0
LINE
  8
0
 62
7
  6
CONTINUOUS
 10
112.6560179862
 20
227.1869291889
 11
112.3988371133
 21
227.7711227145
  0
LINE
  8
0
 62
7
  6
CONTINUOUS
 10
120.425376233
 20
228.5542856934
 11
120.8873353316
 21
226.695950103
  0
LINE
  8
0
 62
7
  6
CONTINUOUS
 10
121.6151834566
 20
226.876884088
 11
121.153224358
 21
228.7352196783
  0
LINE
  8
0
 62
7
  6
CONTINUOUS
 10
126.2435197292
 20
232.015266098
 11
127.0972426034
 21
226.0763135596
  0
LINE
  8
0
 62
7
  6
CONTINUOUS
 10
127.8396116707
 20
226.1830289188
 11
127.4581610194
 21
228.836603495
  0
LINE
  8
0
 62
7
  6
CONTINUOUS
 10
127.3491751335
 20
229.5947675584
 11
127.0767103681
 21
231.4901780711
  0
LINE
  8
0
 62
7
  6
CONTINUOUS
 10
136.3484674626
 20
231.4625244502
 11
136.3597201893
 21
231.207453424
  0
LINE
  8
0
 62
7
  6
CONTINUOUS
 10
136.4609947377
 20
228.9118140094
 11
136.4778738278
 21
228.5292074701
  0
LINE
  8
0
 62
7
  6
CONTINUOUS
 10
137.23277142
 20
228.4347268457
 11
137.2046396032
 21
229.0724044112
  0
LINE
  8
0
 62
7
  6
CONTINUOUS
 10
137.1146177815
 20
231.1129727995
 11
137.0921123123
 21
231.6231152092
  0
LINE
  8
0
 62
4
  6
CONTINUOUS
 10
140.4965809628
 20
157.6603034346
 11
140.4965809628
 21
160.9450808157
  0
LINE
  8
0
 62
4
  6
CONTINUOUS
 10
140.4965809628
 20
179.0255260536
 11
140.4965809628
 21
182.3103034346
  0
LINE
  8
0
 62
7
  6
CONTINUOUS
 10
147.0761101096
 20
231.0022992061
 11
146.5139917849
 21
226.3124620889
  0
LINE
  8
0
 62
7
  6
CONTINUOUS
 10
147.2586618437
 20
226.2232068173
 11
147.9727040169
 21
232.1805672877
  0
LINE
  8
0
 62
7
  6
CONTINUOUS
 10
153.0624851005
 20
229.6022457838
 11
152.9751613162
 21
229.2293550515
  0
LINE
  8
0
 62
7
  6
CONTINUOUS
 10
153.6762971711
 20
228.9340493185
 11
153.7927288564
 21
229.4312368454
  0
LINE
  8
0
 62
7
  6
CONTINUOUS
 10
158.8192455732
 20
227.6577478281
 11
158.7368205475
 21
227.4160993904
  0
LINE
  8
0
 62
7
  6
CONTINUOUS
 10
157.9949952587
 20
225.2412632824
 11
157.8713577202
 21
224.878790626
  0
LINE
  8
0
 62
7
  6
CONTINUOUS
 10
158.5399875775
 20
224.5158428654
 11
158.7460501417
 21
225.1199639595
  0
LINE
  8
0
 62
7
  6
CONTINUOUS
 10
159.4054504049
 20
227.0531516298
 11
159.5703005717
 21
227.5364488436
  0
LINE
  8
0
 62
7
  6
CONTINUOUS
 10
161.463945482
 20
224.0905139336
 11
161.7142243319
 21
224.6776977228
  0
LINE
  8
0
 62
7
  6
CONTINUOUS
 10
168.0824543378
 20
225.0903563479
 11
166.964677803
 21
222.9377344533
  0
LINE
  8
0
 62
7
  6
CONTINUOUS
 10
166.6116957914
 20
222.2579592185
 11
165.3174282509
 21
219.7654497065
  0
LINE
  8
0
 62
7
  6
CONTINUOUS
 10
165.9830415811
 20
219.4198214456
 11
168.7480676679
 21
224.744728087
  0
LINE
  8
0
 62
7
  6
CONTINUOUS
 10
192.9158989074
 20
189.6547742182
 11
193.6052472885
 21
190.0113071165
  0
LINE
  8
0
 62
7
  6
CONTINUOUS
 10
189.6750157285
 20
193.0647518819
 11
190.3612590537
 21
193.4049884261
  0
LINE
  8
0
 62
7
  6
CONTINUOUS
 10
194.2499713367
 20
195.332995563
 11
195.0505884559
 21
195.7299381516
  0
LINE
  8
0
 62
7
  6
CONTINUOUS
 10
190.5908957647
 20
190.7351524874
 11
196.1500691432
 21
192.9924941427
  0
LINE
  8
0
 62
7
  6
CONTINUOUS
 10
195.4633245332
 20
187.1990749542
 11
194.6138269012
 21
186.9217575124
  0
LINE
  8
0
 62
7
  6
CONTINUOUS
 10
194.6864260753
 20
186.2880016015
 11
195.7786373164
 21
186.6445525981
  0
LINE
  8
0
 62
7
  6
CONTINUOUS
 10
194.6138269012
 20
186.9217575124
 11
193.8468932874
 21
186.8028889708
  0
LINE
  8
0
 62
7
  6
CONTINUOUS
 10
194.0408492661
 20
186.2087498373
 11
194.6864260753
 21
186.2880016015
  0
LINE
  8
0
 62
7
  6
CONTINUOUS
 10
199.6681397781
 20
159.5428449334
 11
193.7914621522
 21
160.7530763497
  0
LINE
  8
0
 62
7
  6
CONTINUOUS
 10
193.4378751625
 20
147.7091369714
 11
193.672443953
 21
147.6083136865
  0
LINE
  8
0
 62
7
  6
CONTINUOUS
 10
193.9192539948
 20
148.1825256161
 11
193.098263228
 21
148.5354071133
  0
LINE
  8
0
 62
7
  6
CONTINUOUS
 10
108.7065852036
 20
220.0962252332
 11
106.9667227994
 21
222.9228181698
  0
LINE
  8
0
 62
7
  6
CONTINUOUS
 10
113.3233897549
 20
221.6352727146
 11
112.228297027
 21
223.799522543
  0
LINE
  8
0
 62
7
  6
CONTINUOUS
 10
120.8873353316
 20
226.695950103
 11
121.1626292415
 21
226.1066605132
  0
LINE
  8
0
 62
7
  6
CONTINUOUS
 10
130.278900229
 20
231.1766612701
 11
130.3333932228
 21
230.7975788843
  0
LINE
  8
0
 62
7
  6
CONTINUOUS
 10
131.0939266045
 20
230.7779335664
 11
131.0212692963
 21
231.2833766293
  0
LINE
  8
0
 62
7
  6
CONTINUOUS
 10
133.017096806
 20
99.4520600691
 11
130.9612838374
 21
92.4983837818
  0
LINE
  8
0
 62
7
  6
CONTINUOUS
 10
92.4142019073
 20
115.5556856088
 11
86.6637459075
 21
111.1384198634
  0
LINE
  8
0
 62
7
  6
CONTINUOUS
 10
193.2899345052
 20
190.5658294726
 11
192.7219429287
 21
190.2489133517
  0
LINE
  8
0
 62
7
  6
CONTINUOUS
 10
195.7786373164
 20
186.6445525981
 11
196.346628723
 21
186.9614686635
  0
LINE
  8
0
 62
7
  6
CONTINUOUS
 10
196.1526727443
 20
187.555607797
 11
195.4633245332
 21
187.1990749542
  0
LINE
  8
0
 62
7
  6
CONTINUOUS
 10
194.4547449205
 20
190.2886245583
 11
195.2216783642
 21
190.4074930444
  0
LINE
  8
0
 62
7
  6
CONTINUOUS
 10
195.0277223855
 20
191.0016321779
 11
194.3821457464
 21
190.9223804692
  0
LINE
  8
0
 62
7
  6
CONTINUOUS
 10
205.9619184115
 20
187.521031706
 11
213.2105387013
 21
187.7146415321
  0
LINE
  8
0
 62
4
  6
CONTINUOUS
 10
140.4965809628
 20
182.3103034346
 11
134.4965809628
 21
182.3103034346
  0
LINE
  8
0
 62
7
  6
CONTINUOUS
 10
193.6379897875
 20
186.2087208043
 11
194.0408492661
 21
186.2087498373
  0
LINE
  8
0
 62
7
  6
CONTINUOUS
 10
65.6965600839
 20
211.0842559978
 11
67.7819270624
 21
210.4066791926
  0
LINE
  8
0
 62
7
  6
CONTINUOUS
 10
196.5098236389
 20
155.5988296137
 11
196.8597167527
 21
155.3991462889
  0
LINE
  8
0
 62
7
  6
CONTINUOUS
 10
194.6908818494
 20
147.7147996301
 11
193.9192539948
 21
148.1825256161
  0
LINE
  8
0
 62
7
  6
CONTINUOUS
 10
193.672443953
 20
147.6083136865
 11
194.3267919316
 21
147.191009857
  0
LINE
  8
0
 62
7
  6
CONTINUOUS
 10
203.1934449505
 20
143.9290899694
 11
209.1715029512
 21
139.8250915031
  0
LINE
  8
0
 62
7
  6
CONTINUOUS
 10
105.9510265663
 20
218.8498026192
 11
105.6438229967
 21
219.1104242571
  0
LINE
  8
0
 62
7
  6
CONTINUOUS
 10
190.864351606
 20
145.2778030285
 11
190.5618613324
 21
145.5438824446
  0
LINE
  8
0
 62
7
  6
CONTINUOUS
 10
105.1115719151
 20
218.7828059311
 11
105.4856933015
 21
218.413469107
  0
LINE
  8
0
 62
7
  6
CONTINUOUS
 10
109.0807064735
 20
219.7268883638
 11
108.7065852036
 21
220.0962252332
  0
LINE
  8
0
 62
7
  6
CONTINUOUS
 10
111.2709059631
 20
224.0304476984
 11
111.6706232317
 21
223.5173441596
  0
LINE
  8
0
 62
7
  6
CONTINUOUS
 10
112.228297027
 20
223.799522543
 11
111.8285803966
 21
224.3126264046
  0
LINE
  8
0
 62
7
  6
CONTINUOUS
 10
103.5665020765
 20
245.4380478961
 11
104.8553297483
 21
243.6641287902
  0
LINE
  8
0
 62
7
  6
CONTINUOUS
 10
121.8596800961
 20
226.4114835259
 11
121.6151834566
 21
226.876884088
  0
LINE
  8
0
 62
7
  6
CONTINUOUS
 10
125.0331999642
 20
230.2259127067
 11
124.7579045798
 21
230.8152022984
  0
LINE
  8
0
 62
7
  6
CONTINUOUS
 10
175.3310024006
 20
110.2897361583
 11
177.7550831425
 21
103.4557173241
  0
LINE
  8
0
 62
7
  6
CONTINUOUS
 10
153.0281033677
 20
230.0036372227
 11
153.0624851005
 21
229.6022457838
  0
LINE
  8
0
 62
7
  6
CONTINUOUS
 10
153.7927288564
 20
229.4312368454
 11
153.7583471236
 21
229.8326282844
  0
LINE
  8
0
 62
7
  6
CONTINUOUS
 10
154.3965809628
 20
250.9714559547
 11
154.3965809628
 21
248.7787713531
  0
LINE
  8
0
 62
7
  6
CONTINUOUS
 10
158.0003275985
 20
225.644089416
 11
157.9949952587
 21
225.2412632824
  0
LINE
  8
0
 62
7
  6
CONTINUOUS
 10
158.7460501417
 20
225.1199639595
 11
158.7513824815
 21
225.522790093
  0
LINE
  8
0
 62
7
  6
CONTINUOUS
 10
158.8245779707
 20
228.0605741309
 11
158.8192455732
 21
227.6577478281
  0
LINE
  8
0
 62
7
  6
CONTINUOUS
 10
159.5703005717
 20
227.5364488436
 11
159.5756328538
 21
227.9392748079
  0
LINE
  8
0
 62
7
  6
CONTINUOUS
 10
198.7714342589
 20
225.5709063687
 11
197.4826065872
 21
223.7969872627
  0
LINE
  8
DEFAULT_1
 62
2
  6
CENTER
 10
161.6485475278
 20
165.8529987522
 11
158.1130136219
 21
162.3174648463
  0
LINE
  8
DEFAULT_1
 62
2
  6
CENTER
 10
141.6288856453
 20
145.8333368696
 11
145.1644195512
 21
149.3688707756
  0
LINE
  8
DEFAULT_1
 62
2
  6
CENTER
 10
149.2891163105
 20
151.2308258351
 11
156.2510585623
 21
158.1927680869
  0
LINE
  8
0
 62
7
  6
CONTINUOUS
 10
192.3966615798
 20
190.0112417202
 11
191.9888195092
 21
189.6151102262
  0
LINE
  8
0
 62
7
  6
CONTINUOUS
 10
192.7219429287
 20
190.2489133517
 11
192.3966615798
 21
190.0112417202
  0
LINE
  8
0
 62
7
  6
CONTINUOUS
 10
196.346628723
 20
186.9614686635
 11
196.6719104118
 21
187.199140406
  0
LINE
  8
0
 62
7
  6
CONTINUOUS
 10
219.7413762516
 20
178.938545747
 11
217.6560092731
 21
178.2609689418
  0
LINE
  8
0
 62
7
  6
CONTINUOUS
 10
195.4305822041
 20
191.0016613219
 11
195.0277223855
 21
191.0016321779
  0
LINE
  8
0
 62
7
  6
CONTINUOUS
 10
193.0749772516
 20
186.2879180236
 11
193.6379897875
 21
186.2087208043
  0
LINE
  8
0
 62
7
  6
CONTINUOUS
 10
197.136031359
 20
156.1079813906
 11
196.7861382451
 21
156.3076647154
  0
LINE
  8
0
 62
7
  6
CONTINUOUS
 10
105.4856933015
 20
218.413469107
 11
105.7259790822
 21
218.2615625674
  0
LINE
  8
0
 62
7
  6
CONTINUOUS
 10
192.3902536702
 20
154.5338567913
 11
193.7012505278
 21
153.5968112835
  0
LINE
  8
0
 62
7
  6
CONTINUOUS
 10
194.1507637493
 20
153.3242030913
 11
197.100509385
 21
151.2158588454
  0
LINE
  8
0
 62
7
  6
CONTINUOUS
 10
197.7377512426
 20
151.5393987018
 11
192.6155252836
 21
155.2492257172
  0
LINE
  8
0
 62
7
  6
CONTINUOUS
 10
108.2412517872
 20
219.6598917327
 11
108.7887412701
 21
219.2473635318
  0
LINE
  8
0
 62
7
  6
CONTINUOUS
 10
192.4502414431
 20
147.997596207
 11
192.752731881
 21
147.7315167203
  0
LINE
  8
0
 62
7
  6
CONTINUOUS
 10
194.3267919316
 20
147.191009857
 11
194.6292825337
 21
146.9249302996
  0
LINE
  8
0
 62
7
  6
CONTINUOUS
 10
190.0125609349
 20
145.2357499664
 11
190.5002616881
 21
144.7540132554
  0
LINE
  8
0
 62
7
  6
CONTINUOUS
 10
195.1785828491
 20
147.2330628131
 11
194.6908818494
 21
147.7147996301
  0
LINE
  8
DEFAULT_1
 62
2
  6
CENTER
 10
158.1130136219
 20
177.653142023
 11
161.6485475278
 21
174.1176081171
  0
LINE
  8
DEFAULT_1
 62
2
  6
CENTER
 10
145.1644195512
 20
190.6017360937
 11
141.6288856453
 21
194.1372699996
  0
LINE
  8
DEFAULT_1
 62
2
  6
CENTER
 10
149.2891163105
 20
188.7397810342
 11
156.2510585623
 21
181.7778387824
  0
LINE
  8
0
 62
7
  6
CONTINUOUS
 10
111.8285803966
 20
224.3126264046
 11
111.5441360297
 21
224.5979142055
  0
LINE
  8
0
 62
7
  6
CONTINUOUS
 10
121.1626292415
 20
226.1066605132
 11
121.5284348489
 21
225.6714157586
  0
LINE
  8
0
 62
7
  6
CONTINUOUS
 10
124.0916509955
 20
230.3864902579
 11
124.3053518392
 21
230.0449787217
  0
LINE
  8
0
 62
7
  6
CONTINUOUS
 10
130.1006809962
 20
231.53795768
 11
130.278900229
 21
231.1766612701
  0
LINE
  8
0
 62
7
  6
CONTINUOUS
 10
131.0212692963
 20
231.2833766293
 11
130.8430500635
 21
231.6446730392
  0
LINE
  8
0
 62
7
  6
CONTINUOUS
 10
136.3192390071
 20
229.2889116633
 11
136.4609947377
 21
228.9118140094
  0
LINE
  8
0
 62
7
  6
CONTINUOUS
 10
137.2046396032
 20
229.0724044112
 11
137.0628838726
 21
229.4495020651
  0
LINE
  8
0
 62
7
  6
CONTINUOUS
 10
136.2067117241
 20
231.8396222827
 11
136.3484674626
 21
231.4625244502
  0
LINE
  8
0
 62
7
  6
CONTINUOUS
 10
137.0921123123
 20
231.6231152092
 11
136.9503565896
 21
232.0002126845
  0
LINE
  8
0
 62
7
  6
CONTINUOUS
 10
142.6080897567
 20
231.5378308361
 11
143.7835339557
 21
226.6397315318
  0
LINE
  8
0
 62
7
  6
CONTINUOUS
 10
144.3559435433
 20
227.2139896693
 11
143.1323486347
 21
232.7607265535
  0
LINE
  8
0
 62
7
  6
CONTINUOUS
 10
192.3429249088
 20
188.9417556918
 11
192.9158989074
 21
189.6547742182
  0
LINE
  8
0
 62
7
  6
CONTINUOUS
 10
196.6719104118
 20
187.199140406
 11
197.0797523974
 21
187.5952718723
  0
LINE
  8
0
 62
7
  6
CONTINUOUS
 10
195.993594655
 20
190.9224640748
 11
195.4305822041
 21
191.0016613219
  0
LINE
  8
0
 62
7
  6
CONTINUOUS
 10
193.8468932874
 20
186.8028889708
 11
192.9635854612
 21
187.0405061129
  0
LINE
  8
0
 62
7
  6
CONTINUOUS
 10
106.3646804143
 20
218.6547045798
 11
105.9510265663
 21
218.8498026192
  0
LINE
  8
0
 62
7
  6
CONTINUOUS
 10
109.3209924659
 20
219.5749819282
 11
109.0807064735
 21
219.7268883638
  0
LINE
  8
0
 62
7
  6
CONTINUOUS
 10
122.1946884117
 20
226.1001278859
 11
121.8596800961
 21
226.4114835259
  0
LINE
  8
0
 62
7
  6
CONTINUOUS
 10
190.5618613324
 20
145.5438824446
 11
190.3087293697
 21
145.9247958707
  0
LINE
  8
0
 62
7
  6
CONTINUOUS
 10
191.9888195092
 20
189.6151102262
 11
191.7411233505
 21
189.1397742242
  0
LINE
  8
0
 62
7
  6
CONTINUOUS
 10
196.7256469978
 20
188.2686264067
 11
196.1526727443
 21
187.555607797
  0
LINE
  8
0
 62
7
  6
CONTINUOUS
 10
197.7601807818
 20
155.3413335262
 11
198.3359629623
 21
155.6056274717
  0
LINE
  8
0
 62
7
  6
CONTINUOUS
 10
105.7259790822
 20
218.2615625674
 11
106.2460830813
 21
218.1319882055
  0
LINE
  8
0
 62
7
  6
CONTINUOUS
 10
195.2216783642
 20
190.4074930444
 11
196.1049864455
 21
190.1698759856
  0
LINE
  8
0
 62
7
  6
CONTINUOUS
 10
193.8115293398
 20
193.6618592508
 11
194.9216592719
 21
193.303162494
  0
LINE
  8
0
 62
7
  6
CONTINUOUS
 10
192.5945324979
 20
186.5255533335
 11
193.0749772516
 21
186.2879180236
  0
LINE
  8
0
 62
7
  6
CONTINUOUS
 10
121.5284348489
 20
225.6714157586
 11
122.1368555618
 21
225.2964821457
  0
LINE
  8
0
 62
7
  6
CONTINUOUS
 10
130.8430500635
 20
231.6446730392
 11
130.3992082726
 21
232.0967580686
  0
LINE
  8
0
 62
7
  6
CONTINUOUS
 10
196.0853203853
 20
156.0691203714
 11
196.5098236389
 21
155.5988296137
  0
LINE
  8
0
 62
7
  6
CONTINUOUS
 10
137.0628838726
 20
229.4495020651
 11
136.6657428047
 21
229.9431166732
  0
LINE
  8
0
 62
7
  6
CONTINUOUS
 10
136.9503565896
 20
232.0002126845
 11
136.5532155217
 21
232.4938272926
  0
LINE
  8
0
 62
7
  6
CONTINUOUS
 10
194.6292825337
 20
146.9249302996
 11
194.8824144143
 21
146.5440169088
  0
LINE
  8
0
 62
7
  6
CONTINUOUS
 10
189.6915075302
 20
145.7819195061
 11
190.0125609349
 21
145.2357499664
  0
LINE
  8
0
 62
7
  6
CONTINUOUS
 10
195.4996362128
 20
146.6868932911
 11
195.1785828491
 21
147.2330628131
  0
LINE
  8
0
 62
7
  6
CONTINUOUS
 10
153.7583471236
 20
229.8326282844
 11
153.5096568493
 21
230.4153199323
  0
LINE
  8
0
 62
7
  6
CONTINUOUS
 10
158.7513824815
 20
225.522790093
 11
158.5613113478
 21
226.1271487392
  0
LINE
  8
0
 62
7
  6
CONTINUOUS
 10
159.5756328538
 20
227.9392748079
 11
159.38556172
 21
228.5436334541
  0
LINE
  8
0
 62
7
  6
CONTINUOUS
 10
192.2165855972
 20
188.506036481
 11
192.3429249088
 21
188.9417556918
  0
LINE
  8
0
 62
7
  6
CONTINUOUS
 10
197.0797523974
 20
187.5952718723
 11
197.3274485136
 21
188.0706078604
  0
LINE
  8
0
 62
7
  6
CONTINUOUS
 10
198.2119566069
 20
156.2692768579
 11
197.9114597088
 21
156.0759182295
  0
LINE
  8
0
 62
7
  6
CONTINUOUS
 10
191.7718271102
 20
144.4795752235
 11
192.2717645134
 21
144.6728632483
  0
LINE
  8
0
 62
7
  6
CONTINUOUS
 10
191.9507111498
 20
145.2190327703
 11
191.617421054
 21
145.0901775918
  0
LINE
  8
0
 62
7
  6
CONTINUOUS
 10
106.2460830813
 20
218.1319882055
 11
106.6992693522
 21
218.1111289924
  0
LINE
  8
0
 62
7
  6
CONTINUOUS
 10
195.8679014362
 20
193.687390815
 11
194.7577718355
 21
194.0460877064
  0
LINE
  8
0
 62
7
  6
CONTINUOUS
 10
188.4734196266
 20
197.2126840659
 11
194.2499713367
 21
195.332995563
  0
LINE
  8
0
 62
7
  6
CONTINUOUS
 10
110.9325636709
 20
224.1453921474
 11
111.2709059631
 21
224.0304476984
  0
LINE
  8
0
 62
7
  6
CONTINUOUS
 10
111.5441360297
 20
224.5979142055
 11
111.2057937375
 21
224.7128586546
  0
LINE
  8
0
 62
7
  6
CONTINUOUS
 10
194.2010972097
 20
196.006359806
 11
188.3690190912
 21
197.998042825
  0
LINE
  8
0
 62
7
  6
CONTINUOUS
 10
122.6202070365
 20
225.9428167361
 11
122.1946884117
 21
226.1001278859
  0
LINE
  8
0
 62
7
  6
CONTINUOUS
 10
196.4740393662
 20
190.6848287511
 11
195.993594655
 21
190.9224640748
  0
LINE
  8
0
 62
7
  6
CONTINUOUS
 10
124.7579045798
 20
230.8152022984
 11
124.1494838777
 21
231.190135868
  0
LINE
  8
0
 62
7
  6
CONTINUOUS
 10
138.3452847173
 20
228.5200069194
 11
138.71193037
 21
228.2528294174
  0
LINE
  8
0
 62
7
  6
CONTINUOUS
 10
129.8168941238
 20
231.7551069766
 11
130.1006809962
 21
231.53795768
  0
LINE
  8
0
 62
7
  6
CONTINUOUS
 10
192.9635854612
 20
187.0405061129
 11
192.6044975545
 21
187.317758214
  0
LINE
  8
0
 62
7
  6
CONTINUOUS
 10
136.0582272986
 20
229.5329643092
 11
136.3192390071
 21
229.2889116633
  0
LINE
  8
0
 62
7
  6
CONTINUOUS
 10
135.9457000156
 20
232.0836749286
 11
136.2067117241
 21
231.8396222827
  0
LINE
  8
0
 62
7
  6
CONTINUOUS
 10
196.7861382451
 20
156.3076647154
 11
196.5864924262
 21
156.6040217499
  0
LINE
  8
0
 62
7
  6
CONTINUOUS
 10
152.8429055128
 20
230.309233574
 11
153.0281033677
 21
230.0036372227
  0
LINE
  8
0
 62
7
  6
CONTINUOUS
 10
195.8110644267
 20
156.636084839
 11
196.0853203853
 21
156.0691203714
  0
LINE
  8
0
 62
7
  6
CONTINUOUS
 10
157.8461366955
 20
225.9664463167
 11
158.0003275985
 21
225.644089416
  0
LINE
  8
0
 62
7
  6
CONTINUOUS
 10
158.6703870678
 20
228.3829310315
 11
158.8245779707
 21
228.0605741309
  0
LINE
  8
0
 62
7
  6
CONTINUOUS
 10
192.752731881
 20
147.7315167203
 11
192.8885793663
 21
147.4010149719
  0
LINE
  8
0
 62
7
  6
CONTINUOUS
 10
190.3087293697
 20
145.9247958707
 11
190.2222447966
 21
146.3701421078
  0
LINE
  8
0
 62
7
  6
CONTINUOUS
 10
190.2222447966
 20
146.3701421078
 11
190.2530446187
 21
146.7650767024
  0
LINE
  8
0
 62
7
  6
CONTINUOUS
 10
191.7411233505
 20
189.1397742242
 11
191.5710088836
 21
188.426784748
  0
LINE
  8
0
 62
7
  6
CONTINUOUS
 10
197.3274485136
 20
188.0706078604
 11
197.4975629487
 21
188.7835973261
  0
LINE
  8
0
 62
7
  6
CONTINUOUS
 10
196.8519863095
 20
188.7043456174
 11
196.7256469978
 21
188.2686264067
  0
LINE
  8
0
 62
7
  6
CONTINUOUS
 10
190.5985759657
 20
147.5689670954
 11
190.8639445783
 21
147.8630784051
  0
LINE
  8
0
 62
7
  6
CONTINUOUS
 10
198.3359629623
 20
155.6056274717
 11
198.8119210793
 21
156.01809433
  0
LINE
  8
0
 62
7
  6
CONTINUOUS
 10
190.9255441815
 20
148.652947612
 11
190.3268809231
 21
148.2299706231
  0
LINE
  8
0
 62
7
  6
CONTINUOUS
 10
192.2717645134
 20
144.6728632483
 11
192.8704232218
 21
145.0958297365
  0
LINE
  8
0
 62
7
  6
CONTINUOUS
 10
194.3149624736
 20
143.9307096739
 11
194.913621182
 21
144.3536761621
  0
LINE
  8
0
 62
7
  6
CONTINUOUS
 10
190.8639445783
 20
147.8630784051
 11
191.2465975862
 21
148.1067780723
  0
LINE
  8
0
 62
7
  6
CONTINUOUS
 10
192.3333641577
 20
145.4627324375
 11
191.9507111498
 21
145.2190327703
  0
LINE
  8
0
 62
7
  6
CONTINUOUS
 10
194.3765621179
 20
144.7205788631
 11
193.99390911
 21
144.4768791959
  0
LINE
  8
0
 62
7
  6
CONTINUOUS
 10
135.6712423346
 20
226.9602171814
 11
136.2900077087
 21
227.1152984042
  0
LINE
  8
0
 62
7
  6
CONTINUOUS
 10
158.365907932
 20
226.328681421
 11
158.6437363734
 21
226.3687971768
  0
LINE
  8
0
 62
7
  6
CONTINUOUS
 10
106.9243168465
 20
218.6993689849
 11
106.3646804143
 21
218.6547045798
  0
LINE
  8
0
 62
7
  6
CONTINUOUS
 10
122.6836817312
 20
225.1693265992
 11
123.3210195712
 21
225.1962159964
  0
LINE
  8
0
 62
7
  6
CONTINUOUS
 10
157.310373942
 20
224.3957312182
 11
156.9142402441
 21
224.3959687702
  0
LINE
  8
0
 62
7
  6
CONTINUOUS
 10
110.6518578296
 20
224.1464287276
 11
110.9325636709
 21
224.1453921474
  0
LINE
  8
0
 62
7
  6
CONTINUOUS
 10
123.1362359274
 20
225.9395502499
 11
122.6202070365
 21
225.9428167361
  0
LINE
  8
0
 62
7
  6
CONTINUOUS
 10
156.5486598817
 20
223.7113766806
 11
157.1814095119
 21
223.6304306761
  0
LINE
  8
0
 62
7
  6
CONTINUOUS
 10
111.2057937375
 20
224.7128586546
 11
110.7559164309
 21
224.7713672978
  0
LINE
  8
0
 62
7
  6
CONTINUOUS
 10
122.1368555618
 20
225.2964821457
 11
122.6836817312
 21
225.1693265992
  0
LINE
  8
0
 62
7
  6
CONTINUOUS
 10
123.6661323922
 20
230.543801321
 11
124.0916509955
 21
230.3864902579
  0
LINE
  8
0
 62
7
  6
CONTINUOUS
 10
136.6657428047
 20
229.9431166732
 11
136.4103574596
 21
230.059633806
  0
LINE
  8
0
 62
7
  6
CONTINUOUS
 10
130.3992082726
 20
232.0967580686
 11
129.8498016742
 21
232.4046963918
  0
LINE
  8
0
 62
7
  6
CONTINUOUS
 10
136.5532155217
 20
232.4938272926
 11
136.0368213263
 21
232.8543971974
  0
LINE
  8
0
 62
7
  6
CONTINUOUS
 10
140.4381309622
 20
231.3907353075
 11
140.0714853209
 21
231.657913167
  0
LINE
  8
0
 62
7
  6
CONTINUOUS
 10
196.1049864455
 20
190.1698759856
 11
196.4640743521
 21
189.8926238845
  0
LINE
  8
0
 62
7
  6
CONTINUOUS
 10
192.0365060736
 20
187.0008421243
 11
192.5945324979
 21
186.5255533335
  0
LINE
  8
0
 62
7
  6
CONTINUOUS
 10
197.0320657586
 20
190.2095399498
 11
196.4740393662
 21
190.6848287511
  0
LINE
  8
0
 62
7
  6
CONTINUOUS
 10
158.5613113478
 20
226.1271487392
 11
158.365907932
 21
226.328681421
  0
LINE
  8
0
 62
7
  6
CONTINUOUS
 10
153.5096568493
 20
230.4153199323
 11
153.110150453
 21
230.9022164927
  0
LINE
  8
0
 62
7
  6
CONTINUOUS
 10
159.38556172
 20
228.5436334541
 11
159.035972817
 21
229.0675211893
  0
LINE
  8
0
 62
7
  6
CONTINUOUS
 10
192.8885793663
 20
147.4010149719
 11
192.9750639394
 21
146.9556687348
  0
LINE
  8
0
 62
7
  6
CONTINUOUS
 10
193.6108443088
 20
146.8184444972
 11
193.4378751625
 21
147.7091369714
  0
LINE
  8
0
 62
7
  6
CONTINUOUS
 10
194.8824144143
 20
146.5440169088
 11
194.9688989875
 21
146.0986706717
  0
LINE
  8
0
 62
7
  6
CONTINUOUS
 10
189.5864598362
 20
146.5073558623
 11
189.6915075302
 21
145.7819195061
  0
LINE
  8
0
 62
7
  6
CONTINUOUS
 10
195.6046793568
 20
145.9614464341
 11
195.4996362128
 21
146.6868932911
  0
LINE
  8
0
 62
7
  6
CONTINUOUS
 10
195.8120960588
 20
157.2739958324
 11
195.8110644267
 21
156.636084839
  0
LINE
  8
0
 62
7
  6
CONTINUOUS
 10
192.9750639394
 20
146.9556687348
 11
192.9442641173
 21
146.5607341402
  0
LINE
  8
0
 62
7
  6
CONTINUOUS
 10
194.9688989875
 20
146.0986706717
 11
194.9380991653
 21
145.7037360771
  0
LINE
  8
0
 62
7
  6
CONTINUOUS
 10
193.7914621522
 20
160.7530763497
 11
193.6401832251
 21
160.0184916465
  0
LINE
  8
0
 62
7
  6
CONTINUOUS
 10
196.2659328399
 20
159.4777499422
 11
195.8120960588
 21
157.2739958324
  0
LINE
  8
0
 62
7
  6
CONTINUOUS
 10
196.5370962104
 20
156.9970637031
 11
197.0161469155
 21
159.323252333
  0
LINE
  8
0
 62
7
  6
CONTINUOUS
 10
198.8916824547
 20
158.9370082378
 11
198.4126317497
 21
156.610819608
  0
LINE
  8
0
 62
7
  6
CONTINUOUS
 10
199.0630240699
 20
156.6045061205
 11
199.6681397781
 21
159.5428449334
  0
LINE
  8
0
 62
7
  6
CONTINUOUS
 10
189.7159854724
 20
147.1319794388
 11
189.5864598362
 21
146.5073558623
  0
LINE
  8
0
 62
7
  6
CONTINUOUS
 10
193.4813231814
 20
146.1938314392
 11
193.6108443088
 21
146.8184444972
  0
LINE
  8
0
 62
7
  6
CONTINUOUS
 10
195.4751582294
 20
145.3368333761
 11
195.6046793568
 21
145.9614464341
  0
LINE
  8
0
 62
7
  6
CONTINUOUS
 10
192.6155252836
 20
155.2492257172
 11
192.3902536702
 21
154.5338567913
  0
LINE
  8
0
 62
7
  6
CONTINUOUS
 10
191.3389849949
 20
151.1954648318
 11
191.1137133814
 21
150.4800959058
  0
LINE
  8
0
 62
7
  6
CONTINUOUS
 10
193.7012505278
 20
153.5968112835
 11
192.9503462954
 21
151.2122518357
  0
LINE
  8
0
 62
7
  6
CONTINUOUS
 10
193.4749489089
 20
151.1780963135
 11
194.1507637493
 21
153.3242030913
  0
LINE
  8
0
 62
7
  6
CONTINUOUS
 10
198.8119210793
 20
156.01809433
 11
199.0630240699
 21
156.6045061205
  0
LINE
  8
0
 62
7
  6
CONTINUOUS
 10
189.962790995
 20
147.7061808544
 11
189.7159854724
 21
147.1319794388
  0
LINE
  8
0
 62
7
  6
CONTINUOUS
 10
190.2530446187
 20
146.7650767024
 11
190.5985759657
 21
147.5689670954
  0
LINE
  8
0
 62
7
  6
CONTINUOUS
 10
192.9442641173
 20
146.5607341402
 11
192.5987327703
 21
145.7568437472
  0
LINE
  8
0
 62
7
  6
CONTINUOUS
 10
193.2345176588
 20
145.6196300236
 11
193.4813231814
 21
146.1938314392
  0
LINE
  8
0
 62
7
  6
CONTINUOUS
 10
193.5433300998
 20
144.3984251458
 11
193.2965245772
 21
143.8242237303
  0
LINE
  8
0
 62
7
  6
CONTINUOUS
 10
194.9380991653
 20
145.7037360771
 11
194.6419307305
 21
145.0146901728
  0
LINE
  8
0
 62
7
  6
CONTINUOUS
 10
198.4126317497
 20
156.610819608
 11
198.2119566069
 21
156.2692768579
  0
LINE
  8
0
 62
7
  6
CONTINUOUS
 10
190.3268809231
 20
148.2299706231
 11
189.962790995
 21
147.7061808544
  0
LINE
  8
0
 62
7
  6
CONTINUOUS
 10
192.8704232218
 20
145.0958297365
 11
193.2345176588
 21
145.6196300236
  0
LINE
  8
0
 62
7
  6
CONTINUOUS
 10
194.913621182
 20
144.3536761621
 11
195.2777110999
 21
144.8774659352
  0
LINE
  8
0
 62
7
  6
CONTINUOUS
 10
192.5987327703
 20
145.7568437472
 11
192.3333641577
 21
145.4627324375
  0
LINE
  8
0
 62
7
  6
CONTINUOUS
 10
194.6419307305
 20
145.0146901728
 11
194.3765621179
 21
144.7205788631
  0
LINE
  8
0
 62
7
  6
CONTINUOUS
 10
123.3210195712
 20
225.1962159964
 11
124.4127917587
 21
225.4676169738
  0
LINE
  8
0
 62
7
  6
CONTINUOUS
 10
124.2280081149
 20
226.2109512273
 11
123.1362359274
 21
225.9395502499
  0
LINE
  8
0
 62
7
  6
CONTINUOUS
 10
125.7415372257
 20
227.376464894
 11
125.0136891006
 21
227.1955309091
  0
LINE
  8
0
 62
7
  6
CONTINUOUS
 10
124.3053518392
 20
230.0449787217
 11
125.0331999642
 21
230.2259127067
  0
LINE
  8
0
 62
7
  6
CONTINUOUS
 10
122.0583313138
 20
230.2756668298
 11
123.1501035013
 21
230.5470678072
  0
LINE
  8
0
 62
7
  6
CONTINUOUS
 10
122.9653198791
 20
231.2904019739
 11
121.8735476916
 21
231.0190009965
  0
LINE
  8
0
 62
7
  6
CONTINUOUS
 10
110.1480819595
 20
224.0345936961
 11
110.6518578296
 21
224.1464287276
  0
LINE
  8
0
 62
7
  6
CONTINUOUS
 10
127.0972426034
 20
226.0763135596
 11
127.8396116707
 21
226.1830289188
  0
LINE
  8
0
 62
7
  6
CONTINUOUS
 10
127.4581610194
 20
228.836603495
 11
129.6852696373
 21
229.1567497763
  0
LINE
  8
0
 62
7
  6
CONTINUOUS
 10
129.7000100414
 20
229.9326994616
 11
127.3491751335
 21
229.5947675584
  0
LINE
  8
0
 62
7
  6
CONTINUOUS
 10
127.0767103681
 20
231.4901780711
 11
129.4275452759
 21
231.8281099743
  0
LINE
  8
0
 62
7
  6
CONTINUOUS
 10
129.2129974144
 20
232.4421277387
 11
126.2435197292
 21
232.015266098
  0
LINE
  8
0
 62
7
  6
CONTINUOUS
 10
110.7559164309
 20
224.7713672978
 11
110.3636755753
 21
224.7159680722
  0
LINE
  8
0
 62
7
  6
CONTINUOUS
 10
152.4645027193
 20
228.6933748948
 11
152.0702729404
 21
228.6545825692
  0
LINE
  8
0
 62
7
  6
CONTINUOUS
 10
132.6741574193
 20
226.8279976267
 11
135.6712423346
 21
226.9602171814
  0
LINE
  8
0
 62
7
  6
CONTINUOUS
 10
135.7623607831
 20
227.7309394134
 11
133.389670464
 21
227.6262656833
  0
LINE
  8
0
 62
7
  6
CONTINUOUS
 10
133.3052750018
 20
229.5392986479
 11
135.6779653209
 21
229.643972378
  0
LINE
  8
0
 62
7
  6
CONTINUOUS
 10
135.6442071407
 20
230.4091854566
 11
133.2715168216
 21
230.3045117265
  0
LINE
  8
0
 62
7
  6
CONTINUOUS
 10
133.1927477188
 20
232.0900092673
 11
135.5654380379
 21
232.1946829974
  0
LINE
  8
0
 62
7
  6
CONTINUOUS
 10
135.406803225
 20
232.954387012
 11
132.4097183098
 21
232.8221674572
  0
LINE
  8
0
 62
7
  6
CONTINUOUS
 10
123.6026577164
 20
231.317291382
 11
122.9653198791
 21
231.2904019739
  0
LINE
  8
0
 62
7
  6
CONTINUOUS
 10
158.1758367983
 20
226.9330400672
 11
157.7797031003
 21
226.9332776193
  0
LINE
  8
0
 62
7
  6
CONTINUOUS
 10
123.1501035013
 20
230.5470678072
 11
123.6661323922
 21
230.543801321
  0
LINE
  8
0
 62
7
  6
CONTINUOUS
 10
151.7739173136
 20
227.9373035082
 11
152.4115607493
 21
227.9190930718
  0
LINE
  8
0
 62
7
  6
CONTINUOUS
 10
129.8498016742
 20
232.4046963918
 11
129.2129974144
 21
232.4421277387
  0
LINE
  8
0
 62
7
  6
CONTINUOUS
 10
141.3013013732
 20
226.9372489905
 11
142.045971432
 21
226.8479937189
  0
LINE
  8
0
 62
7
  6
CONTINUOUS
 10
143.7835339557
 20
226.6397315318
 11
144.7764264205
 21
226.5207246165
  0
LINE
  8
0
 62
7
  6
CONTINUOUS
 10
146.5139917849
 20
226.3124620889
 11
147.2586618437
 21
226.2232068173
  0
LINE
  8
0
 62
7
  6
CONTINUOUS
 10
147.9727040169
 20
232.1805672877
 11
146.8556989287
 21
232.3144501952
  0
LINE
  8
0
 62
7
  6
CONTINUOUS
 10
143.1323486347
 20
232.7607265535
 11
142.0153435464
 21
232.894609461
  0
LINE
  8
0
 62
7
  6
CONTINUOUS
 10
136.0368213263
 20
232.8543971974
 11
135.406803225
 21
232.954387012
  0
LINE
  8
0
 62
7
  6
CONTINUOUS
 10
129.4275452759
 20
231.8281099743
 11
129.8168941238
 21
231.7551069766
  0
LINE
  8
0
 62
7
  6
CONTINUOUS
 10
124.1494838777
 20
231.190135868
 11
123.6026577164
 21
231.317291382
  0
LINE
  8
0
 62
7
  6
CONTINUOUS
 10
148.2416762891
 20
226.0111062247
 11
148.971920045
 21
225.8400972864
  0
LINE
  8
0
 62
7
  6
CONTINUOUS
 10
149.583186046
 20
228.4503303232
 11
151.7739173136
 21
227.9373035082
  0
LINE
  8
0
 62
7
  6
CONTINUOUS
 10
152.0702729404
 20
228.6545825692
 11
149.7578334515
 21
229.1961110914
  0
LINE
  8
0
 62
7
  6
CONTINUOUS
 10
150.1944520469
 20
231.06056336
 11
152.5068915358
 21
230.5190348379
  0
LINE
  8
0
 62
7
  6
CONTINUOUS
 10
152.5307228192
 20
231.1690205185
 11
149.6097477956
 21
231.8530562718
  0
LINE
  8
0
 62
7
  6
CONTINUOUS
 10
135.6779653209
 20
229.643972378
 11
136.0582272986
 21
229.5329643092
  0
LINE
  8
0
 62
7
  6
CONTINUOUS
 10
135.5654380379
 20
232.1946829974
 11
135.9457000156
 21
232.0836749286
  0
LINE
  8
0
 62
7
  6
CONTINUOUS
 10
153.709290401
 20
224.6798708478
 11
156.5486598817
 21
223.7113766806
  0
LINE
  8
0
 62
7
  6
CONTINUOUS
 10
156.9142402441
 20
224.3959687702
 11
154.6664078771
 21
225.1626927035
  0
LINE
  8
0
 62
7
  6
CONTINUOUS
 10
155.2845956563
 20
226.9750562397
 11
157.5324280233
 21
226.2083323064
  0
LINE
  8
0
 62
7
  6
CONTINUOUS
 10
157.7797031003
 20
226.9332776193
 11
155.5318707333
 21
227.7000015526
  0
LINE
  8
0
 62
7
  6
CONTINUOUS
 10
156.1088460285
 20
229.3915409545
 11
158.3566783955
 21
228.6248170213
  0
LINE
  8
0
 62
7
  6
CONTINUOUS
 10
158.4856482161
 20
229.390115642
 11
155.6462787354
 21
230.3586098093
  0
LINE
  8
0
 62
7
  6
CONTINUOUS
 10
159.8540817645
 20
224.7766957513
 11
161.463945482
 21
224.0905139336
  0
LINE
  8
0
 62
7
  6
CONTINUOUS
 10
161.7142243319
 20
224.6776977228
 11
160.1043606144
 21
225.3638795405
  0
LINE
  8
0
 62
7
  6
CONTINUOUS
 10
153.110150453
 20
230.9022164927
 11
152.5307228192
 21
231.1690205185
  0
LINE
  8
0
 62
7
  6
CONTINUOUS
 10
161.5456159945
 20
221.7240116093
 11
162.2112293246
 21
221.3783833484
  0
LINE
  8
0
 62
7
  6
CONTINUOUS
 10
165.3174282509
 20
219.7654497065
 11
165.9830415811
 21
219.4198214456
  0
LINE
  8
0
 62
7
  6
CONTINUOUS
 10
163.5054968652
 20
223.8708928604
 11
166.6116957914
 21
222.2579592185
  0
LINE
  8
0
 62
7
  6
CONTINUOUS
 10
166.964677803
 20
222.9377344533
 11
163.8584788767
 21
224.5506680953
  0
LINE
  8
0
 62
7
  6
CONTINUOUS
 10
168.7480676679
 20
224.744728087
 11
168.0824543378
 21
225.0903563479
  0
LINE
  8
0
 62
7
  6
CONTINUOUS
 10
164.9762554115
 20
226.7032899898
 11
164.3106420813
 21
227.0489182507
  0
LINE
  8
0
 62
7
  6
CONTINUOUS
 10
159.035972817
 20
229.0675211893
 11
158.4856482161
 21
229.390115642
  0
LINE
  8
0
 62
7
  6
CONTINUOUS
 10
152.5068915358
 20
230.5190348379
 11
152.8429055128
 21
230.309233574
  0
LINE
  8
0
 62
7
  6
CONTINUOUS
 10
157.5324280233
 20
226.2083323064
 11
157.8461366955
 21
225.9664463167
  0
LINE
  8
0
 62
7
  6
CONTINUOUS
 10
158.3566783955
 20
228.6248170213
 11
158.6703870678
 21
228.3829310315
  0
LINE
  8
0
 62
7
  6
CONTINUOUS
 10
192.6044975545
 20
187.317758214
 11
192.2891847713
 21
187.8722805701
  0
LINE
  8
0
 62
7
  6
CONTINUOUS
 10
196.4640743521
 20
189.8926238845
 11
196.7793871354
 21
189.3381015284
  0
LINE
  8
0
 62
7
  6
CONTINUOUS
 10
191.6824006634
 20
187.6741966553
 11
192.0365060736
 21
187.0008421243
  0
LINE
  8
0
 62
7
  6
CONTINUOUS
 10
197.3861711582
 20
189.5361854154
 11
197.0320657586
 21
190.2095399498
  0
LINE
  8
0
 62
7
  6
CONTINUOUS
 10
187.4540280177
 20
197.5443941126
 11
189.6750157285
 21
193.0647518819
  0
LINE
  8
0
 62
7
  6
CONTINUOUS
 10
190.3612590537
 20
193.4049884261
 11
188.4734196266
 21
197.2126840659
  0
LINE
  8
0
 62
7
  6
CONTINUOUS
 10
192.2577313741
 20
199.9260499619
 11
194.2010972097
 21
196.006359806
  0
LINE
  8
0
 62
7
  6
CONTINUOUS
 10
195.0505884559
 20
195.7299381516
 11
192.8296007451
 21
200.2095803823
  0
LINE
  8
0
 62
7
  6
CONTINUOUS
 10
190.3087280578
 20
191.4300491597
 11
190.5908957647
 21
190.7351524874
  0
LINE
  8
0
 62
7
  6
CONTINUOUS
 10
196.1500691432
 20
192.9924941427
 11
195.8679014362
 21
193.687390815
  0
LINE
  8
0
 62
7
  6
CONTINUOUS
 10
191.5710088836
 20
188.426784748
 11
191.6824006634
 21
187.6741966553
  0
LINE
  8
0
 62
7
  6
CONTINUOUS
 10
197.4975629487
 20
188.7835973261
 11
197.3861711582
 21
189.5361854154
  0
LINE
  8
0
 62
7
  6
CONTINUOUS
 10
196.5864924262
 20
156.6040217499
 11
196.5370962104
 21
156.9970637031
  0
LINE
  8
0
 62
7
  6
CONTINUOUS
 10
192.2891847713
 20
187.8722805701
 11
192.2165855972
 21
188.506036481
  0
LINE
  8
0
 62
7
  6
CONTINUOUS
 10
196.7793871354
 20
189.3381015284
 11
196.8519863095
 21
188.7043456174
  0
LINE
  8
0
 62
7
  6
CONTINUOUS
 10
209.6197710502
 20
138.8024753028
 11
209.6035582601
 21
139.063408044
  0
LINE
  8
0
 62
7
  6
CONTINUOUS
 10
197.4373902371
 20
150.5855771058
 11
197.7377512426
 21
151.5393987018
  0
LINE
  8
0
 62
7
  6
CONTINUOUS
 10
212.1986733368
 20
172.8036330055
 11
203.0009040163
 21
144.4958097892
  0
LINE
  8
0
 62
7
  6
CONTINUOUS
 10
195.2777110999
 20
144.8774659352
 11
195.4751582294
 21
145.3368333761
  0
LINE
  8
0
 62
7
  6
CONTINUOUS
 10
177.5166609314
 20
102.3649180617
 11
177.6569169258
 21
102.5855467226
  0
LINE
  8
0
 62
7
  6
CONTINUOUS
 10
199.5884157665
 20
128.3565917404
 11
175.5083430649
 21
110.8613948452
  0
LINE
  8
0
 62
7
  6
CONTINUOUS
 10
130.1272404971
 20
91.7560497006
 11
130.3703922532
 21
91.8521016317
  0
LINE
  8
0
 62
7
  6
CONTINUOUS
 10
111.7319742005
 20
240.1603034346
 11
141.4965809628
 21
240.1603034346
  0
LINE
  8
0
 62
7
  6
CONTINUOUS
 10
189.4405042796
 20
228.9425095179
 11
189.1873324681
 21
229.0077228896
  0
LINE
  8
0
 62
7
  6
CONTINUOUS
 10
157.9004063183
 20
241.9021269009
 11
181.9804790199
 21
224.4069300057
  0
LINE
  8
0
 62
7
  6
CONTINUOUS
 10
214.1742739327
 20
187.150813025
 11
214.0077850929
 21
187.3523824081
  0
LINE
  8
0
 62
7
  6
CONTINUOUS
 10
196.2752706509
 20
216.174168166
 11
205.4730399713
 21
187.8663449497
  0
LINE
  8
0
 62
7
  6
CONTINUOUS
 10
282.5071169379
 20
88.4991509146
 11
290.2540975041
 21
88.4991509146
  0
LINE
  8
0
 62
7
  6
CONTINUOUS
 10
282.130607221
 20
110.9314543482
 11
290.630607221
 21
110.9314543482
  0
POLYLINE
  8
0
 62
7
  6
CONTINUOUS
 66
1
 70
0
  0
VERTEX
  8
0
 62
7
  6
CONTINUOUS
 10
282.0247337011
 20
245.2757091101
  0
VERTEX
  8
0
 62
7
  6
CONTINUOUS
 10
282.063087531
 20
245.3740201995
  0
VERTEX
  8
0
 62
7
  6
CONTINUOUS
 10
282.1215690171
 20
245.4625148163
  0
VERTEX
  8
0
 62
7
  6
CONTINUOUS
 10
282.1984607152
 20
245.5375143123
  0
VERTEX
  8
0
 62
7
  6
CONTINUOUS
 10
282.2925104105
 20
245.5957569068
  0
VERTEX
  8
0
 62
7
  6
CONTINUOUS
 10
282.401053625
 20
245.6327763641
  0
VERTEX
  8
0
 62
7
  6
CONTINUOUS
 10
282.5071170526
 20
245.6441552562
  0
SEQEND
  0
LINE
  8
1_AXIS
 62
7
  6
CONTINUOUS
 10
267.230607221
 20
137.4853034346
 11
279.130607221
 21
137.4853034346
  0
LINE
  8
1_AXIS
 62
7
  6
CONTINUOUS
 10
293.630607221
 20
137.4853034346
 11
305.530607221
 21
137.4853034346
  0
POLYLINE
  8
0
 62
7
  6
CONTINUOUS
 66
1
 70
0
  0
VERTEX
  8
0
 62
7
  6
CONTINUOUS
 10
282.0117863889
 20
251.0396296091
  0
VERTEX
  8
0
 62
7
  6
CONTINUOUS
 10
282.0367041422
 20
251.140901526
  0
VERTEX
  8
0
 62
7
  6
CONTINUOUS
 10
282.0823431409
 20
251.2352119429
  0
VERTEX
  8
0
 62
7
  6
CONTINUOUS
 10
282.1472585938
 20
251.3185898945
  0
VERTEX
  8
0
 62
7
  6
CONTINUOUS
 10
282.2291743819
 20
251.38708552
  0
VERTEX
  8
0
 62
7
  6
CONTINUOUS
 10
282.3247990848
 20
251.4370310833
  0
VERTEX
  8
0
 62
7
  6
CONTINUOUS
 10
282.4298181859
 20
251.4654447227
  0
VERTEX
  8
0
 62
7
  6
CONTINUOUS
 10
282.5071169379
 20
251.4714558248
  0
SEQEND
  0
LINE
  8
0
 62
7
  6
CONTINUOUS
 10
291.430607221
 20
223.7728678693
 11
292.130607221
 21
224.9853034346
  0
POLYLINE
  8
0
 62
7
  6
CONTINUOUS
 66
1
 70
0
  0
VERTEX
  8
0
 62
7
  6
CONTINUOUS
 10
281.7313908135
 20
209.8020724625
  0
VERTEX
  8
0
 62
7
  6
CONTINUOUS
 10
281.6969226007
 20
209.7481384504
  0
VERTEX
  8
0
 62
7
  6
CONTINUOUS
 10
281.6644881451
 20
209.6789132827
  0
VERTEX
  8
0
 62
7
  6
CONTINUOUS
 10
281.6407061569
 20
209.5969937727
  0
SEQEND
  0
POLYLINE
  8
0
 62
7
  6
CONTINUOUS
 66
1
 70
0
  0
VERTEX
  8
0
 62
7
  6
CONTINUOUS
 10
282.0117851279
 20
88.9309864224
  0
VERTEX
  8
0
 62
7
  6
CONTINUOUS
 10
282.0366964631
 20
88.8297266635
  0
VERTEX
  8
0
 62
7
  6
CONTINUOUS
 10
282.0823329949
 20
88.7354112669
  0
VERTEX
  8
0
 62
7
  6
CONTINUOUS
 10
282.1472477604
 20
88.6520282056
  0
VERTEX
  8
0
 62
7
  6
CONTINUOUS
 10
282.2291645104
 20
88.5835279508
  0
VERTEX
  8
0
 62
7
  6
CONTINUOUS
 10
282.3247915817
 20
88.5335787242
  0
VERTEX
  8
0
 62
7
  6
CONTINUOUS
 10
282.4298141733
 20
88.5051627745
  0
VERTEX
  8
0
 62
7
  6
CONTINUOUS
 10
282.5071168006
 20
88.4991510445
  0
SEQEND
  0
LINE
  8
1_AXIS
 62
7
  6
CONTINUOUS
 10
265.230607221
 20
139.4853034346
 11
265.230607221
 21
200.4852281005
  0
LINE
  8
0
 62
7
  6
CONTINUOUS
 10
282.0098462317
 20
245.1963246106
 11
282.0247337011
 21
245.2757091101
  0
POLYLINE
  8
0
 62
7
  6
CONTINUOUS
 66
1
 70
0
  0
VERTEX
  8
0
 62
7
  6
CONTINUOUS
 10
281.8133481875
 20
209.982596193
  0
VERTEX
  8
0
 62
7
  6
CONTINUOUS
 10
281.7877035403
 20
209.9056900238
  0
VERTEX
  8
0
 62
7
  6
CONTINUOUS
 10
281.7677990905
 20
209.8550027035
  0
SEQEND
  0
POLYLINE
  8
0
 62
7
  6
CONTINUOUS
 66
1
 70
0
  0
VERTEX
  8
0
 62
7
  6
CONTINUOUS
 10
282.0252567535
 20
210.7421846061
  0
VERTEX
  8
0
 62
7
  6
CONTINUOUS
 10
282.0576149072
 20
210.8276978846
  0
VERTEX
  8
0
 62
7
  6
CONTINUOUS
 10
282.1116715604
 20
210.9147064209
  0
VERTEX
  8
0
 62
7
  6
CONTINUOUS
 10
282.1815926323
 20
210.9882457582
  0
VERTEX
  8
0
 62
7
  6
CONTINUOUS
 10
282.2643217018
 20
211.0458209485
  0
VERTEX
  8
0
 62
7
  6
CONTINUOUS
 10
282.3580535072
 20
211.0859908679
  0
VERTEX
  8
0
 62
7
  6
CONTINUOUS
 10
282.4609040516
 20
211.1065875282
  0
VERTEX
  8
0
 62
7
  6
CONTINUOUS
 10
282.5071169379
 20
211.1087277395
  0
SEQEND
  0
LINE
  8
0
 62
7
  6
CONTINUOUS
 10
281.7677990905
 20
209.8550027035
 11
281.7616839946
 21
209.841456782
  0
LINE
  8
0
 62
7
  6
CONTINUOUS
 10
282.130607221
 20
152.2556088189
 11
290.630607221
 21
152.2556088189
  0
LINE
  8
0
 62
7
  6
CONTINUOUS
 10
281.6406110326
 20
91.9613291951
 11
281.6507793129
 21
91.8533752662
  0
POLYLINE
  8
0
 62
7
  6
CONTINUOUS
 66
1
 70
0
  0
VERTEX
  8
0
 62
7
  6
CONTINUOUS
 10
281.6507793129
 20
248.1172316031
  0
VERTEX
  8
0
 62
7
  6
CONTINUOUS
 10
281.6406110326
 20
248.0092776742
  0
VERTEX
  8
0
 62
7
  6
CONTINUOUS
 10
281.6325698775
 20
247.8649743047
  0
VERTEX
  8
0
 62
7
  6
CONTINUOUS
 10
281.6306072053
 20
247.7499052094
  0
SEQEND
  0
LINE
  8
0
 62
7
  6
CONTINUOUS
 10
281.6513462448
 20
241.9080632371
 11
281.6413325761
 21
241.8119913575
  0
LINE
  8
0
 62
7
  6
CONTINUOUS
 10
282.0099155725
 20
245.1969812095
 11
281.8205928701
 21
243.4100263518
  0
POLYLINE
  8
0
 62
7
  6
CONTINUOUS
 66
1
 70
0
  0
VERTEX
  8
0
 62
7
  6
CONTINUOUS
 10
281.8205928701
 20
243.4100263518
  0
VERTEX
  8
0
 62
7
  6
CONTINUOUS
 10
281.7654342724
 20
242.89902715
  0
VERTEX
  8
0
 62
7
  6
CONTINUOUS
 10
281.7040406852
 20
242.354294112
  0
VERTEX
  8
0
 62
7
  6
CONTINUOUS
 10
281.6513465072
 20
241.9080666533
  0
SEQEND
  0
POLYLINE
  8
0
 62
7
  6
CONTINUOUS
 66
1
 70
0
  0
VERTEX
  8
0
 62
7
  6
CONTINUOUS
 10
282.0117857214
 20
251.0396247595
  0
VERTEX
  8
0
 62
7
  6
CONTINUOUS
 10
281.8892471241
 20
250.1169728311
  0
VERTEX
  8
0
 62
7
  6
CONTINUOUS
 10
281.7666807229
 20
249.1252628277
  0
VERTEX
  8
0
 62
7
  6
CONTINUOUS
 10
281.6507794862
 20
248.1172325637
  0
SEQEND
  0
LINE
  8
0
 62
7
  6
CONTINUOUS
 10
282.022050597
 20
210.730015187
 11
282.0252567535
 21
210.7421846061
  0
LINE
  8
0
 62
7
  6
CONTINUOUS
 10
282.0252973705
 20
210.7423312245
 11
281.837367927
 21
210.0647049819
  0
LINE
  8
0
 62
7
  6
CONTINUOUS
 10
281.8373489665
 20
210.0646368387
 11
281.8133481875
 21
209.982596193
  0
LINE
  8
0
 62
7
  6
CONTINUOUS
 10
281.8892456844
 20
89.8536451148
 11
282.011785547
 21
88.9309832715
  0
POLYLINE
  8
0
 62
7
  6
CONTINUOUS
 66
1
 70
0
  0
VERTEX
  8
0
 62
7
  6
CONTINUOUS
 10
281.6507794851
 20
91.8533743118
  0
VERTEX
  8
0
 62
7
  6
CONTINUOUS
 10
281.7666796693
 20
90.8453529095
  0
VERTEX
  8
0
 62
7
  6
CONTINUOUS
 10
281.8892456844
 20
89.8536451148
  0
SEQEND
  0
POLYLINE
  8
0
 62
7
  6
CONTINUOUS
 66
1
 70
0
  0
VERTEX
  8
0
 62
7
  6
CONTINUOUS
 10
281.6306072053
 20
92.22070166
  0
VERTEX
  8
0
 62
7
  6
CONTINUOUS
 10
281.6325698775
 20
92.1056325646
  0
VERTEX
  8
0
 62
7
  6
CONTINUOUS
 10
281.6406110326
 20
91.9613291951
  0
SEQEND
  0
POLYLINE
  8
0
 62
7
  6
CONTINUOUS
 66
1
 70
0
  0
VERTEX
  8
0
 62
7
  6
CONTINUOUS
 10
281.6413325761
 20
241.8119913575
  0
VERTEX
  8
0
 62
7
  6
CONTINUOUS
 10
281.6321365393
 20
241.6601455377
  0
VERTEX
  8
0
 62
7
  6
CONTINUOUS
 10
281.6306073135
 20
241.5687184758
  0
SEQEND
  0
LINE
  8
0
 62
7
  6
CONTINUOUS
 10
281.6407061569
 20
209.5969937727
 11
281.6307667082
 21
209.5088947059
  0
LINE
  8
0
 62
7
  6
CONTINUOUS
 10
281.6306072573
 20
92.2207172145
 11
281.630607221
 21
92.2212142211
  0
LINE
  8
1_AXIS
 62
7
  6
CONTINUOUS
 10
281.630607221
 20
209.4961794594
 11
281.630607221
 21
201.1987763464
  0
LINE
  8
1_AXIS
 62
7
  6
CONTINUOUS
 10
281.630607221
 20
162.3316832288
 11
281.630607221
 21
153.1379261082
  0
LINE
  8
1_AXIS
 62
7
  6
CONTINUOUS
 10
281.630607221
 20
118.0906097798
 11
281.630607221
 21
111.5122013875
  0
LINE
  8
1_AXIS
 62
7
  6
CONTINUOUS
 10
281.630607221
 20
93.6715454712
 11
281.630607221
 21
92.2212142211
  0
LINE
  8
0
 62
7
  6
CONTINUOUS
 10
281.630607221
 20
92.221214221
 11
281.630607221
 21
152.6629176423
  0
LINE
  8
0
 62
7
  6
CONTINUOUS
 10
281.630607221
 20
152.7557870781
 11
281.630607221
 21
209.4961794594
  0
LINE
  8
0
 62
7
  6
CONTINUOUS
 10
281.630607221
 20
209.506847021
 11
281.630607221
 21
247.7493926482
  0
LINE
  8
1_AXIS
 62
2
  6
CENTER
 10
263.230607221
 20
169.9853034346
 11
309.530607221
 21
169.9853034346
  0
POLYLINE
  8
0
 62
7
  6
CONTINUOUS
 66
1
 70
0
  0
VERTEX
  8
0
 62
7
  6
CONTINUOUS
 10
291.1306071068
 20
241.5688700468
  0
VERTEX
  8
0
 62
7
  6
CONTINUOUS
 10
291.1289054128
 20
241.6651761076
  0
VERTEX
  8
0
 62
7
  6
CONTINUOUS
 10
291.1194301976
 20
241.8171023439
  0
SEQEND
  0
POLYLINE
  8
0
 62
7
  6
CONTINUOUS
 66
1
 70
0
  0
VERTEX
  8
0
 62
7
  6
CONTINUOUS
 10
291.1306072879
 20
247.7493935337
  0
VERTEX
  8
0
 62
7
  6
CONTINUOUS
 10
291.128739918
 20
247.8621414781
  0
VERTEX
  8
0
 62
7
  6
CONTINUOUS
 10
291.1208215067
 20
248.0064499631
  0
VERTEX
  8
0
 62
7
  6
CONTINUOUS
 10
291.1104351243
 20
248.1172315313
  0
SEQEND
  0
LINE
  8
0
 62
7
  6
CONTINUOUS
 10
291.1306071052
 20
209.4961687314
 11
291.1304377269
 21
209.5092871363
  0
LINE
  8
0
 62
7
  6
CONTINUOUS
 10
291.130607221
 20
92.221214221
 11
291.130607221
 21
209.4961794594
  0
LINE
  8
0
 62
7
  6
CONTINUOUS
 10
291.130607221
 20
209.5068470203
 11
291.130607221
 21
247.7493926482
  0
LINE
  8
0
 62
7
  6
CONTINUOUS
 10
291.430607221
 20
232.954387012
 11
291.430607221
 21
218.1111289924
  0
POLYLINE
  8
0
 62
7
  6
CONTINUOUS
 66
1
 70
0
  0
VERTEX
  8
0
 62
7
  6
CONTINUOUS
 10
291.1208215067
 20
91.9641569062
  0
VERTEX
  8
0
 62
7
  6
CONTINUOUS
 10
291.128739918
 20
92.1084653912
  0
VERTEX
  8
0
 62
7
  6
CONTINUOUS
 10
291.1306072879
 20
92.2212133356
  0
SEQEND
  0
LINE
  8
0
 62
7
  6
CONTINUOUS
 10
291.1104351243
 20
91.853375338
 11
291.1208215067
 21
91.9641569062
  0
LINE
  8
0
 62
7
  6
CONTINUOUS
 10
291.1304377269
 20
209.5092871363
 11
291.1203502387
 21
209.5977729265
  0
LINE
  8
0
 62
7
  6
CONTINUOUS
 10
290.9951941728
 20
242.9043491989
 11
290.7513124495
 21
245.1968553564
  0
LINE
  8
0
 62
7
  6
CONTINUOUS
 10
291.1194301976
 20
241.8171023439
 11
291.1098681063
 21
241.9080643646
  0
LINE
  8
0
 62
7
  6
CONTINUOUS
 10
290.994810921
 20
90.8476704802
 11
291.1104349615
 21
91.8533743463
  0
POLYLINE
  8
0
 62
7
  6
CONTINUOUS
 66
1
 70
0
  0
VERTEX
  8
0
 62
7
  6
CONTINUOUS
 10
290.7494288974
 20
88.9309832972
  0
VERTEX
  8
0
 62
7
  6
CONTINUOUS
 10
290.8722529474
 20
89.8558622906
  0
VERTEX
  8
0
 62
7
  6
CONTINUOUS
 10
290.994810921
 20
90.8476704802
  0
SEQEND
  0
LINE
  8
0
 62
7
  6
CONTINUOUS
 10
290.9474269878
 20
209.9840140438
 11
290.9238664957
 21
210.0646331743
  0
POLYLINE
  8
0
 62
7
  6
CONTINUOUS
 66
1
 70
0
  0
VERTEX
  8
0
 62
7
  6
CONTINUOUS
 10
291.1203502387
 20
209.5977729265
  0
VERTEX
  8
0
 62
7
  6
CONTINUOUS
 10
291.0963223609
 20
209.6799663149
  0
VERTEX
  8
0
 62
7
  6
CONTINUOUS
 10
291.0636833559
 20
209.7492226945
  0
VERTEX
  8
0
 62
7
  6
CONTINUOUS
 10
291.029108547
 20
209.8030597977
  0
VERTEX
  8
0
 62
7
  6
CONTINUOUS
 10
291.001546647
 20
209.8377603825
  0
SEQEND
  0
LINE
  8
0
 62
7
  6
CONTINUOUS
 10
290.9238465151
 20
210.064704982
 11
290.7358925863
 21
210.7424195486
  0
POLYLINE
  8
0
 62
7
  6
CONTINUOUS
 66
1
 70
0
  0
VERTEX
  8
0
 62
7
  6
CONTINUOUS
 10
291.1098678826
 20
241.9080669564
  0
VERTEX
  8
0
 62
7
  6
CONTINUOUS
 10
291.0566049819
 20
242.3592211843
  0
VERTEX
  8
0
 62
7
  6
CONTINUOUS
 10
290.9951941728
 20
242.9043491989
  0
SEQEND
  0
POLYLINE
  8
0
 62
7
  6
CONTINUOUS
 66
1
 70
0
  0
VERTEX
  8
0
 62
7
  6
CONTINUOUS
 10
291.1104349589
 20
248.1172325367
  0
VERTEX
  8
0
 62
7
  6
CONTINUOUS
 10
290.9948100934
 20
249.1229433552
  0
VERTEX
  8
0
 62
7
  6
CONTINUOUS
 10
290.872251712
 20
250.1147540879
  0
VERTEX
  8
0
 62
7
  6
CONTINUOUS
 10
290.7494288991
 20
251.0396234621
  0
SEQEND
  0
LINE
  8
1_AXIS
 62
7
  6
CONTINUOUS
 10
307.530607221
 20
200.4853034346
 11
307.530607221
 21
139.4853787688
  0
POLYLINE
  8
0
 62
7
  6
CONTINUOUS
 66
1
 70
0
  0
VERTEX
  8
0
 62
7
  6
CONTINUOUS
 10
291.0053075601
 20
209.8300227196
  0
VERTEX
  8
0
 62
7
  6
CONTINUOUS
 10
291.0044629641
 20
209.831561315
  0
VERTEX
  8
0
 62
7
  6
CONTINUOUS
 10
290.9931877992
 20
209.8555283617
  0
SEQEND
  0
POLYLINE
  8
0
 62
7
  6
CONTINUOUS
 66
1
 70
0
  0
VERTEX
  8
0
 62
7
  6
CONTINUOUS
 10
290.9931877992
 20
209.8555283617
  0
VERTEX
  8
0
 62
7
  6
CONTINUOUS
 10
290.9731667386
 20
209.9066415406
  0
VERTEX
  8
0
 62
7
  6
CONTINUOUS
 10
290.9474269878
 20
209.9840140438
  0
SEQEND
  0
POLYLINE
  8
0
 62
7
  6
CONTINUOUS
 66
1
 70
0
  0
VERTEX
  8
0
 62
7
  6
CONTINUOUS
 10
290.7358925861
 20
210.7424195453
  0
VERTEX
  8
0
 62
7
  6
CONTINUOUS
 10
290.7014488492
 20
210.8320588257
  0
VERTEX
  8
0
 62
7
  6
CONTINUOUS
 10
290.6501782758
 20
210.9138834741
  0
VERTEX
  8
0
 62
7
  6
CONTINUOUS
 10
290.5835231581
 20
210.9848643352
  0
VERTEX
  8
0
 62
7
  6
CONTINUOUS
 10
290.5035092733
 20
211.0420795244
  0
VERTEX
  8
0
 62
7
  6
CONTINUOUS
 10
290.4130002735
 20
211.0828056972
  0
VERTEX
  8
0
 62
7
  6
CONTINUOUS
 10
290.3155766219
 20
211.1049336627
  0
VERTEX
  8
0
 62
7
  6
CONTINUOUS
 10
290.2540975041
 20
211.1087276006
  0
SEQEND
  0
POLYLINE
  8
0
 62
7
  6
CONTINUOUS
 66
1
 70
0
  0
VERTEX
  8
0
 62
7
  6
CONTINUOUS
 10
290.7495878016
 20
251.0384583943
  0
VERTEX
  8
0
 62
7
  6
CONTINUOUS
 10
290.7328494606
 20
251.1156660935
  0
VERTEX
  8
0
 62
7
  6
CONTINUOUS
 10
290.6941379633
 20
251.208867821
  0
VERTEX
  8
0
 62
7
  6
CONTINUOUS
 10
290.6388354659
 20
251.2907938646
  0
VERTEX
  8
0
 62
7
  6
CONTINUOUS
 10
290.5694240856
 20
251.3594883593
  0
VERTEX
  8
0
 62
7
  6
CONTINUOUS
 10
290.4872689019
 20
251.413758
  0
VERTEX
  8
0
 62
7
  6
CONTINUOUS
 10
290.3944202118
 20
251.4513617139
  0
VERTEX
  8
0
 62
7
  6
CONTINUOUS
 10
290.2965149989
 20
251.4696534618
  0
SEQEND
  0
POLYLINE
  8
0
 62
7
  6
CONTINUOUS
 66
1
 70
0
  0
VERTEX
  8
0
 62
7
  6
CONTINUOUS
 10
290.7513124485
 20
245.196855356
  0
VERTEX
  8
0
 62
7
  6
CONTINUOUS
 10
290.7314736155
 20
245.2928564747
  0
VERTEX
  8
0
 62
7
  6
CONTINUOUS
 10
290.6946787111
 20
245.3805621227
  0
VERTEX
  8
0
 62
7
  6
CONTINUOUS
 10
290.6407276655
 20
245.4611996175
  0
VERTEX
  8
0
 62
7
  6
CONTINUOUS
 10
290.5717129073
 20
245.5303164483
  0
VERTEX
  8
0
 62
7
  6
CONTINUOUS
 10
290.4879832195
 20
245.5860800058
  0
VERTEX
  8
0
 62
7
  6
CONTINUOUS
 10
290.3908652529
 20
245.6250862244
  0
VERTEX
  8
0
 62
7
  6
CONTINUOUS
 10
290.2848634595
 20
245.6432078283
  0
VERTEX
  8
0
 62
7
  6
CONTINUOUS
 10
290.2540973926
 20
245.6441552666
  0
SEQEND
  0
POLYLINE
  8
0
 62
7
  6
CONTINUOUS
 66
1
 70
0
  0
VERTEX
  8
0
 62
7
  6
CONTINUOUS
 10
290.7494293158
 20
88.9309864351
  0
VERTEX
  8
0
 62
7
  6
CONTINUOUS
 10
290.7245180087
 20
88.8297267463
  0
VERTEX
  8
0
 62
7
  6
CONTINUOUS
 10
290.6788814865
 20
88.7354113304
  0
VERTEX
  8
0
 62
7
  6
CONTINUOUS
 10
290.6139667237
 20
88.6520282493
  0
VERTEX
  8
0
 62
7
  6
CONTINUOUS
 10
290.53204997
 20
88.5835279765
  0
VERTEX
  8
0
 62
7
  6
CONTINUOUS
 10
290.4364228895
 20
88.5335787356
  0
VERTEX
  8
0
 62
7
  6
CONTINUOUS
 10
290.3314002843
 20
88.5051627769
  0
VERTEX
  8
0
 62
7
  6
CONTINUOUS
 10
290.2540975041
 20
88.4991510445
  0
SEQEND
  0
LINE
  8
1_AXIS
 62
7
  6
CONTINUOUS
 10
267.230607221
 20
202.4853034346
 11
279.130607221
 21
202.4853034346
  0
LINE
  8
1_AXIS
 62
7
  6
CONTINUOUS
 10
293.630607221
 20
202.4853034346
 11
305.530607221
 21
202.4853034346
  0
LINE
  8
0
 62
7
  6
CONTINUOUS
 10
291.430607221
 20
226.1977389999
 11
292.130607221
 21
224.9853034346
  0
LINE
  8
0
 62
7
  6
CONTINUOUS
 10
282.5071169379
 20
211.1087277396
 11
290.2540975041
 21
211.1087277396
  0
LINE
  8
0
 62
7
  6
CONTINUOUS
 10
291.130607221
 20
218.1111289924
 11
291.430607221
 21
218.1111289924
  0
LINE
  8
0
 62
7
  6
CONTINUOUS
 10
291.130607221
 20
218.1319882055
 11
291.430607221
 21
218.1319882055
  0
LINE
  8
0
 62
7
  6
CONTINUOUS
 10
291.130607221
 20
218.2615625674
 11
291.430607221
 21
218.2615625674
  0
LINE
  8
0
 62
7
  6
CONTINUOUS
 10
291.130607221
 20
218.413469107
 11
291.430607221
 21
218.413469107
  0
LINE
  8
0
 62
7
  6
CONTINUOUS
 10
291.130607221
 20
218.7828059311
 11
291.430607221
 21
218.7828059311
  0
LINE
  8
0
 62
7
  6
CONTINUOUS
 10
291.130607221
 20
220.9571081665
 11
291.430607221
 21
220.9571081665
  0
LINE
  8
0
 62
7
  6
CONTINUOUS
 10
291.130607221
 20
221.2847264926
 11
291.430607221
 21
221.2847264926
  0
LINE
  8
0
 62
7
  6
CONTINUOUS
 10
291.130607221
 20
222.5951997734
 11
291.430607221
 21
222.5951997734
  0
LINE
  8
0
 62
7
  6
CONTINUOUS
 10
291.130607221
 20
222.9228181698
 11
291.430607221
 21
222.9228181698
  0
LINE
  8
0
 62
7
  6
CONTINUOUS
 10
291.130607221
 20
223.7001253432
 11
291.430607221
 21
223.7001253432
  0
LINE
  8
0
 62
7
  6
CONTINUOUS
 10
291.130607221
 20
223.982303888
 11
291.430607221
 21
223.982303888
  0
LINE
  8
0
 62
7
  6
CONTINUOUS
 10
291.130607221
 20
224.1505744024
 11
291.430607221
 21
224.1505744024
  0
LINE
  8
0
 62
7
  6
CONTINUOUS
 10
291.130607221
 20
224.4902251717
 11
291.430607221
 21
224.4902251717
  0
LINE
  8
0
 62
7
  6
CONTINUOUS
 10
291.130607221
 20
224.7159680722
 11
291.430607221
 21
224.7159680722
  0
LINE
  8
0
 62
7
  6
CONTINUOUS
 10
291.130607221
 20
224.7713672978
 11
291.430607221
 21
224.7713672978
  0
LINE
  8
0
 62
7
  6
CONTINUOUS
 10
291.130607221
 20
225.7667189385
 11
291.430607221
 21
225.7667189385
  0
LINE
  8
0
 62
7
  6
CONTINUOUS
 10
291.130607221
 20
226.0185418105
 11
291.430607221
 21
226.0185418105
  0
LINE
  8
0
 62
7
  6
CONTINUOUS
 10
291.130607221
 20
226.1066605132
 11
291.430607221
 21
226.1066605132
  0
LINE
  8
0
 62
7
  6
CONTINUOUS
 10
291.130607221
 20
226.695950103
 11
291.430607221
 21
226.695950103
  0
LINE
  8
0
 62
7
  6
CONTINUOUS
 10
291.130607221
 20
226.9351063168
 11
291.430607221
 21
226.9351063168
  0
LINE
  8
0
 62
7
  6
CONTINUOUS
 10
291.130607221
 20
227.5192998424
 11
291.430607221
 21
227.5192998424
  0
LINE
  8
0
 62
7
  6
CONTINUOUS
 10
291.130607221
 20
227.7711227145
 11
291.430607221
 21
227.7711227145
  0
LINE
  8
0
 62
7
  6
CONTINUOUS
 10
291.130607221
 20
228.5542856934
 11
291.430607221
 21
228.5542856934
  0
LINE
  8
0
 62
7
  6
CONTINUOUS
 10
291.130607221
 20
229.2038867285
 11
291.430607221
 21
229.2038867285
  0
LINE
  8
0
 62
7
  6
CONTINUOUS
 10
291.130607221
 20
229.759754283
 11
291.430607221
 21
229.759754283
  0
LINE
  8
0
 62
7
  6
CONTINUOUS
 10
291.130607221
 20
230.3759329357
 11
291.430607221
 21
230.3759329357
  0
LINE
  8
0
 62
7
  6
CONTINUOUS
 10
291.130607221
 20
230.7443335329
 11
291.430607221
 21
230.7443335329
  0
LINE
  8
0
 62
7
  6
CONTINUOUS
 10
291.130607221
 20
231.0190009965
 11
291.430607221
 21
231.0190009965
  0
LINE
  8
0
 62
7
  6
CONTINUOUS
 10
291.130607221
 20
231.2904019739
 11
291.430607221
 21
231.2904019739
  0
LINE
  8
0
 62
7
  6
CONTINUOUS
 10
291.130607221
 20
231.317291382
 11
291.430607221
 21
231.317291382
  0
LINE
  8
0
 62
7
  6
CONTINUOUS
 10
291.130607221
 20
232.015266098
 11
291.430607221
 21
232.015266098
  0
LINE
  8
0
 62
7
  6
CONTINUOUS
 10
291.130607221
 20
232.4421277387
 11
291.430607221
 21
232.4421277387
  0
LINE
  8
0
 62
7
  6
CONTINUOUS
 10
291.130607221
 20
232.8221674572
 11
291.430607221
 21
232.8221674572
  0
LINE
  8
0
 62
7
  6
CONTINUOUS
 10
291.130607221
 20
232.954387012
 11
291.430607221
 21
232.954387012
  0
LINE
  8
0
 62
7
  6
CONTINUOUS
 10
282.5071169379
 20
245.64415527
 11
290.2540975041
 21
245.64415527
  0
LINE
  8
0
 62
7
  6
CONTINUOUS
 10
282.5071169379
 20
251.4714559547
 11
290.2540975041
 21
251.4714559547
  0
LINE
  8
0
 62
7
  6
CONTINUOUS
 10
290.2965149989
 20
251.4696534618
 11
290.2540975041
 21
251.4714559546
  0
ARC
  8
0
 62
7
  6
CONTINUOUS
 10
75.3095001446
 20
72.623198011
 40
180.0
 50
36.508015808
 51
39.5970530068
  0
ARC
  8
0
 62
7
  6
CONTINUOUS
 10
70.6339108862
 20
121.1697942511
 40
8.5
 50
324.0
 51
18.0
  0
ARC
  8
0
 62
7
  6
CONTINUOUS
 10
76.6262361639
 20
114.1058078745
 40
0.5
 50
144.0
 51
252.508015808
  0
ARC
  8
0
 62
7
  6
CONTINUOUS
 10
29.9581660502
 20
127.7703545268
 40
180.0
 50
0.508015808
 51
3.5970530068
  0
ARC
  8
0
 62
7
  6
CONTINUOUS
 10
54.7105082003
 20
169.793618316
 40
8.5
 50
288.0
 51
342.0
  0
ARC
  8
0
 62
7
  6
CONTINUOUS
 10
61.7559228602
 20
153.2556088189
 40
1.0
 50
219.5970530068
 51
271.53
  0
ARC
  8
0
 62
7
  6
CONTINUOUS
 10
69.0445936961
 20
151.9497534224
 40
0.5
 50
18.0
 51
91.53
  0
ARC
  8
0
 62
7
  6
CONTINUOUS
 10
55.4062941712
 20
160.5565328641
 40
0.5
 50
108.0
 51
216.508015808
  0
ARC
  8
0
 62
7
  6
CONTINUOUS
 10
86.0545691631
 20
111.9314543482
 40
1.0
 50
255.5970530068
 51
307.53
  0
ARC
  8
0
 62
7
  6
CONTINUOUS
 10
92.7187902795
 20
115.1591683664
 40
0.5
 50
54.0
 51
127.53
  0
ARC
  8
0
 62
7
  6
CONTINUOUS
 10
112.0965809628
 20
91.1918355162
 40
8.5
 50
0.0
 51
54.0
  0
ARC
  8
0
 62
7
  6
CONTINUOUS
 10
130.0023155239
 20
92.7818970508
 40
1.0
 50
291.5970530068
 51
343.53
  0
ARC
  8
0
 62
7
  6
CONTINUOUS
 10
133.4965809628
 20
99.3103034346
 40
0.5
 50
90.0
 51
163.53
  0
ARC
  8
0
 62
7
  6
CONTINUOUS
 10
121.0965809628
 20
88.9991509146
 40
0.5
 50
180.0
 51
288.508015808
  0
ARC
  8
DEFAULT_1
 62
2
  6
CENTER
 10
131.1015345805
 20
143.5705951698
 40
3.2
 50
2.2544307753
 51
45.0
  0
ARC
  8
DEFAULT_1
 62
2
  6
CENTER
 10
127.5660006746
 20
147.1061290758
 40
3.2
 50
45.0
 51
86.4096221093
  0
ARC
  8
DEFAULT_1
 62
2
  6
CENTER
 10
127.9667873149
 20
153.4935675349
 40
3.2
 50
225.0
 51
266.4096221093
  0
ARC
  8
DEFAULT_1
 62
2
  6
CENTER
 10
121.0048450631
 20
160.4555097867
 40
3.2
 50
183.5903778907
 51
225.0
  0
ARC
  8
DEFAULT_1
 62
2
  6
CENTER
 10
114.6174066039
 20
160.0547231465
 40
3.2
 50
3.5903778907
 51
45.0
  0
ARC
  8
DEFAULT_1
 62
2
  6
CENTER
 10
111.081872698
 20
163.5902570524
 40
3.2
 50
45.0
 51
87.7455692247
  0
ARC
  8
0
 62
7
  6
CONTINUOUS
 10
25.682851356
 20
199.0421866921
 40
180.0
 50
324.508015808
 51
327.5970530068
  0
ARC
  8
0
 62
7
  6
CONTINUOUS
 10
70.4085715146
 20
218.4906595811
 40
8.5
 50
252.0
 51
306.0
  0
ARC
  8
0
 62
7
  6
CONTINUOUS
 10
66.3876336222
 20
200.9699380115
 40
1.0
 50
183.5970530068
 51
235.53
  0
ARC
  8
0
 62
7
  6
CONTINUOUS
 10
71.5167296511
 20
195.6293055773
 40
0.5
 50
342.0
 51
55.53
  0
ARC
  8
0
 62
7
  6
CONTINUOUS
 10
65.5420515867
 20
210.6087277396
 40
0.5
 50
72.0
 51
180.508015808
  0
ARC
  8
0
 62
7
  6
CONTINUOUS
 10
64.1165809628
 20
259.2152770602
 40
180.0
 50
288.508015808
 51
291.5970530068
  0
ARC
  8
DEFAULT_1
 62
2
  6
CENTER
 10
111.3336300589
 20
169.9853034346
 40
3.2
 50
92.2544307753
 51
267.7455692247
  0
ARC
  8
DEFAULT_1
 62
2
  6
CENTER
 10
111.081872698
 20
176.3803498169
 40
3.2
 50
272.2544307753
 51
315.0
  0
ARC
  8
DEFAULT_1
 62
2
  6
CENTER
 10
114.6174066039
 20
179.9158837228
 40
3.2
 50
315.0
 51
356.4096221093
  0
ARC
  8
DEFAULT_1
 62
2
  6
CENTER
 10
121.0048450631
 20
179.5150970826
 40
3.2
 50
135.0
 51
176.4096221093
  0
ARC
  8
DEFAULT_1
 62
2
  6
CENTER
 10
127.9667873149
 20
186.4770393344
 40
3.2
 50
93.5903778907
 51
135.0
  0
ARC
  8
DEFAULT_1
 62
2
  6
CENTER
 10
127.5660006746
 20
192.8644777935
 40
3.2
 50
273.5903778907
 51
315.0
  0
ARC
  8
DEFAULT_1
 62
2
  6
CENTER
 10
131.1015345805
 20
196.4000116994
 40
3.2
 50
315.0
 51
357.7455692247
  0
ARC
  8
0
 62
7
  6
CONTINUOUS
 10
130.5789764751
 20
285.3055503185
 40
180.0
 50
252.508015808
 51
255.5970530068
  0
ARC
  8
0
 62
7
  6
CONTINUOUS
 10
111.7319742005
 20
248.6603034346
 40
8.5
 50
216.0
 51
270.0
  0
ARC
  8
0
 62
7
  6
CONTINUOUS
 10
98.1805453641
 20
236.8491899246
 40
1.0
 50
147.5970530068
 51
199.53
  0
ARC
  8
0
 62
7
  6
CONTINUOUS
 10
99.1909262345
 20
229.5137205213
 40
0.5
 50
306.0
 51
19.53
  0
ARC
  8
0
 62
7
  6
CONTINUOUS
 10
103.1619935794
 20
245.14415527
 40
0.5
 50
36.0
 51
144.508015808
  0
ARC
  8
0
 62
7
  6
CONTINUOUS
 10
144.4141854505
 20
54.6650565508
 40
180.0
 50
72.508015808
 51
75.5970530068
  0
ARC
  8
0
 62
7
  6
CONTINUOUS
 10
163.2611877251
 20
91.3103034346
 40
8.5
 50
36.0
 51
90.0
  0
ARC
  8
0
 62
7
  6
CONTINUOUS
 10
176.8126165615
 20
103.1214169447
 40
1.0
 50
327.5970530068
 51
19.53
  0
ARC
  8
0
 62
7
  6
CONTINUOUS
 10
171.8311683462
 20
94.8264515993
 40
0.5
 50
216.0
 51
324.508015808
  0
ARC
  8
DEFAULT_1
 62
2
  6
CENTER
 10
163.9112892276
 20
163.5902570524
 40
3.2
 50
92.2544307753
 51
135.0
  0
ARC
  8
DEFAULT_1
 62
2
  6
CENTER
 10
160.3757553217
 20
160.0547231465
 40
3.2
 50
135.0
 51
176.4096221093
  0
ARC
  8
DEFAULT_1
 62
2
  6
CENTER
 10
153.9883168626
 20
160.4555097867
 40
3.2
 50
315.0
 51
356.4096221093
  0
ARC
  8
DEFAULT_1
 62
2
  6
CENTER
 10
147.0263746107
 20
153.4935675349
 40
3.2
 50
273.5903778907
 51
315.0
  0
ARC
  8
DEFAULT_1
 62
2
  6
CENTER
 10
147.427161251
 20
147.1061290758
 40
3.2
 50
93.5903778907
 51
135.0
  0
ARC
  8
DEFAULT_1
 62
2
  6
CENTER
 10
143.8916273451
 20
143.5705951698
 40
3.2
 50
135.0
 51
177.7455692247
  0
ARC
  8
DEFAULT_1
 62
2
  6
CENTER
 10
137.4965809628
 20
143.8223525307
 40
3.2
 50
182.2544307753
 51
357.7455692247
  0
ARC
  8
0
 62
7
  6
CONTINUOUS
 10
175.8022356911
 20
110.456886348
 40
0.5
 50
126.0
 51
199.53
  0
ARC
  8
0
 62
7
  6
CONTINUOUS
 10
210.8765809628
 20
80.7553298091
 40
180.0
 50
108.508015808
 51
111.5970530068
  0
ARC
  8
0
 62
7
  6
CONTINUOUS
 10
249.3103105696
 20
140.9284201772
 40
180.0
 50
144.508015808
 51
147.5970530068
  0
ARC
  8
0
 62
7
  6
CONTINUOUS
 10
204.584590411
 20
121.4799472882
 40
8.5
 50
72.0
 51
126.0
  0
ARC
  8
0
 62
7
  6
CONTINUOUS
 10
208.6055283034
 20
139.0006688578
 40
1.0
 50
3.5970530068
 51
55.53
  0
ARC
  8
0
 62
7
  6
CONTINUOUS
 10
203.4764322745
 20
144.341301292
 40
0.5
 50
162.0
 51
235.53
  0
ARC
  8
0
 62
7
  6
CONTINUOUS
 10
209.4511103389
 20
129.3618791297
 40
0.5
 50
252.0
 51
0.508015808
  0
CIRCLE
  8
1_AXIS
 62
7
  6
CONTINUOUS
 10
137.4965809628
 20
169.9853034346
 40
32.5
  0
ARC
  8
DEFAULT_1
 62
2
  6
CENTER
 10
137.4965809628
 20
169.9853034346
 40
9.525
 50
108.3584370753
 51
251.6415629247
  0
ARC
  8
DEFAULT_1
 62
2
  6
CENTER
 10
137.4965809628
 20
169.9853034346
 40
9.525
 50
288.3584370753
 51
71.6415629247
  0
ARC
  8
DEFAULT_1
 62
2
  6
CENTER
 10
163.9112892276
 20
176.3803498169
 40
3.2
 50
225.0
 51
267.7455692247
  0
ARC
  8
DEFAULT_1
 62
2
  6
CENTER
 10
163.6595318667
 20
169.9853034346
 40
3.2
 50
272.2544307753
 51
87.7455692247
  0
ARC
  8
DEFAULT_1
 62
2
  6
CENTER
 10
137.4965809628
 20
196.1482543385
 40
3.2
 50
2.2544307753
 51
177.7455692247
  0
ARC
  8
DEFAULT_1
 62
2
  6
CENTER
 10
143.8916273451
 20
196.4000116994
 40
3.2
 50
182.2544307753
 51
225.0
  0
ARC
  8
DEFAULT_1
 62
2
  6
CENTER
 10
147.427161251
 20
192.8644777935
 40
3.2
 50
225.0
 51
266.4096221093
  0
ARC
  8
DEFAULT_1
 62
2
  6
CENTER
 10
147.0263746107
 20
186.4770393344
 40
3.2
 50
45.0
 51
86.4096221093
  0
ARC
  8
DEFAULT_1
 62
2
  6
CENTER
 10
153.9883168626
 20
179.5150970826
 40
3.2
 50
3.5903778907
 51
45.0
  0
ARC
  8
DEFAULT_1
 62
2
  6
CENTER
 10
160.3757553217
 20
179.9158837228
 40
3.2
 50
183.5903778907
 51
225.0
  0
CIRCLE
  8
0
 62
7
  6
CONTINUOUS
 10
137.4965809628
 20
224.9853034346
 40
1.7320508076
  0
ARC
  8
0
 62
7
  6
CONTINUOUS
 10
162.8965809628
 20
248.7787713531
 40
8.5
 50
180.0
 51
234.0
  0
ARC
  8
0
 62
7
  6
CONTINUOUS
 10
144.9908464018
 20
247.1887098185
 40
1.0
 50
111.5970530068
 51
163.53
  0
ARC
  8
0
 62
7
  6
CONTINUOUS
 10
141.4965809628
 20
240.6603034346
 40
0.5
 50
270.0
 51
343.53
  0
ARC
  8
0
 62
7
  6
CONTINUOUS
 10
153.8965809628
 20
250.9714559547
 40
0.5
 50
0.0
 51
108.508015808
  0
ARC
  8
0
 62
7
  6
CONTINUOUS
 10
188.9385927625
 20
228.0391525211
 40
1.0
 50
75.5970530068
 51
127.53
  0
ARC
  8
0
 62
7
  6
CONTINUOUS
 10
182.2743716461
 20
224.8114385029
 40
0.5
 50
234.0
 51
307.53
  0
ARC
  8
0
 62
7
  6
CONTINUOUS
 10
245.0349958754
 20
212.2002523425
 40
180.0
 50
180.508015808
 51
183.5970530068
  0
ARC
  8
0
 62
7
  6
CONTINUOUS
 10
220.2826537253
 20
170.1769885533
 40
8.5
 50
108.0
 51
162.0
  0
ARC
  8
0
 62
7
  6
CONTINUOUS
 10
213.2372390654
 20
186.7149980503
 40
1.0
 50
39.5970530068
 51
91.53
  0
ARC
  8
0
 62
7
  6
CONTINUOUS
 10
205.9485682295
 20
188.0208534469
 40
0.5
 50
198.0
 51
271.53
  0
ARC
  8
0
 62
7
  6
CONTINUOUS
 10
219.5868677544
 20
179.4140740051
 40
0.5
 50
288.0
 51
36.508015808
  0
ARC
  8
0
 62
7
  6
CONTINUOUS
 10
199.683661781
 20
267.3474088583
 40
180.0
 50
216.508015808
 51
219.5970530068
  0
ARC
  8
0
 62
7
  6
CONTINUOUS
 10
204.3592510394
 20
218.8008126182
 40
8.5
 50
144.0
 51
198.0
  0
ARC
  8
0
 62
7
  6
CONTINUOUS
 10
198.3669257617
 20
225.8647989948
 40
0.5
 50
324.0
 51
72.508015808
  0
ARC
  8
1_AXIS
 62
7
  6
CONTINUOUS
 10
279.130607221
 20
204.9853034346
 40
2.5
 50
270.0
 51
360.0
  0
ARC
  8
1_AXIS
 62
7
  6
CONTINUOUS
 10
293.630607221
 20
204.9853034346
 40
2.5
 50
180.0
 51
270.0
  0
ARC
  8
1_AXIS
 62
7
  6
CONTINUOUS
 10
279.130607221
 20
134.9853034346
 40
2.5
 50
0.0
 51
90.0
  0
ARC
  8
1_AXIS
 62
7
  6
CONTINUOUS
 10
293.630607221
 20
134.9853034346
 40
2.5
 50
90.0
 51
180.0
  0
ARC
  8
1_AXIS
 62
7
  6
CONTINUOUS
 10
267.230607221
 20
200.4853034346
 40
2.0
 50
90.0
 51
180.0
  0
ARC
  8
1_AXIS
 62
7
  6
CONTINUOUS
 10
305.530607221
 20
200.4853034346
 40
2.0
 50
0.0
 51
90.0
  0
ARC
  8
1_AXIS
 62
7
  6
CONTINUOUS
 10
267.230607221
 20
139.4853034346
 40
2.0
 50
180.0
 51
270.0
  0
ARC
  8
1_AXIS
 62
7
  6
CONTINUOUS
 10
305.530607221
 20
139.4853034346
 40
2.0
 50
270.0
 51
360.0
  0
ARC
  8
0
 62
7
  6
CONTINUOUS
 10
282.130607221
 20
111.4314543482
 40
0.5
 50
179.9999534306
 51
270.0
  0
ARC
  8
0
 62
7
  6
CONTINUOUS
 10
282.130607221
 20
152.7556088189
 40
0.5
 50
180.0000024303
 51
270.0
  0
ARC
  8
0
 62
7
  6
CONTINUOUS
 10
290.630607221
 20
111.4314543482
 40
0.5
 50
270.0
 51
0.0000465693
  0
ARC
  8
0
 62
7
  6
CONTINUOUS
 10
290.630607221
 20
152.7556088189
 40
0.5
 50
270.0
 51
359.9999975742
  0
ENDSEC
  0
EOF
