  0
SECTION
  2
HEADER
  9
$EXTMAX
 10
210.0
 20
297.0
 30
0.0
  9
$EXTMIN
 10
0.0
 20
0.0
 30
0.0
  9
$LIMMIN
 10
0.0
 20
0.0
  9
$LIMMAX
 10
210.0
 20
297.0
  9
$VIEWCTR
 10
105.0
 20
148.5
  9
$VIEWSIZE
 40
297.0
  9
$CLAYER
  8
0
  9
$LTSCALE
 40
19.36
  9
$CELTYPE
  6
BYLAYER
  9
$DIMSCALE
 40
1.0
  9
$DIMASZ
 40
3.5
  9
$DIMEXO
 40
2.2
  9
$DIMDLI
 40
13.376
  9
$DIMEXE
 40
6.336
  9
$DIMCEN
 40
3.168
  9
$DIMLFAC
 40
1.0
  9
$DIMBLK
  1
_FILLED
  9
$DIMTXT
 40
3.5
  9
$PDMODE
 70
3
  9
$PDSIZE
 40
0.3125
  9
$TILEMODE
 70
1
  0
ENDSEC
  0
SECTION
  2
TABLES
  0
TABLE
  2
LTYPE
 70
6
  0
LTYPE
  2
BYBLOCK
 70
0
  3

 72
65
 73
0
 40
0.0
  0
LTYPE
  2
BYLAYER
 70
0
  3

 72
65
 73
0
 40
0.0
  0
LTYPE
  2
CONTINUOUS
 70
64
  3
Solid line
 72
65
 73
0
 40
0.0
  0
LTYPE
  2
CENTER
 70
64
  3
____ _ ____ _ ____ _ ____ _ ____ _ ____ _ ____
 72
65
 73
4
 40
0.6
 49
0.375
 49
-0.075
 49
0.075
 49
-0.075
  0
LTYPE
  2
HIDDEN
 70
64
  3
- - - - - - - - - - - - - - - - - - - -
 72
65
 73
2
 40
0.2
 49
0.1
 49
-0.1
  0
LTYPE
  2
PHANTOM
 70
64
  3
_____ _ _ _____ _ _ _____ _ _ _____
 72
65
 73
6
 40
0.8
 49
0.45
 49
-0.05
 49
0.1
 49
-0.05
 49
0.1
 49
-0.05
  0
LTYPE
  2
DOT
 70
64
  3
. . . . . . . . . . . . . . . . . . . .
 72
65
 73
2
 40
0.2
 49
0.1
 49
-0.1
  0
LTYPE
  2
DASHED
 70
64
  3
- - - - - - - - - - - - - - - - - - - -
 72
65
 73
2
 40
0.2
 49
0.1
 49
-0.1
  0
ENDTAB
  0
TABLE
  2
LAYER
 70
36
  0
LAYER
  2
0
 70
0
 62
7
  6
CONTINUOUS
  0
LAYER
  2
DEFAULT_1
 70
0
 62
7
  6
CENTER
  0
LAYER
  2
DEFAULT_2
 70
0
 62
8
  6
HIDDEN
  0
LAYER
  2
DEFAULT_3
 70
0
 62
7
  6
PHANTOM
  0
LAYER
  2
1_AXIS
 70
0
 62
7
  6
CONTINUOUS
  0
LAYER
  2
1_DATUM_PLANE
 70
0
 62
7
  6
CONTINUOUS
  0
LAYER
  2
2_FEATURE
 70
0
 62
7
  6
CONTINUOUS
  0
LAYER
  2
4_QUILT
 70
0
 62
7
  6
CONTINUOUS
  0
LAYER
  2
6_DIM
 70
0
 62
7
  6
CONTINUOUS
  0
LAYER
  2
AXES
 70
0
 62
7
  6
CONTINUOUS
  0
LAYER
  2
COM_SKETCH
 70
0
 62
7
  6
CONTINUOUS
  0
LAYER
  2
CSYS
 70
0
 62
7
  6
CONTINUOUS
  0
LAYER
  2
PLANES
 70
0
 62
7
  6
CONTINUOUS
  0
LAYER
  2
QUILTS
 70
0
 62
7
  6
CONTINUOUS
  0
ENDTAB
  0
TABLE
  2
STYLE
 70
1
  0
STYLE
  2
STANDARD
 70
0
 40
0.0
 41
0.8
 50
0.0
 71
0
 42
0.2
  3
txt
  4

  0
STYLE
  2
TEXTSTYLE_1
 70
0
 40
0.0
 41
0.8
 50
0.0
 71
0
 42
0.2
  3
gdt
  4

  0
STYLE
  2
TEXTSTYLE_2
 70
0
 40
0.0
 41
0.6
 50
0.0
 71
0
 42
0.2
  3
txt
  4

  0
STYLE
  2
TEXTSTYLE_3
 70
0
 40
0.0
 41
1.0
 50
0.0
 71
0
 42
0.2
  3
ftb_____.ttf
  4

  0
STYLE
  2
TEXTSTYLE_4
 70
0
 40
0.0
 41
1.0
 50
0.0
 71
0
 42
0.2
  3
fti_____.ttf
  4

  0
STYLE
  2
TEXTSTYLE_5
 70
0
 40
0.0
 41
1.0
 50
0.0
 71
0
 42
0.2
  3
frutiger light.ttf
  4

  0
STYLE
  2
TEXTSTYLE_6
 70
0
 40
0.0
 41
0.7
 50
0.0
 71
0
 42
0.2
  3
txt
  4

  0
STYLE
  2
TEXTSTYLE_7
 70
0
 40
0.0
 41
0.8
 50
0.0
 71
0
 42
0.2
  3
txt
  4

  0
ENDTAB
  0
ENDSEC
  0
SECTION
  2
BLOCKS
  0
BLOCK
  8
0
 62
2
  6
CONTINUOUS
  2
SYMBOL_8_BL1
 70
64
 10
173.5956734183
 20
35.5937998301
  0
TEXT
  8
0
 62
7
  6
CONTINUOUS
 10
164.6539584268
 20
30.6865562072
  7
TEXTSTYLE_4
 40
1.0655737705
  1
The brand for plastic modular belts and chains
 41
1.0
 72
0
  0
LINE
  8
0
 62
7
  6
CONTINUOUS
 10
149.5737418074
 20
36.1675703219
 11
149.5737418074
 21
34.0364227809
  0
LINE
  8
0
 62
7
  6
CONTINUOUS
 10
149.8628043005
 20
31.0454914852
 11
149.8628043005
 21
31.1422825445
  0
LINE
  8
0
 62
7
  6
CONTINUOUS
 10
149.5737418074
 20
31.1100188581
 11
149.6315543091
 21
30.9164367395
  0
LINE
  8
0
 62
7
  6
CONTINUOUS
 10
150.9671844304
 20
33.9544555678
 11
150.9671844304
 21
36.1675703219
  0
LINE
  8
0
 62
7
  6
CONTINUOUS
 10
151.8862417523
 20
32.1101932727
 11
151.8862417523
 21
30.5937998301
  0
LINE
  8
0
 62
7
  6
CONTINUOUS
 10
152.1753043074
 20
30.5937998301
 11
152.1753043074
 21
31.3358647082
  0
LINE
  8
0
 62
7
  6
CONTINUOUS
 10
152.1753043074
 20
31.4649194539
 11
152.1753043074
 21
32.1101932727
  0
LINE
  8
0
 62
7
  6
CONTINUOUS
 10
149.6315543091
 20
31.3036010218
 11
149.5737418074
 21
31.1100188581
  0
LINE
  8
0
 62
7
  6
CONTINUOUS
 10
149.9784292936
 20
30.8841730531
 11
149.8628043005
 21
31.0454914852
  0
LINE
  8
0
 62
7
  6
CONTINUOUS
 10
151.0768668626
 20
31.400392081
 11
151.1346793074
 21
31.3036010218
  0
LINE
  8
0
 62
7
  6
CONTINUOUS
 10
151.4237418626
 20
31.3036010218
 11
151.3659292523
 21
31.4326557675
  0
LINE
  8
0
 62
7
  6
CONTINUOUS
 10
152.852430332
 20
36.1675703219
 11
152.852430332
 21
34.3642916334
  0
LINE
  8
0
 62
7
  6
CONTINUOUS
 10
152.852430332
 20
33.0528162235
 11
152.852430332
 21
32.3970785186
  0
LINE
  8
0
 62
7
  6
CONTINUOUS
 10
153.2159293074
 20
31.2390736489
 11
153.2159293074
 21
30.5937998301
  0
LINE
  8
0
 62
7
  6
CONTINUOUS
 10
153.5049916972
 20
30.5937998301
 11
153.5049916972
 21
31.2390736489
  0
LINE
  8
0
 62
7
  6
CONTINUOUS
 10
149.8628043005
 20
31.1422825445
 11
149.9206168074
 21
31.2713373354
  0
LINE
  8
0
 62
7
  6
CONTINUOUS
 10
149.6315543091
 20
30.9164367395
 11
149.7471793074
 21
30.7873819712
  0
LINE
  8
0
 62
7
  6
CONTINUOUS
 10
153.1581166972
 20
31.3681283946
 11
153.2159293074
 21
31.2390736489
  0
LINE
  8
0
 62
7
  6
CONTINUOUS
 10
153.9674919177
 20
30.8841730531
 11
154.0253041972
 21
30.7551182848
  0
LINE
  8
0
 62
7
  6
CONTINUOUS
 10
153.5049916972
 20
31.2390736489
 11
153.4471794177
 21
31.400392081
  0
LINE
  8
0
 62
7
  6
CONTINUOUS
 10
153.9674919177
 20
31.4326557675
 11
153.9674919177
 21
31.3681283946
  0
LINE
  8
0
 62
7
  6
CONTINUOUS
 10
153.9674919177
 20
30.9809641124
 11
153.9674919177
 21
30.8841730531
  0
LINE
  8
0
 62
7
  6
CONTINUOUS
 10
154.245872955
 20
32.3970785186
 11
154.245872955
 21
36.1675703219
  0
LINE
  8
0
 62
7
  6
CONTINUOUS
 10
154.2565543074
 20
30.8519093441
 11
154.2565543074
 21
30.9164367395
  0
LINE
  8
0
 62
7
  6
CONTINUOUS
 10
154.5737418074
 20
36.1675703219
 11
154.5737418074
 21
32.3970785186
  0
LINE
  8
0
 62
7
  6
CONTINUOUS
 10
151.3659292523
 20
30.7873819712
 11
151.4237418626
 21
30.9164367395
  0
LINE
  8
0
 62
7
  6
CONTINUOUS
 10
155.759679528
 20
30.6905909007
 11
155.7018665869
 21
30.8519093441
  0
LINE
  8
0
 62
7
  6
CONTINUOUS
 10
155.412804528
 20
31.3681283946
 11
155.412804528
 21
31.2713373354
  0
LINE
  8
0
 62
7
  6
CONTINUOUS
 10
155.412804528
 20
31.1422825445
 11
155.412804528
 21
30.9487004259
  0
LINE
  8
0
 62
7
  6
CONTINUOUS
 10
155.7018665869
 20
30.8519093441
 11
155.7018665869
 21
31.3681283946
  0
LINE
  8
0
 62
7
  6
CONTINUOUS
 10
155.9671844304
 20
32.3970785186
 11
155.9671844304
 21
34.2003572071
  0
LINE
  8
0
 62
7
  6
CONTINUOUS
 10
155.9671844304
 20
35.511832617
 11
155.9671844304
 21
36.1675703219
  0
LINE
  8
0
 62
7
  6
CONTINUOUS
 10
156.279992028
 20
32.1101932727
 11
156.279992028
 21
31.9488748406
  0
LINE
  8
0
 62
7
  6
CONTINUOUS
 10
156.279992028
 20
31.626237886
 11
156.279992028
 21
30.5937998301
  0
LINE
  8
0
 62
7
  6
CONTINUOUS
 10
156.5690540869
 20
30.5937998301
 11
156.5690540869
 21
31.626237886
  0
LINE
  8
0
 62
7
  6
CONTINUOUS
 10
156.5690540869
 20
31.9488748406
 11
156.5690540869
 21
32.1101932727
  0
LINE
  8
0
 62
7
  6
CONTINUOUS
 10
151.1346793074
 20
30.9164367395
 11
151.0768668626
 21
30.8196456577
  0
LINE
  8
0
 62
7
  6
CONTINUOUS
 10
153.4471794177
 20
31.400392081
 11
153.3893668074
 21
31.4649194539
  0
LINE
  8
0
 62
7
  6
CONTINUOUS
 10
154.3143669177
 20
30.7873819712
 11
154.2565543074
 21
30.8519093441
  0
LINE
  8
0
 62
7
  6
CONTINUOUS
 10
155.4706168074
 20
30.6583272086
 11
155.5284290869
 21
30.5937998301
  0
LINE
  8
0
 62
7
  6
CONTINUOUS
 10
155.412804528
 20
30.7551182848
 11
155.4706168074
 21
30.6583272086
  0
LINE
  8
0
 62
7
  6
CONTINUOUS
 10
155.8174918074
 20
30.5937998301
 11
155.759679528
 21
30.6905909007
  0
LINE
  8
0
 62
7
  6
CONTINUOUS
 10
155.7018665869
 20
31.3681283946
 11
155.6440543074
 21
31.4649194539
  0
LINE
  8
0
 62
7
  6
CONTINUOUS
 10
157.0315543074
 20
31.626237886
 11
157.0315543074
 21
30.5937998301
  0
LINE
  8
0
 62
7
  6
CONTINUOUS
 10
157.320617028
 20
30.5937998301
 11
157.320617028
 21
31.3358647082
  0
LINE
  8
0
 62
7
  6
CONTINUOUS
 10
157.320617028
 20
31.4649194539
 11
157.320617028
 21
31.626237886
  0
LINE
  8
0
 62
7
  6
CONTINUOUS
 10
157.852430332
 20
34.6101932727
 11
157.852430332
 21
32.3970785186
  0
LINE
  8
0
 62
7
  6
CONTINUOUS
 10
149.7471793074
 20
31.4326557675
 11
149.6315543091
 21
31.3036010218
  0
LINE
  8
0
 62
7
  6
CONTINUOUS
 10
149.9206168074
 20
31.2713373354
 11
149.9784292936
 21
31.3358647082
  0
LINE
  8
0
 62
7
  6
CONTINUOUS
 10
149.7471793074
 20
30.7873819712
 11
149.8628043005
 21
30.7228545871
  0
LINE
  8
0
 62
7
  6
CONTINUOUS
 10
150.1518667936
 20
30.7873819712
 11
149.9784292936
 21
30.8841730531
  0
LINE
  8
0
 62
7
  6
CONTINUOUS
 10
155.3549915869
 20
31.4326557675
 11
155.412804528
 21
31.3681283946
  0
LINE
  8
0
 62
7
  6
CONTINUOUS
 10
158.3034290869
 20
31.3681283946
 11
158.361242028
 21
31.2068099625
  0
LINE
  8
0
 62
7
  6
CONTINUOUS
 10
158.6503040869
 20
31.2068099625
 11
158.5924918074
 21
31.3681283946
  0
LINE
  8
0
 62
7
  6
CONTINUOUS
 10
158.361242028
 20
31.2068099625
 11
158.361242028
 21
30.5937998301
  0
LINE
  8
0
 62
7
  6
CONTINUOUS
 10
158.6503040869
 20
30.5937998301
 11
158.6503040869
 21
31.2068099625
  0
LINE
  8
0
 62
7
  6
CONTINUOUS
 10
159.1128043074
 20
31.4326557675
 11
159.1128043074
 21
31.3681283946
  0
LINE
  8
0
 62
7
  6
CONTINUOUS
 10
159.245872955
 20
32.3970785186
 11
159.245872955
 21
34.5282260596
  0
LINE
  8
0
 62
7
  6
CONTINUOUS
 10
159.5737418074
 20
36.1675703219
 11
159.5737418074
 21
32.3970785186
  0
LINE
  8
0
 62
7
  6
CONTINUOUS
 10
154.2565543074
 20
30.9164367395
 11
154.3143669177
 21
31.0132277988
  0
LINE
  8
0
 62
7
  6
CONTINUOUS
 10
149.8628043005
 20
30.7228545871
 11
150.0362418212
 21
30.6583272086
  0
LINE
  8
0
 62
7
  6
CONTINUOUS
 10
151.3659292523
 20
31.4326557675
 11
151.1924917523
 21
31.5294468267
  0
LINE
  8
0
 62
7
  6
CONTINUOUS
 10
154.0253041972
 20
30.7551182848
 11
154.1987416972
 21
30.6583272086
  0
LINE
  8
0
 62
7
  6
CONTINUOUS
 10
153.0424918074
 20
31.4326557675
 11
153.1581166972
 21
31.3681283946
  0
LINE
  8
0
 62
7
  6
CONTINUOUS
 10
153.3893668074
 20
31.4649194539
 11
153.2737419177
 21
31.5294468267
  0
LINE
  8
0
 62
7
  6
CONTINUOUS
 10
159.1128043074
 20
30.8519093441
 11
159.228429528
 21
30.7228545871
  0
LINE
  8
0
 62
7
  6
CONTINUOUS
 10
159.4596793074
 20
30.7873819712
 11
159.401867028
 21
30.8519093441
  0
LINE
  8
0
 62
7
  6
CONTINUOUS
 10
159.1128043074
 20
31.3681283946
 11
159.228429528
 21
31.2390736489
  0
LINE
  8
0
 62
7
  6
CONTINUOUS
 10
158.5924918074
 20
31.3681283946
 11
158.534679528
 21
31.4649194539
  0
LINE
  8
0
 62
7
  6
CONTINUOUS
 10
160.9628038663
 20
30.7873819712
 11
160.9628038663
 21
30.8519093441
  0
LINE
  8
0
 62
7
  6
CONTINUOUS
 10
160.9671844304
 20
32.3970785186
 11
160.9671844304
 21
36.1675703219
  0
LINE
  8
0
 62
7
  6
CONTINUOUS
 10
154.0253041972
 20
31.4971831403
 11
153.9674919177
 21
31.4326557675
  0
LINE
  8
0
 62
7
  6
CONTINUOUS
 10
150.9034292799
 20
31.4649194539
 11
151.0768668626
 21
31.400392081
  0
LINE
  8
0
 62
7
  6
CONTINUOUS
 10
155.6440543074
 20
31.4649194539
 11
155.5284290869
 21
31.5294468267
  0
LINE
  8
0
 62
7
  6
CONTINUOUS
 10
159.4596793074
 20
31.3036010218
 11
159.401867028
 21
31.3681283946
  0
LINE
  8
0
 62
7
  6
CONTINUOUS
 10
160.615929528
 20
30.9164367395
 11
160.6737418074
 21
30.8519093441
  0
LINE
  8
0
 62
7
  6
CONTINUOUS
 10
160.9628038663
 20
30.8519093441
 11
160.8471793074
 21
30.9809641124
  0
LINE
  8
0
 62
7
  6
CONTINUOUS
 10
160.615929528
 20
31.4326557675
 11
160.6737418074
 21
31.3681283946
  0
LINE
  8
0
 62
7
  6
CONTINUOUS
 10
160.9628038663
 20
31.3681283946
 11
160.8471793074
 21
31.4971831403
  0
LINE
  8
0
 62
7
  6
CONTINUOUS
 10
154.2565543074
 20
31.3681283946
 11
154.3143669177
 21
31.4326557675
  0
LINE
  8
0
 62
7
  6
CONTINUOUS
 10
154.0831168074
 20
31.1100188581
 11
153.9674919177
 21
30.9809641124
  0
LINE
  8
0
 62
7
  6
CONTINUOUS
 10
155.412804528
 20
30.9487004259
 11
155.3549915869
 21
30.8841730531
  0
LINE
  8
0
 62
7
  6
CONTINUOUS
 10
155.3549915869
 20
30.6905909007
 11
155.412804528
 21
30.7551182848
  0
LINE
  8
0
 62
7
  6
CONTINUOUS
 10
154.1987416972
 20
30.6583272086
 11
154.3143669177
 21
30.6260635193
  0
LINE
  8
0
 62
7
  6
CONTINUOUS
 10
151.1924917523
 20
31.5294468267
 11
150.9612418074
 21
31.5939741996
  0
LINE
  8
0
 62
7
  6
CONTINUOUS
 10
154.5456166972
 20
30.7228545871
 11
154.3143669177
 21
30.7873819712
  0
LINE
  8
0
 62
7
  6
CONTINUOUS
 10
153.2737419177
 20
31.5294468267
 11
153.1003044177
 21
31.5939741996
  0
LINE
  8
0
 62
7
  6
CONTINUOUS
 10
155.5284290869
 20
31.5294468267
 11
155.3549915869
 21
31.5939741996
  0
LINE
  8
0
 62
7
  6
CONTINUOUS
 10
158.187804528
 20
31.4326557675
 11
158.3034290869
 21
31.3681283946
  0
LINE
  8
0
 62
7
  6
CONTINUOUS
 10
158.534679528
 20
31.4649194539
 11
158.4190543074
 21
31.5294468267
  0
LINE
  8
0
 62
7
  6
CONTINUOUS
 10
150.0362418212
 20
30.6583272086
 11
150.2096793212
 21
30.6260635193
  0
LINE
  8
0
 62
7
  6
CONTINUOUS
 10
150.498741835
 20
30.7228545871
 11
150.1518667936
 21
30.7873819712
  0
LINE
  8
0
 62
7
  6
CONTINUOUS
 10
152.9268669177
 20
31.4649194539
 11
153.0424918074
 21
31.4326557675
  0
LINE
  8
0
 62
7
  6
CONTINUOUS
 10
155.239367028
 20
31.4649194539
 11
155.3549915869
 21
31.4326557675
  0
LINE
  8
0
 62
7
  6
CONTINUOUS
 10
159.575304528
 20
30.7551182848
 11
159.4596793074
 21
30.7873819712
  0
LINE
  8
0
 62
7
  6
CONTINUOUS
 10
158.0721793074
 20
31.4649194539
 11
158.187804528
 21
31.4326557675
  0
LINE
  8
0
 62
7
  6
CONTINUOUS
 10
159.228429528
 20
30.7228545871
 11
159.401867028
 21
30.6583272086
  0
LINE
  8
0
 62
7
  6
CONTINUOUS
 10
158.4190543074
 20
31.5294468267
 11
158.2456168074
 21
31.5939741996
  0
LINE
  8
0
 62
7
  6
CONTINUOUS
 10
159.6331168074
 20
31.2390736489
 11
159.4596793074
 21
31.3036010218
  0
LINE
  8
0
 62
7
  6
CONTINUOUS
 10
160.442492028
 20
30.9809641124
 11
160.615929528
 21
30.9164367395
  0
LINE
  8
0
 62
7
  6
CONTINUOUS
 10
160.8471793074
 20
31.4971831403
 11
160.6737418074
 21
31.5617105132
  0
LINE
  8
0
 62
7
  6
CONTINUOUS
 10
159.228429528
 20
31.2390736489
 11
159.4596793074
 21
31.1422825445
  0
LINE
  8
0
 62
7
  6
CONTINUOUS
 10
160.8471793074
 20
30.9809641124
 11
160.615929528
 21
31.0777551716
  0
LINE
  8
0
 62
7
  6
CONTINUOUS
 10
159.401867028
 20
31.3681283946
 11
159.4596793074
 21
31.4326557675
  0
LINE
  8
0
 62
7
  6
CONTINUOUS
 10
149.8628043005
 20
31.4971831403
 11
149.7471793074
 21
31.4326557675
  0
LINE
  8
0
 62
7
  6
CONTINUOUS
 10
149.9784292936
 20
31.3358647082
 11
150.1518667936
 21
31.4326557675
  0
LINE
  8
0
 62
7
  6
CONTINUOUS
 10
152.2909293626
 20
31.5294468267
 11
152.1753043074
 21
31.4649194539
  0
LINE
  8
0
 62
7
  6
CONTINUOUS
 10
152.1753043074
 20
31.3358647082
 11
152.2909293626
 21
31.400392081
  0
LINE
  8
0
 62
7
  6
CONTINUOUS
 10
151.1924917523
 20
30.6905909007
 11
151.3659292523
 21
30.7873819712
  0
LINE
  8
0
 62
7
  6
CONTINUOUS
 10
150.2096793212
 20
30.6260635193
 11
150.5565542799
 21
30.5937998301
  0
LINE
  8
0
 62
7
  6
CONTINUOUS
 10
154.3143669177
 20
30.6260635193
 11
154.5456166972
 21
30.5937998301
  0
LINE
  8
0
 62
7
  6
CONTINUOUS
 10
152.6956168074
 20
31.4971831403
 11
152.9268669177
 21
31.4649194539
  0
LINE
  8
0
 62
7
  6
CONTINUOUS
 10
155.0081169177
 20
31.4971831403
 11
155.239367028
 21
31.4649194539
  0
LINE
  8
0
 62
7
  6
CONTINUOUS
 10
159.4596793074
 20
31.1422825445
 11
160.442492028
 21
30.9809641124
  0
LINE
  8
0
 62
7
  6
CONTINUOUS
 10
160.615929528
 20
31.0777551716
 11
159.6331168074
 21
31.2390736489
  0
LINE
  8
0
 62
7
  6
CONTINUOUS
 10
153.1003044177
 20
31.5939741996
 11
152.9268669177
 21
31.626237886
  0
LINE
  8
0
 62
7
  6
CONTINUOUS
 10
159.401867028
 20
30.6583272086
 11
159.575304528
 21
30.6260635193
  0
LINE
  8
0
 62
7
  6
CONTINUOUS
 10
158.2456168074
 20
31.5939741996
 11
158.0721793074
 21
31.626237886
  0
LINE
  8
0
 62
7
  6
CONTINUOUS
 10
160.5003043074
 20
31.4649194539
 11
160.615929528
 21
31.4326557675
  0
LINE
  8
0
 62
7
  6
CONTINUOUS
 10
160.6737418074
 20
30.8519093441
 11
160.615929528
 21
30.7873819712
  0
LINE
  8
0
 62
7
  6
CONTINUOUS
 10
159.228429528
 20
31.5294468267
 11
159.1128043074
 21
31.4326557675
  0
LINE
  8
0
 62
7
  6
CONTINUOUS
 10
154.1409294177
 20
31.5617105132
 11
154.0253041972
 21
31.4971831403
  0
LINE
  8
0
 62
7
  6
CONTINUOUS
 10
154.1987416972
 20
31.1745462761
 11
154.0831168074
 21
31.1100188581
  0
LINE
  8
0
 62
7
  6
CONTINUOUS
 10
154.3143669177
 20
31.0132277988
 11
154.4299918074
 21
31.0777551716
  0
LINE
  8
0
 62
7
  6
CONTINUOUS
 10
151.8862417523
 20
30.5937998301
 11
152.1753043074
 21
30.5937998301
  0
LINE
  8
0
 62
7
  6
CONTINUOUS
 10
153.2159293074
 20
30.5937998301
 11
153.5049916972
 21
30.5937998301
  0
LINE
  8
0
 62
7
  6
CONTINUOUS
 10
154.5456166972
 20
30.5937998301
 11
154.8924916972
 21
30.5937998301
  0
LINE
  8
0
 62
7
  6
CONTINUOUS
 10
155.5284290869
 20
30.5937998301
 11
155.8174918074
 21
30.5937998301
  0
LINE
  8
0
 62
7
  6
CONTINUOUS
 10
156.279992028
 20
30.5937998301
 11
156.5690540869
 21
30.5937998301
  0
LINE
  8
0
 62
7
  6
CONTINUOUS
 10
157.0315543074
 20
30.5937998301
 11
157.320617028
 21
30.5937998301
  0
LINE
  8
0
 62
7
  6
CONTINUOUS
 10
158.361242028
 20
30.5937998301
 11
158.6503040869
 21
30.5937998301
  0
LINE
  8
0
 62
7
  6
CONTINUOUS
 10
159.922179528
 20
30.5937998301
 11
160.269054528
 21
30.5937998301
  0
LINE
  8
0
 62
7
  6
CONTINUOUS
 10
160.269054528
 20
30.7228545871
 11
159.922179528
 21
30.7228545871
  0
LINE
  8
0
 62
7
  6
CONTINUOUS
 10
154.8924916972
 20
30.7228545871
 11
154.5456166972
 21
30.7228545871
  0
LINE
  8
0
 62
7
  6
CONTINUOUS
 10
159.401867028
 20
30.8519093441
 11
159.1128043074
 21
30.8519093441
  0
LINE
  8
0
 62
7
  6
CONTINUOUS
 10
151.4237418626
 20
30.9164367395
 11
151.1346793074
 21
30.9164367395
  0
LINE
  8
0
 62
7
  6
CONTINUOUS
 10
150.498741835
 20
31.4971831403
 11
150.9034292799
 21
31.4649194539
  0
LINE
  8
0
 62
7
  6
CONTINUOUS
 10
150.9612418074
 20
31.5939741996
 11
150.5565542799
 21
31.626237886
  0
LINE
  8
0
 62
7
  6
CONTINUOUS
 10
159.575304528
 20
30.6260635193
 11
159.922179528
 21
30.5937998301
  0
LINE
  8
0
 62
7
  6
CONTINUOUS
 10
159.922179528
 20
30.7228545871
 11
159.575304528
 21
30.7551182848
  0
LINE
  8
0
 62
7
  6
CONTINUOUS
 10
155.3549915869
 20
31.5939741996
 11
155.0081169177
 21
31.626237886
  0
LINE
  8
0
 62
7
  6
CONTINUOUS
 10
160.1534293074
 20
31.4971831403
 11
160.5003043074
 21
31.4649194539
  0
LINE
  8
0
 62
7
  6
CONTINUOUS
 10
160.5003043074
 20
31.5939741996
 11
160.1534293074
 21
31.626237886
  0
LINE
  8
0
 62
7
  6
CONTINUOUS
 10
157.840929528
 20
31.4971831403
 11
158.0721793074
 21
31.4649194539
  0
LINE
  8
0
 62
7
  6
CONTINUOUS
 10
160.6737418074
 20
31.5617105132
 11
160.5003043074
 21
31.5939741996
  0
LINE
  8
0
 62
7
  6
CONTINUOUS
 10
160.8471793074
 20
30.6905909007
 11
160.9628038663
 21
30.7873819712
  0
LINE
  8
0
 62
7
  6
CONTINUOUS
 10
155.3549915869
 20
30.8841730531
 11
155.1815540869
 21
30.7873819712
  0
LINE
  8
0
 62
7
  6
CONTINUOUS
 10
157.4362415869
 20
31.5294468267
 11
157.320617028
 21
31.4649194539
  0
LINE
  8
0
 62
7
  6
CONTINUOUS
 10
157.320617028
 20
31.3358647082
 11
157.4362415869
 21
31.400392081
  0
LINE
  8
0
 62
7
  6
CONTINUOUS
 10
150.0362418212
 20
31.5617105132
 11
149.8628043005
 21
31.4971831403
  0
LINE
  8
0
 62
7
  6
CONTINUOUS
 10
152.4643666972
 20
31.5939741996
 11
152.2909293626
 21
31.5294468267
  0
LINE
  8
0
 62
7
  6
CONTINUOUS
 10
152.2909293626
 20
31.400392081
 11
152.4643666972
 21
31.4649194539
  0
LINE
  8
0
 62
7
  6
CONTINUOUS
 10
151.0768668626
 20
30.8196456577
 11
150.9034292799
 21
30.7551182848
  0
LINE
  8
0
 62
7
  6
CONTINUOUS
 10
160.5003043074
 20
30.7551182848
 11
160.269054528
 21
30.7228545871
  0
LINE
  8
0
 62
7
  6
CONTINUOUS
 10
154.8924916972
 20
30.5937998301
 11
155.1815540869
 21
30.6260635193
  0
LINE
  8
0
 62
7
  6
CONTINUOUS
 10
160.269054528
 20
30.5937998301
 11
160.615929528
 21
30.6260635193
  0
LINE
  8
0
 62
7
  6
CONTINUOUS
 10
150.5565542799
 20
30.5937998301
 11
150.9612418074
 21
30.6260635193
  0
LINE
  8
0
 62
7
  6
CONTINUOUS
 10
150.9034292799
 20
30.7551182848
 11
150.498741835
 21
30.7228545871
  0
LINE
  8
0
 62
7
  6
CONTINUOUS
 10
154.7768668074
 20
31.1422825445
 11
155.412804528
 21
31.1422825445
  0
LINE
  8
0
 62
7
  6
CONTINUOUS
 10
155.412804528
 20
31.2713373354
 11
154.7768668074
 21
31.2713373354
  0
LINE
  8
0
 62
7
  6
CONTINUOUS
 10
151.1346793074
 20
31.3036010218
 11
151.4237418626
 21
31.3036010218
  0
LINE
  8
0
 62
7
  6
CONTINUOUS
 10
153.9674919177
 20
31.3681283946
 11
154.2565543074
 21
31.3681283946
  0
LINE
  8
0
 62
7
  6
CONTINUOUS
 10
160.6737418074
 20
31.3681283946
 11
160.9628038663
 21
31.3681283946
  0
LINE
  8
0
 62
7
  6
CONTINUOUS
 10
154.6612419177
 20
31.4971831403
 11
155.0081169177
 21
31.4971831403
  0
LINE
  8
0
 62
7
  6
CONTINUOUS
 10
159.8065543074
 20
31.4971831403
 11
160.1534293074
 21
31.4971831403
  0
LINE
  8
0
 62
7
  6
CONTINUOUS
 10
160.1534293074
 20
31.626237886
 11
159.8065543074
 21
31.626237886
  0
LINE
  8
0
 62
7
  6
CONTINUOUS
 10
158.0721793074
 20
31.626237886
 11
157.840929528
 21
31.626237886
  0
LINE
  8
0
 62
7
  6
CONTINUOUS
 10
157.320617028
 20
31.626237886
 11
157.0315543074
 21
31.626237886
  0
LINE
  8
0
 62
7
  6
CONTINUOUS
 10
156.5690540869
 20
31.626237886
 11
156.279992028
 21
31.626237886
  0
LINE
  8
0
 62
7
  6
CONTINUOUS
 10
155.0081169177
 20
31.626237886
 11
154.6612419177
 21
31.626237886
  0
LINE
  8
0
 62
7
  6
CONTINUOUS
 10
152.9268669177
 20
31.626237886
 11
152.6956168074
 21
31.626237886
  0
LINE
  8
0
 62
7
  6
CONTINUOUS
 10
156.279992028
 20
31.9488748406
 11
156.5690540869
 21
31.9488748406
  0
LINE
  8
0
 62
7
  6
CONTINUOUS
 10
156.5690540869
 20
32.1101932727
 11
156.279992028
 21
32.1101932727
  0
LINE
  8
0
 62
7
  6
CONTINUOUS
 10
152.1753043074
 20
32.1101932727
 11
151.8862417523
 21
32.1101932727
  0
LINE
  8
0
 62
7
  6
CONTINUOUS
 10
151.2130860697
 20
32.3970785186
 11
151.6256574183
 21
32.3970785186
  0
LINE
  8
0
 62
7
  6
CONTINUOUS
 10
152.852430332
 20
32.3970785186
 11
154.245872955
 21
32.3970785186
  0
LINE
  8
0
 62
7
  6
CONTINUOUS
 10
154.5737418074
 20
32.3970785186
 11
155.9671844304
 21
32.3970785186
  0
LINE
  8
0
 62
7
  6
CONTINUOUS
 10
157.852430332
 20
32.3970785186
 11
159.245872955
 21
32.3970785186
  0
LINE
  8
0
 62
7
  6
CONTINUOUS
 10
159.5737418074
 20
32.3970785186
 11
160.9671844304
 21
32.3970785186
  0
LINE
  8
0
 62
7
  6
CONTINUOUS
 10
157.6096790869
 20
31.5939741996
 11
157.4362415869
 21
31.5294468267
  0
LINE
  8
0
 62
7
  6
CONTINUOUS
 10
155.1815540869
 20
30.6260635193
 11
155.3549915869
 21
30.6905909007
  0
LINE
  8
0
 62
7
  6
CONTINUOUS
 10
160.615929528
 20
30.6260635193
 11
160.8471793074
 21
30.6905909007
  0
LINE
  8
0
 62
7
  6
CONTINUOUS
 10
160.615929528
 20
30.7873819712
 11
160.5003043074
 21
30.7551182848
  0
LINE
  8
0
 62
7
  6
CONTINUOUS
 10
159.575304528
 20
31.4649194539
 11
159.8065543074
 21
31.4971831403
  0
LINE
  8
0
 62
7
  6
CONTINUOUS
 10
157.6096790869
 20
31.4649194539
 11
157.840929528
 21
31.4971831403
  0
LINE
  8
0
 62
7
  6
CONTINUOUS
 10
154.5456166972
 20
31.1100188581
 11
154.7768668074
 21
31.1422825445
  0
LINE
  8
0
 62
7
  6
CONTINUOUS
 10
157.840929528
 20
31.626237886
 11
157.6096790869
 21
31.5939741996
  0
LINE
  8
0
 62
7
  6
CONTINUOUS
 10
154.4299918074
 20
31.4649194539
 11
154.6612419177
 21
31.4971831403
  0
LINE
  8
0
 62
7
  6
CONTINUOUS
 10
159.8065543074
 20
31.626237886
 11
159.4596793074
 21
31.5939741996
  0
LINE
  8
0
 62
7
  6
CONTINUOUS
 10
154.7768668074
 20
31.2713373354
 11
154.4299918074
 21
31.2390736489
  0
LINE
  8
0
 62
7
  6
CONTINUOUS
 10
150.5565542799
 20
31.626237886
 11
150.2096793212
 21
31.5939741996
  0
LINE
  8
0
 62
7
  6
CONTINUOUS
 10
154.6612419177
 20
31.626237886
 11
154.2565543074
 21
31.5939741996
  0
LINE
  8
0
 62
7
  6
CONTINUOUS
 10
152.0327582009
 20
33.5446195022
 11
151.3770204959
 21
33.5446195022
  0
LINE
  8
0
 62
7
  6
CONTINUOUS
 10
157.4362415869
 20
31.400392081
 11
157.6096790869
 21
31.4649194539
  0
LINE
  8
0
 62
7
  6
CONTINUOUS
 10
159.4596793074
 20
31.4326557675
 11
159.575304528
 21
31.4649194539
  0
LINE
  8
0
 62
7
  6
CONTINUOUS
 10
159.4596793074
 20
31.5939741996
 11
159.228429528
 21
31.5294468267
  0
LINE
  8
0
 62
7
  6
CONTINUOUS
 10
155.1815540869
 20
30.7873819712
 11
154.8924916972
 21
30.7228545871
  0
LINE
  8
0
 62
7
  6
CONTINUOUS
 10
152.4643666972
 20
31.4649194539
 11
152.6956168074
 21
31.4971831403
  0
LINE
  8
0
 62
7
  6
CONTINUOUS
 10
152.6956168074
 20
31.626237886
 11
152.4643666972
 21
31.5939741996
  0
LINE
  8
0
 62
7
  6
CONTINUOUS
 10
150.2674918074
 20
31.4649194539
 11
150.498741835
 21
31.4971831403
  0
LINE
  8
0
 62
7
  6
CONTINUOUS
 10
156.7868565615
 20
35.0200293383
 11
157.4425942664
 21
35.0200293383
  0
LINE
  8
0
 62
7
  6
CONTINUOUS
 10
154.4299918074
 20
31.0777551716
 11
154.5456166972
 21
31.1100188581
  0
LINE
  8
0
 62
7
  6
CONTINUOUS
 10
154.4299918074
 20
31.2390736489
 11
154.1987416972
 21
31.1745462761
  0
LINE
  8
0
 62
7
  6
CONTINUOUS
 10
154.3143669177
 20
31.4326557675
 11
154.4299918074
 21
31.4649194539
  0
LINE
  8
0
 62
7
  6
CONTINUOUS
 10
150.9612418074
 20
30.6260635193
 11
151.1924917523
 21
30.6905909007
  0
LINE
  8
0
 62
7
  6
CONTINUOUS
 10
154.2565543074
 20
31.5939741996
 11
154.1409294177
 21
31.5617105132
  0
LINE
  8
0
 62
7
  6
CONTINUOUS
 10
150.2096793212
 20
31.5939741996
 11
150.0362418212
 21
31.5617105132
  0
LINE
  8
0
 62
7
  6
CONTINUOUS
 10
160.9671844304
 20
36.1675703219
 11
159.5737418074
 21
36.1675703219
  0
LINE
  8
0
 62
7
  6
CONTINUOUS
 10
157.6065286927
 20
36.1675703219
 11
157.1939573441
 21
36.1675703219
  0
LINE
  8
0
 62
7
  6
CONTINUOUS
 10
155.9671844304
 20
36.1675703219
 11
154.5737418074
 21
36.1675703219
  0
LINE
  8
0
 62
7
  6
CONTINUOUS
 10
154.245872955
 20
36.1675703219
 11
152.852430332
 21
36.1675703219
  0
LINE
  8
0
 62
7
  6
CONTINUOUS
 10
150.9671844304
 20
36.1675703219
 11
149.5737418074
 21
36.1675703219
  0
LINE
  8
0
 62
7
  6
CONTINUOUS
 10
150.1518667936
 20
31.4326557675
 11
150.2674918074
 21
31.4649194539
  0
CIRCLE
  8
0
 62
7
  6
CONTINUOUS
 10
160.2704631189
 20
38.5036358957
 40
2.0901639344
  0
ARC
  8
0
 62
7
  6
CONTINUOUS
 10
151.2130860697
 20
34.0364227809
 40
1.6393442623
 50
180.0
 51
270.0
  0
ARC
  8
0
 62
7
  6
CONTINUOUS
 10
157.6065286927
 20
34.5282260596
 40
1.6393442623
 50
0.0
 51
90.0
  0
ARC
  8
0
 62
7
  6
CONTINUOUS
 10
151.6256574183
 20
33.8724883547
 40
1.4754098361
 50
270.0
 51
326.2510114041
  0
ARC
  8
0
 62
7
  6
CONTINUOUS
 10
157.1939573441
 20
34.6921604858
 40
1.4754098361
 50
90.0
 51
146.2510114041
  0
ARC
  8
0
 62
7
  6
CONTINUOUS
 10
152.0327582009
 20
34.3642916334
 40
0.8196721311
 50
270.0
 51
360.0
  0
ARC
  8
0
 62
7
  6
CONTINUOUS
 10
156.7868565615
 20
34.2003572071
 40
0.8196721311
 50
90.0
 51
180.0
  0
ARC
  8
0
 62
7
  6
CONTINUOUS
 10
151.3770204959
 20
33.9544555678
 40
0.4098360656
 50
180.0
 51
270.0
  0
ARC
  8
0
 62
7
  6
CONTINUOUS
 10
157.4425942664
 20
34.6101932727
 40
0.4098360656
 50
0.0
 51
90.0
  0
SOLID
  8
0
 62
7
  6
CONTINUOUS
 10
156.279992028
 20
31.9488752009
 11
156.279992028
 21
32.1101936845
 12
156.5690540869
 22
31.9488752009
 13
156.5690540869
 23
32.1101936845
  0
SOLID
  8
0
 62
7
  6
CONTINUOUS
 10
150.5565542799
 20
31.6262382337
 11
150.9612418074
 21
31.5939740028
 12
150.2096793212
 22
31.5939740028
 13
150.2096793212
 23
31.5939740028
  0
SOLID
  8
0
 62
7
  6
CONTINUOUS
 10
150.0362418212
 20
31.5617111435
 11
150.2096793212
 21
31.5939740028
 12
150.9612418074
 22
31.5939740028
 13
150.9612418074
 23
31.5939740028
  0
SOLID
  8
0
 62
7
  6
CONTINUOUS
 10
150.9612418074
 20
31.5939740028
 11
151.1924917523
 21
31.5294468402
 12
150.0362418212
 22
31.5617111435
 13
150.0362418212
 23
31.5617111435
  0
SOLID
  8
0
 62
7
  6
CONTINUOUS
 10
149.8628043005
 20
31.49718259
 11
150.0362418212
 21
31.5617111435
 12
151.1924917523
 22
31.5294468402
 13
151.1924917523
 23
31.5294468402
  0
SOLID
  8
0
 62
7
  6
CONTINUOUS
 10
149.8628043005
 20
31.49718259
 11
151.1924917523
 21
31.5294468402
 12
150.498741835
 22
31.49718259
 13
150.498741835
 23
31.49718259
  0
SOLID
  8
0
 62
7
  6
CONTINUOUS
 10
150.498741835
 20
31.49718259
 11
151.1924917523
 21
31.5294468402
 12
150.9034292799
 22
31.4649197501
 13
150.9034292799
 23
31.4649197501
  0
SOLID
  8
0
 62
7
  6
CONTINUOUS
 10
151.1924917523
 20
31.5294468402
 11
151.3659292523
 21
31.4326554468
 12
150.9034292799
 22
31.4649197501
 13
150.9034292799
 23
31.4649197501
  0
SOLID
  8
0
 62
7
  6
CONTINUOUS
 10
151.0768668626
 20
31.4003926599
 11
150.9034292799
 21
31.4649197501
 12
151.3659292523
 22
31.4326554468
 13
151.3659292523
 23
31.4326554468
  0
SOLID
  8
0
 62
7
  6
CONTINUOUS
 10
151.0768668626
 20
31.4003926599
 11
151.3659292523
 21
31.4326554468
 12
151.1346793074
 22
31.3036013776
 13
151.1346793074
 23
31.3036013776
  0
SOLID
  8
0
 62
7
  6
CONTINUOUS
 10
151.3659292523
 20
31.4326554468
 11
151.4237418626
 21
31.3036013776
 12
151.1346793074
 22
31.3036013776
 13
151.1346793074
 23
31.3036013776
  0
SOLID
  8
0
 62
7
  6
CONTINUOUS
 10
152.4643666972
 20
31.5939739754
 11
152.6956168074
 21
31.6262382787
 12
152.9268669177
 22
31.6262382787
 13
152.9268669177
 23
31.6262382787
  0
SOLID
  8
0
 62
7
  6
CONTINUOUS
 10
152.9268669177
 20
31.6262382787
 11
153.1003044177
 21
31.5939739754
 12
152.4643666972
 22
31.5939739754
 13
152.4643666972
 23
31.5939739754
  0
SOLID
  8
0
 62
7
  6
CONTINUOUS
 10
152.2909293626
 20
31.5294468852
 11
152.4643666972
 21
31.5939739754
 12
153.1003044177
 22
31.5939739754
 13
153.1003044177
 23
31.5939739754
  0
SOLID
  8
0
 62
7
  6
CONTINUOUS
 10
153.1003044177
 20
31.5939739754
 11
153.2737419177
 21
31.5294468852
 12
152.2909293626
 22
31.5294468852
 13
152.2909293626
 23
31.5294468852
  0
SOLID
  8
0
 62
7
  6
CONTINUOUS
 10
153.2737419177
 20
31.5294468852
 11
152.6956168074
 21
31.4971825369
 12
152.2909293626
 22
31.5294468852
 13
152.2909293626
 23
31.5294468852
  0
SOLID
  8
0
 62
7
  6
CONTINUOUS
 10
152.1753043074
 20
31.4649197951
 11
152.2909293626
 21
31.5294468852
 12
152.6956168074
 22
31.4971825369
 13
152.6956168074
 23
31.4971825369
  0
SOLID
  8
0
 62
7
  6
CONTINUOUS
 10
152.6956168074
 20
31.4971825369
 11
152.4643666972
 21
31.4649197951
 12
152.1753043074
 22
31.4649197951
 13
152.1753043074
 23
31.4649197951
  0
SOLID
  8
0
 62
7
  6
CONTINUOUS
 10
152.6956168074
 20
31.4971825369
 11
153.2737419177
 21
31.5294468852
 12
152.9268669177
 22
31.4649197951
 13
152.9268669177
 23
31.4649197951
  0
SOLID
  8
0
 62
7
  6
CONTINUOUS
 10
153.2737419177
 20
31.5294468852
 11
153.3893668074
 21
31.4649197951
 12
152.9268669177
 22
31.4649197951
 13
152.9268669177
 23
31.4649197951
  0
SOLID
  8
0
 62
7
  6
CONTINUOUS
 10
153.0424918074
 20
31.4326554468
 11
152.9268669177
 21
31.4649197951
 12
153.3893668074
 22
31.4649197951
 13
153.3893668074
 23
31.4649197951
  0
SOLID
  8
0
 62
7
  6
CONTINUOUS
 10
153.3893668074
 20
31.4649197951
 11
153.4471794177
 21
31.4003927049
 12
153.0424918074
 22
31.4326554468
 13
153.0424918074
 23
31.4326554468
  0
SOLID
  8
0
 62
7
  6
CONTINUOUS
 10
153.1581166972
 20
31.3681283566
 11
153.0424918074
 21
31.4326554468
 12
153.4471794177
 22
31.4003927049
 13
153.4471794177
 23
31.4003927049
  0
SOLID
  8
0
 62
7
  6
CONTINUOUS
 10
153.1581166972
 20
31.3681283566
 11
153.4471794177
 21
31.4003927049
 12
153.2159293074
 22
31.2390742213
 13
153.2159293074
 23
31.2390742213
  0
SOLID
  8
0
 62
7
  6
CONTINUOUS
 10
153.4471794177
 20
31.4003927049
 11
153.5049916972
 21
31.2390742213
 12
153.2159293074
 22
31.2390742213
 13
153.2159293074
 23
31.2390742213
  0
SOLID
  8
0
 62
7
  6
CONTINUOUS
 10
152.4643666972
 20
31.4649197951
 11
152.2909293626
 21
31.4003927049
 12
152.1753043074
 22
31.4649197951
 13
152.1753043074
 23
31.4649197951
  0
SOLID
  8
0
 62
7
  6
CONTINUOUS
 10
152.2909293626
 20
31.4003927049
 11
152.1753043074
 21
31.3358640533
 12
152.1753043074
 22
31.4649197951
 13
152.1753043074
 23
31.4649197951
  0
SOLID
  8
0
 62
7
  6
CONTINUOUS
 10
152.1753043074
 20
31.3358640533
 11
151.8862417523
 21
30.5938002869
 12
152.1753043074
 22
31.4649197951
 13
152.1753043074
 23
31.4649197951
  0
SOLID
  8
0
 62
7
  6
CONTINUOUS
 10
152.1753043074
 20
31.4649197951
 11
151.8862417523
 21
30.5938002869
 12
152.1753043074
 22
32.1101937295
 13
152.1753043074
 23
32.1101937295
  0
SOLID
  8
0
 62
7
  6
CONTINUOUS
 10
151.8862417523
 20
30.5938002869
 11
151.8862417523
 21
32.1101937295
 12
152.1753043074
 22
32.1101937295
 13
152.1753043074
 23
32.1101937295
  0
SOLID
  8
0
 62
7
  6
CONTINUOUS
 10
152.1753043074
 20
31.3358640533
 11
152.1753043074
 21
30.5938002869
 12
151.8862417523
 22
30.5938002869
 13
151.8862417523
 23
30.5938002869
  0
SOLID
  8
0
 62
7
  6
CONTINUOUS
 10
153.2159293074
 20
30.5938002869
 11
153.2159293074
 21
31.2390742213
 12
153.5049916972
 22
31.2390742213
 13
153.5049916972
 23
31.2390742213
  0
SOLID
  8
0
 62
7
  6
CONTINUOUS
 10
153.5049916972
 20
31.2390742213
 11
153.5049916972
 21
30.5938002869
 12
153.2159293074
 22
30.5938002869
 13
153.2159293074
 23
30.5938002869
  0
SOLID
  8
0
 62
7
  6
CONTINUOUS
 10
154.2565543074
 20
31.5939738288
 11
154.6612419177
 21
31.6262385959
 12
155.0081169177
 22
31.6262385959
 13
155.0081169177
 23
31.6262385959
  0
SOLID
  8
0
 62
7
  6
CONTINUOUS
 10
155.0081169177
 20
31.6262385959
 11
155.3549915869
 21
31.5939738288
 12
154.2565543074
 22
31.5939738288
 13
154.2565543074
 23
31.5939738288
  0
SOLID
  8
0
 62
7
  6
CONTINUOUS
 10
154.1409294177
 20
31.5617111435
 11
154.2565543074
 21
31.5939738288
 12
155.3549915869
 22
31.5939738288
 13
155.3549915869
 23
31.5939738288
  0
SOLID
  8
0
 62
7
  6
CONTINUOUS
 10
155.3549915869
 20
31.5939738288
 11
155.5284290869
 21
31.5294468402
 12
154.1409294177
 22
31.5617111435
 13
154.1409294177
 23
31.5617111435
  0
SOLID
  8
0
 62
7
  6
CONTINUOUS
 10
154.0253041972
 20
31.4971826249
 11
154.1409294177
 21
31.5617111435
 12
155.5284290869
 22
31.5294468402
 13
155.5284290869
 23
31.5294468402
  0
SOLID
  8
0
 62
7
  6
CONTINUOUS
 10
154.0253041972
 20
31.4971826249
 11
155.5284290869
 21
31.5294468402
 12
154.6612419177
 22
31.4971826249
 13
154.6612419177
 23
31.4971826249
  0
SOLID
  8
0
 62
7
  6
CONTINUOUS
 10
154.6612419177
 20
31.4971826249
 11
155.5284290869
 21
31.5294468402
 12
155.0081169177
 22
31.4971826249
 13
155.0081169177
 23
31.4971826249
  0
SOLID
  8
0
 62
7
  6
CONTINUOUS
 10
155.0081169177
 20
31.4971826249
 11
155.5284290869
 21
31.5294468402
 12
155.239367028
 22
31.4649194065
 13
155.239367028
 23
31.4649194065
  0
SOLID
  8
0
 62
7
  6
CONTINUOUS
 10
155.5284290869
 20
31.5294468402
 11
155.6440543074
 21
31.4649194065
 12
155.239367028
 22
31.4649194065
 13
155.239367028
 23
31.4649194065
  0
SOLID
  8
0
 62
7
  6
CONTINUOUS
 10
153.9674919177
 20
31.4326554138
 11
154.0253041972
 21
31.4971826249
 12
154.6612419177
 22
31.4971826249
 13
154.6612419177
 23
31.4971826249
  0
SOLID
  8
0
 62
7
  6
CONTINUOUS
 10
155.3549915869
 20
31.4326554138
 11
155.239367028
 21
31.4649194065
 12
155.6440543074
 22
31.4649194065
 13
155.6440543074
 23
31.4649194065
  0
SOLID
  8
0
 62
7
  6
CONTINUOUS
 10
155.3549915869
 20
31.4326554138
 11
155.6440543074
 21
31.4649194065
 12
155.412804528
 22
31.3681282026
 13
155.412804528
 23
31.3681282026
  0
SOLID
  8
0
 62
7
  6
CONTINUOUS
 10
155.6440543074
 20
31.4649194065
 11
155.7018665869
 21
31.3681282026
 12
155.412804528
 22
31.3681282026
 13
155.412804528
 23
31.3681282026
  0
SOLID
  8
0
 62
7
  6
CONTINUOUS
 10
155.412804528
 20
31.2713369632
 11
155.412804528
 21
31.3681282026
 12
155.7018665869
 22
31.3681282026
 13
155.7018665869
 23
31.3681282026
  0
SOLID
  8
0
 62
7
  6
CONTINUOUS
 10
155.412804528
 20
31.2713369632
 11
155.7018665869
 21
31.3681282026
 12
155.412804528
 22
31.1422827828
 13
155.412804528
 23
31.1422827828
  0
SOLID
  8
0
 62
7
  6
CONTINUOUS
 10
155.412804528
 20
31.1422827828
 11
155.7018665869
 21
31.3681282026
 12
155.412804528
 22
30.9487004259
 13
155.412804528
 23
30.9487004259
  0
SOLID
  8
0
 62
7
  6
CONTINUOUS
 10
155.7018665869
 20
31.3681282026
 11
155.7018665869
 21
30.8519086025
 12
155.412804528
 22
30.9487004259
 13
155.412804528
 23
30.9487004259
  0
SOLID
  8
0
 62
7
  6
CONTINUOUS
 10
157.6096790869
 20
31.5939736268
 11
157.840929528
 21
31.6262383465
 12
158.0721793074
 22
31.6262383465
 13
158.0721793074
 23
31.6262383465
  0
SOLID
  8
0
 62
7
  6
CONTINUOUS
 10
158.0721793074
 20
31.6262383465
 11
158.2456168074
 21
31.5939736268
 12
157.6096790869
 22
31.5939736268
 13
157.6096790869
 23
31.5939736268
  0
SOLID
  8
0
 62
7
  6
CONTINUOUS
 10
157.4362415869
 20
31.5294472848
 11
157.6096790869
 21
31.5939736268
 12
158.2456168074
 22
31.5939736268
 13
158.2456168074
 23
31.5939736268
  0
SOLID
  8
0
 62
7
  6
CONTINUOUS
 10
158.2456168074
 20
31.5939736268
 11
158.4190543074
 21
31.5294472848
 12
157.4362415869
 22
31.5294472848
 13
157.4362415869
 23
31.5294472848
  0
SOLID
  8
0
 62
7
  6
CONTINUOUS
 10
158.4190543074
 20
31.5294472848
 11
157.840929528
 21
31.4971825369
 12
157.4362415869
 22
31.5294472848
 13
157.4362415869
 23
31.5294472848
  0
SOLID
  8
0
 62
7
  6
CONTINUOUS
 10
157.320617028
 20
31.4649199103
 11
157.4362415869
 21
31.5294472848
 12
157.840929528
 22
31.4971825369
 13
157.840929528
 23
31.4971825369
  0
SOLID
  8
0
 62
7
  6
CONTINUOUS
 10
157.840929528
 20
31.4971825369
 11
157.6096790869
 21
31.4649199103
 12
157.320617028
 22
31.4649199103
 13
157.320617028
 23
31.4649199103
  0
SOLID
  8
0
 62
7
  6
CONTINUOUS
 10
157.840929528
 20
31.4971825369
 11
158.4190543074
 21
31.5294472848
 12
158.0721793074
 22
31.4649199103
 13
158.0721793074
 23
31.4649199103
  0
SOLID
  8
0
 62
7
  6
CONTINUOUS
 10
158.4190543074
 20
31.5294472848
 11
158.534679528
 21
31.4649199103
 12
158.0721793074
 22
31.4649199103
 13
158.0721793074
 23
31.4649199103
  0
SOLID
  8
0
 62
7
  6
CONTINUOUS
 10
158.187804528
 20
31.4326554468
 11
158.0721793074
 21
31.4649199103
 12
158.534679528
 22
31.4649199103
 13
158.534679528
 23
31.4649199103
  0
SOLID
  8
0
 62
7
  6
CONTINUOUS
 10
158.187804528
 20
31.4326554468
 11
158.534679528
 21
31.4649199103
 12
158.3034290869
 22
31.3681288486
 13
158.3034290869
 23
31.3681288486
  0
SOLID
  8
0
 62
7
  6
CONTINUOUS
 10
158.534679528
 20
31.4649199103
 11
158.5924918074
 21
31.3681288486
 12
158.3034290869
 22
31.3681288486
 13
158.3034290869
 23
31.3681288486
  0
SOLID
  8
0
 62
7
  6
CONTINUOUS
 10
158.361242028
 20
31.2068093799
 11
158.3034290869
 21
31.3681288486
 12
158.5924918074
 22
31.3681288486
 13
158.5924918074
 23
31.3681288486
  0
SOLID
  8
0
 62
7
  6
CONTINUOUS
 10
158.5924918074
 20
31.3681288486
 11
158.6503040869
 21
31.2068093799
 12
158.361242028
 22
31.2068093799
 13
158.361242028
 23
31.2068093799
  0
SOLID
  8
0
 62
7
  6
CONTINUOUS
 10
157.6096790869
 20
31.4649199103
 11
157.4362415869
 21
31.4003926599
 12
157.320617028
 22
31.4649199103
 13
157.320617028
 23
31.4649199103
  0
SOLID
  8
0
 62
7
  6
CONTINUOUS
 10
157.4362415869
 20
31.4003926599
 11
157.320617028
 21
31.3358640533
 12
157.320617028
 22
31.4649199103
 13
157.320617028
 23
31.4649199103
  0
SOLID
  8
0
 62
7
  6
CONTINUOUS
 10
157.320617028
 20
31.3358640533
 11
157.0315543074
 21
30.5938003547
 12
157.320617028
 22
31.4649199103
 13
157.320617028
 23
31.4649199103
  0
SOLID
  8
0
 62
7
  6
CONTINUOUS
 10
157.320617028
 20
31.4649199103
 11
157.0315543074
 21
30.5938003547
 12
157.320617028
 22
31.6262383465
 13
157.320617028
 23
31.6262383465
  0
SOLID
  8
0
 62
7
  6
CONTINUOUS
 10
157.0315543074
 20
30.5938003547
 11
157.0315543074
 21
31.6262383465
 12
157.320617028
 22
31.6262383465
 13
157.320617028
 23
31.6262383465
  0
SOLID
  8
0
 62
7
  6
CONTINUOUS
 10
157.320617028
 20
31.3358640533
 11
157.320617028
 21
30.5938003547
 12
157.0315543074
 22
30.5938003547
 13
157.0315543074
 23
30.5938003547
  0
SOLID
  8
0
 62
7
  6
CONTINUOUS
 10
158.361242028
 20
30.5938003547
 11
158.361242028
 21
31.2068093799
 12
158.6503040869
 22
31.2068093799
 13
158.6503040869
 23
31.2068093799
  0
SOLID
  8
0
 62
7
  6
CONTINUOUS
 10
158.6503040869
 20
31.2068093799
 11
158.6503040869
 21
30.5938003547
 12
158.361242028
 22
30.5938003547
 13
158.361242028
 23
30.5938003547
  0
SOLID
  8
0
 62
7
  6
CONTINUOUS
 10
159.4596793074
 20
31.5939739474
 11
159.8065543074
 21
31.6262381969
 12
160.1534293074
 22
31.6262381969
 13
160.1534293074
 23
31.6262381969
  0
SOLID
  8
0
 62
7
  6
CONTINUOUS
 10
160.1534293074
 20
31.6262381969
 11
160.5003043074
 21
31.5939739474
 12
159.4596793074
 22
31.5939739474
 13
159.4596793074
 23
31.5939739474
  0
SOLID
  8
0
 62
7
  6
CONTINUOUS
 10
159.228429528
 20
31.5294468402
 11
159.4596793074
 21
31.5939739474
 12
160.5003043074
 22
31.5939739474
 13
160.5003043074
 23
31.5939739474
  0
SOLID
  8
0
 62
7
  6
CONTINUOUS
 10
159.228429528
 20
31.5294468402
 11
160.5003043074
 21
31.5939739304
 12
160.6737418074
 22
31.5617111435
 13
160.6737418074
 23
31.5617111435
  0
SOLID
  8
0
 62
7
  6
CONTINUOUS
 10
159.228429528
 20
31.5294468402
 11
160.6737418074
 21
31.5617111435
 12
159.8065543074
 22
31.4971825592
 13
159.8065543074
 23
31.4971825592
  0
SOLID
  8
0
 62
7
  6
CONTINUOUS
 10
159.8065543074
 20
31.4971825592
 11
160.6737418074
 21
31.5617111435
 12
160.1534293074
 22
31.4971825592
 13
160.1534293074
 23
31.4971825592
  0
SOLID
  8
0
 62
7
  6
CONTINUOUS
 10
160.6737418074
 20
31.5617111435
 11
160.8471793074
 21
31.4971825592
 12
160.1534293074
 22
31.4971825592
 13
160.1534293074
 23
31.4971825592
  0
SOLID
  8
0
 62
7
  6
CONTINUOUS
 10
160.5003043074
 20
31.4649197501
 11
160.1534293074
 21
31.4971825592
 12
160.8471793074
 22
31.4971825592
 13
160.8471793074
 23
31.4971825592
  0
SOLID
  8
0
 62
7
  6
CONTINUOUS
 10
159.1128043074
 20
31.4326555427
 11
159.228429528
 21
31.5294468402
 12
159.8065543074
 22
31.4971825592
 13
159.8065543074
 23
31.4971825592
  0
SOLID
  8
0
 62
7
  6
CONTINUOUS
 10
160.5003043074
 20
31.4649197501
 11
160.8471793074
 21
31.4971825592
 12
160.615929528
 22
31.4326555427
 13
160.615929528
 23
31.4326555427
  0
SOLID
  8
0
 62
7
  6
CONTINUOUS
 10
160.615929528
 20
31.4326555427
 11
160.8471793074
 21
31.4971825592
 12
160.6737418074
 22
31.3681283005
 13
160.6737418074
 23
31.3681283005
  0
SOLID
  8
0
 62
7
  6
CONTINUOUS
 10
160.8471793074
 20
31.4971825592
 11
160.9628038663
 21
31.3681283005
 12
160.6737418074
 22
31.3681283005
 13
160.6737418074
 23
31.3681283005
  0
SOLID
  8
0
 62
7
  6
CONTINUOUS
 10
150.2674918074
 20
31.4649197501
 11
149.7471793074
 21
31.4326554237
 12
150.498741835
 22
31.4971824493
 13
150.498741835
 23
31.4971824493
  0
SOLID
  8
0
 62
7
  6
CONTINUOUS
 10
149.7471793074
 20
31.4326554237
 11
149.8628043005
 21
31.4971824493
 12
150.498741835
 22
31.4971824493
 13
150.498741835
 23
31.4971824493
  0
SOLID
  8
0
 62
7
  6
CONTINUOUS
 10
150.2674918074
 20
31.4649197501
 11
150.1518667936
 21
31.4326554237
 12
149.7471793074
 22
31.4326554237
 13
149.7471793074
 23
31.4326554237
  0
SOLID
  8
0
 62
7
  6
CONTINUOUS
 10
149.6315543091
 20
31.3036012664
 11
149.7471793074
 21
31.4326554237
 12
150.1518667936
 22
31.4326554237
 13
150.1518667936
 23
31.4326554237
  0
SOLID
  8
0
 62
7
  6
CONTINUOUS
 10
153.9674919177
 20
31.4326554237
 11
154.6612419177
 21
31.4971825369
 12
154.4299918074
 22
31.4649197501
 13
154.4299918074
 23
31.4649197501
  0
SOLID
  8
0
 62
7
  6
CONTINUOUS
 10
154.4299918074
 20
31.4649197501
 11
154.3143669177
 21
31.4326554237
 12
153.9674919177
 22
31.4326554237
 13
153.9674919177
 23
31.4326554237
  0
SOLID
  8
0
 62
7
  6
CONTINUOUS
 10
153.9674919177
 20
31.3681283335
 11
153.9674919177
 21
31.4326554237
 12
154.3143669177
 22
31.4326554237
 13
154.3143669177
 23
31.4326554237
  0
SOLID
  8
0
 62
7
  6
CONTINUOUS
 10
154.3143669177
 20
31.4326554237
 11
154.2565543074
 21
31.3681283335
 12
153.9674919177
 22
31.3681283335
 13
153.9674919177
 23
31.3681283335
  0
SOLID
  8
0
 62
7
  6
CONTINUOUS
 10
159.1128043074
 20
31.4326555528
 11
159.8065543074
 21
31.4971825369
 12
159.575304528
 22
31.4649197501
 13
159.575304528
 23
31.4649197501
  0
SOLID
  8
0
 62
7
  6
CONTINUOUS
 10
159.575304528
 20
31.4649197501
 11
159.4596793074
 21
31.4326555528
 12
159.1128043074
 22
31.4326555528
 13
159.1128043074
 23
31.4326555528
  0
SOLID
  8
0
 62
7
  6
CONTINUOUS
 10
159.1128043074
 20
31.3681284626
 11
159.1128043074
 21
31.4326555528
 12
159.4596793074
 22
31.4326555528
 13
159.4596793074
 23
31.4326555528
  0
SOLID
  8
0
 62
7
  6
CONTINUOUS
 10
159.4596793074
 20
31.4326555528
 11
159.401867028
 21
31.3681284626
 12
159.1128043074
 22
31.3681284626
 13
159.1128043074
 23
31.3681284626
  0
SOLID
  8
0
 62
7
  6
CONTINUOUS
 10
159.228429528
 20
31.2390741763
 11
159.1128043074
 21
31.3681284626
 12
159.401867028
 22
31.3681284626
 13
159.401867028
 23
31.3681284626
  0
SOLID
  8
0
 62
7
  6
CONTINUOUS
 10
149.6315543091
 20
31.3036012664
 11
150.1518667936
 21
31.4326554468
 12
149.9784292936
 22
31.3358640533
 13
149.9784292936
 23
31.3358640533
  0
SOLID
  8
0
 62
7
  6
CONTINUOUS
 10
149.9784292936
 20
31.3358640533
 11
149.9206168074
 21
31.2713369632
 12
149.6315543091
 22
31.3036012664
 13
149.6315543091
 23
31.3036012664
  0
SOLID
  8
0
 62
7
  6
CONTINUOUS
 10
149.5737418074
 20
31.1100184796
 11
149.6315543091
 21
31.3036012664
 12
149.9206168074
 22
31.2713369632
 13
149.9206168074
 23
31.2713369632
  0
SOLID
  8
0
 62
7
  6
CONTINUOUS
 10
154.4299918074
 20
31.2390741763
 11
154.7768668074
 21
31.271336924
 12
155.412804528
 22
31.271336924
 13
155.412804528
 23
31.271336924
  0
SOLID
  8
0
 62
7
  6
CONTINUOUS
 10
154.4299918074
 20
31.2390741763
 11
155.412804528
 21
31.271336924
 12
154.1987416972
 22
31.1745462761
 13
154.1987416972
 23
31.1745462761
  0
SOLID
  8
0
 62
7
  6
CONTINUOUS
 10
154.1987416972
 20
31.1745462761
 11
155.412804528
 21
31.271336924
 12
154.7768668074
 22
31.1422827436
 13
154.7768668074
 23
31.1422827436
  0
SOLID
  8
0
 62
7
  6
CONTINUOUS
 10
155.412804528
 20
31.271336924
 11
155.412804528
 21
31.1422827436
 12
154.7768668074
 22
31.1422827436
 13
154.7768668074
 23
31.1422827436
  0
SOLID
  8
0
 62
7
  6
CONTINUOUS
 10
159.228429528
 20
31.2390745501
 11
159.401867028
 21
31.3681283566
 12
159.4596793074
 22
31.3036012664
 13
159.4596793074
 23
31.3036012664
  0
SOLID
  8
0
 62
7
  6
CONTINUOUS
 10
159.4596793074
 20
31.3036012664
 11
159.6331168074
 21
31.2390745501
 12
159.228429528
 22
31.2390745501
 13
159.228429528
 23
31.2390745501
  0
SOLID
  8
0
 62
7
  6
CONTINUOUS
 10
159.4596793074
 20
31.1422827828
 11
159.228429528
 21
31.2390745501
 12
159.6331168074
 22
31.2390745501
 13
159.6331168074
 23
31.2390745501
  0
SOLID
  8
0
 62
7
  6
CONTINUOUS
 10
159.6331168074
 20
31.2390745501
 11
160.615929528
 21
31.0777556927
 12
159.4596793074
 22
31.1422827828
 13
159.4596793074
 23
31.1422827828
  0
SOLID
  8
0
 62
7
  6
CONTINUOUS
 10
160.442492028
 20
30.9809646623
 11
159.4596793074
 21
31.1422827828
 12
160.615929528
 22
31.0777556927
 13
160.615929528
 23
31.0777556927
  0
SOLID
  8
0
 62
7
  6
CONTINUOUS
 10
160.615929528
 20
31.0777556927
 11
160.8471793074
 21
30.9809646623
 12
160.442492028
 22
30.9809646623
 13
160.442492028
 23
30.9809646623
  0
SOLID
  8
0
 62
7
  6
CONTINUOUS
 10
160.615929528
 20
30.9164372091
 11
160.442492028
 21
30.9809646623
 12
160.8471793074
 22
30.9809646623
 13
160.8471793074
 23
30.9809646623
  0
SOLID
  8
0
 62
7
  6
CONTINUOUS
 10
160.615929528
 20
30.9164372091
 11
160.8471793074
 21
30.9809646623
 12
160.6737418074
 22
30.8519089441
 13
160.6737418074
 23
30.8519089441
  0
SOLID
  8
0
 62
7
  6
CONTINUOUS
 10
160.8471793074
 20
30.9809646623
 11
160.9628038663
 21
30.8519089441
 12
160.6737418074
 22
30.8519089441
 13
160.6737418074
 23
30.8519089441
  0
SOLID
  8
0
 62
7
  6
CONTINUOUS
 10
160.615929528
 20
30.7873818593
 11
160.6737418074
 21
30.8519089441
 12
160.9628038663
 22
30.8519089441
 13
160.9628038663
 23
30.8519089441
  0
SOLID
  8
0
 62
7
  6
CONTINUOUS
 10
160.9628038663
 20
30.8519089441
 11
160.9628038663
 21
30.7873818593
 12
160.615929528
 22
30.7873818593
 13
160.615929528
 23
30.7873818593
  0
SOLID
  8
0
 62
7
  6
CONTINUOUS
 10
160.5003043074
 20
30.7551187255
 11
160.615929528
 21
30.7873818593
 12
160.9628038663
 22
30.7873818593
 13
160.9628038663
 23
30.7873818593
  0
SOLID
  8
0
 62
7
  6
CONTINUOUS
 10
160.5003043074
 20
30.7551187255
 11
160.9628038663
 21
30.7873818593
 12
160.269054528
 22
30.7228547745
 13
160.269054528
 23
30.7228547745
  0
SOLID
  8
0
 62
7
  6
CONTINUOUS
 10
160.9628038663
 20
30.7873818593
 11
160.8471793074
 21
30.6905916353
 12
160.269054528
 22
30.7228547745
 13
160.269054528
 23
30.7228547745
  0
SOLID
  8
0
 62
7
  6
CONTINUOUS
 10
160.8471793074
 20
30.6905916353
 11
159.401867028
 21
30.658327332
 12
160.269054528
 22
30.7228547745
 13
160.269054528
 23
30.7228547745
  0
SOLID
  8
0
 62
7
  6
CONTINUOUS
 10
160.269054528
 20
30.7228547745
 11
159.401867028
 21
30.658327332
 12
159.922179528
 22
30.7228547745
 13
159.922179528
 23
30.7228547745
  0
SOLID
  8
0
 62
7
  6
CONTINUOUS
 10
159.401867028
 20
30.658327332
 11
159.228429528
 21
30.7228547745
 12
159.922179528
 22
30.7228547745
 13
159.922179528
 23
30.7228547745
  0
SOLID
  8
0
 62
7
  6
CONTINUOUS
 10
159.401867028
 20
30.658327332
 11
160.8471793074
 21
30.6905916353
 12
159.575304528
 22
30.6260629858
 13
159.575304528
 23
30.6260629858
  0
SOLID
  8
0
 62
7
  6
CONTINUOUS
 10
160.8471793074
 20
30.6905916353
 11
160.615929528
 21
30.6260629858
 12
159.575304528
 22
30.6260629858
 13
159.575304528
 23
30.6260629858
  0
SOLID
  8
0
 62
7
  6
CONTINUOUS
 10
159.922179528
 20
30.5938006049
 11
159.575304528
 21
30.6260629858
 12
160.615929528
 22
30.6260629858
 13
160.615929528
 23
30.6260629858
  0
SOLID
  8
0
 62
7
  6
CONTINUOUS
 10
160.615929528
 20
30.6260629858
 11
160.269054528
 21
30.5938006049
 12
159.922179528
 22
30.5938006049
 13
159.922179528
 23
30.5938006049
  0
SOLID
  8
0
 62
7
  6
CONTINUOUS
 10
149.5737418074
 20
31.1100184796
 11
149.9206168074
 21
31.2713369632
 12
149.8628043005
 22
31.1422827828
 13
149.8628043005
 23
31.1422827828
  0
SOLID
  8
0
 62
7
  6
CONTINUOUS
 10
149.8628043005
 20
31.1422827828
 11
149.8628043005
 21
31.0454914852
 12
149.5737418074
 22
31.1100184796
 13
149.5737418074
 23
31.1100184796
  0
SOLID
  8
0
 62
7
  6
CONTINUOUS
 10
149.6315543091
 20
30.9164372091
 11
149.5737418074
 21
31.1100184796
 12
149.8628043005
 22
31.0454914852
 13
149.8628043005
 23
31.0454914852
  0
SOLID
  8
0
 62
7
  6
CONTINUOUS
 10
149.8628043005
 20
31.0454914852
 11
149.9784292936
 21
30.8841729058
 12
149.6315543091
 22
30.9164372091
 13
149.6315543091
 23
30.9164372091
  0
SOLID
  8
0
 62
7
  6
CONTINUOUS
 10
149.7471793074
 20
30.7873813202
 11
149.6315543091
 21
30.9164372091
 12
149.9784292936
 22
30.8841729058
 13
149.9784292936
 23
30.8841729058
  0
SOLID
  8
0
 62
7
  6
CONTINUOUS
 10
149.9784292936
 20
30.8841729058
 11
150.1518667936
 21
30.7873813202
 12
149.7471793074
 22
30.7873813202
 13
149.7471793074
 23
30.7873813202
  0
SOLID
  8
0
 62
7
  6
CONTINUOUS
 10
149.8628043005
 20
30.7228547004
 11
149.7471793074
 21
30.7873813202
 12
150.1518667936
 22
30.7873813202
 13
150.1518667936
 23
30.7873813202
  0
SOLID
  8
0
 62
7
  6
CONTINUOUS
 10
150.1518667936
 20
30.7873813202
 11
150.498741835
 21
30.7228547004
 12
149.8628043005
 22
30.7228547004
 13
149.8628043005
 23
30.7228547004
  0
SOLID
  8
0
 62
7
  6
CONTINUOUS
 10
150.0362418212
 20
30.658327332
 11
149.8628043005
 21
30.7228547004
 12
150.498741835
 22
30.7228547004
 13
150.498741835
 23
30.7228547004
  0
SOLID
  8
0
 62
7
  6
CONTINUOUS
 10
154.0831168074
 20
31.1100184386
 11
154.1987416972
 21
31.1745462761
 12
154.7768668074
 22
31.1422827828
 13
154.7768668074
 23
31.1422827828
  0
SOLID
  8
0
 62
7
  6
CONTINUOUS
 10
154.7768668074
 20
31.1422827828
 11
154.5456166972
 21
31.1100184386
 12
154.0831168074
 22
31.1100184386
 13
154.0831168074
 23
31.1100184386
  0
SOLID
  8
0
 62
7
  6
CONTINUOUS
 10
153.9674919177
 20
30.9809642992
 11
154.0831168074
 21
31.1100184386
 12
154.5456166972
 22
31.1100184386
 13
154.5456166972
 23
31.1100184386
  0
SOLID
  8
0
 62
7
  6
CONTINUOUS
 10
154.3143669177
 20
31.0132277988
 11
153.9674919177
 21
30.9809642992
 12
154.4299918074
 22
31.0777556927
 13
154.4299918074
 23
31.0777556927
  0
SOLID
  8
0
 62
7
  6
CONTINUOUS
 10
153.9674919177
 20
30.9809642992
 11
154.5456166972
 21
31.1100184796
 12
154.4299918074
 22
31.0777556927
 13
154.4299918074
 23
31.0777556927
  0
SOLID
  8
0
 62
7
  6
CONTINUOUS
 10
154.3143669177
 20
31.0132277988
 11
154.2565543074
 21
30.9164372091
 12
153.9674919177
 22
30.9809642992
 13
153.9674919177
 23
30.9809642992
  0
SOLID
  8
0
 62
7
  6
CONTINUOUS
 10
153.9674919177
 20
30.8841729058
 11
153.9674919177
 21
30.9809642992
 12
154.2565543074
 22
30.9164372091
 13
154.2565543074
 23
30.9164372091
  0
SOLID
  8
0
 62
7
  6
CONTINUOUS
 10
154.2565543074
 20
30.9164372091
 11
154.2565543074
 21
30.8519086025
 12
153.9674919177
 22
30.8841729058
 13
153.9674919177
 23
30.8841729058
  0
SOLID
  8
0
 62
7
  6
CONTINUOUS
 10
154.0253041972
 20
30.7551187255
 11
153.9674919177
 21
30.8841729058
 12
154.2565543074
 22
30.8519086025
 13
154.2565543074
 23
30.8519086025
  0
SOLID
  8
0
 62
7
  6
CONTINUOUS
 10
155.412804528
 20
30.9487004259
 11
155.7018665869
 21
30.8519086025
 12
155.3549915869
 22
30.8841729058
 13
155.3549915869
 23
30.8841729058
  0
SOLID
  8
0
 62
7
  6
CONTINUOUS
 10
155.1815540869
 20
30.7873815123
 11
155.3549915869
 21
30.8841729058
 12
155.7018665869
 22
30.8519086025
 13
155.7018665869
 23
30.8519086025
  0
SOLID
  8
0
 62
7
  6
CONTINUOUS
 10
155.1815540869
 20
30.7873815123
 11
155.7018665869
 21
30.8519086025
 12
155.412804528
 22
30.7551187255
 13
155.412804528
 23
30.7551187255
  0
SOLID
  8
0
 62
7
  6
CONTINUOUS
 10
155.7018665869
 20
30.8519086025
 11
155.759679528
 21
30.6905916353
 12
155.412804528
 22
30.7551187255
 13
155.412804528
 23
30.7551187255
  0
SOLID
  8
0
 62
7
  6
CONTINUOUS
 10
155.4706168074
 20
30.658327332
 11
155.412804528
 21
30.7551187255
 12
155.759679528
 22
30.6905916353
 13
155.759679528
 23
30.6905916353
  0
SOLID
  8
0
 62
7
  6
CONTINUOUS
 10
155.4706168074
 20
30.658327332
 11
155.759679528
 21
30.6905916353
 12
155.5284290869
 22
30.5938002079
 13
155.5284290869
 23
30.5938002079
  0
SOLID
  8
0
 62
7
  6
CONTINUOUS
 10
155.759679528
 20
30.6905916353
 11
155.8174918074
 21
30.5938002079
 12
155.5284290869
 22
30.5938002079
 13
155.5284290869
 23
30.5938002079
  0
SOLID
  8
0
 62
7
  6
CONTINUOUS
 10
151.0768668626
 20
30.8196456577
 11
151.1346793074
 21
30.9164373395
 12
151.4237418626
 22
30.9164373395
 13
151.4237418626
 23
30.9164373395
  0
SOLID
  8
0
 62
7
  6
CONTINUOUS
 10
151.4237418626
 20
30.9164373395
 11
151.3659292523
 21
30.7873815123
 12
151.0768668626
 22
30.8196456577
 13
151.0768668626
 23
30.8196456577
  0
SOLID
  8
0
 62
7
  6
CONTINUOUS
 10
150.9034292799
 20
30.7551187255
 11
151.0768668626
 21
30.8196456577
 12
151.3659292523
 22
30.7873815123
 13
151.3659292523
 23
30.7873815123
  0
SOLID
  8
0
 62
7
  6
CONTINUOUS
 10
150.9034292799
 20
30.7551187255
 11
151.3659292523
 21
30.7873815123
 12
150.498741835
 22
30.7228544222
 13
150.498741835
 23
30.7228544222
  0
SOLID
  8
0
 62
7
  6
CONTINUOUS
 10
151.3659292523
 20
30.7873815123
 11
151.1924917523
 21
30.6905916353
 12
150.498741835
 22
30.7228544222
 13
150.498741835
 23
30.7228544222
  0
SOLID
  8
0
 62
7
  6
CONTINUOUS
 10
150.0362418212
 20
30.658327332
 11
150.498741835
 21
30.7228544222
 12
151.1924917523
 22
30.6905916353
 13
151.1924917523
 23
30.6905916353
  0
SOLID
  8
0
 62
7
  6
CONTINUOUS
 10
150.0362418212
 20
30.658327332
 11
151.1924917523
 21
30.6905916353
 12
150.2096793212
 22
30.6260631011
 13
150.2096793212
 23
30.6260631011
  0
SOLID
  8
0
 62
7
  6
CONTINUOUS
 10
151.1924917523
 20
30.6905916353
 11
150.9612418074
 21
30.6260631011
 12
150.2096793212
 22
30.6260631011
 13
150.2096793212
 23
30.6260631011
  0
SOLID
  8
0
 62
7
  6
CONTINUOUS
 10
150.5565542799
 20
30.5938002419
 11
150.2096793212
 21
30.6260631011
 12
150.9612418074
 22
30.6260631011
 13
150.9612418074
 23
30.6260631011
  0
SOLID
  8
0
 62
7
  6
CONTINUOUS
 10
154.0253041972
 20
30.7551187255
 11
154.2565543074
 21
30.8519086025
 12
154.3143669177
 22
30.7873815123
 13
154.3143669177
 23
30.7873815123
  0
SOLID
  8
0
 62
7
  6
CONTINUOUS
 10
154.3143669177
 20
30.7873815123
 11
154.5456166972
 21
30.7228544222
 12
154.0253041972
 22
30.7551187255
 13
154.0253041972
 23
30.7551187255
  0
SOLID
  8
0
 62
7
  6
CONTINUOUS
 10
154.1987416972
 20
30.658327332
 11
154.0253041972
 21
30.7551187255
 12
154.5456166972
 22
30.7228544222
 13
154.5456166972
 23
30.7228544222
  0
SOLID
  8
0
 62
7
  6
CONTINUOUS
 10
154.8924916972
 20
30.7228544637
 11
155.1815540869
 21
30.7873815123
 12
155.412804528
 22
30.7551187255
 13
155.412804528
 23
30.7551187255
  0
SOLID
  8
0
 62
7
  6
CONTINUOUS
 10
155.412804528
 20
30.7551187255
 11
155.3549915869
 21
30.6905916353
 12
154.8924916972
 22
30.7228544637
 13
154.8924916972
 23
30.7228544637
  0
SOLID
  8
0
 62
7
  6
CONTINUOUS
 10
155.3549915869
 20
30.6905916353
 11
154.1987416972
 21
30.658327332
 12
154.8924916972
 22
30.7228544637
 13
154.8924916972
 23
30.7228544637
  0
SOLID
  8
0
 62
7
  6
CONTINUOUS
 10
154.1987416972
 20
30.658327332
 11
154.5456166972
 21
30.7228544637
 12
154.8924916972
 22
30.7228544637
 13
154.8924916972
 23
30.7228544637
  0
SOLID
  8
0
 62
7
  6
CONTINUOUS
 10
154.1987416972
 20
30.658327332
 11
155.3549915869
 21
30.6905916353
 12
154.3143669177
 22
30.6260630541
 13
154.3143669177
 23
30.6260630541
  0
SOLID
  8
0
 62
7
  6
CONTINUOUS
 10
155.3549915869
 20
30.6905916353
 11
155.1815540869
 21
30.6260630541
 12
154.3143669177
 22
30.6260630541
 13
154.3143669177
 23
30.6260630541
  0
SOLID
  8
0
 62
7
  6
CONTINUOUS
 10
154.5456166972
 20
30.5938002188
 11
154.3143669177
 21
30.6260630541
 12
155.1815540869
 22
30.6260630541
 13
155.1815540869
 23
30.6260630541
  0
SOLID
  8
0
 62
7
  6
CONTINUOUS
 10
155.1815540869
 20
30.6260630541
 11
154.8924916972
 21
30.5938002188
 12
154.5456166972
 22
30.5938002188
 13
154.5456166972
 23
30.5938002188
  0
SOLID
  8
0
 62
7
  6
CONTINUOUS
 10
159.575304528
 20
30.7551187255
 11
159.228429528
 21
30.7228544637
 12
159.4596793074
 22
30.7873815123
 13
159.4596793074
 23
30.7873815123
  0
SOLID
  8
0
 62
7
  6
CONTINUOUS
 10
159.4596793074
 20
30.7873815123
 11
159.228429528
 21
30.7228544637
 12
159.401867028
 22
30.851908644
 13
159.401867028
 23
30.851908644
  0
SOLID
  8
0
 62
7
  6
CONTINUOUS
 10
159.228429528
 20
30.7228544637
 11
159.1128043074
 21
30.851908644
 12
159.401867028
 22
30.851908644
 13
159.401867028
 23
30.851908644
  0
SOLID
  8
0
 62
7
  6
CONTINUOUS
 10
159.575304528
 20
30.7551187255
 11
159.922179528
 21
30.7228544637
 12
159.228429528
 22
30.7228544637
 13
159.228429528
 23
30.7228544637
  0
SOLID
  8
0
 62
7
  6
CONTINUOUS
 10
156.279992028
 20
30.5938002419
 11
156.279992028
 21
31.6262382337
 12
156.5690540869
 22
30.5938002419
 13
156.5690540869
 23
31.6262382337
  0
ENDBLK
  8
0
  6
BYBLOCK
 62
0
  0
BLOCK
  8
0
 62
2
  6
CONTINUOUS
  2
SYMBOL_3_BL0
 70
64
 10
32.1213064866
 20
19.8534310916
  0
TEXT
  8
0
 62
7
  6
CONTINUOUS
 10
18.3860103289
 20
19.2268451992
  7
TEXTSTYLE_3
 40
2.7338706658
  1
Ammeraal Beltech
 41
1.0
 51
15.0
 72
0
  0
TEXT
  8
0
 62
7
  6
CONTINUOUS
 10
29.1868111546
 20
16.9533085264
  7
TEXTSTYLE_4
 40
1.0935482663
  1
Innovation & Service in Belting
 41
1.0
 72
0
  0
LINE
  8
0
 62
7
  6
CONTINUOUS
 10
12.3614696776
 20
19.9934385078
 11
13.1396216709
 21
23.6543558055
  0
LINE
  8
0
 62
7
  6
CONTINUOUS
 10
23.2347899607
 20
27.3177497171
 11
13.6274394139
 21
24.1961322958
  0
LINE
  8
0
 62
7
  6
CONTINUOUS
 10
12.5867530099
 20
19.3000877048
 11
20.093828271
 21
12.5406867788
  0
LINE
  8
0
 62
7
  6
CONTINUOUS
 10
12.8492874206
 20
20.5352149982
 11
23.6575567857
 21
24.0470345971
  0
LINE
  8
0
 62
7
  6
CONTINUOUS
 10
23.6533516486
 20
13.6972460334
 11
15.2078919798
 21
21.3015720751
  0
LINE
  8
0
 62
7
  6
CONTINUOUS
 10
24.1731743684
 20
26.4728246013
 11
23.1966148312
 21
21.8784731989
  0
LINE
  8
0
 62
7
  6
CONTINUOUS
 10
22.4968128835
 20
18.5861638851
 11
21.810364672
 21
15.3566789607
  0
LINE
  8
0
 62
7
  6
CONTINUOUS
 10
24.8542704669
 20
14.087448211
 11
25.8105020025
 21
18.5861638851
  0
LINE
  8
0
 62
7
  6
CONTINUOUS
 10
26.5103039502
 20
21.8784731989
 11
26.9545457526
 21
23.9684665583
  0
LINE
  8
0
 62
7
  6
CONTINUOUS
 10
20.8069293463
 20
12.3891124661
 11
24.3664527239
 21
13.5456717207
  0
LINE
  8
0
 62
7
  6
CONTINUOUS
 10
23.9478910361
 20
27.1661754044
 11
26.7292624203
 21
24.6618173613
  0
ARC
  8
0
 62
7
  6
CONTINUOUS
 10
13.8527227462
 20
23.5027814928
 40
0.7290321776
 50
108.0
 51
168.0
  0
ARC
  8
0
 62
7
  6
CONTINUOUS
 10
23.4600732931
 20
26.624398914
 40
0.7290321776
 50
348.0
 51
108.0
  0
ARC
  8
0
 62
7
  6
CONTINUOUS
 10
26.2414446773
 20
24.120040871
 40
0.7290321776
 50
348.0
 51
48.0
  0
ARC
  8
0
 62
7
  6
CONTINUOUS
 10
20.581646014
 20
13.0824632691
 40
0.7290321776
 50
228.0
 51
288.0
  0
ARC
  8
0
 62
7
  6
CONTINUOUS
 10
13.0745707529
 20
19.8418641951
 40
0.7290321776
 50
108.0
 51
228.0
  0
ARC
  8
0
 62
7
  6
CONTINUOUS
 10
24.1411693916
 20
14.2390225237
 40
0.7290321776
 50
228.0
 51
348.0
  0
ENDBLK
  8
0
  6
BYBLOCK
 62
0
  0
ENDSEC
  0
SECTION
  2
ENTITIES
  0
TEXT
  8
0
 62
5
  6
CONTINUOUS
 10
96.0
 20
25.636
  7
TEXTSTYLE_2
 40
2.8
  1
Scale :
 41
0.6
 51
0.000019
 72
0
  0
TEXT
  8
0
 62
5
  6
CONTINUOUS
 10
116.0
 20
25.636
  7
TEXTSTYLE_2
 40
2.8
  1
Belt type:
 41
0.6
 51
0.000019
 72
0
  0
INSERT
  8
0
 62
2
  6
CONTINUOUS
  2
SYMBOL_3_BL0
 10
32.1213064866
 20
19.8534310916
  0
INSERT
  8
0
 62
2
  6
CONTINUOUS
  2
SYMBOL_8_BL1
 10
173.5956734183
 20
35.5937998301
  0
LINE
  8
0
 62
2
  6
CONTINUOUS
 10
10.0
 20
30.0
 11
200.0
 21
30.0
  0
LINE
  8
0
 62
2
  6
CONTINUOUS
 10
10.0
 20
30.0
 11
10.0
 21
10.0
  0
LINE
  8
0
 62
2
  6
CONTINUOUS
 10
10.0
 20
10.0
 11
200.0
 21
10.0
  0
LINE
  8
0
 62
2
  6
CONTINUOUS
 10
95.0
 20
30.0
 11
95.0
 21
10.0
  0
LINE
  8
0
 62
2
  6
CONTINUOUS
 10
115.0
 20
30.0
 11
115.0
 21
10.0
  0
LINE
  8
0
 62
2
  6
CONTINUOUS
 10
200.0
 20
30.0
 11
200.0
 21
10.0
  0
TEXT
  8
0
 62
5
  6
CONTINUOUS
 10
13.0
 20
23.303
  7
TEXTSTYLE_5
 40
1.52
  1
                                                                     Ammeraal Beltech Modular A/S
 41
1.0
 72
0
  0
TEXT
  8
0
 62
5
  6
CONTINUOUS
 10
13.0
 20
20.595
  7
TEXTSTYLE_5
 40
1.5
  1
                                                                      Hjulmagervej 21,  7100 Vejle,  DK
 41
1.0
 72
0
  0
TEXT
  8
0
 62
5
  6
CONTINUOUS
 10
13.0
 20
17.881
  7
TEXTSTYLE_5
 40
1.495
  1
                                                                      tel: 
 41
1.0
 72
0
  0
TEXT
  8
0
 62
5
  6
CONTINUOUS
 10
57.9869465649
 20
17.881
  7
TEXTSTYLE_5
 40
1.51
  1
+45 75723100     fax: +45 75723348
 41
1.0
 72
0
  0
TEXT
  8
0
 62
5
  6
CONTINUOUS
 10
13.0
 20
15.177
  7
TEXTSTYLE_5
 40
1.5
  1
                                                                      admin@unichains.dk  www.unichains.com
 41
1.0
 72
0
  0
TEXT
  8
0
 62
5
  6
CONTINUOUS
 10
99.75
 20
13.75
  7
TEXTSTYLE_6
 40
5.0
  1
1:1
 41
0.7
 72
1
 11
105.0
 21
13.75
  0
TEXT
  8
0
 62
5
  6
CONTINUOUS
 10
118.0
 20
13.75
  7
TEXTSTYLE_7
 40
7.5
  1
Sprocket Z08
 41
0.6694444444
 72
0
  0
LINE
  8
0
 62
7
  6
CONTINUOUS
 10
210.0
 20
0.0
 11
0.0
 21
0.0
  0
LINE
  8
0
 62
7
  6
CONTINUOUS
 10
10.0
 20
10.0
 11
200.0
 21
10.0
  0
LINE
  8
0
 62
7
  6
CONTINUOUS
 10
10.0
 20
30.0
 11
200.0
 21
30.0
  0
LINE
  8
0
 62
7
  6
CONTINUOUS
 10
0.0
 20
0.0
 11
0.0
 21
297.0
  0
LINE
  8
0
 62
7
  6
CONTINUOUS
 10
10.0
 20
10.0
 11
10.0
 21
287.0
  0
LINE
  8
0
 62
7
  6
CONTINUOUS
 10
200.0
 20
287.0
 11
200.0
 21
10.0
  0
LINE
  8
0
 62
7
  6
CONTINUOUS
 10
210.0
 20
0.0
 11
210.0
 21
297.0
  0
LINE
  8
0
 62
7
  6
CONTINUOUS
 10
10.0
 20
287.0
 11
200.0
 21
287.0
  0
LINE
  8
0
 62
7
  6
CONTINUOUS
 10
0.0
 20
297.0
 11
210.0
 21
297.0
  0
LINE
  8
0
 62
7
  6
CONTINUOUS
 10
47.5002069061
 20
153.8543884218
 11
48.4450221873
 21
153.4428292786
  0
LINE
  8
0
 62
7
  6
CONTINUOUS
 10
35.1826880978
 20
199.5918291173
 11
35.5597571291
 21
198.6327275639
  0
LINE
  8
0
 62
7
  6
CONTINUOUS
 10
43.2314223195
 20
165.6926937347
 11
43.2314223195
 21
195.5916692505
  0
LINE
  8
0
 62
7
  6
CONTINUOUS
 10
58.8141414909
 20
240.6428846639
 11
58.4025823476
 21
239.6980693826
  0
LINE
  8
0
 62
7
  6
CONTINUOUS
 10
40.5351475337
 20
210.9812616104
 11
61.6769158714
 21
232.1230299481
  0
LINE
  8
0
 62
7
  6
CONTINUOUS
 10
104.5515821863
 20
252.9604034722
 11
103.5924806329
 21
252.5833344408
  0
LINE
  8
0
 62
7
  6
CONTINUOUS
 10
122.4503978352
 20
138.2716692505
 11
92.5514223195
 21
138.2716692505
  0
LINE
  8
0
 62
7
  6
CONTINUOUS
 10
77.1618299596
 20
135.5753944646
 11
56.0200616219
 21
156.7171628023
  0
LINE
  8
0
 62
7
  6
CONTINUOUS
 10
79.6900548349
 20
233.7490016832
 11
79.3426908894
 21
233.4954925089
  0
LINE
  8
0
 62
7
  6
CONTINUOUS
 10
79.5007168093
 20
233.1003910332
 11
79.8480807548
 21
233.3539002076
  0
LINE
  8
0
 62
7
  6
CONTINUOUS
 10
77.0946729821
 20
232.6417366376
 11
76.6314330182
 21
232.4036689994
  0
LINE
  8
0
 62
7
  6
CONTINUOUS
 10
74.778473593
 20
231.4513986678
 11
74.3152337285
 21
231.2133310806
  0
LINE
  8
0
 62
7
  6
CONTINUOUS
 10
80.0769252604
 20
233.9037354887
 11
79.6900548349
 21
233.7490016832
  0
LINE
  8
0
 62
7
  6
CONTINUOUS
 10
78.8195967926
 20
233.400850787
 11
78.3360088991
 21
233.2074335855
  0
LINE
  8
0
 62
7
  6
CONTINUOUS
 10
89.9517869638
 20
237.3804202983
 11
90.3517405305
 21
237.5384242854
  0
LINE
  8
0
 62
7
  6
CONTINUOUS
 10
90.271364219
 20
238.1716412508
 11
89.7680723607
 21
238.0005201945
  0
LINE
  8
0
 62
7
  6
CONTINUOUS
 10
82.0269319142
 20
236.2918593536
 11
81.5324912414
 21
236.128165813
  0
LINE
  8
0
 62
7
  6
CONTINUOUS
 10
81.6996676672
 20
235.6232049934
 11
82.19410834
 21
235.7868985341
  0
LINE
  8
0
 62
7
  6
CONTINUOUS
 10
82.5284612852
 20
234.7769766121
 11
82.0340206124
 21
234.6132830714
  0
LINE
  8
0
 62
7
  6
CONTINUOUS
 10
95.4955570185
 20
147.3665191257
 11
94.9735867974
 21
147.265829466
  0
LINE
  8
0
 62
7
  6
CONTINUOUS
 10
86.1231234304
 20
146.4137029559
 11
85.79428312
 21
146.3847610191
  0
LINE
  8
0
 62
7
  6
CONTINUOUS
 10
86.5535977567
 20
148.1702344476
 11
86.2247574463
 21
148.1412925108
  0
LINE
  8
0
 62
7
  6
CONTINUOUS
 10
95.4653559756
 20
144.6007265957
 11
97.9652069449
 21
144.5734294989
  0
LINE
  8
0
 62
7
  6
CONTINUOUS
 10
97.3460520948
 20
145.1121368947
 11
95.3670002321
 21
145.133747131
  0
LINE
  8
0
 62
7
  6
CONTINUOUS
 10
95.3844239121
 20
146.7293967936
 11
97.3634757748
 21
146.7077865573
  0
LINE
  8
0
 62
7
  6
CONTINUOUS
 10
97.3704452455
 20
147.3460463031
 11
95.4955570185
 21
147.3665191257
  0
LINE
  8
0
 62
7
  6
CONTINUOUS
 10
98.0198011385
 20
149.5731314374
 11
97.3948383961
 21
149.5799557116
  0
LINE
  8
0
 62
7
  6
CONTINUOUS
 10
85.5665064549
 20
145.8929271575
 11
86.0976984706
 21
145.8722786291
  0
LINE
  8
0
 62
7
  6
CONTINUOUS
 10
85.9969807812
 20
147.6494586493
 11
86.5281727969
 21
147.6288101208
  0
LINE
  8
0
 62
7
  6
CONTINUOUS
 10
90.2202399287
 20
145.0181817353
 11
91.0469380229
 21
144.9132560125
  0
LINE
  8
0
 62
7
  6
CONTINUOUS
 10
90.1187848994
 20
148.355387631
 11
91.978862707
 21
148.119303854
  0
LINE
  8
0
 62
7
  6
CONTINUOUS
 10
92.1357828071
 20
148.5283329561
 11
90.0690328412
 21
148.7906478636
  0
LINE
  8
0
 62
7
  6
CONTINUOUS
 10
93.3299004108
 20
149.6636108529
 11
92.709874475
 21
149.7423054452
  0
LINE
  8
0
 62
7
  6
CONTINUOUS
 10
89.816416954
 20
150.1095472764
 11
89.1963910181
 21
150.1882418687
  0
LINE
  8
0
 62
7
  6
CONTINUOUS
 10
94.9457089114
 20
144.7127901846
 11
95.4653559756
 21
144.6007265957
  0
LINE
  8
0
 62
7
  6
CONTINUOUS
 10
85.1618215694
 20
145.9921035482
 11
85.5665064549
 21
145.8929271575
  0
LINE
  8
0
 62
7
  6
CONTINUOUS
 10
85.79428312
 20
146.3847610191
 11
85.1872465292
 21
146.5335278751
  0
LINE
  8
0
 62
7
  6
CONTINUOUS
 10
84.5298088485
 20
147.3518328454
 11
84.0239388477
 21
147.4758067387
  0
LINE
  8
0
 62
7
  6
CONTINUOUS
 10
85.4911107804
 20
147.7734325426
 11
85.9969807812
 21
147.6494586493
  0
LINE
  8
0
 62
7
  6
CONTINUOUS
 10
86.2247574463
 20
148.1412925108
 11
85.5165542655
 21
148.3148523294
  0
LINE
  8
0
 62
7
  6
CONTINUOUS
 10
86.0229946191
 20
150.3813598433
 11
86.7311977999
 21
150.2078000247
  0
LINE
  8
0
 62
7
  6
CONTINUOUS
 10
86.7566413027
 20
150.7492198839
 11
86.250771302
 21
150.8731937772
  0
LINE
  8
0
 62
7
  6
CONTINUOUS
 10
95.3670002321
 20
145.133747131
 11
95.0556804394
 21
145.2435358924
  0
LINE
  8
0
 62
7
  6
CONTINUOUS
 10
84.6812735837
 20
146.2194028064
 11
85.1618215694
 21
145.9921035482
  0
LINE
  8
0
 62
7
  6
CONTINUOUS
 10
85.01058132
 20
148.0007272607
 11
85.4911107804
 21
147.7734325426
  0
LINE
  8
0
 62
7
  6
CONTINUOUS
 10
85.1872465292
 20
146.5335278751
 11
84.9090502488
 21
146.7112366679
  0
LINE
  8
0
 62
7
  6
CONTINUOUS
 10
85.5165542655
 20
148.3148523294
 11
85.2383579851
 21
148.4925611223
  0
LINE
  8
0
 62
7
  6
CONTINUOUS
 10
79.3426908894
 20
233.4954925089
 11
79.1315514453
 21
233.181891583
  0
LINE
  8
0
 62
7
  6
CONTINUOUS
 10
79.2895773652
 20
232.7867901073
 11
79.5007168093
 21
233.1003910332
  0
LINE
  8
0
 62
7
  6
CONTINUOUS
 10
77.6756168757
 20
229.2324060544
 11
77.8122863437
 21
229.4222523426
  0
LINE
  8
0
 62
7
  6
CONTINUOUS
 10
77.4811105805
 20
229.6108829018
 11
77.1591453517
 21
229.3258096425
  0
LINE
  8
0
 62
7
  6
CONTINUOUS
 10
77.3536516342
 20
228.9473328199
 11
77.6756168757
 21
229.2324060544
  0
LINE
  8
0
 62
7
  6
CONTINUOUS
 10
89.6685665581
 20
237.1299970692
 11
89.9517869638
 21
237.3804202983
  0
LINE
  8
0
 62
7
  6
CONTINUOUS
 10
89.7680723607
 20
238.0005201945
 11
89.381514846
 21
237.7369800464
  0
LINE
  8
0
 62
7
  6
CONTINUOUS
 10
92.3343081203
 20
233.5006148845
 11
92.7208656315
 21
233.7641550603
  0
LINE
  8
0
 62
7
  6
CONTINUOUS
 10
77.1591453517
 20
229.3258096425
 11
76.7885534071
 21
229.1353555455
  0
LINE
  8
0
 62
7
  6
CONTINUOUS
 10
76.9830596895
 20
228.7568787229
 11
77.3536516342
 21
228.9473328199
  0
LINE
  8
0
 62
7
  6
CONTINUOUS
 10
78.3727793163
 20
229.4710815014
 11
78.8360192803
 21
229.7091491397
  0
LINE
  8
0
 62
7
  6
CONTINUOUS
 10
79.6002163689
 20
230.0466215036
 11
80.0838042625
 21
230.240038705
  0
LINE
  8
0
 62
7
  6
CONTINUOUS
 10
81.8247203471
 20
230.9363404976
 11
82.3083079639
 21
231.1297575884
  0
LINE
  8
0
 62
7
  6
CONTINUOUS
 10
92.1505935089
 20
234.1207148454
 11
91.7506399423
 21
233.9627108583
  0
LINE
  8
0
 62
7
  6
CONTINUOUS
 10
102.2699826197
 20
235.7955192904
 11
102.487849336
 21
235.8806948116
  0
LINE
  8
0
 62
7
  6
CONTINUOUS
 10
96.993518327
 20
236.5791050503
 11
96.6823362064
 21
236.4689266801
  0
LINE
  8
0
 62
7
  6
CONTINUOUS
 10
91.8310162632
 20
233.329493819
 11
92.3343081203
 21
233.5006148845
  0
LINE
  8
0
 62
7
  6
CONTINUOUS
 10
83.103949831
 20
231.3815335435
 11
83.5983905038
 21
231.5452270841
  0
LINE
  8
0
 62
7
  6
CONTINUOUS
 10
85.6941543087
 20
150.3524179065
 11
86.0229946191
 21
150.3813598433
  0
LINE
  8
0
 62
7
  6
CONTINUOUS
 10
86.250771302
 20
150.8731937772
 11
85.7195978093
 21
150.8938377566
  0
LINE
  8
0
 62
7
  6
CONTINUOUS
 10
87.2371892863
 20
150.5219206167
 11
86.7566413027
 21
150.7492198839
  0
LINE
  8
0
 62
7
  6
CONTINUOUS
 10
86.7311977999
 20
150.2078000247
 11
87.0093940803
 21
150.0300912318
  0
LINE
  8
0
 62
7
  6
CONTINUOUS
 10
94.532558176
 20
145.0364695042
 11
94.9457089114
 21
144.7127901846
  0
LINE
  8
0
 62
7
  6
CONTINUOUS
 10
84.251369628
 20
146.6533527942
 11
84.6812735837
 21
146.2194028064
  0
LINE
  8
0
 62
7
  6
CONTINUOUS
 10
84.5806773643
 20
148.4346772486
 11
85.01058132
 21
148.0007272607
  0
LINE
  8
0
 62
7
  6
CONTINUOUS
 10
87.66707471
 20
150.0879751417
 11
87.2371892863
 21
150.5219206167
  0
LINE
  8
0
 62
7
  6
CONTINUOUS
 10
84.9090502488
 20
146.7112366679
 11
84.6561759835
 21
146.9922708256
  0
LINE
  8
0
 62
7
  6
CONTINUOUS
 10
85.2383579851
 20
148.4925611223
 11
84.9854837197
 21
148.7735952799
  0
LINE
  8
0
 62
7
  6
CONTINUOUS
 10
79.1315514453
 20
233.181891583
 11
79.0171291925
 21
232.9069739424
  0
LINE
  8
0
 62
7
  6
CONTINUOUS
 10
79.1751551124
 20
232.5118724668
 11
79.2895773652
 21
232.7867901073
  0
LINE
  8
0
 62
7
  6
CONTINUOUS
 10
77.6618013731
 20
229.9429618522
 11
77.4811105805
 21
229.6108829018
  0
LINE
  8
0
 62
7
  6
CONTINUOUS
 10
89.381514846
 20
237.7369800464
 11
89.0217494351
 21
237.2623675766
  0
LINE
  8
0
 62
7
  6
CONTINUOUS
 10
97.1992483507
 20
236.7943907657
 11
96.993518327
 21
236.5791050503
  0
LINE
  8
DEFAULT_1
 62
2
  6
CENTER
 10
63.6548090962
 20
203.3842045982
 11
84.7588869718
 21
224.4882824737
  0
LINE
  8
0
 62
7
  6
CONTINUOUS
 10
92.4338139053
 20
234.3711381484
 11
92.1505935089
 21
234.1207148454
  0
LINE
  8
0
 62
7
  6
CONTINUOUS
 10
102.2296975497
 20
236.4410048078
 11
102.0012699232
 21
236.2499718228
  0
LINE
  8
0
 62
7
  6
CONTINUOUS
 10
97.1054464808
 20
235.9421222992
 11
97.5181988787
 21
236.2663186141
  0
LINE
  8
0
 62
7
  6
CONTINUOUS
 10
101.8197782243
 20
233.3814790417
 11
102.2660701975
 21
233.6576878124
  0
LINE
  8
0
 62
7
  6
CONTINUOUS
 10
115.6415238934
 20
232.5706117871
 11
115.3657082967
 21
232.4583730009
  0
LINE
  8
DEFAULT_1
 62
2
  6
CENTER
 10
63.6548090962
 20
179.7991339027
 11
84.7588869718
 21
158.6950560272
  0
LINE
  8
DEFAULT_1
 62
2
  6
CENTER
 10
88.8835837311
 20
156.8331009677
 11
92.419117637
 21
153.2975670617
  0
LINE
  8
DEFAULT_1
 62
2
  6
CENTER
 10
61.7928540367
 20
183.9238306621
 11
58.2573201307
 21
187.459364568
  0
LINE
  8
0
 62
7
  6
CONTINUOUS
 10
95.0556804394
 20
145.2435358924
 11
94.8496858609
 21
145.4585638644
  0
LINE
  8
0
 62
7
  6
CONTINUOUS
 10
87.0093940803
 20
150.0300912318
 11
87.2622683457
 21
149.7490570742
  0
LINE
  8
0
 62
7
  6
CONTINUOUS
 10
84.9854837197
 20
148.7735952799
 11
84.8337760444
 21
149.0298364749
  0
LINE
  8
0
 62
7
  6
CONTINUOUS
 10
84.3531251139
 20
148.8190367711
 11
84.5806773643
 21
148.4346772486
  0
LINE
  8
0
 62
7
  6
CONTINUOUS
 10
77.8122863437
 20
229.4222523426
 11
77.9443504119
 21
229.8489504719
  0
LINE
  8
0
 62
7
  6
CONTINUOUS
 10
89.5020793508
 20
236.7871543027
 11
89.6685665581
 21
237.1299970692
  0
LINE
  8
0
 62
7
  6
CONTINUOUS
 10
97.5181988787
 20
236.2663186141
 11
97.8254967957
 21
236.6956222452
  0
LINE
  8
0
 62
7
  6
CONTINUOUS
 10
92.7208656315
 20
233.7641550603
 11
93.0806310377
 21
234.2387675671
  0
LINE
  8
0
 62
7
  6
CONTINUOUS
 10
102.487849336
 20
235.8806948116
 11
102.8410493135
 21
236.2731019896
  0
LINE
  8
DEFAULT_1
 62
2
  6
CENTER
 10
92.419117637
 20
229.8857714392
 11
88.8835837311
 21
226.3502375333
  0
LINE
  8
DEFAULT_1
 62
2
  6
CENTER
 10
58.2573201307
 20
195.7239739329
 11
61.7928540367
 21
199.2595078388
  0
LINE
  8
0
 62
7
  6
CONTINUOUS
 10
102.0079184223
 20
234.2179979198
 11
101.7794907884
 21
234.0269648606
  0
LINE
  8
0
 62
7
  6
CONTINUOUS
 10
115.7164309639
 20
231.9582568513
 11
116.1725076298
 21
232.224203636
  0
LINE
  8
0
 62
7
  6
CONTINUOUS
 10
120.0930460804
 20
229.5725973799
 11
120.5759051923
 21
229.7860937394
  0
LINE
  8
0
 62
7
  6
CONTINUOUS
 10
94.2247231186
 20
145.4653881386
 11
94.532558176
 21
145.0364695042
  0
LINE
  8
0
 62
7
  6
CONTINUOUS
 10
84.0491393927
 20
147.1410376815
 11
84.251369628
 21
146.6533527942
  0
LINE
  8
0
 62
7
  6
CONTINUOUS
 10
87.8693049365
 20
149.6002902182
 11
87.66707471
 21
150.0879751417
  0
LINE
  8
0
 62
7
  6
CONTINUOUS
 10
84.6561759835
 20
146.9922708256
 11
84.5298088485
 21
147.3518328454
  0
LINE
  8
0
 62
7
  6
CONTINUOUS
 10
77.7012175461
 20
230.322046525
 11
77.6618013731
 21
229.9429618522
  0
LINE
  8
0
 62
7
  6
CONTINUOUS
 10
89.0217494351
 20
237.2623675766
 11
88.8686582422
 21
236.8139889448
  0
LINE
  8
0
 62
7
  6
CONTINUOUS
 10
105.5149798106
 20
236.6476118146
 11
103.6936138007
 21
234.2833516857
  0
LINE
  8
0
 62
7
  6
CONTINUOUS
 10
103.9615210618
 20
234.0166096918
 11
105.7828870167
 21
236.3808695278
  0
LINE
  8
0
 62
7
  6
CONTINUOUS
 10
102.2660701975
 20
233.6576878124
 11
102.6192701787
 21
234.0500950275
  0
LINE
  8
0
 62
7
  6
CONTINUOUS
 10
118.9809338417
 20
227.6350338395
 11
119.4637929722
 21
227.8485302312
  0
LINE
  8
0
 62
7
  6
CONTINUOUS
 10
160.4297637194
 20
174.6916692505
 11
158.5781047454
 21
174.6916692505
  0
LINE
  8
0
 62
7
  6
CONTINUOUS
 10
87.2622683457
 20
149.7490570742
 11
87.3886539882
 21
149.3894904419
  0
LINE
  8
0
 62
7
  6
CONTINUOUS
 10
84.2773834837
 20
149.3852540606
 11
84.3531251139
 21
148.8190367711
  0
LINE
  8
0
 62
7
  6
CONTINUOUS
 10
84.0239388477
 20
147.4758067387
 11
84.0491393927
 21
147.1410376815
  0
LINE
  8
0
 62
7
  6
CONTINUOUS
 10
84.8337760444
 20
149.0298364749
 11
84.8085755349
 21
149.3646056769
  0
LINE
  8
0
 62
7
  6
CONTINUOUS
 10
87.3886539882
 20
149.3894904419
 11
87.4138545332
 21
149.0547213848
  0
LINE
  8
0
 62
7
  6
CONTINUOUS
 10
79.6514223195
 20
129.5649868245
 11
79.6514223195
 21
127.7133278506
  0
LINE
  8
0
 62
7
  6
CONTINUOUS
 10
89.4523264495
 20
236.3518927401
 11
89.5020793508
 21
236.7871543027
  0
LINE
  8
0
 62
7
  6
CONTINUOUS
 10
92.4969640411
 20
234.7008637002
 11
92.4338139053
 21
234.3711381484
  0
LINE
  8
0
 62
7
  6
CONTINUOUS
 10
97.2995215094
 20
237.1147837683
 11
97.1992483507
 21
236.7943907657
  0
LINE
  8
0
 62
7
  6
CONTINUOUS
 10
97.8254967957
 20
236.6956222452
 11
97.9257699544
 21
237.0160152478
  0
LINE
  8
0
 62
7
  6
CONTINUOUS
 10
102.3650308108
 20
236.7482364645
 11
102.2296975497
 21
236.4410048078
  0
LINE
  8
0
 62
7
  6
CONTINUOUS
 10
102.8410493135
 20
236.2731019896
 11
102.9763825746
 21
236.5803336464
  0
LINE
  8
0
 62
7
  6
CONTINUOUS
 10
102.1432516834
 20
234.5252295766
 11
102.0079184223
 21
234.2179979198
  0
LINE
  8
0
 62
7
  6
CONTINUOUS
 10
111.229923433
 20
236.2680949279
 11
108.4772648425
 21
232.417372742
  0
LINE
  8
0
 62
7
  6
CONTINUOUS
 10
108.7280673642
 20
231.7899643044
 11
111.2315919998
 21
235.1593176679
  0
LINE
  8
0
 62
7
  6
CONTINUOUS
 10
115.8641349527
 20
232.8219098149
 11
115.6415238934
 21
232.5706117871
  0
LINE
  8
0
 62
7
  6
CONTINUOUS
 10
116.1725076298
 20
232.224203636
 11
116.3951186891
 21
232.4755016638
  0
LINE
  8
0
 62
7
  6
CONTINUOUS
 10
40.7418299596
 20
159.6822860946
 11
39.4325093426
 21
158.3729654777
  0
LINE
  8
0
 62
7
  6
CONTINUOUS
 10
120.3360209683
 20
230.4144264087
 11
120.0868064438
 21
230.1894852981
  0
LINE
  8
0
 62
7
  6
CONTINUOUS
 10
120.5759051923
 20
229.7860937394
 11
120.8251197169
 21
230.01103485
  0
LINE
  8
0
 62
7
  6
CONTINUOUS
 10
119.2239087853
 20
228.4768629651
 11
118.9746942607
 21
228.2519218545
  0
LINE
  8
0
 62
7
  6
CONTINUOUS
 10
141.4135117682
 20
182.027360739
 11
141.7455869764
 21
182.0766905672
  0
LINE
  8
0
 62
7
  6
CONTINUOUS
 10
141.745224326
 20
182.7106796869
 11
141.4131488239
 21
182.6613499086
  0
LINE
  8
0
 62
7
  6
CONTINUOUS
 10
139.3158158428
 20
182.3831807672
 11
139.647891198
 21
182.4325105705
  0
LINE
  8
0
 62
7
  6
CONTINUOUS
 10
139.6475285476
 20
183.0664996902
 11
139.3154531924
 21
183.017169887
  0
LINE
  8
0
 62
7
  6
CONTINUOUS
 10
140.0691666357
 20
177.0903246014
 11
140.4046699385
 21
177.1023624469
  0
LINE
  8
0
 62
7
  6
CONTINUOUS
 10
140.4749204552
 20
177.7324475208
 11
140.139416866
 21
177.7204097576
  0
LINE
  8
0
 62
7
  6
CONTINUOUS
 10
138.0241514317
 20
177.6775629712
 11
138.3596548777
 21
177.6896007755
  0
LINE
  8
0
 62
7
  6
CONTINUOUS
 10
138.4299053944
 20
178.3196858494
 11
138.0944019484
 21
178.3076480451
  0
LINE
  8
0
 62
4
  6
CONTINUOUS
 10
93.5514223195
 20
179.2666692505
 11
99.5514223195
 21
179.2666692505
  0
LINE
  8
0
 62
7
  6
CONTINUOUS
 10
42.873178954
 20
196.0711534072
 11
36.2058519153
 21
198.0423089264
  0
LINE
  8
0
 62
7
  6
CONTINUOUS
 10
129.7701260922
 20
134.4727562736
 11
128.4608054753
 21
135.7820768905
  0
LINE
  8
0
 62
7
  6
CONTINUOUS
 10
94.1240442182
 20
145.7856554252
 11
94.2247231186
 21
145.4653881386
  0
LINE
  8
0
 62
7
  6
CONTINUOUS
 10
94.8496858609
 20
145.4585638644
 11
94.7490069605
 21
145.778831151
  0
LINE
  8
0
 62
7
  6
CONTINUOUS
 10
89.1963910181
 20
150.1882418687
 11
90.2202399287
 21
145.0181817353
  0
LINE
  8
0
 62
7
  6
CONTINUOUS
 10
90.6871635359
 20
145.387864742
 11
90.1187848994
 21
148.355387631
  0
LINE
  8
0
 62
7
  6
CONTINUOUS
 10
90.0690328412
 20
148.7906478636
 11
89.816416954
 21
150.1095472764
  0
LINE
  8
0
 62
7
  6
CONTINUOUS
 10
87.945046549
 20
149.0340728563
 11
87.8693049365
 21
149.6002902182
  0
LINE
  8
0
 62
7
  6
CONTINUOUS
 10
88.8686582422
 20
236.8139889448
 11
88.8323014303
 21
236.2731909257
  0
LINE
  8
0
 62
7
  6
CONTINUOUS
 10
93.0806310377
 20
234.2387675671
 11
93.1169890603
 21
234.7795655146
  0
LINE
  8
0
 62
7
  6
CONTINUOUS
 10
101.0309064762
 20
245.269912616
 11
103.0020619954
 21
251.9372396546
  0
LINE
  8
0
 62
7
  6
CONTINUOUS
 10
102.6192701787
 20
234.0500950275
 11
102.7546034472
 21
234.3573267584
  0
LINE
  8
0
 62
7
  6
CONTINUOUS
 10
119.4637929722
 20
227.8485302312
 11
119.7130075338
 21
228.0734714064
  0
LINE
  8
0
 62
7
  6
CONTINUOUS
 10
137.6751458289
 20
226.3804455129
 11
143.7834754247
 21
229.7011402399
  0
LINE
  8
0
 62
7
  6
CONTINUOUS
 10
141.5670449553
 20
192.0331413936
 11
142.0928962498
 21
192.164538347
  0
LINE
  8
0
 62
7
  6
CONTINUOUS
 10
140.4179424981
 20
195.7289184047
 11
139.8920905641
 21
195.5975309677
  0
LINE
  8
0
 62
7
  6
CONTINUOUS
 10
139.9188858426
 20
195.0773809923
 11
140.5509793756
 21
195.2142509641
  0
LINE
  8
0
 62
7
  6
CONTINUOUS
 10
142.0661014619
 20
192.6846787984
 11
141.4340075871
 21
192.5478183584
  0
LINE
  8
0
 62
7
  6
CONTINUOUS
 10
61.762646057
 20
232.7153927599
 11
58.44195133
 21
238.8237223556
  0
LINE
  8
0
 62
7
  6
CONTINUOUS
 10
94.0524681156
 20
238.5647346954
 11
94.113320647
 21
233.5651050122
  0
LINE
  8
0
 62
7
  6
CONTINUOUS
 10
94.7382743574
 20
233.5727115786
 11
94.7110849281
 21
235.8065887028
  0
LINE
  8
0
 62
7
  6
CONTINUOUS
 10
94.7033165208
 20
236.4448392246
 11
94.6838954988
 21
238.040465827
  0
LINE
  8
0
 62
4
  6
CONTINUOUS
 10
93.5514223195
 20
203.9166692505
 11
93.5514223195
 21
200.6318918694
  0
LINE
  8
0
 62
4
  6
CONTINUOUS
 10
93.5514223195
 20
182.5514466315
 11
93.5514223195
 21
179.2666692505
  0
LINE
  8
1_AXIS
 62
2
  6
CONTINUOUS
 10
96.5514223195
 20
192.4716692505
 11
96.5514223195
 21
190.7116692505
  0
LINE
  8
1_AXIS
 62
2
  6
CENTER
 10
96.5514223195
 20
187.1916692505
 11
96.5514223195
 21
123.5979839832
  0
LINE
  8
1_AXIS
 62
2
  6
CENTER
 10
96.5514223195
 20
195.9916692505
 11
96.5514223195
 21
259.5853545177
  0
LINE
  8
0
 62
7
  6
CONTINUOUS
 10
94.1286905352
 20
146.2111622205
 11
94.1240442182
 21
145.7856554252
  0
LINE
  8
0
 62
7
  6
CONTINUOUS
 10
94.7490069605
 20
145.778831151
 11
94.7524916991
 21
146.097961322
  0
LINE
  8
0
 62
7
  6
CONTINUOUS
 10
99.2996696817
 20
238.5508087607
 11
98.8033068467
 21
233.5755073693
  0
LINE
  8
0
 62
7
  6
CONTINUOUS
 10
99.4885849888
 20
234.1486068718
 11
99.6469986628
 21
235.7364690511
  0
LINE
  8
0
 62
7
  6
CONTINUOUS
 10
99.7103641236
 20
236.3716138339
 11
99.8582168949
 21
237.8536186236
  0
LINE
  8
0
 62
7
  6
CONTINUOUS
 10
87.8689589984
 20
148.286002195
 11
87.945046549
 21
149.0340728563
  0
LINE
  8
0
 62
7
  6
CONTINUOUS
 10
84.4039935943
 20
149.9018810295
 11
84.2773834837
 21
149.3852540606
  0
LINE
  8
0
 62
7
  6
CONTINUOUS
 10
84.8085755349
 20
149.3646056769
 11
84.88454158
 21
149.6745817714
  0
LINE
  8
0
 62
7
  6
CONTINUOUS
 10
107.3303947895
 20
237.4072097634
 11
105.9284072997
 21
232.6077898944
  0
LINE
  8
0
 62
7
  6
CONTINUOUS
 10
106.5283347833
 20
232.4325414582
 11
107.6320270981
 21
236.2108082853
  0
LINE
  8
0
 62
7
  6
CONTINUOUS
 10
113.4948314571
 20
235.4737217766
 11
111.5042788888
 21
230.8870344673
  0
LINE
  8
0
 62
7
  6
CONTINUOUS
 10
112.0776148024
 20
230.6382153963
 11
112.9670106434
 21
232.6875863508
  0
LINE
  8
0
 62
7
  6
CONTINUOUS
 10
113.221123707
 20
233.2731208311
 11
113.8564064845
 21
234.7369573053
  0
LINE
  8
0
 62
7
  6
CONTINUOUS
 10
118.276805483
 20
233.3136223868
 11
115.7877923712
 21
228.9771706426
  0
LINE
  8
0
 62
7
  6
CONTINUOUS
 10
116.6475951931
 20
229.2196335866
 11
117.4419610964
 21
230.6036075764
  0
LINE
  8
0
 62
7
  6
CONTINUOUS
 10
117.7597074133
 20
231.1571970948
 11
118.5011156342
 21
232.4489062294
  0
LINE
  8
0
 62
7
  6
CONTINUOUS
 10
121.1413699557
 20
228.4968376621
 11
120.8388468722
 21
228.0593295719
  0
LINE
  8
0
 62
7
  6
CONTINUOUS
 10
124.8977472745
 20
229.1393209206
 11
121.7113831695
 21
225.2861295433
  0
LINE
  8
0
 62
7
  6
CONTINUOUS
 10
122.1930320917
 20
224.8878340302
 11
123.6845216849
 21
226.6914555406
  0
LINE
  8
0
 62
7
  6
CONTINUOUS
 10
124.0912915221
 20
227.1833522535
 11
125.3793961967
 21
228.7410254075
  0
LINE
  8
0
 62
7
  6
CONTINUOUS
 10
138.320483746
 20
196.4584733369
 11
138.9500540439
 21
196.5636655981
  0
LINE
  8
0
 62
7
  6
CONTINUOUS
 10
142.5176191632
 20
197.1597550949
 11
143.2521177583
 21
197.2824793854
  0
LINE
  8
0
 62
7
  6
CONTINUOUS
 10
140.6108661482
 20
191.9838842973
 11
141.5670449553
 21
192.0331413936
  0
LINE
  8
0
 62
7
  6
CONTINUOUS
 10
141.4340075871
 20
192.5478183584
 11
140.6903129594
 21
192.5095072835
  0
LINE
  8
0
 62
7
  6
CONTINUOUS
 10
140.5509793756
 20
195.2142509641
 11
141.2946740033
 21
195.252562039
  0
LINE
  8
1_AXIS
 62
2
  6
CONTINUOUS
 10
97.4314223195
 20
191.5916692505
 11
95.6714223195
 21
191.5916692505
  0
LINE
  8
1_AXIS
 62
2
  6
CENTER
 10
92.1514223195
 20
191.5916692505
 11
28.5577370522
 21
191.5916692505
  0
LINE
  8
1_AXIS
 62
2
  6
CENTER
 10
100.9514223195
 20
191.5916692505
 11
164.5451075867
 21
191.5916692505
  0
LINE
  8
0
 62
7
  6
CONTINUOUS
 10
139.6480543186
 20
187.2259305604
 11
139.9666728694
 21
187.2075393054
  0
LINE
  8
0
 62
7
  6
CONTINUOUS
 10
141.7781810245
 20
187.2073189257
 11
142.0967995753
 21
187.1889276706
  0
LINE
  8
0
 62
7
  6
CONTINUOUS
 10
139.9966861962
 20
187.7275039676
 11
139.6780676454
 21
187.7458952226
  0
LINE
  8
0
 62
7
  6
CONTINUOUS
 10
142.1268129022
 20
187.7088923328
 11
141.914400535
 21
187.7211531695
  0
LINE
  8
0
 62
7
  6
CONTINUOUS
 10
142.0584653833
 20
190.2169987816
 11
142.2708777505
 21
190.204737945
  0
LINE
  8
0
 62
7
  6
CONTINUOUS
 10
139.8341382642
 20
190.4497343163
 11
140.152756815
 21
190.4313430613
  0
LINE
  8
0
 62
7
  6
CONTINUOUS
 10
138.7913919716
 20
182.4721357556
 11
139.3158158428
 21
182.3831807672
  0
LINE
  8
0
 62
7
  6
CONTINUOUS
 10
140.9939723774
 20
182.0985247796
 11
141.4135117682
 21
182.027360739
  0
LINE
  8
0
 62
7
  6
CONTINUOUS
 10
141.4131488239
 20
182.6613499086
 11
141.2033792754
 21
182.6969319039
  0
LINE
  8
0
 62
7
  6
CONTINUOUS
 10
139.3154531924
 20
183.017169887
 11
139.0007988697
 21
183.07054288
  0
LINE
  8
0
 62
7
  6
CONTINUOUS
 10
138.8069995316
 20
185.7447841879
 11
140.3802713654
 21
185.4779191854
  0
LINE
  8
0
 62
7
  6
CONTINUOUS
 10
141.0095800108
 20
185.3711731994
 11
142.4779671439
 21
185.1220991821
  0
LINE
  8
0
 62
7
  6
CONTINUOUS
 10
137.512897738
 20
177.8243725328
 11
138.0241514317
 21
177.6775629712
  0
LINE
  8
0
 62
7
  6
CONTINUOUS
 10
139.6601633944
 20
177.207772333
 11
140.0691666357
 21
177.0903246014
  0
LINE
  8
0
 62
7
  6
CONTINUOUS
 10
140.139416866
 20
177.7204097576
 11
139.9349153886
 21
177.7791335822
  0
LINE
  8
0
 62
7
  6
CONTINUOUS
 10
138.0944019484
 20
178.3076480451
 11
137.7876497322
 21
178.3957337821
  0
LINE
  8
0
 62
7
  6
CONTINUOUS
 10
137.8929013366
 20
181.0749215053
 11
139.4266626323
 21
180.6344927588
  0
LINE
  8
0
 62
7
  6
CONTINUOUS
 10
140.0401670646
 20
180.4583212849
 11
141.4716776931
 21
180.0472544302
  0
LINE
  8
0
 62
7
  6
CONTINUOUS
 10
74.3152337285
 20
231.2133310806
 11
75.2877651237
 21
229.320947001
  0
LINE
  8
0
 62
7
  6
CONTINUOUS
 10
75.7510049882
 20
229.5590145881
 11
74.778473593
 21
231.4513986678
  0
LINE
  8
0
 62
7
  6
CONTINUOUS
 10
76.6314330182
 20
232.4036689994
 11
77.7012175461
 21
230.322046525
  0
LINE
  8
0
 62
7
  6
CONTINUOUS
 10
78.3360088991
 20
233.2074335855
 11
79.6002163689
 21
230.0466215036
  0
LINE
  8
0
 62
7
  6
CONTINUOUS
 10
80.0838042625
 20
230.240038705
 11
79.1751551124
 21
232.5118724668
  0
LINE
  8
0
 62
7
  6
CONTINUOUS
 10
79.0171291925
 20
232.9069739424
 11
78.8195967926
 21
233.400850787
  0
LINE
  8
0
 62
7
  6
CONTINUOUS
 10
81.0740971169
 20
232.8130727836
 11
81.8247203471
 21
230.9363404976
  0
LINE
  8
0
 62
7
  6
CONTINUOUS
 10
81.5324912414
 20
236.128165813
 11
81.6996676672
 21
235.6232049934
  0
LINE
  8
0
 62
7
  6
CONTINUOUS
 10
82.0340206124
 20
234.6132830714
 11
83.103949831
 21
231.3815335435
  0
LINE
  8
0
 62
7
  6
CONTINUOUS
 10
83.5983905038
 20
231.5452270841
 11
82.5284612852
 21
234.7769766121
  0
LINE
  8
0
 62
7
  6
CONTINUOUS
 10
82.19410834
 20
235.7868985341
 11
82.0269319142
 21
236.2918593536
  0
LINE
  8
0
 62
7
  6
CONTINUOUS
 10
88.8323014303
 20
236.2731909257
 11
89.0332422279
 21
234.6901483644
  0
LINE
  8
0
 62
7
  6
CONTINUOUS
 10
89.6532672471
 20
234.7688501788
 11
89.4523264495
 21
236.3518927401
  0
LINE
  8
0
 62
7
  6
CONTINUOUS
 10
97.2956373021
 20
237.4339093272
 11
97.2995215094
 21
237.1147837683
  0
LINE
  8
0
 62
7
  6
CONTINUOUS
 10
97.9257699544
 20
237.0160152478
 11
97.9205910125
 21
237.4415158936
  0
LINE
  8
0
 62
4
  6
CONTINUOUS
 10
99.5514223195
 20
179.2666692505
 11
99.5514223195
 21
182.5514466315
  0
LINE
  8
0
 62
4
  6
CONTINUOUS
 10
99.5514223195
 20
200.6318918694
 11
99.5514223195
 21
203.9166692505
  0
LINE
  8
0
 62
7
  6
CONTINUOUS
 10
97.3948383961
 20
149.5799557116
 11
97.3704452455
 21
147.3460463031
  0
LINE
  8
0
 62
7
  6
CONTINUOUS
 10
97.3634757748
 20
146.7077865573
 11
97.3460520948
 21
145.1121368947
  0
LINE
  8
0
 62
7
  6
CONTINUOUS
 10
97.9652069449
 20
144.5734294989
 11
98.0198011385
 21
149.5731314374
  0
LINE
  8
0
 62
7
  6
CONTINUOUS
 10
102.386152631
 20
236.9599513921
 11
102.3650308108
 21
236.7482364645
  0
LINE
  8
0
 62
7
  6
CONTINUOUS
 10
102.1749344137
 20
234.842801968
 11
102.1432516834
 21
234.5252295766
  0
LINE
  8
0
 62
7
  6
CONTINUOUS
 10
102.7546034472
 20
234.3573267584
 11
102.8074079978
 21
234.8866140774
  0
LINE
  8
0
 62
7
  6
CONTINUOUS
 10
102.9763825746
 20
236.5803336464
 11
103.0186262447
 21
237.0037637981
  0
LINE
  8
0
 62
7
  6
CONTINUOUS
 10
87.4138545332
 20
149.0547213848
 11
87.3378884881
 21
148.7447452903
  0
LINE
  8
0
 62
7
  6
CONTINUOUS
 10
87.2364974478
 20
147.8933447241
 11
87.1858534178
 21
147.6866939945
  0
LINE
  8
0
 62
7
  6
CONTINUOUS
 10
87.6917048932
 20
147.5627246412
 11
87.8689589984
 21
148.286002195
  0
LINE
  8
0
 62
7
  6
CONTINUOUS
 10
111.2315919998
 20
235.1593176679
 11
110.127899685
 21
231.3810508408
  0
LINE
  8
0
 62
7
  6
CONTINUOUS
 10
110.7278271686
 20
231.2058024046
 11
112.1298146584
 21
236.0052222735
  0
LINE
  8
0
 62
7
  6
CONTINUOUS
 10
115.9911916031
 20
233.1146773284
 11
115.8641349527
 21
232.8219098149
  0
LINE
  8
0
 62
7
  6
CONTINUOUS
 10
116.3951186891
 20
232.4755016638
 11
116.5645275167
 21
232.8658582574
  0
LINE
  8
0
 62
7
  6
CONTINUOUS
 10
120.4419364072
 20
230.5989562481
 11
120.3360209683
 21
230.4144264087
  0
LINE
  8
0
 62
7
  6
CONTINUOUS
 10
119.3827819437
 20
228.7536577243
 11
119.2239087853
 21
228.4768629651
  0
LINE
  8
0
 62
7
  6
CONTINUOUS
 10
119.7130075338
 20
228.0734714064
 11
119.9777961312
 21
228.5347960051
  0
LINE
  8
0
 62
7
  6
CONTINUOUS
 10
120.8251197169
 20
230.01103485
 11
121.0369507431
 21
230.3800947873
  0
LINE
  8
0
 62
7
  6
CONTINUOUS
 10
122.0383493339
 20
227.2299113472
 11
122.3408724174
 21
227.6674194375
  0
LINE
  8
0
 62
7
  6
CONTINUOUS
 10
127.6270936166
 20
226.8823109871
 11
126.338988942
 21
225.3246378331
  0
LINE
  8
0
 62
7
  6
CONTINUOUS
 10
125.9322191047
 20
224.8327411202
 11
124.4407295116
 21
223.0291196097
  0
LINE
  8
0
 62
7
  6
CONTINUOUS
 10
124.9223784337
 20
222.6308240966
 11
128.1087425387
 21
226.4840154739
  0
LINE
  8
0
 62
7
  6
CONTINUOUS
 10
142.5654463132
 20
201.392172828
 11
142.0408044595
 21
201.3045126205
  0
LINE
  8
0
 62
7
  6
CONTINUOUS
 10
138.4732393402
 20
200.7084231237
 11
137.6338123008
 21
200.5681667795
  0
LINE
  8
0
 62
7
  6
CONTINUOUS
 10
141.3741213051
 20
195.778175501
 11
140.4179424981
 21
195.7289184047
  0
LINE
  8
0
 62
7
  6
CONTINUOUS
 10
142.3008910774
 20
190.7247026072
 11
141.9822725266
 21
190.7430938622
  0
LINE
  8
0
 62
7
  6
CONTINUOUS
 10
140.1827701419
 20
190.9513077235
 11
139.8641515911
 21
190.9696989786
  0
LINE
  8
0
 62
7
  6
CONTINUOUS
 10
140.6903129594
 20
192.5095072835
 11
140.0475016094
 21
192.5806915874
  0
LINE
  8
0
 62
7
  6
CONTINUOUS
 10
140.0742963972
 20
192.0605511361
 11
140.6108661482
 21
191.9838842973
  0
LINE
  8
0
 62
7
  6
CONTINUOUS
 10
143.211797913
 20
185.6315513182
 11
138.2822129365
 21
186.4677283085
  0
LINE
  8
0
 62
7
  6
CONTINUOUS
 10
142.2576833809
 20
180.4718061179
 11
137.4518980881
 21
181.8518161613
  0
LINE
  8
0
 62
7
  6
CONTINUOUS
 10
78.3589638095
 20
230.1816373075
 11
77.0946729821
 21
232.6417366376
  0
LINE
  8
0
 62
7
  6
CONTINUOUS
 10
82.3083079639
 20
231.1297575884
 11
81.5576847337
 21
233.0064898745
  0
LINE
  8
0
 62
7
  6
CONTINUOUS
 10
89.0332422279
 20
234.6901483644
 11
89.2035595965
 21
234.175584479
  0
LINE
  8
0
 62
7
  6
CONTINUOUS
 10
92.0719381627
 20
137.9134258849
 11
90.1007826435
 21
131.2460988463
  0
LINE
  8
0
 62
7
  6
CONTINUOUS
 10
94.2363389063
 20
146.5291546796
 11
94.1286905352
 21
146.2111622205
  0
LINE
  8
0
 62
7
  6
CONTINUOUS
 10
87.4132841981
 20
146.8642400499
 11
87.6917048932
 21
147.5627246412
  0
LINE
  8
0
 62
7
  6
CONTINUOUS
 10
87.1858534178
 20
147.6866939945
 11
86.9327362123
 21
147.0915393081
  0
LINE
  8
0
 62
7
  6
CONTINUOUS
 10
84.88454158
 20
149.6745817714
 11
85.0616742151
 21
149.9597649032
  0
LINE
  8
0
 62
7
  6
CONTINUOUS
 10
55.4276988101
 20
156.802892988
 11
49.3193692143
 21
153.482198261
  0
LINE
  8
0
 62
7
  6
CONTINUOUS
 10
139.8920905641
 20
195.5975309677
 11
139.5787234489
 21
195.4770800357
  0
LINE
  8
0
 62
4
  6
CONTINUOUS
 10
99.5514223195
 20
203.9166692505
 11
93.5514223195
 21
203.9166692505
  0
LINE
  8
0
 62
7
  6
CONTINUOUS
 10
141.2946740033
 20
195.252562039
 11
141.9374856952
 21
195.1813682033
  0
LINE
  8
0
 62
7
  6
CONTINUOUS
 10
141.9106904167
 20
195.7015181787
 11
141.3741213051
 21
195.778175501
  0
LINE
  8
0
 62
7
  6
CONTINUOUS
 10
139.7502109744
 20
192.1481640039
 11
140.0742963972
 21
192.0605511361
  0
LINE
  8
0
 62
7
  6
CONTINUOUS
 10
150.229665685
 20
187.1121850937
 11
156.8969927236
 21
185.1410295745
  0
LINE
  8
0
 62
7
  6
CONTINUOUS
 10
138.4941584611
 20
182.6282115822
 11
138.7913919716
 21
182.4721357556
  0
LINE
  8
0
 62
7
  6
CONTINUOUS
 10
139.0007988697
 20
183.07054288
 11
138.7035654326
 21
183.2266186942
  0
LINE
  8
0
 62
7
  6
CONTINUOUS
 10
140.6967389403
 20
182.2546005937
 11
140.9939723774
 21
182.0985247796
  0
LINE
  8
0
 62
7
  6
CONTINUOUS
 10
141.2033792754
 20
182.6969319039
 11
140.9061458383
 21
182.8530077181
  0
LINE
  8
0
 62
7
  6
CONTINUOUS
 10
137.2348965369
 20
178.0125818727
 11
137.512897738
 21
177.8243725328
  0
LINE
  8
0
 62
7
  6
CONTINUOUS
 10
137.7876497322
 20
178.3957337821
 11
137.5096486027
 21
178.5839431014
  0
LINE
  8
0
 62
7
  6
CONTINUOUS
 10
139.3821622649
 20
177.3959816523
 11
139.6601633944
 21
177.207772333
  0
LINE
  8
0
 62
7
  6
CONTINUOUS
 10
139.9349153886
 20
177.7791335822
 11
139.656914259
 21
177.9673429016
  0
LINE
  8
0
 62
7
  6
CONTINUOUS
 10
75.9895326735
 20
229.3227705203
 11
75.7510049882
 21
229.5590145881
  0
LINE
  8
0
 62
7
  6
CONTINUOUS
 10
75.2877651237
 20
229.320947001
 11
75.574919401
 21
228.9900836653
  0
LINE
  8
0
 62
7
  6
CONTINUOUS
 10
78.6461179873
 20
229.8507739415
 11
78.3589638095
 21
230.1816373075
  0
LINE
  8
0
 62
7
  6
CONTINUOUS
 10
80.7798469723
 20
233.2682661215
 11
81.0740971169
 21
232.8130727836
  0
LINE
  8
0
 62
7
  6
CONTINUOUS
 10
81.5576847337
 20
233.0064898745
 11
81.2634351425
 21
233.4616834337
  0
LINE
  8
0
 62
7
  6
CONTINUOUS
 10
131.340198582
 20
150.467945741
 11
134.660893309
 21
144.3596161453
  0
LINE
  8
0
 62
7
  6
CONTINUOUS
 10
89.8101885638
 20
234.3598224543
 11
89.6532672471
 21
234.7688501788
  0
LINE
  8
0
 62
7
  6
CONTINUOUS
 10
92.8088798473
 20
237.2068973631
 11
92.6385612585
 21
237.721461394
  0
LINE
  8
0
 62
7
  6
CONTINUOUS
 10
107.6320270981
 20
236.2108082853
 11
107.9281648155
 21
232.0236286632
  0
LINE
  8
0
 62
7
  6
CONTINUOUS
 10
108.4772648425
 20
232.417372742
 11
108.2302860149
 21
237.144337109
  0
LINE
  8
0
 62
7
  6
CONTINUOUS
 10
113.4514223195
 20
255.4700106503
 11
113.4514223195
 21
253.6183516764
  0
LINE
  8
0
 62
7
  6
CONTINUOUS
 10
116.0226936073
 20
233.4489137809
 11
115.9911916031
 21
233.1146773284
  0
LINE
  8
0
 62
7
  6
CONTINUOUS
 10
116.5645275167
 20
232.8658582574
 11
116.596029521
 21
233.2000947099
  0
LINE
  8
0
 62
7
  6
CONTINUOUS
 10
119.4513138101
 20
229.0823062613
 11
119.3827819437
 21
228.7536577243
  0
LINE
  8
0
 62
7
  6
CONTINUOUS
 10
119.9777961312
 20
228.5347960051
 11
120.0463279976
 21
228.8634445421
  0
LINE
  8
0
 62
7
  6
CONTINUOUS
 10
120.5104683479
 20
230.9276049144
 11
120.4419364072
 21
230.5989562481
  0
LINE
  8
0
 62
7
  6
CONTINUOUS
 10
121.0369507431
 20
230.3800947873
 11
121.1054825354
 21
230.7087431951
  0
LINE
  8
0
 62
7
  6
CONTINUOUS
 10
94.7524916991
 20
146.097961322
 11
94.8601400702
 21
146.4159537811
  0
LINE
  8
0
 62
7
  6
CONTINUOUS
 10
92.709874475
 20
149.7423054452
 11
92.1357828071
 21
148.5283329561
  0
LINE
  8
0
 62
7
  6
CONTINUOUS
 10
91.978862707
 20
148.119303854
 11
90.6871635359
 21
145.387864742
  0
LINE
  8
0
 62
7
  6
CONTINUOUS
 10
91.0469380229
 20
144.9132560125
 11
93.3299004108
 21
149.6636108529
  0
LINE
  8
0
 62
7
  6
CONTINUOUS
 10
87.3378884881
 20
148.7447452903
 11
87.1607558176
 21
148.4595620137
  0
LINE
  8
0
 62
7
  6
CONTINUOUS
 10
86.9327362123
 20
147.0915393081
 11
86.7556035063
 21
146.8063558868
  0
LINE
  8
0
 62
7
  6
CONTINUOUS
 10
84.7329553925
 20
150.3689174608
 11
84.4039935943
 21
149.9018810295
  0
LINE
  8
0
 62
7
  6
CONTINUOUS
 10
87.0843223467
 20
146.3972034016
 11
87.4132841981
 21
146.8642400499
  0
LINE
  8
0
 62
7
  6
CONTINUOUS
 10
153.6703352963
 20
224.8103730232
 11
152.3610146794
 21
223.5010524063
  0
LINE
  8
0
 62
7
  6
CONTINUOUS
 10
139.5787234489
 20
195.4770800357
 11
139.1644728328
 21
195.2471337134
  0
LINE
  8
0
 62
7
  6
CONTINUOUS
 10
141.9822725266
 20
190.7430938622
 11
141.5454425714
 21
190.5596315749
  0
LINE
  8
0
 62
7
  6
CONTINUOUS
 10
142.0928962498
 20
192.164538347
 11
142.4062636626
 21
192.2849892944
  0
LINE
  8
0
 62
7
  6
CONTINUOUS
 10
139.8641515911
 20
190.9696989786
 11
139.3211153779
 21
190.7923671139
  0
LINE
  8
0
 62
7
  6
CONTINUOUS
 10
139.9666728694
 20
187.2075393054
 11
140.509709157
 21
187.3848711657
  0
LINE
  8
0
 62
7
  6
CONTINUOUS
 10
142.0967995753
 20
187.1889276706
 11
142.6398360117
 21
187.3662595224
  0
LINE
  8
0
 62
7
  6
CONTINUOUS
 10
34.5247398936
 20
208.4916692505
 11
32.6730809196
 21
208.4916692505
  0
LINE
  8
0
 62
7
  6
CONTINUOUS
 10
142.2347761371
 20
195.6139053262
 11
141.9106904167
 21
195.7015181787
  0
LINE
  8
0
 62
7
  6
CONTINUOUS
 10
139.3145247243
 20
192.334326233
 11
139.7502109744
 21
192.1481640039
  0
LINE
  8
0
 62
7
  6
CONTINUOUS
 10
139.129028547
 20
187.4645666171
 11
139.6480543186
 21
187.2259305604
  0
LINE
  8
0
 62
7
  6
CONTINUOUS
 10
140.7017959878
 20
190.7126716625
 11
140.1827701419
 21
190.9513077235
  0
LINE
  8
0
 62
7
  6
CONTINUOUS
 10
142.8199170721
 20
190.4860665376
 11
142.3008910774
 21
190.7247026072
  0
LINE
  8
0
 62
7
  6
CONTINUOUS
 10
141.3653615109
 20
187.4398245598
 11
141.7781810245
 21
187.2073189257
  0
LINE
  8
0
 62
7
  6
CONTINUOUS
 10
75.574919401
 20
228.9900836653
 11
75.7648205116
 21
228.8484587905
  0
LINE
  8
0
 62
7
  6
CONTINUOUS
 10
77.9443504119
 20
229.8489504719
 11
78.3727793163
 21
229.4710815014
  0
LINE
  8
0
 62
7
  6
CONTINUOUS
 10
63.3327185467
 20
248.7105822273
 11
64.6420391637
 21
247.4012616104
  0
LINE
  8
0
 62
7
  6
CONTINUOUS
 10
81.2634351425
 20
233.4616834337
 11
81.0481979579
 21
233.7193260337
  0
LINE
  8
0
 62
7
  6
CONTINUOUS
 10
89.2035595965
 20
234.175584479
 11
89.4638192142
 21
233.7796737497
  0
LINE
  8
0
 62
7
  6
CONTINUOUS
 10
92.0453283432
 20
237.4316872578
 11
92.1888548281
 21
237.1281955486
  0
LINE
  8
0
 62
7
  6
CONTINUOUS
 10
97.1875957361
 20
237.7517668463
 11
97.2956373021
 21
237.4339093272
  0
LINE
  8
0
 62
7
  6
CONTINUOUS
 10
97.9205910125
 20
237.4415158936
 11
97.8125494465
 21
237.7593734128
  0
LINE
  8
0
 62
7
  6
CONTINUOUS
 10
102.1029666282
 20
235.1707152422
 11
102.1749344137
 21
234.842801968
  0
LINE
  8
0
 62
7
  6
CONTINUOUS
 10
102.8074079978
 20
234.8866140774
 11
102.7354402122
 21
235.2145273516
  0
LINE
  8
0
 62
7
  6
CONTINUOUS
 10
102.3141848603
 20
237.2878648147
 11
102.386152631
 21
236.9599513921
  0
LINE
  8
0
 62
7
  6
CONTINUOUS
 10
103.0186262447
 20
237.0037637981
 11
102.9466584443
 21
237.3316769241
  0
LINE
  8
0
 62
7
  6
CONTINUOUS
 10
85.0616742151
 20
149.9597649032
 11
85.3399919832
 21
150.2201506048
  0
LINE
  8
0
 62
7
  6
CONTINUOUS
 10
85.1377617568
 20
150.7078355283
 11
84.7329553925
 21
150.3689174608
  0
LINE
  8
0
 62
7
  6
CONTINUOUS
 10
139.3028688642
 20
194.6284343729
 11
139.9188858426
 21
195.0773809923
  0
LINE
  8
0
 62
7
  6
CONTINUOUS
 10
139.3913053494
 20
190.1622752925
 11
139.8341382642
 21
190.4497343163
  0
LINE
  8
0
 62
7
  6
CONTINUOUS
 10
141.7278416117
 20
190.027406076
 11
142.0584653833
 21
190.2169987816
  0
LINE
  8
0
 62
7
  6
CONTINUOUS
 10
142.4062636626
 20
192.2849892944
 11
142.8205142043
 21
192.5149356129
  0
LINE
  8
0
 62
7
  6
CONTINUOUS
 10
142.6704623128
 20
195.4277430933
 11
142.2347761371
 21
195.6139053262
  0
LINE
  8
0
 62
7
  6
CONTINUOUS
 10
76.3207083789
 20
229.1341399104
 11
75.9895326735
 21
229.3227705203
  0
LINE
  8
0
 62
7
  6
CONTINUOUS
 10
140.0475016094
 20
192.5806915874
 11
139.3886128723
 21
192.9639715949
  0
LINE
  8
0
 62
7
  6
CONTINUOUS
 10
141.914400535
 20
187.7211531695
 11
141.607787205
 21
187.9475283853
  0
LINE
  8
0
 62
7
  6
CONTINUOUS
 10
78.8360192803
 20
229.7091491397
 11
78.6461179873
 21
229.8507739415
  0
LINE
  8
0
 62
7
  6
CONTINUOUS
 10
139.6780676454
 20
187.7458952226
 11
139.2712509427
 21
188.0823976018
  0
LINE
  8
0
 62
7
  6
CONTINUOUS
 10
138.1268803893
 20
183.0074746402
 11
138.4941584611
 21
182.6282115822
  0
LINE
  8
0
 62
7
  6
CONTINUOUS
 10
140.3294609053
 20
182.6338636455
 11
140.6967389403
 21
182.2546005937
  0
LINE
  8
0
 62
7
  6
CONTINUOUS
 10
90.0570521202
 20
234.0694479598
 11
89.8101885638
 21
234.3598224543
  0
LINE
  8
0
 62
7
  6
CONTINUOUS
 10
136.9121441739
 20
178.430391113
 11
137.2348965369
 21
178.0125818727
  0
LINE
  8
0
 62
7
  6
CONTINUOUS
 10
139.0594099377
 20
177.8137908824
 11
139.3821622649
 21
177.3959816523
  0
LINE
  8
0
 62
7
  6
CONTINUOUS
 10
94.5534665913
 20
146.9512490398
 11
94.2363389063
 21
146.5291546796
  0
LINE
  8
0
 62
7
  6
CONTINUOUS
 10
139.1644728328
 20
195.2471337134
 11
138.8618234975
 21
194.9186285038
  0
LINE
  8
DEFAULT_1
 62
2
  6
CENTER
 10
134.8455245082
 20
187.459364568
 11
131.3099906023
 21
183.9238306621
  0
LINE
  8
DEFAULT_1
 62
2
  6
CENTER
 10
100.6837270019
 20
153.2975670617
 11
104.2192609079
 21
156.8331009677
  0
LINE
  8
0
 62
7
  6
CONTINUOUS
 10
94.8601400702
 20
146.4159537811
 11
95.0707809625
 21
146.6264323064
  0
LINE
  8
0
 62
7
  6
CONTINUOUS
 10
86.7556035063
 20
146.8063558868
 11
86.4772857559
 21
146.5459702576
  0
LINE
  8
0
 62
7
  6
CONTINUOUS
 10
139.3211153779
 20
190.7923671139
 11
138.9844886838
 21
190.4987776696
  0
LINE
  8
0
 62
7
  6
CONTINUOUS
 10
141.5454425714
 20
190.5596315749
 11
141.2088159145
 21
190.2660421284
  0
LINE
  8
0
 62
7
  6
CONTINUOUS
 10
86.6795159912
 20
146.0582853703
 11
87.0843223467
 21
146.3972034016
  0
LINE
  8
0
 62
7
  6
CONTINUOUS
 10
142.6821181729
 20
193.1336349534
 11
142.0661014619
 21
192.6846787984
  0
LINE
  8
0
 62
7
  6
CONTINUOUS
 10
140.4395191854
 20
188.0149629871
 11
139.9966861962
 21
187.7275039676
  0
LINE
  8
0
 62
7
  6
CONTINUOUS
 10
142.4574369714
 20
187.8984850213
 11
142.1268129022
 21
187.7088923328
  0
LINE
  8
0
 62
7
  6
CONTINUOUS
 10
139.647891198
 20
182.4325105705
 11
140.1196913568
 21
182.6694456408
  0
LINE
  8
0
 62
7
  6
CONTINUOUS
 10
141.7455869764
 20
182.0766905672
 11
142.2173871353
 21
182.3136256375
  0
LINE
  8
0
 62
7
  6
CONTINUOUS
 10
138.3596548777
 20
177.6896007755
 11
138.8549084603
 21
177.872514707
  0
LINE
  8
0
 62
7
  6
CONTINUOUS
 10
140.4046699385
 20
177.1023624469
 11
140.8999235211
 21
177.2852763784
  0
LINE
  8
0
 62
7
  6
CONTINUOUS
 10
118.9746942607
 20
228.2519218545
 11
118.6880919168
 21
228.1711016214
  0
LINE
  8
0
 62
7
  6
CONTINUOUS
 10
120.0868064438
 20
230.1894852981
 11
119.800204137
 21
230.1086651295
  0
LINE
  8
0
 62
7
  6
CONTINUOUS
 10
75.7648205116
 20
228.8484587905
 11
76.1886441365
 21
228.7074417125
  0
LINE
  8
0
 62
7
  6
CONTINUOUS
 10
80.5073990763
 20
233.3884500673
 11
80.7798469723
 21
233.2682661215
  0
LINE
  8
0
 62
7
  6
CONTINUOUS
 10
141.9374856952
 20
195.1813682033
 11
142.5963741649
 21
194.7980977314
  0
LINE
  8
0
 62
7
  6
CONTINUOUS
 10
138.3663833548
 20
200.0569047892
 11
142.5176191632
 21
197.1597550949
  0
LINE
  8
0
 62
7
  6
CONTINUOUS
 10
142.6416424652
 20
197.7085279188
 11
138.4732393402
 21
200.7084231237
  0
LINE
  8
0
 62
7
  6
CONTINUOUS
 10
142.2708777505
 20
190.204737945
 11
142.577491378
 21
189.978362712
  0
LINE
  8
0
 62
7
  6
CONTINUOUS
 10
89.4638192142
 20
233.7796737497
 11
89.9307530452
 21
233.4099968954
  0
LINE
  8
0
 62
7
  6
CONTINUOUS
 10
140.152756815
 20
190.4313430613
 11
140.5595735921
 21
190.0948406778
  0
LINE
  8
0
 62
7
  6
CONTINUOUS
 10
138.9797214472
 20
192.6299933746
 11
139.3145247243
 21
192.334326233
  0
LINE
  8
DEFAULT_1
 62
2
  6
CENTER
 10
131.3099906023
 20
199.2595078388
 11
134.8455245082
 21
195.7239739329
  0
LINE
  8
DEFAULT_1
 62
2
  6
CENTER
 10
104.2192609079
 20
226.3502375333
 11
100.6837270019
 21
229.8857714392
  0
LINE
  8
DEFAULT_1
 62
2
  6
CENTER
 10
108.3439576672
 20
224.4882824737
 11
129.4480355428
 21
203.3842045982
  0
LINE
  8
0
 62
7
  6
CONTINUOUS
 10
138.8284180651
 20
187.7949385758
 11
139.129028547
 21
187.4645666171
  0
LINE
  8
0
 62
7
  6
CONTINUOUS
 10
141.0647510662
 20
187.7701965163
 11
141.3653615109
 21
187.4398245598
  0
LINE
  8
0
 62
7
  6
CONTINUOUS
 10
101.9167826422
 20
235.4031121124
 11
102.1029666282
 21
235.1707152422
  0
LINE
  8
0
 62
7
  6
CONTINUOUS
 10
97.8125494465
 20
237.7593734128
 11
97.494893653
 21
238.1810704774
  0
LINE
  8
0
 62
7
  6
CONTINUOUS
 10
138.7035654326
 20
183.2266186942
 11
138.5286359869
 21
183.4675969419
  0
LINE
  8
0
 62
7
  6
CONTINUOUS
 10
140.9061458383
 20
182.8530077181
 11
140.7312164662
 21
183.0939859533
  0
LINE
  8
0
 62
7
  6
CONTINUOUS
 10
102.7354402122
 20
235.2145273516
 11
102.4667275158
 21
235.668979884
  0
LINE
  8
0
 62
7
  6
CONTINUOUS
 10
102.9466584443
 20
237.3316769241
 11
102.6779457479
 21
237.7861294565
  0
LINE
  8
0
 62
7
  6
CONTINUOUS
 10
137.5096486027
 20
178.5839431014
 11
137.3626465947
 21
178.842904945
  0
LINE
  8
0
 62
7
  6
CONTINUOUS
 10
139.656914259
 20
177.9673429016
 11
139.5099123227
 21
178.2263047246
  0
LINE
  8
0
 62
7
  6
CONTINUOUS
 10
116.596029521
 20
233.2000947099
 11
116.4787702732
 21
233.7148605656
  0
LINE
  8
0
 62
7
  6
CONTINUOUS
 10
120.0463279976
 20
228.8634445421
 11
119.9871306415
 21
229.3880675405
  0
LINE
  8
0
 62
7
  6
CONTINUOUS
 10
121.1054825354
 20
230.7087431951
 11
121.0462851792
 21
231.2333661935
  0
LINE
  8
0
 62
7
  6
CONTINUOUS
 10
138.8618234975
 20
194.9186285038
 11
138.5698924791
 21
194.3820594948
  0
LINE
  8
0
 62
7
  6
CONTINUOUS
 10
139.1064616557
 20
194.3054021758
 11
139.3028688642
 21
194.6284343729
  0
LINE
  8
0
 62
7
  6
CONTINUOUS
 10
138.9844886838
 20
190.4987776696
 11
138.6358562287
 21
189.9971947431
  0
LINE
  8
0
 62
7
  6
CONTINUOUS
 10
141.3852120697
 20
189.6298198887
 11
141.7278416117
 21
190.027406076
  0
LINE
  8
0
 62
7
  6
CONTINUOUS
 10
140.509709157
 20
187.3848711657
 11
140.852338699
 21
187.782457353
  0
LINE
  8
0
 62
7
  6
CONTINUOUS
 10
142.8205142043
 20
192.5149356129
 11
143.1231635025
 21
192.8434408206
  0
LINE
  8
DEFAULT_1
 62
2
  6
CENTER
 10
108.3439576672
 20
158.6950560272
 11
129.4480355428
 21
179.7991339027
  0
LINE
  8
0
 62
7
  6
CONTINUOUS
 10
142.6398360117
 20
187.3662595224
 11
142.9764626685
 21
187.6598489689
  0
LINE
  8
0
 62
7
  6
CONTINUOUS
 10
94.9735867974
 20
147.265829466
 11
94.5534665913
 21
146.9512490398
  0
LINE
  8
0
 62
7
  6
CONTINUOUS
 10
139.8921382723
 20
183.2363139347
 11
139.6475285476
 21
183.0664996902
  0
LINE
  8
0
 62
7
  6
CONTINUOUS
 10
141.9898340508
 20
182.8804939314
 11
141.745224326
 21
182.7106796869
  0
LINE
  8
0
 62
7
  6
CONTINUOUS
 10
87.1607558176
 20
148.4595620137
 11
86.9077600822
 21
148.3025017493
  0
LINE
  8
0
 62
7
  6
CONTINUOUS
 10
138.6919064129
 20
178.4612000232
 11
138.4299053944
 21
178.3196858494
  0
LINE
  8
0
 62
7
  6
CONTINUOUS
 10
140.7369214738
 20
177.8739616946
 11
140.4749204552
 21
177.7324475208
  0
LINE
  8
0
 62
7
  6
CONTINUOUS
 10
85.3399919832
 20
150.2201506048
 11
85.6941543087
 21
150.3524179065
  0
LINE
  8
0
 62
7
  6
CONTINUOUS
 10
85.7195978093
 20
150.8938377566
 11
85.1377617568
 21
150.7078355283
  0
LINE
  8
0
 62
7
  6
CONTINUOUS
 10
115.2071497607
 20
231.8313693082
 11
115.7164309639
 21
231.9582568513
  0
LINE
  8
0
 62
7
  6
CONTINUOUS
 10
118.4606910693
 20
227.5656560241
 11
118.9809338417
 21
227.6350338395
  0
LINE
  8
0
 62
7
  6
CONTINUOUS
 10
76.7885534071
 20
229.1353555455
 11
76.3207083789
 21
229.1341399104
  0
LINE
  8
0
 62
7
  6
CONTINUOUS
 10
76.1886441365
 20
228.7074417125
 11
76.5638412405
 21
228.6610438657
  0
LINE
  8
0
 62
7
  6
CONTINUOUS
 10
80.7757500619
 20
233.8395099795
 11
80.4065844212
 21
233.9210104185
  0
LINE
  8
0
 62
7
  6
CONTINUOUS
 10
89.9307530452
 20
233.4099968954
 11
90.3708947711
 21
233.2513923721
  0
LINE
  8
0
 62
7
  6
CONTINUOUS
 10
81.0481979579
 20
233.7193260337
 11
80.7757500619
 21
233.8395099795
  0
LINE
  8
0
 62
7
  6
CONTINUOUS
 10
90.393856743
 20
233.8977264713
 11
90.0570521202
 21
234.0694479598
  0
LINE
  8
0
 62
7
  6
CONTINUOUS
 10
97.494893653
 20
238.1810704774
 11
97.0743728478
 21
238.4951246843
  0
LINE
  8
0
 62
7
  6
CONTINUOUS
 10
92.6385612585
 20
237.721461394
 11
92.1716274323
 21
238.0911382114
  0
LINE
  8
0
 62
7
  6
CONTINUOUS
 10
143.0052655527
 20
195.1320759498
 11
142.6704623128
 21
195.4277430933
  0
LINE
  8
0
 62
7
  6
CONTINUOUS
 10
102.6779457479
 20
237.7861294565
 11
102.2950192381
 21
238.1450654963
  0
LINE
  8
0
 62
7
  6
CONTINUOUS
 10
103.6936138007
 20
234.2833516857
 11
103.9615210618
 21
234.0166096918
  0
LINE
  8
0
 62
7
  6
CONTINUOUS
 10
96.9766867741
 20
237.9619814788
 11
97.1875957361
 21
237.7517668463
  0
LINE
  8
0
 62
7
  6
CONTINUOUS
 10
143.1205275169
 20
190.155694581
 11
142.8199170721
 21
190.4860665376
  0
LINE
  8
0
 62
7
  6
CONTINUOUS
 10
102.1280008743
 20
237.5202616849
 11
102.3141848603
 21
237.2878648147
  0
LINE
  8
0
 62
7
  6
CONTINUOUS
 10
139.3886128723
 20
192.9639715949
 11
139.1600517221
 21
193.2651117491
  0
LINE
  8
0
 62
7
  6
CONTINUOUS
 10
138.6342003624
 20
193.1337147923
 11
138.9797214472
 21
192.6299933746
  0
LINE
  8
0
 62
7
  6
CONTINUOUS
 10
141.607787205
 20
187.9475283853
 11
141.3131796455
 21
188.3818970827
  0
LINE
  8
0
 62
7
  6
CONTINUOUS
 10
140.9964035473
 20
190.2783029651
 11
140.7017959878
 21
190.7126716625
  0
LINE
  8
0
 62
7
  6
CONTINUOUS
 10
142.577491378
 20
189.978362712
 11
142.8720989376
 21
189.5439940147
  0
LINE
  8
0
 62
7
  6
CONTINUOUS
 10
138.5398133628
 20
188.3333040156
 11
138.8284180651
 21
187.7949385758
  0
LINE
  8
0
 62
7
  6
CONTINUOUS
 10
137.8819063917
 20
183.4716401177
 11
138.1268803893
 21
183.0074746402
  0
LINE
  8
0
 62
7
  6
CONTINUOUS
 10
139.2712509427
 20
188.0823976018
 11
139.0828495668
 21
188.5106358808
  0
LINE
  8
0
 62
7
  6
CONTINUOUS
 10
136.7203910131
 20
178.9189528545
 11
136.9121441739
 21
178.430391113
  0
LINE
  8
0
 62
7
  6
CONTINUOUS
 10
115.9162867196
 20
233.727031315
 11
116.0226936073
 21
233.4489137809
  0
LINE
  8
0
 62
7
  6
CONTINUOUS
 10
119.3765423812
 20
229.3705457717
 11
119.4513138101
 21
229.0823062613
  0
LINE
  8
0
 62
7
  6
CONTINUOUS
 10
120.4356969189
 20
231.2158444247
 11
120.5104683479
 21
230.9276049144
  0
LINE
  8
0
 62
7
  6
CONTINUOUS
 10
137.3626465947
 20
178.842904945
 11
137.3466464837
 21
179.1726284381
  0
LINE
  8
0
 62
7
  6
CONTINUOUS
 10
139.5099123227
 20
178.2263047246
 11
139.4939122117
 21
178.5560282177
  0
LINE
  8
0
 62
7
  6
CONTINUOUS
 10
137.8641244413
 20
184.0029358202
 11
137.8819063917
 21
183.4716401177
  0
LINE
  8
0
 62
7
  6
CONTINUOUS
 10
138.4996367089
 20
189.4833604998
 11
138.4636204968
 21
188.8593990967
  0
LINE
  8
0
 62
7
  6
CONTINUOUS
 10
139.0006543744
 20
188.9327437415
 11
139.0246648161
 21
189.3487116629
  0
LINE
  8
0
 62
7
  6
CONTINUOUS
 10
136.7618930664
 20
179.448923515
 11
136.7203910131
 21
178.9189528545
  0
LINE
  8
0
 62
7
  6
CONTINUOUS
 10
138.5698924791
 20
194.3820594948
 11
138.4958043218
 21
193.7524141324
  0
LINE
  8
0
 62
7
  6
CONTINUOUS
 10
139.0270148445
 20
193.7797791897
 11
139.1064616557
 21
194.3054021758
  0
LINE
  8
0
 62
7
  6
CONTINUOUS
 10
138.2822129365
 20
186.4677283085
 11
137.8641244413
 21
184.0029358202
  0
LINE
  8
0
 62
7
  6
CONTINUOUS
 10
138.4760122746
 20
183.7934870006
 11
138.8069995316
 21
185.7447841879
  0
LINE
  8
0
 62
7
  6
CONTINUOUS
 10
138.6358562287
 20
189.9971947431
 11
138.4996367089
 21
189.4833604998
  0
LINE
  8
0
 62
7
  6
CONTINUOUS
 10
137.4518980881
 20
181.8518161613
 11
136.7618930664
 21
179.448923515
  0
LINE
  8
0
 62
7
  6
CONTINUOUS
 10
137.3466464837
 20
179.1726284381
 11
137.8929013366
 21
181.0749215053
  0
LINE
  8
0
 62
7
  6
CONTINUOUS
 10
139.0246648161
 20
189.3487116629
 11
139.1548819909
 21
189.7585586869
  0
LINE
  8
0
 62
7
  6
CONTINUOUS
 10
140.8061597187
 20
188.8285266167
 11
140.6759425439
 21
188.4186795927
  0
LINE
  8
0
 62
7
  6
CONTINUOUS
 10
141.2549948948
 20
189.2199728647
 11
141.3852120697
 21
189.6298198887
  0
LINE
  8
0
 62
7
  6
CONTINUOUS
 10
140.0492841084
 20
183.5266219981
 11
139.8921382723
 21
183.2363139347
  0
LINE
  8
0
 62
7
  6
CONTINUOUS
 10
143.1231635025
 20
192.8434408206
 11
143.4150949836
 21
193.380000304
  0
LINE
  8
0
 62
7
  6
CONTINUOUS
 10
139.1548819909
 20
189.7585586869
 11
139.3913053494
 21
190.1622752925
  0
LINE
  8
0
 62
7
  6
CONTINUOUS
 10
141.2088159145
 20
190.2660421284
 11
141.0906045101
 21
190.0641885861
  0
LINE
  8
0
 62
7
  6
CONTINUOUS
 10
140.6759425439
 20
188.4186795927
 11
140.4395191854
 21
188.0149629871
  0
LINE
  8
0
 62
7
  6
CONTINUOUS
 10
140.852338699
 20
187.782457353
 11
140.9705501034
 21
187.9843108954
  0
LINE
  8
0
 62
7
  6
CONTINUOUS
 10
142.8785253814
 20
193.4566671504
 11
142.6821181729
 21
193.1336349534
  0
LINE
  8
0
 62
7
  6
CONTINUOUS
 10
142.9764626685
 20
187.6598489689
 11
143.3250945462
 21
188.1614223761
  0
LINE
  8
0
 62
7
  6
CONTINUOUS
 10
138.8804077793
 20
178.7321996917
 11
138.6919064129
 21
178.4612000232
  0
LINE
  8
0
 62
7
  6
CONTINUOUS
 10
140.1196913568
 20
182.6694456408
 11
140.2594163073
 21
182.857050883
  0
LINE
  8
0
 62
7
  6
CONTINUOUS
 10
142.8000665134
 20
188.2960712086
 11
142.4574369714
 21
187.8984850213
  0
LINE
  8
0
 62
7
  6
CONTINUOUS
 10
138.8549084603
 20
177.872514707
 11
139.0146587401
 21
178.0433907931
  0
LINE
  8
0
 62
7
  6
CONTINUOUS
 10
142.2173871353
 20
182.3136256375
 11
142.6017218106
 21
182.6710451242
  0
LINE
  8
0
 62
7
  6
CONTINUOUS
 10
140.8999235211
 20
177.2852763784
 11
141.3216748195
 21
177.5976666383
  0
LINE
  8
0
 62
7
  6
CONTINUOUS
 10
86.9077600822
 20
148.3025017493
 11
86.5535977567
 21
148.1702344476
  0
LINE
  8
0
 62
7
  6
CONTINUOUS
 10
86.5281727969
 20
147.6288101208
 11
87.2364974478
 21
147.8933447241
  0
LINE
  8
0
 62
7
  6
CONTINUOUS
 10
86.4772857559
 20
146.5459702576
 11
86.1231234304
 21
146.4137029559
  0
LINE
  8
0
 62
7
  6
CONTINUOUS
 10
95.0707809625
 20
146.6264323064
 11
95.3844239121
 21
146.7293967936
  0
LINE
  8
0
 62
7
  6
CONTINUOUS
 10
86.0976984706
 20
145.8722786291
 11
86.6795159912
 21
146.0582853703
  0
LINE
  8
0
 62
7
  6
CONTINUOUS
 10
101.7794907884
 20
234.0269648606
 11
101.4579735413
 21
233.952130074
  0
LINE
  8
0
 62
7
  6
CONTINUOUS
 10
102.0012699232
 20
236.2499718228
 11
101.6797526761
 21
236.1751370362
  0
LINE
  8
0
 62
7
  6
CONTINUOUS
 10
76.5638412405
 20
228.6610438657
 11
76.9830596895
 21
228.7568787229
  0
LINE
  8
0
 62
7
  6
CONTINUOUS
 10
96.5859472513
 20
235.8294084166
 11
97.1054464808
 21
235.9421222992
  0
LINE
  8
0
 62
7
  6
CONTINUOUS
 10
79.8480807548
 20
233.3539002076
 11
80.2744576603
 21
233.4098586441
  0
LINE
  8
0
 62
7
  6
CONTINUOUS
 10
90.9009787344
 20
233.2114410974
 11
91.8310162632
 21
233.329493819
  0
LINE
  8
0
 62
7
  6
CONTINUOUS
 10
91.7506399423
 20
233.9627108583
 11
90.8206024135
 21
233.8446581366
  0
LINE
  8
0
 62
7
  6
CONTINUOUS
 10
93.1169890603
 20
234.7795655146
 11
92.4969640411
 21
234.7008637002
  0
LINE
  8
0
 62
7
  6
CONTINUOUS
 10
101.2909575424
 20
233.3273259517
 11
101.8197782243
 21
233.3814790417
  0
LINE
  8
0
 62
7
  6
CONTINUOUS
 10
80.4065844212
 20
233.9210104185
 11
80.0769252604
 21
233.9037354887
  0
LINE
  8
0
 62
7
  6
CONTINUOUS
 10
94.113320647
 20
233.5651050122
 11
94.7382743574
 21
233.5727115786
  0
LINE
  8
0
 62
7
  6
CONTINUOUS
 10
94.7110849281
 20
235.8065887028
 11
96.5859472513
 21
235.8294084166
  0
LINE
  8
0
 62
7
  6
CONTINUOUS
 10
119.8594014931
 20
229.5840421311
 11
120.0930460804
 21
229.5725973799
  0
LINE
  8
0
 62
7
  6
CONTINUOUS
 10
90.3708947711
 20
233.2513923721
 11
90.9009787344
 21
233.2114410974
  0
LINE
  8
0
 62
7
  6
CONTINUOUS
 10
115.3657082967
 20
232.4583730009
 11
115.0366881626
 21
232.4851934564
  0
LINE
  8
0
 62
7
  6
CONTINUOUS
 10
80.2744576603
 20
233.4098586441
 11
80.5073990763
 21
233.3884500673
  0
LINE
  8
0
 62
7
  6
CONTINUOUS
 10
98.8033068467
 20
233.5755073693
 11
101.2909575424
 21
233.3273259517
  0
LINE
  8
0
 62
7
  6
CONTINUOUS
 10
101.4579735413
 20
233.952130074
 11
99.4885849888
 21
234.1486068718
  0
LINE
  8
0
 62
7
  6
CONTINUOUS
 10
99.6469986628
 20
235.7364690511
 11
101.6163872153
 21
235.5399922534
  0
LINE
  8
0
 62
7
  6
CONTINUOUS
 10
90.8206024135
 20
233.8446581366
 11
90.393856743
 21
233.8977264713
  0
LINE
  8
0
 62
7
  6
CONTINUOUS
 10
118.6880919168
 20
228.1711016214
 11
118.3641059634
 21
228.2344000211
  0
LINE
  8
0
 62
7
  6
CONTINUOUS
 10
119.800204137
 20
230.1086651295
 11
119.4762181835
 21
230.1719635293
  0
LINE
  8
0
 62
7
  6
CONTINUOUS
 10
114.6870183844
 20
231.9411291377
 11
115.2071497607
 21
231.8313693082
  0
LINE
  8
0
 62
7
  6
CONTINUOUS
 10
105.9284072997
 20
232.6077898944
 11
106.5283347833
 21
232.4325414582
  0
LINE
  8
0
 62
7
  6
CONTINUOUS
 10
107.9281648155
 20
232.0236286632
 11
108.7280673642
 21
231.7899643044
  0
LINE
  8
0
 62
7
  6
CONTINUOUS
 10
110.127899685
 20
231.3810508408
 11
110.7278271686
 21
231.2058024046
  0
LINE
  8
0
 62
7
  6
CONTINUOUS
 10
96.6629151844
 20
238.0645532825
 11
96.9766867741
 21
237.9619814788
  0
LINE
  8
0
 62
7
  6
CONTINUOUS
 10
117.9560182433
 20
227.7326640867
 11
118.4606910693
 21
227.5656560241
  0
LINE
  8
0
 62
7
  6
CONTINUOUS
 10
92.1716274323
 20
238.0911382114
 11
91.7314857098
 21
238.2497427069
  0
LINE
  8
0
 62
7
  6
CONTINUOUS
 10
111.5042788888
 20
230.8870344673
 11
112.0776148024
 21
230.6382153963
  0
LINE
  8
0
 62
7
  6
CONTINUOUS
 10
112.9670106434
 20
232.6875863508
 11
114.6870183844
 21
231.9411291377
  0
LINE
  8
0
 62
7
  6
CONTINUOUS
 10
101.6163872153
 20
235.5399922534
 11
101.9167826422
 21
235.4031121124
  0
LINE
  8
0
 62
7
  6
CONTINUOUS
 10
101.8276054474
 20
237.6571418258
 11
102.1280008743
 21
237.5202616849
  0
LINE
  8
0
 62
7
  6
CONTINUOUS
 10
91.7085237298
 20
237.6034086724
 11
92.0453283432
 21
237.4316872578
  0
LINE
  8
0
 62
7
  6
CONTINUOUS
 10
115.7877923712
 20
228.9771706426
 11
117.9560182433
 21
227.7326640867
  0
LINE
  8
0
 62
7
  6
CONTINUOUS
 10
118.3641059634
 20
228.2344000211
 11
116.6475951931
 21
229.2196335866
  0
LINE
  8
0
 62
7
  6
CONTINUOUS
 10
117.4419610964
 20
230.6036075764
 11
119.1584718667
 21
229.6183740109
  0
LINE
  8
0
 62
7
  6
CONTINUOUS
 10
102.4667275158
 20
235.668979884
 11
102.2699826197
 21
235.7955192904
  0
LINE
  8
0
 62
7
  6
CONTINUOUS
 10
120.8388468722
 20
228.0593295719
 11
122.0383493339
 21
227.2299113472
  0
LINE
  8
0
 62
7
  6
CONTINUOUS
 10
121.7113831695
 20
225.2861295433
 11
122.1930320917
 21
224.8878340302
  0
LINE
  8
0
 62
7
  6
CONTINUOUS
 10
124.4407295116
 20
223.0291196097
 11
124.9223784337
 21
222.6308240966
  0
LINE
  8
0
 62
7
  6
CONTINUOUS
 10
105.7828870167
 20
236.3808695278
 11
105.5149798106
 21
236.6476118146
  0
LINE
  8
0
 62
7
  6
CONTINUOUS
 10
119.1584718667
 20
229.6183740109
 11
119.3765423812
 21
229.3705457717
  0
LINE
  8
0
 62
7
  6
CONTINUOUS
 10
142.5963741649
 20
194.7980977314
 11
142.8249353151
 21
194.4969575772
  0
LINE
  8
0
 62
7
  6
CONTINUOUS
 10
143.3507871002
 20
194.6283450065
 11
143.0052655527
 21
195.1320759498
  0
LINE
  8
0
 62
7
  6
CONTINUOUS
 10
119.9871306415
 20
229.3880675405
 11
119.8594014931
 21
229.5840421311
  0
LINE
  8
0
 62
7
  6
CONTINUOUS
 10
116.4787702732
 20
233.7148605656
 11
116.2236021335
 21
234.1735075029
  0
LINE
  8
0
 62
7
  6
CONTINUOUS
 10
143.4091327408
 20
189.6173386637
 11
143.1205275169
 21
190.155694581
  0
LINE
  8
0
 62
7
  6
CONTINUOUS
 10
140.9705501034
 20
187.9843108954
 11
141.0647510662
 21
187.7701965163
  0
LINE
  8
0
 62
7
  6
CONTINUOUS
 10
141.0906045101
 20
190.0641885861
 11
140.9964035473
 21
190.2783029651
  0
LINE
  8
0
 62
7
  6
CONTINUOUS
 10
140.5595735921
 20
190.0948406778
 11
140.7479749681
 21
189.6666023988
  0
LINE
  8
0
 62
7
  6
CONTINUOUS
 10
121.0462851792
 20
231.2333661935
 11
120.8437887375
 21
231.7175779208
  0
LINE
  8
0
 62
7
  6
CONTINUOUS
 10
140.2594163073
 20
182.857050883
 11
140.3294609053
 21
182.6338636455
  0
LINE
  8
0
 62
7
  6
CONTINUOUS
 10
139.1600517221
 20
193.2651117491
 11
139.0270148445
 21
193.7797791897
  0
LINE
  8
0
 62
7
  6
CONTINUOUS
 10
138.4958043218
 20
193.7524141324
 11
138.6342003624
 21
193.1337147923
  0
LINE
  8
0
 62
7
  6
CONTINUOUS
 10
139.0146587401
 20
178.0433907931
 11
139.0594099377
 21
177.8137908824
  0
LINE
  8
0
 62
7
  6
CONTINUOUS
 10
139.0828495668
 20
188.5106358808
 11
139.0006543744
 21
188.9327437415
  0
LINE
  8
0
 62
7
  6
CONTINUOUS
 10
140.7479749681
 20
189.6666023988
 11
140.8301701604
 21
189.2444945381
  0
LINE
  8
0
 62
7
  6
CONTINUOUS
 10
141.3131796455
 20
188.3818970827
 11
141.2309844531
 21
188.8040049433
  0
LINE
  8
0
 62
7
  6
CONTINUOUS
 10
137.6338123008
 20
200.5681667795
 11
138.320483746
 21
196.4584733369
  0
LINE
  8
0
 62
7
  6
CONTINUOUS
 10
138.9500540439
 20
196.5636655981
 11
138.3663833548
 21
200.0569047892
  0
LINE
  8
0
 62
7
  6
CONTINUOUS
 10
138.5286359869
 20
183.4675969419
 11
138.4760122746
 21
183.7934870006
  0
LINE
  8
0
 62
7
  6
CONTINUOUS
 10
140.7312164662
 20
183.0939859533
 11
140.6785927538
 21
183.4198760121
  0
LINE
  8
0
 62
7
  6
CONTINUOUS
 10
138.4636204968
 20
188.8593990967
 11
138.5398133628
 21
188.3333040156
  0
LINE
  8
0
 62
7
  6
CONTINUOUS
 10
140.8301701604
 20
189.2444945381
 11
140.8061597187
 21
188.8285266167
  0
LINE
  8
0
 62
7
  6
CONTINUOUS
 10
141.2309844531
 20
188.8040049433
 11
141.2549948948
 21
189.2199728647
  0
LINE
  8
0
 62
7
  6
CONTINUOUS
 10
142.9542941299
 20
189.121886154
 11
142.9302836882
 21
188.7059182326
  0
LINE
  8
0
 62
7
  6
CONTINUOUS
 10
143.4613146062
 20
188.6752661408
 11
143.4853250479
 21
189.0912340623
  0
LINE
  8
0
 62
7
  6
CONTINUOUS
 10
143.4150949836
 20
193.380000304
 11
143.4891831316
 21
194.0096456659
  0
LINE
  8
0
 62
7
  6
CONTINUOUS
 10
142.9579726832
 20
193.9822806124
 11
142.8785253814
 21
193.4566671504
  0
LINE
  8
0
 62
7
  6
CONTINUOUS
 10
140.3802713654
 20
185.4779191854
 11
140.0492841084
 21
183.5266219981
  0
LINE
  8
0
 62
7
  6
CONTINUOUS
 10
140.6785927538
 20
183.4198760121
 11
141.0095800108
 21
185.3711731994
  0
LINE
  8
0
 62
7
  6
CONTINUOUS
 10
142.4779671439
 20
185.1220991821
 11
142.1469798869
 21
183.1708019948
  0
LINE
  8
0
 62
7
  6
CONTINUOUS
 10
142.7937094179
 20
183.1667588299
 11
143.211797913
 21
185.6315513182
  0
LINE
  8
0
 62
7
  6
CONTINUOUS
 10
143.3250945462
 20
188.1614223761
 11
143.4613146062
 21
188.6752661408
  0
LINE
  8
0
 62
7
  6
CONTINUOUS
 10
139.4266626323
 20
180.6344927588
 11
138.8804077793
 21
178.7321996917
  0
LINE
  8
0
 62
7
  6
CONTINUOUS
 10
139.4939122117
 20
178.5560282177
 11
140.0401670646
 21
180.4583212849
  0
LINE
  8
0
 62
7
  6
CONTINUOUS
 10
141.4716776931
 20
180.0472544302
 11
140.9254228402
 21
178.144961363
  0
LINE
  8
0
 62
7
  6
CONTINUOUS
 10
141.5676783591
 20
178.0689134715
 11
142.2576833809
 21
180.4718061179
  0
LINE
  8
0
 62
7
  6
CONTINUOUS
 10
142.9302836882
 20
188.7059182326
 11
142.8000665134
 21
188.2960712086
  0
LINE
  8
0
 62
7
  6
CONTINUOUS
 10
142.6017218106
 20
182.6710451242
 11
142.7937094179
 21
183.1667588299
  0
LINE
  8
0
 62
7
  6
CONTINUOUS
 10
141.3216748195
 20
177.5976666383
 11
141.5676783591
 21
178.0689134715
  0
LINE
  8
0
 62
7
  6
CONTINUOUS
 10
142.1469798869
 20
183.1708019948
 11
141.9898340508
 21
182.8804939314
  0
LINE
  8
0
 62
7
  6
CONTINUOUS
 10
140.9254228402
 20
178.144961363
 11
140.7369214738
 21
177.8739616946
  0
LINE
  8
0
 62
7
  6
CONTINUOUS
 10
92.1888548281
 20
237.1281955486
 11
92.8088798473
 21
237.2068973631
  0
LINE
  8
0
 62
7
  6
CONTINUOUS
 10
90.3517405305
 20
237.5384242854
 11
91.2817780593
 21
237.656477007
  0
LINE
  8
0
 62
7
  6
CONTINUOUS
 10
91.2014017477
 20
238.2896939724
 11
90.271364219
 21
238.1716412508
  0
LINE
  8
0
 62
7
  6
CONTINUOUS
 10
96.6823362064
 20
236.4689266801
 11
94.7033165208
 21
236.4448392246
  0
LINE
  8
0
 62
7
  6
CONTINUOUS
 10
94.6838954988
 20
238.040465827
 11
96.6629151844
 21
238.0645532825
  0
LINE
  8
0
 62
7
  6
CONTINUOUS
 10
96.5522841492
 20
238.5951609756
 11
94.0524681156
 21
238.5647346954
  0
LINE
  8
0
 62
7
  6
CONTINUOUS
 10
91.7314857098
 20
238.2497427069
 11
91.2014017477
 21
238.2896939724
  0
LINE
  8
0
 62
7
  6
CONTINUOUS
 10
101.6797526761
 20
236.1751370362
 11
99.7103641236
 21
236.3716138339
  0
LINE
  8
0
 62
7
  6
CONTINUOUS
 10
99.8582168949
 20
237.8536186236
 11
101.8276054474
 21
237.6571418258
  0
LINE
  8
0
 62
7
  6
CONTINUOUS
 10
101.7873203775
 20
238.3026273432
 11
99.2996696817
 21
238.5508087607
  0
LINE
  8
0
 62
7
  6
CONTINUOUS
 10
91.2817780593
 20
237.656477007
 11
91.7085237298
 21
237.6034086724
  0
LINE
  8
0
 62
7
  6
CONTINUOUS
 10
97.0743728478
 20
238.4951246843
 11
96.5522841492
 21
238.5951609756
  0
LINE
  8
0
 62
7
  6
CONTINUOUS
 10
112.1298146584
 20
236.0052222735
 11
111.229923433
 21
236.2680949279
  0
LINE
  8
0
 62
7
  6
CONTINUOUS
 10
108.2302860149
 20
237.144337109
 11
107.3303947895
 21
237.4072097634
  0
LINE
  8
0
 62
7
  6
CONTINUOUS
 10
102.2950192381
 20
238.1450654963
 11
101.7873203775
 21
238.3026273432
  0
LINE
  8
0
 62
7
  6
CONTINUOUS
 10
115.0366881626
 20
232.4851934564
 11
113.221123707
 21
233.2731208311
  0
LINE
  8
0
 62
7
  6
CONTINUOUS
 10
113.8564064845
 20
234.7369573053
 11
115.6719709401
 21
233.9490299306
  0
LINE
  8
0
 62
7
  6
CONTINUOUS
 10
115.7881751117
 20
234.4784454924
 11
113.4948314571
 21
235.4737217766
  0
LINE
  8
0
 62
7
  6
CONTINUOUS
 10
119.4762181835
 20
230.1719635293
 11
117.7597074133
 21
231.1571970948
  0
LINE
  8
0
 62
7
  6
CONTINUOUS
 10
118.5011156342
 20
232.4489062294
 11
120.2176264044
 21
231.4636726639
  0
LINE
  8
0
 62
7
  6
CONTINUOUS
 10
120.4450313551
 20
232.0691158309
 11
118.276805483
 21
233.3136223868
  0
LINE
  8
0
 62
7
  6
CONTINUOUS
 10
122.3408724174
 20
227.6674194375
 11
121.1413699557
 21
228.4968376621
  0
LINE
  8
0
 62
7
  6
CONTINUOUS
 10
116.2236021335
 20
234.1735075029
 11
115.7881751117
 21
234.4784454924
  0
POLYLINE
  8
0
 62
7
  6
CONTINUOUS
 66
1
 70
0
  0
VERTEX
  8
0
 62
7
  6
CONTINUOUS
 10
106.6301173519
 20
243.1151581312
  0
VERTEX
  8
0
 62
7
  6
CONTINUOUS
 10
106.7868275136
 20
242.994927213
  0
VERTEX
  8
0
 62
7
  6
CONTINUOUS
 10
106.9735718681
 20
242.887604777
  0
VERTEX
  8
0
 62
7
  6
CONTINUOUS
 10
107.1864168838
 20
242.7987882839
  0
VERTEX
  8
0
 62
7
  6
CONTINUOUS
 10
107.4219027552
 20
242.7332588127
  0
SEQEND
  0
LINE
  8
0
 62
7
  6
CONTINUOUS
 10
123.6845216849
 20
226.6914555406
 11
125.9322191047
 21
224.8327411202
  0
LINE
  8
0
 62
7
  6
CONTINUOUS
 10
126.338988942
 20
225.3246378331
 11
124.0912915221
 21
227.1833522535
  0
LINE
  8
0
 62
7
  6
CONTINUOUS
 10
128.1087425387
 20
226.4840154739
 11
127.6270936166
 21
226.8823109871
  0
LINE
  8
0
 62
7
  6
CONTINUOUS
 10
125.3793961967
 20
228.7410254075
 11
124.8977472745
 21
229.1393209206
  0
LINE
  8
0
 62
7
  6
CONTINUOUS
 10
120.8437887375
 20
231.7175779208
 11
120.4450313551
 21
232.0691158309
  0
LINE
  8
0
 62
7
  6
CONTINUOUS
 10
115.6719709401
 20
233.9490299306
 11
115.9162867196
 21
233.727031315
  0
LINE
  8
0
 62
7
  6
CONTINUOUS
 10
120.2176264044
 20
231.4636726639
 11
120.4356969189
 21
231.2158444247
  0
LINE
  8
0
 62
7
  6
CONTINUOUS
 10
142.8249353151
 20
194.4969575772
 11
142.9579726832
 21
193.9822806124
  0
LINE
  8
0
 62
7
  6
CONTINUOUS
 10
143.4891831316
 20
194.0096456659
 11
143.3507871002
 21
194.6283450065
  0
LINE
  8
0
 62
7
  6
CONTINUOUS
 10
142.8720989376
 20
189.5439940147
 11
142.9542941299
 21
189.121886154
  0
LINE
  8
0
 62
7
  6
CONTINUOUS
 10
142.0408044595
 20
201.3045126205
 11
142.6416424652
 21
197.7085279188
  0
LINE
  8
0
 62
7
  6
CONTINUOUS
 10
143.2521177583
 20
197.2824793854
 11
142.5654463132
 21
201.392172828
  0
LINE
  8
0
 62
7
  6
CONTINUOUS
 10
143.4853250479
 20
189.0912340623
 11
143.4091327408
 21
189.6173386637
  0
LINE
  8
0
 62
7
  6
CONTINUOUS
 10
149.8714223195
 20
217.4906447662
 11
149.8714223195
 21
187.5916692505
  0
LINE
  8
0
 62
7
  6
CONTINUOUS
 10
134.2887031481
 20
142.540453837
 11
134.7002622913
 21
143.4852691183
  0
LINE
  8
0
 62
7
  6
CONTINUOUS
 10
152.5676971053
 20
172.2020768905
 11
131.4259287676
 21
151.0603085528
  0
LINE
  8
0
 62
7
  6
CONTINUOUS
 10
88.5512624527
 20
130.2229350287
 11
89.510364006
 21
130.6000040601
  0
LINE
  8
0
 62
7
  6
CONTINUOUS
 10
70.6524468038
 20
244.9116692505
 11
100.5514223195
 21
244.9116692505
  0
POLYLINE
  8
0
 62
7
  6
CONTINUOUS
 66
1
 70
0
  0
VERTEX
  8
0
 62
7
  6
CONTINUOUS
 10
107.4219027552
 20
242.7332588127
  0
VERTEX
  8
0
 62
7
  6
CONTINUOUS
 10
107.6661353837
 20
242.6971351199
  0
VERTEX
  8
0
 62
7
  6
CONTINUOUS
 10
107.8960976017
 20
242.6919821729
  0
VERTEX
  8
0
 62
7
  6
CONTINUOUS
 10
108.1089753126
 20
242.7140769663
  0
VERTEX
  8
0
 62
7
  6
CONTINUOUS
 10
108.3005669073
 20
242.7600929834
  0
SEQEND
  0
LINE
  8
0
 62
7
  6
CONTINUOUS
 10
145.6026377329
 20
229.3289500791
 11
144.6578224516
 21
229.7405092223
  0
LINE
  8
0
 62
7
  6
CONTINUOUS
 10
115.9410146794
 20
247.6079440363
 11
137.0827830171
 21
226.4661756986
  0
LINE
  8
0
 62
7
  6
CONTINUOUS
 10
157.9201565412
 20
183.5915093836
 11
157.5430875099
 21
184.550610937
  0
LINE
  8
0
 62
7
  6
CONTINUOUS
 10
32.1730809196
 20
82.660251771
 11
32.1730809196
 21
74.9132712049
  0
LINE
  8
1_AXIS
 62
7
  6
CONTINUOUS
 10
46.5514223195
 20
97.936761488
 11
46.5514223195
 21
86.036761488
  0
LINE
  8
1_AXIS
 62
7
  6
CONTINUOUS
 10
46.5514223195
 20
71.536761488
 11
46.5514223195
 21
59.636761488
  0
LINE
  8
0
 62
7
  6
CONTINUOUS
 10
58.3205184825
 20
83.036761488
 11
58.3205184825
 21
74.536761488
  0
LINE
  8
0
 62
7
  6
CONTINUOUS
 10
74.3152337285
 20
57.636761488
 11
74.3152337285
 21
57.336761488
  0
LINE
  8
0
 62
7
  6
CONTINUOUS
 10
74.778473593
 20
57.636761488
 11
74.778473593
 21
57.336761488
  0
LINE
  8
0
 62
7
  6
CONTINUOUS
 10
75.7510049882
 20
57.636761488
 11
75.7510049882
 21
57.336761488
  0
LINE
  8
0
 62
7
  6
CONTINUOUS
 10
75.9895326735
 20
57.636761488
 11
75.9895326735
 21
57.336761488
  0
LINE
  8
0
 62
7
  6
CONTINUOUS
 10
76.3207083789
 20
57.636761488
 11
76.3207083789
 21
57.336761488
  0
LINE
  8
0
 62
7
  6
CONTINUOUS
 10
76.6314330182
 20
57.636761488
 11
76.6314330182
 21
57.336761488
  0
LINE
  8
0
 62
7
  6
CONTINUOUS
 10
77.0946729821
 20
57.636761488
 11
77.0946729821
 21
57.336761488
  0
LINE
  8
0
 62
7
  6
CONTINUOUS
 10
78.3360088991
 20
57.636761488
 11
78.3360088991
 21
57.336761488
  0
LINE
  8
0
 62
7
  6
CONTINUOUS
 10
78.8195967926
 20
57.636761488
 11
78.8195967926
 21
57.336761488
  0
LINE
  8
0
 62
7
  6
CONTINUOUS
 10
79.0171291925
 20
57.636761488
 11
79.0171291925
 21
57.336761488
  0
POLYLINE
  8
0
 62
7
  6
CONTINUOUS
 66
1
 70
0
  0
VERTEX
  8
0
 62
7
  6
CONTINUOUS
 10
160.5019919351
 20
74.4185156998
  0
VERTEX
  8
0
 62
7
  6
CONTINUOUS
 10
160.5855408257
 20
74.4381570153
  0
VERTEX
  8
0
 62
7
  6
CONTINUOUS
 10
160.6889214287
 20
74.4856764415
  0
VERTEX
  8
0
 62
7
  6
CONTINUOUS
 10
160.7774124003
 20
74.5539101126
  0
VERTEX
  8
0
 62
7
  6
CONTINUOUS
 10
160.8474154579
 20
74.6383766336
  0
VERTEX
  8
0
 62
7
  6
CONTINUOUS
 10
160.8973218612
 20
74.7361007106
  0
VERTEX
  8
0
 62
7
  6
CONTINUOUS
 10
160.9251701401
 20
74.8456511025
  0
SEQEND
  0
LINE
  8
0
 62
7
  6
CONTINUOUS
 10
143.4891831316
 20
57.336761488
 11
136.7203910131
 21
57.336761488
  0
LINE
  8
0
 62
7
  6
CONTINUOUS
 10
128.1087425387
 20
57.336761488
 11
105.9284072997
 21
57.336761488
  0
LINE
  8
0
 62
7
  6
CONTINUOUS
 10
105.7828870167
 20
57.336761488
 11
103.6936138007
 21
57.336761488
  0
LINE
  8
0
 62
7
  6
CONTINUOUS
 10
103.0186262447
 20
57.336761488
 11
98.8033068467
 21
57.336761488
  0
LINE
  8
0
 62
7
  6
CONTINUOUS
 10
98.0198011385
 20
57.336761488
 11
94.0524681156
 21
57.336761488
  0
LINE
  8
0
 62
7
  6
CONTINUOUS
 10
93.3299004108
 20
57.336761488
 11
88.8323014303
 21
57.336761488
  0
LINE
  8
0
 62
7
  6
CONTINUOUS
 10
87.945046549
 20
57.336761488
 11
84.0239388477
 21
57.336761488
  0
LINE
  8
0
 62
7
  6
CONTINUOUS
 10
83.5983905038
 20
57.336761488
 11
74.3152337285
 21
57.336761488
  0
LINE
  8
1_AXIS
 62
7
  6
CONTINUOUS
 10
144.5514223195
 20
57.636761488
 11
48.5514223195
 21
57.636761488
  0
POLYLINE
  8
0
 62
7
  6
CONTINUOUS
 66
1
 70
0
  0
VERTEX
  8
0
 62
7
  6
CONTINUOUS
 10
32.6008527472
 20
74.4185156935
  0
VERTEX
  8
0
 62
7
  6
CONTINUOUS
 10
32.5173038133
 20
74.4381570153
  0
VERTEX
  8
0
 62
7
  6
CONTINUOUS
 10
32.4139232103
 20
74.4856764415
  0
VERTEX
  8
0
 62
7
  6
CONTINUOUS
 10
32.3254322387
 20
74.5539101126
  0
VERTEX
  8
0
 62
7
  6
CONTINUOUS
 10
32.2554291811
 20
74.6383766336
  0
VERTEX
  8
0
 62
7
  6
CONTINUOUS
 10
32.2055227778
 20
74.7361007106
  0
VERTEX
  8
0
 62
7
  6
CONTINUOUS
 10
32.1776744988
 20
74.8456511025
  0
VERTEX
  8
0
 62
7
  6
CONTINUOUS
 10
32.1730809217
 20
74.9132712049
  0
SEQEND
  0
LINE
  8
0
 62
7
  6
CONTINUOUS
 10
79.1315514453
 20
57.636761488
 11
79.1315514453
 21
57.336761488
  0
LINE
  8
0
 62
7
  6
CONTINUOUS
 10
79.3426908894
 20
57.636761488
 11
79.3426908894
 21
57.336761488
  0
LINE
  8
0
 62
7
  6
CONTINUOUS
 10
79.6900548349
 20
57.636761488
 11
79.6900548349
 21
57.336761488
  0
LINE
  8
0
 62
7
  6
CONTINUOUS
 10
80.0769252604
 20
57.636761488
 11
80.0769252604
 21
57.336761488
  0
LINE
  8
0
 62
7
  6
CONTINUOUS
 10
80.4065844212
 20
57.636761488
 11
80.4065844212
 21
57.336761488
  0
LINE
  8
0
 62
7
  6
CONTINUOUS
 10
80.7757500619
 20
57.636761488
 11
80.7757500619
 21
57.336761488
  0
LINE
  8
0
 62
7
  6
CONTINUOUS
 10
81.0481979579
 20
57.636761488
 11
81.0481979579
 21
57.336761488
  0
LINE
  8
0
 62
7
  6
CONTINUOUS
 10
81.2634351425
 20
57.636761488
 11
81.2634351425
 21
57.336761488
  0
LINE
  8
0
 62
7
  6
CONTINUOUS
 10
81.5324912414
 20
57.636761488
 11
81.5324912414
 21
57.336761488
  0
LINE
  8
0
 62
7
  6
CONTINUOUS
 10
82.0269319142
 20
57.636761488
 11
82.0269319142
 21
57.336761488
  0
LINE
  8
0
 62
7
  6
CONTINUOUS
 10
82.19410834
 20
57.636761488
 11
82.19410834
 21
57.336761488
  0
LINE
  8
0
 62
7
  6
CONTINUOUS
 10
82.5284612852
 20
57.636761488
 11
82.5284612852
 21
57.336761488
  0
POLYLINE
  8
0
 62
7
  6
CONTINUOUS
 66
1
 70
0
  0
VERTEX
  8
0
 62
7
  6
CONTINUOUS
 10
153.3762767219
 20
74.4168234565
  0
VERTEX
  8
0
 62
7
  6
CONTINUOUS
 10
153.4840229752
 20
74.44207016
  0
VERTEX
  8
0
 62
7
  6
CONTINUOUS
 10
153.5823031815
 20
74.4895986283
  0
VERTEX
  8
0
 62
7
  6
CONTINUOUS
 10
153.6698389771
 20
74.5592221909
  0
VERTEX
  8
0
 62
7
  6
CONTINUOUS
 10
153.741111584
 20
74.6488013122
  0
VERTEX
  8
0
 62
7
  6
CONTINUOUS
 10
153.7912201293
 20
74.755447341
  0
VERTEX
  8
0
 62
7
  6
CONTINUOUS
 10
153.8151839625
 20
74.8733288732
  0
VERTEX
  8
0
 62
7
  6
CONTINUOUS
 10
153.8167818986
 20
74.9132712049
  0
SEQEND
  0
POLYLINE
  8
0
 62
7
  6
CONTINUOUS
 66
1
 70
0
  0
VERTEX
  8
0
 62
7
  6
CONTINUOUS
 10
32.5990520483
 20
74.4187818029
  0
VERTEX
  8
0
 62
7
  6
CONTINUOUS
 10
33.4557116015
 20
74.2951171595
  0
VERTEX
  8
0
 62
7
  6
CONTINUOUS
 10
34.3731152329
 20
74.1722377205
  0
SEQEND
  0
LINE
  8
0
 62
7
  6
CONTINUOUS
 10
83.5983905038
 20
57.636761488
 11
83.5983905038
 21
57.336761488
  0
LINE
  8
0
 62
7
  6
CONTINUOUS
 10
84.0239388477
 20
57.636761488
 11
84.0239388477
 21
57.336761488
  0
LINE
  8
0
 62
7
  6
CONTINUOUS
 10
84.2773834837
 20
57.636761488
 11
84.2773834837
 21
57.336761488
  0
LINE
  8
0
 62
7
  6
CONTINUOUS
 10
84.4039935943
 20
57.636761488
 11
84.4039935943
 21
57.336761488
  0
LINE
  8
0
 62
7
  6
CONTINUOUS
 10
84.7329553925
 20
57.636761488
 11
84.7329553925
 21
57.336761488
  0
LINE
  8
0
 62
7
  6
CONTINUOUS
 10
85.1377617568
 20
57.636761488
 11
85.1377617568
 21
57.336761488
  0
LINE
  8
0
 62
7
  6
CONTINUOUS
 10
85.7195978093
 20
57.636761488
 11
85.7195978093
 21
57.336761488
  0
LINE
  8
0
 62
7
  6
CONTINUOUS
 10
86.250771302
 20
57.636761488
 11
86.250771302
 21
57.336761488
  0
LINE
  8
0
 62
7
  6
CONTINUOUS
 10
86.7566413027
 20
57.636761488
 11
86.7566413027
 21
57.336761488
  0
LINE
  8
0
 62
7
  6
CONTINUOUS
 10
87.2371892863
 20
57.636761488
 11
87.2371892863
 21
57.336761488
  0
LINE
  8
0
 62
7
  6
CONTINUOUS
 10
87.66707471
 20
57.636761488
 11
87.66707471
 21
57.336761488
  0
LINE
  8
0
 62
7
  6
CONTINUOUS
 10
87.8693049365
 20
57.636761488
 11
87.8693049365
 21
57.336761488
  0
LINE
  8
0
 62
7
  6
CONTINUOUS
 10
87.945046549
 20
57.636761488
 11
87.945046549
 21
57.336761488
  0
POLYLINE
  8
0
 62
7
  6
CONTINUOUS
 66
1
 70
0
  0
VERTEX
  8
0
 62
7
  6
CONTINUOUS
 10
150.5677101008
 20
74.0597031259
  0
VERTEX
  8
0
 62
7
  6
CONTINUOUS
 10
150.9865118172
 20
74.1210272591
  0
VERTEX
  8
0
 62
7
  6
CONTINUOUS
 10
151.5193819102
 20
74.1923037615
  0
SEQEND
  0
LINE
  8
0
 62
7
  6
CONTINUOUS
 10
150.4869877689
 20
74.0489185033
 11
150.5676902777
 21
74.0597001842
  0
POLYLINE
  8
0
 62
7
  6
CONTINUOUS
 66
1
 70
0
  0
VERTEX
  8
0
 62
7
  6
CONTINUOUS
 10
157.8043839431
 20
74.0574129851
  0
VERTEX
  8
0
 62
7
  6
CONTINUOUS
 10
158.7297294149
 20
74.1722377216
  0
VERTEX
  8
0
 62
7
  6
CONTINUOUS
 10
159.6471330541
 20
74.2951171618
  0
VERTEX
  8
0
 62
7
  6
CONTINUOUS
 10
160.5041980673
 20
74.4188429627
  0
SEQEND
  0
LINE
  8
0
 62
7
  6
CONTINUOUS
 10
151.5193819102
 20
74.1923037615
 11
152.0668406062
 21
74.2600438306
  0
LINE
  8
0
 62
7
  6
CONTINUOUS
 10
152.0668465228
 20
74.2600445348
 11
153.3762767251
 21
74.4168234535
  0
LINE
  8
0
 62
7
  6
CONTINUOUS
 10
35.2984630973
 20
74.0574126525
 11
35.4029663834
 21
74.0468518018
  0
LINE
  8
0
 62
7
  6
CONTINUOUS
 10
34.3731152329
 20
74.1722377205
 11
35.2984606959
 21
74.0574129851
  0
LINE
  8
0
 62
7
  6
CONTINUOUS
 10
88.8323014303
 20
57.636761488
 11
88.8323014303
 21
57.336761488
  0
LINE
  8
0
 62
7
  6
CONTINUOUS
 10
88.8686582422
 20
57.636761488
 11
88.8686582422
 21
57.336761488
  0
LINE
  8
0
 62
7
  6
CONTINUOUS
 10
89.0217494351
 20
57.636761488
 11
89.0217494351
 21
57.336761488
  0
LINE
  8
0
 62
7
  6
CONTINUOUS
 10
89.381514846
 20
57.636761488
 11
89.381514846
 21
57.336761488
  0
LINE
  8
0
 62
7
  6
CONTINUOUS
 10
89.7680723607
 20
57.636761488
 11
89.7680723607
 21
57.336761488
  0
LINE
  8
0
 62
7
  6
CONTINUOUS
 10
90.271364219
 20
57.636761488
 11
90.271364219
 21
57.336761488
  0
LINE
  8
0
 62
7
  6
CONTINUOUS
 10
91.2014017477
 20
57.636761488
 11
91.2014017477
 21
57.336761488
  0
LINE
  8
0
 62
7
  6
CONTINUOUS
 10
91.7314857098
 20
57.636761488
 11
91.7314857098
 21
57.336761488
  0
LINE
  8
0
 62
7
  6
CONTINUOUS
 10
92.1716274323
 20
57.636761488
 11
92.1716274323
 21
57.336761488
  0
POLYLINE
  8
0
 62
7
  6
CONTINUOUS
 66
1
 70
0
  0
VERTEX
  8
0
 62
7
  6
CONTINUOUS
 10
150.2753799451
 20
74.03676158
  0
VERTEX
  8
0
 62
7
  6
CONTINUOUS
 10
150.3579856369
 20
74.038650553
  0
VERTEX
  8
0
 62
7
  6
CONTINUOUS
 10
150.4869877689
 20
74.0489185033
  0
SEQEND
  0
POLYLINE
  8
0
 62
7
  6
CONTINUOUS
 66
1
 70
0
  0
VERTEX
  8
0
 62
7
  6
CONTINUOUS
 10
157.4541496892
 20
74.0367614309
  0
VERTEX
  8
0
 62
7
  6
CONTINUOUS
 10
157.5612296686
 20
74.0386576071
  0
VERTEX
  8
0
 62
7
  6
CONTINUOUS
 10
157.6998782555
 20
74.0468518018
  0
VERTEX
  8
0
 62
7
  6
CONTINUOUS
 10
157.8043815416
 20
74.0574126525
  0
SEQEND
  0
LINE
  8
0
 62
7
  6
CONTINUOUS
 10
35.6485395392
 20
74.036761488
 11
157.4543050997
 21
74.036761488
  0
POLYLINE
  8
0
 62
7
  6
CONTINUOUS
 66
1
 70
0
  0
VERTEX
  8
0
 62
7
  6
CONTINUOUS
 10
35.4029663834
 20
74.0468518018
  0
VERTEX
  8
0
 62
7
  6
CONTINUOUS
 10
35.5416149704
 20
74.0386576071
  0
VERTEX
  8
0
 62
7
  6
CONTINUOUS
 10
35.6486949497
 20
74.0367614309
  0
SEQEND
  0
LINE
  8
0
 62
7
  6
CONTINUOUS
 10
92.6385612585
 20
57.636761488
 11
92.6385612585
 21
57.336761488
  0
LINE
  8
0
 62
7
  6
CONTINUOUS
 10
92.8088798473
 20
57.636761488
 11
92.8088798473
 21
57.336761488
  0
LINE
  8
0
 62
7
  6
CONTINUOUS
 10
93.1169890603
 20
57.636761488
 11
93.1169890603
 21
57.336761488
  0
LINE
  8
0
 62
7
  6
CONTINUOUS
 10
93.3299004108
 20
57.636761488
 11
93.3299004108
 21
57.336761488
  0
LINE
  8
0
 62
7
  6
CONTINUOUS
 10
94.0524681156
 20
57.636761488
 11
94.0524681156
 21
57.336761488
  0
LINE
  8
1_AXIS
 62
2
  6
CENTER
 10
96.5514223195
 20
55.636761488
 11
96.5514223195
 21
101.936761488
  0
LINE
  8
0
 62
7
  6
CONTINUOUS
 10
96.5522841492
 20
57.636761488
 11
96.5522841492
 21
57.336761488
  0
LINE
  8
0
 62
7
  6
CONTINUOUS
 10
97.0743728478
 20
57.636761488
 11
97.0743728478
 21
57.336761488
  0
LINE
  8
0
 62
7
  6
CONTINUOUS
 10
97.494893653
 20
57.636761488
 11
97.494893653
 21
57.336761488
  0
LINE
  8
0
 62
7
  6
CONTINUOUS
 10
97.8125494465
 20
57.636761488
 11
97.8125494465
 21
57.336761488
  0
LINE
  8
0
 62
7
  6
CONTINUOUS
 10
97.9205910125
 20
57.636761488
 11
97.9205910125
 21
57.336761488
  0
LINE
  8
0
 62
7
  6
CONTINUOUS
 10
97.9257699544
 20
57.636761488
 11
97.9257699544
 21
57.336761488
  0
LINE
  8
0
 62
7
  6
CONTINUOUS
 10
98.0198011385
 20
57.636761488
 11
98.0198011385
 21
57.336761488
  0
LINE
  8
0
 62
7
  6
CONTINUOUS
 10
98.8033068467
 20
57.636761488
 11
98.8033068467
 21
57.336761488
  0
LINE
  8
0
 62
7
  6
CONTINUOUS
 10
99.2996696817
 20
57.636761488
 11
99.2996696817
 21
57.336761488
  0
LINE
  8
1_AXIS
 62
7
  6
CONTINUOUS
 10
150.2753855602
 20
83.536761488
 11
145.4016491537
 21
83.536761488
  0
LINE
  8
0
 62
7
  6
CONTINUOUS
 10
35.6485395393
 20
83.536761488
 11
157.4543050996
 21
83.536761488
  0
LINE
  8
0
 62
7
  6
CONTINUOUS
 10
106.0466028161
 20
74.036761488
 11
107.7786536236
 21
73.036761488
  0
LINE
  8
0
 62
7
  6
CONTINUOUS
 10
101.7873203775
 20
57.636761488
 11
101.7873203775
 21
57.336761488
  0
LINE
  8
0
 62
7
  6
CONTINUOUS
 10
102.2950192381
 20
57.636761488
 11
102.2950192381
 21
57.336761488
  0
LINE
  8
0
 62
7
  6
CONTINUOUS
 10
102.6779457479
 20
57.636761488
 11
102.6779457479
 21
57.336761488
  0
LINE
  8
0
 62
7
  6
CONTINUOUS
 10
102.9466584443
 20
57.636761488
 11
102.9466584443
 21
57.336761488
  0
LINE
  8
0
 62
7
  6
CONTINUOUS
 10
103.0186262447
 20
57.636761488
 11
103.0186262447
 21
57.336761488
  0
LINE
  8
0
 62
7
  6
CONTINUOUS
 10
103.6936138007
 20
57.636761488
 11
103.6936138007
 21
57.336761488
  0
LINE
  8
0
 62
7
  6
CONTINUOUS
 10
105.5149798106
 20
57.636761488
 11
105.5149798106
 21
57.336761488
  0
LINE
  8
0
 62
7
  6
CONTINUOUS
 10
105.7828870167
 20
57.636761488
 11
105.7828870167
 21
57.336761488
  0
LINE
  8
0
 62
7
  6
CONTINUOUS
 10
105.9284072997
 20
57.636761488
 11
105.9284072997
 21
57.336761488
  0
POLYLINE
  8
0
 62
7
  6
CONTINUOUS
 66
1
 70
0
  0
VERTEX
  8
0
 62
7
  6
CONTINUOUS
 10
35.6483439468
 20
83.5367615311
  0
VERTEX
  8
0
 62
7
  6
CONTINUOUS
 10
35.5387530098
 20
83.5347621162
  0
VERTEX
  8
0
 62
7
  6
CONTINUOUS
 10
35.4001072364
 20
83.5264329361
  0
SEQEND
  0
POLYLINE
  8
0
 62
7
  6
CONTINUOUS
 66
1
 70
0
  0
VERTEX
  8
0
 62
7
  6
CONTINUOUS
 10
150.4828156729
 20
83.5250721595
  0
VERTEX
  8
0
 62
7
  6
CONTINUOUS
 10
150.353888818
 20
83.5350540142
  0
VERTEX
  8
0
 62
7
  6
CONTINUOUS
 10
150.275344921
 20
83.5367614152
  0
SEQEND
  0
LINE
  8
0
 62
7
  6
CONTINUOUS
 10
107.3303947895
 20
57.636761488
 11
107.3303947895
 21
57.336761488
  0
LINE
  8
0
 62
7
  6
CONTINUOUS
 10
108.2302860149
 20
57.636761488
 11
108.2302860149
 21
57.336761488
  0
LINE
  8
0
 62
7
  6
CONTINUOUS
 10
108.4772648425
 20
57.636761488
 11
108.4772648425
 21
57.336761488
  0
LINE
  8
0
 62
7
  6
CONTINUOUS
 10
109.5107044312
 20
74.036761488
 11
107.7786536236
 21
73.036761488
  0
LINE
  8
0
 62
7
  6
CONTINUOUS
 10
33.4535044026
 20
83.2780986432
 11
32.599040963
 21
83.154739517
  0
POLYLINE
  8
0
 62
7
  6
CONTINUOUS
 66
1
 70
0
  0
VERTEX
  8
0
 62
7
  6
CONTINUOUS
 10
35.2984606563
 20
83.5161099837
  0
VERTEX
  8
0
 62
7
  6
CONTINUOUS
 10
34.3708122679
 20
83.4009884
  0
VERTEX
  8
0
 62
7
  6
CONTINUOUS
 10
33.4535044026
 20
83.2780986432
  0
SEQEND
  0
LINE
  8
0
 62
7
  6
CONTINUOUS
 10
35.4001072364
 20
83.5264329361
 11
35.2984630133
 21
83.5161103248
  0
POLYLINE
  8
0
 62
7
  6
CONTINUOUS
 66
1
 70
0
  0
VERTEX
  8
0
 62
7
  6
CONTINUOUS
 10
157.8043816257
 20
83.5161103248
  0
VERTEX
  8
0
 62
7
  6
CONTINUOUS
 10
157.7027374026
 20
83.5264329361
  0
VERTEX
  8
0
 62
7
  6
CONTINUOUS
 10
157.5640916292
 20
83.5347621162
  0
VERTEX
  8
0
 62
7
  6
CONTINUOUS
 10
157.4545006922
 20
83.5367615311
  0
SEQEND
  0
LINE
  8
0
 62
7
  6
CONTINUOUS
 10
153.3764242438
 20
83.1566814557
 11
152.045256652
 21
83.3161506496
  0
POLYLINE
  8
0
 62
7
  6
CONTINUOUS
 66
1
 70
0
  0
VERTEX
  8
0
 62
7
  6
CONTINUOUS
 10
152.045256652
 20
83.3161506496
  0
VERTEX
  8
0
 62
7
  6
CONTINUOUS
 10
151.514897733
 20
83.3817945758
  0
VERTEX
  8
0
 62
7
  6
CONTINUOUS
 10
150.9826019827
 20
83.4530432792
  0
VERTEX
  8
0
 62
7
  6
CONTINUOUS
 10
150.5677108974
 20
83.513819725
  0
SEQEND
  0
LINE
  8
0
 62
7
  6
CONTINUOUS
 10
150.5676886916
 20
83.5138229933
 11
150.4828156729
 21
83.5250721595
  0
POLYLINE
  8
0
 62
7
  6
CONTINUOUS
 66
1
 70
0
  0
VERTEX
  8
0
 62
7
  6
CONTINUOUS
 10
160.5037926172
 20
83.1547411728
  0
VERTEX
  8
0
 62
7
  6
CONTINUOUS
 10
159.6493452914
 20
83.2780979396
  0
VERTEX
  8
0
 62
7
  6
CONTINUOUS
 10
158.7320350032
 20
83.4009880607
  0
VERTEX
  8
0
 62
7
  6
CONTINUOUS
 10
157.8043839826
 20
83.5161099837
  0
SEQEND
  0
LINE
  8
0
 62
7
  6
CONTINUOUS
 10
111.229923433
 20
57.636761488
 11
111.229923433
 21
57.336761488
  0
LINE
  8
0
 62
7
  6
CONTINUOUS
 10
112.1298146584
 20
57.636761488
 11
112.1298146584
 21
57.336761488
  0
LINE
  8
0
 62
7
  6
CONTINUOUS
 10
113.4514223195
 20
74.7565054077
 11
113.4514223195
 21
82.8170175682
  0
LINE
  8
0
 62
7
  6
CONTINUOUS
 10
113.4948314571
 20
57.636761488
 11
113.4948314571
 21
57.336761488
  0
LINE
  8
0
 62
7
  6
CONTINUOUS
 10
153.3753779198
 20
83.1568061833
 11
153.4460898689
 21
83.1432418855
  0
LINE
  8
0
 62
7
  6
CONTINUOUS
 10
115.7881751117
 20
57.636761488
 11
115.7881751117
 21
57.336761488
  0
LINE
  8
0
 62
7
  6
CONTINUOUS
 10
116.2236021335
 20
57.636761488
 11
116.2236021335
 21
57.336761488
  0
LINE
  8
0
 62
7
  6
CONTINUOUS
 10
116.4787702732
 20
57.636761488
 11
116.4787702732
 21
57.336761488
  0
LINE
  8
0
 62
7
  6
CONTINUOUS
 10
116.596029521
 20
57.636761488
 11
116.596029521
 21
57.336761488
  0
LINE
  8
0
 62
7
  6
CONTINUOUS
 10
118.276805483
 20
57.636761488
 11
118.276805483
 21
57.336761488
  0
POLYLINE
  8
0
 62
7
  6
CONTINUOUS
 66
1
 70
0
  0
VERTEX
  8
0
 62
7
  6
CONTINUOUS
 10
32.5990492496
 20
83.1547407111
  0
VERTEX
  8
0
 62
7
  6
CONTINUOUS
 10
32.4988563982
 20
83.1289156337
  0
VERTEX
  8
0
 62
7
  6
CONTINUOUS
 10
32.4056020139
 20
83.0826911572
  0
VERTEX
  8
0
 62
7
  6
CONTINUOUS
 10
32.3233418998
 20
83.0175788174
  0
VERTEX
  8
0
 62
7
  6
CONTINUOUS
 10
32.2558549753
 20
82.9357921699
  0
VERTEX
  8
0
 62
7
  6
CONTINUOUS
 10
32.2067378381
 20
82.8405962479
  0
VERTEX
  8
0
 62
7
  6
CONTINUOUS
 10
32.1788738509
 20
82.7361423057
  0
VERTEX
  8
0
 62
7
  6
CONTINUOUS
 10
32.1730810514
 20
82.660251771
  0
SEQEND
  0
LINE
  8
1_AXIS
 62
7
  6
CONTINUOUS
 10
144.5514223195
 20
99.936761488
 11
48.5514223195
 21
99.936761488
  0
POLYLINE
  8
0
 62
7
  6
CONTINUOUS
 66
1
 70
0
  0
VERTEX
  8
0
 62
7
  6
CONTINUOUS
 10
160.5019919488
 20
83.1550072741
  0
VERTEX
  8
0
 62
7
  6
CONTINUOUS
 10
160.5855408258
 20
83.1353659606
  0
VERTEX
  8
0
 62
7
  6
CONTINUOUS
 10
160.6889214288
 20
83.0878465344
  0
VERTEX
  8
0
 62
7
  6
CONTINUOUS
 10
160.7774124003
 20
83.0196128633
  0
VERTEX
  8
0
 62
7
  6
CONTINUOUS
 10
160.8474154579
 20
82.9351463422
  0
VERTEX
  8
0
 62
7
  6
CONTINUOUS
 10
160.8973218612
 20
82.8374222652
  0
VERTEX
  8
0
 62
7
  6
CONTINUOUS
 10
160.9251701401
 20
82.7278718734
  0
SEQEND
  0
LINE
  8
0
 62
7
  6
CONTINUOUS
 10
120.4450313551
 20
57.636761488
 11
120.4450313551
 21
57.336761488
  0
LINE
  8
0
 62
7
  6
CONTINUOUS
 10
120.8437887375
 20
57.636761488
 11
120.8437887375
 21
57.336761488
  0
LINE
  8
0
 62
7
  6
CONTINUOUS
 10
121.0462851792
 20
57.636761488
 11
121.0462851792
 21
57.336761488
  0
LINE
  8
0
 62
7
  6
CONTINUOUS
 10
121.1054825354
 20
57.636761488
 11
121.1054825354
 21
57.336761488
  0
LINE
  8
0
 62
7
  6
CONTINUOUS
 10
121.1413699557
 20
57.636761488
 11
121.1413699557
 21
57.336761488
  0
LINE
  8
0
 62
7
  6
CONTINUOUS
 10
122.3408724174
 20
57.636761488
 11
122.3408724174
 21
57.336761488
  0
POLYLINE
  8
0
 62
7
  6
CONTINUOUS
 66
1
 70
0
  0
VERTEX
  8
0
 62
7
  6
CONTINUOUS
 10
153.4460898689
 20
83.1432418855
  0
VERTEX
  8
0
 62
7
  6
CONTINUOUS
 10
153.5409957967
 20
83.1071613045
  0
VERTEX
  8
0
 62
7
  6
CONTINUOUS
 10
153.6272625022
 20
83.0521724253
  0
VERTEX
  8
0
 62
7
  6
CONTINUOUS
 10
153.701870974
 20
82.9791661946
  0
VERTEX
  8
0
 62
7
  6
CONTINUOUS
 10
153.7607142216
 20
82.8903041541
  0
VERTEX
  8
0
 62
7
  6
CONTINUOUS
 10
153.8000958936
 20
82.788343883
  0
VERTEX
  8
0
 62
7
  6
CONTINUOUS
 10
153.8165613044
 20
82.6751027867
  0
VERTEX
  8
0
 62
7
  6
CONTINUOUS
 10
153.8167818992
 20
82.660251771
  0
SEQEND
  0
LINE
  8
0
 62
7
  6
CONTINUOUS
 10
124.8977472745
 20
57.636761488
 11
124.8977472745
 21
57.336761488
  0
LINE
  8
0
 62
7
  6
CONTINUOUS
 10
125.3793961967
 20
57.636761488
 11
125.3793961967
 21
57.336761488
  0
LINE
  8
0
 62
7
  6
CONTINUOUS
 10
126.338988942
 20
57.636761488
 11
126.338988942
 21
57.336761488
  0
LINE
  8
0
 62
7
  6
CONTINUOUS
 10
127.6270936166
 20
57.636761488
 11
127.6270936166
 21
57.336761488
  0
LINE
  8
0
 62
7
  6
CONTINUOUS
 10
128.1087425387
 20
57.636761488
 11
128.1087425387
 21
57.336761488
  0
LINE
  8
0
 62
7
  6
CONTINUOUS
 10
136.7203910131
 20
57.636761488
 11
136.7203910131
 21
57.336761488
  0
LINE
  8
0
 62
7
  6
CONTINUOUS
 10
136.7618930664
 20
57.636761488
 11
136.7618930664
 21
57.336761488
  0
LINE
  8
0
 62
7
  6
CONTINUOUS
 10
137.4518980881
 20
57.636761488
 11
137.4518980881
 21
57.336761488
  0
LINE
  8
0
 62
7
  6
CONTINUOUS
 10
137.6338123008
 20
57.636761488
 11
137.6338123008
 21
57.336761488
  0
LINE
  8
0
 62
7
  6
CONTINUOUS
 10
138.4732393402
 20
57.636761488
 11
138.4732393402
 21
57.336761488
  0
LINE
  8
0
 62
7
  6
CONTINUOUS
 10
142.0408044595
 20
57.636761488
 11
142.0408044595
 21
57.336761488
  0
LINE
  8
0
 62
7
  6
CONTINUOUS
 10
142.5654463132
 20
57.636761488
 11
142.5654463132
 21
57.336761488
  0
LINE
  8
0
 62
7
  6
CONTINUOUS
 10
143.2521177583
 20
57.636761488
 11
143.2521177583
 21
57.336761488
  0
LINE
  8
0
 62
7
  6
CONTINUOUS
 10
143.3507871002
 20
57.636761488
 11
143.3507871002
 21
57.336761488
  0
LINE
  8
0
 62
7
  6
CONTINUOUS
 10
143.4891831316
 20
57.636761488
 11
143.4891831316
 21
57.336761488
  0
LINE
  8
1_AXIS
 62
7
  6
CONTINUOUS
 10
146.5514223195
 20
97.936761488
 11
146.5514223195
 21
86.036761488
  0
LINE
  8
1_AXIS
 62
7
  6
CONTINUOUS
 10
146.5514223195
 20
71.536761488
 11
146.5514223195
 21
59.636761488
  0
LINE
  8
0
 62
7
  6
CONTINUOUS
 10
153.8167819057
 20
82.660251771
 11
153.8167819057
 21
74.9132712049
  0
LINE
  8
0
 62
7
  6
CONTINUOUS
 10
160.9251701401
 20
82.7278718734
 11
160.9297637173
 21
82.660251771
  0
LINE
  8
0
 62
7
  6
CONTINUOUS
 10
160.9297637194
 20
82.660251771
 11
160.9297637194
 21
74.9132712049
  0
LINE
  8
0
 62
7
  6
CONTINUOUS
 10
160.9251701401
 20
74.8456511025
 11
160.9297637173
 21
74.9132712049
  0
ARC
  8
0
 62
7
  6
CONTINUOUS
 10
-9.7863624262
 20
118.2116692505
 40
180.0
 50
18.508015808
 51
21.6261998235
  0
ARC
  8
0
 62
7
  6
CONTINUOUS
 10
34.7314223195
 20
165.6926937347
 40
8.5
 50
315.0
 51
360.0
  0
ARC
  8
0
 62
7
  6
CONTINUOUS
 10
39.7860627332
 20
158.0194120871
 40
0.5
 50
135.0
 51
243.508015808
  0
ARC
  8
0
 62
7
  6
CONTINUOUS
 10
73.2467492329
 20
64.512004957
 40
180.0
 50
63.508015808
 51
66.6261998235
  0
ARC
  8
0
 62
7
  6
CONTINUOUS
 10
48.8417503719
 20
154.3607654134
 40
1.0
 50
246.6261998235
 51
298.53
  0
ARC
  8
0
 62
7
  6
CONTINUOUS
 10
55.6665082313
 20
156.3636094117
 40
0.5
 50
45.0
 51
118.53
  0
ARC
  8
DEFAULT_1
 62
2
  6
CENTER
 10
65.917550796
 20
182.0618756025
 40
3.2
 50
183.5903778907
 51
225.0
  0
ARC
  8
DEFAULT_1
 62
2
  6
CENTER
 10
59.5301123369
 20
181.6610889623
 40
3.2
 50
3.5903778907
 51
45.0
  0
ARC
  8
DEFAULT_1
 62
2
  6
CENTER
 10
55.9945784309
 20
185.1966228682
 40
3.2
 50
45.0
 51
87.7455692247
  0
ARC
  8
0
 62
7
  6
CONTINUOUS
 10
71.1514223195
 20
129.5649868245
 40
8.5
 50
0.0
 51
45.0
  0
ARC
  8
DEFAULT_1
 62
2
  6
CENTER
 10
90.1563759372
 20
151.0348253619
 40
3.2
 50
2.2544307753
 51
45.0
  0
ARC
  8
DEFAULT_1
 62
2
  6
CENTER
 10
86.6208420313
 20
154.5703592679
 40
3.2
 50
45.0
 51
86.4096221093
  0
ARC
  8
0
 62
7
  6
CONTINUOUS
 10
89.14181433
 20
131.5296121153
 40
1.0
 50
291.6261998235
 51
343.53
  0
ARC
  8
0
 62
7
  6
CONTINUOUS
 10
92.5514223195
 20
137.7716692505
 40
0.5
 50
90.0
 51
163.53
  0
ARC
  8
0
 62
7
  6
CONTINUOUS
 10
80.1514223195
 20
127.7133278506
 40
0.5
 50
180.0
 51
288.508015808
  0
ARC
  8
DEFAULT_1
 62
2
  6
CENTER
 10
87.0216286716
 20
160.957797727
 40
3.2
 50
225.0
 51
266.4096221093
  0
ARC
  8
0
 62
7
  6
CONTINUOUS
 10
-30.528241974
 20
214.896342337
 40
180.0
 50
333.508015808
 51
336.6261998235
  0
ARC
  8
0
 62
7
  6
CONTINUOUS
 10
23.1714223195
 20
297.9294539961
 40
180.0
 50
288.508015808
 51
291.6261998235
  0
ARC
  8
DEFAULT_1
 62
2
  6
CENTER
 10
56.2463357918
 20
191.5916692505
 40
3.2
 50
92.2544307753
 51
267.7455692247
  0
ARC
  8
DEFAULT_1
 62
2
  6
CENTER
 10
55.9945784309
 20
197.9867156327
 40
3.2
 50
272.2544307753
 51
315.0
  0
ARC
  8
DEFAULT_1
 62
2
  6
CENTER
 10
59.5301123369
 20
201.5222495386
 40
3.2
 50
315.0
 51
356.4096221093
  0
ARC
  8
0
 62
7
  6
CONTINUOUS
 10
36.4893651843
 20
199.0012772399
 40
1.0
 50
201.6261998235
 51
253.53
  0
ARC
  8
0
 62
7
  6
CONTINUOUS
 10
42.7314223195
 20
195.5916692505
 40
0.5
 50
0.0
 51
73.53
  0
ARC
  8
0
 62
7
  6
CONTINUOUS
 10
32.6730809196
 20
207.9916692505
 40
0.5
 50
90.0
 51
198.508015808
  0
ARC
  8
0
 62
7
  6
CONTINUOUS
 10
34.5247398936
 20
216.9916692505
 40
8.5
 50
270.0
 51
315.0
  0
ARC
  8
0
 62
7
  6
CONTINUOUS
 10
59.3205184825
 20
239.301341198
 40
1.0
 50
156.6261998235
 51
208.53
  0
ARC
  8
0
 62
7
  6
CONTINUOUS
 10
61.3233624808
 20
232.4765833387
 40
0.5
 50
315.0
 51
28.53
  0
ARC
  8
DEFAULT_1
 62
2
  6
CENTER
 10
65.917550796
 20
201.1214628984
 40
3.2
 50
135.0
 51
176.4096221093
  0
ARC
  8
DEFAULT_1
 62
2
  6
CENTER
 10
87.0216286716
 20
222.2255407739
 40
3.2
 50
93.5903778907
 51
135.0
  0
ARC
  8
DEFAULT_1
 62
2
  6
CENTER
 10
86.6208420313
 20
228.612979233
 40
3.2
 50
273.5903778907
 51
315.0
  0
ARC
  8
DEFAULT_1
 62
2
  6
CENTER
 10
90.1563759372
 20
232.148513139
 40
3.2
 50
315.0
 51
357.7455692247
  0
ARC
  8
0
 62
7
  6
CONTINUOUS
 10
70.6524468038
 20
253.4116692505
 40
8.5
 50
225.0
 51
270.0
  0
ARC
  8
0
 62
7
  6
CONTINUOUS
 10
62.9791651561
 20
248.3570288367
 40
0.5
 50
45.0
 51
153.508015808
  0
ARC
  8
0
 62
7
  6
CONTINUOUS
 10
122.4503978352
 20
129.7716692505
 40
8.5
 50
45.0
 51
90.0
  0
ARC
  8
0
 62
7
  6
CONTINUOUS
 10
130.1236794828
 20
134.8263096642
 40
0.5
 50
225.0
 51
333.508015808
  0
ARC
  8
DEFAULT_1
 62
2
  6
CENTER
 10
106.0812159674
 20
160.957797727
 40
3.2
 50
273.5903778907
 51
315.0
  0
ARC
  8
DEFAULT_1
 62
2
  6
CENTER
 10
106.4820026077
 20
154.5703592679
 40
3.2
 50
93.5903778907
 51
135.0
  0
ARC
  8
DEFAULT_1
 62
2
  6
CENTER
 10
102.9464687017
 20
151.0348253619
 40
3.2
 50
135.0
 51
177.7455692247
  0
ARC
  8
DEFAULT_1
 62
2
  6
CENTER
 10
96.5514223195
 20
151.2865827228
 40
3.2
 50
182.2544307753
 51
285.0041067726
  0
ARC
  8
DEFAULT_1
 62
2
  6
CENTER
 10
96.5514223195
 20
151.2865827228
 40
3.2
 50
297.0691471381
 51
357.7455692247
  0
ARC
  8
DEFAULT_1
 62
2
  6
CENTER
 10
127.185293843
 20
182.0618756025
 40
3.2
 50
315.0
 51
356.4096221093
  0
ARC
  8
0
 62
7
  6
CONTINUOUS
 10
133.7823261565
 20
143.8819973029
 40
1.0
 50
336.6261998235
 51
28.53
  0
ARC
  8
0
 62
7
  6
CONTINUOUS
 10
131.7794821582
 20
150.7067551622
 40
0.5
 50
135.0
 51
208.53
  0
ARC
  8
0
 62
7
  6
CONTINUOUS
 10
158.5781047454
 20
166.1916692505
 40
8.5
 50
90.0
 51
135.0
  0
ARC
  8
DEFAULT_1
 62
2
  6
CENTER
 10
137.108266208
 20
185.1966228682
 40
3.2
 50
92.2544307753
 51
135.0
  0
ARC
  8
DEFAULT_1
 62
2
  6
CENTER
 10
133.5727323021
 20
181.6610889623
 40
3.2
 50
135.0
 51
176.4096221093
  0
ARC
  8
0
 62
7
  6
CONTINUOUS
 10
156.6134794547
 20
184.182061261
 40
1.0
 50
21.6261998235
 51
73.53
  0
ARC
  8
0
 62
7
  6
CONTINUOUS
 10
150.3714223195
 20
187.5916692505
 40
0.5
 50
180.0
 51
253.53
  0
ARC
  8
0
 62
7
  6
CONTINUOUS
 10
169.9314223195
 20
85.2538845048
 40
180.0
 50
108.508015808
 51
111.6261998235
  0
ARC
  8
0
 62
7
  6
CONTINUOUS
 10
223.631086613
 20
168.2869961639
 40
180.0
 50
153.508015808
 51
156.6261998235
  0
ARC
  8
0
 62
7
  6
CONTINUOUS
 10
160.4297637194
 20
175.1916692505
 40
0.5
 50
270.0
 51
18.508015808
  0
CIRCLE
  8
1_AXIS
 62
7
  6
CONTINUOUS
 10
96.5514223195
 20
191.5916692505
 40
50.0
  0
ARC
  8
DEFAULT_1
 62
2
  6
CENTER
 10
96.5514223195
 20
191.5916692505
 40
9.525
 50
108.3584370753
 51
251.6415629247
  0
ARC
  8
DEFAULT_1
 62
2
  6
CENTER
 10
96.5514223195
 20
191.5916692505
 40
9.525
 50
288.3584370753
 51
71.6415629247
  0
ARC
  8
DEFAULT_1
 62
2
  6
CENTER
 10
106.0812159674
 20
222.2255407739
 40
3.2
 50
45.0
 51
86.4096221093
  0
ARC
  8
DEFAULT_1
 62
2
  6
CENTER
 10
96.5514223195
 20
231.8967557781
 40
3.2
 50
2.2544307753
 51
30.5991636629
  0
ARC
  8
DEFAULT_1
 62
2
  6
CENTER
 10
96.5514223195
 20
231.8967557781
 40
3.2
 50
43.8905394808
 51
124.7676644338
  0
ARC
  8
DEFAULT_1
 62
2
  6
CENTER
 10
96.5514223195
 20
231.8967557781
 40
3.2
 50
139.7764374569
 51
177.7455692247
  0
ARC
  8
DEFAULT_1
 62
2
  6
CENTER
 10
102.9464687017
 20
232.148513139
 40
3.2
 50
182.2544307753
 51
225.0
  0
ARC
  8
DEFAULT_1
 62
2
  6
CENTER
 10
106.4820026077
 20
228.612979233
 40
3.2
 50
225.0
 51
266.4096221093
  0
ARC
  8
0
 62
7
  6
CONTINUOUS
 10
107.7786536236
 20
244.4116396901
 40
1.7320508076
 50
287.537318513
 51
228.462681487
  0
ARC
  8
0
 62
7
  6
CONTINUOUS
 10
103.9610303089
 20
251.6537263856
 40
1.0
 50
111.6261998235
 51
163.53
  0
ARC
  8
0
 62
7
  6
CONTINUOUS
 10
100.5514223195
 20
245.4116692505
 40
0.5
 50
270.0
 51
343.53
  0
ARC
  8
DEFAULT_1
 62
2
  6
CENTER
 10
137.108266208
 20
197.9867156327
 40
3.2
 50
225.0
 51
267.7455692247
  0
ARC
  8
DEFAULT_1
 62
2
  6
CENTER
 10
136.8565088471
 20
191.5916692505
 40
3.2
 50
272.2544307753
 51
300.2483125734
  0
ARC
  8
DEFAULT_1
 62
2
  6
CENTER
 10
136.8565088471
 20
191.5916692505
 40
3.2
 50
312.4984266123
 51
339.0775370889
  0
ARC
  8
DEFAULT_1
 62
2
  6
CENTER
 10
136.8565088471
 20
191.5916692505
 40
3.2
 50
348.654210912
 51
8.6949794111
  0
ARC
  8
DEFAULT_1
 62
2
  6
CENTER
 10
136.8565088471
 20
191.5916692505
 40
3.2
 50
20.0462922261
 51
46.759405297
  0
ARC
  8
DEFAULT_1
 62
2
  6
CENTER
 10
136.8565088471
 20
191.5916692505
 40
3.2
 50
57.8243093724
 51
87.7455692247
  0
ARC
  8
DEFAULT_1
 62
2
  6
CENTER
 10
127.185293843
 20
201.1214628984
 40
3.2
 50
3.5903778907
 51
45.0
  0
ARC
  8
DEFAULT_1
 62
2
  6
CENTER
 10
133.5727323021
 20
201.5222495386
 40
3.2
 50
183.5903778907
 51
225.0
  0
ARC
  8
0
 62
7
  6
CONTINUOUS
 10
121.9514223195
 20
253.6183516764
 40
8.5
 50
180.0
 51
225.0
  0
ARC
  8
0
 62
7
  6
CONTINUOUS
 10
144.2610942671
 20
228.8225730875
 40
1.0
 50
66.6261998235
 51
118.53
  0
ARC
  8
0
 62
7
  6
CONTINUOUS
 10
137.4363364077
 20
226.8197290892
 40
0.5
 50
225.0
 51
298.53
  0
ARC
  8
0
 62
7
  6
CONTINUOUS
 10
119.856095406
 20
318.6713335439
 40
180.0
 50
243.508015808
 51
246.6261998235
  0
ARC
  8
0
 62
7
  6
CONTINUOUS
 10
112.9514223195
 20
255.4700106503
 40
0.5
 50
0.0
 51
108.508015808
  0
ARC
  8
0
 62
7
  6
CONTINUOUS
 10
158.3714223195
 20
217.4906447662
 40
8.5
 50
135.0
 51
180.0
  0
ARC
  8
0
 62
7
  6
CONTINUOUS
 10
153.3167819057
 20
225.1639264138
 40
0.5
 50
315.0
 51
63.508015808
  0
ARC
  8
0
 62
7
  6
CONTINUOUS
 10
202.8892070651
 20
264.9716692505
 40
180.0
 50
198.508015808
 51
201.6261998235
  0
ARC
  8
1_AXIS
 62
7
  6
CONTINUOUS
 10
149.0514223195
 20
86.036761488
 40
2.5
 50
180.0
 51
270.0
  0
ARC
  8
1_AXIS
 62
7
  6
CONTINUOUS
 10
44.0514223195
 20
86.036761488
 40
2.5
 50
270.0
 51
360.0
  0
ARC
  8
1_AXIS
 62
7
  6
CONTINUOUS
 10
149.0514223195
 20
71.536761488
 40
2.5
 50
90.0
 51
180.0
  0
ARC
  8
1_AXIS
 62
7
  6
CONTINUOUS
 10
44.0514223195
 20
71.536761488
 40
2.5
 50
0.0
 51
90.0
  0
ARC
  8
1_AXIS
 62
7
  6
CONTINUOUS
 10
144.5514223195
 20
97.936761488
 40
2.0
 50
0.0
 51
90.0
  0
ARC
  8
1_AXIS
 62
7
  6
CONTINUOUS
 10
48.5514223195
 20
97.936761488
 40
2.0
 50
90.0
 51
180.0
  0
ARC
  8
1_AXIS
 62
7
  6
CONTINUOUS
 10
144.5514223195
 20
59.636761488
 40
2.0
 50
270.0
 51
360.0
  0
ARC
  8
1_AXIS
 62
7
  6
CONTINUOUS
 10
48.5514223195
 20
59.636761488
 40
2.0
 50
180.0
 51
270.0
  0
ARC
  8
0
 62
7
  6
CONTINUOUS
 10
58.8205184825
 20
83.036761488
 40
0.5
 50
89.9999780844
 51
180.0
  0
ARC
  8
0
 62
7
  6
CONTINUOUS
 10
58.8205184825
 20
74.536761488
 40
0.5
 50
180.0
 51
270.000021917
  0
ENDSEC
  0
EOF
