  0
SECTION
  2
HEADER
  9
$EXTMAX
 10
210.0
 20
297.0
 30
0.0
  9
$EXTMIN
 10
0.0
 20
0.0
 30
0.0
  9
$LIMMIN
 10
0.0
 20
0.0
  9
$LIMMAX
 10
210.0
 20
297.0
  9
$VIEWCTR
 10
105.0
 20
148.5
  9
$VIEWSIZE
 40
297.0
  9
$CLAYER
  8
0
  9
$LTSCALE
 40
19.36
  9
$CELTYPE
  6
BYLAYER
  9
$DIMSCALE
 40
1.0
  9
$DIMASZ
 40
3.5
  9
$DIMEXO
 40
2.2
  9
$DIMDLI
 40
13.376
  9
$DIMEXE
 40
6.336
  9
$DIMCEN
 40
3.168
  9
$DIMLFAC
 40
1.0
  9
$DIMBLK
  1
_FILLED
  9
$DIMTXT
 40
3.5
  9
$PDMODE
 70
3
  9
$PDSIZE
 40
0.3125
  9
$TILEMODE
 70
1
  0
ENDSEC
  0
SECTION
  2
TABLES
  0
TABLE
  2
LTYPE
 70
6
  0
LTYPE
  2
BYBLOCK
 70
0
  3

 72
65
 73
0
 40
0.0
  0
LTYPE
  2
BYLAYER
 70
0
  3

 72
65
 73
0
 40
0.0
  0
LTYPE
  2
CONTINUOUS
 70
64
  3
Solid line
 72
65
 73
0
 40
0.0
  0
LTYPE
  2
CENTER
 70
64
  3
____ _ ____ _ ____ _ ____ _ ____ _ ____ _ ____
 72
65
 73
4
 40
0.6
 49
0.375
 49
-0.075
 49
0.075
 49
-0.075
  0
LTYPE
  2
HIDDEN
 70
64
  3
- - - - - - - - - - - - - - - - - - - -
 72
65
 73
2
 40
0.2
 49
0.1
 49
-0.1
  0
LTYPE
  2
PHANTOM
 70
64
  3
_____ _ _ _____ _ _ _____ _ _ _____
 72
65
 73
6
 40
0.8
 49
0.45
 49
-0.05
 49
0.1
 49
-0.05
 49
0.1
 49
-0.05
  0
LTYPE
  2
DOT
 70
64
  3
. . . . . . . . . . . . . . . . . . . .
 72
65
 73
2
 40
0.2
 49
0.1
 49
-0.1
  0
LTYPE
  2
DASHED
 70
64
  3
- - - - - - - - - - - - - - - - - - - -
 72
65
 73
2
 40
0.2
 49
0.1
 49
-0.1
  0
ENDTAB
  0
TABLE
  2
LAYER
 70
36
  0
LAYER
  2
0
 70
0
 62
7
  6
CONTINUOUS
  0
LAYER
  2
DEFAULT_1
 70
0
 62
7
  6
CENTER
  0
LAYER
  2
DEFAULT_2
 70
0
 62
8
  6
HIDDEN
  0
LAYER
  2
DEFAULT_3
 70
0
 62
7
  6
PHANTOM
  0
LAYER
  2
1_AXIS
 70
0
 62
7
  6
CONTINUOUS
  0
LAYER
  2
1_DATUM_PLANE
 70
0
 62
7
  6
CONTINUOUS
  0
LAYER
  2
2_FEATURE
 70
0
 62
7
  6
CONTINUOUS
  0
LAYER
  2
4_QUILT
 70
0
 62
7
  6
CONTINUOUS
  0
LAYER
  2
6_DIM
 70
0
 62
7
  6
CONTINUOUS
  0
LAYER
  2
AXES
 70
0
 62
7
  6
CONTINUOUS
  0
LAYER
  2
COM_SKETCH
 70
0
 62
7
  6
CONTINUOUS
  0
LAYER
  2
CSYS
 70
0
 62
7
  6
CONTINUOUS
  0
LAYER
  2
PLANES
 70
0
 62
7
  6
CONTINUOUS
  0
LAYER
  2
QUILTS
 70
0
 62
7
  6
CONTINUOUS
  0
ENDTAB
  0
TABLE
  2
STYLE
 70
1
  0
STYLE
  2
STANDARD
 70
0
 40
0.0
 41
0.8
 50
0.0
 71
0
 42
0.2
  3
txt
  4

  0
STYLE
  2
TEXTSTYLE_1
 70
0
 40
0.0
 41
0.8
 50
0.0
 71
0
 42
0.2
  3
gdt
  4

  0
STYLE
  2
TEXTSTYLE_2
 70
0
 40
0.0
 41
0.6
 50
0.0
 71
0
 42
0.2
  3
txt
  4

  0
STYLE
  2
TEXTSTYLE_3
 70
0
 40
0.0
 41
1.0
 50
0.0
 71
0
 42
0.2
  3
ftb_____.ttf
  4

  0
STYLE
  2
TEXTSTYLE_4
 70
0
 40
0.0
 41
1.0
 50
0.0
 71
0
 42
0.2
  3
fti_____.ttf
  4

  0
STYLE
  2
TEXTSTYLE_5
 70
0
 40
0.0
 41
1.0
 50
0.0
 71
0
 42
0.2
  3
frutiger light.ttf
  4

  0
STYLE
  2
TEXTSTYLE_6
 70
0
 40
0.0
 41
0.7
 50
0.0
 71
0
 42
0.2
  3
txt
  4

  0
STYLE
  2
TEXTSTYLE_7
 70
0
 40
0.0
 41
0.8
 50
0.0
 71
0
 42
0.2
  3
txt
  4

  0
ENDTAB
  0
ENDSEC
  0
SECTION
  2
BLOCKS
  0
BLOCK
  8
0
 62
2
  6
CONTINUOUS
  2
SYMBOL_8_BL1
 70
64
 10
173.5956734183
 20
35.5937998301
  0
TEXT
  8
0
 62
7
  6
CONTINUOUS
 10
164.6539584268
 20
30.6865562072
  7
TEXTSTYLE_4
 40
1.0655737705
  1
The brand for plastic modular belts and chains
 41
1.0
 72
0
  0
LINE
  8
0
 62
7
  6
CONTINUOUS
 10
149.5737418074
 20
36.1675703219
 11
149.5737418074
 21
34.0364227809
  0
LINE
  8
0
 62
7
  6
CONTINUOUS
 10
149.8628043005
 20
31.0454914852
 11
149.8628043005
 21
31.1422825445
  0
LINE
  8
0
 62
7
  6
CONTINUOUS
 10
149.5737418074
 20
31.1100188581
 11
149.6315543091
 21
30.9164367395
  0
LINE
  8
0
 62
7
  6
CONTINUOUS
 10
150.9671844304
 20
33.9544555678
 11
150.9671844304
 21
36.1675703219
  0
LINE
  8
0
 62
7
  6
CONTINUOUS
 10
151.8862417523
 20
32.1101932727
 11
151.8862417523
 21
30.5937998301
  0
LINE
  8
0
 62
7
  6
CONTINUOUS
 10
152.1753043074
 20
30.5937998301
 11
152.1753043074
 21
31.3358647082
  0
LINE
  8
0
 62
7
  6
CONTINUOUS
 10
152.1753043074
 20
31.4649194539
 11
152.1753043074
 21
32.1101932727
  0
LINE
  8
0
 62
7
  6
CONTINUOUS
 10
149.6315543091
 20
31.3036010218
 11
149.5737418074
 21
31.1100188581
  0
LINE
  8
0
 62
7
  6
CONTINUOUS
 10
149.9784292936
 20
30.8841730531
 11
149.8628043005
 21
31.0454914852
  0
LINE
  8
0
 62
7
  6
CONTINUOUS
 10
151.0768668626
 20
31.400392081
 11
151.1346793074
 21
31.3036010218
  0
LINE
  8
0
 62
7
  6
CONTINUOUS
 10
151.4237418626
 20
31.3036010218
 11
151.3659292523
 21
31.4326557675
  0
LINE
  8
0
 62
7
  6
CONTINUOUS
 10
152.852430332
 20
36.1675703219
 11
152.852430332
 21
34.3642916334
  0
LINE
  8
0
 62
7
  6
CONTINUOUS
 10
152.852430332
 20
33.0528162235
 11
152.852430332
 21
32.3970785186
  0
LINE
  8
0
 62
7
  6
CONTINUOUS
 10
153.2159293074
 20
31.2390736489
 11
153.2159293074
 21
30.5937998301
  0
LINE
  8
0
 62
7
  6
CONTINUOUS
 10
153.5049916972
 20
30.5937998301
 11
153.5049916972
 21
31.2390736489
  0
LINE
  8
0
 62
7
  6
CONTINUOUS
 10
149.8628043005
 20
31.1422825445
 11
149.9206168074
 21
31.2713373354
  0
LINE
  8
0
 62
7
  6
CONTINUOUS
 10
149.6315543091
 20
30.9164367395
 11
149.7471793074
 21
30.7873819712
  0
LINE
  8
0
 62
7
  6
CONTINUOUS
 10
153.1581166972
 20
31.3681283946
 11
153.2159293074
 21
31.2390736489
  0
LINE
  8
0
 62
7
  6
CONTINUOUS
 10
153.9674919177
 20
30.8841730531
 11
154.0253041972
 21
30.7551182848
  0
LINE
  8
0
 62
7
  6
CONTINUOUS
 10
153.5049916972
 20
31.2390736489
 11
153.4471794177
 21
31.400392081
  0
LINE
  8
0
 62
7
  6
CONTINUOUS
 10
153.9674919177
 20
31.4326557675
 11
153.9674919177
 21
31.3681283946
  0
LINE
  8
0
 62
7
  6
CONTINUOUS
 10
153.9674919177
 20
30.9809641124
 11
153.9674919177
 21
30.8841730531
  0
LINE
  8
0
 62
7
  6
CONTINUOUS
 10
154.245872955
 20
32.3970785186
 11
154.245872955
 21
36.1675703219
  0
LINE
  8
0
 62
7
  6
CONTINUOUS
 10
154.2565543074
 20
30.8519093441
 11
154.2565543074
 21
30.9164367395
  0
LINE
  8
0
 62
7
  6
CONTINUOUS
 10
154.5737418074
 20
36.1675703219
 11
154.5737418074
 21
32.3970785186
  0
LINE
  8
0
 62
7
  6
CONTINUOUS
 10
151.3659292523
 20
30.7873819712
 11
151.4237418626
 21
30.9164367395
  0
LINE
  8
0
 62
7
  6
CONTINUOUS
 10
155.759679528
 20
30.6905909007
 11
155.7018665869
 21
30.8519093441
  0
LINE
  8
0
 62
7
  6
CONTINUOUS
 10
155.412804528
 20
31.3681283946
 11
155.412804528
 21
31.2713373354
  0
LINE
  8
0
 62
7
  6
CONTINUOUS
 10
155.412804528
 20
31.1422825445
 11
155.412804528
 21
30.9487004259
  0
LINE
  8
0
 62
7
  6
CONTINUOUS
 10
155.7018665869
 20
30.8519093441
 11
155.7018665869
 21
31.3681283946
  0
LINE
  8
0
 62
7
  6
CONTINUOUS
 10
155.9671844304
 20
32.3970785186
 11
155.9671844304
 21
34.2003572071
  0
LINE
  8
0
 62
7
  6
CONTINUOUS
 10
155.9671844304
 20
35.511832617
 11
155.9671844304
 21
36.1675703219
  0
LINE
  8
0
 62
7
  6
CONTINUOUS
 10
156.279992028
 20
32.1101932727
 11
156.279992028
 21
31.9488748406
  0
LINE
  8
0
 62
7
  6
CONTINUOUS
 10
156.279992028
 20
31.626237886
 11
156.279992028
 21
30.5937998301
  0
LINE
  8
0
 62
7
  6
CONTINUOUS
 10
156.5690540869
 20
30.5937998301
 11
156.5690540869
 21
31.626237886
  0
LINE
  8
0
 62
7
  6
CONTINUOUS
 10
156.5690540869
 20
31.9488748406
 11
156.5690540869
 21
32.1101932727
  0
LINE
  8
0
 62
7
  6
CONTINUOUS
 10
151.1346793074
 20
30.9164367395
 11
151.0768668626
 21
30.8196456577
  0
LINE
  8
0
 62
7
  6
CONTINUOUS
 10
153.4471794177
 20
31.400392081
 11
153.3893668074
 21
31.4649194539
  0
LINE
  8
0
 62
7
  6
CONTINUOUS
 10
154.3143669177
 20
30.7873819712
 11
154.2565543074
 21
30.8519093441
  0
LINE
  8
0
 62
7
  6
CONTINUOUS
 10
155.4706168074
 20
30.6583272086
 11
155.5284290869
 21
30.5937998301
  0
LINE
  8
0
 62
7
  6
CONTINUOUS
 10
155.412804528
 20
30.7551182848
 11
155.4706168074
 21
30.6583272086
  0
LINE
  8
0
 62
7
  6
CONTINUOUS
 10
155.8174918074
 20
30.5937998301
 11
155.759679528
 21
30.6905909007
  0
LINE
  8
0
 62
7
  6
CONTINUOUS
 10
155.7018665869
 20
31.3681283946
 11
155.6440543074
 21
31.4649194539
  0
LINE
  8
0
 62
7
  6
CONTINUOUS
 10
157.0315543074
 20
31.626237886
 11
157.0315543074
 21
30.5937998301
  0
LINE
  8
0
 62
7
  6
CONTINUOUS
 10
157.320617028
 20
30.5937998301
 11
157.320617028
 21
31.3358647082
  0
LINE
  8
0
 62
7
  6
CONTINUOUS
 10
157.320617028
 20
31.4649194539
 11
157.320617028
 21
31.626237886
  0
LINE
  8
0
 62
7
  6
CONTINUOUS
 10
157.852430332
 20
34.6101932727
 11
157.852430332
 21
32.3970785186
  0
LINE
  8
0
 62
7
  6
CONTINUOUS
 10
149.7471793074
 20
31.4326557675
 11
149.6315543091
 21
31.3036010218
  0
LINE
  8
0
 62
7
  6
CONTINUOUS
 10
149.9206168074
 20
31.2713373354
 11
149.9784292936
 21
31.3358647082
  0
LINE
  8
0
 62
7
  6
CONTINUOUS
 10
149.7471793074
 20
30.7873819712
 11
149.8628043005
 21
30.7228545871
  0
LINE
  8
0
 62
7
  6
CONTINUOUS
 10
150.1518667936
 20
30.7873819712
 11
149.9784292936
 21
30.8841730531
  0
LINE
  8
0
 62
7
  6
CONTINUOUS
 10
155.3549915869
 20
31.4326557675
 11
155.412804528
 21
31.3681283946
  0
LINE
  8
0
 62
7
  6
CONTINUOUS
 10
158.3034290869
 20
31.3681283946
 11
158.361242028
 21
31.2068099625
  0
LINE
  8
0
 62
7
  6
CONTINUOUS
 10
158.6503040869
 20
31.2068099625
 11
158.5924918074
 21
31.3681283946
  0
LINE
  8
0
 62
7
  6
CONTINUOUS
 10
158.361242028
 20
31.2068099625
 11
158.361242028
 21
30.5937998301
  0
LINE
  8
0
 62
7
  6
CONTINUOUS
 10
158.6503040869
 20
30.5937998301
 11
158.6503040869
 21
31.2068099625
  0
LINE
  8
0
 62
7
  6
CONTINUOUS
 10
159.1128043074
 20
31.4326557675
 11
159.1128043074
 21
31.3681283946
  0
LINE
  8
0
 62
7
  6
CONTINUOUS
 10
159.245872955
 20
32.3970785186
 11
159.245872955
 21
34.5282260596
  0
LINE
  8
0
 62
7
  6
CONTINUOUS
 10
159.5737418074
 20
36.1675703219
 11
159.5737418074
 21
32.3970785186
  0
LINE
  8
0
 62
7
  6
CONTINUOUS
 10
154.2565543074
 20
30.9164367395
 11
154.3143669177
 21
31.0132277988
  0
LINE
  8
0
 62
7
  6
CONTINUOUS
 10
149.8628043005
 20
30.7228545871
 11
150.0362418212
 21
30.6583272086
  0
LINE
  8
0
 62
7
  6
CONTINUOUS
 10
151.3659292523
 20
31.4326557675
 11
151.1924917523
 21
31.5294468267
  0
LINE
  8
0
 62
7
  6
CONTINUOUS
 10
154.0253041972
 20
30.7551182848
 11
154.1987416972
 21
30.6583272086
  0
LINE
  8
0
 62
7
  6
CONTINUOUS
 10
153.0424918074
 20
31.4326557675
 11
153.1581166972
 21
31.3681283946
  0
LINE
  8
0
 62
7
  6
CONTINUOUS
 10
153.3893668074
 20
31.4649194539
 11
153.2737419177
 21
31.5294468267
  0
LINE
  8
0
 62
7
  6
CONTINUOUS
 10
159.1128043074
 20
30.8519093441
 11
159.228429528
 21
30.7228545871
  0
LINE
  8
0
 62
7
  6
CONTINUOUS
 10
159.4596793074
 20
30.7873819712
 11
159.401867028
 21
30.8519093441
  0
LINE
  8
0
 62
7
  6
CONTINUOUS
 10
159.1128043074
 20
31.3681283946
 11
159.228429528
 21
31.2390736489
  0
LINE
  8
0
 62
7
  6
CONTINUOUS
 10
158.5924918074
 20
31.3681283946
 11
158.534679528
 21
31.4649194539
  0
LINE
  8
0
 62
7
  6
CONTINUOUS
 10
160.9628038663
 20
30.7873819712
 11
160.9628038663
 21
30.8519093441
  0
LINE
  8
0
 62
7
  6
CONTINUOUS
 10
160.9671844304
 20
32.3970785186
 11
160.9671844304
 21
36.1675703219
  0
LINE
  8
0
 62
7
  6
CONTINUOUS
 10
154.0253041972
 20
31.4971831403
 11
153.9674919177
 21
31.4326557675
  0
LINE
  8
0
 62
7
  6
CONTINUOUS
 10
150.9034292799
 20
31.4649194539
 11
151.0768668626
 21
31.400392081
  0
LINE
  8
0
 62
7
  6
CONTINUOUS
 10
155.6440543074
 20
31.4649194539
 11
155.5284290869
 21
31.5294468267
  0
LINE
  8
0
 62
7
  6
CONTINUOUS
 10
159.4596793074
 20
31.3036010218
 11
159.401867028
 21
31.3681283946
  0
LINE
  8
0
 62
7
  6
CONTINUOUS
 10
160.615929528
 20
30.9164367395
 11
160.6737418074
 21
30.8519093441
  0
LINE
  8
0
 62
7
  6
CONTINUOUS
 10
160.9628038663
 20
30.8519093441
 11
160.8471793074
 21
30.9809641124
  0
LINE
  8
0
 62
7
  6
CONTINUOUS
 10
160.615929528
 20
31.4326557675
 11
160.6737418074
 21
31.3681283946
  0
LINE
  8
0
 62
7
  6
CONTINUOUS
 10
160.9628038663
 20
31.3681283946
 11
160.8471793074
 21
31.4971831403
  0
LINE
  8
0
 62
7
  6
CONTINUOUS
 10
154.2565543074
 20
31.3681283946
 11
154.3143669177
 21
31.4326557675
  0
LINE
  8
0
 62
7
  6
CONTINUOUS
 10
154.0831168074
 20
31.1100188581
 11
153.9674919177
 21
30.9809641124
  0
LINE
  8
0
 62
7
  6
CONTINUOUS
 10
155.412804528
 20
30.9487004259
 11
155.3549915869
 21
30.8841730531
  0
LINE
  8
0
 62
7
  6
CONTINUOUS
 10
155.3549915869
 20
30.6905909007
 11
155.412804528
 21
30.7551182848
  0
LINE
  8
0
 62
7
  6
CONTINUOUS
 10
154.1987416972
 20
30.6583272086
 11
154.3143669177
 21
30.6260635193
  0
LINE
  8
0
 62
7
  6
CONTINUOUS
 10
151.1924917523
 20
31.5294468267
 11
150.9612418074
 21
31.5939741996
  0
LINE
  8
0
 62
7
  6
CONTINUOUS
 10
154.5456166972
 20
30.7228545871
 11
154.3143669177
 21
30.7873819712
  0
LINE
  8
0
 62
7
  6
CONTINUOUS
 10
153.2737419177
 20
31.5294468267
 11
153.1003044177
 21
31.5939741996
  0
LINE
  8
0
 62
7
  6
CONTINUOUS
 10
155.5284290869
 20
31.5294468267
 11
155.3549915869
 21
31.5939741996
  0
LINE
  8
0
 62
7
  6
CONTINUOUS
 10
158.187804528
 20
31.4326557675
 11
158.3034290869
 21
31.3681283946
  0
LINE
  8
0
 62
7
  6
CONTINUOUS
 10
158.534679528
 20
31.4649194539
 11
158.4190543074
 21
31.5294468267
  0
LINE
  8
0
 62
7
  6
CONTINUOUS
 10
150.0362418212
 20
30.6583272086
 11
150.2096793212
 21
30.6260635193
  0
LINE
  8
0
 62
7
  6
CONTINUOUS
 10
150.498741835
 20
30.7228545871
 11
150.1518667936
 21
30.7873819712
  0
LINE
  8
0
 62
7
  6
CONTINUOUS
 10
152.9268669177
 20
31.4649194539
 11
153.0424918074
 21
31.4326557675
  0
LINE
  8
0
 62
7
  6
CONTINUOUS
 10
155.239367028
 20
31.4649194539
 11
155.3549915869
 21
31.4326557675
  0
LINE
  8
0
 62
7
  6
CONTINUOUS
 10
159.575304528
 20
30.7551182848
 11
159.4596793074
 21
30.7873819712
  0
LINE
  8
0
 62
7
  6
CONTINUOUS
 10
158.0721793074
 20
31.4649194539
 11
158.187804528
 21
31.4326557675
  0
LINE
  8
0
 62
7
  6
CONTINUOUS
 10
159.228429528
 20
30.7228545871
 11
159.401867028
 21
30.6583272086
  0
LINE
  8
0
 62
7
  6
CONTINUOUS
 10
158.4190543074
 20
31.5294468267
 11
158.2456168074
 21
31.5939741996
  0
LINE
  8
0
 62
7
  6
CONTINUOUS
 10
159.6331168074
 20
31.2390736489
 11
159.4596793074
 21
31.3036010218
  0
LINE
  8
0
 62
7
  6
CONTINUOUS
 10
160.442492028
 20
30.9809641124
 11
160.615929528
 21
30.9164367395
  0
LINE
  8
0
 62
7
  6
CONTINUOUS
 10
160.8471793074
 20
31.4971831403
 11
160.6737418074
 21
31.5617105132
  0
LINE
  8
0
 62
7
  6
CONTINUOUS
 10
159.228429528
 20
31.2390736489
 11
159.4596793074
 21
31.1422825445
  0
LINE
  8
0
 62
7
  6
CONTINUOUS
 10
160.8471793074
 20
30.9809641124
 11
160.615929528
 21
31.0777551716
  0
LINE
  8
0
 62
7
  6
CONTINUOUS
 10
159.401867028
 20
31.3681283946
 11
159.4596793074
 21
31.4326557675
  0
LINE
  8
0
 62
7
  6
CONTINUOUS
 10
149.8628043005
 20
31.4971831403
 11
149.7471793074
 21
31.4326557675
  0
LINE
  8
0
 62
7
  6
CONTINUOUS
 10
149.9784292936
 20
31.3358647082
 11
150.1518667936
 21
31.4326557675
  0
LINE
  8
0
 62
7
  6
CONTINUOUS
 10
152.2909293626
 20
31.5294468267
 11
152.1753043074
 21
31.4649194539
  0
LINE
  8
0
 62
7
  6
CONTINUOUS
 10
152.1753043074
 20
31.3358647082
 11
152.2909293626
 21
31.400392081
  0
LINE
  8
0
 62
7
  6
CONTINUOUS
 10
151.1924917523
 20
30.6905909007
 11
151.3659292523
 21
30.7873819712
  0
LINE
  8
0
 62
7
  6
CONTINUOUS
 10
150.2096793212
 20
30.6260635193
 11
150.5565542799
 21
30.5937998301
  0
LINE
  8
0
 62
7
  6
CONTINUOUS
 10
154.3143669177
 20
30.6260635193
 11
154.5456166972
 21
30.5937998301
  0
LINE
  8
0
 62
7
  6
CONTINUOUS
 10
152.6956168074
 20
31.4971831403
 11
152.9268669177
 21
31.4649194539
  0
LINE
  8
0
 62
7
  6
CONTINUOUS
 10
155.0081169177
 20
31.4971831403
 11
155.239367028
 21
31.4649194539
  0
LINE
  8
0
 62
7
  6
CONTINUOUS
 10
159.4596793074
 20
31.1422825445
 11
160.442492028
 21
30.9809641124
  0
LINE
  8
0
 62
7
  6
CONTINUOUS
 10
160.615929528
 20
31.0777551716
 11
159.6331168074
 21
31.2390736489
  0
LINE
  8
0
 62
7
  6
CONTINUOUS
 10
153.1003044177
 20
31.5939741996
 11
152.9268669177
 21
31.626237886
  0
LINE
  8
0
 62
7
  6
CONTINUOUS
 10
159.401867028
 20
30.6583272086
 11
159.575304528
 21
30.6260635193
  0
LINE
  8
0
 62
7
  6
CONTINUOUS
 10
158.2456168074
 20
31.5939741996
 11
158.0721793074
 21
31.626237886
  0
LINE
  8
0
 62
7
  6
CONTINUOUS
 10
160.5003043074
 20
31.4649194539
 11
160.615929528
 21
31.4326557675
  0
LINE
  8
0
 62
7
  6
CONTINUOUS
 10
160.6737418074
 20
30.8519093441
 11
160.615929528
 21
30.7873819712
  0
LINE
  8
0
 62
7
  6
CONTINUOUS
 10
159.228429528
 20
31.5294468267
 11
159.1128043074
 21
31.4326557675
  0
LINE
  8
0
 62
7
  6
CONTINUOUS
 10
154.1409294177
 20
31.5617105132
 11
154.0253041972
 21
31.4971831403
  0
LINE
  8
0
 62
7
  6
CONTINUOUS
 10
154.1987416972
 20
31.1745462761
 11
154.0831168074
 21
31.1100188581
  0
LINE
  8
0
 62
7
  6
CONTINUOUS
 10
154.3143669177
 20
31.0132277988
 11
154.4299918074
 21
31.0777551716
  0
LINE
  8
0
 62
7
  6
CONTINUOUS
 10
151.8862417523
 20
30.5937998301
 11
152.1753043074
 21
30.5937998301
  0
LINE
  8
0
 62
7
  6
CONTINUOUS
 10
153.2159293074
 20
30.5937998301
 11
153.5049916972
 21
30.5937998301
  0
LINE
  8
0
 62
7
  6
CONTINUOUS
 10
154.5456166972
 20
30.5937998301
 11
154.8924916972
 21
30.5937998301
  0
LINE
  8
0
 62
7
  6
CONTINUOUS
 10
155.5284290869
 20
30.5937998301
 11
155.8174918074
 21
30.5937998301
  0
LINE
  8
0
 62
7
  6
CONTINUOUS
 10
156.279992028
 20
30.5937998301
 11
156.5690540869
 21
30.5937998301
  0
LINE
  8
0
 62
7
  6
CONTINUOUS
 10
157.0315543074
 20
30.5937998301
 11
157.320617028
 21
30.5937998301
  0
LINE
  8
0
 62
7
  6
CONTINUOUS
 10
158.361242028
 20
30.5937998301
 11
158.6503040869
 21
30.5937998301
  0
LINE
  8
0
 62
7
  6
CONTINUOUS
 10
159.922179528
 20
30.5937998301
 11
160.269054528
 21
30.5937998301
  0
LINE
  8
0
 62
7
  6
CONTINUOUS
 10
160.269054528
 20
30.7228545871
 11
159.922179528
 21
30.7228545871
  0
LINE
  8
0
 62
7
  6
CONTINUOUS
 10
154.8924916972
 20
30.7228545871
 11
154.5456166972
 21
30.7228545871
  0
LINE
  8
0
 62
7
  6
CONTINUOUS
 10
159.401867028
 20
30.8519093441
 11
159.1128043074
 21
30.8519093441
  0
LINE
  8
0
 62
7
  6
CONTINUOUS
 10
151.4237418626
 20
30.9164367395
 11
151.1346793074
 21
30.9164367395
  0
LINE
  8
0
 62
7
  6
CONTINUOUS
 10
150.498741835
 20
31.4971831403
 11
150.9034292799
 21
31.4649194539
  0
LINE
  8
0
 62
7
  6
CONTINUOUS
 10
150.9612418074
 20
31.5939741996
 11
150.5565542799
 21
31.626237886
  0
LINE
  8
0
 62
7
  6
CONTINUOUS
 10
159.575304528
 20
30.6260635193
 11
159.922179528
 21
30.5937998301
  0
LINE
  8
0
 62
7
  6
CONTINUOUS
 10
159.922179528
 20
30.7228545871
 11
159.575304528
 21
30.7551182848
  0
LINE
  8
0
 62
7
  6
CONTINUOUS
 10
155.3549915869
 20
31.5939741996
 11
155.0081169177
 21
31.626237886
  0
LINE
  8
0
 62
7
  6
CONTINUOUS
 10
160.1534293074
 20
31.4971831403
 11
160.5003043074
 21
31.4649194539
  0
LINE
  8
0
 62
7
  6
CONTINUOUS
 10
160.5003043074
 20
31.5939741996
 11
160.1534293074
 21
31.626237886
  0
LINE
  8
0
 62
7
  6
CONTINUOUS
 10
157.840929528
 20
31.4971831403
 11
158.0721793074
 21
31.4649194539
  0
LINE
  8
0
 62
7
  6
CONTINUOUS
 10
160.6737418074
 20
31.5617105132
 11
160.5003043074
 21
31.5939741996
  0
LINE
  8
0
 62
7
  6
CONTINUOUS
 10
160.8471793074
 20
30.6905909007
 11
160.9628038663
 21
30.7873819712
  0
LINE
  8
0
 62
7
  6
CONTINUOUS
 10
155.3549915869
 20
30.8841730531
 11
155.1815540869
 21
30.7873819712
  0
LINE
  8
0
 62
7
  6
CONTINUOUS
 10
157.4362415869
 20
31.5294468267
 11
157.320617028
 21
31.4649194539
  0
LINE
  8
0
 62
7
  6
CONTINUOUS
 10
157.320617028
 20
31.3358647082
 11
157.4362415869
 21
31.400392081
  0
LINE
  8
0
 62
7
  6
CONTINUOUS
 10
150.0362418212
 20
31.5617105132
 11
149.8628043005
 21
31.4971831403
  0
LINE
  8
0
 62
7
  6
CONTINUOUS
 10
152.4643666972
 20
31.5939741996
 11
152.2909293626
 21
31.5294468267
  0
LINE
  8
0
 62
7
  6
CONTINUOUS
 10
152.2909293626
 20
31.400392081
 11
152.4643666972
 21
31.4649194539
  0
LINE
  8
0
 62
7
  6
CONTINUOUS
 10
151.0768668626
 20
30.8196456577
 11
150.9034292799
 21
30.7551182848
  0
LINE
  8
0
 62
7
  6
CONTINUOUS
 10
160.5003043074
 20
30.7551182848
 11
160.269054528
 21
30.7228545871
  0
LINE
  8
0
 62
7
  6
CONTINUOUS
 10
154.8924916972
 20
30.5937998301
 11
155.1815540869
 21
30.6260635193
  0
LINE
  8
0
 62
7
  6
CONTINUOUS
 10
160.269054528
 20
30.5937998301
 11
160.615929528
 21
30.6260635193
  0
LINE
  8
0
 62
7
  6
CONTINUOUS
 10
150.5565542799
 20
30.5937998301
 11
150.9612418074
 21
30.6260635193
  0
LINE
  8
0
 62
7
  6
CONTINUOUS
 10
150.9034292799
 20
30.7551182848
 11
150.498741835
 21
30.7228545871
  0
LINE
  8
0
 62
7
  6
CONTINUOUS
 10
154.7768668074
 20
31.1422825445
 11
155.412804528
 21
31.1422825445
  0
LINE
  8
0
 62
7
  6
CONTINUOUS
 10
155.412804528
 20
31.2713373354
 11
154.7768668074
 21
31.2713373354
  0
LINE
  8
0
 62
7
  6
CONTINUOUS
 10
151.1346793074
 20
31.3036010218
 11
151.4237418626
 21
31.3036010218
  0
LINE
  8
0
 62
7
  6
CONTINUOUS
 10
153.9674919177
 20
31.3681283946
 11
154.2565543074
 21
31.3681283946
  0
LINE
  8
0
 62
7
  6
CONTINUOUS
 10
160.6737418074
 20
31.3681283946
 11
160.9628038663
 21
31.3681283946
  0
LINE
  8
0
 62
7
  6
CONTINUOUS
 10
154.6612419177
 20
31.4971831403
 11
155.0081169177
 21
31.4971831403
  0
LINE
  8
0
 62
7
  6
CONTINUOUS
 10
159.8065543074
 20
31.4971831403
 11
160.1534293074
 21
31.4971831403
  0
LINE
  8
0
 62
7
  6
CONTINUOUS
 10
160.1534293074
 20
31.626237886
 11
159.8065543074
 21
31.626237886
  0
LINE
  8
0
 62
7
  6
CONTINUOUS
 10
158.0721793074
 20
31.626237886
 11
157.840929528
 21
31.626237886
  0
LINE
  8
0
 62
7
  6
CONTINUOUS
 10
157.320617028
 20
31.626237886
 11
157.0315543074
 21
31.626237886
  0
LINE
  8
0
 62
7
  6
CONTINUOUS
 10
156.5690540869
 20
31.626237886
 11
156.279992028
 21
31.626237886
  0
LINE
  8
0
 62
7
  6
CONTINUOUS
 10
155.0081169177
 20
31.626237886
 11
154.6612419177
 21
31.626237886
  0
LINE
  8
0
 62
7
  6
CONTINUOUS
 10
152.9268669177
 20
31.626237886
 11
152.6956168074
 21
31.626237886
  0
LINE
  8
0
 62
7
  6
CONTINUOUS
 10
156.279992028
 20
31.9488748406
 11
156.5690540869
 21
31.9488748406
  0
LINE
  8
0
 62
7
  6
CONTINUOUS
 10
156.5690540869
 20
32.1101932727
 11
156.279992028
 21
32.1101932727
  0
LINE
  8
0
 62
7
  6
CONTINUOUS
 10
152.1753043074
 20
32.1101932727
 11
151.8862417523
 21
32.1101932727
  0
LINE
  8
0
 62
7
  6
CONTINUOUS
 10
151.2130860697
 20
32.3970785186
 11
151.6256574183
 21
32.3970785186
  0
LINE
  8
0
 62
7
  6
CONTINUOUS
 10
152.852430332
 20
32.3970785186
 11
154.245872955
 21
32.3970785186
  0
LINE
  8
0
 62
7
  6
CONTINUOUS
 10
154.5737418074
 20
32.3970785186
 11
155.9671844304
 21
32.3970785186
  0
LINE
  8
0
 62
7
  6
CONTINUOUS
 10
157.852430332
 20
32.3970785186
 11
159.245872955
 21
32.3970785186
  0
LINE
  8
0
 62
7
  6
CONTINUOUS
 10
159.5737418074
 20
32.3970785186
 11
160.9671844304
 21
32.3970785186
  0
LINE
  8
0
 62
7
  6
CONTINUOUS
 10
157.6096790869
 20
31.5939741996
 11
157.4362415869
 21
31.5294468267
  0
LINE
  8
0
 62
7
  6
CONTINUOUS
 10
155.1815540869
 20
30.6260635193
 11
155.3549915869
 21
30.6905909007
  0
LINE
  8
0
 62
7
  6
CONTINUOUS
 10
160.615929528
 20
30.6260635193
 11
160.8471793074
 21
30.6905909007
  0
LINE
  8
0
 62
7
  6
CONTINUOUS
 10
160.615929528
 20
30.7873819712
 11
160.5003043074
 21
30.7551182848
  0
LINE
  8
0
 62
7
  6
CONTINUOUS
 10
159.575304528
 20
31.4649194539
 11
159.8065543074
 21
31.4971831403
  0
LINE
  8
0
 62
7
  6
CONTINUOUS
 10
157.6096790869
 20
31.4649194539
 11
157.840929528
 21
31.4971831403
  0
LINE
  8
0
 62
7
  6
CONTINUOUS
 10
154.5456166972
 20
31.1100188581
 11
154.7768668074
 21
31.1422825445
  0
LINE
  8
0
 62
7
  6
CONTINUOUS
 10
157.840929528
 20
31.626237886
 11
157.6096790869
 21
31.5939741996
  0
LINE
  8
0
 62
7
  6
CONTINUOUS
 10
154.4299918074
 20
31.4649194539
 11
154.6612419177
 21
31.4971831403
  0
LINE
  8
0
 62
7
  6
CONTINUOUS
 10
159.8065543074
 20
31.626237886
 11
159.4596793074
 21
31.5939741996
  0
LINE
  8
0
 62
7
  6
CONTINUOUS
 10
154.7768668074
 20
31.2713373354
 11
154.4299918074
 21
31.2390736489
  0
LINE
  8
0
 62
7
  6
CONTINUOUS
 10
150.5565542799
 20
31.626237886
 11
150.2096793212
 21
31.5939741996
  0
LINE
  8
0
 62
7
  6
CONTINUOUS
 10
154.6612419177
 20
31.626237886
 11
154.2565543074
 21
31.5939741996
  0
LINE
  8
0
 62
7
  6
CONTINUOUS
 10
152.0327582009
 20
33.5446195022
 11
151.3770204959
 21
33.5446195022
  0
LINE
  8
0
 62
7
  6
CONTINUOUS
 10
157.4362415869
 20
31.400392081
 11
157.6096790869
 21
31.4649194539
  0
LINE
  8
0
 62
7
  6
CONTINUOUS
 10
159.4596793074
 20
31.4326557675
 11
159.575304528
 21
31.4649194539
  0
LINE
  8
0
 62
7
  6
CONTINUOUS
 10
159.4596793074
 20
31.5939741996
 11
159.228429528
 21
31.5294468267
  0
LINE
  8
0
 62
7
  6
CONTINUOUS
 10
155.1815540869
 20
30.7873819712
 11
154.8924916972
 21
30.7228545871
  0
LINE
  8
0
 62
7
  6
CONTINUOUS
 10
152.4643666972
 20
31.4649194539
 11
152.6956168074
 21
31.4971831403
  0
LINE
  8
0
 62
7
  6
CONTINUOUS
 10
152.6956168074
 20
31.626237886
 11
152.4643666972
 21
31.5939741996
  0
LINE
  8
0
 62
7
  6
CONTINUOUS
 10
150.2674918074
 20
31.4649194539
 11
150.498741835
 21
31.4971831403
  0
LINE
  8
0
 62
7
  6
CONTINUOUS
 10
156.7868565615
 20
35.0200293383
 11
157.4425942664
 21
35.0200293383
  0
LINE
  8
0
 62
7
  6
CONTINUOUS
 10
154.4299918074
 20
31.0777551716
 11
154.5456166972
 21
31.1100188581
  0
LINE
  8
0
 62
7
  6
CONTINUOUS
 10
154.4299918074
 20
31.2390736489
 11
154.1987416972
 21
31.1745462761
  0
LINE
  8
0
 62
7
  6
CONTINUOUS
 10
154.3143669177
 20
31.4326557675
 11
154.4299918074
 21
31.4649194539
  0
LINE
  8
0
 62
7
  6
CONTINUOUS
 10
150.9612418074
 20
30.6260635193
 11
151.1924917523
 21
30.6905909007
  0
LINE
  8
0
 62
7
  6
CONTINUOUS
 10
154.2565543074
 20
31.5939741996
 11
154.1409294177
 21
31.5617105132
  0
LINE
  8
0
 62
7
  6
CONTINUOUS
 10
150.2096793212
 20
31.5939741996
 11
150.0362418212
 21
31.5617105132
  0
LINE
  8
0
 62
7
  6
CONTINUOUS
 10
160.9671844304
 20
36.1675703219
 11
159.5737418074
 21
36.1675703219
  0
LINE
  8
0
 62
7
  6
CONTINUOUS
 10
157.6065286927
 20
36.1675703219
 11
157.1939573441
 21
36.1675703219
  0
LINE
  8
0
 62
7
  6
CONTINUOUS
 10
155.9671844304
 20
36.1675703219
 11
154.5737418074
 21
36.1675703219
  0
LINE
  8
0
 62
7
  6
CONTINUOUS
 10
154.245872955
 20
36.1675703219
 11
152.852430332
 21
36.1675703219
  0
LINE
  8
0
 62
7
  6
CONTINUOUS
 10
150.9671844304
 20
36.1675703219
 11
149.5737418074
 21
36.1675703219
  0
LINE
  8
0
 62
7
  6
CONTINUOUS
 10
150.1518667936
 20
31.4326557675
 11
150.2674918074
 21
31.4649194539
  0
CIRCLE
  8
0
 62
7
  6
CONTINUOUS
 10
160.2704631189
 20
38.5036358957
 40
2.0901639344
  0
ARC
  8
0
 62
7
  6
CONTINUOUS
 10
151.2130860697
 20
34.0364227809
 40
1.6393442623
 50
180.0
 51
270.0
  0
ARC
  8
0
 62
7
  6
CONTINUOUS
 10
157.6065286927
 20
34.5282260596
 40
1.6393442623
 50
0.0
 51
90.0
  0
ARC
  8
0
 62
7
  6
CONTINUOUS
 10
151.6256574183
 20
33.8724883547
 40
1.4754098361
 50
270.0
 51
326.2510114041
  0
ARC
  8
0
 62
7
  6
CONTINUOUS
 10
157.1939573441
 20
34.6921604858
 40
1.4754098361
 50
90.0
 51
146.2510114041
  0
ARC
  8
0
 62
7
  6
CONTINUOUS
 10
152.0327582009
 20
34.3642916334
 40
0.8196721311
 50
270.0
 51
360.0
  0
ARC
  8
0
 62
7
  6
CONTINUOUS
 10
156.7868565615
 20
34.2003572071
 40
0.8196721311
 50
90.0
 51
180.0
  0
ARC
  8
0
 62
7
  6
CONTINUOUS
 10
151.3770204959
 20
33.9544555678
 40
0.4098360656
 50
180.0
 51
270.0
  0
ARC
  8
0
 62
7
  6
CONTINUOUS
 10
157.4425942664
 20
34.6101932727
 40
0.4098360656
 50
0.0
 51
90.0
  0
SOLID
  8
0
 62
7
  6
CONTINUOUS
 10
156.279992028
 20
31.9488752009
 11
156.279992028
 21
32.1101936845
 12
156.5690540869
 22
31.9488752009
 13
156.5690540869
 23
32.1101936845
  0
SOLID
  8
0
 62
7
  6
CONTINUOUS
 10
150.5565542799
 20
31.6262382337
 11
150.9612418074
 21
31.5939740028
 12
150.2096793212
 22
31.5939740028
 13
150.2096793212
 23
31.5939740028
  0
SOLID
  8
0
 62
7
  6
CONTINUOUS
 10
150.0362418212
 20
31.5617111435
 11
150.2096793212
 21
31.5939740028
 12
150.9612418074
 22
31.5939740028
 13
150.9612418074
 23
31.5939740028
  0
SOLID
  8
0
 62
7
  6
CONTINUOUS
 10
150.9612418074
 20
31.5939740028
 11
151.1924917523
 21
31.5294468402
 12
150.0362418212
 22
31.5617111435
 13
150.0362418212
 23
31.5617111435
  0
SOLID
  8
0
 62
7
  6
CONTINUOUS
 10
149.8628043005
 20
31.49718259
 11
150.0362418212
 21
31.5617111435
 12
151.1924917523
 22
31.5294468402
 13
151.1924917523
 23
31.5294468402
  0
SOLID
  8
0
 62
7
  6
CONTINUOUS
 10
149.8628043005
 20
31.49718259
 11
151.1924917523
 21
31.5294468402
 12
150.498741835
 22
31.49718259
 13
150.498741835
 23
31.49718259
  0
SOLID
  8
0
 62
7
  6
CONTINUOUS
 10
150.498741835
 20
31.49718259
 11
151.1924917523
 21
31.5294468402
 12
150.9034292799
 22
31.4649197501
 13
150.9034292799
 23
31.4649197501
  0
SOLID
  8
0
 62
7
  6
CONTINUOUS
 10
151.1924917523
 20
31.5294468402
 11
151.3659292523
 21
31.4326554468
 12
150.9034292799
 22
31.4649197501
 13
150.9034292799
 23
31.4649197501
  0
SOLID
  8
0
 62
7
  6
CONTINUOUS
 10
151.0768668626
 20
31.4003926599
 11
150.9034292799
 21
31.4649197501
 12
151.3659292523
 22
31.4326554468
 13
151.3659292523
 23
31.4326554468
  0
SOLID
  8
0
 62
7
  6
CONTINUOUS
 10
151.0768668626
 20
31.4003926599
 11
151.3659292523
 21
31.4326554468
 12
151.1346793074
 22
31.3036013776
 13
151.1346793074
 23
31.3036013776
  0
SOLID
  8
0
 62
7
  6
CONTINUOUS
 10
151.3659292523
 20
31.4326554468
 11
151.4237418626
 21
31.3036013776
 12
151.1346793074
 22
31.3036013776
 13
151.1346793074
 23
31.3036013776
  0
SOLID
  8
0
 62
7
  6
CONTINUOUS
 10
152.4643666972
 20
31.5939739754
 11
152.6956168074
 21
31.6262382787
 12
152.9268669177
 22
31.6262382787
 13
152.9268669177
 23
31.6262382787
  0
SOLID
  8
0
 62
7
  6
CONTINUOUS
 10
152.9268669177
 20
31.6262382787
 11
153.1003044177
 21
31.5939739754
 12
152.4643666972
 22
31.5939739754
 13
152.4643666972
 23
31.5939739754
  0
SOLID
  8
0
 62
7
  6
CONTINUOUS
 10
152.2909293626
 20
31.5294468852
 11
152.4643666972
 21
31.5939739754
 12
153.1003044177
 22
31.5939739754
 13
153.1003044177
 23
31.5939739754
  0
SOLID
  8
0
 62
7
  6
CONTINUOUS
 10
153.1003044177
 20
31.5939739754
 11
153.2737419177
 21
31.5294468852
 12
152.2909293626
 22
31.5294468852
 13
152.2909293626
 23
31.5294468852
  0
SOLID
  8
0
 62
7
  6
CONTINUOUS
 10
153.2737419177
 20
31.5294468852
 11
152.6956168074
 21
31.4971825369
 12
152.2909293626
 22
31.5294468852
 13
152.2909293626
 23
31.5294468852
  0
SOLID
  8
0
 62
7
  6
CONTINUOUS
 10
152.1753043074
 20
31.4649197951
 11
152.2909293626
 21
31.5294468852
 12
152.6956168074
 22
31.4971825369
 13
152.6956168074
 23
31.4971825369
  0
SOLID
  8
0
 62
7
  6
CONTINUOUS
 10
152.6956168074
 20
31.4971825369
 11
152.4643666972
 21
31.4649197951
 12
152.1753043074
 22
31.4649197951
 13
152.1753043074
 23
31.4649197951
  0
SOLID
  8
0
 62
7
  6
CONTINUOUS
 10
152.6956168074
 20
31.4971825369
 11
153.2737419177
 21
31.5294468852
 12
152.9268669177
 22
31.4649197951
 13
152.9268669177
 23
31.4649197951
  0
SOLID
  8
0
 62
7
  6
CONTINUOUS
 10
153.2737419177
 20
31.5294468852
 11
153.3893668074
 21
31.4649197951
 12
152.9268669177
 22
31.4649197951
 13
152.9268669177
 23
31.4649197951
  0
SOLID
  8
0
 62
7
  6
CONTINUOUS
 10
153.0424918074
 20
31.4326554468
 11
152.9268669177
 21
31.4649197951
 12
153.3893668074
 22
31.4649197951
 13
153.3893668074
 23
31.4649197951
  0
SOLID
  8
0
 62
7
  6
CONTINUOUS
 10
153.3893668074
 20
31.4649197951
 11
153.4471794177
 21
31.4003927049
 12
153.0424918074
 22
31.4326554468
 13
153.0424918074
 23
31.4326554468
  0
SOLID
  8
0
 62
7
  6
CONTINUOUS
 10
153.1581166972
 20
31.3681283566
 11
153.0424918074
 21
31.4326554468
 12
153.4471794177
 22
31.4003927049
 13
153.4471794177
 23
31.4003927049
  0
SOLID
  8
0
 62
7
  6
CONTINUOUS
 10
153.1581166972
 20
31.3681283566
 11
153.4471794177
 21
31.4003927049
 12
153.2159293074
 22
31.2390742213
 13
153.2159293074
 23
31.2390742213
  0
SOLID
  8
0
 62
7
  6
CONTINUOUS
 10
153.4471794177
 20
31.4003927049
 11
153.5049916972
 21
31.2390742213
 12
153.2159293074
 22
31.2390742213
 13
153.2159293074
 23
31.2390742213
  0
SOLID
  8
0
 62
7
  6
CONTINUOUS
 10
152.4643666972
 20
31.4649197951
 11
152.2909293626
 21
31.4003927049
 12
152.1753043074
 22
31.4649197951
 13
152.1753043074
 23
31.4649197951
  0
SOLID
  8
0
 62
7
  6
CONTINUOUS
 10
152.2909293626
 20
31.4003927049
 11
152.1753043074
 21
31.3358640533
 12
152.1753043074
 22
31.4649197951
 13
152.1753043074
 23
31.4649197951
  0
SOLID
  8
0
 62
7
  6
CONTINUOUS
 10
152.1753043074
 20
31.3358640533
 11
151.8862417523
 21
30.5938002869
 12
152.1753043074
 22
31.4649197951
 13
152.1753043074
 23
31.4649197951
  0
SOLID
  8
0
 62
7
  6
CONTINUOUS
 10
152.1753043074
 20
31.4649197951
 11
151.8862417523
 21
30.5938002869
 12
152.1753043074
 22
32.1101937295
 13
152.1753043074
 23
32.1101937295
  0
SOLID
  8
0
 62
7
  6
CONTINUOUS
 10
151.8862417523
 20
30.5938002869
 11
151.8862417523
 21
32.1101937295
 12
152.1753043074
 22
32.1101937295
 13
152.1753043074
 23
32.1101937295
  0
SOLID
  8
0
 62
7
  6
CONTINUOUS
 10
152.1753043074
 20
31.3358640533
 11
152.1753043074
 21
30.5938002869
 12
151.8862417523
 22
30.5938002869
 13
151.8862417523
 23
30.5938002869
  0
SOLID
  8
0
 62
7
  6
CONTINUOUS
 10
153.2159293074
 20
30.5938002869
 11
153.2159293074
 21
31.2390742213
 12
153.5049916972
 22
31.2390742213
 13
153.5049916972
 23
31.2390742213
  0
SOLID
  8
0
 62
7
  6
CONTINUOUS
 10
153.5049916972
 20
31.2390742213
 11
153.5049916972
 21
30.5938002869
 12
153.2159293074
 22
30.5938002869
 13
153.2159293074
 23
30.5938002869
  0
SOLID
  8
0
 62
7
  6
CONTINUOUS
 10
154.2565543074
 20
31.5939738288
 11
154.6612419177
 21
31.6262385959
 12
155.0081169177
 22
31.6262385959
 13
155.0081169177
 23
31.6262385959
  0
SOLID
  8
0
 62
7
  6
CONTINUOUS
 10
155.0081169177
 20
31.6262385959
 11
155.3549915869
 21
31.5939738288
 12
154.2565543074
 22
31.5939738288
 13
154.2565543074
 23
31.5939738288
  0
SOLID
  8
0
 62
7
  6
CONTINUOUS
 10
154.1409294177
 20
31.5617111435
 11
154.2565543074
 21
31.5939738288
 12
155.3549915869
 22
31.5939738288
 13
155.3549915869
 23
31.5939738288
  0
SOLID
  8
0
 62
7
  6
CONTINUOUS
 10
155.3549915869
 20
31.5939738288
 11
155.5284290869
 21
31.5294468402
 12
154.1409294177
 22
31.5617111435
 13
154.1409294177
 23
31.5617111435
  0
SOLID
  8
0
 62
7
  6
CONTINUOUS
 10
154.0253041972
 20
31.4971826249
 11
154.1409294177
 21
31.5617111435
 12
155.5284290869
 22
31.5294468402
 13
155.5284290869
 23
31.5294468402
  0
SOLID
  8
0
 62
7
  6
CONTINUOUS
 10
154.0253041972
 20
31.4971826249
 11
155.5284290869
 21
31.5294468402
 12
154.6612419177
 22
31.4971826249
 13
154.6612419177
 23
31.4971826249
  0
SOLID
  8
0
 62
7
  6
CONTINUOUS
 10
154.6612419177
 20
31.4971826249
 11
155.5284290869
 21
31.5294468402
 12
155.0081169177
 22
31.4971826249
 13
155.0081169177
 23
31.4971826249
  0
SOLID
  8
0
 62
7
  6
CONTINUOUS
 10
155.0081169177
 20
31.4971826249
 11
155.5284290869
 21
31.5294468402
 12
155.239367028
 22
31.4649194065
 13
155.239367028
 23
31.4649194065
  0
SOLID
  8
0
 62
7
  6
CONTINUOUS
 10
155.5284290869
 20
31.5294468402
 11
155.6440543074
 21
31.4649194065
 12
155.239367028
 22
31.4649194065
 13
155.239367028
 23
31.4649194065
  0
SOLID
  8
0
 62
7
  6
CONTINUOUS
 10
153.9674919177
 20
31.4326554138
 11
154.0253041972
 21
31.4971826249
 12
154.6612419177
 22
31.4971826249
 13
154.6612419177
 23
31.4971826249
  0
SOLID
  8
0
 62
7
  6
CONTINUOUS
 10
155.3549915869
 20
31.4326554138
 11
155.239367028
 21
31.4649194065
 12
155.6440543074
 22
31.4649194065
 13
155.6440543074
 23
31.4649194065
  0
SOLID
  8
0
 62
7
  6
CONTINUOUS
 10
155.3549915869
 20
31.4326554138
 11
155.6440543074
 21
31.4649194065
 12
155.412804528
 22
31.3681282026
 13
155.412804528
 23
31.3681282026
  0
SOLID
  8
0
 62
7
  6
CONTINUOUS
 10
155.6440543074
 20
31.4649194065
 11
155.7018665869
 21
31.3681282026
 12
155.412804528
 22
31.3681282026
 13
155.412804528
 23
31.3681282026
  0
SOLID
  8
0
 62
7
  6
CONTINUOUS
 10
155.412804528
 20
31.2713369632
 11
155.412804528
 21
31.3681282026
 12
155.7018665869
 22
31.3681282026
 13
155.7018665869
 23
31.3681282026
  0
SOLID
  8
0
 62
7
  6
CONTINUOUS
 10
155.412804528
 20
31.2713369632
 11
155.7018665869
 21
31.3681282026
 12
155.412804528
 22
31.1422827828
 13
155.412804528
 23
31.1422827828
  0
SOLID
  8
0
 62
7
  6
CONTINUOUS
 10
155.412804528
 20
31.1422827828
 11
155.7018665869
 21
31.3681282026
 12
155.412804528
 22
30.9487004259
 13
155.412804528
 23
30.9487004259
  0
SOLID
  8
0
 62
7
  6
CONTINUOUS
 10
155.7018665869
 20
31.3681282026
 11
155.7018665869
 21
30.8519086025
 12
155.412804528
 22
30.9487004259
 13
155.412804528
 23
30.9487004259
  0
SOLID
  8
0
 62
7
  6
CONTINUOUS
 10
157.6096790869
 20
31.5939736268
 11
157.840929528
 21
31.6262383465
 12
158.0721793074
 22
31.6262383465
 13
158.0721793074
 23
31.6262383465
  0
SOLID
  8
0
 62
7
  6
CONTINUOUS
 10
158.0721793074
 20
31.6262383465
 11
158.2456168074
 21
31.5939736268
 12
157.6096790869
 22
31.5939736268
 13
157.6096790869
 23
31.5939736268
  0
SOLID
  8
0
 62
7
  6
CONTINUOUS
 10
157.4362415869
 20
31.5294472848
 11
157.6096790869
 21
31.5939736268
 12
158.2456168074
 22
31.5939736268
 13
158.2456168074
 23
31.5939736268
  0
SOLID
  8
0
 62
7
  6
CONTINUOUS
 10
158.2456168074
 20
31.5939736268
 11
158.4190543074
 21
31.5294472848
 12
157.4362415869
 22
31.5294472848
 13
157.4362415869
 23
31.5294472848
  0
SOLID
  8
0
 62
7
  6
CONTINUOUS
 10
158.4190543074
 20
31.5294472848
 11
157.840929528
 21
31.4971825369
 12
157.4362415869
 22
31.5294472848
 13
157.4362415869
 23
31.5294472848
  0
SOLID
  8
0
 62
7
  6
CONTINUOUS
 10
157.320617028
 20
31.4649199103
 11
157.4362415869
 21
31.5294472848
 12
157.840929528
 22
31.4971825369
 13
157.840929528
 23
31.4971825369
  0
SOLID
  8
0
 62
7
  6
CONTINUOUS
 10
157.840929528
 20
31.4971825369
 11
157.6096790869
 21
31.4649199103
 12
157.320617028
 22
31.4649199103
 13
157.320617028
 23
31.4649199103
  0
SOLID
  8
0
 62
7
  6
CONTINUOUS
 10
157.840929528
 20
31.4971825369
 11
158.4190543074
 21
31.5294472848
 12
158.0721793074
 22
31.4649199103
 13
158.0721793074
 23
31.4649199103
  0
SOLID
  8
0
 62
7
  6
CONTINUOUS
 10
158.4190543074
 20
31.5294472848
 11
158.534679528
 21
31.4649199103
 12
158.0721793074
 22
31.4649199103
 13
158.0721793074
 23
31.4649199103
  0
SOLID
  8
0
 62
7
  6
CONTINUOUS
 10
158.187804528
 20
31.4326554468
 11
158.0721793074
 21
31.4649199103
 12
158.534679528
 22
31.4649199103
 13
158.534679528
 23
31.4649199103
  0
SOLID
  8
0
 62
7
  6
CONTINUOUS
 10
158.187804528
 20
31.4326554468
 11
158.534679528
 21
31.4649199103
 12
158.3034290869
 22
31.3681288486
 13
158.3034290869
 23
31.3681288486
  0
SOLID
  8
0
 62
7
  6
CONTINUOUS
 10
158.534679528
 20
31.4649199103
 11
158.5924918074
 21
31.3681288486
 12
158.3034290869
 22
31.3681288486
 13
158.3034290869
 23
31.3681288486
  0
SOLID
  8
0
 62
7
  6
CONTINUOUS
 10
158.361242028
 20
31.2068093799
 11
158.3034290869
 21
31.3681288486
 12
158.5924918074
 22
31.3681288486
 13
158.5924918074
 23
31.3681288486
  0
SOLID
  8
0
 62
7
  6
CONTINUOUS
 10
158.5924918074
 20
31.3681288486
 11
158.6503040869
 21
31.2068093799
 12
158.361242028
 22
31.2068093799
 13
158.361242028
 23
31.2068093799
  0
SOLID
  8
0
 62
7
  6
CONTINUOUS
 10
157.6096790869
 20
31.4649199103
 11
157.4362415869
 21
31.4003926599
 12
157.320617028
 22
31.4649199103
 13
157.320617028
 23
31.4649199103
  0
SOLID
  8
0
 62
7
  6
CONTINUOUS
 10
157.4362415869
 20
31.4003926599
 11
157.320617028
 21
31.3358640533
 12
157.320617028
 22
31.4649199103
 13
157.320617028
 23
31.4649199103
  0
SOLID
  8
0
 62
7
  6
CONTINUOUS
 10
157.320617028
 20
31.3358640533
 11
157.0315543074
 21
30.5938003547
 12
157.320617028
 22
31.4649199103
 13
157.320617028
 23
31.4649199103
  0
SOLID
  8
0
 62
7
  6
CONTINUOUS
 10
157.320617028
 20
31.4649199103
 11
157.0315543074
 21
30.5938003547
 12
157.320617028
 22
31.6262383465
 13
157.320617028
 23
31.6262383465
  0
SOLID
  8
0
 62
7
  6
CONTINUOUS
 10
157.0315543074
 20
30.5938003547
 11
157.0315543074
 21
31.6262383465
 12
157.320617028
 22
31.6262383465
 13
157.320617028
 23
31.6262383465
  0
SOLID
  8
0
 62
7
  6
CONTINUOUS
 10
157.320617028
 20
31.3358640533
 11
157.320617028
 21
30.5938003547
 12
157.0315543074
 22
30.5938003547
 13
157.0315543074
 23
30.5938003547
  0
SOLID
  8
0
 62
7
  6
CONTINUOUS
 10
158.361242028
 20
30.5938003547
 11
158.361242028
 21
31.2068093799
 12
158.6503040869
 22
31.2068093799
 13
158.6503040869
 23
31.2068093799
  0
SOLID
  8
0
 62
7
  6
CONTINUOUS
 10
158.6503040869
 20
31.2068093799
 11
158.6503040869
 21
30.5938003547
 12
158.361242028
 22
30.5938003547
 13
158.361242028
 23
30.5938003547
  0
SOLID
  8
0
 62
7
  6
CONTINUOUS
 10
159.4596793074
 20
31.5939739474
 11
159.8065543074
 21
31.6262381969
 12
160.1534293074
 22
31.6262381969
 13
160.1534293074
 23
31.6262381969
  0
SOLID
  8
0
 62
7
  6
CONTINUOUS
 10
160.1534293074
 20
31.6262381969
 11
160.5003043074
 21
31.5939739474
 12
159.4596793074
 22
31.5939739474
 13
159.4596793074
 23
31.5939739474
  0
SOLID
  8
0
 62
7
  6
CONTINUOUS
 10
159.228429528
 20
31.5294468402
 11
159.4596793074
 21
31.5939739474
 12
160.5003043074
 22
31.5939739474
 13
160.5003043074
 23
31.5939739474
  0
SOLID
  8
0
 62
7
  6
CONTINUOUS
 10
159.228429528
 20
31.5294468402
 11
160.5003043074
 21
31.5939739304
 12
160.6737418074
 22
31.5617111435
 13
160.6737418074
 23
31.5617111435
  0
SOLID
  8
0
 62
7
  6
CONTINUOUS
 10
159.228429528
 20
31.5294468402
 11
160.6737418074
 21
31.5617111435
 12
159.8065543074
 22
31.4971825592
 13
159.8065543074
 23
31.4971825592
  0
SOLID
  8
0
 62
7
  6
CONTINUOUS
 10
159.8065543074
 20
31.4971825592
 11
160.6737418074
 21
31.5617111435
 12
160.1534293074
 22
31.4971825592
 13
160.1534293074
 23
31.4971825592
  0
SOLID
  8
0
 62
7
  6
CONTINUOUS
 10
160.6737418074
 20
31.5617111435
 11
160.8471793074
 21
31.4971825592
 12
160.1534293074
 22
31.4971825592
 13
160.1534293074
 23
31.4971825592
  0
SOLID
  8
0
 62
7
  6
CONTINUOUS
 10
160.5003043074
 20
31.4649197501
 11
160.1534293074
 21
31.4971825592
 12
160.8471793074
 22
31.4971825592
 13
160.8471793074
 23
31.4971825592
  0
SOLID
  8
0
 62
7
  6
CONTINUOUS
 10
159.1128043074
 20
31.4326555427
 11
159.228429528
 21
31.5294468402
 12
159.8065543074
 22
31.4971825592
 13
159.8065543074
 23
31.4971825592
  0
SOLID
  8
0
 62
7
  6
CONTINUOUS
 10
160.5003043074
 20
31.4649197501
 11
160.8471793074
 21
31.4971825592
 12
160.615929528
 22
31.4326555427
 13
160.615929528
 23
31.4326555427
  0
SOLID
  8
0
 62
7
  6
CONTINUOUS
 10
160.615929528
 20
31.4326555427
 11
160.8471793074
 21
31.4971825592
 12
160.6737418074
 22
31.3681283005
 13
160.6737418074
 23
31.3681283005
  0
SOLID
  8
0
 62
7
  6
CONTINUOUS
 10
160.8471793074
 20
31.4971825592
 11
160.9628038663
 21
31.3681283005
 12
160.6737418074
 22
31.3681283005
 13
160.6737418074
 23
31.3681283005
  0
SOLID
  8
0
 62
7
  6
CONTINUOUS
 10
150.2674918074
 20
31.4649197501
 11
149.7471793074
 21
31.4326554237
 12
150.498741835
 22
31.4971824493
 13
150.498741835
 23
31.4971824493
  0
SOLID
  8
0
 62
7
  6
CONTINUOUS
 10
149.7471793074
 20
31.4326554237
 11
149.8628043005
 21
31.4971824493
 12
150.498741835
 22
31.4971824493
 13
150.498741835
 23
31.4971824493
  0
SOLID
  8
0
 62
7
  6
CONTINUOUS
 10
150.2674918074
 20
31.4649197501
 11
150.1518667936
 21
31.4326554237
 12
149.7471793074
 22
31.4326554237
 13
149.7471793074
 23
31.4326554237
  0
SOLID
  8
0
 62
7
  6
CONTINUOUS
 10
149.6315543091
 20
31.3036012664
 11
149.7471793074
 21
31.4326554237
 12
150.1518667936
 22
31.4326554237
 13
150.1518667936
 23
31.4326554237
  0
SOLID
  8
0
 62
7
  6
CONTINUOUS
 10
153.9674919177
 20
31.4326554237
 11
154.6612419177
 21
31.4971825369
 12
154.4299918074
 22
31.4649197501
 13
154.4299918074
 23
31.4649197501
  0
SOLID
  8
0
 62
7
  6
CONTINUOUS
 10
154.4299918074
 20
31.4649197501
 11
154.3143669177
 21
31.4326554237
 12
153.9674919177
 22
31.4326554237
 13
153.9674919177
 23
31.4326554237
  0
SOLID
  8
0
 62
7
  6
CONTINUOUS
 10
153.9674919177
 20
31.3681283335
 11
153.9674919177
 21
31.4326554237
 12
154.3143669177
 22
31.4326554237
 13
154.3143669177
 23
31.4326554237
  0
SOLID
  8
0
 62
7
  6
CONTINUOUS
 10
154.3143669177
 20
31.4326554237
 11
154.2565543074
 21
31.3681283335
 12
153.9674919177
 22
31.3681283335
 13
153.9674919177
 23
31.3681283335
  0
SOLID
  8
0
 62
7
  6
CONTINUOUS
 10
159.1128043074
 20
31.4326555528
 11
159.8065543074
 21
31.4971825369
 12
159.575304528
 22
31.4649197501
 13
159.575304528
 23
31.4649197501
  0
SOLID
  8
0
 62
7
  6
CONTINUOUS
 10
159.575304528
 20
31.4649197501
 11
159.4596793074
 21
31.4326555528
 12
159.1128043074
 22
31.4326555528
 13
159.1128043074
 23
31.4326555528
  0
SOLID
  8
0
 62
7
  6
CONTINUOUS
 10
159.1128043074
 20
31.3681284626
 11
159.1128043074
 21
31.4326555528
 12
159.4596793074
 22
31.4326555528
 13
159.4596793074
 23
31.4326555528
  0
SOLID
  8
0
 62
7
  6
CONTINUOUS
 10
159.4596793074
 20
31.4326555528
 11
159.401867028
 21
31.3681284626
 12
159.1128043074
 22
31.3681284626
 13
159.1128043074
 23
31.3681284626
  0
SOLID
  8
0
 62
7
  6
CONTINUOUS
 10
159.228429528
 20
31.2390741763
 11
159.1128043074
 21
31.3681284626
 12
159.401867028
 22
31.3681284626
 13
159.401867028
 23
31.3681284626
  0
SOLID
  8
0
 62
7
  6
CONTINUOUS
 10
149.6315543091
 20
31.3036012664
 11
150.1518667936
 21
31.4326554468
 12
149.9784292936
 22
31.3358640533
 13
149.9784292936
 23
31.3358640533
  0
SOLID
  8
0
 62
7
  6
CONTINUOUS
 10
149.9784292936
 20
31.3358640533
 11
149.9206168074
 21
31.2713369632
 12
149.6315543091
 22
31.3036012664
 13
149.6315543091
 23
31.3036012664
  0
SOLID
  8
0
 62
7
  6
CONTINUOUS
 10
149.5737418074
 20
31.1100184796
 11
149.6315543091
 21
31.3036012664
 12
149.9206168074
 22
31.2713369632
 13
149.9206168074
 23
31.2713369632
  0
SOLID
  8
0
 62
7
  6
CONTINUOUS
 10
154.4299918074
 20
31.2390741763
 11
154.7768668074
 21
31.271336924
 12
155.412804528
 22
31.271336924
 13
155.412804528
 23
31.271336924
  0
SOLID
  8
0
 62
7
  6
CONTINUOUS
 10
154.4299918074
 20
31.2390741763
 11
155.412804528
 21
31.271336924
 12
154.1987416972
 22
31.1745462761
 13
154.1987416972
 23
31.1745462761
  0
SOLID
  8
0
 62
7
  6
CONTINUOUS
 10
154.1987416972
 20
31.1745462761
 11
155.412804528
 21
31.271336924
 12
154.7768668074
 22
31.1422827436
 13
154.7768668074
 23
31.1422827436
  0
SOLID
  8
0
 62
7
  6
CONTINUOUS
 10
155.412804528
 20
31.271336924
 11
155.412804528
 21
31.1422827436
 12
154.7768668074
 22
31.1422827436
 13
154.7768668074
 23
31.1422827436
  0
SOLID
  8
0
 62
7
  6
CONTINUOUS
 10
159.228429528
 20
31.2390745501
 11
159.401867028
 21
31.3681283566
 12
159.4596793074
 22
31.3036012664
 13
159.4596793074
 23
31.3036012664
  0
SOLID
  8
0
 62
7
  6
CONTINUOUS
 10
159.4596793074
 20
31.3036012664
 11
159.6331168074
 21
31.2390745501
 12
159.228429528
 22
31.2390745501
 13
159.228429528
 23
31.2390745501
  0
SOLID
  8
0
 62
7
  6
CONTINUOUS
 10
159.4596793074
 20
31.1422827828
 11
159.228429528
 21
31.2390745501
 12
159.6331168074
 22
31.2390745501
 13
159.6331168074
 23
31.2390745501
  0
SOLID
  8
0
 62
7
  6
CONTINUOUS
 10
159.6331168074
 20
31.2390745501
 11
160.615929528
 21
31.0777556927
 12
159.4596793074
 22
31.1422827828
 13
159.4596793074
 23
31.1422827828
  0
SOLID
  8
0
 62
7
  6
CONTINUOUS
 10
160.442492028
 20
30.9809646623
 11
159.4596793074
 21
31.1422827828
 12
160.615929528
 22
31.0777556927
 13
160.615929528
 23
31.0777556927
  0
SOLID
  8
0
 62
7
  6
CONTINUOUS
 10
160.615929528
 20
31.0777556927
 11
160.8471793074
 21
30.9809646623
 12
160.442492028
 22
30.9809646623
 13
160.442492028
 23
30.9809646623
  0
SOLID
  8
0
 62
7
  6
CONTINUOUS
 10
160.615929528
 20
30.9164372091
 11
160.442492028
 21
30.9809646623
 12
160.8471793074
 22
30.9809646623
 13
160.8471793074
 23
30.9809646623
  0
SOLID
  8
0
 62
7
  6
CONTINUOUS
 10
160.615929528
 20
30.9164372091
 11
160.8471793074
 21
30.9809646623
 12
160.6737418074
 22
30.8519089441
 13
160.6737418074
 23
30.8519089441
  0
SOLID
  8
0
 62
7
  6
CONTINUOUS
 10
160.8471793074
 20
30.9809646623
 11
160.9628038663
 21
30.8519089441
 12
160.6737418074
 22
30.8519089441
 13
160.6737418074
 23
30.8519089441
  0
SOLID
  8
0
 62
7
  6
CONTINUOUS
 10
160.615929528
 20
30.7873818593
 11
160.6737418074
 21
30.8519089441
 12
160.9628038663
 22
30.8519089441
 13
160.9628038663
 23
30.8519089441
  0
SOLID
  8
0
 62
7
  6
CONTINUOUS
 10
160.9628038663
 20
30.8519089441
 11
160.9628038663
 21
30.7873818593
 12
160.615929528
 22
30.7873818593
 13
160.615929528
 23
30.7873818593
  0
SOLID
  8
0
 62
7
  6
CONTINUOUS
 10
160.5003043074
 20
30.7551187255
 11
160.615929528
 21
30.7873818593
 12
160.9628038663
 22
30.7873818593
 13
160.9628038663
 23
30.7873818593
  0
SOLID
  8
0
 62
7
  6
CONTINUOUS
 10
160.5003043074
 20
30.7551187255
 11
160.9628038663
 21
30.7873818593
 12
160.269054528
 22
30.7228547745
 13
160.269054528
 23
30.7228547745
  0
SOLID
  8
0
 62
7
  6
CONTINUOUS
 10
160.9628038663
 20
30.7873818593
 11
160.8471793074
 21
30.6905916353
 12
160.269054528
 22
30.7228547745
 13
160.269054528
 23
30.7228547745
  0
SOLID
  8
0
 62
7
  6
CONTINUOUS
 10
160.8471793074
 20
30.6905916353
 11
159.401867028
 21
30.658327332
 12
160.269054528
 22
30.7228547745
 13
160.269054528
 23
30.7228547745
  0
SOLID
  8
0
 62
7
  6
CONTINUOUS
 10
160.269054528
 20
30.7228547745
 11
159.401867028
 21
30.658327332
 12
159.922179528
 22
30.7228547745
 13
159.922179528
 23
30.7228547745
  0
SOLID
  8
0
 62
7
  6
CONTINUOUS
 10
159.401867028
 20
30.658327332
 11
159.228429528
 21
30.7228547745
 12
159.922179528
 22
30.7228547745
 13
159.922179528
 23
30.7228547745
  0
SOLID
  8
0
 62
7
  6
CONTINUOUS
 10
159.401867028
 20
30.658327332
 11
160.8471793074
 21
30.6905916353
 12
159.575304528
 22
30.6260629858
 13
159.575304528
 23
30.6260629858
  0
SOLID
  8
0
 62
7
  6
CONTINUOUS
 10
160.8471793074
 20
30.6905916353
 11
160.615929528
 21
30.6260629858
 12
159.575304528
 22
30.6260629858
 13
159.575304528
 23
30.6260629858
  0
SOLID
  8
0
 62
7
  6
CONTINUOUS
 10
159.922179528
 20
30.5938006049
 11
159.575304528
 21
30.6260629858
 12
160.615929528
 22
30.6260629858
 13
160.615929528
 23
30.6260629858
  0
SOLID
  8
0
 62
7
  6
CONTINUOUS
 10
160.615929528
 20
30.6260629858
 11
160.269054528
 21
30.5938006049
 12
159.922179528
 22
30.5938006049
 13
159.922179528
 23
30.5938006049
  0
SOLID
  8
0
 62
7
  6
CONTINUOUS
 10
149.5737418074
 20
31.1100184796
 11
149.9206168074
 21
31.2713369632
 12
149.8628043005
 22
31.1422827828
 13
149.8628043005
 23
31.1422827828
  0
SOLID
  8
0
 62
7
  6
CONTINUOUS
 10
149.8628043005
 20
31.1422827828
 11
149.8628043005
 21
31.0454914852
 12
149.5737418074
 22
31.1100184796
 13
149.5737418074
 23
31.1100184796
  0
SOLID
  8
0
 62
7
  6
CONTINUOUS
 10
149.6315543091
 20
30.9164372091
 11
149.5737418074
 21
31.1100184796
 12
149.8628043005
 22
31.0454914852
 13
149.8628043005
 23
31.0454914852
  0
SOLID
  8
0
 62
7
  6
CONTINUOUS
 10
149.8628043005
 20
31.0454914852
 11
149.9784292936
 21
30.8841729058
 12
149.6315543091
 22
30.9164372091
 13
149.6315543091
 23
30.9164372091
  0
SOLID
  8
0
 62
7
  6
CONTINUOUS
 10
149.7471793074
 20
30.7873813202
 11
149.6315543091
 21
30.9164372091
 12
149.9784292936
 22
30.8841729058
 13
149.9784292936
 23
30.8841729058
  0
SOLID
  8
0
 62
7
  6
CONTINUOUS
 10
149.9784292936
 20
30.8841729058
 11
150.1518667936
 21
30.7873813202
 12
149.7471793074
 22
30.7873813202
 13
149.7471793074
 23
30.7873813202
  0
SOLID
  8
0
 62
7
  6
CONTINUOUS
 10
149.8628043005
 20
30.7228547004
 11
149.7471793074
 21
30.7873813202
 12
150.1518667936
 22
30.7873813202
 13
150.1518667936
 23
30.7873813202
  0
SOLID
  8
0
 62
7
  6
CONTINUOUS
 10
150.1518667936
 20
30.7873813202
 11
150.498741835
 21
30.7228547004
 12
149.8628043005
 22
30.7228547004
 13
149.8628043005
 23
30.7228547004
  0
SOLID
  8
0
 62
7
  6
CONTINUOUS
 10
150.0362418212
 20
30.658327332
 11
149.8628043005
 21
30.7228547004
 12
150.498741835
 22
30.7228547004
 13
150.498741835
 23
30.7228547004
  0
SOLID
  8
0
 62
7
  6
CONTINUOUS
 10
154.0831168074
 20
31.1100184386
 11
154.1987416972
 21
31.1745462761
 12
154.7768668074
 22
31.1422827828
 13
154.7768668074
 23
31.1422827828
  0
SOLID
  8
0
 62
7
  6
CONTINUOUS
 10
154.7768668074
 20
31.1422827828
 11
154.5456166972
 21
31.1100184386
 12
154.0831168074
 22
31.1100184386
 13
154.0831168074
 23
31.1100184386
  0
SOLID
  8
0
 62
7
  6
CONTINUOUS
 10
153.9674919177
 20
30.9809642992
 11
154.0831168074
 21
31.1100184386
 12
154.5456166972
 22
31.1100184386
 13
154.5456166972
 23
31.1100184386
  0
SOLID
  8
0
 62
7
  6
CONTINUOUS
 10
154.3143669177
 20
31.0132277988
 11
153.9674919177
 21
30.9809642992
 12
154.4299918074
 22
31.0777556927
 13
154.4299918074
 23
31.0777556927
  0
SOLID
  8
0
 62
7
  6
CONTINUOUS
 10
153.9674919177
 20
30.9809642992
 11
154.5456166972
 21
31.1100184796
 12
154.4299918074
 22
31.0777556927
 13
154.4299918074
 23
31.0777556927
  0
SOLID
  8
0
 62
7
  6
CONTINUOUS
 10
154.3143669177
 20
31.0132277988
 11
154.2565543074
 21
30.9164372091
 12
153.9674919177
 22
30.9809642992
 13
153.9674919177
 23
30.9809642992
  0
SOLID
  8
0
 62
7
  6
CONTINUOUS
 10
153.9674919177
 20
30.8841729058
 11
153.9674919177
 21
30.9809642992
 12
154.2565543074
 22
30.9164372091
 13
154.2565543074
 23
30.9164372091
  0
SOLID
  8
0
 62
7
  6
CONTINUOUS
 10
154.2565543074
 20
30.9164372091
 11
154.2565543074
 21
30.8519086025
 12
153.9674919177
 22
30.8841729058
 13
153.9674919177
 23
30.8841729058
  0
SOLID
  8
0
 62
7
  6
CONTINUOUS
 10
154.0253041972
 20
30.7551187255
 11
153.9674919177
 21
30.8841729058
 12
154.2565543074
 22
30.8519086025
 13
154.2565543074
 23
30.8519086025
  0
SOLID
  8
0
 62
7
  6
CONTINUOUS
 10
155.412804528
 20
30.9487004259
 11
155.7018665869
 21
30.8519086025
 12
155.3549915869
 22
30.8841729058
 13
155.3549915869
 23
30.8841729058
  0
SOLID
  8
0
 62
7
  6
CONTINUOUS
 10
155.1815540869
 20
30.7873815123
 11
155.3549915869
 21
30.8841729058
 12
155.7018665869
 22
30.8519086025
 13
155.7018665869
 23
30.8519086025
  0
SOLID
  8
0
 62
7
  6
CONTINUOUS
 10
155.1815540869
 20
30.7873815123
 11
155.7018665869
 21
30.8519086025
 12
155.412804528
 22
30.7551187255
 13
155.412804528
 23
30.7551187255
  0
SOLID
  8
0
 62
7
  6
CONTINUOUS
 10
155.7018665869
 20
30.8519086025
 11
155.759679528
 21
30.6905916353
 12
155.412804528
 22
30.7551187255
 13
155.412804528
 23
30.7551187255
  0
SOLID
  8
0
 62
7
  6
CONTINUOUS
 10
155.4706168074
 20
30.658327332
 11
155.412804528
 21
30.7551187255
 12
155.759679528
 22
30.6905916353
 13
155.759679528
 23
30.6905916353
  0
SOLID
  8
0
 62
7
  6
CONTINUOUS
 10
155.4706168074
 20
30.658327332
 11
155.759679528
 21
30.6905916353
 12
155.5284290869
 22
30.5938002079
 13
155.5284290869
 23
30.5938002079
  0
SOLID
  8
0
 62
7
  6
CONTINUOUS
 10
155.759679528
 20
30.6905916353
 11
155.8174918074
 21
30.5938002079
 12
155.5284290869
 22
30.5938002079
 13
155.5284290869
 23
30.5938002079
  0
SOLID
  8
0
 62
7
  6
CONTINUOUS
 10
151.0768668626
 20
30.8196456577
 11
151.1346793074
 21
30.9164373395
 12
151.4237418626
 22
30.9164373395
 13
151.4237418626
 23
30.9164373395
  0
SOLID
  8
0
 62
7
  6
CONTINUOUS
 10
151.4237418626
 20
30.9164373395
 11
151.3659292523
 21
30.7873815123
 12
151.0768668626
 22
30.8196456577
 13
151.0768668626
 23
30.8196456577
  0
SOLID
  8
0
 62
7
  6
CONTINUOUS
 10
150.9034292799
 20
30.7551187255
 11
151.0768668626
 21
30.8196456577
 12
151.3659292523
 22
30.7873815123
 13
151.3659292523
 23
30.7873815123
  0
SOLID
  8
0
 62
7
  6
CONTINUOUS
 10
150.9034292799
 20
30.7551187255
 11
151.3659292523
 21
30.7873815123
 12
150.498741835
 22
30.7228544222
 13
150.498741835
 23
30.7228544222
  0
SOLID
  8
0
 62
7
  6
CONTINUOUS
 10
151.3659292523
 20
30.7873815123
 11
151.1924917523
 21
30.6905916353
 12
150.498741835
 22
30.7228544222
 13
150.498741835
 23
30.7228544222
  0
SOLID
  8
0
 62
7
  6
CONTINUOUS
 10
150.0362418212
 20
30.658327332
 11
150.498741835
 21
30.7228544222
 12
151.1924917523
 22
30.6905916353
 13
151.1924917523
 23
30.6905916353
  0
SOLID
  8
0
 62
7
  6
CONTINUOUS
 10
150.0362418212
 20
30.658327332
 11
151.1924917523
 21
30.6905916353
 12
150.2096793212
 22
30.6260631011
 13
150.2096793212
 23
30.6260631011
  0
SOLID
  8
0
 62
7
  6
CONTINUOUS
 10
151.1924917523
 20
30.6905916353
 11
150.9612418074
 21
30.6260631011
 12
150.2096793212
 22
30.6260631011
 13
150.2096793212
 23
30.6260631011
  0
SOLID
  8
0
 62
7
  6
CONTINUOUS
 10
150.5565542799
 20
30.5938002419
 11
150.2096793212
 21
30.6260631011
 12
150.9612418074
 22
30.6260631011
 13
150.9612418074
 23
30.6260631011
  0
SOLID
  8
0
 62
7
  6
CONTINUOUS
 10
154.0253041972
 20
30.7551187255
 11
154.2565543074
 21
30.8519086025
 12
154.3143669177
 22
30.7873815123
 13
154.3143669177
 23
30.7873815123
  0
SOLID
  8
0
 62
7
  6
CONTINUOUS
 10
154.3143669177
 20
30.7873815123
 11
154.5456166972
 21
30.7228544222
 12
154.0253041972
 22
30.7551187255
 13
154.0253041972
 23
30.7551187255
  0
SOLID
  8
0
 62
7
  6
CONTINUOUS
 10
154.1987416972
 20
30.658327332
 11
154.0253041972
 21
30.7551187255
 12
154.5456166972
 22
30.7228544222
 13
154.5456166972
 23
30.7228544222
  0
SOLID
  8
0
 62
7
  6
CONTINUOUS
 10
154.8924916972
 20
30.7228544637
 11
155.1815540869
 21
30.7873815123
 12
155.412804528
 22
30.7551187255
 13
155.412804528
 23
30.7551187255
  0
SOLID
  8
0
 62
7
  6
CONTINUOUS
 10
155.412804528
 20
30.7551187255
 11
155.3549915869
 21
30.6905916353
 12
154.8924916972
 22
30.7228544637
 13
154.8924916972
 23
30.7228544637
  0
SOLID
  8
0
 62
7
  6
CONTINUOUS
 10
155.3549915869
 20
30.6905916353
 11
154.1987416972
 21
30.658327332
 12
154.8924916972
 22
30.7228544637
 13
154.8924916972
 23
30.7228544637
  0
SOLID
  8
0
 62
7
  6
CONTINUOUS
 10
154.1987416972
 20
30.658327332
 11
154.5456166972
 21
30.7228544637
 12
154.8924916972
 22
30.7228544637
 13
154.8924916972
 23
30.7228544637
  0
SOLID
  8
0
 62
7
  6
CONTINUOUS
 10
154.1987416972
 20
30.658327332
 11
155.3549915869
 21
30.6905916353
 12
154.3143669177
 22
30.6260630541
 13
154.3143669177
 23
30.6260630541
  0
SOLID
  8
0
 62
7
  6
CONTINUOUS
 10
155.3549915869
 20
30.6905916353
 11
155.1815540869
 21
30.6260630541
 12
154.3143669177
 22
30.6260630541
 13
154.3143669177
 23
30.6260630541
  0
SOLID
  8
0
 62
7
  6
CONTINUOUS
 10
154.5456166972
 20
30.5938002188
 11
154.3143669177
 21
30.6260630541
 12
155.1815540869
 22
30.6260630541
 13
155.1815540869
 23
30.6260630541
  0
SOLID
  8
0
 62
7
  6
CONTINUOUS
 10
155.1815540869
 20
30.6260630541
 11
154.8924916972
 21
30.5938002188
 12
154.5456166972
 22
30.5938002188
 13
154.5456166972
 23
30.5938002188
  0
SOLID
  8
0
 62
7
  6
CONTINUOUS
 10
159.575304528
 20
30.7551187255
 11
159.228429528
 21
30.7228544637
 12
159.4596793074
 22
30.7873815123
 13
159.4596793074
 23
30.7873815123
  0
SOLID
  8
0
 62
7
  6
CONTINUOUS
 10
159.4596793074
 20
30.7873815123
 11
159.228429528
 21
30.7228544637
 12
159.401867028
 22
30.851908644
 13
159.401867028
 23
30.851908644
  0
SOLID
  8
0
 62
7
  6
CONTINUOUS
 10
159.228429528
 20
30.7228544637
 11
159.1128043074
 21
30.851908644
 12
159.401867028
 22
30.851908644
 13
159.401867028
 23
30.851908644
  0
SOLID
  8
0
 62
7
  6
CONTINUOUS
 10
159.575304528
 20
30.7551187255
 11
159.922179528
 21
30.7228544637
 12
159.228429528
 22
30.7228544637
 13
159.228429528
 23
30.7228544637
  0
SOLID
  8
0
 62
7
  6
CONTINUOUS
 10
156.279992028
 20
30.5938002419
 11
156.279992028
 21
31.6262382337
 12
156.5690540869
 22
30.5938002419
 13
156.5690540869
 23
31.6262382337
  0
ENDBLK
  8
0
  6
BYBLOCK
 62
0
  0
BLOCK
  8
0
 62
2
  6
CONTINUOUS
  2
SYMBOL_3_BL0
 70
64
 10
32.1213064866
 20
19.8534310916
  0
TEXT
  8
0
 62
7
  6
CONTINUOUS
 10
18.3860103289
 20
19.2268451992
  7
TEXTSTYLE_3
 40
2.7338706658
  1
Ammeraal Beltech
 41
1.0
 51
15.0
 72
0
  0
TEXT
  8
0
 62
7
  6
CONTINUOUS
 10
29.1868111546
 20
16.9533085264
  7
TEXTSTYLE_4
 40
1.0935482663
  1
Innovation & Service in Belting
 41
1.0
 72
0
  0
LINE
  8
0
 62
7
  6
CONTINUOUS
 10
12.3614696776
 20
19.9934385078
 11
13.1396216709
 21
23.6543558055
  0
LINE
  8
0
 62
7
  6
CONTINUOUS
 10
23.2347899607
 20
27.3177497171
 11
13.6274394139
 21
24.1961322958
  0
LINE
  8
0
 62
7
  6
CONTINUOUS
 10
12.5867530099
 20
19.3000877048
 11
20.093828271
 21
12.5406867788
  0
LINE
  8
0
 62
7
  6
CONTINUOUS
 10
12.8492874206
 20
20.5352149982
 11
23.6575567857
 21
24.0470345971
  0
LINE
  8
0
 62
7
  6
CONTINUOUS
 10
23.6533516486
 20
13.6972460334
 11
15.2078919798
 21
21.3015720751
  0
LINE
  8
0
 62
7
  6
CONTINUOUS
 10
24.1731743684
 20
26.4728246013
 11
23.1966148312
 21
21.8784731989
  0
LINE
  8
0
 62
7
  6
CONTINUOUS
 10
22.4968128835
 20
18.5861638851
 11
21.810364672
 21
15.3566789607
  0
LINE
  8
0
 62
7
  6
CONTINUOUS
 10
24.8542704669
 20
14.087448211
 11
25.8105020025
 21
18.5861638851
  0
LINE
  8
0
 62
7
  6
CONTINUOUS
 10
26.5103039502
 20
21.8784731989
 11
26.9545457526
 21
23.9684665583
  0
LINE
  8
0
 62
7
  6
CONTINUOUS
 10
20.8069293463
 20
12.3891124661
 11
24.3664527239
 21
13.5456717207
  0
LINE
  8
0
 62
7
  6
CONTINUOUS
 10
23.9478910361
 20
27.1661754044
 11
26.7292624203
 21
24.6618173613
  0
ARC
  8
0
 62
7
  6
CONTINUOUS
 10
13.8527227462
 20
23.5027814928
 40
0.7290321776
 50
108.0
 51
168.0
  0
ARC
  8
0
 62
7
  6
CONTINUOUS
 10
23.4600732931
 20
26.624398914
 40
0.7290321776
 50
348.0
 51
108.0
  0
ARC
  8
0
 62
7
  6
CONTINUOUS
 10
26.2414446773
 20
24.120040871
 40
0.7290321776
 50
348.0
 51
48.0
  0
ARC
  8
0
 62
7
  6
CONTINUOUS
 10
20.581646014
 20
13.0824632691
 40
0.7290321776
 50
228.0
 51
288.0
  0
ARC
  8
0
 62
7
  6
CONTINUOUS
 10
13.0745707529
 20
19.8418641951
 40
0.7290321776
 50
108.0
 51
228.0
  0
ARC
  8
0
 62
7
  6
CONTINUOUS
 10
24.1411693916
 20
14.2390225237
 40
0.7290321776
 50
228.0
 51
348.0
  0
ENDBLK
  8
0
  6
BYBLOCK
 62
0
  0
ENDSEC
  0
SECTION
  2
ENTITIES
  0
TEXT
  8
0
 62
5
  6
CONTINUOUS
 10
96.0
 20
25.636
  7
TEXTSTYLE_2
 40
2.8
  1
Scale :
 41
0.6
 51
0.000019
 72
0
  0
TEXT
  8
0
 62
5
  6
CONTINUOUS
 10
116.0
 20
25.636
  7
TEXTSTYLE_2
 40
2.8
  1
Belt type:
 41
0.6
 51
0.000019
 72
0
  0
INSERT
  8
0
 62
2
  6
CONTINUOUS
  2
SYMBOL_3_BL0
 10
32.1213064866
 20
19.8534310916
  0
INSERT
  8
0
 62
2
  6
CONTINUOUS
  2
SYMBOL_8_BL1
 10
173.5956734183
 20
35.5937998301
  0
LINE
  8
0
 62
2
  6
CONTINUOUS
 10
10.0
 20
30.0
 11
200.0
 21
30.0
  0
LINE
  8
0
 62
2
  6
CONTINUOUS
 10
10.0
 20
30.0
 11
10.0
 21
10.0
  0
LINE
  8
0
 62
2
  6
CONTINUOUS
 10
10.0
 20
10.0
 11
200.0
 21
10.0
  0
LINE
  8
0
 62
2
  6
CONTINUOUS
 10
95.0
 20
30.0
 11
95.0
 21
10.0
  0
LINE
  8
0
 62
2
  6
CONTINUOUS
 10
115.0
 20
30.0
 11
115.0
 21
10.0
  0
LINE
  8
0
 62
2
  6
CONTINUOUS
 10
200.0
 20
30.0
 11
200.0
 21
10.0
  0
TEXT
  8
0
 62
5
  6
CONTINUOUS
 10
13.0
 20
23.303
  7
TEXTSTYLE_5
 40
1.52
  1
                                                                     Ammeraal Beltech Modular A/S
 41
1.0
 72
0
  0
TEXT
  8
0
 62
5
  6
CONTINUOUS
 10
13.0
 20
20.595
  7
TEXTSTYLE_5
 40
1.5
  1
                                                                      Hjulmagervej 21,  7100 Vejle,  DK
 41
1.0
 72
0
  0
TEXT
  8
0
 62
5
  6
CONTINUOUS
 10
13.0
 20
17.881
  7
TEXTSTYLE_5
 40
1.495
  1
                                                                      tel: 
 41
1.0
 72
0
  0
TEXT
  8
0
 62
5
  6
CONTINUOUS
 10
57.9869465649
 20
17.881
  7
TEXTSTYLE_5
 40
1.51
  1
+45 75723100     fax: +45 75723348
 41
1.0
 72
0
  0
TEXT
  8
0
 62
5
  6
CONTINUOUS
 10
13.0
 20
15.177
  7
TEXTSTYLE_5
 40
1.5
  1
                                                                      admin@unichains.dk  www.unichains.com
 41
1.0
 72
0
  0
TEXT
  8
0
 62
5
  6
CONTINUOUS
 10
99.75
 20
13.75
  7
TEXTSTYLE_6
 40
5.0
  1
1:1
 41
0.7
 72
1
 11
105.0
 21
13.75
  0
TEXT
  8
0
 62
5
  6
CONTINUOUS
 10
118.0
 20
13.75
  7
TEXTSTYLE_7
 40
7.5
  1
Sprocket Z06
 41
0.6694444444
 72
0
  0
LINE
  8
0
 62
7
  6
CONTINUOUS
 10
210.0
 20
0.0
 11
0.0
 21
0.0
  0
LINE
  8
0
 62
7
  6
CONTINUOUS
 10
10.0
 20
10.0
 11
200.0
 21
10.0
  0
LINE
  8
0
 62
7
  6
CONTINUOUS
 10
10.0
 20
30.0
 11
200.0
 21
30.0
  0
LINE
  8
0
 62
7
  6
CONTINUOUS
 10
0.0
 20
0.0
 11
0.0
 21
297.0
  0
LINE
  8
0
 62
7
  6
CONTINUOUS
 10
10.0
 20
10.0
 11
10.0
 21
287.0
  0
LINE
  8
0
 62
7
  6
CONTINUOUS
 10
200.0
 20
287.0
 11
200.0
 21
10.0
  0
LINE
  8
0
 62
7
  6
CONTINUOUS
 10
210.0
 20
0.0
 11
210.0
 21
297.0
  0
LINE
  8
0
 62
7
  6
CONTINUOUS
 10
10.0
 20
287.0
 11
200.0
 21
287.0
  0
LINE
  8
0
 62
7
  6
CONTINUOUS
 10
0.0
 20
297.0
 11
210.0
 21
297.0
  0
LINE
  8
0
 62
7
  6
CONTINUOUS
 10
67.1671506882
 20
233.1320761106
 11
66.8565293135
 21
231.0990112037
  0
LINE
  8
0
 62
7
  6
CONTINUOUS
 10
109.9660656924
 20
247.5478239514
 11
108.0500691481
 21
246.8002974994
  0
LINE
  8
0
 62
7
  6
CONTINUOUS
 10
127.3186127178
 20
167.2800023829
 11
97.051012035
 21
167.2800023829
  0
LINE
  8
0
 62
7
  6
CONTINUOUS
 10
58.2520970308
 20
188.8592545421
 11
59.8574722003
 21
187.5737160872
  0
LINE
  8
0
 62
7
  6
CONTINUOUS
 10
83.0122279672
 20
162.5290928952
 11
67.8784276258
 21
188.7416039981
  0
LINE
  8
0
 62
7
  6
CONTINUOUS
 10
56.7446272844
 20
198.5240928952
 11
71.8784276258
 21
224.7366039981
  0
LINE
  8
0
 62
7
  6
CONTINUOUS
 10
94.4042918036
 20
231.546737425
 11
94.1755351099
 21
231.4273863654
  0
LINE
  8
0
 62
7
  6
CONTINUOUS
 10
94.2339678091
 20
231.1788436691
 11
94.4627245029
 21
231.2981947286
  0
LINE
  8
0
 62
7
  6
CONTINUOUS
 10
92.7772211178
 20
231.127828109
 11
92.4804741864
 21
231.0298610433
  0
LINE
  8
0
 62
7
  6
CONTINUOUS
 10
91.2934867368
 20
230.6379928715
 11
90.9967398691
 21
230.5400258268
  0
LINE
  8
0
 62
7
  6
CONTINUOUS
 10
94.1755351099
 20
231.4273863654
 11
94.0222280691
 21
231.2602035395
  0
LINE
  8
0
 62
7
  6
CONTINUOUS
 10
94.0806607684
 20
231.0116608431
 11
94.2339678091
 21
231.1788436691
  0
LINE
  8
0
 62
7
  6
CONTINUOUS
 10
92.8040463245
 20
229.052918109
 11
92.9027348412
 21
229.1527170722
  0
LINE
  8
0
 62
7
  6
CONTINUOUS
 10
100.58193864
 20
232.7041132549
 11
100.7702468355
 21
232.8305776238
  0
LINE
  8
0
 62
7
  6
CONTINUOUS
 10
92.7240051599
 20
229.2953666277
 11
92.5066180118
 21
229.1563808672
  0
LINE
  8
0
 62
7
  6
CONTINUOUS
 10
92.5866591711
 20
228.9139323644
 11
92.8040463245
 21
229.052918109
  0
LINE
  8
0
 62
7
  6
CONTINUOUS
 10
100.7101835879
 20
233.2139460934
 11
100.4593768952
 21
233.087879259
  0
LINE
  8
0
 62
7
  6
CONTINUOUS
 10
101.8793903038
 20
230.334110575
 11
102.1301969966
 21
230.4601774261
  0
LINE
  8
0
 62
7
  6
CONTINUOUS
 10
92.5066180118
 20
229.1563808672
 11
92.2692204836
 21
229.0780072202
  0
LINE
  8
0
 62
7
  6
CONTINUOUS
 10
92.3492616429
 20
228.8355587174
 11
92.5866591711
 21
228.9139323644
  0
LINE
  8
0
 62
7
  6
CONTINUOUS
 10
93.2395022673
 20
229.1294598585
 11
93.5362491987
 21
229.2274269243
  0
LINE
  8
0
 62
7
  6
CONTINUOUS
 10
120.4619425939
 20
180.7245186724
 11
120.822110879
 21
180.7923569451
  0
LINE
  8
0
 62
7
  6
CONTINUOUS
 10
119.6872116403
 20
181.486853512
 11
120.0473799254
 21
181.5546917847
  0
LINE
  8
0
 62
7
  6
CONTINUOUS
 10
119.9027118846
 20
183.5765675656
 11
119.542539347
 21
183.5087254643
  0
LINE
  8
0
 62
7
  6
CONTINUOUS
 10
120.6542014344
 20
181.0708689305
 11
120.4295301581
 21
181.0396274413
  0
LINE
  8
0
 62
7
  6
CONTINUOUS
 10
119.8794704809
 20
181.8332037701
 11
119.6547992045
 21
181.801962281
  0
LINE
  8
0
 62
7
  6
CONTINUOUS
 10
119.7104530591
 20
183.2302172909
 11
119.9351243354
 21
183.2614587801
  0
LINE
  8
DEFAULT_1
 62
2
  6
CENTER
 10
82.2965344355
 20
191.4824670352
 11
89.2584766873
 21
184.5205247834
  0
LINE
  8
0
 62
7
  6
CONTINUOUS
 10
92.9027348412
 20
229.1527170722
 11
93.0207520064
 21
229.3933336654
  0
LINE
  8
0
 62
7
  6
CONTINUOUS
 10
94.0222280691
 20
231.2602035395
 11
93.9297619845
 21
231.1073244986
  0
LINE
  8
0
 62
7
  6
CONTINUOUS
 10
93.9881946837
 20
230.8587818022
 11
94.0806607684
 21
231.0116608431
  0
LINE
  8
0
 62
7
  6
CONTINUOUS
 10
92.8620327087
 20
229.4753710967
 11
92.7240051599
 21
229.2953666277
  0
LINE
  8
0
 62
7
  6
CONTINUOUS
 10
100.4593768952
 20
233.087879259
 11
100.2077582141
 21
232.8341554478
  0
LINE
  8
DEFAULT_1
 62
2
  6
CENTER
 10
82.2965344355
 20
215.0675377306
 11
89.2584766873
 21
222.0294799825
  0
LINE
  8
DEFAULT_1
 62
2
  6
CENTER
 10
96.9187073525
 20
227.4269689479
 11
93.3831734466
 21
223.891435042
  0
LINE
  8
DEFAULT_1
 62
2
  6
CENTER
 10
76.89904547
 20
207.4073070654
 11
80.4345793759
 21
210.9428409713
  0
LINE
  8
0
 62
7
  6
CONTINUOUS
 10
105.0210883414
 20
231.9250663777
 11
104.8825075651
 21
231.8122941741
  0
LINE
  8
0
 62
7
  6
CONTINUOUS
 10
102.0076352522
 20
230.8439434973
 11
101.8193270565
 21
230.7174790837
  0
LINE
  8
0
 62
7
  6
CONTINUOUS
 10
107.978556282
 20
231.3569681791
 11
107.8290008016
 21
231.2592166586
  0
LINE
  8
0
 62
7
  6
CONTINUOUS
 10
107.6899499383
 20
230.047981244
 11
107.5403944483
 21
229.9502296798
  0
LINE
  8
0
 62
7
  6
CONTINUOUS
 10
104.9014860902
 20
231.4247134821
 11
105.1714588124
 21
231.5868342228
  0
LINE
  8
0
 62
7
  6
CONTINUOUS
 10
107.5189700719
 20
229.5627764526
 11
107.8043364811
 21
229.695947111
  0
LINE
  8
0
 62
7
  6
CONTINUOUS
 10
115.7032286539
 20
228.2129297311
 11
115.5320000472
 21
228.1619139678
  0
LINE
  8
0
 62
7
  6
CONTINUOUS
 10
124.7974119896
 20
185.5654292261
 11
124.620863734
 21
185.5380029673
  0
LINE
  8
0
 62
7
  6
CONTINUOUS
 10
124.4027468797
 20
185.2329619244
 11
124.7194928007
 21
185.2369773713
  0
LINE
  8
0
 62
7
  6
CONTINUOUS
 10
119.4196930786
 20
181.5029232361
 11
119.6872116403
 21
181.486853512
  0
LINE
  8
0
 62
7
  6
CONTINUOUS
 10
119.6547992045
 20
181.801962281
 11
119.4764549104
 21
181.8126767107
  0
LINE
  8
0
 62
7
  6
CONTINUOUS
 10
120.1515767468
 20
180.7878996098
 11
120.4619425939
 21
180.7245186724
  0
LINE
  8
0
 62
7
  6
CONTINUOUS
 10
132.8093842975
 20
165.4248585095
 11
131.5686127178
 21
166.1412183151
  0
LINE
  8
DEFAULT_1
 62
2
  6
CENTER
 10
93.3831734466
 20
182.6585697239
 11
96.9187073525
 21
179.1230358179
  0
LINE
  8
DEFAULT_1
 62
2
  6
CENTER
 10
80.4345793759
 20
195.6071637945
 11
76.89904547
 21
199.1426977005
  0
LINE
  8
0
 62
7
  6
CONTINUOUS
 10
84.151012035
 20
158.2790928952
 11
84.151012035
 21
156.8463732841
  0
LINE
  8
0
 62
7
  6
CONTINUOUS
 10
92.920700552
 20
229.6963943098
 11
92.8620327087
 21
229.4753710967
  0
LINE
  8
0
 62
7
  6
CONTINUOUS
 10
100.2077582141
 20
232.8341554478
 11
100.0811365276
 21
232.5796365675
  0
LINE
  8
0
 62
7
  6
CONTINUOUS
 10
100.4557229466
 20
232.5134226843
 11
100.58193864
 21
232.7041132549
  0
LINE
  8
0
 62
7
  6
CONTINUOUS
 10
105.1714588124
 20
231.5868342228
 11
105.3865159645
 21
231.8194165171
  0
LINE
  8
0
 62
7
  6
CONTINUOUS
 10
102.1301969966
 20
230.4601774261
 11
102.3818156778
 21
230.7139012598
  0
LINE
  8
0
 62
7
  6
CONTINUOUS
 10
108.0929428392
 20
231.0049341116
 11
108.3310178212
 21
231.2138944074
  0
LINE
  8
0
 62
7
  6
CONTINUOUS
 10
107.8043364811
 20
229.695947111
 11
108.0424114679
 21
229.9049074286
  0
LINE
  8
0
 62
7
  6
CONTINUOUS
 10
53.6334113522
 20
195.412876963
 11
52.3926397725
 21
194.6965171574
  0
LINE
  8
0
 62
7
  6
CONTINUOUS
 10
115.7124137946
 20
227.8428920272
 11
116.0002146295
 21
227.9752354505
  0
LINE
  8
0
 62
7
  6
CONTINUOUS
 10
118.1874720779
 20
226.1852542437
 11
118.4874737606
 21
226.2869552399
  0
LINE
  8
0
 62
7
  6
CONTINUOUS
 10
117.4190067293
 20
225.0869821437
 11
117.7190084248
 21
225.1886831582
  0
LINE
  8
0
 62
4
  6
CONTINUOUS
 10
98.051012035
 20
190.9500023829
 11
104.051012035
 21
190.9500023829
  0
LINE
  8
0
 62
7
  6
CONTINUOUS
 10
120.2130777467
 20
183.5131866116
 11
119.9027118846
 21
183.5765675656
  0
LINE
  8
0
 62
7
  6
CONTINUOUS
 10
120.4295301581
 20
181.0396274413
 11
120.2083343374
 21
181.0976492433
  0
LINE
  8
0
 62
7
  6
CONTINUOUS
 10
119.9351243354
 20
183.2614587801
 11
120.1563159449
 21
183.2034331039
  0
LINE
  8
0
 62
7
  6
CONTINUOUS
 10
109.9399026191
 20
231.2604941329
 11
108.6955929595
 21
229.9727637625
  0
LINE
  8
0
 62
7
  6
CONTINUOUS
 10
108.8374713371
 20
229.7957786246
 11
110.0817809443
 21
231.083508824
  0
LINE
  8
0
 62
7
  6
CONTINUOUS
 10
130.1969913629
 20
200.1321976784
 11
130.3925435903
 21
200.1805089784
  0
LINE
  8
0
 62
7
  6
CONTINUOUS
 10
129.1967644471
 20
200.456316595
 11
129.0012121306
 21
200.4080053015
  0
LINE
  8
0
 62
7
  6
CONTINUOUS
 10
128.7291069569
 20
201.932023491
 11
128.9246591843
 21
201.9803347911
  0
LINE
  8
0
 62
7
  6
CONTINUOUS
 10
124.2106273409
 20
185.2934990049
 11
124.4027468797
 21
185.2329619244
  0
LINE
  8
0
 62
7
  6
CONTINUOUS
 10
124.620863734
 20
185.5380029673
 11
124.4287441951
 21
185.5985400479
  0
LINE
  8
0
 62
7
  6
CONTINUOUS
 10
120.3676284227
 20
184.3691611238
 11
123.2720421203
 21
183.1184073958
  0
LINE
  8
0
 62
7
  6
CONTINUOUS
 10
123.247925092
 20
183.4749243153
 11
121.5873995681
 21
184.2023744359
  0
LINE
  8
0
 62
7
  6
CONTINUOUS
 10
121.3552664346
 20
184.3256944822
 11
120.6172538432
 21
184.6490042037
  0
LINE
  8
0
 62
7
  6
CONTINUOUS
 10
119.1128069284
 20
181.6555713058
 11
119.4196930786
 21
181.5029232361
  0
LINE
  8
0
 62
7
  6
CONTINUOUS
 10
120.5199639269
 20
183.3605385088
 11
120.2130777467
 21
183.5131866116
  0
LINE
  8
0
 62
7
  6
CONTINUOUS
 10
119.9767079084
 20
180.8878773307
 11
120.1515767468
 21
180.7878996098
  0
LINE
  8
0
 62
7
  6
CONTINUOUS
 10
119.4764549104
 20
181.8126767107
 11
119.301586012
 21
181.912654498
  0
LINE
  8
0
 62
7
  6
CONTINUOUS
 10
120.1563159449
 20
183.2034331039
 11
120.3311847832
 21
183.1034553829
  0
LINE
  8
0
 62
7
  6
CONTINUOUS
 10
100.0811365276
 20
232.5796365675
 11
100.0166080584
 21
232.260891481
  0
LINE
  8
0
 62
7
  6
CONTINUOUS
 10
100.3916004727
 20
232.2585062651
 11
100.4557229466
 21
232.5134226843
  0
LINE
  8
0
 62
7
  6
CONTINUOUS
 10
105.5304961918
 20
239.6282457484
 11
107.4598838507
 21
246.1542952564
  0
LINE
  8
0
 62
7
  6
CONTINUOUS
 10
102.0713524472
 20
231.0350314236
 11
102.0076352522
 21
230.8439434973
  0
LINE
  8
0
 62
7
  6
CONTINUOUS
 10
105.1047521262
 20
232.108300296
 11
105.0210883414
 21
231.9250663777
  0
LINE
  8
0
 62
7
  6
CONTINUOUS
 10
105.3865159645
 20
231.8194165171
 11
105.4701797493
 21
232.0026504353
  0
LINE
  8
0
 62
7
  6
CONTINUOUS
 10
108.0808189419
 20
231.5305096614
 11
107.978556282
 21
231.3569681791
  0
LINE
  8
0
 62
7
  6
CONTINUOUS
 10
108.3310178212
 20
231.2138944074
 11
108.4332804811
 21
231.3874358897
  0
LINE
  8
0
 62
7
  6
CONTINUOUS
 10
107.7922125982
 20
230.2215227263
 11
107.6899499383
 21
230.047981244
  0
LINE
  8
0
 62
7
  6
CONTINUOUS
 10
108.0424114679
 20
229.9049074286
 11
108.1446741374
 21
230.0784489546
  0
LINE
  8
0
 62
7
  6
CONTINUOUS
 10
113.3090418188
 20
230.6724404396
 11
111.4238525519
 21
228.5483100131
  0
LINE
  8
0
 62
7
  6
CONTINUOUS
 10
111.533951945
 20
228.1581386476
 11
113.2401445019
 21
230.0107505678
  0
LINE
  8
0
 62
7
  6
CONTINUOUS
 10
115.8507569305
 20
228.3500782102
 11
115.7032286539
 21
228.2129297311
  0
LINE
  8
0
 62
7
  6
CONTINUOUS
 10
116.0002146295
 20
227.9752354505
 11
116.1477429061
 21
228.1123839295
  0
LINE
  8
0
 62
7
  6
CONTINUOUS
 10
118.3778017348
 20
226.6753065565
 11
118.216812649
 21
226.5542412355
  0
LINE
  8
0
 62
7
  6
CONTINUOUS
 10
118.4874737606
 20
226.2869552399
 11
118.6484628464
 21
226.4080205609
  0
LINE
  8
0
 62
7
  6
CONTINUOUS
 10
117.6093364246
 20
225.5770345114
 11
117.4483473388
 21
225.4559691904
  0
LINE
  8
0
 62
7
  6
CONTINUOUS
 10
117.7190084248
 20
225.1886831582
 11
117.8799975362
 21
225.3097485159
  0
LINE
  8
0
 62
7
  6
CONTINUOUS
 10
67.3284376921
 20
188.9777277758
 11
60.7120192025
 21
187.3856017481
  0
LINE
  8
0
 62
7
  6
CONTINUOUS
 10
129.858630775
 20
202.9723980528
 11
130.1758649947
 21
203.0439868611
  0
LINE
  8
0
 62
7
  6
CONTINUOUS
 10
129.2201546609
 20
205.2050784495
 11
128.9029201885
 21
205.1334953584
  0
LINE
  8
0
 62
7
  6
CONTINUOUS
 10
130.1669425067
 20
203.3563575497
 11
129.7859043671
 21
203.2829519846
  0
LINE
  8
0
 62
7
  6
CONTINUOUS
 10
128.9118428398
 20
204.8211189501
 11
129.2928809054
 21
204.8945302374
  0
LINE
  8
0
 62
7
  6
CONTINUOUS
 10
71.8079218489
 20
225.3309711413
 11
67.1208910181
 21
230.2648946216
  0
LINE
  8
0
 62
4
  6
CONTINUOUS
 10
98.051012035
 20
215.6000023829
 11
98.051012035
 21
212.3152250019
  0
LINE
  8
0
 62
4
  6
CONTINUOUS
 10
98.051012035
 20
194.234779764
 11
98.051012035
 21
190.9500023829
  0
LINE
  8
1_AXIS
 62
2
  6
CONTINUOUS
 10
101.051012035
 20
204.1550023829
 11
101.051012035
 21
202.3950023829
  0
LINE
  8
1_AXIS
 62
2
  6
CENTER
 10
101.051012035
 20
198.8750023829
 11
101.051012035
 21
151.99124143
  0
LINE
  8
1_AXIS
 62
2
  6
CENTER
 10
101.051012035
 20
207.6750023829
 11
101.051012035
 21
254.5587633359
  0
LINE
  8
0
 62
7
  6
CONTINUOUS
 10
100.0166080584
 20
232.260891481
 11
100.0105181455
 21
231.3034640651
  0
LINE
  8
0
 62
7
  6
CONTINUOUS
 10
100.3855105597
 20
231.3010788492
 11
100.3916004727
 21
232.2585062651
  0
LINE
  8
0
 62
7
  6
CONTINUOUS
 10
103.2801984437
 20
233.2144018716
 11
102.9423901797
 21
230.2334816149
  0
LINE
  8
0
 62
7
  6
CONTINUOUS
 10
103.3150052118
 20
230.1912555819
 11
103.4659408213
 21
231.523156141
  0
LINE
  8
0
 62
7
  6
CONTINUOUS
 10
103.5090652753
 20
231.9036991072
 11
103.6168764307
 21
232.8550567002
  0
LINE
  8
0
 62
7
  6
CONTINUOUS
 10
102.3818156778
 20
230.7139012598
 11
102.4463448614
 21
231.0326462076
  0
LINE
  8
0
 62
7
  6
CONTINUOUS
 10
106.3811665242
 20
232.8203296968
 11
105.7352380068
 21
229.8906921167
  0
LINE
  8
0
 62
7
  6
CONTINUOUS
 10
106.1839016637
 20
230.1839473379
 11
106.3900490672
 21
231.1189380745
  0
LINE
  8
0
 62
7
  6
CONTINUOUS
 10
106.4725080171
 20
231.4929343167
 11
106.6649122719
 21
232.3655923898
  0
LINE
  8
0
 62
7
  6
CONTINUOUS
 10
111.0540781859
 20
231.597937746
 11
109.915004578
 21
228.8225978901
  0
LINE
  8
0
 62
7
  6
CONTINUOUS
 10
110.26192206
 20
228.6802136891
 11
111.15863961
 21
230.8650557737
  0
LINE
  8
0
 62
7
  6
CONTINUOUS
 10
114.589786455
 20
230.0712427939
 11
113.1347932116
 21
227.4476965943
  0
LINE
  8
0
 62
7
  6
CONTINUOUS
 10
113.4627364865
 20
227.2658224389
 11
114.1128398598
 21
228.4380452256
  0
LINE
  8
0
 62
7
  6
CONTINUOUS
 10
114.298583656
 20
228.7729659771
 11
114.7629432331
 21
229.6102680123
  0
LINE
  8
0
 62
7
  6
CONTINUOUS
 10
117.3026301984
 20
228.5182553435
 11
115.5827315567
 21
226.0602177803
  0
LINE
  8
0
 62
7
  6
CONTINUOUS
 10
116.1095477803
 20
226.1590224786
 11
116.6584516135
 21
226.9435025684
  0
LINE
  8
0
 62
7
  6
CONTINUOUS
 10
116.8780131161
 20
227.2572945603
 11
117.3903233912
 21
227.9894760214
  0
LINE
  8
0
 62
7
  6
CONTINUOUS
 10
118.752244214
 20
225.4938729984
 11
118.5493779872
 21
225.2474965176
  0
LINE
  8
0
 62
7
  6
CONTINUOUS
 10
121.017327986
 20
225.7006290125
 11
118.9308785223
 21
223.5450018102
  0
LINE
  8
0
 62
7
  6
CONTINUOUS
 10
119.2003319225
 20
223.2841956273
 11
120.1769678497
 21
224.2932126238
  0
LINE
  8
0
 62
7
  6
CONTINUOUS
 10
120.4433230686
 20
224.5683990423
 11
121.2867813863
 21
225.4398228296
  0
LINE
  8
0
 62
7
  6
CONTINUOUS
 10
127.9734956674
 20
205.6713274588
 11
128.3529878539
 21
205.7228869613
  0
LINE
  8
0
 62
7
  6
CONTINUOUS
 10
130.503443636
 20
206.0150574836
 11
130.9461844684
 21
206.0752102295
  0
LINE
  8
0
 62
7
  6
CONTINUOUS
 10
130.6096156212
 20
208.552449952
 11
130.2933721694
 21
208.5094837049
  0
LINE
  8
0
 62
7
  6
CONTINUOUS
 10
128.1429163873
 20
208.2173131826
 11
127.6369268202
 21
208.1485671812
  0
LINE
  8
0
 62
7
  6
CONTINUOUS
 10
129.3340709875
 20
202.3262823471
 11
128.883885067
 21
202.2966681122
  0
LINE
  8
0
 62
7
  6
CONTINUOUS
 10
129.2843969663
 20
202.955995764
 11
129.858630775
 21
202.9723980528
  0
LINE
  8
0
 62
7
  6
CONTINUOUS
 10
129.7859043671
 20
203.2829519846
 11
129.3392780715
 21
203.2701946489
  0
LINE
  8
0
 62
7
  6
CONTINUOUS
 10
129.2928809054
 20
204.8945302374
 11
129.7395072011
 21
204.9072875731
  0
LINE
  8
0
 62
7
  6
CONTINUOUS
 10
129.7943884696
 20
205.2214807383
 11
129.2201546609
 21
205.2050784495
  0
LINE
  8
1_AXIS
 62
2
  6
CONTINUOUS
 10
101.931012035
 20
203.2750023829
 11
100.171012035
 21
203.2750023829
  0
LINE
  8
1_AXIS
 62
2
  6
CENTER
 10
96.651012035
 20
203.2750023829
 11
49.7672510821
 21
203.2750023829
  0
LINE
  8
1_AXIS
 62
2
  6
CENTER
 10
105.451012035
 20
203.2750023829
 11
152.334772988
 21
203.2750023829
  0
LINE
  8
0
 62
7
  6
CONTINUOUS
 10
128.7236942429
 20
200.1150433036
 11
129.0419863371
 21
200.0916719738
  0
LINE
  8
0
 62
7
  6
CONTINUOUS
 10
129.0012121306
 20
200.4080053015
 11
128.8102369276
 21
200.4220280954
  0
LINE
  8
0
 62
7
  6
CONTINUOUS
 10
128.9246591843
 20
201.9803347911
 11
129.1156343872
 21
201.9663119971
  0
LINE
  8
0
 62
7
  6
CONTINUOUS
 10
129.6294787087
 20
201.9912519674
 11
129.7567955107
 21
201.9819034381
  0
LINE
  8
0
 62
7
  6
CONTINUOUS
 10
129.7796797944
 20
202.2935624945
 11
129.3340709875
 21
202.3262823471
  0
LINE
  8
0
 62
7
  6
CONTINUOUS
 10
124.0029397016
 20
185.4420041835
 11
124.2106273409
 21
185.2934990049
  0
LINE
  8
0
 62
7
  6
CONTINUOUS
 10
124.4287441951
 20
185.5985400479
 11
124.2729784293
 21
185.7099189578
  0
LINE
  8
0
 62
7
  6
CONTINUOUS
 10
123.4683777951
 20
188.2060918241
 11
124.5587372833
 21
187.4264400786
  0
LINE
  8
0
 62
7
  6
CONTINUOUS
 10
124.8702685241
 20
187.2036824668
 11
125.6490967714
 21
186.6467883332
  0
LINE
  8
0
 62
7
  6
CONTINUOUS
 10
126.126822993
 20
186.7661980329
 11
123.6864946494
 21
188.5111328671
  0
LINE
  8
0
 62
7
  6
CONTINUOUS
 10
120.8662219667
 20
183.0713158684
 11
120.5199639269
 21
183.3605385088
  0
LINE
  8
0
 62
7
  6
CONTINUOUS
 10
118.8985704416
 20
181.8921274386
 11
119.1128069284
 21
181.6555713058
  0
LINE
  8
0
 62
7
  6
CONTINUOUS
 10
119.301586012
 20
181.912654498
 11
119.1730441559
 21
182.0545881378
  0
LINE
  8
0
 62
7
  6
CONTINUOUS
 10
120.3311847832
 20
183.1034553829
 11
120.4597266393
 21
182.961521743
  0
LINE
  8
0
 62
7
  6
CONTINUOUS
 10
120.8488277234
 20
182.6249840483
 11
120.9345222941
 21
182.5303616217
  0
LINE
  8
0
 62
7
  6
CONTINUOUS
 10
121.1661529643
 20
182.7401373753
 11
120.8662219667
 21
183.0713158684
  0
LINE
  8
0
 62
7
  6
CONTINUOUS
 10
90.9967398691
 20
230.5400258268
 11
91.3969456586
 21
229.3277833341
  0
LINE
  8
0
 62
7
  6
CONTINUOUS
 10
91.6936925263
 20
229.4257503788
 11
91.2934867368
 21
230.6379928715
  0
LINE
  8
0
 62
7
  6
CONTINUOUS
 10
92.4804741864
 20
231.0298610433
 11
92.920700552
 21
229.6963943098
  0
LINE
  8
0
 62
7
  6
CONTINUOUS
 10
93.2974886497
 20
229.5519128515
 11
92.7772211178
 21
231.127828109
  0
LINE
  8
0
 62
7
  6
CONTINUOUS
 10
93.5525151117
 20
231.3464836577
 11
94.0199767467
 21
229.3581419125
  0
LINE
  8
0
 62
7
  6
CONTINUOUS
 10
94.3241827454
 20
229.4296611239
 11
93.9881946837
 21
230.8587818022
  0
LINE
  8
0
 62
7
  6
CONTINUOUS
 10
93.9297619845
 20
231.1073244986
 11
93.8567211104
 21
231.4180028691
  0
LINE
  8
0
 62
7
  6
CONTINUOUS
 10
95.1417687695
 20
230.8677082176
 11
95.4193241319
 21
229.6871302357
  0
LINE
  8
0
 62
7
  6
CONTINUOUS
 10
95.6976671017
 20
232.7939134751
 11
95.7529804953
 21
232.479594453
  0
LINE
  8
0
 62
7
  6
CONTINUOUS
 10
95.8636073135
 20
231.8509562327
 11
96.2176130636
 21
229.839314315
  0
LINE
  8
0
 62
7
  6
CONTINUOUS
 10
96.5253836921
 20
229.8934753321
 11
96.171377942
 21
231.9051172497
  0
LINE
  8
0
 62
7
  6
CONTINUOUS
 10
96.0607511238
 20
232.53375547
 11
96.0054377302
 21
232.8480744922
  0
LINE
  8
0
 62
4
  6
CONTINUOUS
 10
104.051012035
 20
190.9500023829
 11
104.051012035
 21
194.234779764
  0
LINE
  8
0
 62
4
  6
CONTINUOUS
 10
104.051012035
 20
212.3152250019
 11
104.051012035
 21
215.6000023829
  0
LINE
  8
0
 62
7
  6
CONTINUOUS
 10
105.1263143734
 20
232.2985719568
 11
105.1047521262
 21
232.108300296
  0
LINE
  8
0
 62
7
  6
CONTINUOUS
 10
105.4701797493
 20
232.0026504353
 11
105.4989294055
 21
232.2563459238
  0
LINE
  8
0
 62
7
  6
CONTINUOUS
 10
108.1083052585
 20
231.6551750755
 11
108.0808189419
 21
231.5305096614
  0
LINE
  8
0
 62
7
  6
CONTINUOUS
 10
107.8334420731
 20
230.4085208474
 11
107.7922125982
 21
230.2215227263
  0
LINE
  8
0
 62
7
  6
CONTINUOUS
 10
108.1446741374
 20
230.0784489546
 11
108.2133899289
 21
230.3901124898
  0
LINE
  8
0
 62
7
  6
CONTINUOUS
 10
108.4332804811
 20
231.3874358897
 11
108.4882531528
 21
231.6367668925
  0
LINE
  8
0
 62
7
  6
CONTINUOUS
 10
113.2401445019
 20
230.0107505678
 11
112.3434269519
 21
227.8259084832
  0
LINE
  8
0
 62
7
  6
CONTINUOUS
 10
112.6903444339
 20
227.6835242822
 11
113.8294180418
 21
230.4588641381
  0
LINE
  8
0
 62
7
  6
CONTINUOUS
 10
115.9436289153
 20
228.5175387423
 11
115.8507569305
 21
228.3500782102
  0
LINE
  8
0
 62
7
  6
CONTINUOUS
 10
116.1477429061
 20
228.1123839295
 11
116.2715721902
 21
228.3356645869
  0
LINE
  8
0
 62
7
  6
CONTINUOUS
 10
118.4509889023
 20
226.7799038871
 11
118.3778017348
 21
226.6753065565
  0
LINE
  8
0
 62
7
  6
CONTINUOUS
 10
117.7191171758
 20
225.7339305074
 11
117.6093364246
 21
225.5770345114
  0
LINE
  8
0
 62
7
  6
CONTINUOUS
 10
117.8799975362
 20
225.3097485159
 11
118.062965455
 21
225.5712418425
  0
LINE
  8
0
 62
7
  6
CONTINUOUS
 10
118.6484628464
 20
226.4080205609
 11
118.794837284
 21
226.6172153687
  0
LINE
  8
0
 62
7
  6
CONTINUOUS
 10
119.2248607995
 20
224.6913044292
 11
119.4277270263
 21
224.93768091
  0
LINE
  8
0
 62
7
  6
CONTINUOUS
 10
122.5442319581
 20
224.2227259825
 11
121.7007736405
 21
223.3513021953
  0
LINE
  8
0
 62
7
  6
CONTINUOUS
 10
121.4344184215
 20
223.0761157767
 11
120.4577824944
 21
222.0670987802
  0
LINE
  8
0
 62
7
  6
CONTINUOUS
 10
120.7272358947
 20
221.8062925973
 11
122.8136853584
 21
223.9619197996
  0
LINE
  8
0
 62
7
  6
CONTINUOUS
 10
134.7735863779
 20
217.5722769901
 11
141.3900048676
 21
219.1644030177
  0
LINE
  8
0
 62
7
  6
CONTINUOUS
 10
129.3392780715
 20
203.2701946489
 11
128.9546710434
 21
203.3217304931
  0
LINE
  8
0
 62
7
  6
CONTINUOUS
 10
129.7395072011
 20
204.9072875731
 11
130.1241143031
 21
204.8557460067
  0
LINE
  8
0
 62
7
  6
CONTINUOUS
 10
128.9635935314
 20
203.0093598044
 11
129.2843969663
 21
202.955995764
  0
LINE
  8
0
 62
7
  6
CONTINUOUS
 10
130.220711577
 20
202.198508548
 11
129.7796797944
 21
202.2935624945
  0
LINE
  8
0
 62
7
  6
CONTINUOUS
 10
129.7567955107
 20
201.9819034381
 11
130.1341688923
 21
201.8915237562
  0
LINE
  8
0
 62
7
  6
CONTINUOUS
 10
121.4197569796
 20
182.3670029633
 11
121.1661529643
 21
182.7401373753
  0
LINE
  8
0
 62
7
  6
CONTINUOUS
 10
120.9345222941
 20
182.5303616217
 11
121.1452832652
 21
182.204542264
  0
LINE
  8
0
 62
7
  6
CONTINUOUS
 10
91.3969456586
 20
229.3277833341
 11
91.5363362016
 21
229.1049282201
  0
LINE
  8
0
 62
7
  6
CONTINUOUS
 10
95.7235299566
 20
229.7586494062
 11
95.4459745941
 21
230.9392273881
  0
LINE
  8
0
 62
7
  6
CONTINUOUS
 10
100.0105181455
 20
231.3034640651
 11
100.070986672
 21
230.9839240885
  0
LINE
  8
0
 62
7
  6
CONTINUOUS
 10
107.8136383823
 20
230.6089756946
 11
107.8334420731
 21
230.4085208474
  0
LINE
  8
0
 62
7
  6
CONTINUOUS
 10
108.2133899289
 20
230.3901124898
 11
108.1935862381
 21
230.590567337
  0
LINE
  8
0
 62
7
  6
CONTINUOUS
 10
108.088501587
 20
231.85563001
 11
108.1083052585
 21
231.6551750755
  0
LINE
  8
0
 62
7
  6
CONTINUOUS
 10
111.15863961
 20
230.8650557737
 11
111.0713957435
 21
228.3479840678
  0
LINE
  8
0
 62
7
  6
CONTINUOUS
 10
111.4238525519
 20
228.5483100131
 11
111.5744544089
 21
231.3843614445
  0
LINE
  8
0
 62
7
  6
CONTINUOUS
 10
96.5715278783
 20
166.9217590174
 11
94.6421402194
 21
160.3957095095
  0
LINE
  8
0
 62
7
  6
CONTINUOUS
 10
117.7776896439
 20
225.9266572516
 11
117.7191171758
 21
225.7339305074
  0
LINE
  8
0
 62
7
  6
CONTINUOUS
 10
128.9029201885
 20
205.1334953584
 11
128.7132934819
 21
205.0655515032
  0
LINE
  8
0
 62
7
  6
CONTINUOUS
 10
130.1151916518
 20
205.1681224151
 11
129.7943884696
 21
205.2214807383
  0
LINE
  8
0
 62
7
  6
CONTINUOUS
 10
128.7703976989
 20
203.0663688004
 11
128.9635935314
 21
203.0093598044
  0
LINE
  8
0
 62
7
  6
CONTINUOUS
 10
130.308387663
 20
205.1111134241
 11
130.1151916518
 21
205.1681224151
  0
LINE
  8
0
 62
7
  6
CONTINUOUS
 10
128.8102369276
 20
200.4220280954
 11
128.623838749
 21
200.4983849833
  0
LINE
  8
0
 62
7
  6
CONTINUOUS
 10
129.1156343872
 20
201.9663119971
 11
129.302032655
 21
201.8899551027
  0
LINE
  8
0
 62
7
  6
CONTINUOUS
 10
130.1341688923
 20
201.8915237562
 11
130.3205672493
 21
201.8151668552
  0
LINE
  8
0
 62
7
  6
CONTINUOUS
 10
128.4145558231
 20
200.2630771114
 11
128.7236942429
 21
200.1150433036
  0
LINE
  8
0
 62
7
  6
CONTINUOUS
 10
130.2941022211
 20
181.2190336246
 11
134.9811330519
 21
176.2851101442
  0
LINE
  8
0
 62
7
  6
CONTINUOUS
 10
123.8835279996
 20
185.6042247148
 11
124.0029397016
 21
185.4420041835
  0
LINE
  8
0
 62
7
  6
CONTINUOUS
 10
124.2729784293
 20
185.7099189578
 11
124.1535667274
 21
185.8721394891
  0
LINE
  8
0
 62
7
  6
CONTINUOUS
 10
91.8130727725
 20
229.2635074294
 11
91.6936925263
 21
229.4257503788
  0
LINE
  8
0
 62
7
  6
CONTINUOUS
 10
93.4368791309
 20
229.3290577289
 11
93.2974886497
 21
229.5519128515
  0
LINE
  8
0
 62
7
  6
CONTINUOUS
 10
95.312092764
 20
231.2356019736
 11
95.2074269354
 21
231.4077051291
  0
LINE
  8
0
 62
7
  6
CONTINUOUS
 10
121.7821737422
 20
185.9549400003
 11
122.1873499002
 21
185.2585033254
  0
LINE
  8
0
 62
7
  6
CONTINUOUS
 10
122.3362758298
 20
185.0419036758
 11
123.247925092
 21
183.4749243153
  0
LINE
  8
0
 62
7
  6
CONTINUOUS
 10
123.6048747447
 20
183.4915300791
 11
122.0317991628
 21
186.2347830803
  0
LINE
  8
0
 62
7
  6
CONTINUOUS
 10
95.0078865912
 20
231.1640827213
 11
95.1417687695
 21
230.8677082176
  0
LINE
  8
0
 62
7
  6
CONTINUOUS
 10
95.4459745941
 20
230.9392273881
 11
95.312092764
 21
231.2356019736
  0
LINE
  8
0
 62
7
  6
CONTINUOUS
 10
119.1730441559
 20
182.0545881378
 11
119.0908292821
 21
182.2384776967
  0
LINE
  8
0
 62
7
  6
CONTINUOUS
 10
120.4597266393
 20
182.961521743
 11
120.5419415732
 21
182.7776321179
  0
LINE
  8
0
 62
7
  6
CONTINUOUS
 10
121.1452832652
 20
182.204542264
 11
121.2274982591
 21
182.0206525726
  0
LINE
  8
0
 62
7
  6
CONTINUOUS
 10
118.7769837081
 20
182.212591535
 11
118.8985704416
 21
181.8921274386
  0
LINE
  8
0
 62
7
  6
CONTINUOUS
 10
102.0194090845
 20
232.6949699301
 11
102.0806903134
 21
232.503086747
  0
LINE
  8
0
 62
7
  6
CONTINUOUS
 10
100.4463850804
 20
231.045367361
 11
100.3855105597
 21
231.3010788492
  0
LINE
  8
0
 62
7
  6
CONTINUOUS
 10
105.0857750427
 20
232.4958810046
 11
105.1263143734
 21
232.2985719568
  0
LINE
  8
0
 62
7
  6
CONTINUOUS
 10
102.4556827277
 20
232.500701531
 11
102.3952134871
 21
232.820241691
  0
LINE
  8
0
 62
7
  6
CONTINUOUS
 10
108.4882531528
 20
231.6367668925
 11
108.4684494428
 21
231.8372216524
  0
LINE
  8
0
 62
7
  6
CONTINUOUS
 10
115.9818444349
 20
228.7153110148
 11
115.9436289153
 21
228.5175387423
  0
LINE
  8
0
 62
7
  6
CONTINUOUS
 10
116.2715721902
 20
228.3356645869
 11
116.3097877098
 21
228.5334368594
  0
LINE
  8
0
 62
7
  6
CONTINUOUS
 10
118.062965455
 20
225.5712418425
 11
118.121537923
 21
225.7639685867
  0
LINE
  8
0
 62
7
  6
CONTINUOUS
 10
118.5095614216
 20
226.9726307046
 11
118.4509889023
 21
226.7799038871
  0
LINE
  8
0
 62
7
  6
CONTINUOUS
 10
118.794837284
 20
226.6172153687
 11
118.8534097007
 21
226.8099420397
  0
LINE
  8
0
 62
7
  6
CONTINUOUS
 10
128.7132934819
 20
205.0655515032
 11
128.4616473736
 21
204.9333144643
  0
LINE
  8
0
 62
7
  6
CONTINUOUS
 10
130.1758649947
 20
203.0439868611
 11
130.36549188
 21
203.1119307214
  0
LINE
  8
0
 62
7
  6
CONTINUOUS
 10
128.883885067
 20
202.2966681122
 11
128.5564393878
 21
202.1953769574
  0
LINE
  8
0
 62
7
  6
CONTINUOUS
 10
129.0419863371
 20
200.0916719738
 11
129.3694319717
 21
200.1929631319
  0
LINE
  8
0
 62
4
  6
CONTINUOUS
 10
104.051012035
 20
215.6000023829
 11
98.051012035
 21
215.6000023829
  0
LINE
  8
0
 62
7
  6
CONTINUOUS
 10
128.5116136656
 20
203.1840260245
 11
128.7703976989
 21
203.0663688004
  0
LINE
  8
0
 62
7
  6
CONTINUOUS
 10
130.5671716516
 20
204.9934561988
 11
130.308387663
 21
205.1111134241
  0
LINE
  8
0
 62
7
  6
CONTINUOUS
 10
130.5298501306
 20
202.0504747305
 11
130.220711577
 21
202.198508548
  0
LINE
  8
0
 62
7
  6
CONTINUOUS
 10
128.9546710434
 20
203.3217304931
 11
128.5647103712
 21
203.5606956153
  0
LINE
  8
0
 62
7
  6
CONTINUOUS
 10
128.623838749
 20
200.4983849833
 11
128.4420171311
 21
200.6370702618
  0
LINE
  8
0
 62
7
  6
CONTINUOUS
 10
91.9918024148
 20
229.1208578493
 11
91.8130727725
 21
229.2635074294
  0
LINE
  8
0
 62
7
  6
CONTINUOUS
 10
91.5363362016
 20
229.1049282201
 11
91.6357061545
 21
229.0032973893
  0
LINE
  8
0
 62
7
  6
CONTINUOUS
 10
93.5362491987
 20
229.2274269243
 11
93.4368791309
 21
229.3290577289
  0
LINE
  8
0
 62
7
  6
CONTINUOUS
 10
93.0207520064
 20
229.3933336654
 11
93.2395022673
 21
229.1294598585
  0
LINE
  8
0
 62
7
  6
CONTINUOUS
 10
100.5701648077
 20
230.8530868221
 11
100.4463850804
 21
231.045367361
  0
LINE
  8
0
 62
7
  6
CONTINUOUS
 10
100.070986672
 20
230.9839240885
 11
100.1943604049
 21
230.7278150165
  0
LINE
  8
0
 62
7
  6
CONTINUOUS
 10
121.5413438031
 20
182.0465387675
 11
121.4197569796
 21
182.3670029633
  0
LINE
  8
0
 62
7
  6
CONTINUOUS
 10
105.4989294055
 20
232.2563459238
 11
105.4583900748
 21
232.4536549716
  0
LINE
  8
0
 62
7
  6
CONTINUOUS
 10
118.7445712573
 20
182.5277003205
 11
118.7769837081
 21
182.212591535
  0
LINE
  8
0
 62
7
  6
CONTINUOUS
 10
121.5737562389
 20
181.7314299985
 11
121.5413438031
 21
182.0465387675
  0
LINE
  8
0
 62
7
  6
CONTINUOUS
 10
118.121537923
 20
225.7639685867
 11
118.1142849104
 21
226.0806569131
  0
LINE
  8
0
 62
7
  6
CONTINUOUS
 10
118.8534097007
 20
226.8099420397
 11
118.8461566881
 21
227.1266303661
  0
LINE
  8
0
 62
7
  6
CONTINUOUS
 10
117.951012035
 20
249.7036314818
 11
117.951012035
 21
248.2709118707
  0
LINE
  8
0
 62
7
  6
CONTINUOUS
 10
128.536158181
 20
204.5602898266
 11
128.9118428398
 21
204.8211189501
  0
LINE
  8
0
 62
7
  6
CONTINUOUS
 10
130.5426271362
 20
203.6171923967
 11
130.1669425067
 21
203.3563575497
  0
LINE
  8
0
 62
7
  6
CONTINUOUS
 10
128.5564393878
 20
202.1953769574
 11
128.2880751075
 21
202.0270774424
  0
LINE
  8
0
 62
7
  6
CONTINUOUS
 10
149.7093842975
 20
211.8534876084
 11
148.4686127178
 21
211.1371278028
  0
LINE
  8
0
 62
7
  6
CONTINUOUS
 10
128.5289780797
 20
201.821383807
 11
128.7291069569
 21
201.932023491
  0
LINE
  8
0
 62
7
  6
CONTINUOUS
 10
130.4200048983
 20
200.5545021288
 11
130.2198760657
 21
200.4438624415
  0
LINE
  8
0
 62
7
  6
CONTINUOUS
 10
130.36549188
 20
203.1119307214
 11
130.6171379436
 21
203.244167759
  0
LINE
  8
0
 62
7
  6
CONTINUOUS
 10
117.4483473388
 20
225.4559691904
 11
117.2727411324
 21
225.4230348133
  0
LINE
  8
0
 62
7
  6
CONTINUOUS
 10
118.216812649
 20
226.5542412355
 11
118.0412064683
 21
226.5213068949
  0
LINE
  8
0
 62
7
  6
CONTINUOUS
 10
91.6357061545
 20
229.0032973893
 11
91.8737851399
 21
228.8802412316
  0
LINE
  8
0
 62
7
  6
CONTINUOUS
 10
70.5334113522
 20
240.4087864508
 11
69.2926397725
 21
241.1251462563
  0
LINE
  8
0
 62
7
  6
CONTINUOUS
 10
130.1241143031
 20
204.8557460067
 11
130.514074946
 21
204.616786608
  0
LINE
  8
0
 62
7
  6
CONTINUOUS
 10
130.3205672493
 20
201.8151668552
 11
130.5023888226
 21
201.6764815801
  0
LINE
  8
0
 62
7
  6
CONTINUOUS
 10
128.1736528508
 20
200.4687707468
 11
128.4145558231
 21
200.2630771114
  0
LINE
  8
0
 62
7
  6
CONTINUOUS
 10
130.7707530806
 20
201.8447810967
 11
130.5298501306
 21
202.0504747305
  0
LINE
  8
0
 62
7
  6
CONTINUOUS
 10
128.3148488482
 20
203.3659821514
 11
128.5116136656
 21
203.1840260245
  0
LINE
  8
0
 62
7
  6
CONTINUOUS
 10
100.1943604049
 20
230.7278150165
 11
100.4427311325
 21
230.470910898
  0
LINE
  8
0
 62
7
  6
CONTINUOUS
 10
105.4583900748
 20
232.4536549716
 11
105.3008321948
 21
232.7284632989
  0
LINE
  8
0
 62
7
  6
CONTINUOUS
 10
108.1935862381
 20
230.590567337
 11
108.0654565226
 21
230.8802686975
  0
LINE
  8
0
 62
7
  6
CONTINUOUS
 10
108.4684494428
 20
231.8372216524
 11
108.3403197272
 21
232.1269230129
  0
LINE
  8
0
 62
7
  6
CONTINUOUS
 10
123.7848989329
 20
185.9052503108
 11
123.8835279996
 21
185.6042247148
  0
LINE
  8
0
 62
7
  6
CONTINUOUS
 10
119.0908292821
 20
182.2384776967
 11
119.0549371194
 21
182.4643193665
  0
LINE
  8
0
 62
7
  6
CONTINUOUS
 10
121.2274982591
 20
182.0206525726
 11
121.2633903918
 21
181.7948109359
  0
LINE
  8
0
 62
7
  6
CONTINUOUS
 10
116.3097877098
 20
228.5334368594
 11
116.2696452698
 21
228.8476544381
  0
LINE
  8
0
 62
7
  6
CONTINUOUS
 10
123.7745423299
 20
186.219986709
 11
123.7848989329
 21
185.9052503108
  0
LINE
  8
0
 62
7
  6
CONTINUOUS
 10
120.5419415732
 20
182.7776321179
 11
120.5349864206
 21
182.5991016945
  0
LINE
  8
0
 62
7
  6
CONTINUOUS
 10
119.0549371194
 20
182.4643193665
 11
119.1082192542
 21
182.6848057089
  0
LINE
  8
0
 62
7
  6
CONTINUOUS
 10
118.8476558189
 20
182.8794058854
 11
118.7445712573
 21
182.5277003205
  0
LINE
  8
0
 62
7
  6
CONTINUOUS
 10
128.2755896072
 20
204.7404234769
 11
128.0931009722
 21
204.4225796385
  0
LINE
  8
0
 62
7
  6
CONTINUOUS
 10
128.4139041934
 20
204.3692213164
 11
128.536158181
 21
204.5602898266
  0
LINE
  8
0
 62
7
  6
CONTINUOUS
 10
128.3879306237
 20
201.6437357611
 11
128.5289780797
 21
201.821383807
  0
LINE
  8
0
 62
7
  6
CONTINUOUS
 10
128.4616473736
 20
204.9333144643
 11
128.2755896072
 21
204.7404234769
  0
LINE
  8
0
 62
7
  6
CONTINUOUS
 10
130.6171379436
 20
203.244167759
 11
130.8031956877
 21
203.4370587457
  0
LINE
  8
DEFAULT_1
 62
2
  6
CENTER
 10
125.2029786
 20
199.1426977005
 11
121.6674446941
 21
195.6071637945
  0
LINE
  8
DEFAULT_1
 62
2
  6
CENTER
 10
105.1833167175
 20
179.1230358179
 11
108.7188506234
 21
182.6585697239
  0
LINE
  8
DEFAULT_1
 62
2
  6
CENTER
 10
112.8435473827
 20
184.5205247834
 11
119.8054896346
 21
191.4824670352
  0
LINE
  8
0
 62
7
  6
CONTINUOUS
 10
129.3694319717
 20
200.1929631319
 11
129.5741378287
 21
200.3659369131
  0
LINE
  8
0
 62
7
  6
CONTINUOUS
 10
129.3332348788
 20
200.5716305469
 11
129.1967644471
 21
200.456316595
  0
LINE
  8
0
 62
7
  6
CONTINUOUS
 10
130.3925435903
 20
200.1805089784
 11
130.6609078483
 21
200.348808495
  0
LINE
  8
0
 62
7
  6
CONTINUOUS
 10
115.4009126295
 20
227.7966813196
 11
115.7124137946
 21
227.8428920272
  0
LINE
  8
0
 62
7
  6
CONTINUOUS
 10
117.1043902862
 20
225.0734104741
 11
117.4190067293
 21
225.0869821437
  0
LINE
  8
0
 62
7
  6
CONTINUOUS
 10
92.2692204836
 20
229.0780072202
 11
91.9918024148
 21
229.1208578493
  0
LINE
  8
0
 62
7
  6
CONTINUOUS
 10
91.8737851399
 20
228.8802412316
 11
92.0918538674
 21
228.8177972102
  0
LINE
  8
0
 62
7
  6
CONTINUOUS
 10
95.0565283255
 20
231.5033688254
 11
94.8447884115
 21
231.584728655
  0
LINE
  8
0
 62
7
  6
CONTINUOUS
 10
100.4427311325
 20
230.470910898
 11
100.6919138485
 21
230.3416637619
  0
LINE
  8
0
 62
7
  6
CONTINUOUS
 10
94.8569879814
 20
231.2597464177
 11
95.0078865912
 21
231.1640827213
  0
LINE
  8
0
 62
7
  6
CONTINUOUS
 10
95.2074269354
 20
231.4077051291
 11
95.0565283255
 21
231.5033688254
  0
LINE
  8
0
 62
7
  6
CONTINUOUS
 10
100.7568490262
 20
230.7242371926
 11
100.5701648077
 21
230.8530868221
  0
LINE
  8
0
 62
7
  6
CONTINUOUS
 10
128.0669043529
 20
207.8285405836
 11
130.503443636
 21
206.0150574836
  0
LINE
  8
0
 62
7
  6
CONTINUOUS
 10
130.5878701515
 20
206.3418971759
 11
128.1429163873
 21
208.2173131826
  0
LINE
  8
0
 62
7
  6
CONTINUOUS
 10
130.7639364466
 20
204.8115000712
 11
130.5671716516
 21
204.9934561988
  0
LINE
  8
0
 62
7
  6
CONTINUOUS
 10
105.3008321948
 20
232.7284632989
 11
105.0739839266
 21
232.9468855243
  0
LINE
  8
DEFAULT_1
 62
2
  6
CENTER
 10
121.6674446941
 20
210.9428409713
 11
125.2029786
 21
207.4073070654
  0
LINE
  8
DEFAULT_1
 62
2
  6
CENTER
 10
108.7188506234
 20
223.891435042
 11
105.1833167175
 21
227.4269689479
  0
LINE
  8
DEFAULT_1
 62
2
  6
CENTER
 10
112.8435473827
 20
222.0294799825
 11
119.8054896346
 21
215.0675377306
  0
LINE
  8
0
 62
7
  6
CONTINUOUS
 10
102.3952134871
 20
232.820241691
 11
102.1468427593
 21
233.0771457872
  0
LINE
  8
0
 62
7
  6
CONTINUOUS
 10
129.302032655
 20
201.8899551027
 11
129.4201958273
 21
201.7559440921
  0
LINE
  8
0
 62
7
  6
CONTINUOUS
 10
108.6955929595
 20
229.9727637625
 11
108.8374713371
 21
229.7957786246
  0
LINE
  8
0
 62
7
  6
CONTINUOUS
 10
104.9759439024
 20
232.6368041117
 11
105.0857750427
 21
232.4958810046
  0
LINE
  8
0
 62
7
  6
CONTINUOUS
 10
128.5647103712
 20
203.5606956153
 11
128.4317493327
 21
203.7444742194
  0
LINE
  8
0
 62
7
  6
CONTINUOUS
 10
128.114515074
 20
203.67288541
 11
128.3148488482
 21
203.3659821514
  0
LINE
  8
0
 62
7
  6
CONTINUOUS
 10
107.7190555351
 20
230.7605550023
 11
107.8136383823
 21
230.6089756946
  0
LINE
  8
0
 62
7
  6
CONTINUOUS
 10
107.9939187398
 20
232.0072093177
 11
108.088501587
 21
231.85563001
  0
LINE
  8
0
 62
7
  6
CONTINUOUS
 10
128.4420171311
 20
200.6370702618
 11
128.3284309832
 21
200.8334153663
  0
LINE
  8
0
 62
7
  6
CONTINUOUS
 10
129.4201958273
 20
201.7559440921
 11
129.5337819753
 21
201.5595989876
  0
LINE
  8
0
 62
7
  6
CONTINUOUS
 10
128.0055623339
 20
200.7944583051
 11
128.1736528508
 21
200.4687707468
  0
POLYLINE
  8
0
 62
7
  6
CONTINUOUS
 66
1
 70
0
  0
VERTEX
  8
0
 62
7
  6
CONTINUOUS
 10
110.5321012405
 20
236.9663803226
  0
VERTEX
  8
0
 62
7
  6
CONTINUOUS
 10
110.6074606459
 20
236.7948234836
  0
VERTEX
  8
0
 62
7
  6
CONTINUOUS
 10
110.7099754054
 20
236.6375587542
  0
VERTEX
  8
0
 62
7
  6
CONTINUOUS
 10
110.8320990437
 20
236.4965192515
  0
VERTEX
  8
0
 62
7
  6
CONTINUOUS
 10
110.9685806084
 20
236.3713613099
  0
VERTEX
  8
0
 62
7
  6
CONTINUOUS
 10
111.1177060119
 20
236.2600226578
  0
VERTEX
  8
0
 62
7
  6
CONTINUOUS
 10
111.2826151413
 20
236.1593198794
  0
VERTEX
  8
0
 62
7
  6
CONTINUOUS
 10
111.4678868013
 20
236.0682019297
  0
VERTEX
  8
0
 62
7
  6
CONTINUOUS
 10
111.6800091962
 20
235.9876919626
  0
SEQEND
  0
LINE
  8
0
 62
7
  6
CONTINUOUS
 10
115.9344450256
 20
228.8875757525
 11
115.9818444349
 21
228.7153110148
  0
LINE
  8
0
 62
7
  6
CONTINUOUS
 10
124.1535667274
 20
185.8721394891
 11
124.1224274891
 21
186.0480708225
  0
LINE
  8
0
 62
7
  6
CONTINUOUS
 10
117.7484577982
 20
226.1029175724
 11
117.7776896439
 21
225.9266572516
  0
LINE
  8
0
 62
7
  6
CONTINUOUS
 10
118.4803295759
 20
227.1488910253
 11
118.5095614216
 21
226.9726307046
  0
LINE
  8
0
 62
7
  6
CONTINUOUS
 10
127.9876724947
 20
201.4224506831
 11
127.964788211
 21
201.1107916266
  0
LINE
  8
0
 62
7
  6
CONTINUOUS
 10
128.2785032362
 20
201.0250862061
 11
128.3105415686
 21
201.4614134505
  0
LINE
  8
0
 62
7
  6
CONTINUOUS
 10
128.0931009722
 20
204.4225796385
 11
128.040004261
 21
204.0459100476
  0
LINE
  8
0
 62
7
  6
CONTINUOUS
 10
128.3590230883
 20
204.0550224315
 11
128.4139041934
 21
204.3692213164
  0
LINE
  8
0
 62
7
  6
CONTINUOUS
 10
120.5349864206
 20
182.5991016945
 11
120.4817042857
 21
182.3786153522
  0
LINE
  8
0
 62
7
  6
CONTINUOUS
 10
120.7422634536
 20
182.1840113635
 11
120.8488277234
 21
182.6249840483
  0
LINE
  8
0
 62
7
  6
CONTINUOUS
 10
121.2633903918
 20
181.7948109359
 11
121.2101082569
 21
181.5743245936
  0
LINE
  8
0
 62
7
  6
CONTINUOUS
 10
128.074215604
 20
201.7294411811
 11
127.9876724947
 21
201.4224506831
  0
LINE
  8
0
 62
7
  6
CONTINUOUS
 10
121.4706674248
 20
181.3797206049
 11
121.5737562389
 21
181.7314299985
  0
LINE
  8
0
 62
7
  6
CONTINUOUS
 10
124.1224274891
 20
186.0480708225
 11
124.1795640428
 21
186.2377176126
  0
LINE
  8
0
 62
7
  6
CONTINUOUS
 10
128.3105415686
 20
201.4614134505
 11
128.3879306237
 21
201.6437357611
  0
LINE
  8
0
 62
7
  6
CONTINUOUS
 10
129.5516713898
 20
200.9316009034
 11
129.4742823348
 21
200.7492785928
  0
LINE
  8
0
 62
7
  6
CONTINUOUS
 10
119.1082192542
 20
182.6848057089
 11
119.2043486745
 21
182.857980838
  0
LINE
  8
0
 62
7
  6
CONTINUOUS
 10
120.4817042857
 20
182.3786153522
 11
120.3855748654
 21
182.2054402231
  0
LINE
  8
0
 62
7
  6
CONTINUOUS
 10
130.8031956877
 20
203.4370587457
 11
130.9856844693
 21
203.754896864
  0
LINE
  8
0
 62
7
  6
CONTINUOUS
 10
130.6648811238
 20
203.8082609069
 11
130.5426271362
 21
203.6171923967
  0
LINE
  8
0
 62
7
  6
CONTINUOUS
 10
123.6864946494
 20
188.5111328671
 11
123.4683777951
 21
188.2060918241
  0
LINE
  8
0
 62
7
  6
CONTINUOUS
 10
128.2880751075
 20
202.0270774424
 11
128.074215604
 21
201.7294411811
  0
LINE
  8
0
 62
7
  6
CONTINUOUS
 10
129.5741378287
 20
200.3659369131
 11
129.7879977344
 21
200.6635788823
  0
LINE
  8
0
 62
7
  6
CONTINUOUS
 10
130.6609078483
 20
200.348808495
 11
130.874767335
 21
200.6464447575
  0
LINE
  8
0
 62
7
  6
CONTINUOUS
 10
119.0364392
 20
183.1364928565
 11
118.8476558189
 21
182.8794058854
  0
LINE
  8
0
 62
7
  6
CONTINUOUS
 10
129.4742823348
 20
200.7492785928
 11
129.3332348788
 21
200.5716305469
  0
LINE
  8
0
 62
7
  6
CONTINUOUS
 10
130.5610523544
 20
200.7321501747
 11
130.4200048983
 21
200.5545021288
  0
LINE
  8
0
 62
7
  6
CONTINUOUS
 10
122.0317991628
 20
186.2347830803
 11
121.7821737422
 21
185.9549400003
  0
LINE
  8
0
 62
7
  6
CONTINUOUS
 10
120.6172538432
 20
184.6490042037
 11
120.3676284227
 21
184.3691611238
  0
LINE
  8
0
 62
7
  6
CONTINUOUS
 10
119.2680656289
 20
183.3462647691
 11
119.0364392
 21
183.1364928565
  0
LINE
  8
0
 62
7
  6
CONTINUOUS
 10
119.542539347
 20
183.5087254643
 11
119.2680656289
 21
183.3462647691
  0
LINE
  8
0
 62
7
  6
CONTINUOUS
 10
119.5286290681
 20
183.1516645884
 11
119.7104530591
 21
183.2302172909
  0
LINE
  8
0
 62
7
  6
CONTINUOUS
 10
124.7194928007
 20
185.2369773713
 11
125.0206674384
 21
185.3289561576
  0
LINE
  8
0
 62
7
  6
CONTINUOUS
 10
107.9571305171
 20
230.9695152981
 11
108.0929428392
 21
231.0049341116
  0
LINE
  8
0
 62
7
  6
CONTINUOUS
 10
101.8193270565
 20
230.7174790837
 11
101.5689263579
 21
230.6552407377
  0
LINE
  8
0
 62
7
  6
CONTINUOUS
 10
100.7702468355
 20
232.8305776238
 11
101.0206475341
 21
232.8928159698
  0
LINE
  8
0
 62
7
  6
CONTINUOUS
 10
94.0199767467
 20
229.3581419125
 11
94.3241827454
 21
229.4296611239
  0
LINE
  8
0
 62
7
  6
CONTINUOUS
 10
95.4193241319
 20
229.6871302357
 11
95.7235299566
 21
229.7586494062
  0
LINE
  8
0
 62
7
  6
CONTINUOUS
 10
94.6476566722
 20
231.6039528105
 11
94.4042918036
 21
231.546737425
  0
LINE
  8
0
 62
7
  6
CONTINUOUS
 10
93.8567211104
 20
231.4180028691
 11
93.5525151117
 21
231.3464836577
  0
LINE
  8
0
 62
7
  6
CONTINUOUS
 10
104.8825075651
 20
231.8122941741
 11
104.68901264
 21
231.7699833629
  0
LINE
  8
0
 62
7
  6
CONTINUOUS
 10
101.5664903926
 20
230.2722697624
 11
101.8793903038
 21
230.334110575
  0
LINE
  8
0
 62
7
  6
CONTINUOUS
 10
96.2176130636
 20
229.839314315
 11
96.5253836921
 21
229.8934753321
  0
LINE
  8
0
 62
7
  6
CONTINUOUS
 10
96.171377942
 20
231.9051172497
 11
95.8636073135
 21
231.8509562327
  0
LINE
  8
0
 62
7
  6
CONTINUOUS
 10
107.5403944483
 20
229.9502296798
 11
107.3435489412
 21
229.9282675051
  0
LINE
  8
0
 62
7
  6
CONTINUOUS
 10
107.8290008016
 20
231.2592166586
 11
107.6321552945
 21
231.2372544839
  0
LINE
  8
0
 62
7
  6
CONTINUOUS
 10
104.5837866282
 20
231.3964779615
 11
104.9014860902
 21
231.4247134821
  0
LINE
  8
0
 62
7
  6
CONTINUOUS
 10
92.0918538674
 20
228.8177972102
 11
92.3492616429
 21
228.8355587174
  0
LINE
  8
0
 62
7
  6
CONTINUOUS
 10
101.0040017713
 20
230.2758475864
 11
101.5664903926
 21
230.2722697624
  0
LINE
  8
0
 62
7
  6
CONTINUOUS
 10
101.5689263579
 20
230.6552407377
 11
101.0064377365
 21
230.6588185617
  0
LINE
  8
0
 62
7
  6
CONTINUOUS
 10
102.4463448614
 20
231.0326462076
 11
102.0713524472
 21
231.0350314236
  0
LINE
  8
0
 62
7
  6
CONTINUOUS
 10
107.2000567968
 20
229.567727858
 11
107.5189700719
 21
229.5627764526
  0
LINE
  8
0
 62
7
  6
CONTINUOUS
 10
94.4627245029
 20
231.2981947286
 11
94.7206975463
 21
231.29327444
  0
LINE
  8
0
 62
7
  6
CONTINUOUS
 10
94.8447884115
 20
231.584728655
 11
94.6476566722
 21
231.6039528105
  0
LINE
  8
0
 62
7
  6
CONTINUOUS
 10
102.9423901797
 20
230.2334816149
 11
103.3150052118
 21
230.1912555819
  0
LINE
  8
0
 62
7
  6
CONTINUOUS
 10
103.4659408213
 20
231.523156141
 11
104.5837866282
 21
231.3964779615
  0
LINE
  8
0
 62
7
  6
CONTINUOUS
 10
104.68901264
 20
231.7699833629
 11
103.5090652753
 21
231.9036991072
  0
LINE
  8
0
 62
7
  6
CONTINUOUS
 10
118.0484594809
 20
226.2046185685
 11
118.1874720779
 21
226.1852542437
  0
LINE
  8
0
 62
7
  6
CONTINUOUS
 10
115.5320000472
 20
228.1619139678
 11
115.3370711103
 21
228.1970309203
  0
LINE
  8
0
 62
7
  6
CONTINUOUS
 10
100.6919138485
 20
230.3416637619
 11
101.0040017713
 21
230.2758475864
  0
LINE
  8
0
 62
7
  6
CONTINUOUS
 10
105.7352380068
 20
229.8906921167
 11
107.2000567968
 21
229.567727858
  0
LINE
  8
0
 62
7
  6
CONTINUOUS
 10
107.3435489412
 20
229.9282675051
 11
106.1839016637
 21
230.1839473379
  0
LINE
  8
0
 62
7
  6
CONTINUOUS
 10
106.3900490672
 20
231.1189380745
 11
107.5496963447
 21
230.8632582416
  0
LINE
  8
0
 62
7
  6
CONTINUOUS
 10
107.6321552945
 20
231.2372544839
 11
106.4725080171
 21
231.4929343167
  0
LINE
  8
0
 62
7
  6
CONTINUOUS
 10
94.7206975463
 20
231.29327444
 11
94.8569879814
 21
231.2597464177
  0
LINE
  8
0
 62
7
  6
CONTINUOUS
 10
101.0064377365
 20
230.6588185617
 11
100.7568490262
 21
230.7242371926
  0
LINE
  8
0
 62
7
  6
CONTINUOUS
 10
101.5831361554
 20
232.8892381458
 11
101.8327248657
 21
232.8238195149
  0
LINE
  8
0
 62
7
  6
CONTINUOUS
 10
117.2727411324
 20
225.4230348133
 11
117.082520201
 21
225.478229813
  0
LINE
  8
0
 62
7
  6
CONTINUOUS
 10
118.0412064683
 20
226.5213068949
 11
117.8509855368
 21
226.5765018947
  0
LINE
  8
0
 62
7
  6
CONTINUOUS
 10
115.0966696847
 20
227.8924227593
 11
115.4009126295
 21
227.7966813196
  0
LINE
  8
0
 62
7
  6
CONTINUOUS
 10
109.915004578
 20
228.8225978901
 11
110.26192206
 21
228.6802136891
  0
LINE
  8
0
 62
7
  6
CONTINUOUS
 10
111.0713957435
 20
228.3479840678
 11
111.533951945
 21
228.1581386476
  0
LINE
  8
0
 62
7
  6
CONTINUOUS
 10
112.3434269519
 20
227.8259084832
 11
112.6903444339
 21
227.6835242822
  0
LINE
  8
0
 62
7
  6
CONTINUOUS
 10
116.8117503383
 20
225.2002684594
 11
117.1043902862
 21
225.0734104741
  0
LINE
  8
0
 62
7
  6
CONTINUOUS
 10
104.7968237954
 20
232.7213409559
 11
104.9759439024
 21
232.6368041117
  0
LINE
  8
0
 62
7
  6
CONTINUOUS
 10
102.1468427593
 20
233.0771457872
 11
101.8976600432
 21
233.2063929065
  0
LINE
  8
0
 62
7
  6
CONTINUOUS
 10
113.1347932116
 20
227.4476965943
 11
113.4627364865
 21
227.2658224389
  0
LINE
  8
0
 62
7
  6
CONTINUOUS
 10
114.1128398598
 20
228.4380452256
 11
115.0966696847
 21
227.8924227593
  0
LINE
  8
0
 62
7
  6
CONTINUOUS
 10
115.3370711103
 20
228.1970309203
 11
114.298583656
 21
228.7729659771
  0
LINE
  8
0
 62
7
  6
CONTINUOUS
 10
107.5496963447
 20
230.8632582416
 11
107.7190555351
 21
230.7605550023
  0
LINE
  8
0
 62
7
  6
CONTINUOUS
 10
107.8245595493
 20
232.109912557
 11
107.9939187398
 21
232.0072093177
  0
LINE
  8
0
 62
7
  6
CONTINUOUS
 10
101.8327248657
 20
232.8238195149
 11
102.0194090845
 21
232.6949699301
  0
LINE
  8
0
 62
7
  6
CONTINUOUS
 10
115.5827315567
 20
226.0602177803
 11
116.8117503383
 21
225.2002684594
  0
LINE
  8
0
 62
7
  6
CONTINUOUS
 10
117.082520201
 20
225.478229813
 11
116.1095477803
 21
226.1590224786
  0
LINE
  8
0
 62
7
  6
CONTINUOUS
 10
116.6584516135
 20
226.9435025684
 11
117.6314240343
 21
226.2627099028
  0
LINE
  8
0
 62
7
  6
CONTINUOUS
 10
117.8509855368
 20
226.5765018947
 11
116.8780131161
 21
227.2572945603
  0
LINE
  8
0
 62
7
  6
CONTINUOUS
 10
118.5493779872
 20
225.2474965176
 11
119.2248607995
 21
224.6913044292
  0
LINE
  8
0
 62
7
  6
CONTINUOUS
 10
119.4277270263
 20
224.93768091
 11
118.752244214
 21
225.4938729984
  0
LINE
  8
0
 62
7
  6
CONTINUOUS
 10
108.0654565226
 20
230.8802686975
 11
107.9571305171
 21
230.9695152981
  0
LINE
  8
0
 62
7
  6
CONTINUOUS
 10
118.9308785223
 20
223.5450018102
 11
119.2003319225
 21
223.2841956273
  0
LINE
  8
0
 62
7
  6
CONTINUOUS
 10
120.4577824944
 20
222.0670987802
 11
120.7272358947
 21
221.8062925973
  0
LINE
  8
0
 62
7
  6
CONTINUOUS
 10
120.1769678497
 20
224.2932126238
 11
121.4344184215
 21
223.0761157767
  0
LINE
  8
0
 62
7
  6
CONTINUOUS
 10
115.8014306875
 20
229.0343329555
 11
115.9344450256
 21
228.8875757525
  0
LINE
  8
0
 62
7
  6
CONTINUOUS
 10
108.3403197272
 20
232.1269230129
 11
108.1374122715
 21
232.3677486131
  0
LINE
  8
0
 62
7
  6
CONTINUOUS
 10
110.0817809443
 20
231.083508824
 11
109.9399026191
 21
231.2604941329
  0
LINE
  8
0
 62
7
  6
CONTINUOUS
 10
117.6314240343
 20
226.2627099028
 11
117.7484577982
 21
226.1029175724
  0
LINE
  8
0
 62
7
  6
CONTINUOUS
 10
118.3632958119
 20
227.3086833558
 11
118.4803295759
 21
227.1488910253
  0
LINE
  8
0
 62
7
  6
CONTINUOUS
 10
130.514074946
 20
204.616786608
 11
130.6470359845
 21
204.4330080039
  0
LINE
  8
0
 62
7
  6
CONTINUOUS
 10
130.9642703675
 20
204.5045910925
 11
130.7639364466
 21
204.8115000712
  0
LINE
  8
0
 62
7
  6
CONTINUOUS
 10
129.8566510046
 20
201.5985617584
 11
129.6294787087
 21
201.9912519674
  0
LINE
  8
0
 62
7
  6
CONTINUOUS
 10
130.5023888226
 20
201.6764815801
 11
130.6159749705
 21
201.4801364756
  0
LINE
  8
0
 62
7
  6
CONTINUOUS
 10
118.1142849104
 20
226.0806569131
 11
118.0484594809
 21
226.2046185685
  0
LINE
  8
0
 62
7
  6
CONTINUOUS
 10
130.9388439998
 20
201.5190992463
 11
130.7707530806
 21
201.8447810967
  0
LINE
  8
0
 62
7
  6
CONTINUOUS
 10
116.2696452698
 20
228.8476544381
 11
116.1438879009
 21
229.1363644821
  0
LINE
  8
0
 62
7
  6
CONTINUOUS
 10
118.8461566881
 20
227.1266303661
 11
118.7511017571
 21
227.4268507021
  0
LINE
  8
0
 62
7
  6
CONTINUOUS
 10
128.3284309832
 20
200.8334153663
 11
128.2785032362
 21
201.0250862061
  0
LINE
  8
0
 62
7
  6
CONTINUOUS
 10
129.5337819753
 20
201.5595989876
 11
129.5837097222
 21
201.3679281478
  0
LINE
  8
0
 62
7
  6
CONTINUOUS
 10
130.6159749705
 20
201.4801364756
 11
130.6659027175
 21
201.2884656357
  0
LINE
  8
0
 62
7
  6
CONTINUOUS
 10
128.4317493327
 20
203.7444742194
 11
128.3590230883
 21
204.0550224315
  0
LINE
  8
0
 62
7
  6
CONTINUOUS
 10
128.040004261
 20
204.0459100476
 11
128.114515074
 21
203.67288541
  0
LINE
  8
0
 62
7
  6
CONTINUOUS
 10
127.6369268202
 20
208.1485671812
 11
127.9734956674
 21
205.6713274588
  0
LINE
  8
0
 62
7
  6
CONTINUOUS
 10
128.3529878539
 20
205.7228869613
 11
128.0669043529
 21
207.8285405836
  0
LINE
  8
0
 62
7
  6
CONTINUOUS
 10
127.964788211
 20
201.1107916266
 11
128.0055623339
 21
200.7944583051
  0
LINE
  8
0
 62
7
  6
CONTINUOUS
 10
129.5837097222
 20
201.3679281478
 11
129.5516713898
 21
200.9316009034
  0
LINE
  8
0
 62
7
  6
CONTINUOUS
 10
129.8745404191
 20
200.9705636741
 11
129.8974247029
 21
201.2822227306
  0
LINE
  8
0
 62
7
  6
CONTINUOUS
 10
130.2198760657
 20
200.4438624415
 11
130.1969913629
 21
200.1321976784
  0
LINE
  8
0
 62
7
  6
CONTINUOUS
 10
130.6659027175
 20
201.2884656357
 11
130.6384414094
 21
200.9144724853
  0
LINE
  8
0
 62
7
  6
CONTINUOUS
 10
130.9613104387
 20
200.953435256
 11
130.9796176981
 21
201.2027602185
  0
LINE
  8
0
 62
7
  6
CONTINUOUS
 10
130.9856844693
 20
203.754896864
 11
131.038781175
 21
204.1315664547
  0
LINE
  8
0
 62
7
  6
CONTINUOUS
 10
130.7197623924
 20
204.1224540721
 11
130.6648811238
 21
203.8082609069
  0
LINE
  8
0
 62
7
  6
CONTINUOUS
 10
129.7879977344
 20
200.6635788823
 11
129.8745404191
 21
200.9705636741
  0
LINE
  8
0
 62
7
  6
CONTINUOUS
 10
130.874767335
 20
200.6464447575
 11
130.9613104387
 21
200.953435256
  0
LINE
  8
0
 62
7
  6
CONTINUOUS
 10
130.6384414094
 20
200.9144724853
 11
130.5610523544
 21
200.7321501747
  0
LINE
  8
0
 62
7
  6
CONTINUOUS
 10
123.9043867205
 20
186.5113169498
 11
123.7745423299
 21
186.219986709
  0
LINE
  8
0
 62
7
  6
CONTINUOUS
 10
121.2101082569
 20
181.5743245936
 11
121.1139788367
 21
181.4011494645
  0
LINE
  8
0
 62
7
  6
CONTINUOUS
 10
124.5587372833
 20
187.4264400786
 11
123.9043867205
 21
186.5113169498
  0
LINE
  8
0
 62
7
  6
CONTINUOUS
 10
124.1795640428
 20
186.2377176126
 11
124.8702685241
 21
187.2036824668
  0
LINE
  8
0
 62
7
  6
CONTINUOUS
 10
125.6490967714
 20
186.6467883332
 11
124.9583922902
 21
185.680823479
  0
LINE
  8
0
 62
7
  6
CONTINUOUS
 10
125.2543555759
 20
185.5460338611
 11
126.126822993
 21
186.7661980329
  0
LINE
  8
0
 62
7
  6
CONTINUOUS
 10
120.55348431
 20
181.9269282377
 11
120.7422634536
 21
182.1840113635
  0
LINE
  8
0
 62
7
  6
CONTINUOUS
 10
121.2818882812
 20
181.1226374791
 11
121.4706674248
 21
181.3797206049
  0
LINE
  8
0
 62
7
  6
CONTINUOUS
 10
122.1873499002
 20
185.2585033254
 11
121.3552664346
 21
184.3256944822
  0
LINE
  8
0
 62
7
  6
CONTINUOUS
 10
121.5873995681
 20
184.2023744359
 11
122.3362758298
 21
185.0419036758
  0
LINE
  8
0
 62
7
  6
CONTINUOUS
 10
123.2720421203
 20
183.1184073958
 11
123.6048747447
 21
183.4915300791
  0
LINE
  8
0
 62
7
  6
CONTINUOUS
 10
125.0206674384
 20
185.3289561576
 11
125.2543555759
 21
185.5460338611
  0
LINE
  8
0
 62
7
  6
CONTINUOUS
 10
119.2043486745
 20
182.857980838
 11
119.5286290681
 21
183.1516645884
  0
LINE
  8
0
 62
7
  6
CONTINUOUS
 10
120.3855748654
 20
182.2054402231
 11
120.0612944719
 21
181.9117564726
  0
LINE
  8
0
 62
7
  6
CONTINUOUS
 10
120.321857881
 20
181.7171563251
 11
120.55348431
 21
181.9269282377
  0
LINE
  8
0
 62
7
  6
CONTINUOUS
 10
120.2083343374
 20
181.0976492433
 11
119.9767079084
 21
180.8878773307
  0
LINE
  8
0
 62
7
  6
CONTINUOUS
 10
121.1139788367
 20
181.4011494645
 11
120.8360254254
 21
181.149421633
  0
LINE
  8
0
 62
7
  6
CONTINUOUS
 10
121.0965845933
 20
180.9548176443
 11
121.2818882812
 21
181.1226374791
  0
LINE
  8
0
 62
7
  6
CONTINUOUS
 10
124.9583922902
 20
185.680823479
 11
124.7974119896
 21
185.5654292261
  0
LINE
  8
0
 62
7
  6
CONTINUOUS
 10
120.0473799254
 20
181.5546917847
 11
120.321857881
 21
181.7171563251
  0
LINE
  8
0
 62
7
  6
CONTINUOUS
 10
120.822110879
 20
180.7923569451
 11
121.0965845933
 21
180.9548176443
  0
LINE
  8
0
 62
7
  6
CONTINUOUS
 10
120.0612944719
 20
181.9117564726
 11
119.8794704809
 21
181.8332037701
  0
LINE
  8
0
 62
7
  6
CONTINUOUS
 10
120.8360254254
 20
181.149421633
 11
120.6542014344
 21
181.0708689305
  0
LINE
  8
0
 62
7
  6
CONTINUOUS
 10
101.023083499
 20
233.2757869004
 11
100.7101835879
 21
233.2139460934
  0
LINE
  8
0
 62
7
  6
CONTINUOUS
 10
95.7529804953
 20
232.479594453
 11
96.0607511238
 21
232.53375547
  0
LINE
  8
0
 62
7
  6
CONTINUOUS
 10
96.0054377302
 20
232.8480744922
 11
95.6976671017
 21
232.7939134751
  0
LINE
  8
0
 62
7
  6
CONTINUOUS
 10
102.0806903134
 20
232.503086747
 11
102.4556827277
 21
232.500701531
  0
LINE
  8
0
 62
7
  6
CONTINUOUS
 10
101.0206475341
 20
232.8928159698
 11
101.5831361554
 21
232.8892381458
  0
LINE
  8
0
 62
7
  6
CONTINUOUS
 10
101.5855721204
 20
233.2722090764
 11
101.023083499
 21
233.2757869004
  0
LINE
  8
0
 62
7
  6
CONTINUOUS
 10
103.6168764307
 20
232.8550567002
 11
104.7968237954
 21
232.7213409559
  0
LINE
  8
0
 62
7
  6
CONTINUOUS
 10
104.7706592827
 20
233.0454976591
 11
103.2801984437
 21
233.2144018716
  0
LINE
  8
0
 62
7
  6
CONTINUOUS
 10
101.8976600432
 20
233.2063929065
 11
101.5855721204
 21
233.2722090764
  0
LINE
  8
0
 62
7
  6
CONTINUOUS
 10
106.6649122719
 20
232.3655923898
 11
107.8245595493
 21
232.109912557
  0
LINE
  8
0
 62
7
  6
CONTINUOUS
 10
107.8459853142
 20
232.497365438
 11
106.3811665242
 21
232.8203296968
  0
LINE
  8
0
 62
7
  6
CONTINUOUS
 10
105.0739839266
 20
232.9468855243
 11
104.7706592827
 21
233.0454976591
  0
LINE
  8
0
 62
7
  6
CONTINUOUS
 10
113.8294180418
 20
230.4588641381
 11
113.3090418188
 21
230.6724404396
  0
LINE
  8
0
 62
7
  6
CONTINUOUS
 10
111.5744544089
 20
231.3843614445
 11
111.0540781859
 21
231.597937746
  0
LINE
  8
0
 62
7
  6
CONTINUOUS
 10
108.1374122715
 20
232.3677486131
 11
107.8459853142
 21
232.497365438
  0
LINE
  8
0
 62
7
  6
CONTINUOUS
 10
114.7629432331
 20
229.6102680123
 11
115.8014306875
 21
229.0343329555
  0
LINE
  8
0
 62
7
  6
CONTINUOUS
 10
115.9015595548
 20
229.3437461722
 11
114.589786455
 21
230.0712427939
  0
LINE
  8
0
 62
7
  6
CONTINUOUS
 10
117.3903233912
 20
227.9894760214
 11
118.3632958119
 21
227.3086833558
  0
LINE
  8
0
 62
7
  6
CONTINUOUS
 10
118.53164898
 20
227.6583060227
 11
117.3026301984
 21
228.5182553435
  0
LINE
  8
0
 62
7
  6
CONTINUOUS
 10
116.1438879009
 20
229.1363644821
 11
115.9015595548
 21
229.3437461722
  0
LINE
  8
0
 62
7
  6
CONTINUOUS
 10
121.7007736405
 20
223.3513021953
 11
120.4433230686
 21
224.5683990423
  0
LINE
  8
0
 62
7
  6
CONTINUOUS
 10
122.8136853584
 20
223.9619197996
 11
122.5442319581
 21
224.2227259825
  0
LINE
  8
0
 62
7
  6
CONTINUOUS
 10
121.2867813863
 20
225.4398228296
 11
121.017327986
 21
225.7006290125
  0
LINE
  8
0
 62
7
  6
CONTINUOUS
 10
118.7511017571
 20
227.4268507021
 11
118.53164898
 21
227.6583060227
  0
LINE
  8
0
 62
7
  6
CONTINUOUS
 10
130.6470359845
 20
204.4330080039
 11
130.7197623924
 21
204.1224540721
  0
LINE
  8
0
 62
7
  6
CONTINUOUS
 10
131.038781175
 20
204.1315664547
 11
130.9642703675
 21
204.5045910925
  0
LINE
  8
0
 62
7
  6
CONTINUOUS
 10
130.2933721694
 20
208.5094837049
 11
130.5878701515
 21
206.3418971759
  0
LINE
  8
0
 62
7
  6
CONTINUOUS
 10
130.9461844684
 20
206.0752102295
 11
130.6096156212
 21
208.552449952
  0
LINE
  8
0
 62
7
  6
CONTINUOUS
 10
129.8974247029
 20
201.2822227306
 11
129.8566510046
 21
201.5985617584
  0
LINE
  8
0
 62
7
  6
CONTINUOUS
 10
130.9796176981
 20
201.2027602185
 11
130.9388439998
 21
201.5190992463
  0
LINE
  8
0
 62
7
  6
CONTINUOUS
 10
145.3573967856
 20
208.0259118707
 11
130.2235964442
 21
181.8134007678
  0
LINE
  8
0
 62
7
  6
CONTINUOUS
 10
74.7834113522
 20
239.2700023829
 11
105.051012035
 21
239.2700023829
  0
POLYLINE
  8
0
 62
7
  6
CONTINUOUS
 66
1
 70
0
  0
VERTEX
  8
0
 62
7
  6
CONTINUOUS
 10
111.6800091962
 20
235.9876919626
  0
VERTEX
  8
0
 62
7
  6
CONTINUOUS
 10
111.9136423531
 20
235.9249575676
  0
VERTEX
  8
0
 62
7
  6
CONTINUOUS
 10
112.1244206113
 20
235.8903024814
  0
VERTEX
  8
0
 62
7
  6
CONTINUOUS
 10
112.3186198282
 20
235.876832084
  0
VERTEX
  8
0
 62
7
  6
CONTINUOUS
 10
112.5020480596
 20
235.8813334827
  0
VERTEX
  8
0
 62
7
  6
CONTINUOUS
 10
112.680611668
 20
235.9036730825
  0
VERTEX
  8
0
 62
7
  6
CONTINUOUS
 10
112.8567220981
 20
235.9463148135
  0
VERTEX
  8
0
 62
7
  6
CONTINUOUS
 10
113.0267836006
 20
236.0124548083
  0
VERTEX
  8
0
 62
7
  6
CONTINUOUS
 10
113.183944825
 20
236.1047441107
  0
SEQEND
  0
LINE
  8
0
 62
7
  6
CONTINUOUS
 10
119.0897961028
 20
244.0209118707
 11
134.2235964442
 21
217.8084007678
  0
LINE
  8
0
 62
7
  6
CONTINUOUS
 10
134.9348733819
 20
173.4179286553
 11
135.2454947566
 21
175.4509935622
  0
LINE
  8
0
 62
7
  6
CONTINUOUS
 10
92.1359583776
 20
159.0021808144
 11
94.0519549219
 21
159.7497072664
  0
LINE
  8
0
 62
7
  6
CONTINUOUS
 10
52.1426397725
 20
104.8340756222
 11
52.1426397725
 21
97.0870950561
  0
LINE
  8
0
 62
7
  6
CONTINUOUS
 10
66.8459048681
 20
105.2105853392
 11
66.8459048681
 21
96.7105853392
  0
LINE
  8
1_AXIS
 62
7
  6
CONTINUOUS
 10
68.551012035
 20
120.1105853392
 11
68.551012035
 21
108.2105853392
  0
LINE
  8
1_AXIS
 62
7
  6
CONTINUOUS
 10
68.551012035
 20
93.7105853392
 11
68.551012035
 21
81.8105853392
  0
LINE
  8
0
 62
7
  6
CONTINUOUS
 10
131.038781175
 20
79.5105853392
 11
127.6369268202
 21
79.5105853392
  0
LINE
  8
0
 62
7
  6
CONTINUOUS
 10
126.126822993
 20
79.5105853392
 11
108.6955929595
 21
79.5105853392
  0
LINE
  8
0
 62
7
  6
CONTINUOUS
 10
108.4882531528
 20
79.5105853392
 11
105.7352380068
 21
79.5105853392
  0
LINE
  8
0
 62
7
  6
CONTINUOUS
 10
105.4989294055
 20
79.5105853392
 11
102.9423901797
 21
79.5105853392
  0
LINE
  8
0
 62
7
  6
CONTINUOUS
 10
102.4556827277
 20
79.5105853392
 11
100.0105181455
 21
79.5105853392
  0
LINE
  8
0
 62
7
  6
CONTINUOUS
 10
96.5253836921
 20
79.5105853392
 11
93.5525151117
 21
79.5105853392
  0
LINE
  8
0
 62
7
  6
CONTINUOUS
 10
93.5362491987
 20
79.5105853392
 11
90.9967398691
 21
79.5105853392
  0
LINE
  8
1_AXIS
 62
7
  6
CONTINUOUS
 10
131.551012035
 20
79.8105853392
 11
70.551012035
 21
79.8105853392
  0
POLYLINE
  8
0
 62
7
  6
CONTINUOUS
 66
1
 70
0
  0
VERTEX
  8
0
 62
7
  6
CONTINUOUS
 10
52.5952267716
 20
96.5893481251
  0
VERTEX
  8
0
 62
7
  6
CONTINUOUS
 10
52.4838751885
 20
96.6129708035
  0
VERTEX
  8
0
 62
7
  6
CONTINUOUS
 10
52.3831616746
 20
96.6596946388
  0
VERTEX
  8
0
 62
7
  6
CONTINUOUS
 10
52.2939802035
 20
96.7287146647
  0
VERTEX
  8
0
 62
7
  6
CONTINUOUS
 10
52.2209484225
 20
96.818438388
  0
VERTEX
  8
0
 62
7
  6
CONTINUOUS
 10
52.1692897458
 20
96.9260368299
  0
VERTEX
  8
0
 62
7
  6
CONTINUOUS
 10
52.1442889266
 20
97.046518778
  0
VERTEX
  8
0
 62
7
  6
CONTINUOUS
 10
52.1426397753
 20
97.0870950561
  0
SEQEND
  0
POLYLINE
  8
0
 62
7
  6
CONTINUOUS
 66
1
 70
0
  0
VERTEX
  8
0
 62
7
  6
CONTINUOUS
 10
149.5064806348
 20
96.5893181571
  0
VERTEX
  8
0
 62
7
  6
CONTINUOUS
 10
149.606958492
 20
96.6093693428
  0
VERTEX
  8
0
 62
7
  6
CONTINUOUS
 10
149.70962864
 20
96.6542235174
  0
VERTEX
  8
0
 62
7
  6
CONTINUOUS
 10
149.8017706452
 20
96.7227166965
  0
VERTEX
  8
0
 62
7
  6
CONTINUOUS
 10
149.8768811578
 20
96.8119653201
  0
VERTEX
  8
0
 62
7
  6
CONTINUOUS
 10
149.9306035561
 20
96.9199053126
  0
VERTEX
  8
0
 62
7
  6
CONTINUOUS
 10
149.9572205919
 20
97.0406297568
  0
VERTEX
  8
0
 62
7
  6
CONTINUOUS
 10
149.9593842967
 20
97.0870950561
  0
SEQEND
  0
LINE
  8
0
 62
7
  6
CONTINUOUS
 10
90.9967398691
 20
79.8105853392
 11
90.9967398691
 21
79.5105853392
  0
LINE
  8
0
 62
7
  6
CONTINUOUS
 10
91.2934867368
 20
79.8105853392
 11
91.2934867368
 21
79.5105853392
  0
LINE
  8
0
 62
7
  6
CONTINUOUS
 10
91.6936925263
 20
79.8105853392
 11
91.6936925263
 21
79.5105853392
  0
LINE
  8
0
 62
7
  6
CONTINUOUS
 10
91.8130727725
 20
79.8105853392
 11
91.8130727725
 21
79.5105853392
  0
LINE
  8
0
 62
7
  6
CONTINUOUS
 10
91.9918024148
 20
79.8105853392
 11
91.9918024148
 21
79.5105853392
  0
LINE
  8
0
 62
7
  6
CONTINUOUS
 10
92.2692204836
 20
79.8105853392
 11
92.2692204836
 21
79.5105853392
  0
LINE
  8
0
 62
7
  6
CONTINUOUS
 10
92.4804741864
 20
79.8105853392
 11
92.4804741864
 21
79.5105853392
  0
LINE
  8
0
 62
7
  6
CONTINUOUS
 10
92.7772211178
 20
79.8105853392
 11
92.7772211178
 21
79.5105853392
  0
LINE
  8
0
 62
7
  6
CONTINUOUS
 10
93.2974886497
 20
79.8105853392
 11
93.2974886497
 21
79.5105853392
  0
LINE
  8
0
 62
7
  6
CONTINUOUS
 10
93.4368791309
 20
79.8105853392
 11
93.4368791309
 21
79.5105853392
  0
LINE
  8
0
 62
7
  6
CONTINUOUS
 10
93.5362491987
 20
79.8105853392
 11
93.5362491987
 21
79.5105853392
  0
LINE
  8
0
 62
7
  6
CONTINUOUS
 10
93.5525151117
 20
79.8105853392
 11
93.5525151117
 21
79.5105853392
  0
LINE
  8
0
 62
7
  6
CONTINUOUS
 10
93.8567211104
 20
79.8105853392
 11
93.8567211104
 21
79.5105853392
  0
LINE
  8
0
 62
7
  6
CONTINUOUS
 10
93.9297619845
 20
79.8105853392
 11
93.9297619845
 21
79.5105853392
  0
LINE
  8
0
 62
7
  6
CONTINUOUS
 10
94.0222280691
 20
79.8105853392
 11
94.0222280691
 21
79.5105853392
  0
LINE
  8
0
 62
7
  6
CONTINUOUS
 10
94.1755351099
 20
79.8105853392
 11
94.1755351099
 21
79.5105853392
  0
LINE
  8
0
 62
7
  6
CONTINUOUS
 10
94.4042918036
 20
79.8105853392
 11
94.4042918036
 21
79.5105853392
  0
LINE
  8
0
 62
7
  6
CONTINUOUS
 10
145.8053956405
 20
96.2302574266
 11
146.9431363686
 21
96.3437031194
  0
LINE
  8
0
 62
7
  6
CONTINUOUS
 10
146.9431363686
 20
96.3437031194
 11
148.2658592859
 21
96.4713503217
  0
LINE
  8
0
 62
7
  6
CONTINUOUS
 10
148.2658580186
 20
96.4713501521
 11
149.5067882892
 21
96.5893472668
  0
LINE
  8
0
 62
7
  6
CONTINUOUS
 10
149.5067971922
 20
96.5893481844
 11
149.5064806348
 21
96.5893181571
  0
LINE
  8
0
 62
7
  6
CONTINUOUS
 10
145.6986347592
 20
96.2209218096
 11
145.8053924075
 21
96.2302570326
  0
POLYLINE
  8
0
 62
7
  6
CONTINUOUS
 66
1
 70
0
  0
VERTEX
  8
0
 62
7
  6
CONTINUOUS
 10
56.2966316627
 20
96.2302570325
  0
VERTEX
  8
0
 62
7
  6
CONTINUOUS
 10
56.4033893174
 20
96.220921809
  0
VERTEX
  8
0
 62
7
  6
CONTINUOUS
 10
56.5687359009
 20
96.2123327001
  0
VERTEX
  8
0
 62
7
  6
CONTINUOUS
 10
56.6838936755
 20
96.2105853708
  0
SEQEND
  0
LINE
  8
0
 62
7
  6
CONTINUOUS
 10
52.5952267685
 20
96.5893481093
 11
54.4846128669
 21
96.4093080843
  0
POLYLINE
  8
0
 62
7
  6
CONTINUOUS
 66
1
 70
0
  0
VERTEX
  8
0
 62
7
  6
CONTINUOUS
 10
54.4846128669
 20
96.4093080843
  0
VERTEX
  8
0
 62
7
  6
CONTINUOUS
 10
55.7808250274
 20
96.2821381232
  0
VERTEX
  8
0
 62
7
  6
CONTINUOUS
 10
56.2966284172
 20
96.230257429
  0
SEQEND
  0
LINE
  8
0
 62
7
  6
CONTINUOUS
 10
94.6476566722
 20
79.8105853392
 11
94.6476566722
 21
79.5105853392
  0
LINE
  8
0
 62
7
  6
CONTINUOUS
 10
94.8447884115
 20
79.8105853392
 11
94.8447884115
 21
79.5105853392
  0
LINE
  8
0
 62
7
  6
CONTINUOUS
 10
95.0565283255
 20
79.8105853392
 11
95.0565283255
 21
79.5105853392
  0
LINE
  8
0
 62
7
  6
CONTINUOUS
 10
95.2074269354
 20
79.8105853392
 11
95.2074269354
 21
79.5105853392
  0
LINE
  8
0
 62
7
  6
CONTINUOUS
 10
95.312092764
 20
79.8105853392
 11
95.312092764
 21
79.5105853392
  0
LINE
  8
0
 62
7
  6
CONTINUOUS
 10
95.4459745941
 20
79.8105853392
 11
95.4459745941
 21
79.5105853392
  0
LINE
  8
0
 62
7
  6
CONTINUOUS
 10
95.6976671017
 20
79.8105853392
 11
95.6976671017
 21
79.5105853392
  0
LINE
  8
0
 62
7
  6
CONTINUOUS
 10
96.0054377302
 20
79.8105853392
 11
96.0054377302
 21
79.5105853392
  0
LINE
  8
0
 62
7
  6
CONTINUOUS
 10
96.0607511238
 20
79.8105853392
 11
96.0607511238
 21
79.5105853392
  0
LINE
  8
0
 62
7
  6
CONTINUOUS
 10
96.171377942
 20
79.8105853392
 11
96.171377942
 21
79.5105853392
  0
LINE
  8
0
 62
7
  6
CONTINUOUS
 10
96.5253836921
 20
79.8105853392
 11
96.5253836921
 21
79.5105853392
  0
POLYLINE
  8
0
 62
7
  6
CONTINUOUS
 66
1
 70
0
  0
VERTEX
  8
0
 62
7
  6
CONTINUOUS
 10
145.4181303939
 20
96.2105853707
  0
VERTEX
  8
0
 62
7
  6
CONTINUOUS
 10
145.5332881742
 20
96.2123327002
  0
VERTEX
  8
0
 62
7
  6
CONTINUOUS
 10
145.6986347592
 20
96.2209218096
  0
SEQEND
  0
LINE
  8
1_AXIS
 62
7
  6
CONTINUOUS
 10
145.4181266366
 20
96.2105853392
 11
143.5351713945
 21
96.2105853392
  0
LINE
  8
1_AXIS
 62
7
  6
CONTINUOUS
 10
73.8754554905
 20
96.2105853392
 11
67.6609756283
 21
96.2105853392
  0
LINE
  8
0
 62
7
  6
CONTINUOUS
 10
56.6838974358
 20
96.2105853392
 11
145.4181266348
 21
96.2105853392
  0
LINE
  8
0
 62
7
  6
CONTINUOUS
 10
100.0105181455
 20
79.8105853392
 11
100.0105181455
 21
79.5105853392
  0
LINE
  8
0
 62
7
  6
CONTINUOUS
 10
100.0166080584
 20
79.8105853392
 11
100.0166080584
 21
79.5105853392
  0
LINE
  8
0
 62
7
  6
CONTINUOUS
 10
100.0811365276
 20
79.8105853392
 11
100.0811365276
 21
79.5105853392
  0
LINE
  8
0
 62
7
  6
CONTINUOUS
 10
100.2077582141
 20
79.8105853392
 11
100.2077582141
 21
79.5105853392
  0
LINE
  8
0
 62
7
  6
CONTINUOUS
 10
100.4593768952
 20
79.8105853392
 11
100.4593768952
 21
79.5105853392
  0
LINE
  8
0
 62
7
  6
CONTINUOUS
 10
100.7101835879
 20
79.8105853392
 11
100.7101835879
 21
79.5105853392
  0
LINE
  8
0
 62
7
  6
CONTINUOUS
 10
101.023083499
 20
79.8105853392
 11
101.023083499
 21
79.5105853392
  0
LINE
  8
1_AXIS
 62
2
  6
CENTER
 10
101.051012035
 20
77.8105853392
 11
101.051012035
 21
124.1105853392
  0
LINE
  8
0
 62
7
  6
CONTINUOUS
 10
101.5855721204
 20
79.8105853392
 11
101.5855721204
 21
79.5105853392
  0
LINE
  8
0
 62
7
  6
CONTINUOUS
 10
101.8976600432
 20
79.8105853392
 11
101.8976600432
 21
79.5105853392
  0
LINE
  8
0
 62
7
  6
CONTINUOUS
 10
102.1468427593
 20
79.8105853392
 11
102.1468427593
 21
79.5105853392
  0
LINE
  8
0
 62
7
  6
CONTINUOUS
 10
102.3952134871
 20
79.8105853392
 11
102.3952134871
 21
79.5105853392
  0
LINE
  8
0
 62
7
  6
CONTINUOUS
 10
102.4556827277
 20
79.8105853392
 11
102.4556827277
 21
79.5105853392
  0
LINE
  8
0
 62
7
  6
CONTINUOUS
 10
102.9423901797
 20
79.8105853392
 11
102.9423901797
 21
79.5105853392
  0
LINE
  8
0
 62
7
  6
CONTINUOUS
 10
103.2801984437
 20
79.8105853392
 11
103.2801984437
 21
79.5105853392
  0
LINE
  8
0
 62
7
  6
CONTINUOUS
 10
104.7706592827
 20
79.8105853392
 11
104.7706592827
 21
79.5105853392
  0
LINE
  8
0
 62
7
  6
CONTINUOUS
 10
105.0739839266
 20
79.8105853392
 11
105.0739839266
 21
79.5105853392
  0
LINE
  8
0
 62
7
  6
CONTINUOUS
 10
110.4435730249
 20
96.2105853392
 11
112.1756238325
 21
95.2105853392
  0
LINE
  8
0
 62
7
  6
CONTINUOUS
 10
105.3008321948
 20
79.8105853392
 11
105.3008321948
 21
79.5105853392
  0
LINE
  8
0
 62
7
  6
CONTINUOUS
 10
105.4583900748
 20
79.8105853392
 11
105.4583900748
 21
79.5105853392
  0
LINE
  8
0
 62
7
  6
CONTINUOUS
 10
105.4989294055
 20
79.8105853392
 11
105.4989294055
 21
79.5105853392
  0
LINE
  8
0
 62
7
  6
CONTINUOUS
 10
105.7352380068
 20
79.8105853392
 11
105.7352380068
 21
79.5105853392
  0
LINE
  8
0
 62
7
  6
CONTINUOUS
 10
106.3811665242
 20
79.8105853392
 11
106.3811665242
 21
79.5105853392
  0
LINE
  8
0
 62
7
  6
CONTINUOUS
 10
107.8459853142
 20
79.8105853392
 11
107.8459853142
 21
79.5105853392
  0
LINE
  8
0
 62
7
  6
CONTINUOUS
 10
108.1374122715
 20
79.8105853392
 11
108.1374122715
 21
79.5105853392
  0
LINE
  8
0
 62
7
  6
CONTINUOUS
 10
108.3403197272
 20
79.8105853392
 11
108.3403197272
 21
79.5105853392
  0
LINE
  8
0
 62
7
  6
CONTINUOUS
 10
108.4684494428
 20
79.8105853392
 11
108.4684494428
 21
79.5105853392
  0
LINE
  8
0
 62
7
  6
CONTINUOUS
 10
108.4882531528
 20
79.8105853392
 11
108.4882531528
 21
79.5105853392
  0
POLYLINE
  8
0
 62
7
  6
CONTINUOUS
 66
1
 70
0
  0
VERTEX
  8
0
 62
7
  6
CONTINUOUS
 10
56.6838934736
 20
105.7105853108
  0
VERTEX
  8
0
 62
7
  6
CONTINUOUS
 10
56.5733580877
 20
105.70897524
  0
VERTEX
  8
0
 62
7
  6
CONTINUOUS
 10
56.4081525718
 20
105.7005962547
  0
VERTEX
  8
0
 62
7
  6
CONTINUOUS
 10
56.2966319294
 20
105.69091364
  0
SEQEND
  0
LINE
  8
1_AXIS
 62
7
  6
CONTINUOUS
 10
145.4181266366
 20
105.7105853392
 11
143.5351713945
 21
105.7105853392
  0
LINE
  8
0
 62
7
  6
CONTINUOUS
 10
56.6838974355
 20
105.7105853392
 11
145.4181266351
 21
105.7105853392
  0
LINE
  8
0
 62
7
  6
CONTINUOUS
 10
108.6955929595
 20
79.8105853392
 11
108.6955929595
 21
79.5105853392
  0
LINE
  8
0
 62
7
  6
CONTINUOUS
 10
109.9399026191
 20
79.8105853392
 11
109.9399026191
 21
79.5105853392
  0
LINE
  8
0
 62
7
  6
CONTINUOUS
 10
110.0817809443
 20
79.8105853392
 11
110.0817809443
 21
79.5105853392
  0
LINE
  8
0
 62
7
  6
CONTINUOUS
 10
111.0540781859
 20
79.8105853392
 11
111.0540781859
 21
79.5105853392
  0
LINE
  8
0
 62
7
  6
CONTINUOUS
 10
111.5744544089
 20
79.8105853392
 11
111.5744544089
 21
79.5105853392
  0
LINE
  8
0
 62
7
  6
CONTINUOUS
 10
113.9076746401
 20
96.2105853392
 11
112.1756238325
 21
95.2105853392
  0
LINE
  8
0
 62
7
  6
CONTINUOUS
 10
56.2966295877
 20
105.6909134444
 11
55.1643099398
 21
105.5779998296
  0
LINE
  8
0
 62
7
  6
CONTINUOUS
 10
55.1643099398
 20
105.5779998296
 11
53.8361649114
 21
105.4498203734
  0
LINE
  8
0
 62
7
  6
CONTINUOUS
 10
53.8361660474
 20
105.4498205321
 11
52.5952357749
 21
105.3318234283
  0
POLYLINE
  8
0
 62
7
  6
CONTINUOUS
 66
1
 70
0
  0
VERTEX
  8
0
 62
7
  6
CONTINUOUS
 10
145.8053921484
 20
105.6909136312
  0
VERTEX
  8
0
 62
7
  6
CONTINUOUS
 10
145.6938717848
 20
105.7005962332
  0
VERTEX
  8
0
 62
7
  6
CONTINUOUS
 10
145.5286662143
 20
105.7089752355
  0
VERTEX
  8
0
 62
7
  6
CONTINUOUS
 10
145.4181305674
 20
105.7105853138
  0
SEQEND
  0
LINE
  8
0
 62
7
  6
CONTINUOUS
 10
149.5067971942
 20
105.3318224937
 11
147.6116734158
 21
105.5124160726
  0
POLYLINE
  8
0
 62
7
  6
CONTINUOUS
 66
1
 70
0
  0
VERTEX
  8
0
 62
7
  6
CONTINUOUS
 10
147.6116734158
 20
105.5124160726
  0
VERTEX
  8
0
 62
7
  6
CONTINUOUS
 10
146.316321169
 20
105.6395195793
  0
VERTEX
  8
0
 62
7
  6
CONTINUOUS
 10
145.8053944894
 20
105.6909134436
  0
SEQEND
  0
LINE
  8
0
 62
7
  6
CONTINUOUS
 10
113.3090418188
 20
79.8105853392
 11
113.3090418188
 21
79.5105853392
  0
LINE
  8
0
 62
7
  6
CONTINUOUS
 10
113.8294180418
 20
79.8105853392
 11
113.8294180418
 21
79.5105853392
  0
LINE
  8
0
 62
7
  6
CONTINUOUS
 10
114.589786455
 20
79.8105853392
 11
114.589786455
 21
79.5105853392
  0
POLYLINE
  8
0
 62
7
  6
CONTINUOUS
 66
1
 70
0
  0
VERTEX
  8
0
 62
7
  6
CONTINUOUS
 10
52.5955434482
 20
105.3318525225
  0
VERTEX
  8
0
 62
7
  6
CONTINUOUS
 10
52.495066565
 20
105.3118016404
  0
VERTEX
  8
0
 62
7
  6
CONTINUOUS
 10
52.3923961968
 20
105.2669476042
  0
VERTEX
  8
0
 62
7
  6
CONTINUOUS
 10
52.300253996
 20
105.1984545185
  0
VERTEX
  8
0
 62
7
  6
CONTINUOUS
 10
52.2251432695
 20
105.1092059004
  0
VERTEX
  8
0
 62
7
  6
CONTINUOUS
 10
52.1714206849
 20
105.0012658477
  0
VERTEX
  8
0
 62
7
  6
CONTINUOUS
 10
52.1448035099
 20
104.880541261
  0
VERTEX
  8
0
 62
7
  6
CONTINUOUS
 10
52.1426397734
 20
104.8340756222
  0
SEQEND
  0
POLYLINE
  8
0
 62
7
  6
CONTINUOUS
 66
1
 70
0
  0
VERTEX
  8
0
 62
7
  6
CONTINUOUS
 10
149.506480634
 20
105.3318525213
  0
VERTEX
  8
0
 62
7
  6
CONTINUOUS
 10
149.6069584948
 20
105.3118013347
  0
VERTEX
  8
0
 62
7
  6
CONTINUOUS
 10
149.7096286422
 20
105.2669471597
  0
VERTEX
  8
0
 62
7
  6
CONTINUOUS
 10
149.8017706468
 20
105.1984539803
  0
VERTEX
  8
0
 62
7
  6
CONTINUOUS
 10
149.8768811588
 20
105.1092053567
  0
VERTEX
  8
0
 62
7
  6
CONTINUOUS
 10
149.9306035566
 20
105.0012653644
  0
VERTEX
  8
0
 62
7
  6
CONTINUOUS
 10
149.9572205919
 20
104.8805409206
  0
VERTEX
  8
0
 62
7
  6
CONTINUOUS
 10
149.9593842967
 20
104.8340756222
  0
SEQEND
  0
LINE
  8
0
 62
7
  6
CONTINUOUS
 10
115.9015595548
 20
79.8105853392
 11
115.9015595548
 21
79.5105853392
  0
LINE
  8
0
 62
7
  6
CONTINUOUS
 10
116.1438879009
 20
79.8105853392
 11
116.1438879009
 21
79.5105853392
  0
LINE
  8
0
 62
7
  6
CONTINUOUS
 10
116.2696452698
 20
79.8105853392
 11
116.2696452698
 21
79.5105853392
  0
LINE
  8
0
 62
7
  6
CONTINUOUS
 10
116.3097877098
 20
79.8105853392
 11
116.3097877098
 21
79.5105853392
  0
LINE
  8
0
 62
7
  6
CONTINUOUS
 10
117.3026301984
 20
79.8105853392
 11
117.3026301984
 21
79.5105853392
  0
LINE
  8
0
 62
7
  6
CONTINUOUS
 10
117.951012035
 20
104.9520576488
 11
117.951012035
 21
96.9691130296
  0
LINE
  8
0
 62
7
  6
CONTINUOUS
 10
118.53164898
 20
79.8105853392
 11
118.53164898
 21
79.5105853392
  0
LINE
  8
0
 62
7
  6
CONTINUOUS
 10
118.7511017571
 20
79.8105853392
 11
118.7511017571
 21
79.5105853392
  0
LINE
  8
0
 62
7
  6
CONTINUOUS
 10
118.8461566881
 20
79.8105853392
 11
118.8461566881
 21
79.5105853392
  0
LINE
  8
0
 62
7
  6
CONTINUOUS
 10
118.8534097007
 20
79.8105853392
 11
118.8534097007
 21
79.5105853392
  0
LINE
  8
0
 62
7
  6
CONTINUOUS
 10
119.4277270263
 20
79.8105853392
 11
119.4277270263
 21
79.5105853392
  0
LINE
  8
0
 62
7
  6
CONTINUOUS
 10
121.017327986
 20
79.8105853392
 11
121.017327986
 21
79.5105853392
  0
LINE
  8
0
 62
7
  6
CONTINUOUS
 10
121.2867813863
 20
79.8105853392
 11
121.2867813863
 21
79.5105853392
  0
LINE
  8
0
 62
7
  6
CONTINUOUS
 10
121.7007736405
 20
79.8105853392
 11
121.7007736405
 21
79.5105853392
  0
LINE
  8
0
 62
7
  6
CONTINUOUS
 10
122.5442319581
 20
79.8105853392
 11
122.5442319581
 21
79.5105853392
  0
LINE
  8
0
 62
7
  6
CONTINUOUS
 10
122.8136853584
 20
79.8105853392
 11
122.8136853584
 21
79.5105853392
  0
LINE
  8
1_AXIS
 62
7
  6
CONTINUOUS
 10
131.551012035
 20
122.1105853392
 11
70.551012035
 21
122.1105853392
  0
LINE
  8
0
 62
7
  6
CONTINUOUS
 10
123.4683777951
 20
79.8105853392
 11
123.4683777951
 21
79.5105853392
  0
LINE
  8
0
 62
7
  6
CONTINUOUS
 10
123.6864946494
 20
79.8105853392
 11
123.6864946494
 21
79.5105853392
  0
LINE
  8
0
 62
7
  6
CONTINUOUS
 10
126.126822993
 20
79.8105853392
 11
126.126822993
 21
79.5105853392
  0
LINE
  8
0
 62
7
  6
CONTINUOUS
 10
127.6369268202
 20
79.8105853392
 11
127.6369268202
 21
79.5105853392
  0
LINE
  8
0
 62
7
  6
CONTINUOUS
 10
128.1429163873
 20
79.8105853392
 11
128.1429163873
 21
79.5105853392
  0
LINE
  8
0
 62
7
  6
CONTINUOUS
 10
130.2933721694
 20
79.8105853392
 11
130.2933721694
 21
79.5105853392
  0
LINE
  8
0
 62
7
  6
CONTINUOUS
 10
130.6096156212
 20
79.8105853392
 11
130.6096156212
 21
79.5105853392
  0
LINE
  8
0
 62
7
  6
CONTINUOUS
 10
130.9461844684
 20
79.8105853392
 11
130.9461844684
 21
79.5105853392
  0
LINE
  8
0
 62
7
  6
CONTINUOUS
 10
130.9642703675
 20
79.8105853392
 11
130.9642703675
 21
79.5105853392
  0
LINE
  8
0
 62
7
  6
CONTINUOUS
 10
131.038781175
 20
79.8105853392
 11
131.038781175
 21
79.5105853392
  0
LINE
  8
1_AXIS
 62
7
  6
CONTINUOUS
 10
133.551012035
 20
120.1105853392
 11
133.551012035
 21
108.2105853392
  0
LINE
  8
1_AXIS
 62
7
  6
CONTINUOUS
 10
133.551012035
 20
93.7105853392
 11
133.551012035
 21
81.8105853392
  0
LINE
  8
0
 62
7
  6
CONTINUOUS
 10
149.9593842975
 20
104.8340756222
 11
149.9593842975
 21
97.0870950561
  0
ARC
  8
0
 62
7
  6
CONTINUOUS
 10
-42.8421050783
 20
201.6198067766
 40
180.0
 50
348.508015808
 51
351.6405822965
  0
ARC
  8
0
 62
7
  6
CONTINUOUS
 10
30.5378949217
 20
77.8323097299
 40
180.0
 50
48.508015808
 51
51.6405822965
  0
ARC
  8
0
 62
7
  6
CONTINUOUS
 10
49.3834113522
 20
202.7740928952
 40
8.5
 50
300.0
 51
330.0
  0
ARC
  8
0
 62
7
  6
CONTINUOUS
 10
60.4780647389
 20
188.3578493035
 40
1.0
 50
231.6405822965
 51
283.53
  0
ARC
  8
0
 62
7
  6
CONTINUOUS
 10
67.4454149239
 20
188.4916039981
 40
0.5
 50
30.0
 51
103.53
  0
ARC
  8
0
 62
7
  6
CONTINUOUS
 10
52.6426397725
 20
194.2635044556
 40
0.5
 50
120.0
 51
228.508015808
  0
ARC
  8
0
 62
7
  6
CONTINUOUS
 10
75.651012035
 20
158.2790928952
 40
8.5
 50
0.0
 51
30.0
  0
ARC
  8
DEFAULT_1
 62
2
  6
CENTER
 10
94.6559656528
 20
176.8602941181
 40
3.2
 50
2.2544307753
 51
45.0
  0
ARC
  8
0
 62
7
  6
CONTINUOUS
 10
93.6831719059
 20
160.6792227784
 40
1.0
 50
291.6405822965
 51
343.53
  0
ARC
  8
0
 62
7
  6
CONTINUOUS
 10
97.051012035
 20
166.7800023829
 40
0.5
 50
90.0
 51
163.53
  0
ARC
  8
0
 62
7
  6
CONTINUOUS
 10
84.651012035
 20
156.8463732841
 40
0.5
 50
180.0
 51
288.508015808
  0
ARC
  8
DEFAULT_1
 62
2
  6
CENTER
 10
91.1204317468
 20
180.3958280241
 40
3.2
 50
45.0
 51
86.4096221093
  0
ARC
  8
DEFAULT_1
 62
2
  6
CENTER
 10
91.5212183871
 20
186.7832664832
 40
3.2
 50
225.0
 51
266.4096221093
  0
ARC
  8
DEFAULT_1
 62
2
  6
CENTER
 10
84.5592761353
 20
193.745208735
 40
3.2
 50
183.5903778907
 51
225.0
  0
ARC
  8
DEFAULT_1
 62
2
  6
CENTER
 10
78.1718376761
 20
193.3444220947
 40
3.2
 50
3.5903778907
 51
45.0
  0
ARC
  8
DEFAULT_1
 62
2
  6
CENTER
 10
74.6363037702
 20
196.8799560007
 40
3.2
 50
45.0
 51
87.7455692247
  0
ARC
  8
0
 62
7
  6
CONTINUOUS
 10
27.671012035
 20
327.0624994296
 40
180.0
 50
288.508015808
 51
291.6405822965
  0
ARC
  8
0
 62
7
  6
CONTINUOUS
 10
74.7834113522
 20
247.7700023829
 40
8.5
 50
240.0
 51
270.0
  0
ARC
  8
DEFAULT_1
 62
2
  6
CENTER
 10
74.8880611311
 20
203.2750023829
 40
3.2
 50
92.2544307753
 51
267.7455692247
  0
ARC
  8
DEFAULT_1
 62
2
  6
CENTER
 10
74.6363037702
 20
209.6700487652
 40
3.2
 50
272.2544307753
 51
315.0
  0
ARC
  8
DEFAULT_1
 62
2
  6
CENTER
 10
78.1718376761
 20
213.2055826711
 40
3.2
 50
315.0
 51
356.4096221093
  0
ARC
  8
DEFAULT_1
 62
2
  6
CENTER
 10
84.5592761353
 20
212.8047960308
 40
3.2
 50
135.0
 51
176.4096221093
  0
ARC
  8
DEFAULT_1
 62
2
  6
CENTER
 10
91.5212183871
 20
219.7667382827
 40
3.2
 50
93.5903778907
 51
135.0
  0
ARC
  8
DEFAULT_1
 62
2
  6
CENTER
 10
91.1204317468
 20
226.1541767418
 40
3.2
 50
273.5903778907
 51
315.0
  0
ARC
  8
DEFAULT_1
 62
2
  6
CENTER
 10
94.6559656528
 20
229.6897106477
 40
3.2
 50
315.0
 51
357.7455692247
  0
ARC
  8
0
 62
7
  6
CONTINUOUS
 10
67.8459048681
 20
230.953628908
 40
1.0
 50
171.6405822965
 51
223.53
  0
ARC
  8
0
 62
7
  6
CONTINUOUS
 10
71.4454149239
 20
224.9866039981
 40
0.5
 50
330.0
 51
43.53
  0
ARC
  8
0
 62
7
  6
CONTINUOUS
 10
69.0426397725
 20
240.6921335544
 40
0.5
 50
60.0
 51
168.508015808
  0
ARC
  8
0
 62
7
  6
CONTINUOUS
 10
174.431012035
 20
79.4875053362
 40
180.0
 50
108.508015808
 51
111.6405822965
  0
ARC
  8
0
 62
7
  6
CONTINUOUS
 10
127.3186127178
 20
158.7800023829
 40
8.5
 50
60.0
 51
90.0
  0
ARC
  8
DEFAULT_1
 62
2
  6
CENTER
 10
127.4657202998
 20
196.8799560007
 40
3.2
 50
92.2544307753
 51
135.0
  0
ARC
  8
DEFAULT_1
 62
2
  6
CENTER
 10
123.9301863939
 20
193.3444220947
 40
3.2
 50
135.0
 51
176.4096221093
  0
ARC
  8
DEFAULT_1
 62
2
  6
CENTER
 10
117.5427479348
 20
193.745208735
 40
3.2
 50
315.0
 51
356.4096221093
  0
ARC
  8
DEFAULT_1
 62
2
  6
CENTER
 10
110.5808056829
 20
186.7832664832
 40
3.2
 50
273.5903778907
 51
315.0
  0
ARC
  8
DEFAULT_1
 62
2
  6
CENTER
 10
110.9815923232
 20
180.3958280241
 40
3.2
 50
93.5903778907
 51
135.0
  0
ARC
  8
DEFAULT_1
 62
2
  6
CENTER
 10
107.4460584173
 20
176.8602941181
 40
3.2
 50
135.0
 51
177.7455692247
  0
ARC
  8
DEFAULT_1
 62
2
  6
CENTER
 10
101.051012035
 20
177.112051479
 40
3.2
 50
182.2544307753
 51
357.7455692247
  0
ARC
  8
0
 62
7
  6
CONTINUOUS
 10
134.2561192019
 20
175.5963758578
 40
1.0
 50
351.6405822965
 51
43.53
  0
ARC
  8
0
 62
7
  6
CONTINUOUS
 10
130.6566091461
 20
181.5634007678
 40
0.5
 50
150.0
 51
223.53
  0
ARC
  8
0
 62
7
  6
CONTINUOUS
 10
133.0593842975
 20
165.8578712114
 40
0.5
 50
240.0
 51
348.508015808
  0
CIRCLE
  8
1_AXIS
 62
7
  6
CONTINUOUS
 10
101.051012035
 20
203.2750023829
 40
32.5
  0
ARC
  8
DEFAULT_1
 62
2
  6
CENTER
 10
101.051012035
 20
203.2750023829
 40
9.525
 50
108.3584370753
 51
251.6415629247
  0
ARC
  8
DEFAULT_1
 62
2
  6
CENTER
 10
101.051012035
 20
203.2750023829
 40
9.525
 50
288.3584370753
 51
71.6415629247
  0
ARC
  8
DEFAULT_1
 62
2
  6
CENTER
 10
110.9815923232
 20
226.1541767418
 40
3.2
 50
225.0
 51
266.4096221093
  0
ARC
  8
DEFAULT_1
 62
2
  6
CENTER
 10
110.5808056829
 20
219.7667382827
 40
3.2
 50
45.0
 51
86.4096221093
  0
ARC
  8
DEFAULT_1
 62
2
  6
CENTER
 10
117.5427479348
 20
212.8047960308
 40
3.2
 50
3.5903778907
 51
45.0
  0
ARC
  8
DEFAULT_1
 62
2
  6
CENTER
 10
123.9301863939
 20
213.2055826711
 40
3.2
 50
183.5903778907
 51
225.0
  0
ARC
  8
0
 62
7
  6
CONTINUOUS
 10
126.451012035
 20
248.2709118707
 40
8.5
 50
180.0
 51
210.0
  0
ARC
  8
DEFAULT_1
 62
2
  6
CENTER
 10
101.051012035
 20
229.4379532868
 40
3.2
 50
2.2544307753
 51
40.6294695454
  0
ARC
  8
DEFAULT_1
 62
2
  6
CENTER
 10
101.051012035
 20
229.4379532868
 40
3.2
 50
49.51932056
 51
99.7931342947
  0
ARC
  8
DEFAULT_1
 62
2
  6
CENTER
 10
101.051012035
 20
229.4379532868
 40
3.2
 50
108.0187105937
 51
177.7455692247
  0
ARC
  8
DEFAULT_1
 62
2
  6
CENTER
 10
107.4460584173
 20
229.6897106477
 40
3.2
 50
182.2544307753
 51
225.0
  0
ARC
  8
0
 62
7
  6
CONTINUOUS
 10
112.1756238325
 20
237.5130369695
 40
1.7320508076
 50
305.6022145067
 51
198.3977854933
  0
ARC
  8
0
 62
7
  6
CONTINUOUS
 10
108.4188521642
 20
245.8707819874
 40
1.0
 50
111.6405822965
 51
163.53
  0
ARC
  8
0
 62
7
  6
CONTINUOUS
 10
105.051012035
 20
239.7700023829
 40
0.5
 50
270.0
 51
343.53
  0
ARC
  8
0
 62
7
  6
CONTINUOUS
 10
117.451012035
 20
249.7036314818
 40
0.5
 50
0.0
 51
108.508015808
  0
ARC
  8
0
 62
7
  6
CONTINUOUS
 10
152.7186127178
 20
203.7759118707
 40
8.5
 50
120.0
 51
150.0
  0
ARC
  8
DEFAULT_1
 62
2
  6
CENTER
 10
127.4657202998
 20
209.6700487652
 40
3.2
 50
225.0
 51
267.7455692247
  0
ARC
  8
DEFAULT_1
 62
2
  6
CENTER
 10
127.2139629389
 20
203.2750023829
 40
3.2
 50
272.2544307753
 51
291.3306790245
  0
ARC
  8
DEFAULT_1
 62
2
  6
CENTER
 10
127.2139629389
 20
203.2750023829
 40
3.2
 50
298.2288889746
 51
317.2753857168
  0
ARC
  8
DEFAULT_1
 62
2
  6
CENTER
 10
127.2139629389
 20
203.2750023829
 40
3.2
 50
326.1304941561
 51
334.5311636452
  0
ARC
  8
DEFAULT_1
 62
2
  6
CENTER
 10
127.2139629389
 20
203.2750023829
 40
3.2
 50
340.2907360037
 51
357.4997032503
  0
ARC
  8
DEFAULT_1
 62
2
  6
CENTER
 10
127.2139629389
 20
203.2750023829
 40
3.2
 50
4.4073041883
 51
29.986499468
  0
ARC
  8
DEFAULT_1
 62
2
  6
CENTER
 10
127.2139629389
 20
203.2750023829
 40
3.2
 50
37.441870595
 51
70.6249220697
  0
ARC
  8
DEFAULT_1
 62
2
  6
CENTER
 10
127.2139629389
 20
203.2750023829
 40
3.2
 50
78.1029590639
 51
87.7455692247
  0
ARC
  8
0
 62
7
  6
CONTINUOUS
 10
141.6239593311
 20
218.1921554623
 40
1.0
 50
51.6405822965
 51
103.53
  0
ARC
  8
0
 62
7
  6
CONTINUOUS
 10
134.6566091461
 20
218.0584007678
 40
0.5
 50
210.0
 51
283.53
  0
ARC
  8
0
 62
7
  6
CONTINUOUS
 10
149.4593842975
 20
212.2865003103
 40
0.5
 50
300.0
 51
48.508015808
  0
ARC
  8
0
 62
7
  6
CONTINUOUS
 10
171.5641291483
 20
328.717695036
 40
180.0
 50
228.508015808
 51
231.6405822965
  0
ARC
  8
0
 62
7
  6
CONTINUOUS
 10
244.9441291483
 20
204.9301979893
 40
180.0
 50
168.508015808
 51
171.6405822965
  0
ARC
  8
1_AXIS
 62
7
  6
CONTINUOUS
 10
136.051012035
 20
108.2105853392
 40
2.5
 50
180.0
 51
270.0
  0
ARC
  8
1_AXIS
 62
7
  6
CONTINUOUS
 10
66.051012035
 20
108.2105853392
 40
2.5
 50
270.0
 51
360.0
  0
ARC
  8
1_AXIS
 62
7
  6
CONTINUOUS
 10
136.051012035
 20
93.7105853392
 40
2.5
 50
90.0
 51
180.0
  0
ARC
  8
1_AXIS
 62
7
  6
CONTINUOUS
 10
66.051012035
 20
93.7105853392
 40
2.5
 50
0.0
 51
90.0
  0
ARC
  8
1_AXIS
 62
7
  6
CONTINUOUS
 10
131.551012035
 20
120.1105853392
 40
2.0
 50
0.0
 51
90.0
  0
ARC
  8
1_AXIS
 62
7
  6
CONTINUOUS
 10
70.551012035
 20
120.1105853392
 40
2.0
 50
90.0
 51
180.0
  0
ARC
  8
1_AXIS
 62
7
  6
CONTINUOUS
 10
131.551012035
 20
81.8105853392
 40
2.0
 50
270.0
 51
360.0
  0
ARC
  8
1_AXIS
 62
7
  6
CONTINUOUS
 10
70.551012035
 20
81.8105853392
 40
2.0
 50
180.0
 51
270.0
  0
ARC
  8
0
 62
7
  6
CONTINUOUS
 10
67.3459048681
 20
105.2105853392
 40
0.5
 50
90.0000480245
 51
180.0
  0
ARC
  8
0
 62
7
  6
CONTINUOUS
 10
67.3459048681
 20
96.7105853392
 40
0.5
 50
180.0
 51
269.9999519736
  0
ENDSEC
  0
EOF
