  0
SECTION
  2
HEADER
  9
$EXTMAX
 10
210.0
 20
297.0
 30
0.0
  9
$EXTMIN
 10
0.0
 20
0.0
 30
0.0
  9
$LIMMIN
 10
0.0
 20
0.0
  9
$LIMMAX
 10
210.0
 20
297.0
  9
$VIEWCTR
 10
105.0
 20
148.5
  9
$VIEWSIZE
 40
297.0
  9
$CLAYER
  8
0
  9
$LTSCALE
 40
19.36
  9
$CELTYPE
  6
BYLAYER
  9
$DIMSCALE
 40
1.0
  9
$DIMASZ
 40
3.5
  9
$DIMEXO
 40
2.2
  9
$DIMDLI
 40
13.376
  9
$DIMEXE
 40
6.336
  9
$DIMCEN
 40
3.168
  9
$DIMLFAC
 40
1.0
  9
$DIMBLK
  1
_FILLED
  9
$DIMTXT
 40
3.5
  9
$PDMODE
 70
3
  9
$PDSIZE
 40
0.3125
  9
$TILEMODE
 70
1
  0
ENDSEC
  0
SECTION
  2
TABLES
  0
TABLE
  2
LTYPE
 70
6
  0
LTYPE
  2
BYBLOCK
 70
0
  3

 72
65
 73
0
 40
0.0
  0
LTYPE
  2
BYLAYER
 70
0
  3

 72
65
 73
0
 40
0.0
  0
LTYPE
  2
CONTINUOUS
 70
64
  3
Solid line
 72
65
 73
0
 40
0.0
  0
LTYPE
  2
CENTER
 70
64
  3
____ _ ____ _ ____ _ ____ _ ____ _ ____ _ ____
 72
65
 73
4
 40
0.6
 49
0.375
 49
-0.075
 49
0.075
 49
-0.075
  0
LTYPE
  2
HIDDEN
 70
64
  3
- - - - - - - - - - - - - - - - - - - -
 72
65
 73
2
 40
0.2
 49
0.1
 49
-0.1
  0
LTYPE
  2
PHANTOM
 70
64
  3
_____ _ _ _____ _ _ _____ _ _ _____
 72
65
 73
6
 40
0.8
 49
0.45
 49
-0.05
 49
0.1
 49
-0.05
 49
0.1
 49
-0.05
  0
LTYPE
  2
DOT
 70
64
  3
. . . . . . . . . . . . . . . . . . . .
 72
65
 73
2
 40
0.2
 49
0.1
 49
-0.1
  0
LTYPE
  2
DASHED
 70
64
  3
- - - - - - - - - - - - - - - - - - - -
 72
65
 73
2
 40
0.2
 49
0.1
 49
-0.1
  0
ENDTAB
  0
TABLE
  2
LAYER
 70
36
  0
LAYER
  2
0
 70
0
 62
7
  6
CONTINUOUS
  0
LAYER
  2
DEFAULT_1
 70
0
 62
7
  6
CENTER
  0
LAYER
  2
DEFAULT_2
 70
0
 62
8
  6
HIDDEN
  0
LAYER
  2
DEFAULT_3
 70
0
 62
7
  6
PHANTOM
  0
LAYER
  2
CURVE
 70
0
 62
7
  6
CONTINUOUS
  0
LAYER
  2
SURFACE
 70
0
 62
7
  6
CONTINUOUS
  0
ENDTAB
  0
TABLE
  2
STYLE
 70
1
  0
STYLE
  2
STANDARD
 70
0
 40
0.0
 41
0.8
 50
0.0
 71
0
 42
0.2
  3
txt
  4

  0
STYLE
  2
TEXTSTYLE_1
 70
0
 40
0.0
 41
0.8
 50
0.0
 71
0
 42
0.2
  3
gdt
  4

  0
STYLE
  2
TEXTSTYLE_2
 70
0
 40
0.0
 41
0.6
 50
0.0
 71
0
 42
0.2
  3
txt
  4

  0
STYLE
  2
TEXTSTYLE_3
 70
0
 40
0.0
 41
1.0
 50
0.0
 71
0
 42
0.2
  3
ftb_____.ttf
  4

  0
STYLE
  2
TEXTSTYLE_4
 70
0
 40
0.0
 41
1.0
 50
0.0
 71
0
 42
0.2
  3
fti_____.ttf
  4

  0
STYLE
  2
TEXTSTYLE_5
 70
0
 40
0.0
 41
1.0
 50
0.0
 71
0
 42
0.2
  3
frutiger light.ttf
  4

  0
STYLE
  2
TEXTSTYLE_6
 70
0
 40
0.0
 41
0.7
 50
0.0
 71
0
 42
0.2
  3
txt
  4

  0
STYLE
  2
TEXTSTYLE_7
 70
0
 40
0.0
 41
0.6
 50
0.0
 71
0
 42
0.2
  3
txt
  4

  0
ENDTAB
  0
ENDSEC
  0
SECTION
  2
BLOCKS
  0
BLOCK
  8
0
 62
2
  6
CONTINUOUS
  2
SYMBOL_8_BL1
 70
64
 10
173.5956734183
 20
35.5937998301
  0
TEXT
  8
0
 62
7
  6
CONTINUOUS
 10
164.6539584268
 20
30.6865562072
  7
TEXTSTYLE_4
 40
1.0655737705
  1
The brand for plastic modular belts and chains
 41
1.0
 72
0
  0
LINE
  8
0
 62
7
  6
CONTINUOUS
 10
149.5737418074
 20
36.1675703219
 11
149.5737418074
 21
34.0364227809
  0
LINE
  8
0
 62
7
  6
CONTINUOUS
 10
149.8628043005
 20
31.0454914852
 11
149.8628043005
 21
31.1422825445
  0
LINE
  8
0
 62
7
  6
CONTINUOUS
 10
149.5737418074
 20
31.1100188581
 11
149.6315543091
 21
30.9164367395
  0
LINE
  8
0
 62
7
  6
CONTINUOUS
 10
150.9671844304
 20
33.9544555678
 11
150.9671844304
 21
36.1675703219
  0
LINE
  8
0
 62
7
  6
CONTINUOUS
 10
151.8862417523
 20
32.1101932727
 11
151.8862417523
 21
30.5937998301
  0
LINE
  8
0
 62
7
  6
CONTINUOUS
 10
152.1753043074
 20
30.5937998301
 11
152.1753043074
 21
31.3358647082
  0
LINE
  8
0
 62
7
  6
CONTINUOUS
 10
152.1753043074
 20
31.4649194539
 11
152.1753043074
 21
32.1101932727
  0
LINE
  8
0
 62
7
  6
CONTINUOUS
 10
149.6315543091
 20
31.3036010218
 11
149.5737418074
 21
31.1100188581
  0
LINE
  8
0
 62
7
  6
CONTINUOUS
 10
149.9784292936
 20
30.8841730531
 11
149.8628043005
 21
31.0454914852
  0
LINE
  8
0
 62
7
  6
CONTINUOUS
 10
151.0768668626
 20
31.400392081
 11
151.1346793074
 21
31.3036010218
  0
LINE
  8
0
 62
7
  6
CONTINUOUS
 10
151.4237418626
 20
31.3036010218
 11
151.3659292523
 21
31.4326557675
  0
LINE
  8
0
 62
7
  6
CONTINUOUS
 10
152.852430332
 20
36.1675703219
 11
152.852430332
 21
34.3642916334
  0
LINE
  8
0
 62
7
  6
CONTINUOUS
 10
152.852430332
 20
33.0528162235
 11
152.852430332
 21
32.3970785186
  0
LINE
  8
0
 62
7
  6
CONTINUOUS
 10
153.2159293074
 20
31.2390736489
 11
153.2159293074
 21
30.5937998301
  0
LINE
  8
0
 62
7
  6
CONTINUOUS
 10
153.5049916972
 20
30.5937998301
 11
153.5049916972
 21
31.2390736489
  0
LINE
  8
0
 62
7
  6
CONTINUOUS
 10
149.8628043005
 20
31.1422825445
 11
149.9206168074
 21
31.2713373354
  0
LINE
  8
0
 62
7
  6
CONTINUOUS
 10
149.6315543091
 20
30.9164367395
 11
149.7471793074
 21
30.7873819712
  0
LINE
  8
0
 62
7
  6
CONTINUOUS
 10
153.1581166972
 20
31.3681283946
 11
153.2159293074
 21
31.2390736489
  0
LINE
  8
0
 62
7
  6
CONTINUOUS
 10
153.9674919177
 20
30.8841730531
 11
154.0253041972
 21
30.7551182848
  0
LINE
  8
0
 62
7
  6
CONTINUOUS
 10
153.5049916972
 20
31.2390736489
 11
153.4471794177
 21
31.400392081
  0
LINE
  8
0
 62
7
  6
CONTINUOUS
 10
153.9674919177
 20
31.4326557675
 11
153.9674919177
 21
31.3681283946
  0
LINE
  8
0
 62
7
  6
CONTINUOUS
 10
153.9674919177
 20
30.9809641124
 11
153.9674919177
 21
30.8841730531
  0
LINE
  8
0
 62
7
  6
CONTINUOUS
 10
154.245872955
 20
32.3970785186
 11
154.245872955
 21
36.1675703219
  0
LINE
  8
0
 62
7
  6
CONTINUOUS
 10
154.2565543074
 20
30.8519093441
 11
154.2565543074
 21
30.9164367395
  0
LINE
  8
0
 62
7
  6
CONTINUOUS
 10
154.5737418074
 20
36.1675703219
 11
154.5737418074
 21
32.3970785186
  0
LINE
  8
0
 62
7
  6
CONTINUOUS
 10
151.3659292523
 20
30.7873819712
 11
151.4237418626
 21
30.9164367395
  0
LINE
  8
0
 62
7
  6
CONTINUOUS
 10
155.759679528
 20
30.6905909007
 11
155.7018665869
 21
30.8519093441
  0
LINE
  8
0
 62
7
  6
CONTINUOUS
 10
155.412804528
 20
31.3681283946
 11
155.412804528
 21
31.2713373354
  0
LINE
  8
0
 62
7
  6
CONTINUOUS
 10
155.412804528
 20
31.1422825445
 11
155.412804528
 21
30.9487004259
  0
LINE
  8
0
 62
7
  6
CONTINUOUS
 10
155.7018665869
 20
30.8519093441
 11
155.7018665869
 21
31.3681283946
  0
LINE
  8
0
 62
7
  6
CONTINUOUS
 10
155.9671844304
 20
32.3970785186
 11
155.9671844304
 21
34.2003572071
  0
LINE
  8
0
 62
7
  6
CONTINUOUS
 10
155.9671844304
 20
35.511832617
 11
155.9671844304
 21
36.1675703219
  0
LINE
  8
0
 62
7
  6
CONTINUOUS
 10
156.279992028
 20
32.1101932727
 11
156.279992028
 21
31.9488748406
  0
LINE
  8
0
 62
7
  6
CONTINUOUS
 10
156.279992028
 20
31.626237886
 11
156.279992028
 21
30.5937998301
  0
LINE
  8
0
 62
7
  6
CONTINUOUS
 10
156.5690540869
 20
30.5937998301
 11
156.5690540869
 21
31.626237886
  0
LINE
  8
0
 62
7
  6
CONTINUOUS
 10
156.5690540869
 20
31.9488748406
 11
156.5690540869
 21
32.1101932727
  0
LINE
  8
0
 62
7
  6
CONTINUOUS
 10
151.1346793074
 20
30.9164367395
 11
151.0768668626
 21
30.8196456577
  0
LINE
  8
0
 62
7
  6
CONTINUOUS
 10
153.4471794177
 20
31.400392081
 11
153.3893668074
 21
31.4649194539
  0
LINE
  8
0
 62
7
  6
CONTINUOUS
 10
154.3143669177
 20
30.7873819712
 11
154.2565543074
 21
30.8519093441
  0
LINE
  8
0
 62
7
  6
CONTINUOUS
 10
155.4706168074
 20
30.6583272086
 11
155.5284290869
 21
30.5937998301
  0
LINE
  8
0
 62
7
  6
CONTINUOUS
 10
155.412804528
 20
30.7551182848
 11
155.4706168074
 21
30.6583272086
  0
LINE
  8
0
 62
7
  6
CONTINUOUS
 10
155.8174918074
 20
30.5937998301
 11
155.759679528
 21
30.6905909007
  0
LINE
  8
0
 62
7
  6
CONTINUOUS
 10
155.7018665869
 20
31.3681283946
 11
155.6440543074
 21
31.4649194539
  0
LINE
  8
0
 62
7
  6
CONTINUOUS
 10
157.0315543074
 20
31.626237886
 11
157.0315543074
 21
30.5937998301
  0
LINE
  8
0
 62
7
  6
CONTINUOUS
 10
157.320617028
 20
30.5937998301
 11
157.320617028
 21
31.3358647082
  0
LINE
  8
0
 62
7
  6
CONTINUOUS
 10
157.320617028
 20
31.4649194539
 11
157.320617028
 21
31.626237886
  0
LINE
  8
0
 62
7
  6
CONTINUOUS
 10
157.852430332
 20
34.6101932727
 11
157.852430332
 21
32.3970785186
  0
LINE
  8
0
 62
7
  6
CONTINUOUS
 10
149.7471793074
 20
31.4326557675
 11
149.6315543091
 21
31.3036010218
  0
LINE
  8
0
 62
7
  6
CONTINUOUS
 10
149.9206168074
 20
31.2713373354
 11
149.9784292936
 21
31.3358647082
  0
LINE
  8
0
 62
7
  6
CONTINUOUS
 10
149.7471793074
 20
30.7873819712
 11
149.8628043005
 21
30.7228545871
  0
LINE
  8
0
 62
7
  6
CONTINUOUS
 10
150.1518667936
 20
30.7873819712
 11
149.9784292936
 21
30.8841730531
  0
LINE
  8
0
 62
7
  6
CONTINUOUS
 10
155.3549915869
 20
31.4326557675
 11
155.412804528
 21
31.3681283946
  0
LINE
  8
0
 62
7
  6
CONTINUOUS
 10
158.3034290869
 20
31.3681283946
 11
158.361242028
 21
31.2068099625
  0
LINE
  8
0
 62
7
  6
CONTINUOUS
 10
158.6503040869
 20
31.2068099625
 11
158.5924918074
 21
31.3681283946
  0
LINE
  8
0
 62
7
  6
CONTINUOUS
 10
158.361242028
 20
31.2068099625
 11
158.361242028
 21
30.5937998301
  0
LINE
  8
0
 62
7
  6
CONTINUOUS
 10
158.6503040869
 20
30.5937998301
 11
158.6503040869
 21
31.2068099625
  0
LINE
  8
0
 62
7
  6
CONTINUOUS
 10
159.1128043074
 20
31.4326557675
 11
159.1128043074
 21
31.3681283946
  0
LINE
  8
0
 62
7
  6
CONTINUOUS
 10
159.245872955
 20
32.3970785186
 11
159.245872955
 21
34.5282260596
  0
LINE
  8
0
 62
7
  6
CONTINUOUS
 10
159.5737418074
 20
36.1675703219
 11
159.5737418074
 21
32.3970785186
  0
LINE
  8
0
 62
7
  6
CONTINUOUS
 10
154.2565543074
 20
30.9164367395
 11
154.3143669177
 21
31.0132277988
  0
LINE
  8
0
 62
7
  6
CONTINUOUS
 10
149.8628043005
 20
30.7228545871
 11
150.0362418212
 21
30.6583272086
  0
LINE
  8
0
 62
7
  6
CONTINUOUS
 10
151.3659292523
 20
31.4326557675
 11
151.1924917523
 21
31.5294468267
  0
LINE
  8
0
 62
7
  6
CONTINUOUS
 10
154.0253041972
 20
30.7551182848
 11
154.1987416972
 21
30.6583272086
  0
LINE
  8
0
 62
7
  6
CONTINUOUS
 10
153.0424918074
 20
31.4326557675
 11
153.1581166972
 21
31.3681283946
  0
LINE
  8
0
 62
7
  6
CONTINUOUS
 10
153.3893668074
 20
31.4649194539
 11
153.2737419177
 21
31.5294468267
  0
LINE
  8
0
 62
7
  6
CONTINUOUS
 10
159.1128043074
 20
30.8519093441
 11
159.228429528
 21
30.7228545871
  0
LINE
  8
0
 62
7
  6
CONTINUOUS
 10
159.4596793074
 20
30.7873819712
 11
159.401867028
 21
30.8519093441
  0
LINE
  8
0
 62
7
  6
CONTINUOUS
 10
159.1128043074
 20
31.3681283946
 11
159.228429528
 21
31.2390736489
  0
LINE
  8
0
 62
7
  6
CONTINUOUS
 10
158.5924918074
 20
31.3681283946
 11
158.534679528
 21
31.4649194539
  0
LINE
  8
0
 62
7
  6
CONTINUOUS
 10
160.9628038663
 20
30.7873819712
 11
160.9628038663
 21
30.8519093441
  0
LINE
  8
0
 62
7
  6
CONTINUOUS
 10
160.9671844304
 20
32.3970785186
 11
160.9671844304
 21
36.1675703219
  0
LINE
  8
0
 62
7
  6
CONTINUOUS
 10
154.0253041972
 20
31.4971831403
 11
153.9674919177
 21
31.4326557675
  0
LINE
  8
0
 62
7
  6
CONTINUOUS
 10
150.9034292799
 20
31.4649194539
 11
151.0768668626
 21
31.400392081
  0
LINE
  8
0
 62
7
  6
CONTINUOUS
 10
155.6440543074
 20
31.4649194539
 11
155.5284290869
 21
31.5294468267
  0
LINE
  8
0
 62
7
  6
CONTINUOUS
 10
159.4596793074
 20
31.3036010218
 11
159.401867028
 21
31.3681283946
  0
LINE
  8
0
 62
7
  6
CONTINUOUS
 10
160.615929528
 20
30.9164367395
 11
160.6737418074
 21
30.8519093441
  0
LINE
  8
0
 62
7
  6
CONTINUOUS
 10
160.9628038663
 20
30.8519093441
 11
160.8471793074
 21
30.9809641124
  0
LINE
  8
0
 62
7
  6
CONTINUOUS
 10
160.615929528
 20
31.4326557675
 11
160.6737418074
 21
31.3681283946
  0
LINE
  8
0
 62
7
  6
CONTINUOUS
 10
160.9628038663
 20
31.3681283946
 11
160.8471793074
 21
31.4971831403
  0
LINE
  8
0
 62
7
  6
CONTINUOUS
 10
154.2565543074
 20
31.3681283946
 11
154.3143669177
 21
31.4326557675
  0
LINE
  8
0
 62
7
  6
CONTINUOUS
 10
154.0831168074
 20
31.1100188581
 11
153.9674919177
 21
30.9809641124
  0
LINE
  8
0
 62
7
  6
CONTINUOUS
 10
155.412804528
 20
30.9487004259
 11
155.3549915869
 21
30.8841730531
  0
LINE
  8
0
 62
7
  6
CONTINUOUS
 10
155.3549915869
 20
30.6905909007
 11
155.412804528
 21
30.7551182848
  0
LINE
  8
0
 62
7
  6
CONTINUOUS
 10
154.1987416972
 20
30.6583272086
 11
154.3143669177
 21
30.6260635193
  0
LINE
  8
0
 62
7
  6
CONTINUOUS
 10
151.1924917523
 20
31.5294468267
 11
150.9612418074
 21
31.5939741996
  0
LINE
  8
0
 62
7
  6
CONTINUOUS
 10
154.5456166972
 20
30.7228545871
 11
154.3143669177
 21
30.7873819712
  0
LINE
  8
0
 62
7
  6
CONTINUOUS
 10
153.2737419177
 20
31.5294468267
 11
153.1003044177
 21
31.5939741996
  0
LINE
  8
0
 62
7
  6
CONTINUOUS
 10
155.5284290869
 20
31.5294468267
 11
155.3549915869
 21
31.5939741996
  0
LINE
  8
0
 62
7
  6
CONTINUOUS
 10
158.187804528
 20
31.4326557675
 11
158.3034290869
 21
31.3681283946
  0
LINE
  8
0
 62
7
  6
CONTINUOUS
 10
158.534679528
 20
31.4649194539
 11
158.4190543074
 21
31.5294468267
  0
LINE
  8
0
 62
7
  6
CONTINUOUS
 10
150.0362418212
 20
30.6583272086
 11
150.2096793212
 21
30.6260635193
  0
LINE
  8
0
 62
7
  6
CONTINUOUS
 10
150.498741835
 20
30.7228545871
 11
150.1518667936
 21
30.7873819712
  0
LINE
  8
0
 62
7
  6
CONTINUOUS
 10
152.9268669177
 20
31.4649194539
 11
153.0424918074
 21
31.4326557675
  0
LINE
  8
0
 62
7
  6
CONTINUOUS
 10
155.239367028
 20
31.4649194539
 11
155.3549915869
 21
31.4326557675
  0
LINE
  8
0
 62
7
  6
CONTINUOUS
 10
159.575304528
 20
30.7551182848
 11
159.4596793074
 21
30.7873819712
  0
LINE
  8
0
 62
7
  6
CONTINUOUS
 10
158.0721793074
 20
31.4649194539
 11
158.187804528
 21
31.4326557675
  0
LINE
  8
0
 62
7
  6
CONTINUOUS
 10
159.228429528
 20
30.7228545871
 11
159.401867028
 21
30.6583272086
  0
LINE
  8
0
 62
7
  6
CONTINUOUS
 10
158.4190543074
 20
31.5294468267
 11
158.2456168074
 21
31.5939741996
  0
LINE
  8
0
 62
7
  6
CONTINUOUS
 10
159.6331168074
 20
31.2390736489
 11
159.4596793074
 21
31.3036010218
  0
LINE
  8
0
 62
7
  6
CONTINUOUS
 10
160.442492028
 20
30.9809641124
 11
160.615929528
 21
30.9164367395
  0
LINE
  8
0
 62
7
  6
CONTINUOUS
 10
160.8471793074
 20
31.4971831403
 11
160.6737418074
 21
31.5617105132
  0
LINE
  8
0
 62
7
  6
CONTINUOUS
 10
159.228429528
 20
31.2390736489
 11
159.4596793074
 21
31.1422825445
  0
LINE
  8
0
 62
7
  6
CONTINUOUS
 10
160.8471793074
 20
30.9809641124
 11
160.615929528
 21
31.0777551716
  0
LINE
  8
0
 62
7
  6
CONTINUOUS
 10
159.401867028
 20
31.3681283946
 11
159.4596793074
 21
31.4326557675
  0
LINE
  8
0
 62
7
  6
CONTINUOUS
 10
149.8628043005
 20
31.4971831403
 11
149.7471793074
 21
31.4326557675
  0
LINE
  8
0
 62
7
  6
CONTINUOUS
 10
149.9784292936
 20
31.3358647082
 11
150.1518667936
 21
31.4326557675
  0
LINE
  8
0
 62
7
  6
CONTINUOUS
 10
152.2909293626
 20
31.5294468267
 11
152.1753043074
 21
31.4649194539
  0
LINE
  8
0
 62
7
  6
CONTINUOUS
 10
152.1753043074
 20
31.3358647082
 11
152.2909293626
 21
31.400392081
  0
LINE
  8
0
 62
7
  6
CONTINUOUS
 10
151.1924917523
 20
30.6905909007
 11
151.3659292523
 21
30.7873819712
  0
LINE
  8
0
 62
7
  6
CONTINUOUS
 10
150.2096793212
 20
30.6260635193
 11
150.5565542799
 21
30.5937998301
  0
LINE
  8
0
 62
7
  6
CONTINUOUS
 10
154.3143669177
 20
30.6260635193
 11
154.5456166972
 21
30.5937998301
  0
LINE
  8
0
 62
7
  6
CONTINUOUS
 10
152.6956168074
 20
31.4971831403
 11
152.9268669177
 21
31.4649194539
  0
LINE
  8
0
 62
7
  6
CONTINUOUS
 10
155.0081169177
 20
31.4971831403
 11
155.239367028
 21
31.4649194539
  0
LINE
  8
0
 62
7
  6
CONTINUOUS
 10
159.4596793074
 20
31.1422825445
 11
160.442492028
 21
30.9809641124
  0
LINE
  8
0
 62
7
  6
CONTINUOUS
 10
160.615929528
 20
31.0777551716
 11
159.6331168074
 21
31.2390736489
  0
LINE
  8
0
 62
7
  6
CONTINUOUS
 10
153.1003044177
 20
31.5939741996
 11
152.9268669177
 21
31.626237886
  0
LINE
  8
0
 62
7
  6
CONTINUOUS
 10
159.401867028
 20
30.6583272086
 11
159.575304528
 21
30.6260635193
  0
LINE
  8
0
 62
7
  6
CONTINUOUS
 10
158.2456168074
 20
31.5939741996
 11
158.0721793074
 21
31.626237886
  0
LINE
  8
0
 62
7
  6
CONTINUOUS
 10
160.5003043074
 20
31.4649194539
 11
160.615929528
 21
31.4326557675
  0
LINE
  8
0
 62
7
  6
CONTINUOUS
 10
160.6737418074
 20
30.8519093441
 11
160.615929528
 21
30.7873819712
  0
LINE
  8
0
 62
7
  6
CONTINUOUS
 10
159.228429528
 20
31.5294468267
 11
159.1128043074
 21
31.4326557675
  0
LINE
  8
0
 62
7
  6
CONTINUOUS
 10
154.1409294177
 20
31.5617105132
 11
154.0253041972
 21
31.4971831403
  0
LINE
  8
0
 62
7
  6
CONTINUOUS
 10
154.1987416972
 20
31.1745462761
 11
154.0831168074
 21
31.1100188581
  0
LINE
  8
0
 62
7
  6
CONTINUOUS
 10
154.3143669177
 20
31.0132277988
 11
154.4299918074
 21
31.0777551716
  0
LINE
  8
0
 62
7
  6
CONTINUOUS
 10
151.8862417523
 20
30.5937998301
 11
152.1753043074
 21
30.5937998301
  0
LINE
  8
0
 62
7
  6
CONTINUOUS
 10
153.2159293074
 20
30.5937998301
 11
153.5049916972
 21
30.5937998301
  0
LINE
  8
0
 62
7
  6
CONTINUOUS
 10
154.5456166972
 20
30.5937998301
 11
154.8924916972
 21
30.5937998301
  0
LINE
  8
0
 62
7
  6
CONTINUOUS
 10
155.5284290869
 20
30.5937998301
 11
155.8174918074
 21
30.5937998301
  0
LINE
  8
0
 62
7
  6
CONTINUOUS
 10
156.279992028
 20
30.5937998301
 11
156.5690540869
 21
30.5937998301
  0
LINE
  8
0
 62
7
  6
CONTINUOUS
 10
157.0315543074
 20
30.5937998301
 11
157.320617028
 21
30.5937998301
  0
LINE
  8
0
 62
7
  6
CONTINUOUS
 10
158.361242028
 20
30.5937998301
 11
158.6503040869
 21
30.5937998301
  0
LINE
  8
0
 62
7
  6
CONTINUOUS
 10
159.922179528
 20
30.5937998301
 11
160.269054528
 21
30.5937998301
  0
LINE
  8
0
 62
7
  6
CONTINUOUS
 10
160.269054528
 20
30.7228545871
 11
159.922179528
 21
30.7228545871
  0
LINE
  8
0
 62
7
  6
CONTINUOUS
 10
154.8924916972
 20
30.7228545871
 11
154.5456166972
 21
30.7228545871
  0
LINE
  8
0
 62
7
  6
CONTINUOUS
 10
159.401867028
 20
30.8519093441
 11
159.1128043074
 21
30.8519093441
  0
LINE
  8
0
 62
7
  6
CONTINUOUS
 10
151.4237418626
 20
30.9164367395
 11
151.1346793074
 21
30.9164367395
  0
LINE
  8
0
 62
7
  6
CONTINUOUS
 10
150.498741835
 20
31.4971831403
 11
150.9034292799
 21
31.4649194539
  0
LINE
  8
0
 62
7
  6
CONTINUOUS
 10
150.9612418074
 20
31.5939741996
 11
150.5565542799
 21
31.626237886
  0
LINE
  8
0
 62
7
  6
CONTINUOUS
 10
159.575304528
 20
30.6260635193
 11
159.922179528
 21
30.5937998301
  0
LINE
  8
0
 62
7
  6
CONTINUOUS
 10
159.922179528
 20
30.7228545871
 11
159.575304528
 21
30.7551182848
  0
LINE
  8
0
 62
7
  6
CONTINUOUS
 10
155.3549915869
 20
31.5939741996
 11
155.0081169177
 21
31.626237886
  0
LINE
  8
0
 62
7
  6
CONTINUOUS
 10
160.1534293074
 20
31.4971831403
 11
160.5003043074
 21
31.4649194539
  0
LINE
  8
0
 62
7
  6
CONTINUOUS
 10
160.5003043074
 20
31.5939741996
 11
160.1534293074
 21
31.626237886
  0
LINE
  8
0
 62
7
  6
CONTINUOUS
 10
157.840929528
 20
31.4971831403
 11
158.0721793074
 21
31.4649194539
  0
LINE
  8
0
 62
7
  6
CONTINUOUS
 10
160.6737418074
 20
31.5617105132
 11
160.5003043074
 21
31.5939741996
  0
LINE
  8
0
 62
7
  6
CONTINUOUS
 10
160.8471793074
 20
30.6905909007
 11
160.9628038663
 21
30.7873819712
  0
LINE
  8
0
 62
7
  6
CONTINUOUS
 10
155.3549915869
 20
30.8841730531
 11
155.1815540869
 21
30.7873819712
  0
LINE
  8
0
 62
7
  6
CONTINUOUS
 10
157.4362415869
 20
31.5294468267
 11
157.320617028
 21
31.4649194539
  0
LINE
  8
0
 62
7
  6
CONTINUOUS
 10
157.320617028
 20
31.3358647082
 11
157.4362415869
 21
31.400392081
  0
LINE
  8
0
 62
7
  6
CONTINUOUS
 10
150.0362418212
 20
31.5617105132
 11
149.8628043005
 21
31.4971831403
  0
LINE
  8
0
 62
7
  6
CONTINUOUS
 10
152.4643666972
 20
31.5939741996
 11
152.2909293626
 21
31.5294468267
  0
LINE
  8
0
 62
7
  6
CONTINUOUS
 10
152.2909293626
 20
31.400392081
 11
152.4643666972
 21
31.4649194539
  0
LINE
  8
0
 62
7
  6
CONTINUOUS
 10
151.0768668626
 20
30.8196456577
 11
150.9034292799
 21
30.7551182848
  0
LINE
  8
0
 62
7
  6
CONTINUOUS
 10
160.5003043074
 20
30.7551182848
 11
160.269054528
 21
30.7228545871
  0
LINE
  8
0
 62
7
  6
CONTINUOUS
 10
154.8924916972
 20
30.5937998301
 11
155.1815540869
 21
30.6260635193
  0
LINE
  8
0
 62
7
  6
CONTINUOUS
 10
160.269054528
 20
30.5937998301
 11
160.615929528
 21
30.6260635193
  0
LINE
  8
0
 62
7
  6
CONTINUOUS
 10
150.5565542799
 20
30.5937998301
 11
150.9612418074
 21
30.6260635193
  0
LINE
  8
0
 62
7
  6
CONTINUOUS
 10
150.9034292799
 20
30.7551182848
 11
150.498741835
 21
30.7228545871
  0
LINE
  8
0
 62
7
  6
CONTINUOUS
 10
154.7768668074
 20
31.1422825445
 11
155.412804528
 21
31.1422825445
  0
LINE
  8
0
 62
7
  6
CONTINUOUS
 10
155.412804528
 20
31.2713373354
 11
154.7768668074
 21
31.2713373354
  0
LINE
  8
0
 62
7
  6
CONTINUOUS
 10
151.1346793074
 20
31.3036010218
 11
151.4237418626
 21
31.3036010218
  0
LINE
  8
0
 62
7
  6
CONTINUOUS
 10
153.9674919177
 20
31.3681283946
 11
154.2565543074
 21
31.3681283946
  0
LINE
  8
0
 62
7
  6
CONTINUOUS
 10
160.6737418074
 20
31.3681283946
 11
160.9628038663
 21
31.3681283946
  0
LINE
  8
0
 62
7
  6
CONTINUOUS
 10
154.6612419177
 20
31.4971831403
 11
155.0081169177
 21
31.4971831403
  0
LINE
  8
0
 62
7
  6
CONTINUOUS
 10
159.8065543074
 20
31.4971831403
 11
160.1534293074
 21
31.4971831403
  0
LINE
  8
0
 62
7
  6
CONTINUOUS
 10
160.1534293074
 20
31.626237886
 11
159.8065543074
 21
31.626237886
  0
LINE
  8
0
 62
7
  6
CONTINUOUS
 10
158.0721793074
 20
31.626237886
 11
157.840929528
 21
31.626237886
  0
LINE
  8
0
 62
7
  6
CONTINUOUS
 10
157.320617028
 20
31.626237886
 11
157.0315543074
 21
31.626237886
  0
LINE
  8
0
 62
7
  6
CONTINUOUS
 10
156.5690540869
 20
31.626237886
 11
156.279992028
 21
31.626237886
  0
LINE
  8
0
 62
7
  6
CONTINUOUS
 10
155.0081169177
 20
31.626237886
 11
154.6612419177
 21
31.626237886
  0
LINE
  8
0
 62
7
  6
CONTINUOUS
 10
152.9268669177
 20
31.626237886
 11
152.6956168074
 21
31.626237886
  0
LINE
  8
0
 62
7
  6
CONTINUOUS
 10
156.279992028
 20
31.9488748406
 11
156.5690540869
 21
31.9488748406
  0
LINE
  8
0
 62
7
  6
CONTINUOUS
 10
156.5690540869
 20
32.1101932727
 11
156.279992028
 21
32.1101932727
  0
LINE
  8
0
 62
7
  6
CONTINUOUS
 10
152.1753043074
 20
32.1101932727
 11
151.8862417523
 21
32.1101932727
  0
LINE
  8
0
 62
7
  6
CONTINUOUS
 10
151.2130860697
 20
32.3970785186
 11
151.6256574183
 21
32.3970785186
  0
LINE
  8
0
 62
7
  6
CONTINUOUS
 10
152.852430332
 20
32.3970785186
 11
154.245872955
 21
32.3970785186
  0
LINE
  8
0
 62
7
  6
CONTINUOUS
 10
154.5737418074
 20
32.3970785186
 11
155.9671844304
 21
32.3970785186
  0
LINE
  8
0
 62
7
  6
CONTINUOUS
 10
157.852430332
 20
32.3970785186
 11
159.245872955
 21
32.3970785186
  0
LINE
  8
0
 62
7
  6
CONTINUOUS
 10
159.5737418074
 20
32.3970785186
 11
160.9671844304
 21
32.3970785186
  0
LINE
  8
0
 62
7
  6
CONTINUOUS
 10
157.6096790869
 20
31.5939741996
 11
157.4362415869
 21
31.5294468267
  0
LINE
  8
0
 62
7
  6
CONTINUOUS
 10
155.1815540869
 20
30.6260635193
 11
155.3549915869
 21
30.6905909007
  0
LINE
  8
0
 62
7
  6
CONTINUOUS
 10
160.615929528
 20
30.6260635193
 11
160.8471793074
 21
30.6905909007
  0
LINE
  8
0
 62
7
  6
CONTINUOUS
 10
160.615929528
 20
30.7873819712
 11
160.5003043074
 21
30.7551182848
  0
LINE
  8
0
 62
7
  6
CONTINUOUS
 10
159.575304528
 20
31.4649194539
 11
159.8065543074
 21
31.4971831403
  0
LINE
  8
0
 62
7
  6
CONTINUOUS
 10
157.6096790869
 20
31.4649194539
 11
157.840929528
 21
31.4971831403
  0
LINE
  8
0
 62
7
  6
CONTINUOUS
 10
154.5456166972
 20
31.1100188581
 11
154.7768668074
 21
31.1422825445
  0
LINE
  8
0
 62
7
  6
CONTINUOUS
 10
157.840929528
 20
31.626237886
 11
157.6096790869
 21
31.5939741996
  0
LINE
  8
0
 62
7
  6
CONTINUOUS
 10
154.4299918074
 20
31.4649194539
 11
154.6612419177
 21
31.4971831403
  0
LINE
  8
0
 62
7
  6
CONTINUOUS
 10
159.8065543074
 20
31.626237886
 11
159.4596793074
 21
31.5939741996
  0
LINE
  8
0
 62
7
  6
CONTINUOUS
 10
154.7768668074
 20
31.2713373354
 11
154.4299918074
 21
31.2390736489
  0
LINE
  8
0
 62
7
  6
CONTINUOUS
 10
150.5565542799
 20
31.626237886
 11
150.2096793212
 21
31.5939741996
  0
LINE
  8
0
 62
7
  6
CONTINUOUS
 10
154.6612419177
 20
31.626237886
 11
154.2565543074
 21
31.5939741996
  0
LINE
  8
0
 62
7
  6
CONTINUOUS
 10
152.0327582009
 20
33.5446195022
 11
151.3770204959
 21
33.5446195022
  0
LINE
  8
0
 62
7
  6
CONTINUOUS
 10
157.4362415869
 20
31.400392081
 11
157.6096790869
 21
31.4649194539
  0
LINE
  8
0
 62
7
  6
CONTINUOUS
 10
159.4596793074
 20
31.4326557675
 11
159.575304528
 21
31.4649194539
  0
LINE
  8
0
 62
7
  6
CONTINUOUS
 10
159.4596793074
 20
31.5939741996
 11
159.228429528
 21
31.5294468267
  0
LINE
  8
0
 62
7
  6
CONTINUOUS
 10
155.1815540869
 20
30.7873819712
 11
154.8924916972
 21
30.7228545871
  0
LINE
  8
0
 62
7
  6
CONTINUOUS
 10
152.4643666972
 20
31.4649194539
 11
152.6956168074
 21
31.4971831403
  0
LINE
  8
0
 62
7
  6
CONTINUOUS
 10
152.6956168074
 20
31.626237886
 11
152.4643666972
 21
31.5939741996
  0
LINE
  8
0
 62
7
  6
CONTINUOUS
 10
150.2674918074
 20
31.4649194539
 11
150.498741835
 21
31.4971831403
  0
LINE
  8
0
 62
7
  6
CONTINUOUS
 10
156.7868565615
 20
35.0200293383
 11
157.4425942664
 21
35.0200293383
  0
LINE
  8
0
 62
7
  6
CONTINUOUS
 10
154.4299918074
 20
31.0777551716
 11
154.5456166972
 21
31.1100188581
  0
LINE
  8
0
 62
7
  6
CONTINUOUS
 10
154.4299918074
 20
31.2390736489
 11
154.1987416972
 21
31.1745462761
  0
LINE
  8
0
 62
7
  6
CONTINUOUS
 10
154.3143669177
 20
31.4326557675
 11
154.4299918074
 21
31.4649194539
  0
LINE
  8
0
 62
7
  6
CONTINUOUS
 10
150.9612418074
 20
30.6260635193
 11
151.1924917523
 21
30.6905909007
  0
LINE
  8
0
 62
7
  6
CONTINUOUS
 10
154.2565543074
 20
31.5939741996
 11
154.1409294177
 21
31.5617105132
  0
LINE
  8
0
 62
7
  6
CONTINUOUS
 10
150.2096793212
 20
31.5939741996
 11
150.0362418212
 21
31.5617105132
  0
LINE
  8
0
 62
7
  6
CONTINUOUS
 10
160.9671844304
 20
36.1675703219
 11
159.5737418074
 21
36.1675703219
  0
LINE
  8
0
 62
7
  6
CONTINUOUS
 10
157.6065286927
 20
36.1675703219
 11
157.1939573441
 21
36.1675703219
  0
LINE
  8
0
 62
7
  6
CONTINUOUS
 10
155.9671844304
 20
36.1675703219
 11
154.5737418074
 21
36.1675703219
  0
LINE
  8
0
 62
7
  6
CONTINUOUS
 10
154.245872955
 20
36.1675703219
 11
152.852430332
 21
36.1675703219
  0
LINE
  8
0
 62
7
  6
CONTINUOUS
 10
150.9671844304
 20
36.1675703219
 11
149.5737418074
 21
36.1675703219
  0
LINE
  8
0
 62
7
  6
CONTINUOUS
 10
150.1518667936
 20
31.4326557675
 11
150.2674918074
 21
31.4649194539
  0
CIRCLE
  8
0
 62
7
  6
CONTINUOUS
 10
160.2704631189
 20
38.5036358957
 40
2.0901639344
  0
ARC
  8
0
 62
7
  6
CONTINUOUS
 10
151.2130860697
 20
34.0364227809
 40
1.6393442623
 50
180.0
 51
270.0
  0
ARC
  8
0
 62
7
  6
CONTINUOUS
 10
157.6065286927
 20
34.5282260596
 40
1.6393442623
 50
0.0
 51
90.0
  0
ARC
  8
0
 62
7
  6
CONTINUOUS
 10
151.6256574183
 20
33.8724883547
 40
1.4754098361
 50
270.0
 51
326.2510114041
  0
ARC
  8
0
 62
7
  6
CONTINUOUS
 10
157.1939573441
 20
34.6921604858
 40
1.4754098361
 50
90.0
 51
146.2510114041
  0
ARC
  8
0
 62
7
  6
CONTINUOUS
 10
152.0327582009
 20
34.3642916334
 40
0.8196721311
 50
270.0
 51
360.0
  0
ARC
  8
0
 62
7
  6
CONTINUOUS
 10
156.7868565615
 20
34.2003572071
 40
0.8196721311
 50
90.0
 51
180.0
  0
ARC
  8
0
 62
7
  6
CONTINUOUS
 10
151.3770204959
 20
33.9544555678
 40
0.4098360656
 50
180.0
 51
270.0
  0
ARC
  8
0
 62
7
  6
CONTINUOUS
 10
157.4425942664
 20
34.6101932727
 40
0.4098360656
 50
0.0
 51
90.0
  0
SOLID
  8
0
 62
7
  6
CONTINUOUS
 10
156.279992028
 20
31.9488752009
 11
156.279992028
 21
32.1101936845
 12
156.5690540869
 22
31.9488752009
 13
156.5690540869
 23
32.1101936845
  0
SOLID
  8
0
 62
7
  6
CONTINUOUS
 10
150.5565542799
 20
31.6262382337
 11
150.9612418074
 21
31.5939740028
 12
150.2096793212
 22
31.5939740028
 13
150.2096793212
 23
31.5939740028
  0
SOLID
  8
0
 62
7
  6
CONTINUOUS
 10
150.0362418212
 20
31.5617111435
 11
150.2096793212
 21
31.5939740028
 12
150.9612418074
 22
31.5939740028
 13
150.9612418074
 23
31.5939740028
  0
SOLID
  8
0
 62
7
  6
CONTINUOUS
 10
150.9612418074
 20
31.5939740028
 11
151.1924917523
 21
31.5294468402
 12
150.0362418212
 22
31.5617111435
 13
150.0362418212
 23
31.5617111435
  0
SOLID
  8
0
 62
7
  6
CONTINUOUS
 10
149.8628043005
 20
31.49718259
 11
150.0362418212
 21
31.5617111435
 12
151.1924917523
 22
31.5294468402
 13
151.1924917523
 23
31.5294468402
  0
SOLID
  8
0
 62
7
  6
CONTINUOUS
 10
149.8628043005
 20
31.49718259
 11
151.1924917523
 21
31.5294468402
 12
150.498741835
 22
31.49718259
 13
150.498741835
 23
31.49718259
  0
SOLID
  8
0
 62
7
  6
CONTINUOUS
 10
150.498741835
 20
31.49718259
 11
151.1924917523
 21
31.5294468402
 12
150.9034292799
 22
31.4649197501
 13
150.9034292799
 23
31.4649197501
  0
SOLID
  8
0
 62
7
  6
CONTINUOUS
 10
151.1924917523
 20
31.5294468402
 11
151.3659292523
 21
31.4326554468
 12
150.9034292799
 22
31.4649197501
 13
150.9034292799
 23
31.4649197501
  0
SOLID
  8
0
 62
7
  6
CONTINUOUS
 10
151.0768668626
 20
31.4003926599
 11
150.9034292799
 21
31.4649197501
 12
151.3659292523
 22
31.4326554468
 13
151.3659292523
 23
31.4326554468
  0
SOLID
  8
0
 62
7
  6
CONTINUOUS
 10
151.0768668626
 20
31.4003926599
 11
151.3659292523
 21
31.4326554468
 12
151.1346793074
 22
31.3036013776
 13
151.1346793074
 23
31.3036013776
  0
SOLID
  8
0
 62
7
  6
CONTINUOUS
 10
151.3659292523
 20
31.4326554468
 11
151.4237418626
 21
31.3036013776
 12
151.1346793074
 22
31.3036013776
 13
151.1346793074
 23
31.3036013776
  0
SOLID
  8
0
 62
7
  6
CONTINUOUS
 10
152.4643666972
 20
31.5939739754
 11
152.6956168074
 21
31.6262382787
 12
152.9268669177
 22
31.6262382787
 13
152.9268669177
 23
31.6262382787
  0
SOLID
  8
0
 62
7
  6
CONTINUOUS
 10
152.9268669177
 20
31.6262382787
 11
153.1003044177
 21
31.5939739754
 12
152.4643666972
 22
31.5939739754
 13
152.4643666972
 23
31.5939739754
  0
SOLID
  8
0
 62
7
  6
CONTINUOUS
 10
152.2909293626
 20
31.5294468852
 11
152.4643666972
 21
31.5939739754
 12
153.1003044177
 22
31.5939739754
 13
153.1003044177
 23
31.5939739754
  0
SOLID
  8
0
 62
7
  6
CONTINUOUS
 10
153.1003044177
 20
31.5939739754
 11
153.2737419177
 21
31.5294468852
 12
152.2909293626
 22
31.5294468852
 13
152.2909293626
 23
31.5294468852
  0
SOLID
  8
0
 62
7
  6
CONTINUOUS
 10
153.2737419177
 20
31.5294468852
 11
152.6956168074
 21
31.4971825369
 12
152.2909293626
 22
31.5294468852
 13
152.2909293626
 23
31.5294468852
  0
SOLID
  8
0
 62
7
  6
CONTINUOUS
 10
152.1753043074
 20
31.4649197951
 11
152.2909293626
 21
31.5294468852
 12
152.6956168074
 22
31.4971825369
 13
152.6956168074
 23
31.4971825369
  0
SOLID
  8
0
 62
7
  6
CONTINUOUS
 10
152.6956168074
 20
31.4971825369
 11
152.4643666972
 21
31.4649197951
 12
152.1753043074
 22
31.4649197951
 13
152.1753043074
 23
31.4649197951
  0
SOLID
  8
0
 62
7
  6
CONTINUOUS
 10
152.6956168074
 20
31.4971825369
 11
153.2737419177
 21
31.5294468852
 12
152.9268669177
 22
31.4649197951
 13
152.9268669177
 23
31.4649197951
  0
SOLID
  8
0
 62
7
  6
CONTINUOUS
 10
153.2737419177
 20
31.5294468852
 11
153.3893668074
 21
31.4649197951
 12
152.9268669177
 22
31.4649197951
 13
152.9268669177
 23
31.4649197951
  0
SOLID
  8
0
 62
7
  6
CONTINUOUS
 10
153.0424918074
 20
31.4326554468
 11
152.9268669177
 21
31.4649197951
 12
153.3893668074
 22
31.4649197951
 13
153.3893668074
 23
31.4649197951
  0
SOLID
  8
0
 62
7
  6
CONTINUOUS
 10
153.3893668074
 20
31.4649197951
 11
153.4471794177
 21
31.4003927049
 12
153.0424918074
 22
31.4326554468
 13
153.0424918074
 23
31.4326554468
  0
SOLID
  8
0
 62
7
  6
CONTINUOUS
 10
153.1581166972
 20
31.3681283566
 11
153.0424918074
 21
31.4326554468
 12
153.4471794177
 22
31.4003927049
 13
153.4471794177
 23
31.4003927049
  0
SOLID
  8
0
 62
7
  6
CONTINUOUS
 10
153.1581166972
 20
31.3681283566
 11
153.4471794177
 21
31.4003927049
 12
153.2159293074
 22
31.2390742213
 13
153.2159293074
 23
31.2390742213
  0
SOLID
  8
0
 62
7
  6
CONTINUOUS
 10
153.4471794177
 20
31.4003927049
 11
153.5049916972
 21
31.2390742213
 12
153.2159293074
 22
31.2390742213
 13
153.2159293074
 23
31.2390742213
  0
SOLID
  8
0
 62
7
  6
CONTINUOUS
 10
152.4643666972
 20
31.4649197951
 11
152.2909293626
 21
31.4003927049
 12
152.1753043074
 22
31.4649197951
 13
152.1753043074
 23
31.4649197951
  0
SOLID
  8
0
 62
7
  6
CONTINUOUS
 10
152.2909293626
 20
31.4003927049
 11
152.1753043074
 21
31.3358640533
 12
152.1753043074
 22
31.4649197951
 13
152.1753043074
 23
31.4649197951
  0
SOLID
  8
0
 62
7
  6
CONTINUOUS
 10
152.1753043074
 20
31.3358640533
 11
151.8862417523
 21
30.5938002869
 12
152.1753043074
 22
31.4649197951
 13
152.1753043074
 23
31.4649197951
  0
SOLID
  8
0
 62
7
  6
CONTINUOUS
 10
152.1753043074
 20
31.4649197951
 11
151.8862417523
 21
30.5938002869
 12
152.1753043074
 22
32.1101937295
 13
152.1753043074
 23
32.1101937295
  0
SOLID
  8
0
 62
7
  6
CONTINUOUS
 10
151.8862417523
 20
30.5938002869
 11
151.8862417523
 21
32.1101937295
 12
152.1753043074
 22
32.1101937295
 13
152.1753043074
 23
32.1101937295
  0
SOLID
  8
0
 62
7
  6
CONTINUOUS
 10
152.1753043074
 20
31.3358640533
 11
152.1753043074
 21
30.5938002869
 12
151.8862417523
 22
30.5938002869
 13
151.8862417523
 23
30.5938002869
  0
SOLID
  8
0
 62
7
  6
CONTINUOUS
 10
153.2159293074
 20
30.5938002869
 11
153.2159293074
 21
31.2390742213
 12
153.5049916972
 22
31.2390742213
 13
153.5049916972
 23
31.2390742213
  0
SOLID
  8
0
 62
7
  6
CONTINUOUS
 10
153.5049916972
 20
31.2390742213
 11
153.5049916972
 21
30.5938002869
 12
153.2159293074
 22
30.5938002869
 13
153.2159293074
 23
30.5938002869
  0
SOLID
  8
0
 62
7
  6
CONTINUOUS
 10
154.2565543074
 20
31.5939738288
 11
154.6612419177
 21
31.6262385959
 12
155.0081169177
 22
31.6262385959
 13
155.0081169177
 23
31.6262385959
  0
SOLID
  8
0
 62
7
  6
CONTINUOUS
 10
155.0081169177
 20
31.6262385959
 11
155.3549915869
 21
31.5939738288
 12
154.2565543074
 22
31.5939738288
 13
154.2565543074
 23
31.5939738288
  0
SOLID
  8
0
 62
7
  6
CONTINUOUS
 10
154.1409294177
 20
31.5617111435
 11
154.2565543074
 21
31.5939738288
 12
155.3549915869
 22
31.5939738288
 13
155.3549915869
 23
31.5939738288
  0
SOLID
  8
0
 62
7
  6
CONTINUOUS
 10
155.3549915869
 20
31.5939738288
 11
155.5284290869
 21
31.5294468402
 12
154.1409294177
 22
31.5617111435
 13
154.1409294177
 23
31.5617111435
  0
SOLID
  8
0
 62
7
  6
CONTINUOUS
 10
154.0253041972
 20
31.4971826249
 11
154.1409294177
 21
31.5617111435
 12
155.5284290869
 22
31.5294468402
 13
155.5284290869
 23
31.5294468402
  0
SOLID
  8
0
 62
7
  6
CONTINUOUS
 10
154.0253041972
 20
31.4971826249
 11
155.5284290869
 21
31.5294468402
 12
154.6612419177
 22
31.4971826249
 13
154.6612419177
 23
31.4971826249
  0
SOLID
  8
0
 62
7
  6
CONTINUOUS
 10
154.6612419177
 20
31.4971826249
 11
155.5284290869
 21
31.5294468402
 12
155.0081169177
 22
31.4971826249
 13
155.0081169177
 23
31.4971826249
  0
SOLID
  8
0
 62
7
  6
CONTINUOUS
 10
155.0081169177
 20
31.4971826249
 11
155.5284290869
 21
31.5294468402
 12
155.239367028
 22
31.4649194065
 13
155.239367028
 23
31.4649194065
  0
SOLID
  8
0
 62
7
  6
CONTINUOUS
 10
155.5284290869
 20
31.5294468402
 11
155.6440543074
 21
31.4649194065
 12
155.239367028
 22
31.4649194065
 13
155.239367028
 23
31.4649194065
  0
SOLID
  8
0
 62
7
  6
CONTINUOUS
 10
153.9674919177
 20
31.4326554138
 11
154.0253041972
 21
31.4971826249
 12
154.6612419177
 22
31.4971826249
 13
154.6612419177
 23
31.4971826249
  0
SOLID
  8
0
 62
7
  6
CONTINUOUS
 10
155.3549915869
 20
31.4326554138
 11
155.239367028
 21
31.4649194065
 12
155.6440543074
 22
31.4649194065
 13
155.6440543074
 23
31.4649194065
  0
SOLID
  8
0
 62
7
  6
CONTINUOUS
 10
155.3549915869
 20
31.4326554138
 11
155.6440543074
 21
31.4649194065
 12
155.412804528
 22
31.3681282026
 13
155.412804528
 23
31.3681282026
  0
SOLID
  8
0
 62
7
  6
CONTINUOUS
 10
155.6440543074
 20
31.4649194065
 11
155.7018665869
 21
31.3681282026
 12
155.412804528
 22
31.3681282026
 13
155.412804528
 23
31.3681282026
  0
SOLID
  8
0
 62
7
  6
CONTINUOUS
 10
155.412804528
 20
31.2713369632
 11
155.412804528
 21
31.3681282026
 12
155.7018665869
 22
31.3681282026
 13
155.7018665869
 23
31.3681282026
  0
SOLID
  8
0
 62
7
  6
CONTINUOUS
 10
155.412804528
 20
31.2713369632
 11
155.7018665869
 21
31.3681282026
 12
155.412804528
 22
31.1422827828
 13
155.412804528
 23
31.1422827828
  0
SOLID
  8
0
 62
7
  6
CONTINUOUS
 10
155.412804528
 20
31.1422827828
 11
155.7018665869
 21
31.3681282026
 12
155.412804528
 22
30.9487004259
 13
155.412804528
 23
30.9487004259
  0
SOLID
  8
0
 62
7
  6
CONTINUOUS
 10
155.7018665869
 20
31.3681282026
 11
155.7018665869
 21
30.8519086025
 12
155.412804528
 22
30.9487004259
 13
155.412804528
 23
30.9487004259
  0
SOLID
  8
0
 62
7
  6
CONTINUOUS
 10
157.6096790869
 20
31.5939736268
 11
157.840929528
 21
31.6262383465
 12
158.0721793074
 22
31.6262383465
 13
158.0721793074
 23
31.6262383465
  0
SOLID
  8
0
 62
7
  6
CONTINUOUS
 10
158.0721793074
 20
31.6262383465
 11
158.2456168074
 21
31.5939736268
 12
157.6096790869
 22
31.5939736268
 13
157.6096790869
 23
31.5939736268
  0
SOLID
  8
0
 62
7
  6
CONTINUOUS
 10
157.4362415869
 20
31.5294472848
 11
157.6096790869
 21
31.5939736268
 12
158.2456168074
 22
31.5939736268
 13
158.2456168074
 23
31.5939736268
  0
SOLID
  8
0
 62
7
  6
CONTINUOUS
 10
158.2456168074
 20
31.5939736268
 11
158.4190543074
 21
31.5294472848
 12
157.4362415869
 22
31.5294472848
 13
157.4362415869
 23
31.5294472848
  0
SOLID
  8
0
 62
7
  6
CONTINUOUS
 10
158.4190543074
 20
31.5294472848
 11
157.840929528
 21
31.4971825369
 12
157.4362415869
 22
31.5294472848
 13
157.4362415869
 23
31.5294472848
  0
SOLID
  8
0
 62
7
  6
CONTINUOUS
 10
157.320617028
 20
31.4649199103
 11
157.4362415869
 21
31.5294472848
 12
157.840929528
 22
31.4971825369
 13
157.840929528
 23
31.4971825369
  0
SOLID
  8
0
 62
7
  6
CONTINUOUS
 10
157.840929528
 20
31.4971825369
 11
157.6096790869
 21
31.4649199103
 12
157.320617028
 22
31.4649199103
 13
157.320617028
 23
31.4649199103
  0
SOLID
  8
0
 62
7
  6
CONTINUOUS
 10
157.840929528
 20
31.4971825369
 11
158.4190543074
 21
31.5294472848
 12
158.0721793074
 22
31.4649199103
 13
158.0721793074
 23
31.4649199103
  0
SOLID
  8
0
 62
7
  6
CONTINUOUS
 10
158.4190543074
 20
31.5294472848
 11
158.534679528
 21
31.4649199103
 12
158.0721793074
 22
31.4649199103
 13
158.0721793074
 23
31.4649199103
  0
SOLID
  8
0
 62
7
  6
CONTINUOUS
 10
158.187804528
 20
31.4326554468
 11
158.0721793074
 21
31.4649199103
 12
158.534679528
 22
31.4649199103
 13
158.534679528
 23
31.4649199103
  0
SOLID
  8
0
 62
7
  6
CONTINUOUS
 10
158.187804528
 20
31.4326554468
 11
158.534679528
 21
31.4649199103
 12
158.3034290869
 22
31.3681288486
 13
158.3034290869
 23
31.3681288486
  0
SOLID
  8
0
 62
7
  6
CONTINUOUS
 10
158.534679528
 20
31.4649199103
 11
158.5924918074
 21
31.3681288486
 12
158.3034290869
 22
31.3681288486
 13
158.3034290869
 23
31.3681288486
  0
SOLID
  8
0
 62
7
  6
CONTINUOUS
 10
158.361242028
 20
31.2068093799
 11
158.3034290869
 21
31.3681288486
 12
158.5924918074
 22
31.3681288486
 13
158.5924918074
 23
31.3681288486
  0
SOLID
  8
0
 62
7
  6
CONTINUOUS
 10
158.5924918074
 20
31.3681288486
 11
158.6503040869
 21
31.2068093799
 12
158.361242028
 22
31.2068093799
 13
158.361242028
 23
31.2068093799
  0
SOLID
  8
0
 62
7
  6
CONTINUOUS
 10
157.6096790869
 20
31.4649199103
 11
157.4362415869
 21
31.4003926599
 12
157.320617028
 22
31.4649199103
 13
157.320617028
 23
31.4649199103
  0
SOLID
  8
0
 62
7
  6
CONTINUOUS
 10
157.4362415869
 20
31.4003926599
 11
157.320617028
 21
31.3358640533
 12
157.320617028
 22
31.4649199103
 13
157.320617028
 23
31.4649199103
  0
SOLID
  8
0
 62
7
  6
CONTINUOUS
 10
157.320617028
 20
31.3358640533
 11
157.0315543074
 21
30.5938003547
 12
157.320617028
 22
31.4649199103
 13
157.320617028
 23
31.4649199103
  0
SOLID
  8
0
 62
7
  6
CONTINUOUS
 10
157.320617028
 20
31.4649199103
 11
157.0315543074
 21
30.5938003547
 12
157.320617028
 22
31.6262383465
 13
157.320617028
 23
31.6262383465
  0
SOLID
  8
0
 62
7
  6
CONTINUOUS
 10
157.0315543074
 20
30.5938003547
 11
157.0315543074
 21
31.6262383465
 12
157.320617028
 22
31.6262383465
 13
157.320617028
 23
31.6262383465
  0
SOLID
  8
0
 62
7
  6
CONTINUOUS
 10
157.320617028
 20
31.3358640533
 11
157.320617028
 21
30.5938003547
 12
157.0315543074
 22
30.5938003547
 13
157.0315543074
 23
30.5938003547
  0
SOLID
  8
0
 62
7
  6
CONTINUOUS
 10
158.361242028
 20
30.5938003547
 11
158.361242028
 21
31.2068093799
 12
158.6503040869
 22
31.2068093799
 13
158.6503040869
 23
31.2068093799
  0
SOLID
  8
0
 62
7
  6
CONTINUOUS
 10
158.6503040869
 20
31.2068093799
 11
158.6503040869
 21
30.5938003547
 12
158.361242028
 22
30.5938003547
 13
158.361242028
 23
30.5938003547
  0
SOLID
  8
0
 62
7
  6
CONTINUOUS
 10
159.4596793074
 20
31.5939739474
 11
159.8065543074
 21
31.6262381969
 12
160.1534293074
 22
31.6262381969
 13
160.1534293074
 23
31.6262381969
  0
SOLID
  8
0
 62
7
  6
CONTINUOUS
 10
160.1534293074
 20
31.6262381969
 11
160.5003043074
 21
31.5939739474
 12
159.4596793074
 22
31.5939739474
 13
159.4596793074
 23
31.5939739474
  0
SOLID
  8
0
 62
7
  6
CONTINUOUS
 10
159.228429528
 20
31.5294468402
 11
159.4596793074
 21
31.5939739474
 12
160.5003043074
 22
31.5939739474
 13
160.5003043074
 23
31.5939739474
  0
SOLID
  8
0
 62
7
  6
CONTINUOUS
 10
159.228429528
 20
31.5294468402
 11
160.5003043074
 21
31.5939739304
 12
160.6737418074
 22
31.5617111435
 13
160.6737418074
 23
31.5617111435
  0
SOLID
  8
0
 62
7
  6
CONTINUOUS
 10
159.228429528
 20
31.5294468402
 11
160.6737418074
 21
31.5617111435
 12
159.8065543074
 22
31.4971825592
 13
159.8065543074
 23
31.4971825592
  0
SOLID
  8
0
 62
7
  6
CONTINUOUS
 10
159.8065543074
 20
31.4971825592
 11
160.6737418074
 21
31.5617111435
 12
160.1534293074
 22
31.4971825592
 13
160.1534293074
 23
31.4971825592
  0
SOLID
  8
0
 62
7
  6
CONTINUOUS
 10
160.6737418074
 20
31.5617111435
 11
160.8471793074
 21
31.4971825592
 12
160.1534293074
 22
31.4971825592
 13
160.1534293074
 23
31.4971825592
  0
SOLID
  8
0
 62
7
  6
CONTINUOUS
 10
160.5003043074
 20
31.4649197501
 11
160.1534293074
 21
31.4971825592
 12
160.8471793074
 22
31.4971825592
 13
160.8471793074
 23
31.4971825592
  0
SOLID
  8
0
 62
7
  6
CONTINUOUS
 10
159.1128043074
 20
31.4326555427
 11
159.228429528
 21
31.5294468402
 12
159.8065543074
 22
31.4971825592
 13
159.8065543074
 23
31.4971825592
  0
SOLID
  8
0
 62
7
  6
CONTINUOUS
 10
160.5003043074
 20
31.4649197501
 11
160.8471793074
 21
31.4971825592
 12
160.615929528
 22
31.4326555427
 13
160.615929528
 23
31.4326555427
  0
SOLID
  8
0
 62
7
  6
CONTINUOUS
 10
160.615929528
 20
31.4326555427
 11
160.8471793074
 21
31.4971825592
 12
160.6737418074
 22
31.3681283005
 13
160.6737418074
 23
31.3681283005
  0
SOLID
  8
0
 62
7
  6
CONTINUOUS
 10
160.8471793074
 20
31.4971825592
 11
160.9628038663
 21
31.3681283005
 12
160.6737418074
 22
31.3681283005
 13
160.6737418074
 23
31.3681283005
  0
SOLID
  8
0
 62
7
  6
CONTINUOUS
 10
150.2674918074
 20
31.4649197501
 11
149.7471793074
 21
31.4326554237
 12
150.498741835
 22
31.4971824493
 13
150.498741835
 23
31.4971824493
  0
SOLID
  8
0
 62
7
  6
CONTINUOUS
 10
149.7471793074
 20
31.4326554237
 11
149.8628043005
 21
31.4971824493
 12
150.498741835
 22
31.4971824493
 13
150.498741835
 23
31.4971824493
  0
SOLID
  8
0
 62
7
  6
CONTINUOUS
 10
150.2674918074
 20
31.4649197501
 11
150.1518667936
 21
31.4326554237
 12
149.7471793074
 22
31.4326554237
 13
149.7471793074
 23
31.4326554237
  0
SOLID
  8
0
 62
7
  6
CONTINUOUS
 10
149.6315543091
 20
31.3036012664
 11
149.7471793074
 21
31.4326554237
 12
150.1518667936
 22
31.4326554237
 13
150.1518667936
 23
31.4326554237
  0
SOLID
  8
0
 62
7
  6
CONTINUOUS
 10
153.9674919177
 20
31.4326554237
 11
154.6612419177
 21
31.4971825369
 12
154.4299918074
 22
31.4649197501
 13
154.4299918074
 23
31.4649197501
  0
SOLID
  8
0
 62
7
  6
CONTINUOUS
 10
154.4299918074
 20
31.4649197501
 11
154.3143669177
 21
31.4326554237
 12
153.9674919177
 22
31.4326554237
 13
153.9674919177
 23
31.4326554237
  0
SOLID
  8
0
 62
7
  6
CONTINUOUS
 10
153.9674919177
 20
31.3681283335
 11
153.9674919177
 21
31.4326554237
 12
154.3143669177
 22
31.4326554237
 13
154.3143669177
 23
31.4326554237
  0
SOLID
  8
0
 62
7
  6
CONTINUOUS
 10
154.3143669177
 20
31.4326554237
 11
154.2565543074
 21
31.3681283335
 12
153.9674919177
 22
31.3681283335
 13
153.9674919177
 23
31.3681283335
  0
SOLID
  8
0
 62
7
  6
CONTINUOUS
 10
159.1128043074
 20
31.4326555528
 11
159.8065543074
 21
31.4971825369
 12
159.575304528
 22
31.4649197501
 13
159.575304528
 23
31.4649197501
  0
SOLID
  8
0
 62
7
  6
CONTINUOUS
 10
159.575304528
 20
31.4649197501
 11
159.4596793074
 21
31.4326555528
 12
159.1128043074
 22
31.4326555528
 13
159.1128043074
 23
31.4326555528
  0
SOLID
  8
0
 62
7
  6
CONTINUOUS
 10
159.1128043074
 20
31.3681284626
 11
159.1128043074
 21
31.4326555528
 12
159.4596793074
 22
31.4326555528
 13
159.4596793074
 23
31.4326555528
  0
SOLID
  8
0
 62
7
  6
CONTINUOUS
 10
159.4596793074
 20
31.4326555528
 11
159.401867028
 21
31.3681284626
 12
159.1128043074
 22
31.3681284626
 13
159.1128043074
 23
31.3681284626
  0
SOLID
  8
0
 62
7
  6
CONTINUOUS
 10
159.228429528
 20
31.2390741763
 11
159.1128043074
 21
31.3681284626
 12
159.401867028
 22
31.3681284626
 13
159.401867028
 23
31.3681284626
  0
SOLID
  8
0
 62
7
  6
CONTINUOUS
 10
149.6315543091
 20
31.3036012664
 11
150.1518667936
 21
31.4326554468
 12
149.9784292936
 22
31.3358640533
 13
149.9784292936
 23
31.3358640533
  0
SOLID
  8
0
 62
7
  6
CONTINUOUS
 10
149.9784292936
 20
31.3358640533
 11
149.9206168074
 21
31.2713369632
 12
149.6315543091
 22
31.3036012664
 13
149.6315543091
 23
31.3036012664
  0
SOLID
  8
0
 62
7
  6
CONTINUOUS
 10
149.5737418074
 20
31.1100184796
 11
149.6315543091
 21
31.3036012664
 12
149.9206168074
 22
31.2713369632
 13
149.9206168074
 23
31.2713369632
  0
SOLID
  8
0
 62
7
  6
CONTINUOUS
 10
154.4299918074
 20
31.2390741763
 11
154.7768668074
 21
31.271336924
 12
155.412804528
 22
31.271336924
 13
155.412804528
 23
31.271336924
  0
SOLID
  8
0
 62
7
  6
CONTINUOUS
 10
154.4299918074
 20
31.2390741763
 11
155.412804528
 21
31.271336924
 12
154.1987416972
 22
31.1745462761
 13
154.1987416972
 23
31.1745462761
  0
SOLID
  8
0
 62
7
  6
CONTINUOUS
 10
154.1987416972
 20
31.1745462761
 11
155.412804528
 21
31.271336924
 12
154.7768668074
 22
31.1422827436
 13
154.7768668074
 23
31.1422827436
  0
SOLID
  8
0
 62
7
  6
CONTINUOUS
 10
155.412804528
 20
31.271336924
 11
155.412804528
 21
31.1422827436
 12
154.7768668074
 22
31.1422827436
 13
154.7768668074
 23
31.1422827436
  0
SOLID
  8
0
 62
7
  6
CONTINUOUS
 10
159.228429528
 20
31.2390745501
 11
159.401867028
 21
31.3681283566
 12
159.4596793074
 22
31.3036012664
 13
159.4596793074
 23
31.3036012664
  0
SOLID
  8
0
 62
7
  6
CONTINUOUS
 10
159.4596793074
 20
31.3036012664
 11
159.6331168074
 21
31.2390745501
 12
159.228429528
 22
31.2390745501
 13
159.228429528
 23
31.2390745501
  0
SOLID
  8
0
 62
7
  6
CONTINUOUS
 10
159.4596793074
 20
31.1422827828
 11
159.228429528
 21
31.2390745501
 12
159.6331168074
 22
31.2390745501
 13
159.6331168074
 23
31.2390745501
  0
SOLID
  8
0
 62
7
  6
CONTINUOUS
 10
159.6331168074
 20
31.2390745501
 11
160.615929528
 21
31.0777556927
 12
159.4596793074
 22
31.1422827828
 13
159.4596793074
 23
31.1422827828
  0
SOLID
  8
0
 62
7
  6
CONTINUOUS
 10
160.442492028
 20
30.9809646623
 11
159.4596793074
 21
31.1422827828
 12
160.615929528
 22
31.0777556927
 13
160.615929528
 23
31.0777556927
  0
SOLID
  8
0
 62
7
  6
CONTINUOUS
 10
160.615929528
 20
31.0777556927
 11
160.8471793074
 21
30.9809646623
 12
160.442492028
 22
30.9809646623
 13
160.442492028
 23
30.9809646623
  0
SOLID
  8
0
 62
7
  6
CONTINUOUS
 10
160.615929528
 20
30.9164372091
 11
160.442492028
 21
30.9809646623
 12
160.8471793074
 22
30.9809646623
 13
160.8471793074
 23
30.9809646623
  0
SOLID
  8
0
 62
7
  6
CONTINUOUS
 10
160.615929528
 20
30.9164372091
 11
160.8471793074
 21
30.9809646623
 12
160.6737418074
 22
30.8519089441
 13
160.6737418074
 23
30.8519089441
  0
SOLID
  8
0
 62
7
  6
CONTINUOUS
 10
160.8471793074
 20
30.9809646623
 11
160.9628038663
 21
30.8519089441
 12
160.6737418074
 22
30.8519089441
 13
160.6737418074
 23
30.8519089441
  0
SOLID
  8
0
 62
7
  6
CONTINUOUS
 10
160.615929528
 20
30.7873818593
 11
160.6737418074
 21
30.8519089441
 12
160.9628038663
 22
30.8519089441
 13
160.9628038663
 23
30.8519089441
  0
SOLID
  8
0
 62
7
  6
CONTINUOUS
 10
160.9628038663
 20
30.8519089441
 11
160.9628038663
 21
30.7873818593
 12
160.615929528
 22
30.7873818593
 13
160.615929528
 23
30.7873818593
  0
SOLID
  8
0
 62
7
  6
CONTINUOUS
 10
160.5003043074
 20
30.7551187255
 11
160.615929528
 21
30.7873818593
 12
160.9628038663
 22
30.7873818593
 13
160.9628038663
 23
30.7873818593
  0
SOLID
  8
0
 62
7
  6
CONTINUOUS
 10
160.5003043074
 20
30.7551187255
 11
160.9628038663
 21
30.7873818593
 12
160.269054528
 22
30.7228547745
 13
160.269054528
 23
30.7228547745
  0
SOLID
  8
0
 62
7
  6
CONTINUOUS
 10
160.9628038663
 20
30.7873818593
 11
160.8471793074
 21
30.6905916353
 12
160.269054528
 22
30.7228547745
 13
160.269054528
 23
30.7228547745
  0
SOLID
  8
0
 62
7
  6
CONTINUOUS
 10
160.8471793074
 20
30.6905916353
 11
159.401867028
 21
30.658327332
 12
160.269054528
 22
30.7228547745
 13
160.269054528
 23
30.7228547745
  0
SOLID
  8
0
 62
7
  6
CONTINUOUS
 10
160.269054528
 20
30.7228547745
 11
159.401867028
 21
30.658327332
 12
159.922179528
 22
30.7228547745
 13
159.922179528
 23
30.7228547745
  0
SOLID
  8
0
 62
7
  6
CONTINUOUS
 10
159.401867028
 20
30.658327332
 11
159.228429528
 21
30.7228547745
 12
159.922179528
 22
30.7228547745
 13
159.922179528
 23
30.7228547745
  0
SOLID
  8
0
 62
7
  6
CONTINUOUS
 10
159.401867028
 20
30.658327332
 11
160.8471793074
 21
30.6905916353
 12
159.575304528
 22
30.6260629858
 13
159.575304528
 23
30.6260629858
  0
SOLID
  8
0
 62
7
  6
CONTINUOUS
 10
160.8471793074
 20
30.6905916353
 11
160.615929528
 21
30.6260629858
 12
159.575304528
 22
30.6260629858
 13
159.575304528
 23
30.6260629858
  0
SOLID
  8
0
 62
7
  6
CONTINUOUS
 10
159.922179528
 20
30.5938006049
 11
159.575304528
 21
30.6260629858
 12
160.615929528
 22
30.6260629858
 13
160.615929528
 23
30.6260629858
  0
SOLID
  8
0
 62
7
  6
CONTINUOUS
 10
160.615929528
 20
30.6260629858
 11
160.269054528
 21
30.5938006049
 12
159.922179528
 22
30.5938006049
 13
159.922179528
 23
30.5938006049
  0
SOLID
  8
0
 62
7
  6
CONTINUOUS
 10
149.5737418074
 20
31.1100184796
 11
149.9206168074
 21
31.2713369632
 12
149.8628043005
 22
31.1422827828
 13
149.8628043005
 23
31.1422827828
  0
SOLID
  8
0
 62
7
  6
CONTINUOUS
 10
149.8628043005
 20
31.1422827828
 11
149.8628043005
 21
31.0454914852
 12
149.5737418074
 22
31.1100184796
 13
149.5737418074
 23
31.1100184796
  0
SOLID
  8
0
 62
7
  6
CONTINUOUS
 10
149.6315543091
 20
30.9164372091
 11
149.5737418074
 21
31.1100184796
 12
149.8628043005
 22
31.0454914852
 13
149.8628043005
 23
31.0454914852
  0
SOLID
  8
0
 62
7
  6
CONTINUOUS
 10
149.8628043005
 20
31.0454914852
 11
149.9784292936
 21
30.8841729058
 12
149.6315543091
 22
30.9164372091
 13
149.6315543091
 23
30.9164372091
  0
SOLID
  8
0
 62
7
  6
CONTINUOUS
 10
149.7471793074
 20
30.7873813202
 11
149.6315543091
 21
30.9164372091
 12
149.9784292936
 22
30.8841729058
 13
149.9784292936
 23
30.8841729058
  0
SOLID
  8
0
 62
7
  6
CONTINUOUS
 10
149.9784292936
 20
30.8841729058
 11
150.1518667936
 21
30.7873813202
 12
149.7471793074
 22
30.7873813202
 13
149.7471793074
 23
30.7873813202
  0
SOLID
  8
0
 62
7
  6
CONTINUOUS
 10
149.8628043005
 20
30.7228547004
 11
149.7471793074
 21
30.7873813202
 12
150.1518667936
 22
30.7873813202
 13
150.1518667936
 23
30.7873813202
  0
SOLID
  8
0
 62
7
  6
CONTINUOUS
 10
150.1518667936
 20
30.7873813202
 11
150.498741835
 21
30.7228547004
 12
149.8628043005
 22
30.7228547004
 13
149.8628043005
 23
30.7228547004
  0
SOLID
  8
0
 62
7
  6
CONTINUOUS
 10
150.0362418212
 20
30.658327332
 11
149.8628043005
 21
30.7228547004
 12
150.498741835
 22
30.7228547004
 13
150.498741835
 23
30.7228547004
  0
SOLID
  8
0
 62
7
  6
CONTINUOUS
 10
154.0831168074
 20
31.1100184386
 11
154.1987416972
 21
31.1745462761
 12
154.7768668074
 22
31.1422827828
 13
154.7768668074
 23
31.1422827828
  0
SOLID
  8
0
 62
7
  6
CONTINUOUS
 10
154.7768668074
 20
31.1422827828
 11
154.5456166972
 21
31.1100184386
 12
154.0831168074
 22
31.1100184386
 13
154.0831168074
 23
31.1100184386
  0
SOLID
  8
0
 62
7
  6
CONTINUOUS
 10
153.9674919177
 20
30.9809642992
 11
154.0831168074
 21
31.1100184386
 12
154.5456166972
 22
31.1100184386
 13
154.5456166972
 23
31.1100184386
  0
SOLID
  8
0
 62
7
  6
CONTINUOUS
 10
154.3143669177
 20
31.0132277988
 11
153.9674919177
 21
30.9809642992
 12
154.4299918074
 22
31.0777556927
 13
154.4299918074
 23
31.0777556927
  0
SOLID
  8
0
 62
7
  6
CONTINUOUS
 10
153.9674919177
 20
30.9809642992
 11
154.5456166972
 21
31.1100184796
 12
154.4299918074
 22
31.0777556927
 13
154.4299918074
 23
31.0777556927
  0
SOLID
  8
0
 62
7
  6
CONTINUOUS
 10
154.3143669177
 20
31.0132277988
 11
154.2565543074
 21
30.9164372091
 12
153.9674919177
 22
30.9809642992
 13
153.9674919177
 23
30.9809642992
  0
SOLID
  8
0
 62
7
  6
CONTINUOUS
 10
153.9674919177
 20
30.8841729058
 11
153.9674919177
 21
30.9809642992
 12
154.2565543074
 22
30.9164372091
 13
154.2565543074
 23
30.9164372091
  0
SOLID
  8
0
 62
7
  6
CONTINUOUS
 10
154.2565543074
 20
30.9164372091
 11
154.2565543074
 21
30.8519086025
 12
153.9674919177
 22
30.8841729058
 13
153.9674919177
 23
30.8841729058
  0
SOLID
  8
0
 62
7
  6
CONTINUOUS
 10
154.0253041972
 20
30.7551187255
 11
153.9674919177
 21
30.8841729058
 12
154.2565543074
 22
30.8519086025
 13
154.2565543074
 23
30.8519086025
  0
SOLID
  8
0
 62
7
  6
CONTINUOUS
 10
155.412804528
 20
30.9487004259
 11
155.7018665869
 21
30.8519086025
 12
155.3549915869
 22
30.8841729058
 13
155.3549915869
 23
30.8841729058
  0
SOLID
  8
0
 62
7
  6
CONTINUOUS
 10
155.1815540869
 20
30.7873815123
 11
155.3549915869
 21
30.8841729058
 12
155.7018665869
 22
30.8519086025
 13
155.7018665869
 23
30.8519086025
  0
SOLID
  8
0
 62
7
  6
CONTINUOUS
 10
155.1815540869
 20
30.7873815123
 11
155.7018665869
 21
30.8519086025
 12
155.412804528
 22
30.7551187255
 13
155.412804528
 23
30.7551187255
  0
SOLID
  8
0
 62
7
  6
CONTINUOUS
 10
155.7018665869
 20
30.8519086025
 11
155.759679528
 21
30.6905916353
 12
155.412804528
 22
30.7551187255
 13
155.412804528
 23
30.7551187255
  0
SOLID
  8
0
 62
7
  6
CONTINUOUS
 10
155.4706168074
 20
30.658327332
 11
155.412804528
 21
30.7551187255
 12
155.759679528
 22
30.6905916353
 13
155.759679528
 23
30.6905916353
  0
SOLID
  8
0
 62
7
  6
CONTINUOUS
 10
155.4706168074
 20
30.658327332
 11
155.759679528
 21
30.6905916353
 12
155.5284290869
 22
30.5938002079
 13
155.5284290869
 23
30.5938002079
  0
SOLID
  8
0
 62
7
  6
CONTINUOUS
 10
155.759679528
 20
30.6905916353
 11
155.8174918074
 21
30.5938002079
 12
155.5284290869
 22
30.5938002079
 13
155.5284290869
 23
30.5938002079
  0
SOLID
  8
0
 62
7
  6
CONTINUOUS
 10
151.0768668626
 20
30.8196456577
 11
151.1346793074
 21
30.9164373395
 12
151.4237418626
 22
30.9164373395
 13
151.4237418626
 23
30.9164373395
  0
SOLID
  8
0
 62
7
  6
CONTINUOUS
 10
151.4237418626
 20
30.9164373395
 11
151.3659292523
 21
30.7873815123
 12
151.0768668626
 22
30.8196456577
 13
151.0768668626
 23
30.8196456577
  0
SOLID
  8
0
 62
7
  6
CONTINUOUS
 10
150.9034292799
 20
30.7551187255
 11
151.0768668626
 21
30.8196456577
 12
151.3659292523
 22
30.7873815123
 13
151.3659292523
 23
30.7873815123
  0
SOLID
  8
0
 62
7
  6
CONTINUOUS
 10
150.9034292799
 20
30.7551187255
 11
151.3659292523
 21
30.7873815123
 12
150.498741835
 22
30.7228544222
 13
150.498741835
 23
30.7228544222
  0
SOLID
  8
0
 62
7
  6
CONTINUOUS
 10
151.3659292523
 20
30.7873815123
 11
151.1924917523
 21
30.6905916353
 12
150.498741835
 22
30.7228544222
 13
150.498741835
 23
30.7228544222
  0
SOLID
  8
0
 62
7
  6
CONTINUOUS
 10
150.0362418212
 20
30.658327332
 11
150.498741835
 21
30.7228544222
 12
151.1924917523
 22
30.6905916353
 13
151.1924917523
 23
30.6905916353
  0
SOLID
  8
0
 62
7
  6
CONTINUOUS
 10
150.0362418212
 20
30.658327332
 11
151.1924917523
 21
30.6905916353
 12
150.2096793212
 22
30.6260631011
 13
150.2096793212
 23
30.6260631011
  0
SOLID
  8
0
 62
7
  6
CONTINUOUS
 10
151.1924917523
 20
30.6905916353
 11
150.9612418074
 21
30.6260631011
 12
150.2096793212
 22
30.6260631011
 13
150.2096793212
 23
30.6260631011
  0
SOLID
  8
0
 62
7
  6
CONTINUOUS
 10
150.5565542799
 20
30.5938002419
 11
150.2096793212
 21
30.6260631011
 12
150.9612418074
 22
30.6260631011
 13
150.9612418074
 23
30.6260631011
  0
SOLID
  8
0
 62
7
  6
CONTINUOUS
 10
154.0253041972
 20
30.7551187255
 11
154.2565543074
 21
30.8519086025
 12
154.3143669177
 22
30.7873815123
 13
154.3143669177
 23
30.7873815123
  0
SOLID
  8
0
 62
7
  6
CONTINUOUS
 10
154.3143669177
 20
30.7873815123
 11
154.5456166972
 21
30.7228544222
 12
154.0253041972
 22
30.7551187255
 13
154.0253041972
 23
30.7551187255
  0
SOLID
  8
0
 62
7
  6
CONTINUOUS
 10
154.1987416972
 20
30.658327332
 11
154.0253041972
 21
30.7551187255
 12
154.5456166972
 22
30.7228544222
 13
154.5456166972
 23
30.7228544222
  0
SOLID
  8
0
 62
7
  6
CONTINUOUS
 10
154.8924916972
 20
30.7228544637
 11
155.1815540869
 21
30.7873815123
 12
155.412804528
 22
30.7551187255
 13
155.412804528
 23
30.7551187255
  0
SOLID
  8
0
 62
7
  6
CONTINUOUS
 10
155.412804528
 20
30.7551187255
 11
155.3549915869
 21
30.6905916353
 12
154.8924916972
 22
30.7228544637
 13
154.8924916972
 23
30.7228544637
  0
SOLID
  8
0
 62
7
  6
CONTINUOUS
 10
155.3549915869
 20
30.6905916353
 11
154.1987416972
 21
30.658327332
 12
154.8924916972
 22
30.7228544637
 13
154.8924916972
 23
30.7228544637
  0
SOLID
  8
0
 62
7
  6
CONTINUOUS
 10
154.1987416972
 20
30.658327332
 11
154.5456166972
 21
30.7228544637
 12
154.8924916972
 22
30.7228544637
 13
154.8924916972
 23
30.7228544637
  0
SOLID
  8
0
 62
7
  6
CONTINUOUS
 10
154.1987416972
 20
30.658327332
 11
155.3549915869
 21
30.6905916353
 12
154.3143669177
 22
30.6260630541
 13
154.3143669177
 23
30.6260630541
  0
SOLID
  8
0
 62
7
  6
CONTINUOUS
 10
155.3549915869
 20
30.6905916353
 11
155.1815540869
 21
30.6260630541
 12
154.3143669177
 22
30.6260630541
 13
154.3143669177
 23
30.6260630541
  0
SOLID
  8
0
 62
7
  6
CONTINUOUS
 10
154.5456166972
 20
30.5938002188
 11
154.3143669177
 21
30.6260630541
 12
155.1815540869
 22
30.6260630541
 13
155.1815540869
 23
30.6260630541
  0
SOLID
  8
0
 62
7
  6
CONTINUOUS
 10
155.1815540869
 20
30.6260630541
 11
154.8924916972
 21
30.5938002188
 12
154.5456166972
 22
30.5938002188
 13
154.5456166972
 23
30.5938002188
  0
SOLID
  8
0
 62
7
  6
CONTINUOUS
 10
159.575304528
 20
30.7551187255
 11
159.228429528
 21
30.7228544637
 12
159.4596793074
 22
30.7873815123
 13
159.4596793074
 23
30.7873815123
  0
SOLID
  8
0
 62
7
  6
CONTINUOUS
 10
159.4596793074
 20
30.7873815123
 11
159.228429528
 21
30.7228544637
 12
159.401867028
 22
30.851908644
 13
159.401867028
 23
30.851908644
  0
SOLID
  8
0
 62
7
  6
CONTINUOUS
 10
159.228429528
 20
30.7228544637
 11
159.1128043074
 21
30.851908644
 12
159.401867028
 22
30.851908644
 13
159.401867028
 23
30.851908644
  0
SOLID
  8
0
 62
7
  6
CONTINUOUS
 10
159.575304528
 20
30.7551187255
 11
159.922179528
 21
30.7228544637
 12
159.228429528
 22
30.7228544637
 13
159.228429528
 23
30.7228544637
  0
SOLID
  8
0
 62
7
  6
CONTINUOUS
 10
156.279992028
 20
30.5938002419
 11
156.279992028
 21
31.6262382337
 12
156.5690540869
 22
30.5938002419
 13
156.5690540869
 23
31.6262382337
  0
ENDBLK
  8
0
  6
BYBLOCK
 62
0
  0
BLOCK
  8
0
 62
2
  6
CONTINUOUS
  2
SYMBOL_3_BL0
 70
64
 10
32.1213064866
 20
19.8534310916
  0
TEXT
  8
0
 62
7
  6
CONTINUOUS
 10
18.3860103289
 20
19.2268451992
  7
TEXTSTYLE_3
 40
2.7338706658
  1
Ammeraal Beltech
 41
1.0
 51
15.0
 72
0
  0
TEXT
  8
0
 62
7
  6
CONTINUOUS
 10
29.1868111546
 20
16.9533085264
  7
TEXTSTYLE_4
 40
1.0935482663
  1
Innovation & Service in Belting
 41
1.0
 72
0
  0
LINE
  8
0
 62
7
  6
CONTINUOUS
 10
12.3614696776
 20
19.9934385078
 11
13.1396216709
 21
23.6543558055
  0
LINE
  8
0
 62
7
  6
CONTINUOUS
 10
23.2347899607
 20
27.3177497171
 11
13.6274394139
 21
24.1961322958
  0
LINE
  8
0
 62
7
  6
CONTINUOUS
 10
12.5867530099
 20
19.3000877048
 11
20.093828271
 21
12.5406867788
  0
LINE
  8
0
 62
7
  6
CONTINUOUS
 10
12.8492874206
 20
20.5352149982
 11
23.6575567857
 21
24.0470345971
  0
LINE
  8
0
 62
7
  6
CONTINUOUS
 10
23.6533516486
 20
13.6972460334
 11
15.2078919798
 21
21.3015720751
  0
LINE
  8
0
 62
7
  6
CONTINUOUS
 10
24.1731743684
 20
26.4728246013
 11
23.1966148312
 21
21.8784731989
  0
LINE
  8
0
 62
7
  6
CONTINUOUS
 10
22.4968128835
 20
18.5861638851
 11
21.810364672
 21
15.3566789607
  0
LINE
  8
0
 62
7
  6
CONTINUOUS
 10
24.8542704669
 20
14.087448211
 11
25.8105020025
 21
18.5861638851
  0
LINE
  8
0
 62
7
  6
CONTINUOUS
 10
26.5103039502
 20
21.8784731989
 11
26.9545457526
 21
23.9684665583
  0
LINE
  8
0
 62
7
  6
CONTINUOUS
 10
20.8069293463
 20
12.3891124661
 11
24.3664527239
 21
13.5456717207
  0
LINE
  8
0
 62
7
  6
CONTINUOUS
 10
23.9478910361
 20
27.1661754044
 11
26.7292624203
 21
24.6618173613
  0
ARC
  8
0
 62
7
  6
CONTINUOUS
 10
13.8527227462
 20
23.5027814928
 40
0.7290321776
 50
108.0
 51
168.0
  0
ARC
  8
0
 62
7
  6
CONTINUOUS
 10
23.4600732931
 20
26.624398914
 40
0.7290321776
 50
348.0
 51
108.0
  0
ARC
  8
0
 62
7
  6
CONTINUOUS
 10
26.2414446773
 20
24.120040871
 40
0.7290321776
 50
348.0
 51
48.0
  0
ARC
  8
0
 62
7
  6
CONTINUOUS
 10
20.581646014
 20
13.0824632691
 40
0.7290321776
 50
228.0
 51
288.0
  0
ARC
  8
0
 62
7
  6
CONTINUOUS
 10
13.0745707529
 20
19.8418641951
 40
0.7290321776
 50
108.0
 51
228.0
  0
ARC
  8
0
 62
7
  6
CONTINUOUS
 10
24.1411693916
 20
14.2390225237
 40
0.7290321776
 50
228.0
 51
348.0
  0
ENDBLK
  8
0
  6
BYBLOCK
 62
0
  0
ENDSEC
  0
SECTION
  2
ENTITIES
  0
TEXT
  8
0
 62
5
  6
CONTINUOUS
 10
96.0
 20
25.636
  7
TEXTSTYLE_2
 40
2.8
  1
Scale :
 41
0.6
 51
0.000019
 72
0
  0
TEXT
  8
0
 62
5
  6
CONTINUOUS
 10
116.0
 20
25.636
  7
TEXTSTYLE_2
 40
2.8
  1
Belt type:
 41
0.6
 51
0.000019
 72
0
  0
INSERT
  8
0
 62
2
  6
CONTINUOUS
  2
SYMBOL_3_BL0
 10
32.1213064866
 20
19.8534310916
  0
INSERT
  8
0
 62
2
  6
CONTINUOUS
  2
SYMBOL_8_BL1
 10
173.5956734183
 20
35.5937998301
  0
LINE
  8
0
 62
2
  6
CONTINUOUS
 10
10.0
 20
30.0
 11
200.0
 21
30.0
  0
LINE
  8
0
 62
2
  6
CONTINUOUS
 10
10.0
 20
30.0
 11
10.0
 21
10.0
  0
LINE
  8
0
 62
2
  6
CONTINUOUS
 10
10.0
 20
10.0
 11
200.0
 21
10.0
  0
LINE
  8
0
 62
2
  6
CONTINUOUS
 10
95.0
 20
30.0
 11
95.0
 21
10.0
  0
LINE
  8
0
 62
2
  6
CONTINUOUS
 10
115.0
 20
30.0
 11
115.0
 21
10.0
  0
LINE
  8
0
 62
2
  6
CONTINUOUS
 10
200.0
 20
30.0
 11
200.0
 21
10.0
  0
TEXT
  8
0
 62
5
  6
CONTINUOUS
 10
13.0
 20
23.303
  7
TEXTSTYLE_5
 40
1.52
  1
                                                                     Ammeraal Beltech Modular A/S
 41
1.0
 72
0
  0
TEXT
  8
0
 62
5
  6
CONTINUOUS
 10
13.0
 20
20.595
  7
TEXTSTYLE_5
 40
1.5
  1
                                                                      Hjulmagervej 21,  7100 Vejle,  DK
 41
1.0
 72
0
  0
TEXT
  8
0
 62
5
  6
CONTINUOUS
 10
13.0
 20
17.881
  7
TEXTSTYLE_5
 40
1.495
  1
                                                                      tel: 
 41
1.0
 72
0
  0
TEXT
  8
0
 62
5
  6
CONTINUOUS
 10
57.9869465649
 20
17.881
  7
TEXTSTYLE_5
 40
1.51
  1
+45 75723100     fax: +45 75723348
 41
1.0
 72
0
  0
TEXT
  8
0
 62
5
  6
CONTINUOUS
 10
13.0
 20
15.177
  7
TEXTSTYLE_5
 40
1.5
  1
                                                                      admin@unichains.dk  www.unichains.com
 41
1.0
 72
0
  0
TEXT
  8
0
 62
5
  6
CONTINUOUS
 10
99.75
 20
13.75
  7
TEXTSTYLE_6
 40
5.0
  1
1:1
 41
0.7
 72
1
 11
105.0
 21
13.75
  0
TEXT
  8
0
 62
5
  6
CONTINUOUS
 10
118.0
 20
13.75
  7
TEXTSTYLE_7
 40
7.5
  1
uni RTB M2 Cover Plate
 41
0.5011363636
 72
0
  0
LINE
  8
0
 62
7
  6
CONTINUOUS
 10
210.0
 20
0.0
 11
0.0
 21
0.0
  0
LINE
  8
0
 62
7
  6
CONTINUOUS
 10
10.0
 20
10.0
 11
200.0
 21
10.0
  0
LINE
  8
0
 62
7
  6
CONTINUOUS
 10
10.0
 20
30.0
 11
200.0
 21
30.0
  0
LINE
  8
0
 62
7
  6
CONTINUOUS
 10
0.0
 20
0.0
 11
0.0
 21
297.0
  0
LINE
  8
0
 62
7
  6
CONTINUOUS
 10
10.0
 20
10.0
 11
10.0
 21
287.0
  0
LINE
  8
0
 62
7
  6
CONTINUOUS
 10
200.0
 20
287.0
 11
200.0
 21
10.0
  0
LINE
  8
0
 62
7
  6
CONTINUOUS
 10
210.0
 20
0.0
 11
210.0
 21
297.0
  0
LINE
  8
0
 62
7
  6
CONTINUOUS
 10
10.0
 20
287.0
 11
200.0
 21
287.0
  0
LINE
  8
0
 62
7
  6
CONTINUOUS
 10
0.0
 20
297.0
 11
210.0
 21
297.0
  0
LINE
  8
SURFACE
 62
7
  6
CONTINUOUS
 10
95.556314799
 20
127.4680183776
 11
90.8478427502
 21
127.4680183776
  0
LINE
  8
0
 62
7
  6
CONTINUOUS
 10
86.7409069783
 20
128.5684685011
 11
82.663250571
 21
130.9227045255
  0
LINE
  8
SURFACE
 62
7
  6
CONTINUOUS
 10
76.2020787746
 20
142.1137823532
 11
76.2020787746
 21
146.822254402
  0
LINE
  8
0
 62
7
  6
CONTINUOUS
 10
77.3025288981
 20
150.929190174
 11
79.6567649225
 21
155.0068465813
  0
LINE
  8
0
 62
7
  6
CONTINUOUS
 10
82.663250571
 20
158.0133322297
 11
86.7409069783
 21
160.3675682542
  0
LINE
  8
0
 62
7
  6
CONTINUOUS
 10
79.6567649225
 20
133.929190174
 11
77.3025288981
 21
138.0068465813
  0
POLYLINE
  8
SURFACE
 62
7
  6
CONTINUOUS
 66
1
 70
0
  0
VERTEX
  8
SURFACE
 62
7
  6
CONTINUOUS
 10
79.0766185905
 20
147.754258902
  0
VERTEX
  8
SURFACE
 62
7
  6
CONTINUOUS
 10
79.0565246448
 20
147.6855762434
  0
VERTEX
  8
SURFACE
 62
7
  6
CONTINUOUS
 10
79.0243224916
 20
147.6107775546
  0
VERTEX
  8
SURFACE
 62
7
  6
CONTINUOUS
 10
78.9840232307
 20
147.5433138719
  0
VERTEX
  8
SURFACE
 62
7
  6
CONTINUOUS
 10
78.9367760882
 20
147.4838883764
  0
VERTEX
  8
SURFACE
 62
7
  6
CONTINUOUS
 10
78.883764287
 20
147.4331563618
  0
VERTEX
  8
SURFACE
 62
7
  6
CONTINUOUS
 10
78.8262203487
 20
147.3916597324
  0
VERTEX
  8
SURFACE
 62
7
  6
CONTINUOUS
 10
78.7653242914
 20
147.3597357427
  0
VERTEX
  8
SURFACE
 62
7
  6
CONTINUOUS
 10
78.7023643244
 20
147.3376049216
  0
VERTEX
  8
SURFACE
 62
7
  6
CONTINUOUS
 10
78.6387821478
 20
147.3252744643
  0
VERTEX
  8
SURFACE
 62
7
  6
CONTINUOUS
 10
78.5876936001
 20
147.3222546251
  0
SEQEND
  0
POLYLINE
  8
0
 62
7
  6
CONTINUOUS
 66
1
 70
0
  0
VERTEX
  8
0
 62
7
  6
CONTINUOUS
 10
82.6121916772
 20
154.3767162467
  0
VERTEX
  8
0
 62
7
  6
CONTINUOUS
 10
82.5604484805
 20
154.3272822924
  0
VERTEX
  8
0
 62
7
  6
CONTINUOUS
 10
82.4951612534
 20
154.2786058043
  0
VERTEX
  8
0
 62
7
  6
CONTINUOUS
 10
82.4265292283
 20
154.2403301717
  0
VERTEX
  8
0
 62
7
  6
CONTINUOUS
 10
82.3558992549
 20
154.2124897543
  0
VERTEX
  8
0
 62
7
  6
CONTINUOUS
 10
82.284623681
 20
154.1950604414
  0
VERTEX
  8
0
 62
7
  6
CONTINUOUS
 10
82.214040854
 20
154.1878952754
  0
VERTEX
  8
0
 62
7
  6
CONTINUOUS
 10
82.1453413265
 20
154.190696318
  0
VERTEX
  8
0
 62
7
  6
CONTINUOUS
 10
82.0797509852
 20
154.2030104482
  0
VERTEX
  8
0
 62
7
  6
CONTINUOUS
 10
82.0185219763
 20
154.2241230472
  0
VERTEX
  8
0
 62
7
  6
CONTINUOUS
 10
81.9727680765
 20
154.2470520636
  0
SEQEND
  0
POLYLINE
  8
SURFACE
 62
7
  6
CONTINUOUS
 66
1
 70
0
  0
VERTEX
  8
SURFACE
 62
7
  6
CONTINUOUS
 10
97.4188410896
 20
130.5918907558
  0
VERTEX
  8
SURFACE
 62
7
  6
CONTINUOUS
 10
97.4883689896
 20
130.6088302177
  0
VERTEX
  8
SURFACE
 62
7
  6
CONTINUOUS
 10
97.5692476309
 20
130.6183416794
  0
VERTEX
  8
SURFACE
 62
7
  6
CONTINUOUS
 10
97.6478225244
 20
130.617173337
  0
VERTEX
  8
SURFACE
 62
7
  6
CONTINUOUS
 10
97.7229100844
 20
130.6059688591
  0
VERTEX
  8
SURFACE
 62
7
  6
CONTINUOUS
 10
97.7933511984
 20
130.5854252999
  0
VERTEX
  8
SURFACE
 62
7
  6
CONTINUOUS
 10
97.8580603028
 20
130.5563391022
  0
VERTEX
  8
SURFACE
 62
7
  6
CONTINUOUS
 10
97.9161553175
 20
130.5195635644
  0
VERTEX
  8
SURFACE
 62
7
  6
CONTINUOUS
 10
97.9668011542
 20
130.4761040441
  0
VERTEX
  8
SURFACE
 62
7
  6
CONTINUOUS
 10
98.0092707318
 20
130.4272054926
  0
VERTEX
  8
SURFACE
 62
7
  6
CONTINUOUS
 10
98.0374302632
 20
130.384471432
  0
SEQEND
  0
POLYLINE
  8
SURFACE
 62
7
  6
CONTINUOUS
 66
1
 70
0
  0
VERTEX
  8
SURFACE
 62
7
  6
CONTINUOUS
 10
89.9158382502
 20
130.3425581935
  0
VERTEX
  8
SURFACE
 62
7
  6
CONTINUOUS
 10
89.9845209089
 20
130.3224642478
  0
VERTEX
  8
SURFACE
 62
7
  6
CONTINUOUS
 10
90.0593195977
 20
130.2902620946
  0
VERTEX
  8
SURFACE
 62
7
  6
CONTINUOUS
 10
90.1267832804
 20
130.2499628337
  0
VERTEX
  8
SURFACE
 62
7
  6
CONTINUOUS
 10
90.1862087759
 20
130.2027156912
  0
VERTEX
  8
SURFACE
 62
7
  6
CONTINUOUS
 10
90.2369407905
 20
130.14970389
  0
VERTEX
  8
SURFACE
 62
7
  6
CONTINUOUS
 10
90.2784374198
 20
130.0921599517
  0
VERTEX
  8
SURFACE
 62
7
  6
CONTINUOUS
 10
90.3103614095
 20
130.0312638944
  0
VERTEX
  8
SURFACE
 62
7
  6
CONTINUOUS
 10
90.3324922306
 20
129.9683039274
  0
VERTEX
  8
SURFACE
 62
7
  6
CONTINUOUS
 10
90.3448226879
 20
129.9047217508
  0
VERTEX
  8
SURFACE
 62
7
  6
CONTINUOUS
 10
90.3478425271
 20
129.8536332031
  0
SEQEND
  0
POLYLINE
  8
0
 62
7
  6
CONTINUOUS
 66
1
 70
0
  0
VERTEX
  8
0
 62
7
  6
CONTINUOUS
 10
83.2933809062
 20
133.8781312812
  0
VERTEX
  8
0
 62
7
  6
CONTINUOUS
 10
83.3428111037
 20
133.826392487
  0
VERTEX
  8
0
 62
7
  6
CONTINUOUS
 10
83.3914846273
 20
133.7611112357
  0
VERTEX
  8
0
 62
7
  6
CONTINUOUS
 10
83.4297588725
 20
133.6924859502
  0
VERTEX
  8
0
 62
7
  6
CONTINUOUS
 10
83.4575998975
 20
133.6218624526
  0
VERTEX
  8
0
 62
7
  6
CONTINUOUS
 10
83.4750317806
 20
133.5505918464
  0
VERTEX
  8
0
 62
7
  6
CONTINUOUS
 10
83.4822009279
 20
133.4800114086
  0
VERTEX
  8
0
 62
7
  6
CONTINUOUS
 10
83.4794041711
 20
133.4113103655
  0
VERTEX
  8
0
 62
7
  6
CONTINUOUS
 10
83.467092671
 20
133.3457131058
  0
VERTEX
  8
0
 62
7
  6
CONTINUOUS
 10
83.4459792424
 20
133.2844735253
  0
VERTEX
  8
0
 62
7
  6
CONTINUOUS
 10
83.4230450665
 20
133.2387076869
  0
SEQEND
  0
POLYLINE
  8
0
 62
7
  6
CONTINUOUS
 66
1
 70
0
  0
VERTEX
  8
0
 62
7
  6
CONTINUOUS
 10
79.3259511528
 20
140.2512560626
  0
VERTEX
  8
0
 62
7
  6
CONTINUOUS
 10
79.3428906147
 20
140.1817281626
  0
VERTEX
  8
0
 62
7
  6
CONTINUOUS
 10
79.3524020764
 20
140.1008495213
  0
VERTEX
  8
0
 62
7
  6
CONTINUOUS
 10
79.351233734
 20
140.0222746278
  0
VERTEX
  8
0
 62
7
  6
CONTINUOUS
 10
79.3400292561
 20
139.9471870678
  0
VERTEX
  8
0
 62
7
  6
CONTINUOUS
 10
79.3194856969
 20
139.8767459538
  0
VERTEX
  8
0
 62
7
  6
CONTINUOUS
 10
79.2903994992
 20
139.8120368495
  0
VERTEX
  8
0
 62
7
  6
CONTINUOUS
 10
79.2536239614
 20
139.7539418347
  0
VERTEX
  8
0
 62
7
  6
CONTINUOUS
 10
79.2101644411
 20
139.703295998
  0
VERTEX
  8
0
 62
7
  6
CONTINUOUS
 10
79.1612658896
 20
139.6608264204
  0
VERTEX
  8
0
 62
7
  6
CONTINUOUS
 10
79.118531829
 20
139.6326668891
  0
SEQEND
  0
LINE
  8
0
 62
7
  6
CONTINUOUS
 10
81.7153347764
 20
146.8275011251
 11
85.4153347764
 21
153.2360891131
  0
POLYLINE
  8
0
 62
7
  6
CONTINUOUS
 66
1
 70
0
  0
VERTEX
  8
0
 62
7
  6
CONTINUOUS
 10
85.3867237927
 20
153.2525935217
  0
VERTEX
  8
0
 62
7
  6
CONTINUOUS
 10
85.5947807706
 20
153.5830930128
  0
VERTEX
  8
0
 62
7
  6
CONTINUOUS
 10
85.8291717112
 20
153.8988524798
  0
VERTEX
  8
0
 62
7
  6
CONTINUOUS
 10
86.0886064248
 20
154.1972823494
  0
VERTEX
  8
0
 62
7
  6
CONTINUOUS
 10
86.3714279559
 20
154.4759544789
  0
VERTEX
  8
0
 62
7
  6
CONTINUOUS
 10
86.6757128657
 20
154.732726978
  0
VERTEX
  8
0
 62
7
  6
CONTINUOUS
 10
87.0000276887
 20
154.9662375651
  0
VERTEX
  8
0
 62
7
  6
CONTINUOUS
 10
87.3434076887
 20
155.1755095369
  0
VERTEX
  8
0
 62
7
  6
CONTINUOUS
 10
87.7046905887
 20
155.3593900252
  0
VERTEX
  8
0
 62
7
  6
CONTINUOUS
 10
88.0823898457
 20
155.5166049214
  0
VERTEX
  8
0
 62
7
  6
CONTINUOUS
 10
88.4750078327
 20
155.6459806067
  0
VERTEX
  8
0
 62
7
  6
CONTINUOUS
 10
88.8811453948
 20
155.7464532713
  0
VERTEX
  8
0
 62
7
  6
CONTINUOUS
 10
89.299887137
 20
155.8170705717
  0
VERTEX
  8
0
 62
7
  6
CONTINUOUS
 10
89.7304700534
 20
155.8567898757
  0
VERTEX
  8
0
 62
7
  6
CONTINUOUS
 10
90.1713824395
 20
155.864450705
  0
VERTEX
  8
0
 62
7
  6
CONTINUOUS
 10
90.6221712423
 20
155.8388978345
  0
VERTEX
  8
0
 62
7
  6
CONTINUOUS
 10
91.0827514672
 20
155.7787297562
  0
VERTEX
  8
0
 62
7
  6
CONTINUOUS
 10
91.5543469153
 20
155.6819777425
  0
VERTEX
  8
0
 62
7
  6
CONTINUOUS
 10
92.0343832937
 20
155.547310578
  0
VERTEX
  8
0
 62
7
  6
CONTINUOUS
 10
92.5001723868
 20
155.3820179566
  0
VERTEX
  8
0
 62
7
  6
CONTINUOUS
 10
92.9429072733
 20
155.1936815925
  0
VERTEX
  8
0
 62
7
  6
CONTINUOUS
 10
93.3613937075
 20
154.9883446895
  0
SEQEND
  0
POLYLINE
  8
0
 62
7
  6
CONTINUOUS
 66
1
 70
0
  0
VERTEX
  8
0
 62
7
  6
CONTINUOUS
 10
85.4153348213
 20
153.2360890871
  0
VERTEX
  8
0
 62
7
  6
CONTINUOUS
 10
85.6320325088
 20
153.5791618375
  0
VERTEX
  8
0
 62
7
  6
CONTINUOUS
 10
85.885425467
 20
153.9163916089
  0
VERTEX
  8
0
 62
7
  6
CONTINUOUS
 10
86.1663905128
 20
154.2323053326
  0
VERTEX
  8
0
 62
7
  6
CONTINUOUS
 10
86.4735062102
 20
154.5250417804
  0
VERTEX
  8
0
 62
7
  6
CONTINUOUS
 10
86.8052394378
 20
154.7927956774
  0
VERTEX
  8
0
 62
7
  6
CONTINUOUS
 10
87.1599645876
 20
155.0338437676
  0
VERTEX
  8
0
 62
7
  6
CONTINUOUS
 10
87.5360460228
 20
155.2465921429
  0
VERTEX
  8
0
 62
7
  6
CONTINUOUS
 10
87.9318648725
 20
155.4295533988
  0
VERTEX
  8
0
 62
7
  6
CONTINUOUS
 10
88.3457481505
 20
155.5812897399
  0
VERTEX
  8
0
 62
7
  6
CONTINUOUS
 10
88.776127288
 20
155.7004563417
  0
VERTEX
  8
0
 62
7
  6
CONTINUOUS
 10
89.2214551442
 20
155.7857315775
  0
VERTEX
  8
0
 62
7
  6
CONTINUOUS
 10
89.6803248863
 20
155.835812404
  0
VERTEX
  8
0
 62
7
  6
CONTINUOUS
 10
90.1519291394
 20
155.849355784
  0
VERTEX
  8
0
 62
7
  6
CONTINUOUS
 10
90.6355052897
 20
155.8248042766
  0
VERTEX
  8
0
 62
7
  6
CONTINUOUS
 10
91.1306732964
 20
155.7603380236
  0
VERTEX
  8
0
 62
7
  6
CONTINUOUS
 10
91.6373224473
 20
155.6537972002
  0
VERTEX
  8
0
 62
7
  6
CONTINUOUS
 10
92.1551622564
 20
155.5028124788
  0
VERTEX
  8
0
 62
7
  6
CONTINUOUS
 10
92.6836829167
 20
155.3050789154
  0
VERTEX
  8
0
 62
7
  6
CONTINUOUS
 10
93.2224326286
 20
155.0586826797
  0
SEQEND
  0
LINE
  8
SURFACE
 62
7
  6
CONTINUOUS
 10
93.1817249206
 20
133.8773540756
 11
92.6466680155
 21
134.1654401675
  0
LINE
  8
SURFACE
 62
7
  6
CONTINUOUS
 10
93.0427638417
 20
133.9476920657
 11
92.6466659455
 21
134.1654412485
  0
LINE
  8
SURFACE
 62
7
  6
CONTINUOUS
 10
92.6466659455
 20
134.1654412485
 11
92.6455920337
 21
134.1660611942
  0
LINE
  8
0
 62
7
  6
CONTINUOUS
 10
84.5577084055
 20
138.8356030336
 11
92.645570909
 21
134.1660733905
  0
POLYLINE
  8
0
 62
7
  6
CONTINUOUS
 66
1
 70
0
  0
VERTEX
  8
0
 62
7
  6
CONTINUOUS
 10
84.5577068243
 20
138.835604
  0
VERTEX
  8
0
 62
7
  6
CONTINUOUS
 10
84.0416864413
 20
139.1542552642
  0
VERTEX
  8
0
 62
7
  6
CONTINUOUS
 10
83.5588833725
 20
139.4975355141
  0
VERTEX
  8
0
 62
7
  6
CONTINUOUS
 10
83.1232812335
 20
139.8563262797
  0
VERTEX
  8
0
 62
7
  6
CONTINUOUS
 10
82.7334834044
 20
140.2292664585
  0
VERTEX
  8
0
 62
7
  6
CONTINUOUS
 10
82.3877791434
 20
140.6147376078
  0
VERTEX
  8
0
 62
7
  6
CONTINUOUS
 10
82.0842869865
 20
141.011265833
  0
VERTEX
  8
0
 62
7
  6
CONTINUOUS
 10
81.8211984788
 20
141.4176390465
  0
VERTEX
  8
0
 62
7
  6
CONTINUOUS
 10
81.5970992851
 20
141.8326281696
  0
VERTEX
  8
0
 62
7
  6
CONTINUOUS
 10
81.4109773392
 20
142.2548627766
  0
VERTEX
  8
0
 62
7
  6
CONTINUOUS
 10
81.2620550105
 20
142.6830404065
  0
VERTEX
  8
0
 62
7
  6
CONTINUOUS
 10
81.1499240057
 20
143.1153033629
  0
VERTEX
  8
0
 62
7
  6
CONTINUOUS
 10
81.0742348348
 20
143.5496435317
  0
VERTEX
  8
0
 62
7
  6
CONTINUOUS
 10
81.0346255994
 20
143.9840110262
  0
VERTEX
  8
0
 62
7
  6
CONTINUOUS
 10
81.0306992051
 20
144.4162068952
  0
VERTEX
  8
0
 62
7
  6
CONTINUOUS
 10
81.0619785462
 20
144.844053701
  0
VERTEX
  8
0
 62
7
  6
CONTINUOUS
 10
81.1278957293
 20
145.265321996
  0
VERTEX
  8
0
 62
7
  6
CONTINUOUS
 10
81.2277643706
 20
145.6777392264
  0
VERTEX
  8
0
 62
7
  6
CONTINUOUS
 10
81.360779976
 20
146.0790734361
  0
VERTEX
  8
0
 62
7
  6
CONTINUOUS
 10
81.5260345697
 20
146.4671650021
  0
VERTEX
  8
0
 62
7
  6
CONTINUOUS
 10
81.7153348785
 20
146.8275010661
  0
SEQEND
  0
POLYLINE
  8
SURFACE
 62
7
  6
CONTINUOUS
 66
1
 70
0
  0
VERTEX
  8
SURFACE
 62
7
  6
CONTINUOUS
 10
109.7020787746
 20
141.6137823711
  0
VERTEX
  8
SURFACE
 62
7
  6
CONTINUOUS
 10
109.7363688202
 20
141.6149595462
  0
VERTEX
  8
SURFACE
 62
7
  6
CONTINUOUS
 10
109.8048088068
 20
141.6244496029
  0
VERTEX
  8
SURFACE
 62
7
  6
CONTINUOUS
 10
109.8716533261
 20
141.6434160369
  0
VERTEX
  8
SURFACE
 62
7
  6
CONTINUOUS
 10
109.9354274272
 20
141.6715737979
  0
VERTEX
  8
SURFACE
 62
7
  6
CONTINUOUS
 10
109.9951705541
 20
141.7086932164
  0
VERTEX
  8
SURFACE
 62
7
  6
CONTINUOUS
 10
110.0495558449
 20
141.7542553227
  0
VERTEX
  8
SURFACE
 62
7
  6
CONTINUOUS
 10
110.097324226
 20
141.8075454626
  0
VERTEX
  8
SURFACE
 62
7
  6
CONTINUOUS
 10
110.1372545637
 20
141.867566934
  0
VERTEX
  8
SURFACE
 62
7
  6
CONTINUOUS
 10
110.1684262671
 20
141.9334492828
  0
VERTEX
  8
SURFACE
 62
7
  6
CONTINUOUS
 10
110.1897424029
 20
142.0034003546
  0
VERTEX
  8
SURFACE
 62
7
  6
CONTINUOUS
 10
110.2006503886
 20
142.0760153602
  0
VERTEX
  8
SURFACE
 62
7
  6
CONTINUOUS
 10
110.2020784837
 20
142.113279333
  0
SEQEND
  0
LINE
  8
SURFACE
 62
7
  6
CONTINUOUS
 10
109.7020787746
 20
141.6137823532
 11
107.8164639492
 21
141.6137823532
  0
LINE
  8
SURFACE
 62
7
  6
CONTINUOUS
 10
78.587693599
 20
141.6137823532
 11
76.7020787746
 21
141.6137823532
  0
POLYLINE
  8
SURFACE
 62
7
  6
CONTINUOUS
 66
1
 70
0
  0
VERTEX
  8
SURFACE
 62
7
  6
CONTINUOUS
 10
76.7020787746
 20
141.6137823673
  0
VERTEX
  8
SURFACE
 62
7
  6
CONTINUOUS
 10
76.670426452
 20
141.6147852285
  0
VERTEX
  8
SURFACE
 62
7
  6
CONTINUOUS
 10
76.6045186669
 20
141.6233926863
  0
VERTEX
  8
SURFACE
 62
7
  6
CONTINUOUS
 10
76.5402031442
 20
141.6407112378
  0
VERTEX
  8
SURFACE
 62
7
  6
CONTINUOUS
 10
76.4783327568
 20
141.6666383948
  0
VERTEX
  8
SURFACE
 62
7
  6
CONTINUOUS
 10
76.4201795241
 20
141.700826166
  0
VERTEX
  8
SURFACE
 62
7
  6
CONTINUOUS
 10
76.3667969345
 20
141.7428563664
  0
VERTEX
  8
SURFACE
 62
7
  6
CONTINUOUS
 10
76.3192294635
 20
141.7921825942
  0
VERTEX
  8
SURFACE
 62
7
  6
CONTINUOUS
 10
76.2785724341
 20
141.8479960113
  0
VERTEX
  8
SURFACE
 62
7
  6
CONTINUOUS
 10
76.2458122017
 20
141.9092809733
  0
VERTEX
  8
SURFACE
 62
7
  6
CONTINUOUS
 10
76.2217346117
 20
141.9749677822
  0
VERTEX
  8
SURFACE
 62
7
  6
CONTINUOUS
 10
76.207027944
 20
142.0436063238
  0
VERTEX
  8
SURFACE
 62
7
  6
CONTINUOUS
 10
76.2020787746
 20
142.1137822543
  0
SEQEND
  0
POLYLINE
  8
SURFACE
 62
7
  6
CONTINUOUS
 66
1
 70
0
  0
VERTEX
  8
SURFACE
 62
7
  6
CONTINUOUS
 10
78.587693599
 20
141.6137821312
  0
VERTEX
  8
SURFACE
 62
7
  6
CONTINUOUS
 10
78.6397528162
 20
141.61064621
  0
VERTEX
  8
SURFACE
 62
7
  6
CONTINUOUS
 10
78.7033174123
 20
141.5981725336
  0
VERTEX
  8
SURFACE
 62
7
  6
CONTINUOUS
 10
78.766248201
 20
141.5758977302
  0
VERTEX
  8
SURFACE
 62
7
  6
CONTINUOUS
 10
78.8270997869
 20
141.5438317242
  0
VERTEX
  8
SURFACE
 62
7
  6
CONTINUOUS
 10
78.8845821602
 20
141.5021981027
  0
VERTEX
  8
SURFACE
 62
7
  6
CONTINUOUS
 10
78.9375137801
 20
141.4513379913
  0
VERTEX
  8
SURFACE
 62
7
  6
CONTINUOUS
 10
78.9846619434
 20
141.3917976093
  0
VERTEX
  8
SURFACE
 62
7
  6
CONTINUOUS
 10
79.0248440279
 20
141.32423714
  0
VERTEX
  8
SURFACE
 62
7
  6
CONTINUOUS
 10
79.0569124194
 20
141.2493647847
  0
VERTEX
  8
SURFACE
 62
7
  6
CONTINUOUS
 10
79.0766185902
 20
141.1817778529
  0
SEQEND
  0
POLYLINE
  8
SURFACE
 62
7
  6
CONTINUOUS
 66
1
 70
0
  0
VERTEX
  8
SURFACE
 62
7
  6
CONTINUOUS
 10
106.0643799338
 20
133.7461774876
  0
VERTEX
  8
SURFACE
 62
7
  6
CONTINUOUS
 10
106.0946645719
 20
133.7300519283
  0
VERTEX
  8
SURFACE
 62
7
  6
CONTINUOUS
 10
106.1586803673
 20
133.7040505652
  0
VERTEX
  8
SURFACE
 62
7
  6
CONTINUOUS
 10
106.2260526361
 20
133.6870537193
  0
VERTEX
  8
SURFACE
 62
7
  6
CONTINUOUS
 10
106.2953615083
 20
133.6795520051
  0
VERTEX
  8
SURFACE
 62
7
  6
CONTINUOUS
 10
106.3656602832
 20
133.6818268009
  0
VERTEX
  8
SURFACE
 62
7
  6
CONTINUOUS
 10
106.4355403797
 20
133.6940920971
  0
VERTEX
  8
SURFACE
 62
7
  6
CONTINUOUS
 10
106.5035540812
 20
133.7163585215
  0
VERTEX
  8
SURFACE
 62
7
  6
CONTINUOUS
 10
106.5681455037
 20
133.7483734717
  0
VERTEX
  8
SURFACE
 62
7
  6
CONTINUOUS
 10
106.6280821651
 20
133.7898434076
  0
VERTEX
  8
SURFACE
 62
7
  6
CONTINUOUS
 10
106.6815180162
 20
133.8397647449
  0
VERTEX
  8
SURFACE
 62
7
  6
CONTINUOUS
 10
106.7272721117
 20
133.8971971916
  0
VERTEX
  8
SURFACE
 62
7
  6
CONTINUOUS
 10
106.7471408647
 20
133.9287546912
  0
SEQEND
  0
POLYLINE
  8
0
 62
7
  6
CONTINUOUS
 66
1
 70
0
  0
VERTEX
  8
0
 62
7
  6
CONTINUOUS
 10
77.485541607
 20
150.2461774843
  0
VERTEX
  8
0
 62
7
  6
CONTINUOUS
 10
77.4586313466
 20
150.2628721326
  0
VERTEX
  8
0
 62
7
  6
CONTINUOUS
 10
77.4058572789
 20
150.3032802799
  0
VERTEX
  8
0
 62
7
  6
CONTINUOUS
 10
77.3588176932
 20
150.3504363176
  0
VERTEX
  8
0
 62
7
  6
CONTINUOUS
 10
77.318199951
 20
150.4038250563
  0
VERTEX
  8
0
 62
7
  6
CONTINUOUS
 10
77.2849316608
 20
150.4625091118
  0
VERTEX
  8
0
 62
7
  6
CONTINUOUS
 10
77.2597160726
 20
150.5255995898
  0
VERTEX
  8
0
 62
7
  6
CONTINUOUS
 10
77.2431845294
 20
150.5921010524
  0
VERTEX
  8
0
 62
7
  6
CONTINUOUS
 10
77.2358811889
 20
150.6607653651
  0
VERTEX
  8
0
 62
7
  6
CONTINUOUS
 10
77.2381524377
 20
150.7302197858
  0
VERTEX
  8
0
 62
7
  6
CONTINUOUS
 10
77.2501439883
 20
150.7991449929
  0
VERTEX
  8
0
 62
7
  6
CONTINUOUS
 10
77.2717268561
 20
150.8659410332
  0
VERTEX
  8
0
 62
7
  6
CONTINUOUS
 10
77.3025288543
 20
150.9291900982
  0
SEQEND
  0
POLYLINE
  8
0
 62
7
  6
CONTINUOUS
 66
1
 70
0
  0
VERTEX
  8
0
 62
7
  6
CONTINUOUS
 10
79.1185318286
 20
149.3033698676
  0
VERTEX
  8
0
 62
7
  6
CONTINUOUS
 10
79.1620484726
 20
149.2746244716
  0
VERTEX
  8
0
 62
7
  6
CONTINUOUS
 10
79.2108601894
 20
149.2320396529
  0
VERTEX
  8
0
 62
7
  6
CONTINUOUS
 10
79.2542224494
 20
149.1812837129
  0
VERTEX
  8
0
 62
7
  6
CONTINUOUS
 10
79.2908884657
 20
149.1230879442
  0
VERTEX
  8
0
 62
7
  6
CONTINUOUS
 10
79.3198528505
 20
149.0582909836
  0
VERTEX
  8
0
 62
7
  6
CONTINUOUS
 10
79.3402629223
 20
148.9877790252
  0
VERTEX
  8
0
 62
7
  6
CONTINUOUS
 10
79.3513242384
 20
148.9126414602
  0
VERTEX
  8
0
 62
7
  6
CONTINUOUS
 10
79.3523427097
 20
148.8340413353
  0
VERTEX
  8
0
 62
7
  6
CONTINUOUS
 10
79.3426785738
 20
148.7531657777
  0
VERTEX
  8
0
 62
7
  6
CONTINUOUS
 10
79.3259511524
 20
148.6847806924
  0
SEQEND
  0
POLYLINE
  8
0
 62
7
  6
CONTINUOUS
 66
1
 70
0
  0
VERTEX
  8
0
 62
7
  6
CONTINUOUS
 10
83.423045089
 20
155.6973290772
  0
VERTEX
  8
0
 62
7
  6
CONTINUOUS
 10
83.4463589102
 20
155.650676512
  0
VERTEX
  8
0
 62
7
  6
CONTINUOUS
 10
83.4673386875
 20
155.5893911188
  0
VERTEX
  8
0
 62
7
  6
CONTINUOUS
 10
83.4795135363
 20
155.5237540554
  0
VERTEX
  8
0
 62
7
  6
CONTINUOUS
 10
83.4821693535
 20
155.4550220331
  0
VERTEX
  8
0
 62
7
  6
CONTINUOUS
 10
83.4748547663
 20
155.3844240268
  0
VERTEX
  8
0
 62
7
  6
CONTINUOUS
 10
83.4572744277
 20
155.3131538436
  0
VERTEX
  8
0
 62
7
  6
CONTINUOUS
 10
83.429285026
 20
155.2425521455
  0
VERTEX
  8
0
 62
7
  6
CONTINUOUS
 10
83.3908669856
 20
155.1739732049
  0
VERTEX
  8
0
 62
7
  6
CONTINUOUS
 10
83.3420598195
 20
155.1087649855
  0
VERTEX
  8
0
 62
7
  6
CONTINUOUS
 10
83.293380905
 20
155.0579054751
  0
SEQEND
  0
POLYLINE
  8
SURFACE
 62
7
  6
CONTINUOUS
 66
1
 70
0
  0
VERTEX
  8
SURFACE
 62
7
  6
CONTINUOUS
 10
90.3478427681
 20
127.9680183776
  0
VERTEX
  8
SURFACE
 62
7
  6
CONTINUOUS
 10
90.3490199432
 20
127.933728332
  0
VERTEX
  8
SURFACE
 62
7
  6
CONTINUOUS
 10
90.3585099999
 20
127.8652883455
  0
VERTEX
  8
SURFACE
 62
7
  6
CONTINUOUS
 10
90.3774764339
 20
127.7984438262
  0
VERTEX
  8
SURFACE
 62
7
  6
CONTINUOUS
 10
90.4056341949
 20
127.7346697251
  0
VERTEX
  8
SURFACE
 62
7
  6
CONTINUOUS
 10
90.4427536134
 20
127.6749265981
  0
VERTEX
  8
SURFACE
 62
7
  6
CONTINUOUS
 10
90.4883157197
 20
127.6205413074
  0
VERTEX
  8
SURFACE
 62
7
  6
CONTINUOUS
 10
90.5416058596
 20
127.5727729262
  0
VERTEX
  8
SURFACE
 62
7
  6
CONTINUOUS
 10
90.6016273311
 20
127.5328425886
  0
VERTEX
  8
SURFACE
 62
7
  6
CONTINUOUS
 10
90.6675096798
 20
127.5016708852
  0
VERTEX
  8
SURFACE
 62
7
  6
CONTINUOUS
 10
90.7374607516
 20
127.4803547493
  0
VERTEX
  8
SURFACE
 62
7
  6
CONTINUOUS
 10
90.8100757572
 20
127.4694467637
  0
VERTEX
  8
SURFACE
 62
7
  6
CONTINUOUS
 10
90.84733973
 20
127.4680186686
  0
SEQEND
  0
LINE
  8
SURFACE
 62
7
  6
CONTINUOUS
 10
90.3478427502
 20
127.9680183776
 11
90.3478427502
 21
129.8536332031
  0
LINE
  8
0
 62
7
  6
CONTINUOUS
 10
90.3478427502
 20
159.0824035532
 11
90.3478427502
 21
160.9680183776
  0
POLYLINE
  8
0
 62
7
  6
CONTINUOUS
 66
1
 70
0
  0
VERTEX
  8
0
 62
7
  6
CONTINUOUS
 10
90.3478427643
 20
160.9680183776
  0
VERTEX
  8
0
 62
7
  6
CONTINUOUS
 10
90.3488456236
 20
160.9996706709
  0
VERTEX
  8
0
 62
7
  6
CONTINUOUS
 10
90.3574530719
 20
161.0655784279
  0
VERTEX
  8
0
 62
7
  6
CONTINUOUS
 10
90.3747716056
 20
161.1298939229
  0
VERTEX
  8
0
 62
7
  6
CONTINUOUS
 10
90.4006987385
 20
161.1917642888
  0
VERTEX
  8
0
 62
7
  6
CONTINUOUS
 10
90.4348864763
 20
161.2499175011
  0
VERTEX
  8
0
 62
7
  6
CONTINUOUS
 10
90.4769166389
 20
161.30330008
  0
VERTEX
  8
0
 62
7
  6
CONTINUOUS
 10
90.5262428233
 20
161.3508675477
  0
VERTEX
  8
0
 62
7
  6
CONTINUOUS
 10
90.5820561921
 20
161.3915245825
  0
VERTEX
  8
0
 62
7
  6
CONTINUOUS
 10
90.6433411093
 20
161.4242848336
  0
VERTEX
  8
0
 62
7
  6
CONTINUOUS
 10
90.7090278649
 20
161.4483624497
  0
VERTEX
  8
0
 62
7
  6
CONTINUOUS
 10
90.7776663665
 20
161.463069158
  0
VERTEX
  8
0
 62
7
  6
CONTINUOUS
 10
90.8478426627
 20
161.4680183776
  0
SEQEND
  0
POLYLINE
  8
0
 62
7
  6
CONTINUOUS
 66
1
 70
0
  0
VERTEX
  8
0
 62
7
  6
CONTINUOUS
 10
90.3478425282
 20
159.0824035532
  0
VERTEX
  8
0
 62
7
  6
CONTINUOUS
 10
90.344706607
 20
159.0303443361
  0
VERTEX
  8
0
 62
7
  6
CONTINUOUS
 10
90.3322329306
 20
158.96677974
  0
VERTEX
  8
0
 62
7
  6
CONTINUOUS
 10
90.3099581272
 20
158.9038489513
  0
VERTEX
  8
0
 62
7
  6
CONTINUOUS
 10
90.2778921212
 20
158.8429973653
  0
VERTEX
  8
0
 62
7
  6
CONTINUOUS
 10
90.2362584997
 20
158.785514992
  0
VERTEX
  8
0
 62
7
  6
CONTINUOUS
 10
90.1853983883
 20
158.7325833721
  0
VERTEX
  8
0
 62
7
  6
CONTINUOUS
 10
90.1258580063
 20
158.6854352089
  0
VERTEX
  8
0
 62
7
  6
CONTINUOUS
 10
90.058297537
 20
158.6452531244
  0
VERTEX
  8
0
 62
7
  6
CONTINUOUS
 10
89.9834251817
 20
158.6131847328
  0
VERTEX
  8
0
 62
7
  6
CONTINUOUS
 10
89.9158382499
 20
158.593478562
  0
SEQEND
  0
POLYLINE
  8
0
 62
7
  6
CONTINUOUS
 66
1
 70
0
  0
VERTEX
  8
0
 62
7
  6
CONTINUOUS
 10
82.4802378846
 20
131.6057172184
  0
VERTEX
  8
0
 62
7
  6
CONTINUOUS
 10
82.4641123253
 20
131.5754325803
  0
VERTEX
  8
0
 62
7
  6
CONTINUOUS
 10
82.4381109622
 20
131.5114167849
  0
VERTEX
  8
0
 62
7
  6
CONTINUOUS
 10
82.4211141163
 20
131.4440445161
  0
VERTEX
  8
0
 62
7
  6
CONTINUOUS
 10
82.4136124021
 20
131.374735644
  0
VERTEX
  8
0
 62
7
  6
CONTINUOUS
 10
82.4158871979
 20
131.3044368691
  0
VERTEX
  8
0
 62
7
  6
CONTINUOUS
 10
82.4281524941
 20
131.2345567726
  0
VERTEX
  8
0
 62
7
  6
CONTINUOUS
 10
82.4504189185
 20
131.166543071
  0
VERTEX
  8
0
 62
7
  6
CONTINUOUS
 10
82.4824338687
 20
131.1019516485
  0
VERTEX
  8
0
 62
7
  6
CONTINUOUS
 10
82.5239038046
 20
131.0420149871
  0
VERTEX
  8
0
 62
7
  6
CONTINUOUS
 10
82.5738251419
 20
130.988579136
  0
VERTEX
  8
0
 62
7
  6
CONTINUOUS
 10
82.6312575886
 20
130.9428250406
  0
VERTEX
  8
0
 62
7
  6
CONTINUOUS
 10
82.6628150882
 20
130.9229562875
  0
SEQEND
  0
LINE
  8
0
 62
7
  6
CONTINUOUS
 10
82.4802378691
 20
131.6057172274
 11
83.4230452795
 21
133.2387075639
  0
LINE
  8
0
 62
7
  6
CONTINUOUS
 10
98.037430459
 20
158.5515652162
 11
98.9802378691
 21
160.1845555523
  0
POLYLINE
  8
0
 62
7
  6
CONTINUOUS
 66
1
 70
0
  0
VERTEX
  8
0
 62
7
  6
CONTINUOUS
 10
98.9802378813
 20
160.1845555452
  0
VERTEX
  8
0
 62
7
  6
CONTINUOUS
 10
98.9969325296
 20
160.2114658056
  0
VERTEX
  8
0
 62
7
  6
CONTINUOUS
 10
99.0373406769
 20
160.2642398733
  0
VERTEX
  8
0
 62
7
  6
CONTINUOUS
 10
99.0844967146
 20
160.3112794591
  0
VERTEX
  8
0
 62
7
  6
CONTINUOUS
 10
99.1378854533
 20
160.3518972012
  0
VERTEX
  8
0
 62
7
  6
CONTINUOUS
 10
99.1965695088
 20
160.3851654915
  0
VERTEX
  8
0
 62
7
  6
CONTINUOUS
 10
99.2596599868
 20
160.4103810796
  0
VERTEX
  8
0
 62
7
  6
CONTINUOUS
 10
99.3261614494
 20
160.4269126228
  0
VERTEX
  8
0
 62
7
  6
CONTINUOUS
 10
99.3948257621
 20
160.4342159634
  0
VERTEX
  8
0
 62
7
  6
CONTINUOUS
 10
99.4642801828
 20
160.4319447145
  0
VERTEX
  8
0
 62
7
  6
CONTINUOUS
 10
99.5332053899
 20
160.4199531639
  0
VERTEX
  8
0
 62
7
  6
CONTINUOUS
 10
99.6000014302
 20
160.3983702961
  0
VERTEX
  8
0
 62
7
  6
CONTINUOUS
 10
99.6632504952
 20
160.3675682979
  0
SEQEND
  0
POLYLINE
  8
0
 62
7
  6
CONTINUOUS
 66
1
 70
0
  0
VERTEX
  8
0
 62
7
  6
CONTINUOUS
 10
98.0374302467
 20
158.5515653388
  0
VERTEX
  8
0
 62
7
  6
CONTINUOUS
 10
98.0086775582
 20
158.5080389277
  0
VERTEX
  8
0
 62
7
  6
CONTINUOUS
 10
97.9660844958
 20
158.4592215599
  0
VERTEX
  8
0
 62
7
  6
CONTINUOUS
 10
97.9153216791
 20
158.4158581981
  0
VERTEX
  8
0
 62
7
  6
CONTINUOUS
 10
97.8571227338
 20
158.3791949998
  0
VERTEX
  8
0
 62
7
  6
CONTINUOUS
 10
97.7923259448
 20
158.3502349992
  0
VERTEX
  8
0
 62
7
  6
CONTINUOUS
 10
97.7218169079
 20
158.3298293417
  0
VERTEX
  8
0
 62
7
  6
CONTINUOUS
 10
97.6466843823
 20
158.3187715248
  0
VERTEX
  8
0
 62
7
  6
CONTINUOUS
 10
97.5680903925
 20
158.3177550431
  0
VERTEX
  8
0
 62
7
  6
CONTINUOUS
 10
97.4872210115
 20
158.3274195418
  0
VERTEX
  8
0
 62
7
  6
CONTINUOUS
 10
97.4188410889
 20
158.3441459986
  0
SEQEND
  0
POLYLINE
  8
0
 62
7
  6
CONTINUOUS
 66
1
 70
0
  0
VERTEX
  8
0
 62
7
  6
CONTINUOUS
 10
77.4855416089
 20
138.6898592676
  0
VERTEX
  8
0
 62
7
  6
CONTINUOUS
 10
77.4564341459
 20
138.6716947813
  0
VERTEX
  8
0
 62
7
  6
CONTINUOUS
 10
77.4019084072
 20
138.6292561578
  0
VERTEX
  8
0
 62
7
  6
CONTINUOUS
 10
77.3535025724
 20
138.5794084845
  0
VERTEX
  8
0
 62
7
  6
CONTINUOUS
 10
77.3123514613
 20
138.5231360976
  0
VERTEX
  8
0
 62
7
  6
CONTINUOUS
 10
77.2791721048
 20
138.4611181748
  0
VERTEX
  8
0
 62
7
  6
CONTINUOUS
 10
77.2548541147
 20
138.3944675879
  0
VERTEX
  8
0
 62
7
  6
CONTINUOUS
 10
77.240130553
 20
138.3244327824
  0
VERTEX
  8
0
 62
7
  6
CONTINUOUS
 10
77.235560602
 20
138.2524874945
  0
VERTEX
  8
0
 62
7
  6
CONTINUOUS
 10
77.2415062893
 20
138.1798458551
  0
VERTEX
  8
0
 62
7
  6
CONTINUOUS
 10
77.2580215101
 20
138.108608382
  0
VERTEX
  8
0
 62
7
  6
CONTINUOUS
 10
77.2848824202
 20
138.0402679496
  0
VERTEX
  8
0
 62
7
  6
CONTINUOUS
 10
77.30227764
 20
138.007282355
  0
SEQEND
  0
LINE
  8
0
 62
7
  6
CONTINUOUS
 10
77.4855416
 20
138.6898592832
 11
79.1185319405
 21
139.6326666959
  0
LINE
  8
SURFACE
 62
7
  6
CONTINUOUS
 10
104.4313895852
 20
154.247051871
 11
106.0643799249
 21
155.1898592832
  0
POLYLINE
  8
SURFACE
 62
7
  6
CONTINUOUS
 66
1
 70
0
  0
VERTEX
  8
SURFACE
 62
7
  6
CONTINUOUS
 10
106.0643799319
 20
155.1898592709
  0
VERTEX
  8
SURFACE
 62
7
  6
CONTINUOUS
 10
106.0922930516
 20
155.2048169159
  0
VERTEX
  8
SURFACE
 62
7
  6
CONTINUOUS
 10
106.1536745676
 20
155.2303165256
  0
VERTEX
  8
SURFACE
 62
7
  6
CONTINUOUS
 10
106.2180326871
 20
155.2474759829
  0
VERTEX
  8
SURFACE
 62
7
  6
CONTINUOUS
 10
106.2845775621
 20
155.2559576102
  0
VERTEX
  8
SURFACE
 62
7
  6
CONTINUOUS
 10
106.3520335901
 20
155.2554267669
  0
VERTEX
  8
SURFACE
 62
7
  6
CONTINUOUS
 10
106.4192793408
 20
155.2457188678
  0
VERTEX
  8
SURFACE
 62
7
  6
CONTINUOUS
 10
106.4851370685
 20
155.2267848729
  0
VERTEX
  8
SURFACE
 62
7
  6
CONTINUOUS
 10
106.5482537779
 20
155.198777595
  0
VERTEX
  8
SURFACE
 62
7
  6
CONTINUOUS
 10
106.6072674462
 20
155.1620834254
  0
VERTEX
  8
SURFACE
 62
7
  6
CONTINUOUS
 10
106.6609626512
 20
155.1172358344
  0
VERTEX
  8
SURFACE
 62
7
  6
CONTINUOUS
 10
106.708018285
 20
155.0651465025
  0
VERTEX
  8
SURFACE
 62
7
  6
CONTINUOUS
 10
106.747392583
 20
155.006846657
  0
SEQEND
  0
POLYLINE
  8
SURFACE
 62
7
  6
CONTINUOUS
 66
1
 70
0
  0
VERTEX
  8
SURFACE
 62
7
  6
CONTINUOUS
 10
104.4313894742
 20
154.2470520633
  0
VERTEX
  8
SURFACE
 62
7
  6
CONTINUOUS
 10
104.384736909
 20
154.2237382421
  0
VERTEX
  8
SURFACE
 62
7
  6
CONTINUOUS
 10
104.3234515158
 20
154.2027584647
  0
VERTEX
  8
SURFACE
 62
7
  6
CONTINUOUS
 10
104.2578144524
 20
154.1905836159
  0
VERTEX
  8
SURFACE
 62
7
  6
CONTINUOUS
 10
104.1890824301
 20
154.1879277988
  0
VERTEX
  8
SURFACE
 62
7
  6
CONTINUOUS
 10
104.1184844238
 20
154.195242386
  0
VERTEX
  8
SURFACE
 62
7
  6
CONTINUOUS
 10
104.0472142406
 20
154.2128227245
  0
VERTEX
  8
SURFACE
 62
7
  6
CONTINUOUS
 10
103.9766125425
 20
154.2408121262
  0
VERTEX
  8
SURFACE
 62
7
  6
CONTINUOUS
 10
103.9080336019
 20
154.2792301667
  0
VERTEX
  8
SURFACE
 62
7
  6
CONTINUOUS
 10
103.8428253825
 20
154.3280373327
  0
VERTEX
  8
SURFACE
 62
7
  6
CONTINUOUS
 10
103.7919658721
 20
154.3767162472
  0
SEQEND
  0
LINE
  8
SURFACE
 62
7
  6
CONTINUOUS
 10
106.0643799249
 20
133.7461774721
 11
104.4313895843
 21
134.6889848848
  0
LINE
  8
0
 62
7
  6
CONTINUOUS
 10
79.1185319396
 20
149.3033700599
 11
77.4855416
 21
150.2461774721
  0
POLYLINE
  8
SURFACE
 62
7
  6
CONTINUOUS
 66
1
 70
0
  0
VERTEX
  8
SURFACE
 62
7
  6
CONTINUOUS
 10
98.9802378846
 20
128.7514812119
  0
VERTEX
  8
SURFACE
 62
7
  6
CONTINUOUS
 10
98.9984023709
 20
128.7223737489
  0
VERTEX
  8
SURFACE
 62
7
  6
CONTINUOUS
 10
99.0408409944
 20
128.6678480103
  0
VERTEX
  8
SURFACE
 62
7
  6
CONTINUOUS
 10
99.0906886677
 20
128.6194421754
  0
VERTEX
  8
SURFACE
 62
7
  6
CONTINUOUS
 10
99.1469610546
 20
128.5782910643
  0
VERTEX
  8
SURFACE
 62
7
  6
CONTINUOUS
 10
99.2089789774
 20
128.5451117079
  0
VERTEX
  8
SURFACE
 62
7
  6
CONTINUOUS
 10
99.2756295643
 20
128.5207937177
  0
VERTEX
  8
SURFACE
 62
7
  6
CONTINUOUS
 10
99.3456643699
 20
128.506070156
  0
VERTEX
  8
SURFACE
 62
7
  6
CONTINUOUS
 10
99.4176096577
 20
128.501500205
  0
VERTEX
  8
SURFACE
 62
7
  6
CONTINUOUS
 10
99.4902512971
 20
128.5074458923
  0
VERTEX
  8
SURFACE
 62
7
  6
CONTINUOUS
 10
99.5614887702
 20
128.523961113
  0
VERTEX
  8
SURFACE
 62
7
  6
CONTINUOUS
 10
99.6298292026
 20
128.5508220232
  0
VERTEX
  8
SURFACE
 62
7
  6
CONTINUOUS
 10
99.6628147973
 20
128.568217243
  0
SEQEND
  0
LINE
  8
SURFACE
 62
7
  6
CONTINUOUS
 10
98.9802378691
 20
128.751481203
 11
98.0374304564
 21
130.3844715435
  0
LINE
  8
0
 62
7
  6
CONTINUOUS
 10
83.4230452813
 20
155.6973291882
 11
82.4802378691
 21
157.3303195279
  0
POLYLINE
  8
0
 62
7
  6
CONTINUOUS
 66
1
 70
0
  0
VERTEX
  8
0
 62
7
  6
CONTINUOUS
 10
82.4802378813
 20
157.3303195349
  0
VERTEX
  8
0
 62
7
  6
CONTINUOUS
 10
82.4652802232
 20
157.358232681
  0
VERTEX
  8
0
 62
7
  6
CONTINUOUS
 10
82.4397806079
 20
157.4196142261
  0
VERTEX
  8
0
 62
7
  6
CONTINUOUS
 10
82.422621152
 20
157.4839723783
  0
VERTEX
  8
0
 62
7
  6
CONTINUOUS
 10
82.414139535
 20
157.5505172841
  0
VERTEX
  8
0
 62
7
  6
CONTINUOUS
 10
82.4146703969
 20
157.6179733466
  0
VERTEX
  8
0
 62
7
  6
CONTINUOUS
 10
82.4243783234
 20
157.6852191254
  0
VERTEX
  8
0
 62
7
  6
CONTINUOUS
 10
82.4433123543
 20
157.7510768776
  0
VERTEX
  8
0
 62
7
  6
CONTINUOUS
 10
82.4713196766
 20
157.8141936064
  0
VERTEX
  8
0
 62
7
  6
CONTINUOUS
 10
82.5080138943
 20
157.873207281
  0
VERTEX
  8
0
 62
7
  6
CONTINUOUS
 10
82.5528615446
 20
157.92690249
  0
VERTEX
  8
0
 62
7
  6
CONTINUOUS
 10
82.6049509315
 20
157.9739581087
  0
VERTEX
  8
0
 62
7
  6
CONTINUOUS
 10
82.6632504853
 20
158.0133321803
  0
SEQEND
  0
LINE
  8
DEFAULT_1
 62
2
  6
CENTER
 10
73.1020787746
 20
144.4680183776
 11
112.2020787746
 21
144.4680183776
  0
LINE
  8
DEFAULT_1
 62
2
  6
CENTER
 10
93.2020787746
 20
123.7207497501
 11
93.2020787746
 21
166.130453751
  0
LINE
  8
DEFAULT_1
 62
2
  6
CENTER
 10
87.6020787746
 20
134.7685338552
 11
98.8020787746
 21
154.1675029
  0
LINE
  8
0
 62
7
  6
CONTINUOUS
 10
96.056314799
 20
160.9680183776
 11
96.056314799
 21
159.0824035522
  0
LINE
  8
SURFACE
 62
7
  6
CONTINUOUS
 10
96.056314799
 20
129.853633202
 11
96.056314799
 21
127.9680183776
  0
LINE
  8
SURFACE
 62
7
  6
CONTINUOUS
 10
103.9239196802
 20
157.3303195279
 11
102.9811122698
 21
155.6973291913
  0
LINE
  8
SURFACE
 62
7
  6
CONTINUOUS
 10
88.3667270903
 20
130.384471539
 11
87.4239196802
 21
128.751481203
  0
LINE
  8
SURFACE
 62
7
  6
CONTINUOUS
 10
108.9186159493
 20
150.2461774721
 11
107.2856256087
 21
149.3033700594
  0
LINE
  8
0
 62
7
  6
CONTINUOUS
 10
81.972767964
 20
134.6889848843
 11
80.3397776244
 21
133.7461774721
  0
POLYLINE
  8
SURFACE
 62
7
  6
CONTINUOUS
 66
1
 70
0
  0
VERTEX
  8
SURFACE
 62
7
  6
CONTINUOUS
 10
76.7020787746
 20
147.3222543841
  0
VERTEX
  8
SURFACE
 62
7
  6
CONTINUOUS
 10
76.667788729
 20
147.321077209
  0
VERTEX
  8
SURFACE
 62
7
  6
CONTINUOUS
 10
76.5993487425
 20
147.3115871523
  0
VERTEX
  8
SURFACE
 62
7
  6
CONTINUOUS
 10
76.5325042232
 20
147.2926207183
  0
VERTEX
  8
SURFACE
 62
7
  6
CONTINUOUS
 10
76.4687301221
 20
147.2644629573
  0
VERTEX
  8
SURFACE
 62
7
  6
CONTINUOUS
 10
76.4089869951
 20
147.2273435389
  0
VERTEX
  8
SURFACE
 62
7
  6
CONTINUOUS
 10
76.3546017044
 20
147.1817814325
  0
VERTEX
  8
SURFACE
 62
7
  6
CONTINUOUS
 10
76.3068333232
 20
147.1284912926
  0
VERTEX
  8
SURFACE
 62
7
  6
CONTINUOUS
 10
76.2669029856
 20
147.0684698212
  0
VERTEX
  8
SURFACE
 62
7
  6
CONTINUOUS
 10
76.2357312822
 20
147.0025874725
  0
VERTEX
  8
SURFACE
 62
7
  6
CONTINUOUS
 10
76.2144151463
 20
146.9326364006
  0
VERTEX
  8
SURFACE
 62
7
  6
CONTINUOUS
 10
76.2035071607
 20
146.860021395
  0
VERTEX
  8
SURFACE
 62
7
  6
CONTINUOUS
 10
76.2020790656
 20
146.8227574222
  0
SEQEND
  0
LINE
  8
SURFACE
 62
7
  6
CONTINUOUS
 10
76.7020787746
 20
147.322254402
 11
78.5876936001
 21
147.322254402
  0
LINE
  8
SURFACE
 62
7
  6
CONTINUOUS
 10
107.8164639502
 20
147.322254402
 11
109.7020787746
 21
147.322254402
  0
POLYLINE
  8
SURFACE
 62
7
  6
CONTINUOUS
 66
1
 70
0
  0
VERTEX
  8
SURFACE
 62
7
  6
CONTINUOUS
 10
109.7020787746
 20
147.3222543879
  0
VERTEX
  8
SURFACE
 62
7
  6
CONTINUOUS
 10
109.7337310973
 20
147.3212515267
  0
VERTEX
  8
SURFACE
 62
7
  6
CONTINUOUS
 10
109.7996388823
 20
147.3126440689
  0
VERTEX
  8
SURFACE
 62
7
  6
CONTINUOUS
 10
109.8639544051
 20
147.2953255175
  0
VERTEX
  8
SURFACE
 62
7
  6
CONTINUOUS
 10
109.9258247924
 20
147.2693983604
  0
VERTEX
  8
SURFACE
 62
7
  6
CONTINUOUS
 10
109.9839780252
 20
147.2352105892
  0
VERTEX
  8
SURFACE
 62
7
  6
CONTINUOUS
 10
110.0373606147
 20
147.1931803889
  0
VERTEX
  8
SURFACE
 62
7
  6
CONTINUOUS
 10
110.0849280857
 20
147.143854161
  0
VERTEX
  8
SURFACE
 62
7
  6
CONTINUOUS
 10
110.1255851151
 20
147.088040744
  0
VERTEX
  8
SURFACE
 62
7
  6
CONTINUOUS
 10
110.1583453476
 20
147.026755782
  0
VERTEX
  8
SURFACE
 62
7
  6
CONTINUOUS
 10
110.1824229376
 20
146.9610689731
  0
VERTEX
  8
SURFACE
 62
7
  6
CONTINUOUS
 10
110.1971296052
 20
146.8924304314
  0
VERTEX
  8
SURFACE
 62
7
  6
CONTINUOUS
 10
110.2020787746
 20
146.8222545009
  0
SEQEND
  0
POLYLINE
  8
SURFACE
 62
7
  6
CONTINUOUS
 66
1
 70
0
  0
VERTEX
  8
SURFACE
 62
7
  6
CONTINUOUS
 10
107.8164639502
 20
147.3222546241
  0
VERTEX
  8
SURFACE
 62
7
  6
CONTINUOUS
 10
107.7644047331
 20
147.3253905452
  0
VERTEX
  8
SURFACE
 62
7
  6
CONTINUOUS
 10
107.700840137
 20
147.3378642217
  0
VERTEX
  8
SURFACE
 62
7
  6
CONTINUOUS
 10
107.6379093483
 20
147.3601390251
  0
VERTEX
  8
SURFACE
 62
7
  6
CONTINUOUS
 10
107.5770577623
 20
147.3922050311
  0
VERTEX
  8
SURFACE
 62
7
  6
CONTINUOUS
 10
107.519575389
 20
147.4338386526
  0
VERTEX
  8
SURFACE
 62
7
  6
CONTINUOUS
 10
107.4666437691
 20
147.4846987639
  0
VERTEX
  8
SURFACE
 62
7
  6
CONTINUOUS
 10
107.4194956058
 20
147.5442391459
  0
VERTEX
  8
SURFACE
 62
7
  6
CONTINUOUS
 10
107.3793135214
 20
147.6117996152
  0
VERTEX
  8
SURFACE
 62
7
  6
CONTINUOUS
 10
107.3472451298
 20
147.6866719706
  0
VERTEX
  8
SURFACE
 62
7
  6
CONTINUOUS
 10
107.327538959
 20
147.7542589024
  0
SEQEND
  0
POLYLINE
  8
0
 62
7
  6
CONTINUOUS
 66
1
 70
0
  0
VERTEX
  8
0
 62
7
  6
CONTINUOUS
 10
80.3397776154
 20
155.1898592676
  0
VERTEX
  8
0
 62
7
  6
CONTINUOUS
 10
80.3094929773
 20
155.2059848269
  0
VERTEX
  8
0
 62
7
  6
CONTINUOUS
 10
80.2454771819
 20
155.23198619
  0
VERTEX
  8
0
 62
7
  6
CONTINUOUS
 10
80.1781049131
 20
155.248983036
  0
VERTEX
  8
0
 62
7
  6
CONTINUOUS
 10
80.108796041
 20
155.2564847502
  0
VERTEX
  8
0
 62
7
  6
CONTINUOUS
 10
80.0384972661
 20
155.2542099543
  0
VERTEX
  8
0
 62
7
  6
CONTINUOUS
 10
79.9686171696
 20
155.2419446581
  0
VERTEX
  8
0
 62
7
  6
CONTINUOUS
 10
79.900603468
 20
155.2196782338
  0
VERTEX
  8
0
 62
7
  6
CONTINUOUS
 10
79.8360120455
 20
155.1876632836
  0
VERTEX
  8
0
 62
7
  6
CONTINUOUS
 10
79.7760753841
 20
155.1461933476
  0
VERTEX
  8
0
 62
7
  6
CONTINUOUS
 10
79.722639533
 20
155.0962720103
  0
VERTEX
  8
0
 62
7
  6
CONTINUOUS
 10
79.6768854376
 20
155.0388395636
  0
VERTEX
  8
0
 62
7
  6
CONTINUOUS
 10
79.6570166845
 20
155.007282064
  0
SEQEND
  0
LINE
  8
0
 62
7
  6
CONTINUOUS
 10
80.3397776244
 20
155.1898592832
 11
81.972767965
 21
154.2470518704
  0
LINE
  8
SURFACE
 62
7
  6
CONTINUOUS
 10
107.2856256096
 20
139.6326666953
 11
108.9186159493
 21
138.6898592832
  0
POLYLINE
  8
SURFACE
 62
7
  6
CONTINUOUS
 66
1
 70
0
  0
VERTEX
  8
SURFACE
 62
7
  6
CONTINUOUS
 10
108.9186159422
 20
138.6898592709
  0
VERTEX
  8
SURFACE
 62
7
  6
CONTINUOUS
 10
108.9455262026
 20
138.6731646227
  0
VERTEX
  8
SURFACE
 62
7
  6
CONTINUOUS
 10
108.9983002703
 20
138.6327564753
  0
VERTEX
  8
SURFACE
 62
7
  6
CONTINUOUS
 10
109.0453398561
 20
138.5856004376
  0
VERTEX
  8
SURFACE
 62
7
  6
CONTINUOUS
 10
109.0859575982
 20
138.5322116989
  0
VERTEX
  8
SURFACE
 62
7
  6
CONTINUOUS
 10
109.1192258885
 20
138.4735276434
  0
VERTEX
  8
SURFACE
 62
7
  6
CONTINUOUS
 10
109.1444414766
 20
138.4104371654
  0
VERTEX
  8
SURFACE
 62
7
  6
CONTINUOUS
 10
109.1609730198
 20
138.3439357028
  0
VERTEX
  8
SURFACE
 62
7
  6
CONTINUOUS
 10
109.1682763604
 20
138.2752713901
  0
VERTEX
  8
SURFACE
 62
7
  6
CONTINUOUS
 10
109.1660051115
 20
138.2058169694
  0
VERTEX
  8
SURFACE
 62
7
  6
CONTINUOUS
 10
109.1540135609
 20
138.1368917623
  0
VERTEX
  8
SURFACE
 62
7
  6
CONTINUOUS
 10
109.1324306931
 20
138.0700957221
  0
VERTEX
  8
SURFACE
 62
7
  6
CONTINUOUS
 10
109.1016286949
 20
138.006846657
  0
SEQEND
  0
POLYLINE
  8
SURFACE
 62
7
  6
CONTINUOUS
 66
1
 70
0
  0
VERTEX
  8
SURFACE
 62
7
  6
CONTINUOUS
 10
107.2856257206
 20
139.6326668876
  0
VERTEX
  8
SURFACE
 62
7
  6
CONTINUOUS
 10
107.2421090766
 20
139.6614122836
  0
VERTEX
  8
SURFACE
 62
7
  6
CONTINUOUS
 10
107.1932973598
 20
139.7039971023
  0
VERTEX
  8
SURFACE
 62
7
  6
CONTINUOUS
 10
107.1499350998
 20
139.7547530423
  0
VERTEX
  8
SURFACE
 62
7
  6
CONTINUOUS
 10
107.1132690836
 20
139.812948811
  0
VERTEX
  8
SURFACE
 62
7
  6
CONTINUOUS
 10
107.0843046987
 20
139.8777457716
  0
VERTEX
  8
SURFACE
 62
7
  6
CONTINUOUS
 10
107.0638946269
 20
139.94825773
  0
VERTEX
  8
SURFACE
 62
7
  6
CONTINUOUS
 10
107.0528333108
 20
140.023395295
  0
VERTEX
  8
SURFACE
 62
7
  6
CONTINUOUS
 10
107.0518148395
 20
140.1019954199
  0
VERTEX
  8
SURFACE
 62
7
  6
CONTINUOUS
 10
107.0614789754
 20
140.1828709775
  0
VERTEX
  8
SURFACE
 62
7
  6
CONTINUOUS
 10
107.0782063968
 20
140.2512560628
  0
SEQEND
  0
POLYLINE
  8
0
 62
7
  6
CONTINUOUS
 66
1
 70
0
  0
VERTEX
  8
0
 62
7
  6
CONTINUOUS
 10
87.4239196646
 20
160.1845555433
  0
VERTEX
  8
0
 62
7
  6
CONTINUOUS
 10
87.4057551783
 20
160.2136630063
  0
VERTEX
  8
0
 62
7
  6
CONTINUOUS
 10
87.3633165548
 20
160.268188745
  0
VERTEX
  8
0
 62
7
  6
CONTINUOUS
 10
87.3134688815
 20
160.3165945798
  0
VERTEX
  8
0
 62
7
  6
CONTINUOUS
 10
87.2571964946
 20
160.3577456909
  0
VERTEX
  8
0
 62
7
  6
CONTINUOUS
 10
87.1951785718
 20
160.3909250474
  0
VERTEX
  8
0
 62
7
  6
CONTINUOUS
 10
87.1285279849
 20
160.4152430376
  0
VERTEX
  8
0
 62
7
  6
CONTINUOUS
 10
87.0584931794
 20
160.4299665992
  0
VERTEX
  8
0
 62
7
  6
CONTINUOUS
 10
86.9865478915
 20
160.4345365503
  0
VERTEX
  8
0
 62
7
  6
CONTINUOUS
 10
86.9139062522
 20
160.4285908629
  0
VERTEX
  8
0
 62
7
  6
CONTINUOUS
 10
86.842668779
 20
160.4120756422
  0
VERTEX
  8
0
 62
7
  6
CONTINUOUS
 10
86.7743283467
 20
160.3852147321
  0
VERTEX
  8
0
 62
7
  6
CONTINUOUS
 10
86.741342752
 20
160.3678195123
  0
SEQEND
  0
LINE
  8
0
 62
7
  6
CONTINUOUS
 10
87.4239196802
 20
160.1845555523
 11
88.3667270929
 21
158.5515652117
  0
LINE
  8
SURFACE
 62
7
  6
CONTINUOUS
 10
102.981112268
 20
133.238707567
 11
103.9239196802
 21
131.6057172274
  0
POLYLINE
  8
SURFACE
 62
7
  6
CONTINUOUS
 66
1
 70
0
  0
VERTEX
  8
SURFACE
 62
7
  6
CONTINUOUS
 10
103.9239196679
 20
131.6057172203
  0
VERTEX
  8
SURFACE
 62
7
  6
CONTINUOUS
 10
103.938877326
 20
131.5778040742
  0
VERTEX
  8
SURFACE
 62
7
  6
CONTINUOUS
 10
103.9643769414
 20
131.5164225292
  0
VERTEX
  8
SURFACE
 62
7
  6
CONTINUOUS
 10
103.9815363973
 20
131.4520643769
  0
VERTEX
  8
SURFACE
 62
7
  6
CONTINUOUS
 10
103.9900180143
 20
131.3855194712
  0
VERTEX
  8
SURFACE
 62
7
  6
CONTINUOUS
 10
103.9894871523
 20
131.3180634087
  0
VERTEX
  8
SURFACE
 62
7
  6
CONTINUOUS
 10
103.9797792258
 20
131.2508176299
  0
VERTEX
  8
SURFACE
 62
7
  6
CONTINUOUS
 10
103.960845195
 20
131.1849598776
  0
VERTEX
  8
SURFACE
 62
7
  6
CONTINUOUS
 10
103.9328378726
 20
131.1218431488
  0
VERTEX
  8
SURFACE
 62
7
  6
CONTINUOUS
 10
103.8961436549
 20
131.0628294743
  0
VERTEX
  8
SURFACE
 62
7
  6
CONTINUOUS
 10
103.8512960047
 20
131.0091342652
  0
VERTEX
  8
SURFACE
 62
7
  6
CONTINUOUS
 10
103.7992066177
 20
130.9620786466
  0
VERTEX
  8
SURFACE
 62
7
  6
CONTINUOUS
 10
103.7409070639
 20
130.9227045749
  0
SEQEND
  0
POLYLINE
  8
0
 62
7
  6
CONTINUOUS
 66
1
 70
0
  0
VERTEX
  8
0
 62
7
  6
CONTINUOUS
 10
96.0563147811
 20
160.9680183776
  0
VERTEX
  8
0
 62
7
  6
CONTINUOUS
 10
96.055137606
 20
161.0023084232
  0
VERTEX
  8
0
 62
7
  6
CONTINUOUS
 10
96.0456475493
 20
161.0707484098
  0
VERTEX
  8
0
 62
7
  6
CONTINUOUS
 10
96.0266811153
 20
161.1375929291
  0
VERTEX
  8
0
 62
7
  6
CONTINUOUS
 10
95.9985233543
 20
161.2013670302
  0
VERTEX
  8
0
 62
7
  6
CONTINUOUS
 10
95.9614039359
 20
161.2611101571
  0
VERTEX
  8
0
 62
7
  6
CONTINUOUS
 10
95.9158418295
 20
161.3154954479
  0
VERTEX
  8
0
 62
7
  6
CONTINUOUS
 10
95.8625516896
 20
161.363263829
  0
VERTEX
  8
0
 62
7
  6
CONTINUOUS
 10
95.8025302182
 20
161.4031941667
  0
VERTEX
  8
0
 62
7
  6
CONTINUOUS
 10
95.7366478694
 20
161.4343658701
  0
VERTEX
  8
0
 62
7
  6
CONTINUOUS
 10
95.6666967976
 20
161.4556820059
  0
VERTEX
  8
0
 62
7
  6
CONTINUOUS
 10
95.594081792
 20
161.4665899916
  0
VERTEX
  8
0
 62
7
  6
CONTINUOUS
 10
95.5568178192
 20
161.4680180867
  0
SEQEND
  0
POLYLINE
  8
SURFACE
 62
7
  6
CONTINUOUS
 66
1
 70
0
  0
VERTEX
  8
SURFACE
 62
7
  6
CONTINUOUS
 10
96.0563147849
 20
127.9680183776
  0
VERTEX
  8
SURFACE
 62
7
  6
CONTINUOUS
 10
96.0553119256
 20
127.9363660843
  0
VERTEX
  8
SURFACE
 62
7
  6
CONTINUOUS
 10
96.0467044773
 20
127.8704583274
  0
VERTEX
  8
SURFACE
 62
7
  6
CONTINUOUS
 10
96.0293859436
 20
127.8061428323
  0
VERTEX
  8
SURFACE
 62
7
  6
CONTINUOUS
 10
96.0034588107
 20
127.7442724664
  0
VERTEX
  8
SURFACE
 62
7
  6
CONTINUOUS
 10
95.969271073
 20
127.6861192541
  0
VERTEX
  8
SURFACE
 62
7
  6
CONTINUOUS
 10
95.9272409104
 20
127.6327366753
  0
VERTEX
  8
SURFACE
 62
7
  6
CONTINUOUS
 10
95.8779147259
 20
127.5851692076
  0
VERTEX
  8
SURFACE
 62
7
  6
CONTINUOUS
 10
95.8221013571
 20
127.5445121728
  0
VERTEX
  8
SURFACE
 62
7
  6
CONTINUOUS
 10
95.7608164399
 20
127.5117519216
  0
VERTEX
  8
SURFACE
 62
7
  6
CONTINUOUS
 10
95.6951296843
 20
127.4876743055
  0
VERTEX
  8
SURFACE
 62
7
  6
CONTINUOUS
 10
95.6264911827
 20
127.4729675972
  0
VERTEX
  8
SURFACE
 62
7
  6
CONTINUOUS
 10
95.5563148865
 20
127.4680183776
  0
SEQEND
  0
POLYLINE
  8
SURFACE
 62
7
  6
CONTINUOUS
 66
1
 70
0
  0
VERTEX
  8
SURFACE
 62
7
  6
CONTINUOUS
 10
96.0563150211
 20
129.853633202
  0
VERTEX
  8
SURFACE
 62
7
  6
CONTINUOUS
 10
96.0594509422
 20
129.9056924192
  0
VERTEX
  8
SURFACE
 62
7
  6
CONTINUOUS
 10
96.0719246187
 20
129.9692570153
  0
VERTEX
  8
SURFACE
 62
7
  6
CONTINUOUS
 10
96.0941994221
 20
130.032187804
  0
VERTEX
  8
SURFACE
 62
7
  6
CONTINUOUS
 10
96.1262654281
 20
130.0930393899
  0
VERTEX
  8
SURFACE
 62
7
  6
CONTINUOUS
 10
96.1678990496
 20
130.1505217632
  0
VERTEX
  8
SURFACE
 62
7
  6
CONTINUOUS
 10
96.2187591609
 20
130.2034533831
  0
VERTEX
  8
SURFACE
 62
7
  6
CONTINUOUS
 10
96.2782995429
 20
130.2506015464
  0
VERTEX
  8
SURFACE
 62
7
  6
CONTINUOUS
 10
96.3458600122
 20
130.2907836309
  0
VERTEX
  8
SURFACE
 62
7
  6
CONTINUOUS
 10
96.4207323676
 20
130.3228520224
  0
VERTEX
  8
SURFACE
 62
7
  6
CONTINUOUS
 10
96.4883192994
 20
130.3425581932
  0
SEQEND
  0
POLYLINE
  8
SURFACE
 62
7
  6
CONTINUOUS
 66
1
 70
0
  0
VERTEX
  8
SURFACE
 62
7
  6
CONTINUOUS
 10
103.9239196646
 20
157.3303195368
  0
VERTEX
  8
SURFACE
 62
7
  6
CONTINUOUS
 10
103.9400452239
 20
157.3606041749
  0
VERTEX
  8
SURFACE
 62
7
  6
CONTINUOUS
 10
103.966046587
 20
157.4246199703
  0
VERTEX
  8
SURFACE
 62
7
  6
CONTINUOUS
 10
103.983043433
 20
157.4919922391
  0
VERTEX
  8
SURFACE
 62
7
  6
CONTINUOUS
 10
103.9905451472
 20
157.5613011113
  0
VERTEX
  8
SURFACE
 62
7
  6
CONTINUOUS
 10
103.9882703513
 20
157.6315998862
  0
VERTEX
  8
SURFACE
 62
7
  6
CONTINUOUS
 10
103.9760050551
 20
157.7014799827
  0
VERTEX
  8
SURFACE
 62
7
  6
CONTINUOUS
 10
103.9537386308
 20
157.7694936842
  0
VERTEX
  8
SURFACE
 62
7
  6
CONTINUOUS
 10
103.9217236806
 20
157.8340851067
  0
VERTEX
  8
SURFACE
 62
7
  6
CONTINUOUS
 10
103.8802537446
 20
157.8940217681
  0
VERTEX
  8
SURFACE
 62
7
  6
CONTINUOUS
 10
103.8303324073
 20
157.9474576192
  0
VERTEX
  8
SURFACE
 62
7
  6
CONTINUOUS
 10
103.7728999606
 20
157.9932117147
  0
VERTEX
  8
SURFACE
 62
7
  6
CONTINUOUS
 10
103.741342461
 20
158.0130804677
  0
SEQEND
  0
POLYLINE
  8
SURFACE
 62
7
  6
CONTINUOUS
 66
1
 70
0
  0
VERTEX
  8
SURFACE
 62
7
  6
CONTINUOUS
 10
87.4239196679
 20
128.75148121
  0
VERTEX
  8
SURFACE
 62
7
  6
CONTINUOUS
 10
87.4072250197
 20
128.7245709496
  0
VERTEX
  8
SURFACE
 62
7
  6
CONTINUOUS
 10
87.3668168723
 20
128.6717968819
  0
VERTEX
  8
SURFACE
 62
7
  6
CONTINUOUS
 10
87.3196608346
 20
128.6247572962
  0
VERTEX
  8
SURFACE
 62
7
  6
CONTINUOUS
 10
87.2662720959
 20
128.584139554
  0
VERTEX
  8
SURFACE
 62
7
  6
CONTINUOUS
 10
87.2075880404
 20
128.5508712638
  0
VERTEX
  8
SURFACE
 62
7
  6
CONTINUOUS
 10
87.1444975624
 20
128.5256556756
  0
VERTEX
  8
SURFACE
 62
7
  6
CONTINUOUS
 10
87.0779960998
 20
128.5091241324
  0
VERTEX
  8
SURFACE
 62
7
  6
CONTINUOUS
 10
87.0093317871
 20
128.5018207919
  0
VERTEX
  8
SURFACE
 62
7
  6
CONTINUOUS
 10
86.9398773664
 20
128.5040920407
  0
VERTEX
  8
SURFACE
 62
7
  6
CONTINUOUS
 10
86.8709521593
 20
128.5160835913
  0
VERTEX
  8
SURFACE
 62
7
  6
CONTINUOUS
 10
86.8041561191
 20
128.5376664591
  0
VERTEX
  8
SURFACE
 62
7
  6
CONTINUOUS
 10
86.740907054
 20
128.5684684573
  0
SEQEND
  0
POLYLINE
  8
SURFACE
 62
7
  6
CONTINUOUS
 66
1
 70
0
  0
VERTEX
  8
SURFACE
 62
7
  6
CONTINUOUS
 10
88.3667273026
 20
130.3844714165
  0
VERTEX
  8
SURFACE
 62
7
  6
CONTINUOUS
 10
88.395479991
 20
130.4279978275
  0
VERTEX
  8
SURFACE
 62
7
  6
CONTINUOUS
 10
88.4380730535
 20
130.4768151953
  0
VERTEX
  8
SURFACE
 62
7
  6
CONTINUOUS
 10
88.4888358701
 20
130.5201785571
  0
VERTEX
  8
SURFACE
 62
7
  6
CONTINUOUS
 10
88.5470348154
 20
130.5568417554
  0
VERTEX
  8
SURFACE
 62
7
  6
CONTINUOUS
 10
88.6118316044
 20
130.585801756
  0
VERTEX
  8
SURFACE
 62
7
  6
CONTINUOUS
 10
88.6823406413
 20
130.6062074136
  0
VERTEX
  8
SURFACE
 62
7
  6
CONTINUOUS
 10
88.7574731669
 20
130.6172652304
  0
VERTEX
  8
SURFACE
 62
7
  6
CONTINUOUS
 10
88.8360671568
 20
130.6182817121
  0
VERTEX
  8
SURFACE
 62
7
  6
CONTINUOUS
 10
88.9169365377
 20
130.6086172135
  0
VERTEX
  8
SURFACE
 62
7
  6
CONTINUOUS
 10
88.9853164604
 20
130.5918907566
  0
SEQEND
  0
POLYLINE
  8
SURFACE
 62
7
  6
CONTINUOUS
 66
1
 70
0
  0
VERTEX
  8
SURFACE
 62
7
  6
CONTINUOUS
 10
108.9186159403
 20
150.2461774876
  0
VERTEX
  8
SURFACE
 62
7
  6
CONTINUOUS
 10
108.9477234033
 20
150.2643419739
  0
VERTEX
  8
SURFACE
 62
7
  6
CONTINUOUS
 10
109.002249142
 20
150.3067805974
  0
VERTEX
  8
SURFACE
 62
7
  6
CONTINUOUS
 10
109.0506549768
 20
150.3566282707
  0
VERTEX
  8
SURFACE
 62
7
  6
CONTINUOUS
 10
109.091806088
 20
150.4129006576
  0
VERTEX
  8
SURFACE
 62
7
  6
CONTINUOUS
 10
109.1249854444
 20
150.4749185804
  0
VERTEX
  8
SURFACE
 62
7
  6
CONTINUOUS
 10
109.1493034346
 20
150.5415691673
  0
VERTEX
  8
SURFACE
 62
7
  6
CONTINUOUS
 10
109.1640269962
 20
150.6116039729
  0
VERTEX
  8
SURFACE
 62
7
  6
CONTINUOUS
 10
109.1685969473
 20
150.6835492607
  0
VERTEX
  8
SURFACE
 62
7
  6
CONTINUOUS
 10
109.1626512599
 20
150.7561909001
  0
VERTEX
  8
SURFACE
 62
7
  6
CONTINUOUS
 10
109.1461360392
 20
150.8274283733
  0
VERTEX
  8
SURFACE
 62
7
  6
CONTINUOUS
 10
109.119275129
 20
150.8957688056
  0
VERTEX
  8
SURFACE
 62
7
  6
CONTINUOUS
 10
109.1018799093
 20
150.9287544003
  0
SEQEND
  0
POLYLINE
  8
0
 62
7
  6
CONTINUOUS
 66
1
 70
0
  0
VERTEX
  8
0
 62
7
  6
CONTINUOUS
 10
80.3397776173
 20
133.7461774843
  0
VERTEX
  8
0
 62
7
  6
CONTINUOUS
 10
80.3118644976
 20
133.7312198393
  0
VERTEX
  8
0
 62
7
  6
CONTINUOUS
 10
80.2504829816
 20
133.7057202297
  0
VERTEX
  8
0
 62
7
  6
CONTINUOUS
 10
80.1861248622
 20
133.6885607723
  0
VERTEX
  8
0
 62
7
  6
CONTINUOUS
 10
80.1195799871
 20
133.6800791451
  0
VERTEX
  8
0
 62
7
  6
CONTINUOUS
 10
80.0521239591
 20
133.6806099884
  0
VERTEX
  8
0
 62
7
  6
CONTINUOUS
 10
79.9848782084
 20
133.6903178875
  0
VERTEX
  8
0
 62
7
  6
CONTINUOUS
 10
79.9190204808
 20
133.7092518824
  0
VERTEX
  8
0
 62
7
  6
CONTINUOUS
 10
79.8559037714
 20
133.7372591603
  0
VERTEX
  8
0
 62
7
  6
CONTINUOUS
 10
79.7968901031
 20
133.7739533298
  0
VERTEX
  8
0
 62
7
  6
CONTINUOUS
 10
79.743194898
 20
133.8188009208
  0
VERTEX
  8
0
 62
7
  6
CONTINUOUS
 10
79.6961392642
 20
133.8708902528
  0
VERTEX
  8
0
 62
7
  6
CONTINUOUS
 10
79.6567649662
 20
133.9291900982
  0
SEQEND
  0
POLYLINE
  8
0
 62
7
  6
CONTINUOUS
 66
1
 70
0
  0
VERTEX
  8
0
 62
7
  6
CONTINUOUS
 10
81.9727680751
 20
134.688984692
  0
VERTEX
  8
0
 62
7
  6
CONTINUOUS
 10
82.0194206402
 20
134.7122985132
  0
VERTEX
  8
0
 62
7
  6
CONTINUOUS
 10
82.0807060334
 20
134.7332782905
  0
VERTEX
  8
0
 62
7
  6
CONTINUOUS
 10
82.1463430968
 20
134.7454531393
  0
VERTEX
  8
0
 62
7
  6
CONTINUOUS
 10
82.2150751191
 20
134.7481089565
  0
VERTEX
  8
0
 62
7
  6
CONTINUOUS
 10
82.2856731255
 20
134.7407943693
  0
VERTEX
  8
0
 62
7
  6
CONTINUOUS
 10
82.3569433086
 20
134.7232140307
  0
VERTEX
  8
0
 62
7
  6
CONTINUOUS
 10
82.4275450067
 20
134.695224629
  0
VERTEX
  8
0
 62
7
  6
CONTINUOUS
 10
82.4961239473
 20
134.6568065886
  0
VERTEX
  8
0
 62
7
  6
CONTINUOUS
 10
82.5613321667
 20
134.6079994225
  0
VERTEX
  8
0
 62
7
  6
CONTINUOUS
 10
82.6121916772
 20
134.559320508
  0
SEQEND
  0
POLYLINE
  8
SURFACE
 62
7
  6
CONTINUOUS
 66
1
 70
0
  0
VERTEX
  8
SURFACE
 62
7
  6
CONTINUOUS
 10
102.9811124603
 20
133.2387076781
  0
VERTEX
  8
SURFACE
 62
7
  6
CONTINUOUS
 10
102.9577986391
 20
133.2853602432
  0
VERTEX
  8
SURFACE
 62
7
  6
CONTINUOUS
 10
102.9368188617
 20
133.3466456364
  0
VERTEX
  8
SURFACE
 62
7
  6
CONTINUOUS
 10
102.9246440129
 20
133.4122826998
  0
VERTEX
  8
SURFACE
 62
7
  6
CONTINUOUS
 10
102.9219881958
 20
133.4810147221
  0
VERTEX
  8
SURFACE
 62
7
  6
CONTINUOUS
 10
102.929302783
 20
133.5516127285
  0
VERTEX
  8
SURFACE
 62
7
  6
CONTINUOUS
 10
102.9468831215
 20
133.6228829116
  0
VERTEX
  8
SURFACE
 62
7
  6
CONTINUOUS
 10
102.9748725232
 20
133.6934846097
  0
VERTEX
  8
SURFACE
 62
7
  6
CONTINUOUS
 10
103.0132905637
 20
133.7620635503
  0
VERTEX
  8
SURFACE
 62
7
  6
CONTINUOUS
 10
103.0620977297
 20
133.8272717697
  0
VERTEX
  8
SURFACE
 62
7
  6
CONTINUOUS
 10
103.1107766442
 20
133.8781312802
  0
SEQEND
  0
LINE
  8
0
 62
7
  6
CONTINUOUS
 10
93.2224326286
 20
155.0586826797
 11
93.7574895337
 21
154.7705965877
  0
LINE
  8
0
 62
7
  6
CONTINUOUS
 10
93.3613937075
 20
154.9883446895
 11
93.7574916037
 21
154.7705955067
  0
LINE
  8
SURFACE
 62
7
  6
CONTINUOUS
 10
101.8464507695
 20
150.1004328325
 11
101.8455757802
 21
150.1009380078
  0
LINE
  8
0
 62
7
  6
CONTINUOUS
 10
93.7574916373
 20
154.7705955649
 11
101.8455757802
 21
150.1009380078
  0
POLYLINE
  8
SURFACE
 62
7
  6
CONTINUOUS
 66
1
 70
0
  0
VERTEX
  8
SURFACE
 62
7
  6
CONTINUOUS
 10
101.8464507249
 20
150.1004327553
  0
VERTEX
  8
SURFACE
 62
7
  6
CONTINUOUS
 10
102.362471108
 20
149.781781491
  0
VERTEX
  8
SURFACE
 62
7
  6
CONTINUOUS
 10
102.8452741768
 20
149.4385012411
  0
VERTEX
  8
SURFACE
 62
7
  6
CONTINUOUS
 10
103.2808763158
 20
149.0797104756
  0
VERTEX
  8
SURFACE
 62
7
  6
CONTINUOUS
 10
103.6706741448
 20
148.7067702968
  0
VERTEX
  8
SURFACE
 62
7
  6
CONTINUOUS
 10
104.0163784059
 20
148.3212991475
  0
VERTEX
  8
SURFACE
 62
7
  6
CONTINUOUS
 10
104.3198705627
 20
147.9247709222
  0
VERTEX
  8
SURFACE
 62
7
  6
CONTINUOUS
 10
104.5829590705
 20
147.5183977087
  0
VERTEX
  8
SURFACE
 62
7
  6
CONTINUOUS
 10
104.8070582642
 20
147.1034085856
  0
VERTEX
  8
SURFACE
 62
7
  6
CONTINUOUS
 10
104.99318021
 20
146.6811739787
  0
VERTEX
  8
SURFACE
 62
7
  6
CONTINUOUS
 10
105.1421025388
 20
146.2529963488
  0
VERTEX
  8
SURFACE
 62
7
  6
CONTINUOUS
 10
105.2542335435
 20
145.8207333924
  0
VERTEX
  8
SURFACE
 62
7
  6
CONTINUOUS
 10
105.3299227144
 20
145.3863932235
  0
VERTEX
  8
SURFACE
 62
7
  6
CONTINUOUS
 10
105.3695319499
 20
144.952025729
  0
VERTEX
  8
SURFACE
 62
7
  6
CONTINUOUS
 10
105.3734583441
 20
144.51982986
  0
VERTEX
  8
SURFACE
 62
7
  6
CONTINUOUS
 10
105.3421790031
 20
144.0919830543
  0
VERTEX
  8
SURFACE
 62
7
  6
CONTINUOUS
 10
105.2762618199
 20
143.6707147593
  0
VERTEX
  8
SURFACE
 62
7
  6
CONTINUOUS
 10
105.1763931786
 20
143.2582975289
  0
VERTEX
  8
SURFACE
 62
7
  6
CONTINUOUS
 10
105.0433775732
 20
142.8569633191
  0
VERTEX
  8
SURFACE
 62
7
  6
CONTINUOUS
 10
104.8781229795
 20
142.4688717531
  0
VERTEX
  8
SURFACE
 62
7
  6
CONTINUOUS
 10
104.6888226707
 20
142.1085356891
  0
SEQEND
  0
LINE
  8
SURFACE
 62
7
  6
CONTINUOUS
 10
104.6888227729
 20
142.1085356301
 11
100.9888227729
 21
135.6999476421
  0
POLYLINE
  8
SURFACE
 62
7
  6
CONTINUOUS
 66
1
 70
0
  0
VERTEX
  8
SURFACE
 62
7
  6
CONTINUOUS
 10
101.0174337565
 20
135.6834432335
  0
VERTEX
  8
SURFACE
 62
7
  6
CONTINUOUS
 10
100.8093767786
 20
135.3529437425
  0
VERTEX
  8
SURFACE
 62
7
  6
CONTINUOUS
 10
100.5749858381
 20
135.0371842754
  0
VERTEX
  8
SURFACE
 62
7
  6
CONTINUOUS
 10
100.3155511244
 20
134.7387544059
  0
VERTEX
  8
SURFACE
 62
7
  6
CONTINUOUS
 10
100.0327295934
 20
134.4600822764
  0
VERTEX
  8
SURFACE
 62
7
  6
CONTINUOUS
 10
99.7284446835
 20
134.2033097772
  0
VERTEX
  8
SURFACE
 62
7
  6
CONTINUOUS
 10
99.4041298605
 20
133.9697991901
  0
VERTEX
  8
SURFACE
 62
7
  6
CONTINUOUS
 10
99.0607498605
 20
133.7605272184
  0
VERTEX
  8
SURFACE
 62
7
  6
CONTINUOUS
 10
98.6994669605
 20
133.5766467301
  0
VERTEX
  8
SURFACE
 62
7
  6
CONTINUOUS
 10
98.3217677035
 20
133.4194318339
  0
VERTEX
  8
SURFACE
 62
7
  6
CONTINUOUS
 10
97.9291497166
 20
133.2900561485
  0
VERTEX
  8
SURFACE
 62
7
  6
CONTINUOUS
 10
97.5230121545
 20
133.1895834839
  0
VERTEX
  8
SURFACE
 62
7
  6
CONTINUOUS
 10
97.1042704123
 20
133.1189661835
  0
VERTEX
  8
SURFACE
 62
7
  6
CONTINUOUS
 10
96.6736874959
 20
133.0792468795
  0
VERTEX
  8
SURFACE
 62
7
  6
CONTINUOUS
 10
96.2327751098
 20
133.0715860502
  0
VERTEX
  8
SURFACE
 62
7
  6
CONTINUOUS
 10
95.7819863069
 20
133.0971389207
  0
VERTEX
  8
SURFACE
 62
7
  6
CONTINUOUS
 10
95.321406082
 20
133.157306999
  0
VERTEX
  8
SURFACE
 62
7
  6
CONTINUOUS
 10
94.8498106339
 20
133.2540590128
  0
VERTEX
  8
SURFACE
 62
7
  6
CONTINUOUS
 10
94.3697742555
 20
133.3887261772
  0
VERTEX
  8
SURFACE
 62
7
  6
CONTINUOUS
 10
93.9039851624
 20
133.5540187986
  0
VERTEX
  8
SURFACE
 62
7
  6
CONTINUOUS
 10
93.4612502759
 20
133.7423551627
  0
VERTEX
  8
SURFACE
 62
7
  6
CONTINUOUS
 10
93.0427638417
 20
133.9476920657
  0
SEQEND
  0
POLYLINE
  8
SURFACE
 62
7
  6
CONTINUOUS
 66
1
 70
0
  0
VERTEX
  8
SURFACE
 62
7
  6
CONTINUOUS
 10
100.9888227279
 20
135.6999476681
  0
VERTEX
  8
SURFACE
 62
7
  6
CONTINUOUS
 10
100.7721250405
 20
135.3568749178
  0
VERTEX
  8
SURFACE
 62
7
  6
CONTINUOUS
 10
100.5187320823
 20
135.0196451464
  0
VERTEX
  8
SURFACE
 62
7
  6
CONTINUOUS
 10
100.2377670364
 20
134.7037314227
  0
VERTEX
  8
SURFACE
 62
7
  6
CONTINUOUS
 10
99.930651339
 20
134.4109949749
  0
VERTEX
  8
SURFACE
 62
7
  6
CONTINUOUS
 10
99.5989181114
 20
134.1432410778
  0
VERTEX
  8
SURFACE
 62
7
  6
CONTINUOUS
 10
99.2441929617
 20
133.9021929877
  0
VERTEX
  8
SURFACE
 62
7
  6
CONTINUOUS
 10
98.8681115264
 20
133.6894446123
  0
VERTEX
  8
SURFACE
 62
7
  6
CONTINUOUS
 10
98.4722926767
 20
133.5064833564
  0
VERTEX
  8
SURFACE
 62
7
  6
CONTINUOUS
 10
98.0584093987
 20
133.3547470153
  0
VERTEX
  8
SURFACE
 62
7
  6
CONTINUOUS
 10
97.6280302613
 20
133.2355804135
  0
VERTEX
  8
SURFACE
 62
7
  6
CONTINUOUS
 10
97.1827024051
 20
133.1503051777
  0
VERTEX
  8
SURFACE
 62
7
  6
CONTINUOUS
 10
96.7238326629
 20
133.1002243512
  0
VERTEX
  8
SURFACE
 62
7
  6
CONTINUOUS
 10
96.2522284098
 20
133.0866809713
  0
VERTEX
  8
SURFACE
 62
7
  6
CONTINUOUS
 10
95.7686522595
 20
133.1112324786
  0
VERTEX
  8
SURFACE
 62
7
  6
CONTINUOUS
 10
95.2734842528
 20
133.1756987317
  0
VERTEX
  8
SURFACE
 62
7
  6
CONTINUOUS
 10
94.766835102
 20
133.282239555
  0
VERTEX
  8
SURFACE
 62
7
  6
CONTINUOUS
 10
94.2489952928
 20
133.4332242764
  0
VERTEX
  8
SURFACE
 62
7
  6
CONTINUOUS
 10
93.7204746325
 20
133.6309578399
  0
VERTEX
  8
SURFACE
 62
7
  6
CONTINUOUS
 10
93.1817249206
 20
133.8773540756
  0
SEQEND
  0
POLYLINE
  8
0
 62
7
  6
CONTINUOUS
 66
1
 70
0
  0
VERTEX
  8
0
 62
7
  6
CONTINUOUS
 10
88.9853164596
 20
158.3441459994
  0
VERTEX
  8
0
 62
7
  6
CONTINUOUS
 10
88.9157885596
 20
158.3272065375
  0
VERTEX
  8
0
 62
7
  6
CONTINUOUS
 10
88.8349099183
 20
158.3176950758
  0
VERTEX
  8
0
 62
7
  6
CONTINUOUS
 10
88.7563350248
 20
158.3188634182
  0
VERTEX
  8
0
 62
7
  6
CONTINUOUS
 10
88.6812474648
 20
158.3300678961
  0
VERTEX
  8
0
 62
7
  6
CONTINUOUS
 10
88.6108063508
 20
158.3506114554
  0
VERTEX
  8
0
 62
7
  6
CONTINUOUS
 10
88.5460972465
 20
158.379697653
  0
VERTEX
  8
0
 62
7
  6
CONTINUOUS
 10
88.4880022317
 20
158.4164731908
  0
VERTEX
  8
0
 62
7
  6
CONTINUOUS
 10
88.437356395
 20
158.4599327111
  0
VERTEX
  8
0
 62
7
  6
CONTINUOUS
 10
88.3948868174
 20
158.5088312626
  0
VERTEX
  8
0
 62
7
  6
CONTINUOUS
 10
88.3667272861
 20
158.5515653232
  0
SEQEND
  0
POLYLINE
  8
SURFACE
 62
7
  6
CONTINUOUS
 66
1
 70
0
  0
VERTEX
  8
SURFACE
 62
7
  6
CONTINUOUS
 10
107.3275389588
 20
141.1817778533
  0
VERTEX
  8
SURFACE
 62
7
  6
CONTINUOUS
 10
107.3476329044
 20
141.2504605119
  0
VERTEX
  8
SURFACE
 62
7
  6
CONTINUOUS
 10
107.3798350576
 20
141.3252592007
  0
VERTEX
  8
SURFACE
 62
7
  6
CONTINUOUS
 10
107.4201343185
 20
141.3927228834
  0
VERTEX
  8
SURFACE
 62
7
  6
CONTINUOUS
 10
107.4673814611
 20
141.4521483789
  0
VERTEX
  8
SURFACE
 62
7
  6
CONTINUOUS
 10
107.5203932623
 20
141.5028803935
  0
VERTEX
  8
SURFACE
 62
7
  6
CONTINUOUS
 10
107.5779372005
 20
141.5443770228
  0
VERTEX
  8
SURFACE
 62
7
  6
CONTINUOUS
 10
107.6388332578
 20
141.5763010125
  0
VERTEX
  8
SURFACE
 62
7
  6
CONTINUOUS
 10
107.7017932248
 20
141.5984318336
  0
VERTEX
  8
SURFACE
 62
7
  6
CONTINUOUS
 10
107.7653754014
 20
141.6107622909
  0
VERTEX
  8
SURFACE
 62
7
  6
CONTINUOUS
 10
107.8164639492
 20
141.6137821301
  0
SEQEND
  0
POLYLINE
  8
SURFACE
 62
7
  6
CONTINUOUS
 66
1
 70
0
  0
VERTEX
  8
SURFACE
 62
7
  6
CONTINUOUS
 10
103.791965872
 20
134.5593205085
  0
VERTEX
  8
SURFACE
 62
7
  6
CONTINUOUS
 10
103.8437090688
 20
134.6087544628
  0
VERTEX
  8
SURFACE
 62
7
  6
CONTINUOUS
 10
103.9089962959
 20
134.6574309509
  0
VERTEX
  8
SURFACE
 62
7
  6
CONTINUOUS
 10
103.9776283209
 20
134.6957065835
  0
VERTEX
  8
SURFACE
 62
7
  6
CONTINUOUS
 10
104.0482582944
 20
134.723547001
  0
VERTEX
  8
SURFACE
 62
7
  6
CONTINUOUS
 10
104.1195338682
 20
134.7409763138
  0
VERTEX
  8
SURFACE
 62
7
  6
CONTINUOUS
 10
104.1901166952
 20
134.7481414799
  0
VERTEX
  8
SURFACE
 62
7
  6
CONTINUOUS
 10
104.2588162228
 20
134.7453404373
  0
VERTEX
  8
SURFACE
 62
7
  6
CONTINUOUS
 10
104.3244065641
 20
134.733026307
  0
VERTEX
  8
SURFACE
 62
7
  6
CONTINUOUS
 10
104.3856355729
 20
134.711913708
  0
VERTEX
  8
SURFACE
 62
7
  6
CONTINUOUS
 10
104.4313894727
 20
134.6889846916
  0
SEQEND
  0
POLYLINE
  8
0
 62
7
  6
CONTINUOUS
 66
1
 70
0
  0
VERTEX
  8
0
 62
7
  6
CONTINUOUS
 10
96.488319299
 20
158.5934785618
  0
VERTEX
  8
0
 62
7
  6
CONTINUOUS
 10
96.4196366404
 20
158.6135725074
  0
VERTEX
  8
0
 62
7
  6
CONTINUOUS
 10
96.3448379516
 20
158.6457746606
  0
VERTEX
  8
0
 62
7
  6
CONTINUOUS
 10
96.2773742689
 20
158.6860739215
  0
VERTEX
  8
0
 62
7
  6
CONTINUOUS
 10
96.2179487734
 20
158.7333210641
  0
VERTEX
  8
0
 62
7
  6
CONTINUOUS
 10
96.1672167588
 20
158.7863328653
  0
VERTEX
  8
0
 62
7
  6
CONTINUOUS
 10
96.1257201294
 20
158.8438768035
  0
VERTEX
  8
0
 62
7
  6
CONTINUOUS
 10
96.0937961397
 20
158.9047728608
  0
VERTEX
  8
0
 62
7
  6
CONTINUOUS
 10
96.0716653186
 20
158.9677328278
  0
VERTEX
  8
0
 62
7
  6
CONTINUOUS
 10
96.0593348613
 20
159.0313150044
  0
VERTEX
  8
0
 62
7
  6
CONTINUOUS
 10
96.0563150221
 20
159.0824035522
  0
SEQEND
  0
POLYLINE
  8
SURFACE
 62
7
  6
CONTINUOUS
 66
1
 70
0
  0
VERTEX
  8
SURFACE
 62
7
  6
CONTINUOUS
 10
103.1107766431
 20
155.0579054741
  0
VERTEX
  8
SURFACE
 62
7
  6
CONTINUOUS
 10
103.0613464455
 20
155.1096442682
  0
VERTEX
  8
SURFACE
 62
7
  6
CONTINUOUS
 10
103.012672922
 20
155.1749255195
  0
VERTEX
  8
SURFACE
 62
7
  6
CONTINUOUS
 10
102.9743986768
 20
155.243550805
  0
VERTEX
  8
SURFACE
 62
7
  6
CONTINUOUS
 10
102.9465576517
 20
155.3141743026
  0
VERTEX
  8
SURFACE
 62
7
  6
CONTINUOUS
 10
102.9291257686
 20
155.3854449089
  0
VERTEX
  8
SURFACE
 62
7
  6
CONTINUOUS
 10
102.9219566214
 20
155.4560253466
  0
VERTEX
  8
SURFACE
 62
7
  6
CONTINUOUS
 10
102.9247533782
 20
155.5247263898
  0
VERTEX
  8
SURFACE
 62
7
  6
CONTINUOUS
 10
102.9370648782
 20
155.5903236494
  0
VERTEX
  8
SURFACE
 62
7
  6
CONTINUOUS
 10
102.9581783068
 20
155.6515632299
  0
VERTEX
  8
SURFACE
 62
7
  6
CONTINUOUS
 10
102.9811124827
 20
155.6973290683
  0
SEQEND
  0
POLYLINE
  8
SURFACE
 62
7
  6
CONTINUOUS
 66
1
 70
0
  0
VERTEX
  8
SURFACE
 62
7
  6
CONTINUOUS
 10
107.0782063964
 20
148.6847806926
  0
VERTEX
  8
SURFACE
 62
7
  6
CONTINUOUS
 10
107.0612669345
 20
148.7543085926
  0
VERTEX
  8
SURFACE
 62
7
  6
CONTINUOUS
 10
107.0517554728
 20
148.8351872339
  0
VERTEX
  8
SURFACE
 62
7
  6
CONTINUOUS
 10
107.0529238152
 20
148.9137621274
  0
VERTEX
  8
SURFACE
 62
7
  6
CONTINUOUS
 10
107.0641282931
 20
148.9888496874
  0
VERTEX
  8
SURFACE
 62
7
  6
CONTINUOUS
 10
107.0846718524
 20
149.0592908014
  0
VERTEX
  8
SURFACE
 62
7
  6
CONTINUOUS
 10
107.11375805
 20
149.1239999058
  0
VERTEX
  8
SURFACE
 62
7
  6
CONTINUOUS
 10
107.1505335878
 20
149.1820949205
  0
VERTEX
  8
SURFACE
 62
7
  6
CONTINUOUS
 10
107.1939931081
 20
149.2327407572
  0
VERTEX
  8
SURFACE
 62
7
  6
CONTINUOUS
 10
107.2428916596
 20
149.2752103348
  0
VERTEX
  8
SURFACE
 62
7
  6
CONTINUOUS
 10
107.2856257202
 20
149.3033698662
  0
SEQEND
  0
LINE
  8
SURFACE
 62
7
  6
CONTINUOUS
 10
110.2020787746
 20
146.822254402
 11
110.2020787746
 21
142.1137823532
  0
LINE
  8
0
 62
7
  6
CONTINUOUS
 10
90.8478427502
 20
161.4680183776
 11
95.556314799
 21
161.4680183776
  0
LINE
  8
0
 62
7
  6
CONTINUOUS
 10
99.663250571
 20
160.3675682542
 11
103.7409069783
 21
158.0133322297
  0
LINE
  8
SURFACE
 62
7
  6
CONTINUOUS
 10
106.7473926267
 20
155.0068465813
 11
109.1016286512
 21
150.929190174
  0
LINE
  8
SURFACE
 62
7
  6
CONTINUOUS
 10
109.1016286512
 20
138.0068465813
 11
106.7473926267
 21
133.929190174
  0
LINE
  8
SURFACE
 62
7
  6
CONTINUOUS
 10
103.7409069783
 20
130.9227045255
 11
99.663250571
 21
128.5684685011
  0
POLYLINE
  8
SURFACE
 62
7
  6
CONTINUOUS
 66
1
 70
0
  0
VERTEX
  8
SURFACE
 62
7
  6
CONTINUOUS
 10
76.2020787746
 20
234.0776147091
  0
VERTEX
  8
SURFACE
 62
7
  6
CONTINUOUS
 10
76.2070349978
 20
234.0073889376
  0
VERTEX
  8
SURFACE
 62
7
  6
CONTINUOUS
 10
76.2219448433
 20
233.9380747221
  0
VERTEX
  8
SURFACE
 62
7
  6
CONTINUOUS
 10
76.2465373286
 20
233.8715031108
  0
VERTEX
  8
SURFACE
 62
7
  6
CONTINUOUS
 10
76.2808578589
 20
233.8082210564
  0
VERTEX
  8
SURFACE
 62
7
  6
CONTINUOUS
 10
76.3237980688
 20
233.7506533848
  0
VERTEX
  8
SURFACE
 62
7
  6
CONTINUOUS
 10
76.3743264677
 20
233.7000191248
  0
VERTEX
  8
SURFACE
 62
7
  6
CONTINUOUS
 10
76.4321647985
 20
233.6567270216
  0
VERTEX
  8
SURFACE
 62
7
  6
CONTINUOUS
 10
76.4953143084
 20
233.6223692198
  0
VERTEX
  8
SURFACE
 62
7
  6
CONTINUOUS
 10
76.5622509196
 20
233.5975645337
  0
VERTEX
  8
SURFACE
 62
7
  6
CONTINUOUS
 10
76.6316203536
 20
233.5826039912
  0
VERTEX
  8
SURFACE
 62
7
  6
CONTINUOUS
 10
76.7020787746
 20
233.5776147091
  0
SEQEND
  0
LINE
  8
SURFACE
 62
7
  6
CONTINUOUS
 10
76.2020787746
 20
240.9924069157
 11
76.2020787746
 21
234.0776147091
  0
POLYLINE
  8
0
 62
7
  6
CONTINUOUS
 66
1
 70
0
  0
VERTEX
  8
0
 62
7
  6
CONTINUOUS
 10
77.7517052897
 20
236.3139209674
  0
VERTEX
  8
0
 62
7
  6
CONTINUOUS
 10
77.7128354118
 20
236.1274538628
  0
VERTEX
  8
0
 62
7
  6
CONTINUOUS
 10
77.6851344794
 20
235.9367718321
  0
VERTEX
  8
0
 62
7
  6
CONTINUOUS
 10
77.6684671775
 20
235.7437339196
  0
VERTEX
  8
0
 62
7
  6
CONTINUOUS
 10
77.6626671556
 20
235.549673544
  0
VERTEX
  8
0
 62
7
  6
CONTINUOUS
 10
77.6676512375
 20
235.3557188614
  0
VERTEX
  8
0
 62
7
  6
CONTINUOUS
 10
77.6834344323
 20
235.163084902
  0
VERTEX
  8
0
 62
7
  6
CONTINUOUS
 10
77.7101290109
 20
234.9729575017
  0
VERTEX
  8
0
 62
7
  6
CONTINUOUS
 10
77.7479293209
 20
234.7866793376
  0
VERTEX
  8
0
 62
7
  6
CONTINUOUS
 10
77.7971385643
 20
234.6056124587
  0
VERTEX
  8
0
 62
7
  6
CONTINUOUS
 10
77.8581744842
 20
234.4312481135
  0
VERTEX
  8
0
 62
7
  6
CONTINUOUS
 10
77.9313523459
 20
234.2657073064
  0
VERTEX
  8
0
 62
7
  6
CONTINUOUS
 10
78.0164360577
 20
234.1120564419
  0
VERTEX
  8
0
 62
7
  6
CONTINUOUS
 10
78.1120680345
 20
233.9741155709
  0
VERTEX
  8
0
 62
7
  6
CONTINUOUS
 10
78.2158412674
 20
233.8551371963
  0
VERTEX
  8
0
 62
7
  6
CONTINUOUS
 10
78.3237500487
 20
233.7576763419
  0
VERTEX
  8
0
 62
7
  6
CONTINUOUS
 10
78.4351146033
 20
233.6798105571
  0
VERTEX
  8
0
 62
7
  6
CONTINUOUS
 10
78.5493133784
 20
233.6201486297
  0
SEQEND
  0
POLYLINE
  8
0
 62
7
  6
CONTINUOUS
 66
1
 70
0
  0
VERTEX
  8
0
 62
7
  6
CONTINUOUS
 10
77.7517052897
 20
236.3139209674
  0
VERTEX
  8
0
 62
7
  6
CONTINUOUS
 10
77.7908719157
 20
236.496244529
  0
VERTEX
  8
0
 62
7
  6
CONTINUOUS
 10
77.8221087043
 20
236.6877896473
  0
VERTEX
  8
0
 62
7
  6
CONTINUOUS
 10
77.8447660624
 20
236.8864003908
  0
VERTEX
  8
0
 62
7
  6
CONTINUOUS
 10
77.8583743237
 20
237.0897829042
  0
VERTEX
  8
0
 62
7
  6
CONTINUOUS
 10
77.8626494723
 20
237.2955194369
  0
VERTEX
  8
0
 62
7
  6
CONTINUOUS
 10
77.8575001188
 20
237.5011874283
  0
VERTEX
  8
0
 62
7
  6
CONTINUOUS
 10
77.8430250786
 20
237.7043423285
  0
VERTEX
  8
0
 62
7
  6
CONTINUOUS
 10
77.8195111594
 20
237.9026088504
  0
VERTEX
  8
0
 62
7
  6
CONTINUOUS
 10
77.7874483716
 20
238.0936032075
  0
SEQEND
  0
LINE
  8
0
 62
7
  6
CONTINUOUS
 10
77.244656064
 20
240.897373287
 11
77.7874483716
 21
238.0936032075
  0
POLYLINE
  8
0
 62
7
  6
CONTINUOUS
 66
1
 70
0
  0
VERTEX
  8
0
 62
7
  6
CONTINUOUS
 10
81.7142010148
 20
233.9863469059
  0
VERTEX
  8
0
 62
7
  6
CONTINUOUS
 10
82.0883304301
 20
235.9066227865
  0
VERTEX
  8
0
 62
7
  6
CONTINUOUS
 10
82.4999575048
 20
237.8367390745
  0
VERTEX
  8
0
 62
7
  6
CONTINUOUS
 10
82.9096277695
 20
239.6090052588
  0
SEQEND
  0
LINE
  8
0
 62
7
  6
CONTINUOUS
 10
82.5200407707
 20
237.9052035693
 11
82.5541404567
 21
238.07892696
  0
POLYLINE
  8
0
 62
7
  6
CONTINUOUS
 66
1
 70
0
  0
VERTEX
  8
0
 62
7
  6
CONTINUOUS
 10
81.7141980936
 20
233.986331175
  0
VERTEX
  8
0
 62
7
  6
CONTINUOUS
 10
81.7015960198
 20
233.93421266
  0
VERTEX
  8
0
 62
7
  6
CONTINUOUS
 10
81.6775992008
 20
233.8703057727
  0
VERTEX
  8
0
 62
7
  6
CONTINUOUS
 10
81.6451697312
 20
233.8103395704
  0
VERTEX
  8
0
 62
7
  6
CONTINUOUS
 10
81.6040326791
 20
233.7543343754
  0
VERTEX
  8
0
 62
7
  6
CONTINUOUS
 10
81.5551157191
 20
233.7042057871
  0
VERTEX
  8
0
 62
7
  6
CONTINUOUS
 10
81.4983188186
 20
233.660505729
  0
VERTEX
  8
0
 62
7
  6
CONTINUOUS
 10
81.43625211
 20
233.6255600982
  0
VERTEX
  8
0
 62
7
  6
CONTINUOUS
 10
81.3671132495
 20
233.59895374
  0
VERTEX
  8
0
 62
7
  6
CONTINUOUS
 10
81.2953424542
 20
233.5829342688
  0
VERTEX
  8
0
 62
7
  6
CONTINUOUS
 10
81.2226013939
 20
233.5776147091
  0
SEQEND
  0
POLYLINE
  8
0
 62
7
  6
CONTINUOUS
 66
1
 70
0
  0
VERTEX
  8
0
 62
7
  6
CONTINUOUS
 10
82.5947861608
 20
236.3327746308
  0
VERTEX
  8
0
 62
7
  6
CONTINUOUS
 10
82.5527540613
 20
236.4991997234
  0
VERTEX
  8
0
 62
7
  6
CONTINUOUS
 10
82.5162879142
 20
236.6894290889
  0
VERTEX
  8
0
 62
7
  6
CONTINUOUS
 10
82.4899172054
 20
236.8877707674
  0
VERTEX
  8
0
 62
7
  6
CONTINUOUS
 10
82.4741546639
 20
237.091567834
  0
VERTEX
  8
0
 62
7
  6
CONTINUOUS
 10
82.4692976583
 20
237.2980694272
  0
VERTEX
  8
0
 62
7
  6
CONTINUOUS
 10
82.475440866
 20
237.5044281497
  0
VERTEX
  8
0
 62
7
  6
CONTINUOUS
 10
82.4924682528
 20
237.7077543263
  0
VERTEX
  8
0
 62
7
  6
CONTINUOUS
 10
82.5200407707
 20
237.9052035693
  0
SEQEND
  0
POLYLINE
  8
0
 62
7
  6
CONTINUOUS
 66
1
 70
0
  0
VERTEX
  8
0
 62
7
  6
CONTINUOUS
 10
83.3218605119
 20
236.3896366248
  0
VERTEX
  8
0
 62
7
  6
CONTINUOUS
 10
83.2508010589
 20
236.1938600615
  0
VERTEX
  8
0
 62
7
  6
CONTINUOUS
 10
83.1986799085
 20
235.9908679545
  0
VERTEX
  8
0
 62
7
  6
CONTINUOUS
 10
83.165984103
 20
235.7823443172
  0
VERTEX
  8
0
 62
7
  6
CONTINUOUS
 10
83.153227356
 20
235.5712746485
  0
VERTEX
  8
0
 62
7
  6
CONTINUOUS
 10
83.160500342
 20
235.3601140146
  0
VERTEX
  8
0
 62
7
  6
CONTINUOUS
 10
83.1876846604
 20
235.1510707407
  0
VERTEX
  8
0
 62
7
  6
CONTINUOUS
 10
83.2343647264
 20
234.9468238446
  0
VERTEX
  8
0
 62
7
  6
CONTINUOUS
 10
83.3001088212
 20
234.7491031628
  0
VERTEX
  8
0
 62
7
  6
CONTINUOUS
 10
83.3838963684
 20
234.5607812181
  0
VERTEX
  8
0
 62
7
  6
CONTINUOUS
 10
83.4849863079
 20
234.3833292226
  0
VERTEX
  8
0
 62
7
  6
CONTINUOUS
 10
83.6018392438
 20
234.2192566134
  0
VERTEX
  8
0
 62
7
  6
CONTINUOUS
 10
83.7332706981
 20
234.0699624472
  0
VERTEX
  8
0
 62
7
  6
CONTINUOUS
 10
83.8775779347
 20
233.9371593295
  0
VERTEX
  8
0
 62
7
  6
CONTINUOUS
 10
84.0329199514
 20
233.8222325348
  0
VERTEX
  8
0
 62
7
  6
CONTINUOUS
 10
84.1980445533
 20
233.7259029036
  0
VERTEX
  8
0
 62
7
  6
CONTINUOUS
 10
84.3703343562
 20
233.6494505784
  0
VERTEX
  8
0
 62
7
  6
CONTINUOUS
 10
84.5488742478
 20
233.5930827327
  0
SEQEND
  0
POLYLINE
  8
0
 62
7
  6
CONTINUOUS
 66
1
 70
0
  0
VERTEX
  8
0
 62
7
  6
CONTINUOUS
 10
83.3218605119
 20
236.3896366248
  0
VERTEX
  8
0
 62
7
  6
CONTINUOUS
 10
83.3856091171
 20
236.5612450153
  0
VERTEX
  8
0
 62
7
  6
CONTINUOUS
 10
83.4356189443
 20
236.7391745851
  0
VERTEX
  8
0
 62
7
  6
CONTINUOUS
 10
83.4714700105
 20
236.9220053869
  0
VERTEX
  8
0
 62
7
  6
CONTINUOUS
 10
83.4928136655
 20
237.1081443652
  0
VERTEX
  8
0
 62
7
  6
CONTINUOUS
 10
83.4994300937
 20
237.2959156885
  0
VERTEX
  8
0
 62
7
  6
CONTINUOUS
 10
83.4912458237
 20
237.4836332611
  0
VERTEX
  8
0
 62
7
  6
CONTINUOUS
 10
83.4683339345
 20
237.6696038237
  0
VERTEX
  8
0
 62
7
  6
CONTINUOUS
 10
83.4309120169
 20
237.852159862
  0
VERTEX
  8
0
 62
7
  6
CONTINUOUS
 10
83.37933565
 20
238.02967685
  0
SEQEND
  0
LINE
  8
0
 62
7
  6
CONTINUOUS
 10
82.439191067
 20
240.8334491015
 11
82.606848474
 21
240.3334481505
  0
LINE
  8
0
 62
7
  6
CONTINUOUS
 10
82.8847908325
 20
239.5045468449
 11
83.37933565
 21
238.02967685
  0
POLYLINE
  8
SURFACE
 62
7
  6
CONTINUOUS
 66
1
 70
0
  0
VERTEX
  8
SURFACE
 62
7
  6
CONTINUOUS
 10
101.8552922301
 20
233.5930850071
  0
VERTEX
  8
SURFACE
 62
7
  6
CONTINUOUS
 10
101.8172563147
 20
233.5849580176
  0
VERTEX
  8
SURFACE
 62
7
  6
CONTINUOUS
 10
101.7747353571
 20
233.5794548118
  0
VERTEX
  8
SURFACE
 62
7
  6
CONTINUOUS
 10
101.7318784239
 20
233.5776147091
  0
SEQEND
  0
POLYLINE
  8
SURFACE
 62
7
  6
CONTINUOUS
 66
1
 70
0
  0
VERTEX
  8
SURFACE
 62
7
  6
CONTINUOUS
 10
107.3299555342
 20
233.5776147091
  0
VERTEX
  8
SURFACE
 62
7
  6
CONTINUOUS
 10
107.3993645294
 20
233.5824557535
  0
VERTEX
  8
SURFACE
 62
7
  6
CONTINUOUS
 10
107.4658360452
 20
233.5964323251
  0
VERTEX
  8
SURFACE
 62
7
  6
CONTINUOUS
 10
107.5290050685
 20
233.6189434948
  0
VERTEX
  8
SURFACE
 62
7
  6
CONTINUOUS
 10
107.5885143496
 20
233.6496575395
  0
VERTEX
  8
SURFACE
 62
7
  6
CONTINUOUS
 10
107.6448123866
 20
233.6892010604
  0
VERTEX
  8
SURFACE
 62
7
  6
CONTINUOUS
 10
107.6953337026
 20
233.7362955124
  0
VERTEX
  8
SURFACE
 62
7
  6
CONTINUOUS
 10
107.7393823774
 20
233.7906135592
  0
VERTEX
  8
SURFACE
 62
7
  6
CONTINUOUS
 10
107.7761731811
 20
233.8520270065
  0
VERTEX
  8
SURFACE
 62
7
  6
CONTINUOUS
 10
107.8039055854
 20
233.9183308462
  0
VERTEX
  8
SURFACE
 62
7
  6
CONTINUOUS
 10
107.8208402576
 20
233.9825768848
  0
SEQEND
  0
POLYLINE
  8
0
 62
7
  6
CONTINUOUS
 66
1
 70
0
  0
VERTEX
  8
0
 62
7
  6
CONTINUOUS
 10
78.7511172093
 20
233.5776147091
  0
VERTEX
  8
0
 62
7
  6
CONTINUOUS
 10
78.6788813744
 20
233.5828602406
  0
VERTEX
  8
0
 62
7
  6
CONTINUOUS
 10
78.6053023676
 20
233.5993490592
  0
VERTEX
  8
0
 62
7
  6
CONTINUOUS
 10
78.5493087083
 20
233.6201506899
  0
SEQEND
  0
POLYLINE
  8
0
 62
7
  6
CONTINUOUS
 66
1
 70
0
  0
VERTEX
  8
0
 62
7
  6
CONTINUOUS
 10
84.5869012345
 20
233.5849580176
  0
VERTEX
  8
0
 62
7
  6
CONTINUOUS
 10
84.6294221922
 20
233.5794548118
  0
VERTEX
  8
0
 62
7
  6
CONTINUOUS
 10
84.6722791253
 20
233.5776147091
  0
SEQEND
  0
LINE
  8
0
 62
7
  6
CONTINUOUS
 10
84.5488653191
 20
233.5930850071
 11
84.5869012345
 21
233.5849580176
  0
POLYLINE
  8
0
 62
7
  6
CONTINUOUS
 66
1
 70
0
  0
VERTEX
  8
0
 62
7
  6
CONTINUOUS
 10
86.5739021906
 20
233.9206132477
  0
VERTEX
  8
0
 62
7
  6
CONTINUOUS
 10
87.2209413187
 20
235.8461456628
  0
VERTEX
  8
0
 62
7
  6
CONTINUOUS
 10
87.8906116004
 20
237.7778668772
  0
VERTEX
  8
0
 62
7
  6
CONTINUOUS
 10
88.5641147598
 20
239.6628496301
  0
SEQEND
  0
POLYLINE
  8
0
 62
7
  6
CONTINUOUS
 66
1
 70
0
  0
VERTEX
  8
0
 62
7
  6
CONTINUOUS
 10
88.5641148972
 20
239.6628501929
  0
VERTEX
  8
0
 62
7
  6
CONTINUOUS
 10
88.5850582571
 20
239.7121823195
  0
VERTEX
  8
0
 62
7
  6
CONTINUOUS
 10
88.6199741689
 20
239.7724858123
  0
VERTEX
  8
0
 62
7
  6
CONTINUOUS
 10
88.6629347613
 20
239.8273494639
  0
VERTEX
  8
0
 62
7
  6
CONTINUOUS
 10
88.7131056264
 20
239.8757076775
  0
VERTEX
  8
0
 62
7
  6
CONTINUOUS
 10
88.7695123226
 20
239.9166212176
  0
VERTEX
  8
0
 62
7
  6
CONTINUOUS
 10
88.8310591492
 20
239.9492953762
  0
VERTEX
  8
0
 62
7
  6
CONTINUOUS
 10
88.896550071
 20
239.9730954198
  0
VERTEX
  8
0
 62
7
  6
CONTINUOUS
 10
88.9647127107
 20
239.98755937
  0
SEQEND
  0
POLYLINE
  8
0
 62
7
  6
CONTINUOUS
 66
1
 70
0
  0
VERTEX
  8
0
 62
7
  6
CONTINUOUS
 10
86.0991911882
 20
233.5776147091
  0
VERTEX
  8
0
 62
7
  6
CONTINUOUS
 10
86.165730923
 20
233.5820620246
  0
VERTEX
  8
0
 62
7
  6
CONTINUOUS
 10
86.2304767529
 20
233.5951583905
  0
VERTEX
  8
0
 62
7
  6
CONTINUOUS
 10
86.293476505
 20
233.6169052409
  0
VERTEX
  8
0
 62
7
  6
CONTINUOUS
 10
86.3535677307
 20
233.6471584714
  0
VERTEX
  8
0
 62
7
  6
CONTINUOUS
 10
86.4095703612
 20
233.6856137315
  0
VERTEX
  8
0
 62
7
  6
CONTINUOUS
 10
86.4603091724
 20
233.7317913458
  0
VERTEX
  8
0
 62
7
  6
CONTINUOUS
 10
86.5046062957
 20
233.7849739953
  0
VERTEX
  8
0
 62
7
  6
CONTINUOUS
 10
86.5414454227
 20
233.8443526494
  0
VERTEX
  8
0
 62
7
  6
CONTINUOUS
 10
86.5697327824
 20
233.9085271448
  0
VERTEX
  8
0
 62
7
  6
CONTINUOUS
 10
86.5739117533
 20
233.9206421752
  0
SEQEND
  0
LINE
  8
SURFACE
 62
7
  6
CONTINUOUS
 10
101.7318784239
 20
233.5776147091
 11
100.3049662539
 21
233.5776147091
  0
LINE
  8
SURFACE
 62
7
  6
CONTINUOUS
 10
76.7020787746
 20
233.5776147091
 11
81.5456863967
 21
233.5776147091
  0
LINE
  8
0
 62
7
  6
CONTINUOUS
 10
84.6722791253
 20
233.5776147091
 11
86.0991912953
 21
233.5776147091
  0
LINE
  8
SURFACE
 62
7
  6
CONTINUOUS
 10
104.8584711525
 20
233.5776147091
 11
109.7020787746
 21
233.5776147091
  0
POLYLINE
  8
SURFACE
 62
7
  6
CONTINUOUS
 66
1
 70
0
  0
VERTEX
  8
SURFACE
 62
7
  6
CONTINUOUS
 10
100.304966361
 20
233.5776147091
  0
VERTEX
  8
SURFACE
 62
7
  6
CONTINUOUS
 10
100.2384266263
 20
233.5820620246
  0
VERTEX
  8
SURFACE
 62
7
  6
CONTINUOUS
 10
100.1736807963
 20
233.5951583905
  0
VERTEX
  8
SURFACE
 62
7
  6
CONTINUOUS
 10
100.1106810442
 20
233.6169052409
  0
VERTEX
  8
SURFACE
 62
7
  6
CONTINUOUS
 10
100.0505898185
 20
233.6471584714
  0
VERTEX
  8
SURFACE
 62
7
  6
CONTINUOUS
 10
99.994587188
 20
233.6856137315
  0
VERTEX
  8
SURFACE
 62
7
  6
CONTINUOUS
 10
99.9438483769
 20
233.7317913458
  0
VERTEX
  8
SURFACE
 62
7
  6
CONTINUOUS
 10
99.8995512536
 20
233.7849739953
  0
VERTEX
  8
SURFACE
 62
7
  6
CONTINUOUS
 10
99.8627121265
 20
233.8443526494
  0
VERTEX
  8
SURFACE
 62
7
  6
CONTINUOUS
 10
99.8344247669
 20
233.9085271448
  0
VERTEX
  8
SURFACE
 62
7
  6
CONTINUOUS
 10
99.8302457959
 20
233.9206421752
  0
SEQEND
  0
POLYLINE
  8
0
 62
7
  6
CONTINUOUS
 66
1
 70
0
  0
VERTEX
  8
0
 62
7
  6
CONTINUOUS
 10
81.7408149072
 20
233.6172619447
  0
VERTEX
  8
0
 62
7
  6
CONTINUOUS
 10
81.8512470189
 20
233.6720822153
  0
VERTEX
  8
0
 62
7
  6
CONTINUOUS
 10
81.9731228232
 20
233.752621086
  0
VERTEX
  8
0
 62
7
  6
CONTINUOUS
 10
82.0911302956
 20
233.8535912865
  0
VERTEX
  8
0
 62
7
  6
CONTINUOUS
 10
82.2029559086
 20
233.974245163
  0
VERTEX
  8
0
 62
7
  6
CONTINUOUS
 10
82.3064725965
 20
234.1129991235
  0
VERTEX
  8
0
 62
7
  6
CONTINUOUS
 10
82.3995427651
 20
234.2669723638
  0
VERTEX
  8
0
 62
7
  6
CONTINUOUS
 10
82.4806032947
 20
234.4326402081
  0
VERTEX
  8
0
 62
7
  6
CONTINUOUS
 10
82.5493159755
 20
234.6078846729
  0
VERTEX
  8
0
 62
7
  6
CONTINUOUS
 10
82.6055544231
 20
234.7911033264
  0
VERTEX
  8
0
 62
7
  6
CONTINUOUS
 10
82.6491304891
 20
234.9806501321
  0
VERTEX
  8
0
 62
7
  6
CONTINUOUS
 10
82.6798692327
 20
235.1749204004
  0
VERTEX
  8
0
 62
7
  6
CONTINUOUS
 10
82.6976194144
 20
235.3722585803
  0
VERTEX
  8
0
 62
7
  6
CONTINUOUS
 10
82.7022885775
 20
235.5710112131
  0
VERTEX
  8
0
 62
7
  6
CONTINUOUS
 10
82.6938522126
 20
235.7695223413
  0
VERTEX
  8
0
 62
7
  6
CONTINUOUS
 10
82.6723566011
 20
235.9661333215
  0
VERTEX
  8
0
 62
7
  6
CONTINUOUS
 10
82.637914896
 20
236.159190356
  0
VERTEX
  8
0
 62
7
  6
CONTINUOUS
 10
82.5947858936
 20
236.3327750464
  0
SEQEND
  0
LINE
  8
0
 62
7
  6
CONTINUOUS
 10
81.7407484785
 20
233.6172336638
 11
81.7407958439
 21
233.6172537355
  0
POLYLINE
  8
0
 62
7
  6
CONTINUOUS
 66
1
 70
0
  0
VERTEX
  8
0
 62
7
  6
CONTINUOUS
 10
81.7407484785
 20
233.6172336638
  0
VERTEX
  8
0
 62
7
  6
CONTINUOUS
 10
81.6840118695
 20
233.5971295285
  0
VERTEX
  8
0
 62
7
  6
CONTINUOUS
 10
81.6157780471
 20
233.5825519527
  0
VERTEX
  8
0
 62
7
  6
CONTINUOUS
 10
81.5456861995
 20
233.5776147091
  0
SEQEND
  0
POLYLINE
  8
0
 62
7
  6
CONTINUOUS
 66
1
 70
0
  0
VERTEX
  8
0
 62
7
  6
CONTINUOUS
 10
83.9473530681
 20
239.9873304508
  0
VERTEX
  8
0
 62
7
  6
CONTINUOUS
 10
83.9610113366
 20
239.9833564367
  0
VERTEX
  8
0
 62
7
  6
CONTINUOUS
 10
83.9651941872
 20
239.9816992101
  0
SEQEND
  0
LINE
  8
SURFACE
 62
7
  6
CONTINUOUS
 10
90.3815729375
 20
240.8118730913
 11
91.4671580255
 21
238.0081017907
  0
LINE
  8
DEFAULT_1
 62
2
  6
CENTER
 10
93.2020787746
 20
231.5773577034
 11
93.2020787746
 21
246.7870034479
  0
LINE
  8
0
 62
7
  6
CONTINUOUS
 10
83.923790628
 20
239.9912353134
 11
83.9473530681
 21
239.9873304508
  0
POLYLINE
  8
SURFACE
 62
7
  6
CONTINUOUS
 66
1
 70
0
  0
VERTEX
  8
SURFACE
 62
7
  6
CONTINUOUS
 10
104.6634090707
 20
233.6172336638
  0
VERTEX
  8
SURFACE
 62
7
  6
CONTINUOUS
 10
104.7201456797
 20
233.5971295285
  0
VERTEX
  8
SURFACE
 62
7
  6
CONTINUOUS
 10
104.7883795022
 20
233.5825519527
  0
VERTEX
  8
SURFACE
 62
7
  6
CONTINUOUS
 10
104.8584713498
 20
233.5776147091
  0
SEQEND
  0
LINE
  8
SURFACE
 62
7
  6
CONTINUOUS
 10
104.6634090707
 20
233.6172336638
 11
104.6633617054
 21
233.6172537355
  0
LINE
  8
SURFACE
 62
7
  6
CONTINUOUS
 10
93.3452637816
 20
233.8970808847
 11
96.0225846117
 21
240.8118730913
  0
LINE
  8
SURFACE
 62
7
  6
CONTINUOUS
 10
97.5745200792
 20
239.9924069157
 11
96.0478741004
 21
239.9924069157
  0
LINE
  8
0
 62
7
  6
CONTINUOUS
 10
86.8232498901
 20
239.9924069157
 11
82.7829929562
 21
239.9924069157
  0
LINE
  8
0
 62
7
  6
CONTINUOUS
 10
87.7632303715
 20
239.9924069157
 11
88.9715936727
 21
239.9924069157
  0
LINE
  8
SURFACE
 62
7
  6
CONTINUOUS
 10
86.8232498901
 20
239.9924069157
 11
90.3562834488
 21
239.9924069157
  0
POLYLINE
  8
0
 62
7
  6
CONTINUOUS
 66
1
 70
0
  0
VERTEX
  8
0
 62
7
  6
CONTINUOUS
 10
83.0809076591
 20
239.9924069157
  0
VERTEX
  8
0
 62
7
  6
CONTINUOUS
 10
83.0155702273
 20
239.9966942771
  0
VERTEX
  8
0
 62
7
  6
CONTINUOUS
 10
82.9517728616
 20
240.0093704739
  0
VERTEX
  8
0
 62
7
  6
CONTINUOUS
 10
82.8900080121
 20
240.0302842861
  0
VERTEX
  8
0
 62
7
  6
CONTINUOUS
 10
82.8308721552
 20
240.059414714
  0
VERTEX
  8
0
 62
7
  6
CONTINUOUS
 10
82.7756526593
 20
240.0964026416
  0
VERTEX
  8
0
 62
7
  6
CONTINUOUS
 10
82.7253653685
 20
240.140853677
  0
VERTEX
  8
0
 62
7
  6
CONTINUOUS
 10
82.6811898473
 20
240.192031033
  0
VERTEX
  8
0
 62
7
  6
CONTINUOUS
 10
82.6439874675
 20
240.2493004655
  0
VERTEX
  8
0
 62
7
  6
CONTINUOUS
 10
82.6147606179
 20
240.3115563255
  0
VERTEX
  8
0
 62
7
  6
CONTINUOUS
 10
82.6068434442
 20
240.3334631749
  0
SEQEND
  0
LINE
  8
0
 62
7
  6
CONTINUOUS
 10
88.9647127107
 20
239.98755937
 11
89.034166989
 21
239.9924067637
  0
POLYLINE
  8
SURFACE
 62
7
  6
CONTINUOUS
 66
1
 70
0
  0
VERTEX
  8
SURFACE
 62
7
  6
CONTINUOUS
 10
97.3699905602
 20
239.9924067637
  0
VERTEX
  8
SURFACE
 62
7
  6
CONTINUOUS
 10
97.4394448385
 20
239.98755937
  0
VERTEX
  8
SURFACE
 62
7
  6
CONTINUOUS
 10
97.5076074783
 20
239.9730954198
  0
VERTEX
  8
SURFACE
 62
7
  6
CONTINUOUS
 10
97.5730984001
 20
239.9492953762
  0
VERTEX
  8
SURFACE
 62
7
  6
CONTINUOUS
 10
97.6346452266
 20
239.9166212176
  0
VERTEX
  8
SURFACE
 62
7
  6
CONTINUOUS
 10
97.6910519228
 20
239.8757076775
  0
VERTEX
  8
SURFACE
 62
7
  6
CONTINUOUS
 10
97.7412227879
 20
239.8273494639
  0
VERTEX
  8
SURFACE
 62
7
  6
CONTINUOUS
 10
97.7841833804
 20
239.7724858123
  0
VERTEX
  8
SURFACE
 62
7
  6
CONTINUOUS
 10
97.8190992921
 20
239.7121823195
  0
VERTEX
  8
SURFACE
 62
7
  6
CONTINUOUS
 10
97.840042652
 20
239.6628501929
  0
SEQEND
  0
POLYLINE
  8
0
 62
7
  6
CONTINUOUS
 66
1
 70
0
  0
VERTEX
  8
0
 62
7
  6
CONTINUOUS
 10
82.913250571
 20
241.4924069157
  0
VERTEX
  8
0
 62
7
  6
CONTINUOUS
 10
82.8408499033
 20
241.48713729
  0
VERTEX
  8
0
 62
7
  6
CONTINUOUS
 10
82.7703640357
 20
241.4715555753
  0
VERTEX
  8
0
 62
7
  6
CONTINUOUS
 10
82.703163914
 20
241.4461288532
  0
VERTEX
  8
0
 62
7
  6
CONTINUOUS
 10
82.6403021736
 20
241.4113331292
  0
VERTEX
  8
0
 62
7
  6
CONTINUOUS
 10
82.5826831808
 20
241.3675404927
  0
VERTEX
  8
0
 62
7
  6
CONTINUOUS
 10
82.5319782855
 20
241.3158747569
  0
VERTEX
  8
0
 62
7
  6
CONTINUOUS
 10
82.4890538613
 20
241.2570900309
  0
VERTEX
  8
0
 62
7
  6
CONTINUOUS
 10
82.4550621141
 20
241.192565198
  0
VERTEX
  8
0
 62
7
  6
CONTINUOUS
 10
82.4306906264
 20
241.1233110788
  0
VERTEX
  8
0
 62
7
  6
CONTINUOUS
 10
82.4167479892
 20
241.0514423823
  0
VERTEX
  8
0
 62
7
  6
CONTINUOUS
 10
82.413466043
 20
240.9777295315
  0
VERTEX
  8
0
 62
7
  6
CONTINUOUS
 10
82.4210461816
 20
240.9044589819
  0
VERTEX
  8
0
 62
7
  6
CONTINUOUS
 10
82.4391913857
 20
240.8334481509
  0
SEQEND
  0
LINE
  8
0
 62
7
  6
CONTINUOUS
 10
90.8478427502
 20
241.4924069157
 11
90.0291359346
 21
241.4924069157
  0
LINE
  8
0
 62
7
  6
CONTINUOUS
 10
89.1306951693
 20
241.4924069157
 11
87.9337143883
 21
241.4924069157
  0
LINE
  8
0
 62
7
  6
CONTINUOUS
 10
86.9909069783
 20
241.4924069157
 11
77.7355416
 21
241.4924069157
  0
LINE
  8
SURFACE
 62
7
  6
CONTINUOUS
 10
77.7355416
 20
241.4924069157
 11
76.7020787746
 21
241.4924069157
  0
LINE
  8
0
 62
7
  6
CONTINUOUS
 10
95.556314799
 20
241.4924069157
 11
96.3750216147
 21
241.4924069157
  0
LINE
  8
SURFACE
 62
7
  6
CONTINUOUS
 10
86.9909069783
 20
241.4924069157
 11
109.7020787746
 21
241.4924069157
  0
POLYLINE
  8
SURFACE
 62
7
  6
CONTINUOUS
 66
1
 70
0
  0
VERTEX
  8
SURFACE
 62
7
  6
CONTINUOUS
 10
103.4909069783
 20
241.4924069157
  0
VERTEX
  8
SURFACE
 62
7
  6
CONTINUOUS
 10
103.5633076606
 20
241.4871372879
  0
VERTEX
  8
SURFACE
 62
7
  6
CONTINUOUS
 10
103.6337935419
 20
241.4715555669
  0
VERTEX
  8
SURFACE
 62
7
  6
CONTINUOUS
 10
103.7009936753
 20
241.4461288346
  0
VERTEX
  8
SURFACE
 62
7
  6
CONTINUOUS
 10
103.763855425
 20
241.411333097
  0
VERTEX
  8
SURFACE
 62
7
  6
CONTINUOUS
 10
103.8214744237
 20
241.3675404439
  0
VERTEX
  8
SURFACE
 62
7
  6
CONTINUOUS
 10
103.8721793212
 20
241.3158746892
  0
VERTEX
  8
SURFACE
 62
7
  6
CONTINUOUS
 10
103.9151037431
 20
241.2570899426
  0
VERTEX
  8
SURFACE
 62
7
  6
CONTINUOUS
 10
103.949095483
 20
241.1925650885
  0
VERTEX
  8
SURFACE
 62
7
  6
CONTINUOUS
 10
103.9734669581
 20
241.1233109485
  0
VERTEX
  8
SURFACE
 62
7
  6
CONTINUOUS
 10
103.9874095778
 20
241.0514422331
  0
VERTEX
  8
SURFACE
 62
7
  6
CONTINUOUS
 10
103.9906915014
 20
240.9777293656
  0
VERTEX
  8
SURFACE
 62
7
  6
CONTINUOUS
 10
103.9831113358
 20
240.9044588035
  0
VERTEX
  8
SURFACE
 62
7
  6
CONTINUOUS
 10
103.9649661635
 20
240.833448151
  0
SEQEND
  0
POLYLINE
  8
0
 62
7
  6
CONTINUOUS
 66
1
 70
0
  0
VERTEX
  8
0
 62
7
  6
CONTINUOUS
 10
77.7355416
 20
241.4924069157
  0
VERTEX
  8
0
 62
7
  6
CONTINUOUS
 10
77.6621900062
 20
241.4869971943
  0
VERTEX
  8
0
 62
7
  6
CONTINUOUS
 10
77.5897888505
 20
241.4706914921
  0
VERTEX
  8
0
 62
7
  6
CONTINUOUS
 10
77.5204436685
 20
241.4437747035
  0
VERTEX
  8
0
 62
7
  6
CONTINUOUS
 10
77.455683701
 20
241.4067492335
  0
VERTEX
  8
0
 62
7
  6
CONTINUOUS
 10
77.3976614148
 20
241.3609676033
  0
VERTEX
  8
0
 62
7
  6
CONTINUOUS
 10
77.3471949212
 20
241.3073463656
  0
VERTEX
  8
0
 62
7
  6
CONTINUOUS
 10
77.3053486095
 20
241.2472284042
  0
VERTEX
  8
0
 62
7
  6
CONTINUOUS
 10
77.2729100199
 20
241.1820698302
  0
VERTEX
  8
0
 62
7
  6
CONTINUOUS
 10
77.2502647064
 20
241.1128491696
  0
VERTEX
  8
0
 62
7
  6
CONTINUOUS
 10
77.2379759744
 20
241.0416862037
  0
VERTEX
  8
0
 62
7
  6
CONTINUOUS
 10
77.2360637589
 20
240.9695620857
  0
VERTEX
  8
0
 62
7
  6
CONTINUOUS
 10
77.2446558274
 20
240.897374509
  0
SEQEND
  0
POLYLINE
  8
SURFACE
 62
7
  6
CONTINUOUS
 66
1
 70
0
  0
VERTEX
  8
SURFACE
 62
7
  6
CONTINUOUS
 10
108.6686159493
 20
241.4924069157
  0
VERTEX
  8
SURFACE
 62
7
  6
CONTINUOUS
 10
108.741967543
 20
241.4869971943
  0
VERTEX
  8
SURFACE
 62
7
  6
CONTINUOUS
 10
108.8143686987
 20
241.4706914921
  0
VERTEX
  8
SURFACE
 62
7
  6
CONTINUOUS
 10
108.8837138808
 20
241.4437747035
  0
VERTEX
  8
SURFACE
 62
7
  6
CONTINUOUS
 10
108.9484738483
 20
241.4067492335
  0
VERTEX
  8
SURFACE
 62
7
  6
CONTINUOUS
 10
109.0064961345
 20
241.3609676033
  0
VERTEX
  8
SURFACE
 62
7
  6
CONTINUOUS
 10
109.056962628
 20
241.3073463656
  0
VERTEX
  8
SURFACE
 62
7
  6
CONTINUOUS
 10
109.0988089397
 20
241.2472284042
  0
VERTEX
  8
SURFACE
 62
7
  6
CONTINUOUS
 10
109.1312475293
 20
241.1820698302
  0
VERTEX
  8
SURFACE
 62
7
  6
CONTINUOUS
 10
109.1538928429
 20
241.1128491696
  0
VERTEX
  8
SURFACE
 62
7
  6
CONTINUOUS
 10
109.1661815749
 20
241.0416862037
  0
VERTEX
  8
SURFACE
 62
7
  6
CONTINUOUS
 10
109.1680937904
 20
240.9695620857
  0
VERTEX
  8
SURFACE
 62
7
  6
CONTINUOUS
 10
109.1595017218
 20
240.897374509
  0
SEQEND
  0
POLYLINE
  8
SURFACE
 62
7
  6
CONTINUOUS
 66
1
 70
0
  0
VERTEX
  8
SURFACE
 62
7
  6
CONTINUOUS
 10
97.8400427894
 20
239.6628496301
  0
VERTEX
  8
SURFACE
 62
7
  6
CONTINUOUS
 10
98.5135459489
 20
237.7778668772
  0
VERTEX
  8
SURFACE
 62
7
  6
CONTINUOUS
 10
99.1832162305
 20
235.8461456628
  0
VERTEX
  8
SURFACE
 62
7
  6
CONTINUOUS
 10
99.8302553586
 20
233.9206132477
  0
SEQEND
  0
LINE
  8
SURFACE
 62
7
  6
CONTINUOUS
 10
103.9649665873
 20
240.8334494148
 11
103.0248218992
 21
238.02967685
  0
POLYLINE
  8
SURFACE
 62
7
  6
CONTINUOUS
 66
1
 70
0
  0
VERTEX
  8
SURFACE
 62
7
  6
CONTINUOUS
 10
103.0822970373
 20
236.3896366248
  0
VERTEX
  8
SURFACE
 62
7
  6
CONTINUOUS
 10
103.0185484322
 20
236.5612450153
  0
VERTEX
  8
SURFACE
 62
7
  6
CONTINUOUS
 10
102.9685386049
 20
236.7391745851
  0
VERTEX
  8
SURFACE
 62
7
  6
CONTINUOUS
 10
102.9326875387
 20
236.9220053869
  0
VERTEX
  8
SURFACE
 62
7
  6
CONTINUOUS
 10
102.9113438837
 20
237.1081443652
  0
VERTEX
  8
SURFACE
 62
7
  6
CONTINUOUS
 10
102.9047274556
 20
237.2959156885
  0
VERTEX
  8
SURFACE
 62
7
  6
CONTINUOUS
 10
102.9129117255
 20
237.4836332611
  0
VERTEX
  8
SURFACE
 62
7
  6
CONTINUOUS
 10
102.9358236147
 20
237.6696038237
  0
VERTEX
  8
SURFACE
 62
7
  6
CONTINUOUS
 10
102.9732455323
 20
237.852159862
  0
VERTEX
  8
SURFACE
 62
7
  6
CONTINUOUS
 10
103.0248218992
 20
238.02967685
  0
SEQEND
  0
POLYLINE
  8
SURFACE
 62
7
  6
CONTINUOUS
 66
1
 70
0
  0
VERTEX
  8
SURFACE
 62
7
  6
CONTINUOUS
 10
103.0822970373
 20
236.3896366248
  0
VERTEX
  8
SURFACE
 62
7
  6
CONTINUOUS
 10
103.1533564903
 20
236.1938600615
  0
VERTEX
  8
SURFACE
 62
7
  6
CONTINUOUS
 10
103.2054776407
 20
235.9908679545
  0
VERTEX
  8
SURFACE
 62
7
  6
CONTINUOUS
 10
103.2381734462
 20
235.7823443172
  0
VERTEX
  8
SURFACE
 62
7
  6
CONTINUOUS
 10
103.2509301933
 20
235.5712746485
  0
VERTEX
  8
SURFACE
 62
7
  6
CONTINUOUS
 10
103.2436572072
 20
235.3601140146
  0
VERTEX
  8
SURFACE
 62
7
  6
CONTINUOUS
 10
103.2164728888
 20
235.1510707407
  0
VERTEX
  8
SURFACE
 62
7
  6
CONTINUOUS
 10
103.1697928229
 20
234.9468238446
  0
VERTEX
  8
SURFACE
 62
7
  6
CONTINUOUS
 10
103.104048728
 20
234.7491031628
  0
VERTEX
  8
SURFACE
 62
7
  6
CONTINUOUS
 10
103.0202611808
 20
234.5607812181
  0
VERTEX
  8
SURFACE
 62
7
  6
CONTINUOUS
 10
102.9191712413
 20
234.3833292226
  0
VERTEX
  8
SURFACE
 62
7
  6
CONTINUOUS
 10
102.8023183054
 20
234.2192566134
  0
VERTEX
  8
SURFACE
 62
7
  6
CONTINUOUS
 10
102.6708868511
 20
234.0699624472
  0
VERTEX
  8
SURFACE
 62
7
  6
CONTINUOUS
 10
102.5265796145
 20
233.9371593295
  0
VERTEX
  8
SURFACE
 62
7
  6
CONTINUOUS
 10
102.3712375979
 20
233.8222325348
  0
VERTEX
  8
SURFACE
 62
7
  6
CONTINUOUS
 10
102.2061129959
 20
233.7259029036
  0
VERTEX
  8
SURFACE
 62
7
  6
CONTINUOUS
 10
102.0338231931
 20
233.6494505784
  0
VERTEX
  8
SURFACE
 62
7
  6
CONTINUOUS
 10
101.8552833014
 20
233.5930827327
  0
SEQEND
  0
POLYLINE
  8
SURFACE
 62
7
  6
CONTINUOUS
 66
1
 70
0
  0
VERTEX
  8
SURFACE
 62
7
  6
CONTINUOUS
 10
103.8093716556
 20
236.3327750464
  0
VERTEX
  8
SURFACE
 62
7
  6
CONTINUOUS
 10
103.7662426532
 20
236.159190356
  0
VERTEX
  8
SURFACE
 62
7
  6
CONTINUOUS
 10
103.7318009482
 20
235.9661333215
  0
VERTEX
  8
SURFACE
 62
7
  6
CONTINUOUS
 10
103.7103053367
 20
235.7695223413
  0
VERTEX
  8
SURFACE
 62
7
  6
CONTINUOUS
 10
103.7018689717
 20
235.5710112131
  0
VERTEX
  8
SURFACE
 62
7
  6
CONTINUOUS
 10
103.7065381349
 20
235.3722585803
  0
VERTEX
  8
SURFACE
 62
7
  6
CONTINUOUS
 10
103.7242883165
 20
235.1749204004
  0
VERTEX
  8
SURFACE
 62
7
  6
CONTINUOUS
 10
103.7550270601
 20
234.9806501321
  0
VERTEX
  8
SURFACE
 62
7
  6
CONTINUOUS
 10
103.7986031261
 20
234.7911033264
  0
VERTEX
  8
SURFACE
 62
7
  6
CONTINUOUS
 10
103.8548415737
 20
234.6078846729
  0
VERTEX
  8
SURFACE
 62
7
  6
CONTINUOUS
 10
103.9235542545
 20
234.4326402081
  0
VERTEX
  8
SURFACE
 62
7
  6
CONTINUOUS
 10
104.0046147841
 20
234.2669723638
  0
VERTEX
  8
SURFACE
 62
7
  6
CONTINUOUS
 10
104.0976849527
 20
234.1129991235
  0
VERTEX
  8
SURFACE
 62
7
  6
CONTINUOUS
 10
104.2012016407
 20
233.974245163
  0
VERTEX
  8
SURFACE
 62
7
  6
CONTINUOUS
 10
104.3130272537
 20
233.8535912865
  0
VERTEX
  8
SURFACE
 62
7
  6
CONTINUOUS
 10
104.4310347261
 20
233.752621086
  0
VERTEX
  8
SURFACE
 62
7
  6
CONTINUOUS
 10
104.5529105303
 20
233.6720822153
  0
VERTEX
  8
SURFACE
 62
7
  6
CONTINUOUS
 10
104.663342642
 20
233.6172619447
  0
SEQEND
  0
POLYLINE
  8
SURFACE
 62
7
  6
CONTINUOUS
 66
1
 70
0
  0
VERTEX
  8
SURFACE
 62
7
  6
CONTINUOUS
 10
103.5193667167
 20
239.5045468449
  0
VERTEX
  8
SURFACE
 62
7
  6
CONTINUOUS
 10
103.5934577208
 20
239.1929367808
  0
VERTEX
  8
SURFACE
 62
7
  6
CONTINUOUS
 10
103.7246535001
 20
238.6298213886
  0
VERTEX
  8
SURFACE
 62
7
  6
CONTINUOUS
 10
103.8500167154
 20
238.0789288303
  0
SEQEND
  0
LINE
  8
SURFACE
 62
7
  6
CONTINUOUS
 10
103.5189578488
 20
239.5033274872
 11
103.8483077057
 21
238.0785337822
  0
POLYLINE
  8
SURFACE
 62
7
  6
CONTINUOUS
 66
1
 70
0
  0
VERTEX
  8
SURFACE
 62
7
  6
CONTINUOUS
 10
103.8500170925
 20
238.07892696
  0
VERTEX
  8
SURFACE
 62
7
  6
CONTINUOUS
 10
103.8841167786
 20
237.9052035693
  0
VERTEX
  8
SURFACE
 62
7
  6
CONTINUOUS
 10
103.9116892964
 20
237.7077543263
  0
VERTEX
  8
SURFACE
 62
7
  6
CONTINUOUS
 10
103.9287166833
 20
237.5044281497
  0
VERTEX
  8
SURFACE
 62
7
  6
CONTINUOUS
 10
103.9348598909
 20
237.2980694272
  0
VERTEX
  8
SURFACE
 62
7
  6
CONTINUOUS
 10
103.9300028854
 20
237.091567834
  0
VERTEX
  8
SURFACE
 62
7
  6
CONTINUOUS
 10
103.9142403439
 20
236.8877707674
  0
VERTEX
  8
SURFACE
 62
7
  6
CONTINUOUS
 10
103.8878696351
 20
236.6894290889
  0
VERTEX
  8
SURFACE
 62
7
  6
CONTINUOUS
 10
103.8514034879
 20
236.4991997234
  0
VERTEX
  8
SURFACE
 62
7
  6
CONTINUOUS
 10
103.8093713884
 20
236.3327746308
  0
SEQEND
  0
LINE
  8
SURFACE
 62
7
  6
CONTINUOUS
 10
107.8208413066
 20
233.9825823015
 11
109.1595014852
 21
240.897373287
  0
LINE
  8
SURFACE
 62
7
  6
CONTINUOUS
 10
110.2020787746
 20
234.0776147091
 11
110.2020787746
 21
240.9924069157
  0
POLYLINE
  8
SURFACE
 62
7
  6
CONTINUOUS
 66
1
 70
0
  0
VERTEX
  8
SURFACE
 62
7
  6
CONTINUOUS
 10
110.2020787746
 20
234.0776147091
  0
VERTEX
  8
SURFACE
 62
7
  6
CONTINUOUS
 10
110.1971225515
 20
234.0073889376
  0
VERTEX
  8
SURFACE
 62
7
  6
CONTINUOUS
 10
110.1822127059
 20
233.9380747221
  0
VERTEX
  8
SURFACE
 62
7
  6
CONTINUOUS
 10
110.1576202206
 20
233.8715031108
  0
VERTEX
  8
SURFACE
 62
7
  6
CONTINUOUS
 10
110.1232996903
 20
233.8082210564
  0
VERTEX
  8
SURFACE
 62
7
  6
CONTINUOUS
 10
110.0803594805
 20
233.7506533848
  0
VERTEX
  8
SURFACE
 62
7
  6
CONTINUOUS
 10
110.0298310816
 20
233.7000191248
  0
VERTEX
  8
SURFACE
 62
7
  6
CONTINUOUS
 10
109.9719927507
 20
233.6567270216
  0
VERTEX
  8
SURFACE
 62
7
  6
CONTINUOUS
 10
109.9088432408
 20
233.6223692198
  0
VERTEX
  8
SURFACE
 62
7
  6
CONTINUOUS
 10
109.8419066296
 20
233.5975645337
  0
VERTEX
  8
SURFACE
 62
7
  6
CONTINUOUS
 10
109.7725371956
 20
233.5826039912
  0
VERTEX
  8
SURFACE
 62
7
  6
CONTINUOUS
 10
109.7020787746
 20
233.5776147091
  0
SEQEND
  0
ARC
  8
SURFACE
 62
7
  6
CONTINUOUS
 10
93.2020787746
 20
144.4680183776
 40
14.5026892153
 50
43.0967022513
 51
46.9032977494
  0
ARC
  8
SURFACE
 62
7
  6
CONTINUOUS
 10
93.2020787746
 20
144.4680183776
 40
14.5026892153
 50
13.0967022513
 51
16.9032977501
  0
ARC
  8
SURFACE
 62
7
  6
CONTINUOUS
 10
93.2020787746
 20
144.4680183776
 40
14.5026892153
 50
343.0967022513
 51
346.9032977501
  0
ARC
  8
SURFACE
 62
7
  6
CONTINUOUS
 10
93.2020787746
 20
144.4680183776
 40
14.5026892153
 50
313.0967022513
 51
316.9032977501
  0
ARC
  8
SURFACE
 62
7
  6
CONTINUOUS
 10
93.2020787746
 20
144.4680183776
 40
14.5026892153
 50
283.0967022513
 51
286.9032977501
  0
ARC
  8
SURFACE
 62
7
  6
CONTINUOUS
 10
93.2020787746
 20
144.4680183776
 40
14.5026892153
 50
253.0967022521
 51
256.9032977501
  0
ARC
  8
0
 62
7
  6
CONTINUOUS
 10
93.2020787746
 20
144.4680183776
 40
14.5026892153
 50
223.0967022513
 51
226.9032977494
  0
ARC
  8
0
 62
7
  6
CONTINUOUS
 10
93.2020787746
 20
144.4680183776
 40
14.5026892153
 50
193.0967022513
 51
196.9032977501
  0
ARC
  8
0
 62
7
  6
CONTINUOUS
 10
93.2020787746
 20
144.4680183776
 40
14.5026892153
 50
163.0967022513
 51
166.9032977501
  0
ARC
  8
0
 62
7
  6
CONTINUOUS
 10
93.2020787746
 20
144.4680183776
 40
14.5026892153
 50
133.0967022513
 51
136.9032977501
  0
ARC
  8
0
 62
7
  6
CONTINUOUS
 10
93.2020787746
 20
144.4680183776
 40
14.5026892153
 50
103.0967022513
 51
106.9032977501
  0
ARC
  8
0
 62
7
  6
CONTINUOUS
 10
93.2020787746
 20
144.4680183776
 40
14.5026892153
 50
73.0967022521
 51
76.9032977501
  0
ARC
  8
SURFACE
 62
7
  6
CONTINUOUS
 10
89.6020787746
 20
237.2859664931
 40
2.0
 50
334.1580672368
 51
21.1657784726
  0
ARC
  8
SURFACE
 62
7
  6
CONTINUOUS
 10
92.8789939689
 20
234.0776147091
 40
0.5
 50
257.5611050034
 51
338.8342214947
  0
ARC
  8
SURFACE
 62
7
  6
CONTINUOUS
 10
76.7020787746
 20
240.9924069157
 40
0.5
 50
90.0
 51
180.0
  0
ARC
  8
SURFACE
 62
7
  6
CONTINUOUS
 10
90.3562834488
 20
239.4924069157
 40
0.5
 50
21.1657784727
 51
90.0
  0
ARC
  8
SURFACE
 62
7
  6
CONTINUOUS
 10
90.8478427502
 20
240.9924069157
 40
0.5
 50
90.0
 51
201.1657784726
  0
ARC
  8
0
 62
7
  6
CONTINUOUS
 10
83.3958424632
 20
239.4924069157
 40
0.4999999671
 50
90.0197566662
 51
166.5144763483
  0
ARC
  8
0
 62
7
  6
CONTINUOUS
 10
90.3562833511
 20
239.492407168
 40
0.4999998739
 50
21.1657474705
 51
29.3225485541
  0
ARC
  8
0
 62
7
  6
CONTINUOUS
 10
90.3562841137
 20
239.4924069157
 40
0.4999996876
 50
81.8431811527
 51
90.0000761932
  0
ARC
  8
0
 62
7
  6
CONTINUOUS
 10
96.8020787746
 20
237.2859664931
 40
2.0
 50
158.8339182306
 51
205.8419165723
  0
ARC
  8
0
 62
7
  6
CONTINUOUS
 10
93.2020787746
 20
235.5424069157
 40
2.0
 50
282.4384011458
 51
25.8419327632
  0
ARC
  8
SURFACE
 62
7
  6
CONTINUOUS
 10
93.2020787746
 20
235.5424069157
 40
2.0
 50
154.1580672368
 51
257.5614753918
  0
ARC
  8
0
 62
7
  6
CONTINUOUS
 10
93.5251635803
 20
234.0776147091
 40
0.5
 50
229.6241790028
 51
282.4384011468
  0
ARC
  8
0
 62
7
  6
CONTINUOUS
 10
96.0478741004
 20
239.4924069157
 40
0.5
 50
150.6774232059
 51
158.8342215273
  0
ARC
  8
0
 62
7
  6
CONTINUOUS
 10
96.0478741004
 20
239.4924069157
 40
0.5
 50
90.0
 51
98.156805503
  0
ARC
  8
SURFACE
 62
7
  6
CONTINUOUS
 10
95.556314799
 20
240.9924069157
 40
0.5
 50
338.8342215274
 51
90.0
  0
ARC
  8
SURFACE
 62
7
  6
CONTINUOUS
 10
109.7020787746
 20
240.9924069157
 40
0.5
 50
0.0
 51
90.0
  0
ARC
  8
SURFACE
 62
7
  6
CONTINUOUS
 10
96.0478734355
 20
239.4924069157
 40
0.4999996876
 50
89.9999238068
 51
158.8341940164
  0
ENDSEC
  0
EOF
