  0
SECTION
  2
HEADER
  9
$EXTMAX
 10
210.0
 20
297.0
 30
0.0
  9
$EXTMIN
 10
0.0
 20
0.0
 30
0.0
  9
$LIMMIN
 10
0.0
 20
0.0
  9
$LIMMAX
 10
210.0
 20
297.0
  9
$VIEWCTR
 10
105.0
 20
148.5
  9
$VIEWSIZE
 40
297.0
  9
$CLAYER
  8
0
  9
$LTSCALE
 40
19.36
  9
$CELTYPE
  6
BYLAYER
  9
$DIMSCALE
 40
1.0
  9
$DIMASZ
 40
3.5
  9
$DIMEXO
 40
2.2
  9
$DIMDLI
 40
13.376
  9
$DIMEXE
 40
6.336
  9
$DIMCEN
 40
3.168
  9
$DIMLFAC
 40
1.0
  9
$DIMBLK
  1
_FILLED
  9
$DIMTXT
 40
3.5
  9
$PDMODE
 70
3
  9
$PDSIZE
 40
0.3125
  9
$TILEMODE
 70
1
  0
ENDSEC
  0
SECTION
  2
TABLES
  0
TABLE
  2
LTYPE
 70
6
  0
LTYPE
  2
BYBLOCK
 70
0
  3

 72
65
 73
0
 40
0.0
  0
LTYPE
  2
BYLAYER
 70
0
  3

 72
65
 73
0
 40
0.0
  0
LTYPE
  2
CONTINUOUS
 70
64
  3
Solid line
 72
65
 73
0
 40
0.0
  0
LTYPE
  2
CENTER
 70
64
  3
____ _ ____ _ ____ _ ____ _ ____ _ ____ _ ____
 72
65
 73
4
 40
0.6
 49
0.375
 49
-0.075
 49
0.075
 49
-0.075
  0
LTYPE
  2
HIDDEN
 70
64
  3
- - - - - - - - - - - - - - - - - - - -
 72
65
 73
2
 40
0.2
 49
0.1
 49
-0.1
  0
LTYPE
  2
PHANTOM
 70
64
  3
_____ _ _ _____ _ _ _____ _ _ _____
 72
65
 73
6
 40
0.8
 49
0.45
 49
-0.05
 49
0.1
 49
-0.05
 49
0.1
 49
-0.05
  0
LTYPE
  2
DOT
 70
64
  3
. . . . . . . . . . . . . . . . . . . .
 72
65
 73
2
 40
0.2
 49
0.1
 49
-0.1
  0
LTYPE
  2
DASHED
 70
64
  3
- - - - - - - - - - - - - - - - - - - -
 72
65
 73
2
 40
0.2
 49
0.1
 49
-0.1
  0
ENDTAB
  0
TABLE
  2
LAYER
 70
36
  0
LAYER
  2
0
 70
0
 62
7
  6
CONTINUOUS
  0
LAYER
  2
DEFAULT_1
 70
0
 62
7
  6
CENTER
  0
LAYER
  2
DEFAULT_2
 70
0
 62
8
  6
HIDDEN
  0
LAYER
  2
DEFAULT_3
 70
0
 62
7
  6
PHANTOM
  0
LAYER
  2
CURVE
 70
0
 62
7
  6
CONTINUOUS
  0
LAYER
  2
SURFACE
 70
0
 62
7
  6
CONTINUOUS
  0
ENDTAB
  0
TABLE
  2
STYLE
 70
1
  0
STYLE
  2
STANDARD
 70
0
 40
0.0
 41
0.8
 50
0.0
 71
0
 42
0.2
  3
txt
  4

  0
STYLE
  2
TEXTSTYLE_1
 70
0
 40
0.0
 41
0.8
 50
0.0
 71
0
 42
0.2
  3
gdt
  4

  0
STYLE
  2
TEXTSTYLE_2
 70
0
 40
0.0
 41
0.6
 50
0.0
 71
0
 42
0.2
  3
txt
  4

  0
STYLE
  2
TEXTSTYLE_3
 70
0
 40
0.0
 41
1.0
 50
0.0
 71
0
 42
0.2
  3
ftb_____.ttf
  4

  0
STYLE
  2
TEXTSTYLE_4
 70
0
 40
0.0
 41
1.0
 50
0.0
 71
0
 42
0.2
  3
fti_____.ttf
  4

  0
STYLE
  2
TEXTSTYLE_5
 70
0
 40
0.0
 41
1.0
 50
0.0
 71
0
 42
0.2
  3
frutiger light.ttf
  4

  0
STYLE
  2
TEXTSTYLE_6
 70
0
 40
0.0
 41
0.7
 50
0.0
 71
0
 42
0.2
  3
txt
  4

  0
STYLE
  2
TEXTSTYLE_7
 70
0
 40
0.0
 41
0.6
 50
0.0
 71
0
 42
0.2
  3
txt
  4

  0
ENDTAB
  0
ENDSEC
  0
SECTION
  2
BLOCKS
  0
BLOCK
  8
0
 62
2
  6
CONTINUOUS
  2
SYMBOL_8_BL1
 70
64
 10
173.5956734183
 20
35.5937998301
  0
TEXT
  8
0
 62
7
  6
CONTINUOUS
 10
164.6539584268
 20
30.6865562072
  7
TEXTSTYLE_4
 40
1.0655737705
  1
The brand for plastic modular belts and chains
 41
1.0
 72
0
  0
LINE
  8
0
 62
7
  6
CONTINUOUS
 10
149.5737418074
 20
36.1675703219
 11
149.5737418074
 21
34.0364227809
  0
LINE
  8
0
 62
7
  6
CONTINUOUS
 10
149.8628043005
 20
31.0454914852
 11
149.8628043005
 21
31.1422825445
  0
LINE
  8
0
 62
7
  6
CONTINUOUS
 10
149.5737418074
 20
31.1100188581
 11
149.6315543091
 21
30.9164367395
  0
LINE
  8
0
 62
7
  6
CONTINUOUS
 10
150.9671844304
 20
33.9544555678
 11
150.9671844304
 21
36.1675703219
  0
LINE
  8
0
 62
7
  6
CONTINUOUS
 10
151.8862417523
 20
32.1101932727
 11
151.8862417523
 21
30.5937998301
  0
LINE
  8
0
 62
7
  6
CONTINUOUS
 10
152.1753043074
 20
30.5937998301
 11
152.1753043074
 21
31.3358647082
  0
LINE
  8
0
 62
7
  6
CONTINUOUS
 10
152.1753043074
 20
31.4649194539
 11
152.1753043074
 21
32.1101932727
  0
LINE
  8
0
 62
7
  6
CONTINUOUS
 10
149.6315543091
 20
31.3036010218
 11
149.5737418074
 21
31.1100188581
  0
LINE
  8
0
 62
7
  6
CONTINUOUS
 10
149.9784292936
 20
30.8841730531
 11
149.8628043005
 21
31.0454914852
  0
LINE
  8
0
 62
7
  6
CONTINUOUS
 10
151.0768668626
 20
31.400392081
 11
151.1346793074
 21
31.3036010218
  0
LINE
  8
0
 62
7
  6
CONTINUOUS
 10
151.4237418626
 20
31.3036010218
 11
151.3659292523
 21
31.4326557675
  0
LINE
  8
0
 62
7
  6
CONTINUOUS
 10
152.852430332
 20
36.1675703219
 11
152.852430332
 21
34.3642916334
  0
LINE
  8
0
 62
7
  6
CONTINUOUS
 10
152.852430332
 20
33.0528162235
 11
152.852430332
 21
32.3970785186
  0
LINE
  8
0
 62
7
  6
CONTINUOUS
 10
153.2159293074
 20
31.2390736489
 11
153.2159293074
 21
30.5937998301
  0
LINE
  8
0
 62
7
  6
CONTINUOUS
 10
153.5049916972
 20
30.5937998301
 11
153.5049916972
 21
31.2390736489
  0
LINE
  8
0
 62
7
  6
CONTINUOUS
 10
149.8628043005
 20
31.1422825445
 11
149.9206168074
 21
31.2713373354
  0
LINE
  8
0
 62
7
  6
CONTINUOUS
 10
149.6315543091
 20
30.9164367395
 11
149.7471793074
 21
30.7873819712
  0
LINE
  8
0
 62
7
  6
CONTINUOUS
 10
153.1581166972
 20
31.3681283946
 11
153.2159293074
 21
31.2390736489
  0
LINE
  8
0
 62
7
  6
CONTINUOUS
 10
153.9674919177
 20
30.8841730531
 11
154.0253041972
 21
30.7551182848
  0
LINE
  8
0
 62
7
  6
CONTINUOUS
 10
153.5049916972
 20
31.2390736489
 11
153.4471794177
 21
31.400392081
  0
LINE
  8
0
 62
7
  6
CONTINUOUS
 10
153.9674919177
 20
31.4326557675
 11
153.9674919177
 21
31.3681283946
  0
LINE
  8
0
 62
7
  6
CONTINUOUS
 10
153.9674919177
 20
30.9809641124
 11
153.9674919177
 21
30.8841730531
  0
LINE
  8
0
 62
7
  6
CONTINUOUS
 10
154.245872955
 20
32.3970785186
 11
154.245872955
 21
36.1675703219
  0
LINE
  8
0
 62
7
  6
CONTINUOUS
 10
154.2565543074
 20
30.8519093441
 11
154.2565543074
 21
30.9164367395
  0
LINE
  8
0
 62
7
  6
CONTINUOUS
 10
154.5737418074
 20
36.1675703219
 11
154.5737418074
 21
32.3970785186
  0
LINE
  8
0
 62
7
  6
CONTINUOUS
 10
151.3659292523
 20
30.7873819712
 11
151.4237418626
 21
30.9164367395
  0
LINE
  8
0
 62
7
  6
CONTINUOUS
 10
155.759679528
 20
30.6905909007
 11
155.7018665869
 21
30.8519093441
  0
LINE
  8
0
 62
7
  6
CONTINUOUS
 10
155.412804528
 20
31.3681283946
 11
155.412804528
 21
31.2713373354
  0
LINE
  8
0
 62
7
  6
CONTINUOUS
 10
155.412804528
 20
31.1422825445
 11
155.412804528
 21
30.9487004259
  0
LINE
  8
0
 62
7
  6
CONTINUOUS
 10
155.7018665869
 20
30.8519093441
 11
155.7018665869
 21
31.3681283946
  0
LINE
  8
0
 62
7
  6
CONTINUOUS
 10
155.9671844304
 20
32.3970785186
 11
155.9671844304
 21
34.2003572071
  0
LINE
  8
0
 62
7
  6
CONTINUOUS
 10
155.9671844304
 20
35.511832617
 11
155.9671844304
 21
36.1675703219
  0
LINE
  8
0
 62
7
  6
CONTINUOUS
 10
156.279992028
 20
32.1101932727
 11
156.279992028
 21
31.9488748406
  0
LINE
  8
0
 62
7
  6
CONTINUOUS
 10
156.279992028
 20
31.626237886
 11
156.279992028
 21
30.5937998301
  0
LINE
  8
0
 62
7
  6
CONTINUOUS
 10
156.5690540869
 20
30.5937998301
 11
156.5690540869
 21
31.626237886
  0
LINE
  8
0
 62
7
  6
CONTINUOUS
 10
156.5690540869
 20
31.9488748406
 11
156.5690540869
 21
32.1101932727
  0
LINE
  8
0
 62
7
  6
CONTINUOUS
 10
151.1346793074
 20
30.9164367395
 11
151.0768668626
 21
30.8196456577
  0
LINE
  8
0
 62
7
  6
CONTINUOUS
 10
153.4471794177
 20
31.400392081
 11
153.3893668074
 21
31.4649194539
  0
LINE
  8
0
 62
7
  6
CONTINUOUS
 10
154.3143669177
 20
30.7873819712
 11
154.2565543074
 21
30.8519093441
  0
LINE
  8
0
 62
7
  6
CONTINUOUS
 10
155.4706168074
 20
30.6583272086
 11
155.5284290869
 21
30.5937998301
  0
LINE
  8
0
 62
7
  6
CONTINUOUS
 10
155.412804528
 20
30.7551182848
 11
155.4706168074
 21
30.6583272086
  0
LINE
  8
0
 62
7
  6
CONTINUOUS
 10
155.8174918074
 20
30.5937998301
 11
155.759679528
 21
30.6905909007
  0
LINE
  8
0
 62
7
  6
CONTINUOUS
 10
155.7018665869
 20
31.3681283946
 11
155.6440543074
 21
31.4649194539
  0
LINE
  8
0
 62
7
  6
CONTINUOUS
 10
157.0315543074
 20
31.626237886
 11
157.0315543074
 21
30.5937998301
  0
LINE
  8
0
 62
7
  6
CONTINUOUS
 10
157.320617028
 20
30.5937998301
 11
157.320617028
 21
31.3358647082
  0
LINE
  8
0
 62
7
  6
CONTINUOUS
 10
157.320617028
 20
31.4649194539
 11
157.320617028
 21
31.626237886
  0
LINE
  8
0
 62
7
  6
CONTINUOUS
 10
157.852430332
 20
34.6101932727
 11
157.852430332
 21
32.3970785186
  0
LINE
  8
0
 62
7
  6
CONTINUOUS
 10
149.7471793074
 20
31.4326557675
 11
149.6315543091
 21
31.3036010218
  0
LINE
  8
0
 62
7
  6
CONTINUOUS
 10
149.9206168074
 20
31.2713373354
 11
149.9784292936
 21
31.3358647082
  0
LINE
  8
0
 62
7
  6
CONTINUOUS
 10
149.7471793074
 20
30.7873819712
 11
149.8628043005
 21
30.7228545871
  0
LINE
  8
0
 62
7
  6
CONTINUOUS
 10
150.1518667936
 20
30.7873819712
 11
149.9784292936
 21
30.8841730531
  0
LINE
  8
0
 62
7
  6
CONTINUOUS
 10
155.3549915869
 20
31.4326557675
 11
155.412804528
 21
31.3681283946
  0
LINE
  8
0
 62
7
  6
CONTINUOUS
 10
158.3034290869
 20
31.3681283946
 11
158.361242028
 21
31.2068099625
  0
LINE
  8
0
 62
7
  6
CONTINUOUS
 10
158.6503040869
 20
31.2068099625
 11
158.5924918074
 21
31.3681283946
  0
LINE
  8
0
 62
7
  6
CONTINUOUS
 10
158.361242028
 20
31.2068099625
 11
158.361242028
 21
30.5937998301
  0
LINE
  8
0
 62
7
  6
CONTINUOUS
 10
158.6503040869
 20
30.5937998301
 11
158.6503040869
 21
31.2068099625
  0
LINE
  8
0
 62
7
  6
CONTINUOUS
 10
159.1128043074
 20
31.4326557675
 11
159.1128043074
 21
31.3681283946
  0
LINE
  8
0
 62
7
  6
CONTINUOUS
 10
159.245872955
 20
32.3970785186
 11
159.245872955
 21
34.5282260596
  0
LINE
  8
0
 62
7
  6
CONTINUOUS
 10
159.5737418074
 20
36.1675703219
 11
159.5737418074
 21
32.3970785186
  0
LINE
  8
0
 62
7
  6
CONTINUOUS
 10
154.2565543074
 20
30.9164367395
 11
154.3143669177
 21
31.0132277988
  0
LINE
  8
0
 62
7
  6
CONTINUOUS
 10
149.8628043005
 20
30.7228545871
 11
150.0362418212
 21
30.6583272086
  0
LINE
  8
0
 62
7
  6
CONTINUOUS
 10
151.3659292523
 20
31.4326557675
 11
151.1924917523
 21
31.5294468267
  0
LINE
  8
0
 62
7
  6
CONTINUOUS
 10
154.0253041972
 20
30.7551182848
 11
154.1987416972
 21
30.6583272086
  0
LINE
  8
0
 62
7
  6
CONTINUOUS
 10
153.0424918074
 20
31.4326557675
 11
153.1581166972
 21
31.3681283946
  0
LINE
  8
0
 62
7
  6
CONTINUOUS
 10
153.3893668074
 20
31.4649194539
 11
153.2737419177
 21
31.5294468267
  0
LINE
  8
0
 62
7
  6
CONTINUOUS
 10
159.1128043074
 20
30.8519093441
 11
159.228429528
 21
30.7228545871
  0
LINE
  8
0
 62
7
  6
CONTINUOUS
 10
159.4596793074
 20
30.7873819712
 11
159.401867028
 21
30.8519093441
  0
LINE
  8
0
 62
7
  6
CONTINUOUS
 10
159.1128043074
 20
31.3681283946
 11
159.228429528
 21
31.2390736489
  0
LINE
  8
0
 62
7
  6
CONTINUOUS
 10
158.5924918074
 20
31.3681283946
 11
158.534679528
 21
31.4649194539
  0
LINE
  8
0
 62
7
  6
CONTINUOUS
 10
160.9628038663
 20
30.7873819712
 11
160.9628038663
 21
30.8519093441
  0
LINE
  8
0
 62
7
  6
CONTINUOUS
 10
160.9671844304
 20
32.3970785186
 11
160.9671844304
 21
36.1675703219
  0
LINE
  8
0
 62
7
  6
CONTINUOUS
 10
154.0253041972
 20
31.4971831403
 11
153.9674919177
 21
31.4326557675
  0
LINE
  8
0
 62
7
  6
CONTINUOUS
 10
150.9034292799
 20
31.4649194539
 11
151.0768668626
 21
31.400392081
  0
LINE
  8
0
 62
7
  6
CONTINUOUS
 10
155.6440543074
 20
31.4649194539
 11
155.5284290869
 21
31.5294468267
  0
LINE
  8
0
 62
7
  6
CONTINUOUS
 10
159.4596793074
 20
31.3036010218
 11
159.401867028
 21
31.3681283946
  0
LINE
  8
0
 62
7
  6
CONTINUOUS
 10
160.615929528
 20
30.9164367395
 11
160.6737418074
 21
30.8519093441
  0
LINE
  8
0
 62
7
  6
CONTINUOUS
 10
160.9628038663
 20
30.8519093441
 11
160.8471793074
 21
30.9809641124
  0
LINE
  8
0
 62
7
  6
CONTINUOUS
 10
160.615929528
 20
31.4326557675
 11
160.6737418074
 21
31.3681283946
  0
LINE
  8
0
 62
7
  6
CONTINUOUS
 10
160.9628038663
 20
31.3681283946
 11
160.8471793074
 21
31.4971831403
  0
LINE
  8
0
 62
7
  6
CONTINUOUS
 10
154.2565543074
 20
31.3681283946
 11
154.3143669177
 21
31.4326557675
  0
LINE
  8
0
 62
7
  6
CONTINUOUS
 10
154.0831168074
 20
31.1100188581
 11
153.9674919177
 21
30.9809641124
  0
LINE
  8
0
 62
7
  6
CONTINUOUS
 10
155.412804528
 20
30.9487004259
 11
155.3549915869
 21
30.8841730531
  0
LINE
  8
0
 62
7
  6
CONTINUOUS
 10
155.3549915869
 20
30.6905909007
 11
155.412804528
 21
30.7551182848
  0
LINE
  8
0
 62
7
  6
CONTINUOUS
 10
154.1987416972
 20
30.6583272086
 11
154.3143669177
 21
30.6260635193
  0
LINE
  8
0
 62
7
  6
CONTINUOUS
 10
151.1924917523
 20
31.5294468267
 11
150.9612418074
 21
31.5939741996
  0
LINE
  8
0
 62
7
  6
CONTINUOUS
 10
154.5456166972
 20
30.7228545871
 11
154.3143669177
 21
30.7873819712
  0
LINE
  8
0
 62
7
  6
CONTINUOUS
 10
153.2737419177
 20
31.5294468267
 11
153.1003044177
 21
31.5939741996
  0
LINE
  8
0
 62
7
  6
CONTINUOUS
 10
155.5284290869
 20
31.5294468267
 11
155.3549915869
 21
31.5939741996
  0
LINE
  8
0
 62
7
  6
CONTINUOUS
 10
158.187804528
 20
31.4326557675
 11
158.3034290869
 21
31.3681283946
  0
LINE
  8
0
 62
7
  6
CONTINUOUS
 10
158.534679528
 20
31.4649194539
 11
158.4190543074
 21
31.5294468267
  0
LINE
  8
0
 62
7
  6
CONTINUOUS
 10
150.0362418212
 20
30.6583272086
 11
150.2096793212
 21
30.6260635193
  0
LINE
  8
0
 62
7
  6
CONTINUOUS
 10
150.498741835
 20
30.7228545871
 11
150.1518667936
 21
30.7873819712
  0
LINE
  8
0
 62
7
  6
CONTINUOUS
 10
152.9268669177
 20
31.4649194539
 11
153.0424918074
 21
31.4326557675
  0
LINE
  8
0
 62
7
  6
CONTINUOUS
 10
155.239367028
 20
31.4649194539
 11
155.3549915869
 21
31.4326557675
  0
LINE
  8
0
 62
7
  6
CONTINUOUS
 10
159.575304528
 20
30.7551182848
 11
159.4596793074
 21
30.7873819712
  0
LINE
  8
0
 62
7
  6
CONTINUOUS
 10
158.0721793074
 20
31.4649194539
 11
158.187804528
 21
31.4326557675
  0
LINE
  8
0
 62
7
  6
CONTINUOUS
 10
159.228429528
 20
30.7228545871
 11
159.401867028
 21
30.6583272086
  0
LINE
  8
0
 62
7
  6
CONTINUOUS
 10
158.4190543074
 20
31.5294468267
 11
158.2456168074
 21
31.5939741996
  0
LINE
  8
0
 62
7
  6
CONTINUOUS
 10
159.6331168074
 20
31.2390736489
 11
159.4596793074
 21
31.3036010218
  0
LINE
  8
0
 62
7
  6
CONTINUOUS
 10
160.442492028
 20
30.9809641124
 11
160.615929528
 21
30.9164367395
  0
LINE
  8
0
 62
7
  6
CONTINUOUS
 10
160.8471793074
 20
31.4971831403
 11
160.6737418074
 21
31.5617105132
  0
LINE
  8
0
 62
7
  6
CONTINUOUS
 10
159.228429528
 20
31.2390736489
 11
159.4596793074
 21
31.1422825445
  0
LINE
  8
0
 62
7
  6
CONTINUOUS
 10
160.8471793074
 20
30.9809641124
 11
160.615929528
 21
31.0777551716
  0
LINE
  8
0
 62
7
  6
CONTINUOUS
 10
159.401867028
 20
31.3681283946
 11
159.4596793074
 21
31.4326557675
  0
LINE
  8
0
 62
7
  6
CONTINUOUS
 10
149.8628043005
 20
31.4971831403
 11
149.7471793074
 21
31.4326557675
  0
LINE
  8
0
 62
7
  6
CONTINUOUS
 10
149.9784292936
 20
31.3358647082
 11
150.1518667936
 21
31.4326557675
  0
LINE
  8
0
 62
7
  6
CONTINUOUS
 10
152.2909293626
 20
31.5294468267
 11
152.1753043074
 21
31.4649194539
  0
LINE
  8
0
 62
7
  6
CONTINUOUS
 10
152.1753043074
 20
31.3358647082
 11
152.2909293626
 21
31.400392081
  0
LINE
  8
0
 62
7
  6
CONTINUOUS
 10
151.1924917523
 20
30.6905909007
 11
151.3659292523
 21
30.7873819712
  0
LINE
  8
0
 62
7
  6
CONTINUOUS
 10
150.2096793212
 20
30.6260635193
 11
150.5565542799
 21
30.5937998301
  0
LINE
  8
0
 62
7
  6
CONTINUOUS
 10
154.3143669177
 20
30.6260635193
 11
154.5456166972
 21
30.5937998301
  0
LINE
  8
0
 62
7
  6
CONTINUOUS
 10
152.6956168074
 20
31.4971831403
 11
152.9268669177
 21
31.4649194539
  0
LINE
  8
0
 62
7
  6
CONTINUOUS
 10
155.0081169177
 20
31.4971831403
 11
155.239367028
 21
31.4649194539
  0
LINE
  8
0
 62
7
  6
CONTINUOUS
 10
159.4596793074
 20
31.1422825445
 11
160.442492028
 21
30.9809641124
  0
LINE
  8
0
 62
7
  6
CONTINUOUS
 10
160.615929528
 20
31.0777551716
 11
159.6331168074
 21
31.2390736489
  0
LINE
  8
0
 62
7
  6
CONTINUOUS
 10
153.1003044177
 20
31.5939741996
 11
152.9268669177
 21
31.626237886
  0
LINE
  8
0
 62
7
  6
CONTINUOUS
 10
159.401867028
 20
30.6583272086
 11
159.575304528
 21
30.6260635193
  0
LINE
  8
0
 62
7
  6
CONTINUOUS
 10
158.2456168074
 20
31.5939741996
 11
158.0721793074
 21
31.626237886
  0
LINE
  8
0
 62
7
  6
CONTINUOUS
 10
160.5003043074
 20
31.4649194539
 11
160.615929528
 21
31.4326557675
  0
LINE
  8
0
 62
7
  6
CONTINUOUS
 10
160.6737418074
 20
30.8519093441
 11
160.615929528
 21
30.7873819712
  0
LINE
  8
0
 62
7
  6
CONTINUOUS
 10
159.228429528
 20
31.5294468267
 11
159.1128043074
 21
31.4326557675
  0
LINE
  8
0
 62
7
  6
CONTINUOUS
 10
154.1409294177
 20
31.5617105132
 11
154.0253041972
 21
31.4971831403
  0
LINE
  8
0
 62
7
  6
CONTINUOUS
 10
154.1987416972
 20
31.1745462761
 11
154.0831168074
 21
31.1100188581
  0
LINE
  8
0
 62
7
  6
CONTINUOUS
 10
154.3143669177
 20
31.0132277988
 11
154.4299918074
 21
31.0777551716
  0
LINE
  8
0
 62
7
  6
CONTINUOUS
 10
151.8862417523
 20
30.5937998301
 11
152.1753043074
 21
30.5937998301
  0
LINE
  8
0
 62
7
  6
CONTINUOUS
 10
153.2159293074
 20
30.5937998301
 11
153.5049916972
 21
30.5937998301
  0
LINE
  8
0
 62
7
  6
CONTINUOUS
 10
154.5456166972
 20
30.5937998301
 11
154.8924916972
 21
30.5937998301
  0
LINE
  8
0
 62
7
  6
CONTINUOUS
 10
155.5284290869
 20
30.5937998301
 11
155.8174918074
 21
30.5937998301
  0
LINE
  8
0
 62
7
  6
CONTINUOUS
 10
156.279992028
 20
30.5937998301
 11
156.5690540869
 21
30.5937998301
  0
LINE
  8
0
 62
7
  6
CONTINUOUS
 10
157.0315543074
 20
30.5937998301
 11
157.320617028
 21
30.5937998301
  0
LINE
  8
0
 62
7
  6
CONTINUOUS
 10
158.361242028
 20
30.5937998301
 11
158.6503040869
 21
30.5937998301
  0
LINE
  8
0
 62
7
  6
CONTINUOUS
 10
159.922179528
 20
30.5937998301
 11
160.269054528
 21
30.5937998301
  0
LINE
  8
0
 62
7
  6
CONTINUOUS
 10
160.269054528
 20
30.7228545871
 11
159.922179528
 21
30.7228545871
  0
LINE
  8
0
 62
7
  6
CONTINUOUS
 10
154.8924916972
 20
30.7228545871
 11
154.5456166972
 21
30.7228545871
  0
LINE
  8
0
 62
7
  6
CONTINUOUS
 10
159.401867028
 20
30.8519093441
 11
159.1128043074
 21
30.8519093441
  0
LINE
  8
0
 62
7
  6
CONTINUOUS
 10
151.4237418626
 20
30.9164367395
 11
151.1346793074
 21
30.9164367395
  0
LINE
  8
0
 62
7
  6
CONTINUOUS
 10
150.498741835
 20
31.4971831403
 11
150.9034292799
 21
31.4649194539
  0
LINE
  8
0
 62
7
  6
CONTINUOUS
 10
150.9612418074
 20
31.5939741996
 11
150.5565542799
 21
31.626237886
  0
LINE
  8
0
 62
7
  6
CONTINUOUS
 10
159.575304528
 20
30.6260635193
 11
159.922179528
 21
30.5937998301
  0
LINE
  8
0
 62
7
  6
CONTINUOUS
 10
159.922179528
 20
30.7228545871
 11
159.575304528
 21
30.7551182848
  0
LINE
  8
0
 62
7
  6
CONTINUOUS
 10
155.3549915869
 20
31.5939741996
 11
155.0081169177
 21
31.626237886
  0
LINE
  8
0
 62
7
  6
CONTINUOUS
 10
160.1534293074
 20
31.4971831403
 11
160.5003043074
 21
31.4649194539
  0
LINE
  8
0
 62
7
  6
CONTINUOUS
 10
160.5003043074
 20
31.5939741996
 11
160.1534293074
 21
31.626237886
  0
LINE
  8
0
 62
7
  6
CONTINUOUS
 10
157.840929528
 20
31.4971831403
 11
158.0721793074
 21
31.4649194539
  0
LINE
  8
0
 62
7
  6
CONTINUOUS
 10
160.6737418074
 20
31.5617105132
 11
160.5003043074
 21
31.5939741996
  0
LINE
  8
0
 62
7
  6
CONTINUOUS
 10
160.8471793074
 20
30.6905909007
 11
160.9628038663
 21
30.7873819712
  0
LINE
  8
0
 62
7
  6
CONTINUOUS
 10
155.3549915869
 20
30.8841730531
 11
155.1815540869
 21
30.7873819712
  0
LINE
  8
0
 62
7
  6
CONTINUOUS
 10
157.4362415869
 20
31.5294468267
 11
157.320617028
 21
31.4649194539
  0
LINE
  8
0
 62
7
  6
CONTINUOUS
 10
157.320617028
 20
31.3358647082
 11
157.4362415869
 21
31.400392081
  0
LINE
  8
0
 62
7
  6
CONTINUOUS
 10
150.0362418212
 20
31.5617105132
 11
149.8628043005
 21
31.4971831403
  0
LINE
  8
0
 62
7
  6
CONTINUOUS
 10
152.4643666972
 20
31.5939741996
 11
152.2909293626
 21
31.5294468267
  0
LINE
  8
0
 62
7
  6
CONTINUOUS
 10
152.2909293626
 20
31.400392081
 11
152.4643666972
 21
31.4649194539
  0
LINE
  8
0
 62
7
  6
CONTINUOUS
 10
151.0768668626
 20
30.8196456577
 11
150.9034292799
 21
30.7551182848
  0
LINE
  8
0
 62
7
  6
CONTINUOUS
 10
160.5003043074
 20
30.7551182848
 11
160.269054528
 21
30.7228545871
  0
LINE
  8
0
 62
7
  6
CONTINUOUS
 10
154.8924916972
 20
30.5937998301
 11
155.1815540869
 21
30.6260635193
  0
LINE
  8
0
 62
7
  6
CONTINUOUS
 10
160.269054528
 20
30.5937998301
 11
160.615929528
 21
30.6260635193
  0
LINE
  8
0
 62
7
  6
CONTINUOUS
 10
150.5565542799
 20
30.5937998301
 11
150.9612418074
 21
30.6260635193
  0
LINE
  8
0
 62
7
  6
CONTINUOUS
 10
150.9034292799
 20
30.7551182848
 11
150.498741835
 21
30.7228545871
  0
LINE
  8
0
 62
7
  6
CONTINUOUS
 10
154.7768668074
 20
31.1422825445
 11
155.412804528
 21
31.1422825445
  0
LINE
  8
0
 62
7
  6
CONTINUOUS
 10
155.412804528
 20
31.2713373354
 11
154.7768668074
 21
31.2713373354
  0
LINE
  8
0
 62
7
  6
CONTINUOUS
 10
151.1346793074
 20
31.3036010218
 11
151.4237418626
 21
31.3036010218
  0
LINE
  8
0
 62
7
  6
CONTINUOUS
 10
153.9674919177
 20
31.3681283946
 11
154.2565543074
 21
31.3681283946
  0
LINE
  8
0
 62
7
  6
CONTINUOUS
 10
160.6737418074
 20
31.3681283946
 11
160.9628038663
 21
31.3681283946
  0
LINE
  8
0
 62
7
  6
CONTINUOUS
 10
154.6612419177
 20
31.4971831403
 11
155.0081169177
 21
31.4971831403
  0
LINE
  8
0
 62
7
  6
CONTINUOUS
 10
159.8065543074
 20
31.4971831403
 11
160.1534293074
 21
31.4971831403
  0
LINE
  8
0
 62
7
  6
CONTINUOUS
 10
160.1534293074
 20
31.626237886
 11
159.8065543074
 21
31.626237886
  0
LINE
  8
0
 62
7
  6
CONTINUOUS
 10
158.0721793074
 20
31.626237886
 11
157.840929528
 21
31.626237886
  0
LINE
  8
0
 62
7
  6
CONTINUOUS
 10
157.320617028
 20
31.626237886
 11
157.0315543074
 21
31.626237886
  0
LINE
  8
0
 62
7
  6
CONTINUOUS
 10
156.5690540869
 20
31.626237886
 11
156.279992028
 21
31.626237886
  0
LINE
  8
0
 62
7
  6
CONTINUOUS
 10
155.0081169177
 20
31.626237886
 11
154.6612419177
 21
31.626237886
  0
LINE
  8
0
 62
7
  6
CONTINUOUS
 10
152.9268669177
 20
31.626237886
 11
152.6956168074
 21
31.626237886
  0
LINE
  8
0
 62
7
  6
CONTINUOUS
 10
156.279992028
 20
31.9488748406
 11
156.5690540869
 21
31.9488748406
  0
LINE
  8
0
 62
7
  6
CONTINUOUS
 10
156.5690540869
 20
32.1101932727
 11
156.279992028
 21
32.1101932727
  0
LINE
  8
0
 62
7
  6
CONTINUOUS
 10
152.1753043074
 20
32.1101932727
 11
151.8862417523
 21
32.1101932727
  0
LINE
  8
0
 62
7
  6
CONTINUOUS
 10
151.2130860697
 20
32.3970785186
 11
151.6256574183
 21
32.3970785186
  0
LINE
  8
0
 62
7
  6
CONTINUOUS
 10
152.852430332
 20
32.3970785186
 11
154.245872955
 21
32.3970785186
  0
LINE
  8
0
 62
7
  6
CONTINUOUS
 10
154.5737418074
 20
32.3970785186
 11
155.9671844304
 21
32.3970785186
  0
LINE
  8
0
 62
7
  6
CONTINUOUS
 10
157.852430332
 20
32.3970785186
 11
159.245872955
 21
32.3970785186
  0
LINE
  8
0
 62
7
  6
CONTINUOUS
 10
159.5737418074
 20
32.3970785186
 11
160.9671844304
 21
32.3970785186
  0
LINE
  8
0
 62
7
  6
CONTINUOUS
 10
157.6096790869
 20
31.5939741996
 11
157.4362415869
 21
31.5294468267
  0
LINE
  8
0
 62
7
  6
CONTINUOUS
 10
155.1815540869
 20
30.6260635193
 11
155.3549915869
 21
30.6905909007
  0
LINE
  8
0
 62
7
  6
CONTINUOUS
 10
160.615929528
 20
30.6260635193
 11
160.8471793074
 21
30.6905909007
  0
LINE
  8
0
 62
7
  6
CONTINUOUS
 10
160.615929528
 20
30.7873819712
 11
160.5003043074
 21
30.7551182848
  0
LINE
  8
0
 62
7
  6
CONTINUOUS
 10
159.575304528
 20
31.4649194539
 11
159.8065543074
 21
31.4971831403
  0
LINE
  8
0
 62
7
  6
CONTINUOUS
 10
157.6096790869
 20
31.4649194539
 11
157.840929528
 21
31.4971831403
  0
LINE
  8
0
 62
7
  6
CONTINUOUS
 10
154.5456166972
 20
31.1100188581
 11
154.7768668074
 21
31.1422825445
  0
LINE
  8
0
 62
7
  6
CONTINUOUS
 10
157.840929528
 20
31.626237886
 11
157.6096790869
 21
31.5939741996
  0
LINE
  8
0
 62
7
  6
CONTINUOUS
 10
154.4299918074
 20
31.4649194539
 11
154.6612419177
 21
31.4971831403
  0
LINE
  8
0
 62
7
  6
CONTINUOUS
 10
159.8065543074
 20
31.626237886
 11
159.4596793074
 21
31.5939741996
  0
LINE
  8
0
 62
7
  6
CONTINUOUS
 10
154.7768668074
 20
31.2713373354
 11
154.4299918074
 21
31.2390736489
  0
LINE
  8
0
 62
7
  6
CONTINUOUS
 10
150.5565542799
 20
31.626237886
 11
150.2096793212
 21
31.5939741996
  0
LINE
  8
0
 62
7
  6
CONTINUOUS
 10
154.6612419177
 20
31.626237886
 11
154.2565543074
 21
31.5939741996
  0
LINE
  8
0
 62
7
  6
CONTINUOUS
 10
152.0327582009
 20
33.5446195022
 11
151.3770204959
 21
33.5446195022
  0
LINE
  8
0
 62
7
  6
CONTINUOUS
 10
157.4362415869
 20
31.400392081
 11
157.6096790869
 21
31.4649194539
  0
LINE
  8
0
 62
7
  6
CONTINUOUS
 10
159.4596793074
 20
31.4326557675
 11
159.575304528
 21
31.4649194539
  0
LINE
  8
0
 62
7
  6
CONTINUOUS
 10
159.4596793074
 20
31.5939741996
 11
159.228429528
 21
31.5294468267
  0
LINE
  8
0
 62
7
  6
CONTINUOUS
 10
155.1815540869
 20
30.7873819712
 11
154.8924916972
 21
30.7228545871
  0
LINE
  8
0
 62
7
  6
CONTINUOUS
 10
152.4643666972
 20
31.4649194539
 11
152.6956168074
 21
31.4971831403
  0
LINE
  8
0
 62
7
  6
CONTINUOUS
 10
152.6956168074
 20
31.626237886
 11
152.4643666972
 21
31.5939741996
  0
LINE
  8
0
 62
7
  6
CONTINUOUS
 10
150.2674918074
 20
31.4649194539
 11
150.498741835
 21
31.4971831403
  0
LINE
  8
0
 62
7
  6
CONTINUOUS
 10
156.7868565615
 20
35.0200293383
 11
157.4425942664
 21
35.0200293383
  0
LINE
  8
0
 62
7
  6
CONTINUOUS
 10
154.4299918074
 20
31.0777551716
 11
154.5456166972
 21
31.1100188581
  0
LINE
  8
0
 62
7
  6
CONTINUOUS
 10
154.4299918074
 20
31.2390736489
 11
154.1987416972
 21
31.1745462761
  0
LINE
  8
0
 62
7
  6
CONTINUOUS
 10
154.3143669177
 20
31.4326557675
 11
154.4299918074
 21
31.4649194539
  0
LINE
  8
0
 62
7
  6
CONTINUOUS
 10
150.9612418074
 20
30.6260635193
 11
151.1924917523
 21
30.6905909007
  0
LINE
  8
0
 62
7
  6
CONTINUOUS
 10
154.2565543074
 20
31.5939741996
 11
154.1409294177
 21
31.5617105132
  0
LINE
  8
0
 62
7
  6
CONTINUOUS
 10
150.2096793212
 20
31.5939741996
 11
150.0362418212
 21
31.5617105132
  0
LINE
  8
0
 62
7
  6
CONTINUOUS
 10
160.9671844304
 20
36.1675703219
 11
159.5737418074
 21
36.1675703219
  0
LINE
  8
0
 62
7
  6
CONTINUOUS
 10
157.6065286927
 20
36.1675703219
 11
157.1939573441
 21
36.1675703219
  0
LINE
  8
0
 62
7
  6
CONTINUOUS
 10
155.9671844304
 20
36.1675703219
 11
154.5737418074
 21
36.1675703219
  0
LINE
  8
0
 62
7
  6
CONTINUOUS
 10
154.245872955
 20
36.1675703219
 11
152.852430332
 21
36.1675703219
  0
LINE
  8
0
 62
7
  6
CONTINUOUS
 10
150.9671844304
 20
36.1675703219
 11
149.5737418074
 21
36.1675703219
  0
LINE
  8
0
 62
7
  6
CONTINUOUS
 10
150.1518667936
 20
31.4326557675
 11
150.2674918074
 21
31.4649194539
  0
CIRCLE
  8
0
 62
7
  6
CONTINUOUS
 10
160.2704631189
 20
38.5036358957
 40
2.0901639344
  0
ARC
  8
0
 62
7
  6
CONTINUOUS
 10
151.2130860697
 20
34.0364227809
 40
1.6393442623
 50
180.0
 51
270.0
  0
ARC
  8
0
 62
7
  6
CONTINUOUS
 10
157.6065286927
 20
34.5282260596
 40
1.6393442623
 50
0.0
 51
90.0
  0
ARC
  8
0
 62
7
  6
CONTINUOUS
 10
151.6256574183
 20
33.8724883547
 40
1.4754098361
 50
270.0
 51
326.2510114041
  0
ARC
  8
0
 62
7
  6
CONTINUOUS
 10
157.1939573441
 20
34.6921604858
 40
1.4754098361
 50
90.0
 51
146.2510114041
  0
ARC
  8
0
 62
7
  6
CONTINUOUS
 10
152.0327582009
 20
34.3642916334
 40
0.8196721311
 50
270.0
 51
360.0
  0
ARC
  8
0
 62
7
  6
CONTINUOUS
 10
156.7868565615
 20
34.2003572071
 40
0.8196721311
 50
90.0
 51
180.0
  0
ARC
  8
0
 62
7
  6
CONTINUOUS
 10
151.3770204959
 20
33.9544555678
 40
0.4098360656
 50
180.0
 51
270.0
  0
ARC
  8
0
 62
7
  6
CONTINUOUS
 10
157.4425942664
 20
34.6101932727
 40
0.4098360656
 50
0.0
 51
90.0
  0
SOLID
  8
0
 62
7
  6
CONTINUOUS
 10
156.279992028
 20
31.9488752009
 11
156.279992028
 21
32.1101936845
 12
156.5690540869
 22
31.9488752009
 13
156.5690540869
 23
32.1101936845
  0
SOLID
  8
0
 62
7
  6
CONTINUOUS
 10
150.5565542799
 20
31.6262382337
 11
150.9612418074
 21
31.5939740028
 12
150.2096793212
 22
31.5939740028
 13
150.2096793212
 23
31.5939740028
  0
SOLID
  8
0
 62
7
  6
CONTINUOUS
 10
150.0362418212
 20
31.5617111435
 11
150.2096793212
 21
31.5939740028
 12
150.9612418074
 22
31.5939740028
 13
150.9612418074
 23
31.5939740028
  0
SOLID
  8
0
 62
7
  6
CONTINUOUS
 10
150.9612418074
 20
31.5939740028
 11
151.1924917523
 21
31.5294468402
 12
150.0362418212
 22
31.5617111435
 13
150.0362418212
 23
31.5617111435
  0
SOLID
  8
0
 62
7
  6
CONTINUOUS
 10
149.8628043005
 20
31.49718259
 11
150.0362418212
 21
31.5617111435
 12
151.1924917523
 22
31.5294468402
 13
151.1924917523
 23
31.5294468402
  0
SOLID
  8
0
 62
7
  6
CONTINUOUS
 10
149.8628043005
 20
31.49718259
 11
151.1924917523
 21
31.5294468402
 12
150.498741835
 22
31.49718259
 13
150.498741835
 23
31.49718259
  0
SOLID
  8
0
 62
7
  6
CONTINUOUS
 10
150.498741835
 20
31.49718259
 11
151.1924917523
 21
31.5294468402
 12
150.9034292799
 22
31.4649197501
 13
150.9034292799
 23
31.4649197501
  0
SOLID
  8
0
 62
7
  6
CONTINUOUS
 10
151.1924917523
 20
31.5294468402
 11
151.3659292523
 21
31.4326554468
 12
150.9034292799
 22
31.4649197501
 13
150.9034292799
 23
31.4649197501
  0
SOLID
  8
0
 62
7
  6
CONTINUOUS
 10
151.0768668626
 20
31.4003926599
 11
150.9034292799
 21
31.4649197501
 12
151.3659292523
 22
31.4326554468
 13
151.3659292523
 23
31.4326554468
  0
SOLID
  8
0
 62
7
  6
CONTINUOUS
 10
151.0768668626
 20
31.4003926599
 11
151.3659292523
 21
31.4326554468
 12
151.1346793074
 22
31.3036013776
 13
151.1346793074
 23
31.3036013776
  0
SOLID
  8
0
 62
7
  6
CONTINUOUS
 10
151.3659292523
 20
31.4326554468
 11
151.4237418626
 21
31.3036013776
 12
151.1346793074
 22
31.3036013776
 13
151.1346793074
 23
31.3036013776
  0
SOLID
  8
0
 62
7
  6
CONTINUOUS
 10
152.4643666972
 20
31.5939739754
 11
152.6956168074
 21
31.6262382787
 12
152.9268669177
 22
31.6262382787
 13
152.9268669177
 23
31.6262382787
  0
SOLID
  8
0
 62
7
  6
CONTINUOUS
 10
152.9268669177
 20
31.6262382787
 11
153.1003044177
 21
31.5939739754
 12
152.4643666972
 22
31.5939739754
 13
152.4643666972
 23
31.5939739754
  0
SOLID
  8
0
 62
7
  6
CONTINUOUS
 10
152.2909293626
 20
31.5294468852
 11
152.4643666972
 21
31.5939739754
 12
153.1003044177
 22
31.5939739754
 13
153.1003044177
 23
31.5939739754
  0
SOLID
  8
0
 62
7
  6
CONTINUOUS
 10
153.1003044177
 20
31.5939739754
 11
153.2737419177
 21
31.5294468852
 12
152.2909293626
 22
31.5294468852
 13
152.2909293626
 23
31.5294468852
  0
SOLID
  8
0
 62
7
  6
CONTINUOUS
 10
153.2737419177
 20
31.5294468852
 11
152.6956168074
 21
31.4971825369
 12
152.2909293626
 22
31.5294468852
 13
152.2909293626
 23
31.5294468852
  0
SOLID
  8
0
 62
7
  6
CONTINUOUS
 10
152.1753043074
 20
31.4649197951
 11
152.2909293626
 21
31.5294468852
 12
152.6956168074
 22
31.4971825369
 13
152.6956168074
 23
31.4971825369
  0
SOLID
  8
0
 62
7
  6
CONTINUOUS
 10
152.6956168074
 20
31.4971825369
 11
152.4643666972
 21
31.4649197951
 12
152.1753043074
 22
31.4649197951
 13
152.1753043074
 23
31.4649197951
  0
SOLID
  8
0
 62
7
  6
CONTINUOUS
 10
152.6956168074
 20
31.4971825369
 11
153.2737419177
 21
31.5294468852
 12
152.9268669177
 22
31.4649197951
 13
152.9268669177
 23
31.4649197951
  0
SOLID
  8
0
 62
7
  6
CONTINUOUS
 10
153.2737419177
 20
31.5294468852
 11
153.3893668074
 21
31.4649197951
 12
152.9268669177
 22
31.4649197951
 13
152.9268669177
 23
31.4649197951
  0
SOLID
  8
0
 62
7
  6
CONTINUOUS
 10
153.0424918074
 20
31.4326554468
 11
152.9268669177
 21
31.4649197951
 12
153.3893668074
 22
31.4649197951
 13
153.3893668074
 23
31.4649197951
  0
SOLID
  8
0
 62
7
  6
CONTINUOUS
 10
153.3893668074
 20
31.4649197951
 11
153.4471794177
 21
31.4003927049
 12
153.0424918074
 22
31.4326554468
 13
153.0424918074
 23
31.4326554468
  0
SOLID
  8
0
 62
7
  6
CONTINUOUS
 10
153.1581166972
 20
31.3681283566
 11
153.0424918074
 21
31.4326554468
 12
153.4471794177
 22
31.4003927049
 13
153.4471794177
 23
31.4003927049
  0
SOLID
  8
0
 62
7
  6
CONTINUOUS
 10
153.1581166972
 20
31.3681283566
 11
153.4471794177
 21
31.4003927049
 12
153.2159293074
 22
31.2390742213
 13
153.2159293074
 23
31.2390742213
  0
SOLID
  8
0
 62
7
  6
CONTINUOUS
 10
153.4471794177
 20
31.4003927049
 11
153.5049916972
 21
31.2390742213
 12
153.2159293074
 22
31.2390742213
 13
153.2159293074
 23
31.2390742213
  0
SOLID
  8
0
 62
7
  6
CONTINUOUS
 10
152.4643666972
 20
31.4649197951
 11
152.2909293626
 21
31.4003927049
 12
152.1753043074
 22
31.4649197951
 13
152.1753043074
 23
31.4649197951
  0
SOLID
  8
0
 62
7
  6
CONTINUOUS
 10
152.2909293626
 20
31.4003927049
 11
152.1753043074
 21
31.3358640533
 12
152.1753043074
 22
31.4649197951
 13
152.1753043074
 23
31.4649197951
  0
SOLID
  8
0
 62
7
  6
CONTINUOUS
 10
152.1753043074
 20
31.3358640533
 11
151.8862417523
 21
30.5938002869
 12
152.1753043074
 22
31.4649197951
 13
152.1753043074
 23
31.4649197951
  0
SOLID
  8
0
 62
7
  6
CONTINUOUS
 10
152.1753043074
 20
31.4649197951
 11
151.8862417523
 21
30.5938002869
 12
152.1753043074
 22
32.1101937295
 13
152.1753043074
 23
32.1101937295
  0
SOLID
  8
0
 62
7
  6
CONTINUOUS
 10
151.8862417523
 20
30.5938002869
 11
151.8862417523
 21
32.1101937295
 12
152.1753043074
 22
32.1101937295
 13
152.1753043074
 23
32.1101937295
  0
SOLID
  8
0
 62
7
  6
CONTINUOUS
 10
152.1753043074
 20
31.3358640533
 11
152.1753043074
 21
30.5938002869
 12
151.8862417523
 22
30.5938002869
 13
151.8862417523
 23
30.5938002869
  0
SOLID
  8
0
 62
7
  6
CONTINUOUS
 10
153.2159293074
 20
30.5938002869
 11
153.2159293074
 21
31.2390742213
 12
153.5049916972
 22
31.2390742213
 13
153.5049916972
 23
31.2390742213
  0
SOLID
  8
0
 62
7
  6
CONTINUOUS
 10
153.5049916972
 20
31.2390742213
 11
153.5049916972
 21
30.5938002869
 12
153.2159293074
 22
30.5938002869
 13
153.2159293074
 23
30.5938002869
  0
SOLID
  8
0
 62
7
  6
CONTINUOUS
 10
154.2565543074
 20
31.5939738288
 11
154.6612419177
 21
31.6262385959
 12
155.0081169177
 22
31.6262385959
 13
155.0081169177
 23
31.6262385959
  0
SOLID
  8
0
 62
7
  6
CONTINUOUS
 10
155.0081169177
 20
31.6262385959
 11
155.3549915869
 21
31.5939738288
 12
154.2565543074
 22
31.5939738288
 13
154.2565543074
 23
31.5939738288
  0
SOLID
  8
0
 62
7
  6
CONTINUOUS
 10
154.1409294177
 20
31.5617111435
 11
154.2565543074
 21
31.5939738288
 12
155.3549915869
 22
31.5939738288
 13
155.3549915869
 23
31.5939738288
  0
SOLID
  8
0
 62
7
  6
CONTINUOUS
 10
155.3549915869
 20
31.5939738288
 11
155.5284290869
 21
31.5294468402
 12
154.1409294177
 22
31.5617111435
 13
154.1409294177
 23
31.5617111435
  0
SOLID
  8
0
 62
7
  6
CONTINUOUS
 10
154.0253041972
 20
31.4971826249
 11
154.1409294177
 21
31.5617111435
 12
155.5284290869
 22
31.5294468402
 13
155.5284290869
 23
31.5294468402
  0
SOLID
  8
0
 62
7
  6
CONTINUOUS
 10
154.0253041972
 20
31.4971826249
 11
155.5284290869
 21
31.5294468402
 12
154.6612419177
 22
31.4971826249
 13
154.6612419177
 23
31.4971826249
  0
SOLID
  8
0
 62
7
  6
CONTINUOUS
 10
154.6612419177
 20
31.4971826249
 11
155.5284290869
 21
31.5294468402
 12
155.0081169177
 22
31.4971826249
 13
155.0081169177
 23
31.4971826249
  0
SOLID
  8
0
 62
7
  6
CONTINUOUS
 10
155.0081169177
 20
31.4971826249
 11
155.5284290869
 21
31.5294468402
 12
155.239367028
 22
31.4649194065
 13
155.239367028
 23
31.4649194065
  0
SOLID
  8
0
 62
7
  6
CONTINUOUS
 10
155.5284290869
 20
31.5294468402
 11
155.6440543074
 21
31.4649194065
 12
155.239367028
 22
31.4649194065
 13
155.239367028
 23
31.4649194065
  0
SOLID
  8
0
 62
7
  6
CONTINUOUS
 10
153.9674919177
 20
31.4326554138
 11
154.0253041972
 21
31.4971826249
 12
154.6612419177
 22
31.4971826249
 13
154.6612419177
 23
31.4971826249
  0
SOLID
  8
0
 62
7
  6
CONTINUOUS
 10
155.3549915869
 20
31.4326554138
 11
155.239367028
 21
31.4649194065
 12
155.6440543074
 22
31.4649194065
 13
155.6440543074
 23
31.4649194065
  0
SOLID
  8
0
 62
7
  6
CONTINUOUS
 10
155.3549915869
 20
31.4326554138
 11
155.6440543074
 21
31.4649194065
 12
155.412804528
 22
31.3681282026
 13
155.412804528
 23
31.3681282026
  0
SOLID
  8
0
 62
7
  6
CONTINUOUS
 10
155.6440543074
 20
31.4649194065
 11
155.7018665869
 21
31.3681282026
 12
155.412804528
 22
31.3681282026
 13
155.412804528
 23
31.3681282026
  0
SOLID
  8
0
 62
7
  6
CONTINUOUS
 10
155.412804528
 20
31.2713369632
 11
155.412804528
 21
31.3681282026
 12
155.7018665869
 22
31.3681282026
 13
155.7018665869
 23
31.3681282026
  0
SOLID
  8
0
 62
7
  6
CONTINUOUS
 10
155.412804528
 20
31.2713369632
 11
155.7018665869
 21
31.3681282026
 12
155.412804528
 22
31.1422827828
 13
155.412804528
 23
31.1422827828
  0
SOLID
  8
0
 62
7
  6
CONTINUOUS
 10
155.412804528
 20
31.1422827828
 11
155.7018665869
 21
31.3681282026
 12
155.412804528
 22
30.9487004259
 13
155.412804528
 23
30.9487004259
  0
SOLID
  8
0
 62
7
  6
CONTINUOUS
 10
155.7018665869
 20
31.3681282026
 11
155.7018665869
 21
30.8519086025
 12
155.412804528
 22
30.9487004259
 13
155.412804528
 23
30.9487004259
  0
SOLID
  8
0
 62
7
  6
CONTINUOUS
 10
157.6096790869
 20
31.5939736268
 11
157.840929528
 21
31.6262383465
 12
158.0721793074
 22
31.6262383465
 13
158.0721793074
 23
31.6262383465
  0
SOLID
  8
0
 62
7
  6
CONTINUOUS
 10
158.0721793074
 20
31.6262383465
 11
158.2456168074
 21
31.5939736268
 12
157.6096790869
 22
31.5939736268
 13
157.6096790869
 23
31.5939736268
  0
SOLID
  8
0
 62
7
  6
CONTINUOUS
 10
157.4362415869
 20
31.5294472848
 11
157.6096790869
 21
31.5939736268
 12
158.2456168074
 22
31.5939736268
 13
158.2456168074
 23
31.5939736268
  0
SOLID
  8
0
 62
7
  6
CONTINUOUS
 10
158.2456168074
 20
31.5939736268
 11
158.4190543074
 21
31.5294472848
 12
157.4362415869
 22
31.5294472848
 13
157.4362415869
 23
31.5294472848
  0
SOLID
  8
0
 62
7
  6
CONTINUOUS
 10
158.4190543074
 20
31.5294472848
 11
157.840929528
 21
31.4971825369
 12
157.4362415869
 22
31.5294472848
 13
157.4362415869
 23
31.5294472848
  0
SOLID
  8
0
 62
7
  6
CONTINUOUS
 10
157.320617028
 20
31.4649199103
 11
157.4362415869
 21
31.5294472848
 12
157.840929528
 22
31.4971825369
 13
157.840929528
 23
31.4971825369
  0
SOLID
  8
0
 62
7
  6
CONTINUOUS
 10
157.840929528
 20
31.4971825369
 11
157.6096790869
 21
31.4649199103
 12
157.320617028
 22
31.4649199103
 13
157.320617028
 23
31.4649199103
  0
SOLID
  8
0
 62
7
  6
CONTINUOUS
 10
157.840929528
 20
31.4971825369
 11
158.4190543074
 21
31.5294472848
 12
158.0721793074
 22
31.4649199103
 13
158.0721793074
 23
31.4649199103
  0
SOLID
  8
0
 62
7
  6
CONTINUOUS
 10
158.4190543074
 20
31.5294472848
 11
158.534679528
 21
31.4649199103
 12
158.0721793074
 22
31.4649199103
 13
158.0721793074
 23
31.4649199103
  0
SOLID
  8
0
 62
7
  6
CONTINUOUS
 10
158.187804528
 20
31.4326554468
 11
158.0721793074
 21
31.4649199103
 12
158.534679528
 22
31.4649199103
 13
158.534679528
 23
31.4649199103
  0
SOLID
  8
0
 62
7
  6
CONTINUOUS
 10
158.187804528
 20
31.4326554468
 11
158.534679528
 21
31.4649199103
 12
158.3034290869
 22
31.3681288486
 13
158.3034290869
 23
31.3681288486
  0
SOLID
  8
0
 62
7
  6
CONTINUOUS
 10
158.534679528
 20
31.4649199103
 11
158.5924918074
 21
31.3681288486
 12
158.3034290869
 22
31.3681288486
 13
158.3034290869
 23
31.3681288486
  0
SOLID
  8
0
 62
7
  6
CONTINUOUS
 10
158.361242028
 20
31.2068093799
 11
158.3034290869
 21
31.3681288486
 12
158.5924918074
 22
31.3681288486
 13
158.5924918074
 23
31.3681288486
  0
SOLID
  8
0
 62
7
  6
CONTINUOUS
 10
158.5924918074
 20
31.3681288486
 11
158.6503040869
 21
31.2068093799
 12
158.361242028
 22
31.2068093799
 13
158.361242028
 23
31.2068093799
  0
SOLID
  8
0
 62
7
  6
CONTINUOUS
 10
157.6096790869
 20
31.4649199103
 11
157.4362415869
 21
31.4003926599
 12
157.320617028
 22
31.4649199103
 13
157.320617028
 23
31.4649199103
  0
SOLID
  8
0
 62
7
  6
CONTINUOUS
 10
157.4362415869
 20
31.4003926599
 11
157.320617028
 21
31.3358640533
 12
157.320617028
 22
31.4649199103
 13
157.320617028
 23
31.4649199103
  0
SOLID
  8
0
 62
7
  6
CONTINUOUS
 10
157.320617028
 20
31.3358640533
 11
157.0315543074
 21
30.5938003547
 12
157.320617028
 22
31.4649199103
 13
157.320617028
 23
31.4649199103
  0
SOLID
  8
0
 62
7
  6
CONTINUOUS
 10
157.320617028
 20
31.4649199103
 11
157.0315543074
 21
30.5938003547
 12
157.320617028
 22
31.6262383465
 13
157.320617028
 23
31.6262383465
  0
SOLID
  8
0
 62
7
  6
CONTINUOUS
 10
157.0315543074
 20
30.5938003547
 11
157.0315543074
 21
31.6262383465
 12
157.320617028
 22
31.6262383465
 13
157.320617028
 23
31.6262383465
  0
SOLID
  8
0
 62
7
  6
CONTINUOUS
 10
157.320617028
 20
31.3358640533
 11
157.320617028
 21
30.5938003547
 12
157.0315543074
 22
30.5938003547
 13
157.0315543074
 23
30.5938003547
  0
SOLID
  8
0
 62
7
  6
CONTINUOUS
 10
158.361242028
 20
30.5938003547
 11
158.361242028
 21
31.2068093799
 12
158.6503040869
 22
31.2068093799
 13
158.6503040869
 23
31.2068093799
  0
SOLID
  8
0
 62
7
  6
CONTINUOUS
 10
158.6503040869
 20
31.2068093799
 11
158.6503040869
 21
30.5938003547
 12
158.361242028
 22
30.5938003547
 13
158.361242028
 23
30.5938003547
  0
SOLID
  8
0
 62
7
  6
CONTINUOUS
 10
159.4596793074
 20
31.5939739474
 11
159.8065543074
 21
31.6262381969
 12
160.1534293074
 22
31.6262381969
 13
160.1534293074
 23
31.6262381969
  0
SOLID
  8
0
 62
7
  6
CONTINUOUS
 10
160.1534293074
 20
31.6262381969
 11
160.5003043074
 21
31.5939739474
 12
159.4596793074
 22
31.5939739474
 13
159.4596793074
 23
31.5939739474
  0
SOLID
  8
0
 62
7
  6
CONTINUOUS
 10
159.228429528
 20
31.5294468402
 11
159.4596793074
 21
31.5939739474
 12
160.5003043074
 22
31.5939739474
 13
160.5003043074
 23
31.5939739474
  0
SOLID
  8
0
 62
7
  6
CONTINUOUS
 10
159.228429528
 20
31.5294468402
 11
160.5003043074
 21
31.5939739304
 12
160.6737418074
 22
31.5617111435
 13
160.6737418074
 23
31.5617111435
  0
SOLID
  8
0
 62
7
  6
CONTINUOUS
 10
159.228429528
 20
31.5294468402
 11
160.6737418074
 21
31.5617111435
 12
159.8065543074
 22
31.4971825592
 13
159.8065543074
 23
31.4971825592
  0
SOLID
  8
0
 62
7
  6
CONTINUOUS
 10
159.8065543074
 20
31.4971825592
 11
160.6737418074
 21
31.5617111435
 12
160.1534293074
 22
31.4971825592
 13
160.1534293074
 23
31.4971825592
  0
SOLID
  8
0
 62
7
  6
CONTINUOUS
 10
160.6737418074
 20
31.5617111435
 11
160.8471793074
 21
31.4971825592
 12
160.1534293074
 22
31.4971825592
 13
160.1534293074
 23
31.4971825592
  0
SOLID
  8
0
 62
7
  6
CONTINUOUS
 10
160.5003043074
 20
31.4649197501
 11
160.1534293074
 21
31.4971825592
 12
160.8471793074
 22
31.4971825592
 13
160.8471793074
 23
31.4971825592
  0
SOLID
  8
0
 62
7
  6
CONTINUOUS
 10
159.1128043074
 20
31.4326555427
 11
159.228429528
 21
31.5294468402
 12
159.8065543074
 22
31.4971825592
 13
159.8065543074
 23
31.4971825592
  0
SOLID
  8
0
 62
7
  6
CONTINUOUS
 10
160.5003043074
 20
31.4649197501
 11
160.8471793074
 21
31.4971825592
 12
160.615929528
 22
31.4326555427
 13
160.615929528
 23
31.4326555427
  0
SOLID
  8
0
 62
7
  6
CONTINUOUS
 10
160.615929528
 20
31.4326555427
 11
160.8471793074
 21
31.4971825592
 12
160.6737418074
 22
31.3681283005
 13
160.6737418074
 23
31.3681283005
  0
SOLID
  8
0
 62
7
  6
CONTINUOUS
 10
160.8471793074
 20
31.4971825592
 11
160.9628038663
 21
31.3681283005
 12
160.6737418074
 22
31.3681283005
 13
160.6737418074
 23
31.3681283005
  0
SOLID
  8
0
 62
7
  6
CONTINUOUS
 10
150.2674918074
 20
31.4649197501
 11
149.7471793074
 21
31.4326554237
 12
150.498741835
 22
31.4971824493
 13
150.498741835
 23
31.4971824493
  0
SOLID
  8
0
 62
7
  6
CONTINUOUS
 10
149.7471793074
 20
31.4326554237
 11
149.8628043005
 21
31.4971824493
 12
150.498741835
 22
31.4971824493
 13
150.498741835
 23
31.4971824493
  0
SOLID
  8
0
 62
7
  6
CONTINUOUS
 10
150.2674918074
 20
31.4649197501
 11
150.1518667936
 21
31.4326554237
 12
149.7471793074
 22
31.4326554237
 13
149.7471793074
 23
31.4326554237
  0
SOLID
  8
0
 62
7
  6
CONTINUOUS
 10
149.6315543091
 20
31.3036012664
 11
149.7471793074
 21
31.4326554237
 12
150.1518667936
 22
31.4326554237
 13
150.1518667936
 23
31.4326554237
  0
SOLID
  8
0
 62
7
  6
CONTINUOUS
 10
153.9674919177
 20
31.4326554237
 11
154.6612419177
 21
31.4971825369
 12
154.4299918074
 22
31.4649197501
 13
154.4299918074
 23
31.4649197501
  0
SOLID
  8
0
 62
7
  6
CONTINUOUS
 10
154.4299918074
 20
31.4649197501
 11
154.3143669177
 21
31.4326554237
 12
153.9674919177
 22
31.4326554237
 13
153.9674919177
 23
31.4326554237
  0
SOLID
  8
0
 62
7
  6
CONTINUOUS
 10
153.9674919177
 20
31.3681283335
 11
153.9674919177
 21
31.4326554237
 12
154.3143669177
 22
31.4326554237
 13
154.3143669177
 23
31.4326554237
  0
SOLID
  8
0
 62
7
  6
CONTINUOUS
 10
154.3143669177
 20
31.4326554237
 11
154.2565543074
 21
31.3681283335
 12
153.9674919177
 22
31.3681283335
 13
153.9674919177
 23
31.3681283335
  0
SOLID
  8
0
 62
7
  6
CONTINUOUS
 10
159.1128043074
 20
31.4326555528
 11
159.8065543074
 21
31.4971825369
 12
159.575304528
 22
31.4649197501
 13
159.575304528
 23
31.4649197501
  0
SOLID
  8
0
 62
7
  6
CONTINUOUS
 10
159.575304528
 20
31.4649197501
 11
159.4596793074
 21
31.4326555528
 12
159.1128043074
 22
31.4326555528
 13
159.1128043074
 23
31.4326555528
  0
SOLID
  8
0
 62
7
  6
CONTINUOUS
 10
159.1128043074
 20
31.3681284626
 11
159.1128043074
 21
31.4326555528
 12
159.4596793074
 22
31.4326555528
 13
159.4596793074
 23
31.4326555528
  0
SOLID
  8
0
 62
7
  6
CONTINUOUS
 10
159.4596793074
 20
31.4326555528
 11
159.401867028
 21
31.3681284626
 12
159.1128043074
 22
31.3681284626
 13
159.1128043074
 23
31.3681284626
  0
SOLID
  8
0
 62
7
  6
CONTINUOUS
 10
159.228429528
 20
31.2390741763
 11
159.1128043074
 21
31.3681284626
 12
159.401867028
 22
31.3681284626
 13
159.401867028
 23
31.3681284626
  0
SOLID
  8
0
 62
7
  6
CONTINUOUS
 10
149.6315543091
 20
31.3036012664
 11
150.1518667936
 21
31.4326554468
 12
149.9784292936
 22
31.3358640533
 13
149.9784292936
 23
31.3358640533
  0
SOLID
  8
0
 62
7
  6
CONTINUOUS
 10
149.9784292936
 20
31.3358640533
 11
149.9206168074
 21
31.2713369632
 12
149.6315543091
 22
31.3036012664
 13
149.6315543091
 23
31.3036012664
  0
SOLID
  8
0
 62
7
  6
CONTINUOUS
 10
149.5737418074
 20
31.1100184796
 11
149.6315543091
 21
31.3036012664
 12
149.9206168074
 22
31.2713369632
 13
149.9206168074
 23
31.2713369632
  0
SOLID
  8
0
 62
7
  6
CONTINUOUS
 10
154.4299918074
 20
31.2390741763
 11
154.7768668074
 21
31.271336924
 12
155.412804528
 22
31.271336924
 13
155.412804528
 23
31.271336924
  0
SOLID
  8
0
 62
7
  6
CONTINUOUS
 10
154.4299918074
 20
31.2390741763
 11
155.412804528
 21
31.271336924
 12
154.1987416972
 22
31.1745462761
 13
154.1987416972
 23
31.1745462761
  0
SOLID
  8
0
 62
7
  6
CONTINUOUS
 10
154.1987416972
 20
31.1745462761
 11
155.412804528
 21
31.271336924
 12
154.7768668074
 22
31.1422827436
 13
154.7768668074
 23
31.1422827436
  0
SOLID
  8
0
 62
7
  6
CONTINUOUS
 10
155.412804528
 20
31.271336924
 11
155.412804528
 21
31.1422827436
 12
154.7768668074
 22
31.1422827436
 13
154.7768668074
 23
31.1422827436
  0
SOLID
  8
0
 62
7
  6
CONTINUOUS
 10
159.228429528
 20
31.2390745501
 11
159.401867028
 21
31.3681283566
 12
159.4596793074
 22
31.3036012664
 13
159.4596793074
 23
31.3036012664
  0
SOLID
  8
0
 62
7
  6
CONTINUOUS
 10
159.4596793074
 20
31.3036012664
 11
159.6331168074
 21
31.2390745501
 12
159.228429528
 22
31.2390745501
 13
159.228429528
 23
31.2390745501
  0
SOLID
  8
0
 62
7
  6
CONTINUOUS
 10
159.4596793074
 20
31.1422827828
 11
159.228429528
 21
31.2390745501
 12
159.6331168074
 22
31.2390745501
 13
159.6331168074
 23
31.2390745501
  0
SOLID
  8
0
 62
7
  6
CONTINUOUS
 10
159.6331168074
 20
31.2390745501
 11
160.615929528
 21
31.0777556927
 12
159.4596793074
 22
31.1422827828
 13
159.4596793074
 23
31.1422827828
  0
SOLID
  8
0
 62
7
  6
CONTINUOUS
 10
160.442492028
 20
30.9809646623
 11
159.4596793074
 21
31.1422827828
 12
160.615929528
 22
31.0777556927
 13
160.615929528
 23
31.0777556927
  0
SOLID
  8
0
 62
7
  6
CONTINUOUS
 10
160.615929528
 20
31.0777556927
 11
160.8471793074
 21
30.9809646623
 12
160.442492028
 22
30.9809646623
 13
160.442492028
 23
30.9809646623
  0
SOLID
  8
0
 62
7
  6
CONTINUOUS
 10
160.615929528
 20
30.9164372091
 11
160.442492028
 21
30.9809646623
 12
160.8471793074
 22
30.9809646623
 13
160.8471793074
 23
30.9809646623
  0
SOLID
  8
0
 62
7
  6
CONTINUOUS
 10
160.615929528
 20
30.9164372091
 11
160.8471793074
 21
30.9809646623
 12
160.6737418074
 22
30.8519089441
 13
160.6737418074
 23
30.8519089441
  0
SOLID
  8
0
 62
7
  6
CONTINUOUS
 10
160.8471793074
 20
30.9809646623
 11
160.9628038663
 21
30.8519089441
 12
160.6737418074
 22
30.8519089441
 13
160.6737418074
 23
30.8519089441
  0
SOLID
  8
0
 62
7
  6
CONTINUOUS
 10
160.615929528
 20
30.7873818593
 11
160.6737418074
 21
30.8519089441
 12
160.9628038663
 22
30.8519089441
 13
160.9628038663
 23
30.8519089441
  0
SOLID
  8
0
 62
7
  6
CONTINUOUS
 10
160.9628038663
 20
30.8519089441
 11
160.9628038663
 21
30.7873818593
 12
160.615929528
 22
30.7873818593
 13
160.615929528
 23
30.7873818593
  0
SOLID
  8
0
 62
7
  6
CONTINUOUS
 10
160.5003043074
 20
30.7551187255
 11
160.615929528
 21
30.7873818593
 12
160.9628038663
 22
30.7873818593
 13
160.9628038663
 23
30.7873818593
  0
SOLID
  8
0
 62
7
  6
CONTINUOUS
 10
160.5003043074
 20
30.7551187255
 11
160.9628038663
 21
30.7873818593
 12
160.269054528
 22
30.7228547745
 13
160.269054528
 23
30.7228547745
  0
SOLID
  8
0
 62
7
  6
CONTINUOUS
 10
160.9628038663
 20
30.7873818593
 11
160.8471793074
 21
30.6905916353
 12
160.269054528
 22
30.7228547745
 13
160.269054528
 23
30.7228547745
  0
SOLID
  8
0
 62
7
  6
CONTINUOUS
 10
160.8471793074
 20
30.6905916353
 11
159.401867028
 21
30.658327332
 12
160.269054528
 22
30.7228547745
 13
160.269054528
 23
30.7228547745
  0
SOLID
  8
0
 62
7
  6
CONTINUOUS
 10
160.269054528
 20
30.7228547745
 11
159.401867028
 21
30.658327332
 12
159.922179528
 22
30.7228547745
 13
159.922179528
 23
30.7228547745
  0
SOLID
  8
0
 62
7
  6
CONTINUOUS
 10
159.401867028
 20
30.658327332
 11
159.228429528
 21
30.7228547745
 12
159.922179528
 22
30.7228547745
 13
159.922179528
 23
30.7228547745
  0
SOLID
  8
0
 62
7
  6
CONTINUOUS
 10
159.401867028
 20
30.658327332
 11
160.8471793074
 21
30.6905916353
 12
159.575304528
 22
30.6260629858
 13
159.575304528
 23
30.6260629858
  0
SOLID
  8
0
 62
7
  6
CONTINUOUS
 10
160.8471793074
 20
30.6905916353
 11
160.615929528
 21
30.6260629858
 12
159.575304528
 22
30.6260629858
 13
159.575304528
 23
30.6260629858
  0
SOLID
  8
0
 62
7
  6
CONTINUOUS
 10
159.922179528
 20
30.5938006049
 11
159.575304528
 21
30.6260629858
 12
160.615929528
 22
30.6260629858
 13
160.615929528
 23
30.6260629858
  0
SOLID
  8
0
 62
7
  6
CONTINUOUS
 10
160.615929528
 20
30.6260629858
 11
160.269054528
 21
30.5938006049
 12
159.922179528
 22
30.5938006049
 13
159.922179528
 23
30.5938006049
  0
SOLID
  8
0
 62
7
  6
CONTINUOUS
 10
149.5737418074
 20
31.1100184796
 11
149.9206168074
 21
31.2713369632
 12
149.8628043005
 22
31.1422827828
 13
149.8628043005
 23
31.1422827828
  0
SOLID
  8
0
 62
7
  6
CONTINUOUS
 10
149.8628043005
 20
31.1422827828
 11
149.8628043005
 21
31.0454914852
 12
149.5737418074
 22
31.1100184796
 13
149.5737418074
 23
31.1100184796
  0
SOLID
  8
0
 62
7
  6
CONTINUOUS
 10
149.6315543091
 20
30.9164372091
 11
149.5737418074
 21
31.1100184796
 12
149.8628043005
 22
31.0454914852
 13
149.8628043005
 23
31.0454914852
  0
SOLID
  8
0
 62
7
  6
CONTINUOUS
 10
149.8628043005
 20
31.0454914852
 11
149.9784292936
 21
30.8841729058
 12
149.6315543091
 22
30.9164372091
 13
149.6315543091
 23
30.9164372091
  0
SOLID
  8
0
 62
7
  6
CONTINUOUS
 10
149.7471793074
 20
30.7873813202
 11
149.6315543091
 21
30.9164372091
 12
149.9784292936
 22
30.8841729058
 13
149.9784292936
 23
30.8841729058
  0
SOLID
  8
0
 62
7
  6
CONTINUOUS
 10
149.9784292936
 20
30.8841729058
 11
150.1518667936
 21
30.7873813202
 12
149.7471793074
 22
30.7873813202
 13
149.7471793074
 23
30.7873813202
  0
SOLID
  8
0
 62
7
  6
CONTINUOUS
 10
149.8628043005
 20
30.7228547004
 11
149.7471793074
 21
30.7873813202
 12
150.1518667936
 22
30.7873813202
 13
150.1518667936
 23
30.7873813202
  0
SOLID
  8
0
 62
7
  6
CONTINUOUS
 10
150.1518667936
 20
30.7873813202
 11
150.498741835
 21
30.7228547004
 12
149.8628043005
 22
30.7228547004
 13
149.8628043005
 23
30.7228547004
  0
SOLID
  8
0
 62
7
  6
CONTINUOUS
 10
150.0362418212
 20
30.658327332
 11
149.8628043005
 21
30.7228547004
 12
150.498741835
 22
30.7228547004
 13
150.498741835
 23
30.7228547004
  0
SOLID
  8
0
 62
7
  6
CONTINUOUS
 10
154.0831168074
 20
31.1100184386
 11
154.1987416972
 21
31.1745462761
 12
154.7768668074
 22
31.1422827828
 13
154.7768668074
 23
31.1422827828
  0
SOLID
  8
0
 62
7
  6
CONTINUOUS
 10
154.7768668074
 20
31.1422827828
 11
154.5456166972
 21
31.1100184386
 12
154.0831168074
 22
31.1100184386
 13
154.0831168074
 23
31.1100184386
  0
SOLID
  8
0
 62
7
  6
CONTINUOUS
 10
153.9674919177
 20
30.9809642992
 11
154.0831168074
 21
31.1100184386
 12
154.5456166972
 22
31.1100184386
 13
154.5456166972
 23
31.1100184386
  0
SOLID
  8
0
 62
7
  6
CONTINUOUS
 10
154.3143669177
 20
31.0132277988
 11
153.9674919177
 21
30.9809642992
 12
154.4299918074
 22
31.0777556927
 13
154.4299918074
 23
31.0777556927
  0
SOLID
  8
0
 62
7
  6
CONTINUOUS
 10
153.9674919177
 20
30.9809642992
 11
154.5456166972
 21
31.1100184796
 12
154.4299918074
 22
31.0777556927
 13
154.4299918074
 23
31.0777556927
  0
SOLID
  8
0
 62
7
  6
CONTINUOUS
 10
154.3143669177
 20
31.0132277988
 11
154.2565543074
 21
30.9164372091
 12
153.9674919177
 22
30.9809642992
 13
153.9674919177
 23
30.9809642992
  0
SOLID
  8
0
 62
7
  6
CONTINUOUS
 10
153.9674919177
 20
30.8841729058
 11
153.9674919177
 21
30.9809642992
 12
154.2565543074
 22
30.9164372091
 13
154.2565543074
 23
30.9164372091
  0
SOLID
  8
0
 62
7
  6
CONTINUOUS
 10
154.2565543074
 20
30.9164372091
 11
154.2565543074
 21
30.8519086025
 12
153.9674919177
 22
30.8841729058
 13
153.9674919177
 23
30.8841729058
  0
SOLID
  8
0
 62
7
  6
CONTINUOUS
 10
154.0253041972
 20
30.7551187255
 11
153.9674919177
 21
30.8841729058
 12
154.2565543074
 22
30.8519086025
 13
154.2565543074
 23
30.8519086025
  0
SOLID
  8
0
 62
7
  6
CONTINUOUS
 10
155.412804528
 20
30.9487004259
 11
155.7018665869
 21
30.8519086025
 12
155.3549915869
 22
30.8841729058
 13
155.3549915869
 23
30.8841729058
  0
SOLID
  8
0
 62
7
  6
CONTINUOUS
 10
155.1815540869
 20
30.7873815123
 11
155.3549915869
 21
30.8841729058
 12
155.7018665869
 22
30.8519086025
 13
155.7018665869
 23
30.8519086025
  0
SOLID
  8
0
 62
7
  6
CONTINUOUS
 10
155.1815540869
 20
30.7873815123
 11
155.7018665869
 21
30.8519086025
 12
155.412804528
 22
30.7551187255
 13
155.412804528
 23
30.7551187255
  0
SOLID
  8
0
 62
7
  6
CONTINUOUS
 10
155.7018665869
 20
30.8519086025
 11
155.759679528
 21
30.6905916353
 12
155.412804528
 22
30.7551187255
 13
155.412804528
 23
30.7551187255
  0
SOLID
  8
0
 62
7
  6
CONTINUOUS
 10
155.4706168074
 20
30.658327332
 11
155.412804528
 21
30.7551187255
 12
155.759679528
 22
30.6905916353
 13
155.759679528
 23
30.6905916353
  0
SOLID
  8
0
 62
7
  6
CONTINUOUS
 10
155.4706168074
 20
30.658327332
 11
155.759679528
 21
30.6905916353
 12
155.5284290869
 22
30.5938002079
 13
155.5284290869
 23
30.5938002079
  0
SOLID
  8
0
 62
7
  6
CONTINUOUS
 10
155.759679528
 20
30.6905916353
 11
155.8174918074
 21
30.5938002079
 12
155.5284290869
 22
30.5938002079
 13
155.5284290869
 23
30.5938002079
  0
SOLID
  8
0
 62
7
  6
CONTINUOUS
 10
151.0768668626
 20
30.8196456577
 11
151.1346793074
 21
30.9164373395
 12
151.4237418626
 22
30.9164373395
 13
151.4237418626
 23
30.9164373395
  0
SOLID
  8
0
 62
7
  6
CONTINUOUS
 10
151.4237418626
 20
30.9164373395
 11
151.3659292523
 21
30.7873815123
 12
151.0768668626
 22
30.8196456577
 13
151.0768668626
 23
30.8196456577
  0
SOLID
  8
0
 62
7
  6
CONTINUOUS
 10
150.9034292799
 20
30.7551187255
 11
151.0768668626
 21
30.8196456577
 12
151.3659292523
 22
30.7873815123
 13
151.3659292523
 23
30.7873815123
  0
SOLID
  8
0
 62
7
  6
CONTINUOUS
 10
150.9034292799
 20
30.7551187255
 11
151.3659292523
 21
30.7873815123
 12
150.498741835
 22
30.7228544222
 13
150.498741835
 23
30.7228544222
  0
SOLID
  8
0
 62
7
  6
CONTINUOUS
 10
151.3659292523
 20
30.7873815123
 11
151.1924917523
 21
30.6905916353
 12
150.498741835
 22
30.7228544222
 13
150.498741835
 23
30.7228544222
  0
SOLID
  8
0
 62
7
  6
CONTINUOUS
 10
150.0362418212
 20
30.658327332
 11
150.498741835
 21
30.7228544222
 12
151.1924917523
 22
30.6905916353
 13
151.1924917523
 23
30.6905916353
  0
SOLID
  8
0
 62
7
  6
CONTINUOUS
 10
150.0362418212
 20
30.658327332
 11
151.1924917523
 21
30.6905916353
 12
150.2096793212
 22
30.6260631011
 13
150.2096793212
 23
30.6260631011
  0
SOLID
  8
0
 62
7
  6
CONTINUOUS
 10
151.1924917523
 20
30.6905916353
 11
150.9612418074
 21
30.6260631011
 12
150.2096793212
 22
30.6260631011
 13
150.2096793212
 23
30.6260631011
  0
SOLID
  8
0
 62
7
  6
CONTINUOUS
 10
150.5565542799
 20
30.5938002419
 11
150.2096793212
 21
30.6260631011
 12
150.9612418074
 22
30.6260631011
 13
150.9612418074
 23
30.6260631011
  0
SOLID
  8
0
 62
7
  6
CONTINUOUS
 10
154.0253041972
 20
30.7551187255
 11
154.2565543074
 21
30.8519086025
 12
154.3143669177
 22
30.7873815123
 13
154.3143669177
 23
30.7873815123
  0
SOLID
  8
0
 62
7
  6
CONTINUOUS
 10
154.3143669177
 20
30.7873815123
 11
154.5456166972
 21
30.7228544222
 12
154.0253041972
 22
30.7551187255
 13
154.0253041972
 23
30.7551187255
  0
SOLID
  8
0
 62
7
  6
CONTINUOUS
 10
154.1987416972
 20
30.658327332
 11
154.0253041972
 21
30.7551187255
 12
154.5456166972
 22
30.7228544222
 13
154.5456166972
 23
30.7228544222
  0
SOLID
  8
0
 62
7
  6
CONTINUOUS
 10
154.8924916972
 20
30.7228544637
 11
155.1815540869
 21
30.7873815123
 12
155.412804528
 22
30.7551187255
 13
155.412804528
 23
30.7551187255
  0
SOLID
  8
0
 62
7
  6
CONTINUOUS
 10
155.412804528
 20
30.7551187255
 11
155.3549915869
 21
30.6905916353
 12
154.8924916972
 22
30.7228544637
 13
154.8924916972
 23
30.7228544637
  0
SOLID
  8
0
 62
7
  6
CONTINUOUS
 10
155.3549915869
 20
30.6905916353
 11
154.1987416972
 21
30.658327332
 12
154.8924916972
 22
30.7228544637
 13
154.8924916972
 23
30.7228544637
  0
SOLID
  8
0
 62
7
  6
CONTINUOUS
 10
154.1987416972
 20
30.658327332
 11
154.5456166972
 21
30.7228544637
 12
154.8924916972
 22
30.7228544637
 13
154.8924916972
 23
30.7228544637
  0
SOLID
  8
0
 62
7
  6
CONTINUOUS
 10
154.1987416972
 20
30.658327332
 11
155.3549915869
 21
30.6905916353
 12
154.3143669177
 22
30.6260630541
 13
154.3143669177
 23
30.6260630541
  0
SOLID
  8
0
 62
7
  6
CONTINUOUS
 10
155.3549915869
 20
30.6905916353
 11
155.1815540869
 21
30.6260630541
 12
154.3143669177
 22
30.6260630541
 13
154.3143669177
 23
30.6260630541
  0
SOLID
  8
0
 62
7
  6
CONTINUOUS
 10
154.5456166972
 20
30.5938002188
 11
154.3143669177
 21
30.6260630541
 12
155.1815540869
 22
30.6260630541
 13
155.1815540869
 23
30.6260630541
  0
SOLID
  8
0
 62
7
  6
CONTINUOUS
 10
155.1815540869
 20
30.6260630541
 11
154.8924916972
 21
30.5938002188
 12
154.5456166972
 22
30.5938002188
 13
154.5456166972
 23
30.5938002188
  0
SOLID
  8
0
 62
7
  6
CONTINUOUS
 10
159.575304528
 20
30.7551187255
 11
159.228429528
 21
30.7228544637
 12
159.4596793074
 22
30.7873815123
 13
159.4596793074
 23
30.7873815123
  0
SOLID
  8
0
 62
7
  6
CONTINUOUS
 10
159.4596793074
 20
30.7873815123
 11
159.228429528
 21
30.7228544637
 12
159.401867028
 22
30.851908644
 13
159.401867028
 23
30.851908644
  0
SOLID
  8
0
 62
7
  6
CONTINUOUS
 10
159.228429528
 20
30.7228544637
 11
159.1128043074
 21
30.851908644
 12
159.401867028
 22
30.851908644
 13
159.401867028
 23
30.851908644
  0
SOLID
  8
0
 62
7
  6
CONTINUOUS
 10
159.575304528
 20
30.7551187255
 11
159.922179528
 21
30.7228544637
 12
159.228429528
 22
30.7228544637
 13
159.228429528
 23
30.7228544637
  0
SOLID
  8
0
 62
7
  6
CONTINUOUS
 10
156.279992028
 20
30.5938002419
 11
156.279992028
 21
31.6262382337
 12
156.5690540869
 22
30.5938002419
 13
156.5690540869
 23
31.6262382337
  0
ENDBLK
  8
0
  6
BYBLOCK
 62
0
  0
BLOCK
  8
0
 62
2
  6
CONTINUOUS
  2
SYMBOL_3_BL0
 70
64
 10
32.1213064866
 20
19.8534310916
  0
TEXT
  8
0
 62
7
  6
CONTINUOUS
 10
18.3860103289
 20
19.2268451992
  7
TEXTSTYLE_3
 40
2.7338706658
  1
Ammeraal Beltech
 41
1.0
 51
15.0
 72
0
  0
TEXT
  8
0
 62
7
  6
CONTINUOUS
 10
29.1868111546
 20
16.9533085264
  7
TEXTSTYLE_4
 40
1.0935482663
  1
Innovation & Service in Belting
 41
1.0
 72
0
  0
LINE
  8
0
 62
7
  6
CONTINUOUS
 10
12.3614696776
 20
19.9934385078
 11
13.1396216709
 21
23.6543558055
  0
LINE
  8
0
 62
7
  6
CONTINUOUS
 10
23.2347899607
 20
27.3177497171
 11
13.6274394139
 21
24.1961322958
  0
LINE
  8
0
 62
7
  6
CONTINUOUS
 10
12.5867530099
 20
19.3000877048
 11
20.093828271
 21
12.5406867788
  0
LINE
  8
0
 62
7
  6
CONTINUOUS
 10
12.8492874206
 20
20.5352149982
 11
23.6575567857
 21
24.0470345971
  0
LINE
  8
0
 62
7
  6
CONTINUOUS
 10
23.6533516486
 20
13.6972460334
 11
15.2078919798
 21
21.3015720751
  0
LINE
  8
0
 62
7
  6
CONTINUOUS
 10
24.1731743684
 20
26.4728246013
 11
23.1966148312
 21
21.8784731989
  0
LINE
  8
0
 62
7
  6
CONTINUOUS
 10
22.4968128835
 20
18.5861638851
 11
21.810364672
 21
15.3566789607
  0
LINE
  8
0
 62
7
  6
CONTINUOUS
 10
24.8542704669
 20
14.087448211
 11
25.8105020025
 21
18.5861638851
  0
LINE
  8
0
 62
7
  6
CONTINUOUS
 10
26.5103039502
 20
21.8784731989
 11
26.9545457526
 21
23.9684665583
  0
LINE
  8
0
 62
7
  6
CONTINUOUS
 10
20.8069293463
 20
12.3891124661
 11
24.3664527239
 21
13.5456717207
  0
LINE
  8
0
 62
7
  6
CONTINUOUS
 10
23.9478910361
 20
27.1661754044
 11
26.7292624203
 21
24.6618173613
  0
ARC
  8
0
 62
7
  6
CONTINUOUS
 10
13.8527227462
 20
23.5027814928
 40
0.7290321776
 50
108.0
 51
168.0
  0
ARC
  8
0
 62
7
  6
CONTINUOUS
 10
23.4600732931
 20
26.624398914
 40
0.7290321776
 50
348.0
 51
108.0
  0
ARC
  8
0
 62
7
  6
CONTINUOUS
 10
26.2414446773
 20
24.120040871
 40
0.7290321776
 50
348.0
 51
48.0
  0
ARC
  8
0
 62
7
  6
CONTINUOUS
 10
20.581646014
 20
13.0824632691
 40
0.7290321776
 50
228.0
 51
288.0
  0
ARC
  8
0
 62
7
  6
CONTINUOUS
 10
13.0745707529
 20
19.8418641951
 40
0.7290321776
 50
108.0
 51
228.0
  0
ARC
  8
0
 62
7
  6
CONTINUOUS
 10
24.1411693916
 20
14.2390225237
 40
0.7290321776
 50
228.0
 51
348.0
  0
ENDBLK
  8
0
  6
BYBLOCK
 62
0
  0
ENDSEC
  0
SECTION
  2
ENTITIES
  0
TEXT
  8
0
 62
5
  6
CONTINUOUS
 10
96.0
 20
25.636
  7
TEXTSTYLE_2
 40
2.8
  1
Scale :
 41
0.6
 51
0.000019
 72
0
  0
TEXT
  8
0
 62
5
  6
CONTINUOUS
 10
116.0
 20
25.636
  7
TEXTSTYLE_2
 40
2.8
  1
Belt type:
 41
0.6
 51
0.000019
 72
0
  0
INSERT
  8
0
 62
2
  6
CONTINUOUS
  2
SYMBOL_3_BL0
 10
32.1213064866
 20
19.8534310916
  0
INSERT
  8
0
 62
2
  6
CONTINUOUS
  2
SYMBOL_8_BL1
 10
173.5956734183
 20
35.5937998301
  0
LINE
  8
0
 62
2
  6
CONTINUOUS
 10
10.0
 20
30.0
 11
200.0
 21
30.0
  0
LINE
  8
0
 62
2
  6
CONTINUOUS
 10
10.0
 20
30.0
 11
10.0
 21
10.0
  0
LINE
  8
0
 62
2
  6
CONTINUOUS
 10
10.0
 20
10.0
 11
200.0
 21
10.0
  0
LINE
  8
0
 62
2
  6
CONTINUOUS
 10
95.0
 20
30.0
 11
95.0
 21
10.0
  0
LINE
  8
0
 62
2
  6
CONTINUOUS
 10
115.0
 20
30.0
 11
115.0
 21
10.0
  0
LINE
  8
0
 62
2
  6
CONTINUOUS
 10
200.0
 20
30.0
 11
200.0
 21
10.0
  0
TEXT
  8
0
 62
5
  6
CONTINUOUS
 10
13.0
 20
23.303
  7
TEXTSTYLE_5
 40
1.52
  1
                                                                     Ammeraal Beltech Modular A/S
 41
1.0
 72
0
  0
TEXT
  8
0
 62
5
  6
CONTINUOUS
 10
13.0
 20
20.595
  7
TEXTSTYLE_5
 40
1.5
  1
                                                                      Hjulmagervej 21,  7100 Vejle,  DK
 41
1.0
 72
0
  0
TEXT
  8
0
 62
5
  6
CONTINUOUS
 10
13.0
 20
17.881
  7
TEXTSTYLE_5
 40
1.495
  1
                                                                      tel: 
 41
1.0
 72
0
  0
TEXT
  8
0
 62
5
  6
CONTINUOUS
 10
57.9869465649
 20
17.881
  7
TEXTSTYLE_5
 40
1.51
  1
+45 75723100     fax: +45 75723348
 41
1.0
 72
0
  0
TEXT
  8
0
 62
5
  6
CONTINUOUS
 10
13.0
 20
15.177
  7
TEXTSTYLE_5
 40
1.5
  1
                                                                      admin@unichains.dk  www.unichains.com
 41
1.0
 72
0
  0
TEXT
  8
0
 62
5
  6
CONTINUOUS
 10
99.75
 20
13.75
  7
TEXTSTYLE_6
 40
5.0
  1
1:1
 41
0.7
 72
1
 11
105.0
 21
13.75
  0
TEXT
  8
0
 62
5
  6
CONTINUOUS
 10
118.0
 20
13.75
  7
TEXTSTYLE_7
 40
7.5
  1
uni RTB CoverPlate M1
 41
0.4821428571
 72
0
  0
LINE
  8
0
 62
7
  6
CONTINUOUS
 10
210.0
 20
0.0
 11
0.0
 21
0.0
  0
LINE
  8
0
 62
7
  6
CONTINUOUS
 10
10.0
 20
10.0
 11
200.0
 21
10.0
  0
LINE
  8
0
 62
7
  6
CONTINUOUS
 10
10.0
 20
30.0
 11
200.0
 21
30.0
  0
LINE
  8
0
 62
7
  6
CONTINUOUS
 10
0.0
 20
0.0
 11
0.0
 21
297.0
  0
LINE
  8
0
 62
7
  6
CONTINUOUS
 10
10.0
 20
10.0
 11
10.0
 21
287.0
  0
LINE
  8
0
 62
7
  6
CONTINUOUS
 10
200.0
 20
287.0
 11
200.0
 21
10.0
  0
LINE
  8
0
 62
7
  6
CONTINUOUS
 10
210.0
 20
0.0
 11
210.0
 21
297.0
  0
LINE
  8
0
 62
7
  6
CONTINUOUS
 10
10.0
 20
287.0
 11
200.0
 21
287.0
  0
LINE
  8
0
 62
7
  6
CONTINUOUS
 10
0.0
 20
297.0
 11
210.0
 21
297.0
  0
LINE
  8
0
 62
7
  6
CONTINUOUS
 10
71.6196653423
 20
131.921118339
 11
71.6196653423
 21
136.6295903878
  0
LINE
  8
0
 62
7
  6
CONTINUOUS
 10
90.9739013667
 20
117.2753543634
 11
86.2654293179
 21
117.2753543634
  0
LINE
  8
0
 62
7
  6
CONTINUOUS
 10
82.1584935459
 20
118.3758044869
 11
78.0808371386
 21
120.7300405113
  0
LINE
  8
0
 62
7
  6
CONTINUOUS
 10
75.0743514902
 20
123.7365261598
 11
72.7201154657
 21
127.8141825671
  0
LINE
  8
0
 62
7
  6
CONTINUOUS
 10
72.7201154657
 20
140.7365261598
 11
75.0743514902
 21
144.8141825671
  0
LINE
  8
0
 62
7
  6
CONTINUOUS
 10
78.0808371386
 20
147.8206682155
 11
82.1584935459
 21
150.17490424
  0
POLYLINE
  8
0
 62
7
  6
CONTINUOUS
 66
1
 70
0
  0
VERTEX
  8
0
 62
7
  6
CONTINUOUS
 10
74.4942051555
 20
137.5615948884
  0
VERTEX
  8
0
 62
7
  6
CONTINUOUS
 10
74.4741112539
 20
137.492912342
  0
VERTEX
  8
0
 62
7
  6
CONTINUOUS
 10
74.441909142
 20
137.4181137044
  0
VERTEX
  8
0
 62
7
  6
CONTINUOUS
 10
74.4016098445
 20
137.3506499273
  0
VERTEX
  8
0
 62
7
  6
CONTINUOUS
 10
74.3543625544
 20
137.2912242499
  0
VERTEX
  8
0
 62
7
  6
CONTINUOUS
 10
74.3013505447
 20
137.2404920905
  0
VERTEX
  8
0
 62
7
  6
CONTINUOUS
 10
74.2438063935
 20
137.1989953952
  0
VERTEX
  8
0
 62
7
  6
CONTINUOUS
 10
74.1829101775
 20
137.1670714321
  0
VERTEX
  8
0
 62
7
  6
CONTINUOUS
 10
74.1199501872
 20
137.1449407164
  0
VERTEX
  8
0
 62
7
  6
CONTINUOUS
 10
74.0563682113
 20
137.1326103903
  0
VERTEX
  8
0
 62
7
  6
CONTINUOUS
 10
74.0052801677
 20
137.1295906104
  0
SEQEND
  0
POLYLINE
  8
0
 62
7
  6
CONTINUOUS
 66
1
 70
0
  0
VERTEX
  8
0
 62
7
  6
CONTINUOUS
 10
78.0297782429
 20
144.1840522344
  0
VERTEX
  8
0
 62
7
  6
CONTINUOUS
 10
77.9780351404
 20
144.1346183552
  0
VERTEX
  8
0
 62
7
  6
CONTINUOUS
 10
77.9127479747
 20
144.0859418909
  0
VERTEX
  8
0
 62
7
  6
CONTINUOUS
 10
77.8441158707
 20
144.0476661948
  0
VERTEX
  8
0
 62
7
  6
CONTINUOUS
 10
77.7734856785
 20
144.0198256935
  0
VERTEX
  8
0
 62
7
  6
CONTINUOUS
 10
77.7022098517
 20
144.0023963596
  0
VERTEX
  8
0
 62
7
  6
CONTINUOUS
 10
77.6316268073
 20
143.9952312429
  0
VERTEX
  8
0
 62
7
  6
CONTINUOUS
 10
77.5629271557
 20
143.9980323878
  0
VERTEX
  8
0
 62
7
  6
CONTINUOUS
 10
77.4973368468
 20
144.010346621
  0
VERTEX
  8
0
 62
7
  6
CONTINUOUS
 10
77.4361080774
 20
144.0314592333
  0
VERTEX
  8
0
 62
7
  6
CONTINUOUS
 10
77.3903546439
 20
144.054388049
  0
SEQEND
  0
POLYLINE
  8
0
 62
7
  6
CONTINUOUS
 66
1
 70
0
  0
VERTEX
  8
0
 62
7
  6
CONTINUOUS
 10
92.8364276581
 20
120.399226739
  0
VERTEX
  8
0
 62
7
  6
CONTINUOUS
 10
92.9059554389
 20
120.4161661829
  0
VERTEX
  8
0
 62
7
  6
CONTINUOUS
 10
92.9868340151
 20
120.4256776548
  0
VERTEX
  8
0
 62
7
  6
CONTINUOUS
 10
93.0654090087
 20
120.4245093279
  0
VERTEX
  8
0
 62
7
  6
CONTINUOUS
 10
93.1404968001
 20
120.4133048132
  0
VERTEX
  8
0
 62
7
  6
CONTINUOUS
 10
93.2109381438
 20
120.3927611458
  0
VERTEX
  8
0
 62
7
  6
CONTINUOUS
 10
93.2756474116
 20
120.3636747966
  0
VERTEX
  8
0
 62
7
  6
CONTINUOUS
 10
93.3337424826
 20
120.3268991082
  0
VERTEX
  8
0
 62
7
  6
CONTINUOUS
 10
93.3843882398
 20
120.283439515
  0
VERTEX
  8
0
 62
7
  6
CONTINUOUS
 10
93.4268576034
 20
120.2345410717
  0
VERTEX
  8
0
 62
7
  6
CONTINUOUS
 10
93.4550168313
 20
120.1918074181
  0
SEQEND
  0
POLYLINE
  8
0
 62
7
  6
CONTINUOUS
 66
1
 70
0
  0
VERTEX
  8
0
 62
7
  6
CONTINUOUS
 10
85.3334248173
 20
120.1498941766
  0
VERTEX
  8
0
 62
7
  6
CONTINUOUS
 10
85.4021073637
 20
120.129800275
  0
VERTEX
  8
0
 62
7
  6
CONTINUOUS
 10
85.4769060013
 20
120.0975981632
  0
VERTEX
  8
0
 62
7
  6
CONTINUOUS
 10
85.5443697784
 20
120.0572988656
  0
VERTEX
  8
0
 62
7
  6
CONTINUOUS
 10
85.6037954558
 20
120.0100515755
  0
VERTEX
  8
0
 62
7
  6
CONTINUOUS
 10
85.6545276152
 20
119.9570395658
  0
VERTEX
  8
0
 62
7
  6
CONTINUOUS
 10
85.6960243105
 20
119.8994954146
  0
VERTEX
  8
0
 62
7
  6
CONTINUOUS
 10
85.7279482736
 20
119.8385991987
  0
VERTEX
  8
0
 62
7
  6
CONTINUOUS
 10
85.7500789893
 20
119.7756392083
  0
VERTEX
  8
0
 62
7
  6
CONTINUOUS
 10
85.7624093154
 20
119.7120572324
  0
VERTEX
  8
0
 62
7
  6
CONTINUOUS
 10
85.7654290953
 20
119.6609691889
  0
SEQEND
  0
POLYLINE
  8
0
 62
7
  6
CONTINUOUS
 66
1
 70
0
  0
VERTEX
  8
0
 62
7
  6
CONTINUOUS
 10
78.710967472
 20
123.685467265
  0
VERTEX
  8
0
 62
7
  6
CONTINUOUS
 10
78.7603976294
 20
123.633728524
  0
VERTEX
  8
0
 62
7
  6
CONTINUOUS
 10
78.8090711413
 20
123.5684473025
  0
VERTEX
  8
0
 62
7
  6
CONTINUOUS
 10
78.8473454457
 20
123.4998219202
  0
VERTEX
  8
0
 62
7
  6
CONTINUOUS
 10
78.8751865416
 20
123.4291981999
  0
VERTEX
  8
0
 62
7
  6
CONTINUOUS
 10
78.8926184309
 20
123.3579273487
  0
VERTEX
  8
0
 62
7
  6
CONTINUOUS
 10
78.899787516
 20
123.287346711
  0
VERTEX
  8
0
 62
7
  6
CONTINUOUS
 10
78.8969906496
 20
123.2186455665
  0
VERTEX
  8
0
 62
7
  6
CONTINUOUS
 10
78.8846790456
 20
123.1530483619
  0
VERTEX
  8
0
 62
7
  6
CONTINUOUS
 10
78.8635656069
 20
123.0918090378
  0
VERTEX
  8
0
 62
7
  6
CONTINUOUS
 10
78.8406316347
 20
123.0460436724
  0
SEQEND
  0
POLYLINE
  8
0
 62
7
  6
CONTINUOUS
 66
1
 70
0
  0
VERTEX
  8
0
 62
7
  6
CONTINUOUS
 10
74.7435377179
 20
130.0585920476
  0
VERTEX
  8
0
 62
7
  6
CONTINUOUS
 10
74.7604771618
 20
129.9890642668
  0
VERTEX
  8
0
 62
7
  6
CONTINUOUS
 10
74.7699886337
 20
129.9081856906
  0
VERTEX
  8
0
 62
7
  6
CONTINUOUS
 10
74.7688203068
 20
129.829610697
  0
VERTEX
  8
0
 62
7
  6
CONTINUOUS
 10
74.7576157921
 20
129.7545229056
  0
VERTEX
  8
0
 62
7
  6
CONTINUOUS
 10
74.7370721246
 20
129.6840815619
  0
VERTEX
  8
0
 62
7
  6
CONTINUOUS
 10
74.7079857755
 20
129.6193722941
  0
VERTEX
  8
0
 62
7
  6
CONTINUOUS
 10
74.6712100871
 20
129.5612772231
  0
VERTEX
  8
0
 62
7
  6
CONTINUOUS
 10
74.6277504939
 20
129.5106314659
  0
VERTEX
  8
0
 62
7
  6
CONTINUOUS
 10
74.5788520506
 20
129.4681621023
  0
VERTEX
  8
0
 62
7
  6
CONTINUOUS
 10
74.5361183969
 20
129.4400028744
  0
SEQEND
  0
POLYLINE
  8
0
 62
7
  6
CONTINUOUS
 66
1
 70
0
  0
VERTEX
  8
0
 62
7
  6
CONTINUOUS
 10
84.5628070238
 20
144.0475458853
  0
VERTEX
  8
0
 62
7
  6
CONTINUOUS
 10
84.7706368469
 20
144.3764213886
  0
VERTEX
  8
0
 62
7
  6
CONTINUOUS
 10
85.0137071804
 20
144.6994878285
  0
VERTEX
  8
0
 62
7
  6
CONTINUOUS
 10
85.2833493468
 20
145.0020541051
  0
VERTEX
  8
0
 62
7
  6
CONTINUOUS
 10
85.5783678808
 20
145.2824965259
  0
VERTEX
  8
0
 62
7
  6
CONTINUOUS
 10
85.8974991963
 20
145.5391889916
  0
VERTEX
  8
0
 62
7
  6
CONTINUOUS
 10
86.2393956324
 20
145.7705132119
  0
VERTEX
  8
0
 62
7
  6
CONTINUOUS
 10
86.6026367281
 20
145.9748884056
  0
VERTEX
  8
0
 62
7
  6
CONTINUOUS
 10
86.9857163825
 20
146.1507797556
  0
VERTEX
  8
0
 62
7
  6
CONTINUOUS
 10
87.3874431948
 20
146.2968473581
  0
VERTEX
  8
0
 62
7
  6
CONTINUOUS
 10
87.8073284687
 20
146.4118863991
  0
VERTEX
  8
0
 62
7
  6
CONTINUOUS
 10
88.2449320712
 20
146.4944497828
  0
VERTEX
  8
0
 62
7
  6
CONTINUOUS
 10
88.6997847471
 20
146.5428623136
  0
VERTEX
  8
0
 62
7
  6
CONTINUOUS
 10
89.1721703234
 20
146.5552656904
  0
VERTEX
  8
0
 62
7
  6
CONTINUOUS
 10
89.6628661351
 20
146.5294118609
  0
VERTEX
  8
0
 62
7
  6
CONTINUOUS
 10
90.1724359696
 20
146.4627070551
  0
VERTEX
  8
0
 62
7
  6
CONTINUOUS
 10
90.7001490315
 20
146.3527663226
  0
VERTEX
  8
0
 62
7
  6
CONTINUOUS
 10
91.243479754
 20
146.1984184571
  0
VERTEX
  8
0
 62
7
  6
CONTINUOUS
 10
91.8003235982
 20
146.0000172999
  0
VERTEX
  8
0
 62
7
  6
CONTINUOUS
 10
92.3729222315
 20
145.7581193166
  0
VERTEX
  8
0
 62
7
  6
CONTINUOUS
 10
92.9696664513
 20
145.4719212187
  0
VERTEX
  8
0
 62
7
  6
CONTINUOUS
 10
93.5977435883
 20
145.1424264346
  0
VERTEX
  8
0
 62
7
  6
CONTINUOUS
 10
94.2477425741
 20
144.7811056753
  0
VERTEX
  8
0
 62
7
  6
CONTINUOUS
 10
94.9019058493
 20
144.4034437527
  0
VERTEX
  8
0
 62
7
  6
CONTINUOUS
 10
95.5398848497
 20
144.0211991629
  0
VERTEX
  8
0
 62
7
  6
CONTINUOUS
 10
96.1393935034
 20
143.642017605
  0
VERTEX
  8
0
 62
7
  6
CONTINUOUS
 10
96.6857671111
 20
143.2683257929
  0
VERTEX
  8
0
 62
7
  6
CONTINUOUS
 10
97.1817079064
 20
142.8934043318
  0
VERTEX
  8
0
 62
7
  6
CONTINUOUS
 10
97.6320970741
 20
142.5103893662
  0
VERTEX
  8
0
 62
7
  6
CONTINUOUS
 10
98.0375758242
 20
142.117054209
  0
VERTEX
  8
0
 62
7
  6
CONTINUOUS
 10
98.3967871841
 20
141.7150372327
  0
VERTEX
  8
0
 62
7
  6
CONTINUOUS
 10
98.7094826516
 20
141.3071057242
  0
VERTEX
  8
0
 62
7
  6
CONTINUOUS
 10
98.97735877
 20
140.8950859126
  0
VERTEX
  8
0
 62
7
  6
CONTINUOUS
 10
99.2029408195
 20
140.4797903578
  0
VERTEX
  8
0
 62
7
  6
CONTINUOUS
 10
99.3885632736
 20
140.0616746667
  0
VERTEX
  8
0
 62
7
  6
CONTINUOUS
 10
99.5359789927
 20
139.641423873
  0
VERTEX
  8
0
 62
7
  6
CONTINUOUS
 10
99.6464069084
 20
139.2202795147
  0
VERTEX
  8
0
 62
7
  6
CONTINUOUS
 10
99.7208821435
 20
138.7993431489
  0
VERTEX
  8
0
 62
7
  6
CONTINUOUS
 10
99.7602046479
 20
138.3796370675
  0
VERTEX
  8
0
 62
7
  6
CONTINUOUS
 10
99.7649388052
 20
137.9628617464
  0
VERTEX
  8
0
 62
7
  6
CONTINUOUS
 10
99.7356601139
 20
137.5510890831
  0
VERTEX
  8
0
 62
7
  6
CONTINUOUS
 10
99.6730267659
 20
137.1463398699
  0
VERTEX
  8
0
 62
7
  6
CONTINUOUS
 10
99.577765868
 20
136.7505905247
  0
VERTEX
  8
0
 62
7
  6
CONTINUOUS
 10
99.4506533992
 20
136.365748747
  0
VERTEX
  8
0
 62
7
  6
CONTINUOUS
 10
99.2924975924
 20
135.993662446
  0
VERTEX
  8
0
 62
7
  6
CONTINUOUS
 10
99.1110606098
 20
135.6481077612
  0
SEQEND
  0
LINE
  8
0
 62
7
  6
CONTINUOUS
 10
78.1282700223
 20
132.9026009959
 11
84.5628069717
 21
144.0475459154
  0
POLYLINE
  8
0
 62
7
  6
CONTINUOUS
 66
1
 70
0
  0
VERTEX
  8
0
 62
7
  6
CONTINUOUS
 10
85.7654293358
 20
117.7753543634
  0
VERTEX
  8
0
 62
7
  6
CONTINUOUS
 10
85.7666064664
 20
117.7410649654
  0
VERTEX
  8
0
 62
7
  6
CONTINUOUS
 10
85.776096447
 20
117.6726249059
  0
VERTEX
  8
0
 62
7
  6
CONTINUOUS
 10
85.7950628253
 20
117.6057803011
  0
VERTEX
  8
0
 62
7
  6
CONTINUOUS
 10
85.8232205424
 20
117.5420061282
  0
VERTEX
  8
0
 62
7
  6
CONTINUOUS
 10
85.8603399361
 20
117.4822629224
  0
VERTEX
  8
0
 62
7
  6
CONTINUOUS
 10
85.9059020365
 20
117.4278775528
  0
VERTEX
  8
0
 62
7
  6
CONTINUOUS
 10
85.9591921885
 20
117.380109097
  0
VERTEX
  8
0
 62
7
  6
CONTINUOUS
 10
86.0192136892
 20
117.3401786929
  0
VERTEX
  8
0
 62
7
  6
CONTINUOUS
 10
86.0850960746
 20
117.3090069378
  0
VERTEX
  8
0
 62
7
  6
CONTINUOUS
 10
86.1550471969
 20
117.2876907628
  0
VERTEX
  8
0
 62
7
  6
CONTINUOUS
 10
86.2276622637
 20
117.2767827541
  0
VERTEX
  8
0
 62
7
  6
CONTINUOUS
 10
86.2649262966
 20
117.2753546544
  0
SEQEND
  0
POLYLINE
  8
0
 62
7
  6
CONTINUOUS
 66
1
 70
0
  0
VERTEX
  8
0
 62
7
  6
CONTINUOUS
 10
85.765429332
 20
150.7753543634
  0
VERTEX
  8
0
 62
7
  6
CONTINUOUS
 10
85.7664321629
 20
150.8070062088
  0
VERTEX
  8
0
 62
7
  6
CONTINUOUS
 10
85.7750395846
 20
150.8729141375
  0
VERTEX
  8
0
 62
7
  6
CONTINUOUS
 10
85.7923581418
 20
150.9372298167
  0
VERTEX
  8
0
 62
7
  6
CONTINUOUS
 10
85.8182853345
 20
150.9991003312
  0
VERTEX
  8
0
 62
7
  6
CONTINUOUS
 10
85.8524731899
 20
151.0572537007
  0
VERTEX
  8
0
 62
7
  6
CONTINUOUS
 10
85.8945034973
 20
151.1106363874
  0
VERTEX
  8
0
 62
7
  6
CONTINUOUS
 10
85.9438298644
 20
151.1582039311
  0
VERTEX
  8
0
 62
7
  6
CONTINUOUS
 10
85.9996434499
 20
151.1988610013
  0
VERTEX
  8
0
 62
7
  6
CONTINUOUS
 10
86.0609285772
 20
151.2316212229
  0
VERTEX
  8
0
 62
7
  6
CONTINUOUS
 10
86.1266155943
 20
151.2556987713
  0
VERTEX
  8
0
 62
7
  6
CONTINUOUS
 10
86.1952543031
 20
151.2704053379
  0
VERTEX
  8
0
 62
7
  6
CONTINUOUS
 10
86.2654291846
 20
151.2753543634
  0
SEQEND
  0
POLYLINE
  8
0
 62
7
  6
CONTINUOUS
 66
1
 70
0
  0
VERTEX
  8
0
 62
7
  6
CONTINUOUS
 10
85.7654290963
 20
148.889739539
  0
VERTEX
  8
0
 62
7
  6
CONTINUOUS
 10
85.7622932335
 20
148.8376808078
  0
VERTEX
  8
0
 62
7
  6
CONTINUOUS
 10
85.7498196848
 20
148.7741164079
  0
VERTEX
  8
0
 62
7
  6
CONTINUOUS
 10
85.7275449855
 20
148.7111856013
  0
VERTEX
  8
0
 62
7
  6
CONTINUOUS
 10
85.6954790094
 20
148.6503338676
  0
VERTEX
  8
0
 62
7
  6
CONTINUOUS
 10
85.6538453291
 20
148.592851292
  0
VERTEX
  8
0
 62
7
  6
CONTINUOUS
 10
85.6029850824
 20
148.5399194722
  0
VERTEX
  8
0
 62
7
  6
CONTINUOUS
 10
85.5434445288
 20
148.4927711655
  0
VERTEX
  8
0
 62
7
  6
CONTINUOUS
 10
85.4758839686
 20
148.4525890418
  0
VERTEX
  8
0
 62
7
  6
CONTINUOUS
 10
85.4010116527
 20
148.4205206833
  0
VERTEX
  8
0
 62
7
  6
CONTINUOUS
 10
85.3334248169
 20
148.4008145506
  0
SEQEND
  0
POLYLINE
  8
0
 62
7
  6
CONTINUOUS
 66
1
 70
0
  0
VERTEX
  8
0
 62
7
  6
CONTINUOUS
 10
77.8978244523
 20
121.4130532042
  0
VERTEX
  8
0
 62
7
  6
CONTINUOUS
 10
77.8816991782
 20
121.3827691492
  0
VERTEX
  8
0
 62
7
  6
CONTINUOUS
 10
77.8556977128
 20
121.3187533287
  0
VERTEX
  8
0
 62
7
  6
CONTINUOUS
 10
77.8387007758
 20
121.2513810137
  0
VERTEX
  8
0
 62
7
  6
CONTINUOUS
 10
77.8311989877
 20
121.1820721013
  0
VERTEX
  8
0
 62
7
  6
CONTINUOUS
 10
77.8334737227
 20
121.1117732706
  0
VERTEX
  8
0
 62
7
  6
CONTINUOUS
 10
77.8457389743
 20
121.0418931086
  0
VERTEX
  8
0
 62
7
  6
CONTINUOUS
 10
77.8680053718
 20
120.9738793365
  0
VERTEX
  8
0
 62
7
  6
CONTINUOUS
 10
77.9000203142
 20
120.9092878417
  0
VERTEX
  8
0
 62
7
  6
CONTINUOUS
 10
77.941490256
 20
120.8493511172
  0
VERTEX
  8
0
 62
7
  6
CONTINUOUS
 10
77.9914116174
 20
120.7959152071
  0
VERTEX
  8
0
 62
7
  6
CONTINUOUS
 10
78.0488441056
 20
120.750161061
  0
VERTEX
  8
0
 62
7
  6
CONTINUOUS
 10
78.0804016549
 20
120.7302922739
  0
SEQEND
  0
POLYLINE
  8
0
 62
7
  6
CONTINUOUS
 66
1
 70
0
  0
VERTEX
  8
0
 62
7
  6
CONTINUOUS
 10
93.4550168149
 20
148.3589013242
  0
VERTEX
  8
0
 62
7
  6
CONTINUOUS
 10
93.4262644241
 20
148.3153753108
  0
VERTEX
  8
0
 62
7
  6
CONTINUOUS
 10
93.3836715837
 20
148.2665580604
  0
VERTEX
  8
0
 62
7
  6
CONTINUOUS
 10
93.3329088686
 20
148.2231946415
  0
VERTEX
  8
0
 62
7
  6
CONTINUOUS
 10
93.2747098987
 20
148.1865313053
  0
VERTEX
  8
0
 62
7
  6
CONTINUOUS
 10
93.2099129793
 20
148.1575711565
  0
VERTEX
  8
0
 62
7
  6
CONTINUOUS
 10
93.1394037399
 20
148.1371653846
  0
VERTEX
  8
0
 62
7
  6
CONTINUOUS
 10
93.0642709971
 20
148.126107516
  0
VERTEX
  8
0
 62
7
  6
CONTINUOUS
 10
92.9856768955
 20
148.125091033
  0
VERTEX
  8
0
 62
7
  6
CONTINUOUS
 10
92.9048075316
 20
148.1347555353
  0
VERTEX
  8
0
 62
7
  6
CONTINUOUS
 10
92.8364276573
 20
148.1514819871
  0
SEQEND
  0
POLYLINE
  8
0
 62
7
  6
CONTINUOUS
 66
1
 70
0
  0
VERTEX
  8
0
 62
7
  6
CONTINUOUS
 10
99.8489760421
 20
144.0543880486
  0
VERTEX
  8
0
 62
7
  6
CONTINUOUS
 10
99.8023239269
 20
144.0310744199
  0
VERTEX
  8
0
 62
7
  6
CONTINUOUS
 10
99.7410387674
 20
144.01009463
  0
VERTEX
  8
0
 62
7
  6
CONTINUOUS
 10
99.6754017407
 20
143.9979196821
  0
VERTEX
  8
0
 62
7
  6
CONTINUOUS
 10
99.6066696054
 20
143.9952637652
  0
VERTEX
  8
0
 62
7
  6
CONTINUOUS
 10
99.5360713945
 20
144.0025783022
  0
VERTEX
  8
0
 62
7
  6
CONTINUOUS
 10
99.4648009705
 20
144.0201586579
  0
VERTEX
  8
0
 62
7
  6
CONTINUOUS
 10
99.3941990623
 20
144.0481481366
  0
VERTEX
  8
0
 62
7
  6
CONTINUOUS
 10
99.3256200423
 20
144.0865662361
  0
VERTEX
  8
0
 62
7
  6
CONTINUOUS
 10
99.2604118712
 20
144.1353733846
  0
VERTEX
  8
0
 62
7
  6
CONTINUOUS
 10
99.2095524418
 20
144.1840522349
  0
SEQEND
  0
POLYLINE
  8
0
 62
7
  6
CONTINUOUS
 66
1
 70
0
  0
VERTEX
  8
0
 62
7
  6
CONTINUOUS
 10
105.1196653423
 20
131.4211183569
  0
VERTEX
  8
0
 62
7
  6
CONTINUOUS
 10
105.1539547403
 20
131.4222954875
  0
VERTEX
  8
0
 62
7
  6
CONTINUOUS
 10
105.2223947998
 20
131.4317854681
  0
VERTEX
  8
0
 62
7
  6
CONTINUOUS
 10
105.2892394046
 20
131.4507518464
  0
VERTEX
  8
0
 62
7
  6
CONTINUOUS
 10
105.3530135775
 20
131.4789095635
  0
VERTEX
  8
0
 62
7
  6
CONTINUOUS
 10
105.4127567833
 20
131.5160289572
  0
VERTEX
  8
0
 62
7
  6
CONTINUOUS
 10
105.4671421529
 20
131.5615910576
  0
VERTEX
  8
0
 62
7
  6
CONTINUOUS
 10
105.5149106087
 20
131.6148812096
  0
VERTEX
  8
0
 62
7
  6
CONTINUOUS
 10
105.5548410128
 20
131.6749027103
  0
VERTEX
  8
0
 62
7
  6
CONTINUOUS
 10
105.5860127679
 20
131.7407850957
  0
VERTEX
  8
0
 62
7
  6
CONTINUOUS
 10
105.6073289429
 20
131.810736218
  0
VERTEX
  8
0
 62
7
  6
CONTINUOUS
 10
105.6182369516
 20
131.8833512848
  0
VERTEX
  8
0
 62
7
  6
CONTINUOUS
 10
105.6196650513
 20
131.9206153177
  0
SEQEND
  0
LINE
  8
0
 62
7
  6
CONTINUOUS
 10
105.1196653423
 20
131.421118339
 11
103.2340505169
 21
131.421118339
  0
LINE
  8
0
 62
7
  6
CONTINUOUS
 10
74.0052801667
 20
131.421118339
 11
72.1196653423
 21
131.421118339
  0
POLYLINE
  8
0
 62
7
  6
CONTINUOUS
 66
1
 70
0
  0
VERTEX
  8
0
 62
7
  6
CONTINUOUS
 10
72.1196653423
 20
131.4211183531
  0
VERTEX
  8
0
 62
7
  6
CONTINUOUS
 10
72.0880134969
 20
131.422121184
  0
VERTEX
  8
0
 62
7
  6
CONTINUOUS
 10
72.0221055682
 20
131.4307286057
  0
VERTEX
  8
0
 62
7
  6
CONTINUOUS
 10
71.957789889
 20
131.448047163
  0
VERTEX
  8
0
 62
7
  6
CONTINUOUS
 10
71.8959193745
 20
131.4739743556
  0
VERTEX
  8
0
 62
7
  6
CONTINUOUS
 10
71.837766005
 20
131.508162211
  0
VERTEX
  8
0
 62
7
  6
CONTINUOUS
 10
71.7843833183
 20
131.5501925184
  0
VERTEX
  8
0
 62
7
  6
CONTINUOUS
 10
71.7368157746
 20
131.5995188855
  0
VERTEX
  8
0
 62
7
  6
CONTINUOUS
 10
71.6961587044
 20
131.655332471
  0
VERTEX
  8
0
 62
7
  6
CONTINUOUS
 10
71.6633984828
 20
131.7166175983
  0
VERTEX
  8
0
 62
7
  6
CONTINUOUS
 10
71.6393209344
 20
131.7823046154
  0
VERTEX
  8
0
 62
7
  6
CONTINUOUS
 10
71.6246143678
 20
131.8509433242
  0
VERTEX
  8
0
 62
7
  6
CONTINUOUS
 10
71.6196653423
 20
131.9211182057
  0
SEQEND
  0
POLYLINE
  8
0
 62
7
  6
CONTINUOUS
 66
1
 70
0
  0
VERTEX
  8
0
 62
7
  6
CONTINUOUS
 10
74.0052801667
 20
131.4211181175
  0
VERTEX
  8
0
 62
7
  6
CONTINUOUS
 10
74.0573388979
 20
131.4179822546
  0
VERTEX
  8
0
 62
7
  6
CONTINUOUS
 10
74.1209032978
 20
131.4055087059
  0
VERTEX
  8
0
 62
7
  6
CONTINUOUS
 10
74.1838341044
 20
131.3832340067
  0
VERTEX
  8
0
 62
7
  6
CONTINUOUS
 10
74.2446858381
 20
131.3511680306
  0
VERTEX
  8
0
 62
7
  6
CONTINUOUS
 10
74.3021684137
 20
131.3095343502
  0
VERTEX
  8
0
 62
7
  6
CONTINUOUS
 10
74.3551002335
 20
131.2586741035
  0
VERTEX
  8
0
 62
7
  6
CONTINUOUS
 10
74.4022485402
 20
131.1991335499
  0
VERTEX
  8
0
 62
7
  6
CONTINUOUS
 10
74.4424306639
 20
131.1315729898
  0
VERTEX
  8
0
 62
7
  6
CONTINUOUS
 10
74.4744990224
 20
131.0567006738
  0
VERTEX
  8
0
 62
7
  6
CONTINUOUS
 10
74.4942051552
 20
130.989113838
  0
SEQEND
  0
POLYLINE
  8
0
 62
7
  6
CONTINUOUS
 66
1
 70
0
  0
VERTEX
  8
0
 62
7
  6
CONTINUOUS
 10
101.4819665015
 20
123.5535134734
  0
VERTEX
  8
0
 62
7
  6
CONTINUOUS
 10
101.5122505565
 20
123.5373881994
  0
VERTEX
  8
0
 62
7
  6
CONTINUOUS
 10
101.576266377
 20
123.5113867339
  0
VERTEX
  8
0
 62
7
  6
CONTINUOUS
 10
101.643638692
 20
123.4943897969
  0
VERTEX
  8
0
 62
7
  6
CONTINUOUS
 10
101.7129476044
 20
123.4868880088
  0
VERTEX
  8
0
 62
7
  6
CONTINUOUS
 10
101.7832464351
 20
123.4891627439
  0
VERTEX
  8
0
 62
7
  6
CONTINUOUS
 10
101.8531265971
 20
123.5014279954
  0
VERTEX
  8
0
 62
7
  6
CONTINUOUS
 10
101.9211403692
 20
123.523694393
  0
VERTEX
  8
0
 62
7
  6
CONTINUOUS
 10
101.985731864
 20
123.5557093353
  0
VERTEX
  8
0
 62
7
  6
CONTINUOUS
 10
102.0456685885
 20
123.5971792771
  0
VERTEX
  8
0
 62
7
  6
CONTINUOUS
 10
102.0991044986
 20
123.6471006385
  0
VERTEX
  8
0
 62
7
  6
CONTINUOUS
 10
102.1448586447
 20
123.7045331267
  0
VERTEX
  8
0
 62
7
  6
CONTINUOUS
 10
102.1647274318
 20
123.736090676
  0
SEQEND
  0
POLYLINE
  8
0
 62
7
  6
CONTINUOUS
 66
1
 70
0
  0
VERTEX
  8
0
 62
7
  6
CONTINUOUS
 10
72.9031281747
 20
140.0535134701
  0
VERTEX
  8
0
 62
7
  6
CONTINUOUS
 10
72.876218288
 20
140.0702078698
  0
VERTEX
  8
0
 62
7
  6
CONTINUOUS
 10
72.8234440583
 20
140.1106160801
  0
VERTEX
  8
0
 62
7
  6
CONTINUOUS
 10
72.7764043248
 20
140.1577722302
  0
VERTEX
  8
0
 62
7
  6
CONTINUOUS
 10
72.7357864838
 20
140.2111610949
  0
VERTEX
  8
0
 62
7
  6
CONTINUOUS
 10
72.7025181162
 20
140.2698453309
  0
VERTEX
  8
0
 62
7
  6
CONTINUOUS
 10
72.6773025071
 20
140.3329359882
  0
VERTEX
  8
0
 62
7
  6
CONTINUOUS
 10
72.6607709894
 20
140.399437647
  0
VERTEX
  8
0
 62
7
  6
CONTINUOUS
 10
72.6534677265
 20
140.4681021651
  0
VERTEX
  8
0
 62
7
  6
CONTINUOUS
 10
72.6557391061
 20
140.537556753
  0
VERTEX
  8
0
 62
7
  6
CONTINUOUS
 10
72.6677308461
 20
140.6064821527
  0
VERTEX
  8
0
 62
7
  6
CONTINUOUS
 10
72.6893139402
 20
140.6732783015
  0
VERTEX
  8
0
 62
7
  6
CONTINUOUS
 10
72.7201153991
 20
140.7365260444
  0
SEQEND
  0
POLYLINE
  8
0
 62
7
  6
CONTINUOUS
 66
1
 70
0
  0
VERTEX
  8
0
 62
7
  6
CONTINUOUS
 10
74.5361183965
 20
139.1107058538
  0
VERTEX
  8
0
 62
7
  6
CONTINUOUS
 10
74.5796346489
 20
139.0819607513
  0
VERTEX
  8
0
 62
7
  6
CONTINUOUS
 10
74.6284462596
 20
139.0393761413
  0
VERTEX
  8
0
 62
7
  6
CONTINUOUS
 10
74.6718085871
 20
138.9886202826
  0
VERTEX
  8
0
 62
7
  6
CONTINUOUS
 10
74.7084747463
 20
138.9304244659
  0
VERTEX
  8
0
 62
7
  6
CONTINUOUS
 10
74.7374392769
 20
138.8656273532
  0
VERTEX
  8
0
 62
7
  6
CONTINUOUS
 10
74.7578494542
 20
138.7951151776
  0
VERTEX
  8
0
 62
7
  6
CONTINUOUS
 10
74.7689108088
 20
138.7199773923
  0
VERTEX
  8
0
 62
7
  6
CONTINUOUS
 10
74.7699292686
 20
138.6413771691
  0
VERTEX
  8
0
 62
7
  6
CONTINUOUS
 10
74.7602651237
 20
138.5605016621
  0
VERTEX
  8
0
 62
7
  6
CONTINUOUS
 10
74.7435377174
 20
138.492116679
  0
SEQEND
  0
POLYLINE
  8
0
 62
7
  6
CONTINUOUS
 66
1
 70
0
  0
VERTEX
  8
0
 62
7
  6
CONTINUOUS
 10
94.3978244523
 20
118.5588171977
  0
VERTEX
  8
0
 62
7
  6
CONTINUOUS
 10
94.4159885762
 20
118.5297102733
  0
VERTEX
  8
0
 62
7
  6
CONTINUOUS
 10
94.4584271703
 20
118.4751844334
  0
VERTEX
  8
0
 62
7
  6
CONTINUOUS
 10
94.5082748381
 20
118.4267784966
  0
VERTEX
  8
0
 62
7
  6
CONTINUOUS
 10
94.5645472229
 20
118.3856273014
  0
VERTEX
  8
0
 62
7
  6
CONTINUOUS
 10
94.6265651637
 20
118.3524478644
  0
VERTEX
  8
0
 62
7
  6
CONTINUOUS
 10
94.6932157849
 20
118.3281298028
  0
VERTEX
  8
0
 62
7
  6
CONTINUOUS
 10
94.7632506382
 20
118.3134061827
  0
VERTEX
  8
0
 62
7
  6
CONTINUOUS
 10
94.8351959846
 20
118.3088361887
  0
VERTEX
  8
0
 62
7
  6
CONTINUOUS
 10
94.9078376816
 20
118.3147818496
  0
VERTEX
  8
0
 62
7
  6
CONTINUOUS
 10
94.979075218
 20
118.3312970616
  0
VERTEX
  8
0
 62
7
  6
CONTINUOUS
 10
95.0474157149
 20
118.3581579824
  0
VERTEX
  8
0
 62
7
  6
CONTINUOUS
 10
95.080401364
 20
118.3755532282
  0
SEQEND
  0
POLYLINE
  8
0
 62
7
  6
CONTINUOUS
 66
1
 70
0
  0
VERTEX
  8
0
 62
7
  6
CONTINUOUS
 10
77.897824449
 20
147.1376555207
  0
VERTEX
  8
0
 62
7
  6
CONTINUOUS
 10
77.8828669873
 20
147.1655682707
  0
VERTEX
  8
0
 62
7
  6
CONTINUOUS
 10
77.8573672618
 20
147.2269499578
  0
VERTEX
  8
0
 62
7
  6
CONTINUOUS
 10
77.8402077345
 20
147.2913082887
  0
VERTEX
  8
0
 62
7
  6
CONTINUOUS
 10
77.8317260973
 20
147.3578533599
  0
VERTEX
  8
0
 62
7
  6
CONTINUOUS
 10
77.8322569867
 20
147.4253096252
  0
VERTEX
  8
0
 62
7
  6
CONTINUOUS
 10
77.8419649909
 20
147.4925555762
  0
VERTEX
  8
0
 62
7
  6
CONTINUOUS
 10
77.86089915
 20
147.5584134911
  0
VERTEX
  8
0
 62
7
  6
CONTINUOUS
 10
77.8889066524
 20
147.6215303633
  0
VERTEX
  8
0
 62
7
  6
CONTINUOUS
 10
77.9256010778
 20
147.6805441187
  0
VERTEX
  8
0
 62
7
  6
CONTINUOUS
 10
77.9704490018
 20
147.7342394008
  0
VERTEX
  8
0
 62
7
  6
CONTINUOUS
 10
78.0225386514
 20
147.7812949969
  0
VERTEX
  8
0
 62
7
  6
CONTINUOUS
 10
78.0808370111
 20
147.8206681419
  0
SEQEND
  0
POLYLINE
  8
0
 62
7
  6
CONTINUOUS
 66
1
 70
0
  0
VERTEX
  8
0
 62
7
  6
CONTINUOUS
 10
78.8406316571
 20
145.5046650632
  0
VERTEX
  8
0
 62
7
  6
CONTINUOUS
 10
78.8639452858
 20
145.458012948
  0
VERTEX
  8
0
 62
7
  6
CONTINUOUS
 10
78.8849250757
 20
145.3967277886
  0
VERTEX
  8
0
 62
7
  6
CONTINUOUS
 10
78.8971000236
 20
145.3310907618
  0
VERTEX
  8
0
 62
7
  6
CONTINUOUS
 10
78.8997559405
 20
145.2623586265
  0
VERTEX
  8
0
 62
7
  6
CONTINUOUS
 10
78.8924414035
 20
145.1917604156
  0
VERTEX
  8
0
 62
7
  6
CONTINUOUS
 10
78.8748610478
 20
145.1204899916
  0
VERTEX
  8
0
 62
7
  6
CONTINUOUS
 10
78.8468715691
 20
145.0498880834
  0
VERTEX
  8
0
 62
7
  6
CONTINUOUS
 10
78.8084534696
 20
144.9813090634
  0
VERTEX
  8
0
 62
7
  6
CONTINUOUS
 10
78.7596463211
 20
144.9161008924
  0
VERTEX
  8
0
 62
7
  6
CONTINUOUS
 10
78.7109674708
 20
144.8652414629
  0
SEQEND
  0
LINE
  8
0
 62
7
  6
CONTINUOUS
 10
85.7654293179
 20
117.7753543634
 11
85.7654293179
 21
119.6609691888
  0
LINE
  8
0
 62
7
  6
CONTINUOUS
 10
85.7654293179
 20
148.889739539
 11
85.7654293179
 21
150.7753543634
  0
LINE
  8
0
 62
7
  6
CONTINUOUS
 10
77.8978244367
 20
121.4130532132
 11
78.8406318471
 21
123.0460435497
  0
LINE
  8
0
 62
7
  6
CONTINUOUS
 10
93.4550170266
 20
148.358901202
 11
94.3978244367
 21
149.9918915381
  0
POLYLINE
  8
0
 62
7
  6
CONTINUOUS
 66
1
 70
0
  0
VERTEX
  8
0
 62
7
  6
CONTINUOUS
 10
94.397824449
 20
149.991891531
  0
VERTEX
  8
0
 62
7
  6
CONTINUOUS
 10
94.4145188487
 20
150.0188014177
  0
VERTEX
  8
0
 62
7
  6
CONTINUOUS
 10
94.4549270589
 20
150.0715756474
  0
VERTEX
  8
0
 62
7
  6
CONTINUOUS
 10
94.5020832091
 20
150.1186153809
  0
VERTEX
  8
0
 62
7
  6
CONTINUOUS
 10
94.5554720738
 20
150.1592332219
  0
VERTEX
  8
0
 62
7
  6
CONTINUOUS
 10
94.6141563098
 20
150.1925015895
  0
VERTEX
  8
0
 62
7
  6
CONTINUOUS
 10
94.6772469671
 20
150.2177171986
  0
VERTEX
  8
0
 62
7
  6
CONTINUOUS
 10
94.7437486259
 20
150.2342487163
  0
VERTEX
  8
0
 62
7
  6
CONTINUOUS
 10
94.812413144
 20
150.2415519792
  0
VERTEX
  8
0
 62
7
  6
CONTINUOUS
 10
94.8818677319
 20
150.2392805996
  0
VERTEX
  8
0
 62
7
  6
CONTINUOUS
 10
94.9507931316
 20
150.2272888596
  0
VERTEX
  8
0
 62
7
  6
CONTINUOUS
 10
95.0175892804
 20
150.2057057655
  0
VERTEX
  8
0
 62
7
  6
CONTINUOUS
 10
95.0808370232
 20
150.1749043066
  0
SEQEND
  0
POLYLINE
  8
0
 62
7
  6
CONTINUOUS
 66
1
 70
0
  0
VERTEX
  8
0
 62
7
  6
CONTINUOUS
 10
72.9031281766
 20
128.4971952534
  0
VERTEX
  8
0
 62
7
  6
CONTINUOUS
 10
72.8740212521
 20
128.4790311294
  0
VERTEX
  8
0
 62
7
  6
CONTINUOUS
 10
72.8194954122
 20
128.4365925354
  0
VERTEX
  8
0
 62
7
  6
CONTINUOUS
 10
72.7710894755
 20
128.3867448676
  0
VERTEX
  8
0
 62
7
  6
CONTINUOUS
 10
72.7299382803
 20
128.3304724828
  0
VERTEX
  8
0
 62
7
  6
CONTINUOUS
 10
72.6967588432
 20
128.268454542
  0
VERTEX
  8
0
 62
7
  6
CONTINUOUS
 10
72.6724407817
 20
128.2018039208
  0
VERTEX
  8
0
 62
7
  6
CONTINUOUS
 10
72.6577171615
 20
128.1317690675
  0
VERTEX
  8
0
 62
7
  6
CONTINUOUS
 10
72.6531471675
 20
128.059823721
  0
VERTEX
  8
0
 62
7
  6
CONTINUOUS
 10
72.6590928284
 20
127.9871820241
  0
VERTEX
  8
0
 62
7
  6
CONTINUOUS
 10
72.6756080405
 20
127.9159444877
  0
VERTEX
  8
0
 62
7
  6
CONTINUOUS
 10
72.7024689613
 20
127.8476039908
  0
VERTEX
  8
0
 62
7
  6
CONTINUOUS
 10
72.7198642071
 20
127.8146183417
  0
SEQEND
  0
LINE
  8
0
 62
7
  6
CONTINUOUS
 10
72.9031281676
 20
128.497195269
 11
74.5361185082
 21
129.4400026817
  0
LINE
  8
0
 62
7
  6
CONTINUOUS
 10
99.8489761529
 20
144.0543878568
 11
101.4819664925
 21
144.997195269
  0
POLYLINE
  8
0
 62
7
  6
CONTINUOUS
 66
1
 70
0
  0
VERTEX
  8
0
 62
7
  6
CONTINUOUS
 10
101.4819664996
 20
144.9971952567
  0
VERTEX
  8
0
 62
7
  6
CONTINUOUS
 10
101.5098792172
 20
145.0121527024
  0
VERTEX
  8
0
 62
7
  6
CONTINUOUS
 10
101.5712608686
 20
145.0376524209
  0
VERTEX
  8
0
 62
7
  6
CONTINUOUS
 10
101.6356191593
 20
145.05481195
  0
VERTEX
  8
0
 62
7
  6
CONTINUOUS
 10
101.702164193
 20
145.0632935997
  0
VERTEX
  8
0
 62
7
  6
CONTINUOUS
 10
101.7696204159
 20
145.0627627332
  0
VERTEX
  8
0
 62
7
  6
CONTINUOUS
 10
101.8368663325
 20
145.0530547626
  0
VERTEX
  8
0
 62
7
  6
CONTINUOUS
 10
101.9027242172
 20
145.0341206475
  0
VERTEX
  8
0
 62
7
  6
CONTINUOUS
 10
101.9658410656
 20
145.0061131997
  0
VERTEX
  8
0
 62
7
  6
CONTINUOUS
 10
102.0248548134
 20
144.9694188333
  0
VERTEX
  8
0
 62
7
  6
CONTINUOUS
 10
102.0785500905
 20
144.924570982
  0
VERTEX
  8
0
 62
7
  6
CONTINUOUS
 10
102.1256057052
 20
144.8724813998
  0
VERTEX
  8
0
 62
7
  6
CONTINUOUS
 10
102.1649791278
 20
144.8141826825
  0
SEQEND
  0
LINE
  8
0
 62
7
  6
CONTINUOUS
 10
101.4819664925
 20
123.5535134579
 11
99.8489761519
 21
124.4963208706
  0
LINE
  8
0
 62
7
  6
CONTINUOUS
 10
74.5361185073
 20
139.1107060457
 11
72.9031281676
 21
140.0535134579
  0
LINE
  8
0
 62
7
  6
CONTINUOUS
 10
94.3978244367
 20
118.5588171888
 11
93.455017024
 21
120.1918075293
  0
LINE
  8
0
 62
7
  6
CONTINUOUS
 10
78.8406318489
 20
145.504665174
 11
77.8978244367
 21
147.1376555136
  0
LINE
  8
DEFAULT_1
 62
2
  6
CENTER
 10
88.6196653423
 20
134.2753543634
 11
88.6196653423
 21
113.77213718
  0
LINE
  8
DEFAULT_1
 62
2
  6
CENTER
 10
88.6196653423
 20
134.2753543634
 11
88.6196653423
 21
153.3021444107
  0
LINE
  8
DEFAULT_1
 62
2
  6
CENTER
 10
88.6196653423
 20
134.2753543634
 11
69.3950679682
 21
134.2753543634
  0
LINE
  8
DEFAULT_1
 62
2
  6
CENTER
 10
88.6196653423
 20
134.2753543634
 11
106.9366442516
 21
134.2753543634
  0
POLYLINE
  8
0
 62
7
  6
CONTINUOUS
 66
1
 70
0
  0
VERTEX
  8
0
 62
7
  6
CONTINUOUS
 10
91.4739013488
 20
150.7753543634
  0
VERTEX
  8
0
 62
7
  6
CONTINUOUS
 10
91.4727242182
 20
150.8096437614
  0
VERTEX
  8
0
 62
7
  6
CONTINUOUS
 10
91.4632342376
 20
150.878083821
  0
VERTEX
  8
0
 62
7
  6
CONTINUOUS
 10
91.4442678593
 20
150.9449284258
  0
VERTEX
  8
0
 62
7
  6
CONTINUOUS
 10
91.4161101422
 20
151.0087025986
  0
VERTEX
  8
0
 62
7
  6
CONTINUOUS
 10
91.3789907485
 20
151.0684458044
  0
VERTEX
  8
0
 62
7
  6
CONTINUOUS
 10
91.3334286481
 20
151.1228311741
  0
VERTEX
  8
0
 62
7
  6
CONTINUOUS
 10
91.2801384961
 20
151.1705996298
  0
VERTEX
  8
0
 62
7
  6
CONTINUOUS
 10
91.2201169954
 20
151.2105300339
  0
VERTEX
  8
0
 62
7
  6
CONTINUOUS
 10
91.15423461
 20
151.241701789
  0
VERTEX
  8
0
 62
7
  6
CONTINUOUS
 10
91.0842834877
 20
151.263017964
  0
VERTEX
  8
0
 62
7
  6
CONTINUOUS
 10
91.0116684209
 20
151.2739259727
  0
VERTEX
  8
0
 62
7
  6
CONTINUOUS
 10
90.974404388
 20
151.2753540724
  0
SEQEND
  0
LINE
  8
0
 62
7
  6
CONTINUOUS
 10
91.4739013667
 20
150.7753543634
 11
91.4739013667
 21
148.889739538
  0
LINE
  8
0
 62
7
  6
CONTINUOUS
 10
91.4739013667
 20
119.6609691878
 11
91.4739013667
 21
117.7753543634
  0
POLYLINE
  8
0
 62
7
  6
CONTINUOUS
 66
1
 70
0
  0
VERTEX
  8
0
 62
7
  6
CONTINUOUS
 10
91.4739013526
 20
117.7753543634
  0
VERTEX
  8
0
 62
7
  6
CONTINUOUS
 10
91.4728985217
 20
117.743702518
  0
VERTEX
  8
0
 62
7
  6
CONTINUOUS
 10
91.4642911
 20
117.6777945893
  0
VERTEX
  8
0
 62
7
  6
CONTINUOUS
 10
91.4469725428
 20
117.6134789101
  0
VERTEX
  8
0
 62
7
  6
CONTINUOUS
 10
91.4210453501
 20
117.5516083956
  0
VERTEX
  8
0
 62
7
  6
CONTINUOUS
 10
91.3868574947
 20
117.4934550261
  0
VERTEX
  8
0
 62
7
  6
CONTINUOUS
 10
91.3448271873
 20
117.4400723394
  0
VERTEX
  8
0
 62
7
  6
CONTINUOUS
 10
91.2955008202
 20
117.3925047957
  0
VERTEX
  8
0
 62
7
  6
CONTINUOUS
 10
91.2396872347
 20
117.3518477255
  0
VERTEX
  8
0
 62
7
  6
CONTINUOUS
 10
91.1784021074
 20
117.3190875039
  0
VERTEX
  8
0
 62
7
  6
CONTINUOUS
 10
91.1127150903
 20
117.2950099556
  0
VERTEX
  8
0
 62
7
  6
CONTINUOUS
 10
91.0440763815
 20
117.280303389
  0
VERTEX
  8
0
 62
7
  6
CONTINUOUS
 10
90.9739015
 20
117.2753543634
  0
SEQEND
  0
POLYLINE
  8
0
 62
7
  6
CONTINUOUS
 66
1
 70
0
  0
VERTEX
  8
0
 62
7
  6
CONTINUOUS
 10
99.3415062323
 20
147.1376555226
  0
VERTEX
  8
0
 62
7
  6
CONTINUOUS
 10
99.3576315063
 20
147.1679395776
  0
VERTEX
  8
0
 62
7
  6
CONTINUOUS
 10
99.3836329718
 20
147.2319553981
  0
VERTEX
  8
0
 62
7
  6
CONTINUOUS
 10
99.4006299088
 20
147.2993277132
  0
VERTEX
  8
0
 62
7
  6
CONTINUOUS
 10
99.4081316969
 20
147.3686366255
  0
VERTEX
  8
0
 62
7
  6
CONTINUOUS
 10
99.4058569618
 20
147.4389354563
  0
VERTEX
  8
0
 62
7
  6
CONTINUOUS
 10
99.3935917103
 20
147.5088156182
  0
VERTEX
  8
0
 62
7
  6
CONTINUOUS
 10
99.3713253127
 20
147.5768293904
  0
VERTEX
  8
0
 62
7
  6
CONTINUOUS
 10
99.3393103704
 20
147.6414208851
  0
VERTEX
  8
0
 62
7
  6
CONTINUOUS
 10
99.2978404286
 20
147.7013576096
  0
VERTEX
  8
0
 62
7
  6
CONTINUOUS
 10
99.2479190672
 20
147.7547935198
  0
VERTEX
  8
0
 62
7
  6
CONTINUOUS
 10
99.190486579
 20
147.8005476658
  0
VERTEX
  8
0
 62
7
  6
CONTINUOUS
 10
99.1589290297
 20
147.8204164529
  0
SEQEND
  0
LINE
  8
0
 62
7
  6
CONTINUOUS
 10
99.3415062478
 20
147.1376555136
 11
98.3986988374
 21
145.5046651771
  0
LINE
  8
0
 62
7
  6
CONTINUOUS
 10
83.7843136579
 20
120.1918075248
 11
82.8415062478
 21
118.5588171888
  0
POLYLINE
  8
0
 62
7
  6
CONTINUOUS
 66
1
 70
0
  0
VERTEX
  8
0
 62
7
  6
CONTINUOUS
 10
82.8415062356
 20
118.5588171958
  0
VERTEX
  8
0
 62
7
  6
CONTINUOUS
 10
82.8248118359
 20
118.5319073091
  0
VERTEX
  8
0
 62
7
  6
CONTINUOUS
 10
82.7844036256
 20
118.4791330794
  0
VERTEX
  8
0
 62
7
  6
CONTINUOUS
 10
82.7372474755
 20
118.4320933459
  0
VERTEX
  8
0
 62
7
  6
CONTINUOUS
 10
82.6838586108
 20
118.3914755049
  0
VERTEX
  8
0
 62
7
  6
CONTINUOUS
 10
82.6251743748
 20
118.3582071374
  0
VERTEX
  8
0
 62
7
  6
CONTINUOUS
 10
82.5620837175
 20
118.3329915282
  0
VERTEX
  8
0
 62
7
  6
CONTINUOUS
 10
82.4955820587
 20
118.3164600105
  0
VERTEX
  8
0
 62
7
  6
CONTINUOUS
 10
82.4269175406
 20
118.3091567476
  0
VERTEX
  8
0
 62
7
  6
CONTINUOUS
 10
82.3574629527
 20
118.3114281272
  0
VERTEX
  8
0
 62
7
  6
CONTINUOUS
 10
82.288537553
 20
118.3234198672
  0
VERTEX
  8
0
 62
7
  6
CONTINUOUS
 10
82.2217414042
 20
118.3450029613
  0
VERTEX
  8
0
 62
7
  6
CONTINUOUS
 10
82.1584936613
 20
118.3758044202
  0
SEQEND
  0
LINE
  8
0
 62
7
  6
CONTINUOUS
 10
104.3362025169
 20
140.0535134579
 11
102.7032121764
 21
139.1107060452
  0
LINE
  8
0
 62
7
  6
CONTINUOUS
 10
77.3903545317
 20
124.4963208701
 11
75.7573641921
 21
123.5535134579
  0
POLYLINE
  8
0
 62
7
  6
CONTINUOUS
 66
1
 70
0
  0
VERTEX
  8
0
 62
7
  6
CONTINUOUS
 10
72.1196653423
 20
137.1295903699
  0
VERTEX
  8
0
 62
7
  6
CONTINUOUS
 10
72.0853759443
 20
137.1284132393
  0
VERTEX
  8
0
 62
7
  6
CONTINUOUS
 10
72.0169358847
 20
137.1189232587
  0
VERTEX
  8
0
 62
7
  6
CONTINUOUS
 10
71.9500912799
 20
137.0999568804
  0
VERTEX
  8
0
 62
7
  6
CONTINUOUS
 10
71.8863171071
 20
137.0717991633
  0
VERTEX
  8
0
 62
7
  6
CONTINUOUS
 10
71.8265739013
 20
137.0346797696
  0
VERTEX
  8
0
 62
7
  6
CONTINUOUS
 10
71.7721885316
 20
136.9891176692
  0
VERTEX
  8
0
 62
7
  6
CONTINUOUS
 10
71.7244200759
 20
136.9358275172
  0
VERTEX
  8
0
 62
7
  6
CONTINUOUS
 10
71.6844896718
 20
136.8758060165
  0
VERTEX
  8
0
 62
7
  6
CONTINUOUS
 10
71.6533179167
 20
136.8099236311
  0
VERTEX
  8
0
 62
7
  6
CONTINUOUS
 10
71.6320017417
 20
136.7399725088
  0
VERTEX
  8
0
 62
7
  6
CONTINUOUS
 10
71.621093733
 20
136.667357442
  0
VERTEX
  8
0
 62
7
  6
CONTINUOUS
 10
71.6196656333
 20
136.6300934091
  0
SEQEND
  0
LINE
  8
0
 62
7
  6
CONTINUOUS
 10
72.1196653423
 20
137.1295903878
 11
74.0052801677
 21
137.1295903878
  0
LINE
  8
0
 62
7
  6
CONTINUOUS
 10
103.2340505179
 20
137.1295903878
 11
105.1196653423
 21
137.1295903878
  0
POLYLINE
  8
0
 62
7
  6
CONTINUOUS
 66
1
 70
0
  0
VERTEX
  8
0
 62
7
  6
CONTINUOUS
 10
105.1196653423
 20
137.1295903737
  0
VERTEX
  8
0
 62
7
  6
CONTINUOUS
 10
105.1513171877
 20
137.1285875428
  0
VERTEX
  8
0
 62
7
  6
CONTINUOUS
 10
105.2172251164
 20
137.1199801211
  0
VERTEX
  8
0
 62
7
  6
CONTINUOUS
 10
105.2815407956
 20
137.1026615639
  0
VERTEX
  8
0
 62
7
  6
CONTINUOUS
 10
105.3434113101
 20
137.0767343712
  0
VERTEX
  8
0
 62
7
  6
CONTINUOUS
 10
105.4015646796
 20
137.0425465158
  0
VERTEX
  8
0
 62
7
  6
CONTINUOUS
 10
105.4549473663
 20
137.0005162084
  0
VERTEX
  8
0
 62
7
  6
CONTINUOUS
 10
105.50251491
 20
136.9511898413
  0
VERTEX
  8
0
 62
7
  6
CONTINUOUS
 10
105.5431719802
 20
136.8953762558
  0
VERTEX
  8
0
 62
7
  6
CONTINUOUS
 10
105.5759322018
 20
136.8340911285
  0
VERTEX
  8
0
 62
7
  6
CONTINUOUS
 10
105.6000097501
 20
136.7684041114
  0
VERTEX
  8
0
 62
7
  6
CONTINUOUS
 10
105.6147163167
 20
136.6997654026
  0
VERTEX
  8
0
 62
7
  6
CONTINUOUS
 10
105.6196653423
 20
136.6295905211
  0
SEQEND
  0
POLYLINE
  8
0
 62
7
  6
CONTINUOUS
 66
1
 70
0
  0
VERTEX
  8
0
 62
7
  6
CONTINUOUS
 10
103.2340505179
 20
137.1295906094
  0
VERTEX
  8
0
 62
7
  6
CONTINUOUS
 10
103.1819917866
 20
137.1327264722
  0
VERTEX
  8
0
 62
7
  6
CONTINUOUS
 10
103.1184273867
 20
137.1452000209
  0
VERTEX
  8
0
 62
7
  6
CONTINUOUS
 10
103.0554965802
 20
137.1674747202
  0
VERTEX
  8
0
 62
7
  6
CONTINUOUS
 10
102.9946448465
 20
137.1995406963
  0
VERTEX
  8
0
 62
7
  6
CONTINUOUS
 10
102.9371622709
 20
137.2411743766
  0
VERTEX
  8
0
 62
7
  6
CONTINUOUS
 10
102.884230451
 20
137.2920346233
  0
VERTEX
  8
0
 62
7
  6
CONTINUOUS
 10
102.8370821443
 20
137.3515751769
  0
VERTEX
  8
0
 62
7
  6
CONTINUOUS
 10
102.7969000206
 20
137.4191357371
  0
VERTEX
  8
0
 62
7
  6
CONTINUOUS
 10
102.7648316622
 20
137.494008053
  0
VERTEX
  8
0
 62
7
  6
CONTINUOUS
 10
102.7451255294
 20
137.5615948888
  0
SEQEND
  0
POLYLINE
  8
0
 62
7
  6
CONTINUOUS
 66
1
 70
0
  0
VERTEX
  8
0
 62
7
  6
CONTINUOUS
 10
75.7573641831
 20
144.9971952534
  0
VERTEX
  8
0
 62
7
  6
CONTINUOUS
 10
75.7270801281
 20
145.0133205275
  0
VERTEX
  8
0
 62
7
  6
CONTINUOUS
 10
75.6630643076
 20
145.0393219929
  0
VERTEX
  8
0
 62
7
  6
CONTINUOUS
 10
75.5956919925
 20
145.0563189299
  0
VERTEX
  8
0
 62
7
  6
CONTINUOUS
 10
75.5263830802
 20
145.063820718
  0
VERTEX
  8
0
 62
7
  6
CONTINUOUS
 10
75.4560842494
 20
145.061545983
  0
VERTEX
  8
0
 62
7
  6
CONTINUOUS
 10
75.3862040875
 20
145.0492807314
  0
VERTEX
  8
0
 62
7
  6
CONTINUOUS
 10
75.3181903153
 20
145.0270143339
  0
VERTEX
  8
0
 62
7
  6
CONTINUOUS
 10
75.2535988206
 20
144.9949993915
  0
VERTEX
  8
0
 62
7
  6
CONTINUOUS
 10
75.1936620961
 20
144.9535294497
  0
VERTEX
  8
0
 62
7
  6
CONTINUOUS
 10
75.1402261859
 20
144.9036080883
  0
VERTEX
  8
0
 62
7
  6
CONTINUOUS
 10
75.0944720399
 20
144.8461756001
  0
VERTEX
  8
0
 62
7
  6
CONTINUOUS
 10
75.0746032528
 20
144.8146180508
  0
SEQEND
  0
LINE
  8
0
 62
7
  6
CONTINUOUS
 10
75.7573641921
 20
144.997195269
 11
77.3903545326
 21
144.0543878562
  0
LINE
  8
0
 62
7
  6
CONTINUOUS
 10
102.7032121773
 20
129.4400026811
 11
104.3362025169
 21
128.497195269
  0
POLYLINE
  8
0
 62
7
  6
CONTINUOUS
 66
1
 70
0
  0
VERTEX
  8
0
 62
7
  6
CONTINUOUS
 10
104.3362025099
 20
128.4971952567
  0
VERTEX
  8
0
 62
7
  6
CONTINUOUS
 10
104.3631123966
 20
128.480500857
  0
VERTEX
  8
0
 62
7
  6
CONTINUOUS
 10
104.4158866263
 20
128.4400926468
  0
VERTEX
  8
0
 62
7
  6
CONTINUOUS
 10
104.4629263598
 20
128.3929364966
  0
VERTEX
  8
0
 62
7
  6
CONTINUOUS
 10
104.5035442008
 20
128.3395476319
  0
VERTEX
  8
0
 62
7
  6
CONTINUOUS
 10
104.5368125683
 20
128.2808633959
  0
VERTEX
  8
0
 62
7
  6
CONTINUOUS
 10
104.5620281775
 20
128.2177727386
  0
VERTEX
  8
0
 62
7
  6
CONTINUOUS
 10
104.5785596952
 20
128.1512710798
  0
VERTEX
  8
0
 62
7
  6
CONTINUOUS
 10
104.5858629581
 20
128.0826065617
  0
VERTEX
  8
0
 62
7
  6
CONTINUOUS
 10
104.5835915785
 20
128.0131519738
  0
VERTEX
  8
0
 62
7
  6
CONTINUOUS
 10
104.5715998385
 20
127.9442265741
  0
VERTEX
  8
0
 62
7
  6
CONTINUOUS
 10
104.5500167444
 20
127.8774304253
  0
VERTEX
  8
0
 62
7
  6
CONTINUOUS
 10
104.5192152855
 20
127.8141826825
  0
SEQEND
  0
POLYLINE
  8
0
 62
7
  6
CONTINUOUS
 66
1
 70
0
  0
VERTEX
  8
0
 62
7
  6
CONTINUOUS
 10
102.703212288
 20
129.440002873
  0
VERTEX
  8
0
 62
7
  6
CONTINUOUS
 10
102.6596960357
 20
129.4687479755
  0
VERTEX
  8
0
 62
7
  6
CONTINUOUS
 10
102.6108844249
 20
129.5113325855
  0
VERTEX
  8
0
 62
7
  6
CONTINUOUS
 10
102.5675220974
 20
129.5620884442
  0
VERTEX
  8
0
 62
7
  6
CONTINUOUS
 10
102.5308559382
 20
129.620284261
  0
VERTEX
  8
0
 62
7
  6
CONTINUOUS
 10
102.5018914077
 20
129.6850813736
  0
VERTEX
  8
0
 62
7
  6
CONTINUOUS
 10
102.4814812303
 20
129.7555935492
  0
VERTEX
  8
0
 62
7
  6
CONTINUOUS
 10
102.4704198758
 20
129.8307313345
  0
VERTEX
  8
0
 62
7
  6
CONTINUOUS
 10
102.469401416
 20
129.9093315578
  0
VERTEX
  8
0
 62
7
  6
CONTINUOUS
 10
102.4790655609
 20
129.9902070647
  0
VERTEX
  8
0
 62
7
  6
CONTINUOUS
 10
102.4957929672
 20
130.0585920478
  0
SEQEND
  0
POLYLINE
  8
0
 62
7
  6
CONTINUOUS
 66
1
 70
0
  0
VERTEX
  8
0
 62
7
  6
CONTINUOUS
 10
82.8415062323
 20
149.9918915291
  0
VERTEX
  8
0
 62
7
  6
CONTINUOUS
 10
82.8233421083
 20
150.0209984536
  0
VERTEX
  8
0
 62
7
  6
CONTINUOUS
 10
82.7809035143
 20
150.0755242935
  0
VERTEX
  8
0
 62
7
  6
CONTINUOUS
 10
82.7310558465
 20
150.1239302302
  0
VERTEX
  8
0
 62
7
  6
CONTINUOUS
 10
82.6747834617
 20
150.1650814254
  0
VERTEX
  8
0
 62
7
  6
CONTINUOUS
 10
82.6127655209
 20
150.1982608625
  0
VERTEX
  8
0
 62
7
  6
CONTINUOUS
 10
82.5461148997
 20
150.222578924
  0
VERTEX
  8
0
 62
7
  6
CONTINUOUS
 10
82.4760800464
 20
150.2373025442
  0
VERTEX
  8
0
 62
7
  6
CONTINUOUS
 10
82.4041346999
 20
150.2418725382
  0
VERTEX
  8
0
 62
7
  6
CONTINUOUS
 10
82.331493003
 20
150.2359268773
  0
VERTEX
  8
0
 62
7
  6
CONTINUOUS
 10
82.2602554666
 20
150.2194116652
  0
VERTEX
  8
0
 62
7
  6
CONTINUOUS
 10
82.1919149697
 20
150.1925507445
  0
VERTEX
  8
0
 62
7
  6
CONTINUOUS
 10
82.1589293206
 20
150.1751554986
  0
SEQEND
  0
LINE
  8
0
 62
7
  6
CONTINUOUS
 10
82.8415062478
 20
149.9918915381
 11
83.7843136605
 21
148.3589011975
  0
LINE
  8
0
 62
7
  6
CONTINUOUS
 10
98.3986988356
 20
123.0460435528
 11
99.3415062478
 21
121.4130532132
  0
POLYLINE
  8
0
 62
7
  6
CONTINUOUS
 66
1
 70
0
  0
VERTEX
  8
0
 62
7
  6
CONTINUOUS
 10
99.3415062356
 20
121.4130532061
  0
VERTEX
  8
0
 62
7
  6
CONTINUOUS
 10
99.3564636973
 20
121.3851404562
  0
VERTEX
  8
0
 62
7
  6
CONTINUOUS
 10
99.3819634228
 20
121.3237587691
  0
VERTEX
  8
0
 62
7
  6
CONTINUOUS
 10
99.3991229501
 20
121.2594004381
  0
VERTEX
  8
0
 62
7
  6
CONTINUOUS
 10
99.4076045873
 20
121.1928553669
  0
VERTEX
  8
0
 62
7
  6
CONTINUOUS
 10
99.4070736978
 20
121.1253991016
  0
VERTEX
  8
0
 62
7
  6
CONTINUOUS
 10
99.3973656937
 20
121.0581531506
  0
VERTEX
  8
0
 62
7
  6
CONTINUOUS
 10
99.3784315346
 20
120.9922952358
  0
VERTEX
  8
0
 62
7
  6
CONTINUOUS
 10
99.3504240322
 20
120.9291783635
  0
VERTEX
  8
0
 62
7
  6
CONTINUOUS
 10
99.3137296068
 20
120.8701646081
  0
VERTEX
  8
0
 62
7
  6
CONTINUOUS
 10
99.2688816828
 20
120.8164693261
  0
VERTEX
  8
0
 62
7
  6
CONTINUOUS
 10
99.2167920332
 20
120.76941373
  0
VERTEX
  8
0
 62
7
  6
CONTINUOUS
 10
99.1584936734
 20
120.7300405849
  0
SEQEND
  0
POLYLINE
  8
0
 62
7
  6
CONTINUOUS
 66
1
 70
0
  0
VERTEX
  8
0
 62
7
  6
CONTINUOUS
 10
98.3986990275
 20
123.0460436636
  0
VERTEX
  8
0
 62
7
  6
CONTINUOUS
 10
98.3753853988
 20
123.0926957788
  0
VERTEX
  8
0
 62
7
  6
CONTINUOUS
 10
98.3544056088
 20
123.1539809383
  0
VERTEX
  8
0
 62
7
  6
CONTINUOUS
 10
98.342230661
 20
123.219617965
  0
VERTEX
  8
0
 62
7
  6
CONTINUOUS
 10
98.339574744
 20
123.2883501003
  0
VERTEX
  8
0
 62
7
  6
CONTINUOUS
 10
98.3468892811
 20
123.3589483112
  0
VERTEX
  8
0
 62
7
  6
CONTINUOUS
 10
98.3644696368
 20
123.4302187352
  0
VERTEX
  8
0
 62
7
  6
CONTINUOUS
 10
98.3924591154
 20
123.5008206434
  0
VERTEX
  8
0
 62
7
  6
CONTINUOUS
 10
98.430877215
 20
123.5693996634
  0
VERTEX
  8
0
 62
7
  6
CONTINUOUS
 10
98.4796843634
 20
123.6346078345
  0
VERTEX
  8
0
 62
7
  6
CONTINUOUS
 10
98.5283632138
 20
123.6854672639
  0
SEQEND
  0
POLYLINE
  8
0
 62
7
  6
CONTINUOUS
 66
1
 70
0
  0
VERTEX
  8
0
 62
7
  6
CONTINUOUS
 10
91.4739015882
 20
119.6609691878
  0
VERTEX
  8
0
 62
7
  6
CONTINUOUS
 10
91.4770374511
 20
119.7130279191
  0
VERTEX
  8
0
 62
7
  6
CONTINUOUS
 10
91.4895109998
 20
119.776592319
  0
VERTEX
  8
0
 62
7
  6
CONTINUOUS
 10
91.511785699
 20
119.8395231255
  0
VERTEX
  8
0
 62
7
  6
CONTINUOUS
 10
91.5438516752
 20
119.9003748592
  0
VERTEX
  8
0
 62
7
  6
CONTINUOUS
 10
91.5854853555
 20
119.9578574348
  0
VERTEX
  8
0
 62
7
  6
CONTINUOUS
 10
91.6363456022
 20
120.0107892547
  0
VERTEX
  8
0
 62
7
  6
CONTINUOUS
 10
91.6958861558
 20
120.0579375614
  0
VERTEX
  8
0
 62
7
  6
CONTINUOUS
 10
91.7634467159
 20
120.0981196851
  0
VERTEX
  8
0
 62
7
  6
CONTINUOUS
 10
91.8383190319
 20
120.1301880435
  0
VERTEX
  8
0
 62
7
  6
CONTINUOUS
 10
91.9059058677
 20
120.1498941763
  0
SEQEND
  0
POLYLINE
  8
0
 62
7
  6
CONTINUOUS
 66
1
 70
0
  0
VERTEX
  8
0
 62
7
  6
CONTINUOUS
 10
83.7843138697
 20
120.1918074026
  0
VERTEX
  8
0
 62
7
  6
CONTINUOUS
 10
83.8130662604
 20
120.235333416
  0
VERTEX
  8
0
 62
7
  6
CONTINUOUS
 10
83.8556591009
 20
120.2841506665
  0
VERTEX
  8
0
 62
7
  6
CONTINUOUS
 10
83.906421816
 20
120.3275140853
  0
VERTEX
  8
0
 62
7
  6
CONTINUOUS
 10
83.9646207858
 20
120.3641774215
  0
VERTEX
  8
0
 62
7
  6
CONTINUOUS
 10
84.0294177053
 20
120.3931375703
  0
VERTEX
  8
0
 62
7
  6
CONTINUOUS
 10
84.0999269447
 20
120.4135433422
  0
VERTEX
  8
0
 62
7
  6
CONTINUOUS
 10
84.1750596875
 20
120.4246012108
  0
VERTEX
  8
0
 62
7
  6
CONTINUOUS
 10
84.2536537891
 20
120.4256176938
  0
VERTEX
  8
0
 62
7
  6
CONTINUOUS
 10
84.334523153
 20
120.4159531915
  0
VERTEX
  8
0
 62
7
  6
CONTINUOUS
 10
84.4029030272
 20
120.3992267397
  0
SEQEND
  0
POLYLINE
  8
0
 62
7
  6
CONTINUOUS
 66
1
 70
0
  0
VERTEX
  8
0
 62
7
  6
CONTINUOUS
 10
104.336202508
 20
140.0535134734
  0
VERTEX
  8
0
 62
7
  6
CONTINUOUS
 10
104.3653094324
 20
140.0716775974
  0
VERTEX
  8
0
 62
7
  6
CONTINUOUS
 10
104.4198352723
 20
140.1141161914
  0
VERTEX
  8
0
 62
7
  6
CONTINUOUS
 10
104.4682412091
 20
140.1639638593
  0
VERTEX
  8
0
 62
7
  6
CONTINUOUS
 10
104.5093924043
 20
140.220236244
  0
VERTEX
  8
0
 62
7
  6
CONTINUOUS
 10
104.5425718413
 20
140.2822541848
  0
VERTEX
  8
0
 62
7
  6
CONTINUOUS
 10
104.5668899029
 20
140.3489048061
  0
VERTEX
  8
0
 62
7
  6
CONTINUOUS
 10
104.581613523
 20
140.4189396593
  0
VERTEX
  8
0
 62
7
  6
CONTINUOUS
 10
104.586183517
 20
140.4908850058
  0
VERTEX
  8
0
 62
7
  6
CONTINUOUS
 10
104.5802378561
 20
140.5635267027
  0
VERTEX
  8
0
 62
7
  6
CONTINUOUS
 10
104.5637226441
 20
140.6347642391
  0
VERTEX
  8
0
 62
7
  6
CONTINUOUS
 10
104.5368617233
 20
140.703104736
  0
VERTEX
  8
0
 62
7
  6
CONTINUOUS
 10
104.5194664775
 20
140.7360903851
  0
SEQEND
  0
POLYLINE
  8
0
 62
7
  6
CONTINUOUS
 66
1
 70
0
  0
VERTEX
  8
0
 62
7
  6
CONTINUOUS
 10
75.757364185
 20
123.5535134701
  0
VERTEX
  8
0
 62
7
  6
CONTINUOUS
 10
75.7294514674
 20
123.5385560244
  0
VERTEX
  8
0
 62
7
  6
CONTINUOUS
 10
75.6680698159
 20
123.513056306
  0
VERTEX
  8
0
 62
7
  6
CONTINUOUS
 10
75.6037115252
 20
123.4958967768
  0
VERTEX
  8
0
 62
7
  6
CONTINUOUS
 10
75.5371664916
 20
123.4874151271
  0
VERTEX
  8
0
 62
7
  6
CONTINUOUS
 10
75.4697102686
 20
123.4879459936
  0
VERTEX
  8
0
 62
7
  6
CONTINUOUS
 10
75.4024643521
 20
123.4976539642
  0
VERTEX
  8
0
 62
7
  6
CONTINUOUS
 10
75.3366064673
 20
123.5165880793
  0
VERTEX
  8
0
 62
7
  6
CONTINUOUS
 10
75.2734896189
 20
123.5445955271
  0
VERTEX
  8
0
 62
7
  6
CONTINUOUS
 10
75.2144758712
 20
123.5812898935
  0
VERTEX
  8
0
 62
7
  6
CONTINUOUS
 10
75.1607805941
 20
123.6261377448
  0
VERTEX
  8
0
 62
7
  6
CONTINUOUS
 10
75.1137249794
 20
123.678227327
  0
VERTEX
  8
0
 62
7
  6
CONTINUOUS
 10
75.0743515568
 20
123.7365260444
  0
SEQEND
  0
POLYLINE
  8
0
 62
7
  6
CONTINUOUS
 66
1
 70
0
  0
VERTEX
  8
0
 62
7
  6
CONTINUOUS
 10
77.3903546425
 20
124.4963206782
  0
VERTEX
  8
0
 62
7
  6
CONTINUOUS
 10
77.4370067577
 20
124.5196343069
  0
VERTEX
  8
0
 62
7
  6
CONTINUOUS
 10
77.4982919171
 20
124.5406140969
  0
VERTEX
  8
0
 62
7
  6
CONTINUOUS
 10
77.5639289439
 20
124.5527890447
  0
VERTEX
  8
0
 62
7
  6
CONTINUOUS
 10
77.6326610792
 20
124.5554449617
  0
VERTEX
  8
0
 62
7
  6
CONTINUOUS
 10
77.7032592901
 20
124.5481304246
  0
VERTEX
  8
0
 62
7
  6
CONTINUOUS
 10
77.7745297141
 20
124.5305500689
  0
VERTEX
  8
0
 62
7
  6
CONTINUOUS
 10
77.8451316223
 20
124.5025605903
  0
VERTEX
  8
0
 62
7
  6
CONTINUOUS
 10
77.9137106423
 20
124.4641424907
  0
VERTEX
  8
0
 62
7
  6
CONTINUOUS
 10
77.9789188133
 20
124.4153353423
  0
VERTEX
  8
0
 62
7
  6
CONTINUOUS
 10
78.0297782428
 20
124.3666564919
  0
SEQEND
  0
LINE
  8
0
 62
7
  6
CONTINUOUS
 10
99.1110606623
 20
135.6481077309
 11
92.6765237129
 21
124.5031628114
  0
POLYLINE
  8
0
 62
7
  6
CONTINUOUS
 66
1
 70
0
  0
VERTEX
  8
0
 62
7
  6
CONTINUOUS
 10
92.6765236084
 20
124.5031628717
  0
VERTEX
  8
0
 62
7
  6
CONTINUOUS
 10
92.4686716999
 20
124.174255183
  0
VERTEX
  8
0
 62
7
  6
CONTINUOUS
 10
92.2255784701
 20
123.8511660134
  0
VERTEX
  8
0
 62
7
  6
CONTINUOUS
 10
91.9559137892
 20
123.5485849038
  0
VERTEX
  8
0
 62
7
  6
CONTINUOUS
 10
91.6608765161
 20
123.2681367626
  0
VERTEX
  8
0
 62
7
  6
CONTINUOUS
 10
91.3417319336
 20
123.0114462561
  0
VERTEX
  8
0
 62
7
  6
CONTINUOUS
 10
90.999828315
 20
122.7801295775
  0
VERTEX
  8
0
 62
7
  6
CONTINUOUS
 10
90.6365869246
 20
122.5757657975
  0
VERTEX
  8
0
 62
7
  6
CONTINUOUS
 10
90.2535143575
 20
122.3998879754
  0
VERTEX
  8
0
 62
7
  6
CONTINUOUS
 10
89.8518010181
 20
122.2538338857
  0
VERTEX
  8
0
 62
7
  6
CONTINUOUS
 10
89.4319320531
 20
122.1388061551
  0
VERTEX
  8
0
 62
7
  6
CONTINUOUS
 10
88.9943434335
 20
122.0562508438
  0
VERTEX
  8
0
 62
7
  6
CONTINUOUS
 10
88.5395002774
 20
122.0078434157
  0
VERTEX
  8
0
 62
7
  6
CONTINUOUS
 10
88.0671183966
 20
121.9954436151
  0
VERTEX
  8
0
 62
7
  6
CONTINUOUS
 10
87.5764234732
 20
122.0213006472
  0
VERTEX
  8
0
 62
7
  6
CONTINUOUS
 10
87.0668550012
 20
122.0880083989
  0
VERTEX
  8
0
 62
7
  6
CONTINUOUS
 10
86.5391456211
 20
122.1979512808
  0
VERTEX
  8
0
 62
7
  6
CONTINUOUS
 10
85.9958199407
 20
122.3523002081
  0
VERTEX
  8
0
 62
7
  6
CONTINUOUS
 10
85.4389814742
 20
122.5507014284
  0
VERTEX
  8
0
 62
7
  6
CONTINUOUS
 10
84.8663877618
 20
122.7925987752
  0
VERTEX
  8
0
 62
7
  6
CONTINUOUS
 10
84.2696484893
 20
123.0787954446
  0
VERTEX
  8
0
 62
7
  6
CONTINUOUS
 10
83.6415769199
 20
123.4082878187
  0
VERTEX
  8
0
 62
7
  6
CONTINUOUS
 10
82.991584284
 20
123.769605254
  0
VERTEX
  8
0
 62
7
  6
CONTINUOUS
 10
82.3374274917
 20
124.1472633735
  0
VERTEX
  8
0
 62
7
  6
CONTINUOUS
 10
81.6994544983
 20
124.529504235
  0
VERTEX
  8
0
 62
7
  6
CONTINUOUS
 10
81.0999506046
 20
124.9086823258
  0
VERTEX
  8
0
 62
7
  6
CONTINUOUS
 10
80.5535804948
 20
125.2823708016
  0
VERTEX
  8
0
 62
7
  6
CONTINUOUS
 10
80.0576425614
 20
125.6572885684
  0
VERTEX
  8
0
 62
7
  6
CONTINUOUS
 10
79.6072559088
 20
126.0402991394
  0
VERTEX
  8
0
 62
7
  6
CONTINUOUS
 10
79.2017787163
 20
126.4336296866
  0
VERTEX
  8
0
 62
7
  6
CONTINUOUS
 10
78.8425673786
 20
126.8356426571
  0
VERTEX
  8
0
 62
7
  6
CONTINUOUS
 10
78.5298700396
 20
127.2435718985
  0
VERTEX
  8
0
 62
7
  6
CONTINUOUS
 10
78.261991661
 20
127.6555896929
  0
VERTEX
  8
0
 62
7
  6
CONTINUOUS
 10
78.0364085463
 20
128.0708805086
  0
VERTEX
  8
0
 62
7
  6
CONTINUOUS
 10
77.8507867465
 20
128.4889853922
  0
VERTEX
  8
0
 62
7
  6
CONTINUOUS
 10
77.7033719276
 20
128.9092188186
  0
VERTEX
  8
0
 62
7
  6
CONTINUOUS
 10
77.5929427477
 20
129.3303428115
  0
VERTEX
  8
0
 62
7
  6
CONTINUOUS
 10
77.5184628244
 20
129.7512601093
  0
VERTEX
  8
0
 62
7
  6
CONTINUOUS
 10
77.479132309
 20
130.1709527762
  0
VERTEX
  8
0
 62
7
  6
CONTINUOUS
 10
77.4743881985
 20
130.5877222844
  0
VERTEX
  8
0
 62
7
  6
CONTINUOUS
 10
77.5036567993
 20
130.9994971597
  0
VERTEX
  8
0
 62
7
  6
CONTINUOUS
 10
77.5662818268
 20
131.4042567387
  0
VERTEX
  8
0
 62
7
  6
CONTINUOUS
 10
77.6615383109
 20
131.8000250909
  0
VERTEX
  8
0
 62
7
  6
CONTINUOUS
 10
77.7886523635
 20
132.1848937279
  0
VERTEX
  8
0
 62
7
  6
CONTINUOUS
 10
77.9468163861
 20
132.557011157
  0
VERTEX
  8
0
 62
7
  6
CONTINUOUS
 10
78.1282701272
 20
132.9026009354
  0
SEQEND
  0
POLYLINE
  8
0
 62
7
  6
CONTINUOUS
 66
1
 70
0
  0
VERTEX
  8
0
 62
7
  6
CONTINUOUS
 10
102.7451255291
 20
130.9891138384
  0
VERTEX
  8
0
 62
7
  6
CONTINUOUS
 10
102.7652194307
 20
131.0577963848
  0
VERTEX
  8
0
 62
7
  6
CONTINUOUS
 10
102.7974215425
 20
131.1325950224
  0
VERTEX
  8
0
 62
7
  6
CONTINUOUS
 10
102.8377208401
 20
131.2000587995
  0
VERTEX
  8
0
 62
7
  6
CONTINUOUS
 10
102.8849681302
 20
131.259484477
  0
VERTEX
  8
0
 62
7
  6
CONTINUOUS
 10
102.9379801399
 20
131.3102166364
  0
VERTEX
  8
0
 62
7
  6
CONTINUOUS
 10
102.9955242911
 20
131.3517133316
  0
VERTEX
  8
0
 62
7
  6
CONTINUOUS
 10
103.056420507
 20
131.3836372948
  0
VERTEX
  8
0
 62
7
  6
CONTINUOUS
 10
103.1193804974
 20
131.4057680104
  0
VERTEX
  8
0
 62
7
  6
CONTINUOUS
 10
103.1829624733
 20
131.4180983365
  0
VERTEX
  8
0
 62
7
  6
CONTINUOUS
 10
103.2340505168
 20
131.4211181164
  0
SEQEND
  0
POLYLINE
  8
0
 62
7
  6
CONTINUOUS
 66
1
 70
0
  0
VERTEX
  8
0
 62
7
  6
CONTINUOUS
 10
99.2095524417
 20
124.3666564924
  0
VERTEX
  8
0
 62
7
  6
CONTINUOUS
 10
99.2612955441
 20
124.4160903716
  0
VERTEX
  8
0
 62
7
  6
CONTINUOUS
 10
99.3265827098
 20
124.464766836
  0
VERTEX
  8
0
 62
7
  6
CONTINUOUS
 10
99.3952148139
 20
124.503042532
  0
VERTEX
  8
0
 62
7
  6
CONTINUOUS
 10
99.4658450061
 20
124.5308830333
  0
VERTEX
  8
0
 62
7
  6
CONTINUOUS
 10
99.5371208329
 20
124.5483123673
  0
VERTEX
  8
0
 62
7
  6
CONTINUOUS
 10
99.6077038773
 20
124.5554774839
  0
VERTEX
  8
0
 62
7
  6
CONTINUOUS
 10
99.6764035288
 20
124.552676339
  0
VERTEX
  8
0
 62
7
  6
CONTINUOUS
 10
99.7419938377
 20
124.5403621059
  0
VERTEX
  8
0
 62
7
  6
CONTINUOUS
 10
99.8032226071
 20
124.5192494935
  0
VERTEX
  8
0
 62
7
  6
CONTINUOUS
 10
99.8489760407
 20
124.4963206778
  0
SEQEND
  0
POLYLINE
  8
0
 62
7
  6
CONTINUOUS
 66
1
 70
0
  0
VERTEX
  8
0
 62
7
  6
CONTINUOUS
 10
84.4029030265
 20
148.1514819878
  0
VERTEX
  8
0
 62
7
  6
CONTINUOUS
 10
84.3333752457
 20
148.1345425439
  0
VERTEX
  8
0
 62
7
  6
CONTINUOUS
 10
84.2524966695
 20
148.125031072
  0
VERTEX
  8
0
 62
7
  6
CONTINUOUS
 10
84.1739216759
 20
148.1261993989
  0
VERTEX
  8
0
 62
7
  6
CONTINUOUS
 10
84.0988338845
 20
148.1374039136
  0
VERTEX
  8
0
 62
7
  6
CONTINUOUS
 10
84.0283925408
 20
148.1579475811
  0
VERTEX
  8
0
 62
7
  6
CONTINUOUS
 10
83.963683273
 20
148.1870339302
  0
VERTEX
  8
0
 62
7
  6
CONTINUOUS
 10
83.9055882019
 20
148.2238096186
  0
VERTEX
  8
0
 62
7
  6
CONTINUOUS
 10
83.8549424448
 20
148.2672692118
  0
VERTEX
  8
0
 62
7
  6
CONTINUOUS
 10
83.8124730812
 20
148.3161676551
  0
VERTEX
  8
0
 62
7
  6
CONTINUOUS
 10
83.7843138533
 20
148.3589013088
  0
SEQEND
  0
POLYLINE
  8
0
 62
7
  6
CONTINUOUS
 66
1
 70
0
  0
VERTEX
  8
0
 62
7
  6
CONTINUOUS
 10
91.9059058673
 20
148.4008145502
  0
VERTEX
  8
0
 62
7
  6
CONTINUOUS
 10
91.8372233209
 20
148.4209084518
  0
VERTEX
  8
0
 62
7
  6
CONTINUOUS
 10
91.7624246833
 20
148.4531105637
  0
VERTEX
  8
0
 62
7
  6
CONTINUOUS
 10
91.6949609062
 20
148.4934098612
  0
VERTEX
  8
0
 62
7
  6
CONTINUOUS
 10
91.6355352287
 20
148.5406571513
  0
VERTEX
  8
0
 62
7
  6
CONTINUOUS
 10
91.5848030693
 20
148.593669161
  0
VERTEX
  8
0
 62
7
  6
CONTINUOUS
 10
91.5433063741
 20
148.6512133122
  0
VERTEX
  8
0
 62
7
  6
CONTINUOUS
 10
91.5113824109
 20
148.7121095282
  0
VERTEX
  8
0
 62
7
  6
CONTINUOUS
 10
91.4892516953
 20
148.7750695185
  0
VERTEX
  8
0
 62
7
  6
CONTINUOUS
 10
91.4769213692
 20
148.8386514944
  0
VERTEX
  8
0
 62
7
  6
CONTINUOUS
 10
91.4739015893
 20
148.889739538
  0
SEQEND
  0
POLYLINE
  8
0
 62
7
  6
CONTINUOUS
 66
1
 70
0
  0
VERTEX
  8
0
 62
7
  6
CONTINUOUS
 10
98.5283632126
 20
144.8652414618
  0
VERTEX
  8
0
 62
7
  6
CONTINUOUS
 10
98.4789330551
 20
144.9169802029
  0
VERTEX
  8
0
 62
7
  6
CONTINUOUS
 10
98.4302595433
 20
144.9822614243
  0
VERTEX
  8
0
 62
7
  6
CONTINUOUS
 10
98.3919852389
 20
145.0508868067
  0
VERTEX
  8
0
 62
7
  6
CONTINUOUS
 10
98.364144143
 20
145.1215105269
  0
VERTEX
  8
0
 62
7
  6
CONTINUOUS
 10
98.3467122537
 20
145.1927813781
  0
VERTEX
  8
0
 62
7
  6
CONTINUOUS
 10
98.3395431685
 20
145.2633620158
  0
VERTEX
  8
0
 62
7
  6
CONTINUOUS
 10
98.3423400349
 20
145.3320631604
  0
VERTEX
  8
0
 62
7
  6
CONTINUOUS
 10
98.354651639
 20
145.3976603649
  0
VERTEX
  8
0
 62
7
  6
CONTINUOUS
 10
98.3757650777
 20
145.4588996891
  0
VERTEX
  8
0
 62
7
  6
CONTINUOUS
 10
98.3986990499
 20
145.5046650544
  0
SEQEND
  0
POLYLINE
  8
0
 62
7
  6
CONTINUOUS
 66
1
 70
0
  0
VERTEX
  8
0
 62
7
  6
CONTINUOUS
 10
102.4957929667
 20
138.4921166792
  0
VERTEX
  8
0
 62
7
  6
CONTINUOUS
 10
102.4788535228
 20
138.56164446
  0
VERTEX
  8
0
 62
7
  6
CONTINUOUS
 10
102.4693420509
 20
138.6425230362
  0
VERTEX
  8
0
 62
7
  6
CONTINUOUS
 10
102.4705103778
 20
138.7210980298
  0
VERTEX
  8
0
 62
7
  6
CONTINUOUS
 10
102.4817148925
 20
138.7961858212
  0
VERTEX
  8
0
 62
7
  6
CONTINUOUS
 10
102.5022585599
 20
138.8666271649
  0
VERTEX
  8
0
 62
7
  6
CONTINUOUS
 10
102.5313449091
 20
138.9313364327
  0
VERTEX
  8
0
 62
7
  6
CONTINUOUS
 10
102.5681205975
 20
138.9894315038
  0
VERTEX
  8
0
 62
7
  6
CONTINUOUS
 10
102.6115801907
 20
139.0400772609
  0
VERTEX
  8
0
 62
7
  6
CONTINUOUS
 10
102.660478634
 20
139.0825466245
  0
VERTEX
  8
0
 62
7
  6
CONTINUOUS
 10
102.7032122876
 20
139.1107058524
  0
SEQEND
  0
LINE
  8
0
 62
7
  6
CONTINUOUS
 10
105.6196653423
 20
136.6295903878
 11
105.6196653423
 21
131.921118339
  0
LINE
  8
0
 62
7
  6
CONTINUOUS
 10
104.5192152188
 20
127.8141825671
 11
102.1649791944
 21
123.7365261598
  0
LINE
  8
0
 62
7
  6
CONTINUOUS
 10
86.2654293179
 20
151.2753543634
 11
90.9739013667
 21
151.2753543634
  0
LINE
  8
0
 62
7
  6
CONTINUOUS
 10
95.0808371386
 20
150.17490424
 11
99.1584935459
 21
147.8206682155
  0
LINE
  8
0
 62
7
  6
CONTINUOUS
 10
102.1649791944
 20
144.8141825671
 11
104.5192152188
 21
140.7365261598
  0
LINE
  8
0
 62
7
  6
CONTINUOUS
 10
99.1584935459
 20
120.7300405113
 11
95.0808371386
 21
118.3758044869
  0
LINE
  8
0
 62
7
  6
CONTINUOUS
 10
71.6196653423
 20
227.1846861966
 11
71.6196653423
 21
234.0994784032
  0
POLYLINE
  8
0
 62
7
  6
CONTINUOUS
 66
1
 70
0
  0
VERTEX
  8
0
 62
7
  6
CONTINUOUS
 10
73.1692918574
 20
229.4209924549
  0
VERTEX
  8
0
 62
7
  6
CONTINUOUS
 10
73.1283703263
 20
229.2227443049
  0
VERTEX
  8
0
 62
7
  6
CONTINUOUS
 10
73.1000404732
 20
229.0198338868
  0
VERTEX
  8
0
 62
7
  6
CONTINUOUS
 10
73.0841429423
 20
228.814472719
  0
VERTEX
  8
0
 62
7
  6
CONTINUOUS
 10
73.0804897633
 20
228.608188301
  0
VERTEX
  8
0
 62
7
  6
CONTINUOUS
 10
73.0890068684
 20
228.4023935466
  0
VERTEX
  8
0
 62
7
  6
CONTINUOUS
 10
73.1097361924
 20
228.1985545144
  0
VERTEX
  8
0
 62
7
  6
CONTINUOUS
 10
73.1428431426
 20
227.9981227074
  0
VERTEX
  8
0
 62
7
  6
CONTINUOUS
 10
73.1886363316
 20
227.8026042701
  0
VERTEX
  8
0
 62
7
  6
CONTINUOUS
 10
73.2475661796
 20
227.6136902863
  0
VERTEX
  8
0
 62
7
  6
CONTINUOUS
 10
73.3201061752
 20
227.433571504
  0
VERTEX
  8
0
 62
7
  6
CONTINUOUS
 10
73.4063307085
 20
227.2654334752
  0
VERTEX
  8
0
 62
7
  6
CONTINUOUS
 10
73.5051534942
 20
227.1136210194
  0
VERTEX
  8
0
 62
7
  6
CONTINUOUS
 10
73.6134406725
 20
226.9830148495
  0
VERTEX
  8
0
 62
7
  6
CONTINUOUS
 10
73.7274889913
 20
226.8759540152
  0
VERTEX
  8
0
 62
7
  6
CONTINUOUS
 10
73.8456937745
 20
226.7911771088
  0
VERTEX
  8
0
 62
7
  6
CONTINUOUS
 10
73.9668999461
 20
226.7272201172
  0
SEQEND
  0
POLYLINE
  8
0
 62
7
  6
CONTINUOUS
 66
1
 70
0
  0
VERTEX
  8
0
 62
7
  6
CONTINUOUS
 10
73.1692918574
 20
229.4209924549
  0
VERTEX
  8
0
 62
7
  6
CONTINUOUS
 10
73.2084584833
 20
229.6033160165
  0
VERTEX
  8
0
 62
7
  6
CONTINUOUS
 10
73.239695272
 20
229.7948611348
  0
VERTEX
  8
0
 62
7
  6
CONTINUOUS
 10
73.2623526301
 20
229.9934718783
  0
VERTEX
  8
0
 62
7
  6
CONTINUOUS
 10
73.2759608914
 20
230.1968543917
  0
VERTEX
  8
0
 62
7
  6
CONTINUOUS
 10
73.2802360399
 20
230.4025909244
  0
VERTEX
  8
0
 62
7
  6
CONTINUOUS
 10
73.2750866865
 20
230.6082589158
  0
VERTEX
  8
0
 62
7
  6
CONTINUOUS
 10
73.2606116463
 20
230.811413816
  0
VERTEX
  8
0
 62
7
  6
CONTINUOUS
 10
73.2370977271
 20
231.0096803379
  0
VERTEX
  8
0
 62
7
  6
CONTINUOUS
 10
73.2050349393
 20
231.200674695
  0
SEQEND
  0
LINE
  8
0
 62
7
  6
CONTINUOUS
 10
72.6622427149
 20
234.0044443444
 11
73.2050349393
 21
231.200674695
  0
POLYLINE
  8
0
 62
7
  6
CONTINUOUS
 66
1
 70
0
  0
VERTEX
  8
0
 62
7
  6
CONTINUOUS
 10
77.1317875825
 20
227.0934183934
  0
VERTEX
  8
0
 62
7
  6
CONTINUOUS
 10
77.5059170194
 20
229.0136943801
  0
VERTEX
  8
0
 62
7
  6
CONTINUOUS
 10
77.9175441193
 20
230.9438107724
  0
VERTEX
  8
0
 62
7
  6
CONTINUOUS
 10
78.327214328
 20
232.7160767081
  0
SEQEND
  0
LINE
  8
0
 62
7
  6
CONTINUOUS
 10
77.9376273384
 20
231.0122750568
 11
77.9717270244
 21
231.1859984475
  0
POLYLINE
  8
0
 62
7
  6
CONTINUOUS
 66
1
 70
0
  0
VERTEX
  8
0
 62
7
  6
CONTINUOUS
 10
77.9717274015
 20
231.1860003178
  0
VERTEX
  8
0
 62
7
  6
CONTINUOUS
 10
78.097090641
 20
231.7368929812
  0
VERTEX
  8
0
 62
7
  6
CONTINUOUS
 10
78.2282864455
 20
232.3000084779
  0
VERTEX
  8
0
 62
7
  6
CONTINUOUS
 10
78.3272141842
 20
232.7160762486
  0
SEQEND
  0
POLYLINE
  8
0
 62
7
  6
CONTINUOUS
 66
1
 70
0
  0
VERTEX
  8
0
 62
7
  6
CONTINUOUS
 10
78.3272146682
 20
232.7160782837
  0
VERTEX
  8
0
 62
7
  6
CONTINUOUS
 10
78.3420291393
 20
232.766157982
  0
VERTEX
  8
0
 62
7
  6
CONTINUOUS
 10
78.3691493276
 20
232.828859065
  0
VERTEX
  8
0
 62
7
  6
CONTINUOUS
 10
78.4045631873
 20
232.8872781067
  0
VERTEX
  8
0
 62
7
  6
CONTINUOUS
 10
78.4476096496
 20
232.9403246055
  0
VERTEX
  8
0
 62
7
  6
CONTINUOUS
 10
78.497485188
 20
232.9870083355
  0
VERTEX
  8
0
 62
7
  6
CONTINUOUS
 10
78.5532587668
 20
233.0264577957
  0
VERTEX
  8
0
 62
7
  6
CONTINUOUS
 10
78.6138890567
 20
233.0579364433
  0
VERTEX
  8
0
 62
7
  6
CONTINUOUS
 10
78.6782430307
 20
233.0808563512
  0
VERTEX
  8
0
 62
7
  6
CONTINUOUS
 10
78.745113974
 20
233.0947894606
  0
VERTEX
  8
0
 62
7
  6
CONTINUOUS
 10
78.8132733321
 20
233.0994783759
  0
SEQEND
  0
POLYLINE
  8
0
 62
7
  6
CONTINUOUS
 66
1
 70
0
  0
VERTEX
  8
0
 62
7
  6
CONTINUOUS
 10
78.0123727285
 20
229.4398461183
  0
VERTEX
  8
0
 62
7
  6
CONTINUOUS
 10
77.970340629
 20
229.6062712109
  0
VERTEX
  8
0
 62
7
  6
CONTINUOUS
 10
77.9338744818
 20
229.7965005764
  0
VERTEX
  8
0
 62
7
  6
CONTINUOUS
 10
77.907503773
 20
229.9948422549
  0
VERTEX
  8
0
 62
7
  6
CONTINUOUS
 10
77.8917412315
 20
230.1986393215
  0
VERTEX
  8
0
 62
7
  6
CONTINUOUS
 10
77.886884226
 20
230.4051409147
  0
VERTEX
  8
0
 62
7
  6
CONTINUOUS
 10
77.8930274336
 20
230.6114996372
  0
VERTEX
  8
0
 62
7
  6
CONTINUOUS
 10
77.9100548205
 20
230.8148258138
  0
VERTEX
  8
0
 62
7
  6
CONTINUOUS
 10
77.9376273384
 20
231.0122750568
  0
SEQEND
  0
POLYLINE
  8
0
 62
7
  6
CONTINUOUS
 66
1
 70
0
  0
VERTEX
  8
0
 62
7
  6
CONTINUOUS
 10
77.1317846613
 20
227.0934026625
  0
VERTEX
  8
0
 62
7
  6
CONTINUOUS
 10
77.1191825851
 20
227.0412841393
  0
VERTEX
  8
0
 62
7
  6
CONTINUOUS
 10
77.095185764
 20
226.9773772503
  0
VERTEX
  8
0
 62
7
  6
CONTINUOUS
 10
77.0627562919
 20
226.9174110468
  0
VERTEX
  8
0
 62
7
  6
CONTINUOUS
 10
77.0216192367
 20
226.861405851
  0
VERTEX
  8
0
 62
7
  6
CONTINUOUS
 10
76.9727022733
 20
226.8112772626
  0
VERTEX
  8
0
 62
7
  6
CONTINUOUS
 10
76.915905369
 20
226.767577205
  0
VERTEX
  8
0
 62
7
  6
CONTINUOUS
 10
76.8538386565
 20
226.7326315757
  0
VERTEX
  8
0
 62
7
  6
CONTINUOUS
 10
76.7846997921
 20
226.7060252199
  0
VERTEX
  8
0
 62
7
  6
CONTINUOUS
 10
76.7129289934
 20
226.6900057521
  0
VERTEX
  8
0
 62
7
  6
CONTINUOUS
 10
76.6401879617
 20
226.6846861966
  0
SEQEND
  0
POLYLINE
  8
0
 62
7
  6
CONTINUOUS
 66
1
 70
0
  0
VERTEX
  8
0
 62
7
  6
CONTINUOUS
 10
78.7394470796
 20
229.4967081123
  0
VERTEX
  8
0
 62
7
  6
CONTINUOUS
 10
78.6683876266
 20
229.300931549
  0
VERTEX
  8
0
 62
7
  6
CONTINUOUS
 10
78.6162664762
 20
229.097939442
  0
VERTEX
  8
0
 62
7
  6
CONTINUOUS
 10
78.5835706707
 20
228.8894158047
  0
VERTEX
  8
0
 62
7
  6
CONTINUOUS
 10
78.5708139236
 20
228.678346136
  0
VERTEX
  8
0
 62
7
  6
CONTINUOUS
 10
78.5780869097
 20
228.4671855021
  0
VERTEX
  8
0
 62
7
  6
CONTINUOUS
 10
78.6052712281
 20
228.2581422282
  0
VERTEX
  8
0
 62
7
  6
CONTINUOUS
 10
78.651951294
 20
228.0538953321
  0
VERTEX
  8
0
 62
7
  6
CONTINUOUS
 10
78.7176953889
 20
227.8561746503
  0
VERTEX
  8
0
 62
7
  6
CONTINUOUS
 10
78.8014829361
 20
227.6678527056
  0
VERTEX
  8
0
 62
7
  6
CONTINUOUS
 10
78.9025728756
 20
227.4904007101
  0
VERTEX
  8
0
 62
7
  6
CONTINUOUS
 10
79.0194258115
 20
227.3263281009
  0
VERTEX
  8
0
 62
7
  6
CONTINUOUS
 10
79.1508572658
 20
227.1770339347
  0
VERTEX
  8
0
 62
7
  6
CONTINUOUS
 10
79.2951645024
 20
227.044230817
  0
VERTEX
  8
0
 62
7
  6
CONTINUOUS
 10
79.450506519
 20
226.9293040223
  0
VERTEX
  8
0
 62
7
  6
CONTINUOUS
 10
79.615631121
 20
226.8329743911
  0
VERTEX
  8
0
 62
7
  6
CONTINUOUS
 10
79.7879209238
 20
226.7565220659
  0
VERTEX
  8
0
 62
7
  6
CONTINUOUS
 10
79.9664608155
 20
226.7001542202
  0
SEQEND
  0
POLYLINE
  8
0
 62
7
  6
CONTINUOUS
 66
1
 70
0
  0
VERTEX
  8
0
 62
7
  6
CONTINUOUS
 10
78.7394470796
 20
229.4967081123
  0
VERTEX
  8
0
 62
7
  6
CONTINUOUS
 10
78.8031956847
 20
229.6683165028
  0
VERTEX
  8
0
 62
7
  6
CONTINUOUS
 10
78.853205512
 20
229.8462460726
  0
VERTEX
  8
0
 62
7
  6
CONTINUOUS
 10
78.8890565782
 20
230.0290768744
  0
VERTEX
  8
0
 62
7
  6
CONTINUOUS
 10
78.9104002332
 20
230.2152158527
  0
VERTEX
  8
0
 62
7
  6
CONTINUOUS
 10
78.9170166613
 20
230.402987176
  0
VERTEX
  8
0
 62
7
  6
CONTINUOUS
 10
78.9088323914
 20
230.5907047486
  0
VERTEX
  8
0
 62
7
  6
CONTINUOUS
 10
78.8859205022
 20
230.7766753112
  0
VERTEX
  8
0
 62
7
  6
CONTINUOUS
 10
78.8484985846
 20
230.9592313495
  0
VERTEX
  8
0
 62
7
  6
CONTINUOUS
 10
78.7969222177
 20
231.1367483375
  0
SEQEND
  0
LINE
  8
0
 62
7
  6
CONTINUOUS
 10
77.8567776604
 20
233.9405205123
 11
78.0244350417
 21
233.440519638
  0
LINE
  8
0
 62
7
  6
CONTINUOUS
 10
78.3023774001
 20
232.6116183327
 11
78.7969222177
 21
231.1367483375
  0
POLYLINE
  8
0
 62
7
  6
CONTINUOUS
 66
1
 70
0
  0
VERTEX
  8
0
 62
7
  6
CONTINUOUS
 10
81.9914887583
 20
227.0276847352
  0
VERTEX
  8
0
 62
7
  6
CONTINUOUS
 10
82.6385279253
 20
228.9532172642
  0
VERTEX
  8
0
 62
7
  6
CONTINUOUS
 10
83.3081982475
 20
230.8849385906
  0
VERTEX
  8
0
 62
7
  6
CONTINUOUS
 10
83.9817013294
 20
232.769921123
  0
SEQEND
  0
POLYLINE
  8
0
 62
7
  6
CONTINUOUS
 66
1
 70
0
  0
VERTEX
  8
0
 62
7
  6
CONTINUOUS
 10
83.9817014625
 20
232.7699216748
  0
VERTEX
  8
0
 62
7
  6
CONTINUOUS
 10
84.0026442268
 20
232.8192525857
  0
VERTEX
  8
0
 62
7
  6
CONTINUOUS
 10
84.0375601057
 20
232.8795563673
  0
VERTEX
  8
0
 62
7
  6
CONTINUOUS
 10
84.0805214247
 20
232.9344210576
  0
VERTEX
  8
0
 62
7
  6
CONTINUOUS
 10
84.1306936485
 20
232.9827803832
  0
VERTEX
  8
0
 62
7
  6
CONTINUOUS
 10
84.1871017866
 20
233.0236945118
  0
VERTEX
  8
0
 62
7
  6
CONTINUOUS
 10
84.2486497886
 20
233.0563686733
  0
VERTEX
  8
0
 62
7
  6
CONTINUOUS
 10
84.3141418361
 20
233.0801683946
  0
VERTEX
  8
0
 62
7
  6
CONTINUOUS
 10
84.38230479
 20
233.0946316298
  0
SEQEND
  0
POLYLINE
  8
0
 62
7
  6
CONTINUOUS
 66
1
 70
0
  0
VERTEX
  8
0
 62
7
  6
CONTINUOUS
 10
97.2728787975
 20
226.7001564945
  0
VERTEX
  8
0
 62
7
  6
CONTINUOUS
 10
97.2348429485
 20
226.6920295165
  0
VERTEX
  8
0
 62
7
  6
CONTINUOUS
 10
97.1923219586
 20
226.6865263023
  0
VERTEX
  8
0
 62
7
  6
CONTINUOUS
 10
97.1494649916
 20
226.6846861966
  0
SEQEND
  0
POLYLINE
  8
0
 62
7
  6
CONTINUOUS
 66
1
 70
0
  0
VERTEX
  8
0
 62
7
  6
CONTINUOUS
 10
105.1196653423
 20
226.6846861966
  0
VERTEX
  8
0
 62
7
  6
CONTINUOUS
 10
105.1918171866
 20
226.6899194725
  0
VERTEX
  8
0
 62
7
  6
CONTINUOUS
 10
105.2618550929
 20
226.7053303009
  0
VERTEX
  8
0
 62
7
  6
CONTINUOUS
 10
105.3285854269
 20
226.7304259208
  0
VERTEX
  8
0
 62
7
  6
CONTINUOUS
 10
105.3909542602
 20
226.7646834311
  0
VERTEX
  8
0
 62
7
  6
CONTINUOUS
 10
105.4478347501
 20
226.8074530595
  0
VERTEX
  8
0
 62
7
  6
CONTINUOUS
 10
105.4974829844
 20
226.8571898924
  0
VERTEX
  8
0
 62
7
  6
CONTINUOUS
 10
105.5399243333
 20
226.9137943724
  0
VERTEX
  8
0
 62
7
  6
CONTINUOUS
 10
105.574201679
 20
226.9763674057
  0
VERTEX
  8
0
 62
7
  6
CONTINUOUS
 10
105.5990944001
 20
227.0427433259
  0
VERTEX
  8
0
 62
7
  6
CONTINUOUS
 10
105.6144656248
 20
227.1127648481
  0
VERTEX
  8
0
 62
7
  6
CONTINUOUS
 10
105.6196653423
 20
227.1846861966
  0
SEQEND
  0
POLYLINE
  8
0
 62
7
  6
CONTINUOUS
 66
1
 70
0
  0
VERTEX
  8
0
 62
7
  6
CONTINUOUS
 10
102.7475421019
 20
226.6846861966
  0
VERTEX
  8
0
 62
7
  6
CONTINUOUS
 10
102.8169510971
 20
226.689527241
  0
VERTEX
  8
0
 62
7
  6
CONTINUOUS
 10
102.8834226129
 20
226.7035038126
  0
VERTEX
  8
0
 62
7
  6
CONTINUOUS
 10
102.9465916362
 20
226.7260149823
  0
VERTEX
  8
0
 62
7
  6
CONTINUOUS
 10
103.0061009172
 20
226.756729027
  0
VERTEX
  8
0
 62
7
  6
CONTINUOUS
 10
103.0623989542
 20
226.7962725479
  0
VERTEX
  8
0
 62
7
  6
CONTINUOUS
 10
103.1129202702
 20
226.8433669999
  0
VERTEX
  8
0
 62
7
  6
CONTINUOUS
 10
103.1569689451
 20
226.8976850467
  0
VERTEX
  8
0
 62
7
  6
CONTINUOUS
 10
103.1937597488
 20
226.959098494
  0
VERTEX
  8
0
 62
7
  6
CONTINUOUS
 10
103.2214921531
 20
227.0254023337
  0
VERTEX
  8
0
 62
7
  6
CONTINUOUS
 10
103.2384268253
 20
227.0896483723
  0
SEQEND
  0
POLYLINE
  8
0
 62
7
  6
CONTINUOUS
 66
1
 70
0
  0
VERTEX
  8
0
 62
7
  6
CONTINUOUS
 10
72.1196653423
 20
226.6846861966
  0
VERTEX
  8
0
 62
7
  6
CONTINUOUS
 10
72.047513498
 20
226.6899194725
  0
VERTEX
  8
0
 62
7
  6
CONTINUOUS
 10
71.9774755917
 20
226.7053303009
  0
VERTEX
  8
0
 62
7
  6
CONTINUOUS
 10
71.9107452577
 20
226.7304259208
  0
VERTEX
  8
0
 62
7
  6
CONTINUOUS
 10
71.8483764244
 20
226.7646834311
  0
VERTEX
  8
0
 62
7
  6
CONTINUOUS
 10
71.7914959345
 20
226.8074530595
  0
VERTEX
  8
0
 62
7
  6
CONTINUOUS
 10
71.7418477002
 20
226.8571898924
  0
VERTEX
  8
0
 62
7
  6
CONTINUOUS
 10
71.6994063512
 20
226.9137943724
  0
VERTEX
  8
0
 62
7
  6
CONTINUOUS
 10
71.6651290056
 20
226.9763674057
  0
VERTEX
  8
0
 62
7
  6
CONTINUOUS
 10
71.6402362845
 20
227.0427433259
  0
VERTEX
  8
0
 62
7
  6
CONTINUOUS
 10
71.6248650597
 20
227.1127648481
  0
VERTEX
  8
0
 62
7
  6
CONTINUOUS
 10
71.6196653423
 20
227.1846861966
  0
SEQEND
  0
POLYLINE
  8
0
 62
7
  6
CONTINUOUS
 66
1
 70
0
  0
VERTEX
  8
0
 62
7
  6
CONTINUOUS
 10
74.168703777
 20
226.6846861966
  0
VERTEX
  8
0
 62
7
  6
CONTINUOUS
 10
74.096467942
 20
226.6899317281
  0
VERTEX
  8
0
 62
7
  6
CONTINUOUS
 10
74.0228889353
 20
226.7064205467
  0
VERTEX
  8
0
 62
7
  6
CONTINUOUS
 10
73.9668952759
 20
226.7272221774
  0
SEQEND
  0
POLYLINE
  8
0
 62
7
  6
CONTINUOUS
 66
1
 70
0
  0
VERTEX
  8
0
 62
7
  6
CONTINUOUS
 10
80.004487736
 20
226.6920295165
  0
VERTEX
  8
0
 62
7
  6
CONTINUOUS
 10
80.047008726
 20
226.6865263023
  0
VERTEX
  8
0
 62
7
  6
CONTINUOUS
 10
80.089865693
 20
226.6846861966
  0
SEQEND
  0
LINE
  8
0
 62
7
  6
CONTINUOUS
 10
79.966451887
 20
226.7001564945
 11
80.004487736
 21
226.6920295165
  0
POLYLINE
  8
0
 62
7
  6
CONTINUOUS
 66
1
 70
0
  0
VERTEX
  8
0
 62
7
  6
CONTINUOUS
 10
81.5167777559
 20
226.6846861966
  0
VERTEX
  8
0
 62
7
  6
CONTINUOUS
 10
81.5833174906
 20
226.6891335121
  0
VERTEX
  8
0
 62
7
  6
CONTINUOUS
 10
81.6480633206
 20
226.702229878
  0
VERTEX
  8
0
 62
7
  6
CONTINUOUS
 10
81.7110630727
 20
226.7239767284
  0
VERTEX
  8
0
 62
7
  6
CONTINUOUS
 10
81.7711542984
 20
226.7542299589
  0
VERTEX
  8
0
 62
7
  6
CONTINUOUS
 10
81.8271569289
 20
226.792685219
  0
VERTEX
  8
0
 62
7
  6
CONTINUOUS
 10
81.87789574
 20
226.8388628333
  0
VERTEX
  8
0
 62
7
  6
CONTINUOUS
 10
81.9221928633
 20
226.8920454828
  0
VERTEX
  8
0
 62
7
  6
CONTINUOUS
 10
81.9590319904
 20
226.9514241369
  0
VERTEX
  8
0
 62
7
  6
CONTINUOUS
 10
81.98731935
 20
227.0155986323
  0
VERTEX
  8
0
 62
7
  6
CONTINUOUS
 10
81.991498321
 20
227.0277136627
  0
SEQEND
  0
LINE
  8
SURFACE
 62
7
  6
CONTINUOUS
 10
97.1494649916
 20
226.6846861966
 11
95.7225528216
 21
226.6846861966
  0
LINE
  8
SURFACE
 62
7
  6
CONTINUOUS
 10
76.9632729825
 20
226.6846861966
 11
72.1196653423
 21
226.6846861966
  0
LINE
  8
SURFACE
 62
7
  6
CONTINUOUS
 10
80.089865693
 20
226.6846861966
 11
81.516777863
 21
226.6846861966
  0
LINE
  8
SURFACE
 62
7
  6
CONTINUOUS
 10
100.2760577021
 20
226.6846861966
 11
105.1196653423
 21
226.6846861966
  0
POLYLINE
  8
0
 62
7
  6
CONTINUOUS
 66
1
 70
0
  0
VERTEX
  8
0
 62
7
  6
CONTINUOUS
 10
95.7225529287
 20
226.6846861966
  0
VERTEX
  8
0
 62
7
  6
CONTINUOUS
 10
95.6560131939
 20
226.6891335121
  0
VERTEX
  8
0
 62
7
  6
CONTINUOUS
 10
95.591267364
 20
226.702229878
  0
VERTEX
  8
0
 62
7
  6
CONTINUOUS
 10
95.5282676119
 20
226.7239767284
  0
VERTEX
  8
0
 62
7
  6
CONTINUOUS
 10
95.4681763862
 20
226.7542299589
  0
VERTEX
  8
0
 62
7
  6
CONTINUOUS
 10
95.4121737557
 20
226.792685219
  0
VERTEX
  8
0
 62
7
  6
CONTINUOUS
 10
95.3614349445
 20
226.8388628333
  0
VERTEX
  8
0
 62
7
  6
CONTINUOUS
 10
95.3171378212
 20
226.8920454828
  0
VERTEX
  8
0
 62
7
  6
CONTINUOUS
 10
95.2802986942
 20
226.9514241369
  0
VERTEX
  8
0
 62
7
  6
CONTINUOUS
 10
95.2520113345
 20
227.0155986323
  0
VERTEX
  8
0
 62
7
  6
CONTINUOUS
 10
95.2478323636
 20
227.0277136627
  0
SEQEND
  0
POLYLINE
  8
0
 62
7
  6
CONTINUOUS
 66
1
 70
0
  0
VERTEX
  8
0
 62
7
  6
CONTINUOUS
 10
77.1584014749
 20
226.7243334322
  0
VERTEX
  8
0
 62
7
  6
CONTINUOUS
 10
77.2688335866
 20
226.7791537028
  0
VERTEX
  8
0
 62
7
  6
CONTINUOUS
 10
77.3907093908
 20
226.8596925735
  0
VERTEX
  8
0
 62
7
  6
CONTINUOUS
 10
77.5087168632
 20
226.960662774
  0
VERTEX
  8
0
 62
7
  6
CONTINUOUS
 10
77.6205424762
 20
227.0813166505
  0
VERTEX
  8
0
 62
7
  6
CONTINUOUS
 10
77.7240591642
 20
227.220070611
  0
VERTEX
  8
0
 62
7
  6
CONTINUOUS
 10
77.8171293328
 20
227.3740438513
  0
VERTEX
  8
0
 62
7
  6
CONTINUOUS
 10
77.8981898624
 20
227.5397116956
  0
VERTEX
  8
0
 62
7
  6
CONTINUOUS
 10
77.9669025432
 20
227.7149561604
  0
VERTEX
  8
0
 62
7
  6
CONTINUOUS
 10
78.0231409908
 20
227.8981748139
  0
VERTEX
  8
0
 62
7
  6
CONTINUOUS
 10
78.0667170568
 20
228.0877216196
  0
VERTEX
  8
0
 62
7
  6
CONTINUOUS
 10
78.0974558004
 20
228.2819918879
  0
VERTEX
  8
0
 62
7
  6
CONTINUOUS
 10
78.115205982
 20
228.4793300678
  0
VERTEX
  8
0
 62
7
  6
CONTINUOUS
 10
78.1198751452
 20
228.6780827006
  0
VERTEX
  8
0
 62
7
  6
CONTINUOUS
 10
78.1114387802
 20
228.8765938288
  0
VERTEX
  8
0
 62
7
  6
CONTINUOUS
 10
78.0899431687
 20
229.073204809
  0
VERTEX
  8
0
 62
7
  6
CONTINUOUS
 10
78.0555014637
 20
229.2662618435
  0
VERTEX
  8
0
 62
7
  6
CONTINUOUS
 10
78.0123724613
 20
229.4398465339
  0
SEQEND
  0
LINE
  8
0
 62
7
  6
CONTINUOUS
 10
85.7991595052
 20
233.9189445788
 11
86.8847445931
 21
231.1151732782
  0
LINE
  8
DEFAULT_1
 62
2
  6
CENTER
 10
88.6196653423
 20
244.0994784032
 11
88.6196653423
 21
221.6844291909
  0
LINE
  8
0
 62
7
  6
CONTINUOUS
 10
77.1583350463
 20
226.7243051513
 11
77.1583824115
 21
226.724325223
  0
POLYLINE
  8
0
 62
7
  6
CONTINUOUS
 66
1
 70
0
  0
VERTEX
  8
0
 62
7
  6
CONTINUOUS
 10
77.1583350463
 20
226.7243051513
  0
VERTEX
  8
0
 62
7
  6
CONTINUOUS
 10
77.1015984134
 20
226.7042010091
  0
VERTEX
  8
0
 62
7
  6
CONTINUOUS
 10
77.0333645871
 20
226.6896234363
  0
VERTEX
  8
0
 62
7
  6
CONTINUOUS
 10
76.9632727672
 20
226.6846861966
  0
SEQEND
  0
POLYLINE
  8
0
 62
7
  6
CONTINUOUS
 66
1
 70
0
  0
VERTEX
  8
0
 62
7
  6
CONTINUOUS
 10
100.0809956383
 20
226.7243051513
  0
VERTEX
  8
0
 62
7
  6
CONTINUOUS
 10
100.1377322712
 20
226.7042010091
  0
VERTEX
  8
0
 62
7
  6
CONTINUOUS
 10
100.2059660975
 20
226.6896234363
  0
VERTEX
  8
0
 62
7
  6
CONTINUOUS
 10
100.2760579173
 20
226.6846861966
  0
SEQEND
  0
LINE
  8
0
 62
7
  6
CONTINUOUS
 10
100.0809956383
 20
226.7243051513
 11
100.0809482783
 21
226.7243252208
  0
LINE
  8
0
 62
7
  6
CONTINUOUS
 10
88.7628503493
 20
227.0041523722
 11
91.4401711794
 21
233.9189445788
  0
LINE
  8
0
 62
7
  6
CONTINUOUS
 10
92.9921066469
 20
233.0994784032
 11
91.4654606681
 21
233.0994784032
  0
LINE
  8
0
 62
7
  6
CONTINUOUS
 10
78.2005795239
 20
233.0994784032
 11
85.7738700165
 21
233.0994784032
  0
POLYLINE
  8
0
 62
7
  6
CONTINUOUS
 66
1
 70
0
  0
VERTEX
  8
0
 62
7
  6
CONTINUOUS
 10
79.318173977
 20
233.0994785297
  0
VERTEX
  8
0
 62
7
  6
CONTINUOUS
 10
79.3413773277
 20
233.0983067873
  0
VERTEX
  8
0
 62
7
  6
CONTINUOUS
 10
79.3649397709
 20
233.0944019068
  0
VERTEX
  8
0
 62
7
  6
CONTINUOUS
 10
79.3785979916
 20
233.090427893
  0
VERTEX
  8
0
 62
7
  6
CONTINUOUS
 10
79.3827807701
 20
233.0887706908
  0
SEQEND
  0
POLYLINE
  8
0
 62
7
  6
CONTINUOUS
 66
1
 70
0
  0
VERTEX
  8
0
 62
7
  6
CONTINUOUS
 10
78.4984942268
 20
233.0994784032
  0
VERTEX
  8
0
 62
7
  6
CONTINUOUS
 10
78.4331584622
 20
233.1037655449
  0
VERTEX
  8
0
 62
7
  6
CONTINUOUS
 10
78.3693609719
 20
233.116441549
  0
VERTEX
  8
0
 62
7
  6
CONTINUOUS
 10
78.3075958566
 20
233.1373552462
  0
VERTEX
  8
0
 62
7
  6
CONTINUOUS
 10
78.2484597456
 20
233.1664856108
  0
VERTEX
  8
0
 62
7
  6
CONTINUOUS
 10
78.193240018
 20
233.2034735194
  0
VERTEX
  8
0
 62
7
  6
CONTINUOUS
 10
78.1429525031
 20
233.2479245912
  0
VERTEX
  8
0
 62
7
  6
CONTINUOUS
 10
78.0987767868
 20
233.2991020257
  0
VERTEX
  8
0
 62
7
  6
CONTINUOUS
 10
78.061574231
 20
233.356371601
  0
VERTEX
  8
0
 62
7
  6
CONTINUOUS
 10
78.0323472588
 20
233.4186276243
  0
VERTEX
  8
0
 62
7
  6
CONTINUOUS
 10
78.0244300118
 20
233.4405346626
  0
SEQEND
  0
LINE
  8
0
 62
7
  6
CONTINUOUS
 10
84.38230479
 20
233.0946316298
 11
84.4517535535
 21
233.0994782501
  0
POLYLINE
  8
0
 62
7
  6
CONTINUOUS
 66
1
 70
0
  0
VERTEX
  8
0
 62
7
  6
CONTINUOUS
 10
92.7875764451
 20
233.0994782501
  0
VERTEX
  8
0
 62
7
  6
CONTINUOUS
 10
92.8570251052
 20
233.0946316443
  0
VERTEX
  8
0
 62
7
  6
CONTINUOUS
 10
92.9251880001
 20
233.0801684411
  0
VERTEX
  8
0
 62
7
  6
CONTINUOUS
 10
92.9906799961
 20
233.0563687684
  0
VERTEX
  8
0
 62
7
  6
CONTINUOUS
 10
93.0522279578
 20
233.0236946703
  0
VERTEX
  8
0
 62
7
  6
CONTINUOUS
 10
93.1086360701
 20
232.9827806177
  0
VERTEX
  8
0
 62
7
  6
CONTINUOUS
 10
93.1588082853
 20
232.9344213775
  0
VERTEX
  8
0
 62
7
  6
CONTINUOUS
 10
93.2017696148
 20
232.8795567785
  0
VERTEX
  8
0
 62
7
  6
CONTINUOUS
 10
93.2366855249
 20
232.8192530902
  0
VERTEX
  8
0
 62
7
  6
CONTINUOUS
 10
93.2576283226
 20
232.7699222636
  0
SEQEND
  0
POLYLINE
  8
0
 62
7
  6
CONTINUOUS
 66
1
 70
0
  0
VERTEX
  8
0
 62
7
  6
CONTINUOUS
 10
78.3308371386
 20
234.5994784032
  0
VERTEX
  8
0
 62
7
  6
CONTINUOUS
 10
78.258436412
 20
234.5942087689
  0
VERTEX
  8
0
 62
7
  6
CONTINUOUS
 10
78.1879504895
 20
234.5786270289
  0
VERTEX
  8
0
 62
7
  6
CONTINUOUS
 10
78.1207503208
 20
234.5532002662
  0
VERTEX
  8
0
 62
7
  6
CONTINUOUS
 10
78.0578885431
 20
234.5184044876
  0
VERTEX
  8
0
 62
7
  6
CONTINUOUS
 10
78.0002695262
 20
234.4746117843
  0
VERTEX
  8
0
 62
7
  6
CONTINUOUS
 10
77.9495646222
 20
234.4229459722
  0
VERTEX
  8
0
 62
7
  6
CONTINUOUS
 10
77.9066402076
 20
234.3641611636
  0
VERTEX
  8
0
 62
7
  6
CONTINUOUS
 10
77.8726484896
 20
234.2996362456
  0
VERTEX
  8
0
 62
7
  6
CONTINUOUS
 10
77.8482770521
 20
234.2303820427
  0
VERTEX
  8
0
 62
7
  6
CONTINUOUS
 10
77.8343344856
 20
234.1585132702
  0
VERTEX
  8
0
 62
7
  6
CONTINUOUS
 10
77.8310526303
 20
234.0848003525
  0
VERTEX
  8
0
 62
7
  6
CONTINUOUS
 10
77.8386328773
 20
234.0115297528
  0
VERTEX
  8
0
 62
7
  6
CONTINUOUS
 10
77.8567779533
 20
233.9405196386
  0
SEQEND
  0
LINE
  8
0
 62
7
  6
CONTINUOUS
 10
105.1196653423
 20
234.5994784032
 11
72.1196653423
 21
234.5994784032
  0
POLYLINE
  8
0
 62
7
  6
CONTINUOUS
 66
1
 70
0
  0
VERTEX
  8
0
 62
7
  6
CONTINUOUS
 10
98.9084935459
 20
234.5994784032
  0
VERTEX
  8
0
 62
7
  6
CONTINUOUS
 10
98.9808942906
 20
234.5942087663
  0
VERTEX
  8
0
 62
7
  6
CONTINUOUS
 10
99.0513802298
 20
234.5786270185
  0
VERTEX
  8
0
 62
7
  6
CONTINUOUS
 10
99.1185804128
 20
234.5532002435
  0
VERTEX
  8
0
 62
7
  6
CONTINUOUS
 10
99.1814422019
 20
234.5184044482
  0
VERTEX
  8
0
 62
7
  6
CONTINUOUS
 10
99.2390612262
 20
234.4746117245
  0
VERTEX
  8
0
 62
7
  6
CONTINUOUS
 10
99.2897661329
 20
234.4229458891
  0
VERTEX
  8
0
 62
7
  6
CONTINUOUS
 10
99.3326905446
 20
234.3641610553
  0
VERTEX
  8
0
 62
7
  6
CONTINUOUS
 10
99.3666822536
 20
234.2996361114
  0
VERTEX
  8
0
 62
7
  6
CONTINUOUS
 10
99.3910536759
 20
234.2303818829
  0
VERTEX
  8
0
 62
7
  6
CONTINUOUS
 10
99.4049962207
 20
234.1585130873
  0
VERTEX
  8
0
 62
7
  6
CONTINUOUS
 10
99.4082780484
 20
234.0848001491
  0
VERTEX
  8
0
 62
7
  6
CONTINUOUS
 10
99.4006977682
 20
234.0115295341
  0
VERTEX
  8
0
 62
7
  6
CONTINUOUS
 10
99.3825527313
 20
233.9405196387
  0
SEQEND
  0
POLYLINE
  8
0
 62
7
  6
CONTINUOUS
 66
1
 70
0
  0
VERTEX
  8
0
 62
7
  6
CONTINUOUS
 10
73.1531281676
 20
234.5994784032
  0
VERTEX
  8
0
 62
7
  6
CONTINUOUS
 10
73.079776504
 20
234.5940686714
  0
VERTEX
  8
0
 62
7
  6
CONTINUOUS
 10
73.0073752819
 20
234.577762938
  0
VERTEX
  8
0
 62
7
  6
CONTINUOUS
 10
72.9380300429
 20
234.5508460989
  0
VERTEX
  8
0
 62
7
  6
CONTINUOUS
 10
72.873270032
 20
234.5138205612
  0
VERTEX
  8
0
 62
7
  6
CONTINUOUS
 10
72.8152477204
 20
234.4680388506
  0
VERTEX
  8
0
 62
7
  6
CONTINUOUS
 10
72.7647812214
 20
234.4144175233
  0
VERTEX
  8
0
 62
7
  6
CONTINUOUS
 10
72.7229349263
 20
234.354299468
  0
VERTEX
  8
0
 62
7
  6
CONTINUOUS
 10
72.6904963755
 20
234.2891408005
  0
VERTEX
  8
0
 62
7
  6
CONTINUOUS
 10
72.6678511231
 20
234.2199200492
  0
VERTEX
  8
0
 62
7
  6
CONTINUOUS
 10
72.6555624737
 20
234.1487570012
  0
VERTEX
  8
0
 62
7
  6
CONTINUOUS
 10
72.6536503613
 20
234.0766328134
  0
VERTEX
  8
0
 62
7
  6
CONTINUOUS
 10
72.662242395
 20
234.0044459971
  0
SEQEND
  0
POLYLINE
  8
0
 62
7
  6
CONTINUOUS
 66
1
 70
0
  0
VERTEX
  8
0
 62
7
  6
CONTINUOUS
 10
104.0862025169
 20
234.5994784032
  0
VERTEX
  8
0
 62
7
  6
CONTINUOUS
 10
104.1595541805
 20
234.5940686714
  0
VERTEX
  8
0
 62
7
  6
CONTINUOUS
 10
104.2319554027
 20
234.577762938
  0
VERTEX
  8
0
 62
7
  6
CONTINUOUS
 10
104.3013006417
 20
234.5508460989
  0
VERTEX
  8
0
 62
7
  6
CONTINUOUS
 10
104.3660606526
 20
234.5138205612
  0
VERTEX
  8
0
 62
7
  6
CONTINUOUS
 10
104.4240829641
 20
234.4680388506
  0
VERTEX
  8
0
 62
7
  6
CONTINUOUS
 10
104.4745494632
 20
234.4144175233
  0
VERTEX
  8
0
 62
7
  6
CONTINUOUS
 10
104.5163957583
 20
234.354299468
  0
VERTEX
  8
0
 62
7
  6
CONTINUOUS
 10
104.548834309
 20
234.2891408005
  0
VERTEX
  8
0
 62
7
  6
CONTINUOUS
 10
104.5714795614
 20
234.2199200492
  0
VERTEX
  8
0
 62
7
  6
CONTINUOUS
 10
104.5837682109
 20
234.1487570012
  0
VERTEX
  8
0
 62
7
  6
CONTINUOUS
 10
104.5856803233
 20
234.0766328134
  0
VERTEX
  8
0
 62
7
  6
CONTINUOUS
 10
104.5770882896
 20
234.0044459971
  0
SEQEND
  0
POLYLINE
  8
0
 62
7
  6
CONTINUOUS
 66
1
 70
0
  0
VERTEX
  8
0
 62
7
  6
CONTINUOUS
 10
93.257628456
 20
232.7699217109
  0
VERTEX
  8
0
 62
7
  6
CONTINUOUS
 10
93.9312531236
 20
230.8845924181
  0
VERTEX
  8
0
 62
7
  6
CONTINUOUS
 10
94.600920654
 20
228.9528703874
  0
VERTEX
  8
0
 62
7
  6
CONTINUOUS
 10
95.2478419249
 20
227.0276847354
  0
SEQEND
  0
LINE
  8
0
 62
7
  6
CONTINUOUS
 10
99.3825531593
 20
233.9405209152
 11
98.4424084669
 21
231.1367483375
  0
POLYLINE
  8
0
 62
7
  6
CONTINUOUS
 66
1
 70
0
  0
VERTEX
  8
0
 62
7
  6
CONTINUOUS
 10
98.499883605
 20
229.4967081123
  0
VERTEX
  8
0
 62
7
  6
CONTINUOUS
 10
98.4361349998
 20
229.6683165028
  0
VERTEX
  8
0
 62
7
  6
CONTINUOUS
 10
98.3861251726
 20
229.8462460726
  0
VERTEX
  8
0
 62
7
  6
CONTINUOUS
 10
98.3502741064
 20
230.0290768744
  0
VERTEX
  8
0
 62
7
  6
CONTINUOUS
 10
98.3289304514
 20
230.2152158527
  0
VERTEX
  8
0
 62
7
  6
CONTINUOUS
 10
98.3223140232
 20
230.402987176
  0
VERTEX
  8
0
 62
7
  6
CONTINUOUS
 10
98.3304982932
 20
230.5907047486
  0
VERTEX
  8
0
 62
7
  6
CONTINUOUS
 10
98.3534101824
 20
230.7766753112
  0
VERTEX
  8
0
 62
7
  6
CONTINUOUS
 10
98.3908321
 20
230.9592313495
  0
VERTEX
  8
0
 62
7
  6
CONTINUOUS
 10
98.4424084669
 20
231.1367483375
  0
SEQEND
  0
POLYLINE
  8
0
 62
7
  6
CONTINUOUS
 66
1
 70
0
  0
VERTEX
  8
0
 62
7
  6
CONTINUOUS
 10
98.499883605
 20
229.4967081123
  0
VERTEX
  8
0
 62
7
  6
CONTINUOUS
 10
98.570943058
 20
229.300931549
  0
VERTEX
  8
0
 62
7
  6
CONTINUOUS
 10
98.6230642084
 20
229.097939442
  0
VERTEX
  8
0
 62
7
  6
CONTINUOUS
 10
98.6557600139
 20
228.8894158047
  0
VERTEX
  8
0
 62
7
  6
CONTINUOUS
 10
98.6685167609
 20
228.678346136
  0
VERTEX
  8
0
 62
7
  6
CONTINUOUS
 10
98.6612437749
 20
228.4671855021
  0
VERTEX
  8
0
 62
7
  6
CONTINUOUS
 10
98.6340594565
 20
228.2581422282
  0
VERTEX
  8
0
 62
7
  6
CONTINUOUS
 10
98.5873793905
 20
228.0538953321
  0
VERTEX
  8
0
 62
7
  6
CONTINUOUS
 10
98.5216352957
 20
227.8561746503
  0
VERTEX
  8
0
 62
7
  6
CONTINUOUS
 10
98.4378477485
 20
227.6678527056
  0
VERTEX
  8
0
 62
7
  6
CONTINUOUS
 10
98.336757809
 20
227.4904007101
  0
VERTEX
  8
0
 62
7
  6
CONTINUOUS
 10
98.2199048731
 20
227.3263281009
  0
VERTEX
  8
0
 62
7
  6
CONTINUOUS
 10
98.0884734188
 20
227.1770339347
  0
VERTEX
  8
0
 62
7
  6
CONTINUOUS
 10
97.9441661822
 20
227.044230817
  0
VERTEX
  8
0
 62
7
  6
CONTINUOUS
 10
97.7888241655
 20
226.9293040223
  0
VERTEX
  8
0
 62
7
  6
CONTINUOUS
 10
97.6236995636
 20
226.8329743911
  0
VERTEX
  8
0
 62
7
  6
CONTINUOUS
 10
97.4514097607
 20
226.7565220659
  0
VERTEX
  8
0
 62
7
  6
CONTINUOUS
 10
97.2728698691
 20
226.7001542202
  0
SEQEND
  0
POLYLINE
  8
0
 62
7
  6
CONTINUOUS
 66
1
 70
0
  0
VERTEX
  8
0
 62
7
  6
CONTINUOUS
 10
99.2269582233
 20
229.4398465339
  0
VERTEX
  8
0
 62
7
  6
CONTINUOUS
 10
99.183829235
 20
229.2662619095
  0
VERTEX
  8
0
 62
7
  6
CONTINUOUS
 10
99.1493875264
 20
229.0732048833
  0
VERTEX
  8
0
 62
7
  6
CONTINUOUS
 10
99.1278919071
 20
228.8765938661
  0
VERTEX
  8
0
 62
7
  6
CONTINUOUS
 10
99.119455539
 20
228.6780826742
  0
VERTEX
  8
0
 62
7
  6
CONTINUOUS
 10
99.1241247079
 20
228.4793299734
  0
VERTEX
  8
0
 62
7
  6
CONTINUOUS
 10
99.1418749022
 20
228.2819917442
  0
VERTEX
  8
0
 62
7
  6
CONTINUOUS
 10
99.172613654
 20
228.0877214862
  0
VERTEX
  8
0
 62
7
  6
CONTINUOUS
 10
99.2161896965
 20
227.8981748054
  0
VERTEX
  8
0
 62
7
  6
CONTINUOUS
 10
99.2724280556
 20
227.7149564081
  0
VERTEX
  8
0
 62
7
  6
CONTINUOUS
 10
99.3411406204
 20
227.5397121559
  0
VERTEX
  8
0
 62
7
  6
CONTINUOUS
 10
99.4222011278
 20
227.3740442624
  0
VERTEX
  8
0
 62
7
  6
CONTINUOUS
 10
99.5152714724
 20
227.2200706815
  0
VERTEX
  8
0
 62
7
  6
CONTINUOUS
 10
99.6187884275
 20
227.0813163862
  0
VERTEX
  8
0
 62
7
  6
CONTINUOUS
 10
99.7306141779
 20
226.9606624296
  0
VERTEX
  8
0
 62
7
  6
CONTINUOUS
 10
99.8486215804
 20
226.8596923559
  0
VERTEX
  8
0
 62
7
  6
CONTINUOUS
 10
99.9704971981
 20
226.7791536437
  0
VERTEX
  8
0
 62
7
  6
CONTINUOUS
 10
100.0809292149
 20
226.7243334298
  0
SEQEND
  0
POLYLINE
  8
0
 62
7
  6
CONTINUOUS
 66
1
 70
0
  0
VERTEX
  8
0
 62
7
  6
CONTINUOUS
 10
98.9369532881
 20
232.6116183435
  0
VERTEX
  8
0
 62
7
  6
CONTINUOUS
 10
99.0110448327
 20
232.3000059425
  0
VERTEX
  8
0
 62
7
  6
CONTINUOUS
 10
99.1422406137
 20
231.7368904378
  0
VERTEX
  8
0
 62
7
  6
CONTINUOUS
 10
99.2676032831
 20
231.1860003179
  0
SEQEND
  0
POLYLINE
  8
0
 62
7
  6
CONTINUOUS
 66
1
 70
0
  0
VERTEX
  8
0
 62
7
  6
CONTINUOUS
 10
99.2676036602
 20
231.1859984475
  0
VERTEX
  8
0
 62
7
  6
CONTINUOUS
 10
99.3017033462
 20
231.0122750568
  0
VERTEX
  8
0
 62
7
  6
CONTINUOUS
 10
99.3292758641
 20
230.8148258138
  0
VERTEX
  8
0
 62
7
  6
CONTINUOUS
 10
99.346303251
 20
230.6114996372
  0
VERTEX
  8
0
 62
7
  6
CONTINUOUS
 10
99.3524464586
 20
230.4051409147
  0
VERTEX
  8
0
 62
7
  6
CONTINUOUS
 10
99.3475894531
 20
230.1986393215
  0
VERTEX
  8
0
 62
7
  6
CONTINUOUS
 10
99.3318269115
 20
229.9948422549
  0
VERTEX
  8
0
 62
7
  6
CONTINUOUS
 10
99.3054562027
 20
229.7965005764
  0
VERTEX
  8
0
 62
7
  6
CONTINUOUS
 10
99.2689900556
 20
229.6062712109
  0
VERTEX
  8
0
 62
7
  6
CONTINUOUS
 10
99.2269579561
 20
229.4398461183
  0
SEQEND
  0
LINE
  8
0
 62
7
  6
CONTINUOUS
 10
103.2384278742
 20
227.089653789
 11
104.5770879696
 21
234.0044443444
  0
LINE
  8
0
 62
7
  6
CONTINUOUS
 10
105.6196653423
 20
234.0994784032
 11
105.6196653423
 21
227.1846861966
  0
ARC
  8
0
 62
7
  6
CONTINUOUS
 10
88.6196653423
 20
134.2753543634
 40
14.5026892153
 50
253.0967022521
 51
256.9032977501
  0
ARC
  8
0
 62
7
  6
CONTINUOUS
 10
88.6196653423
 20
134.2753543634
 40
14.5026892153
 50
283.0967022513
 51
286.9032977501
  0
ARC
  8
0
 62
7
  6
CONTINUOUS
 10
88.6196653423
 20
134.2753543634
 40
14.5026892153
 50
313.0967022513
 51
316.9032977501
  0
ARC
  8
0
 62
7
  6
CONTINUOUS
 10
88.6196653423
 20
134.2753543634
 40
14.5026892153
 50
343.0967022513
 51
346.9032977501
  0
ARC
  8
0
 62
7
  6
CONTINUOUS
 10
88.6196653423
 20
134.2753543634
 40
14.5026892153
 50
13.0967022513
 51
16.9032977501
  0
ARC
  8
0
 62
7
  6
CONTINUOUS
 10
88.6196653423
 20
134.2753543634
 40
14.5026892153
 50
43.0967022513
 51
46.9032977494
  0
ARC
  8
0
 62
7
  6
CONTINUOUS
 10
88.6196653423
 20
134.2753543634
 40
14.5026892153
 50
73.0967022521
 51
76.9032977501
  0
ARC
  8
0
 62
7
  6
CONTINUOUS
 10
88.6196653423
 20
134.2753543634
 40
14.5026892153
 50
103.0967022513
 51
106.9032977501
  0
ARC
  8
0
 62
7
  6
CONTINUOUS
 10
88.6196653423
 20
134.2753543634
 40
14.5026892153
 50
133.0967022513
 51
136.9032977501
  0
ARC
  8
0
 62
7
  6
CONTINUOUS
 10
88.6196653423
 20
134.2753543634
 40
14.5026892153
 50
163.0967022513
 51
166.9032977501
  0
ARC
  8
0
 62
7
  6
CONTINUOUS
 10
88.6196653423
 20
134.2753543634
 40
14.5026892153
 50
193.0967022513
 51
196.9032977501
  0
ARC
  8
0
 62
7
  6
CONTINUOUS
 10
88.6196653423
 20
134.2753543634
 40
14.5026892153
 50
223.0967022513
 51
226.9032977494
  0
ARC
  8
0
 62
7
  6
CONTINUOUS
 10
92.2196653423
 20
230.3930379806
 40
2.0
 50
158.8339182306
 51
205.8419165723
  0
ARC
  8
0
 62
7
  6
CONTINUOUS
 10
88.6196653423
 20
228.6494784032
 40
2.0
 50
282.4384011458
 51
25.8419327632
  0
ARC
  8
0
 62
7
  6
CONTINUOUS
 10
85.0196653423
 20
230.3930379806
 40
2.0
 50
334.1580672368
 51
21.1657784726
  0
ARC
  8
0
 62
7
  6
CONTINUOUS
 10
88.6196653423
 20
228.6494784032
 40
2.0
 50
154.1580672368
 51
257.5614754719
  0
ARC
  8
0
 62
7
  6
CONTINUOUS
 10
88.942750148
 20
227.1846861966
 40
0.5
 50
229.6241790028
 51
282.4384011468
  0
ARC
  8
0
 62
7
  6
CONTINUOUS
 10
88.2965805366
 20
227.1846861966
 40
0.5
 50
257.5615988545
 51
338.834221177
  0
ARC
  8
0
 62
7
  6
CONTINUOUS
 10
90.9739013667
 20
234.0994784032
 40
0.5
 50
338.8342215274
 51
90.0
  0
ARC
  8
0
 62
7
  6
CONTINUOUS
 10
105.1196653423
 20
234.0994784032
 40
0.5
 50
0.0
 51
90.0
  0
ARC
  8
0
 62
7
  6
CONTINUOUS
 10
72.1196653423
 20
234.0994784032
 40
0.5
 50
90.0
 51
180.0
  0
ARC
  8
0
 62
7
  6
CONTINUOUS
 10
86.2654288242
 20
234.0994784032
 40
0.4999997698
 50
89.9999434257
 51
201.1657989037
  0
ARC
  8
0
 62
7
  6
CONTINUOUS
 10
91.4654600986
 20
232.5994784032
 40
0.4999996863
 50
89.999934745
 51
158.8341979659
  0
ARC
  8
0
 62
7
  6
CONTINUOUS
 10
85.7738706842
 20
232.5994784032
 40
0.4999996863
 50
21.1658060988
 51
90.0000765124
  0
ENDSEC
  0
EOF
