  0
SECTION
  2
HEADER
  9
$EXTMAX
 10
210.0
 20
297.0
 30
0.0
  9
$EXTMIN
 10
0.0
 20
0.0
 30
0.0
  9
$LIMMIN
 10
0.0
 20
0.0
  9
$LIMMAX
 10
210.0
 20
297.0
  9
$VIEWCTR
 10
105.0
 20
148.5
  9
$VIEWSIZE
 40
297.0
  9
$CLAYER
  8
0
  9
$LTSCALE
 40
19.36
  9
$CELTYPE
  6
BYLAYER
  9
$DIMSCALE
 40
1.0
  9
$DIMASZ
 40
3.5
  9
$DIMEXO
 40
2.2
  9
$DIMDLI
 40
13.376
  9
$DIMEXE
 40
6.336
  9
$DIMCEN
 40
3.168
  9
$DIMLFAC
 40
1.0
  9
$DIMBLK
  1
_FILLED
  9
$DIMTXT
 40
3.5
  9
$PDMODE
 70
3
  9
$PDSIZE
 40
0.3125
  9
$TILEMODE
 70
1
  0
ENDSEC
  0
SECTION
  2
TABLES
  0
TABLE
  2
LTYPE
 70
6
  0
LTYPE
  2
BYBLOCK
 70
0
  3

 72
65
 73
0
 40
0.0
  0
LTYPE
  2
BYLAYER
 70
0
  3

 72
65
 73
0
 40
0.0
  0
LTYPE
  2
CONTINUOUS
 70
64
  3
Solid line
 72
65
 73
0
 40
0.0
  0
LTYPE
  2
CENTER
 70
64
  3
____ _ ____ _ ____ _ ____ _ ____ _ ____ _ ____
 72
65
 73
4
 40
0.6
 49
0.375
 49
-0.075
 49
0.075
 49
-0.075
  0
LTYPE
  2
HIDDEN
 70
64
  3
- - - - - - - - - - - - - - - - - - - -
 72
65
 73
2
 40
0.2
 49
0.1
 49
-0.1
  0
LTYPE
  2
PHANTOM
 70
64
  3
_____ _ _ _____ _ _ _____ _ _ _____
 72
65
 73
6
 40
0.8
 49
0.45
 49
-0.05
 49
0.1
 49
-0.05
 49
0.1
 49
-0.05
  0
LTYPE
  2
DOT
 70
64
  3
. . . . . . . . . . . . . . . . . . . .
 72
65
 73
2
 40
0.2
 49
0.1
 49
-0.1
  0
LTYPE
  2
DASHED
 70
64
  3
- - - - - - - - - - - - - - - - - - - -
 72
65
 73
2
 40
0.2
 49
0.1
 49
-0.1
  0
ENDTAB
  0
TABLE
  2
LAYER
 70
36
  0
LAYER
  2
0
 70
0
 62
7
  6
CONTINUOUS
  0
LAYER
  2
DEFAULT_1
 70
0
 62
7
  6
CENTER
  0
LAYER
  2
DEFAULT_2
 70
0
 62
8
  6
HIDDEN
  0
LAYER
  2
DEFAULT_3
 70
0
 62
7
  6
PHANTOM
  0
LAYER
  2
1_AXIS
 70
0
 62
7
  6
CONTINUOUS
  0
LAYER
  2
1_CSYS
 70
0
 62
7
  6
CONTINUOUS
  0
LAYER
  2
1_DATUM_PLANE
 70
0
 62
7
  6
CONTINUOUS
  0
LAYER
  2
2_FEATURE
 70
0
 62
7
  6
CONTINUOUS
  0
LAYER
  2
6_DIM
 70
0
 62
7
  6
CONTINUOUS
  0
LAYER
  2
AXES
 70
0
 62
7
  6
CONTINUOUS
  0
LAYER
  2
CSYS
 70
0
 62
7
  6
CONTINUOUS
  0
LAYER
  2
PLANES
 70
0
 62
7
  6
CONTINUOUS
  0
LAYER
  2
QUILTS
 70
0
 62
7
  6
CONTINUOUS
  0
LAYER
  2
SQ
 70
0
 62
7
  6
CONTINUOUS
  0
ENDTAB
  0
TABLE
  2
STYLE
 70
1
  0
STYLE
  2
STANDARD
 70
0
 40
0.0
 41
0.8
 50
0.0
 71
0
 42
0.2
  3
txt
  4

  0
STYLE
  2
TEXTSTYLE_1
 70
0
 40
0.0
 41
0.8
 50
0.0
 71
0
 42
0.2
  3
gdt
  4

  0
STYLE
  2
TEXTSTYLE_2
 70
0
 40
0.0
 41
0.6
 50
0.0
 71
0
 42
0.2
  3
txt
  4

  0
STYLE
  2
TEXTSTYLE_3
 70
0
 40
0.0
 41
1.0
 50
0.0
 71
0
 42
0.2
  3
ftb_____.ttf
  4

  0
STYLE
  2
TEXTSTYLE_4
 70
0
 40
0.0
 41
1.0
 50
0.0
 71
0
 42
0.2
  3
fti_____.ttf
  4

  0
STYLE
  2
TEXTSTYLE_5
 70
0
 40
0.0
 41
1.0
 50
0.0
 71
0
 42
0.2
  3
frutiger light.ttf
  4

  0
STYLE
  2
TEXTSTYLE_6
 70
0
 40
0.0
 41
0.7
 50
0.0
 71
0
 42
0.2
  3
txt
  4

  0
STYLE
  2
TEXTSTYLE_7
 70
0
 40
0.0
 41
0.8
 50
0.0
 71
0
 42
0.2
  3
txt
  4

  0
ENDTAB
  0
ENDSEC
  0
SECTION
  2
BLOCKS
  0
BLOCK
  8
0
 62
2
  6
CONTINUOUS
  2
SYMBOL_8_BL1
 70
64
 10
173.5956734183
 20
35.5937998301
  0
TEXT
  8
0
 62
7
  6
CONTINUOUS
 10
164.6539584268
 20
30.6865562072
  7
TEXTSTYLE_4
 40
1.0655737705
  1
The brand for plastic modular belts and chains
 41
1.0
 72
0
  0
LINE
  8
0
 62
7
  6
CONTINUOUS
 10
149.5737418074
 20
36.1675703219
 11
149.5737418074
 21
34.0364227809
  0
LINE
  8
0
 62
7
  6
CONTINUOUS
 10
149.8628043005
 20
31.0454914852
 11
149.8628043005
 21
31.1422825445
  0
LINE
  8
0
 62
7
  6
CONTINUOUS
 10
149.5737418074
 20
31.1100188581
 11
149.6315543091
 21
30.9164367395
  0
LINE
  8
0
 62
7
  6
CONTINUOUS
 10
150.9671844304
 20
33.9544555678
 11
150.9671844304
 21
36.1675703219
  0
LINE
  8
0
 62
7
  6
CONTINUOUS
 10
151.8862417523
 20
32.1101932727
 11
151.8862417523
 21
30.5937998301
  0
LINE
  8
0
 62
7
  6
CONTINUOUS
 10
152.1753043074
 20
30.5937998301
 11
152.1753043074
 21
31.3358647082
  0
LINE
  8
0
 62
7
  6
CONTINUOUS
 10
152.1753043074
 20
31.4649194539
 11
152.1753043074
 21
32.1101932727
  0
LINE
  8
0
 62
7
  6
CONTINUOUS
 10
149.6315543091
 20
31.3036010218
 11
149.5737418074
 21
31.1100188581
  0
LINE
  8
0
 62
7
  6
CONTINUOUS
 10
149.9784292936
 20
30.8841730531
 11
149.8628043005
 21
31.0454914852
  0
LINE
  8
0
 62
7
  6
CONTINUOUS
 10
151.0768668626
 20
31.400392081
 11
151.1346793074
 21
31.3036010218
  0
LINE
  8
0
 62
7
  6
CONTINUOUS
 10
151.4237418626
 20
31.3036010218
 11
151.3659292523
 21
31.4326557675
  0
LINE
  8
0
 62
7
  6
CONTINUOUS
 10
152.852430332
 20
36.1675703219
 11
152.852430332
 21
34.3642916334
  0
LINE
  8
0
 62
7
  6
CONTINUOUS
 10
152.852430332
 20
33.0528162235
 11
152.852430332
 21
32.3970785186
  0
LINE
  8
0
 62
7
  6
CONTINUOUS
 10
153.2159293074
 20
31.2390736489
 11
153.2159293074
 21
30.5937998301
  0
LINE
  8
0
 62
7
  6
CONTINUOUS
 10
153.5049916972
 20
30.5937998301
 11
153.5049916972
 21
31.2390736489
  0
LINE
  8
0
 62
7
  6
CONTINUOUS
 10
149.8628043005
 20
31.1422825445
 11
149.9206168074
 21
31.2713373354
  0
LINE
  8
0
 62
7
  6
CONTINUOUS
 10
149.6315543091
 20
30.9164367395
 11
149.7471793074
 21
30.7873819712
  0
LINE
  8
0
 62
7
  6
CONTINUOUS
 10
153.1581166972
 20
31.3681283946
 11
153.2159293074
 21
31.2390736489
  0
LINE
  8
0
 62
7
  6
CONTINUOUS
 10
153.9674919177
 20
30.8841730531
 11
154.0253041972
 21
30.7551182848
  0
LINE
  8
0
 62
7
  6
CONTINUOUS
 10
153.5049916972
 20
31.2390736489
 11
153.4471794177
 21
31.400392081
  0
LINE
  8
0
 62
7
  6
CONTINUOUS
 10
153.9674919177
 20
31.4326557675
 11
153.9674919177
 21
31.3681283946
  0
LINE
  8
0
 62
7
  6
CONTINUOUS
 10
153.9674919177
 20
30.9809641124
 11
153.9674919177
 21
30.8841730531
  0
LINE
  8
0
 62
7
  6
CONTINUOUS
 10
154.245872955
 20
32.3970785186
 11
154.245872955
 21
36.1675703219
  0
LINE
  8
0
 62
7
  6
CONTINUOUS
 10
154.2565543074
 20
30.8519093441
 11
154.2565543074
 21
30.9164367395
  0
LINE
  8
0
 62
7
  6
CONTINUOUS
 10
154.5737418074
 20
36.1675703219
 11
154.5737418074
 21
32.3970785186
  0
LINE
  8
0
 62
7
  6
CONTINUOUS
 10
151.3659292523
 20
30.7873819712
 11
151.4237418626
 21
30.9164367395
  0
LINE
  8
0
 62
7
  6
CONTINUOUS
 10
155.759679528
 20
30.6905909007
 11
155.7018665869
 21
30.8519093441
  0
LINE
  8
0
 62
7
  6
CONTINUOUS
 10
155.412804528
 20
31.3681283946
 11
155.412804528
 21
31.2713373354
  0
LINE
  8
0
 62
7
  6
CONTINUOUS
 10
155.412804528
 20
31.1422825445
 11
155.412804528
 21
30.9487004259
  0
LINE
  8
0
 62
7
  6
CONTINUOUS
 10
155.7018665869
 20
30.8519093441
 11
155.7018665869
 21
31.3681283946
  0
LINE
  8
0
 62
7
  6
CONTINUOUS
 10
155.9671844304
 20
32.3970785186
 11
155.9671844304
 21
34.2003572071
  0
LINE
  8
0
 62
7
  6
CONTINUOUS
 10
155.9671844304
 20
35.511832617
 11
155.9671844304
 21
36.1675703219
  0
LINE
  8
0
 62
7
  6
CONTINUOUS
 10
156.279992028
 20
32.1101932727
 11
156.279992028
 21
31.9488748406
  0
LINE
  8
0
 62
7
  6
CONTINUOUS
 10
156.279992028
 20
31.626237886
 11
156.279992028
 21
30.5937998301
  0
LINE
  8
0
 62
7
  6
CONTINUOUS
 10
156.5690540869
 20
30.5937998301
 11
156.5690540869
 21
31.626237886
  0
LINE
  8
0
 62
7
  6
CONTINUOUS
 10
156.5690540869
 20
31.9488748406
 11
156.5690540869
 21
32.1101932727
  0
LINE
  8
0
 62
7
  6
CONTINUOUS
 10
151.1346793074
 20
30.9164367395
 11
151.0768668626
 21
30.8196456577
  0
LINE
  8
0
 62
7
  6
CONTINUOUS
 10
153.4471794177
 20
31.400392081
 11
153.3893668074
 21
31.4649194539
  0
LINE
  8
0
 62
7
  6
CONTINUOUS
 10
154.3143669177
 20
30.7873819712
 11
154.2565543074
 21
30.8519093441
  0
LINE
  8
0
 62
7
  6
CONTINUOUS
 10
155.4706168074
 20
30.6583272086
 11
155.5284290869
 21
30.5937998301
  0
LINE
  8
0
 62
7
  6
CONTINUOUS
 10
155.412804528
 20
30.7551182848
 11
155.4706168074
 21
30.6583272086
  0
LINE
  8
0
 62
7
  6
CONTINUOUS
 10
155.8174918074
 20
30.5937998301
 11
155.759679528
 21
30.6905909007
  0
LINE
  8
0
 62
7
  6
CONTINUOUS
 10
155.7018665869
 20
31.3681283946
 11
155.6440543074
 21
31.4649194539
  0
LINE
  8
0
 62
7
  6
CONTINUOUS
 10
157.0315543074
 20
31.626237886
 11
157.0315543074
 21
30.5937998301
  0
LINE
  8
0
 62
7
  6
CONTINUOUS
 10
157.320617028
 20
30.5937998301
 11
157.320617028
 21
31.3358647082
  0
LINE
  8
0
 62
7
  6
CONTINUOUS
 10
157.320617028
 20
31.4649194539
 11
157.320617028
 21
31.626237886
  0
LINE
  8
0
 62
7
  6
CONTINUOUS
 10
157.852430332
 20
34.6101932727
 11
157.852430332
 21
32.3970785186
  0
LINE
  8
0
 62
7
  6
CONTINUOUS
 10
149.7471793074
 20
31.4326557675
 11
149.6315543091
 21
31.3036010218
  0
LINE
  8
0
 62
7
  6
CONTINUOUS
 10
149.9206168074
 20
31.2713373354
 11
149.9784292936
 21
31.3358647082
  0
LINE
  8
0
 62
7
  6
CONTINUOUS
 10
149.7471793074
 20
30.7873819712
 11
149.8628043005
 21
30.7228545871
  0
LINE
  8
0
 62
7
  6
CONTINUOUS
 10
150.1518667936
 20
30.7873819712
 11
149.9784292936
 21
30.8841730531
  0
LINE
  8
0
 62
7
  6
CONTINUOUS
 10
155.3549915869
 20
31.4326557675
 11
155.412804528
 21
31.3681283946
  0
LINE
  8
0
 62
7
  6
CONTINUOUS
 10
158.3034290869
 20
31.3681283946
 11
158.361242028
 21
31.2068099625
  0
LINE
  8
0
 62
7
  6
CONTINUOUS
 10
158.6503040869
 20
31.2068099625
 11
158.5924918074
 21
31.3681283946
  0
LINE
  8
0
 62
7
  6
CONTINUOUS
 10
158.361242028
 20
31.2068099625
 11
158.361242028
 21
30.5937998301
  0
LINE
  8
0
 62
7
  6
CONTINUOUS
 10
158.6503040869
 20
30.5937998301
 11
158.6503040869
 21
31.2068099625
  0
LINE
  8
0
 62
7
  6
CONTINUOUS
 10
159.1128043074
 20
31.4326557675
 11
159.1128043074
 21
31.3681283946
  0
LINE
  8
0
 62
7
  6
CONTINUOUS
 10
159.245872955
 20
32.3970785186
 11
159.245872955
 21
34.5282260596
  0
LINE
  8
0
 62
7
  6
CONTINUOUS
 10
159.5737418074
 20
36.1675703219
 11
159.5737418074
 21
32.3970785186
  0
LINE
  8
0
 62
7
  6
CONTINUOUS
 10
154.2565543074
 20
30.9164367395
 11
154.3143669177
 21
31.0132277988
  0
LINE
  8
0
 62
7
  6
CONTINUOUS
 10
149.8628043005
 20
30.7228545871
 11
150.0362418212
 21
30.6583272086
  0
LINE
  8
0
 62
7
  6
CONTINUOUS
 10
151.3659292523
 20
31.4326557675
 11
151.1924917523
 21
31.5294468267
  0
LINE
  8
0
 62
7
  6
CONTINUOUS
 10
154.0253041972
 20
30.7551182848
 11
154.1987416972
 21
30.6583272086
  0
LINE
  8
0
 62
7
  6
CONTINUOUS
 10
153.0424918074
 20
31.4326557675
 11
153.1581166972
 21
31.3681283946
  0
LINE
  8
0
 62
7
  6
CONTINUOUS
 10
153.3893668074
 20
31.4649194539
 11
153.2737419177
 21
31.5294468267
  0
LINE
  8
0
 62
7
  6
CONTINUOUS
 10
159.1128043074
 20
30.8519093441
 11
159.228429528
 21
30.7228545871
  0
LINE
  8
0
 62
7
  6
CONTINUOUS
 10
159.4596793074
 20
30.7873819712
 11
159.401867028
 21
30.8519093441
  0
LINE
  8
0
 62
7
  6
CONTINUOUS
 10
159.1128043074
 20
31.3681283946
 11
159.228429528
 21
31.2390736489
  0
LINE
  8
0
 62
7
  6
CONTINUOUS
 10
158.5924918074
 20
31.3681283946
 11
158.534679528
 21
31.4649194539
  0
LINE
  8
0
 62
7
  6
CONTINUOUS
 10
160.9628038663
 20
30.7873819712
 11
160.9628038663
 21
30.8519093441
  0
LINE
  8
0
 62
7
  6
CONTINUOUS
 10
160.9671844304
 20
32.3970785186
 11
160.9671844304
 21
36.1675703219
  0
LINE
  8
0
 62
7
  6
CONTINUOUS
 10
154.0253041972
 20
31.4971831403
 11
153.9674919177
 21
31.4326557675
  0
LINE
  8
0
 62
7
  6
CONTINUOUS
 10
150.9034292799
 20
31.4649194539
 11
151.0768668626
 21
31.400392081
  0
LINE
  8
0
 62
7
  6
CONTINUOUS
 10
155.6440543074
 20
31.4649194539
 11
155.5284290869
 21
31.5294468267
  0
LINE
  8
0
 62
7
  6
CONTINUOUS
 10
159.4596793074
 20
31.3036010218
 11
159.401867028
 21
31.3681283946
  0
LINE
  8
0
 62
7
  6
CONTINUOUS
 10
160.615929528
 20
30.9164367395
 11
160.6737418074
 21
30.8519093441
  0
LINE
  8
0
 62
7
  6
CONTINUOUS
 10
160.9628038663
 20
30.8519093441
 11
160.8471793074
 21
30.9809641124
  0
LINE
  8
0
 62
7
  6
CONTINUOUS
 10
160.615929528
 20
31.4326557675
 11
160.6737418074
 21
31.3681283946
  0
LINE
  8
0
 62
7
  6
CONTINUOUS
 10
160.9628038663
 20
31.3681283946
 11
160.8471793074
 21
31.4971831403
  0
LINE
  8
0
 62
7
  6
CONTINUOUS
 10
154.2565543074
 20
31.3681283946
 11
154.3143669177
 21
31.4326557675
  0
LINE
  8
0
 62
7
  6
CONTINUOUS
 10
154.0831168074
 20
31.1100188581
 11
153.9674919177
 21
30.9809641124
  0
LINE
  8
0
 62
7
  6
CONTINUOUS
 10
155.412804528
 20
30.9487004259
 11
155.3549915869
 21
30.8841730531
  0
LINE
  8
0
 62
7
  6
CONTINUOUS
 10
155.3549915869
 20
30.6905909007
 11
155.412804528
 21
30.7551182848
  0
LINE
  8
0
 62
7
  6
CONTINUOUS
 10
154.1987416972
 20
30.6583272086
 11
154.3143669177
 21
30.6260635193
  0
LINE
  8
0
 62
7
  6
CONTINUOUS
 10
151.1924917523
 20
31.5294468267
 11
150.9612418074
 21
31.5939741996
  0
LINE
  8
0
 62
7
  6
CONTINUOUS
 10
154.5456166972
 20
30.7228545871
 11
154.3143669177
 21
30.7873819712
  0
LINE
  8
0
 62
7
  6
CONTINUOUS
 10
153.2737419177
 20
31.5294468267
 11
153.1003044177
 21
31.5939741996
  0
LINE
  8
0
 62
7
  6
CONTINUOUS
 10
155.5284290869
 20
31.5294468267
 11
155.3549915869
 21
31.5939741996
  0
LINE
  8
0
 62
7
  6
CONTINUOUS
 10
158.187804528
 20
31.4326557675
 11
158.3034290869
 21
31.3681283946
  0
LINE
  8
0
 62
7
  6
CONTINUOUS
 10
158.534679528
 20
31.4649194539
 11
158.4190543074
 21
31.5294468267
  0
LINE
  8
0
 62
7
  6
CONTINUOUS
 10
150.0362418212
 20
30.6583272086
 11
150.2096793212
 21
30.6260635193
  0
LINE
  8
0
 62
7
  6
CONTINUOUS
 10
150.498741835
 20
30.7228545871
 11
150.1518667936
 21
30.7873819712
  0
LINE
  8
0
 62
7
  6
CONTINUOUS
 10
152.9268669177
 20
31.4649194539
 11
153.0424918074
 21
31.4326557675
  0
LINE
  8
0
 62
7
  6
CONTINUOUS
 10
155.239367028
 20
31.4649194539
 11
155.3549915869
 21
31.4326557675
  0
LINE
  8
0
 62
7
  6
CONTINUOUS
 10
159.575304528
 20
30.7551182848
 11
159.4596793074
 21
30.7873819712
  0
LINE
  8
0
 62
7
  6
CONTINUOUS
 10
158.0721793074
 20
31.4649194539
 11
158.187804528
 21
31.4326557675
  0
LINE
  8
0
 62
7
  6
CONTINUOUS
 10
159.228429528
 20
30.7228545871
 11
159.401867028
 21
30.6583272086
  0
LINE
  8
0
 62
7
  6
CONTINUOUS
 10
158.4190543074
 20
31.5294468267
 11
158.2456168074
 21
31.5939741996
  0
LINE
  8
0
 62
7
  6
CONTINUOUS
 10
159.6331168074
 20
31.2390736489
 11
159.4596793074
 21
31.3036010218
  0
LINE
  8
0
 62
7
  6
CONTINUOUS
 10
160.442492028
 20
30.9809641124
 11
160.615929528
 21
30.9164367395
  0
LINE
  8
0
 62
7
  6
CONTINUOUS
 10
160.8471793074
 20
31.4971831403
 11
160.6737418074
 21
31.5617105132
  0
LINE
  8
0
 62
7
  6
CONTINUOUS
 10
159.228429528
 20
31.2390736489
 11
159.4596793074
 21
31.1422825445
  0
LINE
  8
0
 62
7
  6
CONTINUOUS
 10
160.8471793074
 20
30.9809641124
 11
160.615929528
 21
31.0777551716
  0
LINE
  8
0
 62
7
  6
CONTINUOUS
 10
159.401867028
 20
31.3681283946
 11
159.4596793074
 21
31.4326557675
  0
LINE
  8
0
 62
7
  6
CONTINUOUS
 10
149.8628043005
 20
31.4971831403
 11
149.7471793074
 21
31.4326557675
  0
LINE
  8
0
 62
7
  6
CONTINUOUS
 10
149.9784292936
 20
31.3358647082
 11
150.1518667936
 21
31.4326557675
  0
LINE
  8
0
 62
7
  6
CONTINUOUS
 10
152.2909293626
 20
31.5294468267
 11
152.1753043074
 21
31.4649194539
  0
LINE
  8
0
 62
7
  6
CONTINUOUS
 10
152.1753043074
 20
31.3358647082
 11
152.2909293626
 21
31.400392081
  0
LINE
  8
0
 62
7
  6
CONTINUOUS
 10
151.1924917523
 20
30.6905909007
 11
151.3659292523
 21
30.7873819712
  0
LINE
  8
0
 62
7
  6
CONTINUOUS
 10
150.2096793212
 20
30.6260635193
 11
150.5565542799
 21
30.5937998301
  0
LINE
  8
0
 62
7
  6
CONTINUOUS
 10
154.3143669177
 20
30.6260635193
 11
154.5456166972
 21
30.5937998301
  0
LINE
  8
0
 62
7
  6
CONTINUOUS
 10
152.6956168074
 20
31.4971831403
 11
152.9268669177
 21
31.4649194539
  0
LINE
  8
0
 62
7
  6
CONTINUOUS
 10
155.0081169177
 20
31.4971831403
 11
155.239367028
 21
31.4649194539
  0
LINE
  8
0
 62
7
  6
CONTINUOUS
 10
159.4596793074
 20
31.1422825445
 11
160.442492028
 21
30.9809641124
  0
LINE
  8
0
 62
7
  6
CONTINUOUS
 10
160.615929528
 20
31.0777551716
 11
159.6331168074
 21
31.2390736489
  0
LINE
  8
0
 62
7
  6
CONTINUOUS
 10
153.1003044177
 20
31.5939741996
 11
152.9268669177
 21
31.626237886
  0
LINE
  8
0
 62
7
  6
CONTINUOUS
 10
159.401867028
 20
30.6583272086
 11
159.575304528
 21
30.6260635193
  0
LINE
  8
0
 62
7
  6
CONTINUOUS
 10
158.2456168074
 20
31.5939741996
 11
158.0721793074
 21
31.626237886
  0
LINE
  8
0
 62
7
  6
CONTINUOUS
 10
160.5003043074
 20
31.4649194539
 11
160.615929528
 21
31.4326557675
  0
LINE
  8
0
 62
7
  6
CONTINUOUS
 10
160.6737418074
 20
30.8519093441
 11
160.615929528
 21
30.7873819712
  0
LINE
  8
0
 62
7
  6
CONTINUOUS
 10
159.228429528
 20
31.5294468267
 11
159.1128043074
 21
31.4326557675
  0
LINE
  8
0
 62
7
  6
CONTINUOUS
 10
154.1409294177
 20
31.5617105132
 11
154.0253041972
 21
31.4971831403
  0
LINE
  8
0
 62
7
  6
CONTINUOUS
 10
154.1987416972
 20
31.1745462761
 11
154.0831168074
 21
31.1100188581
  0
LINE
  8
0
 62
7
  6
CONTINUOUS
 10
154.3143669177
 20
31.0132277988
 11
154.4299918074
 21
31.0777551716
  0
LINE
  8
0
 62
7
  6
CONTINUOUS
 10
151.8862417523
 20
30.5937998301
 11
152.1753043074
 21
30.5937998301
  0
LINE
  8
0
 62
7
  6
CONTINUOUS
 10
153.2159293074
 20
30.5937998301
 11
153.5049916972
 21
30.5937998301
  0
LINE
  8
0
 62
7
  6
CONTINUOUS
 10
154.5456166972
 20
30.5937998301
 11
154.8924916972
 21
30.5937998301
  0
LINE
  8
0
 62
7
  6
CONTINUOUS
 10
155.5284290869
 20
30.5937998301
 11
155.8174918074
 21
30.5937998301
  0
LINE
  8
0
 62
7
  6
CONTINUOUS
 10
156.279992028
 20
30.5937998301
 11
156.5690540869
 21
30.5937998301
  0
LINE
  8
0
 62
7
  6
CONTINUOUS
 10
157.0315543074
 20
30.5937998301
 11
157.320617028
 21
30.5937998301
  0
LINE
  8
0
 62
7
  6
CONTINUOUS
 10
158.361242028
 20
30.5937998301
 11
158.6503040869
 21
30.5937998301
  0
LINE
  8
0
 62
7
  6
CONTINUOUS
 10
159.922179528
 20
30.5937998301
 11
160.269054528
 21
30.5937998301
  0
LINE
  8
0
 62
7
  6
CONTINUOUS
 10
160.269054528
 20
30.7228545871
 11
159.922179528
 21
30.7228545871
  0
LINE
  8
0
 62
7
  6
CONTINUOUS
 10
154.8924916972
 20
30.7228545871
 11
154.5456166972
 21
30.7228545871
  0
LINE
  8
0
 62
7
  6
CONTINUOUS
 10
159.401867028
 20
30.8519093441
 11
159.1128043074
 21
30.8519093441
  0
LINE
  8
0
 62
7
  6
CONTINUOUS
 10
151.4237418626
 20
30.9164367395
 11
151.1346793074
 21
30.9164367395
  0
LINE
  8
0
 62
7
  6
CONTINUOUS
 10
150.498741835
 20
31.4971831403
 11
150.9034292799
 21
31.4649194539
  0
LINE
  8
0
 62
7
  6
CONTINUOUS
 10
150.9612418074
 20
31.5939741996
 11
150.5565542799
 21
31.626237886
  0
LINE
  8
0
 62
7
  6
CONTINUOUS
 10
159.575304528
 20
30.6260635193
 11
159.922179528
 21
30.5937998301
  0
LINE
  8
0
 62
7
  6
CONTINUOUS
 10
159.922179528
 20
30.7228545871
 11
159.575304528
 21
30.7551182848
  0
LINE
  8
0
 62
7
  6
CONTINUOUS
 10
155.3549915869
 20
31.5939741996
 11
155.0081169177
 21
31.626237886
  0
LINE
  8
0
 62
7
  6
CONTINUOUS
 10
160.1534293074
 20
31.4971831403
 11
160.5003043074
 21
31.4649194539
  0
LINE
  8
0
 62
7
  6
CONTINUOUS
 10
160.5003043074
 20
31.5939741996
 11
160.1534293074
 21
31.626237886
  0
LINE
  8
0
 62
7
  6
CONTINUOUS
 10
157.840929528
 20
31.4971831403
 11
158.0721793074
 21
31.4649194539
  0
LINE
  8
0
 62
7
  6
CONTINUOUS
 10
160.6737418074
 20
31.5617105132
 11
160.5003043074
 21
31.5939741996
  0
LINE
  8
0
 62
7
  6
CONTINUOUS
 10
160.8471793074
 20
30.6905909007
 11
160.9628038663
 21
30.7873819712
  0
LINE
  8
0
 62
7
  6
CONTINUOUS
 10
155.3549915869
 20
30.8841730531
 11
155.1815540869
 21
30.7873819712
  0
LINE
  8
0
 62
7
  6
CONTINUOUS
 10
157.4362415869
 20
31.5294468267
 11
157.320617028
 21
31.4649194539
  0
LINE
  8
0
 62
7
  6
CONTINUOUS
 10
157.320617028
 20
31.3358647082
 11
157.4362415869
 21
31.400392081
  0
LINE
  8
0
 62
7
  6
CONTINUOUS
 10
150.0362418212
 20
31.5617105132
 11
149.8628043005
 21
31.4971831403
  0
LINE
  8
0
 62
7
  6
CONTINUOUS
 10
152.4643666972
 20
31.5939741996
 11
152.2909293626
 21
31.5294468267
  0
LINE
  8
0
 62
7
  6
CONTINUOUS
 10
152.2909293626
 20
31.400392081
 11
152.4643666972
 21
31.4649194539
  0
LINE
  8
0
 62
7
  6
CONTINUOUS
 10
151.0768668626
 20
30.8196456577
 11
150.9034292799
 21
30.7551182848
  0
LINE
  8
0
 62
7
  6
CONTINUOUS
 10
160.5003043074
 20
30.7551182848
 11
160.269054528
 21
30.7228545871
  0
LINE
  8
0
 62
7
  6
CONTINUOUS
 10
154.8924916972
 20
30.5937998301
 11
155.1815540869
 21
30.6260635193
  0
LINE
  8
0
 62
7
  6
CONTINUOUS
 10
160.269054528
 20
30.5937998301
 11
160.615929528
 21
30.6260635193
  0
LINE
  8
0
 62
7
  6
CONTINUOUS
 10
150.5565542799
 20
30.5937998301
 11
150.9612418074
 21
30.6260635193
  0
LINE
  8
0
 62
7
  6
CONTINUOUS
 10
150.9034292799
 20
30.7551182848
 11
150.498741835
 21
30.7228545871
  0
LINE
  8
0
 62
7
  6
CONTINUOUS
 10
154.7768668074
 20
31.1422825445
 11
155.412804528
 21
31.1422825445
  0
LINE
  8
0
 62
7
  6
CONTINUOUS
 10
155.412804528
 20
31.2713373354
 11
154.7768668074
 21
31.2713373354
  0
LINE
  8
0
 62
7
  6
CONTINUOUS
 10
151.1346793074
 20
31.3036010218
 11
151.4237418626
 21
31.3036010218
  0
LINE
  8
0
 62
7
  6
CONTINUOUS
 10
153.9674919177
 20
31.3681283946
 11
154.2565543074
 21
31.3681283946
  0
LINE
  8
0
 62
7
  6
CONTINUOUS
 10
160.6737418074
 20
31.3681283946
 11
160.9628038663
 21
31.3681283946
  0
LINE
  8
0
 62
7
  6
CONTINUOUS
 10
154.6612419177
 20
31.4971831403
 11
155.0081169177
 21
31.4971831403
  0
LINE
  8
0
 62
7
  6
CONTINUOUS
 10
159.8065543074
 20
31.4971831403
 11
160.1534293074
 21
31.4971831403
  0
LINE
  8
0
 62
7
  6
CONTINUOUS
 10
160.1534293074
 20
31.626237886
 11
159.8065543074
 21
31.626237886
  0
LINE
  8
0
 62
7
  6
CONTINUOUS
 10
158.0721793074
 20
31.626237886
 11
157.840929528
 21
31.626237886
  0
LINE
  8
0
 62
7
  6
CONTINUOUS
 10
157.320617028
 20
31.626237886
 11
157.0315543074
 21
31.626237886
  0
LINE
  8
0
 62
7
  6
CONTINUOUS
 10
156.5690540869
 20
31.626237886
 11
156.279992028
 21
31.626237886
  0
LINE
  8
0
 62
7
  6
CONTINUOUS
 10
155.0081169177
 20
31.626237886
 11
154.6612419177
 21
31.626237886
  0
LINE
  8
0
 62
7
  6
CONTINUOUS
 10
152.9268669177
 20
31.626237886
 11
152.6956168074
 21
31.626237886
  0
LINE
  8
0
 62
7
  6
CONTINUOUS
 10
156.279992028
 20
31.9488748406
 11
156.5690540869
 21
31.9488748406
  0
LINE
  8
0
 62
7
  6
CONTINUOUS
 10
156.5690540869
 20
32.1101932727
 11
156.279992028
 21
32.1101932727
  0
LINE
  8
0
 62
7
  6
CONTINUOUS
 10
152.1753043074
 20
32.1101932727
 11
151.8862417523
 21
32.1101932727
  0
LINE
  8
0
 62
7
  6
CONTINUOUS
 10
151.2130860697
 20
32.3970785186
 11
151.6256574183
 21
32.3970785186
  0
LINE
  8
0
 62
7
  6
CONTINUOUS
 10
152.852430332
 20
32.3970785186
 11
154.245872955
 21
32.3970785186
  0
LINE
  8
0
 62
7
  6
CONTINUOUS
 10
154.5737418074
 20
32.3970785186
 11
155.9671844304
 21
32.3970785186
  0
LINE
  8
0
 62
7
  6
CONTINUOUS
 10
157.852430332
 20
32.3970785186
 11
159.245872955
 21
32.3970785186
  0
LINE
  8
0
 62
7
  6
CONTINUOUS
 10
159.5737418074
 20
32.3970785186
 11
160.9671844304
 21
32.3970785186
  0
LINE
  8
0
 62
7
  6
CONTINUOUS
 10
157.6096790869
 20
31.5939741996
 11
157.4362415869
 21
31.5294468267
  0
LINE
  8
0
 62
7
  6
CONTINUOUS
 10
155.1815540869
 20
30.6260635193
 11
155.3549915869
 21
30.6905909007
  0
LINE
  8
0
 62
7
  6
CONTINUOUS
 10
160.615929528
 20
30.6260635193
 11
160.8471793074
 21
30.6905909007
  0
LINE
  8
0
 62
7
  6
CONTINUOUS
 10
160.615929528
 20
30.7873819712
 11
160.5003043074
 21
30.7551182848
  0
LINE
  8
0
 62
7
  6
CONTINUOUS
 10
159.575304528
 20
31.4649194539
 11
159.8065543074
 21
31.4971831403
  0
LINE
  8
0
 62
7
  6
CONTINUOUS
 10
157.6096790869
 20
31.4649194539
 11
157.840929528
 21
31.4971831403
  0
LINE
  8
0
 62
7
  6
CONTINUOUS
 10
154.5456166972
 20
31.1100188581
 11
154.7768668074
 21
31.1422825445
  0
LINE
  8
0
 62
7
  6
CONTINUOUS
 10
157.840929528
 20
31.626237886
 11
157.6096790869
 21
31.5939741996
  0
LINE
  8
0
 62
7
  6
CONTINUOUS
 10
154.4299918074
 20
31.4649194539
 11
154.6612419177
 21
31.4971831403
  0
LINE
  8
0
 62
7
  6
CONTINUOUS
 10
159.8065543074
 20
31.626237886
 11
159.4596793074
 21
31.5939741996
  0
LINE
  8
0
 62
7
  6
CONTINUOUS
 10
154.7768668074
 20
31.2713373354
 11
154.4299918074
 21
31.2390736489
  0
LINE
  8
0
 62
7
  6
CONTINUOUS
 10
150.5565542799
 20
31.626237886
 11
150.2096793212
 21
31.5939741996
  0
LINE
  8
0
 62
7
  6
CONTINUOUS
 10
154.6612419177
 20
31.626237886
 11
154.2565543074
 21
31.5939741996
  0
LINE
  8
0
 62
7
  6
CONTINUOUS
 10
152.0327582009
 20
33.5446195022
 11
151.3770204959
 21
33.5446195022
  0
LINE
  8
0
 62
7
  6
CONTINUOUS
 10
157.4362415869
 20
31.400392081
 11
157.6096790869
 21
31.4649194539
  0
LINE
  8
0
 62
7
  6
CONTINUOUS
 10
159.4596793074
 20
31.4326557675
 11
159.575304528
 21
31.4649194539
  0
LINE
  8
0
 62
7
  6
CONTINUOUS
 10
159.4596793074
 20
31.5939741996
 11
159.228429528
 21
31.5294468267
  0
LINE
  8
0
 62
7
  6
CONTINUOUS
 10
155.1815540869
 20
30.7873819712
 11
154.8924916972
 21
30.7228545871
  0
LINE
  8
0
 62
7
  6
CONTINUOUS
 10
152.4643666972
 20
31.4649194539
 11
152.6956168074
 21
31.4971831403
  0
LINE
  8
0
 62
7
  6
CONTINUOUS
 10
152.6956168074
 20
31.626237886
 11
152.4643666972
 21
31.5939741996
  0
LINE
  8
0
 62
7
  6
CONTINUOUS
 10
150.2674918074
 20
31.4649194539
 11
150.498741835
 21
31.4971831403
  0
LINE
  8
0
 62
7
  6
CONTINUOUS
 10
156.7868565615
 20
35.0200293383
 11
157.4425942664
 21
35.0200293383
  0
LINE
  8
0
 62
7
  6
CONTINUOUS
 10
154.4299918074
 20
31.0777551716
 11
154.5456166972
 21
31.1100188581
  0
LINE
  8
0
 62
7
  6
CONTINUOUS
 10
154.4299918074
 20
31.2390736489
 11
154.1987416972
 21
31.1745462761
  0
LINE
  8
0
 62
7
  6
CONTINUOUS
 10
154.3143669177
 20
31.4326557675
 11
154.4299918074
 21
31.4649194539
  0
LINE
  8
0
 62
7
  6
CONTINUOUS
 10
150.9612418074
 20
30.6260635193
 11
151.1924917523
 21
30.6905909007
  0
LINE
  8
0
 62
7
  6
CONTINUOUS
 10
154.2565543074
 20
31.5939741996
 11
154.1409294177
 21
31.5617105132
  0
LINE
  8
0
 62
7
  6
CONTINUOUS
 10
150.2096793212
 20
31.5939741996
 11
150.0362418212
 21
31.5617105132
  0
LINE
  8
0
 62
7
  6
CONTINUOUS
 10
160.9671844304
 20
36.1675703219
 11
159.5737418074
 21
36.1675703219
  0
LINE
  8
0
 62
7
  6
CONTINUOUS
 10
157.6065286927
 20
36.1675703219
 11
157.1939573441
 21
36.1675703219
  0
LINE
  8
0
 62
7
  6
CONTINUOUS
 10
155.9671844304
 20
36.1675703219
 11
154.5737418074
 21
36.1675703219
  0
LINE
  8
0
 62
7
  6
CONTINUOUS
 10
154.245872955
 20
36.1675703219
 11
152.852430332
 21
36.1675703219
  0
LINE
  8
0
 62
7
  6
CONTINUOUS
 10
150.9671844304
 20
36.1675703219
 11
149.5737418074
 21
36.1675703219
  0
LINE
  8
0
 62
7
  6
CONTINUOUS
 10
150.1518667936
 20
31.4326557675
 11
150.2674918074
 21
31.4649194539
  0
CIRCLE
  8
0
 62
7
  6
CONTINUOUS
 10
160.2704631189
 20
38.5036358957
 40
2.0901639344
  0
ARC
  8
0
 62
7
  6
CONTINUOUS
 10
151.2130860697
 20
34.0364227809
 40
1.6393442623
 50
180.0
 51
270.0
  0
ARC
  8
0
 62
7
  6
CONTINUOUS
 10
157.6065286927
 20
34.5282260596
 40
1.6393442623
 50
0.0
 51
90.0
  0
ARC
  8
0
 62
7
  6
CONTINUOUS
 10
151.6256574183
 20
33.8724883547
 40
1.4754098361
 50
270.0
 51
326.2510114041
  0
ARC
  8
0
 62
7
  6
CONTINUOUS
 10
157.1939573441
 20
34.6921604858
 40
1.4754098361
 50
90.0
 51
146.2510114041
  0
ARC
  8
0
 62
7
  6
CONTINUOUS
 10
152.0327582009
 20
34.3642916334
 40
0.8196721311
 50
270.0
 51
360.0
  0
ARC
  8
0
 62
7
  6
CONTINUOUS
 10
156.7868565615
 20
34.2003572071
 40
0.8196721311
 50
90.0
 51
180.0
  0
ARC
  8
0
 62
7
  6
CONTINUOUS
 10
151.3770204959
 20
33.9544555678
 40
0.4098360656
 50
180.0
 51
270.0
  0
ARC
  8
0
 62
7
  6
CONTINUOUS
 10
157.4425942664
 20
34.6101932727
 40
0.4098360656
 50
0.0
 51
90.0
  0
SOLID
  8
0
 62
7
  6
CONTINUOUS
 10
156.279992028
 20
31.9488752009
 11
156.279992028
 21
32.1101936845
 12
156.5690540869
 22
31.9488752009
 13
156.5690540869
 23
32.1101936845
  0
SOLID
  8
0
 62
7
  6
CONTINUOUS
 10
150.5565542799
 20
31.6262382337
 11
150.9612418074
 21
31.5939740028
 12
150.2096793212
 22
31.5939740028
 13
150.2096793212
 23
31.5939740028
  0
SOLID
  8
0
 62
7
  6
CONTINUOUS
 10
150.0362418212
 20
31.5617111435
 11
150.2096793212
 21
31.5939740028
 12
150.9612418074
 22
31.5939740028
 13
150.9612418074
 23
31.5939740028
  0
SOLID
  8
0
 62
7
  6
CONTINUOUS
 10
150.9612418074
 20
31.5939740028
 11
151.1924917523
 21
31.5294468402
 12
150.0362418212
 22
31.5617111435
 13
150.0362418212
 23
31.5617111435
  0
SOLID
  8
0
 62
7
  6
CONTINUOUS
 10
149.8628043005
 20
31.49718259
 11
150.0362418212
 21
31.5617111435
 12
151.1924917523
 22
31.5294468402
 13
151.1924917523
 23
31.5294468402
  0
SOLID
  8
0
 62
7
  6
CONTINUOUS
 10
149.8628043005
 20
31.49718259
 11
151.1924917523
 21
31.5294468402
 12
150.498741835
 22
31.49718259
 13
150.498741835
 23
31.49718259
  0
SOLID
  8
0
 62
7
  6
CONTINUOUS
 10
150.498741835
 20
31.49718259
 11
151.1924917523
 21
31.5294468402
 12
150.9034292799
 22
31.4649197501
 13
150.9034292799
 23
31.4649197501
  0
SOLID
  8
0
 62
7
  6
CONTINUOUS
 10
151.1924917523
 20
31.5294468402
 11
151.3659292523
 21
31.4326554468
 12
150.9034292799
 22
31.4649197501
 13
150.9034292799
 23
31.4649197501
  0
SOLID
  8
0
 62
7
  6
CONTINUOUS
 10
151.0768668626
 20
31.4003926599
 11
150.9034292799
 21
31.4649197501
 12
151.3659292523
 22
31.4326554468
 13
151.3659292523
 23
31.4326554468
  0
SOLID
  8
0
 62
7
  6
CONTINUOUS
 10
151.0768668626
 20
31.4003926599
 11
151.3659292523
 21
31.4326554468
 12
151.1346793074
 22
31.3036013776
 13
151.1346793074
 23
31.3036013776
  0
SOLID
  8
0
 62
7
  6
CONTINUOUS
 10
151.3659292523
 20
31.4326554468
 11
151.4237418626
 21
31.3036013776
 12
151.1346793074
 22
31.3036013776
 13
151.1346793074
 23
31.3036013776
  0
SOLID
  8
0
 62
7
  6
CONTINUOUS
 10
152.4643666972
 20
31.5939739754
 11
152.6956168074
 21
31.6262382787
 12
152.9268669177
 22
31.6262382787
 13
152.9268669177
 23
31.6262382787
  0
SOLID
  8
0
 62
7
  6
CONTINUOUS
 10
152.9268669177
 20
31.6262382787
 11
153.1003044177
 21
31.5939739754
 12
152.4643666972
 22
31.5939739754
 13
152.4643666972
 23
31.5939739754
  0
SOLID
  8
0
 62
7
  6
CONTINUOUS
 10
152.2909293626
 20
31.5294468852
 11
152.4643666972
 21
31.5939739754
 12
153.1003044177
 22
31.5939739754
 13
153.1003044177
 23
31.5939739754
  0
SOLID
  8
0
 62
7
  6
CONTINUOUS
 10
153.1003044177
 20
31.5939739754
 11
153.2737419177
 21
31.5294468852
 12
152.2909293626
 22
31.5294468852
 13
152.2909293626
 23
31.5294468852
  0
SOLID
  8
0
 62
7
  6
CONTINUOUS
 10
153.2737419177
 20
31.5294468852
 11
152.6956168074
 21
31.4971825369
 12
152.2909293626
 22
31.5294468852
 13
152.2909293626
 23
31.5294468852
  0
SOLID
  8
0
 62
7
  6
CONTINUOUS
 10
152.1753043074
 20
31.4649197951
 11
152.2909293626
 21
31.5294468852
 12
152.6956168074
 22
31.4971825369
 13
152.6956168074
 23
31.4971825369
  0
SOLID
  8
0
 62
7
  6
CONTINUOUS
 10
152.6956168074
 20
31.4971825369
 11
152.4643666972
 21
31.4649197951
 12
152.1753043074
 22
31.4649197951
 13
152.1753043074
 23
31.4649197951
  0
SOLID
  8
0
 62
7
  6
CONTINUOUS
 10
152.6956168074
 20
31.4971825369
 11
153.2737419177
 21
31.5294468852
 12
152.9268669177
 22
31.4649197951
 13
152.9268669177
 23
31.4649197951
  0
SOLID
  8
0
 62
7
  6
CONTINUOUS
 10
153.2737419177
 20
31.5294468852
 11
153.3893668074
 21
31.4649197951
 12
152.9268669177
 22
31.4649197951
 13
152.9268669177
 23
31.4649197951
  0
SOLID
  8
0
 62
7
  6
CONTINUOUS
 10
153.0424918074
 20
31.4326554468
 11
152.9268669177
 21
31.4649197951
 12
153.3893668074
 22
31.4649197951
 13
153.3893668074
 23
31.4649197951
  0
SOLID
  8
0
 62
7
  6
CONTINUOUS
 10
153.3893668074
 20
31.4649197951
 11
153.4471794177
 21
31.4003927049
 12
153.0424918074
 22
31.4326554468
 13
153.0424918074
 23
31.4326554468
  0
SOLID
  8
0
 62
7
  6
CONTINUOUS
 10
153.1581166972
 20
31.3681283566
 11
153.0424918074
 21
31.4326554468
 12
153.4471794177
 22
31.4003927049
 13
153.4471794177
 23
31.4003927049
  0
SOLID
  8
0
 62
7
  6
CONTINUOUS
 10
153.1581166972
 20
31.3681283566
 11
153.4471794177
 21
31.4003927049
 12
153.2159293074
 22
31.2390742213
 13
153.2159293074
 23
31.2390742213
  0
SOLID
  8
0
 62
7
  6
CONTINUOUS
 10
153.4471794177
 20
31.4003927049
 11
153.5049916972
 21
31.2390742213
 12
153.2159293074
 22
31.2390742213
 13
153.2159293074
 23
31.2390742213
  0
SOLID
  8
0
 62
7
  6
CONTINUOUS
 10
152.4643666972
 20
31.4649197951
 11
152.2909293626
 21
31.4003927049
 12
152.1753043074
 22
31.4649197951
 13
152.1753043074
 23
31.4649197951
  0
SOLID
  8
0
 62
7
  6
CONTINUOUS
 10
152.2909293626
 20
31.4003927049
 11
152.1753043074
 21
31.3358640533
 12
152.1753043074
 22
31.4649197951
 13
152.1753043074
 23
31.4649197951
  0
SOLID
  8
0
 62
7
  6
CONTINUOUS
 10
152.1753043074
 20
31.3358640533
 11
151.8862417523
 21
30.5938002869
 12
152.1753043074
 22
31.4649197951
 13
152.1753043074
 23
31.4649197951
  0
SOLID
  8
0
 62
7
  6
CONTINUOUS
 10
152.1753043074
 20
31.4649197951
 11
151.8862417523
 21
30.5938002869
 12
152.1753043074
 22
32.1101937295
 13
152.1753043074
 23
32.1101937295
  0
SOLID
  8
0
 62
7
  6
CONTINUOUS
 10
151.8862417523
 20
30.5938002869
 11
151.8862417523
 21
32.1101937295
 12
152.1753043074
 22
32.1101937295
 13
152.1753043074
 23
32.1101937295
  0
SOLID
  8
0
 62
7
  6
CONTINUOUS
 10
152.1753043074
 20
31.3358640533
 11
152.1753043074
 21
30.5938002869
 12
151.8862417523
 22
30.5938002869
 13
151.8862417523
 23
30.5938002869
  0
SOLID
  8
0
 62
7
  6
CONTINUOUS
 10
153.2159293074
 20
30.5938002869
 11
153.2159293074
 21
31.2390742213
 12
153.5049916972
 22
31.2390742213
 13
153.5049916972
 23
31.2390742213
  0
SOLID
  8
0
 62
7
  6
CONTINUOUS
 10
153.5049916972
 20
31.2390742213
 11
153.5049916972
 21
30.5938002869
 12
153.2159293074
 22
30.5938002869
 13
153.2159293074
 23
30.5938002869
  0
SOLID
  8
0
 62
7
  6
CONTINUOUS
 10
154.2565543074
 20
31.5939738288
 11
154.6612419177
 21
31.6262385959
 12
155.0081169177
 22
31.6262385959
 13
155.0081169177
 23
31.6262385959
  0
SOLID
  8
0
 62
7
  6
CONTINUOUS
 10
155.0081169177
 20
31.6262385959
 11
155.3549915869
 21
31.5939738288
 12
154.2565543074
 22
31.5939738288
 13
154.2565543074
 23
31.5939738288
  0
SOLID
  8
0
 62
7
  6
CONTINUOUS
 10
154.1409294177
 20
31.5617111435
 11
154.2565543074
 21
31.5939738288
 12
155.3549915869
 22
31.5939738288
 13
155.3549915869
 23
31.5939738288
  0
SOLID
  8
0
 62
7
  6
CONTINUOUS
 10
155.3549915869
 20
31.5939738288
 11
155.5284290869
 21
31.5294468402
 12
154.1409294177
 22
31.5617111435
 13
154.1409294177
 23
31.5617111435
  0
SOLID
  8
0
 62
7
  6
CONTINUOUS
 10
154.0253041972
 20
31.4971826249
 11
154.1409294177
 21
31.5617111435
 12
155.5284290869
 22
31.5294468402
 13
155.5284290869
 23
31.5294468402
  0
SOLID
  8
0
 62
7
  6
CONTINUOUS
 10
154.0253041972
 20
31.4971826249
 11
155.5284290869
 21
31.5294468402
 12
154.6612419177
 22
31.4971826249
 13
154.6612419177
 23
31.4971826249
  0
SOLID
  8
0
 62
7
  6
CONTINUOUS
 10
154.6612419177
 20
31.4971826249
 11
155.5284290869
 21
31.5294468402
 12
155.0081169177
 22
31.4971826249
 13
155.0081169177
 23
31.4971826249
  0
SOLID
  8
0
 62
7
  6
CONTINUOUS
 10
155.0081169177
 20
31.4971826249
 11
155.5284290869
 21
31.5294468402
 12
155.239367028
 22
31.4649194065
 13
155.239367028
 23
31.4649194065
  0
SOLID
  8
0
 62
7
  6
CONTINUOUS
 10
155.5284290869
 20
31.5294468402
 11
155.6440543074
 21
31.4649194065
 12
155.239367028
 22
31.4649194065
 13
155.239367028
 23
31.4649194065
  0
SOLID
  8
0
 62
7
  6
CONTINUOUS
 10
153.9674919177
 20
31.4326554138
 11
154.0253041972
 21
31.4971826249
 12
154.6612419177
 22
31.4971826249
 13
154.6612419177
 23
31.4971826249
  0
SOLID
  8
0
 62
7
  6
CONTINUOUS
 10
155.3549915869
 20
31.4326554138
 11
155.239367028
 21
31.4649194065
 12
155.6440543074
 22
31.4649194065
 13
155.6440543074
 23
31.4649194065
  0
SOLID
  8
0
 62
7
  6
CONTINUOUS
 10
155.3549915869
 20
31.4326554138
 11
155.6440543074
 21
31.4649194065
 12
155.412804528
 22
31.3681282026
 13
155.412804528
 23
31.3681282026
  0
SOLID
  8
0
 62
7
  6
CONTINUOUS
 10
155.6440543074
 20
31.4649194065
 11
155.7018665869
 21
31.3681282026
 12
155.412804528
 22
31.3681282026
 13
155.412804528
 23
31.3681282026
  0
SOLID
  8
0
 62
7
  6
CONTINUOUS
 10
155.412804528
 20
31.2713369632
 11
155.412804528
 21
31.3681282026
 12
155.7018665869
 22
31.3681282026
 13
155.7018665869
 23
31.3681282026
  0
SOLID
  8
0
 62
7
  6
CONTINUOUS
 10
155.412804528
 20
31.2713369632
 11
155.7018665869
 21
31.3681282026
 12
155.412804528
 22
31.1422827828
 13
155.412804528
 23
31.1422827828
  0
SOLID
  8
0
 62
7
  6
CONTINUOUS
 10
155.412804528
 20
31.1422827828
 11
155.7018665869
 21
31.3681282026
 12
155.412804528
 22
30.9487004259
 13
155.412804528
 23
30.9487004259
  0
SOLID
  8
0
 62
7
  6
CONTINUOUS
 10
155.7018665869
 20
31.3681282026
 11
155.7018665869
 21
30.8519086025
 12
155.412804528
 22
30.9487004259
 13
155.412804528
 23
30.9487004259
  0
SOLID
  8
0
 62
7
  6
CONTINUOUS
 10
157.6096790869
 20
31.5939736268
 11
157.840929528
 21
31.6262383465
 12
158.0721793074
 22
31.6262383465
 13
158.0721793074
 23
31.6262383465
  0
SOLID
  8
0
 62
7
  6
CONTINUOUS
 10
158.0721793074
 20
31.6262383465
 11
158.2456168074
 21
31.5939736268
 12
157.6096790869
 22
31.5939736268
 13
157.6096790869
 23
31.5939736268
  0
SOLID
  8
0
 62
7
  6
CONTINUOUS
 10
157.4362415869
 20
31.5294472848
 11
157.6096790869
 21
31.5939736268
 12
158.2456168074
 22
31.5939736268
 13
158.2456168074
 23
31.5939736268
  0
SOLID
  8
0
 62
7
  6
CONTINUOUS
 10
158.2456168074
 20
31.5939736268
 11
158.4190543074
 21
31.5294472848
 12
157.4362415869
 22
31.5294472848
 13
157.4362415869
 23
31.5294472848
  0
SOLID
  8
0
 62
7
  6
CONTINUOUS
 10
158.4190543074
 20
31.5294472848
 11
157.840929528
 21
31.4971825369
 12
157.4362415869
 22
31.5294472848
 13
157.4362415869
 23
31.5294472848
  0
SOLID
  8
0
 62
7
  6
CONTINUOUS
 10
157.320617028
 20
31.4649199103
 11
157.4362415869
 21
31.5294472848
 12
157.840929528
 22
31.4971825369
 13
157.840929528
 23
31.4971825369
  0
SOLID
  8
0
 62
7
  6
CONTINUOUS
 10
157.840929528
 20
31.4971825369
 11
157.6096790869
 21
31.4649199103
 12
157.320617028
 22
31.4649199103
 13
157.320617028
 23
31.4649199103
  0
SOLID
  8
0
 62
7
  6
CONTINUOUS
 10
157.840929528
 20
31.4971825369
 11
158.4190543074
 21
31.5294472848
 12
158.0721793074
 22
31.4649199103
 13
158.0721793074
 23
31.4649199103
  0
SOLID
  8
0
 62
7
  6
CONTINUOUS
 10
158.4190543074
 20
31.5294472848
 11
158.534679528
 21
31.4649199103
 12
158.0721793074
 22
31.4649199103
 13
158.0721793074
 23
31.4649199103
  0
SOLID
  8
0
 62
7
  6
CONTINUOUS
 10
158.187804528
 20
31.4326554468
 11
158.0721793074
 21
31.4649199103
 12
158.534679528
 22
31.4649199103
 13
158.534679528
 23
31.4649199103
  0
SOLID
  8
0
 62
7
  6
CONTINUOUS
 10
158.187804528
 20
31.4326554468
 11
158.534679528
 21
31.4649199103
 12
158.3034290869
 22
31.3681288486
 13
158.3034290869
 23
31.3681288486
  0
SOLID
  8
0
 62
7
  6
CONTINUOUS
 10
158.534679528
 20
31.4649199103
 11
158.5924918074
 21
31.3681288486
 12
158.3034290869
 22
31.3681288486
 13
158.3034290869
 23
31.3681288486
  0
SOLID
  8
0
 62
7
  6
CONTINUOUS
 10
158.361242028
 20
31.2068093799
 11
158.3034290869
 21
31.3681288486
 12
158.5924918074
 22
31.3681288486
 13
158.5924918074
 23
31.3681288486
  0
SOLID
  8
0
 62
7
  6
CONTINUOUS
 10
158.5924918074
 20
31.3681288486
 11
158.6503040869
 21
31.2068093799
 12
158.361242028
 22
31.2068093799
 13
158.361242028
 23
31.2068093799
  0
SOLID
  8
0
 62
7
  6
CONTINUOUS
 10
157.6096790869
 20
31.4649199103
 11
157.4362415869
 21
31.4003926599
 12
157.320617028
 22
31.4649199103
 13
157.320617028
 23
31.4649199103
  0
SOLID
  8
0
 62
7
  6
CONTINUOUS
 10
157.4362415869
 20
31.4003926599
 11
157.320617028
 21
31.3358640533
 12
157.320617028
 22
31.4649199103
 13
157.320617028
 23
31.4649199103
  0
SOLID
  8
0
 62
7
  6
CONTINUOUS
 10
157.320617028
 20
31.3358640533
 11
157.0315543074
 21
30.5938003547
 12
157.320617028
 22
31.4649199103
 13
157.320617028
 23
31.4649199103
  0
SOLID
  8
0
 62
7
  6
CONTINUOUS
 10
157.320617028
 20
31.4649199103
 11
157.0315543074
 21
30.5938003547
 12
157.320617028
 22
31.6262383465
 13
157.320617028
 23
31.6262383465
  0
SOLID
  8
0
 62
7
  6
CONTINUOUS
 10
157.0315543074
 20
30.5938003547
 11
157.0315543074
 21
31.6262383465
 12
157.320617028
 22
31.6262383465
 13
157.320617028
 23
31.6262383465
  0
SOLID
  8
0
 62
7
  6
CONTINUOUS
 10
157.320617028
 20
31.3358640533
 11
157.320617028
 21
30.5938003547
 12
157.0315543074
 22
30.5938003547
 13
157.0315543074
 23
30.5938003547
  0
SOLID
  8
0
 62
7
  6
CONTINUOUS
 10
158.361242028
 20
30.5938003547
 11
158.361242028
 21
31.2068093799
 12
158.6503040869
 22
31.2068093799
 13
158.6503040869
 23
31.2068093799
  0
SOLID
  8
0
 62
7
  6
CONTINUOUS
 10
158.6503040869
 20
31.2068093799
 11
158.6503040869
 21
30.5938003547
 12
158.361242028
 22
30.5938003547
 13
158.361242028
 23
30.5938003547
  0
SOLID
  8
0
 62
7
  6
CONTINUOUS
 10
159.4596793074
 20
31.5939739474
 11
159.8065543074
 21
31.6262381969
 12
160.1534293074
 22
31.6262381969
 13
160.1534293074
 23
31.6262381969
  0
SOLID
  8
0
 62
7
  6
CONTINUOUS
 10
160.1534293074
 20
31.6262381969
 11
160.5003043074
 21
31.5939739474
 12
159.4596793074
 22
31.5939739474
 13
159.4596793074
 23
31.5939739474
  0
SOLID
  8
0
 62
7
  6
CONTINUOUS
 10
159.228429528
 20
31.5294468402
 11
159.4596793074
 21
31.5939739474
 12
160.5003043074
 22
31.5939739474
 13
160.5003043074
 23
31.5939739474
  0
SOLID
  8
0
 62
7
  6
CONTINUOUS
 10
159.228429528
 20
31.5294468402
 11
160.5003043074
 21
31.5939739304
 12
160.6737418074
 22
31.5617111435
 13
160.6737418074
 23
31.5617111435
  0
SOLID
  8
0
 62
7
  6
CONTINUOUS
 10
159.228429528
 20
31.5294468402
 11
160.6737418074
 21
31.5617111435
 12
159.8065543074
 22
31.4971825592
 13
159.8065543074
 23
31.4971825592
  0
SOLID
  8
0
 62
7
  6
CONTINUOUS
 10
159.8065543074
 20
31.4971825592
 11
160.6737418074
 21
31.5617111435
 12
160.1534293074
 22
31.4971825592
 13
160.1534293074
 23
31.4971825592
  0
SOLID
  8
0
 62
7
  6
CONTINUOUS
 10
160.6737418074
 20
31.5617111435
 11
160.8471793074
 21
31.4971825592
 12
160.1534293074
 22
31.4971825592
 13
160.1534293074
 23
31.4971825592
  0
SOLID
  8
0
 62
7
  6
CONTINUOUS
 10
160.5003043074
 20
31.4649197501
 11
160.1534293074
 21
31.4971825592
 12
160.8471793074
 22
31.4971825592
 13
160.8471793074
 23
31.4971825592
  0
SOLID
  8
0
 62
7
  6
CONTINUOUS
 10
159.1128043074
 20
31.4326555427
 11
159.228429528
 21
31.5294468402
 12
159.8065543074
 22
31.4971825592
 13
159.8065543074
 23
31.4971825592
  0
SOLID
  8
0
 62
7
  6
CONTINUOUS
 10
160.5003043074
 20
31.4649197501
 11
160.8471793074
 21
31.4971825592
 12
160.615929528
 22
31.4326555427
 13
160.615929528
 23
31.4326555427
  0
SOLID
  8
0
 62
7
  6
CONTINUOUS
 10
160.615929528
 20
31.4326555427
 11
160.8471793074
 21
31.4971825592
 12
160.6737418074
 22
31.3681283005
 13
160.6737418074
 23
31.3681283005
  0
SOLID
  8
0
 62
7
  6
CONTINUOUS
 10
160.8471793074
 20
31.4971825592
 11
160.9628038663
 21
31.3681283005
 12
160.6737418074
 22
31.3681283005
 13
160.6737418074
 23
31.3681283005
  0
SOLID
  8
0
 62
7
  6
CONTINUOUS
 10
150.2674918074
 20
31.4649197501
 11
149.7471793074
 21
31.4326554237
 12
150.498741835
 22
31.4971824493
 13
150.498741835
 23
31.4971824493
  0
SOLID
  8
0
 62
7
  6
CONTINUOUS
 10
149.7471793074
 20
31.4326554237
 11
149.8628043005
 21
31.4971824493
 12
150.498741835
 22
31.4971824493
 13
150.498741835
 23
31.4971824493
  0
SOLID
  8
0
 62
7
  6
CONTINUOUS
 10
150.2674918074
 20
31.4649197501
 11
150.1518667936
 21
31.4326554237
 12
149.7471793074
 22
31.4326554237
 13
149.7471793074
 23
31.4326554237
  0
SOLID
  8
0
 62
7
  6
CONTINUOUS
 10
149.6315543091
 20
31.3036012664
 11
149.7471793074
 21
31.4326554237
 12
150.1518667936
 22
31.4326554237
 13
150.1518667936
 23
31.4326554237
  0
SOLID
  8
0
 62
7
  6
CONTINUOUS
 10
153.9674919177
 20
31.4326554237
 11
154.6612419177
 21
31.4971825369
 12
154.4299918074
 22
31.4649197501
 13
154.4299918074
 23
31.4649197501
  0
SOLID
  8
0
 62
7
  6
CONTINUOUS
 10
154.4299918074
 20
31.4649197501
 11
154.3143669177
 21
31.4326554237
 12
153.9674919177
 22
31.4326554237
 13
153.9674919177
 23
31.4326554237
  0
SOLID
  8
0
 62
7
  6
CONTINUOUS
 10
153.9674919177
 20
31.3681283335
 11
153.9674919177
 21
31.4326554237
 12
154.3143669177
 22
31.4326554237
 13
154.3143669177
 23
31.4326554237
  0
SOLID
  8
0
 62
7
  6
CONTINUOUS
 10
154.3143669177
 20
31.4326554237
 11
154.2565543074
 21
31.3681283335
 12
153.9674919177
 22
31.3681283335
 13
153.9674919177
 23
31.3681283335
  0
SOLID
  8
0
 62
7
  6
CONTINUOUS
 10
159.1128043074
 20
31.4326555528
 11
159.8065543074
 21
31.4971825369
 12
159.575304528
 22
31.4649197501
 13
159.575304528
 23
31.4649197501
  0
SOLID
  8
0
 62
7
  6
CONTINUOUS
 10
159.575304528
 20
31.4649197501
 11
159.4596793074
 21
31.4326555528
 12
159.1128043074
 22
31.4326555528
 13
159.1128043074
 23
31.4326555528
  0
SOLID
  8
0
 62
7
  6
CONTINUOUS
 10
159.1128043074
 20
31.3681284626
 11
159.1128043074
 21
31.4326555528
 12
159.4596793074
 22
31.4326555528
 13
159.4596793074
 23
31.4326555528
  0
SOLID
  8
0
 62
7
  6
CONTINUOUS
 10
159.4596793074
 20
31.4326555528
 11
159.401867028
 21
31.3681284626
 12
159.1128043074
 22
31.3681284626
 13
159.1128043074
 23
31.3681284626
  0
SOLID
  8
0
 62
7
  6
CONTINUOUS
 10
159.228429528
 20
31.2390741763
 11
159.1128043074
 21
31.3681284626
 12
159.401867028
 22
31.3681284626
 13
159.401867028
 23
31.3681284626
  0
SOLID
  8
0
 62
7
  6
CONTINUOUS
 10
149.6315543091
 20
31.3036012664
 11
150.1518667936
 21
31.4326554468
 12
149.9784292936
 22
31.3358640533
 13
149.9784292936
 23
31.3358640533
  0
SOLID
  8
0
 62
7
  6
CONTINUOUS
 10
149.9784292936
 20
31.3358640533
 11
149.9206168074
 21
31.2713369632
 12
149.6315543091
 22
31.3036012664
 13
149.6315543091
 23
31.3036012664
  0
SOLID
  8
0
 62
7
  6
CONTINUOUS
 10
149.5737418074
 20
31.1100184796
 11
149.6315543091
 21
31.3036012664
 12
149.9206168074
 22
31.2713369632
 13
149.9206168074
 23
31.2713369632
  0
SOLID
  8
0
 62
7
  6
CONTINUOUS
 10
154.4299918074
 20
31.2390741763
 11
154.7768668074
 21
31.271336924
 12
155.412804528
 22
31.271336924
 13
155.412804528
 23
31.271336924
  0
SOLID
  8
0
 62
7
  6
CONTINUOUS
 10
154.4299918074
 20
31.2390741763
 11
155.412804528
 21
31.271336924
 12
154.1987416972
 22
31.1745462761
 13
154.1987416972
 23
31.1745462761
  0
SOLID
  8
0
 62
7
  6
CONTINUOUS
 10
154.1987416972
 20
31.1745462761
 11
155.412804528
 21
31.271336924
 12
154.7768668074
 22
31.1422827436
 13
154.7768668074
 23
31.1422827436
  0
SOLID
  8
0
 62
7
  6
CONTINUOUS
 10
155.412804528
 20
31.271336924
 11
155.412804528
 21
31.1422827436
 12
154.7768668074
 22
31.1422827436
 13
154.7768668074
 23
31.1422827436
  0
SOLID
  8
0
 62
7
  6
CONTINUOUS
 10
159.228429528
 20
31.2390745501
 11
159.401867028
 21
31.3681283566
 12
159.4596793074
 22
31.3036012664
 13
159.4596793074
 23
31.3036012664
  0
SOLID
  8
0
 62
7
  6
CONTINUOUS
 10
159.4596793074
 20
31.3036012664
 11
159.6331168074
 21
31.2390745501
 12
159.228429528
 22
31.2390745501
 13
159.228429528
 23
31.2390745501
  0
SOLID
  8
0
 62
7
  6
CONTINUOUS
 10
159.4596793074
 20
31.1422827828
 11
159.228429528
 21
31.2390745501
 12
159.6331168074
 22
31.2390745501
 13
159.6331168074
 23
31.2390745501
  0
SOLID
  8
0
 62
7
  6
CONTINUOUS
 10
159.6331168074
 20
31.2390745501
 11
160.615929528
 21
31.0777556927
 12
159.4596793074
 22
31.1422827828
 13
159.4596793074
 23
31.1422827828
  0
SOLID
  8
0
 62
7
  6
CONTINUOUS
 10
160.442492028
 20
30.9809646623
 11
159.4596793074
 21
31.1422827828
 12
160.615929528
 22
31.0777556927
 13
160.615929528
 23
31.0777556927
  0
SOLID
  8
0
 62
7
  6
CONTINUOUS
 10
160.615929528
 20
31.0777556927
 11
160.8471793074
 21
30.9809646623
 12
160.442492028
 22
30.9809646623
 13
160.442492028
 23
30.9809646623
  0
SOLID
  8
0
 62
7
  6
CONTINUOUS
 10
160.615929528
 20
30.9164372091
 11
160.442492028
 21
30.9809646623
 12
160.8471793074
 22
30.9809646623
 13
160.8471793074
 23
30.9809646623
  0
SOLID
  8
0
 62
7
  6
CONTINUOUS
 10
160.615929528
 20
30.9164372091
 11
160.8471793074
 21
30.9809646623
 12
160.6737418074
 22
30.8519089441
 13
160.6737418074
 23
30.8519089441
  0
SOLID
  8
0
 62
7
  6
CONTINUOUS
 10
160.8471793074
 20
30.9809646623
 11
160.9628038663
 21
30.8519089441
 12
160.6737418074
 22
30.8519089441
 13
160.6737418074
 23
30.8519089441
  0
SOLID
  8
0
 62
7
  6
CONTINUOUS
 10
160.615929528
 20
30.7873818593
 11
160.6737418074
 21
30.8519089441
 12
160.9628038663
 22
30.8519089441
 13
160.9628038663
 23
30.8519089441
  0
SOLID
  8
0
 62
7
  6
CONTINUOUS
 10
160.9628038663
 20
30.8519089441
 11
160.9628038663
 21
30.7873818593
 12
160.615929528
 22
30.7873818593
 13
160.615929528
 23
30.7873818593
  0
SOLID
  8
0
 62
7
  6
CONTINUOUS
 10
160.5003043074
 20
30.7551187255
 11
160.615929528
 21
30.7873818593
 12
160.9628038663
 22
30.7873818593
 13
160.9628038663
 23
30.7873818593
  0
SOLID
  8
0
 62
7
  6
CONTINUOUS
 10
160.5003043074
 20
30.7551187255
 11
160.9628038663
 21
30.7873818593
 12
160.269054528
 22
30.7228547745
 13
160.269054528
 23
30.7228547745
  0
SOLID
  8
0
 62
7
  6
CONTINUOUS
 10
160.9628038663
 20
30.7873818593
 11
160.8471793074
 21
30.6905916353
 12
160.269054528
 22
30.7228547745
 13
160.269054528
 23
30.7228547745
  0
SOLID
  8
0
 62
7
  6
CONTINUOUS
 10
160.8471793074
 20
30.6905916353
 11
159.401867028
 21
30.658327332
 12
160.269054528
 22
30.7228547745
 13
160.269054528
 23
30.7228547745
  0
SOLID
  8
0
 62
7
  6
CONTINUOUS
 10
160.269054528
 20
30.7228547745
 11
159.401867028
 21
30.658327332
 12
159.922179528
 22
30.7228547745
 13
159.922179528
 23
30.7228547745
  0
SOLID
  8
0
 62
7
  6
CONTINUOUS
 10
159.401867028
 20
30.658327332
 11
159.228429528
 21
30.7228547745
 12
159.922179528
 22
30.7228547745
 13
159.922179528
 23
30.7228547745
  0
SOLID
  8
0
 62
7
  6
CONTINUOUS
 10
159.401867028
 20
30.658327332
 11
160.8471793074
 21
30.6905916353
 12
159.575304528
 22
30.6260629858
 13
159.575304528
 23
30.6260629858
  0
SOLID
  8
0
 62
7
  6
CONTINUOUS
 10
160.8471793074
 20
30.6905916353
 11
160.615929528
 21
30.6260629858
 12
159.575304528
 22
30.6260629858
 13
159.575304528
 23
30.6260629858
  0
SOLID
  8
0
 62
7
  6
CONTINUOUS
 10
159.922179528
 20
30.5938006049
 11
159.575304528
 21
30.6260629858
 12
160.615929528
 22
30.6260629858
 13
160.615929528
 23
30.6260629858
  0
SOLID
  8
0
 62
7
  6
CONTINUOUS
 10
160.615929528
 20
30.6260629858
 11
160.269054528
 21
30.5938006049
 12
159.922179528
 22
30.5938006049
 13
159.922179528
 23
30.5938006049
  0
SOLID
  8
0
 62
7
  6
CONTINUOUS
 10
149.5737418074
 20
31.1100184796
 11
149.9206168074
 21
31.2713369632
 12
149.8628043005
 22
31.1422827828
 13
149.8628043005
 23
31.1422827828
  0
SOLID
  8
0
 62
7
  6
CONTINUOUS
 10
149.8628043005
 20
31.1422827828
 11
149.8628043005
 21
31.0454914852
 12
149.5737418074
 22
31.1100184796
 13
149.5737418074
 23
31.1100184796
  0
SOLID
  8
0
 62
7
  6
CONTINUOUS
 10
149.6315543091
 20
30.9164372091
 11
149.5737418074
 21
31.1100184796
 12
149.8628043005
 22
31.0454914852
 13
149.8628043005
 23
31.0454914852
  0
SOLID
  8
0
 62
7
  6
CONTINUOUS
 10
149.8628043005
 20
31.0454914852
 11
149.9784292936
 21
30.8841729058
 12
149.6315543091
 22
30.9164372091
 13
149.6315543091
 23
30.9164372091
  0
SOLID
  8
0
 62
7
  6
CONTINUOUS
 10
149.7471793074
 20
30.7873813202
 11
149.6315543091
 21
30.9164372091
 12
149.9784292936
 22
30.8841729058
 13
149.9784292936
 23
30.8841729058
  0
SOLID
  8
0
 62
7
  6
CONTINUOUS
 10
149.9784292936
 20
30.8841729058
 11
150.1518667936
 21
30.7873813202
 12
149.7471793074
 22
30.7873813202
 13
149.7471793074
 23
30.7873813202
  0
SOLID
  8
0
 62
7
  6
CONTINUOUS
 10
149.8628043005
 20
30.7228547004
 11
149.7471793074
 21
30.7873813202
 12
150.1518667936
 22
30.7873813202
 13
150.1518667936
 23
30.7873813202
  0
SOLID
  8
0
 62
7
  6
CONTINUOUS
 10
150.1518667936
 20
30.7873813202
 11
150.498741835
 21
30.7228547004
 12
149.8628043005
 22
30.7228547004
 13
149.8628043005
 23
30.7228547004
  0
SOLID
  8
0
 62
7
  6
CONTINUOUS
 10
150.0362418212
 20
30.658327332
 11
149.8628043005
 21
30.7228547004
 12
150.498741835
 22
30.7228547004
 13
150.498741835
 23
30.7228547004
  0
SOLID
  8
0
 62
7
  6
CONTINUOUS
 10
154.0831168074
 20
31.1100184386
 11
154.1987416972
 21
31.1745462761
 12
154.7768668074
 22
31.1422827828
 13
154.7768668074
 23
31.1422827828
  0
SOLID
  8
0
 62
7
  6
CONTINUOUS
 10
154.7768668074
 20
31.1422827828
 11
154.5456166972
 21
31.1100184386
 12
154.0831168074
 22
31.1100184386
 13
154.0831168074
 23
31.1100184386
  0
SOLID
  8
0
 62
7
  6
CONTINUOUS
 10
153.9674919177
 20
30.9809642992
 11
154.0831168074
 21
31.1100184386
 12
154.5456166972
 22
31.1100184386
 13
154.5456166972
 23
31.1100184386
  0
SOLID
  8
0
 62
7
  6
CONTINUOUS
 10
154.3143669177
 20
31.0132277988
 11
153.9674919177
 21
30.9809642992
 12
154.4299918074
 22
31.0777556927
 13
154.4299918074
 23
31.0777556927
  0
SOLID
  8
0
 62
7
  6
CONTINUOUS
 10
153.9674919177
 20
30.9809642992
 11
154.5456166972
 21
31.1100184796
 12
154.4299918074
 22
31.0777556927
 13
154.4299918074
 23
31.0777556927
  0
SOLID
  8
0
 62
7
  6
CONTINUOUS
 10
154.3143669177
 20
31.0132277988
 11
154.2565543074
 21
30.9164372091
 12
153.9674919177
 22
30.9809642992
 13
153.9674919177
 23
30.9809642992
  0
SOLID
  8
0
 62
7
  6
CONTINUOUS
 10
153.9674919177
 20
30.8841729058
 11
153.9674919177
 21
30.9809642992
 12
154.2565543074
 22
30.9164372091
 13
154.2565543074
 23
30.9164372091
  0
SOLID
  8
0
 62
7
  6
CONTINUOUS
 10
154.2565543074
 20
30.9164372091
 11
154.2565543074
 21
30.8519086025
 12
153.9674919177
 22
30.8841729058
 13
153.9674919177
 23
30.8841729058
  0
SOLID
  8
0
 62
7
  6
CONTINUOUS
 10
154.0253041972
 20
30.7551187255
 11
153.9674919177
 21
30.8841729058
 12
154.2565543074
 22
30.8519086025
 13
154.2565543074
 23
30.8519086025
  0
SOLID
  8
0
 62
7
  6
CONTINUOUS
 10
155.412804528
 20
30.9487004259
 11
155.7018665869
 21
30.8519086025
 12
155.3549915869
 22
30.8841729058
 13
155.3549915869
 23
30.8841729058
  0
SOLID
  8
0
 62
7
  6
CONTINUOUS
 10
155.1815540869
 20
30.7873815123
 11
155.3549915869
 21
30.8841729058
 12
155.7018665869
 22
30.8519086025
 13
155.7018665869
 23
30.8519086025
  0
SOLID
  8
0
 62
7
  6
CONTINUOUS
 10
155.1815540869
 20
30.7873815123
 11
155.7018665869
 21
30.8519086025
 12
155.412804528
 22
30.7551187255
 13
155.412804528
 23
30.7551187255
  0
SOLID
  8
0
 62
7
  6
CONTINUOUS
 10
155.7018665869
 20
30.8519086025
 11
155.759679528
 21
30.6905916353
 12
155.412804528
 22
30.7551187255
 13
155.412804528
 23
30.7551187255
  0
SOLID
  8
0
 62
7
  6
CONTINUOUS
 10
155.4706168074
 20
30.658327332
 11
155.412804528
 21
30.7551187255
 12
155.759679528
 22
30.6905916353
 13
155.759679528
 23
30.6905916353
  0
SOLID
  8
0
 62
7
  6
CONTINUOUS
 10
155.4706168074
 20
30.658327332
 11
155.759679528
 21
30.6905916353
 12
155.5284290869
 22
30.5938002079
 13
155.5284290869
 23
30.5938002079
  0
SOLID
  8
0
 62
7
  6
CONTINUOUS
 10
155.759679528
 20
30.6905916353
 11
155.8174918074
 21
30.5938002079
 12
155.5284290869
 22
30.5938002079
 13
155.5284290869
 23
30.5938002079
  0
SOLID
  8
0
 62
7
  6
CONTINUOUS
 10
151.0768668626
 20
30.8196456577
 11
151.1346793074
 21
30.9164373395
 12
151.4237418626
 22
30.9164373395
 13
151.4237418626
 23
30.9164373395
  0
SOLID
  8
0
 62
7
  6
CONTINUOUS
 10
151.4237418626
 20
30.9164373395
 11
151.3659292523
 21
30.7873815123
 12
151.0768668626
 22
30.8196456577
 13
151.0768668626
 23
30.8196456577
  0
SOLID
  8
0
 62
7
  6
CONTINUOUS
 10
150.9034292799
 20
30.7551187255
 11
151.0768668626
 21
30.8196456577
 12
151.3659292523
 22
30.7873815123
 13
151.3659292523
 23
30.7873815123
  0
SOLID
  8
0
 62
7
  6
CONTINUOUS
 10
150.9034292799
 20
30.7551187255
 11
151.3659292523
 21
30.7873815123
 12
150.498741835
 22
30.7228544222
 13
150.498741835
 23
30.7228544222
  0
SOLID
  8
0
 62
7
  6
CONTINUOUS
 10
151.3659292523
 20
30.7873815123
 11
151.1924917523
 21
30.6905916353
 12
150.498741835
 22
30.7228544222
 13
150.498741835
 23
30.7228544222
  0
SOLID
  8
0
 62
7
  6
CONTINUOUS
 10
150.0362418212
 20
30.658327332
 11
150.498741835
 21
30.7228544222
 12
151.1924917523
 22
30.6905916353
 13
151.1924917523
 23
30.6905916353
  0
SOLID
  8
0
 62
7
  6
CONTINUOUS
 10
150.0362418212
 20
30.658327332
 11
151.1924917523
 21
30.6905916353
 12
150.2096793212
 22
30.6260631011
 13
150.2096793212
 23
30.6260631011
  0
SOLID
  8
0
 62
7
  6
CONTINUOUS
 10
151.1924917523
 20
30.6905916353
 11
150.9612418074
 21
30.6260631011
 12
150.2096793212
 22
30.6260631011
 13
150.2096793212
 23
30.6260631011
  0
SOLID
  8
0
 62
7
  6
CONTINUOUS
 10
150.5565542799
 20
30.5938002419
 11
150.2096793212
 21
30.6260631011
 12
150.9612418074
 22
30.6260631011
 13
150.9612418074
 23
30.6260631011
  0
SOLID
  8
0
 62
7
  6
CONTINUOUS
 10
154.0253041972
 20
30.7551187255
 11
154.2565543074
 21
30.8519086025
 12
154.3143669177
 22
30.7873815123
 13
154.3143669177
 23
30.7873815123
  0
SOLID
  8
0
 62
7
  6
CONTINUOUS
 10
154.3143669177
 20
30.7873815123
 11
154.5456166972
 21
30.7228544222
 12
154.0253041972
 22
30.7551187255
 13
154.0253041972
 23
30.7551187255
  0
SOLID
  8
0
 62
7
  6
CONTINUOUS
 10
154.1987416972
 20
30.658327332
 11
154.0253041972
 21
30.7551187255
 12
154.5456166972
 22
30.7228544222
 13
154.5456166972
 23
30.7228544222
  0
SOLID
  8
0
 62
7
  6
CONTINUOUS
 10
154.8924916972
 20
30.7228544637
 11
155.1815540869
 21
30.7873815123
 12
155.412804528
 22
30.7551187255
 13
155.412804528
 23
30.7551187255
  0
SOLID
  8
0
 62
7
  6
CONTINUOUS
 10
155.412804528
 20
30.7551187255
 11
155.3549915869
 21
30.6905916353
 12
154.8924916972
 22
30.7228544637
 13
154.8924916972
 23
30.7228544637
  0
SOLID
  8
0
 62
7
  6
CONTINUOUS
 10
155.3549915869
 20
30.6905916353
 11
154.1987416972
 21
30.658327332
 12
154.8924916972
 22
30.7228544637
 13
154.8924916972
 23
30.7228544637
  0
SOLID
  8
0
 62
7
  6
CONTINUOUS
 10
154.1987416972
 20
30.658327332
 11
154.5456166972
 21
30.7228544637
 12
154.8924916972
 22
30.7228544637
 13
154.8924916972
 23
30.7228544637
  0
SOLID
  8
0
 62
7
  6
CONTINUOUS
 10
154.1987416972
 20
30.658327332
 11
155.3549915869
 21
30.6905916353
 12
154.3143669177
 22
30.6260630541
 13
154.3143669177
 23
30.6260630541
  0
SOLID
  8
0
 62
7
  6
CONTINUOUS
 10
155.3549915869
 20
30.6905916353
 11
155.1815540869
 21
30.6260630541
 12
154.3143669177
 22
30.6260630541
 13
154.3143669177
 23
30.6260630541
  0
SOLID
  8
0
 62
7
  6
CONTINUOUS
 10
154.5456166972
 20
30.5938002188
 11
154.3143669177
 21
30.6260630541
 12
155.1815540869
 22
30.6260630541
 13
155.1815540869
 23
30.6260630541
  0
SOLID
  8
0
 62
7
  6
CONTINUOUS
 10
155.1815540869
 20
30.6260630541
 11
154.8924916972
 21
30.5938002188
 12
154.5456166972
 22
30.5938002188
 13
154.5456166972
 23
30.5938002188
  0
SOLID
  8
0
 62
7
  6
CONTINUOUS
 10
159.575304528
 20
30.7551187255
 11
159.228429528
 21
30.7228544637
 12
159.4596793074
 22
30.7873815123
 13
159.4596793074
 23
30.7873815123
  0
SOLID
  8
0
 62
7
  6
CONTINUOUS
 10
159.4596793074
 20
30.7873815123
 11
159.228429528
 21
30.7228544637
 12
159.401867028
 22
30.851908644
 13
159.401867028
 23
30.851908644
  0
SOLID
  8
0
 62
7
  6
CONTINUOUS
 10
159.228429528
 20
30.7228544637
 11
159.1128043074
 21
30.851908644
 12
159.401867028
 22
30.851908644
 13
159.401867028
 23
30.851908644
  0
SOLID
  8
0
 62
7
  6
CONTINUOUS
 10
159.575304528
 20
30.7551187255
 11
159.922179528
 21
30.7228544637
 12
159.228429528
 22
30.7228544637
 13
159.228429528
 23
30.7228544637
  0
SOLID
  8
0
 62
7
  6
CONTINUOUS
 10
156.279992028
 20
30.5938002419
 11
156.279992028
 21
31.6262382337
 12
156.5690540869
 22
30.5938002419
 13
156.5690540869
 23
31.6262382337
  0
ENDBLK
  8
0
  6
BYBLOCK
 62
0
  0
BLOCK
  8
0
 62
2
  6
CONTINUOUS
  2
SYMBOL_3_BL0
 70
64
 10
32.1213064866
 20
19.8534310916
  0
TEXT
  8
0
 62
7
  6
CONTINUOUS
 10
18.3860103289
 20
19.2268451992
  7
TEXTSTYLE_3
 40
2.7338706658
  1
Ammeraal Beltech
 41
1.0
 51
15.0
 72
0
  0
TEXT
  8
0
 62
7
  6
CONTINUOUS
 10
29.1868111546
 20
16.9533085264
  7
TEXTSTYLE_4
 40
1.0935482663
  1
Innovation & Service in Belting
 41
1.0
 72
0
  0
LINE
  8
0
 62
7
  6
CONTINUOUS
 10
12.3614696776
 20
19.9934385078
 11
13.1396216709
 21
23.6543558055
  0
LINE
  8
0
 62
7
  6
CONTINUOUS
 10
23.2347899607
 20
27.3177497171
 11
13.6274394139
 21
24.1961322958
  0
LINE
  8
0
 62
7
  6
CONTINUOUS
 10
12.5867530099
 20
19.3000877048
 11
20.093828271
 21
12.5406867788
  0
LINE
  8
0
 62
7
  6
CONTINUOUS
 10
12.8492874206
 20
20.5352149982
 11
23.6575567857
 21
24.0470345971
  0
LINE
  8
0
 62
7
  6
CONTINUOUS
 10
23.6533516486
 20
13.6972460334
 11
15.2078919798
 21
21.3015720751
  0
LINE
  8
0
 62
7
  6
CONTINUOUS
 10
24.1731743684
 20
26.4728246013
 11
23.1966148312
 21
21.8784731989
  0
LINE
  8
0
 62
7
  6
CONTINUOUS
 10
22.4968128835
 20
18.5861638851
 11
21.810364672
 21
15.3566789607
  0
LINE
  8
0
 62
7
  6
CONTINUOUS
 10
24.8542704669
 20
14.087448211
 11
25.8105020025
 21
18.5861638851
  0
LINE
  8
0
 62
7
  6
CONTINUOUS
 10
26.5103039502
 20
21.8784731989
 11
26.9545457526
 21
23.9684665583
  0
LINE
  8
0
 62
7
  6
CONTINUOUS
 10
20.8069293463
 20
12.3891124661
 11
24.3664527239
 21
13.5456717207
  0
LINE
  8
0
 62
7
  6
CONTINUOUS
 10
23.9478910361
 20
27.1661754044
 11
26.7292624203
 21
24.6618173613
  0
ARC
  8
0
 62
7
  6
CONTINUOUS
 10
13.8527227462
 20
23.5027814928
 40
0.7290321776
 50
108.0
 51
168.0
  0
ARC
  8
0
 62
7
  6
CONTINUOUS
 10
23.4600732931
 20
26.624398914
 40
0.7290321776
 50
348.0
 51
108.0
  0
ARC
  8
0
 62
7
  6
CONTINUOUS
 10
26.2414446773
 20
24.120040871
 40
0.7290321776
 50
348.0
 51
48.0
  0
ARC
  8
0
 62
7
  6
CONTINUOUS
 10
20.581646014
 20
13.0824632691
 40
0.7290321776
 50
228.0
 51
288.0
  0
ARC
  8
0
 62
7
  6
CONTINUOUS
 10
13.0745707529
 20
19.8418641951
 40
0.7290321776
 50
108.0
 51
228.0
  0
ARC
  8
0
 62
7
  6
CONTINUOUS
 10
24.1411693916
 20
14.2390225237
 40
0.7290321776
 50
228.0
 51
348.0
  0
ENDBLK
  8
0
  6
BYBLOCK
 62
0
  0
ENDSEC
  0
SECTION
  2
ENTITIES
  0
TEXT
  8
0
 62
5
  6
CONTINUOUS
 10
96.0
 20
25.636
  7
TEXTSTYLE_2
 40
2.8
  1
Scale :
 41
0.6
 51
0.000019
 72
0
  0
TEXT
  8
0
 62
5
  6
CONTINUOUS
 10
116.0
 20
25.636
  7
TEXTSTYLE_2
 40
2.8
  1
Belt type:
 41
0.6
 51
0.000019
 72
0
  0
INSERT
  8
0
 62
2
  6
CONTINUOUS
  2
SYMBOL_3_BL0
 10
32.1213064866
 20
19.8534310916
  0
INSERT
  8
0
 62
2
  6
CONTINUOUS
  2
SYMBOL_8_BL1
 10
173.5956734183
 20
35.5937998301
  0
LINE
  8
0
 62
2
  6
CONTINUOUS
 10
10.0
 20
30.0
 11
200.0
 21
30.0
  0
LINE
  8
0
 62
2
  6
CONTINUOUS
 10
10.0
 20
30.0
 11
10.0
 21
10.0
  0
LINE
  8
0
 62
2
  6
CONTINUOUS
 10
10.0
 20
10.0
 11
200.0
 21
10.0
  0
LINE
  8
0
 62
2
  6
CONTINUOUS
 10
95.0
 20
30.0
 11
95.0
 21
10.0
  0
LINE
  8
0
 62
2
  6
CONTINUOUS
 10
115.0
 20
30.0
 11
115.0
 21
10.0
  0
LINE
  8
0
 62
2
  6
CONTINUOUS
 10
200.0
 20
30.0
 11
200.0
 21
10.0
  0
TEXT
  8
0
 62
5
  6
CONTINUOUS
 10
13.0
 20
23.303
  7
TEXTSTYLE_5
 40
1.52
  1
                                                                     Ammeraal Beltech Modular A/S
 41
1.0
 72
0
  0
TEXT
  8
0
 62
5
  6
CONTINUOUS
 10
13.0
 20
20.595
  7
TEXTSTYLE_5
 40
1.5
  1
                                                                      Hjulmagervej 21,  7100 Vejle,  DK
 41
1.0
 72
0
  0
TEXT
  8
0
 62
5
  6
CONTINUOUS
 10
13.0
 20
17.881
  7
TEXTSTYLE_5
 40
1.495
  1
                                                                      tel: 
 41
1.0
 72
0
  0
TEXT
  8
0
 62
5
  6
CONTINUOUS
 10
57.9869465649
 20
17.881
  7
TEXTSTYLE_5
 40
1.51
  1
+45 75723100     fax: +45 75723348
 41
1.0
 72
0
  0
TEXT
  8
0
 62
5
  6
CONTINUOUS
 10
13.0
 20
15.177
  7
TEXTSTYLE_5
 40
1.5
  1
                                                                      admin@unichains.dk  www.unichains.com
 41
1.0
 72
0
  0
TEXT
  8
0
 62
5
  6
CONTINUOUS
 10
99.75
 20
13.75
  7
TEXTSTYLE_6
 40
5.0
  1
1:1
 41
0.7
 72
1
 11
105.0
 21
13.75
  0
TEXT
  8
0
 62
5
  6
CONTINUOUS
 10
118.0
 20
13.75
  7
TEXTSTYLE_7
 40
7.5
  1
Sprocket Z15
 41
0.6361111111
 72
0
  0
LINE
  8
0
 62
7
  6
CONTINUOUS
 10
210.0
 20
0.0
 11
0.0
 21
0.0
  0
LINE
  8
0
 62
7
  6
CONTINUOUS
 10
10.0
 20
10.0
 11
200.0
 21
10.0
  0
LINE
  8
0
 62
7
  6
CONTINUOUS
 10
10.0
 20
30.0
 11
200.0
 21
30.0
  0
LINE
  8
0
 62
7
  6
CONTINUOUS
 10
0.0
 20
0.0
 11
0.0
 21
297.0
  0
LINE
  8
0
 62
7
  6
CONTINUOUS
 10
10.0
 20
10.0
 11
10.0
 21
287.0
  0
LINE
  8
0
 62
7
  6
CONTINUOUS
 10
200.0
 20
287.0
 11
200.0
 21
10.0
  0
LINE
  8
0
 62
7
  6
CONTINUOUS
 10
210.0
 20
0.0
 11
210.0
 21
297.0
  0
LINE
  8
0
 62
7
  6
CONTINUOUS
 10
10.0
 20
287.0
 11
200.0
 21
287.0
  0
LINE
  8
0
 62
7
  6
CONTINUOUS
 10
0.0
 20
297.0
 11
210.0
 21
297.0
  0
LINE
  8
0
 62
7
  6
CONTINUOUS
 10
84.1552150449
 20
164.1073647769
 11
84.5693576598
 21
164.0106986563
  0
LINE
  8
0
 62
7
  6
CONTINUOUS
 10
91.5101303258
 20
161.4854037377
 11
93.4493052068
 21
160.9959134099
  0
LINE
  8
0
 62
7
  6
CONTINUOUS
 10
93.0686583524
 20
161.5308763429
 11
91.5334757725
 21
161.9183901414
  0
LINE
  8
0
 62
7
  6
CONTINUOUS
 10
87.5789624315
 20
162.7111701191
 11
88.2075700629
 21
162.489148725
  0
LINE
  8
0
 62
7
  6
CONTINUOUS
 10
83.8523407547
 20
164.2465584716
 11
84.1552150449
 21
164.1073647769
  0
LINE
  8
0
 62
7
  6
CONTINUOUS
 10
84.4086338522
 20
164.459218644
 11
83.9543154846
 21
164.668012372
  0
LINE
  8
0
 62
7
  6
CONTINUOUS
 10
83.5617960942
 20
165.4103876079
 11
83.183192833
 21
165.5843845052
  0
LINE
  8
0
 62
7
  6
CONTINUOUS
 10
91.1269673979
 20
161.6698983371
 11
91.5101303258
 21
161.4854037377
  0
LINE
  8
0
 62
7
  6
CONTINUOUS
 10
83.5092768472
 20
164.4978861456
 11
83.8523407547
 21
164.2465584716
  0
LINE
  8
0
 62
7
  6
CONTINUOUS
 10
130.5782809165
 20
171.5526346397
 11
130.7606175709
 21
171.5947611255
  0
LINE
  8
0
 62
7
  6
CONTINUOUS
 10
84.5693576598
 20
164.0106986563
 11
85.0545720499
 21
164.0686972753
  0
LINE
  8
0
 62
7
  6
CONTINUOUS
 10
91.5826901951
 20
163.1348296464
 11
91.8459164283
 21
163.1561614257
  0
LINE
  8
0
 62
7
  6
CONTINUOUS
 10
92.0516940865
 20
163.6308737942
 11
91.6268724123
 21
163.6503322532
  0
LINE
  8
0
 62
7
  6
CONTINUOUS
 10
84.6713323897
 20
164.4321525568
 11
84.4086338522
 21
164.459218644
  0
LINE
  8
0
 62
7
  6
CONTINUOUS
 10
85.2755015025
 20
165.7467759783
 11
85.012802965
 21
165.7738420655
  0
LINE
  8
0
 62
7
  6
CONTINUOUS
 10
84.9308511702
 20
167.5911175951
 11
85.1935497077
 21
167.5640515078
  0
LINE
  8
0
 62
7
  6
CONTINUOUS
 10
84.7593841577
 20
165.4219881984
 11
85.1735267726
 21
165.3253220779
  0
LINE
  8
0
 62
7
  6
CONTINUOUS
 10
85.4469685399
 20
167.9159054291
 11
85.0328328542
 21
168.0125683569
  0
LINE
  8
0
 62
7
  6
CONTINUOUS
 10
91.8459164283
 20
163.1561614257
 11
93.3810990082
 21
162.7686476271
  0
LINE
  8
0
 62
7
  6
CONTINUOUS
 10
93.5060752472
 20
163.2637560483
 11
92.0516940865
 21
163.6308737942
  0
LINE
  8
0
 62
7
  6
CONTINUOUS
 10
94.4282858623
 20
164.8742631718
 11
93.9434921421
 21
164.9966357538
  0
LINE
  8
0
 62
7
  6
CONTINUOUS
 10
88.0647247845
 20
165.3376239677
 11
89.4790973505
 21
164.8380739255
  0
LINE
  8
0
 62
7
  6
CONTINUOUS
 10
89.6710418539
 20
165.1313151564
 11
88.0995191786
 21
165.6863699119
  0
LINE
  8
0
 62
7
  6
CONTINUOUS
 10
90.7969259654
 20
165.816763572
 11
90.3254684434
 21
165.9832802527
  0
LINE
  8
0
 62
7
  6
CONTINUOUS
 10
88.1253309428
 20
166.7603589431
 11
87.6538734208
 21
166.9268756239
  0
LINE
  8
0
 62
7
  6
CONTINUOUS
 10
84.3807878288
 20
165.5959819097
 11
84.7593841577
 21
165.4219881984
  0
LINE
  8
0
 62
7
  6
CONTINUOUS
 10
85.012802965
 20
165.7738420655
 11
84.4827625587
 21
166.0174358102
  0
LINE
  8
0
 62
7
  6
CONTINUOUS
 10
85.1935497077
 20
167.5640515078
 11
85.7235901141
 21
167.3204577632
  0
LINE
  8
0
 62
7
  6
CONTINUOUS
 10
85.8255648688
 20
167.7419117178
 11
85.4469685399
 21
167.9159054291
  0
LINE
  8
0
 62
7
  6
CONTINUOUS
 10
91.5334757725
 20
161.9183901414
 11
91.3119082855
 21
162.0620945026
  0
LINE
  8
0
 62
7
  6
CONTINUOUS
 10
84.0377308536
 20
165.8473063979
 11
84.3807878288
 21
165.5959819097
  0
LINE
  8
0
 62
7
  6
CONTINUOUS
 10
86.1686287733
 20
167.490584037
 11
85.8255648688
 21
167.7419117178
  0
LINE
  8
0
 62
7
  6
CONTINUOUS
 10
83.9543154846
 20
164.668012372
 11
83.7626956545
 21
164.8497400128
  0
LINE
  8
0
 62
7
  6
CONTINUOUS
 10
84.4827625587
 20
166.0174358102
 11
84.2911427286
 21
166.1991634509
  0
LINE
  8
0
 62
7
  6
CONTINUOUS
 10
85.7235901141
 20
167.3204577632
 11
85.9152099442
 21
167.1387301224
  0
LINE
  8
0
 62
7
  6
CONTINUOUS
 10
83.2372985795
 20
164.9038721872
 11
83.5092768472
 21
164.4978861456
  0
LINE
  8
0
 62
7
  6
CONTINUOUS
 10
84.969570281
 20
164.4824172463
 11
84.6713323897
 21
164.4321525568
  0
LINE
  8
0
 62
7
  6
CONTINUOUS
 10
85.1735267726
 20
165.3253220779
 11
85.7700025551
 21
165.4258514569
  0
LINE
  8
0
 62
7
  6
CONTINUOUS
 10
85.5737393938
 20
165.7970406678
 11
85.2755015025
 21
165.7467759783
  0
LINE
  8
0
 62
7
  6
CONTINUOUS
 10
84.632613279
 20
167.5408529055
 11
84.9308511702
 21
167.5911175951
  0
LINE
  8
0
 62
7
  6
CONTINUOUS
 10
134.7458147722
 20
172.9299501225
 11
135.1618833036
 21
172.9863867498
  0
LINE
  8
0
 62
7
  6
CONTINUOUS
 10
85.0328328542
 20
168.0125683569
 11
84.5476115225
 21
167.9545729036
  0
LINE
  8
0
 62
7
  6
CONTINUOUS
 10
131.6737430591
 20
170.2498678208
 11
132.0931865476
 21
170.2689800054
  0
LINE
  8
SQ
 62
2
  6
PHANTOM
 10
66.8801280962
 20
195.1429019185
 11
92.3814513492
 21
169.6415786655
  0
LINE
  8
0
 62
7
  6
CONTINUOUS
 10
90.8662572381
 20
161.9990348914
 11
91.1269673979
 21
161.6698983371
  0
LINE
  8
0
 62
7
  6
CONTINUOUS
 10
83.7657456535
 20
166.2532956254
 11
84.0377308536
 21
165.8473063979
  0
LINE
  8
0
 62
7
  6
CONTINUOUS
 10
86.4406070317
 20
167.084597975
 11
86.1686287733
 21
167.490584037
  0
LINE
  8
0
 62
7
  6
CONTINUOUS
 10
83.7626956545
 20
164.8497400128
 11
83.6066151781
 21
165.1087984303
  0
LINE
  8
0
 62
7
  6
CONTINUOUS
 10
84.2911427286
 20
166.1991634509
 11
84.1350622522
 21
166.4582218684
  0
LINE
  8
0
 62
7
  6
CONTINUOUS
 10
85.9152099442
 20
167.1387301224
 11
86.0712904205
 21
166.8796717049
  0
LINE
  8
SQ
 62
2
  6
PHANTOM
 10
66.8801280962
 20
216.8056009707
 11
92.3814513492
 21
242.3069242236
  0
LINE
  8
SQ
 62
2
  6
PHANTOM
 10
100.4683948794
 20
248.1311260541
 11
96.2257541923
 21
243.888485367
  0
LINE
  8
SQ
 62
2
  6
PHANTOM
 10
61.0559262658
 20
208.7186574404
 11
65.2985669529
 21
212.9612981275
  0
LINE
  8
0
 62
7
  6
CONTINUOUS
 10
134.8584514016
 20
173.4054635426
 11
134.620234232
 21
173.4072413285
  0
LINE
  8
0
 62
7
  6
CONTINUOUS
 10
133.6511888573
 20
174.6053618047
 11
133.4129716877
 21
174.6071395906
  0
LINE
  8
0
 62
7
  6
CONTINUOUS
 10
131.8283311882
 20
170.7134436327
 11
131.5912214344
 21
170.7364554787
  0
LINE
  8
0
 62
7
  6
CONTINUOUS
 10
130.7328690456
 20
172.0162104516
 11
130.4957592918
 21
172.0392222977
  0
LINE
  8
0
 62
7
  6
CONTINUOUS
 10
134.3281272436
 20
172.9926130588
 11
134.7458147722
 21
172.9299501225
  0
LINE
  8
0
 62
7
  6
CONTINUOUS
 10
131.2633067887
 20
170.3495251492
 11
131.6737430591
 21
170.2498678208
  0
LINE
  8
SQ
 62
2
  6
PHANTOM
 10
96.2257541923
 20
168.0600175222
 11
100.4683948794
 21
163.8173768351
  0
LINE
  8
SQ
 62
2
  6
PHANTOM
 10
65.2985669529
 20
198.9872047616
 11
61.0559262658
 21
203.2298454488
  0
LINE
  8
0
 62
7
  6
CONTINUOUS
 10
91.3119082855
 20
162.0620945026
 11
91.1919715909
 21
162.2679208812
  0
LINE
  8
0
 62
7
  6
CONTINUOUS
 10
90.7071778707
 20
162.3902934632
 11
90.8662572381
 21
161.9990348914
  0
LINE
  8
0
 62
7
  6
CONTINUOUS
 10
83.6452045309
 20
166.5896848197
 11
83.7657456535
 21
166.2532956254
  0
LINE
  8
0
 62
7
  6
CONTINUOUS
 10
84.1350622522
 20
166.4582218684
 11
84.0547038146
 21
166.6824802693
  0
LINE
  8
0
 62
7
  6
CONTINUOUS
 10
83.1522968105
 20
165.3175921583
 11
83.2372985795
 21
164.9038721872
  0
LINE
  8
0
 62
7
  6
CONTINUOUS
 10
136.0830540532
 20
176.8863416482
 11
136.5046400955
 21
176.860754071
  0
LINE
  8
0
 62
7
  6
CONTINUOUS
 10
136.8729370319
 20
179.6982537662
 11
136.4513509667
 21
179.7238413624
  0
LINE
  8
0
 62
7
  6
CONTINUOUS
 10
136.4028799522
 20
177.2706740491
 11
136.1000181263
 21
177.3058805368
  0
LINE
  8
0
 62
7
  6
CONTINUOUS
 10
133.1208646993
 20
174.1925113209
 11
133.5385522279
 21
174.1298483846
  0
LINE
  8
0
 62
7
  6
CONTINUOUS
 10
130.1678446462
 20
171.6522919682
 11
130.5782809165
 21
171.5526346397
  0
LINE
  8
0
 62
7
  6
CONTINUOUS
 10
86.5256087881
 20
166.6708779769
 11
86.4406070317
 21
167.084597975
  0
LINE
  8
0
 62
7
  6
CONTINUOUS
 10
83.6066151781
 20
165.1087984303
 11
83.5617960942
 21
165.4103876079
  0
LINE
  8
0
 62
7
  6
CONTINUOUS
 10
86.0712904205
 20
166.8796717049
 11
86.1161094796
 21
166.5780824731
  0
LINE
  8
0
 62
7
  6
CONTINUOUS
 10
83.6714641544
 20
167.0459355508
 11
83.6452045309
 21
166.5896848197
  0
LINE
  8
0
 62
7
  6
CONTINUOUS
 10
136.553111133
 20
179.3139213653
 11
136.921393718
 21
179.2242793273
  0
LINE
  8
0
 62
7
  6
CONTINUOUS
 10
137.2412196169
 20
179.6086117282
 11
136.8729370319
 21
179.6982537662
  0
LINE
  8
0
 62
7
  6
CONTINUOUS
 10
135.6493555893
 20
177.0304251009
 11
136.0830540532
 21
176.8863416482
  0
LINE
  8
0
 62
7
  6
CONTINUOUS
 10
90.688864571
 20
162.6582437265
 11
90.7071778707
 21
162.3902934632
  0
LINE
  8
0
 62
7
  6
CONTINUOUS
 10
91.1919715909
 20
162.2679208812
 11
91.1736582912
 21
162.5358711446
  0
LINE
  8
0
 62
7
  6
CONTINUOUS
 10
87.6538734208
 20
166.9268756239
 11
87.5789624315
 21
162.7111701191
  0
LINE
  8
0
 62
7
  6
CONTINUOUS
 10
88.0066428898
 20
162.9211504688
 11
88.0647247845
 21
165.3376239677
  0
LINE
  8
0
 62
7
  6
CONTINUOUS
 10
88.0995191786
 20
165.6863699119
 11
88.1253309428
 21
166.7603589431
  0
LINE
  8
0
 62
7
  6
CONTINUOUS
 10
86.4993491397
 20
166.2146271916
 11
86.5256087881
 21
166.6708779769
  0
LINE
  8
0
 62
7
  6
CONTINUOUS
 10
86.9456595262
 20
149.3691466207
 11
86.8625410823
 21
148.1301651472
  0
LINE
  8
0
 62
7
  6
CONTINUOUS
 10
83.183192833
 20
165.5843845052
 11
83.1522968105
 21
165.3175921583
  0
LINE
  8
0
 62
7
  6
CONTINUOUS
 10
84.0547038146
 20
166.6824802693
 11
84.0855998868
 21
166.9492727246
  0
LINE
  8
0
 62
7
  6
CONTINUOUS
 10
86.1161094796
 20
166.5780824731
 11
86.0852134571
 21
166.3112901262
  0
LINE
  8
0
 62
7
  6
CONTINUOUS
 10
99.2462952733
 20
265.9537158319
 11
99.0699986468
 21
264.72452778
  0
LINE
  8
0
 62
7
  6
CONTINUOUS
 10
65.32865747
 20
160.8793575181
 11
64.7487858278
 21
159.7812989377
  0
LINE
  8
0
 62
7
  6
CONTINUOUS
 10
123.9850636983
 20
262.3815418607
 11
123.324052894
 21
261.3303289974
  0
LINE
  8
0
 62
7
  6
CONTINUOUS
 10
50.2621679752
 20
180.1868852496
 11
49.2858082095
 21
179.4196138665
  0
LINE
  8
0
 62
7
  6
CONTINUOUS
 10
145.132119171
 20
249.0560349324
 11
144.1006889621
 21
248.3645615117
  0
LINE
  8
0
 62
7
  6
CONTINUOUS
 10
147.8973119339
 20
200.7250961325
 11
147.5506262121
 21
200.6736868248
  0
LINE
  8
0
 62
7
  6
CONTINUOUS
 10
162.4490787458
 20
195.7599135353
 11
161.2081962992
 21
195.7130678183
  0
LINE
  8
0
 62
7
  6
CONTINUOUS
 10
146.0906453257
 20
192.0237691041
 11
146.3590543297
 21
192.0332035755
  0
LINE
  8
0
 62
7
  6
CONTINUOUS
 10
146.415619009
 20
192.537230888
 11
146.1472097759
 21
192.5277964826
  0
LINE
  8
0
 62
7
  6
CONTINUOUS
 10
144.4549730986
 20
192.4947419929
 11
144.7233822172
 21
192.5041764312
  0
LINE
  8
0
 62
7
  6
CONTINUOUS
 10
144.7799468965
 20
193.0082037437
 11
144.5115377779
 21
192.9987693054
  0
LINE
  8
0
 62
7
  6
CONTINUOUS
 10
45.2174054513
 20
195.7130678183
 11
43.9765230048
 21
195.7599135353
  0
LINE
  8
0
 62
7
  6
CONTINUOUS
 10
136.1000181263
 20
177.3058805368
 11
135.8504572719
 21
177.4051385912
  0
LINE
  8
0
 62
7
  6
CONTINUOUS
 10
153.1732879391
 20
172.5494246354
 11
152.0206315468
 21
173.0113413041
  0
LINE
  8
0
 62
7
  6
CONTINUOUS
 10
46.0577714394
 20
220.1890462013
 11
44.9432227866
 21
220.7365542541
  0
LINE
  8
0
 62
7
  6
CONTINUOUS
 10
134.0882937659
 20
173.1134931139
 11
134.3281272436
 21
172.9926130588
  0
LINE
  8
0
 62
7
  6
CONTINUOUS
 10
134.620234232
 20
173.4072413285
 11
134.3804005851
 21
173.5281215517
  0
LINE
  8
0
 62
7
  6
CONTINUOUS
 10
132.881031137
 20
174.3133914601
 11
133.1208646993
 21
174.1925113209
  0
LINE
  8
0
 62
7
  6
CONTINUOUS
 10
133.4129716877
 20
174.6071395906
 11
133.1731381254
 21
174.7280197298
  0
LINE
  8
0
 62
7
  6
CONTINUOUS
 10
131.0352071727
 20
170.4913089634
 11
131.2633067887
 21
170.3495251492
  0
LINE
  8
0
 62
7
  6
CONTINUOUS
 10
131.5912214344
 20
170.7364554787
 11
131.3631216649
 21
170.8782394754
  0
LINE
  8
0
 62
7
  6
CONTINUOUS
 10
129.9397449534
 20
171.7940758736
 11
130.1678446462
 21
171.6522919682
  0
LINE
  8
0
 62
7
  6
CONTINUOUS
 10
130.4957592918
 20
172.0392222977
 11
130.2676595991
 21
172.1810062031
  0
LINE
  8
0
 62
7
  6
CONTINUOUS
 10
135.2588750423
 20
155.1183919458
 11
134.3937494661
 21
156.0092014119
  0
LINE
  8
0
 62
7
  6
CONTINUOUS
 10
55.9852619824
 20
243.1606587058
 11
56.7807612541
 21
242.2071574336
  0
LINE
  8
0
 62
7
  6
CONTINUOUS
 10
111.3753981041
 20
147.6464725886
 11
111.8034047926
 21
146.4807993745
  0
LINE
  8
0
 62
7
  6
CONTINUOUS
 10
75.1933717015
 20
259.1548955142
 11
75.5322725411
 21
257.9602700547
  0
LINE
  8
0
 62
7
  6
CONTINUOUS
 10
146.1491940589
 20
203.0639264553
 11
146.4958797807
 21
203.115335763
  0
LINE
  8
0
 62
7
  6
CONTINUOUS
 10
147.5042655285
 20
200.1758407773
 11
147.9356912303
 21
200.2193588837
  0
LINE
  8
0
 62
7
  6
CONTINUOUS
 10
146.5422404643
 20
203.6131818105
 11
146.1108149999
 21
203.569663682
  0
LINE
  8
1_AXIS
 62
2
  6
CONTINUOUS
 10
103.2128008753
 20
206.8542514446
 11
103.2128008753
 21
205.0942514446
  0
LINE
  8
1_AXIS
 62
2
  6
CENTER
 10
103.2128008753
 20
201.5742514446
 11
103.2128008753
 21
143.2242514446
  0
LINE
  8
1_AXIS
 62
2
  6
CENTER
 10
103.2128008753
 20
210.3742514446
 11
103.2128008753
 21
268.7242514446
  0
LINE
  8
0
 62
7
  6
CONTINUOUS
 10
90.772182122
 20
162.9883162385
 11
90.688864571
 21
162.6582437265
  0
LINE
  8
0
 62
7
  6
CONTINUOUS
 10
91.1736582912
 20
162.5358711446
 11
91.2361464691
 21
162.7834255864
  0
LINE
  8
0
 62
7
  6
CONTINUOUS
 10
86.3262956526
 20
165.6385116293
 11
86.4993491397
 21
166.2146271916
  0
LINE
  8
0
 62
7
  6
CONTINUOUS
 10
83.8491609728
 20
167.4325895429
 11
83.6714641544
 21
167.0459355508
  0
LINE
  8
0
 62
7
  6
CONTINUOUS
 10
84.0855998868
 20
166.9492727246
 11
84.1922179479
 21
167.1812650548
  0
LINE
  8
0
 62
7
  6
CONTINUOUS
 10
145.1998498271
 20
212.727265566
 11
147.3740773874
 21
213.138443535
  0
LINE
  8
0
 62
7
  6
CONTINUOUS
 10
147.2966520309
 20
213.5478534659
 11
145.4569210499
 21
213.1999336519
  0
LINE
  8
0
 62
7
  6
CONTINUOUS
 10
145.3144679564
 20
214.8692020668
 11
146.9869506771
 21
215.1854928088
  0
LINE
  8
0
 62
7
  6
CONTINUOUS
 10
145.0817716032
 20
209.4885652046
 11
146.6887498669
 21
209.6685063521
  0
LINE
  8
0
 62
7
  6
CONTINUOUS
 10
146.6423834718
 20
210.0825850113
 11
145.0354052081
 21
209.9026438639
  0
LINE
  8
0
 62
7
  6
CONTINUOUS
 10
144.8684861221
 20
211.3933276059
 11
146.8137755493
 21
211.6111510946
  0
LINE
  8
0
 62
7
  6
CONTINUOUS
 10
147.1520867128
 20
211.6490334359
 11
147.5749756673
 21
211.6963863624
  0
LINE
  8
0
 62
7
  6
CONTINUOUS
 10
145.1428410544
 20
208.4063561546
 11
147.8608596799
 21
208.5775432444
  0
LINE
  8
0
 62
7
  6
CONTINUOUS
 10
148.7102406639
 20
208.6310392203
 11
149.134931037
 21
208.6577872007
  0
LINE
  8
0
 62
7
  6
CONTINUOUS
 10
149.108740313
 20
209.0736297486
 11
148.68404994
 21
209.0468817682
  0
LINE
  8
0
 62
7
  6
CONTINUOUS
 10
147.8346689559
 20
208.9933857923
 11
145.1166503304
 21
208.8221987025
  0
LINE
  8
1_AXIS
 62
2
  6
CONTINUOUS
 10
104.0928008753
 20
205.9742514446
 11
102.3328008753
 21
205.9742514446
  0
LINE
  8
1_AXIS
 62
2
  6
CENTER
 10
98.8128008753
 20
205.9742514446
 11
40.4628008753
 21
205.9742514446
  0
LINE
  8
1_AXIS
 62
2
  6
CENTER
 10
107.6128008753
 20
205.9742514446
 11
165.9628008753
 21
205.9742514446
  0
LINE
  8
0
 62
7
  6
CONTINUOUS
 10
146.2331692698
 20
200.294208477
 11
147.5042655285
 21
200.1758407773
  0
LINE
  8
0
 62
7
  6
CONTINUOUS
 10
147.5506262121
 20
200.6736868248
 11
146.2795299534
 21
200.7920545245
  0
LINE
  8
0
 62
7
  6
CONTINUOUS
 10
144.1603886669
 20
196.4835806942
 11
148.0898392015
 21
195.7356378513
  0
LINE
  8
0
 62
7
  6
CONTINUOUS
 10
148.1833320569
 20
196.2268191681
 11
144.8391188247
 21
196.8633662706
  0
LINE
  8
0
 62
7
  6
CONTINUOUS
 10
144.0460551278
 20
192.6124851903
 11
144.4549730986
 21
192.4947419929
  0
LINE
  8
0
 62
7
  6
CONTINUOUS
 10
145.7635107199
 20
192.1179637281
 11
146.0906453257
 21
192.0237691041
  0
LINE
  8
0
 62
7
  6
CONTINUOUS
 10
146.1472097759
 20
192.5277964826
 11
145.9836425875
 21
192.5748937616
  0
LINE
  8
0
 62
7
  6
CONTINUOUS
 10
144.5115377779
 20
192.9987693054
 11
144.2661869954
 21
193.0694152238
  0
LINE
  8
0
 62
7
  6
CONTINUOUS
 10
144.3519366886
 20
195.2127021591
 11
145.578690773
 21
194.8594725173
  0
LINE
  8
0
 62
7
  6
CONTINUOUS
 10
146.069392338
 20
194.7181806804
 11
147.2143628854
 21
194.3884996616
  0
LINE
  8
0
 62
7
  6
CONTINUOUS
 10
137.8386714518
 20
182.1451334237
 11
138.2704713801
 21
181.8725526249
  0
LINE
  8
0
 62
7
  6
CONTINUOUS
 10
140.7173377076
 20
180.3279280557
 11
141.2211042318
 21
180.0099171608
  0
LINE
  8
0
 62
7
  6
CONTINUOUS
 10
136.8414672466
 20
180.8075512619
 11
140.0722731702
 21
178.4491846484
  0
LINE
  8
0
 62
7
  6
CONTINUOUS
 10
139.81714465
 20
179.2544594454
 11
137.1362630733
 21
181.2114020024
  0
LINE
  8
0
 62
7
  6
CONTINUOUS
 10
140.18068102
 20
179.6081321788
 11
139.6307564805
 21
180.0095563759
  0
LINE
  8
0
 62
7
  6
CONTINUOUS
 10
135.3876824965
 20
177.2481788785
 11
135.6493555893
 21
177.0304251009
  0
LINE
  8
0
 62
7
  6
CONTINUOUS
 10
137.3914197006
 20
175.7975726078
 11
137.7185110666
 21
175.5253803859
  0
LINE
  8
0
 62
7
  6
CONTINUOUS
 10
135.8504572719
 20
177.4051385912
 11
135.7196207254
 21
177.51401548
  0
LINE
  8
0
 62
7
  6
CONTINUOUS
 10
132.5792155432
 20
174.6133659836
 11
132.881031137
 21
174.3133914601
  0
LINE
  8
0
 62
7
  6
CONTINUOUS
 10
133.8468411217
 20
173.3534729008
 11
134.0882937659
 21
173.1134931139
  0
LINE
  8
0
 62
7
  6
CONTINUOUS
 10
134.3804005851
 20
173.5281215517
 11
134.2596743476
 21
173.6481113611
  0
LINE
  8
0
 62
7
  6
CONTINUOUS
 10
133.1731381254
 20
174.7280197298
 11
132.9920487691
 21
174.9080044439
  0
LINE
  8
0
 62
7
  6
CONTINUOUS
 10
129.6658794562
 20
172.1197675327
 11
129.9397449534
 21
171.7940758736
  0
LINE
  8
0
 62
7
  6
CONTINUOUS
 10
130.8161146215
 20
170.7518624732
 11
131.0352071727
 21
170.4913089634
  0
LINE
  8
0
 62
7
  6
CONTINUOUS
 10
131.3631216649
 20
170.8782394754
 11
131.253575466
 21
171.0085161391
  0
LINE
  8
0
 62
7
  6
CONTINUOUS
 10
130.2676595991
 20
172.1810062031
 11
130.1033403007
 21
172.3764211986
  0
LINE
  8
0
 62
7
  6
CONTINUOUS
 10
93.9434921421
 20
164.9966357538
 11
93.5060752472
 21
163.2637560483
  0
LINE
  8
0
 62
7
  6
CONTINUOUS
 10
93.3810990082
 20
162.7686476271
 11
93.0686583524
 21
161.5308763429
  0
LINE
  8
0
 62
7
  6
CONTINUOUS
 10
93.4493052068
 20
160.9959134099
 11
94.4282858623
 21
164.8742631718
  0
LINE
  8
0
 62
7
  6
CONTINUOUS
 10
86.0852134571
 20
166.3112901262
 11
85.978595396
 21
166.0792977959
  0
LINE
  8
0
 62
7
  6
CONTINUOUS
 10
85.7700025551
 20
165.4258514569
 11
85.6989238477
 21
165.2711899034
  0
LINE
  8
0
 62
7
  6
CONTINUOUS
 10
86.0775201766
 20
165.097196192
 11
86.3262956526
 21
165.6385116293
  0
LINE
  8
0
 62
7
  6
CONTINUOUS
 10
146.9095253372
 20
215.5949026519
 11
145.2370426165
 21
215.2786119098
  0
LINE
  8
0
 62
7
  6
CONTINUOUS
 10
147.5286092456
 20
212.1104652586
 11
144.8221197004
 21
211.8074065021
  0
LINE
  8
0
 62
7
  6
CONTINUOUS
 10
146.4958797807
 20
203.115335763
 11
147.7669760394
 21
202.9969680633
  0
LINE
  8
0
 62
7
  6
CONTINUOUS
 10
147.813336723
 20
203.4948141108
 11
146.5422404643
 21
203.6131818105
  0
LINE
  8
0
 62
7
  6
CONTINUOUS
 10
144.6901814545
 20
199.2669411772
 11
148.1180000658
 21
198.614480388
  0
LINE
  8
0
 62
7
  6
CONTINUOUS
 10
148.7131248445
 20
199.0101796511
 11
144.7836743099
 21
199.758122494
  0
LINE
  8
0
 62
7
  6
CONTINUOUS
 10
147.8434127239
 20
194.7276864977
 11
143.9995833398
 21
195.8344726856
  0
LINE
  8
0
 62
7
  6
CONTINUOUS
 10
145.8171973076
 20
200.416638398
 11
146.2331692698
 21
200.294208477
  0
LINE
  8
0
 62
7
  6
CONTINUOUS
 10
143.0004514569
 20
182.8286116817
 11
142.6406182253
 21
183.0557623209
  0
LINE
  8
0
 62
7
  6
CONTINUOUS
 10
140.1937518979
 20
184.6003868901
 11
139.618018677
 21
184.9638279446
  0
LINE
  8
0
 62
7
  6
CONTINUOUS
 10
137.8905531376
 20
178.5261954523
 11
138.9372456921
 21
177.6551801895
  0
LINE
  8
0
 62
7
  6
CONTINUOUS
 10
139.5308594539
 20
177.7032659457
 11
137.8299841674
 21
179.1186656524
  0
LINE
  8
0
 62
7
  6
CONTINUOUS
 10
134.0984945644
 20
176.7456120331
 11
135.0039414726
 21
175.8456883365
  0
LINE
  8
0
 62
7
  6
CONTINUOUS
 10
135.3661201851
 20
175.4857189082
 11
136.2112040169
 21
174.6457900743
  0
LINE
  8
0
 62
7
  6
CONTINUOUS
 10
136.9258528366
 20
174.6404540111
 11
134.0887859167
 21
177.4602148683
  0
LINE
  8
0
 62
7
  6
CONTINUOUS
 10
131.3692329636
 20
174.1080504071
 11
132.1908295705
 21
173.1309752929
  0
LINE
  8
0
 62
7
  6
CONTINUOUS
 10
132.5194681672
 20
172.7401453019
 11
133.2862917131
 21
171.8282084739
  0
LINE
  8
0
 62
7
  6
CONTINUOUS
 10
133.9976180549
 20
171.7591704807
 11
131.4232820735
 21
174.8206724413
  0
LINE
  8
0
 62
7
  6
CONTINUOUS
 10
85.7530226618
 20
164.5906807714
 11
86.0775201766
 21
165.097196192
  0
LINE
  8
0
 62
7
  6
CONTINUOUS
 10
85.6989238477
 20
165.2711899034
 11
85.4099656867
 21
164.8420052595
  0
LINE
  8
0
 62
7
  6
CONTINUOUS
 10
145.2370426165
 20
215.2786119098
 11
144.918031106
 21
215.1334717818
  0
LINE
  8
0
 62
7
  6
CONTINUOUS
 10
144.880838316
 20
212.5821255212
 11
145.1998498271
 21
212.727265566
  0
LINE
  8
0
 62
7
  6
CONTINUOUS
 10
147.055999126
 20
210.2127538593
 11
146.6423834718
 21
210.0825850113
  0
LINE
  8
0
 62
7
  6
CONTINUOUS
 10
146.6887498669
 20
209.6685063521
 11
147.1023655741
 21
209.7986747262
  0
LINE
  8
0
 62
7
  6
CONTINUOUS
 10
44.3513239502
 20
203.9532828671
 11
43.1472975345
 21
203.6494668738
  0
LINE
  8
0
 62
7
  6
CONTINUOUS
 10
159.0309436854
 20
228.2812962534
 11
157.8074377253
 21
228.0691243116
  0
LINE
  8
0
 62
7
  6
CONTINUOUS
 10
48.6181640253
 20
228.0691243116
 11
47.3946580651
 21
228.2812962534
  0
LINE
  8
0
 62
7
  6
CONTINUOUS
 10
163.278304216
 20
203.6494668738
 11
162.0742778003
 21
203.9532828671
  0
LINE
  8
0
 62
7
  6
CONTINUOUS
 10
148.2293089226
 20
203.3723841677
 11
147.813336723
 21
203.4948141108
  0
LINE
  8
0
 62
7
  6
CONTINUOUS
 10
146.2795299534
 20
200.7920545245
 11
145.9482977339
 21
200.9065932662
  0
LINE
  8
0
 62
7
  6
CONTINUOUS
 10
147.7669760394
 20
202.9969680633
 11
148.0982082589
 21
202.8824293216
  0
LINE
  8
0
 62
7
  6
CONTINUOUS
 10
61.2934825795
 20
249.0560349324
 11
62.3249127884
 21
248.3645615117
  0
LINE
  8
0
 62
7
  6
CONTINUOUS
 10
143.8237625095
 20
192.7632115151
 11
144.0460551278
 21
192.6124851903
  0
LINE
  8
0
 62
7
  6
CONTINUOUS
 10
144.2661869954
 20
193.0694152238
 11
144.0438944344
 21
193.2201415321
  0
LINE
  8
0
 62
7
  6
CONTINUOUS
 10
145.5412181589
 20
192.2686900363
 11
145.7635107199
 21
192.1179637281
  0
LINE
  8
0
 62
7
  6
CONTINUOUS
 10
157.139793541
 20
179.4196138665
 11
156.1634337753
 21
180.1868852496
  0
LINE
  8
0
 62
7
  6
CONTINUOUS
 10
135.7196207254
 20
177.51401548
 11
135.576671849
 21
177.7413881681
  0
LINE
  8
0
 62
7
  6
CONTINUOUS
 10
132.4568702661
 20
174.8524553987
 11
132.5792155432
 21
174.6133659836
  0
LINE
  8
0
 62
7
  6
CONTINUOUS
 10
129.5653404371
 20
172.3688137551
 11
129.6658794562
 21
172.1197675327
  0
LINE
  8
0
 62
7
  6
CONTINUOUS
 10
119.4799422243
 20
149.3691466207
 11
119.5630606682
 21
148.1301651472
  0
LINE
  8
0
 62
7
  6
CONTINUOUS
 10
131.232230049
 20
259.1548955142
 11
130.8933292095
 21
257.9602700547
  0
LINE
  8
0
 62
7
  6
CONTINUOUS
 10
95.0502036465
 20
147.6464725886
 11
94.622196958
 21
146.4807993745
  0
LINE
  8
0
 62
7
  6
CONTINUOUS
 10
90.9154716607
 20
163.2154743964
 11
90.772182122
 21
162.9883162385
  0
LINE
  8
0
 62
7
  6
CONTINUOUS
 10
91.2361464691
 20
162.7834255864
 11
91.3794360078
 21
163.0105837443
  0
LINE
  8
0
 62
7
  6
CONTINUOUS
 10
90.3254684434
 20
165.9832802527
 11
89.6710418539
 21
165.1313151564
  0
LINE
  8
0
 62
7
  6
CONTINUOUS
 10
89.4790973505
 20
164.8380739255
 11
88.0066428898
 21
162.9211504688
  0
LINE
  8
0
 62
7
  6
CONTINUOUS
 10
88.2075700629
 20
162.489148725
 11
90.7969259654
 21
165.816763572
  0
LINE
  8
0
 62
7
  6
CONTINUOUS
 10
150.4403397681
 20
243.1606587058
 11
149.6448404965
 21
242.2071574336
  0
LINE
  8
0
 62
7
  6
CONTINUOUS
 10
84.1922179479
 20
167.1812650548
 11
84.3745580478
 21
167.3784573685
  0
LINE
  8
0
 62
7
  6
CONTINUOUS
 10
85.978595396
 20
166.0792977959
 11
85.7962552463
 21
165.882105374
  0
LINE
  8
0
 62
7
  6
CONTINUOUS
 10
85.4099656867
 20
164.8420052595
 11
85.2276254872
 21
164.6448127292
  0
LINE
  8
0
 62
7
  6
CONTINUOUS
 10
72.0318522844
 20
156.0092014119
 11
71.1667267083
 21
155.1183919458
  0
LINE
  8
0
 62
7
  6
CONTINUOUS
 10
84.1782949114
 20
167.7496466335
 11
83.8491609728
 21
167.4325895429
  0
LINE
  8
0
 62
7
  6
CONTINUOUS
 10
145.0388003404
 20
213.1208609609
 11
144.6516497824
 21
212.8780242506
  0
LINE
  8
0
 62
7
  6
CONTINUOUS
 10
145.079080636
 20
214.7398764785
 11
145.3144679564
 21
214.8692020668
  0
LINE
  8
0
 62
7
  6
CONTINUOUS
 10
161.482378964
 20
220.7365542541
 11
160.3678303111
 21
220.1890462013
  0
LINE
  8
0
 62
7
  6
CONTINUOUS
 10
147.1023655741
 20
209.7986747262
 11
147.3468256465
 21
209.9099024035
  0
LINE
  8
0
 62
7
  6
CONTINUOUS
 10
54.4049702037
 20
173.0113413041
 11
53.2523138115
 21
172.5494246354
  0
LINE
  8
0
 62
7
  6
CONTINUOUS
 10
146.1108149999
 20
203.569663682
 11
145.7564023792
 21
203.4352794055
  0
LINE
  8
0
 62
7
  6
CONTINUOUS
 10
145.4936918683
 20
200.6141521195
 11
145.8171973076
 21
200.416638398
  0
LINE
  8
0
 62
7
  6
CONTINUOUS
 10
145.9836425875
 20
192.5748937616
 11
145.7613500265
 21
192.7256200699
  0
LINE
  8
0
 62
7
  6
CONTINUOUS
 10
82.4405380523
 20
262.3815418607
 11
83.1015488566
 21
261.3303289974
  0
LINE
  8
0
 62
7
  6
CONTINUOUS
 10
135.1671980909
 20
177.648479984
 11
135.3876824965
 21
177.2481788785
  0
LINE
  8
0
 62
7
  6
CONTINUOUS
 10
141.0969442805
 20
160.8793575181
 11
141.6768159228
 21
159.7812989377
  0
LINE
  8
0
 62
7
  6
CONTINUOUS
 10
132.9920487691
 20
174.9080044439
 11
132.8697035343
 21
175.147093817
  0
LINE
  8
0
 62
7
  6
CONTINUOUS
 10
133.7244958869
 20
173.5925622739
 11
133.8468411217
 21
173.3534729008
  0
LINE
  8
0
 62
7
  6
CONTINUOUS
 10
134.2596743476
 20
173.6481113611
 11
134.1373291128
 21
173.8872007342
  0
LINE
  8
0
 62
7
  6
CONTINUOUS
 10
130.1033403007
 20
172.3764211986
 11
130.00280132
 21
172.6254673753
  0
LINE
  8
0
 62
7
  6
CONTINUOUS
 10
130.7155756407
 20
171.0009086499
 11
130.8161146215
 21
170.7518624732
  0
LINE
  8
0
 62
7
  6
CONTINUOUS
 10
131.253575466
 20
171.0085161391
 11
131.1530364853
 21
171.2575623158
  0
LINE
  8
0
 62
7
  6
CONTINUOUS
 10
107.1793064772
 20
265.9537158319
 11
107.3556031038
 21
264.72452778
  0
LINE
  8
0
 62
7
  6
CONTINUOUS
 10
85.4238886486
 20
164.2736235183
 11
85.7530226618
 21
164.5906807714
  0
LINE
  8
0
 62
7
  6
CONTINUOUS
 10
144.8591783273
 20
214.5286688988
 11
145.079080636
 21
214.7398764785
  0
LINE
  8
0
 62
7
  6
CONTINUOUS
 10
144.918031106
 20
215.1334717818
 11
144.7662679145
 21
215.0199607368
  0
LINE
  8
0
 62
7
  6
CONTINUOUS
 10
144.7290751389
 20
212.4686143197
 11
144.880838316
 21
212.5821255212
  0
LINE
  8
0
 62
7
  6
CONTINUOUS
 10
84.3745580478
 20
167.3784573685
 11
84.632613279
 21
167.5408529055
  0
LINE
  8
0
 62
7
  6
CONTINUOUS
 10
145.8795212403
 20
202.921650994
 11
146.1491940589
 21
203.0639264553
  0
LINE
  8
0
 62
7
  6
CONTINUOUS
 10
147.9356912303
 20
200.2193588837
 11
148.2901037917
 21
200.3537431657
  0
LINE
  8
0
 62
7
  6
CONTINUOUS
 10
144.8391188247
 20
196.8633662706
 11
148.5728857398
 21
198.2734086128
  0
LINE
  8
0
 62
7
  6
CONTINUOUS
 10
148.1180000658
 20
198.614480388
 11
144.30062795
 21
197.2203526694
  0
LINE
  8
0
 62
7
  6
CONTINUOUS
 10
145.4569210499
 20
213.1999336519
 11
145.1750784715
 21
213.3162539349
  0
LINE
  8
0
 62
7
  6
CONTINUOUS
 10
148.5528143026
 20
203.1748704517
 11
148.2293089226
 21
203.3723841677
  0
LINE
  8
0
 62
7
  6
CONTINUOUS
 10
145.9482977339
 20
200.9065932662
 11
145.7095320966
 21
201.096215803
  0
LINE
  8
0
 62
7
  6
CONTINUOUS
 10
135.576671849
 20
177.7413881681
 11
135.4870239899
 21
178.0328123849
  0
LINE
  8
0
 62
7
  6
CONTINUOUS
 10
129.5375918926
 20
172.790263104
 11
129.5653404371
 21
172.3688137551
  0
LINE
  8
0
 62
7
  6
CONTINUOUS
 10
130.6878271154
 20
171.4223579761
 11
130.7155756407
 21
171.0009086499
  0
LINE
  8
0
 62
7
  6
CONTINUOUS
 10
132.8697035343
 20
175.147093817
 11
132.8664681866
 21
175.3852956919
  0
LINE
  8
0
 62
7
  6
CONTINUOUS
 10
130.00280132
 20
172.6254673753
 11
130.0208186376
 21
172.8630089022
  0
LINE
  8
0
 62
7
  6
CONTINUOUS
 10
144.7662679145
 20
215.0199607368
 11
144.5618506969
 21
214.7268712262
  0
LINE
  8
0
 62
7
  6
CONTINUOUS
 10
91.2411860135
 20
163.4843603863
 11
90.9154716607
 21
163.2154743964
  0
LINE
  8
0
 62
7
  6
CONTINUOUS
 10
145.7564023792
 20
203.4352794055
 11
145.3865362859
 21
203.1349470768
  0
LINE
  8
0
 62
7
  6
CONTINUOUS
 10
85.2276254872
 20
164.6448127292
 11
84.969570281
 21
164.4824172463
  0
LINE
  8
0
 62
7
  6
CONTINUOUS
 10
84.5476115225
 20
167.9545729036
 11
84.1782949114
 21
167.7496466335
  0
LINE
  8
0
 62
7
  6
CONTINUOUS
 10
85.0545720499
 20
164.0686972753
 11
85.4238886486
 21
164.2736235183
  0
LINE
  8
0
 62
7
  6
CONTINUOUS
 10
148.1669849899
 20
200.8673715717
 11
147.8973119339
 21
200.7250961325
  0
LINE
  8
0
 62
7
  6
CONTINUOUS
 10
144.7233822172
 20
192.5041764312
 11
145.1196907306
 21
192.6502212098
  0
LINE
  8
0
 62
7
  6
CONTINUOUS
 10
146.3590543297
 20
192.0332035755
 11
146.7553628431
 21
192.179248354
  0
LINE
  8
0
 62
7
  6
CONTINUOUS
 10
144.7414727231
 20
213.3190631391
 11
145.0388003404
 21
213.1208609609
  0
LINE
  8
0
 62
7
  6
CONTINUOUS
 10
148.0982082589
 20
202.8824293216
 11
148.3369741336
 21
202.6928067627
  0
LINE
  8
0
 62
7
  6
CONTINUOUS
 10
145.3396659736
 20
200.795883477
 11
145.4936918683
 21
200.6141521195
  0
LINE
  8
0
 62
7
  6
CONTINUOUS
 10
143.5658022409
 20
193.0976454178
 11
143.8237625095
 21
192.7632115151
  0
LINE
  8
0
 62
7
  6
CONTINUOUS
 10
145.2832579189
 20
192.6031239308
 11
145.5412181589
 21
192.2686900363
  0
LINE
  8
0
 62
7
  6
CONTINUOUS
 10
144.0438944344
 20
193.2201415321
 11
143.9264431041
 21
193.4273977743
  0
LINE
  8
0
 62
7
  6
CONTINUOUS
 10
135.0654379247
 20
178.0583999811
 11
135.1671980909
 21
177.648479984
  0
LINE
  8
0
 62
7
  6
CONTINUOUS
 10
139.6307564805
 20
180.0095563759
 11
139.81714465
 21
179.2544594454
  0
LINE
  8
0
 62
7
  6
CONTINUOUS
 10
132.3916528235
 20
175.269751721
 11
132.4568702661
 21
174.8524553987
  0
LINE
  8
0
 62
7
  6
CONTINUOUS
 10
133.6592784654
 20
174.0098585752
 11
133.7244958869
 21
173.5925622739
  0
LINE
  8
0
 62
7
  6
CONTINUOUS
 10
134.1373291128
 20
173.8872007342
 11
134.1340938074
 21
174.1254025671
  0
LINE
  8
0
 62
7
  6
CONTINUOUS
 10
131.1530364853
 20
171.2575623158
 11
131.1710538413
 21
171.495103797
  0
LINE
  8
0
 62
7
  6
CONTINUOUS
 10
135.4870239899
 20
178.0328123849
 11
135.5161003929
 21
178.3338554742
  0
LINE
  8
0
 62
7
  6
CONTINUOUS
 10
132.4455426264
 20
175.6861577923
 11
132.3916528235
 21
175.269751721
  0
LINE
  8
0
 62
7
  6
CONTINUOUS
 10
129.62839677
 20
173.2002052967
 11
129.5375918926
 21
172.790263104
  0
LINE
  8
0
 62
7
  6
CONTINUOUS
 10
144.5618506969
 20
214.7268712262
 11
144.4410576251
 21
214.4495962091
  0
LINE
  8
0
 62
7
  6
CONTINUOUS
 10
147.2066081603
 20
210.3973263989
 11
147.055999126
 21
210.2127538593
  0
LINE
  8
0
 62
7
  6
CONTINUOUS
 10
147.3468256465
 20
209.9099024035
 11
147.4974346809
 21
210.0944749431
  0
LINE
  8
SQ
 62
2
  6
PHANTOM
 10
145.3696754848
 20
203.2298454488
 11
141.1270347977
 21
198.9872047616
  0
LINE
  8
SQ
 62
2
  6
PHANTOM
 10
105.9572068711
 20
163.8173768351
 11
110.1998475582
 21
168.0600175222
  0
LINE
  8
SQ
 62
2
  6
PHANTOM
 10
114.0441504014
 20
169.6415786655
 11
139.5454736543
 21
195.1429019185
  0
LINE
  8
0
 62
7
  6
CONTINUOUS
 10
146.0332923499
 20
201.8193113365
 11
145.5709596448
 21
201.4438952155
  0
LINE
  8
0
 62
7
  6
CONTINUOUS
 10
145.1086270429
 20
201.0684800426
 11
144.9236939521
 21
200.9183134035
  0
LINE
  8
0
 62
7
  6
CONTINUOUS
 10
145.7095320966
 20
201.096215803
 11
145.9869316664
 21
201.321465289
  0
LINE
  8
0
 62
7
  6
CONTINUOUS
 10
144.8773332685
 20
200.420467356
 11
145.3396659736
 21
200.795883477
  0
LINE
  8
0
 62
7
  6
CONTINUOUS
 10
148.2901037917
 20
200.3537431657
 11
148.6599698553
 21
200.6540754972
  0
LINE
  8
0
 62
7
  6
CONTINUOUS
 10
91.3794360078
 20
163.0105837443
 11
91.5826901951
 21
163.1348296464
  0
LINE
  8
0
 62
7
  6
CONTINUOUS
 10
144.9896300001
 20
193.1212654115
 11
144.7799468965
 21
193.0082037437
  0
LINE
  8
0
 62
7
  6
CONTINUOUS
 10
146.6253021126
 20
192.6502925557
 11
146.415619009
 21
192.537230888
  0
LINE
  8
0
 62
7
  6
CONTINUOUS
 10
91.6268724123
 20
163.6503322532
 11
91.2411860135
 21
163.4843603863
  0
LINE
  8
0
 62
7
  6
CONTINUOUS
 10
85.7962552463
 20
165.882105374
 11
85.5737393938
 21
165.7970406678
  0
LINE
  8
0
 62
7
  6
CONTINUOUS
 10
146.8137755493
 20
211.6111510946
 11
147.001477705
 21
211.4644606594
  0
LINE
  8
0
 62
7
  6
CONTINUOUS
 10
147.3397888686
 20
211.5023430006
 11
147.1520867128
 21
211.6490334359
  0
LINE
  8
SQ
 62
2
  6
PHANTOM
 10
141.1270347977
 20
212.9612981275
 11
145.2572772166
 21
208.8310557086
  0
LINE
  8
SQ
 62
2
  6
PHANTOM
 10
110.1998475582
 20
243.888485367
 11
105.9572068711
 21
248.1311260541
  0
LINE
  8
SQ
 62
2
  6
PHANTOM
 10
114.0441504014
 20
242.3069242236
 11
139.5454736543
 21
216.8056009707
  0
LINE
  8
0
 62
7
  6
CONTINUOUS
 10
145.1750784715
 20
213.3162539349
 11
144.9613750061
 21
213.5302707746
  0
LINE
  8
0
 62
7
  6
CONTINUOUS
 10
148.8608661803
 20
202.8114086862
 11
148.5528143026
 21
203.1748704517
  0
LINE
  8
0
 62
7
  6
CONTINUOUS
 10
145.7613500265
 20
192.7256200699
 11
145.6438987534
 21
192.9328762955
  0
LINE
  8
0
 62
7
  6
CONTINUOUS
 10
143.4126832674
 20
193.4886092358
 11
143.5658022409
 21
193.0976454178
  0
LINE
  8
0
 62
7
  6
CONTINUOUS
 10
140.3670689969
 20
178.8530353888
 11
140.18068102
 21
179.6081321788
  0
LINE
  8
0
 62
7
  6
CONTINUOUS
 10
139.7829165724
 20
184.2684430483
 11
140.7173377076
 21
180.3279280557
  0
LINE
  8
0
 62
7
  6
CONTINUOUS
 10
141.0836900397
 20
180.5894056232
 11
140.1937518979
 21
184.6003868901
  0
LINE
  8
0
 62
7
  6
CONTINUOUS
 10
143.9264431041
 20
193.4273977743
 11
143.9138336466
 21
193.6911857503
  0
LINE
  8
0
 62
7
  6
CONTINUOUS
 10
137.4568523252
 20
178.6702758966
 11
137.4398906922
 21
178.2507399402
  0
LINE
  8
0
 62
7
  6
CONTINUOUS
 10
144.4410576251
 20
214.4495962091
 11
144.4193737573
 21
214.106253809
  0
LINE
  8
0
 62
7
  6
CONTINUOUS
 10
135.1357054837
 20
178.5419933067
 11
135.0654379247
 21
178.0583999811
  0
LINE
  8
0
 62
7
  6
CONTINUOUS
 10
137.8202855614
 20
178.042602141
 11
137.8905531376
 21
178.5261954523
  0
LINE
  8
0
 62
7
  6
CONTINUOUS
 10
144.7538703073
 20
214.1695119585
 11
144.8591783273
 21
214.5286688988
  0
LINE
  8
0
 62
7
  6
CONTINUOUS
 10
133.7164062788
 20
174.1880655034
 11
133.6592784654
 21
174.0098585752
  0
LINE
  8
0
 62
7
  6
CONTINUOUS
 10
147.2726394038
 20
210.5724283531
 11
147.2066081603
 21
210.3973263989
  0
LINE
  8
0
 62
7
  6
CONTINUOUS
 10
130.7606175709
 20
171.5947611255
 11
130.6878271154
 21
171.4223579761
  0
LINE
  8
0
 62
7
  6
CONTINUOUS
 10
132.8664681866
 20
175.3852956919
 11
132.9823401214
 21
175.6226072791
  0
LINE
  8
0
 62
7
  6
CONTINUOUS
 10
147.4974346809
 20
210.0944749431
 11
147.638770415
 21
210.361863404
  0
LINE
  8
0
 62
7
  6
CONTINUOUS
 10
130.0208186376
 20
172.8630089022
 11
130.1573894107
 21
173.0890432328
  0
LINE
  8
0
 62
7
  6
CONTINUOUS
 10
145.3865362859
 20
203.1349470768
 11
145.1861496854
 21
202.8188323888
  0
LINE
  8
0
 62
7
  6
CONTINUOUS
 10
145.6868613538
 20
202.6885103342
 11
145.8795212403
 21
202.921650994
  0
LINE
  8
0
 62
7
  6
CONTINUOUS
 10
148.3596448171
 20
201.100512237
 11
148.1669849899
 21
200.8673715717
  0
LINE
  8
0
 62
7
  6
CONTINUOUS
 10
145.1196907306
 20
192.6502212098
 11
145.24759024
 21
192.786831517
  0
LINE
  8
0
 62
7
  6
CONTINUOUS
 10
146.7553628431
 20
192.179248354
 11
147.0929454561
 21
192.428920329
  0
LINE
  8
0
 62
7
  6
CONTINUOUS
 10
136.4513509667
 20
179.7238413624
 11
135.9885737341
 21
179.5668787317
  0
LINE
  8
0
 62
7
  6
CONTINUOUS
 10
136.5046400955
 20
176.860754071
 11
136.9674173109
 21
177.017716716
  0
LINE
  8
0
 62
7
  6
CONTINUOUS
 10
133.5385522279
 20
174.1298483846
 11
133.7164062788
 21
174.1880655034
  0
LINE
  8
0
 62
7
  6
CONTINUOUS
 10
136.2623616371
 20
179.2306320536
 11
136.553111133
 21
179.3139213653
  0
LINE
  8
0
 62
7
  6
CONTINUOUS
 10
136.693629448
 20
177.3539633607
 11
136.4028799522
 21
177.2706740491
  0
LINE
  8
0
 62
7
  6
CONTINUOUS
 10
147.001477705
 20
211.4644606594
 11
147.1984531079
 21
211.2349547766
  0
LINE
  8
0
 62
7
  6
CONTINUOUS
 10
147.5367642715
 20
211.2728371178
 11
147.3397888686
 21
211.5023430006
  0
LINE
  8
0
 62
7
  6
CONTINUOUS
 10
144.6268784341
 20
213.467012621
 11
144.7414727231
 21
213.3190631391
  0
LINE
  8
0
 62
7
  6
CONTINUOUS
 10
148.3369741336
 20
202.6928067627
 11
148.4832732772
 21
202.4281013805
  0
LINE
  8
0
 62
7
  6
CONTINUOUS
 10
144.481314038
 20
213.7787258877
 11
144.6268784341
 21
213.467012621
  0
LINE
  8
0
 62
7
  6
CONTINUOUS
 10
145.0470676346
 20
201.3252942463
 11
145.1086270429
 21
201.0684800426
  0
LINE
  8
0
 62
7
  6
CONTINUOUS
 10
145.5709596448
 20
201.4438952155
 11
145.5094002439
 21
201.7007094185
  0
LINE
  8
0
 62
7
  6
CONTINUOUS
 10
145.24759024
 20
192.786831517
 11
145.2832579189
 21
192.6031239308
  0
LINE
  8
0
 62
7
  6
CONTINUOUS
 10
145.0009617286
 20
201.7480564995
 11
145.0470676346
 21
201.3252942463
  0
LINE
  8
0
 62
7
  6
CONTINUOUS
 10
149.0455443829
 20
202.0409660773
 11
148.9994385727
 21
202.4637292793
  0
LINE
  8
0
 62
7
  6
CONTINUOUS
 10
145.1166503304
 20
208.8221987025
 11
145.1428410544
 21
208.4063561546
  0
LINE
  8
0
 62
7
  6
CONTINUOUS
 10
147.8608596799
 20
208.5775432444
 11
147.8346689559
 21
208.9933857923
  0
LINE
  8
0
 62
7
  6
CONTINUOUS
 10
148.68404994
 20
209.0468817682
 11
148.7102406639
 21
208.6310392203
  0
LINE
  8
0
 62
7
  6
CONTINUOUS
 10
149.134931037
 20
208.6577872007
 11
149.108740313
 21
209.0736297486
  0
LINE
  8
0
 62
7
  6
CONTINUOUS
 10
145.6438987534
 20
192.9328762955
 11
145.631289296
 21
193.1966642715
  0
LINE
  8
0
 62
7
  6
CONTINUOUS
 10
143.4461902459
 20
193.9125579935
 11
143.4126832674
 21
193.4886092358
  0
LINE
  8
0
 62
7
  6
CONTINUOUS
 10
145.0627760029
 20
202.411851546
 11
145.0009617286
 21
201.7480564995
  0
LINE
  8
0
 62
7
  6
CONTINUOUS
 10
144.9236939521
 20
200.9183134035
 11
144.8773332685
 21
200.420467356
  0
LINE
  8
0
 62
7
  6
CONTINUOUS
 10
145.5094002439
 20
201.7007094185
 11
145.5712145182
 21
202.364504465
  0
LINE
  8
0
 62
7
  6
CONTINUOUS
 10
145.9869316664
 20
201.321465289
 11
146.0332923499
 21
201.8193113365
  0
LINE
  8
0
 62
7
  6
CONTINUOUS
 10
148.5371059269
 20
202.0883131527
 11
148.4752916526
 21
201.4245181062
  0
LINE
  8
0
 62
7
  6
CONTINUOUS
 10
148.9837301086
 20
201.3771710307
 11
149.0455443829
 21
202.0409660773
  0
LINE
  8
0
 62
7
  6
CONTINUOUS
 10
147.3201240467
 20
210.9131621502
 11
147.2726394038
 21
210.5724283531
  0
LINE
  8
0
 62
7
  6
CONTINUOUS
 10
144.7836743099
 20
199.758122494
 11
144.6901814545
 21
199.2669411772
  0
LINE
  8
0
 62
7
  6
CONTINUOUS
 10
144.30062795
 20
197.2203526694
 11
144.1603886669
 21
196.4835806942
  0
LINE
  8
0
 62
7
  6
CONTINUOUS
 10
148.0898392015
 20
195.7356378513
 11
148.1833320569
 21
196.2268191681
  0
LINE
  8
0
 62
7
  6
CONTINUOUS
 10
148.5728857398
 20
198.2734086128
 11
148.7131248445
 21
199.0101796511
  0
LINE
  8
0
 62
7
  6
CONTINUOUS
 10
147.638770415
 20
210.361863404
 11
147.6955283582
 21
210.6197812797
  0
LINE
  8
0
 62
7
  6
CONTINUOUS
 10
143.9995833398
 20
195.8344726856
 11
143.4461902459
 21
193.9125579935
  0
LINE
  8
0
 62
7
  6
CONTINUOUS
 10
143.9138336466
 20
193.6911857503
 11
144.3519366886
 21
195.2127021591
  0
LINE
  8
0
 62
7
  6
CONTINUOUS
 10
145.578690773
 20
194.8594725173
 11
145.140587731
 21
193.3379561085
  0
LINE
  8
0
 62
7
  6
CONTINUOUS
 10
145.631289296
 20
193.1966642715
 11
146.069392338
 21
194.7181806804
  0
LINE
  8
0
 62
7
  6
CONTINUOUS
 10
147.2143628854
 20
194.3884996616
 11
146.7762598435
 21
192.8669832527
  0
LINE
  8
0
 62
7
  6
CONTINUOUS
 10
147.29001963
 20
192.8057718056
 11
147.8434127239
 21
194.7276864977
  0
LINE
  8
0
 62
7
  6
CONTINUOUS
 10
145.1861496854
 20
202.8188323888
 11
145.0627760029
 21
202.411851546
  0
LINE
  8
0
 62
7
  6
CONTINUOUS
 10
148.8603565219
 20
200.9701911368
 11
148.9837301086
 21
201.3771710307
  0
LINE
  8
0
 62
7
  6
CONTINUOUS
 10
145.5712145182
 20
202.364504465
 11
145.6868613538
 21
202.6885103342
  0
LINE
  8
0
 62
7
  6
CONTINUOUS
 10
148.4752916526
 20
201.4245181062
 11
148.3596448171
 21
201.100512237
  0
LINE
  8
0
 62
7
  6
CONTINUOUS
 10
135.5161003929
 20
178.3338554742
 11
135.6639010124
 21
178.644517474
  0
LINE
  8
0
 62
7
  6
CONTINUOUS
 10
137.4398906922
 20
178.2507399402
 11
137.2920925129
 21
177.9400808726
  0
LINE
  8
0
 62
7
  6
CONTINUOUS
 10
134.1340938074
 20
174.1254025671
 11
134.2499657422
 21
174.3627141543
  0
LINE
  8
0
 62
7
  6
CONTINUOUS
 10
147.0929454561
 20
192.428920329
 11
147.29001963
 21
192.8057718056
  0
LINE
  8
0
 62
7
  6
CONTINUOUS
 10
135.3368096006
 20
178.916709734
 11
135.1357054837
 21
178.5419933067
  0
LINE
  8
0
 62
7
  6
CONTINUOUS
 10
137.6191838789
 20
177.6678886507
 11
137.8202855614
 21
178.042602141
  0
LINE
  8
0
 62
7
  6
CONTINUOUS
 10
131.1710538413
 20
171.495103797
 11
131.3076246144
 21
171.7211381277
  0
LINE
  8
0
 62
7
  6
CONTINUOUS
 10
139.618018677
 20
184.9638279446
 11
137.8386714518
 21
182.1451334237
  0
LINE
  8
0
 62
7
  6
CONTINUOUS
 10
138.2704713801
 20
181.8725526249
 11
139.7829165724
 21
184.2684430483
  0
LINE
  8
0
 62
7
  6
CONTINUOUS
 10
142.6406182253
 20
183.0557623209
 11
141.0836900397
 21
180.5894056232
  0
LINE
  8
0
 62
7
  6
CONTINUOUS
 10
141.2211042318
 20
180.0099171608
 11
143.0004514569
 21
182.8286116817
  0
LINE
  8
0
 62
7
  6
CONTINUOUS
 10
148.6599698553
 20
200.6540754972
 11
148.8603565219
 21
200.9701911368
  0
LINE
  8
0
 62
7
  6
CONTINUOUS
 10
132.6789054881
 20
176.0416814083
 11
132.4455426264
 21
175.6861577923
  0
LINE
  8
0
 62
7
  6
CONTINUOUS
 10
145.140587731
 20
193.3379561085
 11
144.9896300001
 21
193.1212654115
  0
LINE
  8
0
 62
7
  6
CONTINUOUS
 10
146.7762598435
 20
192.8669832527
 11
146.6253021126
 21
192.6502925557
  0
LINE
  8
0
 62
7
  6
CONTINUOUS
 10
137.1362630733
 20
181.2114020024
 11
136.8414672466
 21
180.8075512619
  0
LINE
  8
0
 62
7
  6
CONTINUOUS
 10
140.0722731702
 20
178.4491846484
 11
140.3670689969
 21
178.8530353888
  0
LINE
  8
0
 62
7
  6
CONTINUOUS
 10
129.8925310932
 20
173.5335044506
 11
129.62839677
 21
173.2002052967
  0
LINE
  8
0
 62
7
  6
CONTINUOUS
 10
135.6566354995
 20
179.3010421349
 11
135.3368096006
 21
178.916709734
  0
LINE
  8
0
 62
7
  6
CONTINUOUS
 10
135.6639010124
 20
178.644517474
 11
135.9837269113
 21
179.0288498748
  0
LINE
  8
0
 62
7
  6
CONTINUOUS
 10
136.921393718
 20
179.2242793273
 11
137.2412196169
 21
179.6086117282
  0
LINE
  8
0
 62
7
  6
CONTINUOUS
 10
137.8299841674
 20
179.1186656524
 11
137.4568523252
 21
178.6702758966
  0
LINE
  8
0
 62
7
  6
CONTINUOUS
 10
137.2920925129
 20
177.9400808726
 11
136.9722666139
 21
177.5557484717
  0
LINE
  8
0
 62
7
  6
CONTINUOUS
 10
137.2993579799
 20
177.2835562498
 11
137.6191838789
 21
177.6678886507
  0
LINE
  8
0
 62
7
  6
CONTINUOUS
 10
138.9372456921
 20
177.6551801895
 11
137.3914197006
 21
175.7975726078
  0
LINE
  8
0
 62
7
  6
CONTINUOUS
 10
137.7185110666
 20
175.5253803859
 11
139.5308594539
 21
177.7032659457
  0
LINE
  8
0
 62
7
  6
CONTINUOUS
 10
134.0887859167
 20
177.4602148683
 11
132.6789054881
 21
176.0416814083
  0
LINE
  8
0
 62
7
  6
CONTINUOUS
 10
132.9823401214
 20
175.6226072791
 11
134.0984945644
 21
176.7456120331
  0
LINE
  8
0
 62
7
  6
CONTINUOUS
 10
135.0039414726
 20
175.8456883365
 11
133.8877870297
 21
174.7226835825
  0
LINE
  8
0
 62
7
  6
CONTINUOUS
 10
134.2499657422
 20
174.3627141543
 11
135.3661201851
 21
175.4857189082
  0
LINE
  8
0
 62
7
  6
CONTINUOUS
 10
136.2112040169
 20
174.6457900743
 11
135.095049574
 21
173.5227853204
  0
LINE
  8
0
 62
7
  6
CONTINUOUS
 10
135.515972408
 20
173.2219205511
 11
136.9258528366
 21
174.6404540111
  0
LINE
  8
0
 62
7
  6
CONTINUOUS
 10
131.4232820735
 20
174.8206724413
 11
129.8925310932
 21
173.5335044506
  0
LINE
  8
0
 62
7
  6
CONTINUOUS
 10
130.1573894107
 20
173.0890432328
 11
131.3692329636
 21
174.1080504071
  0
LINE
  8
0
 62
7
  6
CONTINUOUS
 10
132.1908295705
 20
173.1309752929
 11
130.9789860176
 21
172.1119681186
  0
LINE
  8
0
 62
7
  6
CONTINUOUS
 10
131.3076246144
 20
171.7211381277
 11
132.5194681672
 21
172.7401453019
  0
LINE
  8
0
 62
7
  6
CONTINUOUS
 10
133.2862917131
 20
171.8282084739
 11
132.0744481602
 21
170.8092012997
  0
LINE
  8
0
 62
7
  6
CONTINUOUS
 10
132.4668670746
 20
170.47200249
 11
133.9976180549
 21
171.7591704807
  0
LINE
  8
0
 62
7
  6
CONTINUOUS
 10
135.9885737341
 20
179.5668787317
 11
135.6566354995
 21
179.3010421349
  0
LINE
  8
0
 62
7
  6
CONTINUOUS
 10
136.9674173109
 20
177.017716716
 11
137.2993579799
 21
177.2835562498
  0
LINE
  8
0
 62
7
  6
CONTINUOUS
 10
135.9837269113
 20
179.0288498748
 11
136.2623616371
 21
179.2306320536
  0
LINE
  8
0
 62
7
  6
CONTINUOUS
 10
136.9722666139
 20
177.5557484717
 11
136.693629448
 21
177.3539633607
  0
LINE
  8
0
 62
7
  6
CONTINUOUS
 10
135.1618833036
 20
172.9863867498
 11
135.515972408
 21
173.2219205511
  0
LINE
  8
0
 62
7
  6
CONTINUOUS
 10
132.0931865476
 20
170.2689800054
 11
132.4668670746
 21
170.47200249
  0
LINE
  8
0
 62
7
  6
CONTINUOUS
 10
133.8877870297
 20
174.7226835825
 11
133.6511888573
 21
174.6053618047
  0
LINE
  8
0
 62
7
  6
CONTINUOUS
 10
135.095049574
 20
173.5227853204
 11
134.8584514016
 21
173.4054635426
  0
LINE
  8
0
 62
7
  6
CONTINUOUS
 10
130.9789860176
 20
172.1119681186
 11
130.7328690456
 21
172.0162104516
  0
LINE
  8
0
 62
7
  6
CONTINUOUS
 10
132.0744481602
 20
170.8092012997
 11
131.8283311882
 21
170.7134436327
  0
LINE
  8
0
 62
7
  6
CONTINUOUS
 10
144.9613750061
 20
213.5302707746
 11
144.815810588
 21
213.8419840372
  0
LINE
  8
0
 62
7
  6
CONTINUOUS
 10
148.9994385727
 20
202.4637292793
 11
148.8608661803
 21
202.8114086862
  0
LINE
  8
0
 62
7
  6
CONTINUOUS
 10
147.1984531079
 20
211.2349547766
 11
147.3201240467
 21
210.9131621502
  0
LINE
  8
0
 62
7
  6
CONTINUOUS
 10
147.6584352103
 20
210.9510444914
 11
147.5367642715
 21
211.2728371178
  0
LINE
  8
0
 62
7
  6
CONTINUOUS
 10
144.4193737573
 20
214.106253809
 11
144.481314038
 21
213.7787258877
  0
LINE
  8
0
 62
7
  6
CONTINUOUS
 10
144.6516497824
 20
212.8780242506
 11
144.7290751389
 21
212.4686143197
  0
LINE
  8
0
 62
7
  6
CONTINUOUS
 10
144.815810588
 20
213.8419840372
 11
144.7538703073
 21
214.1695119585
  0
LINE
  8
0
 62
7
  6
CONTINUOUS
 10
147.3740773874
 20
213.138443535
 11
147.2966520309
 21
213.5478534659
  0
LINE
  8
0
 62
7
  6
CONTINUOUS
 10
146.9869506771
 20
215.1854928088
 11
146.9095253372
 21
215.5949026519
  0
LINE
  8
0
 62
7
  6
CONTINUOUS
 10
148.4832732772
 20
202.4281013805
 11
148.5371059269
 21
202.0883131527
  0
LINE
  8
0
 62
7
  6
CONTINUOUS
 10
144.8221197004
 20
211.8074065021
 11
144.8684861221
 21
211.3933276059
  0
LINE
  8
0
 62
7
  6
CONTINUOUS
 10
145.0354052081
 20
209.9026438639
 11
145.0817716032
 21
209.4885652046
  0
LINE
  8
0
 62
7
  6
CONTINUOUS
 10
147.6955283582
 20
210.6197812797
 11
147.6584352103
 21
210.9510444914
  0
LINE
  8
0
 62
7
  6
CONTINUOUS
 10
147.5749756673
 20
211.6963863624
 11
147.5286092456
 21
212.1104652586
  0
LINE
  8
0
 62
7
  6
CONTINUOUS
 10
44.49606688
 20
90.6815771386
 11
44.500673887
 21
90.6237453432
  0
POLYLINE
  8
0
 62
7
  6
CONTINUOUS
 66
1
 70
0
  0
VERTEX
  8
0
 62
7
  6
CONTINUOUS
 10
42.5430299644
 20
90.693162706
  0
VERTEX
  8
0
 62
7
  6
CONTINUOUS
 10
42.5435946812
 20
90.6694056375
  0
VERTEX
  8
0
 62
7
  6
CONTINUOUS
 10
42.5462124844
 20
90.6368384935
  0
VERTEX
  8
0
 62
7
  6
CONTINUOUS
 10
42.5509101261
 20
90.6047424419
  0
VERTEX
  8
0
 62
7
  6
CONTINUOUS
 10
42.557617291
 20
90.5732681861
  0
VERTEX
  8
0
 62
7
  6
CONTINUOUS
 10
42.5662508053
 20
90.5425575861
  0
VERTEX
  8
0
 62
7
  6
CONTINUOUS
 10
42.5767157379
 20
90.5127425052
  0
VERTEX
  8
0
 62
7
  6
CONTINUOUS
 10
42.5889066058
 20
90.4839438035
  0
VERTEX
  8
0
 62
7
  6
CONTINUOUS
 10
42.6027086613
 20
90.4562704902
  0
VERTEX
  8
0
 62
7
  6
CONTINUOUS
 10
42.6179992421
 20
90.4298190387
  0
VERTEX
  8
0
 62
7
  6
CONTINUOUS
 10
42.6346491588
 20
90.4046728717
  0
VERTEX
  8
0
 62
7
  6
CONTINUOUS
 10
42.6525241141
 20
90.3809019964
  0
VERTEX
  8
0
 62
7
  6
CONTINUOUS
 10
42.6714861876
 20
90.3585627393
  0
VERTEX
  8
0
 62
7
  6
CONTINUOUS
 10
42.6913949146
 20
90.3376980766
  0
VERTEX
  8
0
 62
7
  6
CONTINUOUS
 10
42.7121088228
 20
90.3183374636
  0
VERTEX
  8
0
 62
7
  6
CONTINUOUS
 10
42.7334868154
 20
90.3004970381
  0
VERTEX
  8
0
 62
7
  6
CONTINUOUS
 10
42.7553894162
 20
90.2841800491
  0
VERTEX
  8
0
 62
7
  6
CONTINUOUS
 10
42.7776798701
 20
90.2693774442
  0
VERTEX
  8
0
 62
7
  6
CONTINUOUS
 10
42.8002249518
 20
90.256068649
  0
VERTEX
  8
0
 62
7
  6
CONTINUOUS
 10
42.8228959208
 20
90.2442222217
  0
VERTEX
  8
0
 62
7
  6
CONTINUOUS
 10
42.845567545
 20
90.2337973877
  0
VERTEX
  8
0
 62
7
  6
CONTINUOUS
 10
42.868114626
 20
90.2247459164
  0
VERTEX
  8
0
 62
7
  6
CONTINUOUS
 10
42.8904264196
 20
90.2170070208
  0
VERTEX
  8
0
 62
7
  6
CONTINUOUS
 10
42.9123929617
 20
90.2105142014
  0
VERTEX
  8
0
 62
7
  6
CONTINUOUS
 10
42.9337782097
 20
90.2052228779
  0
VERTEX
  8
0
 62
7
  6
CONTINUOUS
 10
42.9536754974
 20
90.201180212
  0
VERTEX
  8
0
 62
7
  6
CONTINUOUS
 10
42.9707917016
 20
90.1983584542
  0
VERTEX
  8
0
 62
7
  6
CONTINUOUS
 10
42.9831288277
 20
90.1966801888
  0
VERTEX
  8
0
 62
7
  6
CONTINUOUS
 10
42.9917373114
 20
90.1956615099
  0
VERTEX
  8
0
 62
7
  6
CONTINUOUS
 10
42.9993163946
 20
90.1948386737
  0
VERTEX
  8
0
 62
7
  6
CONTINUOUS
 10
43.0164946749
 20
90.193103607
  0
SEQEND
  0
LINE
  8
0
 62
7
  6
CONTINUOUS
 10
44.4959516657
 20
90.6923117439
 11
44.49606688
 21
90.6815771386
  0
LINE
  8
2_FEATURE
 62
7
  6
CONTINUOUS
 10
42.5430290317
 20
99.2749864964
 11
42.5430290317
 21
90.6930660201
  0
LINE
  8
0
 62
9
  6
CONTINUOUS
 10
43.1472975345
 20
90.6721117143
 11
43.1472975345
 21
99.2959408021
  0
LINE
  8
0
 62
9
  6
CONTINUOUS
 10
44.3513239502
 20
90.5656895218
 11
44.3513239502
 21
99.4023629946
  0
LINE
  8
2_FEATURE
 62
7
  6
CONTINUOUS
 10
44.4959513237
 20
99.2758470021
 11
44.4959513237
 21
90.6922055143
  0
LINE
  8
0
 62
9
  6
CONTINUOUS
 10
44.5230826058
 20
99.2748541932
 11
44.5230826058
 21
90.6931983232
  0
LINE
  8
0
 62
7
  6
CONTINUOUS
 10
44.4983023694
 20
99.3241750545
 11
44.4959516656
 21
99.2757407844
  0
LINE
  8
0
 62
9
  6
CONTINUOUS
 10
45.130327298
 20
99.8217631279
 11
45.124926305
 21
99.7945150005
  0
LINE
  8
0
 62
9
  6
CONTINUOUS
 10
45.1303272537
 20
90.146289275
 11
45.1249262372
 21
90.1735375204
  0
POLYLINE
  8
0
 62
7
  6
CONTINUOUS
 66
1
 70
0
  0
VERTEX
  8
0
 62
7
  6
CONTINUOUS
 10
44.500673887
 20
90.6237453432
  0
VERTEX
  8
0
 62
7
  6
CONTINUOUS
 10
44.5117382877
 20
90.567642867
  0
VERTEX
  8
0
 62
7
  6
CONTINUOUS
 10
44.5288021272
 20
90.5140369875
  0
VERTEX
  8
0
 62
7
  6
CONTINUOUS
 10
44.5513086545
 20
90.4635954881
  0
VERTEX
  8
0
 62
7
  6
CONTINUOUS
 10
44.5786226839
 20
90.4168747313
  0
VERTEX
  8
0
 62
7
  6
CONTINUOUS
 10
44.6100514995
 20
90.3743124723
  0
VERTEX
  8
0
 62
7
  6
CONTINUOUS
 10
44.6448731759
 20
90.3362169996
  0
VERTEX
  8
0
 62
7
  6
CONTINUOUS
 10
44.6823225365
 20
90.3028014676
  0
VERTEX
  8
0
 62
7
  6
CONTINUOUS
 10
44.7216384995
 20
90.2741460474
  0
VERTEX
  8
0
 62
7
  6
CONTINUOUS
 10
44.7621051008
 20
90.2501968991
  0
VERTEX
  8
0
 62
7
  6
CONTINUOUS
 10
44.8030419331
 20
90.2307993234
  0
VERTEX
  8
0
 62
7
  6
CONTINUOUS
 10
44.8431463931
 20
90.2159170803
  0
VERTEX
  8
0
 62
7
  6
CONTINUOUS
 10
44.8803351495
 20
90.205382393
  0
SEQEND
  0
POLYLINE
  8
0
 62
9
  6
CONTINUOUS
 66
1
 70
0
  0
VERTEX
  8
0
 62
9
  6
CONTINUOUS
 10
49.6190334483
 20
99.8375793854
  0
VERTEX
  8
0
 62
9
  6
CONTINUOUS
 10
49.6202259291
 20
99.6134356172
  0
VERTEX
  8
0
 62
9
  6
CONTINUOUS
 10
49.6203829221
 20
99.4840262582
  0
SEQEND
  0
LINE
  8
0
 62
9
  6
CONTINUOUS
 10
46.5112809762
 20
99.2748541932
 11
46.5112809762
 21
90.6931983232
  0
LINE
  8
0
 62
9
  6
CONTINUOUS
 10
47.3946580651
 20
90.6721117143
 11
47.3946580651
 21
99.2959408021
  0
LINE
  8
0
 62
9
  6
CONTINUOUS
 10
48.6181640253
 20
90.5656895218
 11
48.6181640253
 21
99.4023629946
  0
POLYLINE
  8
0
 62
9
  6
CONTINUOUS
 66
1
 70
0
  0
VERTEX
  8
0
 62
9
  6
CONTINUOUS
 10
49.6157755222
 20
99.9840262582
  0
VERTEX
  8
0
 62
9
  6
CONTINUOUS
 10
49.6169680071
 20
99.966989112
  0
VERTEX
  8
0
 62
9
  6
CONTINUOUS
 10
49.6180792249
 20
99.917038784
  0
VERTEX
  8
0
 62
9
  6
CONTINUOUS
 10
49.6190334483
 20
99.8375793854
  0
SEQEND
  0
LINE
  8
0
 62
9
  6
CONTINUOUS
 10
51.1712484009
 20
90.4840262582
 11
51.1712484009
 21
99.4840262582
  0
LINE
  8
0
 62
9
  6
CONTINUOUS
 10
52.5068175702
 20
90.4840262582
 11
52.5068175702
 21
99.4840262582
  0
LINE
  8
1_AXIS
 62
7
  6
CONTINUOUS
 10
53.2128008753
 20
105.4840262582
 11
53.2128008753
 21
101.9840262582
  0
LINE
  8
1_AXIS
 62
7
  6
CONTINUOUS
 10
53.2128008753
 20
87.9840262582
 11
53.2128008753
 21
84.4840262582
  0
POLYLINE
  8
0
 62
9
  6
CONTINUOUS
 66
1
 70
0
  0
VERTEX
  8
0
 62
9
  6
CONTINUOUS
 10
49.6157755222
 20
89.9840262582
  0
VERTEX
  8
0
 62
9
  6
CONTINUOUS
 10
49.6169680011
 20
90.0010633498
  0
VERTEX
  8
0
 62
9
  6
CONTINUOUS
 10
49.6180792157
 20
90.0510135714
  0
VERTEX
  8
0
 62
9
  6
CONTINUOUS
 10
49.6190334386
 20
90.130472892
  0
VERTEX
  8
0
 62
9
  6
CONTINUOUS
 10
49.619765641
 20
90.2340262848
  0
VERTEX
  8
0
 62
9
  6
CONTINUOUS
 10
49.6203829221
 20
90.4840262582
  0
SEQEND
  0
POLYLINE
  8
0
 62
9
  6
CONTINUOUS
 66
1
 70
0
  0
VERTEX
  8
0
 62
9
  6
CONTINUOUS
 10
49.3430716771
 20
89.9954421792
  0
VERTEX
  8
0
 62
9
  6
CONTINUOUS
 10
49.3502754878
 20
90.0154445529
  0
VERTEX
  8
0
 62
9
  6
CONTINUOUS
 10
49.3596643043
 20
90.0668525737
  0
VERTEX
  8
0
 62
9
  6
CONTINUOUS
 10
49.3706213833
 20
90.1462892929
  0
VERTEX
  8
0
 62
9
  6
CONTINUOUS
 10
49.3824269637
 20
90.2485365806
  0
VERTEX
  8
0
 62
9
  6
CONTINUOUS
 10
49.3943055471
 20
90.3668779005
  0
VERTEX
  8
0
 62
9
  6
CONTINUOUS
 10
49.4054768396
 20
90.493539513
  0
SEQEND
  0
POLYLINE
  8
0
 62
7
  6
CONTINUOUS
 66
1
 70
0
  0
VERTEX
  8
0
 62
7
  6
CONTINUOUS
 10
55.7995498086
 20
90.6873816358
  0
VERTEX
  8
0
 62
7
  6
CONTINUOUS
 10
55.8025033383
 20
90.633067192
  0
VERTEX
  8
0
 62
7
  6
CONTINUOUS
 10
55.8164017103
 20
90.5585445059
  0
VERTEX
  8
0
 62
7
  6
CONTINUOUS
 10
55.8408264701
 20
90.4882529903
  0
VERTEX
  8
0
 62
7
  6
CONTINUOUS
 10
55.8743983694
 20
90.4239465157
  0
VERTEX
  8
0
 62
7
  6
CONTINUOUS
 10
55.9153827723
 20
90.3669631112
  0
VERTEX
  8
0
 62
7
  6
CONTINUOUS
 10
55.9617979205
 20
90.3181773928
  0
VERTEX
  8
0
 62
7
  6
CONTINUOUS
 10
56.011485489
 20
90.2780023516
  0
VERTEX
  8
0
 62
7
  6
CONTINUOUS
 10
56.0623653023
 20
90.2462750543
  0
VERTEX
  8
0
 62
7
  6
CONTINUOUS
 10
56.1128955259
 20
90.22221223
  0
VERTEX
  8
0
 62
7
  6
CONTINUOUS
 10
56.1609393087
 20
90.2050462901
  0
VERTEX
  8
0
 62
7
  6
CONTINUOUS
 10
56.2046394206
 20
90.1934560194
  0
VERTEX
  8
0
 62
7
  6
CONTINUOUS
 10
56.2441626434
 20
90.1855153447
  0
SEQEND
  0
LINE
  8
2_FEATURE
 62
7
  6
CONTINUOUS
 10
55.7995490367
 20
99.2807643109
 11
55.7995490367
 21
90.6872882055
  0
LINE
  8
0
 62
9
  6
CONTINUOUS
 10
55.9775206552
 20
99.2748541932
 11
55.9775206552
 21
90.6931983232
  0
POLYLINE
  8
0
 62
9
  6
CONTINUOUS
 66
1
 70
0
  0
VERTEX
  8
0
 62
9
  6
CONTINUOUS
 10
49.3430716861
 20
99.9726102271
  0
VERTEX
  8
0
 62
9
  6
CONTINUOUS
 10
49.3502754926
 20
99.9526078445
  0
VERTEX
  8
0
 62
9
  6
CONTINUOUS
 10
49.3596643054
 20
99.9011998295
  0
VERTEX
  8
0
 62
9
  6
CONTINUOUS
 10
49.3706213816
 20
99.821763129
  0
VERTEX
  8
0
 62
9
  6
CONTINUOUS
 10
49.3824269603
 20
99.7195158695
  0
VERTEX
  8
0
 62
9
  6
CONTINUOUS
 10
49.3943055433
 20
99.6011745829
  0
VERTEX
  8
0
 62
9
  6
CONTINUOUS
 10
49.4054768368
 20
99.4745130034
  0
SEQEND
  0
LINE
  8
0
 62
9
  6
CONTINUOUS
 10
60.2826702274
 20
99.2748541932
 11
60.2826702274
 21
90.6931983232
  0
LINE
  8
0
 62
9
  6
CONTINUOUS
 10
61.2934825795
 20
90.6721117143
 11
61.2934825795
 21
99.2959408021
  0
LINE
  8
0
 62
9
  6
CONTINUOUS
 10
62.3249127884
 20
90.5656895218
 11
62.3249127884
 21
99.4023629946
  0
LINE
  8
0
 62
9
  6
CONTINUOUS
 10
64.6944700278
 20
90.4840262582
 11
64.6944700278
 21
99.4840262582
  0
LINE
  8
0
 62
9
  6
CONTINUOUS
 10
66.3645169915
 20
90.4840262582
 11
66.3645169915
 21
99.4840262582
  0
LINE
  8
0
 62
9
  6
CONTINUOUS
 10
46.8743417045
 20
99.9669890075
 11
46.8665784002
 21
99.9617589955
  0
POLYLINE
  8
0
 62
9
  6
CONTINUOUS
 66
1
 70
0
  0
VERTEX
  8
0
 62
9
  6
CONTINUOUS
 10
43.2255891163
 20
99.7939974507
  0
VERTEX
  8
0
 62
9
  6
CONTINUOUS
 10
43.1964189293
 20
99.7752244261
  0
VERTEX
  8
0
 62
9
  6
CONTINUOUS
 10
43.1716184545
 20
99.7244616397
  0
VERTEX
  8
0
 62
9
  6
CONTINUOUS
 10
43.1533514137
 20
99.6451336408
  0
VERTEX
  8
0
 62
9
  6
CONTINUOUS
 10
43.1428354885
 20
99.5425284363
  0
VERTEX
  8
0
 62
9
  6
CONTINUOUS
 10
43.1407716708
 20
99.4234856924
  0
VERTEX
  8
0
 62
9
  6
CONTINUOUS
 10
43.1472975345
 20
99.2959408021
  0
SEQEND
  0
POLYLINE
  8
0
 62
9
  6
CONTINUOUS
 66
1
 70
0
  0
VERTEX
  8
0
 62
9
  6
CONTINUOUS
 10
44.4301178633
 20
99.900460334
  0
VERTEX
  8
0
 62
9
  6
CONTINUOUS
 10
44.4004476275
 20
99.8816089807
  0
VERTEX
  8
0
 62
9
  6
CONTINUOUS
 10
44.3756552308
 20
99.8308257455
  0
VERTEX
  8
0
 62
9
  6
CONTINUOUS
 10
44.3573925762
 20
99.751494286
  0
VERTEX
  8
0
 62
9
  6
CONTINUOUS
 10
44.3468764937
 20
99.6489004111
  0
VERTEX
  8
0
 62
9
  6
CONTINUOUS
 10
44.344807664
 20
99.5298798912
  0
VERTEX
  8
0
 62
9
  6
CONTINUOUS
 10
44.3513239317
 20
99.4023629946
  0
SEQEND
  0
POLYLINE
  8
0
 62
9
  6
CONTINUOUS
 66
1
 70
0
  0
VERTEX
  8
0
 62
9
  6
CONTINUOUS
 10
44.4301178624
 20
90.0675921728
  0
VERTEX
  8
0
 62
9
  6
CONTINUOUS
 10
44.4004476317
 20
90.0864435435
  0
VERTEX
  8
0
 62
9
  6
CONTINUOUS
 10
44.37565524
 20
90.137226789
  0
VERTEX
  8
0
 62
9
  6
CONTINUOUS
 10
44.3573925898
 20
90.2165582517
  0
VERTEX
  8
0
 62
9
  6
CONTINUOUS
 10
44.3468765106
 20
90.3191521234
  0
VERTEX
  8
0
 62
9
  6
CONTINUOUS
 10
44.3448076825
 20
90.4381726354
  0
VERTEX
  8
0
 62
9
  6
CONTINUOUS
 10
44.3513239502
 20
90.5656895218
  0
SEQEND
  0
POLYLINE
  8
0
 62
9
  6
CONTINUOUS
 66
1
 70
0
  0
VERTEX
  8
0
 62
9
  6
CONTINUOUS
 10
43.2255891224
 20
90.174055076
  0
VERTEX
  8
0
 62
9
  6
CONTINUOUS
 10
43.1964193363
 20
90.1928286922
  0
VERTEX
  8
0
 62
9
  6
CONTINUOUS
 10
43.1716192553
 20
90.2435918078
  0
VERTEX
  8
0
 62
9
  6
CONTINUOUS
 10
43.1533525567
 20
90.3229198639
  0
VERTEX
  8
0
 62
9
  6
CONTINUOUS
 10
43.1428368905
 20
90.425524888
  0
VERTEX
  8
0
 62
9
  6
CONTINUOUS
 10
43.1407732259
 20
90.5445672755
  0
VERTEX
  8
0
 62
9
  6
CONTINUOUS
 10
43.1472991257
 20
90.6721117143
  0
SEQEND
  0
LINE
  8
0
 62
9
  6
CONTINUOUS
 10
46.8743420756
 20
90.0010633472
 11
46.8665812912
 21
90.006291638
  0
LINE
  8
0
 62
9
  6
CONTINUOUS
 10
74.7476234556
 20
90.4840262582
 11
74.7476234556
 21
99.4840262582
  0
POLYLINE
  8
0
 62
9
  6
CONTINUOUS
 66
1
 70
0
  0
VERTEX
  8
0
 62
9
  6
CONTINUOUS
 10
48.4922028913
 20
90.0675921728
  0
VERTEX
  8
0
 62
9
  6
CONTINUOUS
 10
48.5156079517
 20
90.0864435435
  0
VERTEX
  8
0
 62
9
  6
CONTINUOUS
 10
48.5401540119
 20
90.137226789
  0
VERTEX
  8
0
 62
9
  6
CONTINUOUS
 10
48.5642055826
 20
90.2165582517
  0
VERTEX
  8
0
 62
9
  6
CONTINUOUS
 10
48.5861601219
 20
90.3191521234
  0
VERTEX
  8
0
 62
9
  6
CONTINUOUS
 10
48.6045548119
 20
90.4381726354
  0
VERTEX
  8
0
 62
9
  6
CONTINUOUS
 10
48.6181640253
 20
90.5656895218
  0
SEQEND
  0
POLYLINE
  8
0
 62
9
  6
CONTINUOUS
 66
1
 70
0
  0
VERTEX
  8
0
 62
9
  6
CONTINUOUS
 10
47.2686299896
 20
90.1740143637
  0
VERTEX
  8
0
 62
9
  6
CONTINUOUS
 10
47.2920391125
 20
90.1928286922
  0
VERTEX
  8
0
 62
9
  6
CONTINUOUS
 10
47.3165939108
 20
90.2435918078
  0
VERTEX
  8
0
 62
9
  6
CONTINUOUS
 10
47.3406575726
 20
90.3229198639
  0
VERTEX
  8
0
 62
9
  6
CONTINUOUS
 10
47.3626260249
 20
90.425524888
  0
VERTEX
  8
0
 62
9
  6
CONTINUOUS
 10
47.3810348605
 20
90.5445672755
  0
VERTEX
  8
0
 62
9
  6
CONTINUOUS
 10
47.3946569542
 20
90.6721117143
  0
SEQEND
  0
POLYLINE
  8
0
 62
9
  6
CONTINUOUS
 66
1
 70
0
  0
VERTEX
  8
0
 62
9
  6
CONTINUOUS
 10
51.2917107977
 20
99.9840262582
  0
VERTEX
  8
0
 62
9
  6
CONTINUOUS
 10
51.2605326879
 20
99.9669890075
  0
VERTEX
  8
0
 62
9
  6
CONTINUOUS
 10
51.2314793947
 20
99.91703847
  0
VERTEX
  8
0
 62
9
  6
CONTINUOUS
 10
51.2065308422
 20
99.837578911
  0
VERTEX
  8
0
 62
9
  6
CONTINUOUS
 10
51.1873871988
 20
99.7340255178
  0
VERTEX
  8
0
 62
9
  6
CONTINUOUS
 10
51.1753530276
 20
99.613435319
  0
VERTEX
  8
0
 62
9
  6
CONTINUOUS
 10
51.1712484008
 20
99.4840262582
  0
SEQEND
  0
POLYLINE
  8
0
 62
9
  6
CONTINUOUS
 66
1
 70
0
  0
VERTEX
  8
0
 62
9
  6
CONTINUOUS
 10
51.2917107977
 20
89.9840262582
  0
VERTEX
  8
0
 62
9
  6
CONTINUOUS
 10
51.2605327599
 20
90.0010634289
  0
VERTEX
  8
0
 62
9
  6
CONTINUOUS
 10
51.2314794968
 20
90.0510138021
  0
VERTEX
  8
0
 62
9
  6
CONTINUOUS
 10
51.2065309324
 20
90.1304732316
  0
VERTEX
  8
0
 62
9
  6
CONTINUOUS
 10
51.1873872517
 20
90.2340266191
  0
VERTEX
  8
0
 62
9
  6
CONTINUOUS
 10
51.1753530432
 20
90.354616959
  0
VERTEX
  8
0
 62
9
  6
CONTINUOUS
 10
51.171248401
 20
90.4840262582
  0
SEQEND
  0
POLYLINE
  8
0
 62
9
  6
CONTINUOUS
 66
1
 70
0
  0
VERTEX
  8
0
 62
9
  6
CONTINUOUS
 10
47.2686299897
 20
99.7940381512
  0
VERTEX
  8
0
 62
9
  6
CONTINUOUS
 10
47.2920393185
 20
99.7752244261
  0
VERTEX
  8
0
 62
9
  6
CONTINUOUS
 10
47.3165943493
 20
99.7244616397
  0
VERTEX
  8
0
 62
9
  6
CONTINUOUS
 10
47.3406582432
 20
99.6451336408
  0
VERTEX
  8
0
 62
9
  6
CONTINUOUS
 10
47.3626269001
 20
99.5425284363
  0
VERTEX
  8
0
 62
9
  6
CONTINUOUS
 10
47.3810358887
 20
99.4234856924
  0
VERTEX
  8
0
 62
9
  6
CONTINUOUS
 10
47.3946580651
 20
99.2959408021
  0
SEQEND
  0
POLYLINE
  8
0
 62
9
  6
CONTINUOUS
 66
1
 70
0
  0
VERTEX
  8
0
 62
9
  6
CONTINUOUS
 10
48.4922028926
 20
99.9004603278
  0
VERTEX
  8
0
 62
9
  6
CONTINUOUS
 10
48.5156079548
 20
99.8816089875
  0
VERTEX
  8
0
 62
9
  6
CONTINUOUS
 10
48.5401540186
 20
99.83082576
  0
VERTEX
  8
0
 62
9
  6
CONTINUOUS
 10
48.5642055939
 20
99.7514943026
  0
VERTEX
  8
0
 62
9
  6
CONTINUOUS
 10
48.5861601379
 20
99.6489004251
  0
VERTEX
  8
0
 62
9
  6
CONTINUOUS
 10
48.6045548319
 20
99.5298798992
  0
VERTEX
  8
0
 62
9
  6
CONTINUOUS
 10
48.6181640478
 20
99.4023629946
  0
SEQEND
  0
POLYLINE
  8
0
 62
7
  6
CONTINUOUS
 66
1
 70
0
  0
VERTEX
  8
0
 62
7
  6
CONTINUOUS
 10
75.1630018857
 20
90.6789289437
  0
VERTEX
  8
0
 62
7
  6
CONTINUOUS
 10
75.1727158564
 20
90.5806689343
  0
VERTEX
  8
0
 62
7
  6
CONTINUOUS
 10
75.1976725893
 20
90.495626269
  0
VERTEX
  8
0
 62
7
  6
CONTINUOUS
 10
75.2357109902
 20
90.4187112376
  0
VERTEX
  8
0
 62
7
  6
CONTINUOUS
 10
75.284219622
 20
90.3517472213
  0
VERTEX
  8
0
 62
7
  6
CONTINUOUS
 10
75.340347634
 20
90.2958529953
  0
VERTEX
  8
0
 62
7
  6
CONTINUOUS
 10
75.4009863415
 20
90.2515265335
  0
VERTEX
  8
0
 62
7
  6
CONTINUOUS
 10
75.4631474456
 20
90.2183828478
  0
VERTEX
  8
0
 62
7
  6
CONTINUOUS
 10
75.5245818373
 20
90.1950828476
  0
SEQEND
  0
LINE
  8
2_FEATURE
 62
7
  6
CONTINUOUS
 10
75.1630014606
 20
99.2891752031
 11
75.1630014606
 21
90.6788773133
  0
LINE
  8
0
 62
9
  6
CONTINUOUS
 10
75.5993677737
 20
99.2748541932
 11
75.5993677737
 21
90.6931983232
  0
POLYLINE
  8
0
 62
9
  6
CONTINUOUS
 66
1
 70
0
  0
VERTEX
  8
0
 62
9
  6
CONTINUOUS
 10
45.2448098898
 20
99.9726102247
  0
VERTEX
  8
0
 62
9
  6
CONTINUOUS
 10
45.1999901187
 20
99.9526078424
  0
VERTEX
  8
0
 62
9
  6
CONTINUOUS
 10
45.1609749645
 20
99.9011998279
  0
VERTEX
  8
0
 62
9
  6
CONTINUOUS
 10
45.130327298
 20
99.8217631279
  0
SEQEND
  0
POLYLINE
  8
0
 62
9
  6
CONTINUOUS
 66
1
 70
0
  0
VERTEX
  8
0
 62
9
  6
CONTINUOUS
 10
45.2448098806
 20
89.9954421862
  0
VERTEX
  8
0
 62
9
  6
CONTINUOUS
 10
45.1999900973
 20
90.0154445458
  0
VERTEX
  8
0
 62
9
  6
CONTINUOUS
 10
45.1609749306
 20
90.0668525583
  0
VERTEX
  8
0
 62
9
  6
CONTINUOUS
 10
45.1303272537
 20
90.146289275
  0
SEQEND
  0
LINE
  8
0
 62
9
  6
CONTINUOUS
 10
81.4770690756
 20
99.2748541932
 11
81.4770690756
 21
90.6931983232
  0
LINE
  8
0
 62
9
  6
CONTINUOUS
 10
82.4405380523
 20
90.6721117143
 11
82.4405380523
 21
99.2959408021
  0
LINE
  8
0
 62
9
  6
CONTINUOUS
 10
83.1015488566
 20
90.5656895218
 11
83.1015488566
 21
99.4023629946
  0
LINE
  8
0
 62
9
  6
CONTINUOUS
 10
75.9557896586
 20
99.9170388029
 11
75.9456537689
 21
99.9091859463
  0
POLYLINE
  8
0
 62
9
  6
CONTINUOUS
 66
1
 70
0
  0
VERTEX
  8
0
 62
9
  6
CONTINUOUS
 10
45.5030231263
 20
99.9840262582
  0
VERTEX
  8
0
 62
9
  6
CONTINUOUS
 10
45.4514791494
 20
99.9669891686
  0
VERTEX
  8
0
 62
9
  6
CONTINUOUS
 10
45.4034478117
 20
99.9170389519
  0
VERTEX
  8
0
 62
9
  6
CONTINUOUS
 10
45.3622023691
 20
99.8375796366
  0
VERTEX
  8
0
 62
9
  6
CONTINUOUS
 10
45.3557795288
 20
99.8165643643
  0
SEQEND
  0
POLYLINE
  8
0
 62
7
  6
CONTINUOUS
 66
1
 70
0
  0
VERTEX
  8
0
 62
7
  6
CONTINUOUS
 10
44.8698626185
 20
99.7600020347
  0
VERTEX
  8
0
 62
7
  6
CONTINUOUS
 10
44.8341465931
 20
99.7491270009
  0
VERTEX
  8
0
 62
7
  6
CONTINUOUS
 10
44.7975876267
 20
99.7349251407
  0
VERTEX
  8
0
 62
7
  6
CONTINUOUS
 10
44.7602491097
 20
99.7168665369
  0
VERTEX
  8
0
 62
7
  6
CONTINUOUS
 10
44.7228772104
 20
99.6947176684
  0
VERTEX
  8
0
 62
7
  6
CONTINUOUS
 10
44.6860858092
 20
99.66825459
  0
VERTEX
  8
0
 62
7
  6
CONTINUOUS
 10
44.6506214223
 20
99.6374169968
  0
VERTEX
  8
0
 62
7
  6
CONTINUOUS
 10
44.617297386
 20
99.6023395448
  0
VERTEX
  8
0
 62
7
  6
CONTINUOUS
 10
44.5868870198
 20
99.5633142826
  0
VERTEX
  8
0
 62
7
  6
CONTINUOUS
 10
44.5600140285
 20
99.5206492197
  0
VERTEX
  8
0
 62
7
  6
CONTINUOUS
 10
44.5372691218
 20
99.4747981213
  0
VERTEX
  8
0
 62
7
  6
CONTINUOUS
 10
44.5191583869
 20
99.4263246844
  0
VERTEX
  8
0
 62
7
  6
CONTINUOUS
 10
44.5060787364
 20
99.3758788354
  0
VERTEX
  8
0
 62
7
  6
CONTINUOUS
 10
44.4983023694
 20
99.3241750545
  0
SEQEND
  0
POLYLINE
  8
0
 62
9
  6
CONTINUOUS
 66
1
 70
0
  0
VERTEX
  8
0
 62
9
  6
CONTINUOUS
 10
45.5030231263
 20
89.9840262582
  0
VERTEX
  8
0
 62
9
  6
CONTINUOUS
 10
45.4514791429
 20
90.0010633498
  0
VERTEX
  8
0
 62
9
  6
CONTINUOUS
 10
45.4034478011
 20
90.0510135712
  0
VERTEX
  8
0
 62
9
  6
CONTINUOUS
 10
45.3622023575
 20
90.1304728916
  0
VERTEX
  8
0
 62
9
  6
CONTINUOUS
 10
45.3557795376
 20
90.1514880994
  0
SEQEND
  0
LINE
  8
0
 62
9
  6
CONTINUOUS
 10
75.9557887512
 20
90.0510142425
 11
75.9454788262
 21
90.0590019706
  0
LINE
  8
0
 62
7
  6
CONTINUOUS
 10
83.1522968105
 20
82.4840262582
 11
83.1522968105
 21
82.2840262582
  0
LINE
  8
0
 62
7
  6
CONTINUOUS
 10
83.183192833
 20
82.4840262582
 11
83.183192833
 21
82.2840262582
  0
LINE
  8
0
 62
7
  6
CONTINUOUS
 10
83.5617960942
 20
82.4840262582
 11
83.5617960942
 21
82.2840262582
  0
LINE
  8
0
 62
7
  6
CONTINUOUS
 10
83.6066151781
 20
82.4840262582
 11
83.6066151781
 21
82.2840262582
  0
LINE
  8
0
 62
7
  6
CONTINUOUS
 10
83.6452045309
 20
82.4840262582
 11
83.6452045309
 21
82.2840262582
  0
LINE
  8
0
 62
7
  6
CONTINUOUS
 10
83.6714641544
 20
82.4840262582
 11
83.6714641544
 21
82.2840262582
  0
LINE
  8
0
 62
7
  6
CONTINUOUS
 10
83.8491609728
 20
82.4840262582
 11
83.8491609728
 21
82.2840262582
  0
LINE
  8
0
 62
7
  6
CONTINUOUS
 10
84.1782949114
 20
82.4840262582
 11
84.1782949114
 21
82.2840262582
  0
LINE
  8
0
 62
7
  6
CONTINUOUS
 10
84.5476115225
 20
82.4840262582
 11
84.5476115225
 21
82.2840262582
  0
LINE
  8
0
 62
9
  6
CONTINUOUS
 10
84.8778609863
 20
90.4840262582
 11
84.8778609863
 21
99.4840262582
  0
LINE
  8
0
 62
7
  6
CONTINUOUS
 10
85.0328328542
 20
82.4840262582
 11
85.0328328542
 21
82.2840262582
  0
LINE
  8
0
 62
7
  6
CONTINUOUS
 10
85.4469685399
 20
82.4840262582
 11
85.4469685399
 21
82.2840262582
  0
LINE
  8
0
 62
7
  6
CONTINUOUS
 10
85.8255648688
 20
82.4840262582
 11
85.8255648688
 21
82.2840262582
  0
LINE
  8
0
 62
7
  6
CONTINUOUS
 10
86.1686287733
 20
82.4840262582
 11
86.1686287733
 21
82.2840262582
  0
LINE
  8
0
 62
7
  6
CONTINUOUS
 10
86.4406070317
 20
82.4840262582
 11
86.4406070317
 21
82.2840262582
  0
LINE
  8
0
 62
7
  6
CONTINUOUS
 10
86.5256087881
 20
82.4840262582
 11
86.5256087881
 21
82.2840262582
  0
LINE
  8
0
 62
9
  6
CONTINUOUS
 10
86.5936194524
 20
90.4840262582
 11
86.5936194524
 21
99.4840262582
  0
POLYLINE
  8
0
 62
9
  6
CONTINUOUS
 66
1
 70
0
  0
VERTEX
  8
0
 62
9
  6
CONTINUOUS
 10
64.6071400421
 20
89.9840262582
  0
VERTEX
  8
0
 62
9
  6
CONTINUOUS
 10
64.6297427603
 20
90.0010634289
  0
VERTEX
  8
0
 62
9
  6
CONTINUOUS
 10
64.6508051093
 20
90.0510138021
  0
VERTEX
  8
0
 62
9
  6
CONTINUOUS
 10
64.6688917308
 20
90.1304732316
  0
VERTEX
  8
0
 62
9
  6
CONTINUOUS
 10
64.6827700647
 20
90.2340266191
  0
VERTEX
  8
0
 62
9
  6
CONTINUOUS
 10
64.6914943412
 20
90.354616959
  0
VERTEX
  8
0
 62
9
  6
CONTINUOUS
 10
64.6944700279
 20
90.4840262582
  0
SEQEND
  0
LINE
  8
0
 62
7
  6
CONTINUOUS
 10
75.9498662831
 20
99.9109761214
 11
75.9501718781
 21
99.9111953572
  0
LINE
  8
0
 62
7
  6
CONTINUOUS
 10
75.9505192921
 20
99.9113404298
 11
75.9498662831
 21
99.9109761214
  0
POLYLINE
  8
0
 62
9
  6
CONTINUOUS
 66
1
 70
0
  0
VERTEX
  8
0
 62
9
  6
CONTINUOUS
 10
76.1734807594
 20
99.9726103525
  0
VERTEX
  8
0
 62
9
  6
CONTINUOUS
 10
76.1208059445
 20
99.946905941
  0
VERTEX
  8
0
 62
9
  6
CONTINUOUS
 10
76.0596993592
 20
99.9228227824
  0
VERTEX
  8
0
 62
9
  6
CONTINUOUS
 10
75.9931304844
 20
99.9004603436
  0
SEQEND
  0
LINE
  8
0
 62
7
  6
CONTINUOUS
 10
75.9501718781
 20
99.9111953572
 11
75.9475123003
 21
99.9099362701
  0
POLYLINE
  8
0
 62
9
  6
CONTINUOUS
 66
1
 70
0
  0
VERTEX
  8
0
 62
9
  6
CONTINUOUS
 10
75.6543922051
 20
99.7940381511
  0
VERTEX
  8
0
 62
9
  6
CONTINUOUS
 10
75.6439757773
 20
99.7891200192
  0
VERTEX
  8
0
 62
9
  6
CONTINUOUS
 10
75.6450701679
 20
99.7845844781
  0
VERTEX
  8
0
 62
9
  6
CONTINUOUS
 10
75.6576510052
 20
99.7806128244
  0
VERTEX
  8
0
 62
9
  6
CONTINUOUS
 10
75.6812296239
 20
99.7773565593
  0
VERTEX
  8
0
 62
9
  6
CONTINUOUS
 10
75.7149009457
 20
99.7749388545
  0
VERTEX
  8
0
 62
9
  6
CONTINUOUS
 10
75.7573585461
 20
99.7734517369
  0
VERTEX
  8
0
 62
9
  6
CONTINUOUS
 10
75.8068308505
 20
99.7729515423
  0
SEQEND
  0
POLYLINE
  8
0
 62
9
  6
CONTINUOUS
 66
1
 70
0
  0
VERTEX
  8
0
 62
9
  6
CONTINUOUS
 10
75.8068308505
 20
99.7729515423
  0
VERTEX
  8
0
 62
9
  6
CONTINUOUS
 10
75.7520220682
 20
99.7471381384
  0
VERTEX
  8
0
 62
9
  6
CONTINUOUS
 10
75.7017516498
 20
99.6925985426
  0
VERTEX
  8
0
 62
9
  6
CONTINUOUS
 10
75.6590772878
 20
99.6126499151
  0
VERTEX
  8
0
 62
9
  6
CONTINUOUS
 10
75.6265946754
 20
99.5121549718
  0
VERTEX
  8
0
 62
9
  6
CONTINUOUS
 10
75.6062796053
 20
99.397226227
  0
VERTEX
  8
0
 62
9
  6
CONTINUOUS
 10
75.5993677737
 20
99.2748541932
  0
SEQEND
  0
POLYLINE
  8
0
 62
9
  6
CONTINUOUS
 66
1
 70
0
  0
VERTEX
  8
0
 62
9
  6
CONTINUOUS
 10
60.6052095132
 20
99.7729515423
  0
VERTEX
  8
0
 62
9
  6
CONTINUOUS
 10
60.519999313
 20
99.7471381746
  0
VERTEX
  8
0
 62
9
  6
CONTINUOUS
 10
60.4418448139
 20
99.6925986651
  0
VERTEX
  8
0
 62
9
  6
CONTINUOUS
 10
60.3754997279
 20
99.6126501375
  0
VERTEX
  8
0
 62
9
  6
CONTINUOUS
 10
60.3249995282
 20
99.5121552457
  0
VERTEX
  8
0
 62
9
  6
CONTINUOUS
 10
60.2934159713
 20
99.3972264397
  0
VERTEX
  8
0
 62
9
  6
CONTINUOUS
 10
60.2826702278
 20
99.2748541932
  0
SEQEND
  0
POLYLINE
  8
0
 62
9
  6
CONTINUOUS
 66
1
 70
0
  0
VERTEX
  8
0
 62
9
  6
CONTINUOUS
 10
150.0931966979
 20
90.1951009741
  0
VERTEX
  8
0
 62
9
  6
CONTINUOUS
 10
150.186952119
 20
90.220914392
  0
VERTEX
  8
0
 62
9
  6
CONTINUOUS
 10
150.2729442366
 20
90.2754540089
  0
VERTEX
  8
0
 62
9
  6
CONTINUOUS
 10
150.3459425943
 20
90.3554026502
  0
VERTEX
  8
0
 62
9
  6
CONTINUOUS
 10
150.401507032
 20
90.4558975915
  0
VERTEX
  8
0
 62
9
  6
CONTINUOUS
 10
150.4362577867
 20
90.570826318
  0
VERTEX
  8
0
 62
9
  6
CONTINUOUS
 10
150.4480810954
 20
90.6931983232
  0
SEQEND
  0
POLYLINE
  8
0
 62
9
  6
CONTINUOUS
 66
1
 70
0
  0
VERTEX
  8
0
 62
9
  6
CONTINUOUS
 10
159.4883153685
 20
90.1951009741
  0
VERTEX
  8
0
 62
9
  6
CONTINUOUS
 10
159.6008597155
 20
90.2209143043
  0
VERTEX
  8
0
 62
9
  6
CONTINUOUS
 10
159.7040850517
 20
90.2754537521
  0
VERTEX
  8
0
 62
9
  6
CONTINUOUS
 10
159.7917127351
 20
90.3554022327
  0
VERTEX
  8
0
 62
9
  6
CONTINUOUS
 10
159.8584127469
 20
90.4558971209
  0
VERTEX
  8
0
 62
9
  6
CONTINUOUS
 10
159.9001279224
 20
90.5708259783
  0
VERTEX
  8
0
 62
9
  6
CONTINUOUS
 10
159.9143207744
 20
90.6931983232
  0
SEQEND
  0
POLYLINE
  8
0
 62
9
  6
CONTINUOUS
 66
1
 70
0
  0
VERTEX
  8
0
 62
9
  6
CONTINUOUS
 10
161.461576163
 20
90.1951009741
  0
VERTEX
  8
0
 62
9
  6
CONTINUOUS
 10
161.5780671568
 20
90.2209144338
  0
VERTEX
  8
0
 62
9
  6
CONTINUOUS
 10
161.6849121873
 20
90.2754541139
  0
VERTEX
  8
0
 62
9
  6
CONTINUOUS
 10
161.7756124405
 20
90.3554027965
  0
VERTEX
  8
0
 62
9
  6
CONTINUOUS
 10
161.8446510599
 20
90.455897732
  0
VERTEX
  8
0
 62
9
  6
CONTINUOUS
 10
161.8878287339
 20
90.5708264037
  0
VERTEX
  8
0
 62
9
  6
CONTINUOUS
 10
161.9025191448
 20
90.6931983232
  0
SEQEND
  0
LINE
  8
0
 62
9
  6
CONTINUOUS
 10
159.4716920346
 20
89.9840262582
 11
159.551260195
 21
90.0010635738
  0
LINE
  8
0
 62
9
  6
CONTINUOUS
 10
46.953909716
 20
89.9840262582
 11
46.8743420756
 21
90.0010633472
  0
POLYLINE
  8
0
 62
7
  6
CONTINUOUS
 66
1
 70
0
  0
VERTEX
  8
0
 62
7
  6
CONTINUOUS
 10
44.8803351495
 20
90.205382393
  0
VERTEX
  8
0
 62
7
  6
CONTINUOUS
 10
44.9110306252
 20
90.1987969134
  0
VERTEX
  8
0
 62
7
  6
CONTINUOUS
 10
44.934558124
 20
90.1948137104
  0
VERTEX
  8
0
 62
7
  6
CONTINUOUS
 10
44.9552766913
 20
90.191842143
  0
VERTEX
  8
0
 62
7
  6
CONTINUOUS
 10
44.9762993213
 20
90.1891480204
  0
VERTEX
  8
0
 62
7
  6
CONTINUOUS
 10
44.9998382657
 20
90.1863691867
  0
VERTEX
  8
0
 62
7
  6
CONTINUOUS
 10
45.0275049214
 20
90.1833102697
  0
SEQEND
  0
POLYLINE
  8
0
 62
9
  6
CONTINUOUS
 66
1
 70
0
  0
VERTEX
  8
0
 62
9
  6
CONTINUOUS
 10
44.9640255875
 20
90.1951009741
  0
VERTEX
  8
0
 62
9
  6
CONTINUOUS
 10
44.8475349538
 20
90.2209143043
  0
VERTEX
  8
0
 62
9
  6
CONTINUOUS
 10
44.7406900952
 20
90.2754537521
  0
VERTEX
  8
0
 62
9
  6
CONTINUOUS
 10
44.6499898096
 20
90.3554022327
  0
VERTEX
  8
0
 62
9
  6
CONTINUOUS
 10
44.5809510094
 20
90.4558971209
  0
VERTEX
  8
0
 62
9
  6
CONTINUOUS
 10
44.5377731207
 20
90.5708259783
  0
VERTEX
  8
0
 62
9
  6
CONTINUOUS
 10
44.5230826058
 20
90.6931983232
  0
SEQEND
  0
POLYLINE
  8
0
 62
9
  6
CONTINUOUS
 66
1
 70
0
  0
VERTEX
  8
0
 62
9
  6
CONTINUOUS
 10
46.9372863821
 20
90.1951009741
  0
VERTEX
  8
0
 62
9
  6
CONTINUOUS
 10
46.8247418261
 20
90.2209143822
  0
VERTEX
  8
0
 62
9
  6
CONTINUOUS
 10
46.7215163697
 20
90.2754539844
  0
VERTEX
  8
0
 62
9
  6
CONTINUOUS
 10
46.6338886882
 20
90.3554026161
  0
VERTEX
  8
0
 62
9
  6
CONTINUOUS
 10
46.567188784
 20
90.4558975587
  0
VERTEX
  8
0
 62
9
  6
CONTINUOUS
 10
46.5254737533
 20
90.5708262981
  0
VERTEX
  8
0
 62
9
  6
CONTINUOUS
 10
46.5112809762
 20
90.6931983232
  0
SEQEND
  0
POLYLINE
  8
0
 62
9
  6
CONTINUOUS
 66
1
 70
0
  0
VERTEX
  8
0
 62
9
  6
CONTINUOUS
 10
56.3324050526
 20
90.1951009741
  0
VERTEX
  8
0
 62
9
  6
CONTINUOUS
 10
56.2386498282
 20
90.2209143043
  0
VERTEX
  8
0
 62
9
  6
CONTINUOUS
 10
56.1526578185
 20
90.2754537521
  0
VERTEX
  8
0
 62
9
  6
CONTINUOUS
 10
56.0796594549
 20
90.3554022327
  0
VERTEX
  8
0
 62
9
  6
CONTINUOUS
 10
56.024094917
 20
90.4558971209
  0
VERTEX
  8
0
 62
9
  6
CONTINUOUS
 10
55.9893440313
 20
90.5708259783
  0
VERTEX
  8
0
 62
9
  6
CONTINUOUS
 10
55.9775206553
 20
90.6931983232
  0
SEQEND
  0
POLYLINE
  8
0
 62
9
  6
CONTINUOUS
 66
1
 70
0
  0
VERTEX
  8
0
 62
9
  6
CONTINUOUS
 10
60.6052095132
 20
90.1951009741
  0
VERTEX
  8
0
 62
9
  6
CONTINUOUS
 10
60.5199990564
 20
90.2209144683
  0
VERTEX
  8
0
 62
9
  6
CONTINUOUS
 10
60.4418444391
 20
90.2754542007
  0
VERTEX
  8
0
 62
9
  6
CONTINUOUS
 10
60.3754993798
 20
90.3554029174
  0
VERTEX
  8
0
 62
9
  6
CONTINUOUS
 10
60.3249993086
 20
90.4558978482
  0
VERTEX
  8
0
 62
9
  6
CONTINUOUS
 10
60.2934159005
 20
90.5708264744
  0
VERTEX
  8
0
 62
9
  6
CONTINUOUS
 10
60.2826702274
 20
90.6931983232
  0
SEQEND
  0
LINE
  8
0
 62
7
  6
CONTINUOUS
 10
75.9505194744
 20
90.0567121625
 11
75.9870256384
 21
90.0379614795
  0
LINE
  8
0
 62
7
  6
CONTINUOUS
 10
75.9505194744
 20
90.0567121625
 11
75.9498860933
 21
90.0570655013
  0
POLYLINE
  8
0
 62
9
  6
CONTINUOUS
 66
1
 70
0
  0
VERTEX
  8
0
 62
9
  6
CONTINUOUS
 10
64.6071400421
 20
99.9840262582
  0
VERTEX
  8
0
 62
9
  6
CONTINUOUS
 10
64.6297428124
 20
99.9669890075
  0
VERTEX
  8
0
 62
9
  6
CONTINUOUS
 10
64.6508051832
 20
99.91703847
  0
VERTEX
  8
0
 62
9
  6
CONTINUOUS
 10
64.668891796
 20
99.837578911
  0
VERTEX
  8
0
 62
9
  6
CONTINUOUS
 10
64.6827701028
 20
99.7340255178
  0
VERTEX
  8
0
 62
9
  6
CONTINUOUS
 10
64.6914943522
 20
99.613435319
  0
VERTEX
  8
0
 62
9
  6
CONTINUOUS
 10
64.6944700277
 20
99.4840262582
  0
SEQEND
  0
LINE
  8
0
 62
7
  6
CONTINUOUS
 10
87.5789624315
 20
82.4840262582
 11
87.5789624315
 21
82.2840262582
  0
LINE
  8
0
 62
7
  6
CONTINUOUS
 10
87.6538734208
 20
82.4840262582
 11
87.6538734208
 21
82.2840262582
  0
LINE
  8
0
 62
7
  6
CONTINUOUS
 10
88.1253309428
 20
82.4840262582
 11
88.1253309428
 21
82.2840262582
  0
LINE
  8
0
 62
7
  6
CONTINUOUS
 10
89.6710418539
 20
82.4840262582
 11
89.6710418539
 21
82.2840262582
  0
LINE
  8
0
 62
7
  6
CONTINUOUS
 10
90.3254684434
 20
82.4840262582
 11
90.3254684434
 21
82.2840262582
  0
LINE
  8
0
 62
7
  6
CONTINUOUS
 10
90.7969259654
 20
82.4840262582
 11
90.7969259654
 21
82.2840262582
  0
LINE
  8
0
 62
7
  6
CONTINUOUS
 10
90.9154716607
 20
82.4840262582
 11
90.9154716607
 21
82.2840262582
  0
LINE
  8
0
 62
7
  6
CONTINUOUS
 10
91.2411860135
 20
82.4840262582
 11
91.2411860135
 21
82.2840262582
  0
POLYLINE
  8
0
 62
9
  6
CONTINUOUS
 66
1
 70
0
  0
VERTEX
  8
0
 62
9
  6
CONTINUOUS
 10
81.6403722686
 20
99.7729515423
  0
VERTEX
  8
0
 62
9
  6
CONTINUOUS
 10
81.5972299338
 20
99.7471381746
  0
VERTEX
  8
0
 62
9
  6
CONTINUOUS
 10
81.5576599345
 20
99.6925986651
  0
VERTEX
  8
0
 62
9
  6
CONTINUOUS
 10
81.5240690981
 20
99.6126501375
  0
VERTEX
  8
0
 62
9
  6
CONTINUOUS
 10
81.4985006041
 20
99.5121552457
  0
VERTEX
  8
0
 62
9
  6
CONTINUOUS
 10
81.4825096975
 20
99.3972264397
  0
VERTEX
  8
0
 62
9
  6
CONTINUOUS
 10
81.4770690761
 20
99.2748541932
  0
SEQEND
  0
LINE
  8
0
 62
9
  6
CONTINUOUS
 10
76.0752238103
 20
99.9669891176
 11
75.9557896586
 21
99.9170388029
  0
LINE
  8
0
 62
7
  6
CONTINUOUS
 10
75.9475123003
 20
99.9099362701
 11
75.9146498664
 21
99.8966690908
  0
POLYLINE
  8
0
 62
7
  6
CONTINUOUS
 66
1
 70
0
  0
VERTEX
  8
0
 62
7
  6
CONTINUOUS
 10
75.5245636221
 20
99.7729639481
  0
VERTEX
  8
0
 62
7
  6
CONTINUOUS
 10
75.4665686301
 20
99.7511941542
  0
VERTEX
  8
0
 62
7
  6
CONTINUOUS
 10
75.4038937497
 20
99.7183263293
  0
VERTEX
  8
0
 62
7
  6
CONTINUOUS
 10
75.3426764882
 20
99.6741691212
  0
VERTEX
  8
0
 62
7
  6
CONTINUOUS
 10
75.2859414122
 20
99.6183017995
  0
VERTEX
  8
0
 62
7
  6
CONTINUOUS
 10
75.2368513272
 20
99.5512142643
  0
VERTEX
  8
0
 62
7
  6
CONTINUOUS
 10
75.1983015838
 20
99.4740217993
  0
VERTEX
  8
0
 62
7
  6
CONTINUOUS
 10
75.1729513679
 20
99.3885558789
  0
VERTEX
  8
0
 62
7
  6
CONTINUOUS
 10
75.1630018857
 20
99.2891235435
  0
SEQEND
  0
POLYLINE
  8
0
 62
7
  6
CONTINUOUS
 66
1
 70
0
  0
VERTEX
  8
0
 62
7
  6
CONTINUOUS
 10
76.0925144724
 20
99.9677868256
  0
VERTEX
  8
0
 62
7
  6
CONTINUOUS
 10
75.9900368432
 20
99.93149941
  0
VERTEX
  8
0
 62
7
  6
CONTINUOUS
 10
75.9505193674
 20
99.9113402947
  0
SEQEND
  0
LINE
  8
0
 62
7
  6
CONTINUOUS
 10
75.9146498664
 20
99.8966690908
 11
75.863729754
 21
99.8794703296
  0
LINE
  8
0
 62
9
  6
CONTINUOUS
 10
76.1997386771
 20
99.9811679521
 11
76.1734807594
 21
99.9726103525
  0
LINE
  8
0
 62
7
  6
CONTINUOUS
 10
75.8635519209
 20
99.8794145286
 11
75.5245334532
 21
99.7729553985
  0
LINE
  8
0
 62
9
  6
CONTINUOUS
 10
75.9931304844
 20
99.9004603436
 11
75.6543922051
 21
99.7940381511
  0
POLYLINE
  8
0
 62
9
  6
CONTINUOUS
 66
1
 70
0
  0
VERTEX
  8
0
 62
9
  6
CONTINUOUS
 10
139.7309030038
 20
89.9840262582
  0
VERTEX
  8
0
 62
9
  6
CONTINUOUS
 10
139.8163603247
 20
90.0010633427
  0
VERTEX
  8
0
 62
9
  6
CONTINUOUS
 10
139.8959938738
 20
90.0510135496
  0
VERTEX
  8
0
 62
9
  6
CONTINUOUS
 10
139.9643767555
 20
90.1304728578
  0
VERTEX
  8
0
 62
9
  6
CONTINUOUS
 10
140.016848788
 20
90.2340262485
  0
VERTEX
  8
0
 62
9
  6
CONTINUOUS
 10
140.0498340875
 20
90.3546167297
  0
VERTEX
  8
0
 62
9
  6
CONTINUOUS
 10
140.0610847591
 20
90.4840262582
  0
SEQEND
  0
POLYLINE
  8
0
 62
7
  6
CONTINUOUS
 66
1
 70
0
  0
VERTEX
  8
0
 62
7
  6
CONTINUOUS
 10
150.1764335147
 20
90.1846407298
  0
VERTEX
  8
0
 62
7
  6
CONTINUOUS
 10
150.2125328
 20
90.1915878126
  0
VERTEX
  8
0
 62
7
  6
CONTINUOUS
 10
150.2512151641
 20
90.2011103997
  0
VERTEX
  8
0
 62
7
  6
CONTINUOUS
 10
150.2952852952
 20
90.2153945826
  0
VERTEX
  8
0
 62
7
  6
CONTINUOUS
 10
150.342655288
 20
90.2356602816
  0
VERTEX
  8
0
 62
7
  6
CONTINUOUS
 10
150.3905327247
 20
90.2622571959
  0
VERTEX
  8
0
 62
7
  6
CONTINUOUS
 10
150.4379572913
 20
90.2959839419
  0
VERTEX
  8
0
 62
7
  6
CONTINUOUS
 10
150.4831354375
 20
90.3369268391
  0
VERTEX
  8
0
 62
7
  6
CONTINUOUS
 10
150.5238599083
 20
90.3841245977
  0
VERTEX
  8
0
 62
7
  6
CONTINUOUS
 10
150.5591497327
 20
90.4372634935
  0
VERTEX
  8
0
 62
7
  6
CONTINUOUS
 10
150.5882300147
 20
90.4964292727
  0
VERTEX
  8
0
 62
7
  6
CONTINUOUS
 10
150.6099667112
 20
90.5614622716
  0
VERTEX
  8
0
 62
7
  6
CONTINUOUS
 10
150.6229797594
 20
90.6319889179
  0
VERTEX
  8
0
 62
7
  6
CONTINUOUS
 10
150.6260525423
 20
90.6873870908
  0
SEQEND
  0
LINE
  8
0
 62
7
  6
CONTINUOUS
 10
150.1376189798
 20
90.1785829984
 11
150.1764335147
 21
90.1846407298
  0
POLYLINE
  8
0
 62
9
  6
CONTINUOUS
 66
1
 70
0
  0
VERTEX
  8
0
 62
9
  6
CONTINUOUS
 10
153.4644294912
 20
89.9840262582
  0
VERTEX
  8
0
 62
9
  6
CONTINUOUS
 10
153.5820251301
 20
90.0010633427
  0
VERTEX
  8
0
 62
9
  6
CONTINUOUS
 10
153.6916068252
 20
90.0510135496
  0
VERTEX
  8
0
 62
9
  6
CONTINUOUS
 10
153.785706764
 20
90.1304728578
  0
VERTEX
  8
0
 62
9
  6
CONTINUOUS
 10
153.8579121892
 20
90.2340262485
  0
VERTEX
  8
0
 62
9
  6
CONTINUOUS
 10
153.9033024183
 20
90.3546167297
  0
VERTEX
  8
0
 62
9
  6
CONTINUOUS
 10
153.9187841803
 20
90.4840262582
  0
SEQEND
  0
POLYLINE
  8
0
 62
9
  6
CONTINUOUS
 66
1
 70
0
  0
VERTEX
  8
0
 62
9
  6
CONTINUOUS
 10
161.4314229504
 20
90.187436247
  0
VERTEX
  8
0
 62
9
  6
CONTINUOUS
 10
161.4557716279
 20
90.1906935205
  0
VERTEX
  8
0
 62
9
  6
CONTINUOUS
 10
161.4691780658
 20
90.193112169
  0
VERTEX
  8
0
 62
9
  6
CONTINUOUS
 10
161.471127937
 20
90.1945998926
  0
VERTEX
  8
0
 62
9
  6
CONTINUOUS
 10
161.461576163
 20
90.1951009741
  0
SEQEND
  0
LINE
  8
0
 62
7
  6
CONTINUOUS
 10
149.134931037
 20
82.2840262582
 11
143.4126832674
 21
82.2840262582
  0
LINE
  8
0
 62
7
  6
CONTINUOUS
 10
143.0004514569
 20
82.2840262582
 11
129.5375918926
 21
82.2840262582
  0
LINE
  8
0
 62
7
  6
CONTINUOUS
 10
94.4282858623
 20
82.2840262582
 11
87.5789624315
 21
82.2840262582
  0
LINE
  8
0
 62
7
  6
CONTINUOUS
 10
86.5256087881
 20
82.2840262582
 11
83.1522968105
 21
82.2840262582
  0
LINE
  8
1_AXIS
 62
7
  6
CONTINUOUS
 10
151.2128008753
 20
82.4840262582
 11
55.2128738527
 21
82.4840262582
  0
POLYLINE
  8
0
 62
9
  6
CONTINUOUS
 66
1
 70
0
  0
VERTEX
  8
0
 62
9
  6
CONTINUOUS
 10
52.9611722593
 20
89.9840262582
  0
VERTEX
  8
0
 62
9
  6
CONTINUOUS
 10
52.8435758369
 20
90.0010635738
  0
VERTEX
  8
0
 62
9
  6
CONTINUOUS
 10
52.7339938349
 20
90.0510142425
  0
VERTEX
  8
0
 62
9
  6
CONTINUOUS
 10
52.6398940371
 20
90.1304739027
  0
VERTEX
  8
0
 62
9
  6
CONTINUOUS
 10
52.5676890104
 20
90.2340272986
  0
VERTEX
  8
0
 62
9
  6
CONTINUOUS
 10
52.5222991728
 20
90.354617385
  0
VERTEX
  8
0
 62
9
  6
CONTINUOUS
 10
52.5068175703
 20
90.4840262582
  0
SEQEND
  0
POLYLINE
  8
0
 62
7
  6
CONTINUOUS
 66
1
 70
0
  0
VERTEX
  8
0
 62
7
  6
CONTINUOUS
 10
56.2441626434
 20
90.1855153447
  0
VERTEX
  8
0
 62
7
  6
CONTINUOUS
 10
56.2852729089
 20
90.1789704327
  0
VERTEX
  8
0
 62
7
  6
CONTINUOUS
 10
56.3029762463
 20
90.1765157892
  0
SEQEND
  0
POLYLINE
  8
0
 62
9
  6
CONTINUOUS
 66
1
 70
0
  0
VERTEX
  8
0
 62
9
  6
CONTINUOUS
 10
66.6946987467
 20
89.9840262582
  0
VERTEX
  8
0
 62
9
  6
CONTINUOUS
 10
66.6092408564
 20
90.0010635738
  0
VERTEX
  8
0
 62
9
  6
CONTINUOUS
 10
66.5296070843
 20
90.0510142425
  0
VERTEX
  8
0
 62
9
  6
CONTINUOUS
 10
66.4612243051
 20
90.1304739027
  0
VERTEX
  8
0
 62
9
  6
CONTINUOUS
 10
66.4087525622
 20
90.2340272986
  0
VERTEX
  8
0
 62
9
  6
CONTINUOUS
 10
66.3757675471
 20
90.354617385
  0
VERTEX
  8
0
 62
9
  6
CONTINUOUS
 10
66.3645169916
 20
90.4840262582
  0
SEQEND
  0
LINE
  8
0
 62
7
  6
CONTINUOUS
 10
75.5245334517
 20
90.1950971184
 11
75.8635519209
 21
90.0886379878
  0
LINE
  8
0
 62
9
  6
CONTINUOUS
 10
75.6543922051
 20
90.1740143653
 11
75.9931304844
 21
90.0675921728
  0
POLYLINE
  8
0
 62
9
  6
CONTINUOUS
 66
1
 70
0
  0
VERTEX
  8
0
 62
9
  6
CONTINUOUS
 10
76.1734807594
 20
89.9954421639
  0
VERTEX
  8
0
 62
9
  6
CONTINUOUS
 10
76.199739185
 20
89.9868844503
  0
VERTEX
  8
0
 62
9
  6
CONTINUOUS
 10
76.2242022033
 20
89.9840262582
  0
SEQEND
  0
POLYLINE
  8
0
 62
9
  6
CONTINUOUS
 66
1
 70
0
  0
VERTEX
  8
0
 62
9
  6
CONTINUOUS
 10
75.9931304844
 20
90.0675921728
  0
VERTEX
  8
0
 62
9
  6
CONTINUOUS
 10
76.05968755
 20
90.0452340021
  0
VERTEX
  8
0
 62
9
  6
CONTINUOUS
 10
76.120796357
 20
90.0211507376
  0
VERTEX
  8
0
 62
9
  6
CONTINUOUS
 10
76.1734807594
 20
89.9954421639
  0
SEQEND
  0
POLYLINE
  8
0
 62
7
  6
CONTINUOUS
 66
1
 70
0
  0
VERTEX
  8
0
 62
7
  6
CONTINUOUS
 10
75.863736755
 20
90.0885799921
  0
VERTEX
  8
0
 62
7
  6
CONTINUOUS
 10
75.9136549756
 20
90.0717486291
  0
VERTEX
  8
0
 62
7
  6
CONTINUOUS
 10
75.9347197359
 20
90.0636316559
  0
SEQEND
  0
LINE
  8
0
 62
7
  6
CONTINUOUS
 10
75.9870256384
 20
90.0379614795
 11
76.0906834226
 21
90.0007249075
  0
POLYLINE
  8
0
 62
9
  6
CONTINUOUS
 66
1
 70
0
  0
VERTEX
  8
0
 62
9
  6
CONTINUOUS
 10
55.7995490367
 20
99.2806673023
  0
VERTEX
  8
0
 62
9
  6
CONTINUOUS
 10
55.8028380934
 20
99.2792615873
  0
VERTEX
  8
0
 62
9
  6
CONTINUOUS
 10
55.8323125772
 20
99.2768446549
  0
VERTEX
  8
0
 62
9
  6
CONTINUOUS
 10
55.8912982836
 20
99.275356496
  0
VERTEX
  8
0
 62
9
  6
CONTINUOUS
 10
55.9775206552
 20
99.2748541932
  0
SEQEND
  0
LINE
  8
0
 62
7
  6
CONTINUOUS
 10
75.9347197359
 20
90.0636316559
 11
75.949886016
 21
90.0570653629
  0
POLYLINE
  8
0
 62
9
  6
CONTINUOUS
 66
1
 70
0
  0
VERTEX
  8
0
 62
9
  6
CONTINUOUS
 10
75.8068308505
 20
90.1951009741
  0
VERTEX
  8
0
 62
9
  6
CONTINUOUS
 10
75.7520221655
 20
90.2209143043
  0
VERTEX
  8
0
 62
9
  6
CONTINUOUS
 10
75.7017518044
 20
90.2754537521
  0
VERTEX
  8
0
 62
9
  6
CONTINUOUS
 10
75.6590774429
 20
90.3554022327
  0
VERTEX
  8
0
 62
9
  6
CONTINUOUS
 10
75.6265947806
 20
90.4558971209
  0
VERTEX
  8
0
 62
9
  6
CONTINUOUS
 10
75.606279642
 20
90.5708259783
  0
VERTEX
  8
0
 62
9
  6
CONTINUOUS
 10
75.5993677738
 20
90.6931983232
  0
SEQEND
  0
POLYLINE
  8
0
 62
9
  6
CONTINUOUS
 66
1
 70
0
  0
VERTEX
  8
0
 62
9
  6
CONTINUOUS
 10
81.6403722686
 20
90.1951009741
  0
VERTEX
  8
0
 62
9
  6
CONTINUOUS
 10
81.5972297304
 20
90.22091454
  0
VERTEX
  8
0
 62
9
  6
CONTINUOUS
 10
81.5576596473
 20
90.2754543808
  0
VERTEX
  8
0
 62
9
  6
CONTINUOUS
 10
81.5240688401
 20
90.3554031683
  0
VERTEX
  8
0
 62
9
  6
CONTINUOUS
 10
81.4985004468
 20
90.4558980893
  0
VERTEX
  8
0
 62
9
  6
CONTINUOUS
 10
81.4825096485
 20
90.5708266213
  0
VERTEX
  8
0
 62
9
  6
CONTINUOUS
 10
81.4770690756
 20
90.6931983232
  0
SEQEND
  0
LINE
  8
0
 62
7
  6
CONTINUOUS
 10
91.6268724123
 20
82.4840262582
 11
91.6268724123
 21
82.2840262582
  0
LINE
  8
0
 62
7
  6
CONTINUOUS
 10
92.0516940865
 20
82.4840262582
 11
92.0516940865
 21
82.2840262582
  0
LINE
  8
0
 62
7
  6
CONTINUOUS
 10
93.5060752472
 20
82.4840262582
 11
93.5060752472
 21
82.2840262582
  0
LINE
  8
0
 62
7
  6
CONTINUOUS
 10
93.9434921421
 20
82.4840262582
 11
93.9434921421
 21
82.2840262582
  0
LINE
  8
0
 62
7
  6
CONTINUOUS
 10
94.4282858623
 20
82.4840262582
 11
94.4282858623
 21
82.2840262582
  0
POLYLINE
  8
0
 62
9
  6
CONTINUOUS
 66
1
 70
0
  0
VERTEX
  8
0
 62
9
  6
CONTINUOUS
 10
96.7873685221
 20
99.9840262582
  0
VERTEX
  8
0
 62
9
  6
CONTINUOUS
 10
96.7723320653
 20
99.9669890075
  0
VERTEX
  8
0
 62
9
  6
CONTINUOUS
 10
96.7583203567
 20
99.91703847
  0
VERTEX
  8
0
 62
9
  6
CONTINUOUS
 10
96.7462882664
 20
99.837578911
  0
VERTEX
  8
0
 62
9
  6
CONTINUOUS
 10
96.7370557449
 20
99.7340255178
  0
VERTEX
  8
0
 62
9
  6
CONTINUOUS
 10
96.731251952
 20
99.613435319
  0
VERTEX
  8
0
 62
9
  6
CONTINUOUS
 10
96.7292723886
 20
99.4840262582
  0
SEQEND
  0
POLYLINE
  8
0
 62
9
  6
CONTINUOUS
 66
1
 70
0
  0
VERTEX
  8
0
 62
9
  6
CONTINUOUS
 10
86.7425368487
 20
99.9840262582
  0
VERTEX
  8
0
 62
9
  6
CONTINUOUS
 10
86.7039941947
 20
99.9669891752
  0
VERTEX
  8
0
 62
9
  6
CONTINUOUS
 10
86.6680781564
 20
99.9170389714
  0
VERTEX
  8
0
 62
9
  6
CONTINUOUS
 10
86.6372363529
 20
99.8375796654
  0
VERTEX
  8
0
 62
9
  6
CONTINUOUS
 10
86.6135706033
 20
99.7340262746
  0
VERTEX
  8
0
 62
9
  6
CONTINUOUS
 10
86.5986936904
 20
99.6134357908
  0
VERTEX
  8
0
 62
9
  6
CONTINUOUS
 10
86.5936194524
 20
99.4840262582
  0
SEQEND
  0
POLYLINE
  8
0
 62
9
  6
CONTINUOUS
 66
1
 70
0
  0
VERTEX
  8
0
 62
9
  6
CONTINUOUS
 10
62.7558990442
 20
89.9954421862
  0
VERTEX
  8
0
 62
9
  6
CONTINUOUS
 10
62.8138808434
 20
90.0154445458
  0
VERTEX
  8
0
 62
9
  6
CONTINUOUS
 10
62.8700502313
 20
90.0668525583
  0
VERTEX
  8
0
 62
9
  6
CONTINUOUS
 10
62.9207174884
 20
90.146289275
  0
VERTEX
  8
0
 62
9
  6
CONTINUOUS
 10
62.9625543257
 20
90.2485365654
  0
VERTEX
  8
0
 62
9
  6
CONTINUOUS
 10
62.9928125168
 20
90.3668778919
  0
VERTEX
  8
0
 62
9
  6
CONTINUOUS
 10
63.0095044268
 20
90.493539513
  0
SEQEND
  0
POLYLINE
  8
0
 62
9
  6
CONTINUOUS
 66
1
 70
0
  0
VERTEX
  8
0
 62
9
  6
CONTINUOUS
 10
131.4229139812
 20
89.9840262582
  0
VERTEX
  8
0
 62
9
  6
CONTINUOUS
 10
131.4889299188
 20
90.0010635738
  0
VERTEX
  8
0
 62
9
  6
CONTINUOUS
 10
131.5504467444
 20
90.0510142425
  0
VERTEX
  8
0
 62
9
  6
CONTINUOUS
 10
131.6032722152
 20
90.1304739027
  0
VERTEX
  8
0
 62
9
  6
CONTINUOUS
 10
131.643806463
 20
90.2340272986
  0
VERTEX
  8
0
 62
9
  6
CONTINUOUS
 10
131.6692872781
 20
90.354617385
  0
VERTEX
  8
0
 62
9
  6
CONTINUOUS
 10
131.6779782951
 20
90.4840262582
  0
SEQEND
  0
LINE
  8
0
 62
9
  6
CONTINUOUS
 10
130.7712095455
 20
90.1740143637
 11
130.901067981
 21
90.1950981287
  0
LINE
  8
0
 62
9
  6
CONTINUOUS
 10
130.4324712661
 20
90.0675921728
 11
130.561871842
 21
90.0885821599
  0
LINE
  8
0
 62
9
  6
CONTINUOUS
 10
124.4237288657
 20
90.1740143653
 11
123.762546569
 21
90.0675921728
  0
POLYLINE
  8
0
 62
9
  6
CONTINUOUS
 66
1
 70
0
  0
VERTEX
  8
0
 62
9
  6
CONTINUOUS
 10
130.2521209903
 20
89.9954421862
  0
VERTEX
  8
0
 62
9
  6
CONTINUOUS
 10
130.3770493418
 20
90.0154445458
  0
VERTEX
  8
0
 62
9
  6
CONTINUOUS
 10
130.4750827482
 20
90.0567122523
  0
SEQEND
  0
POLYLINE
  8
0
 62
9
  6
CONTINUOUS
 66
1
 70
0
  0
VERTEX
  8
0
 62
9
  6
CONTINUOUS
 10
123.762546569
 20
90.0675921728
  0
VERTEX
  8
0
 62
9
  6
CONTINUOUS
 10
123.6186508678
 20
90.0452340021
  0
VERTEX
  8
0
 62
9
  6
CONTINUOUS
 10
123.4523896115
 20
90.0211507376
  0
VERTEX
  8
0
 62
9
  6
CONTINUOUS
 10
123.2615094745
 20
89.9954421639
  0
SEQEND
  0
POLYLINE
  8
0
 62
7
  6
CONTINUOUS
 66
1
 70
0
  0
VERTEX
  8
0
 62
7
  6
CONTINUOUS
 10
148.8317104087
 20
89.9993399237
  0
VERTEX
  8
0
 62
7
  6
CONTINUOUS
 10
148.9685515324
 20
90.0198992676
  0
VERTEX
  8
0
 62
7
  6
CONTINUOUS
 10
149.1649302657
 20
90.0479733973
  0
SEQEND
  0
POLYLINE
  8
0
 62
9
  6
CONTINUOUS
 66
1
 70
0
  0
VERTEX
  8
0
 62
9
  6
CONTINUOUS
 10
148.790008527
 20
89.9954421639
  0
VERTEX
  8
0
 62
9
  6
CONTINUOUS
 10
148.9618133165
 20
90.0211374184
  0
VERTEX
  8
0
 62
9
  6
CONTINUOUS
 10
149.131012414
 20
90.0452207068
  0
SEQEND
  0
POLYLINE
  8
0
 62
9
  6
CONTINUOUS
 66
1
 70
0
  0
VERTEX
  8
0
 62
9
  6
CONTINUOUS
 10
150.0904276817
 20
90.1740143653
  0
VERTEX
  8
0
 62
9
  6
CONTINUOUS
 10
150.1234571244
 20
90.1789272241
  0
VERTEX
  8
0
 62
9
  6
CONTINUOUS
 10
150.1464249647
 20
90.1834633971
  0
VERTEX
  8
0
 62
9
  6
CONTINUOUS
 10
150.1583515585
 20
90.187436247
  0
VERTEX
  8
0
 62
9
  6
CONTINUOUS
 10
150.1587770569
 20
90.1906935205
  0
VERTEX
  8
0
 62
9
  6
CONTINUOUS
 10
150.1476884707
 20
90.193112169
  0
VERTEX
  8
0
 62
9
  6
CONTINUOUS
 10
150.1255241398
 20
90.1945998926
  0
SEQEND
  0
LINE
  8
0
 62
7
  6
CONTINUOUS
 10
130.2233257498
 20
89.9844734274
 11
130.3330828952
 21
90.0002646002
  0
LINE
  8
0
 62
7
  6
CONTINUOUS
 10
148.7809707383
 20
89.9925232887
 11
148.8316876418
 21
89.9993365462
  0
LINE
  8
0
 62
7
  6
CONTINUOUS
 10
149.1649302657
 20
90.0479733973
 11
150.1376189798
 21
90.1785829984
  0
LINE
  8
0
 62
9
  6
CONTINUOUS
 10
149.131012414
 20
90.0452207068
 11
150.0904276817
 21
90.1740143653
  0
LINE
  8
0
 62
9
  6
CONTINUOUS
 10
130.2222091859
 20
89.9840262582
 11
130.3503780515
 21
90.0010634289
  0
LINE
  8
0
 62
9
  6
CONTINUOUS
 10
130.2013995473
 20
89.9840262582
 11
130.2258614818
 21
89.9868842064
  0
LINE
  8
0
 62
9
  6
CONTINUOUS
 10
161.3970611539
 20
90.1834633971
 11
161.4067939527
 21
90.184252669
  0
POLYLINE
  8
0
 62
7
  6
CONTINUOUS
 66
1
 70
0
  0
VERTEX
  8
0
 62
7
  6
CONTINUOUS
 10
163.427039373
 20
90.1949182678
  0
VERTEX
  8
0
 62
7
  6
CONTINUOUS
 10
163.4355909861
 20
90.1958574729
  0
VERTEX
  8
0
 62
7
  6
CONTINUOUS
 10
163.4459995389
 20
90.1971314501
  0
VERTEX
  8
0
 62
7
  6
CONTINUOUS
 10
163.4608313777
 20
90.1992836417
  0
VERTEX
  8
0
 62
7
  6
CONTINUOUS
 10
163.479286917
 20
90.2025787147
  0
VERTEX
  8
0
 62
7
  6
CONTINUOUS
 10
163.4993067655
 20
90.2069614672
  0
VERTEX
  8
0
 62
7
  6
CONTINUOUS
 10
163.5201930182
 20
90.2124607262
  0
VERTEX
  8
0
 62
7
  6
CONTINUOUS
 10
163.5419561238
 20
90.2192350356
  0
VERTEX
  8
0
 62
7
  6
CONTINUOUS
 10
163.5642381441
 20
90.2273238659
  0
VERTEX
  8
0
 62
7
  6
CONTINUOUS
 10
163.5865694881
 20
90.2366633358
  0
VERTEX
  8
0
 62
7
  6
CONTINUOUS
 10
163.6087581095
 20
90.2472422039
  0
VERTEX
  8
0
 62
7
  6
CONTINUOUS
 10
163.6308477172
 20
90.2591543468
  0
VERTEX
  8
0
 62
7
  6
CONTINUOUS
 10
163.6528466792
 20
90.2725028839
  0
VERTEX
  8
0
 62
7
  6
CONTINUOUS
 10
163.6747434191
 20
90.287406539
  0
VERTEX
  8
0
 62
7
  6
CONTINUOUS
 10
163.6965019803
 20
90.3039977337
  0
VERTEX
  8
0
 62
7
  6
CONTINUOUS
 10
163.718022952
 20
90.3223887359
  0
VERTEX
  8
0
 62
7
  6
CONTINUOUS
 10
163.739113443
 20
90.3426228315
  0
VERTEX
  8
0
 62
7
  6
CONTINUOUS
 10
163.7595636083
 20
90.3647168093
  0
VERTEX
  8
0
 62
7
  6
CONTINUOUS
 10
163.7791585096
 20
90.3886664966
  0
VERTEX
  8
0
 62
7
  6
CONTINUOUS
 10
163.797684517
 20
90.4144516286
  0
VERTEX
  8
0
 62
7
  6
CONTINUOUS
 10
163.8149422479
 20
90.44205766
  0
VERTEX
  8
0
 62
7
  6
CONTINUOUS
 10
163.8307289583
 20
90.4714586924
  0
VERTEX
  8
0
 62
7
  6
CONTINUOUS
 10
163.8448340033
 20
90.5026088552
  0
VERTEX
  8
0
 62
7
  6
CONTINUOUS
 10
163.8570403518
 20
90.5354402774
  0
VERTEX
  8
0
 62
7
  6
CONTINUOUS
 10
163.8671264329
 20
90.5698610849
  0
VERTEX
  8
0
 62
7
  6
CONTINUOUS
 10
163.8748683338
 20
90.6057534666
  0
VERTEX
  8
0
 62
7
  6
CONTINUOUS
 10
163.8800423694
 20
90.6429718667
  0
VERTEX
  8
0
 62
7
  6
CONTINUOUS
 10
163.8824280279
 20
90.6813413062
  0
VERTEX
  8
0
 62
7
  6
CONTINUOUS
 10
163.8825677805
 20
90.6931621354
  0
SEQEND
  0
POLYLINE
  8
0
 62
9
  6
CONTINUOUS
 66
1
 70
0
  0
VERTEX
  8
0
 62
9
  6
CONTINUOUS
 10
144.1006889621
 20
90.5656895218
  0
VERTEX
  8
0
 62
9
  6
CONTINUOUS
 10
143.668792047
 20
90.5192486596
  0
VERTEX
  8
0
 62
9
  6
CONTINUOUS
 10
143.4160974071
 20
90.493539513
  0
SEQEND
  0
POLYLINE
  8
0
 62
7
  6
CONTINUOUS
 66
1
 70
0
  0
VERTEX
  8
0
 62
7
  6
CONTINUOUS
 10
161.3671138573
 20
90.1800655542
  0
VERTEX
  8
0
 62
7
  6
CONTINUOUS
 10
161.4067939527
 20
90.184252669
  0
VERTEX
  8
0
 62
7
  6
CONTINUOUS
 10
161.4405537487
 20
90.1880914628
  0
VERTEX
  8
0
 62
7
  6
CONTINUOUS
 10
161.4691702122
 20
90.1916871376
  0
VERTEX
  8
0
 62
7
  6
CONTINUOUS
 10
161.4953788584
 20
90.1954911651
  0
VERTEX
  8
0
 62
7
  6
CONTINUOUS
 10
161.5233810753
 20
90.2005094549
  0
VERTEX
  8
0
 62
7
  6
CONTINUOUS
 10
161.5557625236
 20
90.2080566919
  0
SEQEND
  0
LINE
  8
0
 62
9
  6
CONTINUOUS
 10
161.3540148472
 20
90.1789272241
 11
161.3671138573
 21
90.1800655542
  0
LINE
  8
0
 62
9
  6
CONTINUOUS
 10
145.132119171
 20
90.6721117143
 11
144.1006889621
 21
90.5656895218
  0
LINE
  8
0
 62
9
  6
CONTINUOUS
 10
145.441186026
 20
90.1740143653
 11
144.1890436277
 21
90.0452340021
  0
LINE
  8
0
 62
7
  6
CONTINUOUS
 10
163.4083968219
 20
90.1930340628
 11
163.427039373
 21
90.1949182678
  0
LINE
  8
0
 62
9
  6
CONTINUOUS
 10
159.4471828039
 20
89.9954421639
 11
159.4541951544
 21
89.9961318658
  0
LINE
  8
0
 62
9
  6
CONTINUOUS
 10
162.0742778003
 20
90.5656895218
 11
161.9085504643
 21
90.5498545156
  0
LINE
  8
0
 62
7
  6
CONTINUOUS
 10
161.3040926445
 20
90.173863901
 11
161.3671138573
 21
90.1800655542
  0
LINE
  8
0
 62
7
  6
CONTINUOUS
 10
159.4542107724
 20
89.9959730744
 11
161.3040926445
 21
90.173863901
  0
LINE
  8
0
 62
9
  6
CONTINUOUS
 10
144.1890436277
 20
90.0452340021
 11
143.6697027077
 21
89.9954421639
  0
LINE
  8
0
 62
9
  6
CONTINUOUS
 10
148.7900085255
 20
89.9954421862
 11
148.83168766
 21
89.9993364287
  0
LINE
  8
0
 62
7
  6
CONTINUOUS
 10
163.3481837158
 20
90.1873689332
 11
163.4083968219
 21
90.1930340628
  0
LINE
  8
0
 62
9
  6
CONTINUOUS
 10
157.8074377253
 20
90.5656895218
 11
157.0201249164
 21
90.493539513
  0
LINE
  8
0
 62
7
  6
CONTINUOUS
 10
163.3481837158
 20
90.1873689332
 11
161.1807918719
 21
89.9954421639
  0
LINE
  8
0
 62
9
  6
CONTINUOUS
 10
163.278304216
 20
90.6721117143
 11
162.0742778003
 21
90.5656895218
  0
LINE
  8
0
 62
7
  6
CONTINUOUS
 10
159.3962701128
 20
89.9909230347
 11
159.454210262
 21
89.9959731342
  0
LINE
  8
0
 62
9
  6
CONTINUOUS
 10
159.0309436854
 20
90.6721117143
 11
157.8074377253
 21
90.5656895218
  0
LINE
  8
0
 62
9
  6
CONTINUOUS
 10
157.3906619606
 20
90.0211507376
 11
157.0825300747
 21
89.9954421639
  0
LINE
  8
0
 62
9
  6
CONTINUOUS
 10
149.2950425892
 20
90.0675921728
 11
149.327178991
 21
90.0701004128
  0
LINE
  8
0
 62
9
  6
CONTINUOUS
 10
150.0904276818
 20
90.1740143637
 11
150.1226795865
 21
90.1765230588
  0
POLYLINE
  8
0
 62
9
  6
CONTINUOUS
 66
1
 70
0
  0
VERTEX
  8
0
 62
9
  6
CONTINUOUS
 10
143.6697027077
 20
89.9954421639
  0
VERTEX
  8
0
 62
9
  6
CONTINUOUS
 10
143.5506292937
 20
89.9868844503
  0
VERTEX
  8
0
 62
9
  6
CONTINUOUS
 10
143.4296612352
 20
89.9840262582
  0
SEQEND
  0
LINE
  8
0
 62
9
  6
CONTINUOUS
 10
160.189575676
 20
90.0675921728
 11
160.1948805712
 21
90.0679514196
  0
LINE
  8
0
 62
9
  6
CONTINUOUS
 10
161.3040782734
 20
90.1740143637
 11
161.3094640832
 21
90.1743770135
  0
POLYLINE
  8
0
 62
9
  6
CONTINUOUS
 66
1
 70
0
  0
VERTEX
  8
0
 62
9
  6
CONTINUOUS
 10
157.0201249164
 20
90.493539513
  0
VERTEX
  8
0
 62
9
  6
CONTINUOUS
 10
156.9132116074
 20
90.4864080966
  0
VERTEX
  8
0
 62
9
  6
CONTINUOUS
 10
156.8052188285
 20
90.4840262582
  0
SEQEND
  0
POLYLINE
  8
0
 62
7
  6
CONTINUOUS
 66
1
 70
0
  0
VERTEX
  8
0
 62
7
  6
CONTINUOUS
 10
161.1807918719
 20
89.9954421639
  0
VERTEX
  8
0
 62
7
  6
CONTINUOUS
 10
161.0520389607
 20
89.9868929735
  0
VERTEX
  8
0
 62
7
  6
CONTINUOUS
 10
160.9225786243
 20
89.9840262582
  0
SEQEND
  0
POLYLINE
  8
0
 62
9
  6
CONTINUOUS
 66
1
 70
0
  0
VERTEX
  8
0
 62
9
  6
CONTINUOUS
 10
157.0825300747
 20
89.9954421639
  0
VERTEX
  8
0
 62
9
  6
CONTINUOUS
 10
156.9467848491
 20
89.9868844503
  0
VERTEX
  8
0
 62
9
  6
CONTINUOUS
 10
156.8098262284
 20
89.9840262582
  0
SEQEND
  0
LINE
  8
1_AXIS
 62
9
  6
CONTINUOUS
 10
53.2128008753
 20
84.4840262582
 11
153.2128008753
 21
84.4840262582
  0
POLYLINE
  8
0
 62
7
  6
CONTINUOUS
 66
1
 70
0
  0
VERTEX
  8
0
 62
7
  6
CONTINUOUS
 10
47.0228714341
 20
89.991417991
  0
VERTEX
  8
0
 62
7
  6
CONTINUOUS
 10
47.1528939783
 20
89.9847535205
  0
VERTEX
  8
0
 62
7
  6
CONTINUOUS
 10
47.2121246453
 20
89.9840263629
  0
SEQEND
  0
LINE
  8
0
 62
9
  6
CONTINUOUS
 10
45.1215234773
 20
90.1740143653
 11
45.1161337971
 21
90.1743773101
  0
LINE
  8
0
 62
9
  6
CONTINUOUS
 10
46.236026076
 20
90.0675921898
 11
46.2307211806
 21
90.0679514333
  0
LINE
  8
0
 62
9
  6
CONTINUOUS
 10
47.0953723067
 20
89.9868844503
 11
46.9713912582
 21
89.9959731571
  0
POLYLINE
  8
0
 62
9
  6
CONTINUOUS
 66
1
 70
0
  0
VERTEX
  8
0
 62
9
  6
CONTINUOUS
 10
47.2100364927
 20
90.1789272241
  0
VERTEX
  8
0
 62
9
  6
CONTINUOUS
 10
47.1515735099
 20
90.1834633971
  0
VERTEX
  8
0
 62
9
  6
CONTINUOUS
 10
47.0956456431
 20
90.187436247
  0
VERTEX
  8
0
 62
9
  6
CONTINUOUS
 10
47.0444172332
 20
90.1906935205
  0
VERTEX
  8
0
 62
9
  6
CONTINUOUS
 10
46.9998477959
 20
90.193112169
  0
VERTEX
  8
0
 62
9
  6
CONTINUOUS
 10
46.9636658954
 20
90.1945998926
  0
VERTEX
  8
0
 62
9
  6
CONTINUOUS
 10
46.9372863821
 20
90.1951009741
  0
SEQEND
  0
LINE
  8
0
 62
9
  6
CONTINUOUS
 10
56.3351740688
 20
90.1740143653
 11
56.302976225
 21
90.1765155655
  0
POLYLINE
  8
0
 62
7
  6
CONTINUOUS
 66
1
 70
0
  0
VERTEX
  8
0
 62
7
  6
CONTINUOUS
 10
57.6393602622
 20
89.993139899
  0
VERTEX
  8
0
 62
7
  6
CONTINUOUS
 10
57.7459331409
 20
89.9848486329
  0
VERTEX
  8
0
 62
7
  6
CONTINUOUS
 10
57.7913579592
 20
89.9840263648
  0
SEQEND
  0
LINE
  8
0
 62
9
  6
CONTINUOUS
 10
57.1305591625
 20
90.0675921898
 11
57.0984228817
 21
90.070100402
  0
LINE
  8
0
 62
9
  6
CONTINUOUS
 10
49.3430716759
 20
89.9954421639
 11
47.2100364927
 21
90.1789272241
  0
LINE
  8
0
 62
9
  6
CONTINUOUS
 10
48.6181640253
 20
90.5656895218
 11
47.3946580651
 21
90.6721117143
  0
LINE
  8
0
 62
9
  6
CONTINUOUS
 10
44.3513239502
 20
90.5656895218
 11
43.1472975345
 21
90.6721117143
  0
LINE
  8
0
 62
7
  6
CONTINUOUS
 10
46.9713912582
 20
89.9959731571
 11
47.0228714341
 21
89.991417991
  0
LINE
  8
0
 62
7
  6
CONTINUOUS
 10
43.0533722063
 20
90.1895943204
 11
45.2448098787
 21
89.9954421639
  0
LINE
  8
0
 62
9
  6
CONTINUOUS
 10
49.4054768342
 20
90.493539513
 11
48.6181640253
 21
90.5656895218
  0
LINE
  8
0
 62
9
  6
CONTINUOUS
 10
57.6355932324
 20
89.9954422925
 11
57.5939123615
 21
89.9993368146
  0
POLYLINE
  8
0
 62
9
  6
CONTINUOUS
 66
1
 70
0
  0
VERTEX
  8
0
 62
9
  6
CONTINUOUS
 10
60.9844157246
 20
90.1740143653
  0
VERTEX
  8
0
 62
9
  6
CONTINUOUS
 10
60.932640995
 20
90.1789272241
  0
VERTEX
  8
0
 62
9
  6
CONTINUOUS
 10
60.8762906224
 20
90.1834633971
  0
VERTEX
  8
0
 62
9
  6
CONTINUOUS
 10
60.8176658926
 20
90.187436247
  0
VERTEX
  8
0
 62
9
  6
CONTINUOUS
 10
60.7590363081
 20
90.1906935205
  0
VERTEX
  8
0
 62
9
  6
CONTINUOUS
 10
60.7026460274
 20
90.193112169
  0
VERTEX
  8
0
 62
9
  6
CONTINUOUS
 10
60.6506859606
 20
90.1945998926
  0
VERTEX
  8
0
 62
9
  6
CONTINUOUS
 10
60.6052095132
 20
90.1951009741
  0
SEQEND
  0
LINE
  8
0
 62
9
  6
CONTINUOUS
 10
44.5174116431
 20
90.5498200781
 11
44.3513239502
 21
90.5656895218
  0
LINE
  8
0
 62
7
  6
CONTINUOUS
 10
43.0164946749
 20
90.193103607
 11
43.0533722063
 21
90.1895943204
  0
LINE
  8
0
 62
9
  6
CONTINUOUS
 10
62.7558990428
 20
89.9954421639
 11
62.2366915718
 21
90.0452207068
  0
LINE
  8
0
 62
9
  6
CONTINUOUS
 10
46.9713909591
 20
89.9959730783
 11
46.9784189466
 21
89.9954421639
  0
LINE
  8
0
 62
7
  6
CONTINUOUS
 10
45.0607261756
 20
90.1798370178
 11
46.7508623297
 21
90.0176842227
  0
LINE
  8
0
 62
7
  6
CONTINUOUS
 10
46.7508623297
 20
90.0176842227
 11
46.9713909591
 21
89.9959730783
  0
LINE
  8
0
 62
9
  6
CONTINUOUS
 10
62.2366915718
 20
90.0452207068
 11
60.9844157246
 21
90.1740143653
  0
LINE
  8
0
 62
9
  6
CONTINUOUS
 10
62.3249127884
 20
90.5656895218
 11
61.2934825795
 21
90.6721117143
  0
LINE
  8
0
 62
7
  6
CONTINUOUS
 10
45.0275049214
 20
90.1833102697
 11
45.0607261756
 21
90.1798370178
  0
LINE
  8
0
 62
9
  6
CONTINUOUS
 10
45.0607261756
 20
90.1798370178
 11
45.0715350121
 21
90.1789324972
  0
POLYLINE
  8
0
 62
9
  6
CONTINUOUS
 66
1
 70
0
  0
VERTEX
  8
0
 62
9
  6
CONTINUOUS
 10
63.0095043435
 20
90.493539513
  0
VERTEX
  8
0
 62
9
  6
CONTINUOUS
 10
62.5291522144
 20
90.5433154433
  0
VERTEX
  8
0
 62
9
  6
CONTINUOUS
 10
62.3249127884
 20
90.5656895218
  0
SEQEND
  0
LINE
  8
0
 62
9
  6
CONTINUOUS
 10
57.6355932236
 20
89.9954421639
 11
57.7139756316
 21
89.9868844503
  0
LINE
  8
0
 62
9
  6
CONTINUOUS
 10
44.9998382657
 20
90.1863691867
 11
45.0284983038
 21
90.1834680384
  0
POLYLINE
  8
0
 62
9
  6
CONTINUOUS
 66
1
 70
0
  0
VERTEX
  8
0
 62
9
  6
CONTINUOUS
 10
76.2033925647
 20
89.9840262582
  0
VERTEX
  8
0
 62
9
  6
CONTINUOUS
 10
76.0752231634
 20
90.0010635738
  0
VERTEX
  8
0
 62
9
  6
CONTINUOUS
 10
75.9557887512
 20
90.0510142425
  0
SEQEND
  0
POLYLINE
  8
0
 62
7
  6
CONTINUOUS
 66
1
 70
0
  0
VERTEX
  8
0
 62
7
  6
CONTINUOUS
 10
56.3028640524
 20
90.1765305564
  0
VERTEX
  8
0
 62
7
  6
CONTINUOUS
 10
57.2564706761
 20
90.0485576831
  0
VERTEX
  8
0
 62
7
  6
CONTINUOUS
 10
57.4531458782
 20
90.0204729681
  0
VERTEX
  8
0
 62
7
  6
CONTINUOUS
 10
57.5938916331
 20
89.9993398794
  0
SEQEND
  0
LINE
  8
0
 62
7
  6
CONTINUOUS
 10
57.5939123615
 20
89.9993368146
 11
57.6393602622
 21
89.993139899
  0
POLYLINE
  8
0
 62
9
  6
CONTINUOUS
 66
1
 70
0
  0
VERTEX
  8
0
 62
9
  6
CONTINUOUS
 10
56.3351740688
 20
90.1740143653
  0
VERTEX
  8
0
 62
9
  6
CONTINUOUS
 10
57.2944938093
 20
90.0452340021
  0
VERTEX
  8
0
 62
9
  6
CONTINUOUS
 10
57.4636969983
 20
90.0211507376
  0
SEQEND
  0
LINE
  8
0
 62
7
  6
CONTINUOUS
 10
76.0906834226
 20
90.0007249075
 11
76.2015808889
 21
89.9845022171
  0
LINE
  8
0
 62
9
  6
CONTINUOUS
 10
56.3021133752
 20
90.1789324972
 11
56.3351740688
 21
90.1740143653
  0
LINE
  8
0
 62
9
  6
CONTINUOUS
 10
57.4636969983
 20
90.0211507376
 11
57.6355932236
 21
89.9954421639
  0
POLYLINE
  8
0
 62
9
  6
CONTINUOUS
 66
1
 70
0
  0
VERTEX
  8
0
 62
9
  6
CONTINUOUS
 10
76.1734807646
 20
89.9954422925
  0
VERTEX
  8
0
 62
9
  6
CONTINUOUS
 10
76.0485524505
 20
90.0154446745
  0
VERTEX
  8
0
 62
9
  6
CONTINUOUS
 10
75.9505194744
 20
90.0567121625
  0
SEQEND
  0
LINE
  8
0
 62
9
  6
CONTINUOUS
 10
82.6630551816
 20
90.0675921728
 11
82.0018728848
 21
90.1740143653
  0
LINE
  8
0
 62
9
  6
CONTINUOUS
 10
75.9931304851
 20
90.0675921898
 11
75.863736755
 21
90.0885799921
  0
LINE
  8
0
 62
9
  6
CONTINUOUS
 10
75.6543922051
 20
90.1740143653
 11
75.5245815709
 21
90.1950820043
  0
POLYLINE
  8
0
 62
9
  6
CONTINUOUS
 66
1
 70
0
  0
VERTEX
  8
0
 62
9
  6
CONTINUOUS
 10
44.4959513237
 20
99.2757401606
  0
VERTEX
  8
0
 62
9
  6
CONTINUOUS
 10
44.4976277449
 20
99.275356496
  0
VERTEX
  8
0
 62
9
  6
CONTINUOUS
 10
44.5230826058
 20
99.2748541932
  0
SEQEND
  0
POLYLINE
  8
0
 62
9
  6
CONTINUOUS
 66
1
 70
0
  0
VERTEX
  8
0
 62
9
  6
CONTINUOUS
 10
75.0026877694
 20
89.9840262582
  0
VERTEX
  8
0
 62
9
  6
CONTINUOUS
 10
74.9366722717
 20
90.0010633427
  0
VERTEX
  8
0
 62
9
  6
CONTINUOUS
 10
74.8751556184
 20
90.0510135496
  0
VERTEX
  8
0
 62
9
  6
CONTINUOUS
 10
74.8223300685
 20
90.1304728578
  0
VERTEX
  8
0
 62
9
  6
CONTINUOUS
 10
74.7817955969
 20
90.2340262485
  0
VERTEX
  8
0
 62
9
  6
CONTINUOUS
 10
74.7563145621
 20
90.3546167297
  0
VERTEX
  8
0
 62
9
  6
CONTINUOUS
 10
74.7476234556
 20
90.4840262582
  0
SEQEND
  0
POLYLINE
  8
0
 62
9
  6
CONTINUOUS
 66
1
 70
0
  0
VERTEX
  8
0
 62
9
  6
CONTINUOUS
 10
62.7558990506
 20
99.9726102247
  0
VERTEX
  8
0
 62
9
  6
CONTINUOUS
 10
62.813880831
 20
99.9526078424
  0
VERTEX
  8
0
 62
9
  6
CONTINUOUS
 10
62.8700501997
 20
99.9011998279
  0
VERTEX
  8
0
 62
9
  6
CONTINUOUS
 10
62.9207174404
 20
99.8217631279
  0
VERTEX
  8
0
 62
9
  6
CONTINUOUS
 10
62.962554267
 20
99.7195158688
  0
VERTEX
  8
0
 62
9
  6
CONTINUOUS
 10
62.9928124551
 20
99.6011745826
  0
VERTEX
  8
0
 62
9
  6
CONTINUOUS
 10
63.009504371
 20
99.4745130034
  0
SEQEND
  0
POLYLINE
  8
0
 62
9
  6
CONTINUOUS
 66
1
 70
0
  0
VERTEX
  8
0
 62
9
  6
CONTINUOUS
 10
86.7425368487
 20
89.9840262582
  0
VERTEX
  8
0
 62
9
  6
CONTINUOUS
 10
86.7039939361
 20
90.0010635738
  0
VERTEX
  8
0
 62
9
  6
CONTINUOUS
 10
86.6680777966
 20
90.0510142425
  0
VERTEX
  8
0
 62
9
  6
CONTINUOUS
 10
86.6372360397
 20
90.1304739027
  0
VERTEX
  8
0
 62
9
  6
CONTINUOUS
 10
86.6135704216
 20
90.2340272986
  0
VERTEX
  8
0
 62
9
  6
CONTINUOUS
 10
86.5986936379
 20
90.354617385
  0
VERTEX
  8
0
 62
9
  6
CONTINUOUS
 10
86.5936194525
 20
90.4840262582
  0
SEQEND
  0
POLYLINE
  8
0
 62
9
  6
CONTINUOUS
 66
1
 70
0
  0
VERTEX
  8
0
 62
9
  6
CONTINUOUS
 10
75.1630014606
 20
99.2891196416
  0
VERTEX
  8
0
 62
9
  6
CONTINUOUS
 10
75.1684360971
 20
99.2864850054
  0
VERTEX
  8
0
 62
9
  6
CONTINUOUS
 10
75.2019011408
 20
99.2825162482
  0
VERTEX
  8
0
 62
9
  6
CONTINUOUS
 10
75.2646453622
 20
99.2792615873
  0
VERTEX
  8
0
 62
9
  6
CONTINUOUS
 10
75.3542631894
 20
99.2768446549
  0
VERTEX
  8
0
 62
9
  6
CONTINUOUS
 10
75.4672865228
 20
99.275356496
  0
VERTEX
  8
0
 62
9
  6
CONTINUOUS
 10
75.5993677737
 20
99.2748541932
  0
SEQEND
  0
POLYLINE
  8
0
 62
9
  6
CONTINUOUS
 66
1
 70
0
  0
VERTEX
  8
0
 62
9
  6
CONTINUOUS
 10
96.7873685221
 20
89.9840262582
  0
VERTEX
  8
0
 62
9
  6
CONTINUOUS
 10
96.7723321373
 20
90.0010633427
  0
VERTEX
  8
0
 62
9
  6
CONTINUOUS
 10
96.7583204567
 20
90.0510135496
  0
VERTEX
  8
0
 62
9
  6
CONTINUOUS
 10
96.7462883533
 20
90.1304728578
  0
VERTEX
  8
0
 62
9
  6
CONTINUOUS
 10
96.7370557954
 20
90.2340262485
  0
VERTEX
  8
0
 62
9
  6
CONTINUOUS
 10
96.7312519666
 20
90.3546167297
  0
VERTEX
  8
0
 62
9
  6
CONTINUOUS
 10
96.7292723887
 20
90.4840262582
  0
SEQEND
  0
LINE
  8
0
 62
9
  6
CONTINUOUS
 10
96.7292723887
 20
90.4840262582
 11
96.7292723887
 21
99.4840262582
  0
LINE
  8
0
 62
9
  6
CONTINUOUS
 10
98.1940721313
 20
90.4840262582
 11
98.1940721313
 21
99.4840262582
  0
LINE
  8
0
 62
9
  6
CONTINUOUS
 10
99.0699986468
 20
90.5656895218
 11
99.0699986468
 21
99.4023629946
  0
LINE
  8
0
 62
9
  6
CONTINUOUS
 10
99.2462952733
 20
90.6721117143
 11
99.2462952733
 21
99.2959408021
  0
POLYLINE
  8
0
 62
9
  6
CONTINUOUS
 66
1
 70
0
  0
VERTEX
  8
0
 62
9
  6
CONTINUOUS
 10
100.019997841
 20
99.7729515423
  0
VERTEX
  8
0
 62
9
  6
CONTINUOUS
 10
100.0136125816
 20
99.7471379987
  0
VERTEX
  8
0
 62
9
  6
CONTINUOUS
 10
100.007756057
 20
99.6925981916
  0
VERTEX
  8
0
 62
9
  6
CONTINUOUS
 10
100.0027844867
 20
99.6126494262
  0
VERTEX
  8
0
 62
9
  6
CONTINUOUS
 10
99.9990002638
 20
99.5121545022
  0
VERTEX
  8
0
 62
9
  6
CONTINUOUS
 10
99.9966335621
 20
99.3972259409
  0
VERTEX
  8
0
 62
9
  6
CONTINUOUS
 10
99.9958283356
 20
99.2748541932
  0
SEQEND
  0
POLYLINE
  8
0
 62
9
  6
CONTINUOUS
 66
1
 70
0
  0
VERTEX
  8
0
 62
9
  6
CONTINUOUS
 10
62.9959405153
 20
89.9840262582
  0
VERTEX
  8
0
 62
9
  6
CONTINUOUS
 10
63.0496632663
 20
90.0010633498
  0
VERTEX
  8
0
 62
9
  6
CONTINUOUS
 10
63.0997248983
 20
90.0510135712
  0
VERTEX
  8
0
 62
9
  6
CONTINUOUS
 10
63.1427137937
 20
90.1304728916
  0
VERTEX
  8
0
 62
9
  6
CONTINUOUS
 10
63.1757003317
 20
90.2340262844
  0
VERTEX
  8
0
 62
9
  6
CONTINUOUS
 10
63.1964365362
 20
90.3546167537
  0
VERTEX
  8
0
 62
9
  6
CONTINUOUS
 10
63.2035092717
 20
90.4840262582
  0
SEQEND
  0
POLYLINE
  8
0
 62
9
  6
CONTINUOUS
 66
1
 70
0
  0
VERTEX
  8
0
 62
9
  6
CONTINUOUS
 10
99.3867123878
 20
89.9954421639
  0
VERTEX
  8
0
 62
9
  6
CONTINUOUS
 10
99.3563065106
 20
89.9868844503
  0
VERTEX
  8
0
 62
9
  6
CONTINUOUS
 10
99.3236874433
 20
89.9840262582
  0
SEQEND
  0
POLYLINE
  8
0
 62
9
  6
CONTINUOUS
 66
1
 70
0
  0
VERTEX
  8
0
 62
9
  6
CONTINUOUS
 10
144.4096253179
 20
99.9004603436
  0
VERTEX
  8
0
 62
9
  6
CONTINUOUS
 10
144.3371919139
 20
99.8816089729
  0
VERTEX
  8
0
 62
9
  6
CONTINUOUS
 10
144.2675516386
 20
99.8308257274
  0
VERTEX
  8
0
 62
9
  6
CONTINUOUS
 10
144.2053445821
 20
99.7514942648
  0
VERTEX
  8
0
 62
9
  6
CONTINUOUS
 10
144.1547155636
 20
99.648900393
  0
VERTEX
  8
0
 62
9
  6
CONTINUOUS
 10
144.1190379646
 20
99.529879881
  0
VERTEX
  8
0
 62
9
  6
CONTINUOUS
 10
144.1006889621
 20
99.4023629946
  0
SEQEND
  0
POLYLINE
  8
0
 62
9
  6
CONTINUOUS
 66
1
 70
0
  0
VERTEX
  8
0
 62
9
  6
CONTINUOUS
 10
145.441186026
 20
99.7940381524
  0
VERTEX
  8
0
 62
9
  6
CONTINUOUS
 10
145.3687350069
 20
99.7752239318
  0
VERTEX
  8
0
 62
9
  6
CONTINUOUS
 10
145.2990709502
 20
99.7244608752
  0
VERTEX
  8
0
 62
9
  6
CONTINUOUS
 10
145.2368376367
 20
99.6451328293
  0
VERTEX
  8
0
 62
9
  6
CONTINUOUS
 10
145.1861835163
 20
99.542527773
  0
VERTEX
  8
0
 62
9
  6
CONTINUOUS
 10
145.1504851738
 20
99.4234853217
  0
VERTEX
  8
0
 62
9
  6
CONTINUOUS
 10
145.1321222474
 20
99.2959408021
  0
SEQEND
  0
POLYLINE
  8
0
 62
9
  6
CONTINUOUS
 66
1
 70
0
  0
VERTEX
  8
0
 62
9
  6
CONTINUOUS
 10
123.324052894
 20
90.5656895218
  0
VERTEX
  8
0
 62
9
  6
CONTINUOUS
 10
123.190914022
 20
90.5433282267
  0
VERTEX
  8
0
 62
9
  6
CONTINUOUS
 10
123.0371319904
 20
90.5192486596
  0
VERTEX
  8
0
 62
9
  6
CONTINUOUS
 10
122.8605546919
 20
90.493539513
  0
SEQEND
  0
POLYLINE
  8
0
 62
9
  6
CONTINUOUS
 66
1
 70
0
  0
VERTEX
  8
0
 62
9
  6
CONTINUOUS
 10
107.0388893627
 20
89.9954421862
  0
VERTEX
  8
0
 62
9
  6
CONTINUOUS
 10
107.1613039389
 20
90.0154445458
  0
VERTEX
  8
0
 62
9
  6
CONTINUOUS
 10
107.2754884187
 20
90.0668525583
  0
VERTEX
  8
0
 62
9
  6
CONTINUOUS
 10
107.3739421206
 20
90.146289275
  0
VERTEX
  8
0
 62
9
  6
CONTINUOUS
 10
107.4501977045
 20
90.2485365654
  0
VERTEX
  8
0
 62
9
  6
CONTINUOUS
 10
107.4992460056
 20
90.3668778919
  0
VERTEX
  8
0
 62
9
  6
CONTINUOUS
 10
107.5178650828
 20
90.493539513
  0
SEQEND
  0
LINE
  8
0
 62
9
  6
CONTINUOUS
 10
123.9850636983
 20
90.6721117143
 11
123.324052894
 21
90.5656895218
  0
POLYLINE
  8
0
 62
9
  6
CONTINUOUS
 66
1
 70
0
  0
VERTEX
  8
0
 62
9
  6
CONTINUOUS
 10
107.8072335503
 20
89.9840262582
  0
VERTEX
  8
0
 62
9
  6
CONTINUOUS
 10
107.9170496136
 20
90.0010633956
  0
VERTEX
  8
0
 62
9
  6
CONTINUOUS
 10
108.019381803
 20
90.0510137048
  0
VERTEX
  8
0
 62
9
  6
CONTINUOUS
 10
108.1072563649
 20
90.130473088
  0
VERTEX
  8
0
 62
9
  6
CONTINUOUS
 10
108.174684832
 20
90.2340264771
  0
VERTEX
  8
0
 62
9
  6
CONTINUOUS
 10
108.2170721122
 20
90.3546168713
  0
VERTEX
  8
0
 62
9
  6
CONTINUOUS
 10
108.2315296193
 20
90.4840262582
  0
SEQEND
  0
POLYLINE
  8
0
 62
9
  6
CONTINUOUS
 66
1
 70
0
  0
VERTEX
  8
0
 62
9
  6
CONTINUOUS
 10
106.8633716495
 20
90.0675921728
  0
VERTEX
  8
0
 62
9
  6
CONTINUOUS
 10
106.9899766953
 20
90.0864435435
  0
VERTEX
  8
0
 62
9
  6
CONTINUOUS
 10
107.1079659662
 20
90.137226789
  0
VERTEX
  8
0
 62
9
  6
CONTINUOUS
 10
107.2094779072
 20
90.2165582517
  0
VERTEX
  8
0
 62
9
  6
CONTINUOUS
 10
107.2877488381
 20
90.3191521234
  0
VERTEX
  8
0
 62
9
  6
CONTINUOUS
 10
107.3375636133
 20
90.4381726354
  0
VERTEX
  8
0
 62
9
  6
CONTINUOUS
 10
107.3556031038
 20
90.5656895218
  0
SEQEND
  0
POLYLINE
  8
0
 62
9
  6
CONTINUOUS
 66
1
 70
0
  0
VERTEX
  8
0
 62
9
  6
CONTINUOUS
 10
106.6868921899
 20
90.1740143637
  0
VERTEX
  8
0
 62
9
  6
CONTINUOUS
 10
106.8135307167
 20
90.1928286922
  0
VERTEX
  8
0
 62
9
  6
CONTINUOUS
 10
106.9315593332
 20
90.2435918078
  0
VERTEX
  8
0
 62
9
  6
CONTINUOUS
 10
107.0331103046
 20
90.3229198639
  0
VERTEX
  8
0
 62
9
  6
CONTINUOUS
 10
107.1114142891
 20
90.425524888
  0
VERTEX
  8
0
 62
9
  6
CONTINUOUS
 10
107.1612515781
 20
90.5445672755
  0
VERTEX
  8
0
 62
9
  6
CONTINUOUS
 10
107.1793000404
 20
90.6721117143
  0
SEQEND
  0
POLYLINE
  8
0
 62
9
  6
CONTINUOUS
 66
1
 70
0
  0
VERTEX
  8
0
 62
9
  6
CONTINUOUS
 10
107.1019143073
 20
89.9840262582
  0
VERTEX
  8
0
 62
9
  6
CONTINUOUS
 10
107.2253533645
 20
90.0010633498
  0
VERTEX
  8
0
 62
9
  6
CONTINUOUS
 10
107.3403802466
 20
90.0510135712
  0
VERTEX
  8
0
 62
9
  6
CONTINUOUS
 10
107.4391560615
 20
90.1304728916
  0
VERTEX
  8
0
 62
9
  6
CONTINUOUS
 10
107.5149494034
 20
90.2340262844
  0
VERTEX
  8
0
 62
9
  6
CONTINUOUS
 10
107.562595086
 20
90.3546167537
  0
VERTEX
  8
0
 62
9
  6
CONTINUOUS
 10
107.5788461407
 20
90.4840262582
  0
SEQEND
  0
POLYLINE
  8
0
 62
9
  6
CONTINUOUS
 66
1
 70
0
  0
VERTEX
  8
0
 62
9
  6
CONTINUOUS
 10
123.2615094745
 20
89.9954421639
  0
VERTEX
  8
0
 62
9
  6
CONTINUOUS
 10
123.179696747
 20
89.9868844503
  0
VERTEX
  8
0
 62
9
  6
CONTINUOUS
 10
123.0956357271
 20
89.9840262582
  0
SEQEND
  0
POLYLINE
  8
0
 62
9
  6
CONTINUOUS
 66
1
 70
0
  0
VERTEX
  8
0
 62
9
  6
CONTINUOUS
 10
122.8605546919
 20
90.493539513
  0
VERTEX
  8
0
 62
9
  6
CONTINUOUS
 10
122.7918186567
 20
90.4864080966
  0
VERTEX
  8
0
 62
9
  6
CONTINUOUS
 10
122.720996138
 20
90.4840262582
  0
SEQEND
  0
POLYLINE
  8
0
 62
9
  6
CONTINUOUS
 66
1
 70
0
  0
VERTEX
  8
0
 62
9
  6
CONTINUOUS
 10
143.4160974071
 20
90.493539513
  0
VERTEX
  8
0
 62
9
  6
CONTINUOUS
 10
143.3199613348
 20
90.4864080966
  0
VERTEX
  8
0
 62
9
  6
CONTINUOUS
 10
143.2220924789
 20
90.4840262582
  0
SEQEND
  0
LINE
  8
0
 62
9
  6
CONTINUOUS
 10
163.8825727138
 20
90.6931614402
 11
163.8742132576
 21
90.6926960254
  0
POLYLINE
  8
0
 62
9
  6
CONTINUOUS
 66
1
 70
0
  0
VERTEX
  8
0
 62
9
  6
CONTINUOUS
 10
148.6343108931
 20
89.9840262582
  0
VERTEX
  8
0
 62
9
  6
CONTINUOUS
 10
148.7116227929
 20
89.9868842064
  0
VERTEX
  8
0
 62
9
  6
CONTINUOUS
 10
148.790008527
 20
89.9954421639
  0
SEQEND
  0
LINE
  8
0
 62
9
  6
CONTINUOUS
 10
163.8742132576
 20
90.6926960254
 11
163.7697418368
 21
90.68879166
  0
LINE
  8
0
 62
9
  6
CONTINUOUS
 10
163.7697418368
 20
90.68879166
 11
163.278304216
 21
90.6721117143
  0
LINE
  8
0
 62
9
  6
CONTINUOUS
 10
159.3432695531
 20
90.681567511
 11
159.0309436854
 21
90.6721117143
  0
POLYLINE
  8
0
 62
9
  6
CONTINUOUS
 66
1
 70
0
  0
VERTEX
  8
0
 62
9
  6
CONTINUOUS
 10
159.213481789
 20
89.9840262588
  0
VERTEX
  8
0
 62
9
  6
CONTINUOUS
 10
159.3302244506
 20
89.9868842064
  0
VERTEX
  8
0
 62
9
  6
CONTINUOUS
 10
159.4542102729
 20
89.9959730249
  0
SEQEND
  0
LINE
  8
0
 62
7
  6
CONTINUOUS
 10
130.2013403121
 20
89.9840263807
 11
130.2233257498
 21
89.9844734274
  0
POLYLINE
  8
0
 62
9
  6
CONTINUOUS
 66
1
 70
0
  0
VERTEX
  8
0
 62
9
  6
CONTINUOUS
 10
159.4883153685
 20
90.1951009741
  0
VERTEX
  8
0
 62
9
  6
CONTINUOUS
 10
159.4619637913
 20
90.1946007795
  0
VERTEX
  8
0
 62
9
  6
CONTINUOUS
 10
159.4257850311
 20
90.1931136619
  0
VERTEX
  8
0
 62
9
  6
CONTINUOUS
 10
159.3812256514
 20
90.1906959571
  0
VERTEX
  8
0
 62
9
  6
CONTINUOUS
 10
159.3300071691
 20
90.187439692
  0
VERTEX
  8
0
 62
9
  6
CONTINUOUS
 10
159.2740905417
 20
90.1834680384
  0
VERTEX
  8
0
 62
9
  6
CONTINUOUS
 10
159.2156305833
 20
90.1789324972
  0
VERTEX
  8
0
 62
9
  6
CONTINUOUS
 10
157.3906619606
 20
90.0211507376
  0
SEQEND
  0
POLYLINE
  8
0
 62
7
  6
CONTINUOUS
 66
1
 70
0
  0
VERTEX
  8
0
 62
7
  6
CONTINUOUS
 10
148.6342500939
 20
89.9840263642
  0
VERTEX
  8
0
 62
7
  6
CONTINUOUS
 10
148.6743783568
 20
89.9846684275
  0
VERTEX
  8
0
 62
7
  6
CONTINUOUS
 10
148.7809707383
 20
89.9925232887
  0
SEQEND
  0
POLYLINE
  8
0
 62
9
  6
CONTINUOUS
 66
1
 70
0
  0
VERTEX
  8
0
 62
9
  6
CONTINUOUS
 10
56.3324050526
 20
90.1951009741
  0
VERTEX
  8
0
 62
9
  6
CONTINUOUS
 10
56.3001019726
 20
90.1946007795
  0
VERTEX
  8
0
 62
9
  6
CONTINUOUS
 10
56.2779263593
 20
90.1931136619
  0
VERTEX
  8
0
 62
9
  6
CONTINUOUS
 10
56.2668292808
 20
90.1906959571
  0
VERTEX
  8
0
 62
9
  6
CONTINUOUS
 10
56.2672443051
 20
90.187439692
  0
VERTEX
  8
0
 62
9
  6
CONTINUOUS
 10
56.2791575839
 20
90.1834680384
  0
VERTEX
  8
0
 62
9
  6
CONTINUOUS
 10
56.3021133752
 20
90.1789324972
  0
SEQEND
  0
POLYLINE
  8
0
 62
9
  6
CONTINUOUS
 66
1
 70
0
  0
VERTEX
  8
0
 62
9
  6
CONTINUOUS
 10
75.4672865228
 20
90.6926960204
  0
VERTEX
  8
0
 62
9
  6
CONTINUOUS
 10
75.3542631894
 20
90.6912078615
  0
VERTEX
  8
0
 62
9
  6
CONTINUOUS
 10
75.2646453622
 20
90.6887909291
  0
VERTEX
  8
0
 62
9
  6
CONTINUOUS
 10
75.2019011408
 20
90.6855362682
  0
VERTEX
  8
0
 62
9
  6
CONTINUOUS
 10
75.1684360971
 20
90.681567511
  0
VERTEX
  8
0
 62
9
  6
CONTINUOUS
 10
75.1630014606
 20
90.6789328747
  0
SEQEND
  0
POLYLINE
  8
0
 62
7
  6
CONTINUOUS
 66
1
 70
0
  0
VERTEX
  8
0
 62
7
  6
CONTINUOUS
 10
159.2134842596
 20
89.9840263629
  0
VERTEX
  8
0
 62
7
  6
CONTINUOUS
 10
159.2662877364
 20
89.9846046411
  0
VERTEX
  8
0
 62
7
  6
CONTINUOUS
 10
159.3962701128
 20
89.9909230347
  0
SEQEND
  0
POLYLINE
  8
0
 62
9
  6
CONTINUOUS
 66
1
 70
0
  0
VERTEX
  8
0
 62
9
  6
CONTINUOUS
 10
145.8203922373
 20
90.1951009741
  0
VERTEX
  8
0
 62
9
  6
CONTINUOUS
 10
145.7749593128
 20
90.1946007795
  0
VERTEX
  8
0
 62
9
  6
CONTINUOUS
 10
145.7229975534
 20
90.1931136619
  0
VERTEX
  8
0
 62
9
  6
CONTINUOUS
 10
145.6666148342
 20
90.1906959571
  0
VERTEX
  8
0
 62
9
  6
CONTINUOUS
 10
145.6079917311
 20
90.187439692
  0
VERTEX
  8
0
 62
9
  6
CONTINUOUS
 10
145.5493736547
 20
90.1834680384
  0
VERTEX
  8
0
 62
9
  6
CONTINUOUS
 10
145.4930210964
 20
90.1789324972
  0
VERTEX
  8
0
 62
9
  6
CONTINUOUS
 10
145.441186026
 20
90.1740143653
  0
SEQEND
  0
POLYLINE
  8
0
 62
9
  6
CONTINUOUS
 66
1
 70
0
  0
VERTEX
  8
0
 62
9
  6
CONTINUOUS
 10
146.0215867943
 20
90.6926960204
  0
VERTEX
  8
0
 62
9
  6
CONTINUOUS
 10
145.8831546167
 20
90.6912078615
  0
VERTEX
  8
0
 62
9
  6
CONTINUOUS
 10
145.7329468775
 20
90.6887909291
  0
VERTEX
  8
0
 62
9
  6
CONTINUOUS
 10
145.5767696114
 20
90.6855362682
  0
VERTEX
  8
0
 62
9
  6
CONTINUOUS
 10
145.4205968094
 20
90.681567511
  0
VERTEX
  8
0
 62
9
  6
CONTINUOUS
 10
145.2704458685
 20
90.6770343322
  0
VERTEX
  8
0
 62
9
  6
CONTINUOUS
 10
145.132119171
 20
90.6721117143
  0
SEQEND
  0
POLYLINE
  8
0
 62
9
  6
CONTINUOUS
 66
1
 70
0
  0
VERTEX
  8
0
 62
9
  6
CONTINUOUS
 10
75.8068308505
 20
90.1951009741
  0
VERTEX
  8
0
 62
9
  6
CONTINUOUS
 10
75.7573585461
 20
90.1946007795
  0
VERTEX
  8
0
 62
9
  6
CONTINUOUS
 10
75.7149009457
 20
90.1931136619
  0
VERTEX
  8
0
 62
9
  6
CONTINUOUS
 10
75.6812296239
 20
90.1906959571
  0
VERTEX
  8
0
 62
9
  6
CONTINUOUS
 10
75.6576510052
 20
90.187439692
  0
VERTEX
  8
0
 62
9
  6
CONTINUOUS
 10
75.6450701679
 20
90.1834680384
  0
VERTEX
  8
0
 62
9
  6
CONTINUOUS
 10
75.6439757772
 20
90.1789324972
  0
VERTEX
  8
0
 62
9
  6
CONTINUOUS
 10
75.6543922051
 20
90.1740143653
  0
SEQEND
  0
POLYLINE
  8
0
 62
9
  6
CONTINUOUS
 66
1
 70
0
  0
VERTEX
  8
0
 62
9
  6
CONTINUOUS
 10
99.8407262536
 20
90.6926960204
  0
VERTEX
  8
0
 62
9
  6
CONTINUOUS
 10
99.6932080545
 20
90.6912078615
  0
VERTEX
  8
0
 62
9
  6
CONTINUOUS
 10
99.5589426201
 20
90.6887909291
  0
VERTEX
  8
0
 62
9
  6
CONTINUOUS
 10
99.4431229412
 20
90.6855362682
  0
VERTEX
  8
0
 62
9
  6
CONTINUOUS
 10
99.3501835903
 20
90.681567511
  0
VERTEX
  8
0
 62
9
  6
CONTINUOUS
 10
99.2837164582
 20
90.6770343322
  0
VERTEX
  8
0
 62
9
  6
CONTINUOUS
 10
99.2462952733
 20
90.6721117143
  0
SEQEND
  0
POLYLINE
  8
0
 62
9
  6
CONTINUOUS
 66
1
 70
0
  0
VERTEX
  8
0
 62
9
  6
CONTINUOUS
 10
124.7972283208
 20
90.6926960204
  0
VERTEX
  8
0
 62
9
  6
CONTINUOUS
 10
124.6407224927
 20
90.6912078615
  0
VERTEX
  8
0
 62
9
  6
CONTINUOUS
 10
124.4850251646
 20
90.6887909291
  0
VERTEX
  8
0
 62
9
  6
CONTINUOUS
 10
124.3361563029
 20
90.6855362682
  0
VERTEX
  8
0
 62
9
  6
CONTINUOUS
 10
124.1998127028
 20
90.681567511
  0
VERTEX
  8
0
 62
9
  6
CONTINUOUS
 10
124.0812537022
 20
90.6770343322
  0
VERTEX
  8
0
 62
9
  6
CONTINUOUS
 10
123.9850636983
 20
90.6721117143
  0
SEQEND
  0
POLYLINE
  8
0
 62
9
  6
CONTINUOUS
 66
1
 70
0
  0
VERTEX
  8
0
 62
9
  6
CONTINUOUS
 10
124.7852294819
 20
90.1951009741
  0
VERTEX
  8
0
 62
9
  6
CONTINUOUS
 10
124.7285709754
 20
90.1946007795
  0
VERTEX
  8
0
 62
9
  6
CONTINUOUS
 10
124.669810877
 20
90.1931136619
  0
VERTEX
  8
0
 62
9
  6
CONTINUOUS
 10
124.6113539026
 20
90.1906959571
  0
VERTEX
  8
0
 62
9
  6
CONTINUOUS
 10
124.5554626459
 20
90.187439692
  0
VERTEX
  8
0
 62
9
  6
CONTINUOUS
 10
124.5042787185
 20
90.1834680384
  0
VERTEX
  8
0
 62
9
  6
CONTINUOUS
 10
124.4597774295
 20
90.1789324972
  0
VERTEX
  8
0
 62
9
  6
CONTINUOUS
 10
124.4237288657
 20
90.1740143653
  0
SEQEND
  0
POLYLINE
  8
0
 62
9
  6
CONTINUOUS
 66
1
 70
0
  0
VERTEX
  8
0
 62
9
  6
CONTINUOUS
 10
100.019997841
 20
90.1951009741
  0
VERTEX
  8
0
 62
9
  6
CONTINUOUS
 10
99.9619105231
 20
90.1946007795
  0
VERTEX
  8
0
 62
9
  6
CONTINUOUS
 10
99.9065122406
 20
90.1931136619
  0
VERTEX
  8
0
 62
9
  6
CONTINUOUS
 10
99.8560887529
 20
90.1906959571
  0
VERTEX
  8
0
 62
9
  6
CONTINUOUS
 10
99.8125934486
 20
90.187439692
  0
VERTEX
  8
0
 62
9
  6
CONTINUOUS
 10
99.7776938362
 20
90.1834680384
  0
VERTEX
  8
0
 62
9
  6
CONTINUOUS
 10
99.7527384936
 20
90.1789324972
  0
VERTEX
  8
0
 62
9
  6
CONTINUOUS
 10
99.7387095607
 20
90.1740143653
  0
SEQEND
  0
POLYLINE
  8
0
 62
9
  6
CONTINUOUS
 66
1
 70
0
  0
VERTEX
  8
0
 62
9
  6
CONTINUOUS
 10
159.9143207744
 20
90.6931983232
  0
VERTEX
  8
0
 62
9
  6
CONTINUOUS
 10
159.8439172769
 20
90.6926960204
  0
VERTEX
  8
0
 62
9
  6
CONTINUOUS
 10
159.7474949309
 20
90.6912078615
  0
VERTEX
  8
0
 62
9
  6
CONTINUOUS
 10
159.6287490631
 20
90.6887909291
  0
VERTEX
  8
0
 62
9
  6
CONTINUOUS
 10
159.3432695531
 20
90.681567511
  0
SEQEND
  0
POLYLINE
  8
0
 62
9
  6
CONTINUOUS
 66
1
 70
0
  0
VERTEX
  8
0
 62
9
  6
CONTINUOUS
 10
55.9775206552
 20
90.6931983232
  0
VERTEX
  8
0
 62
9
  6
CONTINUOUS
 10
55.8912982836
 20
90.6926960204
  0
VERTEX
  8
0
 62
9
  6
CONTINUOUS
 10
55.8323125772
 20
90.6912078615
  0
VERTEX
  8
0
 62
9
  6
CONTINUOUS
 10
55.8028380934
 20
90.6887909291
  0
VERTEX
  8
0
 62
9
  6
CONTINUOUS
 10
55.7995490367
 20
90.6873852141
  0
SEQEND
  0
LINE
  8
1_AXIS
 62
9
  6
CONTINUOUS
 10
53.2128008753
 20
87.9840262582
 11
153.2128008753
 21
87.9840262582
  0
LINE
  8
1_AXIS
 62
7
  6
CONTINUOUS
 10
130.2013995473
 20
89.9840262582
 11
123.0956357271
 21
89.9840262582
  0
LINE
  8
1_AXIS
 62
7
  6
CONTINUOUS
 10
62.9959405153
 20
89.9840262582
 11
57.7912908574
 21
89.9840262582
  0
LINE
  8
0
 62
7
  6
CONTINUOUS
 10
45.503023127
 20
89.9840262582
 11
160.9225786235
 21
89.9840262582
  0
LINE
  8
0
 62
9
  6
CONTINUOUS
 10
46.9784189466
 20
89.9954421639
 11
49.3430716759
 21
89.9954421639
  0
LINE
  8
0
 62
9
  6
CONTINUOUS
 10
57.6355932236
 20
89.9954421639
 11
62.7558990428
 21
89.9954421639
  0
LINE
  8
0
 62
9
  6
CONTINUOUS
 10
76.1734807594
 20
89.9954421639
 11
83.164092276
 21
89.9954421639
  0
LINE
  8
0
 62
9
  6
CONTINUOUS
 10
99.3867123878
 20
89.9954421639
 11
107.0388893628
 21
89.9954421639
  0
LINE
  8
0
 62
9
  6
CONTINUOUS
 10
123.2615094745
 20
89.9954421639
 11
130.2521209912
 21
89.9954421639
  0
LINE
  8
0
 62
9
  6
CONTINUOUS
 10
143.6697027077
 20
89.9954421639
 11
148.790008527
 21
89.9954421639
  0
LINE
  8
0
 62
9
  6
CONTINUOUS
 10
157.0825300747
 20
89.9954421639
 11
159.4471828039
 21
89.9954421639
  0
LINE
  8
0
 62
9
  6
CONTINUOUS
 10
150.0931966979
 20
90.1951009741
 11
145.8203922373
 21
90.1951009741
  0
LINE
  8
0
 62
9
  6
CONTINUOUS
 10
130.6187709001
 20
90.1951009741
 11
124.7852294819
 21
90.1951009741
  0
LINE
  8
0
 62
9
  6
CONTINUOUS
 10
106.4056039095
 20
90.1951009741
 11
100.019997841
 21
90.1951009741
  0
LINE
  8
0
 62
9
  6
CONTINUOUS
 10
81.6403722686
 20
90.1951009741
 11
75.8068308505
 21
90.1951009741
  0
LINE
  8
0
 62
9
  6
CONTINUOUS
 10
60.6052095132
 20
90.1951009741
 11
56.3324050526
 21
90.1951009741
  0
LINE
  8
0
 62
9
  6
CONTINUOUS
 10
46.9372863821
 20
90.1951009741
 11
44.9640255875
 21
90.1951009741
  0
LINE
  8
0
 62
9
  6
CONTINUOUS
 10
161.461576163
 20
90.1951009741
 11
159.4883153685
 21
90.1951009741
  0
LINE
  8
0
 62
9
  6
CONTINUOUS
 10
156.8052188285
 20
90.4840262582
 11
150.5821338699
 21
90.4840262582
  0
LINE
  8
0
 62
9
  6
CONTINUOUS
 10
143.2220924789
 20
90.4840262582
 11
131.2223031686
 21
90.4840262582
  0
LINE
  8
0
 62
9
  6
CONTINUOUS
 10
122.720996138
 20
90.4840262582
 11
107.5788461407
 21
90.4840262582
  0
LINE
  8
0
 62
9
  6
CONTINUOUS
 10
98.8467556098
 20
90.4840262582
 11
83.7046056125
 21
90.4840262582
  0
LINE
  8
0
 62
9
  6
CONTINUOUS
 10
75.2034093855
 20
90.4840262582
 11
63.2035092717
 21
90.4840262582
  0
LINE
  8
0
 62
9
  6
CONTINUOUS
 10
55.8430330818
 20
90.4840262582
 11
49.6203829221
 21
90.4840262582
  0
LINE
  8
0
 62
9
  6
CONTINUOUS
 10
161.9025191448
 20
90.6931983232
 11
159.9143207744
 21
90.6931983232
  0
LINE
  8
0
 62
9
  6
CONTINUOUS
 10
150.4480810954
 20
90.6931983232
 11
146.0215867943
 21
90.6926960204
  0
LINE
  8
0
 62
9
  6
CONTINUOUS
 10
130.8262339769
 20
90.6931983232
 11
124.7972283208
 21
90.6926960204
  0
LINE
  8
0
 62
9
  6
CONTINUOUS
 10
106.429773415
 20
90.6931983232
 11
99.8407262536
 21
90.6926960204
  0
LINE
  8
0
 62
9
  6
CONTINUOUS
 10
81.4770690756
 20
90.6931983232
 11
75.4672865228
 21
90.6926960204
  0
LINE
  8
0
 62
9
  6
CONTINUOUS
 10
46.5112809762
 20
90.6931983232
 11
44.5230826058
 21
90.6931983232
  0
POLYLINE
  8
0
 62
9
  6
CONTINUOUS
 66
1
 70
0
  0
VERTEX
  8
0
 62
9
  6
CONTINUOUS
 10
46.6780532842
 20
90.691208086
  0
VERTEX
  8
0
 62
9
  6
CONTINUOUS
 10
46.5816546801
 20
90.6926961882
  0
VERTEX
  8
0
 62
9
  6
CONTINUOUS
 10
46.5112809762
 20
90.6931983232
  0
SEQEND
  0
LINE
  8
0
 62
9
  6
CONTINUOUS
 10
150.1255241398
 20
90.1945998926
 11
150.0931966979
 21
90.1951009741
  0
POLYLINE
  8
0
 62
9
  6
CONTINUOUS
 66
1
 70
0
  0
VERTEX
  8
0
 62
9
  6
CONTINUOUS
 10
49.6157755222
 20
89.9840262582
  0
VERTEX
  8
0
 62
9
  6
CONTINUOUS
 10
49.478608573
 20
89.9868931828
  0
VERTEX
  8
0
 62
9
  6
CONTINUOUS
 10
49.3430716759
 20
89.9954421639
  0
SEQEND
  0
LINE
  8
0
 62
7
  6
CONTINUOUS
 10
76.2015808889
 20
89.9845022171
 11
76.2242655436
 21
89.9840263835
  0
POLYLINE
  8
0
 62
7
  6
CONTINUOUS
 66
1
 70
0
  0
VERTEX
  8
0
 62
7
  6
CONTINUOUS
 10
45.5030231263
 20
89.9840262582
  0
VERTEX
  8
0
 62
7
  6
CONTINUOUS
 10
45.3737608487
 20
89.9868842064
  0
VERTEX
  8
0
 62
7
  6
CONTINUOUS
 10
45.2448098787
 20
89.9954421639
  0
SEQEND
  0
POLYLINE
  8
0
 62
9
  6
CONTINUOUS
 66
1
 70
0
  0
VERTEX
  8
0
 62
9
  6
CONTINUOUS
 10
49.6203829221
 20
90.4840262582
  0
VERTEX
  8
0
 62
9
  6
CONTINUOUS
 10
49.5122261475
 20
90.4864153663
  0
VERTEX
  8
0
 62
9
  6
CONTINUOUS
 10
49.4054768342
 20
90.493539513
  0
SEQEND
  0
POLYLINE
  8
0
 62
9
  6
CONTINUOUS
 66
1
 70
0
  0
VERTEX
  8
0
 62
9
  6
CONTINUOUS
 10
62.9959405153
 20
89.9840262582
  0
VERTEX
  8
0
 62
9
  6
CONTINUOUS
 10
62.8749775841
 20
89.9868842064
  0
VERTEX
  8
0
 62
9
  6
CONTINUOUS
 10
62.7558990428
 20
89.9954421639
  0
SEQEND
  0
LINE
  8
0
 62
9
  6
CONTINUOUS
 10
46.9332865908
 20
90.6855362448
 11
46.6780532842
 21
90.691208086
  0
LINE
  8
0
 62
9
  6
CONTINUOUS
 10
47.0953723067
 20
89.9868844503
 11
47.2121271032
 21
89.9840262586
  0
POLYLINE
  8
0
 62
9
  6
CONTINUOUS
 66
1
 70
0
  0
VERTEX
  8
0
 62
9
  6
CONTINUOUS
 10
63.2035092717
 20
90.4840262582
  0
VERTEX
  8
0
 62
9
  6
CONTINUOUS
 10
63.1056445631
 20
90.4864078932
  0
VERTEX
  8
0
 62
9
  6
CONTINUOUS
 10
63.0095043435
 20
90.493539513
  0
SEQEND
  0
POLYLINE
  8
0
 62
9
  6
CONTINUOUS
 66
1
 70
0
  0
VERTEX
  8
0
 62
9
  6
CONTINUOUS
 10
47.3946580651
 20
90.6721117143
  0
VERTEX
  8
0
 62
9
  6
CONTINUOUS
 10
47.2380889811
 20
90.6770341987
  0
VERTEX
  8
0
 62
9
  6
CONTINUOUS
 10
46.9332865908
 20
90.6855362448
  0
SEQEND
  0
POLYLINE
  8
0
 62
9
  6
CONTINUOUS
 66
1
 70
0
  0
VERTEX
  8
0
 62
9
  6
CONTINUOUS
 10
83.7046056125
 20
90.4840262582
  0
VERTEX
  8
0
 62
9
  6
CONTINUOUS
 10
83.6337860771
 20
90.4864078932
  0
VERTEX
  8
0
 62
9
  6
CONTINUOUS
 10
83.5650470586
 20
90.493539513
  0
SEQEND
  0
POLYLINE
  8
0
 62
9
  6
CONTINUOUS
 66
1
 70
0
  0
VERTEX
  8
0
 62
9
  6
CONTINUOUS
 10
83.3299660234
 20
89.9840262582
  0
VERTEX
  8
0
 62
9
  6
CONTINUOUS
 10
83.2459085464
 20
89.9868842064
  0
VERTEX
  8
0
 62
9
  6
CONTINUOUS
 10
83.164092276
 20
89.9954421639
  0
SEQEND
  0
POLYLINE
  8
0
 62
9
  6
CONTINUOUS
 66
1
 70
0
  0
VERTEX
  8
0
 62
9
  6
CONTINUOUS
 10
61.2934825795
 20
90.6721117143
  0
VERTEX
  8
0
 62
9
  6
CONTINUOUS
 10
61.155134051
 20
90.6770341987
  0
VERTEX
  8
0
 62
9
  6
CONTINUOUS
 10
61.0049756152
 20
90.6815666005
  0
VERTEX
  8
0
 62
9
  6
CONTINUOUS
 10
60.8487803872
 20
90.6855362448
  0
VERTEX
  8
0
 62
9
  6
CONTINUOUS
 10
60.6925902428
 20
90.6887911496
  0
VERTEX
  8
0
 62
9
  6
CONTINUOUS
 10
60.5423753151
 20
90.691208086
  0
VERTEX
  8
0
 62
9
  6
CONTINUOUS
 10
60.4039685606
 20
90.6926961882
  0
VERTEX
  8
0
 62
9
  6
CONTINUOUS
 10
55.9775206552
 20
90.6931983232
  0
SEQEND
  0
POLYLINE
  8
0
 62
9
  6
CONTINUOUS
 66
1
 70
0
  0
VERTEX
  8
0
 62
9
  6
CONTINUOUS
 10
43.1472975345
 20
90.6721117143
  0
VERTEX
  8
0
 62
9
  6
CONTINUOUS
 10
42.5890974368
 20
90.6912082825
  0
VERTEX
  8
0
 62
9
  6
CONTINUOUS
 10
42.5513790561
 20
90.6926962515
  0
VERTEX
  8
0
 62
9
  6
CONTINUOUS
 10
42.5430290365
 20
90.6931615309
  0
SEQEND
  0
LINE
  8
0
 62
9
  6
CONTINUOUS
 10
57.7139756316
 20
89.9868844503
 11
57.7912908574
 21
89.9840262582
  0
POLYLINE
  8
0
 62
9
  6
CONTINUOUS
 66
1
 70
0
  0
VERTEX
  8
0
 62
9
  6
CONTINUOUS
 10
82.4405380523
 20
90.6721117143
  0
VERTEX
  8
0
 62
9
  6
CONTINUOUS
 10
82.3443317966
 20
90.6770341987
  0
VERTEX
  8
0
 62
9
  6
CONTINUOUS
 10
82.2257646442
 20
90.6815666005
  0
VERTEX
  8
0
 62
9
  6
CONTINUOUS
 10
82.0893981911
 20
90.6855362448
  0
VERTEX
  8
0
 62
9
  6
CONTINUOUS
 10
81.9405123383
 20
90.6887911496
  0
VERTEX
  8
0
 62
9
  6
CONTINUOUS
 10
81.7848015741
 20
90.691208086
  0
VERTEX
  8
0
 62
9
  6
CONTINUOUS
 10
81.6283184544
 20
90.6926961882
  0
VERTEX
  8
0
 62
9
  6
CONTINUOUS
 10
81.4770690756
 20
90.6931983232
  0
SEQEND
  0
POLYLINE
  8
0
 62
9
  6
CONTINUOUS
 66
1
 70
0
  0
VERTEX
  8
0
 62
9
  6
CONTINUOUS
 10
107.5788461407
 20
90.4840262582
  0
VERTEX
  8
0
 62
9
  6
CONTINUOUS
 10
107.5473171195
 20
90.4864078932
  0
VERTEX
  8
0
 62
9
  6
CONTINUOUS
 10
107.5178649029
 20
90.493539513
  0
SEQEND
  0
POLYLINE
  8
0
 62
9
  6
CONTINUOUS
 66
1
 70
0
  0
VERTEX
  8
0
 62
9
  6
CONTINUOUS
 10
107.1019143073
 20
89.9840262582
  0
VERTEX
  8
0
 62
9
  6
CONTINUOUS
 10
107.0692965858
 20
89.9868842064
  0
VERTEX
  8
0
 62
9
  6
CONTINUOUS
 10
107.0388893628
 20
89.9954421639
  0
SEQEND
  0
POLYLINE
  8
0
 62
9
  6
CONTINUOUS
 66
1
 70
0
  0
VERTEX
  8
0
 62
9
  6
CONTINUOUS
 10
107.1793064772
 20
90.6721117143
  0
VERTEX
  8
0
 62
9
  6
CONTINUOUS
 10
107.1418774301
 20
90.6770341987
  0
VERTEX
  8
0
 62
9
  6
CONTINUOUS
 10
107.0754028987
 20
90.6815666005
  0
VERTEX
  8
0
 62
9
  6
CONTINUOUS
 10
106.9824442191
 20
90.6855362448
  0
VERTEX
  8
0
 62
9
  6
CONTINUOUS
 10
106.8666063745
 20
90.6887911496
  0
VERTEX
  8
0
 62
9
  6
CONTINUOUS
 10
106.7323235795
 20
90.691208086
  0
VERTEX
  8
0
 62
9
  6
CONTINUOUS
 10
106.5848214475
 20
90.6926961882
  0
VERTEX
  8
0
 62
9
  6
CONTINUOUS
 10
106.429773415
 20
90.6931983232
  0
SEQEND
  0
POLYLINE
  8
0
 62
9
  6
CONTINUOUS
 66
1
 70
0
  0
VERTEX
  8
0
 62
9
  6
CONTINUOUS
 10
83.164092276
 20
89.9954421639
  0
VERTEX
  8
0
 62
9
  6
CONTINUOUS
 10
82.9733073714
 20
90.0211374184
  0
VERTEX
  8
0
 62
9
  6
CONTINUOUS
 10
82.8070394308
 20
90.0452207068
  0
VERTEX
  8
0
 62
9
  6
CONTINUOUS
 10
82.6630551816
 20
90.0675921728
  0
SEQEND
  0
POLYLINE
  8
0
 62
9
  6
CONTINUOUS
 66
1
 70
0
  0
VERTEX
  8
0
 62
9
  6
CONTINUOUS
 10
82.0018728848
 20
90.1740143653
  0
VERTEX
  8
0
 62
9
  6
CONTINUOUS
 10
81.9658692438
 20
90.1789272241
  0
VERTEX
  8
0
 62
9
  6
CONTINUOUS
 10
81.9213749727
 20
90.1834633971
  0
VERTEX
  8
0
 62
9
  6
CONTINUOUS
 10
81.8701901282
 20
90.187436247
  0
VERTEX
  8
0
 62
9
  6
CONTINUOUS
 10
81.814296957
 20
90.1906935205
  0
VERTEX
  8
0
 62
9
  6
CONTINUOUS
 10
81.7558362247
 20
90.193112169
  0
VERTEX
  8
0
 62
9
  6
CONTINUOUS
 10
81.6970823593
 20
90.1945998926
  0
VERTEX
  8
0
 62
9
  6
CONTINUOUS
 10
81.6403722686
 20
90.1951009741
  0
SEQEND
  0
POLYLINE
  8
0
 62
9
  6
CONTINUOUS
 66
1
 70
0
  0
VERTEX
  8
0
 62
9
  6
CONTINUOUS
 10
99.3236874433
 20
89.9840262582
  0
VERTEX
  8
0
 62
9
  6
CONTINUOUS
 10
99.2002479776
 20
90.0010634642
  0
VERTEX
  8
0
 62
9
  6
CONTINUOUS
 10
99.0852209464
 20
90.0510139075
  0
VERTEX
  8
0
 62
9
  6
CONTINUOUS
 10
98.9864452114
 20
90.13047339
  0
VERTEX
  8
0
 62
9
  6
CONTINUOUS
 10
98.9106520734
 20
90.2340267779
  0
VERTEX
  8
0
 62
9
  6
CONTINUOUS
 10
98.8630065856
 20
90.354617058
  0
VERTEX
  8
0
 62
9
  6
CONTINUOUS
 10
98.8467556098
 20
90.4840262582
  0
SEQEND
  0
POLYLINE
  8
0
 62
9
  6
CONTINUOUS
 66
1
 70
0
  0
VERTEX
  8
0
 62
9
  6
CONTINUOUS
 10
83.5650470586
 20
90.493539513
  0
VERTEX
  8
0
 62
9
  6
CONTINUOUS
 10
83.3885538504
 20
90.519235946
  0
VERTEX
  8
0
 62
9
  6
CONTINUOUS
 10
83.2347664788
 20
90.5433154433
  0
VERTEX
  8
0
 62
9
  6
CONTINUOUS
 10
83.1015488566
 20
90.5656895218
  0
SEQEND
  0
POLYLINE
  8
0
 62
9
  6
CONTINUOUS
 66
1
 70
0
  0
VERTEX
  8
0
 62
9
  6
CONTINUOUS
 10
99.7387095607
 20
90.1740143653
  0
VERTEX
  8
0
 62
9
  6
CONTINUOUS
 10
99.6120695786
 20
90.1928280903
  0
VERTEX
  8
0
 62
9
  6
CONTINUOUS
 10
99.4940394728
 20
90.2435908767
  0
VERTEX
  8
0
 62
9
  6
CONTINUOUS
 10
99.3924871337
 20
90.3229188756
  0
VERTEX
  8
0
 62
9
  6
CONTINUOUS
 10
99.3141820436
 20
90.4255240801
  0
VERTEX
  8
0
 62
9
  6
CONTINUOUS
 10
99.2643440221
 20
90.544566824
  0
VERTEX
  8
0
 62
9
  6
CONTINUOUS
 10
99.2462952733
 20
90.6721117143
  0
SEQEND
  0
POLYLINE
  8
0
 62
9
  6
CONTINUOUS
 66
1
 70
0
  0
VERTEX
  8
0
 62
9
  6
CONTINUOUS
 10
99.5622301012
 20
90.0675921898
  0
VERTEX
  8
0
 62
9
  6
CONTINUOUS
 10
99.4356250313
 20
90.086443531
  0
VERTEX
  8
0
 62
9
  6
CONTINUOUS
 10
99.3176357319
 20
90.1372267589
  0
VERTEX
  8
0
 62
9
  6
CONTINUOUS
 10
99.2161237625
 20
90.2165582162
  0
VERTEX
  8
0
 62
9
  6
CONTINUOUS
 10
99.1378528078
 20
90.3191520932
  0
VERTEX
  8
0
 62
9
  6
CONTINUOUS
 10
99.0880380167
 20
90.4381726182
  0
VERTEX
  8
0
 62
9
  6
CONTINUOUS
 10
99.0699985205
 20
90.5656895218
  0
SEQEND
  0
POLYLINE
  8
0
 62
9
  6
CONTINUOUS
 66
1
 70
0
  0
VERTEX
  8
0
 62
9
  6
CONTINUOUS
 10
98.6183682003
 20
89.9840262582
  0
VERTEX
  8
0
 62
9
  6
CONTINUOUS
 10
98.5085515725
 20
90.0010635738
  0
VERTEX
  8
0
 62
9
  6
CONTINUOUS
 10
98.4062191573
 20
90.0510142425
  0
VERTEX
  8
0
 62
9
  6
CONTINUOUS
 10
98.3183446943
 20
90.1304739027
  0
VERTEX
  8
0
 62
9
  6
CONTINUOUS
 10
98.2509165161
 20
90.2340272986
  0
VERTEX
  8
0
 62
9
  6
CONTINUOUS
 10
98.2085295216
 20
90.354617385
  0
VERTEX
  8
0
 62
9
  6
CONTINUOUS
 10
98.1940721313
 20
90.4840262582
  0
SEQEND
  0
LINE
  8
0
 62
9
  6
CONTINUOUS
 10
83.1015488566
 20
90.5656895218
 11
82.4405380523
 21
90.6721117143
  0
POLYLINE
  8
0
 62
9
  6
CONTINUOUS
 66
1
 70
0
  0
VERTEX
  8
0
 62
9
  6
CONTINUOUS
 10
99.3867123885
 20
89.9954422925
  0
VERTEX
  8
0
 62
9
  6
CONTINUOUS
 10
99.2642978496
 20
90.0154446745
  0
VERTEX
  8
0
 62
9
  6
CONTINUOUS
 10
99.1501134079
 20
90.0668526889
  0
VERTEX
  8
0
 62
9
  6
CONTINUOUS
 10
99.0516597382
 20
90.1462893888
  0
VERTEX
  8
0
 62
9
  6
CONTINUOUS
 10
98.9754041748
 20
90.2485366477
  0
VERTEX
  8
0
 62
9
  6
CONTINUOUS
 10
98.9263558782
 20
90.3668779338
  0
VERTEX
  8
0
 62
9
  6
CONTINUOUS
 10
98.9077367875
 20
90.493539513
  0
SEQEND
  0
POLYLINE
  8
0
 62
9
  6
CONTINUOUS
 66
1
 70
0
  0
VERTEX
  8
0
 62
9
  6
CONTINUOUS
 10
60.9844157246
 20
99.7940381512
  0
VERTEX
  8
0
 62
9
  6
CONTINUOUS
 10
61.0568674049
 20
99.7752244261
  0
VERTEX
  8
0
 62
9
  6
CONTINUOUS
 10
61.1265321536
 20
99.7244616397
  0
VERTEX
  8
0
 62
9
  6
CONTINUOUS
 10
61.1887661162
 20
99.6451336408
  0
VERTEX
  8
0
 62
9
  6
CONTINUOUS
 10
61.2394207748
 20
99.5425284363
  0
VERTEX
  8
0
 62
9
  6
CONTINUOUS
 10
61.2751194884
 20
99.4234856924
  0
VERTEX
  8
0
 62
9
  6
CONTINUOUS
 10
61.2934825795
 20
99.2959408021
  0
SEQEND
  0
POLYLINE
  8
0
 62
9
  6
CONTINUOUS
 66
1
 70
0
  0
VERTEX
  8
0
 62
9
  6
CONTINUOUS
 10
62.0159764333
 20
99.900460334
  0
VERTEX
  8
0
 62
9
  6
CONTINUOUS
 10
62.0884098441
 20
99.8816089807
  0
VERTEX
  8
0
 62
9
  6
CONTINUOUS
 10
62.1580501283
 20
99.8308257455
  0
VERTEX
  8
0
 62
9
  6
CONTINUOUS
 10
62.220257194
 20
99.751494286
  0
VERTEX
  8
0
 62
9
  6
CONTINUOUS
 10
62.2708862206
 20
99.6489004111
  0
VERTEX
  8
0
 62
9
  6
CONTINUOUS
 10
62.3065638254
 20
99.5298798912
  0
VERTEX
  8
0
 62
9
  6
CONTINUOUS
 10
62.3249128304
 20
99.4023629946
  0
SEQEND
  0
POLYLINE
  8
0
 62
9
  6
CONTINUOUS
 66
1
 70
0
  0
VERTEX
  8
0
 62
9
  6
CONTINUOUS
 10
62.9959405153
 20
99.9840262582
  0
VERTEX
  8
0
 62
9
  6
CONTINUOUS
 10
63.0496633546
 20
99.966989112
  0
VERTEX
  8
0
 62
9
  6
CONTINUOUS
 10
63.0997250201
 20
99.917038784
  0
VERTEX
  8
0
 62
9
  6
CONTINUOUS
 10
63.1427138998
 20
99.8375793854
  0
VERTEX
  8
0
 62
9
  6
CONTINUOUS
 10
63.1757003944
 20
99.7340259952
  0
VERTEX
  8
0
 62
9
  6
CONTINUOUS
 10
63.196436556
 20
99.6134356172
  0
VERTEX
  8
0
 62
9
  6
CONTINUOUS
 10
63.2035092717
 20
99.4840262582
  0
SEQEND
  0
LINE
  8
0
 62
7
  6
CONTINUOUS
 10
103.2128008753
 20
89.4840262582
 11
102.3467754715
 21
89.9840262582
  0
POLYLINE
  8
0
 62
9
  6
CONTINUOUS
 66
1
 70
0
  0
VERTEX
  8
0
 62
9
  6
CONTINUOUS
 10
100.019997841
 20
90.1951009741
  0
VERTEX
  8
0
 62
9
  6
CONTINUOUS
 10
100.013612615
 20
90.2209143043
  0
VERTEX
  8
0
 62
9
  6
CONTINUOUS
 10
100.0077561047
 20
90.2754537521
  0
VERTEX
  8
0
 62
9
  6
CONTINUOUS
 10
100.0027845301
 20
90.3554022327
  0
VERTEX
  8
0
 62
9
  6
CONTINUOUS
 10
99.9990002909
 20
90.4558971209
  0
VERTEX
  8
0
 62
9
  6
CONTINUOUS
 10
99.9966335712
 20
90.5708259783
  0
VERTEX
  8
0
 62
9
  6
CONTINUOUS
 10
99.9958283358
 20
90.6931983232
  0
SEQEND
  0
LINE
  8
0
 62
9
  6
CONTINUOUS
 10
99.9958283356
 20
99.2748541932
 11
99.9958283356
 21
90.6931983232
  0
LINE
  8
1_AXIS
 62
2
  6
CENTER
 10
103.2128008753
 20
80.4840262582
 11
103.2128008753
 21
109.4840262582
  0
LINE
  8
0
 62
9
  6
CONTINUOUS
 10
107.1793064772
 20
99.2959408021
 11
107.3556031038
 21
99.4023629946
  0
LINE
  8
0
 62
9
  6
CONTINUOUS
 10
106.6868921898
 20
99.7940381511
 11
106.8633716495
 21
99.9004603436
  0
POLYLINE
  8
0
 62
9
  6
CONTINUOUS
 66
1
 70
0
  0
VERTEX
  8
0
 62
9
  6
CONTINUOUS
 10
107.3556031038
 20
99.4023629946
  0
VERTEX
  8
0
 62
9
  6
CONTINUOUS
 10
107.3947731758
 20
99.4247415378
  0
VERTEX
  8
0
 62
9
  6
CONTINUOUS
 10
107.447978907
 20
99.4488210408
  0
VERTEX
  8
0
 62
9
  6
CONTINUOUS
 10
107.5178649029
 20
99.4745130034
  0
SEQEND
  0
POLYLINE
  8
0
 62
9
  6
CONTINUOUS
 66
1
 70
0
  0
VERTEX
  8
0
 62
9
  6
CONTINUOUS
 10
106.8633716495
 20
99.9004603436
  0
VERTEX
  8
0
 62
9
  6
CONTINUOUS
 10
106.9057383173
 20
99.9228362675
  0
VERTEX
  8
0
 62
9
  6
CONTINUOUS
 10
106.9632992095
 20
99.9469194572
  0
VERTEX
  8
0
 62
9
  6
CONTINUOUS
 10
107.0388893628
 20
99.9726103525
  0
SEQEND
  0
POLYLINE
  8
0
 62
9
  6
CONTINUOUS
 66
1
 70
0
  0
VERTEX
  8
0
 62
9
  6
CONTINUOUS
 10
98.9077368476
 20
90.493539513
  0
VERTEX
  8
0
 62
9
  6
CONTINUOUS
 10
98.8782859344
 20
90.4864080966
  0
VERTEX
  8
0
 62
9
  6
CONTINUOUS
 10
98.8467556098
 20
90.4840262582
  0
SEQEND
  0
POLYLINE
  8
0
 62
9
  6
CONTINUOUS
 66
1
 70
0
  0
VERTEX
  8
0
 62
9
  6
CONTINUOUS
 10
84.597838766
 20
89.9840262582
  0
VERTEX
  8
0
 62
9
  6
CONTINUOUS
 10
84.6703140249
 20
90.0010634289
  0
VERTEX
  8
0
 62
9
  6
CONTINUOUS
 10
84.7378501146
 20
90.0510138021
  0
VERTEX
  8
0
 62
9
  6
CONTINUOUS
 10
84.7958445807
 20
90.1304732316
  0
VERTEX
  8
0
 62
9
  6
CONTINUOUS
 10
84.8403452391
 20
90.2340266191
  0
VERTEX
  8
0
 62
9
  6
CONTINUOUS
 10
84.8683194941
 20
90.354616959
  0
VERTEX
  8
0
 62
9
  6
CONTINUOUS
 10
84.8778609863
 20
90.4840262582
  0
SEQEND
  0
POLYLINE
  8
0
 62
9
  6
CONTINUOUS
 66
1
 70
0
  0
VERTEX
  8
0
 62
9
  6
CONTINUOUS
 10
83.1640922767
 20
89.9954421862
  0
VERTEX
  8
0
 62
9
  6
CONTINUOUS
 10
83.2628264852
 20
90.0154445458
  0
VERTEX
  8
0
 62
9
  6
CONTINUOUS
 10
83.3560642471
 20
90.0668525583
  0
VERTEX
  8
0
 62
9
  6
CONTINUOUS
 10
83.4376808529
 20
90.146289275
  0
VERTEX
  8
0
 62
9
  6
CONTINUOUS
 10
83.5023149771
 20
90.2485365654
  0
VERTEX
  8
0
 62
9
  6
CONTINUOUS
 10
83.5457208589
 20
90.3668778919
  0
VERTEX
  8
0
 62
9
  6
CONTINUOUS
 10
83.5650472027
 20
90.493539513
  0
SEQEND
  0
POLYLINE
  8
0
 62
9
  6
CONTINUOUS
 66
1
 70
0
  0
VERTEX
  8
0
 62
9
  6
CONTINUOUS
 10
83.3299660234
 20
89.9840262582
  0
VERTEX
  8
0
 62
9
  6
CONTINUOUS
 10
83.4269298946
 20
90.0010633498
  0
VERTEX
  8
0
 62
9
  6
CONTINUOUS
 10
83.517285833
 20
90.0510135712
  0
VERTEX
  8
0
 62
9
  6
CONTINUOUS
 10
83.5948762305
 20
90.1304728916
  0
VERTEX
  8
0
 62
9
  6
CONTINUOUS
 10
83.6544134319
 20
90.2340262844
  0
VERTEX
  8
0
 62
9
  6
CONTINUOUS
 10
83.6918400791
 20
90.3546167537
  0
VERTEX
  8
0
 62
9
  6
CONTINUOUS
 10
83.7046056125
 20
90.4840262582
  0
SEQEND
  0
POLYLINE
  8
0
 62
9
  6
CONTINUOUS
 66
1
 70
0
  0
VERTEX
  8
0
 62
9
  6
CONTINUOUS
 10
82.6630551816
 20
90.0675921728
  0
VERTEX
  8
0
 62
9
  6
CONTINUOUS
 10
82.7719925355
 20
90.0864435435
  0
VERTEX
  8
0
 62
9
  6
CONTINUOUS
 10
82.8746855896
 20
90.137226789
  0
VERTEX
  8
0
 62
9
  6
CONTINUOUS
 10
82.9642919667
 20
90.2165582517
  0
VERTEX
  8
0
 62
9
  6
CONTINUOUS
 10
83.0348412472
 20
90.3191521234
  0
VERTEX
  8
0
 62
9
  6
CONTINUOUS
 10
83.0816327743
 20
90.4381726354
  0
VERTEX
  8
0
 62
9
  6
CONTINUOUS
 10
83.1015488566
 20
90.5656895218
  0
SEQEND
  0
POLYLINE
  8
0
 62
9
  6
CONTINUOUS
 66
1
 70
0
  0
VERTEX
  8
0
 62
9
  6
CONTINUOUS
 10
82.0018728848
 20
90.1740143637
  0
VERTEX
  8
0
 62
9
  6
CONTINUOUS
 10
82.1108381379
 20
90.1928286922
  0
VERTEX
  8
0
 62
9
  6
CONTINUOUS
 10
82.2135656731
 20
90.2435918078
  0
VERTEX
  8
0
 62
9
  6
CONTINUOUS
 10
82.3032077191
 20
90.3229198639
  0
VERTEX
  8
0
 62
9
  6
CONTINUOUS
 10
82.3737887774
 20
90.425524888
  0
VERTEX
  8
0
 62
9
  6
CONTINUOUS
 10
82.4206039463
 20
90.5445672755
  0
VERTEX
  8
0
 62
9
  6
CONTINUOUS
 10
82.4405325475
 20
90.6721117143
  0
SEQEND
  0
POLYLINE
  8
0
 62
9
  6
CONTINUOUS
 66
1
 70
0
  0
VERTEX
  8
0
 62
9
  6
CONTINUOUS
 10
44.9640255875
 20
90.1951009741
  0
VERTEX
  8
0
 62
9
  6
CONTINUOUS
 10
44.9544772279
 20
90.1946007795
  0
VERTEX
  8
0
 62
9
  6
CONTINUOUS
 10
44.9564179666
 20
90.1931136619
  0
VERTEX
  8
0
 62
9
  6
CONTINUOUS
 10
44.9698139171
 20
90.1906959571
  0
VERTEX
  8
0
 62
9
  6
CONTINUOUS
 10
44.9941508229
 20
90.187439692
  0
SEQEND
  0
POLYLINE
  8
0
 62
9
  6
CONTINUOUS
 66
1
 70
0
  0
VERTEX
  8
0
 62
9
  6
CONTINUOUS
 10
44.5230826058
 20
90.6931983232
  0
VERTEX
  8
0
 62
9
  6
CONTINUOUS
 10
44.4976277449
 20
90.6926960204
  0
VERTEX
  8
0
 62
9
  6
CONTINUOUS
 10
44.4959513237
 20
90.6923123559
  0
SEQEND
  0
POLYLINE
  8
0
 62
9
  6
CONTINUOUS
 66
1
 70
0
  0
VERTEX
  8
0
 62
9
  6
CONTINUOUS
 10
124.4237288657
 20
90.1740143653
  0
VERTEX
  8
0
 62
9
  6
CONTINUOUS
 10
124.3147623875
 20
90.1928280903
  0
VERTEX
  8
0
 62
9
  6
CONTINUOUS
 10
124.212033589
 20
90.2435908767
  0
VERTEX
  8
0
 62
9
  6
CONTINUOUS
 10
124.1223903752
 20
90.3229188756
  0
VERTEX
  8
0
 62
9
  6
CONTINUOUS
 10
124.0518083655
 20
90.4255240801
  0
VERTEX
  8
0
 62
9
  6
CONTINUOUS
 10
124.0049925588
 20
90.544566824
  0
VERTEX
  8
0
 62
9
  6
CONTINUOUS
 10
123.9850636983
 20
90.6721117143
  0
SEQEND
  0
POLYLINE
  8
0
 62
9
  6
CONTINUOUS
 66
1
 70
0
  0
VERTEX
  8
0
 62
9
  6
CONTINUOUS
 10
123.7625465685
 20
90.0675921898
  0
VERTEX
  8
0
 62
9
  6
CONTINUOUS
 10
123.653609195
 20
90.086443531
  0
VERTEX
  8
0
 62
9
  6
CONTINUOUS
 10
123.5509161171
 20
90.1372267589
  0
VERTEX
  8
0
 62
9
  6
CONTINUOUS
 10
123.461309716
 20
90.2165582162
  0
VERTEX
  8
0
 62
9
  6
CONTINUOUS
 10
123.390760415
 20
90.3191520932
  0
VERTEX
  8
0
 62
9
  6
CONTINUOUS
 10
123.3439688737
 20
90.4381726182
  0
VERTEX
  8
0
 62
9
  6
CONTINUOUS
 10
123.324052786
 20
90.5656895218
  0
SEQEND
  0
POLYLINE
  8
0
 62
9
  6
CONTINUOUS
 66
1
 70
0
  0
VERTEX
  8
0
 62
9
  6
CONTINUOUS
 10
123.0956357271
 20
89.9840262582
  0
VERTEX
  8
0
 62
9
  6
CONTINUOUS
 10
122.9986717061
 20
90.0010634024
  0
VERTEX
  8
0
 62
9
  6
CONTINUOUS
 10
122.9083157118
 20
90.0510137264
  0
VERTEX
  8
0
 62
9
  6
CONTINUOUS
 10
122.8307253426
 20
90.1304731219
  0
VERTEX
  8
0
 62
9
  6
CONTINUOUS
 10
122.7711882158
 20
90.2340265121
  0
VERTEX
  8
0
 62
9
  6
CONTINUOUS
 10
122.7337616408
 20
90.3546168935
  0
VERTEX
  8
0
 62
9
  6
CONTINUOUS
 10
122.720996138
 20
90.4840262582
  0
SEQEND
  0
POLYLINE
  8
0
 62
9
  6
CONTINUOUS
 66
1
 70
0
  0
VERTEX
  8
0
 62
9
  6
CONTINUOUS
 10
123.2615094707
 20
89.9954422925
  0
VERTEX
  8
0
 62
9
  6
CONTINUOUS
 10
123.1627752929
 20
90.0154446745
  0
VERTEX
  8
0
 62
9
  6
CONTINUOUS
 10
123.0695375624
 20
90.0668526889
  0
VERTEX
  8
0
 62
9
  6
CONTINUOUS
 10
122.9879209831
 20
90.1462893888
  0
VERTEX
  8
0
 62
9
  6
CONTINUOUS
 10
122.9232868759
 20
90.2485366477
  0
VERTEX
  8
0
 62
9
  6
CONTINUOUS
 10
122.8798809982
 20
90.3668779338
  0
VERTEX
  8
0
 62
9
  6
CONTINUOUS
 10
122.8605546438
 20
90.493539513
  0
SEQEND
  0
POLYLINE
  8
0
 62
9
  6
CONTINUOUS
 66
1
 70
0
  0
VERTEX
  8
0
 62
9
  6
CONTINUOUS
 10
121.8277629845
 20
89.9840262582
  0
VERTEX
  8
0
 62
9
  6
CONTINUOUS
 10
121.7552874228
 20
90.0010635738
  0
VERTEX
  8
0
 62
9
  6
CONTINUOUS
 10
121.6877512088
 20
90.0510142425
  0
VERTEX
  8
0
 62
9
  6
CONTINUOUS
 10
121.629756794
 20
90.1304739027
  0
VERTEX
  8
0
 62
9
  6
CONTINUOUS
 10
121.5852562918
 20
90.2340272986
  0
VERTEX
  8
0
 62
9
  6
CONTINUOUS
 10
121.5572821926
 20
90.354617385
  0
VERTEX
  8
0
 62
9
  6
CONTINUOUS
 10
121.5477407643
 20
90.4840262582
  0
SEQEND
  0
POLYLINE
  8
0
 62
9
  6
CONTINUOUS
 66
1
 70
0
  0
VERTEX
  8
0
 62
9
  6
CONTINUOUS
 10
107.0388893628
 20
89.9954421639
  0
VERTEX
  8
0
 62
9
  6
CONTINUOUS
 10
106.9632876398
 20
90.0211374184
  0
VERTEX
  8
0
 62
9
  6
CONTINUOUS
 10
106.9057288241
 20
90.0452207068
  0
VERTEX
  8
0
 62
9
  6
CONTINUOUS
 10
106.8633716495
 20
90.0675921728
  0
SEQEND
  0
POLYLINE
  8
0
 62
9
  6
CONTINUOUS
 66
1
 70
0
  0
VERTEX
  8
0
 62
9
  6
CONTINUOUS
 10
106.6868921898
 20
90.1740143653
  0
VERTEX
  8
0
 62
9
  6
CONTINUOUS
 10
106.672884994
 20
90.1789272241
  0
VERTEX
  8
0
 62
9
  6
CONTINUOUS
 10
106.6479402881
 20
90.1834633971
  0
VERTEX
  8
0
 62
9
  6
CONTINUOUS
 10
106.6130456535
 20
90.187436247
  0
VERTEX
  8
0
 62
9
  6
CONTINUOUS
 10
106.5695533327
 20
90.1906935205
  0
VERTEX
  8
0
 62
9
  6
CONTINUOUS
 10
106.5191305405
 20
90.193112169
  0
VERTEX
  8
0
 62
9
  6
CONTINUOUS
 10
106.4637419535
 20
90.1945998926
  0
VERTEX
  8
0
 62
9
  6
CONTINUOUS
 10
106.4056039095
 20
90.1951009741
  0
SEQEND
  0
POLYLINE
  8
0
 62
9
  6
CONTINUOUS
 66
1
 70
0
  0
VERTEX
  8
0
 62
9
  6
CONTINUOUS
 10
107.5178649029
 20
90.493539513
  0
VERTEX
  8
0
 62
9
  6
CONTINUOUS
 10
107.4479679403
 20
90.519235946
  0
VERTEX
  8
0
 62
9
  6
CONTINUOUS
 10
107.394764385
 20
90.5433154433
  0
VERTEX
  8
0
 62
9
  6
CONTINUOUS
 10
107.3556031038
 20
90.5656895218
  0
SEQEND
  0
LINE
  8
0
 62
9
  6
CONTINUOUS
 10
106.8633716495
 20
90.0675921728
 11
106.6868921898
 21
90.1740143653
  0
LINE
  8
0
 62
9
  6
CONTINUOUS
 10
107.3556031038
 20
90.5656895218
 11
107.1793064772
 21
90.6721117143
  0
LINE
  8
0
 62
9
  6
CONTINUOUS
 10
106.429773415
 20
99.2748541932
 11
106.429773415
 21
90.6931983232
  0
LINE
  8
0
 62
9
  6
CONTINUOUS
 10
107.1793064772
 20
90.6721117143
 11
107.1793064772
 21
99.2959408021
  0
LINE
  8
0
 62
9
  6
CONTINUOUS
 10
107.3556031038
 20
90.5656895218
 11
107.3556031038
 21
99.4023629946
  0
POLYLINE
  8
0
 62
9
  6
CONTINUOUS
 66
1
 70
0
  0
VERTEX
  8
0
 62
9
  6
CONTINUOUS
 10
106.4056039095
 20
90.1951009741
  0
VERTEX
  8
0
 62
9
  6
CONTINUOUS
 10
106.4119891741
 20
90.2209145512
  0
VERTEX
  8
0
 62
9
  6
CONTINUOUS
 10
106.4178457004
 20
90.2754544091
  0
VERTEX
  8
0
 62
9
  6
CONTINUOUS
 10
106.4228172697
 20
90.3554032077
  0
VERTEX
  8
0
 62
9
  6
CONTINUOUS
 10
106.4266014902
 20
90.4558981271
  0
VERTEX
  8
0
 62
9
  6
CONTINUOUS
 10
106.4289681896
 20
90.5708266444
  0
VERTEX
  8
0
 62
9
  6
CONTINUOUS
 10
106.429773415
 20
90.6931983232
  0
SEQEND
  0
LINE
  8
0
 62
9
  6
CONTINUOUS
 10
99.2462952733
 20
90.6721117143
 11
99.0699986468
 21
90.5656895218
  0
LINE
  8
0
 62
9
  6
CONTINUOUS
 10
99.7387095607
 20
90.1740143653
 11
99.5622301011
 21
90.0675921728
  0
LINE
  8
0
 62
7
  6
CONTINUOUS
 10
103.2128008753
 20
89.4840262582
 11
104.0788262791
 21
89.9840262582
  0
POLYLINE
  8
0
 62
9
  6
CONTINUOUS
 66
1
 70
0
  0
VERTEX
  8
0
 62
9
  6
CONTINUOUS
 10
99.0699986468
 20
90.5656895218
  0
VERTEX
  8
0
 62
9
  6
CONTINUOUS
 10
99.0308625363
 20
90.5433282267
  0
VERTEX
  8
0
 62
9
  6
CONTINUOUS
 10
98.9776649855
 20
90.5192486596
  0
VERTEX
  8
0
 62
9
  6
CONTINUOUS
 10
98.9077368476
 20
90.493539513
  0
SEQEND
  0
POLYLINE
  8
0
 62
9
  6
CONTINUOUS
 66
1
 70
0
  0
VERTEX
  8
0
 62
9
  6
CONTINUOUS
 10
99.5622301011
 20
90.0675921728
  0
VERTEX
  8
0
 62
9
  6
CONTINUOUS
 10
99.519901263
 20
90.0452340021
  0
VERTEX
  8
0
 62
9
  6
CONTINUOUS
 10
99.46234942
 20
90.0211507376
  0
VERTEX
  8
0
 62
9
  6
CONTINUOUS
 10
99.3867123878
 20
89.9954421639
  0
SEQEND
  0
POLYLINE
  8
0
 62
9
  6
CONTINUOUS
 66
1
 70
0
  0
VERTEX
  8
0
 62
9
  6
CONTINUOUS
 10
107.0388893628
 20
99.9726103525
  0
VERTEX
  8
0
 62
9
  6
CONTINUOUS
 10
107.0692960645
 20
99.9811682152
  0
VERTEX
  8
0
 62
9
  6
CONTINUOUS
 10
107.1019143073
 20
99.9840262582
  0
SEQEND
  0
POLYLINE
  8
0
 62
9
  6
CONTINUOUS
 66
1
 70
0
  0
VERTEX
  8
0
 62
9
  6
CONTINUOUS
 10
107.5178649029
 20
99.4745130034
  0
VERTEX
  8
0
 62
9
  6
CONTINUOUS
 10
107.5473167661
 20
99.481644568
  0
VERTEX
  8
0
 62
9
  6
CONTINUOUS
 10
107.5788461407
 20
99.4840262582
  0
SEQEND
  0
POLYLINE
  8
0
 62
9
  6
CONTINUOUS
 66
1
 70
0
  0
VERTEX
  8
0
 62
9
  6
CONTINUOUS
 10
121.8277629845
 20
99.9840262582
  0
VERTEX
  8
0
 62
9
  6
CONTINUOUS
 10
121.7552877886
 20
99.9669891176
  0
VERTEX
  8
0
 62
9
  6
CONTINUOUS
 10
121.6877517219
 20
99.9170388029
  0
VERTEX
  8
0
 62
9
  6
CONTINUOUS
 10
121.6297572435
 20
99.8375794163
  0
VERTEX
  8
0
 62
9
  6
CONTINUOUS
 10
121.5852565537
 20
99.734026028
  0
VERTEX
  8
0
 62
9
  6
CONTINUOUS
 10
121.5572822686
 20
99.6134356383
  0
VERTEX
  8
0
 62
9
  6
CONTINUOUS
 10
121.5477407642
 20
99.4840262582
  0
SEQEND
  0
POLYLINE
  8
0
 62
9
  6
CONTINUOUS
 66
1
 70
0
  0
VERTEX
  8
0
 62
9
  6
CONTINUOUS
 10
123.2615094738
 20
99.9726103293
  0
VERTEX
  8
0
 62
9
  6
CONTINUOUS
 10
123.1627752641
 20
99.9526079719
  0
VERTEX
  8
0
 62
9
  6
CONTINUOUS
 10
123.0695375006
 20
99.9011999607
  0
VERTEX
  8
0
 62
9
  6
CONTINUOUS
 10
122.9879208931
 20
99.8217632443
  0
VERTEX
  8
0
 62
9
  6
CONTINUOUS
 10
122.9232867676
 20
99.7195159534
  0
VERTEX
  8
0
 62
9
  6
CONTINUOUS
 10
122.8798808848
 20
99.6011746259
  0
VERTEX
  8
0
 62
9
  6
CONTINUOUS
 10
122.8605545406
 20
99.4745130034
  0
SEQEND
  0
POLYLINE
  8
0
 62
9
  6
CONTINUOUS
 66
1
 70
0
  0
VERTEX
  8
0
 62
9
  6
CONTINUOUS
 10
123.0956357271
 20
99.9840262582
  0
VERTEX
  8
0
 62
9
  6
CONTINUOUS
 10
122.9986718558
 20
99.9669891666
  0
VERTEX
  8
0
 62
9
  6
CONTINUOUS
 10
122.9083159174
 20
99.917038945
  0
VERTEX
  8
0
 62
9
  6
CONTINUOUS
 10
122.8307255199
 20
99.8375796245
  0
VERTEX
  8
0
 62
9
  6
CONTINUOUS
 10
122.7711883186
 20
99.7340262317
  0
VERTEX
  8
0
 62
9
  6
CONTINUOUS
 10
122.7337616715
 20
99.6134357625
  0
VERTEX
  8
0
 62
9
  6
CONTINUOUS
 10
122.720996138
 20
99.4840262582
  0
SEQEND
  0
POLYLINE
  8
0
 62
9
  6
CONTINUOUS
 66
1
 70
0
  0
VERTEX
  8
0
 62
9
  6
CONTINUOUS
 10
123.762546569
 20
99.9004603436
  0
VERTEX
  8
0
 62
9
  6
CONTINUOUS
 10
123.653609215
 20
99.8816089729
  0
VERTEX
  8
0
 62
9
  6
CONTINUOUS
 10
123.5509161609
 20
99.8308257274
  0
VERTEX
  8
0
 62
9
  6
CONTINUOUS
 10
123.4613097838
 20
99.7514942648
  0
VERTEX
  8
0
 62
9
  6
CONTINUOUS
 10
123.3907605034
 20
99.648900393
  0
VERTEX
  8
0
 62
9
  6
CONTINUOUS
 10
123.3439689762
 20
99.529879881
  0
VERTEX
  8
0
 62
9
  6
CONTINUOUS
 10
123.324052894
 20
99.4023629946
  0
SEQEND
  0
POLYLINE
  8
0
 62
9
  6
CONTINUOUS
 66
1
 70
0
  0
VERTEX
  8
0
 62
9
  6
CONTINUOUS
 10
124.4237288658
 20
99.7940381524
  0
VERTEX
  8
0
 62
9
  6
CONTINUOUS
 10
124.3147634278
 20
99.7752239318
  0
VERTEX
  8
0
 62
9
  6
CONTINUOUS
 10
124.2120357006
 20
99.7244608752
  0
VERTEX
  8
0
 62
9
  6
CONTINUOUS
 10
124.1223934771
 20
99.6451328293
  0
VERTEX
  8
0
 62
9
  6
CONTINUOUS
 10
124.051812275
 20
99.542527773
  0
VERTEX
  8
0
 62
9
  6
CONTINUOUS
 10
124.0049970116
 20
99.4234853217
  0
VERTEX
  8
0
 62
9
  6
CONTINUOUS
 10
123.9850683749
 20
99.2959408021
  0
SEQEND
  0
POLYLINE
  8
0
 62
9
  6
CONTINUOUS
 66
1
 70
0
  0
VERTEX
  8
0
 62
9
  6
CONTINUOUS
 10
161.461576163
 20
99.7729515423
  0
VERTEX
  8
0
 62
9
  6
CONTINUOUS
 10
161.4711279367
 20
99.7734526239
  0
VERTEX
  8
0
 62
9
  6
CONTINUOUS
 10
161.469178066
 20
99.7749403474
  0
VERTEX
  8
0
 62
9
  6
CONTINUOUS
 10
161.4557716278
 20
99.7773589959
  0
VERTEX
  8
0
 62
9
  6
CONTINUOUS
 10
161.4314229505
 20
99.7806162694
  0
SEQEND
  0
POLYLINE
  8
0
 62
9
  6
CONTINUOUS
 66
1
 70
0
  0
VERTEX
  8
0
 62
9
  6
CONTINUOUS
 10
161.9025191448
 20
99.2748541932
  0
VERTEX
  8
0
 62
9
  6
CONTINUOUS
 10
161.9279703948
 20
99.2753563285
  0
VERTEX
  8
0
 62
9
  6
CONTINUOUS
 10
161.9296504266
 20
99.2757403848
  0
SEQEND
  0
POLYLINE
  8
0
 62
9
  6
CONTINUOUS
 66
1
 70
0
  0
VERTEX
  8
0
 62
9
  6
CONTINUOUS
 10
150.0931966979
 20
99.7729515423
  0
VERTEX
  8
0
 62
9
  6
CONTINUOUS
 10
150.1255241396
 20
99.7734526239
  0
VERTEX
  8
0
 62
9
  6
CONTINUOUS
 10
150.1476884708
 20
99.7749403474
  0
VERTEX
  8
0
 62
9
  6
CONTINUOUS
 10
150.1587770568
 20
99.7773589959
  0
VERTEX
  8
0
 62
9
  6
CONTINUOUS
 10
150.1583515585
 20
99.7806162694
  0
VERTEX
  8
0
 62
9
  6
CONTINUOUS
 10
150.1464249646
 20
99.7845891193
  0
VERTEX
  8
0
 62
9
  6
CONTINUOUS
 10
150.1234571245
 20
99.7891252923
  0
SEQEND
  0
POLYLINE
  8
0
 62
9
  6
CONTINUOUS
 66
1
 70
0
  0
VERTEX
  8
0
 62
9
  6
CONTINUOUS
 10
130.9582714499
 20
99.2753563285
  0
VERTEX
  8
0
 62
9
  6
CONTINUOUS
 10
131.0712881354
 20
99.2768444303
  0
VERTEX
  8
0
 62
9
  6
CONTINUOUS
 10
131.1609242461
 20
99.2792613668
  0
VERTEX
  8
0
 62
9
  6
CONTINUOUS
 10
131.2236846668
 20
99.2825162716
  0
VERTEX
  8
0
 62
9
  6
CONTINUOUS
 10
131.2571621728
 20
99.2864859159
  0
VERTEX
  8
0
 62
9
  6
CONTINUOUS
 10
131.2626002896
 20
99.2891202218
  0
SEQEND
  0
POLYLINE
  8
0
 62
9
  6
CONTINUOUS
 66
1
 70
0
  0
VERTEX
  8
0
 62
9
  6
CONTINUOUS
 10
106.5848214475
 20
99.2753563285
  0
VERTEX
  8
0
 62
9
  6
CONTINUOUS
 10
106.7323235795
 20
99.2768444303
  0
VERTEX
  8
0
 62
9
  6
CONTINUOUS
 10
106.8666063745
 20
99.2792613668
  0
VERTEX
  8
0
 62
9
  6
CONTINUOUS
 10
106.9824442191
 20
99.2825162716
  0
VERTEX
  8
0
 62
9
  6
CONTINUOUS
 10
107.0754028987
 20
99.2864859159
  0
VERTEX
  8
0
 62
9
  6
CONTINUOUS
 10
107.1418774301
 20
99.2910183177
  0
VERTEX
  8
0
 62
9
  6
CONTINUOUS
 10
107.1793064772
 20
99.2959408021
  0
SEQEND
  0
POLYLINE
  8
0
 62
9
  6
CONTINUOUS
 66
1
 70
0
  0
VERTEX
  8
0
 62
9
  6
CONTINUOUS
 10
130.6187709001
 20
99.7729515423
  0
VERTEX
  8
0
 62
9
  6
CONTINUOUS
 10
130.6682843013
 20
99.7734526239
  0
VERTEX
  8
0
 62
9
  6
CONTINUOUS
 10
130.7107304203
 20
99.7749403474
  0
VERTEX
  8
0
 62
9
  6
CONTINUOUS
 10
130.7443967133
 20
99.7773589959
  0
VERTEX
  8
0
 62
9
  6
CONTINUOUS
 10
130.7679679665
 20
99.7806162694
  0
VERTEX
  8
0
 62
9
  6
CONTINUOUS
 10
130.7805387918
 20
99.7845891193
  0
VERTEX
  8
0
 62
9
  6
CONTINUOUS
 10
130.7816207663
 20
99.7891252923
  0
VERTEX
  8
0
 62
9
  6
CONTINUOUS
 10
130.7712095455
 20
99.7940381511
  0
SEQEND
  0
POLYLINE
  8
0
 62
9
  6
CONTINUOUS
 66
1
 70
0
  0
VERTEX
  8
0
 62
9
  6
CONTINUOUS
 10
81.6283184544
 20
99.2753563285
  0
VERTEX
  8
0
 62
9
  6
CONTINUOUS
 10
81.7848015741
 20
99.2768444303
  0
VERTEX
  8
0
 62
9
  6
CONTINUOUS
 10
81.9405123383
 20
99.2792613668
  0
VERTEX
  8
0
 62
9
  6
CONTINUOUS
 10
82.0893981911
 20
99.2825162716
  0
VERTEX
  8
0
 62
9
  6
CONTINUOUS
 10
82.2257646442
 20
99.2864859159
  0
VERTEX
  8
0
 62
9
  6
CONTINUOUS
 10
82.3443317966
 20
99.2910183177
  0
VERTEX
  8
0
 62
9
  6
CONTINUOUS
 10
82.4405380523
 20
99.2959408021
  0
SEQEND
  0
POLYLINE
  8
0
 62
9
  6
CONTINUOUS
 66
1
 70
0
  0
VERTEX
  8
0
 62
9
  6
CONTINUOUS
 10
150.4480810954
 20
99.2748541932
  0
VERTEX
  8
0
 62
9
  6
CONTINUOUS
 10
150.5342775303
 20
99.2753563285
  0
VERTEX
  8
0
 62
9
  6
CONTINUOUS
 10
150.5932671577
 20
99.2768444303
  0
VERTEX
  8
0
 62
9
  6
CONTINUOUS
 10
150.6227576862
 20
99.2792613668
  0
VERTEX
  8
0
 62
9
  6
CONTINUOUS
 10
150.6260527136
 20
99.2806679485
  0
SEQEND
  0
LINE
  8
0
 62
9
  6
CONTINUOUS
 10
44.5230826058
 20
99.2748541932
 11
46.5112809762
 21
99.2748541932
  0
LINE
  8
0
 62
9
  6
CONTINUOUS
 10
55.9775206552
 20
99.2748541932
 11
60.4039685606
 21
99.2753563285
  0
LINE
  8
0
 62
9
  6
CONTINUOUS
 10
75.5993677737
 20
99.2748541932
 11
81.6283184544
 21
99.2753563285
  0
LINE
  8
0
 62
9
  6
CONTINUOUS
 10
99.9958283356
 20
99.2748541932
 11
106.5848214475
 21
99.2753563285
  0
LINE
  8
0
 62
9
  6
CONTINUOUS
 10
124.9485326749
 20
99.2748541932
 11
130.9582714499
 21
99.2753563285
  0
LINE
  8
0
 62
9
  6
CONTINUOUS
 10
159.9143207744
 20
99.2748541932
 11
161.9025191448
 21
99.2748541932
  0
LINE
  8
0
 62
9
  6
CONTINUOUS
 10
49.6203829221
 20
99.4840262582
 11
55.8434683139
 21
99.4840262582
  0
LINE
  8
0
 62
9
  6
CONTINUOUS
 10
63.2035092717
 20
99.4840262582
 11
75.2032977881
 21
99.4840262582
  0
LINE
  8
0
 62
9
  6
CONTINUOUS
 10
83.7046056125
 20
99.4840262582
 11
98.8467556098
 21
99.4840262582
  0
LINE
  8
0
 62
9
  6
CONTINUOUS
 10
107.5788461407
 20
99.4840262582
 11
122.720996138
 21
99.4840262582
  0
LINE
  8
0
 62
9
  6
CONTINUOUS
 10
131.2221914605
 20
99.4840262582
 11
143.2220924789
 21
99.4840262582
  0
LINE
  8
0
 62
9
  6
CONTINUOUS
 10
150.5825452688
 20
99.4840262582
 11
156.8052188285
 21
99.4840262582
  0
LINE
  8
0
 62
9
  6
CONTINUOUS
 10
56.3001019726
 20
99.7734517369
 11
56.3324050526
 21
99.7729515423
  0
POLYLINE
  8
0
 62
9
  6
CONTINUOUS
 66
1
 70
0
  0
VERTEX
  8
0
 62
9
  6
CONTINUOUS
 10
98.8467556098
 20
99.4840262582
  0
VERTEX
  8
0
 62
9
  6
CONTINUOUS
 10
98.8782863897
 20
99.4816443486
  0
VERTEX
  8
0
 62
9
  6
CONTINUOUS
 10
98.9077368476
 20
99.4745130034
  0
SEQEND
  0
POLYLINE
  8
0
 62
9
  6
CONTINUOUS
 66
1
 70
0
  0
VERTEX
  8
0
 62
9
  6
CONTINUOUS
 10
99.2462952733
 20
99.2959408021
  0
VERTEX
  8
0
 62
9
  6
CONTINUOUS
 10
99.2837164582
 20
99.2910181842
  0
VERTEX
  8
0
 62
9
  6
CONTINUOUS
 10
99.3501835903
 20
99.2864850054
  0
VERTEX
  8
0
 62
9
  6
CONTINUOUS
 10
99.4431229412
 20
99.2825162482
  0
VERTEX
  8
0
 62
9
  6
CONTINUOUS
 10
99.5589426201
 20
99.2792615873
  0
VERTEX
  8
0
 62
9
  6
CONTINUOUS
 10
99.6932080545
 20
99.2768446549
  0
VERTEX
  8
0
 62
9
  6
CONTINUOUS
 10
99.8407262536
 20
99.275356496
  0
VERTEX
  8
0
 62
9
  6
CONTINUOUS
 10
99.9958283356
 20
99.2748541932
  0
SEQEND
  0
POLYLINE
  8
0
 62
9
  6
CONTINUOUS
 66
1
 70
0
  0
VERTEX
  8
0
 62
9
  6
CONTINUOUS
 10
82.0018728848
 20
99.7940381512
  0
VERTEX
  8
0
 62
9
  6
CONTINUOUS
 10
82.110839363
 20
99.7752244261
  0
VERTEX
  8
0
 62
9
  6
CONTINUOUS
 10
82.2135681615
 20
99.7244616397
  0
VERTEX
  8
0
 62
9
  6
CONTINUOUS
 10
82.3032113754
 20
99.6451336408
  0
VERTEX
  8
0
 62
9
  6
CONTINUOUS
 10
82.3737933852
 20
99.5425284363
  0
VERTEX
  8
0
 62
9
  6
CONTINUOUS
 10
82.4206091919
 20
99.4234856924
  0
VERTEX
  8
0
 62
9
  6
CONTINUOUS
 10
82.4405380523
 20
99.2959408021
  0
SEQEND
  0
POLYLINE
  8
0
 62
9
  6
CONTINUOUS
 66
1
 70
0
  0
VERTEX
  8
0
 62
9
  6
CONTINUOUS
 10
82.6630551819
 20
99.900460334
  0
VERTEX
  8
0
 62
9
  6
CONTINUOUS
 10
82.7719925474
 20
99.8816089807
  0
VERTEX
  8
0
 62
9
  6
CONTINUOUS
 10
82.8746856156
 20
99.8308257455
  0
VERTEX
  8
0
 62
9
  6
CONTINUOUS
 10
82.9642920069
 20
99.751494286
  0
VERTEX
  8
0
 62
9
  6
CONTINUOUS
 10
83.0348412995
 20
99.6489004111
  0
VERTEX
  8
0
 62
9
  6
CONTINUOUS
 10
83.081632835
 20
99.5298798912
  0
VERTEX
  8
0
 62
9
  6
CONTINUOUS
 10
83.1015489205
 20
99.4023629946
  0
SEQEND
  0
POLYLINE
  8
0
 62
9
  6
CONTINUOUS
 66
1
 70
0
  0
VERTEX
  8
0
 62
9
  6
CONTINUOUS
 10
83.3299660234
 20
99.9840262582
  0
VERTEX
  8
0
 62
9
  6
CONTINUOUS
 10
83.4269300501
 20
99.966989112
  0
VERTEX
  8
0
 62
9
  6
CONTINUOUS
 10
83.5172860465
 20
99.917038784
  0
VERTEX
  8
0
 62
9
  6
CONTINUOUS
 10
83.5948764147
 20
99.8375793854
  0
VERTEX
  8
0
 62
9
  6
CONTINUOUS
 10
83.6544135386
 20
99.7340259952
  0
VERTEX
  8
0
 62
9
  6
CONTINUOUS
 10
83.6918401109
 20
99.6134356172
  0
VERTEX
  8
0
 62
9
  6
CONTINUOUS
 10
83.7046056125
 20
99.4840262582
  0
SEQEND
  0
POLYLINE
  8
0
 62
9
  6
CONTINUOUS
 66
1
 70
0
  0
VERTEX
  8
0
 62
9
  6
CONTINUOUS
 10
83.1640922799
 20
99.9726102247
  0
VERTEX
  8
0
 62
9
  6
CONTINUOUS
 10
83.2628264576
 20
99.9526078424
  0
VERTEX
  8
0
 62
9
  6
CONTINUOUS
 10
83.3560641881
 20
99.9011998279
  0
VERTEX
  8
0
 62
9
  6
CONTINUOUS
 10
83.4376807673
 20
99.8217631279
  0
VERTEX
  8
0
 62
9
  6
CONTINUOUS
 10
83.5023148743
 20
99.7195158688
  0
VERTEX
  8
0
 62
9
  6
CONTINUOUS
 10
83.5457207519
 20
99.6011745826
  0
VERTEX
  8
0
 62
9
  6
CONTINUOUS
 10
83.5650471062
 20
99.4745130034
  0
SEQEND
  0
POLYLINE
  8
0
 62
9
  6
CONTINUOUS
 66
1
 70
0
  0
VERTEX
  8
0
 62
9
  6
CONTINUOUS
 10
84.597838766
 20
99.9840262582
  0
VERTEX
  8
0
 62
9
  6
CONTINUOUS
 10
84.670314192
 20
99.9669890075
  0
VERTEX
  8
0
 62
9
  6
CONTINUOUS
 10
84.7378503515
 20
99.91703847
  0
VERTEX
  8
0
 62
9
  6
CONTINUOUS
 10
84.79584479
 20
99.837578911
  0
VERTEX
  8
0
 62
9
  6
CONTINUOUS
 10
84.8403453618
 20
99.7340255178
  0
VERTEX
  8
0
 62
9
  6
CONTINUOUS
 10
84.8683195297
 20
99.613435319
  0
VERTEX
  8
0
 62
9
  6
CONTINUOUS
 10
84.8778609862
 20
99.4840262582
  0
SEQEND
  0
POLYLINE
  8
0
 62
9
  6
CONTINUOUS
 66
1
 70
0
  0
VERTEX
  8
0
 62
9
  6
CONTINUOUS
 10
99.3867123878
 20
99.9726103525
  0
VERTEX
  8
0
 62
9
  6
CONTINUOUS
 10
99.4623383723
 20
99.946905941
  0
VERTEX
  8
0
 62
9
  6
CONTINUOUS
 10
99.5198921706
 20
99.9228227824
  0
VERTEX
  8
0
 62
9
  6
CONTINUOUS
 10
99.5622301011
 20
99.9004603436
  0
SEQEND
  0
POLYLINE
  8
0
 62
9
  6
CONTINUOUS
 66
1
 70
0
  0
VERTEX
  8
0
 62
9
  6
CONTINUOUS
 10
99.7387095607
 20
99.7940381511
  0
VERTEX
  8
0
 62
9
  6
CONTINUOUS
 10
99.7527384937
 20
99.7891200192
  0
VERTEX
  8
0
 62
9
  6
CONTINUOUS
 10
99.7776938362
 20
99.7845844781
  0
VERTEX
  8
0
 62
9
  6
CONTINUOUS
 10
99.8125934486
 20
99.7806128244
  0
VERTEX
  8
0
 62
9
  6
CONTINUOUS
 10
99.8560887529
 20
99.7773565593
  0
VERTEX
  8
0
 62
9
  6
CONTINUOUS
 10
99.9065122406
 20
99.7749388545
  0
VERTEX
  8
0
 62
9
  6
CONTINUOUS
 10
99.9619105231
 20
99.7734517369
  0
VERTEX
  8
0
 62
9
  6
CONTINUOUS
 10
100.019997841
 20
99.7729515423
  0
SEQEND
  0
POLYLINE
  8
0
 62
9
  6
CONTINUOUS
 66
1
 70
0
  0
VERTEX
  8
0
 62
9
  6
CONTINUOUS
 10
98.9077368476
 20
99.4745130034
  0
VERTEX
  8
0
 62
9
  6
CONTINUOUS
 10
98.9776544672
 20
99.448808145
  0
VERTEX
  8
0
 62
9
  6
CONTINUOUS
 10
99.0308541463
 20
99.424728551
  0
VERTEX
  8
0
 62
9
  6
CONTINUOUS
 10
99.0699986468
 20
99.4023629946
  0
SEQEND
  0
LINE
  8
0
 62
9
  6
CONTINUOUS
 10
99.5622301011
 20
99.9004603436
 11
99.7387095607
 21
99.7940381511
  0
LINE
  8
0
 62
9
  6
CONTINUOUS
 10
99.0699986468
 20
99.4023629946
 11
99.2462952733
 21
99.2959408021
  0
POLYLINE
  8
0
 62
9
  6
CONTINUOUS
 66
1
 70
0
  0
VERTEX
  8
0
 62
9
  6
CONTINUOUS
 10
106.4056039095
 20
99.7729515423
  0
VERTEX
  8
0
 62
9
  6
CONTINUOUS
 10
106.4119891416
 20
99.7471381746
  0
VERTEX
  8
0
 62
9
  6
CONTINUOUS
 10
106.4178456545
 20
99.6925986651
  0
VERTEX
  8
0
 62
9
  6
CONTINUOUS
 10
106.4228172285
 20
99.6126501375
  0
VERTEX
  8
0
 62
9
  6
CONTINUOUS
 10
106.4266014651
 20
99.5121552457
  0
VERTEX
  8
0
 62
9
  6
CONTINUOUS
 10
106.4289681818
 20
99.3972264397
  0
VERTEX
  8
0
 62
9
  6
CONTINUOUS
 10
106.4297734155
 20
99.2748541932
  0
SEQEND
  0
LINE
  8
0
 62
9
  6
CONTINUOUS
 10
108.2315296193
 20
90.4840262582
 11
108.2315296193
 21
99.4840262582
  0
LINE
  8
0
 62
9
  6
CONTINUOUS
 10
109.6963293618
 20
90.4840262582
 11
109.6963293618
 21
99.4840262582
  0
POLYLINE
  8
0
 62
9
  6
CONTINUOUS
 66
1
 70
0
  0
VERTEX
  8
0
 62
9
  6
CONTINUOUS
 10
109.6382332285
 20
89.9840262582
  0
VERTEX
  8
0
 62
9
  6
CONTINUOUS
 10
109.6532697134
 20
90.0010635738
  0
VERTEX
  8
0
 62
9
  6
CONTINUOUS
 10
109.6672814333
 20
90.0510142425
  0
VERTEX
  8
0
 62
9
  6
CONTINUOUS
 10
109.6793135187
 20
90.1304739027
  0
VERTEX
  8
0
 62
9
  6
CONTINUOUS
 10
109.6885460257
 20
90.2340272986
  0
VERTEX
  8
0
 62
9
  6
CONTINUOUS
 10
109.6943498044
 20
90.354617385
  0
VERTEX
  8
0
 62
9
  6
CONTINUOUS
 10
109.696329362
 20
90.4840262582
  0
SEQEND
  0
POLYLINE
  8
0
 62
9
  6
CONTINUOUS
 66
1
 70
0
  0
VERTEX
  8
0
 62
9
  6
CONTINUOUS
 10
143.6697027063
 20
99.9726103293
  0
VERTEX
  8
0
 62
9
  6
CONTINUOUS
 10
143.6117209065
 20
99.9526079719
  0
VERTEX
  8
0
 62
9
  6
CONTINUOUS
 10
143.5555515177
 20
99.9011999607
  0
VERTEX
  8
0
 62
9
  6
CONTINUOUS
 10
143.5048842597
 20
99.8217632443
  0
VERTEX
  8
0
 62
9
  6
CONTINUOUS
 10
143.4630474216
 20
99.7195159534
  0
VERTEX
  8
0
 62
9
  6
CONTINUOUS
 10
143.4327892298
 20
99.6011746259
  0
VERTEX
  8
0
 62
9
  6
CONTINUOUS
 10
143.4160973195
 20
99.4745130034
  0
SEQEND
  0
POLYLINE
  8
0
 62
9
  6
CONTINUOUS
 66
1
 70
0
  0
VERTEX
  8
0
 62
9
  6
CONTINUOUS
 10
143.4296612352
 20
99.9840262582
  0
VERTEX
  8
0
 62
9
  6
CONTINUOUS
 10
143.3759384842
 20
99.9669891666
  0
VERTEX
  8
0
 62
9
  6
CONTINUOUS
 10
143.3258768522
 20
99.917038945
  0
VERTEX
  8
0
 62
9
  6
CONTINUOUS
 10
143.2828879568
 20
99.8375796245
  0
VERTEX
  8
0
 62
9
  6
CONTINUOUS
 10
143.2499014189
 20
99.7340262317
  0
VERTEX
  8
0
 62
9
  6
CONTINUOUS
 10
143.2291652144
 20
99.6134357625
  0
VERTEX
  8
0
 62
9
  6
CONTINUOUS
 10
143.2220924789
 20
99.4840262582
  0
SEQEND
  0
POLYLINE
  8
0
 62
9
  6
CONTINUOUS
 66
1
 70
0
  0
VERTEX
  8
0
 62
9
  6
CONTINUOUS
 10
62.0159764327
 20
90.0675921728
  0
VERTEX
  8
0
 62
9
  6
CONTINUOUS
 10
62.0884098366
 20
90.0864435435
  0
VERTEX
  8
0
 62
9
  6
CONTINUOUS
 10
62.1580501119
 20
90.137226789
  0
VERTEX
  8
0
 62
9
  6
CONTINUOUS
 10
62.2202571684
 20
90.2165582517
  0
VERTEX
  8
0
 62
9
  6
CONTINUOUS
 10
62.2708861869
 20
90.3191521234
  0
VERTEX
  8
0
 62
9
  6
CONTINUOUS
 10
62.306563786
 20
90.4381726354
  0
VERTEX
  8
0
 62
9
  6
CONTINUOUS
 10
62.3249127884
 20
90.5656895218
  0
SEQEND
  0
POLYLINE
  8
0
 62
9
  6
CONTINUOUS
 66
1
 70
0
  0
VERTEX
  8
0
 62
9
  6
CONTINUOUS
 10
60.9844157245
 20
90.1740143637
  0
VERTEX
  8
0
 62
9
  6
CONTINUOUS
 10
61.0568666217
 20
90.1928286922
  0
VERTEX
  8
0
 62
9
  6
CONTINUOUS
 10
61.1265305516
 20
90.2435918078
  0
VERTEX
  8
0
 62
9
  6
CONTINUOUS
 10
61.188763748
 20
90.3229198639
  0
VERTEX
  8
0
 62
9
  6
CONTINUOUS
 10
61.239417774
 20
90.425524888
  0
VERTEX
  8
0
 62
9
  6
CONTINUOUS
 10
61.2751160547
 20
90.5445672755
  0
VERTEX
  8
0
 62
9
  6
CONTINUOUS
 10
61.2934789586
 20
90.6721117143
  0
SEQEND
  0
POLYLINE
  8
0
 62
9
  6
CONTINUOUS
 66
1
 70
0
  0
VERTEX
  8
0
 62
9
  6
CONTINUOUS
 10
83.1015488566
 20
99.4023629946
  0
VERTEX
  8
0
 62
9
  6
CONTINUOUS
 10
83.2347939802
 20
99.4247415378
  0
VERTEX
  8
0
 62
9
  6
CONTINUOUS
 10
83.38858343
 20
99.4488210408
  0
VERTEX
  8
0
 62
9
  6
CONTINUOUS
 10
83.5650470586
 20
99.4745130034
  0
SEQEND
  0
POLYLINE
  8
0
 62
9
  6
CONTINUOUS
 66
1
 70
0
  0
VERTEX
  8
0
 62
9
  6
CONTINUOUS
 10
99.3867123879
 20
99.9726103293
  0
VERTEX
  8
0
 62
9
  6
CONTINUOUS
 10
99.26429781
 20
99.9526079719
  0
VERTEX
  8
0
 62
9
  6
CONTINUOUS
 10
99.1501133281
 20
99.9011999607
  0
VERTEX
  8
0
 62
9
  6
CONTINUOUS
 10
99.0516596242
 20
99.8217632443
  0
VERTEX
  8
0
 62
9
  6
CONTINUOUS
 10
98.9754040386
 20
99.7195159534
  0
VERTEX
  8
0
 62
9
  6
CONTINUOUS
 10
98.9263557363
 20
99.6011746259
  0
VERTEX
  8
0
 62
9
  6
CONTINUOUS
 10
98.9077366586
 20
99.4745130034
  0
SEQEND
  0
LINE
  8
0
 62
9
  6
CONTINUOUS
 10
82.4405380523
 20
99.2959408021
 11
83.1015488566
 21
99.4023629946
  0
LINE
  8
0
 62
9
  6
CONTINUOUS
 10
82.0018728848
 20
99.7940381511
 11
82.6630551816
 21
99.9004603436
  0
POLYLINE
  8
0
 62
9
  6
CONTINUOUS
 66
1
 70
0
  0
VERTEX
  8
0
 62
9
  6
CONTINUOUS
 10
82.6630551816
 20
99.9004603436
  0
VERTEX
  8
0
 62
9
  6
CONTINUOUS
 10
82.8070691135
 20
99.9228362675
  0
VERTEX
  8
0
 62
9
  6
CONTINUOUS
 10
82.9733385522
 20
99.9469194572
  0
VERTEX
  8
0
 62
9
  6
CONTINUOUS
 10
83.164092276
 20
99.9726103525
  0
SEQEND
  0
POLYLINE
  8
0
 62
9
  6
CONTINUOUS
 66
1
 70
0
  0
VERTEX
  8
0
 62
9
  6
CONTINUOUS
 10
98.6183682003
 20
99.9840262582
  0
VERTEX
  8
0
 62
9
  6
CONTINUOUS
 10
98.508552209
 20
99.9669891436
  0
VERTEX
  8
0
 62
9
  6
CONTINUOUS
 10
98.4062200461
 20
99.9170388787
  0
VERTEX
  8
0
 62
9
  6
CONTINUOUS
 10
98.3183454703
 20
99.8375795282
  0
VERTEX
  8
0
 62
9
  6
CONTINUOUS
 10
98.2509169672
 20
99.7340261386
  0
VERTEX
  8
0
 62
9
  6
CONTINUOUS
 10
98.2085296524
 20
99.6134357067
  0
VERTEX
  8
0
 62
9
  6
CONTINUOUS
 10
98.1940721313
 20
99.4840262582
  0
SEQEND
  0
POLYLINE
  8
0
 62
9
  6
CONTINUOUS
 66
1
 70
0
  0
VERTEX
  8
0
 62
9
  6
CONTINUOUS
 10
99.5622301011
 20
99.9004603436
  0
VERTEX
  8
0
 62
9
  6
CONTINUOUS
 10
99.4356250553
 20
99.8816089729
  0
VERTEX
  8
0
 62
9
  6
CONTINUOUS
 10
99.3176357844
 20
99.8308257274
  0
VERTEX
  8
0
 62
9
  6
CONTINUOUS
 10
99.2161238433
 20
99.7514942648
  0
VERTEX
  8
0
 62
9
  6
CONTINUOUS
 10
99.1378529124
 20
99.648900393
  0
VERTEX
  8
0
 62
9
  6
CONTINUOUS
 10
99.0880381373
 20
99.529879881
  0
VERTEX
  8
0
 62
9
  6
CONTINUOUS
 10
99.0699986468
 20
99.4023629946
  0
SEQEND
  0
POLYLINE
  8
0
 62
9
  6
CONTINUOUS
 66
1
 70
0
  0
VERTEX
  8
0
 62
9
  6
CONTINUOUS
 10
99.7387095607
 20
99.7940381524
  0
VERTEX
  8
0
 62
9
  6
CONTINUOUS
 10
99.612070818
 20
99.7752239318
  0
VERTEX
  8
0
 62
9
  6
CONTINUOUS
 10
99.4940419776
 20
99.7244608752
  0
VERTEX
  8
0
 62
9
  6
CONTINUOUS
 10
99.3924907988
 20
99.6451328293
  0
VERTEX
  8
0
 62
9
  6
CONTINUOUS
 10
99.3141866463
 20
99.542527773
  0
VERTEX
  8
0
 62
9
  6
CONTINUOUS
 10
99.2643492462
 20
99.4234853217
  0
VERTEX
  8
0
 62
9
  6
CONTINUOUS
 10
99.2463007415
 20
99.2959408021
  0
SEQEND
  0
POLYLINE
  8
0
 62
9
  6
CONTINUOUS
 66
1
 70
0
  0
VERTEX
  8
0
 62
9
  6
CONTINUOUS
 10
99.3236874433
 20
99.9840262582
  0
VERTEX
  8
0
 62
9
  6
CONTINUOUS
 10
99.2002483858
 20
99.9669891666
  0
VERTEX
  8
0
 62
9
  6
CONTINUOUS
 10
99.0852215036
 20
99.917038945
  0
VERTEX
  8
0
 62
9
  6
CONTINUOUS
 10
98.9864456887
 20
99.8375796245
  0
VERTEX
  8
0
 62
9
  6
CONTINUOUS
 10
98.910652347
 20
99.7340262317
  0
VERTEX
  8
0
 62
9
  6
CONTINUOUS
 10
98.8630066645
 20
99.6134357625
  0
VERTEX
  8
0
 62
9
  6
CONTINUOUS
 10
98.8467556098
 20
99.4840262582
  0
SEQEND
  0
LINE
  8
0
 62
9
  6
CONTINUOUS
 10
76.2033925647
 20
99.9840262582
 11
76.0752238103
 21
99.9669891176
  0
LINE
  8
0
 62
9
  6
CONTINUOUS
 10
76.2242022033
 20
99.9840262582
 11
76.1997386771
 21
99.9811679521
  0
POLYLINE
  8
0
 62
9
  6
CONTINUOUS
 66
1
 70
0
  0
VERTEX
  8
0
 62
9
  6
CONTINUOUS
 10
83.164092276
 20
99.9726103525
  0
VERTEX
  8
0
 62
9
  6
CONTINUOUS
 10
83.2459071706
 20
99.9811682152
  0
VERTEX
  8
0
 62
9
  6
CONTINUOUS
 10
83.3299660234
 20
99.9840262582
  0
SEQEND
  0
POLYLINE
  8
0
 62
9
  6
CONTINUOUS
 66
1
 70
0
  0
VERTEX
  8
0
 62
9
  6
CONTINUOUS
 10
83.5650470586
 20
99.4745130034
  0
VERTEX
  8
0
 62
9
  6
CONTINUOUS
 10
83.6337852682
 20
99.481644568
  0
VERTEX
  8
0
 62
9
  6
CONTINUOUS
 10
83.7046056125
 20
99.4840262582
  0
SEQEND
  0
LINE
  8
0
 62
9
  6
CONTINUOUS
 10
61.2934825795
 20
99.2959408021
 11
62.3249127884
 21
99.4023629946
  0
LINE
  8
0
 62
9
  6
CONTINUOUS
 10
62.5291936713
 20
99.4247415378
 11
63.0095043435
 21
99.4745130034
  0
LINE
  8
0
 62
9
  6
CONTINUOUS
 10
57.1305591613
 20
99.9004603436
 11
57.0984227444
 21
99.8979521016
  0
LINE
  8
0
 62
9
  6
CONTINUOUS
 10
56.3351740688
 20
99.7940381524
 11
56.3029189642
 21
99.7915290771
  0
POLYLINE
  8
0
 62
9
  6
CONTINUOUS
 66
1
 70
0
  0
VERTEX
  8
0
 62
9
  6
CONTINUOUS
 10
63.0095043435
 20
99.4745130034
  0
VERTEX
  8
0
 62
9
  6
CONTINUOUS
 10
63.1056434385
 20
99.481644568
  0
VERTEX
  8
0
 62
9
  6
CONTINUOUS
 10
63.2035092717
 20
99.4840262582
  0
SEQEND
  0
POLYLINE
  8
0
 62
9
  6
CONTINUOUS
 66
1
 70
0
  0
VERTEX
  8
0
 62
9
  6
CONTINUOUS
 10
62.7558990428
 20
99.9726103525
  0
VERTEX
  8
0
 62
9
  6
CONTINUOUS
 10
62.8749755918
 20
99.9811682152
  0
VERTEX
  8
0
 62
9
  6
CONTINUOUS
 10
62.9959405153
 20
99.9840262582
  0
SEQEND
  0
LINE
  8
0
 62
9
  6
CONTINUOUS
 10
45.1215234772
 20
99.7940381524
 11
45.1161373908
 21
99.7936754892
  0
POLYLINE
  8
0
 62
9
  6
CONTINUOUS
 66
1
 70
0
  0
VERTEX
  8
0
 62
9
  6
CONTINUOUS
 10
49.4054768342
 20
99.4745130034
  0
VERTEX
  8
0
 62
9
  6
CONTINUOUS
 10
49.5122271432
 20
99.4816371943
  0
VERTEX
  8
0
 62
9
  6
CONTINUOUS
 10
49.6203829221
 20
99.4840262582
  0
SEQEND
  0
POLYLINE
  8
0
 62
9
  6
CONTINUOUS
 66
1
 70
0
  0
VERTEX
  8
0
 62
9
  6
CONTINUOUS
 10
49.3430716759
 20
99.9726103525
  0
VERTEX
  8
0
 62
9
  6
CONTINUOUS
 10
49.4786091562
 20
99.9811593581
  0
VERTEX
  8
0
 62
9
  6
CONTINUOUS
 10
49.6157755222
 20
99.9840262582
  0
SEQEND
  0
LINE
  8
0
 62
9
  6
CONTINUOUS
 10
42.5430290365
 20
99.2748909855
 11
42.5513790561
 21
99.2753562652
  0
LINE
  8
0
 62
9
  6
CONTINUOUS
 10
57.7912908574
 20
99.9840262582
 11
57.7139740772
 21
99.9811679521
  0
LINE
  8
0
 62
9
  6
CONTINUOUS
 10
42.5513790561
 20
99.2753562652
 11
42.6558406712
 21
99.2792611513
  0
LINE
  8
0
 62
9
  6
CONTINUOUS
 10
42.6558406712
 20
99.2792611513
 11
43.1472975345
 21
99.2959408021
  0
LINE
  8
0
 62
9
  6
CONTINUOUS
 10
47.0823030198
 20
99.2864859159
 11
47.3946580651
 21
99.2959408021
  0
POLYLINE
  8
0
 62
9
  6
CONTINUOUS
 66
1
 70
0
  0
VERTEX
  8
0
 62
9
  6
CONTINUOUS
 10
47.2121591697
 20
99.9840262582
  0
VERTEX
  8
0
 62
9
  6
CONTINUOUS
 10
47.0953699745
 20
99.9811679521
  0
VERTEX
  8
0
 62
9
  6
CONTINUOUS
 10
46.9713915456
 20
99.9720794977
  0
SEQEND
  0
LINE
  8
0
 62
7
  6
CONTINUOUS
 10
76.2242616321
 20
99.9840261345
 11
76.2022721051
 21
99.983578926
  0
POLYLINE
  8
0
 62
9
  6
CONTINUOUS
 66
1
 70
0
  0
VERTEX
  8
0
 62
9
  6
CONTINUOUS
 10
46.9372863821
 20
99.7729515423
  0
VERTEX
  8
0
 62
9
  6
CONTINUOUS
 10
46.9636658956
 20
99.7734526239
  0
VERTEX
  8
0
 62
9
  6
CONTINUOUS
 10
46.9998477957
 20
99.7749403474
  0
VERTEX
  8
0
 62
9
  6
CONTINUOUS
 10
47.0444172333
 20
99.7773589959
  0
VERTEX
  8
0
 62
9
  6
CONTINUOUS
 10
47.0956456431
 20
99.7806162694
  0
VERTEX
  8
0
 62
9
  6
CONTINUOUS
 10
47.1515735099
 20
99.7845891193
  0
VERTEX
  8
0
 62
9
  6
CONTINUOUS
 10
47.2100364927
 20
99.7891252923
  0
VERTEX
  8
0
 62
9
  6
CONTINUOUS
 10
49.0599003179
 20
99.9490020423
  0
SEQEND
  0
POLYLINE
  8
0
 62
7
  6
CONTINUOUS
 66
1
 70
0
  0
VERTEX
  8
0
 62
7
  6
CONTINUOUS
 10
57.7913532399
 20
99.9840261509
  0
VERTEX
  8
0
 62
7
  6
CONTINUOUS
 10
57.7512288271
 20
99.9833842572
  0
VERTEX
  8
0
 62
7
  6
CONTINUOUS
 10
57.6446365088
 20
99.9755298624
  0
SEQEND
  0
POLYLINE
  8
0
 62
9
  6
CONTINUOUS
 66
1
 70
0
  0
VERTEX
  8
0
 62
9
  6
CONTINUOUS
 10
60.6052095132
 20
99.7729515423
  0
VERTEX
  8
0
 62
9
  6
CONTINUOUS
 10
60.6506859607
 20
99.7734526239
  0
VERTEX
  8
0
 62
9
  6
CONTINUOUS
 10
60.7026460273
 20
99.7749403474
  0
VERTEX
  8
0
 62
9
  6
CONTINUOUS
 10
60.7590363081
 20
99.7773589959
  0
VERTEX
  8
0
 62
9
  6
CONTINUOUS
 10
60.8176658926
 20
99.7806162694
  0
VERTEX
  8
0
 62
9
  6
CONTINUOUS
 10
60.8762906224
 20
99.7845891193
  0
VERTEX
  8
0
 62
9
  6
CONTINUOUS
 10
60.9326409951
 20
99.7891252923
  0
VERTEX
  8
0
 62
9
  6
CONTINUOUS
 10
60.9844157246
 20
99.7940381511
  0
SEQEND
  0
POLYLINE
  8
0
 62
7
  6
CONTINUOUS
 66
1
 70
0
  0
VERTEX
  8
0
 62
7
  6
CONTINUOUS
 10
47.2121579141
 20
99.9840261528
  0
VERTEX
  8
0
 62
7
  6
CONTINUOUS
 10
47.1593186507
 20
99.9834479721
  0
VERTEX
  8
0
 62
7
  6
CONTINUOUS
 10
47.0293363397
 20
99.97712984
  0
SEQEND
  0
POLYLINE
  8
0
 62
9
  6
CONTINUOUS
 66
1
 70
0
  0
VERTEX
  8
0
 62
9
  6
CONTINUOUS
 10
60.4039685606
 20
99.2753563285
  0
VERTEX
  8
0
 62
9
  6
CONTINUOUS
 10
60.5423753151
 20
99.2768444303
  0
VERTEX
  8
0
 62
9
  6
CONTINUOUS
 10
60.6925902428
 20
99.2792613668
  0
VERTEX
  8
0
 62
9
  6
CONTINUOUS
 10
60.8487803872
 20
99.2825162716
  0
VERTEX
  8
0
 62
9
  6
CONTINUOUS
 10
61.0049756152
 20
99.2864859159
  0
VERTEX
  8
0
 62
9
  6
CONTINUOUS
 10
61.155134051
 20
99.2910183177
  0
VERTEX
  8
0
 62
9
  6
CONTINUOUS
 10
61.2934825795
 20
99.2959408021
  0
SEQEND
  0
POLYLINE
  8
0
 62
9
  6
CONTINUOUS
 66
1
 70
0
  0
VERTEX
  8
0
 62
9
  6
CONTINUOUS
 10
81.6403722686
 20
99.7729515423
  0
VERTEX
  8
0
 62
9
  6
CONTINUOUS
 10
81.6970823593
 20
99.7734526239
  0
VERTEX
  8
0
 62
9
  6
CONTINUOUS
 10
81.7558362247
 20
99.7749403474
  0
VERTEX
  8
0
 62
9
  6
CONTINUOUS
 10
81.814296957
 20
99.7773589959
  0
VERTEX
  8
0
 62
9
  6
CONTINUOUS
 10
81.8701901282
 20
99.7806162694
  0
VERTEX
  8
0
 62
9
  6
CONTINUOUS
 10
81.9213749727
 20
99.7845891193
  0
VERTEX
  8
0
 62
9
  6
CONTINUOUS
 10
81.9658692439
 20
99.7891252923
  0
VERTEX
  8
0
 62
9
  6
CONTINUOUS
 10
82.0018728848
 20
99.7940381511
  0
SEQEND
  0
POLYLINE
  8
0
 62
9
  6
CONTINUOUS
 66
1
 70
0
  0
VERTEX
  8
0
 62
9
  6
CONTINUOUS
 10
106.4056039095
 20
99.7729515423
  0
VERTEX
  8
0
 62
9
  6
CONTINUOUS
 10
106.4637419535
 20
99.7734526239
  0
VERTEX
  8
0
 62
9
  6
CONTINUOUS
 10
106.5191305406
 20
99.7749403474
  0
VERTEX
  8
0
 62
9
  6
CONTINUOUS
 10
106.5695533327
 20
99.7773589959
  0
VERTEX
  8
0
 62
9
  6
CONTINUOUS
 10
106.6130456536
 20
99.7806162694
  0
VERTEX
  8
0
 62
9
  6
CONTINUOUS
 10
106.6479402881
 20
99.7845891193
  0
VERTEX
  8
0
 62
9
  6
CONTINUOUS
 10
106.6728849941
 20
99.7891252923
  0
VERTEX
  8
0
 62
9
  6
CONTINUOUS
 10
106.6868921898
 20
99.7940381511
  0
SEQEND
  0
POLYLINE
  8
0
 62
9
  6
CONTINUOUS
 66
1
 70
0
  0
VERTEX
  8
0
 62
9
  6
CONTINUOUS
 10
46.5112809762
 20
99.2748541932
  0
VERTEX
  8
0
 62
9
  6
CONTINUOUS
 10
46.5816546801
 20
99.2753563285
  0
VERTEX
  8
0
 62
9
  6
CONTINUOUS
 10
46.6780532842
 20
99.2768444303
  0
VERTEX
  8
0
 62
9
  6
CONTINUOUS
 10
46.7967988497
 20
99.2792613668
  0
VERTEX
  8
0
 62
9
  6
CONTINUOUS
 10
47.0823030198
 20
99.2864859159
  0
SEQEND
  0
LINE
  8
0
 62
9
  6
CONTINUOUS
 10
56.3324050526
 20
99.7729515423
 11
60.6052095132
 21
99.7729515423
  0
LINE
  8
0
 62
9
  6
CONTINUOUS
 10
75.8068308505
 20
99.7729515423
 11
81.6403722686
 21
99.7729515423
  0
LINE
  8
0
 62
9
  6
CONTINUOUS
 10
100.019997841
 20
99.7729515423
 11
106.4056039095
 21
99.7729515423
  0
LINE
  8
0
 62
9
  6
CONTINUOUS
 10
124.7852294819
 20
99.7729515423
 11
130.6187709001
 21
99.7729515423
  0
LINE
  8
0
 62
9
  6
CONTINUOUS
 10
145.8203922373
 20
99.7729515423
 11
150.0931966979
 21
99.7729515423
  0
LINE
  8
0
 62
9
  6
CONTINUOUS
 10
44.9640255875
 20
99.7729515423
 11
46.9372863821
 21
99.7729515423
  0
LINE
  8
0
 62
9
  6
CONTINUOUS
 10
159.4883153685
 20
99.7729515423
 11
161.461576163
 21
99.7729515423
  0
LINE
  8
0
 62
9
  6
CONTINUOUS
 10
159.4471828039
 20
99.9726103525
 11
157.0825300747
 21
99.9726103525
  0
LINE
  8
0
 62
9
  6
CONTINUOUS
 10
148.790008527
 20
99.9726103525
 11
143.6697027077
 21
99.9726103525
  0
LINE
  8
0
 62
9
  6
CONTINUOUS
 10
130.2521209912
 20
99.9726103525
 11
123.2615094745
 21
99.9726103525
  0
LINE
  8
0
 62
9
  6
CONTINUOUS
 10
107.0388893628
 20
99.9726103525
 11
99.3867123878
 21
99.9726103525
  0
LINE
  8
0
 62
9
  6
CONTINUOUS
 10
83.164092276
 20
99.9726103525
 11
76.1734807594
 21
99.9726103525
  0
LINE
  8
0
 62
9
  6
CONTINUOUS
 10
62.7558990428
 20
99.9726103525
 11
57.6355932236
 21
99.9726103525
  0
LINE
  8
0
 62
9
  6
CONTINUOUS
 10
49.3430716759
 20
99.9726103525
 11
46.9784189466
 21
99.9726103525
  0
LINE
  8
1_AXIS
 62
7
  6
CONTINUOUS
 10
159.2134305155
 20
99.9840262582
 11
156.8098262284
 21
99.9840262582
  0
LINE
  8
1_AXIS
 62
7
  6
CONTINUOUS
 10
148.6343108931
 20
99.9840262582
 11
143.4296612352
 21
99.9840262582
  0
LINE
  8
1_AXIS
 62
7
  6
CONTINUOUS
 10
130.2013995473
 20
99.9840262582
 11
123.0956357271
 21
99.9840262582
  0
LINE
  8
1_AXIS
 62
7
  6
CONTINUOUS
 10
107.1019143073
 20
99.9840262582
 11
99.3236874433
 21
99.9840262582
  0
LINE
  8
1_AXIS
 62
7
  6
CONTINUOUS
 10
83.3299660234
 20
99.9840262582
 11
76.2242022033
 21
99.9840262582
  0
LINE
  8
1_AXIS
 62
7
  6
CONTINUOUS
 10
62.9959405153
 20
99.9840262582
 11
57.7912908574
 21
99.9840262582
  0
LINE
  8
0
 62
7
  6
CONTINUOUS
 10
45.503023127
 20
99.9840262582
 11
76.2033925647
 21
99.9840262582
  0
LINE
  8
0
 62
7
  6
CONTINUOUS
 10
76.2242022033
 20
99.9840262582
 11
160.9225786235
 21
99.9840262582
  0
LINE
  8
1_AXIS
 62
9
  6
CONTINUOUS
 10
53.2128008753
 20
101.9840262582
 11
153.2128008753
 21
101.9840262582
  0
POLYLINE
  8
0
 62
9
  6
CONTINUOUS
 66
1
 70
0
  0
VERTEX
  8
0
 62
9
  6
CONTINUOUS
 10
159.7474949309
 20
99.2768446549
  0
VERTEX
  8
0
 62
9
  6
CONTINUOUS
 10
159.8439172769
 20
99.275356496
  0
VERTEX
  8
0
 62
9
  6
CONTINUOUS
 10
159.9143207744
 20
99.2748541932
  0
SEQEND
  0
LINE
  8
0
 62
7
  6
CONTINUOUS
 10
130.224024629
 20
99.9835501367
 11
130.201336016
 21
99.9840261319
  0
POLYLINE
  8
0
 62
9
  6
CONTINUOUS
 66
1
 70
0
  0
VERTEX
  8
0
 62
9
  6
CONTINUOUS
 10
156.8098262284
 20
99.9840262582
  0
VERTEX
  8
0
 62
9
  6
CONTINUOUS
 10
156.9467875684
 20
99.9811679521
  0
VERTEX
  8
0
 62
9
  6
CONTINUOUS
 10
157.0825300747
 20
99.9726103525
  0
SEQEND
  0
POLYLINE
  8
0
 62
9
  6
CONTINUOUS
 66
1
 70
0
  0
VERTEX
  8
0
 62
9
  6
CONTINUOUS
 10
156.8052188285
 20
99.4840262582
  0
VERTEX
  8
0
 62
9
  6
CONTINUOUS
 10
156.9132132125
 20
99.4816443486
  0
VERTEX
  8
0
 62
9
  6
CONTINUOUS
 10
157.0201249164
 20
99.4745130034
  0
SEQEND
  0
POLYLINE
  8
0
 62
7
  6
CONTINUOUS
 66
1
 70
0
  0
VERTEX
  8
0
 62
7
  6
CONTINUOUS
 10
160.9225786243
 20
99.9840262582
  0
VERTEX
  8
0
 62
7
  6
CONTINUOUS
 10
161.0520383233
 20
99.9811595711
  0
VERTEX
  8
0
 62
7
  6
CONTINUOUS
 10
161.1807918719
 20
99.9726103525
  0
SEQEND
  0
POLYLINE
  8
0
 62
9
  6
CONTINUOUS
 66
1
 70
0
  0
VERTEX
  8
0
 62
9
  6
CONTINUOUS
 10
143.4296612352
 20
99.9840262582
  0
VERTEX
  8
0
 62
9
  6
CONTINUOUS
 10
143.5506316864
 20
99.9811679521
  0
VERTEX
  8
0
 62
9
  6
CONTINUOUS
 10
143.6697027077
 20
99.9726103525
  0
SEQEND
  0
LINE
  8
0
 62
9
  6
CONTINUOUS
 10
159.4922678609
 20
99.2825162482
 11
159.7474949309
 21
99.2768446549
  0
POLYLINE
  8
0
 62
9
  6
CONTINUOUS
 66
1
 70
0
  0
VERTEX
  8
0
 62
9
  6
CONTINUOUS
 10
143.2220924789
 20
99.4840262582
  0
VERTEX
  8
0
 62
9
  6
CONTINUOUS
 10
143.3199627838
 20
99.4816443486
  0
VERTEX
  8
0
 62
9
  6
CONTINUOUS
 10
143.4160974071
 20
99.4745130034
  0
SEQEND
  0
LINE
  8
0
 62
9
  6
CONTINUOUS
 10
159.3302263927
 20
99.9811682152
 11
159.2134357146
 21
99.9840262582
  0
POLYLINE
  8
0
 62
9
  6
CONTINUOUS
 66
1
 70
0
  0
VERTEX
  8
0
 62
9
  6
CONTINUOUS
 10
159.0309436854
 20
99.2959408021
  0
VERTEX
  8
0
 62
9
  6
CONTINUOUS
 10
159.1874891338
 20
99.2910181842
  0
VERTEX
  8
0
 62
9
  6
CONTINUOUS
 10
159.4922678609
 20
99.2825162482
  0
SEQEND
  0
POLYLINE
  8
0
 62
9
  6
CONTINUOUS
 66
1
 70
0
  0
VERTEX
  8
0
 62
9
  6
CONTINUOUS
 10
122.720996138
 20
99.4840262582
  0
VERTEX
  8
0
 62
9
  6
CONTINUOUS
 10
122.791819699
 20
99.4816443486
  0
VERTEX
  8
0
 62
9
  6
CONTINUOUS
 10
122.8605546919
 20
99.4745130034
  0
SEQEND
  0
POLYLINE
  8
0
 62
9
  6
CONTINUOUS
 66
1
 70
0
  0
VERTEX
  8
0
 62
9
  6
CONTINUOUS
 10
123.0956357271
 20
99.9840262582
  0
VERTEX
  8
0
 62
9
  6
CONTINUOUS
 10
123.1796983995
 20
99.9811679521
  0
VERTEX
  8
0
 62
9
  6
CONTINUOUS
 10
123.2615094745
 20
99.9726103525
  0
SEQEND
  0
POLYLINE
  8
0
 62
9
  6
CONTINUOUS
 66
1
 70
0
  0
VERTEX
  8
0
 62
9
  6
CONTINUOUS
 10
145.132119171
 20
99.2959408021
  0
VERTEX
  8
0
 62
9
  6
CONTINUOUS
 10
145.2704458685
 20
99.2910181842
  0
VERTEX
  8
0
 62
9
  6
CONTINUOUS
 10
145.4205968094
 20
99.2864850054
  0
VERTEX
  8
0
 62
9
  6
CONTINUOUS
 10
145.5767696114
 20
99.2825162482
  0
VERTEX
  8
0
 62
9
  6
CONTINUOUS
 10
145.7329468775
 20
99.2792615873
  0
VERTEX
  8
0
 62
9
  6
CONTINUOUS
 10
145.8831546167
 20
99.2768446549
  0
VERTEX
  8
0
 62
9
  6
CONTINUOUS
 10
146.0215867943
 20
99.275356496
  0
VERTEX
  8
0
 62
9
  6
CONTINUOUS
 10
150.4480810954
 20
99.2748541932
  0
SEQEND
  0
POLYLINE
  8
0
 62
9
  6
CONTINUOUS
 66
1
 70
0
  0
VERTEX
  8
0
 62
9
  6
CONTINUOUS
 10
163.278304216
 20
99.2959408021
  0
VERTEX
  8
0
 62
9
  6
CONTINUOUS
 10
163.8364920752
 20
99.2768439444
  0
VERTEX
  8
0
 62
9
  6
CONTINUOUS
 10
163.8742132576
 20
99.2753564908
  0
VERTEX
  8
0
 62
9
  6
CONTINUOUS
 10
163.8825727138
 20
99.2748910763
  0
SEQEND
  0
LINE
  8
0
 62
9
  6
CONTINUOUS
 10
148.7116240874
 20
99.9811682152
 11
148.6343108931
 21
99.9840262582
  0
POLYLINE
  8
0
 62
9
  6
CONTINUOUS
 66
1
 70
0
  0
VERTEX
  8
0
 62
9
  6
CONTINUOUS
 10
123.9850636983
 20
99.2959408021
  0
VERTEX
  8
0
 62
9
  6
CONTINUOUS
 10
124.0812537022
 20
99.2910181842
  0
VERTEX
  8
0
 62
9
  6
CONTINUOUS
 10
124.1998127028
 20
99.2864850054
  0
VERTEX
  8
0
 62
9
  6
CONTINUOUS
 10
124.3361563029
 20
99.2825162482
  0
VERTEX
  8
0
 62
9
  6
CONTINUOUS
 10
124.4850251646
 20
99.2792615873
  0
VERTEX
  8
0
 62
9
  6
CONTINUOUS
 10
124.6407224927
 20
99.2768446549
  0
VERTEX
  8
0
 62
9
  6
CONTINUOUS
 10
124.7972283208
 20
99.275356496
  0
VERTEX
  8
0
 62
9
  6
CONTINUOUS
 10
124.9485326749
 20
99.2748541932
  0
SEQEND
  0
POLYLINE
  8
0
 62
7
  6
CONTINUOUS
 66
1
 70
0
  0
VERTEX
  8
0
 62
7
  6
CONTINUOUS
 10
159.4027255292
 20
99.9766349048
  0
VERTEX
  8
0
 62
7
  6
CONTINUOUS
 10
159.2727030324
 20
99.9832991095
  0
VERTEX
  8
0
 62
7
  6
CONTINUOUS
 10
159.2134369659
 20
99.9840261529
  0
SEQEND
  0
LINE
  8
0
 62
9
  6
CONTINUOUS
 10
161.3040782733
 20
99.7940381512
 11
161.3094675896
 21
99.7936752411
  0
LINE
  8
0
 62
9
  6
CONTINUOUS
 10
150.0904276817
 20
99.7940381512
 11
150.122619869
 21
99.7915377056
  0
POLYLINE
  8
0
 62
7
  6
CONTINUOUS
 66
1
 70
0
  0
VERTEX
  8
0
 62
7
  6
CONTINUOUS
 10
148.786235894
 20
99.974913288
  0
VERTEX
  8
0
 62
7
  6
CONTINUOUS
 10
148.6796630615
 20
99.9832040802
  0
VERTEX
  8
0
 62
7
  6
CONTINUOUS
 10
148.6342423087
 20
99.9840261506
  0
SEQEND
  0
LINE
  8
0
 62
9
  6
CONTINUOUS
 10
149.2950425886
 20
99.900460334
 11
149.3271788537
 21
99.8979521191
  0
POLYLINE
  8
0
 62
9
  6
CONTINUOUS
 66
1
 70
0
  0
VERTEX
  8
0
 62
9
  6
CONTINUOUS
 10
99.3236874433
 20
99.9840262582
  0
VERTEX
  8
0
 62
9
  6
CONTINUOUS
 10
99.3563071371
 20
99.9811679521
  0
VERTEX
  8
0
 62
9
  6
CONTINUOUS
 10
99.3867123878
 20
99.9726103525
  0
SEQEND
  0
LINE
  8
0
 62
9
  6
CONTINUOUS
 10
144.1006889621
 20
99.4023629946
 11
145.132119171
 21
99.2959408021
  0
POLYLINE
  8
0
 62
9
  6
CONTINUOUS
 66
1
 70
0
  0
VERTEX
  8
0
 62
9
  6
CONTINUOUS
 10
143.4160974071
 20
99.4745130034
  0
VERTEX
  8
0
 62
9
  6
CONTINUOUS
 10
143.896528678
 20
99.424728551
  0
VERTEX
  8
0
 62
9
  6
CONTINUOUS
 10
144.1006889621
 20
99.4023629946
  0
SEQEND
  0
POLYLINE
  8
0
 62
9
  6
CONTINUOUS
 66
1
 70
0
  0
VERTEX
  8
0
 62
9
  6
CONTINUOUS
 10
130.2222091859
 20
99.9840262582
  0
VERTEX
  8
0
 62
9
  6
CONTINUOUS
 10
130.3503783472
 20
99.9669890075
  0
VERTEX
  8
0
 62
9
  6
CONTINUOUS
 10
130.469812663
 20
99.91703847
  0
SEQEND
  0
POLYLINE
  8
0
 62
9
  6
CONTINUOUS
 66
1
 70
0
  0
VERTEX
  8
0
 62
9
  6
CONTINUOUS
 10
123.2615094745
 20
99.9726103525
  0
VERTEX
  8
0
 62
9
  6
CONTINUOUS
 10
123.4523598388
 20
99.946905941
  0
VERTEX
  8
0
 62
9
  6
CONTINUOUS
 10
123.618622446
 20
99.9228227824
  0
VERTEX
  8
0
 62
9
  6
CONTINUOUS
 10
123.762546569
 20
99.9004603436
  0
SEQEND
  0
POLYLINE
  8
0
 62
9
  6
CONTINUOUS
 66
1
 70
0
  0
VERTEX
  8
0
 62
9
  6
CONTINUOUS
 10
124.4237288657
 20
99.7940381511
  0
VERTEX
  8
0
 62
9
  6
CONTINUOUS
 10
124.4597774295
 20
99.7891200192
  0
VERTEX
  8
0
 62
9
  6
CONTINUOUS
 10
124.5042787185
 20
99.7845844781
  0
VERTEX
  8
0
 62
9
  6
CONTINUOUS
 10
124.5554626459
 20
99.7806128244
  0
VERTEX
  8
0
 62
9
  6
CONTINUOUS
 10
124.6113539026
 20
99.7773565593
  0
VERTEX
  8
0
 62
9
  6
CONTINUOUS
 10
124.669810877
 20
99.7749388545
  0
VERTEX
  8
0
 62
9
  6
CONTINUOUS
 10
124.7285709754
 20
99.7734517369
  0
VERTEX
  8
0
 62
9
  6
CONTINUOUS
 10
124.7852294819
 20
99.7729515423
  0
SEQEND
  0
POLYLINE
  8
0
 62
9
  6
CONTINUOUS
 66
1
 70
0
  0
VERTEX
  8
0
 62
9
  6
CONTINUOUS
 10
107.1019143073
 20
99.9840262582
  0
VERTEX
  8
0
 62
9
  6
CONTINUOUS
 10
107.2253537949
 20
99.9669890461
  0
VERTEX
  8
0
 62
9
  6
CONTINUOUS
 10
107.3403808342
 20
99.9170385908
  0
VERTEX
  8
0
 62
9
  6
CONTINUOUS
 10
107.4391565649
 20
99.8375790994
  0
VERTEX
  8
0
 62
9
  6
CONTINUOUS
 10
107.5149496919
 20
99.7340257117
  0
VERTEX
  8
0
 62
9
  6
CONTINUOUS
 10
107.5625951692
 20
99.6134354418
  0
VERTEX
  8
0
 62
9
  6
CONTINUOUS
 10
107.5788461407
 20
99.4840262582
  0
SEQEND
  0
POLYLINE
  8
0
 62
9
  6
CONTINUOUS
 66
1
 70
0
  0
VERTEX
  8
0
 62
9
  6
CONTINUOUS
 10
122.8605546919
 20
99.4745130034
  0
VERTEX
  8
0
 62
9
  6
CONTINUOUS
 10
123.0371036184
 20
99.448808145
  0
VERTEX
  8
0
 62
9
  6
CONTINUOUS
 10
123.190887772
 20
99.424728551
  0
VERTEX
  8
0
 62
9
  6
CONTINUOUS
 10
123.324052894
 20
99.4023629946
  0
SEQEND
  0
POLYLINE
  8
0
 62
9
  6
CONTINUOUS
 66
1
 70
0
  0
VERTEX
  8
0
 62
9
  6
CONTINUOUS
 10
106.6868921898
 20
99.7940381512
  0
VERTEX
  8
0
 62
9
  6
CONTINUOUS
 10
106.8135321719
 20
99.7752244261
  0
VERTEX
  8
0
 62
9
  6
CONTINUOUS
 10
106.9315622778
 20
99.7244616397
  0
VERTEX
  8
0
 62
9
  6
CONTINUOUS
 10
107.0331146168
 20
99.6451336408
  0
VERTEX
  8
0
 62
9
  6
CONTINUOUS
 10
107.111419707
 20
99.5425284363
  0
VERTEX
  8
0
 62
9
  6
CONTINUOUS
 10
107.1612577285
 20
99.4234856924
  0
VERTEX
  8
0
 62
9
  6
CONTINUOUS
 10
107.1793064772
 20
99.2959408021
  0
SEQEND
  0
POLYLINE
  8
0
 62
9
  6
CONTINUOUS
 66
1
 70
0
  0
VERTEX
  8
0
 62
9
  6
CONTINUOUS
 10
106.8633716494
 20
99.900460334
  0
VERTEX
  8
0
 62
9
  6
CONTINUOUS
 10
106.9899767095
 20
99.8816089807
  0
VERTEX
  8
0
 62
9
  6
CONTINUOUS
 10
107.1079659973
 20
99.8308257455
  0
VERTEX
  8
0
 62
9
  6
CONTINUOUS
 10
107.2094779551
 20
99.751494286
  0
VERTEX
  8
0
 62
9
  6
CONTINUOUS
 10
107.2877489
 20
99.6489004111
  0
VERTEX
  8
0
 62
9
  6
CONTINUOUS
 10
107.3375636846
 20
99.5298798912
  0
VERTEX
  8
0
 62
9
  6
CONTINUOUS
 10
107.3556031785
 20
99.4023629946
  0
SEQEND
  0
POLYLINE
  8
0
 62
9
  6
CONTINUOUS
 66
1
 70
0
  0
VERTEX
  8
0
 62
9
  6
CONTINUOUS
 10
107.8072335503
 20
99.9840262582
  0
VERTEX
  8
0
 62
9
  6
CONTINUOUS
 10
107.9170499724
 20
99.9669890075
  0
VERTEX
  8
0
 62
9
  6
CONTINUOUS
 10
108.0193823051
 20
99.91703847
  0
VERTEX
  8
0
 62
9
  6
CONTINUOUS
 10
108.1072568039
 20
99.837578911
  0
VERTEX
  8
0
 62
9
  6
CONTINUOUS
 10
108.1746850875
 20
99.7340255178
  0
VERTEX
  8
0
 62
9
  6
CONTINUOUS
 10
108.2170721863
 20
99.613435319
  0
VERTEX
  8
0
 62
9
  6
CONTINUOUS
 10
108.2315296192
 20
99.4840262582
  0
SEQEND
  0
LINE
  8
0
 62
9
  6
CONTINUOUS
 10
123.324052894
 20
99.4023629946
 11
123.9850636983
 21
99.2959408021
  0
LINE
  8
0
 62
9
  6
CONTINUOUS
 10
123.762546569
 20
99.9004603436
 11
124.4237288657
 21
99.7940381511
  0
POLYLINE
  8
0
 62
9
  6
CONTINUOUS
 66
1
 70
0
  0
VERTEX
  8
0
 62
9
  6
CONTINUOUS
 10
107.0388893621
 20
99.9726102247
  0
VERTEX
  8
0
 62
9
  6
CONTINUOUS
 10
107.1613039009
 20
99.9526078424
  0
VERTEX
  8
0
 62
9
  6
CONTINUOUS
 10
107.2754883425
 20
99.9011998279
  0
VERTEX
  8
0
 62
9
  6
CONTINUOUS
 10
107.3739420121
 20
99.8217631279
  0
VERTEX
  8
0
 62
9
  6
CONTINUOUS
 10
107.4501975754
 20
99.7195158688
  0
VERTEX
  8
0
 62
9
  6
CONTINUOUS
 10
107.4992458718
 20
99.6011745826
  0
VERTEX
  8
0
 62
9
  6
CONTINUOUS
 10
107.5178649623
 20
99.4745130034
  0
SEQEND
  0
POLYLINE
  8
0
 62
9
  6
CONTINUOUS
 66
1
 70
0
  0
VERTEX
  8
0
 62
9
  6
CONTINUOUS
 10
145.441186026
 20
90.1740143653
  0
VERTEX
  8
0
 62
9
  6
CONTINUOUS
 10
145.3687343456
 20
90.1928280903
  0
VERTEX
  8
0
 62
9
  6
CONTINUOUS
 10
145.299069597
 20
90.2435908767
  0
VERTEX
  8
0
 62
9
  6
CONTINUOUS
 10
145.2368356345
 20
90.3229188756
  0
VERTEX
  8
0
 62
9
  6
CONTINUOUS
 10
145.1861809759
 20
90.4255240801
  0
VERTEX
  8
0
 62
9
  6
CONTINUOUS
 10
145.1504822623
 20
90.544566824
  0
VERTEX
  8
0
 62
9
  6
CONTINUOUS
 10
145.132119171
 20
90.6721117143
  0
SEQEND
  0
POLYLINE
  8
0
 62
9
  6
CONTINUOUS
 66
1
 70
0
  0
VERTEX
  8
0
 62
9
  6
CONTINUOUS
 10
144.4096253168
 20
90.0675921898
  0
VERTEX
  8
0
 62
9
  6
CONTINUOUS
 10
144.3371919012
 20
90.086443531
  0
VERTEX
  8
0
 62
9
  6
CONTINUOUS
 10
144.267551611
 20
90.1372267589
  0
VERTEX
  8
0
 62
9
  6
CONTINUOUS
 10
144.2053445389
 20
90.2165582162
  0
VERTEX
  8
0
 62
9
  6
CONTINUOUS
 10
144.1547155067
 20
90.3191520932
  0
VERTEX
  8
0
 62
9
  6
CONTINUOUS
 10
144.1190378978
 20
90.4381726182
  0
VERTEX
  8
0
 62
9
  6
CONTINUOUS
 10
144.1006888911
 20
90.5656895218
  0
SEQEND
  0
POLYLINE
  8
0
 62
9
  6
CONTINUOUS
 66
1
 70
0
  0
VERTEX
  8
0
 62
9
  6
CONTINUOUS
 10
143.4296612352
 20
89.9840262582
  0
VERTEX
  8
0
 62
9
  6
CONTINUOUS
 10
143.3759383991
 20
90.0010634024
  0
VERTEX
  8
0
 62
9
  6
CONTINUOUS
 10
143.3258767347
 20
90.0510137264
  0
VERTEX
  8
0
 62
9
  6
CONTINUOUS
 10
143.2828878545
 20
90.1304731219
  0
VERTEX
  8
0
 62
9
  6
CONTINUOUS
 10
143.2499013583
 20
90.2340265121
  0
VERTEX
  8
0
 62
9
  6
CONTINUOUS
 10
143.2291651952
 20
90.3546168935
  0
VERTEX
  8
0
 62
9
  6
CONTINUOUS
 10
143.2220924789
 20
90.4840262582
  0
SEQEND
  0
POLYLINE
  8
0
 62
9
  6
CONTINUOUS
 66
1
 70
0
  0
VERTEX
  8
0
 62
9
  6
CONTINUOUS
 10
143.6697026999
 20
89.9954422925
  0
VERTEX
  8
0
 62
9
  6
CONTINUOUS
 10
143.6117209196
 20
90.0154446745
  0
VERTEX
  8
0
 62
9
  6
CONTINUOUS
 10
143.5555515509
 20
90.0668526889
  0
VERTEX
  8
0
 62
9
  6
CONTINUOUS
 10
143.5048843101
 20
90.1462893888
  0
VERTEX
  8
0
 62
9
  6
CONTINUOUS
 10
143.4630474834
 20
90.2485366477
  0
VERTEX
  8
0
 62
9
  6
CONTINUOUS
 10
143.4327892952
 20
90.3668779338
  0
VERTEX
  8
0
 62
9
  6
CONTINUOUS
 10
143.4160973792
 20
90.493539513
  0
SEQEND
  0
POLYLINE
  8
0
 62
9
  6
CONTINUOUS
 66
1
 70
0
  0
VERTEX
  8
0
 62
9
  6
CONTINUOUS
 10
131.2626002895
 20
90.6789323239
  0
VERTEX
  8
0
 62
9
  6
CONTINUOUS
 10
131.2571621728
 20
90.6815666005
  0
VERTEX
  8
0
 62
9
  6
CONTINUOUS
 10
131.2236846668
 20
90.6855362448
  0
VERTEX
  8
0
 62
9
  6
CONTINUOUS
 10
131.1609242461
 20
90.6887911496
  0
VERTEX
  8
0
 62
9
  6
CONTINUOUS
 10
131.0712881354
 20
90.691208086
  0
VERTEX
  8
0
 62
9
  6
CONTINUOUS
 10
130.9582714499
 20
90.6926961882
  0
VERTEX
  8
0
 62
9
  6
CONTINUOUS
 10
130.8262339769
 20
90.6931983232
  0
SEQEND
  0
POLYLINE
  8
0
 62
9
  6
CONTINUOUS
 66
1
 70
0
  0
VERTEX
  8
0
 62
9
  6
CONTINUOUS
 10
109.6382332285
 20
99.9840262582
  0
VERTEX
  8
0
 62
9
  6
CONTINUOUS
 10
109.6532696125
 20
99.9669891752
  0
VERTEX
  8
0
 62
9
  6
CONTINUOUS
 10
109.6672812929
 20
99.9170389714
  0
VERTEX
  8
0
 62
9
  6
CONTINUOUS
 10
109.6793133964
 20
99.8375796654
  0
VERTEX
  8
0
 62
9
  6
CONTINUOUS
 10
109.6885459547
 20
99.7340262746
  0
VERTEX
  8
0
 62
9
  6
CONTINUOUS
 10
109.6943497838
 20
99.6134357908
  0
VERTEX
  8
0
 62
9
  6
CONTINUOUS
 10
109.6963293618
 20
99.4840262582
  0
SEQEND
  0
POLYLINE
  8
0
 62
9
  6
CONTINUOUS
 66
1
 70
0
  0
VERTEX
  8
0
 62
9
  6
CONTINUOUS
 10
119.6830649019
 20
89.9840262582
  0
VERTEX
  8
0
 62
9
  6
CONTINUOUS
 10
119.7216075576
 20
90.0010633427
  0
VERTEX
  8
0
 62
9
  6
CONTINUOUS
 10
119.7575235965
 20
90.0510135496
  0
VERTEX
  8
0
 62
9
  6
CONTINUOUS
 10
119.7883653997
 20
90.1304728578
  0
VERTEX
  8
0
 62
9
  6
CONTINUOUS
 10
119.8120311484
 20
90.2340262485
  0
VERTEX
  8
0
 62
9
  6
CONTINUOUS
 10
119.8269080604
 20
90.3546167297
  0
VERTEX
  8
0
 62
9
  6
CONTINUOUS
 10
119.8319822982
 20
90.4840262582
  0
SEQEND
  0
LINE
  8
0
 62
9
  6
CONTINUOUS
 10
130.4324712661
 20
90.0675921728
 11
130.7712095455
 21
90.1740143653
  0
LINE
  8
0
 62
7
  6
CONTINUOUS
 10
130.5620498295
 20
90.0886379878
 11
130.9010683001
 21
90.1950971188
  0
POLYLINE
  8
0
 62
9
  6
CONTINUOUS
 66
1
 70
0
  0
VERTEX
  8
0
 62
9
  6
CONTINUOUS
 10
75.0026877694
 20
99.9840262582
  0
VERTEX
  8
0
 62
9
  6
CONTINUOUS
 10
74.9366719553
 20
99.9669890075
  0
VERTEX
  8
0
 62
9
  6
CONTINUOUS
 10
74.8751551794
 20
99.91703847
  0
VERTEX
  8
0
 62
9
  6
CONTINUOUS
 10
74.822329687
 20
99.837578911
  0
VERTEX
  8
0
 62
9
  6
CONTINUOUS
 10
74.7817953759
 20
99.7340255178
  0
VERTEX
  8
0
 62
9
  6
CONTINUOUS
 10
74.7563144981
 20
99.613435319
  0
VERTEX
  8
0
 62
9
  6
CONTINUOUS
 10
74.7476234555
 20
99.4840262582
  0
SEQEND
  0
POLYLINE
  8
0
 62
9
  6
CONTINUOUS
 66
1
 70
0
  0
VERTEX
  8
0
 62
9
  6
CONTINUOUS
 10
66.6946987467
 20
99.9840262582
  0
VERTEX
  8
0
 62
9
  6
CONTINUOUS
 10
66.6092414297
 20
99.9669891752
  0
VERTEX
  8
0
 62
9
  6
CONTINUOUS
 10
66.529607882
 20
99.9170389714
  0
VERTEX
  8
0
 62
9
  6
CONTINUOUS
 10
66.4612249995
 20
99.8375796654
  0
VERTEX
  8
0
 62
9
  6
CONTINUOUS
 10
66.4087529651
 20
99.7340262746
  0
VERTEX
  8
0
 62
9
  6
CONTINUOUS
 10
66.3757676638
 20
99.6134357908
  0
VERTEX
  8
0
 62
9
  6
CONTINUOUS
 10
66.3645169915
 20
99.4840262582
  0
SEQEND
  0
LINE
  8
0
 62
9
  6
CONTINUOUS
 10
75.654392205
 20
99.7940381524
 11
75.5245636221
 21
99.7729639481
  0
LINE
  8
0
 62
9
  6
CONTINUOUS
 10
75.9931304844
 20
99.9004603436
 11
75.8637297601
 21
99.87947031
  0
POLYLINE
  8
0
 62
9
  6
CONTINUOUS
 66
1
 70
0
  0
VERTEX
  8
0
 62
9
  6
CONTINUOUS
 10
76.1734807603
 20
99.9726103293
  0
VERTEX
  8
0
 62
9
  6
CONTINUOUS
 10
76.0485524069
 20
99.9526079719
  0
VERTEX
  8
0
 62
9
  6
CONTINUOUS
 10
75.9505192921
 20
99.9113404298
  0
SEQEND
  0
LINE
  8
0
 62
7
  6
CONTINUOUS
 10
56.2879910807
 20
99.7894708641
 11
56.2491801064
 21
99.7834138504
  0
POLYLINE
  8
0
 62
7
  6
CONTINUOUS
 66
1
 70
0
  0
VERTEX
  8
0
 62
7
  6
CONTINUOUS
 10
57.593891353
 20
99.9687125946
  0
VERTEX
  8
0
 62
7
  6
CONTINUOUS
 10
57.4570605065
 20
99.9481547589
  0
VERTEX
  8
0
 62
7
  6
CONTINUOUS
 10
57.2606824052
 20
99.9200806407
  0
SEQEND
  0
POLYLINE
  8
0
 62
9
  6
CONTINUOUS
 66
1
 70
0
  0
VERTEX
  8
0
 62
9
  6
CONTINUOUS
 10
57.6355932236
 20
99.9726103525
  0
VERTEX
  8
0
 62
9
  6
CONTINUOUS
 10
57.4637255632
 20
99.946905941
  0
VERTEX
  8
0
 62
9
  6
CONTINUOUS
 10
57.2945244782
 20
99.9228227824
  0
SEQEND
  0
POLYLINE
  8
0
 62
9
  6
CONTINUOUS
 66
1
 70
0
  0
VERTEX
  8
0
 62
9
  6
CONTINUOUS
 10
56.3351740688
 20
99.7940381511
  0
VERTEX
  8
0
 62
9
  6
CONTINUOUS
 10
56.3021133752
 20
99.7891200192
  0
VERTEX
  8
0
 62
9
  6
CONTINUOUS
 10
56.2791575839
 20
99.7845844781
  0
VERTEX
  8
0
 62
9
  6
CONTINUOUS
 10
56.2672443051
 20
99.7806128244
  0
VERTEX
  8
0
 62
9
  6
CONTINUOUS
 10
56.2668292808
 20
99.7773565593
  0
VERTEX
  8
0
 62
9
  6
CONTINUOUS
 10
56.2779263593
 20
99.7749388545
  0
VERTEX
  8
0
 62
9
  6
CONTINUOUS
 10
56.3001019726
 20
99.7734517369
  0
SEQEND
  0
POLYLINE
  8
0
 62
9
  6
CONTINUOUS
 66
1
 70
0
  0
VERTEX
  8
0
 62
9
  6
CONTINUOUS
 10
52.9611722593
 20
99.9840262582
  0
VERTEX
  8
0
 62
9
  6
CONTINUOUS
 10
52.8435766258
 20
99.9669891752
  0
VERTEX
  8
0
 62
9
  6
CONTINUOUS
 10
52.7339949326
 20
99.9170389714
  0
VERTEX
  8
0
 62
9
  6
CONTINUOUS
 10
52.6398949927
 20
99.8375796654
  0
VERTEX
  8
0
 62
9
  6
CONTINUOUS
 10
52.5676895648
 20
99.7340262746
  0
VERTEX
  8
0
 62
9
  6
CONTINUOUS
 10
52.5222993333
 20
99.6134357908
  0
VERTEX
  8
0
 62
9
  6
CONTINUOUS
 10
52.5068175702
 20
99.4840262582
  0
SEQEND
  0
LINE
  8
0
 62
7
  6
CONTINUOUS
 10
76.2022721051
 20
99.983578926
 11
76.0925144724
 21
99.9677868256
  0
LINE
  8
0
 62
7
  6
CONTINUOUS
 10
57.6446365088
 20
99.9755298624
 11
57.5939143306
 21
99.968716005
  0
LINE
  8
0
 62
9
  6
CONTINUOUS
 10
57.2945244782
 20
99.9228227824
 11
56.3351740688
 21
99.7940381511
  0
LINE
  8
0
 62
7
  6
CONTINUOUS
 10
57.2606824052
 20
99.9200806407
 11
56.3294439845
 21
99.795078873
  0
LINE
  8
0
 62
7
  6
CONTINUOUS
 10
56.3294439845
 20
99.795078873
 11
56.2879910807
 21
99.7894708641
  0
POLYLINE
  8
0
 62
9
  6
CONTINUOUS
 66
1
 70
0
  0
VERTEX
  8
0
 62
9
  6
CONTINUOUS
 10
44.9941508229
 20
99.7806128244
  0
VERTEX
  8
0
 62
9
  6
CONTINUOUS
 10
44.9698139171
 20
99.7773565593
  0
VERTEX
  8
0
 62
9
  6
CONTINUOUS
 10
44.9564179666
 20
99.7749388545
  0
VERTEX
  8
0
 62
9
  6
CONTINUOUS
 10
44.9544772279
 20
99.7734517369
  0
VERTEX
  8
0
 62
9
  6
CONTINUOUS
 10
44.9640255875
 20
99.7729515423
  0
SEQEND
  0
LINE
  8
0
 62
9
  6
CONTINUOUS
 10
45.0284983037
 20
99.7845844781
 11
45.0188340912
 21
99.7838027189
  0
POLYLINE
  8
0
 62
7
  6
CONTINUOUS
 66
1
 70
0
  0
VERTEX
  8
0
 62
7
  6
CONTINUOUS
 10
42.9985633565
 20
99.7731343434
  0
VERTEX
  8
0
 62
7
  6
CONTINUOUS
 10
42.990005411
 20
99.7721944352
  0
VERTEX
  8
0
 62
7
  6
CONTINUOUS
 10
42.979595766
 20
99.7709202043
  0
VERTEX
  8
0
 62
7
  6
CONTINUOUS
 10
42.964776649
 20
99.7687698753
  0
VERTEX
  8
0
 62
7
  6
CONTINUOUS
 10
42.9463253332
 20
99.7654759601
  0
VERTEX
  8
0
 62
7
  6
CONTINUOUS
 10
42.9263072518
 20
99.7610941959
  0
VERTEX
  8
0
 62
7
  6
CONTINUOUS
 10
42.9054214311
 20
99.755595755
  0
VERTEX
  8
0
 62
7
  6
CONTINUOUS
 10
42.8836534443
 20
99.7488205826
  0
VERTEX
  8
0
 62
7
  6
CONTINUOUS
 10
42.8613660554
 20
99.7407302389
  0
VERTEX
  8
0
 62
7
  6
CONTINUOUS
 10
42.8390325537
 20
99.7313901227
  0
VERTEX
  8
0
 62
7
  6
CONTINUOUS
 10
42.8168422165
 20
99.7208105997
  0
VERTEX
  8
0
 62
7
  6
CONTINUOUS
 10
42.7947506993
 20
99.7088974939
  0
VERTEX
  8
0
 62
7
  6
CONTINUOUS
 10
42.7727498295
 20
99.6955477468
  0
VERTEX
  8
0
 62
7
  6
CONTINUOUS
 10
42.7508513734
 20
99.6806427351
  0
VERTEX
  8
0
 62
7
  6
CONTINUOUS
 10
42.7290914639
 20
99.6640501795
  0
VERTEX
  8
0
 62
7
  6
CONTINUOUS
 10
42.7075697608
 20
99.645658084
  0
VERTEX
  8
0
 62
7
  6
CONTINUOUS
 10
42.6864790901
 20
99.6254232385
  0
VERTEX
  8
0
 62
7
  6
CONTINUOUS
 10
42.6660291295
 20
99.6033288215
  0
VERTEX
  8
0
 62
7
  6
CONTINUOUS
 10
42.6464346653
 20
99.5793789452
  0
VERTEX
  8
0
 62
7
  6
CONTINUOUS
 10
42.6279092046
 20
99.553593798
  0
VERTEX
  8
0
 62
7
  6
CONTINUOUS
 10
42.6106520758
 20
99.525987902
  0
VERTEX
  8
0
 62
7
  6
CONTINUOUS
 10
42.5948659905
 20
99.4965871515
  0
VERTEX
  8
0
 62
7
  6
CONTINUOUS
 10
42.5807615632
 20
99.4654374079
  0
VERTEX
  8
0
 62
7
  6
CONTINUOUS
 10
42.5685557967
 20
99.4326065284
  0
VERTEX
  8
0
 62
7
  6
CONTINUOUS
 10
42.5584702375
 20
99.3981863691
  0
VERTEX
  8
0
 62
7
  6
CONTINUOUS
 10
42.5507287776
 20
99.3622947189
  0
VERTEX
  8
0
 62
7
  6
CONTINUOUS
 10
42.5455550867
 20
99.3250771088
  0
VERTEX
  8
0
 62
7
  6
CONTINUOUS
 10
42.5431696664
 20
99.2867084904
  0
VERTEX
  8
0
 62
7
  6
CONTINUOUS
 10
42.5430299641
 20
99.2748898099
  0
SEQEND
  0
LINE
  8
0
 62
9
  6
CONTINUOUS
 10
62.3249127884
 20
99.4023629946
 11
62.5291936713
 21
99.4247415378
  0
LINE
  8
0
 62
9
  6
CONTINUOUS
 10
57.7139740772
 20
99.9811679521
 11
57.6355932236
 21
99.9726103525
  0
POLYLINE
  8
0
 62
7
  6
CONTINUOUS
 66
1
 70
0
  0
VERTEX
  8
0
 62
7
  6
CONTINUOUS
 10
45.05852445
 20
99.7879907049
  0
VERTEX
  8
0
 62
7
  6
CONTINUOUS
 10
45.0188340912
 20
99.7838027189
  0
VERTEX
  8
0
 62
7
  6
CONTINUOUS
 10
44.9850635823
 20
99.7799628776
  0
VERTEX
  8
0
 62
7
  6
CONTINUOUS
 10
44.9564369906
 20
99.776366107
  0
VERTEX
  8
0
 62
7
  6
CONTINUOUS
 10
44.9302372095
 20
99.7725636779
  0
VERTEX
  8
0
 62
7
  6
CONTINUOUS
 10
44.9022325497
 20
99.7675453256
  0
VERTEX
  8
0
 62
7
  6
CONTINUOUS
 10
44.8698626185
 20
99.7600020347
  0
SEQEND
  0
LINE
  8
0
 62
9
  6
CONTINUOUS
 10
45.0715350122
 20
99.7891200192
 11
45.05852445
 21
99.7879907049
  0
LINE
  8
0
 62
9
  6
CONTINUOUS
 10
60.9844157246
 20
99.7940381511
 11
62.2367363116
 21
99.9228362675
  0
LINE
  8
0
 62
7
  6
CONTINUOUS
 10
43.0172004669
 20
99.7750180292
 11
42.9985633565
 21
99.7731343434
  0
LINE
  8
0
 62
9
  6
CONTINUOUS
 10
46.9784189466
 20
99.9726103525
 11
46.9714065981
 21
99.9719206525
  0
LINE
  8
0
 62
9
  6
CONTINUOUS
 10
44.3513239502
 20
99.4023629946
 11
44.5170512946
 21
99.41819801
  0
LINE
  8
0
 62
7
  6
CONTINUOUS
 10
46.9713909804
 20
99.9720794417
 11
45.1215091061
 21
99.7941886154
  0
LINE
  8
0
 62
9
  6
CONTINUOUS
 10
46.2307351009
 20
99.8999552618
 11
45.1161373908
 21
99.7936754892
  0
LINE
  8
0
 62
7
  6
CONTINUOUS
 10
45.1215091061
 20
99.7941886154
 11
45.05852445
 21
99.7879907049
  0
LINE
  8
0
 62
9
  6
CONTINUOUS
 10
62.2367363116
 20
99.9228362675
 11
62.7558990428
 21
99.9726103525
  0
LINE
  8
0
 62
9
  6
CONTINUOUS
 10
57.6355932251
 20
99.9726103293
 11
57.5939143124
 21
99.9687161219
  0
LINE
  8
0
 62
7
  6
CONTINUOUS
 10
43.0774073675
 20
99.780682604
 11
43.0172004669
 21
99.7750180292
  0
LINE
  8
0
 62
9
  6
CONTINUOUS
 10
48.6181640253
 20
99.4023629946
 11
49.4054768342
 21
99.4745130034
  0
LINE
  8
0
 62
9
  6
CONTINUOUS
 10
43.1472975345
 20
99.2959408021
 11
44.3513239502
 21
99.4023629946
  0
LINE
  8
0
 62
7
  6
CONTINUOUS
 10
43.0774073675
 20
99.780682604
 11
45.2448098787
 21
99.9726103525
  0
LINE
  8
0
 62
7
  6
CONTINUOUS
 10
47.0293363397
 20
99.97712984
 11
46.9713915564
 21
99.9720793897
  0
LINE
  8
0
 62
9
  6
CONTINUOUS
 10
47.3946580651
 20
99.2959408021
 11
48.6181640253
 21
99.4023629946
  0
LINE
  8
0
 62
9
  6
CONTINUOUS
 10
49.0599003179
 20
99.9490020423
 11
49.3430716759
 21
99.9726103525
  0
LINE
  8
0
 62
9
  6
CONTINUOUS
 10
46.2360260745
 20
99.9004603436
 11
46.2307211793
 21
99.9001010968
  0
POLYLINE
  8
0
 62
7
  6
CONTINUOUS
 66
1
 70
0
  0
VERTEX
  8
0
 62
7
  6
CONTINUOUS
 10
45.2448098787
 20
99.9726103525
  0
VERTEX
  8
0
 62
7
  6
CONTINUOUS
 10
45.3737587039
 20
99.9811682152
  0
VERTEX
  8
0
 62
7
  6
CONTINUOUS
 10
45.5030231263
 20
99.9840262582
  0
SEQEND
  0
LINE
  8
1_AXIS
 62
9
  6
CONTINUOUS
 10
53.2128008753
 20
105.4840262582
 11
153.2128008753
 21
105.4840262582
  0
LINE
  8
1_AXIS
 62
7
  6
CONTINUOUS
 10
151.2128008753
 20
107.4840262582
 11
55.2128008753
 21
107.4840262582
  0
LINE
  8
0
 62
9
  6
CONTINUOUS
 10
160.1895756752
 20
99.900460334
 11
160.1948805705
 21
99.9001010891
  0
LINE
  8
0
 62
9
  6
CONTINUOUS
 10
159.3302263927
 20
99.9811682152
 11
159.454210432
 21
99.972079366
  0
POLYLINE
  8
0
 62
9
  6
CONTINUOUS
 66
1
 70
0
  0
VERTEX
  8
0
 62
9
  6
CONTINUOUS
 10
159.2156305833
 20
99.7891200192
  0
VERTEX
  8
0
 62
9
  6
CONTINUOUS
 10
159.2740905417
 20
99.7845844781
  0
VERTEX
  8
0
 62
9
  6
CONTINUOUS
 10
159.3300071691
 20
99.7806128244
  0
VERTEX
  8
0
 62
9
  6
CONTINUOUS
 10
159.3812256514
 20
99.7773565593
  0
VERTEX
  8
0
 62
9
  6
CONTINUOUS
 10
159.4257850311
 20
99.7749388545
  0
VERTEX
  8
0
 62
9
  6
CONTINUOUS
 10
159.4619637913
 20
99.7734517369
  0
VERTEX
  8
0
 62
9
  6
CONTINUOUS
 10
159.4883153685
 20
99.7729515423
  0
SEQEND
  0
LINE
  8
0
 62
9
  6
CONTINUOUS
 10
157.8074377253
 20
99.4023629946
 11
159.0309436854
 21
99.2959408021
  0
LINE
  8
0
 62
9
  6
CONTINUOUS
 10
157.0825300747
 20
99.9726103525
 11
159.2156305833
 21
99.7891200192
  0
LINE
  8
0
 62
9
  6
CONTINUOUS
 10
162.0742778003
 20
99.4023629946
 11
163.278304216
 21
99.2959408021
  0
LINE
  8
0
 62
7
  6
CONTINUOUS
 10
159.454210432
 20
99.972079366
 11
159.4027255292
 21
99.9766349048
  0
LINE
  8
0
 62
7
  6
CONTINUOUS
 10
161.7425685714
 20
99.9228227824
 11
163.1995021127
 21
99.7940381511
  0
LINE
  8
0
 62
7
  6
CONTINUOUS
 10
161.1807918719
 20
99.9726103525
 11
161.7425685714
 21
99.9228227824
  0
LINE
  8
0
 62
7
  6
CONTINUOUS
 10
163.3722179935
 20
99.7784592708
 11
163.2000127457
 21
99.7939974319
  0
LINE
  8
0
 62
9
  6
CONTINUOUS
 10
157.0201249164
 20
99.4745130034
 11
157.8074377253
 21
99.4023629946
  0
LINE
  8
0
 62
9
  6
CONTINUOUS
 10
148.7900085182
 20
99.9726102247
 11
148.8316891309
 21
99.9687157421
  0
POLYLINE
  8
0
 62
9
  6
CONTINUOUS
 66
1
 70
0
  0
VERTEX
  8
0
 62
9
  6
CONTINUOUS
 10
145.441186026
 20
99.7940381511
  0
VERTEX
  8
0
 62
9
  6
CONTINUOUS
 10
145.4930210964
 20
99.7891200192
  0
VERTEX
  8
0
 62
9
  6
CONTINUOUS
 10
145.5493736547
 20
99.7845844781
  0
VERTEX
  8
0
 62
9
  6
CONTINUOUS
 10
145.6079917311
 20
99.7806128244
  0
VERTEX
  8
0
 62
9
  6
CONTINUOUS
 10
145.6666148342
 20
99.7773565593
  0
VERTEX
  8
0
 62
9
  6
CONTINUOUS
 10
145.7229975534
 20
99.7749388545
  0
VERTEX
  8
0
 62
9
  6
CONTINUOUS
 10
145.7749593128
 20
99.7734517369
  0
VERTEX
  8
0
 62
9
  6
CONTINUOUS
 10
145.8203922373
 20
99.7729515423
  0
SEQEND
  0
LINE
  8
0
 62
9
  6
CONTINUOUS
 10
161.908190089
 20
99.418232436
 11
162.0742778003
 21
99.4023629946
  0
LINE
  8
0
 62
7
  6
CONTINUOUS
 10
163.409098263
 20
99.7749497611
 11
163.3722179935
 21
99.7784592708
  0
LINE
  8
0
 62
9
  6
CONTINUOUS
 10
143.6697027077
 20
99.9726103525
 11
144.1890007907
 21
99.9228227824
  0
LINE
  8
0
 62
9
  6
CONTINUOUS
 10
159.6747538801
 20
99.9503668846
 11
159.4471828039
 21
99.9726103525
  0
LINE
  8
0
 62
7
  6
CONTINUOUS
 10
161.3649071915
 20
99.7882122731
 11
159.4542107746
 21
99.9720794427
  0
LINE
  8
0
 62
9
  6
CONTINUOUS
 10
144.1890007907
 20
99.9228227824
 11
145.441186026
 21
99.7940381511
  0
LINE
  8
0
 62
7
  6
CONTINUOUS
 10
161.398121822
 20
99.7847395877
 11
161.3649071915
 21
99.7882122731
  0
LINE
  8
0
 62
9
  6
CONTINUOUS
 10
161.3649071915
 20
99.7882122731
 11
161.3540148472
 21
99.7891252923
  0
LINE
  8
0
 62
9
  6
CONTINUOUS
 10
148.790008527
 20
99.9726103525
 11
148.7116240874
 21
99.9811682152
  0
LINE
  8
0
 62
9
  6
CONTINUOUS
 10
161.4257766874
 20
99.7816817964
 11
161.3970611539
 21
99.7845891193
  0
POLYLINE
  8
0
 62
7
  6
CONTINUOUS
 66
1
 70
0
  0
VERTEX
  8
0
 62
7
  6
CONTINUOUS
 10
150.1227376981
 20
99.7915219601
  0
VERTEX
  8
0
 62
7
  6
CONTINUOUS
 10
149.1691407347
 20
99.9194934885
  0
VERTEX
  8
0
 62
7
  6
CONTINUOUS
 10
148.9724650456
 20
99.9475782034
  0
VERTEX
  8
0
 62
7
  6
CONTINUOUS
 10
148.8317101005
 20
99.9687126401
  0
SEQEND
  0
POLYLINE
  8
0
 62
9
  6
CONTINUOUS
 66
1
 70
0
  0
VERTEX
  8
0
 62
9
  6
CONTINUOUS
 10
150.0904276817
 20
99.7940381511
  0
VERTEX
  8
0
 62
9
  6
CONTINUOUS
 10
149.1309803786
 20
99.9228362675
  0
VERTEX
  8
0
 62
9
  6
CONTINUOUS
 10
148.9617833993
 20
99.9469194572
  0
SEQEND
  0
LINE
  8
0
 62
7
  6
CONTINUOUS
 10
148.8316891309
 20
99.9687157421
 11
148.786235894
 21
99.974913288
  0
POLYLINE
  8
0
 62
9
  6
CONTINUOUS
 66
1
 70
0
  0
VERTEX
  8
0
 62
9
  6
CONTINUOUS
 10
153.4644294912
 20
99.9840262582
  0
VERTEX
  8
0
 62
9
  6
CONTINUOUS
 10
153.5820256935
 20
99.9669890075
  0
VERTEX
  8
0
 62
9
  6
CONTINUOUS
 10
153.6916076071
 20
99.91703847
  0
VERTEX
  8
0
 62
9
  6
CONTINUOUS
 10
153.7857074433
 20
99.837578911
  0
VERTEX
  8
0
 62
9
  6
CONTINUOUS
 10
153.8579125827
 20
99.7340255178
  0
VERTEX
  8
0
 62
9
  6
CONTINUOUS
 10
153.9033025321
 20
99.613435319
  0
VERTEX
  8
0
 62
9
  6
CONTINUOUS
 10
153.9187841803
 20
99.4840262582
  0
SEQEND
  0
LINE
  8
0
 62
7
  6
CONTINUOUS
 10
130.3349225364
 20
99.9673265464
 11
130.224024629
 21
99.9835501367
  0
LINE
  8
0
 62
9
  6
CONTINUOUS
 10
150.1234571245
 20
99.7891252923
 11
150.0904276817
 21
99.7940381511
  0
LINE
  8
0
 62
9
  6
CONTINUOUS
 10
148.9617833993
 20
99.9469194572
 11
148.790008527
 21
99.9726103525
  0
POLYLINE
  8
0
 62
7
  6
CONTINUOUS
 66
1
 70
0
  0
VERTEX
  8
0
 62
7
  6
CONTINUOUS
 10
150.1817957779
 20
99.7824738477
  0
VERTEX
  8
0
 62
7
  6
CONTINUOUS
 10
150.1405655342
 20
99.7890478648
  0
VERTEX
  8
0
 62
7
  6
CONTINUOUS
 10
150.122619843
 20
99.7915374356
  0
SEQEND
  0
POLYLINE
  8
0
 62
9
  6
CONTINUOUS
 66
1
 70
0
  0
VERTEX
  8
0
 62
9
  6
CONTINUOUS
 10
130.252120986
 20
99.9726102247
  0
VERTEX
  8
0
 62
9
  6
CONTINUOUS
 10
130.3770493
 20
99.9526078424
  0
VERTEX
  8
0
 62
9
  6
CONTINUOUS
 10
130.4750820313
 20
99.9113404906
  0
SEQEND
  0
LINE
  8
0
 62
9
  6
CONTINUOUS
 10
130.7712095455
 20
99.7940381512
 11
130.9010674168
 21
99.7729556751
  0
LINE
  8
0
 62
9
  6
CONTINUOUS
 10
130.4324712657
 20
99.900460334
 11
130.5618648309
 21
99.8794725674
  0
POLYLINE
  8
0
 62
9
  6
CONTINUOUS
 66
1
 70
0
  0
VERTEX
  8
0
 62
9
  6
CONTINUOUS
 10
139.7309030038
 20
99.9840262582
  0
VERTEX
  8
0
 62
9
  6
CONTINUOUS
 10
139.8163607341
 20
99.9669890075
  0
VERTEX
  8
0
 62
9
  6
CONTINUOUS
 10
139.895994442
 20
99.91703847
  0
VERTEX
  8
0
 62
9
  6
CONTINUOUS
 10
139.9643772491
 20
99.837578911
  0
VERTEX
  8
0
 62
9
  6
CONTINUOUS
 10
140.016849074
 20
99.7340255178
  0
VERTEX
  8
0
 62
9
  6
CONTINUOUS
 10
140.0498341702
 20
99.613435319
  0
VERTEX
  8
0
 62
9
  6
CONTINUOUS
 10
140.061084759
 20
99.4840262582
  0
SEQEND
  0
POLYLINE
  8
0
 62
9
  6
CONTINUOUS
 66
1
 70
0
  0
VERTEX
  8
0
 62
9
  6
CONTINUOUS
 10
161.9296504266
 20
90.6923121209
  0
VERTEX
  8
0
 62
9
  6
CONTINUOUS
 10
161.9279703948
 20
90.6926961882
  0
VERTEX
  8
0
 62
9
  6
CONTINUOUS
 10
161.9025191448
 20
90.6931983232
  0
SEQEND
  0
POLYLINE
  8
0
 62
9
  6
CONTINUOUS
 66
1
 70
0
  0
VERTEX
  8
0
 62
9
  6
CONTINUOUS
 10
131.4229139812
 20
99.9840262582
  0
VERTEX
  8
0
 62
9
  6
CONTINUOUS
 10
131.4889294759
 20
99.9669891752
  0
VERTEX
  8
0
 62
9
  6
CONTINUOUS
 10
131.5504461281
 20
99.9170389714
  0
VERTEX
  8
0
 62
9
  6
CONTINUOUS
 10
131.6032716786
 20
99.8375796654
  0
VERTEX
  8
0
 62
9
  6
CONTINUOUS
 10
131.6438061517
 20
99.7340262746
  0
VERTEX
  8
0
 62
9
  6
CONTINUOUS
 10
131.6692871879
 20
99.6134357908
  0
VERTEX
  8
0
 62
9
  6
CONTINUOUS
 10
131.677978295
 20
99.4840262582
  0
SEQEND
  0
LINE
  8
0
 62
9
  6
CONTINUOUS
 10
130.7712095455
 20
99.7940381511
 11
130.4324712661
 21
99.9004603436
  0
POLYLINE
  8
0
 62
9
  6
CONTINUOUS
 66
1
 70
0
  0
VERTEX
  8
0
 62
9
  6
CONTINUOUS
 10
119.6830649019
 20
99.9840262582
  0
VERTEX
  8
0
 62
9
  6
CONTINUOUS
 10
119.7216077422
 20
99.9669890075
  0
VERTEX
  8
0
 62
9
  6
CONTINUOUS
 10
119.7575238528
 20
99.91703847
  0
VERTEX
  8
0
 62
9
  6
CONTINUOUS
 10
119.7883656223
 20
99.837578911
  0
VERTEX
  8
0
 62
9
  6
CONTINUOUS
 10
119.8120312773
 20
99.7340255178
  0
VERTEX
  8
0
 62
9
  6
CONTINUOUS
 10
119.8269080977
 20
99.613435319
  0
VERTEX
  8
0
 62
9
  6
CONTINUOUS
 10
119.831982298
 20
99.4840262582
  0
SEQEND
  0
LINE
  8
0
 62
9
  6
CONTINUOUS
 10
119.8319822982
 20
90.4840262582
 11
119.8319822982
 21
99.4840262582
  0
POLYLINE
  8
0
 62
9
  6
CONTINUOUS
 66
1
 70
0
  0
VERTEX
  8
0
 62
9
  6
CONTINUOUS
 10
124.7852294819
 20
90.1951009741
  0
VERTEX
  8
0
 62
9
  6
CONTINUOUS
 10
124.8283717784
 20
90.2209143043
  0
VERTEX
  8
0
 62
9
  6
CONTINUOUS
 10
124.8679417627
 20
90.2754537521
  0
VERTEX
  8
0
 62
9
  6
CONTINUOUS
 10
124.9015326054
 20
90.3554022327
  0
VERTEX
  8
0
 62
9
  6
CONTINUOUS
 10
124.9271011186
 20
90.4558971209
  0
VERTEX
  8
0
 62
9
  6
CONTINUOUS
 10
124.9430920453
 20
90.5708259783
  0
VERTEX
  8
0
 62
9
  6
CONTINUOUS
 10
124.9485326751
 20
90.6931983232
  0
SEQEND
  0
POLYLINE
  8
0
 62
9
  6
CONTINUOUS
 66
1
 70
0
  0
VERTEX
  8
0
 62
9
  6
CONTINUOUS
 10
130.2521209912
 20
89.9954421639
  0
VERTEX
  8
0
 62
9
  6
CONTINUOUS
 10
130.3047746746
 20
90.0211374184
  0
VERTEX
  8
0
 62
9
  6
CONTINUOUS
 10
130.3658774258
 20
90.0452207068
  0
VERTEX
  8
0
 62
9
  6
CONTINUOUS
 10
130.4324712661
 20
90.0675921728
  0
SEQEND
  0
LINE
  8
0
 62
7
  6
CONTINUOUS
 10
130.4754297142
 20
90.0568571059
 11
130.4780892361
 21
90.0581161722
  0
POLYLINE
  8
0
 62
9
  6
CONTINUOUS
 66
1
 70
0
  0
VERTEX
  8
0
 62
9
  6
CONTINUOUS
 10
130.7712095455
 20
90.1740143653
  0
VERTEX
  8
0
 62
9
  6
CONTINUOUS
 10
130.7816207662
 20
90.1789272241
  0
VERTEX
  8
0
 62
9
  6
CONTINUOUS
 10
130.7805387918
 20
90.1834633971
  0
VERTEX
  8
0
 62
9
  6
CONTINUOUS
 10
130.7679679665
 20
90.187436247
  0
VERTEX
  8
0
 62
9
  6
CONTINUOUS
 10
130.7443967134
 20
90.1906935205
  0
VERTEX
  8
0
 62
9
  6
CONTINUOUS
 10
130.7107304202
 20
90.193112169
  0
VERTEX
  8
0
 62
9
  6
CONTINUOUS
 10
130.6682843015
 20
90.1945998926
  0
VERTEX
  8
0
 62
9
  6
CONTINUOUS
 10
130.6187709001
 20
90.1951009741
  0
SEQEND
  0
POLYLINE
  8
0
 62
9
  6
CONTINUOUS
 66
1
 70
0
  0
VERTEX
  8
0
 62
9
  6
CONTINUOUS
 10
130.6187709001
 20
90.1951009741
  0
VERTEX
  8
0
 62
9
  6
CONTINUOUS
 10
130.6735798958
 20
90.2209145413
  0
VERTEX
  8
0
 62
9
  6
CONTINUOUS
 10
130.7238503844
 20
90.2754543841
  0
VERTEX
  8
0
 62
9
  6
CONTINUOUS
 10
130.766524701
 20
90.3554031729
  0
VERTEX
  8
0
 62
9
  6
CONTINUOUS
 10
130.79900721
 20
90.4558980936
  0
VERTEX
  8
0
 62
9
  6
CONTINUOUS
 10
130.8193221839
 20
90.570826624
  0
VERTEX
  8
0
 62
9
  6
CONTINUOUS
 10
130.8262339769
 20
90.6931983232
  0
SEQEND
  0
LINE
  8
0
 62
9
  6
CONTINUOUS
 10
130.3503780515
 20
90.0010634289
 11
130.4698122439
 21
90.0510138021
  0
LINE
  8
0
 62
7
  6
CONTINUOUS
 10
130.4780892361
 20
90.0581161722
 11
130.5109517601
 21
90.0713833782
  0
POLYLINE
  8
0
 62
7
  6
CONTINUOUS
 66
1
 70
0
  0
VERTEX
  8
0
 62
7
  6
CONTINUOUS
 10
130.9010855997
 20
90.1951036643
  0
VERTEX
  8
0
 62
7
  6
CONTINUOUS
 10
130.959020497
 20
90.216853343
  0
VERTEX
  8
0
 62
7
  6
CONTINUOUS
 10
131.0217064339
 20
90.2497248711
  0
VERTEX
  8
0
 62
7
  6
CONTINUOUS
 10
131.0829269782
 20
90.2938845972
  0
VERTEX
  8
0
 62
7
  6
CONTINUOUS
 10
131.1396616739
 20
90.3497525605
  0
VERTEX
  8
0
 62
7
  6
CONTINUOUS
 10
131.1887511549
 20
90.4168404405
  0
VERTEX
  8
0
 62
7
  6
CONTINUOUS
 10
131.2273004111
 20
90.494032925
  0
VERTEX
  8
0
 62
7
  6
CONTINUOUS
 10
131.2526505329
 20
90.5794987992
  0
VERTEX
  8
0
 62
7
  6
CONTINUOUS
 10
131.2626003935
 20
90.6789357344
  0
SEQEND
  0
POLYLINE
  8
0
 62
7
  6
CONTINUOUS
 66
1
 70
0
  0
VERTEX
  8
0
 62
7
  6
CONTINUOUS
 10
130.3330828952
 20
90.0002646002
  0
VERTEX
  8
0
 62
7
  6
CONTINUOUS
 10
130.4355623354
 20
90.0365519178
  0
VERTEX
  8
0
 62
7
  6
CONTINUOUS
 10
130.4750826746
 20
90.0567123843
  0
SEQEND
  0
LINE
  8
0
 62
7
  6
CONTINUOUS
 10
130.5109517601
 20
90.0713833782
 11
130.5618718458
 21
90.0885821478
  0
LINE
  8
0
 62
9
  6
CONTINUOUS
 10
130.2258614818
 20
89.9868842064
 11
130.2521209912
 21
89.9954421639
  0
POLYLINE
  8
0
 62
9
  6
CONTINUOUS
 66
1
 70
0
  0
VERTEX
  8
0
 62
9
  6
CONTINUOUS
 10
145.8203922373
 20
90.1951009741
  0
VERTEX
  8
0
 62
9
  6
CONTINUOUS
 10
145.9056023614
 20
90.2209143043
  0
VERTEX
  8
0
 62
9
  6
CONTINUOUS
 10
145.9837568305
 20
90.2754537521
  0
VERTEX
  8
0
 62
9
  6
CONTINUOUS
 10
146.0501019287
 20
90.3554022327
  0
VERTEX
  8
0
 62
9
  6
CONTINUOUS
 10
146.1006021661
 20
90.4558971209
  0
VERTEX
  8
0
 62
9
  6
CONTINUOUS
 10
146.1321857626
 20
90.5708259783
  0
VERTEX
  8
0
 62
9
  6
CONTINUOUS
 10
146.1429315233
 20
90.6931983232
  0
SEQEND
  0
LINE
  8
0
 62
9
  6
CONTINUOUS
 10
46.953909716
 20
99.9840262582
 11
46.8743417045
 21
99.9669890075
  0
POLYLINE
  8
0
 62
7
  6
CONTINUOUS
 66
1
 70
0
  0
VERTEX
  8
0
 62
7
  6
CONTINUOUS
 10
56.2491801064
 20
99.7834138504
  0
VERTEX
  8
0
 62
7
  6
CONTINUOUS
 10
56.2130839604
 20
99.7764677699
  0
VERTEX
  8
0
 62
7
  6
CONTINUOUS
 10
56.174393875
 20
99.7669444312
  0
VERTEX
  8
0
 62
7
  6
CONTINUOUS
 10
56.1303112185
 20
99.7526557162
  0
VERTEX
  8
0
 62
7
  6
CONTINUOUS
 10
56.0829367406
 20
99.7323872089
  0
VERTEX
  8
0
 62
7
  6
CONTINUOUS
 10
56.0350406178
 20
99.7057776546
  0
VERTEX
  8
0
 62
7
  6
CONTINUOUS
 10
55.9876097196
 20
99.6720415053
  0
VERTEX
  8
0
 62
7
  6
CONTINUOUS
 10
55.9424335628
 20
99.6310935652
  0
VERTEX
  8
0
 62
7
  6
CONTINUOUS
 10
55.9017135096
 20
99.583892569
  0
VERTEX
  8
0
 62
7
  6
CONTINUOUS
 10
55.8664297031
 20
99.5307525947
  0
VERTEX
  8
0
 62
7
  6
CONTINUOUS
 10
55.8373567319
 20
99.471589213
  0
VERTEX
  8
0
 62
7
  6
CONTINUOUS
 10
55.8156272643
 20
99.4065620653
  0
VERTEX
  8
0
 62
7
  6
CONTINUOUS
 10
55.8026199827
 20
99.3360442643
  0
VERTEX
  8
0
 62
7
  6
CONTINUOUS
 10
55.7995498086
 20
99.2806709051
  0
SEQEND
  0
LINE
  8
0
 62
9
  6
CONTINUOUS
 10
159.4716920346
 20
99.9840262582
 11
159.5512596738
 21
99.9669891698
  0
POLYLINE
  8
0
 62
7
  6
CONTINUOUS
 66
1
 70
0
  0
VERTEX
  8
0
 62
7
  6
CONTINUOUS
 10
161.5452861582
 20
99.7626654319
  0
VERTEX
  8
0
 62
7
  6
CONTINUOUS
 10
161.5145590813
 20
99.7692579118
  0
VERTEX
  8
0
 62
7
  6
CONTINUOUS
 10
161.4910552568
 20
99.7732369951
  0
VERTEX
  8
0
 62
7
  6
CONTINUOUS
 10
161.4703263607
 20
99.7762102099
  0
VERTEX
  8
0
 62
7
  6
CONTINUOUS
 10
161.4493132133
 20
99.778903178
  0
VERTEX
  8
0
 62
7
  6
CONTINUOUS
 10
161.4257766874
 20
99.7816817964
  0
VERTEX
  8
0
 62
7
  6
CONTINUOUS
 10
161.398121822
 20
99.7847395877
  0
SEQEND
  0
POLYLINE
  8
0
 62
9
  6
CONTINUOUS
 66
1
 70
0
  0
VERTEX
  8
0
 62
9
  6
CONTINUOUS
 10
145.8203922373
 20
99.7729515423
  0
VERTEX
  8
0
 62
9
  6
CONTINUOUS
 10
145.9056027666
 20
99.7471380125
  0
VERTEX
  8
0
 62
9
  6
CONTINUOUS
 10
145.9837574077
 20
99.6925982262
  0
VERTEX
  8
0
 62
9
  6
CONTINUOUS
 10
146.0501024516
 20
99.6126494743
  0
VERTEX
  8
0
 62
9
  6
CONTINUOUS
 10
146.1006024877
 20
99.5121545484
  0
VERTEX
  8
0
 62
9
  6
CONTINUOUS
 10
146.1321858633
 20
99.397225969
  0
VERTEX
  8
0
 62
9
  6
CONTINUOUS
 10
146.1429315231
 20
99.2748541932
  0
SEQEND
  0
LINE
  8
0
 62
7
  6
CONTINUOUS
 10
130.9010682987
 20
99.7729553981
 11
130.5620498295
 21
99.8794145287
  0
POLYLINE
  8
0
 62
9
  6
CONTINUOUS
 66
1
 70
0
  0
VERTEX
  8
0
 62
9
  6
CONTINUOUS
 10
130.2521209912
 20
99.9726103525
  0
VERTEX
  8
0
 62
9
  6
CONTINUOUS
 10
130.2258619049
 20
99.9811682152
  0
VERTEX
  8
0
 62
9
  6
CONTINUOUS
 10
130.2013995473
 20
99.9840262582
  0
SEQEND
  0
POLYLINE
  8
0
 62
9
  6
CONTINUOUS
 66
1
 70
0
  0
VERTEX
  8
0
 62
9
  6
CONTINUOUS
 10
130.4324712661
 20
99.9004603436
  0
VERTEX
  8
0
 62
9
  6
CONTINUOUS
 10
130.3658650881
 20
99.9228362675
  0
VERTEX
  8
0
 62
9
  6
CONTINUOUS
 10
130.3047646326
 20
99.9469194572
  0
VERTEX
  8
0
 62
9
  6
CONTINUOUS
 10
130.2521209912
 20
99.9726103525
  0
SEQEND
  0
POLYLINE
  8
0
 62
7
  6
CONTINUOUS
 66
1
 70
0
  0
VERTEX
  8
0
 62
7
  6
CONTINUOUS
 10
130.5618648309
 20
99.8794725674
  0
VERTEX
  8
0
 62
7
  6
CONTINUOUS
 10
130.511946655
 20
99.8963039334
  0
VERTEX
  8
0
 62
7
  6
CONTINUOUS
 10
130.4908817104
 20
99.9044209886
  0
SEQEND
  0
LINE
  8
0
 62
7
  6
CONTINUOUS
 10
130.4385786
 20
99.9300898705
 11
130.3349225364
 21
99.9673265464
  0
POLYLINE
  8
0
 62
9
  6
CONTINUOUS
 66
1
 70
0
  0
VERTEX
  8
0
 62
9
  6
CONTINUOUS
 10
150.6260527136
 20
90.6873845461
  0
VERTEX
  8
0
 62
9
  6
CONTINUOUS
 10
150.6227576862
 20
90.6887911496
  0
VERTEX
  8
0
 62
9
  6
CONTINUOUS
 10
150.5932671577
 20
90.691208086
  0
VERTEX
  8
0
 62
9
  6
CONTINUOUS
 10
150.5342775303
 20
90.6926961882
  0
VERTEX
  8
0
 62
9
  6
CONTINUOUS
 10
150.4480810954
 20
90.6931983232
  0
SEQEND
  0
LINE
  8
0
 62
7
  6
CONTINUOUS
 10
130.4908817104
 20
99.9044209886
 11
130.4757158766
 21
99.9109870604
  0
POLYLINE
  8
0
 62
9
  6
CONTINUOUS
 66
1
 70
0
  0
VERTEX
  8
0
 62
9
  6
CONTINUOUS
 10
130.6187709001
 20
99.7729515423
  0
VERTEX
  8
0
 62
9
  6
CONTINUOUS
 10
130.6735796345
 20
99.7471381746
  0
VERTEX
  8
0
 62
9
  6
CONTINUOUS
 10
130.7238500153
 20
99.6925986651
  0
VERTEX
  8
0
 62
9
  6
CONTINUOUS
 10
130.7665243694
 20
99.6126501375
  0
VERTEX
  8
0
 62
9
  6
CONTINUOUS
 10
130.7990070076
 20
99.5121552457
  0
VERTEX
  8
0
 62
9
  6
CONTINUOUS
 10
130.8193221209
 20
99.3972264397
  0
VERTEX
  8
0
 62
9
  6
CONTINUOUS
 10
130.8262339773
 20
99.2748541932
  0
SEQEND
  0
LINE
  8
0
 62
7
  6
CONTINUOUS
 10
130.4750820313
 20
99.9113404906
 11
130.4385786
 21
99.9300898705
  0
POLYLINE
  8
0
 62
9
  6
CONTINUOUS
 66
1
 70
0
  0
VERTEX
  8
0
 62
9
  6
CONTINUOUS
 10
124.7852294819
 20
99.7729515423
  0
VERTEX
  8
0
 62
9
  6
CONTINUOUS
 10
124.8283720305
 20
99.7471379663
  0
VERTEX
  8
0
 62
9
  6
CONTINUOUS
 10
124.8679421171
 20
99.6925981101
  0
VERTEX
  8
0
 62
9
  6
CONTINUOUS
 10
124.9015329222
 20
99.6126493126
  0
VERTEX
  8
0
 62
9
  6
CONTINUOUS
 10
124.9271013105
 20
99.5121543931
  0
VERTEX
  8
0
 62
9
  6
CONTINUOUS
 10
124.9430921042
 20
99.3972258743
  0
VERTEX
  8
0
 62
9
  6
CONTINUOUS
 10
124.9485326749
 20
99.2748541932
  0
SEQEND
  0
LINE
  8
0
 62
9
  6
CONTINUOUS
 10
121.5477407642
 20
90.4840262582
 11
121.5477407642
 21
99.4840262582
  0
LINE
  8
0
 62
9
  6
CONTINUOUS
 10
123.324052894
 20
90.5656895218
 11
123.324052894
 21
99.4023629946
  0
LINE
  8
0
 62
9
  6
CONTINUOUS
 10
123.9850636983
 20
90.6721117143
 11
123.9850636983
 21
99.2959408021
  0
LINE
  8
0
 62
9
  6
CONTINUOUS
 10
130.4698122439
 20
90.0510138021
 11
130.4799480763
 21
90.0588666202
  0
POLYLINE
  8
0
 62
9
  6
CONTINUOUS
 66
1
 70
0
  0
VERTEX
  8
0
 62
9
  6
CONTINUOUS
 10
141.8184617084
 20
99.9840262582
  0
VERTEX
  8
0
 62
9
  6
CONTINUOUS
 10
141.7958590099
 20
99.9669891176
  0
VERTEX
  8
0
 62
9
  6
CONTINUOUS
 10
141.774796668
 20
99.9170388029
  0
VERTEX
  8
0
 62
9
  6
CONTINUOUS
 10
141.7567100427
 20
99.8375794163
  0
VERTEX
  8
0
 62
9
  6
CONTINUOUS
 10
141.7428316991
 20
99.734026028
  0
VERTEX
  8
0
 62
9
  6
CONTINUOUS
 10
141.7341074131
 20
99.6134356383
  0
VERTEX
  8
0
 62
9
  6
CONTINUOUS
 10
141.7311317227
 20
99.4840262582
  0
SEQEND
  0
LINE
  8
0
 62
7
  6
CONTINUOUS
 10
130.4757353793
 20
90.0570763501
 11
130.4754297142
 21
90.0568571059
  0
LINE
  8
0
 62
7
  6
CONTINUOUS
 10
130.4750827482
 20
90.0567122523
 11
130.4757353793
 21
90.0570763501
  0
POLYLINE
  8
0
 62
9
  6
CONTINUOUS
 66
1
 70
0
  0
VERTEX
  8
0
 62
9
  6
CONTINUOUS
 10
56.3324050526
 20
99.7729515423
  0
VERTEX
  8
0
 62
9
  6
CONTINUOUS
 10
56.2386494447
 20
99.7471380409
  0
VERTEX
  8
0
 62
9
  6
CONTINUOUS
 10
56.1526572658
 20
99.6925982976
  0
VERTEX
  8
0
 62
9
  6
CONTINUOUS
 10
56.079658948
 20
99.6126495738
  0
VERTEX
  8
0
 62
9
  6
CONTINUOUS
 10
56.0240946009
 20
99.512154644
  0
VERTEX
  8
0
 62
9
  6
CONTINUOUS
 10
55.9893439304
 20
99.3972260272
  0
VERTEX
  8
0
 62
9
  6
CONTINUOUS
 10
55.9775206552
 20
99.2748541932
  0
SEQEND
  0
POLYLINE
  8
0
 62
9
  6
CONTINUOUS
 66
1
 70
0
  0
VERTEX
  8
0
 62
9
  6
CONTINUOUS
 10
46.9372863821
 20
99.7729515423
  0
VERTEX
  8
0
 62
9
  6
CONTINUOUS
 10
46.8247419343
 20
99.7471381746
  0
VERTEX
  8
0
 62
9
  6
CONTINUOUS
 10
46.7215165582
 20
99.6925986651
  0
VERTEX
  8
0
 62
9
  6
CONTINUOUS
 10
46.6338888907
 20
99.6126501375
  0
VERTEX
  8
0
 62
9
  6
CONTINUOUS
 10
46.5671889287
 20
99.5121552457
  0
VERTEX
  8
0
 62
9
  6
CONTINUOUS
 10
46.5254738054
 20
99.3972264397
  0
VERTEX
  8
0
 62
9
  6
CONTINUOUS
 10
46.5112809764
 20
99.2748541932
  0
SEQEND
  0
POLYLINE
  8
0
 62
9
  6
CONTINUOUS
 66
1
 70
0
  0
VERTEX
  8
0
 62
9
  6
CONTINUOUS
 10
44.9640255875
 20
99.7729515423
  0
VERTEX
  8
0
 62
9
  6
CONTINUOUS
 10
44.8475343145
 20
99.7471379822
  0
VERTEX
  8
0
 62
9
  6
CONTINUOUS
 10
44.7406891923
 20
99.69259815
  0
VERTEX
  8
0
 62
9
  6
CONTINUOUS
 10
44.6499889986
 20
99.6126493681
  0
VERTEX
  8
0
 62
9
  6
CONTINUOUS
 10
44.5809505146
 20
99.5121544464
  0
VERTEX
  8
0
 62
9
  6
CONTINUOUS
 10
44.5377729665
 20
99.3972259069
  0
VERTEX
  8
0
 62
9
  6
CONTINUOUS
 10
44.5230826058
 20
99.2748541932
  0
SEQEND
  0
POLYLINE
  8
0
 62
9
  6
CONTINUOUS
 66
1
 70
0
  0
VERTEX
  8
0
 62
9
  6
CONTINUOUS
 10
161.461576163
 20
99.7729515423
  0
VERTEX
  8
0
 62
9
  6
CONTINUOUS
 10
161.5780669012
 20
99.7471381746
  0
VERTEX
  8
0
 62
9
  6
CONTINUOUS
 10
161.6849118014
 20
99.6925986651
  0
VERTEX
  8
0
 62
9
  6
CONTINUOUS
 10
161.7756120706
 20
99.6126501375
  0
VERTEX
  8
0
 62
9
  6
CONTINUOUS
 10
161.8446508194
 20
99.5121552457
  0
VERTEX
  8
0
 62
9
  6
CONTINUOUS
 10
161.8878286542
 20
99.3972264397
  0
VERTEX
  8
0
 62
9
  6
CONTINUOUS
 10
161.9025191449
 20
99.2748541932
  0
SEQEND
  0
POLYLINE
  8
0
 62
9
  6
CONTINUOUS
 66
1
 70
0
  0
VERTEX
  8
0
 62
9
  6
CONTINUOUS
 10
159.4883153685
 20
99.7729515423
  0
VERTEX
  8
0
 62
9
  6
CONTINUOUS
 10
159.6008602716
 20
99.7471380049
  0
VERTEX
  8
0
 62
9
  6
CONTINUOUS
 10
159.7040858421
 20
99.692598207
  0
VERTEX
  8
0
 62
9
  6
CONTINUOUS
 10
159.7917134496
 20
99.6126494476
  0
VERTEX
  8
0
 62
9
  6
CONTINUOUS
 10
159.8584131855
 20
99.5121545228
  0
VERTEX
  8
0
 62
9
  6
CONTINUOUS
 10
159.9001280598
 20
99.3972259534
  0
VERTEX
  8
0
 62
9
  6
CONTINUOUS
 10
159.9143207744
 20
99.2748541932
  0
SEQEND
  0
POLYLINE
  8
0
 62
9
  6
CONTINUOUS
 66
1
 70
0
  0
VERTEX
  8
0
 62
9
  6
CONTINUOUS
 10
150.0931966979
 20
99.7729515423
  0
VERTEX
  8
0
 62
9
  6
CONTINUOUS
 10
150.1869520065
 20
99.7471381746
  0
VERTEX
  8
0
 62
9
  6
CONTINUOUS
 10
150.2729440498
 20
99.6925986651
  0
VERTEX
  8
0
 62
9
  6
CONTINUOUS
 10
150.3459424004
 20
99.6126501375
  0
VERTEX
  8
0
 62
9
  6
CONTINUOUS
 10
150.4015068971
 20
99.5121552457
  0
VERTEX
  8
0
 62
9
  6
CONTINUOUS
 10
150.4362577392
 20
99.3972264397
  0
VERTEX
  8
0
 62
9
  6
CONTINUOUS
 10
150.4480810957
 20
99.2748541932
  0
SEQEND
  0
LINE
  8
0
 62
7
  6
CONTINUOUS
 10
130.4750820313
 20
99.9113404906
 11
130.4757158052
 21
99.9109869327
  0
POLYLINE
  8
0
 62
9
  6
CONTINUOUS
 66
1
 70
0
  0
VERTEX
  8
0
 62
9
  6
CONTINUOUS
 10
141.8184617084
 20
89.9840262582
  0
VERTEX
  8
0
 62
9
  6
CONTINUOUS
 10
141.7958588958
 20
90.0010635738
  0
VERTEX
  8
0
 62
9
  6
CONTINUOUS
 10
141.774796508
 20
90.0510142425
  0
VERTEX
  8
0
 62
9
  6
CONTINUOUS
 10
141.7567099026
 20
90.1304739027
  0
VERTEX
  8
0
 62
9
  6
CONTINUOUS
 10
141.7428316175
 20
90.2340272986
  0
VERTEX
  8
0
 62
9
  6
CONTINUOUS
 10
141.7341073895
 20
90.354617385
  0
VERTEX
  8
0
 62
9
  6
CONTINUOUS
 10
141.7311317228
 20
90.4840262582
  0
SEQEND
  0
LINE
  8
0
 62
9
  6
CONTINUOUS
 10
130.469812663
 20
99.91703847
 11
130.4801228103
 21
99.9090505831
  0
LINE
  8
0
 62
9
  6
CONTINUOUS
 10
124.9485326749
 20
99.2748541932
 11
124.9485326749
 21
90.6931983232
  0
POLYLINE
  8
0
 62
9
  6
CONTINUOUS
 66
1
 70
0
  0
VERTEX
  8
0
 62
9
  6
CONTINUOUS
 10
160.9225786243
 20
89.9840262582
  0
VERTEX
  8
0
 62
9
  6
CONTINUOUS
 10
160.9741226012
 20
90.0010633479
  0
VERTEX
  8
0
 62
9
  6
CONTINUOUS
 10
161.022153939
 20
90.0510135647
  0
VERTEX
  8
0
 62
9
  6
CONTINUOUS
 10
161.0633993816
 20
90.13047288
  0
VERTEX
  8
0
 62
9
  6
CONTINUOUS
 10
161.0698222218
 20
90.1514881522
  0
SEQEND
  0
POLYLINE
  8
0
 62
7
  6
CONTINUOUS
 66
1
 70
0
  0
VERTEX
  8
0
 62
7
  6
CONTINUOUS
 10
161.5557625236
 20
90.2080566919
  0
VERTEX
  8
0
 62
7
  6
CONTINUOUS
 10
161.5914667768
 20
90.2189298069
  0
VERTEX
  8
0
 62
7
  6
CONTINUOUS
 10
161.6280208502
 20
90.2331308234
  0
VERTEX
  8
0
 62
7
  6
CONTINUOUS
 10
161.6653560762
 20
90.2511885202
  0
VERTEX
  8
0
 62
7
  6
CONTINUOUS
 10
161.7027253153
 20
90.2733361479
  0
VERTEX
  8
0
 62
7
  6
CONTINUOUS
 10
161.7395150049
 20
90.2997980093
  0
VERTEX
  8
0
 62
7
  6
CONTINUOUS
 10
161.7749785253
 20
90.3306346019
  0
VERTEX
  8
0
 62
7
  6
CONTINUOUS
 10
161.8083023233
 20
90.3657113484
  0
VERTEX
  8
0
 62
7
  6
CONTINUOUS
 10
161.8387128301
 20
90.4047361677
  0
VERTEX
  8
0
 62
7
  6
CONTINUOUS
 10
161.8655861853
 20
90.4474010345
  0
VERTEX
  8
0
 62
7
  6
CONTINUOUS
 10
161.8883315747
 20
90.4932521867
  0
VERTEX
  8
0
 62
7
  6
CONTINUOUS
 10
161.906442817
 20
90.5417259069
  0
VERTEX
  8
0
 62
7
  6
CONTINUOUS
 10
161.9195229204
 20
90.5921722238
  0
VERTEX
  8
0
 62
7
  6
CONTINUOUS
 10
161.9272996284
 20
90.6438765928
  0
SEQEND
  0
POLYLINE
  8
0
 62
9
  6
CONTINUOUS
 66
1
 70
0
  0
VERTEX
  8
0
 62
9
  6
CONTINUOUS
 10
160.9225786243
 20
99.9840262582
  0
VERTEX
  8
0
 62
9
  6
CONTINUOUS
 10
160.974122608
 20
99.9669891665
  0
VERTEX
  8
0
 62
9
  6
CONTINUOUS
 10
161.0221539499
 20
99.9170389448
  0
VERTEX
  8
0
 62
9
  6
CONTINUOUS
 10
161.0633993934
 20
99.8375796242
  0
VERTEX
  8
0
 62
9
  6
CONTINUOUS
 10
161.0698222132
 20
99.8165644169
  0
SEQEND
  0
POLYLINE
  8
0
 62
7
  6
CONTINUOUS
 66
1
 70
0
  0
VERTEX
  8
0
 62
7
  6
CONTINUOUS
 10
131.2626003937
 20
99.2891168117
  0
VERTEX
  8
0
 62
7
  6
CONTINUOUS
 10
131.2528863229
 20
99.3873800356
  0
VERTEX
  8
0
 62
7
  6
CONTINUOUS
 10
131.2279301248
 20
99.4724221921
  0
VERTEX
  8
0
 62
7
  6
CONTINUOUS
 10
131.1898927695
 20
99.5493369523
  0
VERTEX
  8
0
 62
7
  6
CONTINUOUS
 10
131.1413853648
 20
99.6163011987
  0
VERTEX
  8
0
 62
7
  6
CONTINUOUS
 10
131.0852583879
 20
99.6721961113
  0
VERTEX
  8
0
 62
7
  6
CONTINUOUS
 10
131.0246172899
 20
99.7165251737
  0
VERTEX
  8
0
 62
7
  6
CONTINUOUS
 10
130.9624442176
 20
99.7496737283
  0
VERTEX
  8
0
 62
7
  6
CONTINUOUS
 10
130.9010670978
 20
99.7729546652
  0
SEQEND
  0
LINE
  8
0
 62
7
  6
CONTINUOUS
 10
129.5375918926
 20
82.4840262582
 11
129.5375918926
 21
82.2840262582
  0
LINE
  8
0
 62
7
  6
CONTINUOUS
 10
129.62839677
 20
82.4840262582
 11
129.62839677
 21
82.2840262582
  0
LINE
  8
0
 62
7
  6
CONTINUOUS
 10
129.8925310932
 20
82.4840262582
 11
129.8925310932
 21
82.2840262582
  0
LINE
  8
0
 62
9
  6
CONTINUOUS
 10
130.8262339769
 20
99.2748541932
 11
130.8262339769
 21
90.6931983232
  0
LINE
  8
0
 62
7
  6
CONTINUOUS
 10
131.2626002899
 20
99.2891764075
 11
131.2626002899
 21
90.6788761089
  0
LINE
  8
0
 62
7
  6
CONTINUOUS
 10
131.4232820735
 20
82.4840262582
 11
131.4232820735
 21
82.2840262582
  0
LINE
  8
0
 62
9
  6
CONTINUOUS
 10
131.677978295
 20
90.4840262582
 11
131.677978295
 21
99.4840262582
  0
LINE
  8
0
 62
7
  6
CONTINUOUS
 10
132.3916528235
 20
82.4840262582
 11
132.3916528235
 21
82.2840262582
  0
LINE
  8
0
 62
7
  6
CONTINUOUS
 10
132.4455426264
 20
82.4840262582
 11
132.4455426264
 21
82.2840262582
  0
LINE
  8
0
 62
7
  6
CONTINUOUS
 10
132.6789054881
 20
82.4840262582
 11
132.6789054881
 21
82.2840262582
  0
POLYLINE
  8
0
 62
9
  6
CONTINUOUS
 66
1
 70
0
  0
VERTEX
  8
0
 62
9
  6
CONTINUOUS
 10
155.1338909529
 20
89.9840262582
  0
VERTEX
  8
0
 62
9
  6
CONTINUOUS
 10
155.165069121
 20
90.0010635738
  0
VERTEX
  8
0
 62
9
  6
CONTINUOUS
 10
155.1941224376
 20
90.0510142425
  0
VERTEX
  8
0
 62
9
  6
CONTINUOUS
 10
155.2190709799
 20
90.1304739027
  0
VERTEX
  8
0
 62
9
  6
CONTINUOUS
 10
155.2382145934
 20
90.2340272986
  0
VERTEX
  8
0
 62
9
  6
CONTINUOUS
 10
155.250248735
 20
90.354617385
  0
VERTEX
  8
0
 62
9
  6
CONTINUOUS
 10
155.2543533497
 20
90.4840262582
  0
SEQEND
  0
POLYLINE
  8
0
 62
9
  6
CONTINUOUS
 66
1
 70
0
  0
VERTEX
  8
0
 62
9
  6
CONTINUOUS
 10
161.1807918608
 20
89.9954422902
  0
VERTEX
  8
0
 62
9
  6
CONTINUOUS
 10
161.225611632
 20
90.0154446726
  0
VERTEX
  8
0
 62
9
  6
CONTINUOUS
 10
161.2646267862
 20
90.0668526874
  0
VERTEX
  8
0
 62
9
  6
CONTINUOUS
 10
161.2952744527
 20
90.1462893877
  0
SEQEND
  0
POLYLINE
  8
0
 62
9
  6
CONTINUOUS
 66
1
 70
0
  0
VERTEX
  8
0
 62
9
  6
CONTINUOUS
 10
161.1807918699
 20
99.9726103293
  0
VERTEX
  8
0
 62
9
  6
CONTINUOUS
 10
161.225611654
 20
99.9526079719
  0
VERTEX
  8
0
 62
9
  6
CONTINUOUS
 10
161.2646268216
 20
99.9011999607
  0
VERTEX
  8
0
 62
9
  6
CONTINUOUS
 10
161.2952744993
 20
99.8217632443
  0
SEQEND
  0
POLYLINE
  8
0
 62
9
  6
CONTINUOUS
 66
1
 70
0
  0
VERTEX
  8
0
 62
9
  6
CONTINUOUS
 10
155.1338909528
 20
99.9840262582
  0
VERTEX
  8
0
 62
9
  6
CONTINUOUS
 10
155.1650689636
 20
99.9669891176
  0
VERTEX
  8
0
 62
9
  6
CONTINUOUS
 10
155.1941222168
 20
99.9170388029
  0
VERTEX
  8
0
 62
9
  6
CONTINUOUS
 10
155.2190707865
 20
99.8375794163
  0
VERTEX
  8
0
 62
9
  6
CONTINUOUS
 10
155.2382144807
 20
99.734026028
  0
VERTEX
  8
0
 62
9
  6
CONTINUOUS
 10
155.2502487022
 20
99.6134356383
  0
VERTEX
  8
0
 62
9
  6
CONTINUOUS
 10
155.2543533496
 20
99.4840262582
  0
SEQEND
  0
LINE
  8
0
 62
7
  6
CONTINUOUS
 10
134.0887859167
 20
82.4840262582
 11
134.0887859167
 21
82.2840262582
  0
LINE
  8
0
 62
7
  6
CONTINUOUS
 10
135.0654379247
 20
82.4840262582
 11
135.0654379247
 21
82.2840262582
  0
LINE
  8
0
 62
7
  6
CONTINUOUS
 10
135.1357054837
 20
82.4840262582
 11
135.1357054837
 21
82.2840262582
  0
LINE
  8
0
 62
7
  6
CONTINUOUS
 10
135.3368096006
 20
82.4840262582
 11
135.3368096006
 21
82.2840262582
  0
LINE
  8
0
 62
7
  6
CONTINUOUS
 10
135.6566354995
 20
82.4840262582
 11
135.6566354995
 21
82.2840262582
  0
LINE
  8
0
 62
7
  6
CONTINUOUS
 10
135.9885737341
 20
82.4840262582
 11
135.9885737341
 21
82.2840262582
  0
LINE
  8
0
 62
7
  6
CONTINUOUS
 10
136.4513509667
 20
82.4840262582
 11
136.4513509667
 21
82.2840262582
  0
POLYLINE
  8
0
 62
9
  6
CONTINUOUS
 66
1
 70
0
  0
VERTEX
  8
0
 62
9
  6
CONTINUOUS
 10
157.9333988592
 20
99.9004603436
  0
VERTEX
  8
0
 62
9
  6
CONTINUOUS
 10
157.9099937988
 20
99.8816089729
  0
VERTEX
  8
0
 62
9
  6
CONTINUOUS
 10
157.8854477386
 20
99.8308257274
  0
VERTEX
  8
0
 62
9
  6
CONTINUOUS
 10
157.8613961679
 20
99.7514942648
  0
VERTEX
  8
0
 62
9
  6
CONTINUOUS
 10
157.8394416286
 20
99.648900393
  0
VERTEX
  8
0
 62
9
  6
CONTINUOUS
 10
157.8210469387
 20
99.529879881
  0
VERTEX
  8
0
 62
9
  6
CONTINUOUS
 10
157.8074377253
 20
99.4023629946
  0
SEQEND
  0
POLYLINE
  8
0
 62
9
  6
CONTINUOUS
 66
1
 70
0
  0
VERTEX
  8
0
 62
9
  6
CONTINUOUS
 10
159.1569717609
 20
99.7940381524
  0
VERTEX
  8
0
 62
9
  6
CONTINUOUS
 10
159.1335626
 20
99.7752239318
  0
VERTEX
  8
0
 62
9
  6
CONTINUOUS
 10
159.1090077621
 20
99.7244608752
  0
VERTEX
  8
0
 62
9
  6
CONTINUOUS
 10
159.084944064
 20
99.6451328293
  0
VERTEX
  8
0
 62
9
  6
CONTINUOUS
 10
159.0629755827
 20
99.542527773
  0
VERTEX
  8
0
 62
9
  6
CONTINUOUS
 10
159.0445667289
 20
99.4234853217
  0
VERTEX
  8
0
 62
9
  6
CONTINUOUS
 10
159.0309446297
 20
99.2959408021
  0
SEQEND
  0
POLYLINE
  8
0
 62
9
  6
CONTINUOUS
 66
1
 70
0
  0
VERTEX
  8
0
 62
9
  6
CONTINUOUS
 10
159.1569717608
 20
90.1740143653
  0
VERTEX
  8
0
 62
9
  6
CONTINUOUS
 10
159.1335624321
 20
90.1928280903
  0
VERTEX
  8
0
 62
9
  6
CONTINUOUS
 10
159.1090074013
 20
90.2435908767
  0
VERTEX
  8
0
 62
9
  6
CONTINUOUS
 10
159.0849435075
 20
90.3229188756
  0
VERTEX
  8
0
 62
9
  6
CONTINUOUS
 10
159.0629748507
 20
90.4255240801
  0
VERTEX
  8
0
 62
9
  6
CONTINUOUS
 10
159.0445658622
 20
90.544566824
  0
VERTEX
  8
0
 62
9
  6
CONTINUOUS
 10
159.0309436854
 20
90.6721117143
  0
SEQEND
  0
POLYLINE
  8
0
 62
9
  6
CONTINUOUS
 66
1
 70
0
  0
VERTEX
  8
0
 62
9
  6
CONTINUOUS
 10
157.9333988578
 20
90.0675921898
  0
VERTEX
  8
0
 62
9
  6
CONTINUOUS
 10
157.9099937957
 20
90.086443531
  0
VERTEX
  8
0
 62
9
  6
CONTINUOUS
 10
157.885447732
 20
90.1372267589
  0
VERTEX
  8
0
 62
9
  6
CONTINUOUS
 10
157.8613961569
 20
90.2165582162
  0
VERTEX
  8
0
 62
9
  6
CONTINUOUS
 10
157.8394416131
 20
90.3191520932
  0
VERTEX
  8
0
 62
9
  6
CONTINUOUS
 10
157.8210469193
 20
90.4381726182
  0
VERTEX
  8
0
 62
9
  6
CONTINUOUS
 10
157.8074377035
 20
90.5656895218
  0
SEQEND
  0
LINE
  8
0
 62
7
  6
CONTINUOUS
 10
136.8414672466
 20
82.4840262582
 11
136.8414672466
 21
82.2840262582
  0
LINE
  8
0
 62
7
  6
CONTINUOUS
 10
137.1362630733
 20
82.4840262582
 11
137.1362630733
 21
82.2840262582
  0
LINE
  8
0
 62
7
  6
CONTINUOUS
 10
137.8386714518
 20
82.4840262582
 11
137.8386714518
 21
82.2840262582
  0
LINE
  8
0
 62
7
  6
CONTINUOUS
 10
139.618018677
 20
82.4840262582
 11
139.618018677
 21
82.2840262582
  0
LINE
  8
0
 62
9
  6
CONTINUOUS
 10
140.0610847591
 20
90.4840262582
 11
140.0610847591
 21
99.4840262582
  0
LINE
  8
0
 62
7
  6
CONTINUOUS
 10
140.1937518979
 20
82.4840262582
 11
140.1937518979
 21
82.2840262582
  0
LINE
  8
0
 62
9
  6
CONTINUOUS
 10
159.551260195
 20
90.0010635738
 11
159.5590233809
 21
90.0062935156
  0
POLYLINE
  8
0
 62
9
  6
CONTINUOUS
 66
1
 70
0
  0
VERTEX
  8
0
 62
9
  6
CONTINUOUS
 10
163.2000127489
 20
90.1740550759
  0
VERTEX
  8
0
 62
9
  6
CONTINUOUS
 10
163.2291828212
 20
90.1928280903
  0
VERTEX
  8
0
 62
9
  6
CONTINUOUS
 10
163.2539832961
 20
90.2435908767
  0
VERTEX
  8
0
 62
9
  6
CONTINUOUS
 10
163.272250337
 20
90.3229188756
  0
VERTEX
  8
0
 62
9
  6
CONTINUOUS
 10
163.2827662622
 20
90.4255240801
  0
VERTEX
  8
0
 62
9
  6
CONTINUOUS
 10
163.2848300801
 20
90.544566824
  0
VERTEX
  8
0
 62
9
  6
CONTINUOUS
 10
163.278304216
 20
90.6721117143
  0
SEQEND
  0
POLYLINE
  8
0
 62
9
  6
CONTINUOUS
 66
1
 70
0
  0
VERTEX
  8
0
 62
9
  6
CONTINUOUS
 10
161.9954838866
 20
90.0675921898
  0
VERTEX
  8
0
 62
9
  6
CONTINUOUS
 10
162.0251541259
 20
90.086443531
  0
VERTEX
  8
0
 62
9
  6
CONTINUOUS
 10
162.0499465261
 20
90.1372267589
  0
VERTEX
  8
0
 62
9
  6
CONTINUOUS
 10
162.0682091837
 20
90.2165582162
  0
VERTEX
  8
0
 62
9
  6
CONTINUOUS
 10
162.0787252684
 20
90.3191520931
  0
VERTEX
  8
0
 62
9
  6
CONTINUOUS
 10
162.0807940994
 20
90.4381726182
  0
VERTEX
  8
0
 62
9
  6
CONTINUOUS
 10
162.0742778316
 20
90.5656895218
  0
SEQEND
  0
POLYLINE
  8
0
 62
9
  6
CONTINUOUS
 66
1
 70
0
  0
VERTEX
  8
0
 62
9
  6
CONTINUOUS
 10
161.9954838881
 20
99.9004603436
  0
VERTEX
  8
0
 62
9
  6
CONTINUOUS
 10
162.0251541189
 20
99.8816089729
  0
VERTEX
  8
0
 62
9
  6
CONTINUOUS
 10
162.0499465105
 20
99.8308257274
  0
VERTEX
  8
0
 62
9
  6
CONTINUOUS
 10
162.0682091607
 20
99.7514942648
  0
VERTEX
  8
0
 62
9
  6
CONTINUOUS
 10
162.07872524
 20
99.648900393
  0
VERTEX
  8
0
 62
9
  6
CONTINUOUS
 10
162.0807940681
 20
99.529879881
  0
VERTEX
  8
0
 62
9
  6
CONTINUOUS
 10
162.0742778003
 20
99.4023629946
  0
SEQEND
  0
POLYLINE
  8
0
 62
9
  6
CONTINUOUS
 66
1
 70
0
  0
VERTEX
  8
0
 62
9
  6
CONTINUOUS
 10
163.2000127457
 20
99.7939974319
  0
VERTEX
  8
0
 62
9
  6
CONTINUOUS
 10
163.2291824667
 20
99.7752239318
  0
VERTEX
  8
0
 62
9
  6
CONTINUOUS
 10
163.2539826022
 20
99.7244608752
  0
VERTEX
  8
0
 62
9
  6
CONTINUOUS
 10
163.2722493514
 20
99.6451328293
  0
VERTEX
  8
0
 62
9
  6
CONTINUOUS
 10
163.2827650593
 20
99.542527773
  0
VERTEX
  8
0
 62
9
  6
CONTINUOUS
 10
163.2848287523
 20
99.4234853217
  0
VERTEX
  8
0
 62
9
  6
CONTINUOUS
 10
163.2783028649
 20
99.2959408021
  0
SEQEND
  0
LINE
  8
0
 62
9
  6
CONTINUOUS
 10
159.5512596738
 20
99.9669891698
 11
159.5590204444
 21
99.9617608883
  0
LINE
  8
0
 62
7
  6
CONTINUOUS
 10
141.0836900397
 20
82.4840262582
 11
141.0836900397
 21
82.2840262582
  0
LINE
  8
0
 62
9
  6
CONTINUOUS
 10
141.7311317227
 20
90.4840262582
 11
141.7311317227
 21
99.4840262582
  0
LINE
  8
0
 62
7
  6
CONTINUOUS
 10
142.6406182253
 20
82.4840262582
 11
142.6406182253
 21
82.2840262582
  0
LINE
  8
0
 62
7
  6
CONTINUOUS
 10
143.0004514569
 20
82.4840262582
 11
143.0004514569
 21
82.2840262582
  0
LINE
  8
0
 62
7
  6
CONTINUOUS
 10
143.4126832674
 20
82.4840262582
 11
143.4126832674
 21
82.2840262582
  0
LINE
  8
0
 62
7
  6
CONTINUOUS
 10
143.4461902459
 20
82.4840262582
 11
143.4461902459
 21
82.2840262582
  0
LINE
  8
0
 62
7
  6
CONTINUOUS
 10
143.9995833398
 20
82.4840262582
 11
143.9995833398
 21
82.2840262582
  0
LINE
  8
0
 62
9
  6
CONTINUOUS
 10
144.1006889621
 20
90.5656895218
 11
144.1006889621
 21
99.4023629946
  0
LINE
  8
0
 62
7
  6
CONTINUOUS
 10
144.1603886669
 20
82.4840262582
 11
144.1603886669
 21
82.2840262582
  0
LINE
  8
0
 62
7
  6
CONTINUOUS
 10
144.30062795
 20
82.4840262582
 11
144.30062795
 21
82.2840262582
  0
LINE
  8
0
 62
7
  6
CONTINUOUS
 10
144.4193737573
 20
82.4840262582
 11
144.4193737573
 21
82.2840262582
  0
LINE
  8
0
 62
7
  6
CONTINUOUS
 10
144.4410576251
 20
82.4840262582
 11
144.4410576251
 21
82.2840262582
  0
LINE
  8
0
 62
7
  6
CONTINUOUS
 10
144.5618506969
 20
82.4840262582
 11
144.5618506969
 21
82.2840262582
  0
LINE
  8
0
 62
7
  6
CONTINUOUS
 10
144.7662679145
 20
82.4840262582
 11
144.7662679145
 21
82.2840262582
  0
LINE
  8
0
 62
7
  6
CONTINUOUS
 10
144.918031106
 20
82.4840262582
 11
144.918031106
 21
82.2840262582
  0
LINE
  8
0
 62
9
  6
CONTINUOUS
 10
145.132119171
 20
90.6721117143
 11
145.132119171
 21
99.2959408021
  0
LINE
  8
0
 62
7
  6
CONTINUOUS
 10
145.2370426165
 20
82.4840262582
 11
145.2370426165
 21
82.2840262582
  0
LINE
  8
0
 62
9
  6
CONTINUOUS
 10
146.1429315231
 20
99.2748541932
 11
146.1429315231
 21
90.6931983232
  0
LINE
  8
0
 62
7
  6
CONTINUOUS
 10
146.9095253372
 20
82.4840262582
 11
146.9095253372
 21
82.2840262582
  0
LINE
  8
0
 62
7
  6
CONTINUOUS
 10
146.9869506771
 20
82.4840262582
 11
146.9869506771
 21
82.2840262582
  0
LINE
  8
0
 62
7
  6
CONTINUOUS
 10
147.2966520309
 20
82.4840262582
 11
147.2966520309
 21
82.2840262582
  0
LINE
  8
0
 62
7
  6
CONTINUOUS
 10
147.3740773874
 20
82.4840262582
 11
147.3740773874
 21
82.2840262582
  0
LINE
  8
0
 62
7
  6
CONTINUOUS
 10
147.5286092456
 20
82.4840262582
 11
147.5286092456
 21
82.2840262582
  0
LINE
  8
0
 62
7
  6
CONTINUOUS
 10
147.5749756673
 20
82.4840262582
 11
147.5749756673
 21
82.2840262582
  0
LINE
  8
0
 62
7
  6
CONTINUOUS
 10
147.6584352103
 20
82.4840262582
 11
147.6584352103
 21
82.2840262582
  0
LINE
  8
0
 62
7
  6
CONTINUOUS
 10
147.6955283582
 20
82.4840262582
 11
147.6955283582
 21
82.2840262582
  0
LINE
  8
0
 62
7
  6
CONTINUOUS
 10
147.8346689559
 20
82.4840262582
 11
147.8346689559
 21
82.2840262582
  0
LINE
  8
0
 62
7
  6
CONTINUOUS
 10
147.8608596799
 20
82.4840262582
 11
147.8608596799
 21
82.2840262582
  0
LINE
  8
0
 62
7
  6
CONTINUOUS
 10
148.2293089226
 20
82.4840262582
 11
148.2293089226
 21
82.2840262582
  0
LINE
  8
0
 62
7
  6
CONTINUOUS
 10
148.5528143026
 20
82.4840262582
 11
148.5528143026
 21
82.2840262582
  0
LINE
  8
0
 62
7
  6
CONTINUOUS
 10
148.68404994
 20
82.4840262582
 11
148.68404994
 21
82.2840262582
  0
LINE
  8
0
 62
7
  6
CONTINUOUS
 10
149.108740313
 20
82.4840262582
 11
149.108740313
 21
82.2840262582
  0
LINE
  8
0
 62
7
  6
CONTINUOUS
 10
149.134931037
 20
82.4840262582
 11
149.134931037
 21
82.2840262582
  0
POLYLINE
  8
0
 62
7
  6
CONTINUOUS
 66
1
 70
0
  0
VERTEX
  8
0
 62
7
  6
CONTINUOUS
 10
150.6260525423
 20
99.280665406
  0
VERTEX
  8
0
 62
7
  6
CONTINUOUS
 10
150.6231196959
 20
99.3347912513
  0
VERTEX
  8
0
 62
7
  6
CONTINUOUS
 10
150.6092675249
 20
99.4092523652
  0
VERTEX
  8
0
 62
7
  6
CONTINUOUS
 10
150.5849016202
 20
99.4795051916
  0
VERTEX
  8
0
 62
7
  6
CONTINUOUS
 10
150.5513949901
 20
99.5437934409
  0
VERTEX
  8
0
 62
7
  6
CONTINUOUS
 10
150.5104780633
 20
99.6007756821
  0
VERTEX
  8
0
 62
7
  6
CONTINUOUS
 10
150.4641303274
 20
99.6495736019
  0
VERTEX
  8
0
 62
7
  6
CONTINUOUS
 10
150.414508809
 20
99.6897711483
  0
VERTEX
  8
0
 62
7
  6
CONTINUOUS
 10
150.3636963719
 20
99.7215267811
  0
VERTEX
  8
0
 62
7
  6
CONTINUOUS
 10
150.3132134677
 20
99.7456314557
  0
VERTEX
  8
0
 62
7
  6
CONTINUOUS
 10
150.2651557037
 20
99.7628548724
  0
VERTEX
  8
0
 62
7
  6
CONTINUOUS
 10
150.2214137659
 20
99.7744935233
  0
VERTEX
  8
0
 62
7
  6
CONTINUOUS
 10
150.1817957779
 20
99.7824738477
  0
SEQEND
  0
LINE
  8
0
 62
9
  6
CONTINUOUS
 10
150.4480810954
 20
99.2748541932
 11
150.4480810954
 21
90.6931983232
  0
LINE
  8
0
 62
7
  6
CONTINUOUS
 10
150.6260527139
 20
99.2807654322
 11
150.6260527139
 21
90.6872870842
  0
LINE
  8
1_AXIS
 62
7
  6
CONTINUOUS
 10
153.2128008753
 20
105.4840262582
 11
153.2128008753
 21
101.9840262582
  0
LINE
  8
1_AXIS
 62
7
  6
CONTINUOUS
 10
153.2128008753
 20
87.9840262582
 11
153.2128008753
 21
84.4840262582
  0
POLYLINE
  8
0
 62
9
  6
CONTINUOUS
 66
1
 70
0
  0
VERTEX
  8
0
 62
9
  6
CONTINUOUS
 10
157.0825300728
 20
99.9726103293
  0
VERTEX
  8
0
 62
9
  6
CONTINUOUS
 10
157.0753262628
 20
99.9526079719
  0
VERTEX
  8
0
 62
9
  6
CONTINUOUS
 10
157.0659374464
 20
99.9011999607
  0
VERTEX
  8
0
 62
9
  6
CONTINUOUS
 10
157.054980367
 20
99.8217632443
  0
VERTEX
  8
0
 62
9
  6
CONTINUOUS
 10
157.0431747857
 20
99.7195159534
  0
VERTEX
  8
0
 62
9
  6
CONTINUOUS
 10
157.0312962012
 20
99.6011746259
  0
VERTEX
  8
0
 62
9
  6
CONTINUOUS
 10
157.0201249078
 20
99.4745130034
  0
SEQEND
  0
POLYLINE
  8
0
 62
9
  6
CONTINUOUS
 66
1
 70
0
  0
VERTEX
  8
0
 62
9
  6
CONTINUOUS
 10
157.0825300642
 20
89.9954422925
  0
VERTEX
  8
0
 62
9
  6
CONTINUOUS
 10
157.0753262579
 20
90.0154446745
  0
VERTEX
  8
0
 62
9
  6
CONTINUOUS
 10
157.0659374452
 20
90.0668526889
  0
VERTEX
  8
0
 62
9
  6
CONTINUOUS
 10
157.0549803691
 20
90.1462893888
  0
VERTEX
  8
0
 62
9
  6
CONTINUOUS
 10
157.0431747904
 20
90.2485366477
  0
VERTEX
  8
0
 62
9
  6
CONTINUOUS
 10
157.0312962073
 20
90.3668779338
  0
VERTEX
  8
0
 62
9
  6
CONTINUOUS
 10
157.0201249137
 20
90.493539513
  0
SEQEND
  0
POLYLINE
  8
0
 62
9
  6
CONTINUOUS
 66
1
 70
0
  0
VERTEX
  8
0
 62
9
  6
CONTINUOUS
 10
156.8098262284
 20
89.9840262582
  0
VERTEX
  8
0
 62
9
  6
CONTINUOUS
 10
156.8086337436
 20
90.0010634024
  0
VERTEX
  8
0
 62
9
  6
CONTINUOUS
 10
156.8075225257
 20
90.0510137264
  0
VERTEX
  8
0
 62
9
  6
CONTINUOUS
 10
156.8065683023
 20
90.1304731219
  0
SEQEND
  0
POLYLINE
  8
0
 62
9
  6
CONTINUOUS
 66
1
 70
0
  0
VERTEX
  8
0
 62
9
  6
CONTINUOUS
 10
156.8065683023
 20
90.1304731219
  0
VERTEX
  8
0
 62
9
  6
CONTINUOUS
 10
156.8053758214
 20
90.3546168935
  0
VERTEX
  8
0
 62
9
  6
CONTINUOUS
 10
156.8052188285
 20
90.4840262582
  0
SEQEND
  0
LINE
  8
0
 62
9
  6
CONTINUOUS
 10
153.9187841803
 20
90.4840262582
 11
153.9187841803
 21
99.4840262582
  0
LINE
  8
0
 62
9
  6
CONTINUOUS
 10
155.2543533496
 20
90.4840262582
 11
155.2543533496
 21
99.4840262582
  0
POLYLINE
  8
0
 62
9
  6
CONTINUOUS
 66
1
 70
0
  0
VERTEX
  8
0
 62
9
  6
CONTINUOUS
 10
156.8098262284
 20
99.9840262582
  0
VERTEX
  8
0
 62
9
  6
CONTINUOUS
 10
156.8086337494
 20
99.9669891666
  0
VERTEX
  8
0
 62
9
  6
CONTINUOUS
 10
156.8075225348
 20
99.917038945
  0
VERTEX
  8
0
 62
9
  6
CONTINUOUS
 10
156.806568312
 20
99.8375796245
  0
VERTEX
  8
0
 62
9
  6
CONTINUOUS
 10
156.8058361095
 20
99.7340262317
  0
VERTEX
  8
0
 62
9
  6
CONTINUOUS
 10
156.8052188285
 20
99.4840262582
  0
SEQEND
  0
POLYLINE
  8
0
 62
7
  6
CONTINUOUS
 66
1
 70
0
  0
VERTEX
  8
0
 62
7
  6
CONTINUOUS
 10
163.8825677797
 20
99.2748903815
  0
VERTEX
  8
0
 62
7
  6
CONTINUOUS
 10
163.882003148
 20
99.2986457112
  0
VERTEX
  8
0
 62
7
  6
CONTINUOUS
 10
163.8793855105
 20
99.3312125073
  0
VERTEX
  8
0
 62
7
  6
CONTINUOUS
 10
163.8746880862
 20
99.3633082361
  0
VERTEX
  8
0
 62
7
  6
CONTINUOUS
 10
163.8679811855
 20
99.3947821988
  0
VERTEX
  8
0
 62
7
  6
CONTINUOUS
 10
163.8593479769
 20
99.4254925394
  0
VERTEX
  8
0
 62
7
  6
CONTINUOUS
 10
163.8488833854
 20
99.4553073979
  0
VERTEX
  8
0
 62
7
  6
CONTINUOUS
 10
163.8366928878
 20
99.4841059165
  0
VERTEX
  8
0
 62
7
  6
CONTINUOUS
 10
163.8228912253
 20
99.5117790877
  0
VERTEX
  8
0
 62
7
  6
CONTINUOUS
 10
163.8076010539
 20
99.5382304388
  0
VERTEX
  8
0
 62
7
  6
CONTINUOUS
 10
163.7909515562
 20
99.5633765472
  0
VERTEX
  8
0
 62
7
  6
CONTINUOUS
 10
163.7730770237
 20
99.5871474046
  0
VERTEX
  8
0
 62
7
  6
CONTINUOUS
 10
163.754115371
 20
99.6094866827
  0
VERTEX
  8
0
 62
7
  6
CONTINUOUS
 10
163.7342070593
 20
99.6303514013
  0
VERTEX
  8
0
 62
7
  6
CONTINUOUS
 10
163.7134935579
 20
99.6497121017
  0
VERTEX
  8
0
 62
7
  6
CONTINUOUS
 10
163.6921159605
 20
99.6675526427
  0
VERTEX
  8
0
 62
7
  6
CONTINUOUS
 10
163.6702137403
 20
99.6838697726
  0
VERTEX
  8
0
 62
7
  6
CONTINUOUS
 10
163.6479236495
 20
99.698672541
  0
VERTEX
  8
0
 62
7
  6
CONTINUOUS
 10
163.6253789133
 20
99.7119815184
  0
VERTEX
  8
0
 62
7
  6
CONTINUOUS
 10
163.6027082831
 20
99.7238281379
  0
VERTEX
  8
0
 62
7
  6
CONTINUOUS
 10
163.5800370143
 20
99.7342531635
  0
VERTEX
  8
0
 62
7
  6
CONTINUOUS
 10
163.5574902869
 20
99.7433048361
  0
VERTEX
  8
0
 62
7
  6
CONTINUOUS
 10
163.5351788223
 20
99.7510439507
  0
VERTEX
  8
0
 62
7
  6
CONTINUOUS
 10
163.5132126426
 20
99.7575369879
  0
VERTEX
  8
0
 62
7
  6
CONTINUOUS
 10
163.4918290594
 20
99.7628282469
  0
VERTEX
  8
0
 62
7
  6
CONTINUOUS
 10
163.47193151
 20
99.7668713014
  0
VERTEX
  8
0
 62
7
  6
CONTINUOUS
 10
163.4548043687
 20
99.7696949167
  0
VERTEX
  8
0
 62
7
  6
CONTINUOUS
 10
163.4424613917
 20
99.7713737791
  0
VERTEX
  8
0
 62
7
  6
CONTINUOUS
 10
163.4338578207
 20
99.7723917434
  0
VERTEX
  8
0
 62
7
  6
CONTINUOUS
 10
163.4262834407
 20
99.7732140564
  0
VERTEX
  8
0
 62
7
  6
CONTINUOUS
 10
163.409098263
 20
99.7749497611
  0
SEQEND
  0
POLYLINE
  8
0
 62
7
  6
CONTINUOUS
 66
1
 70
0
  0
VERTEX
  8
0
 62
7
  6
CONTINUOUS
 10
161.9296505217
 20
99.2757393965
  0
VERTEX
  8
0
 62
7
  6
CONTINUOUS
 10
161.9295353643
 20
99.2864716979
  0
VERTEX
  8
0
 62
7
  6
CONTINUOUS
 10
161.9249288554
 20
99.3443020603
  0
SEQEND
  0
LINE
  8
0
 62
9
  6
CONTINUOUS
 10
157.8074377253
 20
90.5656895218
 11
157.8074377253
 21
99.4023629946
  0
LINE
  8
0
 62
9
  6
CONTINUOUS
 10
159.0309436854
 20
90.6721117143
 11
159.0309436854
 21
99.2959408021
  0
LINE
  8
0
 62
9
  6
CONTINUOUS
 10
159.9143207744
 20
99.2748541932
 11
159.9143207744
 21
90.6931983232
  0
LINE
  8
0
 62
9
  6
CONTINUOUS
 10
161.9025191448
 20
99.2748541932
 11
161.9025191448
 21
90.6931983232
  0
LINE
  8
0
 62
7
  6
CONTINUOUS
 10
161.9296504268
 20
99.2758474125
 11
161.9296504268
 21
90.692205104
  0
LINE
  8
0
 62
9
  6
CONTINUOUS
 10
162.0742778003
 20
90.5656895218
 11
162.0742778003
 21
99.4023629946
  0
LINE
  8
0
 62
9
  6
CONTINUOUS
 10
163.278304216
 20
90.6721117143
 11
163.278304216
 21
99.2959408021
  0
LINE
  8
0
 62
7
  6
CONTINUOUS
 10
163.8825727188
 20
99.2749865007
 11
163.8825727188
 21
90.6930660157
  0
LINE
  8
0
 62
7
  6
CONTINUOUS
 10
161.9272996284
 20
90.6438765928
 11
161.9296505218
 21
90.6923131103
  0
LINE
  8
0
 62
9
  6
CONTINUOUS
 10
161.2952744527
 20
90.1462893877
 11
161.3006754458
 21
90.1735375159
  0
LINE
  8
0
 62
9
  6
CONTINUOUS
 10
161.2952744993
 20
99.8217632443
 11
161.3006755165
 21
99.7945149957
  0
POLYLINE
  8
0
 62
7
  6
CONTINUOUS
 66
1
 70
0
  0
VERTEX
  8
0
 62
7
  6
CONTINUOUS
 10
161.9249288554
 20
99.3443020603
  0
VERTEX
  8
0
 62
7
  6
CONTINUOUS
 10
161.91386526
 20
99.4004031997
  0
VERTEX
  8
0
 62
7
  6
CONTINUOUS
 10
161.8968025083
 20
99.4540078987
  0
VERTEX
  8
0
 62
7
  6
CONTINUOUS
 10
161.8742973122
 20
99.5044484327
  0
VERTEX
  8
0
 62
7
  6
CONTINUOUS
 10
161.8469848046
 20
99.5511684896
  0
VERTEX
  8
0
 62
7
  6
CONTINUOUS
 10
161.8155576382
 20
99.5937303495
  0
VERTEX
  8
0
 62
7
  6
CONTINUOUS
 10
161.7807376204
 20
99.6318257939
  0
VERTEX
  8
0
 62
7
  6
CONTINUOUS
 10
161.743290009
 20
99.6652415247
  0
VERTEX
  8
0
 62
7
  6
CONTINUOUS
 10
161.7039760716
 20
99.6938972502
  0
VERTEX
  8
0
 62
7
  6
CONTINUOUS
 10
161.6635121317
 20
99.717846714
  0
VERTEX
  8
0
 62
7
  6
CONTINUOUS
 10
161.6225793678
 20
99.7372444851
  0
VERTEX
  8
0
 62
7
  6
CONTINUOUS
 10
161.5824781728
 20
99.752127827
  0
VERTEX
  8
0
 62
7
  6
CONTINUOUS
 10
161.5452861582
 20
99.7626654319
  0
SEQEND
  0
ARC
  8
0
 62
7
  6
CONTINUOUS
 10
56.7112682072
 20
167.2562575064
 40
6.2
 50
88.058871156
 51
111.838
  0
ARC
  8
0
 62
7
  6
CONTINUOUS
 10
59.8461744096
 20
163.7745914452
 40
6.2
 50
332.162
 51
355.941128844
  0
ARC
  8
0
 62
7
  6
CONTINUOUS
 10
56.8535331645
 20
171.4538473723
 40
2.0
 50
36.6723979408
 51
88.058871156
  0
ARC
  8
0
 62
7
  6
CONTINUOUS
 10
64.0356401764
 20
163.477309442
 40
2.0
 50
355.941128844
 51
47.3276020592
  0
ARC
  8
0
 62
7
  6
CONTINUOUS
 10
52.9547269723
 20
173.2920160932
 40
0.8
 50
213.0354765661
 51
291.838
  0
ARC
  8
0
 62
7
  6
CONTINUOUS
 10
70.5928284464
 20
155.675743527
 40
0.8
 50
237.0354765661
 51
315.838
  0
ARC
  8
0
 62
7
  6
CONTINUOUS
 10
65.4562029969
 20
159.4077203665
 40
0.8
 50
152.162
 51
230.9645234339
  0
ARC
  8
0
 62
7
  6
CONTINUOUS
 10
44.9835100519
 20
189.5174812486
 40
6.2
 50
64.058871156
 51
87.838
  0
ARC
  8
0
 62
7
  6
CONTINUOUS
 10
46.4312682072
 20
185.0617398082
 40
6.2
 50
308.162
 51
331.941128844
  0
ARC
  8
SQ
 62
2
  6
PHANTOM
 10
69.142869796
 20
197.4056436183
 40
3.2
 50
179.7249131549
 51
225.0
  0
ARC
  8
SQ
 62
2
  6
PHANTOM
 10
63.7429320343
 20
197.431569843
 40
2.2
 50
359.7249131549
 51
45.0
  0
ARC
  8
SQ
 62
2
  6
PHANTOM
 10
59.5002913471
 20
201.6742105301
 40
2.2
 50
45.0
 51
77.7637577589
  0
ARC
  8
0
 62
7
  6
CONTINUOUS
 10
46.8207891684
 20
193.2943060325
 40
2.0
 50
12.6723979408
 51
64.058871156
  0
ARC
  8
0
 62
7
  6
CONTINUOUS
 10
50.1376201443
 20
183.0861499423
 40
2.0
 50
331.941128844
 51
23.3276020592
  0
ARC
  8
0
 62
7
  6
CONTINUOUS
 10
44.0067030563
 20
196.5593440605
 40
0.8
 50
189.0354765661
 51
267.838
  0
ARC
  8
0
 62
7
  6
CONTINUOUS
 10
43.3430290317
 20
202.8737806092
 40
0.8
 50
104.162
 51
182.9645234339
  0
ARC
  8
0
 62
7
  6
CONTINUOUS
 10
49.780117857
 20
178.790600375
 40
0.8
 50
128.162
 51
206.9645234339
  0
ARC
  8
0
 62
7
  6
CONTINUOUS
 10
76.479563814
 20
151.689726658
 40
6.2
 50
112.058871156
 51
135.838
  0
ARC
  8
0
 62
7
  6
CONTINUOUS
 10
100.8702789725
 20
145.5094833047
 40
6.2
 50
136.058871156
 51
159.838
  0
ARC
  8
0
 62
7
  6
CONTINUOUS
 10
80.7595643014
 20
149.7841476679
 40
6.2
 50
356.162
 51
19.941128844
  0
ARC
  8
SQ
 62
2
  6
PHANTOM
 10
94.644193049
 20
171.9043203653
 40
3.2
 50
225.0
 51
270.2750868451
  0
ARC
  8
SQ
 62
2
  6
PHANTOM
 10
98.9127599608
 20
162.2617419165
 40
2.2
 50
12.2362422411
 51
45.0
  0
ARC
  8
SQ
 62
2
  6
PHANTOM
 10
94.6701192737
 20
166.5043826036
 40
2.2
 50
45.0
 51
90.2750868451
  0
ARC
  8
0
 62
7
  6
CONTINUOUS
 10
74.9022157084
 20
155.5822801842
 40
2.0
 50
60.6723979408
 51
112.058871156
  0
ARC
  8
0
 62
7
  6
CONTINUOUS
 10
97.8460556213
 20
148.4239426237
 40
2.0
 50
84.6723979408
 51
136.058871156
  0
ARC
  8
0
 62
7
  6
CONTINUOUS
 10
84.7077472066
 20
151.2165762865
 40
2.0
 50
19.941128844
 51
71.3276020592
  0
ARC
  8
0
 62
7
  6
CONTINUOUS
 10
93.8712194966
 20
146.7565399273
 40
0.8
 50
261.0354765661
 51
339.838
  0
ARC
  8
0
 62
7
  6
CONTINUOUS
 10
87.6607469178
 20
148.076616625
 40
0.8
 50
176.162
 51
254.9645234339
  0
ARC
  8
0
 62
7
  6
CONTINUOUS
 10
43.3241252764
 20
214.6242300628
 40
6.2
 50
40.058871156
 51
63.838
  0
ARC
  8
0
 62
7
  6
CONTINUOUS
 10
49.6775146808
 20
234.1779520378
 40
6.2
 50
260.162
 51
283.941128844
  0
ARC
  8
0
 62
7
  6
CONTINUOUS
 10
42.8344048471
 20
209.9648514174
 40
6.2
 50
284.162
 51
307.941128844
  0
ARC
  8
SQ
 62
2
  6
PHANTOM
 10
69.142869796
 20
214.5428592709
 40
3.2
 50
135.0
 51
180.2750868451
  0
ARC
  8
SQ
 62
2
  6
PHANTOM
 10
60.4328406135
 20
205.9742514446
 40
2.2
 50
102.2362422411
 51
257.7637577589
  0
ARC
  8
SQ
 62
2
  6
PHANTOM
 10
59.5002913471
 20
210.274292359
 40
2.2
 50
282.2362422411
 51
315.0
  0
ARC
  8
SQ
 62
2
  6
PHANTOM
 10
63.7429320343
 20
214.5169330461
 40
2.2
 50
315.0
 51
0.2750868451
  0
ARC
  8
0
 62
7
  6
CONTINUOUS
 10
46.5387363018
 20
217.3272424481
 40
2.0
 50
348.6723979408
 51
40.058871156
  0
ARC
  8
0
 62
7
  6
CONTINUOUS
 10
50.6893988138
 20
230.1016681295
 40
2.0
 50
283.941128844
 51
335.3276020592
  0
ARC
  8
0
 62
7
  6
CONTINUOUS
 10
45.4167810336
 20
206.6525511243
 40
2.0
 50
307.941128844
 51
359.3276020592
  0
ARC
  8
0
 62
7
  6
CONTINUOUS
 10
45.2959513237
 20
221.4545950462
 40
0.8
 50
165.0354765661
 51
243.838
  0
ARC
  8
0
 62
7
  6
CONTINUOUS
 10
47.257967658
 20
227.4930604178
 40
0.8
 50
80.162
 51
158.9645234339
  0
ARC
  8
0
 62
7
  6
CONTINUOUS
 10
69.5676419084
 20
256.2681762584
 40
6.2
 50
352.058871156
 51
15.838
  0
ARC
  8
0
 62
7
  6
CONTINUOUS
 10
52.0200365836
 20
238.2353189913
 40
6.2
 50
16.058871156
 51
39.838
  0
ARC
  8
0
 62
7
  6
CONTINUOUS
 10
65.7773618503
 20
253.5143766031
 40
6.2
 50
236.162
 51
259.941128844
  0
ARC
  8
0
 62
7
  6
CONTINUOUS
 10
56.0561440677
 20
239.3971435806
 40
2.0
 50
324.6723979408
 51
16.058871156
  0
ARC
  8
0
 62
7
  6
CONTINUOUS
 10
65.0437899706
 20
249.3789355991
 40
2.0
 50
259.941128844
 51
311.3276020592
  0
ARC
  8
0
 62
7
  6
CONTINUOUS
 10
56.5995490367
 20
243.6731539887
 40
0.8
 50
141.0354765661
 51
219.838
  0
ARC
  8
0
 62
7
  6
CONTINUOUS
 10
60.8480052812
 20
248.3915426626
 40
0.8
 50
56.162
 51
134.9645234339
  0
ARC
  8
0
 62
7
  6
CONTINUOUS
 10
92.9328008753
 20
265.6047570192
 40
6.2
 50
328.058871156
 51
351.838
  0
ARC
  8
0
 62
7
  6
CONTINUOUS
 10
88.3501365175
 20
264.63068164
 40
6.2
 50
212.162
 51
235.941128844
  0
ARC
  8
SQ
 62
2
  6
PHANTOM
 10
94.644193049
 20
240.0441825238
 40
3.2
 50
89.7249131549
 51
135.0
  0
ARC
  8
SQ
 62
2
  6
PHANTOM
 10
94.6701192737
 20
245.4441202856
 40
2.2
 50
269.7249131549
 51
315.0
  0
ARC
  8
SQ
 62
2
  6
PHANTOM
 10
98.9127599608
 20
249.6867609727
 40
2.2
 50
315.0
 51
347.7637577589
  0
ARC
  8
0
 62
7
  6
CONTINUOUS
 10
96.4968878551
 20
263.3827570192
 40
2.0
 50
276.6723979408
 51
328.058871156
  0
ARC
  8
0
 62
7
  6
CONTINUOUS
 10
73.7273662004
 20
255.6879230253
 40
2.0
 50
300.6723979408
 51
352.058871156
  0
ARC
  8
0
 62
7
  6
CONTINUOUS
 10
85.9979498673
 20
261.1511388593
 40
2.0
 50
235.941128844
 51
287.3276020592
  0
ARC
  8
0
 62
7
  6
CONTINUOUS
 10
100.03819176
 20
265.8401378655
 40
0.8
 50
93.0354765661
 51
171.838
  0
ARC
  8
0
 62
7
  6
CONTINUOUS
 10
75.9630014606
 20
259.3732301976
 40
0.8
 50
117.0354765661
 51
195.838
  0
ARC
  8
0
 62
7
  6
CONTINUOUS
 10
81.7633009347
 20
261.9556899068
 40
0.8
 50
32.162
 51
110.9645234339
  0
ARC
  8
0
 62
7
  6
CONTINUOUS
 10
125.6660374491
 20
149.7841476679
 40
6.2
 50
160.058871156
 51
183.838
  0
ARC
  8
0
 62
7
  6
CONTINUOUS
 10
105.5553227781
 20
145.5094833047
 40
6.2
 50
20.162
 51
43.941128844
  0
ARC
  8
0
 62
7
  6
CONTINUOUS
 10
129.9460379366
 20
151.689726658
 40
6.2
 50
44.162
 51
67.941128844
  0
ARC
  8
SQ
 62
2
  6
PHANTOM
 10
111.7814087016
 20
171.9043203653
 40
3.2
 50
269.7249131549
 51
315.0
  0
ARC
  8
SQ
 62
2
  6
PHANTOM
 10
111.7554824768
 20
166.5043826036
 40
2.2
 50
89.7249131549
 51
135.0
  0
ARC
  8
SQ
 62
2
  6
PHANTOM
 10
107.5128417897
 20
162.2617419165
 40
2.2
 50
135.0
 51
167.7637577589
  0
ARC
  8
SQ
 62
2
  6
PHANTOM
 10
103.2128008753
 20
163.1942911828
 40
2.2
 50
192.2362422411
 51
347.7637577589
  0
ARC
  8
0
 62
7
  6
CONTINUOUS
 10
121.717854544
 20
151.2165762865
 40
2.0
 50
108.6723979408
 51
160.058871156
  0
ARC
  8
0
 62
7
  6
CONTINUOUS
 10
108.5795461292
 20
148.4239426237
 40
2.0
 50
43.941128844
 51
95.3276020592
  0
ARC
  8
0
 62
7
  6
CONTINUOUS
 10
131.5233860421
 20
155.5822801842
 40
2.0
 50
67.941128844
 51
119.3276020592
  0
ARC
  8
0
 62
7
  6
CONTINUOUS
 10
118.7648548327
 20
148.076616625
 40
0.8
 50
285.0354765661
 51
3.838
  0
ARC
  8
0
 62
7
  6
CONTINUOUS
 10
112.554382254
 20
146.7565399273
 40
0.8
 50
200.162
 51
278.9645234339
  0
ARC
  8
0
 62
7
  6
CONTINUOUS
 10
146.5794273409
 20
163.7745914452
 40
6.2
 50
184.058871156
 51
207.838
  0
ARC
  8
0
 62
7
  6
CONTINUOUS
 10
149.7143335434
 20
167.2562575064
 40
6.2
 50
68.162
 51
91.941128844
  0
ARC
  8
0
 62
7
  6
CONTINUOUS
 10
142.3899615742
 20
163.477309442
 40
2.0
 50
132.6723979408
 51
184.058871156
  0
ARC
  8
0
 62
7
  6
CONTINUOUS
 10
149.5720685861
 20
171.4538473723
 40
2.0
 50
91.941128844
 51
143.3276020592
  0
ARC
  8
0
 62
7
  6
CONTINUOUS
 10
140.9693987537
 20
159.4077203665
 40
0.8
 50
309.0354765661
 51
27.838
  0
ARC
  8
0
 62
7
  6
CONTINUOUS
 10
135.8327733042
 20
155.675743527
 40
0.8
 50
224.162
 51
302.9645234339
  0
ARC
  8
0
 62
7
  6
CONTINUOUS
 10
153.4708747782
 20
173.2920160932
 40
0.8
 50
248.162
 51
326.9645234339
  0
ARC
  8
0
 62
7
  6
CONTINUOUS
 10
159.9943335434
 20
185.0617398082
 40
6.2
 50
208.058871156
 51
231.838
  0
ARC
  8
0
 62
7
  6
CONTINUOUS
 10
161.4420916987
 20
189.5174812486
 40
6.2
 50
92.162
 51
115.941128844
  0
ARC
  8
SQ
 62
2
  6
PHANTOM
 10
137.2827319545
 20
197.4056436183
 40
3.2
 50
315.0
 51
0.2750868451
  0
ARC
  8
SQ
 62
2
  6
PHANTOM
 10
146.9253104034
 20
201.6742105301
 40
2.2
 50
102.2362422411
 51
135.0
  0
ARC
  8
SQ
 62
2
  6
PHANTOM
 10
142.6826697163
 20
197.431569843
 40
2.2
 50
135.0
 51
180.2750868451
  0
ARC
  8
0
 62
7
  6
CONTINUOUS
 10
156.2879816062
 20
183.0861499423
 40
2.0
 50
156.6723979408
 51
208.058871156
  0
ARC
  8
0
 62
7
  6
CONTINUOUS
 10
159.6048125821
 20
193.2943060325
 40
2.0
 50
115.941128844
 51
167.3276020592
  0
ARC
  8
0
 62
7
  6
CONTINUOUS
 10
156.6454838935
 20
178.790600375
 40
0.8
 50
333.0354765661
 51
51.838
  0
ARC
  8
0
 62
7
  6
CONTINUOUS
 10
162.4188986942
 20
196.5593440605
 40
0.8
 50
272.162
 51
350.9645234339
  0
ARC
  8
0
 62
7
  6
CONTINUOUS
 10
163.0825727188
 20
202.8737806092
 40
0.8
 50
357.0354765661
 51
75.838
  0
ARC
  8
0
 62
7
  6
CONTINUOUS
 10
103.2128008753
 20
205.9742514446
 40
60.75
 50
86.9645234339
 51
93.0354765661
  0
ARC
  8
0
 62
7
  6
CONTINUOUS
 10
103.2128008753
 20
205.9742514446
 40
60.75
 50
110.9645234339
 51
117.0354765661
  0
ARC
  8
0
 62
7
  6
CONTINUOUS
 10
103.2128008753
 20
205.9742514446
 40
60.75
 50
134.9645234339
 51
141.0354765661
  0
ARC
  8
0
 62
7
  6
CONTINUOUS
 10
103.2128008753
 20
205.9742514446
 40
60.75
 50
158.9645234339
 51
165.0354765661
  0
ARC
  8
0
 62
7
  6
CONTINUOUS
 10
103.2128008753
 20
205.9742514446
 40
60.75
 50
182.9645234339
 51
189.0354765661
  0
ARC
  8
0
 62
7
  6
CONTINUOUS
 10
103.2128008753
 20
205.9742514446
 40
60.75
 50
206.9645234339
 51
213.0354765661
  0
ARC
  8
0
 62
7
  6
CONTINUOUS
 10
103.2128008753
 20
205.9742514446
 40
60.75
 50
230.9645234339
 51
237.0354765661
  0
ARC
  8
0
 62
7
  6
CONTINUOUS
 10
103.2128008753
 20
205.9742514446
 40
60.75
 50
254.9645234339
 51
261.0354765661
  0
ARC
  8
0
 62
7
  6
CONTINUOUS
 10
103.2128008753
 20
205.9742514446
 40
60.75
 50
278.9645234339
 51
285.0354765661
  0
ARC
  8
0
 62
7
  6
CONTINUOUS
 10
103.2128008753
 20
205.9742514446
 40
60.75
 50
302.9645234339
 51
309.0354765661
  0
ARC
  8
0
 62
7
  6
CONTINUOUS
 10
103.2128008753
 20
205.9742514446
 40
60.75
 50
326.9645234339
 51
333.0354765661
  0
ARC
  8
0
 62
7
  6
CONTINUOUS
 10
103.2128008753
 20
205.9742514446
 40
60.75
 50
350.9645234339
 51
357.0354765661
  0
ARC
  8
0
 62
7
  6
CONTINUOUS
 10
103.2128008753
 20
205.9742514446
 40
60.75
 50
14.9645234339
 51
21.0354765661
  0
ARC
  8
0
 62
7
  6
CONTINUOUS
 10
103.2128008753
 20
205.9742514446
 40
60.75
 50
38.9645234339
 51
45.0354765661
  0
ARC
  8
0
 62
7
  6
CONTINUOUS
 10
103.2128008753
 20
205.9742514446
 40
60.75
 50
62.9645234339
 51
69.0354765661
  0
ARC
  8
0
 62
7
  6
CONTINUOUS
 10
103.2128008753
 20
205.9742514446
 40
55.8
 50
96.6723979408
 51
107.3276020592
  0
ARC
  8
0
 62
7
  6
CONTINUOUS
 10
103.2128008753
 20
205.9742514446
 40
55.8
 50
72.6723979408
 51
83.3276020592
  0
ARC
  8
0
 62
7
  6
CONTINUOUS
 10
103.2128008753
 20
205.9742514446
 40
55.8
 50
120.6723979408
 51
131.3276020592
  0
ARC
  8
0
 62
7
  6
CONTINUOUS
 10
103.2128008753
 20
205.9742514446
 40
55.8
 50
144.6723979408
 51
155.3276020592
  0
ARC
  8
0
 62
7
  6
CONTINUOUS
 10
103.2128008753
 20
205.9742514446
 40
55.8
 50
168.6723979408
 51
179.3276020592
  0
ARC
  8
0
 62
7
  6
CONTINUOUS
 10
103.2128008753
 20
205.9742514446
 40
55.8
 50
192.6723979408
 51
203.3276020592
  0
ARC
  8
0
 62
7
  6
CONTINUOUS
 10
103.2128008753
 20
205.9742514446
 40
55.8
 50
216.6723979408
 51
227.3276020592
  0
ARC
  8
0
 62
7
  6
CONTINUOUS
 10
103.2128008753
 20
205.9742514446
 40
55.8
 50
240.6723979408
 51
251.3276020592
  0
ARC
  8
0
 62
7
  6
CONTINUOUS
 10
103.2128008753
 20
205.9742514446
 40
55.8
 50
264.6723979408
 51
275.3276020592
  0
ARC
  8
0
 62
7
  6
CONTINUOUS
 10
103.2128008753
 20
205.9742514446
 40
55.8
 50
288.6723979408
 51
299.3276020592
  0
ARC
  8
0
 62
7
  6
CONTINUOUS
 10
103.2128008753
 20
205.9742514446
 40
55.8
 50
48.6723979408
 51
59.3276020592
  0
ARC
  8
0
 62
7
  6
CONTINUOUS
 10
103.2128008753
 20
205.9742514446
 40
55.8
 50
312.6723979408
 51
323.3276020592
  0
ARC
  8
0
 62
7
  6
CONTINUOUS
 10
103.2128008753
 20
205.9742514446
 40
55.8
 50
336.6723979408
 51
347.3276020592
  0
ARC
  8
0
 62
7
  6
CONTINUOUS
 10
103.2128008753
 20
205.9742514446
 40
55.8
 50
24.6723979408
 51
35.3276020592
  0
ARC
  8
0
 62
7
  6
CONTINUOUS
 10
103.2128008753
 20
205.9742514446
 40
55.8
 50
0.6723979408
 51
11.3276020592
  0
CIRCLE
  8
1_AXIS
 62
7
  6
CONTINUOUS
 10
103.2128008753
 20
205.9742514446
 40
50.0
  0
CIRCLE
  8
SQ
 62
2
  6
PHANTOM
 10
103.2128008753
 20
205.9742514446
 40
8.0
  0
ARC
  8
0
 62
7
  6
CONTINUOUS
 10
113.4928008753
 20
265.6047570192
 40
6.2
 50
188.162
 51
211.941128844
  0
ARC
  8
0
 62
7
  6
CONTINUOUS
 10
118.075465233
 20
264.63068164
 40
6.2
 50
304.058871156
 51
327.838
  0
ARC
  8
SQ
 62
2
  6
PHANTOM
 10
111.7814087016
 20
240.0441825238
 40
3.2
 50
45.0
 51
90.2750868451
  0
ARC
  8
SQ
 62
2
  6
PHANTOM
 10
103.2128008753
 20
248.7542117064
 40
2.2
 50
12.2362422411
 51
167.7637577589
  0
ARC
  8
SQ
 62
2
  6
PHANTOM
 10
107.5128417897
 20
249.6867609727
 40
2.2
 50
192.2362422411
 51
225.0
  0
ARC
  8
SQ
 62
2
  6
PHANTOM
 10
111.7554824768
 20
245.4441202856
 40
2.2
 50
225.0
 51
270.2750868451
  0
ARC
  8
0
 62
7
  6
CONTINUOUS
 10
109.9287138954
 20
263.3827570192
 40
2.0
 50
211.941128844
 51
263.3276020592
  0
ARC
  8
0
 62
7
  6
CONTINUOUS
 10
132.6982355501
 20
255.6879230253
 40
2.0
 50
187.941128844
 51
239.3276020592
  0
ARC
  8
0
 62
7
  6
CONTINUOUS
 10
120.4276518832
 20
261.1511388593
 40
2.0
 50
252.6723979408
 51
304.058871156
  0
CIRCLE
  8
0
 62
7
  6
CONTINUOUS
 10
103.2128008753
 20
258.9742514446
 40
0.8660254038
  0
ARC
  8
0
 62
7
  6
CONTINUOUS
 10
106.3874099906
 20
265.8401378655
 40
0.8
 50
8.162
 51
86.9645234339
  0
ARC
  8
0
 62
7
  6
CONTINUOUS
 10
130.4626002899
 20
259.3732301976
 40
0.8
 50
344.162
 51
62.9645234339
  0
ARC
  8
0
 62
7
  6
CONTINUOUS
 10
124.6623008158
 20
261.9556899068
 40
0.8
 50
69.0354765661
 51
147.838
  0
ARC
  8
0
 62
7
  6
CONTINUOUS
 10
163.1014764741
 20
214.6242300628
 40
6.2
 50
116.162
 51
139.941128844
  0
ARC
  8
0
 62
7
  6
CONTINUOUS
 10
156.7480870698
 20
234.1779520378
 40
6.2
 50
256.058871156
 51
279.838
  0
ARC
  8
0
 62
7
  6
CONTINUOUS
 10
163.5911969035
 20
209.9648514174
 40
6.2
 50
232.058871156
 51
255.838
  0
ARC
  8
SQ
 62
2
  6
PHANTOM
 10
137.2827319545
 20
214.5428592709
 40
3.2
 50
359.7249131549
 51
45.0
  0
ARC
  8
SQ
 62
2
  6
PHANTOM
 10
142.6826697163
 20
214.5169330461
 40
2.2
 50
179.7249131549
 51
225.0
  0
ARC
  8
SQ
 62
2
  6
PHANTOM
 10
146.9253104034
 20
210.274292359
 40
2.2
 50
236.4007820184
 51
257.7637577589
  0
ARC
  8
SQ
 62
2
  6
PHANTOM
 10
145.9927611371
 20
205.9742514446
 40
2.2
 50
282.2362422411
 51
77.7637577589
  0
ARC
  8
0
 62
7
  6
CONTINUOUS
 10
159.8868654487
 20
217.3272424481
 40
2.0
 50
139.941128844
 51
191.3276020592
  0
ARC
  8
0
 62
7
  6
CONTINUOUS
 10
155.7362029368
 20
230.1016681295
 40
2.0
 50
204.6723979408
 51
256.058871156
  0
ARC
  8
0
 62
7
  6
CONTINUOUS
 10
161.008820717
 20
206.6525511243
 40
2.0
 50
180.6723979408
 51
232.058871156
  0
ARC
  8
0
 62
7
  6
CONTINUOUS
 10
161.1296504268
 20
221.4545950462
 40
0.8
 50
296.162
 51
14.9645234339
  0
ARC
  8
0
 62
7
  6
CONTINUOUS
 10
159.1676340926
 20
227.4930604178
 40
0.8
 50
21.0354765661
 51
99.838
  0
ARC
  8
0
 62
7
  6
CONTINUOUS
 10
136.8579598422
 20
256.2681762584
 40
6.2
 50
164.162
 51
187.941128844
  0
ARC
  8
0
 62
7
  6
CONTINUOUS
 10
154.405565167
 20
238.2353189913
 40
6.2
 50
140.162
 51
163.941128844
  0
ARC
  8
0
 62
7
  6
CONTINUOUS
 10
140.6482399002
 20
253.5143766031
 40
6.2
 50
280.058871156
 51
303.838
  0
ARC
  8
0
 62
7
  6
CONTINUOUS
 10
150.3694576828
 20
239.3971435806
 40
2.0
 50
163.941128844
 51
215.3276020592
  0
ARC
  8
0
 62
7
  6
CONTINUOUS
 10
141.38181178
 20
249.3789355991
 40
2.0
 50
228.6723979408
 51
280.058871156
  0
ARC
  8
0
 62
7
  6
CONTINUOUS
 10
149.8260527139
 20
243.6731539887
 40
0.8
 50
320.162
 51
38.9645234339
  0
ARC
  8
0
 62
7
  6
CONTINUOUS
 10
145.5775964694
 20
248.3915426626
 40
0.8
 50
45.0354765661
 51
123.838
  0
ARC
  8
1_AXIS
 62
7
  6
CONTINUOUS
 10
151.2128008753
 20
105.4840262582
 40
2.0
 50
0.0
 51
90.0
  0
ARC
  8
1_AXIS
 62
7
  6
CONTINUOUS
 10
155.2128008753
 20
101.9840262582
 40
2.0
 50
180.0
 51
270.0
  0
ARC
  8
1_AXIS
 62
7
  6
CONTINUOUS
 10
155.2128008753
 20
87.9840262582
 40
2.0
 50
90.0
 51
180.0
  0
ARC
  8
1_AXIS
 62
7
  6
CONTINUOUS
 10
151.2128008753
 20
84.4840262582
 40
2.0
 50
270.0
 51
360.0
  0
ARC
  8
1_AXIS
 62
7
  6
CONTINUOUS
 10
55.2128008753
 20
105.4840262582
 40
2.0
 50
90.0
 51
180.0
  0
ARC
  8
1_AXIS
 62
7
  6
CONTINUOUS
 10
51.2128008753
 20
101.9840262582
 40
2.0
 50
270.0
 51
360.0
  0
ARC
  8
1_AXIS
 62
7
  6
CONTINUOUS
 10
51.2128008753
 20
87.9840262582
 40
2.0
 50
0.0
 51
90.0
  0
ARC
  8
1_AXIS
 62
7
  6
CONTINUOUS
 10
55.2128008753
 20
84.4840262582
 40
2.0
 50
180.0
 51
270.0
  0
ENDSEC
  0
EOF
