  0
SECTION
  2
HEADER
  9
$EXTMAX
 10
210.0
 20
297.0
 30
0.0
  9
$EXTMIN
 10
0.0
 20
0.0
 30
0.0
  9
$LIMMIN
 10
0.0
 20
0.0
  9
$LIMMAX
 10
210.0
 20
297.0
  9
$VIEWCTR
 10
105.0
 20
148.5
  9
$VIEWSIZE
 40
297.0
  9
$CLAYER
  8
0
  9
$LTSCALE
 40
19.36
  9
$CELTYPE
  6
BYLAYER
  9
$DIMSCALE
 40
1.0
  9
$DIMASZ
 40
3.5
  9
$DIMEXO
 40
2.2
  9
$DIMDLI
 40
13.376
  9
$DIMEXE
 40
6.336
  9
$DIMCEN
 40
3.168
  9
$DIMLFAC
 40
1.0
  9
$DIMBLK
  1
_FILLED
  9
$DIMTXT
 40
3.5
  9
$PDMODE
 70
3
  9
$PDSIZE
 40
0.3125
  9
$TILEMODE
 70
1
  0
ENDSEC
  0
SECTION
  2
TABLES
  0
TABLE
  2
LTYPE
 70
6
  0
LTYPE
  2
BYBLOCK
 70
0
  3

 72
65
 73
0
 40
0.0
  0
LTYPE
  2
BYLAYER
 70
0
  3

 72
65
 73
0
 40
0.0
  0
LTYPE
  2
CONTINUOUS
 70
64
  3
Solid line
 72
65
 73
0
 40
0.0
  0
LTYPE
  2
CENTER
 70
64
  3
____ _ ____ _ ____ _ ____ _ ____ _ ____ _ ____
 72
65
 73
4
 40
0.6
 49
0.375
 49
-0.075
 49
0.075
 49
-0.075
  0
LTYPE
  2
HIDDEN
 70
64
  3
- - - - - - - - - - - - - - - - - - - -
 72
65
 73
2
 40
0.2
 49
0.1
 49
-0.1
  0
LTYPE
  2
PHANTOM
 70
64
  3
_____ _ _ _____ _ _ _____ _ _ _____
 72
65
 73
6
 40
0.8
 49
0.45
 49
-0.05
 49
0.1
 49
-0.05
 49
0.1
 49
-0.05
  0
LTYPE
  2
DOT
 70
64
  3
. . . . . . . . . . . . . . . . . . . .
 72
65
 73
2
 40
0.2
 49
0.1
 49
-0.1
  0
LTYPE
  2
DASHED
 70
64
  3
- - - - - - - - - - - - - - - - - - - -
 72
65
 73
2
 40
0.2
 49
0.1
 49
-0.1
  0
ENDTAB
  0
TABLE
  2
LAYER
 70
36
  0
LAYER
  2
0
 70
0
 62
7
  6
CONTINUOUS
  0
LAYER
  2
DEFAULT_1
 70
0
 62
7
  6
CENTER
  0
LAYER
  2
DEFAULT_2
 70
0
 62
8
  6
HIDDEN
  0
LAYER
  2
DEFAULT_3
 70
0
 62
7
  6
PHANTOM
  0
LAYER
  2
1_AXIS
 70
0
 62
7
  6
CONTINUOUS
  0
LAYER
  2
1_CSYS
 70
0
 62
7
  6
CONTINUOUS
  0
LAYER
  2
1_DATUMPLANE
 70
0
 62
7
  6
CONTINUOUS
  0
LAYER
  2
1_DATUM_PLANES
 70
0
 62
7
  6
CONTINUOUS
  0
LAYER
  2
2_FEATURE
 70
0
 62
7
  6
CONTINUOUS
  0
LAYER
  2
4_QUILT
 70
0
 62
7
  6
CONTINUOUS
  0
LAYER
  2
4_SURFACE
 70
0
 62
7
  6
CONTINUOUS
  0
LAYER
  2
6_DIM
 70
0
 62
7
  6
CONTINUOUS
  0
LAYER
  2
CSYS
 70
0
 62
7
  6
CONTINUOUS
  0
LAYER
  2
CURVE
 70
0
 62
7
  6
CONTINUOUS
  0
ENDTAB
  0
TABLE
  2
STYLE
 70
1
  0
STYLE
  2
STANDARD
 70
0
 40
0.0
 41
0.8
 50
0.0
 71
0
 42
0.2
  3
txt
  4

  0
STYLE
  2
TEXTSTYLE_1
 70
0
 40
0.0
 41
0.8
 50
0.0
 71
0
 42
0.2
  3
gdt
  4

  0
STYLE
  2
TEXTSTYLE_2
 70
0
 40
0.0
 41
0.6
 50
0.0
 71
0
 42
0.2
  3
txt
  4

  0
STYLE
  2
TEXTSTYLE_3
 70
0
 40
0.0
 41
1.0
 50
0.0
 71
0
 42
0.2
  3
ftb_____.ttf
  4

  0
STYLE
  2
TEXTSTYLE_4
 70
0
 40
0.0
 41
1.0
 50
0.0
 71
0
 42
0.2
  3
fti_____.ttf
  4

  0
STYLE
  2
TEXTSTYLE_5
 70
0
 40
0.0
 41
1.0
 50
0.0
 71
0
 42
0.2
  3
frutiger light.ttf
  4

  0
STYLE
  2
TEXTSTYLE_6
 70
0
 40
0.0
 41
0.7
 50
0.0
 71
0
 42
0.2
  3
txt
  4

  0
STYLE
  2
TEXTSTYLE_7
 70
0
 40
0.0
 41
0.6
 50
0.0
 71
0
 42
0.2
  3
txt
  4

  0
ENDTAB
  0
ENDSEC
  0
SECTION
  2
BLOCKS
  0
BLOCK
  8
0
 62
2
  6
CONTINUOUS
  2
SYMBOL_8_BL1
 70
64
 10
173.5956734183
 20
35.5937998301
  0
TEXT
  8
0
 62
7
  6
CONTINUOUS
 10
164.6539584268
 20
30.6865562072
  7
TEXTSTYLE_4
 40
1.0655737705
  1
The brand for plastic modular belts and chains
 41
1.0
 72
0
  0
LINE
  8
0
 62
7
  6
CONTINUOUS
 10
149.5737418074
 20
36.1675703219
 11
149.5737418074
 21
34.0364227809
  0
LINE
  8
0
 62
7
  6
CONTINUOUS
 10
149.8628043005
 20
31.0454914852
 11
149.8628043005
 21
31.1422825445
  0
LINE
  8
0
 62
7
  6
CONTINUOUS
 10
149.5737418074
 20
31.1100188581
 11
149.6315543091
 21
30.9164367395
  0
LINE
  8
0
 62
7
  6
CONTINUOUS
 10
150.9671844304
 20
33.9544555678
 11
150.9671844304
 21
36.1675703219
  0
LINE
  8
0
 62
7
  6
CONTINUOUS
 10
151.8862417523
 20
32.1101932727
 11
151.8862417523
 21
30.5937998301
  0
LINE
  8
0
 62
7
  6
CONTINUOUS
 10
152.1753043074
 20
30.5937998301
 11
152.1753043074
 21
31.3358647082
  0
LINE
  8
0
 62
7
  6
CONTINUOUS
 10
152.1753043074
 20
31.4649194539
 11
152.1753043074
 21
32.1101932727
  0
LINE
  8
0
 62
7
  6
CONTINUOUS
 10
149.6315543091
 20
31.3036010218
 11
149.5737418074
 21
31.1100188581
  0
LINE
  8
0
 62
7
  6
CONTINUOUS
 10
149.9784292936
 20
30.8841730531
 11
149.8628043005
 21
31.0454914852
  0
LINE
  8
0
 62
7
  6
CONTINUOUS
 10
151.0768668626
 20
31.400392081
 11
151.1346793074
 21
31.3036010218
  0
LINE
  8
0
 62
7
  6
CONTINUOUS
 10
151.4237418626
 20
31.3036010218
 11
151.3659292523
 21
31.4326557675
  0
LINE
  8
0
 62
7
  6
CONTINUOUS
 10
152.852430332
 20
36.1675703219
 11
152.852430332
 21
34.3642916334
  0
LINE
  8
0
 62
7
  6
CONTINUOUS
 10
152.852430332
 20
33.0528162235
 11
152.852430332
 21
32.3970785186
  0
LINE
  8
0
 62
7
  6
CONTINUOUS
 10
153.2159293074
 20
31.2390736489
 11
153.2159293074
 21
30.5937998301
  0
LINE
  8
0
 62
7
  6
CONTINUOUS
 10
153.5049916972
 20
30.5937998301
 11
153.5049916972
 21
31.2390736489
  0
LINE
  8
0
 62
7
  6
CONTINUOUS
 10
149.8628043005
 20
31.1422825445
 11
149.9206168074
 21
31.2713373354
  0
LINE
  8
0
 62
7
  6
CONTINUOUS
 10
149.6315543091
 20
30.9164367395
 11
149.7471793074
 21
30.7873819712
  0
LINE
  8
0
 62
7
  6
CONTINUOUS
 10
153.1581166972
 20
31.3681283946
 11
153.2159293074
 21
31.2390736489
  0
LINE
  8
0
 62
7
  6
CONTINUOUS
 10
153.9674919177
 20
30.8841730531
 11
154.0253041972
 21
30.7551182848
  0
LINE
  8
0
 62
7
  6
CONTINUOUS
 10
153.5049916972
 20
31.2390736489
 11
153.4471794177
 21
31.400392081
  0
LINE
  8
0
 62
7
  6
CONTINUOUS
 10
153.9674919177
 20
31.4326557675
 11
153.9674919177
 21
31.3681283946
  0
LINE
  8
0
 62
7
  6
CONTINUOUS
 10
153.9674919177
 20
30.9809641124
 11
153.9674919177
 21
30.8841730531
  0
LINE
  8
0
 62
7
  6
CONTINUOUS
 10
154.245872955
 20
32.3970785186
 11
154.245872955
 21
36.1675703219
  0
LINE
  8
0
 62
7
  6
CONTINUOUS
 10
154.2565543074
 20
30.8519093441
 11
154.2565543074
 21
30.9164367395
  0
LINE
  8
0
 62
7
  6
CONTINUOUS
 10
154.5737418074
 20
36.1675703219
 11
154.5737418074
 21
32.3970785186
  0
LINE
  8
0
 62
7
  6
CONTINUOUS
 10
151.3659292523
 20
30.7873819712
 11
151.4237418626
 21
30.9164367395
  0
LINE
  8
0
 62
7
  6
CONTINUOUS
 10
155.759679528
 20
30.6905909007
 11
155.7018665869
 21
30.8519093441
  0
LINE
  8
0
 62
7
  6
CONTINUOUS
 10
155.412804528
 20
31.3681283946
 11
155.412804528
 21
31.2713373354
  0
LINE
  8
0
 62
7
  6
CONTINUOUS
 10
155.412804528
 20
31.1422825445
 11
155.412804528
 21
30.9487004259
  0
LINE
  8
0
 62
7
  6
CONTINUOUS
 10
155.7018665869
 20
30.8519093441
 11
155.7018665869
 21
31.3681283946
  0
LINE
  8
0
 62
7
  6
CONTINUOUS
 10
155.9671844304
 20
32.3970785186
 11
155.9671844304
 21
34.2003572071
  0
LINE
  8
0
 62
7
  6
CONTINUOUS
 10
155.9671844304
 20
35.511832617
 11
155.9671844304
 21
36.1675703219
  0
LINE
  8
0
 62
7
  6
CONTINUOUS
 10
156.279992028
 20
32.1101932727
 11
156.279992028
 21
31.9488748406
  0
LINE
  8
0
 62
7
  6
CONTINUOUS
 10
156.279992028
 20
31.626237886
 11
156.279992028
 21
30.5937998301
  0
LINE
  8
0
 62
7
  6
CONTINUOUS
 10
156.5690540869
 20
30.5937998301
 11
156.5690540869
 21
31.626237886
  0
LINE
  8
0
 62
7
  6
CONTINUOUS
 10
156.5690540869
 20
31.9488748406
 11
156.5690540869
 21
32.1101932727
  0
LINE
  8
0
 62
7
  6
CONTINUOUS
 10
151.1346793074
 20
30.9164367395
 11
151.0768668626
 21
30.8196456577
  0
LINE
  8
0
 62
7
  6
CONTINUOUS
 10
153.4471794177
 20
31.400392081
 11
153.3893668074
 21
31.4649194539
  0
LINE
  8
0
 62
7
  6
CONTINUOUS
 10
154.3143669177
 20
30.7873819712
 11
154.2565543074
 21
30.8519093441
  0
LINE
  8
0
 62
7
  6
CONTINUOUS
 10
155.4706168074
 20
30.6583272086
 11
155.5284290869
 21
30.5937998301
  0
LINE
  8
0
 62
7
  6
CONTINUOUS
 10
155.412804528
 20
30.7551182848
 11
155.4706168074
 21
30.6583272086
  0
LINE
  8
0
 62
7
  6
CONTINUOUS
 10
155.8174918074
 20
30.5937998301
 11
155.759679528
 21
30.6905909007
  0
LINE
  8
0
 62
7
  6
CONTINUOUS
 10
155.7018665869
 20
31.3681283946
 11
155.6440543074
 21
31.4649194539
  0
LINE
  8
0
 62
7
  6
CONTINUOUS
 10
157.0315543074
 20
31.626237886
 11
157.0315543074
 21
30.5937998301
  0
LINE
  8
0
 62
7
  6
CONTINUOUS
 10
157.320617028
 20
30.5937998301
 11
157.320617028
 21
31.3358647082
  0
LINE
  8
0
 62
7
  6
CONTINUOUS
 10
157.320617028
 20
31.4649194539
 11
157.320617028
 21
31.626237886
  0
LINE
  8
0
 62
7
  6
CONTINUOUS
 10
157.852430332
 20
34.6101932727
 11
157.852430332
 21
32.3970785186
  0
LINE
  8
0
 62
7
  6
CONTINUOUS
 10
149.7471793074
 20
31.4326557675
 11
149.6315543091
 21
31.3036010218
  0
LINE
  8
0
 62
7
  6
CONTINUOUS
 10
149.9206168074
 20
31.2713373354
 11
149.9784292936
 21
31.3358647082
  0
LINE
  8
0
 62
7
  6
CONTINUOUS
 10
149.7471793074
 20
30.7873819712
 11
149.8628043005
 21
30.7228545871
  0
LINE
  8
0
 62
7
  6
CONTINUOUS
 10
150.1518667936
 20
30.7873819712
 11
149.9784292936
 21
30.8841730531
  0
LINE
  8
0
 62
7
  6
CONTINUOUS
 10
155.3549915869
 20
31.4326557675
 11
155.412804528
 21
31.3681283946
  0
LINE
  8
0
 62
7
  6
CONTINUOUS
 10
158.3034290869
 20
31.3681283946
 11
158.361242028
 21
31.2068099625
  0
LINE
  8
0
 62
7
  6
CONTINUOUS
 10
158.6503040869
 20
31.2068099625
 11
158.5924918074
 21
31.3681283946
  0
LINE
  8
0
 62
7
  6
CONTINUOUS
 10
158.361242028
 20
31.2068099625
 11
158.361242028
 21
30.5937998301
  0
LINE
  8
0
 62
7
  6
CONTINUOUS
 10
158.6503040869
 20
30.5937998301
 11
158.6503040869
 21
31.2068099625
  0
LINE
  8
0
 62
7
  6
CONTINUOUS
 10
159.1128043074
 20
31.4326557675
 11
159.1128043074
 21
31.3681283946
  0
LINE
  8
0
 62
7
  6
CONTINUOUS
 10
159.245872955
 20
32.3970785186
 11
159.245872955
 21
34.5282260596
  0
LINE
  8
0
 62
7
  6
CONTINUOUS
 10
159.5737418074
 20
36.1675703219
 11
159.5737418074
 21
32.3970785186
  0
LINE
  8
0
 62
7
  6
CONTINUOUS
 10
154.2565543074
 20
30.9164367395
 11
154.3143669177
 21
31.0132277988
  0
LINE
  8
0
 62
7
  6
CONTINUOUS
 10
149.8628043005
 20
30.7228545871
 11
150.0362418212
 21
30.6583272086
  0
LINE
  8
0
 62
7
  6
CONTINUOUS
 10
151.3659292523
 20
31.4326557675
 11
151.1924917523
 21
31.5294468267
  0
LINE
  8
0
 62
7
  6
CONTINUOUS
 10
154.0253041972
 20
30.7551182848
 11
154.1987416972
 21
30.6583272086
  0
LINE
  8
0
 62
7
  6
CONTINUOUS
 10
153.0424918074
 20
31.4326557675
 11
153.1581166972
 21
31.3681283946
  0
LINE
  8
0
 62
7
  6
CONTINUOUS
 10
153.3893668074
 20
31.4649194539
 11
153.2737419177
 21
31.5294468267
  0
LINE
  8
0
 62
7
  6
CONTINUOUS
 10
159.1128043074
 20
30.8519093441
 11
159.228429528
 21
30.7228545871
  0
LINE
  8
0
 62
7
  6
CONTINUOUS
 10
159.4596793074
 20
30.7873819712
 11
159.401867028
 21
30.8519093441
  0
LINE
  8
0
 62
7
  6
CONTINUOUS
 10
159.1128043074
 20
31.3681283946
 11
159.228429528
 21
31.2390736489
  0
LINE
  8
0
 62
7
  6
CONTINUOUS
 10
158.5924918074
 20
31.3681283946
 11
158.534679528
 21
31.4649194539
  0
LINE
  8
0
 62
7
  6
CONTINUOUS
 10
160.9628038663
 20
30.7873819712
 11
160.9628038663
 21
30.8519093441
  0
LINE
  8
0
 62
7
  6
CONTINUOUS
 10
160.9671844304
 20
32.3970785186
 11
160.9671844304
 21
36.1675703219
  0
LINE
  8
0
 62
7
  6
CONTINUOUS
 10
154.0253041972
 20
31.4971831403
 11
153.9674919177
 21
31.4326557675
  0
LINE
  8
0
 62
7
  6
CONTINUOUS
 10
150.9034292799
 20
31.4649194539
 11
151.0768668626
 21
31.400392081
  0
LINE
  8
0
 62
7
  6
CONTINUOUS
 10
155.6440543074
 20
31.4649194539
 11
155.5284290869
 21
31.5294468267
  0
LINE
  8
0
 62
7
  6
CONTINUOUS
 10
159.4596793074
 20
31.3036010218
 11
159.401867028
 21
31.3681283946
  0
LINE
  8
0
 62
7
  6
CONTINUOUS
 10
160.615929528
 20
30.9164367395
 11
160.6737418074
 21
30.8519093441
  0
LINE
  8
0
 62
7
  6
CONTINUOUS
 10
160.9628038663
 20
30.8519093441
 11
160.8471793074
 21
30.9809641124
  0
LINE
  8
0
 62
7
  6
CONTINUOUS
 10
160.615929528
 20
31.4326557675
 11
160.6737418074
 21
31.3681283946
  0
LINE
  8
0
 62
7
  6
CONTINUOUS
 10
160.9628038663
 20
31.3681283946
 11
160.8471793074
 21
31.4971831403
  0
LINE
  8
0
 62
7
  6
CONTINUOUS
 10
154.2565543074
 20
31.3681283946
 11
154.3143669177
 21
31.4326557675
  0
LINE
  8
0
 62
7
  6
CONTINUOUS
 10
154.0831168074
 20
31.1100188581
 11
153.9674919177
 21
30.9809641124
  0
LINE
  8
0
 62
7
  6
CONTINUOUS
 10
155.412804528
 20
30.9487004259
 11
155.3549915869
 21
30.8841730531
  0
LINE
  8
0
 62
7
  6
CONTINUOUS
 10
155.3549915869
 20
30.6905909007
 11
155.412804528
 21
30.7551182848
  0
LINE
  8
0
 62
7
  6
CONTINUOUS
 10
154.1987416972
 20
30.6583272086
 11
154.3143669177
 21
30.6260635193
  0
LINE
  8
0
 62
7
  6
CONTINUOUS
 10
151.1924917523
 20
31.5294468267
 11
150.9612418074
 21
31.5939741996
  0
LINE
  8
0
 62
7
  6
CONTINUOUS
 10
154.5456166972
 20
30.7228545871
 11
154.3143669177
 21
30.7873819712
  0
LINE
  8
0
 62
7
  6
CONTINUOUS
 10
153.2737419177
 20
31.5294468267
 11
153.1003044177
 21
31.5939741996
  0
LINE
  8
0
 62
7
  6
CONTINUOUS
 10
155.5284290869
 20
31.5294468267
 11
155.3549915869
 21
31.5939741996
  0
LINE
  8
0
 62
7
  6
CONTINUOUS
 10
158.187804528
 20
31.4326557675
 11
158.3034290869
 21
31.3681283946
  0
LINE
  8
0
 62
7
  6
CONTINUOUS
 10
158.534679528
 20
31.4649194539
 11
158.4190543074
 21
31.5294468267
  0
LINE
  8
0
 62
7
  6
CONTINUOUS
 10
150.0362418212
 20
30.6583272086
 11
150.2096793212
 21
30.6260635193
  0
LINE
  8
0
 62
7
  6
CONTINUOUS
 10
150.498741835
 20
30.7228545871
 11
150.1518667936
 21
30.7873819712
  0
LINE
  8
0
 62
7
  6
CONTINUOUS
 10
152.9268669177
 20
31.4649194539
 11
153.0424918074
 21
31.4326557675
  0
LINE
  8
0
 62
7
  6
CONTINUOUS
 10
155.239367028
 20
31.4649194539
 11
155.3549915869
 21
31.4326557675
  0
LINE
  8
0
 62
7
  6
CONTINUOUS
 10
159.575304528
 20
30.7551182848
 11
159.4596793074
 21
30.7873819712
  0
LINE
  8
0
 62
7
  6
CONTINUOUS
 10
158.0721793074
 20
31.4649194539
 11
158.187804528
 21
31.4326557675
  0
LINE
  8
0
 62
7
  6
CONTINUOUS
 10
159.228429528
 20
30.7228545871
 11
159.401867028
 21
30.6583272086
  0
LINE
  8
0
 62
7
  6
CONTINUOUS
 10
158.4190543074
 20
31.5294468267
 11
158.2456168074
 21
31.5939741996
  0
LINE
  8
0
 62
7
  6
CONTINUOUS
 10
159.6331168074
 20
31.2390736489
 11
159.4596793074
 21
31.3036010218
  0
LINE
  8
0
 62
7
  6
CONTINUOUS
 10
160.442492028
 20
30.9809641124
 11
160.615929528
 21
30.9164367395
  0
LINE
  8
0
 62
7
  6
CONTINUOUS
 10
160.8471793074
 20
31.4971831403
 11
160.6737418074
 21
31.5617105132
  0
LINE
  8
0
 62
7
  6
CONTINUOUS
 10
159.228429528
 20
31.2390736489
 11
159.4596793074
 21
31.1422825445
  0
LINE
  8
0
 62
7
  6
CONTINUOUS
 10
160.8471793074
 20
30.9809641124
 11
160.615929528
 21
31.0777551716
  0
LINE
  8
0
 62
7
  6
CONTINUOUS
 10
159.401867028
 20
31.3681283946
 11
159.4596793074
 21
31.4326557675
  0
LINE
  8
0
 62
7
  6
CONTINUOUS
 10
149.8628043005
 20
31.4971831403
 11
149.7471793074
 21
31.4326557675
  0
LINE
  8
0
 62
7
  6
CONTINUOUS
 10
149.9784292936
 20
31.3358647082
 11
150.1518667936
 21
31.4326557675
  0
LINE
  8
0
 62
7
  6
CONTINUOUS
 10
152.2909293626
 20
31.5294468267
 11
152.1753043074
 21
31.4649194539
  0
LINE
  8
0
 62
7
  6
CONTINUOUS
 10
152.1753043074
 20
31.3358647082
 11
152.2909293626
 21
31.400392081
  0
LINE
  8
0
 62
7
  6
CONTINUOUS
 10
151.1924917523
 20
30.6905909007
 11
151.3659292523
 21
30.7873819712
  0
LINE
  8
0
 62
7
  6
CONTINUOUS
 10
150.2096793212
 20
30.6260635193
 11
150.5565542799
 21
30.5937998301
  0
LINE
  8
0
 62
7
  6
CONTINUOUS
 10
154.3143669177
 20
30.6260635193
 11
154.5456166972
 21
30.5937998301
  0
LINE
  8
0
 62
7
  6
CONTINUOUS
 10
152.6956168074
 20
31.4971831403
 11
152.9268669177
 21
31.4649194539
  0
LINE
  8
0
 62
7
  6
CONTINUOUS
 10
155.0081169177
 20
31.4971831403
 11
155.239367028
 21
31.4649194539
  0
LINE
  8
0
 62
7
  6
CONTINUOUS
 10
159.4596793074
 20
31.1422825445
 11
160.442492028
 21
30.9809641124
  0
LINE
  8
0
 62
7
  6
CONTINUOUS
 10
160.615929528
 20
31.0777551716
 11
159.6331168074
 21
31.2390736489
  0
LINE
  8
0
 62
7
  6
CONTINUOUS
 10
153.1003044177
 20
31.5939741996
 11
152.9268669177
 21
31.626237886
  0
LINE
  8
0
 62
7
  6
CONTINUOUS
 10
159.401867028
 20
30.6583272086
 11
159.575304528
 21
30.6260635193
  0
LINE
  8
0
 62
7
  6
CONTINUOUS
 10
158.2456168074
 20
31.5939741996
 11
158.0721793074
 21
31.626237886
  0
LINE
  8
0
 62
7
  6
CONTINUOUS
 10
160.5003043074
 20
31.4649194539
 11
160.615929528
 21
31.4326557675
  0
LINE
  8
0
 62
7
  6
CONTINUOUS
 10
160.6737418074
 20
30.8519093441
 11
160.615929528
 21
30.7873819712
  0
LINE
  8
0
 62
7
  6
CONTINUOUS
 10
159.228429528
 20
31.5294468267
 11
159.1128043074
 21
31.4326557675
  0
LINE
  8
0
 62
7
  6
CONTINUOUS
 10
154.1409294177
 20
31.5617105132
 11
154.0253041972
 21
31.4971831403
  0
LINE
  8
0
 62
7
  6
CONTINUOUS
 10
154.1987416972
 20
31.1745462761
 11
154.0831168074
 21
31.1100188581
  0
LINE
  8
0
 62
7
  6
CONTINUOUS
 10
154.3143669177
 20
31.0132277988
 11
154.4299918074
 21
31.0777551716
  0
LINE
  8
0
 62
7
  6
CONTINUOUS
 10
151.8862417523
 20
30.5937998301
 11
152.1753043074
 21
30.5937998301
  0
LINE
  8
0
 62
7
  6
CONTINUOUS
 10
153.2159293074
 20
30.5937998301
 11
153.5049916972
 21
30.5937998301
  0
LINE
  8
0
 62
7
  6
CONTINUOUS
 10
154.5456166972
 20
30.5937998301
 11
154.8924916972
 21
30.5937998301
  0
LINE
  8
0
 62
7
  6
CONTINUOUS
 10
155.5284290869
 20
30.5937998301
 11
155.8174918074
 21
30.5937998301
  0
LINE
  8
0
 62
7
  6
CONTINUOUS
 10
156.279992028
 20
30.5937998301
 11
156.5690540869
 21
30.5937998301
  0
LINE
  8
0
 62
7
  6
CONTINUOUS
 10
157.0315543074
 20
30.5937998301
 11
157.320617028
 21
30.5937998301
  0
LINE
  8
0
 62
7
  6
CONTINUOUS
 10
158.361242028
 20
30.5937998301
 11
158.6503040869
 21
30.5937998301
  0
LINE
  8
0
 62
7
  6
CONTINUOUS
 10
159.922179528
 20
30.5937998301
 11
160.269054528
 21
30.5937998301
  0
LINE
  8
0
 62
7
  6
CONTINUOUS
 10
160.269054528
 20
30.7228545871
 11
159.922179528
 21
30.7228545871
  0
LINE
  8
0
 62
7
  6
CONTINUOUS
 10
154.8924916972
 20
30.7228545871
 11
154.5456166972
 21
30.7228545871
  0
LINE
  8
0
 62
7
  6
CONTINUOUS
 10
159.401867028
 20
30.8519093441
 11
159.1128043074
 21
30.8519093441
  0
LINE
  8
0
 62
7
  6
CONTINUOUS
 10
151.4237418626
 20
30.9164367395
 11
151.1346793074
 21
30.9164367395
  0
LINE
  8
0
 62
7
  6
CONTINUOUS
 10
150.498741835
 20
31.4971831403
 11
150.9034292799
 21
31.4649194539
  0
LINE
  8
0
 62
7
  6
CONTINUOUS
 10
150.9612418074
 20
31.5939741996
 11
150.5565542799
 21
31.626237886
  0
LINE
  8
0
 62
7
  6
CONTINUOUS
 10
159.575304528
 20
30.6260635193
 11
159.922179528
 21
30.5937998301
  0
LINE
  8
0
 62
7
  6
CONTINUOUS
 10
159.922179528
 20
30.7228545871
 11
159.575304528
 21
30.7551182848
  0
LINE
  8
0
 62
7
  6
CONTINUOUS
 10
155.3549915869
 20
31.5939741996
 11
155.0081169177
 21
31.626237886
  0
LINE
  8
0
 62
7
  6
CONTINUOUS
 10
160.1534293074
 20
31.4971831403
 11
160.5003043074
 21
31.4649194539
  0
LINE
  8
0
 62
7
  6
CONTINUOUS
 10
160.5003043074
 20
31.5939741996
 11
160.1534293074
 21
31.626237886
  0
LINE
  8
0
 62
7
  6
CONTINUOUS
 10
157.840929528
 20
31.4971831403
 11
158.0721793074
 21
31.4649194539
  0
LINE
  8
0
 62
7
  6
CONTINUOUS
 10
160.6737418074
 20
31.5617105132
 11
160.5003043074
 21
31.5939741996
  0
LINE
  8
0
 62
7
  6
CONTINUOUS
 10
160.8471793074
 20
30.6905909007
 11
160.9628038663
 21
30.7873819712
  0
LINE
  8
0
 62
7
  6
CONTINUOUS
 10
155.3549915869
 20
30.8841730531
 11
155.1815540869
 21
30.7873819712
  0
LINE
  8
0
 62
7
  6
CONTINUOUS
 10
157.4362415869
 20
31.5294468267
 11
157.320617028
 21
31.4649194539
  0
LINE
  8
0
 62
7
  6
CONTINUOUS
 10
157.320617028
 20
31.3358647082
 11
157.4362415869
 21
31.400392081
  0
LINE
  8
0
 62
7
  6
CONTINUOUS
 10
150.0362418212
 20
31.5617105132
 11
149.8628043005
 21
31.4971831403
  0
LINE
  8
0
 62
7
  6
CONTINUOUS
 10
152.4643666972
 20
31.5939741996
 11
152.2909293626
 21
31.5294468267
  0
LINE
  8
0
 62
7
  6
CONTINUOUS
 10
152.2909293626
 20
31.400392081
 11
152.4643666972
 21
31.4649194539
  0
LINE
  8
0
 62
7
  6
CONTINUOUS
 10
151.0768668626
 20
30.8196456577
 11
150.9034292799
 21
30.7551182848
  0
LINE
  8
0
 62
7
  6
CONTINUOUS
 10
160.5003043074
 20
30.7551182848
 11
160.269054528
 21
30.7228545871
  0
LINE
  8
0
 62
7
  6
CONTINUOUS
 10
154.8924916972
 20
30.5937998301
 11
155.1815540869
 21
30.6260635193
  0
LINE
  8
0
 62
7
  6
CONTINUOUS
 10
160.269054528
 20
30.5937998301
 11
160.615929528
 21
30.6260635193
  0
LINE
  8
0
 62
7
  6
CONTINUOUS
 10
150.5565542799
 20
30.5937998301
 11
150.9612418074
 21
30.6260635193
  0
LINE
  8
0
 62
7
  6
CONTINUOUS
 10
150.9034292799
 20
30.7551182848
 11
150.498741835
 21
30.7228545871
  0
LINE
  8
0
 62
7
  6
CONTINUOUS
 10
154.7768668074
 20
31.1422825445
 11
155.412804528
 21
31.1422825445
  0
LINE
  8
0
 62
7
  6
CONTINUOUS
 10
155.412804528
 20
31.2713373354
 11
154.7768668074
 21
31.2713373354
  0
LINE
  8
0
 62
7
  6
CONTINUOUS
 10
151.1346793074
 20
31.3036010218
 11
151.4237418626
 21
31.3036010218
  0
LINE
  8
0
 62
7
  6
CONTINUOUS
 10
153.9674919177
 20
31.3681283946
 11
154.2565543074
 21
31.3681283946
  0
LINE
  8
0
 62
7
  6
CONTINUOUS
 10
160.6737418074
 20
31.3681283946
 11
160.9628038663
 21
31.3681283946
  0
LINE
  8
0
 62
7
  6
CONTINUOUS
 10
154.6612419177
 20
31.4971831403
 11
155.0081169177
 21
31.4971831403
  0
LINE
  8
0
 62
7
  6
CONTINUOUS
 10
159.8065543074
 20
31.4971831403
 11
160.1534293074
 21
31.4971831403
  0
LINE
  8
0
 62
7
  6
CONTINUOUS
 10
160.1534293074
 20
31.626237886
 11
159.8065543074
 21
31.626237886
  0
LINE
  8
0
 62
7
  6
CONTINUOUS
 10
158.0721793074
 20
31.626237886
 11
157.840929528
 21
31.626237886
  0
LINE
  8
0
 62
7
  6
CONTINUOUS
 10
157.320617028
 20
31.626237886
 11
157.0315543074
 21
31.626237886
  0
LINE
  8
0
 62
7
  6
CONTINUOUS
 10
156.5690540869
 20
31.626237886
 11
156.279992028
 21
31.626237886
  0
LINE
  8
0
 62
7
  6
CONTINUOUS
 10
155.0081169177
 20
31.626237886
 11
154.6612419177
 21
31.626237886
  0
LINE
  8
0
 62
7
  6
CONTINUOUS
 10
152.9268669177
 20
31.626237886
 11
152.6956168074
 21
31.626237886
  0
LINE
  8
0
 62
7
  6
CONTINUOUS
 10
156.279992028
 20
31.9488748406
 11
156.5690540869
 21
31.9488748406
  0
LINE
  8
0
 62
7
  6
CONTINUOUS
 10
156.5690540869
 20
32.1101932727
 11
156.279992028
 21
32.1101932727
  0
LINE
  8
0
 62
7
  6
CONTINUOUS
 10
152.1753043074
 20
32.1101932727
 11
151.8862417523
 21
32.1101932727
  0
LINE
  8
0
 62
7
  6
CONTINUOUS
 10
151.2130860697
 20
32.3970785186
 11
151.6256574183
 21
32.3970785186
  0
LINE
  8
0
 62
7
  6
CONTINUOUS
 10
152.852430332
 20
32.3970785186
 11
154.245872955
 21
32.3970785186
  0
LINE
  8
0
 62
7
  6
CONTINUOUS
 10
154.5737418074
 20
32.3970785186
 11
155.9671844304
 21
32.3970785186
  0
LINE
  8
0
 62
7
  6
CONTINUOUS
 10
157.852430332
 20
32.3970785186
 11
159.245872955
 21
32.3970785186
  0
LINE
  8
0
 62
7
  6
CONTINUOUS
 10
159.5737418074
 20
32.3970785186
 11
160.9671844304
 21
32.3970785186
  0
LINE
  8
0
 62
7
  6
CONTINUOUS
 10
157.6096790869
 20
31.5939741996
 11
157.4362415869
 21
31.5294468267
  0
LINE
  8
0
 62
7
  6
CONTINUOUS
 10
155.1815540869
 20
30.6260635193
 11
155.3549915869
 21
30.6905909007
  0
LINE
  8
0
 62
7
  6
CONTINUOUS
 10
160.615929528
 20
30.6260635193
 11
160.8471793074
 21
30.6905909007
  0
LINE
  8
0
 62
7
  6
CONTINUOUS
 10
160.615929528
 20
30.7873819712
 11
160.5003043074
 21
30.7551182848
  0
LINE
  8
0
 62
7
  6
CONTINUOUS
 10
159.575304528
 20
31.4649194539
 11
159.8065543074
 21
31.4971831403
  0
LINE
  8
0
 62
7
  6
CONTINUOUS
 10
157.6096790869
 20
31.4649194539
 11
157.840929528
 21
31.4971831403
  0
LINE
  8
0
 62
7
  6
CONTINUOUS
 10
154.5456166972
 20
31.1100188581
 11
154.7768668074
 21
31.1422825445
  0
LINE
  8
0
 62
7
  6
CONTINUOUS
 10
157.840929528
 20
31.626237886
 11
157.6096790869
 21
31.5939741996
  0
LINE
  8
0
 62
7
  6
CONTINUOUS
 10
154.4299918074
 20
31.4649194539
 11
154.6612419177
 21
31.4971831403
  0
LINE
  8
0
 62
7
  6
CONTINUOUS
 10
159.8065543074
 20
31.626237886
 11
159.4596793074
 21
31.5939741996
  0
LINE
  8
0
 62
7
  6
CONTINUOUS
 10
154.7768668074
 20
31.2713373354
 11
154.4299918074
 21
31.2390736489
  0
LINE
  8
0
 62
7
  6
CONTINUOUS
 10
150.5565542799
 20
31.626237886
 11
150.2096793212
 21
31.5939741996
  0
LINE
  8
0
 62
7
  6
CONTINUOUS
 10
154.6612419177
 20
31.626237886
 11
154.2565543074
 21
31.5939741996
  0
LINE
  8
0
 62
7
  6
CONTINUOUS
 10
152.0327582009
 20
33.5446195022
 11
151.3770204959
 21
33.5446195022
  0
LINE
  8
0
 62
7
  6
CONTINUOUS
 10
157.4362415869
 20
31.400392081
 11
157.6096790869
 21
31.4649194539
  0
LINE
  8
0
 62
7
  6
CONTINUOUS
 10
159.4596793074
 20
31.4326557675
 11
159.575304528
 21
31.4649194539
  0
LINE
  8
0
 62
7
  6
CONTINUOUS
 10
159.4596793074
 20
31.5939741996
 11
159.228429528
 21
31.5294468267
  0
LINE
  8
0
 62
7
  6
CONTINUOUS
 10
155.1815540869
 20
30.7873819712
 11
154.8924916972
 21
30.7228545871
  0
LINE
  8
0
 62
7
  6
CONTINUOUS
 10
152.4643666972
 20
31.4649194539
 11
152.6956168074
 21
31.4971831403
  0
LINE
  8
0
 62
7
  6
CONTINUOUS
 10
152.6956168074
 20
31.626237886
 11
152.4643666972
 21
31.5939741996
  0
LINE
  8
0
 62
7
  6
CONTINUOUS
 10
150.2674918074
 20
31.4649194539
 11
150.498741835
 21
31.4971831403
  0
LINE
  8
0
 62
7
  6
CONTINUOUS
 10
156.7868565615
 20
35.0200293383
 11
157.4425942664
 21
35.0200293383
  0
LINE
  8
0
 62
7
  6
CONTINUOUS
 10
154.4299918074
 20
31.0777551716
 11
154.5456166972
 21
31.1100188581
  0
LINE
  8
0
 62
7
  6
CONTINUOUS
 10
154.4299918074
 20
31.2390736489
 11
154.1987416972
 21
31.1745462761
  0
LINE
  8
0
 62
7
  6
CONTINUOUS
 10
154.3143669177
 20
31.4326557675
 11
154.4299918074
 21
31.4649194539
  0
LINE
  8
0
 62
7
  6
CONTINUOUS
 10
150.9612418074
 20
30.6260635193
 11
151.1924917523
 21
30.6905909007
  0
LINE
  8
0
 62
7
  6
CONTINUOUS
 10
154.2565543074
 20
31.5939741996
 11
154.1409294177
 21
31.5617105132
  0
LINE
  8
0
 62
7
  6
CONTINUOUS
 10
150.2096793212
 20
31.5939741996
 11
150.0362418212
 21
31.5617105132
  0
LINE
  8
0
 62
7
  6
CONTINUOUS
 10
160.9671844304
 20
36.1675703219
 11
159.5737418074
 21
36.1675703219
  0
LINE
  8
0
 62
7
  6
CONTINUOUS
 10
157.6065286927
 20
36.1675703219
 11
157.1939573441
 21
36.1675703219
  0
LINE
  8
0
 62
7
  6
CONTINUOUS
 10
155.9671844304
 20
36.1675703219
 11
154.5737418074
 21
36.1675703219
  0
LINE
  8
0
 62
7
  6
CONTINUOUS
 10
154.245872955
 20
36.1675703219
 11
152.852430332
 21
36.1675703219
  0
LINE
  8
0
 62
7
  6
CONTINUOUS
 10
150.9671844304
 20
36.1675703219
 11
149.5737418074
 21
36.1675703219
  0
LINE
  8
0
 62
7
  6
CONTINUOUS
 10
150.1518667936
 20
31.4326557675
 11
150.2674918074
 21
31.4649194539
  0
CIRCLE
  8
0
 62
7
  6
CONTINUOUS
 10
160.2704631189
 20
38.5036358957
 40
2.0901639344
  0
ARC
  8
0
 62
7
  6
CONTINUOUS
 10
151.2130860697
 20
34.0364227809
 40
1.6393442623
 50
180.0
 51
270.0
  0
ARC
  8
0
 62
7
  6
CONTINUOUS
 10
157.6065286927
 20
34.5282260596
 40
1.6393442623
 50
0.0
 51
90.0
  0
ARC
  8
0
 62
7
  6
CONTINUOUS
 10
151.6256574183
 20
33.8724883547
 40
1.4754098361
 50
270.0
 51
326.2510114041
  0
ARC
  8
0
 62
7
  6
CONTINUOUS
 10
157.1939573441
 20
34.6921604858
 40
1.4754098361
 50
90.0
 51
146.2510114041
  0
ARC
  8
0
 62
7
  6
CONTINUOUS
 10
152.0327582009
 20
34.3642916334
 40
0.8196721311
 50
270.0
 51
360.0
  0
ARC
  8
0
 62
7
  6
CONTINUOUS
 10
156.7868565615
 20
34.2003572071
 40
0.8196721311
 50
90.0
 51
180.0
  0
ARC
  8
0
 62
7
  6
CONTINUOUS
 10
151.3770204959
 20
33.9544555678
 40
0.4098360656
 50
180.0
 51
270.0
  0
ARC
  8
0
 62
7
  6
CONTINUOUS
 10
157.4425942664
 20
34.6101932727
 40
0.4098360656
 50
0.0
 51
90.0
  0
SOLID
  8
0
 62
7
  6
CONTINUOUS
 10
156.279992028
 20
31.9488752009
 11
156.279992028
 21
32.1101936845
 12
156.5690540869
 22
31.9488752009
 13
156.5690540869
 23
32.1101936845
  0
SOLID
  8
0
 62
7
  6
CONTINUOUS
 10
150.5565542799
 20
31.6262382337
 11
150.9612418074
 21
31.5939740028
 12
150.2096793212
 22
31.5939740028
 13
150.2096793212
 23
31.5939740028
  0
SOLID
  8
0
 62
7
  6
CONTINUOUS
 10
150.0362418212
 20
31.5617111435
 11
150.2096793212
 21
31.5939740028
 12
150.9612418074
 22
31.5939740028
 13
150.9612418074
 23
31.5939740028
  0
SOLID
  8
0
 62
7
  6
CONTINUOUS
 10
150.9612418074
 20
31.5939740028
 11
151.1924917523
 21
31.5294468402
 12
150.0362418212
 22
31.5617111435
 13
150.0362418212
 23
31.5617111435
  0
SOLID
  8
0
 62
7
  6
CONTINUOUS
 10
149.8628043005
 20
31.49718259
 11
150.0362418212
 21
31.5617111435
 12
151.1924917523
 22
31.5294468402
 13
151.1924917523
 23
31.5294468402
  0
SOLID
  8
0
 62
7
  6
CONTINUOUS
 10
149.8628043005
 20
31.49718259
 11
151.1924917523
 21
31.5294468402
 12
150.498741835
 22
31.49718259
 13
150.498741835
 23
31.49718259
  0
SOLID
  8
0
 62
7
  6
CONTINUOUS
 10
150.498741835
 20
31.49718259
 11
151.1924917523
 21
31.5294468402
 12
150.9034292799
 22
31.4649197501
 13
150.9034292799
 23
31.4649197501
  0
SOLID
  8
0
 62
7
  6
CONTINUOUS
 10
151.1924917523
 20
31.5294468402
 11
151.3659292523
 21
31.4326554468
 12
150.9034292799
 22
31.4649197501
 13
150.9034292799
 23
31.4649197501
  0
SOLID
  8
0
 62
7
  6
CONTINUOUS
 10
151.0768668626
 20
31.4003926599
 11
150.9034292799
 21
31.4649197501
 12
151.3659292523
 22
31.4326554468
 13
151.3659292523
 23
31.4326554468
  0
SOLID
  8
0
 62
7
  6
CONTINUOUS
 10
151.0768668626
 20
31.4003926599
 11
151.3659292523
 21
31.4326554468
 12
151.1346793074
 22
31.3036013776
 13
151.1346793074
 23
31.3036013776
  0
SOLID
  8
0
 62
7
  6
CONTINUOUS
 10
151.3659292523
 20
31.4326554468
 11
151.4237418626
 21
31.3036013776
 12
151.1346793074
 22
31.3036013776
 13
151.1346793074
 23
31.3036013776
  0
SOLID
  8
0
 62
7
  6
CONTINUOUS
 10
152.4643666972
 20
31.5939739754
 11
152.6956168074
 21
31.6262382787
 12
152.9268669177
 22
31.6262382787
 13
152.9268669177
 23
31.6262382787
  0
SOLID
  8
0
 62
7
  6
CONTINUOUS
 10
152.9268669177
 20
31.6262382787
 11
153.1003044177
 21
31.5939739754
 12
152.4643666972
 22
31.5939739754
 13
152.4643666972
 23
31.5939739754
  0
SOLID
  8
0
 62
7
  6
CONTINUOUS
 10
152.2909293626
 20
31.5294468852
 11
152.4643666972
 21
31.5939739754
 12
153.1003044177
 22
31.5939739754
 13
153.1003044177
 23
31.5939739754
  0
SOLID
  8
0
 62
7
  6
CONTINUOUS
 10
153.1003044177
 20
31.5939739754
 11
153.2737419177
 21
31.5294468852
 12
152.2909293626
 22
31.5294468852
 13
152.2909293626
 23
31.5294468852
  0
SOLID
  8
0
 62
7
  6
CONTINUOUS
 10
153.2737419177
 20
31.5294468852
 11
152.6956168074
 21
31.4971825369
 12
152.2909293626
 22
31.5294468852
 13
152.2909293626
 23
31.5294468852
  0
SOLID
  8
0
 62
7
  6
CONTINUOUS
 10
152.1753043074
 20
31.4649197951
 11
152.2909293626
 21
31.5294468852
 12
152.6956168074
 22
31.4971825369
 13
152.6956168074
 23
31.4971825369
  0
SOLID
  8
0
 62
7
  6
CONTINUOUS
 10
152.6956168074
 20
31.4971825369
 11
152.4643666972
 21
31.4649197951
 12
152.1753043074
 22
31.4649197951
 13
152.1753043074
 23
31.4649197951
  0
SOLID
  8
0
 62
7
  6
CONTINUOUS
 10
152.6956168074
 20
31.4971825369
 11
153.2737419177
 21
31.5294468852
 12
152.9268669177
 22
31.4649197951
 13
152.9268669177
 23
31.4649197951
  0
SOLID
  8
0
 62
7
  6
CONTINUOUS
 10
153.2737419177
 20
31.5294468852
 11
153.3893668074
 21
31.4649197951
 12
152.9268669177
 22
31.4649197951
 13
152.9268669177
 23
31.4649197951
  0
SOLID
  8
0
 62
7
  6
CONTINUOUS
 10
153.0424918074
 20
31.4326554468
 11
152.9268669177
 21
31.4649197951
 12
153.3893668074
 22
31.4649197951
 13
153.3893668074
 23
31.4649197951
  0
SOLID
  8
0
 62
7
  6
CONTINUOUS
 10
153.3893668074
 20
31.4649197951
 11
153.4471794177
 21
31.4003927049
 12
153.0424918074
 22
31.4326554468
 13
153.0424918074
 23
31.4326554468
  0
SOLID
  8
0
 62
7
  6
CONTINUOUS
 10
153.1581166972
 20
31.3681283566
 11
153.0424918074
 21
31.4326554468
 12
153.4471794177
 22
31.4003927049
 13
153.4471794177
 23
31.4003927049
  0
SOLID
  8
0
 62
7
  6
CONTINUOUS
 10
153.1581166972
 20
31.3681283566
 11
153.4471794177
 21
31.4003927049
 12
153.2159293074
 22
31.2390742213
 13
153.2159293074
 23
31.2390742213
  0
SOLID
  8
0
 62
7
  6
CONTINUOUS
 10
153.4471794177
 20
31.4003927049
 11
153.5049916972
 21
31.2390742213
 12
153.2159293074
 22
31.2390742213
 13
153.2159293074
 23
31.2390742213
  0
SOLID
  8
0
 62
7
  6
CONTINUOUS
 10
152.4643666972
 20
31.4649197951
 11
152.2909293626
 21
31.4003927049
 12
152.1753043074
 22
31.4649197951
 13
152.1753043074
 23
31.4649197951
  0
SOLID
  8
0
 62
7
  6
CONTINUOUS
 10
152.2909293626
 20
31.4003927049
 11
152.1753043074
 21
31.3358640533
 12
152.1753043074
 22
31.4649197951
 13
152.1753043074
 23
31.4649197951
  0
SOLID
  8
0
 62
7
  6
CONTINUOUS
 10
152.1753043074
 20
31.3358640533
 11
151.8862417523
 21
30.5938002869
 12
152.1753043074
 22
31.4649197951
 13
152.1753043074
 23
31.4649197951
  0
SOLID
  8
0
 62
7
  6
CONTINUOUS
 10
152.1753043074
 20
31.4649197951
 11
151.8862417523
 21
30.5938002869
 12
152.1753043074
 22
32.1101937295
 13
152.1753043074
 23
32.1101937295
  0
SOLID
  8
0
 62
7
  6
CONTINUOUS
 10
151.8862417523
 20
30.5938002869
 11
151.8862417523
 21
32.1101937295
 12
152.1753043074
 22
32.1101937295
 13
152.1753043074
 23
32.1101937295
  0
SOLID
  8
0
 62
7
  6
CONTINUOUS
 10
152.1753043074
 20
31.3358640533
 11
152.1753043074
 21
30.5938002869
 12
151.8862417523
 22
30.5938002869
 13
151.8862417523
 23
30.5938002869
  0
SOLID
  8
0
 62
7
  6
CONTINUOUS
 10
153.2159293074
 20
30.5938002869
 11
153.2159293074
 21
31.2390742213
 12
153.5049916972
 22
31.2390742213
 13
153.5049916972
 23
31.2390742213
  0
SOLID
  8
0
 62
7
  6
CONTINUOUS
 10
153.5049916972
 20
31.2390742213
 11
153.5049916972
 21
30.5938002869
 12
153.2159293074
 22
30.5938002869
 13
153.2159293074
 23
30.5938002869
  0
SOLID
  8
0
 62
7
  6
CONTINUOUS
 10
154.2565543074
 20
31.5939738288
 11
154.6612419177
 21
31.6262385959
 12
155.0081169177
 22
31.6262385959
 13
155.0081169177
 23
31.6262385959
  0
SOLID
  8
0
 62
7
  6
CONTINUOUS
 10
155.0081169177
 20
31.6262385959
 11
155.3549915869
 21
31.5939738288
 12
154.2565543074
 22
31.5939738288
 13
154.2565543074
 23
31.5939738288
  0
SOLID
  8
0
 62
7
  6
CONTINUOUS
 10
154.1409294177
 20
31.5617111435
 11
154.2565543074
 21
31.5939738288
 12
155.3549915869
 22
31.5939738288
 13
155.3549915869
 23
31.5939738288
  0
SOLID
  8
0
 62
7
  6
CONTINUOUS
 10
155.3549915869
 20
31.5939738288
 11
155.5284290869
 21
31.5294468402
 12
154.1409294177
 22
31.5617111435
 13
154.1409294177
 23
31.5617111435
  0
SOLID
  8
0
 62
7
  6
CONTINUOUS
 10
154.0253041972
 20
31.4971826249
 11
154.1409294177
 21
31.5617111435
 12
155.5284290869
 22
31.5294468402
 13
155.5284290869
 23
31.5294468402
  0
SOLID
  8
0
 62
7
  6
CONTINUOUS
 10
154.0253041972
 20
31.4971826249
 11
155.5284290869
 21
31.5294468402
 12
154.6612419177
 22
31.4971826249
 13
154.6612419177
 23
31.4971826249
  0
SOLID
  8
0
 62
7
  6
CONTINUOUS
 10
154.6612419177
 20
31.4971826249
 11
155.5284290869
 21
31.5294468402
 12
155.0081169177
 22
31.4971826249
 13
155.0081169177
 23
31.4971826249
  0
SOLID
  8
0
 62
7
  6
CONTINUOUS
 10
155.0081169177
 20
31.4971826249
 11
155.5284290869
 21
31.5294468402
 12
155.239367028
 22
31.4649194065
 13
155.239367028
 23
31.4649194065
  0
SOLID
  8
0
 62
7
  6
CONTINUOUS
 10
155.5284290869
 20
31.5294468402
 11
155.6440543074
 21
31.4649194065
 12
155.239367028
 22
31.4649194065
 13
155.239367028
 23
31.4649194065
  0
SOLID
  8
0
 62
7
  6
CONTINUOUS
 10
153.9674919177
 20
31.4326554138
 11
154.0253041972
 21
31.4971826249
 12
154.6612419177
 22
31.4971826249
 13
154.6612419177
 23
31.4971826249
  0
SOLID
  8
0
 62
7
  6
CONTINUOUS
 10
155.3549915869
 20
31.4326554138
 11
155.239367028
 21
31.4649194065
 12
155.6440543074
 22
31.4649194065
 13
155.6440543074
 23
31.4649194065
  0
SOLID
  8
0
 62
7
  6
CONTINUOUS
 10
155.3549915869
 20
31.4326554138
 11
155.6440543074
 21
31.4649194065
 12
155.412804528
 22
31.3681282026
 13
155.412804528
 23
31.3681282026
  0
SOLID
  8
0
 62
7
  6
CONTINUOUS
 10
155.6440543074
 20
31.4649194065
 11
155.7018665869
 21
31.3681282026
 12
155.412804528
 22
31.3681282026
 13
155.412804528
 23
31.3681282026
  0
SOLID
  8
0
 62
7
  6
CONTINUOUS
 10
155.412804528
 20
31.2713369632
 11
155.412804528
 21
31.3681282026
 12
155.7018665869
 22
31.3681282026
 13
155.7018665869
 23
31.3681282026
  0
SOLID
  8
0
 62
7
  6
CONTINUOUS
 10
155.412804528
 20
31.2713369632
 11
155.7018665869
 21
31.3681282026
 12
155.412804528
 22
31.1422827828
 13
155.412804528
 23
31.1422827828
  0
SOLID
  8
0
 62
7
  6
CONTINUOUS
 10
155.412804528
 20
31.1422827828
 11
155.7018665869
 21
31.3681282026
 12
155.412804528
 22
30.9487004259
 13
155.412804528
 23
30.9487004259
  0
SOLID
  8
0
 62
7
  6
CONTINUOUS
 10
155.7018665869
 20
31.3681282026
 11
155.7018665869
 21
30.8519086025
 12
155.412804528
 22
30.9487004259
 13
155.412804528
 23
30.9487004259
  0
SOLID
  8
0
 62
7
  6
CONTINUOUS
 10
157.6096790869
 20
31.5939736268
 11
157.840929528
 21
31.6262383465
 12
158.0721793074
 22
31.6262383465
 13
158.0721793074
 23
31.6262383465
  0
SOLID
  8
0
 62
7
  6
CONTINUOUS
 10
158.0721793074
 20
31.6262383465
 11
158.2456168074
 21
31.5939736268
 12
157.6096790869
 22
31.5939736268
 13
157.6096790869
 23
31.5939736268
  0
SOLID
  8
0
 62
7
  6
CONTINUOUS
 10
157.4362415869
 20
31.5294472848
 11
157.6096790869
 21
31.5939736268
 12
158.2456168074
 22
31.5939736268
 13
158.2456168074
 23
31.5939736268
  0
SOLID
  8
0
 62
7
  6
CONTINUOUS
 10
158.2456168074
 20
31.5939736268
 11
158.4190543074
 21
31.5294472848
 12
157.4362415869
 22
31.5294472848
 13
157.4362415869
 23
31.5294472848
  0
SOLID
  8
0
 62
7
  6
CONTINUOUS
 10
158.4190543074
 20
31.5294472848
 11
157.840929528
 21
31.4971825369
 12
157.4362415869
 22
31.5294472848
 13
157.4362415869
 23
31.5294472848
  0
SOLID
  8
0
 62
7
  6
CONTINUOUS
 10
157.320617028
 20
31.4649199103
 11
157.4362415869
 21
31.5294472848
 12
157.840929528
 22
31.4971825369
 13
157.840929528
 23
31.4971825369
  0
SOLID
  8
0
 62
7
  6
CONTINUOUS
 10
157.840929528
 20
31.4971825369
 11
157.6096790869
 21
31.4649199103
 12
157.320617028
 22
31.4649199103
 13
157.320617028
 23
31.4649199103
  0
SOLID
  8
0
 62
7
  6
CONTINUOUS
 10
157.840929528
 20
31.4971825369
 11
158.4190543074
 21
31.5294472848
 12
158.0721793074
 22
31.4649199103
 13
158.0721793074
 23
31.4649199103
  0
SOLID
  8
0
 62
7
  6
CONTINUOUS
 10
158.4190543074
 20
31.5294472848
 11
158.534679528
 21
31.4649199103
 12
158.0721793074
 22
31.4649199103
 13
158.0721793074
 23
31.4649199103
  0
SOLID
  8
0
 62
7
  6
CONTINUOUS
 10
158.187804528
 20
31.4326554468
 11
158.0721793074
 21
31.4649199103
 12
158.534679528
 22
31.4649199103
 13
158.534679528
 23
31.4649199103
  0
SOLID
  8
0
 62
7
  6
CONTINUOUS
 10
158.187804528
 20
31.4326554468
 11
158.534679528
 21
31.4649199103
 12
158.3034290869
 22
31.3681288486
 13
158.3034290869
 23
31.3681288486
  0
SOLID
  8
0
 62
7
  6
CONTINUOUS
 10
158.534679528
 20
31.4649199103
 11
158.5924918074
 21
31.3681288486
 12
158.3034290869
 22
31.3681288486
 13
158.3034290869
 23
31.3681288486
  0
SOLID
  8
0
 62
7
  6
CONTINUOUS
 10
158.361242028
 20
31.2068093799
 11
158.3034290869
 21
31.3681288486
 12
158.5924918074
 22
31.3681288486
 13
158.5924918074
 23
31.3681288486
  0
SOLID
  8
0
 62
7
  6
CONTINUOUS
 10
158.5924918074
 20
31.3681288486
 11
158.6503040869
 21
31.2068093799
 12
158.361242028
 22
31.2068093799
 13
158.361242028
 23
31.2068093799
  0
SOLID
  8
0
 62
7
  6
CONTINUOUS
 10
157.6096790869
 20
31.4649199103
 11
157.4362415869
 21
31.4003926599
 12
157.320617028
 22
31.4649199103
 13
157.320617028
 23
31.4649199103
  0
SOLID
  8
0
 62
7
  6
CONTINUOUS
 10
157.4362415869
 20
31.4003926599
 11
157.320617028
 21
31.3358640533
 12
157.320617028
 22
31.4649199103
 13
157.320617028
 23
31.4649199103
  0
SOLID
  8
0
 62
7
  6
CONTINUOUS
 10
157.320617028
 20
31.3358640533
 11
157.0315543074
 21
30.5938003547
 12
157.320617028
 22
31.4649199103
 13
157.320617028
 23
31.4649199103
  0
SOLID
  8
0
 62
7
  6
CONTINUOUS
 10
157.320617028
 20
31.4649199103
 11
157.0315543074
 21
30.5938003547
 12
157.320617028
 22
31.6262383465
 13
157.320617028
 23
31.6262383465
  0
SOLID
  8
0
 62
7
  6
CONTINUOUS
 10
157.0315543074
 20
30.5938003547
 11
157.0315543074
 21
31.6262383465
 12
157.320617028
 22
31.6262383465
 13
157.320617028
 23
31.6262383465
  0
SOLID
  8
0
 62
7
  6
CONTINUOUS
 10
157.320617028
 20
31.3358640533
 11
157.320617028
 21
30.5938003547
 12
157.0315543074
 22
30.5938003547
 13
157.0315543074
 23
30.5938003547
  0
SOLID
  8
0
 62
7
  6
CONTINUOUS
 10
158.361242028
 20
30.5938003547
 11
158.361242028
 21
31.2068093799
 12
158.6503040869
 22
31.2068093799
 13
158.6503040869
 23
31.2068093799
  0
SOLID
  8
0
 62
7
  6
CONTINUOUS
 10
158.6503040869
 20
31.2068093799
 11
158.6503040869
 21
30.5938003547
 12
158.361242028
 22
30.5938003547
 13
158.361242028
 23
30.5938003547
  0
SOLID
  8
0
 62
7
  6
CONTINUOUS
 10
159.4596793074
 20
31.5939739474
 11
159.8065543074
 21
31.6262381969
 12
160.1534293074
 22
31.6262381969
 13
160.1534293074
 23
31.6262381969
  0
SOLID
  8
0
 62
7
  6
CONTINUOUS
 10
160.1534293074
 20
31.6262381969
 11
160.5003043074
 21
31.5939739474
 12
159.4596793074
 22
31.5939739474
 13
159.4596793074
 23
31.5939739474
  0
SOLID
  8
0
 62
7
  6
CONTINUOUS
 10
159.228429528
 20
31.5294468402
 11
159.4596793074
 21
31.5939739474
 12
160.5003043074
 22
31.5939739474
 13
160.5003043074
 23
31.5939739474
  0
SOLID
  8
0
 62
7
  6
CONTINUOUS
 10
159.228429528
 20
31.5294468402
 11
160.5003043074
 21
31.5939739304
 12
160.6737418074
 22
31.5617111435
 13
160.6737418074
 23
31.5617111435
  0
SOLID
  8
0
 62
7
  6
CONTINUOUS
 10
159.228429528
 20
31.5294468402
 11
160.6737418074
 21
31.5617111435
 12
159.8065543074
 22
31.4971825592
 13
159.8065543074
 23
31.4971825592
  0
SOLID
  8
0
 62
7
  6
CONTINUOUS
 10
159.8065543074
 20
31.4971825592
 11
160.6737418074
 21
31.5617111435
 12
160.1534293074
 22
31.4971825592
 13
160.1534293074
 23
31.4971825592
  0
SOLID
  8
0
 62
7
  6
CONTINUOUS
 10
160.6737418074
 20
31.5617111435
 11
160.8471793074
 21
31.4971825592
 12
160.1534293074
 22
31.4971825592
 13
160.1534293074
 23
31.4971825592
  0
SOLID
  8
0
 62
7
  6
CONTINUOUS
 10
160.5003043074
 20
31.4649197501
 11
160.1534293074
 21
31.4971825592
 12
160.8471793074
 22
31.4971825592
 13
160.8471793074
 23
31.4971825592
  0
SOLID
  8
0
 62
7
  6
CONTINUOUS
 10
159.1128043074
 20
31.4326555427
 11
159.228429528
 21
31.5294468402
 12
159.8065543074
 22
31.4971825592
 13
159.8065543074
 23
31.4971825592
  0
SOLID
  8
0
 62
7
  6
CONTINUOUS
 10
160.5003043074
 20
31.4649197501
 11
160.8471793074
 21
31.4971825592
 12
160.615929528
 22
31.4326555427
 13
160.615929528
 23
31.4326555427
  0
SOLID
  8
0
 62
7
  6
CONTINUOUS
 10
160.615929528
 20
31.4326555427
 11
160.8471793074
 21
31.4971825592
 12
160.6737418074
 22
31.3681283005
 13
160.6737418074
 23
31.3681283005
  0
SOLID
  8
0
 62
7
  6
CONTINUOUS
 10
160.8471793074
 20
31.4971825592
 11
160.9628038663
 21
31.3681283005
 12
160.6737418074
 22
31.3681283005
 13
160.6737418074
 23
31.3681283005
  0
SOLID
  8
0
 62
7
  6
CONTINUOUS
 10
150.2674918074
 20
31.4649197501
 11
149.7471793074
 21
31.4326554237
 12
150.498741835
 22
31.4971824493
 13
150.498741835
 23
31.4971824493
  0
SOLID
  8
0
 62
7
  6
CONTINUOUS
 10
149.7471793074
 20
31.4326554237
 11
149.8628043005
 21
31.4971824493
 12
150.498741835
 22
31.4971824493
 13
150.498741835
 23
31.4971824493
  0
SOLID
  8
0
 62
7
  6
CONTINUOUS
 10
150.2674918074
 20
31.4649197501
 11
150.1518667936
 21
31.4326554237
 12
149.7471793074
 22
31.4326554237
 13
149.7471793074
 23
31.4326554237
  0
SOLID
  8
0
 62
7
  6
CONTINUOUS
 10
149.6315543091
 20
31.3036012664
 11
149.7471793074
 21
31.4326554237
 12
150.1518667936
 22
31.4326554237
 13
150.1518667936
 23
31.4326554237
  0
SOLID
  8
0
 62
7
  6
CONTINUOUS
 10
153.9674919177
 20
31.4326554237
 11
154.6612419177
 21
31.4971825369
 12
154.4299918074
 22
31.4649197501
 13
154.4299918074
 23
31.4649197501
  0
SOLID
  8
0
 62
7
  6
CONTINUOUS
 10
154.4299918074
 20
31.4649197501
 11
154.3143669177
 21
31.4326554237
 12
153.9674919177
 22
31.4326554237
 13
153.9674919177
 23
31.4326554237
  0
SOLID
  8
0
 62
7
  6
CONTINUOUS
 10
153.9674919177
 20
31.3681283335
 11
153.9674919177
 21
31.4326554237
 12
154.3143669177
 22
31.4326554237
 13
154.3143669177
 23
31.4326554237
  0
SOLID
  8
0
 62
7
  6
CONTINUOUS
 10
154.3143669177
 20
31.4326554237
 11
154.2565543074
 21
31.3681283335
 12
153.9674919177
 22
31.3681283335
 13
153.9674919177
 23
31.3681283335
  0
SOLID
  8
0
 62
7
  6
CONTINUOUS
 10
159.1128043074
 20
31.4326555528
 11
159.8065543074
 21
31.4971825369
 12
159.575304528
 22
31.4649197501
 13
159.575304528
 23
31.4649197501
  0
SOLID
  8
0
 62
7
  6
CONTINUOUS
 10
159.575304528
 20
31.4649197501
 11
159.4596793074
 21
31.4326555528
 12
159.1128043074
 22
31.4326555528
 13
159.1128043074
 23
31.4326555528
  0
SOLID
  8
0
 62
7
  6
CONTINUOUS
 10
159.1128043074
 20
31.3681284626
 11
159.1128043074
 21
31.4326555528
 12
159.4596793074
 22
31.4326555528
 13
159.4596793074
 23
31.4326555528
  0
SOLID
  8
0
 62
7
  6
CONTINUOUS
 10
159.4596793074
 20
31.4326555528
 11
159.401867028
 21
31.3681284626
 12
159.1128043074
 22
31.3681284626
 13
159.1128043074
 23
31.3681284626
  0
SOLID
  8
0
 62
7
  6
CONTINUOUS
 10
159.228429528
 20
31.2390741763
 11
159.1128043074
 21
31.3681284626
 12
159.401867028
 22
31.3681284626
 13
159.401867028
 23
31.3681284626
  0
SOLID
  8
0
 62
7
  6
CONTINUOUS
 10
149.6315543091
 20
31.3036012664
 11
150.1518667936
 21
31.4326554468
 12
149.9784292936
 22
31.3358640533
 13
149.9784292936
 23
31.3358640533
  0
SOLID
  8
0
 62
7
  6
CONTINUOUS
 10
149.9784292936
 20
31.3358640533
 11
149.9206168074
 21
31.2713369632
 12
149.6315543091
 22
31.3036012664
 13
149.6315543091
 23
31.3036012664
  0
SOLID
  8
0
 62
7
  6
CONTINUOUS
 10
149.5737418074
 20
31.1100184796
 11
149.6315543091
 21
31.3036012664
 12
149.9206168074
 22
31.2713369632
 13
149.9206168074
 23
31.2713369632
  0
SOLID
  8
0
 62
7
  6
CONTINUOUS
 10
154.4299918074
 20
31.2390741763
 11
154.7768668074
 21
31.271336924
 12
155.412804528
 22
31.271336924
 13
155.412804528
 23
31.271336924
  0
SOLID
  8
0
 62
7
  6
CONTINUOUS
 10
154.4299918074
 20
31.2390741763
 11
155.412804528
 21
31.271336924
 12
154.1987416972
 22
31.1745462761
 13
154.1987416972
 23
31.1745462761
  0
SOLID
  8
0
 62
7
  6
CONTINUOUS
 10
154.1987416972
 20
31.1745462761
 11
155.412804528
 21
31.271336924
 12
154.7768668074
 22
31.1422827436
 13
154.7768668074
 23
31.1422827436
  0
SOLID
  8
0
 62
7
  6
CONTINUOUS
 10
155.412804528
 20
31.271336924
 11
155.412804528
 21
31.1422827436
 12
154.7768668074
 22
31.1422827436
 13
154.7768668074
 23
31.1422827436
  0
SOLID
  8
0
 62
7
  6
CONTINUOUS
 10
159.228429528
 20
31.2390745501
 11
159.401867028
 21
31.3681283566
 12
159.4596793074
 22
31.3036012664
 13
159.4596793074
 23
31.3036012664
  0
SOLID
  8
0
 62
7
  6
CONTINUOUS
 10
159.4596793074
 20
31.3036012664
 11
159.6331168074
 21
31.2390745501
 12
159.228429528
 22
31.2390745501
 13
159.228429528
 23
31.2390745501
  0
SOLID
  8
0
 62
7
  6
CONTINUOUS
 10
159.4596793074
 20
31.1422827828
 11
159.228429528
 21
31.2390745501
 12
159.6331168074
 22
31.2390745501
 13
159.6331168074
 23
31.2390745501
  0
SOLID
  8
0
 62
7
  6
CONTINUOUS
 10
159.6331168074
 20
31.2390745501
 11
160.615929528
 21
31.0777556927
 12
159.4596793074
 22
31.1422827828
 13
159.4596793074
 23
31.1422827828
  0
SOLID
  8
0
 62
7
  6
CONTINUOUS
 10
160.442492028
 20
30.9809646623
 11
159.4596793074
 21
31.1422827828
 12
160.615929528
 22
31.0777556927
 13
160.615929528
 23
31.0777556927
  0
SOLID
  8
0
 62
7
  6
CONTINUOUS
 10
160.615929528
 20
31.0777556927
 11
160.8471793074
 21
30.9809646623
 12
160.442492028
 22
30.9809646623
 13
160.442492028
 23
30.9809646623
  0
SOLID
  8
0
 62
7
  6
CONTINUOUS
 10
160.615929528
 20
30.9164372091
 11
160.442492028
 21
30.9809646623
 12
160.8471793074
 22
30.9809646623
 13
160.8471793074
 23
30.9809646623
  0
SOLID
  8
0
 62
7
  6
CONTINUOUS
 10
160.615929528
 20
30.9164372091
 11
160.8471793074
 21
30.9809646623
 12
160.6737418074
 22
30.8519089441
 13
160.6737418074
 23
30.8519089441
  0
SOLID
  8
0
 62
7
  6
CONTINUOUS
 10
160.8471793074
 20
30.9809646623
 11
160.9628038663
 21
30.8519089441
 12
160.6737418074
 22
30.8519089441
 13
160.6737418074
 23
30.8519089441
  0
SOLID
  8
0
 62
7
  6
CONTINUOUS
 10
160.615929528
 20
30.7873818593
 11
160.6737418074
 21
30.8519089441
 12
160.9628038663
 22
30.8519089441
 13
160.9628038663
 23
30.8519089441
  0
SOLID
  8
0
 62
7
  6
CONTINUOUS
 10
160.9628038663
 20
30.8519089441
 11
160.9628038663
 21
30.7873818593
 12
160.615929528
 22
30.7873818593
 13
160.615929528
 23
30.7873818593
  0
SOLID
  8
0
 62
7
  6
CONTINUOUS
 10
160.5003043074
 20
30.7551187255
 11
160.615929528
 21
30.7873818593
 12
160.9628038663
 22
30.7873818593
 13
160.9628038663
 23
30.7873818593
  0
SOLID
  8
0
 62
7
  6
CONTINUOUS
 10
160.5003043074
 20
30.7551187255
 11
160.9628038663
 21
30.7873818593
 12
160.269054528
 22
30.7228547745
 13
160.269054528
 23
30.7228547745
  0
SOLID
  8
0
 62
7
  6
CONTINUOUS
 10
160.9628038663
 20
30.7873818593
 11
160.8471793074
 21
30.6905916353
 12
160.269054528
 22
30.7228547745
 13
160.269054528
 23
30.7228547745
  0
SOLID
  8
0
 62
7
  6
CONTINUOUS
 10
160.8471793074
 20
30.6905916353
 11
159.401867028
 21
30.658327332
 12
160.269054528
 22
30.7228547745
 13
160.269054528
 23
30.7228547745
  0
SOLID
  8
0
 62
7
  6
CONTINUOUS
 10
160.269054528
 20
30.7228547745
 11
159.401867028
 21
30.658327332
 12
159.922179528
 22
30.7228547745
 13
159.922179528
 23
30.7228547745
  0
SOLID
  8
0
 62
7
  6
CONTINUOUS
 10
159.401867028
 20
30.658327332
 11
159.228429528
 21
30.7228547745
 12
159.922179528
 22
30.7228547745
 13
159.922179528
 23
30.7228547745
  0
SOLID
  8
0
 62
7
  6
CONTINUOUS
 10
159.401867028
 20
30.658327332
 11
160.8471793074
 21
30.6905916353
 12
159.575304528
 22
30.6260629858
 13
159.575304528
 23
30.6260629858
  0
SOLID
  8
0
 62
7
  6
CONTINUOUS
 10
160.8471793074
 20
30.6905916353
 11
160.615929528
 21
30.6260629858
 12
159.575304528
 22
30.6260629858
 13
159.575304528
 23
30.6260629858
  0
SOLID
  8
0
 62
7
  6
CONTINUOUS
 10
159.922179528
 20
30.5938006049
 11
159.575304528
 21
30.6260629858
 12
160.615929528
 22
30.6260629858
 13
160.615929528
 23
30.6260629858
  0
SOLID
  8
0
 62
7
  6
CONTINUOUS
 10
160.615929528
 20
30.6260629858
 11
160.269054528
 21
30.5938006049
 12
159.922179528
 22
30.5938006049
 13
159.922179528
 23
30.5938006049
  0
SOLID
  8
0
 62
7
  6
CONTINUOUS
 10
149.5737418074
 20
31.1100184796
 11
149.9206168074
 21
31.2713369632
 12
149.8628043005
 22
31.1422827828
 13
149.8628043005
 23
31.1422827828
  0
SOLID
  8
0
 62
7
  6
CONTINUOUS
 10
149.8628043005
 20
31.1422827828
 11
149.8628043005
 21
31.0454914852
 12
149.5737418074
 22
31.1100184796
 13
149.5737418074
 23
31.1100184796
  0
SOLID
  8
0
 62
7
  6
CONTINUOUS
 10
149.6315543091
 20
30.9164372091
 11
149.5737418074
 21
31.1100184796
 12
149.8628043005
 22
31.0454914852
 13
149.8628043005
 23
31.0454914852
  0
SOLID
  8
0
 62
7
  6
CONTINUOUS
 10
149.8628043005
 20
31.0454914852
 11
149.9784292936
 21
30.8841729058
 12
149.6315543091
 22
30.9164372091
 13
149.6315543091
 23
30.9164372091
  0
SOLID
  8
0
 62
7
  6
CONTINUOUS
 10
149.7471793074
 20
30.7873813202
 11
149.6315543091
 21
30.9164372091
 12
149.9784292936
 22
30.8841729058
 13
149.9784292936
 23
30.8841729058
  0
SOLID
  8
0
 62
7
  6
CONTINUOUS
 10
149.9784292936
 20
30.8841729058
 11
150.1518667936
 21
30.7873813202
 12
149.7471793074
 22
30.7873813202
 13
149.7471793074
 23
30.7873813202
  0
SOLID
  8
0
 62
7
  6
CONTINUOUS
 10
149.8628043005
 20
30.7228547004
 11
149.7471793074
 21
30.7873813202
 12
150.1518667936
 22
30.7873813202
 13
150.1518667936
 23
30.7873813202
  0
SOLID
  8
0
 62
7
  6
CONTINUOUS
 10
150.1518667936
 20
30.7873813202
 11
150.498741835
 21
30.7228547004
 12
149.8628043005
 22
30.7228547004
 13
149.8628043005
 23
30.7228547004
  0
SOLID
  8
0
 62
7
  6
CONTINUOUS
 10
150.0362418212
 20
30.658327332
 11
149.8628043005
 21
30.7228547004
 12
150.498741835
 22
30.7228547004
 13
150.498741835
 23
30.7228547004
  0
SOLID
  8
0
 62
7
  6
CONTINUOUS
 10
154.0831168074
 20
31.1100184386
 11
154.1987416972
 21
31.1745462761
 12
154.7768668074
 22
31.1422827828
 13
154.7768668074
 23
31.1422827828
  0
SOLID
  8
0
 62
7
  6
CONTINUOUS
 10
154.7768668074
 20
31.1422827828
 11
154.5456166972
 21
31.1100184386
 12
154.0831168074
 22
31.1100184386
 13
154.0831168074
 23
31.1100184386
  0
SOLID
  8
0
 62
7
  6
CONTINUOUS
 10
153.9674919177
 20
30.9809642992
 11
154.0831168074
 21
31.1100184386
 12
154.5456166972
 22
31.1100184386
 13
154.5456166972
 23
31.1100184386
  0
SOLID
  8
0
 62
7
  6
CONTINUOUS
 10
154.3143669177
 20
31.0132277988
 11
153.9674919177
 21
30.9809642992
 12
154.4299918074
 22
31.0777556927
 13
154.4299918074
 23
31.0777556927
  0
SOLID
  8
0
 62
7
  6
CONTINUOUS
 10
153.9674919177
 20
30.9809642992
 11
154.5456166972
 21
31.1100184796
 12
154.4299918074
 22
31.0777556927
 13
154.4299918074
 23
31.0777556927
  0
SOLID
  8
0
 62
7
  6
CONTINUOUS
 10
154.3143669177
 20
31.0132277988
 11
154.2565543074
 21
30.9164372091
 12
153.9674919177
 22
30.9809642992
 13
153.9674919177
 23
30.9809642992
  0
SOLID
  8
0
 62
7
  6
CONTINUOUS
 10
153.9674919177
 20
30.8841729058
 11
153.9674919177
 21
30.9809642992
 12
154.2565543074
 22
30.9164372091
 13
154.2565543074
 23
30.9164372091
  0
SOLID
  8
0
 62
7
  6
CONTINUOUS
 10
154.2565543074
 20
30.9164372091
 11
154.2565543074
 21
30.8519086025
 12
153.9674919177
 22
30.8841729058
 13
153.9674919177
 23
30.8841729058
  0
SOLID
  8
0
 62
7
  6
CONTINUOUS
 10
154.0253041972
 20
30.7551187255
 11
153.9674919177
 21
30.8841729058
 12
154.2565543074
 22
30.8519086025
 13
154.2565543074
 23
30.8519086025
  0
SOLID
  8
0
 62
7
  6
CONTINUOUS
 10
155.412804528
 20
30.9487004259
 11
155.7018665869
 21
30.8519086025
 12
155.3549915869
 22
30.8841729058
 13
155.3549915869
 23
30.8841729058
  0
SOLID
  8
0
 62
7
  6
CONTINUOUS
 10
155.1815540869
 20
30.7873815123
 11
155.3549915869
 21
30.8841729058
 12
155.7018665869
 22
30.8519086025
 13
155.7018665869
 23
30.8519086025
  0
SOLID
  8
0
 62
7
  6
CONTINUOUS
 10
155.1815540869
 20
30.7873815123
 11
155.7018665869
 21
30.8519086025
 12
155.412804528
 22
30.7551187255
 13
155.412804528
 23
30.7551187255
  0
SOLID
  8
0
 62
7
  6
CONTINUOUS
 10
155.7018665869
 20
30.8519086025
 11
155.759679528
 21
30.6905916353
 12
155.412804528
 22
30.7551187255
 13
155.412804528
 23
30.7551187255
  0
SOLID
  8
0
 62
7
  6
CONTINUOUS
 10
155.4706168074
 20
30.658327332
 11
155.412804528
 21
30.7551187255
 12
155.759679528
 22
30.6905916353
 13
155.759679528
 23
30.6905916353
  0
SOLID
  8
0
 62
7
  6
CONTINUOUS
 10
155.4706168074
 20
30.658327332
 11
155.759679528
 21
30.6905916353
 12
155.5284290869
 22
30.5938002079
 13
155.5284290869
 23
30.5938002079
  0
SOLID
  8
0
 62
7
  6
CONTINUOUS
 10
155.759679528
 20
30.6905916353
 11
155.8174918074
 21
30.5938002079
 12
155.5284290869
 22
30.5938002079
 13
155.5284290869
 23
30.5938002079
  0
SOLID
  8
0
 62
7
  6
CONTINUOUS
 10
151.0768668626
 20
30.8196456577
 11
151.1346793074
 21
30.9164373395
 12
151.4237418626
 22
30.9164373395
 13
151.4237418626
 23
30.9164373395
  0
SOLID
  8
0
 62
7
  6
CONTINUOUS
 10
151.4237418626
 20
30.9164373395
 11
151.3659292523
 21
30.7873815123
 12
151.0768668626
 22
30.8196456577
 13
151.0768668626
 23
30.8196456577
  0
SOLID
  8
0
 62
7
  6
CONTINUOUS
 10
150.9034292799
 20
30.7551187255
 11
151.0768668626
 21
30.8196456577
 12
151.3659292523
 22
30.7873815123
 13
151.3659292523
 23
30.7873815123
  0
SOLID
  8
0
 62
7
  6
CONTINUOUS
 10
150.9034292799
 20
30.7551187255
 11
151.3659292523
 21
30.7873815123
 12
150.498741835
 22
30.7228544222
 13
150.498741835
 23
30.7228544222
  0
SOLID
  8
0
 62
7
  6
CONTINUOUS
 10
151.3659292523
 20
30.7873815123
 11
151.1924917523
 21
30.6905916353
 12
150.498741835
 22
30.7228544222
 13
150.498741835
 23
30.7228544222
  0
SOLID
  8
0
 62
7
  6
CONTINUOUS
 10
150.0362418212
 20
30.658327332
 11
150.498741835
 21
30.7228544222
 12
151.1924917523
 22
30.6905916353
 13
151.1924917523
 23
30.6905916353
  0
SOLID
  8
0
 62
7
  6
CONTINUOUS
 10
150.0362418212
 20
30.658327332
 11
151.1924917523
 21
30.6905916353
 12
150.2096793212
 22
30.6260631011
 13
150.2096793212
 23
30.6260631011
  0
SOLID
  8
0
 62
7
  6
CONTINUOUS
 10
151.1924917523
 20
30.6905916353
 11
150.9612418074
 21
30.6260631011
 12
150.2096793212
 22
30.6260631011
 13
150.2096793212
 23
30.6260631011
  0
SOLID
  8
0
 62
7
  6
CONTINUOUS
 10
150.5565542799
 20
30.5938002419
 11
150.2096793212
 21
30.6260631011
 12
150.9612418074
 22
30.6260631011
 13
150.9612418074
 23
30.6260631011
  0
SOLID
  8
0
 62
7
  6
CONTINUOUS
 10
154.0253041972
 20
30.7551187255
 11
154.2565543074
 21
30.8519086025
 12
154.3143669177
 22
30.7873815123
 13
154.3143669177
 23
30.7873815123
  0
SOLID
  8
0
 62
7
  6
CONTINUOUS
 10
154.3143669177
 20
30.7873815123
 11
154.5456166972
 21
30.7228544222
 12
154.0253041972
 22
30.7551187255
 13
154.0253041972
 23
30.7551187255
  0
SOLID
  8
0
 62
7
  6
CONTINUOUS
 10
154.1987416972
 20
30.658327332
 11
154.0253041972
 21
30.7551187255
 12
154.5456166972
 22
30.7228544222
 13
154.5456166972
 23
30.7228544222
  0
SOLID
  8
0
 62
7
  6
CONTINUOUS
 10
154.8924916972
 20
30.7228544637
 11
155.1815540869
 21
30.7873815123
 12
155.412804528
 22
30.7551187255
 13
155.412804528
 23
30.7551187255
  0
SOLID
  8
0
 62
7
  6
CONTINUOUS
 10
155.412804528
 20
30.7551187255
 11
155.3549915869
 21
30.6905916353
 12
154.8924916972
 22
30.7228544637
 13
154.8924916972
 23
30.7228544637
  0
SOLID
  8
0
 62
7
  6
CONTINUOUS
 10
155.3549915869
 20
30.6905916353
 11
154.1987416972
 21
30.658327332
 12
154.8924916972
 22
30.7228544637
 13
154.8924916972
 23
30.7228544637
  0
SOLID
  8
0
 62
7
  6
CONTINUOUS
 10
154.1987416972
 20
30.658327332
 11
154.5456166972
 21
30.7228544637
 12
154.8924916972
 22
30.7228544637
 13
154.8924916972
 23
30.7228544637
  0
SOLID
  8
0
 62
7
  6
CONTINUOUS
 10
154.1987416972
 20
30.658327332
 11
155.3549915869
 21
30.6905916353
 12
154.3143669177
 22
30.6260630541
 13
154.3143669177
 23
30.6260630541
  0
SOLID
  8
0
 62
7
  6
CONTINUOUS
 10
155.3549915869
 20
30.6905916353
 11
155.1815540869
 21
30.6260630541
 12
154.3143669177
 22
30.6260630541
 13
154.3143669177
 23
30.6260630541
  0
SOLID
  8
0
 62
7
  6
CONTINUOUS
 10
154.5456166972
 20
30.5938002188
 11
154.3143669177
 21
30.6260630541
 12
155.1815540869
 22
30.6260630541
 13
155.1815540869
 23
30.6260630541
  0
SOLID
  8
0
 62
7
  6
CONTINUOUS
 10
155.1815540869
 20
30.6260630541
 11
154.8924916972
 21
30.5938002188
 12
154.5456166972
 22
30.5938002188
 13
154.5456166972
 23
30.5938002188
  0
SOLID
  8
0
 62
7
  6
CONTINUOUS
 10
159.575304528
 20
30.7551187255
 11
159.228429528
 21
30.7228544637
 12
159.4596793074
 22
30.7873815123
 13
159.4596793074
 23
30.7873815123
  0
SOLID
  8
0
 62
7
  6
CONTINUOUS
 10
159.4596793074
 20
30.7873815123
 11
159.228429528
 21
30.7228544637
 12
159.401867028
 22
30.851908644
 13
159.401867028
 23
30.851908644
  0
SOLID
  8
0
 62
7
  6
CONTINUOUS
 10
159.228429528
 20
30.7228544637
 11
159.1128043074
 21
30.851908644
 12
159.401867028
 22
30.851908644
 13
159.401867028
 23
30.851908644
  0
SOLID
  8
0
 62
7
  6
CONTINUOUS
 10
159.575304528
 20
30.7551187255
 11
159.922179528
 21
30.7228544637
 12
159.228429528
 22
30.7228544637
 13
159.228429528
 23
30.7228544637
  0
SOLID
  8
0
 62
7
  6
CONTINUOUS
 10
156.279992028
 20
30.5938002419
 11
156.279992028
 21
31.6262382337
 12
156.5690540869
 22
30.5938002419
 13
156.5690540869
 23
31.6262382337
  0
ENDBLK
  8
0
  6
BYBLOCK
 62
0
  0
BLOCK
  8
0
 62
2
  6
CONTINUOUS
  2
SYMBOL_3_BL0
 70
64
 10
32.1213064866
 20
19.8534310916
  0
TEXT
  8
0
 62
7
  6
CONTINUOUS
 10
18.3860103289
 20
19.2268451992
  7
TEXTSTYLE_3
 40
2.7338706658
  1
Ammeraal Beltech
 41
1.0
 51
15.0
 72
0
  0
TEXT
  8
0
 62
7
  6
CONTINUOUS
 10
29.1868111546
 20
16.9533085264
  7
TEXTSTYLE_4
 40
1.0935482663
  1
Innovation & Service in Belting
 41
1.0
 72
0
  0
LINE
  8
0
 62
7
  6
CONTINUOUS
 10
12.3614696776
 20
19.9934385078
 11
13.1396216709
 21
23.6543558055
  0
LINE
  8
0
 62
7
  6
CONTINUOUS
 10
23.2347899607
 20
27.3177497171
 11
13.6274394139
 21
24.1961322958
  0
LINE
  8
0
 62
7
  6
CONTINUOUS
 10
12.5867530099
 20
19.3000877048
 11
20.093828271
 21
12.5406867788
  0
LINE
  8
0
 62
7
  6
CONTINUOUS
 10
12.8492874206
 20
20.5352149982
 11
23.6575567857
 21
24.0470345971
  0
LINE
  8
0
 62
7
  6
CONTINUOUS
 10
23.6533516486
 20
13.6972460334
 11
15.2078919798
 21
21.3015720751
  0
LINE
  8
0
 62
7
  6
CONTINUOUS
 10
24.1731743684
 20
26.4728246013
 11
23.1966148312
 21
21.8784731989
  0
LINE
  8
0
 62
7
  6
CONTINUOUS
 10
22.4968128835
 20
18.5861638851
 11
21.810364672
 21
15.3566789607
  0
LINE
  8
0
 62
7
  6
CONTINUOUS
 10
24.8542704669
 20
14.087448211
 11
25.8105020025
 21
18.5861638851
  0
LINE
  8
0
 62
7
  6
CONTINUOUS
 10
26.5103039502
 20
21.8784731989
 11
26.9545457526
 21
23.9684665583
  0
LINE
  8
0
 62
7
  6
CONTINUOUS
 10
20.8069293463
 20
12.3891124661
 11
24.3664527239
 21
13.5456717207
  0
LINE
  8
0
 62
7
  6
CONTINUOUS
 10
23.9478910361
 20
27.1661754044
 11
26.7292624203
 21
24.6618173613
  0
ARC
  8
0
 62
7
  6
CONTINUOUS
 10
13.8527227462
 20
23.5027814928
 40
0.7290321776
 50
108.0
 51
168.0
  0
ARC
  8
0
 62
7
  6
CONTINUOUS
 10
23.4600732931
 20
26.624398914
 40
0.7290321776
 50
348.0
 51
108.0
  0
ARC
  8
0
 62
7
  6
CONTINUOUS
 10
26.2414446773
 20
24.120040871
 40
0.7290321776
 50
348.0
 51
48.0
  0
ARC
  8
0
 62
7
  6
CONTINUOUS
 10
20.581646014
 20
13.0824632691
 40
0.7290321776
 50
228.0
 51
288.0
  0
ARC
  8
0
 62
7
  6
CONTINUOUS
 10
13.0745707529
 20
19.8418641951
 40
0.7290321776
 50
108.0
 51
228.0
  0
ARC
  8
0
 62
7
  6
CONTINUOUS
 10
24.1411693916
 20
14.2390225237
 40
0.7290321776
 50
228.0
 51
348.0
  0
ENDBLK
  8
0
  6
BYBLOCK
 62
0
  0
ENDSEC
  0
SECTION
  2
ENTITIES
  0
TEXT
  8
0
 62
5
  6
CONTINUOUS
 10
96.0
 20
25.636
  7
TEXTSTYLE_2
 40
2.8
  1
Scale :
 41
0.6
 51
0.000019
 72
0
  0
TEXT
  8
0
 62
5
  6
CONTINUOUS
 10
116.0
 20
25.636
  7
TEXTSTYLE_2
 40
2.8
  1
Belt type:
 41
0.6
 51
0.000019
 72
0
  0
INSERT
  8
0
 62
2
  6
CONTINUOUS
  2
SYMBOL_3_BL0
 10
32.1213064866
 20
19.8534310916
  0
INSERT
  8
0
 62
2
  6
CONTINUOUS
  2
SYMBOL_8_BL1
 10
173.5956734183
 20
35.5937998301
  0
LINE
  8
0
 62
2
  6
CONTINUOUS
 10
10.0
 20
30.0
 11
200.0
 21
30.0
  0
LINE
  8
0
 62
2
  6
CONTINUOUS
 10
10.0
 20
30.0
 11
10.0
 21
10.0
  0
LINE
  8
0
 62
2
  6
CONTINUOUS
 10
10.0
 20
10.0
 11
200.0
 21
10.0
  0
LINE
  8
0
 62
2
  6
CONTINUOUS
 10
95.0
 20
30.0
 11
95.0
 21
10.0
  0
LINE
  8
0
 62
2
  6
CONTINUOUS
 10
115.0
 20
30.0
 11
115.0
 21
10.0
  0
LINE
  8
0
 62
2
  6
CONTINUOUS
 10
200.0
 20
30.0
 11
200.0
 21
10.0
  0
TEXT
  8
0
 62
5
  6
CONTINUOUS
 10
13.0
 20
23.303
  7
TEXTSTYLE_5
 40
1.52
  1
                                                                     Ammeraal Beltech Modular A/S
 41
1.0
 72
0
  0
TEXT
  8
0
 62
5
  6
CONTINUOUS
 10
13.0
 20
20.595
  7
TEXTSTYLE_5
 40
1.5
  1
                                                                      Hjulmagervej 21,  7100 Vejle,  DK
 41
1.0
 72
0
  0
TEXT
  8
0
 62
5
  6
CONTINUOUS
 10
13.0
 20
17.881
  7
TEXTSTYLE_5
 40
1.495
  1
                                                                      tel: 
 41
1.0
 72
0
  0
TEXT
  8
0
 62
5
  6
CONTINUOUS
 10
57.9869465649
 20
17.881
  7
TEXTSTYLE_5
 40
1.51
  1
+45 75723100     fax: +45 75723348
 41
1.0
 72
0
  0
TEXT
  8
0
 62
5
  6
CONTINUOUS
 10
13.0
 20
15.177
  7
TEXTSTYLE_5
 40
1.5
  1
                                                                      admin@unichains.dk  www.unichains.com
 41
1.0
 72
0
  0
TEXT
  8
0
 62
5
  6
CONTINUOUS
 10
99.75
 20
13.75
  7
TEXTSTYLE_6
 40
5.0
  1
1:1
 41
0.7
 72
1
 11
105.0
 21
13.75
  0
TEXT
  8
0
 62
5
  6
CONTINUOUS
 10
118.0
 20
13.75
  7
TEXTSTYLE_7
 40
7.5
  1
Emnetegning Rough Top
 41
0.4916666667
 72
0
  0
LINE
  8
0
 62
7
  6
CONTINUOUS
 10
210.0
 20
0.0
 11
0.0
 21
0.0
  0
LINE
  8
0
 62
7
  6
CONTINUOUS
 10
10.0
 20
10.0
 11
200.0
 21
10.0
  0
LINE
  8
0
 62
7
  6
CONTINUOUS
 10
10.0
 20
30.0
 11
200.0
 21
30.0
  0
LINE
  8
0
 62
7
  6
CONTINUOUS
 10
0.0
 20
0.0
 11
0.0
 21
297.0
  0
LINE
  8
0
 62
7
  6
CONTINUOUS
 10
10.0
 20
10.0
 11
10.0
 21
287.0
  0
LINE
  8
0
 62
7
  6
CONTINUOUS
 10
200.0
 20
287.0
 11
200.0
 21
10.0
  0
LINE
  8
0
 62
7
  6
CONTINUOUS
 10
210.0
 20
0.0
 11
210.0
 21
297.0
  0
LINE
  8
0
 62
7
  6
CONTINUOUS
 10
10.0
 20
287.0
 11
200.0
 21
287.0
  0
LINE
  8
0
 62
7
  6
CONTINUOUS
 10
0.0
 20
297.0
 11
210.0
 21
297.0
  0
LINE
  8
2_FEATURE
 62
2
  6
CONTINUOUS
 10
41.4815517241
 20
122.096629404
 11
41.4815517241
 21
124.0174137931
  0
LINE
  8
2_FEATURE
 62
2
  6
CONTINUOUS
 10
41.4815517241
 20
134.5774137931
 11
41.4815517241
 21
136.4981981418
  0
LINE
  8
0
 62
7
  6
CONTINUOUS
 10
41.4815517241
 20
120.5188741937
 11
41.4815517241
 21
145.9974114964
  0
POLYLINE
  8
2_FEATURE
 62
7
  6
CONTINUOUS
 66
1
 70
0
  0
VERTEX
  8
2_FEATURE
 62
7
  6
CONTINUOUS
 10
47.8293512226
 20
112.839127921
  0
VERTEX
  8
2_FEATURE
 62
7
  6
CONTINUOUS
 10
47.8309046661
 20
112.8129869392
  0
VERTEX
  8
2_FEATURE
 62
7
  6
CONTINUOUS
 10
47.8324551056
 20
112.7889400297
  0
VERTEX
  8
2_FEATURE
 62
7
  6
CONTINUOUS
 10
47.8340059688
 20
112.7668430526
  0
VERTEX
  8
2_FEATURE
 62
7
  6
CONTINUOUS
 10
47.8355648773
 20
112.7465103815
  0
VERTEX
  8
2_FEATURE
 62
7
  6
CONTINUOUS
 10
47.8371469039
 20
112.7276954577
  0
VERTEX
  8
2_FEATURE
 62
7
  6
CONTINUOUS
 10
47.838774588
 20
112.7101230828
  0
VERTEX
  8
2_FEATURE
 62
7
  6
CONTINUOUS
 10
47.8404807265
 20
112.6934900084
  0
VERTEX
  8
2_FEATURE
 62
7
  6
CONTINUOUS
 10
47.8423130271
 20
112.6774581952
  0
VERTEX
  8
2_FEATURE
 62
7
  6
CONTINUOUS
 10
47.844336876
 20
112.6616770279
  0
VERTEX
  8
2_FEATURE
 62
7
  6
CONTINUOUS
 10
47.8466497688
 20
112.6457297339
  0
VERTEX
  8
2_FEATURE
 62
7
  6
CONTINUOUS
 10
47.8494037624
 20
112.6290866233
  0
VERTEX
  8
2_FEATURE
 62
7
  6
CONTINUOUS
 10
47.852824125
 20
112.6111455238
  0
VERTEX
  8
2_FEATURE
 62
7
  6
CONTINUOUS
 10
47.8572543177
 20
112.5911855808
  0
VERTEX
  8
2_FEATURE
 62
7
  6
CONTINUOUS
 10
47.8632063366
 20
112.5684028278
  0
VERTEX
  8
2_FEATURE
 62
7
  6
CONTINUOUS
 10
47.8713711653
 20
112.5421293766
  0
VERTEX
  8
2_FEATURE
 62
7
  6
CONTINUOUS
 10
47.8825559091
 20
112.512129631
  0
VERTEX
  8
2_FEATURE
 62
7
  6
CONTINUOUS
 10
47.8975923605
 20
112.4786971711
  0
VERTEX
  8
2_FEATURE
 62
7
  6
CONTINUOUS
 10
47.9173924247
 20
112.4423357395
  0
VERTEX
  8
2_FEATURE
 62
7
  6
CONTINUOUS
 10
47.9431931478
 20
112.4034027789
  0
VERTEX
  8
2_FEATURE
 62
7
  6
CONTINUOUS
 10
47.9761211015
 20
112.3629351975
  0
VERTEX
  8
2_FEATURE
 62
7
  6
CONTINUOUS
 10
48.0166884766
 20
112.3228538828
  0
VERTEX
  8
2_FEATURE
 62
7
  6
CONTINUOUS
 10
48.0647847526
 20
112.2853744065
  0
VERTEX
  8
2_FEATURE
 62
7
  6
CONTINUOUS
 10
48.1196099478
 20
112.2526883214
  0
VERTEX
  8
2_FEATURE
 62
7
  6
CONTINUOUS
 10
48.1797827812
 20
112.2266382332
  0
VERTEX
  8
2_FEATURE
 62
7
  6
CONTINUOUS
 10
48.243501174
 20
112.208520566
  0
VERTEX
  8
2_FEATURE
 62
7
  6
CONTINUOUS
 10
48.3087311642
 20
112.1989885375
  0
VERTEX
  8
2_FEATURE
 62
7
  6
CONTINUOUS
 10
48.3484305138
 20
112.1974137932
  0
SEQEND
  0
POLYLINE
  8
2_FEATURE
 62
7
  6
CONTINUOUS
 66
1
 70
0
  0
VERTEX
  8
2_FEATURE
 62
7
  6
CONTINUOUS
 10
47.4637522298
 20
145.7556995945
  0
VERTEX
  8
2_FEATURE
 62
7
  6
CONTINUOUS
 10
47.4621987856
 20
145.7818405947
  0
VERTEX
  8
2_FEATURE
 62
7
  6
CONTINUOUS
 10
47.4606483461
 20
145.8058875037
  0
VERTEX
  8
2_FEATURE
 62
7
  6
CONTINUOUS
 10
47.4590974842
 20
145.827984466
  0
VERTEX
  8
2_FEATURE
 62
7
  6
CONTINUOUS
 10
47.4575385759
 20
145.848317147
  0
VERTEX
  8
2_FEATURE
 62
7
  6
CONTINUOUS
 10
47.455956548
 20
145.8671320905
  0
VERTEX
  8
2_FEATURE
 62
7
  6
CONTINUOUS
 10
47.4543288639
 20
145.8847044628
  0
VERTEX
  8
2_FEATURE
 62
7
  6
CONTINUOUS
 10
47.4526227289
 20
145.9013375078
  0
VERTEX
  8
2_FEATURE
 62
7
  6
CONTINUOUS
 10
47.4507904313
 20
145.9173693099
  0
VERTEX
  8
2_FEATURE
 62
7
  6
CONTINUOUS
 10
47.4487665775
 20
145.9331505232
  0
VERTEX
  8
2_FEATURE
 62
7
  6
CONTINUOUS
 10
47.4464536819
 20
145.9490978368
  0
VERTEX
  8
2_FEATURE
 62
7
  6
CONTINUOUS
 10
47.4436996912
 20
145.9657409294
  0
VERTEX
  8
2_FEATURE
 62
7
  6
CONTINUOUS
 10
47.4402793473
 20
145.9836819416
  0
VERTEX
  8
2_FEATURE
 62
7
  6
CONTINUOUS
 10
47.4358491904
 20
146.0036417571
  0
VERTEX
  8
2_FEATURE
 62
7
  6
CONTINUOUS
 10
47.4298971567
 20
146.0264246035
  0
VERTEX
  8
2_FEATURE
 62
7
  6
CONTINUOUS
 10
47.421732313
 20
146.0526981244
  0
VERTEX
  8
2_FEATURE
 62
7
  6
CONTINUOUS
 10
47.4105475553
 20
146.0826979173
  0
VERTEX
  8
2_FEATURE
 62
7
  6
CONTINUOUS
 10
47.3955110876
 20
146.116130415
  0
VERTEX
  8
2_FEATURE
 62
7
  6
CONTINUOUS
 10
47.3757109989
 20
146.1524918857
  0
VERTEX
  8
2_FEATURE
 62
7
  6
CONTINUOUS
 10
47.3499102428
 20
146.1914248826
  0
VERTEX
  8
2_FEATURE
 62
7
  6
CONTINUOUS
 10
47.3169822444
 20
146.2318924978
  0
VERTEX
  8
2_FEATURE
 62
7
  6
CONTINUOUS
 10
47.2764147975
 20
146.2719738527
  0
VERTEX
  8
2_FEATURE
 62
7
  6
CONTINUOUS
 10
47.2283184205
 20
146.3094533642
  0
VERTEX
  8
2_FEATURE
 62
7
  6
CONTINUOUS
 10
47.1734931225
 20
146.342139455
  0
VERTEX
  8
2_FEATURE
 62
7
  6
CONTINUOUS
 10
47.1133202239
 20
146.3681895084
  0
VERTEX
  8
2_FEATURE
 62
7
  6
CONTINUOUS
 10
47.0496018464
 20
146.3863071098
  0
VERTEX
  8
2_FEATURE
 62
7
  6
CONTINUOUS
 10
46.9843719939
 20
146.3958390709
  0
VERTEX
  8
2_FEATURE
 62
7
  6
CONTINUOUS
 10
46.9446729147
 20
146.397413793
  0
SEQEND
  0
LINE
  8
2_FEATURE
 62
7
  6
CONTINUOUS
 10
47.8262310766
 20
112.8981547775
 11
47.8293512226
 21
112.839127921
  0
LINE
  8
2_FEATURE
 62
7
  6
CONTINUOUS
 10
47.4668723747
 20
145.6966727479
 11
47.4637522298
 21
145.7556995945
  0
LINE
  8
2_FEATURE
 62
7
  6
CONTINUOUS
 10
47.8230883257
 20
112.9669592744
 11
47.8262310766
 21
112.8981547775
  0
LINE
  8
2_FEATURE
 62
7
  6
CONTINUOUS
 10
47.4700151256
 20
145.6278682375
 11
47.4668723747
 21
145.6966727479
  0
LINE
  8
2_FEATURE
 62
7
  6
CONTINUOUS
 10
47.8199232399
 20
113.0464448975
 11
47.8230883257
 21
112.9669592744
  0
LINE
  8
2_FEATURE
 62
7
  6
CONTINUOUS
 10
47.4731802111
 20
145.5483826189
 11
47.4700151256
 21
145.6278682375
  0
LINE
  8
2_FEATURE
 62
7
  6
CONTINUOUS
 10
47.8151572018
 20
113.1872564357
 11
47.8199232399
 21
113.0464448975
  0
LINE
  8
2_FEATURE
 62
7
  6
CONTINUOUS
 10
47.4779462488
 20
145.4075710782
 11
47.4731802111
 21
145.5483826189
  0
LINE
  8
2_FEATURE
 62
7
  6
CONTINUOUS
 10
47.810412056
 20
113.3558232757
 11
47.8151572018
 21
113.1872564357
  0
LINE
  8
2_FEATURE
 62
7
  6
CONTINUOUS
 10
47.4826913943
 20
145.239004236
 11
47.4779462488
 21
145.4075710782
  0
LINE
  8
2_FEATURE
 62
7
  6
CONTINUOUS
 10
47.8041451747
 20
113.6303724921
 11
47.810412056
 21
113.3558232757
  0
LINE
  8
2_FEATURE
 62
7
  6
CONTINUOUS
 10
47.4889582749
 20
144.9644550259
 11
47.4826913943
 21
145.239004236
  0
LINE
  8
2_FEATURE
 62
7
  6
CONTINUOUS
 10
47.7980282636
 20
113.9719682048
 11
47.8041451747
 21
113.6303724921
  0
LINE
  8
2_FEATURE
 62
7
  6
CONTINUOUS
 10
47.4950751854
 20
144.6228593276
 11
47.4889582749
 21
144.9644550259
  0
LINE
  8
2_FEATURE
 62
7
  6
CONTINUOUS
 10
47.7923044775
 20
114.3873983416
 11
47.7980282636
 21
113.9719682048
  0
LINE
  8
2_FEATURE
 62
7
  6
CONTINUOUS
 10
47.5007989712
 20
144.2074292156
 11
47.4950751854
 21
144.6228593276
  0
LINE
  8
2_FEATURE
 62
7
  6
CONTINUOUS
 10
47.7884640044
 20
114.7490982167
 11
47.7923044775
 21
114.3873983416
  0
LINE
  8
2_FEATURE
 62
7
  6
CONTINUOUS
 10
47.504639444
 20
143.8457293524
 11
47.5007989712
 21
144.2074292156
  0
LINE
  8
2_FEATURE
 62
7
  6
CONTINUOUS
 10
47.5079282309
 20
143.4405145104
 11
47.504639444
 21
143.8457293524
  0
LINE
  8
2_FEATURE
 62
7
  6
CONTINUOUS
 10
47.7851752175
 20
115.1543130715
 11
47.7884640044
 21
114.7490982167
  0
LINE
  8
2_FEATURE
 62
7
  6
CONTINUOUS
 10
47.5104991685
 20
142.992710251
 11
47.5079282309
 21
143.4405145104
  0
LINE
  8
2_FEATURE
 62
7
  6
CONTINUOUS
 10
47.7826042795
 20
115.6021173902
 11
47.7851752175
 21
115.1543130715
  0
LINE
  8
2_FEATURE
 62
7
  6
CONTINUOUS
 10
47.5121700997
 20
142.5050928422
 11
47.5104991685
 21
142.992710251
  0
LINE
  8
2_FEATURE
 62
7
  6
CONTINUOUS
 10
47.7809333479
 20
116.0897350674
 11
47.7826042795
 21
115.6021173902
  0
LINE
  8
2_FEATURE
 62
7
  6
CONTINUOUS
 10
47.5127480268
 20
141.9974137931
 11
47.5121700997
 21
142.5050928422
  0
LINE
  8
2_FEATURE
 62
7
  6
CONTINUOUS
 10
47.7803554216
 20
116.5974137931
 11
47.7809333479
 21
116.0897350674
  0
LINE
  8
2_FEATURE
 62
7
  6
CONTINUOUS
 10
47.5127480277
 20
140.1492195521
 11
47.5127480277
 21
141.9974137931
  0
LINE
  8
2_FEATURE
 62
7
  6
CONTINUOUS
 10
47.7803554206
 20
118.4456080341
 11
47.7803554206
 21
116.5974137931
  0
LINE
  8
0
 62
7
  6
CONTINUOUS
 10
49.8965517241
 20
123.5474137931
 11
49.8965517241
 21
135.0474137931
  0
LINE
  8
0
 62
7
  6
CONTINUOUS
 10
50.7587270861
 20
123.5474137931
 11
50.7587270861
 21
135.0474137931
  0
LINE
  8
0
 62
7
  6
CONTINUOUS
 10
51.8193872579
 20
123.5474137931
 11
51.8193872579
 21
135.0474137931
  0
LINE
  8
0
 62
7
  6
CONTINUOUS
 10
52.8800474296
 20
123.5474137931
 11
52.8800474296
 21
135.0474137931
  0
LINE
  8
0
 62
7
  6
CONTINUOUS
 10
53.9407076014
 20
123.5474137931
 11
53.9407076014
 21
135.0474137931
  0
LINE
  8
2_FEATURE
 62
7
  6
CONTINUOUS
 10
53.8622104368
 20
116.1076998345
 11
53.8627480277
 21
118.4456080418
  0
LINE
  8
2_FEATURE
 62
7
  6
CONTINUOUS
 10
54.1309016025
 20
142.4910096696
 11
54.1303554206
 21
140.1492195444
  0
LINE
  8
2_FEATURE
 62
7
  6
CONTINUOUS
 10
53.8599369189
 20
115.4869582801
 11
53.8622104368
 21
116.1076998345
  0
LINE
  8
2_FEATURE
 62
7
  6
CONTINUOUS
 10
54.1331882282
 20
143.1120566004
 11
54.1309016025
 21
142.4910096696
  0
POLYLINE
  8
2_FEATURE
 62
7
  6
CONTINUOUS
 66
1
 70
0
  0
VERTEX
  8
2_FEATURE
 62
7
  6
CONTINUOUS
 10
53.8627472591
 20
118.4456080418
  0
VERTEX
  8
2_FEATURE
 62
7
  6
CONTINUOUS
 10
53.862993645
 20
118.4941962993
  0
VERTEX
  8
2_FEATURE
 62
7
  6
CONTINUOUS
 10
53.8641036909
 20
118.5575737474
  0
VERTEX
  8
2_FEATURE
 62
7
  6
CONTINUOUS
 10
53.8661531311
 20
118.6200278741
  0
VERTEX
  8
2_FEATURE
 62
7
  6
CONTINUOUS
 10
53.8691896593
 20
118.6815322933
  0
VERTEX
  8
2_FEATURE
 62
7
  6
CONTINUOUS
 10
53.8732619488
 20
118.7420477135
  0
VERTEX
  8
2_FEATURE
 62
7
  6
CONTINUOUS
 10
53.8784144576
 20
118.8015256835
  0
VERTEX
  8
2_FEATURE
 62
7
  6
CONTINUOUS
 10
53.884685193
 20
118.8599101621
  0
VERTEX
  8
2_FEATURE
 62
7
  6
CONTINUOUS
 10
53.8921079033
 20
118.9171281765
  0
VERTEX
  8
2_FEATURE
 62
7
  6
CONTINUOUS
 10
53.9007090931
 20
118.9730730715
  0
VERTEX
  8
2_FEATURE
 62
7
  6
CONTINUOUS
 10
53.9105233047
 20
119.0277366288
  0
VERTEX
  8
2_FEATURE
 62
7
  6
CONTINUOUS
 10
53.9215868731
 20
119.0811098724
  0
VERTEX
  8
2_FEATURE
 62
7
  6
CONTINUOUS
 10
53.9339354624
 20
119.1331479264
  0
VERTEX
  8
2_FEATURE
 62
7
  6
CONTINUOUS
 10
53.9475972715
 20
119.1837816694
  0
VERTEX
  8
2_FEATURE
 62
7
  6
CONTINUOUS
 10
53.9625910673
 20
119.2329143422
  0
VERTEX
  8
2_FEATURE
 62
7
  6
CONTINUOUS
 10
53.978923557
 20
119.2804147842
  0
VERTEX
  8
2_FEATURE
 62
7
  6
CONTINUOUS
 10
53.9965849269
 20
119.3261343633
  0
VERTEX
  8
2_FEATURE
 62
7
  6
CONTINUOUS
 10
54.0155685456
 20
119.3699510351
  0
VERTEX
  8
2_FEATURE
 62
7
  6
CONTINUOUS
 10
54.0358615832
 20
119.4117372595
  0
VERTEX
  8
2_FEATURE
 62
7
  6
CONTINUOUS
 10
54.0574049262
 20
119.4512917237
  0
VERTEX
  8
2_FEATURE
 62
7
  6
CONTINUOUS
 10
54.0800687344
 20
119.4883345655
  0
VERTEX
  8
2_FEATURE
 62
7
  6
CONTINUOUS
 10
54.1037724133
 20
119.5227209601
  0
VERTEX
  8
2_FEATURE
 62
7
  6
CONTINUOUS
 10
54.1286002985
 20
119.5545175922
  0
VERTEX
  8
2_FEATURE
 62
7
  6
CONTINUOUS
 10
54.1545545165
 20
119.5836071501
  0
VERTEX
  8
2_FEATURE
 62
7
  6
CONTINUOUS
 10
54.1815111866
 20
119.6097054102
  0
VERTEX
  8
2_FEATURE
 62
7
  6
CONTINUOUS
 10
54.2093653919
 20
119.6325539264
  0
VERTEX
  8
2_FEATURE
 62
7
  6
CONTINUOUS
 10
54.2381466969
 20
119.6519478514
  0
VERTEX
  8
2_FEATURE
 62
7
  6
CONTINUOUS
 10
54.2676332239
 20
119.6674373168
  0
VERTEX
  8
2_FEATURE
 62
7
  6
CONTINUOUS
 10
54.2978256684
 20
119.6786313392
  0
VERTEX
  8
2_FEATURE
 62
7
  6
CONTINUOUS
 10
54.3273131714
 20
119.6848248618
  0
VERTEX
  8
2_FEATURE
 62
7
  6
CONTINUOUS
 10
54.3500553903
 20
119.6862851263
  0
SEQEND
  0
POLYLINE
  8
2_FEATURE
 62
7
  6
CONTINUOUS
 66
1
 70
0
  0
VERTEX
  8
2_FEATURE
 62
7
  6
CONTINUOUS
 10
54.1303561892
 20
140.1492195444
  0
VERTEX
  8
2_FEATURE
 62
7
  6
CONTINUOUS
 10
54.1301098032
 20
140.1006312869
  0
VERTEX
  8
2_FEATURE
 62
7
  6
CONTINUOUS
 10
54.1289997574
 20
140.0372538389
  0
VERTEX
  8
2_FEATURE
 62
7
  6
CONTINUOUS
 10
54.1269503172
 20
139.9747997121
  0
VERTEX
  8
2_FEATURE
 62
7
  6
CONTINUOUS
 10
54.123913789
 20
139.9132952929
  0
VERTEX
  8
2_FEATURE
 62
7
  6
CONTINUOUS
 10
54.1198414994
 20
139.8527798727
  0
VERTEX
  8
2_FEATURE
 62
7
  6
CONTINUOUS
 10
54.1146889907
 20
139.7933019027
  0
VERTEX
  8
2_FEATURE
 62
7
  6
CONTINUOUS
 10
54.1084182552
 20
139.7349174242
  0
VERTEX
  8
2_FEATURE
 62
7
  6
CONTINUOUS
 10
54.100995545
 20
139.6776994097
  0
VERTEX
  8
2_FEATURE
 62
7
  6
CONTINUOUS
 10
54.0923943551
 20
139.6217545147
  0
VERTEX
  8
2_FEATURE
 62
7
  6
CONTINUOUS
 10
54.0825801436
 20
139.5670909574
  0
VERTEX
  8
2_FEATURE
 62
7
  6
CONTINUOUS
 10
54.0715165752
 20
139.5137177138
  0
VERTEX
  8
2_FEATURE
 62
7
  6
CONTINUOUS
 10
54.0591679858
 20
139.4616796598
  0
VERTEX
  8
2_FEATURE
 62
7
  6
CONTINUOUS
 10
54.0455061768
 20
139.4110459168
  0
VERTEX
  8
2_FEATURE
 62
7
  6
CONTINUOUS
 10
54.030512381
 20
139.361913244
  0
VERTEX
  8
2_FEATURE
 62
7
  6
CONTINUOUS
 10
54.0141798913
 20
139.314412802
  0
VERTEX
  8
2_FEATURE
 62
7
  6
CONTINUOUS
 10
53.9965185213
 20
139.2686932229
  0
VERTEX
  8
2_FEATURE
 62
7
  6
CONTINUOUS
 10
53.9775349027
 20
139.2248765511
  0
VERTEX
  8
2_FEATURE
 62
7
  6
CONTINUOUS
 10
53.9572418651
 20
139.1830903267
  0
VERTEX
  8
2_FEATURE
 62
7
  6
CONTINUOUS
 10
53.9356985221
 20
139.1435358625
  0
VERTEX
  8
2_FEATURE
 62
7
  6
CONTINUOUS
 10
53.9130347139
 20
139.1064930207
  0
VERTEX
  8
2_FEATURE
 62
7
  6
CONTINUOUS
 10
53.889331035
 20
139.0721066261
  0
VERTEX
  8
2_FEATURE
 62
7
  6
CONTINUOUS
 10
53.8645031498
 20
139.040309994
  0
VERTEX
  8
2_FEATURE
 62
7
  6
CONTINUOUS
 10
53.8385489318
 20
139.0112204361
  0
VERTEX
  8
2_FEATURE
 62
7
  6
CONTINUOUS
 10
53.8115922617
 20
138.9851221761
  0
VERTEX
  8
2_FEATURE
 62
7
  6
CONTINUOUS
 10
53.7837380564
 20
138.9622736598
  0
VERTEX
  8
2_FEATURE
 62
7
  6
CONTINUOUS
 10
53.7549567513
 20
138.9428797348
  0
VERTEX
  8
2_FEATURE
 62
7
  6
CONTINUOUS
 10
53.7254702244
 20
138.9273902694
  0
VERTEX
  8
2_FEATURE
 62
7
  6
CONTINUOUS
 10
53.6952777799
 20
138.916196247
  0
VERTEX
  8
2_FEATURE
 62
7
  6
CONTINUOUS
 10
53.6657902769
 20
138.9100027244
  0
VERTEX
  8
2_FEATURE
 62
7
  6
CONTINUOUS
 10
53.643048058
 20
138.9085424599
  0
SEQEND
  0
LINE
  8
2_FEATURE
 62
7
  6
CONTINUOUS
 10
53.8562540653
 20
114.9329843866
 11
53.8599369189
 21
115.4869582801
  0
LINE
  8
2_FEATURE
 62
7
  6
CONTINUOUS
 10
54.1368511281
 20
143.6620556693
 11
54.1331882282
 21
143.1120566004
  0
LINE
  8
2_FEATURE
 62
7
  6
CONTINUOUS
 10
54.1414929453
 20
144.13798
 11
54.1368511281
 21
143.6620556693
  0
LINE
  8
2_FEATURE
 62
7
  6
CONTINUOUS
 10
53.8515383043
 20
114.4505372467
 11
53.8562540653
 21
114.9329843866
  0
LINE
  8
2_FEATURE
 62
7
  6
CONTINUOUS
 10
53.8461228327
 20
114.0398199926
 11
53.8515383043
 21
114.4505372467
  0
LINE
  8
2_FEATURE
 62
7
  6
CONTINUOUS
 10
54.1481491035
 20
144.6304856779
 11
54.1414929453
 21
144.13798
  0
LINE
  8
2_FEATURE
 62
7
  6
CONTINUOUS
 10
53.8388076303
 20
113.622971907
 11
53.8461228327
 21
114.0398199926
  0
LINE
  8
2_FEATURE
 62
7
  6
CONTINUOUS
 10
54.1552223529
 20
145.0164364973
 11
54.1481491035
 21
144.6304856779
  0
LINE
  8
2_FEATURE
 62
7
  6
CONTINUOUS
 10
53.8327754105
 20
113.3590896726
 11
53.8388076303
 21
113.622971907
  0
LINE
  8
2_FEATURE
 62
7
  6
CONTINUOUS
 10
54.1609881843
 20
145.2611256812
 11
54.1552223529
 21
145.0164364973
  0
LINE
  8
2_FEATURE
 62
7
  6
CONTINUOUS
 10
53.8282034337
 20
113.1956306584
 11
53.8327754105
 21
113.3590896726
  0
LINE
  8
2_FEATURE
 62
7
  6
CONTINUOUS
 10
54.1653272722
 20
145.4130632278
 11
54.1609881843
 21
145.2611256812
  0
LINE
  8
2_FEATURE
 62
7
  6
CONTINUOUS
 10
53.8236049079
 20
113.0579308712
 11
53.8282034337
 21
113.1956306584
  0
LINE
  8
2_FEATURE
 62
7
  6
CONTINUOUS
 10
54.1696155653
 20
145.5400815841
 11
54.1653272722
 21
145.4130632278
  0
LINE
  8
2_FEATURE
 62
7
  6
CONTINUOUS
 10
54.1724214839
 20
145.6119972646
 11
54.1696155653
 21
145.5400815841
  0
LINE
  8
2_FEATURE
 62
7
  6
CONTINUOUS
 10
53.8205462566
 20
112.9795633281
 11
53.8236049079
 21
113.0579308712
  0
LINE
  8
2_FEATURE
 62
7
  6
CONTINUOUS
 10
54.1751774858
 20
145.6746854458
 11
54.1724214839
 21
145.6119972646
  0
LINE
  8
2_FEATURE
 62
7
  6
CONTINUOUS
 10
53.8175078019
 20
112.9112877905
 11
53.8205462566
 21
112.9795633281
  0
LINE
  8
2_FEATURE
 62
7
  6
CONTINUOUS
 10
54.1778875735
 20
145.7291205308
 11
54.1751774858
 21
145.6746854458
  0
LINE
  8
0
 62
7
  6
CONTINUOUS
 10
55.0013677732
 20
123.5474137931
 11
55.0013677732
 21
135.0474137931
  0
LINE
  8
0
 62
7
  6
CONTINUOUS
 10
56.062027945
 20
123.5474137931
 11
56.062027945
 21
135.0474137931
  0
LINE
  8
0
 62
7
  6
CONTINUOUS
 10
57.1226881168
 20
123.5474137931
 11
57.1226881168
 21
135.0474137931
  0
LINE
  8
0
 62
7
  6
CONTINUOUS
 10
49.8965517241
 20
132.9260934495
 11
52.0178720677
 21
135.0474137931
  0
LINE
  8
0
 62
7
  6
CONTINUOUS
 10
49.8965517241
 20
130.804773106
 11
54.1391924113
 21
135.0474137931
  0
LINE
  8
0
 62
7
  6
CONTINUOUS
 10
50.3929803867
 20
123.5474137931
 11
49.8965517241
 21
124.0438424556
  0
LINE
  8
0
 62
7
  6
CONTINUOUS
 10
52.5143007302
 20
123.5474137931
 11
49.8965517241
 21
126.1651627992
  0
POLYLINE
  8
2_FEATURE
 62
7
  6
CONTINUOUS
 66
1
 70
0
  0
VERTEX
  8
2_FEATURE
 62
7
  6
CONTINUOUS
 10
60.5293512226
 20
112.839127921
  0
VERTEX
  8
2_FEATURE
 62
7
  6
CONTINUOUS
 10
60.5309046661
 20
112.8129869392
  0
VERTEX
  8
2_FEATURE
 62
7
  6
CONTINUOUS
 10
60.5324551056
 20
112.7889400297
  0
VERTEX
  8
2_FEATURE
 62
7
  6
CONTINUOUS
 10
60.5340059688
 20
112.7668430526
  0
VERTEX
  8
2_FEATURE
 62
7
  6
CONTINUOUS
 10
60.5355648773
 20
112.7465103815
  0
VERTEX
  8
2_FEATURE
 62
7
  6
CONTINUOUS
 10
60.5371469039
 20
112.7276954577
  0
VERTEX
  8
2_FEATURE
 62
7
  6
CONTINUOUS
 10
60.538774588
 20
112.7101230828
  0
VERTEX
  8
2_FEATURE
 62
7
  6
CONTINUOUS
 10
60.5404807265
 20
112.6934900084
  0
VERTEX
  8
2_FEATURE
 62
7
  6
CONTINUOUS
 10
60.5423130271
 20
112.6774581952
  0
VERTEX
  8
2_FEATURE
 62
7
  6
CONTINUOUS
 10
60.544336876
 20
112.6616770279
  0
VERTEX
  8
2_FEATURE
 62
7
  6
CONTINUOUS
 10
60.5466497688
 20
112.6457297339
  0
VERTEX
  8
2_FEATURE
 62
7
  6
CONTINUOUS
 10
60.5494037624
 20
112.6290866233
  0
VERTEX
  8
2_FEATURE
 62
7
  6
CONTINUOUS
 10
60.552824125
 20
112.6111455238
  0
VERTEX
  8
2_FEATURE
 62
7
  6
CONTINUOUS
 10
60.5572543177
 20
112.5911855808
  0
VERTEX
  8
2_FEATURE
 62
7
  6
CONTINUOUS
 10
60.5632063366
 20
112.5684028278
  0
VERTEX
  8
2_FEATURE
 62
7
  6
CONTINUOUS
 10
60.5713711653
 20
112.5421293766
  0
VERTEX
  8
2_FEATURE
 62
7
  6
CONTINUOUS
 10
60.5825559091
 20
112.512129631
  0
VERTEX
  8
2_FEATURE
 62
7
  6
CONTINUOUS
 10
60.5975923605
 20
112.4786971711
  0
VERTEX
  8
2_FEATURE
 62
7
  6
CONTINUOUS
 10
60.6173924247
 20
112.4423357395
  0
VERTEX
  8
2_FEATURE
 62
7
  6
CONTINUOUS
 10
60.6431931478
 20
112.4034027789
  0
VERTEX
  8
2_FEATURE
 62
7
  6
CONTINUOUS
 10
60.6761211015
 20
112.3629351975
  0
VERTEX
  8
2_FEATURE
 62
7
  6
CONTINUOUS
 10
60.7166884766
 20
112.3228538828
  0
VERTEX
  8
2_FEATURE
 62
7
  6
CONTINUOUS
 10
60.7647847526
 20
112.2853744065
  0
VERTEX
  8
2_FEATURE
 62
7
  6
CONTINUOUS
 10
60.8196099478
 20
112.2526883214
  0
VERTEX
  8
2_FEATURE
 62
7
  6
CONTINUOUS
 10
60.8797827812
 20
112.2266382332
  0
VERTEX
  8
2_FEATURE
 62
7
  6
CONTINUOUS
 10
60.943501174
 20
112.208520566
  0
VERTEX
  8
2_FEATURE
 62
7
  6
CONTINUOUS
 10
61.0087311642
 20
112.1989885375
  0
VERTEX
  8
2_FEATURE
 62
7
  6
CONTINUOUS
 10
61.0484305138
 20
112.1974137932
  0
SEQEND
  0
LINE
  8
2_FEATURE
 62
7
  6
CONTINUOUS
 10
60.5262310766
 20
112.8981547775
 11
60.5293512226
 21
112.839127921
  0
LINE
  8
2_FEATURE
 62
7
  6
CONTINUOUS
 10
60.5230883257
 20
112.9669592744
 11
60.5262310766
 21
112.8981547775
  0
LINE
  8
2_FEATURE
 62
7
  6
CONTINUOUS
 10
60.5199232399
 20
113.0464448975
 11
60.5230883257
 21
112.9669592744
  0
LINE
  8
2_FEATURE
 62
7
  6
CONTINUOUS
 10
60.5151572018
 20
113.1872564357
 11
60.5199232399
 21
113.0464448975
  0
LINE
  8
2_FEATURE
 62
7
  6
CONTINUOUS
 10
60.510412056
 20
113.3558232757
 11
60.5151572018
 21
113.1872564357
  0
LINE
  8
2_FEATURE
 62
7
  6
CONTINUOUS
 10
60.5041451747
 20
113.6303724921
 11
60.510412056
 21
113.3558232757
  0
LINE
  8
2_FEATURE
 62
7
  6
CONTINUOUS
 10
60.4980282636
 20
113.9719682048
 11
60.5041451747
 21
113.6303724921
  0
LINE
  8
2_FEATURE
 62
7
  6
CONTINUOUS
 10
60.4923044775
 20
114.3873983416
 11
60.4980282636
 21
113.9719682048
  0
LINE
  8
2_FEATURE
 62
7
  6
CONTINUOUS
 10
60.4884640044
 20
114.7490982167
 11
60.4923044775
 21
114.3873983416
  0
LINE
  8
2_FEATURE
 62
7
  6
CONTINUOUS
 10
60.2069031553
 20
143.5803982127
 11
60.2034129091
 21
143.971131295
  0
LINE
  8
2_FEATURE
 62
7
  6
CONTINUOUS
 10
60.2097329211
 20
143.1465799566
 11
60.2069031553
 21
143.5803982127
  0
LINE
  8
2_FEATURE
 62
7
  6
CONTINUOUS
 10
60.2117248852
 20
142.671798882
 11
60.2097329211
 21
143.1465799566
  0
LINE
  8
2_FEATURE
 62
7
  6
CONTINUOUS
 10
60.2126887995
 20
142.1602296384
 11
60.2117248852
 21
142.671798882
  0
LINE
  8
0
 62
7
  6
CONTINUOUS
 10
58.1833482885
 20
123.5474137931
 11
58.1833482885
 21
135.0474137931
  0
LINE
  8
0
 62
7
  6
CONTINUOUS
 10
59.2440084603
 20
123.5474137931
 11
59.2440084603
 21
135.0474137931
  0
LINE
  8
2_FEATURE
 62
7
  6
CONTINUOUS
 10
60.2127480277
 20
140.1492195521
 11
60.2126887995
 21
142.1602296384
  0
LINE
  8
0
 62
7
  6
CONTINUOUS
 10
60.3046686321
 20
123.5474137931
 11
60.3046686321
 21
135.0474137931
  0
LINE
  8
0
 62
7
  6
CONTINUOUS
 10
49.8965517241
 20
128.6834527624
 11
56.2605127548
 21
135.0474137931
  0
LINE
  8
0
 62
7
  6
CONTINUOUS
 10
54.6356210738
 20
123.5474137931
 11
49.8965517241
 21
128.2864831428
  0
LINE
  8
0
 62
7
  6
CONTINUOUS
 10
56.7569414173
 20
123.5474137931
 11
49.8965517241
 21
130.4078034863
  0
POLYLINE
  8
2_FEATURE
 62
7
  6
CONTINUOUS
 66
1
 70
0
  0
VERTEX
  8
2_FEATURE
 62
7
  6
CONTINUOUS
 10
60.1637522298
 20
145.7556995945
  0
VERTEX
  8
2_FEATURE
 62
7
  6
CONTINUOUS
 10
60.1621987856
 20
145.7818405947
  0
VERTEX
  8
2_FEATURE
 62
7
  6
CONTINUOUS
 10
60.1606483461
 20
145.8058875037
  0
VERTEX
  8
2_FEATURE
 62
7
  6
CONTINUOUS
 10
60.1590974842
 20
145.827984466
  0
VERTEX
  8
2_FEATURE
 62
7
  6
CONTINUOUS
 10
60.1575385759
 20
145.848317147
  0
VERTEX
  8
2_FEATURE
 62
7
  6
CONTINUOUS
 10
60.155956548
 20
145.8671320905
  0
VERTEX
  8
2_FEATURE
 62
7
  6
CONTINUOUS
 10
60.1543288639
 20
145.8847044628
  0
VERTEX
  8
2_FEATURE
 62
7
  6
CONTINUOUS
 10
60.1526227289
 20
145.9013375078
  0
VERTEX
  8
2_FEATURE
 62
7
  6
CONTINUOUS
 10
60.1507904313
 20
145.9173693099
  0
VERTEX
  8
2_FEATURE
 62
7
  6
CONTINUOUS
 10
60.1487665775
 20
145.9331505232
  0
VERTEX
  8
2_FEATURE
 62
7
  6
CONTINUOUS
 10
60.1464536819
 20
145.9490978368
  0
VERTEX
  8
2_FEATURE
 62
7
  6
CONTINUOUS
 10
60.1436996912
 20
145.9657409294
  0
VERTEX
  8
2_FEATURE
 62
7
  6
CONTINUOUS
 10
60.1402793473
 20
145.9836819416
  0
VERTEX
  8
2_FEATURE
 62
7
  6
CONTINUOUS
 10
60.1358491904
 20
146.0036417571
  0
VERTEX
  8
2_FEATURE
 62
7
  6
CONTINUOUS
 10
60.1298971567
 20
146.0264246035
  0
VERTEX
  8
2_FEATURE
 62
7
  6
CONTINUOUS
 10
60.121732313
 20
146.0526981244
  0
VERTEX
  8
2_FEATURE
 62
7
  6
CONTINUOUS
 10
60.1105475553
 20
146.0826979173
  0
VERTEX
  8
2_FEATURE
 62
7
  6
CONTINUOUS
 10
60.0955110876
 20
146.116130415
  0
VERTEX
  8
2_FEATURE
 62
7
  6
CONTINUOUS
 10
60.0757109989
 20
146.1524918857
  0
VERTEX
  8
2_FEATURE
 62
7
  6
CONTINUOUS
 10
60.0499102428
 20
146.1914248826
  0
VERTEX
  8
2_FEATURE
 62
7
  6
CONTINUOUS
 10
60.0169822444
 20
146.2318924978
  0
VERTEX
  8
2_FEATURE
 62
7
  6
CONTINUOUS
 10
59.9764147975
 20
146.2719738527
  0
VERTEX
  8
2_FEATURE
 62
7
  6
CONTINUOUS
 10
59.9283184205
 20
146.3094533642
  0
VERTEX
  8
2_FEATURE
 62
7
  6
CONTINUOUS
 10
59.8734931225
 20
146.342139455
  0
VERTEX
  8
2_FEATURE
 62
7
  6
CONTINUOUS
 10
59.8133202239
 20
146.3681895084
  0
VERTEX
  8
2_FEATURE
 62
7
  6
CONTINUOUS
 10
59.7496018464
 20
146.3863071098
  0
VERTEX
  8
2_FEATURE
 62
7
  6
CONTINUOUS
 10
59.6843719939
 20
146.3958390709
  0
VERTEX
  8
2_FEATURE
 62
7
  6
CONTINUOUS
 10
59.6446729147
 20
146.397413793
  0
SEQEND
  0
LINE
  8
2_FEATURE
 62
7
  6
CONTINUOUS
 10
60.1668723747
 20
145.6966727479
 11
60.1637522298
 21
145.7556995945
  0
LINE
  8
2_FEATURE
 62
7
  6
CONTINUOUS
 10
60.1700151256
 20
145.6278682376
 11
60.1668723747
 21
145.6966727479
  0
LINE
  8
2_FEATURE
 62
7
  6
CONTINUOUS
 10
60.1731802111
 20
145.5483826189
 11
60.1700151256
 21
145.6278682376
  0
LINE
  8
2_FEATURE
 62
7
  6
CONTINUOUS
 10
60.1779462488
 20
145.4075710782
 11
60.1731802111
 21
145.5483826189
  0
LINE
  8
2_FEATURE
 62
7
  6
CONTINUOUS
 10
60.1826913943
 20
145.239004236
 11
60.1779462488
 21
145.4075710782
  0
LINE
  8
2_FEATURE
 62
7
  6
CONTINUOUS
 10
60.1889582749
 20
144.9644550259
 11
60.1826913943
 21
145.239004236
  0
LINE
  8
2_FEATURE
 62
7
  6
CONTINUOUS
 10
60.1950751854
 20
144.6228593276
 11
60.1889582749
 21
144.9644550259
  0
LINE
  8
2_FEATURE
 62
7
  6
CONTINUOUS
 10
60.2007989712
 20
144.2074292156
 11
60.1950751854
 21
144.6228593276
  0
LINE
  8
2_FEATURE
 62
7
  6
CONTINUOUS
 10
60.2034129091
 20
143.971131295
 11
60.2007989712
 21
144.2074292156
  0
LINE
  8
2_FEATURE
 62
7
  6
CONTINUOUS
 10
60.4851752175
 20
115.1543130715
 11
60.4884640044
 21
114.7490982167
  0
LINE
  8
2_FEATURE
 62
7
  6
CONTINUOUS
 10
60.4826042795
 20
115.6021173902
 11
60.4851752175
 21
115.1543130715
  0
LINE
  8
2_FEATURE
 62
7
  6
CONTINUOUS
 10
60.4809333479
 20
116.0897350674
 11
60.4826042795
 21
115.6021173902
  0
LINE
  8
2_FEATURE
 62
7
  6
CONTINUOUS
 10
60.4803554216
 20
116.5974137931
 11
60.4809333479
 21
116.0897350674
  0
LINE
  8
2_FEATURE
 62
7
  6
CONTINUOUS
 10
60.4803554206
 20
118.4456080341
 11
60.4803554206
 21
116.5974137931
  0
LINE
  8
0
 62
7
  6
CONTINUOUS
 10
61.3653288039
 20
123.5474137931
 11
61.3653288039
 21
135.0474137931
  0
LINE
  8
0
 62
7
  6
CONTINUOUS
 10
62.4259889757
 20
123.5474137931
 11
62.4259889757
 21
135.0474137931
  0
LINE
  8
0
 62
7
  6
CONTINUOUS
 10
49.8965517241
 20
126.5621324189
 11
58.3818330984
 21
135.0474137931
  0
LINE
  8
0
 62
7
  6
CONTINUOUS
 10
49.8965517241
 20
124.4408120753
 11
60.5031534419
 21
135.0474137931
  0
POLYLINE
  8
2_FEATURE
 62
7
  6
CONTINUOUS
 66
1
 70
0
  0
VERTEX
  8
2_FEATURE
 62
7
  6
CONTINUOUS
 10
104.0946729214
 20
112.1974137932
  0
VERTEX
  8
2_FEATURE
 62
7
  6
CONTINUOUS
 10
104.1360047407
 20
112.1991209353
  0
VERTEX
  8
2_FEATURE
 62
7
  6
CONTINUOUS
 10
104.2018809664
 20
112.2090139643
  0
VERTEX
  8
2_FEATURE
 62
7
  6
CONTINUOUS
 10
104.2654905537
 20
112.227419109
  0
VERTEX
  8
2_FEATURE
 62
7
  6
CONTINUOUS
 10
104.3250838655
 20
112.2535077158
  0
VERTEX
  8
2_FEATURE
 62
7
  6
CONTINUOUS
 10
104.3791483268
 20
112.285944717
  0
VERTEX
  8
2_FEATURE
 62
7
  6
CONTINUOUS
 10
104.4265583839
 20
112.3229803922
  0
VERTEX
  8
2_FEATURE
 62
7
  6
CONTINUOUS
 10
104.4666945037
 20
112.3626168954
  0
VERTEX
  8
2_FEATURE
 62
7
  6
CONTINUOUS
 10
104.4995131634
 20
112.4028604056
  0
VERTEX
  8
2_FEATURE
 62
7
  6
CONTINUOUS
 10
104.525464847
 20
112.441924773
  0
VERTEX
  8
2_FEATURE
 62
7
  6
CONTINUOUS
 10
104.5453834679
 20
112.4784385854
  0
VERTEX
  8
2_FEATURE
 62
7
  6
CONTINUOUS
 10
104.5602918113
 20
112.5115038768
  0
VERTEX
  8
2_FEATURE
 62
7
  6
CONTINUOUS
 10
104.5712822372
 20
112.5408067806
  0
VERTEX
  8
2_FEATURE
 62
7
  6
CONTINUOUS
 10
104.5794468321
 20
112.5668234921
  0
VERTEX
  8
2_FEATURE
 62
7
  6
CONTINUOUS
 10
104.5856067509
 20
112.5901781311
  0
VERTEX
  8
2_FEATURE
 62
7
  6
CONTINUOUS
 10
104.5902496838
 20
112.6110009279
  0
VERTEX
  8
2_FEATURE
 62
7
  6
CONTINUOUS
 10
104.5937672722
 20
112.629469042
  0
VERTEX
  8
2_FEATURE
 62
7
  6
CONTINUOUS
 10
104.5965275966
 20
112.646209114
  0
VERTEX
  8
2_FEATURE
 62
7
  6
CONTINUOUS
 10
104.5988055919
 20
112.6619640584
  0
VERTEX
  8
2_FEATURE
 62
7
  6
CONTINUOUS
 10
104.600770547
 20
112.6772938671
  0
VERTEX
  8
2_FEATURE
 62
7
  6
CONTINUOUS
 10
104.6025267953
 20
112.6926055436
  0
VERTEX
  8
2_FEATURE
 62
7
  6
CONTINUOUS
 10
104.6041394428
 20
112.7081893211
  0
VERTEX
  8
2_FEATURE
 62
7
  6
CONTINUOUS
 10
104.6056502269
 20
112.7242542603
  0
VERTEX
  8
2_FEATURE
 62
7
  6
CONTINUOUS
 10
104.6070903598
 20
112.7409987563
  0
VERTEX
  8
2_FEATURE
 62
7
  6
CONTINUOUS
 10
104.6084843463
 20
112.7586267333
  0
VERTEX
  8
2_FEATURE
 62
7
  6
CONTINUOUS
 10
104.6098489649
 20
112.7773116182
  0
VERTEX
  8
2_FEATURE
 62
7
  6
CONTINUOUS
 10
104.6111964027
 20
112.7972122967
  0
VERTEX
  8
2_FEATURE
 62
7
  6
CONTINUOUS
 10
104.6138738647
 20
112.8412637877
  0
SEQEND
  0
POLYLINE
  8
2_FEATURE
 62
7
  6
CONTINUOUS
 66
1
 70
0
  0
VERTEX
  8
2_FEATURE
 62
7
  6
CONTINUOUS
 10
91.3946729317
 20
112.1974137932
  0
VERTEX
  8
2_FEATURE
 62
7
  6
CONTINUOUS
 10
91.4353510257
 20
112.1990672722
  0
VERTEX
  8
2_FEATURE
 62
7
  6
CONTINUOUS
 10
91.5005984678
 20
112.2087349038
  0
VERTEX
  8
2_FEATURE
 62
7
  6
CONTINUOUS
 10
91.5636590931
 20
112.2267592808
  0
VERTEX
  8
2_FEATURE
 62
7
  6
CONTINUOUS
 10
91.622829217
 20
112.2523481879
  0
VERTEX
  8
2_FEATURE
 62
7
  6
CONTINUOUS
 10
91.6766314993
 20
112.2842221129
  0
VERTEX
  8
2_FEATURE
 62
7
  6
CONTINUOUS
 10
91.7239526485
 20
112.3206968131
  0
VERTEX
  8
2_FEATURE
 62
7
  6
CONTINUOUS
 10
91.7641629301
 20
112.3598407033
  0
VERTEX
  8
2_FEATURE
 62
7
  6
CONTINUOUS
 10
91.7971835253
 20
112.3997089145
  0
VERTEX
  8
2_FEATURE
 62
7
  6
CONTINUOUS
 10
91.8234193225
 20
112.4385434786
  0
VERTEX
  8
2_FEATURE
 62
7
  6
CONTINUOUS
 10
91.8436579331
 20
112.4749776352
  0
VERTEX
  8
2_FEATURE
 62
7
  6
CONTINUOUS
 10
91.8588838464
 20
112.5080993658
  0
VERTEX
  8
2_FEATURE
 62
7
  6
CONTINUOUS
 10
91.8701524723
 20
112.5375354369
  0
VERTEX
  8
2_FEATURE
 62
7
  6
CONTINUOUS
 10
91.8785292032
 20
112.5636583322
  0
VERTEX
  8
2_FEATURE
 62
7
  6
CONTINUOUS
 10
91.8848519198
 20
112.5870892697
  0
VERTEX
  8
2_FEATURE
 62
7
  6
CONTINUOUS
 10
91.8896383498
 20
112.6080553742
  0
VERTEX
  8
2_FEATURE
 62
7
  6
CONTINUOUS
 10
91.8932771738
 20
112.6267227665
  0
VERTEX
  8
2_FEATURE
 62
7
  6
CONTINUOUS
 10
91.8961310574
 20
112.6436589568
  0
VERTEX
  8
2_FEATURE
 62
7
  6
CONTINUOUS
 10
91.8984817541
 20
112.659601084
  0
VERTEX
  8
2_FEATURE
 62
7
  6
CONTINUOUS
 10
91.9005059978
 20
112.6751249832
  0
VERTEX
  8
2_FEATURE
 62
7
  6
CONTINUOUS
 10
91.9023135569
 20
112.6906579471
  0
VERTEX
  8
2_FEATURE
 62
7
  6
CONTINUOUS
 10
91.9039740359
 20
112.7065189648
  0
VERTEX
  8
2_FEATURE
 62
7
  6
CONTINUOUS
 10
91.905540995
 20
112.7230424974
  0
VERTEX
  8
2_FEATURE
 62
7
  6
CONTINUOUS
 10
91.9070538748
 20
112.7405565027
  0
VERTEX
  8
2_FEATURE
 62
7
  6
CONTINUOUS
 10
91.908540245
 20
112.7593638849
  0
VERTEX
  8
2_FEATURE
 62
7
  6
CONTINUOUS
 10
91.9100199726
 20
112.7797561272
  0
VERTEX
  8
2_FEATURE
 62
7
  6
CONTINUOUS
 10
91.9115043162
 20
112.8019685447
  0
VERTEX
  8
2_FEATURE
 62
7
  6
CONTINUOUS
 10
91.9129955871
 20
112.8261341159
  0
VERTEX
  8
2_FEATURE
 62
7
  6
CONTINUOUS
 10
91.914493841
 20
112.8523545419
  0
VERTEX
  8
2_FEATURE
 62
7
  6
CONTINUOUS
 10
91.9175078019
 20
112.9112877905
  0
SEQEND
  0
POLYLINE
  8
2_FEATURE
 62
7
  6
CONTINUOUS
 66
1
 70
0
  0
VERTEX
  8
2_FEATURE
 62
7
  6
CONTINUOUS
 10
78.6946729317
 20
112.1974137932
  0
VERTEX
  8
2_FEATURE
 62
7
  6
CONTINUOUS
 10
78.7353510257
 20
112.1990672722
  0
VERTEX
  8
2_FEATURE
 62
7
  6
CONTINUOUS
 10
78.8005984678
 20
112.2087349038
  0
VERTEX
  8
2_FEATURE
 62
7
  6
CONTINUOUS
 10
78.8636590931
 20
112.2267592808
  0
VERTEX
  8
2_FEATURE
 62
7
  6
CONTINUOUS
 10
78.922829217
 20
112.2523481879
  0
VERTEX
  8
2_FEATURE
 62
7
  6
CONTINUOUS
 10
78.9766314993
 20
112.2842221129
  0
VERTEX
  8
2_FEATURE
 62
7
  6
CONTINUOUS
 10
79.0239526485
 20
112.3206968131
  0
VERTEX
  8
2_FEATURE
 62
7
  6
CONTINUOUS
 10
79.0641629301
 20
112.3598407033
  0
VERTEX
  8
2_FEATURE
 62
7
  6
CONTINUOUS
 10
79.0971835253
 20
112.3997089144
  0
VERTEX
  8
2_FEATURE
 62
7
  6
CONTINUOUS
 10
79.1234193225
 20
112.4385434786
  0
VERTEX
  8
2_FEATURE
 62
7
  6
CONTINUOUS
 10
79.1436579331
 20
112.4749776352
  0
VERTEX
  8
2_FEATURE
 62
7
  6
CONTINUOUS
 10
79.1588838464
 20
112.5080993658
  0
VERTEX
  8
2_FEATURE
 62
7
  6
CONTINUOUS
 10
79.1701524723
 20
112.5375354369
  0
VERTEX
  8
2_FEATURE
 62
7
  6
CONTINUOUS
 10
79.1785292032
 20
112.5636583322
  0
VERTEX
  8
2_FEATURE
 62
7
  6
CONTINUOUS
 10
79.1848519198
 20
112.5870892697
  0
VERTEX
  8
2_FEATURE
 62
7
  6
CONTINUOUS
 10
79.1896383498
 20
112.6080553742
  0
VERTEX
  8
2_FEATURE
 62
7
  6
CONTINUOUS
 10
79.1932771738
 20
112.6267227665
  0
VERTEX
  8
2_FEATURE
 62
7
  6
CONTINUOUS
 10
79.1961310574
 20
112.6436589568
  0
VERTEX
  8
2_FEATURE
 62
7
  6
CONTINUOUS
 10
79.1984817541
 20
112.659601084
  0
VERTEX
  8
2_FEATURE
 62
7
  6
CONTINUOUS
 10
79.2005059978
 20
112.6751249832
  0
VERTEX
  8
2_FEATURE
 62
7
  6
CONTINUOUS
 10
79.2023135569
 20
112.6906579471
  0
VERTEX
  8
2_FEATURE
 62
7
  6
CONTINUOUS
 10
79.2039740359
 20
112.7065189648
  0
VERTEX
  8
2_FEATURE
 62
7
  6
CONTINUOUS
 10
79.205540995
 20
112.7230424974
  0
VERTEX
  8
2_FEATURE
 62
7
  6
CONTINUOUS
 10
79.2070538748
 20
112.7405565027
  0
VERTEX
  8
2_FEATURE
 62
7
  6
CONTINUOUS
 10
79.208540245
 20
112.7593638849
  0
VERTEX
  8
2_FEATURE
 62
7
  6
CONTINUOUS
 10
79.2100199726
 20
112.7797561272
  0
VERTEX
  8
2_FEATURE
 62
7
  6
CONTINUOUS
 10
79.2115043162
 20
112.8019685447
  0
VERTEX
  8
2_FEATURE
 62
7
  6
CONTINUOUS
 10
79.2129955871
 20
112.8261341159
  0
VERTEX
  8
2_FEATURE
 62
7
  6
CONTINUOUS
 10
79.2159979135
 20
112.8807072457
  0
SEQEND
  0
POLYLINE
  8
2_FEATURE
 62
7
  6
CONTINUOUS
 66
1
 70
0
  0
VERTEX
  8
2_FEATURE
 62
7
  6
CONTINUOUS
 10
65.9946729317
 20
112.1974137932
  0
VERTEX
  8
2_FEATURE
 62
7
  6
CONTINUOUS
 10
66.0353510257
 20
112.1990672722
  0
VERTEX
  8
2_FEATURE
 62
7
  6
CONTINUOUS
 10
66.1005984678
 20
112.2087349038
  0
VERTEX
  8
2_FEATURE
 62
7
  6
CONTINUOUS
 10
66.1636590931
 20
112.2267592808
  0
VERTEX
  8
2_FEATURE
 62
7
  6
CONTINUOUS
 10
66.222829217
 20
112.2523481879
  0
VERTEX
  8
2_FEATURE
 62
7
  6
CONTINUOUS
 10
66.2766314993
 20
112.2842221129
  0
VERTEX
  8
2_FEATURE
 62
7
  6
CONTINUOUS
 10
66.3239526485
 20
112.3206968131
  0
VERTEX
  8
2_FEATURE
 62
7
  6
CONTINUOUS
 10
66.3641629301
 20
112.3598407033
  0
VERTEX
  8
2_FEATURE
 62
7
  6
CONTINUOUS
 10
66.3971835253
 20
112.3997089145
  0
VERTEX
  8
2_FEATURE
 62
7
  6
CONTINUOUS
 10
66.4234193225
 20
112.4385434786
  0
VERTEX
  8
2_FEATURE
 62
7
  6
CONTINUOUS
 10
66.4436579331
 20
112.4749776352
  0
VERTEX
  8
2_FEATURE
 62
7
  6
CONTINUOUS
 10
66.4588838464
 20
112.5080993658
  0
VERTEX
  8
2_FEATURE
 62
7
  6
CONTINUOUS
 10
66.4701524723
 20
112.5375354369
  0
VERTEX
  8
2_FEATURE
 62
7
  6
CONTINUOUS
 10
66.4785292032
 20
112.5636583322
  0
VERTEX
  8
2_FEATURE
 62
7
  6
CONTINUOUS
 10
66.4848519198
 20
112.5870892697
  0
VERTEX
  8
2_FEATURE
 62
7
  6
CONTINUOUS
 10
66.4896383498
 20
112.6080553742
  0
VERTEX
  8
2_FEATURE
 62
7
  6
CONTINUOUS
 10
66.4932771738
 20
112.6267227665
  0
VERTEX
  8
2_FEATURE
 62
7
  6
CONTINUOUS
 10
66.4961310574
 20
112.6436589568
  0
VERTEX
  8
2_FEATURE
 62
7
  6
CONTINUOUS
 10
66.4984817541
 20
112.659601084
  0
VERTEX
  8
2_FEATURE
 62
7
  6
CONTINUOUS
 10
66.5005059978
 20
112.6751249832
  0
VERTEX
  8
2_FEATURE
 62
7
  6
CONTINUOUS
 10
66.5023135569
 20
112.6906579471
  0
VERTEX
  8
2_FEATURE
 62
7
  6
CONTINUOUS
 10
66.5039740359
 20
112.7065189648
  0
VERTEX
  8
2_FEATURE
 62
7
  6
CONTINUOUS
 10
66.505540995
 20
112.7230424974
  0
VERTEX
  8
2_FEATURE
 62
7
  6
CONTINUOUS
 10
66.5070538748
 20
112.7405565027
  0
VERTEX
  8
2_FEATURE
 62
7
  6
CONTINUOUS
 10
66.508540245
 20
112.7593638849
  0
VERTEX
  8
2_FEATURE
 62
7
  6
CONTINUOUS
 10
66.5100199726
 20
112.7797561272
  0
VERTEX
  8
2_FEATURE
 62
7
  6
CONTINUOUS
 10
66.5115043162
 20
112.8019685447
  0
VERTEX
  8
2_FEATURE
 62
7
  6
CONTINUOUS
 10
66.5129955871
 20
112.8261341159
  0
VERTEX
  8
2_FEATURE
 62
7
  6
CONTINUOUS
 10
66.514493841
 20
112.8523545419
  0
VERTEX
  8
2_FEATURE
 62
7
  6
CONTINUOUS
 10
66.5175078019
 20
112.9112877905
  0
SEQEND
  0
LINE
  8
2_FEATURE
 62
7
  6
CONTINUOUS
 10
48.3484301738
 20
112.1974137931
 11
53.2946732745
 21
112.1974137931
  0
LINE
  8
2_FEATURE
 62
7
  6
CONTINUOUS
 10
61.0484301738
 20
112.1974137931
 11
65.9946732745
 21
112.1974137931
  0
LINE
  8
2_FEATURE
 62
7
  6
CONTINUOUS
 10
73.7484301738
 20
112.1974137931
 11
78.6946732745
 21
112.1974137931
  0
LINE
  8
2_FEATURE
 62
7
  6
CONTINUOUS
 10
86.4484301738
 20
112.1974137931
 11
91.3946732745
 21
112.1974137931
  0
LINE
  8
2_FEATURE
 62
7
  6
CONTINUOUS
 10
99.1484301738
 20
112.1974137931
 11
104.09467371
 21
112.1974137931
  0
LINE
  8
2_FEATURE
 62
7
  6
CONTINUOUS
 10
111.8484301738
 20
112.1974137931
 11
116.9115517241
 21
112.1974137931
  0
LINE
  8
0
 62
7
  6
CONTINUOUS
 10
58.8782617609
 20
123.5474137931
 11
49.8965517241
 21
132.5291238299
  0
LINE
  8
0
 62
7
  6
CONTINUOUS
 10
60.9995821045
 20
123.5474137931
 11
49.8965517241
 21
134.6504441734
  0
LINE
  8
0
 62
7
  6
CONTINUOUS
 10
63.4866491474
 20
123.5474137931
 11
63.4866491474
 21
135.0474137931
  0
LINE
  8
0
 62
7
  6
CONTINUOUS
 10
64.5473093192
 20
123.5474137931
 11
64.5473093192
 21
135.0474137931
  0
LINE
  8
0
 62
7
  6
CONTINUOUS
 10
65.607969491
 20
123.5474137931
 11
65.607969491
 21
135.0474137931
  0
LINE
  8
0
 62
7
  6
CONTINUOUS
 10
51.1244737855
 20
123.5474137931
 11
62.6244737855
 21
135.0474137931
  0
LINE
  8
0
 62
7
  6
CONTINUOUS
 10
53.2457941291
 20
123.5474137931
 11
64.7457941291
 21
135.0474137931
  0
POLYLINE
  8
2_FEATURE
 62
7
  6
CONTINUOUS
 66
1
 70
0
  0
VERTEX
  8
2_FEATURE
 62
7
  6
CONTINUOUS
 10
53.2946729317
 20
112.1974137932
  0
VERTEX
  8
2_FEATURE
 62
7
  6
CONTINUOUS
 10
53.3353510257
 20
112.1990672722
  0
VERTEX
  8
2_FEATURE
 62
7
  6
CONTINUOUS
 10
53.4005984678
 20
112.2087349038
  0
VERTEX
  8
2_FEATURE
 62
7
  6
CONTINUOUS
 10
53.4636590931
 20
112.2267592808
  0
VERTEX
  8
2_FEATURE
 62
7
  6
CONTINUOUS
 10
53.522829217
 20
112.2523481879
  0
VERTEX
  8
2_FEATURE
 62
7
  6
CONTINUOUS
 10
53.5766314993
 20
112.2842221129
  0
VERTEX
  8
2_FEATURE
 62
7
  6
CONTINUOUS
 10
53.6239526485
 20
112.3206968131
  0
VERTEX
  8
2_FEATURE
 62
7
  6
CONTINUOUS
 10
53.6641629301
 20
112.3598407033
  0
VERTEX
  8
2_FEATURE
 62
7
  6
CONTINUOUS
 10
53.6971835253
 20
112.3997089145
  0
VERTEX
  8
2_FEATURE
 62
7
  6
CONTINUOUS
 10
53.7234193225
 20
112.4385434786
  0
VERTEX
  8
2_FEATURE
 62
7
  6
CONTINUOUS
 10
53.7436579331
 20
112.4749776352
  0
VERTEX
  8
2_FEATURE
 62
7
  6
CONTINUOUS
 10
53.7588838464
 20
112.5080993658
  0
VERTEX
  8
2_FEATURE
 62
7
  6
CONTINUOUS
 10
53.7701524723
 20
112.5375354369
  0
VERTEX
  8
2_FEATURE
 62
7
  6
CONTINUOUS
 10
53.7785292032
 20
112.5636583322
  0
VERTEX
  8
2_FEATURE
 62
7
  6
CONTINUOUS
 10
53.7848519198
 20
112.5870892697
  0
VERTEX
  8
2_FEATURE
 62
7
  6
CONTINUOUS
 10
53.7896383498
 20
112.6080553742
  0
VERTEX
  8
2_FEATURE
 62
7
  6
CONTINUOUS
 10
53.7932771738
 20
112.6267227665
  0
VERTEX
  8
2_FEATURE
 62
7
  6
CONTINUOUS
 10
53.7961310574
 20
112.6436589568
  0
VERTEX
  8
2_FEATURE
 62
7
  6
CONTINUOUS
 10
53.7984817541
 20
112.659601084
  0
VERTEX
  8
2_FEATURE
 62
7
  6
CONTINUOUS
 10
53.8005059978
 20
112.6751249832
  0
VERTEX
  8
2_FEATURE
 62
7
  6
CONTINUOUS
 10
53.8023135569
 20
112.6906579471
  0
VERTEX
  8
2_FEATURE
 62
7
  6
CONTINUOUS
 10
53.8039740359
 20
112.7065189648
  0
VERTEX
  8
2_FEATURE
 62
7
  6
CONTINUOUS
 10
53.805540995
 20
112.7230424974
  0
VERTEX
  8
2_FEATURE
 62
7
  6
CONTINUOUS
 10
53.8070538748
 20
112.7405565027
  0
VERTEX
  8
2_FEATURE
 62
7
  6
CONTINUOUS
 10
53.808540245
 20
112.7593638849
  0
VERTEX
  8
2_FEATURE
 62
7
  6
CONTINUOUS
 10
53.8100199726
 20
112.7797561272
  0
VERTEX
  8
2_FEATURE
 62
7
  6
CONTINUOUS
 10
53.8115043162
 20
112.8019685447
  0
VERTEX
  8
2_FEATURE
 62
7
  6
CONTINUOUS
 10
53.8129955871
 20
112.8261341159
  0
VERTEX
  8
2_FEATURE
 62
7
  6
CONTINUOUS
 10
53.814493841
 20
112.8523545419
  0
VERTEX
  8
2_FEATURE
 62
7
  6
CONTINUOUS
 10
53.8175078019
 20
112.9112877905
  0
SEQEND
  0
LINE
  8
0
 62
7
  6
CONTINUOUS
 10
63.120902448
 20
123.5474137931
 11
51.620902448
 21
135.0474137931
  0
LINE
  8
0
 62
7
  6
CONTINUOUS
 10
65.2422227916
 20
123.5474137931
 11
53.7422227916
 21
135.0474137931
  0
LINE
  8
0
 62
7
  6
CONTINUOUS
 10
66.6686296628
 20
123.5474137931
 11
66.6686296628
 21
135.0474137931
  0
LINE
  8
0
 62
7
  6
CONTINUOUS
 10
67.7292898346
 20
123.5474137931
 11
67.7292898346
 21
135.0474137931
  0
LINE
  8
2_FEATURE
 62
7
  6
CONTINUOUS
 10
66.5622104368
 20
116.1076998345
 11
66.5627480277
 21
118.4456080418
  0
LINE
  8
2_FEATURE
 62
7
  6
CONTINUOUS
 10
66.8308930123
 20
142.4871281239
 11
66.8303554206
 21
140.1492195444
  0
LINE
  8
2_FEATURE
 62
7
  6
CONTINUOUS
 10
66.5599369189
 20
115.4869582801
 11
66.5622104368
 21
116.1076998345
  0
LINE
  8
2_FEATURE
 62
7
  6
CONTINUOUS
 10
66.8331665298
 20
143.1078693947
 11
66.8308930123
 21
142.4871281239
  0
POLYLINE
  8
2_FEATURE
 62
7
  6
CONTINUOUS
 66
1
 70
0
  0
VERTEX
  8
2_FEATURE
 62
7
  6
CONTINUOUS
 10
66.5627472591
 20
118.4456080418
  0
VERTEX
  8
2_FEATURE
 62
7
  6
CONTINUOUS
 10
66.562993645
 20
118.4941962993
  0
VERTEX
  8
2_FEATURE
 62
7
  6
CONTINUOUS
 10
66.5641036909
 20
118.5575737474
  0
VERTEX
  8
2_FEATURE
 62
7
  6
CONTINUOUS
 10
66.5661531311
 20
118.6200278741
  0
VERTEX
  8
2_FEATURE
 62
7
  6
CONTINUOUS
 10
66.5691896593
 20
118.6815322933
  0
VERTEX
  8
2_FEATURE
 62
7
  6
CONTINUOUS
 10
66.5732619488
 20
118.7420477135
  0
VERTEX
  8
2_FEATURE
 62
7
  6
CONTINUOUS
 10
66.5784144576
 20
118.8015256835
  0
VERTEX
  8
2_FEATURE
 62
7
  6
CONTINUOUS
 10
66.584685193
 20
118.8599101621
  0
VERTEX
  8
2_FEATURE
 62
7
  6
CONTINUOUS
 10
66.5921079033
 20
118.9171281765
  0
VERTEX
  8
2_FEATURE
 62
7
  6
CONTINUOUS
 10
66.6007090931
 20
118.9730730715
  0
VERTEX
  8
2_FEATURE
 62
7
  6
CONTINUOUS
 10
66.6105233047
 20
119.0277366288
  0
VERTEX
  8
2_FEATURE
 62
7
  6
CONTINUOUS
 10
66.6215868731
 20
119.0811098724
  0
VERTEX
  8
2_FEATURE
 62
7
  6
CONTINUOUS
 10
66.6339354624
 20
119.1331479264
  0
VERTEX
  8
2_FEATURE
 62
7
  6
CONTINUOUS
 10
66.6475972715
 20
119.1837816694
  0
VERTEX
  8
2_FEATURE
 62
7
  6
CONTINUOUS
 10
66.6625910673
 20
119.2329143422
  0
VERTEX
  8
2_FEATURE
 62
7
  6
CONTINUOUS
 10
66.678923557
 20
119.2804147842
  0
VERTEX
  8
2_FEATURE
 62
7
  6
CONTINUOUS
 10
66.6965849269
 20
119.3261343633
  0
VERTEX
  8
2_FEATURE
 62
7
  6
CONTINUOUS
 10
66.7155685456
 20
119.3699510351
  0
VERTEX
  8
2_FEATURE
 62
7
  6
CONTINUOUS
 10
66.7358615832
 20
119.4117372595
  0
VERTEX
  8
2_FEATURE
 62
7
  6
CONTINUOUS
 10
66.7574049262
 20
119.4512917237
  0
VERTEX
  8
2_FEATURE
 62
7
  6
CONTINUOUS
 10
66.7800687344
 20
119.4883345655
  0
VERTEX
  8
2_FEATURE
 62
7
  6
CONTINUOUS
 10
66.8037724133
 20
119.5227209601
  0
VERTEX
  8
2_FEATURE
 62
7
  6
CONTINUOUS
 10
66.8286002985
 20
119.5545175922
  0
VERTEX
  8
2_FEATURE
 62
7
  6
CONTINUOUS
 10
66.8545545165
 20
119.5836071501
  0
VERTEX
  8
2_FEATURE
 62
7
  6
CONTINUOUS
 10
66.8815111866
 20
119.6097054102
  0
VERTEX
  8
2_FEATURE
 62
7
  6
CONTINUOUS
 10
66.9093653919
 20
119.6325539264
  0
VERTEX
  8
2_FEATURE
 62
7
  6
CONTINUOUS
 10
66.9381466969
 20
119.6519478514
  0
VERTEX
  8
2_FEATURE
 62
7
  6
CONTINUOUS
 10
66.9676332239
 20
119.6674373168
  0
VERTEX
  8
2_FEATURE
 62
7
  6
CONTINUOUS
 10
66.9978256684
 20
119.6786313392
  0
VERTEX
  8
2_FEATURE
 62
7
  6
CONTINUOUS
 10
67.0273131714
 20
119.6848248618
  0
VERTEX
  8
2_FEATURE
 62
7
  6
CONTINUOUS
 10
67.0500553903
 20
119.6862851263
  0
SEQEND
  0
POLYLINE
  8
2_FEATURE
 62
7
  6
CONTINUOUS
 66
1
 70
0
  0
VERTEX
  8
2_FEATURE
 62
7
  6
CONTINUOUS
 10
66.8303561892
 20
140.1492195444
  0
VERTEX
  8
2_FEATURE
 62
7
  6
CONTINUOUS
 10
66.8301098032
 20
140.1006312869
  0
VERTEX
  8
2_FEATURE
 62
7
  6
CONTINUOUS
 10
66.8289997574
 20
140.0372538389
  0
VERTEX
  8
2_FEATURE
 62
7
  6
CONTINUOUS
 10
66.8269503172
 20
139.9747997121
  0
VERTEX
  8
2_FEATURE
 62
7
  6
CONTINUOUS
 10
66.823913789
 20
139.9132952929
  0
VERTEX
  8
2_FEATURE
 62
7
  6
CONTINUOUS
 10
66.8198414994
 20
139.8527798727
  0
VERTEX
  8
2_FEATURE
 62
7
  6
CONTINUOUS
 10
66.8146889907
 20
139.7933019027
  0
VERTEX
  8
2_FEATURE
 62
7
  6
CONTINUOUS
 10
66.8084182552
 20
139.7349174242
  0
VERTEX
  8
2_FEATURE
 62
7
  6
CONTINUOUS
 10
66.800995545
 20
139.6776994097
  0
VERTEX
  8
2_FEATURE
 62
7
  6
CONTINUOUS
 10
66.7923943551
 20
139.6217545147
  0
VERTEX
  8
2_FEATURE
 62
7
  6
CONTINUOUS
 10
66.7825801436
 20
139.5670909574
  0
VERTEX
  8
2_FEATURE
 62
7
  6
CONTINUOUS
 10
66.7715165752
 20
139.5137177138
  0
VERTEX
  8
2_FEATURE
 62
7
  6
CONTINUOUS
 10
66.7591679858
 20
139.4616796598
  0
VERTEX
  8
2_FEATURE
 62
7
  6
CONTINUOUS
 10
66.7455061768
 20
139.4110459168
  0
VERTEX
  8
2_FEATURE
 62
7
  6
CONTINUOUS
 10
66.730512381
 20
139.361913244
  0
VERTEX
  8
2_FEATURE
 62
7
  6
CONTINUOUS
 10
66.7141798913
 20
139.314412802
  0
VERTEX
  8
2_FEATURE
 62
7
  6
CONTINUOUS
 10
66.6965185213
 20
139.2686932229
  0
VERTEX
  8
2_FEATURE
 62
7
  6
CONTINUOUS
 10
66.6775349027
 20
139.2248765511
  0
VERTEX
  8
2_FEATURE
 62
7
  6
CONTINUOUS
 10
66.6572418651
 20
139.1830903267
  0
VERTEX
  8
2_FEATURE
 62
7
  6
CONTINUOUS
 10
66.6356985221
 20
139.1435358625
  0
VERTEX
  8
2_FEATURE
 62
7
  6
CONTINUOUS
 10
66.6130347139
 20
139.1064930207
  0
VERTEX
  8
2_FEATURE
 62
7
  6
CONTINUOUS
 10
66.589331035
 20
139.0721066261
  0
VERTEX
  8
2_FEATURE
 62
7
  6
CONTINUOUS
 10
66.5645031498
 20
139.040309994
  0
VERTEX
  8
2_FEATURE
 62
7
  6
CONTINUOUS
 10
66.5385489318
 20
139.0112204361
  0
VERTEX
  8
2_FEATURE
 62
7
  6
CONTINUOUS
 10
66.5115922617
 20
138.9851221761
  0
VERTEX
  8
2_FEATURE
 62
7
  6
CONTINUOUS
 10
66.4837380564
 20
138.9622736598
  0
VERTEX
  8
2_FEATURE
 62
7
  6
CONTINUOUS
 10
66.4549567513
 20
138.9428797348
  0
VERTEX
  8
2_FEATURE
 62
7
  6
CONTINUOUS
 10
66.4254702244
 20
138.9273902694
  0
VERTEX
  8
2_FEATURE
 62
7
  6
CONTINUOUS
 10
66.3952777799
 20
138.916196247
  0
VERTEX
  8
2_FEATURE
 62
7
  6
CONTINUOUS
 10
66.3657902769
 20
138.9100027244
  0
VERTEX
  8
2_FEATURE
 62
7
  6
CONTINUOUS
 10
66.343048058
 20
138.9085424599
  0
SEQEND
  0
LINE
  8
2_FEATURE
 62
7
  6
CONTINUOUS
 10
66.5562540653
 20
114.9329843866
 11
66.5599369189
 21
115.4869582801
  0
LINE
  8
2_FEATURE
 62
7
  6
CONTINUOUS
 10
66.8368493837
 20
143.6618432816
 11
66.8331665298
 21
143.1078693947
  0
LINE
  8
2_FEATURE
 62
7
  6
CONTINUOUS
 10
66.8415651451
 20
144.1442904266
 11
66.8368493837
 21
143.6618432816
  0
LINE
  8
2_FEATURE
 62
7
  6
CONTINUOUS
 10
66.5515383043
 20
114.4505372467
 11
66.5562540653
 21
114.9329843866
  0
LINE
  8
2_FEATURE
 62
7
  6
CONTINUOUS
 10
66.8469806174
 20
144.5550077067
 11
66.8415651451
 21
144.1442904266
  0
LINE
  8
2_FEATURE
 62
7
  6
CONTINUOUS
 10
66.5461228327
 20
114.0398199926
 11
66.5515383043
 21
114.4505372467
  0
LINE
  8
2_FEATURE
 62
7
  6
CONTINUOUS
 10
66.8542958206
 20
144.9718558094
 11
66.8469806174
 21
144.5550077067
  0
LINE
  8
2_FEATURE
 62
7
  6
CONTINUOUS
 10
66.5388076303
 20
113.622971907
 11
66.5461228327
 21
114.0398199926
  0
LINE
  8
2_FEATURE
 62
7
  6
CONTINUOUS
 10
66.8603280405
 20
145.2357380213
 11
66.8542958206
 21
144.9718558094
  0
LINE
  8
2_FEATURE
 62
7
  6
CONTINUOUS
 10
66.5327754105
 20
113.3590896726
 11
66.5388076303
 21
113.622971907
  0
LINE
  8
2_FEATURE
 62
7
  6
CONTINUOUS
 10
66.864900017
 20
145.3991970114
 11
66.8603280405
 21
145.2357380213
  0
LINE
  8
2_FEATURE
 62
7
  6
CONTINUOUS
 10
66.5282034337
 20
113.1956306584
 11
66.5327754105
 21
113.3590896726
  0
LINE
  8
2_FEATURE
 62
7
  6
CONTINUOUS
 10
66.8694985423
 20
145.5368967684
 11
66.864900017
 21
145.3991970114
  0
LINE
  8
2_FEATURE
 62
7
  6
CONTINUOUS
 10
66.5236049079
 20
113.0579308712
 11
66.5282034337
 21
113.1956306584
  0
LINE
  8
2_FEATURE
 62
7
  6
CONTINUOUS
 10
66.8725571933
 20
145.6152642915
 11
66.8694985423
 21
145.5368967684
  0
LINE
  8
2_FEATURE
 62
7
  6
CONTINUOUS
 10
66.5205462566
 20
112.9795633281
 11
66.5236049079
 21
113.0579308712
  0
LINE
  8
2_FEATURE
 62
7
  6
CONTINUOUS
 10
66.8755956475
 20
145.6835398215
 11
66.8725571933
 21
145.6152642915
  0
LINE
  8
2_FEATURE
 62
7
  6
CONTINUOUS
 10
66.5175078019
 20
112.9112877905
 11
66.5205462566
 21
112.9795633281
  0
LINE
  8
0
 62
7
  6
CONTINUOUS
 10
55.3671144726
 20
123.5474137931
 11
66.8671144726
 21
135.0474137931
  0
LINE
  8
0
 62
7
  6
CONTINUOUS
 10
57.4884348162
 20
123.5474137931
 11
68.9884348162
 21
135.0474137931
  0
LINE
  8
DEFAULT_1
 62
2
  6
CENTER
 10
45.802970841
 20
116.5974137931
 11
119.3115517241
 21
116.5974137931
  0
POLYLINE
  8
2_FEATURE
 62
7
  6
CONTINUOUS
 66
1
 70
0
  0
VERTEX
  8
2_FEATURE
 62
7
  6
CONTINUOUS
 10
47.2930473992
 20
119.6862851259
  0
VERTEX
  8
2_FEATURE
 62
7
  6
CONTINUOUS
 10
47.316318994
 20
119.6847562266
  0
VERTEX
  8
2_FEATURE
 62
7
  6
CONTINUOUS
 10
47.3458313367
 20
119.678469623
  0
VERTEX
  8
2_FEATURE
 62
7
  6
CONTINUOUS
 10
47.3760234046
 20
119.6671877545
  0
VERTEX
  8
2_FEATURE
 62
7
  6
CONTINUOUS
 10
47.4055046188
 20
119.6516181168
  0
VERTEX
  8
2_FEATURE
 62
7
  6
CONTINUOUS
 10
47.4342778207
 20
119.6321496807
  0
VERTEX
  8
2_FEATURE
 62
7
  6
CONTINUOUS
 10
47.4621165637
 20
119.609235882
  0
VERTEX
  8
2_FEATURE
 62
7
  6
CONTINUOUS
 10
47.4890524905
 20
119.5830807245
  0
VERTEX
  8
2_FEATURE
 62
7
  6
CONTINUOUS
 10
47.514982386
 20
119.5539418469
  0
VERTEX
  8
2_FEATURE
 62
7
  6
CONTINUOUS
 10
47.5397845317
 20
119.5221014736
  0
VERTEX
  8
2_FEATURE
 62
7
  6
CONTINUOUS
 10
47.5634620901
 20
119.4876754492
  0
VERTEX
  8
2_FEATURE
 62
7
  6
CONTINUOUS
 10
47.586099506
 20
119.4505961527
  0
VERTEX
  8
2_FEATURE
 62
7
  6
CONTINUOUS
 10
47.6076180255
 20
119.4110049526
  0
VERTEX
  8
2_FEATURE
 62
7
  6
CONTINUOUS
 10
47.6278874072
 20
119.3691816877
  0
VERTEX
  8
2_FEATURE
 62
7
  6
CONTINUOUS
 10
47.6468481052
 20
119.3253279359
  0
VERTEX
  8
2_FEATURE
 62
7
  6
CONTINUOUS
 10
47.6644866986
 20
119.2795722363
  0
VERTEX
  8
2_FEATURE
 62
7
  6
CONTINUOUS
 10
47.6807966545
 20
119.232036068
  0
VERTEX
  8
2_FEATURE
 62
7
  6
CONTINUOUS
 10
47.6957682354
 20
119.1828677551
  0
VERTEX
  8
2_FEATURE
 62
7
  6
CONTINUOUS
 10
47.7094081455
 20
119.1321982772
  0
VERTEX
  8
2_FEATURE
 62
7
  6
CONTINUOUS
 10
47.7217350911
 20
119.0801241357
  0
VERTEX
  8
2_FEATURE
 62
7
  6
CONTINUOUS
 10
47.7327772491
 20
119.0267145747
  0
VERTEX
  8
2_FEATURE
 62
7
  6
CONTINUOUS
 10
47.74257022
 20
118.9720145318
  0
VERTEX
  8
2_FEATURE
 62
7
  6
CONTINUOUS
 10
47.7511502439
 20
118.9160330507
  0
VERTEX
  8
2_FEATURE
 62
7
  6
CONTINUOUS
 10
47.7585519478
 20
118.858778216
  0
VERTEX
  8
2_FEATURE
 62
7
  6
CONTINUOUS
 10
47.7648019646
 20
118.8003561686
  0
VERTEX
  8
2_FEATURE
 62
7
  6
CONTINUOUS
 10
47.7699339792
 20
118.740839711
  0
VERTEX
  8
2_FEATURE
 62
7
  6
CONTINUOUS
 10
47.7739860647
 20
118.680284837
  0
VERTEX
  8
2_FEATURE
 62
7
  6
CONTINUOUS
 10
47.777002767
 20
118.6187399792
  0
VERTEX
  8
2_FEATURE
 62
7
  6
CONTINUOUS
 10
47.7790327515
 20
118.5562443243
  0
VERTEX
  8
2_FEATURE
 62
7
  6
CONTINUOUS
 10
47.7801237185
 20
118.4928241298
  0
VERTEX
  8
2_FEATURE
 62
7
  6
CONTINUOUS
 10
47.7803561904
 20
118.4456080333
  0
SEQEND
  0
POLYLINE
  8
2_FEATURE
 62
7
  6
CONTINUOUS
 66
1
 70
0
  0
VERTEX
  8
2_FEATURE
 62
7
  6
CONTINUOUS
 10
59.9930473992
 20
119.6862851259
  0
VERTEX
  8
2_FEATURE
 62
7
  6
CONTINUOUS
 10
60.016318994
 20
119.6847562266
  0
VERTEX
  8
2_FEATURE
 62
7
  6
CONTINUOUS
 10
60.0458313367
 20
119.678469623
  0
VERTEX
  8
2_FEATURE
 62
7
  6
CONTINUOUS
 10
60.0760234046
 20
119.6671877545
  0
VERTEX
  8
2_FEATURE
 62
7
  6
CONTINUOUS
 10
60.1055046188
 20
119.6516181168
  0
VERTEX
  8
2_FEATURE
 62
7
  6
CONTINUOUS
 10
60.1342778207
 20
119.6321496807
  0
VERTEX
  8
2_FEATURE
 62
7
  6
CONTINUOUS
 10
60.1621165637
 20
119.609235882
  0
VERTEX
  8
2_FEATURE
 62
7
  6
CONTINUOUS
 10
60.1890524905
 20
119.5830807245
  0
VERTEX
  8
2_FEATURE
 62
7
  6
CONTINUOUS
 10
60.214982386
 20
119.5539418469
  0
VERTEX
  8
2_FEATURE
 62
7
  6
CONTINUOUS
 10
60.2397845317
 20
119.5221014736
  0
VERTEX
  8
2_FEATURE
 62
7
  6
CONTINUOUS
 10
60.2634620901
 20
119.4876754492
  0
VERTEX
  8
2_FEATURE
 62
7
  6
CONTINUOUS
 10
60.286099506
 20
119.4505961527
  0
VERTEX
  8
2_FEATURE
 62
7
  6
CONTINUOUS
 10
60.3076180255
 20
119.4110049526
  0
VERTEX
  8
2_FEATURE
 62
7
  6
CONTINUOUS
 10
60.3278874072
 20
119.3691816877
  0
VERTEX
  8
2_FEATURE
 62
7
  6
CONTINUOUS
 10
60.3468481052
 20
119.3253279359
  0
VERTEX
  8
2_FEATURE
 62
7
  6
CONTINUOUS
 10
60.3644866986
 20
119.2795722363
  0
VERTEX
  8
2_FEATURE
 62
7
  6
CONTINUOUS
 10
60.3807966545
 20
119.232036068
  0
VERTEX
  8
2_FEATURE
 62
7
  6
CONTINUOUS
 10
60.3957682354
 20
119.1828677551
  0
VERTEX
  8
2_FEATURE
 62
7
  6
CONTINUOUS
 10
60.4094081455
 20
119.1321982772
  0
VERTEX
  8
2_FEATURE
 62
7
  6
CONTINUOUS
 10
60.4217350911
 20
119.0801241357
  0
VERTEX
  8
2_FEATURE
 62
7
  6
CONTINUOUS
 10
60.4327772491
 20
119.0267145747
  0
VERTEX
  8
2_FEATURE
 62
7
  6
CONTINUOUS
 10
60.44257022
 20
118.9720145318
  0
VERTEX
  8
2_FEATURE
 62
7
  6
CONTINUOUS
 10
60.4511502439
 20
118.9160330507
  0
VERTEX
  8
2_FEATURE
 62
7
  6
CONTINUOUS
 10
60.4585519478
 20
118.858778216
  0
VERTEX
  8
2_FEATURE
 62
7
  6
CONTINUOUS
 10
60.4648019646
 20
118.8003561686
  0
VERTEX
  8
2_FEATURE
 62
7
  6
CONTINUOUS
 10
60.4699339792
 20
118.740839711
  0
VERTEX
  8
2_FEATURE
 62
7
  6
CONTINUOUS
 10
60.4739860647
 20
118.680284837
  0
VERTEX
  8
2_FEATURE
 62
7
  6
CONTINUOUS
 10
60.477002767
 20
118.6187399792
  0
VERTEX
  8
2_FEATURE
 62
7
  6
CONTINUOUS
 10
60.4790327515
 20
118.5562443243
  0
VERTEX
  8
2_FEATURE
 62
7
  6
CONTINUOUS
 10
60.4801237185
 20
118.4928241298
  0
VERTEX
  8
2_FEATURE
 62
7
  6
CONTINUOUS
 10
60.4803561904
 20
118.4456080333
  0
SEQEND
  0
POLYLINE
  8
2_FEATURE
 62
7
  6
CONTINUOUS
 66
1
 70
0
  0
VERTEX
  8
2_FEATURE
 62
7
  6
CONTINUOUS
 10
46.9560393675
 20
119.6885318717
  0
VERTEX
  8
2_FEATURE
 62
7
  6
CONTINUOUS
 10
46.9759586582
 20
119.6870380989
  0
VERTEX
  8
2_FEATURE
 62
7
  6
CONTINUOUS
 10
47.0005804572
 20
119.6862933319
  0
VERTEX
  8
2_FEATURE
 62
7
  6
CONTINUOUS
 10
47.2930473994
 20
119.6862854821
  0
SEQEND
  0
POLYLINE
  8
2_FEATURE
 62
7
  6
CONTINUOUS
 66
1
 70
0
  0
VERTEX
  8
2_FEATURE
 62
7
  6
CONTINUOUS
 10
41.8515904808
 20
120.1199973195
  0
VERTEX
  8
2_FEATURE
 62
7
  6
CONTINUOUS
 10
43.6385114988
 20
119.9802935145
  0
VERTEX
  8
2_FEATURE
 62
7
  6
CONTINUOUS
 10
45.3543763055
 20
119.835067505
  0
VERTEX
  8
2_FEATURE
 62
7
  6
CONTINUOUS
 10
46.9560398534
 20
119.688534524
  0
SEQEND
  0
LINE
  8
0
 62
7
  6
CONTINUOUS
 10
67.3635431351
 20
123.5474137931
 11
55.8635431351
 21
135.0474137931
  0
LINE
  8
0
 62
7
  6
CONTINUOUS
 10
69.4848634787
 20
123.5474137931
 11
57.9848634787
 21
135.0474137931
  0
LINE
  8
0
 62
7
  6
CONTINUOUS
 10
68.7899500063
 20
123.5474137931
 11
68.7899500063
 21
135.0474137931
  0
LINE
  8
0
 62
7
  6
CONTINUOUS
 10
69.8506101781
 20
123.5474137931
 11
69.8506101781
 21
135.0474137931
  0
LINE
  8
0
 62
7
  6
CONTINUOUS
 10
70.9112703499
 20
123.5474137931
 11
70.9112703499
 21
135.0474137931
  0
LINE
  8
0
 62
7
  6
CONTINUOUS
 10
59.6097551597
 20
123.5474137931
 11
71.1097551597
 21
135.0474137931
  0
LINE
  8
0
 62
7
  6
CONTINUOUS
 10
61.7310755033
 20
123.5474137931
 11
73.2310755033
 21
135.0474137931
  0
LINE
  8
2_FEATURE
 62
7
  6
CONTINUOUS
 10
54.3500555768
 20
119.6862854821
 11
59.9930473994
 21
119.6862854821
  0
LINE
  8
2_FEATURE
 62
7
  6
CONTINUOUS
 10
67.0500555768
 20
119.6862854821
 11
72.6930473994
 21
119.6862854821
  0
LINE
  8
2_FEATURE
 62
7
  6
CONTINUOUS
 10
79.7500555768
 20
119.6862854821
 11
85.3930473994
 21
119.6862854821
  0
LINE
  8
2_FEATURE
 62
7
  6
CONTINUOUS
 10
92.4500555768
 20
119.6862854821
 11
98.0930473994
 21
119.6862854821
  0
LINE
  8
2_FEATURE
 62
7
  6
CONTINUOUS
 10
105.1500555768
 20
119.6862854821
 11
110.7930473994
 21
119.6862854821
  0
POLYLINE
  8
2_FEATURE
 62
7
  6
CONTINUOUS
 66
1
 70
0
  0
VERTEX
  8
2_FEATURE
 62
7
  6
CONTINUOUS
 10
72.6930473992
 20
119.6862851259
  0
VERTEX
  8
2_FEATURE
 62
7
  6
CONTINUOUS
 10
72.716318994
 20
119.6847562266
  0
VERTEX
  8
2_FEATURE
 62
7
  6
CONTINUOUS
 10
72.7458313367
 20
119.678469623
  0
VERTEX
  8
2_FEATURE
 62
7
  6
CONTINUOUS
 10
72.7760234046
 20
119.6671877545
  0
VERTEX
  8
2_FEATURE
 62
7
  6
CONTINUOUS
 10
72.8055046188
 20
119.6516181168
  0
VERTEX
  8
2_FEATURE
 62
7
  6
CONTINUOUS
 10
72.8342778207
 20
119.6321496807
  0
VERTEX
  8
2_FEATURE
 62
7
  6
CONTINUOUS
 10
72.8621165637
 20
119.609235882
  0
VERTEX
  8
2_FEATURE
 62
7
  6
CONTINUOUS
 10
72.8890524905
 20
119.5830807245
  0
VERTEX
  8
2_FEATURE
 62
7
  6
CONTINUOUS
 10
72.914982386
 20
119.5539418469
  0
VERTEX
  8
2_FEATURE
 62
7
  6
CONTINUOUS
 10
72.9397845317
 20
119.5221014736
  0
VERTEX
  8
2_FEATURE
 62
7
  6
CONTINUOUS
 10
72.9634620901
 20
119.4876754492
  0
VERTEX
  8
2_FEATURE
 62
7
  6
CONTINUOUS
 10
72.986099506
 20
119.4505961527
  0
VERTEX
  8
2_FEATURE
 62
7
  6
CONTINUOUS
 10
73.0076180255
 20
119.4110049526
  0
VERTEX
  8
2_FEATURE
 62
7
  6
CONTINUOUS
 10
73.0278874072
 20
119.3691816877
  0
VERTEX
  8
2_FEATURE
 62
7
  6
CONTINUOUS
 10
73.0468481052
 20
119.3253279359
  0
VERTEX
  8
2_FEATURE
 62
7
  6
CONTINUOUS
 10
73.0644866986
 20
119.2795722363
  0
VERTEX
  8
2_FEATURE
 62
7
  6
CONTINUOUS
 10
73.0807966545
 20
119.232036068
  0
VERTEX
  8
2_FEATURE
 62
7
  6
CONTINUOUS
 10
73.0957682354
 20
119.1828677551
  0
VERTEX
  8
2_FEATURE
 62
7
  6
CONTINUOUS
 10
73.1094081455
 20
119.1321982772
  0
VERTEX
  8
2_FEATURE
 62
7
  6
CONTINUOUS
 10
73.1217350911
 20
119.0801241357
  0
VERTEX
  8
2_FEATURE
 62
7
  6
CONTINUOUS
 10
73.1327772491
 20
119.0267145747
  0
VERTEX
  8
2_FEATURE
 62
7
  6
CONTINUOUS
 10
73.14257022
 20
118.9720145318
  0
VERTEX
  8
2_FEATURE
 62
7
  6
CONTINUOUS
 10
73.1511502439
 20
118.9160330507
  0
VERTEX
  8
2_FEATURE
 62
7
  6
CONTINUOUS
 10
73.1585519478
 20
118.858778216
  0
VERTEX
  8
2_FEATURE
 62
7
  6
CONTINUOUS
 10
73.1648019646
 20
118.8003561686
  0
VERTEX
  8
2_FEATURE
 62
7
  6
CONTINUOUS
 10
73.1699339792
 20
118.740839711
  0
VERTEX
  8
2_FEATURE
 62
7
  6
CONTINUOUS
 10
73.1739860647
 20
118.680284837
  0
VERTEX
  8
2_FEATURE
 62
7
  6
CONTINUOUS
 10
73.177002767
 20
118.6187399792
  0
VERTEX
  8
2_FEATURE
 62
7
  6
CONTINUOUS
 10
73.1790327515
 20
118.5562443243
  0
VERTEX
  8
2_FEATURE
 62
7
  6
CONTINUOUS
 10
73.1801237185
 20
118.4928241298
  0
VERTEX
  8
2_FEATURE
 62
7
  6
CONTINUOUS
 10
73.1803561904
 20
118.4456080333
  0
SEQEND
  0
POLYLINE
  8
2_FEATURE
 62
7
  6
CONTINUOUS
 66
1
 70
0
  0
VERTEX
  8
2_FEATURE
 62
7
  6
CONTINUOUS
 10
85.3930473992
 20
119.6862851259
  0
VERTEX
  8
2_FEATURE
 62
7
  6
CONTINUOUS
 10
85.416318994
 20
119.6847562266
  0
VERTEX
  8
2_FEATURE
 62
7
  6
CONTINUOUS
 10
85.4458313367
 20
119.678469623
  0
VERTEX
  8
2_FEATURE
 62
7
  6
CONTINUOUS
 10
85.4760234046
 20
119.6671877545
  0
VERTEX
  8
2_FEATURE
 62
7
  6
CONTINUOUS
 10
85.5055046188
 20
119.6516181168
  0
VERTEX
  8
2_FEATURE
 62
7
  6
CONTINUOUS
 10
85.5342778207
 20
119.6321496807
  0
VERTEX
  8
2_FEATURE
 62
7
  6
CONTINUOUS
 10
85.5621165637
 20
119.609235882
  0
VERTEX
  8
2_FEATURE
 62
7
  6
CONTINUOUS
 10
85.5890524905
 20
119.5830807245
  0
VERTEX
  8
2_FEATURE
 62
7
  6
CONTINUOUS
 10
85.614982386
 20
119.5539418469
  0
VERTEX
  8
2_FEATURE
 62
7
  6
CONTINUOUS
 10
85.6397845317
 20
119.5221014736
  0
VERTEX
  8
2_FEATURE
 62
7
  6
CONTINUOUS
 10
85.6634620901
 20
119.4876754492
  0
VERTEX
  8
2_FEATURE
 62
7
  6
CONTINUOUS
 10
85.686099506
 20
119.4505961527
  0
VERTEX
  8
2_FEATURE
 62
7
  6
CONTINUOUS
 10
85.7076180255
 20
119.4110049526
  0
VERTEX
  8
2_FEATURE
 62
7
  6
CONTINUOUS
 10
85.7278874072
 20
119.3691816877
  0
VERTEX
  8
2_FEATURE
 62
7
  6
CONTINUOUS
 10
85.7468481052
 20
119.3253279359
  0
VERTEX
  8
2_FEATURE
 62
7
  6
CONTINUOUS
 10
85.7644866986
 20
119.2795722363
  0
VERTEX
  8
2_FEATURE
 62
7
  6
CONTINUOUS
 10
85.7807966545
 20
119.232036068
  0
VERTEX
  8
2_FEATURE
 62
7
  6
CONTINUOUS
 10
85.7957682354
 20
119.1828677551
  0
VERTEX
  8
2_FEATURE
 62
7
  6
CONTINUOUS
 10
85.8094081455
 20
119.1321982772
  0
VERTEX
  8
2_FEATURE
 62
7
  6
CONTINUOUS
 10
85.8217350911
 20
119.0801241357
  0
VERTEX
  8
2_FEATURE
 62
7
  6
CONTINUOUS
 10
85.8327772491
 20
119.0267145747
  0
VERTEX
  8
2_FEATURE
 62
7
  6
CONTINUOUS
 10
85.84257022
 20
118.9720145318
  0
VERTEX
  8
2_FEATURE
 62
7
  6
CONTINUOUS
 10
85.8511502439
 20
118.9160330507
  0
VERTEX
  8
2_FEATURE
 62
7
  6
CONTINUOUS
 10
85.8585519478
 20
118.858778216
  0
VERTEX
  8
2_FEATURE
 62
7
  6
CONTINUOUS
 10
85.8648019646
 20
118.8003561686
  0
VERTEX
  8
2_FEATURE
 62
7
  6
CONTINUOUS
 10
85.8699339792
 20
118.740839711
  0
VERTEX
  8
2_FEATURE
 62
7
  6
CONTINUOUS
 10
85.8739860647
 20
118.680284837
  0
VERTEX
  8
2_FEATURE
 62
7
  6
CONTINUOUS
 10
85.877002767
 20
118.6187399792
  0
VERTEX
  8
2_FEATURE
 62
7
  6
CONTINUOUS
 10
85.8790327515
 20
118.5562443243
  0
VERTEX
  8
2_FEATURE
 62
7
  6
CONTINUOUS
 10
85.8801237185
 20
118.4928241298
  0
VERTEX
  8
2_FEATURE
 62
7
  6
CONTINUOUS
 10
85.8803561904
 20
118.4456080333
  0
SEQEND
  0
POLYLINE
  8
2_FEATURE
 62
7
  6
CONTINUOUS
 66
1
 70
0
  0
VERTEX
  8
2_FEATURE
 62
7
  6
CONTINUOUS
 10
98.0930473992
 20
119.6862851259
  0
VERTEX
  8
2_FEATURE
 62
7
  6
CONTINUOUS
 10
98.116318994
 20
119.6847562266
  0
VERTEX
  8
2_FEATURE
 62
7
  6
CONTINUOUS
 10
98.1458313367
 20
119.678469623
  0
VERTEX
  8
2_FEATURE
 62
7
  6
CONTINUOUS
 10
98.1760234046
 20
119.6671877545
  0
VERTEX
  8
2_FEATURE
 62
7
  6
CONTINUOUS
 10
98.2055046188
 20
119.6516181168
  0
VERTEX
  8
2_FEATURE
 62
7
  6
CONTINUOUS
 10
98.2342778207
 20
119.6321496807
  0
VERTEX
  8
2_FEATURE
 62
7
  6
CONTINUOUS
 10
98.2621165637
 20
119.609235882
  0
VERTEX
  8
2_FEATURE
 62
7
  6
CONTINUOUS
 10
98.2890524905
 20
119.5830807245
  0
VERTEX
  8
2_FEATURE
 62
7
  6
CONTINUOUS
 10
98.314982386
 20
119.5539418469
  0
VERTEX
  8
2_FEATURE
 62
7
  6
CONTINUOUS
 10
98.3397845317
 20
119.5221014736
  0
VERTEX
  8
2_FEATURE
 62
7
  6
CONTINUOUS
 10
98.3634620901
 20
119.4876754492
  0
VERTEX
  8
2_FEATURE
 62
7
  6
CONTINUOUS
 10
98.386099506
 20
119.4505961527
  0
VERTEX
  8
2_FEATURE
 62
7
  6
CONTINUOUS
 10
98.4076180255
 20
119.4110049526
  0
VERTEX
  8
2_FEATURE
 62
7
  6
CONTINUOUS
 10
98.4278874072
 20
119.3691816877
  0
VERTEX
  8
2_FEATURE
 62
7
  6
CONTINUOUS
 10
98.4468481052
 20
119.3253279359
  0
VERTEX
  8
2_FEATURE
 62
7
  6
CONTINUOUS
 10
98.4644866986
 20
119.2795722363
  0
VERTEX
  8
2_FEATURE
 62
7
  6
CONTINUOUS
 10
98.4807966545
 20
119.232036068
  0
VERTEX
  8
2_FEATURE
 62
7
  6
CONTINUOUS
 10
98.4957682354
 20
119.1828677551
  0
VERTEX
  8
2_FEATURE
 62
7
  6
CONTINUOUS
 10
98.5094081455
 20
119.1321982772
  0
VERTEX
  8
2_FEATURE
 62
7
  6
CONTINUOUS
 10
98.5217350911
 20
119.0801241357
  0
VERTEX
  8
2_FEATURE
 62
7
  6
CONTINUOUS
 10
98.5327772491
 20
119.0267145747
  0
VERTEX
  8
2_FEATURE
 62
7
  6
CONTINUOUS
 10
98.54257022
 20
118.9720145318
  0
VERTEX
  8
2_FEATURE
 62
7
  6
CONTINUOUS
 10
98.5511502439
 20
118.9160330507
  0
VERTEX
  8
2_FEATURE
 62
7
  6
CONTINUOUS
 10
98.5585519478
 20
118.858778216
  0
VERTEX
  8
2_FEATURE
 62
7
  6
CONTINUOUS
 10
98.5648019646
 20
118.8003561686
  0
VERTEX
  8
2_FEATURE
 62
7
  6
CONTINUOUS
 10
98.5699339792
 20
118.740839711
  0
VERTEX
  8
2_FEATURE
 62
7
  6
CONTINUOUS
 10
98.5739860647
 20
118.680284837
  0
VERTEX
  8
2_FEATURE
 62
7
  6
CONTINUOUS
 10
98.577002767
 20
118.6187399792
  0
VERTEX
  8
2_FEATURE
 62
7
  6
CONTINUOUS
 10
98.5790327515
 20
118.5562443243
  0
VERTEX
  8
2_FEATURE
 62
7
  6
CONTINUOUS
 10
98.5801237185
 20
118.4928241298
  0
VERTEX
  8
2_FEATURE
 62
7
  6
CONTINUOUS
 10
98.5803561904
 20
118.4456080333
  0
SEQEND
  0
LINE
  8
0
 62
7
  6
CONTINUOUS
 10
71.6061838223
 20
123.5474137931
 11
60.1061838223
 21
135.0474137931
  0
LINE
  8
0
 62
7
  6
CONTINUOUS
 10
73.7275041658
 20
123.5474137931
 11
62.2275041658
 21
135.0474137931
  0
POLYLINE
  8
2_FEATURE
 62
7
  6
CONTINUOUS
 66
1
 70
0
  0
VERTEX
  8
2_FEATURE
 62
7
  6
CONTINUOUS
 10
73.2293512226
 20
112.839127921
  0
VERTEX
  8
2_FEATURE
 62
7
  6
CONTINUOUS
 10
73.2309046661
 20
112.8129869392
  0
VERTEX
  8
2_FEATURE
 62
7
  6
CONTINUOUS
 10
73.2324551056
 20
112.7889400297
  0
VERTEX
  8
2_FEATURE
 62
7
  6
CONTINUOUS
 10
73.2340059688
 20
112.7668430526
  0
VERTEX
  8
2_FEATURE
 62
7
  6
CONTINUOUS
 10
73.2355648773
 20
112.7465103815
  0
VERTEX
  8
2_FEATURE
 62
7
  6
CONTINUOUS
 10
73.2371469039
 20
112.7276954577
  0
VERTEX
  8
2_FEATURE
 62
7
  6
CONTINUOUS
 10
73.238774588
 20
112.7101230828
  0
VERTEX
  8
2_FEATURE
 62
7
  6
CONTINUOUS
 10
73.2404807265
 20
112.6934900084
  0
VERTEX
  8
2_FEATURE
 62
7
  6
CONTINUOUS
 10
73.2423130271
 20
112.6774581952
  0
VERTEX
  8
2_FEATURE
 62
7
  6
CONTINUOUS
 10
73.244336876
 20
112.6616770279
  0
VERTEX
  8
2_FEATURE
 62
7
  6
CONTINUOUS
 10
73.2466497688
 20
112.6457297339
  0
VERTEX
  8
2_FEATURE
 62
7
  6
CONTINUOUS
 10
73.2494037624
 20
112.6290866233
  0
VERTEX
  8
2_FEATURE
 62
7
  6
CONTINUOUS
 10
73.252824125
 20
112.6111455238
  0
VERTEX
  8
2_FEATURE
 62
7
  6
CONTINUOUS
 10
73.2572543177
 20
112.5911855808
  0
VERTEX
  8
2_FEATURE
 62
7
  6
CONTINUOUS
 10
73.2632063366
 20
112.5684028278
  0
VERTEX
  8
2_FEATURE
 62
7
  6
CONTINUOUS
 10
73.2713711653
 20
112.5421293766
  0
VERTEX
  8
2_FEATURE
 62
7
  6
CONTINUOUS
 10
73.2825559091
 20
112.512129631
  0
VERTEX
  8
2_FEATURE
 62
7
  6
CONTINUOUS
 10
73.2975923605
 20
112.4786971711
  0
VERTEX
  8
2_FEATURE
 62
7
  6
CONTINUOUS
 10
73.3173924247
 20
112.4423357395
  0
VERTEX
  8
2_FEATURE
 62
7
  6
CONTINUOUS
 10
73.3431931478
 20
112.4034027789
  0
VERTEX
  8
2_FEATURE
 62
7
  6
CONTINUOUS
 10
73.3761211015
 20
112.3629351975
  0
VERTEX
  8
2_FEATURE
 62
7
  6
CONTINUOUS
 10
73.4166884766
 20
112.3228538828
  0
VERTEX
  8
2_FEATURE
 62
7
  6
CONTINUOUS
 10
73.4647847526
 20
112.2853744065
  0
VERTEX
  8
2_FEATURE
 62
7
  6
CONTINUOUS
 10
73.5196099478
 20
112.2526883214
  0
VERTEX
  8
2_FEATURE
 62
7
  6
CONTINUOUS
 10
73.5797827812
 20
112.2266382332
  0
VERTEX
  8
2_FEATURE
 62
7
  6
CONTINUOUS
 10
73.643501174
 20
112.208520566
  0
VERTEX
  8
2_FEATURE
 62
7
  6
CONTINUOUS
 10
73.7087311642
 20
112.1989885375
  0
VERTEX
  8
2_FEATURE
 62
7
  6
CONTINUOUS
 10
73.7484305138
 20
112.1974137932
  0
SEQEND
  0
POLYLINE
  8
2_FEATURE
 62
7
  6
CONTINUOUS
 66
1
 70
0
  0
VERTEX
  8
2_FEATURE
 62
7
  6
CONTINUOUS
 10
72.8637522298
 20
145.7556995945
  0
VERTEX
  8
2_FEATURE
 62
7
  6
CONTINUOUS
 10
72.8621987856
 20
145.7818405947
  0
VERTEX
  8
2_FEATURE
 62
7
  6
CONTINUOUS
 10
72.8606483461
 20
145.8058875037
  0
VERTEX
  8
2_FEATURE
 62
7
  6
CONTINUOUS
 10
72.8590974842
 20
145.827984466
  0
VERTEX
  8
2_FEATURE
 62
7
  6
CONTINUOUS
 10
72.8575385759
 20
145.848317147
  0
VERTEX
  8
2_FEATURE
 62
7
  6
CONTINUOUS
 10
72.855956548
 20
145.8671320905
  0
VERTEX
  8
2_FEATURE
 62
7
  6
CONTINUOUS
 10
72.8543288639
 20
145.8847044628
  0
VERTEX
  8
2_FEATURE
 62
7
  6
CONTINUOUS
 10
72.8526227289
 20
145.9013375078
  0
VERTEX
  8
2_FEATURE
 62
7
  6
CONTINUOUS
 10
72.8507904313
 20
145.9173693099
  0
VERTEX
  8
2_FEATURE
 62
7
  6
CONTINUOUS
 10
72.8487665775
 20
145.9331505232
  0
VERTEX
  8
2_FEATURE
 62
7
  6
CONTINUOUS
 10
72.8464536819
 20
145.9490978368
  0
VERTEX
  8
2_FEATURE
 62
7
  6
CONTINUOUS
 10
72.8436996912
 20
145.9657409294
  0
VERTEX
  8
2_FEATURE
 62
7
  6
CONTINUOUS
 10
72.8402793473
 20
145.9836819416
  0
VERTEX
  8
2_FEATURE
 62
7
  6
CONTINUOUS
 10
72.8358491904
 20
146.0036417571
  0
VERTEX
  8
2_FEATURE
 62
7
  6
CONTINUOUS
 10
72.8298971567
 20
146.0264246035
  0
VERTEX
  8
2_FEATURE
 62
7
  6
CONTINUOUS
 10
72.821732313
 20
146.0526981244
  0
VERTEX
  8
2_FEATURE
 62
7
  6
CONTINUOUS
 10
72.8105475553
 20
146.0826979173
  0
VERTEX
  8
2_FEATURE
 62
7
  6
CONTINUOUS
 10
72.7955110876
 20
146.116130415
  0
VERTEX
  8
2_FEATURE
 62
7
  6
CONTINUOUS
 10
72.7757109989
 20
146.1524918857
  0
VERTEX
  8
2_FEATURE
 62
7
  6
CONTINUOUS
 10
72.7499102428
 20
146.1914248826
  0
VERTEX
  8
2_FEATURE
 62
7
  6
CONTINUOUS
 10
72.7169822444
 20
146.2318924978
  0
VERTEX
  8
2_FEATURE
 62
7
  6
CONTINUOUS
 10
72.6764147975
 20
146.2719738527
  0
VERTEX
  8
2_FEATURE
 62
7
  6
CONTINUOUS
 10
72.6283184205
 20
146.3094533642
  0
VERTEX
  8
2_FEATURE
 62
7
  6
CONTINUOUS
 10
72.5734931225
 20
146.342139455
  0
VERTEX
  8
2_FEATURE
 62
7
  6
CONTINUOUS
 10
72.5133202239
 20
146.3681895084
  0
VERTEX
  8
2_FEATURE
 62
7
  6
CONTINUOUS
 10
72.4496018464
 20
146.3863071098
  0
VERTEX
  8
2_FEATURE
 62
7
  6
CONTINUOUS
 10
72.3843719939
 20
146.3958390709
  0
VERTEX
  8
2_FEATURE
 62
7
  6
CONTINUOUS
 10
72.3446729147
 20
146.397413793
  0
SEQEND
  0
LINE
  8
2_FEATURE
 62
7
  6
CONTINUOUS
 10
73.2262310766
 20
112.8981547775
 11
73.2293512226
 21
112.839127921
  0
LINE
  8
2_FEATURE
 62
7
  6
CONTINUOUS
 10
72.8668723747
 20
145.6966727479
 11
72.8637522298
 21
145.7556995945
  0
LINE
  8
2_FEATURE
 62
7
  6
CONTINUOUS
 10
73.2230883257
 20
112.9669592744
 11
73.2262310766
 21
112.8981547775
  0
LINE
  8
2_FEATURE
 62
7
  6
CONTINUOUS
 10
72.8700151256
 20
145.6278682376
 11
72.8668723747
 21
145.6966727479
  0
LINE
  8
2_FEATURE
 62
7
  6
CONTINUOUS
 10
73.2199232399
 20
113.0464448975
 11
73.2230883257
 21
112.9669592744
  0
LINE
  8
2_FEATURE
 62
7
  6
CONTINUOUS
 10
72.8731802111
 20
145.5483826189
 11
72.8700151256
 21
145.6278682376
  0
LINE
  8
2_FEATURE
 62
7
  6
CONTINUOUS
 10
73.2151572018
 20
113.1872564357
 11
73.2199232399
 21
113.0464448975
  0
LINE
  8
2_FEATURE
 62
7
  6
CONTINUOUS
 10
72.8779462488
 20
145.4075710782
 11
72.8731802111
 21
145.5483826189
  0
LINE
  8
2_FEATURE
 62
7
  6
CONTINUOUS
 10
73.210412056
 20
113.3558232757
 11
73.2151572018
 21
113.1872564357
  0
LINE
  8
2_FEATURE
 62
7
  6
CONTINUOUS
 10
72.8826913943
 20
145.239004236
 11
72.8779462488
 21
145.4075710782
  0
LINE
  8
2_FEATURE
 62
7
  6
CONTINUOUS
 10
73.2041451747
 20
113.6303724921
 11
73.210412056
 21
113.3558232757
  0
LINE
  8
2_FEATURE
 62
7
  6
CONTINUOUS
 10
72.8889582749
 20
144.9644550259
 11
72.8826913943
 21
145.239004236
  0
LINE
  8
2_FEATURE
 62
7
  6
CONTINUOUS
 10
73.1980282636
 20
113.9719682048
 11
73.2041451747
 21
113.6303724921
  0
LINE
  8
2_FEATURE
 62
7
  6
CONTINUOUS
 10
72.8950751854
 20
144.6228593276
 11
72.8889582749
 21
144.9644550259
  0
LINE
  8
2_FEATURE
 62
7
  6
CONTINUOUS
 10
73.1923044775
 20
114.3873983416
 11
73.1980282636
 21
113.9719682048
  0
LINE
  8
2_FEATURE
 62
7
  6
CONTINUOUS
 10
72.9007989712
 20
144.2074292156
 11
72.8950751854
 21
144.6228593276
  0
LINE
  8
2_FEATURE
 62
7
  6
CONTINUOUS
 10
73.1884640044
 20
114.7490982167
 11
73.1923044775
 21
114.3873983416
  0
LINE
  8
2_FEATURE
 62
7
  6
CONTINUOUS
 10
72.904639444
 20
143.8457293524
 11
72.9007989712
 21
144.2074292156
  0
LINE
  8
2_FEATURE
 62
7
  6
CONTINUOUS
 10
72.9079282309
 20
143.4405145104
 11
72.904639444
 21
143.8457293524
  0
LINE
  8
2_FEATURE
 62
7
  6
CONTINUOUS
 10
73.1851752175
 20
115.1543130715
 11
73.1884640044
 21
114.7490982167
  0
LINE
  8
2_FEATURE
 62
7
  6
CONTINUOUS
 10
72.9104991685
 20
142.992710251
 11
72.9079282309
 21
143.4405145104
  0
LINE
  8
2_FEATURE
 62
7
  6
CONTINUOUS
 10
73.1826042795
 20
115.6021173902
 11
73.1851752175
 21
115.1543130715
  0
LINE
  8
2_FEATURE
 62
7
  6
CONTINUOUS
 10
72.9121700997
 20
142.5050928422
 11
72.9104991685
 21
142.992710251
  0
LINE
  8
2_FEATURE
 62
7
  6
CONTINUOUS
 10
73.1809333479
 20
116.0897350674
 11
73.1826042795
 21
115.6021173902
  0
LINE
  8
2_FEATURE
 62
7
  6
CONTINUOUS
 10
72.9127480268
 20
141.9974137931
 11
72.9121700997
 21
142.5050928422
  0
LINE
  8
2_FEATURE
 62
7
  6
CONTINUOUS
 10
73.1803554216
 20
116.5974137931
 11
73.1809333479
 21
116.0897350674
  0
LINE
  8
0
 62
7
  6
CONTINUOUS
 10
71.9719305217
 20
123.5474137931
 11
71.9719305217
 21
135.0474137931
  0
LINE
  8
2_FEATURE
 62
7
  6
CONTINUOUS
 10
72.9127480277
 20
140.1492195521
 11
72.9127480277
 21
141.9974137931
  0
LINE
  8
0
 62
7
  6
CONTINUOUS
 10
73.0325906935
 20
123.5474137931
 11
73.0325906935
 21
135.0474137931
  0
LINE
  8
2_FEATURE
 62
7
  6
CONTINUOUS
 10
73.1803554206
 20
118.4456080341
 11
73.1803554206
 21
116.5974137931
  0
LINE
  8
0
 62
7
  6
CONTINUOUS
 10
74.0932508652
 20
123.5474137931
 11
74.0932508652
 21
135.0474137931
  0
LINE
  8
0
 62
7
  6
CONTINUOUS
 10
63.8523958469
 20
123.5474137931
 11
75.3523958469
 21
135.0474137931
  0
LINE
  8
0
 62
7
  6
CONTINUOUS
 10
65.9737161904
 20
123.5474137931
 11
77.4737161904
 21
135.0474137931
  0
LINE
  8
2_FEATURE
 62
2
  6
CONTINUOUS
 10
41.4815517241
 20
122.096629404
 11
117.3115517241
 21
122.096629404
  0
LINE
  8
0
 62
7
  6
CONTINUOUS
 10
49.8965517241
 20
123.5474137931
 11
108.8965517241
 21
123.5474137931
  0
LINE
  8
2_FEATURE
 62
2
  6
CONTINUOUS
 10
41.4815517241
 20
124.0174137931
 11
117.3115517241
 21
124.0174137931
  0
POLYLINE
  8
2_FEATURE
 62
7
  6
CONTINUOUS
 66
1
 70
0
  0
VERTEX
  8
2_FEATURE
 62
7
  6
CONTINUOUS
 10
110.7930473992
 20
119.6862851259
  0
VERTEX
  8
2_FEATURE
 62
7
  6
CONTINUOUS
 10
110.816318994
 20
119.6847562266
  0
VERTEX
  8
2_FEATURE
 62
7
  6
CONTINUOUS
 10
110.8458313367
 20
119.678469623
  0
VERTEX
  8
2_FEATURE
 62
7
  6
CONTINUOUS
 10
110.8760234046
 20
119.6671877545
  0
VERTEX
  8
2_FEATURE
 62
7
  6
CONTINUOUS
 10
110.9055046188
 20
119.6516181168
  0
VERTEX
  8
2_FEATURE
 62
7
  6
CONTINUOUS
 10
110.9342778207
 20
119.6321496807
  0
VERTEX
  8
2_FEATURE
 62
7
  6
CONTINUOUS
 10
110.9621165637
 20
119.609235882
  0
VERTEX
  8
2_FEATURE
 62
7
  6
CONTINUOUS
 10
110.9890524905
 20
119.5830807245
  0
VERTEX
  8
2_FEATURE
 62
7
  6
CONTINUOUS
 10
111.014982386
 20
119.5539418469
  0
VERTEX
  8
2_FEATURE
 62
7
  6
CONTINUOUS
 10
111.0397845317
 20
119.5221014736
  0
VERTEX
  8
2_FEATURE
 62
7
  6
CONTINUOUS
 10
111.0634620901
 20
119.4876754492
  0
VERTEX
  8
2_FEATURE
 62
7
  6
CONTINUOUS
 10
111.086099506
 20
119.4505961527
  0
VERTEX
  8
2_FEATURE
 62
7
  6
CONTINUOUS
 10
111.1076180255
 20
119.4110049526
  0
VERTEX
  8
2_FEATURE
 62
7
  6
CONTINUOUS
 10
111.1278874072
 20
119.3691816877
  0
VERTEX
  8
2_FEATURE
 62
7
  6
CONTINUOUS
 10
111.1468481052
 20
119.3253279359
  0
VERTEX
  8
2_FEATURE
 62
7
  6
CONTINUOUS
 10
111.1644866986
 20
119.2795722363
  0
VERTEX
  8
2_FEATURE
 62
7
  6
CONTINUOUS
 10
111.1807966545
 20
119.232036068
  0
VERTEX
  8
2_FEATURE
 62
7
  6
CONTINUOUS
 10
111.1957682354
 20
119.1828677551
  0
VERTEX
  8
2_FEATURE
 62
7
  6
CONTINUOUS
 10
111.2094081455
 20
119.1321982772
  0
VERTEX
  8
2_FEATURE
 62
7
  6
CONTINUOUS
 10
111.2217350911
 20
119.0801241357
  0
VERTEX
  8
2_FEATURE
 62
7
  6
CONTINUOUS
 10
111.2327772491
 20
119.0267145747
  0
VERTEX
  8
2_FEATURE
 62
7
  6
CONTINUOUS
 10
111.24257022
 20
118.9720145318
  0
VERTEX
  8
2_FEATURE
 62
7
  6
CONTINUOUS
 10
111.2511502439
 20
118.9160330507
  0
VERTEX
  8
2_FEATURE
 62
7
  6
CONTINUOUS
 10
111.2585519478
 20
118.858778216
  0
VERTEX
  8
2_FEATURE
 62
7
  6
CONTINUOUS
 10
111.2648019646
 20
118.8003561686
  0
VERTEX
  8
2_FEATURE
 62
7
  6
CONTINUOUS
 10
111.2699339792
 20
118.740839711
  0
VERTEX
  8
2_FEATURE
 62
7
  6
CONTINUOUS
 10
111.2739860647
 20
118.680284837
  0
VERTEX
  8
2_FEATURE
 62
7
  6
CONTINUOUS
 10
111.277002767
 20
118.6187399792
  0
VERTEX
  8
2_FEATURE
 62
7
  6
CONTINUOUS
 10
111.2790327515
 20
118.5562443243
  0
VERTEX
  8
2_FEATURE
 62
7
  6
CONTINUOUS
 10
111.2801237185
 20
118.4928241298
  0
VERTEX
  8
2_FEATURE
 62
7
  6
CONTINUOUS
 10
111.2803561904
 20
118.4456080333
  0
SEQEND
  0
LINE
  8
0
 62
7
  6
CONTINUOUS
 10
75.8488245094
 20
123.5474137931
 11
64.3488245094
 21
135.0474137931
  0
LINE
  8
0
 62
7
  6
CONTINUOUS
 10
75.153911037
 20
123.5474137931
 11
75.153911037
 21
126.363647609
  0
LINE
  8
2_FEATURE
 62
7
  6
CONTINUOUS
 10
75.153911037
 20
126.363647609
 11
75.153911037
 21
126.651662482
  0
LINE
  8
2_FEATURE
 62
7
  6
CONTINUOUS
 10
75.153911037
 20
131.9431651042
 11
75.153911037
 21
132.7276086397
  0
LINE
  8
0
 62
7
  6
CONTINUOUS
 10
75.153911037
 20
132.7276086397
 11
75.153911037
 21
135.0474137931
  0
LINE
  8
0
 62
7
  6
CONTINUOUS
 10
76.2145712088
 20
123.5474137931
 11
76.2145712088
 21
125.3029874373
  0
LINE
  8
2_FEATURE
 62
7
  6
CONTINUOUS
 10
76.2145712088
 20
125.3029874373
 11
76.2145712088
 21
125.440601638
  0
LINE
  8
2_FEATURE
 62
7
  6
CONTINUOUS
 10
76.2145712088
 20
133.1542259482
 11
76.2145712088
 21
133.7882688115
  0
LINE
  8
0
 62
7
  6
CONTINUOUS
 10
76.2145712088
 20
133.7882688115
 11
76.2145712088
 21
135.0474137931
  0
LINE
  8
1_AXIS
 62
7
  6
CONTINUOUS
 10
76.3965517241
 20
129.6374137931
 11
76.3965517241
 21
128.5974137931
  0
LINE
  8
0
 62
7
  6
CONTINUOUS
 10
68.095036534
 20
123.5474137931
 11
74.0932508652
 21
129.5456281244
  0
LINE
  8
2_FEATURE
 62
7
  6
CONTINUOUS
 10
74.0932508652
 20
129.5456281244
 11
74.4310065199
 21
129.883383779
  0
LINE
  8
2_FEATURE
 62
7
  6
CONTINUOUS
 10
78.8105817382
 20
134.2629589974
 11
79.3965517241
 21
134.8489289833
  0
LINE
  8
0
 62
7
  6
CONTINUOUS
 10
79.3965517241
 20
134.8489289833
 11
79.595036534
 21
135.0474137931
  0
LINE
  8
0
 62
7
  6
CONTINUOUS
 10
70.2163568775
 20
123.5474137931
 11
74.0932508652
 21
127.4243077808
  0
LINE
  8
2_FEATURE
 62
7
  6
CONTINUOUS
 10
74.0932508652
 20
127.4243077808
 11
74.5897814804
 21
127.920838396
  0
LINE
  8
2_FEATURE
 62
7
  6
CONTINUOUS
 10
80.7731271213
 20
134.1041840368
 11
81.5178720677
 21
134.8489289833
  0
LINE
  8
0
 62
7
  6
CONTINUOUS
 10
81.5178720677
 20
134.8489289833
 11
81.7163568775
 21
135.0474137931
  0
LINE
  8
0
 62
7
  6
CONTINUOUS
 10
49.8965517241
 20
124.2423272655
 11
108.8965517241
 21
124.2423272655
  0
LINE
  8
0
 62
7
  6
CONTINUOUS
 10
49.8965517241
 20
125.3029874373
 11
76.2145712088
 21
125.3029874373
  0
LINE
  8
2_FEATURE
 62
7
  6
CONTINUOUS
 10
76.2145712088
 20
125.3029874373
 11
76.3891345453
 21
125.3029874373
  0
LINE
  8
2_FEATURE
 62
7
  6
CONTINUOUS
 10
82.403968903
 20
125.3029874373
 11
82.5785322395
 21
125.3029874373
  0
LINE
  8
0
 62
7
  6
CONTINUOUS
 10
82.5785322395
 20
125.3029874373
 11
108.8965517241
 21
125.3029874373
  0
LINE
  8
0
 62
7
  6
CONTINUOUS
 10
49.8965517241
 20
126.363647609
 11
75.153911037
 21
126.363647609
  0
LINE
  8
2_FEATURE
 62
7
  6
CONTINUOUS
 10
75.153911037
 20
126.363647609
 11
75.3477227605
 21
126.363647609
  0
LINE
  8
2_FEATURE
 62
7
  6
CONTINUOUS
 10
83.4453806878
 20
126.363647609
 11
83.6391924113
 21
126.363647609
  0
LINE
  8
0
 62
7
  6
CONTINUOUS
 10
83.6391924113
 20
126.363647609
 11
108.8965517241
 21
126.363647609
  0
LINE
  8
0
 62
7
  6
CONTINUOUS
 10
77.9701448529
 20
123.5474137931
 11
66.4701448529
 21
135.0474137931
  0
LINE
  8
2_FEATURE
 62
7
  6
CONTINUOUS
 10
79.3965517241
 20
124.2423272655
 11
79.3411583444
 21
124.2977206452
  0
LINE
  8
0
 62
7
  6
CONTINUOUS
 10
80.0914651965
 20
123.5474137931
 11
79.3965517241
 21
124.2423272655
  0
LINE
  8
2_FEATURE
 62
7
  6
CONTINUOUS
 10
74.3968585762
 20
129.2420204134
 11
74.0932508652
 21
129.5456281244
  0
LINE
  8
0
 62
7
  6
CONTINUOUS
 10
74.0932508652
 20
129.5456281244
 11
68.5914651965
 21
135.0474137931
  0
LINE
  8
1_AXIS
 62
7
  6
CONTINUOUS
 10
77.0765517241
 20
128.5574137931
 11
77.0765517241
 21
129.6374137931
  0
LINE
  8
0
 62
7
  6
CONTINUOUS
 10
77.2752313806
 20
123.5474137931
 11
77.2752313806
 21
124.2423272655
  0
LINE
  8
2_FEATURE
 62
7
  6
CONTINUOUS
 10
77.2752313806
 20
124.2423272655
 11
77.2752313806
 21
124.769721224
  0
LINE
  8
2_FEATURE
 62
7
  6
CONTINUOUS
 10
77.2752313806
 20
133.8251063622
 11
77.2752313806
 21
134.8489289833
  0
LINE
  8
0
 62
7
  6
CONTINUOUS
 10
77.2752313806
 20
134.8489289833
 11
77.2752313806
 21
135.0474137931
  0
LINE
  8
1_AXIS
 62
7
  6
CONTINUOUS
 10
77.9965517241
 20
129.6374137931
 11
77.9965517241
 21
128.7574137931
  0
LINE
  8
1_AXIS
 62
7
  6
CONTINUOUS
 10
77.9965517241
 20
128.1174137931
 11
77.9965517241
 21
127.7974137931
  0
LINE
  8
0
 62
7
  6
CONTINUOUS
 10
78.3358915524
 20
123.5474137931
 11
78.3358915524
 21
124.2423272655
  0
LINE
  8
2_FEATURE
 62
7
  6
CONTINUOUS
 10
78.3358915524
 20
124.2423272655
 11
78.3358915524
 21
124.4112087217
  0
LINE
  8
0
 62
7
  6
CONTINUOUS
 10
78.3358915524
 20
134.8489289833
 11
78.3358915524
 21
135.0474137931
  0
LINE
  8
2_FEATURE
 62
7
  6
CONTINUOUS
 10
78.3358915524
 20
134.1836188645
 11
78.3358915524
 21
134.8489289833
  0
LINE
  8
1_AXIS
 62
7
  6
CONTINUOUS
 10
78.6765517241
 20
127.7974137931
 11
78.6765517241
 21
129.6374137931
  0
LINE
  8
1_AXIS
 62
7
  6
CONTINUOUS
 10
78.8365517241
 20
129.6374137931
 11
78.8365517241
 21
127.7974137931
  0
LINE
  8
1_AXIS
 62
2
  6
CENTER
 10
79.3965517241
 20
133.6974137931
 11
79.3965517241
 21
131.2975137931
  0
LINE
  8
1_AXIS
 62
2
  6
CONTINUOUS
 10
79.3965517241
 20
130.1774137931
 11
79.3965517241
 21
128.4174137931
  0
LINE
  8
CURVE
 62
40
  6
CONTINUOUS
 10
79.3965517241
 20
119.326048412
 11
79.3965517241
 21
112.6974137931
  0
LINE
  8
0
 62
7
  6
CONTINUOUS
 10
79.3965517241
 20
123.5474137931
 11
79.3965517241
 21
124.2423272655
  0
LINE
  8
2_FEATURE
 62
7
  6
CONTINUOUS
 10
79.3965517241
 20
124.2423272655
 11
79.3965517241
 21
124.2974137931
  0
LINE
  8
1_AXIS
 62
2
  6
CENTER
 10
79.3965517241
 20
124.8974137931
 11
79.3965517241
 21
127.2973137931
  0
LINE
  8
2_FEATURE
 62
7
  6
CONTINUOUS
 10
79.3965517241
 20
134.2974137931
 11
79.3965517241
 21
134.8489289833
  0
LINE
  8
0
 62
7
  6
CONTINUOUS
 10
79.3965517241
 20
134.8489289833
 11
79.3965517241
 21
135.0474137931
  0
LINE
  8
CURVE
 62
40
  6
CONTINUOUS
 10
79.3965517241
 20
139.2687791742
 11
79.3965517241
 21
145.8974137931
  0
LINE
  8
1_AXIS
 62
7
  6
CONTINUOUS
 10
79.5165517241
 20
127.7974137931
 11
79.5165517241
 21
128.6774137931
  0
LINE
  8
1_AXIS
 62
7
  6
CONTINUOUS
 10
79.5165517241
 20
129.3174137931
 11
79.5165517241
 21
129.6374137931
  0
LINE
  8
2_FEATURE
 62
7
  6
CONTINUOUS
 10
79.2622104368
 20
116.1076998345
 11
79.2627480277
 21
118.4456080418
  0
LINE
  8
2_FEATURE
 62
7
  6
CONTINUOUS
 10
79.5308930123
 20
142.4871281239
 11
79.5303554206
 21
140.1492195444
  0
LINE
  8
2_FEATURE
 62
7
  6
CONTINUOUS
 10
79.2599369189
 20
115.4869582801
 11
79.2622104368
 21
116.1076998345
  0
LINE
  8
2_FEATURE
 62
7
  6
CONTINUOUS
 10
79.5331665298
 20
143.1078693947
 11
79.5308930123
 21
142.4871281239
  0
POLYLINE
  8
2_FEATURE
 62
7
  6
CONTINUOUS
 66
1
 70
0
  0
VERTEX
  8
2_FEATURE
 62
7
  6
CONTINUOUS
 10
79.2627472591
 20
118.4456080418
  0
VERTEX
  8
2_FEATURE
 62
7
  6
CONTINUOUS
 10
79.262993645
 20
118.4941962993
  0
VERTEX
  8
2_FEATURE
 62
7
  6
CONTINUOUS
 10
79.2641036909
 20
118.5575737474
  0
VERTEX
  8
2_FEATURE
 62
7
  6
CONTINUOUS
 10
79.2661531311
 20
118.6200278741
  0
VERTEX
  8
2_FEATURE
 62
7
  6
CONTINUOUS
 10
79.2691896593
 20
118.6815322933
  0
VERTEX
  8
2_FEATURE
 62
7
  6
CONTINUOUS
 10
79.2732619488
 20
118.7420477135
  0
VERTEX
  8
2_FEATURE
 62
7
  6
CONTINUOUS
 10
79.2784144576
 20
118.8015256835
  0
VERTEX
  8
2_FEATURE
 62
7
  6
CONTINUOUS
 10
79.284685193
 20
118.8599101621
  0
VERTEX
  8
2_FEATURE
 62
7
  6
CONTINUOUS
 10
79.2921079033
 20
118.9171281765
  0
VERTEX
  8
2_FEATURE
 62
7
  6
CONTINUOUS
 10
79.3007090931
 20
118.9730730715
  0
VERTEX
  8
2_FEATURE
 62
7
  6
CONTINUOUS
 10
79.3105233047
 20
119.0277366288
  0
VERTEX
  8
2_FEATURE
 62
7
  6
CONTINUOUS
 10
79.3215868731
 20
119.0811098724
  0
VERTEX
  8
2_FEATURE
 62
7
  6
CONTINUOUS
 10
79.3339354624
 20
119.1331479264
  0
VERTEX
  8
2_FEATURE
 62
7
  6
CONTINUOUS
 10
79.3475972715
 20
119.1837816694
  0
VERTEX
  8
2_FEATURE
 62
7
  6
CONTINUOUS
 10
79.3625910673
 20
119.2329143422
  0
VERTEX
  8
2_FEATURE
 62
7
  6
CONTINUOUS
 10
79.378923557
 20
119.2804147842
  0
VERTEX
  8
2_FEATURE
 62
7
  6
CONTINUOUS
 10
79.3965849269
 20
119.3261343633
  0
VERTEX
  8
2_FEATURE
 62
7
  6
CONTINUOUS
 10
79.4155685456
 20
119.3699510351
  0
VERTEX
  8
2_FEATURE
 62
7
  6
CONTINUOUS
 10
79.4358615832
 20
119.4117372595
  0
VERTEX
  8
2_FEATURE
 62
7
  6
CONTINUOUS
 10
79.4574049262
 20
119.4512917237
  0
VERTEX
  8
2_FEATURE
 62
7
  6
CONTINUOUS
 10
79.4800687344
 20
119.4883345655
  0
VERTEX
  8
2_FEATURE
 62
7
  6
CONTINUOUS
 10
79.5037724133
 20
119.5227209601
  0
VERTEX
  8
2_FEATURE
 62
7
  6
CONTINUOUS
 10
79.5286002985
 20
119.5545175922
  0
VERTEX
  8
2_FEATURE
 62
7
  6
CONTINUOUS
 10
79.5545545165
 20
119.5836071501
  0
VERTEX
  8
2_FEATURE
 62
7
  6
CONTINUOUS
 10
79.5815111866
 20
119.6097054102
  0
VERTEX
  8
2_FEATURE
 62
7
  6
CONTINUOUS
 10
79.6093653919
 20
119.6325539264
  0
VERTEX
  8
2_FEATURE
 62
7
  6
CONTINUOUS
 10
79.6381466969
 20
119.6519478514
  0
VERTEX
  8
2_FEATURE
 62
7
  6
CONTINUOUS
 10
79.6676332239
 20
119.6674373168
  0
VERTEX
  8
2_FEATURE
 62
7
  6
CONTINUOUS
 10
79.6978256684
 20
119.6786313392
  0
VERTEX
  8
2_FEATURE
 62
7
  6
CONTINUOUS
 10
79.7273131714
 20
119.6848248618
  0
VERTEX
  8
2_FEATURE
 62
7
  6
CONTINUOUS
 10
79.7500553903
 20
119.6862851263
  0
SEQEND
  0
POLYLINE
  8
2_FEATURE
 62
7
  6
CONTINUOUS
 66
1
 70
0
  0
VERTEX
  8
2_FEATURE
 62
7
  6
CONTINUOUS
 10
79.5303561892
 20
140.1492195444
  0
VERTEX
  8
2_FEATURE
 62
7
  6
CONTINUOUS
 10
79.5301098032
 20
140.1006312869
  0
VERTEX
  8
2_FEATURE
 62
7
  6
CONTINUOUS
 10
79.5289997574
 20
140.0372538389
  0
VERTEX
  8
2_FEATURE
 62
7
  6
CONTINUOUS
 10
79.5269503172
 20
139.9747997121
  0
VERTEX
  8
2_FEATURE
 62
7
  6
CONTINUOUS
 10
79.523913789
 20
139.9132952929
  0
VERTEX
  8
2_FEATURE
 62
7
  6
CONTINUOUS
 10
79.5198414994
 20
139.8527798727
  0
VERTEX
  8
2_FEATURE
 62
7
  6
CONTINUOUS
 10
79.5146889907
 20
139.7933019027
  0
VERTEX
  8
2_FEATURE
 62
7
  6
CONTINUOUS
 10
79.5084182552
 20
139.7349174242
  0
VERTEX
  8
2_FEATURE
 62
7
  6
CONTINUOUS
 10
79.500995545
 20
139.6776994097
  0
VERTEX
  8
2_FEATURE
 62
7
  6
CONTINUOUS
 10
79.4923943551
 20
139.6217545147
  0
VERTEX
  8
2_FEATURE
 62
7
  6
CONTINUOUS
 10
79.4825801436
 20
139.5670909574
  0
VERTEX
  8
2_FEATURE
 62
7
  6
CONTINUOUS
 10
79.4715165752
 20
139.5137177138
  0
VERTEX
  8
2_FEATURE
 62
7
  6
CONTINUOUS
 10
79.4591679858
 20
139.4616796598
  0
VERTEX
  8
2_FEATURE
 62
7
  6
CONTINUOUS
 10
79.4455061768
 20
139.4110459168
  0
VERTEX
  8
2_FEATURE
 62
7
  6
CONTINUOUS
 10
79.430512381
 20
139.361913244
  0
VERTEX
  8
2_FEATURE
 62
7
  6
CONTINUOUS
 10
79.4141798913
 20
139.314412802
  0
VERTEX
  8
2_FEATURE
 62
7
  6
CONTINUOUS
 10
79.3965185213
 20
139.2686932229
  0
VERTEX
  8
2_FEATURE
 62
7
  6
CONTINUOUS
 10
79.3775349027
 20
139.2248765511
  0
VERTEX
  8
2_FEATURE
 62
7
  6
CONTINUOUS
 10
79.3572418651
 20
139.1830903267
  0
VERTEX
  8
2_FEATURE
 62
7
  6
CONTINUOUS
 10
79.3356985221
 20
139.1435358625
  0
VERTEX
  8
2_FEATURE
 62
7
  6
CONTINUOUS
 10
79.3130347139
 20
139.1064930207
  0
VERTEX
  8
2_FEATURE
 62
7
  6
CONTINUOUS
 10
79.289331035
 20
139.0721066261
  0
VERTEX
  8
2_FEATURE
 62
7
  6
CONTINUOUS
 10
79.2645031498
 20
139.040309994
  0
VERTEX
  8
2_FEATURE
 62
7
  6
CONTINUOUS
 10
79.2385489318
 20
139.0112204361
  0
VERTEX
  8
2_FEATURE
 62
7
  6
CONTINUOUS
 10
79.2115922617
 20
138.9851221761
  0
VERTEX
  8
2_FEATURE
 62
7
  6
CONTINUOUS
 10
79.1837380564
 20
138.9622736598
  0
VERTEX
  8
2_FEATURE
 62
7
  6
CONTINUOUS
 10
79.1549567513
 20
138.9428797348
  0
VERTEX
  8
2_FEATURE
 62
7
  6
CONTINUOUS
 10
79.1254702244
 20
138.9273902694
  0
VERTEX
  8
2_FEATURE
 62
7
  6
CONTINUOUS
 10
79.0952777799
 20
138.916196247
  0
VERTEX
  8
2_FEATURE
 62
7
  6
CONTINUOUS
 10
79.0657902769
 20
138.9100027244
  0
VERTEX
  8
2_FEATURE
 62
7
  6
CONTINUOUS
 10
79.043048058
 20
138.9085424599
  0
SEQEND
  0
LINE
  8
2_FEATURE
 62
7
  6
CONTINUOUS
 10
79.2562540653
 20
114.9329843866
 11
79.2599369189
 21
115.4869582801
  0
LINE
  8
2_FEATURE
 62
7
  6
CONTINUOUS
 10
79.5368493837
 20
143.6618432816
 11
79.5331665298
 21
143.1078693947
  0
LINE
  8
2_FEATURE
 62
7
  6
CONTINUOUS
 10
79.5415651451
 20
144.1442904266
 11
79.5368493837
 21
143.6618432816
  0
LINE
  8
2_FEATURE
 62
7
  6
CONTINUOUS
 10
79.2515383043
 20
114.4505372467
 11
79.2562540653
 21
114.9329843866
  0
LINE
  8
2_FEATURE
 62
7
  6
CONTINUOUS
 10
79.5469806174
 20
144.5550077067
 11
79.5415651451
 21
144.1442904266
  0
LINE
  8
2_FEATURE
 62
7
  6
CONTINUOUS
 10
79.2461228327
 20
114.0398199926
 11
79.2515383043
 21
114.4505372467
  0
LINE
  8
2_FEATURE
 62
7
  6
CONTINUOUS
 10
79.5542958206
 20
144.9718558094
 11
79.5469806174
 21
144.5550077067
  0
LINE
  8
2_FEATURE
 62
7
  6
CONTINUOUS
 10
79.2388076303
 20
113.622971907
 11
79.2461228327
 21
114.0398199926
  0
LINE
  8
2_FEATURE
 62
7
  6
CONTINUOUS
 10
79.5603280405
 20
145.2357380213
 11
79.5542958206
 21
144.9718558094
  0
LINE
  8
2_FEATURE
 62
7
  6
CONTINUOUS
 10
79.2327754105
 20
113.3590896726
 11
79.2388076303
 21
113.622971907
  0
LINE
  8
2_FEATURE
 62
7
  6
CONTINUOUS
 10
79.564900017
 20
145.3991970114
 11
79.5603280405
 21
145.2357380213
  0
LINE
  8
2_FEATURE
 62
7
  6
CONTINUOUS
 10
79.2282034337
 20
113.1956306584
 11
79.2327754105
 21
113.3590896726
  0
LINE
  8
2_FEATURE
 62
7
  6
CONTINUOUS
 10
79.2251383174
 20
113.1010880988
 11
79.2282034337
 21
113.1956306584
  0
LINE
  8
2_FEATURE
 62
7
  6
CONTINUOUS
 10
79.5694985423
 20
145.5368967684
 11
79.564900017
 21
145.3991970114
  0
LINE
  8
2_FEATURE
 62
7
  6
CONTINUOUS
 10
79.5725571933
 20
145.6152642915
 11
79.5694985423
 21
145.5368967684
  0
LINE
  8
2_FEATURE
 62
7
  6
CONTINUOUS
 10
79.5755956475
 20
145.6835398215
 11
79.5725571933
 21
145.6152642915
  0
LINE
  8
2_FEATURE
 62
7
  6
CONTINUOUS
 10
75.153911037
 20
126.363647609
 11
75.2676775565
 21
126.4774141285
  0
LINE
  8
0
 62
7
  6
CONTINUOUS
 10
72.3376772211
 20
123.5474137931
 11
75.153911037
 21
126.363647609
  0
LINE
  8
2_FEATURE
 62
7
  6
CONTINUOUS
 10
82.2165513887
 20
133.4262879607
 11
82.5785322395
 21
133.7882688115
  0
LINE
  8
0
 62
7
  6
CONTINUOUS
 10
82.5785322395
 20
133.7882688115
 11
83.8376772211
 21
135.0474137931
  0
LINE
  8
0
 62
7
  6
CONTINUOUS
 10
49.8965517241
 20
127.4243077808
 11
74.0932508652
 21
127.4243077808
  0
LINE
  8
2_FEATURE
 62
7
  6
CONTINUOUS
 10
74.0932508652
 20
127.4243077808
 11
74.7606619642
 21
127.4243077808
  0
LINE
  8
2_FEATURE
 62
7
  6
CONTINUOUS
 10
84.0324414841
 20
127.4243077808
 11
84.699852583
 21
127.4243077808
  0
LINE
  8
0
 62
7
  6
CONTINUOUS
 10
84.699852583
 20
127.4243077808
 11
108.8965517241
 21
127.4243077808
  0
LINE
  8
1_AXIS
 62
7
  6
CONTINUOUS
 10
77.1965517241
 20
127.7974137931
 11
77.3965517241
 21
127.7974137931
  0
LINE
  8
1_AXIS
 62
7
  6
CONTINUOUS
 10
77.9965517241
 20
127.7974137931
 11
78.6765517241
 21
127.7974137931
  0
LINE
  8
1_AXIS
 62
7
  6
CONTINUOUS
 10
78.8365517241
 20
127.7974137931
 11
79.5165517241
 21
127.7974137931
  0
LINE
  8
1_AXIS
 62
7
  6
CONTINUOUS
 10
80.4365517241
 20
127.7974137931
 11
81.1165517241
 21
127.7974137931
  0
LINE
  8
1_AXIS
 62
7
  6
CONTINUOUS
 10
81.2765517241
 20
127.7974137931
 11
81.9565517241
 21
127.7974137931
  0
LINE
  8
1_AXIS
 62
7
  6
CONTINUOUS
 10
77.5965517241
 20
128.3574137931
 11
77.2765517241
 21
128.3574137931
  0
LINE
  8
0
 62
7
  6
CONTINUOUS
 10
49.8965517241
 20
128.4849679526
 11
74.0932508652
 21
128.4849679526
  0
LINE
  8
2_FEATURE
 62
7
  6
CONTINUOUS
 10
74.0932508652
 20
128.4849679526
 11
74.463000087
 21
128.4849679526
  0
LINE
  8
2_FEATURE
 62
7
  6
CONTINUOUS
 10
84.3301033613
 20
128.4849679526
 11
84.699852583
 21
128.4849679526
  0
LINE
  8
0
 62
7
  6
CONTINUOUS
 10
84.699852583
 20
128.4849679526
 11
108.8965517241
 21
128.4849679526
  0
LINE
  8
1_AXIS
 62
7
  6
CONTINUOUS
 10
79.9165517241
 20
129.0774137931
 11
80.2365517241
 21
129.0774137931
  0
LINE
  8
0
 62
40
  6
CONTINUOUS
 10
84.3960222767
 20
129.2974137931
 11
82.3965517241
 21
129.2974137931
  0
LINE
  8
1_AXIS
 62
2
  6
CENTER
 10
83.7965517241
 20
129.2974137931
 11
81.3966517241
 21
129.2974137931
  0
LINE
  8
1_AXIS
 62
2
  6
CONTINUOUS
 10
80.2765517241
 20
129.2974137931
 11
78.5165517241
 21
129.2974137931
  0
LINE
  8
1_AXIS
 62
2
  6
CENTER
 10
74.9965517241
 20
129.2974137931
 11
77.3964517241
 21
129.2974137931
  0
LINE
  8
0
 62
7
  6
CONTINUOUS
 10
49.8965517241
 20
129.5456281244
 11
74.0932508652
 21
129.5456281244
  0
LINE
  8
2_FEATURE
 62
7
  6
CONTINUOUS
 10
74.0932508652
 20
129.5456281244
 11
74.4027165601
 21
129.5456281244
  0
LINE
  8
2_FEATURE
 62
7
  6
CONTINUOUS
 10
84.3903868882
 20
129.5456281244
 11
84.699852583
 21
129.5456281244
  0
LINE
  8
0
 62
7
  6
CONTINUOUS
 10
84.699852583
 20
129.5456281244
 11
108.8965517241
 21
129.5456281244
  0
LINE
  8
1_AXIS
 62
7
  6
CONTINUOUS
 10
81.9565517241
 20
129.6374137931
 11
81.2765517241
 21
129.6374137931
  0
LINE
  8
1_AXIS
 62
7
  6
CONTINUOUS
 10
80.3165517241
 20
129.6374137931
 11
80.1165517241
 21
129.6374137931
  0
LINE
  8
1_AXIS
 62
7
  6
CONTINUOUS
 10
79.5165517241
 20
129.6374137931
 11
78.8365517241
 21
129.6374137931
  0
LINE
  8
1_AXIS
 62
7
  6
CONTINUOUS
 10
78.6765517241
 20
129.6374137931
 11
77.9965517241
 21
129.6374137931
  0
LINE
  8
1_AXIS
 62
7
  6
CONTINUOUS
 10
77.0765517241
 20
129.6374137931
 11
76.3965517241
 21
129.6374137931
  0
LINE
  8
0
 62
7
  6
CONTINUOUS
 10
82.2127855401
 20
123.5474137931
 11
81.5178720677
 21
124.2423272655
  0
LINE
  8
2_FEATURE
 62
7
  6
CONTINUOUS
 10
81.5178720677
 20
124.2423272655
 11
81.1465388493
 21
124.6136604839
  0
LINE
  8
2_FEATURE
 62
7
  6
CONTINUOUS
 10
74.7127984149
 20
131.0474009183
 11
74.0932508652
 21
131.6669484679
  0
LINE
  8
0
 62
7
  6
CONTINUOUS
 10
74.0932508652
 20
131.6669484679
 11
70.7127855401
 21
135.0474137931
  0
LINE
  8
2_FEATURE
 62
7
  6
CONTINUOUS
 10
82.5785322395
 20
125.3029874373
 11
82.5024482408
 21
125.3790714359
  0
LINE
  8
0
 62
7
  6
CONTINUOUS
 10
84.3341058836
 20
123.5474137931
 11
82.5785322395
 21
125.3029874373
  0
LINE
  8
2_FEATURE
 62
7
  6
CONTINUOUS
 10
75.478209367
 20
132.4033103097
 11
75.153911037
 21
132.7276086397
  0
LINE
  8
0
 62
7
  6
CONTINUOUS
 10
75.153911037
 20
132.7276086397
 11
72.8341058836
 21
135.0474137931
  0
LINE
  8
1_AXIS
 62
7
  6
CONTINUOUS
 10
80.4365517241
 20
128.8774137931
 11
80.4365517241
 21
127.7974137931
  0
LINE
  8
0
 62
7
  6
CONTINUOUS
 10
80.4572118959
 20
123.5474137931
 11
80.4572118959
 21
124.2423272655
  0
LINE
  8
2_FEATURE
 62
7
  6
CONTINUOUS
 10
80.4572118959
 20
124.2423272655
 11
80.4572118959
 21
124.4112087217
  0
LINE
  8
0
 62
7
  6
CONTINUOUS
 10
80.4572118959
 20
134.8489289833
 11
80.4572118959
 21
135.0474137931
  0
LINE
  8
2_FEATURE
 62
7
  6
CONTINUOUS
 10
80.4572118959
 20
134.1836188645
 11
80.4572118959
 21
134.8489289833
  0
LINE
  8
1_AXIS
 62
7
  6
CONTINUOUS
 10
81.1165517241
 20
127.7974137931
 11
81.1165517241
 21
128.8374137931
  0
LINE
  8
1_AXIS
 62
7
  6
CONTINUOUS
 10
81.2765517241
 20
129.6374137931
 11
81.2765517241
 21
127.7974137931
  0
LINE
  8
0
 62
7
  6
CONTINUOUS
 10
81.5178720677
 20
123.5474137931
 11
81.5178720677
 21
124.2423272655
  0
LINE
  8
2_FEATURE
 62
7
  6
CONTINUOUS
 10
81.5178720677
 20
124.2423272655
 11
81.5178720677
 21
124.769721224
  0
LINE
  8
2_FEATURE
 62
7
  6
CONTINUOUS
 10
81.5178720677
 20
133.8251063622
 11
81.5178720677
 21
134.8489289833
  0
LINE
  8
0
 62
7
  6
CONTINUOUS
 10
81.5178720677
 20
134.8489289833
 11
81.5178720677
 21
135.0474137931
  0
LINE
  8
1_AXIS
 62
7
  6
CONTINUOUS
 10
81.9565517241
 20
127.7974137931
 11
81.9565517241
 21
129.6374137931
  0
LINE
  8
0
 62
40
  6
CONTINUOUS
 10
82.3965517241
 20
129.2974137931
 11
82.3965517241
 21
133.2972864317
  0
LINE
  8
0
 62
40
  6
CONTINUOUS
 10
82.3965517241
 20
135.0474137931
 11
82.3965517241
 21
146.3974137931
  0
LINE
  8
2_FEATURE
 62
7
  6
CONTINUOUS
 10
79.2220736543
 20
113.0174452774
 11
79.2251383174
 21
113.1010880988
  0
LINE
  8
2_FEATURE
 62
7
  6
CONTINUOUS
 10
79.2190240137
 20
112.9442066693
 11
79.2220736543
 21
113.0174452774
  0
LINE
  8
2_FEATURE
 62
7
  6
CONTINUOUS
 10
79.2159979135
 20
112.8807072457
 11
79.2190240137
 21
112.9442066693
  0
LINE
  8
2_FEATURE
 62
7
  6
CONTINUOUS
 10
76.2145712088
 20
125.3029874373
 11
76.2906552075
 21
125.3790714359
  0
LINE
  8
0
 62
7
  6
CONTINUOUS
 10
74.4589975647
 20
123.5474137931
 11
76.2145712088
 21
125.3029874373
  0
LINE
  8
2_FEATURE
 62
7
  6
CONTINUOUS
 10
83.3148940813
 20
132.4033103097
 11
83.6391924113
 21
132.7276086397
  0
LINE
  8
0
 62
7
  6
CONTINUOUS
 10
83.6391924113
 20
132.7276086397
 11
85.9589975647
 21
135.0474137931
  0
LINE
  8
0
 62
7
  6
CONTINUOUS
 10
76.5803179082
 20
123.5474137931
 11
77.2752313806
 21
124.2423272655
  0
LINE
  8
2_FEATURE
 62
7
  6
CONTINUOUS
 10
77.2752313806
 20
124.2423272655
 11
77.646564599
 21
124.6136604839
  0
LINE
  8
2_FEATURE
 62
7
  6
CONTINUOUS
 10
84.0803050334
 20
131.0474009183
 11
84.699852583
 21
131.6669484679
  0
LINE
  8
0
 62
7
  6
CONTINUOUS
 10
84.699852583
 20
131.6669484679
 11
88.0803179082
 21
135.0474137931
  0
LINE
  8
0
 62
7
  6
CONTINUOUS
 10
49.8965517241
 20
130.6062882961
 11
74.0932508652
 21
130.6062882961
  0
LINE
  8
2_FEATURE
 62
7
  6
CONTINUOUS
 10
74.0932508652
 20
130.6062882961
 11
74.5709069449
 21
130.6062882961
  0
LINE
  8
2_FEATURE
 62
7
  6
CONTINUOUS
 10
84.2221965034
 20
130.6062882961
 11
84.699852583
 21
130.6062882961
  0
LINE
  8
0
 62
7
  6
CONTINUOUS
 10
84.699852583
 20
130.6062882961
 11
108.8965517241
 21
130.6062882961
  0
LINE
  8
0
 62
7
  6
CONTINUOUS
 10
49.8965517241
 20
131.6669484679
 11
74.0932508652
 21
131.6669484679
  0
LINE
  8
2_FEATURE
 62
7
  6
CONTINUOUS
 10
74.0932508652
 20
131.6669484679
 11
74.9936770467
 21
131.6669484679
  0
LINE
  8
2_FEATURE
 62
7
  6
CONTINUOUS
 10
83.7994264015
 20
131.6669484679
 11
84.699852583
 21
131.6669484679
  0
LINE
  8
0
 62
7
  6
CONTINUOUS
 10
84.699852583
 20
131.6669484679
 11
108.8965517241
 21
131.6669484679
  0
LINE
  8
0
 62
7
  6
CONTINUOUS
 10
86.4554262272
 20
123.5474137931
 11
83.6391924113
 21
126.363647609
  0
LINE
  8
2_FEATURE
 62
7
  6
CONTINUOUS
 10
83.6391924113
 20
126.363647609
 11
83.5254258917
 21
126.4774141285
  0
LINE
  8
2_FEATURE
 62
7
  6
CONTINUOUS
 10
76.5765520596
 20
133.4262879607
 11
76.2145712088
 21
133.7882688115
  0
LINE
  8
0
 62
7
  6
CONTINUOUS
 10
76.2145712088
 20
133.7882688115
 11
74.9554262272
 21
135.0474137931
  0
LINE
  8
0
 62
7
  6
CONTINUOUS
 10
88.5767465707
 20
123.5474137931
 11
84.699852583
 21
127.4243077808
  0
LINE
  8
2_FEATURE
 62
7
  6
CONTINUOUS
 10
84.699852583
 20
127.4243077808
 11
84.2033219679
 21
127.920838396
  0
LINE
  8
0
 62
7
  6
CONTINUOUS
 10
77.2752313806
 20
134.8489289833
 11
77.0767465707
 21
135.0474137931
  0
LINE
  8
2_FEATURE
 62
7
  6
CONTINUOUS
 10
78.019976327
 20
134.1041840368
 11
77.2752313806
 21
134.8489289833
  0
POLYLINE
  8
2_FEATURE
 62
7
  6
CONTINUOUS
 66
1
 70
0
  0
VERTEX
  8
2_FEATURE
 62
7
  6
CONTINUOUS
 10
85.9293512226
 20
112.839127921
  0
VERTEX
  8
2_FEATURE
 62
7
  6
CONTINUOUS
 10
85.9309046661
 20
112.8129869392
  0
VERTEX
  8
2_FEATURE
 62
7
  6
CONTINUOUS
 10
85.9324551056
 20
112.7889400297
  0
VERTEX
  8
2_FEATURE
 62
7
  6
CONTINUOUS
 10
85.9340059688
 20
112.7668430526
  0
VERTEX
  8
2_FEATURE
 62
7
  6
CONTINUOUS
 10
85.9355648773
 20
112.7465103815
  0
VERTEX
  8
2_FEATURE
 62
7
  6
CONTINUOUS
 10
85.9371469039
 20
112.7276954577
  0
VERTEX
  8
2_FEATURE
 62
7
  6
CONTINUOUS
 10
85.938774588
 20
112.7101230828
  0
VERTEX
  8
2_FEATURE
 62
7
  6
CONTINUOUS
 10
85.9404807265
 20
112.6934900084
  0
VERTEX
  8
2_FEATURE
 62
7
  6
CONTINUOUS
 10
85.9423130271
 20
112.6774581952
  0
VERTEX
  8
2_FEATURE
 62
7
  6
CONTINUOUS
 10
85.944336876
 20
112.6616770279
  0
VERTEX
  8
2_FEATURE
 62
7
  6
CONTINUOUS
 10
85.9466497688
 20
112.6457297339
  0
VERTEX
  8
2_FEATURE
 62
7
  6
CONTINUOUS
 10
85.9494037624
 20
112.6290866233
  0
VERTEX
  8
2_FEATURE
 62
7
  6
CONTINUOUS
 10
85.952824125
 20
112.6111455238
  0
VERTEX
  8
2_FEATURE
 62
7
  6
CONTINUOUS
 10
85.9572543177
 20
112.5911855808
  0
VERTEX
  8
2_FEATURE
 62
7
  6
CONTINUOUS
 10
85.9632063366
 20
112.5684028278
  0
VERTEX
  8
2_FEATURE
 62
7
  6
CONTINUOUS
 10
85.9713711653
 20
112.5421293766
  0
VERTEX
  8
2_FEATURE
 62
7
  6
CONTINUOUS
 10
85.9825559091
 20
112.512129631
  0
VERTEX
  8
2_FEATURE
 62
7
  6
CONTINUOUS
 10
85.9975923605
 20
112.4786971711
  0
VERTEX
  8
2_FEATURE
 62
7
  6
CONTINUOUS
 10
86.0173924247
 20
112.4423357395
  0
VERTEX
  8
2_FEATURE
 62
7
  6
CONTINUOUS
 10
86.0431931478
 20
112.4034027789
  0
VERTEX
  8
2_FEATURE
 62
7
  6
CONTINUOUS
 10
86.0761211015
 20
112.3629351975
  0
VERTEX
  8
2_FEATURE
 62
7
  6
CONTINUOUS
 10
86.1166884766
 20
112.3228538828
  0
VERTEX
  8
2_FEATURE
 62
7
  6
CONTINUOUS
 10
86.1647847526
 20
112.2853744065
  0
VERTEX
  8
2_FEATURE
 62
7
  6
CONTINUOUS
 10
86.2196099478
 20
112.2526883214
  0
VERTEX
  8
2_FEATURE
 62
7
  6
CONTINUOUS
 10
86.2797827812
 20
112.2266382332
  0
VERTEX
  8
2_FEATURE
 62
7
  6
CONTINUOUS
 10
86.343501174
 20
112.208520566
  0
VERTEX
  8
2_FEATURE
 62
7
  6
CONTINUOUS
 10
86.4087311642
 20
112.1989885375
  0
VERTEX
  8
2_FEATURE
 62
7
  6
CONTINUOUS
 10
86.4484305138
 20
112.1974137932
  0
SEQEND
  0
LINE
  8
2_FEATURE
 62
7
  6
CONTINUOUS
 10
85.9262310766
 20
112.8981547775
 11
85.9293512226
 21
112.839127921
  0
LINE
  8
2_FEATURE
 62
7
  6
CONTINUOUS
 10
85.9230883257
 20
112.9669592744
 11
85.9262310766
 21
112.8981547775
  0
LINE
  8
2_FEATURE
 62
7
  6
CONTINUOUS
 10
85.9199232399
 20
113.0464448975
 11
85.9230883257
 21
112.9669592744
  0
LINE
  8
0
 62
7
  6
CONTINUOUS
 10
82.5785322395
 20
123.5474137931
 11
82.5785322395
 21
125.3029874373
  0
LINE
  8
2_FEATURE
 62
7
  6
CONTINUOUS
 10
82.5785322395
 20
125.3029874373
 11
82.5785322395
 21
125.440601638
  0
LINE
  8
2_FEATURE
 62
7
  6
CONTINUOUS
 10
82.5785322395
 20
133.1542259482
 11
82.5785322395
 21
133.7882688115
  0
LINE
  8
0
 62
7
  6
CONTINUOUS
 10
82.5785322395
 20
133.7882688115
 11
82.5785322395
 21
135.0474137931
  0
LINE
  8
0
 62
7
  6
CONTINUOUS
 10
83.6391924113
 20
123.5474137931
 11
83.6391924113
 21
126.363647609
  0
LINE
  8
2_FEATURE
 62
7
  6
CONTINUOUS
 10
83.6391924113
 20
126.363647609
 11
83.6391924113
 21
126.651662482
  0
LINE
  8
2_FEATURE
 62
7
  6
CONTINUOUS
 10
83.6391924113
 20
131.9431651042
 11
83.6391924113
 21
132.7276086397
  0
LINE
  8
0
 62
7
  6
CONTINUOUS
 10
83.6391924113
 20
132.7276086397
 11
83.6391924113
 21
135.0474137931
  0
LINE
  8
0
 62
7
  6
CONTINUOUS
 10
84.699852583
 20
123.5474137931
 11
84.699852583
 21
135.0474137931
  0
LINE
  8
2_FEATURE
 62
7
  6
CONTINUOUS
 10
79.3965517241
 20
124.2423272655
 11
79.4519451038
 21
124.2977206452
  0
LINE
  8
0
 62
7
  6
CONTINUOUS
 10
78.7016382518
 20
123.5474137931
 11
79.3965517241
 21
124.2423272655
  0
LINE
  8
2_FEATURE
 62
7
  6
CONTINUOUS
 10
84.3962448721
 20
129.2420204134
 11
84.699852583
 21
129.5456281244
  0
LINE
  8
0
 62
7
  6
CONTINUOUS
 10
84.699852583
 20
129.5456281244
 11
90.2016382518
 21
135.0474137931
  0
LINE
  8
0
 62
7
  6
CONTINUOUS
 10
80.8229585953
 20
123.5474137931
 11
92.3229585953
 21
135.0474137931
  0
LINE
  8
0
 62
7
  6
CONTINUOUS
 10
49.8965517241
 20
132.7276086397
 11
75.153911037
 21
132.7276086397
  0
LINE
  8
2_FEATURE
 62
7
  6
CONTINUOUS
 10
75.153911037
 20
132.7276086397
 11
75.7587277435
 21
132.7276086397
  0
LINE
  8
2_FEATURE
 62
7
  6
CONTINUOUS
 10
83.0343757048
 20
132.7276086397
 11
83.6391924113
 21
132.7276086397
  0
LINE
  8
0
 62
7
  6
CONTINUOUS
 10
83.6391924113
 20
132.7276086397
 11
108.8965517241
 21
132.7276086397
  0
LINE
  8
0
 62
7
  6
CONTINUOUS
 10
49.8965517241
 20
133.7882688115
 11
76.2145712088
 21
133.7882688115
  0
LINE
  8
2_FEATURE
 62
7
  6
CONTINUOUS
 10
76.2145712088
 20
133.7882688115
 11
77.1983203433
 21
133.7882688115
  0
LINE
  8
2_FEATURE
 62
7
  6
CONTINUOUS
 10
81.594783105
 20
133.7882688115
 11
82.5785322395
 21
133.7882688115
  0
LINE
  8
0
 62
7
  6
CONTINUOUS
 10
82.5785322395
 20
133.7882688115
 11
108.8965517241
 21
133.7882688115
  0
LINE
  8
2_FEATURE
 62
2
  6
CONTINUOUS
 10
41.4815517241
 20
134.5774137931
 11
117.3115517241
 21
134.5774137931
  0
LINE
  8
0
 62
7
  6
CONTINUOUS
 10
49.8965517241
 20
134.8489289833
 11
108.8965517241
 21
134.8489289833
  0
LINE
  8
0
 62
7
  6
CONTINUOUS
 10
49.8965517241
 20
135.0474137931
 11
108.8965517241
 21
135.0474137931
  0
LINE
  8
0
 62
7
  6
CONTINUOUS
 10
90.6980669143
 20
123.5474137931
 11
84.699852583
 21
129.5456281244
  0
LINE
  8
2_FEATURE
 62
7
  6
CONTINUOUS
 10
84.699852583
 20
129.5456281244
 11
84.3620969284
 21
129.883383779
  0
LINE
  8
2_FEATURE
 62
7
  6
CONTINUOUS
 10
79.98252171
 20
134.2629589974
 11
79.3965517241
 21
134.8489289833
  0
LINE
  8
0
 62
7
  6
CONTINUOUS
 10
79.3965517241
 20
134.8489289833
 11
79.1980669143
 21
135.0474137931
  0
LINE
  8
0
 62
7
  6
CONTINUOUS
 10
92.8193872579
 20
123.5474137931
 11
81.3193872579
 21
135.0474137931
  0
POLYLINE
  8
2_FEATURE
 62
7
  6
CONTINUOUS
 66
1
 70
0
  0
VERTEX
  8
2_FEATURE
 62
7
  6
CONTINUOUS
 10
85.5637522298
 20
145.7556995945
  0
VERTEX
  8
2_FEATURE
 62
7
  6
CONTINUOUS
 10
85.5621987856
 20
145.7818405947
  0
VERTEX
  8
2_FEATURE
 62
7
  6
CONTINUOUS
 10
85.5606483461
 20
145.8058875037
  0
VERTEX
  8
2_FEATURE
 62
7
  6
CONTINUOUS
 10
85.5590974842
 20
145.827984466
  0
VERTEX
  8
2_FEATURE
 62
7
  6
CONTINUOUS
 10
85.5575385759
 20
145.848317147
  0
VERTEX
  8
2_FEATURE
 62
7
  6
CONTINUOUS
 10
85.555956548
 20
145.8671320905
  0
VERTEX
  8
2_FEATURE
 62
7
  6
CONTINUOUS
 10
85.5543288639
 20
145.8847044628
  0
VERTEX
  8
2_FEATURE
 62
7
  6
CONTINUOUS
 10
85.5526227289
 20
145.9013375078
  0
VERTEX
  8
2_FEATURE
 62
7
  6
CONTINUOUS
 10
85.5507904313
 20
145.9173693099
  0
VERTEX
  8
2_FEATURE
 62
7
  6
CONTINUOUS
 10
85.5487665775
 20
145.9331505232
  0
VERTEX
  8
2_FEATURE
 62
7
  6
CONTINUOUS
 10
85.5464536819
 20
145.9490978368
  0
VERTEX
  8
2_FEATURE
 62
7
  6
CONTINUOUS
 10
85.5436996912
 20
145.9657409294
  0
VERTEX
  8
2_FEATURE
 62
7
  6
CONTINUOUS
 10
85.5402793473
 20
145.9836819416
  0
VERTEX
  8
2_FEATURE
 62
7
  6
CONTINUOUS
 10
85.5358491904
 20
146.0036417571
  0
VERTEX
  8
2_FEATURE
 62
7
  6
CONTINUOUS
 10
85.5298971567
 20
146.0264246035
  0
VERTEX
  8
2_FEATURE
 62
7
  6
CONTINUOUS
 10
85.521732313
 20
146.0526981244
  0
VERTEX
  8
2_FEATURE
 62
7
  6
CONTINUOUS
 10
85.5105475553
 20
146.0826979173
  0
VERTEX
  8
2_FEATURE
 62
7
  6
CONTINUOUS
 10
85.4955110876
 20
146.116130415
  0
VERTEX
  8
2_FEATURE
 62
7
  6
CONTINUOUS
 10
85.4757109989
 20
146.1524918857
  0
VERTEX
  8
2_FEATURE
 62
7
  6
CONTINUOUS
 10
85.4499102428
 20
146.1914248826
  0
VERTEX
  8
2_FEATURE
 62
7
  6
CONTINUOUS
 10
85.4169822444
 20
146.2318924978
  0
VERTEX
  8
2_FEATURE
 62
7
  6
CONTINUOUS
 10
85.3764147975
 20
146.2719738527
  0
VERTEX
  8
2_FEATURE
 62
7
  6
CONTINUOUS
 10
85.3283184205
 20
146.3094533642
  0
VERTEX
  8
2_FEATURE
 62
7
  6
CONTINUOUS
 10
85.2734931225
 20
146.342139455
  0
VERTEX
  8
2_FEATURE
 62
7
  6
CONTINUOUS
 10
85.2133202239
 20
146.3681895084
  0
VERTEX
  8
2_FEATURE
 62
7
  6
CONTINUOUS
 10
85.1496018464
 20
146.3863071098
  0
VERTEX
  8
2_FEATURE
 62
7
  6
CONTINUOUS
 10
85.0843719939
 20
146.3958390709
  0
VERTEX
  8
2_FEATURE
 62
7
  6
CONTINUOUS
 10
85.0446729147
 20
146.397413793
  0
SEQEND
  0
LINE
  8
2_FEATURE
 62
7
  6
CONTINUOUS
 10
85.5668723747
 20
145.6966727479
 11
85.5637522298
 21
145.7556995945
  0
LINE
  8
2_FEATURE
 62
7
  6
CONTINUOUS
 10
85.5700151256
 20
145.6278682376
 11
85.5668723747
 21
145.6966727479
  0
LINE
  8
2_FEATURE
 62
7
  6
CONTINUOUS
 10
85.5731802111
 20
145.5483826189
 11
85.5700151256
 21
145.6278682376
  0
LINE
  8
2_FEATURE
 62
7
  6
CONTINUOUS
 10
85.9151572018
 20
113.1872564357
 11
85.9199232399
 21
113.0464448975
  0
LINE
  8
2_FEATURE
 62
7
  6
CONTINUOUS
 10
85.5779462488
 20
145.4075710782
 11
85.5731802111
 21
145.5483826189
  0
LINE
  8
2_FEATURE
 62
7
  6
CONTINUOUS
 10
85.910412056
 20
113.3558232757
 11
85.9151572018
 21
113.1872564357
  0
LINE
  8
2_FEATURE
 62
7
  6
CONTINUOUS
 10
85.5826913943
 20
145.239004236
 11
85.5779462488
 21
145.4075710782
  0
LINE
  8
2_FEATURE
 62
7
  6
CONTINUOUS
 10
85.9041451747
 20
113.6303724921
 11
85.910412056
 21
113.3558232757
  0
LINE
  8
2_FEATURE
 62
7
  6
CONTINUOUS
 10
85.5889582749
 20
144.9644550259
 11
85.5826913943
 21
145.239004236
  0
LINE
  8
2_FEATURE
 62
7
  6
CONTINUOUS
 10
85.8980282636
 20
113.9719682048
 11
85.9041451747
 21
113.6303724921
  0
LINE
  8
2_FEATURE
 62
7
  6
CONTINUOUS
 10
85.5950751854
 20
144.6228593276
 11
85.5889582749
 21
144.9644550259
  0
LINE
  8
2_FEATURE
 62
7
  6
CONTINUOUS
 10
85.8923044775
 20
114.3873983416
 11
85.8980282636
 21
113.9719682048
  0
LINE
  8
2_FEATURE
 62
7
  6
CONTINUOUS
 10
85.6007989712
 20
144.2074292156
 11
85.5950751854
 21
144.6228593276
  0
LINE
  8
2_FEATURE
 62
7
  6
CONTINUOUS
 10
85.8884640044
 20
114.7490982167
 11
85.8923044775
 21
114.3873983416
  0
LINE
  8
2_FEATURE
 62
7
  6
CONTINUOUS
 10
85.604639444
 20
143.8457293524
 11
85.6007989712
 21
144.2074292156
  0
LINE
  8
2_FEATURE
 62
7
  6
CONTINUOUS
 10
85.6079282309
 20
143.4405145104
 11
85.604639444
 21
143.8457293524
  0
LINE
  8
2_FEATURE
 62
7
  6
CONTINUOUS
 10
85.8851752175
 20
115.1543130715
 11
85.8884640044
 21
114.7490982167
  0
LINE
  8
2_FEATURE
 62
7
  6
CONTINUOUS
 10
85.6104991685
 20
142.992710251
 11
85.6079282309
 21
143.4405145104
  0
LINE
  8
2_FEATURE
 62
7
  6
CONTINUOUS
 10
85.8826042795
 20
115.6021173902
 11
85.8851752175
 21
115.1543130715
  0
LINE
  8
2_FEATURE
 62
7
  6
CONTINUOUS
 10
85.6121700997
 20
142.5050928422
 11
85.6104991685
 21
142.992710251
  0
LINE
  8
2_FEATURE
 62
7
  6
CONTINUOUS
 10
85.8809333479
 20
116.0897350674
 11
85.8826042795
 21
115.6021173902
  0
LINE
  8
2_FEATURE
 62
7
  6
CONTINUOUS
 10
85.6127480268
 20
141.9974137931
 11
85.6121700997
 21
142.5050928422
  0
LINE
  8
2_FEATURE
 62
7
  6
CONTINUOUS
 10
85.8803554216
 20
116.5974137931
 11
85.8809333479
 21
116.0897350674
  0
LINE
  8
2_FEATURE
 62
7
  6
CONTINUOUS
 10
85.6127480277
 20
140.1492195521
 11
85.6127480277
 21
141.9974137931
  0
LINE
  8
0
 62
7
  6
CONTINUOUS
 10
85.7605127548
 20
123.5474137931
 11
85.7605127548
 21
135.0474137931
  0
LINE
  8
2_FEATURE
 62
7
  6
CONTINUOUS
 10
85.8803554206
 20
118.4456080341
 11
85.8803554206
 21
116.5974137931
  0
LINE
  8
0
 62
7
  6
CONTINUOUS
 10
86.8211729266
 20
123.5474137931
 11
86.8211729266
 21
135.0474137931
  0
LINE
  8
0
 62
7
  6
CONTINUOUS
 10
87.8818330984
 20
123.5474137931
 11
87.8818330984
 21
135.0474137931
  0
LINE
  8
0
 62
7
  6
CONTINUOUS
 10
82.9442789389
 20
123.5474137931
 11
94.4442789389
 21
135.0474137931
  0
LINE
  8
0
 62
7
  6
CONTINUOUS
 10
85.0655992825
 20
123.5474137931
 11
96.5655992825
 21
135.0474137931
  0
LINE
  8
2_FEATURE
 62
2
  6
CONTINUOUS
 10
41.4815517241
 20
136.4981981822
 11
117.3115517241
 21
136.4981981822
  0
POLYLINE
  8
2_FEATURE
 62
7
  6
CONTINUOUS
 66
1
 70
0
  0
VERTEX
  8
2_FEATURE
 62
7
  6
CONTINUOUS
 10
48.0000560491
 20
138.9085424603
  0
VERTEX
  8
2_FEATURE
 62
7
  6
CONTINUOUS
 10
47.9767844542
 20
138.9100713596
  0
VERTEX
  8
2_FEATURE
 62
7
  6
CONTINUOUS
 10
47.9472721116
 20
138.9163579632
  0
VERTEX
  8
2_FEATURE
 62
7
  6
CONTINUOUS
 10
47.9170800436
 20
138.9276398317
  0
VERTEX
  8
2_FEATURE
 62
7
  6
CONTINUOUS
 10
47.8875988295
 20
138.9432094694
  0
VERTEX
  8
2_FEATURE
 62
7
  6
CONTINUOUS
 10
47.8588256276
 20
138.9626779055
  0
VERTEX
  8
2_FEATURE
 62
7
  6
CONTINUOUS
 10
47.8309868846
 20
138.9855917042
  0
VERTEX
  8
2_FEATURE
 62
7
  6
CONTINUOUS
 10
47.8040509578
 20
139.0117468617
  0
VERTEX
  8
2_FEATURE
 62
7
  6
CONTINUOUS
 10
47.7781210623
 20
139.0408857394
  0
VERTEX
  8
2_FEATURE
 62
7
  6
CONTINUOUS
 10
47.7533189166
 20
139.0727261126
  0
VERTEX
  8
2_FEATURE
 62
7
  6
CONTINUOUS
 10
47.7296413582
 20
139.107152137
  0
VERTEX
  8
2_FEATURE
 62
7
  6
CONTINUOUS
 10
47.7070039423
 20
139.1442314335
  0
VERTEX
  8
2_FEATURE
 62
7
  6
CONTINUOUS
 10
47.6854854228
 20
139.1838226336
  0
VERTEX
  8
2_FEATURE
 62
7
  6
CONTINUOUS
 10
47.6652160411
 20
139.2256458986
  0
VERTEX
  8
2_FEATURE
 62
7
  6
CONTINUOUS
 10
47.6462553431
 20
139.2694996503
  0
VERTEX
  8
2_FEATURE
 62
7
  6
CONTINUOUS
 10
47.6286167497
 20
139.3152553499
  0
VERTEX
  8
2_FEATURE
 62
7
  6
CONTINUOUS
 10
47.6123067938
 20
139.3627915183
  0
VERTEX
  8
2_FEATURE
 62
7
  6
CONTINUOUS
 10
47.5973352129
 20
139.4119598311
  0
VERTEX
  8
2_FEATURE
 62
7
  6
CONTINUOUS
 10
47.5836953027
 20
139.462629309
  0
VERTEX
  8
2_FEATURE
 62
7
  6
CONTINUOUS
 10
47.5713683571
 20
139.5147034505
  0
VERTEX
  8
2_FEATURE
 62
7
  6
CONTINUOUS
 10
47.5603261991
 20
139.5681130115
  0
VERTEX
  8
2_FEATURE
 62
7
  6
CONTINUOUS
 10
47.5505332283
 20
139.6228130544
  0
VERTEX
  8
2_FEATURE
 62
7
  6
CONTINUOUS
 10
47.5419532044
 20
139.6787945355
  0
VERTEX
  8
2_FEATURE
 62
7
  6
CONTINUOUS
 10
47.5345515004
 20
139.7360493702
  0
VERTEX
  8
2_FEATURE
 62
7
  6
CONTINUOUS
 10
47.5283014837
 20
139.7944714177
  0
VERTEX
  8
2_FEATURE
 62
7
  6
CONTINUOUS
 10
47.523169469
 20
139.8539878753
  0
VERTEX
  8
2_FEATURE
 62
7
  6
CONTINUOUS
 10
47.5191173836
 20
139.9145427492
  0
VERTEX
  8
2_FEATURE
 62
7
  6
CONTINUOUS
 10
47.5161006813
 20
139.976087607
  0
VERTEX
  8
2_FEATURE
 62
7
  6
CONTINUOUS
 10
47.5140706967
 20
140.0385832619
  0
VERTEX
  8
2_FEATURE
 62
7
  6
CONTINUOUS
 10
47.5129797298
 20
140.1020034564
  0
VERTEX
  8
2_FEATURE
 62
7
  6
CONTINUOUS
 10
47.5127472579
 20
140.1492195529
  0
SEQEND
  0
POLYLINE
  8
2_FEATURE
 62
7
  6
CONTINUOUS
 66
1
 70
0
  0
VERTEX
  8
2_FEATURE
 62
7
  6
CONTINUOUS
 10
60.7000560491
 20
138.9085424603
  0
VERTEX
  8
2_FEATURE
 62
7
  6
CONTINUOUS
 10
60.6767844542
 20
138.9100713596
  0
VERTEX
  8
2_FEATURE
 62
7
  6
CONTINUOUS
 10
60.6472721116
 20
138.9163579632
  0
VERTEX
  8
2_FEATURE
 62
7
  6
CONTINUOUS
 10
60.6170800436
 20
138.9276398317
  0
VERTEX
  8
2_FEATURE
 62
7
  6
CONTINUOUS
 10
60.5875988295
 20
138.9432094694
  0
VERTEX
  8
2_FEATURE
 62
7
  6
CONTINUOUS
 10
60.5588256276
 20
138.9626779055
  0
VERTEX
  8
2_FEATURE
 62
7
  6
CONTINUOUS
 10
60.5309868846
 20
138.9855917042
  0
VERTEX
  8
2_FEATURE
 62
7
  6
CONTINUOUS
 10
60.5040509578
 20
139.0117468617
  0
VERTEX
  8
2_FEATURE
 62
7
  6
CONTINUOUS
 10
60.4781210623
 20
139.0408857394
  0
VERTEX
  8
2_FEATURE
 62
7
  6
CONTINUOUS
 10
60.4533189166
 20
139.0727261126
  0
VERTEX
  8
2_FEATURE
 62
7
  6
CONTINUOUS
 10
60.4296413582
 20
139.107152137
  0
VERTEX
  8
2_FEATURE
 62
7
  6
CONTINUOUS
 10
60.4070039423
 20
139.1442314335
  0
VERTEX
  8
2_FEATURE
 62
7
  6
CONTINUOUS
 10
60.3854854228
 20
139.1838226336
  0
VERTEX
  8
2_FEATURE
 62
7
  6
CONTINUOUS
 10
60.3652160411
 20
139.2256458986
  0
VERTEX
  8
2_FEATURE
 62
7
  6
CONTINUOUS
 10
60.3462553431
 20
139.2694996503
  0
VERTEX
  8
2_FEATURE
 62
7
  6
CONTINUOUS
 10
60.3286167497
 20
139.3152553499
  0
VERTEX
  8
2_FEATURE
 62
7
  6
CONTINUOUS
 10
60.3123067938
 20
139.3627915183
  0
VERTEX
  8
2_FEATURE
 62
7
  6
CONTINUOUS
 10
60.2973352129
 20
139.4119598311
  0
VERTEX
  8
2_FEATURE
 62
7
  6
CONTINUOUS
 10
60.2836953027
 20
139.462629309
  0
VERTEX
  8
2_FEATURE
 62
7
  6
CONTINUOUS
 10
60.2713683571
 20
139.5147034505
  0
VERTEX
  8
2_FEATURE
 62
7
  6
CONTINUOUS
 10
60.2603261991
 20
139.5681130115
  0
VERTEX
  8
2_FEATURE
 62
7
  6
CONTINUOUS
 10
60.2505332283
 20
139.6228130544
  0
VERTEX
  8
2_FEATURE
 62
7
  6
CONTINUOUS
 10
60.2419532044
 20
139.6787945355
  0
VERTEX
  8
2_FEATURE
 62
7
  6
CONTINUOUS
 10
60.2345515004
 20
139.7360493702
  0
VERTEX
  8
2_FEATURE
 62
7
  6
CONTINUOUS
 10
60.2283014837
 20
139.7944714177
  0
VERTEX
  8
2_FEATURE
 62
7
  6
CONTINUOUS
 10
60.223169469
 20
139.8539878753
  0
VERTEX
  8
2_FEATURE
 62
7
  6
CONTINUOUS
 10
60.2191173836
 20
139.9145427492
  0
VERTEX
  8
2_FEATURE
 62
7
  6
CONTINUOUS
 10
60.2161006813
 20
139.976087607
  0
VERTEX
  8
2_FEATURE
 62
7
  6
CONTINUOUS
 10
60.2140706967
 20
140.0385832619
  0
VERTEX
  8
2_FEATURE
 62
7
  6
CONTINUOUS
 10
60.2129797298
 20
140.1020034564
  0
VERTEX
  8
2_FEATURE
 62
7
  6
CONTINUOUS
 10
60.2127472579
 20
140.1492195529
  0
SEQEND
  0
LINE
  8
0
 62
7
  6
CONTINUOUS
 10
94.9407076014
 20
123.5474137931
 11
83.4407076014
 21
135.0474137931
  0
LINE
  8
0
 62
7
  6
CONTINUOUS
 10
97.062027945
 20
123.5474137931
 11
85.562027945
 21
135.0474137931
  0
LINE
  8
0
 62
40
  6
CONTINUOUS
 10
88.8965517241
 20
112.1974137931
 11
88.8965517241
 21
123.5474137931
  0
LINE
  8
0
 62
7
  6
CONTINUOUS
 10
88.9424932702
 20
123.5474137931
 11
88.9424932702
 21
135.0474137931
  0
LINE
  8
0
 62
7
  6
CONTINUOUS
 10
90.0031534419
 20
123.5474137931
 11
90.0031534419
 21
135.0474137931
  0
LINE
  8
0
 62
7
  6
CONTINUOUS
 10
87.186919626
 20
123.5474137931
 11
98.686919626
 21
135.0474137931
  0
LINE
  8
0
 62
7
  6
CONTINUOUS
 10
89.3082399696
 20
123.5474137931
 11
100.8082399696
 21
135.0474137931
  0
LINE
  8
2_FEATURE
 62
7
  6
CONTINUOUS
 10
111.7897212527
 20
138.9085421041
 11
111.5000560489
 21
138.9085421041
  0
LINE
  8
2_FEATURE
 62
7
  6
CONTINUOUS
 10
104.4430478715
 20
138.9085421041
 11
98.8000560489
 21
138.9085421041
  0
LINE
  8
2_FEATURE
 62
7
  6
CONTINUOUS
 10
91.7430478715
 20
138.9085421041
 11
86.1000560489
 21
138.9085421041
  0
LINE
  8
2_FEATURE
 62
7
  6
CONTINUOUS
 10
79.0430478715
 20
138.9085421041
 11
73.4000560489
 21
138.9085421041
  0
LINE
  8
2_FEATURE
 62
7
  6
CONTINUOUS
 10
66.3430478715
 20
138.9085421041
 11
60.7000560489
 21
138.9085421041
  0
LINE
  8
2_FEATURE
 62
7
  6
CONTINUOUS
 10
53.6430478715
 20
138.9085421041
 11
48.0000560489
 21
138.9085421041
  0
POLYLINE
  8
2_FEATURE
 62
7
  6
CONTINUOUS
 66
1
 70
0
  0
VERTEX
  8
2_FEATURE
 62
7
  6
CONTINUOUS
 10
111.8370640034
 20
138.9062957218
  0
VERTEX
  8
2_FEATURE
 62
7
  6
CONTINUOUS
 10
111.7999909256
 20
138.9084366268
  0
VERTEX
  8
2_FEATURE
 62
7
  6
CONTINUOUS
 10
111.7897212527
 20
138.9085421041
  0
SEQEND
  0
POLYLINE
  8
2_FEATURE
 62
7
  6
CONTINUOUS
 66
1
 70
0
  0
VERTEX
  8
2_FEATURE
 62
7
  6
CONTINUOUS
 10
73.4000560491
 20
138.9085424603
  0
VERTEX
  8
2_FEATURE
 62
7
  6
CONTINUOUS
 10
73.3767844542
 20
138.9100713596
  0
VERTEX
  8
2_FEATURE
 62
7
  6
CONTINUOUS
 10
73.3472721116
 20
138.9163579632
  0
VERTEX
  8
2_FEATURE
 62
7
  6
CONTINUOUS
 10
73.3170800436
 20
138.9276398317
  0
VERTEX
  8
2_FEATURE
 62
7
  6
CONTINUOUS
 10
73.2875988295
 20
138.9432094694
  0
VERTEX
  8
2_FEATURE
 62
7
  6
CONTINUOUS
 10
73.2588256276
 20
138.9626779055
  0
VERTEX
  8
2_FEATURE
 62
7
  6
CONTINUOUS
 10
73.2309868846
 20
138.9855917042
  0
VERTEX
  8
2_FEATURE
 62
7
  6
CONTINUOUS
 10
73.2040509578
 20
139.0117468617
  0
VERTEX
  8
2_FEATURE
 62
7
  6
CONTINUOUS
 10
73.1781210623
 20
139.0408857394
  0
VERTEX
  8
2_FEATURE
 62
7
  6
CONTINUOUS
 10
73.1533189166
 20
139.0727261126
  0
VERTEX
  8
2_FEATURE
 62
7
  6
CONTINUOUS
 10
73.1296413582
 20
139.107152137
  0
VERTEX
  8
2_FEATURE
 62
7
  6
CONTINUOUS
 10
73.1070039423
 20
139.1442314335
  0
VERTEX
  8
2_FEATURE
 62
7
  6
CONTINUOUS
 10
73.0854854228
 20
139.1838226336
  0
VERTEX
  8
2_FEATURE
 62
7
  6
CONTINUOUS
 10
73.0652160411
 20
139.2256458986
  0
VERTEX
  8
2_FEATURE
 62
7
  6
CONTINUOUS
 10
73.0462553431
 20
139.2694996503
  0
VERTEX
  8
2_FEATURE
 62
7
  6
CONTINUOUS
 10
73.0286167497
 20
139.3152553499
  0
VERTEX
  8
2_FEATURE
 62
7
  6
CONTINUOUS
 10
73.0123067938
 20
139.3627915183
  0
VERTEX
  8
2_FEATURE
 62
7
  6
CONTINUOUS
 10
72.9973352129
 20
139.4119598311
  0
VERTEX
  8
2_FEATURE
 62
7
  6
CONTINUOUS
 10
72.9836953027
 20
139.462629309
  0
VERTEX
  8
2_FEATURE
 62
7
  6
CONTINUOUS
 10
72.9713683571
 20
139.5147034505
  0
VERTEX
  8
2_FEATURE
 62
7
  6
CONTINUOUS
 10
72.9603261991
 20
139.5681130115
  0
VERTEX
  8
2_FEATURE
 62
7
  6
CONTINUOUS
 10
72.9505332283
 20
139.6228130544
  0
VERTEX
  8
2_FEATURE
 62
7
  6
CONTINUOUS
 10
72.9419532044
 20
139.6787945355
  0
VERTEX
  8
2_FEATURE
 62
7
  6
CONTINUOUS
 10
72.9345515004
 20
139.7360493702
  0
VERTEX
  8
2_FEATURE
 62
7
  6
CONTINUOUS
 10
72.9283014837
 20
139.7944714177
  0
VERTEX
  8
2_FEATURE
 62
7
  6
CONTINUOUS
 10
72.923169469
 20
139.8539878753
  0
VERTEX
  8
2_FEATURE
 62
7
  6
CONTINUOUS
 10
72.9191173836
 20
139.9145427492
  0
VERTEX
  8
2_FEATURE
 62
7
  6
CONTINUOUS
 10
72.9161006813
 20
139.976087607
  0
VERTEX
  8
2_FEATURE
 62
7
  6
CONTINUOUS
 10
72.9140706967
 20
140.0385832619
  0
VERTEX
  8
2_FEATURE
 62
7
  6
CONTINUOUS
 10
72.9129797298
 20
140.1020034564
  0
VERTEX
  8
2_FEATURE
 62
7
  6
CONTINUOUS
 10
72.9127472579
 20
140.1492195529
  0
SEQEND
  0
POLYLINE
  8
2_FEATURE
 62
7
  6
CONTINUOUS
 66
1
 70
0
  0
VERTEX
  8
2_FEATURE
 62
7
  6
CONTINUOUS
 10
86.1000560491
 20
138.9085424603
  0
VERTEX
  8
2_FEATURE
 62
7
  6
CONTINUOUS
 10
86.0767844542
 20
138.9100713596
  0
VERTEX
  8
2_FEATURE
 62
7
  6
CONTINUOUS
 10
86.0472721116
 20
138.9163579632
  0
VERTEX
  8
2_FEATURE
 62
7
  6
CONTINUOUS
 10
86.0170800436
 20
138.9276398317
  0
VERTEX
  8
2_FEATURE
 62
7
  6
CONTINUOUS
 10
85.9875988295
 20
138.9432094694
  0
VERTEX
  8
2_FEATURE
 62
7
  6
CONTINUOUS
 10
85.9588256276
 20
138.9626779055
  0
VERTEX
  8
2_FEATURE
 62
7
  6
CONTINUOUS
 10
85.9309868846
 20
138.9855917042
  0
VERTEX
  8
2_FEATURE
 62
7
  6
CONTINUOUS
 10
85.9040509578
 20
139.0117468617
  0
VERTEX
  8
2_FEATURE
 62
7
  6
CONTINUOUS
 10
85.8781210623
 20
139.0408857394
  0
VERTEX
  8
2_FEATURE
 62
7
  6
CONTINUOUS
 10
85.8533189166
 20
139.0727261126
  0
VERTEX
  8
2_FEATURE
 62
7
  6
CONTINUOUS
 10
85.8296413582
 20
139.107152137
  0
VERTEX
  8
2_FEATURE
 62
7
  6
CONTINUOUS
 10
85.8070039423
 20
139.1442314335
  0
VERTEX
  8
2_FEATURE
 62
7
  6
CONTINUOUS
 10
85.7854854228
 20
139.1838226336
  0
VERTEX
  8
2_FEATURE
 62
7
  6
CONTINUOUS
 10
85.7652160411
 20
139.2256458986
  0
VERTEX
  8
2_FEATURE
 62
7
  6
CONTINUOUS
 10
85.7462553431
 20
139.2694996503
  0
VERTEX
  8
2_FEATURE
 62
7
  6
CONTINUOUS
 10
85.7286167497
 20
139.3152553499
  0
VERTEX
  8
2_FEATURE
 62
7
  6
CONTINUOUS
 10
85.7123067938
 20
139.3627915183
  0
VERTEX
  8
2_FEATURE
 62
7
  6
CONTINUOUS
 10
85.6973352129
 20
139.4119598311
  0
VERTEX
  8
2_FEATURE
 62
7
  6
CONTINUOUS
 10
85.6836953027
 20
139.462629309
  0
VERTEX
  8
2_FEATURE
 62
7
  6
CONTINUOUS
 10
85.6713683571
 20
139.5147034505
  0
VERTEX
  8
2_FEATURE
 62
7
  6
CONTINUOUS
 10
85.6603261991
 20
139.5681130115
  0
VERTEX
  8
2_FEATURE
 62
7
  6
CONTINUOUS
 10
85.6505332283
 20
139.6228130544
  0
VERTEX
  8
2_FEATURE
 62
7
  6
CONTINUOUS
 10
85.6419532044
 20
139.6787945355
  0
VERTEX
  8
2_FEATURE
 62
7
  6
CONTINUOUS
 10
85.6345515004
 20
139.7360493702
  0
VERTEX
  8
2_FEATURE
 62
7
  6
CONTINUOUS
 10
85.6283014837
 20
139.7944714177
  0
VERTEX
  8
2_FEATURE
 62
7
  6
CONTINUOUS
 10
85.623169469
 20
139.8539878753
  0
VERTEX
  8
2_FEATURE
 62
7
  6
CONTINUOUS
 10
85.6191173836
 20
139.9145427492
  0
VERTEX
  8
2_FEATURE
 62
7
  6
CONTINUOUS
 10
85.6161006813
 20
139.976087607
  0
VERTEX
  8
2_FEATURE
 62
7
  6
CONTINUOUS
 10
85.6140706967
 20
140.0385832619
  0
VERTEX
  8
2_FEATURE
 62
7
  6
CONTINUOUS
 10
85.6129797298
 20
140.1020034564
  0
VERTEX
  8
2_FEATURE
 62
7
  6
CONTINUOUS
 10
85.6127472579
 20
140.1492195529
  0
SEQEND
  0
POLYLINE
  8
2_FEATURE
 62
7
  6
CONTINUOUS
 66
1
 70
0
  0
VERTEX
  8
2_FEATURE
 62
7
  6
CONTINUOUS
 10
98.8000560491
 20
138.9085424603
  0
VERTEX
  8
2_FEATURE
 62
7
  6
CONTINUOUS
 10
98.7767844542
 20
138.9100713596
  0
VERTEX
  8
2_FEATURE
 62
7
  6
CONTINUOUS
 10
98.7472721116
 20
138.9163579632
  0
VERTEX
  8
2_FEATURE
 62
7
  6
CONTINUOUS
 10
98.7170800436
 20
138.9276398317
  0
VERTEX
  8
2_FEATURE
 62
7
  6
CONTINUOUS
 10
98.6875988295
 20
138.9432094694
  0
VERTEX
  8
2_FEATURE
 62
7
  6
CONTINUOUS
 10
98.6588256276
 20
138.9626779055
  0
VERTEX
  8
2_FEATURE
 62
7
  6
CONTINUOUS
 10
98.6309868846
 20
138.9855917042
  0
VERTEX
  8
2_FEATURE
 62
7
  6
CONTINUOUS
 10
98.6040509578
 20
139.0117468617
  0
VERTEX
  8
2_FEATURE
 62
7
  6
CONTINUOUS
 10
98.5781210623
 20
139.0408857394
  0
VERTEX
  8
2_FEATURE
 62
7
  6
CONTINUOUS
 10
98.5533189166
 20
139.0727261126
  0
VERTEX
  8
2_FEATURE
 62
7
  6
CONTINUOUS
 10
98.5296413582
 20
139.107152137
  0
VERTEX
  8
2_FEATURE
 62
7
  6
CONTINUOUS
 10
98.5070039423
 20
139.1442314335
  0
VERTEX
  8
2_FEATURE
 62
7
  6
CONTINUOUS
 10
98.4854854228
 20
139.1838226336
  0
VERTEX
  8
2_FEATURE
 62
7
  6
CONTINUOUS
 10
98.4652160411
 20
139.2256458986
  0
VERTEX
  8
2_FEATURE
 62
7
  6
CONTINUOUS
 10
98.4462553431
 20
139.2694996503
  0
VERTEX
  8
2_FEATURE
 62
7
  6
CONTINUOUS
 10
98.4286167497
 20
139.3152553499
  0
VERTEX
  8
2_FEATURE
 62
7
  6
CONTINUOUS
 10
98.4123067938
 20
139.3627915183
  0
VERTEX
  8
2_FEATURE
 62
7
  6
CONTINUOUS
 10
98.3973352129
 20
139.4119598311
  0
VERTEX
  8
2_FEATURE
 62
7
  6
CONTINUOUS
 10
98.3836953027
 20
139.462629309
  0
VERTEX
  8
2_FEATURE
 62
7
  6
CONTINUOUS
 10
98.3713683571
 20
139.5147034505
  0
VERTEX
  8
2_FEATURE
 62
7
  6
CONTINUOUS
 10
98.3603261991
 20
139.5681130115
  0
VERTEX
  8
2_FEATURE
 62
7
  6
CONTINUOUS
 10
98.3505332283
 20
139.6228130544
  0
VERTEX
  8
2_FEATURE
 62
7
  6
CONTINUOUS
 10
98.3419532044
 20
139.6787945355
  0
VERTEX
  8
2_FEATURE
 62
7
  6
CONTINUOUS
 10
98.3345515004
 20
139.7360493702
  0
VERTEX
  8
2_FEATURE
 62
7
  6
CONTINUOUS
 10
98.3283014837
 20
139.7944714177
  0
VERTEX
  8
2_FEATURE
 62
7
  6
CONTINUOUS
 10
98.323169469
 20
139.8539878753
  0
VERTEX
  8
2_FEATURE
 62
7
  6
CONTINUOUS
 10
98.3191173836
 20
139.9145427492
  0
VERTEX
  8
2_FEATURE
 62
7
  6
CONTINUOUS
 10
98.3161006813
 20
139.976087607
  0
VERTEX
  8
2_FEATURE
 62
7
  6
CONTINUOUS
 10
98.3140706967
 20
140.0385832619
  0
VERTEX
  8
2_FEATURE
 62
7
  6
CONTINUOUS
 10
98.3129797298
 20
140.1020034564
  0
VERTEX
  8
2_FEATURE
 62
7
  6
CONTINUOUS
 10
98.3127472579
 20
140.1492195529
  0
SEQEND
  0
LINE
  8
0
 62
7
  6
CONTINUOUS
 10
99.1833482885
 20
123.5474137931
 11
87.6833482885
 21
135.0474137931
  0
LINE
  8
0
 62
7
  6
CONTINUOUS
 10
101.3046686321
 20
123.5474137931
 11
89.8046686321
 21
135.0474137931
  0
LINE
  8
0
 62
7
  6
CONTINUOUS
 10
91.0638136137
 20
123.5474137931
 11
91.0638136137
 21
135.0474137931
  0
LINE
  8
0
 62
7
  6
CONTINUOUS
 10
92.1244737855
 20
123.5474137931
 11
92.1244737855
 21
135.0474137931
  0
LINE
  8
0
 62
7
  6
CONTINUOUS
 10
93.1851339573
 20
123.5474137931
 11
93.1851339573
 21
135.0474137931
  0
LINE
  8
2_FEATURE
 62
7
  6
CONTINUOUS
 10
91.9622104368
 20
116.1076998345
 11
91.9627480277
 21
118.4456080418
  0
LINE
  8
2_FEATURE
 62
7
  6
CONTINUOUS
 10
92.2308930123
 20
142.4871281239
 11
92.2303554206
 21
140.1492195444
  0
LINE
  8
2_FEATURE
 62
7
  6
CONTINUOUS
 10
91.9599369189
 20
115.4869582801
 11
91.9622104368
 21
116.1076998345
  0
LINE
  8
2_FEATURE
 62
7
  6
CONTINUOUS
 10
92.2331665298
 20
143.1078693947
 11
92.2308930123
 21
142.4871281239
  0
POLYLINE
  8
2_FEATURE
 62
7
  6
CONTINUOUS
 66
1
 70
0
  0
VERTEX
  8
2_FEATURE
 62
7
  6
CONTINUOUS
 10
91.9627472591
 20
118.4456080418
  0
VERTEX
  8
2_FEATURE
 62
7
  6
CONTINUOUS
 10
91.962993645
 20
118.4941962993
  0
VERTEX
  8
2_FEATURE
 62
7
  6
CONTINUOUS
 10
91.9641036909
 20
118.5575737474
  0
VERTEX
  8
2_FEATURE
 62
7
  6
CONTINUOUS
 10
91.9661531311
 20
118.6200278741
  0
VERTEX
  8
2_FEATURE
 62
7
  6
CONTINUOUS
 10
91.9691896593
 20
118.6815322933
  0
VERTEX
  8
2_FEATURE
 62
7
  6
CONTINUOUS
 10
91.9732619488
 20
118.7420477135
  0
VERTEX
  8
2_FEATURE
 62
7
  6
CONTINUOUS
 10
91.9784144576
 20
118.8015256835
  0
VERTEX
  8
2_FEATURE
 62
7
  6
CONTINUOUS
 10
91.984685193
 20
118.8599101621
  0
VERTEX
  8
2_FEATURE
 62
7
  6
CONTINUOUS
 10
91.9921079033
 20
118.9171281765
  0
VERTEX
  8
2_FEATURE
 62
7
  6
CONTINUOUS
 10
92.0007090931
 20
118.9730730715
  0
VERTEX
  8
2_FEATURE
 62
7
  6
CONTINUOUS
 10
92.0105233047
 20
119.0277366288
  0
VERTEX
  8
2_FEATURE
 62
7
  6
CONTINUOUS
 10
92.0215868731
 20
119.0811098724
  0
VERTEX
  8
2_FEATURE
 62
7
  6
CONTINUOUS
 10
92.0339354624
 20
119.1331479264
  0
VERTEX
  8
2_FEATURE
 62
7
  6
CONTINUOUS
 10
92.0475972715
 20
119.1837816694
  0
VERTEX
  8
2_FEATURE
 62
7
  6
CONTINUOUS
 10
92.0625910673
 20
119.2329143422
  0
VERTEX
  8
2_FEATURE
 62
7
  6
CONTINUOUS
 10
92.078923557
 20
119.2804147842
  0
VERTEX
  8
2_FEATURE
 62
7
  6
CONTINUOUS
 10
92.0965849269
 20
119.3261343633
  0
VERTEX
  8
2_FEATURE
 62
7
  6
CONTINUOUS
 10
92.1155685456
 20
119.3699510351
  0
VERTEX
  8
2_FEATURE
 62
7
  6
CONTINUOUS
 10
92.1358615832
 20
119.4117372595
  0
VERTEX
  8
2_FEATURE
 62
7
  6
CONTINUOUS
 10
92.1574049262
 20
119.4512917237
  0
VERTEX
  8
2_FEATURE
 62
7
  6
CONTINUOUS
 10
92.1800687344
 20
119.4883345655
  0
VERTEX
  8
2_FEATURE
 62
7
  6
CONTINUOUS
 10
92.2037724133
 20
119.5227209601
  0
VERTEX
  8
2_FEATURE
 62
7
  6
CONTINUOUS
 10
92.2286002985
 20
119.5545175922
  0
VERTEX
  8
2_FEATURE
 62
7
  6
CONTINUOUS
 10
92.2545545165
 20
119.5836071501
  0
VERTEX
  8
2_FEATURE
 62
7
  6
CONTINUOUS
 10
92.2815111866
 20
119.6097054102
  0
VERTEX
  8
2_FEATURE
 62
7
  6
CONTINUOUS
 10
92.3093653919
 20
119.6325539264
  0
VERTEX
  8
2_FEATURE
 62
7
  6
CONTINUOUS
 10
92.3381466969
 20
119.6519478514
  0
VERTEX
  8
2_FEATURE
 62
7
  6
CONTINUOUS
 10
92.3676332239
 20
119.6674373168
  0
VERTEX
  8
2_FEATURE
 62
7
  6
CONTINUOUS
 10
92.3978256684
 20
119.6786313392
  0
VERTEX
  8
2_FEATURE
 62
7
  6
CONTINUOUS
 10
92.4273131714
 20
119.6848248618
  0
VERTEX
  8
2_FEATURE
 62
7
  6
CONTINUOUS
 10
92.4500553903
 20
119.6862851263
  0
SEQEND
  0
POLYLINE
  8
2_FEATURE
 62
7
  6
CONTINUOUS
 66
1
 70
0
  0
VERTEX
  8
2_FEATURE
 62
7
  6
CONTINUOUS
 10
92.2303561892
 20
140.1492195444
  0
VERTEX
  8
2_FEATURE
 62
7
  6
CONTINUOUS
 10
92.2301098032
 20
140.1006312869
  0
VERTEX
  8
2_FEATURE
 62
7
  6
CONTINUOUS
 10
92.2289997574
 20
140.0372538389
  0
VERTEX
  8
2_FEATURE
 62
7
  6
CONTINUOUS
 10
92.2269503172
 20
139.9747997121
  0
VERTEX
  8
2_FEATURE
 62
7
  6
CONTINUOUS
 10
92.223913789
 20
139.9132952929
  0
VERTEX
  8
2_FEATURE
 62
7
  6
CONTINUOUS
 10
92.2198414994
 20
139.8527798727
  0
VERTEX
  8
2_FEATURE
 62
7
  6
CONTINUOUS
 10
92.2146889907
 20
139.7933019027
  0
VERTEX
  8
2_FEATURE
 62
7
  6
CONTINUOUS
 10
92.2084182552
 20
139.7349174242
  0
VERTEX
  8
2_FEATURE
 62
7
  6
CONTINUOUS
 10
92.200995545
 20
139.6776994097
  0
VERTEX
  8
2_FEATURE
 62
7
  6
CONTINUOUS
 10
92.1923943551
 20
139.6217545147
  0
VERTEX
  8
2_FEATURE
 62
7
  6
CONTINUOUS
 10
92.1825801436
 20
139.5670909574
  0
VERTEX
  8
2_FEATURE
 62
7
  6
CONTINUOUS
 10
92.1715165752
 20
139.5137177138
  0
VERTEX
  8
2_FEATURE
 62
7
  6
CONTINUOUS
 10
92.1591679858
 20
139.4616796598
  0
VERTEX
  8
2_FEATURE
 62
7
  6
CONTINUOUS
 10
92.1455061768
 20
139.4110459168
  0
VERTEX
  8
2_FEATURE
 62
7
  6
CONTINUOUS
 10
92.130512381
 20
139.361913244
  0
VERTEX
  8
2_FEATURE
 62
7
  6
CONTINUOUS
 10
92.1141798913
 20
139.314412802
  0
VERTEX
  8
2_FEATURE
 62
7
  6
CONTINUOUS
 10
92.0965185213
 20
139.2686932229
  0
VERTEX
  8
2_FEATURE
 62
7
  6
CONTINUOUS
 10
92.0775349027
 20
139.2248765511
  0
VERTEX
  8
2_FEATURE
 62
7
  6
CONTINUOUS
 10
92.0572418651
 20
139.1830903267
  0
VERTEX
  8
2_FEATURE
 62
7
  6
CONTINUOUS
 10
92.0356985221
 20
139.1435358625
  0
VERTEX
  8
2_FEATURE
 62
7
  6
CONTINUOUS
 10
92.0130347139
 20
139.1064930207
  0
VERTEX
  8
2_FEATURE
 62
7
  6
CONTINUOUS
 10
91.989331035
 20
139.0721066261
  0
VERTEX
  8
2_FEATURE
 62
7
  6
CONTINUOUS
 10
91.9645031498
 20
139.040309994
  0
VERTEX
  8
2_FEATURE
 62
7
  6
CONTINUOUS
 10
91.9385489318
 20
139.0112204361
  0
VERTEX
  8
2_FEATURE
 62
7
  6
CONTINUOUS
 10
91.9115922617
 20
138.9851221761
  0
VERTEX
  8
2_FEATURE
 62
7
  6
CONTINUOUS
 10
91.8837380564
 20
138.9622736598
  0
VERTEX
  8
2_FEATURE
 62
7
  6
CONTINUOUS
 10
91.8549567513
 20
138.9428797348
  0
VERTEX
  8
2_FEATURE
 62
7
  6
CONTINUOUS
 10
91.8254702244
 20
138.9273902694
  0
VERTEX
  8
2_FEATURE
 62
7
  6
CONTINUOUS
 10
91.7952777799
 20
138.916196247
  0
VERTEX
  8
2_FEATURE
 62
7
  6
CONTINUOUS
 10
91.7657902769
 20
138.9100027244
  0
VERTEX
  8
2_FEATURE
 62
7
  6
CONTINUOUS
 10
91.743048058
 20
138.9085424599
  0
SEQEND
  0
LINE
  8
2_FEATURE
 62
7
  6
CONTINUOUS
 10
91.9562540653
 20
114.9329843866
 11
91.9599369189
 21
115.4869582801
  0
LINE
  8
2_FEATURE
 62
7
  6
CONTINUOUS
 10
92.2368493837
 20
143.6618432816
 11
92.2331665298
 21
143.1078693947
  0
LINE
  8
2_FEATURE
 62
7
  6
CONTINUOUS
 10
92.2415651451
 20
144.1442904266
 11
92.2368493837
 21
143.6618432816
  0
LINE
  8
2_FEATURE
 62
7
  6
CONTINUOUS
 10
91.9515383043
 20
114.4505372467
 11
91.9562540653
 21
114.9329843866
  0
LINE
  8
2_FEATURE
 62
7
  6
CONTINUOUS
 10
92.2469806174
 20
144.5550077067
 11
92.2415651451
 21
144.1442904266
  0
LINE
  8
2_FEATURE
 62
7
  6
CONTINUOUS
 10
91.9461228327
 20
114.0398199926
 11
91.9515383043
 21
114.4505372467
  0
LINE
  8
2_FEATURE
 62
7
  6
CONTINUOUS
 10
92.2542958206
 20
144.9718558094
 11
92.2469806174
 21
144.5550077067
  0
LINE
  8
2_FEATURE
 62
7
  6
CONTINUOUS
 10
91.9388076303
 20
113.622971907
 11
91.9461228327
 21
114.0398199926
  0
LINE
  8
2_FEATURE
 62
7
  6
CONTINUOUS
 10
92.2603280405
 20
145.2357380213
 11
92.2542958206
 21
144.9718558094
  0
LINE
  8
2_FEATURE
 62
7
  6
CONTINUOUS
 10
91.9327754105
 20
113.3590896726
 11
91.9388076303
 21
113.622971907
  0
LINE
  8
2_FEATURE
 62
7
  6
CONTINUOUS
 10
92.264900017
 20
145.3991970114
 11
92.2603280405
 21
145.2357380213
  0
LINE
  8
2_FEATURE
 62
7
  6
CONTINUOUS
 10
91.9282034337
 20
113.1956306584
 11
91.9327754105
 21
113.3590896726
  0
LINE
  8
2_FEATURE
 62
7
  6
CONTINUOUS
 10
92.2694985423
 20
145.5368967684
 11
92.264900017
 21
145.3991970114
  0
LINE
  8
2_FEATURE
 62
7
  6
CONTINUOUS
 10
91.9236049079
 20
113.0579308712
 11
91.9282034337
 21
113.1956306584
  0
LINE
  8
2_FEATURE
 62
7
  6
CONTINUOUS
 10
92.2725571933
 20
145.6152642915
 11
92.2694985423
 21
145.5368967684
  0
LINE
  8
2_FEATURE
 62
7
  6
CONTINUOUS
 10
91.9205462566
 20
112.9795633281
 11
91.9236049079
 21
113.0579308712
  0
LINE
  8
2_FEATURE
 62
7
  6
CONTINUOUS
 10
92.2755956475
 20
145.6835398215
 11
92.2725571933
 21
145.6152642915
  0
LINE
  8
2_FEATURE
 62
7
  6
CONTINUOUS
 10
91.9175078019
 20
112.9112877905
 11
91.9205462566
 21
112.9795633281
  0
LINE
  8
0
 62
7
  6
CONTINUOUS
 10
91.4295603131
 20
123.5474137931
 11
102.9295603131
 21
135.0474137931
  0
LINE
  8
0
 62
7
  6
CONTINUOUS
 10
93.5508806567
 20
123.5474137931
 11
105.0508806567
 21
135.0474137931
  0
LINE
  8
DEFAULT_1
 62
2
  6
CENTER
 10
39.4815517241
 20
141.9974137931
 11
112.9901326073
 21
141.9974137931
  0
POLYLINE
  8
2_FEATURE
 62
7
  6
CONTINUOUS
 66
1
 70
0
  0
VERTEX
  8
2_FEATURE
 62
7
  6
CONTINUOUS
 10
111.5000560491
 20
138.9085424603
  0
VERTEX
  8
2_FEATURE
 62
7
  6
CONTINUOUS
 10
111.4767844542
 20
138.9100713596
  0
VERTEX
  8
2_FEATURE
 62
7
  6
CONTINUOUS
 10
111.4472721116
 20
138.9163579632
  0
VERTEX
  8
2_FEATURE
 62
7
  6
CONTINUOUS
 10
111.4170800436
 20
138.9276398317
  0
VERTEX
  8
2_FEATURE
 62
7
  6
CONTINUOUS
 10
111.3875988295
 20
138.9432094694
  0
VERTEX
  8
2_FEATURE
 62
7
  6
CONTINUOUS
 10
111.3588256276
 20
138.9626779055
  0
VERTEX
  8
2_FEATURE
 62
7
  6
CONTINUOUS
 10
111.3309868846
 20
138.9855917042
  0
VERTEX
  8
2_FEATURE
 62
7
  6
CONTINUOUS
 10
111.3040509578
 20
139.0117468617
  0
VERTEX
  8
2_FEATURE
 62
7
  6
CONTINUOUS
 10
111.2781210623
 20
139.0408857394
  0
VERTEX
  8
2_FEATURE
 62
7
  6
CONTINUOUS
 10
111.2533189166
 20
139.0727261126
  0
VERTEX
  8
2_FEATURE
 62
7
  6
CONTINUOUS
 10
111.2296413582
 20
139.107152137
  0
VERTEX
  8
2_FEATURE
 62
7
  6
CONTINUOUS
 10
111.2070039423
 20
139.1442314335
  0
VERTEX
  8
2_FEATURE
 62
7
  6
CONTINUOUS
 10
111.1854854228
 20
139.1838226336
  0
VERTEX
  8
2_FEATURE
 62
7
  6
CONTINUOUS
 10
111.1652160411
 20
139.2256458986
  0
VERTEX
  8
2_FEATURE
 62
7
  6
CONTINUOUS
 10
111.1462553431
 20
139.2694996503
  0
VERTEX
  8
2_FEATURE
 62
7
  6
CONTINUOUS
 10
111.1286167497
 20
139.3152553499
  0
VERTEX
  8
2_FEATURE
 62
7
  6
CONTINUOUS
 10
111.1123067938
 20
139.3627915183
  0
VERTEX
  8
2_FEATURE
 62
7
  6
CONTINUOUS
 10
111.0973352129
 20
139.4119598311
  0
VERTEX
  8
2_FEATURE
 62
7
  6
CONTINUOUS
 10
111.0836953027
 20
139.462629309
  0
VERTEX
  8
2_FEATURE
 62
7
  6
CONTINUOUS
 10
111.0713683571
 20
139.5147034505
  0
VERTEX
  8
2_FEATURE
 62
7
  6
CONTINUOUS
 10
111.0603261991
 20
139.5681130115
  0
VERTEX
  8
2_FEATURE
 62
7
  6
CONTINUOUS
 10
111.0505332283
 20
139.6228130544
  0
VERTEX
  8
2_FEATURE
 62
7
  6
CONTINUOUS
 10
111.0419532044
 20
139.6787945355
  0
VERTEX
  8
2_FEATURE
 62
7
  6
CONTINUOUS
 10
111.0345515004
 20
139.7360493702
  0
VERTEX
  8
2_FEATURE
 62
7
  6
CONTINUOUS
 10
111.0283014837
 20
139.7944714177
  0
VERTEX
  8
2_FEATURE
 62
7
  6
CONTINUOUS
 10
111.023169469
 20
139.8539878753
  0
VERTEX
  8
2_FEATURE
 62
7
  6
CONTINUOUS
 10
111.0191173836
 20
139.9145427492
  0
VERTEX
  8
2_FEATURE
 62
7
  6
CONTINUOUS
 10
111.0161006813
 20
139.976087607
  0
VERTEX
  8
2_FEATURE
 62
7
  6
CONTINUOUS
 10
111.0140706967
 20
140.0385832619
  0
VERTEX
  8
2_FEATURE
 62
7
  6
CONTINUOUS
 10
111.0129797298
 20
140.1020034564
  0
VERTEX
  8
2_FEATURE
 62
7
  6
CONTINUOUS
 10
111.0127472579
 20
140.1492195529
  0
SEQEND
  0
POLYLINE
  8
2_FEATURE
 62
7
  6
CONTINUOUS
 66
1
 70
0
  0
VERTEX
  8
2_FEATURE
 62
7
  6
CONTINUOUS
 10
116.9415129675
 20
138.4748302667
  0
VERTEX
  8
2_FEATURE
 62
7
  6
CONTINUOUS
 10
115.1545919495
 20
138.6145340718
  0
VERTEX
  8
2_FEATURE
 62
7
  6
CONTINUOUS
 10
113.4387271428
 20
138.7597600812
  0
VERTEX
  8
2_FEATURE
 62
7
  6
CONTINUOUS
 10
111.8370636108
 20
138.9062930607
  0
SEQEND
  0
LINE
  8
0
 62
7
  6
CONTINUOUS
 10
103.4259889757
 20
123.5474137931
 11
91.9259889757
 21
135.0474137931
  0
LINE
  8
0
 62
7
  6
CONTINUOUS
 10
94.2457941291
 20
123.5474137931
 11
94.2457941291
 21
135.0474137931
  0
LINE
  8
0
 62
7
  6
CONTINUOUS
 10
95.3064543008
 20
123.5474137931
 11
95.3064543008
 21
135.0474137931
  0
LINE
  8
0
 62
7
  6
CONTINUOUS
 10
96.3671144726
 20
123.5474137931
 11
96.3671144726
 21
135.0474137931
  0
LINE
  8
0
 62
7
  6
CONTINUOUS
 10
95.6722010002
 20
123.5474137931
 11
107.1722010002
 21
135.0474137931
  0
POLYLINE
  8
2_FEATURE
 62
7
  6
CONTINUOUS
 66
1
 70
0
  0
VERTEX
  8
2_FEATURE
 62
7
  6
CONTINUOUS
 10
105.4984305364
 20
146.397413793
  0
VERTEX
  8
2_FEATURE
 62
7
  6
CONTINUOUS
 10
105.4577527425
 20
146.3957603393
  0
VERTEX
  8
2_FEATURE
 62
7
  6
CONTINUOUS
 10
105.3925054703
 20
146.3860927863
  0
VERTEX
  8
2_FEATURE
 62
7
  6
CONTINUOUS
 10
105.3294448911
 20
146.3680684943
  0
VERTEX
  8
2_FEATURE
 62
7
  6
CONTINUOUS
 10
105.2702747272
 20
146.3424796481
  0
VERTEX
  8
2_FEATURE
 62
7
  6
CONTINUOUS
 10
105.2164723587
 20
146.3106057478
  0
VERTEX
  8
2_FEATURE
 62
7
  6
CONTINUOUS
 10
105.169151114
 20
146.2741310422
  0
VERTEX
  8
2_FEATURE
 62
7
  6
CONTINUOUS
 10
105.1289407555
 20
146.234987137
  0
VERTEX
  8
2_FEATURE
 62
7
  6
CONTINUOUS
 10
105.0959201039
 20
146.195118911
  0
VERTEX
  8
2_FEATURE
 62
7
  6
CONTINUOUS
 10
105.0696842587
 20
146.1562843229
  0
VERTEX
  8
2_FEATURE
 62
7
  6
CONTINUOUS
 10
105.0494456052
 20
146.119850129
  0
VERTEX
  8
2_FEATURE
 62
7
  6
CONTINUOUS
 10
105.0342196557
 20
146.0867283505
  0
VERTEX
  8
2_FEATURE
 62
7
  6
CONTINUOUS
 10
105.0229509996
 20
146.0572922201
  0
VERTEX
  8
2_FEATURE
 62
7
  6
CONTINUOUS
 10
105.0145742404
 20
146.0311692424
  0
VERTEX
  8
2_FEATURE
 62
7
  6
CONTINUOUS
 10
105.0082514974
 20
146.007738193
  0
VERTEX
  8
2_FEATURE
 62
7
  6
CONTINUOUS
 10
105.0034650858
 20
145.9867721486
  0
VERTEX
  8
2_FEATURE
 62
7
  6
CONTINUOUS
 10
104.9998262798
 20
145.9681048454
  0
VERTEX
  8
2_FEATURE
 62
7
  6
CONTINUOUS
 10
104.9969723982
 20
145.9511686755
  0
VERTEX
  8
2_FEATURE
 62
7
  6
CONTINUOUS
 10
104.9946216974
 20
145.9352265286
  0
VERTEX
  8
2_FEATURE
 62
7
  6
CONTINUOUS
 10
104.9925974479
 20
145.9197025852
  0
VERTEX
  8
2_FEATURE
 62
7
  6
CONTINUOUS
 10
104.9907898891
 20
145.904169615
  0
VERTEX
  8
2_FEATURE
 62
7
  6
CONTINUOUS
 10
104.9891294138
 20
145.8883086319
  0
VERTEX
  8
2_FEATURE
 62
7
  6
CONTINUOUS
 10
104.9875624549
 20
145.8717851083
  0
VERTEX
  8
2_FEATURE
 62
7
  6
CONTINUOUS
 10
104.9860495738
 20
145.8542710922
  0
VERTEX
  8
2_FEATURE
 62
7
  6
CONTINUOUS
 10
104.9845632022
 20
145.8354636855
  0
VERTEX
  8
2_FEATURE
 62
7
  6
CONTINUOUS
 10
104.9830834764
 20
145.8150714652
  0
VERTEX
  8
2_FEATURE
 62
7
  6
CONTINUOUS
 10
104.981599133
 20
145.7928590574
  0
VERTEX
  8
2_FEATURE
 62
7
  6
CONTINUOUS
 10
104.9801078616
 20
145.7686934813
  0
VERTEX
  8
2_FEATURE
 62
7
  6
CONTINUOUS
 10
104.9771055357
 20
145.7141203567
  0
SEQEND
  0
POLYLINE
  8
2_FEATURE
 62
7
  6
CONTINUOUS
 66
1
 70
0
  0
VERTEX
  8
2_FEATURE
 62
7
  6
CONTINUOUS
 10
92.7984305364
 20
146.397413793
  0
VERTEX
  8
2_FEATURE
 62
7
  6
CONTINUOUS
 10
92.7577527426
 20
146.3957603393
  0
VERTEX
  8
2_FEATURE
 62
7
  6
CONTINUOUS
 10
92.6925054704
 20
146.3860927863
  0
VERTEX
  8
2_FEATURE
 62
7
  6
CONTINUOUS
 10
92.6294448914
 20
146.3680684944
  0
VERTEX
  8
2_FEATURE
 62
7
  6
CONTINUOUS
 10
92.5702747276
 20
146.3424796483
  0
VERTEX
  8
2_FEATURE
 62
7
  6
CONTINUOUS
 10
92.5164723592
 20
146.3106057481
  0
VERTEX
  8
2_FEATURE
 62
7
  6
CONTINUOUS
 10
92.4691511145
 20
146.2741310426
  0
VERTEX
  8
2_FEATURE
 62
7
  6
CONTINUOUS
 10
92.428940756
 20
146.2349871375
  0
VERTEX
  8
2_FEATURE
 62
7
  6
CONTINUOUS
 10
92.3959201044
 20
146.1951189116
  0
VERTEX
  8
2_FEATURE
 62
7
  6
CONTINUOUS
 10
92.3696842591
 20
146.1562843236
  0
VERTEX
  8
2_FEATURE
 62
7
  6
CONTINUOUS
 10
92.3494456055
 20
146.1198501296
  0
VERTEX
  8
2_FEATURE
 62
7
  6
CONTINUOUS
 10
92.334219656
 20
146.0867283512
  0
VERTEX
  8
2_FEATURE
 62
7
  6
CONTINUOUS
 10
92.3229509998
 20
146.0572922206
  0
VERTEX
  8
2_FEATURE
 62
7
  6
CONTINUOUS
 10
92.3145742406
 20
146.0311692429
  0
VERTEX
  8
2_FEATURE
 62
7
  6
CONTINUOUS
 10
92.3082514975
 20
146.0077381935
  0
VERTEX
  8
2_FEATURE
 62
7
  6
CONTINUOUS
 10
92.3034650859
 20
145.986772149
  0
VERTEX
  8
2_FEATURE
 62
7
  6
CONTINUOUS
 10
92.2998262799
 20
145.9681048458
  0
VERTEX
  8
2_FEATURE
 62
7
  6
CONTINUOUS
 10
92.2969723982
 20
145.9511686759
  0
VERTEX
  8
2_FEATURE
 62
7
  6
CONTINUOUS
 10
92.2946216974
 20
145.935226529
  0
VERTEX
  8
2_FEATURE
 62
7
  6
CONTINUOUS
 10
92.2925974479
 20
145.9197025856
  0
VERTEX
  8
2_FEATURE
 62
7
  6
CONTINUOUS
 10
92.2907898891
 20
145.9041696154
  0
VERTEX
  8
2_FEATURE
 62
7
  6
CONTINUOUS
 10
92.2891294138
 20
145.8883086323
  0
VERTEX
  8
2_FEATURE
 62
7
  6
CONTINUOUS
 10
92.287562455
 20
145.8717851087
  0
VERTEX
  8
2_FEATURE
 62
7
  6
CONTINUOUS
 10
92.2860495739
 20
145.8542710926
  0
VERTEX
  8
2_FEATURE
 62
7
  6
CONTINUOUS
 10
92.2845632022
 20
145.835463686
  0
VERTEX
  8
2_FEATURE
 62
7
  6
CONTINUOUS
 10
92.2830834765
 20
145.8150714657
  0
VERTEX
  8
2_FEATURE
 62
7
  6
CONTINUOUS
 10
92.2815991331
 20
145.792859058
  0
VERTEX
  8
2_FEATURE
 62
7
  6
CONTINUOUS
 10
92.2801078616
 20
145.7686934819
  0
VERTEX
  8
2_FEATURE
 62
7
  6
CONTINUOUS
 10
92.2786096076
 20
145.7424730468
  0
VERTEX
  8
2_FEATURE
 62
7
  6
CONTINUOUS
 10
92.2755956475
 20
145.6835398215
  0
SEQEND
  0
LINE
  8
0
 62
7
  6
CONTINUOUS
 10
105.5473093192
 20
123.5474137931
 11
94.0473093192
 21
135.0474137931
  0
LINE
  8
0
 62
7
  6
CONTINUOUS
 10
107.6686296628
 20
123.5474137931
 11
96.1686296628
 21
135.0474137931
  0
POLYLINE
  8
2_FEATURE
 62
7
  6
CONTINUOUS
 66
1
 70
0
  0
VERTEX
  8
2_FEATURE
 62
7
  6
CONTINUOUS
 10
98.6293512226
 20
112.839127921
  0
VERTEX
  8
2_FEATURE
 62
7
  6
CONTINUOUS
 10
98.6309046661
 20
112.8129869392
  0
VERTEX
  8
2_FEATURE
 62
7
  6
CONTINUOUS
 10
98.6324551056
 20
112.7889400297
  0
VERTEX
  8
2_FEATURE
 62
7
  6
CONTINUOUS
 10
98.6340059688
 20
112.7668430526
  0
VERTEX
  8
2_FEATURE
 62
7
  6
CONTINUOUS
 10
98.6355648773
 20
112.7465103815
  0
VERTEX
  8
2_FEATURE
 62
7
  6
CONTINUOUS
 10
98.6371469039
 20
112.7276954577
  0
VERTEX
  8
2_FEATURE
 62
7
  6
CONTINUOUS
 10
98.638774588
 20
112.7101230828
  0
VERTEX
  8
2_FEATURE
 62
7
  6
CONTINUOUS
 10
98.6404807265
 20
112.6934900084
  0
VERTEX
  8
2_FEATURE
 62
7
  6
CONTINUOUS
 10
98.6423130271
 20
112.6774581952
  0
VERTEX
  8
2_FEATURE
 62
7
  6
CONTINUOUS
 10
98.644336876
 20
112.6616770279
  0
VERTEX
  8
2_FEATURE
 62
7
  6
CONTINUOUS
 10
98.6466497688
 20
112.6457297339
  0
VERTEX
  8
2_FEATURE
 62
7
  6
CONTINUOUS
 10
98.6494037624
 20
112.6290866233
  0
VERTEX
  8
2_FEATURE
 62
7
  6
CONTINUOUS
 10
98.652824125
 20
112.6111455238
  0
VERTEX
  8
2_FEATURE
 62
7
  6
CONTINUOUS
 10
98.6572543177
 20
112.5911855808
  0
VERTEX
  8
2_FEATURE
 62
7
  6
CONTINUOUS
 10
98.6632063366
 20
112.5684028278
  0
VERTEX
  8
2_FEATURE
 62
7
  6
CONTINUOUS
 10
98.6713711653
 20
112.5421293766
  0
VERTEX
  8
2_FEATURE
 62
7
  6
CONTINUOUS
 10
98.6825559091
 20
112.512129631
  0
VERTEX
  8
2_FEATURE
 62
7
  6
CONTINUOUS
 10
98.6975923605
 20
112.4786971711
  0
VERTEX
  8
2_FEATURE
 62
7
  6
CONTINUOUS
 10
98.7173924247
 20
112.4423357395
  0
VERTEX
  8
2_FEATURE
 62
7
  6
CONTINUOUS
 10
98.7431931478
 20
112.4034027789
  0
VERTEX
  8
2_FEATURE
 62
7
  6
CONTINUOUS
 10
98.7761211015
 20
112.3629351975
  0
VERTEX
  8
2_FEATURE
 62
7
  6
CONTINUOUS
 10
98.8166884766
 20
112.3228538828
  0
VERTEX
  8
2_FEATURE
 62
7
  6
CONTINUOUS
 10
98.8647847526
 20
112.2853744065
  0
VERTEX
  8
2_FEATURE
 62
7
  6
CONTINUOUS
 10
98.9196099479
 20
112.2526883214
  0
VERTEX
  8
2_FEATURE
 62
7
  6
CONTINUOUS
 10
98.9797827812
 20
112.2266382332
  0
VERTEX
  8
2_FEATURE
 62
7
  6
CONTINUOUS
 10
99.043501174
 20
112.208520566
  0
VERTEX
  8
2_FEATURE
 62
7
  6
CONTINUOUS
 10
99.1087311642
 20
112.1989885375
  0
VERTEX
  8
2_FEATURE
 62
7
  6
CONTINUOUS
 10
99.1484305138
 20
112.1974137932
  0
SEQEND
  0
LINE
  8
2_FEATURE
 62
7
  6
CONTINUOUS
 10
98.6262310766
 20
112.8981547775
 11
98.6293512226
 21
112.839127921
  0
LINE
  8
2_FEATURE
 62
7
  6
CONTINUOUS
 10
98.2668723747
 20
145.6966727479
 11
98.2637522298
 21
145.7556995945
  0
LINE
  8
2_FEATURE
 62
7
  6
CONTINUOUS
 10
98.6230883257
 20
112.9669592744
 11
98.6262310766
 21
112.8981547775
  0
LINE
  8
2_FEATURE
 62
7
  6
CONTINUOUS
 10
98.2700151256
 20
145.6278682376
 11
98.2668723747
 21
145.6966727479
  0
LINE
  8
2_FEATURE
 62
7
  6
CONTINUOUS
 10
98.6199232399
 20
113.0464448975
 11
98.6230883257
 21
112.9669592744
  0
LINE
  8
2_FEATURE
 62
7
  6
CONTINUOUS
 10
98.2731802111
 20
145.5483826189
 11
98.2700151256
 21
145.6278682376
  0
LINE
  8
2_FEATURE
 62
7
  6
CONTINUOUS
 10
98.6151572018
 20
113.1872564357
 11
98.6199232399
 21
113.0464448975
  0
LINE
  8
2_FEATURE
 62
7
  6
CONTINUOUS
 10
98.2779462488
 20
145.4075710782
 11
98.2731802111
 21
145.5483826189
  0
LINE
  8
2_FEATURE
 62
7
  6
CONTINUOUS
 10
98.610412056
 20
113.3558232757
 11
98.6151572018
 21
113.1872564357
  0
LINE
  8
2_FEATURE
 62
7
  6
CONTINUOUS
 10
98.2826913943
 20
145.239004236
 11
98.2779462488
 21
145.4075710782
  0
LINE
  8
2_FEATURE
 62
7
  6
CONTINUOUS
 10
98.6041451747
 20
113.6303724921
 11
98.610412056
 21
113.3558232757
  0
LINE
  8
2_FEATURE
 62
7
  6
CONTINUOUS
 10
98.2889582749
 20
144.9644550259
 11
98.2826913943
 21
145.239004236
  0
LINE
  8
2_FEATURE
 62
7
  6
CONTINUOUS
 10
98.5980282636
 20
113.9719682048
 11
98.6041451747
 21
113.6303724921
  0
LINE
  8
2_FEATURE
 62
7
  6
CONTINUOUS
 10
98.2950751854
 20
144.6228593276
 11
98.2889582749
 21
144.9644550259
  0
LINE
  8
2_FEATURE
 62
7
  6
CONTINUOUS
 10
98.5923044775
 20
114.3873983416
 11
98.5980282636
 21
113.9719682048
  0
LINE
  8
2_FEATURE
 62
7
  6
CONTINUOUS
 10
98.3007989712
 20
144.2074292156
 11
98.2950751854
 21
144.6228593276
  0
LINE
  8
2_FEATURE
 62
7
  6
CONTINUOUS
 10
98.5884640044
 20
114.7490982167
 11
98.5923044775
 21
114.3873983416
  0
LINE
  8
2_FEATURE
 62
7
  6
CONTINUOUS
 10
98.304639444
 20
143.8457293524
 11
98.3007989712
 21
144.2074292156
  0
LINE
  8
2_FEATURE
 62
7
  6
CONTINUOUS
 10
98.3079282309
 20
143.4405145104
 11
98.304639444
 21
143.8457293524
  0
LINE
  8
2_FEATURE
 62
7
  6
CONTINUOUS
 10
98.5851752175
 20
115.1543130715
 11
98.5884640044
 21
114.7490982167
  0
LINE
  8
2_FEATURE
 62
7
  6
CONTINUOUS
 10
98.3104991685
 20
142.992710251
 11
98.3079282309
 21
143.4405145104
  0
LINE
  8
2_FEATURE
 62
7
  6
CONTINUOUS
 10
98.5826042795
 20
115.6021173902
 11
98.5851752175
 21
115.1543130715
  0
LINE
  8
2_FEATURE
 62
7
  6
CONTINUOUS
 10
98.3121700997
 20
142.5050928422
 11
98.3104991685
 21
142.992710251
  0
LINE
  8
2_FEATURE
 62
7
  6
CONTINUOUS
 10
98.5809333479
 20
116.0897350674
 11
98.5826042795
 21
115.6021173902
  0
LINE
  8
2_FEATURE
 62
7
  6
CONTINUOUS
 10
98.3127480268
 20
141.9974137931
 11
98.3121700997
 21
142.5050928422
  0
LINE
  8
2_FEATURE
 62
7
  6
CONTINUOUS
 10
98.5803554216
 20
116.5974137931
 11
98.5809333479
 21
116.0897350674
  0
LINE
  8
0
 62
7
  6
CONTINUOUS
 10
97.4277746444
 20
123.5474137931
 11
97.4277746444
 21
135.0474137931
  0
LINE
  8
2_FEATURE
 62
7
  6
CONTINUOUS
 10
98.3127480277
 20
140.1492195521
 11
98.3127480277
 21
141.9974137931
  0
LINE
  8
0
 62
7
  6
CONTINUOUS
 10
98.4884348162
 20
123.5474137931
 11
98.4884348162
 21
135.0474137931
  0
LINE
  8
2_FEATURE
 62
7
  6
CONTINUOUS
 10
98.5803554206
 20
118.4456080341
 11
98.5803554206
 21
116.5974137931
  0
LINE
  8
0
 62
7
  6
CONTINUOUS
 10
97.7935213438
 20
123.5474137931
 11
108.8965517241
 21
134.6504441734
  0
LINE
  8
0
 62
7
  6
CONTINUOUS
 10
99.9148416874
 20
123.5474137931
 11
108.8965517241
 21
132.5291238299
  0
POLYLINE
  8
2_FEATURE
 62
7
  6
CONTINUOUS
 66
1
 70
0
  0
VERTEX
  8
2_FEATURE
 62
7
  6
CONTINUOUS
 10
54.6984305467
 20
146.397413793
  0
VERTEX
  8
2_FEATURE
 62
7
  6
CONTINUOUS
 10
54.6570990305
 20
146.3957066768
  0
VERTEX
  8
2_FEATURE
 62
7
  6
CONTINUOUS
 10
54.5912229749
 20
146.3858137279
  0
VERTEX
  8
2_FEATURE
 62
7
  6
CONTINUOUS
 10
54.5276134321
 20
146.3674086691
  0
VERTEX
  8
2_FEATURE
 62
7
  6
CONTINUOUS
 10
54.468020078
 20
146.341320123
  0
VERTEX
  8
2_FEATURE
 62
7
  6
CONTINUOUS
 10
54.4139555287
 20
146.3088831456
  0
VERTEX
  8
2_FEATURE
 62
7
  6
CONTINUOUS
 10
54.3665453757
 20
146.2718474644
  0
VERTEX
  8
2_FEATURE
 62
7
  6
CONTINUOUS
 10
54.3264091798
 20
146.2322109465
  0
VERTEX
  8
2_FEATURE
 62
7
  6
CONTINUOUS
 10
54.293590464
 20
146.1919674214
  0
VERTEX
  8
2_FEATURE
 62
7
  6
CONTINUOUS
 10
54.267638732
 20
146.1529030288
  0
VERTEX
  8
2_FEATURE
 62
7
  6
CONTINUOUS
 10
54.2477200679
 20
146.1163891775
  0
VERTEX
  8
2_FEATURE
 62
7
  6
CONTINUOUS
 10
54.2328116886
 20
146.0833238368
  0
VERTEX
  8
2_FEATURE
 62
7
  6
CONTINUOUS
 10
54.2218212323
 20
146.0540208711
  0
VERTEX
  8
2_FEATURE
 62
7
  6
CONTINUOUS
 10
54.2136566089
 20
146.0280040728
  0
VERTEX
  8
2_FEATURE
 62
7
  6
CONTINUOUS
 10
54.2074966636
 20
146.0046493165
  0
VERTEX
  8
2_FEATURE
 62
7
  6
CONTINUOUS
 10
54.2028537567
 20
145.9838266166
  0
VERTEX
  8
2_FEATURE
 62
7
  6
CONTINUOUS
 10
54.199336183
 20
145.9653585799
  0
VERTEX
  8
2_FEATURE
 62
7
  6
CONTINUOUS
 10
54.1965758593
 20
145.9486185217
  0
VERTEX
  8
2_FEATURE
 62
7
  6
CONTINUOUS
 10
54.1942978595
 20
145.9328635545
  0
VERTEX
  8
2_FEATURE
 62
7
  6
CONTINUOUS
 10
54.1923328987
 20
145.9175337005
  0
VERTEX
  8
2_FEATURE
 62
7
  6
CONTINUOUS
 10
54.1905766524
 20
145.9022220337
  0
VERTEX
  8
2_FEATURE
 62
7
  6
CONTINUOUS
 10
54.1889640082
 20
145.8866382892
  0
VERTEX
  8
2_FEATURE
 62
7
  6
CONTINUOUS
 10
54.1874532242
 20
145.8705733584
  0
VERTEX
  8
2_FEATURE
 62
7
  6
CONTINUOUS
 10
54.18601309
 20
145.8538288522
  0
VERTEX
  8
2_FEATURE
 62
7
  6
CONTINUOUS
 10
54.1846191018
 20
145.8362008511
  0
VERTEX
  8
2_FEATURE
 62
7
  6
CONTINUOUS
 10
54.1832544851
 20
145.8175159883
  0
VERTEX
  8
2_FEATURE
 62
7
  6
CONTINUOUS
 10
54.1819070477
 20
145.7976153214
  0
VERTEX
  8
2_FEATURE
 62
7
  6
CONTINUOUS
 10
54.1805676917
 20
145.7763470747
  0
VERTEX
  8
2_FEATURE
 62
7
  6
CONTINUOUS
 10
54.1778875735
 20
145.7291205308
  0
SEQEND
  0
POLYLINE
  8
2_FEATURE
 62
7
  6
CONTINUOUS
 66
1
 70
0
  0
VERTEX
  8
2_FEATURE
 62
7
  6
CONTINUOUS
 10
80.0984305364
 20
146.397413793
  0
VERTEX
  8
2_FEATURE
 62
7
  6
CONTINUOUS
 10
80.0577527426
 20
146.3957603393
  0
VERTEX
  8
2_FEATURE
 62
7
  6
CONTINUOUS
 10
79.9925054704
 20
146.3860927863
  0
VERTEX
  8
2_FEATURE
 62
7
  6
CONTINUOUS
 10
79.9294448914
 20
146.3680684944
  0
VERTEX
  8
2_FEATURE
 62
7
  6
CONTINUOUS
 10
79.8702747276
 20
146.3424796483
  0
VERTEX
  8
2_FEATURE
 62
7
  6
CONTINUOUS
 10
79.8164723592
 20
146.3106057481
  0
VERTEX
  8
2_FEATURE
 62
7
  6
CONTINUOUS
 10
79.7691511145
 20
146.2741310426
  0
VERTEX
  8
2_FEATURE
 62
7
  6
CONTINUOUS
 10
79.728940756
 20
146.2349871375
  0
VERTEX
  8
2_FEATURE
 62
7
  6
CONTINUOUS
 10
79.6959201044
 20
146.1951189116
  0
VERTEX
  8
2_FEATURE
 62
7
  6
CONTINUOUS
 10
79.6696842591
 20
146.1562843236
  0
VERTEX
  8
2_FEATURE
 62
7
  6
CONTINUOUS
 10
79.6494456055
 20
146.1198501296
  0
VERTEX
  8
2_FEATURE
 62
7
  6
CONTINUOUS
 10
79.634219656
 20
146.0867283512
  0
VERTEX
  8
2_FEATURE
 62
7
  6
CONTINUOUS
 10
79.6229509998
 20
146.0572922206
  0
VERTEX
  8
2_FEATURE
 62
7
  6
CONTINUOUS
 10
79.6145742406
 20
146.0311692429
  0
VERTEX
  8
2_FEATURE
 62
7
  6
CONTINUOUS
 10
79.6082514975
 20
146.0077381935
  0
VERTEX
  8
2_FEATURE
 62
7
  6
CONTINUOUS
 10
79.6034650859
 20
145.986772149
  0
VERTEX
  8
2_FEATURE
 62
7
  6
CONTINUOUS
 10
79.5998262799
 20
145.9681048458
  0
VERTEX
  8
2_FEATURE
 62
7
  6
CONTINUOUS
 10
79.5969723982
 20
145.9511686759
  0
VERTEX
  8
2_FEATURE
 62
7
  6
CONTINUOUS
 10
79.5946216974
 20
145.935226529
  0
VERTEX
  8
2_FEATURE
 62
7
  6
CONTINUOUS
 10
79.5925974479
 20
145.9197025856
  0
VERTEX
  8
2_FEATURE
 62
7
  6
CONTINUOUS
 10
79.5907898891
 20
145.9041696154
  0
VERTEX
  8
2_FEATURE
 62
7
  6
CONTINUOUS
 10
79.5891294138
 20
145.8883086323
  0
VERTEX
  8
2_FEATURE
 62
7
  6
CONTINUOUS
 10
79.587562455
 20
145.8717851087
  0
VERTEX
  8
2_FEATURE
 62
7
  6
CONTINUOUS
 10
79.5860495739
 20
145.8542710926
  0
VERTEX
  8
2_FEATURE
 62
7
  6
CONTINUOUS
 10
79.5845632022
 20
145.835463686
  0
VERTEX
  8
2_FEATURE
 62
7
  6
CONTINUOUS
 10
79.5830834765
 20
145.8150714657
  0
VERTEX
  8
2_FEATURE
 62
7
  6
CONTINUOUS
 10
79.5815991331
 20
145.792859058
  0
VERTEX
  8
2_FEATURE
 62
7
  6
CONTINUOUS
 10
79.5801078616
 20
145.7686934819
  0
VERTEX
  8
2_FEATURE
 62
7
  6
CONTINUOUS
 10
79.5786096076
 20
145.7424730468
  0
VERTEX
  8
2_FEATURE
 62
7
  6
CONTINUOUS
 10
79.5755956475
 20
145.6835398215
  0
SEQEND
  0
POLYLINE
  8
2_FEATURE
 62
7
  6
CONTINUOUS
 66
1
 70
0
  0
VERTEX
  8
2_FEATURE
 62
7
  6
CONTINUOUS
 10
67.3984305364
 20
146.397413793
  0
VERTEX
  8
2_FEATURE
 62
7
  6
CONTINUOUS
 10
67.3577527426
 20
146.3957603393
  0
VERTEX
  8
2_FEATURE
 62
7
  6
CONTINUOUS
 10
67.2925054704
 20
146.3860927863
  0
VERTEX
  8
2_FEATURE
 62
7
  6
CONTINUOUS
 10
67.2294448914
 20
146.3680684944
  0
VERTEX
  8
2_FEATURE
 62
7
  6
CONTINUOUS
 10
67.1702747276
 20
146.3424796483
  0
VERTEX
  8
2_FEATURE
 62
7
  6
CONTINUOUS
 10
67.1164723592
 20
146.3106057481
  0
VERTEX
  8
2_FEATURE
 62
7
  6
CONTINUOUS
 10
67.0691511145
 20
146.2741310426
  0
VERTEX
  8
2_FEATURE
 62
7
  6
CONTINUOUS
 10
67.028940756
 20
146.2349871375
  0
VERTEX
  8
2_FEATURE
 62
7
  6
CONTINUOUS
 10
66.9959201044
 20
146.1951189116
  0
VERTEX
  8
2_FEATURE
 62
7
  6
CONTINUOUS
 10
66.9696842591
 20
146.1562843236
  0
VERTEX
  8
2_FEATURE
 62
7
  6
CONTINUOUS
 10
66.9494456055
 20
146.1198501296
  0
VERTEX
  8
2_FEATURE
 62
7
  6
CONTINUOUS
 10
66.934219656
 20
146.0867283512
  0
VERTEX
  8
2_FEATURE
 62
7
  6
CONTINUOUS
 10
66.9229509998
 20
146.0572922206
  0
VERTEX
  8
2_FEATURE
 62
7
  6
CONTINUOUS
 10
66.9145742406
 20
146.0311692429
  0
VERTEX
  8
2_FEATURE
 62
7
  6
CONTINUOUS
 10
66.9082514975
 20
146.0077381935
  0
VERTEX
  8
2_FEATURE
 62
7
  6
CONTINUOUS
 10
66.9034650859
 20
145.986772149
  0
VERTEX
  8
2_FEATURE
 62
7
  6
CONTINUOUS
 10
66.8998262799
 20
145.9681048458
  0
VERTEX
  8
2_FEATURE
 62
7
  6
CONTINUOUS
 10
66.8969723982
 20
145.9511686759
  0
VERTEX
  8
2_FEATURE
 62
7
  6
CONTINUOUS
 10
66.8946216974
 20
145.935226529
  0
VERTEX
  8
2_FEATURE
 62
7
  6
CONTINUOUS
 10
66.8925974479
 20
145.9197025856
  0
VERTEX
  8
2_FEATURE
 62
7
  6
CONTINUOUS
 10
66.8907898891
 20
145.9041696154
  0
VERTEX
  8
2_FEATURE
 62
7
  6
CONTINUOUS
 10
66.8891294138
 20
145.8883086323
  0
VERTEX
  8
2_FEATURE
 62
7
  6
CONTINUOUS
 10
66.887562455
 20
145.8717851087
  0
VERTEX
  8
2_FEATURE
 62
7
  6
CONTINUOUS
 10
66.8860495739
 20
145.8542710926
  0
VERTEX
  8
2_FEATURE
 62
7
  6
CONTINUOUS
 10
66.8845632022
 20
145.835463686
  0
VERTEX
  8
2_FEATURE
 62
7
  6
CONTINUOUS
 10
66.8830834765
 20
145.8150714657
  0
VERTEX
  8
2_FEATURE
 62
7
  6
CONTINUOUS
 10
66.8815991331
 20
145.792859058
  0
VERTEX
  8
2_FEATURE
 62
7
  6
CONTINUOUS
 10
66.8801078616
 20
145.7686934819
  0
VERTEX
  8
2_FEATURE
 62
7
  6
CONTINUOUS
 10
66.8786096076
 20
145.7424730468
  0
VERTEX
  8
2_FEATURE
 62
7
  6
CONTINUOUS
 10
66.8755956475
 20
145.6835398215
  0
SEQEND
  0
LINE
  8
2_FEATURE
 62
7
  6
CONTINUOUS
 10
41.8815517241
 20
146.3974137931
 11
46.9446732744
 21
146.3974137931
  0
LINE
  8
2_FEATURE
 62
7
  6
CONTINUOUS
 10
54.6984297382
 20
146.3974137931
 11
59.6446732744
 21
146.3974137931
  0
LINE
  8
2_FEATURE
 62
7
  6
CONTINUOUS
 10
67.3984301739
 20
146.3974137931
 11
72.3446732744
 21
146.3974137931
  0
LINE
  8
2_FEATURE
 62
7
  6
CONTINUOUS
 10
80.0984301739
 20
146.3974137931
 11
85.0446732744
 21
146.3974137931
  0
LINE
  8
2_FEATURE
 62
7
  6
CONTINUOUS
 10
92.7984301739
 20
146.3974137931
 11
97.7446732744
 21
146.3974137931
  0
LINE
  8
2_FEATURE
 62
7
  6
CONTINUOUS
 10
105.4984301739
 20
146.3974137931
 11
110.4446732744
 21
146.3974137931
  0
LINE
  8
0
 62
7
  6
CONTINUOUS
 10
108.8965517241
 20
124.4408120753
 11
98.2899500063
 21
135.0474137931
  0
LINE
  8
0
 62
7
  6
CONTINUOUS
 10
108.8965517241
 20
126.5621324189
 11
100.4112703499
 21
135.0474137931
  0
POLYLINE
  8
2_FEATURE
 62
7
  6
CONTINUOUS
 66
1
 70
0
  0
VERTEX
  8
2_FEATURE
 62
7
  6
CONTINUOUS
 10
98.2637522298
 20
145.7556995945
  0
VERTEX
  8
2_FEATURE
 62
7
  6
CONTINUOUS
 10
98.2621987856
 20
145.7818405947
  0
VERTEX
  8
2_FEATURE
 62
7
  6
CONTINUOUS
 10
98.2606483461
 20
145.8058875037
  0
VERTEX
  8
2_FEATURE
 62
7
  6
CONTINUOUS
 10
98.2590974842
 20
145.827984466
  0
VERTEX
  8
2_FEATURE
 62
7
  6
CONTINUOUS
 10
98.2575385759
 20
145.848317147
  0
VERTEX
  8
2_FEATURE
 62
7
  6
CONTINUOUS
 10
98.255956548
 20
145.8671320905
  0
VERTEX
  8
2_FEATURE
 62
7
  6
CONTINUOUS
 10
98.2543288639
 20
145.8847044628
  0
VERTEX
  8
2_FEATURE
 62
7
  6
CONTINUOUS
 10
98.2526227289
 20
145.9013375078
  0
VERTEX
  8
2_FEATURE
 62
7
  6
CONTINUOUS
 10
98.2507904313
 20
145.9173693099
  0
VERTEX
  8
2_FEATURE
 62
7
  6
CONTINUOUS
 10
98.2487665775
 20
145.9331505232
  0
VERTEX
  8
2_FEATURE
 62
7
  6
CONTINUOUS
 10
98.2464536819
 20
145.9490978368
  0
VERTEX
  8
2_FEATURE
 62
7
  6
CONTINUOUS
 10
98.2436996912
 20
145.9657409294
  0
VERTEX
  8
2_FEATURE
 62
7
  6
CONTINUOUS
 10
98.2402793473
 20
145.9836819416
  0
VERTEX
  8
2_FEATURE
 62
7
  6
CONTINUOUS
 10
98.2358491904
 20
146.0036417571
  0
VERTEX
  8
2_FEATURE
 62
7
  6
CONTINUOUS
 10
98.2298971567
 20
146.0264246035
  0
VERTEX
  8
2_FEATURE
 62
7
  6
CONTINUOUS
 10
98.221732313
 20
146.0526981244
  0
VERTEX
  8
2_FEATURE
 62
7
  6
CONTINUOUS
 10
98.2105475553
 20
146.0826979173
  0
VERTEX
  8
2_FEATURE
 62
7
  6
CONTINUOUS
 10
98.1955110876
 20
146.116130415
  0
VERTEX
  8
2_FEATURE
 62
7
  6
CONTINUOUS
 10
98.1757109989
 20
146.1524918857
  0
VERTEX
  8
2_FEATURE
 62
7
  6
CONTINUOUS
 10
98.1499102428
 20
146.1914248826
  0
VERTEX
  8
2_FEATURE
 62
7
  6
CONTINUOUS
 10
98.1169822444
 20
146.2318924978
  0
VERTEX
  8
2_FEATURE
 62
7
  6
CONTINUOUS
 10
98.0764147975
 20
146.2719738527
  0
VERTEX
  8
2_FEATURE
 62
7
  6
CONTINUOUS
 10
98.0283184205
 20
146.3094533642
  0
VERTEX
  8
2_FEATURE
 62
7
  6
CONTINUOUS
 10
97.9734931225
 20
146.342139455
  0
VERTEX
  8
2_FEATURE
 62
7
  6
CONTINUOUS
 10
97.9133202238
 20
146.3681895084
  0
VERTEX
  8
2_FEATURE
 62
7
  6
CONTINUOUS
 10
97.8496018464
 20
146.3863071098
  0
VERTEX
  8
2_FEATURE
 62
7
  6
CONTINUOUS
 10
97.7843719939
 20
146.3958390709
  0
VERTEX
  8
2_FEATURE
 62
7
  6
CONTINUOUS
 10
97.7446729147
 20
146.397413793
  0
SEQEND
  0
LINE
  8
0
 62
7
  6
CONTINUOUS
 10
99.549094988
 20
123.5474137931
 11
99.549094988
 21
135.0474137931
  0
LINE
  8
0
 62
7
  6
CONTINUOUS
 10
100.6097551597
 20
123.5474137931
 11
100.6097551597
 21
135.0474137931
  0
LINE
  8
0
 62
7
  6
CONTINUOUS
 10
101.6704153315
 20
123.5474137931
 11
101.6704153315
 21
135.0474137931
  0
LINE
  8
0
 62
7
  6
CONTINUOUS
 10
102.0361620309
 20
123.5474137931
 11
108.8965517241
 21
130.4078034863
  0
LINE
  8
0
 62
7
  6
CONTINUOUS
 10
104.1574823745
 20
123.5474137931
 11
108.8965517241
 21
128.2864831428
  0
LINE
  8
0
 62
7
  6
CONTINUOUS
 10
108.8965517241
 20
128.6834527624
 11
102.5325906935
 21
135.0474137931
  0
LINE
  8
0
 62
7
  6
CONTINUOUS
 10
108.8965517241
 20
130.804773106
 11
104.653911037
 21
135.0474137931
  0
LINE
  8
0
 62
7
  6
CONTINUOUS
 10
102.7310755033
 20
123.5474137931
 11
102.7310755033
 21
135.0474137931
  0
LINE
  8
0
 62
7
  6
CONTINUOUS
 10
103.7917356751
 20
123.5474137931
 11
103.7917356751
 21
135.0474137931
  0
LINE
  8
2_FEATURE
 62
7
  6
CONTINUOUS
 10
104.6622018465
 20
116.103818231
 11
104.6627480277
 21
118.4456080418
  0
LINE
  8
2_FEATURE
 62
7
  6
CONTINUOUS
 10
104.6606325913
 20
115.6316151382
 11
104.6622018465
 21
116.103818231
  0
POLYLINE
  8
2_FEATURE
 62
7
  6
CONTINUOUS
 66
1
 70
0
  0
VERTEX
  8
2_FEATURE
 62
7
  6
CONTINUOUS
 10
104.6627472591
 20
118.4456080418
  0
VERTEX
  8
2_FEATURE
 62
7
  6
CONTINUOUS
 10
104.662993645
 20
118.4941962993
  0
VERTEX
  8
2_FEATURE
 62
7
  6
CONTINUOUS
 10
104.6641036909
 20
118.5575737474
  0
VERTEX
  8
2_FEATURE
 62
7
  6
CONTINUOUS
 10
104.6661531311
 20
118.6200278741
  0
VERTEX
  8
2_FEATURE
 62
7
  6
CONTINUOUS
 10
104.6691896593
 20
118.6815322933
  0
VERTEX
  8
2_FEATURE
 62
7
  6
CONTINUOUS
 10
104.6732619488
 20
118.7420477135
  0
VERTEX
  8
2_FEATURE
 62
7
  6
CONTINUOUS
 10
104.6784144576
 20
118.8015256835
  0
VERTEX
  8
2_FEATURE
 62
7
  6
CONTINUOUS
 10
104.684685193
 20
118.859910162
  0
VERTEX
  8
2_FEATURE
 62
7
  6
CONTINUOUS
 10
104.6921079033
 20
118.9171281765
  0
VERTEX
  8
2_FEATURE
 62
7
  6
CONTINUOUS
 10
104.7007090931
 20
118.9730730715
  0
VERTEX
  8
2_FEATURE
 62
7
  6
CONTINUOUS
 10
104.7105233047
 20
119.0277366288
  0
VERTEX
  8
2_FEATURE
 62
7
  6
CONTINUOUS
 10
104.7215868731
 20
119.0811098724
  0
VERTEX
  8
2_FEATURE
 62
7
  6
CONTINUOUS
 10
104.7339354624
 20
119.1331479264
  0
VERTEX
  8
2_FEATURE
 62
7
  6
CONTINUOUS
 10
104.7475972715
 20
119.1837816694
  0
VERTEX
  8
2_FEATURE
 62
7
  6
CONTINUOUS
 10
104.7625910673
 20
119.2329143422
  0
VERTEX
  8
2_FEATURE
 62
7
  6
CONTINUOUS
 10
104.778923557
 20
119.2804147842
  0
VERTEX
  8
2_FEATURE
 62
7
  6
CONTINUOUS
 10
104.7965849269
 20
119.3261343633
  0
VERTEX
  8
2_FEATURE
 62
7
  6
CONTINUOUS
 10
104.8155685456
 20
119.3699510351
  0
VERTEX
  8
2_FEATURE
 62
7
  6
CONTINUOUS
 10
104.8358615832
 20
119.4117372595
  0
VERTEX
  8
2_FEATURE
 62
7
  6
CONTINUOUS
 10
104.8574049262
 20
119.4512917237
  0
VERTEX
  8
2_FEATURE
 62
7
  6
CONTINUOUS
 10
104.8800687344
 20
119.4883345655
  0
VERTEX
  8
2_FEATURE
 62
7
  6
CONTINUOUS
 10
104.9037724133
 20
119.5227209601
  0
VERTEX
  8
2_FEATURE
 62
7
  6
CONTINUOUS
 10
104.9286002985
 20
119.5545175922
  0
VERTEX
  8
2_FEATURE
 62
7
  6
CONTINUOUS
 10
104.9545545165
 20
119.5836071501
  0
VERTEX
  8
2_FEATURE
 62
7
  6
CONTINUOUS
 10
104.9815111866
 20
119.6097054102
  0
VERTEX
  8
2_FEATURE
 62
7
  6
CONTINUOUS
 10
105.0093653919
 20
119.6325539264
  0
VERTEX
  8
2_FEATURE
 62
7
  6
CONTINUOUS
 10
105.0381466969
 20
119.6519478514
  0
VERTEX
  8
2_FEATURE
 62
7
  6
CONTINUOUS
 10
105.0676332239
 20
119.6674373168
  0
VERTEX
  8
2_FEATURE
 62
7
  6
CONTINUOUS
 10
105.0978256684
 20
119.6786313392
  0
VERTEX
  8
2_FEATURE
 62
7
  6
CONTINUOUS
 10
105.1273131714
 20
119.6848248618
  0
VERTEX
  8
2_FEATURE
 62
7
  6
CONTINUOUS
 10
105.1500553903
 20
119.6862851263
  0
SEQEND
  0
LINE
  8
2_FEATURE
 62
7
  6
CONTINUOUS
 10
104.9528052393
 20
144.8966767076
 11
104.9455777074
 21
144.4589439832
  0
LINE
  8
2_FEATURE
 62
7
  6
CONTINUOUS
 10
104.9588119446
 20
145.1749815665
 11
104.9528052393
 21
144.8966767076
  0
LINE
  8
2_FEATURE
 62
7
  6
CONTINUOUS
 10
104.963372228
 20
145.3477068377
 11
104.9588119446
 21
145.1749815665
  0
LINE
  8
2_FEATURE
 62
7
  6
CONTINUOUS
 10
104.9679651331
 20
145.4937395484
 11
104.963372228
 21
145.3477068377
  0
LINE
  8
2_FEATURE
 62
7
  6
CONTINUOUS
 10
104.9710297958
 20
145.5773823569
 11
104.9679651331
 21
145.4937395484
  0
LINE
  8
2_FEATURE
 62
7
  6
CONTINUOUS
 10
104.9740794354
 20
145.6506209365
 11
104.9710297958
 21
145.5773823569
  0
LINE
  8
2_FEATURE
 62
7
  6
CONTINUOUS
 10
104.9771055357
 20
145.7141203567
 11
104.9740794354
 21
145.6506209365
  0
LINE
  8
0
 62
7
  6
CONTINUOUS
 10
106.278802718
 20
123.5474137931
 11
108.8965517241
 21
126.1651627992
  0
LINE
  8
0
 62
7
  6
CONTINUOUS
 10
108.4001230616
 20
123.5474137931
 11
108.8965517241
 21
124.0438424556
  0
LINE
  8
0
 62
7
  6
CONTINUOUS
 10
108.8965517241
 20
132.9260934495
 11
106.7752313806
 21
135.0474137931
  0
LINE
  8
0
 62
7
  6
CONTINUOUS
 10
104.8523958469
 20
123.5474137931
 11
104.8523958469
 21
135.0474137931
  0
LINE
  8
0
 62
7
  6
CONTINUOUS
 10
105.9130560186
 20
123.5474137931
 11
105.9130560186
 21
135.0474137931
  0
LINE
  8
0
 62
7
  6
CONTINUOUS
 10
106.9737161904
 20
123.5474137931
 11
106.9737161904
 21
135.0474137931
  0
LINE
  8
2_FEATURE
 62
7
  6
CONTINUOUS
 10
104.9308930123
 20
142.4871281236
 11
104.9303554206
 21
140.1492195444
  0
LINE
  8
2_FEATURE
 62
7
  6
CONTINUOUS
 10
104.9331665298
 20
143.1078693941
 11
104.9308930123
 21
142.4871281236
  0
POLYLINE
  8
2_FEATURE
 62
7
  6
CONTINUOUS
 66
1
 70
0
  0
VERTEX
  8
2_FEATURE
 62
7
  6
CONTINUOUS
 10
104.9303561892
 20
140.1492195444
  0
VERTEX
  8
2_FEATURE
 62
7
  6
CONTINUOUS
 10
104.9301098032
 20
140.1006312869
  0
VERTEX
  8
2_FEATURE
 62
7
  6
CONTINUOUS
 10
104.9289997574
 20
140.0372538389
  0
VERTEX
  8
2_FEATURE
 62
7
  6
CONTINUOUS
 10
104.9269503172
 20
139.9747997121
  0
VERTEX
  8
2_FEATURE
 62
7
  6
CONTINUOUS
 10
104.923913789
 20
139.9132952929
  0
VERTEX
  8
2_FEATURE
 62
7
  6
CONTINUOUS
 10
104.9198414994
 20
139.8527798727
  0
VERTEX
  8
2_FEATURE
 62
7
  6
CONTINUOUS
 10
104.9146889907
 20
139.7933019027
  0
VERTEX
  8
2_FEATURE
 62
7
  6
CONTINUOUS
 10
104.9084182552
 20
139.7349174242
  0
VERTEX
  8
2_FEATURE
 62
7
  6
CONTINUOUS
 10
104.900995545
 20
139.6776994097
  0
VERTEX
  8
2_FEATURE
 62
7
  6
CONTINUOUS
 10
104.8923943551
 20
139.6217545147
  0
VERTEX
  8
2_FEATURE
 62
7
  6
CONTINUOUS
 10
104.8825801436
 20
139.5670909574
  0
VERTEX
  8
2_FEATURE
 62
7
  6
CONTINUOUS
 10
104.8715165752
 20
139.5137177138
  0
VERTEX
  8
2_FEATURE
 62
7
  6
CONTINUOUS
 10
104.8591679858
 20
139.4616796598
  0
VERTEX
  8
2_FEATURE
 62
7
  6
CONTINUOUS
 10
104.8455061768
 20
139.4110459168
  0
VERTEX
  8
2_FEATURE
 62
7
  6
CONTINUOUS
 10
104.830512381
 20
139.361913244
  0
VERTEX
  8
2_FEATURE
 62
7
  6
CONTINUOUS
 10
104.8141798913
 20
139.314412802
  0
VERTEX
  8
2_FEATURE
 62
7
  6
CONTINUOUS
 10
104.7965185213
 20
139.2686932229
  0
VERTEX
  8
2_FEATURE
 62
7
  6
CONTINUOUS
 10
104.7775349027
 20
139.2248765511
  0
VERTEX
  8
2_FEATURE
 62
7
  6
CONTINUOUS
 10
104.7572418651
 20
139.1830903267
  0
VERTEX
  8
2_FEATURE
 62
7
  6
CONTINUOUS
 10
104.7356985221
 20
139.1435358625
  0
VERTEX
  8
2_FEATURE
 62
7
  6
CONTINUOUS
 10
104.7130347139
 20
139.1064930207
  0
VERTEX
  8
2_FEATURE
 62
7
  6
CONTINUOUS
 10
104.689331035
 20
139.0721066261
  0
VERTEX
  8
2_FEATURE
 62
7
  6
CONTINUOUS
 10
104.6645031498
 20
139.040309994
  0
VERTEX
  8
2_FEATURE
 62
7
  6
CONTINUOUS
 10
104.6385489318
 20
139.0112204361
  0
VERTEX
  8
2_FEATURE
 62
7
  6
CONTINUOUS
 10
104.6115922617
 20
138.9851221761
  0
VERTEX
  8
2_FEATURE
 62
7
  6
CONTINUOUS
 10
104.5837380564
 20
138.9622736598
  0
VERTEX
  8
2_FEATURE
 62
7
  6
CONTINUOUS
 10
104.5549567513
 20
138.9428797348
  0
VERTEX
  8
2_FEATURE
 62
7
  6
CONTINUOUS
 10
104.5254702244
 20
138.9273902694
  0
VERTEX
  8
2_FEATURE
 62
7
  6
CONTINUOUS
 10
104.4952777799
 20
138.916196247
  0
VERTEX
  8
2_FEATURE
 62
7
  6
CONTINUOUS
 10
104.4657902769
 20
138.9100027244
  0
VERTEX
  8
2_FEATURE
 62
7
  6
CONTINUOUS
 10
104.443048058
 20
138.9085424599
  0
SEQEND
  0
LINE
  8
2_FEATURE
 62
7
  6
CONTINUOUS
 10
104.6572743763
 20
115.0633540506
 11
104.6606325913
 21
115.6316151382
  0
LINE
  8
2_FEATURE
 62
7
  6
CONTINUOUS
 10
104.9368493837
 20
143.6618432808
 11
104.9331665298
 21
143.1078693941
  0
LINE
  8
2_FEATURE
 62
7
  6
CONTINUOUS
 10
104.6528431817
 20
114.5689064404
 11
104.6572743763
 21
115.0633540506
  0
LINE
  8
2_FEATURE
 62
7
  6
CONTINUOUS
 10
104.9415651451
 20
144.1442904257
 11
104.9368493837
 21
143.6618432808
  0
LINE
  8
2_FEATURE
 62
7
  6
CONTINUOUS
 10
104.9455777074
 20
144.4589439832
 11
104.9415651451
 21
144.1442904257
  0
LINE
  8
2_FEATURE
 62
7
  6
CONTINUOUS
 10
104.6463347689
 20
114.0539375907
 11
104.6528431817
 21
114.5689064404
  0
LINE
  8
2_FEATURE
 62
7
  6
CONTINUOUS
 10
104.6393111121
 20
113.6478769302
 11
104.6463347689
 21
114.0539375907
  0
LINE
  8
2_FEATURE
 62
7
  6
CONTINUOUS
 10
104.6335624974
 20
113.3901977118
 11
104.6393111121
 21
113.6478769302
  0
LINE
  8
2_FEATURE
 62
7
  6
CONTINUOUS
 10
104.6292197404
 20
113.2295458465
 11
104.6335624974
 21
113.3901977118
  0
LINE
  8
2_FEATURE
 62
7
  6
CONTINUOUS
 10
104.6249083248
 20
113.0944441864
 11
104.6292197404
 21
113.2295458465
  0
LINE
  8
2_FEATURE
 62
7
  6
CONTINUOUS
 10
104.6220787105
 20
113.0175747779
 11
104.6249083248
 21
113.0944441864
  0
LINE
  8
2_FEATURE
 62
7
  6
CONTINUOUS
 10
104.6192978125
 20
112.9503932994
 11
104.6220787105
 21
113.0175747779
  0
LINE
  8
2_FEATURE
 62
7
  6
CONTINUOUS
 10
104.6165657388
 20
112.8919547944
 11
104.6192978125
 21
112.9503932994
  0
LINE
  8
2_FEATURE
 62
7
  6
CONTINUOUS
 10
104.6138738647
 20
112.8412637877
 11
104.6165657388
 21
112.8919547944
  0
LINE
  8
0
 62
7
  6
CONTINUOUS
 10
108.0343763622
 20
123.5474137931
 11
108.0343763622
 21
135.0474137931
  0
LINE
  8
0
 62
7
  6
CONTINUOUS
 10
108.8965517241
 20
123.5474137931
 11
108.8965517241
 21
135.0474137931
  0
POLYLINE
  8
2_FEATURE
 62
7
  6
CONTINUOUS
 66
1
 70
0
  0
VERTEX
  8
2_FEATURE
 62
7
  6
CONTINUOUS
 10
111.3293512226
 20
112.839127921
  0
VERTEX
  8
2_FEATURE
 62
7
  6
CONTINUOUS
 10
111.3309046661
 20
112.8129869392
  0
VERTEX
  8
2_FEATURE
 62
7
  6
CONTINUOUS
 10
111.3324551056
 20
112.7889400297
  0
VERTEX
  8
2_FEATURE
 62
7
  6
CONTINUOUS
 10
111.3340059688
 20
112.7668430526
  0
VERTEX
  8
2_FEATURE
 62
7
  6
CONTINUOUS
 10
111.3355648773
 20
112.7465103815
  0
VERTEX
  8
2_FEATURE
 62
7
  6
CONTINUOUS
 10
111.3371469039
 20
112.7276954577
  0
VERTEX
  8
2_FEATURE
 62
7
  6
CONTINUOUS
 10
111.338774588
 20
112.7101230828
  0
VERTEX
  8
2_FEATURE
 62
7
  6
CONTINUOUS
 10
111.3404807265
 20
112.6934900084
  0
VERTEX
  8
2_FEATURE
 62
7
  6
CONTINUOUS
 10
111.3423130271
 20
112.6774581952
  0
VERTEX
  8
2_FEATURE
 62
7
  6
CONTINUOUS
 10
111.344336876
 20
112.6616770279
  0
VERTEX
  8
2_FEATURE
 62
7
  6
CONTINUOUS
 10
111.3466497688
 20
112.6457297339
  0
VERTEX
  8
2_FEATURE
 62
7
  6
CONTINUOUS
 10
111.3494037624
 20
112.6290866233
  0
VERTEX
  8
2_FEATURE
 62
7
  6
CONTINUOUS
 10
111.352824125
 20
112.6111455238
  0
VERTEX
  8
2_FEATURE
 62
7
  6
CONTINUOUS
 10
111.3572543177
 20
112.5911855808
  0
VERTEX
  8
2_FEATURE
 62
7
  6
CONTINUOUS
 10
111.3632063366
 20
112.5684028278
  0
VERTEX
  8
2_FEATURE
 62
7
  6
CONTINUOUS
 10
111.3713711653
 20
112.5421293766
  0
VERTEX
  8
2_FEATURE
 62
7
  6
CONTINUOUS
 10
111.3825559091
 20
112.512129631
  0
VERTEX
  8
2_FEATURE
 62
7
  6
CONTINUOUS
 10
111.3975923605
 20
112.4786971711
  0
VERTEX
  8
2_FEATURE
 62
7
  6
CONTINUOUS
 10
111.4173924247
 20
112.4423357395
  0
VERTEX
  8
2_FEATURE
 62
7
  6
CONTINUOUS
 10
111.4431931478
 20
112.4034027789
  0
VERTEX
  8
2_FEATURE
 62
7
  6
CONTINUOUS
 10
111.4761211015
 20
112.3629351975
  0
VERTEX
  8
2_FEATURE
 62
7
  6
CONTINUOUS
 10
111.5166884766
 20
112.3228538828
  0
VERTEX
  8
2_FEATURE
 62
7
  6
CONTINUOUS
 10
111.5647847526
 20
112.2853744065
  0
VERTEX
  8
2_FEATURE
 62
7
  6
CONTINUOUS
 10
111.6196099479
 20
112.2526883214
  0
VERTEX
  8
2_FEATURE
 62
7
  6
CONTINUOUS
 10
111.6797827812
 20
112.2266382332
  0
VERTEX
  8
2_FEATURE
 62
7
  6
CONTINUOUS
 10
111.743501174
 20
112.208520566
  0
VERTEX
  8
2_FEATURE
 62
7
  6
CONTINUOUS
 10
111.8087311642
 20
112.1989885375
  0
VERTEX
  8
2_FEATURE
 62
7
  6
CONTINUOUS
 10
111.8484305138
 20
112.1974137932
  0
SEQEND
  0
POLYLINE
  8
2_FEATURE
 62
7
  6
CONTINUOUS
 66
1
 70
0
  0
VERTEX
  8
2_FEATURE
 62
7
  6
CONTINUOUS
 10
110.9637522298
 20
145.7556995945
  0
VERTEX
  8
2_FEATURE
 62
7
  6
CONTINUOUS
 10
110.9621987856
 20
145.7818405947
  0
VERTEX
  8
2_FEATURE
 62
7
  6
CONTINUOUS
 10
110.9606483461
 20
145.8058875037
  0
VERTEX
  8
2_FEATURE
 62
7
  6
CONTINUOUS
 10
110.9590974842
 20
145.827984466
  0
VERTEX
  8
2_FEATURE
 62
7
  6
CONTINUOUS
 10
110.9575385759
 20
145.848317147
  0
VERTEX
  8
2_FEATURE
 62
7
  6
CONTINUOUS
 10
110.955956548
 20
145.8671320905
  0
VERTEX
  8
2_FEATURE
 62
7
  6
CONTINUOUS
 10
110.9543288639
 20
145.8847044628
  0
VERTEX
  8
2_FEATURE
 62
7
  6
CONTINUOUS
 10
110.9526227289
 20
145.9013375078
  0
VERTEX
  8
2_FEATURE
 62
7
  6
CONTINUOUS
 10
110.9507904313
 20
145.9173693099
  0
VERTEX
  8
2_FEATURE
 62
7
  6
CONTINUOUS
 10
110.9487665775
 20
145.9331505232
  0
VERTEX
  8
2_FEATURE
 62
7
  6
CONTINUOUS
 10
110.9464536819
 20
145.9490978368
  0
VERTEX
  8
2_FEATURE
 62
7
  6
CONTINUOUS
 10
110.9436996912
 20
145.9657409294
  0
VERTEX
  8
2_FEATURE
 62
7
  6
CONTINUOUS
 10
110.9402793473
 20
145.9836819416
  0
VERTEX
  8
2_FEATURE
 62
7
  6
CONTINUOUS
 10
110.9358491904
 20
146.0036417571
  0
VERTEX
  8
2_FEATURE
 62
7
  6
CONTINUOUS
 10
110.9298971567
 20
146.0264246035
  0
VERTEX
  8
2_FEATURE
 62
7
  6
CONTINUOUS
 10
110.921732313
 20
146.0526981244
  0
VERTEX
  8
2_FEATURE
 62
7
  6
CONTINUOUS
 10
110.9105475553
 20
146.0826979173
  0
VERTEX
  8
2_FEATURE
 62
7
  6
CONTINUOUS
 10
110.8955110876
 20
146.116130415
  0
VERTEX
  8
2_FEATURE
 62
7
  6
CONTINUOUS
 10
110.8757109989
 20
146.1524918857
  0
VERTEX
  8
2_FEATURE
 62
7
  6
CONTINUOUS
 10
110.8499102428
 20
146.1914248826
  0
VERTEX
  8
2_FEATURE
 62
7
  6
CONTINUOUS
 10
110.8169822444
 20
146.2318924978
  0
VERTEX
  8
2_FEATURE
 62
7
  6
CONTINUOUS
 10
110.7764147975
 20
146.2719738527
  0
VERTEX
  8
2_FEATURE
 62
7
  6
CONTINUOUS
 10
110.7283184205
 20
146.3094533642
  0
VERTEX
  8
2_FEATURE
 62
7
  6
CONTINUOUS
 10
110.6734931225
 20
146.342139455
  0
VERTEX
  8
2_FEATURE
 62
7
  6
CONTINUOUS
 10
110.6133202239
 20
146.3681895084
  0
VERTEX
  8
2_FEATURE
 62
7
  6
CONTINUOUS
 10
110.5496018464
 20
146.3863071098
  0
VERTEX
  8
2_FEATURE
 62
7
  6
CONTINUOUS
 10
110.4843719939
 20
146.3958390709
  0
VERTEX
  8
2_FEATURE
 62
7
  6
CONTINUOUS
 10
110.4446729147
 20
146.397413793
  0
SEQEND
  0
LINE
  8
2_FEATURE
 62
7
  6
CONTINUOUS
 10
111.3262310766
 20
112.8981547775
 11
111.3293512226
 21
112.839127921
  0
LINE
  8
2_FEATURE
 62
7
  6
CONTINUOUS
 10
110.9668723747
 20
145.6966727479
 11
110.9637522298
 21
145.7556995945
  0
LINE
  8
2_FEATURE
 62
7
  6
CONTINUOUS
 10
111.3230883257
 20
112.9669592744
 11
111.3262310766
 21
112.8981547775
  0
LINE
  8
2_FEATURE
 62
7
  6
CONTINUOUS
 10
110.9700151256
 20
145.6278682376
 11
110.9668723747
 21
145.6966727479
  0
LINE
  8
2_FEATURE
 62
7
  6
CONTINUOUS
 10
111.3199232399
 20
113.0464448975
 11
111.3230883257
 21
112.9669592744
  0
LINE
  8
2_FEATURE
 62
7
  6
CONTINUOUS
 10
110.9731802111
 20
145.5483826189
 11
110.9700151256
 21
145.6278682376
  0
LINE
  8
2_FEATURE
 62
7
  6
CONTINUOUS
 10
111.3151572018
 20
113.1872564357
 11
111.3199232399
 21
113.0464448975
  0
LINE
  8
2_FEATURE
 62
7
  6
CONTINUOUS
 10
110.9779462488
 20
145.4075710782
 11
110.9731802111
 21
145.5483826189
  0
LINE
  8
2_FEATURE
 62
7
  6
CONTINUOUS
 10
111.310412056
 20
113.3558232757
 11
111.3151572018
 21
113.1872564357
  0
LINE
  8
2_FEATURE
 62
7
  6
CONTINUOUS
 10
110.9826913943
 20
145.239004236
 11
110.9779462488
 21
145.4075710782
  0
LINE
  8
2_FEATURE
 62
7
  6
CONTINUOUS
 10
111.3041451747
 20
113.6303724921
 11
111.310412056
 21
113.3558232757
  0
LINE
  8
2_FEATURE
 62
7
  6
CONTINUOUS
 10
110.9889582749
 20
144.9644550259
 11
110.9826913943
 21
145.239004236
  0
LINE
  8
2_FEATURE
 62
7
  6
CONTINUOUS
 10
111.2980282636
 20
113.9719682048
 11
111.3041451747
 21
113.6303724921
  0
LINE
  8
2_FEATURE
 62
7
  6
CONTINUOUS
 10
110.9950751854
 20
144.6228593276
 11
110.9889582749
 21
144.9644550259
  0
LINE
  8
2_FEATURE
 62
7
  6
CONTINUOUS
 10
111.2923044775
 20
114.3873983416
 11
111.2980282636
 21
113.9719682048
  0
LINE
  8
2_FEATURE
 62
7
  6
CONTINUOUS
 10
111.0007989712
 20
144.2074292156
 11
110.9950751854
 21
144.6228593276
  0
LINE
  8
2_FEATURE
 62
7
  6
CONTINUOUS
 10
111.2884640044
 20
114.7490982167
 11
111.2923044775
 21
114.3873983416
  0
LINE
  8
2_FEATURE
 62
7
  6
CONTINUOUS
 10
111.004639444
 20
143.8457293524
 11
111.0007989712
 21
144.2074292156
  0
LINE
  8
2_FEATURE
 62
7
  6
CONTINUOUS
 10
111.0079282309
 20
143.4405145104
 11
111.004639444
 21
143.8457293524
  0
LINE
  8
2_FEATURE
 62
7
  6
CONTINUOUS
 10
111.2851752175
 20
115.1543130715
 11
111.2884640044
 21
114.7490982167
  0
LINE
  8
2_FEATURE
 62
7
  6
CONTINUOUS
 10
111.0104991685
 20
142.992710251
 11
111.0079282309
 21
143.4405145104
  0
LINE
  8
2_FEATURE
 62
7
  6
CONTINUOUS
 10
111.2826042795
 20
115.6021173902
 11
111.2851752175
 21
115.1543130715
  0
LINE
  8
2_FEATURE
 62
7
  6
CONTINUOUS
 10
111.0121700997
 20
142.5050928422
 11
111.0104991685
 21
142.992710251
  0
LINE
  8
2_FEATURE
 62
7
  6
CONTINUOUS
 10
111.2809333479
 20
116.0897350674
 11
111.2826042795
 21
115.6021173902
  0
LINE
  8
2_FEATURE
 62
7
  6
CONTINUOUS
 10
111.0127480268
 20
141.9974137931
 11
111.0121700997
 21
142.5050928422
  0
LINE
  8
2_FEATURE
 62
7
  6
CONTINUOUS
 10
111.2803554216
 20
116.5974137931
 11
111.2809333479
 21
116.0897350674
  0
LINE
  8
2_FEATURE
 62
7
  6
CONTINUOUS
 10
111.0127480277
 20
140.1492195521
 11
111.0127480277
 21
141.9974137931
  0
LINE
  8
2_FEATURE
 62
7
  6
CONTINUOUS
 10
111.2803554206
 20
118.4456080341
 11
111.2803554206
 21
116.5974137931
  0
LINE
  8
0
 62
7
  6
CONTINUOUS
 10
117.3115517241
 20
138.0759533925
 11
117.3115517241
 21
112.5975279619
  0
LINE
  8
2_FEATURE
 62
2
  6
CONTINUOUS
 10
117.3115517241
 20
122.096629404
 11
117.3115517241
 21
124.0174137931
  0
LINE
  8
2_FEATURE
 62
2
  6
CONTINUOUS
 10
117.3115517241
 20
134.5774137931
 11
117.3115517241
 21
136.4981981418
  0
LINE
  8
2_FEATURE
 62
2
  6
CONTINUOUS
 10
41.4815517241
 20
188.5702586303
 11
41.4815517241
 21
182.7702586677
  0
LINE
  8
0
 62
7
  6
CONTINUOUS
 10
41.4815517241
 20
183.1702586303
 11
41.4815517241
 21
190.7225385113
  0
LINE
  8
2_FEATURE
 62
7
  6
CONTINUOUS
 10
47.780431573
 20
191.061532427
 11
47.9165810795
 21
183.261532427
  0
LINE
  8
0
 62
7
  6
CONTINUOUS
 10
49.8965517241
 20
191.5702586303
 11
49.8965517241
 21
192.1799086753
  0
LINE
  8
0
 62
7
  6
CONTINUOUS
 10
50.7587270861
 20
191.8288806016
 11
50.7587270861
 21
192.3202586303
  0
LINE
  8
0
 62
7
  6
CONTINUOUS
 10
51.8193872579
 20
192.0616366589
 11
51.8193872579
 21
192.3202586303
  0
LINE
  8
0
 62
7
  6
CONTINUOUS
 10
52.8800474296
 20
191.8288806016
 11
52.8800474296
 21
192.3202586303
  0
LINE
  8
0
 62
7
  6
CONTINUOUS
 10
53.9407076014
 20
192.0616366589
 11
53.9407076014
 21
192.3202586303
  0
LINE
  8
2_FEATURE
 62
7
  6
CONTINUOUS
 10
53.7265223688
 20
183.261532427
 11
53.8626718752
 21
191.061532427
  0
LINE
  8
2_FEATURE
 62
7
  6
CONTINUOUS
 10
53.2766485559
 20
182.7727699429
 11
53.314311128
 21
184.0054758585
  0
POLYLINE
  8
2_FEATURE
 62
7
  6
CONTINUOUS
 66
1
 70
0
  0
VERTEX
  8
2_FEATURE
 62
7
  6
CONTINUOUS
 10
53.314311128
 20
184.0054758585
  0
VERTEX
  8
2_FEATURE
 62
7
  6
CONTINUOUS
 10
53.319042449
 20
184.0468147516
  0
VERTEX
  8
2_FEATURE
 62
7
  6
CONTINUOUS
 10
53.330951006
 20
184.0905754449
  0
VERTEX
  8
2_FEATURE
 62
7
  6
CONTINUOUS
 10
53.3499996504
 20
184.1360382865
  0
VERTEX
  8
2_FEATURE
 62
7
  6
CONTINUOUS
 10
53.3760235491
 20
184.1831182474
  0
VERTEX
  8
2_FEATURE
 62
7
  6
CONTINUOUS
 10
53.4082331921
 20
184.2314098415
  0
VERTEX
  8
2_FEATURE
 62
7
  6
CONTINUOUS
 10
53.4457372872
 20
184.2812048913
  0
VERTEX
  8
2_FEATURE
 62
7
  6
CONTINUOUS
 10
53.4874464484
 20
184.3331032352
  0
VERTEX
  8
2_FEATURE
 62
7
  6
CONTINUOUS
 10
53.5320583727
 20
184.387983719
  0
VERTEX
  8
2_FEATURE
 62
7
  6
CONTINUOUS
 10
53.5779140174
 20
184.4468838105
  0
SEQEND
  0
LINE
  8
0
 62
7
  6
CONTINUOUS
 10
55.0013677732
 20
191.8288806016
 11
55.0013677732
 21
192.3202586303
  0
LINE
  8
0
 62
7
  6
CONTINUOUS
 10
56.062027945
 20
192.0616366589
 11
56.062027945
 21
192.3202586303
  0
LINE
  8
0
 62
7
  6
CONTINUOUS
 10
57.1226881168
 20
191.8288806016
 11
57.1226881168
 21
192.3202586303
  0
LINE
  8
0
 62
7
  6
CONTINUOUS
 10
58.1833482885
 20
192.0616366589
 11
58.1833482885
 21
192.3202586303
  0
LINE
  8
0
 62
7
  6
CONTINUOUS
 10
59.2440084603
 20
191.8288806016
 11
59.2440084603
 21
192.3202586303
  0
LINE
  8
0
 62
7
  6
CONTINUOUS
 10
50.0455236505
 20
191.8159476446
 11
50.7587270861
 21
192.3202586303
  0
LINE
  8
2_FEATURE
 62
7
  6
CONTINUOUS
 10
60.480431573
 20
191.061532427
 11
60.6165810795
 21
183.261532427
  0
LINE
  8
0
 62
7
  6
CONTINUOUS
 10
60.3046686321
 20
192.0616366589
 11
60.3046686321
 21
192.3202586303
  0
LINE
  8
0
 62
7
  6
CONTINUOUS
 10
61.3653288039
 20
191.8288806016
 11
61.3653288039
 21
192.3202586303
  0
POLYLINE
  8
2_FEATURE
 62
7
  6
CONTINUOUS
 66
1
 70
0
  0
VERTEX
  8
2_FEATURE
 62
7
  6
CONTINUOUS
 10
53.5779140174
 20
184.4468838105
  0
VERTEX
  8
2_FEATURE
 62
7
  6
CONTINUOUS
 10
53.6215835623
 20
184.5131456537
  0
VERTEX
  8
2_FEATURE
 62
7
  6
CONTINUOUS
 10
53.662241842
 20
184.5932585823
  0
VERTEX
  8
2_FEATURE
 62
7
  6
CONTINUOUS
 10
53.6983351665
 20
184.6887856261
  0
VERTEX
  8
2_FEATURE
 62
7
  6
CONTINUOUS
 10
53.7279596378
 20
184.8013015946
  0
VERTEX
  8
2_FEATURE
 62
7
  6
CONTINUOUS
 10
53.7488391578
 20
184.9323191903
  0
VERTEX
  8
2_FEATURE
 62
7
  6
CONTINUOUS
 10
53.7583174614
 20
185.0830720605
  0
SEQEND
  0
LINE
  8
0
 62
7
  6
CONTINUOUS
 10
50.3929803867
 20
191.5702586303
 11
50.7587270861
 21
191.8288806016
  0
LINE
  8
0
 62
7
  6
CONTINUOUS
 10
51.289057172
 20
191.9452586303
 11
51.8193872579
 21
192.3202586303
  0
LINE
  8
0
 62
7
  6
CONTINUOUS
 10
51.1244737855
 20
191.5702586303
 11
51.8193872579
 21
192.0616366589
  0
LINE
  8
0
 62
7
  6
CONTINUOUS
 10
52.166843994
 20
191.8159476446
 11
52.8800474296
 21
192.3202586303
  0
LINE
  8
0
 62
7
  6
CONTINUOUS
 10
52.5143007302
 20
191.5702586303
 11
52.8800474296
 21
191.8288806016
  0
LINE
  8
0
 62
7
  6
CONTINUOUS
 10
53.4103775155
 20
191.9452586303
 11
53.9407076014
 21
192.3202586303
  0
LINE
  8
0
 62
7
  6
CONTINUOUS
 10
53.2457941291
 20
191.5702586303
 11
53.9407076014
 21
192.0616366589
  0
LINE
  8
0
 62
7
  6
CONTINUOUS
 10
54.2881643376
 20
191.8159476446
 11
55.0013677732
 21
192.3202586303
  0
LINE
  8
0
 62
7
  6
CONTINUOUS
 10
54.6356210738
 20
191.5702586303
 11
55.0013677732
 21
191.8288806016
  0
LINE
  8
0
 62
7
  6
CONTINUOUS
 10
62.4259889757
 20
192.0616366589
 11
62.4259889757
 21
192.3202586303
  0
LINE
  8
0
 62
7
  6
CONTINUOUS
 10
63.4866491474
 20
191.8288806016
 11
63.4866491474
 21
192.3202586303
  0
LINE
  8
0
 62
7
  6
CONTINUOUS
 10
55.5316978591
 20
191.9452586303
 11
56.062027945
 21
192.3202586303
  0
LINE
  8
0
 62
7
  6
CONTINUOUS
 10
55.3671144726
 20
191.5702586303
 11
56.062027945
 21
192.0616366589
  0
LINE
  8
0
 62
7
  6
CONTINUOUS
 10
56.4094846812
 20
191.8159476446
 11
57.1226881168
 21
192.3202586303
  0
LINE
  8
0
 62
7
  6
CONTINUOUS
 10
56.7569414173
 20
191.5702586303
 11
57.1226881168
 21
191.8288806016
  0
LINE
  8
0
 62
7
  6
CONTINUOUS
 10
57.6530182027
 20
191.9452586303
 11
58.1833482885
 21
192.3202586303
  0
LINE
  8
0
 62
7
  6
CONTINUOUS
 10
57.4884348162
 20
191.5702586303
 11
58.1833482885
 21
192.0616366589
  0
LINE
  8
0
 62
7
  6
CONTINUOUS
 10
58.5308050247
 20
191.8159476446
 11
59.2440084603
 21
192.3202586303
  0
LINE
  8
0
 62
7
  6
CONTINUOUS
 10
58.8782617609
 20
191.5702586303
 11
59.2440084603
 21
191.8288806016
  0
LINE
  8
0
 62
7
  6
CONTINUOUS
 10
64.5473093192
 20
192.0616366589
 11
64.5473093192
 21
192.3202586303
  0
LINE
  8
0
 62
7
  6
CONTINUOUS
 10
65.607969491
 20
191.8288806016
 11
65.607969491
 21
192.3202586303
  0
LINE
  8
0
 62
7
  6
CONTINUOUS
 10
66.6686296628
 20
192.0616366589
 11
66.6686296628
 21
192.3202586303
  0
LINE
  8
2_FEATURE
 62
7
  6
CONTINUOUS
 10
66.4265223688
 20
183.261532427
 11
66.5626718752
 21
191.061532427
  0
LINE
  8
0
 62
7
  6
CONTINUOUS
 10
59.7743385462
 20
191.9452586303
 11
60.3046686321
 21
192.3202586303
  0
LINE
  8
0
 62
7
  6
CONTINUOUS
 10
59.6097551597
 20
191.5702586303
 11
60.3046686321
 21
192.0616366589
  0
LINE
  8
0
 62
7
  6
CONTINUOUS
 10
60.6521253683
 20
191.8159476446
 11
61.3653288039
 21
192.3202586303
  0
LINE
  8
0
 62
7
  6
CONTINUOUS
 10
60.9995821045
 20
191.5702586303
 11
61.3653288039
 21
191.8288806016
  0
LINE
  8
0
 62
7
  6
CONTINUOUS
 10
61.8956588898
 20
191.9452586303
 11
62.4259889757
 21
192.3202586303
  0
LINE
  8
0
 62
7
  6
CONTINUOUS
 10
61.7310755033
 20
191.5702586303
 11
62.4259889757
 21
192.0616366589
  0
LINE
  8
0
 62
7
  6
CONTINUOUS
 10
62.7734457118
 20
191.8159476446
 11
63.4866491474
 21
192.3202586303
  0
LINE
  8
0
 62
7
  6
CONTINUOUS
 10
63.120902448
 20
191.5702586303
 11
63.4866491474
 21
191.8288806016
  0
LINE
  8
0
 62
7
  6
CONTINUOUS
 10
64.0169792333
 20
191.9452586303
 11
64.5473093192
 21
192.3202586303
  0
LINE
  8
0
 62
7
  6
CONTINUOUS
 10
49.8965517241
 20
191.9212867039
 11
50.3929803867
 21
191.5702586303
  0
LINE
  8
0
 62
7
  6
CONTINUOUS
 10
49.8965517241
 20
192.1799086753
 11
50.2283970002
 21
191.9452586303
  0
LINE
  8
0
 62
7
  6
CONTINUOUS
 10
50.7587270861
 20
191.8288806016
 11
51.1244737855
 21
191.5702586303
  0
LINE
  8
0
 62
7
  6
CONTINUOUS
 10
50.7587270861
 20
192.3202586303
 11
51.4719305217
 21
191.8159476446
  0
LINE
  8
0
 62
7
  6
CONTINUOUS
 10
67.7292898346
 20
191.8288806016
 11
67.7292898346
 21
192.3202586303
  0
LINE
  8
0
 62
7
  6
CONTINUOUS
 10
68.7899500063
 20
192.0616366589
 11
68.7899500063
 21
192.3202586303
  0
LINE
  8
0
 62
7
  6
CONTINUOUS
 10
63.8523958469
 20
191.5702586303
 11
64.5473093192
 21
192.0616366589
  0
LINE
  8
0
 62
7
  6
CONTINUOUS
 10
64.8947660554
 20
191.8159476446
 11
65.607969491
 21
192.3202586303
  0
LINE
  8
0
 62
7
  6
CONTINUOUS
 10
65.2422227916
 20
191.5702586303
 11
65.607969491
 21
191.8288806016
  0
LINE
  8
0
 62
7
  6
CONTINUOUS
 10
66.1382995769
 20
191.9452586303
 11
66.6686296628
 21
192.3202586303
  0
LINE
  8
0
 62
7
  6
CONTINUOUS
 10
65.9737161904
 20
191.5702586303
 11
66.6686296628
 21
192.0616366589
  0
LINE
  8
0
 62
7
  6
CONTINUOUS
 10
67.016086399
 20
191.8159476446
 11
67.7292898346
 21
192.3202586303
  0
LINE
  8
0
 62
7
  6
CONTINUOUS
 10
67.3635431351
 20
191.5702586303
 11
67.7292898346
 21
191.8288806016
  0
LINE
  8
0
 62
7
  6
CONTINUOUS
 10
68.2596199204
 20
191.9452586303
 11
68.7899500063
 21
192.3202586303
  0
LINE
  8
0
 62
7
  6
CONTINUOUS
 10
51.8193872579
 20
192.0616366589
 11
52.5143007302
 21
191.5702586303
  0
LINE
  8
0
 62
7
  6
CONTINUOUS
 10
51.8193872579
 20
192.3202586303
 11
52.3497173438
 21
191.9452586303
  0
LINE
  8
0
 62
7
  6
CONTINUOUS
 10
52.8800474296
 20
191.8288806016
 11
53.2457941291
 21
191.5702586303
  0
LINE
  8
0
 62
7
  6
CONTINUOUS
 10
52.8800474296
 20
192.3202586303
 11
53.5932508652
 21
191.8159476446
  0
LINE
  8
0
 62
7
  6
CONTINUOUS
 10
53.9407076014
 20
192.0616366589
 11
54.6356210738
 21
191.5702586303
  0
LINE
  8
0
 62
7
  6
CONTINUOUS
 10
53.9407076014
 20
192.3202586303
 11
54.4710376873
 21
191.9452586303
  0
LINE
  8
0
 62
7
  6
CONTINUOUS
 10
55.0013677732
 20
191.8288806016
 11
55.3671144726
 21
191.5702586303
  0
LINE
  8
0
 62
7
  6
CONTINUOUS
 10
55.0013677732
 20
192.3202586303
 11
55.7145712088
 21
191.8159476446
  0
LINE
  8
0
 62
7
  6
CONTINUOUS
 10
69.8506101781
 20
191.8288806016
 11
69.8506101781
 21
192.3202586303
  0
LINE
  8
0
 62
7
  6
CONTINUOUS
 10
70.9112703499
 20
192.0616366589
 11
70.9112703499
 21
192.3202586303
  0
LINE
  8
0
 62
7
  6
CONTINUOUS
 10
71.9719305217
 20
191.8288806016
 11
71.9719305217
 21
192.3202586303
  0
LINE
  8
0
 62
7
  6
CONTINUOUS
 10
68.095036534
 20
191.5702586303
 11
68.7899500063
 21
192.0616366589
  0
LINE
  8
0
 62
7
  6
CONTINUOUS
 10
69.1374067425
 20
191.8159476446
 11
69.8506101781
 21
192.3202586303
  0
LINE
  8
0
 62
7
  6
CONTINUOUS
 10
69.4848634787
 20
191.5702586303
 11
69.8506101781
 21
191.8288806016
  0
LINE
  8
0
 62
7
  6
CONTINUOUS
 10
70.380940264
 20
191.9452586303
 11
70.9112703499
 21
192.3202586303
  0
LINE
  8
0
 62
7
  6
CONTINUOUS
 10
70.2163568775
 20
191.5702586303
 11
70.9112703499
 21
192.0616366589
  0
LINE
  8
0
 62
7
  6
CONTINUOUS
 10
71.2587270861
 20
191.8159476446
 11
71.9719305217
 21
192.3202586303
  0
LINE
  8
0
 62
7
  6
CONTINUOUS
 10
71.6061838223
 20
191.5702586303
 11
71.9719305217
 21
191.8288806016
  0
LINE
  8
0
 62
7
  6
CONTINUOUS
 10
72.5022606076
 20
191.9452586303
 11
73.0325906935
 21
192.3202586303
  0
LINE
  8
0
 62
7
  6
CONTINUOUS
 10
72.3376772211
 20
191.5702586303
 11
73.0325906935
 21
192.0616366589
  0
POLYLINE
  8
2_FEATURE
 62
7
  6
CONTINUOUS
 66
1
 70
0
  0
VERTEX
  8
2_FEATURE
 62
7
  6
CONTINUOUS
 10
112.9538134155
 20
182.7978469232
  0
VERTEX
  8
2_FEATURE
 62
7
  6
CONTINUOUS
 10
113.0376686618
 20
182.8070232114
  0
VERTEX
  8
2_FEATURE
 62
7
  6
CONTINUOUS
 10
113.1281800903
 20
182.8161022306
  0
VERTEX
  8
2_FEATURE
 62
7
  6
CONTINUOUS
 10
113.223934461
 20
182.8245180621
  0
VERTEX
  8
2_FEATURE
 62
7
  6
CONTINUOUS
 10
113.3237614003
 20
182.8318045789
  0
VERTEX
  8
2_FEATURE
 62
7
  6
CONTINUOUS
 10
113.4267212462
 20
182.8375960592
  0
VERTEX
  8
2_FEATURE
 62
7
  6
CONTINUOUS
 10
113.5318112252
 20
182.8416101745
  0
VERTEX
  8
2_FEATURE
 62
7
  6
CONTINUOUS
 10
113.6381476324
 20
182.8436630983
  0
VERTEX
  8
2_FEATURE
 62
7
  6
CONTINUOUS
 10
113.7448936798
 20
182.8436637004
  0
VERTEX
  8
2_FEATURE
 62
7
  6
CONTINUOUS
 10
113.8512271507
 20
182.8416120529
  0
VERTEX
  8
2_FEATURE
 62
7
  6
CONTINUOUS
 10
113.956313156
 20
182.8375993337
  0
VERTEX
  8
2_FEATURE
 62
7
  6
CONTINUOUS
 10
114.0592729713
 20
182.8318090632
  0
VERTEX
  8
2_FEATURE
 62
7
  6
CONTINUOUS
 10
114.1591237022
 20
182.8245217231
  0
VERTEX
  8
2_FEATURE
 62
7
  6
CONTINUOUS
 10
114.2549283336
 20
182.8161017597
  0
VERTEX
  8
2_FEATURE
 62
7
  6
CONTINUOUS
 10
114.3454629694
 20
182.8070202364
  0
VERTEX
  8
2_FEATURE
 62
7
  6
CONTINUOUS
 10
114.4293177475
 20
182.7978438001
  0
VERTEX
  8
2_FEATURE
 62
7
  6
CONTINUOUS
 10
114.5730336544
 20
182.7815035
  0
SEQEND
  0
POLYLINE
  8
2_FEATURE
 62
7
  6
CONTINUOUS
 66
1
 70
0
  0
VERTEX
  8
2_FEATURE
 62
7
  6
CONTINUOUS
 10
112.8570304568
 20
182.7848627657
  0
VERTEX
  8
2_FEATURE
 62
7
  6
CONTINUOUS
 10
113.0235765311
 20
182.802862673
  0
VERTEX
  8
2_FEATURE
 62
7
  6
CONTINUOUS
 10
113.1159562282
 20
182.8120413347
  0
VERTEX
  8
2_FEATURE
 62
7
  6
CONTINUOUS
 10
113.21336859
 20
182.8205915622
  0
VERTEX
  8
2_FEATURE
 62
7
  6
CONTINUOUS
 10
113.3151539208
 20
182.8280541672
  0
VERTEX
  8
2_FEATURE
 62
7
  6
CONTINUOUS
 10
113.4203474667
 20
182.8340214414
  0
VERTEX
  8
2_FEATURE
 62
7
  6
CONTINUOUS
 10
113.5276769605
 20
182.8381688106
  0
VERTEX
  8
2_FEATURE
 62
7
  6
CONTINUOUS
 10
113.6361299055
 20
182.8402979487
  0
VERTEX
  8
2_FEATURE
 62
7
  6
CONTINUOUS
 10
113.7449544249
 20
182.8403176722
  0
VERTEX
  8
2_FEATURE
 62
7
  6
CONTINUOUS
 10
113.8534219783
 20
182.8382271195
  0
VERTEX
  8
2_FEATURE
 62
7
  6
CONTINUOUS
 10
113.9607874283
 20
182.8341154338
  0
VERTEX
  8
2_FEATURE
 62
7
  6
CONTINUOUS
 10
114.066035587
 20
182.8281789896
  0
VERTEX
  8
2_FEATURE
 62
7
  6
CONTINUOUS
 10
114.1678782932
 20
182.8207417169
  0
VERTEX
  8
2_FEATURE
 62
7
  6
CONTINUOUS
 10
114.2653520915
 20
182.8122101813
  0
VERTEX
  8
2_FEATURE
 62
7
  6
CONTINUOUS
 10
114.3578216251
 20
182.8030399017
  0
SEQEND
  0
POLYLINE
  8
2_FEATURE
 62
7
  6
CONTINUOUS
 66
1
 70
0
  0
VERTEX
  8
2_FEATURE
 62
7
  6
CONTINUOUS
 10
112.704562814
 20
182.7716108373
  0
VERTEX
  8
2_FEATURE
 62
7
  6
CONTINUOUS
 10
112.7521068043
 20
182.7754897227
  0
VERTEX
  8
2_FEATURE
 62
7
  6
CONTINUOUS
 10
112.8101036408
 20
182.7815072229
  0
VERTEX
  8
2_FEATURE
 62
7
  6
CONTINUOUS
 10
112.9538134155
 20
182.7978469232
  0
SEQEND
  0
LINE
  8
0
 62
7
  6
CONTINUOUS
 10
56.062027945
 20
192.0616366589
 11
56.7569414173
 21
191.5702586303
  0
LINE
  8
0
 62
7
  6
CONTINUOUS
 10
56.062027945
 20
192.3202586303
 11
56.5923580309
 21
191.9452586303
  0
LINE
  8
0
 62
7
  6
CONTINUOUS
 10
57.1226881168
 20
191.8288806016
 11
57.4884348162
 21
191.5702586303
  0
LINE
  8
0
 62
7
  6
CONTINUOUS
 10
57.1226881168
 20
192.3202586303
 11
57.8358915524
 21
191.8159476446
  0
LINE
  8
0
 62
7
  6
CONTINUOUS
 10
58.1833482885
 20
192.0616366589
 11
58.8782617609
 21
191.5702586303
  0
LINE
  8
0
 62
7
  6
CONTINUOUS
 10
58.1833482885
 20
192.3202586303
 11
58.7136783744
 21
191.9452586303
  0
LINE
  8
0
 62
7
  6
CONTINUOUS
 10
59.2440084603
 20
191.8288806016
 11
59.6097551597
 21
191.5702586303
  0
LINE
  8
0
 62
7
  6
CONTINUOUS
 10
59.2440084603
 20
192.3202586303
 11
59.9572118959
 21
191.8159476446
  0
LINE
  8
0
 62
7
  6
CONTINUOUS
 10
60.3046686321
 20
192.0616366589
 11
60.9995821045
 21
191.5702586303
  0
LINE
  8
2_FEATURE
 62
7
  6
CONTINUOUS
 10
73.180431573
 20
191.061532427
 11
73.3165810795
 21
183.261532427
  0
LINE
  8
0
 62
7
  6
CONTINUOUS
 10
73.0325906935
 20
192.0616366589
 11
73.0325906935
 21
192.3202586303
  0
LINE
  8
0
 62
7
  6
CONTINUOUS
 10
74.0932508652
 20
191.8288806016
 11
74.0932508652
 21
192.3202586303
  0
POLYLINE
  8
2_FEATURE
 62
7
  6
CONTINUOUS
 66
1
 70
0
  0
VERTEX
  8
2_FEATURE
 62
7
  6
CONTINUOUS
 10
76.8419608836
 20
191.8766271368
  0
VERTEX
  8
2_FEATURE
 62
7
  6
CONTINUOUS
 10
76.98706651
 20
192.0389145222
  0
VERTEX
  8
2_FEATURE
 62
7
  6
CONTINUOUS
 10
77.1983203433
 20
192.2658743142
  0
SEQEND
  0
LINE
  8
0
 62
7
  6
CONTINUOUS
 10
73.3800474296
 20
191.8159476446
 11
74.0932508652
 21
192.3202586303
  0
LINE
  8
0
 62
7
  6
CONTINUOUS
 10
73.7275041658
 20
191.5702586303
 11
74.0932508652
 21
191.8288806016
  0
LINE
  8
0
 62
7
  6
CONTINUOUS
 10
74.6235809511
 20
191.9452586303
 11
75.153911037
 21
192.3202586303
  0
LINE
  8
0
 62
7
  6
CONTINUOUS
 10
74.4589975647
 20
191.5702586303
 11
75.153911037
 21
192.0616366589
  0
LINE
  8
0
 62
7
  6
CONTINUOUS
 10
75.5013677732
 20
191.8159476446
 11
76.2145712088
 21
192.3202586303
  0
LINE
  8
0
 62
7
  6
CONTINUOUS
 10
75.8488245094
 20
191.5702586303
 11
76.2145712088
 21
191.8288806016
  0
LINE
  8
2_FEATURE
 62
7
  6
CONTINUOUS
 10
76.7449012947
 20
191.9452586303
 11
77.1983203433
 21
192.2658743142
  0
LINE
  8
0
 62
7
  6
CONTINUOUS
 10
76.5803179082
 20
191.5702586303
 11
77.2752313806
 21
192.0616366589
  0
POLYLINE
  8
2_FEATURE
 62
7
  6
CONTINUOUS
 66
1
 70
0
  0
VERTEX
  8
2_FEATURE
 62
7
  6
CONTINUOUS
 10
77.1983203433
 20
192.2658743142
  0
VERTEX
  8
2_FEATURE
 62
7
  6
CONTINUOUS
 10
77.2366379711
 20
192.2798490833
  0
VERTEX
  8
2_FEATURE
 62
7
  6
CONTINUOUS
 10
77.2752313806
 20
192.2942105484
  0
SEQEND
  0
LINE
  8
2_FEATURE
 62
7
  6
CONTINUOUS
 10
76.9525959042
 20
191.8334989257
 11
76.9179098229
 21
191.8229231268
  0
POLYLINE
  8
2_FEATURE
 62
7
  6
CONTINUOUS
 66
1
 70
0
  0
VERTEX
  8
2_FEATURE
 62
7
  6
CONTINUOUS
 10
104.049646879
 20
184.2599324484
  0
VERTEX
  8
2_FEATURE
 62
7
  6
CONTINUOUS
 10
104.0955495799
 20
184.2631217143
  0
VERTEX
  8
2_FEATURE
 62
7
  6
CONTINUOUS
 10
104.1433001253
 20
184.273293341
  0
VERTEX
  8
2_FEATURE
 62
7
  6
CONTINUOUS
 10
104.1915924508
 20
184.2910017222
  0
VERTEX
  8
2_FEATURE
 62
7
  6
CONTINUOUS
 10
104.2393212122
 20
184.3164298359
  0
VERTEX
  8
2_FEATURE
 62
7
  6
CONTINUOUS
 10
104.2860966608
 20
184.3499321733
  0
VERTEX
  8
2_FEATURE
 62
7
  6
CONTINUOUS
 10
104.3315282795
 20
184.3919907192
  0
VERTEX
  8
2_FEATURE
 62
7
  6
CONTINUOUS
 10
104.3745035242
 20
184.4423641952
  0
VERTEX
  8
2_FEATURE
 62
7
  6
CONTINUOUS
 10
104.4140686356
 20
184.5005090854
  0
VERTEX
  8
2_FEATURE
 62
7
  6
CONTINUOUS
 10
104.4499015876
 20
184.5665481056
  0
VERTEX
  8
2_FEATURE
 62
7
  6
CONTINUOUS
 10
104.4814731776
 20
184.6403284205
  0
VERTEX
  8
2_FEATURE
 62
7
  6
CONTINUOUS
 10
104.5081059467
 20
184.7210632261
  0
VERTEX
  8
2_FEATURE
 62
7
  6
CONTINUOUS
 10
104.5293182434
 20
184.8078207833
  0
VERTEX
  8
2_FEATURE
 62
7
  6
CONTINUOUS
 10
104.5447482551
 20
184.8990139164
  0
VERTEX
  8
2_FEATURE
 62
7
  6
CONTINUOUS
 10
104.5542732226
 20
184.9917714555
  0
VERTEX
  8
2_FEATURE
 62
7
  6
CONTINUOUS
 10
104.5583174614
 20
185.0830720605
  0
SEQEND
  0
POLYLINE
  8
2_FEATURE
 62
7
  6
CONTINUOUS
 66
1
 70
0
  0
VERTEX
  8
2_FEATURE
 62
7
  6
CONTINUOUS
 10
112.6688969814
 20
182.7702596071
  0
VERTEX
  8
2_FEATURE
 62
7
  6
CONTINUOUS
 10
112.7197002968
 20
182.772103311
  0
VERTEX
  8
2_FEATURE
 62
7
  6
CONTINUOUS
 10
112.7844272662
 20
182.7773969849
  0
VERTEX
  8
2_FEATURE
 62
7
  6
CONTINUOUS
 10
112.8570304568
 20
182.7848627657
  0
SEQEND
  0
POLYLINE
  8
2_FEATURE
 62
7
  6
CONTINUOUS
 66
1
 70
0
  0
VERTEX
  8
2_FEATURE
 62
7
  6
CONTINUOUS
 10
112.9502337095
 20
182.77025851
  0
VERTEX
  8
2_FEATURE
 62
7
  6
CONTINUOUS
 10
113.0038375713
 20
182.7721032665
  0
VERTEX
  8
2_FEATURE
 62
7
  6
CONTINUOUS
 10
113.0741493038
 20
182.7786239966
  0
VERTEX
  8
2_FEATURE
 62
7
  6
CONTINUOUS
 10
113.1426640443
 20
182.7870645695
  0
VERTEX
  8
2_FEATURE
 62
7
  6
CONTINUOUS
 10
113.209886752
 20
182.7949290889
  0
VERTEX
  8
2_FEATURE
 62
7
  6
CONTINUOUS
 10
113.2752185232
 20
182.8000159625
  0
VERTEX
  8
2_FEATURE
 62
7
  6
CONTINUOUS
 10
113.3215517993
 20
182.8011719977
  0
SEQEND
  0
LINE
  8
0
 62
7
  6
CONTINUOUS
 10
114.4328646076
 20
182.7702586303
 11
112.9502266431
 21
182.7702586303
  0
LINE
  8
0
 62
7
  6
CONTINUOUS
 10
111.9165049271
 20
182.7702586303
 11
110.916352599
 21
182.7702586303
  0
LINE
  8
0
 62
7
  6
CONTINUOUS
 10
105.0267508493
 20
182.7702586303
 11
104.0265985212
 21
182.7702586303
  0
LINE
  8
0
 62
7
  6
CONTINUOUS
 10
91.5784288605
 20
182.7702586303
 11
91.3265985212
 21
182.7702586303
  0
LINE
  8
0
 62
7
  6
CONTINUOUS
 10
86.5165049271
 20
182.7702586303
 11
85.516352599
 21
182.7702586303
  0
LINE
  8
0
 62
7
  6
CONTINUOUS
 10
79.6267508493
 20
182.7702586303
 11
78.6265985212
 21
182.7702586303
  0
LINE
  8
0
 62
7
  6
CONTINUOUS
 10
73.8165049271
 20
182.7702586303
 11
72.816352599
 21
182.7702586303
  0
LINE
  8
0
 62
7
  6
CONTINUOUS
 10
61.1165049271
 20
182.7702586303
 11
60.116352599
 21
182.7702586303
  0
LINE
  8
0
 62
7
  6
CONTINUOUS
 10
54.2267508493
 20
182.7702586303
 11
53.2265985212
 21
182.7702586303
  0
LINE
  8
0
 62
7
  6
CONTINUOUS
 10
48.4165049271
 20
182.7702586303
 11
41.8815517241
 21
182.7702586303
  0
LINE
  8
2_FEATURE
 62
2
  6
CONTINUOUS
 10
41.4815517241
 20
182.7702586303
 11
41.8815517241
 21
182.7702586303
  0
LINE
  8
2_FEATURE
 62
2
  6
CONTINUOUS
 10
114.7142660544
 20
182.7702586303
 11
114.7150293272
 21
182.7702586303
  0
LINE
  8
2_FEATURE
 62
2
  6
CONTINUOUS
 10
99.2165049271
 20
182.7702586303
 11
102.7803686093
 21
182.7702586303
  0
LINE
  8
2_FEATURE
 62
2
  6
CONTINUOUS
 10
116.9115517241
 20
182.7702586303
 11
117.3115517241
 21
182.7702586303
  0
LINE
  8
2_FEATURE
 62
7
  6
CONTINUOUS
 10
41.8815517241
 20
182.7702586303
 11
99.2165049271
 21
182.7702586303
  0
LINE
  8
0
 62
7
  6
CONTINUOUS
 10
98.216352599
 20
182.7702586303
 11
102.7803686093
 21
182.7702586303
  0
LINE
  8
2_FEATURE
 62
7
  6
CONTINUOUS
 10
102.7803686093
 20
182.7702586303
 11
114.7142660544
 21
182.7702586303
  0
LINE
  8
2_FEATURE
 62
7
  6
CONTINUOUS
 10
114.7150293272
 20
182.7702586303
 11
116.9115517241
 21
182.7702586303
  0
LINE
  8
0
 62
7
  6
CONTINUOUS
 10
60.3046686321
 20
192.3202586303
 11
60.834998718
 21
191.9452586303
  0
LINE
  8
0
 62
7
  6
CONTINUOUS
 10
61.3653288039
 20
191.8288806016
 11
61.7310755033
 21
191.5702586303
  0
LINE
  8
0
 62
7
  6
CONTINUOUS
 10
61.3653288039
 20
192.3202586303
 11
62.0785322395
 21
191.8159476446
  0
LINE
  8
0
 62
7
  6
CONTINUOUS
 10
62.4259889757
 20
192.0616366589
 11
63.120902448
 21
191.5702586303
  0
LINE
  8
0
 62
7
  6
CONTINUOUS
 10
62.4259889757
 20
192.3202586303
 11
62.9563190616
 21
191.9452586303
  0
LINE
  8
0
 62
7
  6
CONTINUOUS
 10
63.4866491474
 20
191.8288806016
 11
63.8523958469
 21
191.5702586303
  0
LINE
  8
0
 62
7
  6
CONTINUOUS
 10
63.4866491474
 20
192.3202586303
 11
64.199852583
 21
191.8159476446
  0
LINE
  8
0
 62
7
  6
CONTINUOUS
 10
64.5473093192
 20
192.0616366589
 11
65.2422227916
 21
191.5702586303
  0
LINE
  8
0
 62
7
  6
CONTINUOUS
 10
75.153911037
 20
192.0616366589
 11
75.153911037
 21
192.3202586303
  0
LINE
  8
0
 62
7
  6
CONTINUOUS
 10
76.2145712088
 20
191.8288806016
 11
76.2145712088
 21
192.3202586303
  0
LINE
  8
0
 62
7
  6
CONTINUOUS
 10
77.6226881168
 20
191.8159476446
 11
78.3358915524
 21
192.3202586303
  0
LINE
  8
0
 62
7
  6
CONTINUOUS
 10
77.9701448529
 20
191.5702586303
 11
78.3358915524
 21
191.8288806016
  0
LINE
  8
0
 62
7
  6
CONTINUOUS
 10
78.7016382518
 20
191.5702586303
 11
79.3965517241
 21
192.0616366589
  0
LINE
  8
0
 62
7
  6
CONTINUOUS
 10
79.7440084603
 20
191.8159476446
 11
80.4572118959
 21
192.3202586303
  0
LINE
  8
0
 62
7
  6
CONTINUOUS
 10
80.0914651965
 20
191.5702586303
 11
80.4572118959
 21
191.8288806016
  0
LINE
  8
0
 62
7
  6
CONTINUOUS
 10
80.8229585953
 20
191.5702586303
 11
81.5178720677
 21
192.0616366589
  0
LINE
  8
2_FEATURE
 62
7
  6
CONTINUOUS
 10
114.0615517241
 20
182.8011720115
 11
113.3215517987
 21
182.8011720115
  0
LINE
  8
2_FEATURE
 62
7
  6
CONTINUOUS
 10
103.1616531174
 20
184.2599321881
 11
104.049646879
 21
184.2599324484
  0
LINE
  8
2_FEATURE
 62
7
  6
CONTINUOUS
 10
114.7142660544
 20
182.7702594715
 11
114.7150293272
 21
182.7702586303
  0
POLYLINE
  8
2_FEATURE
 62
7
  6
CONTINUOUS
 66
1
 70
0
  0
VERTEX
  8
2_FEATURE
 62
7
  6
CONTINUOUS
 10
114.0615517241
 20
182.8011719717
  0
VERTEX
  8
2_FEATURE
 62
7
  6
CONTINUOUS
 10
114.1093090563
 20
182.7999450835
  0
VERTEX
  8
2_FEATURE
 62
7
  6
CONTINUOUS
 10
114.1746907046
 20
182.794777515
  0
VERTEX
  8
2_FEATURE
 62
7
  6
CONTINUOUS
 10
114.2419550893
 20
182.7868736776
  0
VERTEX
  8
2_FEATURE
 62
7
  6
CONTINUOUS
 10
114.3105216952
 20
182.7784453101
  0
VERTEX
  8
2_FEATURE
 62
7
  6
CONTINUOUS
 10
114.3808994479
 20
182.7719990152
  0
VERTEX
  8
2_FEATURE
 62
7
  6
CONTINUOUS
 10
114.4328646076
 20
182.7702585317
  0
SEQEND
  0
LINE
  8
0
 62
7
  6
CONTINUOUS
 10
64.5473093192
 20
192.3202586303
 11
65.0776394051
 21
191.9452586303
  0
LINE
  8
0
 62
7
  6
CONTINUOUS
 10
65.607969491
 20
191.8288806016
 11
65.9737161904
 21
191.5702586303
  0
LINE
  8
0
 62
7
  6
CONTINUOUS
 10
65.607969491
 20
192.3202586303
 11
66.3211729266
 21
191.8159476446
  0
LINE
  8
0
 62
7
  6
CONTINUOUS
 10
66.6686296628
 20
192.0616366589
 11
67.3635431351
 21
191.5702586303
  0
LINE
  8
0
 62
7
  6
CONTINUOUS
 10
66.6686296628
 20
192.3202586303
 11
67.1989597487
 21
191.9452586303
  0
LINE
  8
0
 62
7
  6
CONTINUOUS
 10
67.7292898346
 20
191.8288806016
 11
68.095036534
 21
191.5702586303
  0
LINE
  8
0
 62
7
  6
CONTINUOUS
 10
67.7292898346
 20
192.3202586303
 11
68.4424932702
 21
191.8159476446
  0
LINE
  8
0
 62
7
  6
CONTINUOUS
 10
68.7899500063
 20
192.0616366589
 11
69.4848634787
 21
191.5702586303
  0
LINE
  8
0
 62
7
  6
CONTINUOUS
 10
68.7899500063
 20
192.3202586303
 11
69.3202800922
 21
191.9452586303
  0
LINE
  8
0
 62
7
  6
CONTINUOUS
 10
78.3358915524
 20
191.8288806016
 11
78.3358915524
 21
192.3202586303
  0
LINE
  8
CURVE
 62
40
  6
CONTINUOUS
 10
79.3965517241
 20
191.061532427
 11
79.3965517241
 21
183.261532427
  0
LINE
  8
1_AXIS
 62
2
  6
CENTER
 10
79.3965517241
 20
180.5355668849
 11
79.3965517241
 21
194.3202586303
  0
LINE
  8
2_FEATURE
 62
7
  6
CONTINUOUS
 10
79.1265223688
 20
183.261532427
 11
79.2626718752
 21
191.061532427
  0
POLYLINE
  8
2_FEATURE
 62
7
  6
CONTINUOUS
 66
1
 70
0
  0
VERTEX
  8
2_FEATURE
 62
7
  6
CONTINUOUS
 10
81.0930505543
 20
191.8706528032
  0
VERTEX
  8
2_FEATURE
 62
7
  6
CONTINUOUS
 10
81.2714509251
 20
192.0439701241
  0
VERTEX
  8
2_FEATURE
 62
7
  6
CONTINUOUS
 10
81.5178720677
 20
192.2942105484
  0
SEQEND
  0
LINE
  8
0
 62
7
  6
CONTINUOUS
 10
81.8653288039
 20
191.8159476446
 11
82.5785322395
 21
192.3202586303
  0
LINE
  8
0
 62
7
  6
CONTINUOUS
 10
82.2127855401
 20
191.5702586303
 11
82.5785322395
 21
191.8288806016
  0
LINE
  8
0
 62
7
  6
CONTINUOUS
 10
83.1088623254
 20
191.9452586303
 11
83.6391924113
 21
192.3202586303
  0
LINE
  8
0
 62
7
  6
CONTINUOUS
 10
82.9442789389
 20
191.5702586303
 11
83.6391924113
 21
192.0616366589
  0
LINE
  8
0
 62
7
  6
CONTINUOUS
 10
83.9866491474
 20
191.8159476446
 11
84.699852583
 21
192.3202586303
  0
LINE
  8
0
 62
7
  6
CONTINUOUS
 10
84.3341058836
 20
191.5702586303
 11
84.699852583
 21
191.8288806016
  0
LINE
  8
0
 62
7
  6
CONTINUOUS
 10
85.2301826689
 20
191.9452586303
 11
85.7605127548
 21
192.3202586303
  0
LINE
  8
0
 62
7
  6
CONTINUOUS
 10
85.0655992825
 20
191.5702586303
 11
85.7605127548
 21
192.0616366589
  0
LINE
  8
DEFAULT_1
 62
2
  6
CENTER
 10
45.802970841
 20
187.1702586303
 11
119.3115517241
 21
187.1702586303
  0
POLYLINE
  8
2_FEATURE
 62
7
  6
CONTINUOUS
 66
1
 70
0
  0
VERTEX
  8
2_FEATURE
 62
7
  6
CONTINUOUS
 10
114.5730336544
 20
182.7815035
  0
VERTEX
  8
2_FEATURE
 62
7
  6
CONTINUOUS
 10
114.6310240425
 20
182.7754871202
  0
VERTEX
  8
2_FEATURE
 62
7
  6
CONTINUOUS
 10
114.6785544437
 20
182.7716099622
  0
SEQEND
  0
POLYLINE
  8
2_FEATURE
 62
7
  6
CONTINUOUS
 66
1
 70
0
  0
VERTEX
  8
2_FEATURE
 62
7
  6
CONTINUOUS
 10
114.3578216251
 20
182.8030399017
  0
VERTEX
  8
2_FEATURE
 62
7
  6
CONTINUOUS
 10
114.524696401
 20
182.7850111599
  0
VERTEX
  8
2_FEATURE
 62
7
  6
CONTINUOUS
 10
114.5975381138
 20
182.7775057104
  0
VERTEX
  8
2_FEATURE
 62
7
  6
CONTINUOUS
 10
114.6625236118
 20
182.7721590112
  0
VERTEX
  8
2_FEATURE
 62
7
  6
CONTINUOUS
 10
114.7142890284
 20
182.7702596878
  0
SEQEND
  0
LINE
  8
0
 62
7
  6
CONTINUOUS
 10
69.8506101781
 20
191.8288806016
 11
70.2163568775
 21
191.5702586303
  0
LINE
  8
0
 62
7
  6
CONTINUOUS
 10
69.8506101781
 20
192.3202586303
 11
70.5638136137
 21
191.8159476446
  0
LINE
  8
0
 62
7
  6
CONTINUOUS
 10
70.9112703499
 20
192.0616366589
 11
71.6061838223
 21
191.5702586303
  0
LINE
  8
0
 62
7
  6
CONTINUOUS
 10
70.9112703499
 20
192.3202586303
 11
71.4416004358
 21
191.9452586303
  0
LINE
  8
0
 62
7
  6
CONTINUOUS
 10
71.9719305217
 20
191.8288806016
 11
72.3376772211
 21
191.5702586303
  0
LINE
  8
0
 62
7
  6
CONTINUOUS
 10
71.9719305217
 20
192.3202586303
 11
72.6851339573
 21
191.8159476446
  0
LINE
  8
0
 62
7
  6
CONTINUOUS
 10
73.0325906935
 20
192.0616366589
 11
73.7275041658
 21
191.5702586303
  0
LINE
  8
0
 62
7
  6
CONTINUOUS
 10
73.0325906935
 20
192.3202586303
 11
73.5629207793
 21
191.9452586303
  0
LINE
  8
0
 62
7
  6
CONTINUOUS
 10
80.4572118959
 20
191.8288806016
 11
80.4572118959
 21
192.3202586303
  0
LINE
  8
0
 62
7
  6
CONTINUOUS
 10
86.107969491
 20
191.8159476446
 11
86.8211729266
 21
192.3202586303
  0
LINE
  8
0
 62
7
  6
CONTINUOUS
 10
86.4554262272
 20
191.5702586303
 11
86.8211729266
 21
191.8288806016
  0
LINE
  8
0
 62
7
  6
CONTINUOUS
 10
87.3515030125
 20
191.9452586303
 11
87.8818330984
 21
192.3202586303
  0
LINE
  8
0
 62
7
  6
CONTINUOUS
 10
87.186919626
 20
191.5702586303
 11
87.8818330984
 21
192.0616366589
  0
LINE
  8
0
 62
7
  6
CONTINUOUS
 10
88.2292898346
 20
191.8159476446
 11
88.9424932702
 21
192.3202586303
  0
LINE
  8
0
 62
7
  6
CONTINUOUS
 10
88.5767465707
 20
191.5702586303
 11
88.9424932702
 21
191.8288806016
  0
LINE
  8
0
 62
7
  6
CONTINUOUS
 10
89.472823356
 20
191.9452586303
 11
90.0031534419
 21
192.3202586303
  0
LINE
  8
0
 62
7
  6
CONTINUOUS
 10
89.3082399696
 20
191.5702586303
 11
90.0031534419
 21
192.0616366589
  0
LINE
  8
0
 62
7
  6
CONTINUOUS
 10
90.3506101781
 20
191.8159476446
 11
91.0638136137
 21
192.3202586303
  0
LINE
  8
2_FEATURE
 62
2
  6
CONTINUOUS
 10
41.4815517241
 20
188.5702586303
 11
117.3115517241
 21
188.5702586303
  0
LINE
  8
0
 62
7
  6
CONTINUOUS
 10
74.0932508652
 20
191.8288806016
 11
74.4589975647
 21
191.5702586303
  0
LINE
  8
0
 62
7
  6
CONTINUOUS
 10
74.0932508652
 20
192.3202586303
 11
74.8064543008
 21
191.8159476446
  0
LINE
  8
0
 62
7
  6
CONTINUOUS
 10
75.153911037
 20
192.0616366589
 11
75.8488245094
 21
191.5702586303
  0
LINE
  8
0
 62
7
  6
CONTINUOUS
 10
75.153911037
 20
192.3202586303
 11
75.6842411229
 21
191.9452586303
  0
LINE
  8
0
 62
7
  6
CONTINUOUS
 10
76.2145712088
 20
191.8288806016
 11
76.5803179082
 21
191.5702586303
  0
LINE
  8
0
 62
7
  6
CONTINUOUS
 10
76.2145712088
 20
192.3202586303
 11
76.9277746444
 21
191.8159476446
  0
LINE
  8
0
 62
7
  6
CONTINUOUS
 10
77.2752313806
 20
192.0616366589
 11
77.9701448529
 21
191.5702586303
  0
LINE
  8
0
 62
7
  6
CONTINUOUS
 10
78.3358915524
 20
191.8288806016
 11
78.7016382518
 21
191.5702586303
  0
POLYLINE
  8
2_FEATURE
 62
7
  6
CONTINUOUS
 66
1
 70
0
  0
VERTEX
  8
2_FEATURE
 62
7
  6
CONTINUOUS
 10
77.2752313806
 20
192.2942105484
  0
VERTEX
  8
2_FEATURE
 62
7
  6
CONTINUOUS
 10
77.5216525718
 20
192.0439700758
  0
VERTEX
  8
2_FEATURE
 62
7
  6
CONTINUOUS
 10
77.7000528938
 20
191.8706528031
  0
SEQEND
  0
LINE
  8
0
 62
7
  6
CONTINUOUS
 10
82.5785322395
 20
191.8288806016
 11
82.5785322395
 21
192.3202586303
  0
LINE
  8
0
 62
7
  6
CONTINUOUS
 10
83.6391924113
 20
192.0616366589
 11
83.6391924113
 21
192.3202586303
  0
LINE
  8
0
 62
7
  6
CONTINUOUS
 10
84.699852583
 20
191.8288806016
 11
84.699852583
 21
192.3202586303
  0
LINE
  8
0
 62
7
  6
CONTINUOUS
 10
90.6980669143
 20
191.5702586303
 11
91.0638136137
 21
191.8288806016
  0
LINE
  8
0
 62
7
  6
CONTINUOUS
 10
91.5941436996
 20
191.9452586303
 11
92.1244737855
 21
192.3202586303
  0
LINE
  8
0
 62
7
  6
CONTINUOUS
 10
91.4295603131
 20
191.5702586303
 11
92.1244737855
 21
192.0616366589
  0
LINE
  8
0
 62
7
  6
CONTINUOUS
 10
92.4719305217
 20
191.8159476446
 11
93.1851339573
 21
192.3202586303
  0
LINE
  8
0
 62
7
  6
CONTINUOUS
 10
92.8193872579
 20
191.5702586303
 11
93.1851339573
 21
191.8288806016
  0
LINE
  8
0
 62
7
  6
CONTINUOUS
 10
93.7154640432
 20
191.9452586303
 11
94.2457941291
 21
192.3202586303
  0
LINE
  8
0
 62
7
  6
CONTINUOUS
 10
93.5508806567
 20
191.5702586303
 11
94.2457941291
 21
192.0616366589
  0
LINE
  8
0
 62
7
  6
CONTINUOUS
 10
94.5932508652
 20
191.8159476446
 11
95.3064543008
 21
192.3202586303
  0
LINE
  8
2_FEATURE
 62
7
  6
CONTINUOUS
 10
47.0033821956
 20
191.5702586303
 11
111.7897212527
 21
191.5702586303
  0
LINE
  8
2_FEATURE
 62
7
  6
CONTINUOUS
 10
81.8751936109
 20
191.8229231165
 11
81.8405075632
 21
191.8334989122
  0
POLYLINE
  8
2_FEATURE
 62
7
  6
CONTINUOUS
 66
1
 70
0
  0
VERTEX
  8
2_FEATURE
 62
7
  6
CONTINUOUS
 10
81.5178720677
 20
192.2942105484
  0
VERTEX
  8
2_FEATURE
 62
7
  6
CONTINUOUS
 10
81.5564654207
 20
192.2798491042
  0
VERTEX
  8
2_FEATURE
 62
7
  6
CONTINUOUS
 10
81.594783105
 20
192.2658743142
  0
SEQEND
  0
LINE
  8
0
 62
7
  6
CONTINUOUS
 10
78.3358915524
 20
192.3202586303
 11
79.049094988
 21
191.8159476446
  0
LINE
  8
0
 62
7
  6
CONTINUOUS
 10
79.3965517241
 20
192.0616366589
 11
80.0914651965
 21
191.5702586303
  0
LINE
  8
0
 62
7
  6
CONTINUOUS
 10
80.4572118959
 20
191.8288806016
 11
80.8229585953
 21
191.5702586303
  0
LINE
  8
0
 62
7
  6
CONTINUOUS
 10
80.4572118959
 20
192.3202586303
 11
81.1704153315
 21
191.8159476446
  0
LINE
  8
0
 62
7
  6
CONTINUOUS
 10
81.5178720677
 20
192.0616366589
 11
82.2127855401
 21
191.5702586303
  0
LINE
  8
2_FEATURE
 62
7
  6
CONTINUOUS
 10
81.594783105
 20
192.2658743142
 11
82.0482021536
 21
191.9452586303
  0
LINE
  8
0
 62
7
  6
CONTINUOUS
 10
82.5785322395
 20
191.8288806016
 11
82.9442789389
 21
191.5702586303
  0
POLYLINE
  8
2_FEATURE
 62
7
  6
CONTINUOUS
 66
1
 70
0
  0
VERTEX
  8
2_FEATURE
 62
7
  6
CONTINUOUS
 10
81.594783105
 20
192.2658743142
  0
VERTEX
  8
2_FEATURE
 62
7
  6
CONTINUOUS
 10
81.8060369709
 20
192.0389144865
  0
VERTEX
  8
2_FEATURE
 62
7
  6
CONTINUOUS
 10
81.9511425644
 20
191.8766271366
  0
SEQEND
  0
LINE
  8
2_FEATURE
 62
7
  6
CONTINUOUS
 10
85.880431573
 20
191.061532427
 11
86.0165810795
 21
183.261532427
  0
LINE
  8
0
 62
7
  6
CONTINUOUS
 10
85.7605127548
 20
192.0616366589
 11
85.7605127548
 21
192.3202586303
  0
LINE
  8
0
 62
7
  6
CONTINUOUS
 10
86.8211729266
 20
191.8288806016
 11
86.8211729266
 21
192.3202586303
  0
LINE
  8
0
 62
7
  6
CONTINUOUS
 10
94.9407076014
 20
191.5702586303
 11
95.3064543008
 21
191.8288806016
  0
LINE
  8
0
 62
7
  6
CONTINUOUS
 10
95.8367843867
 20
191.9452586303
 11
96.3671144726
 21
192.3202586303
  0
LINE
  8
0
 62
7
  6
CONTINUOUS
 10
95.6722010002
 20
191.5702586303
 11
96.3671144726
 21
192.0616366589
  0
LINE
  8
0
 62
7
  6
CONTINUOUS
 10
96.7145712088
 20
191.8159476446
 11
97.4277746444
 21
192.3202586303
  0
LINE
  8
0
 62
7
  6
CONTINUOUS
 10
97.062027945
 20
191.5702586303
 11
97.4277746444
 21
191.8288806016
  0
LINE
  8
0
 62
7
  6
CONTINUOUS
 10
97.9581047303
 20
191.9452586303
 11
98.4884348162
 21
192.3202586303
  0
LINE
  8
0
 62
7
  6
CONTINUOUS
 10
97.7935213438
 20
191.5702586303
 11
98.4884348162
 21
192.0616366589
  0
LINE
  8
0
 62
7
  6
CONTINUOUS
 10
98.8358915524
 20
191.8159476446
 11
99.549094988
 21
192.3202586303
  0
LINE
  8
0
 62
7
  6
CONTINUOUS
 10
41.8466894115
 20
191.1210163891
 11
46.9598043242
 21
191.5683559793
  0
LINE
  8
0
 62
7
  6
CONTINUOUS
 10
116.9464140367
 20
191.1210163891
 11
111.8332991241
 21
191.5683559793
  0
LINE
  8
0
 62
7
  6
CONTINUOUS
 10
82.5785322395
 20
192.3202586303
 11
83.2917356751
 21
191.8159476446
  0
LINE
  8
0
 62
7
  6
CONTINUOUS
 10
83.6391924113
 20
192.0616366589
 11
84.3341058836
 21
191.5702586303
  0
LINE
  8
0
 62
7
  6
CONTINUOUS
 10
83.6391924113
 20
192.3202586303
 11
84.1695224971
 21
191.9452586303
  0
LINE
  8
0
 62
7
  6
CONTINUOUS
 10
84.699852583
 20
191.8288806016
 11
85.0655992825
 21
191.5702586303
  0
LINE
  8
0
 62
7
  6
CONTINUOUS
 10
84.699852583
 20
192.3202586303
 11
85.4130560186
 21
191.8159476446
  0
LINE
  8
0
 62
7
  6
CONTINUOUS
 10
85.7605127548
 20
192.0616366589
 11
86.4554262272
 21
191.5702586303
  0
LINE
  8
0
 62
7
  6
CONTINUOUS
 10
85.7605127548
 20
192.3202586303
 11
86.2908428407
 21
191.9452586303
  0
LINE
  8
0
 62
7
  6
CONTINUOUS
 10
86.8211729266
 20
191.8288806016
 11
87.186919626
 21
191.5702586303
  0
LINE
  8
0
 62
7
  6
CONTINUOUS
 10
87.8818330984
 20
192.0616366589
 11
87.8818330984
 21
192.3202586303
  0
LINE
  8
0
 62
40
  6
CONTINUOUS
 10
88.8965517241
 20
182.7702586303
 11
88.8965517241
 21
191.5702586303
  0
LINE
  8
0
 62
7
  6
CONTINUOUS
 10
88.9424932702
 20
191.8288806016
 11
88.9424932702
 21
192.3202586303
  0
LINE
  8
0
 62
7
  6
CONTINUOUS
 10
99.1833482885
 20
191.5702586303
 11
99.549094988
 21
191.8288806016
  0
LINE
  8
0
 62
7
  6
CONTINUOUS
 10
100.0794250738
 20
191.9452586303
 11
100.6097551597
 21
192.3202586303
  0
LINE
  8
0
 62
7
  6
CONTINUOUS
 10
99.9148416874
 20
191.5702586303
 11
100.6097551597
 21
192.0616366589
  0
LINE
  8
0
 62
7
  6
CONTINUOUS
 10
100.9572118959
 20
191.8159476446
 11
101.6704153315
 21
192.3202586303
  0
LINE
  8
0
 62
7
  6
CONTINUOUS
 10
101.3046686321
 20
191.5702586303
 11
101.6704153315
 21
191.8288806016
  0
LINE
  8
0
 62
7
  6
CONTINUOUS
 10
102.2007454174
 20
191.9452586303
 11
102.7310755033
 21
192.3202586303
  0
LINE
  8
0
 62
7
  6
CONTINUOUS
 10
102.0361620309
 20
191.5702586303
 11
102.7310755033
 21
192.0616366589
  0
LINE
  8
0
 62
7
  6
CONTINUOUS
 10
103.0785322395
 20
191.8159476446
 11
103.7917356751
 21
192.3202586303
  0
LINE
  8
0
 62
7
  6
CONTINUOUS
 10
86.8211729266
 20
192.3202586303
 11
87.5343763622
 21
191.8159476446
  0
LINE
  8
0
 62
7
  6
CONTINUOUS
 10
87.8818330984
 20
192.0616366589
 11
88.5767465707
 21
191.5702586303
  0
LINE
  8
0
 62
7
  6
CONTINUOUS
 10
87.8818330984
 20
192.3202586303
 11
88.4121631843
 21
191.9452586303
  0
LINE
  8
0
 62
7
  6
CONTINUOUS
 10
88.9424932702
 20
191.8288806016
 11
89.3082399696
 21
191.5702586303
  0
LINE
  8
0
 62
7
  6
CONTINUOUS
 10
88.9424932702
 20
192.3202586303
 11
89.6556967058
 21
191.8159476446
  0
LINE
  8
0
 62
7
  6
CONTINUOUS
 10
90.0031534419
 20
192.0616366589
 11
90.6980669143
 21
191.5702586303
  0
LINE
  8
0
 62
7
  6
CONTINUOUS
 10
90.0031534419
 20
192.3202586303
 11
90.5334835278
 21
191.9452586303
  0
LINE
  8
0
 62
7
  6
CONTINUOUS
 10
91.0638136137
 20
191.8288806016
 11
91.4295603131
 21
191.5702586303
  0
LINE
  8
0
 62
7
  6
CONTINUOUS
 10
90.0031534419
 20
192.0616366589
 11
90.0031534419
 21
192.3202586303
  0
LINE
  8
0
 62
7
  6
CONTINUOUS
 10
91.0638136137
 20
191.8288806016
 11
91.0638136137
 21
192.3202586303
  0
LINE
  8
0
 62
7
  6
CONTINUOUS
 10
92.1244737855
 20
192.0616366589
 11
92.1244737855
 21
192.3202586303
  0
LINE
  8
2_FEATURE
 62
7
  6
CONTINUOUS
 10
91.8265223688
 20
183.261532427
 11
91.9626718752
 21
191.061532427
  0
LINE
  8
0
 62
7
  6
CONTINUOUS
 10
103.4259889757
 20
191.5702586303
 11
103.7917356751
 21
191.8288806016
  0
LINE
  8
0
 62
7
  6
CONTINUOUS
 10
104.322065761
 20
191.9452586303
 11
104.8523958469
 21
192.3202586303
  0
LINE
  8
0
 62
7
  6
CONTINUOUS
 10
104.1574823745
 20
191.5702586303
 11
104.8523958469
 21
192.0616366589
  0
LINE
  8
0
 62
7
  6
CONTINUOUS
 10
105.199852583
 20
191.8159476446
 11
105.9130560186
 21
192.3202586303
  0
LINE
  8
0
 62
7
  6
CONTINUOUS
 10
105.5473093192
 20
191.5702586303
 11
105.9130560186
 21
191.8288806016
  0
LINE
  8
0
 62
7
  6
CONTINUOUS
 10
106.4433861045
 20
191.9452586303
 11
106.9737161904
 21
192.3202586303
  0
LINE
  8
0
 62
7
  6
CONTINUOUS
 10
106.278802718
 20
191.5702586303
 11
106.9737161904
 21
192.0616366589
  0
LINE
  8
0
 62
7
  6
CONTINUOUS
 10
107.3211729266
 20
191.8159476446
 11
108.0343763622
 21
192.3202586303
  0
LINE
  8
0
 62
7
  6
CONTINUOUS
 10
107.6686296628
 20
191.5702586303
 11
108.0343763622
 21
191.8288806016
  0
LINE
  8
0
 62
7
  6
CONTINUOUS
 10
91.0638136137
 20
192.3202586303
 11
91.7770170493
 21
191.8159476446
  0
LINE
  8
0
 62
7
  6
CONTINUOUS
 10
92.1244737855
 20
192.0616366589
 11
92.8193872579
 21
191.5702586303
  0
LINE
  8
0
 62
7
  6
CONTINUOUS
 10
92.1244737855
 20
192.3202586303
 11
92.6548038714
 21
191.9452586303
  0
LINE
  8
0
 62
7
  6
CONTINUOUS
 10
93.1851339573
 20
191.8288806016
 11
93.5508806567
 21
191.5702586303
  0
LINE
  8
0
 62
7
  6
CONTINUOUS
 10
93.1851339573
 20
192.3202586303
 11
93.8983373929
 21
191.8159476446
  0
LINE
  8
0
 62
7
  6
CONTINUOUS
 10
94.2457941291
 20
192.0616366589
 11
94.9407076014
 21
191.5702586303
  0
LINE
  8
0
 62
7
  6
CONTINUOUS
 10
94.2457941291
 20
192.3202586303
 11
94.7761242149
 21
191.9452586303
  0
LINE
  8
0
 62
7
  6
CONTINUOUS
 10
95.3064543008
 20
191.8288806016
 11
95.6722010002
 21
191.5702586303
  0
LINE
  8
0
 62
7
  6
CONTINUOUS
 10
93.1851339573
 20
191.8288806016
 11
93.1851339573
 21
192.3202586303
  0
LINE
  8
0
 62
7
  6
CONTINUOUS
 10
94.2457941291
 20
192.0616366589
 11
94.2457941291
 21
192.3202586303
  0
LINE
  8
0
 62
7
  6
CONTINUOUS
 10
108.5647064481
 20
191.9452586303
 11
108.8965517241
 21
192.1799086753
  0
LINE
  8
0
 62
7
  6
CONTINUOUS
 10
108.8965517241
 20
191.9212867039
 11
108.4001230616
 21
191.5702586303
  0
LINE
  8
0
 62
7
  6
CONTINUOUS
 10
95.3064543008
 20
192.3202586303
 11
96.0196577364
 21
191.8159476446
  0
LINE
  8
0
 62
7
  6
CONTINUOUS
 10
96.3671144726
 20
192.0616366589
 11
97.062027945
 21
191.5702586303
  0
LINE
  8
0
 62
7
  6
CONTINUOUS
 10
96.3671144726
 20
192.3202586303
 11
96.8974445585
 21
191.9452586303
  0
LINE
  8
0
 62
7
  6
CONTINUOUS
 10
97.4277746444
 20
191.8288806016
 11
97.7935213438
 21
191.5702586303
  0
LINE
  8
0
 62
7
  6
CONTINUOUS
 10
97.4277746444
 20
192.3202586303
 11
98.14097808
 21
191.8159476446
  0
LINE
  8
0
 62
7
  6
CONTINUOUS
 10
98.4884348162
 20
192.0616366589
 11
99.1833482885
 21
191.5702586303
  0
LINE
  8
0
 62
7
  6
CONTINUOUS
 10
98.4884348162
 20
192.3202586303
 11
99.0187649021
 21
191.9452586303
  0
LINE
  8
0
 62
7
  6
CONTINUOUS
 10
99.549094988
 20
191.8288806016
 11
99.9148416874
 21
191.5702586303
  0
LINE
  8
0
 62
7
  6
CONTINUOUS
 10
99.549094988
 20
192.3202586303
 11
100.2622984236
 21
191.8159476446
  0
LINE
  8
0
 62
7
  6
CONTINUOUS
 10
95.3064543008
 20
191.8288806016
 11
95.3064543008
 21
192.3202586303
  0
LINE
  8
0
 62
7
  6
CONTINUOUS
 10
96.3671144726
 20
192.0616366589
 11
96.3671144726
 21
192.3202586303
  0
LINE
  8
0
 62
7
  6
CONTINUOUS
 10
97.4277746444
 20
191.8288806016
 11
97.4277746444
 21
192.3202586303
  0
LINE
  8
0
 62
7
  6
CONTINUOUS
 10
100.6097551597
 20
192.0616366589
 11
101.3046686321
 21
191.5702586303
  0
LINE
  8
0
 62
7
  6
CONTINUOUS
 10
100.6097551597
 20
192.3202586303
 11
101.1400852456
 21
191.9452586303
  0
LINE
  8
0
 62
7
  6
CONTINUOUS
 10
101.6704153315
 20
191.8288806016
 11
102.0361620309
 21
191.5702586303
  0
LINE
  8
0
 62
7
  6
CONTINUOUS
 10
101.6704153315
 20
192.3202586303
 11
102.3836187671
 21
191.8159476446
  0
LINE
  8
0
 62
7
  6
CONTINUOUS
 10
102.7310755033
 20
192.0616366589
 11
103.4259889757
 21
191.5702586303
  0
LINE
  8
0
 62
7
  6
CONTINUOUS
 10
102.7310755033
 20
192.3202586303
 11
103.2614055892
 21
191.9452586303
  0
LINE
  8
0
 62
7
  6
CONTINUOUS
 10
103.7917356751
 20
191.8288806016
 11
104.1574823745
 21
191.5702586303
  0
LINE
  8
0
 62
7
  6
CONTINUOUS
 10
103.7917356751
 20
192.3202586303
 11
104.5049391107
 21
191.8159476446
  0
LINE
  8
2_FEATURE
 62
7
  6
CONTINUOUS
 10
98.580431573
 20
191.061532427
 11
98.7165810795
 21
183.261532427
  0
LINE
  8
0
 62
7
  6
CONTINUOUS
 10
98.4884348162
 20
192.0616366589
 11
98.4884348162
 21
192.3202586303
  0
LINE
  8
0
 62
7
  6
CONTINUOUS
 10
99.549094988
 20
191.8288806016
 11
99.549094988
 21
192.3202586303
  0
LINE
  8
0
 62
7
  6
CONTINUOUS
 10
104.8523958469
 20
192.0616366589
 11
105.5473093192
 21
191.5702586303
  0
LINE
  8
0
 62
7
  6
CONTINUOUS
 10
104.8523958469
 20
192.3202586303
 11
105.3827259327
 21
191.9452586303
  0
LINE
  8
0
 62
7
  6
CONTINUOUS
 10
105.9130560186
 20
191.8288806016
 11
106.278802718
 21
191.5702586303
  0
LINE
  8
0
 62
7
  6
CONTINUOUS
 10
105.9130560186
 20
192.3202586303
 11
106.6262594542
 21
191.8159476446
  0
LINE
  8
0
 62
7
  6
CONTINUOUS
 10
106.9737161904
 20
192.0616366589
 11
107.6686296628
 21
191.5702586303
  0
LINE
  8
0
 62
7
  6
CONTINUOUS
 10
106.9737161904
 20
192.3202586303
 11
107.5040462763
 21
191.9452586303
  0
LINE
  8
0
 62
7
  6
CONTINUOUS
 10
108.0343763622
 20
191.8288806016
 11
108.4001230616
 21
191.5702586303
  0
LINE
  8
0
 62
7
  6
CONTINUOUS
 10
108.0343763622
 20
192.3202586303
 11
108.7475797978
 21
191.8159476446
  0
LINE
  8
0
 62
7
  6
CONTINUOUS
 10
100.6097551597
 20
192.0616366589
 11
100.6097551597
 21
192.3202586303
  0
LINE
  8
0
 62
7
  6
CONTINUOUS
 10
101.6704153315
 20
191.8288806016
 11
101.6704153315
 21
192.3202586303
  0
LINE
  8
0
 62
7
  6
CONTINUOUS
 10
102.7310755033
 20
192.0616366589
 11
102.7310755033
 21
192.3202586303
  0
LINE
  8
0
 62
7
  6
CONTINUOUS
 10
103.7917356751
 20
191.8288806016
 11
103.7917356751
 21
192.3202586303
  0
LINE
  8
0
 62
7
  6
CONTINUOUS
 10
104.8523958469
 20
192.0616366589
 11
104.8523958469
 21
192.3202586303
  0
LINE
  8
2_FEATURE
 62
7
  6
CONTINUOUS
 10
104.5265223688
 20
183.261532427
 11
104.6626718752
 21
191.061532427
  0
LINE
  8
2_FEATURE
 62
7
  6
CONTINUOUS
 10
102.8878610154
 20
183.9989024535
 11
102.7803686093
 21
182.7702586303
  0
POLYLINE
  8
2_FEATURE
 62
7
  6
CONTINUOUS
 66
1
 70
0
  0
VERTEX
  8
2_FEATURE
 62
7
  6
CONTINUOUS
 10
102.8878610154
 20
183.9989024535
  0
VERTEX
  8
2_FEATURE
 62
7
  6
CONTINUOUS
 10
102.8950848111
 20
184.0401269519
  0
VERTEX
  8
2_FEATURE
 62
7
  6
CONTINUOUS
 10
102.909557713
 20
184.0815371414
  0
VERTEX
  8
2_FEATURE
 62
7
  6
CONTINUOUS
 10
102.9304809718
 20
184.1209817299
  0
VERTEX
  8
2_FEATURE
 62
7
  6
CONTINUOUS
 10
102.9563575584
 20
184.1565034696
  0
VERTEX
  8
2_FEATURE
 62
7
  6
CONTINUOUS
 10
102.985347562
 20
184.1867521797
  0
VERTEX
  8
2_FEATURE
 62
7
  6
CONTINUOUS
 10
103.0157437166
 20
184.2111964848
  0
VERTEX
  8
2_FEATURE
 62
7
  6
CONTINUOUS
 10
103.0462666114
 20
184.2299780879
  0
VERTEX
  8
2_FEATURE
 62
7
  6
CONTINUOUS
 10
103.0762774236
 20
184.2436801761
  0
VERTEX
  8
2_FEATURE
 62
7
  6
CONTINUOUS
 10
103.1054004014
 20
184.2528930533
  0
VERTEX
  8
2_FEATURE
 62
7
  6
CONTINUOUS
 10
103.1338996118
 20
184.2582131004
  0
VERTEX
  8
2_FEATURE
 62
7
  6
CONTINUOUS
 10
103.1616531174
 20
184.2599321881
  0
SEQEND
  0
LINE
  8
0
 62
7
  6
CONTINUOUS
 10
105.9130560186
 20
191.8288806016
 11
105.9130560186
 21
192.3202586303
  0
LINE
  8
0
 62
7
  6
CONTINUOUS
 10
106.9737161904
 20
192.0616366589
 11
106.9737161904
 21
192.3202586303
  0
LINE
  8
0
 62
7
  6
CONTINUOUS
 10
108.0343763622
 20
191.8288806016
 11
108.0343763622
 21
192.3202586303
  0
LINE
  8
0
 62
7
  6
CONTINUOUS
 10
108.8965517241
 20
191.5702586303
 11
108.8965517241
 21
192.1799086753
  0
LINE
  8
2_FEATURE
 62
7
  6
CONTINUOUS
 10
111.280431573
 20
191.061532427
 11
111.4165810795
 21
183.261532427
  0
LINE
  8
2_FEATURE
 62
2
  6
CONTINUOUS
 10
117.3115517241
 20
188.5702586303
 11
117.3115517241
 21
182.7702586677
  0
LINE
  8
0
 62
7
  6
CONTINUOUS
 10
117.3115517241
 20
190.7225385113
 11
117.3115517241
 21
183.1702586303
  0
LINE
  8
0
 62
2
  6
CONTINUOUS
 10
156.3918534579
 20
116.5974137931
 11
154.6318534579
 21
116.5974137931
  0
LINE
  8
DEFAULT_1
 62
2
  6
CENTER
 10
151.1118534579
 20
116.5974137931
 11
150.9118534579
 21
116.5974137931
  0
LINE
  8
DEFAULT_1
 62
2
  6
CENTER
 10
159.9118534579
 20
116.5974137931
 11
160.1118534579
 21
116.5974137931
  0
LINE
  8
0
 62
7
  6
CONTINUOUS
 10
151.6118534579
 20
121.3974137931
 11
155.5118534579
 21
121.3974137931
  0
LINE
  8
0
 62
7
  6
CONTINUOUS
 10
151.1118534579
 20
141.9974137931
 11
151.1118534579
 21
121.7641214736
  0
LINE
  8
2_FEATURE
 62
7
  6
CONTINUOUS
 10
151.1118534579
 20
116.5974137931
 11
151.1118534579
 21
121.8974137931
  0
LINE
  8
0
 62
7
  6
CONTINUOUS
 10
159.9118534579
 20
123.5474137931
 11
160.4032314865
 21
123.5474137931
  0
LINE
  8
2_FEATURE
 62
2
  6
CONTINUOUS
 10
155.5118534579
 20
124.0174137931
 11
156.9118534579
 21
124.0174137931
  0
LINE
  8
0
 62
7
  6
CONTINUOUS
 10
160.0522034129
 20
124.2423272655
 11
160.6618534579
 21
124.2423272655
  0
LINE
  8
0
 62
7
  6
CONTINUOUS
 10
160.5215035029
 20
125.3029874373
 11
160.6618534579
 21
125.3029874373
  0
LINE
  8
0
 62
7
  6
CONTINUOUS
 10
160.0522034129
 20
126.363647609
 11
160.6618534579
 21
126.363647609
  0
LINE
  8
0
 62
7
  6
CONTINUOUS
 10
160.5215035029
 20
127.4243077808
 11
160.6618534579
 21
127.4243077808
  0
LINE
  8
0
 62
2
  6
CONTINUOUS
 10
155.5118534579
 20
142.8774137931
 11
155.5118534579
 21
141.1174137931
  0
LINE
  8
DEFAULT_1
 62
2
  6
CENTER
 10
155.5118534579
 20
137.5974137931
 11
155.5118534579
 21
137.3974137931
  0
LINE
  8
0
 62
2
  6
CONTINUOUS
 10
155.5118534579
 20
117.4774137931
 11
155.5118534579
 21
115.7174137931
  0
LINE
  8
DEFAULT_1
 62
2
  6
CENTER
 10
155.5118534579
 20
112.1974137931
 11
155.5118534579
 21
111.9974137931
  0
LINE
  8
DEFAULT_1
 62
2
  6
CENTER
 10
155.5118534579
 20
120.9974137931
 11
155.5118534579
 21
121.1974137931
  0
LINE
  8
DEFAULT_1
 62
2
  6
CENTER
 10
155.5118534579
 20
146.3974137931
 11
155.5118534579
 21
146.5974137931
  0
LINE
  8
0
 62
7
  6
CONTINUOUS
 10
160.0522034129
 20
128.4849679526
 11
160.6618534579
 21
128.4849679526
  0
LINE
  8
1_AXIS
 62
2
  6
CENTER
 10
148.8771617125
 20
129.2974137931
 11
162.6618534579
 21
129.2974137931
  0
LINE
  8
0
 62
7
  6
CONTINUOUS
 10
160.0522034129
 20
134.8489289833
 11
159.9118534579
 21
134.6504441734
  0
LINE
  8
0
 62
7
  6
CONTINUOUS
 10
160.2166784804
 20
134.2193564925
 11
160.6618534579
 21
134.8489289833
  0
LINE
  8
0
 62
7
  6
CONTINUOUS
 10
160.5215035029
 20
133.7882688115
 11
159.9118534579
 21
132.9260934495
  0
LINE
  8
0
 62
7
  6
CONTINUOUS
 10
160.2868534579
 20
133.2579387256
 11
160.6618534579
 21
133.7882688115
  0
LINE
  8
0
 62
7
  6
CONTINUOUS
 10
160.5215035029
 20
129.5456281244
 11
160.6618534579
 21
129.5456281244
  0
LINE
  8
0
 62
7
  6
CONTINUOUS
 10
160.0522034129
 20
130.6062882961
 11
160.6618534579
 21
130.6062882961
  0
LINE
  8
0
 62
7
  6
CONTINUOUS
 10
160.2628815315
 20
123.5474137931
 11
159.9118534579
 21
124.0438424556
  0
LINE
  8
0
 62
7
  6
CONTINUOUS
 10
160.4032314865
 20
123.5474137931
 11
160.2868534579
 21
123.7119971796
  0
LINE
  8
0
 62
7
  6
CONTINUOUS
 10
160.0522034129
 20
124.2423272655
 11
159.9118534579
 21
124.4408120753
  0
LINE
  8
0
 62
7
  6
CONTINUOUS
 10
160.6618534579
 20
124.2423272655
 11
160.2166784804
 21
124.8718997563
  0
LINE
  8
0
 62
7
  6
CONTINUOUS
 10
159.9118534579
 20
132.5291238299
 11
160.0522034129
 21
132.7276086397
  0
LINE
  8
0
 62
7
  6
CONTINUOUS
 10
160.2166784804
 20
132.0980361489
 11
160.6618534579
 21
132.7276086397
  0
LINE
  8
0
 62
7
  6
CONTINUOUS
 10
160.5215035029
 20
131.6669484679
 11
159.9118534579
 21
130.804773106
  0
LINE
  8
0
 62
7
  6
CONTINUOUS
 10
160.5215035029
 20
131.6669484679
 11
160.6618534579
 21
131.6669484679
  0
LINE
  8
0
 62
7
  6
CONTINUOUS
 10
160.5215035029
 20
125.3029874373
 11
159.9118534579
 21
126.1651627992
  0
LINE
  8
0
 62
7
  6
CONTINUOUS
 10
160.6618534579
 20
125.3029874373
 11
160.2868534579
 21
125.8333175231
  0
LINE
  8
0
 62
7
  6
CONTINUOUS
 10
159.9118534579
 20
126.5621324189
 11
160.0522034129
 21
126.363647609
  0
LINE
  8
0
 62
7
  6
CONTINUOUS
 10
160.6618534579
 20
126.363647609
 11
160.2166784804
 21
126.9932200998
  0
LINE
  8
0
 62
7
  6
CONTINUOUS
 10
160.2868534579
 20
131.136618382
 11
160.6618534579
 21
131.6669484679
  0
LINE
  8
0
 62
7
  6
CONTINUOUS
 10
159.9118534579
 20
130.4078034863
 11
160.0522034129
 21
130.6062882961
  0
LINE
  8
0
 62
7
  6
CONTINUOUS
 10
160.2166784804
 20
129.9767158053
 11
160.6618534579
 21
130.6062882961
  0
LINE
  8
0
 62
7
  6
CONTINUOUS
 10
160.5215035029
 20
129.5456281244
 11
159.9118534579
 21
128.6834527624
  0
LINE
  8
0
 62
7
  6
CONTINUOUS
 10
160.0522034129
 20
132.7276086397
 11
160.6618534579
 21
132.7276086397
  0
LINE
  8
0
 62
7
  6
CONTINUOUS
 10
160.5215035029
 20
127.4243077808
 11
159.9118534579
 21
128.2864831428
  0
LINE
  8
0
 62
7
  6
CONTINUOUS
 10
160.6618534579
 20
127.4243077808
 11
160.2868534579
 21
127.9546378667
  0
LINE
  8
0
 62
7
  6
CONTINUOUS
 10
159.9118534579
 20
128.6834527624
 11
160.0522034129
 21
128.4849679526
  0
LINE
  8
0
 62
7
  6
CONTINUOUS
 10
160.6618534579
 20
128.4849679526
 11
160.2166784804
 21
129.1145404434
  0
LINE
  8
2_FEATURE
 62
7
  6
CONTINUOUS
 10
159.9118534579
 20
116.5974137931
 11
159.9118534579
 21
141.9974137931
  0
LINE
  8
0
 62
7
  6
CONTINUOUS
 10
160.2868534579
 20
129.0152980385
 11
160.6618534579
 21
129.5456281244
  0
LINE
  8
0
 62
7
  6
CONTINUOUS
 10
159.9118534579
 20
128.2864831428
 11
160.0522034129
 21
128.4849679526
  0
LINE
  8
0
 62
7
  6
CONTINUOUS
 10
160.2166784804
 20
127.8553954618
 11
160.6618534579
 21
128.4849679526
  0
LINE
  8
0
 62
7
  6
CONTINUOUS
 10
160.5215035029
 20
127.4243077808
 11
159.9118534579
 21
126.5621324189
  0
LINE
  8
0
 62
7
  6
CONTINUOUS
 10
160.5215035029
 20
133.7882688115
 11
160.6618534579
 21
133.7882688115
  0
LINE
  8
0
 62
7
  6
CONTINUOUS
 10
160.5215035029
 20
129.5456281244
 11
159.9118534579
 21
130.4078034863
  0
LINE
  8
0
 62
7
  6
CONTINUOUS
 10
160.6618534579
 20
129.5456281244
 11
160.2868534579
 21
130.0759582103
  0
LINE
  8
0
 62
7
  6
CONTINUOUS
 10
159.9118534579
 20
130.804773106
 11
160.0522034129
 21
130.6062882961
  0
LINE
  8
0
 62
7
  6
CONTINUOUS
 10
160.6618534579
 20
130.6062882961
 11
160.2166784804
 21
131.235860787
  0
LINE
  8
0
 62
7
  6
CONTINUOUS
 10
160.2868534579
 20
126.8939776949
 11
160.6618534579
 21
127.4243077808
  0
LINE
  8
0
 62
7
  6
CONTINUOUS
 10
159.9118534579
 20
126.1651627992
 11
160.0522034129
 21
126.363647609
  0
LINE
  8
0
 62
7
  6
CONTINUOUS
 10
160.2166784804
 20
125.7340751182
 11
160.6618534579
 21
126.363647609
  0
LINE
  8
2_FEATURE
 62
2
  6
CONTINUOUS
 10
156.9118534579
 20
134.5774137931
 11
155.5118534579
 21
134.5774137931
  0
LINE
  8
0
 62
7
  6
CONTINUOUS
 10
160.0522034129
 20
134.8489289833
 11
160.6618534579
 21
134.8489289833
  0
LINE
  8
0
 62
7
  6
CONTINUOUS
 10
159.9118534579
 20
135.0474137931
 11
160.5215035029
 21
135.0474137931
  0
LINE
  8
0
 62
7
  6
CONTINUOUS
 10
160.5215035029
 20
131.6669484679
 11
159.9118534579
 21
132.5291238299
  0
LINE
  8
0
 62
7
  6
CONTINUOUS
 10
160.6618534579
 20
131.6669484679
 11
160.2868534579
 21
132.1972785538
  0
LINE
  8
0
 62
7
  6
CONTINUOUS
 10
159.9118534579
 20
132.9260934495
 11
160.0522034129
 21
132.7276086397
  0
LINE
  8
0
 62
7
  6
CONTINUOUS
 10
160.6618534579
 20
132.7276086397
 11
160.2166784804
 21
133.3571811305
  0
LINE
  8
0
 62
7
  6
CONTINUOUS
 10
160.5215035029
 20
125.3029874373
 11
159.9118534579
 21
124.4408120753
  0
LINE
  8
0
 62
7
  6
CONTINUOUS
 10
160.2868534579
 20
124.7726573514
 11
160.6618534579
 21
125.3029874373
  0
LINE
  8
0
 62
7
  6
CONTINUOUS
 10
159.9118534579
 20
124.0438424556
 11
160.0522034129
 21
124.2423272655
  0
LINE
  8
0
 62
7
  6
CONTINUOUS
 10
160.2166784804
 20
123.6127547747
 11
160.6618534579
 21
124.2423272655
  0
LINE
  8
0
 62
7
  6
CONTINUOUS
 10
160.5215035029
 20
133.7882688115
 11
159.9118534579
 21
134.6504441734
  0
LINE
  8
0
 62
7
  6
CONTINUOUS
 10
160.6618534579
 20
133.7882688115
 11
160.2868534579
 21
134.3185988974
  0
LINE
  8
0
 62
7
  6
CONTINUOUS
 10
159.9118534579
 20
135.0474137931
 11
160.0522034129
 21
134.8489289833
  0
LINE
  8
0
 62
7
  6
CONTINUOUS
 10
160.6618534579
 20
134.8489289833
 11
160.5215035029
 21
135.0474137931
  0
LINE
  8
0
 62
2
  6
CONTINUOUS
 10
156.3918534579
 20
141.9974137931
 11
154.6318534579
 21
141.9974137931
  0
LINE
  8
DEFAULT_1
 62
2
  6
CENTER
 10
151.1118534579
 20
141.9974137931
 11
150.9118534579
 21
141.9974137931
  0
LINE
  8
DEFAULT_1
 62
2
  6
CENTER
 10
159.9118534579
 20
141.9974137931
 11
160.1118534579
 21
141.9974137931
  0
ARC
  8
1_AXIS
 62
7
  6
CONTINUOUS
 10
77.1965517241
 20
128.5974137931
 40
0.8
 50
180.0
 51
270.0
  0
ARC
  8
1_AXIS
 62
7
  6
CONTINUOUS
 10
77.3965517241
 20
128.5199137931
 40
0.7225
 50
270.0
 51
326.1449738717
  0
ARC
  8
0
 62
7
  6
CONTINUOUS
 10
41.8815517241
 20
120.5188736713
 40
0.4
 50
180.0000000001
 51
265.7041805771
  0
ARC
  8
1_AXIS
 62
7
  6
CONTINUOUS
 10
77.5965517241
 20
128.7574137931
 40
0.4
 50
270.0
 51
360.0
  0
ARC
  8
1_AXIS
 62
7
  6
CONTINUOUS
 10
77.2765517241
 20
128.5574137931
 40
0.2
 50
180.0
 51
270.0
  0
ARC
  8
0
 62
7
  6
CONTINUOUS
 10
41.8815517241
 20
145.9974137931
 40
0.4
 50
90.0
 51
180.0000008312
  0
ARC
  8
1_AXIS
 62
7
  6
CONTINUOUS
 10
80.3165517241
 20
128.8374137931
 40
0.8
 50
0.0
 51
90.0
  0
ARC
  8
1_AXIS
 62
7
  6
CONTINUOUS
 10
80.1165517241
 20
128.9149137931
 40
0.7225
 50
90.0
 51
146.1449738717
  0
ARC
  8
0
 62
7
  6
CONTINUOUS
 10
116.9115517241
 20
112.5974137931
 40
0.4
 50
270.0
 51
0.0000013193
  0
ARC
  8
1_AXIS
 62
7
  6
CONTINUOUS
 10
79.9165517241
 20
128.6774137931
 40
0.4
 50
90.0
 51
180.0
  0
ARC
  8
1_AXIS
 62
7
  6
CONTINUOUS
 10
80.2365517241
 20
128.8774137931
 40
0.2
 50
0.0
 51
90.0
  0
CIRCLE
  8
2_FEATURE
 62
7
  6
CONTINUOUS
 10
79.3965517241
 20
129.2974137931
 40
5.0
  0
CIRCLE
  8
1_AXIS
 62
7
  6
CONTINUOUS
 10
81.6165517241
 20
130.7774137931
 40
1.02
  0
ARC
  8
0
 62
7
  6
CONTINUOUS
 10
116.9115517241
 20
138.0759539149
 40
0.4
 50
0.0000000005
 51
85.7041805771
  0
ARC
  8
2_FEATURE
 62
7
  6
CONTINUOUS
 10
48.4165049271
 20
183.2702586303
 40
0.5
 50
181.0
 51
270.0
  0
ARC
  8
0
 62
7
  6
CONTINUOUS
 10
53.2265985221
 20
183.2702586795
 40
0.5
 50
269.9999999015
 51
275.7449322842
  0
ARC
  8
2_FEATURE
 62
7
  6
CONTINUOUS
 10
65.9265985212
 20
183.2702586303
 40
0.5
 50
270.0
 51
359.0
  0
ARC
  8
2_FEATURE
 62
7
  6
CONTINUOUS
 10
78.6265985212
 20
183.2702586303
 40
0.5
 50
270.0
 51
359.0
  0
ARC
  8
2_FEATURE
 62
7
  6
CONTINUOUS
 10
73.8165049271
 20
183.2702586303
 40
0.5
 50
181.0
 51
270.0
  0
ARC
  8
2_FEATURE
 62
7
  6
CONTINUOUS
 10
61.1165049271
 20
183.2702586303
 40
0.5
 50
181.0
 51
270.0
  0
ARC
  8
2_FEATURE
 62
7
  6
CONTINUOUS
 10
53.2265985212
 20
183.2702586303
 40
0.5
 50
270.0
 51
359.0
  0
ARC
  8
0
 62
7
  6
CONTINUOUS
 10
41.8815517241
 20
183.1702586303
 40
0.4
 50
180.0
 51
270.0
  0
ARC
  8
2_FEATURE
 62
7
  6
CONTINUOUS
 10
47.0033821956
 20
191.0702586303
 40
0.5
 50
90.0
 51
95.0
  0
ARC
  8
2_FEATURE
 62
7
  6
CONTINUOUS
 10
48.2803554216
 20
191.0702585754
 40
0.5
 50
90.0000001098
 51
180.999993708
  0
ARC
  8
2_FEATURE
 62
7
  6
CONTINUOUS
 10
53.3627480277
 20
191.0702586303
 40
0.5
 50
359.0
 51
90.0
  0
ARC
  8
2_FEATURE
 62
7
  6
CONTINUOUS
 10
66.0627480277
 20
191.0702586303
 40
0.5
 50
359.0
 51
90.0
  0
ARC
  8
2_FEATURE
 62
7
  6
CONTINUOUS
 10
78.7627480277
 20
191.0702586303
 40
0.5
 50
359.0
 51
90.0
  0
ARC
  8
2_FEATURE
 62
7
  6
CONTINUOUS
 10
73.6803554216
 20
191.0702585754
 40
0.5
 50
90.0000001098
 51
180.999993708
  0
ARC
  8
2_FEATURE
 62
7
  6
CONTINUOUS
 10
60.9803554216
 20
191.0702585754
 40
0.5
 50
90.0000001098
 51
180.999993708
  0
ARC
  8
0
 62
7
  6
CONTINUOUS
 10
41.8815517241
 20
190.7225384417
 40
0.4
 50
95.000002229
 51
179.9999900311
  0
ARC
  8
2_FEATURE
 62
7
  6
CONTINUOUS
 10
104.0265985212
 20
183.2702586303
 40
0.5
 50
270.0
 51
359.0
  0
ARC
  8
2_FEATURE
 62
7
  6
CONTINUOUS
 10
91.3265985212
 20
183.2702586303
 40
0.5
 50
270.0
 51
359.0
  0
ARC
  8
2_FEATURE
 62
7
  6
CONTINUOUS
 10
111.9165049271
 20
183.2702586303
 40
0.5
 50
181.0
 51
270.0
  0
ARC
  8
2_FEATURE
 62
7
  6
CONTINUOUS
 10
99.2165049271
 20
183.2702586303
 40
0.5
 50
181.0
 51
270.0
  0
ARC
  8
2_FEATURE
 62
7
  6
CONTINUOUS
 10
86.5165049271
 20
183.2702586303
 40
0.5
 50
181.0
 51
270.0
  0
ARC
  8
0
 62
7
  6
CONTINUOUS
 10
91.5784291349
 20
183.2702586303
 40
0.5
 50
260.4074671136
 51
270.0
  0
ARC
  8
0
 62
7
  6
CONTINUOUS
 10
116.9115517241
 20
183.1702586303
 40
0.4
 50
270.0
 51
360.0
  0
ARC
  8
2_FEATURE
 62
7
  6
CONTINUOUS
 10
111.7897212527
 20
191.0702586303
 40
0.5
 50
85.0
 51
90.0
  0
ARC
  8
2_FEATURE
 62
7
  6
CONTINUOUS
 10
91.4627480277
 20
191.0702586303
 40
0.5
 50
359.0
 51
90.0
  0
ARC
  8
2_FEATURE
 62
7
  6
CONTINUOUS
 10
104.1627480277
 20
191.0702586303
 40
0.5
 50
359.0
 51
90.0
  0
ARC
  8
2_FEATURE
 62
7
  6
CONTINUOUS
 10
111.7803554216
 20
191.0702585754
 40
0.5
 50
90.0000001098
 51
180.999993708
  0
ARC
  8
2_FEATURE
 62
7
  6
CONTINUOUS
 10
99.0803554216
 20
191.0702585754
 40
0.5
 50
90.0000001098
 51
180.999993708
  0
ARC
  8
2_FEATURE
 62
7
  6
CONTINUOUS
 10
86.3803554216
 20
191.0702585754
 40
0.5
 50
90.0000001098
 51
180.999993708
  0
ARC
  8
0
 62
7
  6
CONTINUOUS
 10
116.9115517241
 20
190.7225385113
 40
0.4
 50
0.0000027712
 51
84.999997771
  0
ARC
  8
0
 62
7
  6
CONTINUOUS
 10
151.6118534579
 20
121.8974137931
 40
0.5
 50
180.0
 51
270.0
  0
ARC
  8
2_FEATURE
 62
7
  6
CONTINUOUS
 10
151.6118534579
 20
121.8974137931
 40
0.5
 50
262.5000030345
 51
270.0
  0
ARC
  8
0
 62
40
  6
CONTINUOUS
 10
155.5118534579
 20
116.5974137931
 40
4.4
 50
228.5901834932
 51
360.0
  0
ARC
  8
2_FEATURE
 62
2
  6
CONTINUOUS
 10
155.5118534579
 20
118.0174137931
 40
6.0
 50
90.0
 51
137.1665719339
  0
ARC
  8
0
 62
7
  6
CONTINUOUS
 10
155.5118534579
 20
116.5974137931
 40
4.8
 50
42.620990953
 51
90.0
  0
ARC
  8
2_FEATURE
 62
7
  6
CONTINUOUS
 10
155.5118534579
 20
116.5974137931
 40
4.8
 50
42.620990953
 51
49.360331571
  0
ARC
  8
0
 62
7
  6
CONTINUOUS
 10
155.5118534579
 20
116.5974137931
 40
4.4
 50
190.4988350163
 51
228.5901834932
  0
ARC
  8
0
 62
7
  6
CONTINUOUS
 10
155.5118534579
 20
116.5974137931
 40
4.4
 50
180.0
 51
184.3022805914
  0
ARC
  8
0
 62
7
  6
CONTINUOUS
 10
155.5118534579
 20
116.5974137931
 40
4.4
 50
228.6178791418
 51
338.5461317
  0
ARC
  8
0
 62
7
  6
CONTINUOUS
 10
155.5118534579
 20
116.5974137931
 40
4.4
 50
338.6182798168
 51
342.8110601412
  0
ARC
  8
0
 62
7
  6
CONTINUOUS
 10
155.5118534579
 20
116.5974137931
 40
4.4
 50
342.9127775876
 51
347.1187337596
  0
ARC
  8
0
 62
7
  6
CONTINUOUS
 10
155.5118534579
 20
116.5974137931
 40
4.4
 50
347.1775985457
 51
351.4659640972
  0
ARC
  8
0
 62
7
  6
CONTINUOUS
 10
155.5118534579
 20
116.5974137931
 40
4.4
 50
355.7545399961
 51
360.0
  0
ARC
  8
2_FEATURE
 62
7
  6
CONTINUOUS
 10
155.5118534579
 20
116.5974137931
 40
4.4
 50
180.0
 51
360.0
  0
ARC
  8
0
 62
40
  6
CONTINUOUS
 10
155.5118534579
 20
116.5974137931
 40
4.4
 50
184.3022805914
 51
190.4988350163
  0
CIRCLE
  8
0
 62
7
  6
CONTINUOUS
 10
155.5118534579
 20
116.5974137931
 40
2.6
  0
ARC
  8
2_FEATURE
 62
7
  6
CONTINUOUS
 10
159.4118534579
 20
120.1862854821
 40
0.5
 50
222.6209909617
 51
360.0
  0
ARC
  8
2_FEATURE
 62
2
  6
CONTINUOUS
 10
155.5118534579
 20
140.5774137931
 40
6.0
 50
222.8334280661
 51
270.0
  0
ARC
  8
0
 62
7
  6
CONTINUOUS
 10
155.5118534579
 20
141.9974137931
 40
4.4
 50
0.0
 51
180.0
  0
ARC
  8
2_FEATURE
 62
7
  6
CONTINUOUS
 10
155.5118534579
 20
141.9974137931
 40
4.4
 50
129.9680246134
 51
131.4096175453
  0
ARC
  8
2_FEATURE
 62
7
  6
CONTINUOUS
 10
155.5118534579
 20
141.9974137931
 40
4.4
 50
0.0
 51
4.1979445925
  0
ARC
  8
2_FEATURE
 62
7
  6
CONTINUOUS
 10
155.5118534579
 20
141.9974137931
 40
4.4
 50
132.8347598102
 51
132.8626446167
  0
ARC
  8
2_FEATURE
 62
7
  6
CONTINUOUS
 10
155.5118534579
 20
141.9974137931
 40
4.4
 50
169.5009719518
 51
180.0
  0
CIRCLE
  8
0
 62
7
  6
CONTINUOUS
 10
155.5118534579
 20
141.9974137931
 40
2.6
  0
ENDSEC
  0
EOF
