  0
SECTION
  2
HEADER
  9
$EXTMAX
 10
210.0
 20
297.0
 30
0.0
  9
$EXTMIN
 10
0.0
 20
0.0
 30
0.0
  9
$LIMMIN
 10
0.0
 20
0.0
  9
$LIMMAX
 10
210.0
 20
297.0
  9
$VIEWCTR
 10
105.0
 20
148.5
  9
$VIEWSIZE
 40
297.0
  9
$CLAYER
  8
0
  9
$LTSCALE
 40
19.36
  9
$CELTYPE
  6
BYLAYER
  9
$DIMSCALE
 40
1.0
  9
$DIMASZ
 40
3.5
  9
$DIMEXO
 40
2.2
  9
$DIMDLI
 40
13.376
  9
$DIMEXE
 40
6.336
  9
$DIMCEN
 40
3.168
  9
$DIMLFAC
 40
1.0
  9
$DIMBLK
  1
_FILLED
  9
$DIMTXT
 40
3.5
  9
$PDMODE
 70
3
  9
$PDSIZE
 40
0.3125
  9
$TILEMODE
 70
1
  0
ENDSEC
  0
SECTION
  2
TABLES
  0
TABLE
  2
LTYPE
 70
6
  0
LTYPE
  2
BYBLOCK
 70
0
  3

 72
65
 73
0
 40
0.0
  0
LTYPE
  2
BYLAYER
 70
0
  3

 72
65
 73
0
 40
0.0
  0
LTYPE
  2
CONTINUOUS
 70
64
  3
Solid line
 72
65
 73
0
 40
0.0
  0
LTYPE
  2
CENTER
 70
64
  3
____ _ ____ _ ____ _ ____ _ ____ _ ____ _ ____
 72
65
 73
4
 40
0.6
 49
0.375
 49
-0.075
 49
0.075
 49
-0.075
  0
LTYPE
  2
HIDDEN
 70
64
  3
- - - - - - - - - - - - - - - - - - - -
 72
65
 73
2
 40
0.2
 49
0.1
 49
-0.1
  0
LTYPE
  2
PHANTOM
 70
64
  3
_____ _ _ _____ _ _ _____ _ _ _____
 72
65
 73
6
 40
0.8
 49
0.45
 49
-0.05
 49
0.1
 49
-0.05
 49
0.1
 49
-0.05
  0
LTYPE
  2
DOT
 70
64
  3
. . . . . . . . . . . . . . . . . . . .
 72
65
 73
2
 40
0.2
 49
0.1
 49
-0.1
  0
LTYPE
  2
DASHED
 70
64
  3
- - - - - - - - - - - - - - - - - - - -
 72
65
 73
2
 40
0.2
 49
0.1
 49
-0.1
  0
ENDTAB
  0
TABLE
  2
LAYER
 70
36
  0
LAYER
  2
0
 70
0
 62
7
  6
CONTINUOUS
  0
LAYER
  2
DEFAULT_1
 70
0
 62
7
  6
CENTER
  0
LAYER
  2
DEFAULT_2
 70
0
 62
8
  6
HIDDEN
  0
LAYER
  2
DEFAULT_3
 70
0
 62
7
  6
PHANTOM
  0
LAYER
  2
1_AXIS
 70
0
 62
7
  6
CONTINUOUS
  0
LAYER
  2
1_CSYS
 70
0
 62
7
  6
CONTINUOUS
  0
LAYER
  2
1_DATUM_PLANES
 70
0
 62
7
  6
CONTINUOUS
  0
LAYER
  2
2_FEATURE
 70
0
 62
7
  6
CONTINUOUS
  0
LAYER
  2
4_QUILT
 70
0
 62
7
  6
CONTINUOUS
  0
LAYER
  2
4_SURFACE
 70
0
 62
7
  6
CONTINUOUS
  0
LAYER
  2
6_DIM
 70
0
 62
7
  6
CONTINUOUS
  0
LAYER
  2
CSYS
 70
0
 62
7
  6
CONTINUOUS
  0
LAYER
  2
CURVE
 70
0
 62
7
  6
CONTINUOUS
  0
ENDTAB
  0
TABLE
  2
STYLE
 70
1
  0
STYLE
  2
STANDARD
 70
0
 40
0.0
 41
0.8
 50
0.0
 71
0
 42
0.2
  3
txt
  4

  0
STYLE
  2
TEXTSTYLE_1
 70
0
 40
0.0
 41
0.8
 50
0.0
 71
0
 42
0.2
  3
gdt
  4

  0
STYLE
  2
TEXTSTYLE_2
 70
0
 40
0.0
 41
0.6
 50
0.0
 71
0
 42
0.2
  3
txt
  4

  0
STYLE
  2
TEXTSTYLE_3
 70
0
 40
0.0
 41
1.0
 50
0.0
 71
0
 42
0.2
  3
ftb_____.ttf
  4

  0
STYLE
  2
TEXTSTYLE_4
 70
0
 40
0.0
 41
1.0
 50
0.0
 71
0
 42
0.2
  3
fti_____.ttf
  4

  0
STYLE
  2
TEXTSTYLE_5
 70
0
 40
0.0
 41
1.0
 50
0.0
 71
0
 42
0.2
  3
frutiger light.ttf
  4

  0
STYLE
  2
TEXTSTYLE_6
 70
0
 40
0.0
 41
0.7
 50
0.0
 71
0
 42
0.2
  3
txt
  4

  0
STYLE
  2
TEXTSTYLE_7
 70
0
 40
0.0
 41
0.65
 50
0.0
 71
0
 42
0.2
  3
txt
  4

  0
ENDTAB
  0
ENDSEC
  0
SECTION
  2
BLOCKS
  0
BLOCK
  8
0
 62
2
  6
CONTINUOUS
  2
SYMBOL_8_BL1
 70
64
 10
173.5956734183
 20
35.5937998301
  0
TEXT
  8
0
 62
7
  6
CONTINUOUS
 10
164.6539584268
 20
30.6865562072
  7
TEXTSTYLE_4
 40
1.0655737705
  1
The brand for plastic modular belts and chains
 41
1.0
 72
0
  0
LINE
  8
0
 62
7
  6
CONTINUOUS
 10
149.5737418074
 20
36.1675703219
 11
149.5737418074
 21
34.0364227809
  0
LINE
  8
0
 62
7
  6
CONTINUOUS
 10
149.8628043005
 20
31.0454914852
 11
149.8628043005
 21
31.1422825445
  0
LINE
  8
0
 62
7
  6
CONTINUOUS
 10
149.5737418074
 20
31.1100188581
 11
149.6315543091
 21
30.9164367395
  0
LINE
  8
0
 62
7
  6
CONTINUOUS
 10
150.9671844304
 20
33.9544555678
 11
150.9671844304
 21
36.1675703219
  0
LINE
  8
0
 62
7
  6
CONTINUOUS
 10
151.8862417523
 20
32.1101932727
 11
151.8862417523
 21
30.5937998301
  0
LINE
  8
0
 62
7
  6
CONTINUOUS
 10
152.1753043074
 20
30.5937998301
 11
152.1753043074
 21
31.3358647082
  0
LINE
  8
0
 62
7
  6
CONTINUOUS
 10
152.1753043074
 20
31.4649194539
 11
152.1753043074
 21
32.1101932727
  0
LINE
  8
0
 62
7
  6
CONTINUOUS
 10
149.6315543091
 20
31.3036010218
 11
149.5737418074
 21
31.1100188581
  0
LINE
  8
0
 62
7
  6
CONTINUOUS
 10
149.9784292936
 20
30.8841730531
 11
149.8628043005
 21
31.0454914852
  0
LINE
  8
0
 62
7
  6
CONTINUOUS
 10
151.0768668626
 20
31.400392081
 11
151.1346793074
 21
31.3036010218
  0
LINE
  8
0
 62
7
  6
CONTINUOUS
 10
151.4237418626
 20
31.3036010218
 11
151.3659292523
 21
31.4326557675
  0
LINE
  8
0
 62
7
  6
CONTINUOUS
 10
152.852430332
 20
36.1675703219
 11
152.852430332
 21
34.3642916334
  0
LINE
  8
0
 62
7
  6
CONTINUOUS
 10
152.852430332
 20
33.0528162235
 11
152.852430332
 21
32.3970785186
  0
LINE
  8
0
 62
7
  6
CONTINUOUS
 10
153.2159293074
 20
31.2390736489
 11
153.2159293074
 21
30.5937998301
  0
LINE
  8
0
 62
7
  6
CONTINUOUS
 10
153.5049916972
 20
30.5937998301
 11
153.5049916972
 21
31.2390736489
  0
LINE
  8
0
 62
7
  6
CONTINUOUS
 10
149.8628043005
 20
31.1422825445
 11
149.9206168074
 21
31.2713373354
  0
LINE
  8
0
 62
7
  6
CONTINUOUS
 10
149.6315543091
 20
30.9164367395
 11
149.7471793074
 21
30.7873819712
  0
LINE
  8
0
 62
7
  6
CONTINUOUS
 10
153.1581166972
 20
31.3681283946
 11
153.2159293074
 21
31.2390736489
  0
LINE
  8
0
 62
7
  6
CONTINUOUS
 10
153.9674919177
 20
30.8841730531
 11
154.0253041972
 21
30.7551182848
  0
LINE
  8
0
 62
7
  6
CONTINUOUS
 10
153.5049916972
 20
31.2390736489
 11
153.4471794177
 21
31.400392081
  0
LINE
  8
0
 62
7
  6
CONTINUOUS
 10
153.9674919177
 20
31.4326557675
 11
153.9674919177
 21
31.3681283946
  0
LINE
  8
0
 62
7
  6
CONTINUOUS
 10
153.9674919177
 20
30.9809641124
 11
153.9674919177
 21
30.8841730531
  0
LINE
  8
0
 62
7
  6
CONTINUOUS
 10
154.245872955
 20
32.3970785186
 11
154.245872955
 21
36.1675703219
  0
LINE
  8
0
 62
7
  6
CONTINUOUS
 10
154.2565543074
 20
30.8519093441
 11
154.2565543074
 21
30.9164367395
  0
LINE
  8
0
 62
7
  6
CONTINUOUS
 10
154.5737418074
 20
36.1675703219
 11
154.5737418074
 21
32.3970785186
  0
LINE
  8
0
 62
7
  6
CONTINUOUS
 10
151.3659292523
 20
30.7873819712
 11
151.4237418626
 21
30.9164367395
  0
LINE
  8
0
 62
7
  6
CONTINUOUS
 10
155.759679528
 20
30.6905909007
 11
155.7018665869
 21
30.8519093441
  0
LINE
  8
0
 62
7
  6
CONTINUOUS
 10
155.412804528
 20
31.3681283946
 11
155.412804528
 21
31.2713373354
  0
LINE
  8
0
 62
7
  6
CONTINUOUS
 10
155.412804528
 20
31.1422825445
 11
155.412804528
 21
30.9487004259
  0
LINE
  8
0
 62
7
  6
CONTINUOUS
 10
155.7018665869
 20
30.8519093441
 11
155.7018665869
 21
31.3681283946
  0
LINE
  8
0
 62
7
  6
CONTINUOUS
 10
155.9671844304
 20
32.3970785186
 11
155.9671844304
 21
34.2003572071
  0
LINE
  8
0
 62
7
  6
CONTINUOUS
 10
155.9671844304
 20
35.511832617
 11
155.9671844304
 21
36.1675703219
  0
LINE
  8
0
 62
7
  6
CONTINUOUS
 10
156.279992028
 20
32.1101932727
 11
156.279992028
 21
31.9488748406
  0
LINE
  8
0
 62
7
  6
CONTINUOUS
 10
156.279992028
 20
31.626237886
 11
156.279992028
 21
30.5937998301
  0
LINE
  8
0
 62
7
  6
CONTINUOUS
 10
156.5690540869
 20
30.5937998301
 11
156.5690540869
 21
31.626237886
  0
LINE
  8
0
 62
7
  6
CONTINUOUS
 10
156.5690540869
 20
31.9488748406
 11
156.5690540869
 21
32.1101932727
  0
LINE
  8
0
 62
7
  6
CONTINUOUS
 10
151.1346793074
 20
30.9164367395
 11
151.0768668626
 21
30.8196456577
  0
LINE
  8
0
 62
7
  6
CONTINUOUS
 10
153.4471794177
 20
31.400392081
 11
153.3893668074
 21
31.4649194539
  0
LINE
  8
0
 62
7
  6
CONTINUOUS
 10
154.3143669177
 20
30.7873819712
 11
154.2565543074
 21
30.8519093441
  0
LINE
  8
0
 62
7
  6
CONTINUOUS
 10
155.4706168074
 20
30.6583272086
 11
155.5284290869
 21
30.5937998301
  0
LINE
  8
0
 62
7
  6
CONTINUOUS
 10
155.412804528
 20
30.7551182848
 11
155.4706168074
 21
30.6583272086
  0
LINE
  8
0
 62
7
  6
CONTINUOUS
 10
155.8174918074
 20
30.5937998301
 11
155.759679528
 21
30.6905909007
  0
LINE
  8
0
 62
7
  6
CONTINUOUS
 10
155.7018665869
 20
31.3681283946
 11
155.6440543074
 21
31.4649194539
  0
LINE
  8
0
 62
7
  6
CONTINUOUS
 10
157.0315543074
 20
31.626237886
 11
157.0315543074
 21
30.5937998301
  0
LINE
  8
0
 62
7
  6
CONTINUOUS
 10
157.320617028
 20
30.5937998301
 11
157.320617028
 21
31.3358647082
  0
LINE
  8
0
 62
7
  6
CONTINUOUS
 10
157.320617028
 20
31.4649194539
 11
157.320617028
 21
31.626237886
  0
LINE
  8
0
 62
7
  6
CONTINUOUS
 10
157.852430332
 20
34.6101932727
 11
157.852430332
 21
32.3970785186
  0
LINE
  8
0
 62
7
  6
CONTINUOUS
 10
149.7471793074
 20
31.4326557675
 11
149.6315543091
 21
31.3036010218
  0
LINE
  8
0
 62
7
  6
CONTINUOUS
 10
149.9206168074
 20
31.2713373354
 11
149.9784292936
 21
31.3358647082
  0
LINE
  8
0
 62
7
  6
CONTINUOUS
 10
149.7471793074
 20
30.7873819712
 11
149.8628043005
 21
30.7228545871
  0
LINE
  8
0
 62
7
  6
CONTINUOUS
 10
150.1518667936
 20
30.7873819712
 11
149.9784292936
 21
30.8841730531
  0
LINE
  8
0
 62
7
  6
CONTINUOUS
 10
155.3549915869
 20
31.4326557675
 11
155.412804528
 21
31.3681283946
  0
LINE
  8
0
 62
7
  6
CONTINUOUS
 10
158.3034290869
 20
31.3681283946
 11
158.361242028
 21
31.2068099625
  0
LINE
  8
0
 62
7
  6
CONTINUOUS
 10
158.6503040869
 20
31.2068099625
 11
158.5924918074
 21
31.3681283946
  0
LINE
  8
0
 62
7
  6
CONTINUOUS
 10
158.361242028
 20
31.2068099625
 11
158.361242028
 21
30.5937998301
  0
LINE
  8
0
 62
7
  6
CONTINUOUS
 10
158.6503040869
 20
30.5937998301
 11
158.6503040869
 21
31.2068099625
  0
LINE
  8
0
 62
7
  6
CONTINUOUS
 10
159.1128043074
 20
31.4326557675
 11
159.1128043074
 21
31.3681283946
  0
LINE
  8
0
 62
7
  6
CONTINUOUS
 10
159.245872955
 20
32.3970785186
 11
159.245872955
 21
34.5282260596
  0
LINE
  8
0
 62
7
  6
CONTINUOUS
 10
159.5737418074
 20
36.1675703219
 11
159.5737418074
 21
32.3970785186
  0
LINE
  8
0
 62
7
  6
CONTINUOUS
 10
154.2565543074
 20
30.9164367395
 11
154.3143669177
 21
31.0132277988
  0
LINE
  8
0
 62
7
  6
CONTINUOUS
 10
149.8628043005
 20
30.7228545871
 11
150.0362418212
 21
30.6583272086
  0
LINE
  8
0
 62
7
  6
CONTINUOUS
 10
151.3659292523
 20
31.4326557675
 11
151.1924917523
 21
31.5294468267
  0
LINE
  8
0
 62
7
  6
CONTINUOUS
 10
154.0253041972
 20
30.7551182848
 11
154.1987416972
 21
30.6583272086
  0
LINE
  8
0
 62
7
  6
CONTINUOUS
 10
153.0424918074
 20
31.4326557675
 11
153.1581166972
 21
31.3681283946
  0
LINE
  8
0
 62
7
  6
CONTINUOUS
 10
153.3893668074
 20
31.4649194539
 11
153.2737419177
 21
31.5294468267
  0
LINE
  8
0
 62
7
  6
CONTINUOUS
 10
159.1128043074
 20
30.8519093441
 11
159.228429528
 21
30.7228545871
  0
LINE
  8
0
 62
7
  6
CONTINUOUS
 10
159.4596793074
 20
30.7873819712
 11
159.401867028
 21
30.8519093441
  0
LINE
  8
0
 62
7
  6
CONTINUOUS
 10
159.1128043074
 20
31.3681283946
 11
159.228429528
 21
31.2390736489
  0
LINE
  8
0
 62
7
  6
CONTINUOUS
 10
158.5924918074
 20
31.3681283946
 11
158.534679528
 21
31.4649194539
  0
LINE
  8
0
 62
7
  6
CONTINUOUS
 10
160.9628038663
 20
30.7873819712
 11
160.9628038663
 21
30.8519093441
  0
LINE
  8
0
 62
7
  6
CONTINUOUS
 10
160.9671844304
 20
32.3970785186
 11
160.9671844304
 21
36.1675703219
  0
LINE
  8
0
 62
7
  6
CONTINUOUS
 10
154.0253041972
 20
31.4971831403
 11
153.9674919177
 21
31.4326557675
  0
LINE
  8
0
 62
7
  6
CONTINUOUS
 10
150.9034292799
 20
31.4649194539
 11
151.0768668626
 21
31.400392081
  0
LINE
  8
0
 62
7
  6
CONTINUOUS
 10
155.6440543074
 20
31.4649194539
 11
155.5284290869
 21
31.5294468267
  0
LINE
  8
0
 62
7
  6
CONTINUOUS
 10
159.4596793074
 20
31.3036010218
 11
159.401867028
 21
31.3681283946
  0
LINE
  8
0
 62
7
  6
CONTINUOUS
 10
160.615929528
 20
30.9164367395
 11
160.6737418074
 21
30.8519093441
  0
LINE
  8
0
 62
7
  6
CONTINUOUS
 10
160.9628038663
 20
30.8519093441
 11
160.8471793074
 21
30.9809641124
  0
LINE
  8
0
 62
7
  6
CONTINUOUS
 10
160.615929528
 20
31.4326557675
 11
160.6737418074
 21
31.3681283946
  0
LINE
  8
0
 62
7
  6
CONTINUOUS
 10
160.9628038663
 20
31.3681283946
 11
160.8471793074
 21
31.4971831403
  0
LINE
  8
0
 62
7
  6
CONTINUOUS
 10
154.2565543074
 20
31.3681283946
 11
154.3143669177
 21
31.4326557675
  0
LINE
  8
0
 62
7
  6
CONTINUOUS
 10
154.0831168074
 20
31.1100188581
 11
153.9674919177
 21
30.9809641124
  0
LINE
  8
0
 62
7
  6
CONTINUOUS
 10
155.412804528
 20
30.9487004259
 11
155.3549915869
 21
30.8841730531
  0
LINE
  8
0
 62
7
  6
CONTINUOUS
 10
155.3549915869
 20
30.6905909007
 11
155.412804528
 21
30.7551182848
  0
LINE
  8
0
 62
7
  6
CONTINUOUS
 10
154.1987416972
 20
30.6583272086
 11
154.3143669177
 21
30.6260635193
  0
LINE
  8
0
 62
7
  6
CONTINUOUS
 10
151.1924917523
 20
31.5294468267
 11
150.9612418074
 21
31.5939741996
  0
LINE
  8
0
 62
7
  6
CONTINUOUS
 10
154.5456166972
 20
30.7228545871
 11
154.3143669177
 21
30.7873819712
  0
LINE
  8
0
 62
7
  6
CONTINUOUS
 10
153.2737419177
 20
31.5294468267
 11
153.1003044177
 21
31.5939741996
  0
LINE
  8
0
 62
7
  6
CONTINUOUS
 10
155.5284290869
 20
31.5294468267
 11
155.3549915869
 21
31.5939741996
  0
LINE
  8
0
 62
7
  6
CONTINUOUS
 10
158.187804528
 20
31.4326557675
 11
158.3034290869
 21
31.3681283946
  0
LINE
  8
0
 62
7
  6
CONTINUOUS
 10
158.534679528
 20
31.4649194539
 11
158.4190543074
 21
31.5294468267
  0
LINE
  8
0
 62
7
  6
CONTINUOUS
 10
150.0362418212
 20
30.6583272086
 11
150.2096793212
 21
30.6260635193
  0
LINE
  8
0
 62
7
  6
CONTINUOUS
 10
150.498741835
 20
30.7228545871
 11
150.1518667936
 21
30.7873819712
  0
LINE
  8
0
 62
7
  6
CONTINUOUS
 10
152.9268669177
 20
31.4649194539
 11
153.0424918074
 21
31.4326557675
  0
LINE
  8
0
 62
7
  6
CONTINUOUS
 10
155.239367028
 20
31.4649194539
 11
155.3549915869
 21
31.4326557675
  0
LINE
  8
0
 62
7
  6
CONTINUOUS
 10
159.575304528
 20
30.7551182848
 11
159.4596793074
 21
30.7873819712
  0
LINE
  8
0
 62
7
  6
CONTINUOUS
 10
158.0721793074
 20
31.4649194539
 11
158.187804528
 21
31.4326557675
  0
LINE
  8
0
 62
7
  6
CONTINUOUS
 10
159.228429528
 20
30.7228545871
 11
159.401867028
 21
30.6583272086
  0
LINE
  8
0
 62
7
  6
CONTINUOUS
 10
158.4190543074
 20
31.5294468267
 11
158.2456168074
 21
31.5939741996
  0
LINE
  8
0
 62
7
  6
CONTINUOUS
 10
159.6331168074
 20
31.2390736489
 11
159.4596793074
 21
31.3036010218
  0
LINE
  8
0
 62
7
  6
CONTINUOUS
 10
160.442492028
 20
30.9809641124
 11
160.615929528
 21
30.9164367395
  0
LINE
  8
0
 62
7
  6
CONTINUOUS
 10
160.8471793074
 20
31.4971831403
 11
160.6737418074
 21
31.5617105132
  0
LINE
  8
0
 62
7
  6
CONTINUOUS
 10
159.228429528
 20
31.2390736489
 11
159.4596793074
 21
31.1422825445
  0
LINE
  8
0
 62
7
  6
CONTINUOUS
 10
160.8471793074
 20
30.9809641124
 11
160.615929528
 21
31.0777551716
  0
LINE
  8
0
 62
7
  6
CONTINUOUS
 10
159.401867028
 20
31.3681283946
 11
159.4596793074
 21
31.4326557675
  0
LINE
  8
0
 62
7
  6
CONTINUOUS
 10
149.8628043005
 20
31.4971831403
 11
149.7471793074
 21
31.4326557675
  0
LINE
  8
0
 62
7
  6
CONTINUOUS
 10
149.9784292936
 20
31.3358647082
 11
150.1518667936
 21
31.4326557675
  0
LINE
  8
0
 62
7
  6
CONTINUOUS
 10
152.2909293626
 20
31.5294468267
 11
152.1753043074
 21
31.4649194539
  0
LINE
  8
0
 62
7
  6
CONTINUOUS
 10
152.1753043074
 20
31.3358647082
 11
152.2909293626
 21
31.400392081
  0
LINE
  8
0
 62
7
  6
CONTINUOUS
 10
151.1924917523
 20
30.6905909007
 11
151.3659292523
 21
30.7873819712
  0
LINE
  8
0
 62
7
  6
CONTINUOUS
 10
150.2096793212
 20
30.6260635193
 11
150.5565542799
 21
30.5937998301
  0
LINE
  8
0
 62
7
  6
CONTINUOUS
 10
154.3143669177
 20
30.6260635193
 11
154.5456166972
 21
30.5937998301
  0
LINE
  8
0
 62
7
  6
CONTINUOUS
 10
152.6956168074
 20
31.4971831403
 11
152.9268669177
 21
31.4649194539
  0
LINE
  8
0
 62
7
  6
CONTINUOUS
 10
155.0081169177
 20
31.4971831403
 11
155.239367028
 21
31.4649194539
  0
LINE
  8
0
 62
7
  6
CONTINUOUS
 10
159.4596793074
 20
31.1422825445
 11
160.442492028
 21
30.9809641124
  0
LINE
  8
0
 62
7
  6
CONTINUOUS
 10
160.615929528
 20
31.0777551716
 11
159.6331168074
 21
31.2390736489
  0
LINE
  8
0
 62
7
  6
CONTINUOUS
 10
153.1003044177
 20
31.5939741996
 11
152.9268669177
 21
31.626237886
  0
LINE
  8
0
 62
7
  6
CONTINUOUS
 10
159.401867028
 20
30.6583272086
 11
159.575304528
 21
30.6260635193
  0
LINE
  8
0
 62
7
  6
CONTINUOUS
 10
158.2456168074
 20
31.5939741996
 11
158.0721793074
 21
31.626237886
  0
LINE
  8
0
 62
7
  6
CONTINUOUS
 10
160.5003043074
 20
31.4649194539
 11
160.615929528
 21
31.4326557675
  0
LINE
  8
0
 62
7
  6
CONTINUOUS
 10
160.6737418074
 20
30.8519093441
 11
160.615929528
 21
30.7873819712
  0
LINE
  8
0
 62
7
  6
CONTINUOUS
 10
159.228429528
 20
31.5294468267
 11
159.1128043074
 21
31.4326557675
  0
LINE
  8
0
 62
7
  6
CONTINUOUS
 10
154.1409294177
 20
31.5617105132
 11
154.0253041972
 21
31.4971831403
  0
LINE
  8
0
 62
7
  6
CONTINUOUS
 10
154.1987416972
 20
31.1745462761
 11
154.0831168074
 21
31.1100188581
  0
LINE
  8
0
 62
7
  6
CONTINUOUS
 10
154.3143669177
 20
31.0132277988
 11
154.4299918074
 21
31.0777551716
  0
LINE
  8
0
 62
7
  6
CONTINUOUS
 10
151.8862417523
 20
30.5937998301
 11
152.1753043074
 21
30.5937998301
  0
LINE
  8
0
 62
7
  6
CONTINUOUS
 10
153.2159293074
 20
30.5937998301
 11
153.5049916972
 21
30.5937998301
  0
LINE
  8
0
 62
7
  6
CONTINUOUS
 10
154.5456166972
 20
30.5937998301
 11
154.8924916972
 21
30.5937998301
  0
LINE
  8
0
 62
7
  6
CONTINUOUS
 10
155.5284290869
 20
30.5937998301
 11
155.8174918074
 21
30.5937998301
  0
LINE
  8
0
 62
7
  6
CONTINUOUS
 10
156.279992028
 20
30.5937998301
 11
156.5690540869
 21
30.5937998301
  0
LINE
  8
0
 62
7
  6
CONTINUOUS
 10
157.0315543074
 20
30.5937998301
 11
157.320617028
 21
30.5937998301
  0
LINE
  8
0
 62
7
  6
CONTINUOUS
 10
158.361242028
 20
30.5937998301
 11
158.6503040869
 21
30.5937998301
  0
LINE
  8
0
 62
7
  6
CONTINUOUS
 10
159.922179528
 20
30.5937998301
 11
160.269054528
 21
30.5937998301
  0
LINE
  8
0
 62
7
  6
CONTINUOUS
 10
160.269054528
 20
30.7228545871
 11
159.922179528
 21
30.7228545871
  0
LINE
  8
0
 62
7
  6
CONTINUOUS
 10
154.8924916972
 20
30.7228545871
 11
154.5456166972
 21
30.7228545871
  0
LINE
  8
0
 62
7
  6
CONTINUOUS
 10
159.401867028
 20
30.8519093441
 11
159.1128043074
 21
30.8519093441
  0
LINE
  8
0
 62
7
  6
CONTINUOUS
 10
151.4237418626
 20
30.9164367395
 11
151.1346793074
 21
30.9164367395
  0
LINE
  8
0
 62
7
  6
CONTINUOUS
 10
150.498741835
 20
31.4971831403
 11
150.9034292799
 21
31.4649194539
  0
LINE
  8
0
 62
7
  6
CONTINUOUS
 10
150.9612418074
 20
31.5939741996
 11
150.5565542799
 21
31.626237886
  0
LINE
  8
0
 62
7
  6
CONTINUOUS
 10
159.575304528
 20
30.6260635193
 11
159.922179528
 21
30.5937998301
  0
LINE
  8
0
 62
7
  6
CONTINUOUS
 10
159.922179528
 20
30.7228545871
 11
159.575304528
 21
30.7551182848
  0
LINE
  8
0
 62
7
  6
CONTINUOUS
 10
155.3549915869
 20
31.5939741996
 11
155.0081169177
 21
31.626237886
  0
LINE
  8
0
 62
7
  6
CONTINUOUS
 10
160.1534293074
 20
31.4971831403
 11
160.5003043074
 21
31.4649194539
  0
LINE
  8
0
 62
7
  6
CONTINUOUS
 10
160.5003043074
 20
31.5939741996
 11
160.1534293074
 21
31.626237886
  0
LINE
  8
0
 62
7
  6
CONTINUOUS
 10
157.840929528
 20
31.4971831403
 11
158.0721793074
 21
31.4649194539
  0
LINE
  8
0
 62
7
  6
CONTINUOUS
 10
160.6737418074
 20
31.5617105132
 11
160.5003043074
 21
31.5939741996
  0
LINE
  8
0
 62
7
  6
CONTINUOUS
 10
160.8471793074
 20
30.6905909007
 11
160.9628038663
 21
30.7873819712
  0
LINE
  8
0
 62
7
  6
CONTINUOUS
 10
155.3549915869
 20
30.8841730531
 11
155.1815540869
 21
30.7873819712
  0
LINE
  8
0
 62
7
  6
CONTINUOUS
 10
157.4362415869
 20
31.5294468267
 11
157.320617028
 21
31.4649194539
  0
LINE
  8
0
 62
7
  6
CONTINUOUS
 10
157.320617028
 20
31.3358647082
 11
157.4362415869
 21
31.400392081
  0
LINE
  8
0
 62
7
  6
CONTINUOUS
 10
150.0362418212
 20
31.5617105132
 11
149.8628043005
 21
31.4971831403
  0
LINE
  8
0
 62
7
  6
CONTINUOUS
 10
152.4643666972
 20
31.5939741996
 11
152.2909293626
 21
31.5294468267
  0
LINE
  8
0
 62
7
  6
CONTINUOUS
 10
152.2909293626
 20
31.400392081
 11
152.4643666972
 21
31.4649194539
  0
LINE
  8
0
 62
7
  6
CONTINUOUS
 10
151.0768668626
 20
30.8196456577
 11
150.9034292799
 21
30.7551182848
  0
LINE
  8
0
 62
7
  6
CONTINUOUS
 10
160.5003043074
 20
30.7551182848
 11
160.269054528
 21
30.7228545871
  0
LINE
  8
0
 62
7
  6
CONTINUOUS
 10
154.8924916972
 20
30.5937998301
 11
155.1815540869
 21
30.6260635193
  0
LINE
  8
0
 62
7
  6
CONTINUOUS
 10
160.269054528
 20
30.5937998301
 11
160.615929528
 21
30.6260635193
  0
LINE
  8
0
 62
7
  6
CONTINUOUS
 10
150.5565542799
 20
30.5937998301
 11
150.9612418074
 21
30.6260635193
  0
LINE
  8
0
 62
7
  6
CONTINUOUS
 10
150.9034292799
 20
30.7551182848
 11
150.498741835
 21
30.7228545871
  0
LINE
  8
0
 62
7
  6
CONTINUOUS
 10
154.7768668074
 20
31.1422825445
 11
155.412804528
 21
31.1422825445
  0
LINE
  8
0
 62
7
  6
CONTINUOUS
 10
155.412804528
 20
31.2713373354
 11
154.7768668074
 21
31.2713373354
  0
LINE
  8
0
 62
7
  6
CONTINUOUS
 10
151.1346793074
 20
31.3036010218
 11
151.4237418626
 21
31.3036010218
  0
LINE
  8
0
 62
7
  6
CONTINUOUS
 10
153.9674919177
 20
31.3681283946
 11
154.2565543074
 21
31.3681283946
  0
LINE
  8
0
 62
7
  6
CONTINUOUS
 10
160.6737418074
 20
31.3681283946
 11
160.9628038663
 21
31.3681283946
  0
LINE
  8
0
 62
7
  6
CONTINUOUS
 10
154.6612419177
 20
31.4971831403
 11
155.0081169177
 21
31.4971831403
  0
LINE
  8
0
 62
7
  6
CONTINUOUS
 10
159.8065543074
 20
31.4971831403
 11
160.1534293074
 21
31.4971831403
  0
LINE
  8
0
 62
7
  6
CONTINUOUS
 10
160.1534293074
 20
31.626237886
 11
159.8065543074
 21
31.626237886
  0
LINE
  8
0
 62
7
  6
CONTINUOUS
 10
158.0721793074
 20
31.626237886
 11
157.840929528
 21
31.626237886
  0
LINE
  8
0
 62
7
  6
CONTINUOUS
 10
157.320617028
 20
31.626237886
 11
157.0315543074
 21
31.626237886
  0
LINE
  8
0
 62
7
  6
CONTINUOUS
 10
156.5690540869
 20
31.626237886
 11
156.279992028
 21
31.626237886
  0
LINE
  8
0
 62
7
  6
CONTINUOUS
 10
155.0081169177
 20
31.626237886
 11
154.6612419177
 21
31.626237886
  0
LINE
  8
0
 62
7
  6
CONTINUOUS
 10
152.9268669177
 20
31.626237886
 11
152.6956168074
 21
31.626237886
  0
LINE
  8
0
 62
7
  6
CONTINUOUS
 10
156.279992028
 20
31.9488748406
 11
156.5690540869
 21
31.9488748406
  0
LINE
  8
0
 62
7
  6
CONTINUOUS
 10
156.5690540869
 20
32.1101932727
 11
156.279992028
 21
32.1101932727
  0
LINE
  8
0
 62
7
  6
CONTINUOUS
 10
152.1753043074
 20
32.1101932727
 11
151.8862417523
 21
32.1101932727
  0
LINE
  8
0
 62
7
  6
CONTINUOUS
 10
151.2130860697
 20
32.3970785186
 11
151.6256574183
 21
32.3970785186
  0
LINE
  8
0
 62
7
  6
CONTINUOUS
 10
152.852430332
 20
32.3970785186
 11
154.245872955
 21
32.3970785186
  0
LINE
  8
0
 62
7
  6
CONTINUOUS
 10
154.5737418074
 20
32.3970785186
 11
155.9671844304
 21
32.3970785186
  0
LINE
  8
0
 62
7
  6
CONTINUOUS
 10
157.852430332
 20
32.3970785186
 11
159.245872955
 21
32.3970785186
  0
LINE
  8
0
 62
7
  6
CONTINUOUS
 10
159.5737418074
 20
32.3970785186
 11
160.9671844304
 21
32.3970785186
  0
LINE
  8
0
 62
7
  6
CONTINUOUS
 10
157.6096790869
 20
31.5939741996
 11
157.4362415869
 21
31.5294468267
  0
LINE
  8
0
 62
7
  6
CONTINUOUS
 10
155.1815540869
 20
30.6260635193
 11
155.3549915869
 21
30.6905909007
  0
LINE
  8
0
 62
7
  6
CONTINUOUS
 10
160.615929528
 20
30.6260635193
 11
160.8471793074
 21
30.6905909007
  0
LINE
  8
0
 62
7
  6
CONTINUOUS
 10
160.615929528
 20
30.7873819712
 11
160.5003043074
 21
30.7551182848
  0
LINE
  8
0
 62
7
  6
CONTINUOUS
 10
159.575304528
 20
31.4649194539
 11
159.8065543074
 21
31.4971831403
  0
LINE
  8
0
 62
7
  6
CONTINUOUS
 10
157.6096790869
 20
31.4649194539
 11
157.840929528
 21
31.4971831403
  0
LINE
  8
0
 62
7
  6
CONTINUOUS
 10
154.5456166972
 20
31.1100188581
 11
154.7768668074
 21
31.1422825445
  0
LINE
  8
0
 62
7
  6
CONTINUOUS
 10
157.840929528
 20
31.626237886
 11
157.6096790869
 21
31.5939741996
  0
LINE
  8
0
 62
7
  6
CONTINUOUS
 10
154.4299918074
 20
31.4649194539
 11
154.6612419177
 21
31.4971831403
  0
LINE
  8
0
 62
7
  6
CONTINUOUS
 10
159.8065543074
 20
31.626237886
 11
159.4596793074
 21
31.5939741996
  0
LINE
  8
0
 62
7
  6
CONTINUOUS
 10
154.7768668074
 20
31.2713373354
 11
154.4299918074
 21
31.2390736489
  0
LINE
  8
0
 62
7
  6
CONTINUOUS
 10
150.5565542799
 20
31.626237886
 11
150.2096793212
 21
31.5939741996
  0
LINE
  8
0
 62
7
  6
CONTINUOUS
 10
154.6612419177
 20
31.626237886
 11
154.2565543074
 21
31.5939741996
  0
LINE
  8
0
 62
7
  6
CONTINUOUS
 10
152.0327582009
 20
33.5446195022
 11
151.3770204959
 21
33.5446195022
  0
LINE
  8
0
 62
7
  6
CONTINUOUS
 10
157.4362415869
 20
31.400392081
 11
157.6096790869
 21
31.4649194539
  0
LINE
  8
0
 62
7
  6
CONTINUOUS
 10
159.4596793074
 20
31.4326557675
 11
159.575304528
 21
31.4649194539
  0
LINE
  8
0
 62
7
  6
CONTINUOUS
 10
159.4596793074
 20
31.5939741996
 11
159.228429528
 21
31.5294468267
  0
LINE
  8
0
 62
7
  6
CONTINUOUS
 10
155.1815540869
 20
30.7873819712
 11
154.8924916972
 21
30.7228545871
  0
LINE
  8
0
 62
7
  6
CONTINUOUS
 10
152.4643666972
 20
31.4649194539
 11
152.6956168074
 21
31.4971831403
  0
LINE
  8
0
 62
7
  6
CONTINUOUS
 10
152.6956168074
 20
31.626237886
 11
152.4643666972
 21
31.5939741996
  0
LINE
  8
0
 62
7
  6
CONTINUOUS
 10
150.2674918074
 20
31.4649194539
 11
150.498741835
 21
31.4971831403
  0
LINE
  8
0
 62
7
  6
CONTINUOUS
 10
156.7868565615
 20
35.0200293383
 11
157.4425942664
 21
35.0200293383
  0
LINE
  8
0
 62
7
  6
CONTINUOUS
 10
154.4299918074
 20
31.0777551716
 11
154.5456166972
 21
31.1100188581
  0
LINE
  8
0
 62
7
  6
CONTINUOUS
 10
154.4299918074
 20
31.2390736489
 11
154.1987416972
 21
31.1745462761
  0
LINE
  8
0
 62
7
  6
CONTINUOUS
 10
154.3143669177
 20
31.4326557675
 11
154.4299918074
 21
31.4649194539
  0
LINE
  8
0
 62
7
  6
CONTINUOUS
 10
150.9612418074
 20
30.6260635193
 11
151.1924917523
 21
30.6905909007
  0
LINE
  8
0
 62
7
  6
CONTINUOUS
 10
154.2565543074
 20
31.5939741996
 11
154.1409294177
 21
31.5617105132
  0
LINE
  8
0
 62
7
  6
CONTINUOUS
 10
150.2096793212
 20
31.5939741996
 11
150.0362418212
 21
31.5617105132
  0
LINE
  8
0
 62
7
  6
CONTINUOUS
 10
160.9671844304
 20
36.1675703219
 11
159.5737418074
 21
36.1675703219
  0
LINE
  8
0
 62
7
  6
CONTINUOUS
 10
157.6065286927
 20
36.1675703219
 11
157.1939573441
 21
36.1675703219
  0
LINE
  8
0
 62
7
  6
CONTINUOUS
 10
155.9671844304
 20
36.1675703219
 11
154.5737418074
 21
36.1675703219
  0
LINE
  8
0
 62
7
  6
CONTINUOUS
 10
154.245872955
 20
36.1675703219
 11
152.852430332
 21
36.1675703219
  0
LINE
  8
0
 62
7
  6
CONTINUOUS
 10
150.9671844304
 20
36.1675703219
 11
149.5737418074
 21
36.1675703219
  0
LINE
  8
0
 62
7
  6
CONTINUOUS
 10
150.1518667936
 20
31.4326557675
 11
150.2674918074
 21
31.4649194539
  0
CIRCLE
  8
0
 62
7
  6
CONTINUOUS
 10
160.2704631189
 20
38.5036358957
 40
2.0901639344
  0
ARC
  8
0
 62
7
  6
CONTINUOUS
 10
151.2130860697
 20
34.0364227809
 40
1.6393442623
 50
180.0
 51
270.0
  0
ARC
  8
0
 62
7
  6
CONTINUOUS
 10
157.6065286927
 20
34.5282260596
 40
1.6393442623
 50
0.0
 51
90.0
  0
ARC
  8
0
 62
7
  6
CONTINUOUS
 10
151.6256574183
 20
33.8724883547
 40
1.4754098361
 50
270.0
 51
326.2510114041
  0
ARC
  8
0
 62
7
  6
CONTINUOUS
 10
157.1939573441
 20
34.6921604858
 40
1.4754098361
 50
90.0
 51
146.2510114041
  0
ARC
  8
0
 62
7
  6
CONTINUOUS
 10
152.0327582009
 20
34.3642916334
 40
0.8196721311
 50
270.0
 51
360.0
  0
ARC
  8
0
 62
7
  6
CONTINUOUS
 10
156.7868565615
 20
34.2003572071
 40
0.8196721311
 50
90.0
 51
180.0
  0
ARC
  8
0
 62
7
  6
CONTINUOUS
 10
151.3770204959
 20
33.9544555678
 40
0.4098360656
 50
180.0
 51
270.0
  0
ARC
  8
0
 62
7
  6
CONTINUOUS
 10
157.4425942664
 20
34.6101932727
 40
0.4098360656
 50
0.0
 51
90.0
  0
SOLID
  8
0
 62
7
  6
CONTINUOUS
 10
156.279992028
 20
31.9488752009
 11
156.279992028
 21
32.1101936845
 12
156.5690540869
 22
31.9488752009
 13
156.5690540869
 23
32.1101936845
  0
SOLID
  8
0
 62
7
  6
CONTINUOUS
 10
150.5565542799
 20
31.6262382337
 11
150.9612418074
 21
31.5939740028
 12
150.2096793212
 22
31.5939740028
 13
150.2096793212
 23
31.5939740028
  0
SOLID
  8
0
 62
7
  6
CONTINUOUS
 10
150.0362418212
 20
31.5617111435
 11
150.2096793212
 21
31.5939740028
 12
150.9612418074
 22
31.5939740028
 13
150.9612418074
 23
31.5939740028
  0
SOLID
  8
0
 62
7
  6
CONTINUOUS
 10
150.9612418074
 20
31.5939740028
 11
151.1924917523
 21
31.5294468402
 12
150.0362418212
 22
31.5617111435
 13
150.0362418212
 23
31.5617111435
  0
SOLID
  8
0
 62
7
  6
CONTINUOUS
 10
149.8628043005
 20
31.49718259
 11
150.0362418212
 21
31.5617111435
 12
151.1924917523
 22
31.5294468402
 13
151.1924917523
 23
31.5294468402
  0
SOLID
  8
0
 62
7
  6
CONTINUOUS
 10
149.8628043005
 20
31.49718259
 11
151.1924917523
 21
31.5294468402
 12
150.498741835
 22
31.49718259
 13
150.498741835
 23
31.49718259
  0
SOLID
  8
0
 62
7
  6
CONTINUOUS
 10
150.498741835
 20
31.49718259
 11
151.1924917523
 21
31.5294468402
 12
150.9034292799
 22
31.4649197501
 13
150.9034292799
 23
31.4649197501
  0
SOLID
  8
0
 62
7
  6
CONTINUOUS
 10
151.1924917523
 20
31.5294468402
 11
151.3659292523
 21
31.4326554468
 12
150.9034292799
 22
31.4649197501
 13
150.9034292799
 23
31.4649197501
  0
SOLID
  8
0
 62
7
  6
CONTINUOUS
 10
151.0768668626
 20
31.4003926599
 11
150.9034292799
 21
31.4649197501
 12
151.3659292523
 22
31.4326554468
 13
151.3659292523
 23
31.4326554468
  0
SOLID
  8
0
 62
7
  6
CONTINUOUS
 10
151.0768668626
 20
31.4003926599
 11
151.3659292523
 21
31.4326554468
 12
151.1346793074
 22
31.3036013776
 13
151.1346793074
 23
31.3036013776
  0
SOLID
  8
0
 62
7
  6
CONTINUOUS
 10
151.3659292523
 20
31.4326554468
 11
151.4237418626
 21
31.3036013776
 12
151.1346793074
 22
31.3036013776
 13
151.1346793074
 23
31.3036013776
  0
SOLID
  8
0
 62
7
  6
CONTINUOUS
 10
152.4643666972
 20
31.5939739754
 11
152.6956168074
 21
31.6262382787
 12
152.9268669177
 22
31.6262382787
 13
152.9268669177
 23
31.6262382787
  0
SOLID
  8
0
 62
7
  6
CONTINUOUS
 10
152.9268669177
 20
31.6262382787
 11
153.1003044177
 21
31.5939739754
 12
152.4643666972
 22
31.5939739754
 13
152.4643666972
 23
31.5939739754
  0
SOLID
  8
0
 62
7
  6
CONTINUOUS
 10
152.2909293626
 20
31.5294468852
 11
152.4643666972
 21
31.5939739754
 12
153.1003044177
 22
31.5939739754
 13
153.1003044177
 23
31.5939739754
  0
SOLID
  8
0
 62
7
  6
CONTINUOUS
 10
153.1003044177
 20
31.5939739754
 11
153.2737419177
 21
31.5294468852
 12
152.2909293626
 22
31.5294468852
 13
152.2909293626
 23
31.5294468852
  0
SOLID
  8
0
 62
7
  6
CONTINUOUS
 10
153.2737419177
 20
31.5294468852
 11
152.6956168074
 21
31.4971825369
 12
152.2909293626
 22
31.5294468852
 13
152.2909293626
 23
31.5294468852
  0
SOLID
  8
0
 62
7
  6
CONTINUOUS
 10
152.1753043074
 20
31.4649197951
 11
152.2909293626
 21
31.5294468852
 12
152.6956168074
 22
31.4971825369
 13
152.6956168074
 23
31.4971825369
  0
SOLID
  8
0
 62
7
  6
CONTINUOUS
 10
152.6956168074
 20
31.4971825369
 11
152.4643666972
 21
31.4649197951
 12
152.1753043074
 22
31.4649197951
 13
152.1753043074
 23
31.4649197951
  0
SOLID
  8
0
 62
7
  6
CONTINUOUS
 10
152.6956168074
 20
31.4971825369
 11
153.2737419177
 21
31.5294468852
 12
152.9268669177
 22
31.4649197951
 13
152.9268669177
 23
31.4649197951
  0
SOLID
  8
0
 62
7
  6
CONTINUOUS
 10
153.2737419177
 20
31.5294468852
 11
153.3893668074
 21
31.4649197951
 12
152.9268669177
 22
31.4649197951
 13
152.9268669177
 23
31.4649197951
  0
SOLID
  8
0
 62
7
  6
CONTINUOUS
 10
153.0424918074
 20
31.4326554468
 11
152.9268669177
 21
31.4649197951
 12
153.3893668074
 22
31.4649197951
 13
153.3893668074
 23
31.4649197951
  0
SOLID
  8
0
 62
7
  6
CONTINUOUS
 10
153.3893668074
 20
31.4649197951
 11
153.4471794177
 21
31.4003927049
 12
153.0424918074
 22
31.4326554468
 13
153.0424918074
 23
31.4326554468
  0
SOLID
  8
0
 62
7
  6
CONTINUOUS
 10
153.1581166972
 20
31.3681283566
 11
153.0424918074
 21
31.4326554468
 12
153.4471794177
 22
31.4003927049
 13
153.4471794177
 23
31.4003927049
  0
SOLID
  8
0
 62
7
  6
CONTINUOUS
 10
153.1581166972
 20
31.3681283566
 11
153.4471794177
 21
31.4003927049
 12
153.2159293074
 22
31.2390742213
 13
153.2159293074
 23
31.2390742213
  0
SOLID
  8
0
 62
7
  6
CONTINUOUS
 10
153.4471794177
 20
31.4003927049
 11
153.5049916972
 21
31.2390742213
 12
153.2159293074
 22
31.2390742213
 13
153.2159293074
 23
31.2390742213
  0
SOLID
  8
0
 62
7
  6
CONTINUOUS
 10
152.4643666972
 20
31.4649197951
 11
152.2909293626
 21
31.4003927049
 12
152.1753043074
 22
31.4649197951
 13
152.1753043074
 23
31.4649197951
  0
SOLID
  8
0
 62
7
  6
CONTINUOUS
 10
152.2909293626
 20
31.4003927049
 11
152.1753043074
 21
31.3358640533
 12
152.1753043074
 22
31.4649197951
 13
152.1753043074
 23
31.4649197951
  0
SOLID
  8
0
 62
7
  6
CONTINUOUS
 10
152.1753043074
 20
31.3358640533
 11
151.8862417523
 21
30.5938002869
 12
152.1753043074
 22
31.4649197951
 13
152.1753043074
 23
31.4649197951
  0
SOLID
  8
0
 62
7
  6
CONTINUOUS
 10
152.1753043074
 20
31.4649197951
 11
151.8862417523
 21
30.5938002869
 12
152.1753043074
 22
32.1101937295
 13
152.1753043074
 23
32.1101937295
  0
SOLID
  8
0
 62
7
  6
CONTINUOUS
 10
151.8862417523
 20
30.5938002869
 11
151.8862417523
 21
32.1101937295
 12
152.1753043074
 22
32.1101937295
 13
152.1753043074
 23
32.1101937295
  0
SOLID
  8
0
 62
7
  6
CONTINUOUS
 10
152.1753043074
 20
31.3358640533
 11
152.1753043074
 21
30.5938002869
 12
151.8862417523
 22
30.5938002869
 13
151.8862417523
 23
30.5938002869
  0
SOLID
  8
0
 62
7
  6
CONTINUOUS
 10
153.2159293074
 20
30.5938002869
 11
153.2159293074
 21
31.2390742213
 12
153.5049916972
 22
31.2390742213
 13
153.5049916972
 23
31.2390742213
  0
SOLID
  8
0
 62
7
  6
CONTINUOUS
 10
153.5049916972
 20
31.2390742213
 11
153.5049916972
 21
30.5938002869
 12
153.2159293074
 22
30.5938002869
 13
153.2159293074
 23
30.5938002869
  0
SOLID
  8
0
 62
7
  6
CONTINUOUS
 10
154.2565543074
 20
31.5939738288
 11
154.6612419177
 21
31.6262385959
 12
155.0081169177
 22
31.6262385959
 13
155.0081169177
 23
31.6262385959
  0
SOLID
  8
0
 62
7
  6
CONTINUOUS
 10
155.0081169177
 20
31.6262385959
 11
155.3549915869
 21
31.5939738288
 12
154.2565543074
 22
31.5939738288
 13
154.2565543074
 23
31.5939738288
  0
SOLID
  8
0
 62
7
  6
CONTINUOUS
 10
154.1409294177
 20
31.5617111435
 11
154.2565543074
 21
31.5939738288
 12
155.3549915869
 22
31.5939738288
 13
155.3549915869
 23
31.5939738288
  0
SOLID
  8
0
 62
7
  6
CONTINUOUS
 10
155.3549915869
 20
31.5939738288
 11
155.5284290869
 21
31.5294468402
 12
154.1409294177
 22
31.5617111435
 13
154.1409294177
 23
31.5617111435
  0
SOLID
  8
0
 62
7
  6
CONTINUOUS
 10
154.0253041972
 20
31.4971826249
 11
154.1409294177
 21
31.5617111435
 12
155.5284290869
 22
31.5294468402
 13
155.5284290869
 23
31.5294468402
  0
SOLID
  8
0
 62
7
  6
CONTINUOUS
 10
154.0253041972
 20
31.4971826249
 11
155.5284290869
 21
31.5294468402
 12
154.6612419177
 22
31.4971826249
 13
154.6612419177
 23
31.4971826249
  0
SOLID
  8
0
 62
7
  6
CONTINUOUS
 10
154.6612419177
 20
31.4971826249
 11
155.5284290869
 21
31.5294468402
 12
155.0081169177
 22
31.4971826249
 13
155.0081169177
 23
31.4971826249
  0
SOLID
  8
0
 62
7
  6
CONTINUOUS
 10
155.0081169177
 20
31.4971826249
 11
155.5284290869
 21
31.5294468402
 12
155.239367028
 22
31.4649194065
 13
155.239367028
 23
31.4649194065
  0
SOLID
  8
0
 62
7
  6
CONTINUOUS
 10
155.5284290869
 20
31.5294468402
 11
155.6440543074
 21
31.4649194065
 12
155.239367028
 22
31.4649194065
 13
155.239367028
 23
31.4649194065
  0
SOLID
  8
0
 62
7
  6
CONTINUOUS
 10
153.9674919177
 20
31.4326554138
 11
154.0253041972
 21
31.4971826249
 12
154.6612419177
 22
31.4971826249
 13
154.6612419177
 23
31.4971826249
  0
SOLID
  8
0
 62
7
  6
CONTINUOUS
 10
155.3549915869
 20
31.4326554138
 11
155.239367028
 21
31.4649194065
 12
155.6440543074
 22
31.4649194065
 13
155.6440543074
 23
31.4649194065
  0
SOLID
  8
0
 62
7
  6
CONTINUOUS
 10
155.3549915869
 20
31.4326554138
 11
155.6440543074
 21
31.4649194065
 12
155.412804528
 22
31.3681282026
 13
155.412804528
 23
31.3681282026
  0
SOLID
  8
0
 62
7
  6
CONTINUOUS
 10
155.6440543074
 20
31.4649194065
 11
155.7018665869
 21
31.3681282026
 12
155.412804528
 22
31.3681282026
 13
155.412804528
 23
31.3681282026
  0
SOLID
  8
0
 62
7
  6
CONTINUOUS
 10
155.412804528
 20
31.2713369632
 11
155.412804528
 21
31.3681282026
 12
155.7018665869
 22
31.3681282026
 13
155.7018665869
 23
31.3681282026
  0
SOLID
  8
0
 62
7
  6
CONTINUOUS
 10
155.412804528
 20
31.2713369632
 11
155.7018665869
 21
31.3681282026
 12
155.412804528
 22
31.1422827828
 13
155.412804528
 23
31.1422827828
  0
SOLID
  8
0
 62
7
  6
CONTINUOUS
 10
155.412804528
 20
31.1422827828
 11
155.7018665869
 21
31.3681282026
 12
155.412804528
 22
30.9487004259
 13
155.412804528
 23
30.9487004259
  0
SOLID
  8
0
 62
7
  6
CONTINUOUS
 10
155.7018665869
 20
31.3681282026
 11
155.7018665869
 21
30.8519086025
 12
155.412804528
 22
30.9487004259
 13
155.412804528
 23
30.9487004259
  0
SOLID
  8
0
 62
7
  6
CONTINUOUS
 10
157.6096790869
 20
31.5939736268
 11
157.840929528
 21
31.6262383465
 12
158.0721793074
 22
31.6262383465
 13
158.0721793074
 23
31.6262383465
  0
SOLID
  8
0
 62
7
  6
CONTINUOUS
 10
158.0721793074
 20
31.6262383465
 11
158.2456168074
 21
31.5939736268
 12
157.6096790869
 22
31.5939736268
 13
157.6096790869
 23
31.5939736268
  0
SOLID
  8
0
 62
7
  6
CONTINUOUS
 10
157.4362415869
 20
31.5294472848
 11
157.6096790869
 21
31.5939736268
 12
158.2456168074
 22
31.5939736268
 13
158.2456168074
 23
31.5939736268
  0
SOLID
  8
0
 62
7
  6
CONTINUOUS
 10
158.2456168074
 20
31.5939736268
 11
158.4190543074
 21
31.5294472848
 12
157.4362415869
 22
31.5294472848
 13
157.4362415869
 23
31.5294472848
  0
SOLID
  8
0
 62
7
  6
CONTINUOUS
 10
158.4190543074
 20
31.5294472848
 11
157.840929528
 21
31.4971825369
 12
157.4362415869
 22
31.5294472848
 13
157.4362415869
 23
31.5294472848
  0
SOLID
  8
0
 62
7
  6
CONTINUOUS
 10
157.320617028
 20
31.4649199103
 11
157.4362415869
 21
31.5294472848
 12
157.840929528
 22
31.4971825369
 13
157.840929528
 23
31.4971825369
  0
SOLID
  8
0
 62
7
  6
CONTINUOUS
 10
157.840929528
 20
31.4971825369
 11
157.6096790869
 21
31.4649199103
 12
157.320617028
 22
31.4649199103
 13
157.320617028
 23
31.4649199103
  0
SOLID
  8
0
 62
7
  6
CONTINUOUS
 10
157.840929528
 20
31.4971825369
 11
158.4190543074
 21
31.5294472848
 12
158.0721793074
 22
31.4649199103
 13
158.0721793074
 23
31.4649199103
  0
SOLID
  8
0
 62
7
  6
CONTINUOUS
 10
158.4190543074
 20
31.5294472848
 11
158.534679528
 21
31.4649199103
 12
158.0721793074
 22
31.4649199103
 13
158.0721793074
 23
31.4649199103
  0
SOLID
  8
0
 62
7
  6
CONTINUOUS
 10
158.187804528
 20
31.4326554468
 11
158.0721793074
 21
31.4649199103
 12
158.534679528
 22
31.4649199103
 13
158.534679528
 23
31.4649199103
  0
SOLID
  8
0
 62
7
  6
CONTINUOUS
 10
158.187804528
 20
31.4326554468
 11
158.534679528
 21
31.4649199103
 12
158.3034290869
 22
31.3681288486
 13
158.3034290869
 23
31.3681288486
  0
SOLID
  8
0
 62
7
  6
CONTINUOUS
 10
158.534679528
 20
31.4649199103
 11
158.5924918074
 21
31.3681288486
 12
158.3034290869
 22
31.3681288486
 13
158.3034290869
 23
31.3681288486
  0
SOLID
  8
0
 62
7
  6
CONTINUOUS
 10
158.361242028
 20
31.2068093799
 11
158.3034290869
 21
31.3681288486
 12
158.5924918074
 22
31.3681288486
 13
158.5924918074
 23
31.3681288486
  0
SOLID
  8
0
 62
7
  6
CONTINUOUS
 10
158.5924918074
 20
31.3681288486
 11
158.6503040869
 21
31.2068093799
 12
158.361242028
 22
31.2068093799
 13
158.361242028
 23
31.2068093799
  0
SOLID
  8
0
 62
7
  6
CONTINUOUS
 10
157.6096790869
 20
31.4649199103
 11
157.4362415869
 21
31.4003926599
 12
157.320617028
 22
31.4649199103
 13
157.320617028
 23
31.4649199103
  0
SOLID
  8
0
 62
7
  6
CONTINUOUS
 10
157.4362415869
 20
31.4003926599
 11
157.320617028
 21
31.3358640533
 12
157.320617028
 22
31.4649199103
 13
157.320617028
 23
31.4649199103
  0
SOLID
  8
0
 62
7
  6
CONTINUOUS
 10
157.320617028
 20
31.3358640533
 11
157.0315543074
 21
30.5938003547
 12
157.320617028
 22
31.4649199103
 13
157.320617028
 23
31.4649199103
  0
SOLID
  8
0
 62
7
  6
CONTINUOUS
 10
157.320617028
 20
31.4649199103
 11
157.0315543074
 21
30.5938003547
 12
157.320617028
 22
31.6262383465
 13
157.320617028
 23
31.6262383465
  0
SOLID
  8
0
 62
7
  6
CONTINUOUS
 10
157.0315543074
 20
30.5938003547
 11
157.0315543074
 21
31.6262383465
 12
157.320617028
 22
31.6262383465
 13
157.320617028
 23
31.6262383465
  0
SOLID
  8
0
 62
7
  6
CONTINUOUS
 10
157.320617028
 20
31.3358640533
 11
157.320617028
 21
30.5938003547
 12
157.0315543074
 22
30.5938003547
 13
157.0315543074
 23
30.5938003547
  0
SOLID
  8
0
 62
7
  6
CONTINUOUS
 10
158.361242028
 20
30.5938003547
 11
158.361242028
 21
31.2068093799
 12
158.6503040869
 22
31.2068093799
 13
158.6503040869
 23
31.2068093799
  0
SOLID
  8
0
 62
7
  6
CONTINUOUS
 10
158.6503040869
 20
31.2068093799
 11
158.6503040869
 21
30.5938003547
 12
158.361242028
 22
30.5938003547
 13
158.361242028
 23
30.5938003547
  0
SOLID
  8
0
 62
7
  6
CONTINUOUS
 10
159.4596793074
 20
31.5939739474
 11
159.8065543074
 21
31.6262381969
 12
160.1534293074
 22
31.6262381969
 13
160.1534293074
 23
31.6262381969
  0
SOLID
  8
0
 62
7
  6
CONTINUOUS
 10
160.1534293074
 20
31.6262381969
 11
160.5003043074
 21
31.5939739474
 12
159.4596793074
 22
31.5939739474
 13
159.4596793074
 23
31.5939739474
  0
SOLID
  8
0
 62
7
  6
CONTINUOUS
 10
159.228429528
 20
31.5294468402
 11
159.4596793074
 21
31.5939739474
 12
160.5003043074
 22
31.5939739474
 13
160.5003043074
 23
31.5939739474
  0
SOLID
  8
0
 62
7
  6
CONTINUOUS
 10
159.228429528
 20
31.5294468402
 11
160.5003043074
 21
31.5939739304
 12
160.6737418074
 22
31.5617111435
 13
160.6737418074
 23
31.5617111435
  0
SOLID
  8
0
 62
7
  6
CONTINUOUS
 10
159.228429528
 20
31.5294468402
 11
160.6737418074
 21
31.5617111435
 12
159.8065543074
 22
31.4971825592
 13
159.8065543074
 23
31.4971825592
  0
SOLID
  8
0
 62
7
  6
CONTINUOUS
 10
159.8065543074
 20
31.4971825592
 11
160.6737418074
 21
31.5617111435
 12
160.1534293074
 22
31.4971825592
 13
160.1534293074
 23
31.4971825592
  0
SOLID
  8
0
 62
7
  6
CONTINUOUS
 10
160.6737418074
 20
31.5617111435
 11
160.8471793074
 21
31.4971825592
 12
160.1534293074
 22
31.4971825592
 13
160.1534293074
 23
31.4971825592
  0
SOLID
  8
0
 62
7
  6
CONTINUOUS
 10
160.5003043074
 20
31.4649197501
 11
160.1534293074
 21
31.4971825592
 12
160.8471793074
 22
31.4971825592
 13
160.8471793074
 23
31.4971825592
  0
SOLID
  8
0
 62
7
  6
CONTINUOUS
 10
159.1128043074
 20
31.4326555427
 11
159.228429528
 21
31.5294468402
 12
159.8065543074
 22
31.4971825592
 13
159.8065543074
 23
31.4971825592
  0
SOLID
  8
0
 62
7
  6
CONTINUOUS
 10
160.5003043074
 20
31.4649197501
 11
160.8471793074
 21
31.4971825592
 12
160.615929528
 22
31.4326555427
 13
160.615929528
 23
31.4326555427
  0
SOLID
  8
0
 62
7
  6
CONTINUOUS
 10
160.615929528
 20
31.4326555427
 11
160.8471793074
 21
31.4971825592
 12
160.6737418074
 22
31.3681283005
 13
160.6737418074
 23
31.3681283005
  0
SOLID
  8
0
 62
7
  6
CONTINUOUS
 10
160.8471793074
 20
31.4971825592
 11
160.9628038663
 21
31.3681283005
 12
160.6737418074
 22
31.3681283005
 13
160.6737418074
 23
31.3681283005
  0
SOLID
  8
0
 62
7
  6
CONTINUOUS
 10
150.2674918074
 20
31.4649197501
 11
149.7471793074
 21
31.4326554237
 12
150.498741835
 22
31.4971824493
 13
150.498741835
 23
31.4971824493
  0
SOLID
  8
0
 62
7
  6
CONTINUOUS
 10
149.7471793074
 20
31.4326554237
 11
149.8628043005
 21
31.4971824493
 12
150.498741835
 22
31.4971824493
 13
150.498741835
 23
31.4971824493
  0
SOLID
  8
0
 62
7
  6
CONTINUOUS
 10
150.2674918074
 20
31.4649197501
 11
150.1518667936
 21
31.4326554237
 12
149.7471793074
 22
31.4326554237
 13
149.7471793074
 23
31.4326554237
  0
SOLID
  8
0
 62
7
  6
CONTINUOUS
 10
149.6315543091
 20
31.3036012664
 11
149.7471793074
 21
31.4326554237
 12
150.1518667936
 22
31.4326554237
 13
150.1518667936
 23
31.4326554237
  0
SOLID
  8
0
 62
7
  6
CONTINUOUS
 10
153.9674919177
 20
31.4326554237
 11
154.6612419177
 21
31.4971825369
 12
154.4299918074
 22
31.4649197501
 13
154.4299918074
 23
31.4649197501
  0
SOLID
  8
0
 62
7
  6
CONTINUOUS
 10
154.4299918074
 20
31.4649197501
 11
154.3143669177
 21
31.4326554237
 12
153.9674919177
 22
31.4326554237
 13
153.9674919177
 23
31.4326554237
  0
SOLID
  8
0
 62
7
  6
CONTINUOUS
 10
153.9674919177
 20
31.3681283335
 11
153.9674919177
 21
31.4326554237
 12
154.3143669177
 22
31.4326554237
 13
154.3143669177
 23
31.4326554237
  0
SOLID
  8
0
 62
7
  6
CONTINUOUS
 10
154.3143669177
 20
31.4326554237
 11
154.2565543074
 21
31.3681283335
 12
153.9674919177
 22
31.3681283335
 13
153.9674919177
 23
31.3681283335
  0
SOLID
  8
0
 62
7
  6
CONTINUOUS
 10
159.1128043074
 20
31.4326555528
 11
159.8065543074
 21
31.4971825369
 12
159.575304528
 22
31.4649197501
 13
159.575304528
 23
31.4649197501
  0
SOLID
  8
0
 62
7
  6
CONTINUOUS
 10
159.575304528
 20
31.4649197501
 11
159.4596793074
 21
31.4326555528
 12
159.1128043074
 22
31.4326555528
 13
159.1128043074
 23
31.4326555528
  0
SOLID
  8
0
 62
7
  6
CONTINUOUS
 10
159.1128043074
 20
31.3681284626
 11
159.1128043074
 21
31.4326555528
 12
159.4596793074
 22
31.4326555528
 13
159.4596793074
 23
31.4326555528
  0
SOLID
  8
0
 62
7
  6
CONTINUOUS
 10
159.4596793074
 20
31.4326555528
 11
159.401867028
 21
31.3681284626
 12
159.1128043074
 22
31.3681284626
 13
159.1128043074
 23
31.3681284626
  0
SOLID
  8
0
 62
7
  6
CONTINUOUS
 10
159.228429528
 20
31.2390741763
 11
159.1128043074
 21
31.3681284626
 12
159.401867028
 22
31.3681284626
 13
159.401867028
 23
31.3681284626
  0
SOLID
  8
0
 62
7
  6
CONTINUOUS
 10
149.6315543091
 20
31.3036012664
 11
150.1518667936
 21
31.4326554468
 12
149.9784292936
 22
31.3358640533
 13
149.9784292936
 23
31.3358640533
  0
SOLID
  8
0
 62
7
  6
CONTINUOUS
 10
149.9784292936
 20
31.3358640533
 11
149.9206168074
 21
31.2713369632
 12
149.6315543091
 22
31.3036012664
 13
149.6315543091
 23
31.3036012664
  0
SOLID
  8
0
 62
7
  6
CONTINUOUS
 10
149.5737418074
 20
31.1100184796
 11
149.6315543091
 21
31.3036012664
 12
149.9206168074
 22
31.2713369632
 13
149.9206168074
 23
31.2713369632
  0
SOLID
  8
0
 62
7
  6
CONTINUOUS
 10
154.4299918074
 20
31.2390741763
 11
154.7768668074
 21
31.271336924
 12
155.412804528
 22
31.271336924
 13
155.412804528
 23
31.271336924
  0
SOLID
  8
0
 62
7
  6
CONTINUOUS
 10
154.4299918074
 20
31.2390741763
 11
155.412804528
 21
31.271336924
 12
154.1987416972
 22
31.1745462761
 13
154.1987416972
 23
31.1745462761
  0
SOLID
  8
0
 62
7
  6
CONTINUOUS
 10
154.1987416972
 20
31.1745462761
 11
155.412804528
 21
31.271336924
 12
154.7768668074
 22
31.1422827436
 13
154.7768668074
 23
31.1422827436
  0
SOLID
  8
0
 62
7
  6
CONTINUOUS
 10
155.412804528
 20
31.271336924
 11
155.412804528
 21
31.1422827436
 12
154.7768668074
 22
31.1422827436
 13
154.7768668074
 23
31.1422827436
  0
SOLID
  8
0
 62
7
  6
CONTINUOUS
 10
159.228429528
 20
31.2390745501
 11
159.401867028
 21
31.3681283566
 12
159.4596793074
 22
31.3036012664
 13
159.4596793074
 23
31.3036012664
  0
SOLID
  8
0
 62
7
  6
CONTINUOUS
 10
159.4596793074
 20
31.3036012664
 11
159.6331168074
 21
31.2390745501
 12
159.228429528
 22
31.2390745501
 13
159.228429528
 23
31.2390745501
  0
SOLID
  8
0
 62
7
  6
CONTINUOUS
 10
159.4596793074
 20
31.1422827828
 11
159.228429528
 21
31.2390745501
 12
159.6331168074
 22
31.2390745501
 13
159.6331168074
 23
31.2390745501
  0
SOLID
  8
0
 62
7
  6
CONTINUOUS
 10
159.6331168074
 20
31.2390745501
 11
160.615929528
 21
31.0777556927
 12
159.4596793074
 22
31.1422827828
 13
159.4596793074
 23
31.1422827828
  0
SOLID
  8
0
 62
7
  6
CONTINUOUS
 10
160.442492028
 20
30.9809646623
 11
159.4596793074
 21
31.1422827828
 12
160.615929528
 22
31.0777556927
 13
160.615929528
 23
31.0777556927
  0
SOLID
  8
0
 62
7
  6
CONTINUOUS
 10
160.615929528
 20
31.0777556927
 11
160.8471793074
 21
30.9809646623
 12
160.442492028
 22
30.9809646623
 13
160.442492028
 23
30.9809646623
  0
SOLID
  8
0
 62
7
  6
CONTINUOUS
 10
160.615929528
 20
30.9164372091
 11
160.442492028
 21
30.9809646623
 12
160.8471793074
 22
30.9809646623
 13
160.8471793074
 23
30.9809646623
  0
SOLID
  8
0
 62
7
  6
CONTINUOUS
 10
160.615929528
 20
30.9164372091
 11
160.8471793074
 21
30.9809646623
 12
160.6737418074
 22
30.8519089441
 13
160.6737418074
 23
30.8519089441
  0
SOLID
  8
0
 62
7
  6
CONTINUOUS
 10
160.8471793074
 20
30.9809646623
 11
160.9628038663
 21
30.8519089441
 12
160.6737418074
 22
30.8519089441
 13
160.6737418074
 23
30.8519089441
  0
SOLID
  8
0
 62
7
  6
CONTINUOUS
 10
160.615929528
 20
30.7873818593
 11
160.6737418074
 21
30.8519089441
 12
160.9628038663
 22
30.8519089441
 13
160.9628038663
 23
30.8519089441
  0
SOLID
  8
0
 62
7
  6
CONTINUOUS
 10
160.9628038663
 20
30.8519089441
 11
160.9628038663
 21
30.7873818593
 12
160.615929528
 22
30.7873818593
 13
160.615929528
 23
30.7873818593
  0
SOLID
  8
0
 62
7
  6
CONTINUOUS
 10
160.5003043074
 20
30.7551187255
 11
160.615929528
 21
30.7873818593
 12
160.9628038663
 22
30.7873818593
 13
160.9628038663
 23
30.7873818593
  0
SOLID
  8
0
 62
7
  6
CONTINUOUS
 10
160.5003043074
 20
30.7551187255
 11
160.9628038663
 21
30.7873818593
 12
160.269054528
 22
30.7228547745
 13
160.269054528
 23
30.7228547745
  0
SOLID
  8
0
 62
7
  6
CONTINUOUS
 10
160.9628038663
 20
30.7873818593
 11
160.8471793074
 21
30.6905916353
 12
160.269054528
 22
30.7228547745
 13
160.269054528
 23
30.7228547745
  0
SOLID
  8
0
 62
7
  6
CONTINUOUS
 10
160.8471793074
 20
30.6905916353
 11
159.401867028
 21
30.658327332
 12
160.269054528
 22
30.7228547745
 13
160.269054528
 23
30.7228547745
  0
SOLID
  8
0
 62
7
  6
CONTINUOUS
 10
160.269054528
 20
30.7228547745
 11
159.401867028
 21
30.658327332
 12
159.922179528
 22
30.7228547745
 13
159.922179528
 23
30.7228547745
  0
SOLID
  8
0
 62
7
  6
CONTINUOUS
 10
159.401867028
 20
30.658327332
 11
159.228429528
 21
30.7228547745
 12
159.922179528
 22
30.7228547745
 13
159.922179528
 23
30.7228547745
  0
SOLID
  8
0
 62
7
  6
CONTINUOUS
 10
159.401867028
 20
30.658327332
 11
160.8471793074
 21
30.6905916353
 12
159.575304528
 22
30.6260629858
 13
159.575304528
 23
30.6260629858
  0
SOLID
  8
0
 62
7
  6
CONTINUOUS
 10
160.8471793074
 20
30.6905916353
 11
160.615929528
 21
30.6260629858
 12
159.575304528
 22
30.6260629858
 13
159.575304528
 23
30.6260629858
  0
SOLID
  8
0
 62
7
  6
CONTINUOUS
 10
159.922179528
 20
30.5938006049
 11
159.575304528
 21
30.6260629858
 12
160.615929528
 22
30.6260629858
 13
160.615929528
 23
30.6260629858
  0
SOLID
  8
0
 62
7
  6
CONTINUOUS
 10
160.615929528
 20
30.6260629858
 11
160.269054528
 21
30.5938006049
 12
159.922179528
 22
30.5938006049
 13
159.922179528
 23
30.5938006049
  0
SOLID
  8
0
 62
7
  6
CONTINUOUS
 10
149.5737418074
 20
31.1100184796
 11
149.9206168074
 21
31.2713369632
 12
149.8628043005
 22
31.1422827828
 13
149.8628043005
 23
31.1422827828
  0
SOLID
  8
0
 62
7
  6
CONTINUOUS
 10
149.8628043005
 20
31.1422827828
 11
149.8628043005
 21
31.0454914852
 12
149.5737418074
 22
31.1100184796
 13
149.5737418074
 23
31.1100184796
  0
SOLID
  8
0
 62
7
  6
CONTINUOUS
 10
149.6315543091
 20
30.9164372091
 11
149.5737418074
 21
31.1100184796
 12
149.8628043005
 22
31.0454914852
 13
149.8628043005
 23
31.0454914852
  0
SOLID
  8
0
 62
7
  6
CONTINUOUS
 10
149.8628043005
 20
31.0454914852
 11
149.9784292936
 21
30.8841729058
 12
149.6315543091
 22
30.9164372091
 13
149.6315543091
 23
30.9164372091
  0
SOLID
  8
0
 62
7
  6
CONTINUOUS
 10
149.7471793074
 20
30.7873813202
 11
149.6315543091
 21
30.9164372091
 12
149.9784292936
 22
30.8841729058
 13
149.9784292936
 23
30.8841729058
  0
SOLID
  8
0
 62
7
  6
CONTINUOUS
 10
149.9784292936
 20
30.8841729058
 11
150.1518667936
 21
30.7873813202
 12
149.7471793074
 22
30.7873813202
 13
149.7471793074
 23
30.7873813202
  0
SOLID
  8
0
 62
7
  6
CONTINUOUS
 10
149.8628043005
 20
30.7228547004
 11
149.7471793074
 21
30.7873813202
 12
150.1518667936
 22
30.7873813202
 13
150.1518667936
 23
30.7873813202
  0
SOLID
  8
0
 62
7
  6
CONTINUOUS
 10
150.1518667936
 20
30.7873813202
 11
150.498741835
 21
30.7228547004
 12
149.8628043005
 22
30.7228547004
 13
149.8628043005
 23
30.7228547004
  0
SOLID
  8
0
 62
7
  6
CONTINUOUS
 10
150.0362418212
 20
30.658327332
 11
149.8628043005
 21
30.7228547004
 12
150.498741835
 22
30.7228547004
 13
150.498741835
 23
30.7228547004
  0
SOLID
  8
0
 62
7
  6
CONTINUOUS
 10
154.0831168074
 20
31.1100184386
 11
154.1987416972
 21
31.1745462761
 12
154.7768668074
 22
31.1422827828
 13
154.7768668074
 23
31.1422827828
  0
SOLID
  8
0
 62
7
  6
CONTINUOUS
 10
154.7768668074
 20
31.1422827828
 11
154.5456166972
 21
31.1100184386
 12
154.0831168074
 22
31.1100184386
 13
154.0831168074
 23
31.1100184386
  0
SOLID
  8
0
 62
7
  6
CONTINUOUS
 10
153.9674919177
 20
30.9809642992
 11
154.0831168074
 21
31.1100184386
 12
154.5456166972
 22
31.1100184386
 13
154.5456166972
 23
31.1100184386
  0
SOLID
  8
0
 62
7
  6
CONTINUOUS
 10
154.3143669177
 20
31.0132277988
 11
153.9674919177
 21
30.9809642992
 12
154.4299918074
 22
31.0777556927
 13
154.4299918074
 23
31.0777556927
  0
SOLID
  8
0
 62
7
  6
CONTINUOUS
 10
153.9674919177
 20
30.9809642992
 11
154.5456166972
 21
31.1100184796
 12
154.4299918074
 22
31.0777556927
 13
154.4299918074
 23
31.0777556927
  0
SOLID
  8
0
 62
7
  6
CONTINUOUS
 10
154.3143669177
 20
31.0132277988
 11
154.2565543074
 21
30.9164372091
 12
153.9674919177
 22
30.9809642992
 13
153.9674919177
 23
30.9809642992
  0
SOLID
  8
0
 62
7
  6
CONTINUOUS
 10
153.9674919177
 20
30.8841729058
 11
153.9674919177
 21
30.9809642992
 12
154.2565543074
 22
30.9164372091
 13
154.2565543074
 23
30.9164372091
  0
SOLID
  8
0
 62
7
  6
CONTINUOUS
 10
154.2565543074
 20
30.9164372091
 11
154.2565543074
 21
30.8519086025
 12
153.9674919177
 22
30.8841729058
 13
153.9674919177
 23
30.8841729058
  0
SOLID
  8
0
 62
7
  6
CONTINUOUS
 10
154.0253041972
 20
30.7551187255
 11
153.9674919177
 21
30.8841729058
 12
154.2565543074
 22
30.8519086025
 13
154.2565543074
 23
30.8519086025
  0
SOLID
  8
0
 62
7
  6
CONTINUOUS
 10
155.412804528
 20
30.9487004259
 11
155.7018665869
 21
30.8519086025
 12
155.3549915869
 22
30.8841729058
 13
155.3549915869
 23
30.8841729058
  0
SOLID
  8
0
 62
7
  6
CONTINUOUS
 10
155.1815540869
 20
30.7873815123
 11
155.3549915869
 21
30.8841729058
 12
155.7018665869
 22
30.8519086025
 13
155.7018665869
 23
30.8519086025
  0
SOLID
  8
0
 62
7
  6
CONTINUOUS
 10
155.1815540869
 20
30.7873815123
 11
155.7018665869
 21
30.8519086025
 12
155.412804528
 22
30.7551187255
 13
155.412804528
 23
30.7551187255
  0
SOLID
  8
0
 62
7
  6
CONTINUOUS
 10
155.7018665869
 20
30.8519086025
 11
155.759679528
 21
30.6905916353
 12
155.412804528
 22
30.7551187255
 13
155.412804528
 23
30.7551187255
  0
SOLID
  8
0
 62
7
  6
CONTINUOUS
 10
155.4706168074
 20
30.658327332
 11
155.412804528
 21
30.7551187255
 12
155.759679528
 22
30.6905916353
 13
155.759679528
 23
30.6905916353
  0
SOLID
  8
0
 62
7
  6
CONTINUOUS
 10
155.4706168074
 20
30.658327332
 11
155.759679528
 21
30.6905916353
 12
155.5284290869
 22
30.5938002079
 13
155.5284290869
 23
30.5938002079
  0
SOLID
  8
0
 62
7
  6
CONTINUOUS
 10
155.759679528
 20
30.6905916353
 11
155.8174918074
 21
30.5938002079
 12
155.5284290869
 22
30.5938002079
 13
155.5284290869
 23
30.5938002079
  0
SOLID
  8
0
 62
7
  6
CONTINUOUS
 10
151.0768668626
 20
30.8196456577
 11
151.1346793074
 21
30.9164373395
 12
151.4237418626
 22
30.9164373395
 13
151.4237418626
 23
30.9164373395
  0
SOLID
  8
0
 62
7
  6
CONTINUOUS
 10
151.4237418626
 20
30.9164373395
 11
151.3659292523
 21
30.7873815123
 12
151.0768668626
 22
30.8196456577
 13
151.0768668626
 23
30.8196456577
  0
SOLID
  8
0
 62
7
  6
CONTINUOUS
 10
150.9034292799
 20
30.7551187255
 11
151.0768668626
 21
30.8196456577
 12
151.3659292523
 22
30.7873815123
 13
151.3659292523
 23
30.7873815123
  0
SOLID
  8
0
 62
7
  6
CONTINUOUS
 10
150.9034292799
 20
30.7551187255
 11
151.3659292523
 21
30.7873815123
 12
150.498741835
 22
30.7228544222
 13
150.498741835
 23
30.7228544222
  0
SOLID
  8
0
 62
7
  6
CONTINUOUS
 10
151.3659292523
 20
30.7873815123
 11
151.1924917523
 21
30.6905916353
 12
150.498741835
 22
30.7228544222
 13
150.498741835
 23
30.7228544222
  0
SOLID
  8
0
 62
7
  6
CONTINUOUS
 10
150.0362418212
 20
30.658327332
 11
150.498741835
 21
30.7228544222
 12
151.1924917523
 22
30.6905916353
 13
151.1924917523
 23
30.6905916353
  0
SOLID
  8
0
 62
7
  6
CONTINUOUS
 10
150.0362418212
 20
30.658327332
 11
151.1924917523
 21
30.6905916353
 12
150.2096793212
 22
30.6260631011
 13
150.2096793212
 23
30.6260631011
  0
SOLID
  8
0
 62
7
  6
CONTINUOUS
 10
151.1924917523
 20
30.6905916353
 11
150.9612418074
 21
30.6260631011
 12
150.2096793212
 22
30.6260631011
 13
150.2096793212
 23
30.6260631011
  0
SOLID
  8
0
 62
7
  6
CONTINUOUS
 10
150.5565542799
 20
30.5938002419
 11
150.2096793212
 21
30.6260631011
 12
150.9612418074
 22
30.6260631011
 13
150.9612418074
 23
30.6260631011
  0
SOLID
  8
0
 62
7
  6
CONTINUOUS
 10
154.0253041972
 20
30.7551187255
 11
154.2565543074
 21
30.8519086025
 12
154.3143669177
 22
30.7873815123
 13
154.3143669177
 23
30.7873815123
  0
SOLID
  8
0
 62
7
  6
CONTINUOUS
 10
154.3143669177
 20
30.7873815123
 11
154.5456166972
 21
30.7228544222
 12
154.0253041972
 22
30.7551187255
 13
154.0253041972
 23
30.7551187255
  0
SOLID
  8
0
 62
7
  6
CONTINUOUS
 10
154.1987416972
 20
30.658327332
 11
154.0253041972
 21
30.7551187255
 12
154.5456166972
 22
30.7228544222
 13
154.5456166972
 23
30.7228544222
  0
SOLID
  8
0
 62
7
  6
CONTINUOUS
 10
154.8924916972
 20
30.7228544637
 11
155.1815540869
 21
30.7873815123
 12
155.412804528
 22
30.7551187255
 13
155.412804528
 23
30.7551187255
  0
SOLID
  8
0
 62
7
  6
CONTINUOUS
 10
155.412804528
 20
30.7551187255
 11
155.3549915869
 21
30.6905916353
 12
154.8924916972
 22
30.7228544637
 13
154.8924916972
 23
30.7228544637
  0
SOLID
  8
0
 62
7
  6
CONTINUOUS
 10
155.3549915869
 20
30.6905916353
 11
154.1987416972
 21
30.658327332
 12
154.8924916972
 22
30.7228544637
 13
154.8924916972
 23
30.7228544637
  0
SOLID
  8
0
 62
7
  6
CONTINUOUS
 10
154.1987416972
 20
30.658327332
 11
154.5456166972
 21
30.7228544637
 12
154.8924916972
 22
30.7228544637
 13
154.8924916972
 23
30.7228544637
  0
SOLID
  8
0
 62
7
  6
CONTINUOUS
 10
154.1987416972
 20
30.658327332
 11
155.3549915869
 21
30.6905916353
 12
154.3143669177
 22
30.6260630541
 13
154.3143669177
 23
30.6260630541
  0
SOLID
  8
0
 62
7
  6
CONTINUOUS
 10
155.3549915869
 20
30.6905916353
 11
155.1815540869
 21
30.6260630541
 12
154.3143669177
 22
30.6260630541
 13
154.3143669177
 23
30.6260630541
  0
SOLID
  8
0
 62
7
  6
CONTINUOUS
 10
154.5456166972
 20
30.5938002188
 11
154.3143669177
 21
30.6260630541
 12
155.1815540869
 22
30.6260630541
 13
155.1815540869
 23
30.6260630541
  0
SOLID
  8
0
 62
7
  6
CONTINUOUS
 10
155.1815540869
 20
30.6260630541
 11
154.8924916972
 21
30.5938002188
 12
154.5456166972
 22
30.5938002188
 13
154.5456166972
 23
30.5938002188
  0
SOLID
  8
0
 62
7
  6
CONTINUOUS
 10
159.575304528
 20
30.7551187255
 11
159.228429528
 21
30.7228544637
 12
159.4596793074
 22
30.7873815123
 13
159.4596793074
 23
30.7873815123
  0
SOLID
  8
0
 62
7
  6
CONTINUOUS
 10
159.4596793074
 20
30.7873815123
 11
159.228429528
 21
30.7228544637
 12
159.401867028
 22
30.851908644
 13
159.401867028
 23
30.851908644
  0
SOLID
  8
0
 62
7
  6
CONTINUOUS
 10
159.228429528
 20
30.7228544637
 11
159.1128043074
 21
30.851908644
 12
159.401867028
 22
30.851908644
 13
159.401867028
 23
30.851908644
  0
SOLID
  8
0
 62
7
  6
CONTINUOUS
 10
159.575304528
 20
30.7551187255
 11
159.922179528
 21
30.7228544637
 12
159.228429528
 22
30.7228544637
 13
159.228429528
 23
30.7228544637
  0
SOLID
  8
0
 62
7
  6
CONTINUOUS
 10
156.279992028
 20
30.5938002419
 11
156.279992028
 21
31.6262382337
 12
156.5690540869
 22
30.5938002419
 13
156.5690540869
 23
31.6262382337
  0
ENDBLK
  8
0
  6
BYBLOCK
 62
0
  0
BLOCK
  8
0
 62
2
  6
CONTINUOUS
  2
SYMBOL_3_BL0
 70
64
 10
32.1213064866
 20
19.8534310916
  0
TEXT
  8
0
 62
7
  6
CONTINUOUS
 10
18.3860103289
 20
19.2268451992
  7
TEXTSTYLE_3
 40
2.7338706658
  1
Ammeraal Beltech
 41
1.0
 51
15.0
 72
0
  0
TEXT
  8
0
 62
7
  6
CONTINUOUS
 10
29.1868111546
 20
16.9533085264
  7
TEXTSTYLE_4
 40
1.0935482663
  1
Innovation & Service in Belting
 41
1.0
 72
0
  0
LINE
  8
0
 62
7
  6
CONTINUOUS
 10
12.3614696776
 20
19.9934385078
 11
13.1396216709
 21
23.6543558055
  0
LINE
  8
0
 62
7
  6
CONTINUOUS
 10
23.2347899607
 20
27.3177497171
 11
13.6274394139
 21
24.1961322958
  0
LINE
  8
0
 62
7
  6
CONTINUOUS
 10
12.5867530099
 20
19.3000877048
 11
20.093828271
 21
12.5406867788
  0
LINE
  8
0
 62
7
  6
CONTINUOUS
 10
12.8492874206
 20
20.5352149982
 11
23.6575567857
 21
24.0470345971
  0
LINE
  8
0
 62
7
  6
CONTINUOUS
 10
23.6533516486
 20
13.6972460334
 11
15.2078919798
 21
21.3015720751
  0
LINE
  8
0
 62
7
  6
CONTINUOUS
 10
24.1731743684
 20
26.4728246013
 11
23.1966148312
 21
21.8784731989
  0
LINE
  8
0
 62
7
  6
CONTINUOUS
 10
22.4968128835
 20
18.5861638851
 11
21.810364672
 21
15.3566789607
  0
LINE
  8
0
 62
7
  6
CONTINUOUS
 10
24.8542704669
 20
14.087448211
 11
25.8105020025
 21
18.5861638851
  0
LINE
  8
0
 62
7
  6
CONTINUOUS
 10
26.5103039502
 20
21.8784731989
 11
26.9545457526
 21
23.9684665583
  0
LINE
  8
0
 62
7
  6
CONTINUOUS
 10
20.8069293463
 20
12.3891124661
 11
24.3664527239
 21
13.5456717207
  0
LINE
  8
0
 62
7
  6
CONTINUOUS
 10
23.9478910361
 20
27.1661754044
 11
26.7292624203
 21
24.6618173613
  0
ARC
  8
0
 62
7
  6
CONTINUOUS
 10
13.8527227462
 20
23.5027814928
 40
0.7290321776
 50
108.0
 51
168.0
  0
ARC
  8
0
 62
7
  6
CONTINUOUS
 10
23.4600732931
 20
26.624398914
 40
0.7290321776
 50
348.0
 51
108.0
  0
ARC
  8
0
 62
7
  6
CONTINUOUS
 10
26.2414446773
 20
24.120040871
 40
0.7290321776
 50
348.0
 51
48.0
  0
ARC
  8
0
 62
7
  6
CONTINUOUS
 10
20.581646014
 20
13.0824632691
 40
0.7290321776
 50
228.0
 51
288.0
  0
ARC
  8
0
 62
7
  6
CONTINUOUS
 10
13.0745707529
 20
19.8418641951
 40
0.7290321776
 50
108.0
 51
228.0
  0
ARC
  8
0
 62
7
  6
CONTINUOUS
 10
24.1411693916
 20
14.2390225237
 40
0.7290321776
 50
228.0
 51
348.0
  0
ENDBLK
  8
0
  6
BYBLOCK
 62
0
  0
ENDSEC
  0
SECTION
  2
ENTITIES
  0
TEXT
  8
0
 62
5
  6
CONTINUOUS
 10
96.0
 20
25.636
  7
TEXTSTYLE_2
 40
2.8
  1
Scale :
 41
0.6
 51
0.000019
 72
0
  0
TEXT
  8
0
 62
5
  6
CONTINUOUS
 10
116.0
 20
25.636
  7
TEXTSTYLE_2
 40
2.8
  1
Belt type:
 41
0.6
 51
0.000019
 72
0
  0
INSERT
  8
0
 62
2
  6
CONTINUOUS
  2
SYMBOL_3_BL0
 10
32.1213064866
 20
19.8534310916
  0
INSERT
  8
0
 62
2
  6
CONTINUOUS
  2
SYMBOL_8_BL1
 10
173.5956734183
 20
35.5937998301
  0
LINE
  8
0
 62
2
  6
CONTINUOUS
 10
10.0
 20
30.0
 11
200.0
 21
30.0
  0
LINE
  8
0
 62
2
  6
CONTINUOUS
 10
10.0
 20
30.0
 11
10.0
 21
10.0
  0
LINE
  8
0
 62
2
  6
CONTINUOUS
 10
10.0
 20
10.0
 11
200.0
 21
10.0
  0
LINE
  8
0
 62
2
  6
CONTINUOUS
 10
95.0
 20
30.0
 11
95.0
 21
10.0
  0
LINE
  8
0
 62
2
  6
CONTINUOUS
 10
115.0
 20
30.0
 11
115.0
 21
10.0
  0
LINE
  8
0
 62
2
  6
CONTINUOUS
 10
200.0
 20
30.0
 11
200.0
 21
10.0
  0
TEXT
  8
0
 62
5
  6
CONTINUOUS
 10
13.0
 20
23.303
  7
TEXTSTYLE_5
 40
1.52
  1
                                                                     Ammeraal Beltech Modular A/S
 41
1.0
 72
0
  0
TEXT
  8
0
 62
5
  6
CONTINUOUS
 10
13.0
 20
20.595
  7
TEXTSTYLE_5
 40
1.5
  1
                                                                      Hjulmagervej 21,  7100 Vejle,  DK
 41
1.0
 72
0
  0
TEXT
  8
0
 62
5
  6
CONTINUOUS
 10
13.0
 20
17.881
  7
TEXTSTYLE_5
 40
1.495
  1
                                                                      tel: 
 41
1.0
 72
0
  0
TEXT
  8
0
 62
5
  6
CONTINUOUS
 10
57.9869465649
 20
17.881
  7
TEXTSTYLE_5
 40
1.51
  1
+45 75723100     fax: +45 75723348
 41
1.0
 72
0
  0
TEXT
  8
0
 62
5
  6
CONTINUOUS
 10
13.0
 20
15.177
  7
TEXTSTYLE_5
 40
1.5
  1
                                                                      admin@unichains.dk  www.unichains.com
 41
1.0
 72
0
  0
TEXT
  8
0
 62
5
  6
CONTINUOUS
 10
99.75
 20
13.75
  7
TEXTSTYLE_6
 40
5.0
  1
1:1
 41
0.7
 72
1
 11
105.0
 21
13.75
  0
TEXT
  8
0
 62
5
  6
CONTINUOUS
 10
118.0
 20
13.75
  7
TEXTSTYLE_7
 40
7.5
  1
uni QNB C TAB K200
 41
0.5890625
 72
0
  0
LINE
  8
0
 62
7
  6
CONTINUOUS
 10
210.0
 20
0.0
 11
0.0
 21
0.0
  0
LINE
  8
0
 62
7
  6
CONTINUOUS
 10
10.0
 20
10.0
 11
200.0
 21
10.0
  0
LINE
  8
0
 62
7
  6
CONTINUOUS
 10
10.0
 20
30.0
 11
200.0
 21
30.0
  0
LINE
  8
0
 62
7
  6
CONTINUOUS
 10
0.0
 20
0.0
 11
0.0
 21
297.0
  0
LINE
  8
0
 62
7
  6
CONTINUOUS
 10
10.0
 20
10.0
 11
10.0
 21
287.0
  0
LINE
  8
0
 62
7
  6
CONTINUOUS
 10
200.0
 20
287.0
 11
200.0
 21
10.0
  0
LINE
  8
0
 62
7
  6
CONTINUOUS
 10
210.0
 20
0.0
 11
210.0
 21
297.0
  0
LINE
  8
0
 62
7
  6
CONTINUOUS
 10
10.0
 20
287.0
 11
200.0
 21
287.0
  0
LINE
  8
0
 62
7
  6
CONTINUOUS
 10
0.0
 20
297.0
 11
210.0
 21
297.0
  0
LINE
  8
2_FEATURE
 62
2
  6
CONTINUOUS
 10
47.7006788793
 20
121.6165647488
 11
47.7006788793
 21
123.5373491379
  0
LINE
  8
2_FEATURE
 62
2
  6
CONTINUOUS
 10
47.7006788793
 20
134.0973491379
 11
47.7006788793
 21
136.0181334867
  0
LINE
  8
0
 62
7
  6
CONTINUOUS
 10
47.7006788793
 20
119.9148889433
 11
47.7006788793
 21
145.5173460049
  0
POLYLINE
  8
0
 62
7
  6
CONTINUOUS
 66
1
 70
0
  0
VERTEX
  8
0
 62
7
  6
CONTINUOUS
 10
54.043841627
 20
112.3452909765
  0
VERTEX
  8
0
 62
7
  6
CONTINUOUS
 10
54.0462050906
 20
112.2979957286
  0
VERTEX
  8
0
 62
7
  6
CONTINUOUS
 10
54.0485842361
 20
112.2555111913
  0
VERTEX
  8
0
 62
7
  6
CONTINUOUS
 10
54.0509923309
 20
112.2174757329
  0
VERTEX
  8
0
 62
7
  6
CONTINUOUS
 10
54.0534554928
 20
112.1834433668
  0
VERTEX
  8
0
 62
7
  6
CONTINUOUS
 10
54.0560258595
 20
112.152820864
  0
VERTEX
  8
0
 62
7
  6
CONTINUOUS
 10
54.0588100631
 20
112.1247607327
  0
VERTEX
  8
0
 62
7
  6
CONTINUOUS
 10
54.0620881874
 20
112.0975784062
  0
VERTEX
  8
0
 62
7
  6
CONTINUOUS
 10
54.0663796672
 20
112.0694208268
  0
VERTEX
  8
0
 62
7
  6
CONTINUOUS
 10
54.0729214368
 20
112.0370780064
  0
VERTEX
  8
0
 62
7
  6
CONTINUOUS
 10
54.0852392884
 20
111.9938951932
  0
VERTEX
  8
0
 62
7
  6
CONTINUOUS
 10
54.111606345
 20
111.932595837
  0
VERTEX
  8
0
 62
7
  6
CONTINUOUS
 10
54.1580829732
 20
111.8630065284
  0
VERTEX
  8
0
 62
7
  6
CONTINUOUS
 10
54.2247421178
 20
111.7991156596
  0
VERTEX
  8
0
 62
7
  6
CONTINUOUS
 10
54.3104273889
 20
111.749386776
  0
VERTEX
  8
0
 62
7
  6
CONTINUOUS
 10
54.415850455
 20
111.7206929281
  0
VERTEX
  8
0
 62
7
  6
CONTINUOUS
 10
54.4675453976
 20
111.7173491451
  0
SEQEND
  0
POLYLINE
  8
0
 62
7
  6
CONTINUOUS
 66
1
 70
0
  0
VERTEX
  8
0
 62
7
  6
CONTINUOUS
 10
53.6875160825
 20
145.2894081713
  0
VERTEX
  8
0
 62
7
  6
CONTINUOUS
 10
53.6851526267
 20
145.3367033171
  0
VERTEX
  8
0
 62
7
  6
CONTINUOUS
 10
53.682773473
 20
145.3791880812
  0
VERTEX
  8
0
 62
7
  6
CONTINUOUS
 10
53.680365368
 20
145.4172235015
  0
VERTEX
  8
0
 62
7
  6
CONTINUOUS
 10
53.6779021996
 20
145.4512556733
  0
VERTEX
  8
0
 62
7
  6
CONTINUOUS
 10
53.6753318428
 20
145.4818778711
  0
VERTEX
  8
0
 62
7
  6
CONTINUOUS
 10
53.6725477013
 20
145.5099374859
  0
VERTEX
  8
0
 62
7
  6
CONTINUOUS
 10
53.6692695082
 20
145.5371204977
  0
VERTEX
  8
0
 62
7
  6
CONTINUOUS
 10
53.664977894
 20
145.5652786939
  0
VERTEX
  8
0
 62
7
  6
CONTINUOUS
 10
53.6584358591
 20
145.5976222162
  0
VERTEX
  8
0
 62
7
  6
CONTINUOUS
 10
53.6461175597
 20
145.6408056313
  0
VERTEX
  8
0
 62
7
  6
CONTINUOUS
 10
53.6197502961
 20
145.7021043889
  0
VERTEX
  8
0
 62
7
  6
CONTINUOUS
 10
53.5732739112
 20
145.7716926562
  0
VERTEX
  8
0
 62
7
  6
CONTINUOUS
 10
53.5066150781
 20
145.8355829317
  0
VERTEX
  8
0
 62
7
  6
CONTINUOUS
 10
53.4209300347
 20
145.8853115708
  0
VERTEX
  8
0
 62
7
  6
CONTINUOUS
 10
53.3155072104
 20
145.9140053355
  0
VERTEX
  8
0
 62
7
  6
CONTINUOUS
 10
53.2638119992
 20
145.9173491307
  0
SEQEND
  0
LINE
  8
0
 62
7
  6
CONTINUOUS
 10
54.0391364954
 20
112.4555693414
 11
54.043841627
 21
112.3452909765
  0
LINE
  8
0
 62
7
  6
CONTINUOUS
 10
53.6922212171
 20
145.1791302577
 11
53.6875160825
 21
145.2894081713
  0
LINE
  8
0
 62
7
  6
CONTINUOUS
 10
54.034454605
 20
112.5885667198
 11
54.0391364954
 21
112.4555693414
  0
LINE
  8
0
 62
7
  6
CONTINUOUS
 10
53.6969031093
 20
145.046132778
 11
53.6922212171
 21
145.1791302577
  0
LINE
  8
0
 62
7
  6
CONTINUOUS
 10
54.0298168947
 20
112.7460941729
 11
54.034454605
 21
112.5885667198
  0
LINE
  8
0
 62
7
  6
CONTINUOUS
 10
53.7015408233
 20
144.888605705
 11
53.6969031093
 21
145.046132778
  0
LINE
  8
0
 62
7
  6
CONTINUOUS
 10
54.023029596
 20
113.0314425906
 11
54.0298168947
 21
112.7460941729
  0
LINE
  8
0
 62
7
  6
CONTINUOUS
 10
53.7083281249
 20
144.6032573441
 11
53.7015408233
 21
144.888605705
  0
LINE
  8
0
 62
7
  6
CONTINUOUS
 10
54.0166047265
 20
113.3783730145
 11
54.023029596
 21
113.0314425906
  0
LINE
  8
0
 62
7
  6
CONTINUOUS
 10
53.7147529993
 20
144.256327048
 11
53.7083281249
 21
144.6032573441
  0
LINE
  8
0
 62
7
  6
CONTINUOUS
 10
54.0089721552
 20
113.9377490581
 11
54.0166047265
 21
113.3783730145
  0
LINE
  8
0
 62
7
  6
CONTINUOUS
 10
53.7223855777
 20
143.6969512414
 11
53.7147529993
 21
144.256327048
  0
LINE
  8
0
 62
7
  6
CONTINUOUS
 10
53.7296449459
 20
142.8515566548
 11
53.7223855777
 21
143.6969512414
  0
LINE
  8
0
 62
7
  6
CONTINUOUS
 10
54.0017127812
 20
114.7831472975
 11
54.0089721552
 21
113.9377490581
  0
LINE
  8
0
 62
7
  6
CONTINUOUS
 10
53.7333585419
 20
141.8737199665
 11
53.7296449459
 21
142.8515566548
  0
LINE
  8
0
 62
7
  6
CONTINUOUS
 10
53.997999209
 20
115.76098093
 11
54.0017127812
 21
114.7831472975
  0
LINE
  8
0
 62
7
  6
CONTINUOUS
 10
53.7336359221
 20
139.6541703199
 11
53.7333585419
 21
141.8737199665
  0
LINE
  8
0
 62
7
  6
CONTINUOUS
 10
53.9977218365
 20
117.9805279559
 11
53.997999209
 21
115.76098093
  0
POLYLINE
  8
0
 62
7
  6
CONTINUOUS
 66
1
 70
0
  0
VERTEX
  8
0
 62
7
  6
CONTINUOUS
 10
59.6138121701
 20
111.7173491458
  0
VERTEX
  8
0
 62
7
  6
CONTINUOUS
 10
59.6663389029
 20
111.7208018506
  0
VERTEX
  8
0
 62
7
  6
CONTINUOUS
 10
59.7737933558
 20
111.7506179815
  0
VERTEX
  8
0
 62
7
  6
CONTINUOUS
 10
59.8613435221
 20
111.8027607706
  0
VERTEX
  8
0
 62
7
  6
CONTINUOUS
 10
59.9285228272
 20
111.8694737517
  0
VERTEX
  8
0
 62
7
  6
CONTINUOUS
 10
59.9736496721
 20
111.9401583141
  0
VERTEX
  8
0
 62
7
  6
CONTINUOUS
 10
59.9981021969
 20
111.9998725257
  0
VERTEX
  8
0
 62
7
  6
CONTINUOUS
 10
60.009546933
 20
112.0419214315
  0
VERTEX
  8
0
 62
7
  6
CONTINUOUS
 10
60.0155570772
 20
112.0728224976
  0
VERTEX
  8
0
 62
7
  6
CONTINUOUS
 10
60.0195165031
 20
112.0994328701
  0
VERTEX
  8
0
 62
7
  6
CONTINUOUS
 10
60.0226345184
 20
112.1255619572
  0
VERTEX
  8
0
 62
7
  6
CONTINUOUS
 10
60.0253682474
 20
112.153221044
  0
VERTEX
  8
0
 62
7
  6
CONTINUOUS
 10
60.0279122481
 20
112.1835717732
  0
VERTEX
  8
0
 62
7
  6
CONTINUOUS
 10
60.0303546167
 20
112.2173158201
  0
VERTEX
  8
0
 62
7
  6
CONTINUOUS
 10
60.0327394873
 20
112.2549394488
  0
VERTEX
  8
0
 62
7
  6
CONTINUOUS
 10
60.0350989084
 20
112.296979929
  0
VERTEX
  8
0
 62
7
  6
CONTINUOUS
 10
60.0374481727
 20
112.3438579013
  0
VERTEX
  8
0
 62
7
  6
CONTINUOUS
 10
60.0397952829
 20
112.3959411208
  0
VERTEX
  8
0
 62
7
  6
CONTINUOUS
 10
60.0444946992
 20
112.5170861162
  0
SEQEND
  0
POLYLINE
  8
0
 62
7
  6
CONTINUOUS
 66
1
 70
0
  0
VERTEX
  8
0
 62
7
  6
CONTINUOUS
 10
85.0138123923
 20
111.717349145
  0
VERTEX
  8
0
 62
7
  6
CONTINUOUS
 10
85.0642821906
 20
111.7205356827
  0
VERTEX
  8
0
 62
7
  6
CONTINUOUS
 10
85.1703170144
 20
111.7491264235
  0
VERTEX
  8
0
 62
7
  6
CONTINUOUS
 10
85.257181388
 20
111.799545976
  0
VERTEX
  8
0
 62
7
  6
CONTINUOUS
 10
85.3244328552
 20
111.8644104132
  0
VERTEX
  8
0
 62
7
  6
CONTINUOUS
 10
85.3705280087
 20
111.934072217
  0
VERTEX
  8
0
 62
7
  6
CONTINUOUS
 10
85.3962907061
 20
111.9944029798
  0
VERTEX
  8
0
 62
7
  6
CONTINUOUS
 10
85.4085244904
 20
112.0374546831
  0
VERTEX
  8
0
 62
7
  6
CONTINUOUS
 10
85.4148665533
 20
112.068777812
  0
VERTEX
  8
0
 62
7
  6
CONTINUOUS
 10
85.4189435645
 20
112.0951738486
  0
VERTEX
  8
0
 62
7
  6
CONTINUOUS
 10
85.4220922771
 20
112.1206311688
  0
VERTEX
  8
0
 62
7
  6
CONTINUOUS
 10
85.4248170591
 20
112.1472497654
  0
VERTEX
  8
0
 62
7
  6
CONTINUOUS
 10
85.4273319394
 20
112.176231647
  0
VERTEX
  8
0
 62
7
  6
CONTINUOUS
 10
85.4297355544
 20
112.2083165265
  0
VERTEX
  8
0
 62
7
  6
CONTINUOUS
 10
85.432073346
 20
112.2439490997
  0
VERTEX
  8
0
 62
7
  6
CONTINUOUS
 10
85.4343754503
 20
112.2835640533
  0
VERTEX
  8
0
 62
7
  6
CONTINUOUS
 10
85.4366617971
 20
112.3275935218
  0
VERTEX
  8
0
 62
7
  6
CONTINUOUS
 10
85.4389420956
 20
112.3763856401
  0
VERTEX
  8
0
 62
7
  6
CONTINUOUS
 10
85.4412216459
 20
112.4302663852
  0
VERTEX
  8
0
 62
7
  6
CONTINUOUS
 10
85.4457846558
 20
112.5545380937
  0
SEQEND
  0
POLYLINE
  8
0
 62
7
  6
CONTINUOUS
 66
1
 70
0
  0
VERTEX
  8
0
 62
7
  6
CONTINUOUS
 10
72.3138123932
 20
111.717349145
  0
VERTEX
  8
0
 62
7
  6
CONTINUOUS
 10
72.3638100082
 20
111.7204761003
  0
VERTEX
  8
0
 62
7
  6
CONTINUOUS
 10
72.4702610756
 20
111.7491027388
  0
VERTEX
  8
0
 62
7
  6
CONTINUOUS
 10
72.5577832514
 20
111.8000054982
  0
VERTEX
  8
0
 62
7
  6
CONTINUOUS
 10
72.6253438375
 20
111.8655238635
  0
VERTEX
  8
0
 62
7
  6
CONTINUOUS
 10
72.6711609208
 20
111.935286278
  0
VERTEX
  8
0
 62
7
  6
CONTINUOUS
 10
72.6964802455
 20
111.9949641624
  0
VERTEX
  8
0
 62
7
  6
CONTINUOUS
 10
72.7085417755
 20
112.0375286828
  0
VERTEX
  8
0
 62
7
  6
CONTINUOUS
 10
72.7148745672
 20
112.0688238826
  0
VERTEX
  8
0
 62
7
  6
CONTINUOUS
 10
72.7190052178
 20
112.0956248262
  0
VERTEX
  8
0
 62
7
  6
CONTINUOUS
 10
72.7222279956
 20
112.1218490692
  0
VERTEX
  8
0
 62
7
  6
CONTINUOUS
 10
72.72503763
 20
112.1496144687
  0
VERTEX
  8
0
 62
7
  6
CONTINUOUS
 10
72.7276444967
 20
112.1801536451
  0
VERTEX
  8
0
 62
7
  6
CONTINUOUS
 10
72.7301570637
 20
112.2144103943
  0
VERTEX
  8
0
 62
7
  6
CONTINUOUS
 10
72.7326261274
 20
112.2530423589
  0
VERTEX
  8
0
 62
7
  6
CONTINUOUS
 10
72.7350750443
 20
112.2965298525
  0
VERTEX
  8
0
 62
7
  6
CONTINUOUS
 10
72.7375139969
 20
112.3452458937
  0
VERTEX
  8
0
 62
7
  6
CONTINUOUS
 10
72.7399490774
 20
112.399543201
  0
VERTEX
  8
0
 62
7
  6
CONTINUOUS
 10
72.7423823814
 20
112.4597457666
  0
VERTEX
  8
0
 62
7
  6
CONTINUOUS
 10
72.7472366355
 20
112.5989985697
  0
SEQEND
  0
LINE
  8
2_FEATURE
 62
7
  6
CONTINUOUS
 10
54.4675420989
 20
111.7173491379
 11
59.6138180668
 21
111.7173491379
  0
LINE
  8
2_FEATURE
 62
7
  6
CONTINUOUS
 10
67.1675420989
 20
111.7173491379
 11
72.3138156598
 21
111.7173491379
  0
LINE
  8
2_FEATURE
 62
7
  6
CONTINUOUS
 10
79.8675420989
 20
111.7173491379
 11
85.0138142629
 21
111.7173491379
  0
LINE
  8
2_FEATURE
 62
7
  6
CONTINUOUS
 10
92.5675420989
 20
111.7173491379
 11
97.7306788793
 21
111.7173491379
  0
POLYLINE
  8
0
 62
7
  6
CONTINUOUS
 66
1
 70
0
  0
VERTEX
  8
0
 62
7
  6
CONTINUOUS
 10
48.0680528219
 20
119.5162218702
  0
VERTEX
  8
0
 62
7
  6
CONTINUOUS
 10
47.9707537266
 20
119.5365777554
  0
VERTEX
  8
0
 62
7
  6
CONTINUOUS
 10
47.8820551135
 20
119.5799209439
  0
VERTEX
  8
0
 62
7
  6
CONTINUOUS
 10
47.8068877764
 20
119.6434359709
  0
VERTEX
  8
0
 62
7
  6
CONTINUOUS
 10
47.7494314237
 20
119.7235118956
  0
VERTEX
  8
0
 62
7
  6
CONTINUOUS
 10
47.7131381737
 20
119.8158325181
  0
VERTEX
  8
0
 62
7
  6
CONTINUOUS
 10
47.7006788793
 20
119.9148890751
  0
SEQEND
  0
LINE
  8
0
 62
7
  6
CONTINUOUS
 10
60.3499498102
 20
142.5206622242
 11
60.3477218365
 21
139.6541703194
  0
LINE
  8
0
 62
7
  6
CONTINUOUS
 10
60.081321247
 20
115.0950207198
 11
60.0836359221
 21
117.9805279565
  0
LINE
  8
0
 62
7
  6
CONTINUOUS
 10
60.3563599034
 20
143.4464589133
 11
60.3499498102
 21
142.5206622242
  0
POLYLINE
  8
0
 62
7
  6
CONTINUOUS
 66
1
 70
0
  0
VERTEX
  8
0
 62
7
  6
CONTINUOUS
 10
60.0836354059
 20
117.9805279565
  0
VERTEX
  8
0
 62
7
  6
CONTINUOUS
 10
60.084288616
 20
118.0520479216
  0
VERTEX
  8
0
 62
7
  6
CONTINUOUS
 10
60.086878469
 20
118.1360715377
  0
VERTEX
  8
0
 62
7
  6
CONTINUOUS
 10
60.0914961123
 20
118.217233086
  0
VERTEX
  8
0
 62
7
  6
CONTINUOUS
 10
60.098193487
 20
118.2955344736
  0
VERTEX
  8
0
 62
7
  6
CONTINUOUS
 10
60.1070191324
 20
118.3709320222
  0
VERTEX
  8
0
 62
7
  6
CONTINUOUS
 10
60.1180171967
 20
118.4434765301
  0
VERTEX
  8
0
 62
7
  6
CONTINUOUS
 10
60.1312412025
 20
118.5131849134
  0
VERTEX
  8
0
 62
7
  6
CONTINUOUS
 10
60.1467410204
 20
118.5799849777
  0
VERTEX
  8
0
 62
7
  6
CONTINUOUS
 10
60.1645341619
 20
118.6437146845
  0
VERTEX
  8
0
 62
7
  6
CONTINUOUS
 10
60.1845289262
 20
118.7038777097
  0
VERTEX
  8
0
 62
7
  6
CONTINUOUS
 10
60.2064585418
 20
118.7597618499
  0
VERTEX
  8
0
 62
7
  6
CONTINUOUS
 10
60.2299470772
 20
118.8107625885
  0
VERTEX
  8
0
 62
7
  6
CONTINUOUS
 10
60.2550713352
 20
118.8573378939
  0
VERTEX
  8
0
 62
7
  6
CONTINUOUS
 10
60.2816439865
 20
118.8992888003
  0
VERTEX
  8
0
 62
7
  6
CONTINUOUS
 10
60.3102814502
 20
118.9374325826
  0
VERTEX
  8
0
 62
7
  6
CONTINUOUS
 10
60.3418542627
 20
118.9720623562
  0
VERTEX
  8
0
 62
7
  6
CONTINUOUS
 10
60.376323162
 20
119.0018389578
  0
VERTEX
  8
0
 62
7
  6
CONTINUOUS
 10
60.4143619786
 20
119.0252592642
  0
VERTEX
  8
0
 62
7
  6
CONTINUOUS
 10
60.45427949
 20
119.0384267647
  0
VERTEX
  8
0
 62
7
  6
CONTINUOUS
 10
60.4730133544
 20
119.0399992872
  0
SEQEND
  0
LINE
  8
0
 62
7
  6
CONTINUOUS
 10
60.0746779562
 20
114.155235009
 11
60.081321247
 21
115.0950207198
  0
POLYLINE
  8
0
 62
7
  6
CONTINUOUS
 66
1
 70
0
  0
VERTEX
  8
0
 62
7
  6
CONTINUOUS
 10
60.3477223527
 20
139.6541703194
  0
VERTEX
  8
0
 62
7
  6
CONTINUOUS
 10
60.3470691426
 20
139.5826503543
  0
VERTEX
  8
0
 62
7
  6
CONTINUOUS
 10
60.3444792896
 20
139.4986267382
  0
VERTEX
  8
0
 62
7
  6
CONTINUOUS
 10
60.3398616463
 20
139.4174651899
  0
VERTEX
  8
0
 62
7
  6
CONTINUOUS
 10
60.3331642717
 20
139.3391638022
  0
VERTEX
  8
0
 62
7
  6
CONTINUOUS
 10
60.3243386263
 20
139.2637662537
  0
VERTEX
  8
0
 62
7
  6
CONTINUOUS
 10
60.3133405619
 20
139.1912217458
  0
VERTEX
  8
0
 62
7
  6
CONTINUOUS
 10
60.3001165561
 20
139.1215133624
  0
VERTEX
  8
0
 62
7
  6
CONTINUOUS
 10
60.2846167382
 20
139.0547132982
  0
VERTEX
  8
0
 62
7
  6
CONTINUOUS
 10
60.2668235967
 20
138.9909835914
  0
VERTEX
  8
0
 62
7
  6
CONTINUOUS
 10
60.2468288324
 20
138.9308205661
  0
VERTEX
  8
0
 62
7
  6
CONTINUOUS
 10
60.2248992168
 20
138.874936426
  0
VERTEX
  8
0
 62
7
  6
CONTINUOUS
 10
60.2014106814
 20
138.8239356874
  0
VERTEX
  8
0
 62
7
  6
CONTINUOUS
 10
60.1762864234
 20
138.7773603819
  0
VERTEX
  8
0
 62
7
  6
CONTINUOUS
 10
60.1497137721
 20
138.7354094755
  0
VERTEX
  8
0
 62
7
  6
CONTINUOUS
 10
60.1210763084
 20
138.6972656933
  0
VERTEX
  8
0
 62
7
  6
CONTINUOUS
 10
60.0895034959
 20
138.6626359197
  0
VERTEX
  8
0
 62
7
  6
CONTINUOUS
 10
60.0550345967
 20
138.6328593181
  0
VERTEX
  8
0
 62
7
  6
CONTINUOUS
 10
60.01699578
 20
138.6094390117
  0
VERTEX
  8
0
 62
7
  6
CONTINUOUS
 10
59.9770782686
 20
138.5962715111
  0
VERTEX
  8
0
 62
7
  6
CONTINUOUS
 10
59.9583444043
 20
138.5946989886
  0
SEQEND
  0
LINE
  8
0
 62
7
  6
CONTINUOUS
 10
60.3636249247
 20
144.061589054
 11
60.3563599034
 21
143.4464589133
  0
LINE
  8
0
 62
7
  6
CONTINUOUS
 10
60.0671596658
 20
113.533639738
 11
60.0746779562
 21
114.155235009
  0
LINE
  8
0
 62
7
  6
CONTINUOUS
 10
60.3698666749
 20
144.4433799465
 11
60.3636249247
 21
144.061589054
  0
LINE
  8
0
 62
7
  6
CONTINUOUS
 10
60.0607065828
 20
113.1498365094
 11
60.0671596658
 21
113.533639738
  0
LINE
  8
0
 62
7
  6
CONTINUOUS
 10
60.3764900699
 20
144.7576797372
 11
60.3698666749
 21
144.4433799465
  0
LINE
  8
0
 62
7
  6
CONTINUOUS
 10
60.053864004
 20
112.835813286
 11
60.0607065828
 21
113.1498365094
  0
LINE
  8
0
 62
7
  6
CONTINUOUS
 10
60.3810147302
 20
144.9319407698
 11
60.3764900699
 21
144.7576797372
  0
LINE
  8
0
 62
7
  6
CONTINUOUS
 10
60.0491943489
 20
112.6629729706
 11
60.053864004
 21
112.835813286
  0
LINE
  8
0
 62
7
  6
CONTINUOUS
 10
60.3855733801
 20
145.0801684086
 11
60.3810147302
 21
144.9319407698
  0
LINE
  8
0
 62
7
  6
CONTINUOUS
 10
60.0444946992
 20
112.5170861162
 11
60.0491943489
 21
112.6629729706
  0
LINE
  8
DEFAULT_1
 62
2
  6
CENTER
 10
52.022041533
 20
116.1173491379
 11
100.1306788793
 21
116.1173491379
  0
POLYLINE
  8
0
 62
7
  6
CONTINUOUS
 66
1
 70
0
  0
VERTEX
  8
0
 62
7
  6
CONTINUOUS
 10
53.1762226101
 20
119.0422014239
  0
VERTEX
  8
0
 62
7
  6
CONTINUOUS
 10
53.2082246054
 20
119.0401216766
  0
VERTEX
  8
0
 62
7
  6
CONTINUOUS
 10
53.2181432565
 20
119.0399986831
  0
SEQEND
  0
POLYLINE
  8
0
 62
7
  6
CONTINUOUS
 66
1
 70
0
  0
VERTEX
  8
0
 62
7
  6
CONTINUOUS
 10
48.0680528063
 20
119.5162218633
  0
VERTEX
  8
0
 62
7
  6
CONTINUOUS
 10
49.8679221432
 20
119.3625395675
  0
VERTEX
  8
0
 62
7
  6
CONTINUOUS
 10
51.6115190328
 20
119.2004026788
  0
VERTEX
  8
0
 62
7
  6
CONTINUOUS
 10
53.1762230941
 20
119.0422042458
  0
SEQEND
  0
POLYLINE
  8
0
 62
7
  6
CONTINUOUS
 66
1
 70
0
  0
VERTEX
  8
0
 62
7
  6
CONTINUOUS
 10
53.6083415887
 20
119.0400001042
  0
VERTEX
  8
0
 62
7
  6
CONTINUOUS
 10
53.6286649398
 20
119.0381498943
  0
VERTEX
  8
0
 62
7
  6
CONTINUOUS
 10
53.6684366502
 20
119.024555937
  0
VERTEX
  8
0
 62
7
  6
CONTINUOUS
 10
53.7062737594
 20
119.0009094019
  0
VERTEX
  8
0
 62
7
  6
CONTINUOUS
 10
53.7405479695
 20
118.9710324244
  0
VERTEX
  8
0
 62
7
  6
CONTINUOUS
 10
53.7719811384
 20
118.9363295161
  0
VERTEX
  8
0
 62
7
  6
CONTINUOUS
 10
53.8005243013
 20
118.8981077725
  0
VERTEX
  8
0
 62
7
  6
CONTINUOUS
 10
53.8270003087
 20
118.8561133764
  0
VERTEX
  8
0
 62
7
  6
CONTINUOUS
 10
53.8520370068
 20
118.809503502
  0
VERTEX
  8
0
 62
7
  6
CONTINUOUS
 10
53.8754573256
 20
118.75844765
  0
VERTEX
  8
0
 62
7
  6
CONTINUOUS
 10
53.8973244056
 20
118.7025042054
  0
VERTEX
  8
0
 62
7
  6
CONTINUOUS
 10
53.9172561354
 20
118.6422933243
  0
VERTEX
  8
0
 62
7
  6
CONTINUOUS
 10
53.9349863583
 20
118.5785320533
  0
VERTEX
  8
0
 62
7
  6
CONTINUOUS
 10
53.9504230138
 20
118.5117243286
  0
VERTEX
  8
0
 62
7
  6
CONTINUOUS
 10
53.9635862688
 20
118.4420287698
  0
VERTEX
  8
0
 62
7
  6
CONTINUOUS
 10
53.9745285951
 20
118.3695100635
  0
VERTEX
  8
0
 62
7
  6
CONTINUOUS
 10
53.9833042425
 20
118.2941433569
  0
VERTEX
  8
0
 62
7
  6
CONTINUOUS
 10
53.9899578983
 20
118.2158693423
  0
VERTEX
  8
0
 62
7
  6
CONTINUOUS
 10
53.9945377419
 20
118.134722568
  0
VERTEX
  8
0
 62
7
  6
CONTINUOUS
 10
53.9970941786
 20
118.0506925486
  0
VERTEX
  8
0
 62
7
  6
CONTINUOUS
 10
53.9977223439
 20
117.9805279557
  0
SEQEND
  0
POLYLINE
  8
0
 62
7
  6
CONTINUOUS
 66
1
 70
0
  0
VERTEX
  8
0
 62
7
  6
CONTINUOUS
 10
66.3083415887
 20
119.0400001042
  0
VERTEX
  8
0
 62
7
  6
CONTINUOUS
 10
66.3286649398
 20
119.0381498943
  0
VERTEX
  8
0
 62
7
  6
CONTINUOUS
 10
66.3684366502
 20
119.024555937
  0
VERTEX
  8
0
 62
7
  6
CONTINUOUS
 10
66.4062737594
 20
119.0009094019
  0
VERTEX
  8
0
 62
7
  6
CONTINUOUS
 10
66.4405479695
 20
118.9710324244
  0
VERTEX
  8
0
 62
7
  6
CONTINUOUS
 10
66.4719811384
 20
118.9363295161
  0
VERTEX
  8
0
 62
7
  6
CONTINUOUS
 10
66.5005243013
 20
118.8981077725
  0
VERTEX
  8
0
 62
7
  6
CONTINUOUS
 10
66.5270003087
 20
118.8561133764
  0
VERTEX
  8
0
 62
7
  6
CONTINUOUS
 10
66.5520370068
 20
118.809503502
  0
VERTEX
  8
0
 62
7
  6
CONTINUOUS
 10
66.5754573256
 20
118.75844765
  0
VERTEX
  8
0
 62
7
  6
CONTINUOUS
 10
66.5973244056
 20
118.7025042054
  0
VERTEX
  8
0
 62
7
  6
CONTINUOUS
 10
66.6172561354
 20
118.6422933243
  0
VERTEX
  8
0
 62
7
  6
CONTINUOUS
 10
66.6349863583
 20
118.5785320533
  0
VERTEX
  8
0
 62
7
  6
CONTINUOUS
 10
66.6504230138
 20
118.5117243286
  0
VERTEX
  8
0
 62
7
  6
CONTINUOUS
 10
66.6635862688
 20
118.4420287698
  0
VERTEX
  8
0
 62
7
  6
CONTINUOUS
 10
66.6745285951
 20
118.3695100635
  0
VERTEX
  8
0
 62
7
  6
CONTINUOUS
 10
66.6833042425
 20
118.2941433569
  0
VERTEX
  8
0
 62
7
  6
CONTINUOUS
 10
66.6899578983
 20
118.2158693423
  0
VERTEX
  8
0
 62
7
  6
CONTINUOUS
 10
66.6945377419
 20
118.134722568
  0
VERTEX
  8
0
 62
7
  6
CONTINUOUS
 10
66.6970941786
 20
118.0506925486
  0
VERTEX
  8
0
 62
7
  6
CONTINUOUS
 10
66.6977223439
 20
117.9805279557
  0
SEQEND
  0
LINE
  8
0
 62
7
  6
CONTINUOUS
 10
53.2181432565
 20
119.0399986831
 11
53.608341548
 21
119.0399986831
  0
LINE
  8
0
 62
7
  6
CONTINUOUS
 10
60.4730133775
 20
119.0399986831
 11
66.308341548
 21
119.0399986831
  0
LINE
  8
0
 62
7
  6
CONTINUOUS
 10
73.1730133775
 20
119.0399986831
 11
79.008341548
 21
119.0399986831
  0
LINE
  8
0
 62
7
  6
CONTINUOUS
 10
85.8730133775
 20
119.0399986831
 11
91.708341548
 21
119.0399986831
  0
POLYLINE
  8
0
 62
7
  6
CONTINUOUS
 66
1
 70
0
  0
VERTEX
  8
0
 62
7
  6
CONTINUOUS
 10
79.0083415887
 20
119.0400001042
  0
VERTEX
  8
0
 62
7
  6
CONTINUOUS
 10
79.0286649398
 20
119.0381498943
  0
VERTEX
  8
0
 62
7
  6
CONTINUOUS
 10
79.0684366502
 20
119.024555937
  0
VERTEX
  8
0
 62
7
  6
CONTINUOUS
 10
79.1062737594
 20
119.0009094019
  0
VERTEX
  8
0
 62
7
  6
CONTINUOUS
 10
79.1405479695
 20
118.9710324244
  0
VERTEX
  8
0
 62
7
  6
CONTINUOUS
 10
79.1719811384
 20
118.9363295161
  0
VERTEX
  8
0
 62
7
  6
CONTINUOUS
 10
79.2005243013
 20
118.8981077725
  0
VERTEX
  8
0
 62
7
  6
CONTINUOUS
 10
79.2270003087
 20
118.8561133764
  0
VERTEX
  8
0
 62
7
  6
CONTINUOUS
 10
79.2520370068
 20
118.809503502
  0
VERTEX
  8
0
 62
7
  6
CONTINUOUS
 10
79.2754573256
 20
118.75844765
  0
VERTEX
  8
0
 62
7
  6
CONTINUOUS
 10
79.2973244056
 20
118.7025042054
  0
VERTEX
  8
0
 62
7
  6
CONTINUOUS
 10
79.3172561354
 20
118.6422933243
  0
VERTEX
  8
0
 62
7
  6
CONTINUOUS
 10
79.3349863583
 20
118.5785320533
  0
VERTEX
  8
0
 62
7
  6
CONTINUOUS
 10
79.3504230138
 20
118.5117243286
  0
VERTEX
  8
0
 62
7
  6
CONTINUOUS
 10
79.3635862688
 20
118.4420287698
  0
VERTEX
  8
0
 62
7
  6
CONTINUOUS
 10
79.3745285951
 20
118.3695100635
  0
VERTEX
  8
0
 62
7
  6
CONTINUOUS
 10
79.3833042425
 20
118.2941433569
  0
VERTEX
  8
0
 62
7
  6
CONTINUOUS
 10
79.3899578983
 20
118.2158693423
  0
VERTEX
  8
0
 62
7
  6
CONTINUOUS
 10
79.3945377419
 20
118.134722568
  0
VERTEX
  8
0
 62
7
  6
CONTINUOUS
 10
79.3970941786
 20
118.0506925486
  0
VERTEX
  8
0
 62
7
  6
CONTINUOUS
 10
79.3977223439
 20
117.9805279557
  0
SEQEND
  0
POLYLINE
  8
0
 62
7
  6
CONTINUOUS
 66
1
 70
0
  0
VERTEX
  8
0
 62
7
  6
CONTINUOUS
 10
91.7083415887
 20
119.0400001042
  0
VERTEX
  8
0
 62
7
  6
CONTINUOUS
 10
91.7286649398
 20
119.0381498943
  0
VERTEX
  8
0
 62
7
  6
CONTINUOUS
 10
91.7684366502
 20
119.024555937
  0
VERTEX
  8
0
 62
7
  6
CONTINUOUS
 10
91.8062737594
 20
119.0009094019
  0
VERTEX
  8
0
 62
7
  6
CONTINUOUS
 10
91.8405479695
 20
118.9710324244
  0
VERTEX
  8
0
 62
7
  6
CONTINUOUS
 10
91.8719811384
 20
118.9363295161
  0
VERTEX
  8
0
 62
7
  6
CONTINUOUS
 10
91.9005243013
 20
118.8981077725
  0
VERTEX
  8
0
 62
7
  6
CONTINUOUS
 10
91.9270003087
 20
118.8561133764
  0
VERTEX
  8
0
 62
7
  6
CONTINUOUS
 10
91.9520370068
 20
118.809503502
  0
VERTEX
  8
0
 62
7
  6
CONTINUOUS
 10
91.9754573256
 20
118.75844765
  0
VERTEX
  8
0
 62
7
  6
CONTINUOUS
 10
91.9973244056
 20
118.7025042054
  0
VERTEX
  8
0
 62
7
  6
CONTINUOUS
 10
92.0172561354
 20
118.6422933243
  0
VERTEX
  8
0
 62
7
  6
CONTINUOUS
 10
92.0349863583
 20
118.5785320533
  0
VERTEX
  8
0
 62
7
  6
CONTINUOUS
 10
92.0504230138
 20
118.5117243286
  0
VERTEX
  8
0
 62
7
  6
CONTINUOUS
 10
92.0635862688
 20
118.4420287698
  0
VERTEX
  8
0
 62
7
  6
CONTINUOUS
 10
92.0745285951
 20
118.3695100635
  0
VERTEX
  8
0
 62
7
  6
CONTINUOUS
 10
92.0833042425
 20
118.2941433569
  0
VERTEX
  8
0
 62
7
  6
CONTINUOUS
 10
92.0899578983
 20
118.2158693423
  0
VERTEX
  8
0
 62
7
  6
CONTINUOUS
 10
92.0945377419
 20
118.134722568
  0
VERTEX
  8
0
 62
7
  6
CONTINUOUS
 10
92.0970941786
 20
118.0506925486
  0
VERTEX
  8
0
 62
7
  6
CONTINUOUS
 10
92.0977223439
 20
117.9805279557
  0
SEQEND
  0
POLYLINE
  8
0
 62
7
  6
CONTINUOUS
 66
1
 70
0
  0
VERTEX
  8
0
 62
7
  6
CONTINUOUS
 10
66.743841627
 20
112.3452909765
  0
VERTEX
  8
0
 62
7
  6
CONTINUOUS
 10
66.7462050906
 20
112.2979957286
  0
VERTEX
  8
0
 62
7
  6
CONTINUOUS
 10
66.7485842361
 20
112.2555111913
  0
VERTEX
  8
0
 62
7
  6
CONTINUOUS
 10
66.7509923309
 20
112.2174757329
  0
VERTEX
  8
0
 62
7
  6
CONTINUOUS
 10
66.7534554928
 20
112.1834433668
  0
VERTEX
  8
0
 62
7
  6
CONTINUOUS
 10
66.7560258595
 20
112.152820864
  0
VERTEX
  8
0
 62
7
  6
CONTINUOUS
 10
66.7588100631
 20
112.1247607327
  0
VERTEX
  8
0
 62
7
  6
CONTINUOUS
 10
66.7620881874
 20
112.0975784062
  0
VERTEX
  8
0
 62
7
  6
CONTINUOUS
 10
66.7663796672
 20
112.0694208268
  0
VERTEX
  8
0
 62
7
  6
CONTINUOUS
 10
66.7729214368
 20
112.0370780064
  0
VERTEX
  8
0
 62
7
  6
CONTINUOUS
 10
66.7852392884
 20
111.9938951932
  0
VERTEX
  8
0
 62
7
  6
CONTINUOUS
 10
66.811606345
 20
111.932595837
  0
VERTEX
  8
0
 62
7
  6
CONTINUOUS
 10
66.8580829732
 20
111.8630065284
  0
VERTEX
  8
0
 62
7
  6
CONTINUOUS
 10
66.9247421178
 20
111.7991156596
  0
VERTEX
  8
0
 62
7
  6
CONTINUOUS
 10
67.0104273889
 20
111.749386776
  0
VERTEX
  8
0
 62
7
  6
CONTINUOUS
 10
67.115850455
 20
111.7206929281
  0
VERTEX
  8
0
 62
7
  6
CONTINUOUS
 10
67.1675453976
 20
111.7173491451
  0
SEQEND
  0
LINE
  8
0
 62
7
  6
CONTINUOUS
 10
66.7391364954
 20
112.4555693414
 11
66.743841627
 21
112.3452909765
  0
LINE
  8
0
 62
7
  6
CONTINUOUS
 10
66.3945658506
 20
145.1155955463
 11
66.3898712857
 21
145.236979975
  0
LINE
  8
0
 62
7
  6
CONTINUOUS
 10
66.734454605
 20
112.5885667198
 11
66.7391364954
 21
112.4555693414
  0
LINE
  8
0
 62
7
  6
CONTINUOUS
 10
66.3992295359
 20
144.9705316532
 11
66.3945658506
 21
145.1155955463
  0
LINE
  8
0
 62
7
  6
CONTINUOUS
 10
66.7298168947
 20
112.7460941729
 11
66.734454605
 21
112.5885667198
  0
LINE
  8
0
 62
7
  6
CONTINUOUS
 10
66.4038317616
 20
144.8001837028
 11
66.3992295359
 21
144.9705316532
  0
LINE
  8
0
 62
7
  6
CONTINUOUS
 10
66.723029596
 20
113.0314425906
 11
66.7298168947
 21
112.7460941729
  0
LINE
  8
0
 62
7
  6
CONTINUOUS
 10
66.4105199532
 20
144.4945459904
 11
66.4038317616
 21
144.8001837028
  0
LINE
  8
0
 62
7
  6
CONTINUOUS
 10
66.7166047265
 20
113.3783730145
 11
66.723029596
 21
113.0314425906
  0
LINE
  8
0
 62
7
  6
CONTINUOUS
 10
66.4187308946
 20
143.990324284
 11
66.4105199532
 21
144.4945459904
  0
LINE
  8
0
 62
7
  6
CONTINUOUS
 10
66.7089721552
 20
113.9377490581
 11
66.7166047265
 21
113.3783730145
  0
LINE
  8
0
 62
7
  6
CONTINUOUS
 10
66.425646469
 20
143.3771916145
 11
66.4187308946
 21
143.990324284
  0
LINE
  8
0
 62
7
  6
CONTINUOUS
 10
66.7017127812
 20
114.7831472975
 11
66.7089721552
 21
113.9377490581
  0
LINE
  8
0
 62
7
  6
CONTINUOUS
 10
66.4316141689
 20
142.4738140604
 11
66.425646469
 21
143.3771916145
  0
LINE
  8
0
 62
7
  6
CONTINUOUS
 10
66.697999209
 20
115.76098093
 11
66.7017127812
 21
114.7831472975
  0
LINE
  8
0
 62
7
  6
CONTINUOUS
 10
66.4336358837
 20
141.517349138
 11
66.4316141689
 21
142.4738140604
  0
LINE
  8
0
 62
7
  6
CONTINUOUS
 10
66.4336359221
 20
139.6541703199
 11
66.4336359221
 21
141.517349138
  0
LINE
  8
0
 62
7
  6
CONTINUOUS
 10
66.6977218365
 20
117.9805279559
 11
66.697999209
 21
115.76098093
  0
LINE
  8
2_FEATURE
 62
2
  6
CONTINUOUS
 10
47.7006788793
 20
121.6165647488
 11
98.1306788793
 21
121.6165647488
  0
POLYLINE
  8
0
 62
7
  6
CONTINUOUS
 66
1
 70
0
  0
VERTEX
  8
0
 62
7
  6
CONTINUOUS
 10
66.3898712857
 20
145.236979975
  0
VERTEX
  8
0
 62
7
  6
CONTINUOUS
 10
66.3875160825
 20
145.2894081713
  0
VERTEX
  8
0
 62
7
  6
CONTINUOUS
 10
66.3851526267
 20
145.3367033171
  0
VERTEX
  8
0
 62
7
  6
CONTINUOUS
 10
66.382773473
 20
145.3791880812
  0
VERTEX
  8
0
 62
7
  6
CONTINUOUS
 10
66.380365368
 20
145.4172235015
  0
VERTEX
  8
0
 62
7
  6
CONTINUOUS
 10
66.3779021996
 20
145.4512556733
  0
VERTEX
  8
0
 62
7
  6
CONTINUOUS
 10
66.3753318428
 20
145.4818778711
  0
VERTEX
  8
0
 62
7
  6
CONTINUOUS
 10
66.3725477013
 20
145.5099374859
  0
VERTEX
  8
0
 62
7
  6
CONTINUOUS
 10
66.3692695082
 20
145.5371204977
  0
VERTEX
  8
0
 62
7
  6
CONTINUOUS
 10
66.364977894
 20
145.5652786939
  0
VERTEX
  8
0
 62
7
  6
CONTINUOUS
 10
66.3584358591
 20
145.5976222162
  0
VERTEX
  8
0
 62
7
  6
CONTINUOUS
 10
66.3461175597
 20
145.6408056313
  0
VERTEX
  8
0
 62
7
  6
CONTINUOUS
 10
66.3197502961
 20
145.7021043889
  0
VERTEX
  8
0
 62
7
  6
CONTINUOUS
 10
66.2732739112
 20
145.7716926562
  0
VERTEX
  8
0
 62
7
  6
CONTINUOUS
 10
66.2066150781
 20
145.8355829317
  0
VERTEX
  8
0
 62
7
  6
CONTINUOUS
 10
66.1209300347
 20
145.8853115708
  0
VERTEX
  8
0
 62
7
  6
CONTINUOUS
 10
66.0155072104
 20
145.9140053355
  0
VERTEX
  8
0
 62
7
  6
CONTINUOUS
 10
65.9638119992
 20
145.9173491307
  0
SEQEND
  0
LINE
  8
2_FEATURE
 62
2
  6
CONTINUOUS
 10
47.7006788793
 20
123.5373491379
 11
98.1306788793
 21
123.5373491379
  0
LINE
  8
1_AXIS
 62
2
  6
CENTER
 10
72.9156788793
 20
133.2173491379
 11
72.9156788793
 21
130.8174491379
  0
LINE
  8
1_AXIS
 62
2
  6
CONTINUOUS
 10
72.9156788793
 20
129.6973491379
 11
72.9156788793
 21
127.9373491379
  0
LINE
  8
1_AXIS
 62
2
  6
CENTER
 10
72.9156788793
 20
124.4173491379
 11
72.9156788793
 21
126.8172491379
  0
LINE
  8
0
 62
7
  6
CONTINUOUS
 10
72.7814385904
 20
115.1208488276
 11
72.7836359221
 21
117.9805279565
  0
LINE
  8
0
 62
7
  6
CONTINUOUS
 10
73.049919219
 20
142.5138605729
 11
73.0477218365
 21
139.6541703194
  0
LINE
  8
0
 62
7
  6
CONTINUOUS
 10
72.7750535882
 20
114.1940654488
 11
72.7814385904
 21
115.1208488276
  0
LINE
  8
0
 62
7
  6
CONTINUOUS
 10
73.0563042689
 20
143.4406434401
 11
73.049919219
 21
142.5138605729
  0
POLYLINE
  8
0
 62
7
  6
CONTINUOUS
 66
1
 70
0
  0
VERTEX
  8
0
 62
7
  6
CONTINUOUS
 10
72.7836354059
 20
117.9805279565
  0
VERTEX
  8
0
 62
7
  6
CONTINUOUS
 10
72.784288616
 20
118.0520479216
  0
VERTEX
  8
0
 62
7
  6
CONTINUOUS
 10
72.786878469
 20
118.1360715377
  0
VERTEX
  8
0
 62
7
  6
CONTINUOUS
 10
72.7914961123
 20
118.217233086
  0
VERTEX
  8
0
 62
7
  6
CONTINUOUS
 10
72.798193487
 20
118.2955344736
  0
VERTEX
  8
0
 62
7
  6
CONTINUOUS
 10
72.8070191324
 20
118.3709320222
  0
VERTEX
  8
0
 62
7
  6
CONTINUOUS
 10
72.8180171967
 20
118.4434765301
  0
VERTEX
  8
0
 62
7
  6
CONTINUOUS
 10
72.8312412025
 20
118.5131849134
  0
VERTEX
  8
0
 62
7
  6
CONTINUOUS
 10
72.8467410204
 20
118.5799849777
  0
VERTEX
  8
0
 62
7
  6
CONTINUOUS
 10
72.8645341619
 20
118.6437146845
  0
VERTEX
  8
0
 62
7
  6
CONTINUOUS
 10
72.8845289262
 20
118.7038777097
  0
VERTEX
  8
0
 62
7
  6
CONTINUOUS
 10
72.9064585418
 20
118.7597618499
  0
VERTEX
  8
0
 62
7
  6
CONTINUOUS
 10
72.9299470772
 20
118.8107625885
  0
VERTEX
  8
0
 62
7
  6
CONTINUOUS
 10
72.9550713352
 20
118.8573378939
  0
VERTEX
  8
0
 62
7
  6
CONTINUOUS
 10
72.9816439865
 20
118.8992888003
  0
VERTEX
  8
0
 62
7
  6
CONTINUOUS
 10
73.0102814502
 20
118.9374325826
  0
VERTEX
  8
0
 62
7
  6
CONTINUOUS
 10
73.0418542627
 20
118.9720623562
  0
VERTEX
  8
0
 62
7
  6
CONTINUOUS
 10
73.076323162
 20
119.0018389578
  0
VERTEX
  8
0
 62
7
  6
CONTINUOUS
 10
73.1143619786
 20
119.0252592642
  0
VERTEX
  8
0
 62
7
  6
CONTINUOUS
 10
73.15427949
 20
119.0384267647
  0
VERTEX
  8
0
 62
7
  6
CONTINUOUS
 10
73.1730133544
 20
119.0399992872
  0
SEQEND
  0
POLYLINE
  8
0
 62
7
  6
CONTINUOUS
 66
1
 70
0
  0
VERTEX
  8
0
 62
7
  6
CONTINUOUS
 10
73.0477223527
 20
139.6541703194
  0
VERTEX
  8
0
 62
7
  6
CONTINUOUS
 10
73.0470691426
 20
139.5826503543
  0
VERTEX
  8
0
 62
7
  6
CONTINUOUS
 10
73.0444792896
 20
139.4986267382
  0
VERTEX
  8
0
 62
7
  6
CONTINUOUS
 10
73.0398616463
 20
139.4174651899
  0
VERTEX
  8
0
 62
7
  6
CONTINUOUS
 10
73.0331642717
 20
139.3391638022
  0
VERTEX
  8
0
 62
7
  6
CONTINUOUS
 10
73.0243386263
 20
139.2637662537
  0
VERTEX
  8
0
 62
7
  6
CONTINUOUS
 10
73.0133405619
 20
139.1912217458
  0
VERTEX
  8
0
 62
7
  6
CONTINUOUS
 10
73.0001165561
 20
139.1215133624
  0
VERTEX
  8
0
 62
7
  6
CONTINUOUS
 10
72.9846167382
 20
139.0547132982
  0
VERTEX
  8
0
 62
7
  6
CONTINUOUS
 10
72.9668235967
 20
138.9909835914
  0
VERTEX
  8
0
 62
7
  6
CONTINUOUS
 10
72.9468288324
 20
138.9308205661
  0
VERTEX
  8
0
 62
7
  6
CONTINUOUS
 10
72.9248992168
 20
138.874936426
  0
VERTEX
  8
0
 62
7
  6
CONTINUOUS
 10
72.9014106814
 20
138.8239356874
  0
VERTEX
  8
0
 62
7
  6
CONTINUOUS
 10
72.8762864234
 20
138.7773603819
  0
VERTEX
  8
0
 62
7
  6
CONTINUOUS
 10
72.8497137721
 20
138.7354094755
  0
VERTEX
  8
0
 62
7
  6
CONTINUOUS
 10
72.8210763084
 20
138.6972656933
  0
VERTEX
  8
0
 62
7
  6
CONTINUOUS
 10
72.7895034959
 20
138.6626359197
  0
VERTEX
  8
0
 62
7
  6
CONTINUOUS
 10
72.7550345967
 20
138.6328593181
  0
VERTEX
  8
0
 62
7
  6
CONTINUOUS
 10
72.71699578
 20
138.6094390117
  0
VERTEX
  8
0
 62
7
  6
CONTINUOUS
 10
72.6770782686
 20
138.5962715111
  0
VERTEX
  8
0
 62
7
  6
CONTINUOUS
 10
72.6583444043
 20
138.5946989886
  0
SEQEND
  0
LINE
  8
0
 62
7
  6
CONTINUOUS
 10
73.0636430962
 20
144.0628562344
 11
73.0563042689
 21
143.4406434401
  0
LINE
  8
0
 62
7
  6
CONTINUOUS
 10
72.7677148186
 20
113.5718530007
 11
72.7750535882
 21
114.1940654488
  0
LINE
  8
0
 62
7
  6
CONTINUOUS
 10
73.0700437237
 20
144.4528526885
 11
73.0636430962
 21
144.0628562344
  0
LINE
  8
0
 62
7
  6
CONTINUOUS
 10
72.7613142403
 20
113.1818567368
 11
72.7677148186
 21
113.5718530007
  0
LINE
  8
0
 62
7
  6
CONTINUOUS
 10
73.0769413859
 20
144.7763972544
 11
73.0700437237
 21
144.4528526885
  0
POLYLINE
  8
0
 62
7
  6
CONTINUOUS
 66
1
 70
0
  0
VERTEX
  8
0
 62
7
  6
CONTINUOUS
 10
72.7520448558
 20
112.7649102394
  0
VERTEX
  8
0
 62
7
  6
CONTINUOUS
 10
72.7544166259
 20
112.8583115639
  0
VERTEX
  8
0
 62
7
  6
CONTINUOUS
 10
72.7613142403
 20
113.1818567368
  0
SEQEND
  0
LINE
  8
0
 62
7
  6
CONTINUOUS
 10
73.0817087633
 20
144.9561820925
 11
73.0769413859
 21
144.7763972544
  0
LINE
  8
0
 62
7
  6
CONTINUOUS
 10
73.0865453562
 20
145.1085632365
 11
73.0817087633
 21
144.9561820925
  0
LINE
  8
1_AXIS
 62
2
  6
CENTER
 10
77.3156788793
 20
128.8173491379
 11
74.9157788793
 21
128.8173491379
  0
LINE
  8
1_AXIS
 62
2
  6
CONTINUOUS
 10
73.7956788793
 20
128.8173491379
 11
72.0356788793
 21
128.8173491379
  0
LINE
  8
1_AXIS
 62
2
  6
CENTER
 10
68.5156788793
 20
128.8173491379
 11
70.9155788793
 21
128.8173491379
  0
LINE
  8
0
 62
7
  6
CONTINUOUS
 10
72.7472366355
 20
112.5989985697
 11
72.7520448558
 21
112.7649102394
  0
POLYLINE
  8
0
 62
7
  6
CONTINUOUS
 66
1
 70
0
  0
VERTEX
  8
0
 62
7
  6
CONTINUOUS
 10
79.443841627
 20
112.3452909765
  0
VERTEX
  8
0
 62
7
  6
CONTINUOUS
 10
79.4462050906
 20
112.2979957286
  0
VERTEX
  8
0
 62
7
  6
CONTINUOUS
 10
79.4485842361
 20
112.2555111913
  0
VERTEX
  8
0
 62
7
  6
CONTINUOUS
 10
79.4509923309
 20
112.2174757329
  0
VERTEX
  8
0
 62
7
  6
CONTINUOUS
 10
79.4534554928
 20
112.1834433668
  0
VERTEX
  8
0
 62
7
  6
CONTINUOUS
 10
79.4560258595
 20
112.152820864
  0
VERTEX
  8
0
 62
7
  6
CONTINUOUS
 10
79.4588100631
 20
112.1247607327
  0
VERTEX
  8
0
 62
7
  6
CONTINUOUS
 10
79.4620881874
 20
112.0975784062
  0
VERTEX
  8
0
 62
7
  6
CONTINUOUS
 10
79.4663796672
 20
112.0694208268
  0
VERTEX
  8
0
 62
7
  6
CONTINUOUS
 10
79.4729214368
 20
112.0370780064
  0
VERTEX
  8
0
 62
7
  6
CONTINUOUS
 10
79.4852392884
 20
111.9938951932
  0
VERTEX
  8
0
 62
7
  6
CONTINUOUS
 10
79.511606345
 20
111.932595837
  0
VERTEX
  8
0
 62
7
  6
CONTINUOUS
 10
79.5580829732
 20
111.8630065284
  0
VERTEX
  8
0
 62
7
  6
CONTINUOUS
 10
79.6247421178
 20
111.7991156596
  0
VERTEX
  8
0
 62
7
  6
CONTINUOUS
 10
79.7104273889
 20
111.749386776
  0
VERTEX
  8
0
 62
7
  6
CONTINUOUS
 10
79.815850455
 20
111.7206929281
  0
VERTEX
  8
0
 62
7
  6
CONTINUOUS
 10
79.8675453976
 20
111.7173491451
  0
SEQEND
  0
LINE
  8
0
 62
7
  6
CONTINUOUS
 10
79.4391364954
 20
112.4555693414
 11
79.443841627
 21
112.3452909765
  0
LINE
  8
0
 62
7
  6
CONTINUOUS
 10
79.434454605
 20
112.5885667198
 11
79.4391364954
 21
112.4555693414
  0
LINE
  8
0
 62
7
  6
CONTINUOUS
 10
79.4298168947
 20
112.7460941729
 11
79.434454605
 21
112.5885667198
  0
LINE
  8
0
 62
7
  6
CONTINUOUS
 10
79.423029596
 20
113.0314425906
 11
79.4298168947
 21
112.7460941729
  0
LINE
  8
0
 62
7
  6
CONTINUOUS
 10
79.4166047265
 20
113.3783730145
 11
79.423029596
 21
113.0314425906
  0
LINE
  8
0
 62
7
  6
CONTINUOUS
 10
79.4089721552
 20
113.9377490581
 11
79.4166047265
 21
113.3783730145
  0
LINE
  8
0
 62
7
  6
CONTINUOUS
 10
79.4042506042
 20
114.4268356641
 11
79.4089721552
 21
113.9377490581
  0
LINE
  8
0
 62
7
  6
CONTINUOUS
 10
79.1307049222
 20
142.665189829
 11
79.1240696168
 21
143.5402867635
  0
LINE
  8
0
 62
7
  6
CONTINUOUS
 10
79.1335871468
 20
141.6666678382
 11
79.1307049222
 21
142.665189829
  0
LINE
  8
0
 62
7
  6
CONTINUOUS
 10
79.1336359221
 20
139.6541703199
 11
79.1335871468
 21
141.6666678382
  0
LINE
  8
2_FEATURE
 62
2
  6
CONTINUOUS
 10
47.7006788793
 20
134.0973491379
 11
98.1306788793
 21
134.0973491379
  0
POLYLINE
  8
0
 62
7
  6
CONTINUOUS
 66
1
 70
0
  0
VERTEX
  8
0
 62
7
  6
CONTINUOUS
 10
79.0875160825
 20
145.2894081713
  0
VERTEX
  8
0
 62
7
  6
CONTINUOUS
 10
79.0851526267
 20
145.3367033171
  0
VERTEX
  8
0
 62
7
  6
CONTINUOUS
 10
79.082773473
 20
145.3791880812
  0
VERTEX
  8
0
 62
7
  6
CONTINUOUS
 10
79.080365368
 20
145.4172235015
  0
VERTEX
  8
0
 62
7
  6
CONTINUOUS
 10
79.0779021996
 20
145.4512556733
  0
VERTEX
  8
0
 62
7
  6
CONTINUOUS
 10
79.0753318428
 20
145.4818778711
  0
VERTEX
  8
0
 62
7
  6
CONTINUOUS
 10
79.0725477013
 20
145.5099374859
  0
VERTEX
  8
0
 62
7
  6
CONTINUOUS
 10
79.0692695082
 20
145.5371204977
  0
VERTEX
  8
0
 62
7
  6
CONTINUOUS
 10
79.064977894
 20
145.5652786939
  0
VERTEX
  8
0
 62
7
  6
CONTINUOUS
 10
79.0584358591
 20
145.5976222162
  0
VERTEX
  8
0
 62
7
  6
CONTINUOUS
 10
79.0461175597
 20
145.6408056313
  0
VERTEX
  8
0
 62
7
  6
CONTINUOUS
 10
79.0197502961
 20
145.7021043889
  0
VERTEX
  8
0
 62
7
  6
CONTINUOUS
 10
78.9732739112
 20
145.7716926562
  0
VERTEX
  8
0
 62
7
  6
CONTINUOUS
 10
78.9066150781
 20
145.8355829317
  0
VERTEX
  8
0
 62
7
  6
CONTINUOUS
 10
78.8209300347
 20
145.8853115708
  0
VERTEX
  8
0
 62
7
  6
CONTINUOUS
 10
78.7155072104
 20
145.9140053355
  0
VERTEX
  8
0
 62
7
  6
CONTINUOUS
 10
78.6638119992
 20
145.9173491307
  0
SEQEND
  0
LINE
  8
0
 62
7
  6
CONTINUOUS
 10
79.0922212171
 20
145.1791302577
 11
79.0875160825
 21
145.2894081713
  0
LINE
  8
0
 62
7
  6
CONTINUOUS
 10
79.0969031093
 20
145.046132778
 11
79.0922212171
 21
145.1791302577
  0
LINE
  8
0
 62
7
  6
CONTINUOUS
 10
79.1015408233
 20
144.888605705
 11
79.0969031093
 21
145.046132778
  0
LINE
  8
0
 62
7
  6
CONTINUOUS
 10
79.1083281249
 20
144.6032573441
 11
79.1015408233
 21
144.888605705
  0
LINE
  8
0
 62
7
  6
CONTINUOUS
 10
79.1147529993
 20
144.256327048
 11
79.1083281249
 21
144.6032573441
  0
POLYLINE
  8
0
 62
7
  6
CONTINUOUS
 66
1
 70
0
  0
VERTEX
  8
0
 62
7
  6
CONTINUOUS
 10
79.1240696168
 20
143.5402867635
  0
VERTEX
  8
0
 62
7
  6
CONTINUOUS
 10
79.1223855777
 20
143.6969512414
  0
VERTEX
  8
0
 62
7
  6
CONTINUOUS
 10
79.1147529993
 20
144.256327048
  0
SEQEND
  0
LINE
  8
0
 62
7
  6
CONTINUOUS
 10
79.3989929645
 20
115.3568846793
 11
79.4042506042
 21
114.4268356641
  0
LINE
  8
0
 62
7
  6
CONTINUOUS
 10
79.3977218365
 20
117.9805279559
 11
79.3989929645
 21
115.3568846793
  0
LINE
  8
2_FEATURE
 62
2
  6
CONTINUOUS
 10
47.7006788793
 20
136.0181335271
 11
98.1306788793
 21
136.0181335271
  0
POLYLINE
  8
0
 62
7
  6
CONTINUOUS
 66
1
 70
0
  0
VERTEX
  8
0
 62
7
  6
CONTINUOUS
 10
54.1230161699
 20
138.5946981717
  0
VERTEX
  8
0
 62
7
  6
CONTINUOUS
 10
54.1026928188
 20
138.5965483816
  0
VERTEX
  8
0
 62
7
  6
CONTINUOUS
 10
54.0629211084
 20
138.6101423389
  0
VERTEX
  8
0
 62
7
  6
CONTINUOUS
 10
54.0250839992
 20
138.633788874
  0
VERTEX
  8
0
 62
7
  6
CONTINUOUS
 10
53.9908097891
 20
138.6636658515
  0
VERTEX
  8
0
 62
7
  6
CONTINUOUS
 10
53.9593766202
 20
138.6983687598
  0
VERTEX
  8
0
 62
7
  6
CONTINUOUS
 10
53.9308334574
 20
138.7365905033
  0
VERTEX
  8
0
 62
7
  6
CONTINUOUS
 10
53.9043574499
 20
138.7785848995
  0
VERTEX
  8
0
 62
7
  6
CONTINUOUS
 10
53.8793207519
 20
138.8251947738
  0
VERTEX
  8
0
 62
7
  6
CONTINUOUS
 10
53.8559004331
 20
138.8762506259
  0
VERTEX
  8
0
 62
7
  6
CONTINUOUS
 10
53.834033353
 20
138.9321940705
  0
VERTEX
  8
0
 62
7
  6
CONTINUOUS
 10
53.8141016232
 20
138.9924049516
  0
VERTEX
  8
0
 62
7
  6
CONTINUOUS
 10
53.7963714003
 20
139.0561662226
  0
VERTEX
  8
0
 62
7
  6
CONTINUOUS
 10
53.7809347448
 20
139.1229739472
  0
VERTEX
  8
0
 62
7
  6
CONTINUOUS
 10
53.7677714898
 20
139.1926695061
  0
VERTEX
  8
0
 62
7
  6
CONTINUOUS
 10
53.7568291636
 20
139.2651882123
  0
VERTEX
  8
0
 62
7
  6
CONTINUOUS
 10
53.7480535161
 20
139.3405549189
  0
VERTEX
  8
0
 62
7
  6
CONTINUOUS
 10
53.7413998603
 20
139.4188289335
  0
VERTEX
  8
0
 62
7
  6
CONTINUOUS
 10
53.7368200168
 20
139.4999757079
  0
VERTEX
  8
0
 62
7
  6
CONTINUOUS
 10
53.73426358
 20
139.5840057272
  0
VERTEX
  8
0
 62
7
  6
CONTINUOUS
 10
53.7336354148
 20
139.6541703201
  0
SEQEND
  0
LINE
  8
0
 62
7
  6
CONTINUOUS
 10
92.6132145021
 20
138.5946995928
 11
92.2230162106
 21
138.5946995928
  0
LINE
  8
0
 62
7
  6
CONTINUOUS
 10
85.3583443811
 20
138.5946995928
 11
79.5230162106
 21
138.5946995928
  0
LINE
  8
0
 62
7
  6
CONTINUOUS
 10
72.6583443811
 20
138.5946995928
 11
66.8230162106
 21
138.5946995928
  0
LINE
  8
0
 62
7
  6
CONTINUOUS
 10
59.9583443811
 20
138.5946995928
 11
54.1230162106
 21
138.5946995928
  0
POLYLINE
  8
0
 62
7
  6
CONTINUOUS
 66
1
 70
0
  0
VERTEX
  8
0
 62
7
  6
CONTINUOUS
 10
66.8230161699
 20
138.5946981717
  0
VERTEX
  8
0
 62
7
  6
CONTINUOUS
 10
66.8026928188
 20
138.5965483816
  0
VERTEX
  8
0
 62
7
  6
CONTINUOUS
 10
66.7629211084
 20
138.6101423389
  0
VERTEX
  8
0
 62
7
  6
CONTINUOUS
 10
66.7250839992
 20
138.633788874
  0
VERTEX
  8
0
 62
7
  6
CONTINUOUS
 10
66.6908097891
 20
138.6636658515
  0
VERTEX
  8
0
 62
7
  6
CONTINUOUS
 10
66.6593766202
 20
138.6983687598
  0
VERTEX
  8
0
 62
7
  6
CONTINUOUS
 10
66.6308334574
 20
138.7365905033
  0
VERTEX
  8
0
 62
7
  6
CONTINUOUS
 10
66.6043574499
 20
138.7785848995
  0
VERTEX
  8
0
 62
7
  6
CONTINUOUS
 10
66.5793207519
 20
138.8251947738
  0
VERTEX
  8
0
 62
7
  6
CONTINUOUS
 10
66.5559004331
 20
138.8762506259
  0
VERTEX
  8
0
 62
7
  6
CONTINUOUS
 10
66.534033353
 20
138.9321940705
  0
VERTEX
  8
0
 62
7
  6
CONTINUOUS
 10
66.5141016232
 20
138.9924049516
  0
VERTEX
  8
0
 62
7
  6
CONTINUOUS
 10
66.4963714003
 20
139.0561662226
  0
VERTEX
  8
0
 62
7
  6
CONTINUOUS
 10
66.4809347448
 20
139.1229739472
  0
VERTEX
  8
0
 62
7
  6
CONTINUOUS
 10
66.4677714898
 20
139.1926695061
  0
VERTEX
  8
0
 62
7
  6
CONTINUOUS
 10
66.4568291636
 20
139.2651882123
  0
VERTEX
  8
0
 62
7
  6
CONTINUOUS
 10
66.4480535161
 20
139.3405549189
  0
VERTEX
  8
0
 62
7
  6
CONTINUOUS
 10
66.4413998603
 20
139.4188289335
  0
VERTEX
  8
0
 62
7
  6
CONTINUOUS
 10
66.4368200168
 20
139.4999757079
  0
VERTEX
  8
0
 62
7
  6
CONTINUOUS
 10
66.43426358
 20
139.5840057272
  0
VERTEX
  8
0
 62
7
  6
CONTINUOUS
 10
66.4336354148
 20
139.6541703201
  0
SEQEND
  0
POLYLINE
  8
0
 62
7
  6
CONTINUOUS
 66
1
 70
0
  0
VERTEX
  8
0
 62
7
  6
CONTINUOUS
 10
79.5230161699
 20
138.5946981717
  0
VERTEX
  8
0
 62
7
  6
CONTINUOUS
 10
79.5026928188
 20
138.5965483816
  0
VERTEX
  8
0
 62
7
  6
CONTINUOUS
 10
79.4629211084
 20
138.6101423389
  0
VERTEX
  8
0
 62
7
  6
CONTINUOUS
 10
79.4250839992
 20
138.633788874
  0
VERTEX
  8
0
 62
7
  6
CONTINUOUS
 10
79.3908097891
 20
138.6636658515
  0
VERTEX
  8
0
 62
7
  6
CONTINUOUS
 10
79.3593766202
 20
138.6983687598
  0
VERTEX
  8
0
 62
7
  6
CONTINUOUS
 10
79.3308334574
 20
138.7365905033
  0
VERTEX
  8
0
 62
7
  6
CONTINUOUS
 10
79.3043574499
 20
138.7785848995
  0
VERTEX
  8
0
 62
7
  6
CONTINUOUS
 10
79.2793207519
 20
138.8251947738
  0
VERTEX
  8
0
 62
7
  6
CONTINUOUS
 10
79.2559004331
 20
138.8762506259
  0
VERTEX
  8
0
 62
7
  6
CONTINUOUS
 10
79.234033353
 20
138.9321940705
  0
VERTEX
  8
0
 62
7
  6
CONTINUOUS
 10
79.2141016232
 20
138.9924049516
  0
VERTEX
  8
0
 62
7
  6
CONTINUOUS
 10
79.1963714003
 20
139.0561662226
  0
VERTEX
  8
0
 62
7
  6
CONTINUOUS
 10
79.1809347448
 20
139.1229739472
  0
VERTEX
  8
0
 62
7
  6
CONTINUOUS
 10
79.1677714898
 20
139.1926695061
  0
VERTEX
  8
0
 62
7
  6
CONTINUOUS
 10
79.1568291636
 20
139.2651882123
  0
VERTEX
  8
0
 62
7
  6
CONTINUOUS
 10
79.1480535161
 20
139.3405549189
  0
VERTEX
  8
0
 62
7
  6
CONTINUOUS
 10
79.1413998603
 20
139.4188289335
  0
VERTEX
  8
0
 62
7
  6
CONTINUOUS
 10
79.1368200168
 20
139.4999757079
  0
VERTEX
  8
0
 62
7
  6
CONTINUOUS
 10
79.13426358
 20
139.5840057272
  0
VERTEX
  8
0
 62
7
  6
CONTINUOUS
 10
79.1336354148
 20
139.6541703201
  0
SEQEND
  0
LINE
  8
0
 62
7
  6
CONTINUOUS
 10
85.7821636305
 20
144.9717326671
 11
85.7774939531
 21
144.7988931637
  0
LINE
  8
0
 62
7
  6
CONTINUOUS
 10
85.7868632955
 20
145.1176189848
 11
85.7821636305
 21
144.9717326671
  0
POLYLINE
  8
0
 62
7
  6
CONTINUOUS
 66
1
 70
0
  0
VERTEX
  8
0
 62
7
  6
CONTINUOUS
 10
92.6551351485
 20
138.5924968519
  0
VERTEX
  8
0
 62
7
  6
CONTINUOUS
 10
92.6231331532
 20
138.5945765993
  0
VERTEX
  8
0
 62
7
  6
CONTINUOUS
 10
92.6132145021
 20
138.5946995928
  0
SEQEND
  0
POLYLINE
  8
0
 62
7
  6
CONTINUOUS
 66
1
 70
0
  0
VERTEX
  8
0
 62
7
  6
CONTINUOUS
 10
97.7633049523
 20
138.1184764126
  0
VERTEX
  8
0
 62
7
  6
CONTINUOUS
 10
95.9634356155
 20
138.2721587084
  0
VERTEX
  8
0
 62
7
  6
CONTINUOUS
 10
94.2198387258
 20
138.4342955971
  0
VERTEX
  8
0
 62
7
  6
CONTINUOUS
 10
92.6551346645
 20
138.59249403
  0
SEQEND
  0
POLYLINE
  8
0
 62
7
  6
CONTINUOUS
 66
1
 70
0
  0
VERTEX
  8
0
 62
7
  6
CONTINUOUS
 10
92.2230161699
 20
138.5946981717
  0
VERTEX
  8
0
 62
7
  6
CONTINUOUS
 10
92.2026928188
 20
138.5965483816
  0
VERTEX
  8
0
 62
7
  6
CONTINUOUS
 10
92.1629211084
 20
138.6101423389
  0
VERTEX
  8
0
 62
7
  6
CONTINUOUS
 10
92.1250839992
 20
138.633788874
  0
VERTEX
  8
0
 62
7
  6
CONTINUOUS
 10
92.0908097891
 20
138.6636658515
  0
VERTEX
  8
0
 62
7
  6
CONTINUOUS
 10
92.0593766202
 20
138.6983687598
  0
VERTEX
  8
0
 62
7
  6
CONTINUOUS
 10
92.0308334574
 20
138.7365905033
  0
VERTEX
  8
0
 62
7
  6
CONTINUOUS
 10
92.0043574499
 20
138.7785848995
  0
VERTEX
  8
0
 62
7
  6
CONTINUOUS
 10
91.9793207519
 20
138.8251947738
  0
VERTEX
  8
0
 62
7
  6
CONTINUOUS
 10
91.9559004331
 20
138.8762506259
  0
VERTEX
  8
0
 62
7
  6
CONTINUOUS
 10
91.934033353
 20
138.9321940705
  0
VERTEX
  8
0
 62
7
  6
CONTINUOUS
 10
91.9141016232
 20
138.9924049516
  0
VERTEX
  8
0
 62
7
  6
CONTINUOUS
 10
91.8963714003
 20
139.0561662226
  0
VERTEX
  8
0
 62
7
  6
CONTINUOUS
 10
91.8809347448
 20
139.1229739472
  0
VERTEX
  8
0
 62
7
  6
CONTINUOUS
 10
91.8677714898
 20
139.1926695061
  0
VERTEX
  8
0
 62
7
  6
CONTINUOUS
 10
91.8568291636
 20
139.2651882123
  0
VERTEX
  8
0
 62
7
  6
CONTINUOUS
 10
91.8480535161
 20
139.3405549189
  0
VERTEX
  8
0
 62
7
  6
CONTINUOUS
 10
91.8413998603
 20
139.4188289335
  0
VERTEX
  8
0
 62
7
  6
CONTINUOUS
 10
91.8368200168
 20
139.4999757079
  0
VERTEX
  8
0
 62
7
  6
CONTINUOUS
 10
91.83426358
 20
139.5840057272
  0
VERTEX
  8
0
 62
7
  6
CONTINUOUS
 10
91.8336354148
 20
139.6541703201
  0
SEQEND
  0
LINE
  8
0
 62
7
  6
CONTINUOUS
 10
85.4814079961
 20
115.1140464164
 11
85.4836359221
 21
117.9805279565
  0
LINE
  8
0
 62
7
  6
CONTINUOUS
 10
85.7500365564
 20
142.5396870562
 11
85.7477218365
 21
139.6541703194
  0
LINE
  8
0
 62
7
  6
CONTINUOUS
 10
85.4749979466
 20
114.1882491799
 11
85.4814079961
 21
115.1140464164
  0
POLYLINE
  8
0
 62
7
  6
CONTINUOUS
 66
1
 70
0
  0
VERTEX
  8
0
 62
7
  6
CONTINUOUS
 10
85.4836354059
 20
117.9805279565
  0
VERTEX
  8
0
 62
7
  6
CONTINUOUS
 10
85.484288616
 20
118.0520479216
  0
VERTEX
  8
0
 62
7
  6
CONTINUOUS
 10
85.486878469
 20
118.1360715377
  0
VERTEX
  8
0
 62
7
  6
CONTINUOUS
 10
85.4914961123
 20
118.217233086
  0
VERTEX
  8
0
 62
7
  6
CONTINUOUS
 10
85.498193487
 20
118.2955344736
  0
VERTEX
  8
0
 62
7
  6
CONTINUOUS
 10
85.5070191324
 20
118.3709320222
  0
VERTEX
  8
0
 62
7
  6
CONTINUOUS
 10
85.5180171967
 20
118.4434765301
  0
VERTEX
  8
0
 62
7
  6
CONTINUOUS
 10
85.5312412025
 20
118.5131849134
  0
VERTEX
  8
0
 62
7
  6
CONTINUOUS
 10
85.5467410204
 20
118.5799849777
  0
VERTEX
  8
0
 62
7
  6
CONTINUOUS
 10
85.5645341619
 20
118.6437146845
  0
VERTEX
  8
0
 62
7
  6
CONTINUOUS
 10
85.5845289262
 20
118.7038777097
  0
VERTEX
  8
0
 62
7
  6
CONTINUOUS
 10
85.6064585418
 20
118.7597618499
  0
VERTEX
  8
0
 62
7
  6
CONTINUOUS
 10
85.6299470772
 20
118.8107625885
  0
VERTEX
  8
0
 62
7
  6
CONTINUOUS
 10
85.6550713352
 20
118.8573378939
  0
VERTEX
  8
0
 62
7
  6
CONTINUOUS
 10
85.6816439865
 20
118.8992888003
  0
VERTEX
  8
0
 62
7
  6
CONTINUOUS
 10
85.7102814502
 20
118.9374325826
  0
VERTEX
  8
0
 62
7
  6
CONTINUOUS
 10
85.7418542627
 20
118.9720623562
  0
VERTEX
  8
0
 62
7
  6
CONTINUOUS
 10
85.776323162
 20
119.0018389578
  0
VERTEX
  8
0
 62
7
  6
CONTINUOUS
 10
85.8143619786
 20
119.0252592642
  0
VERTEX
  8
0
 62
7
  6
CONTINUOUS
 10
85.85427949
 20
119.0384267647
  0
VERTEX
  8
0
 62
7
  6
CONTINUOUS
 10
85.8730133544
 20
119.0399992872
  0
SEQEND
  0
LINE
  8
0
 62
7
  6
CONTINUOUS
 10
85.7566798803
 20
143.4794714523
 11
85.7500365564
 21
142.5396870562
  0
POLYLINE
  8
0
 62
7
  6
CONTINUOUS
 66
1
 70
0
  0
VERTEX
  8
0
 62
7
  6
CONTINUOUS
 10
85.7477223527
 20
139.6541703194
  0
VERTEX
  8
0
 62
7
  6
CONTINUOUS
 10
85.7470691426
 20
139.5826503543
  0
VERTEX
  8
0
 62
7
  6
CONTINUOUS
 10
85.7444792896
 20
139.4986267382
  0
VERTEX
  8
0
 62
7
  6
CONTINUOUS
 10
85.7398616463
 20
139.4174651899
  0
VERTEX
  8
0
 62
7
  6
CONTINUOUS
 10
85.7331642717
 20
139.3391638022
  0
VERTEX
  8
0
 62
7
  6
CONTINUOUS
 10
85.7243386263
 20
139.2637662537
  0
VERTEX
  8
0
 62
7
  6
CONTINUOUS
 10
85.7133405619
 20
139.1912217458
  0
VERTEX
  8
0
 62
7
  6
CONTINUOUS
 10
85.7001165561
 20
139.1215133624
  0
VERTEX
  8
0
 62
7
  6
CONTINUOUS
 10
85.6846167382
 20
139.0547132982
  0
VERTEX
  8
0
 62
7
  6
CONTINUOUS
 10
85.6668235967
 20
138.9909835914
  0
VERTEX
  8
0
 62
7
  6
CONTINUOUS
 10
85.6468288324
 20
138.9308205661
  0
VERTEX
  8
0
 62
7
  6
CONTINUOUS
 10
85.6248992168
 20
138.874936426
  0
VERTEX
  8
0
 62
7
  6
CONTINUOUS
 10
85.6014106814
 20
138.8239356874
  0
VERTEX
  8
0
 62
7
  6
CONTINUOUS
 10
85.5762864234
 20
138.7773603819
  0
VERTEX
  8
0
 62
7
  6
CONTINUOUS
 10
85.5497137721
 20
138.7354094755
  0
VERTEX
  8
0
 62
7
  6
CONTINUOUS
 10
85.5210763084
 20
138.6972656933
  0
VERTEX
  8
0
 62
7
  6
CONTINUOUS
 10
85.4895034959
 20
138.6626359197
  0
VERTEX
  8
0
 62
7
  6
CONTINUOUS
 10
85.4550345967
 20
138.6328593181
  0
VERTEX
  8
0
 62
7
  6
CONTINUOUS
 10
85.41699578
 20
138.6094390117
  0
VERTEX
  8
0
 62
7
  6
CONTINUOUS
 10
85.3770782686
 20
138.5962715111
  0
VERTEX
  8
0
 62
7
  6
CONTINUOUS
 10
85.3583444043
 20
138.5946989886
  0
SEQEND
  0
LINE
  8
0
 62
7
  6
CONTINUOUS
 10
85.467732986
 20
113.5731199014
 11
85.4749979466
 21
114.1882491799
  0
LINE
  8
0
 62
7
  6
CONTINUOUS
 10
85.7641982224
 20
144.1010673168
 11
85.7566798803
 21
143.4794714523
  0
LINE
  8
0
 62
7
  6
CONTINUOUS
 10
85.4614912789
 20
113.1913290116
 11
85.467732986
 21
113.5731199014
  0
LINE
  8
0
 62
7
  6
CONTINUOUS
 10
85.7706513419
 20
144.4848705574
 11
85.7641982224
 21
144.1010673168
  0
LINE
  8
0
 62
7
  6
CONTINUOUS
 10
85.454867923
 20
112.8770283937
 11
85.4614912789
 21
113.1913290116
  0
LINE
  8
0
 62
7
  6
CONTINUOUS
 10
85.7774939531
 20
144.7988931637
 11
85.7706513419
 21
144.4848705574
  0
LINE
  8
0
 62
7
  6
CONTINUOUS
 10
85.4503432866
 20
112.7027666229
 11
85.454867923
 21
112.8770283937
  0
LINE
  8
0
 62
7
  6
CONTINUOUS
 10
85.4457846558
 20
112.5545380937
 11
85.4503432866
 21
112.7027666229
  0
LINE
  8
DEFAULT_1
 62
2
  6
CENTER
 10
45.7006788793
 20
141.5173491379
 11
93.8093162256
 21
141.5173491379
  0
POLYLINE
  8
0
 62
7
  6
CONTINUOUS
 66
1
 70
0
  0
VERTEX
  8
0
 62
7
  6
CONTINUOUS
 10
97.7633049367
 20
138.1184764057
  0
VERTEX
  8
0
 62
7
  6
CONTINUOUS
 10
97.860604032
 20
138.0981205204
  0
VERTEX
  8
0
 62
7
  6
CONTINUOUS
 10
97.9493026451
 20
138.054777332
  0
VERTEX
  8
0
 62
7
  6
CONTINUOUS
 10
98.0244699822
 20
137.991262305
  0
VERTEX
  8
0
 62
7
  6
CONTINUOUS
 10
98.081926335
 20
137.9111863803
  0
VERTEX
  8
0
 62
7
  6
CONTINUOUS
 10
98.1182195849
 20
137.8188657578
  0
VERTEX
  8
0
 62
7
  6
CONTINUOUS
 10
98.1306788793
 20
137.7198092007
  0
SEQEND
  0
POLYLINE
  8
0
 62
7
  6
CONTINUOUS
 66
1
 70
0
  0
VERTEX
  8
0
 62
7
  6
CONTINUOUS
 10
86.21754595
 20
145.9173491301
  0
VERTEX
  8
0
 62
7
  6
CONTINUOUS
 10
86.1650205431
 20
145.9138966233
  0
VERTEX
  8
0
 62
7
  6
CONTINUOUS
 10
86.0575687521
 20
145.8840821118
  0
VERTEX
  8
0
 62
7
  6
CONTINUOUS
 10
85.9700207284
 20
145.8319424734
  0
VERTEX
  8
0
 62
7
  6
CONTINUOUS
 10
85.9028420841
 20
145.765233377
  0
VERTEX
  8
0
 62
7
  6
CONTINUOUS
 10
85.8577137385
 20
145.6945510453
  0
VERTEX
  8
0
 62
7
  6
CONTINUOUS
 10
85.8332586674
 20
145.6348352154
  0
VERTEX
  8
0
 62
7
  6
CONTINUOUS
 10
85.8218123065
 20
145.5927834406
  0
VERTEX
  8
0
 62
7
  6
CONTINUOUS
 10
85.8158014412
 20
145.5618804295
  0
VERTEX
  8
0
 62
7
  6
CONTINUOUS
 10
85.8118417074
 20
145.5352689817
  0
VERTEX
  8
0
 62
7
  6
CONTINUOUS
 10
85.808723557
 20
145.5091392373
  0
VERTEX
  8
0
 62
7
  6
CONTINUOUS
 10
85.8059898503
 20
145.4814808086
  0
VERTEX
  8
0
 62
7
  6
CONTINUOUS
 10
85.8034458382
 20
145.4511306314
  0
VERTEX
  8
0
 62
7
  6
CONTINUOUS
 10
85.8010034485
 20
145.4173870626
  0
VERTEX
  8
0
 62
7
  6
CONTINUOUS
 10
85.7986185568
 20
145.3797637824
  0
VERTEX
  8
0
 62
7
  6
CONTINUOUS
 10
85.7962591179
 20
145.3377233936
  0
VERTEX
  8
0
 62
7
  6
CONTINUOUS
 10
85.7939098531
 20
145.2908458325
  0
VERTEX
  8
0
 62
7
  6
CONTINUOUS
 10
85.7915627348
 20
145.2387631453
  0
VERTEX
  8
0
 62
7
  6
CONTINUOUS
 10
85.7868632955
 20
145.1176189848
  0
SEQEND
  0
POLYLINE
  8
0
 62
7
  6
CONTINUOUS
 66
1
 70
0
  0
VERTEX
  8
0
 62
7
  6
CONTINUOUS
 10
92.143841627
 20
112.3452909765
  0
VERTEX
  8
0
 62
7
  6
CONTINUOUS
 10
92.1462050906
 20
112.2979957286
  0
VERTEX
  8
0
 62
7
  6
CONTINUOUS
 10
92.1485842361
 20
112.2555111913
  0
VERTEX
  8
0
 62
7
  6
CONTINUOUS
 10
92.1509923309
 20
112.2174757329
  0
VERTEX
  8
0
 62
7
  6
CONTINUOUS
 10
92.1534554928
 20
112.1834433668
  0
VERTEX
  8
0
 62
7
  6
CONTINUOUS
 10
92.1560258595
 20
112.152820864
  0
VERTEX
  8
0
 62
7
  6
CONTINUOUS
 10
92.1588100631
 20
112.1247607327
  0
VERTEX
  8
0
 62
7
  6
CONTINUOUS
 10
92.1620881874
 20
112.0975784062
  0
VERTEX
  8
0
 62
7
  6
CONTINUOUS
 10
92.1663796672
 20
112.0694208268
  0
VERTEX
  8
0
 62
7
  6
CONTINUOUS
 10
92.1729214368
 20
112.0370780064
  0
VERTEX
  8
0
 62
7
  6
CONTINUOUS
 10
92.1852392884
 20
111.9938951932
  0
VERTEX
  8
0
 62
7
  6
CONTINUOUS
 10
92.211606345
 20
111.932595837
  0
VERTEX
  8
0
 62
7
  6
CONTINUOUS
 10
92.2580829732
 20
111.8630065284
  0
VERTEX
  8
0
 62
7
  6
CONTINUOUS
 10
92.3247421178
 20
111.7991156596
  0
VERTEX
  8
0
 62
7
  6
CONTINUOUS
 10
92.4104273889
 20
111.749386776
  0
VERTEX
  8
0
 62
7
  6
CONTINUOUS
 10
92.515850455
 20
111.7206929281
  0
VERTEX
  8
0
 62
7
  6
CONTINUOUS
 10
92.5675453976
 20
111.7173491451
  0
SEQEND
  0
LINE
  8
0
 62
7
  6
CONTINUOUS
 10
92.1391364954
 20
112.4555693414
 11
92.143841627
 21
112.3452909765
  0
POLYLINE
  8
0
 62
7
  6
CONTINUOUS
 66
1
 70
0
  0
VERTEX
  8
0
 62
7
  6
CONTINUOUS
 10
60.8175457282
 20
145.9173491308
  0
VERTEX
  8
0
 62
7
  6
CONTINUOUS
 10
60.7670775018
 20
145.9141628146
  0
VERTEX
  8
0
 62
7
  6
CONTINUOUS
 10
60.661045688
 20
145.8855738747
  0
VERTEX
  8
0
 62
7
  6
CONTINUOUS
 10
60.5741837837
 20
145.8351578366
  0
VERTEX
  8
0
 62
7
  6
CONTINUOUS
 10
60.5069331684
 20
145.7702977808
  0
VERTEX
  8
0
 62
7
  6
CONTINUOUS
 10
60.4608364273
 20
145.7006386511
  0
VERTEX
  8
0
 62
7
  6
CONTINUOUS
 10
60.4350708439
 20
145.6403063663
  0
VERTEX
  8
0
 62
7
  6
CONTINUOUS
 10
60.4228351026
 20
145.5972514172
  0
VERTEX
  8
0
 62
7
  6
CONTINUOUS
 10
60.4164921491
 20
145.5659259885
  0
VERTEX
  8
0
 62
7
  6
CONTINUOUS
 10
60.4124147613
 20
145.5395287279
  0
VERTEX
  8
0
 62
7
  6
CONTINUOUS
 10
60.4092658753
 20
145.5140706653
  0
VERTEX
  8
0
 62
7
  6
CONTINUOUS
 10
60.4065410976
 20
145.4874525967
  0
VERTEX
  8
0
 62
7
  6
CONTINUOUS
 10
60.404026208
 20
145.4584713441
  0
VERTEX
  8
0
 62
7
  6
CONTINUOUS
 10
60.4016225725
 20
145.4263870435
  0
VERTEX
  8
0
 62
7
  6
CONTINUOUS
 10
60.3992847578
 20
145.3907549298
  0
VERTEX
  8
0
 62
7
  6
CONTINUOUS
 10
60.3969826336
 20
145.3511402375
  0
VERTEX
  8
0
 62
7
  6
CONTINUOUS
 10
60.3946962815
 20
145.3071111017
  0
VERTEX
  8
0
 62
7
  6
CONTINUOUS
 10
60.3924159758
 20
145.2583195564
  0
VERTEX
  8
0
 62
7
  6
CONTINUOUS
 10
60.3901364138
 20
145.2044394185
  0
VERTEX
  8
0
 62
7
  6
CONTINUOUS
 10
60.3855733801
 20
145.0801684086
  0
SEQEND
  0
POLYLINE
  8
0
 62
7
  6
CONTINUOUS
 66
1
 70
0
  0
VERTEX
  8
0
 62
7
  6
CONTINUOUS
 10
73.5175457274
 20
145.9173491309
  0
VERTEX
  8
0
 62
7
  6
CONTINUOUS
 10
73.4675497601
 20
145.9142224044
  0
VERTEX
  8
0
 62
7
  6
CONTINUOUS
 10
73.3611018291
 20
145.8855976442
  0
VERTEX
  8
0
 62
7
  6
CONTINUOUS
 10
73.273582186
 20
145.8346985394
  0
VERTEX
  8
0
 62
7
  6
CONTINUOUS
 10
73.2060223741
 20
145.7691846339
  0
VERTEX
  8
0
 62
7
  6
CONTINUOUS
 10
73.1602035534
 20
145.6994247676
  0
VERTEX
  8
0
 62
7
  6
CONTINUOUS
 10
73.1348812826
 20
145.6397451695
  0
VERTEX
  8
0
 62
7
  6
CONTINUOUS
 10
73.1228178201
 20
145.5971774347
  0
VERTEX
  8
0
 62
7
  6
CONTINUOUS
 10
73.1164841598
 20
145.5658800623
  0
VERTEX
  8
0
 62
7
  6
CONTINUOUS
 10
73.11235314
 20
145.5390780005
  0
VERTEX
  8
0
 62
7
  6
CONTINUOUS
 10
73.1091301927
 20
145.5128531073
  0
VERTEX
  8
0
 62
7
  6
CONTINUOUS
 10
73.1063205682
 20
145.4850883957
  0
VERTEX
  8
0
 62
7
  6
CONTINUOUS
 10
73.1037136881
 20
145.4545499261
  0
VERTEX
  8
0
 62
7
  6
CONTINUOUS
 10
73.101201097
 20
145.4202938228
  0
VERTEX
  8
0
 62
7
  6
CONTINUOUS
 10
73.0987320077
 20
145.3816623629
  0
VERTEX
  8
0
 62
7
  6
CONTINUOUS
 10
73.0962830681
 20
145.3381750898
  0
VERTEX
  8
0
 62
7
  6
CONTINUOUS
 10
73.0938441113
 20
145.289459597
  0
VERTEX
  8
0
 62
7
  6
CONTINUOUS
 10
73.0914090191
 20
145.2351629709
  0
VERTEX
  8
0
 62
7
  6
CONTINUOUS
 10
73.0865453562
 20
145.1085632365
  0
SEQEND
  0
LINE
  8
2_FEATURE
 62
7
  6
CONTINUOUS
 10
48.1006788793
 20
145.9173491379
 11
53.2638156651
 21
145.9173491379
  0
LINE
  8
2_FEATURE
 62
7
  6
CONTINUOUS
 10
60.817543496
 20
145.9173491379
 11
65.9638156651
 21
145.9173491379
  0
LINE
  8
2_FEATURE
 62
7
  6
CONTINUOUS
 10
73.5175420935
 20
145.9173491379
 11
78.6638156651
 21
145.9173491379
  0
LINE
  8
2_FEATURE
 62
7
  6
CONTINUOUS
 10
86.2175396921
 20
145.9173491379
 11
91.3638156651
 21
145.9173491379
  0
POLYLINE
  8
0
 62
7
  6
CONTINUOUS
 66
1
 70
0
  0
VERTEX
  8
0
 62
7
  6
CONTINUOUS
 10
91.7875160825
 20
145.2894081713
  0
VERTEX
  8
0
 62
7
  6
CONTINUOUS
 10
91.7851526267
 20
145.3367033171
  0
VERTEX
  8
0
 62
7
  6
CONTINUOUS
 10
91.782773473
 20
145.3791880812
  0
VERTEX
  8
0
 62
7
  6
CONTINUOUS
 10
91.780365368
 20
145.4172235015
  0
VERTEX
  8
0
 62
7
  6
CONTINUOUS
 10
91.7779021996
 20
145.4512556733
  0
VERTEX
  8
0
 62
7
  6
CONTINUOUS
 10
91.7753318428
 20
145.4818778711
  0
VERTEX
  8
0
 62
7
  6
CONTINUOUS
 10
91.7725477013
 20
145.5099374859
  0
VERTEX
  8
0
 62
7
  6
CONTINUOUS
 10
91.7692695082
 20
145.5371204977
  0
VERTEX
  8
0
 62
7
  6
CONTINUOUS
 10
91.764977894
 20
145.5652786939
  0
VERTEX
  8
0
 62
7
  6
CONTINUOUS
 10
91.7584358591
 20
145.5976222162
  0
VERTEX
  8
0
 62
7
  6
CONTINUOUS
 10
91.7461175597
 20
145.6408056313
  0
VERTEX
  8
0
 62
7
  6
CONTINUOUS
 10
91.7197502961
 20
145.7021043889
  0
VERTEX
  8
0
 62
7
  6
CONTINUOUS
 10
91.6732739112
 20
145.7716926562
  0
VERTEX
  8
0
 62
7
  6
CONTINUOUS
 10
91.6066150781
 20
145.8355829317
  0
VERTEX
  8
0
 62
7
  6
CONTINUOUS
 10
91.5209300347
 20
145.8853115708
  0
VERTEX
  8
0
 62
7
  6
CONTINUOUS
 10
91.4155072104
 20
145.9140053355
  0
VERTEX
  8
0
 62
7
  6
CONTINUOUS
 10
91.3638119992
 20
145.9173491307
  0
SEQEND
  0
LINE
  8
0
 62
7
  6
CONTINUOUS
 10
91.7922212171
 20
145.1791302577
 11
91.7875160825
 21
145.2894081713
  0
LINE
  8
0
 62
7
  6
CONTINUOUS
 10
92.134454605
 20
112.5885667198
 11
92.1391364954
 21
112.4555693414
  0
LINE
  8
0
 62
7
  6
CONTINUOUS
 10
91.7969031093
 20
145.046132778
 11
91.7922212171
 21
145.1791302577
  0
LINE
  8
0
 62
7
  6
CONTINUOUS
 10
92.1298168947
 20
112.7460941729
 11
92.134454605
 21
112.5885667198
  0
LINE
  8
0
 62
7
  6
CONTINUOUS
 10
91.8015408233
 20
144.888605705
 11
91.7969031093
 21
145.046132778
  0
LINE
  8
0
 62
7
  6
CONTINUOUS
 10
92.123029596
 20
113.0314425906
 11
92.1298168947
 21
112.7460941729
  0
LINE
  8
0
 62
7
  6
CONTINUOUS
 10
91.8083281249
 20
144.6032573441
 11
91.8015408233
 21
144.888605705
  0
LINE
  8
0
 62
7
  6
CONTINUOUS
 10
92.1166047265
 20
113.3783730145
 11
92.123029596
 21
113.0314425906
  0
LINE
  8
0
 62
7
  6
CONTINUOUS
 10
91.8147529993
 20
144.256327048
 11
91.8083281249
 21
144.6032573441
  0
LINE
  8
0
 62
7
  6
CONTINUOUS
 10
92.1089721552
 20
113.9377490581
 11
92.1166047265
 21
113.3783730145
  0
LINE
  8
0
 62
7
  6
CONTINUOUS
 10
91.8223855777
 20
143.6969512414
 11
91.8147529993
 21
144.256327048
  0
LINE
  8
0
 62
7
  6
CONTINUOUS
 10
91.8296449459
 20
142.8515566548
 11
91.8223855777
 21
143.6969512414
  0
LINE
  8
0
 62
7
  6
CONTINUOUS
 10
92.1017127812
 20
114.7831472975
 11
92.1089721552
 21
113.9377490581
  0
LINE
  8
0
 62
7
  6
CONTINUOUS
 10
91.8333585419
 20
141.8737199665
 11
91.8296449459
 21
142.8515566548
  0
LINE
  8
0
 62
7
  6
CONTINUOUS
 10
92.097999209
 20
115.76098093
 11
92.1017127812
 21
114.7831472975
  0
LINE
  8
0
 62
7
  6
CONTINUOUS
 10
91.8336359221
 20
139.6541703199
 11
91.8333585419
 21
141.8737199665
  0
LINE
  8
0
 62
7
  6
CONTINUOUS
 10
92.0977218365
 20
117.9805279559
 11
92.097999209
 21
115.76098093
  0
LINE
  8
0
 62
7
  6
CONTINUOUS
 10
98.1306788793
 20
137.7198093326
 11
98.1306788793
 21
112.1173519168
  0
LINE
  8
2_FEATURE
 62
2
  6
CONTINUOUS
 10
98.1306788793
 20
121.6165647488
 11
98.1306788793
 21
123.5373491379
  0
LINE
  8
2_FEATURE
 62
2
  6
CONTINUOUS
 10
98.1306788793
 20
134.0973491379
 11
98.1306788793
 21
136.0181334867
  0
LINE
  8
2_FEATURE
 62
2
  6
CONTINUOUS
 10
47.7006788793
 20
194.1255370724
 11
47.7006788793
 21
188.3255371099
  0
LINE
  8
0
 62
7
  6
CONTINUOUS
 10
47.7006788793
 20
188.7255370724
 11
47.7006788793
 21
196.2778169614
  0
LINE
  8
0
 62
7
  6
CONTINUOUS
 10
51.8656788793
 20
183.6255370724
 11
51.8656788793
 21
188.3255370724
  0
LINE
  8
0
 62
7
  6
CONTINUOUS
 10
53.9977827584
 20
196.7185561099
 11
54.1374232779
 21
188.7185561099
  0
LINE
  8
0
 62
7
  6
CONTINUOUS
 10
57.9656788793
 20
188.3255370724
 11
57.9656788793
 21
183.6255370724
  0
LINE
  8
0
 62
7
  6
CONTINUOUS
 10
59.9439344808
 20
188.7185561099
 11
60.0835750002
 21
196.7185561099
  0
LINE
  8
0
 62
7
  6
CONTINUOUS
 10
59.6261567451
 20
189.7954540105
 11
59.5842086935
 21
188.4224832211
  0
POLYLINE
  8
0
 62
7
  6
CONTINUOUS
 66
1
 70
0
  0
VERTEX
  8
0
 62
7
  6
CONTINUOUS
 10
59.6261656416
 20
189.7957450039
  0
VERTEX
  8
0
 62
7
  6
CONTINUOUS
 10
59.6288178351
 20
189.8223290995
  0
VERTEX
  8
0
 62
7
  6
CONTINUOUS
 10
59.6478134687
 20
189.8829963618
  0
VERTEX
  8
0
 62
7
  6
CONTINUOUS
 10
59.6559697918
 20
189.8989329117
  0
SEQEND
  0
POLYLINE
  8
0
 62
7
  6
CONTINUOUS
 66
1
 70
0
  0
VERTEX
  8
0
 62
7
  6
CONTINUOUS
 10
59.8768926435
 20
190.1986189225
  0
VERTEX
  8
0
 62
7
  6
CONTINUOUS
 10
59.904236086
 20
190.2525568646
  0
VERTEX
  8
0
 62
7
  6
CONTINUOUS
 10
59.9477018607
 20
190.3795956929
  0
VERTEX
  8
0
 62
7
  6
CONTINUOUS
 10
59.9718800728
 20
190.5216084757
  0
VERTEX
  8
0
 62
7
  6
CONTINUOUS
 10
59.976969329
 20
190.6110882203
  0
SEQEND
  0
POLYLINE
  8
0
 62
7
  6
CONTINUOUS
 66
1
 70
0
  0
VERTEX
  8
0
 62
7
  6
CONTINUOUS
 10
59.6559655561
 20
189.8989343426
  0
VERTEX
  8
0
 62
7
  6
CONTINUOUS
 10
59.6696138202
 20
189.9213620146
  0
VERTEX
  8
0
 62
7
  6
CONTINUOUS
 10
59.7186118789
 20
189.9865784474
  0
VERTEX
  8
0
 62
7
  6
CONTINUOUS
 10
59.7822499025
 20
190.0633945565
  0
VERTEX
  8
0
 62
7
  6
CONTINUOUS
 10
59.849693068
 20
190.1544952863
  0
SEQEND
  0
LINE
  8
0
 62
7
  6
CONTINUOUS
 10
59.849693068
 20
190.1544952863
 11
59.8768922931
 21
190.198619122
  0
LINE
  8
0
 62
7
  6
CONTINUOUS
 10
92.4656788793
 20
182.1255370724
 11
89.3656788793
 21
182.1255370724
  0
LINE
  8
0
 62
7
  6
CONTINUOUS
 10
56.4656788793
 20
182.1255370724
 11
53.3656788793
 21
182.1255370724
  0
LINE
  8
0
 62
7
  6
CONTINUOUS
 10
66.6977827584
 20
196.7185561099
 11
66.8374232779
 21
188.7185561099
  0
POLYLINE
  8
0
 62
7
  6
CONTINUOUS
 66
1
 70
0
  0
VERTEX
  8
0
 62
7
  6
CONTINUOUS
 10
84.9883277908
 20
189.9935760795
  0
VERTEX
  8
0
 62
7
  6
CONTINUOUS
 10
85.083739036
 20
190.0159305899
  0
VERTEX
  8
0
 62
7
  6
CONTINUOUS
 10
85.1739486024
 20
190.0717467789
  0
VERTEX
  8
0
 62
7
  6
CONTINUOUS
 10
85.2502829947
 20
190.1565233037
  0
VERTEX
  8
0
 62
7
  6
CONTINUOUS
 10
85.3091108602
 20
190.2636924524
  0
VERTEX
  8
0
 62
7
  6
CONTINUOUS
 10
85.3497419722
 20
190.3879179694
  0
VERTEX
  8
0
 62
7
  6
CONTINUOUS
 10
85.3722226951
 20
190.5251808439
  0
VERTEX
  8
0
 62
7
  6
CONTINUOUS
 10
85.3769744627
 20
190.6113672205
  0
SEQEND
  0
LINE
  8
1_AXIS
 62
2
  6
CENTER
 10
72.9156788793
 20
180.1255369484
 11
72.9156788793
 21
199.1255511179
  0
LINE
  8
0
 62
7
  6
CONTINUOUS
 10
72.6439344808
 20
188.7185561099
 11
72.7835750002
 21
196.7185561099
  0
LINE
  8
0
 62
7
  6
CONTINUOUS
 10
84.9710712669
 20
189.9930510346
 11
84.9883277908
 21
189.9935760795
  0
LINE
  8
0
 62
7
  6
CONTINUOUS
 10
52.3707846685
 20
188.3255370724
 11
48.1006788793
 21
188.3255370724
  0
LINE
  8
2_FEATURE
 62
2
  6
CONTINUOUS
 10
47.7006788793
 20
188.3255370724
 11
54.5373623559
 21
188.3255370724
  0
LINE
  8
2_FEATURE
 62
2
  6
CONTINUOUS
 10
59.4842553344
 20
188.3255370724
 11
67.2373623559
 21
188.3255370724
  0
LINE
  8
2_FEATURE
 62
2
  6
CONTINUOUS
 10
72.2439954027
 20
188.3255370724
 11
79.9373623559
 21
188.3255370724
  0
LINE
  8
2_FEATURE
 62
2
  6
CONTINUOUS
 10
83.5389668875
 20
188.3255370724
 11
98.1306788793
 21
188.3255370724
  0
LINE
  8
2_FEATURE
 62
7
  6
CONTINUOUS
 10
54.5373623559
 20
188.3255370724
 11
59.4842553344
 21
188.3255370724
  0
LINE
  8
2_FEATURE
 62
7
  6
CONTINUOUS
 10
67.2373623559
 20
188.3255370724
 11
72.2439954027
 21
188.3255370724
  0
LINE
  8
2_FEATURE
 62
7
  6
CONTINUOUS
 10
79.9373623559
 20
188.3255370724
 11
83.5389668875
 21
188.3255370724
  0
LINE
  8
0
 62
7
  6
CONTINUOUS
 10
54.3321719331
 20
188.3255370724
 11
88.3707846682
 21
188.3255370724
  0
LINE
  8
0
 62
7
  6
CONTINUOUS
 10
92.4322025247
 20
188.3255370724
 11
97.7306788793
 21
188.3255370724
  0
LINE
  8
0
 62
7
  6
CONTINUOUS
 10
84.9710712668
 20
189.9930477562
 11
83.9047058343
 21
189.9930477562
  0
LINE
  8
DEFAULT_1
 62
2
  6
CENTER
 10
52.022041533
 20
192.7255370724
 11
100.1306788793
 21
192.7255370724
  0
POLYLINE
  8
0
 62
7
  6
CONTINUOUS
 66
1
 70
0
  0
VERTEX
  8
0
 62
7
  6
CONTINUOUS
 10
83.845066377
 20
189.9759210644
  0
VERTEX
  8
0
 62
7
  6
CONTINUOUS
 10
83.8683007824
 20
189.9864911606
  0
VERTEX
  8
0
 62
7
  6
CONTINUOUS
 10
83.8938694725
 20
189.9924424344
  0
VERTEX
  8
0
 62
7
  6
CONTINUOUS
 10
83.9047058329
 20
189.9930483125
  0
SEQEND
  0
LINE
  8
2_FEATURE
 62
2
  6
CONTINUOUS
 10
47.7006788793
 20
194.1255370724
 11
98.1306788793
 21
194.1255370724
  0
LINE
  8
0
 62
7
  6
CONTINUOUS
 10
79.3977827584
 20
196.7185561099
 11
79.5374232779
 21
188.7185561099
  0
LINE
  8
2_FEATURE
 62
7
  6
CONTINUOUS
 10
54.3977218365
 20
197.1255370724
 11
59.6836359273
 21
197.1255370724
  0
LINE
  8
2_FEATURE
 62
7
  6
CONTINUOUS
 10
67.0977218365
 20
197.1255370724
 11
72.3836359221
 21
197.1255370724
  0
LINE
  8
2_FEATURE
 62
7
  6
CONTINUOUS
 10
79.7977218365
 20
197.1255370724
 11
85.08363593
 21
197.1255370724
  0
LINE
  8
0
 62
7
  6
CONTINUOUS
 10
53.2181432565
 20
197.1255370724
 11
92.6132145021
 21
197.1255370724
  0
LINE
  8
0
 62
7
  6
CONTINUOUS
 10
83.7276017049
 20
189.7897946714
 11
83.6074821169
 21
188.4168214982
  0
POLYLINE
  8
0
 62
7
  6
CONTINUOUS
 66
1
 70
0
  0
VERTEX
  8
0
 62
7
  6
CONTINUOUS
 10
83.727599664
 20
189.7897713161
  0
VERTEX
  8
0
 62
7
  6
CONTINUOUS
 10
83.7309022551
 20
189.8124926822
  0
VERTEX
  8
0
 62
7
  6
CONTINUOUS
 10
83.7377930464
 20
189.8385875524
  0
VERTEX
  8
0
 62
7
  6
CONTINUOUS
 10
83.7474088927
 20
189.8635227085
  0
VERTEX
  8
0
 62
7
  6
CONTINUOUS
 10
83.7592441347
 20
189.8868843256
  0
VERTEX
  8
0
 62
7
  6
CONTINUOUS
 10
83.7728854782
 20
189.9084145853
  0
VERTEX
  8
0
 62
7
  6
CONTINUOUS
 10
83.7882131378
 20
189.9281777657
  0
VERTEX
  8
0
 62
7
  6
CONTINUOUS
 10
83.8052612884
 20
189.9461726704
  0
VERTEX
  8
0
 62
7
  6
CONTINUOUS
 10
83.8241489976
 20
189.962224267
  0
VERTEX
  8
0
 62
7
  6
CONTINUOUS
 10
83.845066377
 20
189.9759210644
  0
SEQEND
  0
LINE
  8
0
 62
7
  6
CONTINUOUS
 10
48.0658165789
 20
196.6762948324
 11
53.1832809594
 21
197.1240149517
  0
LINE
  8
0
 62
7
  6
CONTINUOUS
 10
97.7655411764
 20
196.6762948327
 11
92.6480767992
 21
197.1240149517
  0
LINE
  8
0
 62
7
  6
CONTINUOUS
 10
85.3439344808
 20
188.7185561099
 11
85.4835750002
 21
196.7185561099
  0
LINE
  8
0
 62
7
  6
CONTINUOUS
 10
87.8656788793
 20
188.3255370724
 11
87.8656788793
 21
183.6255370724
  0
LINE
  8
0
 62
7
  6
CONTINUOUS
 10
92.0977827584
 20
196.7185561099
 11
92.2374232779
 21
188.7185561099
  0
LINE
  8
0
 62
7
  6
CONTINUOUS
 10
93.9656788793
 20
183.6255370724
 11
93.9656788793
 21
188.3255370724
  0
LINE
  8
2_FEATURE
 62
2
  6
CONTINUOUS
 10
98.1306788793
 20
194.1255370724
 11
98.1306788793
 21
188.3255371099
  0
LINE
  8
0
 62
7
  6
CONTINUOUS
 10
98.1306788793
 20
196.2778169534
 11
98.1306788793
 21
188.7255370724
  0
LINE
  8
0
 62
2
  6
CONTINUOUS
 10
147.7052137966
 20
116.1173491379
 11
145.9452137966
 21
116.1173491379
  0
LINE
  8
DEFAULT_1
 62
2
  6
CENTER
 10
142.4252137966
 20
116.1173491379
 11
142.2252137966
 21
116.1173491379
  0
LINE
  8
DEFAULT_1
 62
2
  6
CENTER
 10
151.2252137966
 20
116.1173491379
 11
151.4252137966
 21
116.1173491379
  0
LINE
  8
0
 62
7
  6
CONTINUOUS
 10
136.2252137966
 20
134.5088424641
 11
136.2252137966
 21
123.1258558117
  0
LINE
  8
0
 62
7
  6
CONTINUOUS
 10
142.8252137966
 20
120.9173491379
 11
146.8252137965
 21
120.9173491379
  0
LINE
  8
0
 62
7
  6
CONTINUOUS
 10
137.6990351869
 20
121.626084269
 11
141.9740882573
 21
121.5514629401
  0
LINE
  8
2_FEATURE
 62
2
  6
CONTINUOUS
 10
146.8252137966
 20
123.5373491379
 11
148.2252137966
 21
123.5373491379
  0
LINE
  8
0
 62
7
  6
CONTINUOUS
 10
142.4252137966
 20
141.5173491379
 11
142.4252137966
 21
121.2355446424
  0
LINE
  8
0
 62
7
  6
CONTINUOUS
 10
142.4252137966
 20
116.1174628561
 11
142.4252137966
 21
121.0522523373
  0
LINE
  8
1_AXIS
 62
2
  6
CENTER
 10
134.2252136726
 20
128.8173491379
 11
153.225227842
 21
128.8173491379
  0
LINE
  8
0
 62
7
  6
CONTINUOUS
 10
150.5176135556
 20
119.1842994178
 11
150.517521489
 21
119.1844102564
  0
LINE
  8
0
 62
2
  6
CONTINUOUS
 10
146.8252137966
 20
142.3973491379
 11
146.8252137966
 21
140.6373491379
  0
LINE
  8
DEFAULT_1
 62
2
  6
CENTER
 10
146.8252137966
 20
137.1173491379
 11
146.8252137966
 21
136.9173491379
  0
LINE
  8
0
 62
2
  6
CONTINUOUS
 10
146.8252137966
 20
116.9973491379
 11
146.8252137966
 21
115.2373491379
  0
LINE
  8
DEFAULT_1
 62
2
  6
CENTER
 10
146.8252137966
 20
111.7173491379
 11
146.8252137966
 21
111.5173491379
  0
LINE
  8
DEFAULT_1
 62
2
  6
CENTER
 10
146.8252137966
 20
120.5173491379
 11
146.8252137966
 21
120.7173491379
  0
LINE
  8
DEFAULT_1
 62
2
  6
CENTER
 10
146.8252137966
 20
145.9173491379
 11
146.8252137966
 21
146.1173491379
  0
LINE
  8
2_FEATURE
 62
2
  6
CONTINUOUS
 10
148.2252137966
 20
134.0973491379
 11
146.8252137966
 21
134.0973491379
  0
LINE
  8
0
 62
7
  6
CONTINUOUS
 10
151.2252137966
 20
116.1174664644
 11
151.2252137966
 21
141.5173491178
  0
LINE
  8
0
 62
7
  6
CONTINUOUS
 10
141.9339400026
 20
136.0825345454
 11
137.6990351869
 21
136.0086140069
  0
LINE
  8
0
 62
2
  6
CONTINUOUS
 10
147.7052137966
 20
141.5173491379
 11
145.9452137966
 21
141.5173491379
  0
LINE
  8
DEFAULT_1
 62
2
  6
CENTER
 10
142.4252137966
 20
141.5173491379
 11
142.2252137966
 21
141.5173491379
  0
LINE
  8
DEFAULT_1
 62
2
  6
CENTER
 10
151.2252137966
 20
141.5173491379
 11
151.4252137966
 21
141.5173491379
  0
ARC
  8
0
 62
7
  6
CONTINUOUS
 10
48.1006788793
 20
145.5173491379
 40
0.4
 50
90.0
 51
180.000301883
  0
ARC
  8
0
 62
7
  6
CONTINUOUS
 10
97.7306788793
 20
112.1173491379
 40
0.4
 50
270.0
 51
0.0002529834
  0
ARC
  8
0
 62
7
  6
CONTINUOUS
 10
56.4656788793
 20
183.6255370724
 40
1.5
 50
270.0
 51
360.0
  0
ARC
  8
0
 62
7
  6
CONTINUOUS
 10
53.3656788793
 20
183.6255370724
 40
1.5
 50
180.0
 51
270.0
  0
ARC
  8
0
 62
7
  6
CONTINUOUS
 10
48.1006788793
 20
188.7255370724
 40
0.4
 50
180.0
 51
270.0
  0
ARC
  8
0
 62
7
  6
CONTINUOUS
 10
59.4842564086
 20
188.4255370724
 40
0.0999995705
 50
269.9993845584
 51
358.2499812049
  0
ARC
  8
0
 62
7
  6
CONTINUOUS
 10
54.5373623559
 20
188.7255370724
 40
0.4
 50
181.0
 51
270.0
  0
ARC
  8
0
 62
7
  6
CONTINUOUS
 10
59.5440065504
 20
188.7255370724
 40
0.399994427
 50
269.9984032031
 51
358.9999721313
  0
ARC
  8
0
 62
7
  6
CONTINUOUS
 10
67.2373623559
 20
188.7255370724
 40
0.4
 50
181.0
 51
270.0
  0
ARC
  8
0
 62
7
  6
CONTINUOUS
 10
72.2440065504
 20
188.7255370724
 40
0.399994427
 50
269.9984032031
 51
358.9999721313
  0
ARC
  8
0
 62
7
  6
CONTINUOUS
 10
48.1006788793
 20
196.2778169534
 40
0.4
 50
95.0000000118
 51
180.0
  0
ARC
  8
0
 62
7
  6
CONTINUOUS
 10
59.6836359221
 20
196.7255370724
 40
0.4
 50
359.0
 51
90.0
  0
ARC
  8
0
 62
7
  6
CONTINUOUS
 10
54.3977218795
 20
196.7255346087
 40
0.4
 50
90.00000616
 51
180.9996470401
  0
ARC
  8
0
 62
7
  6
CONTINUOUS
 10
53.2181432565
 20
196.7255370724
 40
0.4
 50
90.0
 51
95.0
  0
ARC
  8
0
 62
7
  6
CONTINUOUS
 10
72.3836359221
 20
196.7255370724
 40
0.4
 50
359.0
 51
90.0
  0
ARC
  8
0
 62
7
  6
CONTINUOUS
 10
67.0977218795
 20
196.7255346087
 40
0.4
 50
90.00000616
 51
180.9996470401
  0
ARC
  8
0
 62
7
  6
CONTINUOUS
 10
79.9373623559
 20
188.7255370724
 40
0.4
 50
181.0
 51
270.0
  0
ARC
  8
0
 62
7
  6
CONTINUOUS
 10
83.5078639452
 20
188.4255370724
 40
0.0999994827
 50
269.9992562696
 51
354.9999351777
  0
ARC
  8
0
 62
7
  6
CONTINUOUS
 10
84.9439954027
 20
188.7255370724
 40
0.4
 50
270.0
 51
359.0
  0
ARC
  8
0
 62
7
  6
CONTINUOUS
 10
89.3656788793
 20
183.6255370724
 40
1.5
 50
180.0
 51
270.0
  0
ARC
  8
0
 62
7
  6
CONTINUOUS
 10
92.4656788793
 20
183.6255370724
 40
1.5
 50
270.0
 51
360.0
  0
ARC
  8
0
 62
7
  6
CONTINUOUS
 10
92.6373623559
 20
188.7255370724
 40
0.4
 50
181.0
 51
270.0
  0
ARC
  8
0
 62
7
  6
CONTINUOUS
 10
97.7306788793
 20
188.7255370724
 40
0.4
 50
270.0
 51
360.0
  0
ARC
  8
0
 62
7
  6
CONTINUOUS
 10
85.0836359221
 20
196.7255370724
 40
0.4
 50
359.0
 51
90.0
  0
ARC
  8
0
 62
7
  6
CONTINUOUS
 10
79.7977218795
 20
196.7255346087
 40
0.4
 50
90.00000616
 51
180.9996470401
  0
ARC
  8
0
 62
7
  6
CONTINUOUS
 10
97.7306788793
 20
196.2778169534
 40
0.4
 50
0.0000011402
 51
84.9999995225
  0
ARC
  8
0
 62
7
  6
CONTINUOUS
 10
92.6132145021
 20
196.7255370724
 40
0.4
 50
85.0
 51
90.0
  0
ARC
  8
0
 62
7
  6
CONTINUOUS
 10
92.4977218795
 20
196.7255346087
 40
0.4
 50
90.00000616
 51
180.9996470401
  0
ARC
  8
0
 62
7
  6
CONTINUOUS
 10
137.7252137966
 20
123.1258558117
 40
1.5
 50
180.0
 51
269.0
  0
ARC
  8
0
 62
7
  6
CONTINUOUS
 10
141.9653382453
 20
121.0515438423
 40
0.4999989166
 50
17.1768702178
 51
88.9972626487
  0
ARC
  8
0
 62
7
  6
CONTINUOUS
 10
141.9252283675
 20
121.0522396286
 40
0.4999938355
 50
0.0014563319
 51
84.4369039031
  0
ARC
  8
0
 62
7
  6
CONTINUOUS
 10
142.8252137966
 20
121.3173364553
 40
0.3999936587
 50
180.0
 51
270.0
  0
ARC
  8
0
 62
7
  6
CONTINUOUS
 10
137.7252137966
 20
134.5088424641
 40
1.5
 50
91.0
 51
180.0
  0
ARC
  8
0
 62
7
  6
CONTINUOUS
 10
141.92521636
 20
136.5824584377
 40
0.4999996402
 50
270.999848693
 51
353.0261397059
  0
ARC
  8
2_FEATURE
 62
2
  6
CONTINUOUS
 10
146.8252137966
 20
117.5373491379
 40
6.0
 50
90.0
 51
137.1665719339
  0
ARC
  8
0
 62
7
  6
CONTINUOUS
 10
146.8252137966
 20
116.1173491379
 40
4.8
 50
39.7151372318
 51
90.0
  0
ARC
  8
0
 62
7
  6
CONTINUOUS
 10
146.8252137966
 20
116.1173491379
 40
4.4
 50
179.9999999968
 51
0.0015277978
  0
CIRCLE
  8
0
 62
7
  6
CONTINUOUS
 10
146.8252137966
 20
116.1173491379
 40
2.6
  0
ARC
  8
0
 62
7
  6
CONTINUOUS
 10
150.8252137966
 20
119.4399939801
 40
0.3999993016
 50
219.7146190225
 51
360.0
  0
ARC
  8
2_FEATURE
 62
2
  6
CONTINUOUS
 10
146.8252137966
 20
140.0973491379
 40
6.0
 50
222.8334280661
 51
270.0
  0
ARC
  8
0
 62
7
  6
CONTINUOUS
 10
146.8252137966
 20
141.5173491379
 40
4.4
 50
359.9985191881
 51
180.0015306643
  0
CIRCLE
  8
0
 62
7
  6
CONTINUOUS
 10
146.8252137966
 20
141.5173491379
 40
2.6
  0
ENDSEC
  0
EOF
