  0
SECTION
  2
HEADER
  9
$EXTMAX
 10
210.0
 20
297.0
 30
0.0
  9
$EXTMIN
 10
0.0
 20
0.0
 30
0.0
  9
$LIMMIN
 10
0.0
 20
0.0
  9
$LIMMAX
 10
210.0
 20
297.0
  9
$VIEWCTR
 10
105.0
 20
148.5
  9
$VIEWSIZE
 40
297.0
  9
$CLAYER
  8
0
  9
$LTSCALE
 40
19.36
  9
$CELTYPE
  6
BYLAYER
  9
$DIMSCALE
 40
1.0
  9
$DIMASZ
 40
3.5
  9
$DIMEXO
 40
2.2
  9
$DIMDLI
 40
13.376
  9
$DIMEXE
 40
6.336
  9
$DIMCEN
 40
3.168
  9
$DIMLFAC
 40
1.0
  9
$DIMBLK
  1
_FILLED
  9
$DIMTXT
 40
3.5
  9
$PDMODE
 70
3
  9
$PDSIZE
 40
0.3125
  9
$TILEMODE
 70
1
  0
ENDSEC
  0
SECTION
  2
TABLES
  0
TABLE
  2
LTYPE
 70
6
  0
LTYPE
  2
BYBLOCK
 70
0
  3

 72
65
 73
0
 40
0.0
  0
LTYPE
  2
BYLAYER
 70
0
  3

 72
65
 73
0
 40
0.0
  0
LTYPE
  2
CONTINUOUS
 70
64
  3
Solid line
 72
65
 73
0
 40
0.0
  0
LTYPE
  2
CENTER
 70
64
  3
____ _ ____ _ ____ _ ____ _ ____ _ ____ _ ____
 72
65
 73
4
 40
0.6
 49
0.375
 49
-0.075
 49
0.075
 49
-0.075
  0
LTYPE
  2
HIDDEN
 70
64
  3
- - - - - - - - - - - - - - - - - - - -
 72
65
 73
2
 40
0.2
 49
0.1
 49
-0.1
  0
LTYPE
  2
PHANTOM
 70
64
  3
_____ _ _ _____ _ _ _____ _ _ _____
 72
65
 73
6
 40
0.8
 49
0.45
 49
-0.05
 49
0.1
 49
-0.05
 49
0.1
 49
-0.05
  0
LTYPE
  2
DOT
 70
64
  3
. . . . . . . . . . . . . . . . . . . .
 72
65
 73
2
 40
0.2
 49
0.1
 49
-0.1
  0
LTYPE
  2
DASHED
 70
64
  3
- - - - - - - - - - - - - - - - - - - -
 72
65
 73
2
 40
0.2
 49
0.1
 49
-0.1
  0
ENDTAB
  0
TABLE
  2
LAYER
 70
36
  0
LAYER
  2
0
 70
0
 62
7
  6
CONTINUOUS
  0
LAYER
  2
DEFAULT_1
 70
0
 62
7
  6
CENTER
  0
LAYER
  2
DEFAULT_2
 70
0
 62
8
  6
HIDDEN
  0
LAYER
  2
DEFAULT_3
 70
0
 62
7
  6
PHANTOM
  0
LAYER
  2
1_AXIS
 70
0
 62
7
  6
CONTINUOUS
  0
LAYER
  2
1_CSYS
 70
0
 62
7
  6
CONTINUOUS
  0
LAYER
  2
1_DATUMPLANE
 70
0
 62
7
  6
CONTINUOUS
  0
LAYER
  2
1_DATUM_PLANES
 70
0
 62
7
  6
CONTINUOUS
  0
LAYER
  2
2_FEATURE
 70
0
 62
7
  6
CONTINUOUS
  0
LAYER
  2
4_QUILT
 70
0
 62
7
  6
CONTINUOUS
  0
LAYER
  2
4_SURFACE
 70
0
 62
7
  6
CONTINUOUS
  0
LAYER
  2
6_DIM
 70
0
 62
7
  6
CONTINUOUS
  0
LAYER
  2
CSYS
 70
0
 62
7
  6
CONTINUOUS
  0
LAYER
  2
CURVE
 70
0
 62
7
  6
CONTINUOUS
  0
ENDTAB
  0
TABLE
  2
STYLE
 70
1
  0
STYLE
  2
STANDARD
 70
0
 40
0.0
 41
0.8
 50
0.0
 71
0
 42
0.2
  3
txt
  4

  0
STYLE
  2
TEXTSTYLE_1
 70
0
 40
0.0
 41
0.8
 50
0.0
 71
0
 42
0.2
  3
gdt
  4

  0
STYLE
  2
TEXTSTYLE_2
 70
0
 40
0.0
 41
0.6
 50
0.0
 71
0
 42
0.2
  3
txt
  4

  0
STYLE
  2
TEXTSTYLE_3
 70
0
 40
0.0
 41
1.0
 50
0.0
 71
0
 42
0.2
  3
ftb_____.ttf
  4

  0
STYLE
  2
TEXTSTYLE_4
 70
0
 40
0.0
 41
1.0
 50
0.0
 71
0
 42
0.2
  3
fti_____.ttf
  4

  0
STYLE
  2
TEXTSTYLE_5
 70
0
 40
0.0
 41
1.0
 50
0.0
 71
0
 42
0.2
  3
frutiger light.ttf
  4

  0
STYLE
  2
TEXTSTYLE_6
 70
0
 40
0.0
 41
0.7
 50
0.0
 71
0
 42
0.2
  3
txt
  4

  0
STYLE
  2
TEXTSTYLE_7
 70
0
 40
0.0
 41
0.75
 50
0.0
 71
0
 42
0.2
  3
txt
  4

  0
ENDTAB
  0
ENDSEC
  0
SECTION
  2
BLOCKS
  0
BLOCK
  8
0
 62
2
  6
CONTINUOUS
  2
SYMBOL_8_BL1
 70
64
 10
173.5956734183
 20
35.5937998301
  0
TEXT
  8
0
 62
7
  6
CONTINUOUS
 10
164.6539584268
 20
30.6865562072
  7
TEXTSTYLE_4
 40
1.0655737705
  1
The brand for plastic modular belts and chains
 41
1.0
 72
0
  0
LINE
  8
0
 62
7
  6
CONTINUOUS
 10
149.5737418074
 20
36.1675703219
 11
149.5737418074
 21
34.0364227809
  0
LINE
  8
0
 62
7
  6
CONTINUOUS
 10
149.8628043005
 20
31.0454914852
 11
149.8628043005
 21
31.1422825445
  0
LINE
  8
0
 62
7
  6
CONTINUOUS
 10
149.5737418074
 20
31.1100188581
 11
149.6315543091
 21
30.9164367395
  0
LINE
  8
0
 62
7
  6
CONTINUOUS
 10
150.9671844304
 20
33.9544555678
 11
150.9671844304
 21
36.1675703219
  0
LINE
  8
0
 62
7
  6
CONTINUOUS
 10
151.8862417523
 20
32.1101932727
 11
151.8862417523
 21
30.5937998301
  0
LINE
  8
0
 62
7
  6
CONTINUOUS
 10
152.1753043074
 20
30.5937998301
 11
152.1753043074
 21
31.3358647082
  0
LINE
  8
0
 62
7
  6
CONTINUOUS
 10
152.1753043074
 20
31.4649194539
 11
152.1753043074
 21
32.1101932727
  0
LINE
  8
0
 62
7
  6
CONTINUOUS
 10
149.6315543091
 20
31.3036010218
 11
149.5737418074
 21
31.1100188581
  0
LINE
  8
0
 62
7
  6
CONTINUOUS
 10
149.9784292936
 20
30.8841730531
 11
149.8628043005
 21
31.0454914852
  0
LINE
  8
0
 62
7
  6
CONTINUOUS
 10
151.0768668626
 20
31.400392081
 11
151.1346793074
 21
31.3036010218
  0
LINE
  8
0
 62
7
  6
CONTINUOUS
 10
151.4237418626
 20
31.3036010218
 11
151.3659292523
 21
31.4326557675
  0
LINE
  8
0
 62
7
  6
CONTINUOUS
 10
152.852430332
 20
36.1675703219
 11
152.852430332
 21
34.3642916334
  0
LINE
  8
0
 62
7
  6
CONTINUOUS
 10
152.852430332
 20
33.0528162235
 11
152.852430332
 21
32.3970785186
  0
LINE
  8
0
 62
7
  6
CONTINUOUS
 10
153.2159293074
 20
31.2390736489
 11
153.2159293074
 21
30.5937998301
  0
LINE
  8
0
 62
7
  6
CONTINUOUS
 10
153.5049916972
 20
30.5937998301
 11
153.5049916972
 21
31.2390736489
  0
LINE
  8
0
 62
7
  6
CONTINUOUS
 10
149.8628043005
 20
31.1422825445
 11
149.9206168074
 21
31.2713373354
  0
LINE
  8
0
 62
7
  6
CONTINUOUS
 10
149.6315543091
 20
30.9164367395
 11
149.7471793074
 21
30.7873819712
  0
LINE
  8
0
 62
7
  6
CONTINUOUS
 10
153.1581166972
 20
31.3681283946
 11
153.2159293074
 21
31.2390736489
  0
LINE
  8
0
 62
7
  6
CONTINUOUS
 10
153.9674919177
 20
30.8841730531
 11
154.0253041972
 21
30.7551182848
  0
LINE
  8
0
 62
7
  6
CONTINUOUS
 10
153.5049916972
 20
31.2390736489
 11
153.4471794177
 21
31.400392081
  0
LINE
  8
0
 62
7
  6
CONTINUOUS
 10
153.9674919177
 20
31.4326557675
 11
153.9674919177
 21
31.3681283946
  0
LINE
  8
0
 62
7
  6
CONTINUOUS
 10
153.9674919177
 20
30.9809641124
 11
153.9674919177
 21
30.8841730531
  0
LINE
  8
0
 62
7
  6
CONTINUOUS
 10
154.245872955
 20
32.3970785186
 11
154.245872955
 21
36.1675703219
  0
LINE
  8
0
 62
7
  6
CONTINUOUS
 10
154.2565543074
 20
30.8519093441
 11
154.2565543074
 21
30.9164367395
  0
LINE
  8
0
 62
7
  6
CONTINUOUS
 10
154.5737418074
 20
36.1675703219
 11
154.5737418074
 21
32.3970785186
  0
LINE
  8
0
 62
7
  6
CONTINUOUS
 10
151.3659292523
 20
30.7873819712
 11
151.4237418626
 21
30.9164367395
  0
LINE
  8
0
 62
7
  6
CONTINUOUS
 10
155.759679528
 20
30.6905909007
 11
155.7018665869
 21
30.8519093441
  0
LINE
  8
0
 62
7
  6
CONTINUOUS
 10
155.412804528
 20
31.3681283946
 11
155.412804528
 21
31.2713373354
  0
LINE
  8
0
 62
7
  6
CONTINUOUS
 10
155.412804528
 20
31.1422825445
 11
155.412804528
 21
30.9487004259
  0
LINE
  8
0
 62
7
  6
CONTINUOUS
 10
155.7018665869
 20
30.8519093441
 11
155.7018665869
 21
31.3681283946
  0
LINE
  8
0
 62
7
  6
CONTINUOUS
 10
155.9671844304
 20
32.3970785186
 11
155.9671844304
 21
34.2003572071
  0
LINE
  8
0
 62
7
  6
CONTINUOUS
 10
155.9671844304
 20
35.511832617
 11
155.9671844304
 21
36.1675703219
  0
LINE
  8
0
 62
7
  6
CONTINUOUS
 10
156.279992028
 20
32.1101932727
 11
156.279992028
 21
31.9488748406
  0
LINE
  8
0
 62
7
  6
CONTINUOUS
 10
156.279992028
 20
31.626237886
 11
156.279992028
 21
30.5937998301
  0
LINE
  8
0
 62
7
  6
CONTINUOUS
 10
156.5690540869
 20
30.5937998301
 11
156.5690540869
 21
31.626237886
  0
LINE
  8
0
 62
7
  6
CONTINUOUS
 10
156.5690540869
 20
31.9488748406
 11
156.5690540869
 21
32.1101932727
  0
LINE
  8
0
 62
7
  6
CONTINUOUS
 10
151.1346793074
 20
30.9164367395
 11
151.0768668626
 21
30.8196456577
  0
LINE
  8
0
 62
7
  6
CONTINUOUS
 10
153.4471794177
 20
31.400392081
 11
153.3893668074
 21
31.4649194539
  0
LINE
  8
0
 62
7
  6
CONTINUOUS
 10
154.3143669177
 20
30.7873819712
 11
154.2565543074
 21
30.8519093441
  0
LINE
  8
0
 62
7
  6
CONTINUOUS
 10
155.4706168074
 20
30.6583272086
 11
155.5284290869
 21
30.5937998301
  0
LINE
  8
0
 62
7
  6
CONTINUOUS
 10
155.412804528
 20
30.7551182848
 11
155.4706168074
 21
30.6583272086
  0
LINE
  8
0
 62
7
  6
CONTINUOUS
 10
155.8174918074
 20
30.5937998301
 11
155.759679528
 21
30.6905909007
  0
LINE
  8
0
 62
7
  6
CONTINUOUS
 10
155.7018665869
 20
31.3681283946
 11
155.6440543074
 21
31.4649194539
  0
LINE
  8
0
 62
7
  6
CONTINUOUS
 10
157.0315543074
 20
31.626237886
 11
157.0315543074
 21
30.5937998301
  0
LINE
  8
0
 62
7
  6
CONTINUOUS
 10
157.320617028
 20
30.5937998301
 11
157.320617028
 21
31.3358647082
  0
LINE
  8
0
 62
7
  6
CONTINUOUS
 10
157.320617028
 20
31.4649194539
 11
157.320617028
 21
31.626237886
  0
LINE
  8
0
 62
7
  6
CONTINUOUS
 10
157.852430332
 20
34.6101932727
 11
157.852430332
 21
32.3970785186
  0
LINE
  8
0
 62
7
  6
CONTINUOUS
 10
149.7471793074
 20
31.4326557675
 11
149.6315543091
 21
31.3036010218
  0
LINE
  8
0
 62
7
  6
CONTINUOUS
 10
149.9206168074
 20
31.2713373354
 11
149.9784292936
 21
31.3358647082
  0
LINE
  8
0
 62
7
  6
CONTINUOUS
 10
149.7471793074
 20
30.7873819712
 11
149.8628043005
 21
30.7228545871
  0
LINE
  8
0
 62
7
  6
CONTINUOUS
 10
150.1518667936
 20
30.7873819712
 11
149.9784292936
 21
30.8841730531
  0
LINE
  8
0
 62
7
  6
CONTINUOUS
 10
155.3549915869
 20
31.4326557675
 11
155.412804528
 21
31.3681283946
  0
LINE
  8
0
 62
7
  6
CONTINUOUS
 10
158.3034290869
 20
31.3681283946
 11
158.361242028
 21
31.2068099625
  0
LINE
  8
0
 62
7
  6
CONTINUOUS
 10
158.6503040869
 20
31.2068099625
 11
158.5924918074
 21
31.3681283946
  0
LINE
  8
0
 62
7
  6
CONTINUOUS
 10
158.361242028
 20
31.2068099625
 11
158.361242028
 21
30.5937998301
  0
LINE
  8
0
 62
7
  6
CONTINUOUS
 10
158.6503040869
 20
30.5937998301
 11
158.6503040869
 21
31.2068099625
  0
LINE
  8
0
 62
7
  6
CONTINUOUS
 10
159.1128043074
 20
31.4326557675
 11
159.1128043074
 21
31.3681283946
  0
LINE
  8
0
 62
7
  6
CONTINUOUS
 10
159.245872955
 20
32.3970785186
 11
159.245872955
 21
34.5282260596
  0
LINE
  8
0
 62
7
  6
CONTINUOUS
 10
159.5737418074
 20
36.1675703219
 11
159.5737418074
 21
32.3970785186
  0
LINE
  8
0
 62
7
  6
CONTINUOUS
 10
154.2565543074
 20
30.9164367395
 11
154.3143669177
 21
31.0132277988
  0
LINE
  8
0
 62
7
  6
CONTINUOUS
 10
149.8628043005
 20
30.7228545871
 11
150.0362418212
 21
30.6583272086
  0
LINE
  8
0
 62
7
  6
CONTINUOUS
 10
151.3659292523
 20
31.4326557675
 11
151.1924917523
 21
31.5294468267
  0
LINE
  8
0
 62
7
  6
CONTINUOUS
 10
154.0253041972
 20
30.7551182848
 11
154.1987416972
 21
30.6583272086
  0
LINE
  8
0
 62
7
  6
CONTINUOUS
 10
153.0424918074
 20
31.4326557675
 11
153.1581166972
 21
31.3681283946
  0
LINE
  8
0
 62
7
  6
CONTINUOUS
 10
153.3893668074
 20
31.4649194539
 11
153.2737419177
 21
31.5294468267
  0
LINE
  8
0
 62
7
  6
CONTINUOUS
 10
159.1128043074
 20
30.8519093441
 11
159.228429528
 21
30.7228545871
  0
LINE
  8
0
 62
7
  6
CONTINUOUS
 10
159.4596793074
 20
30.7873819712
 11
159.401867028
 21
30.8519093441
  0
LINE
  8
0
 62
7
  6
CONTINUOUS
 10
159.1128043074
 20
31.3681283946
 11
159.228429528
 21
31.2390736489
  0
LINE
  8
0
 62
7
  6
CONTINUOUS
 10
158.5924918074
 20
31.3681283946
 11
158.534679528
 21
31.4649194539
  0
LINE
  8
0
 62
7
  6
CONTINUOUS
 10
160.9628038663
 20
30.7873819712
 11
160.9628038663
 21
30.8519093441
  0
LINE
  8
0
 62
7
  6
CONTINUOUS
 10
160.9671844304
 20
32.3970785186
 11
160.9671844304
 21
36.1675703219
  0
LINE
  8
0
 62
7
  6
CONTINUOUS
 10
154.0253041972
 20
31.4971831403
 11
153.9674919177
 21
31.4326557675
  0
LINE
  8
0
 62
7
  6
CONTINUOUS
 10
150.9034292799
 20
31.4649194539
 11
151.0768668626
 21
31.400392081
  0
LINE
  8
0
 62
7
  6
CONTINUOUS
 10
155.6440543074
 20
31.4649194539
 11
155.5284290869
 21
31.5294468267
  0
LINE
  8
0
 62
7
  6
CONTINUOUS
 10
159.4596793074
 20
31.3036010218
 11
159.401867028
 21
31.3681283946
  0
LINE
  8
0
 62
7
  6
CONTINUOUS
 10
160.615929528
 20
30.9164367395
 11
160.6737418074
 21
30.8519093441
  0
LINE
  8
0
 62
7
  6
CONTINUOUS
 10
160.9628038663
 20
30.8519093441
 11
160.8471793074
 21
30.9809641124
  0
LINE
  8
0
 62
7
  6
CONTINUOUS
 10
160.615929528
 20
31.4326557675
 11
160.6737418074
 21
31.3681283946
  0
LINE
  8
0
 62
7
  6
CONTINUOUS
 10
160.9628038663
 20
31.3681283946
 11
160.8471793074
 21
31.4971831403
  0
LINE
  8
0
 62
7
  6
CONTINUOUS
 10
154.2565543074
 20
31.3681283946
 11
154.3143669177
 21
31.4326557675
  0
LINE
  8
0
 62
7
  6
CONTINUOUS
 10
154.0831168074
 20
31.1100188581
 11
153.9674919177
 21
30.9809641124
  0
LINE
  8
0
 62
7
  6
CONTINUOUS
 10
155.412804528
 20
30.9487004259
 11
155.3549915869
 21
30.8841730531
  0
LINE
  8
0
 62
7
  6
CONTINUOUS
 10
155.3549915869
 20
30.6905909007
 11
155.412804528
 21
30.7551182848
  0
LINE
  8
0
 62
7
  6
CONTINUOUS
 10
154.1987416972
 20
30.6583272086
 11
154.3143669177
 21
30.6260635193
  0
LINE
  8
0
 62
7
  6
CONTINUOUS
 10
151.1924917523
 20
31.5294468267
 11
150.9612418074
 21
31.5939741996
  0
LINE
  8
0
 62
7
  6
CONTINUOUS
 10
154.5456166972
 20
30.7228545871
 11
154.3143669177
 21
30.7873819712
  0
LINE
  8
0
 62
7
  6
CONTINUOUS
 10
153.2737419177
 20
31.5294468267
 11
153.1003044177
 21
31.5939741996
  0
LINE
  8
0
 62
7
  6
CONTINUOUS
 10
155.5284290869
 20
31.5294468267
 11
155.3549915869
 21
31.5939741996
  0
LINE
  8
0
 62
7
  6
CONTINUOUS
 10
158.187804528
 20
31.4326557675
 11
158.3034290869
 21
31.3681283946
  0
LINE
  8
0
 62
7
  6
CONTINUOUS
 10
158.534679528
 20
31.4649194539
 11
158.4190543074
 21
31.5294468267
  0
LINE
  8
0
 62
7
  6
CONTINUOUS
 10
150.0362418212
 20
30.6583272086
 11
150.2096793212
 21
30.6260635193
  0
LINE
  8
0
 62
7
  6
CONTINUOUS
 10
150.498741835
 20
30.7228545871
 11
150.1518667936
 21
30.7873819712
  0
LINE
  8
0
 62
7
  6
CONTINUOUS
 10
152.9268669177
 20
31.4649194539
 11
153.0424918074
 21
31.4326557675
  0
LINE
  8
0
 62
7
  6
CONTINUOUS
 10
155.239367028
 20
31.4649194539
 11
155.3549915869
 21
31.4326557675
  0
LINE
  8
0
 62
7
  6
CONTINUOUS
 10
159.575304528
 20
30.7551182848
 11
159.4596793074
 21
30.7873819712
  0
LINE
  8
0
 62
7
  6
CONTINUOUS
 10
158.0721793074
 20
31.4649194539
 11
158.187804528
 21
31.4326557675
  0
LINE
  8
0
 62
7
  6
CONTINUOUS
 10
159.228429528
 20
30.7228545871
 11
159.401867028
 21
30.6583272086
  0
LINE
  8
0
 62
7
  6
CONTINUOUS
 10
158.4190543074
 20
31.5294468267
 11
158.2456168074
 21
31.5939741996
  0
LINE
  8
0
 62
7
  6
CONTINUOUS
 10
159.6331168074
 20
31.2390736489
 11
159.4596793074
 21
31.3036010218
  0
LINE
  8
0
 62
7
  6
CONTINUOUS
 10
160.442492028
 20
30.9809641124
 11
160.615929528
 21
30.9164367395
  0
LINE
  8
0
 62
7
  6
CONTINUOUS
 10
160.8471793074
 20
31.4971831403
 11
160.6737418074
 21
31.5617105132
  0
LINE
  8
0
 62
7
  6
CONTINUOUS
 10
159.228429528
 20
31.2390736489
 11
159.4596793074
 21
31.1422825445
  0
LINE
  8
0
 62
7
  6
CONTINUOUS
 10
160.8471793074
 20
30.9809641124
 11
160.615929528
 21
31.0777551716
  0
LINE
  8
0
 62
7
  6
CONTINUOUS
 10
159.401867028
 20
31.3681283946
 11
159.4596793074
 21
31.4326557675
  0
LINE
  8
0
 62
7
  6
CONTINUOUS
 10
149.8628043005
 20
31.4971831403
 11
149.7471793074
 21
31.4326557675
  0
LINE
  8
0
 62
7
  6
CONTINUOUS
 10
149.9784292936
 20
31.3358647082
 11
150.1518667936
 21
31.4326557675
  0
LINE
  8
0
 62
7
  6
CONTINUOUS
 10
152.2909293626
 20
31.5294468267
 11
152.1753043074
 21
31.4649194539
  0
LINE
  8
0
 62
7
  6
CONTINUOUS
 10
152.1753043074
 20
31.3358647082
 11
152.2909293626
 21
31.400392081
  0
LINE
  8
0
 62
7
  6
CONTINUOUS
 10
151.1924917523
 20
30.6905909007
 11
151.3659292523
 21
30.7873819712
  0
LINE
  8
0
 62
7
  6
CONTINUOUS
 10
150.2096793212
 20
30.6260635193
 11
150.5565542799
 21
30.5937998301
  0
LINE
  8
0
 62
7
  6
CONTINUOUS
 10
154.3143669177
 20
30.6260635193
 11
154.5456166972
 21
30.5937998301
  0
LINE
  8
0
 62
7
  6
CONTINUOUS
 10
152.6956168074
 20
31.4971831403
 11
152.9268669177
 21
31.4649194539
  0
LINE
  8
0
 62
7
  6
CONTINUOUS
 10
155.0081169177
 20
31.4971831403
 11
155.239367028
 21
31.4649194539
  0
LINE
  8
0
 62
7
  6
CONTINUOUS
 10
159.4596793074
 20
31.1422825445
 11
160.442492028
 21
30.9809641124
  0
LINE
  8
0
 62
7
  6
CONTINUOUS
 10
160.615929528
 20
31.0777551716
 11
159.6331168074
 21
31.2390736489
  0
LINE
  8
0
 62
7
  6
CONTINUOUS
 10
153.1003044177
 20
31.5939741996
 11
152.9268669177
 21
31.626237886
  0
LINE
  8
0
 62
7
  6
CONTINUOUS
 10
159.401867028
 20
30.6583272086
 11
159.575304528
 21
30.6260635193
  0
LINE
  8
0
 62
7
  6
CONTINUOUS
 10
158.2456168074
 20
31.5939741996
 11
158.0721793074
 21
31.626237886
  0
LINE
  8
0
 62
7
  6
CONTINUOUS
 10
160.5003043074
 20
31.4649194539
 11
160.615929528
 21
31.4326557675
  0
LINE
  8
0
 62
7
  6
CONTINUOUS
 10
160.6737418074
 20
30.8519093441
 11
160.615929528
 21
30.7873819712
  0
LINE
  8
0
 62
7
  6
CONTINUOUS
 10
159.228429528
 20
31.5294468267
 11
159.1128043074
 21
31.4326557675
  0
LINE
  8
0
 62
7
  6
CONTINUOUS
 10
154.1409294177
 20
31.5617105132
 11
154.0253041972
 21
31.4971831403
  0
LINE
  8
0
 62
7
  6
CONTINUOUS
 10
154.1987416972
 20
31.1745462761
 11
154.0831168074
 21
31.1100188581
  0
LINE
  8
0
 62
7
  6
CONTINUOUS
 10
154.3143669177
 20
31.0132277988
 11
154.4299918074
 21
31.0777551716
  0
LINE
  8
0
 62
7
  6
CONTINUOUS
 10
151.8862417523
 20
30.5937998301
 11
152.1753043074
 21
30.5937998301
  0
LINE
  8
0
 62
7
  6
CONTINUOUS
 10
153.2159293074
 20
30.5937998301
 11
153.5049916972
 21
30.5937998301
  0
LINE
  8
0
 62
7
  6
CONTINUOUS
 10
154.5456166972
 20
30.5937998301
 11
154.8924916972
 21
30.5937998301
  0
LINE
  8
0
 62
7
  6
CONTINUOUS
 10
155.5284290869
 20
30.5937998301
 11
155.8174918074
 21
30.5937998301
  0
LINE
  8
0
 62
7
  6
CONTINUOUS
 10
156.279992028
 20
30.5937998301
 11
156.5690540869
 21
30.5937998301
  0
LINE
  8
0
 62
7
  6
CONTINUOUS
 10
157.0315543074
 20
30.5937998301
 11
157.320617028
 21
30.5937998301
  0
LINE
  8
0
 62
7
  6
CONTINUOUS
 10
158.361242028
 20
30.5937998301
 11
158.6503040869
 21
30.5937998301
  0
LINE
  8
0
 62
7
  6
CONTINUOUS
 10
159.922179528
 20
30.5937998301
 11
160.269054528
 21
30.5937998301
  0
LINE
  8
0
 62
7
  6
CONTINUOUS
 10
160.269054528
 20
30.7228545871
 11
159.922179528
 21
30.7228545871
  0
LINE
  8
0
 62
7
  6
CONTINUOUS
 10
154.8924916972
 20
30.7228545871
 11
154.5456166972
 21
30.7228545871
  0
LINE
  8
0
 62
7
  6
CONTINUOUS
 10
159.401867028
 20
30.8519093441
 11
159.1128043074
 21
30.8519093441
  0
LINE
  8
0
 62
7
  6
CONTINUOUS
 10
151.4237418626
 20
30.9164367395
 11
151.1346793074
 21
30.9164367395
  0
LINE
  8
0
 62
7
  6
CONTINUOUS
 10
150.498741835
 20
31.4971831403
 11
150.9034292799
 21
31.4649194539
  0
LINE
  8
0
 62
7
  6
CONTINUOUS
 10
150.9612418074
 20
31.5939741996
 11
150.5565542799
 21
31.626237886
  0
LINE
  8
0
 62
7
  6
CONTINUOUS
 10
159.575304528
 20
30.6260635193
 11
159.922179528
 21
30.5937998301
  0
LINE
  8
0
 62
7
  6
CONTINUOUS
 10
159.922179528
 20
30.7228545871
 11
159.575304528
 21
30.7551182848
  0
LINE
  8
0
 62
7
  6
CONTINUOUS
 10
155.3549915869
 20
31.5939741996
 11
155.0081169177
 21
31.626237886
  0
LINE
  8
0
 62
7
  6
CONTINUOUS
 10
160.1534293074
 20
31.4971831403
 11
160.5003043074
 21
31.4649194539
  0
LINE
  8
0
 62
7
  6
CONTINUOUS
 10
160.5003043074
 20
31.5939741996
 11
160.1534293074
 21
31.626237886
  0
LINE
  8
0
 62
7
  6
CONTINUOUS
 10
157.840929528
 20
31.4971831403
 11
158.0721793074
 21
31.4649194539
  0
LINE
  8
0
 62
7
  6
CONTINUOUS
 10
160.6737418074
 20
31.5617105132
 11
160.5003043074
 21
31.5939741996
  0
LINE
  8
0
 62
7
  6
CONTINUOUS
 10
160.8471793074
 20
30.6905909007
 11
160.9628038663
 21
30.7873819712
  0
LINE
  8
0
 62
7
  6
CONTINUOUS
 10
155.3549915869
 20
30.8841730531
 11
155.1815540869
 21
30.7873819712
  0
LINE
  8
0
 62
7
  6
CONTINUOUS
 10
157.4362415869
 20
31.5294468267
 11
157.320617028
 21
31.4649194539
  0
LINE
  8
0
 62
7
  6
CONTINUOUS
 10
157.320617028
 20
31.3358647082
 11
157.4362415869
 21
31.400392081
  0
LINE
  8
0
 62
7
  6
CONTINUOUS
 10
150.0362418212
 20
31.5617105132
 11
149.8628043005
 21
31.4971831403
  0
LINE
  8
0
 62
7
  6
CONTINUOUS
 10
152.4643666972
 20
31.5939741996
 11
152.2909293626
 21
31.5294468267
  0
LINE
  8
0
 62
7
  6
CONTINUOUS
 10
152.2909293626
 20
31.400392081
 11
152.4643666972
 21
31.4649194539
  0
LINE
  8
0
 62
7
  6
CONTINUOUS
 10
151.0768668626
 20
30.8196456577
 11
150.9034292799
 21
30.7551182848
  0
LINE
  8
0
 62
7
  6
CONTINUOUS
 10
160.5003043074
 20
30.7551182848
 11
160.269054528
 21
30.7228545871
  0
LINE
  8
0
 62
7
  6
CONTINUOUS
 10
154.8924916972
 20
30.5937998301
 11
155.1815540869
 21
30.6260635193
  0
LINE
  8
0
 62
7
  6
CONTINUOUS
 10
160.269054528
 20
30.5937998301
 11
160.615929528
 21
30.6260635193
  0
LINE
  8
0
 62
7
  6
CONTINUOUS
 10
150.5565542799
 20
30.5937998301
 11
150.9612418074
 21
30.6260635193
  0
LINE
  8
0
 62
7
  6
CONTINUOUS
 10
150.9034292799
 20
30.7551182848
 11
150.498741835
 21
30.7228545871
  0
LINE
  8
0
 62
7
  6
CONTINUOUS
 10
154.7768668074
 20
31.1422825445
 11
155.412804528
 21
31.1422825445
  0
LINE
  8
0
 62
7
  6
CONTINUOUS
 10
155.412804528
 20
31.2713373354
 11
154.7768668074
 21
31.2713373354
  0
LINE
  8
0
 62
7
  6
CONTINUOUS
 10
151.1346793074
 20
31.3036010218
 11
151.4237418626
 21
31.3036010218
  0
LINE
  8
0
 62
7
  6
CONTINUOUS
 10
153.9674919177
 20
31.3681283946
 11
154.2565543074
 21
31.3681283946
  0
LINE
  8
0
 62
7
  6
CONTINUOUS
 10
160.6737418074
 20
31.3681283946
 11
160.9628038663
 21
31.3681283946
  0
LINE
  8
0
 62
7
  6
CONTINUOUS
 10
154.6612419177
 20
31.4971831403
 11
155.0081169177
 21
31.4971831403
  0
LINE
  8
0
 62
7
  6
CONTINUOUS
 10
159.8065543074
 20
31.4971831403
 11
160.1534293074
 21
31.4971831403
  0
LINE
  8
0
 62
7
  6
CONTINUOUS
 10
160.1534293074
 20
31.626237886
 11
159.8065543074
 21
31.626237886
  0
LINE
  8
0
 62
7
  6
CONTINUOUS
 10
158.0721793074
 20
31.626237886
 11
157.840929528
 21
31.626237886
  0
LINE
  8
0
 62
7
  6
CONTINUOUS
 10
157.320617028
 20
31.626237886
 11
157.0315543074
 21
31.626237886
  0
LINE
  8
0
 62
7
  6
CONTINUOUS
 10
156.5690540869
 20
31.626237886
 11
156.279992028
 21
31.626237886
  0
LINE
  8
0
 62
7
  6
CONTINUOUS
 10
155.0081169177
 20
31.626237886
 11
154.6612419177
 21
31.626237886
  0
LINE
  8
0
 62
7
  6
CONTINUOUS
 10
152.9268669177
 20
31.626237886
 11
152.6956168074
 21
31.626237886
  0
LINE
  8
0
 62
7
  6
CONTINUOUS
 10
156.279992028
 20
31.9488748406
 11
156.5690540869
 21
31.9488748406
  0
LINE
  8
0
 62
7
  6
CONTINUOUS
 10
156.5690540869
 20
32.1101932727
 11
156.279992028
 21
32.1101932727
  0
LINE
  8
0
 62
7
  6
CONTINUOUS
 10
152.1753043074
 20
32.1101932727
 11
151.8862417523
 21
32.1101932727
  0
LINE
  8
0
 62
7
  6
CONTINUOUS
 10
151.2130860697
 20
32.3970785186
 11
151.6256574183
 21
32.3970785186
  0
LINE
  8
0
 62
7
  6
CONTINUOUS
 10
152.852430332
 20
32.3970785186
 11
154.245872955
 21
32.3970785186
  0
LINE
  8
0
 62
7
  6
CONTINUOUS
 10
154.5737418074
 20
32.3970785186
 11
155.9671844304
 21
32.3970785186
  0
LINE
  8
0
 62
7
  6
CONTINUOUS
 10
157.852430332
 20
32.3970785186
 11
159.245872955
 21
32.3970785186
  0
LINE
  8
0
 62
7
  6
CONTINUOUS
 10
159.5737418074
 20
32.3970785186
 11
160.9671844304
 21
32.3970785186
  0
LINE
  8
0
 62
7
  6
CONTINUOUS
 10
157.6096790869
 20
31.5939741996
 11
157.4362415869
 21
31.5294468267
  0
LINE
  8
0
 62
7
  6
CONTINUOUS
 10
155.1815540869
 20
30.6260635193
 11
155.3549915869
 21
30.6905909007
  0
LINE
  8
0
 62
7
  6
CONTINUOUS
 10
160.615929528
 20
30.6260635193
 11
160.8471793074
 21
30.6905909007
  0
LINE
  8
0
 62
7
  6
CONTINUOUS
 10
160.615929528
 20
30.7873819712
 11
160.5003043074
 21
30.7551182848
  0
LINE
  8
0
 62
7
  6
CONTINUOUS
 10
159.575304528
 20
31.4649194539
 11
159.8065543074
 21
31.4971831403
  0
LINE
  8
0
 62
7
  6
CONTINUOUS
 10
157.6096790869
 20
31.4649194539
 11
157.840929528
 21
31.4971831403
  0
LINE
  8
0
 62
7
  6
CONTINUOUS
 10
154.5456166972
 20
31.1100188581
 11
154.7768668074
 21
31.1422825445
  0
LINE
  8
0
 62
7
  6
CONTINUOUS
 10
157.840929528
 20
31.626237886
 11
157.6096790869
 21
31.5939741996
  0
LINE
  8
0
 62
7
  6
CONTINUOUS
 10
154.4299918074
 20
31.4649194539
 11
154.6612419177
 21
31.4971831403
  0
LINE
  8
0
 62
7
  6
CONTINUOUS
 10
159.8065543074
 20
31.626237886
 11
159.4596793074
 21
31.5939741996
  0
LINE
  8
0
 62
7
  6
CONTINUOUS
 10
154.7768668074
 20
31.2713373354
 11
154.4299918074
 21
31.2390736489
  0
LINE
  8
0
 62
7
  6
CONTINUOUS
 10
150.5565542799
 20
31.626237886
 11
150.2096793212
 21
31.5939741996
  0
LINE
  8
0
 62
7
  6
CONTINUOUS
 10
154.6612419177
 20
31.626237886
 11
154.2565543074
 21
31.5939741996
  0
LINE
  8
0
 62
7
  6
CONTINUOUS
 10
152.0327582009
 20
33.5446195022
 11
151.3770204959
 21
33.5446195022
  0
LINE
  8
0
 62
7
  6
CONTINUOUS
 10
157.4362415869
 20
31.400392081
 11
157.6096790869
 21
31.4649194539
  0
LINE
  8
0
 62
7
  6
CONTINUOUS
 10
159.4596793074
 20
31.4326557675
 11
159.575304528
 21
31.4649194539
  0
LINE
  8
0
 62
7
  6
CONTINUOUS
 10
159.4596793074
 20
31.5939741996
 11
159.228429528
 21
31.5294468267
  0
LINE
  8
0
 62
7
  6
CONTINUOUS
 10
155.1815540869
 20
30.7873819712
 11
154.8924916972
 21
30.7228545871
  0
LINE
  8
0
 62
7
  6
CONTINUOUS
 10
152.4643666972
 20
31.4649194539
 11
152.6956168074
 21
31.4971831403
  0
LINE
  8
0
 62
7
  6
CONTINUOUS
 10
152.6956168074
 20
31.626237886
 11
152.4643666972
 21
31.5939741996
  0
LINE
  8
0
 62
7
  6
CONTINUOUS
 10
150.2674918074
 20
31.4649194539
 11
150.498741835
 21
31.4971831403
  0
LINE
  8
0
 62
7
  6
CONTINUOUS
 10
156.7868565615
 20
35.0200293383
 11
157.4425942664
 21
35.0200293383
  0
LINE
  8
0
 62
7
  6
CONTINUOUS
 10
154.4299918074
 20
31.0777551716
 11
154.5456166972
 21
31.1100188581
  0
LINE
  8
0
 62
7
  6
CONTINUOUS
 10
154.4299918074
 20
31.2390736489
 11
154.1987416972
 21
31.1745462761
  0
LINE
  8
0
 62
7
  6
CONTINUOUS
 10
154.3143669177
 20
31.4326557675
 11
154.4299918074
 21
31.4649194539
  0
LINE
  8
0
 62
7
  6
CONTINUOUS
 10
150.9612418074
 20
30.6260635193
 11
151.1924917523
 21
30.6905909007
  0
LINE
  8
0
 62
7
  6
CONTINUOUS
 10
154.2565543074
 20
31.5939741996
 11
154.1409294177
 21
31.5617105132
  0
LINE
  8
0
 62
7
  6
CONTINUOUS
 10
150.2096793212
 20
31.5939741996
 11
150.0362418212
 21
31.5617105132
  0
LINE
  8
0
 62
7
  6
CONTINUOUS
 10
160.9671844304
 20
36.1675703219
 11
159.5737418074
 21
36.1675703219
  0
LINE
  8
0
 62
7
  6
CONTINUOUS
 10
157.6065286927
 20
36.1675703219
 11
157.1939573441
 21
36.1675703219
  0
LINE
  8
0
 62
7
  6
CONTINUOUS
 10
155.9671844304
 20
36.1675703219
 11
154.5737418074
 21
36.1675703219
  0
LINE
  8
0
 62
7
  6
CONTINUOUS
 10
154.245872955
 20
36.1675703219
 11
152.852430332
 21
36.1675703219
  0
LINE
  8
0
 62
7
  6
CONTINUOUS
 10
150.9671844304
 20
36.1675703219
 11
149.5737418074
 21
36.1675703219
  0
LINE
  8
0
 62
7
  6
CONTINUOUS
 10
150.1518667936
 20
31.4326557675
 11
150.2674918074
 21
31.4649194539
  0
CIRCLE
  8
0
 62
7
  6
CONTINUOUS
 10
160.2704631189
 20
38.5036358957
 40
2.0901639344
  0
ARC
  8
0
 62
7
  6
CONTINUOUS
 10
151.2130860697
 20
34.0364227809
 40
1.6393442623
 50
180.0
 51
270.0
  0
ARC
  8
0
 62
7
  6
CONTINUOUS
 10
157.6065286927
 20
34.5282260596
 40
1.6393442623
 50
0.0
 51
90.0
  0
ARC
  8
0
 62
7
  6
CONTINUOUS
 10
151.6256574183
 20
33.8724883547
 40
1.4754098361
 50
270.0
 51
326.2510114041
  0
ARC
  8
0
 62
7
  6
CONTINUOUS
 10
157.1939573441
 20
34.6921604858
 40
1.4754098361
 50
90.0
 51
146.2510114041
  0
ARC
  8
0
 62
7
  6
CONTINUOUS
 10
152.0327582009
 20
34.3642916334
 40
0.8196721311
 50
270.0
 51
360.0
  0
ARC
  8
0
 62
7
  6
CONTINUOUS
 10
156.7868565615
 20
34.2003572071
 40
0.8196721311
 50
90.0
 51
180.0
  0
ARC
  8
0
 62
7
  6
CONTINUOUS
 10
151.3770204959
 20
33.9544555678
 40
0.4098360656
 50
180.0
 51
270.0
  0
ARC
  8
0
 62
7
  6
CONTINUOUS
 10
157.4425942664
 20
34.6101932727
 40
0.4098360656
 50
0.0
 51
90.0
  0
SOLID
  8
0
 62
7
  6
CONTINUOUS
 10
156.279992028
 20
31.9488752009
 11
156.279992028
 21
32.1101936845
 12
156.5690540869
 22
31.9488752009
 13
156.5690540869
 23
32.1101936845
  0
SOLID
  8
0
 62
7
  6
CONTINUOUS
 10
150.5565542799
 20
31.6262382337
 11
150.9612418074
 21
31.5939740028
 12
150.2096793212
 22
31.5939740028
 13
150.2096793212
 23
31.5939740028
  0
SOLID
  8
0
 62
7
  6
CONTINUOUS
 10
150.0362418212
 20
31.5617111435
 11
150.2096793212
 21
31.5939740028
 12
150.9612418074
 22
31.5939740028
 13
150.9612418074
 23
31.5939740028
  0
SOLID
  8
0
 62
7
  6
CONTINUOUS
 10
150.9612418074
 20
31.5939740028
 11
151.1924917523
 21
31.5294468402
 12
150.0362418212
 22
31.5617111435
 13
150.0362418212
 23
31.5617111435
  0
SOLID
  8
0
 62
7
  6
CONTINUOUS
 10
149.8628043005
 20
31.49718259
 11
150.0362418212
 21
31.5617111435
 12
151.1924917523
 22
31.5294468402
 13
151.1924917523
 23
31.5294468402
  0
SOLID
  8
0
 62
7
  6
CONTINUOUS
 10
149.8628043005
 20
31.49718259
 11
151.1924917523
 21
31.5294468402
 12
150.498741835
 22
31.49718259
 13
150.498741835
 23
31.49718259
  0
SOLID
  8
0
 62
7
  6
CONTINUOUS
 10
150.498741835
 20
31.49718259
 11
151.1924917523
 21
31.5294468402
 12
150.9034292799
 22
31.4649197501
 13
150.9034292799
 23
31.4649197501
  0
SOLID
  8
0
 62
7
  6
CONTINUOUS
 10
151.1924917523
 20
31.5294468402
 11
151.3659292523
 21
31.4326554468
 12
150.9034292799
 22
31.4649197501
 13
150.9034292799
 23
31.4649197501
  0
SOLID
  8
0
 62
7
  6
CONTINUOUS
 10
151.0768668626
 20
31.4003926599
 11
150.9034292799
 21
31.4649197501
 12
151.3659292523
 22
31.4326554468
 13
151.3659292523
 23
31.4326554468
  0
SOLID
  8
0
 62
7
  6
CONTINUOUS
 10
151.0768668626
 20
31.4003926599
 11
151.3659292523
 21
31.4326554468
 12
151.1346793074
 22
31.3036013776
 13
151.1346793074
 23
31.3036013776
  0
SOLID
  8
0
 62
7
  6
CONTINUOUS
 10
151.3659292523
 20
31.4326554468
 11
151.4237418626
 21
31.3036013776
 12
151.1346793074
 22
31.3036013776
 13
151.1346793074
 23
31.3036013776
  0
SOLID
  8
0
 62
7
  6
CONTINUOUS
 10
152.4643666972
 20
31.5939739754
 11
152.6956168074
 21
31.6262382787
 12
152.9268669177
 22
31.6262382787
 13
152.9268669177
 23
31.6262382787
  0
SOLID
  8
0
 62
7
  6
CONTINUOUS
 10
152.9268669177
 20
31.6262382787
 11
153.1003044177
 21
31.5939739754
 12
152.4643666972
 22
31.5939739754
 13
152.4643666972
 23
31.5939739754
  0
SOLID
  8
0
 62
7
  6
CONTINUOUS
 10
152.2909293626
 20
31.5294468852
 11
152.4643666972
 21
31.5939739754
 12
153.1003044177
 22
31.5939739754
 13
153.1003044177
 23
31.5939739754
  0
SOLID
  8
0
 62
7
  6
CONTINUOUS
 10
153.1003044177
 20
31.5939739754
 11
153.2737419177
 21
31.5294468852
 12
152.2909293626
 22
31.5294468852
 13
152.2909293626
 23
31.5294468852
  0
SOLID
  8
0
 62
7
  6
CONTINUOUS
 10
153.2737419177
 20
31.5294468852
 11
152.6956168074
 21
31.4971825369
 12
152.2909293626
 22
31.5294468852
 13
152.2909293626
 23
31.5294468852
  0
SOLID
  8
0
 62
7
  6
CONTINUOUS
 10
152.1753043074
 20
31.4649197951
 11
152.2909293626
 21
31.5294468852
 12
152.6956168074
 22
31.4971825369
 13
152.6956168074
 23
31.4971825369
  0
SOLID
  8
0
 62
7
  6
CONTINUOUS
 10
152.6956168074
 20
31.4971825369
 11
152.4643666972
 21
31.4649197951
 12
152.1753043074
 22
31.4649197951
 13
152.1753043074
 23
31.4649197951
  0
SOLID
  8
0
 62
7
  6
CONTINUOUS
 10
152.6956168074
 20
31.4971825369
 11
153.2737419177
 21
31.5294468852
 12
152.9268669177
 22
31.4649197951
 13
152.9268669177
 23
31.4649197951
  0
SOLID
  8
0
 62
7
  6
CONTINUOUS
 10
153.2737419177
 20
31.5294468852
 11
153.3893668074
 21
31.4649197951
 12
152.9268669177
 22
31.4649197951
 13
152.9268669177
 23
31.4649197951
  0
SOLID
  8
0
 62
7
  6
CONTINUOUS
 10
153.0424918074
 20
31.4326554468
 11
152.9268669177
 21
31.4649197951
 12
153.3893668074
 22
31.4649197951
 13
153.3893668074
 23
31.4649197951
  0
SOLID
  8
0
 62
7
  6
CONTINUOUS
 10
153.3893668074
 20
31.4649197951
 11
153.4471794177
 21
31.4003927049
 12
153.0424918074
 22
31.4326554468
 13
153.0424918074
 23
31.4326554468
  0
SOLID
  8
0
 62
7
  6
CONTINUOUS
 10
153.1581166972
 20
31.3681283566
 11
153.0424918074
 21
31.4326554468
 12
153.4471794177
 22
31.4003927049
 13
153.4471794177
 23
31.4003927049
  0
SOLID
  8
0
 62
7
  6
CONTINUOUS
 10
153.1581166972
 20
31.3681283566
 11
153.4471794177
 21
31.4003927049
 12
153.2159293074
 22
31.2390742213
 13
153.2159293074
 23
31.2390742213
  0
SOLID
  8
0
 62
7
  6
CONTINUOUS
 10
153.4471794177
 20
31.4003927049
 11
153.5049916972
 21
31.2390742213
 12
153.2159293074
 22
31.2390742213
 13
153.2159293074
 23
31.2390742213
  0
SOLID
  8
0
 62
7
  6
CONTINUOUS
 10
152.4643666972
 20
31.4649197951
 11
152.2909293626
 21
31.4003927049
 12
152.1753043074
 22
31.4649197951
 13
152.1753043074
 23
31.4649197951
  0
SOLID
  8
0
 62
7
  6
CONTINUOUS
 10
152.2909293626
 20
31.4003927049
 11
152.1753043074
 21
31.3358640533
 12
152.1753043074
 22
31.4649197951
 13
152.1753043074
 23
31.4649197951
  0
SOLID
  8
0
 62
7
  6
CONTINUOUS
 10
152.1753043074
 20
31.3358640533
 11
151.8862417523
 21
30.5938002869
 12
152.1753043074
 22
31.4649197951
 13
152.1753043074
 23
31.4649197951
  0
SOLID
  8
0
 62
7
  6
CONTINUOUS
 10
152.1753043074
 20
31.4649197951
 11
151.8862417523
 21
30.5938002869
 12
152.1753043074
 22
32.1101937295
 13
152.1753043074
 23
32.1101937295
  0
SOLID
  8
0
 62
7
  6
CONTINUOUS
 10
151.8862417523
 20
30.5938002869
 11
151.8862417523
 21
32.1101937295
 12
152.1753043074
 22
32.1101937295
 13
152.1753043074
 23
32.1101937295
  0
SOLID
  8
0
 62
7
  6
CONTINUOUS
 10
152.1753043074
 20
31.3358640533
 11
152.1753043074
 21
30.5938002869
 12
151.8862417523
 22
30.5938002869
 13
151.8862417523
 23
30.5938002869
  0
SOLID
  8
0
 62
7
  6
CONTINUOUS
 10
153.2159293074
 20
30.5938002869
 11
153.2159293074
 21
31.2390742213
 12
153.5049916972
 22
31.2390742213
 13
153.5049916972
 23
31.2390742213
  0
SOLID
  8
0
 62
7
  6
CONTINUOUS
 10
153.5049916972
 20
31.2390742213
 11
153.5049916972
 21
30.5938002869
 12
153.2159293074
 22
30.5938002869
 13
153.2159293074
 23
30.5938002869
  0
SOLID
  8
0
 62
7
  6
CONTINUOUS
 10
154.2565543074
 20
31.5939738288
 11
154.6612419177
 21
31.6262385959
 12
155.0081169177
 22
31.6262385959
 13
155.0081169177
 23
31.6262385959
  0
SOLID
  8
0
 62
7
  6
CONTINUOUS
 10
155.0081169177
 20
31.6262385959
 11
155.3549915869
 21
31.5939738288
 12
154.2565543074
 22
31.5939738288
 13
154.2565543074
 23
31.5939738288
  0
SOLID
  8
0
 62
7
  6
CONTINUOUS
 10
154.1409294177
 20
31.5617111435
 11
154.2565543074
 21
31.5939738288
 12
155.3549915869
 22
31.5939738288
 13
155.3549915869
 23
31.5939738288
  0
SOLID
  8
0
 62
7
  6
CONTINUOUS
 10
155.3549915869
 20
31.5939738288
 11
155.5284290869
 21
31.5294468402
 12
154.1409294177
 22
31.5617111435
 13
154.1409294177
 23
31.5617111435
  0
SOLID
  8
0
 62
7
  6
CONTINUOUS
 10
154.0253041972
 20
31.4971826249
 11
154.1409294177
 21
31.5617111435
 12
155.5284290869
 22
31.5294468402
 13
155.5284290869
 23
31.5294468402
  0
SOLID
  8
0
 62
7
  6
CONTINUOUS
 10
154.0253041972
 20
31.4971826249
 11
155.5284290869
 21
31.5294468402
 12
154.6612419177
 22
31.4971826249
 13
154.6612419177
 23
31.4971826249
  0
SOLID
  8
0
 62
7
  6
CONTINUOUS
 10
154.6612419177
 20
31.4971826249
 11
155.5284290869
 21
31.5294468402
 12
155.0081169177
 22
31.4971826249
 13
155.0081169177
 23
31.4971826249
  0
SOLID
  8
0
 62
7
  6
CONTINUOUS
 10
155.0081169177
 20
31.4971826249
 11
155.5284290869
 21
31.5294468402
 12
155.239367028
 22
31.4649194065
 13
155.239367028
 23
31.4649194065
  0
SOLID
  8
0
 62
7
  6
CONTINUOUS
 10
155.5284290869
 20
31.5294468402
 11
155.6440543074
 21
31.4649194065
 12
155.239367028
 22
31.4649194065
 13
155.239367028
 23
31.4649194065
  0
SOLID
  8
0
 62
7
  6
CONTINUOUS
 10
153.9674919177
 20
31.4326554138
 11
154.0253041972
 21
31.4971826249
 12
154.6612419177
 22
31.4971826249
 13
154.6612419177
 23
31.4971826249
  0
SOLID
  8
0
 62
7
  6
CONTINUOUS
 10
155.3549915869
 20
31.4326554138
 11
155.239367028
 21
31.4649194065
 12
155.6440543074
 22
31.4649194065
 13
155.6440543074
 23
31.4649194065
  0
SOLID
  8
0
 62
7
  6
CONTINUOUS
 10
155.3549915869
 20
31.4326554138
 11
155.6440543074
 21
31.4649194065
 12
155.412804528
 22
31.3681282026
 13
155.412804528
 23
31.3681282026
  0
SOLID
  8
0
 62
7
  6
CONTINUOUS
 10
155.6440543074
 20
31.4649194065
 11
155.7018665869
 21
31.3681282026
 12
155.412804528
 22
31.3681282026
 13
155.412804528
 23
31.3681282026
  0
SOLID
  8
0
 62
7
  6
CONTINUOUS
 10
155.412804528
 20
31.2713369632
 11
155.412804528
 21
31.3681282026
 12
155.7018665869
 22
31.3681282026
 13
155.7018665869
 23
31.3681282026
  0
SOLID
  8
0
 62
7
  6
CONTINUOUS
 10
155.412804528
 20
31.2713369632
 11
155.7018665869
 21
31.3681282026
 12
155.412804528
 22
31.1422827828
 13
155.412804528
 23
31.1422827828
  0
SOLID
  8
0
 62
7
  6
CONTINUOUS
 10
155.412804528
 20
31.1422827828
 11
155.7018665869
 21
31.3681282026
 12
155.412804528
 22
30.9487004259
 13
155.412804528
 23
30.9487004259
  0
SOLID
  8
0
 62
7
  6
CONTINUOUS
 10
155.7018665869
 20
31.3681282026
 11
155.7018665869
 21
30.8519086025
 12
155.412804528
 22
30.9487004259
 13
155.412804528
 23
30.9487004259
  0
SOLID
  8
0
 62
7
  6
CONTINUOUS
 10
157.6096790869
 20
31.5939736268
 11
157.840929528
 21
31.6262383465
 12
158.0721793074
 22
31.6262383465
 13
158.0721793074
 23
31.6262383465
  0
SOLID
  8
0
 62
7
  6
CONTINUOUS
 10
158.0721793074
 20
31.6262383465
 11
158.2456168074
 21
31.5939736268
 12
157.6096790869
 22
31.5939736268
 13
157.6096790869
 23
31.5939736268
  0
SOLID
  8
0
 62
7
  6
CONTINUOUS
 10
157.4362415869
 20
31.5294472848
 11
157.6096790869
 21
31.5939736268
 12
158.2456168074
 22
31.5939736268
 13
158.2456168074
 23
31.5939736268
  0
SOLID
  8
0
 62
7
  6
CONTINUOUS
 10
158.2456168074
 20
31.5939736268
 11
158.4190543074
 21
31.5294472848
 12
157.4362415869
 22
31.5294472848
 13
157.4362415869
 23
31.5294472848
  0
SOLID
  8
0
 62
7
  6
CONTINUOUS
 10
158.4190543074
 20
31.5294472848
 11
157.840929528
 21
31.4971825369
 12
157.4362415869
 22
31.5294472848
 13
157.4362415869
 23
31.5294472848
  0
SOLID
  8
0
 62
7
  6
CONTINUOUS
 10
157.320617028
 20
31.4649199103
 11
157.4362415869
 21
31.5294472848
 12
157.840929528
 22
31.4971825369
 13
157.840929528
 23
31.4971825369
  0
SOLID
  8
0
 62
7
  6
CONTINUOUS
 10
157.840929528
 20
31.4971825369
 11
157.6096790869
 21
31.4649199103
 12
157.320617028
 22
31.4649199103
 13
157.320617028
 23
31.4649199103
  0
SOLID
  8
0
 62
7
  6
CONTINUOUS
 10
157.840929528
 20
31.4971825369
 11
158.4190543074
 21
31.5294472848
 12
158.0721793074
 22
31.4649199103
 13
158.0721793074
 23
31.4649199103
  0
SOLID
  8
0
 62
7
  6
CONTINUOUS
 10
158.4190543074
 20
31.5294472848
 11
158.534679528
 21
31.4649199103
 12
158.0721793074
 22
31.4649199103
 13
158.0721793074
 23
31.4649199103
  0
SOLID
  8
0
 62
7
  6
CONTINUOUS
 10
158.187804528
 20
31.4326554468
 11
158.0721793074
 21
31.4649199103
 12
158.534679528
 22
31.4649199103
 13
158.534679528
 23
31.4649199103
  0
SOLID
  8
0
 62
7
  6
CONTINUOUS
 10
158.187804528
 20
31.4326554468
 11
158.534679528
 21
31.4649199103
 12
158.3034290869
 22
31.3681288486
 13
158.3034290869
 23
31.3681288486
  0
SOLID
  8
0
 62
7
  6
CONTINUOUS
 10
158.534679528
 20
31.4649199103
 11
158.5924918074
 21
31.3681288486
 12
158.3034290869
 22
31.3681288486
 13
158.3034290869
 23
31.3681288486
  0
SOLID
  8
0
 62
7
  6
CONTINUOUS
 10
158.361242028
 20
31.2068093799
 11
158.3034290869
 21
31.3681288486
 12
158.5924918074
 22
31.3681288486
 13
158.5924918074
 23
31.3681288486
  0
SOLID
  8
0
 62
7
  6
CONTINUOUS
 10
158.5924918074
 20
31.3681288486
 11
158.6503040869
 21
31.2068093799
 12
158.361242028
 22
31.2068093799
 13
158.361242028
 23
31.2068093799
  0
SOLID
  8
0
 62
7
  6
CONTINUOUS
 10
157.6096790869
 20
31.4649199103
 11
157.4362415869
 21
31.4003926599
 12
157.320617028
 22
31.4649199103
 13
157.320617028
 23
31.4649199103
  0
SOLID
  8
0
 62
7
  6
CONTINUOUS
 10
157.4362415869
 20
31.4003926599
 11
157.320617028
 21
31.3358640533
 12
157.320617028
 22
31.4649199103
 13
157.320617028
 23
31.4649199103
  0
SOLID
  8
0
 62
7
  6
CONTINUOUS
 10
157.320617028
 20
31.3358640533
 11
157.0315543074
 21
30.5938003547
 12
157.320617028
 22
31.4649199103
 13
157.320617028
 23
31.4649199103
  0
SOLID
  8
0
 62
7
  6
CONTINUOUS
 10
157.320617028
 20
31.4649199103
 11
157.0315543074
 21
30.5938003547
 12
157.320617028
 22
31.6262383465
 13
157.320617028
 23
31.6262383465
  0
SOLID
  8
0
 62
7
  6
CONTINUOUS
 10
157.0315543074
 20
30.5938003547
 11
157.0315543074
 21
31.6262383465
 12
157.320617028
 22
31.6262383465
 13
157.320617028
 23
31.6262383465
  0
SOLID
  8
0
 62
7
  6
CONTINUOUS
 10
157.320617028
 20
31.3358640533
 11
157.320617028
 21
30.5938003547
 12
157.0315543074
 22
30.5938003547
 13
157.0315543074
 23
30.5938003547
  0
SOLID
  8
0
 62
7
  6
CONTINUOUS
 10
158.361242028
 20
30.5938003547
 11
158.361242028
 21
31.2068093799
 12
158.6503040869
 22
31.2068093799
 13
158.6503040869
 23
31.2068093799
  0
SOLID
  8
0
 62
7
  6
CONTINUOUS
 10
158.6503040869
 20
31.2068093799
 11
158.6503040869
 21
30.5938003547
 12
158.361242028
 22
30.5938003547
 13
158.361242028
 23
30.5938003547
  0
SOLID
  8
0
 62
7
  6
CONTINUOUS
 10
159.4596793074
 20
31.5939739474
 11
159.8065543074
 21
31.6262381969
 12
160.1534293074
 22
31.6262381969
 13
160.1534293074
 23
31.6262381969
  0
SOLID
  8
0
 62
7
  6
CONTINUOUS
 10
160.1534293074
 20
31.6262381969
 11
160.5003043074
 21
31.5939739474
 12
159.4596793074
 22
31.5939739474
 13
159.4596793074
 23
31.5939739474
  0
SOLID
  8
0
 62
7
  6
CONTINUOUS
 10
159.228429528
 20
31.5294468402
 11
159.4596793074
 21
31.5939739474
 12
160.5003043074
 22
31.5939739474
 13
160.5003043074
 23
31.5939739474
  0
SOLID
  8
0
 62
7
  6
CONTINUOUS
 10
159.228429528
 20
31.5294468402
 11
160.5003043074
 21
31.5939739304
 12
160.6737418074
 22
31.5617111435
 13
160.6737418074
 23
31.5617111435
  0
SOLID
  8
0
 62
7
  6
CONTINUOUS
 10
159.228429528
 20
31.5294468402
 11
160.6737418074
 21
31.5617111435
 12
159.8065543074
 22
31.4971825592
 13
159.8065543074
 23
31.4971825592
  0
SOLID
  8
0
 62
7
  6
CONTINUOUS
 10
159.8065543074
 20
31.4971825592
 11
160.6737418074
 21
31.5617111435
 12
160.1534293074
 22
31.4971825592
 13
160.1534293074
 23
31.4971825592
  0
SOLID
  8
0
 62
7
  6
CONTINUOUS
 10
160.6737418074
 20
31.5617111435
 11
160.8471793074
 21
31.4971825592
 12
160.1534293074
 22
31.4971825592
 13
160.1534293074
 23
31.4971825592
  0
SOLID
  8
0
 62
7
  6
CONTINUOUS
 10
160.5003043074
 20
31.4649197501
 11
160.1534293074
 21
31.4971825592
 12
160.8471793074
 22
31.4971825592
 13
160.8471793074
 23
31.4971825592
  0
SOLID
  8
0
 62
7
  6
CONTINUOUS
 10
159.1128043074
 20
31.4326555427
 11
159.228429528
 21
31.5294468402
 12
159.8065543074
 22
31.4971825592
 13
159.8065543074
 23
31.4971825592
  0
SOLID
  8
0
 62
7
  6
CONTINUOUS
 10
160.5003043074
 20
31.4649197501
 11
160.8471793074
 21
31.4971825592
 12
160.615929528
 22
31.4326555427
 13
160.615929528
 23
31.4326555427
  0
SOLID
  8
0
 62
7
  6
CONTINUOUS
 10
160.615929528
 20
31.4326555427
 11
160.8471793074
 21
31.4971825592
 12
160.6737418074
 22
31.3681283005
 13
160.6737418074
 23
31.3681283005
  0
SOLID
  8
0
 62
7
  6
CONTINUOUS
 10
160.8471793074
 20
31.4971825592
 11
160.9628038663
 21
31.3681283005
 12
160.6737418074
 22
31.3681283005
 13
160.6737418074
 23
31.3681283005
  0
SOLID
  8
0
 62
7
  6
CONTINUOUS
 10
150.2674918074
 20
31.4649197501
 11
149.7471793074
 21
31.4326554237
 12
150.498741835
 22
31.4971824493
 13
150.498741835
 23
31.4971824493
  0
SOLID
  8
0
 62
7
  6
CONTINUOUS
 10
149.7471793074
 20
31.4326554237
 11
149.8628043005
 21
31.4971824493
 12
150.498741835
 22
31.4971824493
 13
150.498741835
 23
31.4971824493
  0
SOLID
  8
0
 62
7
  6
CONTINUOUS
 10
150.2674918074
 20
31.4649197501
 11
150.1518667936
 21
31.4326554237
 12
149.7471793074
 22
31.4326554237
 13
149.7471793074
 23
31.4326554237
  0
SOLID
  8
0
 62
7
  6
CONTINUOUS
 10
149.6315543091
 20
31.3036012664
 11
149.7471793074
 21
31.4326554237
 12
150.1518667936
 22
31.4326554237
 13
150.1518667936
 23
31.4326554237
  0
SOLID
  8
0
 62
7
  6
CONTINUOUS
 10
153.9674919177
 20
31.4326554237
 11
154.6612419177
 21
31.4971825369
 12
154.4299918074
 22
31.4649197501
 13
154.4299918074
 23
31.4649197501
  0
SOLID
  8
0
 62
7
  6
CONTINUOUS
 10
154.4299918074
 20
31.4649197501
 11
154.3143669177
 21
31.4326554237
 12
153.9674919177
 22
31.4326554237
 13
153.9674919177
 23
31.4326554237
  0
SOLID
  8
0
 62
7
  6
CONTINUOUS
 10
153.9674919177
 20
31.3681283335
 11
153.9674919177
 21
31.4326554237
 12
154.3143669177
 22
31.4326554237
 13
154.3143669177
 23
31.4326554237
  0
SOLID
  8
0
 62
7
  6
CONTINUOUS
 10
154.3143669177
 20
31.4326554237
 11
154.2565543074
 21
31.3681283335
 12
153.9674919177
 22
31.3681283335
 13
153.9674919177
 23
31.3681283335
  0
SOLID
  8
0
 62
7
  6
CONTINUOUS
 10
159.1128043074
 20
31.4326555528
 11
159.8065543074
 21
31.4971825369
 12
159.575304528
 22
31.4649197501
 13
159.575304528
 23
31.4649197501
  0
SOLID
  8
0
 62
7
  6
CONTINUOUS
 10
159.575304528
 20
31.4649197501
 11
159.4596793074
 21
31.4326555528
 12
159.1128043074
 22
31.4326555528
 13
159.1128043074
 23
31.4326555528
  0
SOLID
  8
0
 62
7
  6
CONTINUOUS
 10
159.1128043074
 20
31.3681284626
 11
159.1128043074
 21
31.4326555528
 12
159.4596793074
 22
31.4326555528
 13
159.4596793074
 23
31.4326555528
  0
SOLID
  8
0
 62
7
  6
CONTINUOUS
 10
159.4596793074
 20
31.4326555528
 11
159.401867028
 21
31.3681284626
 12
159.1128043074
 22
31.3681284626
 13
159.1128043074
 23
31.3681284626
  0
SOLID
  8
0
 62
7
  6
CONTINUOUS
 10
159.228429528
 20
31.2390741763
 11
159.1128043074
 21
31.3681284626
 12
159.401867028
 22
31.3681284626
 13
159.401867028
 23
31.3681284626
  0
SOLID
  8
0
 62
7
  6
CONTINUOUS
 10
149.6315543091
 20
31.3036012664
 11
150.1518667936
 21
31.4326554468
 12
149.9784292936
 22
31.3358640533
 13
149.9784292936
 23
31.3358640533
  0
SOLID
  8
0
 62
7
  6
CONTINUOUS
 10
149.9784292936
 20
31.3358640533
 11
149.9206168074
 21
31.2713369632
 12
149.6315543091
 22
31.3036012664
 13
149.6315543091
 23
31.3036012664
  0
SOLID
  8
0
 62
7
  6
CONTINUOUS
 10
149.5737418074
 20
31.1100184796
 11
149.6315543091
 21
31.3036012664
 12
149.9206168074
 22
31.2713369632
 13
149.9206168074
 23
31.2713369632
  0
SOLID
  8
0
 62
7
  6
CONTINUOUS
 10
154.4299918074
 20
31.2390741763
 11
154.7768668074
 21
31.271336924
 12
155.412804528
 22
31.271336924
 13
155.412804528
 23
31.271336924
  0
SOLID
  8
0
 62
7
  6
CONTINUOUS
 10
154.4299918074
 20
31.2390741763
 11
155.412804528
 21
31.271336924
 12
154.1987416972
 22
31.1745462761
 13
154.1987416972
 23
31.1745462761
  0
SOLID
  8
0
 62
7
  6
CONTINUOUS
 10
154.1987416972
 20
31.1745462761
 11
155.412804528
 21
31.271336924
 12
154.7768668074
 22
31.1422827436
 13
154.7768668074
 23
31.1422827436
  0
SOLID
  8
0
 62
7
  6
CONTINUOUS
 10
155.412804528
 20
31.271336924
 11
155.412804528
 21
31.1422827436
 12
154.7768668074
 22
31.1422827436
 13
154.7768668074
 23
31.1422827436
  0
SOLID
  8
0
 62
7
  6
CONTINUOUS
 10
159.228429528
 20
31.2390745501
 11
159.401867028
 21
31.3681283566
 12
159.4596793074
 22
31.3036012664
 13
159.4596793074
 23
31.3036012664
  0
SOLID
  8
0
 62
7
  6
CONTINUOUS
 10
159.4596793074
 20
31.3036012664
 11
159.6331168074
 21
31.2390745501
 12
159.228429528
 22
31.2390745501
 13
159.228429528
 23
31.2390745501
  0
SOLID
  8
0
 62
7
  6
CONTINUOUS
 10
159.4596793074
 20
31.1422827828
 11
159.228429528
 21
31.2390745501
 12
159.6331168074
 22
31.2390745501
 13
159.6331168074
 23
31.2390745501
  0
SOLID
  8
0
 62
7
  6
CONTINUOUS
 10
159.6331168074
 20
31.2390745501
 11
160.615929528
 21
31.0777556927
 12
159.4596793074
 22
31.1422827828
 13
159.4596793074
 23
31.1422827828
  0
SOLID
  8
0
 62
7
  6
CONTINUOUS
 10
160.442492028
 20
30.9809646623
 11
159.4596793074
 21
31.1422827828
 12
160.615929528
 22
31.0777556927
 13
160.615929528
 23
31.0777556927
  0
SOLID
  8
0
 62
7
  6
CONTINUOUS
 10
160.615929528
 20
31.0777556927
 11
160.8471793074
 21
30.9809646623
 12
160.442492028
 22
30.9809646623
 13
160.442492028
 23
30.9809646623
  0
SOLID
  8
0
 62
7
  6
CONTINUOUS
 10
160.615929528
 20
30.9164372091
 11
160.442492028
 21
30.9809646623
 12
160.8471793074
 22
30.9809646623
 13
160.8471793074
 23
30.9809646623
  0
SOLID
  8
0
 62
7
  6
CONTINUOUS
 10
160.615929528
 20
30.9164372091
 11
160.8471793074
 21
30.9809646623
 12
160.6737418074
 22
30.8519089441
 13
160.6737418074
 23
30.8519089441
  0
SOLID
  8
0
 62
7
  6
CONTINUOUS
 10
160.8471793074
 20
30.9809646623
 11
160.9628038663
 21
30.8519089441
 12
160.6737418074
 22
30.8519089441
 13
160.6737418074
 23
30.8519089441
  0
SOLID
  8
0
 62
7
  6
CONTINUOUS
 10
160.615929528
 20
30.7873818593
 11
160.6737418074
 21
30.8519089441
 12
160.9628038663
 22
30.8519089441
 13
160.9628038663
 23
30.8519089441
  0
SOLID
  8
0
 62
7
  6
CONTINUOUS
 10
160.9628038663
 20
30.8519089441
 11
160.9628038663
 21
30.7873818593
 12
160.615929528
 22
30.7873818593
 13
160.615929528
 23
30.7873818593
  0
SOLID
  8
0
 62
7
  6
CONTINUOUS
 10
160.5003043074
 20
30.7551187255
 11
160.615929528
 21
30.7873818593
 12
160.9628038663
 22
30.7873818593
 13
160.9628038663
 23
30.7873818593
  0
SOLID
  8
0
 62
7
  6
CONTINUOUS
 10
160.5003043074
 20
30.7551187255
 11
160.9628038663
 21
30.7873818593
 12
160.269054528
 22
30.7228547745
 13
160.269054528
 23
30.7228547745
  0
SOLID
  8
0
 62
7
  6
CONTINUOUS
 10
160.9628038663
 20
30.7873818593
 11
160.8471793074
 21
30.6905916353
 12
160.269054528
 22
30.7228547745
 13
160.269054528
 23
30.7228547745
  0
SOLID
  8
0
 62
7
  6
CONTINUOUS
 10
160.8471793074
 20
30.6905916353
 11
159.401867028
 21
30.658327332
 12
160.269054528
 22
30.7228547745
 13
160.269054528
 23
30.7228547745
  0
SOLID
  8
0
 62
7
  6
CONTINUOUS
 10
160.269054528
 20
30.7228547745
 11
159.401867028
 21
30.658327332
 12
159.922179528
 22
30.7228547745
 13
159.922179528
 23
30.7228547745
  0
SOLID
  8
0
 62
7
  6
CONTINUOUS
 10
159.401867028
 20
30.658327332
 11
159.228429528
 21
30.7228547745
 12
159.922179528
 22
30.7228547745
 13
159.922179528
 23
30.7228547745
  0
SOLID
  8
0
 62
7
  6
CONTINUOUS
 10
159.401867028
 20
30.658327332
 11
160.8471793074
 21
30.6905916353
 12
159.575304528
 22
30.6260629858
 13
159.575304528
 23
30.6260629858
  0
SOLID
  8
0
 62
7
  6
CONTINUOUS
 10
160.8471793074
 20
30.6905916353
 11
160.615929528
 21
30.6260629858
 12
159.575304528
 22
30.6260629858
 13
159.575304528
 23
30.6260629858
  0
SOLID
  8
0
 62
7
  6
CONTINUOUS
 10
159.922179528
 20
30.5938006049
 11
159.575304528
 21
30.6260629858
 12
160.615929528
 22
30.6260629858
 13
160.615929528
 23
30.6260629858
  0
SOLID
  8
0
 62
7
  6
CONTINUOUS
 10
160.615929528
 20
30.6260629858
 11
160.269054528
 21
30.5938006049
 12
159.922179528
 22
30.5938006049
 13
159.922179528
 23
30.5938006049
  0
SOLID
  8
0
 62
7
  6
CONTINUOUS
 10
149.5737418074
 20
31.1100184796
 11
149.9206168074
 21
31.2713369632
 12
149.8628043005
 22
31.1422827828
 13
149.8628043005
 23
31.1422827828
  0
SOLID
  8
0
 62
7
  6
CONTINUOUS
 10
149.8628043005
 20
31.1422827828
 11
149.8628043005
 21
31.0454914852
 12
149.5737418074
 22
31.1100184796
 13
149.5737418074
 23
31.1100184796
  0
SOLID
  8
0
 62
7
  6
CONTINUOUS
 10
149.6315543091
 20
30.9164372091
 11
149.5737418074
 21
31.1100184796
 12
149.8628043005
 22
31.0454914852
 13
149.8628043005
 23
31.0454914852
  0
SOLID
  8
0
 62
7
  6
CONTINUOUS
 10
149.8628043005
 20
31.0454914852
 11
149.9784292936
 21
30.8841729058
 12
149.6315543091
 22
30.9164372091
 13
149.6315543091
 23
30.9164372091
  0
SOLID
  8
0
 62
7
  6
CONTINUOUS
 10
149.7471793074
 20
30.7873813202
 11
149.6315543091
 21
30.9164372091
 12
149.9784292936
 22
30.8841729058
 13
149.9784292936
 23
30.8841729058
  0
SOLID
  8
0
 62
7
  6
CONTINUOUS
 10
149.9784292936
 20
30.8841729058
 11
150.1518667936
 21
30.7873813202
 12
149.7471793074
 22
30.7873813202
 13
149.7471793074
 23
30.7873813202
  0
SOLID
  8
0
 62
7
  6
CONTINUOUS
 10
149.8628043005
 20
30.7228547004
 11
149.7471793074
 21
30.7873813202
 12
150.1518667936
 22
30.7873813202
 13
150.1518667936
 23
30.7873813202
  0
SOLID
  8
0
 62
7
  6
CONTINUOUS
 10
150.1518667936
 20
30.7873813202
 11
150.498741835
 21
30.7228547004
 12
149.8628043005
 22
30.7228547004
 13
149.8628043005
 23
30.7228547004
  0
SOLID
  8
0
 62
7
  6
CONTINUOUS
 10
150.0362418212
 20
30.658327332
 11
149.8628043005
 21
30.7228547004
 12
150.498741835
 22
30.7228547004
 13
150.498741835
 23
30.7228547004
  0
SOLID
  8
0
 62
7
  6
CONTINUOUS
 10
154.0831168074
 20
31.1100184386
 11
154.1987416972
 21
31.1745462761
 12
154.7768668074
 22
31.1422827828
 13
154.7768668074
 23
31.1422827828
  0
SOLID
  8
0
 62
7
  6
CONTINUOUS
 10
154.7768668074
 20
31.1422827828
 11
154.5456166972
 21
31.1100184386
 12
154.0831168074
 22
31.1100184386
 13
154.0831168074
 23
31.1100184386
  0
SOLID
  8
0
 62
7
  6
CONTINUOUS
 10
153.9674919177
 20
30.9809642992
 11
154.0831168074
 21
31.1100184386
 12
154.5456166972
 22
31.1100184386
 13
154.5456166972
 23
31.1100184386
  0
SOLID
  8
0
 62
7
  6
CONTINUOUS
 10
154.3143669177
 20
31.0132277988
 11
153.9674919177
 21
30.9809642992
 12
154.4299918074
 22
31.0777556927
 13
154.4299918074
 23
31.0777556927
  0
SOLID
  8
0
 62
7
  6
CONTINUOUS
 10
153.9674919177
 20
30.9809642992
 11
154.5456166972
 21
31.1100184796
 12
154.4299918074
 22
31.0777556927
 13
154.4299918074
 23
31.0777556927
  0
SOLID
  8
0
 62
7
  6
CONTINUOUS
 10
154.3143669177
 20
31.0132277988
 11
154.2565543074
 21
30.9164372091
 12
153.9674919177
 22
30.9809642992
 13
153.9674919177
 23
30.9809642992
  0
SOLID
  8
0
 62
7
  6
CONTINUOUS
 10
153.9674919177
 20
30.8841729058
 11
153.9674919177
 21
30.9809642992
 12
154.2565543074
 22
30.9164372091
 13
154.2565543074
 23
30.9164372091
  0
SOLID
  8
0
 62
7
  6
CONTINUOUS
 10
154.2565543074
 20
30.9164372091
 11
154.2565543074
 21
30.8519086025
 12
153.9674919177
 22
30.8841729058
 13
153.9674919177
 23
30.8841729058
  0
SOLID
  8
0
 62
7
  6
CONTINUOUS
 10
154.0253041972
 20
30.7551187255
 11
153.9674919177
 21
30.8841729058
 12
154.2565543074
 22
30.8519086025
 13
154.2565543074
 23
30.8519086025
  0
SOLID
  8
0
 62
7
  6
CONTINUOUS
 10
155.412804528
 20
30.9487004259
 11
155.7018665869
 21
30.8519086025
 12
155.3549915869
 22
30.8841729058
 13
155.3549915869
 23
30.8841729058
  0
SOLID
  8
0
 62
7
  6
CONTINUOUS
 10
155.1815540869
 20
30.7873815123
 11
155.3549915869
 21
30.8841729058
 12
155.7018665869
 22
30.8519086025
 13
155.7018665869
 23
30.8519086025
  0
SOLID
  8
0
 62
7
  6
CONTINUOUS
 10
155.1815540869
 20
30.7873815123
 11
155.7018665869
 21
30.8519086025
 12
155.412804528
 22
30.7551187255
 13
155.412804528
 23
30.7551187255
  0
SOLID
  8
0
 62
7
  6
CONTINUOUS
 10
155.7018665869
 20
30.8519086025
 11
155.759679528
 21
30.6905916353
 12
155.412804528
 22
30.7551187255
 13
155.412804528
 23
30.7551187255
  0
SOLID
  8
0
 62
7
  6
CONTINUOUS
 10
155.4706168074
 20
30.658327332
 11
155.412804528
 21
30.7551187255
 12
155.759679528
 22
30.6905916353
 13
155.759679528
 23
30.6905916353
  0
SOLID
  8
0
 62
7
  6
CONTINUOUS
 10
155.4706168074
 20
30.658327332
 11
155.759679528
 21
30.6905916353
 12
155.5284290869
 22
30.5938002079
 13
155.5284290869
 23
30.5938002079
  0
SOLID
  8
0
 62
7
  6
CONTINUOUS
 10
155.759679528
 20
30.6905916353
 11
155.8174918074
 21
30.5938002079
 12
155.5284290869
 22
30.5938002079
 13
155.5284290869
 23
30.5938002079
  0
SOLID
  8
0
 62
7
  6
CONTINUOUS
 10
151.0768668626
 20
30.8196456577
 11
151.1346793074
 21
30.9164373395
 12
151.4237418626
 22
30.9164373395
 13
151.4237418626
 23
30.9164373395
  0
SOLID
  8
0
 62
7
  6
CONTINUOUS
 10
151.4237418626
 20
30.9164373395
 11
151.3659292523
 21
30.7873815123
 12
151.0768668626
 22
30.8196456577
 13
151.0768668626
 23
30.8196456577
  0
SOLID
  8
0
 62
7
  6
CONTINUOUS
 10
150.9034292799
 20
30.7551187255
 11
151.0768668626
 21
30.8196456577
 12
151.3659292523
 22
30.7873815123
 13
151.3659292523
 23
30.7873815123
  0
SOLID
  8
0
 62
7
  6
CONTINUOUS
 10
150.9034292799
 20
30.7551187255
 11
151.3659292523
 21
30.7873815123
 12
150.498741835
 22
30.7228544222
 13
150.498741835
 23
30.7228544222
  0
SOLID
  8
0
 62
7
  6
CONTINUOUS
 10
151.3659292523
 20
30.7873815123
 11
151.1924917523
 21
30.6905916353
 12
150.498741835
 22
30.7228544222
 13
150.498741835
 23
30.7228544222
  0
SOLID
  8
0
 62
7
  6
CONTINUOUS
 10
150.0362418212
 20
30.658327332
 11
150.498741835
 21
30.7228544222
 12
151.1924917523
 22
30.6905916353
 13
151.1924917523
 23
30.6905916353
  0
SOLID
  8
0
 62
7
  6
CONTINUOUS
 10
150.0362418212
 20
30.658327332
 11
151.1924917523
 21
30.6905916353
 12
150.2096793212
 22
30.6260631011
 13
150.2096793212
 23
30.6260631011
  0
SOLID
  8
0
 62
7
  6
CONTINUOUS
 10
151.1924917523
 20
30.6905916353
 11
150.9612418074
 21
30.6260631011
 12
150.2096793212
 22
30.6260631011
 13
150.2096793212
 23
30.6260631011
  0
SOLID
  8
0
 62
7
  6
CONTINUOUS
 10
150.5565542799
 20
30.5938002419
 11
150.2096793212
 21
30.6260631011
 12
150.9612418074
 22
30.6260631011
 13
150.9612418074
 23
30.6260631011
  0
SOLID
  8
0
 62
7
  6
CONTINUOUS
 10
154.0253041972
 20
30.7551187255
 11
154.2565543074
 21
30.8519086025
 12
154.3143669177
 22
30.7873815123
 13
154.3143669177
 23
30.7873815123
  0
SOLID
  8
0
 62
7
  6
CONTINUOUS
 10
154.3143669177
 20
30.7873815123
 11
154.5456166972
 21
30.7228544222
 12
154.0253041972
 22
30.7551187255
 13
154.0253041972
 23
30.7551187255
  0
SOLID
  8
0
 62
7
  6
CONTINUOUS
 10
154.1987416972
 20
30.658327332
 11
154.0253041972
 21
30.7551187255
 12
154.5456166972
 22
30.7228544222
 13
154.5456166972
 23
30.7228544222
  0
SOLID
  8
0
 62
7
  6
CONTINUOUS
 10
154.8924916972
 20
30.7228544637
 11
155.1815540869
 21
30.7873815123
 12
155.412804528
 22
30.7551187255
 13
155.412804528
 23
30.7551187255
  0
SOLID
  8
0
 62
7
  6
CONTINUOUS
 10
155.412804528
 20
30.7551187255
 11
155.3549915869
 21
30.6905916353
 12
154.8924916972
 22
30.7228544637
 13
154.8924916972
 23
30.7228544637
  0
SOLID
  8
0
 62
7
  6
CONTINUOUS
 10
155.3549915869
 20
30.6905916353
 11
154.1987416972
 21
30.658327332
 12
154.8924916972
 22
30.7228544637
 13
154.8924916972
 23
30.7228544637
  0
SOLID
  8
0
 62
7
  6
CONTINUOUS
 10
154.1987416972
 20
30.658327332
 11
154.5456166972
 21
30.7228544637
 12
154.8924916972
 22
30.7228544637
 13
154.8924916972
 23
30.7228544637
  0
SOLID
  8
0
 62
7
  6
CONTINUOUS
 10
154.1987416972
 20
30.658327332
 11
155.3549915869
 21
30.6905916353
 12
154.3143669177
 22
30.6260630541
 13
154.3143669177
 23
30.6260630541
  0
SOLID
  8
0
 62
7
  6
CONTINUOUS
 10
155.3549915869
 20
30.6905916353
 11
155.1815540869
 21
30.6260630541
 12
154.3143669177
 22
30.6260630541
 13
154.3143669177
 23
30.6260630541
  0
SOLID
  8
0
 62
7
  6
CONTINUOUS
 10
154.5456166972
 20
30.5938002188
 11
154.3143669177
 21
30.6260630541
 12
155.1815540869
 22
30.6260630541
 13
155.1815540869
 23
30.6260630541
  0
SOLID
  8
0
 62
7
  6
CONTINUOUS
 10
155.1815540869
 20
30.6260630541
 11
154.8924916972
 21
30.5938002188
 12
154.5456166972
 22
30.5938002188
 13
154.5456166972
 23
30.5938002188
  0
SOLID
  8
0
 62
7
  6
CONTINUOUS
 10
159.575304528
 20
30.7551187255
 11
159.228429528
 21
30.7228544637
 12
159.4596793074
 22
30.7873815123
 13
159.4596793074
 23
30.7873815123
  0
SOLID
  8
0
 62
7
  6
CONTINUOUS
 10
159.4596793074
 20
30.7873815123
 11
159.228429528
 21
30.7228544637
 12
159.401867028
 22
30.851908644
 13
159.401867028
 23
30.851908644
  0
SOLID
  8
0
 62
7
  6
CONTINUOUS
 10
159.228429528
 20
30.7228544637
 11
159.1128043074
 21
30.851908644
 12
159.401867028
 22
30.851908644
 13
159.401867028
 23
30.851908644
  0
SOLID
  8
0
 62
7
  6
CONTINUOUS
 10
159.575304528
 20
30.7551187255
 11
159.922179528
 21
30.7228544637
 12
159.228429528
 22
30.7228544637
 13
159.228429528
 23
30.7228544637
  0
SOLID
  8
0
 62
7
  6
CONTINUOUS
 10
156.279992028
 20
30.5938002419
 11
156.279992028
 21
31.6262382337
 12
156.5690540869
 22
30.5938002419
 13
156.5690540869
 23
31.6262382337
  0
ENDBLK
  8
0
  6
BYBLOCK
 62
0
  0
BLOCK
  8
0
 62
2
  6
CONTINUOUS
  2
SYMBOL_3_BL0
 70
64
 10
32.1213064866
 20
19.8534310916
  0
TEXT
  8
0
 62
7
  6
CONTINUOUS
 10
18.3860103289
 20
19.2268451992
  7
TEXTSTYLE_3
 40
2.7338706658
  1
Ammeraal Beltech
 41
1.0
 51
15.0
 72
0
  0
TEXT
  8
0
 62
7
  6
CONTINUOUS
 10
29.1868111546
 20
16.9533085264
  7
TEXTSTYLE_4
 40
1.0935482663
  1
Innovation & Service in Belting
 41
1.0
 72
0
  0
LINE
  8
0
 62
7
  6
CONTINUOUS
 10
12.3614696776
 20
19.9934385078
 11
13.1396216709
 21
23.6543558055
  0
LINE
  8
0
 62
7
  6
CONTINUOUS
 10
23.2347899607
 20
27.3177497171
 11
13.6274394139
 21
24.1961322958
  0
LINE
  8
0
 62
7
  6
CONTINUOUS
 10
12.5867530099
 20
19.3000877048
 11
20.093828271
 21
12.5406867788
  0
LINE
  8
0
 62
7
  6
CONTINUOUS
 10
12.8492874206
 20
20.5352149982
 11
23.6575567857
 21
24.0470345971
  0
LINE
  8
0
 62
7
  6
CONTINUOUS
 10
23.6533516486
 20
13.6972460334
 11
15.2078919798
 21
21.3015720751
  0
LINE
  8
0
 62
7
  6
CONTINUOUS
 10
24.1731743684
 20
26.4728246013
 11
23.1966148312
 21
21.8784731989
  0
LINE
  8
0
 62
7
  6
CONTINUOUS
 10
22.4968128835
 20
18.5861638851
 11
21.810364672
 21
15.3566789607
  0
LINE
  8
0
 62
7
  6
CONTINUOUS
 10
24.8542704669
 20
14.087448211
 11
25.8105020025
 21
18.5861638851
  0
LINE
  8
0
 62
7
  6
CONTINUOUS
 10
26.5103039502
 20
21.8784731989
 11
26.9545457526
 21
23.9684665583
  0
LINE
  8
0
 62
7
  6
CONTINUOUS
 10
20.8069293463
 20
12.3891124661
 11
24.3664527239
 21
13.5456717207
  0
LINE
  8
0
 62
7
  6
CONTINUOUS
 10
23.9478910361
 20
27.1661754044
 11
26.7292624203
 21
24.6618173613
  0
ARC
  8
0
 62
7
  6
CONTINUOUS
 10
13.8527227462
 20
23.5027814928
 40
0.7290321776
 50
108.0
 51
168.0
  0
ARC
  8
0
 62
7
  6
CONTINUOUS
 10
23.4600732931
 20
26.624398914
 40
0.7290321776
 50
348.0
 51
108.0
  0
ARC
  8
0
 62
7
  6
CONTINUOUS
 10
26.2414446773
 20
24.120040871
 40
0.7290321776
 50
348.0
 51
48.0
  0
ARC
  8
0
 62
7
  6
CONTINUOUS
 10
20.581646014
 20
13.0824632691
 40
0.7290321776
 50
228.0
 51
288.0
  0
ARC
  8
0
 62
7
  6
CONTINUOUS
 10
13.0745707529
 20
19.8418641951
 40
0.7290321776
 50
108.0
 51
228.0
  0
ARC
  8
0
 62
7
  6
CONTINUOUS
 10
24.1411693916
 20
14.2390225237
 40
0.7290321776
 50
228.0
 51
348.0
  0
ENDBLK
  8
0
  6
BYBLOCK
 62
0
  0
ENDSEC
  0
SECTION
  2
ENTITIES
  0
TEXT
  8
0
 62
5
  6
CONTINUOUS
 10
96.0
 20
25.636
  7
TEXTSTYLE_2
 40
2.8
  1
Scale :
 41
0.6
 51
0.000019
 72
0
  0
TEXT
  8
0
 62
5
  6
CONTINUOUS
 10
116.0
 20
25.636
  7
TEXTSTYLE_2
 40
2.8
  1
Belt type:
 41
0.6
 51
0.000019
 72
0
  0
INSERT
  8
0
 62
2
  6
CONTINUOUS
  2
SYMBOL_3_BL0
 10
32.1213064866
 20
19.8534310916
  0
INSERT
  8
0
 62
2
  6
CONTINUOUS
  2
SYMBOL_8_BL1
 10
173.5956734183
 20
35.5937998301
  0
LINE
  8
0
 62
2
  6
CONTINUOUS
 10
10.0
 20
30.0
 11
200.0
 21
30.0
  0
LINE
  8
0
 62
2
  6
CONTINUOUS
 10
10.0
 20
30.0
 11
10.0
 21
10.0
  0
LINE
  8
0
 62
2
  6
CONTINUOUS
 10
10.0
 20
10.0
 11
200.0
 21
10.0
  0
LINE
  8
0
 62
2
  6
CONTINUOUS
 10
95.0
 20
30.0
 11
95.0
 21
10.0
  0
LINE
  8
0
 62
2
  6
CONTINUOUS
 10
115.0
 20
30.0
 11
115.0
 21
10.0
  0
LINE
  8
0
 62
2
  6
CONTINUOUS
 10
200.0
 20
30.0
 11
200.0
 21
10.0
  0
TEXT
  8
0
 62
5
  6
CONTINUOUS
 10
13.0
 20
23.303
  7
TEXTSTYLE_5
 40
1.52
  1
                                                                     Ammeraal Beltech Modular A/S
 41
1.0
 72
0
  0
TEXT
  8
0
 62
5
  6
CONTINUOUS
 10
13.0
 20
20.595
  7
TEXTSTYLE_5
 40
1.5
  1
                                                                      Hjulmagervej 21,  7100 Vejle,  DK
 41
1.0
 72
0
  0
TEXT
  8
0
 62
5
  6
CONTINUOUS
 10
13.0
 20
17.881
  7
TEXTSTYLE_5
 40
1.495
  1
                                                                      tel: 
 41
1.0
 72
0
  0
TEXT
  8
0
 62
5
  6
CONTINUOUS
 10
57.9869465649
 20
17.881
  7
TEXTSTYLE_5
 40
1.51
  1
+45 75723100     fax: +45 75723348
 41
1.0
 72
0
  0
TEXT
  8
0
 62
5
  6
CONTINUOUS
 10
13.0
 20
15.177
  7
TEXTSTYLE_5
 40
1.5
  1
                                                                      admin@unichains.dk  www.unichains.com
 41
1.0
 72
0
  0
TEXT
  8
0
 62
5
  6
CONTINUOUS
 10
99.75
 20
13.75
  7
TEXTSTYLE_6
 40
5.0
  1
1:1
 41
0.7
 72
1
 11
105.0
 21
13.75
  0
TEXT
  8
0
 62
5
  6
CONTINUOUS
 10
118.0
 20
13.75
  7
TEXTSTYLE_7
 40
7.5
  1
uni QNB-C K300
 41
0.6372767857
 72
0
  0
LINE
  8
0
 62
7
  6
CONTINUOUS
 10
210.0
 20
0.0
 11
0.0
 21
0.0
  0
LINE
  8
0
 62
7
  6
CONTINUOUS
 10
10.0
 20
10.0
 11
200.0
 21
10.0
  0
LINE
  8
0
 62
7
  6
CONTINUOUS
 10
10.0
 20
30.0
 11
200.0
 21
30.0
  0
LINE
  8
0
 62
7
  6
CONTINUOUS
 10
0.0
 20
0.0
 11
0.0
 21
297.0
  0
LINE
  8
0
 62
7
  6
CONTINUOUS
 10
10.0
 20
10.0
 11
10.0
 21
287.0
  0
LINE
  8
0
 62
7
  6
CONTINUOUS
 10
200.0
 20
287.0
 11
200.0
 21
10.0
  0
LINE
  8
0
 62
7
  6
CONTINUOUS
 10
210.0
 20
0.0
 11
210.0
 21
297.0
  0
LINE
  8
0
 62
7
  6
CONTINUOUS
 10
10.0
 20
287.0
 11
200.0
 21
287.0
  0
LINE
  8
0
 62
7
  6
CONTINUOUS
 10
0.0
 20
297.0
 11
210.0
 21
297.0
  0
LINE
  8
2_FEATURE
 62
2
  6
CONTINUOUS
 10
42.8417349138
 20
120.226316904
 11
42.8417349138
 21
122.1471012931
  0
LINE
  8
2_FEATURE
 62
2
  6
CONTINUOUS
 10
42.8417349138
 20
132.7071012931
 11
42.8417349138
 21
134.6278856418
  0
LINE
  8
0
 62
7
  6
CONTINUOUS
 10
42.8417349138
 20
118.6485616937
 11
42.8417349138
 21
144.1270989964
  0
POLYLINE
  8
2_FEATURE
 62
7
  6
CONTINUOUS
 66
1
 70
0
  0
VERTEX
  8
2_FEATURE
 62
7
  6
CONTINUOUS
 10
49.1895344123
 20
110.968815421
  0
VERTEX
  8
2_FEATURE
 62
7
  6
CONTINUOUS
 10
49.1910878558
 20
110.9426744392
  0
VERTEX
  8
2_FEATURE
 62
7
  6
CONTINUOUS
 10
49.1926382952
 20
110.9186275297
  0
VERTEX
  8
2_FEATURE
 62
7
  6
CONTINUOUS
 10
49.1941891584
 20
110.8965305526
  0
VERTEX
  8
2_FEATURE
 62
7
  6
CONTINUOUS
 10
49.195748067
 20
110.8761978815
  0
VERTEX
  8
2_FEATURE
 62
7
  6
CONTINUOUS
 10
49.1973300935
 20
110.8573829577
  0
VERTEX
  8
2_FEATURE
 62
7
  6
CONTINUOUS
 10
49.1989577777
 20
110.8398105828
  0
VERTEX
  8
2_FEATURE
 62
7
  6
CONTINUOUS
 10
49.2006639162
 20
110.8231775084
  0
VERTEX
  8
2_FEATURE
 62
7
  6
CONTINUOUS
 10
49.2024962168
 20
110.8071456952
  0
VERTEX
  8
2_FEATURE
 62
7
  6
CONTINUOUS
 10
49.2045200657
 20
110.7913645279
  0
VERTEX
  8
2_FEATURE
 62
7
  6
CONTINUOUS
 10
49.2068329584
 20
110.7754172339
  0
VERTEX
  8
2_FEATURE
 62
7
  6
CONTINUOUS
 10
49.209586952
 20
110.7587741233
  0
VERTEX
  8
2_FEATURE
 62
7
  6
CONTINUOUS
 10
49.2130073146
 20
110.7408330238
  0
VERTEX
  8
2_FEATURE
 62
7
  6
CONTINUOUS
 10
49.2174375073
 20
110.7208730808
  0
VERTEX
  8
2_FEATURE
 62
7
  6
CONTINUOUS
 10
49.2233895263
 20
110.6980903278
  0
VERTEX
  8
2_FEATURE
 62
7
  6
CONTINUOUS
 10
49.231554355
 20
110.6718168766
  0
VERTEX
  8
2_FEATURE
 62
7
  6
CONTINUOUS
 10
49.2427390987
 20
110.641817131
  0
VERTEX
  8
2_FEATURE
 62
7
  6
CONTINUOUS
 10
49.2577755501
 20
110.6083846711
  0
VERTEX
  8
2_FEATURE
 62
7
  6
CONTINUOUS
 10
49.2775756143
 20
110.5720232395
  0
VERTEX
  8
2_FEATURE
 62
7
  6
CONTINUOUS
 10
49.3033763375
 20
110.5330902789
  0
VERTEX
  8
2_FEATURE
 62
7
  6
CONTINUOUS
 10
49.3363042912
 20
110.4926226975
  0
VERTEX
  8
2_FEATURE
 62
7
  6
CONTINUOUS
 10
49.3768716662
 20
110.4525413828
  0
VERTEX
  8
2_FEATURE
 62
7
  6
CONTINUOUS
 10
49.4249679423
 20
110.4150619065
  0
VERTEX
  8
2_FEATURE
 62
7
  6
CONTINUOUS
 10
49.4797931375
 20
110.3823758214
  0
VERTEX
  8
2_FEATURE
 62
7
  6
CONTINUOUS
 10
49.5399659708
 20
110.3563257332
  0
VERTEX
  8
2_FEATURE
 62
7
  6
CONTINUOUS
 10
49.6036843637
 20
110.338208066
  0
VERTEX
  8
2_FEATURE
 62
7
  6
CONTINUOUS
 10
49.6689143538
 20
110.3286760375
  0
VERTEX
  8
2_FEATURE
 62
7
  6
CONTINUOUS
 10
49.7086137034
 20
110.3271012932
  0
SEQEND
  0
POLYLINE
  8
2_FEATURE
 62
7
  6
CONTINUOUS
 66
1
 70
0
  0
VERTEX
  8
2_FEATURE
 62
7
  6
CONTINUOUS
 10
48.8239354194
 20
143.8853870945
  0
VERTEX
  8
2_FEATURE
 62
7
  6
CONTINUOUS
 10
48.8223819752
 20
143.9115280947
  0
VERTEX
  8
2_FEATURE
 62
7
  6
CONTINUOUS
 10
48.8208315357
 20
143.9355750037
  0
VERTEX
  8
2_FEATURE
 62
7
  6
CONTINUOUS
 10
48.8192806739
 20
143.957671966
  0
VERTEX
  8
2_FEATURE
 62
7
  6
CONTINUOUS
 10
48.8177217655
 20
143.978004647
  0
VERTEX
  8
2_FEATURE
 62
7
  6
CONTINUOUS
 10
48.8161397376
 20
143.9968195905
  0
VERTEX
  8
2_FEATURE
 62
7
  6
CONTINUOUS
 10
48.8145120536
 20
144.0143919628
  0
VERTEX
  8
2_FEATURE
 62
7
  6
CONTINUOUS
 10
48.8128059186
 20
144.0310250078
  0
VERTEX
  8
2_FEATURE
 62
7
  6
CONTINUOUS
 10
48.810973621
 20
144.0470568099
  0
VERTEX
  8
2_FEATURE
 62
7
  6
CONTINUOUS
 10
48.8089497672
 20
144.0628380232
  0
VERTEX
  8
2_FEATURE
 62
7
  6
CONTINUOUS
 10
48.8066368715
 20
144.0787853368
  0
VERTEX
  8
2_FEATURE
 62
7
  6
CONTINUOUS
 10
48.8038828808
 20
144.0954284294
  0
VERTEX
  8
2_FEATURE
 62
7
  6
CONTINUOUS
 10
48.800462537
 20
144.1133694416
  0
VERTEX
  8
2_FEATURE
 62
7
  6
CONTINUOUS
 10
48.7960323801
 20
144.1333292571
  0
VERTEX
  8
2_FEATURE
 62
7
  6
CONTINUOUS
 10
48.7900803463
 20
144.1561121035
  0
VERTEX
  8
2_FEATURE
 62
7
  6
CONTINUOUS
 10
48.7819155027
 20
144.1823856244
  0
VERTEX
  8
2_FEATURE
 62
7
  6
CONTINUOUS
 10
48.7707307449
 20
144.2123854173
  0
VERTEX
  8
2_FEATURE
 62
7
  6
CONTINUOUS
 10
48.7556942772
 20
144.245817915
  0
VERTEX
  8
2_FEATURE
 62
7
  6
CONTINUOUS
 10
48.7358941885
 20
144.2821793857
  0
VERTEX
  8
2_FEATURE
 62
7
  6
CONTINUOUS
 10
48.7100934325
 20
144.3211123826
  0
VERTEX
  8
2_FEATURE
 62
7
  6
CONTINUOUS
 10
48.6771654341
 20
144.3615799978
  0
VERTEX
  8
2_FEATURE
 62
7
  6
CONTINUOUS
 10
48.6365979872
 20
144.4016613527
  0
VERTEX
  8
2_FEATURE
 62
7
  6
CONTINUOUS
 10
48.5885016102
 20
144.4391408642
  0
VERTEX
  8
2_FEATURE
 62
7
  6
CONTINUOUS
 10
48.5336763122
 20
144.471826955
  0
VERTEX
  8
2_FEATURE
 62
7
  6
CONTINUOUS
 10
48.4735034135
 20
144.4978770084
  0
VERTEX
  8
2_FEATURE
 62
7
  6
CONTINUOUS
 10
48.409785036
 20
144.5159946098
  0
VERTEX
  8
2_FEATURE
 62
7
  6
CONTINUOUS
 10
48.3445551835
 20
144.5255265709
  0
VERTEX
  8
2_FEATURE
 62
7
  6
CONTINUOUS
 10
48.3048561043
 20
144.527101293
  0
SEQEND
  0
LINE
  8
2_FEATURE
 62
7
  6
CONTINUOUS
 10
49.1864142663
 20
111.0278422775
 11
49.1895344123
 21
110.968815421
  0
LINE
  8
2_FEATURE
 62
7
  6
CONTINUOUS
 10
48.8270555644
 20
143.8263602479
 11
48.8239354194
 21
143.8853870945
  0
LINE
  8
2_FEATURE
 62
7
  6
CONTINUOUS
 10
49.1832715153
 20
111.0966467744
 11
49.1864142663
 21
111.0278422775
  0
LINE
  8
2_FEATURE
 62
7
  6
CONTINUOUS
 10
48.8301983152
 20
143.7575557375
 11
48.8270555644
 21
143.8263602479
  0
LINE
  8
2_FEATURE
 62
7
  6
CONTINUOUS
 10
49.1801064296
 20
111.1761323975
 11
49.1832715153
 21
111.0966467744
  0
LINE
  8
2_FEATURE
 62
7
  6
CONTINUOUS
 10
48.8333634008
 20
143.6780701189
 11
48.8301983152
 21
143.7575557375
  0
LINE
  8
2_FEATURE
 62
7
  6
CONTINUOUS
 10
49.1753403915
 20
111.3169439357
 11
49.1801064296
 21
111.1761323975
  0
LINE
  8
2_FEATURE
 62
7
  6
CONTINUOUS
 10
48.8381294385
 20
143.5372585782
 11
48.8333634008
 21
143.6780701189
  0
LINE
  8
2_FEATURE
 62
7
  6
CONTINUOUS
 10
49.1705952456
 20
111.4855107757
 11
49.1753403915
 21
111.3169439357
  0
LINE
  8
2_FEATURE
 62
7
  6
CONTINUOUS
 10
48.8428745839
 20
143.368691736
 11
48.8381294385
 21
143.5372585782
  0
LINE
  8
2_FEATURE
 62
7
  6
CONTINUOUS
 10
49.1643283644
 20
111.7600599921
 11
49.1705952456
 21
111.4855107757
  0
LINE
  8
2_FEATURE
 62
7
  6
CONTINUOUS
 10
48.8491414646
 20
143.0941425259
 11
48.8428745839
 21
143.368691736
  0
LINE
  8
2_FEATURE
 62
7
  6
CONTINUOUS
 10
49.1582114533
 20
112.1016557048
 11
49.1643283644
 21
111.7600599921
  0
LINE
  8
2_FEATURE
 62
7
  6
CONTINUOUS
 10
48.8552583751
 20
142.7525468276
 11
48.8491414646
 21
143.0941425259
  0
LINE
  8
2_FEATURE
 62
7
  6
CONTINUOUS
 10
49.1524876671
 20
112.5170858416
 11
49.1582114533
 21
112.1016557048
  0
LINE
  8
2_FEATURE
 62
7
  6
CONTINUOUS
 10
48.8609821609
 20
142.3371167156
 11
48.8552583751
 21
142.7525468276
  0
LINE
  8
2_FEATURE
 62
7
  6
CONTINUOUS
 10
49.148647194
 20
112.8787857167
 11
49.1524876671
 21
112.5170858416
  0
LINE
  8
2_FEATURE
 62
7
  6
CONTINUOUS
 10
48.8648226337
 20
141.9754168524
 11
48.8609821609
 21
142.3371167156
  0
LINE
  8
2_FEATURE
 62
7
  6
CONTINUOUS
 10
48.8681114205
 20
141.5702020104
 11
48.8648226337
 21
141.9754168524
  0
LINE
  8
2_FEATURE
 62
7
  6
CONTINUOUS
 10
49.1453584072
 20
113.2840005715
 11
49.148647194
 21
112.8787857167
  0
LINE
  8
2_FEATURE
 62
7
  6
CONTINUOUS
 10
48.8706823581
 20
141.122397751
 11
48.8681114205
 21
141.5702020104
  0
LINE
  8
2_FEATURE
 62
7
  6
CONTINUOUS
 10
49.1427874692
 20
113.7318048902
 11
49.1453584072
 21
113.2840005715
  0
LINE
  8
2_FEATURE
 62
7
  6
CONTINUOUS
 10
48.8723532893
 20
140.6347803422
 11
48.8706823581
 21
141.122397751
  0
LINE
  8
2_FEATURE
 62
7
  6
CONTINUOUS
 10
49.1411165375
 20
114.2194225674
 11
49.1427874692
 21
113.7318048902
  0
LINE
  8
2_FEATURE
 62
7
  6
CONTINUOUS
 10
48.8729312164
 20
140.1271012931
 11
48.8723532893
 21
140.6347803422
  0
LINE
  8
2_FEATURE
 62
7
  6
CONTINUOUS
 10
49.1405386112
 20
114.7271012931
 11
49.1411165375
 21
114.2194225674
  0
LINE
  8
2_FEATURE
 62
7
  6
CONTINUOUS
 10
48.8729312173
 20
138.2789070521
 11
48.8729312173
 21
140.1271012931
  0
LINE
  8
2_FEATURE
 62
7
  6
CONTINUOUS
 10
49.1405386103
 20
116.5752955341
 11
49.1405386103
 21
114.7271012931
  0
LINE
  8
2_FEATURE
 62
7
  6
CONTINUOUS
 10
55.2223936595
 20
114.2374023113
 11
55.2229312173
 21
116.5752955418
  0
LINE
  8
2_FEATURE
 62
7
  6
CONTINUOUS
 10
55.4910695385
 20
140.6137830081
 11
55.4905386103
 21
138.2789070444
  0
LINE
  8
2_FEATURE
 62
7
  6
CONTINUOUS
 10
55.4932967564
 20
141.2272635928
 11
55.4910695385
 21
140.6137830081
  0
LINE
  8
2_FEATURE
 62
7
  6
CONTINUOUS
 10
55.2201201441
 20
113.6166526522
 11
55.2223936595
 21
114.2374023113
  0
POLYLINE
  8
2_FEATURE
 62
7
  6
CONTINUOUS
 66
1
 70
0
  0
VERTEX
  8
2_FEATURE
 62
7
  6
CONTINUOUS
 10
55.2229304487
 20
116.5752955418
  0
VERTEX
  8
2_FEATURE
 62
7
  6
CONTINUOUS
 10
55.2231768347
 20
116.6238837993
  0
VERTEX
  8
2_FEATURE
 62
7
  6
CONTINUOUS
 10
55.2242868805
 20
116.6872612474
  0
VERTEX
  8
2_FEATURE
 62
7
  6
CONTINUOUS
 10
55.2263363208
 20
116.7497153741
  0
VERTEX
  8
2_FEATURE
 62
7
  6
CONTINUOUS
 10
55.229372849
 20
116.8112197933
  0
VERTEX
  8
2_FEATURE
 62
7
  6
CONTINUOUS
 10
55.2334451385
 20
116.8717352135
  0
VERTEX
  8
2_FEATURE
 62
7
  6
CONTINUOUS
 10
55.2385976473
 20
116.9312131835
  0
VERTEX
  8
2_FEATURE
 62
7
  6
CONTINUOUS
 10
55.2448683827
 20
116.9895976621
  0
VERTEX
  8
2_FEATURE
 62
7
  6
CONTINUOUS
 10
55.2522910929
 20
117.0468156765
  0
VERTEX
  8
2_FEATURE
 62
7
  6
CONTINUOUS
 10
55.2608922828
 20
117.1027605715
  0
VERTEX
  8
2_FEATURE
 62
7
  6
CONTINUOUS
 10
55.2707064943
 20
117.1574241288
  0
VERTEX
  8
2_FEATURE
 62
7
  6
CONTINUOUS
 10
55.2817700627
 20
117.2107973724
  0
VERTEX
  8
2_FEATURE
 62
7
  6
CONTINUOUS
 10
55.2941186521
 20
117.2628354264
  0
VERTEX
  8
2_FEATURE
 62
7
  6
CONTINUOUS
 10
55.3077804611
 20
117.3134691694
  0
VERTEX
  8
2_FEATURE
 62
7
  6
CONTINUOUS
 10
55.322774257
 20
117.3626018422
  0
VERTEX
  8
2_FEATURE
 62
7
  6
CONTINUOUS
 10
55.3391067467
 20
117.4101022842
  0
VERTEX
  8
2_FEATURE
 62
7
  6
CONTINUOUS
 10
55.3567681166
 20
117.4558218633
  0
VERTEX
  8
2_FEATURE
 62
7
  6
CONTINUOUS
 10
55.3757517352
 20
117.4996385351
  0
VERTEX
  8
2_FEATURE
 62
7
  6
CONTINUOUS
 10
55.3960447729
 20
117.5414247595
  0
VERTEX
  8
2_FEATURE
 62
7
  6
CONTINUOUS
 10
55.4175881158
 20
117.5809792237
  0
VERTEX
  8
2_FEATURE
 62
7
  6
CONTINUOUS
 10
55.440251924
 20
117.6180220655
  0
VERTEX
  8
2_FEATURE
 62
7
  6
CONTINUOUS
 10
55.463955603
 20
117.6524084601
  0
VERTEX
  8
2_FEATURE
 62
7
  6
CONTINUOUS
 10
55.4887834881
 20
117.6842050922
  0
VERTEX
  8
2_FEATURE
 62
7
  6
CONTINUOUS
 10
55.5147377061
 20
117.7132946501
  0
VERTEX
  8
2_FEATURE
 62
7
  6
CONTINUOUS
 10
55.5416943763
 20
117.7393929102
  0
VERTEX
  8
2_FEATURE
 62
7
  6
CONTINUOUS
 10
55.5695485815
 20
117.7622414264
  0
VERTEX
  8
2_FEATURE
 62
7
  6
CONTINUOUS
 10
55.5983298866
 20
117.7816353514
  0
VERTEX
  8
2_FEATURE
 62
7
  6
CONTINUOUS
 10
55.6278164135
 20
117.7971248168
  0
VERTEX
  8
2_FEATURE
 62
7
  6
CONTINUOUS
 10
55.6580088581
 20
117.8083188392
  0
VERTEX
  8
2_FEATURE
 62
7
  6
CONTINUOUS
 10
55.6874963611
 20
117.8145123618
  0
VERTEX
  8
2_FEATURE
 62
7
  6
CONTINUOUS
 10
55.7102385799
 20
117.8159726263
  0
SEQEND
  0
POLYLINE
  8
2_FEATURE
 62
7
  6
CONTINUOUS
 66
1
 70
0
  0
VERTEX
  8
2_FEATURE
 62
7
  6
CONTINUOUS
 10
55.4905393789
 20
138.2789070444
  0
VERTEX
  8
2_FEATURE
 62
7
  6
CONTINUOUS
 10
55.4902929929
 20
138.2303187869
  0
VERTEX
  8
2_FEATURE
 62
7
  6
CONTINUOUS
 10
55.4891829471
 20
138.1669413389
  0
VERTEX
  8
2_FEATURE
 62
7
  6
CONTINUOUS
 10
55.4871335068
 20
138.1044872121
  0
VERTEX
  8
2_FEATURE
 62
7
  6
CONTINUOUS
 10
55.4840969786
 20
138.0429827929
  0
VERTEX
  8
2_FEATURE
 62
7
  6
CONTINUOUS
 10
55.4800246891
 20
137.9824673727
  0
VERTEX
  8
2_FEATURE
 62
7
  6
CONTINUOUS
 10
55.4748721803
 20
137.9229894027
  0
VERTEX
  8
2_FEATURE
 62
7
  6
CONTINUOUS
 10
55.4686014449
 20
137.8646049242
  0
VERTEX
  8
2_FEATURE
 62
7
  6
CONTINUOUS
 10
55.4611787347
 20
137.8073869097
  0
VERTEX
  8
2_FEATURE
 62
7
  6
CONTINUOUS
 10
55.4525775448
 20
137.7514420147
  0
VERTEX
  8
2_FEATURE
 62
7
  6
CONTINUOUS
 10
55.4427633333
 20
137.6967784574
  0
VERTEX
  8
2_FEATURE
 62
7
  6
CONTINUOUS
 10
55.4316997649
 20
137.6434052138
  0
VERTEX
  8
2_FEATURE
 62
7
  6
CONTINUOUS
 10
55.4193511755
 20
137.5913671598
  0
VERTEX
  8
2_FEATURE
 62
7
  6
CONTINUOUS
 10
55.4056893665
 20
137.5407334168
  0
VERTEX
  8
2_FEATURE
 62
7
  6
CONTINUOUS
 10
55.3906955706
 20
137.491600744
  0
VERTEX
  8
2_FEATURE
 62
7
  6
CONTINUOUS
 10
55.3743630809
 20
137.444100302
  0
VERTEX
  8
2_FEATURE
 62
7
  6
CONTINUOUS
 10
55.356701711
 20
137.3983807229
  0
VERTEX
  8
2_FEATURE
 62
7
  6
CONTINUOUS
 10
55.3377180923
 20
137.3545640511
  0
VERTEX
  8
2_FEATURE
 62
7
  6
CONTINUOUS
 10
55.3174250547
 20
137.3127778267
  0
VERTEX
  8
2_FEATURE
 62
7
  6
CONTINUOUS
 10
55.2958817117
 20
137.2732233625
  0
VERTEX
  8
2_FEATURE
 62
7
  6
CONTINUOUS
 10
55.2732179035
 20
137.2361805207
  0
VERTEX
  8
2_FEATURE
 62
7
  6
CONTINUOUS
 10
55.2495142246
 20
137.2017941261
  0
VERTEX
  8
2_FEATURE
 62
7
  6
CONTINUOUS
 10
55.2246863395
 20
137.169997494
  0
VERTEX
  8
2_FEATURE
 62
7
  6
CONTINUOUS
 10
55.1987321214
 20
137.1409079361
  0
VERTEX
  8
2_FEATURE
 62
7
  6
CONTINUOUS
 10
55.1717754513
 20
137.1148096761
  0
VERTEX
  8
2_FEATURE
 62
7
  6
CONTINUOUS
 10
55.1439212461
 20
137.0919611598
  0
VERTEX
  8
2_FEATURE
 62
7
  6
CONTINUOUS
 10
55.115139941
 20
137.0725672348
  0
VERTEX
  8
2_FEATURE
 62
7
  6
CONTINUOUS
 10
55.085653414
 20
137.0570777694
  0
VERTEX
  8
2_FEATURE
 62
7
  6
CONTINUOUS
 10
55.0554609695
 20
137.045883747
  0
VERTEX
  8
2_FEATURE
 62
7
  6
CONTINUOUS
 10
55.0259734665
 20
137.0396902244
  0
VERTEX
  8
2_FEATURE
 62
7
  6
CONTINUOUS
 10
55.0032312476
 20
137.0382299599
  0
SEQEND
  0
LINE
  8
2_FEATURE
 62
7
  6
CONTINUOUS
 10
55.4968718074
 20
141.7718124935
 11
55.4932967564
 21
141.2272635928
  0
LINE
  8
2_FEATURE
 62
7
  6
CONTINUOUS
 10
55.216437197
 20
113.0626648396
 11
55.2201201441
 21
113.6166526522
  0
LINE
  8
2_FEATURE
 62
7
  6
CONTINUOUS
 10
55.5014121868
 20
142.2443692718
 11
55.4968718074
 21
141.7718124935
  0
LINE
  8
2_FEATURE
 62
7
  6
CONTINUOUS
 10
55.2117214706
 20
112.5802227117
 11
55.216437197
 21
113.0626648396
  0
LINE
  8
2_FEATURE
 62
7
  6
CONTINUOUS
 10
55.2063065483
 20
112.1695423618
 11
55.2117214706
 21
112.5802227117
  0
LINE
  8
2_FEATURE
 62
7
  6
CONTINUOUS
 10
55.507941631
 20
142.7353717185
 11
55.5014121868
 21
142.2443692718
  0
LINE
  8
2_FEATURE
 62
7
  6
CONTINUOUS
 10
55.1989923654
 20
111.7527351071
 11
55.2063065483
 21
112.1695423618
  0
LINE
  8
2_FEATURE
 62
7
  6
CONTINUOUS
 10
55.5149012652
 20
143.1220583563
 11
55.507941631
 21
142.7353717185
  0
LINE
  8
2_FEATURE
 62
7
  6
CONTINUOUS
 10
55.1929603231
 20
111.4888442638
 11
55.1989923654
 21
111.7527351071
  0
LINE
  8
2_FEATURE
 62
7
  6
CONTINUOUS
 10
55.5205798728
 20
143.3680949324
 11
55.5149012652
 21
143.1220583563
  0
LINE
  8
2_FEATURE
 62
7
  6
CONTINUOUS
 10
55.5248604124
 20
143.5215626671
 11
55.5205798728
 21
143.3680949324
  0
LINE
  8
2_FEATURE
 62
7
  6
CONTINUOUS
 10
55.1885347831
 20
111.3301802266
 11
55.1929603231
 21
111.4888442638
  0
LINE
  8
2_FEATURE
 62
7
  6
CONTINUOUS
 10
55.529099806
 20
143.6505198157
 11
55.5248604124
 21
143.5215626671
  0
LINE
  8
2_FEATURE
 62
7
  6
CONTINUOUS
 10
55.531878155
 20
143.7238688397
 11
55.529099806
 21
143.6505198157
  0
LINE
  8
2_FEATURE
 62
7
  6
CONTINUOUS
 10
55.5346080972
 20
143.7880079253
 11
55.531878155
 21
143.7238688397
  0
LINE
  8
2_FEATURE
 62
7
  6
CONTINUOUS
 10
55.537291575
 20
143.8438635427
 11
55.5346080972
 21
143.7880079253
  0
LINE
  8
2_FEATURE
 62
7
  6
CONTINUOUS
 10
55.5399396135
 20
143.8924080271
 11
55.537291575
 21
143.8438635427
  0
POLYLINE
  8
2_FEATURE
 62
7
  6
CONTINUOUS
 66
1
 70
0
  0
VERTEX
  8
2_FEATURE
 62
7
  6
CONTINUOUS
 10
61.8895344123
 20
110.968815421
  0
VERTEX
  8
2_FEATURE
 62
7
  6
CONTINUOUS
 10
61.8910878558
 20
110.9426744392
  0
VERTEX
  8
2_FEATURE
 62
7
  6
CONTINUOUS
 10
61.8926382952
 20
110.9186275297
  0
VERTEX
  8
2_FEATURE
 62
7
  6
CONTINUOUS
 10
61.8941891584
 20
110.8965305526
  0
VERTEX
  8
2_FEATURE
 62
7
  6
CONTINUOUS
 10
61.895748067
 20
110.8761978815
  0
VERTEX
  8
2_FEATURE
 62
7
  6
CONTINUOUS
 10
61.8973300935
 20
110.8573829577
  0
VERTEX
  8
2_FEATURE
 62
7
  6
CONTINUOUS
 10
61.8989577777
 20
110.8398105828
  0
VERTEX
  8
2_FEATURE
 62
7
  6
CONTINUOUS
 10
61.9006639162
 20
110.8231775084
  0
VERTEX
  8
2_FEATURE
 62
7
  6
CONTINUOUS
 10
61.9024962168
 20
110.8071456952
  0
VERTEX
  8
2_FEATURE
 62
7
  6
CONTINUOUS
 10
61.9045200657
 20
110.7913645279
  0
VERTEX
  8
2_FEATURE
 62
7
  6
CONTINUOUS
 10
61.9068329584
 20
110.7754172339
  0
VERTEX
  8
2_FEATURE
 62
7
  6
CONTINUOUS
 10
61.909586952
 20
110.7587741233
  0
VERTEX
  8
2_FEATURE
 62
7
  6
CONTINUOUS
 10
61.9130073146
 20
110.7408330238
  0
VERTEX
  8
2_FEATURE
 62
7
  6
CONTINUOUS
 10
61.9174375073
 20
110.7208730808
  0
VERTEX
  8
2_FEATURE
 62
7
  6
CONTINUOUS
 10
61.9233895263
 20
110.6980903278
  0
VERTEX
  8
2_FEATURE
 62
7
  6
CONTINUOUS
 10
61.931554355
 20
110.6718168766
  0
VERTEX
  8
2_FEATURE
 62
7
  6
CONTINUOUS
 10
61.9427390987
 20
110.641817131
  0
VERTEX
  8
2_FEATURE
 62
7
  6
CONTINUOUS
 10
61.9577755501
 20
110.6083846711
  0
VERTEX
  8
2_FEATURE
 62
7
  6
CONTINUOUS
 10
61.9775756143
 20
110.5720232395
  0
VERTEX
  8
2_FEATURE
 62
7
  6
CONTINUOUS
 10
62.0033763375
 20
110.5330902789
  0
VERTEX
  8
2_FEATURE
 62
7
  6
CONTINUOUS
 10
62.0363042912
 20
110.4926226975
  0
VERTEX
  8
2_FEATURE
 62
7
  6
CONTINUOUS
 10
62.0768716662
 20
110.4525413828
  0
VERTEX
  8
2_FEATURE
 62
7
  6
CONTINUOUS
 10
62.1249679423
 20
110.4150619065
  0
VERTEX
  8
2_FEATURE
 62
7
  6
CONTINUOUS
 10
62.1797931375
 20
110.3823758214
  0
VERTEX
  8
2_FEATURE
 62
7
  6
CONTINUOUS
 10
62.2399659708
 20
110.3563257332
  0
VERTEX
  8
2_FEATURE
 62
7
  6
CONTINUOUS
 10
62.3036843637
 20
110.338208066
  0
VERTEX
  8
2_FEATURE
 62
7
  6
CONTINUOUS
 10
62.3689143538
 20
110.3286760375
  0
VERTEX
  8
2_FEATURE
 62
7
  6
CONTINUOUS
 10
62.4086137034
 20
110.3271012932
  0
SEQEND
  0
LINE
  8
2_FEATURE
 62
7
  6
CONTINUOUS
 10
61.8864142663
 20
111.0278422775
 11
61.8895344123
 21
110.968815421
  0
LINE
  8
2_FEATURE
 62
7
  6
CONTINUOUS
 10
61.8832715153
 20
111.0966467744
 11
61.8864142663
 21
111.0278422775
  0
LINE
  8
2_FEATURE
 62
7
  6
CONTINUOUS
 10
61.8801064296
 20
111.1761323975
 11
61.8832715153
 21
111.0966467744
  0
LINE
  8
2_FEATURE
 62
7
  6
CONTINUOUS
 10
61.8753403915
 20
111.3169439357
 11
61.8801064296
 21
111.1761323975
  0
LINE
  8
2_FEATURE
 62
7
  6
CONTINUOUS
 10
61.8705952456
 20
111.4855107757
 11
61.8753403915
 21
111.3169439357
  0
LINE
  8
2_FEATURE
 62
7
  6
CONTINUOUS
 10
61.8643283644
 20
111.7600599921
 11
61.8705952456
 21
111.4855107757
  0
POLYLINE
  8
2_FEATURE
 62
7
  6
CONTINUOUS
 66
1
 70
0
  0
VERTEX
  8
2_FEATURE
 62
7
  6
CONTINUOUS
 10
61.8567314731
 20
112.1984512959
  0
VERTEX
  8
2_FEATURE
 62
7
  6
CONTINUOUS
 10
61.8582114533
 20
112.1016557048
  0
VERTEX
  8
2_FEATURE
 62
7
  6
CONTINUOUS
 10
61.8643283644
 20
111.7600599921
  0
SEQEND
  0
LINE
  8
2_FEATURE
 62
7
  6
CONTINUOUS
 10
61.5723532893
 20
140.6347803422
 11
61.5706823581
 21
141.122397751
  0
LINE
  8
2_FEATURE
 62
7
  6
CONTINUOUS
 10
61.5729312164
 20
140.1271012931
 11
61.5723532893
 21
140.6347803422
  0
LINE
  8
2_FEATURE
 62
7
  6
CONTINUOUS
 10
61.5729312173
 20
138.2789070521
 11
61.5729312173
 21
140.1271012931
  0
POLYLINE
  8
2_FEATURE
 62
7
  6
CONTINUOUS
 66
1
 70
0
  0
VERTEX
  8
2_FEATURE
 62
7
  6
CONTINUOUS
 10
61.5239354194
 20
143.8853870945
  0
VERTEX
  8
2_FEATURE
 62
7
  6
CONTINUOUS
 10
61.5223819752
 20
143.9115280947
  0
VERTEX
  8
2_FEATURE
 62
7
  6
CONTINUOUS
 10
61.5208315357
 20
143.9355750037
  0
VERTEX
  8
2_FEATURE
 62
7
  6
CONTINUOUS
 10
61.5192806739
 20
143.957671966
  0
VERTEX
  8
2_FEATURE
 62
7
  6
CONTINUOUS
 10
61.5177217655
 20
143.978004647
  0
VERTEX
  8
2_FEATURE
 62
7
  6
CONTINUOUS
 10
61.5161397376
 20
143.9968195905
  0
VERTEX
  8
2_FEATURE
 62
7
  6
CONTINUOUS
 10
61.5145120536
 20
144.0143919628
  0
VERTEX
  8
2_FEATURE
 62
7
  6
CONTINUOUS
 10
61.5128059186
 20
144.0310250078
  0
VERTEX
  8
2_FEATURE
 62
7
  6
CONTINUOUS
 10
61.510973621
 20
144.0470568099
  0
VERTEX
  8
2_FEATURE
 62
7
  6
CONTINUOUS
 10
61.5089497672
 20
144.0628380232
  0
VERTEX
  8
2_FEATURE
 62
7
  6
CONTINUOUS
 10
61.5066368715
 20
144.0787853368
  0
VERTEX
  8
2_FEATURE
 62
7
  6
CONTINUOUS
 10
61.5038828808
 20
144.0954284294
  0
VERTEX
  8
2_FEATURE
 62
7
  6
CONTINUOUS
 10
61.500462537
 20
144.1133694416
  0
VERTEX
  8
2_FEATURE
 62
7
  6
CONTINUOUS
 10
61.4960323801
 20
144.1333292571
  0
VERTEX
  8
2_FEATURE
 62
7
  6
CONTINUOUS
 10
61.4900803463
 20
144.1561121035
  0
VERTEX
  8
2_FEATURE
 62
7
  6
CONTINUOUS
 10
61.4819155027
 20
144.1823856244
  0
VERTEX
  8
2_FEATURE
 62
7
  6
CONTINUOUS
 10
61.4707307449
 20
144.2123854173
  0
VERTEX
  8
2_FEATURE
 62
7
  6
CONTINUOUS
 10
61.4556942772
 20
144.245817915
  0
VERTEX
  8
2_FEATURE
 62
7
  6
CONTINUOUS
 10
61.4358941886
 20
144.2821793857
  0
VERTEX
  8
2_FEATURE
 62
7
  6
CONTINUOUS
 10
61.4100934325
 20
144.3211123826
  0
VERTEX
  8
2_FEATURE
 62
7
  6
CONTINUOUS
 10
61.3771654341
 20
144.3615799978
  0
VERTEX
  8
2_FEATURE
 62
7
  6
CONTINUOUS
 10
61.3365979872
 20
144.4016613527
  0
VERTEX
  8
2_FEATURE
 62
7
  6
CONTINUOUS
 10
61.2885016102
 20
144.4391408642
  0
VERTEX
  8
2_FEATURE
 62
7
  6
CONTINUOUS
 10
61.2336763122
 20
144.471826955
  0
VERTEX
  8
2_FEATURE
 62
7
  6
CONTINUOUS
 10
61.1735034135
 20
144.4978770084
  0
VERTEX
  8
2_FEATURE
 62
7
  6
CONTINUOUS
 10
61.109785036
 20
144.5159946098
  0
VERTEX
  8
2_FEATURE
 62
7
  6
CONTINUOUS
 10
61.0445551835
 20
144.5255265709
  0
VERTEX
  8
2_FEATURE
 62
7
  6
CONTINUOUS
 10
61.0048561043
 20
144.527101293
  0
SEQEND
  0
LINE
  8
2_FEATURE
 62
7
  6
CONTINUOUS
 10
61.5270555644
 20
143.8263602479
 11
61.5239354194
 21
143.8853870945
  0
LINE
  8
2_FEATURE
 62
7
  6
CONTINUOUS
 10
61.5301983152
 20
143.7575557375
 11
61.5270555644
 21
143.8263602479
  0
LINE
  8
2_FEATURE
 62
7
  6
CONTINUOUS
 10
61.5333634008
 20
143.6780701189
 11
61.5301983152
 21
143.7575557375
  0
LINE
  8
2_FEATURE
 62
7
  6
CONTINUOUS
 10
61.5381294385
 20
143.5372585782
 11
61.5333634008
 21
143.6780701189
  0
LINE
  8
2_FEATURE
 62
7
  6
CONTINUOUS
 10
61.5428745839
 20
143.368691736
 11
61.5381294385
 21
143.5372585782
  0
LINE
  8
2_FEATURE
 62
7
  6
CONTINUOUS
 10
61.5491414646
 20
143.0941425259
 11
61.5428745839
 21
143.368691736
  0
LINE
  8
2_FEATURE
 62
7
  6
CONTINUOUS
 10
61.5552583751
 20
142.7525468276
 11
61.5491414646
 21
143.0941425259
  0
LINE
  8
2_FEATURE
 62
7
  6
CONTINUOUS
 10
61.5609821609
 20
142.3371167156
 11
61.5552583751
 21
142.7525468276
  0
LINE
  8
2_FEATURE
 62
7
  6
CONTINUOUS
 10
61.8511557118
 20
112.6328242952
 11
61.8567314731
 21
112.1984512959
  0
LINE
  8
2_FEATURE
 62
7
  6
CONTINUOUS
 10
61.5648226337
 20
141.9754168523
 11
61.5609821609
 21
142.3371167156
  0
LINE
  8
2_FEATURE
 62
7
  6
CONTINUOUS
 10
61.8474817946
 20
113.0090343001
 11
61.8511557118
 21
112.6328242952
  0
LINE
  8
2_FEATURE
 62
7
  6
CONTINUOUS
 10
61.5681114205
 20
141.5702020104
 11
61.5648226337
 21
141.9754168523
  0
LINE
  8
2_FEATURE
 62
7
  6
CONTINUOUS
 10
61.8444129637
 20
113.4286323406
 11
61.8474817946
 21
113.0090343001
  0
LINE
  8
2_FEATURE
 62
7
  6
CONTINUOUS
 10
61.5706823581
 20
141.122397751
 11
61.5681114205
 21
141.5702020104
  0
LINE
  8
2_FEATURE
 62
7
  6
CONTINUOUS
 10
61.8421211204
 20
113.8901158996
 11
61.8444129637
 21
113.4286323406
  0
LINE
  8
2_FEATURE
 62
7
  6
CONTINUOUS
 10
61.8407927775
 20
114.3900246003
 11
61.8421211204
 21
113.8901158996
  0
LINE
  8
2_FEATURE
 62
7
  6
CONTINUOUS
 10
61.8405386103
 20
116.5752955341
 11
61.8407927775
 21
114.3900246003
  0
POLYLINE
  8
2_FEATURE
 62
7
  6
CONTINUOUS
 66
1
 70
0
  0
VERTEX
  8
2_FEATURE
 62
7
  6
CONTINUOUS
 10
92.7548561214
 20
110.3271012932
  0
VERTEX
  8
2_FEATURE
 62
7
  6
CONTINUOUS
 10
92.7955339475
 20
110.3287547503
  0
VERTEX
  8
2_FEATURE
 62
7
  6
CONTINUOUS
 10
92.8607811323
 20
110.3384222903
  0
VERTEX
  8
2_FEATURE
 62
7
  6
CONTINUOUS
 10
92.9238415329
 20
110.3564465123
  0
VERTEX
  8
2_FEATURE
 62
7
  6
CONTINUOUS
 10
92.983011483
 20
110.3820352158
  0
VERTEX
  8
2_FEATURE
 62
7
  6
CONTINUOUS
 10
93.0368136566
 20
110.4139089109
  0
VERTEX
  8
2_FEATURE
 62
7
  6
CONTINUOUS
 10
93.0841347674
 20
110.4503833812
  0
VERTEX
  8
2_FEATURE
 62
7
  6
CONTINUOUS
 10
93.1243450766
 20
110.489527068
  0
VERTEX
  8
2_FEATURE
 62
7
  6
CONTINUOUS
 10
93.1573657527
 20
110.5293951232
  0
VERTEX
  8
2_FEATURE
 62
7
  6
CONTINUOUS
 10
93.1836016664
 20
110.5682295928
  0
VERTEX
  8
2_FEATURE
 62
7
  6
CONTINUOUS
 10
93.2038404085
 20
110.604663716
  0
VERTEX
  8
2_FEATURE
 62
7
  6
CONTINUOUS
 10
93.2190664504
 20
110.6377854636
  0
VERTEX
  8
2_FEATURE
 62
7
  6
CONTINUOUS
 10
93.2303351886
 20
110.6672215807
  0
VERTEX
  8
2_FEATURE
 62
7
  6
CONTINUOUS
 10
93.2387120089
 20
110.6933445223
  0
VERTEX
  8
2_FEATURE
 62
7
  6
CONTINUOUS
 10
93.2450347979
 20
110.7167755092
  0
VERTEX
  8
2_FEATURE
 62
7
  6
CONTINUOUS
 10
93.2498212878
 20
110.7377416757
  0
VERTEX
  8
2_FEATURE
 62
7
  6
CONTINUOUS
 10
93.2534601538
 20
110.7564091048
  0
VERTEX
  8
2_FEATURE
 62
7
  6
CONTINUOUS
 10
93.2563140625
 20
110.773345282
  0
VERTEX
  8
2_FEATURE
 62
7
  6
CONTINUOUS
 10
93.2586647752
 20
110.7892873653
  0
VERTEX
  8
2_FEATURE
 62
7
  6
CONTINUOUS
 10
93.2606890311
 20
110.8048112121
  0
VERTEX
  8
2_FEATURE
 62
7
  6
CONTINUOUS
 10
93.2624966021
 20
110.820344137
  0
VERTEX
  8
2_FEATURE
 62
7
  6
CONTINUOUS
 10
93.2641570944
 20
110.8362051477
  0
VERTEX
  8
2_FEATURE
 62
7
  6
CONTINUOUS
 10
93.2657240643
 20
110.8527286665
  0
VERTEX
  8
2_FEATURE
 62
7
  6
CONTINUOUS
 10
93.2672369461
 20
110.8702425697
  0
VERTEX
  8
2_FEATURE
 62
7
  6
CONTINUOUS
 10
93.2687233043
 20
110.8890496634
  0
VERTEX
  8
2_FEATURE
 62
7
  6
CONTINUOUS
 10
93.2702030013
 20
110.9094413154
  0
VERTEX
  8
2_FEATURE
 62
7
  6
CONTINUOUS
 10
93.2716873051
 20
110.9316529175
  0
VERTEX
  8
2_FEATURE
 62
7
  6
CONTINUOUS
 10
93.2731785548
 20
110.9558178766
  0
VERTEX
  8
2_FEATURE
 62
7
  6
CONTINUOUS
 10
93.2746768327
 20
110.9820384473
  0
VERTEX
  8
2_FEATURE
 62
7
  6
CONTINUOUS
 10
93.2776910436
 20
111.0409763836
  0
SEQEND
  0
POLYLINE
  8
2_FEATURE
 62
7
  6
CONTINUOUS
 66
1
 70
0
  0
VERTEX
  8
2_FEATURE
 62
7
  6
CONTINUOUS
 10
80.0548561214
 20
110.3271012932
  0
VERTEX
  8
2_FEATURE
 62
7
  6
CONTINUOUS
 10
80.0955339475
 20
110.3287547503
  0
VERTEX
  8
2_FEATURE
 62
7
  6
CONTINUOUS
 10
80.1607811323
 20
110.3384222903
  0
VERTEX
  8
2_FEATURE
 62
7
  6
CONTINUOUS
 10
80.2238415329
 20
110.3564465123
  0
VERTEX
  8
2_FEATURE
 62
7
  6
CONTINUOUS
 10
80.283011483
 20
110.3820352158
  0
VERTEX
  8
2_FEATURE
 62
7
  6
CONTINUOUS
 10
80.3368136566
 20
110.4139089109
  0
VERTEX
  8
2_FEATURE
 62
7
  6
CONTINUOUS
 10
80.3841347674
 20
110.4503833812
  0
VERTEX
  8
2_FEATURE
 62
7
  6
CONTINUOUS
 10
80.4243450766
 20
110.489527068
  0
VERTEX
  8
2_FEATURE
 62
7
  6
CONTINUOUS
 10
80.4573657527
 20
110.5293951232
  0
VERTEX
  8
2_FEATURE
 62
7
  6
CONTINUOUS
 10
80.4836016664
 20
110.5682295928
  0
VERTEX
  8
2_FEATURE
 62
7
  6
CONTINUOUS
 10
80.5038404085
 20
110.604663716
  0
VERTEX
  8
2_FEATURE
 62
7
  6
CONTINUOUS
 10
80.5190664504
 20
110.6377854636
  0
VERTEX
  8
2_FEATURE
 62
7
  6
CONTINUOUS
 10
80.5303351886
 20
110.6672215807
  0
VERTEX
  8
2_FEATURE
 62
7
  6
CONTINUOUS
 10
80.5387120089
 20
110.6933445223
  0
VERTEX
  8
2_FEATURE
 62
7
  6
CONTINUOUS
 10
80.5450347979
 20
110.7167755092
  0
VERTEX
  8
2_FEATURE
 62
7
  6
CONTINUOUS
 10
80.5498212878
 20
110.7377416757
  0
VERTEX
  8
2_FEATURE
 62
7
  6
CONTINUOUS
 10
80.5534601538
 20
110.7564091048
  0
VERTEX
  8
2_FEATURE
 62
7
  6
CONTINUOUS
 10
80.5563140625
 20
110.773345282
  0
VERTEX
  8
2_FEATURE
 62
7
  6
CONTINUOUS
 10
80.5586647752
 20
110.7892873653
  0
VERTEX
  8
2_FEATURE
 62
7
  6
CONTINUOUS
 10
80.5606890311
 20
110.8048112121
  0
VERTEX
  8
2_FEATURE
 62
7
  6
CONTINUOUS
 10
80.5624966021
 20
110.820344137
  0
VERTEX
  8
2_FEATURE
 62
7
  6
CONTINUOUS
 10
80.5641570944
 20
110.8362051477
  0
VERTEX
  8
2_FEATURE
 62
7
  6
CONTINUOUS
 10
80.5657240643
 20
110.8527286665
  0
VERTEX
  8
2_FEATURE
 62
7
  6
CONTINUOUS
 10
80.5672369461
 20
110.8702425697
  0
VERTEX
  8
2_FEATURE
 62
7
  6
CONTINUOUS
 10
80.5687233043
 20
110.8890496634
  0
VERTEX
  8
2_FEATURE
 62
7
  6
CONTINUOUS
 10
80.5702030013
 20
110.9094413154
  0
VERTEX
  8
2_FEATURE
 62
7
  6
CONTINUOUS
 10
80.5716873051
 20
110.9316529175
  0
VERTEX
  8
2_FEATURE
 62
7
  6
CONTINUOUS
 10
80.5731785548
 20
110.9558178766
  0
VERTEX
  8
2_FEATURE
 62
7
  6
CONTINUOUS
 10
80.5761809977
 20
111.0103926846
  0
SEQEND
  0
POLYLINE
  8
2_FEATURE
 62
7
  6
CONTINUOUS
 66
1
 70
0
  0
VERTEX
  8
2_FEATURE
 62
7
  6
CONTINUOUS
 10
105.4548561257
 20
110.3271012932
  0
VERTEX
  8
2_FEATURE
 62
7
  6
CONTINUOUS
 10
105.4952528349
 20
110.3287319389
  0
VERTEX
  8
2_FEATURE
 62
7
  6
CONTINUOUS
 10
105.5602304124
 20
110.3383035379
  0
VERTEX
  8
2_FEATURE
 62
7
  6
CONTINUOUS
 10
105.6230554141
 20
110.3561657562
  0
VERTEX
  8
2_FEATURE
 62
7
  6
CONTINUOUS
 10
105.6820431431
 20
110.3815416295
  0
VERTEX
  8
2_FEATURE
 62
7
  6
CONTINUOUS
 10
105.7357309113
 20
110.4131747261
  0
VERTEX
  8
2_FEATURE
 62
7
  6
CONTINUOUS
 10
105.7830106213
 20
110.4494079708
  0
VERTEX
  8
2_FEATURE
 62
7
  6
CONTINUOUS
 10
105.8232486463
 20
110.4883375065
  0
VERTEX
  8
2_FEATURE
 62
7
  6
CONTINUOUS
 10
105.8563530762
 20
110.5280409836
  0
VERTEX
  8
2_FEATURE
 62
7
  6
CONTINUOUS
 10
105.8827114573
 20
110.5667763817
  0
VERTEX
  8
2_FEATURE
 62
7
  6
CONTINUOUS
 10
105.9030887446
 20
110.6031762353
  0
VERTEX
  8
2_FEATURE
 62
7
  6
CONTINUOUS
 10
105.9184486615
 20
110.6363128224
  0
VERTEX
  8
2_FEATURE
 62
7
  6
CONTINUOUS
 10
105.9298333571
 20
110.6657901712
  0
VERTEX
  8
2_FEATURE
 62
7
  6
CONTINUOUS
 10
105.9383046945
 20
110.6919617375
  0
VERTEX
  8
2_FEATURE
 62
7
  6
CONTINUOUS
 10
105.9447073516
 20
110.7154577046
  0
VERTEX
  8
2_FEATURE
 62
7
  6
CONTINUOUS
 10
105.9495584472
 20
110.7364962986
  0
VERTEX
  8
2_FEATURE
 62
7
  6
CONTINUOUS
 10
105.9532362389
 20
110.7551746946
  0
VERTEX
  8
2_FEATURE
 62
7
  6
CONTINUOUS
 10
105.9561022001
 20
110.7720041509
  0
VERTEX
  8
2_FEATURE
 62
7
  6
CONTINUOUS
 10
105.9584466471
 20
110.7877199836
  0
VERTEX
  8
2_FEATURE
 62
7
  6
CONTINUOUS
 10
105.9604525031
 20
110.8029008422
  0
VERTEX
  8
2_FEATURE
 62
7
  6
CONTINUOUS
 10
105.96223297
 20
110.8179711402
  0
VERTEX
  8
2_FEATURE
 62
7
  6
CONTINUOUS
 10
105.9638588062
 20
110.8332354599
  0
VERTEX
  8
2_FEATURE
 62
7
  6
CONTINUOUS
 10
105.9653753625
 20
110.8489137288
  0
VERTEX
  8
2_FEATURE
 62
7
  6
CONTINUOUS
 10
105.9668141738
 20
110.8651873327
  0
VERTEX
  8
2_FEATURE
 62
7
  6
CONTINUOUS
 10
105.9682014684
 20
110.8822599884
  0
VERTEX
  8
2_FEATURE
 62
7
  6
CONTINUOUS
 10
105.9695553278
 20
110.9003053279
  0
VERTEX
  8
2_FEATURE
 62
7
  6
CONTINUOUS
 10
105.9708886858
 20
110.9194787052
  0
VERTEX
  8
2_FEATURE
 62
7
  6
CONTINUOUS
 10
105.9722112264
 20
110.9399277069
  0
VERTEX
  8
2_FEATURE
 62
7
  6
CONTINUOUS
 10
105.9748511639
 20
110.9852190752
  0
SEQEND
  0
LINE
  8
2_FEATURE
 62
7
  6
CONTINUOUS
 10
49.7086133634
 20
110.3271012931
 11
54.6548564642
 21
110.3271012931
  0
LINE
  8
2_FEATURE
 62
7
  6
CONTINUOUS
 10
62.4086133634
 20
110.3271012931
 11
67.3548564642
 21
110.3271012931
  0
LINE
  8
2_FEATURE
 62
7
  6
CONTINUOUS
 10
75.1086133634
 20
110.3271012931
 11
80.0548564642
 21
110.3271012931
  0
LINE
  8
2_FEATURE
 62
7
  6
CONTINUOUS
 10
87.8086133634
 20
110.3271012931
 11
92.7548564642
 21
110.3271012931
  0
LINE
  8
2_FEATURE
 62
7
  6
CONTINUOUS
 10
100.5086133634
 20
110.3271012931
 11
105.4548568997
 21
110.3271012931
  0
LINE
  8
2_FEATURE
 62
7
  6
CONTINUOUS
 10
113.2086133634
 20
110.3271012931
 11
118.2717349138
 21
110.3271012931
  0
POLYLINE
  8
2_FEATURE
 62
7
  6
CONTINUOUS
 66
1
 70
0
  0
VERTEX
  8
2_FEATURE
 62
7
  6
CONTINUOUS
 10
67.3548561214
 20
110.3271012932
  0
VERTEX
  8
2_FEATURE
 62
7
  6
CONTINUOUS
 10
67.3955339475
 20
110.3287547503
  0
VERTEX
  8
2_FEATURE
 62
7
  6
CONTINUOUS
 10
67.4607811323
 20
110.3384222903
  0
VERTEX
  8
2_FEATURE
 62
7
  6
CONTINUOUS
 10
67.5238415329
 20
110.3564465123
  0
VERTEX
  8
2_FEATURE
 62
7
  6
CONTINUOUS
 10
67.583011483
 20
110.3820352158
  0
VERTEX
  8
2_FEATURE
 62
7
  6
CONTINUOUS
 10
67.6368136566
 20
110.4139089109
  0
VERTEX
  8
2_FEATURE
 62
7
  6
CONTINUOUS
 10
67.6841347674
 20
110.4503833812
  0
VERTEX
  8
2_FEATURE
 62
7
  6
CONTINUOUS
 10
67.7243450766
 20
110.489527068
  0
VERTEX
  8
2_FEATURE
 62
7
  6
CONTINUOUS
 10
67.7573657527
 20
110.5293951232
  0
VERTEX
  8
2_FEATURE
 62
7
  6
CONTINUOUS
 10
67.7836016664
 20
110.5682295928
  0
VERTEX
  8
2_FEATURE
 62
7
  6
CONTINUOUS
 10
67.8038404085
 20
110.604663716
  0
VERTEX
  8
2_FEATURE
 62
7
  6
CONTINUOUS
 10
67.8190664504
 20
110.6377854636
  0
VERTEX
  8
2_FEATURE
 62
7
  6
CONTINUOUS
 10
67.8303351886
 20
110.6672215807
  0
VERTEX
  8
2_FEATURE
 62
7
  6
CONTINUOUS
 10
67.8387120089
 20
110.6933445223
  0
VERTEX
  8
2_FEATURE
 62
7
  6
CONTINUOUS
 10
67.8450347979
 20
110.7167755092
  0
VERTEX
  8
2_FEATURE
 62
7
  6
CONTINUOUS
 10
67.8498212878
 20
110.7377416757
  0
VERTEX
  8
2_FEATURE
 62
7
  6
CONTINUOUS
 10
67.8534601538
 20
110.7564091048
  0
VERTEX
  8
2_FEATURE
 62
7
  6
CONTINUOUS
 10
67.8563140625
 20
110.773345282
  0
VERTEX
  8
2_FEATURE
 62
7
  6
CONTINUOUS
 10
67.8586647752
 20
110.7892873653
  0
VERTEX
  8
2_FEATURE
 62
7
  6
CONTINUOUS
 10
67.8606890311
 20
110.8048112121
  0
VERTEX
  8
2_FEATURE
 62
7
  6
CONTINUOUS
 10
67.8624966021
 20
110.820344137
  0
VERTEX
  8
2_FEATURE
 62
7
  6
CONTINUOUS
 10
67.8641570944
 20
110.8362051477
  0
VERTEX
  8
2_FEATURE
 62
7
  6
CONTINUOUS
 10
67.8657240643
 20
110.8527286665
  0
VERTEX
  8
2_FEATURE
 62
7
  6
CONTINUOUS
 10
67.8672369461
 20
110.8702425697
  0
VERTEX
  8
2_FEATURE
 62
7
  6
CONTINUOUS
 10
67.8687233043
 20
110.8890496634
  0
VERTEX
  8
2_FEATURE
 62
7
  6
CONTINUOUS
 10
67.8702030013
 20
110.9094413154
  0
VERTEX
  8
2_FEATURE
 62
7
  6
CONTINUOUS
 10
67.8716873051
 20
110.9316529175
  0
VERTEX
  8
2_FEATURE
 62
7
  6
CONTINUOUS
 10
67.8731785548
 20
110.9558178766
  0
VERTEX
  8
2_FEATURE
 62
7
  6
CONTINUOUS
 10
67.8746768327
 20
110.9820384473
  0
VERTEX
  8
2_FEATURE
 62
7
  6
CONTINUOUS
 10
67.8776910436
 20
111.0409763836
  0
SEQEND
  0
POLYLINE
  8
2_FEATURE
 62
7
  6
CONTINUOUS
 66
1
 70
0
  0
VERTEX
  8
2_FEATURE
 62
7
  6
CONTINUOUS
 10
54.6548561214
 20
110.3271012932
  0
VERTEX
  8
2_FEATURE
 62
7
  6
CONTINUOUS
 10
54.6955339475
 20
110.3287547503
  0
VERTEX
  8
2_FEATURE
 62
7
  6
CONTINUOUS
 10
54.7607811323
 20
110.3384222903
  0
VERTEX
  8
2_FEATURE
 62
7
  6
CONTINUOUS
 10
54.7716856701
 20
110.3409077128
  0
SEQEND
  0
LINE
  8
2_FEATURE
 62
7
  6
CONTINUOUS
 10
67.9223936595
 20
114.2374023113
 11
67.9229312173
 21
116.5752955418
  0
LINE
  8
2_FEATURE
 62
7
  6
CONTINUOUS
 10
68.191076169
 20
140.616800647
 11
68.1905386103
 21
138.2789070444
  0
LINE
  8
2_FEATURE
 62
7
  6
CONTINUOUS
 10
67.9201201441
 20
113.6166526522
 11
67.9223936595
 21
114.2374023113
  0
LINE
  8
2_FEATURE
 62
7
  6
CONTINUOUS
 10
68.193349684
 20
141.2375500227
 11
68.191076169
 21
140.616800647
  0
POLYLINE
  8
2_FEATURE
 62
7
  6
CONTINUOUS
 66
1
 70
0
  0
VERTEX
  8
2_FEATURE
 62
7
  6
CONTINUOUS
 10
67.9229304487
 20
116.5752955418
  0
VERTEX
  8
2_FEATURE
 62
7
  6
CONTINUOUS
 10
67.9231768347
 20
116.6238837993
  0
VERTEX
  8
2_FEATURE
 62
7
  6
CONTINUOUS
 10
67.9242868805
 20
116.6872612474
  0
VERTEX
  8
2_FEATURE
 62
7
  6
CONTINUOUS
 10
67.9263363208
 20
116.7497153741
  0
VERTEX
  8
2_FEATURE
 62
7
  6
CONTINUOUS
 10
67.929372849
 20
116.8112197933
  0
VERTEX
  8
2_FEATURE
 62
7
  6
CONTINUOUS
 10
67.9334451385
 20
116.8717352135
  0
VERTEX
  8
2_FEATURE
 62
7
  6
CONTINUOUS
 10
67.9385976473
 20
116.9312131835
  0
VERTEX
  8
2_FEATURE
 62
7
  6
CONTINUOUS
 10
67.9448683827
 20
116.9895976621
  0
VERTEX
  8
2_FEATURE
 62
7
  6
CONTINUOUS
 10
67.9522910929
 20
117.0468156765
  0
VERTEX
  8
2_FEATURE
 62
7
  6
CONTINUOUS
 10
67.9608922828
 20
117.1027605715
  0
VERTEX
  8
2_FEATURE
 62
7
  6
CONTINUOUS
 10
67.9707064943
 20
117.1574241288
  0
VERTEX
  8
2_FEATURE
 62
7
  6
CONTINUOUS
 10
67.9817700627
 20
117.2107973724
  0
VERTEX
  8
2_FEATURE
 62
7
  6
CONTINUOUS
 10
67.9941186521
 20
117.2628354264
  0
VERTEX
  8
2_FEATURE
 62
7
  6
CONTINUOUS
 10
68.0077804611
 20
117.3134691694
  0
VERTEX
  8
2_FEATURE
 62
7
  6
CONTINUOUS
 10
68.022774257
 20
117.3626018422
  0
VERTEX
  8
2_FEATURE
 62
7
  6
CONTINUOUS
 10
68.0391067467
 20
117.4101022842
  0
VERTEX
  8
2_FEATURE
 62
7
  6
CONTINUOUS
 10
68.0567681166
 20
117.4558218633
  0
VERTEX
  8
2_FEATURE
 62
7
  6
CONTINUOUS
 10
68.0757517352
 20
117.4996385351
  0
VERTEX
  8
2_FEATURE
 62
7
  6
CONTINUOUS
 10
68.0960447729
 20
117.5414247595
  0
VERTEX
  8
2_FEATURE
 62
7
  6
CONTINUOUS
 10
68.1175881158
 20
117.5809792237
  0
VERTEX
  8
2_FEATURE
 62
7
  6
CONTINUOUS
 10
68.140251924
 20
117.6180220655
  0
VERTEX
  8
2_FEATURE
 62
7
  6
CONTINUOUS
 10
68.163955603
 20
117.6524084601
  0
VERTEX
  8
2_FEATURE
 62
7
  6
CONTINUOUS
 10
68.1887834881
 20
117.6842050922
  0
VERTEX
  8
2_FEATURE
 62
7
  6
CONTINUOUS
 10
68.2147377061
 20
117.7132946501
  0
VERTEX
  8
2_FEATURE
 62
7
  6
CONTINUOUS
 10
68.2416943763
 20
117.7393929102
  0
VERTEX
  8
2_FEATURE
 62
7
  6
CONTINUOUS
 10
68.2695485815
 20
117.7622414264
  0
VERTEX
  8
2_FEATURE
 62
7
  6
CONTINUOUS
 10
68.2983298866
 20
117.7816353514
  0
VERTEX
  8
2_FEATURE
 62
7
  6
CONTINUOUS
 10
68.3278164135
 20
117.7971248168
  0
VERTEX
  8
2_FEATURE
 62
7
  6
CONTINUOUS
 10
68.3580088581
 20
117.8083188392
  0
VERTEX
  8
2_FEATURE
 62
7
  6
CONTINUOUS
 10
68.3874963611
 20
117.8145123618
  0
VERTEX
  8
2_FEATURE
 62
7
  6
CONTINUOUS
 10
68.4102385799
 20
117.8159726263
  0
SEQEND
  0
POLYLINE
  8
2_FEATURE
 62
7
  6
CONTINUOUS
 66
1
 70
0
  0
VERTEX
  8
2_FEATURE
 62
7
  6
CONTINUOUS
 10
68.1905393789
 20
138.2789070444
  0
VERTEX
  8
2_FEATURE
 62
7
  6
CONTINUOUS
 10
68.1902929929
 20
138.2303187869
  0
VERTEX
  8
2_FEATURE
 62
7
  6
CONTINUOUS
 10
68.1891829471
 20
138.1669413389
  0
VERTEX
  8
2_FEATURE
 62
7
  6
CONTINUOUS
 10
68.1871335068
 20
138.1044872121
  0
VERTEX
  8
2_FEATURE
 62
7
  6
CONTINUOUS
 10
68.1840969786
 20
138.0429827929
  0
VERTEX
  8
2_FEATURE
 62
7
  6
CONTINUOUS
 10
68.1800246891
 20
137.9824673727
  0
VERTEX
  8
2_FEATURE
 62
7
  6
CONTINUOUS
 10
68.1748721803
 20
137.9229894027
  0
VERTEX
  8
2_FEATURE
 62
7
  6
CONTINUOUS
 10
68.1686014449
 20
137.8646049242
  0
VERTEX
  8
2_FEATURE
 62
7
  6
CONTINUOUS
 10
68.1611787347
 20
137.8073869097
  0
VERTEX
  8
2_FEATURE
 62
7
  6
CONTINUOUS
 10
68.1525775448
 20
137.7514420147
  0
VERTEX
  8
2_FEATURE
 62
7
  6
CONTINUOUS
 10
68.1427633333
 20
137.6967784574
  0
VERTEX
  8
2_FEATURE
 62
7
  6
CONTINUOUS
 10
68.1316997649
 20
137.6434052138
  0
VERTEX
  8
2_FEATURE
 62
7
  6
CONTINUOUS
 10
68.1193511755
 20
137.5913671598
  0
VERTEX
  8
2_FEATURE
 62
7
  6
CONTINUOUS
 10
68.1056893665
 20
137.5407334168
  0
VERTEX
  8
2_FEATURE
 62
7
  6
CONTINUOUS
 10
68.0906955706
 20
137.491600744
  0
VERTEX
  8
2_FEATURE
 62
7
  6
CONTINUOUS
 10
68.0743630809
 20
137.444100302
  0
VERTEX
  8
2_FEATURE
 62
7
  6
CONTINUOUS
 10
68.056701711
 20
137.3983807229
  0
VERTEX
  8
2_FEATURE
 62
7
  6
CONTINUOUS
 10
68.0377180923
 20
137.3545640511
  0
VERTEX
  8
2_FEATURE
 62
7
  6
CONTINUOUS
 10
68.0174250547
 20
137.3127778267
  0
VERTEX
  8
2_FEATURE
 62
7
  6
CONTINUOUS
 10
67.9958817117
 20
137.2732233625
  0
VERTEX
  8
2_FEATURE
 62
7
  6
CONTINUOUS
 10
67.9732179035
 20
137.2361805207
  0
VERTEX
  8
2_FEATURE
 62
7
  6
CONTINUOUS
 10
67.9495142246
 20
137.2017941261
  0
VERTEX
  8
2_FEATURE
 62
7
  6
CONTINUOUS
 10
67.9246863395
 20
137.169997494
  0
VERTEX
  8
2_FEATURE
 62
7
  6
CONTINUOUS
 10
67.8987321214
 20
137.1409079361
  0
VERTEX
  8
2_FEATURE
 62
7
  6
CONTINUOUS
 10
67.8717754513
 20
137.1148096761
  0
VERTEX
  8
2_FEATURE
 62
7
  6
CONTINUOUS
 10
67.8439212461
 20
137.0919611598
  0
VERTEX
  8
2_FEATURE
 62
7
  6
CONTINUOUS
 10
67.815139941
 20
137.0725672348
  0
VERTEX
  8
2_FEATURE
 62
7
  6
CONTINUOUS
 10
67.785653414
 20
137.0570777694
  0
VERTEX
  8
2_FEATURE
 62
7
  6
CONTINUOUS
 10
67.7554609695
 20
137.045883747
  0
VERTEX
  8
2_FEATURE
 62
7
  6
CONTINUOUS
 10
67.7259734665
 20
137.0396902244
  0
VERTEX
  8
2_FEATURE
 62
7
  6
CONTINUOUS
 10
67.7032312476
 20
137.0382299599
  0
SEQEND
  0
LINE
  8
2_FEATURE
 62
7
  6
CONTINUOUS
 10
67.916437197
 20
113.0626648396
 11
67.9201201441
 21
113.6166526522
  0
LINE
  8
2_FEATURE
 62
7
  6
CONTINUOUS
 10
68.1970326313
 20
141.7915378286
 11
68.193349684
 21
141.2375500227
  0
LINE
  8
2_FEATURE
 62
7
  6
CONTINUOUS
 10
68.2017483581
 20
142.2739799616
 11
68.1970326313
 21
141.7915378286
  0
LINE
  8
2_FEATURE
 62
7
  6
CONTINUOUS
 10
67.9117214706
 20
112.5802227117
 11
67.916437197
 21
113.0626648396
  0
LINE
  8
2_FEATURE
 62
7
  6
CONTINUOUS
 10
68.207163281
 20
142.6846603374
 11
68.2017483581
 21
142.2739799616
  0
LINE
  8
2_FEATURE
 62
7
  6
CONTINUOUS
 10
67.9063065483
 20
112.1695423618
 11
67.9117214706
 21
112.5802227117
  0
LINE
  8
2_FEATURE
 62
7
  6
CONTINUOUS
 10
68.2144774649
 20
143.101467609
 11
68.207163281
 21
142.6846603374
  0
LINE
  8
2_FEATURE
 62
7
  6
CONTINUOUS
 10
67.8989923654
 20
111.7527351071
 11
67.9063065483
 21
112.1695423618
  0
LINE
  8
2_FEATURE
 62
7
  6
CONTINUOUS
 10
68.2205095072
 20
143.3653584299
 11
68.2144774649
 21
143.101467609
  0
LINE
  8
2_FEATURE
 62
7
  6
CONTINUOUS
 10
67.8929603231
 20
111.4888442638
 11
67.8989923654
 21
111.7527351071
  0
LINE
  8
2_FEATURE
 62
7
  6
CONTINUOUS
 10
68.2250817099
 20
143.5288355327
 11
68.2205095072
 21
143.3653584299
  0
LINE
  8
2_FEATURE
 62
7
  6
CONTINUOUS
 10
67.8883881201
 20
111.325367137
 11
67.8929603231
 21
111.4888442638
  0
LINE
  8
2_FEATURE
 62
7
  6
CONTINUOUS
 10
68.2296807636
 20
143.6665578512
 11
68.2250817099
 21
143.5288355327
  0
LINE
  8
2_FEATURE
 62
7
  6
CONTINUOUS
 10
67.8837890659
 20
111.1876447884
 11
67.8883881201
 21
111.325367137
  0
LINE
  8
2_FEATURE
 62
7
  6
CONTINUOUS
 10
68.2327398951
 20
143.7449400811
 11
68.2296807636
 21
143.6665578512
  0
LINE
  8
2_FEATURE
 62
7
  6
CONTINUOUS
 10
67.8807299341
 20
111.1092625385
 11
67.8837890659
 21
111.1876447884
  0
LINE
  8
2_FEATURE
 62
7
  6
CONTINUOUS
 10
68.235778785
 20
143.8132262284
 11
68.2327398951
 21
143.7449400811
  0
LINE
  8
2_FEATURE
 62
7
  6
CONTINUOUS
 10
67.8776910436
 20
111.0409763836
 11
67.8807299341
 21
111.1092625385
  0
POLYLINE
  8
0
 62
7
  6
CONTINUOUS
 66
1
 70
0
  0
VERTEX
  8
0
 62
7
  6
CONTINUOUS
 10
54.7716856701
 20
110.3409079035
  0
VERTEX
  8
0
 62
7
  6
CONTINUOUS
 10
54.7823089122
 20
110.3572952747
  0
VERTEX
  8
0
 62
7
  6
CONTINUOUS
 10
54.7923109404
 20
110.3982863142
  0
VERTEX
  8
0
 62
7
  6
CONTINUOUS
 10
54.8021904747
 20
110.4638195342
  0
VERTEX
  8
0
 62
7
  6
CONTINUOUS
 10
54.8118916232
 20
110.5535248476
  0
VERTEX
  8
0
 62
7
  6
CONTINUOUS
 10
54.8213594604
 20
110.6668958652
  0
VERTEX
  8
0
 62
7
  6
CONTINUOUS
 10
54.8305403221
 20
110.8032920373
  0
SEQEND
  0
LINE
  8
DEFAULT_1
 62
2
  6
CENTER
 10
47.1631513464
 20
114.7271012931
 11
120.6717349138
 21
114.7271012931
  0
POLYLINE
  8
2_FEATURE
 62
7
  6
CONTINUOUS
 66
1
 70
0
  0
VERTEX
  8
2_FEATURE
 62
7
  6
CONTINUOUS
 10
48.6532305888
 20
117.8159726259
  0
VERTEX
  8
2_FEATURE
 62
7
  6
CONTINUOUS
 10
48.6765021837
 20
117.8144437266
  0
VERTEX
  8
2_FEATURE
 62
7
  6
CONTINUOUS
 10
48.7060145263
 20
117.808157123
  0
VERTEX
  8
2_FEATURE
 62
7
  6
CONTINUOUS
 10
48.7362065943
 20
117.7968752545
  0
VERTEX
  8
2_FEATURE
 62
7
  6
CONTINUOUS
 10
48.7656878084
 20
117.7813056168
  0
VERTEX
  8
2_FEATURE
 62
7
  6
CONTINUOUS
 10
48.7944610103
 20
117.7618371807
  0
VERTEX
  8
2_FEATURE
 62
7
  6
CONTINUOUS
 10
48.8222997533
 20
117.738923382
  0
VERTEX
  8
2_FEATURE
 62
7
  6
CONTINUOUS
 10
48.8492356801
 20
117.7127682245
  0
VERTEX
  8
2_FEATURE
 62
7
  6
CONTINUOUS
 10
48.8751655756
 20
117.6836293469
  0
VERTEX
  8
2_FEATURE
 62
7
  6
CONTINUOUS
 10
48.8999677213
 20
117.6517889736
  0
VERTEX
  8
2_FEATURE
 62
7
  6
CONTINUOUS
 10
48.9236452797
 20
117.6173629492
  0
VERTEX
  8
2_FEATURE
 62
7
  6
CONTINUOUS
 10
48.9462826956
 20
117.5802836527
  0
VERTEX
  8
2_FEATURE
 62
7
  6
CONTINUOUS
 10
48.9678012152
 20
117.5406924526
  0
VERTEX
  8
2_FEATURE
 62
7
  6
CONTINUOUS
 10
48.9880705968
 20
117.4988691877
  0
VERTEX
  8
2_FEATURE
 62
7
  6
CONTINUOUS
 10
49.0070312948
 20
117.4550154359
  0
VERTEX
  8
2_FEATURE
 62
7
  6
CONTINUOUS
 10
49.0246698882
 20
117.4092597363
  0
VERTEX
  8
2_FEATURE
 62
7
  6
CONTINUOUS
 10
49.0409798441
 20
117.361723568
  0
VERTEX
  8
2_FEATURE
 62
7
  6
CONTINUOUS
 10
49.055951425
 20
117.3125552551
  0
VERTEX
  8
2_FEATURE
 62
7
  6
CONTINUOUS
 10
49.0695913352
 20
117.2618857772
  0
VERTEX
  8
2_FEATURE
 62
7
  6
CONTINUOUS
 10
49.0819182808
 20
117.2098116357
  0
VERTEX
  8
2_FEATURE
 62
7
  6
CONTINUOUS
 10
49.0929604388
 20
117.1564020747
  0
VERTEX
  8
2_FEATURE
 62
7
  6
CONTINUOUS
 10
49.1027534097
 20
117.1017020318
  0
VERTEX
  8
2_FEATURE
 62
7
  6
CONTINUOUS
 10
49.1113334335
 20
117.0457205507
  0
VERTEX
  8
2_FEATURE
 62
7
  6
CONTINUOUS
 10
49.1187351375
 20
116.988465716
  0
VERTEX
  8
2_FEATURE
 62
7
  6
CONTINUOUS
 10
49.1249851542
 20
116.9300436686
  0
VERTEX
  8
2_FEATURE
 62
7
  6
CONTINUOUS
 10
49.1301171689
 20
116.870527211
  0
VERTEX
  8
2_FEATURE
 62
7
  6
CONTINUOUS
 10
49.1341692544
 20
116.809972337
  0
VERTEX
  8
2_FEATURE
 62
7
  6
CONTINUOUS
 10
49.1371859566
 20
116.7484274792
  0
VERTEX
  8
2_FEATURE
 62
7
  6
CONTINUOUS
 10
49.1392159412
 20
116.6859318243
  0
VERTEX
  8
2_FEATURE
 62
7
  6
CONTINUOUS
 10
49.1403069081
 20
116.6225116298
  0
VERTEX
  8
2_FEATURE
 62
7
  6
CONTINUOUS
 10
49.1405393801
 20
116.5752955333
  0
SEQEND
  0
POLYLINE
  8
2_FEATURE
 62
7
  6
CONTINUOUS
 66
1
 70
0
  0
VERTEX
  8
2_FEATURE
 62
7
  6
CONTINUOUS
 10
48.3162225571
 20
117.8182193717
  0
VERTEX
  8
2_FEATURE
 62
7
  6
CONTINUOUS
 10
48.3361418479
 20
117.8167255989
  0
VERTEX
  8
2_FEATURE
 62
7
  6
CONTINUOUS
 10
48.3607636468
 20
117.8159808319
  0
VERTEX
  8
2_FEATURE
 62
7
  6
CONTINUOUS
 10
48.653230589
 20
117.8159729821
  0
SEQEND
  0
POLYLINE
  8
2_FEATURE
 62
7
  6
CONTINUOUS
 66
1
 70
0
  0
VERTEX
  8
2_FEATURE
 62
7
  6
CONTINUOUS
 10
43.2117736704
 20
118.2496848195
  0
VERTEX
  8
2_FEATURE
 62
7
  6
CONTINUOUS
 10
44.9986946885
 20
118.1099810145
  0
VERTEX
  8
2_FEATURE
 62
7
  6
CONTINUOUS
 10
46.7145594951
 20
117.964755005
  0
VERTEX
  8
2_FEATURE
 62
7
  6
CONTINUOUS
 10
48.3162230431
 20
117.818222024
  0
SEQEND
  0
LINE
  8
2_FEATURE
 62
7
  6
CONTINUOUS
 10
55.7102387665
 20
117.8159729821
 11
61.353230589
 21
117.8159729821
  0
LINE
  8
2_FEATURE
 62
7
  6
CONTINUOUS
 10
68.4102387665
 20
117.8159729821
 11
74.053230589
 21
117.8159729821
  0
LINE
  8
2_FEATURE
 62
7
  6
CONTINUOUS
 10
81.1102387665
 20
117.8159729821
 11
86.753230589
 21
117.8159729821
  0
LINE
  8
2_FEATURE
 62
7
  6
CONTINUOUS
 10
93.8102387665
 20
117.8159729821
 11
99.453230589
 21
117.8159729821
  0
LINE
  8
2_FEATURE
 62
7
  6
CONTINUOUS
 10
106.5102387665
 20
117.8159729821
 11
112.153230589
 21
117.8159729821
  0
POLYLINE
  8
2_FEATURE
 62
7
  6
CONTINUOUS
 66
1
 70
0
  0
VERTEX
  8
2_FEATURE
 62
7
  6
CONTINUOUS
 10
61.3532305888
 20
117.8159726259
  0
VERTEX
  8
2_FEATURE
 62
7
  6
CONTINUOUS
 10
61.3765021837
 20
117.8144437266
  0
VERTEX
  8
2_FEATURE
 62
7
  6
CONTINUOUS
 10
61.4060145263
 20
117.808157123
  0
VERTEX
  8
2_FEATURE
 62
7
  6
CONTINUOUS
 10
61.4362065943
 20
117.7968752545
  0
VERTEX
  8
2_FEATURE
 62
7
  6
CONTINUOUS
 10
61.4656878084
 20
117.7813056168
  0
VERTEX
  8
2_FEATURE
 62
7
  6
CONTINUOUS
 10
61.4944610103
 20
117.7618371807
  0
VERTEX
  8
2_FEATURE
 62
7
  6
CONTINUOUS
 10
61.5222997533
 20
117.738923382
  0
VERTEX
  8
2_FEATURE
 62
7
  6
CONTINUOUS
 10
61.5492356801
 20
117.7127682245
  0
VERTEX
  8
2_FEATURE
 62
7
  6
CONTINUOUS
 10
61.5751655756
 20
117.6836293469
  0
VERTEX
  8
2_FEATURE
 62
7
  6
CONTINUOUS
 10
61.5999677213
 20
117.6517889736
  0
VERTEX
  8
2_FEATURE
 62
7
  6
CONTINUOUS
 10
61.6236452797
 20
117.6173629492
  0
VERTEX
  8
2_FEATURE
 62
7
  6
CONTINUOUS
 10
61.6462826956
 20
117.5802836527
  0
VERTEX
  8
2_FEATURE
 62
7
  6
CONTINUOUS
 10
61.6678012152
 20
117.5406924526
  0
VERTEX
  8
2_FEATURE
 62
7
  6
CONTINUOUS
 10
61.6880705968
 20
117.4988691877
  0
VERTEX
  8
2_FEATURE
 62
7
  6
CONTINUOUS
 10
61.7070312948
 20
117.4550154359
  0
VERTEX
  8
2_FEATURE
 62
7
  6
CONTINUOUS
 10
61.7246698882
 20
117.4092597363
  0
VERTEX
  8
2_FEATURE
 62
7
  6
CONTINUOUS
 10
61.7409798441
 20
117.361723568
  0
VERTEX
  8
2_FEATURE
 62
7
  6
CONTINUOUS
 10
61.755951425
 20
117.3125552551
  0
VERTEX
  8
2_FEATURE
 62
7
  6
CONTINUOUS
 10
61.7695913352
 20
117.2618857772
  0
VERTEX
  8
2_FEATURE
 62
7
  6
CONTINUOUS
 10
61.7819182808
 20
117.2098116357
  0
VERTEX
  8
2_FEATURE
 62
7
  6
CONTINUOUS
 10
61.7929604388
 20
117.1564020747
  0
VERTEX
  8
2_FEATURE
 62
7
  6
CONTINUOUS
 10
61.8027534097
 20
117.1017020318
  0
VERTEX
  8
2_FEATURE
 62
7
  6
CONTINUOUS
 10
61.8113334335
 20
117.0457205507
  0
VERTEX
  8
2_FEATURE
 62
7
  6
CONTINUOUS
 10
61.8187351375
 20
116.988465716
  0
VERTEX
  8
2_FEATURE
 62
7
  6
CONTINUOUS
 10
61.8249851542
 20
116.9300436686
  0
VERTEX
  8
2_FEATURE
 62
7
  6
CONTINUOUS
 10
61.8301171689
 20
116.870527211
  0
VERTEX
  8
2_FEATURE
 62
7
  6
CONTINUOUS
 10
61.8341692544
 20
116.809972337
  0
VERTEX
  8
2_FEATURE
 62
7
  6
CONTINUOUS
 10
61.8371859566
 20
116.7484274792
  0
VERTEX
  8
2_FEATURE
 62
7
  6
CONTINUOUS
 10
61.8392159412
 20
116.6859318243
  0
VERTEX
  8
2_FEATURE
 62
7
  6
CONTINUOUS
 10
61.8403069081
 20
116.6225116298
  0
VERTEX
  8
2_FEATURE
 62
7
  6
CONTINUOUS
 10
61.8405393801
 20
116.5752955333
  0
SEQEND
  0
POLYLINE
  8
2_FEATURE
 62
7
  6
CONTINUOUS
 66
1
 70
0
  0
VERTEX
  8
2_FEATURE
 62
7
  6
CONTINUOUS
 10
74.0532305888
 20
117.8159726259
  0
VERTEX
  8
2_FEATURE
 62
7
  6
CONTINUOUS
 10
74.0765021837
 20
117.8144437266
  0
VERTEX
  8
2_FEATURE
 62
7
  6
CONTINUOUS
 10
74.1060145263
 20
117.808157123
  0
VERTEX
  8
2_FEATURE
 62
7
  6
CONTINUOUS
 10
74.1362065943
 20
117.7968752545
  0
VERTEX
  8
2_FEATURE
 62
7
  6
CONTINUOUS
 10
74.1656878084
 20
117.7813056168
  0
VERTEX
  8
2_FEATURE
 62
7
  6
CONTINUOUS
 10
74.1944610103
 20
117.7618371807
  0
VERTEX
  8
2_FEATURE
 62
7
  6
CONTINUOUS
 10
74.2222997533
 20
117.738923382
  0
VERTEX
  8
2_FEATURE
 62
7
  6
CONTINUOUS
 10
74.2492356801
 20
117.7127682245
  0
VERTEX
  8
2_FEATURE
 62
7
  6
CONTINUOUS
 10
74.2751655756
 20
117.6836293469
  0
VERTEX
  8
2_FEATURE
 62
7
  6
CONTINUOUS
 10
74.2999677213
 20
117.6517889736
  0
VERTEX
  8
2_FEATURE
 62
7
  6
CONTINUOUS
 10
74.3236452797
 20
117.6173629492
  0
VERTEX
  8
2_FEATURE
 62
7
  6
CONTINUOUS
 10
74.3462826956
 20
117.5802836527
  0
VERTEX
  8
2_FEATURE
 62
7
  6
CONTINUOUS
 10
74.3678012152
 20
117.5406924526
  0
VERTEX
  8
2_FEATURE
 62
7
  6
CONTINUOUS
 10
74.3880705968
 20
117.4988691877
  0
VERTEX
  8
2_FEATURE
 62
7
  6
CONTINUOUS
 10
74.4070312948
 20
117.4550154359
  0
VERTEX
  8
2_FEATURE
 62
7
  6
CONTINUOUS
 10
74.4246698882
 20
117.4092597363
  0
VERTEX
  8
2_FEATURE
 62
7
  6
CONTINUOUS
 10
74.4409798441
 20
117.361723568
  0
VERTEX
  8
2_FEATURE
 62
7
  6
CONTINUOUS
 10
74.455951425
 20
117.3125552551
  0
VERTEX
  8
2_FEATURE
 62
7
  6
CONTINUOUS
 10
74.4695913352
 20
117.2618857772
  0
VERTEX
  8
2_FEATURE
 62
7
  6
CONTINUOUS
 10
74.4819182808
 20
117.2098116357
  0
VERTEX
  8
2_FEATURE
 62
7
  6
CONTINUOUS
 10
74.4929604388
 20
117.1564020747
  0
VERTEX
  8
2_FEATURE
 62
7
  6
CONTINUOUS
 10
74.5027534097
 20
117.1017020318
  0
VERTEX
  8
2_FEATURE
 62
7
  6
CONTINUOUS
 10
74.5113334335
 20
117.0457205507
  0
VERTEX
  8
2_FEATURE
 62
7
  6
CONTINUOUS
 10
74.5187351375
 20
116.988465716
  0
VERTEX
  8
2_FEATURE
 62
7
  6
CONTINUOUS
 10
74.5249851542
 20
116.9300436686
  0
VERTEX
  8
2_FEATURE
 62
7
  6
CONTINUOUS
 10
74.5301171689
 20
116.870527211
  0
VERTEX
  8
2_FEATURE
 62
7
  6
CONTINUOUS
 10
74.5341692544
 20
116.809972337
  0
VERTEX
  8
2_FEATURE
 62
7
  6
CONTINUOUS
 10
74.5371859566
 20
116.7484274792
  0
VERTEX
  8
2_FEATURE
 62
7
  6
CONTINUOUS
 10
74.5392159412
 20
116.6859318243
  0
VERTEX
  8
2_FEATURE
 62
7
  6
CONTINUOUS
 10
74.5403069081
 20
116.6225116298
  0
VERTEX
  8
2_FEATURE
 62
7
  6
CONTINUOUS
 10
74.5405393801
 20
116.5752955333
  0
SEQEND
  0
POLYLINE
  8
2_FEATURE
 62
7
  6
CONTINUOUS
 66
1
 70
0
  0
VERTEX
  8
2_FEATURE
 62
7
  6
CONTINUOUS
 10
86.7532305888
 20
117.8159726259
  0
VERTEX
  8
2_FEATURE
 62
7
  6
CONTINUOUS
 10
86.7765021837
 20
117.8144437266
  0
VERTEX
  8
2_FEATURE
 62
7
  6
CONTINUOUS
 10
86.8060145263
 20
117.808157123
  0
VERTEX
  8
2_FEATURE
 62
7
  6
CONTINUOUS
 10
86.8362065943
 20
117.7968752545
  0
VERTEX
  8
2_FEATURE
 62
7
  6
CONTINUOUS
 10
86.8656878084
 20
117.7813056168
  0
VERTEX
  8
2_FEATURE
 62
7
  6
CONTINUOUS
 10
86.8944610103
 20
117.7618371807
  0
VERTEX
  8
2_FEATURE
 62
7
  6
CONTINUOUS
 10
86.9222997533
 20
117.738923382
  0
VERTEX
  8
2_FEATURE
 62
7
  6
CONTINUOUS
 10
86.9492356801
 20
117.7127682245
  0
VERTEX
  8
2_FEATURE
 62
7
  6
CONTINUOUS
 10
86.9751655756
 20
117.6836293469
  0
VERTEX
  8
2_FEATURE
 62
7
  6
CONTINUOUS
 10
86.9999677213
 20
117.6517889736
  0
VERTEX
  8
2_FEATURE
 62
7
  6
CONTINUOUS
 10
87.0236452797
 20
117.6173629492
  0
VERTEX
  8
2_FEATURE
 62
7
  6
CONTINUOUS
 10
87.0462826956
 20
117.5802836527
  0
VERTEX
  8
2_FEATURE
 62
7
  6
CONTINUOUS
 10
87.0678012152
 20
117.5406924526
  0
VERTEX
  8
2_FEATURE
 62
7
  6
CONTINUOUS
 10
87.0880705968
 20
117.4988691877
  0
VERTEX
  8
2_FEATURE
 62
7
  6
CONTINUOUS
 10
87.1070312948
 20
117.4550154359
  0
VERTEX
  8
2_FEATURE
 62
7
  6
CONTINUOUS
 10
87.1246698882
 20
117.4092597363
  0
VERTEX
  8
2_FEATURE
 62
7
  6
CONTINUOUS
 10
87.1409798441
 20
117.361723568
  0
VERTEX
  8
2_FEATURE
 62
7
  6
CONTINUOUS
 10
87.155951425
 20
117.3125552551
  0
VERTEX
  8
2_FEATURE
 62
7
  6
CONTINUOUS
 10
87.1695913352
 20
117.2618857772
  0
VERTEX
  8
2_FEATURE
 62
7
  6
CONTINUOUS
 10
87.1819182808
 20
117.2098116357
  0
VERTEX
  8
2_FEATURE
 62
7
  6
CONTINUOUS
 10
87.1929604388
 20
117.1564020747
  0
VERTEX
  8
2_FEATURE
 62
7
  6
CONTINUOUS
 10
87.2027534097
 20
117.1017020318
  0
VERTEX
  8
2_FEATURE
 62
7
  6
CONTINUOUS
 10
87.2113334335
 20
117.0457205507
  0
VERTEX
  8
2_FEATURE
 62
7
  6
CONTINUOUS
 10
87.2187351375
 20
116.988465716
  0
VERTEX
  8
2_FEATURE
 62
7
  6
CONTINUOUS
 10
87.2249851542
 20
116.9300436686
  0
VERTEX
  8
2_FEATURE
 62
7
  6
CONTINUOUS
 10
87.2301171689
 20
116.870527211
  0
VERTEX
  8
2_FEATURE
 62
7
  6
CONTINUOUS
 10
87.2341692544
 20
116.809972337
  0
VERTEX
  8
2_FEATURE
 62
7
  6
CONTINUOUS
 10
87.2371859566
 20
116.7484274792
  0
VERTEX
  8
2_FEATURE
 62
7
  6
CONTINUOUS
 10
87.2392159412
 20
116.6859318243
  0
VERTEX
  8
2_FEATURE
 62
7
  6
CONTINUOUS
 10
87.2403069081
 20
116.6225116298
  0
VERTEX
  8
2_FEATURE
 62
7
  6
CONTINUOUS
 10
87.2405393801
 20
116.5752955333
  0
SEQEND
  0
POLYLINE
  8
2_FEATURE
 62
7
  6
CONTINUOUS
 66
1
 70
0
  0
VERTEX
  8
2_FEATURE
 62
7
  6
CONTINUOUS
 10
74.5895344123
 20
110.968815421
  0
VERTEX
  8
2_FEATURE
 62
7
  6
CONTINUOUS
 10
74.5910878558
 20
110.9426744392
  0
VERTEX
  8
2_FEATURE
 62
7
  6
CONTINUOUS
 10
74.5926382952
 20
110.9186275297
  0
VERTEX
  8
2_FEATURE
 62
7
  6
CONTINUOUS
 10
74.5941891584
 20
110.8965305526
  0
VERTEX
  8
2_FEATURE
 62
7
  6
CONTINUOUS
 10
74.595748067
 20
110.8761978815
  0
VERTEX
  8
2_FEATURE
 62
7
  6
CONTINUOUS
 10
74.5973300935
 20
110.8573829577
  0
VERTEX
  8
2_FEATURE
 62
7
  6
CONTINUOUS
 10
74.5989577777
 20
110.8398105828
  0
VERTEX
  8
2_FEATURE
 62
7
  6
CONTINUOUS
 10
74.6006639162
 20
110.8231775084
  0
VERTEX
  8
2_FEATURE
 62
7
  6
CONTINUOUS
 10
74.6024962168
 20
110.8071456952
  0
VERTEX
  8
2_FEATURE
 62
7
  6
CONTINUOUS
 10
74.6045200657
 20
110.7913645279
  0
VERTEX
  8
2_FEATURE
 62
7
  6
CONTINUOUS
 10
74.6068329584
 20
110.7754172339
  0
VERTEX
  8
2_FEATURE
 62
7
  6
CONTINUOUS
 10
74.609586952
 20
110.7587741233
  0
VERTEX
  8
2_FEATURE
 62
7
  6
CONTINUOUS
 10
74.6130073146
 20
110.7408330238
  0
VERTEX
  8
2_FEATURE
 62
7
  6
CONTINUOUS
 10
74.6174375073
 20
110.7208730808
  0
VERTEX
  8
2_FEATURE
 62
7
  6
CONTINUOUS
 10
74.6233895263
 20
110.6980903278
  0
VERTEX
  8
2_FEATURE
 62
7
  6
CONTINUOUS
 10
74.631554355
 20
110.6718168766
  0
VERTEX
  8
2_FEATURE
 62
7
  6
CONTINUOUS
 10
74.6427390987
 20
110.641817131
  0
VERTEX
  8
2_FEATURE
 62
7
  6
CONTINUOUS
 10
74.6577755501
 20
110.6083846711
  0
VERTEX
  8
2_FEATURE
 62
7
  6
CONTINUOUS
 10
74.6775756143
 20
110.5720232395
  0
VERTEX
  8
2_FEATURE
 62
7
  6
CONTINUOUS
 10
74.7033763375
 20
110.5330902789
  0
VERTEX
  8
2_FEATURE
 62
7
  6
CONTINUOUS
 10
74.7363042912
 20
110.4926226975
  0
VERTEX
  8
2_FEATURE
 62
7
  6
CONTINUOUS
 10
74.7768716662
 20
110.4525413828
  0
VERTEX
  8
2_FEATURE
 62
7
  6
CONTINUOUS
 10
74.8249679423
 20
110.4150619065
  0
VERTEX
  8
2_FEATURE
 62
7
  6
CONTINUOUS
 10
74.8797931375
 20
110.3823758214
  0
VERTEX
  8
2_FEATURE
 62
7
  6
CONTINUOUS
 10
74.9399659708
 20
110.3563257332
  0
VERTEX
  8
2_FEATURE
 62
7
  6
CONTINUOUS
 10
75.0036843637
 20
110.338208066
  0
VERTEX
  8
2_FEATURE
 62
7
  6
CONTINUOUS
 10
75.0689143538
 20
110.3286760375
  0
VERTEX
  8
2_FEATURE
 62
7
  6
CONTINUOUS
 10
75.1086137034
 20
110.3271012932
  0
SEQEND
  0
POLYLINE
  8
2_FEATURE
 62
7
  6
CONTINUOUS
 66
1
 70
0
  0
VERTEX
  8
2_FEATURE
 62
7
  6
CONTINUOUS
 10
74.2239354194
 20
143.8853870945
  0
VERTEX
  8
2_FEATURE
 62
7
  6
CONTINUOUS
 10
74.2223819752
 20
143.9115280947
  0
VERTEX
  8
2_FEATURE
 62
7
  6
CONTINUOUS
 10
74.2208315357
 20
143.9355750037
  0
VERTEX
  8
2_FEATURE
 62
7
  6
CONTINUOUS
 10
74.2192806739
 20
143.957671966
  0
VERTEX
  8
2_FEATURE
 62
7
  6
CONTINUOUS
 10
74.2177217655
 20
143.978004647
  0
VERTEX
  8
2_FEATURE
 62
7
  6
CONTINUOUS
 10
74.2161397376
 20
143.9968195905
  0
VERTEX
  8
2_FEATURE
 62
7
  6
CONTINUOUS
 10
74.2145120536
 20
144.0143919628
  0
VERTEX
  8
2_FEATURE
 62
7
  6
CONTINUOUS
 10
74.2128059186
 20
144.0310250078
  0
VERTEX
  8
2_FEATURE
 62
7
  6
CONTINUOUS
 10
74.210973621
 20
144.0470568099
  0
VERTEX
  8
2_FEATURE
 62
7
  6
CONTINUOUS
 10
74.2089497672
 20
144.0628380232
  0
VERTEX
  8
2_FEATURE
 62
7
  6
CONTINUOUS
 10
74.2066368715
 20
144.0787853368
  0
VERTEX
  8
2_FEATURE
 62
7
  6
CONTINUOUS
 10
74.2038828808
 20
144.0954284294
  0
VERTEX
  8
2_FEATURE
 62
7
  6
CONTINUOUS
 10
74.200462537
 20
144.1133694416
  0
VERTEX
  8
2_FEATURE
 62
7
  6
CONTINUOUS
 10
74.1960323801
 20
144.1333292571
  0
VERTEX
  8
2_FEATURE
 62
7
  6
CONTINUOUS
 10
74.1900803463
 20
144.1561121035
  0
VERTEX
  8
2_FEATURE
 62
7
  6
CONTINUOUS
 10
74.1819155027
 20
144.1823856244
  0
VERTEX
  8
2_FEATURE
 62
7
  6
CONTINUOUS
 10
74.1707307449
 20
144.2123854173
  0
VERTEX
  8
2_FEATURE
 62
7
  6
CONTINUOUS
 10
74.1556942772
 20
144.245817915
  0
VERTEX
  8
2_FEATURE
 62
7
  6
CONTINUOUS
 10
74.1358941885
 20
144.2821793857
  0
VERTEX
  8
2_FEATURE
 62
7
  6
CONTINUOUS
 10
74.1100934325
 20
144.3211123826
  0
VERTEX
  8
2_FEATURE
 62
7
  6
CONTINUOUS
 10
74.0771654341
 20
144.3615799978
  0
VERTEX
  8
2_FEATURE
 62
7
  6
CONTINUOUS
 10
74.0365979872
 20
144.4016613527
  0
VERTEX
  8
2_FEATURE
 62
7
  6
CONTINUOUS
 10
73.9885016102
 20
144.4391408642
  0
VERTEX
  8
2_FEATURE
 62
7
  6
CONTINUOUS
 10
73.9336763122
 20
144.471826955
  0
VERTEX
  8
2_FEATURE
 62
7
  6
CONTINUOUS
 10
73.8735034135
 20
144.4978770084
  0
VERTEX
  8
2_FEATURE
 62
7
  6
CONTINUOUS
 10
73.809785036
 20
144.5159946098
  0
VERTEX
  8
2_FEATURE
 62
7
  6
CONTINUOUS
 10
73.7445551835
 20
144.5255265709
  0
VERTEX
  8
2_FEATURE
 62
7
  6
CONTINUOUS
 10
73.7048561043
 20
144.527101293
  0
SEQEND
  0
LINE
  8
2_FEATURE
 62
7
  6
CONTINUOUS
 10
74.5864142663
 20
111.0278422775
 11
74.5895344123
 21
110.968815421
  0
LINE
  8
2_FEATURE
 62
7
  6
CONTINUOUS
 10
74.2270555644
 20
143.8263602479
 11
74.2239354194
 21
143.8853870945
  0
LINE
  8
2_FEATURE
 62
7
  6
CONTINUOUS
 10
74.5832715153
 20
111.0966467744
 11
74.5864142663
 21
111.0278422775
  0
LINE
  8
2_FEATURE
 62
7
  6
CONTINUOUS
 10
74.2301983152
 20
143.7575557375
 11
74.2270555644
 21
143.8263602479
  0
LINE
  8
2_FEATURE
 62
7
  6
CONTINUOUS
 10
74.5801064296
 20
111.1761323975
 11
74.5832715153
 21
111.0966467744
  0
LINE
  8
2_FEATURE
 62
7
  6
CONTINUOUS
 10
74.2333634008
 20
143.6780701189
 11
74.2301983152
 21
143.7575557375
  0
LINE
  8
2_FEATURE
 62
7
  6
CONTINUOUS
 10
74.5753403915
 20
111.3169439357
 11
74.5801064296
 21
111.1761323975
  0
LINE
  8
2_FEATURE
 62
7
  6
CONTINUOUS
 10
74.2381294385
 20
143.5372585782
 11
74.2333634008
 21
143.6780701189
  0
LINE
  8
2_FEATURE
 62
7
  6
CONTINUOUS
 10
74.5705952456
 20
111.4855107757
 11
74.5753403915
 21
111.3169439357
  0
LINE
  8
2_FEATURE
 62
7
  6
CONTINUOUS
 10
74.2428745839
 20
143.368691736
 11
74.2381294385
 21
143.5372585782
  0
LINE
  8
2_FEATURE
 62
7
  6
CONTINUOUS
 10
74.5643283644
 20
111.7600599921
 11
74.5705952456
 21
111.4855107757
  0
LINE
  8
2_FEATURE
 62
7
  6
CONTINUOUS
 10
74.2491414646
 20
143.0941425259
 11
74.2428745839
 21
143.368691736
  0
LINE
  8
2_FEATURE
 62
7
  6
CONTINUOUS
 10
74.5582114533
 20
112.1016557048
 11
74.5643283644
 21
111.7600599921
  0
LINE
  8
2_FEATURE
 62
7
  6
CONTINUOUS
 10
74.2552583751
 20
142.7525468276
 11
74.2491414646
 21
143.0941425259
  0
LINE
  8
2_FEATURE
 62
7
  6
CONTINUOUS
 10
74.5524876671
 20
112.5170858416
 11
74.5582114533
 21
112.1016557048
  0
LINE
  8
2_FEATURE
 62
7
  6
CONTINUOUS
 10
74.2609821609
 20
142.3371167156
 11
74.2552583751
 21
142.7525468276
  0
LINE
  8
2_FEATURE
 62
7
  6
CONTINUOUS
 10
74.548647194
 20
112.8787857167
 11
74.5524876671
 21
112.5170858416
  0
LINE
  8
2_FEATURE
 62
7
  6
CONTINUOUS
 10
74.2648226337
 20
141.9754168524
 11
74.2609821609
 21
142.3371167156
  0
LINE
  8
2_FEATURE
 62
7
  6
CONTINUOUS
 10
74.2681114205
 20
141.5702020104
 11
74.2648226337
 21
141.9754168524
  0
LINE
  8
2_FEATURE
 62
7
  6
CONTINUOUS
 10
74.5453584072
 20
113.2840005715
 11
74.548647194
 21
112.8787857167
  0
LINE
  8
2_FEATURE
 62
7
  6
CONTINUOUS
 10
74.2706823581
 20
141.122397751
 11
74.2681114205
 21
141.5702020104
  0
LINE
  8
2_FEATURE
 62
7
  6
CONTINUOUS
 10
74.5427874692
 20
113.7318048902
 11
74.5453584072
 21
113.2840005715
  0
LINE
  8
2_FEATURE
 62
7
  6
CONTINUOUS
 10
74.2723532893
 20
140.6347803422
 11
74.2706823581
 21
141.122397751
  0
LINE
  8
2_FEATURE
 62
7
  6
CONTINUOUS
 10
74.5411165375
 20
114.2194225674
 11
74.5427874692
 21
113.7318048902
  0
LINE
  8
2_FEATURE
 62
7
  6
CONTINUOUS
 10
74.2729312164
 20
140.1271012931
 11
74.2723532893
 21
140.6347803422
  0
LINE
  8
2_FEATURE
 62
7
  6
CONTINUOUS
 10
74.5405386112
 20
114.7271012931
 11
74.5411165375
 21
114.2194225674
  0
LINE
  8
2_FEATURE
 62
7
  6
CONTINUOUS
 10
74.2729312173
 20
138.2789070521
 11
74.2729312173
 21
140.1271012931
  0
LINE
  8
2_FEATURE
 62
7
  6
CONTINUOUS
 10
74.5405386103
 20
116.5752955341
 11
74.5405386103
 21
114.7271012931
  0
POLYLINE
  8
0
 62
7
  6
CONTINUOUS
 66
1
 70
0
  0
VERTEX
  8
0
 62
7
  6
CONTINUOUS
 10
106.6829295055
 20
144.0509105444
  0
VERTEX
  8
0
 62
7
  6
CONTINUOUS
 10
106.6317202688
 20
144.03012284
  0
VERTEX
  8
0
 62
7
  6
CONTINUOUS
 10
106.5819561622
 20
144.0027073879
  0
VERTEX
  8
0
 62
7
  6
CONTINUOUS
 10
106.5343974901
 20
143.9686644104
  0
VERTEX
  8
0
 62
7
  6
CONTINUOUS
 10
106.4900654109
 20
143.9283465525
  0
VERTEX
  8
0
 62
7
  6
CONTINUOUS
 10
106.4497515782
 20
143.8821725377
  0
VERTEX
  8
0
 62
7
  6
CONTINUOUS
 10
106.4137245774
 20
143.8299674083
  0
VERTEX
  8
0
 62
7
  6
CONTINUOUS
 10
106.3829006082
 20
143.7723724924
  0
VERTEX
  8
0
 62
7
  6
CONTINUOUS
 10
106.3581241864
 20
143.710407538
  0
VERTEX
  8
0
 62
7
  6
CONTINUOUS
 10
106.3397918511
 20
143.6443725537
  0
VERTEX
  8
0
 62
7
  6
CONTINUOUS
 10
106.3284612496
 20
143.5750224857
  0
VERTEX
  8
0
 62
7
  6
CONTINUOUS
 10
106.3249483234
 20
143.5240219521
  0
SEQEND
  0
LINE
  8
2_FEATURE
 62
2
  6
CONTINUOUS
 10
42.8417349138
 20
120.226316904
 11
118.6717349138
 21
120.226316904
  0
POLYLINE
  8
2_FEATURE
 62
7
  6
CONTINUOUS
 66
1
 70
0
  0
VERTEX
  8
2_FEATURE
 62
7
  6
CONTINUOUS
 10
99.4532305888
 20
117.8159726259
  0
VERTEX
  8
2_FEATURE
 62
7
  6
CONTINUOUS
 10
99.4765021837
 20
117.8144437266
  0
VERTEX
  8
2_FEATURE
 62
7
  6
CONTINUOUS
 10
99.5060145263
 20
117.808157123
  0
VERTEX
  8
2_FEATURE
 62
7
  6
CONTINUOUS
 10
99.5362065943
 20
117.7968752545
  0
VERTEX
  8
2_FEATURE
 62
7
  6
CONTINUOUS
 10
99.5656878084
 20
117.7813056168
  0
VERTEX
  8
2_FEATURE
 62
7
  6
CONTINUOUS
 10
99.5944610103
 20
117.7618371807
  0
VERTEX
  8
2_FEATURE
 62
7
  6
CONTINUOUS
 10
99.6222997533
 20
117.738923382
  0
VERTEX
  8
2_FEATURE
 62
7
  6
CONTINUOUS
 10
99.6492356801
 20
117.7127682245
  0
VERTEX
  8
2_FEATURE
 62
7
  6
CONTINUOUS
 10
99.6751655756
 20
117.6836293469
  0
VERTEX
  8
2_FEATURE
 62
7
  6
CONTINUOUS
 10
99.6999677213
 20
117.6517889736
  0
VERTEX
  8
2_FEATURE
 62
7
  6
CONTINUOUS
 10
99.7236452797
 20
117.6173629492
  0
VERTEX
  8
2_FEATURE
 62
7
  6
CONTINUOUS
 10
99.7462826956
 20
117.5802836527
  0
VERTEX
  8
2_FEATURE
 62
7
  6
CONTINUOUS
 10
99.7678012152
 20
117.5406924526
  0
VERTEX
  8
2_FEATURE
 62
7
  6
CONTINUOUS
 10
99.7880705968
 20
117.4988691877
  0
VERTEX
  8
2_FEATURE
 62
7
  6
CONTINUOUS
 10
99.8070312948
 20
117.4550154359
  0
VERTEX
  8
2_FEATURE
 62
7
  6
CONTINUOUS
 10
99.8246698882
 20
117.4092597363
  0
VERTEX
  8
2_FEATURE
 62
7
  6
CONTINUOUS
 10
99.8409798441
 20
117.361723568
  0
VERTEX
  8
2_FEATURE
 62
7
  6
CONTINUOUS
 10
99.855951425
 20
117.3125552551
  0
VERTEX
  8
2_FEATURE
 62
7
  6
CONTINUOUS
 10
99.8695913352
 20
117.2618857772
  0
VERTEX
  8
2_FEATURE
 62
7
  6
CONTINUOUS
 10
99.8819182808
 20
117.2098116357
  0
VERTEX
  8
2_FEATURE
 62
7
  6
CONTINUOUS
 10
99.8929604388
 20
117.1564020747
  0
VERTEX
  8
2_FEATURE
 62
7
  6
CONTINUOUS
 10
99.9027534097
 20
117.1017020318
  0
VERTEX
  8
2_FEATURE
 62
7
  6
CONTINUOUS
 10
99.9113334335
 20
117.0457205507
  0
VERTEX
  8
2_FEATURE
 62
7
  6
CONTINUOUS
 10
99.9187351375
 20
116.988465716
  0
VERTEX
  8
2_FEATURE
 62
7
  6
CONTINUOUS
 10
99.9249851542
 20
116.9300436686
  0
VERTEX
  8
2_FEATURE
 62
7
  6
CONTINUOUS
 10
99.9301171689
 20
116.870527211
  0
VERTEX
  8
2_FEATURE
 62
7
  6
CONTINUOUS
 10
99.9341692544
 20
116.809972337
  0
VERTEX
  8
2_FEATURE
 62
7
  6
CONTINUOUS
 10
99.9371859566
 20
116.7484274792
  0
VERTEX
  8
2_FEATURE
 62
7
  6
CONTINUOUS
 10
99.9392159412
 20
116.6859318243
  0
VERTEX
  8
2_FEATURE
 62
7
  6
CONTINUOUS
 10
99.9403069081
 20
116.6225116298
  0
VERTEX
  8
2_FEATURE
 62
7
  6
CONTINUOUS
 10
99.9405393801
 20
116.5752955333
  0
SEQEND
  0
POLYLINE
  8
2_FEATURE
 62
7
  6
CONTINUOUS
 66
1
 70
0
  0
VERTEX
  8
2_FEATURE
 62
7
  6
CONTINUOUS
 10
112.1532305888
 20
117.8159726259
  0
VERTEX
  8
2_FEATURE
 62
7
  6
CONTINUOUS
 10
112.1765021837
 20
117.8144437266
  0
VERTEX
  8
2_FEATURE
 62
7
  6
CONTINUOUS
 10
112.2060145263
 20
117.808157123
  0
VERTEX
  8
2_FEATURE
 62
7
  6
CONTINUOUS
 10
112.2362065943
 20
117.7968752545
  0
VERTEX
  8
2_FEATURE
 62
7
  6
CONTINUOUS
 10
112.2656878084
 20
117.7813056168
  0
VERTEX
  8
2_FEATURE
 62
7
  6
CONTINUOUS
 10
112.2944610103
 20
117.7618371807
  0
VERTEX
  8
2_FEATURE
 62
7
  6
CONTINUOUS
 10
112.3222997533
 20
117.738923382
  0
VERTEX
  8
2_FEATURE
 62
7
  6
CONTINUOUS
 10
112.3492356801
 20
117.7127682245
  0
VERTEX
  8
2_FEATURE
 62
7
  6
CONTINUOUS
 10
112.3751655756
 20
117.6836293469
  0
VERTEX
  8
2_FEATURE
 62
7
  6
CONTINUOUS
 10
112.3999677213
 20
117.6517889736
  0
VERTEX
  8
2_FEATURE
 62
7
  6
CONTINUOUS
 10
112.4236452797
 20
117.6173629492
  0
VERTEX
  8
2_FEATURE
 62
7
  6
CONTINUOUS
 10
112.4462826956
 20
117.5802836527
  0
VERTEX
  8
2_FEATURE
 62
7
  6
CONTINUOUS
 10
112.4678012152
 20
117.5406924526
  0
VERTEX
  8
2_FEATURE
 62
7
  6
CONTINUOUS
 10
112.4880705968
 20
117.4988691877
  0
VERTEX
  8
2_FEATURE
 62
7
  6
CONTINUOUS
 10
112.5070312948
 20
117.4550154359
  0
VERTEX
  8
2_FEATURE
 62
7
  6
CONTINUOUS
 10
112.5246698882
 20
117.4092597363
  0
VERTEX
  8
2_FEATURE
 62
7
  6
CONTINUOUS
 10
112.5409798441
 20
117.361723568
  0
VERTEX
  8
2_FEATURE
 62
7
  6
CONTINUOUS
 10
112.555951425
 20
117.3125552551
  0
VERTEX
  8
2_FEATURE
 62
7
  6
CONTINUOUS
 10
112.5695913352
 20
117.2618857772
  0
VERTEX
  8
2_FEATURE
 62
7
  6
CONTINUOUS
 10
112.5819182808
 20
117.2098116357
  0
VERTEX
  8
2_FEATURE
 62
7
  6
CONTINUOUS
 10
112.5929604388
 20
117.1564020747
  0
VERTEX
  8
2_FEATURE
 62
7
  6
CONTINUOUS
 10
112.6027534097
 20
117.1017020318
  0
VERTEX
  8
2_FEATURE
 62
7
  6
CONTINUOUS
 10
112.6113334335
 20
117.0457205507
  0
VERTEX
  8
2_FEATURE
 62
7
  6
CONTINUOUS
 10
112.6187351375
 20
116.988465716
  0
VERTEX
  8
2_FEATURE
 62
7
  6
CONTINUOUS
 10
112.6249851542
 20
116.9300436686
  0
VERTEX
  8
2_FEATURE
 62
7
  6
CONTINUOUS
 10
112.6301171689
 20
116.870527211
  0
VERTEX
  8
2_FEATURE
 62
7
  6
CONTINUOUS
 10
112.6341692544
 20
116.809972337
  0
VERTEX
  8
2_FEATURE
 62
7
  6
CONTINUOUS
 10
112.6371859566
 20
116.7484274792
  0
VERTEX
  8
2_FEATURE
 62
7
  6
CONTINUOUS
 10
112.6392159412
 20
116.6859318243
  0
VERTEX
  8
2_FEATURE
 62
7
  6
CONTINUOUS
 10
112.6403069081
 20
116.6225116298
  0
VERTEX
  8
2_FEATURE
 62
7
  6
CONTINUOUS
 10
112.6405393801
 20
116.5752955333
  0
SEQEND
  0
LINE
  8
2_FEATURE
 62
2
  6
CONTINUOUS
 10
42.8417349138
 20
122.1471012931
 11
118.6717349138
 21
122.1471012931
  0
LINE
  8
1_AXIS
 62
2
  6
CENTER
 10
80.7567349138
 20
131.8271012931
 11
80.7567349138
 21
129.4272012931
  0
LINE
  8
1_AXIS
 62
2
  6
CONTINUOUS
 10
80.7567349138
 20
128.3071012931
 11
80.7567349138
 21
126.5471012931
  0
LINE
  8
CURVE
 62
40
  6
CONTINUOUS
 10
80.7567349138
 20
117.455735912
 11
80.7567349138
 21
110.8271012931
  0
LINE
  8
1_AXIS
 62
2
  6
CENTER
 10
80.7567349138
 20
123.0271012931
 11
80.7567349138
 21
125.4270012931
  0
LINE
  8
CURVE
 62
40
  6
CONTINUOUS
 10
80.7567349138
 20
137.3984666742
 11
80.7567349138
 21
144.0271012931
  0
LINE
  8
2_FEATURE
 62
7
  6
CONTINUOUS
 10
80.6223936595
 20
114.2374023113
 11
80.6229312173
 21
116.5752955418
  0
LINE
  8
2_FEATURE
 62
7
  6
CONTINUOUS
 10
80.891076169
 20
140.616800647
 11
80.8905386103
 21
138.2789070444
  0
LINE
  8
2_FEATURE
 62
7
  6
CONTINUOUS
 10
80.6201201441
 20
113.6166526522
 11
80.6223936595
 21
114.2374023113
  0
LINE
  8
2_FEATURE
 62
7
  6
CONTINUOUS
 10
80.893349684
 20
141.2375500227
 11
80.891076169
 21
140.616800647
  0
POLYLINE
  8
2_FEATURE
 62
7
  6
CONTINUOUS
 66
1
 70
0
  0
VERTEX
  8
2_FEATURE
 62
7
  6
CONTINUOUS
 10
80.6229304487
 20
116.5752955418
  0
VERTEX
  8
2_FEATURE
 62
7
  6
CONTINUOUS
 10
80.6231768347
 20
116.6238837993
  0
VERTEX
  8
2_FEATURE
 62
7
  6
CONTINUOUS
 10
80.6242868805
 20
116.6872612474
  0
VERTEX
  8
2_FEATURE
 62
7
  6
CONTINUOUS
 10
80.6263363208
 20
116.7497153741
  0
VERTEX
  8
2_FEATURE
 62
7
  6
CONTINUOUS
 10
80.629372849
 20
116.8112197933
  0
VERTEX
  8
2_FEATURE
 62
7
  6
CONTINUOUS
 10
80.6334451385
 20
116.8717352135
  0
VERTEX
  8
2_FEATURE
 62
7
  6
CONTINUOUS
 10
80.6385976473
 20
116.9312131835
  0
VERTEX
  8
2_FEATURE
 62
7
  6
CONTINUOUS
 10
80.6448683827
 20
116.9895976621
  0
VERTEX
  8
2_FEATURE
 62
7
  6
CONTINUOUS
 10
80.6522910929
 20
117.0468156765
  0
VERTEX
  8
2_FEATURE
 62
7
  6
CONTINUOUS
 10
80.6608922828
 20
117.1027605715
  0
VERTEX
  8
2_FEATURE
 62
7
  6
CONTINUOUS
 10
80.6707064943
 20
117.1574241288
  0
VERTEX
  8
2_FEATURE
 62
7
  6
CONTINUOUS
 10
80.6817700627
 20
117.2107973724
  0
VERTEX
  8
2_FEATURE
 62
7
  6
CONTINUOUS
 10
80.6941186521
 20
117.2628354264
  0
VERTEX
  8
2_FEATURE
 62
7
  6
CONTINUOUS
 10
80.7077804611
 20
117.3134691694
  0
VERTEX
  8
2_FEATURE
 62
7
  6
CONTINUOUS
 10
80.722774257
 20
117.3626018422
  0
VERTEX
  8
2_FEATURE
 62
7
  6
CONTINUOUS
 10
80.7391067467
 20
117.4101022842
  0
VERTEX
  8
2_FEATURE
 62
7
  6
CONTINUOUS
 10
80.7567681166
 20
117.4558218633
  0
VERTEX
  8
2_FEATURE
 62
7
  6
CONTINUOUS
 10
80.7757517352
 20
117.4996385351
  0
VERTEX
  8
2_FEATURE
 62
7
  6
CONTINUOUS
 10
80.7960447729
 20
117.5414247595
  0
VERTEX
  8
2_FEATURE
 62
7
  6
CONTINUOUS
 10
80.8175881158
 20
117.5809792237
  0
VERTEX
  8
2_FEATURE
 62
7
  6
CONTINUOUS
 10
80.840251924
 20
117.6180220655
  0
VERTEX
  8
2_FEATURE
 62
7
  6
CONTINUOUS
 10
80.863955603
 20
117.6524084601
  0
VERTEX
  8
2_FEATURE
 62
7
  6
CONTINUOUS
 10
80.8887834881
 20
117.6842050922
  0
VERTEX
  8
2_FEATURE
 62
7
  6
CONTINUOUS
 10
80.9147377061
 20
117.7132946501
  0
VERTEX
  8
2_FEATURE
 62
7
  6
CONTINUOUS
 10
80.9416943763
 20
117.7393929102
  0
VERTEX
  8
2_FEATURE
 62
7
  6
CONTINUOUS
 10
80.9695485815
 20
117.7622414264
  0
VERTEX
  8
2_FEATURE
 62
7
  6
CONTINUOUS
 10
80.9983298866
 20
117.7816353514
  0
VERTEX
  8
2_FEATURE
 62
7
  6
CONTINUOUS
 10
81.0278164135
 20
117.7971248168
  0
VERTEX
  8
2_FEATURE
 62
7
  6
CONTINUOUS
 10
81.0580088581
 20
117.8083188392
  0
VERTEX
  8
2_FEATURE
 62
7
  6
CONTINUOUS
 10
81.0874963611
 20
117.8145123618
  0
VERTEX
  8
2_FEATURE
 62
7
  6
CONTINUOUS
 10
81.1102385799
 20
117.8159726263
  0
SEQEND
  0
POLYLINE
  8
2_FEATURE
 62
7
  6
CONTINUOUS
 66
1
 70
0
  0
VERTEX
  8
2_FEATURE
 62
7
  6
CONTINUOUS
 10
80.8905393789
 20
138.2789070444
  0
VERTEX
  8
2_FEATURE
 62
7
  6
CONTINUOUS
 10
80.8902929929
 20
138.2303187869
  0
VERTEX
  8
2_FEATURE
 62
7
  6
CONTINUOUS
 10
80.8891829471
 20
138.1669413389
  0
VERTEX
  8
2_FEATURE
 62
7
  6
CONTINUOUS
 10
80.8871335068
 20
138.1044872121
  0
VERTEX
  8
2_FEATURE
 62
7
  6
CONTINUOUS
 10
80.8840969786
 20
138.0429827929
  0
VERTEX
  8
2_FEATURE
 62
7
  6
CONTINUOUS
 10
80.8800246891
 20
137.9824673727
  0
VERTEX
  8
2_FEATURE
 62
7
  6
CONTINUOUS
 10
80.8748721803
 20
137.9229894027
  0
VERTEX
  8
2_FEATURE
 62
7
  6
CONTINUOUS
 10
80.8686014449
 20
137.8646049242
  0
VERTEX
  8
2_FEATURE
 62
7
  6
CONTINUOUS
 10
80.8611787347
 20
137.8073869097
  0
VERTEX
  8
2_FEATURE
 62
7
  6
CONTINUOUS
 10
80.8525775448
 20
137.7514420147
  0
VERTEX
  8
2_FEATURE
 62
7
  6
CONTINUOUS
 10
80.8427633333
 20
137.6967784574
  0
VERTEX
  8
2_FEATURE
 62
7
  6
CONTINUOUS
 10
80.8316997649
 20
137.6434052138
  0
VERTEX
  8
2_FEATURE
 62
7
  6
CONTINUOUS
 10
80.8193511755
 20
137.5913671598
  0
VERTEX
  8
2_FEATURE
 62
7
  6
CONTINUOUS
 10
80.8056893665
 20
137.5407334168
  0
VERTEX
  8
2_FEATURE
 62
7
  6
CONTINUOUS
 10
80.7906955706
 20
137.491600744
  0
VERTEX
  8
2_FEATURE
 62
7
  6
CONTINUOUS
 10
80.7743630809
 20
137.444100302
  0
VERTEX
  8
2_FEATURE
 62
7
  6
CONTINUOUS
 10
80.756701711
 20
137.3983807229
  0
VERTEX
  8
2_FEATURE
 62
7
  6
CONTINUOUS
 10
80.7377180923
 20
137.3545640511
  0
VERTEX
  8
2_FEATURE
 62
7
  6
CONTINUOUS
 10
80.7174250547
 20
137.3127778267
  0
VERTEX
  8
2_FEATURE
 62
7
  6
CONTINUOUS
 10
80.6958817117
 20
137.2732233625
  0
VERTEX
  8
2_FEATURE
 62
7
  6
CONTINUOUS
 10
80.6732179035
 20
137.2361805207
  0
VERTEX
  8
2_FEATURE
 62
7
  6
CONTINUOUS
 10
80.6495142246
 20
137.2017941261
  0
VERTEX
  8
2_FEATURE
 62
7
  6
CONTINUOUS
 10
80.6246863395
 20
137.169997494
  0
VERTEX
  8
2_FEATURE
 62
7
  6
CONTINUOUS
 10
80.5987321214
 20
137.1409079361
  0
VERTEX
  8
2_FEATURE
 62
7
  6
CONTINUOUS
 10
80.5717754513
 20
137.1148096761
  0
VERTEX
  8
2_FEATURE
 62
7
  6
CONTINUOUS
 10
80.5439212461
 20
137.0919611598
  0
VERTEX
  8
2_FEATURE
 62
7
  6
CONTINUOUS
 10
80.515139941
 20
137.0725672348
  0
VERTEX
  8
2_FEATURE
 62
7
  6
CONTINUOUS
 10
80.485653414
 20
137.0570777694
  0
VERTEX
  8
2_FEATURE
 62
7
  6
CONTINUOUS
 10
80.4554609695
 20
137.045883747
  0
VERTEX
  8
2_FEATURE
 62
7
  6
CONTINUOUS
 10
80.4259734665
 20
137.0396902244
  0
VERTEX
  8
2_FEATURE
 62
7
  6
CONTINUOUS
 10
80.4032312476
 20
137.0382299599
  0
SEQEND
  0
LINE
  8
2_FEATURE
 62
7
  6
CONTINUOUS
 10
80.616437197
 20
113.0626648396
 11
80.6201201441
 21
113.6166526522
  0
LINE
  8
2_FEATURE
 62
7
  6
CONTINUOUS
 10
80.8970326313
 20
141.7915378286
 11
80.893349684
 21
141.2375500227
  0
LINE
  8
2_FEATURE
 62
7
  6
CONTINUOUS
 10
80.9017483581
 20
142.2739799616
 11
80.8970326313
 21
141.7915378286
  0
LINE
  8
2_FEATURE
 62
7
  6
CONTINUOUS
 10
80.6117214706
 20
112.5802227117
 11
80.616437197
 21
113.0626648396
  0
LINE
  8
2_FEATURE
 62
7
  6
CONTINUOUS
 10
80.907163281
 20
142.6846603374
 11
80.9017483581
 21
142.2739799616
  0
LINE
  8
2_FEATURE
 62
7
  6
CONTINUOUS
 10
80.6063065483
 20
112.1695423618
 11
80.6117214706
 21
112.5802227117
  0
LINE
  8
2_FEATURE
 62
7
  6
CONTINUOUS
 10
80.9144774649
 20
143.101467609
 11
80.907163281
 21
142.6846603374
  0
LINE
  8
2_FEATURE
 62
7
  6
CONTINUOUS
 10
80.5989923654
 20
111.7527351072
 11
80.6063065483
 21
112.1695423618
  0
LINE
  8
2_FEATURE
 62
7
  6
CONTINUOUS
 10
80.9205095072
 20
143.3653584299
 11
80.9144774649
 21
143.101467609
  0
LINE
  8
2_FEATURE
 62
7
  6
CONTINUOUS
 10
80.5929603231
 20
111.4888442638
 11
80.5989923654
 21
111.7527351072
  0
LINE
  8
2_FEATURE
 62
7
  6
CONTINUOUS
 10
80.9250817099
 20
143.5288355327
 11
80.9205095072
 21
143.3653584299
  0
LINE
  8
2_FEATURE
 62
7
  6
CONTINUOUS
 10
80.5883881201
 20
111.325367137
 11
80.5929603231
 21
111.4888442638
  0
LINE
  8
2_FEATURE
 62
7
  6
CONTINUOUS
 10
80.585322692
 20
111.2308099844
 11
80.5883881201
 21
111.325367137
  0
LINE
  8
2_FEATURE
 62
7
  6
CONTINUOUS
 10
80.9296807636
 20
143.6665578512
 11
80.9250817099
 21
143.5288355327
  0
LINE
  8
2_FEATURE
 62
7
  6
CONTINUOUS
 10
80.9327398951
 20
143.7449400811
 11
80.9296807636
 21
143.6665578512
  0
LINE
  8
2_FEATURE
 62
7
  6
CONTINUOUS
 10
80.935778785
 20
143.8132262284
 11
80.9327398951
 21
143.7449400811
  0
LINE
  8
0
 62
7
  6
CONTINUOUS
 10
118.6717349138
 20
126.6011203027
 11
42.8417349138
 21
126.6011203027
  0
LINE
  8
0
 62
40
  6
CONTINUOUS
 10
83.7567349138
 20
128.1654815099
 11
83.7567349138
 21
144.5271012931
  0
LINE
  8
2_FEATURE
 62
7
  6
CONTINUOUS
 10
80.5822575747
 20
111.1471514927
 11
80.585322692
 21
111.2308099844
  0
LINE
  8
2_FEATURE
 62
7
  6
CONTINUOUS
 10
80.5792074593
 20
111.0738999169
 11
80.5822575747
 21
111.1471514927
  0
LINE
  8
2_FEATURE
 62
7
  6
CONTINUOUS
 10
80.5761809977
 20
111.0103926846
 11
80.5792074593
 21
111.0738999169
  0
LINE
  8
1_AXIS
 62
2
  6
CENTER
 10
85.1567349138
 20
127.4271012931
 11
82.7568349138
 21
127.4271012931
  0
LINE
  8
1_AXIS
 62
2
  6
CONTINUOUS
 10
81.6367349138
 20
127.4271012931
 11
79.8767349138
 21
127.4271012931
  0
LINE
  8
1_AXIS
 62
2
  6
CENTER
 10
76.3567349138
 20
127.4271012931
 11
78.7566349138
 21
127.4271012931
  0
LINE
  8
0
 62
7
  6
CONTINUOUS
 10
118.6717349138
 20
128.1654815099
 11
42.8417349138
 21
128.1654815099
  0
POLYLINE
  8
2_FEATURE
 62
7
  6
CONTINUOUS
 66
1
 70
0
  0
VERTEX
  8
2_FEATURE
 62
7
  6
CONTINUOUS
 10
87.2895344123
 20
110.968815421
  0
VERTEX
  8
2_FEATURE
 62
7
  6
CONTINUOUS
 10
87.2910878558
 20
110.9426744392
  0
VERTEX
  8
2_FEATURE
 62
7
  6
CONTINUOUS
 10
87.2926382952
 20
110.9186275297
  0
VERTEX
  8
2_FEATURE
 62
7
  6
CONTINUOUS
 10
87.2941891584
 20
110.8965305526
  0
VERTEX
  8
2_FEATURE
 62
7
  6
CONTINUOUS
 10
87.295748067
 20
110.8761978815
  0
VERTEX
  8
2_FEATURE
 62
7
  6
CONTINUOUS
 10
87.2973300935
 20
110.8573829577
  0
VERTEX
  8
2_FEATURE
 62
7
  6
CONTINUOUS
 10
87.2989577777
 20
110.8398105828
  0
VERTEX
  8
2_FEATURE
 62
7
  6
CONTINUOUS
 10
87.3006639162
 20
110.8231775084
  0
VERTEX
  8
2_FEATURE
 62
7
  6
CONTINUOUS
 10
87.3024962168
 20
110.8071456952
  0
VERTEX
  8
2_FEATURE
 62
7
  6
CONTINUOUS
 10
87.3045200657
 20
110.7913645279
  0
VERTEX
  8
2_FEATURE
 62
7
  6
CONTINUOUS
 10
87.3068329584
 20
110.7754172339
  0
VERTEX
  8
2_FEATURE
 62
7
  6
CONTINUOUS
 10
87.309586952
 20
110.7587741233
  0
VERTEX
  8
2_FEATURE
 62
7
  6
CONTINUOUS
 10
87.3130073146
 20
110.7408330238
  0
VERTEX
  8
2_FEATURE
 62
7
  6
CONTINUOUS
 10
87.3174375073
 20
110.7208730808
  0
VERTEX
  8
2_FEATURE
 62
7
  6
CONTINUOUS
 10
87.3233895263
 20
110.6980903278
  0
VERTEX
  8
2_FEATURE
 62
7
  6
CONTINUOUS
 10
87.331554355
 20
110.6718168766
  0
VERTEX
  8
2_FEATURE
 62
7
  6
CONTINUOUS
 10
87.3427390987
 20
110.641817131
  0
VERTEX
  8
2_FEATURE
 62
7
  6
CONTINUOUS
 10
87.3577755501
 20
110.6083846711
  0
VERTEX
  8
2_FEATURE
 62
7
  6
CONTINUOUS
 10
87.3775756143
 20
110.5720232395
  0
VERTEX
  8
2_FEATURE
 62
7
  6
CONTINUOUS
 10
87.4033763375
 20
110.5330902789
  0
VERTEX
  8
2_FEATURE
 62
7
  6
CONTINUOUS
 10
87.4363042912
 20
110.4926226975
  0
VERTEX
  8
2_FEATURE
 62
7
  6
CONTINUOUS
 10
87.4768716662
 20
110.4525413828
  0
VERTEX
  8
2_FEATURE
 62
7
  6
CONTINUOUS
 10
87.5249679423
 20
110.4150619065
  0
VERTEX
  8
2_FEATURE
 62
7
  6
CONTINUOUS
 10
87.5797931375
 20
110.3823758214
  0
VERTEX
  8
2_FEATURE
 62
7
  6
CONTINUOUS
 10
87.6399659708
 20
110.3563257332
  0
VERTEX
  8
2_FEATURE
 62
7
  6
CONTINUOUS
 10
87.7036843637
 20
110.338208066
  0
VERTEX
  8
2_FEATURE
 62
7
  6
CONTINUOUS
 10
87.7689143538
 20
110.3286760375
  0
VERTEX
  8
2_FEATURE
 62
7
  6
CONTINUOUS
 10
87.8086137034
 20
110.3271012932
  0
SEQEND
  0
LINE
  8
2_FEATURE
 62
7
  6
CONTINUOUS
 10
87.2864142663
 20
111.0278422775
 11
87.2895344123
 21
110.968815421
  0
LINE
  8
2_FEATURE
 62
7
  6
CONTINUOUS
 10
87.2832715153
 20
111.0966467744
 11
87.2864142663
 21
111.0278422775
  0
LINE
  8
2_FEATURE
 62
7
  6
CONTINUOUS
 10
87.2801064296
 20
111.1761323975
 11
87.2832715153
 21
111.0966467744
  0
POLYLINE
  8
0
 62
7
  6
CONTINUOUS
 66
1
 70
0
  0
VERTEX
  8
0
 62
7
  6
CONTINUOUS
 10
54.8305403221
 20
110.8032920373
  0
VERTEX
  8
0
 62
7
  6
CONTINUOUS
 10
54.8817495588
 20
110.8240797414
  0
VERTEX
  8
0
 62
7
  6
CONTINUOUS
 10
54.9315136648
 20
110.851495193
  0
VERTEX
  8
0
 62
7
  6
CONTINUOUS
 10
54.9790723364
 20
110.8855381702
  0
VERTEX
  8
0
 62
7
  6
CONTINUOUS
 10
55.0234044152
 20
110.9258560282
  0
VERTEX
  8
0
 62
7
  6
CONTINUOUS
 10
55.0637182479
 20
110.9720300439
  0
VERTEX
  8
0
 62
7
  6
CONTINUOUS
 10
55.0997452489
 20
111.0242351748
  0
VERTEX
  8
0
 62
7
  6
CONTINUOUS
 10
55.1305692185
 20
111.0818300933
  0
VERTEX
  8
0
 62
7
  6
CONTINUOUS
 10
55.1553456409
 20
111.1437950509
  0
VERTEX
  8
0
 62
7
  6
CONTINUOUS
 10
55.1736779767
 20
111.2098300379
  0
VERTEX
  8
0
 62
7
  6
CONTINUOUS
 10
55.1850085781
 20
111.2791801058
  0
VERTEX
  8
0
 62
7
  6
CONTINUOUS
 10
55.1885215041
 20
111.3301806331
  0
SEQEND
  0
LINE
  8
2_FEATURE
 62
2
  6
CONTINUOUS
 10
42.8417349138
 20
132.7071012931
 11
118.6717349138
 21
132.7071012931
  0
POLYLINE
  8
2_FEATURE
 62
7
  6
CONTINUOUS
 66
1
 70
0
  0
VERTEX
  8
2_FEATURE
 62
7
  6
CONTINUOUS
 10
86.9239354194
 20
143.8853870945
  0
VERTEX
  8
2_FEATURE
 62
7
  6
CONTINUOUS
 10
86.9223819752
 20
143.9115280947
  0
VERTEX
  8
2_FEATURE
 62
7
  6
CONTINUOUS
 10
86.9208315357
 20
143.9355750037
  0
VERTEX
  8
2_FEATURE
 62
7
  6
CONTINUOUS
 10
86.9192806739
 20
143.957671966
  0
VERTEX
  8
2_FEATURE
 62
7
  6
CONTINUOUS
 10
86.9177217655
 20
143.978004647
  0
VERTEX
  8
2_FEATURE
 62
7
  6
CONTINUOUS
 10
86.9161397376
 20
143.9968195905
  0
VERTEX
  8
2_FEATURE
 62
7
  6
CONTINUOUS
 10
86.9145120536
 20
144.0143919628
  0
VERTEX
  8
2_FEATURE
 62
7
  6
CONTINUOUS
 10
86.9128059186
 20
144.0310250078
  0
VERTEX
  8
2_FEATURE
 62
7
  6
CONTINUOUS
 10
86.910973621
 20
144.0470568099
  0
VERTEX
  8
2_FEATURE
 62
7
  6
CONTINUOUS
 10
86.9089497672
 20
144.0628380232
  0
VERTEX
  8
2_FEATURE
 62
7
  6
CONTINUOUS
 10
86.9066368715
 20
144.0787853368
  0
VERTEX
  8
2_FEATURE
 62
7
  6
CONTINUOUS
 10
86.9038828808
 20
144.0954284294
  0
VERTEX
  8
2_FEATURE
 62
7
  6
CONTINUOUS
 10
86.900462537
 20
144.1133694416
  0
VERTEX
  8
2_FEATURE
 62
7
  6
CONTINUOUS
 10
86.8960323801
 20
144.1333292571
  0
VERTEX
  8
2_FEATURE
 62
7
  6
CONTINUOUS
 10
86.8900803463
 20
144.1561121035
  0
VERTEX
  8
2_FEATURE
 62
7
  6
CONTINUOUS
 10
86.8819155027
 20
144.1823856244
  0
VERTEX
  8
2_FEATURE
 62
7
  6
CONTINUOUS
 10
86.8707307449
 20
144.2123854173
  0
VERTEX
  8
2_FEATURE
 62
7
  6
CONTINUOUS
 10
86.8556942772
 20
144.245817915
  0
VERTEX
  8
2_FEATURE
 62
7
  6
CONTINUOUS
 10
86.8358941885
 20
144.2821793857
  0
VERTEX
  8
2_FEATURE
 62
7
  6
CONTINUOUS
 10
86.8100934325
 20
144.3211123826
  0
VERTEX
  8
2_FEATURE
 62
7
  6
CONTINUOUS
 10
86.7771654341
 20
144.3615799978
  0
VERTEX
  8
2_FEATURE
 62
7
  6
CONTINUOUS
 10
86.7365979872
 20
144.4016613527
  0
VERTEX
  8
2_FEATURE
 62
7
  6
CONTINUOUS
 10
86.6885016102
 20
144.4391408642
  0
VERTEX
  8
2_FEATURE
 62
7
  6
CONTINUOUS
 10
86.6336763122
 20
144.471826955
  0
VERTEX
  8
2_FEATURE
 62
7
  6
CONTINUOUS
 10
86.5735034135
 20
144.4978770084
  0
VERTEX
  8
2_FEATURE
 62
7
  6
CONTINUOUS
 10
86.509785036
 20
144.5159946098
  0
VERTEX
  8
2_FEATURE
 62
7
  6
CONTINUOUS
 10
86.4445551835
 20
144.5255265709
  0
VERTEX
  8
2_FEATURE
 62
7
  6
CONTINUOUS
 10
86.4048561043
 20
144.527101293
  0
SEQEND
  0
LINE
  8
2_FEATURE
 62
7
  6
CONTINUOUS
 10
86.9270555644
 20
143.8263602479
 11
86.9239354194
 21
143.8853870945
  0
LINE
  8
2_FEATURE
 62
7
  6
CONTINUOUS
 10
86.9301983152
 20
143.7575557375
 11
86.9270555644
 21
143.8263602479
  0
LINE
  8
2_FEATURE
 62
7
  6
CONTINUOUS
 10
86.9333634008
 20
143.6780701189
 11
86.9301983152
 21
143.7575557375
  0
LINE
  8
2_FEATURE
 62
7
  6
CONTINUOUS
 10
87.2753403915
 20
111.3169439357
 11
87.2801064296
 21
111.1761323975
  0
LINE
  8
2_FEATURE
 62
7
  6
CONTINUOUS
 10
86.9381294385
 20
143.5372585782
 11
86.9333634008
 21
143.6780701189
  0
LINE
  8
2_FEATURE
 62
7
  6
CONTINUOUS
 10
87.2705952456
 20
111.4855107757
 11
87.2753403915
 21
111.3169439357
  0
LINE
  8
2_FEATURE
 62
7
  6
CONTINUOUS
 10
86.9428745839
 20
143.368691736
 11
86.9381294385
 21
143.5372585782
  0
LINE
  8
2_FEATURE
 62
7
  6
CONTINUOUS
 10
87.2643283644
 20
111.7600599921
 11
87.2705952456
 21
111.4855107757
  0
LINE
  8
2_FEATURE
 62
7
  6
CONTINUOUS
 10
86.9491414646
 20
143.0941425259
 11
86.9428745839
 21
143.368691736
  0
LINE
  8
2_FEATURE
 62
7
  6
CONTINUOUS
 10
87.2582114533
 20
112.1016557048
 11
87.2643283644
 21
111.7600599921
  0
LINE
  8
2_FEATURE
 62
7
  6
CONTINUOUS
 10
86.9552583751
 20
142.7525468276
 11
86.9491414646
 21
143.0941425259
  0
LINE
  8
2_FEATURE
 62
7
  6
CONTINUOUS
 10
87.2524876671
 20
112.5170858416
 11
87.2582114533
 21
112.1016557048
  0
LINE
  8
2_FEATURE
 62
7
  6
CONTINUOUS
 10
86.9609821609
 20
142.3371167156
 11
86.9552583751
 21
142.7525468276
  0
LINE
  8
2_FEATURE
 62
7
  6
CONTINUOUS
 10
87.248647194
 20
112.8787857167
 11
87.2524876671
 21
112.5170858416
  0
LINE
  8
2_FEATURE
 62
7
  6
CONTINUOUS
 10
86.9648226337
 20
141.9754168524
 11
86.9609821609
 21
142.3371167156
  0
LINE
  8
2_FEATURE
 62
7
  6
CONTINUOUS
 10
86.9681114205
 20
141.5702020104
 11
86.9648226337
 21
141.9754168524
  0
LINE
  8
2_FEATURE
 62
7
  6
CONTINUOUS
 10
87.2453584072
 20
113.2840005715
 11
87.248647194
 21
112.8787857167
  0
LINE
  8
2_FEATURE
 62
7
  6
CONTINUOUS
 10
86.9706823581
 20
141.122397751
 11
86.9681114205
 21
141.5702020104
  0
LINE
  8
2_FEATURE
 62
7
  6
CONTINUOUS
 10
87.2427874692
 20
113.7318048902
 11
87.2453584072
 21
113.2840005715
  0
LINE
  8
2_FEATURE
 62
7
  6
CONTINUOUS
 10
86.9723532893
 20
140.6347803422
 11
86.9706823581
 21
141.122397751
  0
LINE
  8
2_FEATURE
 62
7
  6
CONTINUOUS
 10
87.2411165375
 20
114.2194225674
 11
87.2427874692
 21
113.7318048902
  0
LINE
  8
2_FEATURE
 62
7
  6
CONTINUOUS
 10
86.9729312164
 20
140.1271012931
 11
86.9723532893
 21
140.6347803422
  0
LINE
  8
2_FEATURE
 62
7
  6
CONTINUOUS
 10
87.2405386112
 20
114.7271012931
 11
87.2411165375
 21
114.2194225674
  0
LINE
  8
2_FEATURE
 62
7
  6
CONTINUOUS
 10
86.9729312173
 20
138.2789070521
 11
86.9729312173
 21
140.1271012931
  0
LINE
  8
2_FEATURE
 62
7
  6
CONTINUOUS
 10
87.2405386103
 20
116.5752955341
 11
87.2405386103
 21
114.7271012931
  0
LINE
  8
2_FEATURE
 62
2
  6
CONTINUOUS
 10
42.8417349138
 20
134.6278856822
 11
118.6717349138
 21
134.6278856822
  0
POLYLINE
  8
2_FEATURE
 62
7
  6
CONTINUOUS
 66
1
 70
0
  0
VERTEX
  8
2_FEATURE
 62
7
  6
CONTINUOUS
 10
49.3602392388
 20
137.0382299603
  0
VERTEX
  8
2_FEATURE
 62
7
  6
CONTINUOUS
 10
49.3369676439
 20
137.0397588596
  0
VERTEX
  8
2_FEATURE
 62
7
  6
CONTINUOUS
 10
49.3074553013
 20
137.0460454632
  0
VERTEX
  8
2_FEATURE
 62
7
  6
CONTINUOUS
 10
49.2772632333
 20
137.0573273317
  0
VERTEX
  8
2_FEATURE
 62
7
  6
CONTINUOUS
 10
49.2477820191
 20
137.0728969694
  0
VERTEX
  8
2_FEATURE
 62
7
  6
CONTINUOUS
 10
49.2190088172
 20
137.0923654055
  0
VERTEX
  8
2_FEATURE
 62
7
  6
CONTINUOUS
 10
49.1911700742
 20
137.1152792042
  0
VERTEX
  8
2_FEATURE
 62
7
  6
CONTINUOUS
 10
49.1642341475
 20
137.1414343617
  0
VERTEX
  8
2_FEATURE
 62
7
  6
CONTINUOUS
 10
49.1383042519
 20
137.1705732394
  0
VERTEX
  8
2_FEATURE
 62
7
  6
CONTINUOUS
 10
49.1135021063
 20
137.2024136126
  0
VERTEX
  8
2_FEATURE
 62
7
  6
CONTINUOUS
 10
49.0898245479
 20
137.236839637
  0
VERTEX
  8
2_FEATURE
 62
7
  6
CONTINUOUS
 10
49.067187132
 20
137.2739189335
  0
VERTEX
  8
2_FEATURE
 62
7
  6
CONTINUOUS
 10
49.0456686124
 20
137.3135101336
  0
VERTEX
  8
2_FEATURE
 62
7
  6
CONTINUOUS
 10
49.0253992307
 20
137.3553333986
  0
VERTEX
  8
2_FEATURE
 62
7
  6
CONTINUOUS
 10
49.0064385328
 20
137.3991871503
  0
VERTEX
  8
2_FEATURE
 62
7
  6
CONTINUOUS
 10
48.9887999394
 20
137.4449428499
  0
VERTEX
  8
2_FEATURE
 62
7
  6
CONTINUOUS
 10
48.9724899835
 20
137.4924790183
  0
VERTEX
  8
2_FEATURE
 62
7
  6
CONTINUOUS
 10
48.9575184026
 20
137.5416473311
  0
VERTEX
  8
2_FEATURE
 62
7
  6
CONTINUOUS
 10
48.9438784924
 20
137.592316809
  0
VERTEX
  8
2_FEATURE
 62
7
  6
CONTINUOUS
 10
48.9315515468
 20
137.6443909505
  0
VERTEX
  8
2_FEATURE
 62
7
  6
CONTINUOUS
 10
48.9205093888
 20
137.6978005115
  0
VERTEX
  8
2_FEATURE
 62
7
  6
CONTINUOUS
 10
48.9107164179
 20
137.7525005544
  0
VERTEX
  8
2_FEATURE
 62
7
  6
CONTINUOUS
 10
48.9021363941
 20
137.8084820355
  0
VERTEX
  8
2_FEATURE
 62
7
  6
CONTINUOUS
 10
48.8947346901
 20
137.8657368702
  0
VERTEX
  8
2_FEATURE
 62
7
  6
CONTINUOUS
 10
48.8884846734
 20
137.9241589177
  0
VERTEX
  8
2_FEATURE
 62
7
  6
CONTINUOUS
 10
48.8833526587
 20
137.9836753753
  0
VERTEX
  8
2_FEATURE
 62
7
  6
CONTINUOUS
 10
48.8793005732
 20
138.0442302492
  0
VERTEX
  8
2_FEATURE
 62
7
  6
CONTINUOUS
 10
48.8762838709
 20
138.105775107
  0
VERTEX
  8
2_FEATURE
 62
7
  6
CONTINUOUS
 10
48.8742538864
 20
138.1682707619
  0
VERTEX
  8
2_FEATURE
 62
7
  6
CONTINUOUS
 10
48.8731629194
 20
138.2316909564
  0
VERTEX
  8
2_FEATURE
 62
7
  6
CONTINUOUS
 10
48.8729304475
 20
138.2789070529
  0
SEQEND
  0
LINE
  8
0
 62
40
  6
CONTINUOUS
 10
90.2567349138
 20
110.3271012931
 11
90.2567349138
 21
126.6011203027
  0
LINE
  8
2_FEATURE
 62
7
  6
CONTINUOUS
 10
113.1499044423
 20
137.0382296041
 11
112.8602392386
 21
137.0382296041
  0
LINE
  8
2_FEATURE
 62
7
  6
CONTINUOUS
 10
105.8032310611
 20
137.0382296041
 11
100.1602392386
 21
137.0382296041
  0
LINE
  8
2_FEATURE
 62
7
  6
CONTINUOUS
 10
93.1032310611
 20
137.0382296041
 11
87.4602392386
 21
137.0382296041
  0
LINE
  8
2_FEATURE
 62
7
  6
CONTINUOUS
 10
80.4032310611
 20
137.0382296041
 11
74.7602392386
 21
137.0382296041
  0
LINE
  8
2_FEATURE
 62
7
  6
CONTINUOUS
 10
67.7032310611
 20
137.0382296041
 11
62.0602392386
 21
137.0382296041
  0
LINE
  8
2_FEATURE
 62
7
  6
CONTINUOUS
 10
55.0032310611
 20
137.0382296041
 11
49.3602392386
 21
137.0382296041
  0
POLYLINE
  8
2_FEATURE
 62
7
  6
CONTINUOUS
 66
1
 70
0
  0
VERTEX
  8
2_FEATURE
 62
7
  6
CONTINUOUS
 10
62.0602392388
 20
137.0382299603
  0
VERTEX
  8
2_FEATURE
 62
7
  6
CONTINUOUS
 10
62.0369676439
 20
137.0397588596
  0
VERTEX
  8
2_FEATURE
 62
7
  6
CONTINUOUS
 10
62.0074553013
 20
137.0460454632
  0
VERTEX
  8
2_FEATURE
 62
7
  6
CONTINUOUS
 10
61.9772632333
 20
137.0573273317
  0
VERTEX
  8
2_FEATURE
 62
7
  6
CONTINUOUS
 10
61.9477820191
 20
137.0728969694
  0
VERTEX
  8
2_FEATURE
 62
7
  6
CONTINUOUS
 10
61.9190088172
 20
137.0923654055
  0
VERTEX
  8
2_FEATURE
 62
7
  6
CONTINUOUS
 10
61.8911700742
 20
137.1152792042
  0
VERTEX
  8
2_FEATURE
 62
7
  6
CONTINUOUS
 10
61.8642341475
 20
137.1414343617
  0
VERTEX
  8
2_FEATURE
 62
7
  6
CONTINUOUS
 10
61.8383042519
 20
137.1705732394
  0
VERTEX
  8
2_FEATURE
 62
7
  6
CONTINUOUS
 10
61.8135021063
 20
137.2024136126
  0
VERTEX
  8
2_FEATURE
 62
7
  6
CONTINUOUS
 10
61.7898245479
 20
137.236839637
  0
VERTEX
  8
2_FEATURE
 62
7
  6
CONTINUOUS
 10
61.767187132
 20
137.2739189335
  0
VERTEX
  8
2_FEATURE
 62
7
  6
CONTINUOUS
 10
61.7456686124
 20
137.3135101336
  0
VERTEX
  8
2_FEATURE
 62
7
  6
CONTINUOUS
 10
61.7253992307
 20
137.3553333986
  0
VERTEX
  8
2_FEATURE
 62
7
  6
CONTINUOUS
 10
61.7064385328
 20
137.3991871503
  0
VERTEX
  8
2_FEATURE
 62
7
  6
CONTINUOUS
 10
61.6887999394
 20
137.4449428499
  0
VERTEX
  8
2_FEATURE
 62
7
  6
CONTINUOUS
 10
61.6724899835
 20
137.4924790183
  0
VERTEX
  8
2_FEATURE
 62
7
  6
CONTINUOUS
 10
61.6575184026
 20
137.5416473311
  0
VERTEX
  8
2_FEATURE
 62
7
  6
CONTINUOUS
 10
61.6438784924
 20
137.592316809
  0
VERTEX
  8
2_FEATURE
 62
7
  6
CONTINUOUS
 10
61.6315515468
 20
137.6443909505
  0
VERTEX
  8
2_FEATURE
 62
7
  6
CONTINUOUS
 10
61.6205093888
 20
137.6978005115
  0
VERTEX
  8
2_FEATURE
 62
7
  6
CONTINUOUS
 10
61.6107164179
 20
137.7525005544
  0
VERTEX
  8
2_FEATURE
 62
7
  6
CONTINUOUS
 10
61.6021363941
 20
137.8084820355
  0
VERTEX
  8
2_FEATURE
 62
7
  6
CONTINUOUS
 10
61.5947346901
 20
137.8657368702
  0
VERTEX
  8
2_FEATURE
 62
7
  6
CONTINUOUS
 10
61.5884846734
 20
137.9241589177
  0
VERTEX
  8
2_FEATURE
 62
7
  6
CONTINUOUS
 10
61.5833526587
 20
137.9836753753
  0
VERTEX
  8
2_FEATURE
 62
7
  6
CONTINUOUS
 10
61.5793005732
 20
138.0442302492
  0
VERTEX
  8
2_FEATURE
 62
7
  6
CONTINUOUS
 10
61.5762838709
 20
138.105775107
  0
VERTEX
  8
2_FEATURE
 62
7
  6
CONTINUOUS
 10
61.5742538864
 20
138.1682707619
  0
VERTEX
  8
2_FEATURE
 62
7
  6
CONTINUOUS
 10
61.5731629194
 20
138.2316909564
  0
VERTEX
  8
2_FEATURE
 62
7
  6
CONTINUOUS
 10
61.5729304475
 20
138.2789070529
  0
SEQEND
  0
POLYLINE
  8
2_FEATURE
 62
7
  6
CONTINUOUS
 66
1
 70
0
  0
VERTEX
  8
2_FEATURE
 62
7
  6
CONTINUOUS
 10
74.7602392388
 20
137.0382299603
  0
VERTEX
  8
2_FEATURE
 62
7
  6
CONTINUOUS
 10
74.7369676439
 20
137.0397588596
  0
VERTEX
  8
2_FEATURE
 62
7
  6
CONTINUOUS
 10
74.7074553013
 20
137.0460454632
  0
VERTEX
  8
2_FEATURE
 62
7
  6
CONTINUOUS
 10
74.6772632333
 20
137.0573273317
  0
VERTEX
  8
2_FEATURE
 62
7
  6
CONTINUOUS
 10
74.6477820191
 20
137.0728969694
  0
VERTEX
  8
2_FEATURE
 62
7
  6
CONTINUOUS
 10
74.6190088172
 20
137.0923654055
  0
VERTEX
  8
2_FEATURE
 62
7
  6
CONTINUOUS
 10
74.5911700742
 20
137.1152792042
  0
VERTEX
  8
2_FEATURE
 62
7
  6
CONTINUOUS
 10
74.5642341475
 20
137.1414343617
  0
VERTEX
  8
2_FEATURE
 62
7
  6
CONTINUOUS
 10
74.5383042519
 20
137.1705732394
  0
VERTEX
  8
2_FEATURE
 62
7
  6
CONTINUOUS
 10
74.5135021063
 20
137.2024136126
  0
VERTEX
  8
2_FEATURE
 62
7
  6
CONTINUOUS
 10
74.4898245479
 20
137.236839637
  0
VERTEX
  8
2_FEATURE
 62
7
  6
CONTINUOUS
 10
74.467187132
 20
137.2739189335
  0
VERTEX
  8
2_FEATURE
 62
7
  6
CONTINUOUS
 10
74.4456686124
 20
137.3135101336
  0
VERTEX
  8
2_FEATURE
 62
7
  6
CONTINUOUS
 10
74.4253992307
 20
137.3553333986
  0
VERTEX
  8
2_FEATURE
 62
7
  6
CONTINUOUS
 10
74.4064385328
 20
137.3991871503
  0
VERTEX
  8
2_FEATURE
 62
7
  6
CONTINUOUS
 10
74.3887999394
 20
137.4449428499
  0
VERTEX
  8
2_FEATURE
 62
7
  6
CONTINUOUS
 10
74.3724899835
 20
137.4924790183
  0
VERTEX
  8
2_FEATURE
 62
7
  6
CONTINUOUS
 10
74.3575184026
 20
137.5416473311
  0
VERTEX
  8
2_FEATURE
 62
7
  6
CONTINUOUS
 10
74.3438784924
 20
137.592316809
  0
VERTEX
  8
2_FEATURE
 62
7
  6
CONTINUOUS
 10
74.3315515468
 20
137.6443909505
  0
VERTEX
  8
2_FEATURE
 62
7
  6
CONTINUOUS
 10
74.3205093888
 20
137.6978005115
  0
VERTEX
  8
2_FEATURE
 62
7
  6
CONTINUOUS
 10
74.3107164179
 20
137.7525005544
  0
VERTEX
  8
2_FEATURE
 62
7
  6
CONTINUOUS
 10
74.3021363941
 20
137.8084820355
  0
VERTEX
  8
2_FEATURE
 62
7
  6
CONTINUOUS
 10
74.2947346901
 20
137.8657368702
  0
VERTEX
  8
2_FEATURE
 62
7
  6
CONTINUOUS
 10
74.2884846734
 20
137.9241589177
  0
VERTEX
  8
2_FEATURE
 62
7
  6
CONTINUOUS
 10
74.2833526587
 20
137.9836753753
  0
VERTEX
  8
2_FEATURE
 62
7
  6
CONTINUOUS
 10
74.2793005732
 20
138.0442302492
  0
VERTEX
  8
2_FEATURE
 62
7
  6
CONTINUOUS
 10
74.2762838709
 20
138.105775107
  0
VERTEX
  8
2_FEATURE
 62
7
  6
CONTINUOUS
 10
74.2742538864
 20
138.1682707619
  0
VERTEX
  8
2_FEATURE
 62
7
  6
CONTINUOUS
 10
74.2731629194
 20
138.2316909564
  0
VERTEX
  8
2_FEATURE
 62
7
  6
CONTINUOUS
 10
74.2729304475
 20
138.2789070529
  0
SEQEND
  0
POLYLINE
  8
2_FEATURE
 62
7
  6
CONTINUOUS
 66
1
 70
0
  0
VERTEX
  8
2_FEATURE
 62
7
  6
CONTINUOUS
 10
87.4602392388
 20
137.0382299603
  0
VERTEX
  8
2_FEATURE
 62
7
  6
CONTINUOUS
 10
87.4369676439
 20
137.0397588596
  0
VERTEX
  8
2_FEATURE
 62
7
  6
CONTINUOUS
 10
87.4074553013
 20
137.0460454632
  0
VERTEX
  8
2_FEATURE
 62
7
  6
CONTINUOUS
 10
87.3772632333
 20
137.0573273317
  0
VERTEX
  8
2_FEATURE
 62
7
  6
CONTINUOUS
 10
87.3477820191
 20
137.0728969694
  0
VERTEX
  8
2_FEATURE
 62
7
  6
CONTINUOUS
 10
87.3190088172
 20
137.0923654055
  0
VERTEX
  8
2_FEATURE
 62
7
  6
CONTINUOUS
 10
87.2911700742
 20
137.1152792042
  0
VERTEX
  8
2_FEATURE
 62
7
  6
CONTINUOUS
 10
87.2642341475
 20
137.1414343617
  0
VERTEX
  8
2_FEATURE
 62
7
  6
CONTINUOUS
 10
87.2383042519
 20
137.1705732394
  0
VERTEX
  8
2_FEATURE
 62
7
  6
CONTINUOUS
 10
87.2135021063
 20
137.2024136126
  0
VERTEX
  8
2_FEATURE
 62
7
  6
CONTINUOUS
 10
87.1898245479
 20
137.236839637
  0
VERTEX
  8
2_FEATURE
 62
7
  6
CONTINUOUS
 10
87.167187132
 20
137.2739189335
  0
VERTEX
  8
2_FEATURE
 62
7
  6
CONTINUOUS
 10
87.1456686124
 20
137.3135101336
  0
VERTEX
  8
2_FEATURE
 62
7
  6
CONTINUOUS
 10
87.1253992307
 20
137.3553333986
  0
VERTEX
  8
2_FEATURE
 62
7
  6
CONTINUOUS
 10
87.1064385328
 20
137.3991871503
  0
VERTEX
  8
2_FEATURE
 62
7
  6
CONTINUOUS
 10
87.0887999394
 20
137.4449428499
  0
VERTEX
  8
2_FEATURE
 62
7
  6
CONTINUOUS
 10
87.0724899835
 20
137.4924790183
  0
VERTEX
  8
2_FEATURE
 62
7
  6
CONTINUOUS
 10
87.0575184026
 20
137.5416473311
  0
VERTEX
  8
2_FEATURE
 62
7
  6
CONTINUOUS
 10
87.0438784924
 20
137.592316809
  0
VERTEX
  8
2_FEATURE
 62
7
  6
CONTINUOUS
 10
87.0315515468
 20
137.6443909505
  0
VERTEX
  8
2_FEATURE
 62
7
  6
CONTINUOUS
 10
87.0205093888
 20
137.6978005115
  0
VERTEX
  8
2_FEATURE
 62
7
  6
CONTINUOUS
 10
87.0107164179
 20
137.7525005544
  0
VERTEX
  8
2_FEATURE
 62
7
  6
CONTINUOUS
 10
87.0021363941
 20
137.8084820355
  0
VERTEX
  8
2_FEATURE
 62
7
  6
CONTINUOUS
 10
86.9947346901
 20
137.8657368702
  0
VERTEX
  8
2_FEATURE
 62
7
  6
CONTINUOUS
 10
86.9884846734
 20
137.9241589177
  0
VERTEX
  8
2_FEATURE
 62
7
  6
CONTINUOUS
 10
86.9833526587
 20
137.9836753753
  0
VERTEX
  8
2_FEATURE
 62
7
  6
CONTINUOUS
 10
86.9793005732
 20
138.0442302492
  0
VERTEX
  8
2_FEATURE
 62
7
  6
CONTINUOUS
 10
86.9762838709
 20
138.105775107
  0
VERTEX
  8
2_FEATURE
 62
7
  6
CONTINUOUS
 10
86.9742538864
 20
138.1682707619
  0
VERTEX
  8
2_FEATURE
 62
7
  6
CONTINUOUS
 10
86.9731629194
 20
138.2316909564
  0
VERTEX
  8
2_FEATURE
 62
7
  6
CONTINUOUS
 10
86.9729304475
 20
138.2789070529
  0
SEQEND
  0
POLYLINE
  8
2_FEATURE
 62
7
  6
CONTINUOUS
 66
1
 70
0
  0
VERTEX
  8
2_FEATURE
 62
7
  6
CONTINUOUS
 10
100.1602392388
 20
137.0382299603
  0
VERTEX
  8
2_FEATURE
 62
7
  6
CONTINUOUS
 10
100.1369676439
 20
137.0397588596
  0
VERTEX
  8
2_FEATURE
 62
7
  6
CONTINUOUS
 10
100.1074553013
 20
137.0460454632
  0
VERTEX
  8
2_FEATURE
 62
7
  6
CONTINUOUS
 10
100.0772632333
 20
137.0573273317
  0
VERTEX
  8
2_FEATURE
 62
7
  6
CONTINUOUS
 10
100.0477820191
 20
137.0728969694
  0
VERTEX
  8
2_FEATURE
 62
7
  6
CONTINUOUS
 10
100.0190088172
 20
137.0923654055
  0
VERTEX
  8
2_FEATURE
 62
7
  6
CONTINUOUS
 10
99.9911700742
 20
137.1152792042
  0
VERTEX
  8
2_FEATURE
 62
7
  6
CONTINUOUS
 10
99.9642341475
 20
137.1414343617
  0
VERTEX
  8
2_FEATURE
 62
7
  6
CONTINUOUS
 10
99.9383042519
 20
137.1705732394
  0
VERTEX
  8
2_FEATURE
 62
7
  6
CONTINUOUS
 10
99.9135021063
 20
137.2024136126
  0
VERTEX
  8
2_FEATURE
 62
7
  6
CONTINUOUS
 10
99.8898245479
 20
137.236839637
  0
VERTEX
  8
2_FEATURE
 62
7
  6
CONTINUOUS
 10
99.867187132
 20
137.2739189335
  0
VERTEX
  8
2_FEATURE
 62
7
  6
CONTINUOUS
 10
99.8456686124
 20
137.3135101336
  0
VERTEX
  8
2_FEATURE
 62
7
  6
CONTINUOUS
 10
99.8253992307
 20
137.3553333986
  0
VERTEX
  8
2_FEATURE
 62
7
  6
CONTINUOUS
 10
99.8064385328
 20
137.3991871503
  0
VERTEX
  8
2_FEATURE
 62
7
  6
CONTINUOUS
 10
99.7887999394
 20
137.4449428499
  0
VERTEX
  8
2_FEATURE
 62
7
  6
CONTINUOUS
 10
99.7724899835
 20
137.4924790183
  0
VERTEX
  8
2_FEATURE
 62
7
  6
CONTINUOUS
 10
99.7575184026
 20
137.5416473311
  0
VERTEX
  8
2_FEATURE
 62
7
  6
CONTINUOUS
 10
99.7438784924
 20
137.592316809
  0
VERTEX
  8
2_FEATURE
 62
7
  6
CONTINUOUS
 10
99.7315515468
 20
137.6443909505
  0
VERTEX
  8
2_FEATURE
 62
7
  6
CONTINUOUS
 10
99.7205093888
 20
137.6978005115
  0
VERTEX
  8
2_FEATURE
 62
7
  6
CONTINUOUS
 10
99.7107164179
 20
137.7525005544
  0
VERTEX
  8
2_FEATURE
 62
7
  6
CONTINUOUS
 10
99.7021363941
 20
137.8084820355
  0
VERTEX
  8
2_FEATURE
 62
7
  6
CONTINUOUS
 10
99.6947346901
 20
137.8657368702
  0
VERTEX
  8
2_FEATURE
 62
7
  6
CONTINUOUS
 10
99.6884846734
 20
137.9241589177
  0
VERTEX
  8
2_FEATURE
 62
7
  6
CONTINUOUS
 10
99.6833526587
 20
137.9836753753
  0
VERTEX
  8
2_FEATURE
 62
7
  6
CONTINUOUS
 10
99.6793005732
 20
138.0442302492
  0
VERTEX
  8
2_FEATURE
 62
7
  6
CONTINUOUS
 10
99.6762838709
 20
138.105775107
  0
VERTEX
  8
2_FEATURE
 62
7
  6
CONTINUOUS
 10
99.6742538864
 20
138.1682707619
  0
VERTEX
  8
2_FEATURE
 62
7
  6
CONTINUOUS
 10
99.6731629194
 20
138.2316909564
  0
VERTEX
  8
2_FEATURE
 62
7
  6
CONTINUOUS
 10
99.6729304475
 20
138.2789070529
  0
SEQEND
  0
LINE
  8
2_FEATURE
 62
7
  6
CONTINUOUS
 10
93.3223936595
 20
114.2374023113
 11
93.3229312173
 21
116.5752955418
  0
LINE
  8
2_FEATURE
 62
7
  6
CONTINUOUS
 10
93.591076169
 20
140.616800647
 11
93.5905386103
 21
138.2789070444
  0
LINE
  8
2_FEATURE
 62
7
  6
CONTINUOUS
 10
93.3201201441
 20
113.6166526522
 11
93.3223936595
 21
114.2374023113
  0
LINE
  8
2_FEATURE
 62
7
  6
CONTINUOUS
 10
93.593349684
 20
141.2375500227
 11
93.591076169
 21
140.616800647
  0
POLYLINE
  8
2_FEATURE
 62
7
  6
CONTINUOUS
 66
1
 70
0
  0
VERTEX
  8
2_FEATURE
 62
7
  6
CONTINUOUS
 10
93.3229304487
 20
116.5752955418
  0
VERTEX
  8
2_FEATURE
 62
7
  6
CONTINUOUS
 10
93.3231768347
 20
116.6238837993
  0
VERTEX
  8
2_FEATURE
 62
7
  6
CONTINUOUS
 10
93.3242868805
 20
116.6872612474
  0
VERTEX
  8
2_FEATURE
 62
7
  6
CONTINUOUS
 10
93.3263363208
 20
116.7497153741
  0
VERTEX
  8
2_FEATURE
 62
7
  6
CONTINUOUS
 10
93.329372849
 20
116.8112197933
  0
VERTEX
  8
2_FEATURE
 62
7
  6
CONTINUOUS
 10
93.3334451385
 20
116.8717352135
  0
VERTEX
  8
2_FEATURE
 62
7
  6
CONTINUOUS
 10
93.3385976473
 20
116.9312131835
  0
VERTEX
  8
2_FEATURE
 62
7
  6
CONTINUOUS
 10
93.3448683827
 20
116.9895976621
  0
VERTEX
  8
2_FEATURE
 62
7
  6
CONTINUOUS
 10
93.3522910929
 20
117.0468156765
  0
VERTEX
  8
2_FEATURE
 62
7
  6
CONTINUOUS
 10
93.3608922828
 20
117.1027605715
  0
VERTEX
  8
2_FEATURE
 62
7
  6
CONTINUOUS
 10
93.3707064943
 20
117.1574241288
  0
VERTEX
  8
2_FEATURE
 62
7
  6
CONTINUOUS
 10
93.3817700627
 20
117.2107973724
  0
VERTEX
  8
2_FEATURE
 62
7
  6
CONTINUOUS
 10
93.3941186521
 20
117.2628354264
  0
VERTEX
  8
2_FEATURE
 62
7
  6
CONTINUOUS
 10
93.4077804611
 20
117.3134691694
  0
VERTEX
  8
2_FEATURE
 62
7
  6
CONTINUOUS
 10
93.422774257
 20
117.3626018422
  0
VERTEX
  8
2_FEATURE
 62
7
  6
CONTINUOUS
 10
93.4391067467
 20
117.4101022842
  0
VERTEX
  8
2_FEATURE
 62
7
  6
CONTINUOUS
 10
93.4567681166
 20
117.4558218633
  0
VERTEX
  8
2_FEATURE
 62
7
  6
CONTINUOUS
 10
93.4757517352
 20
117.4996385351
  0
VERTEX
  8
2_FEATURE
 62
7
  6
CONTINUOUS
 10
93.4960447729
 20
117.5414247595
  0
VERTEX
  8
2_FEATURE
 62
7
  6
CONTINUOUS
 10
93.5175881158
 20
117.5809792237
  0
VERTEX
  8
2_FEATURE
 62
7
  6
CONTINUOUS
 10
93.540251924
 20
117.6180220655
  0
VERTEX
  8
2_FEATURE
 62
7
  6
CONTINUOUS
 10
93.563955603
 20
117.6524084601
  0
VERTEX
  8
2_FEATURE
 62
7
  6
CONTINUOUS
 10
93.5887834881
 20
117.6842050922
  0
VERTEX
  8
2_FEATURE
 62
7
  6
CONTINUOUS
 10
93.6147377061
 20
117.7132946501
  0
VERTEX
  8
2_FEATURE
 62
7
  6
CONTINUOUS
 10
93.6416943763
 20
117.7393929102
  0
VERTEX
  8
2_FEATURE
 62
7
  6
CONTINUOUS
 10
93.6695485815
 20
117.7622414264
  0
VERTEX
  8
2_FEATURE
 62
7
  6
CONTINUOUS
 10
93.6983298866
 20
117.7816353514
  0
VERTEX
  8
2_FEATURE
 62
7
  6
CONTINUOUS
 10
93.7278164135
 20
117.7971248168
  0
VERTEX
  8
2_FEATURE
 62
7
  6
CONTINUOUS
 10
93.7580088581
 20
117.8083188392
  0
VERTEX
  8
2_FEATURE
 62
7
  6
CONTINUOUS
 10
93.7874963611
 20
117.8145123618
  0
VERTEX
  8
2_FEATURE
 62
7
  6
CONTINUOUS
 10
93.8102385799
 20
117.8159726263
  0
SEQEND
  0
POLYLINE
  8
2_FEATURE
 62
7
  6
CONTINUOUS
 66
1
 70
0
  0
VERTEX
  8
2_FEATURE
 62
7
  6
CONTINUOUS
 10
93.5905393789
 20
138.2789070444
  0
VERTEX
  8
2_FEATURE
 62
7
  6
CONTINUOUS
 10
93.5902929929
 20
138.2303187869
  0
VERTEX
  8
2_FEATURE
 62
7
  6
CONTINUOUS
 10
93.5891829471
 20
138.1669413389
  0
VERTEX
  8
2_FEATURE
 62
7
  6
CONTINUOUS
 10
93.5871335068
 20
138.1044872121
  0
VERTEX
  8
2_FEATURE
 62
7
  6
CONTINUOUS
 10
93.5840969786
 20
138.0429827929
  0
VERTEX
  8
2_FEATURE
 62
7
  6
CONTINUOUS
 10
93.5800246891
 20
137.9824673727
  0
VERTEX
  8
2_FEATURE
 62
7
  6
CONTINUOUS
 10
93.5748721803
 20
137.9229894027
  0
VERTEX
  8
2_FEATURE
 62
7
  6
CONTINUOUS
 10
93.5686014449
 20
137.8646049242
  0
VERTEX
  8
2_FEATURE
 62
7
  6
CONTINUOUS
 10
93.5611787347
 20
137.8073869097
  0
VERTEX
  8
2_FEATURE
 62
7
  6
CONTINUOUS
 10
93.5525775448
 20
137.7514420147
  0
VERTEX
  8
2_FEATURE
 62
7
  6
CONTINUOUS
 10
93.5427633333
 20
137.6967784574
  0
VERTEX
  8
2_FEATURE
 62
7
  6
CONTINUOUS
 10
93.5316997649
 20
137.6434052138
  0
VERTEX
  8
2_FEATURE
 62
7
  6
CONTINUOUS
 10
93.5193511755
 20
137.5913671598
  0
VERTEX
  8
2_FEATURE
 62
7
  6
CONTINUOUS
 10
93.5056893665
 20
137.5407334168
  0
VERTEX
  8
2_FEATURE
 62
7
  6
CONTINUOUS
 10
93.4906955706
 20
137.491600744
  0
VERTEX
  8
2_FEATURE
 62
7
  6
CONTINUOUS
 10
93.4743630809
 20
137.444100302
  0
VERTEX
  8
2_FEATURE
 62
7
  6
CONTINUOUS
 10
93.456701711
 20
137.3983807229
  0
VERTEX
  8
2_FEATURE
 62
7
  6
CONTINUOUS
 10
93.4377180923
 20
137.3545640511
  0
VERTEX
  8
2_FEATURE
 62
7
  6
CONTINUOUS
 10
93.4174250547
 20
137.3127778267
  0
VERTEX
  8
2_FEATURE
 62
7
  6
CONTINUOUS
 10
93.3958817117
 20
137.2732233625
  0
VERTEX
  8
2_FEATURE
 62
7
  6
CONTINUOUS
 10
93.3732179035
 20
137.2361805207
  0
VERTEX
  8
2_FEATURE
 62
7
  6
CONTINUOUS
 10
93.3495142246
 20
137.2017941261
  0
VERTEX
  8
2_FEATURE
 62
7
  6
CONTINUOUS
 10
93.3246863395
 20
137.169997494
  0
VERTEX
  8
2_FEATURE
 62
7
  6
CONTINUOUS
 10
93.2987321214
 20
137.1409079361
  0
VERTEX
  8
2_FEATURE
 62
7
  6
CONTINUOUS
 10
93.2717754513
 20
137.1148096761
  0
VERTEX
  8
2_FEATURE
 62
7
  6
CONTINUOUS
 10
93.2439212461
 20
137.0919611598
  0
VERTEX
  8
2_FEATURE
 62
7
  6
CONTINUOUS
 10
93.215139941
 20
137.0725672348
  0
VERTEX
  8
2_FEATURE
 62
7
  6
CONTINUOUS
 10
93.185653414
 20
137.0570777694
  0
VERTEX
  8
2_FEATURE
 62
7
  6
CONTINUOUS
 10
93.1554609695
 20
137.045883747
  0
VERTEX
  8
2_FEATURE
 62
7
  6
CONTINUOUS
 10
93.1259734665
 20
137.0396902244
  0
VERTEX
  8
2_FEATURE
 62
7
  6
CONTINUOUS
 10
93.1032312476
 20
137.0382299599
  0
SEQEND
  0
LINE
  8
2_FEATURE
 62
7
  6
CONTINUOUS
 10
93.316437197
 20
113.0626648396
 11
93.3201201441
 21
113.6166526522
  0
LINE
  8
2_FEATURE
 62
7
  6
CONTINUOUS
 10
93.5970326313
 20
141.7915378286
 11
93.593349684
 21
141.2375500227
  0
LINE
  8
2_FEATURE
 62
7
  6
CONTINUOUS
 10
93.6017483581
 20
142.2739799616
 11
93.5970326313
 21
141.7915378286
  0
LINE
  8
2_FEATURE
 62
7
  6
CONTINUOUS
 10
93.3117214706
 20
112.5802227117
 11
93.316437197
 21
113.0626648396
  0
LINE
  8
2_FEATURE
 62
7
  6
CONTINUOUS
 10
93.607163281
 20
142.6846603375
 11
93.6017483581
 21
142.2739799616
  0
LINE
  8
2_FEATURE
 62
7
  6
CONTINUOUS
 10
93.3063065483
 20
112.1695423618
 11
93.3117214706
 21
112.5802227117
  0
LINE
  8
2_FEATURE
 62
7
  6
CONTINUOUS
 10
93.6144774649
 20
143.101467609
 11
93.607163281
 21
142.6846603375
  0
LINE
  8
2_FEATURE
 62
7
  6
CONTINUOUS
 10
93.2989923654
 20
111.7527351071
 11
93.3063065483
 21
112.1695423618
  0
LINE
  8
2_FEATURE
 62
7
  6
CONTINUOUS
 10
93.6205095072
 20
143.3653584299
 11
93.6144774649
 21
143.101467609
  0
LINE
  8
2_FEATURE
 62
7
  6
CONTINUOUS
 10
93.2929603231
 20
111.4888442638
 11
93.2989923654
 21
111.7527351071
  0
LINE
  8
2_FEATURE
 62
7
  6
CONTINUOUS
 10
93.6250817099
 20
143.5288355327
 11
93.6205095072
 21
143.3653584299
  0
LINE
  8
2_FEATURE
 62
7
  6
CONTINUOUS
 10
93.2883881201
 20
111.325367137
 11
93.2929603231
 21
111.4888442638
  0
LINE
  8
2_FEATURE
 62
7
  6
CONTINUOUS
 10
93.6296807636
 20
143.6665578512
 11
93.6250817099
 21
143.5288355327
  0
LINE
  8
2_FEATURE
 62
7
  6
CONTINUOUS
 10
93.2837890659
 20
111.1876447884
 11
93.2883881201
 21
111.325367137
  0
LINE
  8
2_FEATURE
 62
7
  6
CONTINUOUS
 10
93.6327398951
 20
143.7449400811
 11
93.6296807636
 21
143.6665578512
  0
LINE
  8
2_FEATURE
 62
7
  6
CONTINUOUS
 10
93.2807299341
 20
111.1092625385
 11
93.2837890659
 21
111.1876447884
  0
LINE
  8
2_FEATURE
 62
7
  6
CONTINUOUS
 10
93.635778785
 20
143.8132262284
 11
93.6327398951
 21
143.7449400811
  0
LINE
  8
2_FEATURE
 62
7
  6
CONTINUOUS
 10
93.2776910436
 20
111.0409763836
 11
93.2807299341
 21
111.1092625385
  0
POLYLINE
  8
0
 62
7
  6
CONTINUOUS
 66
1
 70
0
  0
VERTEX
  8
0
 62
7
  6
CONTINUOUS
 10
106.7417841705
 20
144.5132946825
  0
VERTEX
  8
0
 62
7
  6
CONTINUOUS
 10
106.7311610936
 20
144.4969078158
  0
VERTEX
  8
0
 62
7
  6
CONTINUOUS
 10
106.7211590306
 20
144.4559170367
  0
VERTEX
  8
0
 62
7
  6
CONTINUOUS
 10
106.7112794601
 20
144.3903838987
  0
VERTEX
  8
0
 62
7
  6
CONTINUOUS
 10
106.7015782751
 20
144.3006784841
  0
VERTEX
  8
0
 62
7
  6
CONTINUOUS
 10
106.692110402
 20
144.187307183
  0
VERTEX
  8
0
 62
7
  6
CONTINUOUS
 10
106.6829295055
 20
144.0509105444
  0
SEQEND
  0
LINE
  8
DEFAULT_1
 62
2
  6
CENTER
 10
40.8417349138
 20
140.1271012931
 11
114.3503184828
 21
140.1271012931
  0
POLYLINE
  8
2_FEATURE
 62
7
  6
CONTINUOUS
 66
1
 70
0
  0
VERTEX
  8
2_FEATURE
 62
7
  6
CONTINUOUS
 10
113.1972471931
 20
137.0359832218
  0
VERTEX
  8
2_FEATURE
 62
7
  6
CONTINUOUS
 10
113.1601741152
 20
137.0381241268
  0
VERTEX
  8
2_FEATURE
 62
7
  6
CONTINUOUS
 10
113.1499044423
 20
137.0382296041
  0
SEQEND
  0
POLYLINE
  8
2_FEATURE
 62
7
  6
CONTINUOUS
 66
1
 70
0
  0
VERTEX
  8
2_FEATURE
 62
7
  6
CONTINUOUS
 10
112.8602392388
 20
137.0382299603
  0
VERTEX
  8
2_FEATURE
 62
7
  6
CONTINUOUS
 10
112.8369676439
 20
137.0397588596
  0
VERTEX
  8
2_FEATURE
 62
7
  6
CONTINUOUS
 10
112.8074553013
 20
137.0460454632
  0
VERTEX
  8
2_FEATURE
 62
7
  6
CONTINUOUS
 10
112.7772632333
 20
137.0573273317
  0
VERTEX
  8
2_FEATURE
 62
7
  6
CONTINUOUS
 10
112.7477820191
 20
137.0728969694
  0
VERTEX
  8
2_FEATURE
 62
7
  6
CONTINUOUS
 10
112.7190088172
 20
137.0923654055
  0
VERTEX
  8
2_FEATURE
 62
7
  6
CONTINUOUS
 10
112.6911700742
 20
137.1152792042
  0
VERTEX
  8
2_FEATURE
 62
7
  6
CONTINUOUS
 10
112.6642341475
 20
137.1414343617
  0
VERTEX
  8
2_FEATURE
 62
7
  6
CONTINUOUS
 10
112.6383042519
 20
137.1705732394
  0
VERTEX
  8
2_FEATURE
 62
7
  6
CONTINUOUS
 10
112.6135021063
 20
137.2024136126
  0
VERTEX
  8
2_FEATURE
 62
7
  6
CONTINUOUS
 10
112.5898245479
 20
137.236839637
  0
VERTEX
  8
2_FEATURE
 62
7
  6
CONTINUOUS
 10
112.567187132
 20
137.2739189335
  0
VERTEX
  8
2_FEATURE
 62
7
  6
CONTINUOUS
 10
112.5456686124
 20
137.3135101336
  0
VERTEX
  8
2_FEATURE
 62
7
  6
CONTINUOUS
 10
112.5253992307
 20
137.3553333986
  0
VERTEX
  8
2_FEATURE
 62
7
  6
CONTINUOUS
 10
112.5064385328
 20
137.3991871503
  0
VERTEX
  8
2_FEATURE
 62
7
  6
CONTINUOUS
 10
112.4887999394
 20
137.4449428499
  0
VERTEX
  8
2_FEATURE
 62
7
  6
CONTINUOUS
 10
112.4724899835
 20
137.4924790183
  0
VERTEX
  8
2_FEATURE
 62
7
  6
CONTINUOUS
 10
112.4575184026
 20
137.5416473311
  0
VERTEX
  8
2_FEATURE
 62
7
  6
CONTINUOUS
 10
112.4438784924
 20
137.592316809
  0
VERTEX
  8
2_FEATURE
 62
7
  6
CONTINUOUS
 10
112.4315515468
 20
137.6443909505
  0
VERTEX
  8
2_FEATURE
 62
7
  6
CONTINUOUS
 10
112.4205093888
 20
137.6978005115
  0
VERTEX
  8
2_FEATURE
 62
7
  6
CONTINUOUS
 10
112.4107164179
 20
137.7525005544
  0
VERTEX
  8
2_FEATURE
 62
7
  6
CONTINUOUS
 10
112.4021363941
 20
137.8084820355
  0
VERTEX
  8
2_FEATURE
 62
7
  6
CONTINUOUS
 10
112.3947346901
 20
137.8657368702
  0
VERTEX
  8
2_FEATURE
 62
7
  6
CONTINUOUS
 10
112.3884846734
 20
137.9241589177
  0
VERTEX
  8
2_FEATURE
 62
7
  6
CONTINUOUS
 10
112.3833526587
 20
137.9836753753
  0
VERTEX
  8
2_FEATURE
 62
7
  6
CONTINUOUS
 10
112.3793005732
 20
138.0442302492
  0
VERTEX
  8
2_FEATURE
 62
7
  6
CONTINUOUS
 10
112.3762838709
 20
138.105775107
  0
VERTEX
  8
2_FEATURE
 62
7
  6
CONTINUOUS
 10
112.3742538864
 20
138.1682707619
  0
VERTEX
  8
2_FEATURE
 62
7
  6
CONTINUOUS
 10
112.3731629194
 20
138.2316909564
  0
VERTEX
  8
2_FEATURE
 62
7
  6
CONTINUOUS
 10
112.3729304475
 20
138.2789070529
  0
SEQEND
  0
POLYLINE
  8
2_FEATURE
 62
7
  6
CONTINUOUS
 66
1
 70
0
  0
VERTEX
  8
2_FEATURE
 62
7
  6
CONTINUOUS
 10
118.3016961572
 20
136.6045177667
  0
VERTEX
  8
2_FEATURE
 62
7
  6
CONTINUOUS
 10
116.5147751391
 20
136.7442215718
  0
VERTEX
  8
2_FEATURE
 62
7
  6
CONTINUOUS
 10
114.7989103325
 20
136.8894475812
  0
VERTEX
  8
2_FEATURE
 62
7
  6
CONTINUOUS
 10
113.1972468005
 20
137.0359805607
  0
SEQEND
  0
POLYLINE
  8
2_FEATURE
 62
7
  6
CONTINUOUS
 66
1
 70
0
  0
VERTEX
  8
2_FEATURE
 62
7
  6
CONTINUOUS
 10
106.858613726
 20
144.527101293
  0
VERTEX
  8
2_FEATURE
 62
7
  6
CONTINUOUS
 10
106.8179362001
 20
144.5254478611
  0
VERTEX
  8
2_FEATURE
 62
7
  6
CONTINUOUS
 10
106.7526891851
 20
144.5157803998
  0
VERTEX
  8
2_FEATURE
 62
7
  6
CONTINUOUS
 10
106.7417841705
 20
144.5132948743
  0
SEQEND
  0
POLYLINE
  8
2_FEATURE
 62
7
  6
CONTINUOUS
 66
1
 70
0
  0
VERTEX
  8
2_FEATURE
 62
7
  6
CONTINUOUS
 10
94.158613726
 20
144.527101293
  0
VERTEX
  8
2_FEATURE
 62
7
  6
CONTINUOUS
 10
94.1179362001
 20
144.5254478611
  0
VERTEX
  8
2_FEATURE
 62
7
  6
CONTINUOUS
 10
94.0526891853
 20
144.5157803999
  0
VERTEX
  8
2_FEATURE
 62
7
  6
CONTINUOUS
 10
93.989628831
 20
144.4977562629
  0
VERTEX
  8
2_FEATURE
 62
7
  6
CONTINUOUS
 10
93.9304588409
 20
144.4721676204
  0
VERTEX
  8
2_FEATURE
 62
7
  6
CONTINUOUS
 10
93.8766565811
 20
144.44029395
  0
VERTEX
  8
2_FEATURE
 62
7
  6
CONTINUOUS
 10
93.829335375
 20
144.4038194746
  0
VERTEX
  8
2_FEATURE
 62
7
  6
CONTINUOUS
 10
93.7891249887
 20
144.3646757728
  0
VERTEX
  8
2_FEATURE
 62
7
  6
CONTINUOUS
 10
93.7561042563
 20
144.3248077028
  0
VERTEX
  8
2_FEATURE
 62
7
  6
CONTINUOUS
 10
93.7298682946
 20
144.2859732094
  0
VERTEX
  8
2_FEATURE
 62
7
  6
CONTINUOUS
 10
93.7096295094
 20
144.2495390488
  0
VERTEX
  8
2_FEATURE
 62
7
  6
CONTINUOUS
 10
93.6944034313
 20
144.2164172533
  0
VERTEX
  8
2_FEATURE
 62
7
  6
CONTINUOUS
 10
93.6831346627
 20
144.1869810768
  0
VERTEX
  8
2_FEATURE
 62
7
  6
CONTINUOUS
 10
93.6747578142
 20
144.1608580528
  0
VERTEX
  8
2_FEATURE
 62
7
  6
CONTINUOUS
 10
93.6684349988
 20
144.137426954
  0
VERTEX
  8
2_FEATURE
 62
7
  6
CONTINUOUS
 10
93.6636485273
 20
144.1164608476
  0
VERTEX
  8
2_FEATURE
 62
7
  6
CONTINUOUS
 10
93.6600096792
 20
144.0977935076
  0
VERTEX
  8
2_FEATURE
 62
7
  6
CONTINUOUS
 10
93.6571557725
 20
144.0808573508
  0
VERTEX
  8
2_FEATURE
 62
7
  6
CONTINUOUS
 10
93.6548050556
 20
144.0649152476
  0
VERTEX
  8
2_FEATURE
 62
7
  6
CONTINUOUS
 10
93.6527807939
 20
144.0493913567
  0
VERTEX
  8
2_FEATURE
 62
7
  6
CONTINUOUS
 10
93.6509732232
 20
144.0338584255
  0
VERTEX
  8
2_FEATURE
 62
7
  6
CONTINUOUS
 10
93.6493127346
 20
144.0179974495
  0
VERTEX
  8
2_FEATURE
 62
7
  6
CONTINUOUS
 10
93.647745765
 20
144.0014739397
  0
VERTEX
  8
2_FEATURE
 62
7
  6
CONTINUOUS
 10
93.6462328819
 20
143.9839600256
  0
VERTEX
  8
2_FEATURE
 62
7
  6
CONTINUOUS
 10
93.6447465222
 20
143.9651529074
  0
VERTEX
  8
2_FEATURE
 62
7
  6
CONTINUOUS
 10
93.6432668271
 20
143.9447612775
  0
VERTEX
  8
2_FEATURE
 62
7
  6
CONTINUOUS
 10
93.6417825235
 20
143.9225496852
  0
VERTEX
  8
2_FEATURE
 62
7
  6
CONTINUOUS
 10
93.6402912733
 20
143.8983847211
  0
VERTEX
  8
2_FEATURE
 62
7
  6
CONTINUOUS
 10
93.6387929952
 20
143.8721641414
  0
VERTEX
  8
2_FEATURE
 62
7
  6
CONTINUOUS
 10
93.635778785
 20
143.8132262284
  0
SEQEND
  0
POLYLINE
  8
2_FEATURE
 62
7
  6
CONTINUOUS
 66
1
 70
0
  0
VERTEX
  8
2_FEATURE
 62
7
  6
CONTINUOUS
 10
99.9895344123
 20
110.968815421
  0
VERTEX
  8
2_FEATURE
 62
7
  6
CONTINUOUS
 10
99.9910878558
 20
110.9426744392
  0
VERTEX
  8
2_FEATURE
 62
7
  6
CONTINUOUS
 10
99.9926382952
 20
110.9186275297
  0
VERTEX
  8
2_FEATURE
 62
7
  6
CONTINUOUS
 10
99.9941891584
 20
110.8965305526
  0
VERTEX
  8
2_FEATURE
 62
7
  6
CONTINUOUS
 10
99.995748067
 20
110.8761978815
  0
VERTEX
  8
2_FEATURE
 62
7
  6
CONTINUOUS
 10
99.9973300935
 20
110.8573829577
  0
VERTEX
  8
2_FEATURE
 62
7
  6
CONTINUOUS
 10
99.9989577777
 20
110.8398105828
  0
VERTEX
  8
2_FEATURE
 62
7
  6
CONTINUOUS
 10
100.0006639162
 20
110.8231775084
  0
VERTEX
  8
2_FEATURE
 62
7
  6
CONTINUOUS
 10
100.0024962168
 20
110.8071456952
  0
VERTEX
  8
2_FEATURE
 62
7
  6
CONTINUOUS
 10
100.0045200657
 20
110.7913645279
  0
VERTEX
  8
2_FEATURE
 62
7
  6
CONTINUOUS
 10
100.0068329584
 20
110.7754172339
  0
VERTEX
  8
2_FEATURE
 62
7
  6
CONTINUOUS
 10
100.009586952
 20
110.7587741233
  0
VERTEX
  8
2_FEATURE
 62
7
  6
CONTINUOUS
 10
100.0130073146
 20
110.7408330238
  0
VERTEX
  8
2_FEATURE
 62
7
  6
CONTINUOUS
 10
100.0174375073
 20
110.7208730808
  0
VERTEX
  8
2_FEATURE
 62
7
  6
CONTINUOUS
 10
100.0233895263
 20
110.6980903278
  0
VERTEX
  8
2_FEATURE
 62
7
  6
CONTINUOUS
 10
100.031554355
 20
110.6718168766
  0
VERTEX
  8
2_FEATURE
 62
7
  6
CONTINUOUS
 10
100.0427390987
 20
110.641817131
  0
VERTEX
  8
2_FEATURE
 62
7
  6
CONTINUOUS
 10
100.0577755501
 20
110.6083846711
  0
VERTEX
  8
2_FEATURE
 62
7
  6
CONTINUOUS
 10
100.0775756143
 20
110.5720232395
  0
VERTEX
  8
2_FEATURE
 62
7
  6
CONTINUOUS
 10
100.1033763375
 20
110.5330902789
  0
VERTEX
  8
2_FEATURE
 62
7
  6
CONTINUOUS
 10
100.1363042912
 20
110.4926226975
  0
VERTEX
  8
2_FEATURE
 62
7
  6
CONTINUOUS
 10
100.1768716662
 20
110.4525413828
  0
VERTEX
  8
2_FEATURE
 62
7
  6
CONTINUOUS
 10
100.2249679423
 20
110.4150619065
  0
VERTEX
  8
2_FEATURE
 62
7
  6
CONTINUOUS
 10
100.2797931375
 20
110.3823758214
  0
VERTEX
  8
2_FEATURE
 62
7
  6
CONTINUOUS
 10
100.3399659708
 20
110.3563257332
  0
VERTEX
  8
2_FEATURE
 62
7
  6
CONTINUOUS
 10
100.4036843637
 20
110.338208066
  0
VERTEX
  8
2_FEATURE
 62
7
  6
CONTINUOUS
 10
100.4689143538
 20
110.3286760375
  0
VERTEX
  8
2_FEATURE
 62
7
  6
CONTINUOUS
 10
100.5086137034
 20
110.3271012932
  0
SEQEND
  0
POLYLINE
  8
2_FEATURE
 62
7
  6
CONTINUOUS
 66
1
 70
0
  0
VERTEX
  8
2_FEATURE
 62
7
  6
CONTINUOUS
 10
99.6239354194
 20
143.8853870945
  0
VERTEX
  8
2_FEATURE
 62
7
  6
CONTINUOUS
 10
99.6223819752
 20
143.9115280947
  0
VERTEX
  8
2_FEATURE
 62
7
  6
CONTINUOUS
 10
99.6208315357
 20
143.9355750037
  0
VERTEX
  8
2_FEATURE
 62
7
  6
CONTINUOUS
 10
99.6192806739
 20
143.957671966
  0
VERTEX
  8
2_FEATURE
 62
7
  6
CONTINUOUS
 10
99.6177217655
 20
143.978004647
  0
VERTEX
  8
2_FEATURE
 62
7
  6
CONTINUOUS
 10
99.6161397376
 20
143.9968195905
  0
VERTEX
  8
2_FEATURE
 62
7
  6
CONTINUOUS
 10
99.6145120536
 20
144.0143919628
  0
VERTEX
  8
2_FEATURE
 62
7
  6
CONTINUOUS
 10
99.6128059186
 20
144.0310250078
  0
VERTEX
  8
2_FEATURE
 62
7
  6
CONTINUOUS
 10
99.610973621
 20
144.0470568099
  0
VERTEX
  8
2_FEATURE
 62
7
  6
CONTINUOUS
 10
99.6089497672
 20
144.0628380232
  0
VERTEX
  8
2_FEATURE
 62
7
  6
CONTINUOUS
 10
99.6066368715
 20
144.0787853368
  0
VERTEX
  8
2_FEATURE
 62
7
  6
CONTINUOUS
 10
99.6038828808
 20
144.0954284294
  0
VERTEX
  8
2_FEATURE
 62
7
  6
CONTINUOUS
 10
99.600462537
 20
144.1133694416
  0
VERTEX
  8
2_FEATURE
 62
7
  6
CONTINUOUS
 10
99.5960323801
 20
144.1333292571
  0
VERTEX
  8
2_FEATURE
 62
7
  6
CONTINUOUS
 10
99.5900803463
 20
144.1561121035
  0
VERTEX
  8
2_FEATURE
 62
7
  6
CONTINUOUS
 10
99.5819155027
 20
144.1823856244
  0
VERTEX
  8
2_FEATURE
 62
7
  6
CONTINUOUS
 10
99.5707307449
 20
144.2123854173
  0
VERTEX
  8
2_FEATURE
 62
7
  6
CONTINUOUS
 10
99.5556942772
 20
144.245817915
  0
VERTEX
  8
2_FEATURE
 62
7
  6
CONTINUOUS
 10
99.5358941885
 20
144.2821793857
  0
VERTEX
  8
2_FEATURE
 62
7
  6
CONTINUOUS
 10
99.5100934325
 20
144.3211123826
  0
VERTEX
  8
2_FEATURE
 62
7
  6
CONTINUOUS
 10
99.477165434
 20
144.3615799978
  0
VERTEX
  8
2_FEATURE
 62
7
  6
CONTINUOUS
 10
99.4365979872
 20
144.4016613527
  0
VERTEX
  8
2_FEATURE
 62
7
  6
CONTINUOUS
 10
99.3885016102
 20
144.4391408642
  0
VERTEX
  8
2_FEATURE
 62
7
  6
CONTINUOUS
 10
99.3336763122
 20
144.471826955
  0
VERTEX
  8
2_FEATURE
 62
7
  6
CONTINUOUS
 10
99.2735034135
 20
144.4978770084
  0
VERTEX
  8
2_FEATURE
 62
7
  6
CONTINUOUS
 10
99.209785036
 20
144.5159946098
  0
VERTEX
  8
2_FEATURE
 62
7
  6
CONTINUOUS
 10
99.1445551835
 20
144.5255265709
  0
VERTEX
  8
2_FEATURE
 62
7
  6
CONTINUOUS
 10
99.1048561043
 20
144.527101293
  0
SEQEND
  0
LINE
  8
2_FEATURE
 62
7
  6
CONTINUOUS
 10
99.9864142663
 20
111.0278422775
 11
99.9895344123
 21
110.968815421
  0
LINE
  8
2_FEATURE
 62
7
  6
CONTINUOUS
 10
99.6270555644
 20
143.8263602479
 11
99.6239354194
 21
143.8853870945
  0
LINE
  8
2_FEATURE
 62
7
  6
CONTINUOUS
 10
99.9832715153
 20
111.0966467744
 11
99.9864142663
 21
111.0278422775
  0
LINE
  8
2_FEATURE
 62
7
  6
CONTINUOUS
 10
99.6301983152
 20
143.7575557376
 11
99.6270555644
 21
143.8263602479
  0
LINE
  8
2_FEATURE
 62
7
  6
CONTINUOUS
 10
99.9801064296
 20
111.1761323975
 11
99.9832715153
 21
111.0966467744
  0
LINE
  8
2_FEATURE
 62
7
  6
CONTINUOUS
 10
99.6333634008
 20
143.6780701189
 11
99.6301983152
 21
143.7575557376
  0
LINE
  8
2_FEATURE
 62
7
  6
CONTINUOUS
 10
99.9753403915
 20
111.3169439357
 11
99.9801064296
 21
111.1761323975
  0
LINE
  8
2_FEATURE
 62
7
  6
CONTINUOUS
 10
99.6381294385
 20
143.5372585782
 11
99.6333634008
 21
143.6780701189
  0
LINE
  8
2_FEATURE
 62
7
  6
CONTINUOUS
 10
99.9705952456
 20
111.4855107757
 11
99.9753403915
 21
111.3169439357
  0
LINE
  8
2_FEATURE
 62
7
  6
CONTINUOUS
 10
99.6428745839
 20
143.368691736
 11
99.6381294385
 21
143.5372585782
  0
LINE
  8
2_FEATURE
 62
7
  6
CONTINUOUS
 10
99.9643283644
 20
111.7600599921
 11
99.9705952456
 21
111.4855107757
  0
LINE
  8
2_FEATURE
 62
7
  6
CONTINUOUS
 10
99.6491414646
 20
143.0941425259
 11
99.6428745839
 21
143.368691736
  0
LINE
  8
2_FEATURE
 62
7
  6
CONTINUOUS
 10
99.9582114533
 20
112.1016557048
 11
99.9643283644
 21
111.7600599921
  0
LINE
  8
2_FEATURE
 62
7
  6
CONTINUOUS
 10
99.6552583751
 20
142.7525468276
 11
99.6491414646
 21
143.0941425259
  0
LINE
  8
2_FEATURE
 62
7
  6
CONTINUOUS
 10
99.9524876671
 20
112.5170858416
 11
99.9582114533
 21
112.1016557048
  0
LINE
  8
2_FEATURE
 62
7
  6
CONTINUOUS
 10
99.6609821609
 20
142.3371167156
 11
99.6552583751
 21
142.7525468276
  0
LINE
  8
2_FEATURE
 62
7
  6
CONTINUOUS
 10
99.948647194
 20
112.8787857167
 11
99.9524876671
 21
112.5170858416
  0
LINE
  8
2_FEATURE
 62
7
  6
CONTINUOUS
 10
99.6648226337
 20
141.9754168524
 11
99.6609821609
 21
142.3371167156
  0
LINE
  8
2_FEATURE
 62
7
  6
CONTINUOUS
 10
99.6681114205
 20
141.5702020104
 11
99.6648226337
 21
141.9754168524
  0
LINE
  8
2_FEATURE
 62
7
  6
CONTINUOUS
 10
99.9453584072
 20
113.2840005715
 11
99.948647194
 21
112.8787857167
  0
LINE
  8
2_FEATURE
 62
7
  6
CONTINUOUS
 10
99.6706823581
 20
141.122397751
 11
99.6681114205
 21
141.5702020104
  0
LINE
  8
2_FEATURE
 62
7
  6
CONTINUOUS
 10
99.9427874692
 20
113.7318048902
 11
99.9453584072
 21
113.2840005715
  0
LINE
  8
2_FEATURE
 62
7
  6
CONTINUOUS
 10
99.6723532893
 20
140.6347803422
 11
99.6706823581
 21
141.122397751
  0
LINE
  8
2_FEATURE
 62
7
  6
CONTINUOUS
 10
99.9411165375
 20
114.2194225674
 11
99.9427874692
 21
113.7318048902
  0
LINE
  8
2_FEATURE
 62
7
  6
CONTINUOUS
 10
99.6729312164
 20
140.1271012931
 11
99.6723532893
 21
140.6347803422
  0
LINE
  8
2_FEATURE
 62
7
  6
CONTINUOUS
 10
99.9405386112
 20
114.7271012931
 11
99.9411165375
 21
114.2194225674
  0
LINE
  8
2_FEATURE
 62
7
  6
CONTINUOUS
 10
99.6729312173
 20
138.2789070521
 11
99.6729312173
 21
140.1271012931
  0
LINE
  8
2_FEATURE
 62
7
  6
CONTINUOUS
 10
99.9405386103
 20
116.5752955341
 11
99.9405386103
 21
114.7271012931
  0
POLYLINE
  8
2_FEATURE
 62
7
  6
CONTINUOUS
 66
1
 70
0
  0
VERTEX
  8
2_FEATURE
 62
7
  6
CONTINUOUS
 10
81.458613726
 20
144.527101293
  0
VERTEX
  8
2_FEATURE
 62
7
  6
CONTINUOUS
 10
81.4179362001
 20
144.5254478611
  0
VERTEX
  8
2_FEATURE
 62
7
  6
CONTINUOUS
 10
81.3526891853
 20
144.5157803999
  0
VERTEX
  8
2_FEATURE
 62
7
  6
CONTINUOUS
 10
81.289628831
 20
144.4977562629
  0
VERTEX
  8
2_FEATURE
 62
7
  6
CONTINUOUS
 10
81.2304588409
 20
144.4721676204
  0
VERTEX
  8
2_FEATURE
 62
7
  6
CONTINUOUS
 10
81.1766565811
 20
144.44029395
  0
VERTEX
  8
2_FEATURE
 62
7
  6
CONTINUOUS
 10
81.129335375
 20
144.4038194746
  0
VERTEX
  8
2_FEATURE
 62
7
  6
CONTINUOUS
 10
81.0891249887
 20
144.3646757728
  0
VERTEX
  8
2_FEATURE
 62
7
  6
CONTINUOUS
 10
81.0561042563
 20
144.3248077028
  0
VERTEX
  8
2_FEATURE
 62
7
  6
CONTINUOUS
 10
81.0298682946
 20
144.2859732094
  0
VERTEX
  8
2_FEATURE
 62
7
  6
CONTINUOUS
 10
81.0096295094
 20
144.2495390488
  0
VERTEX
  8
2_FEATURE
 62
7
  6
CONTINUOUS
 10
80.9944034313
 20
144.2164172533
  0
VERTEX
  8
2_FEATURE
 62
7
  6
CONTINUOUS
 10
80.9831346627
 20
144.1869810768
  0
VERTEX
  8
2_FEATURE
 62
7
  6
CONTINUOUS
 10
80.9747578142
 20
144.1608580528
  0
VERTEX
  8
2_FEATURE
 62
7
  6
CONTINUOUS
 10
80.9684349988
 20
144.137426954
  0
VERTEX
  8
2_FEATURE
 62
7
  6
CONTINUOUS
 10
80.9636485273
 20
144.1164608476
  0
VERTEX
  8
2_FEATURE
 62
7
  6
CONTINUOUS
 10
80.9600096792
 20
144.0977935076
  0
VERTEX
  8
2_FEATURE
 62
7
  6
CONTINUOUS
 10
80.9571557725
 20
144.0808573508
  0
VERTEX
  8
2_FEATURE
 62
7
  6
CONTINUOUS
 10
80.9548050556
 20
144.0649152476
  0
VERTEX
  8
2_FEATURE
 62
7
  6
CONTINUOUS
 10
80.9527807939
 20
144.0493913567
  0
VERTEX
  8
2_FEATURE
 62
7
  6
CONTINUOUS
 10
80.9509732232
 20
144.0338584255
  0
VERTEX
  8
2_FEATURE
 62
7
  6
CONTINUOUS
 10
80.9493127346
 20
144.0179974495
  0
VERTEX
  8
2_FEATURE
 62
7
  6
CONTINUOUS
 10
80.947745765
 20
144.0014739397
  0
VERTEX
  8
2_FEATURE
 62
7
  6
CONTINUOUS
 10
80.9462328819
 20
143.9839600256
  0
VERTEX
  8
2_FEATURE
 62
7
  6
CONTINUOUS
 10
80.9447465222
 20
143.9651529074
  0
VERTEX
  8
2_FEATURE
 62
7
  6
CONTINUOUS
 10
80.9432668271
 20
143.9447612775
  0
VERTEX
  8
2_FEATURE
 62
7
  6
CONTINUOUS
 10
80.9417825235
 20
143.9225496852
  0
VERTEX
  8
2_FEATURE
 62
7
  6
CONTINUOUS
 10
80.9402912733
 20
143.8983847211
  0
VERTEX
  8
2_FEATURE
 62
7
  6
CONTINUOUS
 10
80.9387929952
 20
143.8721641414
  0
VERTEX
  8
2_FEATURE
 62
7
  6
CONTINUOUS
 10
80.935778785
 20
143.8132262284
  0
SEQEND
  0
POLYLINE
  8
2_FEATURE
 62
7
  6
CONTINUOUS
 66
1
 70
0
  0
VERTEX
  8
2_FEATURE
 62
7
  6
CONTINUOUS
 10
68.758613726
 20
144.527101293
  0
VERTEX
  8
2_FEATURE
 62
7
  6
CONTINUOUS
 10
68.7179362001
 20
144.5254478611
  0
VERTEX
  8
2_FEATURE
 62
7
  6
CONTINUOUS
 10
68.6526891853
 20
144.5157803999
  0
VERTEX
  8
2_FEATURE
 62
7
  6
CONTINUOUS
 10
68.589628831
 20
144.4977562629
  0
VERTEX
  8
2_FEATURE
 62
7
  6
CONTINUOUS
 10
68.5304588409
 20
144.4721676204
  0
VERTEX
  8
2_FEATURE
 62
7
  6
CONTINUOUS
 10
68.4766565811
 20
144.44029395
  0
VERTEX
  8
2_FEATURE
 62
7
  6
CONTINUOUS
 10
68.429335375
 20
144.4038194746
  0
VERTEX
  8
2_FEATURE
 62
7
  6
CONTINUOUS
 10
68.3891249887
 20
144.3646757728
  0
VERTEX
  8
2_FEATURE
 62
7
  6
CONTINUOUS
 10
68.3561042563
 20
144.3248077028
  0
VERTEX
  8
2_FEATURE
 62
7
  6
CONTINUOUS
 10
68.3298682946
 20
144.2859732094
  0
VERTEX
  8
2_FEATURE
 62
7
  6
CONTINUOUS
 10
68.3096295094
 20
144.2495390488
  0
VERTEX
  8
2_FEATURE
 62
7
  6
CONTINUOUS
 10
68.2944034313
 20
144.2164172533
  0
VERTEX
  8
2_FEATURE
 62
7
  6
CONTINUOUS
 10
68.2831346627
 20
144.1869810768
  0
VERTEX
  8
2_FEATURE
 62
7
  6
CONTINUOUS
 10
68.2747578142
 20
144.1608580528
  0
VERTEX
  8
2_FEATURE
 62
7
  6
CONTINUOUS
 10
68.2684349988
 20
144.137426954
  0
VERTEX
  8
2_FEATURE
 62
7
  6
CONTINUOUS
 10
68.2636485273
 20
144.1164608476
  0
VERTEX
  8
2_FEATURE
 62
7
  6
CONTINUOUS
 10
68.2600096792
 20
144.0977935076
  0
VERTEX
  8
2_FEATURE
 62
7
  6
CONTINUOUS
 10
68.2571557725
 20
144.0808573508
  0
VERTEX
  8
2_FEATURE
 62
7
  6
CONTINUOUS
 10
68.2548050556
 20
144.0649152476
  0
VERTEX
  8
2_FEATURE
 62
7
  6
CONTINUOUS
 10
68.2527807939
 20
144.0493913567
  0
VERTEX
  8
2_FEATURE
 62
7
  6
CONTINUOUS
 10
68.2509732232
 20
144.0338584255
  0
VERTEX
  8
2_FEATURE
 62
7
  6
CONTINUOUS
 10
68.2493127346
 20
144.0179974495
  0
VERTEX
  8
2_FEATURE
 62
7
  6
CONTINUOUS
 10
68.247745765
 20
144.0014739397
  0
VERTEX
  8
2_FEATURE
 62
7
  6
CONTINUOUS
 10
68.2462328819
 20
143.9839600256
  0
VERTEX
  8
2_FEATURE
 62
7
  6
CONTINUOUS
 10
68.2447465222
 20
143.9651529074
  0
VERTEX
  8
2_FEATURE
 62
7
  6
CONTINUOUS
 10
68.2432668271
 20
143.9447612775
  0
VERTEX
  8
2_FEATURE
 62
7
  6
CONTINUOUS
 10
68.2417825235
 20
143.9225496852
  0
VERTEX
  8
2_FEATURE
 62
7
  6
CONTINUOUS
 10
68.2402912733
 20
143.8983847211
  0
VERTEX
  8
2_FEATURE
 62
7
  6
CONTINUOUS
 10
68.2387929952
 20
143.8721641414
  0
VERTEX
  8
2_FEATURE
 62
7
  6
CONTINUOUS
 10
68.235778785
 20
143.8132262284
  0
SEQEND
  0
POLYLINE
  8
2_FEATURE
 62
7
  6
CONTINUOUS
 66
1
 70
0
  0
VERTEX
  8
2_FEATURE
 62
7
  6
CONTINUOUS
 10
56.0586137217
 20
144.527101293
  0
VERTEX
  8
2_FEATURE
 62
7
  6
CONTINUOUS
 10
56.0182173122
 20
144.5254706723
  0
VERTEX
  8
2_FEATURE
 62
7
  6
CONTINUOUS
 10
55.9532399053
 20
144.5158991517
  0
VERTEX
  8
2_FEATURE
 62
7
  6
CONTINUOUS
 10
55.8904149512
 20
144.4980370185
  0
VERTEX
  8
2_FEATURE
 62
7
  6
CONTINUOUS
 10
55.8314271837
 20
144.4726612068
  0
VERTEX
  8
2_FEATURE
 62
7
  6
CONTINUOUS
 10
55.7777393304
 20
144.4410281359
  0
VERTEX
  8
2_FEATURE
 62
7
  6
CONTINUOUS
 10
55.7304595253
 20
144.404794887
  0
VERTEX
  8
2_FEATURE
 62
7
  6
CONTINUOUS
 10
55.6902214228
 20
144.3658653368
  0
VERTEX
  8
2_FEATURE
 62
7
  6
CONTINUOUS
 10
55.6571169363
 20
144.3261618453
  0
VERTEX
  8
2_FEATURE
 62
7
  6
CONTINUOUS
 10
55.6307585069
 20
144.2874264242
  0
VERTEX
  8
2_FEATURE
 62
7
  6
CONTINUOUS
 10
55.6103811762
 20
144.2510265339
  0
VERTEX
  8
2_FEATURE
 62
7
  6
CONTINUOUS
 10
55.5950212227
 20
144.2178898994
  0
VERTEX
  8
2_FEATURE
 62
7
  6
CONTINUOUS
 10
55.5836364966
 20
144.1884124925
  0
VERTEX
  8
2_FEATURE
 62
7
  6
CONTINUOUS
 10
55.5751651309
 20
144.1622408456
  0
VERTEX
  8
2_FEATURE
 62
7
  6
CONTINUOUS
 10
55.5687624471
 20
144.1387447684
  0
VERTEX
  8
2_FEATURE
 62
7
  6
CONTINUOUS
 10
55.5639113663
 20
144.1177062179
  0
VERTEX
  8
2_FEATURE
 62
7
  6
CONTINUOUS
 10
55.560233594
 20
144.0990279167
  0
VERTEX
  8
2_FEATURE
 62
7
  6
CONTINUOUS
 10
55.5573676356
 20
144.0821984857
  0
VERTEX
  8
2_FEATURE
 62
7
  6
CONTINUOUS
 10
55.5550231849
 20
144.0664826376
  0
VERTEX
  8
2_FEATURE
 62
7
  6
CONTINUOUS
 10
55.5530173235
 20
144.0513017393
  0
VERTEX
  8
2_FEATURE
 62
7
  6
CONTINUOUS
 10
55.5512368551
 20
144.0362314222
  0
VERTEX
  8
2_FEATURE
 62
7
  6
CONTINUOUS
 10
55.5496110236
 20
144.0209671435
  0
VERTEX
  8
2_FEATURE
 62
7
  6
CONTINUOUS
 10
55.5480944681
 20
144.0052888895
  0
VERTEX
  8
2_FEATURE
 62
7
  6
CONTINUOUS
 10
55.5466556558
 20
143.9890152809
  0
VERTEX
  8
2_FEATURE
 62
7
  6
CONTINUOUS
 10
55.5452683595
 20
143.9719426038
  0
VERTEX
  8
2_FEATURE
 62
7
  6
CONTINUOUS
 10
55.5439145011
 20
143.953897272
  0
VERTEX
  8
2_FEATURE
 62
7
  6
CONTINUOUS
 10
55.5425811439
 20
143.9347239099
  0
VERTEX
  8
2_FEATURE
 62
7
  6
CONTINUOUS
 10
55.5399396135
 20
143.8924080271
  0
SEQEND
  0
LINE
  8
2_FEATURE
 62
7
  6
CONTINUOUS
 10
43.2417349138
 20
144.5271012931
 11
48.304856464
 21
144.5271012931
  0
LINE
  8
2_FEATURE
 62
7
  6
CONTINUOUS
 10
56.0586129279
 20
144.5271012931
 11
61.004856464
 21
144.5271012931
  0
LINE
  8
2_FEATURE
 62
7
  6
CONTINUOUS
 10
68.7586133636
 20
144.5271012931
 11
73.704856464
 21
144.5271012931
  0
LINE
  8
2_FEATURE
 62
7
  6
CONTINUOUS
 10
81.4586133636
 20
144.5271012931
 11
86.404856464
 21
144.5271012931
  0
LINE
  8
2_FEATURE
 62
7
  6
CONTINUOUS
 10
94.1586133636
 20
144.5271012931
 11
99.104856464
 21
144.5271012931
  0
LINE
  8
2_FEATURE
 62
7
  6
CONTINUOUS
 10
106.8586133636
 20
144.5271012931
 11
111.804856464
 21
144.5271012931
  0
LINE
  8
2_FEATURE
 62
7
  6
CONTINUOUS
 10
106.0224002898
 20
114.2404198934
 11
106.0229312173
 21
116.5752955418
  0
LINE
  8
2_FEATURE
 62
7
  6
CONTINUOUS
 10
106.0201730716
 20
113.6269390605
 11
106.0224002898
 21
114.2404198934
  0
POLYLINE
  8
2_FEATURE
 62
7
  6
CONTINUOUS
 66
1
 70
0
  0
VERTEX
  8
2_FEATURE
 62
7
  6
CONTINUOUS
 10
106.0229304487
 20
116.5752955418
  0
VERTEX
  8
2_FEATURE
 62
7
  6
CONTINUOUS
 10
106.0231768347
 20
116.6238837993
  0
VERTEX
  8
2_FEATURE
 62
7
  6
CONTINUOUS
 10
106.0242868805
 20
116.6872612474
  0
VERTEX
  8
2_FEATURE
 62
7
  6
CONTINUOUS
 10
106.0263363208
 20
116.7497153741
  0
VERTEX
  8
2_FEATURE
 62
7
  6
CONTINUOUS
 10
106.029372849
 20
116.8112197933
  0
VERTEX
  8
2_FEATURE
 62
7
  6
CONTINUOUS
 10
106.0334451385
 20
116.8717352135
  0
VERTEX
  8
2_FEATURE
 62
7
  6
CONTINUOUS
 10
106.0385976473
 20
116.9312131835
  0
VERTEX
  8
2_FEATURE
 62
7
  6
CONTINUOUS
 10
106.0448683827
 20
116.9895976621
  0
VERTEX
  8
2_FEATURE
 62
7
  6
CONTINUOUS
 10
106.0522910929
 20
117.0468156765
  0
VERTEX
  8
2_FEATURE
 62
7
  6
CONTINUOUS
 10
106.0608922828
 20
117.1027605715
  0
VERTEX
  8
2_FEATURE
 62
7
  6
CONTINUOUS
 10
106.0707064943
 20
117.1574241288
  0
VERTEX
  8
2_FEATURE
 62
7
  6
CONTINUOUS
 10
106.0817700627
 20
117.2107973724
  0
VERTEX
  8
2_FEATURE
 62
7
  6
CONTINUOUS
 10
106.0941186521
 20
117.2628354264
  0
VERTEX
  8
2_FEATURE
 62
7
  6
CONTINUOUS
 10
106.1077804611
 20
117.3134691694
  0
VERTEX
  8
2_FEATURE
 62
7
  6
CONTINUOUS
 10
106.122774257
 20
117.3626018422
  0
VERTEX
  8
2_FEATURE
 62
7
  6
CONTINUOUS
 10
106.1391067467
 20
117.4101022842
  0
VERTEX
  8
2_FEATURE
 62
7
  6
CONTINUOUS
 10
106.1567681166
 20
117.4558218633
  0
VERTEX
  8
2_FEATURE
 62
7
  6
CONTINUOUS
 10
106.1757517352
 20
117.4996385351
  0
VERTEX
  8
2_FEATURE
 62
7
  6
CONTINUOUS
 10
106.1960447729
 20
117.5414247595
  0
VERTEX
  8
2_FEATURE
 62
7
  6
CONTINUOUS
 10
106.2175881158
 20
117.5809792237
  0
VERTEX
  8
2_FEATURE
 62
7
  6
CONTINUOUS
 10
106.240251924
 20
117.6180220655
  0
VERTEX
  8
2_FEATURE
 62
7
  6
CONTINUOUS
 10
106.263955603
 20
117.6524084601
  0
VERTEX
  8
2_FEATURE
 62
7
  6
CONTINUOUS
 10
106.2887834881
 20
117.6842050922
  0
VERTEX
  8
2_FEATURE
 62
7
  6
CONTINUOUS
 10
106.3147377061
 20
117.7132946501
  0
VERTEX
  8
2_FEATURE
 62
7
  6
CONTINUOUS
 10
106.3416943763
 20
117.7393929102
  0
VERTEX
  8
2_FEATURE
 62
7
  6
CONTINUOUS
 10
106.3695485815
 20
117.7622414264
  0
VERTEX
  8
2_FEATURE
 62
7
  6
CONTINUOUS
 10
106.3983298866
 20
117.7816353514
  0
VERTEX
  8
2_FEATURE
 62
7
  6
CONTINUOUS
 10
106.4278164135
 20
117.7971248168
  0
VERTEX
  8
2_FEATURE
 62
7
  6
CONTINUOUS
 10
106.4580088581
 20
117.8083188392
  0
VERTEX
  8
2_FEATURE
 62
7
  6
CONTINUOUS
 10
106.4874963611
 20
117.8145123618
  0
VERTEX
  8
2_FEATURE
 62
7
  6
CONTINUOUS
 10
106.5102385799
 20
117.8159726263
  0
SEQEND
  0
LINE
  8
2_FEATURE
 62
7
  6
CONTINUOUS
 10
106.0165980209
 20
113.0823901735
 11
106.0201730716
 21
113.6269390605
  0
LINE
  8
2_FEATURE
 62
7
  6
CONTINUOUS
 10
106.2992833549
 20
142.0418051797
 11
106.2950394045
 21
141.5233122998
  0
LINE
  8
2_FEATURE
 62
7
  6
CONTINUOUS
 10
106.0120576418
 20
112.609833395
 11
106.0165980209
 21
113.0823901735
  0
LINE
  8
2_FEATURE
 62
7
  6
CONTINUOUS
 10
106.0095304806
 20
112.4003214681
 11
106.0120576418
 21
112.609833395
  0
LINE
  8
2_FEATURE
 62
7
  6
CONTINUOUS
 10
106.3043874871
 20
142.4881720346
 11
106.2992833549
 21
142.0418051797
  0
LINE
  8
2_FEATURE
 62
7
  6
CONTINUOUS
 10
106.3115070227
 20
142.9471221188
 11
106.3043874871
 21
142.4881720346
  0
LINE
  8
2_FEATURE
 62
7
  6
CONTINUOUS
 10
106.3174820245
 20
143.2404633305
 11
106.3115070227
 21
142.9471221188
  0
LINE
  8
2_FEATURE
 62
7
  6
CONTINUOUS
 10
106.3220297566
 20
143.4228918003
 11
106.3174820245
 21
143.2404633305
  0
LINE
  8
2_FEATURE
 62
7
  6
CONTINUOUS
 10
106.3249350444
 20
143.5240223586
 11
106.3220297566
 21
143.4228918003
  0
LINE
  8
2_FEATURE
 62
7
  6
CONTINUOUS
 10
106.291076169
 20
140.6168006468
 11
106.2905386103
 21
138.2789070444
  0
LINE
  8
2_FEATURE
 62
7
  6
CONTINUOUS
 10
106.293349684
 20
141.237550022
 11
106.291076169
 21
140.6168006468
  0
POLYLINE
  8
2_FEATURE
 62
7
  6
CONTINUOUS
 66
1
 70
0
  0
VERTEX
  8
2_FEATURE
 62
7
  6
CONTINUOUS
 10
106.2905393789
 20
138.2789070444
  0
VERTEX
  8
2_FEATURE
 62
7
  6
CONTINUOUS
 10
106.2902929929
 20
138.2303187869
  0
VERTEX
  8
2_FEATURE
 62
7
  6
CONTINUOUS
 10
106.2891829471
 20
138.1669413389
  0
VERTEX
  8
2_FEATURE
 62
7
  6
CONTINUOUS
 10
106.2871335068
 20
138.1044872121
  0
VERTEX
  8
2_FEATURE
 62
7
  6
CONTINUOUS
 10
106.2840969786
 20
138.0429827929
  0
VERTEX
  8
2_FEATURE
 62
7
  6
CONTINUOUS
 10
106.2800246891
 20
137.9824673727
  0
VERTEX
  8
2_FEATURE
 62
7
  6
CONTINUOUS
 10
106.2748721803
 20
137.9229894027
  0
VERTEX
  8
2_FEATURE
 62
7
  6
CONTINUOUS
 10
106.2686014449
 20
137.8646049242
  0
VERTEX
  8
2_FEATURE
 62
7
  6
CONTINUOUS
 10
106.2611787347
 20
137.8073869097
  0
VERTEX
  8
2_FEATURE
 62
7
  6
CONTINUOUS
 10
106.2525775448
 20
137.7514420147
  0
VERTEX
  8
2_FEATURE
 62
7
  6
CONTINUOUS
 10
106.2427633333
 20
137.6967784574
  0
VERTEX
  8
2_FEATURE
 62
7
  6
CONTINUOUS
 10
106.2316997649
 20
137.6434052138
  0
VERTEX
  8
2_FEATURE
 62
7
  6
CONTINUOUS
 10
106.2193511755
 20
137.5913671598
  0
VERTEX
  8
2_FEATURE
 62
7
  6
CONTINUOUS
 10
106.2056893665
 20
137.5407334168
  0
VERTEX
  8
2_FEATURE
 62
7
  6
CONTINUOUS
 10
106.1906955706
 20
137.491600744
  0
VERTEX
  8
2_FEATURE
 62
7
  6
CONTINUOUS
 10
106.1743630809
 20
137.444100302
  0
VERTEX
  8
2_FEATURE
 62
7
  6
CONTINUOUS
 10
106.156701711
 20
137.3983807229
  0
VERTEX
  8
2_FEATURE
 62
7
  6
CONTINUOUS
 10
106.1377180923
 20
137.3545640511
  0
VERTEX
  8
2_FEATURE
 62
7
  6
CONTINUOUS
 10
106.1174250547
 20
137.3127778267
  0
VERTEX
  8
2_FEATURE
 62
7
  6
CONTINUOUS
 10
106.0958817117
 20
137.2732233625
  0
VERTEX
  8
2_FEATURE
 62
7
  6
CONTINUOUS
 10
106.0732179035
 20
137.2361805207
  0
VERTEX
  8
2_FEATURE
 62
7
  6
CONTINUOUS
 10
106.0495142246
 20
137.2017941261
  0
VERTEX
  8
2_FEATURE
 62
7
  6
CONTINUOUS
 10
106.0246863395
 20
137.169997494
  0
VERTEX
  8
2_FEATURE
 62
7
  6
CONTINUOUS
 10
105.9987321214
 20
137.1409079361
  0
VERTEX
  8
2_FEATURE
 62
7
  6
CONTINUOUS
 10
105.9717754513
 20
137.1148096761
  0
VERTEX
  8
2_FEATURE
 62
7
  6
CONTINUOUS
 10
105.9439212461
 20
137.0919611598
  0
VERTEX
  8
2_FEATURE
 62
7
  6
CONTINUOUS
 10
105.915139941
 20
137.0725672348
  0
VERTEX
  8
2_FEATURE
 62
7
  6
CONTINUOUS
 10
105.885653414
 20
137.0570777694
  0
VERTEX
  8
2_FEATURE
 62
7
  6
CONTINUOUS
 10
105.8554609695
 20
137.045883747
  0
VERTEX
  8
2_FEATURE
 62
7
  6
CONTINUOUS
 10
105.8259734665
 20
137.0396902244
  0
VERTEX
  8
2_FEATURE
 62
7
  6
CONTINUOUS
 10
105.8032312476
 20
137.0382299599
  0
SEQEND
  0
LINE
  8
2_FEATURE
 62
7
  6
CONTINUOUS
 10
106.2950394045
 20
141.5233122998
 11
106.293349684
 21
141.237550022
  0
LINE
  8
2_FEATURE
 62
7
  6
CONTINUOUS
 10
106.0027717989
 20
111.9523977652
 11
106.0095304806
 21
112.4003214681
  0
LINE
  8
2_FEATURE
 62
7
  6
CONTINUOUS
 10
105.9971553522
 20
111.6658618934
 11
106.0027717989
 21
111.9523977652
  0
LINE
  8
2_FEATURE
 62
7
  6
CONTINUOUS
 10
105.9914621064
 20
111.4321213181
 11
105.9971553522
 21
111.6658618934
  0
LINE
  8
2_FEATURE
 62
7
  6
CONTINUOUS
 10
105.9871889859
 20
111.2870228808
 11
105.9914621064
 21
111.4321213181
  0
LINE
  8
2_FEATURE
 62
7
  6
CONTINUOUS
 10
105.9829750122
 20
111.1658023426
 11
105.9871889859
 21
111.2870228808
  0
LINE
  8
2_FEATURE
 62
7
  6
CONTINUOUS
 10
105.9802206173
 20
111.0971702703
 11
105.9829750122
 21
111.1658023426
  0
LINE
  8
2_FEATURE
 62
7
  6
CONTINUOUS
 10
105.9775145769
 20
111.0372904082
 11
105.9802206173
 21
111.0971702703
  0
LINE
  8
2_FEATURE
 62
7
  6
CONTINUOUS
 10
105.9748511639
 20
110.9852190752
 11
105.9775145769
 21
111.0372904082
  0
POLYLINE
  8
2_FEATURE
 62
7
  6
CONTINUOUS
 66
1
 70
0
  0
VERTEX
  8
2_FEATURE
 62
7
  6
CONTINUOUS
 10
112.6879766962
 20
110.9971690516
  0
VERTEX
  8
2_FEATURE
 62
7
  6
CONTINUOUS
 10
112.6895344123
 20
110.968815421
  0
VERTEX
  8
2_FEATURE
 62
7
  6
CONTINUOUS
 10
112.6910878558
 20
110.9426744392
  0
VERTEX
  8
2_FEATURE
 62
7
  6
CONTINUOUS
 10
112.6926382952
 20
110.9186275297
  0
VERTEX
  8
2_FEATURE
 62
7
  6
CONTINUOUS
 10
112.6941891584
 20
110.8965305526
  0
VERTEX
  8
2_FEATURE
 62
7
  6
CONTINUOUS
 10
112.695748067
 20
110.8761978815
  0
VERTEX
  8
2_FEATURE
 62
7
  6
CONTINUOUS
 10
112.6973300935
 20
110.8573829577
  0
VERTEX
  8
2_FEATURE
 62
7
  6
CONTINUOUS
 10
112.6989577777
 20
110.8398105828
  0
VERTEX
  8
2_FEATURE
 62
7
  6
CONTINUOUS
 10
112.7006639162
 20
110.8231775084
  0
VERTEX
  8
2_FEATURE
 62
7
  6
CONTINUOUS
 10
112.7024962168
 20
110.8071456952
  0
VERTEX
  8
2_FEATURE
 62
7
  6
CONTINUOUS
 10
112.7045200657
 20
110.7913645279
  0
VERTEX
  8
2_FEATURE
 62
7
  6
CONTINUOUS
 10
112.7068329584
 20
110.7754172339
  0
VERTEX
  8
2_FEATURE
 62
7
  6
CONTINUOUS
 10
112.709586952
 20
110.7587741233
  0
VERTEX
  8
2_FEATURE
 62
7
  6
CONTINUOUS
 10
112.7130073146
 20
110.7408330238
  0
VERTEX
  8
2_FEATURE
 62
7
  6
CONTINUOUS
 10
112.7174375073
 20
110.7208730808
  0
VERTEX
  8
2_FEATURE
 62
7
  6
CONTINUOUS
 10
112.7233895263
 20
110.6980903278
  0
VERTEX
  8
2_FEATURE
 62
7
  6
CONTINUOUS
 10
112.731554355
 20
110.6718168766
  0
VERTEX
  8
2_FEATURE
 62
7
  6
CONTINUOUS
 10
112.7427390987
 20
110.641817131
  0
VERTEX
  8
2_FEATURE
 62
7
  6
CONTINUOUS
 10
112.7577755501
 20
110.6083846711
  0
VERTEX
  8
2_FEATURE
 62
7
  6
CONTINUOUS
 10
112.7775756143
 20
110.5720232395
  0
VERTEX
  8
2_FEATURE
 62
7
  6
CONTINUOUS
 10
112.8033763375
 20
110.5330902789
  0
VERTEX
  8
2_FEATURE
 62
7
  6
CONTINUOUS
 10
112.8363042912
 20
110.4926226975
  0
VERTEX
  8
2_FEATURE
 62
7
  6
CONTINUOUS
 10
112.8768716662
 20
110.4525413828
  0
VERTEX
  8
2_FEATURE
 62
7
  6
CONTINUOUS
 10
112.9249679423
 20
110.4150619065
  0
VERTEX
  8
2_FEATURE
 62
7
  6
CONTINUOUS
 10
112.9797931375
 20
110.3823758214
  0
VERTEX
  8
2_FEATURE
 62
7
  6
CONTINUOUS
 10
113.0399659708
 20
110.3563257332
  0
VERTEX
  8
2_FEATURE
 62
7
  6
CONTINUOUS
 10
113.1036843637
 20
110.338208066
  0
VERTEX
  8
2_FEATURE
 62
7
  6
CONTINUOUS
 10
113.1689143538
 20
110.3286760375
  0
VERTEX
  8
2_FEATURE
 62
7
  6
CONTINUOUS
 10
113.2086137034
 20
110.3271012932
  0
SEQEND
  0
POLYLINE
  8
2_FEATURE
 62
7
  6
CONTINUOUS
 66
1
 70
0
  0
VERTEX
  8
2_FEATURE
 62
7
  6
CONTINUOUS
 10
112.3239354194
 20
143.8853870945
  0
VERTEX
  8
2_FEATURE
 62
7
  6
CONTINUOUS
 10
112.3223819752
 20
143.9115280947
  0
VERTEX
  8
2_FEATURE
 62
7
  6
CONTINUOUS
 10
112.3208315357
 20
143.9355750037
  0
VERTEX
  8
2_FEATURE
 62
7
  6
CONTINUOUS
 10
112.3192806739
 20
143.957671966
  0
VERTEX
  8
2_FEATURE
 62
7
  6
CONTINUOUS
 10
112.3177217655
 20
143.978004647
  0
VERTEX
  8
2_FEATURE
 62
7
  6
CONTINUOUS
 10
112.3161397376
 20
143.9968195905
  0
VERTEX
  8
2_FEATURE
 62
7
  6
CONTINUOUS
 10
112.3145120536
 20
144.0143919628
  0
VERTEX
  8
2_FEATURE
 62
7
  6
CONTINUOUS
 10
112.3128059186
 20
144.0310250078
  0
VERTEX
  8
2_FEATURE
 62
7
  6
CONTINUOUS
 10
112.310973621
 20
144.0470568099
  0
VERTEX
  8
2_FEATURE
 62
7
  6
CONTINUOUS
 10
112.3089497672
 20
144.0628380232
  0
VERTEX
  8
2_FEATURE
 62
7
  6
CONTINUOUS
 10
112.3066368715
 20
144.0787853368
  0
VERTEX
  8
2_FEATURE
 62
7
  6
CONTINUOUS
 10
112.3038828808
 20
144.0954284294
  0
VERTEX
  8
2_FEATURE
 62
7
  6
CONTINUOUS
 10
112.300462537
 20
144.1133694416
  0
VERTEX
  8
2_FEATURE
 62
7
  6
CONTINUOUS
 10
112.2960323801
 20
144.1333292571
  0
VERTEX
  8
2_FEATURE
 62
7
  6
CONTINUOUS
 10
112.2900803463
 20
144.1561121035
  0
VERTEX
  8
2_FEATURE
 62
7
  6
CONTINUOUS
 10
112.2819155027
 20
144.1823856244
  0
VERTEX
  8
2_FEATURE
 62
7
  6
CONTINUOUS
 10
112.2707307449
 20
144.2123854173
  0
VERTEX
  8
2_FEATURE
 62
7
  6
CONTINUOUS
 10
112.2556942772
 20
144.245817915
  0
VERTEX
  8
2_FEATURE
 62
7
  6
CONTINUOUS
 10
112.2358941885
 20
144.2821793857
  0
VERTEX
  8
2_FEATURE
 62
7
  6
CONTINUOUS
 10
112.2100934325
 20
144.3211123826
  0
VERTEX
  8
2_FEATURE
 62
7
  6
CONTINUOUS
 10
112.177165434
 20
144.3615799978
  0
VERTEX
  8
2_FEATURE
 62
7
  6
CONTINUOUS
 10
112.1365979872
 20
144.4016613527
  0
VERTEX
  8
2_FEATURE
 62
7
  6
CONTINUOUS
 10
112.0885016102
 20
144.4391408642
  0
VERTEX
  8
2_FEATURE
 62
7
  6
CONTINUOUS
 10
112.0336763122
 20
144.471826955
  0
VERTEX
  8
2_FEATURE
 62
7
  6
CONTINUOUS
 10
111.9735034135
 20
144.4978770084
  0
VERTEX
  8
2_FEATURE
 62
7
  6
CONTINUOUS
 10
111.909785036
 20
144.5159946098
  0
VERTEX
  8
2_FEATURE
 62
7
  6
CONTINUOUS
 10
111.8445551835
 20
144.5255265709
  0
VERTEX
  8
2_FEATURE
 62
7
  6
CONTINUOUS
 10
111.8048561043
 20
144.527101293
  0
SEQEND
  0
LINE
  8
2_FEATURE
 62
7
  6
CONTINUOUS
 10
112.3270555644
 20
143.8263602479
 11
112.3239354194
 21
143.8853870945
  0
LINE
  8
2_FEATURE
 62
7
  6
CONTINUOUS
 10
112.6848459886
 20
111.0609615332
 11
112.6879766962
 21
110.9971690516
  0
LINE
  8
2_FEATURE
 62
7
  6
CONTINUOUS
 10
112.3301983152
 20
143.7575557376
 11
112.3270555644
 21
143.8263602479
  0
LINE
  8
2_FEATURE
 62
7
  6
CONTINUOUS
 10
112.6816913259
 20
111.135004747
 11
112.6848459886
 21
111.0609615332
  0
LINE
  8
2_FEATURE
 62
7
  6
CONTINUOUS
 10
112.3333634008
 20
143.6780701189
 11
112.3301983152
 21
143.7575557376
  0
LINE
  8
2_FEATURE
 62
7
  6
CONTINUOUS
 10
112.6785183295
 20
111.2201167867
 11
112.6816913259
 21
111.135004747
  0
LINE
  8
2_FEATURE
 62
7
  6
CONTINUOUS
 10
112.3381294385
 20
143.5372585782
 11
112.3333634008
 21
143.6780701189
  0
LINE
  8
2_FEATURE
 62
7
  6
CONTINUOUS
 10
112.6737549592
 20
111.3699109409
 11
112.6785183295
 21
111.2201167867
  0
LINE
  8
2_FEATURE
 62
7
  6
CONTINUOUS
 10
112.3428745839
 20
143.368691736
 11
112.3381294385
 21
143.5372585782
  0
LINE
  8
2_FEATURE
 62
7
  6
CONTINUOUS
 10
112.6690209869
 20
111.5484680937
 11
112.6737549592
 21
111.3699109409
  0
LINE
  8
2_FEATURE
 62
7
  6
CONTINUOUS
 10
112.3491414646
 20
143.0941425259
 11
112.3428745839
 21
143.368691736
  0
LINE
  8
2_FEATURE
 62
7
  6
CONTINUOUS
 10
112.6627785657
 20
111.8387813907
 11
112.6690209869
 21
111.5484680937
  0
LINE
  8
2_FEATURE
 62
7
  6
CONTINUOUS
 10
112.3552583751
 20
142.7525468276
 11
112.3491414646
 21
143.0941425259
  0
LINE
  8
2_FEATURE
 62
7
  6
CONTINUOUS
 10
112.6567314731
 20
112.1984512959
 11
112.6627785657
 21
111.8387813907
  0
LINE
  8
2_FEATURE
 62
7
  6
CONTINUOUS
 10
112.3609821609
 20
142.3371167156
 11
112.3552583751
 21
142.7525468276
  0
LINE
  8
2_FEATURE
 62
7
  6
CONTINUOUS
 10
112.6511557118
 20
112.6328242952
 11
112.6567314731
 21
112.1984512959
  0
LINE
  8
2_FEATURE
 62
7
  6
CONTINUOUS
 10
112.3648226337
 20
141.9754168524
 11
112.3609821609
 21
142.3371167156
  0
LINE
  8
2_FEATURE
 62
7
  6
CONTINUOUS
 10
112.6474817946
 20
113.0090343001
 11
112.6511557118
 21
112.6328242952
  0
LINE
  8
2_FEATURE
 62
7
  6
CONTINUOUS
 10
112.3681114205
 20
141.5702020104
 11
112.3648226337
 21
141.9754168524
  0
LINE
  8
2_FEATURE
 62
7
  6
CONTINUOUS
 10
112.6444129637
 20
113.4286323406
 11
112.6474817946
 21
113.0090343001
  0
LINE
  8
2_FEATURE
 62
7
  6
CONTINUOUS
 10
112.3706823581
 20
141.122397751
 11
112.3681114205
 21
141.5702020104
  0
LINE
  8
2_FEATURE
 62
7
  6
CONTINUOUS
 10
112.6421211204
 20
113.8901158996
 11
112.6444129637
 21
113.4286323406
  0
LINE
  8
2_FEATURE
 62
7
  6
CONTINUOUS
 10
112.3723532893
 20
140.6347803422
 11
112.3706823581
 21
141.122397751
  0
LINE
  8
2_FEATURE
 62
7
  6
CONTINUOUS
 10
112.6407927775
 20
114.3900246003
 11
112.6421211204
 21
113.8901158996
  0
LINE
  8
2_FEATURE
 62
7
  6
CONTINUOUS
 10
112.3729312164
 20
140.1271012931
 11
112.3723532893
 21
140.6347803422
  0
LINE
  8
2_FEATURE
 62
7
  6
CONTINUOUS
 10
112.3729312173
 20
138.2789070521
 11
112.3729312173
 21
140.1271012931
  0
LINE
  8
2_FEATURE
 62
7
  6
CONTINUOUS
 10
112.6405386103
 20
116.5752955341
 11
112.6407927775
 21
114.3900246003
  0
LINE
  8
0
 62
7
  6
CONTINUOUS
 10
118.6717349138
 20
136.2056408925
 11
118.6717349138
 21
110.7272154619
  0
LINE
  8
2_FEATURE
 62
2
  6
CONTINUOUS
 10
118.6717349138
 20
120.226316904
 11
118.6717349138
 21
122.1471012931
  0
LINE
  8
2_FEATURE
 62
2
  6
CONTINUOUS
 10
118.6717349138
 20
132.7071012931
 11
118.6717349138
 21
134.6278856418
  0
LINE
  8
0
 62
7
  6
CONTINUOUS
 10
42.8417349138
 20
197.0182323056
 11
42.8417349138
 21
196.8426407415
  0
LINE
  8
2_FEATURE
 62
2
  6
CONTINUOUS
 10
42.8417349138
 20
193.970313695
 11
42.8417349138
 21
188.1703137325
  0
LINE
  8
0
 62
7
  6
CONTINUOUS
 10
42.8417349138
 20
188.570313695
 11
42.8417349138
 21
196.122593576
  0
LINE
  8
2_FEATURE
 62
7
  6
CONTINUOUS
 10
49.1406147627
 20
196.4615874918
 11
49.2767642691
 21
188.6615874918
  0
LINE
  8
2_FEATURE
 62
7
  6
CONTINUOUS
 10
55.2228550649
 20
196.4615874918
 11
55.2125343423
 21
195.8703136918
  0
LINE
  8
2_FEATURE
 62
7
  6
CONTINUOUS
 10
55.0867055584
 20
188.6615874918
 11
55.1549326281
 21
192.570313695
  0
LINE
  8
0
 62
7
  6
CONTINUOUS
 10
55.1549326281
 20
192.570313695
 11
55.2228550649
 21
196.4615874918
  0
LINE
  8
0
 62
7
  6
CONTINUOUS
 10
54.6368317456
 20
188.1728250077
 11
54.8305403221
 21
194.5129578004
  0
LINE
  8
2_FEATURE
 62
7
  6
CONTINUOUS
 10
61.8406147627
 20
196.4615874918
 11
61.9767642691
 21
188.6615874918
  0
LINE
  8
2_FEATURE
 62
7
  6
CONTINUOUS
 10
67.7867055584
 20
188.6615874918
 11
67.9228550649
 21
196.4615874918
  0
LINE
  8
2_FEATURE
 62
7
  6
CONTINUOUS
 10
74.5406147627
 20
196.4615874918
 11
74.6767642691
 21
188.6615874918
  0
POLYLINE
  8
2_FEATURE
 62
7
  6
CONTINUOUS
 66
1
 70
0
  0
VERTEX
  8
2_FEATURE
 62
7
  6
CONTINUOUS
 10
114.3139966052
 20
188.197901988
  0
VERTEX
  8
2_FEATURE
 62
7
  6
CONTINUOUS
 10
114.3978518515
 20
188.2070782761
  0
VERTEX
  8
2_FEATURE
 62
7
  6
CONTINUOUS
 10
114.4883632799
 20
188.2161572954
  0
VERTEX
  8
2_FEATURE
 62
7
  6
CONTINUOUS
 10
114.5841176507
 20
188.2245731268
  0
VERTEX
  8
2_FEATURE
 62
7
  6
CONTINUOUS
 10
114.68394459
 20
188.2318596436
  0
VERTEX
  8
2_FEATURE
 62
7
  6
CONTINUOUS
 10
114.7869044358
 20
188.2376511239
  0
VERTEX
  8
2_FEATURE
 62
7
  6
CONTINUOUS
 10
114.8919944149
 20
188.2416652392
  0
VERTEX
  8
2_FEATURE
 62
7
  6
CONTINUOUS
 10
114.9983308221
 20
188.2437181631
  0
VERTEX
  8
2_FEATURE
 62
7
  6
CONTINUOUS
 10
115.1050768694
 20
188.2437187652
  0
VERTEX
  8
2_FEATURE
 62
7
  6
CONTINUOUS
 10
115.2114103403
 20
188.2416671177
  0
VERTEX
  8
2_FEATURE
 62
7
  6
CONTINUOUS
 10
115.3164963457
 20
188.2376543984
  0
VERTEX
  8
2_FEATURE
 62
7
  6
CONTINUOUS
 10
115.419456161
 20
188.231864128
  0
VERTEX
  8
2_FEATURE
 62
7
  6
CONTINUOUS
 10
115.5193068918
 20
188.2245767879
  0
VERTEX
  8
2_FEATURE
 62
7
  6
CONTINUOUS
 10
115.6151115232
 20
188.2161568245
  0
VERTEX
  8
2_FEATURE
 62
7
  6
CONTINUOUS
 10
115.705646159
 20
188.2070753012
  0
VERTEX
  8
2_FEATURE
 62
7
  6
CONTINUOUS
 10
115.7895009372
 20
188.1978988649
  0
VERTEX
  8
2_FEATURE
 62
7
  6
CONTINUOUS
 10
115.9332168441
 20
188.1815585648
  0
SEQEND
  0
POLYLINE
  8
2_FEATURE
 62
7
  6
CONTINUOUS
 66
1
 70
0
  0
VERTEX
  8
2_FEATURE
 62
7
  6
CONTINUOUS
 10
114.2172136464
 20
188.1849178304
  0
VERTEX
  8
2_FEATURE
 62
7
  6
CONTINUOUS
 10
114.3837597208
 20
188.2029177378
  0
VERTEX
  8
2_FEATURE
 62
7
  6
CONTINUOUS
 10
114.4761394179
 20
188.2120963994
  0
VERTEX
  8
2_FEATURE
 62
7
  6
CONTINUOUS
 10
114.5735517796
 20
188.220646627
  0
VERTEX
  8
2_FEATURE
 62
7
  6
CONTINUOUS
 10
114.6753371105
 20
188.2281092319
  0
VERTEX
  8
2_FEATURE
 62
7
  6
CONTINUOUS
 10
114.7805306564
 20
188.2340765062
  0
VERTEX
  8
2_FEATURE
 62
7
  6
CONTINUOUS
 10
114.8878601502
 20
188.2382238754
  0
VERTEX
  8
2_FEATURE
 62
7
  6
CONTINUOUS
 10
114.9963130951
 20
188.2403530135
  0
VERTEX
  8
2_FEATURE
 62
7
  6
CONTINUOUS
 10
115.1051376145
 20
188.2403727369
  0
VERTEX
  8
2_FEATURE
 62
7
  6
CONTINUOUS
 10
115.2136051679
 20
188.2382821843
  0
VERTEX
  8
2_FEATURE
 62
7
  6
CONTINUOUS
 10
115.320970618
 20
188.2341704986
  0
VERTEX
  8
2_FEATURE
 62
7
  6
CONTINUOUS
 10
115.4262187767
 20
188.2282340544
  0
VERTEX
  8
2_FEATURE
 62
7
  6
CONTINUOUS
 10
115.5280614829
 20
188.2207967816
  0
VERTEX
  8
2_FEATURE
 62
7
  6
CONTINUOUS
 10
115.6255352812
 20
188.2122652461
  0
VERTEX
  8
2_FEATURE
 62
7
  6
CONTINUOUS
 10
115.7180048147
 20
188.2030949665
  0
SEQEND
  0
POLYLINE
  8
2_FEATURE
 62
7
  6
CONTINUOUS
 66
1
 70
0
  0
VERTEX
  8
2_FEATURE
 62
7
  6
CONTINUOUS
 10
114.0647460037
 20
188.171665902
  0
VERTEX
  8
2_FEATURE
 62
7
  6
CONTINUOUS
 10
114.112289994
 20
188.1755447875
  0
VERTEX
  8
2_FEATURE
 62
7
  6
CONTINUOUS
 10
114.1702868305
 20
188.1815622876
  0
VERTEX
  8
2_FEATURE
 62
7
  6
CONTINUOUS
 10
114.3139966052
 20
188.197901988
  0
SEQEND
  0
POLYLINE
  8
2_FEATURE
 62
7
  6
CONTINUOUS
 66
1
 70
0
  0
VERTEX
  8
2_FEATURE
 62
7
  6
CONTINUOUS
 10
105.4098300686
 20
189.6599875131
  0
VERTEX
  8
2_FEATURE
 62
7
  6
CONTINUOUS
 10
105.4557327695
 20
189.6631767791
  0
VERTEX
  8
2_FEATURE
 62
7
  6
CONTINUOUS
 10
105.5034833149
 20
189.6733484057
  0
VERTEX
  8
2_FEATURE
 62
7
  6
CONTINUOUS
 10
105.5517756403
 20
189.6910567869
  0
VERTEX
  8
2_FEATURE
 62
7
  6
CONTINUOUS
 10
105.5995044017
 20
189.7164849006
  0
VERTEX
  8
2_FEATURE
 62
7
  6
CONTINUOUS
 10
105.6462798503
 20
189.7499872379
  0
VERTEX
  8
2_FEATURE
 62
7
  6
CONTINUOUS
 10
105.691711469
 20
189.7920457838
  0
VERTEX
  8
2_FEATURE
 62
7
  6
CONTINUOUS
 10
105.7346867136
 20
189.8424192597
  0
VERTEX
  8
2_FEATURE
 62
7
  6
CONTINUOUS
 10
105.7742518251
 20
189.9005641498
  0
VERTEX
  8
2_FEATURE
 62
7
  6
CONTINUOUS
 10
105.8100847771
 20
189.96660317
  0
VERTEX
  8
2_FEATURE
 62
7
  6
CONTINUOUS
 10
105.8416563671
 20
190.0403834848
  0
VERTEX
  8
2_FEATURE
 62
7
  6
CONTINUOUS
 10
105.8682891362
 20
190.1211182904
  0
VERTEX
  8
2_FEATURE
 62
7
  6
CONTINUOUS
 10
105.889501433
 20
190.2078758477
  0
VERTEX
  8
2_FEATURE
 62
7
  6
CONTINUOUS
 10
105.9049314447
 20
190.2990689809
  0
VERTEX
  8
2_FEATURE
 62
7
  6
CONTINUOUS
 10
105.9144564123
 20
190.3918265202
  0
VERTEX
  8
2_FEATURE
 62
7
  6
CONTINUOUS
 10
105.918500651
 20
190.4831271253
  0
SEQEND
  0
POLYLINE
  8
2_FEATURE
 62
7
  6
CONTINUOUS
 66
1
 70
0
  0
VERTEX
  8
2_FEATURE
 62
7
  6
CONTINUOUS
 10
114.0290801711
 20
188.1703146719
  0
VERTEX
  8
2_FEATURE
 62
7
  6
CONTINUOUS
 10
114.0798834864
 20
188.1721583758
  0
VERTEX
  8
2_FEATURE
 62
7
  6
CONTINUOUS
 10
114.1446104558
 20
188.1774520497
  0
VERTEX
  8
2_FEATURE
 62
7
  6
CONTINUOUS
 10
114.2172136464
 20
188.1849178304
  0
SEQEND
  0
POLYLINE
  8
2_FEATURE
 62
7
  6
CONTINUOUS
 66
1
 70
0
  0
VERTEX
  8
2_FEATURE
 62
7
  6
CONTINUOUS
 10
114.3104168992
 20
188.1703135748
  0
VERTEX
  8
2_FEATURE
 62
7
  6
CONTINUOUS
 10
114.3640207609
 20
188.1721583313
  0
VERTEX
  8
2_FEATURE
 62
7
  6
CONTINUOUS
 10
114.4343324934
 20
188.1786790614
  0
VERTEX
  8
2_FEATURE
 62
7
  6
CONTINUOUS
 10
114.5028472339
 20
188.1871196342
  0
VERTEX
  8
2_FEATURE
 62
7
  6
CONTINUOUS
 10
114.5700699416
 20
188.1949841536
  0
VERTEX
  8
2_FEATURE
 62
7
  6
CONTINUOUS
 10
114.6354017129
 20
188.2000710273
  0
VERTEX
  8
2_FEATURE
 62
7
  6
CONTINUOUS
 10
114.6817349889
 20
188.2012270625
  0
SEQEND
  0
LINE
  8
0
 62
7
  6
CONTINUOUS
 10
115.7930477972
 20
188.170313695
 11
114.3104098327
 21
188.170313695
  0
LINE
  8
0
 62
7
  6
CONTINUOUS
 10
113.2766881167
 20
188.170313695
 11
112.2765357887
 21
188.170313695
  0
LINE
  8
0
 62
7
  6
CONTINUOUS
 10
106.3869340389
 20
188.170313695
 11
105.3867817109
 21
188.170313695
  0
LINE
  8
0
 62
7
  6
CONTINUOUS
 10
92.9386120502
 20
188.170313695
 11
92.6867817109
 21
188.170313695
  0
LINE
  8
0
 62
7
  6
CONTINUOUS
 10
87.8766881167
 20
188.170313695
 11
86.8765357887
 21
188.170313695
  0
LINE
  8
0
 62
7
  6
CONTINUOUS
 10
80.9869340389
 20
188.170313695
 11
79.9867817109
 21
188.170313695
  0
LINE
  8
0
 62
7
  6
CONTINUOUS
 10
75.1766881167
 20
188.170313695
 11
74.1765357887
 21
188.170313695
  0
LINE
  8
0
 62
7
  6
CONTINUOUS
 10
62.4766881167
 20
188.170313695
 11
61.4765357887
 21
188.170313695
  0
LINE
  8
0
 62
7
  6
CONTINUOUS
 10
55.5869340389
 20
188.170313695
 11
54.5867817109
 21
188.170313695
  0
LINE
  8
0
 62
7
  6
CONTINUOUS
 10
49.7766881167
 20
188.170313695
 11
43.2417349138
 21
188.170313695
  0
LINE
  8
2_FEATURE
 62
2
  6
CONTINUOUS
 10
42.8417349138
 20
188.170313695
 11
43.2417349138
 21
188.170313695
  0
LINE
  8
2_FEATURE
 62
2
  6
CONTINUOUS
 10
100.5766881167
 20
188.170313695
 11
104.140551799
 21
188.170313695
  0
LINE
  8
2_FEATURE
 62
2
  6
CONTINUOUS
 10
118.2717349138
 20
188.170313695
 11
118.6717349138
 21
188.170313695
  0
LINE
  8
2_FEATURE
 62
7
  6
CONTINUOUS
 10
43.2417349138
 20
188.170313695
 11
100.5766881167
 21
188.170313695
  0
LINE
  8
0
 62
7
  6
CONTINUOUS
 10
99.5765357887
 20
188.170313695
 11
104.140551799
 21
188.170313695
  0
LINE
  8
2_FEATURE
 62
7
  6
CONTINUOUS
 10
115.4217349138
 20
188.2012270762
 11
114.6817349884
 21
188.2012270762
  0
LINE
  8
2_FEATURE
 62
7
  6
CONTINUOUS
 10
104.140551799
 20
188.170313695
 11
118.2717349138
 21
188.170313695
  0
LINE
  8
CURVE
 62
40
  6
CONTINUOUS
 10
80.7567349138
 20
196.4615874918
 11
80.7567349138
 21
188.6615874918
  0
LINE
  8
1_AXIS
 62
2
  6
CENTER
 10
80.7567349138
 20
183.1609838832
 11
80.7567349138
 21
199.0182323056
  0
LINE
  8
2_FEATURE
 62
7
  6
CONTINUOUS
 10
80.4867055584
 20
188.6615874918
 11
80.6228550649
 21
196.4615874918
  0
LINE
  8
2_FEATURE
 62
7
  6
CONTINUOUS
 10
104.521836307
 20
189.6599872529
 11
105.4098300686
 21
189.6599875131
  0
POLYLINE
  8
2_FEATURE
 62
7
  6
CONTINUOUS
 66
1
 70
0
  0
VERTEX
  8
2_FEATURE
 62
7
  6
CONTINUOUS
 10
115.4217349138
 20
188.2012270365
  0
VERTEX
  8
2_FEATURE
 62
7
  6
CONTINUOUS
 10
115.469492246
 20
188.2000001483
  0
VERTEX
  8
2_FEATURE
 62
7
  6
CONTINUOUS
 10
115.5348738942
 20
188.1948325798
  0
VERTEX
  8
2_FEATURE
 62
7
  6
CONTINUOUS
 10
115.602138279
 20
188.1869287423
  0
VERTEX
  8
2_FEATURE
 62
7
  6
CONTINUOUS
 10
115.6707048849
 20
188.1785003749
  0
VERTEX
  8
2_FEATURE
 62
7
  6
CONTINUOUS
 10
115.7410826376
 20
188.1720540799
  0
VERTEX
  8
2_FEATURE
 62
7
  6
CONTINUOUS
 10
115.7930477972
 20
188.1703135964
  0
SEQEND
  0
LINE
  8
DEFAULT_1
 62
2
  6
CENTER
 10
47.1631513464
 20
192.570313695
 11
120.6717349138
 21
192.570313695
  0
POLYLINE
  8
2_FEATURE
 62
7
  6
CONTINUOUS
 66
1
 70
0
  0
VERTEX
  8
2_FEATURE
 62
7
  6
CONTINUOUS
 10
115.9332168441
 20
188.1815585648
  0
VERTEX
  8
2_FEATURE
 62
7
  6
CONTINUOUS
 10
115.9912072321
 20
188.1755421849
  0
VERTEX
  8
2_FEATURE
 62
7
  6
CONTINUOUS
 10
116.0387376333
 20
188.1716650269
  0
SEQEND
  0
POLYLINE
  8
2_FEATURE
 62
7
  6
CONTINUOUS
 66
1
 70
0
  0
VERTEX
  8
2_FEATURE
 62
7
  6
CONTINUOUS
 10
115.7180048147
 20
188.2030949665
  0
VERTEX
  8
2_FEATURE
 62
7
  6
CONTINUOUS
 10
115.8848795906
 20
188.1850662247
  0
VERTEX
  8
2_FEATURE
 62
7
  6
CONTINUOUS
 10
115.9577213034
 20
188.1775607752
  0
VERTEX
  8
2_FEATURE
 62
7
  6
CONTINUOUS
 10
116.0227068015
 20
188.1722140759
  0
VERTEX
  8
2_FEATURE
 62
7
  6
CONTINUOUS
 10
116.0744722181
 20
188.1703147525
  0
SEQEND
  0
LINE
  8
2_FEATURE
 62
2
  6
CONTINUOUS
 10
42.8417349138
 20
193.970313695
 11
118.6717349138
 21
193.970313695
  0
LINE
  8
0
 62
7
  6
CONTINUOUS
 10
54.8305403221
 20
194.5129578004
 11
55.1888416071
 21
194.5129578004
  0
LINE
  8
2_FEATURE
 62
7
  6
CONTINUOUS
 10
87.2406147627
 20
196.4615874918
 11
87.3767642691
 21
188.6615874918
  0
LINE
  8
0
 62
7
  6
CONTINUOUS
 10
118.6717349138
 20
196.8426407415
 11
114.6310434498
 21
196.8426407415
  0
LINE
  8
0
 62
7
  6
CONTINUOUS
 10
46.8824263777
 20
196.8426407415
 11
42.8417349138
 21
196.8426407415
  0
LINE
  8
2_FEATURE
 62
7
  6
CONTINUOUS
 10
48.3635653852
 20
196.970313695
 11
113.1499044423
 21
196.970313695
  0
LINE
  8
0
 62
7
  6
CONTINUOUS
 10
118.6717349138
 20
197.0182323056
 11
42.8417349138
 21
197.0182323056
  0
LINE
  8
0
 62
40
  6
CONTINUOUS
 10
90.2567349138
 20
188.170313695
 11
90.2567349138
 21
196.970313695
  0
LINE
  8
0
 62
7
  6
CONTINUOUS
 10
43.2068726012
 20
196.5210714539
 11
48.3199875139
 21
196.9684110441
  0
LINE
  8
0
 62
7
  6
CONTINUOUS
 10
118.3065972109
 20
196.5210714553
 11
113.1934823137
 21
196.9684110441
  0
LINE
  8
2_FEATURE
 62
7
  6
CONTINUOUS
 10
93.1867055584
 20
188.6615874918
 11
93.3228550649
 21
196.4615874918
  0
LINE
  8
2_FEATURE
 62
7
  6
CONTINUOUS
 10
99.9406147627
 20
196.4615874918
 11
100.0767642691
 21
188.6615874918
  0
LINE
  8
2_FEATURE
 62
7
  6
CONTINUOUS
 10
105.8867055584
 20
188.6615874918
 11
106.0228550649
 21
196.4615874918
  0
LINE
  8
2_FEATURE
 62
7
  6
CONTINUOUS
 10
104.248044205
 20
189.3989575182
 11
104.140551799
 21
188.170313695
  0
POLYLINE
  8
2_FEATURE
 62
7
  6
CONTINUOUS
 66
1
 70
0
  0
VERTEX
  8
2_FEATURE
 62
7
  6
CONTINUOUS
 10
104.248044205
 20
189.3989575182
  0
VERTEX
  8
2_FEATURE
 62
7
  6
CONTINUOUS
 10
104.2552680008
 20
189.4401820166
  0
VERTEX
  8
2_FEATURE
 62
7
  6
CONTINUOUS
 10
104.2697409027
 20
189.4815922062
  0
VERTEX
  8
2_FEATURE
 62
7
  6
CONTINUOUS
 10
104.2906641615
 20
189.5210367947
  0
VERTEX
  8
2_FEATURE
 62
7
  6
CONTINUOUS
 10
104.316540748
 20
189.5565585344
  0
VERTEX
  8
2_FEATURE
 62
7
  6
CONTINUOUS
 10
104.3455307517
 20
189.5868072444
  0
VERTEX
  8
2_FEATURE
 62
7
  6
CONTINUOUS
 10
104.3759269062
 20
189.6112515495
  0
VERTEX
  8
2_FEATURE
 62
7
  6
CONTINUOUS
 10
104.4064498011
 20
189.6300331526
  0
VERTEX
  8
2_FEATURE
 62
7
  6
CONTINUOUS
 10
104.4364606133
 20
189.6437352409
  0
VERTEX
  8
2_FEATURE
 62
7
  6
CONTINUOUS
 10
104.4655835911
 20
189.6529481181
  0
VERTEX
  8
2_FEATURE
 62
7
  6
CONTINUOUS
 10
104.4940828014
 20
189.6582681651
  0
VERTEX
  8
2_FEATURE
 62
7
  6
CONTINUOUS
 10
104.521836307
 20
189.6599872529
  0
SEQEND
  0
LINE
  8
2_FEATURE
 62
7
  6
CONTINUOUS
 10
112.6406147627
 20
196.4615874918
 11
112.7767642691
 21
188.6615874918
  0
LINE
  8
0
 62
7
  6
CONTINUOUS
 10
118.6717349138
 20
197.0182323056
 11
118.6717349138
 21
196.8426407415
  0
LINE
  8
2_FEATURE
 62
2
  6
CONTINUOUS
 10
118.6717349138
 20
193.970313695
 11
118.6717349138
 21
188.1703137325
  0
LINE
  8
0
 62
7
  6
CONTINUOUS
 10
118.6717349138
 20
196.122593576
 11
118.6717349138
 21
188.570313695
  0
LINE
  8
0
 62
2
  6
CONTINUOUS
 10
159.6316175743
 20
114.7271012931
 11
157.8716175743
 21
114.7271012931
  0
LINE
  8
DEFAULT_1
 62
2
  6
CENTER
 10
154.3516175743
 20
114.7271012931
 11
154.1516175743
 21
114.7271012931
  0
LINE
  8
DEFAULT_1
 62
2
  6
CENTER
 10
163.1516175743
 20
114.7271012931
 11
163.3516175743
 21
114.7271012931
  0
LINE
  8
0
 62
7
  6
CONTINUOUS
 10
154.8516175743
 20
119.5271012931
 11
158.7516175743
 21
119.5271012931
  0
LINE
  8
2_FEATURE
 62
2
  6
CONTINUOUS
 10
158.7516175743
 20
122.1471012931
 11
160.1516175743
 21
122.1471012931
  0
LINE
  8
0
 62
7
  6
CONTINUOUS
 10
154.3516175743
 20
140.1271012931
 11
154.3516175743
 21
119.8938089736
  0
LINE
  8
2_FEATURE
 62
7
  6
CONTINUOUS
 10
154.3516175743
 20
114.7271012931
 11
154.3516175743
 21
120.0271012931
  0
LINE
  8
0
 62
7
  6
CONTINUOUS
 10
163.1995361849
 20
126.6011203027
 11
163.0239446208
 21
126.6011203027
  0
LINE
  8
1_AXIS
 62
2
  6
CENTER
 10
149.3422877625
 20
127.4271012931
 11
165.1995361849
 21
127.4271012931
  0
LINE
  8
0
 62
7
  6
CONTINUOUS
 10
163.0239446208
 20
128.1654815099
 11
163.1995361849
 21
128.1654815099
  0
LINE
  8
0
 62
2
  6
CONTINUOUS
 10
158.7516175743
 20
141.0071012931
 11
158.7516175743
 21
139.2471012931
  0
LINE
  8
DEFAULT_1
 62
2
  6
CENTER
 10
158.7516175743
 20
135.7271012931
 11
158.7516175743
 21
135.5271012931
  0
LINE
  8
0
 62
2
  6
CONTINUOUS
 10
158.7516175743
 20
115.6071012931
 11
158.7516175743
 21
113.8471012931
  0
LINE
  8
DEFAULT_1
 62
2
  6
CENTER
 10
158.7516175743
 20
110.3271012931
 11
158.7516175743
 21
110.1271012931
  0
LINE
  8
DEFAULT_1
 62
2
  6
CENTER
 10
158.7516175743
 20
119.1271012931
 11
158.7516175743
 21
119.3271012931
  0
LINE
  8
DEFAULT_1
 62
2
  6
CENTER
 10
158.7516175743
 20
144.5271012931
 11
158.7516175743
 21
144.7271012931
  0
LINE
  8
0
 62
7
  6
CONTINUOUS
 10
163.0239446208
 20
126.6011203027
 11
163.0239446208
 21
128.1654815099
  0
LINE
  8
2_FEATURE
 62
7
  6
CONTINUOUS
 10
163.1516175743
 20
114.7271012931
 11
163.1516175743
 21
126.6011203027
  0
LINE
  8
0
 62
7
  6
CONTINUOUS
 10
163.1516175743
 20
118.3159729821
 11
163.1516175743
 21
126.6011203027
  0
LINE
  8
2_FEATURE
 62
7
  6
CONTINUOUS
 10
163.1516175743
 20
128.1654815099
 11
163.1516175743
 21
140.1271012931
  0
LINE
  8
0
 62
7
  6
CONTINUOUS
 10
163.1516175743
 20
128.1654815099
 11
163.1516175743
 21
140.1271012931
  0
LINE
  8
0
 62
7
  6
CONTINUOUS
 10
163.1995361849
 20
128.1654815099
 11
163.1995361849
 21
126.6011203027
  0
LINE
  8
2_FEATURE
 62
2
  6
CONTINUOUS
 10
160.1516175743
 20
132.7071012931
 11
158.7516175743
 21
132.7071012931
  0
LINE
  8
0
 62
2
  6
CONTINUOUS
 10
159.6316175743
 20
140.1271012931
 11
157.8716175743
 21
140.1271012931
  0
LINE
  8
DEFAULT_1
 62
2
  6
CENTER
 10
154.3516175743
 20
140.1271012931
 11
154.1516175743
 21
140.1271012931
  0
LINE
  8
DEFAULT_1
 62
2
  6
CENTER
 10
163.1516175743
 20
140.1271012931
 11
163.3516175743
 21
140.1271012931
  0
LINE
  8
0
 62
7
  6
CONTINUOUS
 10
159.7146640694
 20
112.3120357768
 11
159.3689812612
 21
112.2014603689
  0
LINE
  8
0
 62
7
  6
CONTINUOUS
 10
159.3689812612
 20
142.6527422173
 11
159.7146640694
 21
142.5421668095
  0
ARC
  8
0
 62
7
  6
CONTINUOUS
 10
118.2717349138
 20
110.7271012931
 40
0.4
 50
270.0
 51
0.0000013193
  0
ARC
  8
0
 62
7
  6
CONTINUOUS
 10
118.2717349138
 20
136.2056414149
 40
0.4
 50
0.0000000001
 51
85.7041805771
  0
ARC
  8
0
 62
7
  6
CONTINUOUS
 10
43.2417349138
 20
144.1271012931
 40
0.4
 50
90.0
 51
180.0000008312
  0
ARC
  8
0
 62
7
  6
CONTINUOUS
 10
43.2417349138
 20
118.6485611713
 40
0.4
 50
180.0000000001
 51
265.7041805771
  0
ARC
  8
2_FEATURE
 62
7
  6
CONTINUOUS
 10
62.4766881167
 20
188.670313695
 40
0.5
 50
181.0
 51
270.0
  0
ARC
  8
0
 62
7
  6
CONTINUOUS
 10
54.5867817117
 20
188.6703137443
 40
0.5
 50
269.9999999015
 51
275.7449322842
  0
ARC
  8
2_FEATURE
 62
7
  6
CONTINUOUS
 10
75.1766881167
 20
188.670313695
 40
0.5
 50
181.0
 51
270.0
  0
ARC
  8
2_FEATURE
 62
7
  6
CONTINUOUS
 10
67.2867817109
 20
188.670313695
 40
0.5
 50
270.0
 51
359.0
  0
ARC
  8
2_FEATURE
 62
7
  6
CONTINUOUS
 10
79.9867817109
 20
188.670313695
 40
0.5
 50
270.0
 51
359.0
  0
ARC
  8
2_FEATURE
 62
7
  6
CONTINUOUS
 10
49.7766881167
 20
188.670313695
 40
0.5
 50
181.0
 51
270.0
  0
ARC
  8
2_FEATURE
 62
7
  6
CONTINUOUS
 10
54.5867817109
 20
188.670313695
 40
0.5
 50
270.0
 51
359.0
  0
ARC
  8
0
 62
7
  6
CONTINUOUS
 10
43.2417349138
 20
188.570313695
 40
0.4
 50
180.0
 51
270.0
  0
ARC
  8
2_FEATURE
 62
7
  6
CONTINUOUS
 10
62.3405386103
 20
196.470313695
 40
0.5
 50
90.0
 51
181.0
  0
ARC
  8
2_FEATURE
 62
7
  6
CONTINUOUS
 10
54.7229312173
 20
196.470313695
 40
0.5
 50
359.0
 51
90.0
  0
ARC
  8
2_FEATURE
 62
7
  6
CONTINUOUS
 10
75.0405386103
 20
196.470313695
 40
0.5
 50
90.0
 51
181.0
  0
ARC
  8
2_FEATURE
 62
7
  6
CONTINUOUS
 10
67.4229312173
 20
196.470313695
 40
0.5
 50
359.0
 51
90.0
  0
ARC
  8
2_FEATURE
 62
7
  6
CONTINUOUS
 10
80.1229312173
 20
196.470313695
 40
0.5
 50
359.0
 51
90.0
  0
ARC
  8
2_FEATURE
 62
7
  6
CONTINUOUS
 10
49.6405386103
 20
196.470313695
 40
0.5
 50
90.0
 51
181.0
  0
ARC
  8
2_FEATURE
 62
7
  6
CONTINUOUS
 10
48.3635653852
 20
196.470313695
 40
0.5
 50
90.0
 51
95.0
  0
ARC
  8
0
 62
7
  6
CONTINUOUS
 10
43.2417349138
 20
196.1225935064
 40
0.4
 50
95.000002229
 51
179.9999900311
  0
ARC
  8
0
 62
7
  6
CONTINUOUS
 10
92.9386123246
 20
188.670313695
 40
0.5
 50
260.4074671136
 51
270.0
  0
ARC
  8
2_FEATURE
 62
7
  6
CONTINUOUS
 10
87.8766881167
 20
188.670313695
 40
0.5
 50
181.0
 51
270.0
  0
ARC
  8
2_FEATURE
 62
7
  6
CONTINUOUS
 10
100.5766881167
 20
188.670313695
 40
0.5
 50
181.0
 51
270.0
  0
ARC
  8
2_FEATURE
 62
7
  6
CONTINUOUS
 10
92.6867817109
 20
188.670313695
 40
0.5
 50
270.0
 51
359.0
  0
ARC
  8
2_FEATURE
 62
7
  6
CONTINUOUS
 10
113.2766881167
 20
188.670313695
 40
0.5
 50
181.0
 51
270.0
  0
ARC
  8
2_FEATURE
 62
7
  6
CONTINUOUS
 10
105.3867817109
 20
188.670313695
 40
0.5
 50
270.0
 51
359.0
  0
ARC
  8
0
 62
7
  6
CONTINUOUS
 10
118.2717349138
 20
188.570313695
 40
0.4
 50
270.0
 51
360.0
  0
ARC
  8
2_FEATURE
 62
7
  6
CONTINUOUS
 10
87.7405386103
 20
196.470313695
 40
0.5
 50
90.0
 51
181.0
  0
ARC
  8
2_FEATURE
 62
7
  6
CONTINUOUS
 10
100.4405386103
 20
196.470313695
 40
0.5
 50
90.0
 51
181.0
  0
ARC
  8
2_FEATURE
 62
7
  6
CONTINUOUS
 10
92.8229312173
 20
196.470313695
 40
0.5
 50
359.0
 51
90.0
  0
ARC
  8
2_FEATURE
 62
7
  6
CONTINUOUS
 10
113.1405386103
 20
196.470313695
 40
0.5
 50
90.0
 51
181.0
  0
ARC
  8
2_FEATURE
 62
7
  6
CONTINUOUS
 10
105.5229312173
 20
196.470313695
 40
0.5
 50
359.0
 51
90.0
  0
ARC
  8
2_FEATURE
 62
7
  6
CONTINUOUS
 10
113.1499044423
 20
196.470313695
 40
0.5
 50
85.0
 51
90.0
  0
ARC
  8
0
 62
7
  6
CONTINUOUS
 10
118.2717349138
 20
196.1225934785
 40
0.4
 50
0.0000139767
 51
85.0000012181
  0
ARC
  8
0
 62
7
  6
CONTINUOUS
 10
154.8516175743
 20
120.0271012931
 40
0.5
 50
180.0
 51
270.0
  0
ARC
  8
2_FEATURE
 62
7
  6
CONTINUOUS
 10
154.8516175743
 20
120.0271012931
 40
0.5
 50
180.0
 51
270.0
  0
ARC
  8
0
 62
40
  6
CONTINUOUS
 10
158.7516175743
 20
114.7271012931
 40
4.4
 50
228.5901880121
 51
360.0
  0
ARC
  8
2_FEATURE
 62
2
  6
CONTINUOUS
 10
158.7516175743
 20
116.1471012931
 40
6.0
 50
90.0
 51
137.1665719339
  0
ARC
  8
2_FEATURE
 62
7
  6
CONTINUOUS
 10
158.7516175743
 20
114.7271012931
 40
4.8
 50
42.6210067858
 51
49.360332161
  0
ARC
  8
0
 62
7
  6
CONTINUOUS
 10
158.7516175743
 20
114.7271012931
 40
4.8
 50
42.620990953
 51
90.0
  0
ARC
  8
0
 62
7
  6
CONTINUOUS
 10
158.7516175743
 20
114.7271012931
 40
4.4
 50
190.4988350163
 51
228.5901880121
  0
ARC
  8
0
 62
7
  6
CONTINUOUS
 10
158.7516175743
 20
114.7271012931
 40
4.4
 50
180.0
 51
184.3022805914
  0
ARC
  8
2_FEATURE
 62
7
  6
CONTINUOUS
 10
158.7516175743
 20
114.7271012931
 40
4.4
 50
180.0
 51
360.0
  0
ARC
  8
0
 62
7
  6
CONTINUOUS
 10
158.7516175743
 20
114.7271012931
 40
4.4
 50
228.6178791418
 51
334.3898331723
  0
ARC
  8
0
 62
7
  6
CONTINUOUS
 10
158.7516175743
 20
114.7271012931
 40
4.4
 50
334.6383180986
 51
338.5461317
  0
ARC
  8
0
 62
7
  6
CONTINUOUS
 10
158.7516175743
 20
114.7271012931
 40
4.4
 50
338.8792483322
 51
342.8110601412
  0
ARC
  8
0
 62
7
  6
CONTINUOUS
 10
158.7516175743
 20
114.7271012931
 40
4.4
 50
343.0921788209
 51
347.1187337596
  0
ARC
  8
0
 62
7
  6
CONTINUOUS
 10
158.7516175743
 20
114.7271012931
 40
4.4
 50
347.3284010707
 51
351.5644313796
  0
ARC
  8
0
 62
7
  6
CONTINUOUS
 10
158.7516175743
 20
114.7271012931
 40
4.4
 50
355.8037446381
 51
360.0
  0
ARC
  8
0
 62
40
  6
CONTINUOUS
 10
158.7516175743
 20
114.7271012931
 40
4.4
 50
184.3022805914
 51
190.4988350163
  0
ARC
  8
0
 62
7
  6
CONTINUOUS
 10
158.7516175743
 20
114.7271012931
 40
2.6
 50
291.740442521
 51
283.7359428024
  0
ARC
  8
2_FEATURE
 62
7
  6
CONTINUOUS
 10
162.6516175743
 20
118.3159729821
 40
0.5
 50
222.6209909617
 51
360.0
  0
ARC
  8
2_FEATURE
 62
2
  6
CONTINUOUS
 10
158.7516175743
 20
138.7071012931
 40
6.0
 50
222.8334280661
 51
270.0
  0
ARC
  8
0
 62
7
  6
CONTINUOUS
 10
158.7516175743
 20
140.1271012931
 40
4.4
 50
0.0
 51
180.0
  0
ARC
  8
2_FEATURE
 62
7
  6
CONTINUOUS
 10
158.7516175743
 20
140.1271012931
 40
4.4
 50
0.0
 51
4.1979445925
  0
ARC
  8
2_FEATURE
 62
7
  6
CONTINUOUS
 10
158.7516175743
 20
140.1271012931
 40
4.4
 50
136.656425561
 51
180.0
  0
ARC
  8
2_FEATURE
 62
7
  6
CONTINUOUS
 10
158.7516175743
 20
140.1271012931
 40
4.4
 50
132.8347598102
 51
132.8626446167
  0
ARC
  8
2_FEATURE
 62
7
  6
CONTINUOUS
 10
158.7516175743
 20
140.1271012931
 40
4.4
 50
129.454256074
 51
132.1284295333
  0
ARC
  8
0
 62
7
  6
CONTINUOUS
 10
158.7516175743
 20
140.1271012931
 40
2.6
 50
76.2640571976
 51
68.2595574791
  0
ENDSEC
  0
EOF
