  0
SECTION
  2
HEADER
  9
$EXTMAX
 10
210.0
 20
297.0
 30
0.0
  9
$EXTMIN
 10
0.0
 20
0.0
 30
0.0
  9
$LIMMIN
 10
0.0
 20
0.0
  9
$LIMMAX
 10
210.0
 20
297.0
  9
$VIEWCTR
 10
105.0
 20
148.5
  9
$VIEWSIZE
 40
297.0
  9
$CLAYER
  8
0
  9
$LTSCALE
 40
19.36
  9
$CELTYPE
  6
BYLAYER
  9
$DIMSCALE
 40
1.0
  9
$DIMASZ
 40
3.5
  9
$DIMEXO
 40
2.2
  9
$DIMDLI
 40
13.376
  9
$DIMEXE
 40
6.336
  9
$DIMCEN
 40
3.168
  9
$DIMLFAC
 40
1.0
  9
$DIMBLK
  1
_FILLED
  9
$DIMTXT
 40
3.5
  9
$PDMODE
 70
3
  9
$PDSIZE
 40
0.3125
  9
$TILEMODE
 70
1
  0
ENDSEC
  0
SECTION
  2
TABLES
  0
TABLE
  2
LTYPE
 70
6
  0
LTYPE
  2
BYBLOCK
 70
0
  3

 72
65
 73
0
 40
0.0
  0
LTYPE
  2
BYLAYER
 70
0
  3

 72
65
 73
0
 40
0.0
  0
LTYPE
  2
CONTINUOUS
 70
64
  3
Solid line
 72
65
 73
0
 40
0.0
  0
LTYPE
  2
CENTER
 70
64
  3
____ _ ____ _ ____ _ ____ _ ____ _ ____ _ ____
 72
65
 73
4
 40
0.6
 49
0.375
 49
-0.075
 49
0.075
 49
-0.075
  0
LTYPE
  2
HIDDEN
 70
64
  3
- - - - - - - - - - - - - - - - - - - -
 72
65
 73
2
 40
0.2
 49
0.1
 49
-0.1
  0
LTYPE
  2
PHANTOM
 70
64
  3
_____ _ _ _____ _ _ _____ _ _ _____
 72
65
 73
6
 40
0.8
 49
0.45
 49
-0.05
 49
0.1
 49
-0.05
 49
0.1
 49
-0.05
  0
LTYPE
  2
DOT
 70
64
  3
. . . . . . . . . . . . . . . . . . . .
 72
65
 73
2
 40
0.2
 49
0.1
 49
-0.1
  0
LTYPE
  2
DASHED
 70
64
  3
- - - - - - - - - - - - - - - - - - - -
 72
65
 73
2
 40
0.2
 49
0.1
 49
-0.1
  0
ENDTAB
  0
TABLE
  2
LAYER
 70
36
  0
LAYER
  2
0
 70
0
 62
7
  6
CONTINUOUS
  0
LAYER
  2
DEFAULT_1
 70
0
 62
7
  6
CENTER
  0
LAYER
  2
DEFAULT_2
 70
0
 62
8
  6
HIDDEN
  0
LAYER
  2
DEFAULT_3
 70
0
 62
7
  6
PHANTOM
  0
LAYER
  2
1_AXIS
 70
0
 62
7
  6
CONTINUOUS
  0
LAYER
  2
1_CSYS
 70
0
 62
7
  6
CONTINUOUS
  0
LAYER
  2
1_DATUM_PLANES
 70
0
 62
7
  6
CONTINUOUS
  0
LAYER
  2
2_FEATURE
 70
0
 62
7
  6
CONTINUOUS
  0
LAYER
  2
4_QUILT
 70
0
 62
7
  6
CONTINUOUS
  0
LAYER
  2
4_SURFACE
 70
0
 62
7
  6
CONTINUOUS
  0
LAYER
  2
6_DIM
 70
0
 62
7
  6
CONTINUOUS
  0
LAYER
  2
CSYS
 70
0
 62
7
  6
CONTINUOUS
  0
LAYER
  2
CURVE
 70
0
 62
7
  6
CONTINUOUS
  0
ENDTAB
  0
TABLE
  2
STYLE
 70
1
  0
STYLE
  2
STANDARD
 70
0
 40
0.0
 41
0.8
 50
0.0
 71
0
 42
0.2
  3
txt
  4

  0
STYLE
  2
TEXTSTYLE_1
 70
0
 40
0.0
 41
0.8
 50
0.0
 71
0
 42
0.2
  3
gdt
  4

  0
STYLE
  2
TEXTSTYLE_2
 70
0
 40
0.0
 41
0.6
 50
0.0
 71
0
 42
0.2
  3
txt
  4

  0
STYLE
  2
TEXTSTYLE_3
 70
0
 40
0.0
 41
1.0
 50
0.0
 71
0
 42
0.2
  3
ftb_____.ttf
  4

  0
STYLE
  2
TEXTSTYLE_4
 70
0
 40
0.0
 41
1.0
 50
0.0
 71
0
 42
0.2
  3
fti_____.ttf
  4

  0
STYLE
  2
TEXTSTYLE_5
 70
0
 40
0.0
 41
1.0
 50
0.0
 71
0
 42
0.2
  3
frutiger light.ttf
  4

  0
STYLE
  2
TEXTSTYLE_6
 70
0
 40
0.0
 41
0.7
 50
0.0
 71
0
 42
0.2
  3
txt
  4

  0
STYLE
  2
TEXTSTYLE_7
 70
0
 40
0.0
 41
0.7
 50
0.0
 71
0
 42
0.2
  3
txt
  4

  0
ENDTAB
  0
ENDSEC
  0
SECTION
  2
BLOCKS
  0
BLOCK
  8
0
 62
2
  6
CONTINUOUS
  2
SYMBOL_8_BL1
 70
64
 10
173.5956734183
 20
35.5937998301
  0
TEXT
  8
0
 62
7
  6
CONTINUOUS
 10
164.6539584268
 20
30.6865562072
  7
TEXTSTYLE_4
 40
1.0655737705
  1
The brand for plastic modular belts and chains
 41
1.0
 72
0
  0
LINE
  8
0
 62
7
  6
CONTINUOUS
 10
149.5737418074
 20
36.1675703219
 11
149.5737418074
 21
34.0364227809
  0
LINE
  8
0
 62
7
  6
CONTINUOUS
 10
149.8628043005
 20
31.0454914852
 11
149.8628043005
 21
31.1422825445
  0
LINE
  8
0
 62
7
  6
CONTINUOUS
 10
149.5737418074
 20
31.1100188581
 11
149.6315543091
 21
30.9164367395
  0
LINE
  8
0
 62
7
  6
CONTINUOUS
 10
150.9671844304
 20
33.9544555678
 11
150.9671844304
 21
36.1675703219
  0
LINE
  8
0
 62
7
  6
CONTINUOUS
 10
151.8862417523
 20
32.1101932727
 11
151.8862417523
 21
30.5937998301
  0
LINE
  8
0
 62
7
  6
CONTINUOUS
 10
152.1753043074
 20
30.5937998301
 11
152.1753043074
 21
31.3358647082
  0
LINE
  8
0
 62
7
  6
CONTINUOUS
 10
152.1753043074
 20
31.4649194539
 11
152.1753043074
 21
32.1101932727
  0
LINE
  8
0
 62
7
  6
CONTINUOUS
 10
149.6315543091
 20
31.3036010218
 11
149.5737418074
 21
31.1100188581
  0
LINE
  8
0
 62
7
  6
CONTINUOUS
 10
149.9784292936
 20
30.8841730531
 11
149.8628043005
 21
31.0454914852
  0
LINE
  8
0
 62
7
  6
CONTINUOUS
 10
151.0768668626
 20
31.400392081
 11
151.1346793074
 21
31.3036010218
  0
LINE
  8
0
 62
7
  6
CONTINUOUS
 10
151.4237418626
 20
31.3036010218
 11
151.3659292523
 21
31.4326557675
  0
LINE
  8
0
 62
7
  6
CONTINUOUS
 10
152.852430332
 20
36.1675703219
 11
152.852430332
 21
34.3642916334
  0
LINE
  8
0
 62
7
  6
CONTINUOUS
 10
152.852430332
 20
33.0528162235
 11
152.852430332
 21
32.3970785186
  0
LINE
  8
0
 62
7
  6
CONTINUOUS
 10
153.2159293074
 20
31.2390736489
 11
153.2159293074
 21
30.5937998301
  0
LINE
  8
0
 62
7
  6
CONTINUOUS
 10
153.5049916972
 20
30.5937998301
 11
153.5049916972
 21
31.2390736489
  0
LINE
  8
0
 62
7
  6
CONTINUOUS
 10
149.8628043005
 20
31.1422825445
 11
149.9206168074
 21
31.2713373354
  0
LINE
  8
0
 62
7
  6
CONTINUOUS
 10
149.6315543091
 20
30.9164367395
 11
149.7471793074
 21
30.7873819712
  0
LINE
  8
0
 62
7
  6
CONTINUOUS
 10
153.1581166972
 20
31.3681283946
 11
153.2159293074
 21
31.2390736489
  0
LINE
  8
0
 62
7
  6
CONTINUOUS
 10
153.9674919177
 20
30.8841730531
 11
154.0253041972
 21
30.7551182848
  0
LINE
  8
0
 62
7
  6
CONTINUOUS
 10
153.5049916972
 20
31.2390736489
 11
153.4471794177
 21
31.400392081
  0
LINE
  8
0
 62
7
  6
CONTINUOUS
 10
153.9674919177
 20
31.4326557675
 11
153.9674919177
 21
31.3681283946
  0
LINE
  8
0
 62
7
  6
CONTINUOUS
 10
153.9674919177
 20
30.9809641124
 11
153.9674919177
 21
30.8841730531
  0
LINE
  8
0
 62
7
  6
CONTINUOUS
 10
154.245872955
 20
32.3970785186
 11
154.245872955
 21
36.1675703219
  0
LINE
  8
0
 62
7
  6
CONTINUOUS
 10
154.2565543074
 20
30.8519093441
 11
154.2565543074
 21
30.9164367395
  0
LINE
  8
0
 62
7
  6
CONTINUOUS
 10
154.5737418074
 20
36.1675703219
 11
154.5737418074
 21
32.3970785186
  0
LINE
  8
0
 62
7
  6
CONTINUOUS
 10
151.3659292523
 20
30.7873819712
 11
151.4237418626
 21
30.9164367395
  0
LINE
  8
0
 62
7
  6
CONTINUOUS
 10
155.759679528
 20
30.6905909007
 11
155.7018665869
 21
30.8519093441
  0
LINE
  8
0
 62
7
  6
CONTINUOUS
 10
155.412804528
 20
31.3681283946
 11
155.412804528
 21
31.2713373354
  0
LINE
  8
0
 62
7
  6
CONTINUOUS
 10
155.412804528
 20
31.1422825445
 11
155.412804528
 21
30.9487004259
  0
LINE
  8
0
 62
7
  6
CONTINUOUS
 10
155.7018665869
 20
30.8519093441
 11
155.7018665869
 21
31.3681283946
  0
LINE
  8
0
 62
7
  6
CONTINUOUS
 10
155.9671844304
 20
32.3970785186
 11
155.9671844304
 21
34.2003572071
  0
LINE
  8
0
 62
7
  6
CONTINUOUS
 10
155.9671844304
 20
35.511832617
 11
155.9671844304
 21
36.1675703219
  0
LINE
  8
0
 62
7
  6
CONTINUOUS
 10
156.279992028
 20
32.1101932727
 11
156.279992028
 21
31.9488748406
  0
LINE
  8
0
 62
7
  6
CONTINUOUS
 10
156.279992028
 20
31.626237886
 11
156.279992028
 21
30.5937998301
  0
LINE
  8
0
 62
7
  6
CONTINUOUS
 10
156.5690540869
 20
30.5937998301
 11
156.5690540869
 21
31.626237886
  0
LINE
  8
0
 62
7
  6
CONTINUOUS
 10
156.5690540869
 20
31.9488748406
 11
156.5690540869
 21
32.1101932727
  0
LINE
  8
0
 62
7
  6
CONTINUOUS
 10
151.1346793074
 20
30.9164367395
 11
151.0768668626
 21
30.8196456577
  0
LINE
  8
0
 62
7
  6
CONTINUOUS
 10
153.4471794177
 20
31.400392081
 11
153.3893668074
 21
31.4649194539
  0
LINE
  8
0
 62
7
  6
CONTINUOUS
 10
154.3143669177
 20
30.7873819712
 11
154.2565543074
 21
30.8519093441
  0
LINE
  8
0
 62
7
  6
CONTINUOUS
 10
155.4706168074
 20
30.6583272086
 11
155.5284290869
 21
30.5937998301
  0
LINE
  8
0
 62
7
  6
CONTINUOUS
 10
155.412804528
 20
30.7551182848
 11
155.4706168074
 21
30.6583272086
  0
LINE
  8
0
 62
7
  6
CONTINUOUS
 10
155.8174918074
 20
30.5937998301
 11
155.759679528
 21
30.6905909007
  0
LINE
  8
0
 62
7
  6
CONTINUOUS
 10
155.7018665869
 20
31.3681283946
 11
155.6440543074
 21
31.4649194539
  0
LINE
  8
0
 62
7
  6
CONTINUOUS
 10
157.0315543074
 20
31.626237886
 11
157.0315543074
 21
30.5937998301
  0
LINE
  8
0
 62
7
  6
CONTINUOUS
 10
157.320617028
 20
30.5937998301
 11
157.320617028
 21
31.3358647082
  0
LINE
  8
0
 62
7
  6
CONTINUOUS
 10
157.320617028
 20
31.4649194539
 11
157.320617028
 21
31.626237886
  0
LINE
  8
0
 62
7
  6
CONTINUOUS
 10
157.852430332
 20
34.6101932727
 11
157.852430332
 21
32.3970785186
  0
LINE
  8
0
 62
7
  6
CONTINUOUS
 10
149.7471793074
 20
31.4326557675
 11
149.6315543091
 21
31.3036010218
  0
LINE
  8
0
 62
7
  6
CONTINUOUS
 10
149.9206168074
 20
31.2713373354
 11
149.9784292936
 21
31.3358647082
  0
LINE
  8
0
 62
7
  6
CONTINUOUS
 10
149.7471793074
 20
30.7873819712
 11
149.8628043005
 21
30.7228545871
  0
LINE
  8
0
 62
7
  6
CONTINUOUS
 10
150.1518667936
 20
30.7873819712
 11
149.9784292936
 21
30.8841730531
  0
LINE
  8
0
 62
7
  6
CONTINUOUS
 10
155.3549915869
 20
31.4326557675
 11
155.412804528
 21
31.3681283946
  0
LINE
  8
0
 62
7
  6
CONTINUOUS
 10
158.3034290869
 20
31.3681283946
 11
158.361242028
 21
31.2068099625
  0
LINE
  8
0
 62
7
  6
CONTINUOUS
 10
158.6503040869
 20
31.2068099625
 11
158.5924918074
 21
31.3681283946
  0
LINE
  8
0
 62
7
  6
CONTINUOUS
 10
158.361242028
 20
31.2068099625
 11
158.361242028
 21
30.5937998301
  0
LINE
  8
0
 62
7
  6
CONTINUOUS
 10
158.6503040869
 20
30.5937998301
 11
158.6503040869
 21
31.2068099625
  0
LINE
  8
0
 62
7
  6
CONTINUOUS
 10
159.1128043074
 20
31.4326557675
 11
159.1128043074
 21
31.3681283946
  0
LINE
  8
0
 62
7
  6
CONTINUOUS
 10
159.245872955
 20
32.3970785186
 11
159.245872955
 21
34.5282260596
  0
LINE
  8
0
 62
7
  6
CONTINUOUS
 10
159.5737418074
 20
36.1675703219
 11
159.5737418074
 21
32.3970785186
  0
LINE
  8
0
 62
7
  6
CONTINUOUS
 10
154.2565543074
 20
30.9164367395
 11
154.3143669177
 21
31.0132277988
  0
LINE
  8
0
 62
7
  6
CONTINUOUS
 10
149.8628043005
 20
30.7228545871
 11
150.0362418212
 21
30.6583272086
  0
LINE
  8
0
 62
7
  6
CONTINUOUS
 10
151.3659292523
 20
31.4326557675
 11
151.1924917523
 21
31.5294468267
  0
LINE
  8
0
 62
7
  6
CONTINUOUS
 10
154.0253041972
 20
30.7551182848
 11
154.1987416972
 21
30.6583272086
  0
LINE
  8
0
 62
7
  6
CONTINUOUS
 10
153.0424918074
 20
31.4326557675
 11
153.1581166972
 21
31.3681283946
  0
LINE
  8
0
 62
7
  6
CONTINUOUS
 10
153.3893668074
 20
31.4649194539
 11
153.2737419177
 21
31.5294468267
  0
LINE
  8
0
 62
7
  6
CONTINUOUS
 10
159.1128043074
 20
30.8519093441
 11
159.228429528
 21
30.7228545871
  0
LINE
  8
0
 62
7
  6
CONTINUOUS
 10
159.4596793074
 20
30.7873819712
 11
159.401867028
 21
30.8519093441
  0
LINE
  8
0
 62
7
  6
CONTINUOUS
 10
159.1128043074
 20
31.3681283946
 11
159.228429528
 21
31.2390736489
  0
LINE
  8
0
 62
7
  6
CONTINUOUS
 10
158.5924918074
 20
31.3681283946
 11
158.534679528
 21
31.4649194539
  0
LINE
  8
0
 62
7
  6
CONTINUOUS
 10
160.9628038663
 20
30.7873819712
 11
160.9628038663
 21
30.8519093441
  0
LINE
  8
0
 62
7
  6
CONTINUOUS
 10
160.9671844304
 20
32.3970785186
 11
160.9671844304
 21
36.1675703219
  0
LINE
  8
0
 62
7
  6
CONTINUOUS
 10
154.0253041972
 20
31.4971831403
 11
153.9674919177
 21
31.4326557675
  0
LINE
  8
0
 62
7
  6
CONTINUOUS
 10
150.9034292799
 20
31.4649194539
 11
151.0768668626
 21
31.400392081
  0
LINE
  8
0
 62
7
  6
CONTINUOUS
 10
155.6440543074
 20
31.4649194539
 11
155.5284290869
 21
31.5294468267
  0
LINE
  8
0
 62
7
  6
CONTINUOUS
 10
159.4596793074
 20
31.3036010218
 11
159.401867028
 21
31.3681283946
  0
LINE
  8
0
 62
7
  6
CONTINUOUS
 10
160.615929528
 20
30.9164367395
 11
160.6737418074
 21
30.8519093441
  0
LINE
  8
0
 62
7
  6
CONTINUOUS
 10
160.9628038663
 20
30.8519093441
 11
160.8471793074
 21
30.9809641124
  0
LINE
  8
0
 62
7
  6
CONTINUOUS
 10
160.615929528
 20
31.4326557675
 11
160.6737418074
 21
31.3681283946
  0
LINE
  8
0
 62
7
  6
CONTINUOUS
 10
160.9628038663
 20
31.3681283946
 11
160.8471793074
 21
31.4971831403
  0
LINE
  8
0
 62
7
  6
CONTINUOUS
 10
154.2565543074
 20
31.3681283946
 11
154.3143669177
 21
31.4326557675
  0
LINE
  8
0
 62
7
  6
CONTINUOUS
 10
154.0831168074
 20
31.1100188581
 11
153.9674919177
 21
30.9809641124
  0
LINE
  8
0
 62
7
  6
CONTINUOUS
 10
155.412804528
 20
30.9487004259
 11
155.3549915869
 21
30.8841730531
  0
LINE
  8
0
 62
7
  6
CONTINUOUS
 10
155.3549915869
 20
30.6905909007
 11
155.412804528
 21
30.7551182848
  0
LINE
  8
0
 62
7
  6
CONTINUOUS
 10
154.1987416972
 20
30.6583272086
 11
154.3143669177
 21
30.6260635193
  0
LINE
  8
0
 62
7
  6
CONTINUOUS
 10
151.1924917523
 20
31.5294468267
 11
150.9612418074
 21
31.5939741996
  0
LINE
  8
0
 62
7
  6
CONTINUOUS
 10
154.5456166972
 20
30.7228545871
 11
154.3143669177
 21
30.7873819712
  0
LINE
  8
0
 62
7
  6
CONTINUOUS
 10
153.2737419177
 20
31.5294468267
 11
153.1003044177
 21
31.5939741996
  0
LINE
  8
0
 62
7
  6
CONTINUOUS
 10
155.5284290869
 20
31.5294468267
 11
155.3549915869
 21
31.5939741996
  0
LINE
  8
0
 62
7
  6
CONTINUOUS
 10
158.187804528
 20
31.4326557675
 11
158.3034290869
 21
31.3681283946
  0
LINE
  8
0
 62
7
  6
CONTINUOUS
 10
158.534679528
 20
31.4649194539
 11
158.4190543074
 21
31.5294468267
  0
LINE
  8
0
 62
7
  6
CONTINUOUS
 10
150.0362418212
 20
30.6583272086
 11
150.2096793212
 21
30.6260635193
  0
LINE
  8
0
 62
7
  6
CONTINUOUS
 10
150.498741835
 20
30.7228545871
 11
150.1518667936
 21
30.7873819712
  0
LINE
  8
0
 62
7
  6
CONTINUOUS
 10
152.9268669177
 20
31.4649194539
 11
153.0424918074
 21
31.4326557675
  0
LINE
  8
0
 62
7
  6
CONTINUOUS
 10
155.239367028
 20
31.4649194539
 11
155.3549915869
 21
31.4326557675
  0
LINE
  8
0
 62
7
  6
CONTINUOUS
 10
159.575304528
 20
30.7551182848
 11
159.4596793074
 21
30.7873819712
  0
LINE
  8
0
 62
7
  6
CONTINUOUS
 10
158.0721793074
 20
31.4649194539
 11
158.187804528
 21
31.4326557675
  0
LINE
  8
0
 62
7
  6
CONTINUOUS
 10
159.228429528
 20
30.7228545871
 11
159.401867028
 21
30.6583272086
  0
LINE
  8
0
 62
7
  6
CONTINUOUS
 10
158.4190543074
 20
31.5294468267
 11
158.2456168074
 21
31.5939741996
  0
LINE
  8
0
 62
7
  6
CONTINUOUS
 10
159.6331168074
 20
31.2390736489
 11
159.4596793074
 21
31.3036010218
  0
LINE
  8
0
 62
7
  6
CONTINUOUS
 10
160.442492028
 20
30.9809641124
 11
160.615929528
 21
30.9164367395
  0
LINE
  8
0
 62
7
  6
CONTINUOUS
 10
160.8471793074
 20
31.4971831403
 11
160.6737418074
 21
31.5617105132
  0
LINE
  8
0
 62
7
  6
CONTINUOUS
 10
159.228429528
 20
31.2390736489
 11
159.4596793074
 21
31.1422825445
  0
LINE
  8
0
 62
7
  6
CONTINUOUS
 10
160.8471793074
 20
30.9809641124
 11
160.615929528
 21
31.0777551716
  0
LINE
  8
0
 62
7
  6
CONTINUOUS
 10
159.401867028
 20
31.3681283946
 11
159.4596793074
 21
31.4326557675
  0
LINE
  8
0
 62
7
  6
CONTINUOUS
 10
149.8628043005
 20
31.4971831403
 11
149.7471793074
 21
31.4326557675
  0
LINE
  8
0
 62
7
  6
CONTINUOUS
 10
149.9784292936
 20
31.3358647082
 11
150.1518667936
 21
31.4326557675
  0
LINE
  8
0
 62
7
  6
CONTINUOUS
 10
152.2909293626
 20
31.5294468267
 11
152.1753043074
 21
31.4649194539
  0
LINE
  8
0
 62
7
  6
CONTINUOUS
 10
152.1753043074
 20
31.3358647082
 11
152.2909293626
 21
31.400392081
  0
LINE
  8
0
 62
7
  6
CONTINUOUS
 10
151.1924917523
 20
30.6905909007
 11
151.3659292523
 21
30.7873819712
  0
LINE
  8
0
 62
7
  6
CONTINUOUS
 10
150.2096793212
 20
30.6260635193
 11
150.5565542799
 21
30.5937998301
  0
LINE
  8
0
 62
7
  6
CONTINUOUS
 10
154.3143669177
 20
30.6260635193
 11
154.5456166972
 21
30.5937998301
  0
LINE
  8
0
 62
7
  6
CONTINUOUS
 10
152.6956168074
 20
31.4971831403
 11
152.9268669177
 21
31.4649194539
  0
LINE
  8
0
 62
7
  6
CONTINUOUS
 10
155.0081169177
 20
31.4971831403
 11
155.239367028
 21
31.4649194539
  0
LINE
  8
0
 62
7
  6
CONTINUOUS
 10
159.4596793074
 20
31.1422825445
 11
160.442492028
 21
30.9809641124
  0
LINE
  8
0
 62
7
  6
CONTINUOUS
 10
160.615929528
 20
31.0777551716
 11
159.6331168074
 21
31.2390736489
  0
LINE
  8
0
 62
7
  6
CONTINUOUS
 10
153.1003044177
 20
31.5939741996
 11
152.9268669177
 21
31.626237886
  0
LINE
  8
0
 62
7
  6
CONTINUOUS
 10
159.401867028
 20
30.6583272086
 11
159.575304528
 21
30.6260635193
  0
LINE
  8
0
 62
7
  6
CONTINUOUS
 10
158.2456168074
 20
31.5939741996
 11
158.0721793074
 21
31.626237886
  0
LINE
  8
0
 62
7
  6
CONTINUOUS
 10
160.5003043074
 20
31.4649194539
 11
160.615929528
 21
31.4326557675
  0
LINE
  8
0
 62
7
  6
CONTINUOUS
 10
160.6737418074
 20
30.8519093441
 11
160.615929528
 21
30.7873819712
  0
LINE
  8
0
 62
7
  6
CONTINUOUS
 10
159.228429528
 20
31.5294468267
 11
159.1128043074
 21
31.4326557675
  0
LINE
  8
0
 62
7
  6
CONTINUOUS
 10
154.1409294177
 20
31.5617105132
 11
154.0253041972
 21
31.4971831403
  0
LINE
  8
0
 62
7
  6
CONTINUOUS
 10
154.1987416972
 20
31.1745462761
 11
154.0831168074
 21
31.1100188581
  0
LINE
  8
0
 62
7
  6
CONTINUOUS
 10
154.3143669177
 20
31.0132277988
 11
154.4299918074
 21
31.0777551716
  0
LINE
  8
0
 62
7
  6
CONTINUOUS
 10
151.8862417523
 20
30.5937998301
 11
152.1753043074
 21
30.5937998301
  0
LINE
  8
0
 62
7
  6
CONTINUOUS
 10
153.2159293074
 20
30.5937998301
 11
153.5049916972
 21
30.5937998301
  0
LINE
  8
0
 62
7
  6
CONTINUOUS
 10
154.5456166972
 20
30.5937998301
 11
154.8924916972
 21
30.5937998301
  0
LINE
  8
0
 62
7
  6
CONTINUOUS
 10
155.5284290869
 20
30.5937998301
 11
155.8174918074
 21
30.5937998301
  0
LINE
  8
0
 62
7
  6
CONTINUOUS
 10
156.279992028
 20
30.5937998301
 11
156.5690540869
 21
30.5937998301
  0
LINE
  8
0
 62
7
  6
CONTINUOUS
 10
157.0315543074
 20
30.5937998301
 11
157.320617028
 21
30.5937998301
  0
LINE
  8
0
 62
7
  6
CONTINUOUS
 10
158.361242028
 20
30.5937998301
 11
158.6503040869
 21
30.5937998301
  0
LINE
  8
0
 62
7
  6
CONTINUOUS
 10
159.922179528
 20
30.5937998301
 11
160.269054528
 21
30.5937998301
  0
LINE
  8
0
 62
7
  6
CONTINUOUS
 10
160.269054528
 20
30.7228545871
 11
159.922179528
 21
30.7228545871
  0
LINE
  8
0
 62
7
  6
CONTINUOUS
 10
154.8924916972
 20
30.7228545871
 11
154.5456166972
 21
30.7228545871
  0
LINE
  8
0
 62
7
  6
CONTINUOUS
 10
159.401867028
 20
30.8519093441
 11
159.1128043074
 21
30.8519093441
  0
LINE
  8
0
 62
7
  6
CONTINUOUS
 10
151.4237418626
 20
30.9164367395
 11
151.1346793074
 21
30.9164367395
  0
LINE
  8
0
 62
7
  6
CONTINUOUS
 10
150.498741835
 20
31.4971831403
 11
150.9034292799
 21
31.4649194539
  0
LINE
  8
0
 62
7
  6
CONTINUOUS
 10
150.9612418074
 20
31.5939741996
 11
150.5565542799
 21
31.626237886
  0
LINE
  8
0
 62
7
  6
CONTINUOUS
 10
159.575304528
 20
30.6260635193
 11
159.922179528
 21
30.5937998301
  0
LINE
  8
0
 62
7
  6
CONTINUOUS
 10
159.922179528
 20
30.7228545871
 11
159.575304528
 21
30.7551182848
  0
LINE
  8
0
 62
7
  6
CONTINUOUS
 10
155.3549915869
 20
31.5939741996
 11
155.0081169177
 21
31.626237886
  0
LINE
  8
0
 62
7
  6
CONTINUOUS
 10
160.1534293074
 20
31.4971831403
 11
160.5003043074
 21
31.4649194539
  0
LINE
  8
0
 62
7
  6
CONTINUOUS
 10
160.5003043074
 20
31.5939741996
 11
160.1534293074
 21
31.626237886
  0
LINE
  8
0
 62
7
  6
CONTINUOUS
 10
157.840929528
 20
31.4971831403
 11
158.0721793074
 21
31.4649194539
  0
LINE
  8
0
 62
7
  6
CONTINUOUS
 10
160.6737418074
 20
31.5617105132
 11
160.5003043074
 21
31.5939741996
  0
LINE
  8
0
 62
7
  6
CONTINUOUS
 10
160.8471793074
 20
30.6905909007
 11
160.9628038663
 21
30.7873819712
  0
LINE
  8
0
 62
7
  6
CONTINUOUS
 10
155.3549915869
 20
30.8841730531
 11
155.1815540869
 21
30.7873819712
  0
LINE
  8
0
 62
7
  6
CONTINUOUS
 10
157.4362415869
 20
31.5294468267
 11
157.320617028
 21
31.4649194539
  0
LINE
  8
0
 62
7
  6
CONTINUOUS
 10
157.320617028
 20
31.3358647082
 11
157.4362415869
 21
31.400392081
  0
LINE
  8
0
 62
7
  6
CONTINUOUS
 10
150.0362418212
 20
31.5617105132
 11
149.8628043005
 21
31.4971831403
  0
LINE
  8
0
 62
7
  6
CONTINUOUS
 10
152.4643666972
 20
31.5939741996
 11
152.2909293626
 21
31.5294468267
  0
LINE
  8
0
 62
7
  6
CONTINUOUS
 10
152.2909293626
 20
31.400392081
 11
152.4643666972
 21
31.4649194539
  0
LINE
  8
0
 62
7
  6
CONTINUOUS
 10
151.0768668626
 20
30.8196456577
 11
150.9034292799
 21
30.7551182848
  0
LINE
  8
0
 62
7
  6
CONTINUOUS
 10
160.5003043074
 20
30.7551182848
 11
160.269054528
 21
30.7228545871
  0
LINE
  8
0
 62
7
  6
CONTINUOUS
 10
154.8924916972
 20
30.5937998301
 11
155.1815540869
 21
30.6260635193
  0
LINE
  8
0
 62
7
  6
CONTINUOUS
 10
160.269054528
 20
30.5937998301
 11
160.615929528
 21
30.6260635193
  0
LINE
  8
0
 62
7
  6
CONTINUOUS
 10
150.5565542799
 20
30.5937998301
 11
150.9612418074
 21
30.6260635193
  0
LINE
  8
0
 62
7
  6
CONTINUOUS
 10
150.9034292799
 20
30.7551182848
 11
150.498741835
 21
30.7228545871
  0
LINE
  8
0
 62
7
  6
CONTINUOUS
 10
154.7768668074
 20
31.1422825445
 11
155.412804528
 21
31.1422825445
  0
LINE
  8
0
 62
7
  6
CONTINUOUS
 10
155.412804528
 20
31.2713373354
 11
154.7768668074
 21
31.2713373354
  0
LINE
  8
0
 62
7
  6
CONTINUOUS
 10
151.1346793074
 20
31.3036010218
 11
151.4237418626
 21
31.3036010218
  0
LINE
  8
0
 62
7
  6
CONTINUOUS
 10
153.9674919177
 20
31.3681283946
 11
154.2565543074
 21
31.3681283946
  0
LINE
  8
0
 62
7
  6
CONTINUOUS
 10
160.6737418074
 20
31.3681283946
 11
160.9628038663
 21
31.3681283946
  0
LINE
  8
0
 62
7
  6
CONTINUOUS
 10
154.6612419177
 20
31.4971831403
 11
155.0081169177
 21
31.4971831403
  0
LINE
  8
0
 62
7
  6
CONTINUOUS
 10
159.8065543074
 20
31.4971831403
 11
160.1534293074
 21
31.4971831403
  0
LINE
  8
0
 62
7
  6
CONTINUOUS
 10
160.1534293074
 20
31.626237886
 11
159.8065543074
 21
31.626237886
  0
LINE
  8
0
 62
7
  6
CONTINUOUS
 10
158.0721793074
 20
31.626237886
 11
157.840929528
 21
31.626237886
  0
LINE
  8
0
 62
7
  6
CONTINUOUS
 10
157.320617028
 20
31.626237886
 11
157.0315543074
 21
31.626237886
  0
LINE
  8
0
 62
7
  6
CONTINUOUS
 10
156.5690540869
 20
31.626237886
 11
156.279992028
 21
31.626237886
  0
LINE
  8
0
 62
7
  6
CONTINUOUS
 10
155.0081169177
 20
31.626237886
 11
154.6612419177
 21
31.626237886
  0
LINE
  8
0
 62
7
  6
CONTINUOUS
 10
152.9268669177
 20
31.626237886
 11
152.6956168074
 21
31.626237886
  0
LINE
  8
0
 62
7
  6
CONTINUOUS
 10
156.279992028
 20
31.9488748406
 11
156.5690540869
 21
31.9488748406
  0
LINE
  8
0
 62
7
  6
CONTINUOUS
 10
156.5690540869
 20
32.1101932727
 11
156.279992028
 21
32.1101932727
  0
LINE
  8
0
 62
7
  6
CONTINUOUS
 10
152.1753043074
 20
32.1101932727
 11
151.8862417523
 21
32.1101932727
  0
LINE
  8
0
 62
7
  6
CONTINUOUS
 10
151.2130860697
 20
32.3970785186
 11
151.6256574183
 21
32.3970785186
  0
LINE
  8
0
 62
7
  6
CONTINUOUS
 10
152.852430332
 20
32.3970785186
 11
154.245872955
 21
32.3970785186
  0
LINE
  8
0
 62
7
  6
CONTINUOUS
 10
154.5737418074
 20
32.3970785186
 11
155.9671844304
 21
32.3970785186
  0
LINE
  8
0
 62
7
  6
CONTINUOUS
 10
157.852430332
 20
32.3970785186
 11
159.245872955
 21
32.3970785186
  0
LINE
  8
0
 62
7
  6
CONTINUOUS
 10
159.5737418074
 20
32.3970785186
 11
160.9671844304
 21
32.3970785186
  0
LINE
  8
0
 62
7
  6
CONTINUOUS
 10
157.6096790869
 20
31.5939741996
 11
157.4362415869
 21
31.5294468267
  0
LINE
  8
0
 62
7
  6
CONTINUOUS
 10
155.1815540869
 20
30.6260635193
 11
155.3549915869
 21
30.6905909007
  0
LINE
  8
0
 62
7
  6
CONTINUOUS
 10
160.615929528
 20
30.6260635193
 11
160.8471793074
 21
30.6905909007
  0
LINE
  8
0
 62
7
  6
CONTINUOUS
 10
160.615929528
 20
30.7873819712
 11
160.5003043074
 21
30.7551182848
  0
LINE
  8
0
 62
7
  6
CONTINUOUS
 10
159.575304528
 20
31.4649194539
 11
159.8065543074
 21
31.4971831403
  0
LINE
  8
0
 62
7
  6
CONTINUOUS
 10
157.6096790869
 20
31.4649194539
 11
157.840929528
 21
31.4971831403
  0
LINE
  8
0
 62
7
  6
CONTINUOUS
 10
154.5456166972
 20
31.1100188581
 11
154.7768668074
 21
31.1422825445
  0
LINE
  8
0
 62
7
  6
CONTINUOUS
 10
157.840929528
 20
31.626237886
 11
157.6096790869
 21
31.5939741996
  0
LINE
  8
0
 62
7
  6
CONTINUOUS
 10
154.4299918074
 20
31.4649194539
 11
154.6612419177
 21
31.4971831403
  0
LINE
  8
0
 62
7
  6
CONTINUOUS
 10
159.8065543074
 20
31.626237886
 11
159.4596793074
 21
31.5939741996
  0
LINE
  8
0
 62
7
  6
CONTINUOUS
 10
154.7768668074
 20
31.2713373354
 11
154.4299918074
 21
31.2390736489
  0
LINE
  8
0
 62
7
  6
CONTINUOUS
 10
150.5565542799
 20
31.626237886
 11
150.2096793212
 21
31.5939741996
  0
LINE
  8
0
 62
7
  6
CONTINUOUS
 10
154.6612419177
 20
31.626237886
 11
154.2565543074
 21
31.5939741996
  0
LINE
  8
0
 62
7
  6
CONTINUOUS
 10
152.0327582009
 20
33.5446195022
 11
151.3770204959
 21
33.5446195022
  0
LINE
  8
0
 62
7
  6
CONTINUOUS
 10
157.4362415869
 20
31.400392081
 11
157.6096790869
 21
31.4649194539
  0
LINE
  8
0
 62
7
  6
CONTINUOUS
 10
159.4596793074
 20
31.4326557675
 11
159.575304528
 21
31.4649194539
  0
LINE
  8
0
 62
7
  6
CONTINUOUS
 10
159.4596793074
 20
31.5939741996
 11
159.228429528
 21
31.5294468267
  0
LINE
  8
0
 62
7
  6
CONTINUOUS
 10
155.1815540869
 20
30.7873819712
 11
154.8924916972
 21
30.7228545871
  0
LINE
  8
0
 62
7
  6
CONTINUOUS
 10
152.4643666972
 20
31.4649194539
 11
152.6956168074
 21
31.4971831403
  0
LINE
  8
0
 62
7
  6
CONTINUOUS
 10
152.6956168074
 20
31.626237886
 11
152.4643666972
 21
31.5939741996
  0
LINE
  8
0
 62
7
  6
CONTINUOUS
 10
150.2674918074
 20
31.4649194539
 11
150.498741835
 21
31.4971831403
  0
LINE
  8
0
 62
7
  6
CONTINUOUS
 10
156.7868565615
 20
35.0200293383
 11
157.4425942664
 21
35.0200293383
  0
LINE
  8
0
 62
7
  6
CONTINUOUS
 10
154.4299918074
 20
31.0777551716
 11
154.5456166972
 21
31.1100188581
  0
LINE
  8
0
 62
7
  6
CONTINUOUS
 10
154.4299918074
 20
31.2390736489
 11
154.1987416972
 21
31.1745462761
  0
LINE
  8
0
 62
7
  6
CONTINUOUS
 10
154.3143669177
 20
31.4326557675
 11
154.4299918074
 21
31.4649194539
  0
LINE
  8
0
 62
7
  6
CONTINUOUS
 10
150.9612418074
 20
30.6260635193
 11
151.1924917523
 21
30.6905909007
  0
LINE
  8
0
 62
7
  6
CONTINUOUS
 10
154.2565543074
 20
31.5939741996
 11
154.1409294177
 21
31.5617105132
  0
LINE
  8
0
 62
7
  6
CONTINUOUS
 10
150.2096793212
 20
31.5939741996
 11
150.0362418212
 21
31.5617105132
  0
LINE
  8
0
 62
7
  6
CONTINUOUS
 10
160.9671844304
 20
36.1675703219
 11
159.5737418074
 21
36.1675703219
  0
LINE
  8
0
 62
7
  6
CONTINUOUS
 10
157.6065286927
 20
36.1675703219
 11
157.1939573441
 21
36.1675703219
  0
LINE
  8
0
 62
7
  6
CONTINUOUS
 10
155.9671844304
 20
36.1675703219
 11
154.5737418074
 21
36.1675703219
  0
LINE
  8
0
 62
7
  6
CONTINUOUS
 10
154.245872955
 20
36.1675703219
 11
152.852430332
 21
36.1675703219
  0
LINE
  8
0
 62
7
  6
CONTINUOUS
 10
150.9671844304
 20
36.1675703219
 11
149.5737418074
 21
36.1675703219
  0
LINE
  8
0
 62
7
  6
CONTINUOUS
 10
150.1518667936
 20
31.4326557675
 11
150.2674918074
 21
31.4649194539
  0
CIRCLE
  8
0
 62
7
  6
CONTINUOUS
 10
160.2704631189
 20
38.5036358957
 40
2.0901639344
  0
ARC
  8
0
 62
7
  6
CONTINUOUS
 10
151.2130860697
 20
34.0364227809
 40
1.6393442623
 50
180.0
 51
270.0
  0
ARC
  8
0
 62
7
  6
CONTINUOUS
 10
157.6065286927
 20
34.5282260596
 40
1.6393442623
 50
0.0
 51
90.0
  0
ARC
  8
0
 62
7
  6
CONTINUOUS
 10
151.6256574183
 20
33.8724883547
 40
1.4754098361
 50
270.0
 51
326.2510114041
  0
ARC
  8
0
 62
7
  6
CONTINUOUS
 10
157.1939573441
 20
34.6921604858
 40
1.4754098361
 50
90.0
 51
146.2510114041
  0
ARC
  8
0
 62
7
  6
CONTINUOUS
 10
152.0327582009
 20
34.3642916334
 40
0.8196721311
 50
270.0
 51
360.0
  0
ARC
  8
0
 62
7
  6
CONTINUOUS
 10
156.7868565615
 20
34.2003572071
 40
0.8196721311
 50
90.0
 51
180.0
  0
ARC
  8
0
 62
7
  6
CONTINUOUS
 10
151.3770204959
 20
33.9544555678
 40
0.4098360656
 50
180.0
 51
270.0
  0
ARC
  8
0
 62
7
  6
CONTINUOUS
 10
157.4425942664
 20
34.6101932727
 40
0.4098360656
 50
0.0
 51
90.0
  0
SOLID
  8
0
 62
7
  6
CONTINUOUS
 10
156.279992028
 20
31.9488752009
 11
156.279992028
 21
32.1101936845
 12
156.5690540869
 22
31.9488752009
 13
156.5690540869
 23
32.1101936845
  0
SOLID
  8
0
 62
7
  6
CONTINUOUS
 10
150.5565542799
 20
31.6262382337
 11
150.9612418074
 21
31.5939740028
 12
150.2096793212
 22
31.5939740028
 13
150.2096793212
 23
31.5939740028
  0
SOLID
  8
0
 62
7
  6
CONTINUOUS
 10
150.0362418212
 20
31.5617111435
 11
150.2096793212
 21
31.5939740028
 12
150.9612418074
 22
31.5939740028
 13
150.9612418074
 23
31.5939740028
  0
SOLID
  8
0
 62
7
  6
CONTINUOUS
 10
150.9612418074
 20
31.5939740028
 11
151.1924917523
 21
31.5294468402
 12
150.0362418212
 22
31.5617111435
 13
150.0362418212
 23
31.5617111435
  0
SOLID
  8
0
 62
7
  6
CONTINUOUS
 10
149.8628043005
 20
31.49718259
 11
150.0362418212
 21
31.5617111435
 12
151.1924917523
 22
31.5294468402
 13
151.1924917523
 23
31.5294468402
  0
SOLID
  8
0
 62
7
  6
CONTINUOUS
 10
149.8628043005
 20
31.49718259
 11
151.1924917523
 21
31.5294468402
 12
150.498741835
 22
31.49718259
 13
150.498741835
 23
31.49718259
  0
SOLID
  8
0
 62
7
  6
CONTINUOUS
 10
150.498741835
 20
31.49718259
 11
151.1924917523
 21
31.5294468402
 12
150.9034292799
 22
31.4649197501
 13
150.9034292799
 23
31.4649197501
  0
SOLID
  8
0
 62
7
  6
CONTINUOUS
 10
151.1924917523
 20
31.5294468402
 11
151.3659292523
 21
31.4326554468
 12
150.9034292799
 22
31.4649197501
 13
150.9034292799
 23
31.4649197501
  0
SOLID
  8
0
 62
7
  6
CONTINUOUS
 10
151.0768668626
 20
31.4003926599
 11
150.9034292799
 21
31.4649197501
 12
151.3659292523
 22
31.4326554468
 13
151.3659292523
 23
31.4326554468
  0
SOLID
  8
0
 62
7
  6
CONTINUOUS
 10
151.0768668626
 20
31.4003926599
 11
151.3659292523
 21
31.4326554468
 12
151.1346793074
 22
31.3036013776
 13
151.1346793074
 23
31.3036013776
  0
SOLID
  8
0
 62
7
  6
CONTINUOUS
 10
151.3659292523
 20
31.4326554468
 11
151.4237418626
 21
31.3036013776
 12
151.1346793074
 22
31.3036013776
 13
151.1346793074
 23
31.3036013776
  0
SOLID
  8
0
 62
7
  6
CONTINUOUS
 10
152.4643666972
 20
31.5939739754
 11
152.6956168074
 21
31.6262382787
 12
152.9268669177
 22
31.6262382787
 13
152.9268669177
 23
31.6262382787
  0
SOLID
  8
0
 62
7
  6
CONTINUOUS
 10
152.9268669177
 20
31.6262382787
 11
153.1003044177
 21
31.5939739754
 12
152.4643666972
 22
31.5939739754
 13
152.4643666972
 23
31.5939739754
  0
SOLID
  8
0
 62
7
  6
CONTINUOUS
 10
152.2909293626
 20
31.5294468852
 11
152.4643666972
 21
31.5939739754
 12
153.1003044177
 22
31.5939739754
 13
153.1003044177
 23
31.5939739754
  0
SOLID
  8
0
 62
7
  6
CONTINUOUS
 10
153.1003044177
 20
31.5939739754
 11
153.2737419177
 21
31.5294468852
 12
152.2909293626
 22
31.5294468852
 13
152.2909293626
 23
31.5294468852
  0
SOLID
  8
0
 62
7
  6
CONTINUOUS
 10
153.2737419177
 20
31.5294468852
 11
152.6956168074
 21
31.4971825369
 12
152.2909293626
 22
31.5294468852
 13
152.2909293626
 23
31.5294468852
  0
SOLID
  8
0
 62
7
  6
CONTINUOUS
 10
152.1753043074
 20
31.4649197951
 11
152.2909293626
 21
31.5294468852
 12
152.6956168074
 22
31.4971825369
 13
152.6956168074
 23
31.4971825369
  0
SOLID
  8
0
 62
7
  6
CONTINUOUS
 10
152.6956168074
 20
31.4971825369
 11
152.4643666972
 21
31.4649197951
 12
152.1753043074
 22
31.4649197951
 13
152.1753043074
 23
31.4649197951
  0
SOLID
  8
0
 62
7
  6
CONTINUOUS
 10
152.6956168074
 20
31.4971825369
 11
153.2737419177
 21
31.5294468852
 12
152.9268669177
 22
31.4649197951
 13
152.9268669177
 23
31.4649197951
  0
SOLID
  8
0
 62
7
  6
CONTINUOUS
 10
153.2737419177
 20
31.5294468852
 11
153.3893668074
 21
31.4649197951
 12
152.9268669177
 22
31.4649197951
 13
152.9268669177
 23
31.4649197951
  0
SOLID
  8
0
 62
7
  6
CONTINUOUS
 10
153.0424918074
 20
31.4326554468
 11
152.9268669177
 21
31.4649197951
 12
153.3893668074
 22
31.4649197951
 13
153.3893668074
 23
31.4649197951
  0
SOLID
  8
0
 62
7
  6
CONTINUOUS
 10
153.3893668074
 20
31.4649197951
 11
153.4471794177
 21
31.4003927049
 12
153.0424918074
 22
31.4326554468
 13
153.0424918074
 23
31.4326554468
  0
SOLID
  8
0
 62
7
  6
CONTINUOUS
 10
153.1581166972
 20
31.3681283566
 11
153.0424918074
 21
31.4326554468
 12
153.4471794177
 22
31.4003927049
 13
153.4471794177
 23
31.4003927049
  0
SOLID
  8
0
 62
7
  6
CONTINUOUS
 10
153.1581166972
 20
31.3681283566
 11
153.4471794177
 21
31.4003927049
 12
153.2159293074
 22
31.2390742213
 13
153.2159293074
 23
31.2390742213
  0
SOLID
  8
0
 62
7
  6
CONTINUOUS
 10
153.4471794177
 20
31.4003927049
 11
153.5049916972
 21
31.2390742213
 12
153.2159293074
 22
31.2390742213
 13
153.2159293074
 23
31.2390742213
  0
SOLID
  8
0
 62
7
  6
CONTINUOUS
 10
152.4643666972
 20
31.4649197951
 11
152.2909293626
 21
31.4003927049
 12
152.1753043074
 22
31.4649197951
 13
152.1753043074
 23
31.4649197951
  0
SOLID
  8
0
 62
7
  6
CONTINUOUS
 10
152.2909293626
 20
31.4003927049
 11
152.1753043074
 21
31.3358640533
 12
152.1753043074
 22
31.4649197951
 13
152.1753043074
 23
31.4649197951
  0
SOLID
  8
0
 62
7
  6
CONTINUOUS
 10
152.1753043074
 20
31.3358640533
 11
151.8862417523
 21
30.5938002869
 12
152.1753043074
 22
31.4649197951
 13
152.1753043074
 23
31.4649197951
  0
SOLID
  8
0
 62
7
  6
CONTINUOUS
 10
152.1753043074
 20
31.4649197951
 11
151.8862417523
 21
30.5938002869
 12
152.1753043074
 22
32.1101937295
 13
152.1753043074
 23
32.1101937295
  0
SOLID
  8
0
 62
7
  6
CONTINUOUS
 10
151.8862417523
 20
30.5938002869
 11
151.8862417523
 21
32.1101937295
 12
152.1753043074
 22
32.1101937295
 13
152.1753043074
 23
32.1101937295
  0
SOLID
  8
0
 62
7
  6
CONTINUOUS
 10
152.1753043074
 20
31.3358640533
 11
152.1753043074
 21
30.5938002869
 12
151.8862417523
 22
30.5938002869
 13
151.8862417523
 23
30.5938002869
  0
SOLID
  8
0
 62
7
  6
CONTINUOUS
 10
153.2159293074
 20
30.5938002869
 11
153.2159293074
 21
31.2390742213
 12
153.5049916972
 22
31.2390742213
 13
153.5049916972
 23
31.2390742213
  0
SOLID
  8
0
 62
7
  6
CONTINUOUS
 10
153.5049916972
 20
31.2390742213
 11
153.5049916972
 21
30.5938002869
 12
153.2159293074
 22
30.5938002869
 13
153.2159293074
 23
30.5938002869
  0
SOLID
  8
0
 62
7
  6
CONTINUOUS
 10
154.2565543074
 20
31.5939738288
 11
154.6612419177
 21
31.6262385959
 12
155.0081169177
 22
31.6262385959
 13
155.0081169177
 23
31.6262385959
  0
SOLID
  8
0
 62
7
  6
CONTINUOUS
 10
155.0081169177
 20
31.6262385959
 11
155.3549915869
 21
31.5939738288
 12
154.2565543074
 22
31.5939738288
 13
154.2565543074
 23
31.5939738288
  0
SOLID
  8
0
 62
7
  6
CONTINUOUS
 10
154.1409294177
 20
31.5617111435
 11
154.2565543074
 21
31.5939738288
 12
155.3549915869
 22
31.5939738288
 13
155.3549915869
 23
31.5939738288
  0
SOLID
  8
0
 62
7
  6
CONTINUOUS
 10
155.3549915869
 20
31.5939738288
 11
155.5284290869
 21
31.5294468402
 12
154.1409294177
 22
31.5617111435
 13
154.1409294177
 23
31.5617111435
  0
SOLID
  8
0
 62
7
  6
CONTINUOUS
 10
154.0253041972
 20
31.4971826249
 11
154.1409294177
 21
31.5617111435
 12
155.5284290869
 22
31.5294468402
 13
155.5284290869
 23
31.5294468402
  0
SOLID
  8
0
 62
7
  6
CONTINUOUS
 10
154.0253041972
 20
31.4971826249
 11
155.5284290869
 21
31.5294468402
 12
154.6612419177
 22
31.4971826249
 13
154.6612419177
 23
31.4971826249
  0
SOLID
  8
0
 62
7
  6
CONTINUOUS
 10
154.6612419177
 20
31.4971826249
 11
155.5284290869
 21
31.5294468402
 12
155.0081169177
 22
31.4971826249
 13
155.0081169177
 23
31.4971826249
  0
SOLID
  8
0
 62
7
  6
CONTINUOUS
 10
155.0081169177
 20
31.4971826249
 11
155.5284290869
 21
31.5294468402
 12
155.239367028
 22
31.4649194065
 13
155.239367028
 23
31.4649194065
  0
SOLID
  8
0
 62
7
  6
CONTINUOUS
 10
155.5284290869
 20
31.5294468402
 11
155.6440543074
 21
31.4649194065
 12
155.239367028
 22
31.4649194065
 13
155.239367028
 23
31.4649194065
  0
SOLID
  8
0
 62
7
  6
CONTINUOUS
 10
153.9674919177
 20
31.4326554138
 11
154.0253041972
 21
31.4971826249
 12
154.6612419177
 22
31.4971826249
 13
154.6612419177
 23
31.4971826249
  0
SOLID
  8
0
 62
7
  6
CONTINUOUS
 10
155.3549915869
 20
31.4326554138
 11
155.239367028
 21
31.4649194065
 12
155.6440543074
 22
31.4649194065
 13
155.6440543074
 23
31.4649194065
  0
SOLID
  8
0
 62
7
  6
CONTINUOUS
 10
155.3549915869
 20
31.4326554138
 11
155.6440543074
 21
31.4649194065
 12
155.412804528
 22
31.3681282026
 13
155.412804528
 23
31.3681282026
  0
SOLID
  8
0
 62
7
  6
CONTINUOUS
 10
155.6440543074
 20
31.4649194065
 11
155.7018665869
 21
31.3681282026
 12
155.412804528
 22
31.3681282026
 13
155.412804528
 23
31.3681282026
  0
SOLID
  8
0
 62
7
  6
CONTINUOUS
 10
155.412804528
 20
31.2713369632
 11
155.412804528
 21
31.3681282026
 12
155.7018665869
 22
31.3681282026
 13
155.7018665869
 23
31.3681282026
  0
SOLID
  8
0
 62
7
  6
CONTINUOUS
 10
155.412804528
 20
31.2713369632
 11
155.7018665869
 21
31.3681282026
 12
155.412804528
 22
31.1422827828
 13
155.412804528
 23
31.1422827828
  0
SOLID
  8
0
 62
7
  6
CONTINUOUS
 10
155.412804528
 20
31.1422827828
 11
155.7018665869
 21
31.3681282026
 12
155.412804528
 22
30.9487004259
 13
155.412804528
 23
30.9487004259
  0
SOLID
  8
0
 62
7
  6
CONTINUOUS
 10
155.7018665869
 20
31.3681282026
 11
155.7018665869
 21
30.8519086025
 12
155.412804528
 22
30.9487004259
 13
155.412804528
 23
30.9487004259
  0
SOLID
  8
0
 62
7
  6
CONTINUOUS
 10
157.6096790869
 20
31.5939736268
 11
157.840929528
 21
31.6262383465
 12
158.0721793074
 22
31.6262383465
 13
158.0721793074
 23
31.6262383465
  0
SOLID
  8
0
 62
7
  6
CONTINUOUS
 10
158.0721793074
 20
31.6262383465
 11
158.2456168074
 21
31.5939736268
 12
157.6096790869
 22
31.5939736268
 13
157.6096790869
 23
31.5939736268
  0
SOLID
  8
0
 62
7
  6
CONTINUOUS
 10
157.4362415869
 20
31.5294472848
 11
157.6096790869
 21
31.5939736268
 12
158.2456168074
 22
31.5939736268
 13
158.2456168074
 23
31.5939736268
  0
SOLID
  8
0
 62
7
  6
CONTINUOUS
 10
158.2456168074
 20
31.5939736268
 11
158.4190543074
 21
31.5294472848
 12
157.4362415869
 22
31.5294472848
 13
157.4362415869
 23
31.5294472848
  0
SOLID
  8
0
 62
7
  6
CONTINUOUS
 10
158.4190543074
 20
31.5294472848
 11
157.840929528
 21
31.4971825369
 12
157.4362415869
 22
31.5294472848
 13
157.4362415869
 23
31.5294472848
  0
SOLID
  8
0
 62
7
  6
CONTINUOUS
 10
157.320617028
 20
31.4649199103
 11
157.4362415869
 21
31.5294472848
 12
157.840929528
 22
31.4971825369
 13
157.840929528
 23
31.4971825369
  0
SOLID
  8
0
 62
7
  6
CONTINUOUS
 10
157.840929528
 20
31.4971825369
 11
157.6096790869
 21
31.4649199103
 12
157.320617028
 22
31.4649199103
 13
157.320617028
 23
31.4649199103
  0
SOLID
  8
0
 62
7
  6
CONTINUOUS
 10
157.840929528
 20
31.4971825369
 11
158.4190543074
 21
31.5294472848
 12
158.0721793074
 22
31.4649199103
 13
158.0721793074
 23
31.4649199103
  0
SOLID
  8
0
 62
7
  6
CONTINUOUS
 10
158.4190543074
 20
31.5294472848
 11
158.534679528
 21
31.4649199103
 12
158.0721793074
 22
31.4649199103
 13
158.0721793074
 23
31.4649199103
  0
SOLID
  8
0
 62
7
  6
CONTINUOUS
 10
158.187804528
 20
31.4326554468
 11
158.0721793074
 21
31.4649199103
 12
158.534679528
 22
31.4649199103
 13
158.534679528
 23
31.4649199103
  0
SOLID
  8
0
 62
7
  6
CONTINUOUS
 10
158.187804528
 20
31.4326554468
 11
158.534679528
 21
31.4649199103
 12
158.3034290869
 22
31.3681288486
 13
158.3034290869
 23
31.3681288486
  0
SOLID
  8
0
 62
7
  6
CONTINUOUS
 10
158.534679528
 20
31.4649199103
 11
158.5924918074
 21
31.3681288486
 12
158.3034290869
 22
31.3681288486
 13
158.3034290869
 23
31.3681288486
  0
SOLID
  8
0
 62
7
  6
CONTINUOUS
 10
158.361242028
 20
31.2068093799
 11
158.3034290869
 21
31.3681288486
 12
158.5924918074
 22
31.3681288486
 13
158.5924918074
 23
31.3681288486
  0
SOLID
  8
0
 62
7
  6
CONTINUOUS
 10
158.5924918074
 20
31.3681288486
 11
158.6503040869
 21
31.2068093799
 12
158.361242028
 22
31.2068093799
 13
158.361242028
 23
31.2068093799
  0
SOLID
  8
0
 62
7
  6
CONTINUOUS
 10
157.6096790869
 20
31.4649199103
 11
157.4362415869
 21
31.4003926599
 12
157.320617028
 22
31.4649199103
 13
157.320617028
 23
31.4649199103
  0
SOLID
  8
0
 62
7
  6
CONTINUOUS
 10
157.4362415869
 20
31.4003926599
 11
157.320617028
 21
31.3358640533
 12
157.320617028
 22
31.4649199103
 13
157.320617028
 23
31.4649199103
  0
SOLID
  8
0
 62
7
  6
CONTINUOUS
 10
157.320617028
 20
31.3358640533
 11
157.0315543074
 21
30.5938003547
 12
157.320617028
 22
31.4649199103
 13
157.320617028
 23
31.4649199103
  0
SOLID
  8
0
 62
7
  6
CONTINUOUS
 10
157.320617028
 20
31.4649199103
 11
157.0315543074
 21
30.5938003547
 12
157.320617028
 22
31.6262383465
 13
157.320617028
 23
31.6262383465
  0
SOLID
  8
0
 62
7
  6
CONTINUOUS
 10
157.0315543074
 20
30.5938003547
 11
157.0315543074
 21
31.6262383465
 12
157.320617028
 22
31.6262383465
 13
157.320617028
 23
31.6262383465
  0
SOLID
  8
0
 62
7
  6
CONTINUOUS
 10
157.320617028
 20
31.3358640533
 11
157.320617028
 21
30.5938003547
 12
157.0315543074
 22
30.5938003547
 13
157.0315543074
 23
30.5938003547
  0
SOLID
  8
0
 62
7
  6
CONTINUOUS
 10
158.361242028
 20
30.5938003547
 11
158.361242028
 21
31.2068093799
 12
158.6503040869
 22
31.2068093799
 13
158.6503040869
 23
31.2068093799
  0
SOLID
  8
0
 62
7
  6
CONTINUOUS
 10
158.6503040869
 20
31.2068093799
 11
158.6503040869
 21
30.5938003547
 12
158.361242028
 22
30.5938003547
 13
158.361242028
 23
30.5938003547
  0
SOLID
  8
0
 62
7
  6
CONTINUOUS
 10
159.4596793074
 20
31.5939739474
 11
159.8065543074
 21
31.6262381969
 12
160.1534293074
 22
31.6262381969
 13
160.1534293074
 23
31.6262381969
  0
SOLID
  8
0
 62
7
  6
CONTINUOUS
 10
160.1534293074
 20
31.6262381969
 11
160.5003043074
 21
31.5939739474
 12
159.4596793074
 22
31.5939739474
 13
159.4596793074
 23
31.5939739474
  0
SOLID
  8
0
 62
7
  6
CONTINUOUS
 10
159.228429528
 20
31.5294468402
 11
159.4596793074
 21
31.5939739474
 12
160.5003043074
 22
31.5939739474
 13
160.5003043074
 23
31.5939739474
  0
SOLID
  8
0
 62
7
  6
CONTINUOUS
 10
159.228429528
 20
31.5294468402
 11
160.5003043074
 21
31.5939739304
 12
160.6737418074
 22
31.5617111435
 13
160.6737418074
 23
31.5617111435
  0
SOLID
  8
0
 62
7
  6
CONTINUOUS
 10
159.228429528
 20
31.5294468402
 11
160.6737418074
 21
31.5617111435
 12
159.8065543074
 22
31.4971825592
 13
159.8065543074
 23
31.4971825592
  0
SOLID
  8
0
 62
7
  6
CONTINUOUS
 10
159.8065543074
 20
31.4971825592
 11
160.6737418074
 21
31.5617111435
 12
160.1534293074
 22
31.4971825592
 13
160.1534293074
 23
31.4971825592
  0
SOLID
  8
0
 62
7
  6
CONTINUOUS
 10
160.6737418074
 20
31.5617111435
 11
160.8471793074
 21
31.4971825592
 12
160.1534293074
 22
31.4971825592
 13
160.1534293074
 23
31.4971825592
  0
SOLID
  8
0
 62
7
  6
CONTINUOUS
 10
160.5003043074
 20
31.4649197501
 11
160.1534293074
 21
31.4971825592
 12
160.8471793074
 22
31.4971825592
 13
160.8471793074
 23
31.4971825592
  0
SOLID
  8
0
 62
7
  6
CONTINUOUS
 10
159.1128043074
 20
31.4326555427
 11
159.228429528
 21
31.5294468402
 12
159.8065543074
 22
31.4971825592
 13
159.8065543074
 23
31.4971825592
  0
SOLID
  8
0
 62
7
  6
CONTINUOUS
 10
160.5003043074
 20
31.4649197501
 11
160.8471793074
 21
31.4971825592
 12
160.615929528
 22
31.4326555427
 13
160.615929528
 23
31.4326555427
  0
SOLID
  8
0
 62
7
  6
CONTINUOUS
 10
160.615929528
 20
31.4326555427
 11
160.8471793074
 21
31.4971825592
 12
160.6737418074
 22
31.3681283005
 13
160.6737418074
 23
31.3681283005
  0
SOLID
  8
0
 62
7
  6
CONTINUOUS
 10
160.8471793074
 20
31.4971825592
 11
160.9628038663
 21
31.3681283005
 12
160.6737418074
 22
31.3681283005
 13
160.6737418074
 23
31.3681283005
  0
SOLID
  8
0
 62
7
  6
CONTINUOUS
 10
150.2674918074
 20
31.4649197501
 11
149.7471793074
 21
31.4326554237
 12
150.498741835
 22
31.4971824493
 13
150.498741835
 23
31.4971824493
  0
SOLID
  8
0
 62
7
  6
CONTINUOUS
 10
149.7471793074
 20
31.4326554237
 11
149.8628043005
 21
31.4971824493
 12
150.498741835
 22
31.4971824493
 13
150.498741835
 23
31.4971824493
  0
SOLID
  8
0
 62
7
  6
CONTINUOUS
 10
150.2674918074
 20
31.4649197501
 11
150.1518667936
 21
31.4326554237
 12
149.7471793074
 22
31.4326554237
 13
149.7471793074
 23
31.4326554237
  0
SOLID
  8
0
 62
7
  6
CONTINUOUS
 10
149.6315543091
 20
31.3036012664
 11
149.7471793074
 21
31.4326554237
 12
150.1518667936
 22
31.4326554237
 13
150.1518667936
 23
31.4326554237
  0
SOLID
  8
0
 62
7
  6
CONTINUOUS
 10
153.9674919177
 20
31.4326554237
 11
154.6612419177
 21
31.4971825369
 12
154.4299918074
 22
31.4649197501
 13
154.4299918074
 23
31.4649197501
  0
SOLID
  8
0
 62
7
  6
CONTINUOUS
 10
154.4299918074
 20
31.4649197501
 11
154.3143669177
 21
31.4326554237
 12
153.9674919177
 22
31.4326554237
 13
153.9674919177
 23
31.4326554237
  0
SOLID
  8
0
 62
7
  6
CONTINUOUS
 10
153.9674919177
 20
31.3681283335
 11
153.9674919177
 21
31.4326554237
 12
154.3143669177
 22
31.4326554237
 13
154.3143669177
 23
31.4326554237
  0
SOLID
  8
0
 62
7
  6
CONTINUOUS
 10
154.3143669177
 20
31.4326554237
 11
154.2565543074
 21
31.3681283335
 12
153.9674919177
 22
31.3681283335
 13
153.9674919177
 23
31.3681283335
  0
SOLID
  8
0
 62
7
  6
CONTINUOUS
 10
159.1128043074
 20
31.4326555528
 11
159.8065543074
 21
31.4971825369
 12
159.575304528
 22
31.4649197501
 13
159.575304528
 23
31.4649197501
  0
SOLID
  8
0
 62
7
  6
CONTINUOUS
 10
159.575304528
 20
31.4649197501
 11
159.4596793074
 21
31.4326555528
 12
159.1128043074
 22
31.4326555528
 13
159.1128043074
 23
31.4326555528
  0
SOLID
  8
0
 62
7
  6
CONTINUOUS
 10
159.1128043074
 20
31.3681284626
 11
159.1128043074
 21
31.4326555528
 12
159.4596793074
 22
31.4326555528
 13
159.4596793074
 23
31.4326555528
  0
SOLID
  8
0
 62
7
  6
CONTINUOUS
 10
159.4596793074
 20
31.4326555528
 11
159.401867028
 21
31.3681284626
 12
159.1128043074
 22
31.3681284626
 13
159.1128043074
 23
31.3681284626
  0
SOLID
  8
0
 62
7
  6
CONTINUOUS
 10
159.228429528
 20
31.2390741763
 11
159.1128043074
 21
31.3681284626
 12
159.401867028
 22
31.3681284626
 13
159.401867028
 23
31.3681284626
  0
SOLID
  8
0
 62
7
  6
CONTINUOUS
 10
149.6315543091
 20
31.3036012664
 11
150.1518667936
 21
31.4326554468
 12
149.9784292936
 22
31.3358640533
 13
149.9784292936
 23
31.3358640533
  0
SOLID
  8
0
 62
7
  6
CONTINUOUS
 10
149.9784292936
 20
31.3358640533
 11
149.9206168074
 21
31.2713369632
 12
149.6315543091
 22
31.3036012664
 13
149.6315543091
 23
31.3036012664
  0
SOLID
  8
0
 62
7
  6
CONTINUOUS
 10
149.5737418074
 20
31.1100184796
 11
149.6315543091
 21
31.3036012664
 12
149.9206168074
 22
31.2713369632
 13
149.9206168074
 23
31.2713369632
  0
SOLID
  8
0
 62
7
  6
CONTINUOUS
 10
154.4299918074
 20
31.2390741763
 11
154.7768668074
 21
31.271336924
 12
155.412804528
 22
31.271336924
 13
155.412804528
 23
31.271336924
  0
SOLID
  8
0
 62
7
  6
CONTINUOUS
 10
154.4299918074
 20
31.2390741763
 11
155.412804528
 21
31.271336924
 12
154.1987416972
 22
31.1745462761
 13
154.1987416972
 23
31.1745462761
  0
SOLID
  8
0
 62
7
  6
CONTINUOUS
 10
154.1987416972
 20
31.1745462761
 11
155.412804528
 21
31.271336924
 12
154.7768668074
 22
31.1422827436
 13
154.7768668074
 23
31.1422827436
  0
SOLID
  8
0
 62
7
  6
CONTINUOUS
 10
155.412804528
 20
31.271336924
 11
155.412804528
 21
31.1422827436
 12
154.7768668074
 22
31.1422827436
 13
154.7768668074
 23
31.1422827436
  0
SOLID
  8
0
 62
7
  6
CONTINUOUS
 10
159.228429528
 20
31.2390745501
 11
159.401867028
 21
31.3681283566
 12
159.4596793074
 22
31.3036012664
 13
159.4596793074
 23
31.3036012664
  0
SOLID
  8
0
 62
7
  6
CONTINUOUS
 10
159.4596793074
 20
31.3036012664
 11
159.6331168074
 21
31.2390745501
 12
159.228429528
 22
31.2390745501
 13
159.228429528
 23
31.2390745501
  0
SOLID
  8
0
 62
7
  6
CONTINUOUS
 10
159.4596793074
 20
31.1422827828
 11
159.228429528
 21
31.2390745501
 12
159.6331168074
 22
31.2390745501
 13
159.6331168074
 23
31.2390745501
  0
SOLID
  8
0
 62
7
  6
CONTINUOUS
 10
159.6331168074
 20
31.2390745501
 11
160.615929528
 21
31.0777556927
 12
159.4596793074
 22
31.1422827828
 13
159.4596793074
 23
31.1422827828
  0
SOLID
  8
0
 62
7
  6
CONTINUOUS
 10
160.442492028
 20
30.9809646623
 11
159.4596793074
 21
31.1422827828
 12
160.615929528
 22
31.0777556927
 13
160.615929528
 23
31.0777556927
  0
SOLID
  8
0
 62
7
  6
CONTINUOUS
 10
160.615929528
 20
31.0777556927
 11
160.8471793074
 21
30.9809646623
 12
160.442492028
 22
30.9809646623
 13
160.442492028
 23
30.9809646623
  0
SOLID
  8
0
 62
7
  6
CONTINUOUS
 10
160.615929528
 20
30.9164372091
 11
160.442492028
 21
30.9809646623
 12
160.8471793074
 22
30.9809646623
 13
160.8471793074
 23
30.9809646623
  0
SOLID
  8
0
 62
7
  6
CONTINUOUS
 10
160.615929528
 20
30.9164372091
 11
160.8471793074
 21
30.9809646623
 12
160.6737418074
 22
30.8519089441
 13
160.6737418074
 23
30.8519089441
  0
SOLID
  8
0
 62
7
  6
CONTINUOUS
 10
160.8471793074
 20
30.9809646623
 11
160.9628038663
 21
30.8519089441
 12
160.6737418074
 22
30.8519089441
 13
160.6737418074
 23
30.8519089441
  0
SOLID
  8
0
 62
7
  6
CONTINUOUS
 10
160.615929528
 20
30.7873818593
 11
160.6737418074
 21
30.8519089441
 12
160.9628038663
 22
30.8519089441
 13
160.9628038663
 23
30.8519089441
  0
SOLID
  8
0
 62
7
  6
CONTINUOUS
 10
160.9628038663
 20
30.8519089441
 11
160.9628038663
 21
30.7873818593
 12
160.615929528
 22
30.7873818593
 13
160.615929528
 23
30.7873818593
  0
SOLID
  8
0
 62
7
  6
CONTINUOUS
 10
160.5003043074
 20
30.7551187255
 11
160.615929528
 21
30.7873818593
 12
160.9628038663
 22
30.7873818593
 13
160.9628038663
 23
30.7873818593
  0
SOLID
  8
0
 62
7
  6
CONTINUOUS
 10
160.5003043074
 20
30.7551187255
 11
160.9628038663
 21
30.7873818593
 12
160.269054528
 22
30.7228547745
 13
160.269054528
 23
30.7228547745
  0
SOLID
  8
0
 62
7
  6
CONTINUOUS
 10
160.9628038663
 20
30.7873818593
 11
160.8471793074
 21
30.6905916353
 12
160.269054528
 22
30.7228547745
 13
160.269054528
 23
30.7228547745
  0
SOLID
  8
0
 62
7
  6
CONTINUOUS
 10
160.8471793074
 20
30.6905916353
 11
159.401867028
 21
30.658327332
 12
160.269054528
 22
30.7228547745
 13
160.269054528
 23
30.7228547745
  0
SOLID
  8
0
 62
7
  6
CONTINUOUS
 10
160.269054528
 20
30.7228547745
 11
159.401867028
 21
30.658327332
 12
159.922179528
 22
30.7228547745
 13
159.922179528
 23
30.7228547745
  0
SOLID
  8
0
 62
7
  6
CONTINUOUS
 10
159.401867028
 20
30.658327332
 11
159.228429528
 21
30.7228547745
 12
159.922179528
 22
30.7228547745
 13
159.922179528
 23
30.7228547745
  0
SOLID
  8
0
 62
7
  6
CONTINUOUS
 10
159.401867028
 20
30.658327332
 11
160.8471793074
 21
30.6905916353
 12
159.575304528
 22
30.6260629858
 13
159.575304528
 23
30.6260629858
  0
SOLID
  8
0
 62
7
  6
CONTINUOUS
 10
160.8471793074
 20
30.6905916353
 11
160.615929528
 21
30.6260629858
 12
159.575304528
 22
30.6260629858
 13
159.575304528
 23
30.6260629858
  0
SOLID
  8
0
 62
7
  6
CONTINUOUS
 10
159.922179528
 20
30.5938006049
 11
159.575304528
 21
30.6260629858
 12
160.615929528
 22
30.6260629858
 13
160.615929528
 23
30.6260629858
  0
SOLID
  8
0
 62
7
  6
CONTINUOUS
 10
160.615929528
 20
30.6260629858
 11
160.269054528
 21
30.5938006049
 12
159.922179528
 22
30.5938006049
 13
159.922179528
 23
30.5938006049
  0
SOLID
  8
0
 62
7
  6
CONTINUOUS
 10
149.5737418074
 20
31.1100184796
 11
149.9206168074
 21
31.2713369632
 12
149.8628043005
 22
31.1422827828
 13
149.8628043005
 23
31.1422827828
  0
SOLID
  8
0
 62
7
  6
CONTINUOUS
 10
149.8628043005
 20
31.1422827828
 11
149.8628043005
 21
31.0454914852
 12
149.5737418074
 22
31.1100184796
 13
149.5737418074
 23
31.1100184796
  0
SOLID
  8
0
 62
7
  6
CONTINUOUS
 10
149.6315543091
 20
30.9164372091
 11
149.5737418074
 21
31.1100184796
 12
149.8628043005
 22
31.0454914852
 13
149.8628043005
 23
31.0454914852
  0
SOLID
  8
0
 62
7
  6
CONTINUOUS
 10
149.8628043005
 20
31.0454914852
 11
149.9784292936
 21
30.8841729058
 12
149.6315543091
 22
30.9164372091
 13
149.6315543091
 23
30.9164372091
  0
SOLID
  8
0
 62
7
  6
CONTINUOUS
 10
149.7471793074
 20
30.7873813202
 11
149.6315543091
 21
30.9164372091
 12
149.9784292936
 22
30.8841729058
 13
149.9784292936
 23
30.8841729058
  0
SOLID
  8
0
 62
7
  6
CONTINUOUS
 10
149.9784292936
 20
30.8841729058
 11
150.1518667936
 21
30.7873813202
 12
149.7471793074
 22
30.7873813202
 13
149.7471793074
 23
30.7873813202
  0
SOLID
  8
0
 62
7
  6
CONTINUOUS
 10
149.8628043005
 20
30.7228547004
 11
149.7471793074
 21
30.7873813202
 12
150.1518667936
 22
30.7873813202
 13
150.1518667936
 23
30.7873813202
  0
SOLID
  8
0
 62
7
  6
CONTINUOUS
 10
150.1518667936
 20
30.7873813202
 11
150.498741835
 21
30.7228547004
 12
149.8628043005
 22
30.7228547004
 13
149.8628043005
 23
30.7228547004
  0
SOLID
  8
0
 62
7
  6
CONTINUOUS
 10
150.0362418212
 20
30.658327332
 11
149.8628043005
 21
30.7228547004
 12
150.498741835
 22
30.7228547004
 13
150.498741835
 23
30.7228547004
  0
SOLID
  8
0
 62
7
  6
CONTINUOUS
 10
154.0831168074
 20
31.1100184386
 11
154.1987416972
 21
31.1745462761
 12
154.7768668074
 22
31.1422827828
 13
154.7768668074
 23
31.1422827828
  0
SOLID
  8
0
 62
7
  6
CONTINUOUS
 10
154.7768668074
 20
31.1422827828
 11
154.5456166972
 21
31.1100184386
 12
154.0831168074
 22
31.1100184386
 13
154.0831168074
 23
31.1100184386
  0
SOLID
  8
0
 62
7
  6
CONTINUOUS
 10
153.9674919177
 20
30.9809642992
 11
154.0831168074
 21
31.1100184386
 12
154.5456166972
 22
31.1100184386
 13
154.5456166972
 23
31.1100184386
  0
SOLID
  8
0
 62
7
  6
CONTINUOUS
 10
154.3143669177
 20
31.0132277988
 11
153.9674919177
 21
30.9809642992
 12
154.4299918074
 22
31.0777556927
 13
154.4299918074
 23
31.0777556927
  0
SOLID
  8
0
 62
7
  6
CONTINUOUS
 10
153.9674919177
 20
30.9809642992
 11
154.5456166972
 21
31.1100184796
 12
154.4299918074
 22
31.0777556927
 13
154.4299918074
 23
31.0777556927
  0
SOLID
  8
0
 62
7
  6
CONTINUOUS
 10
154.3143669177
 20
31.0132277988
 11
154.2565543074
 21
30.9164372091
 12
153.9674919177
 22
30.9809642992
 13
153.9674919177
 23
30.9809642992
  0
SOLID
  8
0
 62
7
  6
CONTINUOUS
 10
153.9674919177
 20
30.8841729058
 11
153.9674919177
 21
30.9809642992
 12
154.2565543074
 22
30.9164372091
 13
154.2565543074
 23
30.9164372091
  0
SOLID
  8
0
 62
7
  6
CONTINUOUS
 10
154.2565543074
 20
30.9164372091
 11
154.2565543074
 21
30.8519086025
 12
153.9674919177
 22
30.8841729058
 13
153.9674919177
 23
30.8841729058
  0
SOLID
  8
0
 62
7
  6
CONTINUOUS
 10
154.0253041972
 20
30.7551187255
 11
153.9674919177
 21
30.8841729058
 12
154.2565543074
 22
30.8519086025
 13
154.2565543074
 23
30.8519086025
  0
SOLID
  8
0
 62
7
  6
CONTINUOUS
 10
155.412804528
 20
30.9487004259
 11
155.7018665869
 21
30.8519086025
 12
155.3549915869
 22
30.8841729058
 13
155.3549915869
 23
30.8841729058
  0
SOLID
  8
0
 62
7
  6
CONTINUOUS
 10
155.1815540869
 20
30.7873815123
 11
155.3549915869
 21
30.8841729058
 12
155.7018665869
 22
30.8519086025
 13
155.7018665869
 23
30.8519086025
  0
SOLID
  8
0
 62
7
  6
CONTINUOUS
 10
155.1815540869
 20
30.7873815123
 11
155.7018665869
 21
30.8519086025
 12
155.412804528
 22
30.7551187255
 13
155.412804528
 23
30.7551187255
  0
SOLID
  8
0
 62
7
  6
CONTINUOUS
 10
155.7018665869
 20
30.8519086025
 11
155.759679528
 21
30.6905916353
 12
155.412804528
 22
30.7551187255
 13
155.412804528
 23
30.7551187255
  0
SOLID
  8
0
 62
7
  6
CONTINUOUS
 10
155.4706168074
 20
30.658327332
 11
155.412804528
 21
30.7551187255
 12
155.759679528
 22
30.6905916353
 13
155.759679528
 23
30.6905916353
  0
SOLID
  8
0
 62
7
  6
CONTINUOUS
 10
155.4706168074
 20
30.658327332
 11
155.759679528
 21
30.6905916353
 12
155.5284290869
 22
30.5938002079
 13
155.5284290869
 23
30.5938002079
  0
SOLID
  8
0
 62
7
  6
CONTINUOUS
 10
155.759679528
 20
30.6905916353
 11
155.8174918074
 21
30.5938002079
 12
155.5284290869
 22
30.5938002079
 13
155.5284290869
 23
30.5938002079
  0
SOLID
  8
0
 62
7
  6
CONTINUOUS
 10
151.0768668626
 20
30.8196456577
 11
151.1346793074
 21
30.9164373395
 12
151.4237418626
 22
30.9164373395
 13
151.4237418626
 23
30.9164373395
  0
SOLID
  8
0
 62
7
  6
CONTINUOUS
 10
151.4237418626
 20
30.9164373395
 11
151.3659292523
 21
30.7873815123
 12
151.0768668626
 22
30.8196456577
 13
151.0768668626
 23
30.8196456577
  0
SOLID
  8
0
 62
7
  6
CONTINUOUS
 10
150.9034292799
 20
30.7551187255
 11
151.0768668626
 21
30.8196456577
 12
151.3659292523
 22
30.7873815123
 13
151.3659292523
 23
30.7873815123
  0
SOLID
  8
0
 62
7
  6
CONTINUOUS
 10
150.9034292799
 20
30.7551187255
 11
151.3659292523
 21
30.7873815123
 12
150.498741835
 22
30.7228544222
 13
150.498741835
 23
30.7228544222
  0
SOLID
  8
0
 62
7
  6
CONTINUOUS
 10
151.3659292523
 20
30.7873815123
 11
151.1924917523
 21
30.6905916353
 12
150.498741835
 22
30.7228544222
 13
150.498741835
 23
30.7228544222
  0
SOLID
  8
0
 62
7
  6
CONTINUOUS
 10
150.0362418212
 20
30.658327332
 11
150.498741835
 21
30.7228544222
 12
151.1924917523
 22
30.6905916353
 13
151.1924917523
 23
30.6905916353
  0
SOLID
  8
0
 62
7
  6
CONTINUOUS
 10
150.0362418212
 20
30.658327332
 11
151.1924917523
 21
30.6905916353
 12
150.2096793212
 22
30.6260631011
 13
150.2096793212
 23
30.6260631011
  0
SOLID
  8
0
 62
7
  6
CONTINUOUS
 10
151.1924917523
 20
30.6905916353
 11
150.9612418074
 21
30.6260631011
 12
150.2096793212
 22
30.6260631011
 13
150.2096793212
 23
30.6260631011
  0
SOLID
  8
0
 62
7
  6
CONTINUOUS
 10
150.5565542799
 20
30.5938002419
 11
150.2096793212
 21
30.6260631011
 12
150.9612418074
 22
30.6260631011
 13
150.9612418074
 23
30.6260631011
  0
SOLID
  8
0
 62
7
  6
CONTINUOUS
 10
154.0253041972
 20
30.7551187255
 11
154.2565543074
 21
30.8519086025
 12
154.3143669177
 22
30.7873815123
 13
154.3143669177
 23
30.7873815123
  0
SOLID
  8
0
 62
7
  6
CONTINUOUS
 10
154.3143669177
 20
30.7873815123
 11
154.5456166972
 21
30.7228544222
 12
154.0253041972
 22
30.7551187255
 13
154.0253041972
 23
30.7551187255
  0
SOLID
  8
0
 62
7
  6
CONTINUOUS
 10
154.1987416972
 20
30.658327332
 11
154.0253041972
 21
30.7551187255
 12
154.5456166972
 22
30.7228544222
 13
154.5456166972
 23
30.7228544222
  0
SOLID
  8
0
 62
7
  6
CONTINUOUS
 10
154.8924916972
 20
30.7228544637
 11
155.1815540869
 21
30.7873815123
 12
155.412804528
 22
30.7551187255
 13
155.412804528
 23
30.7551187255
  0
SOLID
  8
0
 62
7
  6
CONTINUOUS
 10
155.412804528
 20
30.7551187255
 11
155.3549915869
 21
30.6905916353
 12
154.8924916972
 22
30.7228544637
 13
154.8924916972
 23
30.7228544637
  0
SOLID
  8
0
 62
7
  6
CONTINUOUS
 10
155.3549915869
 20
30.6905916353
 11
154.1987416972
 21
30.658327332
 12
154.8924916972
 22
30.7228544637
 13
154.8924916972
 23
30.7228544637
  0
SOLID
  8
0
 62
7
  6
CONTINUOUS
 10
154.1987416972
 20
30.658327332
 11
154.5456166972
 21
30.7228544637
 12
154.8924916972
 22
30.7228544637
 13
154.8924916972
 23
30.7228544637
  0
SOLID
  8
0
 62
7
  6
CONTINUOUS
 10
154.1987416972
 20
30.658327332
 11
155.3549915869
 21
30.6905916353
 12
154.3143669177
 22
30.6260630541
 13
154.3143669177
 23
30.6260630541
  0
SOLID
  8
0
 62
7
  6
CONTINUOUS
 10
155.3549915869
 20
30.6905916353
 11
155.1815540869
 21
30.6260630541
 12
154.3143669177
 22
30.6260630541
 13
154.3143669177
 23
30.6260630541
  0
SOLID
  8
0
 62
7
  6
CONTINUOUS
 10
154.5456166972
 20
30.5938002188
 11
154.3143669177
 21
30.6260630541
 12
155.1815540869
 22
30.6260630541
 13
155.1815540869
 23
30.6260630541
  0
SOLID
  8
0
 62
7
  6
CONTINUOUS
 10
155.1815540869
 20
30.6260630541
 11
154.8924916972
 21
30.5938002188
 12
154.5456166972
 22
30.5938002188
 13
154.5456166972
 23
30.5938002188
  0
SOLID
  8
0
 62
7
  6
CONTINUOUS
 10
159.575304528
 20
30.7551187255
 11
159.228429528
 21
30.7228544637
 12
159.4596793074
 22
30.7873815123
 13
159.4596793074
 23
30.7873815123
  0
SOLID
  8
0
 62
7
  6
CONTINUOUS
 10
159.4596793074
 20
30.7873815123
 11
159.228429528
 21
30.7228544637
 12
159.401867028
 22
30.851908644
 13
159.401867028
 23
30.851908644
  0
SOLID
  8
0
 62
7
  6
CONTINUOUS
 10
159.228429528
 20
30.7228544637
 11
159.1128043074
 21
30.851908644
 12
159.401867028
 22
30.851908644
 13
159.401867028
 23
30.851908644
  0
SOLID
  8
0
 62
7
  6
CONTINUOUS
 10
159.575304528
 20
30.7551187255
 11
159.922179528
 21
30.7228544637
 12
159.228429528
 22
30.7228544637
 13
159.228429528
 23
30.7228544637
  0
SOLID
  8
0
 62
7
  6
CONTINUOUS
 10
156.279992028
 20
30.5938002419
 11
156.279992028
 21
31.6262382337
 12
156.5690540869
 22
30.5938002419
 13
156.5690540869
 23
31.6262382337
  0
ENDBLK
  8
0
  6
BYBLOCK
 62
0
  0
BLOCK
  8
0
 62
2
  6
CONTINUOUS
  2
SYMBOL_3_BL0
 70
64
 10
32.1213064866
 20
19.8534310916
  0
TEXT
  8
0
 62
7
  6
CONTINUOUS
 10
18.3860103289
 20
19.2268451992
  7
TEXTSTYLE_3
 40
2.7338706658
  1
Ammeraal Beltech
 41
1.0
 51
15.0
 72
0
  0
TEXT
  8
0
 62
7
  6
CONTINUOUS
 10
29.1868111546
 20
16.9533085264
  7
TEXTSTYLE_4
 40
1.0935482663
  1
Innovation & Service in Belting
 41
1.0
 72
0
  0
LINE
  8
0
 62
7
  6
CONTINUOUS
 10
12.3614696776
 20
19.9934385078
 11
13.1396216709
 21
23.6543558055
  0
LINE
  8
0
 62
7
  6
CONTINUOUS
 10
23.2347899607
 20
27.3177497171
 11
13.6274394139
 21
24.1961322958
  0
LINE
  8
0
 62
7
  6
CONTINUOUS
 10
12.5867530099
 20
19.3000877048
 11
20.093828271
 21
12.5406867788
  0
LINE
  8
0
 62
7
  6
CONTINUOUS
 10
12.8492874206
 20
20.5352149982
 11
23.6575567857
 21
24.0470345971
  0
LINE
  8
0
 62
7
  6
CONTINUOUS
 10
23.6533516486
 20
13.6972460334
 11
15.2078919798
 21
21.3015720751
  0
LINE
  8
0
 62
7
  6
CONTINUOUS
 10
24.1731743684
 20
26.4728246013
 11
23.1966148312
 21
21.8784731989
  0
LINE
  8
0
 62
7
  6
CONTINUOUS
 10
22.4968128835
 20
18.5861638851
 11
21.810364672
 21
15.3566789607
  0
LINE
  8
0
 62
7
  6
CONTINUOUS
 10
24.8542704669
 20
14.087448211
 11
25.8105020025
 21
18.5861638851
  0
LINE
  8
0
 62
7
  6
CONTINUOUS
 10
26.5103039502
 20
21.8784731989
 11
26.9545457526
 21
23.9684665583
  0
LINE
  8
0
 62
7
  6
CONTINUOUS
 10
20.8069293463
 20
12.3891124661
 11
24.3664527239
 21
13.5456717207
  0
LINE
  8
0
 62
7
  6
CONTINUOUS
 10
23.9478910361
 20
27.1661754044
 11
26.7292624203
 21
24.6618173613
  0
ARC
  8
0
 62
7
  6
CONTINUOUS
 10
13.8527227462
 20
23.5027814928
 40
0.7290321776
 50
108.0
 51
168.0
  0
ARC
  8
0
 62
7
  6
CONTINUOUS
 10
23.4600732931
 20
26.624398914
 40
0.7290321776
 50
348.0
 51
108.0
  0
ARC
  8
0
 62
7
  6
CONTINUOUS
 10
26.2414446773
 20
24.120040871
 40
0.7290321776
 50
348.0
 51
48.0
  0
ARC
  8
0
 62
7
  6
CONTINUOUS
 10
20.581646014
 20
13.0824632691
 40
0.7290321776
 50
228.0
 51
288.0
  0
ARC
  8
0
 62
7
  6
CONTINUOUS
 10
13.0745707529
 20
19.8418641951
 40
0.7290321776
 50
108.0
 51
228.0
  0
ARC
  8
0
 62
7
  6
CONTINUOUS
 10
24.1411693916
 20
14.2390225237
 40
0.7290321776
 50
228.0
 51
348.0
  0
ENDBLK
  8
0
  6
BYBLOCK
 62
0
  0
ENDSEC
  0
SECTION
  2
ENTITIES
  0
TEXT
  8
0
 62
5
  6
CONTINUOUS
 10
96.0
 20
25.636
  7
TEXTSTYLE_2
 40
2.8
  1
Scale :
 41
0.6
 51
0.000019
 72
0
  0
TEXT
  8
0
 62
5
  6
CONTINUOUS
 10
116.0
 20
25.636
  7
TEXTSTYLE_2
 40
2.8
  1
Belt type:
 41
0.6
 51
0.000019
 72
0
  0
INSERT
  8
0
 62
2
  6
CONTINUOUS
  2
SYMBOL_3_BL0
 10
32.1213064866
 20
19.8534310916
  0
INSERT
  8
0
 62
2
  6
CONTINUOUS
  2
SYMBOL_8_BL1
 10
173.5956734183
 20
35.5937998301
  0
LINE
  8
0
 62
2
  6
CONTINUOUS
 10
10.0
 20
30.0
 11
200.0
 21
30.0
  0
LINE
  8
0
 62
2
  6
CONTINUOUS
 10
10.0
 20
30.0
 11
10.0
 21
10.0
  0
LINE
  8
0
 62
2
  6
CONTINUOUS
 10
10.0
 20
10.0
 11
200.0
 21
10.0
  0
LINE
  8
0
 62
2
  6
CONTINUOUS
 10
95.0
 20
30.0
 11
95.0
 21
10.0
  0
LINE
  8
0
 62
2
  6
CONTINUOUS
 10
115.0
 20
30.0
 11
115.0
 21
10.0
  0
LINE
  8
0
 62
2
  6
CONTINUOUS
 10
200.0
 20
30.0
 11
200.0
 21
10.0
  0
TEXT
  8
0
 62
5
  6
CONTINUOUS
 10
13.0
 20
23.303
  7
TEXTSTYLE_5
 40
1.52
  1
                                                                     Ammeraal Beltech Modular A/S
 41
1.0
 72
0
  0
TEXT
  8
0
 62
5
  6
CONTINUOUS
 10
13.0
 20
20.595
  7
TEXTSTYLE_5
 40
1.5
  1
                                                                      Hjulmagervej 21,  7100 Vejle,  DK
 41
1.0
 72
0
  0
TEXT
  8
0
 62
5
  6
CONTINUOUS
 10
13.0
 20
17.881
  7
TEXTSTYLE_5
 40
1.495
  1
                                                                      tel: 
 41
1.0
 72
0
  0
TEXT
  8
0
 62
5
  6
CONTINUOUS
 10
57.9869465649
 20
17.881
  7
TEXTSTYLE_5
 40
1.51
  1
+45 75723100     fax: +45 75723348
 41
1.0
 72
0
  0
TEXT
  8
0
 62
5
  6
CONTINUOUS
 10
13.0
 20
15.177
  7
TEXTSTYLE_5
 40
1.5
  1
                                                                      admin@unichains.dk  www.unichains.com
 41
1.0
 72
0
  0
TEXT
  8
0
 62
5
  6
CONTINUOUS
 10
99.75
 20
13.75
  7
TEXTSTYLE_6
 40
5.0
  1
1:1
 41
0.7
 72
1
 11
105.0
 21
13.75
  0
TEXT
  8
0
 62
5
  6
CONTINUOUS
 10
118.0
 20
13.75
  7
TEXTSTYLE_7
 40
7.5
  1
uni QNB C K200
 41
0.621875
 72
0
  0
LINE
  8
0
 62
7
  6
CONTINUOUS
 10
210.0
 20
0.0
 11
0.0
 21
0.0
  0
LINE
  8
0
 62
7
  6
CONTINUOUS
 10
10.0
 20
10.0
 11
200.0
 21
10.0
  0
LINE
  8
0
 62
7
  6
CONTINUOUS
 10
10.0
 20
30.0
 11
200.0
 21
30.0
  0
LINE
  8
0
 62
7
  6
CONTINUOUS
 10
0.0
 20
0.0
 11
0.0
 21
297.0
  0
LINE
  8
0
 62
7
  6
CONTINUOUS
 10
10.0
 20
10.0
 11
10.0
 21
287.0
  0
LINE
  8
0
 62
7
  6
CONTINUOUS
 10
200.0
 20
287.0
 11
200.0
 21
10.0
  0
LINE
  8
0
 62
7
  6
CONTINUOUS
 10
210.0
 20
0.0
 11
210.0
 21
297.0
  0
LINE
  8
0
 62
7
  6
CONTINUOUS
 10
10.0
 20
287.0
 11
200.0
 21
287.0
  0
LINE
  8
0
 62
7
  6
CONTINUOUS
 10
0.0
 20
297.0
 11
210.0
 21
297.0
  0
LINE
  8
2_FEATURE
 62
2
  6
CONTINUOUS
 10
51.3011637931
 20
114.4155949212
 11
51.3011637931
 21
116.3363793103
  0
LINE
  8
2_FEATURE
 62
2
  6
CONTINUOUS
 10
51.3011637931
 20
126.8963793103
 11
51.3011637931
 21
128.8171636591
  0
LINE
  8
0
 62
7
  6
CONTINUOUS
 10
51.3011637931
 20
112.7139191157
 11
51.3011637931
 21
138.3163761773
  0
POLYLINE
  8
0
 62
7
  6
CONTINUOUS
 66
1
 70
0
  0
VERTEX
  8
0
 62
7
  6
CONTINUOUS
 10
57.6434494613
 20
105.1632136973
  0
VERTEX
  8
0
 62
7
  6
CONTINUOUS
 10
57.6458642457
 20
105.1129605846
  0
VERTEX
  8
0
 62
7
  6
CONTINUOUS
 10
57.6482921772
 20
105.0678664391
  0
VERTEX
  8
0
 62
7
  6
CONTINUOUS
 10
57.65074496
 20
105.0275601566
  0
VERTEX
  8
0
 62
7
  6
CONTINUOUS
 10
57.6532451377
 20
104.9915989918
  0
VERTEX
  8
0
 62
7
  6
CONTINUOUS
 10
57.6558385189
 20
104.9594010623
  0
VERTEX
  8
0
 62
7
  6
CONTINUOUS
 10
57.6586193002
 20
104.9301468218
  0
VERTEX
  8
0
 62
7
  6
CONTINUOUS
 10
57.6618248343
 20
104.902318626
  0
VERTEX
  8
0
 62
7
  6
CONTINUOUS
 10
57.665950399
 20
104.8738726323
  0
VERTEX
  8
0
 62
7
  6
CONTINUOUS
 10
57.6720875655
 20
104.8418842147
  0
VERTEX
  8
0
 62
7
  6
CONTINUOUS
 10
57.6834008779
 20
104.7999555144
  0
VERTEX
  8
0
 62
7
  6
CONTINUOUS
 10
57.7080446219
 20
104.7394840605
  0
VERTEX
  8
0
 62
7
  6
CONTINUOUS
 10
57.7533570666
 20
104.6684570863
  0
VERTEX
  8
0
 62
7
  6
CONTINUOUS
 10
57.8199726453
 20
104.6022038371
  0
VERTEX
  8
0
 62
7
  6
CONTINUOUS
 10
57.9064898622
 20
104.5503299005
  0
VERTEX
  8
0
 62
7
  6
CONTINUOUS
 10
58.0136654742
 20
104.5200790808
  0
VERTEX
  8
0
 62
7
  6
CONTINUOUS
 10
58.0680305922
 20
104.5163793185
  0
SEQEND
  0
POLYLINE
  8
0
 62
7
  6
CONTINUOUS
 66
1
 70
0
  0
VERTEX
  8
0
 62
7
  6
CONTINUOUS
 10
57.2888780751
 20
138.0695458726
  0
VERTEX
  8
0
 62
7
  6
CONTINUOUS
 10
57.2864632951
 20
138.1197988202
  0
VERTEX
  8
0
 62
7
  6
CONTINUOUS
 10
57.2840353627
 20
138.1648931377
  0
VERTEX
  8
0
 62
7
  6
CONTINUOUS
 10
57.2815825695
 20
138.2051994551
  0
VERTEX
  8
0
 62
7
  6
CONTINUOUS
 10
57.2790823832
 20
138.2411604586
  0
VERTEX
  8
0
 62
7
  6
CONTINUOUS
 10
57.2764890055
 20
138.2733581082
  0
VERTEX
  8
0
 62
7
  6
CONTINUOUS
 10
57.2737082692
 20
138.3026118943
  0
VERTEX
  8
0
 62
7
  6
CONTINUOUS
 10
57.2705027072
 20
138.3304404911
  0
VERTEX
  8
0
 62
7
  6
CONTINUOUS
 10
57.2663770223
 20
138.3588871147
  0
VERTEX
  8
0
 62
7
  6
CONTINUOUS
 10
57.2602396136
 20
138.3908762324
  0
VERTEX
  8
0
 62
7
  6
CONTINUOUS
 10
57.2489258664
 20
138.4328056075
  0
VERTEX
  8
0
 62
7
  6
CONTINUOUS
 10
57.2242818352
 20
138.4932766481
  0
VERTEX
  8
0
 62
7
  6
CONTINUOUS
 10
57.1789696156
 20
138.5643025229
  0
VERTEX
  8
0
 62
7
  6
CONTINUOUS
 10
57.1123543607
 20
138.630555125
  0
VERTEX
  8
0
 62
7
  6
CONTINUOUS
 10
57.0258373785
 20
138.6824287985
  0
VERTEX
  8
0
 62
7
  6
CONTINUOUS
 10
56.9186620126
 20
138.7126795279
  0
VERTEX
  8
0
 62
7
  6
CONTINUOUS
 10
56.8642966328
 20
138.7163793022
  0
SEQEND
  0
LINE
  8
0
 62
7
  6
CONTINUOUS
 10
57.6386392117
 20
105.2804892357
 11
57.6434494613
 21
105.1632136973
  0
LINE
  8
0
 62
7
  6
CONTINUOUS
 10
57.2936883299
 20
137.9522707561
 11
57.2888780751
 21
138.0695458726
  0
LINE
  8
0
 62
7
  6
CONTINUOUS
 10
57.6338558729
 20
105.4219850006
 11
57.6386392117
 21
105.2804892357
  0
LINE
  8
0
 62
7
  6
CONTINUOUS
 10
57.2984716688
 20
137.8107748846
 11
57.2936883299
 21
137.9522707561
  0
LINE
  8
0
 62
7
  6
CONTINUOUS
 10
57.6291267996
 20
105.5895418346
 11
57.6338558729
 21
105.4219850006
  0
LINE
  8
0
 62
7
  6
CONTINUOUS
 10
57.3032007475
 20
137.6432184746
 11
57.2984716688
 21
137.8107748846
  0
LINE
  8
0
 62
7
  6
CONTINUOUS
 10
57.6222348591
 20
105.89283815
 11
57.6291267996
 21
105.5895418346
  0
LINE
  8
0
 62
7
  6
CONTINUOUS
 10
57.3100926917
 20
137.3399222515
 11
57.3032007475
 21
137.6432184746
  0
LINE
  8
0
 62
7
  6
CONTINUOUS
 10
57.6157633008
 20
106.2609690564
 11
57.6222348591
 21
105.89283815
  0
LINE
  8
0
 62
7
  6
CONTINUOUS
 10
57.3165642543
 20
136.9717913884
 11
57.3100926917
 21
137.3399222515
  0
LINE
  8
0
 62
7
  6
CONTINUOUS
 10
57.608193982
 20
106.8527476437
 11
57.6157633008
 21
106.2609690564
  0
LINE
  8
0
 62
7
  6
CONTINUOUS
 10
57.3241335792
 20
136.3800133431
 11
57.3165642543
 21
136.9717913884
  0
LINE
  8
0
 62
7
  6
CONTINUOUS
 10
57.3310507961
 20
135.4905338783
 11
57.3241335792
 21
136.3800133431
  0
LINE
  8
0
 62
7
  6
CONTINUOUS
 10
57.6012767572
 20
107.7422311132
 11
57.608193982
 21
106.8527476437
  0
LINE
  8
0
 62
7
  6
CONTINUOUS
 10
57.3340688507
 20
134.4705442099
 11
57.3310507961
 21
135.4905338783
  0
LINE
  8
0
 62
7
  6
CONTINUOUS
 10
57.5982587385
 20
108.7622159886
 11
57.6012767572
 21
107.7422311132
  0
LINE
  8
0
 62
7
  6
CONTINUOUS
 10
57.3341208359
 20
132.4532004924
 11
57.3340688507
 21
134.4705442099
  0
LINE
  8
0
 62
7
  6
CONTINUOUS
 10
57.5982067503
 20
110.7795581283
 11
57.5982587385
 21
108.7622159886
  0
POLYLINE
  8
0
 62
7
  6
CONTINUOUS
 66
1
 70
0
  0
VERTEX
  8
0
 62
7
  6
CONTINUOUS
 10
88.6142970188
 20
104.5163793184
  0
VERTEX
  8
0
 62
7
  6
CONTINUOUS
 10
88.6674346449
 20
104.5199131557
  0
VERTEX
  8
0
 62
7
  6
CONTINUOUS
 10
88.7752769078
 20
104.5500838218
  0
VERTEX
  8
0
 62
7
  6
CONTINUOUS
 10
88.8629923554
 20
104.6027056041
  0
VERTEX
  8
0
 62
7
  6
CONTINUOUS
 10
88.9301294257
 20
104.669922104
  0
VERTEX
  8
0
 62
7
  6
CONTINUOUS
 10
88.974980189
 20
104.7408809105
  0
VERTEX
  8
0
 62
7
  6
CONTINUOUS
 10
88.9990757429
 20
104.8004204163
  0
VERTEX
  8
0
 62
7
  6
CONTINUOUS
 10
89.0103070531
 20
104.8421862521
  0
VERTEX
  8
0
 62
7
  6
CONTINUOUS
 10
89.0162223402
 20
104.8729347637
  0
VERTEX
  8
0
 62
7
  6
CONTINUOUS
 10
89.0201405332
 20
104.8995206441
  0
VERTEX
  8
0
 62
7
  6
CONTINUOUS
 10
89.0232381041
 20
104.9256945874
  0
VERTEX
  8
0
 62
7
  6
CONTINUOUS
 10
89.025960024
 20
104.9534330214
  0
VERTEX
  8
0
 62
7
  6
CONTINUOUS
 10
89.0284962114
 20
104.9838801632
  0
VERTEX
  8
0
 62
7
  6
CONTINUOUS
 10
89.0309328989
 20
105.0177301976
  0
VERTEX
  8
0
 62
7
  6
CONTINUOUS
 10
89.0333103811
 20
105.0554158842
  0
VERTEX
  8
0
 62
7
  6
CONTINUOUS
 10
89.0356591109
 20
105.0974334329
  0
VERTEX
  8
0
 62
7
  6
CONTINUOUS
 10
89.0379955332
 20
105.1442047455
  0
VERTEX
  8
0
 62
7
  6
CONTINUOUS
 10
89.0403281412
 20
105.1960916803
  0
VERTEX
  8
0
 62
7
  6
CONTINUOUS
 10
89.0449957522
 20
105.3165732496
  0
SEQEND
  0
POLYLINE
  8
0
 62
7
  6
CONTINUOUS
 66
1
 70
0
  0
VERTEX
  8
0
 62
7
  6
CONTINUOUS
 10
75.9142970083
 20
104.5163793184
  0
VERTEX
  8
0
 62
7
  6
CONTINUOUS
 10
75.9670276782
 20
104.5198589946
  0
VERTEX
  8
0
 62
7
  6
CONTINUOUS
 10
76.0753582528
 20
104.5501194517
  0
VERTEX
  8
0
 62
7
  6
CONTINUOUS
 10
76.1637591937
 20
104.6033120171
  0
VERTEX
  8
0
 62
7
  6
CONTINUOUS
 10
76.2311568879
 20
104.6712326632
  0
VERTEX
  8
0
 62
7
  6
CONTINUOUS
 10
76.2756514928
 20
104.742238431
  0
VERTEX
  8
0
 62
7
  6
CONTINUOUS
 10
76.2992764479
 20
104.8010493029
  0
VERTEX
  8
0
 62
7
  6
CONTINUOUS
 10
76.3103431646
 20
104.8423493182
  0
VERTEX
  8
0
 62
7
  6
CONTINUOUS
 10
76.3162580154
 20
104.8731501141
  0
VERTEX
  8
0
 62
7
  6
CONTINUOUS
 10
76.3202333382
 20
104.9002313852
  0
VERTEX
  8
0
 62
7
  6
CONTINUOUS
 10
76.3234087862
 20
104.9272951618
  0
VERTEX
  8
0
 62
7
  6
CONTINUOUS
 10
76.326219316
 20
104.9563335351
  0
VERTEX
  8
0
 62
7
  6
CONTINUOUS
 10
76.3288539471
 20
104.9885589871
  0
VERTEX
  8
0
 62
7
  6
CONTINUOUS
 10
76.3314093977
 20
105.0249053716
  0
VERTEX
  8
0
 62
7
  6
CONTINUOUS
 10
76.3339289145
 20
105.0660089507
  0
VERTEX
  8
0
 62
7
  6
CONTINUOUS
 10
76.3364317757
 20
105.112339961
  0
VERTEX
  8
0
 62
7
  6
CONTINUOUS
 10
76.3389268138
 20
105.1642842213
  0
VERTEX
  8
0
 62
7
  6
CONTINUOUS
 10
76.341419122
 20
105.2222126526
  0
VERTEX
  8
0
 62
7
  6
CONTINUOUS
 10
76.3463952297
 20
105.357318397
  0
SEQEND
  0
POLYLINE
  8
0
 62
7
  6
CONTINUOUS
 66
1
 70
0
  0
VERTEX
  8
0
 62
7
  6
CONTINUOUS
 10
63.2142970839
 20
104.5163793182
  0
VERTEX
  8
0
 62
7
  6
CONTINUOUS
 10
63.2668238167
 20
104.519832023
  0
VERTEX
  8
0
 62
7
  6
CONTINUOUS
 10
63.3742782696
 20
104.5496481539
  0
VERTEX
  8
0
 62
7
  6
CONTINUOUS
 10
63.4618284359
 20
104.601790943
  0
VERTEX
  8
0
 62
7
  6
CONTINUOUS
 10
63.529007741
 20
104.6685039241
  0
VERTEX
  8
0
 62
7
  6
CONTINUOUS
 10
63.5741345859
 20
104.7391884865
  0
VERTEX
  8
0
 62
7
  6
CONTINUOUS
 10
63.5985871107
 20
104.7989026981
  0
VERTEX
  8
0
 62
7
  6
CONTINUOUS
 10
63.6100318468
 20
104.8409516039
  0
VERTEX
  8
0
 62
7
  6
CONTINUOUS
 10
63.616041991
 20
104.8718526701
  0
VERTEX
  8
0
 62
7
  6
CONTINUOUS
 10
63.6200014169
 20
104.8984630426
  0
VERTEX
  8
0
 62
7
  6
CONTINUOUS
 10
63.6231194322
 20
104.9245921296
  0
VERTEX
  8
0
 62
7
  6
CONTINUOUS
 10
63.6258531612
 20
104.9522512164
  0
VERTEX
  8
0
 62
7
  6
CONTINUOUS
 10
63.6283971619
 20
104.9826019456
  0
VERTEX
  8
0
 62
7
  6
CONTINUOUS
 10
63.6308395305
 20
105.0163459925
  0
VERTEX
  8
0
 62
7
  6
CONTINUOUS
 10
63.6332244011
 20
105.0539696212
  0
VERTEX
  8
0
 62
7
  6
CONTINUOUS
 10
63.6355838222
 20
105.0960101014
  0
VERTEX
  8
0
 62
7
  6
CONTINUOUS
 10
63.6379330865
 20
105.1428880737
  0
VERTEX
  8
0
 62
7
  6
CONTINUOUS
 10
63.6402801967
 20
105.1949712932
  0
VERTEX
  8
0
 62
7
  6
CONTINUOUS
 10
63.644979613
 20
105.3161162886
  0
SEQEND
  0
LINE
  8
2_FEATURE
 62
7
  6
CONTINUOUS
 10
58.0680270127
 20
104.5163793103
 11
63.2143029806
 21
104.5163793103
  0
LINE
  8
2_FEATURE
 62
7
  6
CONTINUOUS
 10
70.7680270127
 20
104.5163793103
 11
75.9143005736
 21
104.5163793103
  0
LINE
  8
2_FEATURE
 62
7
  6
CONTINUOUS
 10
83.4680270127
 20
104.5163793103
 11
88.6142991767
 21
104.5163793103
  0
LINE
  8
2_FEATURE
 62
7
  6
CONTINUOUS
 10
96.1680270127
 20
104.5163793103
 11
101.3311637931
 21
104.5163793103
  0
POLYLINE
  8
0
 62
7
  6
CONTINUOUS
 66
1
 70
0
  0
VERTEX
  8
0
 62
7
  6
CONTINUOUS
 10
51.6685377346
 20
112.3152520427
  0
VERTEX
  8
0
 62
7
  6
CONTINUOUS
 10
51.552630002
 20
112.3425195803
  0
VERTEX
  8
0
 62
7
  6
CONTINUOUS
 10
51.4507044608
 20
112.402037663
  0
VERTEX
  8
0
 62
7
  6
CONTINUOUS
 10
51.37043372
 20
112.488935651
  0
VERTEX
  8
0
 62
7
  6
CONTINUOUS
 10
51.3190429582
 20
112.5956666894
  0
VERTEX
  8
0
 62
7
  6
CONTINUOUS
 10
51.3011637931
 20
112.7139192475
  0
SEQEND
  0
LINE
  8
0
 62
7
  6
CONTINUOUS
 10
63.6818061608
 20
107.8940508922
 11
63.6841208359
 21
110.7795581289
  0
LINE
  8
0
 62
7
  6
CONTINUOUS
 10
63.9505410345
 20
135.3429559517
 11
63.9482067503
 21
132.4532004918
  0
POLYLINE
  8
0
 62
7
  6
CONTINUOUS
 66
1
 70
0
  0
VERTEX
  8
0
 62
7
  6
CONTINUOUS
 10
63.6841203197
 20
110.7795581289
  0
VERTEX
  8
0
 62
7
  6
CONTINUOUS
 10
63.6847735298
 20
110.851078094
  0
VERTEX
  8
0
 62
7
  6
CONTINUOUS
 10
63.6873633828
 20
110.9351017101
  0
VERTEX
  8
0
 62
7
  6
CONTINUOUS
 10
63.6919810261
 20
111.0162632584
  0
VERTEX
  8
0
 62
7
  6
CONTINUOUS
 10
63.6986784008
 20
111.094564646
  0
VERTEX
  8
0
 62
7
  6
CONTINUOUS
 10
63.7075040462
 20
111.1699621946
  0
VERTEX
  8
0
 62
7
  6
CONTINUOUS
 10
63.7185021105
 20
111.2425067025
  0
VERTEX
  8
0
 62
7
  6
CONTINUOUS
 10
63.7317261163
 20
111.3122150858
  0
VERTEX
  8
0
 62
7
  6
CONTINUOUS
 10
63.7472259342
 20
111.3790151501
  0
VERTEX
  8
0
 62
7
  6
CONTINUOUS
 10
63.7650190757
 20
111.4427448569
  0
VERTEX
  8
0
 62
7
  6
CONTINUOUS
 10
63.78501384
 20
111.5029078821
  0
VERTEX
  8
0
 62
7
  6
CONTINUOUS
 10
63.8069434556
 20
111.5587920223
  0
VERTEX
  8
0
 62
7
  6
CONTINUOUS
 10
63.830431991
 20
111.6097927609
  0
VERTEX
  8
0
 62
7
  6
CONTINUOUS
 10
63.855556249
 20
111.6563680664
  0
VERTEX
  8
0
 62
7
  6
CONTINUOUS
 10
63.8821289003
 20
111.6983189727
  0
VERTEX
  8
0
 62
7
  6
CONTINUOUS
 10
63.910766364
 20
111.736462755
  0
VERTEX
  8
0
 62
7
  6
CONTINUOUS
 10
63.9423391765
 20
111.7710925286
  0
VERTEX
  8
0
 62
7
  6
CONTINUOUS
 10
63.9768080758
 20
111.8008691302
  0
VERTEX
  8
0
 62
7
  6
CONTINUOUS
 10
64.0148468924
 20
111.8242894366
  0
VERTEX
  8
0
 62
7
  6
CONTINUOUS
 10
64.0547644038
 20
111.8374569371
  0
VERTEX
  8
0
 62
7
  6
CONTINUOUS
 10
64.0734982681
 20
111.8390294596
  0
SEQEND
  0
LINE
  8
0
 62
7
  6
CONTINUOUS
 10
63.67516287
 20
106.9542651814
 11
63.6818061608
 21
107.8940508922
  0
LINE
  8
0
 62
7
  6
CONTINUOUS
 10
63.9572235295
 20
136.2844828442
 11
63.9505410345
 21
135.3429559517
  0
POLYLINE
  8
0
 62
7
  6
CONTINUOUS
 66
1
 70
0
  0
VERTEX
  8
0
 62
7
  6
CONTINUOUS
 10
63.9482072665
 20
132.4532004918
  0
VERTEX
  8
0
 62
7
  6
CONTINUOUS
 10
63.9475540564
 20
132.3816805267
  0
VERTEX
  8
0
 62
7
  6
CONTINUOUS
 10
63.9449642034
 20
132.2976569106
  0
VERTEX
  8
0
 62
7
  6
CONTINUOUS
 10
63.9403465601
 20
132.2164953623
  0
VERTEX
  8
0
 62
7
  6
CONTINUOUS
 10
63.9336491854
 20
132.1381939747
  0
VERTEX
  8
0
 62
7
  6
CONTINUOUS
 10
63.9248235401
 20
132.0627964261
  0
VERTEX
  8
0
 62
7
  6
CONTINUOUS
 10
63.9138254757
 20
131.9902519182
  0
VERTEX
  8
0
 62
7
  6
CONTINUOUS
 10
63.9006014699
 20
131.9205435348
  0
VERTEX
  8
0
 62
7
  6
CONTINUOUS
 10
63.885101652
 20
131.8537434706
  0
VERTEX
  8
0
 62
7
  6
CONTINUOUS
 10
63.8673085105
 20
131.7900137638
  0
VERTEX
  8
0
 62
7
  6
CONTINUOUS
 10
63.8473137462
 20
131.7298507385
  0
VERTEX
  8
0
 62
7
  6
CONTINUOUS
 10
63.8253841306
 20
131.6739665984
  0
VERTEX
  8
0
 62
7
  6
CONTINUOUS
 10
63.8018955952
 20
131.6229658598
  0
VERTEX
  8
0
 62
7
  6
CONTINUOUS
 10
63.7767713372
 20
131.5763905543
  0
VERTEX
  8
0
 62
7
  6
CONTINUOUS
 10
63.7501986859
 20
131.5344396479
  0
VERTEX
  8
0
 62
7
  6
CONTINUOUS
 10
63.7215612222
 20
131.4962958657
  0
VERTEX
  8
0
 62
7
  6
CONTINUOUS
 10
63.6899884097
 20
131.4616660921
  0
VERTEX
  8
0
 62
7
  6
CONTINUOUS
 10
63.6555195104
 20
131.4318894905
  0
VERTEX
  8
0
 62
7
  6
CONTINUOUS
 10
63.6174806938
 20
131.4084691841
  0
VERTEX
  8
0
 62
7
  6
CONTINUOUS
 10
63.5775631824
 20
131.3953016835
  0
VERTEX
  8
0
 62
7
  6
CONTINUOUS
 10
63.5588293181
 20
131.3937291611
  0
SEQEND
  0
LINE
  8
0
 62
7
  6
CONTINUOUS
 10
63.9647609634
 20
136.9053784809
 11
63.9572235295
 21
136.2844828442
  0
LINE
  8
0
 62
7
  6
CONTINUOUS
 10
63.6676445796
 20
106.3326699104
 11
63.67516287
 21
106.9542651814
  0
LINE
  8
0
 62
7
  6
CONTINUOUS
 10
63.9712078047
 20
137.287621582
 11
63.9647609634
 21
136.9053784809
  0
LINE
  8
0
 62
7
  6
CONTINUOUS
 10
63.6611914966
 20
105.9488666818
 11
63.6676445796
 21
106.3326699104
  0
LINE
  8
0
 62
7
  6
CONTINUOUS
 10
63.6543489178
 20
105.6348434584
 11
63.6611914966
 21
105.9488666818
  0
LINE
  8
0
 62
7
  6
CONTINUOUS
 10
63.9780220743
 20
137.5996631158
 11
63.9712078047
 21
137.287621582
  0
LINE
  8
0
 62
7
  6
CONTINUOUS
 10
63.982664033
 20
137.7712877094
 11
63.9780220743
 21
137.5996631158
  0
LINE
  8
0
 62
7
  6
CONTINUOUS
 10
63.6496792627
 20
105.462003143
 11
63.6543489178
 21
105.6348434584
  0
LINE
  8
0
 62
7
  6
CONTINUOUS
 10
63.9873321169
 20
137.9161935229
 11
63.982664033
 21
137.7712877094
  0
LINE
  8
0
 62
7
  6
CONTINUOUS
 10
63.644979613
 20
105.3161162886
 11
63.6496792627
 21
105.462003143
  0
LINE
  8
DEFAULT_1
 62
2
  6
CENTER
 10
55.6225264468
 20
108.9163793103
 11
103.7311637931
 21
108.9163793103
  0
POLYLINE
  8
0
 62
7
  6
CONTINUOUS
 66
1
 70
0
  0
VERTEX
  8
0
 62
7
  6
CONTINUOUS
 10
56.7767075239
 20
111.8412315963
  0
VERTEX
  8
0
 62
7
  6
CONTINUOUS
 10
56.8087095192
 20
111.839151849
  0
VERTEX
  8
0
 62
7
  6
CONTINUOUS
 10
56.8186281703
 20
111.8390288555
  0
SEQEND
  0
POLYLINE
  8
0
 62
7
  6
CONTINUOUS
 66
1
 70
0
  0
VERTEX
  8
0
 62
7
  6
CONTINUOUS
 10
51.6685377201
 20
112.3152520357
  0
VERTEX
  8
0
 62
7
  6
CONTINUOUS
 10
53.468407057
 20
112.1615697399
  0
VERTEX
  8
0
 62
7
  6
CONTINUOUS
 10
55.2120039466
 20
111.9994328512
  0
VERTEX
  8
0
 62
7
  6
CONTINUOUS
 10
56.7767080079
 20
111.8412344183
  0
SEQEND
  0
POLYLINE
  8
0
 62
7
  6
CONTINUOUS
 66
1
 70
0
  0
VERTEX
  8
0
 62
7
  6
CONTINUOUS
 10
57.2088265025
 20
111.8390302766
  0
VERTEX
  8
0
 62
7
  6
CONTINUOUS
 10
57.2291498536
 20
111.8371800667
  0
VERTEX
  8
0
 62
7
  6
CONTINUOUS
 10
57.268921564
 20
111.8235861094
  0
VERTEX
  8
0
 62
7
  6
CONTINUOUS
 10
57.3067586732
 20
111.7999395743
  0
VERTEX
  8
0
 62
7
  6
CONTINUOUS
 10
57.3410328833
 20
111.7700625968
  0
VERTEX
  8
0
 62
7
  6
CONTINUOUS
 10
57.3724660522
 20
111.7353596885
  0
VERTEX
  8
0
 62
7
  6
CONTINUOUS
 10
57.4010092151
 20
111.6971379449
  0
VERTEX
  8
0
 62
7
  6
CONTINUOUS
 10
57.4274852225
 20
111.6551435488
  0
VERTEX
  8
0
 62
7
  6
CONTINUOUS
 10
57.4525219206
 20
111.6085336744
  0
VERTEX
  8
0
 62
7
  6
CONTINUOUS
 10
57.4759422393
 20
111.5574778224
  0
VERTEX
  8
0
 62
7
  6
CONTINUOUS
 10
57.4978093194
 20
111.5015343778
  0
VERTEX
  8
0
 62
7
  6
CONTINUOUS
 10
57.5177410492
 20
111.4413234967
  0
VERTEX
  8
0
 62
7
  6
CONTINUOUS
 10
57.5354712721
 20
111.3775622257
  0
VERTEX
  8
0
 62
7
  6
CONTINUOUS
 10
57.5509079276
 20
111.310754501
  0
VERTEX
  8
0
 62
7
  6
CONTINUOUS
 10
57.5640711826
 20
111.2410589422
  0
VERTEX
  8
0
 62
7
  6
CONTINUOUS
 10
57.5750135089
 20
111.168540236
  0
VERTEX
  8
0
 62
7
  6
CONTINUOUS
 10
57.5837891563
 20
111.0931735293
  0
VERTEX
  8
0
 62
7
  6
CONTINUOUS
 10
57.5904428121
 20
111.0148995148
  0
VERTEX
  8
0
 62
7
  6
CONTINUOUS
 10
57.5950226557
 20
110.9337527404
  0
VERTEX
  8
0
 62
7
  6
CONTINUOUS
 10
57.5975790924
 20
110.849722721
  0
VERTEX
  8
0
 62
7
  6
CONTINUOUS
 10
57.5982072577
 20
110.7795581281
  0
SEQEND
  0
POLYLINE
  8
0
 62
7
  6
CONTINUOUS
 66
1
 70
0
  0
VERTEX
  8
0
 62
7
  6
CONTINUOUS
 10
69.9088265025
 20
111.8390302766
  0
VERTEX
  8
0
 62
7
  6
CONTINUOUS
 10
69.9291498536
 20
111.8371800667
  0
VERTEX
  8
0
 62
7
  6
CONTINUOUS
 10
69.968921564
 20
111.8235861094
  0
VERTEX
  8
0
 62
7
  6
CONTINUOUS
 10
70.0067586732
 20
111.7999395743
  0
VERTEX
  8
0
 62
7
  6
CONTINUOUS
 10
70.0410328833
 20
111.7700625968
  0
VERTEX
  8
0
 62
7
  6
CONTINUOUS
 10
70.0724660522
 20
111.7353596885
  0
VERTEX
  8
0
 62
7
  6
CONTINUOUS
 10
70.1010092151
 20
111.6971379449
  0
VERTEX
  8
0
 62
7
  6
CONTINUOUS
 10
70.1274852225
 20
111.6551435488
  0
VERTEX
  8
0
 62
7
  6
CONTINUOUS
 10
70.1525219206
 20
111.6085336744
  0
VERTEX
  8
0
 62
7
  6
CONTINUOUS
 10
70.1759422393
 20
111.5574778224
  0
VERTEX
  8
0
 62
7
  6
CONTINUOUS
 10
70.1978093194
 20
111.5015343778
  0
VERTEX
  8
0
 62
7
  6
CONTINUOUS
 10
70.2177410492
 20
111.4413234967
  0
VERTEX
  8
0
 62
7
  6
CONTINUOUS
 10
70.2354712721
 20
111.3775622257
  0
VERTEX
  8
0
 62
7
  6
CONTINUOUS
 10
70.2509079276
 20
111.310754501
  0
VERTEX
  8
0
 62
7
  6
CONTINUOUS
 10
70.2640711826
 20
111.2410589422
  0
VERTEX
  8
0
 62
7
  6
CONTINUOUS
 10
70.2750135089
 20
111.168540236
  0
VERTEX
  8
0
 62
7
  6
CONTINUOUS
 10
70.2837891563
 20
111.0931735293
  0
VERTEX
  8
0
 62
7
  6
CONTINUOUS
 10
70.2904428121
 20
111.0148995148
  0
VERTEX
  8
0
 62
7
  6
CONTINUOUS
 10
70.2950226557
 20
110.9337527404
  0
VERTEX
  8
0
 62
7
  6
CONTINUOUS
 10
70.2975790924
 20
110.849722721
  0
VERTEX
  8
0
 62
7
  6
CONTINUOUS
 10
70.2982072577
 20
110.7795581281
  0
SEQEND
  0
LINE
  8
0
 62
7
  6
CONTINUOUS
 10
56.8186281703
 20
111.8390288555
 11
57.2088264618
 21
111.8390288555
  0
LINE
  8
0
 62
7
  6
CONTINUOUS
 10
64.0734982913
 20
111.8390288555
 11
69.9088264618
 21
111.8390288555
  0
LINE
  8
0
 62
7
  6
CONTINUOUS
 10
76.7734982913
 20
111.8390288555
 11
82.6088264618
 21
111.8390288555
  0
LINE
  8
0
 62
7
  6
CONTINUOUS
 10
89.4734982913
 20
111.8390288555
 11
95.3088264618
 21
111.8390288555
  0
POLYLINE
  8
0
 62
7
  6
CONTINUOUS
 66
1
 70
0
  0
VERTEX
  8
0
 62
7
  6
CONTINUOUS
 10
82.6088265025
 20
111.8390302766
  0
VERTEX
  8
0
 62
7
  6
CONTINUOUS
 10
82.6291498536
 20
111.8371800667
  0
VERTEX
  8
0
 62
7
  6
CONTINUOUS
 10
82.668921564
 20
111.8235861094
  0
VERTEX
  8
0
 62
7
  6
CONTINUOUS
 10
82.7067586732
 20
111.7999395743
  0
VERTEX
  8
0
 62
7
  6
CONTINUOUS
 10
82.7410328833
 20
111.7700625968
  0
VERTEX
  8
0
 62
7
  6
CONTINUOUS
 10
82.7724660522
 20
111.7353596885
  0
VERTEX
  8
0
 62
7
  6
CONTINUOUS
 10
82.8010092151
 20
111.6971379449
  0
VERTEX
  8
0
 62
7
  6
CONTINUOUS
 10
82.8274852225
 20
111.6551435488
  0
VERTEX
  8
0
 62
7
  6
CONTINUOUS
 10
82.8525219206
 20
111.6085336744
  0
VERTEX
  8
0
 62
7
  6
CONTINUOUS
 10
82.8759422393
 20
111.5574778224
  0
VERTEX
  8
0
 62
7
  6
CONTINUOUS
 10
82.8978093194
 20
111.5015343778
  0
VERTEX
  8
0
 62
7
  6
CONTINUOUS
 10
82.9177410492
 20
111.4413234967
  0
VERTEX
  8
0
 62
7
  6
CONTINUOUS
 10
82.9354712721
 20
111.3775622257
  0
VERTEX
  8
0
 62
7
  6
CONTINUOUS
 10
82.9509079276
 20
111.310754501
  0
VERTEX
  8
0
 62
7
  6
CONTINUOUS
 10
82.9640711826
 20
111.2410589422
  0
VERTEX
  8
0
 62
7
  6
CONTINUOUS
 10
82.9750135089
 20
111.168540236
  0
VERTEX
  8
0
 62
7
  6
CONTINUOUS
 10
82.9837891563
 20
111.0931735293
  0
VERTEX
  8
0
 62
7
  6
CONTINUOUS
 10
82.9904428121
 20
111.0148995148
  0
VERTEX
  8
0
 62
7
  6
CONTINUOUS
 10
82.9950226557
 20
110.9337527404
  0
VERTEX
  8
0
 62
7
  6
CONTINUOUS
 10
82.9975790924
 20
110.849722721
  0
VERTEX
  8
0
 62
7
  6
CONTINUOUS
 10
82.9982072577
 20
110.7795581281
  0
SEQEND
  0
POLYLINE
  8
0
 62
7
  6
CONTINUOUS
 66
1
 70
0
  0
VERTEX
  8
0
 62
7
  6
CONTINUOUS
 10
95.3088265025
 20
111.8390302766
  0
VERTEX
  8
0
 62
7
  6
CONTINUOUS
 10
95.3291498536
 20
111.8371800667
  0
VERTEX
  8
0
 62
7
  6
CONTINUOUS
 10
95.368921564
 20
111.8235861094
  0
VERTEX
  8
0
 62
7
  6
CONTINUOUS
 10
95.4067586732
 20
111.7999395743
  0
VERTEX
  8
0
 62
7
  6
CONTINUOUS
 10
95.4410328833
 20
111.7700625968
  0
VERTEX
  8
0
 62
7
  6
CONTINUOUS
 10
95.4724660522
 20
111.7353596885
  0
VERTEX
  8
0
 62
7
  6
CONTINUOUS
 10
95.5010092151
 20
111.6971379449
  0
VERTEX
  8
0
 62
7
  6
CONTINUOUS
 10
95.5274852225
 20
111.6551435488
  0
VERTEX
  8
0
 62
7
  6
CONTINUOUS
 10
95.5525219206
 20
111.6085336744
  0
VERTEX
  8
0
 62
7
  6
CONTINUOUS
 10
95.5759422393
 20
111.5574778224
  0
VERTEX
  8
0
 62
7
  6
CONTINUOUS
 10
95.5978093194
 20
111.5015343778
  0
VERTEX
  8
0
 62
7
  6
CONTINUOUS
 10
95.6177410492
 20
111.4413234967
  0
VERTEX
  8
0
 62
7
  6
CONTINUOUS
 10
95.6354712721
 20
111.3775622257
  0
VERTEX
  8
0
 62
7
  6
CONTINUOUS
 10
95.6509079276
 20
111.310754501
  0
VERTEX
  8
0
 62
7
  6
CONTINUOUS
 10
95.6640711826
 20
111.2410589422
  0
VERTEX
  8
0
 62
7
  6
CONTINUOUS
 10
95.6750135089
 20
111.168540236
  0
VERTEX
  8
0
 62
7
  6
CONTINUOUS
 10
95.6837891563
 20
111.0931735293
  0
VERTEX
  8
0
 62
7
  6
CONTINUOUS
 10
95.6904428121
 20
111.0148995148
  0
VERTEX
  8
0
 62
7
  6
CONTINUOUS
 10
95.6950226557
 20
110.9337527404
  0
VERTEX
  8
0
 62
7
  6
CONTINUOUS
 10
95.6975790924
 20
110.849722721
  0
VERTEX
  8
0
 62
7
  6
CONTINUOUS
 10
95.6982072577
 20
110.7795581281
  0
SEQEND
  0
POLYLINE
  8
0
 62
7
  6
CONTINUOUS
 66
1
 70
0
  0
VERTEX
  8
0
 62
7
  6
CONTINUOUS
 10
70.3434494613
 20
105.1632136973
  0
VERTEX
  8
0
 62
7
  6
CONTINUOUS
 10
70.3458642457
 20
105.1129605846
  0
VERTEX
  8
0
 62
7
  6
CONTINUOUS
 10
70.3482921772
 20
105.0678664391
  0
VERTEX
  8
0
 62
7
  6
CONTINUOUS
 10
70.35074496
 20
105.0275601566
  0
VERTEX
  8
0
 62
7
  6
CONTINUOUS
 10
70.3532451377
 20
104.9915989918
  0
VERTEX
  8
0
 62
7
  6
CONTINUOUS
 10
70.3558385189
 20
104.9594010623
  0
VERTEX
  8
0
 62
7
  6
CONTINUOUS
 10
70.3586193002
 20
104.9301468218
  0
VERTEX
  8
0
 62
7
  6
CONTINUOUS
 10
70.3618248343
 20
104.902318626
  0
VERTEX
  8
0
 62
7
  6
CONTINUOUS
 10
70.365950399
 20
104.8738726323
  0
VERTEX
  8
0
 62
7
  6
CONTINUOUS
 10
70.3720875655
 20
104.8418842147
  0
VERTEX
  8
0
 62
7
  6
CONTINUOUS
 10
70.3834008779
 20
104.7999555144
  0
VERTEX
  8
0
 62
7
  6
CONTINUOUS
 10
70.4080446219
 20
104.7394840605
  0
VERTEX
  8
0
 62
7
  6
CONTINUOUS
 10
70.4533570666
 20
104.6684570863
  0
VERTEX
  8
0
 62
7
  6
CONTINUOUS
 10
70.5199726453
 20
104.6022038371
  0
VERTEX
  8
0
 62
7
  6
CONTINUOUS
 10
70.6064898622
 20
104.5503299005
  0
VERTEX
  8
0
 62
7
  6
CONTINUOUS
 10
70.7136654742
 20
104.5200790808
  0
VERTEX
  8
0
 62
7
  6
CONTINUOUS
 10
70.7680305922
 20
104.5163793185
  0
SEQEND
  0
LINE
  8
0
 62
7
  6
CONTINUOUS
 10
70.3386392117
 20
105.2804892357
 11
70.3434494613
 21
105.1632136973
  0
LINE
  8
0
 62
7
  6
CONTINUOUS
 10
69.9960846016
 20
137.8846772467
 11
69.9912858196
 21
138.0138024536
  0
LINE
  8
0
 62
7
  6
CONTINUOUS
 10
70.3338558729
 20
105.4219850006
 11
70.3386392117
 21
105.2804892357
  0
LINE
  8
0
 62
7
  6
CONTINUOUS
 10
70.0008454126
 20
137.7303526173
 11
69.9960846016
 21
137.8846772467
  0
LINE
  8
0
 62
7
  6
CONTINUOUS
 10
70.3291267996
 20
105.5895418346
 11
70.3338558729
 21
105.4219850006
  0
LINE
  8
0
 62
7
  6
CONTINUOUS
 10
70.0078314061
 20
137.4481334086
 11
70.0008454126
 21
137.7303526173
  0
LINE
  8
0
 62
7
  6
CONTINUOUS
 10
70.3222348591
 20
105.89283815
 11
70.3291267996
 21
105.5895418346
  0
LINE
  8
0
 62
7
  6
CONTINUOUS
 10
70.0144677245
 20
137.1017852213
 11
70.0078314061
 21
137.4481334086
  0
LINE
  8
0
 62
7
  6
CONTINUOUS
 10
70.3157633008
 20
106.2609690564
 11
70.3222348591
 21
105.89283815
  0
LINE
  8
0
 62
7
  6
CONTINUOUS
 10
70.0223825895
 20
136.5385300246
 11
70.0144677245
 21
137.1017852213
  0
LINE
  8
0
 62
7
  6
CONTINUOUS
 10
70.308193982
 20
106.8527476437
 11
70.3157633008
 21
106.2609690564
  0
LINE
  8
0
 62
7
  6
CONTINUOUS
 10
70.0299436159
 20
135.6804266822
 11
70.0223825895
 21
136.5385300246
  0
LINE
  8
0
 62
7
  6
CONTINUOUS
 10
70.3012767572
 20
107.7422311132
 11
70.308193982
 21
106.8527476437
  0
LINE
  8
0
 62
7
  6
CONTINUOUS
 10
70.0338283638
 20
134.6823087286
 11
70.0299436159
 21
135.6804266822
  0
LINE
  8
0
 62
7
  6
CONTINUOUS
 10
70.2982587385
 20
108.7622159886
 11
70.3012767572
 21
107.7422311132
  0
LINE
  8
0
 62
7
  6
CONTINUOUS
 10
70.0341208359
 20
132.4532004924
 11
70.0338283638
 21
134.6823087286
  0
LINE
  8
0
 62
7
  6
CONTINUOUS
 10
70.2982067503
 20
110.7795581283
 11
70.2982587385
 21
108.7622159886
  0
LINE
  8
2_FEATURE
 62
2
  6
CONTINUOUS
 10
51.3011637931
 20
114.4155949212
 11
101.7311637931
 21
114.4155949212
  0
POLYLINE
  8
0
 62
7
  6
CONTINUOUS
 66
1
 70
0
  0
VERTEX
  8
0
 62
7
  6
CONTINUOUS
 10
69.9912858196
 20
138.0138024536
  0
VERTEX
  8
0
 62
7
  6
CONTINUOUS
 10
69.9888780751
 20
138.0695458726
  0
VERTEX
  8
0
 62
7
  6
CONTINUOUS
 10
69.9864632951
 20
138.1197988202
  0
VERTEX
  8
0
 62
7
  6
CONTINUOUS
 10
69.9840353627
 20
138.1648931377
  0
VERTEX
  8
0
 62
7
  6
CONTINUOUS
 10
69.9815825695
 20
138.2051994551
  0
VERTEX
  8
0
 62
7
  6
CONTINUOUS
 10
69.9790823832
 20
138.2411604586
  0
VERTEX
  8
0
 62
7
  6
CONTINUOUS
 10
69.9764890055
 20
138.2733581082
  0
VERTEX
  8
0
 62
7
  6
CONTINUOUS
 10
69.9737082692
 20
138.3026118943
  0
VERTEX
  8
0
 62
7
  6
CONTINUOUS
 10
69.9705027072
 20
138.3304404911
  0
VERTEX
  8
0
 62
7
  6
CONTINUOUS
 10
69.9663770223
 20
138.3588871147
  0
VERTEX
  8
0
 62
7
  6
CONTINUOUS
 10
69.9602396136
 20
138.3908762324
  0
VERTEX
  8
0
 62
7
  6
CONTINUOUS
 10
69.9489258664
 20
138.4328056075
  0
VERTEX
  8
0
 62
7
  6
CONTINUOUS
 10
69.9242818352
 20
138.4932766481
  0
VERTEX
  8
0
 62
7
  6
CONTINUOUS
 10
69.8789696156
 20
138.5643025229
  0
VERTEX
  8
0
 62
7
  6
CONTINUOUS
 10
69.8123543607
 20
138.630555125
  0
VERTEX
  8
0
 62
7
  6
CONTINUOUS
 10
69.7258373785
 20
138.6824287985
  0
VERTEX
  8
0
 62
7
  6
CONTINUOUS
 10
69.6186620126
 20
138.7126795279
  0
VERTEX
  8
0
 62
7
  6
CONTINUOUS
 10
69.5642966328
 20
138.7163793022
  0
SEQEND
  0
LINE
  8
2_FEATURE
 62
2
  6
CONTINUOUS
 10
51.3011637931
 20
116.3363793103
 11
101.7311637931
 21
116.3363793103
  0
LINE
  8
1_AXIS
 62
2
  6
CENTER
 10
76.5161637931
 20
126.0163793103
 11
76.5161637931
 21
123.6164793103
  0
LINE
  8
1_AXIS
 62
2
  6
CONTINUOUS
 10
76.5161637931
 20
122.4963793103
 11
76.5161637931
 21
120.7363793103
  0
LINE
  8
1_AXIS
 62
2
  6
CENTER
 10
76.5161637931
 20
117.2163793103
 11
76.5161637931
 21
119.6162793103
  0
LINE
  8
0
 62
7
  6
CONTINUOUS
 10
76.3818157715
 20
107.8961400447
 11
76.3841208359
 21
110.7795581289
  0
LINE
  8
0
 62
7
  6
CONTINUOUS
 10
76.6505118672
 20
135.3366297837
 11
76.6482067503
 21
132.4532004918
  0
POLYLINE
  8
0
 62
7
  6
CONTINUOUS
 66
1
 70
0
  0
VERTEX
  8
0
 62
7
  6
CONTINUOUS
 10
76.3841203197
 20
110.7795581289
  0
VERTEX
  8
0
 62
7
  6
CONTINUOUS
 10
76.3847735298
 20
110.851078094
  0
VERTEX
  8
0
 62
7
  6
CONTINUOUS
 10
76.3873633828
 20
110.9351017101
  0
VERTEX
  8
0
 62
7
  6
CONTINUOUS
 10
76.3919810261
 20
111.0162632584
  0
VERTEX
  8
0
 62
7
  6
CONTINUOUS
 10
76.3986784008
 20
111.094564646
  0
VERTEX
  8
0
 62
7
  6
CONTINUOUS
 10
76.4075040462
 20
111.1699621946
  0
VERTEX
  8
0
 62
7
  6
CONTINUOUS
 10
76.4185021105
 20
111.2425067025
  0
VERTEX
  8
0
 62
7
  6
CONTINUOUS
 10
76.4317261163
 20
111.3122150858
  0
VERTEX
  8
0
 62
7
  6
CONTINUOUS
 10
76.4472259342
 20
111.3790151501
  0
VERTEX
  8
0
 62
7
  6
CONTINUOUS
 10
76.4650190757
 20
111.4427448569
  0
VERTEX
  8
0
 62
7
  6
CONTINUOUS
 10
76.48501384
 20
111.5029078821
  0
VERTEX
  8
0
 62
7
  6
CONTINUOUS
 10
76.5069434556
 20
111.5587920223
  0
VERTEX
  8
0
 62
7
  6
CONTINUOUS
 10
76.530431991
 20
111.6097927609
  0
VERTEX
  8
0
 62
7
  6
CONTINUOUS
 10
76.555556249
 20
111.6563680664
  0
VERTEX
  8
0
 62
7
  6
CONTINUOUS
 10
76.5821289003
 20
111.6983189727
  0
VERTEX
  8
0
 62
7
  6
CONTINUOUS
 10
76.610766364
 20
111.736462755
  0
VERTEX
  8
0
 62
7
  6
CONTINUOUS
 10
76.6423391765
 20
111.7710925286
  0
VERTEX
  8
0
 62
7
  6
CONTINUOUS
 10
76.6768080758
 20
111.8008691302
  0
VERTEX
  8
0
 62
7
  6
CONTINUOUS
 10
76.7148468924
 20
111.8242894366
  0
VERTEX
  8
0
 62
7
  6
CONTINUOUS
 10
76.7547644038
 20
111.8374569371
  0
VERTEX
  8
0
 62
7
  6
CONTINUOUS
 10
76.7734982681
 20
111.8390294596
  0
SEQEND
  0
LINE
  8
0
 62
7
  6
CONTINUOUS
 10
76.3751495701
 20
106.9529087026
 11
76.3818157715
 21
107.8961400447
  0
LINE
  8
0
 62
7
  6
CONTINUOUS
 10
76.6571781173
 20
136.2798604777
 11
76.6505118672
 21
135.3366297837
  0
POLYLINE
  8
0
 62
7
  6
CONTINUOUS
 66
1
 70
0
  0
VERTEX
  8
0
 62
7
  6
CONTINUOUS
 10
76.6482072665
 20
132.4532004918
  0
VERTEX
  8
0
 62
7
  6
CONTINUOUS
 10
76.6475540564
 20
132.3816805267
  0
VERTEX
  8
0
 62
7
  6
CONTINUOUS
 10
76.6449642034
 20
132.2976569106
  0
VERTEX
  8
0
 62
7
  6
CONTINUOUS
 10
76.6403465601
 20
132.2164953623
  0
VERTEX
  8
0
 62
7
  6
CONTINUOUS
 10
76.6336491854
 20
132.1381939747
  0
VERTEX
  8
0
 62
7
  6
CONTINUOUS
 10
76.6248235401
 20
132.0627964261
  0
VERTEX
  8
0
 62
7
  6
CONTINUOUS
 10
76.6138254757
 20
131.9902519182
  0
VERTEX
  8
0
 62
7
  6
CONTINUOUS
 10
76.6006014699
 20
131.9205435348
  0
VERTEX
  8
0
 62
7
  6
CONTINUOUS
 10
76.585101652
 20
131.8537434706
  0
VERTEX
  8
0
 62
7
  6
CONTINUOUS
 10
76.5673085105
 20
131.7900137638
  0
VERTEX
  8
0
 62
7
  6
CONTINUOUS
 10
76.5473137462
 20
131.7298507385
  0
VERTEX
  8
0
 62
7
  6
CONTINUOUS
 10
76.5253841306
 20
131.6739665984
  0
VERTEX
  8
0
 62
7
  6
CONTINUOUS
 10
76.5018955952
 20
131.6229658598
  0
VERTEX
  8
0
 62
7
  6
CONTINUOUS
 10
76.4767713372
 20
131.5763905543
  0
VERTEX
  8
0
 62
7
  6
CONTINUOUS
 10
76.4501986859
 20
131.5344396479
  0
VERTEX
  8
0
 62
7
  6
CONTINUOUS
 10
76.4215612222
 20
131.4962958657
  0
VERTEX
  8
0
 62
7
  6
CONTINUOUS
 10
76.3899884097
 20
131.4616660921
  0
VERTEX
  8
0
 62
7
  6
CONTINUOUS
 10
76.3555195104
 20
131.4318894905
  0
VERTEX
  8
0
 62
7
  6
CONTINUOUS
 10
76.3174806938
 20
131.4084691841
  0
VERTEX
  8
0
 62
7
  6
CONTINUOUS
 10
76.2775631824
 20
131.3953016835
  0
VERTEX
  8
0
 62
7
  6
CONTINUOUS
 10
76.2588293181
 20
131.3937291611
  0
SEQEND
  0
LINE
  8
0
 62
7
  6
CONTINUOUS
 10
76.6648072984
 20
136.9085138353
 11
76.6571781173
 21
136.2798604777
  0
LINE
  8
0
 62
7
  6
CONTINUOUS
 10
76.3675204506
 20
106.3242557429
 11
76.3751495701
 21
106.9529087026
  0
LINE
  8
0
 62
7
  6
CONTINUOUS
 10
76.6714353591
 20
137.2993873429
 11
76.6648072984
 21
136.9085138353
  0
LINE
  8
0
 62
7
  6
CONTINUOUS
 10
76.3608924399
 20
105.933382344
 11
76.3675204506
 21
106.3242557429
  0
LINE
  8
0
 62
7
  6
CONTINUOUS
 10
76.6785522921
 20
137.6207884881
 11
76.6714353591
 21
137.2993873429
  0
POLYLINE
  8
0
 62
7
  6
CONTINUOUS
 66
1
 70
0
  0
VERTEX
  8
0
 62
7
  6
CONTINUOUS
 10
76.3513345161
 20
105.5198805678
  0
VERTEX
  8
0
 62
7
  6
CONTINUOUS
 10
76.3537755543
 20
105.6119805889
  0
VERTEX
  8
0
 62
7
  6
CONTINUOUS
 10
76.3608924399
 20
105.933382344
  0
SEQEND
  0
LINE
  8
0
 62
7
  6
CONTINUOUS
 10
76.683455713
 20
137.7977132423
 11
76.6785522921
 21
137.6207884881
  0
LINE
  8
0
 62
7
  6
CONTINUOUS
 10
76.6884185171
 20
137.9463096383
 11
76.683455713
 21
137.7977132423
  0
LINE
  8
1_AXIS
 62
2
  6
CENTER
 10
80.9161637931
 20
121.6163793103
 11
78.5162637931
 21
121.6163793103
  0
LINE
  8
1_AXIS
 62
2
  6
CONTINUOUS
 10
77.3961637931
 20
121.6163793103
 11
75.6361637931
 21
121.6163793103
  0
LINE
  8
1_AXIS
 62
2
  6
CENTER
 10
72.1161637931
 20
121.6163793103
 11
74.5160637931
 21
121.6163793103
  0
LINE
  8
0
 62
7
  6
CONTINUOUS
 10
76.3463952297
 20
105.357318397
 11
76.3513345161
 21
105.5198805678
  0
POLYLINE
  8
0
 62
7
  6
CONTINUOUS
 66
1
 70
0
  0
VERTEX
  8
0
 62
7
  6
CONTINUOUS
 10
83.0434494613
 20
105.1632136973
  0
VERTEX
  8
0
 62
7
  6
CONTINUOUS
 10
83.0458642457
 20
105.1129605846
  0
VERTEX
  8
0
 62
7
  6
CONTINUOUS
 10
83.0482921772
 20
105.0678664391
  0
VERTEX
  8
0
 62
7
  6
CONTINUOUS
 10
83.05074496
 20
105.0275601566
  0
VERTEX
  8
0
 62
7
  6
CONTINUOUS
 10
83.0532451377
 20
104.9915989918
  0
VERTEX
  8
0
 62
7
  6
CONTINUOUS
 10
83.0558385189
 20
104.9594010623
  0
VERTEX
  8
0
 62
7
  6
CONTINUOUS
 10
83.0586193002
 20
104.9301468218
  0
VERTEX
  8
0
 62
7
  6
CONTINUOUS
 10
83.0618248343
 20
104.902318626
  0
VERTEX
  8
0
 62
7
  6
CONTINUOUS
 10
83.065950399
 20
104.8738726323
  0
VERTEX
  8
0
 62
7
  6
CONTINUOUS
 10
83.0720875655
 20
104.8418842147
  0
VERTEX
  8
0
 62
7
  6
CONTINUOUS
 10
83.0834008779
 20
104.7999555144
  0
VERTEX
  8
0
 62
7
  6
CONTINUOUS
 10
83.1080446219
 20
104.7394840605
  0
VERTEX
  8
0
 62
7
  6
CONTINUOUS
 10
83.1533570666
 20
104.6684570863
  0
VERTEX
  8
0
 62
7
  6
CONTINUOUS
 10
83.2199726453
 20
104.6022038371
  0
VERTEX
  8
0
 62
7
  6
CONTINUOUS
 10
83.3064898622
 20
104.5503299005
  0
VERTEX
  8
0
 62
7
  6
CONTINUOUS
 10
83.4136654742
 20
104.5200790808
  0
VERTEX
  8
0
 62
7
  6
CONTINUOUS
 10
83.4680305922
 20
104.5163793185
  0
SEQEND
  0
LINE
  8
0
 62
7
  6
CONTINUOUS
 10
83.0386392117
 20
105.2804892357
 11
83.0434494613
 21
105.1632136973
  0
LINE
  8
0
 62
7
  6
CONTINUOUS
 10
83.0338558729
 20
105.4219850006
 11
83.0386392117
 21
105.2804892357
  0
LINE
  8
0
 62
7
  6
CONTINUOUS
 10
83.0291267996
 20
105.5895418346
 11
83.0338558729
 21
105.4219850006
  0
LINE
  8
0
 62
7
  6
CONTINUOUS
 10
83.0222348591
 20
105.89283815
 11
83.0291267996
 21
105.5895418346
  0
LINE
  8
0
 62
7
  6
CONTINUOUS
 10
83.0157633008
 20
106.2609690564
 11
83.0222348591
 21
105.89283815
  0
LINE
  8
0
 62
7
  6
CONTINUOUS
 10
83.008193982
 20
106.8527476437
 11
83.0157633008
 21
106.2609690564
  0
LINE
  8
0
 62
7
  6
CONTINUOUS
 10
83.0050311763
 20
107.1899212381
 11
83.008193982
 21
106.8527476437
  0
LINE
  8
0
 62
7
  6
CONTINUOUS
 10
82.7310507961
 20
135.4905338783
 11
82.7241335792
 21
136.3800133431
  0
LINE
  8
0
 62
7
  6
CONTINUOUS
 10
82.7340688507
 20
134.4705442099
 11
82.7310507961
 21
135.4905338783
  0
LINE
  8
0
 62
7
  6
CONTINUOUS
 10
82.7341208359
 20
132.4532004924
 11
82.7340688507
 21
134.4705442099
  0
LINE
  8
2_FEATURE
 62
2
  6
CONTINUOUS
 10
51.3011637931
 20
126.8963793103
 11
101.7311637931
 21
126.8963793103
  0
POLYLINE
  8
0
 62
7
  6
CONTINUOUS
 66
1
 70
0
  0
VERTEX
  8
0
 62
7
  6
CONTINUOUS
 10
82.6888780751
 20
138.0695458726
  0
VERTEX
  8
0
 62
7
  6
CONTINUOUS
 10
82.6864632951
 20
138.1197988202
  0
VERTEX
  8
0
 62
7
  6
CONTINUOUS
 10
82.6840353627
 20
138.1648931377
  0
VERTEX
  8
0
 62
7
  6
CONTINUOUS
 10
82.6815825695
 20
138.2051994551
  0
VERTEX
  8
0
 62
7
  6
CONTINUOUS
 10
82.6790823832
 20
138.2411604586
  0
VERTEX
  8
0
 62
7
  6
CONTINUOUS
 10
82.6764890055
 20
138.2733581082
  0
VERTEX
  8
0
 62
7
  6
CONTINUOUS
 10
82.6737082692
 20
138.3026118943
  0
VERTEX
  8
0
 62
7
  6
CONTINUOUS
 10
82.6705027072
 20
138.3304404911
  0
VERTEX
  8
0
 62
7
  6
CONTINUOUS
 10
82.6663770223
 20
138.3588871147
  0
VERTEX
  8
0
 62
7
  6
CONTINUOUS
 10
82.6602396136
 20
138.3908762324
  0
VERTEX
  8
0
 62
7
  6
CONTINUOUS
 10
82.6489258664
 20
138.4328056075
  0
VERTEX
  8
0
 62
7
  6
CONTINUOUS
 10
82.6242818352
 20
138.4932766481
  0
VERTEX
  8
0
 62
7
  6
CONTINUOUS
 10
82.5789696156
 20
138.5643025229
  0
VERTEX
  8
0
 62
7
  6
CONTINUOUS
 10
82.5123543607
 20
138.630555125
  0
VERTEX
  8
0
 62
7
  6
CONTINUOUS
 10
82.4258373785
 20
138.6824287985
  0
VERTEX
  8
0
 62
7
  6
CONTINUOUS
 10
82.3186620126
 20
138.7126795279
  0
VERTEX
  8
0
 62
7
  6
CONTINUOUS
 10
82.2642966328
 20
138.7163793022
  0
SEQEND
  0
LINE
  8
0
 62
7
  6
CONTINUOUS
 10
82.6936883299
 20
137.9522707561
 11
82.6888780751
 21
138.0695458726
  0
LINE
  8
0
 62
7
  6
CONTINUOUS
 10
82.6984716688
 20
137.8107748846
 11
82.6936883299
 21
137.9522707561
  0
LINE
  8
0
 62
7
  6
CONTINUOUS
 10
82.7032007475
 20
137.6432184746
 11
82.6984716688
 21
137.8107748846
  0
LINE
  8
0
 62
7
  6
CONTINUOUS
 10
82.7100926917
 20
137.3399222515
 11
82.7032007475
 21
137.6432184746
  0
LINE
  8
0
 62
7
  6
CONTINUOUS
 10
82.7165642543
 20
136.9717913884
 11
82.7100926917
 21
137.3399222515
  0
LINE
  8
0
 62
7
  6
CONTINUOUS
 10
82.7241335792
 20
136.3800133431
 11
82.7165642543
 21
136.9717913884
  0
LINE
  8
0
 62
7
  6
CONTINUOUS
 10
82.9995407973
 20
108.1374991876
 11
83.0050311763
 21
107.1899212381
  0
LINE
  8
0
 62
7
  6
CONTINUOUS
 10
82.9982067933
 20
108.9163793103
 11
82.9995407973
 21
108.1374991876
  0
LINE
  8
0
 62
7
  6
CONTINUOUS
 10
82.9982067503
 20
110.7795581283
 11
82.9982067503
 21
108.9163793103
  0
LINE
  8
2_FEATURE
 62
2
  6
CONTINUOUS
 10
51.3011637931
 20
128.8171636995
 11
101.7311637931
 21
128.8171636995
  0
POLYLINE
  8
0
 62
7
  6
CONTINUOUS
 66
1
 70
0
  0
VERTEX
  8
0
 62
7
  6
CONTINUOUS
 10
57.7235010837
 20
131.3937283441
  0
VERTEX
  8
0
 62
7
  6
CONTINUOUS
 10
57.7031777326
 20
131.395578554
  0
VERTEX
  8
0
 62
7
  6
CONTINUOUS
 10
57.6634060222
 20
131.4091725113
  0
VERTEX
  8
0
 62
7
  6
CONTINUOUS
 10
57.625568913
 20
131.4328190464
  0
VERTEX
  8
0
 62
7
  6
CONTINUOUS
 10
57.5912947029
 20
131.4626960239
  0
VERTEX
  8
0
 62
7
  6
CONTINUOUS
 10
57.559861534
 20
131.4973989322
  0
VERTEX
  8
0
 62
7
  6
CONTINUOUS
 10
57.5313183712
 20
131.5356206757
  0
VERTEX
  8
0
 62
7
  6
CONTINUOUS
 10
57.5048423637
 20
131.5776150719
  0
VERTEX
  8
0
 62
7
  6
CONTINUOUS
 10
57.4798056656
 20
131.6242249462
  0
VERTEX
  8
0
 62
7
  6
CONTINUOUS
 10
57.4563853469
 20
131.6752807983
  0
VERTEX
  8
0
 62
7
  6
CONTINUOUS
 10
57.4345182668
 20
131.7312242429
  0
VERTEX
  8
0
 62
7
  6
CONTINUOUS
 10
57.414586537
 20
131.791435124
  0
VERTEX
  8
0
 62
7
  6
CONTINUOUS
 10
57.3968563141
 20
131.855196395
  0
VERTEX
  8
0
 62
7
  6
CONTINUOUS
 10
57.3814196586
 20
131.9220041196
  0
VERTEX
  8
0
 62
7
  6
CONTINUOUS
 10
57.3682564036
 20
131.9916996785
  0
VERTEX
  8
0
 62
7
  6
CONTINUOUS
 10
57.3573140774
 20
132.0642183847
  0
VERTEX
  8
0
 62
7
  6
CONTINUOUS
 10
57.3485384299
 20
132.1395850914
  0
VERTEX
  8
0
 62
7
  6
CONTINUOUS
 10
57.3418847741
 20
132.2178591059
  0
VERTEX
  8
0
 62
7
  6
CONTINUOUS
 10
57.3373049306
 20
132.2990058803
  0
VERTEX
  8
0
 62
7
  6
CONTINUOUS
 10
57.3347484938
 20
132.3830358997
  0
VERTEX
  8
0
 62
7
  6
CONTINUOUS
 10
57.3341203285
 20
132.4532004925
  0
SEQEND
  0
LINE
  8
0
 62
7
  6
CONTINUOUS
 10
96.2136994159
 20
131.3937297652
 11
95.8235011244
 21
131.3937297652
  0
LINE
  8
0
 62
7
  6
CONTINUOUS
 10
88.9588292949
 20
131.3937297652
 11
83.1235011244
 21
131.3937297652
  0
LINE
  8
0
 62
7
  6
CONTINUOUS
 10
76.2588292949
 20
131.3937297652
 11
70.4235011244
 21
131.3937297652
  0
LINE
  8
0
 62
7
  6
CONTINUOUS
 10
63.5588292949
 20
131.3937297652
 11
57.7235011244
 21
131.3937297652
  0
POLYLINE
  8
0
 62
7
  6
CONTINUOUS
 66
1
 70
0
  0
VERTEX
  8
0
 62
7
  6
CONTINUOUS
 10
70.4235010837
 20
131.3937283441
  0
VERTEX
  8
0
 62
7
  6
CONTINUOUS
 10
70.4031777326
 20
131.395578554
  0
VERTEX
  8
0
 62
7
  6
CONTINUOUS
 10
70.3634060222
 20
131.4091725113
  0
VERTEX
  8
0
 62
7
  6
CONTINUOUS
 10
70.325568913
 20
131.4328190464
  0
VERTEX
  8
0
 62
7
  6
CONTINUOUS
 10
70.2912947029
 20
131.4626960239
  0
VERTEX
  8
0
 62
7
  6
CONTINUOUS
 10
70.259861534
 20
131.4973989322
  0
VERTEX
  8
0
 62
7
  6
CONTINUOUS
 10
70.2313183712
 20
131.5356206757
  0
VERTEX
  8
0
 62
7
  6
CONTINUOUS
 10
70.2048423637
 20
131.5776150719
  0
VERTEX
  8
0
 62
7
  6
CONTINUOUS
 10
70.1798056656
 20
131.6242249462
  0
VERTEX
  8
0
 62
7
  6
CONTINUOUS
 10
70.1563853469
 20
131.6752807983
  0
VERTEX
  8
0
 62
7
  6
CONTINUOUS
 10
70.1345182668
 20
131.7312242429
  0
VERTEX
  8
0
 62
7
  6
CONTINUOUS
 10
70.114586537
 20
131.791435124
  0
VERTEX
  8
0
 62
7
  6
CONTINUOUS
 10
70.0968563141
 20
131.855196395
  0
VERTEX
  8
0
 62
7
  6
CONTINUOUS
 10
70.0814196586
 20
131.9220041196
  0
VERTEX
  8
0
 62
7
  6
CONTINUOUS
 10
70.0682564036
 20
131.9916996785
  0
VERTEX
  8
0
 62
7
  6
CONTINUOUS
 10
70.0573140774
 20
132.0642183847
  0
VERTEX
  8
0
 62
7
  6
CONTINUOUS
 10
70.0485384299
 20
132.1395850914
  0
VERTEX
  8
0
 62
7
  6
CONTINUOUS
 10
70.0418847741
 20
132.2178591059
  0
VERTEX
  8
0
 62
7
  6
CONTINUOUS
 10
70.0373049306
 20
132.2990058803
  0
VERTEX
  8
0
 62
7
  6
CONTINUOUS
 10
70.0347484938
 20
132.3830358997
  0
VERTEX
  8
0
 62
7
  6
CONTINUOUS
 10
70.0341203285
 20
132.4532004925
  0
SEQEND
  0
POLYLINE
  8
0
 62
7
  6
CONTINUOUS
 66
1
 70
0
  0
VERTEX
  8
0
 62
7
  6
CONTINUOUS
 10
83.1235010837
 20
131.3937283441
  0
VERTEX
  8
0
 62
7
  6
CONTINUOUS
 10
83.1031777326
 20
131.395578554
  0
VERTEX
  8
0
 62
7
  6
CONTINUOUS
 10
83.0634060222
 20
131.4091725113
  0
VERTEX
  8
0
 62
7
  6
CONTINUOUS
 10
83.025568913
 20
131.4328190464
  0
VERTEX
  8
0
 62
7
  6
CONTINUOUS
 10
82.9912947029
 20
131.4626960239
  0
VERTEX
  8
0
 62
7
  6
CONTINUOUS
 10
82.959861534
 20
131.4973989322
  0
VERTEX
  8
0
 62
7
  6
CONTINUOUS
 10
82.9313183712
 20
131.5356206757
  0
VERTEX
  8
0
 62
7
  6
CONTINUOUS
 10
82.9048423637
 20
131.5776150719
  0
VERTEX
  8
0
 62
7
  6
CONTINUOUS
 10
82.8798056656
 20
131.6242249462
  0
VERTEX
  8
0
 62
7
  6
CONTINUOUS
 10
82.8563853469
 20
131.6752807983
  0
VERTEX
  8
0
 62
7
  6
CONTINUOUS
 10
82.8345182668
 20
131.7312242429
  0
VERTEX
  8
0
 62
7
  6
CONTINUOUS
 10
82.814586537
 20
131.791435124
  0
VERTEX
  8
0
 62
7
  6
CONTINUOUS
 10
82.7968563141
 20
131.855196395
  0
VERTEX
  8
0
 62
7
  6
CONTINUOUS
 10
82.7814196586
 20
131.9220041196
  0
VERTEX
  8
0
 62
7
  6
CONTINUOUS
 10
82.7682564036
 20
131.9916996785
  0
VERTEX
  8
0
 62
7
  6
CONTINUOUS
 10
82.7573140774
 20
132.0642183847
  0
VERTEX
  8
0
 62
7
  6
CONTINUOUS
 10
82.7485384299
 20
132.1395850914
  0
VERTEX
  8
0
 62
7
  6
CONTINUOUS
 10
82.7418847741
 20
132.2178591059
  0
VERTEX
  8
0
 62
7
  6
CONTINUOUS
 10
82.7373049306
 20
132.2990058803
  0
VERTEX
  8
0
 62
7
  6
CONTINUOUS
 10
82.7347484938
 20
132.3830358997
  0
VERTEX
  8
0
 62
7
  6
CONTINUOUS
 10
82.7341203285
 20
132.4532004925
  0
SEQEND
  0
LINE
  8
0
 62
7
  6
CONTINUOUS
 10
89.3826485443
 20
137.7707628395
 11
89.3779788669
 21
137.5979233361
  0
LINE
  8
0
 62
7
  6
CONTINUOUS
 10
89.3873482093
 20
137.9166491572
 11
89.3826485443
 21
137.7707628395
  0
POLYLINE
  8
0
 62
7
  6
CONTINUOUS
 66
1
 70
0
  0
VERTEX
  8
0
 62
7
  6
CONTINUOUS
 10
96.2556200623
 20
131.3915270244
  0
VERTEX
  8
0
 62
7
  6
CONTINUOUS
 10
96.223618067
 20
131.3936067717
  0
VERTEX
  8
0
 62
7
  6
CONTINUOUS
 10
96.2136994159
 20
131.3937297652
  0
SEQEND
  0
POLYLINE
  8
0
 62
7
  6
CONTINUOUS
 66
1
 70
0
  0
VERTEX
  8
0
 62
7
  6
CONTINUOUS
 10
101.3637898661
 20
130.917506585
  0
VERTEX
  8
0
 62
7
  6
CONTINUOUS
 10
99.5639205293
 20
131.0711888808
  0
VERTEX
  8
0
 62
7
  6
CONTINUOUS
 10
97.8203236396
 20
131.2333257695
  0
VERTEX
  8
0
 62
7
  6
CONTINUOUS
 10
96.2556195783
 20
131.3915242024
  0
SEQEND
  0
POLYLINE
  8
0
 62
7
  6
CONTINUOUS
 66
1
 70
0
  0
VERTEX
  8
0
 62
7
  6
CONTINUOUS
 10
95.8235010837
 20
131.3937283441
  0
VERTEX
  8
0
 62
7
  6
CONTINUOUS
 10
95.8031777326
 20
131.395578554
  0
VERTEX
  8
0
 62
7
  6
CONTINUOUS
 10
95.7634060222
 20
131.4091725113
  0
VERTEX
  8
0
 62
7
  6
CONTINUOUS
 10
95.725568913
 20
131.4328190464
  0
VERTEX
  8
0
 62
7
  6
CONTINUOUS
 10
95.6912947029
 20
131.4626960239
  0
VERTEX
  8
0
 62
7
  6
CONTINUOUS
 10
95.659861534
 20
131.4973989322
  0
VERTEX
  8
0
 62
7
  6
CONTINUOUS
 10
95.6313183712
 20
131.5356206757
  0
VERTEX
  8
0
 62
7
  6
CONTINUOUS
 10
95.6048423637
 20
131.5776150719
  0
VERTEX
  8
0
 62
7
  6
CONTINUOUS
 10
95.5798056656
 20
131.6242249462
  0
VERTEX
  8
0
 62
7
  6
CONTINUOUS
 10
95.5563853469
 20
131.6752807983
  0
VERTEX
  8
0
 62
7
  6
CONTINUOUS
 10
95.5345182668
 20
131.7312242429
  0
VERTEX
  8
0
 62
7
  6
CONTINUOUS
 10
95.514586537
 20
131.791435124
  0
VERTEX
  8
0
 62
7
  6
CONTINUOUS
 10
95.4968563141
 20
131.855196395
  0
VERTEX
  8
0
 62
7
  6
CONTINUOUS
 10
95.4814196586
 20
131.9220041196
  0
VERTEX
  8
0
 62
7
  6
CONTINUOUS
 10
95.4682564036
 20
131.9916996785
  0
VERTEX
  8
0
 62
7
  6
CONTINUOUS
 10
95.4573140774
 20
132.0642183847
  0
VERTEX
  8
0
 62
7
  6
CONTINUOUS
 10
95.4485384299
 20
132.1395850914
  0
VERTEX
  8
0
 62
7
  6
CONTINUOUS
 10
95.4418847741
 20
132.2178591059
  0
VERTEX
  8
0
 62
7
  6
CONTINUOUS
 10
95.4373049306
 20
132.2990058803
  0
VERTEX
  8
0
 62
7
  6
CONTINUOUS
 10
95.4347484938
 20
132.3830358997
  0
VERTEX
  8
0
 62
7
  6
CONTINUOUS
 10
95.4341203285
 20
132.4532004925
  0
SEQEND
  0
LINE
  8
0
 62
7
  6
CONTINUOUS
 10
89.081786601
 20
107.8898130888
 11
89.0841208359
 21
110.7795581289
  0
LINE
  8
0
 62
7
  6
CONTINUOUS
 10
89.3505214702
 20
135.3387172286
 11
89.3482067503
 21
132.4532004918
  0
POLYLINE
  8
0
 62
7
  6
CONTINUOUS
 66
1
 70
0
  0
VERTEX
  8
0
 62
7
  6
CONTINUOUS
 10
89.0841203197
 20
110.7795581289
  0
VERTEX
  8
0
 62
7
  6
CONTINUOUS
 10
89.0847735298
 20
110.851078094
  0
VERTEX
  8
0
 62
7
  6
CONTINUOUS
 10
89.0873633828
 20
110.9351017101
  0
VERTEX
  8
0
 62
7
  6
CONTINUOUS
 10
89.0919810261
 20
111.0162632584
  0
VERTEX
  8
0
 62
7
  6
CONTINUOUS
 10
89.0986784008
 20
111.094564646
  0
VERTEX
  8
0
 62
7
  6
CONTINUOUS
 10
89.1075040462
 20
111.1699621946
  0
VERTEX
  8
0
 62
7
  6
CONTINUOUS
 10
89.1185021105
 20
111.2425067025
  0
VERTEX
  8
0
 62
7
  6
CONTINUOUS
 10
89.1317261163
 20
111.3122150858
  0
VERTEX
  8
0
 62
7
  6
CONTINUOUS
 10
89.1472259342
 20
111.3790151501
  0
VERTEX
  8
0
 62
7
  6
CONTINUOUS
 10
89.1650190757
 20
111.4427448569
  0
VERTEX
  8
0
 62
7
  6
CONTINUOUS
 10
89.18501384
 20
111.5029078821
  0
VERTEX
  8
0
 62
7
  6
CONTINUOUS
 10
89.2069434556
 20
111.5587920223
  0
VERTEX
  8
0
 62
7
  6
CONTINUOUS
 10
89.230431991
 20
111.6097927609
  0
VERTEX
  8
0
 62
7
  6
CONTINUOUS
 10
89.255556249
 20
111.6563680664
  0
VERTEX
  8
0
 62
7
  6
CONTINUOUS
 10
89.2821289003
 20
111.6983189727
  0
VERTEX
  8
0
 62
7
  6
CONTINUOUS
 10
89.310766364
 20
111.736462755
  0
VERTEX
  8
0
 62
7
  6
CONTINUOUS
 10
89.3423391765
 20
111.7710925286
  0
VERTEX
  8
0
 62
7
  6
CONTINUOUS
 10
89.3768080758
 20
111.8008691302
  0
VERTEX
  8
0
 62
7
  6
CONTINUOUS
 10
89.4148468924
 20
111.8242894366
  0
VERTEX
  8
0
 62
7
  6
CONTINUOUS
 10
89.4547644038
 20
111.8374569371
  0
VERTEX
  8
0
 62
7
  6
CONTINUOUS
 10
89.4734982681
 20
111.8390294596
  0
SEQEND
  0
LINE
  8
0
 62
7
  6
CONTINUOUS
 10
89.0751041512
 20
106.9482856081
 11
89.081786601
 21
107.8898130888
  0
LINE
  8
0
 62
7
  6
CONTINUOUS
 10
89.3571647941
 20
136.2785016247
 11
89.3505214702
 21
135.3387172286
  0
POLYLINE
  8
0
 62
7
  6
CONTINUOUS
 66
1
 70
0
  0
VERTEX
  8
0
 62
7
  6
CONTINUOUS
 10
89.3482072665
 20
132.4532004918
  0
VERTEX
  8
0
 62
7
  6
CONTINUOUS
 10
89.3475540564
 20
132.3816805267
  0
VERTEX
  8
0
 62
7
  6
CONTINUOUS
 10
89.3449642034
 20
132.2976569106
  0
VERTEX
  8
0
 62
7
  6
CONTINUOUS
 10
89.3403465601
 20
132.2164953623
  0
VERTEX
  8
0
 62
7
  6
CONTINUOUS
 10
89.3336491854
 20
132.1381939747
  0
VERTEX
  8
0
 62
7
  6
CONTINUOUS
 10
89.3248235401
 20
132.0627964261
  0
VERTEX
  8
0
 62
7
  6
CONTINUOUS
 10
89.3138254757
 20
131.9902519182
  0
VERTEX
  8
0
 62
7
  6
CONTINUOUS
 10
89.3006014699
 20
131.9205435348
  0
VERTEX
  8
0
 62
7
  6
CONTINUOUS
 10
89.285101652
 20
131.8537434706
  0
VERTEX
  8
0
 62
7
  6
CONTINUOUS
 10
89.2673085105
 20
131.7900137638
  0
VERTEX
  8
0
 62
7
  6
CONTINUOUS
 10
89.2473137462
 20
131.7298507385
  0
VERTEX
  8
0
 62
7
  6
CONTINUOUS
 10
89.2253841306
 20
131.6739665984
  0
VERTEX
  8
0
 62
7
  6
CONTINUOUS
 10
89.2018955952
 20
131.6229658598
  0
VERTEX
  8
0
 62
7
  6
CONTINUOUS
 10
89.1767713372
 20
131.5763905543
  0
VERTEX
  8
0
 62
7
  6
CONTINUOUS
 10
89.1501986859
 20
131.5344396479
  0
VERTEX
  8
0
 62
7
  6
CONTINUOUS
 10
89.1215612222
 20
131.4962958657
  0
VERTEX
  8
0
 62
7
  6
CONTINUOUS
 10
89.0899884097
 20
131.4616660921
  0
VERTEX
  8
0
 62
7
  6
CONTINUOUS
 10
89.0555195104
 20
131.4318894905
  0
VERTEX
  8
0
 62
7
  6
CONTINUOUS
 10
89.0174806938
 20
131.4084691841
  0
VERTEX
  8
0
 62
7
  6
CONTINUOUS
 10
88.9775631824
 20
131.3953016835
  0
VERTEX
  8
0
 62
7
  6
CONTINUOUS
 10
88.9588293181
 20
131.3937291611
  0
SEQEND
  0
LINE
  8
0
 62
7
  6
CONTINUOUS
 10
89.3646831362
 20
136.9000974892
 11
89.3571647941
 21
136.2785016247
  0
LINE
  8
0
 62
7
  6
CONTINUOUS
 10
89.0675667808
 20
106.3273907975
 11
89.0751041512
 21
106.9482856081
  0
LINE
  8
0
 62
7
  6
CONTINUOUS
 10
89.3711362557
 20
137.2839007298
 11
89.3646831362
 21
136.9000974892
  0
LINE
  8
0
 62
7
  6
CONTINUOUS
 10
89.0611199826
 20
105.9451476225
 11
89.0675667808
 21
106.3273907975
  0
LINE
  8
0
 62
7
  6
CONTINUOUS
 10
89.3779788669
 20
137.5979233361
 11
89.3711362557
 21
137.2839007298
  0
LINE
  8
0
 62
7
  6
CONTINUOUS
 10
89.054305751
 20
105.6331052985
 11
89.0611199826
 21
105.9451476225
  0
LINE
  8
0
 62
7
  6
CONTINUOUS
 10
89.0496638177
 20
105.4614797473
 11
89.054305751
 21
105.6331052985
  0
LINE
  8
0
 62
7
  6
CONTINUOUS
 10
89.0449957522
 20
105.3165732496
 11
89.0496638177
 21
105.4614797473
  0
LINE
  8
DEFAULT_1
 62
2
  6
CENTER
 10
49.3011637931
 20
134.3163793103
 11
97.4098011394
 21
134.3163793103
  0
POLYLINE
  8
0
 62
7
  6
CONTINUOUS
 66
1
 70
0
  0
VERTEX
  8
0
 62
7
  6
CONTINUOUS
 10
89.8180308638
 20
138.7163793025
  0
VERTEX
  8
0
 62
7
  6
CONTINUOUS
 10
89.7655054569
 20
138.7129267957
  0
VERTEX
  8
0
 62
7
  6
CONTINUOUS
 10
89.6580536659
 20
138.6831122842
  0
VERTEX
  8
0
 62
7
  6
CONTINUOUS
 10
89.5705056422
 20
138.6309726459
  0
VERTEX
  8
0
 62
7
  6
CONTINUOUS
 10
89.5033269979
 20
138.5642635494
  0
VERTEX
  8
0
 62
7
  6
CONTINUOUS
 10
89.4581986523
 20
138.4935812177
  0
VERTEX
  8
0
 62
7
  6
CONTINUOUS
 10
89.4337435812
 20
138.4338653878
  0
VERTEX
  8
0
 62
7
  6
CONTINUOUS
 10
89.4222972203
 20
138.391813613
  0
VERTEX
  8
0
 62
7
  6
CONTINUOUS
 10
89.416286355
 20
138.3609106019
  0
VERTEX
  8
0
 62
7
  6
CONTINUOUS
 10
89.4123266212
 20
138.3342991541
  0
VERTEX
  8
0
 62
7
  6
CONTINUOUS
 10
89.4092084708
 20
138.3081694098
  0
VERTEX
  8
0
 62
7
  6
CONTINUOUS
 10
89.4064747641
 20
138.280510981
  0
VERTEX
  8
0
 62
7
  6
CONTINUOUS
 10
89.403930752
 20
138.2501608039
  0
VERTEX
  8
0
 62
7
  6
CONTINUOUS
 10
89.4014883623
 20
138.216417235
  0
VERTEX
  8
0
 62
7
  6
CONTINUOUS
 10
89.3991034706
 20
138.1787939548
  0
VERTEX
  8
0
 62
7
  6
CONTINUOUS
 10
89.3967440317
 20
138.136753566
  0
VERTEX
  8
0
 62
7
  6
CONTINUOUS
 10
89.3943947669
 20
138.0898760049
  0
VERTEX
  8
0
 62
7
  6
CONTINUOUS
 10
89.3920476486
 20
138.0377933177
  0
VERTEX
  8
0
 62
7
  6
CONTINUOUS
 10
89.3873482093
 20
137.9166491572
  0
SEQEND
  0
POLYLINE
  8
0
 62
7
  6
CONTINUOUS
 66
1
 70
0
  0
VERTEX
  8
0
 62
7
  6
CONTINUOUS
 10
101.3637898516
 20
130.917506578
  0
VERTEX
  8
0
 62
7
  6
CONTINUOUS
 10
101.4796975842
 20
130.8902390404
  0
VERTEX
  8
0
 62
7
  6
CONTINUOUS
 10
101.5816231254
 20
130.8307209577
  0
VERTEX
  8
0
 62
7
  6
CONTINUOUS
 10
101.6618938662
 20
130.7438229697
  0
VERTEX
  8
0
 62
7
  6
CONTINUOUS
 10
101.713284628
 20
130.6370919313
  0
VERTEX
  8
0
 62
7
  6
CONTINUOUS
 10
101.7311637931
 20
130.5188393732
  0
SEQEND
  0
POLYLINE
  8
0
 62
7
  6
CONTINUOUS
 66
1
 70
0
  0
VERTEX
  8
0
 62
7
  6
CONTINUOUS
 10
95.7410417185
 20
105.2189573673
  0
VERTEX
  8
0
 62
7
  6
CONTINUOUS
 10
95.7434494613
 20
105.1632136973
  0
VERTEX
  8
0
 62
7
  6
CONTINUOUS
 10
95.7458642457
 20
105.1129605846
  0
VERTEX
  8
0
 62
7
  6
CONTINUOUS
 10
95.7482921772
 20
105.0678664391
  0
VERTEX
  8
0
 62
7
  6
CONTINUOUS
 10
95.75074496
 20
105.0275601566
  0
VERTEX
  8
0
 62
7
  6
CONTINUOUS
 10
95.7532451377
 20
104.9915989918
  0
VERTEX
  8
0
 62
7
  6
CONTINUOUS
 10
95.7558385189
 20
104.9594010623
  0
VERTEX
  8
0
 62
7
  6
CONTINUOUS
 10
95.7586193002
 20
104.9301468218
  0
VERTEX
  8
0
 62
7
  6
CONTINUOUS
 10
95.7618248343
 20
104.902318626
  0
VERTEX
  8
0
 62
7
  6
CONTINUOUS
 10
95.765950399
 20
104.8738726323
  0
VERTEX
  8
0
 62
7
  6
CONTINUOUS
 10
95.7720875655
 20
104.8418842147
  0
VERTEX
  8
0
 62
7
  6
CONTINUOUS
 10
95.7834008779
 20
104.7999555144
  0
VERTEX
  8
0
 62
7
  6
CONTINUOUS
 10
95.8080446219
 20
104.7394840605
  0
VERTEX
  8
0
 62
7
  6
CONTINUOUS
 10
95.8533570666
 20
104.6684570863
  0
VERTEX
  8
0
 62
7
  6
CONTINUOUS
 10
95.9199726453
 20
104.6022038371
  0
VERTEX
  8
0
 62
7
  6
CONTINUOUS
 10
96.0064898622
 20
104.5503299005
  0
VERTEX
  8
0
 62
7
  6
CONTINUOUS
 10
96.1136654742
 20
104.5200790808
  0
VERTEX
  8
0
 62
7
  6
CONTINUOUS
 10
96.1680305922
 20
104.5163793185
  0
SEQEND
  0
POLYLINE
  8
0
 62
7
  6
CONTINUOUS
 66
1
 70
0
  0
VERTEX
  8
0
 62
7
  6
CONTINUOUS
 10
64.4180309287
 20
138.7163793023
  0
VERTEX
  8
0
 62
7
  6
CONTINUOUS
 10
64.3648949408
 20
138.7128457071
  0
VERTEX
  8
0
 62
7
  6
CONTINUOUS
 10
64.2570557592
 20
138.6826769503
  0
VERTEX
  8
0
 62
7
  6
CONTINUOUS
 10
64.1693427656
 20
138.6300588454
  0
VERTEX
  8
0
 62
7
  6
CONTINUOUS
 10
64.1022063762
 20
138.562846802
  0
VERTEX
  8
0
 62
7
  6
CONTINUOUS
 10
64.057353775
 20
138.4918903843
  0
VERTEX
  8
0
 62
7
  6
CONTINUOUS
 10
64.0332552784
 20
138.4323488206
  0
VERTEX
  8
0
 62
7
  6
CONTINUOUS
 10
64.0220221649
 20
138.3905797271
  0
VERTEX
  8
0
 62
7
  6
CONTINUOUS
 10
64.0161060946
 20
138.359829094
  0
VERTEX
  8
0
 62
7
  6
CONTINUOUS
 10
64.0121875725
 20
138.3332420973
  0
VERTEX
  8
0
 62
7
  6
CONTINUOUS
 10
64.0090898648
 20
138.3070675774
  0
VERTEX
  8
0
 62
7
  6
CONTINUOUS
 10
64.0063679599
 20
138.279329851
  0
VERTEX
  8
0
 62
7
  6
CONTINUOUS
 10
64.0038317585
 20
138.2488833409
  0
VERTEX
  8
0
 62
7
  6
CONTINUOUS
 10
64.0013950486
 20
138.2150338727
  0
VERTEX
  8
0
 62
7
  6
CONTINUOUS
 10
63.9990175435
 20
138.177348605
  0
VERTEX
  8
0
 62
7
  6
CONTINUOUS
 10
63.9966687955
 20
138.135331236
  0
VERTEX
  8
0
 62
7
  6
CONTINUOUS
 10
63.9943323711
 20
138.088560424
  0
VERTEX
  8
0
 62
7
  6
CONTINUOUS
 10
63.9919997535
 20
138.0366741046
  0
VERTEX
  8
0
 62
7
  6
CONTINUOUS
 10
63.9873321169
 20
137.9161935229
  0
SEQEND
  0
POLYLINE
  8
0
 62
7
  6
CONTINUOUS
 66
1
 70
0
  0
VERTEX
  8
0
 62
7
  6
CONTINUOUS
 10
77.1180309394
 20
138.7163793023
  0
VERTEX
  8
0
 62
7
  6
CONTINUOUS
 10
77.0653019878
 20
138.712899877
  0
VERTEX
  8
0
 62
7
  6
CONTINUOUS
 10
76.956974625
 20
138.682641414
  0
VERTEX
  8
0
 62
7
  6
CONTINUOUS
 10
76.8685761955
 20
138.6294526744
  0
VERTEX
  8
0
 62
7
  6
CONTINUOUS
 10
76.8011790859
 20
138.5615365511
  0
VERTEX
  8
0
 62
7
  6
CONTINUOUS
 10
76.7566824888
 20
138.4905330183
  0
VERTEX
  8
0
 62
7
  6
CONTINUOUS
 10
76.7330545469
 20
138.431719907
  0
VERTEX
  8
0
 62
7
  6
CONTINUOUS
 10
76.7219860547
 20
138.3904166784
  0
VERTEX
  8
0
 62
7
  6
CONTINUOUS
 10
76.716070444
 20
138.3596139027
  0
VERTEX
  8
0
 62
7
  6
CONTINUOUS
 10
76.7120947995
 20
138.3325316236
  0
VERTEX
  8
0
 62
7
  6
CONTINUOUS
 10
76.7089192263
 20
138.3054674376
  0
VERTEX
  8
0
 62
7
  6
CONTINUOUS
 10
76.7061087081
 20
138.2764298628
  0
VERTEX
  8
0
 62
7
  6
CONTINUOUS
 10
76.7034740589
 20
138.2442051219
  0
VERTEX
  8
0
 62
7
  6
CONTINUOUS
 10
76.7009185825
 20
138.2078593673
  0
VERTEX
  8
0
 62
7
  6
CONTINUOUS
 10
76.6983990402
 20
138.1667562292
  0
VERTEX
  8
0
 62
7
  6
CONTINUOUS
 10
76.6958961639
 20
138.120425498
  0
VERTEX
  8
0
 62
7
  6
CONTINUOUS
 10
76.6934011181
 20
138.068481866
  0
VERTEX
  8
0
 62
7
  6
CONTINUOUS
 10
76.6884185171
 20
137.9463096383
  0
SEQEND
  0
LINE
  8
2_FEATURE
 62
7
  6
CONTINUOUS
 10
51.7011637931
 20
138.7163793103
 11
56.8643005788
 21
138.7163793103
  0
LINE
  8
2_FEATURE
 62
7
  6
CONTINUOUS
 10
64.4180284098
 20
138.7163793103
 11
69.5643005788
 21
138.7163793103
  0
LINE
  8
2_FEATURE
 62
7
  6
CONTINUOUS
 10
77.1180270073
 20
138.7163793103
 11
82.2643005788
 21
138.7163793103
  0
LINE
  8
2_FEATURE
 62
7
  6
CONTINUOUS
 10
89.8180246059
 20
138.7163793103
 11
94.9643005788
 21
138.7163793103
  0
POLYLINE
  8
0
 62
7
  6
CONTINUOUS
 66
1
 70
0
  0
VERTEX
  8
0
 62
7
  6
CONTINUOUS
 10
95.3888780751
 20
138.0695458726
  0
VERTEX
  8
0
 62
7
  6
CONTINUOUS
 10
95.3864632951
 20
138.1197988202
  0
VERTEX
  8
0
 62
7
  6
CONTINUOUS
 10
95.3840353627
 20
138.1648931377
  0
VERTEX
  8
0
 62
7
  6
CONTINUOUS
 10
95.3815825695
 20
138.2051994551
  0
VERTEX
  8
0
 62
7
  6
CONTINUOUS
 10
95.3790823832
 20
138.2411604586
  0
VERTEX
  8
0
 62
7
  6
CONTINUOUS
 10
95.3764890055
 20
138.2733581082
  0
VERTEX
  8
0
 62
7
  6
CONTINUOUS
 10
95.3737082692
 20
138.3026118943
  0
VERTEX
  8
0
 62
7
  6
CONTINUOUS
 10
95.3705027072
 20
138.3304404911
  0
VERTEX
  8
0
 62
7
  6
CONTINUOUS
 10
95.3663770223
 20
138.3588871147
  0
VERTEX
  8
0
 62
7
  6
CONTINUOUS
 10
95.3602396136
 20
138.3908762324
  0
VERTEX
  8
0
 62
7
  6
CONTINUOUS
 10
95.3489258664
 20
138.4328056075
  0
VERTEX
  8
0
 62
7
  6
CONTINUOUS
 10
95.3242818352
 20
138.4932766481
  0
VERTEX
  8
0
 62
7
  6
CONTINUOUS
 10
95.2789696156
 20
138.5643025229
  0
VERTEX
  8
0
 62
7
  6
CONTINUOUS
 10
95.2123543607
 20
138.630555125
  0
VERTEX
  8
0
 62
7
  6
CONTINUOUS
 10
95.1258373785
 20
138.6824287985
  0
VERTEX
  8
0
 62
7
  6
CONTINUOUS
 10
95.0186620126
 20
138.7126795279
  0
VERTEX
  8
0
 62
7
  6
CONTINUOUS
 10
94.9642966328
 20
138.7163793022
  0
SEQEND
  0
LINE
  8
0
 62
7
  6
CONTINUOUS
 10
95.3936883299
 20
137.9522707561
 11
95.3888780751
 21
138.0695458726
  0
LINE
  8
0
 62
7
  6
CONTINUOUS
 10
95.7362429422
 20
105.3480826292
 11
95.7410417185
 21
105.2189573673
  0
LINE
  8
0
 62
7
  6
CONTINUOUS
 10
95.3984716688
 20
137.8107748846
 11
95.3936883299
 21
137.9522707561
  0
LINE
  8
0
 62
7
  6
CONTINUOUS
 10
95.7314821313
 20
105.502407486
 11
95.7362429422
 21
105.3480826292
  0
LINE
  8
0
 62
7
  6
CONTINUOUS
 10
95.4032007475
 20
137.6432184746
 11
95.3984716688
 21
137.8107748846
  0
LINE
  8
0
 62
7
  6
CONTINUOUS
 10
95.7244961412
 20
105.784626802
 11
95.7314821313
 21
105.502407486
  0
LINE
  8
0
 62
7
  6
CONTINUOUS
 10
95.4100926917
 20
137.3399222515
 11
95.4032007475
 21
137.6432184746
  0
LINE
  8
0
 62
7
  6
CONTINUOUS
 10
95.7178598292
 20
106.1309752186
 11
95.7244961412
 21
105.784626802
  0
LINE
  8
0
 62
7
  6
CONTINUOUS
 10
95.4165642543
 20
136.9717913884
 11
95.4100926917
 21
137.3399222515
  0
LINE
  8
0
 62
7
  6
CONTINUOUS
 10
95.709944971
 20
106.6942305505
 11
95.7178598292
 21
106.1309752186
  0
LINE
  8
0
 62
7
  6
CONTINUOUS
 10
95.4241335792
 20
136.3800133431
 11
95.4165642543
 21
136.9717913884
  0
LINE
  8
0
 62
7
  6
CONTINUOUS
 10
95.7023839384
 20
107.5523374587
 11
95.709944971
 21
106.6942305505
  0
LINE
  8
0
 62
7
  6
CONTINUOUS
 10
95.4310507961
 20
135.4905338783
 11
95.4241335792
 21
136.3800133431
  0
LINE
  8
0
 62
7
  6
CONTINUOUS
 10
95.6984992142
 20
108.5504525798
 11
95.7023839384
 21
107.5523374587
  0
LINE
  8
0
 62
7
  6
CONTINUOUS
 10
95.4340688507
 20
134.4705442099
 11
95.4310507961
 21
135.4905338783
  0
LINE
  8
0
 62
7
  6
CONTINUOUS
 10
95.4341208359
 20
132.4532004924
 11
95.4340688507
 21
134.4705442099
  0
LINE
  8
0
 62
7
  6
CONTINUOUS
 10
95.6982067503
 20
110.7795581283
 11
95.6984992142
 21
108.5504525798
  0
LINE
  8
0
 62
7
  6
CONTINUOUS
 10
101.7311637931
 20
130.518839505
 11
101.7311637931
 21
104.9163820892
  0
LINE
  8
2_FEATURE
 62
2
  6
CONTINUOUS
 10
101.7311637931
 20
114.4155949212
 11
101.7311637931
 21
116.3363793103
  0
LINE
  8
2_FEATURE
 62
2
  6
CONTINUOUS
 10
101.7311637931
 20
126.8963793103
 11
101.7311637931
 21
128.8171636591
  0
LINE
  8
2_FEATURE
 62
2
  6
CONTINUOUS
 10
51.3011637931
 20
184.1446106063
 11
51.3011637931
 21
178.3446106438
  0
LINE
  8
0
 62
7
  6
CONTINUOUS
 10
51.3011637931
 20
178.7446106063
 11
51.3011637931
 21
186.2968904953
  0
LINE
  8
0
 62
7
  6
CONTINUOUS
 10
57.5982676722
 20
186.7376296438
 11
57.7379081917
 21
178.7376296438
  0
LINE
  8
0
 62
7
  6
CONTINUOUS
 10
63.5444193946
 20
178.7376296438
 11
63.684059914
 21
186.7376296438
  0
LINE
  8
0
 62
7
  6
CONTINUOUS
 10
63.2266416589
 20
179.8145275444
 11
63.1846936073
 21
178.441556755
  0
POLYLINE
  8
0
 62
7
  6
CONTINUOUS
 66
1
 70
0
  0
VERTEX
  8
0
 62
7
  6
CONTINUOUS
 10
63.2266505554
 20
179.8148185378
  0
VERTEX
  8
0
 62
7
  6
CONTINUOUS
 10
63.2293027489
 20
179.8414026334
  0
VERTEX
  8
0
 62
7
  6
CONTINUOUS
 10
63.2482983825
 20
179.9020698957
  0
VERTEX
  8
0
 62
7
  6
CONTINUOUS
 10
63.2564547056
 20
179.9180064456
  0
SEQEND
  0
POLYLINE
  8
0
 62
7
  6
CONTINUOUS
 66
1
 70
0
  0
VERTEX
  8
0
 62
7
  6
CONTINUOUS
 10
63.4773775573
 20
180.2176924564
  0
VERTEX
  8
0
 62
7
  6
CONTINUOUS
 10
63.5047209998
 20
180.2716303985
  0
VERTEX
  8
0
 62
7
  6
CONTINUOUS
 10
63.5481867745
 20
180.3986692268
  0
VERTEX
  8
0
 62
7
  6
CONTINUOUS
 10
63.5723649866
 20
180.5406820096
  0
VERTEX
  8
0
 62
7
  6
CONTINUOUS
 10
63.5774542427
 20
180.6301617542
  0
SEQEND
  0
POLYLINE
  8
0
 62
7
  6
CONTINUOUS
 66
1
 70
0
  0
VERTEX
  8
0
 62
7
  6
CONTINUOUS
 10
63.2564504699
 20
179.9180078765
  0
VERTEX
  8
0
 62
7
  6
CONTINUOUS
 10
63.270098734
 20
179.9404355485
  0
VERTEX
  8
0
 62
7
  6
CONTINUOUS
 10
63.3190967927
 20
180.0056519813
  0
VERTEX
  8
0
 62
7
  6
CONTINUOUS
 10
63.3827348163
 20
180.0824680904
  0
VERTEX
  8
0
 62
7
  6
CONTINUOUS
 10
63.4501779818
 20
180.1735688202
  0
SEQEND
  0
LINE
  8
0
 62
7
  6
CONTINUOUS
 10
63.4501779818
 20
180.1735688202
 11
63.4773772068
 21
180.2176926559
  0
LINE
  8
0
 62
7
  6
CONTINUOUS
 10
70.2982676722
 20
186.7376296438
 11
70.4379081917
 21
178.7376296438
  0
POLYLINE
  8
0
 62
7
  6
CONTINUOUS
 66
1
 70
0
  0
VERTEX
  8
0
 62
7
  6
CONTINUOUS
 10
88.5888127046
 20
180.0126496134
  0
VERTEX
  8
0
 62
7
  6
CONTINUOUS
 10
88.6842239498
 20
180.0350041238
  0
VERTEX
  8
0
 62
7
  6
CONTINUOUS
 10
88.7744335162
 20
180.0908203128
  0
VERTEX
  8
0
 62
7
  6
CONTINUOUS
 10
88.8507679085
 20
180.1755968376
  0
VERTEX
  8
0
 62
7
  6
CONTINUOUS
 10
88.909595774
 20
180.2827659863
  0
VERTEX
  8
0
 62
7
  6
CONTINUOUS
 10
88.950226886
 20
180.4069915033
  0
VERTEX
  8
0
 62
7
  6
CONTINUOUS
 10
88.9727076089
 20
180.5442543778
  0
VERTEX
  8
0
 62
7
  6
CONTINUOUS
 10
88.9774593765
 20
180.6304407544
  0
SEQEND
  0
LINE
  8
2_FEATURE
 62
2
  6
CONTINUOUS
 10
51.3011637931
 20
178.3446106063
 11
58.1378472697
 21
178.3446106063
  0
LINE
  8
2_FEATURE
 62
2
  6
CONTINUOUS
 10
63.0847402482
 20
178.3446106063
 11
70.8378472697
 21
178.3446106063
  0
LINE
  8
2_FEATURE
 62
2
  6
CONTINUOUS
 10
75.8444803165
 20
178.3446106063
 11
83.5378472697
 21
178.3446106063
  0
LINE
  8
2_FEATURE
 62
2
  6
CONTINUOUS
 10
87.1083475609
 20
178.3446106063
 11
87.1302240541
 21
178.3446106063
  0
LINE
  8
2_FEATURE
 62
2
  6
CONTINUOUS
 10
87.1394518012
 20
178.3446106063
 11
101.7311637931
 21
178.3446106063
  0
LINE
  8
2_FEATURE
 62
7
  6
CONTINUOUS
 10
58.1378472697
 20
178.3446106063
 11
63.0847402482
 21
178.3446106063
  0
LINE
  8
2_FEATURE
 62
7
  6
CONTINUOUS
 10
70.8378472697
 20
178.3446106063
 11
75.8444803165
 21
178.3446106063
  0
LINE
  8
2_FEATURE
 62
7
  6
CONTINUOUS
 10
83.5378472697
 20
178.3446106063
 11
87.1083475609
 21
178.3446106063
  0
LINE
  8
2_FEATURE
 62
7
  6
CONTINUOUS
 10
87.1302240541
 20
178.3446106063
 11
87.1394518012
 21
178.3446106063
  0
LINE
  8
0
 62
7
  6
CONTINUOUS
 10
51.7011637931
 20
178.3446106063
 11
101.3311637931
 21
178.3446106063
  0
LINE
  8
0
 62
7
  6
CONTINUOUS
 10
88.5715561807
 20
180.0121245685
 11
88.5888127046
 21
180.0126496134
  0
LINE
  8
0
 62
7
  6
CONTINUOUS
 10
88.5715561806
 20
180.0121212901
 11
87.5051907481
 21
180.0121212901
  0
LINE
  8
1_AXIS
 62
2
  6
CENTER
 10
76.5161637931
 20
176.1099216864
 11
76.5161637931
 21
189.1446246518
  0
LINE
  8
0
 62
7
  6
CONTINUOUS
 10
76.2444193946
 20
178.7376296438
 11
76.384059914
 21
186.7376296438
  0
LINE
  8
DEFAULT_1
 62
2
  6
CENTER
 10
55.6225264468
 20
182.7446106063
 11
103.7311637931
 21
182.7446106063
  0
LINE
  8
2_FEATURE
 62
2
  6
CONTINUOUS
 10
51.3011637931
 20
184.1446106063
 11
101.7311637931
 21
184.1446106063
  0
LINE
  8
2_FEATURE
 62
7
  6
CONTINUOUS
 10
57.9982067503
 20
187.1446106063
 11
63.2841208411
 21
187.1446106063
  0
LINE
  8
2_FEATURE
 62
7
  6
CONTINUOUS
 10
70.6982067503
 20
187.1446106063
 11
75.9841208359
 21
187.1446106063
  0
LINE
  8
2_FEATURE
 62
7
  6
CONTINUOUS
 10
83.3982067503
 20
187.1446106063
 11
88.6841208438
 21
187.1446106063
  0
LINE
  8
0
 62
7
  6
CONTINUOUS
 10
56.8186281703
 20
187.1446106063
 11
96.2136994159
 21
187.1446106063
  0
LINE
  8
0
 62
7
  6
CONTINUOUS
 10
82.9982676722
 20
186.7376296438
 11
83.1379081917
 21
178.7376296438
  0
POLYLINE
  8
0
 62
7
  6
CONTINUOUS
 66
1
 70
0
  0
VERTEX
  8
0
 62
7
  6
CONTINUOUS
 10
87.4455512908
 20
179.9949945983
  0
VERTEX
  8
0
 62
7
  6
CONTINUOUS
 10
87.4687856962
 20
180.0055646945
  0
VERTEX
  8
0
 62
7
  6
CONTINUOUS
 10
87.4943543863
 20
180.0115159683
  0
VERTEX
  8
0
 62
7
  6
CONTINUOUS
 10
87.5051907467
 20
180.0121218464
  0
SEQEND
  0
LINE
  8
0
 62
7
  6
CONTINUOUS
 10
51.6663014927
 20
186.6953683663
 11
56.7837658732
 21
187.1430884856
  0
LINE
  8
0
 62
7
  6
CONTINUOUS
 10
101.3660260902
 20
186.6953683666
 11
96.248561713
 21
187.1430884856
  0
LINE
  8
0
 62
7
  6
CONTINUOUS
 10
87.3280866187
 20
179.8088682053
 11
87.2079670307
 21
178.4358950321
  0
POLYLINE
  8
0
 62
7
  6
CONTINUOUS
 66
1
 70
0
  0
VERTEX
  8
0
 62
7
  6
CONTINUOUS
 10
87.3280845778
 20
179.80884485
  0
VERTEX
  8
0
 62
7
  6
CONTINUOUS
 10
87.3313871689
 20
179.8315662161
  0
VERTEX
  8
0
 62
7
  6
CONTINUOUS
 10
87.3382779602
 20
179.8576610863
  0
VERTEX
  8
0
 62
7
  6
CONTINUOUS
 10
87.3478938065
 20
179.8825962424
  0
VERTEX
  8
0
 62
7
  6
CONTINUOUS
 10
87.3597290485
 20
179.9059578595
  0
VERTEX
  8
0
 62
7
  6
CONTINUOUS
 10
87.373370392
 20
179.9274881192
  0
VERTEX
  8
0
 62
7
  6
CONTINUOUS
 10
87.3886980516
 20
179.9472512996
  0
VERTEX
  8
0
 62
7
  6
CONTINUOUS
 10
87.4057462022
 20
179.9652462043
  0
VERTEX
  8
0
 62
7
  6
CONTINUOUS
 10
87.4246339114
 20
179.9812978009
  0
VERTEX
  8
0
 62
7
  6
CONTINUOUS
 10
87.4455512908
 20
179.9949945983
  0
SEQEND
  0
LINE
  8
0
 62
7
  6
CONTINUOUS
 10
88.9444193946
 20
178.7376296438
 11
89.084059914
 21
186.7376296438
  0
LINE
  8
0
 62
7
  6
CONTINUOUS
 10
95.6982676722
 20
186.7376296438
 11
95.8379081917
 21
178.7376296438
  0
LINE
  8
2_FEATURE
 62
2
  6
CONTINUOUS
 10
101.7311637931
 20
184.1446106063
 11
101.7311637931
 21
178.3446106438
  0
LINE
  8
0
 62
7
  6
CONTINUOUS
 10
101.7311637931
 20
186.2968904873
 11
101.7311637931
 21
178.7446106063
  0
LINE
  8
0
 62
2
  6
CONTINUOUS
 10
153.2463778477
 20
108.9163793103
 11
151.4863778477
 21
108.9163793103
  0
LINE
  8
DEFAULT_1
 62
2
  6
CENTER
 10
147.9663778477
 20
108.9163793103
 11
147.7663778477
 21
108.9163793103
  0
LINE
  8
DEFAULT_1
 62
2
  6
CENTER
 10
156.7663778477
 20
108.9163793103
 11
156.9663778477
 21
108.9163793103
  0
LINE
  8
0
 62
7
  6
CONTINUOUS
 10
148.3663778477
 20
113.7163793103
 11
152.3663778476
 21
113.7163793103
  0
LINE
  8
2_FEATURE
 62
2
  6
CONTINUOUS
 10
152.3663778477
 20
116.3363793103
 11
153.7663778477
 21
116.3363793103
  0
LINE
  8
0
 62
7
  6
CONTINUOUS
 10
147.9663778477
 20
108.9164930285
 11
147.9663778477
 21
134.3163793103
  0
LINE
  8
0
 62
7
  6
CONTINUOUS
 10
156.0587776068
 20
111.9833295902
 11
156.0586855401
 21
111.9834404289
  0
LINE
  8
0
 62
2
  6
CONTINUOUS
 10
152.3663778477
 20
135.1963793103
 11
152.3663778477
 21
133.4363793103
  0
LINE
  8
DEFAULT_1
 62
2
  6
CENTER
 10
152.3663778477
 20
129.9163793103
 11
152.3663778477
 21
129.7163793103
  0
LINE
  8
0
 62
2
  6
CONTINUOUS
 10
152.3663778477
 20
109.7963793103
 11
152.3663778477
 21
108.0363793103
  0
LINE
  8
DEFAULT_1
 62
2
  6
CENTER
 10
152.3663778477
 20
104.5163793103
 11
152.3663778477
 21
104.3163793103
  0
LINE
  8
DEFAULT_1
 62
2
  6
CENTER
 10
152.3663778477
 20
113.3163793103
 11
152.3663778477
 21
113.5163793103
  0
LINE
  8
DEFAULT_1
 62
2
  6
CENTER
 10
152.3663778477
 20
138.7163793103
 11
152.3663778477
 21
138.9163793103
  0
LINE
  8
1_AXIS
 62
2
  6
CENTER
 10
145.7316889278
 20
121.6163793103
 11
158.7663918931
 21
121.6163793103
  0
LINE
  8
0
 62
7
  6
CONTINUOUS
 10
156.7663778477
 20
108.9164966368
 11
156.7663778477
 21
134.3163792902
  0
LINE
  8
2_FEATURE
 62
2
  6
CONTINUOUS
 10
153.7663778477
 20
126.8963793103
 11
152.3663778477
 21
126.8963793103
  0
LINE
  8
0
 62
2
  6
CONTINUOUS
 10
153.2463778477
 20
134.3163793103
 11
151.4863778477
 21
134.3163793103
  0
LINE
  8
DEFAULT_1
 62
2
  6
CENTER
 10
147.9663778477
 20
134.3163793103
 11
147.7663778477
 21
134.3163793103
  0
LINE
  8
DEFAULT_1
 62
2
  6
CENTER
 10
156.7663778477
 20
134.3163793103
 11
156.9663778477
 21
134.3163793103
  0
ARC
  8
0
 62
7
  6
CONTINUOUS
 10
51.7011637931
 20
138.3163793103
 40
0.4
 50
90.0
 51
180.000301883
  0
ARC
  8
0
 62
7
  6
CONTINUOUS
 10
101.3311637931
 20
104.9163793103
 40
0.4
 50
270.0
 51
0.0002529834
  0
ARC
  8
0
 62
7
  6
CONTINUOUS
 10
63.0847413224
 20
178.4446106063
 40
0.0999995705
 50
269.9993845584
 51
358.2499812049
  0
ARC
  8
0
 62
7
  6
CONTINUOUS
 10
58.1378472697
 20
178.7446106063
 40
0.4
 50
181.0
 51
270.0
  0
ARC
  8
0
 62
7
  6
CONTINUOUS
 10
51.7011637931
 20
178.7446106063
 40
0.4
 50
180.0
 51
270.0
  0
ARC
  8
0
 62
7
  6
CONTINUOUS
 10
63.1444914642
 20
178.7446106063
 40
0.399994427
 50
269.9984032031
 51
359.0
  0
ARC
  8
0
 62
7
  6
CONTINUOUS
 10
70.8378472697
 20
178.7446106063
 40
0.4
 50
181.0
 51
270.0
  0
ARC
  8
0
 62
7
  6
CONTINUOUS
 10
75.8444914642
 20
178.7446106063
 40
0.399994427
 50
269.9984032031
 51
358.9999721313
  0
ARC
  8
0
 62
7
  6
CONTINUOUS
 10
51.7011637931
 20
186.2968904873
 40
0.4
 50
95.0000000118
 51
180.0
  0
ARC
  8
0
 62
7
  6
CONTINUOUS
 10
63.2841208359
 20
186.7446106063
 40
0.4
 50
359.0
 51
90.0
  0
ARC
  8
0
 62
7
  6
CONTINUOUS
 10
57.9982067933
 20
186.7446081426
 40
0.4
 50
90.00000616
 51
180.9996470401
  0
ARC
  8
0
 62
7
  6
CONTINUOUS
 10
56.8186281703
 20
186.7446106063
 40
0.4
 50
90.0
 51
95.0
  0
ARC
  8
0
 62
7
  6
CONTINUOUS
 10
75.9841208359
 20
186.7446106063
 40
0.4
 50
359.0
 51
90.0
  0
ARC
  8
0
 62
7
  6
CONTINUOUS
 10
70.6982067933
 20
186.7446081426
 40
0.4
 50
90.00000616
 51
180.9996470401
  0
ARC
  8
0
 62
7
  6
CONTINUOUS
 10
87.108348859
 20
178.4446106063
 40
0.0999994827
 50
269.9992562696
 51
354.9999351777
  0
ARC
  8
0
 62
7
  6
CONTINUOUS
 10
83.5378472697
 20
178.7446106063
 40
0.4
 50
181.0
 51
270.0
  0
ARC
  8
0
 62
7
  6
CONTINUOUS
 10
88.5444914642
 20
178.7446106063
 40
0.399994427
 50
269.9984032031
 51
359.0
  0
ARC
  8
0
 62
7
  6
CONTINUOUS
 10
96.2378472697
 20
178.7446106063
 40
0.4
 50
181.0
 51
270.0
  0
ARC
  8
0
 62
7
  6
CONTINUOUS
 10
101.3311637931
 20
178.7446106063
 40
0.4
 50
270.0
 51
360.0
  0
ARC
  8
0
 62
7
  6
CONTINUOUS
 10
88.6841208359
 20
186.7446106063
 40
0.4
 50
359.0
 51
90.0
  0
ARC
  8
0
 62
7
  6
CONTINUOUS
 10
83.3982067933
 20
186.7446081426
 40
0.4
 50
90.00000616
 51
180.9996470401
  0
ARC
  8
0
 62
7
  6
CONTINUOUS
 10
101.3311637931
 20
186.2968904873
 40
0.4
 50
0.0000011402
 51
84.9999995225
  0
ARC
  8
0
 62
7
  6
CONTINUOUS
 10
96.2136994159
 20
186.7446106063
 40
0.4
 50
85.0
 51
90.0
  0
ARC
  8
0
 62
7
  6
CONTINUOUS
 10
96.0982067933
 20
186.7446081426
 40
0.4
 50
90.00000616
 51
180.9996470401
  0
ARC
  8
0
 62
7
  6
CONTINUOUS
 10
148.3663778477
 20
114.1163666277
 40
0.3999936587
 50
179.9981833434
 51
270.0
  0
ARC
  8
2_FEATURE
 62
2
  6
CONTINUOUS
 10
152.3663778477
 20
110.3363793103
 40
6.0
 50
90.0
 51
137.1665719339
  0
ARC
  8
0
 62
7
  6
CONTINUOUS
 10
152.3663778477
 20
108.9163793103
 40
4.8
 50
39.7151372318
 51
90.0
  0
ARC
  8
0
 62
7
  6
CONTINUOUS
 10
152.3663778477
 20
108.9163793103
 40
4.4
 50
179.9999999968
 51
0.0015277978
  0
CIRCLE
  8
0
 62
7
  6
CONTINUOUS
 10
152.3663778477
 20
108.9163793103
 40
2.6
  0
ARC
  8
0
 62
7
  6
CONTINUOUS
 10
156.3663778477
 20
112.2390241525
 40
0.3999993016
 50
219.7146190225
 51
360.0
  0
ARC
  8
2_FEATURE
 62
2
  6
CONTINUOUS
 10
152.3663778477
 20
132.8963793103
 40
6.0
 50
222.8334280661
 51
270.0
  0
ARC
  8
0
 62
7
  6
CONTINUOUS
 10
152.3663778477
 20
134.3163793103
 40
4.4
 50
359.9985191881
 51
180.0015306643
  0
CIRCLE
  8
0
 62
7
  6
CONTINUOUS
 10
152.3663778477
 20
134.3163793103
 40
2.6
  0
ENDSEC
  0
EOF
