  0
SECTION
  2
HEADER
  9
$EXTMAX
 10
210.0
 20
297.0
 30
0.0
  9
$EXTMIN
 10
0.0
 20
0.0
 30
0.0
  9
$LIMMIN
 10
0.0
 20
0.0
  9
$LIMMAX
 10
210.0
 20
297.0
  9
$VIEWCTR
 10
105.0
 20
148.5
  9
$VIEWSIZE
 40
297.0
  9
$CLAYER
  8
0
  9
$LTSCALE
 40
19.36
  9
$CELTYPE
  6
BYLAYER
  9
$DIMSCALE
 40
1.0
  9
$DIMASZ
 40
3.5
  9
$DIMEXO
 40
2.2
  9
$DIMDLI
 40
13.376
  9
$DIMEXE
 40
6.336
  9
$DIMCEN
 40
3.168
  9
$DIMLFAC
 40
1.0
  9
$DIMBLK
  1
_FILLED
  9
$DIMTXT
 40
3.5
  9
$PDMODE
 70
3
  9
$PDSIZE
 40
0.3125
  9
$TILEMODE
 70
1
  0
ENDSEC
  0
SECTION
  2
TABLES
  0
TABLE
  2
LTYPE
 70
6
  0
LTYPE
  2
BYBLOCK
 70
0
  3

 72
65
 73
0
 40
0.0
  0
LTYPE
  2
BYLAYER
 70
0
  3

 72
65
 73
0
 40
0.0
  0
LTYPE
  2
CONTINUOUS
 70
64
  3
Solid line
 72
65
 73
0
 40
0.0
  0
LTYPE
  2
CENTER
 70
64
  3
____ _ ____ _ ____ _ ____ _ ____ _ ____ _ ____
 72
65
 73
4
 40
0.6
 49
0.375
 49
-0.075
 49
0.075
 49
-0.075
  0
LTYPE
  2
HIDDEN
 70
64
  3
- - - - - - - - - - - - - - - - - - - -
 72
65
 73
2
 40
0.2
 49
0.1
 49
-0.1
  0
LTYPE
  2
PHANTOM
 70
64
  3
_____ _ _ _____ _ _ _____ _ _ _____
 72
65
 73
6
 40
0.8
 49
0.45
 49
-0.05
 49
0.1
 49
-0.05
 49
0.1
 49
-0.05
  0
LTYPE
  2
DOT
 70
64
  3
. . . . . . . . . . . . . . . . . . . .
 72
65
 73
2
 40
0.2
 49
0.1
 49
-0.1
  0
LTYPE
  2
DASHED
 70
64
  3
- - - - - - - - - - - - - - - - - - - -
 72
65
 73
2
 40
0.2
 49
0.1
 49
-0.1
  0
ENDTAB
  0
TABLE
  2
LAYER
 70
36
  0
LAYER
  2
0
 70
0
 62
7
  6
CONTINUOUS
  0
LAYER
  2
DEFAULT_1
 70
0
 62
7
  6
CENTER
  0
LAYER
  2
DEFAULT_2
 70
0
 62
8
  6
HIDDEN
  0
LAYER
  2
DEFAULT_3
 70
0
 62
7
  6
PHANTOM
  0
LAYER
  2
1_AXIS
 70
0
 62
7
  6
CONTINUOUS
  0
LAYER
  2
1_CSYS
 70
0
 62
7
  6
CONTINUOUS
  0
LAYER
  2
1_DATUM_PLANES
 70
0
 62
7
  6
CONTINUOUS
  0
LAYER
  2
2_FEATURE
 70
0
 62
7
  6
CONTINUOUS
  0
LAYER
  2
4_QUILT
 70
0
 62
7
  6
CONTINUOUS
  0
LAYER
  2
4_SURFACE
 70
0
 62
7
  6
CONTINUOUS
  0
LAYER
  2
6_DIM
 70
0
 62
7
  6
CONTINUOUS
  0
LAYER
  2
CSYS
 70
0
 62
7
  6
CONTINUOUS
  0
LAYER
  2
CURVE
 70
0
 62
7
  6
CONTINUOUS
  0
ENDTAB
  0
TABLE
  2
STYLE
 70
1
  0
STYLE
  2
STANDARD
 70
0
 40
0.0
 41
0.8
 50
0.0
 71
0
 42
0.2
  3
txt
  4

  0
STYLE
  2
TEXTSTYLE_1
 70
0
 40
0.0
 41
0.8
 50
0.0
 71
0
 42
0.2
  3
gdt
  4

  0
STYLE
  2
TEXTSTYLE_2
 70
0
 40
0.0
 41
0.6
 50
0.0
 71
0
 42
0.2
  3
txt
  4

  0
STYLE
  2
TEXTSTYLE_3
 70
0
 40
0.0
 41
1.0
 50
0.0
 71
0
 42
0.2
  3
ftb_____.ttf
  4

  0
STYLE
  2
TEXTSTYLE_4
 70
0
 40
0.0
 41
1.0
 50
0.0
 71
0
 42
0.2
  3
fti_____.ttf
  4

  0
STYLE
  2
TEXTSTYLE_5
 70
0
 40
0.0
 41
1.0
 50
0.0
 71
0
 42
0.2
  3
frutiger light.ttf
  4

  0
STYLE
  2
TEXTSTYLE_6
 70
0
 40
0.0
 41
0.7
 50
0.0
 71
0
 42
0.2
  3
txt
  4

  0
STYLE
  2
TEXTSTYLE_7
 70
0
 40
0.0
 41
0.7
 50
0.0
 71
0
 42
0.2
  3
txt
  4

  0
ENDTAB
  0
ENDSEC
  0
SECTION
  2
BLOCKS
  0
BLOCK
  8
0
 62
2
  6
CONTINUOUS
  2
SYMBOL_8_BL1
 70
64
 10
173.5956734183
 20
35.5937998301
  0
TEXT
  8
0
 62
7
  6
CONTINUOUS
 10
164.6539584268
 20
30.6865562072
  7
TEXTSTYLE_4
 40
1.0655737705
  1
The brand for plastic modular belts and chains
 41
1.0
 72
0
  0
LINE
  8
0
 62
7
  6
CONTINUOUS
 10
149.5737418074
 20
36.1675703219
 11
149.5737418074
 21
34.0364227809
  0
LINE
  8
0
 62
7
  6
CONTINUOUS
 10
149.8628043005
 20
31.0454914852
 11
149.8628043005
 21
31.1422825445
  0
LINE
  8
0
 62
7
  6
CONTINUOUS
 10
149.5737418074
 20
31.1100188581
 11
149.6315543091
 21
30.9164367395
  0
LINE
  8
0
 62
7
  6
CONTINUOUS
 10
150.9671844304
 20
33.9544555678
 11
150.9671844304
 21
36.1675703219
  0
LINE
  8
0
 62
7
  6
CONTINUOUS
 10
151.8862417523
 20
32.1101932727
 11
151.8862417523
 21
30.5937998301
  0
LINE
  8
0
 62
7
  6
CONTINUOUS
 10
152.1753043074
 20
30.5937998301
 11
152.1753043074
 21
31.3358647082
  0
LINE
  8
0
 62
7
  6
CONTINUOUS
 10
152.1753043074
 20
31.4649194539
 11
152.1753043074
 21
32.1101932727
  0
LINE
  8
0
 62
7
  6
CONTINUOUS
 10
149.6315543091
 20
31.3036010218
 11
149.5737418074
 21
31.1100188581
  0
LINE
  8
0
 62
7
  6
CONTINUOUS
 10
149.9784292936
 20
30.8841730531
 11
149.8628043005
 21
31.0454914852
  0
LINE
  8
0
 62
7
  6
CONTINUOUS
 10
151.0768668626
 20
31.400392081
 11
151.1346793074
 21
31.3036010218
  0
LINE
  8
0
 62
7
  6
CONTINUOUS
 10
151.4237418626
 20
31.3036010218
 11
151.3659292523
 21
31.4326557675
  0
LINE
  8
0
 62
7
  6
CONTINUOUS
 10
152.852430332
 20
36.1675703219
 11
152.852430332
 21
34.3642916334
  0
LINE
  8
0
 62
7
  6
CONTINUOUS
 10
152.852430332
 20
33.0528162235
 11
152.852430332
 21
32.3970785186
  0
LINE
  8
0
 62
7
  6
CONTINUOUS
 10
153.2159293074
 20
31.2390736489
 11
153.2159293074
 21
30.5937998301
  0
LINE
  8
0
 62
7
  6
CONTINUOUS
 10
153.5049916972
 20
30.5937998301
 11
153.5049916972
 21
31.2390736489
  0
LINE
  8
0
 62
7
  6
CONTINUOUS
 10
149.8628043005
 20
31.1422825445
 11
149.9206168074
 21
31.2713373354
  0
LINE
  8
0
 62
7
  6
CONTINUOUS
 10
149.6315543091
 20
30.9164367395
 11
149.7471793074
 21
30.7873819712
  0
LINE
  8
0
 62
7
  6
CONTINUOUS
 10
153.1581166972
 20
31.3681283946
 11
153.2159293074
 21
31.2390736489
  0
LINE
  8
0
 62
7
  6
CONTINUOUS
 10
153.9674919177
 20
30.8841730531
 11
154.0253041972
 21
30.7551182848
  0
LINE
  8
0
 62
7
  6
CONTINUOUS
 10
153.5049916972
 20
31.2390736489
 11
153.4471794177
 21
31.400392081
  0
LINE
  8
0
 62
7
  6
CONTINUOUS
 10
153.9674919177
 20
31.4326557675
 11
153.9674919177
 21
31.3681283946
  0
LINE
  8
0
 62
7
  6
CONTINUOUS
 10
153.9674919177
 20
30.9809641124
 11
153.9674919177
 21
30.8841730531
  0
LINE
  8
0
 62
7
  6
CONTINUOUS
 10
154.245872955
 20
32.3970785186
 11
154.245872955
 21
36.1675703219
  0
LINE
  8
0
 62
7
  6
CONTINUOUS
 10
154.2565543074
 20
30.8519093441
 11
154.2565543074
 21
30.9164367395
  0
LINE
  8
0
 62
7
  6
CONTINUOUS
 10
154.5737418074
 20
36.1675703219
 11
154.5737418074
 21
32.3970785186
  0
LINE
  8
0
 62
7
  6
CONTINUOUS
 10
151.3659292523
 20
30.7873819712
 11
151.4237418626
 21
30.9164367395
  0
LINE
  8
0
 62
7
  6
CONTINUOUS
 10
155.759679528
 20
30.6905909007
 11
155.7018665869
 21
30.8519093441
  0
LINE
  8
0
 62
7
  6
CONTINUOUS
 10
155.412804528
 20
31.3681283946
 11
155.412804528
 21
31.2713373354
  0
LINE
  8
0
 62
7
  6
CONTINUOUS
 10
155.412804528
 20
31.1422825445
 11
155.412804528
 21
30.9487004259
  0
LINE
  8
0
 62
7
  6
CONTINUOUS
 10
155.7018665869
 20
30.8519093441
 11
155.7018665869
 21
31.3681283946
  0
LINE
  8
0
 62
7
  6
CONTINUOUS
 10
155.9671844304
 20
32.3970785186
 11
155.9671844304
 21
34.2003572071
  0
LINE
  8
0
 62
7
  6
CONTINUOUS
 10
155.9671844304
 20
35.511832617
 11
155.9671844304
 21
36.1675703219
  0
LINE
  8
0
 62
7
  6
CONTINUOUS
 10
156.279992028
 20
32.1101932727
 11
156.279992028
 21
31.9488748406
  0
LINE
  8
0
 62
7
  6
CONTINUOUS
 10
156.279992028
 20
31.626237886
 11
156.279992028
 21
30.5937998301
  0
LINE
  8
0
 62
7
  6
CONTINUOUS
 10
156.5690540869
 20
30.5937998301
 11
156.5690540869
 21
31.626237886
  0
LINE
  8
0
 62
7
  6
CONTINUOUS
 10
156.5690540869
 20
31.9488748406
 11
156.5690540869
 21
32.1101932727
  0
LINE
  8
0
 62
7
  6
CONTINUOUS
 10
151.1346793074
 20
30.9164367395
 11
151.0768668626
 21
30.8196456577
  0
LINE
  8
0
 62
7
  6
CONTINUOUS
 10
153.4471794177
 20
31.400392081
 11
153.3893668074
 21
31.4649194539
  0
LINE
  8
0
 62
7
  6
CONTINUOUS
 10
154.3143669177
 20
30.7873819712
 11
154.2565543074
 21
30.8519093441
  0
LINE
  8
0
 62
7
  6
CONTINUOUS
 10
155.4706168074
 20
30.6583272086
 11
155.5284290869
 21
30.5937998301
  0
LINE
  8
0
 62
7
  6
CONTINUOUS
 10
155.412804528
 20
30.7551182848
 11
155.4706168074
 21
30.6583272086
  0
LINE
  8
0
 62
7
  6
CONTINUOUS
 10
155.8174918074
 20
30.5937998301
 11
155.759679528
 21
30.6905909007
  0
LINE
  8
0
 62
7
  6
CONTINUOUS
 10
155.7018665869
 20
31.3681283946
 11
155.6440543074
 21
31.4649194539
  0
LINE
  8
0
 62
7
  6
CONTINUOUS
 10
157.0315543074
 20
31.626237886
 11
157.0315543074
 21
30.5937998301
  0
LINE
  8
0
 62
7
  6
CONTINUOUS
 10
157.320617028
 20
30.5937998301
 11
157.320617028
 21
31.3358647082
  0
LINE
  8
0
 62
7
  6
CONTINUOUS
 10
157.320617028
 20
31.4649194539
 11
157.320617028
 21
31.626237886
  0
LINE
  8
0
 62
7
  6
CONTINUOUS
 10
157.852430332
 20
34.6101932727
 11
157.852430332
 21
32.3970785186
  0
LINE
  8
0
 62
7
  6
CONTINUOUS
 10
149.7471793074
 20
31.4326557675
 11
149.6315543091
 21
31.3036010218
  0
LINE
  8
0
 62
7
  6
CONTINUOUS
 10
149.9206168074
 20
31.2713373354
 11
149.9784292936
 21
31.3358647082
  0
LINE
  8
0
 62
7
  6
CONTINUOUS
 10
149.7471793074
 20
30.7873819712
 11
149.8628043005
 21
30.7228545871
  0
LINE
  8
0
 62
7
  6
CONTINUOUS
 10
150.1518667936
 20
30.7873819712
 11
149.9784292936
 21
30.8841730531
  0
LINE
  8
0
 62
7
  6
CONTINUOUS
 10
155.3549915869
 20
31.4326557675
 11
155.412804528
 21
31.3681283946
  0
LINE
  8
0
 62
7
  6
CONTINUOUS
 10
158.3034290869
 20
31.3681283946
 11
158.361242028
 21
31.2068099625
  0
LINE
  8
0
 62
7
  6
CONTINUOUS
 10
158.6503040869
 20
31.2068099625
 11
158.5924918074
 21
31.3681283946
  0
LINE
  8
0
 62
7
  6
CONTINUOUS
 10
158.361242028
 20
31.2068099625
 11
158.361242028
 21
30.5937998301
  0
LINE
  8
0
 62
7
  6
CONTINUOUS
 10
158.6503040869
 20
30.5937998301
 11
158.6503040869
 21
31.2068099625
  0
LINE
  8
0
 62
7
  6
CONTINUOUS
 10
159.1128043074
 20
31.4326557675
 11
159.1128043074
 21
31.3681283946
  0
LINE
  8
0
 62
7
  6
CONTINUOUS
 10
159.245872955
 20
32.3970785186
 11
159.245872955
 21
34.5282260596
  0
LINE
  8
0
 62
7
  6
CONTINUOUS
 10
159.5737418074
 20
36.1675703219
 11
159.5737418074
 21
32.3970785186
  0
LINE
  8
0
 62
7
  6
CONTINUOUS
 10
154.2565543074
 20
30.9164367395
 11
154.3143669177
 21
31.0132277988
  0
LINE
  8
0
 62
7
  6
CONTINUOUS
 10
149.8628043005
 20
30.7228545871
 11
150.0362418212
 21
30.6583272086
  0
LINE
  8
0
 62
7
  6
CONTINUOUS
 10
151.3659292523
 20
31.4326557675
 11
151.1924917523
 21
31.5294468267
  0
LINE
  8
0
 62
7
  6
CONTINUOUS
 10
154.0253041972
 20
30.7551182848
 11
154.1987416972
 21
30.6583272086
  0
LINE
  8
0
 62
7
  6
CONTINUOUS
 10
153.0424918074
 20
31.4326557675
 11
153.1581166972
 21
31.3681283946
  0
LINE
  8
0
 62
7
  6
CONTINUOUS
 10
153.3893668074
 20
31.4649194539
 11
153.2737419177
 21
31.5294468267
  0
LINE
  8
0
 62
7
  6
CONTINUOUS
 10
159.1128043074
 20
30.8519093441
 11
159.228429528
 21
30.7228545871
  0
LINE
  8
0
 62
7
  6
CONTINUOUS
 10
159.4596793074
 20
30.7873819712
 11
159.401867028
 21
30.8519093441
  0
LINE
  8
0
 62
7
  6
CONTINUOUS
 10
159.1128043074
 20
31.3681283946
 11
159.228429528
 21
31.2390736489
  0
LINE
  8
0
 62
7
  6
CONTINUOUS
 10
158.5924918074
 20
31.3681283946
 11
158.534679528
 21
31.4649194539
  0
LINE
  8
0
 62
7
  6
CONTINUOUS
 10
160.9628038663
 20
30.7873819712
 11
160.9628038663
 21
30.8519093441
  0
LINE
  8
0
 62
7
  6
CONTINUOUS
 10
160.9671844304
 20
32.3970785186
 11
160.9671844304
 21
36.1675703219
  0
LINE
  8
0
 62
7
  6
CONTINUOUS
 10
154.0253041972
 20
31.4971831403
 11
153.9674919177
 21
31.4326557675
  0
LINE
  8
0
 62
7
  6
CONTINUOUS
 10
150.9034292799
 20
31.4649194539
 11
151.0768668626
 21
31.400392081
  0
LINE
  8
0
 62
7
  6
CONTINUOUS
 10
155.6440543074
 20
31.4649194539
 11
155.5284290869
 21
31.5294468267
  0
LINE
  8
0
 62
7
  6
CONTINUOUS
 10
159.4596793074
 20
31.3036010218
 11
159.401867028
 21
31.3681283946
  0
LINE
  8
0
 62
7
  6
CONTINUOUS
 10
160.615929528
 20
30.9164367395
 11
160.6737418074
 21
30.8519093441
  0
LINE
  8
0
 62
7
  6
CONTINUOUS
 10
160.9628038663
 20
30.8519093441
 11
160.8471793074
 21
30.9809641124
  0
LINE
  8
0
 62
7
  6
CONTINUOUS
 10
160.615929528
 20
31.4326557675
 11
160.6737418074
 21
31.3681283946
  0
LINE
  8
0
 62
7
  6
CONTINUOUS
 10
160.9628038663
 20
31.3681283946
 11
160.8471793074
 21
31.4971831403
  0
LINE
  8
0
 62
7
  6
CONTINUOUS
 10
154.2565543074
 20
31.3681283946
 11
154.3143669177
 21
31.4326557675
  0
LINE
  8
0
 62
7
  6
CONTINUOUS
 10
154.0831168074
 20
31.1100188581
 11
153.9674919177
 21
30.9809641124
  0
LINE
  8
0
 62
7
  6
CONTINUOUS
 10
155.412804528
 20
30.9487004259
 11
155.3549915869
 21
30.8841730531
  0
LINE
  8
0
 62
7
  6
CONTINUOUS
 10
155.3549915869
 20
30.6905909007
 11
155.412804528
 21
30.7551182848
  0
LINE
  8
0
 62
7
  6
CONTINUOUS
 10
154.1987416972
 20
30.6583272086
 11
154.3143669177
 21
30.6260635193
  0
LINE
  8
0
 62
7
  6
CONTINUOUS
 10
151.1924917523
 20
31.5294468267
 11
150.9612418074
 21
31.5939741996
  0
LINE
  8
0
 62
7
  6
CONTINUOUS
 10
154.5456166972
 20
30.7228545871
 11
154.3143669177
 21
30.7873819712
  0
LINE
  8
0
 62
7
  6
CONTINUOUS
 10
153.2737419177
 20
31.5294468267
 11
153.1003044177
 21
31.5939741996
  0
LINE
  8
0
 62
7
  6
CONTINUOUS
 10
155.5284290869
 20
31.5294468267
 11
155.3549915869
 21
31.5939741996
  0
LINE
  8
0
 62
7
  6
CONTINUOUS
 10
158.187804528
 20
31.4326557675
 11
158.3034290869
 21
31.3681283946
  0
LINE
  8
0
 62
7
  6
CONTINUOUS
 10
158.534679528
 20
31.4649194539
 11
158.4190543074
 21
31.5294468267
  0
LINE
  8
0
 62
7
  6
CONTINUOUS
 10
150.0362418212
 20
30.6583272086
 11
150.2096793212
 21
30.6260635193
  0
LINE
  8
0
 62
7
  6
CONTINUOUS
 10
150.498741835
 20
30.7228545871
 11
150.1518667936
 21
30.7873819712
  0
LINE
  8
0
 62
7
  6
CONTINUOUS
 10
152.9268669177
 20
31.4649194539
 11
153.0424918074
 21
31.4326557675
  0
LINE
  8
0
 62
7
  6
CONTINUOUS
 10
155.239367028
 20
31.4649194539
 11
155.3549915869
 21
31.4326557675
  0
LINE
  8
0
 62
7
  6
CONTINUOUS
 10
159.575304528
 20
30.7551182848
 11
159.4596793074
 21
30.7873819712
  0
LINE
  8
0
 62
7
  6
CONTINUOUS
 10
158.0721793074
 20
31.4649194539
 11
158.187804528
 21
31.4326557675
  0
LINE
  8
0
 62
7
  6
CONTINUOUS
 10
159.228429528
 20
30.7228545871
 11
159.401867028
 21
30.6583272086
  0
LINE
  8
0
 62
7
  6
CONTINUOUS
 10
158.4190543074
 20
31.5294468267
 11
158.2456168074
 21
31.5939741996
  0
LINE
  8
0
 62
7
  6
CONTINUOUS
 10
159.6331168074
 20
31.2390736489
 11
159.4596793074
 21
31.3036010218
  0
LINE
  8
0
 62
7
  6
CONTINUOUS
 10
160.442492028
 20
30.9809641124
 11
160.615929528
 21
30.9164367395
  0
LINE
  8
0
 62
7
  6
CONTINUOUS
 10
160.8471793074
 20
31.4971831403
 11
160.6737418074
 21
31.5617105132
  0
LINE
  8
0
 62
7
  6
CONTINUOUS
 10
159.228429528
 20
31.2390736489
 11
159.4596793074
 21
31.1422825445
  0
LINE
  8
0
 62
7
  6
CONTINUOUS
 10
160.8471793074
 20
30.9809641124
 11
160.615929528
 21
31.0777551716
  0
LINE
  8
0
 62
7
  6
CONTINUOUS
 10
159.401867028
 20
31.3681283946
 11
159.4596793074
 21
31.4326557675
  0
LINE
  8
0
 62
7
  6
CONTINUOUS
 10
149.8628043005
 20
31.4971831403
 11
149.7471793074
 21
31.4326557675
  0
LINE
  8
0
 62
7
  6
CONTINUOUS
 10
149.9784292936
 20
31.3358647082
 11
150.1518667936
 21
31.4326557675
  0
LINE
  8
0
 62
7
  6
CONTINUOUS
 10
152.2909293626
 20
31.5294468267
 11
152.1753043074
 21
31.4649194539
  0
LINE
  8
0
 62
7
  6
CONTINUOUS
 10
152.1753043074
 20
31.3358647082
 11
152.2909293626
 21
31.400392081
  0
LINE
  8
0
 62
7
  6
CONTINUOUS
 10
151.1924917523
 20
30.6905909007
 11
151.3659292523
 21
30.7873819712
  0
LINE
  8
0
 62
7
  6
CONTINUOUS
 10
150.2096793212
 20
30.6260635193
 11
150.5565542799
 21
30.5937998301
  0
LINE
  8
0
 62
7
  6
CONTINUOUS
 10
154.3143669177
 20
30.6260635193
 11
154.5456166972
 21
30.5937998301
  0
LINE
  8
0
 62
7
  6
CONTINUOUS
 10
152.6956168074
 20
31.4971831403
 11
152.9268669177
 21
31.4649194539
  0
LINE
  8
0
 62
7
  6
CONTINUOUS
 10
155.0081169177
 20
31.4971831403
 11
155.239367028
 21
31.4649194539
  0
LINE
  8
0
 62
7
  6
CONTINUOUS
 10
159.4596793074
 20
31.1422825445
 11
160.442492028
 21
30.9809641124
  0
LINE
  8
0
 62
7
  6
CONTINUOUS
 10
160.615929528
 20
31.0777551716
 11
159.6331168074
 21
31.2390736489
  0
LINE
  8
0
 62
7
  6
CONTINUOUS
 10
153.1003044177
 20
31.5939741996
 11
152.9268669177
 21
31.626237886
  0
LINE
  8
0
 62
7
  6
CONTINUOUS
 10
159.401867028
 20
30.6583272086
 11
159.575304528
 21
30.6260635193
  0
LINE
  8
0
 62
7
  6
CONTINUOUS
 10
158.2456168074
 20
31.5939741996
 11
158.0721793074
 21
31.626237886
  0
LINE
  8
0
 62
7
  6
CONTINUOUS
 10
160.5003043074
 20
31.4649194539
 11
160.615929528
 21
31.4326557675
  0
LINE
  8
0
 62
7
  6
CONTINUOUS
 10
160.6737418074
 20
30.8519093441
 11
160.615929528
 21
30.7873819712
  0
LINE
  8
0
 62
7
  6
CONTINUOUS
 10
159.228429528
 20
31.5294468267
 11
159.1128043074
 21
31.4326557675
  0
LINE
  8
0
 62
7
  6
CONTINUOUS
 10
154.1409294177
 20
31.5617105132
 11
154.0253041972
 21
31.4971831403
  0
LINE
  8
0
 62
7
  6
CONTINUOUS
 10
154.1987416972
 20
31.1745462761
 11
154.0831168074
 21
31.1100188581
  0
LINE
  8
0
 62
7
  6
CONTINUOUS
 10
154.3143669177
 20
31.0132277988
 11
154.4299918074
 21
31.0777551716
  0
LINE
  8
0
 62
7
  6
CONTINUOUS
 10
151.8862417523
 20
30.5937998301
 11
152.1753043074
 21
30.5937998301
  0
LINE
  8
0
 62
7
  6
CONTINUOUS
 10
153.2159293074
 20
30.5937998301
 11
153.5049916972
 21
30.5937998301
  0
LINE
  8
0
 62
7
  6
CONTINUOUS
 10
154.5456166972
 20
30.5937998301
 11
154.8924916972
 21
30.5937998301
  0
LINE
  8
0
 62
7
  6
CONTINUOUS
 10
155.5284290869
 20
30.5937998301
 11
155.8174918074
 21
30.5937998301
  0
LINE
  8
0
 62
7
  6
CONTINUOUS
 10
156.279992028
 20
30.5937998301
 11
156.5690540869
 21
30.5937998301
  0
LINE
  8
0
 62
7
  6
CONTINUOUS
 10
157.0315543074
 20
30.5937998301
 11
157.320617028
 21
30.5937998301
  0
LINE
  8
0
 62
7
  6
CONTINUOUS
 10
158.361242028
 20
30.5937998301
 11
158.6503040869
 21
30.5937998301
  0
LINE
  8
0
 62
7
  6
CONTINUOUS
 10
159.922179528
 20
30.5937998301
 11
160.269054528
 21
30.5937998301
  0
LINE
  8
0
 62
7
  6
CONTINUOUS
 10
160.269054528
 20
30.7228545871
 11
159.922179528
 21
30.7228545871
  0
LINE
  8
0
 62
7
  6
CONTINUOUS
 10
154.8924916972
 20
30.7228545871
 11
154.5456166972
 21
30.7228545871
  0
LINE
  8
0
 62
7
  6
CONTINUOUS
 10
159.401867028
 20
30.8519093441
 11
159.1128043074
 21
30.8519093441
  0
LINE
  8
0
 62
7
  6
CONTINUOUS
 10
151.4237418626
 20
30.9164367395
 11
151.1346793074
 21
30.9164367395
  0
LINE
  8
0
 62
7
  6
CONTINUOUS
 10
150.498741835
 20
31.4971831403
 11
150.9034292799
 21
31.4649194539
  0
LINE
  8
0
 62
7
  6
CONTINUOUS
 10
150.9612418074
 20
31.5939741996
 11
150.5565542799
 21
31.626237886
  0
LINE
  8
0
 62
7
  6
CONTINUOUS
 10
159.575304528
 20
30.6260635193
 11
159.922179528
 21
30.5937998301
  0
LINE
  8
0
 62
7
  6
CONTINUOUS
 10
159.922179528
 20
30.7228545871
 11
159.575304528
 21
30.7551182848
  0
LINE
  8
0
 62
7
  6
CONTINUOUS
 10
155.3549915869
 20
31.5939741996
 11
155.0081169177
 21
31.626237886
  0
LINE
  8
0
 62
7
  6
CONTINUOUS
 10
160.1534293074
 20
31.4971831403
 11
160.5003043074
 21
31.4649194539
  0
LINE
  8
0
 62
7
  6
CONTINUOUS
 10
160.5003043074
 20
31.5939741996
 11
160.1534293074
 21
31.626237886
  0
LINE
  8
0
 62
7
  6
CONTINUOUS
 10
157.840929528
 20
31.4971831403
 11
158.0721793074
 21
31.4649194539
  0
LINE
  8
0
 62
7
  6
CONTINUOUS
 10
160.6737418074
 20
31.5617105132
 11
160.5003043074
 21
31.5939741996
  0
LINE
  8
0
 62
7
  6
CONTINUOUS
 10
160.8471793074
 20
30.6905909007
 11
160.9628038663
 21
30.7873819712
  0
LINE
  8
0
 62
7
  6
CONTINUOUS
 10
155.3549915869
 20
30.8841730531
 11
155.1815540869
 21
30.7873819712
  0
LINE
  8
0
 62
7
  6
CONTINUOUS
 10
157.4362415869
 20
31.5294468267
 11
157.320617028
 21
31.4649194539
  0
LINE
  8
0
 62
7
  6
CONTINUOUS
 10
157.320617028
 20
31.3358647082
 11
157.4362415869
 21
31.400392081
  0
LINE
  8
0
 62
7
  6
CONTINUOUS
 10
150.0362418212
 20
31.5617105132
 11
149.8628043005
 21
31.4971831403
  0
LINE
  8
0
 62
7
  6
CONTINUOUS
 10
152.4643666972
 20
31.5939741996
 11
152.2909293626
 21
31.5294468267
  0
LINE
  8
0
 62
7
  6
CONTINUOUS
 10
152.2909293626
 20
31.400392081
 11
152.4643666972
 21
31.4649194539
  0
LINE
  8
0
 62
7
  6
CONTINUOUS
 10
151.0768668626
 20
30.8196456577
 11
150.9034292799
 21
30.7551182848
  0
LINE
  8
0
 62
7
  6
CONTINUOUS
 10
160.5003043074
 20
30.7551182848
 11
160.269054528
 21
30.7228545871
  0
LINE
  8
0
 62
7
  6
CONTINUOUS
 10
154.8924916972
 20
30.5937998301
 11
155.1815540869
 21
30.6260635193
  0
LINE
  8
0
 62
7
  6
CONTINUOUS
 10
160.269054528
 20
30.5937998301
 11
160.615929528
 21
30.6260635193
  0
LINE
  8
0
 62
7
  6
CONTINUOUS
 10
150.5565542799
 20
30.5937998301
 11
150.9612418074
 21
30.6260635193
  0
LINE
  8
0
 62
7
  6
CONTINUOUS
 10
150.9034292799
 20
30.7551182848
 11
150.498741835
 21
30.7228545871
  0
LINE
  8
0
 62
7
  6
CONTINUOUS
 10
154.7768668074
 20
31.1422825445
 11
155.412804528
 21
31.1422825445
  0
LINE
  8
0
 62
7
  6
CONTINUOUS
 10
155.412804528
 20
31.2713373354
 11
154.7768668074
 21
31.2713373354
  0
LINE
  8
0
 62
7
  6
CONTINUOUS
 10
151.1346793074
 20
31.3036010218
 11
151.4237418626
 21
31.3036010218
  0
LINE
  8
0
 62
7
  6
CONTINUOUS
 10
153.9674919177
 20
31.3681283946
 11
154.2565543074
 21
31.3681283946
  0
LINE
  8
0
 62
7
  6
CONTINUOUS
 10
160.6737418074
 20
31.3681283946
 11
160.9628038663
 21
31.3681283946
  0
LINE
  8
0
 62
7
  6
CONTINUOUS
 10
154.6612419177
 20
31.4971831403
 11
155.0081169177
 21
31.4971831403
  0
LINE
  8
0
 62
7
  6
CONTINUOUS
 10
159.8065543074
 20
31.4971831403
 11
160.1534293074
 21
31.4971831403
  0
LINE
  8
0
 62
7
  6
CONTINUOUS
 10
160.1534293074
 20
31.626237886
 11
159.8065543074
 21
31.626237886
  0
LINE
  8
0
 62
7
  6
CONTINUOUS
 10
158.0721793074
 20
31.626237886
 11
157.840929528
 21
31.626237886
  0
LINE
  8
0
 62
7
  6
CONTINUOUS
 10
157.320617028
 20
31.626237886
 11
157.0315543074
 21
31.626237886
  0
LINE
  8
0
 62
7
  6
CONTINUOUS
 10
156.5690540869
 20
31.626237886
 11
156.279992028
 21
31.626237886
  0
LINE
  8
0
 62
7
  6
CONTINUOUS
 10
155.0081169177
 20
31.626237886
 11
154.6612419177
 21
31.626237886
  0
LINE
  8
0
 62
7
  6
CONTINUOUS
 10
152.9268669177
 20
31.626237886
 11
152.6956168074
 21
31.626237886
  0
LINE
  8
0
 62
7
  6
CONTINUOUS
 10
156.279992028
 20
31.9488748406
 11
156.5690540869
 21
31.9488748406
  0
LINE
  8
0
 62
7
  6
CONTINUOUS
 10
156.5690540869
 20
32.1101932727
 11
156.279992028
 21
32.1101932727
  0
LINE
  8
0
 62
7
  6
CONTINUOUS
 10
152.1753043074
 20
32.1101932727
 11
151.8862417523
 21
32.1101932727
  0
LINE
  8
0
 62
7
  6
CONTINUOUS
 10
151.2130860697
 20
32.3970785186
 11
151.6256574183
 21
32.3970785186
  0
LINE
  8
0
 62
7
  6
CONTINUOUS
 10
152.852430332
 20
32.3970785186
 11
154.245872955
 21
32.3970785186
  0
LINE
  8
0
 62
7
  6
CONTINUOUS
 10
154.5737418074
 20
32.3970785186
 11
155.9671844304
 21
32.3970785186
  0
LINE
  8
0
 62
7
  6
CONTINUOUS
 10
157.852430332
 20
32.3970785186
 11
159.245872955
 21
32.3970785186
  0
LINE
  8
0
 62
7
  6
CONTINUOUS
 10
159.5737418074
 20
32.3970785186
 11
160.9671844304
 21
32.3970785186
  0
LINE
  8
0
 62
7
  6
CONTINUOUS
 10
157.6096790869
 20
31.5939741996
 11
157.4362415869
 21
31.5294468267
  0
LINE
  8
0
 62
7
  6
CONTINUOUS
 10
155.1815540869
 20
30.6260635193
 11
155.3549915869
 21
30.6905909007
  0
LINE
  8
0
 62
7
  6
CONTINUOUS
 10
160.615929528
 20
30.6260635193
 11
160.8471793074
 21
30.6905909007
  0
LINE
  8
0
 62
7
  6
CONTINUOUS
 10
160.615929528
 20
30.7873819712
 11
160.5003043074
 21
30.7551182848
  0
LINE
  8
0
 62
7
  6
CONTINUOUS
 10
159.575304528
 20
31.4649194539
 11
159.8065543074
 21
31.4971831403
  0
LINE
  8
0
 62
7
  6
CONTINUOUS
 10
157.6096790869
 20
31.4649194539
 11
157.840929528
 21
31.4971831403
  0
LINE
  8
0
 62
7
  6
CONTINUOUS
 10
154.5456166972
 20
31.1100188581
 11
154.7768668074
 21
31.1422825445
  0
LINE
  8
0
 62
7
  6
CONTINUOUS
 10
157.840929528
 20
31.626237886
 11
157.6096790869
 21
31.5939741996
  0
LINE
  8
0
 62
7
  6
CONTINUOUS
 10
154.4299918074
 20
31.4649194539
 11
154.6612419177
 21
31.4971831403
  0
LINE
  8
0
 62
7
  6
CONTINUOUS
 10
159.8065543074
 20
31.626237886
 11
159.4596793074
 21
31.5939741996
  0
LINE
  8
0
 62
7
  6
CONTINUOUS
 10
154.7768668074
 20
31.2713373354
 11
154.4299918074
 21
31.2390736489
  0
LINE
  8
0
 62
7
  6
CONTINUOUS
 10
150.5565542799
 20
31.626237886
 11
150.2096793212
 21
31.5939741996
  0
LINE
  8
0
 62
7
  6
CONTINUOUS
 10
154.6612419177
 20
31.626237886
 11
154.2565543074
 21
31.5939741996
  0
LINE
  8
0
 62
7
  6
CONTINUOUS
 10
152.0327582009
 20
33.5446195022
 11
151.3770204959
 21
33.5446195022
  0
LINE
  8
0
 62
7
  6
CONTINUOUS
 10
157.4362415869
 20
31.400392081
 11
157.6096790869
 21
31.4649194539
  0
LINE
  8
0
 62
7
  6
CONTINUOUS
 10
159.4596793074
 20
31.4326557675
 11
159.575304528
 21
31.4649194539
  0
LINE
  8
0
 62
7
  6
CONTINUOUS
 10
159.4596793074
 20
31.5939741996
 11
159.228429528
 21
31.5294468267
  0
LINE
  8
0
 62
7
  6
CONTINUOUS
 10
155.1815540869
 20
30.7873819712
 11
154.8924916972
 21
30.7228545871
  0
LINE
  8
0
 62
7
  6
CONTINUOUS
 10
152.4643666972
 20
31.4649194539
 11
152.6956168074
 21
31.4971831403
  0
LINE
  8
0
 62
7
  6
CONTINUOUS
 10
152.6956168074
 20
31.626237886
 11
152.4643666972
 21
31.5939741996
  0
LINE
  8
0
 62
7
  6
CONTINUOUS
 10
150.2674918074
 20
31.4649194539
 11
150.498741835
 21
31.4971831403
  0
LINE
  8
0
 62
7
  6
CONTINUOUS
 10
156.7868565615
 20
35.0200293383
 11
157.4425942664
 21
35.0200293383
  0
LINE
  8
0
 62
7
  6
CONTINUOUS
 10
154.4299918074
 20
31.0777551716
 11
154.5456166972
 21
31.1100188581
  0
LINE
  8
0
 62
7
  6
CONTINUOUS
 10
154.4299918074
 20
31.2390736489
 11
154.1987416972
 21
31.1745462761
  0
LINE
  8
0
 62
7
  6
CONTINUOUS
 10
154.3143669177
 20
31.4326557675
 11
154.4299918074
 21
31.4649194539
  0
LINE
  8
0
 62
7
  6
CONTINUOUS
 10
150.9612418074
 20
30.6260635193
 11
151.1924917523
 21
30.6905909007
  0
LINE
  8
0
 62
7
  6
CONTINUOUS
 10
154.2565543074
 20
31.5939741996
 11
154.1409294177
 21
31.5617105132
  0
LINE
  8
0
 62
7
  6
CONTINUOUS
 10
150.2096793212
 20
31.5939741996
 11
150.0362418212
 21
31.5617105132
  0
LINE
  8
0
 62
7
  6
CONTINUOUS
 10
160.9671844304
 20
36.1675703219
 11
159.5737418074
 21
36.1675703219
  0
LINE
  8
0
 62
7
  6
CONTINUOUS
 10
157.6065286927
 20
36.1675703219
 11
157.1939573441
 21
36.1675703219
  0
LINE
  8
0
 62
7
  6
CONTINUOUS
 10
155.9671844304
 20
36.1675703219
 11
154.5737418074
 21
36.1675703219
  0
LINE
  8
0
 62
7
  6
CONTINUOUS
 10
154.245872955
 20
36.1675703219
 11
152.852430332
 21
36.1675703219
  0
LINE
  8
0
 62
7
  6
CONTINUOUS
 10
150.9671844304
 20
36.1675703219
 11
149.5737418074
 21
36.1675703219
  0
LINE
  8
0
 62
7
  6
CONTINUOUS
 10
150.1518667936
 20
31.4326557675
 11
150.2674918074
 21
31.4649194539
  0
CIRCLE
  8
0
 62
7
  6
CONTINUOUS
 10
160.2704631189
 20
38.5036358957
 40
2.0901639344
  0
ARC
  8
0
 62
7
  6
CONTINUOUS
 10
151.2130860697
 20
34.0364227809
 40
1.6393442623
 50
180.0
 51
270.0
  0
ARC
  8
0
 62
7
  6
CONTINUOUS
 10
157.6065286927
 20
34.5282260596
 40
1.6393442623
 50
0.0
 51
90.0
  0
ARC
  8
0
 62
7
  6
CONTINUOUS
 10
151.6256574183
 20
33.8724883547
 40
1.4754098361
 50
270.0
 51
326.2510114041
  0
ARC
  8
0
 62
7
  6
CONTINUOUS
 10
157.1939573441
 20
34.6921604858
 40
1.4754098361
 50
90.0
 51
146.2510114041
  0
ARC
  8
0
 62
7
  6
CONTINUOUS
 10
152.0327582009
 20
34.3642916334
 40
0.8196721311
 50
270.0
 51
360.0
  0
ARC
  8
0
 62
7
  6
CONTINUOUS
 10
156.7868565615
 20
34.2003572071
 40
0.8196721311
 50
90.0
 51
180.0
  0
ARC
  8
0
 62
7
  6
CONTINUOUS
 10
151.3770204959
 20
33.9544555678
 40
0.4098360656
 50
180.0
 51
270.0
  0
ARC
  8
0
 62
7
  6
CONTINUOUS
 10
157.4425942664
 20
34.6101932727
 40
0.4098360656
 50
0.0
 51
90.0
  0
SOLID
  8
0
 62
7
  6
CONTINUOUS
 10
156.279992028
 20
31.9488752009
 11
156.279992028
 21
32.1101936845
 12
156.5690540869
 22
31.9488752009
 13
156.5690540869
 23
32.1101936845
  0
SOLID
  8
0
 62
7
  6
CONTINUOUS
 10
150.5565542799
 20
31.6262382337
 11
150.9612418074
 21
31.5939740028
 12
150.2096793212
 22
31.5939740028
 13
150.2096793212
 23
31.5939740028
  0
SOLID
  8
0
 62
7
  6
CONTINUOUS
 10
150.0362418212
 20
31.5617111435
 11
150.2096793212
 21
31.5939740028
 12
150.9612418074
 22
31.5939740028
 13
150.9612418074
 23
31.5939740028
  0
SOLID
  8
0
 62
7
  6
CONTINUOUS
 10
150.9612418074
 20
31.5939740028
 11
151.1924917523
 21
31.5294468402
 12
150.0362418212
 22
31.5617111435
 13
150.0362418212
 23
31.5617111435
  0
SOLID
  8
0
 62
7
  6
CONTINUOUS
 10
149.8628043005
 20
31.49718259
 11
150.0362418212
 21
31.5617111435
 12
151.1924917523
 22
31.5294468402
 13
151.1924917523
 23
31.5294468402
  0
SOLID
  8
0
 62
7
  6
CONTINUOUS
 10
149.8628043005
 20
31.49718259
 11
151.1924917523
 21
31.5294468402
 12
150.498741835
 22
31.49718259
 13
150.498741835
 23
31.49718259
  0
SOLID
  8
0
 62
7
  6
CONTINUOUS
 10
150.498741835
 20
31.49718259
 11
151.1924917523
 21
31.5294468402
 12
150.9034292799
 22
31.4649197501
 13
150.9034292799
 23
31.4649197501
  0
SOLID
  8
0
 62
7
  6
CONTINUOUS
 10
151.1924917523
 20
31.5294468402
 11
151.3659292523
 21
31.4326554468
 12
150.9034292799
 22
31.4649197501
 13
150.9034292799
 23
31.4649197501
  0
SOLID
  8
0
 62
7
  6
CONTINUOUS
 10
151.0768668626
 20
31.4003926599
 11
150.9034292799
 21
31.4649197501
 12
151.3659292523
 22
31.4326554468
 13
151.3659292523
 23
31.4326554468
  0
SOLID
  8
0
 62
7
  6
CONTINUOUS
 10
151.0768668626
 20
31.4003926599
 11
151.3659292523
 21
31.4326554468
 12
151.1346793074
 22
31.3036013776
 13
151.1346793074
 23
31.3036013776
  0
SOLID
  8
0
 62
7
  6
CONTINUOUS
 10
151.3659292523
 20
31.4326554468
 11
151.4237418626
 21
31.3036013776
 12
151.1346793074
 22
31.3036013776
 13
151.1346793074
 23
31.3036013776
  0
SOLID
  8
0
 62
7
  6
CONTINUOUS
 10
152.4643666972
 20
31.5939739754
 11
152.6956168074
 21
31.6262382787
 12
152.9268669177
 22
31.6262382787
 13
152.9268669177
 23
31.6262382787
  0
SOLID
  8
0
 62
7
  6
CONTINUOUS
 10
152.9268669177
 20
31.6262382787
 11
153.1003044177
 21
31.5939739754
 12
152.4643666972
 22
31.5939739754
 13
152.4643666972
 23
31.5939739754
  0
SOLID
  8
0
 62
7
  6
CONTINUOUS
 10
152.2909293626
 20
31.5294468852
 11
152.4643666972
 21
31.5939739754
 12
153.1003044177
 22
31.5939739754
 13
153.1003044177
 23
31.5939739754
  0
SOLID
  8
0
 62
7
  6
CONTINUOUS
 10
153.1003044177
 20
31.5939739754
 11
153.2737419177
 21
31.5294468852
 12
152.2909293626
 22
31.5294468852
 13
152.2909293626
 23
31.5294468852
  0
SOLID
  8
0
 62
7
  6
CONTINUOUS
 10
153.2737419177
 20
31.5294468852
 11
152.6956168074
 21
31.4971825369
 12
152.2909293626
 22
31.5294468852
 13
152.2909293626
 23
31.5294468852
  0
SOLID
  8
0
 62
7
  6
CONTINUOUS
 10
152.1753043074
 20
31.4649197951
 11
152.2909293626
 21
31.5294468852
 12
152.6956168074
 22
31.4971825369
 13
152.6956168074
 23
31.4971825369
  0
SOLID
  8
0
 62
7
  6
CONTINUOUS
 10
152.6956168074
 20
31.4971825369
 11
152.4643666972
 21
31.4649197951
 12
152.1753043074
 22
31.4649197951
 13
152.1753043074
 23
31.4649197951
  0
SOLID
  8
0
 62
7
  6
CONTINUOUS
 10
152.6956168074
 20
31.4971825369
 11
153.2737419177
 21
31.5294468852
 12
152.9268669177
 22
31.4649197951
 13
152.9268669177
 23
31.4649197951
  0
SOLID
  8
0
 62
7
  6
CONTINUOUS
 10
153.2737419177
 20
31.5294468852
 11
153.3893668074
 21
31.4649197951
 12
152.9268669177
 22
31.4649197951
 13
152.9268669177
 23
31.4649197951
  0
SOLID
  8
0
 62
7
  6
CONTINUOUS
 10
153.0424918074
 20
31.4326554468
 11
152.9268669177
 21
31.4649197951
 12
153.3893668074
 22
31.4649197951
 13
153.3893668074
 23
31.4649197951
  0
SOLID
  8
0
 62
7
  6
CONTINUOUS
 10
153.3893668074
 20
31.4649197951
 11
153.4471794177
 21
31.4003927049
 12
153.0424918074
 22
31.4326554468
 13
153.0424918074
 23
31.4326554468
  0
SOLID
  8
0
 62
7
  6
CONTINUOUS
 10
153.1581166972
 20
31.3681283566
 11
153.0424918074
 21
31.4326554468
 12
153.4471794177
 22
31.4003927049
 13
153.4471794177
 23
31.4003927049
  0
SOLID
  8
0
 62
7
  6
CONTINUOUS
 10
153.1581166972
 20
31.3681283566
 11
153.4471794177
 21
31.4003927049
 12
153.2159293074
 22
31.2390742213
 13
153.2159293074
 23
31.2390742213
  0
SOLID
  8
0
 62
7
  6
CONTINUOUS
 10
153.4471794177
 20
31.4003927049
 11
153.5049916972
 21
31.2390742213
 12
153.2159293074
 22
31.2390742213
 13
153.2159293074
 23
31.2390742213
  0
SOLID
  8
0
 62
7
  6
CONTINUOUS
 10
152.4643666972
 20
31.4649197951
 11
152.2909293626
 21
31.4003927049
 12
152.1753043074
 22
31.4649197951
 13
152.1753043074
 23
31.4649197951
  0
SOLID
  8
0
 62
7
  6
CONTINUOUS
 10
152.2909293626
 20
31.4003927049
 11
152.1753043074
 21
31.3358640533
 12
152.1753043074
 22
31.4649197951
 13
152.1753043074
 23
31.4649197951
  0
SOLID
  8
0
 62
7
  6
CONTINUOUS
 10
152.1753043074
 20
31.3358640533
 11
151.8862417523
 21
30.5938002869
 12
152.1753043074
 22
31.4649197951
 13
152.1753043074
 23
31.4649197951
  0
SOLID
  8
0
 62
7
  6
CONTINUOUS
 10
152.1753043074
 20
31.4649197951
 11
151.8862417523
 21
30.5938002869
 12
152.1753043074
 22
32.1101937295
 13
152.1753043074
 23
32.1101937295
  0
SOLID
  8
0
 62
7
  6
CONTINUOUS
 10
151.8862417523
 20
30.5938002869
 11
151.8862417523
 21
32.1101937295
 12
152.1753043074
 22
32.1101937295
 13
152.1753043074
 23
32.1101937295
  0
SOLID
  8
0
 62
7
  6
CONTINUOUS
 10
152.1753043074
 20
31.3358640533
 11
152.1753043074
 21
30.5938002869
 12
151.8862417523
 22
30.5938002869
 13
151.8862417523
 23
30.5938002869
  0
SOLID
  8
0
 62
7
  6
CONTINUOUS
 10
153.2159293074
 20
30.5938002869
 11
153.2159293074
 21
31.2390742213
 12
153.5049916972
 22
31.2390742213
 13
153.5049916972
 23
31.2390742213
  0
SOLID
  8
0
 62
7
  6
CONTINUOUS
 10
153.5049916972
 20
31.2390742213
 11
153.5049916972
 21
30.5938002869
 12
153.2159293074
 22
30.5938002869
 13
153.2159293074
 23
30.5938002869
  0
SOLID
  8
0
 62
7
  6
CONTINUOUS
 10
154.2565543074
 20
31.5939738288
 11
154.6612419177
 21
31.6262385959
 12
155.0081169177
 22
31.6262385959
 13
155.0081169177
 23
31.6262385959
  0
SOLID
  8
0
 62
7
  6
CONTINUOUS
 10
155.0081169177
 20
31.6262385959
 11
155.3549915869
 21
31.5939738288
 12
154.2565543074
 22
31.5939738288
 13
154.2565543074
 23
31.5939738288
  0
SOLID
  8
0
 62
7
  6
CONTINUOUS
 10
154.1409294177
 20
31.5617111435
 11
154.2565543074
 21
31.5939738288
 12
155.3549915869
 22
31.5939738288
 13
155.3549915869
 23
31.5939738288
  0
SOLID
  8
0
 62
7
  6
CONTINUOUS
 10
155.3549915869
 20
31.5939738288
 11
155.5284290869
 21
31.5294468402
 12
154.1409294177
 22
31.5617111435
 13
154.1409294177
 23
31.5617111435
  0
SOLID
  8
0
 62
7
  6
CONTINUOUS
 10
154.0253041972
 20
31.4971826249
 11
154.1409294177
 21
31.5617111435
 12
155.5284290869
 22
31.5294468402
 13
155.5284290869
 23
31.5294468402
  0
SOLID
  8
0
 62
7
  6
CONTINUOUS
 10
154.0253041972
 20
31.4971826249
 11
155.5284290869
 21
31.5294468402
 12
154.6612419177
 22
31.4971826249
 13
154.6612419177
 23
31.4971826249
  0
SOLID
  8
0
 62
7
  6
CONTINUOUS
 10
154.6612419177
 20
31.4971826249
 11
155.5284290869
 21
31.5294468402
 12
155.0081169177
 22
31.4971826249
 13
155.0081169177
 23
31.4971826249
  0
SOLID
  8
0
 62
7
  6
CONTINUOUS
 10
155.0081169177
 20
31.4971826249
 11
155.5284290869
 21
31.5294468402
 12
155.239367028
 22
31.4649194065
 13
155.239367028
 23
31.4649194065
  0
SOLID
  8
0
 62
7
  6
CONTINUOUS
 10
155.5284290869
 20
31.5294468402
 11
155.6440543074
 21
31.4649194065
 12
155.239367028
 22
31.4649194065
 13
155.239367028
 23
31.4649194065
  0
SOLID
  8
0
 62
7
  6
CONTINUOUS
 10
153.9674919177
 20
31.4326554138
 11
154.0253041972
 21
31.4971826249
 12
154.6612419177
 22
31.4971826249
 13
154.6612419177
 23
31.4971826249
  0
SOLID
  8
0
 62
7
  6
CONTINUOUS
 10
155.3549915869
 20
31.4326554138
 11
155.239367028
 21
31.4649194065
 12
155.6440543074
 22
31.4649194065
 13
155.6440543074
 23
31.4649194065
  0
SOLID
  8
0
 62
7
  6
CONTINUOUS
 10
155.3549915869
 20
31.4326554138
 11
155.6440543074
 21
31.4649194065
 12
155.412804528
 22
31.3681282026
 13
155.412804528
 23
31.3681282026
  0
SOLID
  8
0
 62
7
  6
CONTINUOUS
 10
155.6440543074
 20
31.4649194065
 11
155.7018665869
 21
31.3681282026
 12
155.412804528
 22
31.3681282026
 13
155.412804528
 23
31.3681282026
  0
SOLID
  8
0
 62
7
  6
CONTINUOUS
 10
155.412804528
 20
31.2713369632
 11
155.412804528
 21
31.3681282026
 12
155.7018665869
 22
31.3681282026
 13
155.7018665869
 23
31.3681282026
  0
SOLID
  8
0
 62
7
  6
CONTINUOUS
 10
155.412804528
 20
31.2713369632
 11
155.7018665869
 21
31.3681282026
 12
155.412804528
 22
31.1422827828
 13
155.412804528
 23
31.1422827828
  0
SOLID
  8
0
 62
7
  6
CONTINUOUS
 10
155.412804528
 20
31.1422827828
 11
155.7018665869
 21
31.3681282026
 12
155.412804528
 22
30.9487004259
 13
155.412804528
 23
30.9487004259
  0
SOLID
  8
0
 62
7
  6
CONTINUOUS
 10
155.7018665869
 20
31.3681282026
 11
155.7018665869
 21
30.8519086025
 12
155.412804528
 22
30.9487004259
 13
155.412804528
 23
30.9487004259
  0
SOLID
  8
0
 62
7
  6
CONTINUOUS
 10
157.6096790869
 20
31.5939736268
 11
157.840929528
 21
31.6262383465
 12
158.0721793074
 22
31.6262383465
 13
158.0721793074
 23
31.6262383465
  0
SOLID
  8
0
 62
7
  6
CONTINUOUS
 10
158.0721793074
 20
31.6262383465
 11
158.2456168074
 21
31.5939736268
 12
157.6096790869
 22
31.5939736268
 13
157.6096790869
 23
31.5939736268
  0
SOLID
  8
0
 62
7
  6
CONTINUOUS
 10
157.4362415869
 20
31.5294472848
 11
157.6096790869
 21
31.5939736268
 12
158.2456168074
 22
31.5939736268
 13
158.2456168074
 23
31.5939736268
  0
SOLID
  8
0
 62
7
  6
CONTINUOUS
 10
158.2456168074
 20
31.5939736268
 11
158.4190543074
 21
31.5294472848
 12
157.4362415869
 22
31.5294472848
 13
157.4362415869
 23
31.5294472848
  0
SOLID
  8
0
 62
7
  6
CONTINUOUS
 10
158.4190543074
 20
31.5294472848
 11
157.840929528
 21
31.4971825369
 12
157.4362415869
 22
31.5294472848
 13
157.4362415869
 23
31.5294472848
  0
SOLID
  8
0
 62
7
  6
CONTINUOUS
 10
157.320617028
 20
31.4649199103
 11
157.4362415869
 21
31.5294472848
 12
157.840929528
 22
31.4971825369
 13
157.840929528
 23
31.4971825369
  0
SOLID
  8
0
 62
7
  6
CONTINUOUS
 10
157.840929528
 20
31.4971825369
 11
157.6096790869
 21
31.4649199103
 12
157.320617028
 22
31.4649199103
 13
157.320617028
 23
31.4649199103
  0
SOLID
  8
0
 62
7
  6
CONTINUOUS
 10
157.840929528
 20
31.4971825369
 11
158.4190543074
 21
31.5294472848
 12
158.0721793074
 22
31.4649199103
 13
158.0721793074
 23
31.4649199103
  0
SOLID
  8
0
 62
7
  6
CONTINUOUS
 10
158.4190543074
 20
31.5294472848
 11
158.534679528
 21
31.4649199103
 12
158.0721793074
 22
31.4649199103
 13
158.0721793074
 23
31.4649199103
  0
SOLID
  8
0
 62
7
  6
CONTINUOUS
 10
158.187804528
 20
31.4326554468
 11
158.0721793074
 21
31.4649199103
 12
158.534679528
 22
31.4649199103
 13
158.534679528
 23
31.4649199103
  0
SOLID
  8
0
 62
7
  6
CONTINUOUS
 10
158.187804528
 20
31.4326554468
 11
158.534679528
 21
31.4649199103
 12
158.3034290869
 22
31.3681288486
 13
158.3034290869
 23
31.3681288486
  0
SOLID
  8
0
 62
7
  6
CONTINUOUS
 10
158.534679528
 20
31.4649199103
 11
158.5924918074
 21
31.3681288486
 12
158.3034290869
 22
31.3681288486
 13
158.3034290869
 23
31.3681288486
  0
SOLID
  8
0
 62
7
  6
CONTINUOUS
 10
158.361242028
 20
31.2068093799
 11
158.3034290869
 21
31.3681288486
 12
158.5924918074
 22
31.3681288486
 13
158.5924918074
 23
31.3681288486
  0
SOLID
  8
0
 62
7
  6
CONTINUOUS
 10
158.5924918074
 20
31.3681288486
 11
158.6503040869
 21
31.2068093799
 12
158.361242028
 22
31.2068093799
 13
158.361242028
 23
31.2068093799
  0
SOLID
  8
0
 62
7
  6
CONTINUOUS
 10
157.6096790869
 20
31.4649199103
 11
157.4362415869
 21
31.4003926599
 12
157.320617028
 22
31.4649199103
 13
157.320617028
 23
31.4649199103
  0
SOLID
  8
0
 62
7
  6
CONTINUOUS
 10
157.4362415869
 20
31.4003926599
 11
157.320617028
 21
31.3358640533
 12
157.320617028
 22
31.4649199103
 13
157.320617028
 23
31.4649199103
  0
SOLID
  8
0
 62
7
  6
CONTINUOUS
 10
157.320617028
 20
31.3358640533
 11
157.0315543074
 21
30.5938003547
 12
157.320617028
 22
31.4649199103
 13
157.320617028
 23
31.4649199103
  0
SOLID
  8
0
 62
7
  6
CONTINUOUS
 10
157.320617028
 20
31.4649199103
 11
157.0315543074
 21
30.5938003547
 12
157.320617028
 22
31.6262383465
 13
157.320617028
 23
31.6262383465
  0
SOLID
  8
0
 62
7
  6
CONTINUOUS
 10
157.0315543074
 20
30.5938003547
 11
157.0315543074
 21
31.6262383465
 12
157.320617028
 22
31.6262383465
 13
157.320617028
 23
31.6262383465
  0
SOLID
  8
0
 62
7
  6
CONTINUOUS
 10
157.320617028
 20
31.3358640533
 11
157.320617028
 21
30.5938003547
 12
157.0315543074
 22
30.5938003547
 13
157.0315543074
 23
30.5938003547
  0
SOLID
  8
0
 62
7
  6
CONTINUOUS
 10
158.361242028
 20
30.5938003547
 11
158.361242028
 21
31.2068093799
 12
158.6503040869
 22
31.2068093799
 13
158.6503040869
 23
31.2068093799
  0
SOLID
  8
0
 62
7
  6
CONTINUOUS
 10
158.6503040869
 20
31.2068093799
 11
158.6503040869
 21
30.5938003547
 12
158.361242028
 22
30.5938003547
 13
158.361242028
 23
30.5938003547
  0
SOLID
  8
0
 62
7
  6
CONTINUOUS
 10
159.4596793074
 20
31.5939739474
 11
159.8065543074
 21
31.6262381969
 12
160.1534293074
 22
31.6262381969
 13
160.1534293074
 23
31.6262381969
  0
SOLID
  8
0
 62
7
  6
CONTINUOUS
 10
160.1534293074
 20
31.6262381969
 11
160.5003043074
 21
31.5939739474
 12
159.4596793074
 22
31.5939739474
 13
159.4596793074
 23
31.5939739474
  0
SOLID
  8
0
 62
7
  6
CONTINUOUS
 10
159.228429528
 20
31.5294468402
 11
159.4596793074
 21
31.5939739474
 12
160.5003043074
 22
31.5939739474
 13
160.5003043074
 23
31.5939739474
  0
SOLID
  8
0
 62
7
  6
CONTINUOUS
 10
159.228429528
 20
31.5294468402
 11
160.5003043074
 21
31.5939739304
 12
160.6737418074
 22
31.5617111435
 13
160.6737418074
 23
31.5617111435
  0
SOLID
  8
0
 62
7
  6
CONTINUOUS
 10
159.228429528
 20
31.5294468402
 11
160.6737418074
 21
31.5617111435
 12
159.8065543074
 22
31.4971825592
 13
159.8065543074
 23
31.4971825592
  0
SOLID
  8
0
 62
7
  6
CONTINUOUS
 10
159.8065543074
 20
31.4971825592
 11
160.6737418074
 21
31.5617111435
 12
160.1534293074
 22
31.4971825592
 13
160.1534293074
 23
31.4971825592
  0
SOLID
  8
0
 62
7
  6
CONTINUOUS
 10
160.6737418074
 20
31.5617111435
 11
160.8471793074
 21
31.4971825592
 12
160.1534293074
 22
31.4971825592
 13
160.1534293074
 23
31.4971825592
  0
SOLID
  8
0
 62
7
  6
CONTINUOUS
 10
160.5003043074
 20
31.4649197501
 11
160.1534293074
 21
31.4971825592
 12
160.8471793074
 22
31.4971825592
 13
160.8471793074
 23
31.4971825592
  0
SOLID
  8
0
 62
7
  6
CONTINUOUS
 10
159.1128043074
 20
31.4326555427
 11
159.228429528
 21
31.5294468402
 12
159.8065543074
 22
31.4971825592
 13
159.8065543074
 23
31.4971825592
  0
SOLID
  8
0
 62
7
  6
CONTINUOUS
 10
160.5003043074
 20
31.4649197501
 11
160.8471793074
 21
31.4971825592
 12
160.615929528
 22
31.4326555427
 13
160.615929528
 23
31.4326555427
  0
SOLID
  8
0
 62
7
  6
CONTINUOUS
 10
160.615929528
 20
31.4326555427
 11
160.8471793074
 21
31.4971825592
 12
160.6737418074
 22
31.3681283005
 13
160.6737418074
 23
31.3681283005
  0
SOLID
  8
0
 62
7
  6
CONTINUOUS
 10
160.8471793074
 20
31.4971825592
 11
160.9628038663
 21
31.3681283005
 12
160.6737418074
 22
31.3681283005
 13
160.6737418074
 23
31.3681283005
  0
SOLID
  8
0
 62
7
  6
CONTINUOUS
 10
150.2674918074
 20
31.4649197501
 11
149.7471793074
 21
31.4326554237
 12
150.498741835
 22
31.4971824493
 13
150.498741835
 23
31.4971824493
  0
SOLID
  8
0
 62
7
  6
CONTINUOUS
 10
149.7471793074
 20
31.4326554237
 11
149.8628043005
 21
31.4971824493
 12
150.498741835
 22
31.4971824493
 13
150.498741835
 23
31.4971824493
  0
SOLID
  8
0
 62
7
  6
CONTINUOUS
 10
150.2674918074
 20
31.4649197501
 11
150.1518667936
 21
31.4326554237
 12
149.7471793074
 22
31.4326554237
 13
149.7471793074
 23
31.4326554237
  0
SOLID
  8
0
 62
7
  6
CONTINUOUS
 10
149.6315543091
 20
31.3036012664
 11
149.7471793074
 21
31.4326554237
 12
150.1518667936
 22
31.4326554237
 13
150.1518667936
 23
31.4326554237
  0
SOLID
  8
0
 62
7
  6
CONTINUOUS
 10
153.9674919177
 20
31.4326554237
 11
154.6612419177
 21
31.4971825369
 12
154.4299918074
 22
31.4649197501
 13
154.4299918074
 23
31.4649197501
  0
SOLID
  8
0
 62
7
  6
CONTINUOUS
 10
154.4299918074
 20
31.4649197501
 11
154.3143669177
 21
31.4326554237
 12
153.9674919177
 22
31.4326554237
 13
153.9674919177
 23
31.4326554237
  0
SOLID
  8
0
 62
7
  6
CONTINUOUS
 10
153.9674919177
 20
31.3681283335
 11
153.9674919177
 21
31.4326554237
 12
154.3143669177
 22
31.4326554237
 13
154.3143669177
 23
31.4326554237
  0
SOLID
  8
0
 62
7
  6
CONTINUOUS
 10
154.3143669177
 20
31.4326554237
 11
154.2565543074
 21
31.3681283335
 12
153.9674919177
 22
31.3681283335
 13
153.9674919177
 23
31.3681283335
  0
SOLID
  8
0
 62
7
  6
CONTINUOUS
 10
159.1128043074
 20
31.4326555528
 11
159.8065543074
 21
31.4971825369
 12
159.575304528
 22
31.4649197501
 13
159.575304528
 23
31.4649197501
  0
SOLID
  8
0
 62
7
  6
CONTINUOUS
 10
159.575304528
 20
31.4649197501
 11
159.4596793074
 21
31.4326555528
 12
159.1128043074
 22
31.4326555528
 13
159.1128043074
 23
31.4326555528
  0
SOLID
  8
0
 62
7
  6
CONTINUOUS
 10
159.1128043074
 20
31.3681284626
 11
159.1128043074
 21
31.4326555528
 12
159.4596793074
 22
31.4326555528
 13
159.4596793074
 23
31.4326555528
  0
SOLID
  8
0
 62
7
  6
CONTINUOUS
 10
159.4596793074
 20
31.4326555528
 11
159.401867028
 21
31.3681284626
 12
159.1128043074
 22
31.3681284626
 13
159.1128043074
 23
31.3681284626
  0
SOLID
  8
0
 62
7
  6
CONTINUOUS
 10
159.228429528
 20
31.2390741763
 11
159.1128043074
 21
31.3681284626
 12
159.401867028
 22
31.3681284626
 13
159.401867028
 23
31.3681284626
  0
SOLID
  8
0
 62
7
  6
CONTINUOUS
 10
149.6315543091
 20
31.3036012664
 11
150.1518667936
 21
31.4326554468
 12
149.9784292936
 22
31.3358640533
 13
149.9784292936
 23
31.3358640533
  0
SOLID
  8
0
 62
7
  6
CONTINUOUS
 10
149.9784292936
 20
31.3358640533
 11
149.9206168074
 21
31.2713369632
 12
149.6315543091
 22
31.3036012664
 13
149.6315543091
 23
31.3036012664
  0
SOLID
  8
0
 62
7
  6
CONTINUOUS
 10
149.5737418074
 20
31.1100184796
 11
149.6315543091
 21
31.3036012664
 12
149.9206168074
 22
31.2713369632
 13
149.9206168074
 23
31.2713369632
  0
SOLID
  8
0
 62
7
  6
CONTINUOUS
 10
154.4299918074
 20
31.2390741763
 11
154.7768668074
 21
31.271336924
 12
155.412804528
 22
31.271336924
 13
155.412804528
 23
31.271336924
  0
SOLID
  8
0
 62
7
  6
CONTINUOUS
 10
154.4299918074
 20
31.2390741763
 11
155.412804528
 21
31.271336924
 12
154.1987416972
 22
31.1745462761
 13
154.1987416972
 23
31.1745462761
  0
SOLID
  8
0
 62
7
  6
CONTINUOUS
 10
154.1987416972
 20
31.1745462761
 11
155.412804528
 21
31.271336924
 12
154.7768668074
 22
31.1422827436
 13
154.7768668074
 23
31.1422827436
  0
SOLID
  8
0
 62
7
  6
CONTINUOUS
 10
155.412804528
 20
31.271336924
 11
155.412804528
 21
31.1422827436
 12
154.7768668074
 22
31.1422827436
 13
154.7768668074
 23
31.1422827436
  0
SOLID
  8
0
 62
7
  6
CONTINUOUS
 10
159.228429528
 20
31.2390745501
 11
159.401867028
 21
31.3681283566
 12
159.4596793074
 22
31.3036012664
 13
159.4596793074
 23
31.3036012664
  0
SOLID
  8
0
 62
7
  6
CONTINUOUS
 10
159.4596793074
 20
31.3036012664
 11
159.6331168074
 21
31.2390745501
 12
159.228429528
 22
31.2390745501
 13
159.228429528
 23
31.2390745501
  0
SOLID
  8
0
 62
7
  6
CONTINUOUS
 10
159.4596793074
 20
31.1422827828
 11
159.228429528
 21
31.2390745501
 12
159.6331168074
 22
31.2390745501
 13
159.6331168074
 23
31.2390745501
  0
SOLID
  8
0
 62
7
  6
CONTINUOUS
 10
159.6331168074
 20
31.2390745501
 11
160.615929528
 21
31.0777556927
 12
159.4596793074
 22
31.1422827828
 13
159.4596793074
 23
31.1422827828
  0
SOLID
  8
0
 62
7
  6
CONTINUOUS
 10
160.442492028
 20
30.9809646623
 11
159.4596793074
 21
31.1422827828
 12
160.615929528
 22
31.0777556927
 13
160.615929528
 23
31.0777556927
  0
SOLID
  8
0
 62
7
  6
CONTINUOUS
 10
160.615929528
 20
31.0777556927
 11
160.8471793074
 21
30.9809646623
 12
160.442492028
 22
30.9809646623
 13
160.442492028
 23
30.9809646623
  0
SOLID
  8
0
 62
7
  6
CONTINUOUS
 10
160.615929528
 20
30.9164372091
 11
160.442492028
 21
30.9809646623
 12
160.8471793074
 22
30.9809646623
 13
160.8471793074
 23
30.9809646623
  0
SOLID
  8
0
 62
7
  6
CONTINUOUS
 10
160.615929528
 20
30.9164372091
 11
160.8471793074
 21
30.9809646623
 12
160.6737418074
 22
30.8519089441
 13
160.6737418074
 23
30.8519089441
  0
SOLID
  8
0
 62
7
  6
CONTINUOUS
 10
160.8471793074
 20
30.9809646623
 11
160.9628038663
 21
30.8519089441
 12
160.6737418074
 22
30.8519089441
 13
160.6737418074
 23
30.8519089441
  0
SOLID
  8
0
 62
7
  6
CONTINUOUS
 10
160.615929528
 20
30.7873818593
 11
160.6737418074
 21
30.8519089441
 12
160.9628038663
 22
30.8519089441
 13
160.9628038663
 23
30.8519089441
  0
SOLID
  8
0
 62
7
  6
CONTINUOUS
 10
160.9628038663
 20
30.8519089441
 11
160.9628038663
 21
30.7873818593
 12
160.615929528
 22
30.7873818593
 13
160.615929528
 23
30.7873818593
  0
SOLID
  8
0
 62
7
  6
CONTINUOUS
 10
160.5003043074
 20
30.7551187255
 11
160.615929528
 21
30.7873818593
 12
160.9628038663
 22
30.7873818593
 13
160.9628038663
 23
30.7873818593
  0
SOLID
  8
0
 62
7
  6
CONTINUOUS
 10
160.5003043074
 20
30.7551187255
 11
160.9628038663
 21
30.7873818593
 12
160.269054528
 22
30.7228547745
 13
160.269054528
 23
30.7228547745
  0
SOLID
  8
0
 62
7
  6
CONTINUOUS
 10
160.9628038663
 20
30.7873818593
 11
160.8471793074
 21
30.6905916353
 12
160.269054528
 22
30.7228547745
 13
160.269054528
 23
30.7228547745
  0
SOLID
  8
0
 62
7
  6
CONTINUOUS
 10
160.8471793074
 20
30.6905916353
 11
159.401867028
 21
30.658327332
 12
160.269054528
 22
30.7228547745
 13
160.269054528
 23
30.7228547745
  0
SOLID
  8
0
 62
7
  6
CONTINUOUS
 10
160.269054528
 20
30.7228547745
 11
159.401867028
 21
30.658327332
 12
159.922179528
 22
30.7228547745
 13
159.922179528
 23
30.7228547745
  0
SOLID
  8
0
 62
7
  6
CONTINUOUS
 10
159.401867028
 20
30.658327332
 11
159.228429528
 21
30.7228547745
 12
159.922179528
 22
30.7228547745
 13
159.922179528
 23
30.7228547745
  0
SOLID
  8
0
 62
7
  6
CONTINUOUS
 10
159.401867028
 20
30.658327332
 11
160.8471793074
 21
30.6905916353
 12
159.575304528
 22
30.6260629858
 13
159.575304528
 23
30.6260629858
  0
SOLID
  8
0
 62
7
  6
CONTINUOUS
 10
160.8471793074
 20
30.6905916353
 11
160.615929528
 21
30.6260629858
 12
159.575304528
 22
30.6260629858
 13
159.575304528
 23
30.6260629858
  0
SOLID
  8
0
 62
7
  6
CONTINUOUS
 10
159.922179528
 20
30.5938006049
 11
159.575304528
 21
30.6260629858
 12
160.615929528
 22
30.6260629858
 13
160.615929528
 23
30.6260629858
  0
SOLID
  8
0
 62
7
  6
CONTINUOUS
 10
160.615929528
 20
30.6260629858
 11
160.269054528
 21
30.5938006049
 12
159.922179528
 22
30.5938006049
 13
159.922179528
 23
30.5938006049
  0
SOLID
  8
0
 62
7
  6
CONTINUOUS
 10
149.5737418074
 20
31.1100184796
 11
149.9206168074
 21
31.2713369632
 12
149.8628043005
 22
31.1422827828
 13
149.8628043005
 23
31.1422827828
  0
SOLID
  8
0
 62
7
  6
CONTINUOUS
 10
149.8628043005
 20
31.1422827828
 11
149.8628043005
 21
31.0454914852
 12
149.5737418074
 22
31.1100184796
 13
149.5737418074
 23
31.1100184796
  0
SOLID
  8
0
 62
7
  6
CONTINUOUS
 10
149.6315543091
 20
30.9164372091
 11
149.5737418074
 21
31.1100184796
 12
149.8628043005
 22
31.0454914852
 13
149.8628043005
 23
31.0454914852
  0
SOLID
  8
0
 62
7
  6
CONTINUOUS
 10
149.8628043005
 20
31.0454914852
 11
149.9784292936
 21
30.8841729058
 12
149.6315543091
 22
30.9164372091
 13
149.6315543091
 23
30.9164372091
  0
SOLID
  8
0
 62
7
  6
CONTINUOUS
 10
149.7471793074
 20
30.7873813202
 11
149.6315543091
 21
30.9164372091
 12
149.9784292936
 22
30.8841729058
 13
149.9784292936
 23
30.8841729058
  0
SOLID
  8
0
 62
7
  6
CONTINUOUS
 10
149.9784292936
 20
30.8841729058
 11
150.1518667936
 21
30.7873813202
 12
149.7471793074
 22
30.7873813202
 13
149.7471793074
 23
30.7873813202
  0
SOLID
  8
0
 62
7
  6
CONTINUOUS
 10
149.8628043005
 20
30.7228547004
 11
149.7471793074
 21
30.7873813202
 12
150.1518667936
 22
30.7873813202
 13
150.1518667936
 23
30.7873813202
  0
SOLID
  8
0
 62
7
  6
CONTINUOUS
 10
150.1518667936
 20
30.7873813202
 11
150.498741835
 21
30.7228547004
 12
149.8628043005
 22
30.7228547004
 13
149.8628043005
 23
30.7228547004
  0
SOLID
  8
0
 62
7
  6
CONTINUOUS
 10
150.0362418212
 20
30.658327332
 11
149.8628043005
 21
30.7228547004
 12
150.498741835
 22
30.7228547004
 13
150.498741835
 23
30.7228547004
  0
SOLID
  8
0
 62
7
  6
CONTINUOUS
 10
154.0831168074
 20
31.1100184386
 11
154.1987416972
 21
31.1745462761
 12
154.7768668074
 22
31.1422827828
 13
154.7768668074
 23
31.1422827828
  0
SOLID
  8
0
 62
7
  6
CONTINUOUS
 10
154.7768668074
 20
31.1422827828
 11
154.5456166972
 21
31.1100184386
 12
154.0831168074
 22
31.1100184386
 13
154.0831168074
 23
31.1100184386
  0
SOLID
  8
0
 62
7
  6
CONTINUOUS
 10
153.9674919177
 20
30.9809642992
 11
154.0831168074
 21
31.1100184386
 12
154.5456166972
 22
31.1100184386
 13
154.5456166972
 23
31.1100184386
  0
SOLID
  8
0
 62
7
  6
CONTINUOUS
 10
154.3143669177
 20
31.0132277988
 11
153.9674919177
 21
30.9809642992
 12
154.4299918074
 22
31.0777556927
 13
154.4299918074
 23
31.0777556927
  0
SOLID
  8
0
 62
7
  6
CONTINUOUS
 10
153.9674919177
 20
30.9809642992
 11
154.5456166972
 21
31.1100184796
 12
154.4299918074
 22
31.0777556927
 13
154.4299918074
 23
31.0777556927
  0
SOLID
  8
0
 62
7
  6
CONTINUOUS
 10
154.3143669177
 20
31.0132277988
 11
154.2565543074
 21
30.9164372091
 12
153.9674919177
 22
30.9809642992
 13
153.9674919177
 23
30.9809642992
  0
SOLID
  8
0
 62
7
  6
CONTINUOUS
 10
153.9674919177
 20
30.8841729058
 11
153.9674919177
 21
30.9809642992
 12
154.2565543074
 22
30.9164372091
 13
154.2565543074
 23
30.9164372091
  0
SOLID
  8
0
 62
7
  6
CONTINUOUS
 10
154.2565543074
 20
30.9164372091
 11
154.2565543074
 21
30.8519086025
 12
153.9674919177
 22
30.8841729058
 13
153.9674919177
 23
30.8841729058
  0
SOLID
  8
0
 62
7
  6
CONTINUOUS
 10
154.0253041972
 20
30.7551187255
 11
153.9674919177
 21
30.8841729058
 12
154.2565543074
 22
30.8519086025
 13
154.2565543074
 23
30.8519086025
  0
SOLID
  8
0
 62
7
  6
CONTINUOUS
 10
155.412804528
 20
30.9487004259
 11
155.7018665869
 21
30.8519086025
 12
155.3549915869
 22
30.8841729058
 13
155.3549915869
 23
30.8841729058
  0
SOLID
  8
0
 62
7
  6
CONTINUOUS
 10
155.1815540869
 20
30.7873815123
 11
155.3549915869
 21
30.8841729058
 12
155.7018665869
 22
30.8519086025
 13
155.7018665869
 23
30.8519086025
  0
SOLID
  8
0
 62
7
  6
CONTINUOUS
 10
155.1815540869
 20
30.7873815123
 11
155.7018665869
 21
30.8519086025
 12
155.412804528
 22
30.7551187255
 13
155.412804528
 23
30.7551187255
  0
SOLID
  8
0
 62
7
  6
CONTINUOUS
 10
155.7018665869
 20
30.8519086025
 11
155.759679528
 21
30.6905916353
 12
155.412804528
 22
30.7551187255
 13
155.412804528
 23
30.7551187255
  0
SOLID
  8
0
 62
7
  6
CONTINUOUS
 10
155.4706168074
 20
30.658327332
 11
155.412804528
 21
30.7551187255
 12
155.759679528
 22
30.6905916353
 13
155.759679528
 23
30.6905916353
  0
SOLID
  8
0
 62
7
  6
CONTINUOUS
 10
155.4706168074
 20
30.658327332
 11
155.759679528
 21
30.6905916353
 12
155.5284290869
 22
30.5938002079
 13
155.5284290869
 23
30.5938002079
  0
SOLID
  8
0
 62
7
  6
CONTINUOUS
 10
155.759679528
 20
30.6905916353
 11
155.8174918074
 21
30.5938002079
 12
155.5284290869
 22
30.5938002079
 13
155.5284290869
 23
30.5938002079
  0
SOLID
  8
0
 62
7
  6
CONTINUOUS
 10
151.0768668626
 20
30.8196456577
 11
151.1346793074
 21
30.9164373395
 12
151.4237418626
 22
30.9164373395
 13
151.4237418626
 23
30.9164373395
  0
SOLID
  8
0
 62
7
  6
CONTINUOUS
 10
151.4237418626
 20
30.9164373395
 11
151.3659292523
 21
30.7873815123
 12
151.0768668626
 22
30.8196456577
 13
151.0768668626
 23
30.8196456577
  0
SOLID
  8
0
 62
7
  6
CONTINUOUS
 10
150.9034292799
 20
30.7551187255
 11
151.0768668626
 21
30.8196456577
 12
151.3659292523
 22
30.7873815123
 13
151.3659292523
 23
30.7873815123
  0
SOLID
  8
0
 62
7
  6
CONTINUOUS
 10
150.9034292799
 20
30.7551187255
 11
151.3659292523
 21
30.7873815123
 12
150.498741835
 22
30.7228544222
 13
150.498741835
 23
30.7228544222
  0
SOLID
  8
0
 62
7
  6
CONTINUOUS
 10
151.3659292523
 20
30.7873815123
 11
151.1924917523
 21
30.6905916353
 12
150.498741835
 22
30.7228544222
 13
150.498741835
 23
30.7228544222
  0
SOLID
  8
0
 62
7
  6
CONTINUOUS
 10
150.0362418212
 20
30.658327332
 11
150.498741835
 21
30.7228544222
 12
151.1924917523
 22
30.6905916353
 13
151.1924917523
 23
30.6905916353
  0
SOLID
  8
0
 62
7
  6
CONTINUOUS
 10
150.0362418212
 20
30.658327332
 11
151.1924917523
 21
30.6905916353
 12
150.2096793212
 22
30.6260631011
 13
150.2096793212
 23
30.6260631011
  0
SOLID
  8
0
 62
7
  6
CONTINUOUS
 10
151.1924917523
 20
30.6905916353
 11
150.9612418074
 21
30.6260631011
 12
150.2096793212
 22
30.6260631011
 13
150.2096793212
 23
30.6260631011
  0
SOLID
  8
0
 62
7
  6
CONTINUOUS
 10
150.5565542799
 20
30.5938002419
 11
150.2096793212
 21
30.6260631011
 12
150.9612418074
 22
30.6260631011
 13
150.9612418074
 23
30.6260631011
  0
SOLID
  8
0
 62
7
  6
CONTINUOUS
 10
154.0253041972
 20
30.7551187255
 11
154.2565543074
 21
30.8519086025
 12
154.3143669177
 22
30.7873815123
 13
154.3143669177
 23
30.7873815123
  0
SOLID
  8
0
 62
7
  6
CONTINUOUS
 10
154.3143669177
 20
30.7873815123
 11
154.5456166972
 21
30.7228544222
 12
154.0253041972
 22
30.7551187255
 13
154.0253041972
 23
30.7551187255
  0
SOLID
  8
0
 62
7
  6
CONTINUOUS
 10
154.1987416972
 20
30.658327332
 11
154.0253041972
 21
30.7551187255
 12
154.5456166972
 22
30.7228544222
 13
154.5456166972
 23
30.7228544222
  0
SOLID
  8
0
 62
7
  6
CONTINUOUS
 10
154.8924916972
 20
30.7228544637
 11
155.1815540869
 21
30.7873815123
 12
155.412804528
 22
30.7551187255
 13
155.412804528
 23
30.7551187255
  0
SOLID
  8
0
 62
7
  6
CONTINUOUS
 10
155.412804528
 20
30.7551187255
 11
155.3549915869
 21
30.6905916353
 12
154.8924916972
 22
30.7228544637
 13
154.8924916972
 23
30.7228544637
  0
SOLID
  8
0
 62
7
  6
CONTINUOUS
 10
155.3549915869
 20
30.6905916353
 11
154.1987416972
 21
30.658327332
 12
154.8924916972
 22
30.7228544637
 13
154.8924916972
 23
30.7228544637
  0
SOLID
  8
0
 62
7
  6
CONTINUOUS
 10
154.1987416972
 20
30.658327332
 11
154.5456166972
 21
30.7228544637
 12
154.8924916972
 22
30.7228544637
 13
154.8924916972
 23
30.7228544637
  0
SOLID
  8
0
 62
7
  6
CONTINUOUS
 10
154.1987416972
 20
30.658327332
 11
155.3549915869
 21
30.6905916353
 12
154.3143669177
 22
30.6260630541
 13
154.3143669177
 23
30.6260630541
  0
SOLID
  8
0
 62
7
  6
CONTINUOUS
 10
155.3549915869
 20
30.6905916353
 11
155.1815540869
 21
30.6260630541
 12
154.3143669177
 22
30.6260630541
 13
154.3143669177
 23
30.6260630541
  0
SOLID
  8
0
 62
7
  6
CONTINUOUS
 10
154.5456166972
 20
30.5938002188
 11
154.3143669177
 21
30.6260630541
 12
155.1815540869
 22
30.6260630541
 13
155.1815540869
 23
30.6260630541
  0
SOLID
  8
0
 62
7
  6
CONTINUOUS
 10
155.1815540869
 20
30.6260630541
 11
154.8924916972
 21
30.5938002188
 12
154.5456166972
 22
30.5938002188
 13
154.5456166972
 23
30.5938002188
  0
SOLID
  8
0
 62
7
  6
CONTINUOUS
 10
159.575304528
 20
30.7551187255
 11
159.228429528
 21
30.7228544637
 12
159.4596793074
 22
30.7873815123
 13
159.4596793074
 23
30.7873815123
  0
SOLID
  8
0
 62
7
  6
CONTINUOUS
 10
159.4596793074
 20
30.7873815123
 11
159.228429528
 21
30.7228544637
 12
159.401867028
 22
30.851908644
 13
159.401867028
 23
30.851908644
  0
SOLID
  8
0
 62
7
  6
CONTINUOUS
 10
159.228429528
 20
30.7228544637
 11
159.1128043074
 21
30.851908644
 12
159.401867028
 22
30.851908644
 13
159.401867028
 23
30.851908644
  0
SOLID
  8
0
 62
7
  6
CONTINUOUS
 10
159.575304528
 20
30.7551187255
 11
159.922179528
 21
30.7228544637
 12
159.228429528
 22
30.7228544637
 13
159.228429528
 23
30.7228544637
  0
SOLID
  8
0
 62
7
  6
CONTINUOUS
 10
156.279992028
 20
30.5938002419
 11
156.279992028
 21
31.6262382337
 12
156.5690540869
 22
30.5938002419
 13
156.5690540869
 23
31.6262382337
  0
ENDBLK
  8
0
  6
BYBLOCK
 62
0
  0
BLOCK
  8
0
 62
2
  6
CONTINUOUS
  2
SYMBOL_3_BL0
 70
64
 10
32.1213064866
 20
19.8534310916
  0
TEXT
  8
0
 62
7
  6
CONTINUOUS
 10
18.3860103289
 20
19.2268451992
  7
TEXTSTYLE_3
 40
2.7338706658
  1
Ammeraal Beltech
 41
1.0
 51
15.0
 72
0
  0
TEXT
  8
0
 62
7
  6
CONTINUOUS
 10
29.1868111546
 20
16.9533085264
  7
TEXTSTYLE_4
 40
1.0935482663
  1
Innovation & Service in Belting
 41
1.0
 72
0
  0
LINE
  8
0
 62
7
  6
CONTINUOUS
 10
12.3614696776
 20
19.9934385078
 11
13.1396216709
 21
23.6543558055
  0
LINE
  8
0
 62
7
  6
CONTINUOUS
 10
23.2347899607
 20
27.3177497171
 11
13.6274394139
 21
24.1961322958
  0
LINE
  8
0
 62
7
  6
CONTINUOUS
 10
12.5867530099
 20
19.3000877048
 11
20.093828271
 21
12.5406867788
  0
LINE
  8
0
 62
7
  6
CONTINUOUS
 10
12.8492874206
 20
20.5352149982
 11
23.6575567857
 21
24.0470345971
  0
LINE
  8
0
 62
7
  6
CONTINUOUS
 10
23.6533516486
 20
13.6972460334
 11
15.2078919798
 21
21.3015720751
  0
LINE
  8
0
 62
7
  6
CONTINUOUS
 10
24.1731743684
 20
26.4728246013
 11
23.1966148312
 21
21.8784731989
  0
LINE
  8
0
 62
7
  6
CONTINUOUS
 10
22.4968128835
 20
18.5861638851
 11
21.810364672
 21
15.3566789607
  0
LINE
  8
0
 62
7
  6
CONTINUOUS
 10
24.8542704669
 20
14.087448211
 11
25.8105020025
 21
18.5861638851
  0
LINE
  8
0
 62
7
  6
CONTINUOUS
 10
26.5103039502
 20
21.8784731989
 11
26.9545457526
 21
23.9684665583
  0
LINE
  8
0
 62
7
  6
CONTINUOUS
 10
20.8069293463
 20
12.3891124661
 11
24.3664527239
 21
13.5456717207
  0
LINE
  8
0
 62
7
  6
CONTINUOUS
 10
23.9478910361
 20
27.1661754044
 11
26.7292624203
 21
24.6618173613
  0
ARC
  8
0
 62
7
  6
CONTINUOUS
 10
13.8527227462
 20
23.5027814928
 40
0.7290321776
 50
108.0
 51
168.0
  0
ARC
  8
0
 62
7
  6
CONTINUOUS
 10
23.4600732931
 20
26.624398914
 40
0.7290321776
 50
348.0
 51
108.0
  0
ARC
  8
0
 62
7
  6
CONTINUOUS
 10
26.2414446773
 20
24.120040871
 40
0.7290321776
 50
348.0
 51
48.0
  0
ARC
  8
0
 62
7
  6
CONTINUOUS
 10
20.581646014
 20
13.0824632691
 40
0.7290321776
 50
228.0
 51
288.0
  0
ARC
  8
0
 62
7
  6
CONTINUOUS
 10
13.0745707529
 20
19.8418641951
 40
0.7290321776
 50
108.0
 51
228.0
  0
ARC
  8
0
 62
7
  6
CONTINUOUS
 10
24.1411693916
 20
14.2390225237
 40
0.7290321776
 50
228.0
 51
348.0
  0
ENDBLK
  8
0
  6
BYBLOCK
 62
0
  0
ENDSEC
  0
SECTION
  2
ENTITIES
  0
TEXT
  8
0
 62
5
  6
CONTINUOUS
 10
96.0
 20
25.636
  7
TEXTSTYLE_2
 40
2.8
  1
Scale :
 41
0.6
 51
0.000019
 72
0
  0
TEXT
  8
0
 62
5
  6
CONTINUOUS
 10
116.0
 20
25.636
  7
TEXTSTYLE_2
 40
2.8
  1
Belt type:
 41
0.6
 51
0.000019
 72
0
  0
INSERT
  8
0
 62
2
  6
CONTINUOUS
  2
SYMBOL_3_BL0
 10
32.1213064866
 20
19.8534310916
  0
INSERT
  8
0
 62
2
  6
CONTINUOUS
  2
SYMBOL_8_BL1
 10
173.5956734183
 20
35.5937998301
  0
LINE
  8
0
 62
2
  6
CONTINUOUS
 10
10.0
 20
30.0
 11
200.0
 21
30.0
  0
LINE
  8
0
 62
2
  6
CONTINUOUS
 10
10.0
 20
30.0
 11
10.0
 21
10.0
  0
LINE
  8
0
 62
2
  6
CONTINUOUS
 10
10.0
 20
10.0
 11
200.0
 21
10.0
  0
LINE
  8
0
 62
2
  6
CONTINUOUS
 10
95.0
 20
30.0
 11
95.0
 21
10.0
  0
LINE
  8
0
 62
2
  6
CONTINUOUS
 10
115.0
 20
30.0
 11
115.0
 21
10.0
  0
LINE
  8
0
 62
2
  6
CONTINUOUS
 10
200.0
 20
30.0
 11
200.0
 21
10.0
  0
TEXT
  8
0
 62
5
  6
CONTINUOUS
 10
13.0
 20
23.303
  7
TEXTSTYLE_5
 40
1.52
  1
                                                                     Ammeraal Beltech Modular A/S
 41
1.0
 72
0
  0
TEXT
  8
0
 62
5
  6
CONTINUOUS
 10
13.0
 20
20.595
  7
TEXTSTYLE_5
 40
1.5
  1
                                                                      Hjulmagervej 21,  7100 Vejle,  DK
 41
1.0
 72
0
  0
TEXT
  8
0
 62
5
  6
CONTINUOUS
 10
13.0
 20
17.881
  7
TEXTSTYLE_5
 40
1.495
  1
                                                                      tel: 
 41
1.0
 72
0
  0
TEXT
  8
0
 62
5
  6
CONTINUOUS
 10
57.9869465649
 20
17.881
  7
TEXTSTYLE_5
 40
1.51
  1
+45 75723100     fax: +45 75723348
 41
1.0
 72
0
  0
TEXT
  8
0
 62
5
  6
CONTINUOUS
 10
13.0
 20
15.177
  7
TEXTSTYLE_5
 40
1.5
  1
                                                                      admin@unichains.dk  www.unichains.com
 41
1.0
 72
0
  0
TEXT
  8
0
 62
5
  6
CONTINUOUS
 10
99.75
 20
13.75
  7
TEXTSTYLE_6
 40
5.0
  1
1:1
 41
0.7
 72
1
 11
105.0
 21
13.75
  0
TEXT
  8
0
 62
5
  6
CONTINUOUS
 10
118.0
 20
13.75
  7
TEXTSTYLE_7
 40
7.5
  1
uni QNB C K150
 41
0.596875
 72
0
  0
LINE
  8
0
 62
7
  6
CONTINUOUS
 10
210.0
 20
0.0
 11
0.0
 21
0.0
  0
LINE
  8
0
 62
7
  6
CONTINUOUS
 10
10.0
 20
10.0
 11
200.0
 21
10.0
  0
LINE
  8
0
 62
7
  6
CONTINUOUS
 10
10.0
 20
30.0
 11
200.0
 21
30.0
  0
LINE
  8
0
 62
7
  6
CONTINUOUS
 10
0.0
 20
0.0
 11
0.0
 21
297.0
  0
LINE
  8
0
 62
7
  6
CONTINUOUS
 10
10.0
 20
10.0
 11
10.0
 21
287.0
  0
LINE
  8
0
 62
7
  6
CONTINUOUS
 10
200.0
 20
287.0
 11
200.0
 21
10.0
  0
LINE
  8
0
 62
7
  6
CONTINUOUS
 10
210.0
 20
0.0
 11
210.0
 21
297.0
  0
LINE
  8
0
 62
7
  6
CONTINUOUS
 10
10.0
 20
287.0
 11
200.0
 21
287.0
  0
LINE
  8
0
 62
7
  6
CONTINUOUS
 10
0.0
 20
297.0
 11
210.0
 21
297.0
  0
LINE
  8
DEFAULT_1
 62
2
  6
CENTER
 10
80.0996465254
 20
197.1131785742
 11
80.0996465254
 21
193.7651778313
  0
LINE
  8
DEFAULT_1
 62
2
  6
CENTER
 10
80.0996465254
 20
197.1131785742
 11
80.0996465254
 21
200.5190179469
  0
LINE
  8
0
 62
7
  6
CONTINUOUS
 10
80.0996465254
 20
192.7131785742
 11
105.4995639991
 21
192.7131785742
  0
LINE
  8
DEFAULT_1
 62
2
  6
CENTER
 10
105.4996465254
 20
197.1131785742
 11
101.8205222506
 21
197.1131785742
  0
LINE
  8
DEFAULT_1
 62
2
  6
CENTER
 10
80.0996465254
 20
197.1131785742
 11
76.9063564906
 21
197.1131785742
  0
LINE
  8
DEFAULT_1
 62
2
  6
CENTER
 10
80.0996465254
 20
197.1131785742
 11
83.4600828251
 21
197.1131785742
  0
LINE
  8
DEFAULT_1
 62
2
  6
CENTER
 10
105.4996465254
 20
197.1131785742
 11
108.7744761475
 21
197.1131785742
  0
LINE
  8
0
 62
7
  6
CONTINUOUS
 10
102.4327763325
 20
200.8056448529
 11
102.4325854067
 21
200.8054862665
  0
LINE
  8
0
 62
7
  6
CONTINUOUS
 10
80.0996465408
 20
201.5131785742
 11
105.4995669671
 21
201.5131785742
  0
LINE
  8
0
 62
7
  6
CONTINUOUS
 10
100.6996465254
 20
193.1131785742
 11
100.6996465254
 21
197.1131785742
  0
LINE
  8
DEFAULT_1
 62
2
  6
CENTER
 10
105.4996465254
 20
197.1131785742
 11
105.4996465254
 21
193.8152062766
  0
LINE
  8
DEFAULT_1
 62
2
  6
CENTER
 10
105.4996465254
 20
197.1131785742
 11
105.4996465254
 21
200.1688188298
  0
LINE
  8
0
 62
7
  6
CONTINUOUS
 10
101.7021065521
 20
110.6295770065
 11
76.099664116
 21
110.6295770065
  0
POLYLINE
  8
0
 62
7
  6
CONTINUOUS
 66
1
 70
0
  0
VERTEX
  8
0
 62
7
  6
CONTINUOUS
 10
75.6996465301
 20
123.746443065
  0
VERTEX
  8
0
 62
7
  6
CONTINUOUS
 10
75.703806914
 20
123.6888105156
  0
VERTEX
  8
0
 62
7
  6
CONTINUOUS
 10
75.7310337319
 20
123.5908631139
  0
VERTEX
  8
0
 62
7
  6
CONTINUOUS
 10
75.7766621274
 20
123.5100279542
  0
VERTEX
  8
0
 62
7
  6
CONTINUOUS
 10
75.8347552668
 20
123.4460326045
  0
VERTEX
  8
0
 62
7
  6
CONTINUOUS
 10
75.8989167875
 20
123.3994096747
  0
VERTEX
  8
0
 62
7
  6
CONTINUOUS
 10
75.9586797597
 20
123.3705134196
  0
VERTEX
  8
0
 62
7
  6
CONTINUOUS
 10
76.0043847985
 20
123.3555845627
  0
VERTEX
  8
0
 62
7
  6
CONTINUOUS
 10
76.0374970359
 20
123.3479096218
  0
VERTEX
  8
0
 62
7
  6
CONTINUOUS
 10
76.0637862992
 20
123.3433035131
  0
VERTEX
  8
0
 62
7
  6
CONTINUOUS
 10
76.0877082422
 20
123.3399685978
  0
VERTEX
  8
0
 62
7
  6
CONTINUOUS
 10
76.1116731367
 20
123.3372147631
  0
VERTEX
  8
0
 62
7
  6
CONTINUOUS
 10
76.137049297
 20
123.3347494141
  0
VERTEX
  8
0
 62
7
  6
CONTINUOUS
 10
76.1646859236
 20
123.3324357287
  0
VERTEX
  8
0
 62
7
  6
CONTINUOUS
 10
76.1951199081
 20
123.3302074497
  0
VERTEX
  8
0
 62
7
  6
CONTINUOUS
 10
76.228691445
 20
123.328032118
  0
VERTEX
  8
0
 62
7
  6
CONTINUOUS
 10
76.2657673312
 20
123.3258856346
  0
VERTEX
  8
0
 62
7
  6
CONTINUOUS
 10
76.3066867235
 20
123.3237525386
  0
VERTEX
  8
0
 62
7
  6
CONTINUOUS
 10
76.4011860758
 20
123.319497394
  0
SEQEND
  0
LINE
  8
2_FEATURE
 62
7
  6
CONTINUOUS
 10
75.6996465254
 20
141.5927137887
 11
75.6996465254
 21
136.446438537
  0
LINE
  8
2_FEATURE
 62
7
  6
CONTINUOUS
 10
75.6996465254
 20
128.8927137887
 11
75.6996465254
 21
123.7464406699
  0
LINE
  8
2_FEATURE
 62
7
  6
CONTINUOUS
 10
75.6996465254
 20
116.1927137887
 11
75.6996465254
 21
111.0295770065
  0
POLYLINE
  8
0
 62
7
  6
CONTINUOUS
 66
1
 70
0
  0
VERTEX
  8
0
 62
7
  6
CONTINUOUS
 10
75.69964653
 20
136.4464430204
  0
VERTEX
  8
0
 62
7
  6
CONTINUOUS
 10
75.7037267735
 20
136.3893654118
  0
VERTEX
  8
0
 62
7
  6
CONTINUOUS
 10
75.7306497086
 20
136.2917794298
  0
VERTEX
  8
0
 62
7
  6
CONTINUOUS
 10
75.7758689978
 20
136.2111205348
  0
VERTEX
  8
0
 62
7
  6
CONTINUOUS
 10
75.8335086456
 20
136.1471447106
  0
VERTEX
  8
0
 62
7
  6
CONTINUOUS
 10
75.8973270996
 20
136.1003476759
  0
VERTEX
  8
0
 62
7
  6
CONTINUOUS
 10
75.9570612702
 20
136.0711466949
  0
VERTEX
  8
0
 62
7
  6
CONTINUOUS
 10
76.0030152739
 20
136.0559543866
  0
VERTEX
  8
0
 62
7
  6
CONTINUOUS
 10
76.0363444119
 20
136.048138918
  0
VERTEX
  8
0
 62
7
  6
CONTINUOUS
 10
76.0627234204
 20
136.0434686534
  0
VERTEX
  8
0
 62
7
  6
CONTINUOUS
 10
76.0866465633
 20
136.0401027048
  0
VERTEX
  8
0
 62
7
  6
CONTINUOUS
 10
76.1105626719
 20
136.0373320758
  0
VERTEX
  8
0
 62
7
  6
CONTINUOUS
 10
76.1358630908
 20
136.0348564714
  0
VERTEX
  8
0
 62
7
  6
CONTINUOUS
 10
76.1634110866
 20
136.0325356479
  0
VERTEX
  8
0
 62
7
  6
CONTINUOUS
 10
76.1937503163
 20
136.0303019006
  0
VERTEX
  8
0
 62
7
  6
CONTINUOUS
 10
76.2272499225
 20
136.0281205239
  0
VERTEX
  8
0
 62
7
  6
CONTINUOUS
 10
76.2643283138
 20
136.0259647818
  0
VERTEX
  8
0
 62
7
  6
CONTINUOUS
 10
76.305317106
 20
136.0238205711
  0
VERTEX
  8
0
 62
7
  6
CONTINUOUS
 10
76.4001748886
 20
136.0195390153
  0
SEQEND
  0
LINE
  8
DEFAULT_1
 62
2
  6
CENTER
 10
80.0996465254
 20
147.0382033537
 11
80.0996465254
 21
105.6295770065
  0
POLYLINE
  8
0
 62
7
  6
CONTINUOUS
 66
1
 70
0
  0
VERTEX
  8
0
 62
7
  6
CONTINUOUS
 10
83.4985195658
 20
147.9922025182
  0
VERTEX
  8
0
 62
7
  6
CONTINUOUS
 10
83.518876091
 20
148.0895038926
  0
VERTEX
  8
0
 62
7
  6
CONTINUOUS
 10
83.5622194816
 20
148.178201994
  0
VERTEX
  8
0
 62
7
  6
CONTINUOUS
 10
83.625734517
 20
148.2533688539
  0
VERTEX
  8
0
 62
7
  6
CONTINUOUS
 10
83.7058102833
 20
148.3108248149
  0
VERTEX
  8
0
 62
7
  6
CONTINUOUS
 10
83.7981306207
 20
148.3471178047
  0
VERTEX
  8
0
 62
7
  6
CONTINUOUS
 10
83.8971868153
 20
148.3595770065
  0
SEQEND
  0
POLYLINE
  8
0
 62
7
  6
CONTINUOUS
 66
1
 70
0
  0
VERTEX
  8
0
 62
7
  6
CONTINUOUS
 10
109.2585709424
 20
116.9721264206
  0
VERTEX
  8
0
 62
7
  6
CONTINUOUS
 10
109.3071497494
 20
116.9744862034
  0
VERTEX
  8
0
 62
7
  6
CONTINUOUS
 10
109.350928936
 20
116.9768642846
  0
VERTEX
  8
0
 62
7
  6
CONTINUOUS
 10
109.3901589408
 20
116.9792681974
  0
VERTEX
  8
0
 62
7
  6
CONTINUOUS
 10
109.4251385038
 20
116.9817113956
  0
VERTEX
  8
0
 62
7
  6
CONTINUOUS
 10
109.4563411346
 20
116.9842270509
  0
VERTEX
  8
0
 62
7
  6
CONTINUOUS
 10
109.4844663437
 20
116.9868863872
  0
VERTEX
  8
0
 62
7
  6
CONTINUOUS
 10
109.5105586608
 20
116.989840063
  0
VERTEX
  8
0
 62
7
  6
CONTINUOUS
 10
109.536149809
 20
116.99340322
  0
VERTEX
  8
0
 62
7
  6
CONTINUOUS
 10
109.5638376961
 20
116.9983174909
  0
VERTEX
  8
0
 62
7
  6
CONTINUOUS
 10
109.5982156318
 20
117.006485328
  0
VERTEX
  8
0
 62
7
  6
CONTINUOUS
 10
109.644763336
 20
117.0221526322
  0
VERTEX
  8
0
 62
7
  6
CONTINUOUS
 10
109.704541325
 20
117.0518879777
  0
VERTEX
  8
0
 62
7
  6
CONTINUOUS
 10
109.7677839043
 20
117.0989480103
  0
VERTEX
  8
0
 62
7
  6
CONTINUOUS
 10
109.824599954
 20
117.1627548206
  0
VERTEX
  8
0
 62
7
  6
CONTINUOUS
 10
109.8691364276
 20
117.2429655063
  0
VERTEX
  8
0
 62
7
  6
CONTINUOUS
 10
109.8956501424
 20
117.3399521693
  0
VERTEX
  8
0
 62
7
  6
CONTINUOUS
 10
109.8996465209
 20
117.3964431803
  0
SEQEND
  0
POLYLINE
  8
0
 62
7
  6
CONTINUOUS
 66
1
 70
0
  0
VERTEX
  8
0
 62
7
  6
CONTINUOUS
 10
76.3407270699
 20
116.6170278206
  0
VERTEX
  8
0
 62
7
  6
CONTINUOUS
 10
76.2921478451
 20
116.6146680473
  0
VERTEX
  8
0
 62
7
  6
CONTINUOUS
 10
76.2483682783
 20
116.6122899704
  0
VERTEX
  8
0
 62
7
  6
CONTINUOUS
 10
76.209138137
 20
116.6098860728
  0
VERTEX
  8
0
 62
7
  6
CONTINUOUS
 10
76.1741583094
 20
116.6074428962
  0
VERTEX
  8
0
 62
7
  6
CONTINUOUS
 10
76.1429553149
 20
116.6049272629
  0
VERTEX
  8
0
 62
7
  6
CONTINUOUS
 10
76.1148296788
 20
116.6022679409
  0
VERTEX
  8
0
 62
7
  6
CONTINUOUS
 10
76.0887370008
 20
116.5993142721
  0
VERTEX
  8
0
 62
7
  6
CONTINUOUS
 10
76.0631464963
 20
116.5957512854
  0
VERTEX
  8
0
 62
7
  6
CONTINUOUS
 10
76.0354597295
 20
116.5908373956
  0
VERTEX
  8
0
 62
7
  6
CONTINUOUS
 10
76.0010835373
 20
116.5826703834
  0
VERTEX
  8
0
 62
7
  6
CONTINUOUS
 10
75.9545376913
 20
116.5670046114
  0
VERTEX
  8
0
 62
7
  6
CONTINUOUS
 10
75.8947595237
 20
116.5372707932
  0
VERTEX
  8
0
 62
7
  6
CONTINUOUS
 10
75.8315148249
 20
116.4902112326
  0
VERTEX
  8
0
 62
7
  6
CONTINUOUS
 10
75.7746962063
 20
116.4264036264
  0
VERTEX
  8
0
 62
7
  6
CONTINUOUS
 10
75.7301577896
 20
116.3461914276
  0
VERTEX
  8
0
 62
7
  6
CONTINUOUS
 10
75.7036430612
 20
116.249203033
  0
VERTEX
  8
0
 62
7
  6
CONTINUOUS
 10
75.6996465298
 20
116.192711054
  0
SEQEND
  0
LINE
  8
0
 62
7
  6
CONTINUOUS
 10
109.1458832131
 20
116.9674400959
 11
109.2585709424
 21
116.9721264206
  0
LINE
  8
0
 62
7
  6
CONTINUOUS
 10
76.4534153149
 20
116.6217141243
 11
76.3407270699
 21
116.6170278206
  0
LINE
  8
0
 62
7
  6
CONTINUOUS
 10
109.010877337
 20
116.9627941373
 11
109.1458832131
 21
116.9674400959
  0
LINE
  8
0
 62
7
  6
CONTINUOUS
 10
76.5884218039
 20
116.6263600673
 11
76.4534153149
 21
116.6217141243
  0
LINE
  8
0
 62
7
  6
CONTINUOUS
 10
108.8519676126
 20
116.9582077351
 11
109.010877337
 21
116.9627941373
  0
LINE
  8
0
 62
7
  6
CONTINUOUS
 10
76.7473319153
 20
116.6309464509
 11
76.5884218039
 21
116.6263600673
  0
LINE
  8
0
 62
7
  6
CONTINUOUS
 10
108.5659549844
 20
116.9515187495
 11
108.8519676126
 21
116.9582077351
  0
LINE
  8
0
 62
7
  6
CONTINUOUS
 10
77.0333451011
 20
116.6376354071
 11
76.7473319153
 21
116.6309464509
  0
LINE
  8
0
 62
7
  6
CONTINUOUS
 10
108.2187128988
 20
116.9451800057
 11
108.5659549844
 21
116.9515187495
  0
LINE
  8
0
 62
7
  6
CONTINUOUS
 10
77.3805873239
 20
116.6439741209
 11
77.0333451011
 21
116.6376354071
  0
LINE
  8
0
 62
7
  6
CONTINUOUS
 10
107.6527167853
 20
116.9375727408
 11
108.2187128988
 21
116.9451800057
  0
LINE
  8
0
 62
7
  6
CONTINUOUS
 10
77.946582938
 20
116.6515813458
 11
77.3805873239
 21
116.6439741209
  0
LINE
  8
0
 62
7
  6
CONTINUOUS
 10
78.8302145776
 20
116.6589314648
 11
77.946582938
 21
116.6515813458
  0
LINE
  8
0
 62
7
  6
CONTINUOUS
 10
106.7690832941
 20
116.9302225749
 11
107.6527167853
 21
116.9375727408
  0
LINE
  8
0
 62
7
  6
CONTINUOUS
 10
79.9083909388
 20
116.6624541707
 11
78.8302145776
 21
116.6589314648
  0
LINE
  8
0
 62
7
  6
CONTINUOUS
 10
105.6909034751
 20
116.9266998421
 11
106.7690832941
 21
116.9302225749
  0
LINE
  8
0
 62
7
  6
CONTINUOUS
 10
81.9628345539
 20
116.6625340493
 11
79.9083909388
 21
116.6624541707
  0
LINE
  8
0
 62
7
  6
CONTINUOUS
 10
103.6364584968
 20
116.9266199637
 11
105.6909034751
 21
116.9266998421
  0
POLYLINE
  8
0
 62
7
  6
CONTINUOUS
 66
1
 70
0
  0
VERTEX
  8
0
 62
7
  6
CONTINUOUS
 10
83.0245013136
 20
142.8840570134
  0
VERTEX
  8
0
 62
7
  6
CONTINUOUS
 10
83.0224194725
 20
142.8520477368
  0
VERTEX
  8
0
 62
7
  6
CONTINUOUS
 10
83.0222960705
 20
142.8421126293
  0
SEQEND
  0
POLYLINE
  8
0
 62
7
  6
CONTINUOUS
 66
1
 70
0
  0
VERTEX
  8
0
 62
7
  6
CONTINUOUS
 10
83.4985195502
 20
147.9922025369
  0
VERTEX
  8
0
 62
7
  6
CONTINUOUS
 10
83.3442691131
 20
146.1859615271
  0
VERTEX
  8
0
 62
7
  6
CONTINUOUS
 10
83.1830385907
 20
144.4522354958
  0
VERTEX
  8
0
 62
7
  6
CONTINUOUS
 10
83.0245074868
 20
142.8840559659
  0
SEQEND
  0
POLYLINE
  8
0
 62
7
  6
CONTINUOUS
 66
1
 70
0
  0
VERTEX
  8
0
 62
7
  6
CONTINUOUS
 10
83.0222873469
 20
142.4518544856
  0
VERTEX
  8
0
 62
7
  6
CONTINUOUS
 10
83.020243098
 20
142.4305210664
  0
VERTEX
  8
0
 62
7
  6
CONTINUOUS
 10
83.0074414276
 20
142.3930348973
  0
VERTEX
  8
0
 62
7
  6
CONTINUOUS
 10
82.9827184666
 20
142.3533461587
  0
VERTEX
  8
0
 62
7
  6
CONTINUOUS
 10
82.951449423
 20
142.3178233088
  0
VERTEX
  8
0
 62
7
  6
CONTINUOUS
 10
82.9136631728
 20
142.2842698877
  0
VERTEX
  8
0
 62
7
  6
CONTINUOUS
 10
82.8706760217
 20
142.2532004921
  0
VERTEX
  8
0
 62
7
  6
CONTINUOUS
 10
82.8240829979
 20
142.225126402
  0
VERTEX
  8
0
 62
7
  6
CONTINUOUS
 10
82.7747238142
 20
142.1999640644
  0
VERTEX
  8
0
 62
7
  6
CONTINUOUS
 10
82.7226659447
 20
142.1773324976
  0
VERTEX
  8
0
 62
7
  6
CONTINUOUS
 10
82.6676170301
 20
142.1568895315
  0
VERTEX
  8
0
 62
7
  6
CONTINUOUS
 10
82.6104473339
 20
142.1387873633
  0
VERTEX
  8
0
 62
7
  6
CONTINUOUS
 10
82.5514699454
 20
142.1229225761
  0
VERTEX
  8
0
 62
7
  6
CONTINUOUS
 10
82.4907680878
 20
142.1091562756
  0
VERTEX
  8
0
 62
7
  6
CONTINUOUS
 10
82.4283406637
 20
142.0973555546
  0
VERTEX
  8
0
 62
7
  6
CONTINUOUS
 10
82.3641053768
 20
142.0874008042
  0
VERTEX
  8
0
 62
7
  6
CONTINUOUS
 10
82.2979259524
 20
142.0792042936
  0
VERTEX
  8
0
 62
7
  6
CONTINUOUS
 10
82.2298324078
 20
142.0727095788
  0
VERTEX
  8
0
 62
7
  6
CONTINUOUS
 10
82.1598179296
 20
142.0678560429
  0
VERTEX
  8
0
 62
7
  6
CONTINUOUS
 10
82.0878307707
 20
142.064591988
  0
VERTEX
  8
0
 62
7
  6
CONTINUOUS
 10
82.0137976148
 20
142.0628628217
  0
VERTEX
  8
0
 62
7
  6
CONTINUOUS
 10
81.9628345538
 20
142.0625335405
  0
SEQEND
  0
LINE
  8
0
 62
7
  6
CONTINUOUS
 10
83.0222960705
 20
142.8421126293
 11
83.0222960705
 21
142.4518543214
  0
LINE
  8
0
 62
7
  6
CONTINUOUS
 10
83.0222960705
 20
135.5872393183
 11
83.0222960705
 21
129.7518543214
  0
LINE
  8
0
 62
7
  6
CONTINUOUS
 10
83.0222960705
 20
122.8872393183
 11
83.0222960705
 21
117.0518543214
  0
POLYLINE
  8
0
 62
7
  6
CONTINUOUS
 66
1
 70
0
  0
VERTEX
  8
0
 62
7
  6
CONTINUOUS
 10
83.0222873469
 20
129.7518544856
  0
VERTEX
  8
0
 62
7
  6
CONTINUOUS
 10
83.020243098
 20
129.7305210664
  0
VERTEX
  8
0
 62
7
  6
CONTINUOUS
 10
83.0074414276
 20
129.6930348973
  0
VERTEX
  8
0
 62
7
  6
CONTINUOUS
 10
82.9827184666
 20
129.6533461587
  0
VERTEX
  8
0
 62
7
  6
CONTINUOUS
 10
82.951449423
 20
129.6178233088
  0
VERTEX
  8
0
 62
7
  6
CONTINUOUS
 10
82.9136631728
 20
129.5842698877
  0
VERTEX
  8
0
 62
7
  6
CONTINUOUS
 10
82.8706760217
 20
129.5532004921
  0
VERTEX
  8
0
 62
7
  6
CONTINUOUS
 10
82.8240829979
 20
129.525126402
  0
VERTEX
  8
0
 62
7
  6
CONTINUOUS
 10
82.7747238142
 20
129.4999640644
  0
VERTEX
  8
0
 62
7
  6
CONTINUOUS
 10
82.7226659447
 20
129.4773324976
  0
VERTEX
  8
0
 62
7
  6
CONTINUOUS
 10
82.6676170301
 20
129.4568895315
  0
VERTEX
  8
0
 62
7
  6
CONTINUOUS
 10
82.6104473339
 20
129.4387873633
  0
VERTEX
  8
0
 62
7
  6
CONTINUOUS
 10
82.5514699454
 20
129.4229225761
  0
VERTEX
  8
0
 62
7
  6
CONTINUOUS
 10
82.4907680878
 20
129.4091562756
  0
VERTEX
  8
0
 62
7
  6
CONTINUOUS
 10
82.4283406637
 20
129.3973555546
  0
VERTEX
  8
0
 62
7
  6
CONTINUOUS
 10
82.3641053768
 20
129.3874008042
  0
VERTEX
  8
0
 62
7
  6
CONTINUOUS
 10
82.2979259524
 20
129.3792042936
  0
VERTEX
  8
0
 62
7
  6
CONTINUOUS
 10
82.2298324078
 20
129.3727095788
  0
VERTEX
  8
0
 62
7
  6
CONTINUOUS
 10
82.1598179296
 20
129.3678560429
  0
VERTEX
  8
0
 62
7
  6
CONTINUOUS
 10
82.0878307707
 20
129.364591988
  0
VERTEX
  8
0
 62
7
  6
CONTINUOUS
 10
82.0137976148
 20
129.3628628217
  0
VERTEX
  8
0
 62
7
  6
CONTINUOUS
 10
81.9628345538
 20
129.3625335405
  0
SEQEND
  0
POLYLINE
  8
0
 62
7
  6
CONTINUOUS
 66
1
 70
0
  0
VERTEX
  8
0
 62
7
  6
CONTINUOUS
 10
83.0222873469
 20
117.0518544856
  0
VERTEX
  8
0
 62
7
  6
CONTINUOUS
 10
83.020243098
 20
117.0305210664
  0
VERTEX
  8
0
 62
7
  6
CONTINUOUS
 10
83.0074414276
 20
116.9930348973
  0
VERTEX
  8
0
 62
7
  6
CONTINUOUS
 10
82.9827184666
 20
116.9533461587
  0
VERTEX
  8
0
 62
7
  6
CONTINUOUS
 10
82.951449423
 20
116.9178233088
  0
VERTEX
  8
0
 62
7
  6
CONTINUOUS
 10
82.9136631728
 20
116.8842698877
  0
VERTEX
  8
0
 62
7
  6
CONTINUOUS
 10
82.8706760217
 20
116.8532004921
  0
VERTEX
  8
0
 62
7
  6
CONTINUOUS
 10
82.8240829979
 20
116.825126402
  0
VERTEX
  8
0
 62
7
  6
CONTINUOUS
 10
82.7747238142
 20
116.7999640644
  0
VERTEX
  8
0
 62
7
  6
CONTINUOUS
 10
82.7226659447
 20
116.7773324976
  0
VERTEX
  8
0
 62
7
  6
CONTINUOUS
 10
82.6676170301
 20
116.7568895315
  0
VERTEX
  8
0
 62
7
  6
CONTINUOUS
 10
82.6104473339
 20
116.7387873633
  0
VERTEX
  8
0
 62
7
  6
CONTINUOUS
 10
82.5514699454
 20
116.7229225761
  0
VERTEX
  8
0
 62
7
  6
CONTINUOUS
 10
82.4907680878
 20
116.7091562756
  0
VERTEX
  8
0
 62
7
  6
CONTINUOUS
 10
82.4283406637
 20
116.6973555546
  0
VERTEX
  8
0
 62
7
  6
CONTINUOUS
 10
82.3641053768
 20
116.6874008042
  0
VERTEX
  8
0
 62
7
  6
CONTINUOUS
 10
82.2979259524
 20
116.6792042936
  0
VERTEX
  8
0
 62
7
  6
CONTINUOUS
 10
82.2298324078
 20
116.6727095788
  0
VERTEX
  8
0
 62
7
  6
CONTINUOUS
 10
82.1598179296
 20
116.6678560429
  0
VERTEX
  8
0
 62
7
  6
CONTINUOUS
 10
82.0878307707
 20
116.664591988
  0
VERTEX
  8
0
 62
7
  6
CONTINUOUS
 10
82.0137976148
 20
116.6628628217
  0
VERTEX
  8
0
 62
7
  6
CONTINUOUS
 10
81.9628345538
 20
116.6625335405
  0
SEQEND
  0
LINE
  8
0
 62
7
  6
CONTINUOUS
 10
76.6479475399
 20
123.3109825778
 11
76.8906893446
 21
123.3046483479
  0
LINE
  8
0
 62
7
  6
CONTINUOUS
 10
76.514303156
 20
123.315239553
 11
76.6479475399
 21
123.3109825778
  0
LINE
  8
0
 62
7
  6
CONTINUOUS
 10
76.4011860758
 20
123.319497394
 11
76.514303156
 21
123.315239553
  0
LINE
  8
0
 62
7
  6
CONTINUOUS
 10
106.4450003928
 20
123.0105596888
 11
103.6364584965
 21
123.0125340493
  0
LINE
  8
0
 62
7
  6
CONTINUOUS
 10
79.1503377011
 20
123.2786111194
 11
81.9628345542
 21
123.2766199637
  0
POLYLINE
  8
0
 62
7
  6
CONTINUOUS
 66
1
 70
0
  0
VERTEX
  8
0
 62
7
  6
CONTINUOUS
 10
103.6364584965
 20
123.012533663
  0
VERTEX
  8
0
 62
7
  6
CONTINUOUS
 10
103.5834590837
 20
123.0128899313
  0
VERTEX
  8
0
 62
7
  6
CONTINUOUS
 10
103.5094799712
 20
123.0146600907
  0
VERTEX
  8
0
 62
7
  6
CONTINUOUS
 10
103.4375482401
 20
123.0179667949
  0
VERTEX
  8
0
 62
7
  6
CONTINUOUS
 10
103.3675889912
 20
123.0228638277
  0
VERTEX
  8
0
 62
7
  6
CONTINUOUS
 10
103.2995502554
 20
123.0294033395
  0
VERTEX
  8
0
 62
7
  6
CONTINUOUS
 10
103.2334251215
 20
123.0376467523
  0
VERTEX
  8
0
 62
7
  6
CONTINUOUS
 10
103.1692443509
 20
123.0476494144
  0
VERTEX
  8
0
 62
7
  6
CONTINUOUS
 10
103.1068711967
 20
123.0594997553
  0
VERTEX
  8
0
 62
7
  6
CONTINUOUS
 10
103.0462223304
 20
123.0733192638
  0
VERTEX
  8
0
 62
7
  6
CONTINUOUS
 10
102.9872929057
 20
123.089241625
  0
VERTEX
  8
0
 62
7
  6
CONTINUOUS
 10
102.9301673276
 20
123.1074077782
  0
VERTEX
  8
0
 62
7
  6
CONTINUOUS
 10
102.875154732
 20
123.1279254107
  0
VERTEX
  8
0
 62
7
  6
CONTINUOUS
 10
102.8231515881
 20
123.1506321462
  0
VERTEX
  8
0
 62
7
  6
CONTINUOUS
 10
102.7738683214
 20
123.1758699852
  0
VERTEX
  8
0
 62
7
  6
CONTINUOUS
 10
102.7273531861
 20
123.2040341636
  0
VERTEX
  8
0
 62
7
  6
CONTINUOUS
 10
102.6844530689
 20
123.2352108803
  0
VERTEX
  8
0
 62
7
  6
CONTINUOUS
 10
102.6467870541
 20
123.2688809978
  0
VERTEX
  8
0
 62
7
  6
CONTINUOUS
 10
102.6156508185
 20
123.3045702324
  0
VERTEX
  8
0
 62
7
  6
CONTINUOUS
 10
102.5911618339
 20
123.34447362
  0
VERTEX
  8
0
 62
7
  6
CONTINUOUS
 10
102.5788062364
 20
123.3818388078
  0
VERTEX
  8
0
 62
7
  6
CONTINUOUS
 10
102.5770059413
 20
123.4019156459
  0
SEQEND
  0
POLYLINE
  8
0
 62
7
  6
CONTINUOUS
 66
1
 70
0
  0
VERTEX
  8
0
 62
7
  6
CONTINUOUS
 10
81.9628345542
 20
123.2766203501
  0
VERTEX
  8
0
 62
7
  6
CONTINUOUS
 10
82.0158339671
 20
123.2762640817
  0
VERTEX
  8
0
 62
7
  6
CONTINUOUS
 10
82.0898130796
 20
123.2744939223
  0
VERTEX
  8
0
 62
7
  6
CONTINUOUS
 10
82.1617448107
 20
123.2711872181
  0
VERTEX
  8
0
 62
7
  6
CONTINUOUS
 10
82.2317040595
 20
123.2662901853
  0
VERTEX
  8
0
 62
7
  6
CONTINUOUS
 10
82.2997427953
 20
123.2597506735
  0
VERTEX
  8
0
 62
7
  6
CONTINUOUS
 10
82.3658679292
 20
123.2515072607
  0
VERTEX
  8
0
 62
7
  6
CONTINUOUS
 10
82.4300486999
 20
123.2415045986
  0
VERTEX
  8
0
 62
7
  6
CONTINUOUS
 10
82.4924218541
 20
123.2296542577
  0
VERTEX
  8
0
 62
7
  6
CONTINUOUS
 10
82.5530707203
 20
123.2158347492
  0
VERTEX
  8
0
 62
7
  6
CONTINUOUS
 10
82.612000145
 20
123.1999123881
  0
VERTEX
  8
0
 62
7
  6
CONTINUOUS
 10
82.6691257231
 20
123.1817462348
  0
VERTEX
  8
0
 62
7
  6
CONTINUOUS
 10
82.7241383187
 20
123.1612286023
  0
VERTEX
  8
0
 62
7
  6
CONTINUOUS
 10
82.7761414627
 20
123.1385218668
  0
VERTEX
  8
0
 62
7
  6
CONTINUOUS
 10
82.8254247293
 20
123.1132840279
  0
VERTEX
  8
0
 62
7
  6
CONTINUOUS
 10
82.8719398646
 20
123.0851198494
  0
VERTEX
  8
0
 62
7
  6
CONTINUOUS
 10
82.9148399818
 20
123.0539431327
  0
VERTEX
  8
0
 62
7
  6
CONTINUOUS
 10
82.9525059967
 20
123.0202730152
  0
VERTEX
  8
0
 62
7
  6
CONTINUOUS
 10
82.9836422322
 20
122.9845837806
  0
VERTEX
  8
0
 62
7
  6
CONTINUOUS
 10
83.0081312168
 20
122.944680393
  0
VERTEX
  8
0
 62
7
  6
CONTINUOUS
 10
83.0204868143
 20
122.9073152052
  0
VERTEX
  8
0
 62
7
  6
CONTINUOUS
 10
83.0222871094
 20
122.8872383671
  0
SEQEND
  0
LINE
  8
0
 62
7
  6
CONTINUOUS
 10
107.3206075874
 20
123.0048953841
 11
106.4450003928
 21
123.0105596888
  0
LINE
  8
0
 62
7
  6
CONTINUOUS
 10
78.2728026438
 20
123.2843111114
 11
79.1503377011
 21
123.2786111194
  0
LINE
  8
0
 62
7
  6
CONTINUOUS
 10
107.915465502
 20
122.9983966073
 11
107.3206075874
 21
123.0048953841
  0
LINE
  8
0
 62
7
  6
CONTINUOUS
 10
77.6781639226
 20
123.2908321959
 11
78.2728026438
 21
123.2843111114
  0
LINE
  8
0
 62
7
  6
CONTINUOUS
 10
108.4065105853
 20
122.9907437338
 11
107.915465502
 21
122.9983966073
  0
LINE
  8
0
 62
7
  6
CONTINUOUS
 10
77.1887429535
 20
123.2984845776
 11
77.6781639226
 21
123.2908321959
  0
LINE
  8
0
 62
7
  6
CONTINUOUS
 10
76.8906893446
 20
123.3046483479
 11
77.1887429535
 21
123.2984845776
  0
LINE
  8
0
 62
7
  6
CONTINUOUS
 10
108.7063540244
 20
122.984557956
 11
108.4065105853
 21
122.9907437338
  0
LINE
  8
0
 62
7
  6
CONTINUOUS
 10
108.9507994828
 20
122.9781874954
 11
108.7063540244
 21
122.984557956
  0
LINE
  8
0
 62
7
  6
CONTINUOUS
 10
109.0853530406
 20
122.9739018855
 11
108.9507994828
 21
122.9781874954
  0
LINE
  8
0
 62
7
  6
CONTINUOUS
 10
109.1991228556
 20
122.9696148083
 11
109.0853530406
 21
122.9739018855
  0
LINE
  8
1_AXIS
 62
2
  6
CENTER
 10
92.7996465254
 20
129.4945770065
 11
92.7996465254
 21
124.4944770065
  0
LINE
  8
1_AXIS
 62
2
  6
CENTER
 10
92.7996465254
 20
129.4945770065
 11
92.7996465254
 21
134.4946770065
  0
POLYLINE
  8
0
 62
7
  6
CONTINUOUS
 66
1
 70
0
  0
VERTEX
  8
0
 62
7
  6
CONTINUOUS
 10
109.2585709424
 20
129.6721264206
  0
VERTEX
  8
0
 62
7
  6
CONTINUOUS
 10
109.3071497494
 20
129.6744862034
  0
VERTEX
  8
0
 62
7
  6
CONTINUOUS
 10
109.350928936
 20
129.6768642846
  0
VERTEX
  8
0
 62
7
  6
CONTINUOUS
 10
109.3901589408
 20
129.6792681974
  0
VERTEX
  8
0
 62
7
  6
CONTINUOUS
 10
109.4251385038
 20
129.6817113956
  0
VERTEX
  8
0
 62
7
  6
CONTINUOUS
 10
109.4563411346
 20
129.6842270509
  0
VERTEX
  8
0
 62
7
  6
CONTINUOUS
 10
109.4844663437
 20
129.6868863872
  0
VERTEX
  8
0
 62
7
  6
CONTINUOUS
 10
109.5105586608
 20
129.689840063
  0
VERTEX
  8
0
 62
7
  6
CONTINUOUS
 10
109.536149809
 20
129.69340322
  0
VERTEX
  8
0
 62
7
  6
CONTINUOUS
 10
109.5638376961
 20
129.6983174909
  0
VERTEX
  8
0
 62
7
  6
CONTINUOUS
 10
109.5982156318
 20
129.706485328
  0
VERTEX
  8
0
 62
7
  6
CONTINUOUS
 10
109.644763336
 20
129.7221526322
  0
VERTEX
  8
0
 62
7
  6
CONTINUOUS
 10
109.704541325
 20
129.7518879777
  0
VERTEX
  8
0
 62
7
  6
CONTINUOUS
 10
109.7677839043
 20
129.7989480103
  0
VERTEX
  8
0
 62
7
  6
CONTINUOUS
 10
109.824599954
 20
129.8627548206
  0
VERTEX
  8
0
 62
7
  6
CONTINUOUS
 10
109.8691364276
 20
129.9429655063
  0
VERTEX
  8
0
 62
7
  6
CONTINUOUS
 10
109.8956501424
 20
130.0399521693
  0
VERTEX
  8
0
 62
7
  6
CONTINUOUS
 10
109.8996465209
 20
130.0964431803
  0
SEQEND
  0
LINE
  8
0
 62
7
  6
CONTINUOUS
 10
109.1458832131
 20
129.6674400959
 11
109.2585709424
 21
129.6721264206
  0
LINE
  8
0
 62
7
  6
CONTINUOUS
 10
109.010877337
 20
129.6627941373
 11
109.1458832131
 21
129.6674400959
  0
LINE
  8
0
 62
7
  6
CONTINUOUS
 10
108.8519676126
 20
129.6582077351
 11
109.010877337
 21
129.6627941373
  0
LINE
  8
0
 62
7
  6
CONTINUOUS
 10
108.5659549844
 20
129.6515187495
 11
108.8519676126
 21
129.6582077351
  0
LINE
  8
0
 62
7
  6
CONTINUOUS
 10
77.1420462559
 20
129.3397944622
 11
76.8361721647
 21
129.3332065878
  0
LINE
  8
0
 62
7
  6
CONTINUOUS
 10
108.2187128988
 20
129.6451800057
 11
108.5659549844
 21
129.6515187495
  0
LINE
  8
0
 62
7
  6
CONTINUOUS
 10
77.648402829
 20
129.3479242556
 11
77.1420462559
 21
129.3397944622
  0
LINE
  8
0
 62
7
  6
CONTINUOUS
 10
107.6527167853
 20
129.6375727408
 11
108.2187128988
 21
129.6451800057
  0
LINE
  8
0
 62
7
  6
CONTINUOUS
 10
78.276071089
 20
129.3548720862
 11
77.648402829
 21
129.3479242556
  0
LINE
  8
0
 62
7
  6
CONTINUOUS
 10
106.7690832941
 20
129.6302225749
 11
107.6527167853
 21
129.6375727408
  0
LINE
  8
0
 62
7
  6
CONTINUOUS
 10
79.2391791827
 20
129.3609023756
 11
78.276071089
 21
129.3548720862
  0
LINE
  8
0
 62
7
  6
CONTINUOUS
 10
105.6909034751
 20
129.6266998421
 11
106.7690832941
 21
129.6302225749
  0
LINE
  8
0
 62
7
  6
CONTINUOUS
 10
80.0996465253
 20
129.3625340263
 11
79.2391791827
 21
129.3609023756
  0
LINE
  8
0
 62
7
  6
CONTINUOUS
 10
81.9628345539
 20
129.3625340493
 11
80.0996465253
 21
129.3625340493
  0
LINE
  8
1_AXIS
 62
2
  6
CENTER
 10
92.7996465254
 20
129.4945770065
 11
87.7995465254
 21
129.4945770065
  0
LINE
  8
1_AXIS
 62
2
  6
CENTER
 10
92.7996465254
 20
129.4945770065
 11
97.7997465254
 21
129.4945770065
  0
LINE
  8
0
 62
7
  6
CONTINUOUS
 10
103.6364584968
 20
129.6266199637
 11
105.6909034751
 21
129.6266998421
  0
POLYLINE
  8
0
 62
7
  6
CONTINUOUS
 66
1
 70
0
  0
VERTEX
  8
0
 62
7
  6
CONTINUOUS
 10
76.3407270699
 20
129.3170278206
  0
VERTEX
  8
0
 62
7
  6
CONTINUOUS
 10
76.2921478451
 20
129.3146680473
  0
VERTEX
  8
0
 62
7
  6
CONTINUOUS
 10
76.2483682783
 20
129.3122899704
  0
VERTEX
  8
0
 62
7
  6
CONTINUOUS
 10
76.209138137
 20
129.3098860728
  0
VERTEX
  8
0
 62
7
  6
CONTINUOUS
 10
76.1741583094
 20
129.3074428962
  0
VERTEX
  8
0
 62
7
  6
CONTINUOUS
 10
76.1429553149
 20
129.3049272629
  0
VERTEX
  8
0
 62
7
  6
CONTINUOUS
 10
76.1148296788
 20
129.3022679409
  0
VERTEX
  8
0
 62
7
  6
CONTINUOUS
 10
76.0887370008
 20
129.2993142721
  0
VERTEX
  8
0
 62
7
  6
CONTINUOUS
 10
76.0631464963
 20
129.2957512854
  0
VERTEX
  8
0
 62
7
  6
CONTINUOUS
 10
76.0354597295
 20
129.2908373956
  0
VERTEX
  8
0
 62
7
  6
CONTINUOUS
 10
76.0010835373
 20
129.2826703834
  0
VERTEX
  8
0
 62
7
  6
CONTINUOUS
 10
75.9545376913
 20
129.2670046114
  0
VERTEX
  8
0
 62
7
  6
CONTINUOUS
 10
75.8947595237
 20
129.2372707932
  0
VERTEX
  8
0
 62
7
  6
CONTINUOUS
 10
75.8315148249
 20
129.1902112326
  0
VERTEX
  8
0
 62
7
  6
CONTINUOUS
 10
75.7746962063
 20
129.1264036264
  0
VERTEX
  8
0
 62
7
  6
CONTINUOUS
 10
75.7301577896
 20
129.0461914276
  0
VERTEX
  8
0
 62
7
  6
CONTINUOUS
 10
75.7036430612
 20
128.949203033
  0
VERTEX
  8
0
 62
7
  6
CONTINUOUS
 10
75.6996465298
 20
128.892711054
  0
SEQEND
  0
LINE
  8
0
 62
7
  6
CONTINUOUS
 10
76.4534153149
 20
129.3217141243
 11
76.3407270699
 21
129.3170278206
  0
LINE
  8
0
 62
7
  6
CONTINUOUS
 10
76.5884218039
 20
129.3263600673
 11
76.4534153149
 21
129.3217141243
  0
POLYLINE
  8
0
 62
7
  6
CONTINUOUS
 66
1
 70
0
  0
VERTEX
  8
0
 62
7
  6
CONTINUOUS
 10
76.8361721647
 20
129.3332065878
  0
VERTEX
  8
0
 62
7
  6
CONTINUOUS
 10
76.7473319153
 20
129.3309464509
  0
VERTEX
  8
0
 62
7
  6
CONTINUOUS
 10
76.5884218039
 20
129.3263600673
  0
SEQEND
  0
LINE
  8
0
 62
7
  6
CONTINUOUS
 10
106.4489617806
 20
135.7105428657
 11
103.6364584965
 21
135.7125340493
  0
LINE
  8
0
 62
7
  6
CONTINUOUS
 10
79.1542991608
 20
135.9785942961
 11
81.9628345542
 21
135.9766199637
  0
POLYLINE
  8
0
 62
7
  6
CONTINUOUS
 66
1
 70
0
  0
VERTEX
  8
0
 62
7
  6
CONTINUOUS
 10
103.6364584965
 20
135.712533663
  0
VERTEX
  8
0
 62
7
  6
CONTINUOUS
 10
103.5834590837
 20
135.7128899313
  0
VERTEX
  8
0
 62
7
  6
CONTINUOUS
 10
103.5094799712
 20
135.7146600907
  0
VERTEX
  8
0
 62
7
  6
CONTINUOUS
 10
103.4375482401
 20
135.7179667949
  0
VERTEX
  8
0
 62
7
  6
CONTINUOUS
 10
103.3675889912
 20
135.7228638277
  0
VERTEX
  8
0
 62
7
  6
CONTINUOUS
 10
103.2995502554
 20
135.7294033395
  0
VERTEX
  8
0
 62
7
  6
CONTINUOUS
 10
103.2334251215
 20
135.7376467523
  0
VERTEX
  8
0
 62
7
  6
CONTINUOUS
 10
103.1692443509
 20
135.7476494144
  0
VERTEX
  8
0
 62
7
  6
CONTINUOUS
 10
103.1068711967
 20
135.7594997553
  0
VERTEX
  8
0
 62
7
  6
CONTINUOUS
 10
103.0462223304
 20
135.7733192638
  0
VERTEX
  8
0
 62
7
  6
CONTINUOUS
 10
102.9872929057
 20
135.789241625
  0
VERTEX
  8
0
 62
7
  6
CONTINUOUS
 10
102.9301673276
 20
135.8074077782
  0
VERTEX
  8
0
 62
7
  6
CONTINUOUS
 10
102.875154732
 20
135.8279254107
  0
VERTEX
  8
0
 62
7
  6
CONTINUOUS
 10
102.8231515881
 20
135.8506321462
  0
VERTEX
  8
0
 62
7
  6
CONTINUOUS
 10
102.7738683214
 20
135.8758699852
  0
VERTEX
  8
0
 62
7
  6
CONTINUOUS
 10
102.7273531861
 20
135.9040341636
  0
VERTEX
  8
0
 62
7
  6
CONTINUOUS
 10
102.6844530689
 20
135.9352108803
  0
VERTEX
  8
0
 62
7
  6
CONTINUOUS
 10
102.6467870541
 20
135.9688809978
  0
VERTEX
  8
0
 62
7
  6
CONTINUOUS
 10
102.6156508185
 20
136.0045702324
  0
VERTEX
  8
0
 62
7
  6
CONTINUOUS
 10
102.5911618339
 20
136.04447362
  0
VERTEX
  8
0
 62
7
  6
CONTINUOUS
 10
102.5788062364
 20
136.0818388078
  0
VERTEX
  8
0
 62
7
  6
CONTINUOUS
 10
102.5770059413
 20
136.1019156459
  0
SEQEND
  0
POLYLINE
  8
0
 62
7
  6
CONTINUOUS
 66
1
 70
0
  0
VERTEX
  8
0
 62
7
  6
CONTINUOUS
 10
81.9628345542
 20
135.9766203501
  0
VERTEX
  8
0
 62
7
  6
CONTINUOUS
 10
82.0158339671
 20
135.9762640817
  0
VERTEX
  8
0
 62
7
  6
CONTINUOUS
 10
82.0898130796
 20
135.9744939223
  0
VERTEX
  8
0
 62
7
  6
CONTINUOUS
 10
82.1617448107
 20
135.9711872181
  0
VERTEX
  8
0
 62
7
  6
CONTINUOUS
 10
82.2317040595
 20
135.9662901853
  0
VERTEX
  8
0
 62
7
  6
CONTINUOUS
 10
82.2997427953
 20
135.9597506735
  0
VERTEX
  8
0
 62
7
  6
CONTINUOUS
 10
82.3658679292
 20
135.9515072607
  0
VERTEX
  8
0
 62
7
  6
CONTINUOUS
 10
82.4300486999
 20
135.9415045986
  0
VERTEX
  8
0
 62
7
  6
CONTINUOUS
 10
82.4924218541
 20
135.9296542577
  0
VERTEX
  8
0
 62
7
  6
CONTINUOUS
 10
82.5530707203
 20
135.9158347492
  0
VERTEX
  8
0
 62
7
  6
CONTINUOUS
 10
82.612000145
 20
135.8999123881
  0
VERTEX
  8
0
 62
7
  6
CONTINUOUS
 10
82.6691257231
 20
135.8817462348
  0
VERTEX
  8
0
 62
7
  6
CONTINUOUS
 10
82.7241383187
 20
135.8612286023
  0
VERTEX
  8
0
 62
7
  6
CONTINUOUS
 10
82.7761414627
 20
135.8385218668
  0
VERTEX
  8
0
 62
7
  6
CONTINUOUS
 10
82.8254247293
 20
135.8132840279
  0
VERTEX
  8
0
 62
7
  6
CONTINUOUS
 10
82.8719398646
 20
135.7851198494
  0
VERTEX
  8
0
 62
7
  6
CONTINUOUS
 10
82.9148399818
 20
135.7539431327
  0
VERTEX
  8
0
 62
7
  6
CONTINUOUS
 10
82.9525059967
 20
135.7202730152
  0
VERTEX
  8
0
 62
7
  6
CONTINUOUS
 10
82.9836422322
 20
135.6845837806
  0
VERTEX
  8
0
 62
7
  6
CONTINUOUS
 10
83.0081312168
 20
135.644680393
  0
VERTEX
  8
0
 62
7
  6
CONTINUOUS
 10
83.0204868143
 20
135.6073152052
  0
VERTEX
  8
0
 62
7
  6
CONTINUOUS
 10
83.0222871094
 20
135.5872383671
  0
SEQEND
  0
LINE
  8
0
 62
7
  6
CONTINUOUS
 10
78.278691346
 20
135.9842585776
 11
79.1542991608
 21
135.9785942961
  0
LINE
  8
0
 62
7
  6
CONTINUOUS
 10
107.3264962059
 20
135.7048428508
 11
106.4489617806
 21
135.7105428657
  0
LINE
  8
0
 62
7
  6
CONTINUOUS
 10
77.683833777
 20
135.9907573228
 11
78.278691346
 21
135.9842585776
  0
LINE
  8
0
 62
7
  6
CONTINUOUS
 10
107.9211353655
 20
135.6983217337
 11
107.3264962059
 21
135.7048428508
  0
LINE
  8
0
 62
7
  6
CONTINUOUS
 10
77.192788786
 20
135.9984101611
 11
77.683833777
 21
135.9907573228
  0
LINE
  8
0
 62
7
  6
CONTINUOUS
 10
108.4105564406
 20
135.6906693165
 11
107.9211353655
 21
135.6983217337
  0
LINE
  8
0
 62
7
  6
CONTINUOUS
 10
76.8929450971
 20
136.0045959157
 11
77.192788786
 21
135.9984101611
  0
LINE
  8
0
 62
7
  6
CONTINUOUS
 10
108.7086097987
 20
135.684505523
 11
108.4105564406
 21
135.6906693165
  0
LINE
  8
0
 62
7
  6
CONTINUOUS
 10
76.6484991826
 20
136.0109663553
 11
76.8929450971
 21
136.0045959157
  0
LINE
  8
0
 62
7
  6
CONTINUOUS
 10
108.9513511706
 20
135.6781712714
 11
108.7086097987
 21
135.684505523
  0
LINE
  8
0
 62
7
  6
CONTINUOUS
 10
76.5139450338
 20
136.0152519502
 11
76.6484991826
 21
136.0109663553
  0
LINE
  8
0
 62
7
  6
CONTINUOUS
 10
109.0849949739
 20
135.6739142809
 11
108.9513511706
 21
135.6781712714
  0
LINE
  8
0
 62
7
  6
CONTINUOUS
 10
109.1981117301
 20
135.6696564274
 11
109.0849949739
 21
135.6739142809
  0
LINE
  8
0
 62
7
  6
CONTINUOUS
 10
76.4001748886
 20
136.0195390153
 11
76.5139450338
 21
136.0152519502
  0
POLYLINE
  8
0
 62
7
  6
CONTINUOUS
 66
1
 70
0
  0
VERTEX
  8
0
 62
7
  6
CONTINUOUS
 10
102.5770057039
 20
141.9372995275
  0
VERTEX
  8
0
 62
7
  6
CONTINUOUS
 10
102.5790499527
 20
141.9586329466
  0
VERTEX
  8
0
 62
7
  6
CONTINUOUS
 10
102.5918516232
 20
141.9961191157
  0
VERTEX
  8
0
 62
7
  6
CONTINUOUS
 10
102.6165745841
 20
142.0358078544
  0
VERTEX
  8
0
 62
7
  6
CONTINUOUS
 10
102.6478436277
 20
142.0713307042
  0
VERTEX
  8
0
 62
7
  6
CONTINUOUS
 10
102.6856298779
 20
142.1048841253
  0
VERTEX
  8
0
 62
7
  6
CONTINUOUS
 10
102.728617029
 20
142.1359535209
  0
VERTEX
  8
0
 62
7
  6
CONTINUOUS
 10
102.7752100528
 20
142.164027611
  0
VERTEX
  8
0
 62
7
  6
CONTINUOUS
 10
102.8245692365
 20
142.1891899486
  0
VERTEX
  8
0
 62
7
  6
CONTINUOUS
 10
102.8766271061
 20
142.2118215154
  0
VERTEX
  8
0
 62
7
  6
CONTINUOUS
 10
102.9316760206
 20
142.2322644815
  0
VERTEX
  8
0
 62
7
  6
CONTINUOUS
 10
102.9888457168
 20
142.2503666497
  0
VERTEX
  8
0
 62
7
  6
CONTINUOUS
 10
103.0478231053
 20
142.2662314369
  0
VERTEX
  8
0
 62
7
  6
CONTINUOUS
 10
103.1085249629
 20
142.2799977374
  0
VERTEX
  8
0
 62
7
  6
CONTINUOUS
 10
103.170952387
 20
142.2917984584
  0
VERTEX
  8
0
 62
7
  6
CONTINUOUS
 10
103.2351876739
 20
142.3017532088
  0
VERTEX
  8
0
 62
7
  6
CONTINUOUS
 10
103.3013670983
 20
142.3099497194
  0
VERTEX
  8
0
 62
7
  6
CONTINUOUS
 10
103.3694606429
 20
142.3164444342
  0
VERTEX
  8
0
 62
7
  6
CONTINUOUS
 10
103.4394751211
 20
142.3212979701
  0
VERTEX
  8
0
 62
7
  6
CONTINUOUS
 10
103.51146228
 20
142.324562025
  0
VERTEX
  8
0
 62
7
  6
CONTINUOUS
 10
103.585495436
 20
142.3262911913
  0
VERTEX
  8
0
 62
7
  6
CONTINUOUS
 10
103.6364584969
 20
142.3266204725
  0
SEQEND
  0
LINE
  8
0
 62
7
  6
CONTINUOUS
 10
102.5769969802
 20
116.1470413837
 11
102.5769969802
 21
116.5372996916
  0
LINE
  8
0
 62
7
  6
CONTINUOUS
 10
102.5769969802
 20
123.4019146947
 11
102.5769969802
 21
129.2372996916
  0
LINE
  8
0
 62
7
  6
CONTINUOUS
 10
102.5769969802
 20
136.1019146947
 11
102.5769969802
 21
141.9372996916
  0
POLYLINE
  8
0
 62
7
  6
CONTINUOUS
 66
1
 70
0
  0
VERTEX
  8
0
 62
7
  6
CONTINUOUS
 10
102.5770057039
 20
129.2372995275
  0
VERTEX
  8
0
 62
7
  6
CONTINUOUS
 10
102.5790499527
 20
129.2586329466
  0
VERTEX
  8
0
 62
7
  6
CONTINUOUS
 10
102.5918516232
 20
129.2961191157
  0
VERTEX
  8
0
 62
7
  6
CONTINUOUS
 10
102.6165745841
 20
129.3358078544
  0
VERTEX
  8
0
 62
7
  6
CONTINUOUS
 10
102.6478436277
 20
129.3713307042
  0
VERTEX
  8
0
 62
7
  6
CONTINUOUS
 10
102.6856298779
 20
129.4048841253
  0
VERTEX
  8
0
 62
7
  6
CONTINUOUS
 10
102.728617029
 20
129.4359535209
  0
VERTEX
  8
0
 62
7
  6
CONTINUOUS
 10
102.7752100528
 20
129.464027611
  0
VERTEX
  8
0
 62
7
  6
CONTINUOUS
 10
102.8245692365
 20
129.4891899486
  0
VERTEX
  8
0
 62
7
  6
CONTINUOUS
 10
102.8766271061
 20
129.5118215154
  0
VERTEX
  8
0
 62
7
  6
CONTINUOUS
 10
102.9316760206
 20
129.5322644815
  0
VERTEX
  8
0
 62
7
  6
CONTINUOUS
 10
102.9888457168
 20
129.5503666497
  0
VERTEX
  8
0
 62
7
  6
CONTINUOUS
 10
103.0478231053
 20
129.5662314369
  0
VERTEX
  8
0
 62
7
  6
CONTINUOUS
 10
103.1085249629
 20
129.5799977374
  0
VERTEX
  8
0
 62
7
  6
CONTINUOUS
 10
103.170952387
 20
129.5917984584
  0
VERTEX
  8
0
 62
7
  6
CONTINUOUS
 10
103.2351876739
 20
129.6017532088
  0
VERTEX
  8
0
 62
7
  6
CONTINUOUS
 10
103.3013670983
 20
129.6099497194
  0
VERTEX
  8
0
 62
7
  6
CONTINUOUS
 10
103.3694606429
 20
129.6164444342
  0
VERTEX
  8
0
 62
7
  6
CONTINUOUS
 10
103.4394751211
 20
129.6212979701
  0
VERTEX
  8
0
 62
7
  6
CONTINUOUS
 10
103.51146228
 20
129.624562025
  0
VERTEX
  8
0
 62
7
  6
CONTINUOUS
 10
103.585495436
 20
129.6262911913
  0
VERTEX
  8
0
 62
7
  6
CONTINUOUS
 10
103.6364584969
 20
129.6266204725
  0
SEQEND
  0
POLYLINE
  8
0
 62
7
  6
CONTINUOUS
 66
1
 70
0
  0
VERTEX
  8
0
 62
7
  6
CONTINUOUS
 10
102.5747917371
 20
116.1050969996
  0
VERTEX
  8
0
 62
7
  6
CONTINUOUS
 10
102.5768735782
 20
116.1371062762
  0
VERTEX
  8
0
 62
7
  6
CONTINUOUS
 10
102.5769969802
 20
116.1470413837
  0
SEQEND
  0
POLYLINE
  8
0
 62
7
  6
CONTINUOUS
 66
1
 70
0
  0
VERTEX
  8
0
 62
7
  6
CONTINUOUS
 10
102.1007735005
 20
110.9969514761
  0
VERTEX
  8
0
 62
7
  6
CONTINUOUS
 10
102.2550239376
 20
112.8031924859
  0
VERTEX
  8
0
 62
7
  6
CONTINUOUS
 10
102.41625446
 20
114.5369185172
  0
VERTEX
  8
0
 62
7
  6
CONTINUOUS
 10
102.5747855639
 20
116.1050980471
  0
SEQEND
  0
POLYLINE
  8
0
 62
7
  6
CONTINUOUS
 66
1
 70
0
  0
VERTEX
  8
0
 62
7
  6
CONTINUOUS
 10
102.5770057039
 20
116.5372995275
  0
VERTEX
  8
0
 62
7
  6
CONTINUOUS
 10
102.5790499527
 20
116.5586329466
  0
VERTEX
  8
0
 62
7
  6
CONTINUOUS
 10
102.5918516232
 20
116.5961191157
  0
VERTEX
  8
0
 62
7
  6
CONTINUOUS
 10
102.6165745841
 20
116.6358078544
  0
VERTEX
  8
0
 62
7
  6
CONTINUOUS
 10
102.6478436277
 20
116.6713307042
  0
VERTEX
  8
0
 62
7
  6
CONTINUOUS
 10
102.6856298779
 20
116.7048841253
  0
VERTEX
  8
0
 62
7
  6
CONTINUOUS
 10
102.728617029
 20
116.7359535209
  0
VERTEX
  8
0
 62
7
  6
CONTINUOUS
 10
102.7752100528
 20
116.764027611
  0
VERTEX
  8
0
 62
7
  6
CONTINUOUS
 10
102.8245692365
 20
116.7891899486
  0
VERTEX
  8
0
 62
7
  6
CONTINUOUS
 10
102.8766271061
 20
116.8118215154
  0
VERTEX
  8
0
 62
7
  6
CONTINUOUS
 10
102.9316760206
 20
116.8322644815
  0
VERTEX
  8
0
 62
7
  6
CONTINUOUS
 10
102.9888457168
 20
116.8503666497
  0
VERTEX
  8
0
 62
7
  6
CONTINUOUS
 10
103.0478231053
 20
116.8662314369
  0
VERTEX
  8
0
 62
7
  6
CONTINUOUS
 10
103.1085249629
 20
116.8799977374
  0
VERTEX
  8
0
 62
7
  6
CONTINUOUS
 10
103.170952387
 20
116.8917984584
  0
VERTEX
  8
0
 62
7
  6
CONTINUOUS
 10
103.2351876739
 20
116.9017532088
  0
VERTEX
  8
0
 62
7
  6
CONTINUOUS
 10
103.3013670983
 20
116.9099497194
  0
VERTEX
  8
0
 62
7
  6
CONTINUOUS
 10
103.3694606429
 20
116.9164444342
  0
VERTEX
  8
0
 62
7
  6
CONTINUOUS
 10
103.4394751211
 20
116.9212979701
  0
VERTEX
  8
0
 62
7
  6
CONTINUOUS
 10
103.51146228
 20
116.924562025
  0
VERTEX
  8
0
 62
7
  6
CONTINUOUS
 10
103.585495436
 20
116.9262911913
  0
VERTEX
  8
0
 62
7
  6
CONTINUOUS
 10
103.6364584969
 20
116.9266204725
  0
SEQEND
  0
POLYLINE
  8
0
 62
7
  6
CONTINUOUS
 66
1
 70
0
  0
VERTEX
  8
0
 62
7
  6
CONTINUOUS
 10
109.2585709424
 20
142.3721264206
  0
VERTEX
  8
0
 62
7
  6
CONTINUOUS
 10
109.3071497494
 20
142.3744862034
  0
VERTEX
  8
0
 62
7
  6
CONTINUOUS
 10
109.350928936
 20
142.3768642846
  0
VERTEX
  8
0
 62
7
  6
CONTINUOUS
 10
109.3901589408
 20
142.3792681974
  0
VERTEX
  8
0
 62
7
  6
CONTINUOUS
 10
109.4251385038
 20
142.3817113956
  0
VERTEX
  8
0
 62
7
  6
CONTINUOUS
 10
109.4563411346
 20
142.3842270509
  0
VERTEX
  8
0
 62
7
  6
CONTINUOUS
 10
109.4844663437
 20
142.3868863872
  0
VERTEX
  8
0
 62
7
  6
CONTINUOUS
 10
109.5105586608
 20
142.389840063
  0
VERTEX
  8
0
 62
7
  6
CONTINUOUS
 10
109.536149809
 20
142.39340322
  0
VERTEX
  8
0
 62
7
  6
CONTINUOUS
 10
109.5638376961
 20
142.3983174909
  0
VERTEX
  8
0
 62
7
  6
CONTINUOUS
 10
109.5982156318
 20
142.406485328
  0
VERTEX
  8
0
 62
7
  6
CONTINUOUS
 10
109.644763336
 20
142.4221526322
  0
VERTEX
  8
0
 62
7
  6
CONTINUOUS
 10
109.704541325
 20
142.4518879777
  0
VERTEX
  8
0
 62
7
  6
CONTINUOUS
 10
109.7677839043
 20
142.4989480103
  0
VERTEX
  8
0
 62
7
  6
CONTINUOUS
 10
109.824599954
 20
142.5627548206
  0
VERTEX
  8
0
 62
7
  6
CONTINUOUS
 10
109.8691364276
 20
142.6429655063
  0
VERTEX
  8
0
 62
7
  6
CONTINUOUS
 10
109.8956501424
 20
142.7399521693
  0
VERTEX
  8
0
 62
7
  6
CONTINUOUS
 10
109.8996465209
 20
142.7964431803
  0
SEQEND
  0
LINE
  8
DEFAULT_1
 62
2
  6
CENTER
 10
105.4996465254
 20
153.3595770065
 11
105.4996465254
 21
111.9509506593
  0
POLYLINE
  8
0
 62
7
  6
CONTINUOUS
 66
1
 70
0
  0
VERTEX
  8
0
 62
7
  6
CONTINUOUS
 10
102.1007734849
 20
110.9969514948
  0
VERTEX
  8
0
 62
7
  6
CONTINUOUS
 10
102.0804169597
 20
110.8996501204
  0
VERTEX
  8
0
 62
7
  6
CONTINUOUS
 10
102.0370735692
 20
110.810952019
  0
VERTEX
  8
0
 62
7
  6
CONTINUOUS
 10
101.9735585337
 20
110.7357851591
  0
VERTEX
  8
0
 62
7
  6
CONTINUOUS
 10
101.8934827675
 20
110.6783291981
  0
VERTEX
  8
0
 62
7
  6
CONTINUOUS
 10
101.8011624301
 20
110.6420362083
  0
VERTEX
  8
0
 62
7
  6
CONTINUOUS
 10
101.7021062354
 20
110.6295770065
  0
SEQEND
  0
POLYLINE
  8
0
 62
7
  6
CONTINUOUS
 66
1
 70
0
  0
VERTEX
  8
0
 62
7
  6
CONTINUOUS
 10
76.3407270699
 20
142.0170278206
  0
VERTEX
  8
0
 62
7
  6
CONTINUOUS
 10
76.2921478451
 20
142.0146680473
  0
VERTEX
  8
0
 62
7
  6
CONTINUOUS
 10
76.2483682783
 20
142.0122899704
  0
VERTEX
  8
0
 62
7
  6
CONTINUOUS
 10
76.209138137
 20
142.0098860728
  0
VERTEX
  8
0
 62
7
  6
CONTINUOUS
 10
76.1741583094
 20
142.0074428962
  0
VERTEX
  8
0
 62
7
  6
CONTINUOUS
 10
76.1429553149
 20
142.0049272629
  0
VERTEX
  8
0
 62
7
  6
CONTINUOUS
 10
76.1148296788
 20
142.0022679409
  0
VERTEX
  8
0
 62
7
  6
CONTINUOUS
 10
76.0887370008
 20
141.9993142721
  0
VERTEX
  8
0
 62
7
  6
CONTINUOUS
 10
76.0631464963
 20
141.9957512854
  0
VERTEX
  8
0
 62
7
  6
CONTINUOUS
 10
76.0354597295
 20
141.9908373956
  0
VERTEX
  8
0
 62
7
  6
CONTINUOUS
 10
76.0010835373
 20
141.9826703834
  0
VERTEX
  8
0
 62
7
  6
CONTINUOUS
 10
75.9545376913
 20
141.9670046114
  0
VERTEX
  8
0
 62
7
  6
CONTINUOUS
 10
75.8947595237
 20
141.9372707932
  0
VERTEX
  8
0
 62
7
  6
CONTINUOUS
 10
75.8315148249
 20
141.8902112326
  0
VERTEX
  8
0
 62
7
  6
CONTINUOUS
 10
75.7746962063
 20
141.8264036264
  0
VERTEX
  8
0
 62
7
  6
CONTINUOUS
 10
75.7301577896
 20
141.7461914276
  0
VERTEX
  8
0
 62
7
  6
CONTINUOUS
 10
75.7036430612
 20
141.649203033
  0
VERTEX
  8
0
 62
7
  6
CONTINUOUS
 10
75.6996465298
 20
141.592711054
  0
SEQEND
  0
LINE
  8
0
 62
7
  6
CONTINUOUS
 10
109.1458832131
 20
142.3674400959
 11
109.2585709424
 21
142.3721264206
  0
LINE
  8
0
 62
7
  6
CONTINUOUS
 10
76.4534153149
 20
142.0217141243
 11
76.3407270699
 21
142.0170278206
  0
LINE
  8
0
 62
7
  6
CONTINUOUS
 10
109.010877337
 20
142.3627941373
 11
109.1458832131
 21
142.3674400959
  0
LINE
  8
0
 62
7
  6
CONTINUOUS
 10
76.5884218039
 20
142.0263600673
 11
76.4534153149
 21
142.0217141243
  0
LINE
  8
0
 62
7
  6
CONTINUOUS
 10
108.8519676126
 20
142.3582077351
 11
109.010877337
 21
142.3627941373
  0
LINE
  8
0
 62
7
  6
CONTINUOUS
 10
76.7473319153
 20
142.0309464509
 11
76.5884218039
 21
142.0263600673
  0
LINE
  8
0
 62
7
  6
CONTINUOUS
 10
108.5659549844
 20
142.3515187495
 11
108.8519676126
 21
142.3582077351
  0
LINE
  8
0
 62
7
  6
CONTINUOUS
 10
77.0333451011
 20
142.0376354071
 11
76.7473319153
 21
142.0309464509
  0
LINE
  8
0
 62
7
  6
CONTINUOUS
 10
108.2187128988
 20
142.3451800057
 11
108.5659549844
 21
142.3515187495
  0
LINE
  8
0
 62
7
  6
CONTINUOUS
 10
77.3805873239
 20
142.0439741209
 11
77.0333451011
 21
142.0376354071
  0
LINE
  8
0
 62
7
  6
CONTINUOUS
 10
107.6527167853
 20
142.3375727408
 11
108.2187128988
 21
142.3451800057
  0
LINE
  8
0
 62
7
  6
CONTINUOUS
 10
77.946582938
 20
142.0515813458
 11
77.3805873239
 21
142.0439741209
  0
LINE
  8
0
 62
7
  6
CONTINUOUS
 10
78.8302145776
 20
142.0589314648
 11
77.946582938
 21
142.0515813458
  0
LINE
  8
0
 62
7
  6
CONTINUOUS
 10
106.7690832941
 20
142.3302225749
 11
107.6527167853
 21
142.3375727408
  0
LINE
  8
0
 62
7
  6
CONTINUOUS
 10
79.9083909388
 20
142.0624541707
 11
78.8302145776
 21
142.0589314648
  0
LINE
  8
0
 62
7
  6
CONTINUOUS
 10
105.6909034751
 20
142.3266998421
 11
106.7690832941
 21
142.3302225749
  0
LINE
  8
0
 62
7
  6
CONTINUOUS
 10
81.9628345539
 20
142.0625340493
 11
79.9083909388
 21
142.0624541707
  0
LINE
  8
0
 62
7
  6
CONTINUOUS
 10
103.6364584968
 20
142.3266199637
 11
105.6909034751
 21
142.3266998421
  0
POLYLINE
  8
0
 62
7
  6
CONTINUOUS
 66
1
 70
0
  0
VERTEX
  8
0
 62
7
  6
CONTINUOUS
 10
109.8996465208
 20
122.5427107714
  0
VERTEX
  8
0
 62
7
  6
CONTINUOUS
 10
109.8955664266
 20
122.5997874476
  0
VERTEX
  8
0
 62
7
  6
CONTINUOUS
 10
109.8686444989
 20
122.6973717111
  0
VERTEX
  8
0
 62
7
  6
CONTINUOUS
 10
109.8234271485
 20
122.7780291094
  0
VERTEX
  8
0
 62
7
  6
CONTINUOUS
 10
109.7657900447
 20
122.8420041764
  0
VERTEX
  8
0
 62
7
  6
CONTINUOUS
 10
109.7019736213
 20
122.8888017334
  0
VERTEX
  8
0
 62
7
  6
CONTINUOUS
 10
109.6422394755
 20
122.9180042586
  0
VERTEX
  8
0
 62
7
  6
CONTINUOUS
 10
109.5962835812
 20
122.9331980427
  0
VERTEX
  8
0
 62
7
  6
CONTINUOUS
 10
109.5629526561
 20
122.9410143008
  0
VERTEX
  8
0
 62
7
  6
CONTINUOUS
 10
109.536572551
 20
122.9456849175
  0
VERTEX
  8
0
 62
7
  6
CONTINUOUS
 10
109.5126487345
 20
122.9490510282
  0
VERTEX
  8
0
 62
7
  6
CONTINUOUS
 10
109.488732825
 20
122.9518216695
  0
VERTEX
  8
0
 62
7
  6
CONTINUOUS
 10
109.4634327791
 20
122.9542972797
  0
VERTEX
  8
0
 62
7
  6
CONTINUOUS
 10
109.4358851039
 20
122.9566181189
  0
VERTEX
  8
0
 62
7
  6
CONTINUOUS
 10
109.405546127
 20
122.9588518836
  0
VERTEX
  8
0
 62
7
  6
CONTINUOUS
 10
109.372046652
 20
122.9610332761
  0
VERTEX
  8
0
 62
7
  6
CONTINUOUS
 10
109.3349684497
 20
122.9631890222
  0
VERTEX
  8
0
 62
7
  6
CONTINUOUS
 10
109.2939800039
 20
122.9653332366
  0
VERTEX
  8
0
 62
7
  6
CONTINUOUS
 10
109.1991228556
 20
122.9696148083
  0
SEQEND
  0
LINE
  8
2_FEATURE
 62
7
  6
CONTINUOUS
 10
109.8996465254
 20
147.9595770065
 11
109.8996465254
 21
142.7964402225
  0
LINE
  8
2_FEATURE
 62
7
  6
CONTINUOUS
 10
109.8996465254
 20
135.2427133428
 11
109.8996465254
 21
130.0964402225
  0
LINE
  8
2_FEATURE
 62
7
  6
CONTINUOUS
 10
109.8996465254
 20
122.5427154759
 11
109.8996465254
 21
117.3964402225
  0
POLYLINE
  8
0
 62
7
  6
CONTINUOUS
 66
1
 70
0
  0
VERTEX
  8
0
 62
7
  6
CONTINUOUS
 10
109.8996465206
 20
135.2427107268
  0
VERTEX
  8
0
 62
7
  6
CONTINUOUS
 10
109.8954862929
 20
135.3003423069
  0
VERTEX
  8
0
 62
7
  6
CONTINUOUS
 10
109.8682605166
 20
135.3982879488
  0
VERTEX
  8
0
 62
7
  6
CONTINUOUS
 10
109.8226341171
 20
135.4791215855
  0
VERTEX
  8
0
 62
7
  6
CONTINUOUS
 10
109.7645435847
 20
135.5431161814
  0
VERTEX
  8
0
 62
7
  6
CONTINUOUS
 10
109.7003841066
 20
135.5897396801
  0
VERTEX
  8
0
 62
7
  6
CONTINUOUS
 10
109.6406210799
 20
135.6186375344
  0
VERTEX
  8
0
 62
7
  6
CONTINUOUS
 10
109.5949140873
 20
135.633567878
  0
VERTEX
  8
0
 62
7
  6
CONTINUOUS
 10
109.5618000459
 20
135.6412436034
  0
VERTEX
  8
0
 62
7
  6
CONTINUOUS
 10
109.5355096887
 20
135.6458500596
  0
VERTEX
  8
0
 62
7
  6
CONTINUOUS
 10
109.5115870734
 20
135.6491851346
  0
VERTEX
  8
0
 62
7
  6
CONTINUOUS
 10
109.4876224189
 20
135.6519389777
  0
VERTEX
  8
0
 62
7
  6
CONTINUOUS
 10
109.4622466282
 20
135.654404334
  0
VERTEX
  8
0
 62
7
  6
CONTINUOUS
 10
109.4346103234
 20
135.6567180355
  0
VERTEX
  8
0
 62
7
  6
CONTINUOUS
 10
109.4041765947
 20
135.6589463317
  0
VERTEX
  8
0
 62
7
  6
CONTINUOUS
 10
109.3706051842
 20
135.6611216793
  0
VERTEX
  8
0
 62
7
  6
CONTINUOUS
 10
109.3335295006
 20
135.6632681663
  0
VERTEX
  8
0
 62
7
  6
CONTINUOUS
 10
109.2926104564
 20
135.6654012664
  0
VERTEX
  8
0
 62
7
  6
CONTINUOUS
 10
109.1981117301
 20
135.6696564274
  0
SEQEND
  0
LINE
  8
0
 62
7
  6
CONTINUOUS
 10
83.8971864986
 20
148.3595770065
 11
109.4996287052
 21
148.3595770065
  0
ARC
  8
0
 62
7
  6
CONTINUOUS
 10
80.0996465254
 20
197.1131785742
 40
4.4
 50
89.9989271072
 51
270.0000000011
  0
CIRCLE
  8
0
 62
7
  6
CONTINUOUS
 10
80.0996465254
 20
197.1131785742
 40
2.6
  0
ARC
  8
0
 62
7
  6
CONTINUOUS
 10
100.2996585096
 20
193.1131785742
 40
0.3999940079
 50
269.9982833791
 51
360.0
  0
ARC
  8
0
 62
7
  6
CONTINUOUS
 10
102.1770061037
 20
201.1131785742
 40
0.3999999318
 50
309.7141309823
 51
90.0
  0
ARC
  8
0
 62
7
  6
CONTINUOUS
 10
105.4996465254
 20
197.1131785742
 40
4.8
 50
129.7151372318
 51
180.0
  0
ARC
  8
0
 62
7
  6
CONTINUOUS
 10
105.4996465254
 20
197.1131785742
 40
4.4
 50
269.9989253624
 51
90.0010359892
  0
CIRCLE
  8
0
 62
7
  6
CONTINUOUS
 10
105.4996465254
 20
197.1131785742
 40
2.6
  0
ARC
  8
0
 62
7
  6
CONTINUOUS
 10
109.4996465254
 20
147.9595770065
 40
0.4
 50
0.0
 51
90.0002598379
  0
ARC
  8
0
 62
7
  6
CONTINUOUS
 10
76.0996465254
 20
111.0295770065
 40
0.4
 50
180.0
 51
270.0002327402
  0
ENDSEC
  0
EOF
