  0
SECTION
  2
HEADER
  9
$EXTMAX
 10
210.0
 20
297.0
 30
0.0
  9
$EXTMIN
 10
0.0
 20
0.0
 30
0.0
  9
$LIMMIN
 10
0.0
 20
0.0
  9
$LIMMAX
 10
210.0
 20
297.0
  9
$VIEWCTR
 10
105.0
 20
148.5
  9
$VIEWSIZE
 40
297.0
  9
$CLAYER
  8
0
  9
$LTSCALE
 40
19.36
  9
$CELTYPE
  6
BYLAYER
  9
$DIMSCALE
 40
1.0
  9
$DIMASZ
 40
3.5
  9
$DIMEXO
 40
1.0
  9
$DIMDLI
 40
13.376
  9
$DIMEXE
 40
2.0
  9
$DIMCEN
 40
3.168
  9
$DIMLFAC
 40
1.0
  9
$DIMBLK
  1
_FILLED
  9
$DIMTXT
 40
3.5
  9
$AUNITS
 70
0
  9
$PDMODE
 70
3
  9
$PDSIZE
 40
0.3125
  9
$TILEMODE
 70
1
  0
ENDSEC
  0
SECTION
  2
TABLES
  0
TABLE
  2
LTYPE
 70
6
  0
LTYPE
  2
BYBLOCK
 70
0
  3

 72
65
 73
0
 40
0.0
  0
LTYPE
  2
BYLAYER
 70
0
  3

 72
65
 73
0
 40
0.0
  0
LTYPE
  2
CONTINUOUS
 70
64
  3
Solid line
 72
65
 73
0
 40
0.0
  0
LTYPE
  2
CENTER
 70
64
  3
____ _ ____ _ ____ _ ____ _ ____ _ ____ _ ____
 72
65
 73
4
 40
0.6
 49
0.375
 49
-0.075
 49
0.075
 49
-0.075
  0
LTYPE
  2
HIDDEN
 70
64
  3
- - - - - - - - - - - - - - - - - - - -
 72
65
 73
2
 40
0.2
 49
0.1
 49
-0.1
  0
LTYPE
  2
PHANTOM
 70
64
  3
_____ _ _ _____ _ _ _____ _ _ _____
 72
65
 73
6
 40
0.8
 49
0.45
 49
-0.05
 49
0.1
 49
-0.05
 49
0.1
 49
-0.05
  0
LTYPE
  2
DOT
 70
64
  3
. . . . . . . . . . . . . . . . . . . .
 72
65
 73
2
 40
0.2
 49
0.1
 49
-0.1
  0
LTYPE
  2
DASHED
 70
64
  3
- - - - - - - - - - - - - - - - - - - -
 72
65
 73
2
 40
0.2
 49
0.1
 49
-0.1
  0
ENDTAB
  0
TABLE
  2
LAYER
 70
36
  0
LAYER
  2
0
 70
0
 62
7
  6
CONTINUOUS
  0
LAYER
  2
DEFAULT_1
 70
0
 62
7
  6
CENTER
  0
LAYER
  2
DEFAULT_2
 70
0
 62
8
  6
HIDDEN
  0
LAYER
  2
DEFAULT_3
 70
0
 62
7
  6
PHANTOM
  0
LAYER
  2
CSYS
 70
0
 62
7
  6
CONTINUOUS
  0
LAYER
  2
CURVE
 70
0
 62
7
  6
CONTINUOUS
  0
LAYER
  2
NOTES
 70
0
 62
7
  6
CONTINUOUS
  0
LAYER
  2
SURFACE
 70
0
 62
7
  6
CONTINUOUS
  0
ENDTAB
  0
TABLE
  2
STYLE
 70
1
  0
STYLE
  2
STANDARD
 70
0
 40
0.0
 41
0.8
 50
0.0
 71
0
 42
0.2
  3
txt
  4

  0
STYLE
  2
TEXTSTYLE_1
 70
0
 40
0.0
 41
0.8
 50
0.0
 71
0
 42
0.2
  3
gdt
  4

  0
STYLE
  2
TEXTSTYLE_2
 70
0
 40
0.0
 41
0.6
 50
0.0
 71
0
 42
0.2
  3
txt
  4

  0
STYLE
  2
TEXTSTYLE_3
 70
0
 40
0.0
 41
1.0
 50
0.0
 71
0
 42
0.2
  3
ftb_____.ttf
  4

  0
STYLE
  2
TEXTSTYLE_4
 70
0
 40
0.0
 41
1.0
 50
0.0
 71
0
 42
0.2
  3
fti_____.ttf
  4

  0
STYLE
  2
TEXTSTYLE_5
 70
0
 40
0.0
 41
1.0
 50
0.0
 71
0
 42
0.2
  3
frutiger light.ttf
  4

  0
STYLE
  2
TEXTSTYLE_6
 70
0
 40
0.0
 41
0.7
 50
0.0
 71
0
 42
0.2
  3
txt
  4

  0
STYLE
  2
TEXTSTYLE_7
 70
0
 40
0.0
 41
0.5
 50
0.0
 71
0
 42
0.2
  3
txt
  4

  0
ENDTAB
  0
ENDSEC
  0
SECTION
  2
BLOCKS
  0
BLOCK
  8
0
 62
2
  6
CONTINUOUS
  2
UNI_LOGO2_BL1
 70
64
 10
173.5956734183
 20
35.5937998301
  0
TEXT
  8
0
 62
7
  6
CONTINUOUS
 10
164.6539584268
 20
30.6865562072
  7
TEXTSTYLE_4
 40
1.0655737705
  1
The brand for plastic modular belts and chains
 41
1.0
 72
0
  0
LINE
  8
0
 62
7
  6
CONTINUOUS
 10
149.5737418074
 20
36.1675703219
 11
149.5737418074
 21
34.0364227809
  0
LINE
  8
0
 62
7
  6
CONTINUOUS
 10
149.8628043005
 20
31.0454914852
 11
149.8628043005
 21
31.1422825445
  0
LINE
  8
0
 62
7
  6
CONTINUOUS
 10
149.5737418074
 20
31.1100188581
 11
149.6315543091
 21
30.9164367395
  0
LINE
  8
0
 62
7
  6
CONTINUOUS
 10
150.9671844304
 20
33.9544555678
 11
150.9671844304
 21
36.1675703219
  0
LINE
  8
0
 62
7
  6
CONTINUOUS
 10
151.8862417523
 20
32.1101932727
 11
151.8862417523
 21
30.5937998301
  0
LINE
  8
0
 62
7
  6
CONTINUOUS
 10
152.1753043074
 20
30.5937998301
 11
152.1753043074
 21
31.3358647082
  0
LINE
  8
0
 62
7
  6
CONTINUOUS
 10
152.1753043074
 20
31.4649194539
 11
152.1753043074
 21
32.1101932727
  0
LINE
  8
0
 62
7
  6
CONTINUOUS
 10
149.6315543091
 20
31.3036010218
 11
149.5737418074
 21
31.1100188581
  0
LINE
  8
0
 62
7
  6
CONTINUOUS
 10
149.9784292936
 20
30.8841730531
 11
149.8628043005
 21
31.0454914852
  0
LINE
  8
0
 62
7
  6
CONTINUOUS
 10
151.0768668626
 20
31.400392081
 11
151.1346793074
 21
31.3036010218
  0
LINE
  8
0
 62
7
  6
CONTINUOUS
 10
151.4237418626
 20
31.3036010218
 11
151.3659292523
 21
31.4326557675
  0
LINE
  8
0
 62
7
  6
CONTINUOUS
 10
152.852430332
 20
36.1675703219
 11
152.852430332
 21
34.3642916334
  0
LINE
  8
0
 62
7
  6
CONTINUOUS
 10
152.852430332
 20
33.0528162235
 11
152.852430332
 21
32.3970785186
  0
LINE
  8
0
 62
7
  6
CONTINUOUS
 10
153.2159293074
 20
31.2390736489
 11
153.2159293074
 21
30.5937998301
  0
LINE
  8
0
 62
7
  6
CONTINUOUS
 10
153.5049916972
 20
30.5937998301
 11
153.5049916972
 21
31.2390736489
  0
LINE
  8
0
 62
7
  6
CONTINUOUS
 10
149.8628043005
 20
31.1422825445
 11
149.9206168074
 21
31.2713373354
  0
LINE
  8
0
 62
7
  6
CONTINUOUS
 10
149.6315543091
 20
30.9164367395
 11
149.7471793074
 21
30.7873819712
  0
LINE
  8
0
 62
7
  6
CONTINUOUS
 10
153.1581166972
 20
31.3681283946
 11
153.2159293074
 21
31.2390736489
  0
LINE
  8
0
 62
7
  6
CONTINUOUS
 10
153.9674919177
 20
30.8841730531
 11
154.0253041972
 21
30.7551182848
  0
LINE
  8
0
 62
7
  6
CONTINUOUS
 10
153.5049916972
 20
31.2390736489
 11
153.4471794177
 21
31.400392081
  0
LINE
  8
0
 62
7
  6
CONTINUOUS
 10
153.9674919177
 20
31.4326557675
 11
153.9674919177
 21
31.3681283946
  0
LINE
  8
0
 62
7
  6
CONTINUOUS
 10
153.9674919177
 20
30.9809641124
 11
153.9674919177
 21
30.8841730531
  0
LINE
  8
0
 62
7
  6
CONTINUOUS
 10
154.245872955
 20
32.3970785186
 11
154.245872955
 21
36.1675703219
  0
LINE
  8
0
 62
7
  6
CONTINUOUS
 10
154.2565543074
 20
30.8519093441
 11
154.2565543074
 21
30.9164367395
  0
LINE
  8
0
 62
7
  6
CONTINUOUS
 10
154.5737418074
 20
36.1675703219
 11
154.5737418074
 21
32.3970785186
  0
LINE
  8
0
 62
7
  6
CONTINUOUS
 10
151.3659292523
 20
30.7873819712
 11
151.4237418626
 21
30.9164367395
  0
LINE
  8
0
 62
7
  6
CONTINUOUS
 10
155.759679528
 20
30.6905909007
 11
155.7018665869
 21
30.8519093441
  0
LINE
  8
0
 62
7
  6
CONTINUOUS
 10
155.412804528
 20
31.3681283946
 11
155.412804528
 21
31.2713373354
  0
LINE
  8
0
 62
7
  6
CONTINUOUS
 10
155.412804528
 20
31.1422825445
 11
155.412804528
 21
30.9487004259
  0
LINE
  8
0
 62
7
  6
CONTINUOUS
 10
155.7018665869
 20
30.8519093441
 11
155.7018665869
 21
31.3681283946
  0
LINE
  8
0
 62
7
  6
CONTINUOUS
 10
155.9671844304
 20
32.3970785186
 11
155.9671844304
 21
34.2003572071
  0
LINE
  8
0
 62
7
  6
CONTINUOUS
 10
155.9671844304
 20
35.511832617
 11
155.9671844304
 21
36.1675703219
  0
LINE
  8
0
 62
7
  6
CONTINUOUS
 10
156.279992028
 20
32.1101932727
 11
156.279992028
 21
31.9488748406
  0
LINE
  8
0
 62
7
  6
CONTINUOUS
 10
156.279992028
 20
31.626237886
 11
156.279992028
 21
30.5937998301
  0
LINE
  8
0
 62
7
  6
CONTINUOUS
 10
156.5690540869
 20
30.5937998301
 11
156.5690540869
 21
31.626237886
  0
LINE
  8
0
 62
7
  6
CONTINUOUS
 10
156.5690540869
 20
31.9488748406
 11
156.5690540869
 21
32.1101932727
  0
LINE
  8
0
 62
7
  6
CONTINUOUS
 10
151.1346793074
 20
30.9164367395
 11
151.0768668626
 21
30.8196456577
  0
LINE
  8
0
 62
7
  6
CONTINUOUS
 10
153.4471794177
 20
31.400392081
 11
153.3893668074
 21
31.4649194539
  0
LINE
  8
0
 62
7
  6
CONTINUOUS
 10
154.3143669177
 20
30.7873819712
 11
154.2565543074
 21
30.8519093441
  0
LINE
  8
0
 62
7
  6
CONTINUOUS
 10
155.4706168074
 20
30.6583272086
 11
155.5284290869
 21
30.5937998301
  0
LINE
  8
0
 62
7
  6
CONTINUOUS
 10
155.412804528
 20
30.7551182848
 11
155.4706168074
 21
30.6583272086
  0
LINE
  8
0
 62
7
  6
CONTINUOUS
 10
155.8174918074
 20
30.5937998301
 11
155.759679528
 21
30.6905909007
  0
LINE
  8
0
 62
7
  6
CONTINUOUS
 10
155.7018665869
 20
31.3681283946
 11
155.6440543074
 21
31.4649194539
  0
LINE
  8
0
 62
7
  6
CONTINUOUS
 10
157.0315543074
 20
31.626237886
 11
157.0315543074
 21
30.5937998301
  0
LINE
  8
0
 62
7
  6
CONTINUOUS
 10
157.320617028
 20
30.5937998301
 11
157.320617028
 21
31.3358647082
  0
LINE
  8
0
 62
7
  6
CONTINUOUS
 10
157.320617028
 20
31.4649194539
 11
157.320617028
 21
31.626237886
  0
LINE
  8
0
 62
7
  6
CONTINUOUS
 10
157.852430332
 20
34.6101932727
 11
157.852430332
 21
32.3970785186
  0
LINE
  8
0
 62
7
  6
CONTINUOUS
 10
149.7471793074
 20
31.4326557675
 11
149.6315543091
 21
31.3036010218
  0
LINE
  8
0
 62
7
  6
CONTINUOUS
 10
149.9206168074
 20
31.2713373354
 11
149.9784292936
 21
31.3358647082
  0
LINE
  8
0
 62
7
  6
CONTINUOUS
 10
149.7471793074
 20
30.7873819712
 11
149.8628043005
 21
30.7228545871
  0
LINE
  8
0
 62
7
  6
CONTINUOUS
 10
150.1518667936
 20
30.7873819712
 11
149.9784292936
 21
30.8841730531
  0
LINE
  8
0
 62
7
  6
CONTINUOUS
 10
155.3549915869
 20
31.4326557675
 11
155.412804528
 21
31.3681283946
  0
LINE
  8
0
 62
7
  6
CONTINUOUS
 10
158.3034290869
 20
31.3681283946
 11
158.361242028
 21
31.2068099625
  0
LINE
  8
0
 62
7
  6
CONTINUOUS
 10
158.6503040869
 20
31.2068099625
 11
158.5924918074
 21
31.3681283946
  0
LINE
  8
0
 62
7
  6
CONTINUOUS
 10
158.361242028
 20
31.2068099625
 11
158.361242028
 21
30.5937998301
  0
LINE
  8
0
 62
7
  6
CONTINUOUS
 10
158.6503040869
 20
30.5937998301
 11
158.6503040869
 21
31.2068099625
  0
LINE
  8
0
 62
7
  6
CONTINUOUS
 10
159.1128043074
 20
31.4326557675
 11
159.1128043074
 21
31.3681283946
  0
LINE
  8
0
 62
7
  6
CONTINUOUS
 10
159.245872955
 20
32.3970785186
 11
159.245872955
 21
34.5282260596
  0
LINE
  8
0
 62
7
  6
CONTINUOUS
 10
159.5737418074
 20
36.1675703219
 11
159.5737418074
 21
32.3970785186
  0
LINE
  8
0
 62
7
  6
CONTINUOUS
 10
154.2565543074
 20
30.9164367395
 11
154.3143669177
 21
31.0132277988
  0
LINE
  8
0
 62
7
  6
CONTINUOUS
 10
149.8628043005
 20
30.7228545871
 11
150.0362418212
 21
30.6583272086
  0
LINE
  8
0
 62
7
  6
CONTINUOUS
 10
151.3659292523
 20
31.4326557675
 11
151.1924917523
 21
31.5294468267
  0
LINE
  8
0
 62
7
  6
CONTINUOUS
 10
154.0253041972
 20
30.7551182848
 11
154.1987416972
 21
30.6583272086
  0
LINE
  8
0
 62
7
  6
CONTINUOUS
 10
153.0424918074
 20
31.4326557675
 11
153.1581166972
 21
31.3681283946
  0
LINE
  8
0
 62
7
  6
CONTINUOUS
 10
153.3893668074
 20
31.4649194539
 11
153.2737419177
 21
31.5294468267
  0
LINE
  8
0
 62
7
  6
CONTINUOUS
 10
159.1128043074
 20
30.8519093441
 11
159.228429528
 21
30.7228545871
  0
LINE
  8
0
 62
7
  6
CONTINUOUS
 10
159.4596793074
 20
30.7873819712
 11
159.401867028
 21
30.8519093441
  0
LINE
  8
0
 62
7
  6
CONTINUOUS
 10
159.1128043074
 20
31.3681283946
 11
159.228429528
 21
31.2390736489
  0
LINE
  8
0
 62
7
  6
CONTINUOUS
 10
158.5924918074
 20
31.3681283946
 11
158.534679528
 21
31.4649194539
  0
LINE
  8
0
 62
7
  6
CONTINUOUS
 10
160.9628038663
 20
30.7873819712
 11
160.9628038663
 21
30.8519093441
  0
LINE
  8
0
 62
7
  6
CONTINUOUS
 10
160.9671844304
 20
32.3970785186
 11
160.9671844304
 21
36.1675703219
  0
LINE
  8
0
 62
7
  6
CONTINUOUS
 10
154.0253041972
 20
31.4971831403
 11
153.9674919177
 21
31.4326557675
  0
LINE
  8
0
 62
7
  6
CONTINUOUS
 10
150.9034292799
 20
31.4649194539
 11
151.0768668626
 21
31.400392081
  0
LINE
  8
0
 62
7
  6
CONTINUOUS
 10
155.6440543074
 20
31.4649194539
 11
155.5284290869
 21
31.5294468267
  0
LINE
  8
0
 62
7
  6
CONTINUOUS
 10
159.4596793074
 20
31.3036010218
 11
159.401867028
 21
31.3681283946
  0
LINE
  8
0
 62
7
  6
CONTINUOUS
 10
160.615929528
 20
30.9164367395
 11
160.6737418074
 21
30.8519093441
  0
LINE
  8
0
 62
7
  6
CONTINUOUS
 10
160.9628038663
 20
30.8519093441
 11
160.8471793074
 21
30.9809641124
  0
LINE
  8
0
 62
7
  6
CONTINUOUS
 10
160.615929528
 20
31.4326557675
 11
160.6737418074
 21
31.3681283946
  0
LINE
  8
0
 62
7
  6
CONTINUOUS
 10
160.9628038663
 20
31.3681283946
 11
160.8471793074
 21
31.4971831403
  0
LINE
  8
0
 62
7
  6
CONTINUOUS
 10
154.2565543074
 20
31.3681283946
 11
154.3143669177
 21
31.4326557675
  0
LINE
  8
0
 62
7
  6
CONTINUOUS
 10
154.0831168074
 20
31.1100188581
 11
153.9674919177
 21
30.9809641124
  0
LINE
  8
0
 62
7
  6
CONTINUOUS
 10
155.412804528
 20
30.9487004259
 11
155.3549915869
 21
30.8841730531
  0
LINE
  8
0
 62
7
  6
CONTINUOUS
 10
155.3549915869
 20
30.6905909007
 11
155.412804528
 21
30.7551182848
  0
LINE
  8
0
 62
7
  6
CONTINUOUS
 10
154.1987416972
 20
30.6583272086
 11
154.3143669177
 21
30.6260635193
  0
LINE
  8
0
 62
7
  6
CONTINUOUS
 10
151.1924917523
 20
31.5294468267
 11
150.9612418074
 21
31.5939741996
  0
LINE
  8
0
 62
7
  6
CONTINUOUS
 10
154.5456166972
 20
30.7228545871
 11
154.3143669177
 21
30.7873819712
  0
LINE
  8
0
 62
7
  6
CONTINUOUS
 10
153.2737419177
 20
31.5294468267
 11
153.1003044177
 21
31.5939741996
  0
LINE
  8
0
 62
7
  6
CONTINUOUS
 10
155.5284290869
 20
31.5294468267
 11
155.3549915869
 21
31.5939741996
  0
LINE
  8
0
 62
7
  6
CONTINUOUS
 10
158.187804528
 20
31.4326557675
 11
158.3034290869
 21
31.3681283946
  0
LINE
  8
0
 62
7
  6
CONTINUOUS
 10
158.534679528
 20
31.4649194539
 11
158.4190543074
 21
31.5294468267
  0
LINE
  8
0
 62
7
  6
CONTINUOUS
 10
150.0362418212
 20
30.6583272086
 11
150.2096793212
 21
30.6260635193
  0
LINE
  8
0
 62
7
  6
CONTINUOUS
 10
150.498741835
 20
30.7228545871
 11
150.1518667936
 21
30.7873819712
  0
LINE
  8
0
 62
7
  6
CONTINUOUS
 10
152.9268669177
 20
31.4649194539
 11
153.0424918074
 21
31.4326557675
  0
LINE
  8
0
 62
7
  6
CONTINUOUS
 10
155.239367028
 20
31.4649194539
 11
155.3549915869
 21
31.4326557675
  0
LINE
  8
0
 62
7
  6
CONTINUOUS
 10
159.575304528
 20
30.7551182848
 11
159.4596793074
 21
30.7873819712
  0
LINE
  8
0
 62
7
  6
CONTINUOUS
 10
158.0721793074
 20
31.4649194539
 11
158.187804528
 21
31.4326557675
  0
LINE
  8
0
 62
7
  6
CONTINUOUS
 10
159.228429528
 20
30.7228545871
 11
159.401867028
 21
30.6583272086
  0
LINE
  8
0
 62
7
  6
CONTINUOUS
 10
158.4190543074
 20
31.5294468267
 11
158.2456168074
 21
31.5939741996
  0
LINE
  8
0
 62
7
  6
CONTINUOUS
 10
159.6331168074
 20
31.2390736489
 11
159.4596793074
 21
31.3036010218
  0
LINE
  8
0
 62
7
  6
CONTINUOUS
 10
160.442492028
 20
30.9809641124
 11
160.615929528
 21
30.9164367395
  0
LINE
  8
0
 62
7
  6
CONTINUOUS
 10
160.8471793074
 20
31.4971831403
 11
160.6737418074
 21
31.5617105132
  0
LINE
  8
0
 62
7
  6
CONTINUOUS
 10
159.228429528
 20
31.2390736489
 11
159.4596793074
 21
31.1422825445
  0
LINE
  8
0
 62
7
  6
CONTINUOUS
 10
160.8471793074
 20
30.9809641124
 11
160.615929528
 21
31.0777551716
  0
LINE
  8
0
 62
7
  6
CONTINUOUS
 10
159.401867028
 20
31.3681283946
 11
159.4596793074
 21
31.4326557675
  0
LINE
  8
0
 62
7
  6
CONTINUOUS
 10
149.8628043005
 20
31.4971831403
 11
149.7471793074
 21
31.4326557675
  0
LINE
  8
0
 62
7
  6
CONTINUOUS
 10
149.9784292936
 20
31.3358647082
 11
150.1518667936
 21
31.4326557675
  0
LINE
  8
0
 62
7
  6
CONTINUOUS
 10
152.2909293626
 20
31.5294468267
 11
152.1753043074
 21
31.4649194539
  0
LINE
  8
0
 62
7
  6
CONTINUOUS
 10
152.1753043074
 20
31.3358647082
 11
152.2909293626
 21
31.400392081
  0
LINE
  8
0
 62
7
  6
CONTINUOUS
 10
151.1924917523
 20
30.6905909007
 11
151.3659292523
 21
30.7873819712
  0
LINE
  8
0
 62
7
  6
CONTINUOUS
 10
150.2096793212
 20
30.6260635193
 11
150.5565542799
 21
30.5937998301
  0
LINE
  8
0
 62
7
  6
CONTINUOUS
 10
154.3143669177
 20
30.6260635193
 11
154.5456166972
 21
30.5937998301
  0
LINE
  8
0
 62
7
  6
CONTINUOUS
 10
152.6956168074
 20
31.4971831403
 11
152.9268669177
 21
31.4649194539
  0
LINE
  8
0
 62
7
  6
CONTINUOUS
 10
155.0081169177
 20
31.4971831403
 11
155.239367028
 21
31.4649194539
  0
LINE
  8
0
 62
7
  6
CONTINUOUS
 10
159.4596793074
 20
31.1422825445
 11
160.442492028
 21
30.9809641124
  0
LINE
  8
0
 62
7
  6
CONTINUOUS
 10
160.615929528
 20
31.0777551716
 11
159.6331168074
 21
31.2390736489
  0
LINE
  8
0
 62
7
  6
CONTINUOUS
 10
153.1003044177
 20
31.5939741996
 11
152.9268669177
 21
31.626237886
  0
LINE
  8
0
 62
7
  6
CONTINUOUS
 10
159.401867028
 20
30.6583272086
 11
159.575304528
 21
30.6260635193
  0
LINE
  8
0
 62
7
  6
CONTINUOUS
 10
158.2456168074
 20
31.5939741996
 11
158.0721793074
 21
31.626237886
  0
LINE
  8
0
 62
7
  6
CONTINUOUS
 10
160.5003043074
 20
31.4649194539
 11
160.615929528
 21
31.4326557675
  0
LINE
  8
0
 62
7
  6
CONTINUOUS
 10
160.6737418074
 20
30.8519093441
 11
160.615929528
 21
30.7873819712
  0
LINE
  8
0
 62
7
  6
CONTINUOUS
 10
159.228429528
 20
31.5294468267
 11
159.1128043074
 21
31.4326557675
  0
LINE
  8
0
 62
7
  6
CONTINUOUS
 10
154.1409294177
 20
31.5617105132
 11
154.0253041972
 21
31.4971831403
  0
LINE
  8
0
 62
7
  6
CONTINUOUS
 10
154.1987416972
 20
31.1745462761
 11
154.0831168074
 21
31.1100188581
  0
LINE
  8
0
 62
7
  6
CONTINUOUS
 10
154.3143669177
 20
31.0132277988
 11
154.4299918074
 21
31.0777551716
  0
LINE
  8
0
 62
7
  6
CONTINUOUS
 10
151.8862417523
 20
30.5937998301
 11
152.1753043074
 21
30.5937998301
  0
LINE
  8
0
 62
7
  6
CONTINUOUS
 10
153.2159293074
 20
30.5937998301
 11
153.5049916972
 21
30.5937998301
  0
LINE
  8
0
 62
7
  6
CONTINUOUS
 10
154.5456166972
 20
30.5937998301
 11
154.8924916972
 21
30.5937998301
  0
LINE
  8
0
 62
7
  6
CONTINUOUS
 10
155.5284290869
 20
30.5937998301
 11
155.8174918074
 21
30.5937998301
  0
LINE
  8
0
 62
7
  6
CONTINUOUS
 10
156.279992028
 20
30.5937998301
 11
156.5690540869
 21
30.5937998301
  0
LINE
  8
0
 62
7
  6
CONTINUOUS
 10
157.0315543074
 20
30.5937998301
 11
157.320617028
 21
30.5937998301
  0
LINE
  8
0
 62
7
  6
CONTINUOUS
 10
158.361242028
 20
30.5937998301
 11
158.6503040869
 21
30.5937998301
  0
LINE
  8
0
 62
7
  6
CONTINUOUS
 10
159.922179528
 20
30.5937998301
 11
160.269054528
 21
30.5937998301
  0
LINE
  8
0
 62
7
  6
CONTINUOUS
 10
160.269054528
 20
30.7228545871
 11
159.922179528
 21
30.7228545871
  0
LINE
  8
0
 62
7
  6
CONTINUOUS
 10
154.8924916972
 20
30.7228545871
 11
154.5456166972
 21
30.7228545871
  0
LINE
  8
0
 62
7
  6
CONTINUOUS
 10
159.401867028
 20
30.8519093441
 11
159.1128043074
 21
30.8519093441
  0
LINE
  8
0
 62
7
  6
CONTINUOUS
 10
151.4237418626
 20
30.9164367395
 11
151.1346793074
 21
30.9164367395
  0
LINE
  8
0
 62
7
  6
CONTINUOUS
 10
150.498741835
 20
31.4971831403
 11
150.9034292799
 21
31.4649194539
  0
LINE
  8
0
 62
7
  6
CONTINUOUS
 10
150.9612418074
 20
31.5939741996
 11
150.5565542799
 21
31.626237886
  0
LINE
  8
0
 62
7
  6
CONTINUOUS
 10
159.575304528
 20
30.6260635193
 11
159.922179528
 21
30.5937998301
  0
LINE
  8
0
 62
7
  6
CONTINUOUS
 10
159.922179528
 20
30.7228545871
 11
159.575304528
 21
30.7551182848
  0
LINE
  8
0
 62
7
  6
CONTINUOUS
 10
155.3549915869
 20
31.5939741996
 11
155.0081169177
 21
31.626237886
  0
LINE
  8
0
 62
7
  6
CONTINUOUS
 10
160.1534293074
 20
31.4971831403
 11
160.5003043074
 21
31.4649194539
  0
LINE
  8
0
 62
7
  6
CONTINUOUS
 10
160.5003043074
 20
31.5939741996
 11
160.1534293074
 21
31.626237886
  0
LINE
  8
0
 62
7
  6
CONTINUOUS
 10
157.840929528
 20
31.4971831403
 11
158.0721793074
 21
31.4649194539
  0
LINE
  8
0
 62
7
  6
CONTINUOUS
 10
160.6737418074
 20
31.5617105132
 11
160.5003043074
 21
31.5939741996
  0
LINE
  8
0
 62
7
  6
CONTINUOUS
 10
160.8471793074
 20
30.6905909007
 11
160.9628038663
 21
30.7873819712
  0
LINE
  8
0
 62
7
  6
CONTINUOUS
 10
155.3549915869
 20
30.8841730531
 11
155.1815540869
 21
30.7873819712
  0
LINE
  8
0
 62
7
  6
CONTINUOUS
 10
157.4362415869
 20
31.5294468267
 11
157.320617028
 21
31.4649194539
  0
LINE
  8
0
 62
7
  6
CONTINUOUS
 10
157.320617028
 20
31.3358647082
 11
157.4362415869
 21
31.400392081
  0
LINE
  8
0
 62
7
  6
CONTINUOUS
 10
150.0362418212
 20
31.5617105132
 11
149.8628043005
 21
31.4971831403
  0
LINE
  8
0
 62
7
  6
CONTINUOUS
 10
152.4643666972
 20
31.5939741996
 11
152.2909293626
 21
31.5294468267
  0
LINE
  8
0
 62
7
  6
CONTINUOUS
 10
152.2909293626
 20
31.400392081
 11
152.4643666972
 21
31.4649194539
  0
LINE
  8
0
 62
7
  6
CONTINUOUS
 10
151.0768668626
 20
30.8196456577
 11
150.9034292799
 21
30.7551182848
  0
LINE
  8
0
 62
7
  6
CONTINUOUS
 10
160.5003043074
 20
30.7551182848
 11
160.269054528
 21
30.7228545871
  0
LINE
  8
0
 62
7
  6
CONTINUOUS
 10
154.8924916972
 20
30.5937998301
 11
155.1815540869
 21
30.6260635193
  0
LINE
  8
0
 62
7
  6
CONTINUOUS
 10
160.269054528
 20
30.5937998301
 11
160.615929528
 21
30.6260635193
  0
LINE
  8
0
 62
7
  6
CONTINUOUS
 10
150.5565542799
 20
30.5937998301
 11
150.9612418074
 21
30.6260635193
  0
LINE
  8
0
 62
7
  6
CONTINUOUS
 10
150.9034292799
 20
30.7551182848
 11
150.498741835
 21
30.7228545871
  0
LINE
  8
0
 62
7
  6
CONTINUOUS
 10
154.7768668074
 20
31.1422825445
 11
155.412804528
 21
31.1422825445
  0
LINE
  8
0
 62
7
  6
CONTINUOUS
 10
155.412804528
 20
31.2713373354
 11
154.7768668074
 21
31.2713373354
  0
LINE
  8
0
 62
7
  6
CONTINUOUS
 10
151.1346793074
 20
31.3036010218
 11
151.4237418626
 21
31.3036010218
  0
LINE
  8
0
 62
7
  6
CONTINUOUS
 10
153.9674919177
 20
31.3681283946
 11
154.2565543074
 21
31.3681283946
  0
LINE
  8
0
 62
7
  6
CONTINUOUS
 10
160.6737418074
 20
31.3681283946
 11
160.9628038663
 21
31.3681283946
  0
LINE
  8
0
 62
7
  6
CONTINUOUS
 10
154.6612419177
 20
31.4971831403
 11
155.0081169177
 21
31.4971831403
  0
LINE
  8
0
 62
7
  6
CONTINUOUS
 10
159.8065543074
 20
31.4971831403
 11
160.1534293074
 21
31.4971831403
  0
LINE
  8
0
 62
7
  6
CONTINUOUS
 10
160.1534293074
 20
31.626237886
 11
159.8065543074
 21
31.626237886
  0
LINE
  8
0
 62
7
  6
CONTINUOUS
 10
158.0721793074
 20
31.626237886
 11
157.840929528
 21
31.626237886
  0
LINE
  8
0
 62
7
  6
CONTINUOUS
 10
157.320617028
 20
31.626237886
 11
157.0315543074
 21
31.626237886
  0
LINE
  8
0
 62
7
  6
CONTINUOUS
 10
156.5690540869
 20
31.626237886
 11
156.279992028
 21
31.626237886
  0
LINE
  8
0
 62
7
  6
CONTINUOUS
 10
155.0081169177
 20
31.626237886
 11
154.6612419177
 21
31.626237886
  0
LINE
  8
0
 62
7
  6
CONTINUOUS
 10
152.9268669177
 20
31.626237886
 11
152.6956168074
 21
31.626237886
  0
LINE
  8
0
 62
7
  6
CONTINUOUS
 10
156.279992028
 20
31.9488748406
 11
156.5690540869
 21
31.9488748406
  0
LINE
  8
0
 62
7
  6
CONTINUOUS
 10
156.5690540869
 20
32.1101932727
 11
156.279992028
 21
32.1101932727
  0
LINE
  8
0
 62
7
  6
CONTINUOUS
 10
152.1753043074
 20
32.1101932727
 11
151.8862417523
 21
32.1101932727
  0
LINE
  8
0
 62
7
  6
CONTINUOUS
 10
151.2130860697
 20
32.3970785186
 11
151.6256574183
 21
32.3970785186
  0
LINE
  8
0
 62
7
  6
CONTINUOUS
 10
152.852430332
 20
32.3970785186
 11
154.245872955
 21
32.3970785186
  0
LINE
  8
0
 62
7
  6
CONTINUOUS
 10
154.5737418074
 20
32.3970785186
 11
155.9671844304
 21
32.3970785186
  0
LINE
  8
0
 62
7
  6
CONTINUOUS
 10
157.852430332
 20
32.3970785186
 11
159.245872955
 21
32.3970785186
  0
LINE
  8
0
 62
7
  6
CONTINUOUS
 10
159.5737418074
 20
32.3970785186
 11
160.9671844304
 21
32.3970785186
  0
LINE
  8
0
 62
7
  6
CONTINUOUS
 10
157.6096790869
 20
31.5939741996
 11
157.4362415869
 21
31.5294468267
  0
LINE
  8
0
 62
7
  6
CONTINUOUS
 10
155.1815540869
 20
30.6260635193
 11
155.3549915869
 21
30.6905909007
  0
LINE
  8
0
 62
7
  6
CONTINUOUS
 10
160.615929528
 20
30.6260635193
 11
160.8471793074
 21
30.6905909007
  0
LINE
  8
0
 62
7
  6
CONTINUOUS
 10
160.615929528
 20
30.7873819712
 11
160.5003043074
 21
30.7551182848
  0
LINE
  8
0
 62
7
  6
CONTINUOUS
 10
159.575304528
 20
31.4649194539
 11
159.8065543074
 21
31.4971831403
  0
LINE
  8
0
 62
7
  6
CONTINUOUS
 10
157.6096790869
 20
31.4649194539
 11
157.840929528
 21
31.4971831403
  0
LINE
  8
0
 62
7
  6
CONTINUOUS
 10
154.5456166972
 20
31.1100188581
 11
154.7768668074
 21
31.1422825445
  0
LINE
  8
0
 62
7
  6
CONTINUOUS
 10
157.840929528
 20
31.626237886
 11
157.6096790869
 21
31.5939741996
  0
LINE
  8
0
 62
7
  6
CONTINUOUS
 10
154.4299918074
 20
31.4649194539
 11
154.6612419177
 21
31.4971831403
  0
LINE
  8
0
 62
7
  6
CONTINUOUS
 10
159.8065543074
 20
31.626237886
 11
159.4596793074
 21
31.5939741996
  0
LINE
  8
0
 62
7
  6
CONTINUOUS
 10
154.7768668074
 20
31.2713373354
 11
154.4299918074
 21
31.2390736489
  0
LINE
  8
0
 62
7
  6
CONTINUOUS
 10
150.5565542799
 20
31.626237886
 11
150.2096793212
 21
31.5939741996
  0
LINE
  8
0
 62
7
  6
CONTINUOUS
 10
154.6612419177
 20
31.626237886
 11
154.2565543074
 21
31.5939741996
  0
LINE
  8
0
 62
7
  6
CONTINUOUS
 10
152.0327582009
 20
33.5446195022
 11
151.3770204959
 21
33.5446195022
  0
LINE
  8
0
 62
7
  6
CONTINUOUS
 10
157.4362415869
 20
31.400392081
 11
157.6096790869
 21
31.4649194539
  0
LINE
  8
0
 62
7
  6
CONTINUOUS
 10
159.4596793074
 20
31.4326557675
 11
159.575304528
 21
31.4649194539
  0
LINE
  8
0
 62
7
  6
CONTINUOUS
 10
159.4596793074
 20
31.5939741996
 11
159.228429528
 21
31.5294468267
  0
LINE
  8
0
 62
7
  6
CONTINUOUS
 10
155.1815540869
 20
30.7873819712
 11
154.8924916972
 21
30.7228545871
  0
LINE
  8
0
 62
7
  6
CONTINUOUS
 10
152.4643666972
 20
31.4649194539
 11
152.6956168074
 21
31.4971831403
  0
LINE
  8
0
 62
7
  6
CONTINUOUS
 10
152.6956168074
 20
31.626237886
 11
152.4643666972
 21
31.5939741996
  0
LINE
  8
0
 62
7
  6
CONTINUOUS
 10
150.2674918074
 20
31.4649194539
 11
150.498741835
 21
31.4971831403
  0
LINE
  8
0
 62
7
  6
CONTINUOUS
 10
156.7868565615
 20
35.0200293383
 11
157.4425942664
 21
35.0200293383
  0
LINE
  8
0
 62
7
  6
CONTINUOUS
 10
154.4299918074
 20
31.0777551716
 11
154.5456166972
 21
31.1100188581
  0
LINE
  8
0
 62
7
  6
CONTINUOUS
 10
154.4299918074
 20
31.2390736489
 11
154.1987416972
 21
31.1745462761
  0
LINE
  8
0
 62
7
  6
CONTINUOUS
 10
154.3143669177
 20
31.4326557675
 11
154.4299918074
 21
31.4649194539
  0
LINE
  8
0
 62
7
  6
CONTINUOUS
 10
150.9612418074
 20
30.6260635193
 11
151.1924917523
 21
30.6905909007
  0
LINE
  8
0
 62
7
  6
CONTINUOUS
 10
154.2565543074
 20
31.5939741996
 11
154.1409294177
 21
31.5617105132
  0
LINE
  8
0
 62
7
  6
CONTINUOUS
 10
150.2096793212
 20
31.5939741996
 11
150.0362418212
 21
31.5617105132
  0
LINE
  8
0
 62
7
  6
CONTINUOUS
 10
160.9671844304
 20
36.1675703219
 11
159.5737418074
 21
36.1675703219
  0
LINE
  8
0
 62
7
  6
CONTINUOUS
 10
157.6065286927
 20
36.1675703219
 11
157.1939573441
 21
36.1675703219
  0
LINE
  8
0
 62
7
  6
CONTINUOUS
 10
155.9671844304
 20
36.1675703219
 11
154.5737418074
 21
36.1675703219
  0
LINE
  8
0
 62
7
  6
CONTINUOUS
 10
154.245872955
 20
36.1675703219
 11
152.852430332
 21
36.1675703219
  0
LINE
  8
0
 62
7
  6
CONTINUOUS
 10
150.9671844304
 20
36.1675703219
 11
149.5737418074
 21
36.1675703219
  0
LINE
  8
0
 62
7
  6
CONTINUOUS
 10
150.1518667936
 20
31.4326557675
 11
150.2674918074
 21
31.4649194539
  0
CIRCLE
  8
0
 62
7
  6
CONTINUOUS
 10
160.2704631189
 20
38.5036358957
 40
2.0901639344
  0
ARC
  8
0
 62
7
  6
CONTINUOUS
 10
151.2130860697
 20
34.0364227809
 40
1.6393442623
 50
180.0
 51
270.0
  0
ARC
  8
0
 62
7
  6
CONTINUOUS
 10
157.6065286927
 20
34.5282260596
 40
1.6393442623
 50
0.0
 51
90.0
  0
ARC
  8
0
 62
7
  6
CONTINUOUS
 10
151.6256574183
 20
33.8724883547
 40
1.4754098361
 50
270.0
 51
326.2510114041
  0
ARC
  8
0
 62
7
  6
CONTINUOUS
 10
157.1939573441
 20
34.6921604858
 40
1.4754098361
 50
90.0
 51
146.2510114041
  0
ARC
  8
0
 62
7
  6
CONTINUOUS
 10
152.0327582009
 20
34.3642916334
 40
0.8196721311
 50
270.0
 51
360.0
  0
ARC
  8
0
 62
7
  6
CONTINUOUS
 10
156.7868565615
 20
34.2003572071
 40
0.8196721311
 50
90.0
 51
180.0
  0
ARC
  8
0
 62
7
  6
CONTINUOUS
 10
151.3770204959
 20
33.9544555678
 40
0.4098360656
 50
180.0
 51
270.0
  0
ARC
  8
0
 62
7
  6
CONTINUOUS
 10
157.4425942664
 20
34.6101932727
 40
0.4098360656
 50
0.0
 51
90.0
  0
SOLID
  8
0
 62
7
  6
CONTINUOUS
 10
156.279992028
 20
31.9488752009
 11
156.279992028
 21
32.1101936845
 12
156.5690540869
 22
31.9488752009
 13
156.5690540869
 23
32.1101936845
  0
SOLID
  8
0
 62
7
  6
CONTINUOUS
 10
150.5565542799
 20
31.6262382337
 11
150.9612418074
 21
31.5939740028
 12
150.2096793212
 22
31.5939740028
 13
150.2096793212
 23
31.5939740028
  0
SOLID
  8
0
 62
7
  6
CONTINUOUS
 10
150.0362418212
 20
31.5617111435
 11
150.2096793212
 21
31.5939740028
 12
150.9612418074
 22
31.5939740028
 13
150.9612418074
 23
31.5939740028
  0
SOLID
  8
0
 62
7
  6
CONTINUOUS
 10
150.9612418074
 20
31.5939740028
 11
151.1924917523
 21
31.5294468402
 12
150.0362418212
 22
31.5617111435
 13
150.0362418212
 23
31.5617111435
  0
SOLID
  8
0
 62
7
  6
CONTINUOUS
 10
149.8628043005
 20
31.49718259
 11
150.0362418212
 21
31.5617111435
 12
151.1924917523
 22
31.5294468402
 13
151.1924917523
 23
31.5294468402
  0
SOLID
  8
0
 62
7
  6
CONTINUOUS
 10
149.8628043005
 20
31.49718259
 11
151.1924917523
 21
31.5294468402
 12
150.498741835
 22
31.49718259
 13
150.498741835
 23
31.49718259
  0
SOLID
  8
0
 62
7
  6
CONTINUOUS
 10
150.498741835
 20
31.49718259
 11
151.1924917523
 21
31.5294468402
 12
150.9034292799
 22
31.4649197501
 13
150.9034292799
 23
31.4649197501
  0
SOLID
  8
0
 62
7
  6
CONTINUOUS
 10
151.1924917523
 20
31.5294468402
 11
151.3659292523
 21
31.4326554468
 12
150.9034292799
 22
31.4649197501
 13
150.9034292799
 23
31.4649197501
  0
SOLID
  8
0
 62
7
  6
CONTINUOUS
 10
151.0768668626
 20
31.4003926599
 11
150.9034292799
 21
31.4649197501
 12
151.3659292523
 22
31.4326554468
 13
151.3659292523
 23
31.4326554468
  0
SOLID
  8
0
 62
7
  6
CONTINUOUS
 10
151.0768668626
 20
31.4003926599
 11
151.3659292523
 21
31.4326554468
 12
151.1346793074
 22
31.3036013776
 13
151.1346793074
 23
31.3036013776
  0
SOLID
  8
0
 62
7
  6
CONTINUOUS
 10
151.3659292523
 20
31.4326554468
 11
151.4237418626
 21
31.3036013776
 12
151.1346793074
 22
31.3036013776
 13
151.1346793074
 23
31.3036013776
  0
SOLID
  8
0
 62
7
  6
CONTINUOUS
 10
152.4643666972
 20
31.5939739754
 11
152.6956168074
 21
31.6262382787
 12
152.9268669177
 22
31.6262382787
 13
152.9268669177
 23
31.6262382787
  0
SOLID
  8
0
 62
7
  6
CONTINUOUS
 10
152.9268669177
 20
31.6262382787
 11
153.1003044177
 21
31.5939739754
 12
152.4643666972
 22
31.5939739754
 13
152.4643666972
 23
31.5939739754
  0
SOLID
  8
0
 62
7
  6
CONTINUOUS
 10
152.2909293626
 20
31.5294468852
 11
152.4643666972
 21
31.5939739754
 12
153.1003044177
 22
31.5939739754
 13
153.1003044177
 23
31.5939739754
  0
SOLID
  8
0
 62
7
  6
CONTINUOUS
 10
153.1003044177
 20
31.5939739754
 11
153.2737419177
 21
31.5294468852
 12
152.2909293626
 22
31.5294468852
 13
152.2909293626
 23
31.5294468852
  0
SOLID
  8
0
 62
7
  6
CONTINUOUS
 10
153.2737419177
 20
31.5294468852
 11
152.6956168074
 21
31.4971825369
 12
152.2909293626
 22
31.5294468852
 13
152.2909293626
 23
31.5294468852
  0
SOLID
  8
0
 62
7
  6
CONTINUOUS
 10
152.1753043074
 20
31.4649197951
 11
152.2909293626
 21
31.5294468852
 12
152.6956168074
 22
31.4971825369
 13
152.6956168074
 23
31.4971825369
  0
SOLID
  8
0
 62
7
  6
CONTINUOUS
 10
152.6956168074
 20
31.4971825369
 11
152.4643666972
 21
31.4649197951
 12
152.1753043074
 22
31.4649197951
 13
152.1753043074
 23
31.4649197951
  0
SOLID
  8
0
 62
7
  6
CONTINUOUS
 10
152.6956168074
 20
31.4971825369
 11
153.2737419177
 21
31.5294468852
 12
152.9268669177
 22
31.4649197951
 13
152.9268669177
 23
31.4649197951
  0
SOLID
  8
0
 62
7
  6
CONTINUOUS
 10
153.2737419177
 20
31.5294468852
 11
153.3893668074
 21
31.4649197951
 12
152.9268669177
 22
31.4649197951
 13
152.9268669177
 23
31.4649197951
  0
SOLID
  8
0
 62
7
  6
CONTINUOUS
 10
153.0424918074
 20
31.4326554468
 11
152.9268669177
 21
31.4649197951
 12
153.3893668074
 22
31.4649197951
 13
153.3893668074
 23
31.4649197951
  0
SOLID
  8
0
 62
7
  6
CONTINUOUS
 10
153.3893668074
 20
31.4649197951
 11
153.4471794177
 21
31.4003927049
 12
153.0424918074
 22
31.4326554468
 13
153.0424918074
 23
31.4326554468
  0
SOLID
  8
0
 62
7
  6
CONTINUOUS
 10
153.1581166972
 20
31.3681283566
 11
153.0424918074
 21
31.4326554468
 12
153.4471794177
 22
31.4003927049
 13
153.4471794177
 23
31.4003927049
  0
SOLID
  8
0
 62
7
  6
CONTINUOUS
 10
153.1581166972
 20
31.3681283566
 11
153.4471794177
 21
31.4003927049
 12
153.2159293074
 22
31.2390742213
 13
153.2159293074
 23
31.2390742213
  0
SOLID
  8
0
 62
7
  6
CONTINUOUS
 10
153.4471794177
 20
31.4003927049
 11
153.5049916972
 21
31.2390742213
 12
153.2159293074
 22
31.2390742213
 13
153.2159293074
 23
31.2390742213
  0
SOLID
  8
0
 62
7
  6
CONTINUOUS
 10
152.4643666972
 20
31.4649197951
 11
152.2909293626
 21
31.4003927049
 12
152.1753043074
 22
31.4649197951
 13
152.1753043074
 23
31.4649197951
  0
SOLID
  8
0
 62
7
  6
CONTINUOUS
 10
152.2909293626
 20
31.4003927049
 11
152.1753043074
 21
31.3358640533
 12
152.1753043074
 22
31.4649197951
 13
152.1753043074
 23
31.4649197951
  0
SOLID
  8
0
 62
7
  6
CONTINUOUS
 10
152.1753043074
 20
31.3358640533
 11
151.8862417523
 21
30.5938002869
 12
152.1753043074
 22
31.4649197951
 13
152.1753043074
 23
31.4649197951
  0
SOLID
  8
0
 62
7
  6
CONTINUOUS
 10
152.1753043074
 20
31.4649197951
 11
151.8862417523
 21
30.5938002869
 12
152.1753043074
 22
32.1101937295
 13
152.1753043074
 23
32.1101937295
  0
SOLID
  8
0
 62
7
  6
CONTINUOUS
 10
151.8862417523
 20
30.5938002869
 11
151.8862417523
 21
32.1101937295
 12
152.1753043074
 22
32.1101937295
 13
152.1753043074
 23
32.1101937295
  0
SOLID
  8
0
 62
7
  6
CONTINUOUS
 10
152.1753043074
 20
31.3358640533
 11
152.1753043074
 21
30.5938002869
 12
151.8862417523
 22
30.5938002869
 13
151.8862417523
 23
30.5938002869
  0
SOLID
  8
0
 62
7
  6
CONTINUOUS
 10
153.2159293074
 20
30.5938002869
 11
153.2159293074
 21
31.2390742213
 12
153.5049916972
 22
31.2390742213
 13
153.5049916972
 23
31.2390742213
  0
SOLID
  8
0
 62
7
  6
CONTINUOUS
 10
153.5049916972
 20
31.2390742213
 11
153.5049916972
 21
30.5938002869
 12
153.2159293074
 22
30.5938002869
 13
153.2159293074
 23
30.5938002869
  0
SOLID
  8
0
 62
7
  6
CONTINUOUS
 10
154.2565543074
 20
31.5939738288
 11
154.6612419177
 21
31.6262385959
 12
155.0081169177
 22
31.6262385959
 13
155.0081169177
 23
31.6262385959
  0
SOLID
  8
0
 62
7
  6
CONTINUOUS
 10
155.0081169177
 20
31.6262385959
 11
155.3549915869
 21
31.5939738288
 12
154.2565543074
 22
31.5939738288
 13
154.2565543074
 23
31.5939738288
  0
SOLID
  8
0
 62
7
  6
CONTINUOUS
 10
154.1409294177
 20
31.5617111435
 11
154.2565543074
 21
31.5939738288
 12
155.3549915869
 22
31.5939738288
 13
155.3549915869
 23
31.5939738288
  0
SOLID
  8
0
 62
7
  6
CONTINUOUS
 10
155.3549915869
 20
31.5939738288
 11
155.5284290869
 21
31.5294468402
 12
154.1409294177
 22
31.5617111435
 13
154.1409294177
 23
31.5617111435
  0
SOLID
  8
0
 62
7
  6
CONTINUOUS
 10
154.0253041972
 20
31.4971826249
 11
154.1409294177
 21
31.5617111435
 12
155.5284290869
 22
31.5294468402
 13
155.5284290869
 23
31.5294468402
  0
SOLID
  8
0
 62
7
  6
CONTINUOUS
 10
154.0253041972
 20
31.4971826249
 11
155.5284290869
 21
31.5294468402
 12
154.6612419177
 22
31.4971826249
 13
154.6612419177
 23
31.4971826249
  0
SOLID
  8
0
 62
7
  6
CONTINUOUS
 10
154.6612419177
 20
31.4971826249
 11
155.5284290869
 21
31.5294468402
 12
155.0081169177
 22
31.4971826249
 13
155.0081169177
 23
31.4971826249
  0
SOLID
  8
0
 62
7
  6
CONTINUOUS
 10
155.0081169177
 20
31.4971826249
 11
155.5284290869
 21
31.5294468402
 12
155.239367028
 22
31.4649194065
 13
155.239367028
 23
31.4649194065
  0
SOLID
  8
0
 62
7
  6
CONTINUOUS
 10
155.5284290869
 20
31.5294468402
 11
155.6440543074
 21
31.4649194065
 12
155.239367028
 22
31.4649194065
 13
155.239367028
 23
31.4649194065
  0
SOLID
  8
0
 62
7
  6
CONTINUOUS
 10
153.9674919177
 20
31.4326554138
 11
154.0253041972
 21
31.4971826249
 12
154.6612419177
 22
31.4971826249
 13
154.6612419177
 23
31.4971826249
  0
SOLID
  8
0
 62
7
  6
CONTINUOUS
 10
155.3549915869
 20
31.4326554138
 11
155.239367028
 21
31.4649194065
 12
155.6440543074
 22
31.4649194065
 13
155.6440543074
 23
31.4649194065
  0
SOLID
  8
0
 62
7
  6
CONTINUOUS
 10
155.3549915869
 20
31.4326554138
 11
155.6440543074
 21
31.4649194065
 12
155.412804528
 22
31.3681282026
 13
155.412804528
 23
31.3681282026
  0
SOLID
  8
0
 62
7
  6
CONTINUOUS
 10
155.6440543074
 20
31.4649194065
 11
155.7018665869
 21
31.3681282026
 12
155.412804528
 22
31.3681282026
 13
155.412804528
 23
31.3681282026
  0
SOLID
  8
0
 62
7
  6
CONTINUOUS
 10
155.412804528
 20
31.2713369632
 11
155.412804528
 21
31.3681282026
 12
155.7018665869
 22
31.3681282026
 13
155.7018665869
 23
31.3681282026
  0
SOLID
  8
0
 62
7
  6
CONTINUOUS
 10
155.412804528
 20
31.2713369632
 11
155.7018665869
 21
31.3681282026
 12
155.412804528
 22
31.1422827828
 13
155.412804528
 23
31.1422827828
  0
SOLID
  8
0
 62
7
  6
CONTINUOUS
 10
155.412804528
 20
31.1422827828
 11
155.7018665869
 21
31.3681282026
 12
155.412804528
 22
30.9487004259
 13
155.412804528
 23
30.9487004259
  0
SOLID
  8
0
 62
7
  6
CONTINUOUS
 10
155.7018665869
 20
31.3681282026
 11
155.7018665869
 21
30.8519086025
 12
155.412804528
 22
30.9487004259
 13
155.412804528
 23
30.9487004259
  0
SOLID
  8
0
 62
7
  6
CONTINUOUS
 10
157.6096790869
 20
31.5939736268
 11
157.840929528
 21
31.6262383465
 12
158.0721793074
 22
31.6262383465
 13
158.0721793074
 23
31.6262383465
  0
SOLID
  8
0
 62
7
  6
CONTINUOUS
 10
158.0721793074
 20
31.6262383465
 11
158.2456168074
 21
31.5939736268
 12
157.6096790869
 22
31.5939736268
 13
157.6096790869
 23
31.5939736268
  0
SOLID
  8
0
 62
7
  6
CONTINUOUS
 10
157.4362415869
 20
31.5294472848
 11
157.6096790869
 21
31.5939736268
 12
158.2456168074
 22
31.5939736268
 13
158.2456168074
 23
31.5939736268
  0
SOLID
  8
0
 62
7
  6
CONTINUOUS
 10
158.2456168074
 20
31.5939736268
 11
158.4190543074
 21
31.5294472848
 12
157.4362415869
 22
31.5294472848
 13
157.4362415869
 23
31.5294472848
  0
SOLID
  8
0
 62
7
  6
CONTINUOUS
 10
158.4190543074
 20
31.5294472848
 11
157.840929528
 21
31.4971825369
 12
157.4362415869
 22
31.5294472848
 13
157.4362415869
 23
31.5294472848
  0
SOLID
  8
0
 62
7
  6
CONTINUOUS
 10
157.320617028
 20
31.4649199103
 11
157.4362415869
 21
31.5294472848
 12
157.840929528
 22
31.4971825369
 13
157.840929528
 23
31.4971825369
  0
SOLID
  8
0
 62
7
  6
CONTINUOUS
 10
157.840929528
 20
31.4971825369
 11
157.6096790869
 21
31.4649199103
 12
157.320617028
 22
31.4649199103
 13
157.320617028
 23
31.4649199103
  0
SOLID
  8
0
 62
7
  6
CONTINUOUS
 10
157.840929528
 20
31.4971825369
 11
158.4190543074
 21
31.5294472848
 12
158.0721793074
 22
31.4649199103
 13
158.0721793074
 23
31.4649199103
  0
SOLID
  8
0
 62
7
  6
CONTINUOUS
 10
158.4190543074
 20
31.5294472848
 11
158.534679528
 21
31.4649199103
 12
158.0721793074
 22
31.4649199103
 13
158.0721793074
 23
31.4649199103
  0
SOLID
  8
0
 62
7
  6
CONTINUOUS
 10
158.187804528
 20
31.4326554468
 11
158.0721793074
 21
31.4649199103
 12
158.534679528
 22
31.4649199103
 13
158.534679528
 23
31.4649199103
  0
SOLID
  8
0
 62
7
  6
CONTINUOUS
 10
158.187804528
 20
31.4326554468
 11
158.534679528
 21
31.4649199103
 12
158.3034290869
 22
31.3681288486
 13
158.3034290869
 23
31.3681288486
  0
SOLID
  8
0
 62
7
  6
CONTINUOUS
 10
158.534679528
 20
31.4649199103
 11
158.5924918074
 21
31.3681288486
 12
158.3034290869
 22
31.3681288486
 13
158.3034290869
 23
31.3681288486
  0
SOLID
  8
0
 62
7
  6
CONTINUOUS
 10
158.361242028
 20
31.2068093799
 11
158.3034290869
 21
31.3681288486
 12
158.5924918074
 22
31.3681288486
 13
158.5924918074
 23
31.3681288486
  0
SOLID
  8
0
 62
7
  6
CONTINUOUS
 10
158.5924918074
 20
31.3681288486
 11
158.6503040869
 21
31.2068093799
 12
158.361242028
 22
31.2068093799
 13
158.361242028
 23
31.2068093799
  0
SOLID
  8
0
 62
7
  6
CONTINUOUS
 10
157.6096790869
 20
31.4649199103
 11
157.4362415869
 21
31.4003926599
 12
157.320617028
 22
31.4649199103
 13
157.320617028
 23
31.4649199103
  0
SOLID
  8
0
 62
7
  6
CONTINUOUS
 10
157.4362415869
 20
31.4003926599
 11
157.320617028
 21
31.3358640533
 12
157.320617028
 22
31.4649199103
 13
157.320617028
 23
31.4649199103
  0
SOLID
  8
0
 62
7
  6
CONTINUOUS
 10
157.320617028
 20
31.3358640533
 11
157.0315543074
 21
30.5938003547
 12
157.320617028
 22
31.4649199103
 13
157.320617028
 23
31.4649199103
  0
SOLID
  8
0
 62
7
  6
CONTINUOUS
 10
157.320617028
 20
31.4649199103
 11
157.0315543074
 21
30.5938003547
 12
157.320617028
 22
31.6262383465
 13
157.320617028
 23
31.6262383465
  0
SOLID
  8
0
 62
7
  6
CONTINUOUS
 10
157.0315543074
 20
30.5938003547
 11
157.0315543074
 21
31.6262383465
 12
157.320617028
 22
31.6262383465
 13
157.320617028
 23
31.6262383465
  0
SOLID
  8
0
 62
7
  6
CONTINUOUS
 10
157.320617028
 20
31.3358640533
 11
157.320617028
 21
30.5938003547
 12
157.0315543074
 22
30.5938003547
 13
157.0315543074
 23
30.5938003547
  0
SOLID
  8
0
 62
7
  6
CONTINUOUS
 10
158.361242028
 20
30.5938003547
 11
158.361242028
 21
31.2068093799
 12
158.6503040869
 22
31.2068093799
 13
158.6503040869
 23
31.2068093799
  0
SOLID
  8
0
 62
7
  6
CONTINUOUS
 10
158.6503040869
 20
31.2068093799
 11
158.6503040869
 21
30.5938003547
 12
158.361242028
 22
30.5938003547
 13
158.361242028
 23
30.5938003547
  0
SOLID
  8
0
 62
7
  6
CONTINUOUS
 10
159.4596793074
 20
31.5939739474
 11
159.8065543074
 21
31.6262381969
 12
160.1534293074
 22
31.6262381969
 13
160.1534293074
 23
31.6262381969
  0
SOLID
  8
0
 62
7
  6
CONTINUOUS
 10
160.1534293074
 20
31.6262381969
 11
160.5003043074
 21
31.5939739474
 12
159.4596793074
 22
31.5939739474
 13
159.4596793074
 23
31.5939739474
  0
SOLID
  8
0
 62
7
  6
CONTINUOUS
 10
159.228429528
 20
31.5294468402
 11
159.4596793074
 21
31.5939739474
 12
160.5003043074
 22
31.5939739474
 13
160.5003043074
 23
31.5939739474
  0
SOLID
  8
0
 62
7
  6
CONTINUOUS
 10
159.228429528
 20
31.5294468402
 11
160.5003043074
 21
31.5939739304
 12
160.6737418074
 22
31.5617111435
 13
160.6737418074
 23
31.5617111435
  0
SOLID
  8
0
 62
7
  6
CONTINUOUS
 10
159.228429528
 20
31.5294468402
 11
160.6737418074
 21
31.5617111435
 12
159.8065543074
 22
31.4971825592
 13
159.8065543074
 23
31.4971825592
  0
SOLID
  8
0
 62
7
  6
CONTINUOUS
 10
159.8065543074
 20
31.4971825592
 11
160.6737418074
 21
31.5617111435
 12
160.1534293074
 22
31.4971825592
 13
160.1534293074
 23
31.4971825592
  0
SOLID
  8
0
 62
7
  6
CONTINUOUS
 10
160.6737418074
 20
31.5617111435
 11
160.8471793074
 21
31.4971825592
 12
160.1534293074
 22
31.4971825592
 13
160.1534293074
 23
31.4971825592
  0
SOLID
  8
0
 62
7
  6
CONTINUOUS
 10
160.5003043074
 20
31.4649197501
 11
160.1534293074
 21
31.4971825592
 12
160.8471793074
 22
31.4971825592
 13
160.8471793074
 23
31.4971825592
  0
SOLID
  8
0
 62
7
  6
CONTINUOUS
 10
159.1128043074
 20
31.4326555427
 11
159.228429528
 21
31.5294468402
 12
159.8065543074
 22
31.4971825592
 13
159.8065543074
 23
31.4971825592
  0
SOLID
  8
0
 62
7
  6
CONTINUOUS
 10
160.5003043074
 20
31.4649197501
 11
160.8471793074
 21
31.4971825592
 12
160.615929528
 22
31.4326555427
 13
160.615929528
 23
31.4326555427
  0
SOLID
  8
0
 62
7
  6
CONTINUOUS
 10
160.615929528
 20
31.4326555427
 11
160.8471793074
 21
31.4971825592
 12
160.6737418074
 22
31.3681283005
 13
160.6737418074
 23
31.3681283005
  0
SOLID
  8
0
 62
7
  6
CONTINUOUS
 10
160.8471793074
 20
31.4971825592
 11
160.9628038663
 21
31.3681283005
 12
160.6737418074
 22
31.3681283005
 13
160.6737418074
 23
31.3681283005
  0
SOLID
  8
0
 62
7
  6
CONTINUOUS
 10
150.2674918074
 20
31.4649197501
 11
149.7471793074
 21
31.4326554237
 12
150.498741835
 22
31.4971824493
 13
150.498741835
 23
31.4971824493
  0
SOLID
  8
0
 62
7
  6
CONTINUOUS
 10
149.7471793074
 20
31.4326554237
 11
149.8628043005
 21
31.4971824493
 12
150.498741835
 22
31.4971824493
 13
150.498741835
 23
31.4971824493
  0
SOLID
  8
0
 62
7
  6
CONTINUOUS
 10
150.2674918074
 20
31.4649197501
 11
150.1518667936
 21
31.4326554237
 12
149.7471793074
 22
31.4326554237
 13
149.7471793074
 23
31.4326554237
  0
SOLID
  8
0
 62
7
  6
CONTINUOUS
 10
149.6315543091
 20
31.3036012664
 11
149.7471793074
 21
31.4326554237
 12
150.1518667936
 22
31.4326554237
 13
150.1518667936
 23
31.4326554237
  0
SOLID
  8
0
 62
7
  6
CONTINUOUS
 10
153.9674919177
 20
31.4326554237
 11
154.6612419177
 21
31.4971825369
 12
154.4299918074
 22
31.4649197501
 13
154.4299918074
 23
31.4649197501
  0
SOLID
  8
0
 62
7
  6
CONTINUOUS
 10
154.4299918074
 20
31.4649197501
 11
154.3143669177
 21
31.4326554237
 12
153.9674919177
 22
31.4326554237
 13
153.9674919177
 23
31.4326554237
  0
SOLID
  8
0
 62
7
  6
CONTINUOUS
 10
153.9674919177
 20
31.3681283335
 11
153.9674919177
 21
31.4326554237
 12
154.3143669177
 22
31.4326554237
 13
154.3143669177
 23
31.4326554237
  0
SOLID
  8
0
 62
7
  6
CONTINUOUS
 10
154.3143669177
 20
31.4326554237
 11
154.2565543074
 21
31.3681283335
 12
153.9674919177
 22
31.3681283335
 13
153.9674919177
 23
31.3681283335
  0
SOLID
  8
0
 62
7
  6
CONTINUOUS
 10
159.1128043074
 20
31.4326555528
 11
159.8065543074
 21
31.4971825369
 12
159.575304528
 22
31.4649197501
 13
159.575304528
 23
31.4649197501
  0
SOLID
  8
0
 62
7
  6
CONTINUOUS
 10
159.575304528
 20
31.4649197501
 11
159.4596793074
 21
31.4326555528
 12
159.1128043074
 22
31.4326555528
 13
159.1128043074
 23
31.4326555528
  0
SOLID
  8
0
 62
7
  6
CONTINUOUS
 10
159.1128043074
 20
31.3681284626
 11
159.1128043074
 21
31.4326555528
 12
159.4596793074
 22
31.4326555528
 13
159.4596793074
 23
31.4326555528
  0
SOLID
  8
0
 62
7
  6
CONTINUOUS
 10
159.4596793074
 20
31.4326555528
 11
159.401867028
 21
31.3681284626
 12
159.1128043074
 22
31.3681284626
 13
159.1128043074
 23
31.3681284626
  0
SOLID
  8
0
 62
7
  6
CONTINUOUS
 10
159.228429528
 20
31.2390741763
 11
159.1128043074
 21
31.3681284626
 12
159.401867028
 22
31.3681284626
 13
159.401867028
 23
31.3681284626
  0
SOLID
  8
0
 62
7
  6
CONTINUOUS
 10
149.6315543091
 20
31.3036012664
 11
150.1518667936
 21
31.4326554468
 12
149.9784292936
 22
31.3358640533
 13
149.9784292936
 23
31.3358640533
  0
SOLID
  8
0
 62
7
  6
CONTINUOUS
 10
149.9784292936
 20
31.3358640533
 11
149.9206168074
 21
31.2713369632
 12
149.6315543091
 22
31.3036012664
 13
149.6315543091
 23
31.3036012664
  0
SOLID
  8
0
 62
7
  6
CONTINUOUS
 10
149.5737418074
 20
31.1100184796
 11
149.6315543091
 21
31.3036012664
 12
149.9206168074
 22
31.2713369632
 13
149.9206168074
 23
31.2713369632
  0
SOLID
  8
0
 62
7
  6
CONTINUOUS
 10
154.4299918074
 20
31.2390741763
 11
154.7768668074
 21
31.271336924
 12
155.412804528
 22
31.271336924
 13
155.412804528
 23
31.271336924
  0
SOLID
  8
0
 62
7
  6
CONTINUOUS
 10
154.4299918074
 20
31.2390741763
 11
155.412804528
 21
31.271336924
 12
154.1987416972
 22
31.1745462761
 13
154.1987416972
 23
31.1745462761
  0
SOLID
  8
0
 62
7
  6
CONTINUOUS
 10
154.1987416972
 20
31.1745462761
 11
155.412804528
 21
31.271336924
 12
154.7768668074
 22
31.1422827436
 13
154.7768668074
 23
31.1422827436
  0
SOLID
  8
0
 62
7
  6
CONTINUOUS
 10
155.412804528
 20
31.271336924
 11
155.412804528
 21
31.1422827436
 12
154.7768668074
 22
31.1422827436
 13
154.7768668074
 23
31.1422827436
  0
SOLID
  8
0
 62
7
  6
CONTINUOUS
 10
159.228429528
 20
31.2390745501
 11
159.401867028
 21
31.3681283566
 12
159.4596793074
 22
31.3036012664
 13
159.4596793074
 23
31.3036012664
  0
SOLID
  8
0
 62
7
  6
CONTINUOUS
 10
159.4596793074
 20
31.3036012664
 11
159.6331168074
 21
31.2390745501
 12
159.228429528
 22
31.2390745501
 13
159.228429528
 23
31.2390745501
  0
SOLID
  8
0
 62
7
  6
CONTINUOUS
 10
159.4596793074
 20
31.1422827828
 11
159.228429528
 21
31.2390745501
 12
159.6331168074
 22
31.2390745501
 13
159.6331168074
 23
31.2390745501
  0
SOLID
  8
0
 62
7
  6
CONTINUOUS
 10
159.6331168074
 20
31.2390745501
 11
160.615929528
 21
31.0777556927
 12
159.4596793074
 22
31.1422827828
 13
159.4596793074
 23
31.1422827828
  0
SOLID
  8
0
 62
7
  6
CONTINUOUS
 10
160.442492028
 20
30.9809646623
 11
159.4596793074
 21
31.1422827828
 12
160.615929528
 22
31.0777556927
 13
160.615929528
 23
31.0777556927
  0
SOLID
  8
0
 62
7
  6
CONTINUOUS
 10
160.615929528
 20
31.0777556927
 11
160.8471793074
 21
30.9809646623
 12
160.442492028
 22
30.9809646623
 13
160.442492028
 23
30.9809646623
  0
SOLID
  8
0
 62
7
  6
CONTINUOUS
 10
160.615929528
 20
30.9164372091
 11
160.442492028
 21
30.9809646623
 12
160.8471793074
 22
30.9809646623
 13
160.8471793074
 23
30.9809646623
  0
SOLID
  8
0
 62
7
  6
CONTINUOUS
 10
160.615929528
 20
30.9164372091
 11
160.8471793074
 21
30.9809646623
 12
160.6737418074
 22
30.8519089441
 13
160.6737418074
 23
30.8519089441
  0
SOLID
  8
0
 62
7
  6
CONTINUOUS
 10
160.8471793074
 20
30.9809646623
 11
160.9628038663
 21
30.8519089441
 12
160.6737418074
 22
30.8519089441
 13
160.6737418074
 23
30.8519089441
  0
SOLID
  8
0
 62
7
  6
CONTINUOUS
 10
160.615929528
 20
30.7873818593
 11
160.6737418074
 21
30.8519089441
 12
160.9628038663
 22
30.8519089441
 13
160.9628038663
 23
30.8519089441
  0
SOLID
  8
0
 62
7
  6
CONTINUOUS
 10
160.9628038663
 20
30.8519089441
 11
160.9628038663
 21
30.7873818593
 12
160.615929528
 22
30.7873818593
 13
160.615929528
 23
30.7873818593
  0
SOLID
  8
0
 62
7
  6
CONTINUOUS
 10
160.5003043074
 20
30.7551187255
 11
160.615929528
 21
30.7873818593
 12
160.9628038663
 22
30.7873818593
 13
160.9628038663
 23
30.7873818593
  0
SOLID
  8
0
 62
7
  6
CONTINUOUS
 10
160.5003043074
 20
30.7551187255
 11
160.9628038663
 21
30.7873818593
 12
160.269054528
 22
30.7228547745
 13
160.269054528
 23
30.7228547745
  0
SOLID
  8
0
 62
7
  6
CONTINUOUS
 10
160.9628038663
 20
30.7873818593
 11
160.8471793074
 21
30.6905916353
 12
160.269054528
 22
30.7228547745
 13
160.269054528
 23
30.7228547745
  0
SOLID
  8
0
 62
7
  6
CONTINUOUS
 10
160.8471793074
 20
30.6905916353
 11
159.401867028
 21
30.658327332
 12
160.269054528
 22
30.7228547745
 13
160.269054528
 23
30.7228547745
  0
SOLID
  8
0
 62
7
  6
CONTINUOUS
 10
160.269054528
 20
30.7228547745
 11
159.401867028
 21
30.658327332
 12
159.922179528
 22
30.7228547745
 13
159.922179528
 23
30.7228547745
  0
SOLID
  8
0
 62
7
  6
CONTINUOUS
 10
159.401867028
 20
30.658327332
 11
159.228429528
 21
30.7228547745
 12
159.922179528
 22
30.7228547745
 13
159.922179528
 23
30.7228547745
  0
SOLID
  8
0
 62
7
  6
CONTINUOUS
 10
159.401867028
 20
30.658327332
 11
160.8471793074
 21
30.6905916353
 12
159.575304528
 22
30.6260629858
 13
159.575304528
 23
30.6260629858
  0
SOLID
  8
0
 62
7
  6
CONTINUOUS
 10
160.8471793074
 20
30.6905916353
 11
160.615929528
 21
30.6260629858
 12
159.575304528
 22
30.6260629858
 13
159.575304528
 23
30.6260629858
  0
SOLID
  8
0
 62
7
  6
CONTINUOUS
 10
159.922179528
 20
30.5938006049
 11
159.575304528
 21
30.6260629858
 12
160.615929528
 22
30.6260629858
 13
160.615929528
 23
30.6260629858
  0
SOLID
  8
0
 62
7
  6
CONTINUOUS
 10
160.615929528
 20
30.6260629858
 11
160.269054528
 21
30.5938006049
 12
159.922179528
 22
30.5938006049
 13
159.922179528
 23
30.5938006049
  0
SOLID
  8
0
 62
7
  6
CONTINUOUS
 10
149.5737418074
 20
31.1100184796
 11
149.9206168074
 21
31.2713369632
 12
149.8628043005
 22
31.1422827828
 13
149.8628043005
 23
31.1422827828
  0
SOLID
  8
0
 62
7
  6
CONTINUOUS
 10
149.8628043005
 20
31.1422827828
 11
149.8628043005
 21
31.0454914852
 12
149.5737418074
 22
31.1100184796
 13
149.5737418074
 23
31.1100184796
  0
SOLID
  8
0
 62
7
  6
CONTINUOUS
 10
149.6315543091
 20
30.9164372091
 11
149.5737418074
 21
31.1100184796
 12
149.8628043005
 22
31.0454914852
 13
149.8628043005
 23
31.0454914852
  0
SOLID
  8
0
 62
7
  6
CONTINUOUS
 10
149.8628043005
 20
31.0454914852
 11
149.9784292936
 21
30.8841729058
 12
149.6315543091
 22
30.9164372091
 13
149.6315543091
 23
30.9164372091
  0
SOLID
  8
0
 62
7
  6
CONTINUOUS
 10
149.7471793074
 20
30.7873813202
 11
149.6315543091
 21
30.9164372091
 12
149.9784292936
 22
30.8841729058
 13
149.9784292936
 23
30.8841729058
  0
SOLID
  8
0
 62
7
  6
CONTINUOUS
 10
149.9784292936
 20
30.8841729058
 11
150.1518667936
 21
30.7873813202
 12
149.7471793074
 22
30.7873813202
 13
149.7471793074
 23
30.7873813202
  0
SOLID
  8
0
 62
7
  6
CONTINUOUS
 10
149.8628043005
 20
30.7228547004
 11
149.7471793074
 21
30.7873813202
 12
150.1518667936
 22
30.7873813202
 13
150.1518667936
 23
30.7873813202
  0
SOLID
  8
0
 62
7
  6
CONTINUOUS
 10
150.1518667936
 20
30.7873813202
 11
150.498741835
 21
30.7228547004
 12
149.8628043005
 22
30.7228547004
 13
149.8628043005
 23
30.7228547004
  0
SOLID
  8
0
 62
7
  6
CONTINUOUS
 10
150.0362418212
 20
30.658327332
 11
149.8628043005
 21
30.7228547004
 12
150.498741835
 22
30.7228547004
 13
150.498741835
 23
30.7228547004
  0
SOLID
  8
0
 62
7
  6
CONTINUOUS
 10
154.0831168074
 20
31.1100184386
 11
154.1987416972
 21
31.1745462761
 12
154.7768668074
 22
31.1422827828
 13
154.7768668074
 23
31.1422827828
  0
SOLID
  8
0
 62
7
  6
CONTINUOUS
 10
154.7768668074
 20
31.1422827828
 11
154.5456166972
 21
31.1100184386
 12
154.0831168074
 22
31.1100184386
 13
154.0831168074
 23
31.1100184386
  0
SOLID
  8
0
 62
7
  6
CONTINUOUS
 10
153.9674919177
 20
30.9809642992
 11
154.0831168074
 21
31.1100184386
 12
154.5456166972
 22
31.1100184386
 13
154.5456166972
 23
31.1100184386
  0
SOLID
  8
0
 62
7
  6
CONTINUOUS
 10
154.3143669177
 20
31.0132277988
 11
153.9674919177
 21
30.9809642992
 12
154.4299918074
 22
31.0777556927
 13
154.4299918074
 23
31.0777556927
  0
SOLID
  8
0
 62
7
  6
CONTINUOUS
 10
153.9674919177
 20
30.9809642992
 11
154.5456166972
 21
31.1100184796
 12
154.4299918074
 22
31.0777556927
 13
154.4299918074
 23
31.0777556927
  0
SOLID
  8
0
 62
7
  6
CONTINUOUS
 10
154.3143669177
 20
31.0132277988
 11
154.2565543074
 21
30.9164372091
 12
153.9674919177
 22
30.9809642992
 13
153.9674919177
 23
30.9809642992
  0
SOLID
  8
0
 62
7
  6
CONTINUOUS
 10
153.9674919177
 20
30.8841729058
 11
153.9674919177
 21
30.9809642992
 12
154.2565543074
 22
30.9164372091
 13
154.2565543074
 23
30.9164372091
  0
SOLID
  8
0
 62
7
  6
CONTINUOUS
 10
154.2565543074
 20
30.9164372091
 11
154.2565543074
 21
30.8519086025
 12
153.9674919177
 22
30.8841729058
 13
153.9674919177
 23
30.8841729058
  0
SOLID
  8
0
 62
7
  6
CONTINUOUS
 10
154.0253041972
 20
30.7551187255
 11
153.9674919177
 21
30.8841729058
 12
154.2565543074
 22
30.8519086025
 13
154.2565543074
 23
30.8519086025
  0
SOLID
  8
0
 62
7
  6
CONTINUOUS
 10
155.412804528
 20
30.9487004259
 11
155.7018665869
 21
30.8519086025
 12
155.3549915869
 22
30.8841729058
 13
155.3549915869
 23
30.8841729058
  0
SOLID
  8
0
 62
7
  6
CONTINUOUS
 10
155.1815540869
 20
30.7873815123
 11
155.3549915869
 21
30.8841729058
 12
155.7018665869
 22
30.8519086025
 13
155.7018665869
 23
30.8519086025
  0
SOLID
  8
0
 62
7
  6
CONTINUOUS
 10
155.1815540869
 20
30.7873815123
 11
155.7018665869
 21
30.8519086025
 12
155.412804528
 22
30.7551187255
 13
155.412804528
 23
30.7551187255
  0
SOLID
  8
0
 62
7
  6
CONTINUOUS
 10
155.7018665869
 20
30.8519086025
 11
155.759679528
 21
30.6905916353
 12
155.412804528
 22
30.7551187255
 13
155.412804528
 23
30.7551187255
  0
SOLID
  8
0
 62
7
  6
CONTINUOUS
 10
155.4706168074
 20
30.658327332
 11
155.412804528
 21
30.7551187255
 12
155.759679528
 22
30.6905916353
 13
155.759679528
 23
30.6905916353
  0
SOLID
  8
0
 62
7
  6
CONTINUOUS
 10
155.4706168074
 20
30.658327332
 11
155.759679528
 21
30.6905916353
 12
155.5284290869
 22
30.5938002079
 13
155.5284290869
 23
30.5938002079
  0
SOLID
  8
0
 62
7
  6
CONTINUOUS
 10
155.759679528
 20
30.6905916353
 11
155.8174918074
 21
30.5938002079
 12
155.5284290869
 22
30.5938002079
 13
155.5284290869
 23
30.5938002079
  0
SOLID
  8
0
 62
7
  6
CONTINUOUS
 10
151.0768668626
 20
30.8196456577
 11
151.1346793074
 21
30.9164373395
 12
151.4237418626
 22
30.9164373395
 13
151.4237418626
 23
30.9164373395
  0
SOLID
  8
0
 62
7
  6
CONTINUOUS
 10
151.4237418626
 20
30.9164373395
 11
151.3659292523
 21
30.7873815123
 12
151.0768668626
 22
30.8196456577
 13
151.0768668626
 23
30.8196456577
  0
SOLID
  8
0
 62
7
  6
CONTINUOUS
 10
150.9034292799
 20
30.7551187255
 11
151.0768668626
 21
30.8196456577
 12
151.3659292523
 22
30.7873815123
 13
151.3659292523
 23
30.7873815123
  0
SOLID
  8
0
 62
7
  6
CONTINUOUS
 10
150.9034292799
 20
30.7551187255
 11
151.3659292523
 21
30.7873815123
 12
150.498741835
 22
30.7228544222
 13
150.498741835
 23
30.7228544222
  0
SOLID
  8
0
 62
7
  6
CONTINUOUS
 10
151.3659292523
 20
30.7873815123
 11
151.1924917523
 21
30.6905916353
 12
150.498741835
 22
30.7228544222
 13
150.498741835
 23
30.7228544222
  0
SOLID
  8
0
 62
7
  6
CONTINUOUS
 10
150.0362418212
 20
30.658327332
 11
150.498741835
 21
30.7228544222
 12
151.1924917523
 22
30.6905916353
 13
151.1924917523
 23
30.6905916353
  0
SOLID
  8
0
 62
7
  6
CONTINUOUS
 10
150.0362418212
 20
30.658327332
 11
151.1924917523
 21
30.6905916353
 12
150.2096793212
 22
30.6260631011
 13
150.2096793212
 23
30.6260631011
  0
SOLID
  8
0
 62
7
  6
CONTINUOUS
 10
151.1924917523
 20
30.6905916353
 11
150.9612418074
 21
30.6260631011
 12
150.2096793212
 22
30.6260631011
 13
150.2096793212
 23
30.6260631011
  0
SOLID
  8
0
 62
7
  6
CONTINUOUS
 10
150.5565542799
 20
30.5938002419
 11
150.2096793212
 21
30.6260631011
 12
150.9612418074
 22
30.6260631011
 13
150.9612418074
 23
30.6260631011
  0
SOLID
  8
0
 62
7
  6
CONTINUOUS
 10
154.0253041972
 20
30.7551187255
 11
154.2565543074
 21
30.8519086025
 12
154.3143669177
 22
30.7873815123
 13
154.3143669177
 23
30.7873815123
  0
SOLID
  8
0
 62
7
  6
CONTINUOUS
 10
154.3143669177
 20
30.7873815123
 11
154.5456166972
 21
30.7228544222
 12
154.0253041972
 22
30.7551187255
 13
154.0253041972
 23
30.7551187255
  0
SOLID
  8
0
 62
7
  6
CONTINUOUS
 10
154.1987416972
 20
30.658327332
 11
154.0253041972
 21
30.7551187255
 12
154.5456166972
 22
30.7228544222
 13
154.5456166972
 23
30.7228544222
  0
SOLID
  8
0
 62
7
  6
CONTINUOUS
 10
154.8924916972
 20
30.7228544637
 11
155.1815540869
 21
30.7873815123
 12
155.412804528
 22
30.7551187255
 13
155.412804528
 23
30.7551187255
  0
SOLID
  8
0
 62
7
  6
CONTINUOUS
 10
155.412804528
 20
30.7551187255
 11
155.3549915869
 21
30.6905916353
 12
154.8924916972
 22
30.7228544637
 13
154.8924916972
 23
30.7228544637
  0
SOLID
  8
0
 62
7
  6
CONTINUOUS
 10
155.3549915869
 20
30.6905916353
 11
154.1987416972
 21
30.658327332
 12
154.8924916972
 22
30.7228544637
 13
154.8924916972
 23
30.7228544637
  0
SOLID
  8
0
 62
7
  6
CONTINUOUS
 10
154.1987416972
 20
30.658327332
 11
154.5456166972
 21
30.7228544637
 12
154.8924916972
 22
30.7228544637
 13
154.8924916972
 23
30.7228544637
  0
SOLID
  8
0
 62
7
  6
CONTINUOUS
 10
154.1987416972
 20
30.658327332
 11
155.3549915869
 21
30.6905916353
 12
154.3143669177
 22
30.6260630541
 13
154.3143669177
 23
30.6260630541
  0
SOLID
  8
0
 62
7
  6
CONTINUOUS
 10
155.3549915869
 20
30.6905916353
 11
155.1815540869
 21
30.6260630541
 12
154.3143669177
 22
30.6260630541
 13
154.3143669177
 23
30.6260630541
  0
SOLID
  8
0
 62
7
  6
CONTINUOUS
 10
154.5456166972
 20
30.5938002188
 11
154.3143669177
 21
30.6260630541
 12
155.1815540869
 22
30.6260630541
 13
155.1815540869
 23
30.6260630541
  0
SOLID
  8
0
 62
7
  6
CONTINUOUS
 10
155.1815540869
 20
30.6260630541
 11
154.8924916972
 21
30.5938002188
 12
154.5456166972
 22
30.5938002188
 13
154.5456166972
 23
30.5938002188
  0
SOLID
  8
0
 62
7
  6
CONTINUOUS
 10
159.575304528
 20
30.7551187255
 11
159.228429528
 21
30.7228544637
 12
159.4596793074
 22
30.7873815123
 13
159.4596793074
 23
30.7873815123
  0
SOLID
  8
0
 62
7
  6
CONTINUOUS
 10
159.4596793074
 20
30.7873815123
 11
159.228429528
 21
30.7228544637
 12
159.401867028
 22
30.851908644
 13
159.401867028
 23
30.851908644
  0
SOLID
  8
0
 62
7
  6
CONTINUOUS
 10
159.228429528
 20
30.7228544637
 11
159.1128043074
 21
30.851908644
 12
159.401867028
 22
30.851908644
 13
159.401867028
 23
30.851908644
  0
SOLID
  8
0
 62
7
  6
CONTINUOUS
 10
159.575304528
 20
30.7551187255
 11
159.922179528
 21
30.7228544637
 12
159.228429528
 22
30.7228544637
 13
159.228429528
 23
30.7228544637
  0
SOLID
  8
0
 62
7
  6
CONTINUOUS
 10
156.279992028
 20
30.5938002419
 11
156.279992028
 21
31.6262382337
 12
156.5690540869
 22
30.5938002419
 13
156.5690540869
 23
31.6262382337
  0
ENDBLK
  8
0
  6
BYBLOCK
 62
0
  0
BLOCK
  8
0
 62
2
  6
CONTINUOUS
  2
AMMEAAL_LOGO_BL0
 70
64
 10
32.1213064866
 20
19.8534310916
  0
TEXT
  8
0
 62
7
  6
CONTINUOUS
 10
18.3860103289
 20
19.2268451992
  7
TEXTSTYLE_3
 40
2.7338706658
  1
Ammeraal Beltech
 41
1.0
 51
15.0
 72
0
  0
TEXT
  8
0
 62
7
  6
CONTINUOUS
 10
29.1868111546
 20
16.9533085264
  7
TEXTSTYLE_4
 40
1.0935482663
  1
Innovation & Service in Belting
 41
1.0
 72
0
  0
LINE
  8
0
 62
7
  6
CONTINUOUS
 10
12.3614696776
 20
19.9934385078
 11
13.1396216709
 21
23.6543558055
  0
LINE
  8
0
 62
7
  6
CONTINUOUS
 10
23.2347899607
 20
27.3177497171
 11
13.6274394139
 21
24.1961322958
  0
LINE
  8
0
 62
7
  6
CONTINUOUS
 10
12.5867530099
 20
19.3000877048
 11
20.093828271
 21
12.5406867788
  0
LINE
  8
0
 62
7
  6
CONTINUOUS
 10
12.8492874206
 20
20.5352149982
 11
23.6575567857
 21
24.0470345971
  0
LINE
  8
0
 62
7
  6
CONTINUOUS
 10
23.6533516486
 20
13.6972460334
 11
15.2078919798
 21
21.3015720751
  0
LINE
  8
0
 62
7
  6
CONTINUOUS
 10
24.1731743684
 20
26.4728246013
 11
23.1966148312
 21
21.8784731989
  0
LINE
  8
0
 62
7
  6
CONTINUOUS
 10
22.4968128835
 20
18.5861638851
 11
21.810364672
 21
15.3566789607
  0
LINE
  8
0
 62
7
  6
CONTINUOUS
 10
24.8542704669
 20
14.087448211
 11
25.8105020025
 21
18.5861638851
  0
LINE
  8
0
 62
7
  6
CONTINUOUS
 10
26.5103039502
 20
21.8784731989
 11
26.9545457526
 21
23.9684665583
  0
LINE
  8
0
 62
7
  6
CONTINUOUS
 10
20.8069293463
 20
12.3891124661
 11
24.3664527239
 21
13.5456717207
  0
LINE
  8
0
 62
7
  6
CONTINUOUS
 10
23.9478910361
 20
27.1661754044
 11
26.7292624203
 21
24.6618173613
  0
ARC
  8
0
 62
7
  6
CONTINUOUS
 10
13.8527227462
 20
23.5027814928
 40
0.7290321776
 50
108.0
 51
168.0
  0
ARC
  8
0
 62
7
  6
CONTINUOUS
 10
23.4600732931
 20
26.624398914
 40
0.7290321776
 50
348.0
 51
108.0
  0
ARC
  8
0
 62
7
  6
CONTINUOUS
 10
26.2414446773
 20
24.120040871
 40
0.7290321776
 50
348.0
 51
48.0
  0
ARC
  8
0
 62
7
  6
CONTINUOUS
 10
20.581646014
 20
13.0824632691
 40
0.7290321776
 50
228.0
 51
288.0
  0
ARC
  8
0
 62
7
  6
CONTINUOUS
 10
13.0745707529
 20
19.8418641951
 40
0.7290321776
 50
108.0
 51
228.0
  0
ARC
  8
0
 62
7
  6
CONTINUOUS
 10
24.1411693916
 20
14.2390225237
 40
0.7290321776
 50
228.0
 51
348.0
  0
ENDBLK
  8
0
  6
BYBLOCK
 62
0
  0
ENDSEC
  0
SECTION
  2
ENTITIES
  0
TEXT
  8
0
 62
5
  6
CONTINUOUS
 10
96.0
 20
25.636
  7
TEXTSTYLE_2
 40
2.8
  1
Scale :
 41
0.6
 51
0.000019
 72
0
  0
TEXT
  8
0
 62
5
  6
CONTINUOUS
 10
116.0
 20
25.636
  7
TEXTSTYLE_2
 40
2.8
  1
Belt type:
 41
0.6
 51
0.000019
 72
0
  0
INSERT
  8
0
 62
2
  6
CONTINUOUS
  2
AMMEAAL_LOGO_BL0
 10
32.1213064866
 20
19.8534310916
  0
INSERT
  8
0
 62
2
  6
CONTINUOUS
  2
UNI_LOGO2_BL1
 10
173.5956734183
 20
35.5937998301
  0
LINE
  8
0
 62
2
  6
CONTINUOUS
 10
10.0
 20
30.0
 11
200.0
 21
30.0
  0
LINE
  8
0
 62
2
  6
CONTINUOUS
 10
10.0
 20
30.0
 11
10.0
 21
10.0
  0
LINE
  8
0
 62
2
  6
CONTINUOUS
 10
10.0
 20
10.0
 11
200.0
 21
10.0
  0
LINE
  8
0
 62
2
  6
CONTINUOUS
 10
95.0
 20
30.0
 11
95.0
 21
10.0
  0
LINE
  8
0
 62
2
  6
CONTINUOUS
 10
115.0
 20
30.0
 11
115.0
 21
10.0
  0
LINE
  8
0
 62
2
  6
CONTINUOUS
 10
200.0
 20
30.0
 11
200.0
 21
10.0
  0
TEXT
  8
0
 62
5
  6
CONTINUOUS
 10
13.0
 20
23.303
  7
TEXTSTYLE_5
 40
1.52
  1
                                                                     Ammeraal Beltech Modular A/S
 41
1.0
 72
0
  0
TEXT
  8
0
 62
5
  6
CONTINUOUS
 10
13.0
 20
20.595
  7
TEXTSTYLE_5
 40
1.5
  1
                                                                      Hjulmagervej 21,  7100 Vejle,  DK
 41
1.0
 72
0
  0
TEXT
  8
0
 62
5
  6
CONTINUOUS
 10
13.0
 20
17.881
  7
TEXTSTYLE_5
 40
1.495
  1
                                                                      tel: 
 41
1.0
 72
0
  0
TEXT
  8
0
 62
5
  6
CONTINUOUS
 10
57.9869465649
 20
17.881
  7
TEXTSTYLE_5
 40
1.51
  1
+45 75723100     fax: +45 75723348
 41
1.0
 72
0
  0
TEXT
  8
0
 62
5
  6
CONTINUOUS
 10
13.0
 20
15.177
  7
TEXTSTYLE_5
 40
1.5
  1
                                                                      admin@unichains.dk  www.unichains.com
 41
1.0
 72
0
  0
TEXT
  8
0
 62
5
  6
CONTINUOUS
 10
99.75
 20
13.75
  7
TEXTSTYLE_6
 40
5.0
  1
1:1
 41
0.7
 72
1
 11
105.0
 21
13.75
  0
TEXT
  8
0
 62
5
  6
CONTINUOUS
 10
118.0
 20
13.75
  7
TEXTSTYLE_7
 40
7.5
  1
uni NTB Sprocket Z48
 41
0.4213541667
 72
0
  0
LINE
  8
0
 62
7
  6
CONTINUOUS
 10
210.0
 20
0.0
 11
0.0
 21
0.0
  0
LINE
  8
0
 62
7
  6
CONTINUOUS
 10
10.0
 20
10.0
 11
200.0
 21
10.0
  0
LINE
  8
0
 62
7
  6
CONTINUOUS
 10
10.0
 20
30.0
 11
200.0
 21
30.0
  0
LINE
  8
0
 62
7
  6
CONTINUOUS
 10
0.0
 20
0.0
 11
0.0
 21
297.0
  0
LINE
  8
0
 62
7
  6
CONTINUOUS
 10
10.0
 20
10.0
 11
10.0
 21
287.0
  0
LINE
  8
0
 62
7
  6
CONTINUOUS
 10
200.0
 20
287.0
 11
200.0
 21
10.0
  0
LINE
  8
0
 62
7
  6
CONTINUOUS
 10
210.0
 20
0.0
 11
210.0
 21
297.0
  0
LINE
  8
0
 62
7
  6
CONTINUOUS
 10
10.0
 20
287.0
 11
200.0
 21
287.0
  0
LINE
  8
0
 62
7
  6
CONTINUOUS
 10
0.0
 20
297.0
 11
210.0
 21
297.0
  0
LINE
  8
0
 62
7
  6
CONTINUOUS
 10
22.0287955814
 20
170.091523386
 11
22.0287955814
 21
169.533476614
  0
LINE
  8
0
 62
7
  6
CONTINUOUS
 10
22.5618355018
 20
177.6660942322
 11
22.4889957816
 21
177.1128216277
  0
LINE
  8
0
 62
7
  6
CONTINUOUS
 10
24.0789950821
 20
185.1062879036
 11
23.9345619495
 21
184.5672561143
  0
LINE
  8
0
 62
7
  6
CONTINUOUS
 10
26.5543153012
 20
192.2848006238
 11
26.3407600471
 21
191.769232633
  0
LINE
  8
0
 62
7
  6
CONTINUOUS
 10
29.9454427438
 20
199.0788060498
 11
29.6664193578
 21
198.5955233688
  0
LINE
  8
0
 62
7
  6
CONTINUOUS
 10
34.1943542793
 20
205.3720568652
 11
33.8546369289
 21
204.9293285946
  0
LINE
  8
0
 62
7
  6
CONTINUOUS
 10
39.2283498531
 20
211.0568738036
 11
38.8337511964
 21
210.6622751469
  0
LINE
  8
0
 62
7
  6
CONTINUOUS
 10
44.9612964054
 20
216.0359880711
 11
44.5185681348
 21
215.6962707207
  0
LINE
  8
0
 62
7
  6
CONTINUOUS
 10
51.2951016312
 20
220.2242056422
 11
50.8118189502
 21
219.9451822562
  0
LINE
  8
0
 62
7
  6
CONTINUOUS
 10
58.121392367
 20
223.5498649529
 11
57.6058243762
 21
223.3363096988
  0
LINE
  8
0
 62
7
  6
CONTINUOUS
 10
97.5774548007
 20
112.2120359695
 11
93.7234928586
 21
111.1793699795
  0
LINE
  8
0
 62
7
  6
CONTINUOUS
 10
94.8328811143
 20
113.6689369495
 11
95.3719129036
 21
113.8133700821
  0
LINE
  8
0
 62
7
  6
CONTINUOUS
 10
89.9093763684
 20
110.420695039
 11
85.9535956454
 21
109.8999066269
  0
LINE
  8
0
 62
7
  6
CONTINUOUS
 10
87.3784466277
 20
112.2233707816
 11
87.9317192322
 21
112.2962105018
  0
LINE
  8
0
 62
7
  6
CONTINUOUS
 10
79.799101614
 20
111.7631705814
 11
80.357148386
 21
111.7631705814
  0
LINE
  8
0
 62
7
  6
CONTINUOUS
 10
72.2245307678
 20
112.2962105018
 11
72.7778033723
 21
112.2233707816
  0
LINE
  8
0
 62
7
  6
CONTINUOUS
 10
64.7843370964
 20
113.8133700821
 11
65.3233688857
 21
113.6689369495
  0
LINE
  8
0
 62
7
  6
CONTINUOUS
 10
57.6058243762
 20
116.2886903012
 11
58.121392367
 21
116.0751350471
  0
LINE
  8
0
 62
7
  6
CONTINUOUS
 10
50.8118189502
 20
119.6798177438
 11
51.2951016312
 21
119.4007943578
  0
LINE
  8
0
 62
7
  6
CONTINUOUS
 10
44.5185681348
 20
123.9287292793
 11
44.9612964054
 21
123.5890119289
  0
LINE
  8
0
 62
7
  6
CONTINUOUS
 10
38.8337511964
 20
128.9627248531
 11
39.2283498531
 21
128.5681261964
  0
LINE
  8
0
 62
7
  6
CONTINUOUS
 10
33.8546369289
 20
134.6956714054
 11
34.1943542793
 21
134.2529431348
  0
LINE
  8
0
 62
7
  6
CONTINUOUS
 10
29.6664193578
 20
141.0294766312
 11
29.9454427438
 21
140.5461939502
  0
LINE
  8
0
 62
7
  6
CONTINUOUS
 10
26.3407600471
 20
147.855767367
 11
26.5543153012
 21
147.3401993762
  0
LINE
  8
0
 62
7
  6
CONTINUOUS
 10
23.9345619495
 20
155.0577438857
 11
24.0789950821
 21
154.5187120964
  0
LINE
  8
0
 62
7
  6
CONTINUOUS
 10
22.4889957816
 20
162.5121783723
 11
22.5618355018
 21
161.9589057678
  0
LINE
  8
0
 62
7
  6
CONTINUOUS
 10
75.3826947835
 20
109.5737890176
 11
75.4235639678
 21
109.200615159
  0
LINE
  8
0
 62
7
  6
CONTINUOUS
 10
67.5519458511
 20
229.2982996358
 11
67.5601352711
 21
228.9229838323
  0
LINE
  8
0
 62
7
  6
CONTINUOUS
 10
67.5601352711
 20
110.7020161677
 11
67.5519458511
 21
110.3267003642
  0
LINE
  8
0
 62
7
  6
CONTINUOUS
 10
75.4235639678
 20
230.424384841
 11
75.3826947835
 21
230.0512109824
  0
LINE
  8
0
 62
7
  6
CONTINUOUS
 10
59.9517620337
 20
112.8416400847
 11
59.8946541326
 21
112.4706040938
  0
LINE
  8
0
 62
7
  6
CONTINUOUS
 10
83.3748229143
 20
230.5133838917
 11
83.2855944087
 21
230.1487370863
  0
LINE
  8
0
 62
7
  6
CONTINUOUS
 10
52.6877564466
 20
115.9560512102
 11
52.5827071965
 21
115.5956435604
  0
LINE
  8
0
 62
7
  6
CONTINUOUS
 10
91.2696744454
 20
229.5637739897
 11
91.133613343
 21
229.2138934452
  0
LINE
  8
0
 62
7
  6
CONTINUOUS
 10
45.8924076596
 20
119.9919611063
 11
45.7412144822
 21
119.6483484725
  0
LINE
  8
0
 62
7
  6
CONTINUOUS
 10
98.9730354626
 20
227.5918032234
 11
98.7924698066
 21
227.2626754932
  0
LINE
  8
0
 62
7
  6
CONTINUOUS
 10
39.6819859743
 20
124.8803142357
 11
39.4872358269
 21
124.5593759254
  0
LINE
  8
0
 62
7
  6
CONTINUOUS
 10
106.3530993232
 20
224.6312125596
 11
106.131118642
 21
224.3284691102
  0
LINE
  8
0
 62
7
  6
CONTINUOUS
 10
34.1627534277
 20
130.5374695211
 11
33.9277785392
 21
130.2446968777
  0
LINE
  8
0
 62
7
  6
CONTINUOUS
 10
113.2835910883
 20
220.7326585253
 11
113.0239935329
 21
220.4614793811
  0
LINE
  8
0
 62
7
  6
CONTINUOUS
 10
29.4291456189
 20
136.8666314671
 11
29.1579664747
 21
136.6070339117
  0
LINE
  8
0
 62
7
  6
CONTINUOUS
 10
119.6459281223
 20
215.9628464608
 11
119.3531554789
 21
215.7278715723
  0
LINE
  8
0
 62
7
  6
CONTINUOUS
 10
25.5621558898
 20
143.759506358
 11
25.2594124404
 21
143.5375256768
  0
LINE
  8
0
 62
7
  6
CONTINUOUS
 10
125.3312490746
 20
210.4033891731
 11
125.0103107643
 21
210.2086390257
  0
LINE
  8
0
 62
7
  6
CONTINUOUS
 10
22.6279495068
 20
151.0981551934
 11
22.2988217766
 21
150.9175895374
  0
LINE
  8
0
 62
7
  6
CONTINUOUS
 10
130.2422765275
 20
204.1494105178
 11
129.8986638937
 21
203.9982173404
  0
LINE
  8
0
 62
7
  6
CONTINUOUS
 10
20.6767315548
 20
158.757011657
 11
20.3268510103
 21
158.6209505546
  0
LINE
  8
0
 62
7
  6
CONTINUOUS
 10
134.2949814396
 20
197.3079178035
 11
133.9345737898
 21
197.2028685534
  0
LINE
  8
0
 62
7
  6
CONTINUOUS
 10
140.4143620863
 20
173.0199694087
 11
140.7790088917
 21
173.1091979143
  0
LINE
  8
0
 62
7
  6
CONTINUOUS
 10
22.7362290938
 20
149.6290291326
 11
23.1072650847
 21
149.6861370337
  0
LINE
  8
0
 62
7
  6
CONTINUOUS
 10
140.3168359824
 20
165.1170697835
 11
140.690009841
 21
165.1579389678
  0
LINE
  8
0
 62
7
  6
CONTINUOUS
 10
20.5923253642
 20
157.2863208511
 11
20.9676411677
 21
157.2945102711
  0
LINE
  8
0
 62
7
  6
CONTINUOUS
 10
139.1886088323
 20
157.2945102711
 11
139.5639246358
 21
157.2863208511
  0
LINE
  8
0
 62
7
  6
CONTINUOUS
 10
19.466240159
 20
165.1579389678
 11
19.8394140176
 21
165.1170697835
  0
LINE
  8
0
 62
7
  6
CONTINUOUS
 10
137.0489849153
 20
149.6861370337
 11
137.4200209062
 21
149.6290291326
  0
LINE
  8
0
 62
7
  6
CONTINUOUS
 10
19.3772411083
 20
173.1091979143
 11
19.7418879137
 21
173.0199694087
  0
LINE
  8
0
 62
7
  6
CONTINUOUS
 10
133.9345737898
 20
142.4221314466
 11
134.2949814396
 21
142.3170821965
  0
LINE
  8
0
 62
7
  6
CONTINUOUS
 10
20.3268510103
 20
181.0040494454
 11
20.6767315548
 21
180.867988343
  0
LINE
  8
0
 62
7
  6
CONTINUOUS
 10
129.8986638937
 20
135.6267826596
 11
130.2422765275
 21
135.4755894822
  0
LINE
  8
0
 62
7
  6
CONTINUOUS
 10
22.2988217766
 20
188.7074104626
 11
22.6279495068
 21
188.5268448066
  0
LINE
  8
0
 62
7
  6
CONTINUOUS
 10
125.0103107643
 20
129.4163609743
 11
125.3312490746
 21
129.2216108269
  0
LINE
  8
0
 62
7
  6
CONTINUOUS
 10
25.2594124404
 20
196.0874743232
 11
25.5621558898
 21
195.865493642
  0
LINE
  8
0
 62
7
  6
CONTINUOUS
 10
119.3531554789
 20
123.8971284277
 11
119.6459281223
 21
123.6621535392
  0
LINE
  8
0
 62
7
  6
CONTINUOUS
 10
29.1579664747
 20
203.0179660883
 11
29.4291456189
 21
202.7583685329
  0
LINE
  8
0
 62
7
  6
CONTINUOUS
 10
113.0239935329
 20
119.1635206189
 11
113.2835910883
 21
118.8923414747
  0
LINE
  8
0
 62
7
  6
CONTINUOUS
 10
33.9277785392
 20
209.3803031223
 11
34.1627534277
 21
209.0875304789
  0
LINE
  8
0
 62
7
  6
CONTINUOUS
 10
106.131118642
 20
115.2965308898
 11
106.3530993232
 21
114.9937874404
  0
LINE
  8
0
 62
7
  6
CONTINUOUS
 10
39.4872358269
 20
215.0656240746
 11
39.6819859743
 21
214.7446857643
  0
LINE
  8
0
 62
7
  6
CONTINUOUS
 10
98.7924698066
 20
112.3623245068
 11
98.9730354626
 21
112.0331967766
  0
LINE
  8
0
 62
7
  6
CONTINUOUS
 10
45.7412144822
 20
219.9766515275
 11
45.8924076596
 21
219.6330388937
  0
LINE
  8
0
 62
7
  6
CONTINUOUS
 10
91.133613343
 20
110.4111065548
 11
91.2696744454
 21
110.0612260103
  0
LINE
  8
0
 62
7
  6
CONTINUOUS
 10
52.5827071965
 20
224.0293564396
 11
52.6877564466
 21
223.6689487898
  0
LINE
  8
0
 62
7
  6
CONTINUOUS
 10
83.2855944087
 20
109.4762629137
 11
83.3748229143
 21
109.1116161083
  0
LINE
  8
0
 62
7
  6
CONTINUOUS
 10
59.8946541326
 20
227.1543959062
 11
59.9517620337
 21
226.7833599153
  0
LINE
  8
0
 62
2
  6
CONTINUOUS
 10
80.078125
 20
170.6925
 11
80.078125
 21
168.9325
  0
LINE
  8
DEFAULT_1
 62
2
  6
CENTER
 10
80.078125
 20
165.4125
 11
80.078125
 21
104.28143
  0
LINE
  8
DEFAULT_1
 62
2
  6
CENTER
 10
80.078125
 20
174.2125
 11
80.078125
 21
235.34357
  0
LINE
  8
0
 62
2
  6
CONTINUOUS
 10
80.958125
 20
169.8125
 11
79.198125
 21
169.8125
  0
LINE
  8
DEFAULT_1
 62
2
  6
CENTER
 10
75.678125
 20
169.8125
 11
14.547055
 21
169.8125
  0
LINE
  8
DEFAULT_1
 62
2
  6
CENTER
 10
84.478125
 20
169.8125
 11
145.609195
 21
169.8125
  0
LINE
  8
0
 62
7
  6
CONTINUOUS
 10
84.7735552165
 20
230.0512109824
 11
84.7326860322
 21
230.424384841
  0
LINE
  8
0
 62
7
  6
CONTINUOUS
 10
92.6043041489
 20
110.3267003642
 11
92.5961147289
 21
110.7020161677
  0
LINE
  8
0
 62
7
  6
CONTINUOUS
 10
92.5961147289
 20
228.9229838323
 11
92.6043041489
 21
229.2982996358
  0
LINE
  8
0
 62
7
  6
CONTINUOUS
 10
84.7326860322
 20
109.200615159
 11
84.7735552165
 21
109.5737890176
  0
LINE
  8
0
 62
7
  6
CONTINUOUS
 10
100.2044879663
 20
226.7833599153
 11
100.2615958674
 21
227.1543959062
  0
LINE
  8
0
 62
7
  6
CONTINUOUS
 10
76.7814270857
 20
109.1116161083
 11
76.8706555913
 21
109.4762629137
  0
LINE
  8
0
 62
7
  6
CONTINUOUS
 10
107.4684935534
 20
223.6689487898
 11
107.5735428035
 21
224.0293564396
  0
LINE
  8
0
 62
7
  6
CONTINUOUS
 10
68.8865755546
 20
110.0612260103
 11
69.022636657
 21
110.4111065548
  0
LINE
  8
0
 62
7
  6
CONTINUOUS
 10
114.2638423404
 20
219.6330388937
 11
114.4150355178
 21
219.9766515275
  0
LINE
  8
0
 62
7
  6
CONTINUOUS
 10
61.1832145374
 20
112.0331967766
 11
61.3637801934
 21
112.3623245068
  0
LINE
  8
0
 62
7
  6
CONTINUOUS
 10
120.4742640257
 20
214.7446857643
 11
120.6690141731
 21
215.0656240746
  0
LINE
  8
0
 62
7
  6
CONTINUOUS
 10
53.8031506768
 20
114.9937874404
 11
54.025131358
 21
115.2965308898
  0
LINE
  8
0
 62
7
  6
CONTINUOUS
 10
125.9934965723
 20
209.0875304789
 11
126.2284714608
 21
209.3803031223
  0
LINE
  8
0
 62
7
  6
CONTINUOUS
 10
46.8726589117
 20
118.8923414747
 11
47.1322564671
 21
119.1635206189
  0
LINE
  8
0
 62
7
  6
CONTINUOUS
 10
130.7271043811
 20
202.7583685329
 11
130.9982835253
 21
203.0179660883
  0
LINE
  8
0
 62
7
  6
CONTINUOUS
 10
40.5103218777
 20
123.6621535392
 11
40.8030945211
 21
123.8971284277
  0
LINE
  8
0
 62
7
  6
CONTINUOUS
 10
134.5940941102
 20
195.865493642
 11
134.8968375596
 21
196.0874743232
  0
LINE
  8
0
 62
7
  6
CONTINUOUS
 10
34.8250009254
 20
129.2216108269
 11
35.1459392357
 21
129.4163609743
  0
LINE
  8
0
 62
7
  6
CONTINUOUS
 10
137.5283004932
 20
188.5268448066
 11
137.8574282234
 21
188.7074104626
  0
LINE
  8
0
 62
7
  6
CONTINUOUS
 10
29.9139734725
 20
135.4755894822
 11
30.2575861063
 21
135.6267826596
  0
LINE
  8
0
 62
7
  6
CONTINUOUS
 10
139.4795184452
 20
180.867988343
 11
139.8293989897
 21
181.0040494454
  0
LINE
  8
0
 62
7
  6
CONTINUOUS
 10
25.8612685604
 20
142.3170821965
 11
26.2216762102
 21
142.4221314466
  0
LINE
  8
0
 62
7
  6
CONTINUOUS
 10
19.7418879137
 20
166.6050305913
 11
19.3772411083
 21
166.5158020857
  0
LINE
  8
0
 62
7
  6
CONTINUOUS
 10
137.4200209062
 20
189.9959708674
 11
137.0489849153
 21
189.9388629663
  0
LINE
  8
0
 62
7
  6
CONTINUOUS
 10
19.8394140176
 20
174.5079302165
 11
19.466240159
 21
174.4670610322
  0
LINE
  8
0
 62
7
  6
CONTINUOUS
 10
139.5639246358
 20
182.3386791489
 11
139.1886088323
 21
182.3304897289
  0
LINE
  8
0
 62
7
  6
CONTINUOUS
 10
20.9676411677
 20
182.3304897289
 11
20.5923253642
 21
182.3386791489
  0
LINE
  8
0
 62
7
  6
CONTINUOUS
 10
140.690009841
 20
174.4670610322
 11
140.3168359824
 21
174.5079302165
  0
LINE
  8
0
 62
7
  6
CONTINUOUS
 10
23.1072650847
 20
189.9388629663
 11
22.7362290938
 21
189.9959708674
  0
LINE
  8
0
 62
7
  6
CONTINUOUS
 10
140.7790088917
 20
166.5158020857
 11
140.4143620863
 21
166.6050305913
  0
LINE
  8
0
 62
7
  6
CONTINUOUS
 10
26.2216762102
 20
197.2028685534
 11
25.8612685604
 21
197.3079178035
  0
LINE
  8
0
 62
7
  6
CONTINUOUS
 10
139.8293989897
 20
158.6209505546
 11
139.4795184452
 21
158.757011657
  0
LINE
  8
0
 62
7
  6
CONTINUOUS
 10
30.2575861063
 20
203.9982173404
 11
29.9139734725
 21
204.1494105178
  0
LINE
  8
0
 62
7
  6
CONTINUOUS
 10
137.8574282234
 20
150.9175895374
 11
137.5283004932
 21
151.0981551934
  0
LINE
  8
0
 62
7
  6
CONTINUOUS
 10
35.1459392357
 20
210.2086390257
 11
34.8250009254
 21
210.4033891731
  0
LINE
  8
0
 62
7
  6
CONTINUOUS
 10
134.8968375596
 20
143.5375256768
 11
134.5940941102
 21
143.759506358
  0
LINE
  8
0
 62
7
  6
CONTINUOUS
 10
40.8030945211
 20
215.7278715723
 11
40.5103218777
 21
215.9628464608
  0
LINE
  8
0
 62
7
  6
CONTINUOUS
 10
130.9982835253
 20
136.6070339117
 11
130.7271043811
 21
136.8666314671
  0
LINE
  8
0
 62
7
  6
CONTINUOUS
 10
47.1322564671
 20
220.4614793811
 11
46.8726589117
 21
220.7326585253
  0
LINE
  8
0
 62
7
  6
CONTINUOUS
 10
126.2284714608
 20
130.2446968777
 11
125.9934965723
 21
130.5374695211
  0
LINE
  8
0
 62
7
  6
CONTINUOUS
 10
54.025131358
 20
224.3284691102
 11
53.8031506768
 21
224.6312125596
  0
LINE
  8
0
 62
7
  6
CONTINUOUS
 10
120.6690141731
 20
124.5593759254
 11
120.4742640257
 21
124.8803142357
  0
LINE
  8
0
 62
7
  6
CONTINUOUS
 10
61.3637801934
 20
227.2626754932
 11
61.1832145374
 21
227.5918032234
  0
LINE
  8
0
 62
7
  6
CONTINUOUS
 10
114.4150355178
 20
119.6483484725
 11
114.2638423404
 21
119.9919611063
  0
LINE
  8
0
 62
7
  6
CONTINUOUS
 10
69.022636657
 20
229.2138934452
 11
68.8865755546
 21
229.5637739897
  0
LINE
  8
0
 62
7
  6
CONTINUOUS
 10
107.5735428035
 20
115.5956435604
 11
107.4684935534
 21
115.9560512102
  0
LINE
  8
0
 62
7
  6
CONTINUOUS
 10
76.8706555913
 20
230.1487370863
 11
76.7814270857
 21
230.5133838917
  0
LINE
  8
0
 62
7
  6
CONTINUOUS
 10
100.2615958674
 20
112.4706040938
 11
100.2044879663
 21
112.8416400847
  0
LINE
  8
0
 62
7
  6
CONTINUOUS
 10
138.1274544186
 20
169.533476614
 11
138.1274544186
 21
170.091523386
  0
LINE
  8
0
 62
7
  6
CONTINUOUS
 10
137.5944144982
 20
161.9589057678
 11
137.6672542184
 21
162.5121783723
  0
LINE
  8
0
 62
7
  6
CONTINUOUS
 10
136.0772549179
 20
154.5187120964
 11
136.2216880505
 21
155.0577438857
  0
LINE
  8
0
 62
7
  6
CONTINUOUS
 10
133.6019346988
 20
147.3401993762
 11
133.8154899529
 21
147.855767367
  0
LINE
  8
0
 62
7
  6
CONTINUOUS
 10
130.2108072562
 20
140.5461939502
 11
130.4898306422
 21
141.0294766312
  0
LINE
  8
0
 62
7
  6
CONTINUOUS
 10
125.9618957207
 20
134.2529431348
 11
126.3016130711
 21
134.6956714054
  0
LINE
  8
0
 62
7
  6
CONTINUOUS
 10
120.9279001469
 20
128.5681261964
 11
121.3224988036
 21
128.9627248531
  0
LINE
  8
0
 62
7
  6
CONTINUOUS
 10
115.1949535946
 20
123.5890119289
 11
115.6376818652
 21
123.9287292793
  0
LINE
  8
0
 62
7
  6
CONTINUOUS
 10
108.8611483688
 20
119.4007943578
 11
109.3444310498
 21
119.6798177438
  0
LINE
  8
0
 62
7
  6
CONTINUOUS
 10
102.034857633
 20
116.0751350471
 11
102.5504256238
 21
116.2886903012
  0
LINE
  8
0
 62
7
  6
CONTINUOUS
 10
65.3233688857
 20
225.9560630505
 11
64.7843370964
 21
225.8116299179
  0
LINE
  8
0
 62
7
  6
CONTINUOUS
 10
72.7778033723
 20
227.4016292184
 11
72.2245307678
 21
227.3287894982
  0
LINE
  8
0
 62
7
  6
CONTINUOUS
 10
80.357148386
 20
227.8618294186
 11
79.799101614
 21
227.8618294186
  0
LINE
  8
0
 62
7
  6
CONTINUOUS
 10
87.9317192322
 20
227.3287894982
 11
87.3784466277
 21
227.4016292184
  0
LINE
  8
0
 62
7
  6
CONTINUOUS
 10
95.3719129036
 20
225.8116299179
 11
94.8328811143
 21
225.9560630505
  0
LINE
  8
0
 62
7
  6
CONTINUOUS
 10
102.5504256238
 20
223.3363096988
 11
102.034857633
 21
223.5498649529
  0
LINE
  8
0
 62
7
  6
CONTINUOUS
 10
109.3444310498
 20
219.9451822562
 11
108.8611483688
 21
220.2242056422
  0
LINE
  8
0
 62
7
  6
CONTINUOUS
 10
115.6376818652
 20
215.6962707207
 11
115.1949535946
 21
216.0359880711
  0
LINE
  8
0
 62
7
  6
CONTINUOUS
 10
121.3224988036
 20
210.6622751469
 11
120.9279001469
 21
211.0568738036
  0
LINE
  8
0
 62
7
  6
CONTINUOUS
 10
126.3016130711
 20
204.9293285946
 11
125.9618957207
 21
205.3720568652
  0
LINE
  8
0
 62
7
  6
CONTINUOUS
 10
130.4898306422
 20
198.5955233688
 11
130.2108072562
 21
199.0788060498
  0
LINE
  8
0
 62
7
  6
CONTINUOUS
 10
133.8154899529
 20
191.769232633
 11
133.6019346988
 21
192.2848006238
  0
LINE
  8
0
 62
7
  6
CONTINUOUS
 10
136.2216880505
 20
184.5672561143
 11
136.0772549179
 21
185.1062879036
  0
LINE
  8
0
 62
7
  6
CONTINUOUS
 10
137.6672542184
 20
177.1128216277
 11
137.5944144982
 21
177.6660942322
  0
LINE
  8
0
 62
7
  6
CONTINUOUS
 10
140.2450606422
 20
171.8074574995
 11
140.2450606422
 21
167.8175425005
  0
LINE
  8
0
 62
7
  6
CONTINUOUS
 10
139.9907183731
 20
163.9370293546
 11
139.469929961
 21
159.9812486316
  0
LINE
  8
0
 62
7
  6
CONTINUOUS
 10
138.7112550205
 20
156.1671321414
 11
137.6785890305
 21
152.3131701993
  0
LINE
  8
0
 62
7
  6
CONTINUOUS
 10
136.4285625571
 20
148.6307109555
 11
134.9016881905
 21
144.9445101516
  0
LINE
  8
0
 62
7
  6
CONTINUOUS
 10
133.1816984838
 20
141.4567160529
 11
131.1867409843
 21
138.0013483049
  0
LINE
  8
0
 62
7
  6
CONTINUOUS
 10
129.026217545
 20
134.7678964753
 11
126.5973111887
 21
131.6024840834
  0
LINE
  8
0
 62
7
  6
CONTINUOUS
 10
124.0332211719
 20
128.6786997802
 11
121.2119252198
 21
125.8574038281
  0
LINE
  8
0
 62
7
  6
CONTINUOUS
 10
118.2881409166
 20
123.2933138113
 11
115.1227285247
 21
120.864407455
  0
LINE
  8
0
 62
7
  6
CONTINUOUS
 10
111.8892766951
 20
118.7038840157
 11
108.4339089471
 21
116.7089265162
  0
LINE
  8
0
 62
7
  6
CONTINUOUS
 10
104.9461148484
 20
114.9889368095
 11
101.2599140445
 21
113.4620624429
  0
LINE
  8
0
 62
7
  6
CONTINUOUS
 10
78.0831675005
 20
229.9794356422
 11
82.0730824995
 21
229.9794356422
  0
LINE
  8
0
 62
7
  6
CONTINUOUS
 10
85.9535956454
 20
229.7250933731
 11
89.9093763684
 21
229.204304961
  0
LINE
  8
0
 62
7
  6
CONTINUOUS
 10
93.7234928586
 20
228.4456300205
 11
97.5774548007
 21
227.4129640305
  0
LINE
  8
0
 62
7
  6
CONTINUOUS
 10
101.2599140445
 20
226.1629375571
 11
104.9461148484
 21
224.6360631905
  0
LINE
  8
0
 62
7
  6
CONTINUOUS
 10
108.4339089471
 20
222.9160734838
 11
111.8892766951
 21
220.9211159843
  0
LINE
  8
0
 62
7
  6
CONTINUOUS
 10
115.1227285247
 20
218.760592545
 11
118.2881409166
 21
216.3316861887
  0
LINE
  8
0
 62
7
  6
CONTINUOUS
 10
121.2119252198
 20
213.7675961719
 11
124.0332211719
 21
210.9463002198
  0
LINE
  8
0
 62
7
  6
CONTINUOUS
 10
126.5973111887
 20
208.0225159166
 11
129.026217545
 21
204.8571035247
  0
LINE
  8
0
 62
7
  6
CONTINUOUS
 10
131.1867409843
 20
201.6236516951
 11
133.1816984838
 21
198.1682839471
  0
LINE
  8
0
 62
7
  6
CONTINUOUS
 10
134.9016881905
 20
194.6804898484
 11
136.4285625571
 21
190.9942890445
  0
LINE
  8
0
 62
7
  6
CONTINUOUS
 10
137.6785890305
 20
187.3118298007
 11
138.7112550205
 21
183.4578678586
  0
LINE
  8
0
 62
7
  6
CONTINUOUS
 10
139.469929961
 20
179.6437513684
 11
139.9907183731
 21
175.6879706454
  0
LINE
  8
0
 62
7
  6
CONTINUOUS
 10
188.5162119937
 20
108.7304590544
 11
165.5150380063
 21
108.7304590544
  0
LINE
  8
0
 62
7
  6
CONTINUOUS
 10
188.515625
 20
109.7424450295
 11
165.515625
 21
109.7424450295
  0
LINE
  8
0
 62
7
  6
CONTINUOUS
 10
173.515625
 20
110.9291524105
 11
180.515625
 21
110.9291524105
  0
LINE
  8
0
 62
7
  6
CONTINUOUS
 10
188.5222328044
 20
111.773691161
 11
165.5090171956
 21
111.773691161
  0
POLYLINE
  8
0
 62
7
  6
CONTINUOUS
 66
1
 70
0
  0
VERTEX
  8
0
 62
7
  6
CONTINUOUS
 10
165.5133162372
 20
229.8825549705
  0
VERTEX
  8
0
 62
7
  6
CONTINUOUS
 10
165.5109583701
 20
229.8808762085
  0
VERTEX
  8
0
 62
7
  6
CONTINUOUS
 10
165.4972494429
 20
229.8508562254
  0
VERTEX
  8
0
 62
7
  6
CONTINUOUS
 10
165.4753290448
 20
229.7847851061
  0
VERTEX
  8
0
 62
7
  6
CONTINUOUS
 10
165.4466213072
 20
229.686764788
  0
VERTEX
  8
0
 62
7
  6
CONTINUOUS
 10
165.4132101749
 20
229.5637739897
  0
SEQEND
  0
POLYLINE
  8
0
 62
7
  6
CONTINUOUS
 66
1
 70
0
  0
VERTEX
  8
0
 62
7
  6
CONTINUOUS
 10
165.5030067992
 20
224.8355577346
  0
VERTEX
  8
0
 62
7
  6
CONTINUOUS
 10
165.4972494429
 20
224.8332462923
  0
VERTEX
  8
0
 62
7
  6
CONTINUOUS
 10
165.4753290448
 20
224.8009523036
  0
VERTEX
  8
0
 62
7
  6
CONTINUOUS
 10
165.4466213072
 20
224.7321032566
  0
VERTEX
  8
0
 62
7
  6
CONTINUOUS
 10
165.4132101749
 20
224.6312125596
  0
SEQEND
  0
POLYLINE
  8
0
 62
7
  6
CONTINUOUS
 66
1
 70
0
  0
VERTEX
  8
0
 62
7
  6
CONTINUOUS
 10
165.509169403
 20
111.7736911612
  0
VERTEX
  8
0
 62
7
  6
CONTINUOUS
 10
165.5099066396
 20
111.7737840753
  0
VERTEX
  8
0
 62
7
  6
CONTINUOUS
 10
165.515625
 20
111.7997306269
  0
SEQEND
  0
LINE
  8
0
 62
7
  6
CONTINUOUS
 10
173.515625
 20
113.0673091238
 11
180.515625
 21
113.0673091238
  0
LINE
  8
0
 62
7
  6
CONTINUOUS
 10
188.5282720029
 20
114.7894422646
 11
165.5029779971
 21
114.7894422646
  0
LINE
  8
0
 62
7
  6
CONTINUOUS
 10
173.515625
 20
116.1763917857
 11
180.515625
 21
116.1763917857
  0
POLYLINE
  8
0
 62
7
  6
CONTINUOUS
 66
1
 70
0
  0
VERTEX
  8
0
 62
7
  6
CONTINUOUS
 10
188.522080597
 20
111.7736911612
  0
VERTEX
  8
0
 62
7
  6
CONTINUOUS
 10
188.5213433604
 20
111.7737840753
  0
VERTEX
  8
0
 62
7
  6
CONTINUOUS
 10
188.515625
 20
111.7997306269
  0
SEQEND
  0
POLYLINE
  8
0
 62
7
  6
CONTINUOUS
 66
1
 70
0
  0
VERTEX
  8
0
 62
7
  6
CONTINUOUS
 10
164.735374765
 20
112.3237924397
  0
VERTEX
  8
0
 62
7
  6
CONTINUOUS
 10
164.7420299946
 20
112.3196768467
  0
VERTEX
  8
0
 62
7
  6
CONTINUOUS
 10
164.7832467313
 20
112.237290158
  0
VERTEX
  8
0
 62
7
  6
CONTINUOUS
 10
164.8505034363
 20
112.0506491025
  0
VERTEX
  8
0
 62
7
  6
CONTINUOUS
 10
164.9414844022
 20
111.7647272066
  0
VERTEX
  8
0
 62
7
  6
CONTINUOUS
 10
165.0530521749
 20
111.3876539957
  0
VERTEX
  8
0
 62
7
  6
CONTINUOUS
 10
165.1812273266
 20
110.9310279628
  0
VERTEX
  8
0
 62
7
  6
CONTINUOUS
 10
165.3209828362
 20
110.4111065548
  0
SEQEND
  0
POLYLINE
  8
0
 62
7
  6
CONTINUOUS
 66
1
 70
0
  0
VERTEX
  8
0
 62
7
  6
CONTINUOUS
 10
189.1959457841
 20
120.088981451
  0
VERTEX
  8
0
 62
7
  6
CONTINUOUS
 10
189.1807465637
 20
120.0868910235
  0
VERTEX
  8
0
 62
7
  6
CONTINUOUS
 10
189.0897655978
 20
120.0115441029
  0
VERTEX
  8
0
 62
7
  6
CONTINUOUS
 10
188.9781978251
 20
119.8289434938
  0
VERTEX
  8
0
 62
7
  6
CONTINUOUS
 10
188.8500226734
 20
119.5432638412
  0
VERTEX
  8
0
 62
7
  6
CONTINUOUS
 10
188.7102671638
 20
119.1635206189
  0
SEQEND
  0
POLYLINE
  8
0
 62
7
  6
CONTINUOUS
 66
1
 70
0
  0
VERTEX
  8
0
 62
7
  6
CONTINUOUS
 10
188.5363203311
 20
118.7380980034
  0
VERTEX
  8
0
 62
7
  6
CONTINUOUS
 10
188.5381490334
 20
118.7382686085
  0
VERTEX
  8
0
 62
7
  6
CONTINUOUS
 10
188.5213433604
 20
118.7577195315
  0
VERTEX
  8
0
 62
7
  6
CONTINUOUS
 10
188.515625
 20
118.8215049054
  0
SEQEND
  0
LINE
  8
0
 62
7
  6
CONTINUOUS
 10
188.5364973319
 20
118.7380980026
 11
165.4947526681
 21
118.7380980026
  0
LINE
  8
0
 62
7
  6
CONTINUOUS
 10
173.515625
 20
120.20320313
 11
180.515625
 21
120.20320313
  0
POLYLINE
  8
0
 62
7
  6
CONTINUOUS
 66
1
 70
0
  0
VERTEX
  8
0
 62
7
  6
CONTINUOUS
 10
165.4949296689
 20
118.7380980034
  0
VERTEX
  8
0
 62
7
  6
CONTINUOUS
 10
165.4931009666
 20
118.7382686085
  0
VERTEX
  8
0
 62
7
  6
CONTINUOUS
 10
165.5099066396
 20
118.7577195315
  0
VERTEX
  8
0
 62
7
  6
CONTINUOUS
 10
165.515625
 20
118.8215049054
  0
SEQEND
  0
POLYLINE
  8
0
 62
7
  6
CONTINUOUS
 66
1
 70
0
  0
VERTEX
  8
0
 62
7
  6
CONTINUOUS
 10
164.8353042159
 20
120.088981451
  0
VERTEX
  8
0
 62
7
  6
CONTINUOUS
 10
164.8505034363
 20
120.0868910235
  0
VERTEX
  8
0
 62
7
  6
CONTINUOUS
 10
164.9414844022
 20
120.0115441029
  0
VERTEX
  8
0
 62
7
  6
CONTINUOUS
 10
165.0530521749
 20
119.8289434938
  0
VERTEX
  8
0
 62
7
  6
CONTINUOUS
 10
165.1812273266
 20
119.5432638412
  0
VERTEX
  8
0
 62
7
  6
CONTINUOUS
 10
165.3209828362
 20
119.1635206189
  0
SEQEND
  0
POLYLINE
  8
0
 62
7
  6
CONTINUOUS
 66
1
 70
0
  0
VERTEX
  8
0
 62
7
  6
CONTINUOUS
 10
164.7559693548
 20
113.9193582001
  0
VERTEX
  8
0
 62
7
  6
CONTINUOUS
 10
164.7832467313
 20
113.9012846996
  0
VERTEX
  8
0
 62
7
  6
CONTINUOUS
 10
164.8505034363
 20
113.786135452
  0
VERTEX
  8
0
 62
7
  6
CONTINUOUS
 10
164.9414844022
 20
113.5670593916
  0
VERTEX
  8
0
 62
7
  6
CONTINUOUS
 10
165.0530521749
 20
113.2497530222
  0
VERTEX
  8
0
 62
7
  6
CONTINUOUS
 10
165.1812273266
 20
112.8434846084
  0
VERTEX
  8
0
 62
7
  6
CONTINUOUS
 10
165.3209828362
 20
112.3623245068
  0
SEQEND
  0
POLYLINE
  8
0
 62
7
  6
CONTINUOUS
 66
1
 70
0
  0
VERTEX
  8
0
 62
7
  6
CONTINUOUS
 10
164.7894833761
 20
116.5226019432
  0
VERTEX
  8
0
 62
7
  6
CONTINUOUS
 10
164.8505034363
 20
116.4802484324
  0
VERTEX
  8
0
 62
7
  6
CONTINUOUS
 10
164.9414844022
 20
116.3317666597
  0
VERTEX
  8
0
 62
7
  6
CONTINUOUS
 10
165.0530521749
 20
116.0796563316
  0
VERTEX
  8
0
 62
7
  6
CONTINUOUS
 10
165.1812273266
 20
115.7306969022
  0
VERTEX
  8
0
 62
7
  6
CONTINUOUS
 10
165.3209828362
 20
115.2965308898
  0
SEQEND
  0
POLYLINE
  8
0
 62
7
  6
CONTINUOUS
 66
1
 70
0
  0
VERTEX
  8
0
 62
7
  6
CONTINUOUS
 10
165.509169175
 20
227.8513088388
  0
VERTEX
  8
0
 62
7
  6
CONTINUOUS
 10
165.4972494429
 20
227.8384714888
  0
VERTEX
  8
0
 62
7
  6
CONTINUOUS
 10
165.4753290448
 20
227.7888645405
  0
VERTEX
  8
0
 62
7
  6
CONTINUOUS
 10
165.4466213072
 20
227.7047099034
  0
VERTEX
  8
0
 62
7
  6
CONTINUOUS
 10
165.4132101749
 20
227.5918032234
  0
SEQEND
  0
POLYLINE
  8
0
 62
7
  6
CONTINUOUS
 66
1
 70
0
  0
VERTEX
  8
0
 62
7
  6
CONTINUOUS
 10
165.4949345727
 20
220.8869019972
  0
VERTEX
  8
0
 62
7
  6
CONTINUOUS
 10
165.4753290448
 20
220.8721724021
  0
VERTEX
  8
0
 62
7
  6
CONTINUOUS
 10
165.4466213072
 20
220.8198069714
  0
VERTEX
  8
0
 62
7
  6
CONTINUOUS
 10
165.4132101749
 20
220.7326585253
  0
SEQEND
  0
POLYLINE
  8
0
 62
7
  6
CONTINUOUS
 66
1
 70
0
  0
VERTEX
  8
0
 62
7
  6
CONTINUOUS
 10
165.4850887697
 20
216.0729042179
  0
VERTEX
  8
0
 62
7
  6
CONTINUOUS
 10
165.4753290448
 20
216.0697473494
  0
VERTEX
  8
0
 62
7
  6
CONTINUOUS
 10
165.4466213072
 20
216.0347615221
  0
VERTEX
  8
0
 62
7
  6
CONTINUOUS
 10
165.4132101749
 20
215.9628464608
  0
SEQEND
  0
LINE
  8
0
 62
7
  6
CONTINUOUS
 10
188.5464196898
 20
123.5520957807
 11
165.4848303102
 21
123.5520957807
  0
POLYLINE
  8
0
 62
7
  6
CONTINUOUS
 66
1
 70
0
  0
VERTEX
  8
0
 62
7
  6
CONTINUOUS
 10
164.8925026279
 20
124.5574749784
  0
VERTEX
  8
0
 62
7
  6
CONTINUOUS
 10
164.9414844022
 20
124.5434297089
  0
VERTEX
  8
0
 62
7
  6
CONTINUOUS
 10
165.0530521749
 20
124.4334631658
  0
VERTEX
  8
0
 62
7
  6
CONTINUOUS
 10
165.1812273266
 20
124.2159513482
  0
VERTEX
  8
0
 62
7
  6
CONTINUOUS
 10
165.3209828362
 20
123.8971284277
  0
SEQEND
  0
LINE
  8
0
 62
7
  6
CONTINUOUS
 10
173.515625
 20
125.078843298
 11
180.515625
 21
125.078843298
  0
POLYLINE
  8
0
 62
7
  6
CONTINUOUS
 66
1
 70
0
  0
VERTEX
  8
0
 62
7
  6
CONTINUOUS
 10
164.9599621606
 20
129.8516253611
  0
VERTEX
  8
0
 62
7
  6
CONTINUOUS
 10
165.0530521749
 20
129.8144307395
  0
VERTEX
  8
0
 62
7
  6
CONTINUOUS
 10
165.1812273266
 20
129.6688084444
  0
VERTEX
  8
0
 62
7
  6
CONTINUOUS
 10
165.3209828362
 20
129.4163609743
  0
SEQEND
  0
POLYLINE
  8
0
 62
7
  6
CONTINUOUS
 66
1
 70
0
  0
VERTEX
  8
0
 62
7
  6
CONTINUOUS
 10
189.2752828001
 20
225.7056418
  0
VERTEX
  8
0
 62
7
  6
CONTINUOUS
 10
189.2893237321
 20
225.7150502013
  0
VERTEX
  8
0
 62
7
  6
CONTINUOUS
 10
189.303125
 20
225.8116299179
  0
SEQEND
  0
POLYLINE
  8
0
 62
7
  6
CONTINUOUS
 66
1
 70
0
  0
VERTEX
  8
0
 62
7
  6
CONTINUOUS
 10
165.4736267926
 20
210.4759332377
  0
VERTEX
  8
0
 62
7
  6
CONTINUOUS
 10
165.4466213072
 20
210.4588403629
  0
VERTEX
  8
0
 62
7
  6
CONTINUOUS
 10
165.4132101749
 20
210.4033891731
  0
SEQEND
  0
POLYLINE
  8
0
 62
7
  6
CONTINUOUS
 66
1
 70
0
  0
VERTEX
  8
0
 62
7
  6
CONTINUOUS
 10
189.1387471452
 20
215.0675250216
  0
VERTEX
  8
0
 62
7
  6
CONTINUOUS
 10
189.1809831083
 20
215.080806108
  0
VERTEX
  8
0
 62
7
  6
CONTINUOUS
 10
189.2482443658
 20
215.1874556471
  0
VERTEX
  8
0
 62
7
  6
CONTINUOUS
 10
189.2893237321
 20
215.3954302234
  0
VERTEX
  8
0
 62
7
  6
CONTINUOUS
 10
189.303125
 20
215.6962707207
  0
SEQEND
  0
LINE
  8
0
 62
7
  6
CONTINUOUS
 10
188.5578792586
 20
129.1490667622
 11
165.4733707414
 21
129.1490667622
  0
LINE
  8
0
 62
7
  6
CONTINUOUS
 10
173.515625
 20
130.7198887346
 11
180.515625
 21
130.7198887346
  0
POLYLINE
  8
0
 62
7
  6
CONTINUOUS
 66
1
 70
0
  0
VERTEX
  8
0
 62
7
  6
CONTINUOUS
 10
188.5461663138
 20
123.5520957828
  0
VERTEX
  8
0
 62
7
  6
CONTINUOUS
 10
188.5381490334
 20
123.5548377583
  0
VERTEX
  8
0
 62
7
  6
CONTINUOUS
 10
188.5213433604
 20
123.5939304485
  0
VERTEX
  8
0
 62
7
  6
CONTINUOUS
 10
188.515625
 20
123.6751567015
  0
SEQEND
  0
LINE
  8
0
 62
7
  6
CONTINUOUS
 10
165.5153826116
 20
230.8945409454
 11
165.5109583701
 21
230.8832554569
  0
POLYLINE
  8
0
 62
7
  6
CONTINUOUS
 66
1
 70
0
  0
VERTEX
  8
0
 62
7
  6
CONTINUOUS
 10
189.1959483732
 20
219.5360185495
  0
VERTEX
  8
0
 62
7
  6
CONTINUOUS
 10
189.2482443658
 20
219.5709776164
  0
VERTEX
  8
0
 62
7
  6
CONTINUOUS
 10
189.2893237321
 20
219.7087742352
  0
VERTEX
  8
0
 62
7
  6
CONTINUOUS
 10
189.303125
 20
219.9451822562
  0
SEQEND
  0
POLYLINE
  8
0
 62
7
  6
CONTINUOUS
 66
1
 70
0
  0
VERTEX
  8
0
 62
7
  6
CONTINUOUS
 10
165.4607513685
 20
204.1917547779
  0
VERTEX
  8
0
 62
7
  6
CONTINUOUS
 10
165.4466213072
 20
204.1874490508
  0
VERTEX
  8
0
 62
7
  6
CONTINUOUS
 10
165.4132101749
 20
204.1494105178
  0
SEQEND
  0
POLYLINE
  8
0
 62
7
  6
CONTINUOUS
 66
1
 70
0
  0
VERTEX
  8
0
 62
7
  6
CONTINUOUS
 10
188.994817235
 20
135.8808482184
  0
VERTEX
  8
0
 62
7
  6
CONTINUOUS
 10
188.9781978251
 20
135.8797763678
  0
VERTEX
  8
0
 62
7
  6
CONTINUOUS
 10
188.8500226734
 20
135.808535233
  0
VERTEX
  8
0
 62
7
  6
CONTINUOUS
 10
188.7102671638
 20
135.6267826596
  0
SEQEND
  0
LINE
  8
0
 62
7
  6
CONTINUOUS
 10
188.5706975531
 20
135.4332452218
 11
165.4605524469
 21
135.4332452218
  0
LINE
  8
0
 62
7
  6
CONTINUOUS
 10
173.515625
 20
137.0298195886
 11
180.515625
 21
137.0298195886
  0
POLYLINE
  8
0
 62
7
  6
CONTINUOUS
 66
1
 70
0
  0
VERTEX
  8
0
 62
7
  6
CONTINUOUS
 10
165.036432765
 20
135.8808482184
  0
VERTEX
  8
0
 62
7
  6
CONTINUOUS
 10
165.0530521749
 20
135.8797763678
  0
VERTEX
  8
0
 62
7
  6
CONTINUOUS
 10
165.1812273266
 20
135.808535233
  0
VERTEX
  8
0
 62
7
  6
CONTINUOUS
 10
165.3209828362
 20
135.6267826596
  0
SEQEND
  0
POLYLINE
  8
0
 62
7
  6
CONTINUOUS
 66
1
 70
0
  0
VERTEX
  8
0
 62
7
  6
CONTINUOUS
 10
188.5282465065
 20
114.7894422646
  0
VERTEX
  8
0
 62
7
  6
CONTINUOUS
 10
188.5213433604
 20
114.7950700634
  0
VERTEX
  8
0
 62
7
  6
CONTINUOUS
 10
188.515625
 20
114.8403231728
  0
SEQEND
  0
POLYLINE
  8
0
 62
7
  6
CONTINUOUS
 66
1
 70
0
  0
VERTEX
  8
0
 62
7
  6
CONTINUOUS
 10
165.3209828362
 20
215.7278715723
  0
VERTEX
  8
0
 62
7
  6
CONTINUOUS
 10
165.1816194359
 20
215.4098328895
  0
VERTEX
  8
0
 62
7
  6
CONTINUOUS
 10
165.0533091843
 20
215.1918871772
  0
VERTEX
  8
0
 62
7
  6
CONTINUOUS
 10
164.9414426457
 20
215.0815475973
  0
VERTEX
  8
0
 62
7
  6
CONTINUOUS
 10
164.8925028548
 20
215.0675250216
  0
SEQEND
  0
POLYLINE
  8
0
 62
7
  6
CONTINUOUS
 66
1
 70
0
  0
VERTEX
  8
0
 62
7
  6
CONTINUOUS
 10
165.3209828362
 20
210.2086390257
  0
VERTEX
  8
0
 62
7
  6
CONTINUOUS
 10
165.1816194359
 20
209.9567734611
  0
VERTEX
  8
0
 62
7
  6
CONTINUOUS
 10
165.0533091843
 20
209.8107626562
  0
VERTEX
  8
0
 62
7
  6
CONTINUOUS
 10
164.9599628943
 20
209.7733746388
  0
SEQEND
  0
POLYLINE
  8
0
 62
7
  6
CONTINUOUS
 66
1
 70
0
  0
VERTEX
  8
0
 62
7
  6
CONTINUOUS
 10
165.3209828362
 20
203.9982173404
  0
VERTEX
  8
0
 62
7
  6
CONTINUOUS
 10
165.1816194359
 20
203.8168343836
  0
VERTEX
  8
0
 62
7
  6
CONTINUOUS
 10
165.0533091843
 20
203.7452567716
  0
VERTEX
  8
0
 62
7
  6
CONTINUOUS
 10
165.0364370962
 20
203.7441517807
  0
SEQEND
  0
POLYLINE
  8
0
 62
7
  6
CONTINUOUS
 66
1
 70
0
  0
VERTEX
  8
0
 62
7
  6
CONTINUOUS
 10
165.3209828362
 20
197.2028685534
  0
VERTEX
  8
0
 62
7
  6
CONTINUOUS
 10
165.1816194359
 20
197.095071717
  0
VERTEX
  8
0
 62
7
  6
CONTINUOUS
 10
165.1204832484
 20
197.0830181165
  0
SEQEND
  0
LINE
  8
0
 62
7
  6
CONTINUOUS
 10
165.4466692322
 20
197.3278928763
 11
165.4132101749
 21
197.3079178035
  0
POLYLINE
  8
0
 62
7
  6
CONTINUOUS
 66
1
 70
0
  0
VERTEX
  8
0
 62
7
  6
CONTINUOUS
 10
188.9107702675
 20
142.5419818835
  0
VERTEX
  8
0
 62
7
  6
CONTINUOUS
 10
188.8500226734
 20
142.5300792865
  0
VERTEX
  8
0
 62
7
  6
CONTINUOUS
 10
188.7102671638
 20
142.4221314466
  0
SEQEND
  0
POLYLINE
  8
0
 62
7
  6
CONTINUOUS
 66
1
 70
0
  0
VERTEX
  8
0
 62
7
  6
CONTINUOUS
 10
165.1204797325
 20
142.5419818835
  0
VERTEX
  8
0
 62
7
  6
CONTINUOUS
 10
165.1812273266
 20
142.5300792865
  0
VERTEX
  8
0
 62
7
  6
CONTINUOUS
 10
165.3209828362
 20
142.4221314466
  0
SEQEND
  0
LINE
  8
0
 62
7
  6
CONTINUOUS
 10
165.4132101749
 20
142.3170821965
 11
165.44667835
 21
142.2971071238
  0
POLYLINE
  8
0
 62
7
  6
CONTINUOUS
 66
1
 70
0
  0
VERTEX
  8
0
 62
7
  6
CONTINUOUS
 10
165.4132101749
 20
135.4755894822
  0
VERTEX
  8
0
 62
7
  6
CONTINUOUS
 10
165.4500378726
 20
135.4357660192
  0
VERTEX
  8
0
 62
7
  6
CONTINUOUS
 10
165.4607557074
 20
135.4332452231
  0
SEQEND
  0
POLYLINE
  8
0
 62
7
  6
CONTINUOUS
 66
1
 70
0
  0
VERTEX
  8
0
 62
7
  6
CONTINUOUS
 10
165.4132101749
 20
129.2216108269
  0
VERTEX
  8
0
 62
7
  6
CONTINUOUS
 10
165.4500378726
 20
129.1623886975
  0
VERTEX
  8
0
 62
7
  6
CONTINUOUS
 10
165.4736297649
 20
129.149066765
  0
SEQEND
  0
POLYLINE
  8
0
 62
7
  6
CONTINUOUS
 66
1
 70
0
  0
VERTEX
  8
0
 62
7
  6
CONTINUOUS
 10
165.4132101749
 20
123.6621535392
  0
VERTEX
  8
0
 62
7
  6
CONTINUOUS
 10
165.4500378726
 20
123.5845460506
  0
VERTEX
  8
0
 62
7
  6
CONTINUOUS
 10
165.4808801695
 20
123.5527216963
  0
VERTEX
  8
0
 62
7
  6
CONTINUOUS
 10
165.4850836862
 20
123.5520957828
  0
SEQEND
  0
POLYLINE
  8
0
 62
7
  6
CONTINUOUS
 66
1
 70
0
  0
VERTEX
  8
0
 62
7
  6
CONTINUOUS
 10
165.4132101749
 20
118.8923414747
  0
VERTEX
  8
0
 62
7
  6
CONTINUOUS
 10
165.4500378726
 20
118.7976765125
  0
VERTEX
  8
0
 62
7
  6
CONTINUOUS
 10
165.4808801695
 20
118.7462606547
  0
VERTEX
  8
0
 62
7
  6
CONTINUOUS
 10
165.4949296689
 20
118.7380980034
  0
SEQEND
  0
POLYLINE
  8
0
 62
7
  6
CONTINUOUS
 66
1
 70
0
  0
VERTEX
  8
0
 62
7
  6
CONTINUOUS
 10
165.4132101749
 20
227.1543959062
  0
VERTEX
  8
0
 62
7
  6
CONTINUOUS
 10
165.4500378726
 20
227.3107790924
  0
VERTEX
  8
0
 62
7
  6
CONTINUOUS
 10
165.4808801695
 20
227.4584849355
  0
VERTEX
  8
0
 62
7
  6
CONTINUOUS
 10
165.4931009666
 20
227.5243728593
  0
VERTEX
  8
0
 62
7
  6
CONTINUOUS
 10
165.5099066396
 20
227.6329282589
  0
VERTEX
  8
0
 62
7
  6
CONTINUOUS
 10
165.515625
 20
227.7034226537
  0
SEQEND
  0
POLYLINE
  8
0
 62
7
  6
CONTINUOUS
 66
1
 70
0
  0
VERTEX
  8
0
 62
7
  6
CONTINUOUS
 10
165.4500378726
 20
230.5752648347
  0
VERTEX
  8
0
 62
7
  6
CONTINUOUS
 10
165.4808801695
 20
230.7053771291
  0
VERTEX
  8
0
 62
7
  6
CONTINUOUS
 10
165.4931009666
 20
230.7585419905
  0
VERTEX
  8
0
 62
7
  6
CONTINUOUS
 10
165.5099066396
 20
230.8354939207
  0
VERTEX
  8
0
 62
7
  6
CONTINUOUS
 10
165.515625
 20
230.8687771976
  0
SEQEND
  0
POLYLINE
  8
0
 62
7
  6
CONTINUOUS
 66
1
 70
0
  0
VERTEX
  8
0
 62
7
  6
CONTINUOUS
 10
165.4132101749
 20
229.2982996358
  0
VERTEX
  8
0
 62
7
  6
CONTINUOUS
 10
165.4500378726
 20
229.4532569067
  0
VERTEX
  8
0
 62
7
  6
CONTINUOUS
 10
165.4808801695
 20
229.5933646163
  0
VERTEX
  8
0
 62
7
  6
CONTINUOUS
 10
165.4931009666
 20
229.6534046598
  0
VERTEX
  8
0
 62
7
  6
CONTINUOUS
 10
165.5099066396
 20
229.7469586924
  0
VERTEX
  8
0
 62
7
  6
CONTINUOUS
 10
165.515625
 20
229.799295275
  0
SEQEND
  0
LINE
  8
0
 62
7
  6
CONTINUOUS
 10
165.4132101749
 20
229.2982996358
 11
165.3209828362
 21
228.9229838323
  0
LINE
  8
0
 62
7
  6
CONTINUOUS
 10
165.4500378726
 20
230.5752648347
 11
165.1812273266
 21
229.4809659634
  0
LINE
  8
0
 62
7
  6
CONTINUOUS
 10
165.4132101749
 20
227.1543959062
 11
165.3209828362
 21
226.7833599153
  0
LINE
  8
0
 62
7
  6
CONTINUOUS
 10
164.515625
 20
227.0125
 11
164.728125
 21
227.8625
  0
LINE
  8
0
 62
7
  6
CONTINUOUS
 10
165.4132101749
 20
224.0293564396
 11
165.3209828362
 21
223.6689487898
  0
POLYLINE
  8
0
 62
7
  6
CONTINUOUS
 66
1
 70
0
  0
VERTEX
  8
0
 62
7
  6
CONTINUOUS
 10
165.1816194359
 20
229.6004849155
  0
VERTEX
  8
0
 62
7
  6
CONTINUOUS
 10
165.0533091843
 20
229.1007756709
  0
VERTEX
  8
0
 62
7
  6
CONTINUOUS
 10
164.9414426457
 20
228.6692311626
  0
SEQEND
  0
LINE
  8
0
 62
7
  6
CONTINUOUS
 10
165.3209828362
 20
229.2138934452
 11
165.4132101749
 21
229.5637739897
  0
POLYLINE
  8
0
 62
7
  6
CONTINUOUS
 66
1
 70
0
  0
VERTEX
  8
0
 62
7
  6
CONTINUOUS
 10
164.9414426457
 20
228.6692311626
  0
VERTEX
  8
0
 62
7
  6
CONTINUOUS
 10
164.7830056342
 20
228.0656673238
  0
VERTEX
  8
0
 62
7
  6
CONTINUOUS
 10
164.7419262679
 20
227.9116597546
  0
VERTEX
  8
0
 62
7
  6
CONTINUOUS
 10
164.7281340819
 20
227.8617947633
  0
SEQEND
  0
POLYLINE
  8
0
 62
7
  6
CONTINUOUS
 66
1
 70
0
  0
VERTEX
  8
0
 62
7
  6
CONTINUOUS
 10
165.3209828362
 20
229.2138934452
  0
VERTEX
  8
0
 62
7
  6
CONTINUOUS
 10
165.1816194359
 20
228.69540057
  0
VERTEX
  8
0
 62
7
  6
CONTINUOUS
 10
165.0533091843
 20
228.2382391387
  0
VERTEX
  8
0
 62
7
  6
CONTINUOUS
 10
164.9414426457
 20
227.8601362426
  0
VERTEX
  8
0
 62
7
  6
CONTINUOUS
 10
164.8502668917
 20
227.5736454025
  0
VERTEX
  8
0
 62
7
  6
CONTINUOUS
 10
164.7830056342
 20
227.3871132631
  0
VERTEX
  8
0
 62
7
  6
CONTINUOUS
 10
164.7419262679
 20
227.3052131086
  0
VERTEX
  8
0
 62
7
  6
CONTINUOUS
 10
164.7353730113
 20
227.3012075616
  0
SEQEND
  0
LINE
  8
0
 62
7
  6
CONTINUOUS
 10
165.3209828362
 20
227.2626754932
 11
165.4132101749
 21
227.5918032234
  0
POLYLINE
  8
0
 62
7
  6
CONTINUOUS
 66
1
 70
0
  0
VERTEX
  8
0
 62
7
  6
CONTINUOUS
 10
165.5109583701
 20
230.8832554569
  0
VERTEX
  8
0
 62
7
  6
CONTINUOUS
 10
165.4972494429
 20
230.8359680412
  0
VERTEX
  8
0
 62
7
  6
CONTINUOUS
 10
165.4753290448
 20
230.754563246
  0
VERTEX
  8
0
 62
7
  6
CONTINUOUS
 10
165.4466213072
 20
230.6443544018
  0
VERTEX
  8
0
 62
7
  6
CONTINUOUS
 10
165.1816194359
 20
229.6004849155
  0
SEQEND
  0
POLYLINE
  8
0
 62
7
  6
CONTINUOUS
 66
1
 70
0
  0
VERTEX
  8
0
 62
7
  6
CONTINUOUS
 10
165.3209828362
 20
227.2626754932
  0
VERTEX
  8
0
 62
7
  6
CONTINUOUS
 10
165.1816194359
 20
226.7828134704
  0
VERTEX
  8
0
 62
7
  6
CONTINUOUS
 10
165.0533091843
 20
226.3760220112
  0
VERTEX
  8
0
 62
7
  6
CONTINUOUS
 10
164.9414426457
 20
226.0578301726
  0
VERTEX
  8
0
 62
7
  6
CONTINUOUS
 10
164.8502668917
 20
225.8383660089
  0
VERTEX
  8
0
 62
7
  6
CONTINUOUS
 10
164.7830056342
 20
225.7234416067
  0
VERTEX
  8
0
 62
7
  6
CONTINUOUS
 10
164.7559671999
 20
225.7056418
  0
SEQEND
  0
LINE
  8
0
 62
7
  6
CONTINUOUS
 10
165.3209828362
 20
224.3284691102
 11
165.4132101749
 21
224.6312125596
  0
POLYLINE
  8
0
 62
7
  6
CONTINUOUS
 66
1
 70
0
  0
VERTEX
  8
0
 62
7
  6
CONTINUOUS
 10
165.3209828362
 20
224.3284691102
  0
VERTEX
  8
0
 62
7
  6
CONTINUOUS
 10
165.1816194359
 20
223.8954485122
  0
VERTEX
  8
0
 62
7
  6
CONTINUOUS
 10
165.0533091843
 20
223.5459873397
  0
VERTEX
  8
0
 62
7
  6
CONTINUOUS
 10
164.9414426457
 20
223.2931509092
  0
VERTEX
  8
0
 62
7
  6
CONTINUOUS
 10
164.8502668917
 20
223.1444685147
  0
VERTEX
  8
0
 62
7
  6
CONTINUOUS
 10
164.7894810029
 20
223.1023980578
  0
SEQEND
  0
LINE
  8
0
 62
7
  6
CONTINUOUS
 10
165.3209828362
 20
220.4614793811
 11
165.4132101749
 21
220.7326585253
  0
POLYLINE
  8
0
 62
7
  6
CONTINUOUS
 66
1
 70
0
  0
VERTEX
  8
0
 62
7
  6
CONTINUOUS
 10
165.3209828362
 20
220.4614793811
  0
VERTEX
  8
0
 62
7
  6
CONTINUOUS
 10
165.1816194359
 20
220.0827093103
  0
VERTEX
  8
0
 62
7
  6
CONTINUOUS
 10
165.0533091843
 20
219.796557802
  0
VERTEX
  8
0
 62
7
  6
CONTINUOUS
 10
164.9414426457
 20
219.6134028811
  0
VERTEX
  8
0
 62
7
  6
CONTINUOUS
 10
164.8502668917
 20
219.5380462528
  0
VERTEX
  8
0
 62
7
  6
CONTINUOUS
 10
164.8353016268
 20
219.5360185495
  0
SEQEND
  0
LINE
  8
0
 62
7
  6
CONTINUOUS
 10
165.3209828362
 20
215.7278715723
 11
165.4132101749
 21
215.9628464608
  0
LINE
  8
0
 62
7
  6
CONTINUOUS
 10
165.3209828362
 20
210.2086390257
 11
165.4132101749
 21
210.4033891731
  0
LINE
  8
0
 62
7
  6
CONTINUOUS
 10
165.3209828362
 20
203.9982173404
 11
165.4132101749
 21
204.1494105178
  0
LINE
  8
0
 62
7
  6
CONTINUOUS
 10
165.3209828362
 20
197.2028685534
 11
165.4132101749
 21
197.3079178035
  0
POLYLINE
  8
0
 62
7
  6
CONTINUOUS
 66
1
 70
0
  0
VERTEX
  8
0
 62
7
  6
CONTINUOUS
 10
188.9948129038
 20
203.7441517807
  0
VERTEX
  8
0
 62
7
  6
CONTINUOUS
 10
189.0898073543
 20
203.7849335024
  0
VERTEX
  8
0
 62
7
  6
CONTINUOUS
 10
189.1809831083
 20
203.9321834494
  0
VERTEX
  8
0
 62
7
  6
CONTINUOUS
 10
189.2482443658
 20
204.1795648144
  0
VERTEX
  8
0
 62
7
  6
CONTINUOUS
 10
189.2893237321
 20
204.5160799203
  0
VERTEX
  8
0
 62
7
  6
CONTINUOUS
 10
189.303125
 20
204.9293285946
  0
SEQEND
  0
LINE
  8
0
 62
7
  6
CONTINUOUS
 10
188.5846819233
 20
142.2971071237
 11
165.4465680767
 21
142.2971071237
  0
LINE
  8
0
 62
7
  6
CONTINUOUS
 10
173.515625
 20
143.9006711934
 11
180.515625
 21
143.9006711934
  0
POLYLINE
  8
0
 62
7
  6
CONTINUOUS
 66
1
 70
0
  0
VERTEX
  8
0
 62
7
  6
CONTINUOUS
 10
188.5704942926
 20
135.4332452231
  0
VERTEX
  8
0
 62
7
  6
CONTINUOUS
 10
188.5503698305
 20
135.4444137096
  0
VERTEX
  8
0
 62
7
  6
CONTINUOUS
 10
188.5381490334
 20
135.4664650355
  0
VERTEX
  8
0
 62
7
  6
CONTINUOUS
 10
188.5213433604
 20
135.5425099687
  0
VERTEX
  8
0
 62
7
  6
CONTINUOUS
 10
188.515625
 20
135.6541739303
  0
SEQEND
  0
POLYLINE
  8
0
 62
7
  6
CONTINUOUS
 66
1
 70
0
  0
VERTEX
  8
0
 62
7
  6
CONTINUOUS
 10
188.5576202351
 20
129.149066765
  0
VERTEX
  8
0
 62
7
  6
CONTINUOUS
 10
188.5381490334
 20
129.162888334
  0
VERTEX
  8
0
 62
7
  6
CONTINUOUS
 10
188.5213433604
 20
129.2209539047
  0
VERTEX
  8
0
 62
7
  6
CONTINUOUS
 10
188.515625
 20
129.318231233
  0
SEQEND
  0
LINE
  8
0
 62
7
  6
CONTINUOUS
 10
165.4132101749
 20
142.3170821965
 11
165.3209828362
 21
142.4221314466
  0
LINE
  8
0
 62
7
  6
CONTINUOUS
 10
165.4132101749
 20
135.4755894822
 11
165.3209828362
 21
135.6267826596
  0
LINE
  8
0
 62
7
  6
CONTINUOUS
 10
165.4132101749
 20
129.2216108269
 11
165.3209828362
 21
129.4163609743
  0
LINE
  8
0
 62
7
  6
CONTINUOUS
 10
165.4132101749
 20
123.6621535392
 11
165.3209828362
 21
123.8971284277
  0
LINE
  8
0
 62
7
  6
CONTINUOUS
 10
165.4132101749
 20
118.8923414747
 11
165.3209828362
 21
119.1635206189
  0
POLYLINE
  8
0
 62
7
  6
CONTINUOUS
 66
1
 70
0
  0
VERTEX
  8
0
 62
7
  6
CONTINUOUS
 10
165.4132101749
 20
114.9937874404
  0
VERTEX
  8
0
 62
7
  6
CONTINUOUS
 10
165.4500378726
 20
114.8836847483
  0
VERTEX
  8
0
 62
7
  6
CONTINUOUS
 10
165.4808801695
 20
114.8135571265
  0
VERTEX
  8
0
 62
7
  6
CONTINUOUS
 10
165.4931009666
 20
114.7955937184
  0
VERTEX
  8
0
 62
7
  6
CONTINUOUS
 10
165.5030034935
 20
114.7894422646
  0
SEQEND
  0
LINE
  8
0
 62
7
  6
CONTINUOUS
 10
165.4132101749
 20
114.9937874404
 11
165.3209828362
 21
115.2965308898
  0
POLYLINE
  8
0
 62
7
  6
CONTINUOUS
 66
1
 70
0
  0
VERTEX
  8
0
 62
7
  6
CONTINUOUS
 10
165.4132101749
 20
112.0331967766
  0
VERTEX
  8
0
 62
7
  6
CONTINUOUS
 10
165.4500378726
 20
111.9095402422
  0
VERTEX
  8
0
 62
7
  6
CONTINUOUS
 10
165.4808801695
 20
111.8219007595
  0
VERTEX
  8
0
 62
7
  6
CONTINUOUS
 10
165.4931009666
 20
111.7942733483
  0
VERTEX
  8
0
 62
7
  6
CONTINUOUS
 10
165.509169403
 20
111.7736911612
  0
SEQEND
  0
POLYLINE
  8
0
 62
7
  6
CONTINUOUS
 66
1
 70
0
  0
VERTEX
  8
0
 62
7
  6
CONTINUOUS
 10
165.4931009666
 20
108.8041243547
  0
VERTEX
  8
0
 62
7
  6
CONTINUOUS
 10
165.5099066396
 20
108.7450911958
  0
VERTEX
  8
0
 62
7
  6
CONTINUOUS
 10
165.5153831031
 20
108.7304590556
  0
SEQEND
  0
LINE
  8
0
 62
7
  6
CONTINUOUS
 10
165.4132101749
 20
112.0331967766
 11
165.3209828362
 21
112.3623245068
  0
LINE
  8
0
 62
7
  6
CONTINUOUS
 10
164.72813468
 20
111.7632052368
 11
164.7420299946
 21
111.7129553463
  0
POLYLINE
  8
0
 62
7
  6
CONTINUOUS
 66
1
 70
0
  0
VERTEX
  8
0
 62
7
  6
CONTINUOUS
 10
165.4132101749
 20
110.0612260103
  0
VERTEX
  8
0
 62
7
  6
CONTINUOUS
 10
165.4500378726
 20
109.9261314312
  0
VERTEX
  8
0
 62
7
  6
CONTINUOUS
 10
165.4808801695
 20
109.8224796235
  0
VERTEX
  8
0
 62
7
  6
CONTINUOUS
 10
165.4931009666
 20
109.7856609219
  0
VERTEX
  8
0
 62
7
  6
CONTINUOUS
 10
165.5099066396
 20
109.745556608
  0
VERTEX
  8
0
 62
7
  6
CONTINUOUS
 10
165.5133178774
 20
109.7424450302
  0
SEQEND
  0
POLYLINE
  8
0
 62
7
  6
CONTINUOUS
 66
1
 70
0
  0
VERTEX
  8
0
 62
7
  6
CONTINUOUS
 10
164.7420299946
 20
111.7129553463
  0
VERTEX
  8
0
 62
7
  6
CONTINUOUS
 10
164.8505034363
 20
111.3034840365
  0
VERTEX
  8
0
 62
7
  6
CONTINUOUS
 10
164.9414844022
 20
110.9556085079
  0
VERTEX
  8
0
 62
7
  6
CONTINUOUS
 10
165.0530521749
 20
110.5252202828
  0
VERTEX
  8
0
 62
7
  6
CONTINUOUS
 10
165.1812273266
 20
110.0260496288
  0
SEQEND
  0
LINE
  8
0
 62
7
  6
CONTINUOUS
 10
165.4132101749
 20
110.0612260103
 11
165.3209828362
 21
110.4111065548
  0
POLYLINE
  8
0
 62
7
  6
CONTINUOUS
 66
1
 70
0
  0
VERTEX
  8
0
 62
7
  6
CONTINUOUS
 10
165.4500378726
 20
108.9673949902
  0
VERTEX
  8
0
 62
7
  6
CONTINUOUS
 10
165.4808801695
 20
108.8495043685
  0
VERTEX
  8
0
 62
7
  6
CONTINUOUS
 10
165.4931009666
 20
108.8041243547
  0
SEQEND
  0
LINE
  8
0
 62
7
  6
CONTINUOUS
 10
165.3209828362
 20
115.9560512102
 11
165.4132101749
 21
115.5956435604
  0
LINE
  8
0
 62
7
  6
CONTINUOUS
 10
165.4500378726
 20
108.9673949902
 11
165.1812273266
 21
110.0260496288
  0
LINE
  8
0
 62
7
  6
CONTINUOUS
 10
164.515625
 20
112.6125
 11
164.728125
 21
111.7625
  0
LINE
  8
0
 62
7
  6
CONTINUOUS
 10
165.3209828362
 20
112.8416400847
 11
165.4132101749
 21
112.4706040938
  0
LINE
  8
0
 62
7
  6
CONTINUOUS
 10
165.3209828362
 20
110.7020161677
 11
165.4132101749
 21
110.3267003642
  0
POLYLINE
  8
0
 62
7
  6
CONTINUOUS
 66
1
 70
0
  0
VERTEX
  8
0
 62
7
  6
CONTINUOUS
 10
165.1816194359
 20
110.1424197374
  0
VERTEX
  8
0
 62
7
  6
CONTINUOUS
 10
165.0533091843
 20
110.6761266314
  0
VERTEX
  8
0
 62
7
  6
CONTINUOUS
 10
164.9414426457
 20
111.1537289058
  0
VERTEX
  8
0
 62
7
  6
CONTINUOUS
 10
164.8502668917
 20
111.5585043142
  0
VERTEX
  8
0
 62
7
  6
CONTINUOUS
 10
164.7830056342
 20
111.8775064593
  0
VERTEX
  8
0
 62
7
  6
CONTINUOUS
 10
164.7419262679
 20
112.100986331
  0
VERTEX
  8
0
 62
7
  6
CONTINUOUS
 10
164.728125
 20
112.2233707816
  0
SEQEND
  0
POLYLINE
  8
0
 62
7
  6
CONTINUOUS
 66
1
 70
0
  0
VERTEX
  8
0
 62
7
  6
CONTINUOUS
 10
165.3209828362
 20
110.7020161677
  0
VERTEX
  8
0
 62
7
  6
CONTINUOUS
 10
165.1816194359
 20
111.2812960072
  0
VERTEX
  8
0
 62
7
  6
CONTINUOUS
 10
165.0533091843
 20
111.8398686778
  0
VERTEX
  8
0
 62
7
  6
CONTINUOUS
 10
164.9414426457
 20
112.3553568108
  0
VERTEX
  8
0
 62
7
  6
CONTINUOUS
 10
164.8502668917
 20
112.8093662293
  0
VERTEX
  8
0
 62
7
  6
CONTINUOUS
 10
164.7830056342
 20
113.1869640444
  0
VERTEX
  8
0
 62
7
  6
CONTINUOUS
 10
164.7419262679
 20
113.4760924161
  0
VERTEX
  8
0
 62
7
  6
CONTINUOUS
 10
164.728125
 20
113.6689369495
  0
SEQEND
  0
POLYLINE
  8
0
 62
7
  6
CONTINUOUS
 66
1
 70
0
  0
VERTEX
  8
0
 62
7
  6
CONTINUOUS
 10
165.3209828362
 20
112.8416400847
  0
VERTEX
  8
0
 62
7
  6
CONTINUOUS
 10
165.1816194359
 20
113.4216574052
  0
VERTEX
  8
0
 62
7
  6
CONTINUOUS
 10
165.0533091843
 20
113.9955385192
  0
VERTEX
  8
0
 62
7
  6
CONTINUOUS
 10
164.9414426457
 20
114.5400923659
  0
VERTEX
  8
0
 62
7
  6
CONTINUOUS
 10
164.8502668917
 20
115.0355675676
  0
VERTEX
  8
0
 62
7
  6
CONTINUOUS
 10
164.7830056342
 20
115.4653002493
  0
VERTEX
  8
0
 62
7
  6
CONTINUOUS
 10
164.7419262679
 20
115.8151300543
  0
VERTEX
  8
0
 62
7
  6
CONTINUOUS
 10
164.728125
 20
116.0751350471
  0
SEQEND
  0
POLYLINE
  8
0
 62
7
  6
CONTINUOUS
 66
1
 70
0
  0
VERTEX
  8
0
 62
7
  6
CONTINUOUS
 10
165.4132101749
 20
224.0293564396
  0
VERTEX
  8
0
 62
7
  6
CONTINUOUS
 10
165.4500378726
 20
224.1844897814
  0
VERTEX
  8
0
 62
7
  6
CONTINUOUS
 10
165.4808801695
 20
224.3372664701
  0
VERTEX
  8
0
 62
7
  6
CONTINUOUS
 10
165.4931009666
 20
224.4078749135
  0
VERTEX
  8
0
 62
7
  6
CONTINUOUS
 10
165.5099066396
 20
224.529574267
  0
VERTEX
  8
0
 62
7
  6
CONTINUOUS
 10
165.515625
 20
224.6170202954
  0
SEQEND
  0
POLYLINE
  8
0
 62
7
  6
CONTINUOUS
 66
1
 70
0
  0
VERTEX
  8
0
 62
7
  6
CONTINUOUS
 10
165.4132101749
 20
219.9766515275
  0
VERTEX
  8
0
 62
7
  6
CONTINUOUS
 10
165.4500378726
 20
220.1278806504
  0
VERTEX
  8
0
 62
7
  6
CONTINUOUS
 10
165.4808801695
 20
220.2831141331
  0
VERTEX
  8
0
 62
7
  6
CONTINUOUS
 10
165.4931009666
 20
220.3572349661
  0
VERTEX
  8
0
 62
7
  6
CONTINUOUS
 10
165.5099066396
 20
220.489995964
  0
VERTEX
  8
0
 62
7
  6
CONTINUOUS
 10
165.515625
 20
220.5928974002
  0
SEQEND
  0
POLYLINE
  8
0
 62
7
  6
CONTINUOUS
 66
1
 70
0
  0
VERTEX
  8
0
 62
7
  6
CONTINUOUS
 10
165.4132101749
 20
215.0656240746
  0
VERTEX
  8
0
 62
7
  6
CONTINUOUS
 10
165.4500378726
 20
215.2103614064
  0
VERTEX
  8
0
 62
7
  6
CONTINUOUS
 10
165.4808801695
 20
215.3653955953
  0
VERTEX
  8
0
 62
7
  6
CONTINUOUS
 10
165.4931009666
 20
215.4417605899
  0
VERTEX
  8
0
 62
7
  6
CONTINUOUS
 10
165.5099066396
 20
215.5833116546
  0
VERTEX
  8
0
 62
7
  6
CONTINUOUS
 10
165.515625
 20
215.6999078264
  0
SEQEND
  0
LINE
  8
0
 62
7
  6
CONTINUOUS
 10
165.4132101749
 20
219.9766515275
 11
165.3209828362
 21
219.6330388937
  0
POLYLINE
  8
0
 62
7
  6
CONTINUOUS
 66
1
 70
0
  0
VERTEX
  8
0
 62
7
  6
CONTINUOUS
 10
165.4132101749
 20
209.3803031223
  0
VERTEX
  8
0
 62
7
  6
CONTINUOUS
 10
165.4500378726
 20
209.5160721671
  0
VERTEX
  8
0
 62
7
  6
CONTINUOUS
 10
165.4808801695
 20
209.6682543842
  0
VERTEX
  8
0
 62
7
  6
CONTINUOUS
 10
165.4931009666
 20
209.7455569142
  0
VERTEX
  8
0
 62
7
  6
CONTINUOUS
 10
165.5099066396
 20
209.8934760677
  0
VERTEX
  8
0
 62
7
  6
CONTINUOUS
 10
165.515625
 20
210.0217719824
  0
SEQEND
  0
LINE
  8
0
 62
7
  6
CONTINUOUS
 10
165.4132101749
 20
215.0656240746
 11
165.3209828362
 21
214.7446857643
  0
POLYLINE
  8
0
 62
7
  6
CONTINUOUS
 66
1
 70
0
  0
VERTEX
  8
0
 62
7
  6
CONTINUOUS
 10
165.4132101749
 20
203.0179660883
  0
VERTEX
  8
0
 62
7
  6
CONTINUOUS
 10
165.4500378726
 20
203.1424438001
  0
VERTEX
  8
0
 62
7
  6
CONTINUOUS
 10
165.4808801695
 20
203.2891701655
  0
VERTEX
  8
0
 62
7
  6
CONTINUOUS
 10
165.4931009666
 20
203.3660875631
  0
VERTEX
  8
0
 62
7
  6
CONTINUOUS
 10
165.5099066396
 20
203.5178438678
  0
VERTEX
  8
0
 62
7
  6
CONTINUOUS
 10
165.515625
 20
203.6556443466
  0
SEQEND
  0
LINE
  8
0
 62
7
  6
CONTINUOUS
 10
165.4132101749
 20
209.3803031223
 11
165.3209828362
 21
209.0875304789
  0
LINE
  8
0
 62
7
  6
CONTINUOUS
 10
165.4132101749
 20
203.0179660883
 11
165.3209828362
 21
202.7583685329
  0
LINE
  8
0
 62
7
  6
CONTINUOUS
 10
165.4132101749
 20
196.0874743232
 11
165.3209828362
 21
195.865493642
  0
LINE
  8
0
 62
7
  6
CONTINUOUS
 10
165.3209828362
 20
189.9388629663
 11
165.4132101749
 21
189.9959708674
  0
LINE
  8
0
 62
7
  6
CONTINUOUS
 10
165.3209828362
 20
189.9388629663
 11
165.2105075935
 21
189.9039474986
  0
LINE
  8
0
 62
7
  6
CONTINUOUS
 10
165.4316312497
 20
190.0017901119
 11
165.4132101749
 21
189.9959708674
  0
LINE
  8
0
 62
7
  6
CONTINUOUS
 10
165.4132101749
 20
149.6290291326
 11
165.4316336443
 21
149.6232098878
  0
LINE
  8
0
 62
7
  6
CONTINUOUS
 10
165.2104906707
 20
149.7210524988
 11
165.3209828362
 21
149.6861370337
  0
LINE
  8
0
 62
7
  6
CONTINUOUS
 10
165.4132101749
 20
149.6290291326
 11
165.3209828362
 21
149.6861370337
  0
LINE
  8
0
 62
7
  6
CONTINUOUS
 10
165.3209828362
 20
143.759506358
 11
165.4132101749
 21
143.5375256768
  0
LINE
  8
0
 62
7
  6
CONTINUOUS
 10
165.3209828362
 20
136.8666314671
 11
165.4132101749
 21
136.6070339117
  0
POLYLINE
  8
0
 62
7
  6
CONTINUOUS
 66
1
 70
0
  0
VERTEX
  8
0
 62
7
  6
CONTINUOUS
 10
165.3209828362
 20
136.8666314671
  0
VERTEX
  8
0
 62
7
  6
CONTINUOUS
 10
165.1816194359
 20
137.3070868016
  0
VERTEX
  8
0
 62
7
  6
CONTINUOUS
 10
165.0533091843
 20
137.8108763397
  0
VERTEX
  8
0
 62
7
  6
CONTINUOUS
 10
164.9414426457
 20
138.3567317278
  0
VERTEX
  8
0
 62
7
  6
CONTINUOUS
 10
164.8502668917
 20
138.9234413766
  0
VERTEX
  8
0
 62
7
  6
CONTINUOUS
 10
164.7830056342
 20
139.4903766914
  0
VERTEX
  8
0
 62
7
  6
CONTINUOUS
 10
164.7419262679
 20
140.0370625746
  0
VERTEX
  8
0
 62
7
  6
CONTINUOUS
 10
164.728125
 20
140.5461939502
  0
SEQEND
  0
LINE
  8
0
 62
7
  6
CONTINUOUS
 10
165.3209828362
 20
130.5374695211
 11
165.4132101749
 21
130.2446968777
  0
LINE
  8
0
 62
7
  6
CONTINUOUS
 10
165.3209828362
 20
124.8803142357
 11
165.4132101749
 21
124.5593759254
  0
POLYLINE
  8
0
 62
7
  6
CONTINUOUS
 66
1
 70
0
  0
VERTEX
  8
0
 62
7
  6
CONTINUOUS
 10
165.3209828362
 20
130.5374695211
  0
VERTEX
  8
0
 62
7
  6
CONTINUOUS
 10
165.1816194359
 20
131.0235961142
  0
VERTEX
  8
0
 62
7
  6
CONTINUOUS
 10
165.0533091843
 20
131.5604259298
  0
VERTEX
  8
0
 62
7
  6
CONTINUOUS
 10
164.9414426457
 20
132.1255179637
  0
VERTEX
  8
0
 62
7
  6
CONTINUOUS
 10
164.8502668917
 20
132.6972153467
  0
VERTEX
  8
0
 62
7
  6
CONTINUOUS
 10
164.7830056342
 20
133.2550020458
  0
VERTEX
  8
0
 62
7
  6
CONTINUOUS
 10
164.7419262679
 20
133.7790248875
  0
VERTEX
  8
0
 62
7
  6
CONTINUOUS
 10
164.728125
 20
134.2529431348
  0
SEQEND
  0
LINE
  8
0
 62
7
  6
CONTINUOUS
 10
165.3209828362
 20
119.9919611063
 11
165.4132101749
 21
119.6483484725
  0
POLYLINE
  8
0
 62
7
  6
CONTINUOUS
 66
1
 70
0
  0
VERTEX
  8
0
 62
7
  6
CONTINUOUS
 10
165.3209828362
 20
124.8803142357
  0
VERTEX
  8
0
 62
7
  6
CONTINUOUS
 10
165.1816194359
 20
125.4037943267
  0
VERTEX
  8
0
 62
7
  6
CONTINUOUS
 10
165.0533091843
 20
125.9644791127
  0
VERTEX
  8
0
 62
7
  6
CONTINUOUS
 10
164.9414426457
 20
126.5391389111
  0
VERTEX
  8
0
 62
7
  6
CONTINUOUS
 10
164.8502668917
 20
127.1060421275
  0
VERTEX
  8
0
 62
7
  6
CONTINUOUS
 10
164.7830056342
 20
127.6451363259
  0
VERTEX
  8
0
 62
7
  6
CONTINUOUS
 10
164.7419262679
 20
128.13752995
  0
VERTEX
  8
0
 62
7
  6
CONTINUOUS
 10
164.728125
 20
128.5681261964
  0
SEQEND
  0
POLYLINE
  8
0
 62
7
  6
CONTINUOUS
 66
1
 70
0
  0
VERTEX
  8
0
 62
7
  6
CONTINUOUS
 10
165.3209828362
 20
119.9919611063
  0
VERTEX
  8
0
 62
7
  6
CONTINUOUS
 10
165.1816194359
 20
120.5438378056
  0
VERTEX
  8
0
 62
7
  6
CONTINUOUS
 10
165.0533091843
 20
121.1187840899
  0
VERTEX
  8
0
 62
7
  6
CONTINUOUS
 10
164.9414426457
 20
121.6931790644
  0
VERTEX
  8
0
 62
7
  6
CONTINUOUS
 10
164.8502668917
 20
122.245588243
  0
VERTEX
  8
0
 62
7
  6
CONTINUOUS
 10
164.7830056342
 20
122.7567658894
  0
VERTEX
  8
0
 62
7
  6
CONTINUOUS
 10
164.7419262679
 20
123.2091053045
  0
VERTEX
  8
0
 62
7
  6
CONTINUOUS
 10
164.728125
 20
123.5890119289
  0
SEQEND
  0
POLYLINE
  8
0
 62
7
  6
CONTINUOUS
 66
1
 70
0
  0
VERTEX
  8
0
 62
7
  6
CONTINUOUS
 10
165.3209828362
 20
115.9560512102
  0
VERTEX
  8
0
 62
7
  6
CONTINUOUS
 10
165.1816194359
 20
116.5268817545
  0
VERTEX
  8
0
 62
7
  6
CONTINUOUS
 10
165.0533091843
 20
117.1062520468
  0
VERTEX
  8
0
 62
7
  6
CONTINUOUS
 10
164.9414426457
 20
117.6705541401
  0
VERTEX
  8
0
 62
7
  6
CONTINUOUS
 10
164.8502668917
 20
118.1990174067
  0
VERTEX
  8
0
 62
7
  6
CONTINUOUS
 10
164.7830056342
 20
118.6735321099
  0
VERTEX
  8
0
 62
7
  6
CONTINUOUS
 10
164.7419262679
 20
119.0780776632
  0
VERTEX
  8
0
 62
7
  6
CONTINUOUS
 10
164.728125
 20
119.4007943578
  0
SEQEND
  0
POLYLINE
  8
0
 62
7
  6
CONTINUOUS
 66
1
 70
0
  0
VERTEX
  8
0
 62
7
  6
CONTINUOUS
 10
165.515625
 20
108.7562228024
  0
VERTEX
  8
0
 62
7
  6
CONTINUOUS
 10
165.5109583701
 20
108.7843028526
  0
VERTEX
  8
0
 62
7
  6
CONTINUOUS
 10
165.4972494429
 20
108.8480486001
  0
VERTEX
  8
0
 62
7
  6
CONTINUOUS
 10
165.4753290448
 20
108.9433942125
  0
VERTEX
  8
0
 62
7
  6
CONTINUOUS
 10
165.4466213072
 20
109.0639058789
  0
VERTEX
  8
0
 62
7
  6
CONTINUOUS
 10
165.1816194359
 20
110.1424197374
  0
SEQEND
  0
POLYLINE
  8
0
 62
7
  6
CONTINUOUS
 66
1
 70
0
  0
VERTEX
  8
0
 62
7
  6
CONTINUOUS
 10
165.515625
 20
109.825704725
  0
VERTEX
  8
0
 62
7
  6
CONTINUOUS
 10
165.5109583701
 20
109.8710705356
  0
VERTEX
  8
0
 62
7
  6
CONTINUOUS
 10
165.4972494429
 20
109.9501839074
  0
VERTEX
  8
0
 62
7
  6
CONTINUOUS
 10
165.4753290448
 20
110.0578389472
  0
VERTEX
  8
0
 62
7
  6
CONTINUOUS
 10
165.4466213072
 20
110.1865914478
  0
VERTEX
  8
0
 62
7
  6
CONTINUOUS
 10
165.4132101749
 20
110.3267003642
  0
SEQEND
  0
POLYLINE
  8
0
 62
7
  6
CONTINUOUS
 66
1
 70
0
  0
VERTEX
  8
0
 62
7
  6
CONTINUOUS
 10
164.728125
 20
225.9560630505
  0
VERTEX
  8
0
 62
7
  6
CONTINUOUS
 10
164.7420299946
 20
226.1498178445
  0
VERTEX
  8
0
 62
7
  6
CONTINUOUS
 10
164.7832467313
 20
226.4395188108
  0
VERTEX
  8
0
 62
7
  6
CONTINUOUS
 10
164.8505034363
 20
226.8168746318
  0
VERTEX
  8
0
 62
7
  6
CONTINUOUS
 10
164.9414844022
 20
227.2698424863
  0
VERTEX
  8
0
 62
7
  6
CONTINUOUS
 10
165.0530521749
 20
227.7839823207
  0
VERTEX
  8
0
 62
7
  6
CONTINUOUS
 10
165.1812273266
 20
228.3420375597
  0
VERTEX
  8
0
 62
7
  6
CONTINUOUS
 10
165.3209828362
 20
228.9229838323
  0
SEQEND
  0
POLYLINE
  8
0
 62
7
  6
CONTINUOUS
 66
1
 70
0
  0
VERTEX
  8
0
 62
7
  6
CONTINUOUS
 10
164.728125
 20
227.4016292184
  0
VERTEX
  8
0
 62
7
  6
CONTINUOUS
 10
164.7420299946
 20
227.5246668368
  0
VERTEX
  8
0
 62
7
  6
CONTINUOUS
 10
164.7832467313
 20
227.7486999173
  0
VERTEX
  8
0
 62
7
  6
CONTINUOUS
 10
164.8505034363
 20
228.0675755446
  0
VERTEX
  8
0
 62
7
  6
CONTINUOUS
 10
164.9414844022
 20
228.4714524592
  0
VERTEX
  8
0
 62
7
  6
CONTINUOUS
 10
165.0530521749
 20
228.9477916366
  0
VERTEX
  8
0
 62
7
  6
CONTINUOUS
 10
165.1812273266
 20
229.4809659634
  0
SEQEND
  0
POLYLINE
  8
0
 62
7
  6
CONTINUOUS
 66
1
 70
0
  0
VERTEX
  8
0
 62
7
  6
CONTINUOUS
 10
165.4132101749
 20
196.0874743232
  0
VERTEX
  8
0
 62
7
  6
CONTINUOUS
 10
165.4500378726
 20
196.1985308539
  0
VERTEX
  8
0
 62
7
  6
CONTINUOUS
 10
165.4808801695
 20
196.3372908387
  0
VERTEX
  8
0
 62
7
  6
CONTINUOUS
 10
165.4931009666
 20
196.412507026
  0
VERTEX
  8
0
 62
7
  6
CONTINUOUS
 10
165.5099066396
 20
196.5655038894
  0
VERTEX
  8
0
 62
7
  6
CONTINUOUS
 10
165.515625
 20
196.710451128
  0
SEQEND
  0
POLYLINE
  8
0
 62
7
  6
CONTINUOUS
 66
1
 70
0
  0
VERTEX
  8
0
 62
7
  6
CONTINUOUS
 10
165.4132101749
 20
188.7074104626
  0
VERTEX
  8
0
 62
7
  6
CONTINUOUS
 10
165.4500378726
 20
188.8031456042
  0
VERTEX
  8
0
 62
7
  6
CONTINUOUS
 10
165.4808801695
 20
188.9315649866
  0
VERTEX
  8
0
 62
7
  6
CONTINUOUS
 10
165.4931009666
 20
189.0037929937
  0
VERTEX
  8
0
 62
7
  6
CONTINUOUS
 10
165.5099066396
 20
189.1554125971
  0
VERTEX
  8
0
 62
7
  6
CONTINUOUS
 10
165.515625
 20
189.305026508
  0
SEQEND
  0
LINE
  8
0
 62
7
  6
CONTINUOUS
 10
165.4132101749
 20
188.7074104626
 11
165.3209828362
 21
188.5268448066
  0
LINE
  8
0
 62
7
  6
CONTINUOUS
 10
188.5996315862
 20
149.6232098878
 11
165.4316184138
 21
149.6232098878
  0
LINE
  8
0
 62
7
  6
CONTINUOUS
 10
173.515625
 20
151.2148813733
 11
180.515625
 21
151.2148813733
  0
LINE
  8
0
 62
7
  6
CONTINUOUS
 10
165.3209828362
 20
151.0981551934
 11
165.4132101749
 21
150.9175895374
  0
POLYLINE
  8
0
 62
7
  6
CONTINUOUS
 66
1
 70
0
  0
VERTEX
  8
0
 62
7
  6
CONTINUOUS
 10
165.3209828362
 20
151.0981551934
  0
VERTEX
  8
0
 62
7
  6
CONTINUOUS
 10
165.1816194359
 20
151.4255694682
  0
VERTEX
  8
0
 62
7
  6
CONTINUOUS
 10
165.0533091843
 20
151.838131334
  0
VERTEX
  8
0
 62
7
  6
CONTINUOUS
 10
164.9414426457
 20
152.317983169
  0
VERTEX
  8
0
 62
7
  6
CONTINUOUS
 10
164.8502668917
 20
152.8458789242
  0
VERTEX
  8
0
 62
7
  6
CONTINUOUS
 10
164.7830056342
 20
153.4020196508
  0
VERTEX
  8
0
 62
7
  6
CONTINUOUS
 10
164.7419262679
 20
153.9657420535
  0
VERTEX
  8
0
 62
7
  6
CONTINUOUS
 10
164.728125
 20
154.5187120964
  0
SEQEND
  0
POLYLINE
  8
0
 62
7
  6
CONTINUOUS
 66
1
 70
0
  0
VERTEX
  8
0
 62
7
  6
CONTINUOUS
 10
165.3209828362
 20
143.759506358
  0
VERTEX
  8
0
 62
7
  6
CONTINUOUS
 10
165.1816194359
 20
144.146754121
  0
VERTEX
  8
0
 62
7
  6
CONTINUOUS
 10
165.0533091843
 20
144.608883403
  0
VERTEX
  8
0
 62
7
  6
CONTINUOUS
 10
164.9414426457
 20
145.1261624081
  0
VERTEX
  8
0
 62
7
  6
CONTINUOUS
 10
164.8502668917
 20
145.6781877636
  0
VERTEX
  8
0
 62
7
  6
CONTINUOUS
 10
164.7830056342
 20
146.2445712737
  0
VERTEX
  8
0
 62
7
  6
CONTINUOUS
 10
164.7419262679
 20
146.8045662513
  0
VERTEX
  8
0
 62
7
  6
CONTINUOUS
 10
164.728125
 20
147.3401993762
  0
SEQEND
  0
POLYLINE
  8
0
 62
7
  6
CONTINUOUS
 66
1
 70
0
  0
VERTEX
  8
0
 62
7
  6
CONTINUOUS
 10
165.515625
 20
111.9215773463
  0
VERTEX
  8
0
 62
7
  6
CONTINUOUS
 10
165.5109583701
 20
111.9834526955
  0
VERTEX
  8
0
 62
7
  6
CONTINUOUS
 10
165.4972494429
 20
112.0765800401
  0
VERTEX
  8
0
 62
7
  6
CONTINUOUS
 10
165.4753290448
 20
112.1947024996
  0
VERTEX
  8
0
 62
7
  6
CONTINUOUS
 10
165.4466213072
 20
112.3294928434
  0
VERTEX
  8
0
 62
7
  6
CONTINUOUS
 10
165.4132101749
 20
112.4706040938
  0
SEQEND
  0
POLYLINE
  8
0
 62
7
  6
CONTINUOUS
 66
1
 70
0
  0
VERTEX
  8
0
 62
7
  6
CONTINUOUS
 10
165.515625
 20
115.0079797046
  0
VERTEX
  8
0
 62
7
  6
CONTINUOUS
 10
165.5109583701
 20
115.0853058881
  0
VERTEX
  8
0
 62
7
  6
CONTINUOUS
 10
165.4972494429
 20
115.1908537706
  0
VERTEX
  8
0
 62
7
  6
CONTINUOUS
 10
165.4753290448
 20
115.3174225419
  0
VERTEX
  8
0
 62
7
  6
CONTINUOUS
 10
165.4466213072
 20
115.4559444288
  0
VERTEX
  8
0
 62
7
  6
CONTINUOUS
 10
165.4132101749
 20
115.5956435604
  0
SEQEND
  0
POLYLINE
  8
0
 62
7
  6
CONTINUOUS
 66
1
 70
0
  0
VERTEX
  8
0
 62
7
  6
CONTINUOUS
 10
165.515625
 20
119.0321025998
  0
VERTEX
  8
0
 62
7
  6
CONTINUOUS
 10
165.5109583701
 20
119.1235565452
  0
VERTEX
  8
0
 62
7
  6
CONTINUOUS
 10
165.4972494429
 20
119.2397190121
  0
VERTEX
  8
0
 62
7
  6
CONTINUOUS
 10
165.4753290448
 20
119.3725684684
  0
VERTEX
  8
0
 62
7
  6
CONTINUOUS
 10
165.4466213072
 20
119.5124517505
  0
VERTEX
  8
0
 62
7
  6
CONTINUOUS
 10
165.4132101749
 20
119.6483484725
  0
SEQEND
  0
POLYLINE
  8
0
 62
7
  6
CONTINUOUS
 66
1
 70
0
  0
VERTEX
  8
0
 62
7
  6
CONTINUOUS
 10
165.515625
 20
123.9250921736
  0
VERTEX
  8
0
 62
7
  6
CONTINUOUS
 10
165.5109583701
 20
124.0291090784
  0
VERTEX
  8
0
 62
7
  6
CONTINUOUS
 10
165.4972494429
 20
124.1538985578
  0
VERTEX
  8
0
 62
7
  6
CONTINUOUS
 10
165.4753290448
 20
124.290755608
  0
VERTEX
  8
0
 62
7
  6
CONTINUOUS
 10
165.4466213072
 20
124.4296068435
  0
VERTEX
  8
0
 62
7
  6
CONTINUOUS
 10
165.4132101749
 20
124.5593759254
  0
SEQEND
  0
POLYLINE
  8
0
 62
7
  6
CONTINUOUS
 66
1
 70
0
  0
VERTEX
  8
0
 62
7
  6
CONTINUOUS
 10
165.515625
 20
129.6032280176
  0
VERTEX
  8
0
 62
7
  6
CONTINUOUS
 10
165.5109583701
 20
129.7180281238
  0
VERTEX
  8
0
 62
7
  6
CONTINUOUS
 10
165.4972494429
 20
129.8493094331
  0
VERTEX
  8
0
 62
7
  6
CONTINUOUS
 10
165.4753290448
 20
129.9878324152
  0
VERTEX
  8
0
 62
7
  6
CONTINUOUS
 10
165.4466213072
 20
130.123275821
  0
VERTEX
  8
0
 62
7
  6
CONTINUOUS
 10
165.4132101749
 20
130.2446968777
  0
SEQEND
  0
POLYLINE
  8
0
 62
7
  6
CONTINUOUS
 66
1
 70
0
  0
VERTEX
  8
0
 62
7
  6
CONTINUOUS
 10
165.515625
 20
135.9693556534
  0
VERTEX
  8
0
 62
7
  6
CONTINUOUS
 10
165.5109583701
 20
136.0929746994
  0
VERTEX
  8
0
 62
7
  6
CONTINUOUS
 10
165.4972494429
 20
136.2285015788
  0
VERTEX
  8
0
 62
7
  6
CONTINUOUS
 10
165.4753290448
 20
136.3663203262
  0
VERTEX
  8
0
 62
7
  6
CONTINUOUS
 10
165.4466213072
 20
136.4960384281
  0
VERTEX
  8
0
 62
7
  6
CONTINUOUS
 10
165.4132101749
 20
136.6070339117
  0
SEQEND
  0
POLYLINE
  8
0
 62
7
  6
CONTINUOUS
 66
1
 70
0
  0
VERTEX
  8
0
 62
7
  6
CONTINUOUS
 10
165.515625
 20
142.914548872
  0
VERTEX
  8
0
 62
7
  6
CONTINUOUS
 10
165.5109583701
 20
143.0448717016
  0
VERTEX
  8
0
 62
7
  6
CONTINUOUS
 10
165.4972494429
 20
143.1823252488
  0
VERTEX
  8
0
 62
7
  6
CONTINUOUS
 10
165.4753290448
 20
143.3170816445
  0
VERTEX
  8
0
 62
7
  6
CONTINUOUS
 10
165.4466213072
 20
143.4388549297
  0
VERTEX
  8
0
 62
7
  6
CONTINUOUS
 10
165.4132101749
 20
143.5375256768
  0
SEQEND
  0
POLYLINE
  8
0
 62
7
  6
CONTINUOUS
 66
1
 70
0
  0
VERTEX
  8
0
 62
7
  6
CONTINUOUS
 10
165.515625
 20
150.319973492
  0
VERTEX
  8
0
 62
7
  6
CONTINUOUS
 10
165.5109583701
 20
150.4547702454
  0
VERTEX
  8
0
 62
7
  6
CONTINUOUS
 10
165.4972494429
 20
150.5917985921
  0
VERTEX
  8
0
 62
7
  6
CONTINUOUS
 10
165.4753290448
 20
150.7211869167
  0
VERTEX
  8
0
 62
7
  6
CONTINUOUS
 10
165.4466213072
 20
150.8329318107
  0
VERTEX
  8
0
 62
7
  6
CONTINUOUS
 10
165.4132101749
 20
150.9175895374
  0
SEQEND
  0
LINE
  8
0
 62
7
  6
CONTINUOUS
 10
164.515625
 20
227.0124990973
 11
164.515625
 21
112.6125009027
  0
LINE
  8
0
 62
7
  6
CONTINUOUS
 10
164.728125
 20
227.4016292184
 11
164.728125
 21
227.3287894982
  0
LINE
  8
0
 62
7
  6
CONTINUOUS
 10
164.728125
 20
225.9560630505
 11
164.728125
 21
225.8116299179
  0
LINE
  8
0
 62
7
  6
CONTINUOUS
 10
164.728125
 20
223.5498649529
 11
164.728125
 21
223.3363096988
  0
LINE
  8
0
 62
7
  6
CONTINUOUS
 10
164.728125
 20
220.2242056422
 11
164.728125
 21
219.9451822562
  0
LINE
  8
0
 62
7
  6
CONTINUOUS
 10
164.728125
 20
216.0359880711
 11
164.728125
 21
215.6962707207
  0
LINE
  8
0
 62
7
  6
CONTINUOUS
 10
164.728125
 20
211.0568738036
 11
164.728125
 21
210.6622751469
  0
LINE
  8
0
 62
7
  6
CONTINUOUS
 10
164.728125
 20
205.3720568652
 11
164.728125
 21
204.9293285946
  0
LINE
  8
0
 62
7
  6
CONTINUOUS
 10
164.728125
 20
199.0788060498
 11
164.728125
 21
198.5955233688
  0
LINE
  8
0
 62
7
  6
CONTINUOUS
 10
164.728125
 20
192.2848006238
 11
164.728125
 21
191.769232633
  0
LINE
  8
0
 62
7
  6
CONTINUOUS
 10
164.728125
 20
185.1062879036
 11
164.728125
 21
184.5672561143
  0
LINE
  8
0
 62
7
  6
CONTINUOUS
 10
164.728125
 20
177.6660942322
 11
164.728125
 21
177.1128216277
  0
LINE
  8
0
 62
7
  6
CONTINUOUS
 10
164.728125
 20
170.091523386
 11
164.728125
 21
169.533476614
  0
LINE
  8
0
 62
7
  6
CONTINUOUS
 10
164.728125
 20
162.5121783723
 11
164.728125
 21
161.9589057678
  0
LINE
  8
0
 62
7
  6
CONTINUOUS
 10
164.728125
 20
155.0577438857
 11
164.728125
 21
154.5187120964
  0
LINE
  8
0
 62
7
  6
CONTINUOUS
 10
164.728125
 20
147.855767367
 11
164.728125
 21
147.3401993762
  0
LINE
  8
0
 62
7
  6
CONTINUOUS
 10
164.728125
 20
141.0294766312
 11
164.728125
 21
140.5461939502
  0
LINE
  8
0
 62
7
  6
CONTINUOUS
 10
164.728125
 20
134.6956714054
 11
164.728125
 21
134.2529431348
  0
LINE
  8
0
 62
7
  6
CONTINUOUS
 10
164.728125
 20
128.9627248531
 11
164.728125
 21
128.5681261964
  0
LINE
  8
0
 62
7
  6
CONTINUOUS
 10
164.728125
 20
123.9287292793
 11
164.728125
 21
123.5890119289
  0
LINE
  8
0
 62
7
  6
CONTINUOUS
 10
164.728125
 20
119.6798177438
 11
164.728125
 21
119.4007943578
  0
LINE
  8
0
 62
7
  6
CONTINUOUS
 10
164.728125
 20
116.2886903012
 11
164.728125
 21
116.0751350471
  0
LINE
  8
0
 62
7
  6
CONTINUOUS
 10
164.728125
 20
113.8133700821
 11
164.728125
 21
113.6689369495
  0
LINE
  8
0
 62
7
  6
CONTINUOUS
 10
164.728125
 20
112.2962105018
 11
164.728125
 21
112.2233707816
  0
POLYLINE
  8
0
 62
7
  6
CONTINUOUS
 66
1
 70
0
  0
VERTEX
  8
0
 62
7
  6
CONTINUOUS
 10
164.728125
 20
177.6660942322
  0
VERTEX
  8
0
 62
7
  6
CONTINUOUS
 10
164.7420299946
 20
178.2290526763
  0
VERTEX
  8
0
 62
7
  6
CONTINUOUS
 10
164.7832467313
 20
178.7871787219
  0
VERTEX
  8
0
 62
7
  6
CONTINUOUS
 10
164.8505034363
 20
179.3226656353
  0
VERTEX
  8
0
 62
7
  6
CONTINUOUS
 10
164.9414844022
 20
179.8160511622
  0
VERTEX
  8
0
 62
7
  6
CONTINUOUS
 10
165.0530521749
 20
180.2492280353
  0
VERTEX
  8
0
 62
7
  6
CONTINUOUS
 10
165.1812273266
 20
180.6051038892
  0
VERTEX
  8
0
 62
7
  6
CONTINUOUS
 10
165.3209828362
 20
180.867988343
  0
SEQEND
  0
POLYLINE
  8
0
 62
7
  6
CONTINUOUS
 66
1
 70
0
  0
VERTEX
  8
0
 62
7
  6
CONTINUOUS
 10
164.728125
 20
170.091523386
  0
VERTEX
  8
0
 62
7
  6
CONTINUOUS
 10
164.7420299946
 20
170.6527286152
  0
VERTEX
  8
0
 62
7
  6
CONTINUOUS
 10
164.7832467313
 20
171.1953261944
  0
VERTEX
  8
0
 62
7
  6
CONTINUOUS
 10
164.8505034363
 20
171.7018703967
  0
VERTEX
  8
0
 62
7
  6
CONTINUOUS
 10
164.9414844022
 20
172.1537146456
  0
VERTEX
  8
0
 62
7
  6
CONTINUOUS
 10
165.0530521749
 20
172.5339677002
  0
VERTEX
  8
0
 62
7
  6
CONTINUOUS
 10
165.1812273266
 20
172.8271973295
  0
VERTEX
  8
0
 62
7
  6
CONTINUOUS
 10
165.3209828362
 20
173.0199694087
  0
SEQEND
  0
POLYLINE
  8
0
 62
7
  6
CONTINUOUS
 66
1
 70
0
  0
VERTEX
  8
0
 62
7
  6
CONTINUOUS
 10
164.728125
 20
185.1062879036
  0
VERTEX
  8
0
 62
7
  6
CONTINUOUS
 10
164.7420299946
 20
185.6613671876
  0
VERTEX
  8
0
 62
7
  6
CONTINUOUS
 10
164.7832467313
 20
186.2254720083
  0
VERTEX
  8
0
 62
7
  6
CONTINUOUS
 10
164.8505034363
 20
186.7807393031
  0
VERTEX
  8
0
 62
7
  6
CONTINUOUS
 10
164.9414844022
 20
187.3072241448
  0
VERTEX
  8
0
 62
7
  6
CONTINUOUS
 10
165.0530521749
 20
187.7859130602
  0
VERTEX
  8
0
 62
7
  6
CONTINUOUS
 10
165.1812273266
 20
188.1983460041
  0
VERTEX
  8
0
 62
7
  6
CONTINUOUS
 10
165.3209828362
 20
188.5268448066
  0
SEQEND
  0
POLYLINE
  8
0
 62
7
  6
CONTINUOUS
 66
1
 70
0
  0
VERTEX
  8
0
 62
7
  6
CONTINUOUS
 10
164.728125
 20
162.5121783723
  0
VERTEX
  8
0
 62
7
  6
CONTINUOUS
 10
164.7420299946
 20
163.0620280095
  0
VERTEX
  8
0
 62
7
  6
CONTINUOUS
 10
164.7832467313
 20
163.5798131273
  0
VERTEX
  8
0
 62
7
  6
CONTINUOUS
 10
164.8505034363
 20
164.0487475068
  0
VERTEX
  8
0
 62
7
  6
CONTINUOUS
 10
164.9414844022
 20
164.4513192974
  0
VERTEX
  8
0
 62
7
  6
CONTINUOUS
 10
165.0530521749
 20
164.7721422982
  0
VERTEX
  8
0
 62
7
  6
CONTINUOUS
 10
165.1812273266
 20
164.9977084626
  0
VERTEX
  8
0
 62
7
  6
CONTINUOUS
 10
165.3209828362
 20
165.1170697835
  0
SEQEND
  0
POLYLINE
  8
0
 62
7
  6
CONTINUOUS
 66
1
 70
0
  0
VERTEX
  8
0
 62
7
  6
CONTINUOUS
 10
164.728125
 20
192.2848006238
  0
VERTEX
  8
0
 62
7
  6
CONTINUOUS
 10
164.7420299946
 20
192.8225031871
  0
VERTEX
  8
0
 62
7
  6
CONTINUOUS
 10
164.7832467313
 20
193.382934793
  0
VERTEX
  8
0
 62
7
  6
CONTINUOUS
 10
164.8505034363
 20
193.948481692
  0
VERTEX
  8
0
 62
7
  6
CONTINUOUS
 10
164.9414844022
 20
194.4990575469
  0
VERTEX
  8
0
 62
7
  6
CONTINUOUS
 10
165.0530521749
 20
195.0150680044
  0
VERTEX
  8
0
 62
7
  6
CONTINUOUS
 10
165.1812273266
 20
195.4770011964
  0
VERTEX
  8
0
 62
7
  6
CONTINUOUS
 10
165.3209828362
 20
195.865493642
  0
SEQEND
  0
POLYLINE
  8
0
 62
7
  6
CONTINUOUS
 66
1
 70
0
  0
VERTEX
  8
0
 62
7
  6
CONTINUOUS
 10
164.728125
 20
199.0788060498
  0
VERTEX
  8
0
 62
7
  6
CONTINUOUS
 10
164.7420299946
 20
199.5899316526
  0
VERTEX
  8
0
 62
7
  6
CONTINUOUS
 10
164.7832467313
 20
200.1371009035
  0
VERTEX
  8
0
 62
7
  6
CONTINUOUS
 10
164.8505034363
 20
200.7032507424
  0
VERTEX
  8
0
 62
7
  6
CONTINUOUS
 10
164.9414844022
 20
201.2684971049
  0
VERTEX
  8
0
 62
7
  6
CONTINUOUS
 10
165.0530521749
 20
201.8130000226
  0
VERTEX
  8
0
 62
7
  6
CONTINUOUS
 10
165.1812273266
 20
202.3165296576
  0
VERTEX
  8
0
 62
7
  6
CONTINUOUS
 10
165.3209828362
 20
202.7583685329
  0
SEQEND
  0
POLYLINE
  8
0
 62
7
  6
CONTINUOUS
 66
1
 70
0
  0
VERTEX
  8
0
 62
7
  6
CONTINUOUS
 10
164.728125
 20
205.3720568652
  0
VERTEX
  8
0
 62
7
  6
CONTINUOUS
 10
164.7420299946
 20
205.8478600066
  0
VERTEX
  8
0
 62
7
  6
CONTINUOUS
 10
164.7832467313
 20
206.372404685
  0
VERTEX
  8
0
 62
7
  6
CONTINUOUS
 10
164.8505034363
 20
206.9294704831
  0
VERTEX
  8
0
 62
7
  6
CONTINUOUS
 10
164.9414844022
 20
207.4997158312
  0
VERTEX
  8
0
 62
7
  6
CONTINUOUS
 10
165.0530521749
 20
208.0633946131
  0
VERTEX
  8
0
 62
7
  6
CONTINUOUS
 10
165.1812273266
 20
208.5999051596
  0
VERTEX
  8
0
 62
7
  6
CONTINUOUS
 10
165.3209828362
 20
209.0875304789
  0
SEQEND
  0
POLYLINE
  8
0
 62
7
  6
CONTINUOUS
 66
1
 70
0
  0
VERTEX
  8
0
 62
7
  6
CONTINUOUS
 10
164.728125
 20
211.0568738036
  0
VERTEX
  8
0
 62
7
  6
CONTINUOUS
 10
164.7420299946
 20
211.48921336
  0
VERTEX
  8
0
 62
7
  6
CONTINUOUS
 10
164.7832467313
 20
211.982158361
  0
VERTEX
  8
0
 62
7
  6
CONTINUOUS
 10
164.8505034363
 20
212.520608568
  0
VERTEX
  8
0
 62
7
  6
CONTINUOUS
 10
164.9414844022
 20
213.0860958458
  0
VERTEX
  8
0
 62
7
  6
CONTINUOUS
 10
165.0530521749
 20
213.6593057917
  0
VERTEX
  8
0
 62
7
  6
CONTINUOUS
 10
165.1812273266
 20
214.2196174054
  0
VERTEX
  8
0
 62
7
  6
CONTINUOUS
 10
165.3209828362
 20
214.7446857643
  0
SEQEND
  0
POLYLINE
  8
0
 62
7
  6
CONTINUOUS
 66
1
 70
0
  0
VERTEX
  8
0
 62
7
  6
CONTINUOUS
 10
164.728125
 20
216.0359880711
  0
VERTEX
  8
0
 62
7
  6
CONTINUOUS
 10
164.7420299946
 20
216.4174665929
  0
VERTEX
  8
0
 62
7
  6
CONTINUOUS
 10
164.7832467313
 20
216.8703774908
  0
VERTEX
  8
0
 62
7
  6
CONTINUOUS
 10
164.8505034363
 20
217.3809990744
  0
VERTEX
  8
0
 62
7
  6
CONTINUOUS
 10
164.9414844022
 20
217.9320526377
  0
VERTEX
  8
0
 62
7
  6
CONTINUOUS
 10
165.0530521749
 20
218.5049859666
  0
VERTEX
  8
0
 62
7
  6
CONTINUOUS
 10
165.1812273266
 20
219.0795115604
  0
VERTEX
  8
0
 62
7
  6
CONTINUOUS
 10
165.3209828362
 20
219.6330388937
  0
SEQEND
  0
POLYLINE
  8
0
 62
7
  6
CONTINUOUS
 66
1
 70
0
  0
VERTEX
  8
0
 62
7
  6
CONTINUOUS
 10
164.728125
 20
220.2242056422
  0
VERTEX
  8
0
 62
7
  6
CONTINUOUS
 10
164.7420299946
 20
220.548295926
  0
VERTEX
  8
0
 62
7
  6
CONTINUOUS
 10
164.7832467313
 20
220.9534232898
  0
VERTEX
  8
0
 62
7
  6
CONTINUOUS
 10
164.8505034363
 20
221.4274793731
  0
VERTEX
  8
0
 62
7
  6
CONTINUOUS
 10
164.9414844022
 20
221.9546705428
  0
VERTEX
  8
0
 62
7
  6
CONTINUOUS
 10
165.0530521749
 20
222.5175242065
  0
VERTEX
  8
0
 62
7
  6
CONTINUOUS
 10
165.1812273266
 20
223.0964334883
  0
VERTEX
  8
0
 62
7
  6
CONTINUOUS
 10
165.3209828362
 20
223.6689487898
  0
SEQEND
  0
POLYLINE
  8
0
 62
7
  6
CONTINUOUS
 66
1
 70
0
  0
VERTEX
  8
0
 62
7
  6
CONTINUOUS
 10
164.728125
 20
223.5498649529
  0
VERTEX
  8
0
 62
7
  6
CONTINUOUS
 10
164.7420299946
 20
223.8110217242
  0
VERTEX
  8
0
 62
7
  6
CONTINUOUS
 10
164.7832467313
 20
224.1614337124
  0
VERTEX
  8
0
 62
7
  6
CONTINUOUS
 10
164.8505034363
 20
224.5908130645
  0
VERTEX
  8
0
 62
7
  6
CONTINUOUS
 10
164.9414844022
 20
225.0851214533
  0
VERTEX
  8
0
 62
7
  6
CONTINUOUS
 10
165.0530521749
 20
225.6282648696
  0
VERTEX
  8
0
 62
7
  6
CONTINUOUS
 10
165.1812273266
 20
226.201652541
  0
VERTEX
  8
0
 62
7
  6
CONTINUOUS
 10
165.3209828362
 20
226.7833599153
  0
SEQEND
  0
POLYLINE
  8
0
 62
7
  6
CONTINUOUS
 66
1
 70
0
  0
VERTEX
  8
0
 62
7
  6
CONTINUOUS
 10
165.4132101749
 20
181.0040494454
  0
VERTEX
  8
0
 62
7
  6
CONTINUOUS
 10
165.4500378726
 20
181.082825143
  0
VERTEX
  8
0
 62
7
  6
CONTINUOUS
 10
165.4808801695
 20
181.1987066319
  0
VERTEX
  8
0
 62
7
  6
CONTINUOUS
 10
165.4931009666
 20
181.2667106176
  0
VERTEX
  8
0
 62
7
  6
CONTINUOUS
 10
165.5099066396
 20
181.4143587074
  0
VERTEX
  8
0
 62
7
  6
CONTINUOUS
 10
165.515625
 20
181.5660793552
  0
SEQEND
  0
LINE
  8
0
 62
7
  6
CONTINUOUS
 10
165.4132101749
 20
181.0040494454
 11
165.3209828362
 21
180.867988343
  0
LINE
  8
0
 62
7
  6
CONTINUOUS
 10
188.6180398251
 20
157.2863208511
 11
188.7102671638
 21
157.2945102711
  0
LINE
  8
0
 62
7
  6
CONTINUOUS
 10
188.7263731885
 20
157.2952241875
 11
188.7102671638
 21
157.2945102711
  0
LINE
  8
0
 62
7
  6
CONTINUOUS
 10
188.6180398251
 20
157.2863208511
 11
188.6153452622
 21
157.2862018649
  0
LINE
  8
0
 62
7
  6
CONTINUOUS
 10
188.6154100767
 20
157.2862018647
 11
165.4158399233
 21
157.2862018647
  0
LINE
  8
0
 62
7
  6
CONTINUOUS
 10
165.4132101749
 20
157.2863208511
 11
165.4159047378
 21
157.2862018649
  0
LINE
  8
0
 62
7
  6
CONTINUOUS
 10
165.3048768115
 20
157.2952241875
 11
165.3209828362
 21
157.2945102711
  0
LINE
  8
0
 62
7
  6
CONTINUOUS
 10
165.4132101749
 20
157.2863208511
 11
165.3209828362
 21
157.2945102711
  0
POLYLINE
  8
0
 62
7
  6
CONTINUOUS
 66
1
 70
0
  0
VERTEX
  8
0
 62
7
  6
CONTINUOUS
 10
188.5996163557
 20
149.6232098878
  0
VERTEX
  8
0
 62
7
  6
CONTINUOUS
 10
188.5812121274
 20
149.6297035984
  0
VERTEX
  8
0
 62
7
  6
CONTINUOUS
 10
188.5503698305
 20
149.6782340077
  0
VERTEX
  8
0
 62
7
  6
CONTINUOUS
 10
188.5381490334
 20
149.7187178361
  0
VERTEX
  8
0
 62
7
  6
CONTINUOUS
 10
188.5213433604
 20
149.8265326757
  0
VERTEX
  8
0
 62
7
  6
CONTINUOUS
 10
188.515625
 20
149.9610246316
  0
SEQEND
  0
POLYLINE
  8
0
 62
7
  6
CONTINUOUS
 66
1
 70
0
  0
VERTEX
  8
0
 62
7
  6
CONTINUOUS
 10
188.58457165
 20
142.2971071238
  0
VERTEX
  8
0
 62
7
  6
CONTINUOUS
 10
188.5503698305
 20
142.3261745339
  0
VERTEX
  8
0
 62
7
  6
CONTINUOUS
 10
188.5381490334
 20
142.3577119178
  0
VERTEX
  8
0
 62
7
  6
CONTINUOUS
 10
188.5213433604
 20
142.4504350636
  0
VERTEX
  8
0
 62
7
  6
CONTINUOUS
 10
188.515625
 20
142.5745750572
  0
SEQEND
  0
LINE
  8
0
 62
7
  6
CONTINUOUS
 10
165.3209828362
 20
158.757011657
 11
165.4132101749
 21
158.6209505546
  0
POLYLINE
  8
0
 62
7
  6
CONTINUOUS
 66
1
 70
0
  0
VERTEX
  8
0
 62
7
  6
CONTINUOUS
 10
165.3209828362
 20
158.757011657
  0
VERTEX
  8
0
 62
7
  6
CONTINUOUS
 10
165.1816194359
 20
159.0189902947
  0
VERTEX
  8
0
 62
7
  6
CONTINUOUS
 10
165.0533091843
 20
159.3749256963
  0
VERTEX
  8
0
 62
7
  6
CONTINUOUS
 10
164.9414426457
 20
159.8091399633
  0
VERTEX
  8
0
 62
7
  6
CONTINUOUS
 10
164.8502668917
 20
160.3038736755
  0
VERTEX
  8
0
 62
7
  6
CONTINUOUS
 10
164.7830056342
 20
160.8402558964
  0
VERTEX
  8
0
 62
7
  6
CONTINUOUS
 10
164.7419262679
 20
161.3980602777
  0
VERTEX
  8
0
 62
7
  6
CONTINUOUS
 10
164.728125
 20
161.9589057678
  0
SEQEND
  0
POLYLINE
  8
0
 62
7
  6
CONTINUOUS
 66
1
 70
0
  0
VERTEX
  8
0
 62
7
  6
CONTINUOUS
 10
173.515625
 20
110.9291524105
  0
VERTEX
  8
0
 62
7
  6
CONTINUOUS
 10
173.4680332883
 20
111.5042653059
  0
VERTEX
  8
0
 62
7
  6
CONTINUOUS
 10
173.4468203151
 20
111.773691161
  0
SEQEND
  0
POLYLINE
  8
0
 62
7
  6
CONTINUOUS
 66
1
 70
0
  0
VERTEX
  8
0
 62
7
  6
CONTINUOUS
 10
173.515625
 20
116.1763917857
  0
VERTEX
  8
0
 62
7
  6
CONTINUOUS
 10
173.4680332883
 20
116.7545617937
  0
VERTEX
  8
0
 62
7
  6
CONTINUOUS
 10
173.4249502728
 20
117.334043333
  0
VERTEX
  8
0
 62
7
  6
CONTINUOUS
 10
173.3881348355
 20
117.8928304969
  0
VERTEX
  8
0
 62
7
  6
CONTINUOUS
 10
173.372561938
 20
118.1578593801
  0
VERTEX
  8
0
 62
7
  6
CONTINUOUS
 10
173.3478912721
 20
118.6468602007
  0
VERTEX
  8
0
 62
7
  6
CONTINUOUS
 10
173.3445800237
 20
118.7380980026
  0
SEQEND
  0
POLYLINE
  8
0
 62
7
  6
CONTINUOUS
 66
1
 70
0
  0
VERTEX
  8
0
 62
7
  6
CONTINUOUS
 10
173.515625
 20
113.0673091238
  0
VERTEX
  8
0
 62
7
  6
CONTINUOUS
 10
173.4680332883
 20
113.6489263918
  0
VERTEX
  8
0
 62
7
  6
CONTINUOUS
 10
173.4249502728
 20
114.2171267644
  0
VERTEX
  8
0
 62
7
  6
CONTINUOUS
 10
173.3881348355
 20
114.7503601579
  0
VERTEX
  8
0
 62
7
  6
CONTINUOUS
 10
173.385672696
 20
114.7894422646
  0
SEQEND
  0
POLYLINE
  8
0
 62
7
  6
CONTINUOUS
 66
1
 70
0
  0
VERTEX
  8
0
 62
7
  6
CONTINUOUS
 10
165.515625
 20
215.9498432985
  0
VERTEX
  8
0
 62
7
  6
CONTINUOUS
 10
165.5109583701
 20
216.0249322168
  0
VERTEX
  8
0
 62
7
  6
CONTINUOUS
 10
165.4972494429
 20
216.0660634254
  0
VERTEX
  8
0
 62
7
  6
CONTINUOUS
 10
165.4850887697
 20
216.0729042179
  0
SEQEND
  0
POLYLINE
  8
0
 62
7
  6
CONTINUOUS
 66
1
 70
0
  0
VERTEX
  8
0
 62
7
  6
CONTINUOUS
 10
165.515625
 20
210.306768767
  0
VERTEX
  8
0
 62
7
  6
CONTINUOUS
 10
165.5109583701
 20
210.3961997099
  0
VERTEX
  8
0
 62
7
  6
CONTINUOUS
 10
165.4972494429
 20
210.4541146847
  0
VERTEX
  8
0
 62
7
  6
CONTINUOUS
 10
165.4736267926
 20
210.4759332377
  0
SEQEND
  0
POLYLINE
  8
0
 62
7
  6
CONTINUOUS
 66
1
 70
0
  0
VERTEX
  8
0
 62
7
  6
CONTINUOUS
 10
165.515625
 20
203.9708260697
  0
VERTEX
  8
0
 62
7
  6
CONTINUOUS
 10
165.5109583701
 20
204.073068849
  0
VERTEX
  8
0
 62
7
  6
CONTINUOUS
 10
165.4972494429
 20
204.1467766487
  0
VERTEX
  8
0
 62
7
  6
CONTINUOUS
 10
165.4753290448
 20
204.186187432
  0
VERTEX
  8
0
 62
7
  6
CONTINUOUS
 10
165.4607513685
 20
204.1917547779
  0
SEQEND
  0
POLYLINE
  8
0
 62
7
  6
CONTINUOUS
 66
1
 70
0
  0
VERTEX
  8
0
 62
7
  6
CONTINUOUS
 10
165.515625
 20
197.0504249428
  0
VERTEX
  8
0
 62
7
  6
CONTINUOUS
 10
165.5109583701
 20
197.1637301562
  0
VERTEX
  8
0
 62
7
  6
CONTINUOUS
 10
165.4972494429
 20
197.25196962
  0
VERTEX
  8
0
 62
7
  6
CONTINUOUS
 10
165.4753290448
 20
197.3083835722
  0
VERTEX
  8
0
 62
7
  6
CONTINUOUS
 10
165.4466692322
 20
197.3278928763
  0
SEQEND
  0
POLYLINE
  8
0
 62
7
  6
CONTINUOUS
 66
1
 70
0
  0
VERTEX
  8
0
 62
7
  6
CONTINUOUS
 10
165.515625
 20
189.6639753684
  0
VERTEX
  8
0
 62
7
  6
CONTINUOUS
 10
165.5109583701
 20
189.7864043323
  0
VERTEX
  8
0
 62
7
  6
CONTINUOUS
 10
165.4972494429
 20
189.8876656585
  0
VERTEX
  8
0
 62
7
  6
CONTINUOUS
 10
165.4753290448
 20
189.9601175213
  0
VERTEX
  8
0
 62
7
  6
CONTINUOUS
 10
165.4466213072
 20
189.997540609
  0
VERTEX
  8
0
 62
7
  6
CONTINUOUS
 10
165.4316312497
 20
190.0017901119
  0
SEQEND
  0
POLYLINE
  8
0
 62
7
  6
CONTINUOUS
 66
1
 70
0
  0
VERTEX
  8
0
 62
7
  6
CONTINUOUS
 10
165.515625
 20
181.9378615466
  0
VERTEX
  8
0
 62
7
  6
CONTINUOUS
 10
165.5109583701
 20
182.0673194675
  0
VERTEX
  8
0
 62
7
  6
CONTINUOUS
 10
165.4972494429
 20
182.1798700466
  0
VERTEX
  8
0
 62
7
  6
CONTINUOUS
 10
165.4753290448
 20
182.2671201486
  0
VERTEX
  8
0
 62
7
  6
CONTINUOUS
 10
165.4466213072
 20
182.3218167469
  0
VERTEX
  8
0
 62
7
  6
CONTINUOUS
 10
165.4159050798
 20
182.3387981344
  0
SEQEND
  0
POLYLINE
  8
0
 62
7
  6
CONTINUOUS
 66
1
 70
0
  0
VERTEX
  8
0
 62
7
  6
CONTINUOUS
 10
165.515625
 20
174.004279427
  0
VERTEX
  8
0
 62
7
  6
CONTINUOUS
 10
165.5109583701
 20
174.1385512439
  0
VERTEX
  8
0
 62
7
  6
CONTINUOUS
 10
165.4972494429
 20
174.2604653044
  0
VERTEX
  8
0
 62
7
  6
CONTINUOUS
 10
165.4753290448
 20
174.361020772
  0
VERTEX
  8
0
 62
7
  6
CONTINUOUS
 10
165.4466213072
 20
174.432055007
  0
VERTEX
  8
0
 62
7
  6
CONTINUOUS
 10
165.4132101749
 20
174.4670610322
  0
SEQEND
  0
POLYLINE
  8
0
 62
7
  6
CONTINUOUS
 66
1
 70
0
  0
VERTEX
  8
0
 62
7
  6
CONTINUOUS
 10
165.515625
 20
158.0589206448
  0
VERTEX
  8
0
 62
7
  6
CONTINUOUS
 10
165.5109583701
 20
158.1958849123
  0
VERTEX
  8
0
 62
7
  6
CONTINUOUS
 10
165.4972494429
 20
158.3301434654
  0
VERTEX
  8
0
 62
7
  6
CONTINUOUS
 10
165.4753290448
 20
158.451949849
  0
VERTEX
  8
0
 62
7
  6
CONTINUOUS
 10
165.4466213072
 20
158.5517543655
  0
VERTEX
  8
0
 62
7
  6
CONTINUOUS
 10
165.4132101749
 20
158.6209505546
  0
SEQEND
  0
POLYLINE
  8
0
 62
7
  6
CONTINUOUS
 66
1
 70
0
  0
VERTEX
  8
0
 62
7
  6
CONTINUOUS
 10
165.515625
 20
165.9989747992
  0
VERTEX
  8
0
 62
7
  6
CONTINUOUS
 10
165.5109583701
 20
166.1357630841
  0
VERTEX
  8
0
 62
7
  6
CONTINUOUS
 10
165.4972494429
 20
166.2649546426
  0
VERTEX
  8
0
 62
7
  6
CONTINUOUS
 10
165.4753290448
 20
166.377094944
  0
VERTEX
  8
0
 62
7
  6
CONTINUOUS
 10
165.4466213072
 20
166.4632514002
  0
VERTEX
  8
0
 62
7
  6
CONTINUOUS
 10
165.4132101749
 20
166.5158020857
  0
SEQEND
  0
LINE
  8
0
 62
7
  6
CONTINUOUS
 10
165.515625
 20
230.8935692894
 11
165.515625
 21
230.8687771976
  0
LINE
  8
0
 62
7
  6
CONTINUOUS
 10
165.515625
 20
229.8732473508
 11
165.515625
 21
229.799295275
  0
LINE
  8
0
 62
7
  6
CONTINUOUS
 10
165.515625
 20
227.8252693731
 11
165.515625
 21
227.7034226537
  0
LINE
  8
0
 62
7
  6
CONTINUOUS
 10
165.515625
 20
224.7846768272
 11
165.515625
 21
224.6170202954
  0
LINE
  8
0
 62
7
  6
CONTINUOUS
 10
165.515625
 20
220.8034950946
 11
165.515625
 21
220.5928974002
  0
LINE
  8
0
 62
7
  6
CONTINUOUS
 10
165.515625
 20
215.9498432985
 11
165.515625
 21
215.6999078264
  0
LINE
  8
0
 62
7
  6
CONTINUOUS
 10
165.515625
 20
210.306768767
 11
165.515625
 21
210.0217719824
  0
LINE
  8
0
 62
7
  6
CONTINUOUS
 10
165.515625
 20
203.9708260697
 11
165.515625
 21
203.6556443466
  0
LINE
  8
0
 62
7
  6
CONTINUOUS
 10
165.515625
 20
197.0504249428
 11
165.515625
 21
196.710451128
  0
LINE
  8
0
 62
7
  6
CONTINUOUS
 10
165.515625
 20
189.6639753684
 11
165.515625
 21
189.305026508
  0
LINE
  8
0
 62
7
  6
CONTINUOUS
 10
165.515625
 20
181.9378615466
 11
165.515625
 21
181.5660793552
  0
LINE
  8
0
 62
7
  6
CONTINUOUS
 10
165.515625
 20
174.004279427
 11
165.515625
 21
173.6260252008
  0
LINE
  8
0
 62
7
  6
CONTINUOUS
 10
165.515625
 20
165.9989747992
 11
165.515625
 21
165.620720573
  0
LINE
  8
0
 62
7
  6
CONTINUOUS
 10
165.515625
 20
158.0589206448
 11
165.515625
 21
157.6871384534
  0
LINE
  8
0
 62
7
  6
CONTINUOUS
 10
165.515625
 20
150.319973492
 11
165.515625
 21
149.9610246316
  0
LINE
  8
0
 62
7
  6
CONTINUOUS
 10
165.515625
 20
142.914548872
 11
165.515625
 21
142.5745750572
  0
LINE
  8
0
 62
7
  6
CONTINUOUS
 10
165.515625
 20
135.9693556534
 11
165.515625
 21
135.6541739303
  0
LINE
  8
0
 62
7
  6
CONTINUOUS
 10
165.515625
 20
129.6032280176
 11
165.515625
 21
129.318231233
  0
LINE
  8
0
 62
7
  6
CONTINUOUS
 10
165.515625
 20
123.9250921736
 11
165.515625
 21
123.6751567015
  0
LINE
  8
0
 62
7
  6
CONTINUOUS
 10
165.515625
 20
119.0321025998
 11
165.515625
 21
118.8215049054
  0
LINE
  8
0
 62
7
  6
CONTINUOUS
 10
165.515625
 20
115.0079797046
 11
165.515625
 21
114.8403231728
  0
LINE
  8
0
 62
7
  6
CONTINUOUS
 10
165.515625
 20
111.9215773463
 11
165.515625
 21
111.7997306269
  0
LINE
  8
0
 62
7
  6
CONTINUOUS
 10
165.515625
 20
109.825704725
 11
165.515625
 21
109.7517526492
  0
LINE
  8
0
 62
7
  6
CONTINUOUS
 10
165.515625
 20
108.7562228024
 11
165.515625
 21
108.7314307106
  0
POLYLINE
  8
0
 62
7
  6
CONTINUOUS
 66
1
 70
0
  0
VERTEX
  8
0
 62
7
  6
CONTINUOUS
 10
164.728125
 20
155.0577438857
  0
VERTEX
  8
0
 62
7
  6
CONTINUOUS
 10
164.7420299946
 20
155.5868298512
  0
VERTEX
  8
0
 62
7
  6
CONTINUOUS
 10
164.7832467313
 20
156.0709430606
  0
VERTEX
  8
0
 62
7
  6
CONTINUOUS
 10
164.8505034363
 20
156.49424402
  0
VERTEX
  8
0
 62
7
  6
CONTINUOUS
 10
164.9414844022
 20
156.8406552374
  0
VERTEX
  8
0
 62
7
  6
CONTINUOUS
 10
165.0530521749
 20
157.0965588139
  0
VERTEX
  8
0
 62
7
  6
CONTINUOUS
 10
165.1812273266
 20
157.2506020138
  0
VERTEX
  8
0
 62
7
  6
CONTINUOUS
 10
165.3048768115
 20
157.2952241875
  0
SEQEND
  0
POLYLINE
  8
0
 62
7
  6
CONTINUOUS
 66
1
 70
0
  0
VERTEX
  8
0
 62
7
  6
CONTINUOUS
 10
164.728125
 20
147.855767367
  0
VERTEX
  8
0
 62
7
  6
CONTINUOUS
 10
164.7420299946
 20
148.3550368533
  0
VERTEX
  8
0
 62
7
  6
CONTINUOUS
 10
164.7832467313
 20
148.797194843
  0
VERTEX
  8
0
 62
7
  6
CONTINUOUS
 10
164.8505034363
 20
149.1676195856
  0
VERTEX
  8
0
 62
7
  6
CONTINUOUS
 10
164.9414844022
 20
149.4519430378
  0
VERTEX
  8
0
 62
7
  6
CONTINUOUS
 10
165.0530521749
 20
149.6385486089
  0
VERTEX
  8
0
 62
7
  6
CONTINUOUS
 10
165.1812273266
 20
149.7184331225
  0
VERTEX
  8
0
 62
7
  6
CONTINUOUS
 10
165.2104906707
 20
149.7210524988
  0
SEQEND
  0
POLYLINE
  8
0
 62
7
  6
CONTINUOUS
 66
1
 70
0
  0
VERTEX
  8
0
 62
7
  6
CONTINUOUS
 10
164.728125
 20
141.0294766312
  0
VERTEX
  8
0
 62
7
  6
CONTINUOUS
 10
164.7420299946
 20
141.4903869989
  0
VERTEX
  8
0
 62
7
  6
CONTINUOUS
 10
164.7832467313
 20
141.8830243232
  0
VERTEX
  8
0
 62
7
  6
CONTINUOUS
 10
164.8505034363
 20
142.1942347789
  0
VERTEX
  8
0
 62
7
  6
CONTINUOUS
 10
164.9414844022
 20
142.4116056128
  0
VERTEX
  8
0
 62
7
  6
CONTINUOUS
 10
165.0530521749
 20
142.5257203054
  0
VERTEX
  8
0
 62
7
  6
CONTINUOUS
 10
165.1204797325
 20
142.5419818835
  0
SEQEND
  0
POLYLINE
  8
0
 62
7
  6
CONTINUOUS
 66
1
 70
0
  0
VERTEX
  8
0
 62
7
  6
CONTINUOUS
 10
164.728125
 20
134.6956714054
  0
VERTEX
  8
0
 62
7
  6
CONTINUOUS
 10
164.7420299946
 20
135.1103363503
  0
VERTEX
  8
0
 62
7
  6
CONTINUOUS
 10
164.7832467313
 20
135.4467348757
  0
VERTEX
  8
0
 62
7
  6
CONTINUOUS
 10
164.8505034363
 20
135.6934061474
  0
VERTEX
  8
0
 62
7
  6
CONTINUOUS
 10
164.9414844022
 20
135.8401050877
  0
VERTEX
  8
0
 62
7
  6
CONTINUOUS
 10
165.036432765
 20
135.8808482184
  0
SEQEND
  0
POLYLINE
  8
0
 62
7
  6
CONTINUOUS
 66
1
 70
0
  0
VERTEX
  8
0
 62
7
  6
CONTINUOUS
 10
164.728125
 20
128.9627248531
  0
VERTEX
  8
0
 62
7
  6
CONTINUOUS
 10
164.7420299946
 20
129.3240493431
  0
VERTEX
  8
0
 62
7
  6
CONTINUOUS
 10
164.7832467313
 20
129.5984531975
  0
VERTEX
  8
0
 62
7
  6
CONTINUOUS
 10
164.8505034363
 20
129.7763646713
  0
VERTEX
  8
0
 62
7
  6
CONTINUOUS
 10
164.9414844022
 20
129.8498816585
  0
VERTEX
  8
0
 62
7
  6
CONTINUOUS
 10
164.9599621606
 20
129.8516253611
  0
SEQEND
  0
POLYLINE
  8
0
 62
7
  6
CONTINUOUS
 66
1
 70
0
  0
VERTEX
  8
0
 62
7
  6
CONTINUOUS
 10
164.728125
 20
123.9287292793
  0
VERTEX
  8
0
 62
7
  6
CONTINUOUS
 10
164.7420299946
 20
124.2305309521
  0
VERTEX
  8
0
 62
7
  6
CONTINUOUS
 10
164.7832467313
 20
124.4382450095
  0
VERTEX
  8
0
 62
7
  6
CONTINUOUS
 10
164.8505034363
 20
124.5443525708
  0
VERTEX
  8
0
 62
7
  6
CONTINUOUS
 10
164.8925026279
 20
124.5574749784
  0
SEQEND
  0
POLYLINE
  8
0
 62
7
  6
CONTINUOUS
 66
1
 70
0
  0
VERTEX
  8
0
 62
7
  6
CONTINUOUS
 10
164.728125
 20
119.6798177438
  0
VERTEX
  8
0
 62
7
  6
CONTINUOUS
 10
164.7420299946
 20
119.9169326892
  0
VERTEX
  8
0
 62
7
  6
CONTINUOUS
 10
164.7832467313
 20
120.0544029046
  0
VERTEX
  8
0
 62
7
  6
CONTINUOUS
 10
164.8353042159
 20
120.088981451
  0
SEQEND
  0
POLYLINE
  8
0
 62
7
  6
CONTINUOUS
 66
1
 70
0
  0
VERTEX
  8
0
 62
7
  6
CONTINUOUS
 10
173.4468202101
 20
227.851308839
  0
VERTEX
  8
0
 62
7
  6
CONTINUOUS
 10
173.4680196051
 20
228.120565402
  0
VERTEX
  8
0
 62
7
  6
CONTINUOUS
 10
173.515625
 20
228.6958475895
  0
SEQEND
  0
POLYLINE
  8
0
 62
7
  6
CONTINUOUS
 66
1
 70
0
  0
VERTEX
  8
0
 62
7
  6
CONTINUOUS
 10
173.5296721014
 20
229.9483372262
  0
VERTEX
  8
0
 62
7
  6
CONTINUOUS
 10
173.5571317596
 20
230.2968044794
  0
VERTEX
  8
0
 62
7
  6
CONTINUOUS
 10
173.5818664655
 20
230.5955474167
  0
SEQEND
  0
POLYLINE
  8
0
 62
7
  6
CONTINUOUS
 66
1
 70
0
  0
VERTEX
  8
0
 62
7
  6
CONTINUOUS
 10
164.728125
 20
116.2886903012
  0
VERTEX
  8
0
 62
7
  6
CONTINUOUS
 10
164.7420299946
 20
116.4570614167
  0
VERTEX
  8
0
 62
7
  6
CONTINUOUS
 10
164.7832467313
 20
116.5219356365
  0
VERTEX
  8
0
 62
7
  6
CONTINUOUS
 10
164.7894833761
 20
116.5226019432
  0
SEQEND
  0
LINE
  8
0
 62
7
  6
CONTINUOUS
 10
173.5672731188
 20
230.424384841
 11
173.5205334021
 21
229.8825549705
  0
POLYLINE
  8
0
 62
7
  6
CONTINUOUS
 66
1
 70
0
  0
VERTEX
  8
0
 62
7
  6
CONTINUOUS
 10
165.4132101749
 20
173.1091979143
  0
VERTEX
  8
0
 62
7
  6
CONTINUOUS
 10
165.4500378726
 20
173.1696662939
  0
VERTEX
  8
0
 62
7
  6
CONTINUOUS
 10
165.4808801695
 20
173.2710271247
  0
VERTEX
  8
0
 62
7
  6
CONTINUOUS
 10
165.4931009666
 20
173.333643522
  0
VERTEX
  8
0
 62
7
  6
CONTINUOUS
 10
165.5099066396
 20
173.4747937986
  0
VERTEX
  8
0
 62
7
  6
CONTINUOUS
 10
165.515625
 20
173.6260252008
  0
SEQEND
  0
LINE
  8
0
 62
7
  6
CONTINUOUS
 10
165.4132101749
 20
173.1091979143
 11
165.3209828362
 21
173.0199694087
  0
POLYLINE
  8
0
 62
7
  6
CONTINUOUS
 66
1
 70
0
  0
VERTEX
  8
0
 62
7
  6
CONTINUOUS
 10
188.7263590491
 20
182.3297758107
  0
VERTEX
  8
0
 62
7
  6
CONTINUOUS
 10
188.8496305641
 20
182.3741077971
  0
VERTEX
  8
0
 62
7
  6
CONTINUOUS
 10
188.9779408157
 20
182.5280011239
  0
VERTEX
  8
0
 62
7
  6
CONTINUOUS
 10
189.0898073543
 20
182.7844690837
  0
VERTEX
  8
0
 62
7
  6
CONTINUOUS
 10
189.1809831083
 20
183.1319081365
  0
VERTEX
  8
0
 62
7
  6
CONTINUOUS
 10
189.2482443658
 20
183.5560779326
  0
VERTEX
  8
0
 62
7
  6
CONTINUOUS
 10
189.2893237321
 20
184.0400801514
  0
VERTEX
  8
0
 62
7
  6
CONTINUOUS
 10
189.303125
 20
184.5672561143
  0
SEQEND
  0
LINE
  8
0
 62
7
  6
CONTINUOUS
 10
173.515625
 20
158.8473019641
 11
180.515625
 21
158.8473019641
  0
LINE
  8
0
 62
7
  6
CONTINUOUS
 10
165.3209828362
 20
166.6050305913
 11
165.4132101749
 21
166.5158020857
  0
POLYLINE
  8
0
 62
7
  6
CONTINUOUS
 66
1
 70
0
  0
VERTEX
  8
0
 62
7
  6
CONTINUOUS
 10
165.3209828362
 20
166.6050305913
  0
VERTEX
  8
0
 62
7
  6
CONTINUOUS
 10
165.1816194359
 20
166.7970910648
  0
VERTEX
  8
0
 62
7
  6
CONTINUOUS
 10
165.0533091843
 20
167.0903098488
  0
VERTEX
  8
0
 62
7
  6
CONTINUOUS
 10
164.9414426457
 20
167.4714570213
  0
VERTEX
  8
0
 62
7
  6
CONTINUOUS
 10
164.8502668917
 20
167.9245636595
  0
VERTEX
  8
0
 62
7
  6
CONTINUOUS
 10
164.7830056342
 20
168.4320097263
  0
VERTEX
  8
0
 62
7
  6
CONTINUOUS
 10
164.7419262679
 20
168.9743518984
  0
VERTEX
  8
0
 62
7
  6
CONTINUOUS
 10
164.728125
 20
169.533476614
  0
SEQEND
  0
POLYLINE
  8
0
 62
7
  6
CONTINUOUS
 66
1
 70
0
  0
VERTEX
  8
0
 62
7
  6
CONTINUOUS
 10
165.515625
 20
224.7846768272
  0
VERTEX
  8
0
 62
7
  6
CONTINUOUS
 10
165.5109583701
 20
224.8274946987
  0
VERTEX
  8
0
 62
7
  6
CONTINUOUS
 10
165.5030067992
 20
224.8355577346
  0
SEQEND
  0
POLYLINE
  8
0
 62
7
  6
CONTINUOUS
 66
1
 70
0
  0
VERTEX
  8
0
 62
7
  6
CONTINUOUS
 10
173.515625
 20
137.0298195886
  0
VERTEX
  8
0
 62
7
  6
CONTINUOUS
 10
173.4680332883
 20
137.4983766282
  0
VERTEX
  8
0
 62
7
  6
CONTINUOUS
 10
173.4249502728
 20
138.0244459369
  0
VERTEX
  8
0
 62
7
  6
CONTINUOUS
 10
173.3881348355
 20
138.5879449125
  0
VERTEX
  8
0
 62
7
  6
CONTINUOUS
 10
173.372561938
 20
138.8771073586
  0
VERTEX
  8
0
 62
7
  6
CONTINUOUS
 10
173.3478912721
 20
139.4566966915
  0
VERTEX
  8
0
 62
7
  6
CONTINUOUS
 10
173.3326689772
 20
140.0199914063
  0
VERTEX
  8
0
 62
7
  6
CONTINUOUS
 10
173.3275243734
 20
140.5461939502
  0
SEQEND
  0
POLYLINE
  8
0
 62
7
  6
CONTINUOUS
 66
1
 70
0
  0
VERTEX
  8
0
 62
7
  6
CONTINUOUS
 10
173.515625
 20
130.7198887346
  0
VERTEX
  8
0
 62
7
  6
CONTINUOUS
 10
173.4680332883
 20
131.2294394262
  0
VERTEX
  8
0
 62
7
  6
CONTINUOUS
 10
173.4249502728
 20
131.7833504812
  0
VERTEX
  8
0
 62
7
  6
CONTINUOUS
 10
173.3881348355
 20
132.3605066469
  0
VERTEX
  8
0
 62
7
  6
CONTINUOUS
 10
173.372561938
 20
132.6510084236
  0
VERTEX
  8
0
 62
7
  6
CONTINUOUS
 10
173.3478912721
 20
133.2222617244
  0
VERTEX
  8
0
 62
7
  6
CONTINUOUS
 10
173.3326689772
 20
133.7628829684
  0
VERTEX
  8
0
 62
7
  6
CONTINUOUS
 10
173.3275243734
 20
134.2529431348
  0
SEQEND
  0
POLYLINE
  8
0
 62
7
  6
CONTINUOUS
 66
1
 70
0
  0
VERTEX
  8
0
 62
7
  6
CONTINUOUS
 10
173.515625
 20
125.078843298
  0
VERTEX
  8
0
 62
7
  6
CONTINUOUS
 10
173.4680332883
 20
125.6206690878
  0
VERTEX
  8
0
 62
7
  6
CONTINUOUS
 10
173.4249502728
 20
126.1929443174
  0
VERTEX
  8
0
 62
7
  6
CONTINUOUS
 10
173.3881348355
 20
126.7738823713
  0
VERTEX
  8
0
 62
7
  6
CONTINUOUS
 10
173.372561938
 20
127.0607529127
  0
VERTEX
  8
0
 62
7
  6
CONTINUOUS
 10
173.3478912721
 20
127.6138958789
  0
VERTEX
  8
0
 62
7
  6
CONTINUOUS
 10
173.3326689772
 20
128.1225934728
  0
VERTEX
  8
0
 62
7
  6
CONTINUOUS
 10
173.3275243734
 20
128.5681261964
  0
SEQEND
  0
POLYLINE
  8
0
 62
7
  6
CONTINUOUS
 66
1
 70
0
  0
VERTEX
  8
0
 62
7
  6
CONTINUOUS
 10
173.515625
 20
120.20320313
  0
VERTEX
  8
0
 62
7
  6
CONTINUOUS
 10
173.4680332883
 20
120.7680332287
  0
VERTEX
  8
0
 62
7
  6
CONTINUOUS
 10
173.4249502728
 20
121.348880845
  0
VERTEX
  8
0
 62
7
  6
CONTINUOUS
 10
173.3881348355
 20
121.9236607759
  0
VERTEX
  8
0
 62
7
  6
CONTINUOUS
 10
173.372561938
 20
122.2019916474
  0
VERTEX
  8
0
 62
7
  6
CONTINUOUS
 10
173.3478912721
 20
122.7275598496
  0
VERTEX
  8
0
 62
7
  6
CONTINUOUS
 10
173.3326689772
 20
123.1956298365
  0
VERTEX
  8
0
 62
7
  6
CONTINUOUS
 10
173.3280071584
 20
123.5520957807
  0
SEQEND
  0
POLYLINE
  8
0
 62
7
  6
CONTINUOUS
 66
1
 70
0
  0
VERTEX
  8
0
 62
7
  6
CONTINUOUS
 10
165.515625
 20
220.8034950946
  0
VERTEX
  8
0
 62
7
  6
CONTINUOUS
 10
165.5109583701
 20
220.862957196
  0
VERTEX
  8
0
 62
7
  6
CONTINUOUS
 10
165.4972494429
 20
220.886600872
  0
VERTEX
  8
0
 62
7
  6
CONTINUOUS
 10
165.4949345727
 20
220.8869019972
  0
SEQEND
  0
LINE
  8
0
 62
7
  6
CONTINUOUS
 10
173.3275243734
 20
211.0568738036
 11
173.3275243734
 21
210.6622751469
  0
LINE
  8
0
 62
7
  6
CONTINUOUS
 10
173.3275243734
 20
205.3720568652
 11
173.3275243734
 21
204.9293285946
  0
LINE
  8
0
 62
7
  6
CONTINUOUS
 10
173.3275243734
 20
199.0788060498
 11
173.3275243734
 21
198.5955233688
  0
LINE
  8
0
 62
7
  6
CONTINUOUS
 10
173.3275243734
 20
192.2848006238
 11
173.3275243734
 21
191.769232633
  0
LINE
  8
0
 62
7
  6
CONTINUOUS
 10
173.3275243734
 20
185.1062879036
 11
173.3275243734
 21
184.5672561143
  0
LINE
  8
0
 62
7
  6
CONTINUOUS
 10
173.3275243734
 20
177.6660942322
 11
173.3275243734
 21
177.1128216277
  0
LINE
  8
0
 62
7
  6
CONTINUOUS
 10
173.3275243734
 20
170.091523386
 11
173.3275243734
 21
169.533476614
  0
LINE
  8
0
 62
7
  6
CONTINUOUS
 10
173.3275243734
 20
162.5121783723
 11
173.3275243734
 21
161.9589057678
  0
LINE
  8
0
 62
7
  6
CONTINUOUS
 10
173.3275243734
 20
155.0577438857
 11
173.3275243734
 21
154.5187120964
  0
LINE
  8
0
 62
7
  6
CONTINUOUS
 10
173.3275243734
 20
147.855767367
 11
173.3275243734
 21
147.3401993762
  0
LINE
  8
0
 62
7
  6
CONTINUOUS
 10
173.3275243734
 20
141.0294766312
 11
173.3275243734
 21
140.5461939502
  0
LINE
  8
0
 62
7
  6
CONTINUOUS
 10
173.3275243734
 20
134.6956714054
 11
173.3275243734
 21
134.2529431348
  0
LINE
  8
0
 62
7
  6
CONTINUOUS
 10
173.3275243734
 20
128.9627248531
 11
173.3275243734
 21
128.5681261964
  0
POLYLINE
  8
0
 62
7
  6
CONTINUOUS
 66
1
 70
0
  0
VERTEX
  8
0
 62
7
  6
CONTINUOUS
 10
173.3275243734
 20
177.6660942322
  0
VERTEX
  8
0
 62
7
  6
CONTINUOUS
 10
173.3326735461
 20
178.2452657741
  0
VERTEX
  8
0
 62
7
  6
CONTINUOUS
 10
173.3479018097
 20
178.818065694
  0
VERTEX
  8
0
 62
7
  6
CONTINUOUS
 10
173.3725721363
 20
179.3633278211
  0
VERTEX
  8
0
 62
7
  6
CONTINUOUS
 10
173.38814162
 20
179.6192174628
  0
VERTEX
  8
0
 62
7
  6
CONTINUOUS
 10
173.4249451829
 20
180.0854912888
  0
VERTEX
  8
0
 62
7
  6
CONTINUOUS
 10
173.4680196051
 20
180.4766431999
  0
VERTEX
  8
0
 62
7
  6
CONTINUOUS
 10
173.515625
 20
180.7776980359
  0
SEQEND
  0
POLYLINE
  8
0
 62
7
  6
CONTINUOUS
 66
1
 70
0
  0
VERTEX
  8
0
 62
7
  6
CONTINUOUS
 10
173.3275243734
 20
170.091523386
  0
VERTEX
  8
0
 62
7
  6
CONTINUOUS
 10
173.3326735461
 20
170.6686863001
  0
VERTEX
  8
0
 62
7
  6
CONTINUOUS
 10
173.3479018097
 20
171.2249365277
  0
VERTEX
  8
0
 62
7
  6
CONTINUOUS
 10
173.3725721363
 20
171.7397021516
  0
VERTEX
  8
0
 62
7
  6
CONTINUOUS
 10
173.38814162
 20
171.9754394402
  0
VERTEX
  8
0
 62
7
  6
CONTINUOUS
 10
173.4249451829
 20
172.3925203545
  0
VERTEX
  8
0
 62
7
  6
CONTINUOUS
 10
173.4680196051
 20
172.724180024
  0
VERTEX
  8
0
 62
7
  6
CONTINUOUS
 10
173.515625
 20
172.9576598666
  0
SEQEND
  0
POLYLINE
  8
0
 62
7
  6
CONTINUOUS
 66
1
 70
0
  0
VERTEX
  8
0
 62
7
  6
CONTINUOUS
 10
173.3275243734
 20
185.1062879036
  0
VERTEX
  8
0
 62
7
  6
CONTINUOUS
 10
173.3326735461
 20
185.6775582876
  0
VERTEX
  8
0
 62
7
  6
CONTINUOUS
 10
173.3479018097
 20
186.2571071346
  0
VERTEX
  8
0
 62
7
  6
CONTINUOUS
 10
173.3725721363
 20
186.8235361785
  0
VERTEX
  8
0
 62
7
  6
CONTINUOUS
 10
173.38814162
 20
187.0951998307
  0
VERTEX
  8
0
 62
7
  6
CONTINUOUS
 10
173.4249451829
 20
187.6026884939
  0
VERTEX
  8
0
 62
7
  6
CONTINUOUS
 10
173.4680196051
 20
188.046639929
  0
VERTEX
  8
0
 62
7
  6
CONTINUOUS
 10
173.515625
 20
188.4101186267
  0
SEQEND
  0
POLYLINE
  8
0
 62
7
  6
CONTINUOUS
 66
1
 70
0
  0
VERTEX
  8
0
 62
7
  6
CONTINUOUS
 10
173.3275243734
 20
162.5121783723
  0
VERTEX
  8
0
 62
7
  6
CONTINUOUS
 10
173.3326735461
 20
163.0774572412
  0
VERTEX
  8
0
 62
7
  6
CONTINUOUS
 10
173.3479018097
 20
163.6076401808
  0
VERTEX
  8
0
 62
7
  6
CONTINUOUS
 10
173.3725721363
 20
164.083101519
  0
VERTEX
  8
0
 62
7
  6
CONTINUOUS
 10
173.38814162
 20
164.2946529241
  0
VERTEX
  8
0
 62
7
  6
CONTINUOUS
 10
173.4249451829
 20
164.6554045566
  0
VERTEX
  8
0
 62
7
  6
CONTINUOUS
 10
173.4680196051
 20
164.9218971956
  0
VERTEX
  8
0
 62
7
  6
CONTINUOUS
 10
173.515625
 20
165.08380714
  0
SEQEND
  0
POLYLINE
  8
0
 62
7
  6
CONTINUOUS
 66
1
 70
0
  0
VERTEX
  8
0
 62
7
  6
CONTINUOUS
 10
173.3275243734
 20
192.2848006238
  0
VERTEX
  8
0
 62
7
  6
CONTINUOUS
 10
173.3326735461
 20
192.8383952552
  0
VERTEX
  8
0
 62
7
  6
CONTINUOUS
 10
173.3479018097
 20
193.4147767877
  0
VERTEX
  8
0
 62
7
  6
CONTINUOUS
 10
173.3725721363
 20
193.9926809906
  0
VERTEX
  8
0
 62
7
  6
CONTINUOUS
 10
173.38814162
 20
194.2754704127
  0
VERTEX
  8
0
 62
7
  6
CONTINUOUS
 10
173.4249451829
 20
194.8154906415
  0
VERTEX
  8
0
 62
7
  6
CONTINUOUS
 10
173.4680196051
 20
195.3046454684
  0
VERTEX
  8
0
 62
7
  6
CONTINUOUS
 10
173.515625
 20
195.7243288066
  0
SEQEND
  0
POLYLINE
  8
0
 62
7
  6
CONTINUOUS
 66
1
 70
0
  0
VERTEX
  8
0
 62
7
  6
CONTINUOUS
 10
173.3275243734
 20
199.0788060498
  0
VERTEX
  8
0
 62
7
  6
CONTINUOUS
 10
173.3326735461
 20
199.605252771
  0
VERTEX
  8
0
 62
7
  6
CONTINUOUS
 10
173.3479018097
 20
200.1686049412
  0
VERTEX
  8
0
 62
7
  6
CONTINUOUS
 10
173.3725721363
 20
200.748096202
  0
VERTEX
  8
0
 62
7
  6
CONTINUOUS
 10
173.38814162
 20
201.0371727887
  0
VERTEX
  8
0
 62
7
  6
CONTINUOUS
 10
173.4249451829
 20
201.6004846871
  0
VERTEX
  8
0
 62
7
  6
CONTINUOUS
 10
173.4680196051
 20
202.1264733312
  0
VERTEX
  8
0
 62
7
  6
CONTINUOUS
 10
173.515625
 20
202.5951804114
  0
SEQEND
  0
POLYLINE
  8
0
 62
7
  6
CONTINUOUS
 66
1
 70
0
  0
VERTEX
  8
0
 62
7
  6
CONTINUOUS
 10
173.3275243734
 20
205.3720568652
  0
VERTEX
  8
0
 62
7
  6
CONTINUOUS
 10
173.3326735461
 20
205.8623480268
  0
VERTEX
  8
0
 62
7
  6
CONTINUOUS
 10
173.3479018097
 20
206.4030317228
  0
VERTEX
  8
0
 62
7
  6
CONTINUOUS
 10
173.3725721363
 20
206.9741947853
  0
VERTEX
  8
0
 62
7
  6
CONTINUOUS
 10
173.38814162
 20
207.264612356
  0
VERTEX
  8
0
 62
7
  6
CONTINUOUS
 10
173.4249451829
 20
207.8415775014
  0
VERTEX
  8
0
 62
7
  6
CONTINUOUS
 10
173.4680196051
 20
208.3954001511
  0
VERTEX
  8
0
 62
7
  6
CONTINUOUS
 10
173.515625
 20
208.9051112654
  0
SEQEND
  0
POLYLINE
  8
0
 62
7
  6
CONTINUOUS
 66
1
 70
0
  0
VERTEX
  8
0
 62
7
  6
CONTINUOUS
 10
173.3275243734
 20
211.0568738036
  0
VERTEX
  8
0
 62
7
  6
CONTINUOUS
 10
173.3326735461
 20
211.502620388
  0
VERTEX
  8
0
 62
7
  6
CONTINUOUS
 10
173.3479018097
 20
212.0113843619
  0
VERTEX
  8
0
 62
7
  6
CONTINUOUS
 10
173.3725721363
 20
212.5644464677
  0
VERTEX
  8
0
 62
7
  6
CONTINUOUS
 10
173.38814162
 20
212.8512358973
  0
VERTEX
  8
0
 62
7
  6
CONTINUOUS
 10
173.4249451829
 20
213.4319822559
  0
VERTEX
  8
0
 62
7
  6
CONTINUOUS
 10
173.4680196051
 20
214.0041628522
  0
VERTEX
  8
0
 62
7
  6
CONTINUOUS
 10
173.515625
 20
214.546156702
  0
SEQEND
  0
POLYLINE
  8
0
 62
7
  6
CONTINUOUS
 66
1
 70
0
  0
VERTEX
  8
0
 62
7
  6
CONTINUOUS
 10
173.3280073501
 20
216.0729042193
  0
VERTEX
  8
0
 62
7
  6
CONTINUOUS
 10
173.3326735461
 20
216.4295632306
  0
VERTEX
  8
0
 62
7
  6
CONTINUOUS
 10
173.3479018097
 20
216.8977023898
  0
VERTEX
  8
0
 62
7
  6
CONTINUOUS
 10
173.3725721363
 20
217.423200493
  0
VERTEX
  8
0
 62
7
  6
CONTINUOUS
 10
173.38814162
 20
217.7014547348
  0
VERTEX
  8
0
 62
7
  6
CONTINUOUS
 10
173.4249451829
 20
218.2760455755
  0
VERTEX
  8
0
 62
7
  6
CONTINUOUS
 10
173.4680196051
 20
218.8567939497
  0
VERTEX
  8
0
 62
7
  6
CONTINUOUS
 10
173.515625
 20
219.42179687
  0
SEQEND
  0
POLYLINE
  8
0
 62
7
  6
CONTINUOUS
 66
1
 70
0
  0
VERTEX
  8
0
 62
7
  6
CONTINUOUS
 10
173.3445811188
 20
220.8869019974
  0
VERTEX
  8
0
 62
7
  6
CONTINUOUS
 10
173.3479018097
 20
220.9783795503
  0
VERTEX
  8
0
 62
7
  6
CONTINUOUS
 10
173.3725721363
 20
221.4673222326
  0
VERTEX
  8
0
 62
7
  6
CONTINUOUS
 10
173.38814162
 20
221.7322802794
  0
VERTEX
  8
0
 62
7
  6
CONTINUOUS
 10
173.4249451829
 20
222.2908841937
  0
VERTEX
  8
0
 62
7
  6
CONTINUOUS
 10
173.4680196051
 20
222.8702635801
  0
VERTEX
  8
0
 62
7
  6
CONTINUOUS
 10
173.515625
 20
223.4486082143
  0
SEQEND
  0
POLYLINE
  8
0
 62
7
  6
CONTINUOUS
 66
1
 70
0
  0
VERTEX
  8
0
 62
7
  6
CONTINUOUS
 10
173.3856728229
 20
224.8355577354
  0
VERTEX
  8
0
 62
7
  6
CONTINUOUS
 10
173.38814162
 20
224.8747439886
  0
VERTEX
  8
0
 62
7
  6
CONTINUOUS
 10
173.4249451829
 20
225.4078031086
  0
VERTEX
  8
0
 62
7
  6
CONTINUOUS
 10
173.4680196051
 20
225.9759001652
  0
VERTEX
  8
0
 62
7
  6
CONTINUOUS
 10
173.515625
 20
226.5576908762
  0
SEQEND
  0
LINE
  8
0
 62
7
  6
CONTINUOUS
 10
173.5250495322
 20
229.8825549705
 11
173.5296721014
 21
229.9483372262
  0
POLYLINE
  8
0
 62
7
  6
CONTINUOUS
 66
1
 70
0
  0
VERTEX
  8
0
 62
7
  6
CONTINUOUS
 10
164.728125
 20
113.8133700821
  0
VERTEX
  8
0
 62
7
  6
CONTINUOUS
 10
164.7420299946
 20
113.9101164912
  0
VERTEX
  8
0
 62
7
  6
CONTINUOUS
 10
164.7559693548
 20
113.9193582001
  0
SEQEND
  0
LINE
  8
0
 62
7
  6
CONTINUOUS
 10
188.515625
 20
230.8935692894
 11
188.5158673884
 21
230.8945409454
  0
POLYLINE
  8
0
 62
7
  6
CONTINUOUS
 66
1
 70
0
  0
VERTEX
  8
0
 62
7
  6
CONTINUOUS
 10
165.4132101749
 20
165.1579389678
  0
VERTEX
  8
0
 62
7
  6
CONTINUOUS
 10
165.4500378726
 20
165.1990653987
  0
VERTEX
  8
0
 62
7
  6
CONTINUOUS
 10
165.4808801695
 20
165.2841712596
  0
VERTEX
  8
0
 62
7
  6
CONTINUOUS
 10
165.4931009666
 20
165.3403286845
  0
VERTEX
  8
0
 62
7
  6
CONTINUOUS
 10
165.5099066396
 20
165.4725660275
  0
VERTEX
  8
0
 62
7
  6
CONTINUOUS
 10
165.515625
 20
165.620720573
  0
SEQEND
  0
LINE
  8
0
 62
7
  6
CONTINUOUS
 10
173.515625
 20
165.08380714
 11
180.515625
 21
165.08380714
  0
POLYLINE
  8
0
 62
7
  6
CONTINUOUS
 66
1
 70
0
  0
VERTEX
  8
0
 62
7
  6
CONTINUOUS
 10
188.6153452622
 20
157.2862018649
  0
VERTEX
  8
0
 62
7
  6
CONTINUOUS
 10
188.5812121274
 20
157.3074016486
  0
VERTEX
  8
0
 62
7
  6
CONTINUOUS
 10
188.5503698305
 20
157.3747963548
  0
VERTEX
  8
0
 62
7
  6
CONTINUOUS
 10
188.5381490334
 20
157.4235339382
  0
VERTEX
  8
0
 62
7
  6
CONTINUOUS
 10
188.5213433604
 20
157.5445957299
  0
VERTEX
  8
0
 62
7
  6
CONTINUOUS
 10
188.515625
 20
157.6871384534
  0
SEQEND
  0
POLYLINE
  8
0
 62
7
  6
CONTINUOUS
 66
1
 70
0
  0
VERTEX
  8
0
 62
7
  6
CONTINUOUS
 10
165.3209828362
 20
174.5079302165
  0
VERTEX
  8
0
 62
7
  6
CONTINUOUS
 10
165.1816194359
 20
174.6267863178
  0
VERTEX
  8
0
 62
7
  6
CONTINUOUS
 10
165.0533091843
 20
174.8522714296
  0
VERTEX
  8
0
 62
7
  6
CONTINUOUS
 10
164.9414426457
 20
175.1738299736
  0
VERTEX
  8
0
 62
7
  6
CONTINUOUS
 10
164.8502668917
 20
175.5775567577
  0
VERTEX
  8
0
 62
7
  6
CONTINUOUS
 10
164.7830056342
 20
176.0473841275
  0
VERTEX
  8
0
 62
7
  6
CONTINUOUS
 10
164.7419262679
 20
176.5649844656
  0
VERTEX
  8
0
 62
7
  6
CONTINUOUS
 10
164.728125
 20
177.1128216277
  0
SEQEND
  0
LINE
  8
0
 62
7
  6
CONTINUOUS
 10
189.303125
 20
111.7631705814
 11
189.30311532
 21
111.7632052368
  0
POLYLINE
  8
0
 62
7
  6
CONTINUOUS
 66
1
 70
0
  0
VERTEX
  8
0
 62
7
  6
CONTINUOUS
 10
173.515625
 20
166.6673401334
  0
VERTEX
  8
0
 62
7
  6
CONTINUOUS
 10
173.4680332883
 20
166.9007347243
  0
VERTEX
  8
0
 62
7
  6
CONTINUOUS
 10
173.4249502728
 20
167.2324319559
  0
VERTEX
  8
0
 62
7
  6
CONTINUOUS
 10
173.3881348355
 20
167.6496536478
  0
VERTEX
  8
0
 62
7
  6
CONTINUOUS
 10
173.372561938
 20
167.8854688128
  0
VERTEX
  8
0
 62
7
  6
CONTINUOUS
 10
173.3478912721
 20
168.4003461643
  0
VERTEX
  8
0
 62
7
  6
CONTINUOUS
 10
173.3326689772
 20
168.9565676575
  0
VERTEX
  8
0
 62
7
  6
CONTINUOUS
 10
173.3275243734
 20
169.533476614
  0
SEQEND
  0
POLYLINE
  8
0
 62
7
  6
CONTINUOUS
 66
1
 70
0
  0
VERTEX
  8
0
 62
7
  6
CONTINUOUS
 10
173.515625
 20
158.8473019641
  0
VERTEX
  8
0
 62
7
  6
CONTINUOUS
 10
173.4680332883
 20
159.1482523828
  0
VERTEX
  8
0
 62
7
  6
CONTINUOUS
 10
173.4249502728
 20
159.5394541004
  0
VERTEX
  8
0
 62
7
  6
CONTINUOUS
 10
173.3881348355
 20
160.0058845099
  0
VERTEX
  8
0
 62
7
  6
CONTINUOUS
 10
173.372561938
 20
160.2618561694
  0
VERTEX
  8
0
 62
7
  6
CONTINUOUS
 10
173.3478912721
 20
160.807229411
  0
VERTEX
  8
0
 62
7
  6
CONTINUOUS
 10
173.3326689772
 20
161.3799923398
  0
VERTEX
  8
0
 62
7
  6
CONTINUOUS
 10
173.3275243734
 20
161.9589057678
  0
SEQEND
  0
POLYLINE
  8
0
 62
7
  6
CONTINUOUS
 66
1
 70
0
  0
VERTEX
  8
0
 62
7
  6
CONTINUOUS
 10
173.515625
 20
151.2148813733
  0
VERTEX
  8
0
 62
7
  6
CONTINUOUS
 10
173.4680332883
 20
151.5782382747
  0
VERTEX
  8
0
 62
7
  6
CONTINUOUS
 10
173.4249502728
 20
152.0222509085
  0
VERTEX
  8
0
 62
7
  6
CONTINUOUS
 10
173.3881348355
 20
152.5299092818
  0
VERTEX
  8
0
 62
7
  6
CONTINUOUS
 10
173.372561938
 20
152.8016576899
  0
VERTEX
  8
0
 62
7
  6
CONTINUOUS
 10
173.3478912721
 20
153.3681953342
  0
VERTEX
  8
0
 62
7
  6
CONTINUOUS
 10
173.3326689772
 20
153.947699566
  0
VERTEX
  8
0
 62
7
  6
CONTINUOUS
 10
173.3275243734
 20
154.5187120964
  0
SEQEND
  0
POLYLINE
  8
0
 62
7
  6
CONTINUOUS
 66
1
 70
0
  0
VERTEX
  8
0
 62
7
  6
CONTINUOUS
 10
173.515625
 20
143.9006711934
  0
VERTEX
  8
0
 62
7
  6
CONTINUOUS
 10
173.4680332883
 20
144.3202174403
  0
VERTEX
  8
0
 62
7
  6
CONTINUOUS
 10
173.4249502728
 20
144.8094438109
  0
VERTEX
  8
0
 62
7
  6
CONTINUOUS
 10
173.3881348355
 20
145.3496439727
  0
VERTEX
  8
0
 62
7
  6
CONTINUOUS
 10
173.372561938
 20
145.6325194385
  0
VERTEX
  8
0
 62
7
  6
CONTINUOUS
 10
173.3478912721
 20
146.2105278694
  0
VERTEX
  8
0
 62
7
  6
CONTINUOUS
 10
173.3326689772
 20
146.7868579263
  0
VERTEX
  8
0
 62
7
  6
CONTINUOUS
 10
173.3275243734
 20
147.3401993762
  0
SEQEND
  0
POLYLINE
  8
0
 62
7
  6
CONTINUOUS
 66
1
 70
0
  0
VERTEX
  8
0
 62
7
  6
CONTINUOUS
 10
173.3465695267
 20
204.1917547782
  0
VERTEX
  8
0
 62
7
  6
CONTINUOUS
 10
173.3326689772
 20
204.5040034656
  0
VERTEX
  8
0
 62
7
  6
CONTINUOUS
 10
173.3275243734
 20
204.9293285946
  0
SEQEND
  0
LINE
  8
0
 62
7
  6
CONTINUOUS
 10
173.3301129567
 20
210.4759332378
 11
173.3275243734
 21
210.6622751469
  0
LINE
  8
0
 62
7
  6
CONTINUOUS
 10
173.515625
 20
228.6958475895
 11
173.515625
 21
227.851308839
  0
LINE
  8
0
 62
7
  6
CONTINUOUS
 10
173.515625
 20
226.5576908762
 11
173.515625
 21
224.8355577354
  0
LINE
  8
0
 62
7
  6
CONTINUOUS
 10
173.515625
 20
223.4486082143
 11
173.515625
 21
220.8869019974
  0
LINE
  8
0
 62
7
  6
CONTINUOUS
 10
173.515625
 20
219.42179687
 11
173.515625
 21
216.0729042193
  0
LINE
  8
0
 62
7
  6
CONTINUOUS
 10
173.515625
 20
214.546156702
 11
173.515625
 21
210.4759332378
  0
LINE
  8
0
 62
7
  6
CONTINUOUS
 10
173.515625
 20
208.9051112654
 11
173.515625
 21
204.1917547782
  0
LINE
  8
0
 62
7
  6
CONTINUOUS
 10
173.515625
 20
202.5951804114
 11
173.515625
 21
197.3278928763
  0
LINE
  8
0
 62
7
  6
CONTINUOUS
 10
173.515625
 20
195.7243288066
 11
173.515625
 21
190.0017901122
  0
LINE
  8
0
 62
7
  6
CONTINUOUS
 10
173.515625
 20
188.4101186267
 11
173.515625
 21
182.3387981353
  0
LINE
  8
0
 62
7
  6
CONTINUOUS
 10
173.515625
 20
180.7776980359
 11
173.515625
 21
174.54119286
  0
LINE
  8
0
 62
7
  6
CONTINUOUS
 10
173.515625
 20
172.9576598666
 11
173.515625
 21
166.6673401334
  0
LINE
  8
0
 62
7
  6
CONTINUOUS
 10
173.515625
 20
165.08380714
 11
173.515625
 21
158.8473019641
  0
LINE
  8
0
 62
7
  6
CONTINUOUS
 10
173.515625
 20
157.2862018647
 11
173.515625
 21
151.2148813733
  0
LINE
  8
0
 62
7
  6
CONTINUOUS
 10
173.515625
 20
149.6232098878
 11
173.515625
 21
143.9006711934
  0
LINE
  8
0
 62
7
  6
CONTINUOUS
 10
173.515625
 20
142.2971071237
 11
173.515625
 21
137.0298195886
  0
LINE
  8
0
 62
7
  6
CONTINUOUS
 10
173.515625
 20
135.4332452218
 11
173.515625
 21
130.7198887346
  0
LINE
  8
0
 62
7
  6
CONTINUOUS
 10
173.515625
 20
129.1490667622
 11
173.515625
 21
125.078843298
  0
LINE
  8
0
 62
7
  6
CONTINUOUS
 10
173.515625
 20
123.5520957807
 11
173.515625
 21
120.20320313
  0
LINE
  8
0
 62
7
  6
CONTINUOUS
 10
173.515625
 20
118.7380980026
 11
173.515625
 21
116.1763917857
  0
LINE
  8
0
 62
7
  6
CONTINUOUS
 10
173.515625
 20
114.7894422646
 11
173.515625
 21
113.0673091238
  0
LINE
  8
0
 62
7
  6
CONTINUOUS
 10
173.515625
 20
111.773691161
 11
173.515625
 21
110.9291524105
  0
POLYLINE
  8
0
 62
7
  6
CONTINUOUS
 66
1
 70
0
  0
VERTEX
  8
0
 62
7
  6
CONTINUOUS
 10
173.3275243734
 20
155.0577438857
  0
VERTEX
  8
0
 62
7
  6
CONTINUOUS
 10
173.3326735461
 20
155.6014666312
  0
VERTEX
  8
0
 62
7
  6
CONTINUOUS
 10
173.3479018097
 20
156.0965107057
  0
VERTEX
  8
0
 62
7
  6
CONTINUOUS
 10
173.3725721363
 20
156.5245324829
  0
VERTEX
  8
0
 62
7
  6
CONTINUOUS
 10
173.38814162
 20
156.7082783014
  0
VERTEX
  8
0
 62
7
  6
CONTINUOUS
 10
173.4249451829
 20
157.0065280917
  0
VERTEX
  8
0
 62
7
  6
CONTINUOUS
 10
173.4680196051
 20
157.2032939371
  0
VERTEX
  8
0
 62
7
  6
CONTINUOUS
 10
173.5130907157
 20
157.2862018647
  0
SEQEND
  0
POLYLINE
  8
0
 62
7
  6
CONTINUOUS
 66
1
 70
0
  0
VERTEX
  8
0
 62
7
  6
CONTINUOUS
 10
173.3275243734
 20
147.855767367
  0
VERTEX
  8
0
 62
7
  6
CONTINUOUS
 10
173.3326735461
 20
148.3686307422
  0
VERTEX
  8
0
 62
7
  6
CONTINUOUS
 10
173.3479018097
 20
148.8200656102
  0
VERTEX
  8
0
 62
7
  6
CONTINUOUS
 10
173.3725721363
 20
149.1933242551
  0
VERTEX
  8
0
 62
7
  6
CONTINUOUS
 10
173.38814162
 20
149.346120545
  0
VERTEX
  8
0
 62
7
  6
CONTINUOUS
 10
173.4249451829
 20
149.5767653565
  0
VERTEX
  8
0
 62
7
  6
CONTINUOUS
 10
173.4411215684
 20
149.6232098878
  0
SEQEND
  0
POLYLINE
  8
0
 62
7
  6
CONTINUOUS
 66
1
 70
0
  0
VERTEX
  8
0
 62
7
  6
CONTINUOUS
 10
173.3275243734
 20
141.0294766312
  0
VERTEX
  8
0
 62
7
  6
CONTINUOUS
 10
173.3326735461
 20
141.5027054015
  0
VERTEX
  8
0
 62
7
  6
CONTINUOUS
 10
173.3479018097
 20
141.9028068873
  0
VERTEX
  8
0
 62
7
  6
CONTINUOUS
 10
173.3725721363
 20
142.214915841
  0
VERTEX
  8
0
 62
7
  6
CONTINUOUS
 10
173.3833047569
 20
142.2971071237
  0
SEQEND
  0
POLYLINE
  8
0
 62
7
  6
CONTINUOUS
 66
1
 70
0
  0
VERTEX
  8
0
 62
7
  6
CONTINUOUS
 10
173.3275243734
 20
134.6956714054
  0
VERTEX
  8
0
 62
7
  6
CONTINUOUS
 10
173.3326735461
 20
135.1211684954
  0
VERTEX
  8
0
 62
7
  6
CONTINUOUS
 10
173.346572573
 20
135.4332452218
  0
SEQEND
  0
LINE
  8
0
 62
7
  6
CONTINUOUS
 10
173.3275243734
 20
128.9627248531
 11
173.3301142396
 21
129.1490667622
  0
POLYLINE
  8
0
 62
7
  6
CONTINUOUS
 66
1
 70
0
  0
VERTEX
  8
0
 62
7
  6
CONTINUOUS
 10
180.6479454163
 20
197.3278928763
  0
VERTEX
  8
0
 62
7
  6
CONTINUOUS
 10
180.658688062
 20
197.4101767174
  0
VERTEX
  8
0
 62
7
  6
CONTINUOUS
 10
180.6833587279
 20
197.7223811171
  0
VERTEX
  8
0
 62
7
  6
CONTINUOUS
 10
180.6985810228
 20
198.1224902886
  0
VERTEX
  8
0
 62
7
  6
CONTINUOUS
 10
180.7037256266
 20
198.5955233688
  0
SEQEND
  0
LINE
  8
0
 62
7
  6
CONTINUOUS
 10
188.515625
 20
229.8732473508
 11
188.5179337628
 21
229.8825549705
  0
LINE
  8
0
 62
7
  6
CONTINUOUS
 10
189.3031159181
 20
227.8617947633
 11
189.303125
 21
227.8618294186
  0
LINE
  8
0
 62
7
  6
CONTINUOUS
 10
189.2958769887
 20
227.3012075616
 11
189.303125
 21
227.3287894982
  0
POLYLINE
  8
0
 62
7
  6
CONTINUOUS
 66
1
 70
0
  0
VERTEX
  8
0
 62
7
  6
CONTINUOUS
 10
180.5901276979
 20
190.0017901122
  0
VERTEX
  8
0
 62
7
  6
CONTINUOUS
 10
180.6062997272
 20
190.0482120722
  0
VERTEX
  8
0
 62
7
  6
CONTINUOUS
 10
180.6431151645
 20
190.2789370738
  0
VERTEX
  8
0
 62
7
  6
CONTINUOUS
 10
180.658688062
 20
190.4317912168
  0
VERTEX
  8
0
 62
7
  6
CONTINUOUS
 10
180.6833587279
 20
190.8051520796
  0
VERTEX
  8
0
 62
7
  6
CONTINUOUS
 10
180.6985810228
 20
191.2565853288
  0
VERTEX
  8
0
 62
7
  6
CONTINUOUS
 10
180.7037256266
 20
191.769232633
  0
SEQEND
  0
POLYLINE
  8
0
 62
7
  6
CONTINUOUS
 66
1
 70
0
  0
VERTEX
  8
0
 62
7
  6
CONTINUOUS
 10
180.5181597976
 20
182.3387981353
  0
VERTEX
  8
0
 62
7
  6
CONTINUOUS
 10
180.5632167117
 20
182.4216631655
  0
VERTEX
  8
0
 62
7
  6
CONTINUOUS
 10
180.6062997272
 20
182.6184403767
  0
VERTEX
  8
0
 62
7
  6
CONTINUOUS
 10
180.6431151645
 20
182.9167924184
  0
VERTEX
  8
0
 62
7
  6
CONTINUOUS
 10
180.658688062
 20
183.1006039266
  0
VERTEX
  8
0
 62
7
  6
CONTINUOUS
 10
180.6833587279
 20
183.5287329447
  0
VERTEX
  8
0
 62
7
  6
CONTINUOUS
 10
180.6985810228
 20
184.0237661236
  0
VERTEX
  8
0
 62
7
  6
CONTINUOUS
 10
180.7037256266
 20
184.5672561143
  0
SEQEND
  0
LINE
  8
0
 62
7
  6
CONTINUOUS
 10
165.4132101749
 20
165.1579389678
 11
165.3209828362
 21
165.1170697835
  0
LINE
  8
0
 62
7
  6
CONTINUOUS
 10
188.7102671638
 20
174.5079302165
 11
188.6180398251
 21
174.4670610322
  0
LINE
  8
0
 62
7
  6
CONTINUOUS
 10
173.515625
 20
166.6673401334
 11
180.515625
 21
166.6673401334
  0
LINE
  8
DEFAULT_1
 62
2
  6
CENTER
 10
162.515625
 20
169.8125
 11
191.515625
 21
169.8125
  0
LINE
  8
0
 62
7
  6
CONTINUOUS
 10
165.3209828362
 20
174.5079302165
 11
165.4132101749
 21
174.4670610322
  0
LINE
  8
0
 62
7
  6
CONTINUOUS
 10
188.6180398251
 20
165.1579389678
 11
188.7102671638
 21
165.1170697835
  0
POLYLINE
  8
0
 62
7
  6
CONTINUOUS
 66
1
 70
0
  0
VERTEX
  8
0
 62
7
  6
CONTINUOUS
 10
173.515625
 20
174.54119286
  0
VERTEX
  8
0
 62
7
  6
CONTINUOUS
 10
173.4680332883
 20
174.703038177
  0
VERTEX
  8
0
 62
7
  6
CONTINUOUS
 10
173.4249502728
 20
174.9695554909
  0
VERTEX
  8
0
 62
7
  6
CONTINUOUS
 10
173.3881348355
 20
175.3304296865
  0
VERTEX
  8
0
 62
7
  6
CONTINUOUS
 10
173.372561938
 20
175.5420534941
  0
VERTEX
  8
0
 62
7
  6
CONTINUOUS
 10
173.3478912721
 20
176.0176252613
  0
VERTEX
  8
0
 62
7
  6
CONTINUOUS
 10
173.3326689772
 20
176.5477882149
  0
VERTEX
  8
0
 62
7
  6
CONTINUOUS
 10
173.3275243734
 20
177.1128216277
  0
SEQEND
  0
LINE
  8
0
 62
7
  6
CONTINUOUS
 10
189.303125
 20
112.2962105018
 11
189.295875235
 21
112.3237924397
  0
LINE
  8
0
 62
7
  6
CONTINUOUS
 10
188.5158668969
 20
108.7304590556
 11
188.515625
 21
108.7314307106
  0
LINE
  8
0
 62
7
  6
CONTINUOUS
 10
188.5179321226
 20
109.7424450302
 11
188.515625
 21
109.7517526492
  0
POLYLINE
  8
0
 62
7
  6
CONTINUOUS
 66
1
 70
0
  0
VERTEX
  8
0
 62
7
  6
CONTINUOUS
 10
165.515625
 20
227.8252693731
  0
VERTEX
  8
0
 62
7
  6
CONTINUOUS
 10
165.5109583701
 20
227.8507103891
  0
VERTEX
  8
0
 62
7
  6
CONTINUOUS
 10
165.509169175
 20
227.8513088388
  0
SEQEND
  0
POLYLINE
  8
0
 62
7
  6
CONTINUOUS
 66
1
 70
0
  0
VERTEX
  8
0
 62
7
  6
CONTINUOUS
 10
173.3833045837
 20
197.3278928763
  0
VERTEX
  8
0
 62
7
  6
CONTINUOUS
 10
173.372561938
 20
197.4101767174
  0
VERTEX
  8
0
 62
7
  6
CONTINUOUS
 10
173.3478912721
 20
197.7223811171
  0
VERTEX
  8
0
 62
7
  6
CONTINUOUS
 10
173.3326689772
 20
198.1224902886
  0
VERTEX
  8
0
 62
7
  6
CONTINUOUS
 10
173.3275243734
 20
198.5955233688
  0
SEQEND
  0
LINE
  8
0
 62
7
  6
CONTINUOUS
 10
180.7037256266
 20
128.9627248531
 11
180.7011357604
 21
129.1490667622
  0
POLYLINE
  8
0
 62
7
  6
CONTINUOUS
 66
1
 70
0
  0
VERTEX
  8
0
 62
7
  6
CONTINUOUS
 10
180.7032426499
 20
216.0729042193
  0
VERTEX
  8
0
 62
7
  6
CONTINUOUS
 10
180.6985764539
 20
216.4295632306
  0
VERTEX
  8
0
 62
7
  6
CONTINUOUS
 10
180.6833481903
 20
216.8977023898
  0
VERTEX
  8
0
 62
7
  6
CONTINUOUS
 10
180.6586778637
 20
217.423200493
  0
VERTEX
  8
0
 62
7
  6
CONTINUOUS
 10
180.64310838
 20
217.7014547348
  0
VERTEX
  8
0
 62
7
  6
CONTINUOUS
 10
180.6063048171
 20
218.2760455755
  0
VERTEX
  8
0
 62
7
  6
CONTINUOUS
 10
180.5632303949
 20
218.8567939497
  0
VERTEX
  8
0
 62
7
  6
CONTINUOUS
 10
180.515625
 20
219.42179687
  0
SEQEND
  0
POLYLINE
  8
0
 62
7
  6
CONTINUOUS
 66
1
 70
0
  0
VERTEX
  8
0
 62
7
  6
CONTINUOUS
 10
180.7037256266
 20
134.6956714054
  0
VERTEX
  8
0
 62
7
  6
CONTINUOUS
 10
180.6985764539
 20
135.1211684954
  0
VERTEX
  8
0
 62
7
  6
CONTINUOUS
 10
180.684677427
 20
135.4332452218
  0
SEQEND
  0
POLYLINE
  8
0
 62
7
  6
CONTINUOUS
 66
1
 70
0
  0
VERTEX
  8
0
 62
7
  6
CONTINUOUS
 10
180.7037256266
 20
211.0568738036
  0
VERTEX
  8
0
 62
7
  6
CONTINUOUS
 10
180.6985764539
 20
211.502620388
  0
VERTEX
  8
0
 62
7
  6
CONTINUOUS
 10
180.6833481903
 20
212.0113843619
  0
VERTEX
  8
0
 62
7
  6
CONTINUOUS
 10
180.6586778637
 20
212.5644464677
  0
VERTEX
  8
0
 62
7
  6
CONTINUOUS
 10
180.64310838
 20
212.8512358973
  0
VERTEX
  8
0
 62
7
  6
CONTINUOUS
 10
180.6063048171
 20
213.4319822559
  0
VERTEX
  8
0
 62
7
  6
CONTINUOUS
 10
180.5632303949
 20
214.0041628522
  0
VERTEX
  8
0
 62
7
  6
CONTINUOUS
 10
180.515625
 20
214.546156702
  0
SEQEND
  0
POLYLINE
  8
0
 62
7
  6
CONTINUOUS
 66
1
 70
0
  0
VERTEX
  8
0
 62
7
  6
CONTINUOUS
 10
180.7037256266
 20
141.0294766312
  0
VERTEX
  8
0
 62
7
  6
CONTINUOUS
 10
180.6985764539
 20
141.5027054015
  0
VERTEX
  8
0
 62
7
  6
CONTINUOUS
 10
180.6833481903
 20
141.9028068873
  0
VERTEX
  8
0
 62
7
  6
CONTINUOUS
 10
180.6586778637
 20
142.214915841
  0
VERTEX
  8
0
 62
7
  6
CONTINUOUS
 10
180.6479452431
 20
142.2971071237
  0
SEQEND
  0
POLYLINE
  8
0
 62
7
  6
CONTINUOUS
 66
1
 70
0
  0
VERTEX
  8
0
 62
7
  6
CONTINUOUS
 10
180.7037256266
 20
205.3720568652
  0
VERTEX
  8
0
 62
7
  6
CONTINUOUS
 10
180.6985764539
 20
205.8623480268
  0
VERTEX
  8
0
 62
7
  6
CONTINUOUS
 10
180.6833481903
 20
206.4030317228
  0
VERTEX
  8
0
 62
7
  6
CONTINUOUS
 10
180.6586778637
 20
206.9741947853
  0
VERTEX
  8
0
 62
7
  6
CONTINUOUS
 10
180.64310838
 20
207.264612356
  0
VERTEX
  8
0
 62
7
  6
CONTINUOUS
 10
180.6063048171
 20
207.8415775014
  0
VERTEX
  8
0
 62
7
  6
CONTINUOUS
 10
180.5632303949
 20
208.3954001511
  0
VERTEX
  8
0
 62
7
  6
CONTINUOUS
 10
180.515625
 20
208.9051112654
  0
SEQEND
  0
POLYLINE
  8
0
 62
7
  6
CONTINUOUS
 66
1
 70
0
  0
VERTEX
  8
0
 62
7
  6
CONTINUOUS
 10
180.7037256266
 20
147.855767367
  0
VERTEX
  8
0
 62
7
  6
CONTINUOUS
 10
180.6985764539
 20
148.3686307422
  0
VERTEX
  8
0
 62
7
  6
CONTINUOUS
 10
180.6833481903
 20
148.8200656102
  0
VERTEX
  8
0
 62
7
  6
CONTINUOUS
 10
180.6586778637
 20
149.1933242551
  0
VERTEX
  8
0
 62
7
  6
CONTINUOUS
 10
180.64310838
 20
149.346120545
  0
VERTEX
  8
0
 62
7
  6
CONTINUOUS
 10
180.6063048171
 20
149.5767653565
  0
VERTEX
  8
0
 62
7
  6
CONTINUOUS
 10
180.5901284316
 20
149.6232098878
  0
SEQEND
  0
POLYLINE
  8
0
 62
7
  6
CONTINUOUS
 66
1
 70
0
  0
VERTEX
  8
0
 62
7
  6
CONTINUOUS
 10
180.7037256266
 20
199.0788060498
  0
VERTEX
  8
0
 62
7
  6
CONTINUOUS
 10
180.6985764539
 20
199.605252771
  0
VERTEX
  8
0
 62
7
  6
CONTINUOUS
 10
180.6833481903
 20
200.1686049412
  0
VERTEX
  8
0
 62
7
  6
CONTINUOUS
 10
180.6586778637
 20
200.748096202
  0
VERTEX
  8
0
 62
7
  6
CONTINUOUS
 10
180.64310838
 20
201.0371727887
  0
VERTEX
  8
0
 62
7
  6
CONTINUOUS
 10
180.6063048171
 20
201.6004846871
  0
VERTEX
  8
0
 62
7
  6
CONTINUOUS
 10
180.5632303949
 20
202.1264733312
  0
VERTEX
  8
0
 62
7
  6
CONTINUOUS
 10
180.515625
 20
202.5951804114
  0
SEQEND
  0
POLYLINE
  8
0
 62
7
  6
CONTINUOUS
 66
1
 70
0
  0
VERTEX
  8
0
 62
7
  6
CONTINUOUS
 10
180.7037256266
 20
155.0577438857
  0
VERTEX
  8
0
 62
7
  6
CONTINUOUS
 10
180.6985764539
 20
155.6014666312
  0
VERTEX
  8
0
 62
7
  6
CONTINUOUS
 10
180.6833481903
 20
156.0965107057
  0
VERTEX
  8
0
 62
7
  6
CONTINUOUS
 10
180.6586778637
 20
156.5245324829
  0
VERTEX
  8
0
 62
7
  6
CONTINUOUS
 10
180.64310838
 20
156.7082783014
  0
VERTEX
  8
0
 62
7
  6
CONTINUOUS
 10
180.6063048171
 20
157.0065280917
  0
VERTEX
  8
0
 62
7
  6
CONTINUOUS
 10
180.5632303949
 20
157.2032939371
  0
VERTEX
  8
0
 62
7
  6
CONTINUOUS
 10
180.5181592843
 20
157.2862018647
  0
SEQEND
  0
POLYLINE
  8
0
 62
7
  6
CONTINUOUS
 66
1
 70
0
  0
VERTEX
  8
0
 62
7
  6
CONTINUOUS
 10
180.7037256266
 20
192.2848006238
  0
VERTEX
  8
0
 62
7
  6
CONTINUOUS
 10
180.6985764539
 20
192.8383952552
  0
VERTEX
  8
0
 62
7
  6
CONTINUOUS
 10
180.6833481903
 20
193.4147767877
  0
VERTEX
  8
0
 62
7
  6
CONTINUOUS
 10
180.6586778637
 20
193.9926809906
  0
VERTEX
  8
0
 62
7
  6
CONTINUOUS
 10
180.64310838
 20
194.2754704127
  0
VERTEX
  8
0
 62
7
  6
CONTINUOUS
 10
180.6063048171
 20
194.8154906415
  0
VERTEX
  8
0
 62
7
  6
CONTINUOUS
 10
180.5632303949
 20
195.3046454684
  0
VERTEX
  8
0
 62
7
  6
CONTINUOUS
 10
180.515625
 20
195.7243288066
  0
SEQEND
  0
POLYLINE
  8
0
 62
7
  6
CONTINUOUS
 66
1
 70
0
  0
VERTEX
  8
0
 62
7
  6
CONTINUOUS
 10
180.7037256266
 20
162.5121783723
  0
VERTEX
  8
0
 62
7
  6
CONTINUOUS
 10
180.6985764539
 20
163.0774572412
  0
VERTEX
  8
0
 62
7
  6
CONTINUOUS
 10
180.6833481903
 20
163.6076401808
  0
VERTEX
  8
0
 62
7
  6
CONTINUOUS
 10
180.6586778637
 20
164.083101519
  0
VERTEX
  8
0
 62
7
  6
CONTINUOUS
 10
180.64310838
 20
164.2946529241
  0
VERTEX
  8
0
 62
7
  6
CONTINUOUS
 10
180.6063048171
 20
164.6554045566
  0
VERTEX
  8
0
 62
7
  6
CONTINUOUS
 10
180.5632303949
 20
164.9218971956
  0
VERTEX
  8
0
 62
7
  6
CONTINUOUS
 10
180.515625
 20
165.08380714
  0
SEQEND
  0
POLYLINE
  8
0
 62
7
  6
CONTINUOUS
 66
1
 70
0
  0
VERTEX
  8
0
 62
7
  6
CONTINUOUS
 10
180.7037256266
 20
170.091523386
  0
VERTEX
  8
0
 62
7
  6
CONTINUOUS
 10
180.6985764539
 20
170.6686863001
  0
VERTEX
  8
0
 62
7
  6
CONTINUOUS
 10
180.6833481903
 20
171.2249365277
  0
VERTEX
  8
0
 62
7
  6
CONTINUOUS
 10
180.6586778637
 20
171.7397021516
  0
VERTEX
  8
0
 62
7
  6
CONTINUOUS
 10
180.64310838
 20
171.9754394402
  0
VERTEX
  8
0
 62
7
  6
CONTINUOUS
 10
180.6063048171
 20
172.3925203545
  0
VERTEX
  8
0
 62
7
  6
CONTINUOUS
 10
180.5632303949
 20
172.724180024
  0
VERTEX
  8
0
 62
7
  6
CONTINUOUS
 10
180.515625
 20
172.9576598666
  0
SEQEND
  0
POLYLINE
  8
0
 62
7
  6
CONTINUOUS
 66
1
 70
0
  0
VERTEX
  8
0
 62
7
  6
CONTINUOUS
 10
180.7037256266
 20
177.6660942322
  0
VERTEX
  8
0
 62
7
  6
CONTINUOUS
 10
180.6985764539
 20
178.2452657741
  0
VERTEX
  8
0
 62
7
  6
CONTINUOUS
 10
180.6833481903
 20
178.818065694
  0
VERTEX
  8
0
 62
7
  6
CONTINUOUS
 10
180.6586778637
 20
179.3633278211
  0
VERTEX
  8
0
 62
7
  6
CONTINUOUS
 10
180.64310838
 20
179.6192174628
  0
VERTEX
  8
0
 62
7
  6
CONTINUOUS
 10
180.6063048171
 20
180.0854912888
  0
VERTEX
  8
0
 62
7
  6
CONTINUOUS
 10
180.5632303949
 20
180.4766431999
  0
VERTEX
  8
0
 62
7
  6
CONTINUOUS
 10
180.515625
 20
180.7776980359
  0
SEQEND
  0
POLYLINE
  8
0
 62
7
  6
CONTINUOUS
 66
1
 70
0
  0
VERTEX
  8
0
 62
7
  6
CONTINUOUS
 10
180.7037256266
 20
185.1062879036
  0
VERTEX
  8
0
 62
7
  6
CONTINUOUS
 10
180.6985764539
 20
185.6775582876
  0
VERTEX
  8
0
 62
7
  6
CONTINUOUS
 10
180.6833481903
 20
186.2571071346
  0
VERTEX
  8
0
 62
7
  6
CONTINUOUS
 10
180.6586778637
 20
186.8235361785
  0
VERTEX
  8
0
 62
7
  6
CONTINUOUS
 10
180.64310838
 20
187.0951998307
  0
VERTEX
  8
0
 62
7
  6
CONTINUOUS
 10
180.6063048171
 20
187.6026884939
  0
VERTEX
  8
0
 62
7
  6
CONTINUOUS
 10
180.5632303949
 20
188.046639929
  0
VERTEX
  8
0
 62
7
  6
CONTINUOUS
 10
180.515625
 20
188.4101186267
  0
SEQEND
  0
LINE
  8
0
 62
7
  6
CONTINUOUS
 10
180.515625
 20
228.6958475895
 11
180.515625
 21
227.851308839
  0
LINE
  8
0
 62
7
  6
CONTINUOUS
 10
180.515625
 20
226.5576908762
 11
180.515625
 21
224.8355577354
  0
LINE
  8
0
 62
7
  6
CONTINUOUS
 10
180.515625
 20
223.4486082143
 11
180.515625
 21
220.8869019974
  0
LINE
  8
0
 62
7
  6
CONTINUOUS
 10
180.515625
 20
219.42179687
 11
180.515625
 21
216.0729042193
  0
LINE
  8
0
 62
7
  6
CONTINUOUS
 10
180.515625
 20
214.546156702
 11
180.515625
 21
210.4759332378
  0
LINE
  8
0
 62
7
  6
CONTINUOUS
 10
180.515625
 20
208.9051112654
 11
180.515625
 21
204.1917547782
  0
LINE
  8
0
 62
7
  6
CONTINUOUS
 10
180.515625
 20
202.5951804114
 11
180.515625
 21
197.3278928763
  0
LINE
  8
0
 62
7
  6
CONTINUOUS
 10
180.515625
 20
195.7243288066
 11
180.515625
 21
190.0017901122
  0
LINE
  8
0
 62
7
  6
CONTINUOUS
 10
180.515625
 20
188.4101186267
 11
180.515625
 21
182.3387981353
  0
LINE
  8
0
 62
7
  6
CONTINUOUS
 10
180.515625
 20
180.7776980359
 11
180.515625
 21
174.54119286
  0
LINE
  8
0
 62
7
  6
CONTINUOUS
 10
180.515625
 20
172.9576598666
 11
180.515625
 21
166.6673401334
  0
LINE
  8
0
 62
7
  6
CONTINUOUS
 10
180.515625
 20
165.08380714
 11
180.515625
 21
158.8473019641
  0
LINE
  8
0
 62
7
  6
CONTINUOUS
 10
180.515625
 20
157.2862018647
 11
180.515625
 21
151.2148813733
  0
LINE
  8
0
 62
7
  6
CONTINUOUS
 10
180.515625
 20
149.6232098878
 11
180.515625
 21
143.9006711934
  0
LINE
  8
0
 62
7
  6
CONTINUOUS
 10
180.515625
 20
142.2971071237
 11
180.515625
 21
137.0298195886
  0
LINE
  8
0
 62
7
  6
CONTINUOUS
 10
180.515625
 20
135.4332452218
 11
180.515625
 21
130.7198887346
  0
LINE
  8
0
 62
7
  6
CONTINUOUS
 10
180.515625
 20
129.1490667622
 11
180.515625
 21
125.078843298
  0
LINE
  8
0
 62
7
  6
CONTINUOUS
 10
180.515625
 20
123.5520957807
 11
180.515625
 21
120.20320313
  0
LINE
  8
0
 62
7
  6
CONTINUOUS
 10
180.515625
 20
118.7380980026
 11
180.515625
 21
116.1763917857
  0
LINE
  8
0
 62
7
  6
CONTINUOUS
 10
180.515625
 20
114.7894422646
 11
180.515625
 21
113.0673091238
  0
LINE
  8
0
 62
7
  6
CONTINUOUS
 10
180.515625
 20
111.773691161
 11
180.515625
 21
110.9291524105
  0
LINE
  8
0
 62
7
  6
CONTINUOUS
 10
180.7037256266
 20
211.0568738036
 11
180.7037256266
 21
210.6622751469
  0
LINE
  8
0
 62
7
  6
CONTINUOUS
 10
180.7037256266
 20
205.3720568652
 11
180.7037256266
 21
204.9293285946
  0
LINE
  8
0
 62
7
  6
CONTINUOUS
 10
180.7037256266
 20
199.0788060498
 11
180.7037256266
 21
198.5955233688
  0
LINE
  8
0
 62
7
  6
CONTINUOUS
 10
180.7037256266
 20
192.2848006238
 11
180.7037256266
 21
191.769232633
  0
LINE
  8
0
 62
7
  6
CONTINUOUS
 10
180.7037256266
 20
185.1062879036
 11
180.7037256266
 21
184.5672561143
  0
LINE
  8
0
 62
7
  6
CONTINUOUS
 10
180.7037256266
 20
177.6660942322
 11
180.7037256266
 21
177.1128216277
  0
LINE
  8
0
 62
7
  6
CONTINUOUS
 10
180.7037256266
 20
170.091523386
 11
180.7037256266
 21
169.533476614
  0
LINE
  8
0
 62
7
  6
CONTINUOUS
 10
180.7037256266
 20
162.5121783723
 11
180.7037256266
 21
161.9589057678
  0
LINE
  8
0
 62
7
  6
CONTINUOUS
 10
180.7037256266
 20
155.0577438857
 11
180.7037256266
 21
154.5187120964
  0
LINE
  8
0
 62
7
  6
CONTINUOUS
 10
180.7037256266
 20
147.855767367
 11
180.7037256266
 21
147.3401993762
  0
LINE
  8
0
 62
7
  6
CONTINUOUS
 10
180.7037256266
 20
141.0294766312
 11
180.7037256266
 21
140.5461939502
  0
LINE
  8
0
 62
7
  6
CONTINUOUS
 10
180.7037256266
 20
134.6956714054
 11
180.7037256266
 21
134.2529431348
  0
LINE
  8
0
 62
7
  6
CONTINUOUS
 10
180.7037256266
 20
128.9627248531
 11
180.7037256266
 21
128.5681261964
  0
LINE
  8
0
 62
7
  6
CONTINUOUS
 10
180.7011370433
 20
210.4759332378
 11
180.7037256266
 21
210.6622751469
  0
POLYLINE
  8
0
 62
7
  6
CONTINUOUS
 66
1
 70
0
  0
VERTEX
  8
0
 62
7
  6
CONTINUOUS
 10
180.6846804733
 20
204.1917547782
  0
VERTEX
  8
0
 62
7
  6
CONTINUOUS
 10
180.6985810228
 20
204.5040034656
  0
VERTEX
  8
0
 62
7
  6
CONTINUOUS
 10
180.7037256266
 20
204.9293285946
  0
SEQEND
  0
POLYLINE
  8
0
 62
7
  6
CONTINUOUS
 66
1
 70
0
  0
VERTEX
  8
0
 62
7
  6
CONTINUOUS
 10
188.515625
 20
227.8252693731
  0
VERTEX
  8
0
 62
7
  6
CONTINUOUS
 10
188.5202916299
 20
227.8507103891
  0
VERTEX
  8
0
 62
7
  6
CONTINUOUS
 10
188.522080825
 20
227.8513088388
  0
SEQEND
  0
POLYLINE
  8
0
 62
7
  6
CONTINUOUS
 66
1
 70
0
  0
VERTEX
  8
0
 62
7
  6
CONTINUOUS
 10
180.515625
 20
166.6673401334
  0
VERTEX
  8
0
 62
7
  6
CONTINUOUS
 10
180.5632167117
 20
166.9007347243
  0
VERTEX
  8
0
 62
7
  6
CONTINUOUS
 10
180.6062997272
 20
167.2324319559
  0
VERTEX
  8
0
 62
7
  6
CONTINUOUS
 10
180.6431151645
 20
167.6496536478
  0
VERTEX
  8
0
 62
7
  6
CONTINUOUS
 10
180.658688062
 20
167.8854688128
  0
VERTEX
  8
0
 62
7
  6
CONTINUOUS
 10
180.6833587279
 20
168.4003461643
  0
VERTEX
  8
0
 62
7
  6
CONTINUOUS
 10
180.6985810228
 20
168.9565676575
  0
VERTEX
  8
0
 62
7
  6
CONTINUOUS
 10
180.7037256266
 20
169.533476614
  0
SEQEND
  0
LINE
  8
0
 62
7
  6
CONTINUOUS
 10
165.5133178774
 20
109.7424450302
 11
165.515625
 21
109.7517526492
  0
LINE
  8
0
 62
7
  6
CONTINUOUS
 10
165.5153831031
 20
108.7304590556
 11
165.515625
 21
108.7314307106
  0
LINE
  8
0
 62
7
  6
CONTINUOUS
 10
164.728125
 20
112.2962105018
 11
164.735374765
 21
112.3237924397
  0
LINE
  8
0
 62
7
  6
CONTINUOUS
 10
164.728125
 20
111.7631705814
 11
164.72813468
 21
111.7632052368
  0
POLYLINE
  8
0
 62
7
  6
CONTINUOUS
 66
1
 70
0
  0
VERTEX
  8
0
 62
7
  6
CONTINUOUS
 10
180.515625
 20
174.54119286
  0
VERTEX
  8
0
 62
7
  6
CONTINUOUS
 10
180.5632167117
 20
174.703038177
  0
VERTEX
  8
0
 62
7
  6
CONTINUOUS
 10
180.6062997272
 20
174.9695554909
  0
VERTEX
  8
0
 62
7
  6
CONTINUOUS
 10
180.6431151645
 20
175.3304296865
  0
VERTEX
  8
0
 62
7
  6
CONTINUOUS
 10
180.658688062
 20
175.5420534941
  0
VERTEX
  8
0
 62
7
  6
CONTINUOUS
 10
180.6833587279
 20
176.0176252613
  0
VERTEX
  8
0
 62
7
  6
CONTINUOUS
 10
180.6985810228
 20
176.5477882149
  0
VERTEX
  8
0
 62
7
  6
CONTINUOUS
 10
180.7037256266
 20
177.1128216277
  0
SEQEND
  0
POLYLINE
  8
0
 62
7
  6
CONTINUOUS
 66
1
 70
0
  0
VERTEX
  8
0
 62
7
  6
CONTINUOUS
 10
188.7102671638
 20
174.5079302165
  0
VERTEX
  8
0
 62
7
  6
CONTINUOUS
 10
188.8496305641
 20
174.6267863178
  0
VERTEX
  8
0
 62
7
  6
CONTINUOUS
 10
188.9779408157
 20
174.8522714296
  0
VERTEX
  8
0
 62
7
  6
CONTINUOUS
 10
189.0898073543
 20
175.1738299736
  0
VERTEX
  8
0
 62
7
  6
CONTINUOUS
 10
189.1809831083
 20
175.5775567577
  0
VERTEX
  8
0
 62
7
  6
CONTINUOUS
 10
189.2482443658
 20
176.0473841275
  0
VERTEX
  8
0
 62
7
  6
CONTINUOUS
 10
189.2893237321
 20
176.5649844656
  0
VERTEX
  8
0
 62
7
  6
CONTINUOUS
 10
189.303125
 20
177.1128216277
  0
SEQEND
  0
POLYLINE
  8
0
 62
7
  6
CONTINUOUS
 66
1
 70
0
  0
VERTEX
  8
0
 62
7
  6
CONTINUOUS
 10
165.4159047378
 20
157.2862018649
  0
VERTEX
  8
0
 62
7
  6
CONTINUOUS
 10
165.4500378726
 20
157.3074016486
  0
VERTEX
  8
0
 62
7
  6
CONTINUOUS
 10
165.4808801695
 20
157.3747963548
  0
VERTEX
  8
0
 62
7
  6
CONTINUOUS
 10
165.4931009666
 20
157.4235339382
  0
VERTEX
  8
0
 62
7
  6
CONTINUOUS
 10
165.5099066396
 20
157.5445957299
  0
VERTEX
  8
0
 62
7
  6
CONTINUOUS
 10
165.515625
 20
157.6871384534
  0
SEQEND
  0
LINE
  8
0
 62
7
  6
CONTINUOUS
 10
173.515625
 20
172.9576598666
 11
180.515625
 21
172.9576598666
  0
POLYLINE
  8
0
 62
7
  6
CONTINUOUS
 66
1
 70
0
  0
VERTEX
  8
0
 62
7
  6
CONTINUOUS
 10
173.5130902024
 20
182.3387981353
  0
VERTEX
  8
0
 62
7
  6
CONTINUOUS
 10
173.4680332883
 20
182.4216631655
  0
VERTEX
  8
0
 62
7
  6
CONTINUOUS
 10
173.4249502728
 20
182.6184403767
  0
VERTEX
  8
0
 62
7
  6
CONTINUOUS
 10
173.3881348355
 20
182.9167924184
  0
VERTEX
  8
0
 62
7
  6
CONTINUOUS
 10
173.372561938
 20
183.1006039266
  0
VERTEX
  8
0
 62
7
  6
CONTINUOUS
 10
173.3478912721
 20
183.5287329447
  0
VERTEX
  8
0
 62
7
  6
CONTINUOUS
 10
173.3326689772
 20
184.0237661236
  0
VERTEX
  8
0
 62
7
  6
CONTINUOUS
 10
173.3275243734
 20
184.5672561143
  0
SEQEND
  0
POLYLINE
  8
0
 62
7
  6
CONTINUOUS
 66
1
 70
0
  0
VERTEX
  8
0
 62
7
  6
CONTINUOUS
 10
173.4411223021
 20
190.0017901122
  0
VERTEX
  8
0
 62
7
  6
CONTINUOUS
 10
173.4249502728
 20
190.0482120722
  0
VERTEX
  8
0
 62
7
  6
CONTINUOUS
 10
173.3881348355
 20
190.2789370738
  0
VERTEX
  8
0
 62
7
  6
CONTINUOUS
 10
173.372561938
 20
190.4317912168
  0
VERTEX
  8
0
 62
7
  6
CONTINUOUS
 10
173.3478912721
 20
190.8051520796
  0
VERTEX
  8
0
 62
7
  6
CONTINUOUS
 10
173.3326689772
 20
191.2565853288
  0
VERTEX
  8
0
 62
7
  6
CONTINUOUS
 10
173.3275243734
 20
191.769232633
  0
SEQEND
  0
LINE
  8
0
 62
7
  6
CONTINUOUS
 10
164.7353730113
 20
227.3012075616
 11
164.728125
 21
227.3287894982
  0
LINE
  8
0
 62
7
  6
CONTINUOUS
 10
164.7281340819
 20
227.8617947633
 11
164.728125
 21
227.8618294186
  0
LINE
  8
0
 62
7
  6
CONTINUOUS
 10
165.515625
 20
230.8935692894
 11
165.5153826116
 21
230.8945409454
  0
LINE
  8
0
 62
7
  6
CONTINUOUS
 10
165.515625
 20
229.8732473508
 11
165.5133162372
 21
229.8825549705
  0
POLYLINE
  8
0
 62
7
  6
CONTINUOUS
 66
1
 70
0
  0
VERTEX
  8
0
 62
7
  6
CONTINUOUS
 10
189.303125
 20
113.8133700821
  0
VERTEX
  8
0
 62
7
  6
CONTINUOUS
 10
189.2892200054
 20
113.9101164912
  0
VERTEX
  8
0
 62
7
  6
CONTINUOUS
 10
189.2752806452
 20
113.9193582001
  0
SEQEND
  0
LINE
  8
0
 62
7
  6
CONTINUOUS
 10
180.5107164061
 20
229.8825549705
 11
180.4493835345
 21
230.5955474167
  0
LINE
  8
0
 62
7
  6
CONTINUOUS
 10
180.4493835345
 20
230.5955474167
 11
180.4741182404
 21
230.2968044794
  0
POLYLINE
  8
0
 62
7
  6
CONTINUOUS
 66
1
 70
0
  0
VERTEX
  8
0
 62
7
  6
CONTINUOUS
 10
189.303125
 20
116.2886903012
  0
VERTEX
  8
0
 62
7
  6
CONTINUOUS
 10
189.2892200054
 20
116.4570614167
  0
VERTEX
  8
0
 62
7
  6
CONTINUOUS
 10
189.2480032687
 20
116.5219356365
  0
VERTEX
  8
0
 62
7
  6
CONTINUOUS
 10
189.2417666239
 20
116.5226019432
  0
SEQEND
  0
POLYLINE
  8
0
 62
7
  6
CONTINUOUS
 66
1
 70
0
  0
VERTEX
  8
0
 62
7
  6
CONTINUOUS
 10
180.5844297899
 20
227.851308839
  0
VERTEX
  8
0
 62
7
  6
CONTINUOUS
 10
180.5632303949
 20
228.120565402
  0
VERTEX
  8
0
 62
7
  6
CONTINUOUS
 10
180.515625
 20
228.6958475895
  0
SEQEND
  0
POLYLINE
  8
0
 62
7
  6
CONTINUOUS
 66
1
 70
0
  0
VERTEX
  8
0
 62
7
  6
CONTINUOUS
 10
180.4741182404
 20
230.2968044794
  0
VERTEX
  8
0
 62
7
  6
CONTINUOUS
 10
180.5015778986
 20
229.9483372262
  0
VERTEX
  8
0
 62
7
  6
CONTINUOUS
 10
180.5062004678
 20
229.8825549705
  0
SEQEND
  0
POLYLINE
  8
0
 62
7
  6
CONTINUOUS
 66
1
 70
0
  0
VERTEX
  8
0
 62
7
  6
CONTINUOUS
 10
180.6455771771
 20
224.8355577354
  0
VERTEX
  8
0
 62
7
  6
CONTINUOUS
 10
180.64310838
 20
224.8747439886
  0
VERTEX
  8
0
 62
7
  6
CONTINUOUS
 10
180.6063048171
 20
225.4078031086
  0
VERTEX
  8
0
 62
7
  6
CONTINUOUS
 10
180.5632303949
 20
225.9759001652
  0
VERTEX
  8
0
 62
7
  6
CONTINUOUS
 10
180.515625
 20
226.5576908762
  0
SEQEND
  0
POLYLINE
  8
0
 62
7
  6
CONTINUOUS
 66
1
 70
0
  0
VERTEX
  8
0
 62
7
  6
CONTINUOUS
 10
180.6866688812
 20
220.8869019974
  0
VERTEX
  8
0
 62
7
  6
CONTINUOUS
 10
180.6833481903
 20
220.9783795503
  0
VERTEX
  8
0
 62
7
  6
CONTINUOUS
 10
180.6586778637
 20
221.4673222326
  0
VERTEX
  8
0
 62
7
  6
CONTINUOUS
 10
180.64310838
 20
221.7322802794
  0
VERTEX
  8
0
 62
7
  6
CONTINUOUS
 10
180.6063048171
 20
222.2908841937
  0
VERTEX
  8
0
 62
7
  6
CONTINUOUS
 10
180.5632303949
 20
222.8702635801
  0
VERTEX
  8
0
 62
7
  6
CONTINUOUS
 10
180.515625
 20
223.4486082143
  0
SEQEND
  0
POLYLINE
  8
0
 62
7
  6
CONTINUOUS
 66
1
 70
0
  0
VERTEX
  8
0
 62
7
  6
CONTINUOUS
 10
188.515625
 20
215.9498432985
  0
VERTEX
  8
0
 62
7
  6
CONTINUOUS
 10
188.5202916299
 20
216.0249322168
  0
VERTEX
  8
0
 62
7
  6
CONTINUOUS
 10
188.5340005571
 20
216.0660634254
  0
VERTEX
  8
0
 62
7
  6
CONTINUOUS
 10
188.5461612303
 20
216.0729042179
  0
SEQEND
  0
POLYLINE
  8
0
 62
7
  6
CONTINUOUS
 66
1
 70
0
  0
VERTEX
  8
0
 62
7
  6
CONTINUOUS
 10
188.515625
 20
220.8034950946
  0
VERTEX
  8
0
 62
7
  6
CONTINUOUS
 10
188.5202916299
 20
220.862957196
  0
VERTEX
  8
0
 62
7
  6
CONTINUOUS
 10
188.5340005571
 20
220.886600872
  0
VERTEX
  8
0
 62
7
  6
CONTINUOUS
 10
188.5363154273
 20
220.8869019972
  0
SEQEND
  0
POLYLINE
  8
0
 62
7
  6
CONTINUOUS
 66
1
 70
0
  0
VERTEX
  8
0
 62
7
  6
CONTINUOUS
 10
180.515625
 20
113.0673091238
  0
VERTEX
  8
0
 62
7
  6
CONTINUOUS
 10
180.5632167117
 20
113.6489263918
  0
VERTEX
  8
0
 62
7
  6
CONTINUOUS
 10
180.6062997272
 20
114.2171267644
  0
VERTEX
  8
0
 62
7
  6
CONTINUOUS
 10
180.6431151645
 20
114.7503601579
  0
VERTEX
  8
0
 62
7
  6
CONTINUOUS
 10
180.645577304
 20
114.7894422646
  0
SEQEND
  0
POLYLINE
  8
0
 62
7
  6
CONTINUOUS
 66
1
 70
0
  0
VERTEX
  8
0
 62
7
  6
CONTINUOUS
 10
180.515625
 20
116.1763917857
  0
VERTEX
  8
0
 62
7
  6
CONTINUOUS
 10
180.5632167117
 20
116.7545617937
  0
VERTEX
  8
0
 62
7
  6
CONTINUOUS
 10
180.6062997272
 20
117.334043333
  0
VERTEX
  8
0
 62
7
  6
CONTINUOUS
 10
180.6431151645
 20
117.8928304969
  0
VERTEX
  8
0
 62
7
  6
CONTINUOUS
 10
180.658688062
 20
118.1578593801
  0
VERTEX
  8
0
 62
7
  6
CONTINUOUS
 10
180.6833587279
 20
118.6468602007
  0
VERTEX
  8
0
 62
7
  6
CONTINUOUS
 10
180.6866699763
 20
118.7380980026
  0
SEQEND
  0
POLYLINE
  8
0
 62
7
  6
CONTINUOUS
 66
1
 70
0
  0
VERTEX
  8
0
 62
7
  6
CONTINUOUS
 10
180.515625
 20
110.9291524105
  0
VERTEX
  8
0
 62
7
  6
CONTINUOUS
 10
180.5632167117
 20
111.5042653059
  0
VERTEX
  8
0
 62
7
  6
CONTINUOUS
 10
180.5844296849
 20
111.773691161
  0
SEQEND
  0
POLYLINE
  8
0
 62
7
  6
CONTINUOUS
 66
1
 70
0
  0
VERTEX
  8
0
 62
7
  6
CONTINUOUS
 10
180.515625
 20
120.20320313
  0
VERTEX
  8
0
 62
7
  6
CONTINUOUS
 10
180.5632167117
 20
120.7680332287
  0
VERTEX
  8
0
 62
7
  6
CONTINUOUS
 10
180.6062997272
 20
121.348880845
  0
VERTEX
  8
0
 62
7
  6
CONTINUOUS
 10
180.6431151645
 20
121.9236607759
  0
VERTEX
  8
0
 62
7
  6
CONTINUOUS
 10
180.658688062
 20
122.2019916474
  0
VERTEX
  8
0
 62
7
  6
CONTINUOUS
 10
180.6833587279
 20
122.7275598496
  0
VERTEX
  8
0
 62
7
  6
CONTINUOUS
 10
180.6985810228
 20
123.1956298365
  0
VERTEX
  8
0
 62
7
  6
CONTINUOUS
 10
180.7032428416
 20
123.5520957807
  0
SEQEND
  0
POLYLINE
  8
0
 62
7
  6
CONTINUOUS
 66
1
 70
0
  0
VERTEX
  8
0
 62
7
  6
CONTINUOUS
 10
180.515625
 20
125.078843298
  0
VERTEX
  8
0
 62
7
  6
CONTINUOUS
 10
180.5632167117
 20
125.6206690878
  0
VERTEX
  8
0
 62
7
  6
CONTINUOUS
 10
180.6062997272
 20
126.1929443174
  0
VERTEX
  8
0
 62
7
  6
CONTINUOUS
 10
180.6431151645
 20
126.7738823713
  0
VERTEX
  8
0
 62
7
  6
CONTINUOUS
 10
180.658688062
 20
127.0607529127
  0
VERTEX
  8
0
 62
7
  6
CONTINUOUS
 10
180.6833587279
 20
127.6138958789
  0
VERTEX
  8
0
 62
7
  6
CONTINUOUS
 10
180.6985810228
 20
128.1225934728
  0
VERTEX
  8
0
 62
7
  6
CONTINUOUS
 10
180.7037256266
 20
128.5681261964
  0
SEQEND
  0
POLYLINE
  8
0
 62
7
  6
CONTINUOUS
 66
1
 70
0
  0
VERTEX
  8
0
 62
7
  6
CONTINUOUS
 10
180.515625
 20
130.7198887346
  0
VERTEX
  8
0
 62
7
  6
CONTINUOUS
 10
180.5632167117
 20
131.2294394262
  0
VERTEX
  8
0
 62
7
  6
CONTINUOUS
 10
180.6062997272
 20
131.7833504812
  0
VERTEX
  8
0
 62
7
  6
CONTINUOUS
 10
180.6431151645
 20
132.3605066469
  0
VERTEX
  8
0
 62
7
  6
CONTINUOUS
 10
180.658688062
 20
132.6510084236
  0
VERTEX
  8
0
 62
7
  6
CONTINUOUS
 10
180.6833587279
 20
133.2222617244
  0
VERTEX
  8
0
 62
7
  6
CONTINUOUS
 10
180.6985810228
 20
133.7628829684
  0
VERTEX
  8
0
 62
7
  6
CONTINUOUS
 10
180.7037256266
 20
134.2529431348
  0
SEQEND
  0
POLYLINE
  8
0
 62
7
  6
CONTINUOUS
 66
1
 70
0
  0
VERTEX
  8
0
 62
7
  6
CONTINUOUS
 10
180.515625
 20
137.0298195886
  0
VERTEX
  8
0
 62
7
  6
CONTINUOUS
 10
180.5632167117
 20
137.4983766282
  0
VERTEX
  8
0
 62
7
  6
CONTINUOUS
 10
180.6062997272
 20
138.0244459369
  0
VERTEX
  8
0
 62
7
  6
CONTINUOUS
 10
180.6431151645
 20
138.5879449125
  0
VERTEX
  8
0
 62
7
  6
CONTINUOUS
 10
180.658688062
 20
138.8771073586
  0
VERTEX
  8
0
 62
7
  6
CONTINUOUS
 10
180.6833587279
 20
139.4566966915
  0
VERTEX
  8
0
 62
7
  6
CONTINUOUS
 10
180.6985810228
 20
140.0199914063
  0
VERTEX
  8
0
 62
7
  6
CONTINUOUS
 10
180.7037256266
 20
140.5461939502
  0
SEQEND
  0
POLYLINE
  8
0
 62
7
  6
CONTINUOUS
 66
1
 70
0
  0
VERTEX
  8
0
 62
7
  6
CONTINUOUS
 10
188.515625
 20
224.7846768272
  0
VERTEX
  8
0
 62
7
  6
CONTINUOUS
 10
188.5202916299
 20
224.8274946987
  0
VERTEX
  8
0
 62
7
  6
CONTINUOUS
 10
188.5282432008
 20
224.8355577346
  0
SEQEND
  0
POLYLINE
  8
0
 62
7
  6
CONTINUOUS
 66
1
 70
0
  0
VERTEX
  8
0
 62
7
  6
CONTINUOUS
 10
180.515625
 20
143.9006711934
  0
VERTEX
  8
0
 62
7
  6
CONTINUOUS
 10
180.5632167117
 20
144.3202174403
  0
VERTEX
  8
0
 62
7
  6
CONTINUOUS
 10
180.6062997272
 20
144.8094438109
  0
VERTEX
  8
0
 62
7
  6
CONTINUOUS
 10
180.6431151645
 20
145.3496439727
  0
VERTEX
  8
0
 62
7
  6
CONTINUOUS
 10
180.658688062
 20
145.6325194385
  0
VERTEX
  8
0
 62
7
  6
CONTINUOUS
 10
180.6833587279
 20
146.2105278694
  0
VERTEX
  8
0
 62
7
  6
CONTINUOUS
 10
180.6985810228
 20
146.7868579263
  0
VERTEX
  8
0
 62
7
  6
CONTINUOUS
 10
180.7037256266
 20
147.3401993762
  0
SEQEND
  0
POLYLINE
  8
0
 62
7
  6
CONTINUOUS
 66
1
 70
0
  0
VERTEX
  8
0
 62
7
  6
CONTINUOUS
 10
180.515625
 20
151.2148813733
  0
VERTEX
  8
0
 62
7
  6
CONTINUOUS
 10
180.5632167117
 20
151.5782382747
  0
VERTEX
  8
0
 62
7
  6
CONTINUOUS
 10
180.6062997272
 20
152.0222509085
  0
VERTEX
  8
0
 62
7
  6
CONTINUOUS
 10
180.6431151645
 20
152.5299092818
  0
VERTEX
  8
0
 62
7
  6
CONTINUOUS
 10
180.658688062
 20
152.8016576899
  0
VERTEX
  8
0
 62
7
  6
CONTINUOUS
 10
180.6833587279
 20
153.3681953342
  0
VERTEX
  8
0
 62
7
  6
CONTINUOUS
 10
180.6985810228
 20
153.947699566
  0
VERTEX
  8
0
 62
7
  6
CONTINUOUS
 10
180.7037256266
 20
154.5187120964
  0
SEQEND
  0
POLYLINE
  8
0
 62
7
  6
CONTINUOUS
 66
1
 70
0
  0
VERTEX
  8
0
 62
7
  6
CONTINUOUS
 10
180.515625
 20
158.8473019641
  0
VERTEX
  8
0
 62
7
  6
CONTINUOUS
 10
180.5632167117
 20
159.1482523828
  0
VERTEX
  8
0
 62
7
  6
CONTINUOUS
 10
180.6062997272
 20
159.5394541004
  0
VERTEX
  8
0
 62
7
  6
CONTINUOUS
 10
180.6431151645
 20
160.0058845099
  0
VERTEX
  8
0
 62
7
  6
CONTINUOUS
 10
180.658688062
 20
160.2618561694
  0
VERTEX
  8
0
 62
7
  6
CONTINUOUS
 10
180.6833587279
 20
160.807229411
  0
VERTEX
  8
0
 62
7
  6
CONTINUOUS
 10
180.6985810228
 20
161.3799923398
  0
VERTEX
  8
0
 62
7
  6
CONTINUOUS
 10
180.7037256266
 20
161.9589057678
  0
SEQEND
  0
LINE
  8
0
 62
7
  6
CONTINUOUS
 10
173.515625
 20
174.54119286
 11
180.515625
 21
174.54119286
  0
POLYLINE
  8
0
 62
7
  6
CONTINUOUS
 66
1
 70
0
  0
VERTEX
  8
0
 62
7
  6
CONTINUOUS
 10
165.3048909509
 20
182.3297758107
  0
VERTEX
  8
0
 62
7
  6
CONTINUOUS
 10
165.1816194359
 20
182.3741077971
  0
VERTEX
  8
0
 62
7
  6
CONTINUOUS
 10
165.0533091843
 20
182.5280011239
  0
VERTEX
  8
0
 62
7
  6
CONTINUOUS
 10
164.9414426457
 20
182.7844690837
  0
VERTEX
  8
0
 62
7
  6
CONTINUOUS
 10
164.8502668917
 20
183.1319081365
  0
VERTEX
  8
0
 62
7
  6
CONTINUOUS
 10
164.7830056342
 20
183.5560779326
  0
VERTEX
  8
0
 62
7
  6
CONTINUOUS
 10
164.7419262679
 20
184.0400801514
  0
VERTEX
  8
0
 62
7
  6
CONTINUOUS
 10
164.728125
 20
184.5672561143
  0
SEQEND
  0
POLYLINE
  8
0
 62
7
  6
CONTINUOUS
 66
1
 70
0
  0
VERTEX
  8
0
 62
7
  6
CONTINUOUS
 10
188.6180398251
 20
165.1579389678
  0
VERTEX
  8
0
 62
7
  6
CONTINUOUS
 10
188.5812121274
 20
165.1990653987
  0
VERTEX
  8
0
 62
7
  6
CONTINUOUS
 10
188.5503698305
 20
165.2841712596
  0
VERTEX
  8
0
 62
7
  6
CONTINUOUS
 10
188.5381490334
 20
165.3403286845
  0
VERTEX
  8
0
 62
7
  6
CONTINUOUS
 10
188.5213433604
 20
165.4725660275
  0
VERTEX
  8
0
 62
7
  6
CONTINUOUS
 10
188.515625
 20
165.620720573
  0
SEQEND
  0
POLYLINE
  8
0
 62
7
  6
CONTINUOUS
 66
1
 70
0
  0
VERTEX
  8
0
 62
7
  6
CONTINUOUS
 10
189.303125
 20
119.6798177438
  0
VERTEX
  8
0
 62
7
  6
CONTINUOUS
 10
189.2892200054
 20
119.9169326892
  0
VERTEX
  8
0
 62
7
  6
CONTINUOUS
 10
189.2480032687
 20
120.0544029046
  0
VERTEX
  8
0
 62
7
  6
CONTINUOUS
 10
189.1959457841
 20
120.088981451
  0
SEQEND
  0
POLYLINE
  8
0
 62
7
  6
CONTINUOUS
 66
1
 70
0
  0
VERTEX
  8
0
 62
7
  6
CONTINUOUS
 10
189.303125
 20
123.9287292793
  0
VERTEX
  8
0
 62
7
  6
CONTINUOUS
 10
189.2892200054
 20
124.2305309521
  0
VERTEX
  8
0
 62
7
  6
CONTINUOUS
 10
189.2480032687
 20
124.4382450095
  0
VERTEX
  8
0
 62
7
  6
CONTINUOUS
 10
189.1807465637
 20
124.5443525708
  0
VERTEX
  8
0
 62
7
  6
CONTINUOUS
 10
189.1387473721
 20
124.5574749784
  0
SEQEND
  0
POLYLINE
  8
0
 62
7
  6
CONTINUOUS
 66
1
 70
0
  0
VERTEX
  8
0
 62
7
  6
CONTINUOUS
 10
189.303125
 20
128.9627248531
  0
VERTEX
  8
0
 62
7
  6
CONTINUOUS
 10
189.2892200054
 20
129.3240493431
  0
VERTEX
  8
0
 62
7
  6
CONTINUOUS
 10
189.2480032687
 20
129.5984531975
  0
VERTEX
  8
0
 62
7
  6
CONTINUOUS
 10
189.1807465637
 20
129.7763646713
  0
VERTEX
  8
0
 62
7
  6
CONTINUOUS
 10
189.0897655978
 20
129.8498816585
  0
VERTEX
  8
0
 62
7
  6
CONTINUOUS
 10
189.0712878394
 20
129.8516253611
  0
SEQEND
  0
POLYLINE
  8
0
 62
7
  6
CONTINUOUS
 66
1
 70
0
  0
VERTEX
  8
0
 62
7
  6
CONTINUOUS
 10
189.303125
 20
134.6956714054
  0
VERTEX
  8
0
 62
7
  6
CONTINUOUS
 10
189.2892200054
 20
135.1103363503
  0
VERTEX
  8
0
 62
7
  6
CONTINUOUS
 10
189.2480032687
 20
135.4467348757
  0
VERTEX
  8
0
 62
7
  6
CONTINUOUS
 10
189.1807465637
 20
135.6934061474
  0
VERTEX
  8
0
 62
7
  6
CONTINUOUS
 10
189.0897655978
 20
135.8401050877
  0
VERTEX
  8
0
 62
7
  6
CONTINUOUS
 10
188.994817235
 20
135.8808482184
  0
SEQEND
  0
POLYLINE
  8
0
 62
7
  6
CONTINUOUS
 66
1
 70
0
  0
VERTEX
  8
0
 62
7
  6
CONTINUOUS
 10
189.303125
 20
141.0294766312
  0
VERTEX
  8
0
 62
7
  6
CONTINUOUS
 10
189.2892200054
 20
141.4903869989
  0
VERTEX
  8
0
 62
7
  6
CONTINUOUS
 10
189.2480032687
 20
141.8830243232
  0
VERTEX
  8
0
 62
7
  6
CONTINUOUS
 10
189.1807465637
 20
142.1942347789
  0
VERTEX
  8
0
 62
7
  6
CONTINUOUS
 10
189.0897655978
 20
142.4116056128
  0
VERTEX
  8
0
 62
7
  6
CONTINUOUS
 10
188.9781978251
 20
142.5257203054
  0
VERTEX
  8
0
 62
7
  6
CONTINUOUS
 10
188.9107702675
 20
142.5419818835
  0
SEQEND
  0
POLYLINE
  8
0
 62
7
  6
CONTINUOUS
 66
1
 70
0
  0
VERTEX
  8
0
 62
7
  6
CONTINUOUS
 10
189.303125
 20
147.855767367
  0
VERTEX
  8
0
 62
7
  6
CONTINUOUS
 10
189.2892200054
 20
148.3550368533
  0
VERTEX
  8
0
 62
7
  6
CONTINUOUS
 10
189.2480032687
 20
148.797194843
  0
VERTEX
  8
0
 62
7
  6
CONTINUOUS
 10
189.1807465637
 20
149.1676195856
  0
VERTEX
  8
0
 62
7
  6
CONTINUOUS
 10
189.0897655978
 20
149.4519430378
  0
VERTEX
  8
0
 62
7
  6
CONTINUOUS
 10
188.9781978251
 20
149.6385486089
  0
VERTEX
  8
0
 62
7
  6
CONTINUOUS
 10
188.8500226734
 20
149.7184331225
  0
VERTEX
  8
0
 62
7
  6
CONTINUOUS
 10
188.8207593293
 20
149.7210524988
  0
SEQEND
  0
POLYLINE
  8
0
 62
7
  6
CONTINUOUS
 66
1
 70
0
  0
VERTEX
  8
0
 62
7
  6
CONTINUOUS
 10
189.303125
 20
155.0577438857
  0
VERTEX
  8
0
 62
7
  6
CONTINUOUS
 10
189.2892200054
 20
155.5868298512
  0
VERTEX
  8
0
 62
7
  6
CONTINUOUS
 10
189.2480032687
 20
156.0709430606
  0
VERTEX
  8
0
 62
7
  6
CONTINUOUS
 10
189.1807465637
 20
156.49424402
  0
VERTEX
  8
0
 62
7
  6
CONTINUOUS
 10
189.0897655978
 20
156.8406552374
  0
VERTEX
  8
0
 62
7
  6
CONTINUOUS
 10
188.9781978251
 20
157.0965588139
  0
VERTEX
  8
0
 62
7
  6
CONTINUOUS
 10
188.8500226734
 20
157.2506020138
  0
VERTEX
  8
0
 62
7
  6
CONTINUOUS
 10
188.7263731885
 20
157.2952241875
  0
SEQEND
  0
POLYLINE
  8
0
 62
7
  6
CONTINUOUS
 66
1
 70
0
  0
VERTEX
  8
0
 62
7
  6
CONTINUOUS
 10
189.303125
 20
192.2848006238
  0
VERTEX
  8
0
 62
7
  6
CONTINUOUS
 10
189.2892200054
 20
192.8225031871
  0
VERTEX
  8
0
 62
7
  6
CONTINUOUS
 10
189.2480032687
 20
193.382934793
  0
VERTEX
  8
0
 62
7
  6
CONTINUOUS
 10
189.1807465637
 20
193.948481692
  0
VERTEX
  8
0
 62
7
  6
CONTINUOUS
 10
189.0897655978
 20
194.4990575469
  0
VERTEX
  8
0
 62
7
  6
CONTINUOUS
 10
188.9781978251
 20
195.0150680044
  0
VERTEX
  8
0
 62
7
  6
CONTINUOUS
 10
188.8500226734
 20
195.4770011964
  0
VERTEX
  8
0
 62
7
  6
CONTINUOUS
 10
188.7102671638
 20
195.865493642
  0
SEQEND
  0
POLYLINE
  8
0
 62
7
  6
CONTINUOUS
 66
1
 70
0
  0
VERTEX
  8
0
 62
7
  6
CONTINUOUS
 10
189.303125
 20
162.5121783723
  0
VERTEX
  8
0
 62
7
  6
CONTINUOUS
 10
189.2892200054
 20
163.0620280095
  0
VERTEX
  8
0
 62
7
  6
CONTINUOUS
 10
189.2480032687
 20
163.5798131273
  0
VERTEX
  8
0
 62
7
  6
CONTINUOUS
 10
189.1807465637
 20
164.0487475068
  0
VERTEX
  8
0
 62
7
  6
CONTINUOUS
 10
189.0897655978
 20
164.4513192974
  0
VERTEX
  8
0
 62
7
  6
CONTINUOUS
 10
188.9781978251
 20
164.7721422982
  0
VERTEX
  8
0
 62
7
  6
CONTINUOUS
 10
188.8500226734
 20
164.9977084626
  0
VERTEX
  8
0
 62
7
  6
CONTINUOUS
 10
188.7102671638
 20
165.1170697835
  0
SEQEND
  0
POLYLINE
  8
0
 62
7
  6
CONTINUOUS
 66
1
 70
0
  0
VERTEX
  8
0
 62
7
  6
CONTINUOUS
 10
189.303125
 20
185.1062879036
  0
VERTEX
  8
0
 62
7
  6
CONTINUOUS
 10
189.2892200054
 20
185.6613671876
  0
VERTEX
  8
0
 62
7
  6
CONTINUOUS
 10
189.2480032687
 20
186.2254720083
  0
VERTEX
  8
0
 62
7
  6
CONTINUOUS
 10
189.1807465637
 20
186.7807393031
  0
VERTEX
  8
0
 62
7
  6
CONTINUOUS
 10
189.0897655978
 20
187.3072241448
  0
VERTEX
  8
0
 62
7
  6
CONTINUOUS
 10
188.9781978251
 20
187.7859130602
  0
VERTEX
  8
0
 62
7
  6
CONTINUOUS
 10
188.8500226734
 20
188.1983460041
  0
VERTEX
  8
0
 62
7
  6
CONTINUOUS
 10
188.7102671638
 20
188.5268448066
  0
SEQEND
  0
POLYLINE
  8
0
 62
7
  6
CONTINUOUS
 66
1
 70
0
  0
VERTEX
  8
0
 62
7
  6
CONTINUOUS
 10
189.303125
 20
170.091523386
  0
VERTEX
  8
0
 62
7
  6
CONTINUOUS
 10
189.2892200054
 20
170.6527286152
  0
VERTEX
  8
0
 62
7
  6
CONTINUOUS
 10
189.2480032687
 20
171.1953261944
  0
VERTEX
  8
0
 62
7
  6
CONTINUOUS
 10
189.1807465637
 20
171.7018703967
  0
VERTEX
  8
0
 62
7
  6
CONTINUOUS
 10
189.0897655978
 20
172.1537146456
  0
VERTEX
  8
0
 62
7
  6
CONTINUOUS
 10
188.9781978251
 20
172.5339677002
  0
VERTEX
  8
0
 62
7
  6
CONTINUOUS
 10
188.8500226734
 20
172.8271973295
  0
VERTEX
  8
0
 62
7
  6
CONTINUOUS
 10
188.7102671638
 20
173.0199694087
  0
SEQEND
  0
POLYLINE
  8
0
 62
7
  6
CONTINUOUS
 66
1
 70
0
  0
VERTEX
  8
0
 62
7
  6
CONTINUOUS
 10
189.303125
 20
177.6660942322
  0
VERTEX
  8
0
 62
7
  6
CONTINUOUS
 10
189.2892200054
 20
178.2290526763
  0
VERTEX
  8
0
 62
7
  6
CONTINUOUS
 10
189.2480032687
 20
178.7871787219
  0
VERTEX
  8
0
 62
7
  6
CONTINUOUS
 10
189.1807465637
 20
179.3226656353
  0
VERTEX
  8
0
 62
7
  6
CONTINUOUS
 10
189.0897655978
 20
179.8160511622
  0
VERTEX
  8
0
 62
7
  6
CONTINUOUS
 10
188.9781978251
 20
180.2492280353
  0
VERTEX
  8
0
 62
7
  6
CONTINUOUS
 10
188.8500226734
 20
180.6051038892
  0
VERTEX
  8
0
 62
7
  6
CONTINUOUS
 10
188.7102671638
 20
180.867988343
  0
SEQEND
  0
LINE
  8
0
 62
7
  6
CONTINUOUS
 10
188.515625
 20
230.8935692894
 11
188.515625
 21
230.8687771976
  0
LINE
  8
0
 62
7
  6
CONTINUOUS
 10
188.515625
 20
229.8732473508
 11
188.515625
 21
229.799295275
  0
LINE
  8
0
 62
7
  6
CONTINUOUS
 10
188.515625
 20
227.8252693731
 11
188.515625
 21
227.7034226537
  0
LINE
  8
0
 62
7
  6
CONTINUOUS
 10
188.515625
 20
224.7846768272
 11
188.515625
 21
224.6170202954
  0
LINE
  8
0
 62
7
  6
CONTINUOUS
 10
188.515625
 20
220.8034950946
 11
188.515625
 21
220.5928974002
  0
LINE
  8
0
 62
7
  6
CONTINUOUS
 10
188.515625
 20
215.9498432985
 11
188.515625
 21
215.6999078264
  0
LINE
  8
0
 62
7
  6
CONTINUOUS
 10
188.515625
 20
210.306768767
 11
188.515625
 21
210.0217719824
  0
LINE
  8
0
 62
7
  6
CONTINUOUS
 10
188.515625
 20
203.9708260697
 11
188.515625
 21
203.6556443466
  0
LINE
  8
0
 62
7
  6
CONTINUOUS
 10
188.515625
 20
197.0504249428
 11
188.515625
 21
196.710451128
  0
LINE
  8
0
 62
7
  6
CONTINUOUS
 10
188.515625
 20
189.6639753684
 11
188.515625
 21
189.305026508
  0
LINE
  8
0
 62
7
  6
CONTINUOUS
 10
188.515625
 20
181.9378615466
 11
188.515625
 21
181.5660793552
  0
LINE
  8
0
 62
7
  6
CONTINUOUS
 10
188.515625
 20
174.004279427
 11
188.515625
 21
173.6260252008
  0
LINE
  8
0
 62
7
  6
CONTINUOUS
 10
188.515625
 20
165.9989747992
 11
188.515625
 21
165.620720573
  0
LINE
  8
0
 62
7
  6
CONTINUOUS
 10
188.515625
 20
158.0589206448
 11
188.515625
 21
157.6871384534
  0
LINE
  8
0
 62
7
  6
CONTINUOUS
 10
188.515625
 20
150.319973492
 11
188.515625
 21
149.9610246316
  0
LINE
  8
0
 62
7
  6
CONTINUOUS
 10
188.515625
 20
142.914548872
 11
188.515625
 21
142.5745750572
  0
LINE
  8
0
 62
7
  6
CONTINUOUS
 10
188.515625
 20
135.9693556534
 11
188.515625
 21
135.6541739303
  0
LINE
  8
0
 62
7
  6
CONTINUOUS
 10
188.515625
 20
129.6032280176
 11
188.515625
 21
129.318231233
  0
LINE
  8
0
 62
7
  6
CONTINUOUS
 10
188.515625
 20
123.9250921736
 11
188.515625
 21
123.6751567015
  0
LINE
  8
0
 62
7
  6
CONTINUOUS
 10
188.515625
 20
119.0321025998
 11
188.515625
 21
118.8215049054
  0
LINE
  8
0
 62
7
  6
CONTINUOUS
 10
188.515625
 20
115.0079797046
 11
188.515625
 21
114.8403231728
  0
LINE
  8
0
 62
7
  6
CONTINUOUS
 10
188.515625
 20
111.9215773463
 11
188.515625
 21
111.7997306269
  0
LINE
  8
0
 62
7
  6
CONTINUOUS
 10
188.515625
 20
109.825704725
 11
188.515625
 21
109.7517526492
  0
LINE
  8
0
 62
7
  6
CONTINUOUS
 10
188.515625
 20
108.7562228024
 11
188.515625
 21
108.7314307106
  0
LINE
  8
0
 62
7
  6
CONTINUOUS
 10
189.303125
 20
227.4016292184
 11
189.303125
 21
227.3287894982
  0
LINE
  8
0
 62
7
  6
CONTINUOUS
 10
189.303125
 20
225.9560630505
 11
189.303125
 21
225.8116299179
  0
LINE
  8
0
 62
7
  6
CONTINUOUS
 10
189.303125
 20
223.5498649529
 11
189.303125
 21
223.3363096988
  0
LINE
  8
0
 62
7
  6
CONTINUOUS
 10
189.303125
 20
220.2242056422
 11
189.303125
 21
219.9451822562
  0
LINE
  8
0
 62
7
  6
CONTINUOUS
 10
189.303125
 20
216.0359880711
 11
189.303125
 21
215.6962707207
  0
LINE
  8
0
 62
7
  6
CONTINUOUS
 10
189.303125
 20
211.0568738036
 11
189.303125
 21
210.6622751469
  0
LINE
  8
0
 62
7
  6
CONTINUOUS
 10
189.303125
 20
205.3720568652
 11
189.303125
 21
204.9293285946
  0
LINE
  8
0
 62
7
  6
CONTINUOUS
 10
189.303125
 20
199.0788060498
 11
189.303125
 21
198.5955233688
  0
LINE
  8
0
 62
7
  6
CONTINUOUS
 10
189.303125
 20
192.2848006238
 11
189.303125
 21
191.769232633
  0
LINE
  8
0
 62
7
  6
CONTINUOUS
 10
189.303125
 20
185.1062879036
 11
189.303125
 21
184.5672561143
  0
LINE
  8
0
 62
7
  6
CONTINUOUS
 10
189.303125
 20
177.6660942322
 11
189.303125
 21
177.1128216277
  0
LINE
  8
0
 62
7
  6
CONTINUOUS
 10
189.303125
 20
170.091523386
 11
189.303125
 21
169.533476614
  0
LINE
  8
0
 62
7
  6
CONTINUOUS
 10
189.303125
 20
162.5121783723
 11
189.303125
 21
161.9589057678
  0
LINE
  8
0
 62
7
  6
CONTINUOUS
 10
189.303125
 20
155.0577438857
 11
189.303125
 21
154.5187120964
  0
LINE
  8
0
 62
7
  6
CONTINUOUS
 10
189.303125
 20
147.855767367
 11
189.303125
 21
147.3401993762
  0
LINE
  8
0
 62
7
  6
CONTINUOUS
 10
189.303125
 20
141.0294766312
 11
189.303125
 21
140.5461939502
  0
LINE
  8
0
 62
7
  6
CONTINUOUS
 10
189.303125
 20
134.6956714054
 11
189.303125
 21
134.2529431348
  0
LINE
  8
0
 62
7
  6
CONTINUOUS
 10
189.303125
 20
128.9627248531
 11
189.303125
 21
128.5681261964
  0
LINE
  8
0
 62
7
  6
CONTINUOUS
 10
189.303125
 20
123.9287292793
 11
189.303125
 21
123.5890119289
  0
LINE
  8
0
 62
7
  6
CONTINUOUS
 10
189.303125
 20
119.6798177438
 11
189.303125
 21
119.4007943578
  0
LINE
  8
0
 62
7
  6
CONTINUOUS
 10
189.303125
 20
116.2886903012
 11
189.303125
 21
116.0751350471
  0
LINE
  8
0
 62
7
  6
CONTINUOUS
 10
189.303125
 20
113.8133700821
 11
189.303125
 21
113.6689369495
  0
LINE
  8
0
 62
7
  6
CONTINUOUS
 10
189.303125
 20
112.2962105018
 11
189.303125
 21
112.2233707816
  0
LINE
  8
0
 62
7
  6
CONTINUOUS
 10
189.515625
 20
227.0124990973
 11
189.515625
 21
112.6125009027
  0
POLYLINE
  8
0
 62
7
  6
CONTINUOUS
 66
1
 70
0
  0
VERTEX
  8
0
 62
7
  6
CONTINUOUS
 10
188.515625
 20
158.0589206448
  0
VERTEX
  8
0
 62
7
  6
CONTINUOUS
 10
188.5202916299
 20
158.1958849123
  0
VERTEX
  8
0
 62
7
  6
CONTINUOUS
 10
188.5340005571
 20
158.3301434654
  0
VERTEX
  8
0
 62
7
  6
CONTINUOUS
 10
188.5559209552
 20
158.451949849
  0
VERTEX
  8
0
 62
7
  6
CONTINUOUS
 10
188.5846286928
 20
158.5517543655
  0
VERTEX
  8
0
 62
7
  6
CONTINUOUS
 10
188.6180398251
 20
158.6209505546
  0
SEQEND
  0
POLYLINE
  8
0
 62
7
  6
CONTINUOUS
 66
1
 70
0
  0
VERTEX
  8
0
 62
7
  6
CONTINUOUS
 10
188.515625
 20
165.9989747992
  0
VERTEX
  8
0
 62
7
  6
CONTINUOUS
 10
188.5202916299
 20
166.1357630841
  0
VERTEX
  8
0
 62
7
  6
CONTINUOUS
 10
188.5340005571
 20
166.2649546426
  0
VERTEX
  8
0
 62
7
  6
CONTINUOUS
 10
188.5559209552
 20
166.377094944
  0
VERTEX
  8
0
 62
7
  6
CONTINUOUS
 10
188.5846286928
 20
166.4632514002
  0
VERTEX
  8
0
 62
7
  6
CONTINUOUS
 10
188.6180398251
 20
166.5158020857
  0
SEQEND
  0
POLYLINE
  8
0
 62
7
  6
CONTINUOUS
 66
1
 70
0
  0
VERTEX
  8
0
 62
7
  6
CONTINUOUS
 10
188.515625
 20
174.004279427
  0
VERTEX
  8
0
 62
7
  6
CONTINUOUS
 10
188.5202916299
 20
174.1385512439
  0
VERTEX
  8
0
 62
7
  6
CONTINUOUS
 10
188.5340005571
 20
174.2604653044
  0
VERTEX
  8
0
 62
7
  6
CONTINUOUS
 10
188.5559209552
 20
174.361020772
  0
VERTEX
  8
0
 62
7
  6
CONTINUOUS
 10
188.5846286928
 20
174.432055007
  0
VERTEX
  8
0
 62
7
  6
CONTINUOUS
 10
188.6180398251
 20
174.4670610322
  0
SEQEND
  0
POLYLINE
  8
0
 62
7
  6
CONTINUOUS
 66
1
 70
0
  0
VERTEX
  8
0
 62
7
  6
CONTINUOUS
 10
188.515625
 20
150.319973492
  0
VERTEX
  8
0
 62
7
  6
CONTINUOUS
 10
188.5202916299
 20
150.4547702454
  0
VERTEX
  8
0
 62
7
  6
CONTINUOUS
 10
188.5340005571
 20
150.5917985921
  0
VERTEX
  8
0
 62
7
  6
CONTINUOUS
 10
188.5559209552
 20
150.7211869167
  0
VERTEX
  8
0
 62
7
  6
CONTINUOUS
 10
188.5846286928
 20
150.8329318107
  0
VERTEX
  8
0
 62
7
  6
CONTINUOUS
 10
188.6180398251
 20
150.9175895374
  0
SEQEND
  0
POLYLINE
  8
0
 62
7
  6
CONTINUOUS
 66
1
 70
0
  0
VERTEX
  8
0
 62
7
  6
CONTINUOUS
 10
188.515625
 20
142.914548872
  0
VERTEX
  8
0
 62
7
  6
CONTINUOUS
 10
188.5202916299
 20
143.0448717016
  0
VERTEX
  8
0
 62
7
  6
CONTINUOUS
 10
188.5340005571
 20
143.1823252488
  0
VERTEX
  8
0
 62
7
  6
CONTINUOUS
 10
188.5559209552
 20
143.3170816445
  0
VERTEX
  8
0
 62
7
  6
CONTINUOUS
 10
188.5846286928
 20
143.4388549297
  0
VERTEX
  8
0
 62
7
  6
CONTINUOUS
 10
188.6180398251
 20
143.5375256768
  0
SEQEND
  0
POLYLINE
  8
0
 62
7
  6
CONTINUOUS
 66
1
 70
0
  0
VERTEX
  8
0
 62
7
  6
CONTINUOUS
 10
188.515625
 20
181.9378615466
  0
VERTEX
  8
0
 62
7
  6
CONTINUOUS
 10
188.5202916299
 20
182.0673194675
  0
VERTEX
  8
0
 62
7
  6
CONTINUOUS
 10
188.5340005571
 20
182.1798700466
  0
VERTEX
  8
0
 62
7
  6
CONTINUOUS
 10
188.5559209552
 20
182.2671201486
  0
VERTEX
  8
0
 62
7
  6
CONTINUOUS
 10
188.5846286928
 20
182.3218167469
  0
VERTEX
  8
0
 62
7
  6
CONTINUOUS
 10
188.6153449202
 20
182.3387981344
  0
SEQEND
  0
POLYLINE
  8
0
 62
7
  6
CONTINUOUS
 66
1
 70
0
  0
VERTEX
  8
0
 62
7
  6
CONTINUOUS
 10
188.515625
 20
135.9693556534
  0
VERTEX
  8
0
 62
7
  6
CONTINUOUS
 10
188.5202916299
 20
136.0929746994
  0
VERTEX
  8
0
 62
7
  6
CONTINUOUS
 10
188.5340005571
 20
136.2285015788
  0
VERTEX
  8
0
 62
7
  6
CONTINUOUS
 10
188.5559209552
 20
136.3663203262
  0
VERTEX
  8
0
 62
7
  6
CONTINUOUS
 10
188.5846286928
 20
136.4960384281
  0
VERTEX
  8
0
 62
7
  6
CONTINUOUS
 10
188.6180398251
 20
136.6070339117
  0
SEQEND
  0
POLYLINE
  8
0
 62
7
  6
CONTINUOUS
 66
1
 70
0
  0
VERTEX
  8
0
 62
7
  6
CONTINUOUS
 10
188.515625
 20
189.6639753684
  0
VERTEX
  8
0
 62
7
  6
CONTINUOUS
 10
188.5202916299
 20
189.7864043323
  0
VERTEX
  8
0
 62
7
  6
CONTINUOUS
 10
188.5340005571
 20
189.8876656585
  0
VERTEX
  8
0
 62
7
  6
CONTINUOUS
 10
188.5559209552
 20
189.9601175213
  0
VERTEX
  8
0
 62
7
  6
CONTINUOUS
 10
188.5846286928
 20
189.997540609
  0
VERTEX
  8
0
 62
7
  6
CONTINUOUS
 10
188.5996187503
 20
190.0017901119
  0
SEQEND
  0
POLYLINE
  8
0
 62
7
  6
CONTINUOUS
 66
1
 70
0
  0
VERTEX
  8
0
 62
7
  6
CONTINUOUS
 10
188.515625
 20
197.0504249428
  0
VERTEX
  8
0
 62
7
  6
CONTINUOUS
 10
188.5202916299
 20
197.1637301562
  0
VERTEX
  8
0
 62
7
  6
CONTINUOUS
 10
188.5340005571
 20
197.25196962
  0
VERTEX
  8
0
 62
7
  6
CONTINUOUS
 10
188.5559209552
 20
197.3083835722
  0
VERTEX
  8
0
 62
7
  6
CONTINUOUS
 10
188.5845807678
 20
197.3278928763
  0
SEQEND
  0
POLYLINE
  8
0
 62
7
  6
CONTINUOUS
 66
1
 70
0
  0
VERTEX
  8
0
 62
7
  6
CONTINUOUS
 10
188.515625
 20
203.9708260697
  0
VERTEX
  8
0
 62
7
  6
CONTINUOUS
 10
188.5202916299
 20
204.073068849
  0
VERTEX
  8
0
 62
7
  6
CONTINUOUS
 10
188.5340005571
 20
204.1467766487
  0
VERTEX
  8
0
 62
7
  6
CONTINUOUS
 10
188.5559209552
 20
204.186187432
  0
VERTEX
  8
0
 62
7
  6
CONTINUOUS
 10
188.5704986315
 20
204.1917547779
  0
SEQEND
  0
POLYLINE
  8
0
 62
7
  6
CONTINUOUS
 66
1
 70
0
  0
VERTEX
  8
0
 62
7
  6
CONTINUOUS
 10
188.515625
 20
210.306768767
  0
VERTEX
  8
0
 62
7
  6
CONTINUOUS
 10
188.5202916299
 20
210.3961997099
  0
VERTEX
  8
0
 62
7
  6
CONTINUOUS
 10
188.5340005571
 20
210.4541146847
  0
VERTEX
  8
0
 62
7
  6
CONTINUOUS
 10
188.5576232074
 20
210.4759332377
  0
SEQEND
  0
POLYLINE
  8
0
 62
7
  6
CONTINUOUS
 66
1
 70
0
  0
VERTEX
  8
0
 62
7
  6
CONTINUOUS
 10
188.7102671638
 20
166.6050305913
  0
VERTEX
  8
0
 62
7
  6
CONTINUOUS
 10
188.8496305641
 20
166.7970910648
  0
VERTEX
  8
0
 62
7
  6
CONTINUOUS
 10
188.9779408157
 20
167.0903098488
  0
VERTEX
  8
0
 62
7
  6
CONTINUOUS
 10
189.0898073543
 20
167.4714570213
  0
VERTEX
  8
0
 62
7
  6
CONTINUOUS
 10
189.1809831083
 20
167.9245636595
  0
VERTEX
  8
0
 62
7
  6
CONTINUOUS
 10
189.2482443658
 20
168.4320097263
  0
VERTEX
  8
0
 62
7
  6
CONTINUOUS
 10
189.2893237321
 20
168.9743518984
  0
VERTEX
  8
0
 62
7
  6
CONTINUOUS
 10
189.303125
 20
169.533476614
  0
SEQEND
  0
LINE
  8
0
 62
7
  6
CONTINUOUS
 10
188.7102671638
 20
166.6050305913
 11
188.6180398251
 21
166.5158020857
  0
LINE
  8
0
 62
7
  6
CONTINUOUS
 10
165.3209828362
 20
182.3304897289
 11
165.3048909509
 21
182.3297758107
  0
LINE
  8
0
 62
7
  6
CONTINUOUS
 10
165.4159050798
 20
182.3387981344
 11
165.4132101749
 21
182.3386791489
  0
LINE
  8
0
 62
7
  6
CONTINUOUS
 10
173.515625
 20
180.7776980359
 11
180.515625
 21
180.7776980359
  0
LINE
  8
0
 62
7
  6
CONTINUOUS
 10
188.6154042609
 20
182.3387981353
 11
165.4158457391
 21
182.3387981353
  0
LINE
  8
0
 62
7
  6
CONTINUOUS
 10
188.6153449202
 20
182.3387981344
 11
188.6180398251
 21
182.3386791489
  0
LINE
  8
0
 62
7
  6
CONTINUOUS
 10
188.7102671638
 20
182.3304897289
 11
188.7263590491
 21
182.3297758107
  0
LINE
  8
0
 62
7
  6
CONTINUOUS
 10
188.6180398251
 20
173.1091979143
 11
188.7102671638
 21
173.0199694087
  0
POLYLINE
  8
0
 62
7
  6
CONTINUOUS
 66
1
 70
0
  0
VERTEX
  8
0
 62
7
  6
CONTINUOUS
 10
188.6180398251
 20
173.1091979143
  0
VERTEX
  8
0
 62
7
  6
CONTINUOUS
 10
188.5812121274
 20
173.1696662939
  0
VERTEX
  8
0
 62
7
  6
CONTINUOUS
 10
188.5503698305
 20
173.2710271247
  0
VERTEX
  8
0
 62
7
  6
CONTINUOUS
 10
188.5381490334
 20
173.333643522
  0
VERTEX
  8
0
 62
7
  6
CONTINUOUS
 10
188.5213433604
 20
173.4747937986
  0
VERTEX
  8
0
 62
7
  6
CONTINUOUS
 10
188.515625
 20
173.6260252008
  0
SEQEND
  0
POLYLINE
  8
0
 62
7
  6
CONTINUOUS
 66
1
 70
0
  0
VERTEX
  8
0
 62
7
  6
CONTINUOUS
 10
189.303125
 20
225.9560630505
  0
VERTEX
  8
0
 62
7
  6
CONTINUOUS
 10
189.2892200054
 20
226.1498178445
  0
VERTEX
  8
0
 62
7
  6
CONTINUOUS
 10
189.2480032687
 20
226.4395188108
  0
VERTEX
  8
0
 62
7
  6
CONTINUOUS
 10
189.1807465637
 20
226.8168746318
  0
VERTEX
  8
0
 62
7
  6
CONTINUOUS
 10
189.0897655978
 20
227.2698424863
  0
VERTEX
  8
0
 62
7
  6
CONTINUOUS
 10
188.9781978251
 20
227.7839823207
  0
VERTEX
  8
0
 62
7
  6
CONTINUOUS
 10
188.8500226734
 20
228.3420375597
  0
VERTEX
  8
0
 62
7
  6
CONTINUOUS
 10
188.7102671638
 20
228.9229838323
  0
SEQEND
  0
POLYLINE
  8
0
 62
7
  6
CONTINUOUS
 66
1
 70
0
  0
VERTEX
  8
0
 62
7
  6
CONTINUOUS
 10
189.303125
 20
223.5498649529
  0
VERTEX
  8
0
 62
7
  6
CONTINUOUS
 10
189.2892200054
 20
223.8110217242
  0
VERTEX
  8
0
 62
7
  6
CONTINUOUS
 10
189.2480032687
 20
224.1614337124
  0
VERTEX
  8
0
 62
7
  6
CONTINUOUS
 10
189.1807465637
 20
224.5908130645
  0
VERTEX
  8
0
 62
7
  6
CONTINUOUS
 10
189.0897655978
 20
225.0851214533
  0
VERTEX
  8
0
 62
7
  6
CONTINUOUS
 10
188.9781978251
 20
225.6282648696
  0
VERTEX
  8
0
 62
7
  6
CONTINUOUS
 10
188.8500226734
 20
226.201652541
  0
VERTEX
  8
0
 62
7
  6
CONTINUOUS
 10
188.7102671638
 20
226.7833599153
  0
SEQEND
  0
POLYLINE
  8
0
 62
7
  6
CONTINUOUS
 66
1
 70
0
  0
VERTEX
  8
0
 62
7
  6
CONTINUOUS
 10
189.303125
 20
220.2242056422
  0
VERTEX
  8
0
 62
7
  6
CONTINUOUS
 10
189.2892200054
 20
220.548295926
  0
VERTEX
  8
0
 62
7
  6
CONTINUOUS
 10
189.2480032687
 20
220.9534232898
  0
VERTEX
  8
0
 62
7
  6
CONTINUOUS
 10
189.1807465637
 20
221.4274793731
  0
VERTEX
  8
0
 62
7
  6
CONTINUOUS
 10
189.0897655978
 20
221.9546705428
  0
VERTEX
  8
0
 62
7
  6
CONTINUOUS
 10
188.9781978251
 20
222.5175242065
  0
VERTEX
  8
0
 62
7
  6
CONTINUOUS
 10
188.8500226734
 20
223.0964334883
  0
VERTEX
  8
0
 62
7
  6
CONTINUOUS
 10
188.7102671638
 20
223.6689487898
  0
SEQEND
  0
POLYLINE
  8
0
 62
7
  6
CONTINUOUS
 66
1
 70
0
  0
VERTEX
  8
0
 62
7
  6
CONTINUOUS
 10
189.303125
 20
216.0359880711
  0
VERTEX
  8
0
 62
7
  6
CONTINUOUS
 10
189.2892200054
 20
216.4174665929
  0
VERTEX
  8
0
 62
7
  6
CONTINUOUS
 10
189.2480032687
 20
216.8703774908
  0
VERTEX
  8
0
 62
7
  6
CONTINUOUS
 10
189.1807465637
 20
217.3809990744
  0
VERTEX
  8
0
 62
7
  6
CONTINUOUS
 10
189.0897655978
 20
217.9320526377
  0
VERTEX
  8
0
 62
7
  6
CONTINUOUS
 10
188.9781978251
 20
218.5049859666
  0
VERTEX
  8
0
 62
7
  6
CONTINUOUS
 10
188.8500226734
 20
219.0795115604
  0
VERTEX
  8
0
 62
7
  6
CONTINUOUS
 10
188.7102671638
 20
219.6330388937
  0
SEQEND
  0
POLYLINE
  8
0
 62
7
  6
CONTINUOUS
 66
1
 70
0
  0
VERTEX
  8
0
 62
7
  6
CONTINUOUS
 10
189.303125
 20
211.0568738036
  0
VERTEX
  8
0
 62
7
  6
CONTINUOUS
 10
189.2892200054
 20
211.48921336
  0
VERTEX
  8
0
 62
7
  6
CONTINUOUS
 10
189.2480032687
 20
211.982158361
  0
VERTEX
  8
0
 62
7
  6
CONTINUOUS
 10
189.1807465637
 20
212.520608568
  0
VERTEX
  8
0
 62
7
  6
CONTINUOUS
 10
189.0897655978
 20
213.0860958458
  0
VERTEX
  8
0
 62
7
  6
CONTINUOUS
 10
188.9781978251
 20
213.6593057917
  0
VERTEX
  8
0
 62
7
  6
CONTINUOUS
 10
188.8500226734
 20
214.2196174054
  0
VERTEX
  8
0
 62
7
  6
CONTINUOUS
 10
188.7102671638
 20
214.7446857643
  0
SEQEND
  0
POLYLINE
  8
0
 62
7
  6
CONTINUOUS
 66
1
 70
0
  0
VERTEX
  8
0
 62
7
  6
CONTINUOUS
 10
189.303125
 20
205.3720568652
  0
VERTEX
  8
0
 62
7
  6
CONTINUOUS
 10
189.2892200054
 20
205.8478600066
  0
VERTEX
  8
0
 62
7
  6
CONTINUOUS
 10
189.2480032687
 20
206.372404685
  0
VERTEX
  8
0
 62
7
  6
CONTINUOUS
 10
189.1807465637
 20
206.9294704831
  0
VERTEX
  8
0
 62
7
  6
CONTINUOUS
 10
189.0897655978
 20
207.4997158312
  0
VERTEX
  8
0
 62
7
  6
CONTINUOUS
 10
188.9781978251
 20
208.0633946131
  0
VERTEX
  8
0
 62
7
  6
CONTINUOUS
 10
188.8500226734
 20
208.5999051596
  0
VERTEX
  8
0
 62
7
  6
CONTINUOUS
 10
188.7102671638
 20
209.0875304789
  0
SEQEND
  0
POLYLINE
  8
0
 62
7
  6
CONTINUOUS
 66
1
 70
0
  0
VERTEX
  8
0
 62
7
  6
CONTINUOUS
 10
189.303125
 20
199.0788060498
  0
VERTEX
  8
0
 62
7
  6
CONTINUOUS
 10
189.2892200054
 20
199.5899316526
  0
VERTEX
  8
0
 62
7
  6
CONTINUOUS
 10
189.2480032687
 20
200.1371009035
  0
VERTEX
  8
0
 62
7
  6
CONTINUOUS
 10
189.1807465637
 20
200.7032507424
  0
VERTEX
  8
0
 62
7
  6
CONTINUOUS
 10
189.0897655978
 20
201.2684971049
  0
VERTEX
  8
0
 62
7
  6
CONTINUOUS
 10
188.9781978251
 20
201.8130000226
  0
VERTEX
  8
0
 62
7
  6
CONTINUOUS
 10
188.8500226734
 20
202.3165296576
  0
VERTEX
  8
0
 62
7
  6
CONTINUOUS
 10
188.7102671638
 20
202.7583685329
  0
SEQEND
  0
POLYLINE
  8
0
 62
7
  6
CONTINUOUS
 66
1
 70
0
  0
VERTEX
  8
0
 62
7
  6
CONTINUOUS
 10
188.515625
 20
129.6032280176
  0
VERTEX
  8
0
 62
7
  6
CONTINUOUS
 10
188.5202916299
 20
129.7180281238
  0
VERTEX
  8
0
 62
7
  6
CONTINUOUS
 10
188.5340005571
 20
129.8493094331
  0
VERTEX
  8
0
 62
7
  6
CONTINUOUS
 10
188.5559209552
 20
129.9878324152
  0
VERTEX
  8
0
 62
7
  6
CONTINUOUS
 10
188.5846286928
 20
130.123275821
  0
VERTEX
  8
0
 62
7
  6
CONTINUOUS
 10
188.6180398251
 20
130.2446968777
  0
SEQEND
  0
POLYLINE
  8
0
 62
7
  6
CONTINUOUS
 66
1
 70
0
  0
VERTEX
  8
0
 62
7
  6
CONTINUOUS
 10
188.515625
 20
123.9250921736
  0
VERTEX
  8
0
 62
7
  6
CONTINUOUS
 10
188.5202916299
 20
124.0291090784
  0
VERTEX
  8
0
 62
7
  6
CONTINUOUS
 10
188.5340005571
 20
124.1538985578
  0
VERTEX
  8
0
 62
7
  6
CONTINUOUS
 10
188.5559209552
 20
124.290755608
  0
VERTEX
  8
0
 62
7
  6
CONTINUOUS
 10
188.5846286928
 20
124.4296068435
  0
VERTEX
  8
0
 62
7
  6
CONTINUOUS
 10
188.6180398251
 20
124.5593759254
  0
SEQEND
  0
POLYLINE
  8
0
 62
7
  6
CONTINUOUS
 66
1
 70
0
  0
VERTEX
  8
0
 62
7
  6
CONTINUOUS
 10
188.515625
 20
119.0321025998
  0
VERTEX
  8
0
 62
7
  6
CONTINUOUS
 10
188.5202916299
 20
119.1235565452
  0
VERTEX
  8
0
 62
7
  6
CONTINUOUS
 10
188.5340005571
 20
119.2397190121
  0
VERTEX
  8
0
 62
7
  6
CONTINUOUS
 10
188.5559209552
 20
119.3725684684
  0
VERTEX
  8
0
 62
7
  6
CONTINUOUS
 10
188.5846286928
 20
119.5124517505
  0
VERTEX
  8
0
 62
7
  6
CONTINUOUS
 10
188.6180398251
 20
119.6483484725
  0
SEQEND
  0
POLYLINE
  8
0
 62
7
  6
CONTINUOUS
 66
1
 70
0
  0
VERTEX
  8
0
 62
7
  6
CONTINUOUS
 10
188.515625
 20
115.0079797046
  0
VERTEX
  8
0
 62
7
  6
CONTINUOUS
 10
188.5202916299
 20
115.0853058881
  0
VERTEX
  8
0
 62
7
  6
CONTINUOUS
 10
188.5340005571
 20
115.1908537706
  0
VERTEX
  8
0
 62
7
  6
CONTINUOUS
 10
188.5559209552
 20
115.3174225419
  0
VERTEX
  8
0
 62
7
  6
CONTINUOUS
 10
188.5846286928
 20
115.4559444288
  0
VERTEX
  8
0
 62
7
  6
CONTINUOUS
 10
188.6180398251
 20
115.5956435604
  0
SEQEND
  0
POLYLINE
  8
0
 62
7
  6
CONTINUOUS
 66
1
 70
0
  0
VERTEX
  8
0
 62
7
  6
CONTINUOUS
 10
188.515625
 20
111.9215773463
  0
VERTEX
  8
0
 62
7
  6
CONTINUOUS
 10
188.5202916299
 20
111.9834526955
  0
VERTEX
  8
0
 62
7
  6
CONTINUOUS
 10
188.5340005571
 20
112.0765800401
  0
VERTEX
  8
0
 62
7
  6
CONTINUOUS
 10
188.5559209552
 20
112.1947024996
  0
VERTEX
  8
0
 62
7
  6
CONTINUOUS
 10
188.5846286928
 20
112.3294928434
  0
VERTEX
  8
0
 62
7
  6
CONTINUOUS
 10
188.6180398251
 20
112.4706040938
  0
SEQEND
  0
POLYLINE
  8
0
 62
7
  6
CONTINUOUS
 66
1
 70
0
  0
VERTEX
  8
0
 62
7
  6
CONTINUOUS
 10
188.7102671638
 20
158.757011657
  0
VERTEX
  8
0
 62
7
  6
CONTINUOUS
 10
188.8496305641
 20
159.0189902947
  0
VERTEX
  8
0
 62
7
  6
CONTINUOUS
 10
188.9779408157
 20
159.3749256963
  0
VERTEX
  8
0
 62
7
  6
CONTINUOUS
 10
189.0898073543
 20
159.8091399633
  0
VERTEX
  8
0
 62
7
  6
CONTINUOUS
 10
189.1809831083
 20
160.3038736755
  0
VERTEX
  8
0
 62
7
  6
CONTINUOUS
 10
189.2482443658
 20
160.8402558964
  0
VERTEX
  8
0
 62
7
  6
CONTINUOUS
 10
189.2893237321
 20
161.3980602777
  0
VERTEX
  8
0
 62
7
  6
CONTINUOUS
 10
189.303125
 20
161.9589057678
  0
SEQEND
  0
LINE
  8
0
 62
7
  6
CONTINUOUS
 10
188.7102671638
 20
158.757011657
 11
188.6180398251
 21
158.6209505546
  0
POLYLINE
  8
0
 62
7
  6
CONTINUOUS
 66
1
 70
0
  0
VERTEX
  8
0
 62
7
  6
CONTINUOUS
 10
165.44667835
 20
142.2971071238
  0
VERTEX
  8
0
 62
7
  6
CONTINUOUS
 10
165.4808801695
 20
142.3261745339
  0
VERTEX
  8
0
 62
7
  6
CONTINUOUS
 10
165.4931009666
 20
142.3577119178
  0
VERTEX
  8
0
 62
7
  6
CONTINUOUS
 10
165.5099066396
 20
142.4504350636
  0
VERTEX
  8
0
 62
7
  6
CONTINUOUS
 10
165.515625
 20
142.5745750572
  0
SEQEND
  0
POLYLINE
  8
0
 62
7
  6
CONTINUOUS
 66
1
 70
0
  0
VERTEX
  8
0
 62
7
  6
CONTINUOUS
 10
165.4316336443
 20
149.6232098878
  0
VERTEX
  8
0
 62
7
  6
CONTINUOUS
 10
165.4500378726
 20
149.6297035984
  0
VERTEX
  8
0
 62
7
  6
CONTINUOUS
 10
165.4808801695
 20
149.6782340077
  0
VERTEX
  8
0
 62
7
  6
CONTINUOUS
 10
165.4931009666
 20
149.7187178361
  0
VERTEX
  8
0
 62
7
  6
CONTINUOUS
 10
165.5099066396
 20
149.8265326757
  0
VERTEX
  8
0
 62
7
  6
CONTINUOUS
 10
165.515625
 20
149.9610246316
  0
SEQEND
  0
LINE
  8
0
 62
7
  6
CONTINUOUS
 10
165.3209828362
 20
182.3304897289
 11
165.4132101749
 21
182.3386791489
  0
LINE
  8
0
 62
7
  6
CONTINUOUS
 10
188.7102671638
 20
182.3304897289
 11
188.6180398251
 21
182.3386791489
  0
LINE
  8
0
 62
7
  6
CONTINUOUS
 10
188.6180398251
 20
181.0040494454
 11
188.7102671638
 21
180.867988343
  0
POLYLINE
  8
0
 62
7
  6
CONTINUOUS
 66
1
 70
0
  0
VERTEX
  8
0
 62
7
  6
CONTINUOUS
 10
188.6180398251
 20
181.0040494454
  0
VERTEX
  8
0
 62
7
  6
CONTINUOUS
 10
188.5812121274
 20
181.082825143
  0
VERTEX
  8
0
 62
7
  6
CONTINUOUS
 10
188.5503698305
 20
181.1987066319
  0
VERTEX
  8
0
 62
7
  6
CONTINUOUS
 10
188.5381490334
 20
181.2667106176
  0
VERTEX
  8
0
 62
7
  6
CONTINUOUS
 10
188.5213433604
 20
181.4143587074
  0
VERTEX
  8
0
 62
7
  6
CONTINUOUS
 10
188.515625
 20
181.5660793552
  0
SEQEND
  0
POLYLINE
  8
0
 62
7
  6
CONTINUOUS
 66
1
 70
0
  0
VERTEX
  8
0
 62
7
  6
CONTINUOUS
 10
188.515625
 20
109.825704725
  0
VERTEX
  8
0
 62
7
  6
CONTINUOUS
 10
188.5202916299
 20
109.8710705356
  0
VERTEX
  8
0
 62
7
  6
CONTINUOUS
 10
188.5340005571
 20
109.9501839074
  0
VERTEX
  8
0
 62
7
  6
CONTINUOUS
 10
188.5559209552
 20
110.0578389472
  0
VERTEX
  8
0
 62
7
  6
CONTINUOUS
 10
188.5846286928
 20
110.1865914478
  0
VERTEX
  8
0
 62
7
  6
CONTINUOUS
 10
188.6180398251
 20
110.3267003642
  0
SEQEND
  0
POLYLINE
  8
0
 62
7
  6
CONTINUOUS
 66
1
 70
0
  0
VERTEX
  8
0
 62
7
  6
CONTINUOUS
 10
188.515625
 20
108.7562228024
  0
VERTEX
  8
0
 62
7
  6
CONTINUOUS
 10
188.5202916299
 20
108.7843028526
  0
VERTEX
  8
0
 62
7
  6
CONTINUOUS
 10
188.5340005571
 20
108.8480486001
  0
VERTEX
  8
0
 62
7
  6
CONTINUOUS
 10
188.5559209552
 20
108.9433942125
  0
VERTEX
  8
0
 62
7
  6
CONTINUOUS
 10
188.5846286928
 20
109.0639058789
  0
SEQEND
  0
POLYLINE
  8
0
 62
7
  6
CONTINUOUS
 66
1
 70
0
  0
VERTEX
  8
0
 62
7
  6
CONTINUOUS
 10
188.7102671638
 20
136.8666314671
  0
VERTEX
  8
0
 62
7
  6
CONTINUOUS
 10
188.8496305641
 20
137.3070868016
  0
VERTEX
  8
0
 62
7
  6
CONTINUOUS
 10
188.9779408157
 20
137.8108763397
  0
VERTEX
  8
0
 62
7
  6
CONTINUOUS
 10
189.0898073543
 20
138.3567317278
  0
VERTEX
  8
0
 62
7
  6
CONTINUOUS
 10
189.1809831083
 20
138.9234413766
  0
VERTEX
  8
0
 62
7
  6
CONTINUOUS
 10
189.2482443658
 20
139.4903766914
  0
VERTEX
  8
0
 62
7
  6
CONTINUOUS
 10
189.2893237321
 20
140.0370625746
  0
VERTEX
  8
0
 62
7
  6
CONTINUOUS
 10
189.303125
 20
140.5461939502
  0
SEQEND
  0
POLYLINE
  8
0
 62
7
  6
CONTINUOUS
 66
1
 70
0
  0
VERTEX
  8
0
 62
7
  6
CONTINUOUS
 10
188.7102671638
 20
143.759506358
  0
VERTEX
  8
0
 62
7
  6
CONTINUOUS
 10
188.8496305641
 20
144.146754121
  0
VERTEX
  8
0
 62
7
  6
CONTINUOUS
 10
188.9779408157
 20
144.608883403
  0
VERTEX
  8
0
 62
7
  6
CONTINUOUS
 10
189.0898073543
 20
145.1261624081
  0
VERTEX
  8
0
 62
7
  6
CONTINUOUS
 10
189.1809831083
 20
145.6781877636
  0
VERTEX
  8
0
 62
7
  6
CONTINUOUS
 10
189.2482443658
 20
146.2445712737
  0
VERTEX
  8
0
 62
7
  6
CONTINUOUS
 10
189.2893237321
 20
146.8045662513
  0
VERTEX
  8
0
 62
7
  6
CONTINUOUS
 10
189.303125
 20
147.3401993762
  0
SEQEND
  0
LINE
  8
0
 62
7
  6
CONTINUOUS
 10
188.7102671638
 20
143.759506358
 11
188.6180398251
 21
143.5375256768
  0
POLYLINE
  8
0
 62
7
  6
CONTINUOUS
 66
1
 70
0
  0
VERTEX
  8
0
 62
7
  6
CONTINUOUS
 10
188.7102671638
 20
151.0981551934
  0
VERTEX
  8
0
 62
7
  6
CONTINUOUS
 10
188.8496305641
 20
151.4255694682
  0
VERTEX
  8
0
 62
7
  6
CONTINUOUS
 10
188.9779408157
 20
151.838131334
  0
VERTEX
  8
0
 62
7
  6
CONTINUOUS
 10
189.0898073543
 20
152.317983169
  0
VERTEX
  8
0
 62
7
  6
CONTINUOUS
 10
189.1809831083
 20
152.8458789242
  0
VERTEX
  8
0
 62
7
  6
CONTINUOUS
 10
189.2482443658
 20
153.4020196508
  0
VERTEX
  8
0
 62
7
  6
CONTINUOUS
 10
189.2893237321
 20
153.9657420535
  0
VERTEX
  8
0
 62
7
  6
CONTINUOUS
 10
189.303125
 20
154.5187120964
  0
SEQEND
  0
LINE
  8
0
 62
7
  6
CONTINUOUS
 10
188.7102671638
 20
151.0981551934
 11
188.6180398251
 21
150.9175895374
  0
POLYLINE
  8
0
 62
7
  6
CONTINUOUS
 66
1
 70
0
  0
VERTEX
  8
0
 62
7
  6
CONTINUOUS
 10
188.8207424065
 20
189.9039474986
  0
VERTEX
  8
0
 62
7
  6
CONTINUOUS
 10
188.8496305641
 20
189.9064966842
  0
VERTEX
  8
0
 62
7
  6
CONTINUOUS
 10
188.9779408157
 20
189.9861650685
  0
VERTEX
  8
0
 62
7
  6
CONTINUOUS
 10
189.0898073543
 20
190.1731542063
  0
VERTEX
  8
0
 62
7
  6
CONTINUOUS
 10
189.1809831083
 20
190.4583607491
  0
VERTEX
  8
0
 62
7
  6
CONTINUOUS
 10
189.2482443658
 20
190.8296153089
  0
VERTEX
  8
0
 62
7
  6
CONTINUOUS
 10
189.2893237321
 20
191.2717379961
  0
VERTEX
  8
0
 62
7
  6
CONTINUOUS
 10
189.303125
 20
191.769232633
  0
SEQEND
  0
LINE
  8
0
 62
7
  6
CONTINUOUS
 10
173.515625
 20
188.4101186267
 11
180.515625
 21
188.4101186267
  0
LINE
  8
0
 62
7
  6
CONTINUOUS
 10
188.5996512
 20
190.0017901122
 11
165.4315988
 21
190.0017901122
  0
POLYLINE
  8
0
 62
7
  6
CONTINUOUS
 66
1
 70
0
  0
VERTEX
  8
0
 62
7
  6
CONTINUOUS
 10
165.2105075935
 20
189.9039474986
  0
VERTEX
  8
0
 62
7
  6
CONTINUOUS
 10
165.1816194359
 20
189.9064966842
  0
VERTEX
  8
0
 62
7
  6
CONTINUOUS
 10
165.0533091843
 20
189.9861650685
  0
VERTEX
  8
0
 62
7
  6
CONTINUOUS
 10
164.9414426457
 20
190.1731542063
  0
VERTEX
  8
0
 62
7
  6
CONTINUOUS
 10
164.8502668917
 20
190.4583607491
  0
VERTEX
  8
0
 62
7
  6
CONTINUOUS
 10
164.7830056342
 20
190.8296153089
  0
VERTEX
  8
0
 62
7
  6
CONTINUOUS
 10
164.7419262679
 20
191.2717379961
  0
VERTEX
  8
0
 62
7
  6
CONTINUOUS
 10
164.728125
 20
191.769232633
  0
SEQEND
  0
LINE
  8
0
 62
7
  6
CONTINUOUS
 10
188.6180398251
 20
188.7074104626
 11
188.7102671638
 21
188.5268448066
  0
LINE
  8
0
 62
7
  6
CONTINUOUS
 10
188.6180398251
 20
196.0874743232
 11
188.7102671638
 21
195.865493642
  0
POLYLINE
  8
0
 62
7
  6
CONTINUOUS
 66
1
 70
0
  0
VERTEX
  8
0
 62
7
  6
CONTINUOUS
 10
188.6180398251
 20
188.7074104626
  0
VERTEX
  8
0
 62
7
  6
CONTINUOUS
 10
188.5812121274
 20
188.8031456042
  0
VERTEX
  8
0
 62
7
  6
CONTINUOUS
 10
188.5503698305
 20
188.9315649866
  0
VERTEX
  8
0
 62
7
  6
CONTINUOUS
 10
188.5381490334
 20
189.0037929937
  0
VERTEX
  8
0
 62
7
  6
CONTINUOUS
 10
188.5213433604
 20
189.1554125971
  0
VERTEX
  8
0
 62
7
  6
CONTINUOUS
 10
188.515625
 20
189.305026508
  0
SEQEND
  0
POLYLINE
  8
0
 62
7
  6
CONTINUOUS
 66
1
 70
0
  0
VERTEX
  8
0
 62
7
  6
CONTINUOUS
 10
188.6180398251
 20
196.0874743232
  0
VERTEX
  8
0
 62
7
  6
CONTINUOUS
 10
188.5812121274
 20
196.1985308539
  0
VERTEX
  8
0
 62
7
  6
CONTINUOUS
 10
188.5503698305
 20
196.3372908387
  0
VERTEX
  8
0
 62
7
  6
CONTINUOUS
 10
188.5381490334
 20
196.412507026
  0
VERTEX
  8
0
 62
7
  6
CONTINUOUS
 10
188.5213433604
 20
196.5655038894
  0
VERTEX
  8
0
 62
7
  6
CONTINUOUS
 10
188.515625
 20
196.710451128
  0
SEQEND
  0
POLYLINE
  8
0
 62
7
  6
CONTINUOUS
 66
1
 70
0
  0
VERTEX
  8
0
 62
7
  6
CONTINUOUS
 10
188.6180398251
 20
203.0179660883
  0
VERTEX
  8
0
 62
7
  6
CONTINUOUS
 10
188.5812121274
 20
203.1424438001
  0
VERTEX
  8
0
 62
7
  6
CONTINUOUS
 10
188.5503698305
 20
203.2891701655
  0
VERTEX
  8
0
 62
7
  6
CONTINUOUS
 10
188.5381490334
 20
203.3660875631
  0
VERTEX
  8
0
 62
7
  6
CONTINUOUS
 10
188.5213433604
 20
203.5178438678
  0
VERTEX
  8
0
 62
7
  6
CONTINUOUS
 10
188.515625
 20
203.6556443466
  0
SEQEND
  0
POLYLINE
  8
0
 62
7
  6
CONTINUOUS
 66
1
 70
0
  0
VERTEX
  8
0
 62
7
  6
CONTINUOUS
 10
189.303125
 20
227.4016292184
  0
VERTEX
  8
0
 62
7
  6
CONTINUOUS
 10
189.2892200054
 20
227.5246668368
  0
VERTEX
  8
0
 62
7
  6
CONTINUOUS
 10
189.2480032687
 20
227.7486999173
  0
VERTEX
  8
0
 62
7
  6
CONTINUOUS
 10
189.1807465637
 20
228.0675755446
  0
VERTEX
  8
0
 62
7
  6
CONTINUOUS
 10
189.0897655978
 20
228.4714524592
  0
VERTEX
  8
0
 62
7
  6
CONTINUOUS
 10
188.9781978251
 20
228.9477916366
  0
VERTEX
  8
0
 62
7
  6
CONTINUOUS
 10
188.8500226734
 20
229.4809659634
  0
SEQEND
  0
POLYLINE
  8
0
 62
7
  6
CONTINUOUS
 66
1
 70
0
  0
VERTEX
  8
0
 62
7
  6
CONTINUOUS
 10
188.7102671638
 20
112.8416400847
  0
VERTEX
  8
0
 62
7
  6
CONTINUOUS
 10
188.8496305641
 20
113.4216574052
  0
VERTEX
  8
0
 62
7
  6
CONTINUOUS
 10
188.9779408157
 20
113.9955385192
  0
VERTEX
  8
0
 62
7
  6
CONTINUOUS
 10
189.0898073543
 20
114.5400923659
  0
VERTEX
  8
0
 62
7
  6
CONTINUOUS
 10
189.1809831083
 20
115.0355675676
  0
VERTEX
  8
0
 62
7
  6
CONTINUOUS
 10
189.2482443658
 20
115.4653002493
  0
VERTEX
  8
0
 62
7
  6
CONTINUOUS
 10
189.2893237321
 20
115.8151300543
  0
VERTEX
  8
0
 62
7
  6
CONTINUOUS
 10
189.303125
 20
116.0751350471
  0
SEQEND
  0
POLYLINE
  8
0
 62
7
  6
CONTINUOUS
 66
1
 70
0
  0
VERTEX
  8
0
 62
7
  6
CONTINUOUS
 10
188.8496305641
 20
110.1424197374
  0
VERTEX
  8
0
 62
7
  6
CONTINUOUS
 10
188.9779408157
 20
110.6761266314
  0
VERTEX
  8
0
 62
7
  6
CONTINUOUS
 10
189.0898073543
 20
111.1537289058
  0
VERTEX
  8
0
 62
7
  6
CONTINUOUS
 10
189.1809831083
 20
111.5585043142
  0
VERTEX
  8
0
 62
7
  6
CONTINUOUS
 10
189.2482443658
 20
111.8775064593
  0
VERTEX
  8
0
 62
7
  6
CONTINUOUS
 10
189.2893237321
 20
112.100986331
  0
VERTEX
  8
0
 62
7
  6
CONTINUOUS
 10
189.303125
 20
112.2233707816
  0
SEQEND
  0
POLYLINE
  8
0
 62
7
  6
CONTINUOUS
 66
1
 70
0
  0
VERTEX
  8
0
 62
7
  6
CONTINUOUS
 10
188.7102671638
 20
110.7020161677
  0
VERTEX
  8
0
 62
7
  6
CONTINUOUS
 10
188.8496305641
 20
111.2812960072
  0
VERTEX
  8
0
 62
7
  6
CONTINUOUS
 10
188.9779408157
 20
111.8398686778
  0
VERTEX
  8
0
 62
7
  6
CONTINUOUS
 10
189.0898073543
 20
112.3553568108
  0
VERTEX
  8
0
 62
7
  6
CONTINUOUS
 10
189.1809831083
 20
112.8093662293
  0
VERTEX
  8
0
 62
7
  6
CONTINUOUS
 10
189.2482443658
 20
113.1869640444
  0
VERTEX
  8
0
 62
7
  6
CONTINUOUS
 10
189.2893237321
 20
113.4760924161
  0
VERTEX
  8
0
 62
7
  6
CONTINUOUS
 10
189.303125
 20
113.6689369495
  0
SEQEND
  0
POLYLINE
  8
0
 62
7
  6
CONTINUOUS
 66
1
 70
0
  0
VERTEX
  8
0
 62
7
  6
CONTINUOUS
 10
188.7102671638
 20
115.9560512102
  0
VERTEX
  8
0
 62
7
  6
CONTINUOUS
 10
188.8496305641
 20
116.5268817545
  0
VERTEX
  8
0
 62
7
  6
CONTINUOUS
 10
188.9779408157
 20
117.1062520468
  0
VERTEX
  8
0
 62
7
  6
CONTINUOUS
 10
189.0898073543
 20
117.6705541401
  0
VERTEX
  8
0
 62
7
  6
CONTINUOUS
 10
189.1809831083
 20
118.1990174067
  0
VERTEX
  8
0
 62
7
  6
CONTINUOUS
 10
189.2482443658
 20
118.6735321099
  0
VERTEX
  8
0
 62
7
  6
CONTINUOUS
 10
189.2893237321
 20
119.0780776632
  0
VERTEX
  8
0
 62
7
  6
CONTINUOUS
 10
189.303125
 20
119.4007943578
  0
SEQEND
  0
LINE
  8
0
 62
7
  6
CONTINUOUS
 10
188.7102671638
 20
110.7020161677
 11
188.6180398251
 21
110.3267003642
  0
LINE
  8
0
 62
7
  6
CONTINUOUS
 10
188.7102671638
 20
112.8416400847
 11
188.6180398251
 21
112.4706040938
  0
POLYLINE
  8
0
 62
7
  6
CONTINUOUS
 66
1
 70
0
  0
VERTEX
  8
0
 62
7
  6
CONTINUOUS
 10
188.7102671638
 20
119.9919611063
  0
VERTEX
  8
0
 62
7
  6
CONTINUOUS
 10
188.8496305641
 20
120.5438378056
  0
VERTEX
  8
0
 62
7
  6
CONTINUOUS
 10
188.9779408157
 20
121.1187840899
  0
VERTEX
  8
0
 62
7
  6
CONTINUOUS
 10
189.0898073543
 20
121.6931790644
  0
VERTEX
  8
0
 62
7
  6
CONTINUOUS
 10
189.1809831083
 20
122.245588243
  0
VERTEX
  8
0
 62
7
  6
CONTINUOUS
 10
189.2482443658
 20
122.7567658894
  0
VERTEX
  8
0
 62
7
  6
CONTINUOUS
 10
189.2893237321
 20
123.2091053045
  0
VERTEX
  8
0
 62
7
  6
CONTINUOUS
 10
189.303125
 20
123.5890119289
  0
SEQEND
  0
LINE
  8
0
 62
7
  6
CONTINUOUS
 10
188.7102671638
 20
115.9560512102
 11
188.6180398251
 21
115.5956435604
  0
POLYLINE
  8
0
 62
7
  6
CONTINUOUS
 66
1
 70
0
  0
VERTEX
  8
0
 62
7
  6
CONTINUOUS
 10
188.7102671638
 20
124.8803142357
  0
VERTEX
  8
0
 62
7
  6
CONTINUOUS
 10
188.8496305641
 20
125.4037943267
  0
VERTEX
  8
0
 62
7
  6
CONTINUOUS
 10
188.9779408157
 20
125.9644791127
  0
VERTEX
  8
0
 62
7
  6
CONTINUOUS
 10
189.0898073543
 20
126.5391389111
  0
VERTEX
  8
0
 62
7
  6
CONTINUOUS
 10
189.1809831083
 20
127.1060421275
  0
VERTEX
  8
0
 62
7
  6
CONTINUOUS
 10
189.2482443658
 20
127.6451363259
  0
VERTEX
  8
0
 62
7
  6
CONTINUOUS
 10
189.2893237321
 20
128.13752995
  0
VERTEX
  8
0
 62
7
  6
CONTINUOUS
 10
189.303125
 20
128.5681261964
  0
SEQEND
  0
LINE
  8
0
 62
7
  6
CONTINUOUS
 10
188.7102671638
 20
119.9919611063
 11
188.6180398251
 21
119.6483484725
  0
POLYLINE
  8
0
 62
7
  6
CONTINUOUS
 66
1
 70
0
  0
VERTEX
  8
0
 62
7
  6
CONTINUOUS
 10
188.7102671638
 20
130.5374695211
  0
VERTEX
  8
0
 62
7
  6
CONTINUOUS
 10
188.8496305641
 20
131.0235961142
  0
VERTEX
  8
0
 62
7
  6
CONTINUOUS
 10
188.9779408157
 20
131.5604259298
  0
VERTEX
  8
0
 62
7
  6
CONTINUOUS
 10
189.0898073543
 20
132.1255179637
  0
VERTEX
  8
0
 62
7
  6
CONTINUOUS
 10
189.1809831083
 20
132.6972153467
  0
VERTEX
  8
0
 62
7
  6
CONTINUOUS
 10
189.2482443658
 20
133.2550020458
  0
VERTEX
  8
0
 62
7
  6
CONTINUOUS
 10
189.2893237321
 20
133.7790248875
  0
VERTEX
  8
0
 62
7
  6
CONTINUOUS
 10
189.303125
 20
134.2529431348
  0
SEQEND
  0
LINE
  8
0
 62
7
  6
CONTINUOUS
 10
188.7102671638
 20
124.8803142357
 11
188.6180398251
 21
124.5593759254
  0
LINE
  8
0
 62
7
  6
CONTINUOUS
 10
188.7102671638
 20
130.5374695211
 11
188.6180398251
 21
130.2446968777
  0
LINE
  8
0
 62
7
  6
CONTINUOUS
 10
188.7102671638
 20
136.8666314671
 11
188.6180398251
 21
136.6070339117
  0
LINE
  8
0
 62
7
  6
CONTINUOUS
 10
188.6180398251
 20
149.6290291326
 11
188.7102671638
 21
149.6861370337
  0
POLYLINE
  8
0
 62
7
  6
CONTINUOUS
 66
1
 70
0
  0
VERTEX
  8
0
 62
7
  6
CONTINUOUS
 10
165.4607557074
 20
135.4332452231
  0
VERTEX
  8
0
 62
7
  6
CONTINUOUS
 10
165.4808801695
 20
135.4444137096
  0
VERTEX
  8
0
 62
7
  6
CONTINUOUS
 10
165.4931009666
 20
135.4664650355
  0
VERTEX
  8
0
 62
7
  6
CONTINUOUS
 10
165.5099066396
 20
135.5425099687
  0
VERTEX
  8
0
 62
7
  6
CONTINUOUS
 10
165.515625
 20
135.6541739303
  0
SEQEND
  0
LINE
  8
0
 62
7
  6
CONTINUOUS
 10
188.8207593293
 20
149.7210524988
 11
188.7102671638
 21
149.6861370337
  0
LINE
  8
0
 62
7
  6
CONTINUOUS
 10
188.6180398251
 20
149.6290291326
 11
188.5996163557
 21
149.6232098878
  0
POLYLINE
  8
0
 62
7
  6
CONTINUOUS
 66
1
 70
0
  0
VERTEX
  8
0
 62
7
  6
CONTINUOUS
 10
188.9107667516
 20
197.0830181165
  0
VERTEX
  8
0
 62
7
  6
CONTINUOUS
 10
188.9779408157
 20
197.0991520106
  0
VERTEX
  8
0
 62
7
  6
CONTINUOUS
 10
189.0898073543
 20
197.2134628903
  0
VERTEX
  8
0
 62
7
  6
CONTINUOUS
 10
189.1809831083
 20
197.4315569603
  0
VERTEX
  8
0
 62
7
  6
CONTINUOUS
 10
189.2482443658
 20
197.7435440152
  0
VERTEX
  8
0
 62
7
  6
CONTINUOUS
 10
189.2893237321
 20
198.1362223292
  0
VERTEX
  8
0
 62
7
  6
CONTINUOUS
 10
189.303125
 20
198.5955233688
  0
SEQEND
  0
POLYLINE
  8
0
 62
7
  6
CONTINUOUS
 66
1
 70
0
  0
VERTEX
  8
0
 62
7
  6
CONTINUOUS
 10
165.1204832484
 20
197.0830181165
  0
VERTEX
  8
0
 62
7
  6
CONTINUOUS
 10
165.0533091843
 20
197.0991520106
  0
VERTEX
  8
0
 62
7
  6
CONTINUOUS
 10
164.9414426457
 20
197.2134628903
  0
VERTEX
  8
0
 62
7
  6
CONTINUOUS
 10
164.8502668917
 20
197.4315569603
  0
VERTEX
  8
0
 62
7
  6
CONTINUOUS
 10
164.7830056342
 20
197.7435440152
  0
VERTEX
  8
0
 62
7
  6
CONTINUOUS
 10
164.7419262679
 20
198.1362223292
  0
VERTEX
  8
0
 62
7
  6
CONTINUOUS
 10
164.728125
 20
198.5955233688
  0
SEQEND
  0
LINE
  8
0
 62
7
  6
CONTINUOUS
 10
188.5996187503
 20
190.0017901119
 11
188.6180398251
 21
189.9959708674
  0
LINE
  8
0
 62
7
  6
CONTINUOUS
 10
188.7102671638
 20
189.9388629663
 11
188.8207424065
 21
189.9039474986
  0
LINE
  8
0
 62
7
  6
CONTINUOUS
 10
188.7102671638
 20
189.9388629663
 11
188.6180398251
 21
189.9959708674
  0
LINE
  8
0
 62
7
  6
CONTINUOUS
 10
188.6180398251
 20
203.0179660883
 11
188.7102671638
 21
202.7583685329
  0
LINE
  8
0
 62
7
  6
CONTINUOUS
 10
188.6180398251
 20
209.3803031223
 11
188.7102671638
 21
209.0875304789
  0
LINE
  8
0
 62
7
  6
CONTINUOUS
 10
188.6180398251
 20
215.0656240746
 11
188.7102671638
 21
214.7446857643
  0
POLYLINE
  8
0
 62
7
  6
CONTINUOUS
 66
1
 70
0
  0
VERTEX
  8
0
 62
7
  6
CONTINUOUS
 10
188.6180398251
 20
209.3803031223
  0
VERTEX
  8
0
 62
7
  6
CONTINUOUS
 10
188.5812121274
 20
209.5160721671
  0
VERTEX
  8
0
 62
7
  6
CONTINUOUS
 10
188.5503698305
 20
209.6682543842
  0
VERTEX
  8
0
 62
7
  6
CONTINUOUS
 10
188.5381490334
 20
209.7455569142
  0
VERTEX
  8
0
 62
7
  6
CONTINUOUS
 10
188.5213433604
 20
209.8934760677
  0
VERTEX
  8
0
 62
7
  6
CONTINUOUS
 10
188.515625
 20
210.0217719824
  0
SEQEND
  0
LINE
  8
0
 62
7
  6
CONTINUOUS
 10
188.6180398251
 20
219.9766515275
 11
188.7102671638
 21
219.6330388937
  0
LINE
  8
0
 62
7
  6
CONTINUOUS
 10
188.6180398251
 20
224.0293564396
 11
188.7102671638
 21
223.6689487898
  0
POLYLINE
  8
0
 62
7
  6
CONTINUOUS
 66
1
 70
0
  0
VERTEX
  8
0
 62
7
  6
CONTINUOUS
 10
188.6180398251
 20
215.0656240746
  0
VERTEX
  8
0
 62
7
  6
CONTINUOUS
 10
188.5812121274
 20
215.2103614064
  0
VERTEX
  8
0
 62
7
  6
CONTINUOUS
 10
188.5503698305
 20
215.3653955953
  0
VERTEX
  8
0
 62
7
  6
CONTINUOUS
 10
188.5381490334
 20
215.4417605899
  0
VERTEX
  8
0
 62
7
  6
CONTINUOUS
 10
188.5213433604
 20
215.5833116546
  0
VERTEX
  8
0
 62
7
  6
CONTINUOUS
 10
188.515625
 20
215.6999078264
  0
SEQEND
  0
LINE
  8
0
 62
7
  6
CONTINUOUS
 10
188.6180398251
 20
227.1543959062
 11
188.7102671638
 21
226.7833599153
  0
LINE
  8
0
 62
7
  6
CONTINUOUS
 10
188.6180398251
 20
229.2982996358
 11
188.7102671638
 21
228.9229838323
  0
POLYLINE
  8
0
 62
7
  6
CONTINUOUS
 66
1
 70
0
  0
VERTEX
  8
0
 62
7
  6
CONTINUOUS
 10
188.6180398251
 20
219.9766515275
  0
VERTEX
  8
0
 62
7
  6
CONTINUOUS
 10
188.5812121274
 20
220.1278806504
  0
VERTEX
  8
0
 62
7
  6
CONTINUOUS
 10
188.5503698305
 20
220.2831141331
  0
VERTEX
  8
0
 62
7
  6
CONTINUOUS
 10
188.5381490334
 20
220.3572349661
  0
VERTEX
  8
0
 62
7
  6
CONTINUOUS
 10
188.5213433604
 20
220.489995964
  0
VERTEX
  8
0
 62
7
  6
CONTINUOUS
 10
188.515625
 20
220.5928974002
  0
SEQEND
  0
POLYLINE
  8
0
 62
7
  6
CONTINUOUS
 66
1
 70
0
  0
VERTEX
  8
0
 62
7
  6
CONTINUOUS
 10
188.6180398251
 20
229.2982996358
  0
VERTEX
  8
0
 62
7
  6
CONTINUOUS
 10
188.5812121274
 20
229.4532569067
  0
VERTEX
  8
0
 62
7
  6
CONTINUOUS
 10
188.5503698305
 20
229.5933646163
  0
VERTEX
  8
0
 62
7
  6
CONTINUOUS
 10
188.5381490334
 20
229.6534046598
  0
VERTEX
  8
0
 62
7
  6
CONTINUOUS
 10
188.5213433604
 20
229.7469586924
  0
VERTEX
  8
0
 62
7
  6
CONTINUOUS
 10
188.515625
 20
229.799295275
  0
SEQEND
  0
POLYLINE
  8
0
 62
7
  6
CONTINUOUS
 66
1
 70
0
  0
VERTEX
  8
0
 62
7
  6
CONTINUOUS
 10
188.6180398251
 20
224.0293564396
  0
VERTEX
  8
0
 62
7
  6
CONTINUOUS
 10
188.5812121274
 20
224.1844897814
  0
VERTEX
  8
0
 62
7
  6
CONTINUOUS
 10
188.5503698305
 20
224.3372664701
  0
VERTEX
  8
0
 62
7
  6
CONTINUOUS
 10
188.5381490334
 20
224.4078749135
  0
VERTEX
  8
0
 62
7
  6
CONTINUOUS
 10
188.5213433604
 20
224.529574267
  0
VERTEX
  8
0
 62
7
  6
CONTINUOUS
 10
188.515625
 20
224.6170202954
  0
SEQEND
  0
POLYLINE
  8
0
 62
7
  6
CONTINUOUS
 66
1
 70
0
  0
VERTEX
  8
0
 62
7
  6
CONTINUOUS
 10
188.6180398251
 20
227.1543959062
  0
VERTEX
  8
0
 62
7
  6
CONTINUOUS
 10
188.5812121274
 20
227.3107790924
  0
VERTEX
  8
0
 62
7
  6
CONTINUOUS
 10
188.5503698305
 20
227.4584849355
  0
VERTEX
  8
0
 62
7
  6
CONTINUOUS
 10
188.5381490334
 20
227.5243728593
  0
VERTEX
  8
0
 62
7
  6
CONTINUOUS
 10
188.5213433604
 20
227.6329282589
  0
VERTEX
  8
0
 62
7
  6
CONTINUOUS
 10
188.515625
 20
227.7034226537
  0
SEQEND
  0
LINE
  8
0
 62
7
  6
CONTINUOUS
 10
188.8496305641
 20
110.1424197374
 11
188.5846286928
 21
109.0639058789
  0
LINE
  8
0
 62
7
  6
CONTINUOUS
 10
189.303125
 20
111.7625
 11
189.515625
 21
112.6125
  0
POLYLINE
  8
0
 62
7
  6
CONTINUOUS
 66
1
 70
0
  0
VERTEX
  8
0
 62
7
  6
CONTINUOUS
 10
188.6180398251
 20
109.1116161083
  0
VERTEX
  8
0
 62
7
  6
CONTINUOUS
 10
188.5812121274
 20
108.9673949902
  0
VERTEX
  8
0
 62
7
  6
CONTINUOUS
 10
188.5503698305
 20
108.8495043685
  0
VERTEX
  8
0
 62
7
  6
CONTINUOUS
 10
188.5381490334
 20
108.8041243547
  0
SEQEND
  0
POLYLINE
  8
0
 62
7
  6
CONTINUOUS
 66
1
 70
0
  0
VERTEX
  8
0
 62
7
  6
CONTINUOUS
 10
189.0897655978
 20
110.9556085079
  0
VERTEX
  8
0
 62
7
  6
CONTINUOUS
 10
188.9781978251
 20
110.5252202828
  0
VERTEX
  8
0
 62
7
  6
CONTINUOUS
 10
188.8500226734
 20
110.0260496288
  0
VERTEX
  8
0
 62
7
  6
CONTINUOUS
 10
188.6180398251
 20
109.1116161083
  0
SEQEND
  0
LINE
  8
0
 62
7
  6
CONTINUOUS
 10
188.6180398251
 20
110.0612260103
 11
188.7102671638
 21
110.4111065548
  0
POLYLINE
  8
0
 62
7
  6
CONTINUOUS
 66
1
 70
0
  0
VERTEX
  8
0
 62
7
  6
CONTINUOUS
 10
188.6180398251
 20
110.0612260103
  0
VERTEX
  8
0
 62
7
  6
CONTINUOUS
 10
188.5812121274
 20
109.9261314312
  0
VERTEX
  8
0
 62
7
  6
CONTINUOUS
 10
188.5503698305
 20
109.8224796235
  0
VERTEX
  8
0
 62
7
  6
CONTINUOUS
 10
188.5381490334
 20
109.7856609219
  0
VERTEX
  8
0
 62
7
  6
CONTINUOUS
 10
188.5213433604
 20
109.745556608
  0
VERTEX
  8
0
 62
7
  6
CONTINUOUS
 10
188.5179321226
 20
109.7424450302
  0
SEQEND
  0
POLYLINE
  8
0
 62
7
  6
CONTINUOUS
 66
1
 70
0
  0
VERTEX
  8
0
 62
7
  6
CONTINUOUS
 10
189.30311532
 20
111.7632052368
  0
VERTEX
  8
0
 62
7
  6
CONTINUOUS
 10
189.2892200054
 20
111.7129553463
  0
VERTEX
  8
0
 62
7
  6
CONTINUOUS
 10
189.2480032687
 20
111.5584234196
  0
VERTEX
  8
0
 62
7
  6
CONTINUOUS
 10
189.0897655978
 20
110.9556085079
  0
SEQEND
  0
LINE
  8
0
 62
7
  6
CONTINUOUS
 10
188.6180398251
 20
112.0331967766
 11
188.7102671638
 21
112.3623245068
  0
POLYLINE
  8
0
 62
7
  6
CONTINUOUS
 66
1
 70
0
  0
VERTEX
  8
0
 62
7
  6
CONTINUOUS
 10
188.5381490334
 20
108.8041243547
  0
VERTEX
  8
0
 62
7
  6
CONTINUOUS
 10
188.5213433604
 20
108.7450911958
  0
VERTEX
  8
0
 62
7
  6
CONTINUOUS
 10
188.5158668969
 20
108.7304590556
  0
SEQEND
  0
POLYLINE
  8
0
 62
7
  6
CONTINUOUS
 66
1
 70
0
  0
VERTEX
  8
0
 62
7
  6
CONTINUOUS
 10
188.6180398251
 20
112.0331967766
  0
VERTEX
  8
0
 62
7
  6
CONTINUOUS
 10
188.5812121274
 20
111.9095402422
  0
VERTEX
  8
0
 62
7
  6
CONTINUOUS
 10
188.5503698305
 20
111.8219007595
  0
VERTEX
  8
0
 62
7
  6
CONTINUOUS
 10
188.5381490334
 20
111.7942733483
  0
VERTEX
  8
0
 62
7
  6
CONTINUOUS
 10
188.522080597
 20
111.7736911612
  0
SEQEND
  0
LINE
  8
0
 62
7
  6
CONTINUOUS
 10
188.6180398251
 20
114.9937874404
 11
188.7102671638
 21
115.2965308898
  0
POLYLINE
  8
0
 62
7
  6
CONTINUOUS
 66
1
 70
0
  0
VERTEX
  8
0
 62
7
  6
CONTINUOUS
 10
188.6180398251
 20
114.9937874404
  0
VERTEX
  8
0
 62
7
  6
CONTINUOUS
 10
188.5812121274
 20
114.8836847483
  0
VERTEX
  8
0
 62
7
  6
CONTINUOUS
 10
188.5503698305
 20
114.8135571265
  0
VERTEX
  8
0
 62
7
  6
CONTINUOUS
 10
188.5381490334
 20
114.7955937184
  0
VERTEX
  8
0
 62
7
  6
CONTINUOUS
 10
188.5282465065
 20
114.7894422646
  0
SEQEND
  0
LINE
  8
0
 62
7
  6
CONTINUOUS
 10
188.6180398251
 20
118.8923414747
 11
188.7102671638
 21
119.1635206189
  0
POLYLINE
  8
0
 62
7
  6
CONTINUOUS
 66
1
 70
0
  0
VERTEX
  8
0
 62
7
  6
CONTINUOUS
 10
188.6180398251
 20
118.8923414747
  0
VERTEX
  8
0
 62
7
  6
CONTINUOUS
 10
188.5812121274
 20
118.7976765125
  0
VERTEX
  8
0
 62
7
  6
CONTINUOUS
 10
188.5503698305
 20
118.7462606547
  0
VERTEX
  8
0
 62
7
  6
CONTINUOUS
 10
188.5363203311
 20
118.7380980034
  0
SEQEND
  0
LINE
  8
0
 62
7
  6
CONTINUOUS
 10
188.6180398251
 20
123.6621535392
 11
188.7102671638
 21
123.8971284277
  0
LINE
  8
0
 62
7
  6
CONTINUOUS
 10
188.6180398251
 20
129.2216108269
 11
188.7102671638
 21
129.4163609743
  0
LINE
  8
0
 62
7
  6
CONTINUOUS
 10
188.6180398251
 20
135.4755894822
 11
188.7102671638
 21
135.6267826596
  0
LINE
  8
0
 62
7
  6
CONTINUOUS
 10
188.6180398251
 20
142.3170821965
 11
188.7102671638
 21
142.4221314466
  0
POLYLINE
  8
0
 62
7
  6
CONTINUOUS
 66
1
 70
0
  0
VERTEX
  8
0
 62
7
  6
CONTINUOUS
 10
165.4736297649
 20
129.149066765
  0
VERTEX
  8
0
 62
7
  6
CONTINUOUS
 10
165.4931009666
 20
129.162888334
  0
VERTEX
  8
0
 62
7
  6
CONTINUOUS
 10
165.5099066396
 20
129.2209539047
  0
VERTEX
  8
0
 62
7
  6
CONTINUOUS
 10
165.515625
 20
129.318231233
  0
SEQEND
  0
LINE
  8
0
 62
7
  6
CONTINUOUS
 10
188.6180398251
 20
142.3170821965
 11
188.58457165
 21
142.2971071238
  0
LINE
  8
0
 62
7
  6
CONTINUOUS
 10
173.515625
 20
195.7243288066
 11
180.515625
 21
195.7243288066
  0
LINE
  8
0
 62
7
  6
CONTINUOUS
 10
188.5845825026
 20
197.3278928763
 11
165.4466674974
 21
197.3278928763
  0
POLYLINE
  8
0
 62
7
  6
CONTINUOUS
 66
1
 70
0
  0
VERTEX
  8
0
 62
7
  6
CONTINUOUS
 10
165.0364370962
 20
203.7441517807
  0
VERTEX
  8
0
 62
7
  6
CONTINUOUS
 10
164.9414426457
 20
203.7849335024
  0
VERTEX
  8
0
 62
7
  6
CONTINUOUS
 10
164.8502668917
 20
203.9321834494
  0
VERTEX
  8
0
 62
7
  6
CONTINUOUS
 10
164.7830056342
 20
204.1795648144
  0
VERTEX
  8
0
 62
7
  6
CONTINUOUS
 10
164.7419262679
 20
204.5160799203
  0
VERTEX
  8
0
 62
7
  6
CONTINUOUS
 10
164.728125
 20
204.9293285946
  0
SEQEND
  0
LINE
  8
0
 62
7
  6
CONTINUOUS
 10
188.5845807678
 20
197.3278928763
 11
188.6180398251
 21
197.3079178035
  0
POLYLINE
  8
0
 62
7
  6
CONTINUOUS
 66
1
 70
0
  0
VERTEX
  8
0
 62
7
  6
CONTINUOUS
 10
188.7102671638
 20
197.2028685534
  0
VERTEX
  8
0
 62
7
  6
CONTINUOUS
 10
188.8496305641
 20
197.095071717
  0
VERTEX
  8
0
 62
7
  6
CONTINUOUS
 10
188.9107667516
 20
197.0830181165
  0
SEQEND
  0
LINE
  8
0
 62
7
  6
CONTINUOUS
 10
188.7102671638
 20
197.2028685534
 11
188.6180398251
 21
197.3079178035
  0
LINE
  8
0
 62
7
  6
CONTINUOUS
 10
188.7102671638
 20
203.9982173404
 11
188.6180398251
 21
204.1494105178
  0
LINE
  8
0
 62
7
  6
CONTINUOUS
 10
188.7102671638
 20
210.2086390257
 11
188.6180398251
 21
210.4033891731
  0
POLYLINE
  8
0
 62
7
  6
CONTINUOUS
 66
1
 70
0
  0
VERTEX
  8
0
 62
7
  6
CONTINUOUS
 10
188.7102671638
 20
215.7278715723
  0
VERTEX
  8
0
 62
7
  6
CONTINUOUS
 10
188.8496305641
 20
215.4098328895
  0
VERTEX
  8
0
 62
7
  6
CONTINUOUS
 10
188.9779408157
 20
215.1918871772
  0
VERTEX
  8
0
 62
7
  6
CONTINUOUS
 10
189.0898073543
 20
215.0815475973
  0
VERTEX
  8
0
 62
7
  6
CONTINUOUS
 10
189.1387471452
 20
215.0675250216
  0
SEQEND
  0
LINE
  8
0
 62
7
  6
CONTINUOUS
 10
188.7102671638
 20
215.7278715723
 11
188.6180398251
 21
215.9628464608
  0
POLYLINE
  8
0
 62
7
  6
CONTINUOUS
 66
1
 70
0
  0
VERTEX
  8
0
 62
7
  6
CONTINUOUS
 10
188.7102671638
 20
220.4614793811
  0
VERTEX
  8
0
 62
7
  6
CONTINUOUS
 10
188.8496305641
 20
220.0827093103
  0
VERTEX
  8
0
 62
7
  6
CONTINUOUS
 10
188.9779408157
 20
219.796557802
  0
VERTEX
  8
0
 62
7
  6
CONTINUOUS
 10
189.0898073543
 20
219.6134028811
  0
VERTEX
  8
0
 62
7
  6
CONTINUOUS
 10
189.1809831083
 20
219.5380462528
  0
VERTEX
  8
0
 62
7
  6
CONTINUOUS
 10
189.1959483732
 20
219.5360185495
  0
SEQEND
  0
LINE
  8
0
 62
7
  6
CONTINUOUS
 10
188.7102671638
 20
220.4614793811
 11
188.6180398251
 21
220.7326585253
  0
POLYLINE
  8
0
 62
7
  6
CONTINUOUS
 66
1
 70
0
  0
VERTEX
  8
0
 62
7
  6
CONTINUOUS
 10
188.7102671638
 20
224.3284691102
  0
VERTEX
  8
0
 62
7
  6
CONTINUOUS
 10
188.8496305641
 20
223.8954485122
  0
VERTEX
  8
0
 62
7
  6
CONTINUOUS
 10
188.9779408157
 20
223.5459873397
  0
VERTEX
  8
0
 62
7
  6
CONTINUOUS
 10
189.0898073543
 20
223.2931509092
  0
VERTEX
  8
0
 62
7
  6
CONTINUOUS
 10
189.1809831083
 20
223.1444685147
  0
VERTEX
  8
0
 62
7
  6
CONTINUOUS
 10
189.2417689971
 20
223.1023980578
  0
SEQEND
  0
LINE
  8
0
 62
7
  6
CONTINUOUS
 10
188.7102671638
 20
224.3284691102
 11
188.6180398251
 21
224.6312125596
  0
POLYLINE
  8
0
 62
7
  6
CONTINUOUS
 66
1
 70
0
  0
VERTEX
  8
0
 62
7
  6
CONTINUOUS
 10
188.7102671638
 20
227.2626754932
  0
VERTEX
  8
0
 62
7
  6
CONTINUOUS
 10
188.8496305641
 20
226.7828134704
  0
VERTEX
  8
0
 62
7
  6
CONTINUOUS
 10
188.9779408157
 20
226.3760220112
  0
VERTEX
  8
0
 62
7
  6
CONTINUOUS
 10
189.0898073543
 20
226.0578301726
  0
VERTEX
  8
0
 62
7
  6
CONTINUOUS
 10
189.1809831083
 20
225.8383660089
  0
VERTEX
  8
0
 62
7
  6
CONTINUOUS
 10
189.2482443658
 20
225.7234416067
  0
VERTEX
  8
0
 62
7
  6
CONTINUOUS
 10
189.2752828001
 20
225.7056418
  0
SEQEND
  0
POLYLINE
  8
0
 62
7
  6
CONTINUOUS
 66
1
 70
0
  0
VERTEX
  8
0
 62
7
  6
CONTINUOUS
 10
188.5202916299
 20
230.8832554569
  0
VERTEX
  8
0
 62
7
  6
CONTINUOUS
 10
188.5340005571
 20
230.8359680412
  0
VERTEX
  8
0
 62
7
  6
CONTINUOUS
 10
188.5559209552
 20
230.754563246
  0
VERTEX
  8
0
 62
7
  6
CONTINUOUS
 10
188.5846286928
 20
230.6443544018
  0
SEQEND
  0
LINE
  8
0
 62
7
  6
CONTINUOUS
 10
188.7102671638
 20
227.2626754932
 11
188.6180398251
 21
227.5918032234
  0
LINE
  8
0
 62
7
  6
CONTINUOUS
 10
189.2893237321
 20
227.9116597546
 11
189.3031159181
 21
227.8617947633
  0
POLYLINE
  8
0
 62
7
  6
CONTINUOUS
 66
1
 70
0
  0
VERTEX
  8
0
 62
7
  6
CONTINUOUS
 10
188.7102671638
 20
229.2138934452
  0
VERTEX
  8
0
 62
7
  6
CONTINUOUS
 10
188.8496305641
 20
228.69540057
  0
VERTEX
  8
0
 62
7
  6
CONTINUOUS
 10
188.9779408157
 20
228.2382391387
  0
VERTEX
  8
0
 62
7
  6
CONTINUOUS
 10
189.0898073543
 20
227.8601362426
  0
VERTEX
  8
0
 62
7
  6
CONTINUOUS
 10
189.1809831083
 20
227.5736454025
  0
VERTEX
  8
0
 62
7
  6
CONTINUOUS
 10
189.2482443658
 20
227.3871132631
  0
VERTEX
  8
0
 62
7
  6
CONTINUOUS
 10
189.2893237321
 20
227.3052131086
  0
VERTEX
  8
0
 62
7
  6
CONTINUOUS
 10
189.2958769887
 20
227.3012075616
  0
SEQEND
  0
LINE
  8
0
 62
7
  6
CONTINUOUS
 10
188.7102671638
 20
229.2138934452
 11
188.6180398251
 21
229.5637739897
  0
POLYLINE
  8
0
 62
7
  6
CONTINUOUS
 66
1
 70
0
  0
VERTEX
  8
0
 62
7
  6
CONTINUOUS
 10
188.8496305641
 20
229.6004849155
  0
VERTEX
  8
0
 62
7
  6
CONTINUOUS
 10
188.9779408157
 20
229.1007756709
  0
VERTEX
  8
0
 62
7
  6
CONTINUOUS
 10
189.0898073543
 20
228.6692311626
  0
VERTEX
  8
0
 62
7
  6
CONTINUOUS
 10
189.1809831083
 20
228.3206155837
  0
VERTEX
  8
0
 62
7
  6
CONTINUOUS
 10
189.2893237321
 20
227.9116597546
  0
SEQEND
  0
LINE
  8
0
 62
7
  6
CONTINUOUS
 10
188.8496305641
 20
229.6004849155
 11
188.5846286928
 21
230.6443544018
  0
LINE
  8
0
 62
7
  6
CONTINUOUS
 10
189.303125
 20
227.8625
 11
189.515625
 21
227.0125
  0
POLYLINE
  8
0
 62
7
  6
CONTINUOUS
 66
1
 70
0
  0
VERTEX
  8
0
 62
7
  6
CONTINUOUS
 10
188.8500226734
 20
229.4809659634
  0
VERTEX
  8
0
 62
7
  6
CONTINUOUS
 10
188.5812121274
 20
230.5752648347
  0
VERTEX
  8
0
 62
7
  6
CONTINUOUS
 10
188.5503698305
 20
230.7053771291
  0
VERTEX
  8
0
 62
7
  6
CONTINUOUS
 10
188.5381490334
 20
230.7585419905
  0
VERTEX
  8
0
 62
7
  6
CONTINUOUS
 10
188.5213433604
 20
230.8354939207
  0
VERTEX
  8
0
 62
7
  6
CONTINUOUS
 10
188.515625
 20
230.8687771976
  0
SEQEND
  0
POLYLINE
  8
0
 62
7
  6
CONTINUOUS
 66
1
 70
0
  0
VERTEX
  8
0
 62
7
  6
CONTINUOUS
 10
188.6180398251
 20
123.6621535392
  0
VERTEX
  8
0
 62
7
  6
CONTINUOUS
 10
188.5812121274
 20
123.5845460506
  0
VERTEX
  8
0
 62
7
  6
CONTINUOUS
 10
188.5503698305
 20
123.5527216963
  0
VERTEX
  8
0
 62
7
  6
CONTINUOUS
 10
188.5461663138
 20
123.5520957828
  0
SEQEND
  0
POLYLINE
  8
0
 62
7
  6
CONTINUOUS
 66
1
 70
0
  0
VERTEX
  8
0
 62
7
  6
CONTINUOUS
 10
188.6180398251
 20
129.2216108269
  0
VERTEX
  8
0
 62
7
  6
CONTINUOUS
 10
188.5812121274
 20
129.1623886975
  0
VERTEX
  8
0
 62
7
  6
CONTINUOUS
 10
188.5576202351
 20
129.149066765
  0
SEQEND
  0
POLYLINE
  8
0
 62
7
  6
CONTINUOUS
 66
1
 70
0
  0
VERTEX
  8
0
 62
7
  6
CONTINUOUS
 10
188.6180398251
 20
135.4755894822
  0
VERTEX
  8
0
 62
7
  6
CONTINUOUS
 10
188.5812121274
 20
135.4357660192
  0
VERTEX
  8
0
 62
7
  6
CONTINUOUS
 10
188.5704942926
 20
135.4332452231
  0
SEQEND
  0
LINE
  8
0
 62
7
  6
CONTINUOUS
 10
173.515625
 20
202.5951804114
 11
180.515625
 21
202.5951804114
  0
POLYLINE
  8
0
 62
7
  6
CONTINUOUS
 66
1
 70
0
  0
VERTEX
  8
0
 62
7
  6
CONTINUOUS
 10
188.7102671638
 20
203.9982173404
  0
VERTEX
  8
0
 62
7
  6
CONTINUOUS
 10
188.8496305641
 20
203.8168343836
  0
VERTEX
  8
0
 62
7
  6
CONTINUOUS
 10
188.9779408157
 20
203.7452567716
  0
VERTEX
  8
0
 62
7
  6
CONTINUOUS
 10
188.9948129038
 20
203.7441517807
  0
SEQEND
  0
POLYLINE
  8
0
 62
7
  6
CONTINUOUS
 66
1
 70
0
  0
VERTEX
  8
0
 62
7
  6
CONTINUOUS
 10
188.7102671638
 20
210.2086390257
  0
VERTEX
  8
0
 62
7
  6
CONTINUOUS
 10
188.8496305641
 20
209.9567734611
  0
VERTEX
  8
0
 62
7
  6
CONTINUOUS
 10
188.9779408157
 20
209.8107626562
  0
VERTEX
  8
0
 62
7
  6
CONTINUOUS
 10
189.0712871057
 20
209.7733746388
  0
SEQEND
  0
LINE
  8
0
 62
7
  6
CONTINUOUS
 10
188.5158673884
 20
230.8945409454
 11
188.5202916299
 21
230.8832554569
  0
POLYLINE
  8
0
 62
7
  6
CONTINUOUS
 66
1
 70
0
  0
VERTEX
  8
0
 62
7
  6
CONTINUOUS
 10
165.5030034935
 20
114.7894422646
  0
VERTEX
  8
0
 62
7
  6
CONTINUOUS
 10
165.5099066396
 20
114.7950700634
  0
VERTEX
  8
0
 62
7
  6
CONTINUOUS
 10
165.515625
 20
114.8403231728
  0
SEQEND
  0
LINE
  8
0
 62
7
  6
CONTINUOUS
 10
188.5705458871
 20
204.1917547782
 11
165.4607041129
 21
204.1917547782
  0
POLYLINE
  8
0
 62
7
  6
CONTINUOUS
 66
1
 70
0
  0
VERTEX
  8
0
 62
7
  6
CONTINUOUS
 10
188.5704986315
 20
204.1917547779
  0
VERTEX
  8
0
 62
7
  6
CONTINUOUS
 10
188.5846286928
 20
204.1874490508
  0
VERTEX
  8
0
 62
7
  6
CONTINUOUS
 10
188.6180398251
 20
204.1494105178
  0
SEQEND
  0
POLYLINE
  8
0
 62
7
  6
CONTINUOUS
 66
1
 70
0
  0
VERTEX
  8
0
 62
7
  6
CONTINUOUS
 10
164.8353016268
 20
219.5360185495
  0
VERTEX
  8
0
 62
7
  6
CONTINUOUS
 10
164.7830056342
 20
219.5709776164
  0
VERTEX
  8
0
 62
7
  6
CONTINUOUS
 10
164.7419262679
 20
219.7087742352
  0
VERTEX
  8
0
 62
7
  6
CONTINUOUS
 10
164.728125
 20
219.9451822562
  0
SEQEND
  0
POLYLINE
  8
0
 62
7
  6
CONTINUOUS
 66
1
 70
0
  0
VERTEX
  8
0
 62
7
  6
CONTINUOUS
 10
189.0712878394
 20
129.8516253611
  0
VERTEX
  8
0
 62
7
  6
CONTINUOUS
 10
188.9781978251
 20
129.8144307395
  0
VERTEX
  8
0
 62
7
  6
CONTINUOUS
 10
188.8500226734
 20
129.6688084444
  0
VERTEX
  8
0
 62
7
  6
CONTINUOUS
 10
188.7102671638
 20
129.4163609743
  0
SEQEND
  0
POLYLINE
  8
0
 62
7
  6
CONTINUOUS
 66
1
 70
0
  0
VERTEX
  8
0
 62
7
  6
CONTINUOUS
 10
165.4850836862
 20
123.5520957828
  0
VERTEX
  8
0
 62
7
  6
CONTINUOUS
 10
165.4931009666
 20
123.5548377583
  0
VERTEX
  8
0
 62
7
  6
CONTINUOUS
 10
165.5099066396
 20
123.5939304485
  0
VERTEX
  8
0
 62
7
  6
CONTINUOUS
 10
165.515625
 20
123.6751567015
  0
SEQEND
  0
POLYLINE
  8
0
 62
7
  6
CONTINUOUS
 66
1
 70
0
  0
VERTEX
  8
0
 62
7
  6
CONTINUOUS
 10
189.0712871057
 20
209.7733746388
  0
VERTEX
  8
0
 62
7
  6
CONTINUOUS
 10
189.0898073543
 20
209.7751263582
  0
VERTEX
  8
0
 62
7
  6
CONTINUOUS
 10
189.1809831083
 20
209.8490126949
  0
VERTEX
  8
0
 62
7
  6
CONTINUOUS
 10
189.2482443658
 20
210.0275556063
  0
VERTEX
  8
0
 62
7
  6
CONTINUOUS
 10
189.2893237321
 20
210.3021496374
  0
VERTEX
  8
0
 62
7
  6
CONTINUOUS
 10
189.303125
 20
210.6622751469
  0
SEQEND
  0
LINE
  8
0
 62
7
  6
CONTINUOUS
 10
173.515625
 20
208.9051112654
 11
180.515625
 21
208.9051112654
  0
LINE
  8
0
 62
7
  6
CONTINUOUS
 10
188.5577174215
 20
210.4759332378
 11
165.4735325785
 21
210.4759332378
  0
POLYLINE
  8
0
 62
7
  6
CONTINUOUS
 66
1
 70
0
  0
VERTEX
  8
0
 62
7
  6
CONTINUOUS
 10
164.9599628943
 20
209.7733746388
  0
VERTEX
  8
0
 62
7
  6
CONTINUOUS
 10
164.9414426457
 20
209.7751263582
  0
VERTEX
  8
0
 62
7
  6
CONTINUOUS
 10
164.8502668917
 20
209.8490126949
  0
VERTEX
  8
0
 62
7
  6
CONTINUOUS
 10
164.7830056342
 20
210.0275556063
  0
VERTEX
  8
0
 62
7
  6
CONTINUOUS
 10
164.7419262679
 20
210.3021496374
  0
VERTEX
  8
0
 62
7
  6
CONTINUOUS
 10
164.728125
 20
210.6622751469
  0
SEQEND
  0
POLYLINE
  8
0
 62
7
  6
CONTINUOUS
 66
1
 70
0
  0
VERTEX
  8
0
 62
7
  6
CONTINUOUS
 10
164.8925028548
 20
215.0675250216
  0
VERTEX
  8
0
 62
7
  6
CONTINUOUS
 10
164.8502668917
 20
215.080806108
  0
VERTEX
  8
0
 62
7
  6
CONTINUOUS
 10
164.7830056342
 20
215.1874556471
  0
VERTEX
  8
0
 62
7
  6
CONTINUOUS
 10
164.7419262679
 20
215.3954302234
  0
VERTEX
  8
0
 62
7
  6
CONTINUOUS
 10
164.728125
 20
215.6962707207
  0
SEQEND
  0
POLYLINE
  8
0
 62
7
  6
CONTINUOUS
 66
1
 70
0
  0
VERTEX
  8
0
 62
7
  6
CONTINUOUS
 10
188.5576232074
 20
210.4759332377
  0
VERTEX
  8
0
 62
7
  6
CONTINUOUS
 10
188.5846286928
 20
210.4588403629
  0
VERTEX
  8
0
 62
7
  6
CONTINUOUS
 10
188.6180398251
 20
210.4033891731
  0
SEQEND
  0
POLYLINE
  8
0
 62
7
  6
CONTINUOUS
 66
1
 70
0
  0
VERTEX
  8
0
 62
7
  6
CONTINUOUS
 10
164.7559671999
 20
225.7056418
  0
VERTEX
  8
0
 62
7
  6
CONTINUOUS
 10
164.7419262679
 20
225.7150502013
  0
VERTEX
  8
0
 62
7
  6
CONTINUOUS
 10
164.728125
 20
225.8116299179
  0
SEQEND
  0
LINE
  8
0
 62
7
  6
CONTINUOUS
 10
173.515625
 20
214.546156702
 11
180.515625
 21
214.546156702
  0
LINE
  8
0
 62
7
  6
CONTINUOUS
 10
188.5463094356
 20
216.0729042193
 11
165.4849405644
 21
216.0729042193
  0
POLYLINE
  8
0
 62
7
  6
CONTINUOUS
 66
1
 70
0
  0
VERTEX
  8
0
 62
7
  6
CONTINUOUS
 10
189.1387473721
 20
124.5574749784
  0
VERTEX
  8
0
 62
7
  6
CONTINUOUS
 10
189.0897655978
 20
124.5434297089
  0
VERTEX
  8
0
 62
7
  6
CONTINUOUS
 10
188.9781978251
 20
124.4334631658
  0
VERTEX
  8
0
 62
7
  6
CONTINUOUS
 10
188.8500226734
 20
124.2159513482
  0
VERTEX
  8
0
 62
7
  6
CONTINUOUS
 10
188.7102671638
 20
123.8971284277
  0
SEQEND
  0
LINE
  8
0
 62
7
  6
CONTINUOUS
 10
173.515625
 20
219.42179687
 11
180.515625
 21
219.42179687
  0
POLYLINE
  8
0
 62
7
  6
CONTINUOUS
 66
1
 70
0
  0
VERTEX
  8
0
 62
7
  6
CONTINUOUS
 10
188.5461612303
 20
216.0729042179
  0
VERTEX
  8
0
 62
7
  6
CONTINUOUS
 10
188.5559209552
 20
216.0697473494
  0
VERTEX
  8
0
 62
7
  6
CONTINUOUS
 10
188.5846286928
 20
216.0347615221
  0
VERTEX
  8
0
 62
7
  6
CONTINUOUS
 10
188.6180398251
 20
215.9628464608
  0
SEQEND
  0
POLYLINE
  8
0
 62
7
  6
CONTINUOUS
 66
1
 70
0
  0
VERTEX
  8
0
 62
7
  6
CONTINUOUS
 10
188.5363154273
 20
220.8869019972
  0
VERTEX
  8
0
 62
7
  6
CONTINUOUS
 10
188.5559209552
 20
220.8721724021
  0
VERTEX
  8
0
 62
7
  6
CONTINUOUS
 10
188.5846286928
 20
220.8198069714
  0
VERTEX
  8
0
 62
7
  6
CONTINUOUS
 10
188.6180398251
 20
220.7326585253
  0
SEQEND
  0
POLYLINE
  8
0
 62
7
  6
CONTINUOUS
 66
1
 70
0
  0
VERTEX
  8
0
 62
7
  6
CONTINUOUS
 10
188.522080825
 20
227.8513088388
  0
VERTEX
  8
0
 62
7
  6
CONTINUOUS
 10
188.5340005571
 20
227.8384714888
  0
VERTEX
  8
0
 62
7
  6
CONTINUOUS
 10
188.5559209552
 20
227.7888645405
  0
VERTEX
  8
0
 62
7
  6
CONTINUOUS
 10
188.5846286928
 20
227.7047099034
  0
VERTEX
  8
0
 62
7
  6
CONTINUOUS
 10
188.6180398251
 20
227.5918032234
  0
SEQEND
  0
POLYLINE
  8
0
 62
7
  6
CONTINUOUS
 66
1
 70
0
  0
VERTEX
  8
0
 62
7
  6
CONTINUOUS
 10
189.2417666239
 20
116.5226019432
  0
VERTEX
  8
0
 62
7
  6
CONTINUOUS
 10
189.1807465637
 20
116.4802484324
  0
VERTEX
  8
0
 62
7
  6
CONTINUOUS
 10
189.0897655978
 20
116.3317666597
  0
VERTEX
  8
0
 62
7
  6
CONTINUOUS
 10
188.9781978251
 20
116.0796563316
  0
VERTEX
  8
0
 62
7
  6
CONTINUOUS
 10
188.8500226734
 20
115.7306969022
  0
VERTEX
  8
0
 62
7
  6
CONTINUOUS
 10
188.7102671638
 20
115.2965308898
  0
SEQEND
  0
POLYLINE
  8
0
 62
7
  6
CONTINUOUS
 66
1
 70
0
  0
VERTEX
  8
0
 62
7
  6
CONTINUOUS
 10
189.2752806452
 20
113.9193582001
  0
VERTEX
  8
0
 62
7
  6
CONTINUOUS
 10
189.2480032687
 20
113.9012846996
  0
VERTEX
  8
0
 62
7
  6
CONTINUOUS
 10
189.1807465637
 20
113.786135452
  0
VERTEX
  8
0
 62
7
  6
CONTINUOUS
 10
189.0897655978
 20
113.5670593916
  0
VERTEX
  8
0
 62
7
  6
CONTINUOUS
 10
188.9781978251
 20
113.2497530222
  0
VERTEX
  8
0
 62
7
  6
CONTINUOUS
 10
188.8500226734
 20
112.8434846084
  0
VERTEX
  8
0
 62
7
  6
CONTINUOUS
 10
188.7102671638
 20
112.3623245068
  0
SEQEND
  0
POLYLINE
  8
0
 62
7
  6
CONTINUOUS
 66
1
 70
0
  0
VERTEX
  8
0
 62
7
  6
CONTINUOUS
 10
189.2417689971
 20
223.1023980578
  0
VERTEX
  8
0
 62
7
  6
CONTINUOUS
 10
189.2482443658
 20
223.1031182381
  0
VERTEX
  8
0
 62
7
  6
CONTINUOUS
 10
189.2893237321
 20
223.168379161
  0
VERTEX
  8
0
 62
7
  6
CONTINUOUS
 10
189.303125
 20
223.3363096988
  0
SEQEND
  0
LINE
  8
0
 62
7
  6
CONTINUOUS
 10
188.5365042207
 20
220.8869019974
 11
165.4947457793
 21
220.8869019974
  0
LINE
  8
0
 62
7
  6
CONTINUOUS
 10
173.515625
 20
223.4486082143
 11
180.515625
 21
223.4486082143
  0
POLYLINE
  8
0
 62
7
  6
CONTINUOUS
 66
1
 70
0
  0
VERTEX
  8
0
 62
7
  6
CONTINUOUS
 10
164.7894810029
 20
223.1023980578
  0
VERTEX
  8
0
 62
7
  6
CONTINUOUS
 10
164.7830056342
 20
223.1031182381
  0
VERTEX
  8
0
 62
7
  6
CONTINUOUS
 10
164.7419262679
 20
223.168379161
  0
VERTEX
  8
0
 62
7
  6
CONTINUOUS
 10
164.728125
 20
223.3363096988
  0
SEQEND
  0
POLYLINE
  8
0
 62
7
  6
CONTINUOUS
 66
1
 70
0
  0
VERTEX
  8
0
 62
7
  6
CONTINUOUS
 10
189.295875235
 20
112.3237924397
  0
VERTEX
  8
0
 62
7
  6
CONTINUOUS
 10
189.2892200054
 20
112.3196768467
  0
VERTEX
  8
0
 62
7
  6
CONTINUOUS
 10
189.2480032687
 20
112.237290158
  0
VERTEX
  8
0
 62
7
  6
CONTINUOUS
 10
189.1807465637
 20
112.0506491025
  0
VERTEX
  8
0
 62
7
  6
CONTINUOUS
 10
189.0897655978
 20
111.7647272066
  0
VERTEX
  8
0
 62
7
  6
CONTINUOUS
 10
188.9781978251
 20
111.3876539957
  0
VERTEX
  8
0
 62
7
  6
CONTINUOUS
 10
188.8500226734
 20
110.9310279628
  0
VERTEX
  8
0
 62
7
  6
CONTINUOUS
 10
188.7102671638
 20
110.4111065548
  0
SEQEND
  0
LINE
  8
0
 62
7
  6
CONTINUOUS
 10
188.5284710665
 20
224.8355577354
 11
165.5027789335
 21
224.8355577354
  0
LINE
  8
0
 62
7
  6
CONTINUOUS
 10
173.515625
 20
226.5576908762
 11
180.515625
 21
226.5576908762
  0
LINE
  8
0
 62
7
  6
CONTINUOUS
 10
188.5223371613
 20
227.851308839
 11
165.5089128387
 21
227.851308839
  0
LINE
  8
0
 62
7
  6
CONTINUOUS
 10
173.515625
 20
228.6958475895
 11
180.515625
 21
228.6958475895
  0
LINE
  8
0
 62
7
  6
CONTINUOUS
 10
188.515625
 20
229.8825549705
 11
165.515625
 21
229.8825549705
  0
LINE
  8
0
 62
7
  6
CONTINUOUS
 10
188.5161556519
 20
230.8945409456
 11
165.5150943481
 21
230.8945409456
  0
POLYLINE
  8
0
 62
7
  6
CONTINUOUS
 66
1
 70
0
  0
VERTEX
  8
0
 62
7
  6
CONTINUOUS
 10
188.5282432008
 20
224.8355577346
  0
VERTEX
  8
0
 62
7
  6
CONTINUOUS
 10
188.5340005571
 20
224.8332462923
  0
VERTEX
  8
0
 62
7
  6
CONTINUOUS
 10
188.5559209552
 20
224.8009523036
  0
VERTEX
  8
0
 62
7
  6
CONTINUOUS
 10
188.5846286928
 20
224.7321032566
  0
VERTEX
  8
0
 62
7
  6
CONTINUOUS
 10
188.6180398251
 20
224.6312125596
  0
SEQEND
  0
POLYLINE
  8
0
 62
7
  6
CONTINUOUS
 66
1
 70
0
  0
VERTEX
  8
0
 62
7
  6
CONTINUOUS
 10
188.5179337628
 20
229.8825549705
  0
VERTEX
  8
0
 62
7
  6
CONTINUOUS
 10
188.5202916299
 20
229.8808762085
  0
VERTEX
  8
0
 62
7
  6
CONTINUOUS
 10
188.5340005571
 20
229.8508562254
  0
VERTEX
  8
0
 62
7
  6
CONTINUOUS
 10
188.5559209552
 20
229.7847851061
  0
VERTEX
  8
0
 62
7
  6
CONTINUOUS
 10
188.5846286928
 20
229.686764788
  0
VERTEX
  8
0
 62
7
  6
CONTINUOUS
 10
188.6180398251
 20
229.5637739897
  0
SEQEND
  0
ARC
  8
0
 62
7
  6
CONTINUOUS
 10
27.3546064515
 20
139.0337233533
 40
3.0
 50
313.75
 51
30.2753992069
  0
ARC
  8
0
 62
7
  6
CONTINUOUS
 10
31.4658261759
 20
132.8808482222
 40
3.0
 50
37.2246007931
 51
113.75
  0
ARC
  8
0
 62
7
  6
CONTINUOUS
 10
31.8230999785
 20
132.4152399377
 40
3.0
 50
321.25
 51
37.7753992069
  0
ARC
  8
0
 62
7
  6
CONTINUOUS
 10
36.7022590102
 20
126.8516253623
 40
3.0
 50
44.7246007931
 51
121.25
  0
ARC
  8
0
 62
7
  6
CONTINUOUS
 10
37.1172503623
 20
126.4366340102
 40
3.0
 50
328.75
 51
45.2753992069
  0
ARC
  8
0
 62
7
  6
CONTINUOUS
 10
42.6808649377
 20
121.5574749785
 40
3.0
 50
52.2246007931
 51
128.75
  0
ARC
  8
0
 62
7
  6
CONTINUOUS
 10
43.1464732222
 20
121.2002011759
 40
3.0
 50
336.25
 51
52.7753992069
  0
ARC
  8
0
 62
7
  6
CONTINUOUS
 10
49.2993483533
 20
117.0889814515
 40
3.0
 50
59.7246007931
 51
136.25
  0
ARC
  8
0
 62
7
  6
CONTINUOUS
 10
29.7126001276
 20
135.9332452218
 40
0.5
 50
213.9274420525
 51
293.75
  0
ARC
  8
0
 62
7
  6
CONTINUOUS
 10
29.5037230026
 20
136.2458519307
 40
0.5
 50
133.75
 51
213.5725579474
  0
ARC
  8
0
 62
7
  6
CONTINUOUS
 10
34.5656142963
 20
129.6490667622
 40
0.5
 50
221.4274420526
 51
301.25
  0
ARC
  8
0
 62
7
  6
CONTINUOUS
 10
34.3177207807
 20
129.9317351416
 40
0.5
 50
141.25
 51
221.0725579474
  0
ARC
  8
0
 62
7
  6
CONTINUOUS
 10
40.1973601416
 20
124.0520957807
 40
0.5
 50
228.9274420526
 51
308.75
  0
ARC
  8
0
 62
7
  6
CONTINUOUS
 10
39.9146917622
 20
124.2999892963
 40
0.5
 50
148.75
 51
228.5725579474
  0
ARC
  8
0
 62
7
  6
CONTINUOUS
 10
46.5114769307
 20
119.2380980026
 40
0.5
 50
236.4274420526
 51
316.25
  0
ARC
  8
0
 62
7
  6
CONTINUOUS
 10
46.1988702218
 20
119.4469751276
 40
0.5
 50
156.25
 51
236.0725579474
  0
ARC
  8
0
 62
7
  6
CONTINUOUS
 10
19.0288302368
 20
169.5190568008
 40
3.0
 50
283.75
 51
0.2753992069
  0
ARC
  8
0
 62
7
  6
CONTINUOUS
 10
19.5128133931
 20
162.1349007688
 40
3.0
 50
7.2246007931
 51
83.75
  0
ARC
  8
0
 62
7
  6
CONTINUOUS
 10
19.5894174399
 20
161.5530352649
 40
3.0
 50
291.25
 51
7.7753992069
  0
ARC
  8
0
 62
7
  6
CONTINUOUS
 10
21.0330858228
 20
154.2952241899
 40
3.0
 50
14.7246007931
 51
91.25
  0
ARC
  8
0
 62
7
  6
CONTINUOUS
 10
21.1849832001
 20
153.7283354605
 40
3.0
 50
298.75
 51
15.2753992069
  0
ARC
  8
0
 62
7
  6
CONTINUOUS
 10
23.5636352433
 20
146.7210525023
 40
3.0
 50
22.2246007931
 51
98.75
  0
ARC
  8
0
 62
7
  6
CONTINUOUS
 10
23.7882269447
 20
146.1788401708
 40
3.0
 50
306.25
 51
22.7753992069
  0
ARC
  8
0
 62
7
  6
CONTINUOUS
 10
27.0611632523
 20
139.5419818835
 40
3.0
 50
29.7246007931
 51
106.25
  0
ARC
  8
0
 62
7
  6
CONTINUOUS
 10
19.5206735965
 20
165.654967137
 40
0.5
 50
183.9274420526
 51
263.75
  0
ARC
  8
0
 62
7
  6
CONTINUOUS
 10
19.4960840544
 20
166.0301310508
 40
0.5
 50
103.75
 51
183.5725579474
  0
ARC
  8
0
 62
7
  6
CONTINUOUS
 10
20.5814179217
 20
157.7862018647
 40
0.5
 50
191.4274420525
 51
271.25
  0
ARC
  8
0
 62
7
  6
CONTINUOUS
 10
20.5080700295
 20
158.1549466199
 40
0.5
 50
111.25
 51
191.0725579475
  0
ARC
  8
0
 62
7
  6
CONTINUOUS
 10
22.6601674007
 20
150.1232098878
 40
0.5
 50
198.9274420525
 51
278.75
  0
ARC
  8
0
 62
7
  6
CONTINUOUS
 10
22.539316161
 20
150.4792261595
 40
0.5
 50
118.75
 51
198.5725579474
  0
ARC
  8
0
 62
7
  6
CONTINUOUS
 10
25.7213540534
 20
142.7971071237
 40
0.5
 50
206.4274420525
 51
286.25
  0
ARC
  8
0
 62
7
  6
CONTINUOUS
 10
25.5550672646
 20
143.1343033747
 40
0.5
 50
126.25
 51
206.0725579474
  0
ARC
  8
0
 62
7
  6
CONTINUOUS
 10
49.8076068835
 20
116.7955382523
 40
3.0
 50
343.75
 51
60.2753992069
  0
ARC
  8
0
 62
7
  6
CONTINUOUS
 10
56.4444651708
 20
113.5226019447
 40
3.0
 50
67.2246007931
 51
143.75
  0
ARC
  8
0
 62
7
  6
CONTINUOUS
 10
56.9866775023
 20
113.2980102433
 40
3.0
 50
351.25
 51
67.7753992069
  0
ARC
  8
0
 62
7
  6
CONTINUOUS
 10
63.9939604605
 20
110.9193582001
 40
3.0
 50
74.7246007931
 51
151.25
  0
ARC
  8
0
 62
7
  6
CONTINUOUS
 10
64.5608491899
 20
110.7674608228
 40
3.0
 50
358.75
 51
75.2753992069
  0
ARC
  8
0
 62
7
  6
CONTINUOUS
 10
71.8186602649
 20
109.3237924399
 40
3.0
 50
82.2246007931
 51
158.75
  0
ARC
  8
0
 62
7
  6
CONTINUOUS
 10
72.4005257688
 20
109.2471883931
 40
3.0
 50
6.25
 51
82.7753992069
  0
ARC
  8
0
 62
7
  6
CONTINUOUS
 10
79.7846818008
 20
108.7632052368
 40
3.0
 50
89.7246007931
 51
166.25
  0
ARC
  8
0
 62
7
  6
CONTINUOUS
 10
80.3715681992
 20
108.7632052368
 40
3.0
 50
13.75
 51
90.2753992069
  0
ARC
  8
0
 62
7
  6
CONTINUOUS
 10
53.3999283747
 20
115.2894422646
 40
0.5
 50
243.9274420526
 51
323.75
  0
ARC
  8
0
 62
7
  6
CONTINUOUS
 10
53.0627321237
 20
115.4557290534
 40
0.5
 50
163.75
 51
243.5725579474
  0
ARC
  8
0
 62
7
  6
CONTINUOUS
 10
60.7448511595
 20
112.273691161
 40
0.5
 50
251.4274420526
 51
331.25
  0
ARC
  8
0
 62
7
  6
CONTINUOUS
 10
60.3888348878
 20
112.3945424007
 40
0.5
 50
171.25
 51
251.0725579474
  0
ARC
  8
0
 62
7
  6
CONTINUOUS
 10
68.4205716199
 20
110.2424450295
 40
0.5
 50
258.9274420526
 51
338.75
  0
ARC
  8
0
 62
7
  6
CONTINUOUS
 10
68.0518268647
 20
110.3157929217
 40
0.5
 50
178.75
 51
258.5725579474
  0
ARC
  8
0
 62
7
  6
CONTINUOUS
 10
76.2957560508
 20
109.2304590544
 40
0.5
 50
266.4274420526
 51
346.25
  0
ARC
  8
0
 62
7
  6
CONTINUOUS
 10
75.920592137
 20
109.2550485965
 40
0.5
 50
186.25
 51
266.0725579475
  0
ARC
  8
0
 62
7
  6
CONTINUOUS
 10
27.3546064515
 20
200.5912766467
 40
3.0
 50
329.7246007931
 51
46.25
  0
ARC
  8
0
 62
7
  6
CONTINUOUS
 10
27.0611632523
 20
200.0830181165
 40
3.0
 50
253.75
 51
330.2753992069
  0
ARC
  8
0
 62
7
  6
CONTINUOUS
 10
23.7882269447
 20
193.4461598292
 40
3.0
 50
337.2246007931
 51
53.75
  0
ARC
  8
0
 62
7
  6
CONTINUOUS
 10
23.5636352433
 20
192.9039474977
 40
3.0
 50
261.25
 51
337.7753992069
  0
ARC
  8
0
 62
7
  6
CONTINUOUS
 10
21.1849832001
 20
185.8966645395
 40
3.0
 50
344.7246007931
 51
61.25
  0
ARC
  8
0
 62
7
  6
CONTINUOUS
 10
21.0330858228
 20
185.3297758101
 40
3.0
 50
268.75
 51
345.2753992069
  0
ARC
  8
0
 62
7
  6
CONTINUOUS
 10
19.5894174399
 20
178.0719647351
 40
3.0
 50
352.2246007931
 51
68.75
  0
ARC
  8
0
 62
7
  6
CONTINUOUS
 10
19.5128133931
 20
177.4900992312
 40
3.0
 50
276.25
 51
352.7753992069
  0
ARC
  8
0
 62
7
  6
CONTINUOUS
 10
19.0288302368
 20
170.1059431992
 40
3.0
 50
359.7246007931
 51
76.25
  0
ARC
  8
0
 62
7
  6
CONTINUOUS
 10
25.5550672646
 20
196.4906966253
 40
0.5
 50
153.9274420526
 51
233.75
  0
ARC
  8
0
 62
7
  6
CONTINUOUS
 10
25.7213540534
 20
196.8278928763
 40
0.5
 50
73.75
 51
153.5725579474
  0
ARC
  8
0
 62
7
  6
CONTINUOUS
 10
22.539316161
 20
189.1457738405
 40
0.5
 50
161.4274420525
 51
241.25
  0
ARC
  8
0
 62
7
  6
CONTINUOUS
 10
22.6601674007
 20
189.5017901122
 40
0.5
 50
81.25
 51
161.0725579474
  0
ARC
  8
0
 62
7
  6
CONTINUOUS
 10
20.5080700295
 20
181.4700533801
 40
0.5
 50
168.9274420526
 51
248.75
  0
ARC
  8
0
 62
7
  6
CONTINUOUS
 10
20.5814179217
 20
181.8387981353
 40
0.5
 50
88.75
 51
168.5725579474
  0
ARC
  8
0
 62
7
  6
CONTINUOUS
 10
19.4960840544
 20
173.5948689492
 40
0.5
 50
176.4274420525
 51
256.25
  0
ARC
  8
0
 62
7
  6
CONTINUOUS
 10
19.5206735965
 20
173.970032863
 40
0.5
 50
96.25
 51
176.0725579474
  0
ARC
  8
0
 62
7
  6
CONTINUOUS
 10
49.2993483533
 20
222.5360185485
 40
3.0
 50
223.75
 51
300.2753992069
  0
ARC
  8
0
 62
7
  6
CONTINUOUS
 10
43.1464732222
 20
218.4247988241
 40
3.0
 50
307.2246007931
 51
23.75
  0
ARC
  8
0
 62
7
  6
CONTINUOUS
 10
42.6808649377
 20
218.0675250215
 40
3.0
 50
231.25
 51
307.7753992069
  0
ARC
  8
0
 62
7
  6
CONTINUOUS
 10
37.1172503623
 20
213.1883659898
 40
3.0
 50
314.7246007931
 51
31.25
  0
ARC
  8
0
 62
7
  6
CONTINUOUS
 10
36.7022590102
 20
212.7733746377
 40
3.0
 50
238.75
 51
315.2753992069
  0
ARC
  8
0
 62
7
  6
CONTINUOUS
 10
31.8230999785
 20
207.2097600623
 40
3.0
 50
322.2246007931
 51
38.75
  0
ARC
  8
0
 62
7
  6
CONTINUOUS
 10
31.4658261759
 20
206.7441517778
 40
3.0
 50
246.25
 51
322.7753992069
  0
ARC
  8
0
 62
7
  6
CONTINUOUS
 10
46.1988702218
 20
220.1780248724
 40
0.5
 50
123.9274420525
 51
203.75
  0
ARC
  8
0
 62
7
  6
CONTINUOUS
 10
46.5114769307
 20
220.3869019974
 40
0.5
 50
43.75
 51
123.5725579474
  0
ARC
  8
0
 62
7
  6
CONTINUOUS
 10
39.9146917622
 20
215.3250107037
 40
0.5
 50
131.4274420526
 51
211.25
  0
ARC
  8
0
 62
7
  6
CONTINUOUS
 10
40.1973601416
 20
215.5729042193
 40
0.5
 50
51.25
 51
131.0725579474
  0
ARC
  8
0
 62
7
  6
CONTINUOUS
 10
34.3177207807
 20
209.6932648584
 40
0.5
 50
138.9274420526
 51
218.75
  0
ARC
  8
0
 62
7
  6
CONTINUOUS
 10
34.5656142963
 20
209.9759332378
 40
0.5
 50
58.75
 51
138.5725579474
  0
ARC
  8
0
 62
7
  6
CONTINUOUS
 10
29.5037230026
 20
203.3791480693
 40
0.5
 50
146.4274420526
 51
226.25
  0
ARC
  8
0
 62
7
  6
CONTINUOUS
 10
29.7126001276
 20
203.6917547782
 40
0.5
 50
66.25
 51
146.0725579474
  0
ARC
  8
0
 62
7
  6
CONTINUOUS
 10
80.078125
 20
169.8125
 40
61.2
 50
93.5725579474
 51
93.9274420526
  0
ARC
  8
0
 62
7
  6
CONTINUOUS
 10
80.078125
 20
169.8125
 40
61.2
 50
101.0725579474
 51
101.4274420526
  0
ARC
  8
0
 62
7
  6
CONTINUOUS
 10
80.078125
 20
169.8125
 40
61.2
 50
108.5725579474
 51
108.9274420526
  0
ARC
  8
0
 62
7
  6
CONTINUOUS
 10
80.078125
 20
169.8125
 40
61.2
 50
116.0725579474
 51
116.4274420526
  0
ARC
  8
0
 62
7
  6
CONTINUOUS
 10
80.078125
 20
169.8125
 40
61.2
 50
123.5725579474
 51
123.9274420526
  0
ARC
  8
0
 62
7
  6
CONTINUOUS
 10
80.078125
 20
169.8125
 40
61.2
 50
131.0725579474
 51
131.4274420526
  0
ARC
  8
0
 62
7
  6
CONTINUOUS
 10
80.078125
 20
169.8125
 40
61.2
 50
138.5725579474
 51
138.9274420526
  0
ARC
  8
0
 62
7
  6
CONTINUOUS
 10
80.078125
 20
169.8125
 40
61.2
 50
146.0725579474
 51
146.4274420526
  0
ARC
  8
0
 62
7
  6
CONTINUOUS
 10
80.078125
 20
169.8125
 40
61.2
 50
153.5725579474
 51
153.9274420526
  0
ARC
  8
0
 62
7
  6
CONTINUOUS
 10
80.078125
 20
169.8125
 40
61.2
 50
161.0725579474
 51
161.4274420526
  0
ARC
  8
0
 62
7
  6
CONTINUOUS
 10
80.078125
 20
169.8125
 40
61.2
 50
168.5725579474
 51
168.9274420526
  0
ARC
  8
0
 62
7
  6
CONTINUOUS
 10
80.078125
 20
169.8125
 40
61.2
 50
176.0725579474
 51
176.4274420526
  0
ARC
  8
0
 62
7
  6
CONTINUOUS
 10
80.078125
 20
169.8125
 40
61.2
 50
183.5725579474
 51
183.9274420526
  0
ARC
  8
0
 62
7
  6
CONTINUOUS
 10
80.078125
 20
169.8125
 40
61.2
 50
191.0725579474
 51
191.4274420526
  0
ARC
  8
0
 62
7
  6
CONTINUOUS
 10
80.078125
 20
169.8125
 40
61.2
 50
198.5725579474
 51
198.9274420526
  0
ARC
  8
0
 62
7
  6
CONTINUOUS
 10
80.078125
 20
169.8125
 40
61.2
 50
206.0725579474
 51
206.4274420526
  0
ARC
  8
0
 62
7
  6
CONTINUOUS
 10
80.078125
 20
169.8125
 40
61.2
 50
213.5725579474
 51
213.9274420526
  0
ARC
  8
0
 62
7
  6
CONTINUOUS
 10
80.078125
 20
169.8125
 40
61.2
 50
221.0725579474
 51
221.4274420526
  0
ARC
  8
0
 62
7
  6
CONTINUOUS
 10
80.078125
 20
169.8125
 40
61.2
 50
228.5725579474
 51
228.9274420526
  0
ARC
  8
0
 62
7
  6
CONTINUOUS
 10
80.078125
 20
169.8125
 40
61.2
 50
236.0725579474
 51
236.4274420526
  0
ARC
  8
0
 62
7
  6
CONTINUOUS
 10
80.078125
 20
169.8125
 40
61.2
 50
243.5725579474
 51
243.9274420526
  0
ARC
  8
0
 62
7
  6
CONTINUOUS
 10
80.078125
 20
169.8125
 40
61.2
 50
251.0725579474
 51
251.4274420526
  0
ARC
  8
0
 62
7
  6
CONTINUOUS
 10
80.078125
 20
169.8125
 40
61.2
 50
258.5725579474
 51
258.9274420526
  0
ARC
  8
0
 62
7
  6
CONTINUOUS
 10
80.078125
 20
169.8125
 40
61.2
 50
266.0725579474
 51
266.4274420526
  0
ARC
  8
0
 62
7
  6
CONTINUOUS
 10
80.078125
 20
169.8125
 40
61.2
 50
273.5725579474
 51
273.9274420526
  0
ARC
  8
0
 62
7
  6
CONTINUOUS
 10
80.078125
 20
169.8125
 40
61.2
 50
281.0725579474
 51
281.4274420526
  0
ARC
  8
0
 62
7
  6
CONTINUOUS
 10
80.078125
 20
169.8125
 40
61.2
 50
288.5725579474
 51
288.9274420526
  0
ARC
  8
0
 62
7
  6
CONTINUOUS
 10
80.078125
 20
169.8125
 40
61.2
 50
296.0725579474
 51
296.4274420526
  0
ARC
  8
0
 62
7
  6
CONTINUOUS
 10
80.078125
 20
169.8125
 40
61.2
 50
303.5725579474
 51
303.9274420526
  0
ARC
  8
0
 62
7
  6
CONTINUOUS
 10
80.078125
 20
169.8125
 40
61.2
 50
311.0725579474
 51
311.4274420526
  0
ARC
  8
0
 62
7
  6
CONTINUOUS
 10
80.078125
 20
169.8125
 40
61.2
 50
318.5725579474
 51
318.9274420526
  0
ARC
  8
0
 62
7
  6
CONTINUOUS
 10
80.078125
 20
169.8125
 40
61.2
 50
326.0725579474
 51
326.4274420526
  0
ARC
  8
0
 62
7
  6
CONTINUOUS
 10
80.078125
 20
169.8125
 40
61.2
 50
333.5725579474
 51
333.9274420526
  0
ARC
  8
0
 62
7
  6
CONTINUOUS
 10
80.078125
 20
169.8125
 40
61.2
 50
341.0725579474
 51
341.4274420526
  0
ARC
  8
0
 62
7
  6
CONTINUOUS
 10
80.078125
 20
169.8125
 40
61.2
 50
348.5725579474
 51
348.9274420526
  0
ARC
  8
0
 62
7
  6
CONTINUOUS
 10
80.078125
 20
169.8125
 40
61.2
 50
356.0725579474
 51
356.4274420526
  0
ARC
  8
0
 62
7
  6
CONTINUOUS
 10
80.078125
 20
169.8125
 40
61.2
 50
3.5725579474
 51
3.9274420526
  0
ARC
  8
0
 62
7
  6
CONTINUOUS
 10
80.078125
 20
169.8125
 40
61.2
 50
11.0725579474
 51
11.4274420526
  0
ARC
  8
0
 62
7
  6
CONTINUOUS
 10
80.078125
 20
169.8125
 40
61.2
 50
86.0725579474
 51
86.4274420526
  0
ARC
  8
0
 62
7
  6
CONTINUOUS
 10
80.078125
 20
169.8125
 40
61.2
 50
18.5725579474
 51
18.9274420526
  0
ARC
  8
0
 62
7
  6
CONTINUOUS
 10
80.078125
 20
169.8125
 40
61.2
 50
26.0725579474
 51
26.4274420526
  0
ARC
  8
0
 62
7
  6
CONTINUOUS
 10
80.078125
 20
169.8125
 40
61.2
 50
33.5725579474
 51
33.9274420526
  0
ARC
  8
0
 62
7
  6
CONTINUOUS
 10
80.078125
 20
169.8125
 40
61.2
 50
41.0725579474
 51
41.4274420526
  0
ARC
  8
0
 62
7
  6
CONTINUOUS
 10
80.078125
 20
169.8125
 40
61.2
 50
78.5725579474
 51
78.9274420526
  0
ARC
  8
0
 62
7
  6
CONTINUOUS
 10
80.078125
 20
169.8125
 40
61.2
 50
48.5725579474
 51
48.9274420526
  0
ARC
  8
0
 62
7
  6
CONTINUOUS
 10
80.078125
 20
169.8125
 40
61.2
 50
56.0725579474
 51
56.4274420526
  0
ARC
  8
0
 62
7
  6
CONTINUOUS
 10
80.078125
 20
169.8125
 40
61.2
 50
63.5725579474
 51
63.9274420526
  0
ARC
  8
0
 62
7
  6
CONTINUOUS
 10
80.078125
 20
169.8125
 40
61.2
 50
71.0725579474
 51
71.4274420526
  0
ARC
  8
0
 62
7
  6
CONTINUOUS
 10
80.078125
 20
169.8125
 40
60.2
 50
267.0052081917
 51
271.899062728
  0
ARC
  8
0
 62
7
  6
CONTINUOUS
 10
80.078125
 20
169.8125
 40
60.2
 50
95.600937272
 51
100.4947918083
  0
ARC
  8
0
 62
7
  6
CONTINUOUS
 10
80.078125
 20
169.8125
 40
60.2
 50
259.5052081917
 51
265.4947918083
  0
ARC
  8
0
 62
7
  6
CONTINUOUS
 10
80.078125
 20
169.8125
 40
60.2
 50
252.0052081917
 51
257.9947918083
  0
ARC
  8
0
 62
7
  6
CONTINUOUS
 10
80.078125
 20
169.8125
 40
60.2
 50
244.5052081917
 51
250.4947918083
  0
ARC
  8
0
 62
7
  6
CONTINUOUS
 10
80.078125
 20
169.8125
 40
60.2
 50
237.0052081917
 51
242.9947918083
  0
ARC
  8
0
 62
7
  6
CONTINUOUS
 10
80.078125
 20
169.8125
 40
60.2
 50
229.5052081917
 51
235.4947918083
  0
ARC
  8
0
 62
7
  6
CONTINUOUS
 10
80.078125
 20
169.8125
 40
60.2
 50
222.0052081917
 51
227.9947918083
  0
ARC
  8
0
 62
7
  6
CONTINUOUS
 10
80.078125
 20
169.8125
 40
60.2
 50
214.5052081917
 51
220.4947918083
  0
ARC
  8
0
 62
7
  6
CONTINUOUS
 10
80.078125
 20
169.8125
 40
60.2
 50
207.0052081917
 51
212.9947918083
  0
ARC
  8
0
 62
7
  6
CONTINUOUS
 10
80.078125
 20
169.8125
 40
60.2
 50
199.5052081917
 51
205.4947918083
  0
ARC
  8
0
 62
7
  6
CONTINUOUS
 10
80.078125
 20
169.8125
 40
60.2
 50
192.0052081917
 51
197.9947918083
  0
ARC
  8
0
 62
7
  6
CONTINUOUS
 10
80.078125
 20
169.8125
 40
60.2
 50
184.5052081917
 51
190.4947918083
  0
ARC
  8
0
 62
7
  6
CONTINUOUS
 10
80.078125
 20
169.8125
 40
60.2
 50
177.0052081917
 51
182.9947918083
  0
ARC
  8
0
 62
7
  6
CONTINUOUS
 10
80.078125
 20
169.8125
 40
60.2
 50
169.5052081917
 51
175.4947918083
  0
ARC
  8
0
 62
7
  6
CONTINUOUS
 10
80.078125
 20
169.8125
 40
60.2
 50
162.0052081917
 51
167.9947918083
  0
ARC
  8
0
 62
7
  6
CONTINUOUS
 10
80.078125
 20
169.8125
 40
60.2
 50
154.5052081917
 51
160.4947918083
  0
ARC
  8
0
 62
7
  6
CONTINUOUS
 10
80.078125
 20
169.8125
 40
60.2
 50
147.0052081917
 51
152.9947918083
  0
ARC
  8
0
 62
7
  6
CONTINUOUS
 10
80.078125
 20
169.8125
 40
60.2
 50
132.0052081917
 51
137.9947918083
  0
ARC
  8
0
 62
7
  6
CONTINUOUS
 10
80.078125
 20
169.8125
 40
60.2
 50
124.5052081917
 51
130.4947918083
  0
ARC
  8
0
 62
7
  6
CONTINUOUS
 10
80.078125
 20
169.8125
 40
60.2
 50
117.0052081917
 51
122.9947918083
  0
ARC
  8
0
 62
7
  6
CONTINUOUS
 10
80.078125
 20
169.8125
 40
60.2
 50
109.5052081917
 51
115.4947918083
  0
ARC
  8
0
 62
7
  6
CONTINUOUS
 10
80.078125
 20
169.8125
 40
60.2
 50
102.0052081917
 51
107.9947918083
  0
ARC
  8
0
 62
7
  6
CONTINUOUS
 10
80.078125
 20
169.8125
 40
60.2
 50
139.5052081917
 51
145.4947918083
  0
CIRCLE
  8
0
 62
7
  6
CONTINUOUS
 10
80.078125
 20
169.8125
 40
57.2
  0
ARC
  8
0
 62
7
  6
CONTINUOUS
 10
72.4005257688
 20
230.3778116069
 40
3.0
 50
277.2246007931
 51
353.75
  0
ARC
  8
0
 62
7
  6
CONTINUOUS
 10
71.8186602649
 20
230.3012075601
 40
3.0
 50
201.25
 51
277.7753992069
  0
ARC
  8
0
 62
7
  6
CONTINUOUS
 10
64.5608491899
 20
228.8575391772
 40
3.0
 50
284.7246007931
 51
1.25
  0
ARC
  8
0
 62
7
  6
CONTINUOUS
 10
63.9939604605
 20
228.7056417999
 40
3.0
 50
208.75
 51
285.2753992069
  0
ARC
  8
0
 62
7
  6
CONTINUOUS
 10
56.9866775023
 20
226.3269897567
 40
3.0
 50
292.2246007931
 51
8.75
  0
ARC
  8
0
 62
7
  6
CONTINUOUS
 10
56.4444651708
 20
226.1023980553
 40
3.0
 50
216.25
 51
292.7753992069
  0
ARC
  8
0
 62
7
  6
CONTINUOUS
 10
49.8076068835
 20
222.8294617477
 40
3.0
 50
299.7246007931
 51
16.25
  0
ARC
  8
0
 62
7
  6
CONTINUOUS
 10
79.7846818008
 20
230.8617947632
 40
3.0
 50
193.75
 51
270.2753992069
  0
ARC
  8
0
 62
7
  6
CONTINUOUS
 10
80.3715681992
 20
230.8617947632
 40
3.0
 50
269.7246007931
 51
346.25
  0
ARC
  8
0
 62
7
  6
CONTINUOUS
 10
78.0301453743
 20
231.5785568553
 40
1.6
 50
214.3201888744
 51
271.899062728
  0
ARC
  8
0
 62
7
  6
CONTINUOUS
 10
74.0464956663
 20
231.3174546588
 40
1.6
 50
275.600937272
 51
333.1798111256
  0
ARC
  8
0
 62
7
  6
CONTINUOUS
 10
68.0518268647
 20
229.3092070783
 40
0.5
 50
101.4274420525
 51
181.25
  0
ARC
  8
0
 62
7
  6
CONTINUOUS
 10
68.4205716199
 20
229.3825549705
 40
0.5
 50
21.25
 51
101.0725579474
  0
ARC
  8
0
 62
7
  6
CONTINUOUS
 10
60.3888348878
 20
227.2304575993
 40
0.5
 50
108.9274420526
 51
188.75
  0
ARC
  8
0
 62
7
  6
CONTINUOUS
 10
60.7448511595
 20
227.351308839
 40
0.5
 50
28.75
 51
108.5725579474
  0
ARC
  8
0
 62
7
  6
CONTINUOUS
 10
53.0627321237
 20
224.1692709466
 40
0.5
 50
116.4274420525
 51
196.25
  0
ARC
  8
0
 62
7
  6
CONTINUOUS
 10
53.3999283747
 20
224.3355577354
 40
0.5
 50
36.25
 51
116.0725579474
  0
ARC
  8
0
 62
7
  6
CONTINUOUS
 10
76.2957560508
 20
230.3945409456
 40
0.5
 50
13.75
 51
93.5725579475
  0
ARC
  8
0
 62
7
  6
CONTINUOUS
 10
75.920592137
 20
230.3699514035
 40
0.5
 50
93.9274420525
 51
173.75
  0
ARC
  8
0
 62
7
  6
CONTINUOUS
 10
87.7557242312
 20
109.2471883931
 40
3.0
 50
97.2246007931
 51
173.75
  0
ARC
  8
0
 62
7
  6
CONTINUOUS
 10
88.3375897351
 20
109.3237924399
 40
3.0
 50
21.25
 51
97.7753992069
  0
ARC
  8
0
 62
7
  6
CONTINUOUS
 10
95.5954008101
 20
110.7674608228
 40
3.0
 50
104.7246007931
 51
181.25
  0
ARC
  8
0
 62
7
  6
CONTINUOUS
 10
96.1622895395
 20
110.9193582001
 40
3.0
 50
28.75
 51
105.2753992069
  0
ARC
  8
0
 62
7
  6
CONTINUOUS
 10
103.1695724977
 20
113.2980102433
 40
3.0
 50
112.2246007931
 51
188.75
  0
ARC
  8
0
 62
7
  6
CONTINUOUS
 10
103.7117848292
 20
113.5226019447
 40
3.0
 50
36.25
 51
112.7753992069
  0
ARC
  8
0
 62
7
  6
CONTINUOUS
 10
110.3486431165
 20
116.7955382523
 40
3.0
 50
119.7246007931
 51
196.25
  0
ARC
  8
0
 62
7
  6
CONTINUOUS
 10
110.8569016467
 20
117.0889814515
 40
3.0
 50
43.75
 51
120.2753992069
  0
ARC
  8
0
 62
7
  6
CONTINUOUS
 10
82.1261046257
 20
108.0464431447
 40
1.6
 50
34.3201888744
 51
91.899062728
  0
ARC
  8
0
 62
7
  6
CONTINUOUS
 10
90.1706720859
 20
108.8421753058
 40
1.6
 50
41.8201888744
 51
99.399062728
  0
ARC
  8
0
 62
7
  6
CONTINUOUS
 10
105.6070581002
 20
113.53183214
 40
1.6
 50
56.8201888744
 51
114.399062728
  0
ARC
  8
0
 62
7
  6
CONTINUOUS
 10
98.0425532672
 20
110.6811266265
 40
1.6
 50
49.3201888744
 51
106.899062728
  0
ARC
  8
0
 62
7
  6
CONTINUOUS
 10
109.1875510454
 20
115.2975358589
 40
1.6
 50
118.100937272
 51
175.6798111256
  0
ARC
  8
0
 62
7
  6
CONTINUOUS
 10
101.8228851819
 20
111.9643763949
 40
1.6
 50
110.600937272
 51
168.1798111256
  0
ARC
  8
0
 62
7
  6
CONTINUOUS
 10
94.0861604429
 20
109.6210143643
 40
1.6
 50
103.100937272
 51
160.6798111256
  0
ARC
  8
0
 62
7
  6
CONTINUOUS
 10
86.1097543337
 20
108.3075453412
 40
1.6
 50
95.600937272
 51
153.1798111256
  0
ARC
  8
0
 62
7
  6
CONTINUOUS
 10
84.235657863
 20
109.2550485965
 40
0.5
 50
273.9274420526
 51
353.75
  0
ARC
  8
0
 62
7
  6
CONTINUOUS
 10
83.8604939492
 20
109.2304590544
 40
0.5
 50
193.75
 51
273.5725579475
  0
ARC
  8
0
 62
7
  6
CONTINUOUS
 10
92.1044231353
 20
110.3157929217
 40
0.5
 50
281.4274420526
 51
1.25
  0
ARC
  8
0
 62
7
  6
CONTINUOUS
 10
91.7356783801
 20
110.2424450295
 40
0.5
 50
201.25
 51
281.0725579475
  0
ARC
  8
0
 62
7
  6
CONTINUOUS
 10
99.7674151122
 20
112.3945424007
 40
0.5
 50
288.9274420526
 51
8.75
  0
ARC
  8
0
 62
7
  6
CONTINUOUS
 10
99.4113988405
 20
112.273691161
 40
0.5
 50
208.75
 51
288.5725579474
  0
ARC
  8
0
 62
7
  6
CONTINUOUS
 10
107.0935178763
 20
115.4557290534
 40
0.5
 50
296.4274420526
 51
16.25
  0
ARC
  8
0
 62
7
  6
CONTINUOUS
 10
106.7563216253
 20
115.2894422646
 40
0.5
 50
216.25
 51
296.0725579475
  0
ARC
  8
0
 62
7
  6
CONTINUOUS
 10
117.0097767778
 20
121.2002011759
 40
3.0
 50
127.2246007931
 51
203.75
  0
ARC
  8
0
 62
7
  6
CONTINUOUS
 10
117.4753850623
 20
121.5574749785
 40
3.0
 50
51.25
 51
127.7753992069
  0
ARC
  8
0
 62
7
  6
CONTINUOUS
 10
123.0389996377
 20
126.4366340102
 40
3.0
 50
134.7246007931
 51
211.25
  0
ARC
  8
0
 62
7
  6
CONTINUOUS
 10
123.4539909898
 20
126.8516253623
 40
3.0
 50
58.75
 51
135.2753992069
  0
ARC
  8
0
 62
7
  6
CONTINUOUS
 10
128.3331500215
 20
132.4152399377
 40
3.0
 50
142.2246007931
 51
218.75
  0
ARC
  8
0
 62
7
  6
CONTINUOUS
 10
128.6904238241
 20
132.8808482222
 40
3.0
 50
66.25
 51
142.7753992069
  0
ARC
  8
0
 62
7
  6
CONTINUOUS
 10
112.7347558099
 20
117.3455154846
 40
1.6
 50
64.3201888744
 51
121.899062728
  0
ARC
  8
0
 62
7
  6
CONTINUOUS
 10
119.3036895124
 20
122.0569234807
 40
1.6
 50
71.8201888744
 51
129.399062728
  0
ARC
  8
0
 62
7
  6
CONTINUOUS
 10
125.2014629306
 20
127.5854426315
 40
1.6
 50
79.3201888744
 51
136.899062728
  0
ARC
  8
0
 62
7
  6
CONTINUOUS
 10
130.3271635263
 20
133.8364784414
 40
1.6
 50
86.8201888744
 51
144.399062728
  0
ARC
  8
0
 62
7
  6
CONTINUOUS
 10
127.8337015193
 20
130.5869354876
 40
1.6
 50
140.600937272
 51
198.1798111256
  0
ARC
  8
0
 62
7
  6
CONTINUOUS
 10
122.3051823685
 20
124.6891620694
 40
1.6
 50
133.100937272
 51
190.6798111256
  0
ARC
  8
0
 62
7
  6
CONTINUOUS
 10
116.0541465586
 20
119.5634614737
 40
1.6
 50
125.600937272
 51
183.1798111256
  0
ARC
  8
0
 62
7
  6
CONTINUOUS
 10
132.5451095154
 20
137.1558691901
 40
1.6
 50
148.100937272
 51
205.6798111256
  0
ARC
  8
0
 62
7
  6
CONTINUOUS
 10
113.9573797782
 20
119.4469751276
 40
0.5
 50
303.9274420526
 51
23.75
  0
ARC
  8
0
 62
7
  6
CONTINUOUS
 10
113.6447730693
 20
119.2380980026
 40
0.5
 50
223.75
 51
303.5725579475
  0
ARC
  8
0
 62
7
  6
CONTINUOUS
 10
120.2415582378
 20
124.2999892963
 40
0.5
 50
311.4274420526
 51
31.25
  0
ARC
  8
0
 62
7
  6
CONTINUOUS
 10
119.9588898584
 20
124.0520957807
 40
0.5
 50
231.25
 51
311.0725579475
  0
ARC
  8
0
 62
7
  6
CONTINUOUS
 10
125.8385292193
 20
129.9317351416
 40
0.5
 50
318.9274420526
 51
38.75
  0
ARC
  8
0
 62
7
  6
CONTINUOUS
 10
125.5906357037
 20
129.6490667622
 40
0.5
 50
238.75
 51
318.5725579474
  0
ARC
  8
0
 62
7
  6
CONTINUOUS
 10
130.6525269974
 20
136.2458519307
 40
0.5
 50
326.4274420526
 51
46.25
  0
ARC
  8
0
 62
7
  6
CONTINUOUS
 10
130.4436498724
 20
135.9332452218
 40
0.5
 50
246.25
 51
326.0725579474
  0
ARC
  8
0
 62
7
  6
CONTINUOUS
 10
132.8016435485
 20
139.0337233533
 40
3.0
 50
149.7246007931
 51
226.25
  0
ARC
  8
0
 62
7
  6
CONTINUOUS
 10
133.0950867477
 20
139.5419818835
 40
3.0
 50
73.75
 51
150.2753992069
  0
ARC
  8
0
 62
7
  6
CONTINUOUS
 10
136.3680230553
 20
146.1788401708
 40
3.0
 50
157.2246007931
 51
233.75
  0
ARC
  8
0
 62
7
  6
CONTINUOUS
 10
136.5926147567
 20
146.7210525023
 40
3.0
 50
81.25
 51
157.7753992069
  0
ARC
  8
0
 62
7
  6
CONTINUOUS
 10
138.9712667999
 20
153.7283354605
 40
3.0
 50
164.7246007931
 51
241.25
  0
ARC
  8
0
 62
7
  6
CONTINUOUS
 10
139.1231641772
 20
154.2952241899
 40
3.0
 50
88.75
 51
165.2753992069
  0
ARC
  8
0
 62
7
  6
CONTINUOUS
 10
140.5668325601
 20
161.5530352649
 40
3.0
 50
172.2246007931
 51
248.75
  0
ARC
  8
0
 62
7
  6
CONTINUOUS
 10
140.6434366069
 20
162.1349007688
 40
3.0
 50
96.25
 51
172.7753992069
  0
ARC
  8
0
 62
7
  6
CONTINUOUS
 10
141.1274197632
 20
169.5190568008
 40
3.0
 50
179.7246007931
 51
256.25
  0
ARC
  8
0
 62
7
  6
CONTINUOUS
 10
134.5930891411
 20
140.7030739546
 40
1.6
 50
94.3201888744
 51
151.899062728
  0
ARC
  8
0
 62
7
  6
CONTINUOUS
 10
137.9262486051
 20
148.0677398181
 40
1.6
 50
101.8201888744
 51
159.399062728
  0
ARC
  8
0
 62
7
  6
CONTINUOUS
 10
140.2696106357
 20
155.8044645571
 40
1.6
 50
109.3201888744
 51
166.899062728
  0
ARC
  8
0
 62
7
  6
CONTINUOUS
 10
141.5830796588
 20
163.7808706663
 40
1.6
 50
116.8201888744
 51
174.399062728
  0
ARC
  8
0
 62
7
  6
CONTINUOUS
 10
141.8441818553
 20
167.7645203743
 40
1.6
 50
178.100937272
 51
235.6798111256
  0
ARC
  8
0
 62
7
  6
CONTINUOUS
 10
141.0484496942
 20
159.7199529141
 40
1.6
 50
170.600937272
 51
228.1798111256
  0
ARC
  8
0
 62
7
  6
CONTINUOUS
 10
139.2094983735
 20
151.8480717328
 40
1.6
 50
163.100937272
 51
220.6798111256
  0
ARC
  8
0
 62
7
  6
CONTINUOUS
 10
136.35879286
 20
144.2835668998
 40
1.6
 50
155.600937272
 51
213.1798111256
  0
ARC
  8
0
 62
7
  6
CONTINUOUS
 10
134.6011827354
 20
143.1343033747
 40
0.5
 50
333.9274420526
 51
53.75
  0
ARC
  8
0
 62
7
  6
CONTINUOUS
 10
134.4348959466
 20
142.7971071237
 40
0.5
 50
253.75
 51
333.5725579475
  0
ARC
  8
0
 62
7
  6
CONTINUOUS
 10
137.616933839
 20
150.4792261595
 40
0.5
 50
341.4274420526
 51
61.25
  0
ARC
  8
0
 62
7
  6
CONTINUOUS
 10
137.4960825993
 20
150.1232098878
 40
0.5
 50
261.25
 51
341.0725579475
  0
ARC
  8
0
 62
7
  6
CONTINUOUS
 10
139.6481799705
 20
158.1549466199
 40
0.5
 50
348.9274420526
 51
68.75
  0
ARC
  8
0
 62
7
  6
CONTINUOUS
 10
139.5748320783
 20
157.7862018647
 40
0.5
 50
268.75
 51
348.5725579475
  0
ARC
  8
0
 62
7
  6
CONTINUOUS
 10
140.6601659456
 20
166.0301310508
 40
0.5
 50
356.4274420526
 51
76.25
  0
ARC
  8
0
 62
7
  6
CONTINUOUS
 10
140.6355764035
 20
165.654967137
 40
0.5
 50
276.25
 51
356.0725579474
  0
ARC
  8
0
 62
7
  6
CONTINUOUS
 10
87.7557242312
 20
230.3778116069
 40
3.0
 50
186.25
 51
262.7753992069
  0
ARC
  8
0
 62
7
  6
CONTINUOUS
 10
110.8569016467
 20
222.5360185485
 40
3.0
 50
239.7246007931
 51
316.25
  0
ARC
  8
0
 62
7
  6
CONTINUOUS
 10
88.3375897351
 20
230.3012075601
 40
3.0
 50
262.2246007931
 51
338.75
  0
ARC
  8
0
 62
7
  6
CONTINUOUS
 10
95.5954008101
 20
228.8575391772
 40
3.0
 50
178.75
 51
255.2753992069
  0
ARC
  8
0
 62
7
  6
CONTINUOUS
 10
110.3486431165
 20
222.8294617477
 40
3.0
 50
163.75
 51
240.2753992069
  0
ARC
  8
0
 62
7
  6
CONTINUOUS
 10
103.7117848292
 20
226.1023980553
 40
3.0
 50
247.2246007931
 51
323.75
  0
ARC
  8
0
 62
7
  6
CONTINUOUS
 10
103.1695724977
 20
226.3269897567
 40
3.0
 50
171.25
 51
247.7753992069
  0
ARC
  8
0
 62
7
  6
CONTINUOUS
 10
96.1622895395
 20
228.7056417999
 40
3.0
 50
254.7246007931
 51
331.25
  0
ARC
  8
0
 62
7
  6
CONTINUOUS
 10
109.1875510454
 20
224.3274641411
 40
1.6
 50
184.3201888744
 51
241.899062728
  0
ARC
  8
0
 62
7
  6
CONTINUOUS
 10
101.8228851819
 20
227.6606236051
 40
1.6
 50
191.8201888744
 51
249.399062728
  0
ARC
  8
0
 62
7
  6
CONTINUOUS
 10
94.0861604429
 20
230.0039856357
 40
1.6
 50
199.3201888744
 51
256.899062728
  0
ARC
  8
0
 62
7
  6
CONTINUOUS
 10
86.1097543337
 20
231.3174546588
 40
1.6
 50
206.8201888744
 51
264.399062728
  0
ARC
  8
0
 62
7
  6
CONTINUOUS
 10
82.1261046257
 20
231.5785568553
 40
1.6
 50
268.100937272
 51
325.6798111256
  0
ARC
  8
0
 62
7
  6
CONTINUOUS
 10
90.1706720859
 20
230.7828246942
 40
1.6
 50
260.600937272
 51
318.1798111256
  0
ARC
  8
0
 62
7
  6
CONTINUOUS
 10
98.0425532672
 20
228.9438733735
 40
1.6
 50
253.100937272
 51
310.6798111256
  0
ARC
  8
0
 62
7
  6
CONTINUOUS
 10
105.6070581002
 20
226.09316786
 40
1.6
 50
245.600937272
 51
303.1798111256
  0
ARC
  8
0
 62
7
  6
CONTINUOUS
 10
84.235657863
 20
230.3699514035
 40
0.5
 50
6.25
 51
86.0725579474
  0
ARC
  8
0
 62
7
  6
CONTINUOUS
 10
83.8604939492
 20
230.3945409456
 40
0.5
 50
86.4274420525
 51
166.25
  0
ARC
  8
0
 62
7
  6
CONTINUOUS
 10
106.7563216253
 20
224.3355577354
 40
0.5
 50
63.9274420526
 51
143.75
  0
ARC
  8
0
 62
7
  6
CONTINUOUS
 10
107.0935178763
 20
224.1692709466
 40
0.5
 50
343.75
 51
63.5725579474
  0
ARC
  8
0
 62
7
  6
CONTINUOUS
 10
99.4113988405
 20
227.351308839
 40
0.5
 50
71.4274420525
 51
151.25
  0
ARC
  8
0
 62
7
  6
CONTINUOUS
 10
92.1044231353
 20
229.3092070783
 40
0.5
 50
358.75
 51
78.5725579474
  0
ARC
  8
0
 62
7
  6
CONTINUOUS
 10
99.7674151122
 20
227.2304575993
 40
0.5
 50
351.25
 51
71.0725579474
  0
ARC
  8
0
 62
7
  6
CONTINUOUS
 10
91.7356783801
 20
229.3825549705
 40
0.5
 50
78.9274420526
 51
158.75
  0
ARC
  8
0
 62
7
  6
CONTINUOUS
 10
141.1274197632
 20
170.1059431992
 40
3.0
 50
103.75
 51
180.2753992069
  0
ARC
  8
0
 62
7
  6
CONTINUOUS
 10
140.6434366069
 20
177.4900992312
 40
3.0
 50
187.2246007931
 51
263.75
  0
ARC
  8
0
 62
7
  6
CONTINUOUS
 10
140.5668325601
 20
178.0719647351
 40
3.0
 50
111.25
 51
187.7753992069
  0
ARC
  8
0
 62
7
  6
CONTINUOUS
 10
139.1231641772
 20
185.3297758101
 40
3.0
 50
194.7246007931
 51
271.25
  0
ARC
  8
0
 62
7
  6
CONTINUOUS
 10
138.9712667999
 20
185.8966645395
 40
3.0
 50
118.75
 51
195.2753992069
  0
ARC
  8
0
 62
7
  6
CONTINUOUS
 10
136.5926147567
 20
192.9039474977
 40
3.0
 50
202.2246007931
 51
278.75
  0
ARC
  8
0
 62
7
  6
CONTINUOUS
 10
136.3680230553
 20
193.4461598292
 40
3.0
 50
126.25
 51
202.7753992069
  0
ARC
  8
0
 62
7
  6
CONTINUOUS
 10
133.0950867477
 20
200.0830181165
 40
3.0
 50
209.7246007931
 51
286.25
  0
ARC
  8
0
 62
7
  6
CONTINUOUS
 10
132.8016435485
 20
200.5912766467
 40
3.0
 50
133.75
 51
210.2753992069
  0
ARC
  8
0
 62
7
  6
CONTINUOUS
 10
141.8441818553
 20
171.8604796257
 40
1.6
 50
124.3201888744
 51
181.899062728
  0
ARC
  8
0
 62
7
  6
CONTINUOUS
 10
141.0484496942
 20
179.9050470859
 40
1.6
 50
131.8201888744
 51
189.399062728
  0
ARC
  8
0
 62
7
  6
CONTINUOUS
 10
139.2094983735
 20
187.7769282672
 40
1.6
 50
139.3201888744
 51
196.899062728
  0
ARC
  8
0
 62
7
  6
CONTINUOUS
 10
136.35879286
 20
195.3414331002
 40
1.6
 50
146.8201888744
 51
204.399062728
  0
ARC
  8
0
 62
7
  6
CONTINUOUS
 10
134.5930891411
 20
198.9219260454
 40
1.6
 50
208.100937272
 51
265.6798111256
  0
ARC
  8
0
 62
7
  6
CONTINUOUS
 10
137.9262486051
 20
191.5572601819
 40
1.6
 50
200.600937272
 51
258.1798111256
  0
ARC
  8
0
 62
7
  6
CONTINUOUS
 10
140.2696106357
 20
183.8205354429
 40
1.6
 50
193.100937272
 51
250.6798111256
  0
ARC
  8
0
 62
7
  6
CONTINUOUS
 10
141.5830796588
 20
175.8441293337
 40
1.6
 50
185.600937272
 51
243.1798111256
  0
ARC
  8
0
 62
7
  6
CONTINUOUS
 10
140.6355764035
 20
173.970032863
 40
0.5
 50
3.9274420525
 51
83.75
  0
ARC
  8
0
 62
7
  6
CONTINUOUS
 10
140.6601659456
 20
173.5948689492
 40
0.5
 50
283.75
 51
3.5725579474
  0
ARC
  8
0
 62
7
  6
CONTINUOUS
 10
139.5748320783
 20
181.8387981353
 40
0.5
 50
11.4274420526
 51
91.25
  0
ARC
  8
0
 62
7
  6
CONTINUOUS
 10
139.6481799705
 20
181.4700533801
 40
0.5
 50
291.25
 51
11.0725579475
  0
ARC
  8
0
 62
7
  6
CONTINUOUS
 10
137.4960825993
 20
189.5017901122
 40
0.5
 50
18.9274420526
 51
98.75
  0
ARC
  8
0
 62
7
  6
CONTINUOUS
 10
137.616933839
 20
189.1457738405
 40
0.5
 50
298.75
 51
18.5725579474
  0
ARC
  8
0
 62
7
  6
CONTINUOUS
 10
134.4348959466
 20
196.8278928763
 40
0.5
 50
26.4274420526
 51
106.25
  0
ARC
  8
0
 62
7
  6
CONTINUOUS
 10
134.6011827354
 20
196.4906966253
 40
0.5
 50
306.25
 51
26.0725579475
  0
ARC
  8
0
 62
7
  6
CONTINUOUS
 10
128.6904238241
 20
206.7441517778
 40
3.0
 50
217.2246007931
 51
293.75
  0
ARC
  8
0
 62
7
  6
CONTINUOUS
 10
128.3331500215
 20
207.2097600623
 40
3.0
 50
141.25
 51
217.7753992069
  0
ARC
  8
0
 62
7
  6
CONTINUOUS
 10
123.4539909898
 20
212.7733746377
 40
3.0
 50
224.7246007931
 51
301.25
  0
ARC
  8
0
 62
7
  6
CONTINUOUS
 10
123.0389996377
 20
213.1883659898
 40
3.0
 50
148.75
 51
225.2753992069
  0
ARC
  8
0
 62
7
  6
CONTINUOUS
 10
117.4753850623
 20
218.0675250215
 40
3.0
 50
232.2246007931
 51
308.75
  0
ARC
  8
0
 62
7
  6
CONTINUOUS
 10
117.0097767778
 20
218.4247988241
 40
3.0
 50
156.25
 51
232.7753992069
  0
ARC
  8
0
 62
7
  6
CONTINUOUS
 10
132.5451095154
 20
202.4691308099
 40
1.6
 50
154.3201888744
 51
211.899062728
  0
ARC
  8
0
 62
7
  6
CONTINUOUS
 10
127.8337015193
 20
209.0380645124
 40
1.6
 50
161.8201888744
 51
219.399062728
  0
ARC
  8
0
 62
7
  6
CONTINUOUS
 10
122.3051823685
 20
214.9358379306
 40
1.6
 50
169.3201888744
 51
226.899062728
  0
ARC
  8
0
 62
7
  6
CONTINUOUS
 10
116.0541465586
 20
220.0615385263
 40
1.6
 50
176.8201888744
 51
234.399062728
  0
ARC
  8
0
 62
7
  6
CONTINUOUS
 10
125.2014629306
 20
212.0395573685
 40
1.6
 50
223.100937272
 51
280.6798111256
  0
ARC
  8
0
 62
7
  6
CONTINUOUS
 10
130.3271635263
 20
205.7885215586
 40
1.6
 50
215.600937272
 51
273.1798111256
  0
ARC
  8
0
 62
7
  6
CONTINUOUS
 10
119.3036895124
 20
217.5680765193
 40
1.6
 50
230.600937272
 51
288.1798111256
  0
ARC
  8
0
 62
7
  6
CONTINUOUS
 10
112.7347558099
 20
222.2794845154
 40
1.6
 50
238.100937272
 51
295.6798111256
  0
ARC
  8
0
 62
7
  6
CONTINUOUS
 10
130.4436498724
 20
203.6917547782
 40
0.5
 50
33.9274420525
 51
113.75
  0
ARC
  8
0
 62
7
  6
CONTINUOUS
 10
130.6525269974
 20
203.3791480693
 40
0.5
 50
313.75
 51
33.5725579474
  0
ARC
  8
0
 62
7
  6
CONTINUOUS
 10
125.5906357037
 20
209.9759332378
 40
0.5
 50
41.4274420526
 51
121.25
  0
ARC
  8
0
 62
7
  6
CONTINUOUS
 10
125.8385292193
 20
209.6932648584
 40
0.5
 50
321.25
 51
41.0725579474
  0
ARC
  8
0
 62
7
  6
CONTINUOUS
 10
119.9588898584
 20
215.5729042193
 40
0.5
 50
48.9274420526
 51
128.75
  0
ARC
  8
0
 62
7
  6
CONTINUOUS
 10
120.2415582378
 20
215.3250107037
 40
0.5
 50
328.75
 51
48.5725579474
  0
ARC
  8
0
 62
7
  6
CONTINUOUS
 10
113.6447730693
 20
220.3869019974
 40
0.5
 50
56.4274420525
 51
136.25
  0
ARC
  8
0
 62
7
  6
CONTINUOUS
 10
113.9573797782
 20
220.1780248724
 40
0.5
 50
336.25
 51
56.0725579474
  0
ENDSEC
  0
EOF
