  0
SECTION
  2
HEADER
  9
$EXTMAX
 10
210.0
 20
297.0
 30
0.0
  9
$EXTMIN
 10
0.0
 20
0.0
 30
0.0
  9
$LIMMIN
 10
0.0
 20
0.0
  9
$LIMMAX
 10
210.0
 20
297.0
  9
$VIEWCTR
 10
105.0
 20
148.5
  9
$VIEWSIZE
 40
297.0
  9
$CLAYER
  8
0
  9
$LTSCALE
 40
19.36
  9
$CELTYPE
  6
BYLAYER
  9
$DIMSCALE
 40
1.0
  9
$DIMASZ
 40
3.5
  9
$DIMEXO
 40
1.0
  9
$DIMDLI
 40
13.376
  9
$DIMEXE
 40
2.0
  9
$DIMCEN
 40
3.168
  9
$DIMLFAC
 40
1.0
  9
$DIMBLK
  1
_FILLED
  9
$DIMTXT
 40
3.5
  9
$AUNITS
 70
0
  9
$PDMODE
 70
3
  9
$PDSIZE
 40
0.3125
  9
$TILEMODE
 70
1
  0
ENDSEC
  0
SECTION
  2
TABLES
  0
TABLE
  2
LTYPE
 70
6
  0
LTYPE
  2
BYBLOCK
 70
0
  3

 72
65
 73
0
 40
0.0
  0
LTYPE
  2
BYLAYER
 70
0
  3

 72
65
 73
0
 40
0.0
  0
LTYPE
  2
CONTINUOUS
 70
64
  3
Solid line
 72
65
 73
0
 40
0.0
  0
LTYPE
  2
CENTER
 70
64
  3
____ _ ____ _ ____ _ ____ _ ____ _ ____ _ ____
 72
65
 73
4
 40
0.6
 49
0.375
 49
-0.075
 49
0.075
 49
-0.075
  0
LTYPE
  2
HIDDEN
 70
64
  3
- - - - - - - - - - - - - - - - - - - -
 72
65
 73
2
 40
0.2
 49
0.1
 49
-0.1
  0
LTYPE
  2
PHANTOM
 70
64
  3
_____ _ _ _____ _ _ _____ _ _ _____
 72
65
 73
6
 40
0.8
 49
0.45
 49
-0.05
 49
0.1
 49
-0.05
 49
0.1
 49
-0.05
  0
LTYPE
  2
DOT
 70
64
  3
. . . . . . . . . . . . . . . . . . . .
 72
65
 73
2
 40
0.2
 49
0.1
 49
-0.1
  0
LTYPE
  2
DASHED
 70
64
  3
- - - - - - - - - - - - - - - - - - - -
 72
65
 73
2
 40
0.2
 49
0.1
 49
-0.1
  0
ENDTAB
  0
TABLE
  2
LAYER
 70
36
  0
LAYER
  2
0
 70
0
 62
7
  6
CONTINUOUS
  0
LAYER
  2
DEFAULT_1
 70
0
 62
7
  6
CENTER
  0
LAYER
  2
DEFAULT_2
 70
0
 62
8
  6
HIDDEN
  0
LAYER
  2
DEFAULT_3
 70
0
 62
7
  6
PHANTOM
  0
LAYER
  2
CSYS
 70
0
 62
7
  6
CONTINUOUS
  0
LAYER
  2
CURVE
 70
0
 62
7
  6
CONTINUOUS
  0
LAYER
  2
NOTES
 70
0
 62
7
  6
CONTINUOUS
  0
LAYER
  2
SURFACE
 70
0
 62
7
  6
CONTINUOUS
  0
ENDTAB
  0
TABLE
  2
STYLE
 70
1
  0
STYLE
  2
STANDARD
 70
0
 40
0.0
 41
0.8
 50
0.0
 71
0
 42
0.2
  3
txt
  4

  0
STYLE
  2
TEXTSTYLE_1
 70
0
 40
0.0
 41
0.8
 50
0.0
 71
0
 42
0.2
  3
gdt
  4

  0
STYLE
  2
TEXTSTYLE_2
 70
0
 40
0.0
 41
0.6
 50
0.0
 71
0
 42
0.2
  3
txt
  4

  0
STYLE
  2
TEXTSTYLE_3
 70
0
 40
0.0
 41
1.0
 50
0.0
 71
0
 42
0.2
  3
ftb_____.ttf
  4

  0
STYLE
  2
TEXTSTYLE_4
 70
0
 40
0.0
 41
1.0
 50
0.0
 71
0
 42
0.2
  3
fti_____.ttf
  4

  0
STYLE
  2
TEXTSTYLE_5
 70
0
 40
0.0
 41
1.0
 50
0.0
 71
0
 42
0.2
  3
frutiger light.ttf
  4

  0
STYLE
  2
TEXTSTYLE_6
 70
0
 40
0.0
 41
0.7
 50
0.0
 71
0
 42
0.2
  3
txt
  4

  0
STYLE
  2
TEXTSTYLE_7
 70
0
 40
0.0
 41
0.5
 50
0.0
 71
0
 42
0.2
  3
txt
  4

  0
ENDTAB
  0
ENDSEC
  0
SECTION
  2
BLOCKS
  0
BLOCK
  8
0
 62
2
  6
CONTINUOUS
  2
UNI_LOGO2_BL1
 70
64
 10
173.5956734183
 20
35.5937998301
  0
TEXT
  8
0
 62
7
  6
CONTINUOUS
 10
164.6539584268
 20
30.6865562072
  7
TEXTSTYLE_4
 40
1.0655737705
  1
The brand for plastic modular belts and chains
 41
1.0
 72
0
  0
LINE
  8
0
 62
7
  6
CONTINUOUS
 10
149.5737418074
 20
36.1675703219
 11
149.5737418074
 21
34.0364227809
  0
LINE
  8
0
 62
7
  6
CONTINUOUS
 10
149.8628043005
 20
31.0454914852
 11
149.8628043005
 21
31.1422825445
  0
LINE
  8
0
 62
7
  6
CONTINUOUS
 10
149.5737418074
 20
31.1100188581
 11
149.6315543091
 21
30.9164367395
  0
LINE
  8
0
 62
7
  6
CONTINUOUS
 10
150.9671844304
 20
33.9544555678
 11
150.9671844304
 21
36.1675703219
  0
LINE
  8
0
 62
7
  6
CONTINUOUS
 10
151.8862417523
 20
32.1101932727
 11
151.8862417523
 21
30.5937998301
  0
LINE
  8
0
 62
7
  6
CONTINUOUS
 10
152.1753043074
 20
30.5937998301
 11
152.1753043074
 21
31.3358647082
  0
LINE
  8
0
 62
7
  6
CONTINUOUS
 10
152.1753043074
 20
31.4649194539
 11
152.1753043074
 21
32.1101932727
  0
LINE
  8
0
 62
7
  6
CONTINUOUS
 10
149.6315543091
 20
31.3036010218
 11
149.5737418074
 21
31.1100188581
  0
LINE
  8
0
 62
7
  6
CONTINUOUS
 10
149.9784292936
 20
30.8841730531
 11
149.8628043005
 21
31.0454914852
  0
LINE
  8
0
 62
7
  6
CONTINUOUS
 10
151.0768668626
 20
31.400392081
 11
151.1346793074
 21
31.3036010218
  0
LINE
  8
0
 62
7
  6
CONTINUOUS
 10
151.4237418626
 20
31.3036010218
 11
151.3659292523
 21
31.4326557675
  0
LINE
  8
0
 62
7
  6
CONTINUOUS
 10
152.852430332
 20
36.1675703219
 11
152.852430332
 21
34.3642916334
  0
LINE
  8
0
 62
7
  6
CONTINUOUS
 10
152.852430332
 20
33.0528162235
 11
152.852430332
 21
32.3970785186
  0
LINE
  8
0
 62
7
  6
CONTINUOUS
 10
153.2159293074
 20
31.2390736489
 11
153.2159293074
 21
30.5937998301
  0
LINE
  8
0
 62
7
  6
CONTINUOUS
 10
153.5049916972
 20
30.5937998301
 11
153.5049916972
 21
31.2390736489
  0
LINE
  8
0
 62
7
  6
CONTINUOUS
 10
149.8628043005
 20
31.1422825445
 11
149.9206168074
 21
31.2713373354
  0
LINE
  8
0
 62
7
  6
CONTINUOUS
 10
149.6315543091
 20
30.9164367395
 11
149.7471793074
 21
30.7873819712
  0
LINE
  8
0
 62
7
  6
CONTINUOUS
 10
153.1581166972
 20
31.3681283946
 11
153.2159293074
 21
31.2390736489
  0
LINE
  8
0
 62
7
  6
CONTINUOUS
 10
153.9674919177
 20
30.8841730531
 11
154.0253041972
 21
30.7551182848
  0
LINE
  8
0
 62
7
  6
CONTINUOUS
 10
153.5049916972
 20
31.2390736489
 11
153.4471794177
 21
31.400392081
  0
LINE
  8
0
 62
7
  6
CONTINUOUS
 10
153.9674919177
 20
31.4326557675
 11
153.9674919177
 21
31.3681283946
  0
LINE
  8
0
 62
7
  6
CONTINUOUS
 10
153.9674919177
 20
30.9809641124
 11
153.9674919177
 21
30.8841730531
  0
LINE
  8
0
 62
7
  6
CONTINUOUS
 10
154.245872955
 20
32.3970785186
 11
154.245872955
 21
36.1675703219
  0
LINE
  8
0
 62
7
  6
CONTINUOUS
 10
154.2565543074
 20
30.8519093441
 11
154.2565543074
 21
30.9164367395
  0
LINE
  8
0
 62
7
  6
CONTINUOUS
 10
154.5737418074
 20
36.1675703219
 11
154.5737418074
 21
32.3970785186
  0
LINE
  8
0
 62
7
  6
CONTINUOUS
 10
151.3659292523
 20
30.7873819712
 11
151.4237418626
 21
30.9164367395
  0
LINE
  8
0
 62
7
  6
CONTINUOUS
 10
155.759679528
 20
30.6905909007
 11
155.7018665869
 21
30.8519093441
  0
LINE
  8
0
 62
7
  6
CONTINUOUS
 10
155.412804528
 20
31.3681283946
 11
155.412804528
 21
31.2713373354
  0
LINE
  8
0
 62
7
  6
CONTINUOUS
 10
155.412804528
 20
31.1422825445
 11
155.412804528
 21
30.9487004259
  0
LINE
  8
0
 62
7
  6
CONTINUOUS
 10
155.7018665869
 20
30.8519093441
 11
155.7018665869
 21
31.3681283946
  0
LINE
  8
0
 62
7
  6
CONTINUOUS
 10
155.9671844304
 20
32.3970785186
 11
155.9671844304
 21
34.2003572071
  0
LINE
  8
0
 62
7
  6
CONTINUOUS
 10
155.9671844304
 20
35.511832617
 11
155.9671844304
 21
36.1675703219
  0
LINE
  8
0
 62
7
  6
CONTINUOUS
 10
156.279992028
 20
32.1101932727
 11
156.279992028
 21
31.9488748406
  0
LINE
  8
0
 62
7
  6
CONTINUOUS
 10
156.279992028
 20
31.626237886
 11
156.279992028
 21
30.5937998301
  0
LINE
  8
0
 62
7
  6
CONTINUOUS
 10
156.5690540869
 20
30.5937998301
 11
156.5690540869
 21
31.626237886
  0
LINE
  8
0
 62
7
  6
CONTINUOUS
 10
156.5690540869
 20
31.9488748406
 11
156.5690540869
 21
32.1101932727
  0
LINE
  8
0
 62
7
  6
CONTINUOUS
 10
151.1346793074
 20
30.9164367395
 11
151.0768668626
 21
30.8196456577
  0
LINE
  8
0
 62
7
  6
CONTINUOUS
 10
153.4471794177
 20
31.400392081
 11
153.3893668074
 21
31.4649194539
  0
LINE
  8
0
 62
7
  6
CONTINUOUS
 10
154.3143669177
 20
30.7873819712
 11
154.2565543074
 21
30.8519093441
  0
LINE
  8
0
 62
7
  6
CONTINUOUS
 10
155.4706168074
 20
30.6583272086
 11
155.5284290869
 21
30.5937998301
  0
LINE
  8
0
 62
7
  6
CONTINUOUS
 10
155.412804528
 20
30.7551182848
 11
155.4706168074
 21
30.6583272086
  0
LINE
  8
0
 62
7
  6
CONTINUOUS
 10
155.8174918074
 20
30.5937998301
 11
155.759679528
 21
30.6905909007
  0
LINE
  8
0
 62
7
  6
CONTINUOUS
 10
155.7018665869
 20
31.3681283946
 11
155.6440543074
 21
31.4649194539
  0
LINE
  8
0
 62
7
  6
CONTINUOUS
 10
157.0315543074
 20
31.626237886
 11
157.0315543074
 21
30.5937998301
  0
LINE
  8
0
 62
7
  6
CONTINUOUS
 10
157.320617028
 20
30.5937998301
 11
157.320617028
 21
31.3358647082
  0
LINE
  8
0
 62
7
  6
CONTINUOUS
 10
157.320617028
 20
31.4649194539
 11
157.320617028
 21
31.626237886
  0
LINE
  8
0
 62
7
  6
CONTINUOUS
 10
157.852430332
 20
34.6101932727
 11
157.852430332
 21
32.3970785186
  0
LINE
  8
0
 62
7
  6
CONTINUOUS
 10
149.7471793074
 20
31.4326557675
 11
149.6315543091
 21
31.3036010218
  0
LINE
  8
0
 62
7
  6
CONTINUOUS
 10
149.9206168074
 20
31.2713373354
 11
149.9784292936
 21
31.3358647082
  0
LINE
  8
0
 62
7
  6
CONTINUOUS
 10
149.7471793074
 20
30.7873819712
 11
149.8628043005
 21
30.7228545871
  0
LINE
  8
0
 62
7
  6
CONTINUOUS
 10
150.1518667936
 20
30.7873819712
 11
149.9784292936
 21
30.8841730531
  0
LINE
  8
0
 62
7
  6
CONTINUOUS
 10
155.3549915869
 20
31.4326557675
 11
155.412804528
 21
31.3681283946
  0
LINE
  8
0
 62
7
  6
CONTINUOUS
 10
158.3034290869
 20
31.3681283946
 11
158.361242028
 21
31.2068099625
  0
LINE
  8
0
 62
7
  6
CONTINUOUS
 10
158.6503040869
 20
31.2068099625
 11
158.5924918074
 21
31.3681283946
  0
LINE
  8
0
 62
7
  6
CONTINUOUS
 10
158.361242028
 20
31.2068099625
 11
158.361242028
 21
30.5937998301
  0
LINE
  8
0
 62
7
  6
CONTINUOUS
 10
158.6503040869
 20
30.5937998301
 11
158.6503040869
 21
31.2068099625
  0
LINE
  8
0
 62
7
  6
CONTINUOUS
 10
159.1128043074
 20
31.4326557675
 11
159.1128043074
 21
31.3681283946
  0
LINE
  8
0
 62
7
  6
CONTINUOUS
 10
159.245872955
 20
32.3970785186
 11
159.245872955
 21
34.5282260596
  0
LINE
  8
0
 62
7
  6
CONTINUOUS
 10
159.5737418074
 20
36.1675703219
 11
159.5737418074
 21
32.3970785186
  0
LINE
  8
0
 62
7
  6
CONTINUOUS
 10
154.2565543074
 20
30.9164367395
 11
154.3143669177
 21
31.0132277988
  0
LINE
  8
0
 62
7
  6
CONTINUOUS
 10
149.8628043005
 20
30.7228545871
 11
150.0362418212
 21
30.6583272086
  0
LINE
  8
0
 62
7
  6
CONTINUOUS
 10
151.3659292523
 20
31.4326557675
 11
151.1924917523
 21
31.5294468267
  0
LINE
  8
0
 62
7
  6
CONTINUOUS
 10
154.0253041972
 20
30.7551182848
 11
154.1987416972
 21
30.6583272086
  0
LINE
  8
0
 62
7
  6
CONTINUOUS
 10
153.0424918074
 20
31.4326557675
 11
153.1581166972
 21
31.3681283946
  0
LINE
  8
0
 62
7
  6
CONTINUOUS
 10
153.3893668074
 20
31.4649194539
 11
153.2737419177
 21
31.5294468267
  0
LINE
  8
0
 62
7
  6
CONTINUOUS
 10
159.1128043074
 20
30.8519093441
 11
159.228429528
 21
30.7228545871
  0
LINE
  8
0
 62
7
  6
CONTINUOUS
 10
159.4596793074
 20
30.7873819712
 11
159.401867028
 21
30.8519093441
  0
LINE
  8
0
 62
7
  6
CONTINUOUS
 10
159.1128043074
 20
31.3681283946
 11
159.228429528
 21
31.2390736489
  0
LINE
  8
0
 62
7
  6
CONTINUOUS
 10
158.5924918074
 20
31.3681283946
 11
158.534679528
 21
31.4649194539
  0
LINE
  8
0
 62
7
  6
CONTINUOUS
 10
160.9628038663
 20
30.7873819712
 11
160.9628038663
 21
30.8519093441
  0
LINE
  8
0
 62
7
  6
CONTINUOUS
 10
160.9671844304
 20
32.3970785186
 11
160.9671844304
 21
36.1675703219
  0
LINE
  8
0
 62
7
  6
CONTINUOUS
 10
154.0253041972
 20
31.4971831403
 11
153.9674919177
 21
31.4326557675
  0
LINE
  8
0
 62
7
  6
CONTINUOUS
 10
150.9034292799
 20
31.4649194539
 11
151.0768668626
 21
31.400392081
  0
LINE
  8
0
 62
7
  6
CONTINUOUS
 10
155.6440543074
 20
31.4649194539
 11
155.5284290869
 21
31.5294468267
  0
LINE
  8
0
 62
7
  6
CONTINUOUS
 10
159.4596793074
 20
31.3036010218
 11
159.401867028
 21
31.3681283946
  0
LINE
  8
0
 62
7
  6
CONTINUOUS
 10
160.615929528
 20
30.9164367395
 11
160.6737418074
 21
30.8519093441
  0
LINE
  8
0
 62
7
  6
CONTINUOUS
 10
160.9628038663
 20
30.8519093441
 11
160.8471793074
 21
30.9809641124
  0
LINE
  8
0
 62
7
  6
CONTINUOUS
 10
160.615929528
 20
31.4326557675
 11
160.6737418074
 21
31.3681283946
  0
LINE
  8
0
 62
7
  6
CONTINUOUS
 10
160.9628038663
 20
31.3681283946
 11
160.8471793074
 21
31.4971831403
  0
LINE
  8
0
 62
7
  6
CONTINUOUS
 10
154.2565543074
 20
31.3681283946
 11
154.3143669177
 21
31.4326557675
  0
LINE
  8
0
 62
7
  6
CONTINUOUS
 10
154.0831168074
 20
31.1100188581
 11
153.9674919177
 21
30.9809641124
  0
LINE
  8
0
 62
7
  6
CONTINUOUS
 10
155.412804528
 20
30.9487004259
 11
155.3549915869
 21
30.8841730531
  0
LINE
  8
0
 62
7
  6
CONTINUOUS
 10
155.3549915869
 20
30.6905909007
 11
155.412804528
 21
30.7551182848
  0
LINE
  8
0
 62
7
  6
CONTINUOUS
 10
154.1987416972
 20
30.6583272086
 11
154.3143669177
 21
30.6260635193
  0
LINE
  8
0
 62
7
  6
CONTINUOUS
 10
151.1924917523
 20
31.5294468267
 11
150.9612418074
 21
31.5939741996
  0
LINE
  8
0
 62
7
  6
CONTINUOUS
 10
154.5456166972
 20
30.7228545871
 11
154.3143669177
 21
30.7873819712
  0
LINE
  8
0
 62
7
  6
CONTINUOUS
 10
153.2737419177
 20
31.5294468267
 11
153.1003044177
 21
31.5939741996
  0
LINE
  8
0
 62
7
  6
CONTINUOUS
 10
155.5284290869
 20
31.5294468267
 11
155.3549915869
 21
31.5939741996
  0
LINE
  8
0
 62
7
  6
CONTINUOUS
 10
158.187804528
 20
31.4326557675
 11
158.3034290869
 21
31.3681283946
  0
LINE
  8
0
 62
7
  6
CONTINUOUS
 10
158.534679528
 20
31.4649194539
 11
158.4190543074
 21
31.5294468267
  0
LINE
  8
0
 62
7
  6
CONTINUOUS
 10
150.0362418212
 20
30.6583272086
 11
150.2096793212
 21
30.6260635193
  0
LINE
  8
0
 62
7
  6
CONTINUOUS
 10
150.498741835
 20
30.7228545871
 11
150.1518667936
 21
30.7873819712
  0
LINE
  8
0
 62
7
  6
CONTINUOUS
 10
152.9268669177
 20
31.4649194539
 11
153.0424918074
 21
31.4326557675
  0
LINE
  8
0
 62
7
  6
CONTINUOUS
 10
155.239367028
 20
31.4649194539
 11
155.3549915869
 21
31.4326557675
  0
LINE
  8
0
 62
7
  6
CONTINUOUS
 10
159.575304528
 20
30.7551182848
 11
159.4596793074
 21
30.7873819712
  0
LINE
  8
0
 62
7
  6
CONTINUOUS
 10
158.0721793074
 20
31.4649194539
 11
158.187804528
 21
31.4326557675
  0
LINE
  8
0
 62
7
  6
CONTINUOUS
 10
159.228429528
 20
30.7228545871
 11
159.401867028
 21
30.6583272086
  0
LINE
  8
0
 62
7
  6
CONTINUOUS
 10
158.4190543074
 20
31.5294468267
 11
158.2456168074
 21
31.5939741996
  0
LINE
  8
0
 62
7
  6
CONTINUOUS
 10
159.6331168074
 20
31.2390736489
 11
159.4596793074
 21
31.3036010218
  0
LINE
  8
0
 62
7
  6
CONTINUOUS
 10
160.442492028
 20
30.9809641124
 11
160.615929528
 21
30.9164367395
  0
LINE
  8
0
 62
7
  6
CONTINUOUS
 10
160.8471793074
 20
31.4971831403
 11
160.6737418074
 21
31.5617105132
  0
LINE
  8
0
 62
7
  6
CONTINUOUS
 10
159.228429528
 20
31.2390736489
 11
159.4596793074
 21
31.1422825445
  0
LINE
  8
0
 62
7
  6
CONTINUOUS
 10
160.8471793074
 20
30.9809641124
 11
160.615929528
 21
31.0777551716
  0
LINE
  8
0
 62
7
  6
CONTINUOUS
 10
159.401867028
 20
31.3681283946
 11
159.4596793074
 21
31.4326557675
  0
LINE
  8
0
 62
7
  6
CONTINUOUS
 10
149.8628043005
 20
31.4971831403
 11
149.7471793074
 21
31.4326557675
  0
LINE
  8
0
 62
7
  6
CONTINUOUS
 10
149.9784292936
 20
31.3358647082
 11
150.1518667936
 21
31.4326557675
  0
LINE
  8
0
 62
7
  6
CONTINUOUS
 10
152.2909293626
 20
31.5294468267
 11
152.1753043074
 21
31.4649194539
  0
LINE
  8
0
 62
7
  6
CONTINUOUS
 10
152.1753043074
 20
31.3358647082
 11
152.2909293626
 21
31.400392081
  0
LINE
  8
0
 62
7
  6
CONTINUOUS
 10
151.1924917523
 20
30.6905909007
 11
151.3659292523
 21
30.7873819712
  0
LINE
  8
0
 62
7
  6
CONTINUOUS
 10
150.2096793212
 20
30.6260635193
 11
150.5565542799
 21
30.5937998301
  0
LINE
  8
0
 62
7
  6
CONTINUOUS
 10
154.3143669177
 20
30.6260635193
 11
154.5456166972
 21
30.5937998301
  0
LINE
  8
0
 62
7
  6
CONTINUOUS
 10
152.6956168074
 20
31.4971831403
 11
152.9268669177
 21
31.4649194539
  0
LINE
  8
0
 62
7
  6
CONTINUOUS
 10
155.0081169177
 20
31.4971831403
 11
155.239367028
 21
31.4649194539
  0
LINE
  8
0
 62
7
  6
CONTINUOUS
 10
159.4596793074
 20
31.1422825445
 11
160.442492028
 21
30.9809641124
  0
LINE
  8
0
 62
7
  6
CONTINUOUS
 10
160.615929528
 20
31.0777551716
 11
159.6331168074
 21
31.2390736489
  0
LINE
  8
0
 62
7
  6
CONTINUOUS
 10
153.1003044177
 20
31.5939741996
 11
152.9268669177
 21
31.626237886
  0
LINE
  8
0
 62
7
  6
CONTINUOUS
 10
159.401867028
 20
30.6583272086
 11
159.575304528
 21
30.6260635193
  0
LINE
  8
0
 62
7
  6
CONTINUOUS
 10
158.2456168074
 20
31.5939741996
 11
158.0721793074
 21
31.626237886
  0
LINE
  8
0
 62
7
  6
CONTINUOUS
 10
160.5003043074
 20
31.4649194539
 11
160.615929528
 21
31.4326557675
  0
LINE
  8
0
 62
7
  6
CONTINUOUS
 10
160.6737418074
 20
30.8519093441
 11
160.615929528
 21
30.7873819712
  0
LINE
  8
0
 62
7
  6
CONTINUOUS
 10
159.228429528
 20
31.5294468267
 11
159.1128043074
 21
31.4326557675
  0
LINE
  8
0
 62
7
  6
CONTINUOUS
 10
154.1409294177
 20
31.5617105132
 11
154.0253041972
 21
31.4971831403
  0
LINE
  8
0
 62
7
  6
CONTINUOUS
 10
154.1987416972
 20
31.1745462761
 11
154.0831168074
 21
31.1100188581
  0
LINE
  8
0
 62
7
  6
CONTINUOUS
 10
154.3143669177
 20
31.0132277988
 11
154.4299918074
 21
31.0777551716
  0
LINE
  8
0
 62
7
  6
CONTINUOUS
 10
151.8862417523
 20
30.5937998301
 11
152.1753043074
 21
30.5937998301
  0
LINE
  8
0
 62
7
  6
CONTINUOUS
 10
153.2159293074
 20
30.5937998301
 11
153.5049916972
 21
30.5937998301
  0
LINE
  8
0
 62
7
  6
CONTINUOUS
 10
154.5456166972
 20
30.5937998301
 11
154.8924916972
 21
30.5937998301
  0
LINE
  8
0
 62
7
  6
CONTINUOUS
 10
155.5284290869
 20
30.5937998301
 11
155.8174918074
 21
30.5937998301
  0
LINE
  8
0
 62
7
  6
CONTINUOUS
 10
156.279992028
 20
30.5937998301
 11
156.5690540869
 21
30.5937998301
  0
LINE
  8
0
 62
7
  6
CONTINUOUS
 10
157.0315543074
 20
30.5937998301
 11
157.320617028
 21
30.5937998301
  0
LINE
  8
0
 62
7
  6
CONTINUOUS
 10
158.361242028
 20
30.5937998301
 11
158.6503040869
 21
30.5937998301
  0
LINE
  8
0
 62
7
  6
CONTINUOUS
 10
159.922179528
 20
30.5937998301
 11
160.269054528
 21
30.5937998301
  0
LINE
  8
0
 62
7
  6
CONTINUOUS
 10
160.269054528
 20
30.7228545871
 11
159.922179528
 21
30.7228545871
  0
LINE
  8
0
 62
7
  6
CONTINUOUS
 10
154.8924916972
 20
30.7228545871
 11
154.5456166972
 21
30.7228545871
  0
LINE
  8
0
 62
7
  6
CONTINUOUS
 10
159.401867028
 20
30.8519093441
 11
159.1128043074
 21
30.8519093441
  0
LINE
  8
0
 62
7
  6
CONTINUOUS
 10
151.4237418626
 20
30.9164367395
 11
151.1346793074
 21
30.9164367395
  0
LINE
  8
0
 62
7
  6
CONTINUOUS
 10
150.498741835
 20
31.4971831403
 11
150.9034292799
 21
31.4649194539
  0
LINE
  8
0
 62
7
  6
CONTINUOUS
 10
150.9612418074
 20
31.5939741996
 11
150.5565542799
 21
31.626237886
  0
LINE
  8
0
 62
7
  6
CONTINUOUS
 10
159.575304528
 20
30.6260635193
 11
159.922179528
 21
30.5937998301
  0
LINE
  8
0
 62
7
  6
CONTINUOUS
 10
159.922179528
 20
30.7228545871
 11
159.575304528
 21
30.7551182848
  0
LINE
  8
0
 62
7
  6
CONTINUOUS
 10
155.3549915869
 20
31.5939741996
 11
155.0081169177
 21
31.626237886
  0
LINE
  8
0
 62
7
  6
CONTINUOUS
 10
160.1534293074
 20
31.4971831403
 11
160.5003043074
 21
31.4649194539
  0
LINE
  8
0
 62
7
  6
CONTINUOUS
 10
160.5003043074
 20
31.5939741996
 11
160.1534293074
 21
31.626237886
  0
LINE
  8
0
 62
7
  6
CONTINUOUS
 10
157.840929528
 20
31.4971831403
 11
158.0721793074
 21
31.4649194539
  0
LINE
  8
0
 62
7
  6
CONTINUOUS
 10
160.6737418074
 20
31.5617105132
 11
160.5003043074
 21
31.5939741996
  0
LINE
  8
0
 62
7
  6
CONTINUOUS
 10
160.8471793074
 20
30.6905909007
 11
160.9628038663
 21
30.7873819712
  0
LINE
  8
0
 62
7
  6
CONTINUOUS
 10
155.3549915869
 20
30.8841730531
 11
155.1815540869
 21
30.7873819712
  0
LINE
  8
0
 62
7
  6
CONTINUOUS
 10
157.4362415869
 20
31.5294468267
 11
157.320617028
 21
31.4649194539
  0
LINE
  8
0
 62
7
  6
CONTINUOUS
 10
157.320617028
 20
31.3358647082
 11
157.4362415869
 21
31.400392081
  0
LINE
  8
0
 62
7
  6
CONTINUOUS
 10
150.0362418212
 20
31.5617105132
 11
149.8628043005
 21
31.4971831403
  0
LINE
  8
0
 62
7
  6
CONTINUOUS
 10
152.4643666972
 20
31.5939741996
 11
152.2909293626
 21
31.5294468267
  0
LINE
  8
0
 62
7
  6
CONTINUOUS
 10
152.2909293626
 20
31.400392081
 11
152.4643666972
 21
31.4649194539
  0
LINE
  8
0
 62
7
  6
CONTINUOUS
 10
151.0768668626
 20
30.8196456577
 11
150.9034292799
 21
30.7551182848
  0
LINE
  8
0
 62
7
  6
CONTINUOUS
 10
160.5003043074
 20
30.7551182848
 11
160.269054528
 21
30.7228545871
  0
LINE
  8
0
 62
7
  6
CONTINUOUS
 10
154.8924916972
 20
30.5937998301
 11
155.1815540869
 21
30.6260635193
  0
LINE
  8
0
 62
7
  6
CONTINUOUS
 10
160.269054528
 20
30.5937998301
 11
160.615929528
 21
30.6260635193
  0
LINE
  8
0
 62
7
  6
CONTINUOUS
 10
150.5565542799
 20
30.5937998301
 11
150.9612418074
 21
30.6260635193
  0
LINE
  8
0
 62
7
  6
CONTINUOUS
 10
150.9034292799
 20
30.7551182848
 11
150.498741835
 21
30.7228545871
  0
LINE
  8
0
 62
7
  6
CONTINUOUS
 10
154.7768668074
 20
31.1422825445
 11
155.412804528
 21
31.1422825445
  0
LINE
  8
0
 62
7
  6
CONTINUOUS
 10
155.412804528
 20
31.2713373354
 11
154.7768668074
 21
31.2713373354
  0
LINE
  8
0
 62
7
  6
CONTINUOUS
 10
151.1346793074
 20
31.3036010218
 11
151.4237418626
 21
31.3036010218
  0
LINE
  8
0
 62
7
  6
CONTINUOUS
 10
153.9674919177
 20
31.3681283946
 11
154.2565543074
 21
31.3681283946
  0
LINE
  8
0
 62
7
  6
CONTINUOUS
 10
160.6737418074
 20
31.3681283946
 11
160.9628038663
 21
31.3681283946
  0
LINE
  8
0
 62
7
  6
CONTINUOUS
 10
154.6612419177
 20
31.4971831403
 11
155.0081169177
 21
31.4971831403
  0
LINE
  8
0
 62
7
  6
CONTINUOUS
 10
159.8065543074
 20
31.4971831403
 11
160.1534293074
 21
31.4971831403
  0
LINE
  8
0
 62
7
  6
CONTINUOUS
 10
160.1534293074
 20
31.626237886
 11
159.8065543074
 21
31.626237886
  0
LINE
  8
0
 62
7
  6
CONTINUOUS
 10
158.0721793074
 20
31.626237886
 11
157.840929528
 21
31.626237886
  0
LINE
  8
0
 62
7
  6
CONTINUOUS
 10
157.320617028
 20
31.626237886
 11
157.0315543074
 21
31.626237886
  0
LINE
  8
0
 62
7
  6
CONTINUOUS
 10
156.5690540869
 20
31.626237886
 11
156.279992028
 21
31.626237886
  0
LINE
  8
0
 62
7
  6
CONTINUOUS
 10
155.0081169177
 20
31.626237886
 11
154.6612419177
 21
31.626237886
  0
LINE
  8
0
 62
7
  6
CONTINUOUS
 10
152.9268669177
 20
31.626237886
 11
152.6956168074
 21
31.626237886
  0
LINE
  8
0
 62
7
  6
CONTINUOUS
 10
156.279992028
 20
31.9488748406
 11
156.5690540869
 21
31.9488748406
  0
LINE
  8
0
 62
7
  6
CONTINUOUS
 10
156.5690540869
 20
32.1101932727
 11
156.279992028
 21
32.1101932727
  0
LINE
  8
0
 62
7
  6
CONTINUOUS
 10
152.1753043074
 20
32.1101932727
 11
151.8862417523
 21
32.1101932727
  0
LINE
  8
0
 62
7
  6
CONTINUOUS
 10
151.2130860697
 20
32.3970785186
 11
151.6256574183
 21
32.3970785186
  0
LINE
  8
0
 62
7
  6
CONTINUOUS
 10
152.852430332
 20
32.3970785186
 11
154.245872955
 21
32.3970785186
  0
LINE
  8
0
 62
7
  6
CONTINUOUS
 10
154.5737418074
 20
32.3970785186
 11
155.9671844304
 21
32.3970785186
  0
LINE
  8
0
 62
7
  6
CONTINUOUS
 10
157.852430332
 20
32.3970785186
 11
159.245872955
 21
32.3970785186
  0
LINE
  8
0
 62
7
  6
CONTINUOUS
 10
159.5737418074
 20
32.3970785186
 11
160.9671844304
 21
32.3970785186
  0
LINE
  8
0
 62
7
  6
CONTINUOUS
 10
157.6096790869
 20
31.5939741996
 11
157.4362415869
 21
31.5294468267
  0
LINE
  8
0
 62
7
  6
CONTINUOUS
 10
155.1815540869
 20
30.6260635193
 11
155.3549915869
 21
30.6905909007
  0
LINE
  8
0
 62
7
  6
CONTINUOUS
 10
160.615929528
 20
30.6260635193
 11
160.8471793074
 21
30.6905909007
  0
LINE
  8
0
 62
7
  6
CONTINUOUS
 10
160.615929528
 20
30.7873819712
 11
160.5003043074
 21
30.7551182848
  0
LINE
  8
0
 62
7
  6
CONTINUOUS
 10
159.575304528
 20
31.4649194539
 11
159.8065543074
 21
31.4971831403
  0
LINE
  8
0
 62
7
  6
CONTINUOUS
 10
157.6096790869
 20
31.4649194539
 11
157.840929528
 21
31.4971831403
  0
LINE
  8
0
 62
7
  6
CONTINUOUS
 10
154.5456166972
 20
31.1100188581
 11
154.7768668074
 21
31.1422825445
  0
LINE
  8
0
 62
7
  6
CONTINUOUS
 10
157.840929528
 20
31.626237886
 11
157.6096790869
 21
31.5939741996
  0
LINE
  8
0
 62
7
  6
CONTINUOUS
 10
154.4299918074
 20
31.4649194539
 11
154.6612419177
 21
31.4971831403
  0
LINE
  8
0
 62
7
  6
CONTINUOUS
 10
159.8065543074
 20
31.626237886
 11
159.4596793074
 21
31.5939741996
  0
LINE
  8
0
 62
7
  6
CONTINUOUS
 10
154.7768668074
 20
31.2713373354
 11
154.4299918074
 21
31.2390736489
  0
LINE
  8
0
 62
7
  6
CONTINUOUS
 10
150.5565542799
 20
31.626237886
 11
150.2096793212
 21
31.5939741996
  0
LINE
  8
0
 62
7
  6
CONTINUOUS
 10
154.6612419177
 20
31.626237886
 11
154.2565543074
 21
31.5939741996
  0
LINE
  8
0
 62
7
  6
CONTINUOUS
 10
152.0327582009
 20
33.5446195022
 11
151.3770204959
 21
33.5446195022
  0
LINE
  8
0
 62
7
  6
CONTINUOUS
 10
157.4362415869
 20
31.400392081
 11
157.6096790869
 21
31.4649194539
  0
LINE
  8
0
 62
7
  6
CONTINUOUS
 10
159.4596793074
 20
31.4326557675
 11
159.575304528
 21
31.4649194539
  0
LINE
  8
0
 62
7
  6
CONTINUOUS
 10
159.4596793074
 20
31.5939741996
 11
159.228429528
 21
31.5294468267
  0
LINE
  8
0
 62
7
  6
CONTINUOUS
 10
155.1815540869
 20
30.7873819712
 11
154.8924916972
 21
30.7228545871
  0
LINE
  8
0
 62
7
  6
CONTINUOUS
 10
152.4643666972
 20
31.4649194539
 11
152.6956168074
 21
31.4971831403
  0
LINE
  8
0
 62
7
  6
CONTINUOUS
 10
152.6956168074
 20
31.626237886
 11
152.4643666972
 21
31.5939741996
  0
LINE
  8
0
 62
7
  6
CONTINUOUS
 10
150.2674918074
 20
31.4649194539
 11
150.498741835
 21
31.4971831403
  0
LINE
  8
0
 62
7
  6
CONTINUOUS
 10
156.7868565615
 20
35.0200293383
 11
157.4425942664
 21
35.0200293383
  0
LINE
  8
0
 62
7
  6
CONTINUOUS
 10
154.4299918074
 20
31.0777551716
 11
154.5456166972
 21
31.1100188581
  0
LINE
  8
0
 62
7
  6
CONTINUOUS
 10
154.4299918074
 20
31.2390736489
 11
154.1987416972
 21
31.1745462761
  0
LINE
  8
0
 62
7
  6
CONTINUOUS
 10
154.3143669177
 20
31.4326557675
 11
154.4299918074
 21
31.4649194539
  0
LINE
  8
0
 62
7
  6
CONTINUOUS
 10
150.9612418074
 20
30.6260635193
 11
151.1924917523
 21
30.6905909007
  0
LINE
  8
0
 62
7
  6
CONTINUOUS
 10
154.2565543074
 20
31.5939741996
 11
154.1409294177
 21
31.5617105132
  0
LINE
  8
0
 62
7
  6
CONTINUOUS
 10
150.2096793212
 20
31.5939741996
 11
150.0362418212
 21
31.5617105132
  0
LINE
  8
0
 62
7
  6
CONTINUOUS
 10
160.9671844304
 20
36.1675703219
 11
159.5737418074
 21
36.1675703219
  0
LINE
  8
0
 62
7
  6
CONTINUOUS
 10
157.6065286927
 20
36.1675703219
 11
157.1939573441
 21
36.1675703219
  0
LINE
  8
0
 62
7
  6
CONTINUOUS
 10
155.9671844304
 20
36.1675703219
 11
154.5737418074
 21
36.1675703219
  0
LINE
  8
0
 62
7
  6
CONTINUOUS
 10
154.245872955
 20
36.1675703219
 11
152.852430332
 21
36.1675703219
  0
LINE
  8
0
 62
7
  6
CONTINUOUS
 10
150.9671844304
 20
36.1675703219
 11
149.5737418074
 21
36.1675703219
  0
LINE
  8
0
 62
7
  6
CONTINUOUS
 10
150.1518667936
 20
31.4326557675
 11
150.2674918074
 21
31.4649194539
  0
CIRCLE
  8
0
 62
7
  6
CONTINUOUS
 10
160.2704631189
 20
38.5036358957
 40
2.0901639344
  0
ARC
  8
0
 62
7
  6
CONTINUOUS
 10
151.2130860697
 20
34.0364227809
 40
1.6393442623
 50
180.0
 51
270.0
  0
ARC
  8
0
 62
7
  6
CONTINUOUS
 10
157.6065286927
 20
34.5282260596
 40
1.6393442623
 50
0.0
 51
90.0
  0
ARC
  8
0
 62
7
  6
CONTINUOUS
 10
151.6256574183
 20
33.8724883547
 40
1.4754098361
 50
270.0
 51
326.2510114041
  0
ARC
  8
0
 62
7
  6
CONTINUOUS
 10
157.1939573441
 20
34.6921604858
 40
1.4754098361
 50
90.0
 51
146.2510114041
  0
ARC
  8
0
 62
7
  6
CONTINUOUS
 10
152.0327582009
 20
34.3642916334
 40
0.8196721311
 50
270.0
 51
360.0
  0
ARC
  8
0
 62
7
  6
CONTINUOUS
 10
156.7868565615
 20
34.2003572071
 40
0.8196721311
 50
90.0
 51
180.0
  0
ARC
  8
0
 62
7
  6
CONTINUOUS
 10
151.3770204959
 20
33.9544555678
 40
0.4098360656
 50
180.0
 51
270.0
  0
ARC
  8
0
 62
7
  6
CONTINUOUS
 10
157.4425942664
 20
34.6101932727
 40
0.4098360656
 50
0.0
 51
90.0
  0
SOLID
  8
0
 62
7
  6
CONTINUOUS
 10
156.279992028
 20
31.9488752009
 11
156.279992028
 21
32.1101936845
 12
156.5690540869
 22
31.9488752009
 13
156.5690540869
 23
32.1101936845
  0
SOLID
  8
0
 62
7
  6
CONTINUOUS
 10
150.5565542799
 20
31.6262382337
 11
150.9612418074
 21
31.5939740028
 12
150.2096793212
 22
31.5939740028
 13
150.2096793212
 23
31.5939740028
  0
SOLID
  8
0
 62
7
  6
CONTINUOUS
 10
150.0362418212
 20
31.5617111435
 11
150.2096793212
 21
31.5939740028
 12
150.9612418074
 22
31.5939740028
 13
150.9612418074
 23
31.5939740028
  0
SOLID
  8
0
 62
7
  6
CONTINUOUS
 10
150.9612418074
 20
31.5939740028
 11
151.1924917523
 21
31.5294468402
 12
150.0362418212
 22
31.5617111435
 13
150.0362418212
 23
31.5617111435
  0
SOLID
  8
0
 62
7
  6
CONTINUOUS
 10
149.8628043005
 20
31.49718259
 11
150.0362418212
 21
31.5617111435
 12
151.1924917523
 22
31.5294468402
 13
151.1924917523
 23
31.5294468402
  0
SOLID
  8
0
 62
7
  6
CONTINUOUS
 10
149.8628043005
 20
31.49718259
 11
151.1924917523
 21
31.5294468402
 12
150.498741835
 22
31.49718259
 13
150.498741835
 23
31.49718259
  0
SOLID
  8
0
 62
7
  6
CONTINUOUS
 10
150.498741835
 20
31.49718259
 11
151.1924917523
 21
31.5294468402
 12
150.9034292799
 22
31.4649197501
 13
150.9034292799
 23
31.4649197501
  0
SOLID
  8
0
 62
7
  6
CONTINUOUS
 10
151.1924917523
 20
31.5294468402
 11
151.3659292523
 21
31.4326554468
 12
150.9034292799
 22
31.4649197501
 13
150.9034292799
 23
31.4649197501
  0
SOLID
  8
0
 62
7
  6
CONTINUOUS
 10
151.0768668626
 20
31.4003926599
 11
150.9034292799
 21
31.4649197501
 12
151.3659292523
 22
31.4326554468
 13
151.3659292523
 23
31.4326554468
  0
SOLID
  8
0
 62
7
  6
CONTINUOUS
 10
151.0768668626
 20
31.4003926599
 11
151.3659292523
 21
31.4326554468
 12
151.1346793074
 22
31.3036013776
 13
151.1346793074
 23
31.3036013776
  0
SOLID
  8
0
 62
7
  6
CONTINUOUS
 10
151.3659292523
 20
31.4326554468
 11
151.4237418626
 21
31.3036013776
 12
151.1346793074
 22
31.3036013776
 13
151.1346793074
 23
31.3036013776
  0
SOLID
  8
0
 62
7
  6
CONTINUOUS
 10
152.4643666972
 20
31.5939739754
 11
152.6956168074
 21
31.6262382787
 12
152.9268669177
 22
31.6262382787
 13
152.9268669177
 23
31.6262382787
  0
SOLID
  8
0
 62
7
  6
CONTINUOUS
 10
152.9268669177
 20
31.6262382787
 11
153.1003044177
 21
31.5939739754
 12
152.4643666972
 22
31.5939739754
 13
152.4643666972
 23
31.5939739754
  0
SOLID
  8
0
 62
7
  6
CONTINUOUS
 10
152.2909293626
 20
31.5294468852
 11
152.4643666972
 21
31.5939739754
 12
153.1003044177
 22
31.5939739754
 13
153.1003044177
 23
31.5939739754
  0
SOLID
  8
0
 62
7
  6
CONTINUOUS
 10
153.1003044177
 20
31.5939739754
 11
153.2737419177
 21
31.5294468852
 12
152.2909293626
 22
31.5294468852
 13
152.2909293626
 23
31.5294468852
  0
SOLID
  8
0
 62
7
  6
CONTINUOUS
 10
153.2737419177
 20
31.5294468852
 11
152.6956168074
 21
31.4971825369
 12
152.2909293626
 22
31.5294468852
 13
152.2909293626
 23
31.5294468852
  0
SOLID
  8
0
 62
7
  6
CONTINUOUS
 10
152.1753043074
 20
31.4649197951
 11
152.2909293626
 21
31.5294468852
 12
152.6956168074
 22
31.4971825369
 13
152.6956168074
 23
31.4971825369
  0
SOLID
  8
0
 62
7
  6
CONTINUOUS
 10
152.6956168074
 20
31.4971825369
 11
152.4643666972
 21
31.4649197951
 12
152.1753043074
 22
31.4649197951
 13
152.1753043074
 23
31.4649197951
  0
SOLID
  8
0
 62
7
  6
CONTINUOUS
 10
152.6956168074
 20
31.4971825369
 11
153.2737419177
 21
31.5294468852
 12
152.9268669177
 22
31.4649197951
 13
152.9268669177
 23
31.4649197951
  0
SOLID
  8
0
 62
7
  6
CONTINUOUS
 10
153.2737419177
 20
31.5294468852
 11
153.3893668074
 21
31.4649197951
 12
152.9268669177
 22
31.4649197951
 13
152.9268669177
 23
31.4649197951
  0
SOLID
  8
0
 62
7
  6
CONTINUOUS
 10
153.0424918074
 20
31.4326554468
 11
152.9268669177
 21
31.4649197951
 12
153.3893668074
 22
31.4649197951
 13
153.3893668074
 23
31.4649197951
  0
SOLID
  8
0
 62
7
  6
CONTINUOUS
 10
153.3893668074
 20
31.4649197951
 11
153.4471794177
 21
31.4003927049
 12
153.0424918074
 22
31.4326554468
 13
153.0424918074
 23
31.4326554468
  0
SOLID
  8
0
 62
7
  6
CONTINUOUS
 10
153.1581166972
 20
31.3681283566
 11
153.0424918074
 21
31.4326554468
 12
153.4471794177
 22
31.4003927049
 13
153.4471794177
 23
31.4003927049
  0
SOLID
  8
0
 62
7
  6
CONTINUOUS
 10
153.1581166972
 20
31.3681283566
 11
153.4471794177
 21
31.4003927049
 12
153.2159293074
 22
31.2390742213
 13
153.2159293074
 23
31.2390742213
  0
SOLID
  8
0
 62
7
  6
CONTINUOUS
 10
153.4471794177
 20
31.4003927049
 11
153.5049916972
 21
31.2390742213
 12
153.2159293074
 22
31.2390742213
 13
153.2159293074
 23
31.2390742213
  0
SOLID
  8
0
 62
7
  6
CONTINUOUS
 10
152.4643666972
 20
31.4649197951
 11
152.2909293626
 21
31.4003927049
 12
152.1753043074
 22
31.4649197951
 13
152.1753043074
 23
31.4649197951
  0
SOLID
  8
0
 62
7
  6
CONTINUOUS
 10
152.2909293626
 20
31.4003927049
 11
152.1753043074
 21
31.3358640533
 12
152.1753043074
 22
31.4649197951
 13
152.1753043074
 23
31.4649197951
  0
SOLID
  8
0
 62
7
  6
CONTINUOUS
 10
152.1753043074
 20
31.3358640533
 11
151.8862417523
 21
30.5938002869
 12
152.1753043074
 22
31.4649197951
 13
152.1753043074
 23
31.4649197951
  0
SOLID
  8
0
 62
7
  6
CONTINUOUS
 10
152.1753043074
 20
31.4649197951
 11
151.8862417523
 21
30.5938002869
 12
152.1753043074
 22
32.1101937295
 13
152.1753043074
 23
32.1101937295
  0
SOLID
  8
0
 62
7
  6
CONTINUOUS
 10
151.8862417523
 20
30.5938002869
 11
151.8862417523
 21
32.1101937295
 12
152.1753043074
 22
32.1101937295
 13
152.1753043074
 23
32.1101937295
  0
SOLID
  8
0
 62
7
  6
CONTINUOUS
 10
152.1753043074
 20
31.3358640533
 11
152.1753043074
 21
30.5938002869
 12
151.8862417523
 22
30.5938002869
 13
151.8862417523
 23
30.5938002869
  0
SOLID
  8
0
 62
7
  6
CONTINUOUS
 10
153.2159293074
 20
30.5938002869
 11
153.2159293074
 21
31.2390742213
 12
153.5049916972
 22
31.2390742213
 13
153.5049916972
 23
31.2390742213
  0
SOLID
  8
0
 62
7
  6
CONTINUOUS
 10
153.5049916972
 20
31.2390742213
 11
153.5049916972
 21
30.5938002869
 12
153.2159293074
 22
30.5938002869
 13
153.2159293074
 23
30.5938002869
  0
SOLID
  8
0
 62
7
  6
CONTINUOUS
 10
154.2565543074
 20
31.5939738288
 11
154.6612419177
 21
31.6262385959
 12
155.0081169177
 22
31.6262385959
 13
155.0081169177
 23
31.6262385959
  0
SOLID
  8
0
 62
7
  6
CONTINUOUS
 10
155.0081169177
 20
31.6262385959
 11
155.3549915869
 21
31.5939738288
 12
154.2565543074
 22
31.5939738288
 13
154.2565543074
 23
31.5939738288
  0
SOLID
  8
0
 62
7
  6
CONTINUOUS
 10
154.1409294177
 20
31.5617111435
 11
154.2565543074
 21
31.5939738288
 12
155.3549915869
 22
31.5939738288
 13
155.3549915869
 23
31.5939738288
  0
SOLID
  8
0
 62
7
  6
CONTINUOUS
 10
155.3549915869
 20
31.5939738288
 11
155.5284290869
 21
31.5294468402
 12
154.1409294177
 22
31.5617111435
 13
154.1409294177
 23
31.5617111435
  0
SOLID
  8
0
 62
7
  6
CONTINUOUS
 10
154.0253041972
 20
31.4971826249
 11
154.1409294177
 21
31.5617111435
 12
155.5284290869
 22
31.5294468402
 13
155.5284290869
 23
31.5294468402
  0
SOLID
  8
0
 62
7
  6
CONTINUOUS
 10
154.0253041972
 20
31.4971826249
 11
155.5284290869
 21
31.5294468402
 12
154.6612419177
 22
31.4971826249
 13
154.6612419177
 23
31.4971826249
  0
SOLID
  8
0
 62
7
  6
CONTINUOUS
 10
154.6612419177
 20
31.4971826249
 11
155.5284290869
 21
31.5294468402
 12
155.0081169177
 22
31.4971826249
 13
155.0081169177
 23
31.4971826249
  0
SOLID
  8
0
 62
7
  6
CONTINUOUS
 10
155.0081169177
 20
31.4971826249
 11
155.5284290869
 21
31.5294468402
 12
155.239367028
 22
31.4649194065
 13
155.239367028
 23
31.4649194065
  0
SOLID
  8
0
 62
7
  6
CONTINUOUS
 10
155.5284290869
 20
31.5294468402
 11
155.6440543074
 21
31.4649194065
 12
155.239367028
 22
31.4649194065
 13
155.239367028
 23
31.4649194065
  0
SOLID
  8
0
 62
7
  6
CONTINUOUS
 10
153.9674919177
 20
31.4326554138
 11
154.0253041972
 21
31.4971826249
 12
154.6612419177
 22
31.4971826249
 13
154.6612419177
 23
31.4971826249
  0
SOLID
  8
0
 62
7
  6
CONTINUOUS
 10
155.3549915869
 20
31.4326554138
 11
155.239367028
 21
31.4649194065
 12
155.6440543074
 22
31.4649194065
 13
155.6440543074
 23
31.4649194065
  0
SOLID
  8
0
 62
7
  6
CONTINUOUS
 10
155.3549915869
 20
31.4326554138
 11
155.6440543074
 21
31.4649194065
 12
155.412804528
 22
31.3681282026
 13
155.412804528
 23
31.3681282026
  0
SOLID
  8
0
 62
7
  6
CONTINUOUS
 10
155.6440543074
 20
31.4649194065
 11
155.7018665869
 21
31.3681282026
 12
155.412804528
 22
31.3681282026
 13
155.412804528
 23
31.3681282026
  0
SOLID
  8
0
 62
7
  6
CONTINUOUS
 10
155.412804528
 20
31.2713369632
 11
155.412804528
 21
31.3681282026
 12
155.7018665869
 22
31.3681282026
 13
155.7018665869
 23
31.3681282026
  0
SOLID
  8
0
 62
7
  6
CONTINUOUS
 10
155.412804528
 20
31.2713369632
 11
155.7018665869
 21
31.3681282026
 12
155.412804528
 22
31.1422827828
 13
155.412804528
 23
31.1422827828
  0
SOLID
  8
0
 62
7
  6
CONTINUOUS
 10
155.412804528
 20
31.1422827828
 11
155.7018665869
 21
31.3681282026
 12
155.412804528
 22
30.9487004259
 13
155.412804528
 23
30.9487004259
  0
SOLID
  8
0
 62
7
  6
CONTINUOUS
 10
155.7018665869
 20
31.3681282026
 11
155.7018665869
 21
30.8519086025
 12
155.412804528
 22
30.9487004259
 13
155.412804528
 23
30.9487004259
  0
SOLID
  8
0
 62
7
  6
CONTINUOUS
 10
157.6096790869
 20
31.5939736268
 11
157.840929528
 21
31.6262383465
 12
158.0721793074
 22
31.6262383465
 13
158.0721793074
 23
31.6262383465
  0
SOLID
  8
0
 62
7
  6
CONTINUOUS
 10
158.0721793074
 20
31.6262383465
 11
158.2456168074
 21
31.5939736268
 12
157.6096790869
 22
31.5939736268
 13
157.6096790869
 23
31.5939736268
  0
SOLID
  8
0
 62
7
  6
CONTINUOUS
 10
157.4362415869
 20
31.5294472848
 11
157.6096790869
 21
31.5939736268
 12
158.2456168074
 22
31.5939736268
 13
158.2456168074
 23
31.5939736268
  0
SOLID
  8
0
 62
7
  6
CONTINUOUS
 10
158.2456168074
 20
31.5939736268
 11
158.4190543074
 21
31.5294472848
 12
157.4362415869
 22
31.5294472848
 13
157.4362415869
 23
31.5294472848
  0
SOLID
  8
0
 62
7
  6
CONTINUOUS
 10
158.4190543074
 20
31.5294472848
 11
157.840929528
 21
31.4971825369
 12
157.4362415869
 22
31.5294472848
 13
157.4362415869
 23
31.5294472848
  0
SOLID
  8
0
 62
7
  6
CONTINUOUS
 10
157.320617028
 20
31.4649199103
 11
157.4362415869
 21
31.5294472848
 12
157.840929528
 22
31.4971825369
 13
157.840929528
 23
31.4971825369
  0
SOLID
  8
0
 62
7
  6
CONTINUOUS
 10
157.840929528
 20
31.4971825369
 11
157.6096790869
 21
31.4649199103
 12
157.320617028
 22
31.4649199103
 13
157.320617028
 23
31.4649199103
  0
SOLID
  8
0
 62
7
  6
CONTINUOUS
 10
157.840929528
 20
31.4971825369
 11
158.4190543074
 21
31.5294472848
 12
158.0721793074
 22
31.4649199103
 13
158.0721793074
 23
31.4649199103
  0
SOLID
  8
0
 62
7
  6
CONTINUOUS
 10
158.4190543074
 20
31.5294472848
 11
158.534679528
 21
31.4649199103
 12
158.0721793074
 22
31.4649199103
 13
158.0721793074
 23
31.4649199103
  0
SOLID
  8
0
 62
7
  6
CONTINUOUS
 10
158.187804528
 20
31.4326554468
 11
158.0721793074
 21
31.4649199103
 12
158.534679528
 22
31.4649199103
 13
158.534679528
 23
31.4649199103
  0
SOLID
  8
0
 62
7
  6
CONTINUOUS
 10
158.187804528
 20
31.4326554468
 11
158.534679528
 21
31.4649199103
 12
158.3034290869
 22
31.3681288486
 13
158.3034290869
 23
31.3681288486
  0
SOLID
  8
0
 62
7
  6
CONTINUOUS
 10
158.534679528
 20
31.4649199103
 11
158.5924918074
 21
31.3681288486
 12
158.3034290869
 22
31.3681288486
 13
158.3034290869
 23
31.3681288486
  0
SOLID
  8
0
 62
7
  6
CONTINUOUS
 10
158.361242028
 20
31.2068093799
 11
158.3034290869
 21
31.3681288486
 12
158.5924918074
 22
31.3681288486
 13
158.5924918074
 23
31.3681288486
  0
SOLID
  8
0
 62
7
  6
CONTINUOUS
 10
158.5924918074
 20
31.3681288486
 11
158.6503040869
 21
31.2068093799
 12
158.361242028
 22
31.2068093799
 13
158.361242028
 23
31.2068093799
  0
SOLID
  8
0
 62
7
  6
CONTINUOUS
 10
157.6096790869
 20
31.4649199103
 11
157.4362415869
 21
31.4003926599
 12
157.320617028
 22
31.4649199103
 13
157.320617028
 23
31.4649199103
  0
SOLID
  8
0
 62
7
  6
CONTINUOUS
 10
157.4362415869
 20
31.4003926599
 11
157.320617028
 21
31.3358640533
 12
157.320617028
 22
31.4649199103
 13
157.320617028
 23
31.4649199103
  0
SOLID
  8
0
 62
7
  6
CONTINUOUS
 10
157.320617028
 20
31.3358640533
 11
157.0315543074
 21
30.5938003547
 12
157.320617028
 22
31.4649199103
 13
157.320617028
 23
31.4649199103
  0
SOLID
  8
0
 62
7
  6
CONTINUOUS
 10
157.320617028
 20
31.4649199103
 11
157.0315543074
 21
30.5938003547
 12
157.320617028
 22
31.6262383465
 13
157.320617028
 23
31.6262383465
  0
SOLID
  8
0
 62
7
  6
CONTINUOUS
 10
157.0315543074
 20
30.5938003547
 11
157.0315543074
 21
31.6262383465
 12
157.320617028
 22
31.6262383465
 13
157.320617028
 23
31.6262383465
  0
SOLID
  8
0
 62
7
  6
CONTINUOUS
 10
157.320617028
 20
31.3358640533
 11
157.320617028
 21
30.5938003547
 12
157.0315543074
 22
30.5938003547
 13
157.0315543074
 23
30.5938003547
  0
SOLID
  8
0
 62
7
  6
CONTINUOUS
 10
158.361242028
 20
30.5938003547
 11
158.361242028
 21
31.2068093799
 12
158.6503040869
 22
31.2068093799
 13
158.6503040869
 23
31.2068093799
  0
SOLID
  8
0
 62
7
  6
CONTINUOUS
 10
158.6503040869
 20
31.2068093799
 11
158.6503040869
 21
30.5938003547
 12
158.361242028
 22
30.5938003547
 13
158.361242028
 23
30.5938003547
  0
SOLID
  8
0
 62
7
  6
CONTINUOUS
 10
159.4596793074
 20
31.5939739474
 11
159.8065543074
 21
31.6262381969
 12
160.1534293074
 22
31.6262381969
 13
160.1534293074
 23
31.6262381969
  0
SOLID
  8
0
 62
7
  6
CONTINUOUS
 10
160.1534293074
 20
31.6262381969
 11
160.5003043074
 21
31.5939739474
 12
159.4596793074
 22
31.5939739474
 13
159.4596793074
 23
31.5939739474
  0
SOLID
  8
0
 62
7
  6
CONTINUOUS
 10
159.228429528
 20
31.5294468402
 11
159.4596793074
 21
31.5939739474
 12
160.5003043074
 22
31.5939739474
 13
160.5003043074
 23
31.5939739474
  0
SOLID
  8
0
 62
7
  6
CONTINUOUS
 10
159.228429528
 20
31.5294468402
 11
160.5003043074
 21
31.5939739304
 12
160.6737418074
 22
31.5617111435
 13
160.6737418074
 23
31.5617111435
  0
SOLID
  8
0
 62
7
  6
CONTINUOUS
 10
159.228429528
 20
31.5294468402
 11
160.6737418074
 21
31.5617111435
 12
159.8065543074
 22
31.4971825592
 13
159.8065543074
 23
31.4971825592
  0
SOLID
  8
0
 62
7
  6
CONTINUOUS
 10
159.8065543074
 20
31.4971825592
 11
160.6737418074
 21
31.5617111435
 12
160.1534293074
 22
31.4971825592
 13
160.1534293074
 23
31.4971825592
  0
SOLID
  8
0
 62
7
  6
CONTINUOUS
 10
160.6737418074
 20
31.5617111435
 11
160.8471793074
 21
31.4971825592
 12
160.1534293074
 22
31.4971825592
 13
160.1534293074
 23
31.4971825592
  0
SOLID
  8
0
 62
7
  6
CONTINUOUS
 10
160.5003043074
 20
31.4649197501
 11
160.1534293074
 21
31.4971825592
 12
160.8471793074
 22
31.4971825592
 13
160.8471793074
 23
31.4971825592
  0
SOLID
  8
0
 62
7
  6
CONTINUOUS
 10
159.1128043074
 20
31.4326555427
 11
159.228429528
 21
31.5294468402
 12
159.8065543074
 22
31.4971825592
 13
159.8065543074
 23
31.4971825592
  0
SOLID
  8
0
 62
7
  6
CONTINUOUS
 10
160.5003043074
 20
31.4649197501
 11
160.8471793074
 21
31.4971825592
 12
160.615929528
 22
31.4326555427
 13
160.615929528
 23
31.4326555427
  0
SOLID
  8
0
 62
7
  6
CONTINUOUS
 10
160.615929528
 20
31.4326555427
 11
160.8471793074
 21
31.4971825592
 12
160.6737418074
 22
31.3681283005
 13
160.6737418074
 23
31.3681283005
  0
SOLID
  8
0
 62
7
  6
CONTINUOUS
 10
160.8471793074
 20
31.4971825592
 11
160.9628038663
 21
31.3681283005
 12
160.6737418074
 22
31.3681283005
 13
160.6737418074
 23
31.3681283005
  0
SOLID
  8
0
 62
7
  6
CONTINUOUS
 10
150.2674918074
 20
31.4649197501
 11
149.7471793074
 21
31.4326554237
 12
150.498741835
 22
31.4971824493
 13
150.498741835
 23
31.4971824493
  0
SOLID
  8
0
 62
7
  6
CONTINUOUS
 10
149.7471793074
 20
31.4326554237
 11
149.8628043005
 21
31.4971824493
 12
150.498741835
 22
31.4971824493
 13
150.498741835
 23
31.4971824493
  0
SOLID
  8
0
 62
7
  6
CONTINUOUS
 10
150.2674918074
 20
31.4649197501
 11
150.1518667936
 21
31.4326554237
 12
149.7471793074
 22
31.4326554237
 13
149.7471793074
 23
31.4326554237
  0
SOLID
  8
0
 62
7
  6
CONTINUOUS
 10
149.6315543091
 20
31.3036012664
 11
149.7471793074
 21
31.4326554237
 12
150.1518667936
 22
31.4326554237
 13
150.1518667936
 23
31.4326554237
  0
SOLID
  8
0
 62
7
  6
CONTINUOUS
 10
153.9674919177
 20
31.4326554237
 11
154.6612419177
 21
31.4971825369
 12
154.4299918074
 22
31.4649197501
 13
154.4299918074
 23
31.4649197501
  0
SOLID
  8
0
 62
7
  6
CONTINUOUS
 10
154.4299918074
 20
31.4649197501
 11
154.3143669177
 21
31.4326554237
 12
153.9674919177
 22
31.4326554237
 13
153.9674919177
 23
31.4326554237
  0
SOLID
  8
0
 62
7
  6
CONTINUOUS
 10
153.9674919177
 20
31.3681283335
 11
153.9674919177
 21
31.4326554237
 12
154.3143669177
 22
31.4326554237
 13
154.3143669177
 23
31.4326554237
  0
SOLID
  8
0
 62
7
  6
CONTINUOUS
 10
154.3143669177
 20
31.4326554237
 11
154.2565543074
 21
31.3681283335
 12
153.9674919177
 22
31.3681283335
 13
153.9674919177
 23
31.3681283335
  0
SOLID
  8
0
 62
7
  6
CONTINUOUS
 10
159.1128043074
 20
31.4326555528
 11
159.8065543074
 21
31.4971825369
 12
159.575304528
 22
31.4649197501
 13
159.575304528
 23
31.4649197501
  0
SOLID
  8
0
 62
7
  6
CONTINUOUS
 10
159.575304528
 20
31.4649197501
 11
159.4596793074
 21
31.4326555528
 12
159.1128043074
 22
31.4326555528
 13
159.1128043074
 23
31.4326555528
  0
SOLID
  8
0
 62
7
  6
CONTINUOUS
 10
159.1128043074
 20
31.3681284626
 11
159.1128043074
 21
31.4326555528
 12
159.4596793074
 22
31.4326555528
 13
159.4596793074
 23
31.4326555528
  0
SOLID
  8
0
 62
7
  6
CONTINUOUS
 10
159.4596793074
 20
31.4326555528
 11
159.401867028
 21
31.3681284626
 12
159.1128043074
 22
31.3681284626
 13
159.1128043074
 23
31.3681284626
  0
SOLID
  8
0
 62
7
  6
CONTINUOUS
 10
159.228429528
 20
31.2390741763
 11
159.1128043074
 21
31.3681284626
 12
159.401867028
 22
31.3681284626
 13
159.401867028
 23
31.3681284626
  0
SOLID
  8
0
 62
7
  6
CONTINUOUS
 10
149.6315543091
 20
31.3036012664
 11
150.1518667936
 21
31.4326554468
 12
149.9784292936
 22
31.3358640533
 13
149.9784292936
 23
31.3358640533
  0
SOLID
  8
0
 62
7
  6
CONTINUOUS
 10
149.9784292936
 20
31.3358640533
 11
149.9206168074
 21
31.2713369632
 12
149.6315543091
 22
31.3036012664
 13
149.6315543091
 23
31.3036012664
  0
SOLID
  8
0
 62
7
  6
CONTINUOUS
 10
149.5737418074
 20
31.1100184796
 11
149.6315543091
 21
31.3036012664
 12
149.9206168074
 22
31.2713369632
 13
149.9206168074
 23
31.2713369632
  0
SOLID
  8
0
 62
7
  6
CONTINUOUS
 10
154.4299918074
 20
31.2390741763
 11
154.7768668074
 21
31.271336924
 12
155.412804528
 22
31.271336924
 13
155.412804528
 23
31.271336924
  0
SOLID
  8
0
 62
7
  6
CONTINUOUS
 10
154.4299918074
 20
31.2390741763
 11
155.412804528
 21
31.271336924
 12
154.1987416972
 22
31.1745462761
 13
154.1987416972
 23
31.1745462761
  0
SOLID
  8
0
 62
7
  6
CONTINUOUS
 10
154.1987416972
 20
31.1745462761
 11
155.412804528
 21
31.271336924
 12
154.7768668074
 22
31.1422827436
 13
154.7768668074
 23
31.1422827436
  0
SOLID
  8
0
 62
7
  6
CONTINUOUS
 10
155.412804528
 20
31.271336924
 11
155.412804528
 21
31.1422827436
 12
154.7768668074
 22
31.1422827436
 13
154.7768668074
 23
31.1422827436
  0
SOLID
  8
0
 62
7
  6
CONTINUOUS
 10
159.228429528
 20
31.2390745501
 11
159.401867028
 21
31.3681283566
 12
159.4596793074
 22
31.3036012664
 13
159.4596793074
 23
31.3036012664
  0
SOLID
  8
0
 62
7
  6
CONTINUOUS
 10
159.4596793074
 20
31.3036012664
 11
159.6331168074
 21
31.2390745501
 12
159.228429528
 22
31.2390745501
 13
159.228429528
 23
31.2390745501
  0
SOLID
  8
0
 62
7
  6
CONTINUOUS
 10
159.4596793074
 20
31.1422827828
 11
159.228429528
 21
31.2390745501
 12
159.6331168074
 22
31.2390745501
 13
159.6331168074
 23
31.2390745501
  0
SOLID
  8
0
 62
7
  6
CONTINUOUS
 10
159.6331168074
 20
31.2390745501
 11
160.615929528
 21
31.0777556927
 12
159.4596793074
 22
31.1422827828
 13
159.4596793074
 23
31.1422827828
  0
SOLID
  8
0
 62
7
  6
CONTINUOUS
 10
160.442492028
 20
30.9809646623
 11
159.4596793074
 21
31.1422827828
 12
160.615929528
 22
31.0777556927
 13
160.615929528
 23
31.0777556927
  0
SOLID
  8
0
 62
7
  6
CONTINUOUS
 10
160.615929528
 20
31.0777556927
 11
160.8471793074
 21
30.9809646623
 12
160.442492028
 22
30.9809646623
 13
160.442492028
 23
30.9809646623
  0
SOLID
  8
0
 62
7
  6
CONTINUOUS
 10
160.615929528
 20
30.9164372091
 11
160.442492028
 21
30.9809646623
 12
160.8471793074
 22
30.9809646623
 13
160.8471793074
 23
30.9809646623
  0
SOLID
  8
0
 62
7
  6
CONTINUOUS
 10
160.615929528
 20
30.9164372091
 11
160.8471793074
 21
30.9809646623
 12
160.6737418074
 22
30.8519089441
 13
160.6737418074
 23
30.8519089441
  0
SOLID
  8
0
 62
7
  6
CONTINUOUS
 10
160.8471793074
 20
30.9809646623
 11
160.9628038663
 21
30.8519089441
 12
160.6737418074
 22
30.8519089441
 13
160.6737418074
 23
30.8519089441
  0
SOLID
  8
0
 62
7
  6
CONTINUOUS
 10
160.615929528
 20
30.7873818593
 11
160.6737418074
 21
30.8519089441
 12
160.9628038663
 22
30.8519089441
 13
160.9628038663
 23
30.8519089441
  0
SOLID
  8
0
 62
7
  6
CONTINUOUS
 10
160.9628038663
 20
30.8519089441
 11
160.9628038663
 21
30.7873818593
 12
160.615929528
 22
30.7873818593
 13
160.615929528
 23
30.7873818593
  0
SOLID
  8
0
 62
7
  6
CONTINUOUS
 10
160.5003043074
 20
30.7551187255
 11
160.615929528
 21
30.7873818593
 12
160.9628038663
 22
30.7873818593
 13
160.9628038663
 23
30.7873818593
  0
SOLID
  8
0
 62
7
  6
CONTINUOUS
 10
160.5003043074
 20
30.7551187255
 11
160.9628038663
 21
30.7873818593
 12
160.269054528
 22
30.7228547745
 13
160.269054528
 23
30.7228547745
  0
SOLID
  8
0
 62
7
  6
CONTINUOUS
 10
160.9628038663
 20
30.7873818593
 11
160.8471793074
 21
30.6905916353
 12
160.269054528
 22
30.7228547745
 13
160.269054528
 23
30.7228547745
  0
SOLID
  8
0
 62
7
  6
CONTINUOUS
 10
160.8471793074
 20
30.6905916353
 11
159.401867028
 21
30.658327332
 12
160.269054528
 22
30.7228547745
 13
160.269054528
 23
30.7228547745
  0
SOLID
  8
0
 62
7
  6
CONTINUOUS
 10
160.269054528
 20
30.7228547745
 11
159.401867028
 21
30.658327332
 12
159.922179528
 22
30.7228547745
 13
159.922179528
 23
30.7228547745
  0
SOLID
  8
0
 62
7
  6
CONTINUOUS
 10
159.401867028
 20
30.658327332
 11
159.228429528
 21
30.7228547745
 12
159.922179528
 22
30.7228547745
 13
159.922179528
 23
30.7228547745
  0
SOLID
  8
0
 62
7
  6
CONTINUOUS
 10
159.401867028
 20
30.658327332
 11
160.8471793074
 21
30.6905916353
 12
159.575304528
 22
30.6260629858
 13
159.575304528
 23
30.6260629858
  0
SOLID
  8
0
 62
7
  6
CONTINUOUS
 10
160.8471793074
 20
30.6905916353
 11
160.615929528
 21
30.6260629858
 12
159.575304528
 22
30.6260629858
 13
159.575304528
 23
30.6260629858
  0
SOLID
  8
0
 62
7
  6
CONTINUOUS
 10
159.922179528
 20
30.5938006049
 11
159.575304528
 21
30.6260629858
 12
160.615929528
 22
30.6260629858
 13
160.615929528
 23
30.6260629858
  0
SOLID
  8
0
 62
7
  6
CONTINUOUS
 10
160.615929528
 20
30.6260629858
 11
160.269054528
 21
30.5938006049
 12
159.922179528
 22
30.5938006049
 13
159.922179528
 23
30.5938006049
  0
SOLID
  8
0
 62
7
  6
CONTINUOUS
 10
149.5737418074
 20
31.1100184796
 11
149.9206168074
 21
31.2713369632
 12
149.8628043005
 22
31.1422827828
 13
149.8628043005
 23
31.1422827828
  0
SOLID
  8
0
 62
7
  6
CONTINUOUS
 10
149.8628043005
 20
31.1422827828
 11
149.8628043005
 21
31.0454914852
 12
149.5737418074
 22
31.1100184796
 13
149.5737418074
 23
31.1100184796
  0
SOLID
  8
0
 62
7
  6
CONTINUOUS
 10
149.6315543091
 20
30.9164372091
 11
149.5737418074
 21
31.1100184796
 12
149.8628043005
 22
31.0454914852
 13
149.8628043005
 23
31.0454914852
  0
SOLID
  8
0
 62
7
  6
CONTINUOUS
 10
149.8628043005
 20
31.0454914852
 11
149.9784292936
 21
30.8841729058
 12
149.6315543091
 22
30.9164372091
 13
149.6315543091
 23
30.9164372091
  0
SOLID
  8
0
 62
7
  6
CONTINUOUS
 10
149.7471793074
 20
30.7873813202
 11
149.6315543091
 21
30.9164372091
 12
149.9784292936
 22
30.8841729058
 13
149.9784292936
 23
30.8841729058
  0
SOLID
  8
0
 62
7
  6
CONTINUOUS
 10
149.9784292936
 20
30.8841729058
 11
150.1518667936
 21
30.7873813202
 12
149.7471793074
 22
30.7873813202
 13
149.7471793074
 23
30.7873813202
  0
SOLID
  8
0
 62
7
  6
CONTINUOUS
 10
149.8628043005
 20
30.7228547004
 11
149.7471793074
 21
30.7873813202
 12
150.1518667936
 22
30.7873813202
 13
150.1518667936
 23
30.7873813202
  0
SOLID
  8
0
 62
7
  6
CONTINUOUS
 10
150.1518667936
 20
30.7873813202
 11
150.498741835
 21
30.7228547004
 12
149.8628043005
 22
30.7228547004
 13
149.8628043005
 23
30.7228547004
  0
SOLID
  8
0
 62
7
  6
CONTINUOUS
 10
150.0362418212
 20
30.658327332
 11
149.8628043005
 21
30.7228547004
 12
150.498741835
 22
30.7228547004
 13
150.498741835
 23
30.7228547004
  0
SOLID
  8
0
 62
7
  6
CONTINUOUS
 10
154.0831168074
 20
31.1100184386
 11
154.1987416972
 21
31.1745462761
 12
154.7768668074
 22
31.1422827828
 13
154.7768668074
 23
31.1422827828
  0
SOLID
  8
0
 62
7
  6
CONTINUOUS
 10
154.7768668074
 20
31.1422827828
 11
154.5456166972
 21
31.1100184386
 12
154.0831168074
 22
31.1100184386
 13
154.0831168074
 23
31.1100184386
  0
SOLID
  8
0
 62
7
  6
CONTINUOUS
 10
153.9674919177
 20
30.9809642992
 11
154.0831168074
 21
31.1100184386
 12
154.5456166972
 22
31.1100184386
 13
154.5456166972
 23
31.1100184386
  0
SOLID
  8
0
 62
7
  6
CONTINUOUS
 10
154.3143669177
 20
31.0132277988
 11
153.9674919177
 21
30.9809642992
 12
154.4299918074
 22
31.0777556927
 13
154.4299918074
 23
31.0777556927
  0
SOLID
  8
0
 62
7
  6
CONTINUOUS
 10
153.9674919177
 20
30.9809642992
 11
154.5456166972
 21
31.1100184796
 12
154.4299918074
 22
31.0777556927
 13
154.4299918074
 23
31.0777556927
  0
SOLID
  8
0
 62
7
  6
CONTINUOUS
 10
154.3143669177
 20
31.0132277988
 11
154.2565543074
 21
30.9164372091
 12
153.9674919177
 22
30.9809642992
 13
153.9674919177
 23
30.9809642992
  0
SOLID
  8
0
 62
7
  6
CONTINUOUS
 10
153.9674919177
 20
30.8841729058
 11
153.9674919177
 21
30.9809642992
 12
154.2565543074
 22
30.9164372091
 13
154.2565543074
 23
30.9164372091
  0
SOLID
  8
0
 62
7
  6
CONTINUOUS
 10
154.2565543074
 20
30.9164372091
 11
154.2565543074
 21
30.8519086025
 12
153.9674919177
 22
30.8841729058
 13
153.9674919177
 23
30.8841729058
  0
SOLID
  8
0
 62
7
  6
CONTINUOUS
 10
154.0253041972
 20
30.7551187255
 11
153.9674919177
 21
30.8841729058
 12
154.2565543074
 22
30.8519086025
 13
154.2565543074
 23
30.8519086025
  0
SOLID
  8
0
 62
7
  6
CONTINUOUS
 10
155.412804528
 20
30.9487004259
 11
155.7018665869
 21
30.8519086025
 12
155.3549915869
 22
30.8841729058
 13
155.3549915869
 23
30.8841729058
  0
SOLID
  8
0
 62
7
  6
CONTINUOUS
 10
155.1815540869
 20
30.7873815123
 11
155.3549915869
 21
30.8841729058
 12
155.7018665869
 22
30.8519086025
 13
155.7018665869
 23
30.8519086025
  0
SOLID
  8
0
 62
7
  6
CONTINUOUS
 10
155.1815540869
 20
30.7873815123
 11
155.7018665869
 21
30.8519086025
 12
155.412804528
 22
30.7551187255
 13
155.412804528
 23
30.7551187255
  0
SOLID
  8
0
 62
7
  6
CONTINUOUS
 10
155.7018665869
 20
30.8519086025
 11
155.759679528
 21
30.6905916353
 12
155.412804528
 22
30.7551187255
 13
155.412804528
 23
30.7551187255
  0
SOLID
  8
0
 62
7
  6
CONTINUOUS
 10
155.4706168074
 20
30.658327332
 11
155.412804528
 21
30.7551187255
 12
155.759679528
 22
30.6905916353
 13
155.759679528
 23
30.6905916353
  0
SOLID
  8
0
 62
7
  6
CONTINUOUS
 10
155.4706168074
 20
30.658327332
 11
155.759679528
 21
30.6905916353
 12
155.5284290869
 22
30.5938002079
 13
155.5284290869
 23
30.5938002079
  0
SOLID
  8
0
 62
7
  6
CONTINUOUS
 10
155.759679528
 20
30.6905916353
 11
155.8174918074
 21
30.5938002079
 12
155.5284290869
 22
30.5938002079
 13
155.5284290869
 23
30.5938002079
  0
SOLID
  8
0
 62
7
  6
CONTINUOUS
 10
151.0768668626
 20
30.8196456577
 11
151.1346793074
 21
30.9164373395
 12
151.4237418626
 22
30.9164373395
 13
151.4237418626
 23
30.9164373395
  0
SOLID
  8
0
 62
7
  6
CONTINUOUS
 10
151.4237418626
 20
30.9164373395
 11
151.3659292523
 21
30.7873815123
 12
151.0768668626
 22
30.8196456577
 13
151.0768668626
 23
30.8196456577
  0
SOLID
  8
0
 62
7
  6
CONTINUOUS
 10
150.9034292799
 20
30.7551187255
 11
151.0768668626
 21
30.8196456577
 12
151.3659292523
 22
30.7873815123
 13
151.3659292523
 23
30.7873815123
  0
SOLID
  8
0
 62
7
  6
CONTINUOUS
 10
150.9034292799
 20
30.7551187255
 11
151.3659292523
 21
30.7873815123
 12
150.498741835
 22
30.7228544222
 13
150.498741835
 23
30.7228544222
  0
SOLID
  8
0
 62
7
  6
CONTINUOUS
 10
151.3659292523
 20
30.7873815123
 11
151.1924917523
 21
30.6905916353
 12
150.498741835
 22
30.7228544222
 13
150.498741835
 23
30.7228544222
  0
SOLID
  8
0
 62
7
  6
CONTINUOUS
 10
150.0362418212
 20
30.658327332
 11
150.498741835
 21
30.7228544222
 12
151.1924917523
 22
30.6905916353
 13
151.1924917523
 23
30.6905916353
  0
SOLID
  8
0
 62
7
  6
CONTINUOUS
 10
150.0362418212
 20
30.658327332
 11
151.1924917523
 21
30.6905916353
 12
150.2096793212
 22
30.6260631011
 13
150.2096793212
 23
30.6260631011
  0
SOLID
  8
0
 62
7
  6
CONTINUOUS
 10
151.1924917523
 20
30.6905916353
 11
150.9612418074
 21
30.6260631011
 12
150.2096793212
 22
30.6260631011
 13
150.2096793212
 23
30.6260631011
  0
SOLID
  8
0
 62
7
  6
CONTINUOUS
 10
150.5565542799
 20
30.5938002419
 11
150.2096793212
 21
30.6260631011
 12
150.9612418074
 22
30.6260631011
 13
150.9612418074
 23
30.6260631011
  0
SOLID
  8
0
 62
7
  6
CONTINUOUS
 10
154.0253041972
 20
30.7551187255
 11
154.2565543074
 21
30.8519086025
 12
154.3143669177
 22
30.7873815123
 13
154.3143669177
 23
30.7873815123
  0
SOLID
  8
0
 62
7
  6
CONTINUOUS
 10
154.3143669177
 20
30.7873815123
 11
154.5456166972
 21
30.7228544222
 12
154.0253041972
 22
30.7551187255
 13
154.0253041972
 23
30.7551187255
  0
SOLID
  8
0
 62
7
  6
CONTINUOUS
 10
154.1987416972
 20
30.658327332
 11
154.0253041972
 21
30.7551187255
 12
154.5456166972
 22
30.7228544222
 13
154.5456166972
 23
30.7228544222
  0
SOLID
  8
0
 62
7
  6
CONTINUOUS
 10
154.8924916972
 20
30.7228544637
 11
155.1815540869
 21
30.7873815123
 12
155.412804528
 22
30.7551187255
 13
155.412804528
 23
30.7551187255
  0
SOLID
  8
0
 62
7
  6
CONTINUOUS
 10
155.412804528
 20
30.7551187255
 11
155.3549915869
 21
30.6905916353
 12
154.8924916972
 22
30.7228544637
 13
154.8924916972
 23
30.7228544637
  0
SOLID
  8
0
 62
7
  6
CONTINUOUS
 10
155.3549915869
 20
30.6905916353
 11
154.1987416972
 21
30.658327332
 12
154.8924916972
 22
30.7228544637
 13
154.8924916972
 23
30.7228544637
  0
SOLID
  8
0
 62
7
  6
CONTINUOUS
 10
154.1987416972
 20
30.658327332
 11
154.5456166972
 21
30.7228544637
 12
154.8924916972
 22
30.7228544637
 13
154.8924916972
 23
30.7228544637
  0
SOLID
  8
0
 62
7
  6
CONTINUOUS
 10
154.1987416972
 20
30.658327332
 11
155.3549915869
 21
30.6905916353
 12
154.3143669177
 22
30.6260630541
 13
154.3143669177
 23
30.6260630541
  0
SOLID
  8
0
 62
7
  6
CONTINUOUS
 10
155.3549915869
 20
30.6905916353
 11
155.1815540869
 21
30.6260630541
 12
154.3143669177
 22
30.6260630541
 13
154.3143669177
 23
30.6260630541
  0
SOLID
  8
0
 62
7
  6
CONTINUOUS
 10
154.5456166972
 20
30.5938002188
 11
154.3143669177
 21
30.6260630541
 12
155.1815540869
 22
30.6260630541
 13
155.1815540869
 23
30.6260630541
  0
SOLID
  8
0
 62
7
  6
CONTINUOUS
 10
155.1815540869
 20
30.6260630541
 11
154.8924916972
 21
30.5938002188
 12
154.5456166972
 22
30.5938002188
 13
154.5456166972
 23
30.5938002188
  0
SOLID
  8
0
 62
7
  6
CONTINUOUS
 10
159.575304528
 20
30.7551187255
 11
159.228429528
 21
30.7228544637
 12
159.4596793074
 22
30.7873815123
 13
159.4596793074
 23
30.7873815123
  0
SOLID
  8
0
 62
7
  6
CONTINUOUS
 10
159.4596793074
 20
30.7873815123
 11
159.228429528
 21
30.7228544637
 12
159.401867028
 22
30.851908644
 13
159.401867028
 23
30.851908644
  0
SOLID
  8
0
 62
7
  6
CONTINUOUS
 10
159.228429528
 20
30.7228544637
 11
159.1128043074
 21
30.851908644
 12
159.401867028
 22
30.851908644
 13
159.401867028
 23
30.851908644
  0
SOLID
  8
0
 62
7
  6
CONTINUOUS
 10
159.575304528
 20
30.7551187255
 11
159.922179528
 21
30.7228544637
 12
159.228429528
 22
30.7228544637
 13
159.228429528
 23
30.7228544637
  0
SOLID
  8
0
 62
7
  6
CONTINUOUS
 10
156.279992028
 20
30.5938002419
 11
156.279992028
 21
31.6262382337
 12
156.5690540869
 22
30.5938002419
 13
156.5690540869
 23
31.6262382337
  0
ENDBLK
  8
0
  6
BYBLOCK
 62
0
  0
BLOCK
  8
0
 62
2
  6
CONTINUOUS
  2
AMMEAAL_LOGO_BL0
 70
64
 10
32.1213064866
 20
19.8534310916
  0
TEXT
  8
0
 62
7
  6
CONTINUOUS
 10
18.3860103289
 20
19.2268451992
  7
TEXTSTYLE_3
 40
2.7338706658
  1
Ammeraal Beltech
 41
1.0
 51
15.0
 72
0
  0
TEXT
  8
0
 62
7
  6
CONTINUOUS
 10
29.1868111546
 20
16.9533085264
  7
TEXTSTYLE_4
 40
1.0935482663
  1
Innovation & Service in Belting
 41
1.0
 72
0
  0
LINE
  8
0
 62
7
  6
CONTINUOUS
 10
12.3614696776
 20
19.9934385078
 11
13.1396216709
 21
23.6543558055
  0
LINE
  8
0
 62
7
  6
CONTINUOUS
 10
23.2347899607
 20
27.3177497171
 11
13.6274394139
 21
24.1961322958
  0
LINE
  8
0
 62
7
  6
CONTINUOUS
 10
12.5867530099
 20
19.3000877048
 11
20.093828271
 21
12.5406867788
  0
LINE
  8
0
 62
7
  6
CONTINUOUS
 10
12.8492874206
 20
20.5352149982
 11
23.6575567857
 21
24.0470345971
  0
LINE
  8
0
 62
7
  6
CONTINUOUS
 10
23.6533516486
 20
13.6972460334
 11
15.2078919798
 21
21.3015720751
  0
LINE
  8
0
 62
7
  6
CONTINUOUS
 10
24.1731743684
 20
26.4728246013
 11
23.1966148312
 21
21.8784731989
  0
LINE
  8
0
 62
7
  6
CONTINUOUS
 10
22.4968128835
 20
18.5861638851
 11
21.810364672
 21
15.3566789607
  0
LINE
  8
0
 62
7
  6
CONTINUOUS
 10
24.8542704669
 20
14.087448211
 11
25.8105020025
 21
18.5861638851
  0
LINE
  8
0
 62
7
  6
CONTINUOUS
 10
26.5103039502
 20
21.8784731989
 11
26.9545457526
 21
23.9684665583
  0
LINE
  8
0
 62
7
  6
CONTINUOUS
 10
20.8069293463
 20
12.3891124661
 11
24.3664527239
 21
13.5456717207
  0
LINE
  8
0
 62
7
  6
CONTINUOUS
 10
23.9478910361
 20
27.1661754044
 11
26.7292624203
 21
24.6618173613
  0
ARC
  8
0
 62
7
  6
CONTINUOUS
 10
13.8527227462
 20
23.5027814928
 40
0.7290321776
 50
108.0
 51
168.0
  0
ARC
  8
0
 62
7
  6
CONTINUOUS
 10
23.4600732931
 20
26.624398914
 40
0.7290321776
 50
348.0
 51
108.0
  0
ARC
  8
0
 62
7
  6
CONTINUOUS
 10
26.2414446773
 20
24.120040871
 40
0.7290321776
 50
348.0
 51
48.0
  0
ARC
  8
0
 62
7
  6
CONTINUOUS
 10
20.581646014
 20
13.0824632691
 40
0.7290321776
 50
228.0
 51
288.0
  0
ARC
  8
0
 62
7
  6
CONTINUOUS
 10
13.0745707529
 20
19.8418641951
 40
0.7290321776
 50
108.0
 51
228.0
  0
ARC
  8
0
 62
7
  6
CONTINUOUS
 10
24.1411693916
 20
14.2390225237
 40
0.7290321776
 50
228.0
 51
348.0
  0
ENDBLK
  8
0
  6
BYBLOCK
 62
0
  0
ENDSEC
  0
SECTION
  2
ENTITIES
  0
TEXT
  8
0
 62
5
  6
CONTINUOUS
 10
96.0
 20
25.636
  7
TEXTSTYLE_2
 40
2.8
  1
Scale :
 41
0.6
 51
0.000019
 72
0
  0
TEXT
  8
0
 62
5
  6
CONTINUOUS
 10
116.0
 20
25.636
  7
TEXTSTYLE_2
 40
2.8
  1
Belt type:
 41
0.6
 51
0.000019
 72
0
  0
INSERT
  8
0
 62
2
  6
CONTINUOUS
  2
AMMEAAL_LOGO_BL0
 10
32.1213064866
 20
19.8534310916
  0
INSERT
  8
0
 62
2
  6
CONTINUOUS
  2
UNI_LOGO2_BL1
 10
173.5956734183
 20
35.5937998301
  0
LINE
  8
0
 62
2
  6
CONTINUOUS
 10
10.0
 20
30.0
 11
200.0
 21
30.0
  0
LINE
  8
0
 62
2
  6
CONTINUOUS
 10
10.0
 20
30.0
 11
10.0
 21
10.0
  0
LINE
  8
0
 62
2
  6
CONTINUOUS
 10
10.0
 20
10.0
 11
200.0
 21
10.0
  0
LINE
  8
0
 62
2
  6
CONTINUOUS
 10
95.0
 20
30.0
 11
95.0
 21
10.0
  0
LINE
  8
0
 62
2
  6
CONTINUOUS
 10
115.0
 20
30.0
 11
115.0
 21
10.0
  0
LINE
  8
0
 62
2
  6
CONTINUOUS
 10
200.0
 20
30.0
 11
200.0
 21
10.0
  0
TEXT
  8
0
 62
5
  6
CONTINUOUS
 10
13.0
 20
23.303
  7
TEXTSTYLE_5
 40
1.52
  1
                                                                     Ammeraal Beltech Modular A/S
 41
1.0
 72
0
  0
TEXT
  8
0
 62
5
  6
CONTINUOUS
 10
13.0
 20
20.595
  7
TEXTSTYLE_5
 40
1.5
  1
                                                                      Hjulmagervej 21,  7100 Vejle,  DK
 41
1.0
 72
0
  0
TEXT
  8
0
 62
5
  6
CONTINUOUS
 10
13.0
 20
17.881
  7
TEXTSTYLE_5
 40
1.495
  1
                                                                      tel: 
 41
1.0
 72
0
  0
TEXT
  8
0
 62
5
  6
CONTINUOUS
 10
57.9869465649
 20
17.881
  7
TEXTSTYLE_5
 40
1.51
  1
+45 75723100     fax: +45 75723348
 41
1.0
 72
0
  0
TEXT
  8
0
 62
5
  6
CONTINUOUS
 10
13.0
 20
15.177
  7
TEXTSTYLE_5
 40
1.5
  1
                                                                      admin@unichains.dk  www.unichains.com
 41
1.0
 72
0
  0
TEXT
  8
0
 62
5
  6
CONTINUOUS
 10
99.75
 20
13.75
  7
TEXTSTYLE_6
 40
5.0
  1
1:1
 41
0.7
 72
1
 11
105.0
 21
13.75
  0
TEXT
  8
0
 62
5
  6
CONTINUOUS
 10
118.0
 20
13.75
  7
TEXTSTYLE_7
 40
7.5
  1
uni NTB Sprocket Z24
 41
0.4213541667
 72
0
  0
LINE
  8
0
 62
7
  6
CONTINUOUS
 10
210.0
 20
0.0
 11
0.0
 21
0.0
  0
LINE
  8
0
 62
7
  6
CONTINUOUS
 10
10.0
 20
10.0
 11
200.0
 21
10.0
  0
LINE
  8
0
 62
7
  6
CONTINUOUS
 10
10.0
 20
30.0
 11
200.0
 21
30.0
  0
LINE
  8
0
 62
7
  6
CONTINUOUS
 10
0.0
 20
0.0
 11
0.0
 21
297.0
  0
LINE
  8
0
 62
7
  6
CONTINUOUS
 10
10.0
 20
10.0
 11
10.0
 21
287.0
  0
LINE
  8
0
 62
7
  6
CONTINUOUS
 10
200.0
 20
287.0
 11
200.0
 21
10.0
  0
LINE
  8
0
 62
7
  6
CONTINUOUS
 10
210.0
 20
0.0
 11
210.0
 21
297.0
  0
LINE
  8
0
 62
7
  6
CONTINUOUS
 10
10.0
 20
287.0
 11
200.0
 21
287.0
  0
LINE
  8
0
 62
7
  6
CONTINUOUS
 10
0.0
 20
297.0
 11
210.0
 21
297.0
  0
LINE
  8
0
 62
7
  6
CONTINUOUS
 10
51.15436523
 20
203.0739099
 11
51.15436523
 21
202.5510901
  0
LINE
  8
0
 62
7
  6
CONTINUOUS
 10
52.1607243166
 20
210.195146271
 11
52.0254085953
 21
209.6901411238
  0
LINE
  8
0
 62
7
  6
CONTINUOUS
 10
54.9759041464
 20
216.8132674992
 11
54.7144942465
 21
216.3604922708
  0
LINE
  8
0
 62
7
  6
CONTINUOUS
 10
59.4080548663
 20
222.4772595596
 11
59.0383654404
 21
222.1075701337
  0
LINE
  8
0
 62
7
  6
CONTINUOUS
 10
65.1551327292
 20
226.8011307535
 11
64.7023575008
 21
226.5397208536
  0
LINE
  8
0
 62
7
  6
CONTINUOUS
 10
85.5807661238
 20
176.1347835953
 11
86.085771271
 21
176.2700993166
  0
LINE
  8
0
 62
7
  6
CONTINUOUS
 10
78.4417151
 20
175.26374023
 11
78.9645349
 21
175.26374023
  0
LINE
  8
0
 62
7
  6
CONTINUOUS
 10
71.320478729
 20
176.2700993166
 11
71.8254838762
 21
176.1347835953
  0
LINE
  8
0
 62
7
  6
CONTINUOUS
 10
64.7023575008
 20
179.0852791464
 11
65.1551327292
 21
178.8238692465
  0
LINE
  8
0
 62
7
  6
CONTINUOUS
 10
59.0383654404
 20
183.5174298663
 11
59.4080548663
 21
183.1477404404
  0
LINE
  8
0
 62
7
  6
CONTINUOUS
 10
54.7144942465
 20
189.2645077292
 11
54.9759041464
 21
188.8117325008
  0
LINE
  8
0
 62
7
  6
CONTINUOUS
 10
52.0254085953
 20
195.9348588762
 11
52.1607243166
 21
195.429853729
  0
LINE
  8
0
 62
7
  6
CONTINUOUS
 10
74.0737021028
 20
173.3606272668
 11
74.0928423879
 21
172.9222426643
  0
LINE
  8
0
 62
7
  6
CONTINUOUS
 10
74.0928423879
 20
232.7027573357
 11
74.0737021028
 21
232.2643727332
  0
LINE
  8
0
 62
7
  6
CONTINUOUS
 10
66.6087402855
 20
175.5623583081
 11
66.513766097
 21
175.1339574283
  0
LINE
  8
0
 62
7
  6
CONTINUOUS
 10
81.98610182
 20
232.8775004583
 11
81.85415144
 21
232.4590073192
  0
LINE
  8
0
 62
7
  6
CONTINUOUS
 10
59.9679907996
 20
179.6211414726
 11
59.7653744714
 21
179.2319191277
  0
LINE
  8
0
 62
7
  6
CONTINUOUS
 10
89.6556318071
 20
231.0033634844
 11
89.4198635327
 21
230.6332814246
  0
LINE
  8
0
 62
7
  6
CONTINUOUS
 10
54.6040097481
 20
185.2603773953
 11
54.3075592483
 21
184.9368584447
  0
LINE
  8
0
 62
7
  6
CONTINUOUS
 10
96.5787665553
 20
227.2080657517
 11
96.2552476047
 21
226.9116152519
  0
LINE
  8
0
 62
7
  6
CONTINUOUS
 10
50.8823435754
 20
192.0957614673
 11
50.5122615156
 21
191.8599931929
  0
LINE
  8
0
 62
7
  6
CONTINUOUS
 10
102.2837058723
 20
221.7502505286
 11
101.8944835274
 21
221.5476342004
  0
LINE
  8
0
 62
7
  6
CONTINUOUS
 10
49.0566176808
 20
199.66147356
 11
48.6381245417
 21
199.52952318
  0
LINE
  8
0
 62
7
  6
CONTINUOUS
 10
51.0245824283
 20
190.623141097
 11
51.4529833081
 21
190.7181152855
  0
LINE
  8
0
 62
7
  6
CONTINUOUS
 10
108.1549977332
 20
198.1830771028
 11
108.5933823357
 21
198.2022173879
  0
LINE
  8
0
 62
7
  6
CONTINUOUS
 10
48.8128676643
 20
198.2022173879
 11
49.2512522668
 21
198.1830771028
  0
LINE
  8
0
 62
7
  6
CONTINUOUS
 10
105.9532666919
 20
190.7181152855
 11
106.3816675717
 21
190.623141097
  0
LINE
  8
0
 62
7
  6
CONTINUOUS
 10
48.6381245417
 20
206.09547682
 11
49.0566176808
 21
205.96352644
  0
LINE
  8
0
 62
7
  6
CONTINUOUS
 10
101.8944835274
 20
184.0773657996
 11
102.2837058723
 21
183.8747494714
  0
LINE
  8
0
 62
7
  6
CONTINUOUS
 10
50.5122615156
 20
213.7650068071
 11
50.8823435754
 21
213.5292385327
  0
LINE
  8
0
 62
7
  6
CONTINUOUS
 10
96.2552476047
 20
178.7133847481
 11
96.5787665553
 21
178.4169342483
  0
LINE
  8
0
 62
7
  6
CONTINUOUS
 10
54.3075592483
 20
220.6881415553
 11
54.6040097481
 21
220.3646226047
  0
LINE
  8
0
 62
7
  6
CONTINUOUS
 10
89.4198635327
 20
174.9917185754
 11
89.6556318071
 21
174.6216365156
  0
LINE
  8
0
 62
7
  6
CONTINUOUS
 10
59.7653744714
 20
226.3930808723
 11
59.9679907996
 21
226.0038585274
  0
LINE
  8
0
 62
7
  6
CONTINUOUS
 10
81.85415144
 20
173.1659926808
 11
81.98610182
 21
172.7474995417
  0
LINE
  8
0
 62
7
  6
CONTINUOUS
 10
66.513766097
 20
230.4910425717
 11
66.6087402855
 21
230.0626416919
  0
LINE
  8
0
 62
2
  6
CONTINUOUS
 10
78.703125
 20
203.6925
 11
78.703125
 21
201.9325
  0
LINE
  8
DEFAULT_1
 62
2
  6
CENTER
 10
78.703125
 20
198.4125
 11
78.703125
 21
169.68732
  0
LINE
  8
DEFAULT_1
 62
2
  6
CENTER
 10
78.703125
 20
207.2125
 11
78.703125
 21
235.93768
  0
LINE
  8
0
 62
2
  6
CONTINUOUS
 10
79.583125
 20
202.8125
 11
77.823125
 21
202.8125
  0
LINE
  8
DEFAULT_1
 62
2
  6
CENTER
 10
74.303125
 20
202.8125
 11
45.577945
 21
202.8125
  0
LINE
  8
DEFAULT_1
 62
2
  6
CENTER
 10
83.103125
 20
202.8125
 11
111.828305
 21
202.8125
  0
LINE
  8
0
 62
7
  6
CONTINUOUS
 10
83.3325478972
 20
232.2643727332
 11
83.3134076121
 21
232.7027573357
  0
LINE
  8
0
 62
7
  6
CONTINUOUS
 10
83.3134076121
 20
172.9222426643
 11
83.3325478972
 21
173.3606272668
  0
LINE
  8
0
 62
7
  6
CONTINUOUS
 10
90.7975097145
 20
230.0626416919
 11
90.892483903
 21
230.4910425717
  0
LINE
  8
0
 62
7
  6
CONTINUOUS
 10
75.42014818
 20
172.7474995417
 11
75.55209856
 21
173.1659926808
  0
LINE
  8
0
 62
7
  6
CONTINUOUS
 10
97.4382592004
 20
226.0038585274
 11
97.6408755286
 21
226.3930808723
  0
LINE
  8
0
 62
7
  6
CONTINUOUS
 10
67.7506181929
 20
174.6216365156
 11
67.9863864673
 21
174.9917185754
  0
LINE
  8
0
 62
7
  6
CONTINUOUS
 10
102.8022402519
 20
220.3646226047
 11
103.0986907517
 21
220.6881415553
  0
LINE
  8
0
 62
7
  6
CONTINUOUS
 10
60.8274834447
 20
178.4169342483
 11
61.1510023953
 21
178.7133847481
  0
LINE
  8
0
 62
7
  6
CONTINUOUS
 10
106.5239064246
 20
213.5292385327
 11
106.8939884844
 21
213.7650068071
  0
LINE
  8
0
 62
7
  6
CONTINUOUS
 10
55.1225441277
 20
183.8747494714
 11
55.5117664726
 21
184.0773657996
  0
LINE
  8
0
 62
7
  6
CONTINUOUS
 10
108.3496323192
 20
205.96352644
 11
108.7681254583
 21
206.09547682
  0
LINE
  8
0
 62
7
  6
CONTINUOUS
 10
106.3816675717
 20
215.001858903
 11
105.9532666919
 21
214.9068847145
  0
LINE
  8
0
 62
7
  6
CONTINUOUS
 10
49.2512522668
 20
207.4419228972
 11
48.8128676643
 21
207.4227826121
  0
LINE
  8
0
 62
7
  6
CONTINUOUS
 10
108.5933823357
 20
207.4227826121
 11
108.1549977332
 21
207.4419228972
  0
LINE
  8
0
 62
7
  6
CONTINUOUS
 10
51.4529833081
 20
214.9068847145
 11
51.0245824283
 21
215.001858903
  0
LINE
  8
0
 62
7
  6
CONTINUOUS
 10
108.7681254583
 20
199.52952318
 11
108.3496323192
 21
199.66147356
  0
LINE
  8
0
 62
7
  6
CONTINUOUS
 10
55.5117664726
 20
221.5476342004
 11
55.1225441277
 21
221.7502505286
  0
LINE
  8
0
 62
7
  6
CONTINUOUS
 10
106.8939884844
 20
191.8599931929
 11
106.5239064246
 21
192.0957614673
  0
LINE
  8
0
 62
7
  6
CONTINUOUS
 10
61.1510023953
 20
226.9116152519
 11
60.8274834447
 21
227.2080657517
  0
LINE
  8
0
 62
7
  6
CONTINUOUS
 10
103.0986907517
 20
184.9368584447
 11
102.8022402519
 21
185.2603773953
  0
LINE
  8
0
 62
7
  6
CONTINUOUS
 10
67.9863864673
 20
230.6332814246
 11
67.7506181929
 21
231.0033634844
  0
LINE
  8
0
 62
7
  6
CONTINUOUS
 10
97.6408755286
 20
179.2319191277
 11
97.4382592004
 21
179.6211414726
  0
LINE
  8
0
 62
7
  6
CONTINUOUS
 10
75.55209856
 20
232.4590073192
 11
75.42014818
 21
232.8775004583
  0
LINE
  8
0
 62
7
  6
CONTINUOUS
 10
90.892483903
 20
175.1339574283
 11
90.7975097145
 21
175.5623583081
  0
LINE
  8
0
 62
7
  6
CONTINUOUS
 10
106.25188477
 20
202.5510901
 11
106.25188477
 21
203.0739099
  0
LINE
  8
0
 62
7
  6
CONTINUOUS
 10
105.2455256834
 20
195.429853729
 11
105.3808414047
 21
195.9348588762
  0
LINE
  8
0
 62
7
  6
CONTINUOUS
 10
102.4303458536
 20
188.8117325008
 11
102.6917557535
 21
189.2645077292
  0
LINE
  8
0
 62
7
  6
CONTINUOUS
 10
97.9981951337
 20
183.1477404404
 11
98.3678845596
 21
183.5174298663
  0
LINE
  8
0
 62
7
  6
CONTINUOUS
 10
92.2511172708
 20
178.8238692465
 11
92.7038924992
 21
179.0852791464
  0
LINE
  8
0
 62
7
  6
CONTINUOUS
 10
71.8254838762
 20
229.4902164047
 11
71.320478729
 21
229.3549006834
  0
LINE
  8
0
 62
7
  6
CONTINUOUS
 10
78.9645349
 20
230.36125977
 11
78.4417151
 21
230.36125977
  0
LINE
  8
0
 62
7
  6
CONTINUOUS
 10
86.085771271
 20
229.3549006834
 11
85.5807661238
 21
229.4902164047
  0
LINE
  8
0
 62
7
  6
CONTINUOUS
 10
92.7038924992
 20
226.5397208536
 11
92.2511172708
 21
226.8011307535
  0
LINE
  8
0
 62
7
  6
CONTINUOUS
 10
98.3678845596
 20
222.1075701337
 11
97.9981951337
 21
222.4772595596
  0
LINE
  8
0
 62
7
  6
CONTINUOUS
 10
102.6917557535
 20
216.3604922708
 11
102.4303458536
 21
216.8132674992
  0
LINE
  8
0
 62
7
  6
CONTINUOUS
 10
105.3808414047
 20
209.6901411238
 11
105.2455256834
 21
210.195146271
  0
POLYLINE
  8
0
 62
7
  6
CONTINUOUS
 66
1
 70
0
  0
VERTEX
  8
0
 62
7
  6
CONTINUOUS
 10
152.4440379955
 20
231.2347136797
  0
VERTEX
  8
0
 62
7
  6
CONTINUOUS
 10
152.4250666526
 20
231.2121410584
  0
VERTEX
  8
0
 62
7
  6
CONTINUOUS
 10
152.3924454777
 20
231.1325851329
  0
VERTEX
  8
0
 62
7
  6
CONTINUOUS
 10
152.3515533051
 20
231.0033634844
  0
SEQEND
  0
LINE
  8
0
 62
7
  6
CONTINUOUS
 10
175.4544358605
 20
172.3978524415
 11
152.4518141395
 21
172.3978524415
  0
LINE
  8
0
 62
9
  6
CONTINUOUS
 10
175.453125
 20
172.401755467
 11
152.453125
 21
172.401755467
  0
LINE
  8
0
 62
9
  6
CONTINUOUS
 10
175.453125
 20
172.4487215513
 11
152.453125
 21
172.4487215513
  0
LINE
  8
DEFAULT_2
 62
8
  6
HIDDEN
 10
160.5189479116
 20
172.5964776811
 11
167.3873020884
 21
172.5964776811
  0
LINE
  8
DEFAULT_2
 62
8
  6
HIDDEN
 10
175.5546966949
 20
172.7474995417
 11
152.3515533051
 21
172.7474995417
  0
LINE
  8
DEFAULT_2
 62
8
  6
HIDDEN
 10
167.3873020884
 20
172.7562064931
 11
160.5189479116
 21
172.7562064931
  0
LINE
  8
0
 62
9
  6
CONTINUOUS
 10
175.5546966949
 20
172.9222426643
 11
152.3515533051
 21
172.9222426643
  0
LINE
  8
DEFAULT_2
 62
8
  6
HIDDEN
 10
160.453125
 20
173.1625
 11
167.453125
 21
173.1625
  0
LINE
  8
DEFAULT_2
 62
8
  6
HIDDEN
 10
152.2439982458
 20
173.1659926808
 11
175.6622517542
 21
173.1659926808
  0
LINE
  8
DEFAULT_2
 62
8
  6
HIDDEN
 10
160.453125
 20
173.2285160314
 11
167.453125
 21
173.2285160314
  0
LINE
  8
DEFAULT_2
 62
8
  6
HIDDEN
 10
160.4536653758
 20
173.2320784479
 11
167.4525846242
 21
173.2320784479
  0
LINE
  8
DEFAULT_2
 62
8
  6
HIDDEN
 10
160.453125
 20
173.3245925941
 11
167.453125
 21
173.3245925941
  0
LINE
  8
0
 62
9
  6
CONTINUOUS
 10
152.2439982458
 20
173.3606272668
 11
175.6622517542
 21
173.3606272668
  0
LINE
  8
0
 62
7
  6
CONTINUOUS
 10
160.453125
 20
173.5280397965
 11
167.453125
 21
173.5280397965
  0
LINE
  8
DEFAULT_2
 62
8
  6
HIDDEN
 10
167.453125
 20
173.7247586196
 11
160.453125
 21
173.7247586196
  0
LINE
  8
0
 62
7
  6
CONTINUOUS
 10
175.4625367246
 20
174.3902863197
 11
152.4437132754
 21
174.3902863197
  0
LINE
  8
0
 62
9
  6
CONTINUOUS
 10
175.453125
 20
174.4272313665
 11
152.453125
 21
174.4272313665
  0
LINE
  8
DEFAULT_2
 62
8
  6
HIDDEN
 10
160.5189479116
 20
174.4959208558
 11
167.3873020884
 21
174.4959208558
  0
LINE
  8
0
 62
9
  6
CONTINUOUS
 10
175.453125
 20
174.5649289584
 11
152.453125
 21
174.5649289584
  0
LINE
  8
DEFAULT_2
 62
8
  6
HIDDEN
 10
175.5546966949
 20
174.6216365156
 11
152.3515533051
 21
174.6216365156
  0
LINE
  8
DEFAULT_2
 62
8
  6
HIDDEN
 10
160.453125
 20
174.7483730608
 11
167.453125
 21
174.7483730608
  0
LINE
  8
DEFAULT_2
 62
8
  6
HIDDEN
 10
160.4610132397
 20
174.833951371
 11
167.4452367603
 21
174.833951371
  0
LINE
  8
DEFAULT_2
 62
8
  6
HIDDEN
 10
167.3873020884
 20
174.9642220373
 11
160.5189479116
 21
174.9642220373
  0
LINE
  8
DEFAULT_2
 62
8
  6
HIDDEN
 10
152.2439982458
 20
174.9917185754
 11
175.6622517542
 21
174.9917185754
  0
LINE
  8
DEFAULT_2
 62
8
  6
HIDDEN
 10
160.453125
 20
175.1306975504
 11
167.453125
 21
175.1306975504
  0
LINE
  8
0
 62
9
  6
CONTINUOUS
 10
175.5546966949
 20
175.1339574283
 11
152.3515533051
 21
175.1339574283
  0
LINE
  8
DEFAULT_2
 62
8
  6
HIDDEN
 10
151.678125
 20
175.2625
 11
160.2693988066
 21
175.2625
  0
LINE
  8
DEFAULT_2
 62
8
  6
HIDDEN
 10
167.6368511934
 20
175.2625
 11
176.228125
 21
175.2625
  0
LINE
  8
DEFAULT_2
 62
8
  6
HIDDEN
 10
151.6785743637
 20
175.2638752823
 11
160.2695513097
 21
175.2638752823
  0
LINE
  8
DEFAULT_2
 62
8
  6
HIDDEN
 10
167.6366986903
 20
175.2638752823
 11
176.2276756363
 21
175.2638752823
  0
LINE
  8
0
 62
9
  6
CONTINUOUS
 10
152.2439982458
 20
175.5623583081
 11
175.6622517542
 21
175.5623583081
  0
LINE
  8
0
 62
7
  6
CONTINUOUS
 10
160.453125
 20
175.7271745669
 11
167.453125
 21
175.7271745669
  0
LINE
  8
DEFAULT_2
 62
8
  6
HIDDEN
 10
151.8594713905
 20
176.1347835953
 11
160.2693988066
 21
176.1347835953
  0
LINE
  8
0
 62
9
  6
CONTINUOUS
 10
151.678125
 20
176.1347835953
 11
151.8594713905
 21
176.1347835953
  0
LINE
  8
DEFAULT_2
 62
8
  6
HIDDEN
 10
167.6368511934
 20
176.1347835953
 11
176.0467786095
 21
176.1347835953
  0
LINE
  8
0
 62
9
  6
CONTINUOUS
 10
176.0467786095
 20
176.1347835953
 11
176.228125
 21
176.1347835953
  0
LINE
  8
DEFAULT_2
 62
8
  6
HIDDEN
 10
167.453125
 20
176.2032827131
 11
160.453125
 21
176.2032827131
  0
POLYLINE
  8
0
 62
7
  6
CONTINUOUS
 66
1
 70
0
  0
VERTEX
  8
0
 62
7
  6
CONTINUOUS
 10
151.7084666064
 20
176.3798197497
  0
VERTEX
  8
0
 62
7
  6
CONTINUOUS
 10
151.7262739113
 20
176.3722069554
  0
VERTEX
  8
0
 62
7
  6
CONTINUOUS
 10
151.809423479
 20
176.2448719353
  0
VERTEX
  8
0
 62
7
  6
CONTINUOUS
 10
151.8647888515
 20
176.1230869941
  0
VERTEX
  8
0
 62
7
  6
CONTINUOUS
 10
151.9991873165
 20
175.7684401911
  0
VERTEX
  8
0
 62
7
  6
CONTINUOUS
 10
152.1581877964
 20
175.279474851
  0
VERTEX
  8
0
 62
7
  6
CONTINUOUS
 10
152.2439982458
 20
174.9917185754
  0
SEQEND
  0
POLYLINE
  8
0
 62
7
  6
CONTINUOUS
 66
1
 70
0
  0
VERTEX
  8
0
 62
7
  6
CONTINUOUS
 10
152.4521617871
 20
233.2271475585
  0
VERTEX
  8
0
 62
7
  6
CONTINUOUS
 10
152.4459435978
 20
233.2152760566
  0
VERTEX
  8
0
 62
7
  6
CONTINUOUS
 10
152.4250666526
 20
233.1498629123
  0
VERTEX
  8
0
 62
7
  6
CONTINUOUS
 10
152.3924454777
 20
233.03308699
  0
VERTEX
  8
0
 62
7
  6
CONTINUOUS
 10
152.3515533051
 20
232.8775004583
  0
SEQEND
  0
POLYLINE
  8
0
 62
7
  6
CONTINUOUS
 66
1
 70
0
  0
VERTEX
  8
0
 62
7
  6
CONTINUOUS
 10
152.4440389485
 20
174.3902863213
  0
VERTEX
  8
0
 62
7
  6
CONTINUOUS
 10
152.4459811337
 20
174.3907781937
  0
VERTEX
  8
0
 62
7
  6
CONTINUOUS
 10
152.453125
 20
174.4272313665
  0
SEQEND
  0
LINE
  8
DEFAULT_2
 62
8
  6
HIDDEN
 10
152.4459435978
 20
174.3907582877
 11
152.4440379955
 21
174.3902863203
  0
LINE
  8
DEFAULT_2
 62
8
  6
HIDDEN
 10
151.7929500387
 20
176.2700993166
 11
160.2693988066
 21
176.2700993166
  0
LINE
  8
0
 62
9
  6
CONTINUOUS
 10
151.678125
 20
176.2700993166
 11
151.7929500387
 21
176.2700993166
  0
LINE
  8
DEFAULT_2
 62
8
  6
HIDDEN
 10
167.6368511934
 20
176.2700993166
 11
176.1132999613
 21
176.2700993166
  0
LINE
  8
0
 62
9
  6
CONTINUOUS
 10
176.1132999613
 20
176.2700993166
 11
176.228125
 21
176.2700993166
  0
LINE
  8
DEFAULT_2
 62
8
  6
HIDDEN
 10
151.7096812989
 20
176.3798197504
 11
160.2804387055
 21
176.3798197504
  0
LINE
  8
DEFAULT_2
 62
8
  6
HIDDEN
 10
167.6258112945
 20
176.3798197504
 11
176.1965687011
 21
176.3798197504
  0
LINE
  8
DEFAULT_2
 62
8
  6
HIDDEN
 10
160.453125
 20
178.180753963
 11
167.453125
 21
178.180753963
  0
LINE
  8
0
 62
7
  6
CONTINUOUS
 10
175.4784041872
 20
178.2855729167
 11
152.4278458128
 21
178.2855729167
  0
LINE
  8
DEFAULT_2
 62
8
  6
HIDDEN
 10
160.5189479116
 20
178.3250921038
 11
167.3873020884
 21
178.3250921038
  0
LINE
  8
0
 62
9
  6
CONTINUOUS
 10
175.453125
 20
178.3871164145
 11
152.453125
 21
178.3871164145
  0
LINE
  8
DEFAULT_2
 62
8
  6
HIDDEN
 10
175.5546966949
 20
178.4169342483
 11
152.3515533051
 21
178.4169342483
  0
LINE
  8
DEFAULT_2
 62
8
  6
HIDDEN
 10
160.4781426119
 20
178.4515535023
 11
167.4281073881
 21
178.4515535023
  0
LINE
  8
0
 62
9
  6
CONTINUOUS
 10
175.453125
 20
178.6061616506
 11
152.453125
 21
178.6061616506
  0
LINE
  8
DEFAULT_2
 62
8
  6
HIDDEN
 10
152.2439982458
 20
178.7133847481
 11
175.6622517542
 21
178.7133847481
  0
LINE
  8
DEFAULT_2
 62
8
  6
HIDDEN
 10
160.453125
 20
178.8232715972
 11
167.453125
 21
178.8232715972
  0
LINE
  8
DEFAULT_2
 62
8
  6
HIDDEN
 10
152.2016832019
 20
178.8238692465
 11
160.2693988066
 21
178.8238692465
  0
LINE
  8
0
 62
9
  6
CONTINUOUS
 10
151.678125
 20
178.8238692465
 11
152.2016832019
 21
178.8238692465
  0
LINE
  8
DEFAULT_2
 62
8
  6
HIDDEN
 10
167.6368511934
 20
178.8238692465
 11
175.7045667981
 21
178.8238692465
  0
LINE
  8
0
 62
9
  6
CONTINUOUS
 10
175.7045667981
 20
178.8238692465
 11
176.228125
 21
178.8238692465
  0
LINE
  8
DEFAULT_2
 62
8
  6
HIDDEN
 10
167.3873020884
 20
179.0700517031
 11
160.5189479116
 21
179.0700517031
  0
LINE
  8
DEFAULT_2
 62
8
  6
HIDDEN
 10
152.0892766036
 20
179.0852791464
 11
160.2693988066
 21
179.0852791464
  0
LINE
  8
0
 62
9
  6
CONTINUOUS
 10
151.678125
 20
179.0852791464
 11
152.0892766036
 21
179.0852791464
  0
LINE
  8
DEFAULT_2
 62
8
  6
HIDDEN
 10
167.6368511934
 20
179.0852791464
 11
175.8169733964
 21
179.0852791464
  0
LINE
  8
0
 62
9
  6
CONTINUOUS
 10
175.8169733964
 20
179.0852791464
 11
176.228125
 21
179.0852791464
  0
LINE
  8
0
 62
9
  6
CONTINUOUS
 10
175.5546966949
 20
179.2319191277
 11
152.3515533051
 21
179.2319191277
  0
LINE
  8
DEFAULT_2
 62
8
  6
HIDDEN
 10
151.7935963048
 20
179.5015527377
 11
160.3096718844
 21
179.5015527377
  0
LINE
  8
DEFAULT_2
 62
8
  6
HIDDEN
 10
167.5965781156
 20
179.5015527377
 11
176.1126536952
 21
179.5015527377
  0
LINE
  8
0
 62
9
  6
CONTINUOUS
 10
152.2439982458
 20
179.6211414726
 11
175.6622517542
 21
179.6211414726
  0
LINE
  8
0
 62
7
  6
CONTINUOUS
 10
160.453125
 20
179.7721295049
 11
167.453125
 21
179.7721295049
  0
LINE
  8
DEFAULT_2
 62
8
  6
HIDDEN
 10
175.4603064022
 20
174.3907582877
 11
175.4622120045
 21
174.3902863203
  0
POLYLINE
  8
0
 62
7
  6
CONTINUOUS
 66
1
 70
0
  0
VERTEX
  8
0
 62
7
  6
CONTINUOUS
 10
175.4622110515
 20
174.3902863213
  0
VERTEX
  8
0
 62
7
  6
CONTINUOUS
 10
175.4602688663
 20
174.3907781937
  0
VERTEX
  8
0
 62
7
  6
CONTINUOUS
 10
175.453125
 20
174.4272313665
  0
SEQEND
  0
POLYLINE
  8
0
 62
7
  6
CONTINUOUS
 66
1
 70
0
  0
VERTEX
  8
0
 62
7
  6
CONTINUOUS
 10
151.7925623241
 20
179.5015527332
  0
VERTEX
  8
0
 62
7
  6
CONTINUOUS
 10
151.8647888515
 20
179.4656251566
  0
VERTEX
  8
0
 62
7
  6
CONTINUOUS
 10
151.9991873165
 20
179.278558542
  0
VERTEX
  8
0
 62
7
  6
CONTINUOUS
 10
152.1581877964
 20
178.9374356669
  0
VERTEX
  8
0
 62
7
  6
CONTINUOUS
 10
152.2439982458
 20
178.7133847481
  0
SEQEND
  0
LINE
  8
DEFAULT_2
 62
8
  6
HIDDEN
 10
151.9994608834
 20
179.2780676223
 11
151.9993333976
 21
179.2782451367
  0
LINE
  8
0
 62
7
  6
CONTINUOUS
 10
152.2439982458
 20
230.6332814246
 11
152.3515533051
 21
231.0033634844
  0
POLYLINE
  8
0
 62
7
  6
CONTINUOUS
 66
1
 70
0
  0
VERTEX
  8
0
 62
7
  6
CONTINUOUS
 10
152.2439982458
 20
230.6332814246
  0
VERTEX
  8
0
 62
7
  6
CONTINUOUS
 10
152.1585012619
 20
230.3465479846
  0
VERTEX
  8
0
 62
7
  6
CONTINUOUS
 10
151.9994608834
 20
229.8573446838
  0
VERTEX
  8
0
 62
7
  6
CONTINUOUS
 10
151.8647139012
 20
229.5017360158
  0
VERTEX
  8
0
 62
7
  6
CONTINUOUS
 10
151.8092281927
 20
229.3797351684
  0
VERTEX
  8
0
 62
7
  6
CONTINUOUS
 10
151.7260558718
 20
229.2526259107
  0
VERTEX
  8
0
 62
7
  6
CONTINUOUS
 10
151.708462714
 20
229.2451802526
  0
SEQEND
  0
LINE
  8
0
 62
7
  6
CONTINUOUS
 10
152.2439982458
 20
226.9116152519
 11
152.3515533051
 21
227.2080657517
  0
POLYLINE
  8
0
 62
7
  6
CONTINUOUS
 66
1
 70
0
  0
VERTEX
  8
0
 62
7
  6
CONTINUOUS
 10
152.2439982458
 20
226.9116152519
  0
VERTEX
  8
0
 62
7
  6
CONTINUOUS
 10
152.1585012619
 20
226.6883358282
  0
VERTEX
  8
0
 62
7
  6
CONTINUOUS
 10
151.9994608834
 20
226.3469323777
  0
VERTEX
  8
0
 62
7
  6
CONTINUOUS
 10
151.8647139012
 20
226.1593073933
  0
VERTEX
  8
0
 62
7
  6
CONTINUOUS
 10
151.7925589837
 20
226.1234472683
  0
SEQEND
  0
LINE
  8
DEFAULT_2
 62
8
  6
HIDDEN
 10
152.1581877964
 20
226.6875643331
 11
152.1584001254
 21
226.6881187238
  0
LINE
  8
DEFAULT_2
 62
8
  6
HIDDEN
 10
151.9991873165
 20
226.346441458
 11
151.9993333976
 21
226.3467548633
  0
LINE
  8
0
 62
7
  6
CONTINUOUS
 10
152.2439982458
 20
221.5476342004
 11
152.3515533051
 21
221.7502505286
  0
POLYLINE
  8
0
 62
7
  6
CONTINUOUS
 66
1
 70
0
  0
VERTEX
  8
0
 62
7
  6
CONTINUOUS
 10
152.2439982458
 20
221.5476342004
  0
VERTEX
  8
0
 62
7
  6
CONTINUOUS
 10
152.1585012619
 20
221.4030249167
  0
VERTEX
  8
0
 62
7
  6
CONTINUOUS
 10
151.9994608834
 20
221.2326873976
  0
VERTEX
  8
0
 62
7
  6
CONTINUOUS
 10
151.922973109
 20
221.2086667003
  0
SEQEND
  0
LINE
  8
DEFAULT_2
 62
8
  6
HIDDEN
 10
152.1581877964
 20
221.4025573384
 11
152.1584005775
 21
221.4029170803
  0
LINE
  8
DEFAULT_2
 62
8
  6
HIDDEN
 10
151.9991873165
 20
221.2325238885
 11
151.9992900466
 21
221.232633747
  0
POLYLINE
  8
0
 62
7
  6
CONTINUOUS
 66
1
 70
0
  0
VERTEX
  8
0
 62
7
  6
CONTINUOUS
 10
152.405455241
 20
221.8067451102
  0
VERTEX
  8
0
 62
7
  6
CONTINUOUS
 10
152.3924454777
 20
221.8027205391
  0
VERTEX
  8
0
 62
7
  6
CONTINUOUS
 10
152.3515533051
 20
221.7502505286
  0
SEQEND
  0
LINE
  8
DEFAULT_2
 62
8
  6
HIDDEN
 10
167.453125
 20
180.4951809908
 11
160.453125
 21
180.4951809908
  0
LINE
  8
0
 62
9
  6
CONTINUOUS
 10
151.678125
 20
183.1477404404
 11
160.2693988066
 21
183.1477404404
  0
LINE
  8
0
 62
9
  6
CONTINUOUS
 10
167.6368511934
 20
183.1477404404
 11
176.228125
 21
183.1477404404
  0
LINE
  8
DEFAULT_2
 62
8
  6
HIDDEN
 10
160.453125
 20
183.2917476517
 11
167.453125
 21
183.2917476517
  0
LINE
  8
0
 62
9
  6
CONTINUOUS
 10
151.678125
 20
183.5174298663
 11
160.2693988066
 21
183.5174298663
  0
LINE
  8
0
 62
9
  6
CONTINUOUS
 10
167.6368511934
 20
183.5174298663
 11
176.228125
 21
183.5174298663
  0
LINE
  8
0
 62
7
  6
CONTINUOUS
 10
175.5010362919
 20
183.818254888
 11
152.4052137081
 21
183.818254888
  0
LINE
  8
DEFAULT_2
 62
8
  6
HIDDEN
 10
160.5189479116
 20
183.8230397325
 11
167.3873020884
 21
183.8230397325
  0
LINE
  8
DEFAULT_2
 62
8
  6
HIDDEN
 10
160.5031543162
 20
183.8383512349
 11
167.4030956838
 21
183.8383512349
  0
LINE
  8
DEFAULT_2
 62
8
  6
HIDDEN
 10
175.5546966949
 20
183.8747494714
 11
152.3515533051
 21
183.8747494714
  0
POLYLINE
  8
0
 62
7
  6
CONTINUOUS
 66
1
 70
0
  0
VERTEX
  8
0
 62
7
  6
CONTINUOUS
 10
151.9229719596
 20
184.4163332996
  0
VERTEX
  8
0
 62
7
  6
CONTINUOUS
 10
151.9991873165
 20
184.3924761115
  0
VERTEX
  8
0
 62
7
  6
CONTINUOUS
 10
152.1581877964
 20
184.2224426616
  0
VERTEX
  8
0
 62
7
  6
CONTINUOUS
 10
152.2439982458
 20
184.0773657996
  0
SEQEND
  0
LINE
  8
DEFAULT_2
 62
8
  6
HIDDEN
 10
151.9994608834
 20
184.3923126024
 11
151.9992900466
 21
184.392366253
  0
POLYLINE
  8
DEFAULT_2
 62
8
  6
HIDDEN
 66
1
 70
0
  0
VERTEX
  8
DEFAULT_2
 62
8
  6
HIDDEN
 10
160.2800202789
 20
176.3798197504
  0
VERTEX
  8
DEFAULT_2
 62
8
  6
HIDDEN
 10
160.2852244105
 20
176.3743228529
  0
VERTEX
  8
DEFAULT_2
 62
8
  6
HIDDEN
 10
160.3124284146
 20
176.2613772806
  0
VERTEX
  8
DEFAULT_2
 62
8
  6
HIDDEN
 10
160.3304635286
 20
176.1514399824
  0
VERTEX
  8
DEFAULT_2
 62
8
  6
HIDDEN
 10
160.3740299345
 20
175.8310459682
  0
VERTEX
  8
DEFAULT_2
 62
8
  6
HIDDEN
 10
160.4254025117
 20
175.3900220845
  0
SEQEND
  0
POLYLINE
  8
0
 62
7
  6
CONTINUOUS
 66
1
 70
0
  0
VERTEX
  8
0
 62
7
  6
CONTINUOUS
 10
152.3515533051
 20
183.8747494714
  0
VERTEX
  8
0
 62
7
  6
CONTINUOUS
 10
152.3923960021
 20
183.8223088603
  0
VERTEX
  8
0
 62
7
  6
CONTINUOUS
 10
152.4054538848
 20
183.8182548893
  0
SEQEND
  0
LINE
  8
0
 62
7
  6
CONTINUOUS
 10
152.3515533051
 20
183.8747494714
 11
152.2439982458
 21
184.0773657996
  0
POLYLINE
  8
0
 62
7
  6
CONTINUOUS
 66
1
 70
0
  0
VERTEX
  8
0
 62
7
  6
CONTINUOUS
 10
152.3515533051
 20
178.4169342483
  0
VERTEX
  8
0
 62
7
  6
CONTINUOUS
 10
152.3923960021
 20
178.3229716216
  0
VERTEX
  8
0
 62
7
  6
CONTINUOUS
 10
152.4250998762
 20
178.2859610083
  0
VERTEX
  8
0
 62
7
  6
CONTINUOUS
 10
152.4281150491
 20
178.2855729198
  0
SEQEND
  0
LINE
  8
0
 62
7
  6
CONTINUOUS
 10
152.3515533051
 20
178.4169342483
 11
152.2439982458
 21
178.7133847481
  0
POLYLINE
  8
0
 62
7
  6
CONTINUOUS
 66
1
 70
0
  0
VERTEX
  8
0
 62
7
  6
CONTINUOUS
 10
151.6781646573
 20
175.2638752822
  0
VERTEX
  8
0
 62
7
  6
CONTINUOUS
 10
151.6835263494
 20
175.2474893097
  0
VERTEX
  8
0
 62
7
  6
CONTINUOUS
 10
151.7262739113
 20
175.0990193409
  0
VERTEX
  8
0
 62
7
  6
CONTINUOUS
 10
151.809423479
 20
174.8010449843
  0
VERTEX
  8
0
 62
7
  6
CONTINUOUS
 10
151.8647888515
 20
174.5993882217
  0
VERTEX
  8
0
 62
7
  6
CONTINUOUS
 10
151.9991873165
 20
174.1013298238
  0
VERTEX
  8
0
 62
7
  6
CONTINUOUS
 10
152.1581877964
 20
173.4978441986
  0
SEQEND
  0
LINE
  8
DEFAULT_2
 62
8
  6
HIDDEN
 10
152.1583991157
 20
175.2787662141
 11
152.1581877964
 21
175.279474851
  0
POLYLINE
  8
0
 62
7
  6
CONTINUOUS
 66
1
 70
0
  0
VERTEX
  8
0
 62
7
  6
CONTINUOUS
 10
152.3515533051
 20
174.6216365156
  0
VERTEX
  8
0
 62
7
  6
CONTINUOUS
 10
152.3923960021
 20
174.4925552711
  0
VERTEX
  8
0
 62
7
  6
CONTINUOUS
 10
152.4250998762
 20
174.4127960305
  0
VERTEX
  8
0
 62
7
  6
CONTINUOUS
 10
152.4440389485
 20
174.3902863213
  0
SEQEND
  0
LINE
  8
0
 62
7
  6
CONTINUOUS
 10
152.3515533051
 20
174.6216365156
 11
152.2439982458
 21
174.9917185754
  0
LINE
  8
DEFAULT_2
 62
8
  6
HIDDEN
 10
152.1583925666
 20
173.4970522985
 11
152.1581877964
 21
173.4978441986
  0
POLYLINE
  8
0
 62
7
  6
CONTINUOUS
 66
1
 70
0
  0
VERTEX
  8
0
 62
7
  6
CONTINUOUS
 10
152.3515533051
 20
172.7474995417
  0
VERTEX
  8
0
 62
7
  6
CONTINUOUS
 10
152.3923960021
 20
172.5920963529
  0
VERTEX
  8
0
 62
7
  6
CONTINUOUS
 10
152.4250998762
 20
172.4750239455
  0
VERTEX
  8
0
 62
7
  6
CONTINUOUS
 10
152.4459811337
 20
172.4096259055
  0
VERTEX
  8
0
 62
7
  6
CONTINUOUS
 10
152.4521637366
 20
172.3978524424
  0
SEQEND
  0
LINE
  8
DEFAULT_2
 62
8
  6
HIDDEN
 10
151.7262739113
 20
227.4484134025
 11
151.7260558718
 21
227.446630245
  0
LINE
  8
DEFAULT_2
 62
8
  6
HIDDEN
 10
151.809423479
 20
223.9565455386
 11
151.8092281927
 21
223.9552524575
  0
LINE
  8
DEFAULT_2
 62
8
  6
HIDDEN
 10
151.809423479
 20
228.0165021148
 11
151.8092281927
 21
228.0153288981
  0
LINE
  8
DEFAULT_2
 62
8
  6
HIDDEN
 10
151.7262739113
 20
229.9105403654
 11
151.7260558718
 21
229.9092183075
  0
LINE
  8
DEFAULT_2
 62
8
  6
HIDDEN
 10
151.9994608834
 20
224.99748891
 11
151.9991873165
 21
224.9962023663
  0
LINE
  8
DEFAULT_2
 62
8
  6
HIDDEN
 10
151.9994608834
 20
229.009049057
 11
151.9991873165
 21
229.0077640319
  0
LINE
  8
DEFAULT_2
 62
8
  6
HIDDEN
 10
151.9994608834
 20
219.4740584313
 11
151.9991873165
 21
219.4728580448
  0
LINE
  8
DEFAULT_2
 62
8
  6
HIDDEN
 10
151.809423479
 20
230.3588475984
 11
151.8092281927
 21
230.3578741988
  0
LINE
  8
DEFAULT_2
 62
8
  6
HIDDEN
 10
151.9994608834
 20
231.2353576776
 11
151.9991873165
 21
231.2341617434
  0
LINE
  8
DEFAULT_2
 62
8
  6
HIDDEN
 10
152.1585012619
 20
229.7132236324
 11
152.1581877964
 21
229.7119089212
  0
LINE
  8
DEFAULT_2
 62
8
  6
HIDDEN
 10
152.1585012619
 20
225.6808622741
 11
152.1581877964
 21
225.6796264722
  0
POLYLINE
  8
0
 62
7
  6
CONTINUOUS
 66
1
 70
0
  0
VERTEX
  8
0
 62
7
  6
CONTINUOUS
 10
152.3515533051
 20
230.4910425717
  0
VERTEX
  8
0
 62
7
  6
CONTINUOUS
 10
152.3923960021
 20
230.6662461636
  0
VERTEX
  8
0
 62
7
  6
CONTINUOUS
 10
152.4250998762
 20
230.8320109081
  0
VERTEX
  8
0
 62
7
  6
CONTINUOUS
 10
152.4459811337
 20
230.9681464816
  0
VERTEX
  8
0
 62
7
  6
CONTINUOUS
 10
152.453125
 20
231.0600710416
  0
SEQEND
  0
LINE
  8
DEFAULT_2
 62
8
  6
HIDDEN
 10
152.1585012619
 20
231.9123451307
 11
152.1581877964
 21
231.9110411057
  0
POLYLINE
  8
0
 62
7
  6
CONTINUOUS
 66
1
 70
0
  0
VERTEX
  8
0
 62
7
  6
CONTINUOUS
 10
152.3515533051
 20
232.7027573357
  0
VERTEX
  8
0
 62
7
  6
CONTINUOUS
 10
152.3923960021
 20
232.8738919983
  0
VERTEX
  8
0
 62
7
  6
CONTINUOUS
 10
152.4250998762
 20
233.0202992815
  0
VERTEX
  8
0
 62
7
  6
CONTINUOUS
 10
152.4459811337
 20
233.1246207563
  0
VERTEX
  8
0
 62
7
  6
CONTINUOUS
 10
152.453125
 20
233.1762784487
  0
SEQEND
  0
POLYLINE
  8
0
 62
7
  6
CONTINUOUS
 66
1
 70
0
  0
VERTEX
  8
0
 62
7
  6
CONTINUOUS
 10
152.3515533051
 20
226.3930808723
  0
VERTEX
  8
0
 62
7
  6
CONTINUOUS
 10
152.3923960021
 20
226.5604135584
  0
VERTEX
  8
0
 62
7
  6
CONTINUOUS
 10
152.4250998762
 20
226.7342391709
  0
VERTEX
  8
0
 62
7
  6
CONTINUOUS
 10
152.4459811337
 20
226.8929114287
  0
VERTEX
  8
0
 62
7
  6
CONTINUOUS
 10
152.453125
 20
227.0188383494
  0
SEQEND
  0
LINE
  8
0
 62
7
  6
CONTINUOUS
 10
152.3515533051
 20
232.7027573357
 11
152.2439982458
 21
232.2643727332
  0
LINE
  8
0
 62
7
  6
CONTINUOUS
 10
151.453125
 20
229.4625
 11
151.678125
 21
230.3625
  0
LINE
  8
0
 62
7
  6
CONTINUOUS
 10
152.3515533051
 20
230.4910425717
 11
152.2439982458
 21
230.0626416919
  0
LINE
  8
DEFAULT_2
 62
8
  6
HIDDEN
 10
152.1585012619
 20
220.0900598186
 11
152.1581877964
 21
220.0889871437
  0
POLYLINE
  8
0
 62
7
  6
CONTINUOUS
 66
1
 70
0
  0
VERTEX
  8
0
 62
7
  6
CONTINUOUS
 10
152.3515533051
 20
232.8775004583
  0
VERTEX
  8
0
 62
7
  6
CONTINUOUS
 10
152.1585012619
 20
232.1283602731
  0
VERTEX
  8
0
 62
7
  6
CONTINUOUS
 10
151.9994608834
 20
231.5246955184
  0
VERTEX
  8
0
 62
7
  6
CONTINUOUS
 10
151.8647139012
 20
231.02533731
  0
VERTEX
  8
0
 62
7
  6
CONTINUOUS
 10
151.8092281927
 20
230.8232477689
  0
VERTEX
  8
0
 62
7
  6
CONTINUOUS
 10
151.7260558718
 20
230.5252097967
  0
VERTEX
  8
0
 62
7
  6
CONTINUOUS
 10
151.6834796399
 20
230.3773560737
  0
VERTEX
  8
0
 62
7
  6
CONTINUOUS
 10
151.6781628504
 20
230.3611247181
  0
SEQEND
  0
POLYLINE
  8
0
 62
7
  6
CONTINUOUS
 66
1
 70
0
  0
VERTEX
  8
0
 62
7
  6
CONTINUOUS
 10
152.3515533051
 20
220.6881415553
  0
VERTEX
  8
0
 62
7
  6
CONTINUOUS
 10
152.3923960021
 20
220.8361998894
  0
VERTEX
  8
0
 62
7
  6
CONTINUOUS
 10
152.4250998762
 20
221.0062404416
  0
VERTEX
  8
0
 62
7
  6
CONTINUOUS
 10
152.4459811337
 20
221.1766361316
  0
VERTEX
  8
0
 62
7
  6
CONTINUOUS
 10
152.453125
 20
221.3279837015
  0
SEQEND
  0
LINE
  8
0
 62
7
  6
CONTINUOUS
 10
152.3515533051
 20
226.3930808723
 11
152.2439982458
 21
226.0038585274
  0
LINE
  8
0
 62
7
  6
CONTINUOUS
 10
152.3515533051
 20
220.6881415553
 11
152.2439982458
 21
220.3646226047
  0
LINE
  8
0
 62
7
  6
CONTINUOUS
 10
152.3515533051
 20
213.7650068071
 11
152.2439982458
 21
213.5292385327
  0
POLYLINE
  8
DEFAULT_2
 62
8
  6
HIDDEN
 66
1
 70
0
  0
VERTEX
  8
DEFAULT_2
 62
8
  6
HIDDEN
 10
160.3094537238
 20
226.1234472624
  0
VERTEX
  8
DEFAULT_2
 62
8
  6
HIDDEN
 10
160.3405802068
 20
226.1756886961
  0
VERTEX
  8
DEFAULT_2
 62
8
  6
HIDDEN
 10
160.3771298613
 20
226.3231737772
  0
VERTEX
  8
DEFAULT_2
 62
8
  6
HIDDEN
 10
160.4196507017
 20
226.567544039
  0
VERTEX
  8
DEFAULT_2
 62
8
  6
HIDDEN
 10
160.4674287826
 20
226.9116152519
  0
SEQEND
  0
POLYLINE
  8
DEFAULT_2
 62
8
  6
HIDDEN
 66
1
 70
0
  0
VERTEX
  8
DEFAULT_2
 62
8
  6
HIDDEN
 10
160.4610042955
 20
230.791048629
  0
VERTEX
  8
DEFAULT_2
 62
8
  6
HIDDEN
 10
160.4671241233
 20
230.800932293
  0
VERTEX
  8
DEFAULT_2
 62
8
  6
HIDDEN
 10
160.4747775033
 20
230.830054738
  0
VERTEX
  8
DEFAULT_2
 62
8
  6
HIDDEN
 10
160.4944247281
 20
230.9445088731
  0
SEQEND
  0
LINE
  8
DEFAULT_2
 62
8
  6
HIDDEN
 10
160.4779748006
 20
227.1734464977
 11
160.4944247281
 21
227.1992272253
  0
POLYLINE
  8
DEFAULT_2
 62
8
  6
HIDDEN
 66
1
 70
0
  0
VERTEX
  8
DEFAULT_2
 62
8
  6
HIDDEN
 10
160.2800202824
 20
229.2451802496
  0
VERTEX
  8
DEFAULT_2
 62
8
  6
HIDDEN
 10
160.2882099003
 20
229.2575725055
  0
VERTEX
  8
DEFAULT_2
 62
8
  6
HIDDEN
 10
160.3106629602
 20
229.3539262692
  0
VERTEX
  8
DEFAULT_2
 62
8
  6
HIDDEN
 10
160.3405802068
 20
229.5421355852
  0
VERTEX
  8
DEFAULT_2
 62
8
  6
HIDDEN
 10
160.3771298613
 20
229.8188963251
  0
SEQEND
  0
LINE
  8
DEFAULT_2
 62
8
  6
HIDDEN
 10
160.5030492054
 20
221.7866487651
 11
160.5189479116
 21
221.8019602675
  0
LINE
  8
0
 62
7
  6
CONTINUOUS
 10
152.2439982458
 20
214.9068847145
 11
152.3515533051
 21
215.001858903
  0
POLYLINE
  8
DEFAULT_2
 62
8
  6
HIDDEN
 66
1
 70
0
  0
VERTEX
  8
DEFAULT_2
 62
8
  6
HIDDEN
 10
160.3550771159
 20
221.2086667027
  0
VERTEX
  8
DEFAULT_2
 62
8
  6
HIDDEN
 10
160.3771298613
 20
221.2252376646
  0
VERTEX
  8
DEFAULT_2
 62
8
  6
HIDDEN
 10
160.4196507017
 20
221.3333052538
  0
VERTEX
  8
DEFAULT_2
 62
8
  6
HIDDEN
 10
160.4674287826
 20
221.5476342004
  0
SEQEND
  0
POLYLINE
  8
0
 62
7
  6
CONTINUOUS
 66
1
 70
0
  0
VERTEX
  8
0
 62
7
  6
CONTINUOUS
 10
152.2439982458
 20
214.9068847145
  0
VERTEX
  8
0
 62
7
  6
CONTINUOUS
 10
152.1585012619
 20
214.8508004545
  0
VERTEX
  8
0
 62
7
  6
CONTINUOUS
 10
152.0885619
 20
214.8357727359
  0
SEQEND
  0
LINE
  8
DEFAULT_2
 62
8
  6
HIDDEN
 10
152.1581877964
 20
214.8506686576
 11
152.1583341747
 21
214.8507645528
  0
LINE
  8
0
 62
7
  6
CONTINUOUS
 10
152.3775130918
 20
215.0137108971
 11
152.3515533051
 21
215.001858903
  0
LINE
  8
0
 62
9
  6
CONTINUOUS
 10
175.453125
 20
184.011550989
 11
152.453125
 21
184.011550989
  0
LINE
  8
DEFAULT_2
 62
8
  6
HIDDEN
 10
152.2439982458
 20
184.0773657996
 11
175.6622517542
 21
184.0773657996
  0
LINE
  8
DEFAULT_2
 62
8
  6
HIDDEN
 10
160.453125
 20
184.1506719156
 11
167.453125
 21
184.1506719156
  0
LINE
  8
0
 62
9
  6
CONTINUOUS
 10
175.453125
 20
184.2970162985
 11
152.453125
 21
184.2970162985
  0
LINE
  8
DEFAULT_2
 62
8
  6
HIDDEN
 10
151.9232422017
 20
184.4163333
 11
160.3552425591
 21
184.4163333
  0
LINE
  8
DEFAULT_2
 62
8
  6
HIDDEN
 10
167.5510074409
 20
184.4163333
 11
175.9830077983
 21
184.4163333
  0
LINE
  8
DEFAULT_2
 62
8
  6
HIDDEN
 10
167.3873020884
 20
184.7938899841
 11
160.5189479116
 21
184.7938899841
  0
LINE
  8
0
 62
9
  6
CONTINUOUS
 10
175.5546966949
 20
184.9368584447
 11
152.3515533051
 21
184.9368584447
  0
LINE
  8
0
 62
9
  6
CONTINUOUS
 10
152.2439982458
 20
185.2603773953
 11
175.6622517542
 21
185.2603773953
  0
LINE
  8
0
 62
7
  6
CONTINUOUS
 10
160.453125
 20
185.3872476162
 11
167.453125
 21
185.3872476162
  0
LINE
  8
DEFAULT_2
 62
8
  6
HIDDEN
 10
167.453125
 20
186.307967678
 11
160.453125
 21
186.307967678
  0
LINE
  8
0
 62
7
  6
CONTINUOUS
 10
152.3515533051
 20
190.623141097
 11
152.3775072781
 21
190.6112891011
  0
POLYLINE
  8
DEFAULT_2
 62
8
  6
HIDDEN
 66
1
 70
0
  0
VERTEX
  8
DEFAULT_2
 62
8
  6
HIDDEN
 10
160.355077536
 20
184.4163333
  0
VERTEX
  8
DEFAULT_2
 62
8
  6
HIDDEN
 10
160.3740299345
 20
184.403953698
  0
VERTEX
  8
DEFAULT_2
 62
8
  6
HIDDEN
 10
160.4254025117
 20
184.2706699211
  0
VERTEX
  8
DEFAULT_2
 62
8
  6
HIDDEN
 10
160.453125
 20
184.1506719156
  0
SEQEND
  0
LINE
  8
0
 62
7
  6
CONTINUOUS
 10
152.3515533051
 20
190.623141097
 11
152.2439982458
 21
190.7181152855
  0
LINE
  8
DEFAULT_2
 62
8
  6
HIDDEN
 10
160.5189479116
 20
183.8230397325
 11
160.5030492054
 21
183.8383512349
  0
POLYLINE
  8
DEFAULT_2
 62
8
  6
HIDDEN
 66
1
 70
0
  0
VERTEX
  8
DEFAULT_2
 62
8
  6
HIDDEN
 10
160.3094546332
 20
179.5015527377
  0
VERTEX
  8
DEFAULT_2
 62
8
  6
HIDDEN
 10
160.3304635286
 20
179.4758810574
  0
VERTEX
  8
DEFAULT_2
 62
8
  6
HIDDEN
 10
160.3740299345
 20
179.3169069128
  0
VERTEX
  8
DEFAULT_2
 62
8
  6
HIDDEN
 10
160.4254025117
 20
179.0196233921
  0
VERTEX
  8
DEFAULT_2
 62
8
  6
HIDDEN
 10
160.453125
 20
178.8232715972
  0
SEQEND
  0
LINE
  8
0
 62
7
  6
CONTINUOUS
 10
152.2439982458
 20
192.0957614673
 11
152.3515533051
 21
191.8599931929
  0
LINE
  8
0
 62
7
  6
CONTINUOUS
 10
152.2439982458
 20
185.2603773953
 11
152.3515533051
 21
184.9368584447
  0
POLYLINE
  8
0
 62
7
  6
CONTINUOUS
 66
1
 70
0
  0
VERTEX
  8
0
 62
7
  6
CONTINUOUS
 10
152.2439982458
 20
185.2603773953
  0
VERTEX
  8
0
 62
7
  6
CONTINUOUS
 10
152.1585012619
 20
185.5349401814
  0
VERTEX
  8
0
 62
7
  6
CONTINUOUS
 10
151.9994608834
 20
186.1509415687
  0
VERTEX
  8
0
 62
7
  6
CONTINUOUS
 10
151.8647139012
 20
186.8246819797
  0
VERTEX
  8
0
 62
7
  6
CONTINUOUS
 10
151.8092281927
 20
187.170667623
  0
VERTEX
  8
0
 62
7
  6
CONTINUOUS
 10
151.7260558718
 20
187.857644612
  0
VERTEX
  8
0
 62
7
  6
CONTINUOUS
 10
151.6834796399
 20
188.509136973
  0
VERTEX
  8
0
 62
7
  6
CONTINUOUS
 10
151.678125
 20
188.8117325008
  0
SEQEND
  0
LINE
  8
DEFAULT_2
 62
8
  6
HIDDEN
 10
152.1581877964
 20
185.5360128563
 11
152.1585012619
 21
185.5349401814
  0
LINE
  8
0
 62
7
  6
CONTINUOUS
 10
152.2439982458
 20
179.6211414726
 11
152.3515533051
 21
179.2319191277
  0
POLYLINE
  8
0
 62
7
  6
CONTINUOUS
 66
1
 70
0
  0
VERTEX
  8
0
 62
7
  6
CONTINUOUS
 10
152.2439982458
 20
179.6211414726
  0
VERTEX
  8
0
 62
7
  6
CONTINUOUS
 10
152.1585012619
 20
179.9441377259
  0
VERTEX
  8
0
 62
7
  6
CONTINUOUS
 10
151.9994608834
 20
180.62751109
  0
VERTEX
  8
0
 62
7
  6
CONTINUOUS
 10
151.8647139012
 20
181.3268552725
  0
VERTEX
  8
0
 62
7
  6
CONTINUOUS
 10
151.8092281927
 20
181.6697475425
  0
VERTEX
  8
0
 62
7
  6
CONTINUOUS
 10
151.7260558718
 20
182.3197330838
  0
VERTEX
  8
0
 62
7
  6
CONTINUOUS
 10
151.6834796399
 20
182.8958617095
  0
VERTEX
  8
0
 62
7
  6
CONTINUOUS
 10
151.678125
 20
183.1477404404
  0
SEQEND
  0
LINE
  8
DEFAULT_2
 62
8
  6
HIDDEN
 10
152.1581877964
 20
179.9453735278
 11
152.1585012619
 21
179.9441377259
  0
LINE
  8
DEFAULT_2
 62
8
  6
HIDDEN
 10
151.9991873165
 20
186.1521419552
 11
151.9994608834
 21
186.1509415687
  0
LINE
  8
0
 62
7
  6
CONTINUOUS
 10
152.3515533051
 20
172.7474995417
 11
152.1581877964
 21
173.4978441986
  0
LINE
  8
0
 62
7
  6
CONTINUOUS
 10
152.2439982458
 20
175.5623583081
 11
152.3515533051
 21
175.1339574283
  0
LINE
  8
0
 62
7
  6
CONTINUOUS
 10
151.453125
 20
176.1625
 11
151.678125
 21
175.2625
  0
LINE
  8
0
 62
7
  6
CONTINUOUS
 10
152.2439982458
 20
173.3606272668
 11
152.3515533051
 21
172.9222426643
  0
POLYLINE
  8
0
 62
7
  6
CONTINUOUS
 66
1
 70
0
  0
VERTEX
  8
0
 62
7
  6
CONTINUOUS
 10
152.2439982458
 20
175.5623583081
  0
VERTEX
  8
0
 62
7
  6
CONTINUOUS
 10
152.1585012619
 20
175.9117763676
  0
VERTEX
  8
0
 62
7
  6
CONTINUOUS
 10
151.9994608834
 20
176.615950943
  0
VERTEX
  8
0
 62
7
  6
CONTINUOUS
 10
151.8647139012
 20
177.2932397467
  0
VERTEX
  8
0
 62
7
  6
CONTINUOUS
 10
151.8092281927
 20
177.6096711019
  0
VERTEX
  8
0
 62
7
  6
CONTINUOUS
 10
151.7260558718
 20
178.178369755
  0
VERTEX
  8
0
 62
7
  6
CONTINUOUS
 10
151.6834796399
 20
178.6398724317
  0
VERTEX
  8
0
 62
7
  6
CONTINUOUS
 10
151.678125
 20
178.8238692465
  0
SEQEND
  0
LINE
  8
DEFAULT_2
 62
8
  6
HIDDEN
 10
152.1581877964
 20
175.9130910788
 11
152.1585012619
 21
175.9117763676
  0
POLYLINE
  8
0
 62
7
  6
CONTINUOUS
 66
1
 70
0
  0
VERTEX
  8
0
 62
7
  6
CONTINUOUS
 10
152.2439982458
 20
173.3606272668
  0
VERTEX
  8
0
 62
7
  6
CONTINUOUS
 10
152.1585012619
 20
173.7126548693
  0
VERTEX
  8
0
 62
7
  6
CONTINUOUS
 10
151.9994608834
 20
174.3896423224
  0
VERTEX
  8
0
 62
7
  6
CONTINUOUS
 10
151.8647139012
 20
174.9987196346
  0
VERTEX
  8
0
 62
7
  6
CONTINUOUS
 10
151.8092281927
 20
175.2671258012
  0
VERTEX
  8
0
 62
7
  6
CONTINUOUS
 10
151.7260558718
 20
175.7157816925
  0
VERTEX
  8
0
 62
7
  6
CONTINUOUS
 10
151.6834796399
 20
176.0312077756
  0
VERTEX
  8
0
 62
7
  6
CONTINUOUS
 10
151.678125
 20
176.1347835953
  0
SEQEND
  0
LINE
  8
DEFAULT_2
 62
8
  6
HIDDEN
 10
152.1581877964
 20
173.7139588943
 11
152.1585012619
 21
173.7126548693
  0
LINE
  8
DEFAULT_2
 62
8
  6
HIDDEN
 10
151.9991873165
 20
174.3908382566
 11
151.9994608834
 21
174.3896423224
  0
LINE
  8
DEFAULT_2
 62
8
  6
HIDDEN
 10
151.9991873165
 20
180.6287976337
 11
151.9994608834
 21
180.62751109
  0
LINE
  8
DEFAULT_2
 62
8
  6
HIDDEN
 10
151.9991873165
 20
176.6172359681
 11
151.9994608834
 21
176.615950943
  0
LINE
  8
DEFAULT_2
 62
8
  6
HIDDEN
 10
151.8092281927
 20
175.2671258012
 11
151.809423479
 21
175.2661524016
  0
LINE
  8
DEFAULT_2
 62
8
  6
HIDDEN
 10
152.4250998762
 20
174.7929890919
 11
152.4459811337
 21
174.6568535184
  0
POLYLINE
  8
0
 62
7
  6
CONTINUOUS
 66
1
 70
0
  0
VERTEX
  8
0
 62
7
  6
CONTINUOUS
 10
152.453125
 20
172.4487215513
  0
VERTEX
  8
0
 62
7
  6
CONTINUOUS
 10
152.4459435978
 20
172.5005885443
  0
VERTEX
  8
0
 62
7
  6
CONTINUOUS
 10
152.4250666526
 20
172.6048563814
  0
VERTEX
  8
0
 62
7
  6
CONTINUOUS
 10
152.3924454777
 20
172.7508942143
  0
VERTEX
  8
0
 62
7
  6
CONTINUOUS
 10
152.3515533051
 20
172.9222426643
  0
SEQEND
  0
LINE
  8
DEFAULT_2
 62
8
  6
HIDDEN
 10
151.7260558718
 20
175.7157816925
 11
151.7262739113
 21
175.7144596346
  0
POLYLINE
  8
DEFAULT_2
 62
8
  6
HIDDEN
 66
1
 70
0
  0
VERTEX
  8
DEFAULT_2
 62
8
  6
HIDDEN
 10
151.7260558718
 20
178.178369755
  0
VERTEX
  8
DEFAULT_2
 62
8
  6
HIDDEN
 10
151.7262739113
 20
178.1765865975
  0
VERTEX
  8
DEFAULT_2
 62
8
  6
HIDDEN
 10
151.809423479
 20
177.6084978852
  0
SEQEND
  0
LINE
  8
DEFAULT_2
 62
8
  6
HIDDEN
 10
151.7260558718
 20
215.5703544087
 11
151.7262739113
 21
215.5688076143
  0
POLYLINE
  8
0
 62
7
  6
CONTINUOUS
 66
1
 70
0
  0
VERTEX
  8
0
 62
7
  6
CONTINUOUS
 10
152.453125
 20
174.5649289584
  0
VERTEX
  8
0
 62
7
  6
CONTINUOUS
 10
152.4459435978
 20
174.6571598182
  0
VERTEX
  8
0
 62
7
  6
CONTINUOUS
 10
152.4250666526
 20
174.7931766672
  0
VERTEX
  8
0
 62
7
  6
CONTINUOUS
 10
152.3924454777
 20
174.9585241738
  0
VERTEX
  8
0
 62
7
  6
CONTINUOUS
 10
152.3515533051
 20
175.1339574283
  0
SEQEND
  0
LINE
  8
DEFAULT_2
 62
8
  6
HIDDEN
 10
151.7260558718
 20
182.3197330838
 11
151.7262739113
 21
182.3176103461
  0
LINE
  8
DEFAULT_2
 62
8
  6
HIDDEN
 10
151.7260558718
 20
208.7598589945
 11
151.7262739113
 21
208.7579033906
  0
LINE
  8
DEFAULT_2
 62
8
  6
HIDDEN
 10
151.7260558718
 20
187.857644612
 11
151.7262739113
 21
187.8553269551
  0
LINE
  8
DEFAULT_2
 62
8
  6
HIDDEN
 10
151.7260558718
 20
201.5440608932
 11
151.7262739113
 21
201.5418297512
  0
LINE
  8
DEFAULT_2
 62
8
  6
HIDDEN
 10
151.7260558718
 20
194.4147048209
 11
151.7262739113
 21
194.4123501893
  0
POLYLINE
  8
0
 62
7
  6
CONTINUOUS
 66
1
 70
0
  0
VERTEX
  8
0
 62
7
  6
CONTINUOUS
 10
152.453125
 20
178.6061616506
  0
VERTEX
  8
0
 62
7
  6
CONTINUOUS
 10
152.4459435978
 20
178.7324709966
  0
VERTEX
  8
0
 62
7
  6
CONTINUOUS
 10
152.4250666526
 20
178.890967534
  0
VERTEX
  8
0
 62
7
  6
CONTINUOUS
 10
152.3924454777
 20
179.064356555
  0
VERTEX
  8
0
 62
7
  6
CONTINUOUS
 10
152.3515533051
 20
179.2319191277
  0
SEQEND
  0
POLYLINE
  8
0
 62
7
  6
CONTINUOUS
 66
1
 70
0
  0
VERTEX
  8
0
 62
7
  6
CONTINUOUS
 10
152.453125
 20
184.2970162985
  0
VERTEX
  8
0
 62
7
  6
CONTINUOUS
 10
152.4459435978
 20
184.4487963574
  0
VERTEX
  8
0
 62
7
  6
CONTINUOUS
 10
152.4250666526
 20
184.6189713062
  0
VERTEX
  8
0
 62
7
  6
CONTINUOUS
 10
152.3924454777
 20
184.7885856663
  0
VERTEX
  8
0
 62
7
  6
CONTINUOUS
 10
152.3515533051
 20
184.9368584447
  0
SEQEND
  0
POLYLINE
  8
0
 62
7
  6
CONTINUOUS
 66
1
 70
0
  0
VERTEX
  8
0
 62
7
  6
CONTINUOUS
 10
152.453125
 20
206.9914302841
  0
VERTEX
  8
0
 62
7
  6
CONTINUOUS
 10
152.4459435978
 20
207.1542127089
  0
VERTEX
  8
0
 62
7
  6
CONTINUOUS
 10
152.4250666526
 20
207.2906085925
  0
VERTEX
  8
0
 62
7
  6
CONTINUOUS
 10
152.3924454777
 20
207.3844416879
  0
VERTEX
  8
0
 62
7
  6
CONTINUOUS
 10
152.3515533051
 20
207.4227826121
  0
SEQEND
  0
POLYLINE
  8
0
 62
7
  6
CONTINUOUS
 66
1
 70
0
  0
VERTEX
  8
0
 62
7
  6
CONTINUOUS
 10
152.453125
 20
191.2496705623
  0
VERTEX
  8
0
 62
7
  6
CONTINUOUS
 10
152.4459435978
 20
191.416577774
  0
VERTEX
  8
0
 62
7
  6
CONTINUOUS
 10
152.4250666526
 20
191.5868339927
  0
VERTEX
  8
0
 62
7
  6
CONTINUOUS
 10
152.3924454777
 20
191.7411147535
  0
VERTEX
  8
0
 62
7
  6
CONTINUOUS
 10
152.3515533051
 20
191.8599931929
  0
SEQEND
  0
POLYLINE
  8
0
 62
7
  6
CONTINUOUS
 66
1
 70
0
  0
VERTEX
  8
0
 62
7
  6
CONTINUOUS
 10
152.453125
 20
198.9903125439
  0
VERTEX
  8
0
 62
7
  6
CONTINUOUS
 10
152.4459435978
 20
199.1609724577
  0
VERTEX
  8
0
 62
7
  6
CONTINUOUS
 10
152.4250666526
 20
199.3197072662
  0
VERTEX
  8
0
 62
7
  6
CONTINUOUS
 10
152.3924454777
 20
199.4481404489
  0
VERTEX
  8
0
 62
7
  6
CONTINUOUS
 10
152.3515533051
 20
199.52952318
  0
SEQEND
  0
LINE
  8
DEFAULT_2
 62
8
  6
HIDDEN
 10
151.6834796399
 20
178.6398724317
 11
151.6835263494
 21
178.6390001372
  0
LINE
  8
DEFAULT_2
 62
8
  6
HIDDEN
 10
151.678125
 20
222.1075701337
 11
151.6835263494
 21
221.8775200993
  0
LINE
  8
DEFAULT_2
 62
8
  6
HIDDEN
 10
151.6834796399
 20
182.8958617095
 11
151.6835263494
 21
182.8947081342
  0
LINE
  8
DEFAULT_2
 62
8
  6
HIDDEN
 10
151.6834796399
 20
216.0739930467
 11
151.6835263494
 21
216.0727914214
  0
LINE
  8
DEFAULT_2
 62
8
  6
HIDDEN
 10
151.6834796399
 20
188.509136973
 11
151.6835263494
 21
188.5077807311
  0
LINE
  8
DEFAULT_2
 62
8
  6
HIDDEN
 10
151.6834796399
 20
209.3657822441
 11
151.6835263494
 21
209.3643957967
  0
LINE
  8
DEFAULT_2
 62
8
  6
HIDDEN
 10
151.6834796399
 20
195.0971627894
 11
151.6835263494
 21
195.0956963065
  0
LINE
  8
DEFAULT_2
 62
8
  6
HIDDEN
 10
151.6834796399
 20
202.2109760864
 11
151.6835263494
 21
202.2094993011
  0
LINE
  8
0
 62
7
  6
CONTINUOUS
 10
151.453125
 20
229.4624877086
 11
151.453125
 21
176.1625122914
  0
LINE
  8
DEFAULT_2
 62
8
  6
HIDDEN
 10
151.678125
 20
230.3625
 11
151.678125
 21
230.36125977
  0
LINE
  8
0
 62
7
  6
CONTINUOUS
 10
151.678125
 20
229.4902164047
 11
151.678125
 21
229.3549006834
  0
LINE
  8
0
 62
7
  6
CONTINUOUS
 10
151.678125
 20
226.8011307535
 11
151.678125
 21
226.5397208536
  0
LINE
  8
0
 62
7
  6
CONTINUOUS
 10
151.678125
 20
222.4772595596
 11
151.678125
 21
222.1075701337
  0
LINE
  8
0
 62
7
  6
CONTINUOUS
 10
151.678125
 20
216.8132674992
 11
151.678125
 21
216.3604922708
  0
LINE
  8
0
 62
7
  6
CONTINUOUS
 10
151.678125
 20
210.195146271
 11
151.678125
 21
209.6901411238
  0
LINE
  8
0
 62
7
  6
CONTINUOUS
 10
151.678125
 20
203.0739099
 11
151.678125
 21
202.5510901
  0
LINE
  8
0
 62
7
  6
CONTINUOUS
 10
151.678125
 20
195.9348588762
 11
151.678125
 21
195.429853729
  0
LINE
  8
0
 62
7
  6
CONTINUOUS
 10
151.678125
 20
189.2645077292
 11
151.678125
 21
188.8117325008
  0
LINE
  8
0
 62
7
  6
CONTINUOUS
 10
151.678125
 20
183.5174298663
 11
151.678125
 21
183.1477404404
  0
LINE
  8
0
 62
7
  6
CONTINUOUS
 10
151.678125
 20
179.0852791464
 11
151.678125
 21
178.8238692465
  0
LINE
  8
0
 62
7
  6
CONTINUOUS
 10
151.678125
 20
176.2700993166
 11
151.678125
 21
176.1347835953
  0
LINE
  8
DEFAULT_2
 62
8
  6
HIDDEN
 10
151.678125
 20
175.26374023
 11
151.678125
 21
175.2625
  0
LINE
  8
0
 62
7
  6
CONTINUOUS
 10
152.453125
 20
233.223244533
 11
152.453125
 21
233.1762784487
  0
LINE
  8
0
 62
7
  6
CONTINUOUS
 10
152.453125
 20
231.1977686335
 11
152.453125
 21
231.0600710416
  0
LINE
  8
0
 62
7
  6
CONTINUOUS
 10
152.453125
 20
227.2378835855
 11
152.453125
 21
227.0188383494
  0
LINE
  8
0
 62
7
  6
CONTINUOUS
 10
152.453125
 20
221.613449011
 11
152.453125
 21
221.3279837015
  0
LINE
  8
0
 62
7
  6
CONTINUOUS
 10
152.453125
 20
214.7077608315
 11
152.453125
 21
214.3753294377
  0
LINE
  8
0
 62
7
  6
CONTINUOUS
 10
152.453125
 20
206.9914302841
 11
152.453125
 21
206.6346874561
  0
LINE
  8
0
 62
7
  6
CONTINUOUS
 10
152.453125
 20
198.9903125439
 11
152.453125
 21
198.6335697159
  0
LINE
  8
0
 62
7
  6
CONTINUOUS
 10
152.453125
 20
191.2496705623
 11
152.453125
 21
190.9172391685
  0
LINE
  8
0
 62
7
  6
CONTINUOUS
 10
152.453125
 20
184.2970162985
 11
152.453125
 21
184.011550989
  0
LINE
  8
0
 62
7
  6
CONTINUOUS
 10
152.453125
 20
178.6061616506
 11
152.453125
 21
178.3871164145
  0
LINE
  8
0
 62
7
  6
CONTINUOUS
 10
152.453125
 20
174.5649289584
 11
152.453125
 21
174.4272313665
  0
LINE
  8
0
 62
7
  6
CONTINUOUS
 10
152.453125
 20
172.4487215513
 11
152.453125
 21
172.401755467
  0
POLYLINE
  8
0
 62
7
  6
CONTINUOUS
 66
1
 70
0
  0
VERTEX
  8
0
 62
7
  6
CONTINUOUS
 10
151.678125
 20
203.0739099
  0
VERTEX
  8
0
 62
7
  6
CONTINUOUS
 10
151.6835263494
 20
203.4155006989
  0
VERTEX
  8
0
 62
7
  6
CONTINUOUS
 10
151.7262739113
 20
204.0831702488
  0
VERTEX
  8
0
 62
7
  6
CONTINUOUS
 10
151.809423479
 20
204.7032409485
  0
VERTEX
  8
0
 62
7
  6
CONTINUOUS
 10
151.8647888515
 20
204.9852933529
  0
VERTEX
  8
0
 62
7
  6
CONTINUOUS
 10
151.9991873165
 20
205.4738225739
  0
VERTEX
  8
0
 62
7
  6
CONTINUOUS
 10
152.1581877964
 20
205.8368445881
  0
VERTEX
  8
0
 62
7
  6
CONTINUOUS
 10
152.2439982458
 20
205.96352644
  0
SEQEND
  0
POLYLINE
  8
0
 62
7
  6
CONTINUOUS
 66
1
 70
0
  0
VERTEX
  8
0
 62
7
  6
CONTINUOUS
 10
151.678125
 20
210.195146271
  0
VERTEX
  8
0
 62
7
  6
CONTINUOUS
 10
151.6835263494
 20
210.5293036935
  0
VERTEX
  8
0
 62
7
  6
CONTINUOUS
 10
151.7262739113
 20
211.2126498107
  0
VERTEX
  8
0
 62
7
  6
CONTINUOUS
 10
151.809423479
 20
211.888713552
  0
VERTEX
  8
0
 62
7
  6
CONTINUOUS
 10
151.8647888515
 20
212.2133478645
  0
VERTEX
  8
0
 62
7
  6
CONTINUOUS
 10
151.9991873165
 20
212.814137855
  0
VERTEX
  8
0
 62
7
  6
CONTINUOUS
 10
152.1581877964
 20
213.3209837672
  0
VERTEX
  8
0
 62
7
  6
CONTINUOUS
 10
152.2439982458
 20
213.5292385327
  0
SEQEND
  0
POLYLINE
  8
0
 62
7
  6
CONTINUOUS
 66
1
 70
0
  0
VERTEX
  8
0
 62
7
  6
CONTINUOUS
 10
151.678125
 20
195.9348588762
  0
VERTEX
  8
0
 62
7
  6
CONTINUOUS
 10
151.6835263494
 20
196.2606042033
  0
VERTEX
  8
0
 62
7
  6
CONTINUOUS
 10
151.7262739113
 20
196.8670966094
  0
VERTEX
  8
0
 62
7
  6
CONTINUOUS
 10
151.809423479
 20
197.3889174739
  0
VERTEX
  8
0
 62
7
  6
CONTINUOUS
 10
151.8647888515
 20
197.6091665649
  0
VERTEX
  8
0
 62
7
  6
CONTINUOUS
 10
151.9991873165
 20
197.9521425574
  0
VERTEX
  8
0
 62
7
  6
CONTINUOUS
 10
152.1581877964
 20
198.1466013232
  0
VERTEX
  8
0
 62
7
  6
CONTINUOUS
 10
152.2439982458
 20
198.1830771028
  0
SEQEND
  0
POLYLINE
  8
0
 62
7
  6
CONTINUOUS
 66
1
 70
0
  0
VERTEX
  8
0
 62
7
  6
CONTINUOUS
 10
151.678125
 20
216.8132674992
  0
VERTEX
  8
0
 62
7
  6
CONTINUOUS
 10
151.6835263494
 20
217.1172192689
  0
VERTEX
  8
0
 62
7
  6
CONTINUOUS
 10
151.7262739113
 20
217.7696730449
  0
VERTEX
  8
0
 62
7
  6
CONTINUOUS
 10
151.809423479
 20
218.4556572012
  0
VERTEX
  8
0
 62
7
  6
CONTINUOUS
 10
151.8647888515
 20
218.8007501299
  0
VERTEX
  8
0
 62
7
  6
CONTINUOUS
 10
151.9991873165
 20
219.4728580448
  0
VERTEX
  8
0
 62
7
  6
CONTINUOUS
 10
152.1581877964
 20
220.0889871437
  0
VERTEX
  8
0
 62
7
  6
CONTINUOUS
 10
152.2439982458
 20
220.3646226047
  0
SEQEND
  0
POLYLINE
  8
0
 62
7
  6
CONTINUOUS
 66
1
 70
0
  0
VERTEX
  8
0
 62
7
  6
CONTINUOUS
 10
151.678125
 20
189.2645077292
  0
VERTEX
  8
0
 62
7
  6
CONTINUOUS
 10
151.6835263494
 20
189.5522085786
  0
VERTEX
  8
0
 62
7
  6
CONTINUOUS
 10
151.7262739113
 20
190.0561923857
  0
VERTEX
  8
0
 62
7
  6
CONTINUOUS
 10
151.809423479
 20
190.4442021855
  0
VERTEX
  8
0
 62
7
  6
CONTINUOUS
 10
151.8647888515
 20
190.5876383516
  0
VERTEX
  8
0
 62
7
  6
CONTINUOUS
 10
151.9991873165
 20
190.7616878686
  0
VERTEX
  8
0
 62
7
  6
CONTINUOUS
 10
152.0885510386
 20
190.7892272636
  0
SEQEND
  0
POLYLINE
  8
0
 62
7
  6
CONTINUOUS
 66
1
 70
0
  0
VERTEX
  8
0
 62
7
  6
CONTINUOUS
 10
151.678125
 20
222.4772595596
  0
VERTEX
  8
0
 62
7
  6
CONTINUOUS
 10
151.6835263494
 20
222.7302918658
  0
VERTEX
  8
0
 62
7
  6
CONTINUOUS
 10
151.7262739113
 20
223.3073896539
  0
VERTEX
  8
0
 62
7
  6
CONTINUOUS
 10
151.809423479
 20
223.9565455386
  0
VERTEX
  8
0
 62
7
  6
CONTINUOUS
 10
151.8647888515
 20
224.2985795707
  0
VERTEX
  8
0
 62
7
  6
CONTINUOUS
 10
151.9991873165
 20
224.9962023663
  0
VERTEX
  8
0
 62
7
  6
CONTINUOUS
 10
152.1581877964
 20
225.6796264722
  0
VERTEX
  8
0
 62
7
  6
CONTINUOUS
 10
152.2439982458
 20
226.0038585274
  0
SEQEND
  0
POLYLINE
  8
0
 62
7
  6
CONTINUOUS
 66
1
 70
0
  0
VERTEX
  8
0
 62
7
  6
CONTINUOUS
 10
151.678125
 20
183.5174298663
  0
VERTEX
  8
0
 62
7
  6
CONTINUOUS
 10
151.6835263494
 20
183.7474799007
  0
VERTEX
  8
0
 62
7
  6
CONTINUOUS
 10
151.7262739113
 20
184.1146094452
  0
VERTEX
  8
0
 62
7
  6
CONTINUOUS
 10
151.809423479
 20
184.3423659537
  0
VERTEX
  8
0
 62
7
  6
CONTINUOUS
 10
151.8647888515
 20
184.3992142571
  0
VERTEX
  8
0
 62
7
  6
CONTINUOUS
 10
151.9229719596
 20
184.4163332996
  0
SEQEND
  0
POLYLINE
  8
0
 62
7
  6
CONTINUOUS
 66
1
 70
0
  0
VERTEX
  8
0
 62
7
  6
CONTINUOUS
 10
151.678125
 20
226.8011307535
  0
VERTEX
  8
0
 62
7
  6
CONTINUOUS
 10
151.6835263494
 20
226.9859998628
  0
VERTEX
  8
0
 62
7
  6
CONTINUOUS
 10
151.7262739113
 20
227.4484134025
  0
VERTEX
  8
0
 62
7
  6
CONTINUOUS
 10
151.809423479
 20
228.0165021148
  0
VERTEX
  8
0
 62
7
  6
CONTINUOUS
 10
151.8647888515
 20
228.3321681963
  0
VERTEX
  8
0
 62
7
  6
CONTINUOUS
 10
151.9991873165
 20
229.0077640319
  0
VERTEX
  8
0
 62
7
  6
CONTINUOUS
 10
152.1581877964
 20
229.7119089212
  0
VERTEX
  8
0
 62
7
  6
CONTINUOUS
 10
152.2439982458
 20
230.0626416919
  0
SEQEND
  0
POLYLINE
  8
0
 62
7
  6
CONTINUOUS
 66
1
 70
0
  0
VERTEX
  8
0
 62
7
  6
CONTINUOUS
 10
151.678125
 20
179.0852791464
  0
VERTEX
  8
0
 62
7
  6
CONTINUOUS
 10
151.6835263494
 20
179.2420008361
  0
VERTEX
  8
0
 62
7
  6
CONTINUOUS
 10
151.7262739113
 20
179.4472568463
  0
VERTEX
  8
0
 62
7
  6
CONTINUOUS
 10
151.7925623241
 20
179.5015527332
  0
SEQEND
  0
POLYLINE
  8
0
 62
7
  6
CONTINUOUS
 66
1
 70
0
  0
VERTEX
  8
0
 62
7
  6
CONTINUOUS
 10
151.678125
 20
229.4902164047
  0
VERTEX
  8
0
 62
7
  6
CONTINUOUS
 10
151.6835263494
 20
229.5943237928
  0
VERTEX
  8
0
 62
7
  6
CONTINUOUS
 10
151.7262739113
 20
229.9105403654
  0
VERTEX
  8
0
 62
7
  6
CONTINUOUS
 10
151.809423479
 20
230.3588475984
  0
VERTEX
  8
0
 62
7
  6
CONTINUOUS
 10
151.8647888515
 20
230.6266336075
  0
VERTEX
  8
0
 62
7
  6
CONTINUOUS
 10
151.9991873165
 20
231.2341617434
  0
VERTEX
  8
0
 62
7
  6
CONTINUOUS
 10
152.1581877964
 20
231.9110411057
  0
VERTEX
  8
0
 62
7
  6
CONTINUOUS
 10
152.2439982458
 20
232.2643727332
  0
SEQEND
  0
LINE
  8
DEFAULT_2
 62
8
  6
HIDDEN
 10
151.6835263494
 20
210.5293036935
 11
151.6834796399
 21
210.5278372106
  0
LINE
  8
DEFAULT_2
 62
8
  6
HIDDEN
 10
151.6835263494
 20
203.4155006989
 11
151.6834796399
 21
203.4140239136
  0
LINE
  8
DEFAULT_2
 62
8
  6
HIDDEN
 10
151.6835263494
 20
217.1172192689
 11
151.6834796399
 21
217.115863027
  0
LINE
  8
DEFAULT_2
 62
8
  6
HIDDEN
 10
151.6835263494
 20
196.2606042033
 11
151.6834796399
 21
196.2592177559
  0
LINE
  8
DEFAULT_2
 62
8
  6
HIDDEN
 10
151.6835263494
 20
222.7302918658
 11
151.6834796399
 21
222.7291382905
  0
LINE
  8
DEFAULT_2
 62
8
  6
HIDDEN
 10
152.453125
 20
231.0600710416
 11
152.4459435978
 21
230.9678401818
  0
LINE
  8
DEFAULT_2
 62
8
  6
HIDDEN
 10
151.6835263494
 20
189.5522085786
 11
151.6834796399
 21
189.5510069533
  0
LINE
  8
DEFAULT_2
 62
8
  6
HIDDEN
 10
151.6835263494
 20
226.9859998628
 11
151.6834796399
 21
226.9851275683
  0
LINE
  8
DEFAULT_2
 62
8
  6
HIDDEN
 10
151.7262739113
 20
217.7696730449
 11
151.7260558718
 21
217.767355388
  0
LINE
  8
DEFAULT_2
 62
8
  6
HIDDEN
 10
151.7262739113
 20
211.2126498107
 11
151.7260558718
 21
211.2102951791
  0
LINE
  8
DEFAULT_2
 62
8
  6
HIDDEN
 10
151.7262739113
 20
223.3073896539
 11
151.7260558718
 21
223.3052669162
  0
LINE
  8
DEFAULT_2
 62
8
  6
HIDDEN
 10
151.7262739113
 20
204.0831702488
 11
151.7260558718
 21
204.0809391068
  0
LINE
  8
DEFAULT_2
 62
8
  6
HIDDEN
 10
151.7262739113
 20
196.8670966094
 11
151.7260558718
 21
196.8651410055
  0
LINE
  8
DEFAULT_2
 62
8
  6
HIDDEN
 10
151.809423479
 20
218.4556572012
 11
151.8092281927
 21
218.454332377
  0
LINE
  8
DEFAULT_2
 62
8
  6
HIDDEN
 10
151.809423479
 20
211.888713552
 11
151.8092281927
 21
211.8874472694
  0
LINE
  8
DEFAULT_2
 62
8
  6
HIDDEN
 10
151.809423479
 20
204.7032409485
 11
151.8092281927
 21
204.7021195025
  0
LINE
  8
DEFAULT_2
 62
8
  6
HIDDEN
 10
151.9994608834
 20
212.81517028
 11
151.9991873165
 21
212.814137855
  0
LINE
  8
DEFAULT_2
 62
8
  6
HIDDEN
 10
151.9994608834
 20
205.4746166793
 11
151.9991873165
 21
205.4738225739
  0
LINE
  8
DEFAULT_2
 62
8
  6
HIDDEN
 10
152.1585012619
 20
213.321820214
 11
152.1581877964
 21
213.3209837672
  0
POLYLINE
  8
0
 62
7
  6
CONTINUOUS
 66
1
 70
0
  0
VERTEX
  8
0
 62
7
  6
CONTINUOUS
 10
152.3515533051
 20
213.7650068071
  0
VERTEX
  8
0
 62
7
  6
CONTINUOUS
 10
152.3923960021
 20
213.8837008586
  0
VERTEX
  8
0
 62
7
  6
CONTINUOUS
 10
152.4250998762
 20
214.0383683679
  0
VERTEX
  8
0
 62
7
  6
CONTINUOUS
 10
152.4459811337
 20
214.2088753054
  0
VERTEX
  8
0
 62
7
  6
CONTINUOUS
 10
152.453125
 20
214.3753294377
  0
SEQEND
  0
POLYLINE
  8
0
 62
7
  6
CONTINUOUS
 66
1
 70
0
  0
VERTEX
  8
0
 62
7
  6
CONTINUOUS
 10
152.3515533051
 20
206.09547682
  0
VERTEX
  8
0
 62
7
  6
CONTINUOUS
 10
152.3923960021
 20
206.1767177852
  0
VERTEX
  8
0
 62
7
  6
CONTINUOUS
 10
152.4250998762
 20
206.3054719164
  0
VERTEX
  8
0
 62
7
  6
CONTINUOUS
 10
152.4459811337
 20
206.4644703354
  0
VERTEX
  8
0
 62
7
  6
CONTINUOUS
 10
152.453125
 20
206.6346874561
  0
SEQEND
  0
POLYLINE
  8
DEFAULT_2
 62
8
  6
HIDDEN
 66
1
 70
0
  0
VERTEX
  8
DEFAULT_2
 62
8
  6
HIDDEN
 10
167.4032007946
 20
221.7866487651
  0
VERTEX
  8
DEFAULT_2
 62
8
  6
HIDDEN
 10
167.4118252719
 20
221.7920304181
  0
VERTEX
  8
DEFAULT_2
 62
8
  6
HIDDEN
 10
167.4314724967
 20
221.8592192741
  0
VERTEX
  8
DEFAULT_2
 62
8
  6
HIDDEN
 10
167.4391258767
 20
221.9207841253
  0
VERTEX
  8
DEFAULT_2
 62
8
  6
HIDDEN
 10
167.4495783155
 20
222.0960284353
  0
VERTEX
  8
DEFAULT_2
 62
8
  6
HIDDEN
 10
167.453125
 20
222.3332523483
  0
SEQEND
  0
POLYLINE
  8
DEFAULT_2
 62
8
  6
HIDDEN
 66
1
 70
0
  0
VERTEX
  8
DEFAULT_2
 62
8
  6
HIDDEN
 10
167.5511733969
 20
221.2086667029
  0
VERTEX
  8
DEFAULT_2
 62
8
  6
HIDDEN
 10
167.5660001446
 20
221.2174820728
  0
VERTEX
  8
DEFAULT_2
 62
8
  6
HIDDEN
 10
167.5958431862
 20
221.3058774375
  0
VERTEX
  8
DEFAULT_2
 62
8
  6
HIDDEN
 10
167.6181814719
 20
221.4868676774
  0
VERTEX
  8
DEFAULT_2
 62
8
  6
HIDDEN
 10
167.6321064623
 20
221.756589053
  0
VERTEX
  8
DEFAULT_2
 62
8
  6
HIDDEN
 10
167.6368511934
 20
222.1075701337
  0
SEQEND
  0
POLYLINE
  8
0
 62
7
  6
CONTINUOUS
 66
1
 70
0
  0
VERTEX
  8
0
 62
7
  6
CONTINUOUS
 10
175.983276891
 20
221.2086667003
  0
VERTEX
  8
0
 62
7
  6
CONTINUOUS
 10
176.0415360988
 20
221.2258324293
  0
VERTEX
  8
0
 62
7
  6
CONTINUOUS
 10
176.0970218073
 20
221.2829269294
  0
VERTEX
  8
0
 62
7
  6
CONTINUOUS
 10
176.1801941282
 20
221.5114231284
  0
VERTEX
  8
0
 62
7
  6
CONTINUOUS
 10
176.2227703601
 20
221.8784550138
  0
VERTEX
  8
0
 62
7
  6
CONTINUOUS
 10
176.228125
 20
222.1075701337
  0
SEQEND
  0
POLYLINE
  8
0
 62
7
  6
CONTINUOUS
 66
1
 70
0
  0
VERTEX
  8
0
 62
7
  6
CONTINUOUS
 10
175.8176989614
 20
190.7892272636
  0
VERTEX
  8
0
 62
7
  6
CONTINUOUS
 10
175.7480622036
 20
190.7743313424
  0
VERTEX
  8
0
 62
7
  6
CONTINUOUS
 10
175.6622517542
 20
190.7181152855
  0
SEQEND
  0
POLYLINE
  8
DEFAULT_2
 62
8
  6
HIDDEN
 66
1
 70
0
  0
VERTEX
  8
DEFAULT_2
 62
8
  6
HIDDEN
 10
167.4932465335
 20
190.7892272236
  0
VERTEX
  8
DEFAULT_2
 62
8
  6
HIDDEN
 10
167.4865992629
 20
190.7880957903
  0
VERTEX
  8
DEFAULT_2
 62
8
  6
HIDDEN
 10
167.4388212174
 20
190.7181152855
  0
SEQEND
  0
LINE
  8
0
 62
9
  6
CONTINUOUS
 10
151.678125
 20
188.8117325008
 11
160.2693988066
 21
188.8117325008
  0
LINE
  8
0
 62
9
  6
CONTINUOUS
 10
167.6368511934
 20
188.8117325008
 11
176.228125
 21
188.8117325008
  0
LINE
  8
0
 62
9
  6
CONTINUOUS
 10
151.678125
 20
189.2645077292
 11
160.2693988066
 21
189.2645077292
  0
LINE
  8
0
 62
9
  6
CONTINUOUS
 10
167.6368511934
 20
189.2645077292
 11
176.228125
 21
189.2645077292
  0
LINE
  8
DEFAULT_2
 62
8
  6
HIDDEN
 10
160.453125
 20
189.7330483534
 11
167.453125
 21
189.7330483534
  0
LINE
  8
0
 62
7
  6
CONTINUOUS
 10
175.5288871039
 20
190.6112891005
 11
152.3773628961
 21
190.6112891005
  0
LINE
  8
DEFAULT_2
 62
8
  6
HIDDEN
 10
160.5189479116
 20
190.615087697
 11
167.3873020884
 21
190.615087697
  0
LINE
  8
DEFAULT_2
 62
8
  6
HIDDEN
 10
175.5546966949
 20
190.623141097
 11
152.3515533051
 21
190.623141097
  0
LINE
  8
DEFAULT_2
 62
8
  6
HIDDEN
 10
152.2439982458
 20
190.7181152855
 11
175.6622517542
 21
190.7181152855
  0
LINE
  8
DEFAULT_2
 62
8
  6
HIDDEN
 10
160.453125
 20
190.7498449779
 11
167.453125
 21
190.7498449779
  0
LINE
  8
DEFAULT_2
 62
8
  6
HIDDEN
 10
152.0888529302
 20
190.7892272641
 11
160.413213919
 21
190.7892272641
  0
LINE
  8
DEFAULT_2
 62
8
  6
HIDDEN
 10
167.493036081
 20
190.7892272641
 11
175.8173970698
 21
190.7892272641
  0
LINE
  8
0
 62
9
  6
CONTINUOUS
 10
175.453125
 20
190.9172391685
 11
152.453125
 21
190.9172391685
  0
LINE
  8
0
 62
9
  6
CONTINUOUS
 10
175.453125
 20
191.2496705623
 11
152.453125
 21
191.2496705623
  0
POLYLINE
  8
0
 62
7
  6
CONTINUOUS
 66
1
 70
0
  0
VERTEX
  8
0
 62
7
  6
CONTINUOUS
 10
152.0885510386
 20
190.7892272636
  0
VERTEX
  8
0
 62
7
  6
CONTINUOUS
 10
152.1581877964
 20
190.7743313424
  0
VERTEX
  8
0
 62
7
  6
CONTINUOUS
 10
152.2439982458
 20
190.7181152855
  0
SEQEND
  0
LINE
  8
DEFAULT_2
 62
8
  6
HIDDEN
 10
152.1585012619
 20
190.7741995455
 11
152.1583341747
 21
190.7742354472
  0
POLYLINE
  8
DEFAULT_2
 62
8
  6
HIDDEN
 66
1
 70
0
  0
VERTEX
  8
DEFAULT_2
 62
8
  6
HIDDEN
 10
160.5141532914
 20
190.6112891005
  0
VERTEX
  8
DEFAULT_2
 62
8
  6
HIDDEN
 10
160.5098890687
 20
190.6140043602
  0
VERTEX
  8
DEFAULT_2
 62
8
  6
HIDDEN
 10
160.5050681762
 20
190.623141097
  0
SEQEND
  0
POLYLINE
  8
0
 62
7
  6
CONTINUOUS
 66
1
 70
0
  0
VERTEX
  8
0
 62
7
  6
CONTINUOUS
 10
152.2439982458
 20
199.66147356
  0
VERTEX
  8
0
 62
7
  6
CONTINUOUS
 10
152.1585012619
 20
199.7876121958
  0
VERTEX
  8
0
 62
7
  6
CONTINUOUS
 10
151.9994608834
 20
200.1503833207
  0
VERTEX
  8
0
 62
7
  6
CONTINUOUS
 10
151.8647139012
 20
200.64004714
  0
VERTEX
  8
0
 62
7
  6
CONTINUOUS
 10
151.8092281927
 20
200.9228804975
  0
VERTEX
  8
0
 62
7
  6
CONTINUOUS
 10
151.7260558718
 20
201.5440608932
  0
VERTEX
  8
0
 62
7
  6
CONTINUOUS
 10
151.6834796399
 20
202.2109760864
  0
VERTEX
  8
0
 62
7
  6
CONTINUOUS
 10
151.678125
 20
202.5510901
  0
SEQEND
  0
LINE
  8
DEFAULT_2
 62
8
  6
HIDDEN
 10
151.9991873165
 20
200.1511774261
 11
151.9994608834
 21
200.1503833207
  0
POLYLINE
  8
0
 62
7
  6
CONTINUOUS
 66
1
 70
0
  0
VERTEX
  8
0
 62
7
  6
CONTINUOUS
 10
152.2439982458
 20
192.0957614673
  0
VERTEX
  8
0
 62
7
  6
CONTINUOUS
 10
152.1585012619
 20
192.303179786
  0
VERTEX
  8
0
 62
7
  6
CONTINUOUS
 10
151.9994608834
 20
192.80982972
  0
VERTEX
  8
0
 62
7
  6
CONTINUOUS
 10
151.8647139012
 20
193.4120520639
  0
VERTEX
  8
0
 62
7
  6
CONTINUOUS
 10
151.8092281927
 20
193.7375527306
  0
VERTEX
  8
0
 62
7
  6
CONTINUOUS
 10
151.7260558718
 20
194.4147048209
  0
VERTEX
  8
0
 62
7
  6
CONTINUOUS
 10
151.6834796399
 20
195.0971627894
  0
VERTEX
  8
0
 62
7
  6
CONTINUOUS
 10
151.678125
 20
195.429853729
  0
SEQEND
  0
LINE
  8
DEFAULT_2
 62
8
  6
HIDDEN
 10
152.1581877964
 20
192.3040162328
 11
152.1585012619
 21
192.303179786
  0
LINE
  8
DEFAULT_2
 62
8
  6
HIDDEN
 10
151.9991873165
 20
192.810862145
 11
151.9994608834
 21
192.80982972
  0
LINE
  8
DEFAULT_2
 62
8
  6
HIDDEN
 10
151.8092281927
 20
208.2369827109
 11
151.809423479
 21
208.2360825261
  0
LINE
  8
DEFAULT_2
 62
8
  6
HIDDEN
 10
151.8092281927
 20
200.9228804975
 11
151.809423479
 21
200.9217590515
  0
LINE
  8
DEFAULT_2
 62
8
  6
HIDDEN
 10
151.8092281927
 20
181.6697475425
 11
151.809423479
 21
181.6684544614
  0
LINE
  8
DEFAULT_2
 62
8
  6
HIDDEN
 10
151.8092281927
 20
193.7375527306
 11
151.809423479
 21
193.736286448
  0
LINE
  8
DEFAULT_2
 62
8
  6
HIDDEN
 10
151.8092281927
 20
187.170667623
 11
151.809423479
 21
187.1693427988
  0
POLYLINE
  8
0
 62
7
  6
CONTINUOUS
 66
1
 70
0
  0
VERTEX
  8
0
 62
7
  6
CONTINUOUS
 10
152.453125
 20
227.2378835855
  0
VERTEX
  8
0
 62
7
  6
CONTINUOUS
 10
152.4459435978
 20
227.3163126394
  0
VERTEX
  8
0
 62
7
  6
CONTINUOUS
 10
152.4281142377
 20
227.3394270808
  0
SEQEND
  0
POLYLINE
  8
0
 62
7
  6
CONTINUOUS
 66
1
 70
0
  0
VERTEX
  8
0
 62
7
  6
CONTINUOUS
 10
152.453125
 20
221.613449011
  0
VERTEX
  8
0
 62
7
  6
CONTINUOUS
 10
152.4459435978
 20
221.7284892297
  0
VERTEX
  8
0
 62
7
  6
CONTINUOUS
 10
152.4250666526
 20
221.7944776113
  0
VERTEX
  8
0
 62
7
  6
CONTINUOUS
 10
152.405455241
 20
221.8067451102
  0
SEQEND
  0
POLYLINE
  8
0
 62
7
  6
CONTINUOUS
 66
1
 70
0
  0
VERTEX
  8
0
 62
7
  6
CONTINUOUS
 10
152.453125
 20
214.7077608315
  0
VERTEX
  8
0
 62
7
  6
CONTINUOUS
 10
152.4459435978
 20
214.851572414
  0
VERTEX
  8
0
 62
7
  6
CONTINUOUS
 10
152.4250666526
 20
214.9563342185
  0
VERTEX
  8
0
 62
7
  6
CONTINUOUS
 10
152.3924454777
 20
215.0091726563
  0
VERTEX
  8
0
 62
7
  6
CONTINUOUS
 10
152.3775130918
 20
215.0137108971
  0
SEQEND
  0
POLYLINE
  8
0
 62
7
  6
CONTINUOUS
 66
1
 70
0
  0
VERTEX
  8
0
 62
7
  6
CONTINUOUS
 10
151.678125
 20
176.2700993166
  0
VERTEX
  8
0
 62
7
  6
CONTINUOUS
 10
151.6835263494
 20
176.3428123374
  0
VERTEX
  8
0
 62
7
  6
CONTINUOUS
 10
151.7084666064
 20
176.3798197497
  0
SEQEND
  0
LINE
  8
DEFAULT_2
 62
8
  6
HIDDEN
 10
151.6835263494
 20
183.7474799007
 11
151.6834796399
 21
183.7465449862
  0
LINE
  8
DEFAULT_2
 62
8
  6
HIDDEN
 10
151.7260558718
 20
179.4468088618
 11
151.6834796399
 21
179.2413963453
  0
LINE
  8
DEFAULT_2
 62
8
  6
HIDDEN
 10
151.7262739113
 20
190.0561923857
 11
151.7260558718
 21
190.0546455913
  0
POLYLINE
  8
DEFAULT_2
 62
8
  6
HIDDEN
 66
1
 70
0
  0
VERTEX
  8
DEFAULT_2
 62
8
  6
HIDDEN
 10
160.453125
 20
221.4743280844
  0
VERTEX
  8
DEFAULT_2
 62
8
  6
HIDDEN
 10
160.4254143672
 20
221.3543748454
  0
VERTEX
  8
DEFAULT_2
 62
8
  6
HIDDEN
 10
160.3740386213
 20
221.2210572531
  0
VERTEX
  8
DEFAULT_2
 62
8
  6
HIDDEN
 10
160.3550776209
 20
221.2086667
  0
SEQEND
  0
LINE
  8
DEFAULT_2
 62
8
  6
HIDDEN
 10
160.4944247281
 20
227.1992272253
 11
160.5189479116
 21
227.2999078962
  0
LINE
  8
DEFAULT_2
 62
8
  6
HIDDEN
 10
151.809423479
 20
197.3889174739
 11
151.8092281927
 21
197.3880172891
  0
LINE
  8
DEFAULT_2
 62
8
  6
HIDDEN
 10
160.5050681762
 20
215.001858903
 11
160.4674287826
 21
214.9068847145
  0
POLYLINE
  8
DEFAULT_2
 62
8
  6
HIDDEN
 66
1
 70
0
  0
VERTEX
  8
DEFAULT_2
 62
8
  6
HIDDEN
 10
167.4452457045
 20
230.791048629
  0
VERTEX
  8
DEFAULT_2
 62
8
  6
HIDDEN
 10
167.4495783155
 20
230.8005016764
  0
VERTEX
  8
DEFAULT_2
 62
8
  6
HIDDEN
 10
167.453125
 20
230.8766269392
  0
SEQEND
  0
POLYLINE
  8
DEFAULT_2
 62
8
  6
HIDDEN
 66
1
 70
0
  0
VERTEX
  8
DEFAULT_2
 62
8
  6
HIDDEN
 10
167.626230018
 20
229.2451802496
  0
VERTEX
  8
DEFAULT_2
 62
8
  6
HIDDEN
 10
167.6321064623
 20
229.2574261422
  0
VERTEX
  8
DEFAULT_2
 62
8
  6
HIDDEN
 10
167.6368511934
 20
229.3549006834
  0
SEQEND
  0
POLYLINE
  8
DEFAULT_2
 62
8
  6
HIDDEN
 66
1
 70
0
  0
VERTEX
  8
DEFAULT_2
 62
8
  6
HIDDEN
 10
160.5050681762
 20
215.001858903
  0
VERTEX
  8
DEFAULT_2
 62
8
  6
HIDDEN
 10
160.5098876562
 20
215.010993875
  0
VERTEX
  8
DEFAULT_2
 62
8
  6
HIDDEN
 10
160.5141532462
 20
215.0137108995
  0
SEQEND
  0
POLYLINE
  8
DEFAULT_2
 62
8
  6
HIDDEN
 66
1
 70
0
  0
VERTEX
  8
DEFAULT_2
 62
8
  6
HIDDEN
 10
167.4282751994
 20
227.1734464977
  0
VERTEX
  8
DEFAULT_2
 62
8
  6
HIDDEN
 10
167.4391258767
 20
227.1915543417
  0
VERTEX
  8
DEFAULT_2
 62
8
  6
HIDDEN
 10
167.4495783155
 20
227.2820445681
  0
VERTEX
  8
DEFAULT_2
 62
8
  6
HIDDEN
 10
167.453125
 20
227.444246037
  0
SEQEND
  0
LINE
  8
0
 62
7
  6
CONTINUOUS
 10
152.3515533051
 20
206.09547682
 11
152.2439982458
 21
205.96352644
  0
POLYLINE
  8
DEFAULT_2
 62
8
  6
HIDDEN
 66
1
 70
0
  0
VERTEX
  8
DEFAULT_2
 62
8
  6
HIDDEN
 10
167.5511723791
 20
221.2086667
  0
VERTEX
  8
DEFAULT_2
 62
8
  6
HIDDEN
 10
167.5757916964
 20
221.2343375483
  0
VERTEX
  8
DEFAULT_2
 62
8
  6
HIDDEN
 10
167.5938310284
 20
221.2958891289
  0
VERTEX
  8
DEFAULT_2
 62
8
  6
HIDDEN
 10
167.6210347767
 20
221.524719383
  0
VERTEX
  8
DEFAULT_2
 62
8
  6
HIDDEN
 10
167.6320510708
 20
221.806745112
  0
SEQEND
  0
LINE
  8
DEFAULT_2
 62
8
  6
HIDDEN
 10
160.453125
 20
214.8751550221
 11
160.4130407398
 21
214.8357727359
  0
POLYLINE
  8
0
 62
7
  6
CONTINUOUS
 66
1
 70
0
  0
VERTEX
  8
0
 62
7
  6
CONTINUOUS
 10
176.1136910163
 20
226.1234472683
  0
VERTEX
  8
0
 62
7
  6
CONTINUOUS
 10
176.1801941282
 20
226.1781911382
  0
VERTEX
  8
0
 62
7
  6
CONTINUOUS
 10
176.2227703601
 20
226.3836036547
  0
VERTEX
  8
0
 62
7
  6
CONTINUOUS
 10
176.228125
 20
226.5397208536
  0
SEQEND
  0
LINE
  8
DEFAULT_2
 62
8
  6
HIDDEN
 10
167.3920967538
 20
215.0137108995
 11
167.3873020884
 21
215.009912303
  0
POLYLINE
  8
0
 62
7
  6
CONTINUOUS
 66
1
 70
0
  0
VERTEX
  8
0
 62
7
  6
CONTINUOUS
 10
175.8176881
 20
214.8357727359
  0
VERTEX
  8
0
 62
7
  6
CONTINUOUS
 10
175.9067891166
 20
214.8631370871
  0
VERTEX
  8
0
 62
7
  6
CONTINUOUS
 10
176.0415360988
 20
215.0375192897
  0
VERTEX
  8
0
 62
7
  6
CONTINUOUS
 10
176.0970218073
 20
215.1814153918
  0
VERTEX
  8
0
 62
7
  6
CONTINUOUS
 10
176.1801941282
 20
215.5703544087
  0
VERTEX
  8
0
 62
7
  6
CONTINUOUS
 10
176.2227703601
 20
216.0739930467
  0
VERTEX
  8
0
 62
7
  6
CONTINUOUS
 10
176.228125
 20
216.3604922708
  0
SEQEND
  0
LINE
  8
DEFAULT_2
 62
8
  6
HIDDEN
 10
167.3873020884
 20
191.7456667606
 11
160.5189479116
 21
191.7456667606
  0
LINE
  8
0
 62
9
  6
CONTINUOUS
 10
175.5546966949
 20
191.8599931929
 11
152.3515533051
 21
191.8599931929
  0
LINE
  8
0
 62
9
  6
CONTINUOUS
 10
152.2439982458
 20
192.0957614673
 11
175.6622517542
 21
192.0957614673
  0
LINE
  8
0
 62
7
  6
CONTINUOUS
 10
160.453125
 20
192.1898678809
 11
167.453125
 21
192.1898678809
  0
LINE
  8
DEFAULT_2
 62
8
  6
HIDDEN
 10
167.453125
 20
193.2455109679
 11
160.453125
 21
193.2455109679
  0
LINE
  8
0
 62
9
  6
CONTINUOUS
 10
151.678125
 20
195.429853729
 11
160.2693988066
 21
195.429853729
  0
LINE
  8
0
 62
9
  6
CONTINUOUS
 10
167.6368511934
 20
195.429853729
 11
176.228125
 21
195.429853729
  0
POLYLINE
  8
0
 62
7
  6
CONTINUOUS
 66
1
 70
0
  0
VERTEX
  8
0
 62
7
  6
CONTINUOUS
 10
175.5287427219
 20
190.6112891011
  0
VERTEX
  8
0
 62
7
  6
CONTINUOUS
 10
175.5138539979
 20
190.6157962423
  0
VERTEX
  8
0
 62
7
  6
CONTINUOUS
 10
175.4811501238
 20
190.6687643871
  0
VERTEX
  8
0
 62
7
  6
CONTINUOUS
 10
175.4602688663
 20
190.7737620371
  0
VERTEX
  8
0
 62
7
  6
CONTINUOUS
 10
175.453125
 20
190.9172391685
  0
SEQEND
  0
POLYLINE
  8
0
 62
7
  6
CONTINUOUS
 66
1
 70
0
  0
VERTEX
  8
0
 62
7
  6
CONTINUOUS
 10
175.5007961152
 20
183.8182548893
  0
VERTEX
  8
0
 62
7
  6
CONTINUOUS
 10
175.4811501238
 20
183.8305690864
  0
VERTEX
  8
0
 62
7
  6
CONTINUOUS
 10
175.4602688663
 20
183.8967545491
  0
VERTEX
  8
0
 62
7
  6
CONTINUOUS
 10
175.453125
 20
184.011550989
  0
SEQEND
  0
LINE
  8
DEFAULT_2
 62
8
  6
HIDDEN
 10
167.3873020884
 20
190.615087697
 11
167.3920967086
 21
190.6112891005
  0
LINE
  8
DEFAULT_2
 62
8
  6
HIDDEN
 10
160.4130397543
 20
190.789227264
 11
160.453125
 21
190.7498449779
  0
LINE
  8
0
 62
7
  6
CONTINUOUS
 10
152.2439982458
 20
199.66147356
 11
152.3515533051
 21
199.52952318
  0
POLYLINE
  8
DEFAULT_2
 62
8
  6
HIDDEN
 66
1
 70
0
  0
VERTEX
  8
DEFAULT_2
 62
8
  6
HIDDEN
 10
160.4674287826
 20
190.7181152855
  0
VERTEX
  8
DEFAULT_2
 62
8
  6
HIDDEN
 10
160.4194540448
 20
190.7881617297
  0
VERTEX
  8
DEFAULT_2
 62
8
  6
HIDDEN
 10
160.4130019742
 20
190.7892272203
  0
SEQEND
  0
POLYLINE
  8
DEFAULT_2
 62
8
  6
HIDDEN
 66
1
 70
0
  0
VERTEX
  8
DEFAULT_2
 62
8
  6
HIDDEN
 10
160.5189479116
 20
183.8230397325
  0
VERTEX
  8
DEFAULT_2
 62
8
  6
HIDDEN
 10
160.5145349415
 20
183.8340761695
  0
VERTEX
  8
DEFAULT_2
 62
8
  6
HIDDEN
 10
160.5098890687
 20
183.8513829745
  0
VERTEX
  8
DEFAULT_2
 62
8
  6
HIDDEN
 10
160.5050681762
 20
183.8747494714
  0
SEQEND
  0
LINE
  8
DEFAULT_2
 62
8
  6
HIDDEN
 10
160.4674287826
 20
190.7181152855
 11
160.5050681762
 21
190.623141097
  0
POLYLINE
  8
DEFAULT_2
 62
8
  6
HIDDEN
 66
1
 70
0
  0
VERTEX
  8
DEFAULT_2
 62
8
  6
HIDDEN
 10
160.5189479116
 20
178.3250921038
  0
VERTEX
  8
DEFAULT_2
 62
8
  6
HIDDEN
 10
160.4944247281
 20
178.4257727747
  0
VERTEX
  8
DEFAULT_2
 62
8
  6
HIDDEN
 10
160.4779748006
 20
178.4515535023
  0
SEQEND
  0
POLYLINE
  8
DEFAULT_2
 62
8
  6
HIDDEN
 66
1
 70
0
  0
VERTEX
  8
DEFAULT_2
 62
8
  6
HIDDEN
 10
160.4674287826
 20
184.0773657996
  0
VERTEX
  8
DEFAULT_2
 62
8
  6
HIDDEN
 10
160.4194540448
 20
184.2923888579
  0
VERTEX
  8
DEFAULT_2
 62
8
  6
HIDDEN
 10
160.376810939
 20
184.400219539
  0
VERTEX
  8
DEFAULT_2
 62
8
  6
HIDDEN
 10
160.3550766028
 20
184.4163332971
  0
SEQEND
  0
POLYLINE
  8
DEFAULT_2
 62
8
  6
HIDDEN
 66
1
 70
0
  0
VERTEX
  8
DEFAULT_2
 62
8
  6
HIDDEN
 10
160.5189479116
 20
178.3250921038
  0
VERTEX
  8
DEFAULT_2
 62
8
  6
HIDDEN
 10
160.5145349415
 20
178.3501885827
  0
VERTEX
  8
DEFAULT_2
 62
8
  6
HIDDEN
 10
160.5098890687
 20
178.3809303794
  0
VERTEX
  8
DEFAULT_2
 62
8
  6
HIDDEN
 10
160.5050681762
 20
178.4169342483
  0
SEQEND
  0
LINE
  8
DEFAULT_2
 62
8
  6
HIDDEN
 10
151.7260558718
 20
221.5114231284
 11
151.7262739113
 21
221.5103905548
  0
POLYLINE
  8
DEFAULT_2
 62
8
  6
HIDDEN
 66
1
 70
0
  0
VERTEX
  8
DEFAULT_2
 62
8
  6
HIDDEN
 10
160.5050681762
 20
184.9368584447
  0
VERTEX
  8
DEFAULT_2
 62
8
  6
HIDDEN
 10
160.5098876562
 20
184.8927851091
  0
VERTEX
  8
DEFAULT_2
 62
8
  6
HIDDEN
 10
160.5145336829
 20
184.844923539
  0
VERTEX
  8
DEFAULT_2
 62
8
  6
HIDDEN
 10
160.5189479116
 20
184.7938899841
  0
SEQEND
  0
LINE
  8
DEFAULT_2
 62
8
  6
HIDDEN
 10
160.2741435249
 20
175.2199089974
 11
160.2694128904
 21
175.2638752822
  0
LINE
  8
DEFAULT_2
 62
8
  6
HIDDEN
 10
160.4674287826
 20
174.9917185754
 11
160.4194540448
 21
175.4438531566
  0
LINE
  8
DEFAULT_2
 62
8
  6
HIDDEN
 10
160.4747775033
 20
173.0490014948
 11
160.4671241233
 21
173.1220551634
  0
LINE
  8
DEFAULT_2
 62
8
  6
HIDDEN
 10
160.4196507017
 20
185.7163651836
 11
160.4674287826
 21
185.2603773953
  0
POLYLINE
  8
0
 62
7
  6
CONTINUOUS
 66
1
 70
0
  0
VERTEX
  8
0
 62
7
  6
CONTINUOUS
 10
160.453125
 20
185.3872476162
  0
VERTEX
  8
0
 62
7
  6
CONTINUOUS
 10
160.4254143672
 20
185.6562837427
  0
VERTEX
  8
0
 62
7
  6
CONTINUOUS
 10
160.3740386213
 20
186.2508008178
  0
VERTEX
  8
0
 62
7
  6
CONTINUOUS
 10
160.3304583036
 20
186.8956107031
  0
VERTEX
  8
0
 62
7
  6
CONTINUOUS
 10
160.3124189716
 20
187.2269368665
  0
VERTEX
  8
0
 62
7
  6
CONTINUOUS
 10
160.2852152233
 20
187.8871299047
  0
VERTEX
  8
0
 62
7
  6
CONTINUOUS
 10
160.2711744365
 20
188.5174095283
  0
VERTEX
  8
0
 62
7
  6
CONTINUOUS
 10
160.2693988066
 20
188.8117325008
  0
SEQEND
  0
LINE
  8
DEFAULT_2
 62
8
  6
HIDDEN
 10
160.4674287826
 20
174.9917185754
 11
160.5098890687
 21
174.5754488789
  0
LINE
  8
DEFAULT_2
 62
8
  6
HIDDEN
 10
160.2711763223
 20
175.2485541289
 11
160.3124284146
 21
174.8312250408
  0
LINE
  8
DEFAULT_2
 62
8
  6
HIDDEN
 10
160.5189479116
 20
172.5964776811
 11
160.4747775033
 21
173.0490014948
  0
LINE
  8
DEFAULT_2
 62
8
  6
HIDDEN
 10
160.376810939
 20
174.1542304026
 11
160.3104067375
 21
174.8520952775
  0
POLYLINE
  8
DEFAULT_2
 62
8
  6
HIDDEN
 66
1
 70
0
  0
VERTEX
  8
DEFAULT_2
 62
8
  6
HIDDEN
 10
160.4674287826
 20
179.6211414726
  0
VERTEX
  8
DEFAULT_2
 62
8
  6
HIDDEN
 10
160.5098876562
 20
179.1800316453
  0
VERTEX
  8
DEFAULT_2
 62
8
  6
HIDDEN
 10
160.5145336829
 20
179.1258437864
  0
VERTEX
  8
DEFAULT_2
 62
8
  6
HIDDEN
 10
160.5189479116
 20
179.0700517031
  0
SEQEND
  0
LINE
  8
DEFAULT_2
 62
8
  6
HIDDEN
 10
160.3740299345
 20
174.1839265268
 11
160.453125
 21
173.3245925941
  0
LINE
  8
DEFAULT_2
 62
8
  6
HIDDEN
 10
160.4196507017
 20
180.1506440366
 11
160.4674287826
 21
179.6211414726
  0
LINE
  8
DEFAULT_2
 62
8
  6
HIDDEN
 10
160.4194540448
 20
173.6941034122
 11
160.5098879536
 21
172.694287973
  0
POLYLINE
  8
0
 62
7
  6
CONTINUOUS
 66
1
 70
0
  0
VERTEX
  8
0
 62
7
  6
CONTINUOUS
 10
160.453125
 20
179.7721295049
  0
VERTEX
  8
0
 62
7
  6
CONTINUOUS
 10
160.4254143672
 20
180.0827975719
  0
VERTEX
  8
0
 62
7
  6
CONTINUOUS
 10
160.3740386213
 20
180.7340092798
  0
VERTEX
  8
0
 62
7
  6
CONTINUOUS
 10
160.3304583036
 20
181.3980071506
  0
VERTEX
  8
0
 62
7
  6
CONTINUOUS
 10
160.3124189716
 20
181.7245285391
  0
VERTEX
  8
0
 62
7
  6
CONTINUOUS
 10
160.2852152233
 20
182.3466957842
  0
VERTEX
  8
0
 62
7
  6
CONTINUOUS
 10
160.2711744365
 20
182.9028935608
  0
VERTEX
  8
0
 62
7
  6
CONTINUOUS
 10
160.2693988066
 20
183.1477404404
  0
SEQEND
  0
LINE
  8
DEFAULT_2
 62
8
  6
HIDDEN
 10
160.2693988066
 20
175.2625
 11
160.453125
 21
173.1625
  0
LINE
  8
DEFAULT_2
 62
8
  6
HIDDEN
 10
160.4674287826
 20
175.5623583081
 11
160.5098876562
 21
175.0777918454
  0
LINE
  8
DEFAULT_2
 62
8
  6
HIDDEN
 10
160.4196507017
 20
173.9263544119
 11
160.5098877543
 21
172.865625409
  0
POLYLINE
  8
0
 62
7
  6
CONTINUOUS
 66
1
 70
0
  0
VERTEX
  8
0
 62
7
  6
CONTINUOUS
 10
160.453125
 20
173.5280397965
  0
VERTEX
  8
0
 62
7
  6
CONTINUOUS
 10
160.4254143672
 20
173.8570628541
  0
VERTEX
  8
0
 62
7
  6
CONTINUOUS
 10
160.3819737056
 20
174.3902863197
  0
SEQEND
  0
LINE
  8
DEFAULT_2
 62
8
  6
HIDDEN
 10
160.4196507017
 20
176.129290923
 11
160.4254143672
 21
176.0583030589
  0
LINE
  8
DEFAULT_2
 62
8
  6
HIDDEN
 10
160.453125
 20
175.7271745669
 11
160.4674287826
 21
175.5623583081
  0
POLYLINE
  8
0
 62
7
  6
CONTINUOUS
 66
1
 70
0
  0
VERTEX
  8
0
 62
7
  6
CONTINUOUS
 10
160.453125
 20
175.7271745669
  0
VERTEX
  8
0
 62
7
  6
CONTINUOUS
 10
160.4254143672
 20
176.0583030589
  0
VERTEX
  8
0
 62
7
  6
CONTINUOUS
 10
160.3740386213
 20
176.7218303979
  0
VERTEX
  8
0
 62
7
  6
CONTINUOUS
 10
160.3304583036
 20
177.3597658965
  0
VERTEX
  8
0
 62
7
  6
CONTINUOUS
 10
160.3124189716
 20
177.6592306173
  0
VERTEX
  8
0
 62
7
  6
CONTINUOUS
 10
160.2852152233
 20
178.2009723998
  0
VERTEX
  8
0
 62
7
  6
CONTINUOUS
 10
160.2825411445
 20
178.2855729167
  0
SEQEND
  0
LINE
  8
DEFAULT_2
 62
8
  6
HIDDEN
 10
160.5098877543
 20
172.865625409
 11
160.5189479116
 21
172.7562064931
  0
LINE
  8
DEFAULT_2
 62
8
  6
HIDDEN
 10
160.5098876562
 20
175.0777918454
 11
160.5189479116
 21
174.9642220373
  0
LINE
  8
DEFAULT_2
 62
8
  6
HIDDEN
 10
160.3740386213
 20
174.4876875325
 11
160.3304583036
 21
175.056086409
  0
POLYLINE
  8
DEFAULT_2
 62
8
  6
HIDDEN
 66
1
 70
0
  0
VERTEX
  8
DEFAULT_2
 62
8
  6
HIDDEN
 10
160.3106629602
 20
175.3334652956
  0
VERTEX
  8
DEFAULT_2
 62
8
  6
HIDDEN
 10
160.3405802068
 20
174.9199922055
  0
VERTEX
  8
DEFAULT_2
 62
8
  6
HIDDEN
 10
160.3819737056
 20
174.3902863197
  0
SEQEND
  0
LINE
  8
DEFAULT_2
 62
8
  6
HIDDEN
 10
160.3740386213
 20
176.7218303979
 11
160.3771298613
 21
176.6796919548
  0
POLYLINE
  8
DEFAULT_2
 62
8
  6
HIDDEN
 66
1
 70
0
  0
VERTEX
  8
DEFAULT_2
 62
8
  6
HIDDEN
 10
160.3124189716
 20
175.3080864361
  0
VERTEX
  8
DEFAULT_2
 62
8
  6
HIDDEN
 10
160.2852152233
 20
175.7324839488
  0
VERTEX
  8
DEFAULT_2
 62
8
  6
HIDDEN
 10
160.2711744365
 20
176.0344378009
  0
VERTEX
  8
DEFAULT_2
 62
8
  6
HIDDEN
 10
160.2693988066
 20
176.1347835953
  0
SEQEND
  0
LINE
  8
DEFAULT_2
 62
8
  6
HIDDEN
 10
160.3106629602
 20
177.6901296454
 11
160.3124189716
 21
177.6592306173
  0
LINE
  8
DEFAULT_2
 62
8
  6
HIDDEN
 10
160.3304583036
 20
177.3597658965
 11
160.3405802068
 21
177.2028147046
  0
LINE
  8
DEFAULT_2
 62
8
  6
HIDDEN
 10
160.3106629602
 20
181.7588420182
 11
160.3124189716
 21
181.7245285391
  0
POLYLINE
  8
DEFAULT_2
 62
8
  6
HIDDEN
 66
1
 70
0
  0
VERTEX
  8
DEFAULT_2
 62
8
  6
HIDDEN
 10
160.3304583036
 20
181.3980071506
  0
VERTEX
  8
DEFAULT_2
 62
8
  6
HIDDEN
 10
160.3405802068
 20
181.2308949345
  0
VERTEX
  8
DEFAULT_2
 62
8
  6
HIDDEN
 10
160.3771298613
 20
180.6915044913
  0
SEQEND
  0
POLYLINE
  8
DEFAULT_2
 62
8
  6
HIDDEN
 66
1
 70
0
  0
VERTEX
  8
DEFAULT_2
 62
8
  6
HIDDEN
 10
160.453125
 20
173.7247586196
  0
VERTEX
  8
DEFAULT_2
 62
8
  6
HIDDEN
 10
160.4566716845
 20
173.6193875295
  0
VERTEX
  8
DEFAULT_2
 62
8
  6
HIDDEN
 10
160.4671241233
 20
173.4433973696
  0
VERTEX
  8
DEFAULT_2
 62
8
  6
HIDDEN
 10
160.4747775033
 20
173.3313909641
  0
VERTEX
  8
DEFAULT_2
 62
8
  6
HIDDEN
 10
160.4944247281
 20
173.0659617308
  0
VERTEX
  8
DEFAULT_2
 62
8
  6
HIDDEN
 10
160.5189479116
 20
172.7562064931
  0
SEQEND
  0
POLYLINE
  8
DEFAULT_2
 62
8
  6
HIDDEN
 66
1
 70
0
  0
VERTEX
  8
DEFAULT_2
 62
8
  6
HIDDEN
 10
160.2825411445
 20
178.2855729167
  0
VERTEX
  8
DEFAULT_2
 62
8
  6
HIDDEN
 10
160.2711744365
 20
178.64518437
  0
VERTEX
  8
DEFAULT_2
 62
8
  6
HIDDEN
 10
160.2693988066
 20
178.8238692465
  0
SEQEND
  0
POLYLINE
  8
DEFAULT_2
 62
8
  6
HIDDEN
 66
1
 70
0
  0
VERTEX
  8
DEFAULT_2
 62
8
  6
HIDDEN
 10
160.2693988066
 20
176.1347835953
  0
VERTEX
  8
DEFAULT_2
 62
8
  6
HIDDEN
 10
160.2741837046
 20
175.9516666713
  0
VERTEX
  8
DEFAULT_2
 62
8
  6
HIDDEN
 10
160.2882099003
 20
175.6809149528
  0
SEQEND
  0
POLYLINE
  8
DEFAULT_2
 62
8
  6
HIDDEN
 66
1
 70
0
  0
VERTEX
  8
DEFAULT_2
 62
8
  6
HIDDEN
 10
160.453125
 20
176.2032827131
  0
VERTEX
  8
DEFAULT_2
 62
8
  6
HIDDEN
 10
160.4566716845
 20
176.0148601527
  0
VERTEX
  8
DEFAULT_2
 62
8
  6
HIDDEN
 10
160.4671241233
 20
175.7661953854
  0
VERTEX
  8
DEFAULT_2
 62
8
  6
HIDDEN
 10
160.4747775033
 20
175.6228692945
  0
VERTEX
  8
DEFAULT_2
 62
8
  6
HIDDEN
 10
160.4944247281
 20
175.3067414928
  0
VERTEX
  8
DEFAULT_2
 62
8
  6
HIDDEN
 10
160.5189479116
 20
174.9642220373
  0
SEQEND
  0
POLYLINE
  8
DEFAULT_2
 62
8
  6
HIDDEN
 66
1
 70
0
  0
VERTEX
  8
DEFAULT_2
 62
8
  6
HIDDEN
 10
160.2693988066
 20
178.8238692465
  0
VERTEX
  8
DEFAULT_2
 62
8
  6
HIDDEN
 10
160.2741837046
 20
178.5143392227
  0
VERTEX
  8
DEFAULT_2
 62
8
  6
HIDDEN
 10
160.2882099003
 20
178.1316212846
  0
SEQEND
  0
POLYLINE
  8
DEFAULT_2
 62
8
  6
HIDDEN
 66
1
 70
0
  0
VERTEX
  8
DEFAULT_2
 62
8
  6
HIDDEN
 10
160.453125
 20
180.4951809908
  0
VERTEX
  8
DEFAULT_2
 62
8
  6
HIDDEN
 10
160.4566716845
 20
180.2365476464
  0
VERTEX
  8
DEFAULT_2
 62
8
  6
HIDDEN
 10
160.4671241233
 20
179.9321543645
  0
VERTEX
  8
DEFAULT_2
 62
8
  6
HIDDEN
 10
160.4747775033
 20
179.7672760244
  0
VERTEX
  8
DEFAULT_2
 62
8
  6
HIDDEN
 10
160.4944247281
 20
179.4219932417
  0
VERTEX
  8
DEFAULT_2
 62
8
  6
HIDDEN
 10
160.5189479116
 20
179.0700517031
  0
SEQEND
  0
POLYLINE
  8
DEFAULT_2
 62
8
  6
HIDDEN
 66
1
 70
0
  0
VERTEX
  8
DEFAULT_2
 62
8
  6
HIDDEN
 10
160.2693988066
 20
222.1075701337
  0
VERTEX
  8
DEFAULT_2
 62
8
  6
HIDDEN
 10
160.2741837046
 20
221.7552641521
  0
VERTEX
  8
DEFAULT_2
 62
8
  6
HIDDEN
 10
160.2882099003
 20
221.4851241422
  0
VERTEX
  8
DEFAULT_2
 62
8
  6
HIDDEN
 10
160.3106629602
 20
221.3045640992
  0
VERTEX
  8
DEFAULT_2
 62
8
  6
HIDDEN
 10
160.3405802068
 20
221.2170791068
  0
VERTEX
  8
DEFAULT_2
 62
8
  6
HIDDEN
 10
160.3550771159
 20
221.2086667027
  0
SEQEND
  0
POLYLINE
  8
DEFAULT_2
 62
8
  6
HIDDEN
 66
1
 70
0
  0
VERTEX
  8
DEFAULT_2
 62
8
  6
HIDDEN
 10
160.2693988066
 20
183.1477404404
  0
VERTEX
  8
DEFAULT_2
 62
8
  6
HIDDEN
 10
160.2741837046
 20
182.7328912764
  0
VERTEX
  8
DEFAULT_2
 62
8
  6
HIDDEN
 10
160.2882099003
 20
182.2642887139
  0
SEQEND
  0
POLYLINE
  8
DEFAULT_2
 62
8
  6
HIDDEN
 66
1
 70
0
  0
VERTEX
  8
DEFAULT_2
 62
8
  6
HIDDEN
 10
160.453125
 20
186.307967678
  0
VERTEX
  8
DEFAULT_2
 62
8
  6
HIDDEN
 10
160.4566716845
 20
185.9967489844
  0
VERTEX
  8
DEFAULT_2
 62
8
  6
HIDDEN
 10
160.4671241233
 20
185.6573710871
  0
VERTEX
  8
DEFAULT_2
 62
8
  6
HIDDEN
 10
160.4747775033
 20
185.4821766842
  0
VERTEX
  8
DEFAULT_2
 62
8
  6
HIDDEN
 10
160.4944247281
 20
185.1312693714
  0
VERTEX
  8
DEFAULT_2
 62
8
  6
HIDDEN
 10
160.5189479116
 20
184.7938899841
  0
SEQEND
  0
POLYLINE
  8
DEFAULT_2
 62
8
  6
HIDDEN
 66
1
 70
0
  0
VERTEX
  8
DEFAULT_2
 62
8
  6
HIDDEN
 10
160.2693988066
 20
216.3604922708
  0
VERTEX
  8
DEFAULT_2
 62
8
  6
HIDDEN
 10
160.2741837046
 20
215.9128199599
  0
VERTEX
  8
DEFAULT_2
 62
8
  6
HIDDEN
 10
160.2882099003
 20
215.5306014799
  0
VERTEX
  8
DEFAULT_2
 62
8
  6
HIDDEN
 10
160.3106629602
 20
215.2253746401
  0
VERTEX
  8
DEFAULT_2
 62
8
  6
HIDDEN
 10
160.3405802068
 20
215.0042278664
  0
VERTEX
  8
DEFAULT_2
 62
8
  6
HIDDEN
 10
160.3771298613
 20
214.8725039087
  0
VERTEX
  8
DEFAULT_2
 62
8
  6
HIDDEN
 10
160.4130034655
 20
214.8357727764
  0
SEQEND
  0
POLYLINE
  8
DEFAULT_2
 62
8
  6
HIDDEN
 66
1
 70
0
  0
VERTEX
  8
DEFAULT_2
 62
8
  6
HIDDEN
 10
160.453125
 20
208.55930793
  0
VERTEX
  8
DEFAULT_2
 62
8
  6
HIDDEN
 10
160.4566716845
 20
208.2245493228
  0
VERTEX
  8
DEFAULT_2
 62
8
  6
HIDDEN
 10
160.4671241233
 20
207.9205866575
  0
VERTEX
  8
DEFAULT_2
 62
8
  6
HIDDEN
 10
160.4747775033
 20
207.7848307624
  0
VERTEX
  8
DEFAULT_2
 62
8
  6
HIDDEN
 10
160.4944247281
 20
207.5540021148
  0
VERTEX
  8
DEFAULT_2
 62
8
  6
HIDDEN
 10
160.5189479116
 20
207.3866308473
  0
SEQEND
  0
POLYLINE
  8
DEFAULT_2
 62
8
  6
HIDDEN
 66
1
 70
0
  0
VERTEX
  8
DEFAULT_2
 62
8
  6
HIDDEN
 10
160.453125
 20
193.2455109679
  0
VERTEX
  8
DEFAULT_2
 62
8
  6
HIDDEN
 10
160.4566716845
 20
192.9029159648
  0
VERTEX
  8
DEFAULT_2
 62
8
  6
HIDDEN
 10
160.4671241233
 20
192.5516814949
  0
VERTEX
  8
DEFAULT_2
 62
8
  6
HIDDEN
 10
160.4747775033
 20
192.3781102383
  0
VERTEX
  8
DEFAULT_2
 62
8
  6
HIDDEN
 10
160.4944247281
 20
192.0454921489
  0
VERTEX
  8
DEFAULT_2
 62
8
  6
HIDDEN
 10
160.5189479116
 20
191.7456667606
  0
SEQEND
  0
POLYLINE
  8
DEFAULT_2
 62
8
  6
HIDDEN
 66
1
 70
0
  0
VERTEX
  8
DEFAULT_2
 62
8
  6
HIDDEN
 10
160.453125
 20
200.8350287501
  0
VERTEX
  8
DEFAULT_2
 62
8
  6
HIDDEN
 10
160.4566716845
 20
200.4844047208
  0
VERTEX
  8
DEFAULT_2
 62
8
  6
HIDDEN
 10
160.4671241233
 20
200.1452497271
  0
VERTEX
  8
DEFAULT_2
 62
8
  6
HIDDEN
 10
160.4747775033
 20
199.985130211
  0
VERTEX
  8
DEFAULT_2
 62
8
  6
HIDDEN
 10
160.4944247281
 20
199.6934687182
  0
VERTEX
  8
DEFAULT_2
 62
8
  6
HIDDEN
 10
160.5189479116
 20
199.4516299335
  0
SEQEND
  0
POLYLINE
  8
DEFAULT_2
 62
8
  6
HIDDEN
 66
1
 70
0
  0
VERTEX
  8
DEFAULT_2
 62
8
  6
HIDDEN
 10
160.2693988066
 20
188.8117325008
  0
VERTEX
  8
DEFAULT_2
 62
8
  6
HIDDEN
 10
160.2741837046
 20
188.3198354815
  0
VERTEX
  8
DEFAULT_2
 62
8
  6
HIDDEN
 10
160.2882099003
 20
187.7972827847
  0
VERTEX
  8
DEFAULT_2
 62
8
  6
HIDDEN
 10
160.3106629602
 20
187.2623263897
  0
VERTEX
  8
DEFAULT_2
 62
8
  6
HIDDEN
 10
160.3405802068
 20
186.7297258844
  0
VERTEX
  8
DEFAULT_2
 62
8
  6
HIDDEN
 10
160.3771298613
 20
186.210826315
  0
SEQEND
  0
POLYLINE
  8
DEFAULT_2
 62
8
  6
HIDDEN
 66
1
 70
0
  0
VERTEX
  8
DEFAULT_2
 62
8
  6
HIDDEN
 10
160.2693988066
 20
209.6901411238
  0
VERTEX
  8
DEFAULT_2
 62
8
  6
HIDDEN
 10
160.2741837046
 20
209.1776106118
  0
VERTEX
  8
DEFAULT_2
 62
8
  6
HIDDEN
 10
160.2882099003
 20
208.7093612194
  0
VERTEX
  8
DEFAULT_2
 62
8
  6
HIDDEN
 10
160.3106629602
 20
208.3002682875
  0
VERTEX
  8
DEFAULT_2
 62
8
  6
HIDDEN
 10
160.3405802068
 20
207.9605305197
  0
VERTEX
  8
DEFAULT_2
 62
8
  6
HIDDEN
 10
160.3771298613
 20
207.6979008164
  0
VERTEX
  8
DEFAULT_2
 62
8
  6
HIDDEN
 10
160.4196507017
 20
207.5210598667
  0
VERTEX
  8
DEFAULT_2
 62
8
  6
HIDDEN
 10
160.4674287826
 20
207.4419228972
  0
SEQEND
  0
POLYLINE
  8
DEFAULT_2
 62
8
  6
HIDDEN
 66
1
 70
0
  0
VERTEX
  8
DEFAULT_2
 62
8
  6
HIDDEN
 10
160.2693988066
 20
195.429853729
  0
VERTEX
  8
DEFAULT_2
 62
8
  6
HIDDEN
 10
160.2741837046
 20
194.8944308233
  0
VERTEX
  8
DEFAULT_2
 62
8
  6
HIDDEN
 10
160.2882099003
 20
194.353539095
  0
VERTEX
  8
DEFAULT_2
 62
8
  6
HIDDEN
 10
160.3106629602
 20
193.8255293948
  0
VERTEX
  8
DEFAULT_2
 62
8
  6
HIDDEN
 10
160.3405802068
 20
193.3245713123
  0
VERTEX
  8
DEFAULT_2
 62
8
  6
HIDDEN
 10
160.3771298613
 20
192.8615247648
  0
VERTEX
  8
DEFAULT_2
 62
8
  6
HIDDEN
 10
160.4196507017
 20
192.4471596657
  0
VERTEX
  8
DEFAULT_2
 62
8
  6
HIDDEN
 10
160.4674287826
 20
192.0957614673
  0
SEQEND
  0
POLYLINE
  8
DEFAULT_2
 62
8
  6
HIDDEN
 66
1
 70
0
  0
VERTEX
  8
DEFAULT_2
 62
8
  6
HIDDEN
 10
160.2693988066
 20
202.5510901
  0
VERTEX
  8
DEFAULT_2
 62
8
  6
HIDDEN
 10
160.2741837046
 20
202.0086294943
  0
VERTEX
  8
DEFAULT_2
 62
8
  6
HIDDEN
 10
160.2882099003
 20
201.4862596118
  0
VERTEX
  8
DEFAULT_2
 62
8
  6
HIDDEN
 10
160.3106629602
 20
201.001179595
  0
VERTEX
  8
DEFAULT_2
 62
8
  6
HIDDEN
 10
160.3405802068
 20
200.5660034006
  0
VERTEX
  8
DEFAULT_2
 62
8
  6
HIDDEN
 10
160.3771298613
 20
200.1903657321
  0
VERTEX
  8
DEFAULT_2
 62
8
  6
HIDDEN
 10
160.4196507017
 20
199.884334962
  0
VERTEX
  8
DEFAULT_2
 62
8
  6
HIDDEN
 10
160.4674287826
 20
199.66147356
  0
SEQEND
  0
LINE
  8
DEFAULT_2
 62
8
  6
HIDDEN
 10
160.2693988066
 20
230.3625
 11
160.2693988066
 21
230.36125977
  0
LINE
  8
DEFAULT_2
 62
8
  6
HIDDEN
 10
160.2693988066
 20
229.4902164047
 11
160.2693988066
 21
229.3549006834
  0
LINE
  8
DEFAULT_2
 62
8
  6
HIDDEN
 10
160.2693988066
 20
226.8011307535
 11
160.2693988066
 21
226.5397208536
  0
LINE
  8
0
 62
7
  6
CONTINUOUS
 10
160.2693988066
 20
222.4772595596
 11
160.2693988066
 21
222.1075701337
  0
LINE
  8
0
 62
7
  6
CONTINUOUS
 10
160.2693988066
 20
216.8132674992
 11
160.2693988066
 21
216.3604922708
  0
LINE
  8
0
 62
7
  6
CONTINUOUS
 10
160.2693988066
 20
210.195146271
 11
160.2693988066
 21
209.6901411238
  0
LINE
  8
0
 62
7
  6
CONTINUOUS
 10
160.2693988066
 20
203.0739099
 11
160.2693988066
 21
202.5510901
  0
LINE
  8
0
 62
7
  6
CONTINUOUS
 10
160.2693988066
 20
195.9348588762
 11
160.2693988066
 21
195.429853729
  0
LINE
  8
0
 62
7
  6
CONTINUOUS
 10
160.2693988066
 20
189.2645077292
 11
160.2693988066
 21
188.8117325008
  0
LINE
  8
0
 62
7
  6
CONTINUOUS
 10
160.2693988066
 20
183.5174298663
 11
160.2693988066
 21
183.1477404404
  0
LINE
  8
DEFAULT_2
 62
8
  6
HIDDEN
 10
160.2693988066
 20
179.0852791464
 11
160.2693988066
 21
178.8238692465
  0
LINE
  8
DEFAULT_2
 62
8
  6
HIDDEN
 10
160.2693988066
 20
176.2700993166
 11
160.2693988066
 21
176.1347835953
  0
LINE
  8
DEFAULT_2
 62
8
  6
HIDDEN
 10
160.2693988066
 20
175.26374023
 11
160.2693988066
 21
175.2625
  0
LINE
  8
DEFAULT_2
 62
8
  6
HIDDEN
 10
160.453125
 20
232.4625
 11
160.453125
 21
232.3964839686
  0
LINE
  8
0
 62
7
  6
CONTINUOUS
 10
160.453125
 20
231.9002413804
 11
160.453125
 21
231.2347136803
  0
LINE
  8
DEFAULT_2
 62
8
  6
HIDDEN
 10
160.453125
 20
231.2347136803
 11
160.453125
 21
230.4943024496
  0
LINE
  8
0
 62
7
  6
CONTINUOUS
 10
160.453125
 20
229.8978254331
 11
160.453125
 21
227.3394270833
  0
LINE
  8
DEFAULT_2
 62
8
  6
HIDDEN
 10
160.453125
 20
227.3394270833
 11
160.453125
 21
226.8017284028
  0
LINE
  8
0
 62
7
  6
CONTINUOUS
 10
160.453125
 20
225.8528704951
 11
160.453125
 21
221.806745112
  0
LINE
  8
DEFAULT_2
 62
8
  6
HIDDEN
 10
160.453125
 20
221.806745112
 11
160.453125
 21
221.4743280844
  0
LINE
  8
0
 62
7
  6
CONTINUOUS
 10
160.453125
 20
220.2377523838
 11
160.453125
 21
215.0137108995
  0
LINE
  8
DEFAULT_2
 62
8
  6
HIDDEN
 10
160.453125
 20
215.0137108995
 11
160.453125
 21
214.8751550221
  0
LINE
  8
0
 62
7
  6
CONTINUOUS
 10
160.453125
 20
213.4351321191
 11
160.453125
 21
207.4539319546
  0
LINE
  8
0
 62
7
  6
CONTINUOUS
 10
160.453125
 20
205.9085970303
 11
160.453125
 21
199.7164029697
  0
LINE
  8
0
 62
7
  6
CONTINUOUS
 10
160.453125
 20
198.1710680454
 11
160.453125
 21
192.1898678809
  0
LINE
  8
DEFAULT_2
 62
8
  6
HIDDEN
 10
160.453125
 20
190.7498449779
 11
160.453125
 21
190.6112891005
  0
LINE
  8
0
 62
7
  6
CONTINUOUS
 10
160.453125
 20
190.6112891005
 11
160.453125
 21
185.3872476162
  0
LINE
  8
DEFAULT_2
 62
8
  6
HIDDEN
 10
160.453125
 20
184.1506719156
 11
160.453125
 21
183.818254888
  0
LINE
  8
0
 62
7
  6
CONTINUOUS
 10
160.453125
 20
183.818254888
 11
160.453125
 21
179.7721295049
  0
LINE
  8
DEFAULT_2
 62
8
  6
HIDDEN
 10
160.453125
 20
178.8232715972
 11
160.453125
 21
178.2855729167
  0
LINE
  8
0
 62
7
  6
CONTINUOUS
 10
160.453125
 20
178.2855729167
 11
160.453125
 21
175.7271745669
  0
LINE
  8
DEFAULT_2
 62
8
  6
HIDDEN
 10
160.453125
 20
175.1306975504
 11
160.453125
 21
174.3902863197
  0
LINE
  8
0
 62
7
  6
CONTINUOUS
 10
160.453125
 20
174.3902863197
 11
160.453125
 21
173.5280397965
  0
LINE
  8
DEFAULT_2
 62
8
  6
HIDDEN
 10
160.453125
 20
173.3245925941
 11
160.453125
 21
173.1625
  0
POLYLINE
  8
0
 62
7
  6
CONTINUOUS
 66
1
 70
0
  0
VERTEX
  8
0
 62
7
  6
CONTINUOUS
 10
160.2693988066
 20
203.0739099
  0
VERTEX
  8
0
 62
7
  6
CONTINUOUS
 10
160.2711763223
 20
203.4051827584
  0
VERTEX
  8
0
 62
7
  6
CONTINUOUS
 10
160.2852244105
 20
204.0527492902
  0
VERTEX
  8
0
 62
7
  6
CONTINUOUS
 10
160.3124284146
 20
204.6543792016
  0
VERTEX
  8
0
 62
7
  6
CONTINUOUS
 10
160.3304635286
 20
204.9286979481
  0
VERTEX
  8
0
 62
7
  6
CONTINUOUS
 10
160.3740299345
 20
205.4074576294
  0
VERTEX
  8
0
 62
7
  6
CONTINUOUS
 10
160.4254025117
 20
205.7736751022
  0
VERTEX
  8
0
 62
7
  6
CONTINUOUS
 10
160.453125
 20
205.9085970303
  0
SEQEND
  0
POLYLINE
  8
0
 62
7
  6
CONTINUOUS
 66
1
 70
0
  0
VERTEX
  8
0
 62
7
  6
CONTINUOUS
 10
160.2693988066
 20
210.195146271
  0
VERTEX
  8
0
 62
7
  6
CONTINUOUS
 10
160.2711763223
 20
210.5190617327
  0
VERTEX
  8
0
 62
7
  6
CONTINUOUS
 10
160.2852244105
 20
211.1805887639
  0
VERTEX
  8
0
 62
7
  6
CONTINUOUS
 10
160.3124284146
 20
211.8337055554
  0
VERTEX
  8
0
 62
7
  6
CONTINUOUS
 10
160.3304635286
 20
212.1471588298
  0
VERTEX
  8
0
 62
7
  6
CONTINUOUS
 10
160.3740299345
 20
212.7286566413
  0
VERTEX
  8
0
 62
7
  6
CONTINUOUS
 10
160.4254025117
 20
213.2259648613
  0
VERTEX
  8
0
 62
7
  6
CONTINUOUS
 10
160.453125
 20
213.4351321191
  0
SEQEND
  0
POLYLINE
  8
0
 62
7
  6
CONTINUOUS
 66
1
 70
0
  0
VERTEX
  8
0
 62
7
  6
CONTINUOUS
 10
160.2693988066
 20
195.9348588762
  0
VERTEX
  8
0
 62
7
  6
CONTINUOUS
 10
160.2711763223
 20
196.2509134335
  0
VERTEX
  8
0
 62
7
  6
CONTINUOUS
 10
160.2852244105
 20
196.8403888771
  0
VERTEX
  8
0
 62
7
  6
CONTINUOUS
 10
160.3124284146
 20
197.3495318241
  0
VERTEX
  8
0
 62
7
  6
CONTINUOUS
 10
160.3304635286
 20
197.5660216734
  0
VERTEX
  8
0
 62
7
  6
CONTINUOUS
 10
160.3740299345
 20
197.9094165433
  0
VERTEX
  8
0
 62
7
  6
CONTINUOUS
 10
160.4254025117
 20
198.1195861535
  0
VERTEX
  8
0
 62
7
  6
CONTINUOUS
 10
160.453125
 20
198.1710680454
  0
SEQEND
  0
POLYLINE
  8
0
 62
7
  6
CONTINUOUS
 66
1
 70
0
  0
VERTEX
  8
0
 62
7
  6
CONTINUOUS
 10
160.2693988066
 20
216.8132674992
  0
VERTEX
  8
0
 62
7
  6
CONTINUOUS
 10
160.2711763223
 20
217.1077512607
  0
VERTEX
  8
0
 62
7
  6
CONTINUOUS
 10
160.2852244105
 20
217.7381568172
  0
VERTEX
  8
0
 62
7
  6
CONTINUOUS
 10
160.3124284146
 20
218.3982516589
  0
VERTEX
  8
0
 62
7
  6
CONTINUOUS
 10
160.3304635286
 20
218.7294781384
  0
VERTEX
  8
0
 62
7
  6
CONTINUOUS
 10
160.3740299345
 20
219.3740859653
  0
VERTEX
  8
0
 62
7
  6
CONTINUOUS
 10
160.4254025117
 20
219.9685941991
  0
VERTEX
  8
0
 62
7
  6
CONTINUOUS
 10
160.453125
 20
220.2377523838
  0
SEQEND
  0
POLYLINE
  8
0
 62
7
  6
CONTINUOUS
 66
1
 70
0
  0
VERTEX
  8
0
 62
7
  6
CONTINUOUS
 10
160.2693988066
 20
189.2645077292
  0
VERTEX
  8
0
 62
7
  6
CONTINUOUS
 10
160.2711763223
 20
189.5438053896
  0
VERTEX
  8
0
 62
7
  6
CONTINUOUS
 10
160.2852244105
 20
190.0350179676
  0
VERTEX
  8
0
 62
7
  6
CONTINUOUS
 10
160.3124284146
 20
190.4169766997
  0
VERTEX
  8
0
 62
7
  6
CONTINUOUS
 10
160.3304635286
 20
190.5608842265
  0
VERTEX
  8
0
 62
7
  6
CONTINUOUS
 10
160.3423574778
 20
190.6112891005
  0
SEQEND
  0
POLYLINE
  8
0
 62
7
  6
CONTINUOUS
 66
1
 70
0
  0
VERTEX
  8
0
 62
7
  6
CONTINUOUS
 10
160.2693988066
 20
222.4772595596
  0
VERTEX
  8
0
 62
7
  6
CONTINUOUS
 10
160.2711763223
 20
222.7222430392
  0
VERTEX
  8
0
 62
7
  6
CONTINUOUS
 10
160.2852244105
 20
223.2785660242
  0
VERTEX
  8
0
 62
7
  6
CONTINUOUS
 10
160.3124284146
 20
223.9006545434
  0
VERTEX
  8
0
 62
7
  6
CONTINUOUS
 10
160.3304635286
 20
224.227081691
  0
VERTEX
  8
0
 62
7
  6
CONTINUOUS
 10
160.3740299345
 20
224.8908705752
  0
VERTEX
  8
0
 62
7
  6
CONTINUOUS
 10
160.4254025117
 20
225.5420640691
  0
VERTEX
  8
0
 62
7
  6
CONTINUOUS
 10
160.453125
 20
225.8528704951
  0
SEQEND
  0
POLYLINE
  8
0
 62
7
  6
CONTINUOUS
 66
1
 70
0
  0
VERTEX
  8
0
 62
7
  6
CONTINUOUS
 10
160.2693988066
 20
183.5174298663
  0
VERTEX
  8
0
 62
7
  6
CONTINUOUS
 10
160.2711763223
 20
183.7409369558
  0
VERTEX
  8
0
 62
7
  6
CONTINUOUS
 10
160.2741978703
 20
183.818254888
  0
SEQEND
  0
POLYLINE
  8
DEFAULT_2
 62
8
  6
HIDDEN
 66
1
 70
0
  0
VERTEX
  8
DEFAULT_2
 62
8
  6
HIDDEN
 10
160.2693988066
 20
226.8011307535
  0
VERTEX
  8
DEFAULT_2
 62
8
  6
HIDDEN
 10
160.2711763223
 20
226.9799187321
  0
VERTEX
  8
DEFAULT_2
 62
8
  6
HIDDEN
 10
160.2825427136
 20
227.3394270833
  0
SEQEND
  0
POLYLINE
  8
DEFAULT_2
 62
8
  6
HIDDEN
 66
1
 70
0
  0
VERTEX
  8
DEFAULT_2
 62
8
  6
HIDDEN
 10
160.2693988066
 20
179.0852791464
  0
VERTEX
  8
DEFAULT_2
 62
8
  6
HIDDEN
 10
160.2711763223
 20
179.2377640263
  0
VERTEX
  8
DEFAULT_2
 62
8
  6
HIDDEN
 10
160.2852244105
 20
179.4410026368
  0
VERTEX
  8
DEFAULT_2
 62
8
  6
HIDDEN
 10
160.3094546332
 20
179.5015527377
  0
SEQEND
  0
LINE
  8
DEFAULT_2
 62
8
  6
HIDDEN
 10
160.2693988066
 20
229.4902164047
 11
160.2741837046
 21
229.6733333287
  0
POLYLINE
  8
DEFAULT_2
 62
8
  6
HIDDEN
 66
1
 70
0
  0
VERTEX
  8
DEFAULT_2
 62
8
  6
HIDDEN
 10
160.288068483
 20
223.3569419232
  0
VERTEX
  8
DEFAULT_2
 62
8
  6
HIDDEN
 10
160.2741435249
 20
222.8902269394
  0
VERTEX
  8
DEFAULT_2
 62
8
  6
HIDDEN
 10
160.2693988066
 20
222.4772595596
  0
SEQEND
  0
POLYLINE
  8
0
 62
7
  6
CONTINUOUS
 66
1
 70
0
  0
VERTEX
  8
0
 62
7
  6
CONTINUOUS
 10
160.2825427136
 20
227.3394270833
  0
VERTEX
  8
0
 62
7
  6
CONTINUOUS
 10
160.2852244105
 20
227.4242466534
  0
VERTEX
  8
0
 62
7
  6
CONTINUOUS
 10
160.3124284146
 20
227.9659345457
  0
VERTEX
  8
0
 62
7
  6
CONTINUOUS
 10
160.3304635286
 20
228.2653168907
  0
VERTEX
  8
0
 62
7
  6
CONTINUOUS
 10
160.3740299345
 20
228.9030507165
  0
VERTEX
  8
0
 62
7
  6
CONTINUOUS
 10
160.4254025117
 20
229.5665517101
  0
VERTEX
  8
0
 62
7
  6
CONTINUOUS
 10
160.453125
 20
229.8978254331
  0
SEQEND
  0
POLYLINE
  8
0
 62
7
  6
CONTINUOUS
 66
1
 70
0
  0
VERTEX
  8
0
 62
7
  6
CONTINUOUS
 10
160.453125
 20
231.9002413804
  0
VERTEX
  8
0
 62
7
  6
CONTINUOUS
 10
160.4566716845
 20
232.0056124705
  0
VERTEX
  8
0
 62
7
  6
CONTINUOUS
 10
160.4671241233
 20
232.1816026304
  0
VERTEX
  8
0
 62
7
  6
CONTINUOUS
 10
160.4747775033
 20
232.2936090359
  0
VERTEX
  8
0
 62
7
  6
CONTINUOUS
 10
160.4944247281
 20
232.5590382692
  0
VERTEX
  8
0
 62
7
  6
CONTINUOUS
 10
160.5189479116
 20
232.8687935069
  0
SEQEND
  0
POLYLINE
  8
DEFAULT_2
 62
8
  6
HIDDEN
 66
1
 70
0
  0
VERTEX
  8
DEFAULT_2
 62
8
  6
HIDDEN
 10
160.288068483
 20
227.4901891949
  0
VERTEX
  8
DEFAULT_2
 62
8
  6
HIDDEN
 10
160.2741435249
 20
227.1091861328
  0
VERTEX
  8
DEFAULT_2
 62
8
  6
HIDDEN
 10
160.2693988066
 20
226.8011307535
  0
SEQEND
  0
LINE
  8
DEFAULT_2
 62
8
  6
HIDDEN
 10
160.2741435249
 20
229.6723663185
 11
160.2882099003
 21
229.9440850472
  0
LINE
  8
DEFAULT_2
 62
8
  6
HIDDEN
 10
160.3124284146
 20
223.9006545434
 11
160.3104067375
 21
223.8611057374
  0
LINE
  8
DEFAULT_2
 62
8
  6
HIDDEN
 10
160.3402497741
 20
228.4171626789
 11
160.3304635286
 21
228.2653168907
  0
LINE
  8
DEFAULT_2
 62
8
  6
HIDDEN
 10
160.3124284146
 20
227.9659345457
 11
160.3104067375
 21
227.93033028
  0
LINE
  8
DEFAULT_2
 62
8
  6
HIDDEN
 10
160.288068483
 20
229.9416927297
 11
160.3106629602
 21
230.2915347044
  0
POLYLINE
  8
DEFAULT_2
 62
8
  6
HIDDEN
 66
1
 70
0
  0
VERTEX
  8
DEFAULT_2
 62
8
  6
HIDDEN
 10
160.376810939
 20
224.9291330778
  0
VERTEX
  8
DEFAULT_2
 62
8
  6
HIDDEN
 10
160.3402497741
 20
224.3887972689
  0
VERTEX
  8
DEFAULT_2
 62
8
  6
HIDDEN
 10
160.3304635286
 20
224.227081691
  0
SEQEND
  0
LINE
  8
DEFAULT_2
 62
8
  6
HIDDEN
 10
160.376810939
 20
228.9409759275
 11
160.3740299345
 21
228.9030507165
  0
POLYLINE
  8
DEFAULT_2
 62
8
  6
HIDDEN
 66
1
 70
0
  0
VERTEX
  8
DEFAULT_2
 62
8
  6
HIDDEN
 10
160.5189479116
 20
226.5549482969
  0
VERTEX
  8
DEFAULT_2
 62
8
  6
HIDDEN
 10
160.4944247281
 20
226.2030067583
  0
VERTEX
  8
DEFAULT_2
 62
8
  6
HIDDEN
 10
160.4747775033
 20
225.8577239756
  0
VERTEX
  8
DEFAULT_2
 62
8
  6
HIDDEN
 10
160.4671241233
 20
225.6928456355
  0
VERTEX
  8
DEFAULT_2
 62
8
  6
HIDDEN
 10
160.4566716845
 20
225.3884523536
  0
VERTEX
  8
DEFAULT_2
 62
8
  6
HIDDEN
 10
160.453125
 20
225.1298190092
  0
SEQEND
  0
POLYLINE
  8
DEFAULT_2
 62
8
  6
HIDDEN
 66
1
 70
0
  0
VERTEX
  8
DEFAULT_2
 62
8
  6
HIDDEN
 10
160.376810939
 20
219.4100782334
  0
VERTEX
  8
DEFAULT_2
 62
8
  6
HIDDEN
 10
160.3402497741
 20
218.8900428565
  0
VERTEX
  8
DEFAULT_2
 62
8
  6
HIDDEN
 10
160.3104067375
 20
218.3574534983
  0
VERTEX
  8
DEFAULT_2
 62
8
  6
HIDDEN
 10
160.288068483
 20
217.8236248857
  0
VERTEX
  8
DEFAULT_2
 62
8
  6
HIDDEN
 10
160.2741435249
 20
217.303003835
  0
VERTEX
  8
DEFAULT_2
 62
8
  6
HIDDEN
 10
160.2693988066
 20
216.8132674992
  0
SEQEND
  0
POLYLINE
  8
DEFAULT_2
 62
8
  6
HIDDEN
 66
1
 70
0
  0
VERTEX
  8
DEFAULT_2
 62
8
  6
HIDDEN
 10
160.5189479116
 20
230.6607779627
  0
VERTEX
  8
DEFAULT_2
 62
8
  6
HIDDEN
 10
160.4944247281
 20
230.3182585072
  0
VERTEX
  8
DEFAULT_2
 62
8
  6
HIDDEN
 10
160.4747775033
 20
230.0021307055
  0
VERTEX
  8
DEFAULT_2
 62
8
  6
HIDDEN
 10
160.4671241233
 20
229.8588046146
  0
VERTEX
  8
DEFAULT_2
 62
8
  6
HIDDEN
 10
160.4566716845
 20
229.6101398473
  0
VERTEX
  8
DEFAULT_2
 62
8
  6
HIDDEN
 10
160.453125
 20
229.4217172869
  0
SEQEND
  0
LINE
  8
DEFAULT_2
 62
8
  6
HIDDEN
 10
160.3405802068
 20
230.7050077945
 11
160.3104067375
 21
230.2878161981
  0
POLYLINE
  8
DEFAULT_2
 62
8
  6
HIDDEN
 66
1
 70
0
  0
VERTEX
  8
DEFAULT_2
 62
8
  6
HIDDEN
 10
160.5189479116
 20
220.8311100159
  0
VERTEX
  8
DEFAULT_2
 62
8
  6
HIDDEN
 10
160.4944247281
 20
220.4937306286
  0
VERTEX
  8
DEFAULT_2
 62
8
  6
HIDDEN
 10
160.4747775033
 20
220.1428233158
  0
VERTEX
  8
DEFAULT_2
 62
8
  6
HIDDEN
 10
160.4671241233
 20
219.9676289129
  0
VERTEX
  8
DEFAULT_2
 62
8
  6
HIDDEN
 10
160.4566716845
 20
219.6282510156
  0
VERTEX
  8
DEFAULT_2
 62
8
  6
HIDDEN
 10
160.453125
 20
219.317032322
  0
SEQEND
  0
POLYLINE
  8
DEFAULT_2
 62
8
  6
HIDDEN
 66
1
 70
0
  0
VERTEX
  8
DEFAULT_2
 62
8
  6
HIDDEN
 10
160.5189479116
 20
226.5549482969
  0
VERTEX
  8
DEFAULT_2
 62
8
  6
HIDDEN
 10
160.5145349415
 20
226.4991714918
  0
VERTEX
  8
DEFAULT_2
 62
8
  6
HIDDEN
 10
160.5098890687
 20
226.4449841859
  0
SEQEND
  0
LINE
  8
DEFAULT_2
 62
8
  6
HIDDEN
 10
160.3818912447
 20
231.2347136803
 11
160.376810939
 21
231.1722063221
  0
LINE
  8
DEFAULT_2
 62
8
  6
HIDDEN
 10
160.3402497741
 20
230.7006126411
 11
160.3818912447
 21
231.2347136803
  0
LINE
  8
0
 62
7
  6
CONTINUOUS
 10
160.3818912447
 20
231.2347136803
 11
160.4196507017
 21
231.6986455881
  0
POLYLINE
  8
DEFAULT_2
 62
8
  6
HIDDEN
 66
1
 70
0
  0
VERTEX
  8
DEFAULT_2
 62
8
  6
HIDDEN
 10
160.5189479116
 20
230.6607779627
  0
VERTEX
  8
DEFAULT_2
 62
8
  6
HIDDEN
 10
160.5098890687
 20
230.5472250171
  0
VERTEX
  8
DEFAULT_2
 62
8
  6
HIDDEN
 10
160.5050681762
 20
230.4910425717
  0
SEQEND
  0
POLYLINE
  8
DEFAULT_2
 62
8
  6
HIDDEN
 66
1
 70
0
  0
VERTEX
  8
DEFAULT_2
 62
8
  6
HIDDEN
 10
160.5189479116
 20
213.8793332394
  0
VERTEX
  8
DEFAULT_2
 62
8
  6
HIDDEN
 10
160.4944247281
 20
213.5795078511
  0
VERTEX
  8
DEFAULT_2
 62
8
  6
HIDDEN
 10
160.4747775033
 20
213.2468897617
  0
VERTEX
  8
DEFAULT_2
 62
8
  6
HIDDEN
 10
160.4671241233
 20
213.0733185051
  0
VERTEX
  8
DEFAULT_2
 62
8
  6
HIDDEN
 10
160.4566716845
 20
212.7220840352
  0
VERTEX
  8
DEFAULT_2
 62
8
  6
HIDDEN
 10
160.453125
 20
212.3794890321
  0
SEQEND
  0
LINE
  8
DEFAULT_2
 62
8
  6
HIDDEN
 10
160.4254025117
 20
229.5665517101
 11
160.4194540448
 21
229.4932732795
  0
LINE
  8
DEFAULT_2
 62
8
  6
HIDDEN
 10
160.4196507017
 20
231.6986455881
 11
160.4194540448
 21
231.6962757251
  0
LINE
  8
0
 62
7
  6
CONTINUOUS
 10
160.5145341705
 20
232.8149618474
 11
160.4196507017
 21
231.6986455881
  0
LINE
  8
DEFAULT_2
 62
8
  6
HIDDEN
 10
160.4674287826
 20
232.2643727332
 11
160.5050681762
 21
232.7027573357
  0
POLYLINE
  8
DEFAULT_2
 62
8
  6
HIDDEN
 66
1
 70
0
  0
VERTEX
  8
DEFAULT_2
 62
8
  6
HIDDEN
 10
160.5189479116
 20
220.8311100159
  0
VERTEX
  8
DEFAULT_2
 62
8
  6
HIDDEN
 10
160.5145349415
 20
220.7800901994
  0
VERTEX
  8
DEFAULT_2
 62
8
  6
HIDDEN
 10
160.5098890687
 20
220.7322286119
  0
VERTEX
  8
DEFAULT_2
 62
8
  6
HIDDEN
 10
160.5050681762
 20
220.6881415553
  0
SEQEND
  0
LINE
  8
DEFAULT_2
 62
8
  6
HIDDEN
 10
160.2693988066
 20
230.3625
 11
160.453125
 21
232.4625
  0
LINE
  8
DEFAULT_2
 62
8
  6
HIDDEN
 10
160.453125
 20
229.8978254331
 11
160.5050681762
 21
230.4910425717
  0
LINE
  8
DEFAULT_2
 62
8
  6
HIDDEN
 10
160.4674287826
 20
226.0038585274
 11
160.4194540448
 21
225.4720202269
  0
LINE
  8
DEFAULT_2
 62
8
  6
HIDDEN
 10
160.5189479116
 20
233.0285223189
 11
160.4194540448
 21
231.9308965878
  0
POLYLINE
  8
DEFAULT_2
 62
8
  6
HIDDEN
 66
1
 70
0
  0
VERTEX
  8
DEFAULT_2
 62
8
  6
HIDDEN
 10
160.5189479116
 20
233.0285223189
  0
VERTEX
  8
DEFAULT_2
 62
8
  6
HIDDEN
 10
160.4944247281
 20
232.7726406066
  0
VERTEX
  8
DEFAULT_2
 62
8
  6
HIDDEN
 10
160.4747775033
 20
232.5759985052
  0
VERTEX
  8
DEFAULT_2
 62
8
  6
HIDDEN
 10
160.4671241233
 20
232.5029448366
  0
VERTEX
  8
DEFAULT_2
 62
8
  6
HIDDEN
 10
160.4566716845
 20
232.4116227228
  0
VERTEX
  8
DEFAULT_2
 62
8
  6
HIDDEN
 10
160.4534546466
 20
232.3929215521
  0
SEQEND
  0
LINE
  8
DEFAULT_2
 62
8
  6
HIDDEN
 10
160.3106629602
 20
230.7755482504
 11
160.3405802068
 21
231.087001982
  0
LINE
  8
DEFAULT_2
 62
8
  6
HIDDEN
 10
160.4674287826
 20
226.0038585274
 11
160.5098890687
 21
226.4449841859
  0
LINE
  8
DEFAULT_2
 62
8
  6
HIDDEN
 10
160.2882099003
 20
230.5458186952
 11
160.4196507017
 21
231.933039014
  0
POLYLINE
  8
DEFAULT_2
 62
8
  6
HIDDEN
 66
1
 70
0
  0
VERTEX
  8
DEFAULT_2
 62
8
  6
HIDDEN
 10
160.3104067375
 20
230.7729047225
  0
VERTEX
  8
DEFAULT_2
 62
8
  6
HIDDEN
 10
160.2741435249
 20
230.4050910026
  0
VERTEX
  8
DEFAULT_2
 62
8
  6
HIDDEN
 10
160.2694128904
 20
230.3611247178
  0
SEQEND
  0
POLYLINE
  8
DEFAULT_2
 62
8
  6
HIDDEN
 66
1
 70
0
  0
VERTEX
  8
DEFAULT_2
 62
8
  6
HIDDEN
 10
160.5189479116
 20
206.1733700665
  0
VERTEX
  8
DEFAULT_2
 62
8
  6
HIDDEN
 10
160.4944247281
 20
205.9315312818
  0
VERTEX
  8
DEFAULT_2
 62
8
  6
HIDDEN
 10
160.4747775033
 20
205.639869789
  0
VERTEX
  8
DEFAULT_2
 62
8
  6
HIDDEN
 10
160.4671241233
 20
205.4797502729
  0
VERTEX
  8
DEFAULT_2
 62
8
  6
HIDDEN
 10
160.4566716845
 20
205.1405952792
  0
VERTEX
  8
DEFAULT_2
 62
8
  6
HIDDEN
 10
160.453125
 20
204.7899712499
  0
SEQEND
  0
POLYLINE
  8
DEFAULT_2
 62
8
  6
HIDDEN
 66
1
 70
0
  0
VERTEX
  8
DEFAULT_2
 62
8
  6
HIDDEN
 10
160.5189479116
 20
213.8793332394
  0
VERTEX
  8
DEFAULT_2
 62
8
  6
HIDDEN
 10
160.5145349415
 20
213.8365473278
  0
VERTEX
  8
DEFAULT_2
 62
8
  6
HIDDEN
 10
160.5098890687
 20
213.7982731467
  0
VERTEX
  8
DEFAULT_2
 62
8
  6
HIDDEN
 10
160.5050681762
 20
213.7650068071
  0
SEQEND
  0
POLYLINE
  8
DEFAULT_2
 62
8
  6
HIDDEN
 66
1
 70
0
  0
VERTEX
  8
DEFAULT_2
 62
8
  6
HIDDEN
 10
160.4674287826
 20
230.6332814246
  0
VERTEX
  8
DEFAULT_2
 62
8
  6
HIDDEN
 10
160.5098876562
 20
231.0495379497
  0
VERTEX
  8
DEFAULT_2
 62
8
  6
HIDDEN
 10
160.5145336829
 20
231.0916218575
  0
VERTEX
  8
DEFAULT_2
 62
8
  6
HIDDEN
 10
160.5189479116
 20
231.1290791442
  0
SEQEND
  0
LINE
  8
DEFAULT_2
 62
8
  6
HIDDEN
 10
160.4674287826
 20
220.3646226047
 11
160.4194540448
 21
219.9065583175
  0
LINE
  8
DEFAULT_2
 62
8
  6
HIDDEN
 10
160.4196507017
 20
230.1829158301
 11
160.4674287826
 21
230.6332814246
  0
LINE
  8
DEFAULT_2
 62
8
  6
HIDDEN
 10
160.4674287826
 20
220.3646226047
 11
160.5050681762
 21
220.6881415553
  0
POLYLINE
  8
DEFAULT_2
 62
8
  6
HIDDEN
 66
1
 70
0
  0
VERTEX
  8
DEFAULT_2
 62
8
  6
HIDDEN
 10
160.4254143672
 20
230.2350858639
  0
VERTEX
  8
DEFAULT_2
 62
8
  6
HIDDEN
 10
160.3740386213
 20
229.7940235883
  0
VERTEX
  8
DEFAULT_2
 62
8
  6
HIDDEN
 10
160.3304583036
 20
229.473525726
  0
VERTEX
  8
DEFAULT_2
 62
8
  6
HIDDEN
 10
160.3124189716
 20
229.3635702641
  0
VERTEX
  8
DEFAULT_2
 62
8
  6
HIDDEN
 10
160.2852152233
 20
229.2506594548
  0
VERTEX
  8
DEFAULT_2
 62
8
  6
HIDDEN
 10
160.2800201113
 20
229.2451802497
  0
SEQEND
  0
LINE
  8
DEFAULT_2
 62
8
  6
HIDDEN
 10
160.5050681762
 20
227.2080657517
 11
160.4674287826
 21
226.9116152519
  0
LINE
  8
DEFAULT_2
 62
8
  6
HIDDEN
 10
160.4944247281
 20
230.9445088731
 11
160.5189479116
 21
231.1290791442
  0
POLYLINE
  8
DEFAULT_2
 62
8
  6
HIDDEN
 66
1
 70
0
  0
VERTEX
  8
DEFAULT_2
 62
8
  6
HIDDEN
 10
160.5050681762
 20
227.2080657517
  0
VERTEX
  8
DEFAULT_2
 62
8
  6
HIDDEN
 10
160.5098876562
 20
227.244059661
  0
VERTEX
  8
DEFAULT_2
 62
8
  6
HIDDEN
 10
160.5145336829
 20
227.2748036594
  0
VERTEX
  8
DEFAULT_2
 62
8
  6
HIDDEN
 10
160.5189479116
 20
227.2999078962
  0
SEQEND
  0
POLYLINE
  8
DEFAULT_2
 62
8
  6
HIDDEN
 66
1
 70
0
  0
VERTEX
  8
DEFAULT_2
 62
8
  6
HIDDEN
 10
160.4674287826
 20
213.5292385327
  0
VERTEX
  8
DEFAULT_2
 62
8
  6
HIDDEN
 10
160.4194540448
 20
213.176164583
  0
VERTEX
  8
DEFAULT_2
 62
8
  6
HIDDEN
 10
160.376810939
 20
212.7599258611
  0
VERTEX
  8
DEFAULT_2
 62
8
  6
HIDDEN
 10
160.3402497741
 20
212.2956304679
  0
VERTEX
  8
DEFAULT_2
 62
8
  6
HIDDEN
 10
160.3104067375
 20
211.7944383675
  0
VERTEX
  8
DEFAULT_2
 62
8
  6
HIDDEN
 10
160.288068483
 20
211.2673244944
  0
VERTEX
  8
DEFAULT_2
 62
8
  6
HIDDEN
 10
160.2741435249
 20
210.728276841
  0
VERTEX
  8
DEFAULT_2
 62
8
  6
HIDDEN
 10
160.2693988066
 20
210.195146271
  0
SEQEND
  0
POLYLINE
  8
DEFAULT_2
 62
8
  6
HIDDEN
 66
1
 70
0
  0
VERTEX
  8
DEFAULT_2
 62
8
  6
HIDDEN
 10
160.5189479116
 20
206.1733700665
  0
VERTEX
  8
DEFAULT_2
 62
8
  6
HIDDEN
 10
160.5145349415
 20
206.1417338489
  0
VERTEX
  8
DEFAULT_2
 62
8
  6
HIDDEN
 10
160.5098890687
 20
206.1156553965
  0
VERTEX
  8
DEFAULT_2
 62
8
  6
HIDDEN
 10
160.5050681762
 20
206.09547682
  0
SEQEND
  0
POLYLINE
  8
DEFAULT_2
 62
8
  6
HIDDEN
 66
1
 70
0
  0
VERTEX
  8
DEFAULT_2
 62
8
  6
HIDDEN
 10
160.453125
 20
226.8017284028
  0
VERTEX
  8
DEFAULT_2
 62
8
  6
HIDDEN
 10
160.4254143672
 20
226.6054556589
  0
VERTEX
  8
DEFAULT_2
 62
8
  6
HIDDEN
 10
160.3740386213
 20
226.308134761
  0
VERTEX
  8
DEFAULT_2
 62
8
  6
HIDDEN
 10
160.3304583036
 20
226.1491072463
  0
VERTEX
  8
DEFAULT_2
 62
8
  6
HIDDEN
 10
160.3094545225
 20
226.1234472624
  0
SEQEND
  0
LINE
  8
DEFAULT_2
 62
8
  6
HIDDEN
 10
160.4674287826
 20
213.5292385327
 11
160.5050681762
 21
213.7650068071
  0
LINE
  8
DEFAULT_2
 62
8
  6
HIDDEN
 10
160.5050681762
 20
221.7502505286
 11
160.4674287826
 21
221.5476342004
  0
POLYLINE
  8
DEFAULT_2
 62
8
  6
HIDDEN
 66
1
 70
0
  0
VERTEX
  8
DEFAULT_2
 62
8
  6
HIDDEN
 10
160.5050681762
 20
221.7502505286
  0
VERTEX
  8
DEFAULT_2
 62
8
  6
HIDDEN
 10
160.5098876562
 20
221.7736109565
  0
VERTEX
  8
DEFAULT_2
 62
8
  6
HIDDEN
 10
160.5145336829
 20
221.7909198927
  0
VERTEX
  8
DEFAULT_2
 62
8
  6
HIDDEN
 10
160.5189479116
 20
221.8019602675
  0
SEQEND
  0
POLYLINE
  8
DEFAULT_2
 62
8
  6
HIDDEN
 66
1
 70
0
  0
VERTEX
  8
DEFAULT_2
 62
8
  6
HIDDEN
 10
160.4674287826
 20
205.96352644
  0
VERTEX
  8
DEFAULT_2
 62
8
  6
HIDDEN
 10
160.4194540448
 20
205.739504234
  0
VERTEX
  8
DEFAULT_2
 62
8
  6
HIDDEN
 10
160.376810939
 20
205.4318728553
  0
VERTEX
  8
DEFAULT_2
 62
8
  6
HIDDEN
 10
160.3402497741
 20
205.0549584095
  0
VERTEX
  8
DEFAULT_2
 62
8
  6
HIDDEN
 10
160.3104067375
 20
204.6193189804
  0
VERTEX
  8
DEFAULT_2
 62
8
  6
HIDDEN
 10
160.288068483
 20
204.134841786
  0
VERTEX
  8
DEFAULT_2
 62
8
  6
HIDDEN
 10
160.2741435249
 20
203.6141027367
  0
VERTEX
  8
DEFAULT_2
 62
8
  6
HIDDEN
 10
160.2693988066
 20
203.0739099
  0
SEQEND
  0
LINE
  8
0
 62
7
  6
CONTINUOUS
 10
152.4521637366
 20
172.3978524424
 11
152.453125
 21
172.401755467
  0
LINE
  8
DEFAULT_2
 62
8
  6
HIDDEN
 10
151.6781628504
 20
175.2638752819
 11
151.678125
 21
175.26374023
  0
LINE
  8
DEFAULT_2
 62
8
  6
HIDDEN
 10
160.4674287826
 20
205.96352644
 11
160.5050681762
 21
206.09547682
  0
LINE
  8
0
 62
7
  6
CONTINUOUS
 10
151.678125
 20
175.26374023
 11
151.6781646573
 21
175.2638752822
  0
LINE
  8
DEFAULT_2
 62
8
  6
HIDDEN
 10
151.7262739113
 20
184.1146094452
 11
151.7260558718
 21
184.1135768716
  0
POLYLINE
  8
DEFAULT_2
 62
8
  6
HIDDEN
 66
1
 70
0
  0
VERTEX
  8
DEFAULT_2
 62
8
  6
HIDDEN
 10
167.5967954775
 20
226.1234472624
  0
VERTEX
  8
DEFAULT_2
 62
8
  6
HIDDEN
 10
167.6210347767
 20
226.1840558736
  0
VERTEX
  8
DEFAULT_2
 62
8
  6
HIDDEN
 10
167.6350755635
 20
226.3873082642
  0
VERTEX
  8
DEFAULT_2
 62
8
  6
HIDDEN
 10
167.6368511934
 20
226.5397208536
  0
SEQEND
  0
POLYLINE
  8
DEFAULT_2
 62
8
  6
HIDDEN
 66
1
 70
0
  0
VERTEX
  8
DEFAULT_2
 62
8
  6
HIDDEN
 10
167.5967971938
 20
226.1234472623
  0
VERTEX
  8
DEFAULT_2
 62
8
  6
HIDDEN
 10
167.6181814719
 20
226.1678471815
  0
VERTEX
  8
DEFAULT_2
 62
8
  6
HIDDEN
 10
167.6321064623
 20
226.307583142
  0
VERTEX
  8
DEFAULT_2
 62
8
  6
HIDDEN
 10
167.6368511934
 20
226.5397208536
  0
SEQEND
  0
POLYLINE
  8
0
 62
7
  6
CONTINUOUS
 66
1
 70
0
  0
VERTEX
  8
0
 62
7
  6
CONTINUOUS
 10
176.197787286
 20
229.2451802526
  0
VERTEX
  8
0
 62
7
  6
CONTINUOUS
 10
176.2227703601
 20
229.2824205346
  0
VERTEX
  8
0
 62
7
  6
CONTINUOUS
 10
176.228125
 20
229.3549006834
  0
SEQEND
  0
POLYLINE
  8
DEFAULT_2
 62
8
  6
HIDDEN
 66
1
 70
0
  0
VERTEX
  8
DEFAULT_2
 62
8
  6
HIDDEN
 10
167.4932092602
 20
214.8357727359
  0
VERTEX
  8
DEFAULT_2
 62
8
  6
HIDDEN
 10
167.5322113787
 20
214.8794669899
  0
VERTEX
  8
DEFAULT_2
 62
8
  6
HIDDEN
 10
167.5638893883
 20
215.0137108995
  0
SEQEND
  0
POLYLINE
  8
DEFAULT_2
 62
8
  6
HIDDEN
 66
1
 70
0
  0
VERTEX
  8
DEFAULT_2
 62
8
  6
HIDDEN
 10
167.4932480261
 20
214.8357727797
  0
VERTEX
  8
DEFAULT_2
 62
8
  6
HIDDEN
 10
167.5294390034
 20
214.8731912393
  0
VERTEX
  8
DEFAULT_2
 62
8
  6
HIDDEN
 10
167.5660001446
 20
215.0059905224
  0
VERTEX
  8
DEFAULT_2
 62
8
  6
HIDDEN
 10
167.5958431862
 20
215.2279504547
  0
VERTEX
  8
DEFAULT_2
 62
8
  6
HIDDEN
 10
167.6181814719
 20
215.5332608769
  0
VERTEX
  8
DEFAULT_2
 62
8
  6
HIDDEN
 10
167.6321064623
 20
215.9145866017
  0
VERTEX
  8
DEFAULT_2
 62
8
  6
HIDDEN
 10
167.6368511934
 20
216.3604922708
  0
SEQEND
  0
POLYLINE
  8
0
 62
7
  6
CONTINUOUS
 66
1
 70
0
  0
VERTEX
  8
0
 62
7
  6
CONTINUOUS
 10
152.3515533051
 20
198.2022173879
  0
VERTEX
  8
0
 62
7
  6
CONTINUOUS
 10
152.3923960021
 20
198.2404688294
  0
VERTEX
  8
0
 62
7
  6
CONTINUOUS
 10
152.4250998762
 20
198.3345352013
  0
VERTEX
  8
0
 62
7
  6
CONTINUOUS
 10
152.4459811337
 20
198.4711896223
  0
VERTEX
  8
0
 62
7
  6
CONTINUOUS
 10
152.453125
 20
198.6335697159
  0
SEQEND
  0
LINE
  8
0
 62
9
  6
CONTINUOUS
 10
151.678125
 20
195.9348588762
 11
160.2693988066
 21
195.9348588762
  0
LINE
  8
0
 62
9
  6
CONTINUOUS
 10
167.6368511934
 20
195.9348588762
 11
176.228125
 21
195.9348588762
  0
LINE
  8
DEFAULT_2
 62
8
  6
HIDDEN
 10
160.453125
 20
197.06569207
 11
167.453125
 21
197.06569207
  0
LINE
  8
0
 62
7
  6
CONTINUOUS
 10
160.453125
 20
198.1710680454
 11
167.453125
 21
198.1710680454
  0
LINE
  8
0
 62
9
  6
CONTINUOUS
 10
152.2439982458
 20
198.1830771028
 11
175.6622517542
 21
198.1830771028
  0
LINE
  8
0
 62
9
  6
CONTINUOUS
 10
175.5546966949
 20
198.2022173879
 11
152.3515533051
 21
198.2022173879
  0
LINE
  8
DEFAULT_2
 62
8
  6
HIDDEN
 10
160.5189479116
 20
198.2383691527
 11
167.3873020884
 21
198.2383691527
  0
LINE
  8
0
 62
9
  6
CONTINUOUS
 10
175.453125
 20
198.6335697159
 11
152.453125
 21
198.6335697159
  0
LINE
  8
0
 62
9
  6
CONTINUOUS
 10
175.453125
 20
198.9903125439
 11
152.453125
 21
198.9903125439
  0
LINE
  8
DEFAULT_2
 62
8
  6
HIDDEN
 10
167.3873020884
 20
199.4516299335
 11
160.5189479116
 21
199.4516299335
  0
POLYLINE
  8
0
 62
7
  6
CONTINUOUS
 66
1
 70
0
  0
VERTEX
  8
0
 62
7
  6
CONTINUOUS
 10
175.4781349509
 20
178.2855729198
  0
VERTEX
  8
0
 62
7
  6
CONTINUOUS
 10
175.4602688663
 20
178.3088238538
  0
VERTEX
  8
0
 62
7
  6
CONTINUOUS
 10
175.453125
 20
178.3871164145
  0
SEQEND
  0
LINE
  8
DEFAULT_2
 62
8
  6
HIDDEN
 10
151.678125
 20
230.36125977
 11
151.6781646573
 21
230.3611247178
  0
LINE
  8
DEFAULT_2
 62
8
  6
HIDDEN
 10
160.5050681762
 20
199.52952318
 11
160.4674287826
 21
199.66147356
  0
LINE
  8
0
 62
7
  6
CONTINUOUS
 10
151.6781628504
 20
230.3611247181
 11
151.678125
 21
230.36125977
  0
LINE
  8
0
 62
7
  6
CONTINUOUS
 10
152.453125
 20
233.223244533
 11
152.4521617871
 21
233.2271475585
  0
POLYLINE
  8
DEFAULT_2
 62
8
  6
HIDDEN
 66
1
 70
0
  0
VERTEX
  8
DEFAULT_2
 62
8
  6
HIDDEN
 10
160.5050681762
 20
199.52952318
  0
VERTEX
  8
DEFAULT_2
 62
8
  6
HIDDEN
 10
160.5098876562
 20
199.5093515064
  0
VERTEX
  8
DEFAULT_2
 62
8
  6
HIDDEN
 10
160.5145336829
 20
199.48327417
  0
VERTEX
  8
DEFAULT_2
 62
8
  6
HIDDEN
 10
160.5189479116
 20
199.4516299335
  0
SEQEND
  0
LINE
  8
DEFAULT_2
 62
8
  6
HIDDEN
 10
151.6835263494
 20
226.3829991639
 11
151.7262739113
 21
226.1777431537
  0
POLYLINE
  8
0
 62
7
  6
CONTINUOUS
 66
1
 70
0
  0
VERTEX
  8
0
 62
7
  6
CONTINUOUS
 10
160.453125
 20
199.7164029697
  0
VERTEX
  8
0
 62
7
  6
CONTINUOUS
 10
160.4254143672
 20
199.8512587178
  0
VERTEX
  8
0
 62
7
  6
CONTINUOUS
 10
160.3740386213
 20
200.2174651589
  0
VERTEX
  8
0
 62
7
  6
CONTINUOUS
 10
160.3304583036
 20
200.6963731428
  0
VERTEX
  8
0
 62
7
  6
CONTINUOUS
 10
160.3124189716
 20
200.9707821709
  0
VERTEX
  8
0
 62
7
  6
CONTINUOUS
 10
160.2852152233
 20
201.5725282734
  0
VERTEX
  8
0
 62
7
  6
CONTINUOUS
 10
160.2711744365
 20
202.2199926342
  0
VERTEX
  8
0
 62
7
  6
CONTINUOUS
 10
160.2693988066
 20
202.5510901
  0
SEQEND
  0
POLYLINE
  8
0
 62
7
  6
CONTINUOUS
 66
1
 70
0
  0
VERTEX
  8
0
 62
7
  6
CONTINUOUS
 10
152.453125
 20
231.1977686335
  0
VERTEX
  8
0
 62
7
  6
CONTINUOUS
 10
152.4459435978
 20
231.2342417123
  0
VERTEX
  8
0
 62
7
  6
CONTINUOUS
 10
152.4440379955
 20
231.2347136797
  0
SEQEND
  0
LINE
  8
DEFAULT_2
 62
8
  6
HIDDEN
 10
160.4674287826
 20
184.0773657996
 11
160.5050681762
 21
183.8747494714
  0
LINE
  8
DEFAULT_2
 62
8
  6
HIDDEN
 10
160.5050681762
 20
191.8599931929
 11
160.4674287826
 21
192.0957614673
  0
POLYLINE
  8
DEFAULT_2
 62
8
  6
HIDDEN
 66
1
 70
0
  0
VERTEX
  8
DEFAULT_2
 62
8
  6
HIDDEN
 10
160.5050681762
 20
191.8599931929
  0
VERTEX
  8
DEFAULT_2
 62
8
  6
HIDDEN
 10
160.5098876562
 20
191.8267375289
  0
VERTEX
  8
DEFAULT_2
 62
8
  6
HIDDEN
 10
160.5145336829
 20
191.7884639346
  0
VERTEX
  8
DEFAULT_2
 62
8
  6
HIDDEN
 10
160.5189479116
 20
191.7456667606
  0
SEQEND
  0
POLYLINE
  8
DEFAULT_2
 62
8
  6
HIDDEN
 66
1
 70
0
  0
VERTEX
  8
DEFAULT_2
 62
8
  6
HIDDEN
 10
160.4674287826
 20
178.7133847481
  0
VERTEX
  8
DEFAULT_2
 62
8
  6
HIDDEN
 10
160.4194540448
 20
179.0587309545
  0
VERTEX
  8
DEFAULT_2
 62
8
  6
HIDDEN
 10
160.376810939
 20
179.3033969278
  0
VERTEX
  8
DEFAULT_2
 62
8
  6
HIDDEN
 10
160.3402497741
 20
179.4502957305
  0
VERTEX
  8
DEFAULT_2
 62
8
  6
HIDDEN
 10
160.3094528059
 20
179.5015527377
  0
SEQEND
  0
POLYLINE
  8
DEFAULT_2
 62
8
  6
HIDDEN
 66
1
 70
0
  0
VERTEX
  8
DEFAULT_2
 62
8
  6
HIDDEN
 10
160.5189479116
 20
174.4959208558
  0
VERTEX
  8
DEFAULT_2
 62
8
  6
HIDDEN
 10
160.4944247281
 20
174.6804911269
  0
VERTEX
  8
DEFAULT_2
 62
8
  6
HIDDEN
 10
160.4747775033
 20
174.794945262
  0
VERTEX
  8
DEFAULT_2
 62
8
  6
HIDDEN
 10
160.4671241233
 20
174.824067707
  0
VERTEX
  8
DEFAULT_2
 62
8
  6
HIDDEN
 10
160.4610042955
 20
174.833951371
  0
SEQEND
  0
POLYLINE
  8
0
 62
7
  6
CONTINUOUS
 66
1
 70
0
  0
VERTEX
  8
0
 62
7
  6
CONTINUOUS
 10
160.453125
 20
192.1898678809
  0
VERTEX
  8
0
 62
7
  6
CONTINUOUS
 10
160.4254143672
 20
192.3989376995
  0
VERTEX
  8
0
 62
7
  6
CONTINUOUS
 10
160.3740386213
 20
192.8962447856
  0
VERTEX
  8
0
 62
7
  6
CONTINUOUS
 10
160.3304583036
 20
193.4779239574
  0
VERTEX
  8
0
 62
7
  6
CONTINUOUS
 10
160.3124189716
 20
193.7914755651
  0
VERTEX
  8
0
 62
7
  6
CONTINUOUS
 10
160.2852152233
 20
194.4447033318
  0
VERTEX
  8
0
 62
7
  6
CONTINUOUS
 10
160.2711744365
 20
195.1061122876
  0
VERTEX
  8
0
 62
7
  6
CONTINUOUS
 10
160.2693988066
 20
195.429853729
  0
SEQEND
  0
POLYLINE
  8
DEFAULT_2
 62
8
  6
HIDDEN
 66
1
 70
0
  0
VERTEX
  8
DEFAULT_2
 62
8
  6
HIDDEN
 10
160.376810939
 20
175.8086808403
  0
VERTEX
  8
DEFAULT_2
 62
8
  6
HIDDEN
 10
160.3402497741
 20
176.0851692474
  0
VERTEX
  8
DEFAULT_2
 62
8
  6
HIDDEN
 10
160.3104067375
 20
176.2724621282
  0
VERTEX
  8
DEFAULT_2
 62
8
  6
HIDDEN
 10
160.288068483
 20
176.367801747
  0
VERTEX
  8
DEFAULT_2
 62
8
  6
HIDDEN
 10
160.280019982
 20
176.3798197504
  0
SEQEND
  0
LINE
  8
DEFAULT_2
 62
8
  6
HIDDEN
 10
160.4674287826
 20
178.7133847481
 11
160.5050681762
 21
178.4169342483
  0
POLYLINE
  8
DEFAULT_2
 62
8
  6
HIDDEN
 66
1
 70
0
  0
VERTEX
  8
DEFAULT_2
 62
8
  6
HIDDEN
 10
160.5189479116
 20
174.4959208558
  0
VERTEX
  8
DEFAULT_2
 62
8
  6
HIDDEN
 10
160.5145349415
 20
174.5333670931
  0
VERTEX
  8
DEFAULT_2
 62
8
  6
HIDDEN
 10
160.5098890687
 20
174.5754488789
  0
SEQEND
  0
LINE
  8
DEFAULT_2
 62
8
  6
HIDDEN
 10
160.5050681762
 20
184.9368584447
 11
160.4674287826
 21
185.2603773953
  0
LINE
  8
DEFAULT_2
 62
8
  6
HIDDEN
 10
160.2694129936
 20
175.2638752823
 11
160.2711763223
 21
175.2485541289
  0
POLYLINE
  8
DEFAULT_2
 62
8
  6
HIDDEN
 66
1
 70
0
  0
VERTEX
  8
DEFAULT_2
 62
8
  6
HIDDEN
 10
160.4671241233
 20
173.1220551634
  0
VERTEX
  8
DEFAULT_2
 62
8
  6
HIDDEN
 10
160.4566716845
 20
173.2133772772
  0
VERTEX
  8
DEFAULT_2
 62
8
  6
HIDDEN
 10
160.4534546466
 20
173.2320784479
  0
SEQEND
  0
LINE
  8
DEFAULT_2
 62
8
  6
HIDDEN
 10
160.2693988066
 20
230.36125977
 11
160.2694129472
 21
230.3611247178
  0
LINE
  8
DEFAULT_2
 62
8
  6
HIDDEN
 10
160.453125
 20
232.3964839686
 11
160.4534546466
 21
232.3929215521
  0
POLYLINE
  8
DEFAULT_2
 62
8
  6
HIDDEN
 66
1
 70
0
  0
VERTEX
  8
DEFAULT_2
 62
8
  6
HIDDEN
 10
160.2693988066
 20
229.3549006834
  0
VERTEX
  8
DEFAULT_2
 62
8
  6
HIDDEN
 10
160.2741837046
 20
229.2572193354
  0
VERTEX
  8
DEFAULT_2
 62
8
  6
HIDDEN
 10
160.2800202824
 20
229.2451802496
  0
SEQEND
  0
POLYLINE
  8
DEFAULT_2
 62
8
  6
HIDDEN
 66
1
 70
0
  0
VERTEX
  8
DEFAULT_2
 62
8
  6
HIDDEN
 10
160.453125
 20
230.8766269392
  0
VERTEX
  8
DEFAULT_2
 62
8
  6
HIDDEN
 10
160.4566716845
 20
230.8005016764
  0
VERTEX
  8
DEFAULT_2
 62
8
  6
HIDDEN
 10
160.4610042955
 20
230.791048629
  0
SEQEND
  0
POLYLINE
  8
0
 62
7
  6
CONTINUOUS
 66
1
 70
0
  0
VERTEX
  8
0
 62
7
  6
CONTINUOUS
 10
160.2741989292
 20
221.806745112
  0
VERTEX
  8
0
 62
7
  6
CONTINUOUS
 10
160.2711744365
 20
221.8841744867
  0
VERTEX
  8
0
 62
7
  6
CONTINUOUS
 10
160.2693988066
 20
222.1075701337
  0
SEQEND
  0
POLYLINE
  8
DEFAULT_2
 62
8
  6
HIDDEN
 66
1
 70
0
  0
VERTEX
  8
DEFAULT_2
 62
8
  6
HIDDEN
 10
160.453125
 20
227.444246037
  0
VERTEX
  8
DEFAULT_2
 62
8
  6
HIDDEN
 10
160.4566716845
 20
227.2820445681
  0
VERTEX
  8
DEFAULT_2
 62
8
  6
HIDDEN
 10
160.4671241233
 20
227.1915543417
  0
VERTEX
  8
DEFAULT_2
 62
8
  6
HIDDEN
 10
160.4779748006
 20
227.1734464977
  0
SEQEND
  0
POLYLINE
  8
DEFAULT_2
 62
8
  6
HIDDEN
 66
1
 70
0
  0
VERTEX
  8
DEFAULT_2
 62
8
  6
HIDDEN
 10
160.2693988066
 20
226.5397208536
  0
VERTEX
  8
DEFAULT_2
 62
8
  6
HIDDEN
 10
160.2741837046
 20
226.3067902717
  0
VERTEX
  8
DEFAULT_2
 62
8
  6
HIDDEN
 10
160.2882099003
 20
226.1671383272
  0
VERTEX
  8
DEFAULT_2
 62
8
  6
HIDDEN
 10
160.3094537238
 20
226.1234472624
  0
SEQEND
  0
POLYLINE
  8
DEFAULT_2
 62
8
  6
HIDDEN
 66
1
 70
0
  0
VERTEX
  8
DEFAULT_2
 62
8
  6
HIDDEN
 10
160.453125
 20
222.3332523483
  0
VERTEX
  8
DEFAULT_2
 62
8
  6
HIDDEN
 10
160.4566716845
 20
222.0960284353
  0
VERTEX
  8
DEFAULT_2
 62
8
  6
HIDDEN
 10
160.4671241233
 20
221.9207841253
  0
VERTEX
  8
DEFAULT_2
 62
8
  6
HIDDEN
 10
160.4747775033
 20
221.8592192741
  0
VERTEX
  8
DEFAULT_2
 62
8
  6
HIDDEN
 10
160.4944247281
 20
221.7920304181
  0
VERTEX
  8
DEFAULT_2
 62
8
  6
HIDDEN
 10
160.5030492054
 20
221.7866487651
  0
SEQEND
  0
POLYLINE
  8
DEFAULT_2
 62
8
  6
HIDDEN
 66
1
 70
0
  0
VERTEX
  8
DEFAULT_2
 62
8
  6
HIDDEN
 10
160.453125
 20
215.8919516466
  0
VERTEX
  8
DEFAULT_2
 62
8
  6
HIDDEN
 10
160.4566716845
 20
215.5958717072
  0
VERTEX
  8
DEFAULT_2
 62
8
  6
HIDDEN
 10
160.4671241233
 20
215.3478159237
  0
VERTEX
  8
DEFAULT_2
 62
8
  6
HIDDEN
 10
160.4747775033
 20
215.2456751894
  0
VERTEX
  8
DEFAULT_2
 62
8
  6
HIDDEN
 10
160.4944247281
 20
215.091409978
  0
VERTEX
  8
DEFAULT_2
 62
8
  6
HIDDEN
 10
160.5189479116
 20
215.009912303
  0
SEQEND
  0
POLYLINE
  8
DEFAULT_2
 62
8
  6
HIDDEN
 66
1
 70
0
  0
VERTEX
  8
DEFAULT_2
 62
8
  6
HIDDEN
 10
160.2693988066
 20
176.2700993166
  0
VERTEX
  8
DEFAULT_2
 62
8
  6
HIDDEN
 10
160.2711763223
 20
176.3411703942
  0
VERTEX
  8
DEFAULT_2
 62
8
  6
HIDDEN
 10
160.2800202789
 20
176.3798197504
  0
SEQEND
  0
POLYLINE
  8
DEFAULT_2
 62
8
  6
HIDDEN
 66
1
 70
0
  0
VERTEX
  8
DEFAULT_2
 62
8
  6
HIDDEN
 10
160.2741978703
 20
183.818254888
  0
VERTEX
  8
DEFAULT_2
 62
8
  6
HIDDEN
 10
160.2852244105
 20
184.1004113428
  0
VERTEX
  8
DEFAULT_2
 62
8
  6
HIDDEN
 10
160.3124284146
 20
184.3291560037
  0
VERTEX
  8
DEFAULT_2
 62
8
  6
HIDDEN
 10
160.3304635286
 20
184.3906741478
  0
VERTEX
  8
DEFAULT_2
 62
8
  6
HIDDEN
 10
160.355077536
 20
184.4163333
  0
SEQEND
  0
LINE
  8
DEFAULT_2
 62
8
  6
HIDDEN
 10
160.4534546466
 20
173.2320784479
 11
160.453125
 21
173.2285160314
  0
LINE
  8
DEFAULT_2
 62
8
  6
HIDDEN
 10
160.2694128904
 20
175.2638752822
 11
160.2693988066
 21
175.26374023
  0
POLYLINE
  8
DEFAULT_2
 62
8
  6
HIDDEN
 66
1
 70
0
  0
VERTEX
  8
DEFAULT_2
 62
8
  6
HIDDEN
 10
160.5189479116
 20
198.2383691527
  0
VERTEX
  8
DEFAULT_2
 62
8
  6
HIDDEN
 10
160.4944247281
 20
198.0709978852
  0
VERTEX
  8
DEFAULT_2
 62
8
  6
HIDDEN
 10
160.4747775033
 20
197.8401692376
  0
VERTEX
  8
DEFAULT_2
 62
8
  6
HIDDEN
 10
160.4671241233
 20
197.7044133425
  0
VERTEX
  8
DEFAULT_2
 62
8
  6
HIDDEN
 10
160.4566716845
 20
197.4004506772
  0
VERTEX
  8
DEFAULT_2
 62
8
  6
HIDDEN
 10
160.453125
 20
197.06569207
  0
SEQEND
  0
POLYLINE
  8
DEFAULT_2
 62
8
  6
HIDDEN
 66
1
 70
0
  0
VERTEX
  8
DEFAULT_2
 62
8
  6
HIDDEN
 10
167.6262298887
 20
229.2451802497
  0
VERTEX
  8
DEFAULT_2
 62
8
  6
HIDDEN
 10
167.6350755635
 20
229.2838578178
  0
VERTEX
  8
DEFAULT_2
 62
8
  6
HIDDEN
 10
167.6368511934
 20
229.3549006834
  0
SEQEND
  0
POLYLINE
  8
DEFAULT_2
 62
8
  6
HIDDEN
 66
1
 70
0
  0
VERTEX
  8
DEFAULT_2
 62
8
  6
HIDDEN
 10
160.3423574778
 20
190.6112891005
  0
VERTEX
  8
DEFAULT_2
 62
8
  6
HIDDEN
 10
160.3740299345
 20
190.7455124922
  0
VERTEX
  8
DEFAULT_2
 62
8
  6
HIDDEN
 10
160.4130397543
 20
190.789227264
  0
SEQEND
  0
POLYLINE
  8
DEFAULT_2
 62
8
  6
HIDDEN
 66
1
 70
0
  0
VERTEX
  8
DEFAULT_2
 62
8
  6
HIDDEN
 10
160.5189479116
 20
198.2383691527
  0
VERTEX
  8
DEFAULT_2
 62
8
  6
HIDDEN
 10
160.5145349415
 20
198.2200385849
  0
VERTEX
  8
DEFAULT_2
 62
8
  6
HIDDEN
 10
160.5098890687
 20
198.2079330647
  0
VERTEX
  8
DEFAULT_2
 62
8
  6
HIDDEN
 10
160.5050681762
 20
198.2022173879
  0
SEQEND
  0
POLYLINE
  8
DEFAULT_2
 62
8
  6
HIDDEN
 66
1
 70
0
  0
VERTEX
  8
DEFAULT_2
 62
8
  6
HIDDEN
 10
167.3873020884
 20
215.009912303
  0
VERTEX
  8
DEFAULT_2
 62
8
  6
HIDDEN
 10
167.4118252719
 20
215.091409978
  0
VERTEX
  8
DEFAULT_2
 62
8
  6
HIDDEN
 10
167.4314724967
 20
215.2456751894
  0
VERTEX
  8
DEFAULT_2
 62
8
  6
HIDDEN
 10
167.4391258767
 20
215.3478159237
  0
VERTEX
  8
DEFAULT_2
 62
8
  6
HIDDEN
 10
167.4495783155
 20
215.5958717072
  0
VERTEX
  8
DEFAULT_2
 62
8
  6
HIDDEN
 10
167.453125
 20
215.8919516466
  0
SEQEND
  0
POLYLINE
  8
DEFAULT_2
 62
8
  6
HIDDEN
 66
1
 70
0
  0
VERTEX
  8
DEFAULT_2
 62
8
  6
HIDDEN
 10
160.5189479116
 20
190.615087697
  0
VERTEX
  8
DEFAULT_2
 62
8
  6
HIDDEN
 10
160.4944247281
 20
190.533590022
  0
VERTEX
  8
DEFAULT_2
 62
8
  6
HIDDEN
 10
160.4747775033
 20
190.3793248106
  0
VERTEX
  8
DEFAULT_2
 62
8
  6
HIDDEN
 10
160.4671241233
 20
190.2771840763
  0
VERTEX
  8
DEFAULT_2
 62
8
  6
HIDDEN
 10
160.4566716845
 20
190.0291282928
  0
VERTEX
  8
DEFAULT_2
 62
8
  6
HIDDEN
 10
160.453125
 20
189.7330483534
  0
SEQEND
  0
POLYLINE
  8
DEFAULT_2
 62
8
  6
HIDDEN
 66
1
 70
0
  0
VERTEX
  8
DEFAULT_2
 62
8
  6
HIDDEN
 10
160.4674287826
 20
198.1830771028
  0
VERTEX
  8
DEFAULT_2
 62
8
  6
HIDDEN
 10
160.4194540448
 20
198.1033733835
  0
VERTEX
  8
DEFAULT_2
 62
8
  6
HIDDEN
 10
160.376810939
 20
197.9253139181
  0
VERTEX
  8
DEFAULT_2
 62
8
  6
HIDDEN
 10
160.3402497741
 20
197.6614665163
  0
VERTEX
  8
DEFAULT_2
 62
8
  6
HIDDEN
 10
160.3104067375
 20
197.3210678656
  0
VERTEX
  8
DEFAULT_2
 62
8
  6
HIDDEN
 10
160.288068483
 20
196.9122436702
  0
VERTEX
  8
DEFAULT_2
 62
8
  6
HIDDEN
 10
160.2741435249
 20
196.4453007306
  0
VERTEX
  8
DEFAULT_2
 62
8
  6
HIDDEN
 10
160.2693988066
 20
195.9348588762
  0
SEQEND
  0
POLYLINE
  8
DEFAULT_2
 62
8
  6
HIDDEN
 66
1
 70
0
  0
VERTEX
  8
DEFAULT_2
 62
8
  6
HIDDEN
 10
167.4011818238
 20
207.4227826121
  0
VERTEX
  8
DEFAULT_2
 62
8
  6
HIDDEN
 10
167.3963623438
 20
207.4170695949
  0
VERTEX
  8
DEFAULT_2
 62
8
  6
HIDDEN
 10
167.3917163171
 20
207.4049656439
  0
VERTEX
  8
DEFAULT_2
 62
8
  6
HIDDEN
 10
167.3873020884
 20
207.3866308473
  0
SEQEND
  0
LINE
  8
DEFAULT_2
 62
8
  6
HIDDEN
 10
167.4011818238
 20
207.4227826121
 11
167.4388212174
 21
207.4419228972
  0
POLYLINE
  8
0
 62
7
  6
CONTINUOUS
 66
1
 70
0
  0
VERTEX
  8
0
 62
7
  6
CONTINUOUS
 10
175.6622517542
 20
207.4419228972
  0
VERTEX
  8
0
 62
7
  6
CONTINUOUS
 10
175.7477487381
 20
207.4781857105
  0
VERTEX
  8
0
 62
7
  6
CONTINUOUS
 10
175.9067891166
 20
207.6723557738
  0
VERTEX
  8
0
 62
7
  6
CONTINUOUS
 10
176.0415360988
 20
208.0160912883
  0
VERTEX
  8
0
 62
7
  6
CONTINUOUS
 10
176.0970218073
 20
208.2369827109
  0
VERTEX
  8
0
 62
7
  6
CONTINUOUS
 10
176.1801941282
 20
208.7598589945
  0
VERTEX
  8
0
 62
7
  6
CONTINUOUS
 10
176.2227703601
 20
209.3657822441
  0
VERTEX
  8
0
 62
7
  6
CONTINUOUS
 10
176.228125
 20
209.6901411238
  0
SEQEND
  0
LINE
  8
0
 62
7
  6
CONTINUOUS
 10
152.3515533051
 20
198.2022173879
 11
152.2439982458
 21
198.1830771028
  0
LINE
  8
0
 62
9
  6
CONTINUOUS
 10
175.5546966949
 20
199.52952318
 11
152.3515533051
 21
199.52952318
  0
LINE
  8
0
 62
9
  6
CONTINUOUS
 10
152.2439982458
 20
199.66147356
 11
175.6622517542
 21
199.66147356
  0
LINE
  8
0
 62
7
  6
CONTINUOUS
 10
160.453125
 20
199.7164029697
 11
167.453125
 21
199.7164029697
  0
LINE
  8
DEFAULT_2
 62
8
  6
HIDDEN
 10
167.453125
 20
200.8350287501
 11
160.453125
 21
200.8350287501
  0
LINE
  8
0
 62
9
  6
CONTINUOUS
 10
151.678125
 20
202.5510901
 11
160.2693988066
 21
202.5510901
  0
LINE
  8
0
 62
9
  6
CONTINUOUS
 10
167.6368511934
 20
202.5510901
 11
176.228125
 21
202.5510901
  0
LINE
  8
DEFAULT_1
 62
2
  6
CENTER
 10
149.453125
 20
202.8125
 11
178.453125
 21
202.8125
  0
LINE
  8
0
 62
9
  6
CONTINUOUS
 10
151.678125
 20
203.0739099
 11
160.2693988066
 21
203.0739099
  0
LINE
  8
0
 62
9
  6
CONTINUOUS
 10
167.6368511934
 20
203.0739099
 11
176.228125
 21
203.0739099
  0
LINE
  8
0
 62
7
  6
CONTINUOUS
 10
175.5546966949
 20
198.2022173879
 11
175.6622517542
 21
198.1830771028
  0
POLYLINE
  8
0
 62
7
  6
CONTINUOUS
 66
1
 70
0
  0
VERTEX
  8
0
 62
7
  6
CONTINUOUS
 10
152.2439982458
 20
207.4419228972
  0
VERTEX
  8
0
 62
7
  6
CONTINUOUS
 10
152.1585012619
 20
207.4781857105
  0
VERTEX
  8
0
 62
7
  6
CONTINUOUS
 10
151.9994608834
 20
207.6723557738
  0
VERTEX
  8
0
 62
7
  6
CONTINUOUS
 10
151.8647139012
 20
208.0160912883
  0
VERTEX
  8
0
 62
7
  6
CONTINUOUS
 10
151.8092281927
 20
208.2369827109
  0
VERTEX
  8
0
 62
7
  6
CONTINUOUS
 10
151.7260558718
 20
208.7598589945
  0
VERTEX
  8
0
 62
7
  6
CONTINUOUS
 10
151.6834796399
 20
209.3657822441
  0
VERTEX
  8
0
 62
7
  6
CONTINUOUS
 10
151.678125
 20
209.6901411238
  0
SEQEND
  0
LINE
  8
DEFAULT_2
 62
8
  6
HIDDEN
 10
167.4388212174
 20
198.1830771028
 11
167.4011818238
 21
198.2022173879
  0
POLYLINE
  8
DEFAULT_2
 62
8
  6
HIDDEN
 66
1
 70
0
  0
VERTEX
  8
DEFAULT_2
 62
8
  6
HIDDEN
 10
160.5050681762
 20
207.4227826121
  0
VERTEX
  8
DEFAULT_2
 62
8
  6
HIDDEN
 10
160.5098876562
 20
207.4170695949
  0
VERTEX
  8
DEFAULT_2
 62
8
  6
HIDDEN
 10
160.5145336829
 20
207.4049656439
  0
VERTEX
  8
DEFAULT_2
 62
8
  6
HIDDEN
 10
160.5189479116
 20
207.3866308473
  0
SEQEND
  0
POLYLINE
  8
0
 62
7
  6
CONTINUOUS
 66
1
 70
0
  0
VERTEX
  8
0
 62
7
  6
CONTINUOUS
 10
160.453125
 20
207.4539319546
  0
VERTEX
  8
0
 62
7
  6
CONTINUOUS
 10
160.4254143672
 20
207.5053834358
  0
VERTEX
  8
0
 62
7
  6
CONTINUOUS
 10
160.3740386213
 20
207.7155328681
  0
VERTEX
  8
0
 62
7
  6
CONTINUOUS
 10
160.3304583036
 20
208.0590328765
  0
VERTEX
  8
0
 62
7
  6
CONTINUOUS
 10
160.3124189716
 20
208.2755988032
  0
VERTEX
  8
0
 62
7
  6
CONTINUOUS
 10
160.2852152233
 20
208.784855239
  0
VERTEX
  8
0
 62
7
  6
CONTINUOUS
 10
160.2711744365
 20
209.3742513786
  0
VERTEX
  8
0
 62
7
  6
CONTINUOUS
 10
160.2693988066
 20
209.6901411238
  0
SEQEND
  0
POLYLINE
  8
0
 62
7
  6
CONTINUOUS
 66
1
 70
0
  0
VERTEX
  8
0
 62
7
  6
CONTINUOUS
 10
160.3423606117
 20
215.0137108995
  0
VERTEX
  8
0
 62
7
  6
CONTINUOUS
 10
160.3304583036
 20
215.064150065
  0
VERTEX
  8
0
 62
7
  6
CONTINUOUS
 10
160.3124189716
 20
215.2081142803
  0
VERTEX
  8
0
 62
7
  6
CONTINUOUS
 10
160.2852152233
 20
215.5901760649
  0
VERTEX
  8
0
 62
7
  6
CONTINUOUS
 10
160.2711744365
 20
216.0813376103
  0
VERTEX
  8
0
 62
7
  6
CONTINUOUS
 10
160.2693988066
 20
216.3604922708
  0
SEQEND
  0
LINE
  8
DEFAULT_2
 62
8
  6
HIDDEN
 10
167.6368511934
 20
175.26374023
 11
167.6368370064
 21
175.2638752823
  0
LINE
  8
DEFAULT_2
 62
8
  6
HIDDEN
 10
167.453125
 20
173.2285160314
 11
167.4527953534
 21
173.2320784479
  0
POLYLINE
  8
DEFAULT_2
 62
8
  6
HIDDEN
 66
1
 70
0
  0
VERTEX
  8
DEFAULT_2
 62
8
  6
HIDDEN
 10
167.6368511934
 20
176.2700993166
  0
VERTEX
  8
DEFAULT_2
 62
8
  6
HIDDEN
 10
167.6320662954
 20
176.3677806649
  0
VERTEX
  8
DEFAULT_2
 62
8
  6
HIDDEN
 10
167.6262297176
 20
176.3798197504
  0
SEQEND
  0
POLYLINE
  8
DEFAULT_2
 62
8
  6
HIDDEN
 66
1
 70
0
  0
VERTEX
  8
DEFAULT_2
 62
8
  6
HIDDEN
 10
167.453125
 20
174.7483730608
  0
VERTEX
  8
DEFAULT_2
 62
8
  6
HIDDEN
 10
167.4495783155
 20
174.8244983236
  0
VERTEX
  8
DEFAULT_2
 62
8
  6
HIDDEN
 10
167.4452457045
 20
174.833951371
  0
SEQEND
  0
POLYLINE
  8
DEFAULT_2
 62
8
  6
HIDDEN
 66
1
 70
0
  0
VERTEX
  8
DEFAULT_2
 62
8
  6
HIDDEN
 10
167.6320521297
 20
183.818254888
  0
VERTEX
  8
DEFAULT_2
 62
8
  6
HIDDEN
 10
167.6210255895
 20
184.1004113428
  0
VERTEX
  8
DEFAULT_2
 62
8
  6
HIDDEN
 10
167.5938215854
 20
184.3291560037
  0
VERTEX
  8
DEFAULT_2
 62
8
  6
HIDDEN
 10
167.5757864714
 20
184.3906741478
  0
VERTEX
  8
DEFAULT_2
 62
8
  6
HIDDEN
 10
167.551172464
 20
184.4163333
  0
SEQEND
  0
POLYLINE
  8
DEFAULT_2
 62
8
  6
HIDDEN
 66
1
 70
0
  0
VERTEX
  8
DEFAULT_2
 62
8
  6
HIDDEN
 10
167.6368511934
 20
229.4902164047
  0
VERTEX
  8
DEFAULT_2
 62
8
  6
HIDDEN
 10
167.6320662954
 20
229.6733333301
  0
VERTEX
  8
DEFAULT_2
 62
8
  6
HIDDEN
 10
167.6180400994
 20
229.9440850523
  0
SEQEND
  0
POLYLINE
  8
DEFAULT_2
 62
8
  6
HIDDEN
 66
1
 70
0
  0
VERTEX
  8
DEFAULT_2
 62
8
  6
HIDDEN
 10
167.6368511934
 20
176.2700993166
  0
VERTEX
  8
DEFAULT_2
 62
8
  6
HIDDEN
 10
167.6350736777
 20
176.3411703942
  0
VERTEX
  8
DEFAULT_2
 62
8
  6
HIDDEN
 10
167.6262297211
 20
176.3798197504
  0
SEQEND
  0
POLYLINE
  8
DEFAULT_2
 62
8
  6
HIDDEN
 66
1
 70
0
  0
VERTEX
  8
DEFAULT_2
 62
8
  6
HIDDEN
 10
167.453125
 20
178.180753963
  0
VERTEX
  8
DEFAULT_2
 62
8
  6
HIDDEN
 10
167.4495783155
 20
178.3429554319
  0
VERTEX
  8
DEFAULT_2
 62
8
  6
HIDDEN
 10
167.4391258767
 20
178.4334456583
  0
VERTEX
  8
DEFAULT_2
 62
8
  6
HIDDEN
 10
167.4282751994
 20
178.4515535023
  0
SEQEND
  0
POLYLINE
  8
DEFAULT_2
 62
8
  6
HIDDEN
 66
1
 70
0
  0
VERTEX
  8
DEFAULT_2
 62
8
  6
HIDDEN
 10
167.6368511934
 20
179.0852791464
  0
VERTEX
  8
DEFAULT_2
 62
8
  6
HIDDEN
 10
167.6320662954
 20
179.3182097295
  0
VERTEX
  8
DEFAULT_2
 62
8
  6
HIDDEN
 10
167.6180400994
 20
179.4578616743
  0
VERTEX
  8
DEFAULT_2
 62
8
  6
HIDDEN
 10
167.5967962763
 20
179.5015527376
  0
SEQEND
  0
POLYLINE
  8
DEFAULT_2
 62
8
  6
HIDDEN
 66
1
 70
0
  0
VERTEX
  8
DEFAULT_2
 62
8
  6
HIDDEN
 10
167.453125
 20
229.4217172869
  0
VERTEX
  8
DEFAULT_2
 62
8
  6
HIDDEN
 10
167.4495783155
 20
229.6101398473
  0
VERTEX
  8
DEFAULT_2
 62
8
  6
HIDDEN
 10
167.4391258767
 20
229.8588046146
  0
VERTEX
  8
DEFAULT_2
 62
8
  6
HIDDEN
 10
167.4314724967
 20
230.0021307055
  0
VERTEX
  8
DEFAULT_2
 62
8
  6
HIDDEN
 10
167.4118252719
 20
230.3182585072
  0
VERTEX
  8
DEFAULT_2
 62
8
  6
HIDDEN
 10
167.3873020884
 20
230.6607779627
  0
SEQEND
  0
POLYLINE
  8
DEFAULT_2
 62
8
  6
HIDDEN
 66
1
 70
0
  0
VERTEX
  8
DEFAULT_2
 62
8
  6
HIDDEN
 10
167.6368511934
 20
226.8011307535
  0
VERTEX
  8
DEFAULT_2
 62
8
  6
HIDDEN
 10
167.6320662954
 20
227.1106607795
  0
VERTEX
  8
DEFAULT_2
 62
8
  6
HIDDEN
 10
167.6180400994
 20
227.4933787221
  0
SEQEND
  0
POLYLINE
  8
DEFAULT_2
 62
8
  6
HIDDEN
 66
1
 70
0
  0
VERTEX
  8
DEFAULT_2
 62
8
  6
HIDDEN
 10
167.453125
 20
183.2917476517
  0
VERTEX
  8
DEFAULT_2
 62
8
  6
HIDDEN
 10
167.4495783155
 20
183.5289715647
  0
VERTEX
  8
DEFAULT_2
 62
8
  6
HIDDEN
 10
167.4391258767
 20
183.7042158747
  0
VERTEX
  8
DEFAULT_2
 62
8
  6
HIDDEN
 10
167.4314724967
 20
183.7657807259
  0
VERTEX
  8
DEFAULT_2
 62
8
  6
HIDDEN
 10
167.4118252719
 20
183.8329695819
  0
VERTEX
  8
DEFAULT_2
 62
8
  6
HIDDEN
 10
167.4032007946
 20
183.8383512349
  0
SEQEND
  0
POLYLINE
  8
DEFAULT_2
 62
8
  6
HIDDEN
 66
1
 70
0
  0
VERTEX
  8
DEFAULT_2
 62
8
  6
HIDDEN
 10
167.6368511934
 20
183.5174298663
  0
VERTEX
  8
DEFAULT_2
 62
8
  6
HIDDEN
 10
167.6320662954
 20
183.8697358498
  0
VERTEX
  8
DEFAULT_2
 62
8
  6
HIDDEN
 10
167.6180400994
 20
184.1398758615
  0
VERTEX
  8
DEFAULT_2
 62
8
  6
HIDDEN
 10
167.595587035
 20
184.3204359256
  0
VERTEX
  8
DEFAULT_2
 62
8
  6
HIDDEN
 10
167.5656697696
 20
184.4079209215
  0
VERTEX
  8
DEFAULT_2
 62
8
  6
HIDDEN
 10
167.5511728842
 20
184.4163332973
  0
SEQEND
  0
POLYLINE
  8
DEFAULT_2
 62
8
  6
HIDDEN
 66
1
 70
0
  0
VERTEX
  8
DEFAULT_2
 62
8
  6
HIDDEN
 10
167.453125
 20
225.1298190092
  0
VERTEX
  8
DEFAULT_2
 62
8
  6
HIDDEN
 10
167.4495783155
 20
225.3884523536
  0
VERTEX
  8
DEFAULT_2
 62
8
  6
HIDDEN
 10
167.4391258767
 20
225.6928456355
  0
VERTEX
  8
DEFAULT_2
 62
8
  6
HIDDEN
 10
167.4314724967
 20
225.8577239756
  0
VERTEX
  8
DEFAULT_2
 62
8
  6
HIDDEN
 10
167.4118252719
 20
226.2030067583
  0
VERTEX
  8
DEFAULT_2
 62
8
  6
HIDDEN
 10
167.3873020884
 20
226.5549482969
  0
SEQEND
  0
POLYLINE
  8
DEFAULT_2
 62
8
  6
HIDDEN
 66
1
 70
0
  0
VERTEX
  8
DEFAULT_2
 62
8
  6
HIDDEN
 10
167.453125
 20
189.7330483534
  0
VERTEX
  8
DEFAULT_2
 62
8
  6
HIDDEN
 10
167.4495783155
 20
190.0291282928
  0
VERTEX
  8
DEFAULT_2
 62
8
  6
HIDDEN
 10
167.4391258767
 20
190.2771840763
  0
VERTEX
  8
DEFAULT_2
 62
8
  6
HIDDEN
 10
167.4314724967
 20
190.3793248106
  0
VERTEX
  8
DEFAULT_2
 62
8
  6
HIDDEN
 10
167.4118252719
 20
190.533590022
  0
VERTEX
  8
DEFAULT_2
 62
8
  6
HIDDEN
 10
167.3873020884
 20
190.615087697
  0
SEQEND
  0
POLYLINE
  8
DEFAULT_2
 62
8
  6
HIDDEN
 66
1
 70
0
  0
VERTEX
  8
DEFAULT_2
 62
8
  6
HIDDEN
 10
167.6368511934
 20
179.0852791464
  0
VERTEX
  8
DEFAULT_2
 62
8
  6
HIDDEN
 10
167.6350736777
 20
179.2377640263
  0
VERTEX
  8
DEFAULT_2
 62
8
  6
HIDDEN
 10
167.6210255895
 20
179.4410026368
  0
VERTEX
  8
DEFAULT_2
 62
8
  6
HIDDEN
 10
167.5967953668
 20
179.5015527377
  0
SEQEND
  0
POLYLINE
  8
DEFAULT_2
 62
8
  6
HIDDEN
 66
1
 70
0
  0
VERTEX
  8
DEFAULT_2
 62
8
  6
HIDDEN
 10
167.6368511934
 20
222.4772595596
  0
VERTEX
  8
DEFAULT_2
 62
8
  6
HIDDEN
 10
167.6320662954
 20
222.8921087263
  0
VERTEX
  8
DEFAULT_2
 62
8
  6
HIDDEN
 10
167.6180400994
 20
223.3607112941
  0
SEQEND
  0
POLYLINE
  8
DEFAULT_2
 62
8
  6
HIDDEN
 66
1
 70
0
  0
VERTEX
  8
DEFAULT_2
 62
8
  6
HIDDEN
 10
167.453125
 20
219.317032322
  0
VERTEX
  8
DEFAULT_2
 62
8
  6
HIDDEN
 10
167.4495783155
 20
219.6282510156
  0
VERTEX
  8
DEFAULT_2
 62
8
  6
HIDDEN
 10
167.4391258767
 20
219.9676289129
  0
VERTEX
  8
DEFAULT_2
 62
8
  6
HIDDEN
 10
167.4314724967
 20
220.1428233158
  0
VERTEX
  8
DEFAULT_2
 62
8
  6
HIDDEN
 10
167.4118252719
 20
220.4937306286
  0
VERTEX
  8
DEFAULT_2
 62
8
  6
HIDDEN
 10
167.3873020884
 20
220.8311100159
  0
SEQEND
  0
POLYLINE
  8
DEFAULT_2
 62
8
  6
HIDDEN
 66
1
 70
0
  0
VERTEX
  8
DEFAULT_2
 62
8
  6
HIDDEN
 10
167.6368511934
 20
189.2645077292
  0
VERTEX
  8
DEFAULT_2
 62
8
  6
HIDDEN
 10
167.6320662954
 20
189.7121800426
  0
VERTEX
  8
DEFAULT_2
 62
8
  6
HIDDEN
 10
167.6180400994
 20
190.0943985257
  0
VERTEX
  8
DEFAULT_2
 62
8
  6
HIDDEN
 10
167.595587035
 20
190.3996254088
  0
VERTEX
  8
DEFAULT_2
 62
8
  6
HIDDEN
 10
167.5656697696
 20
190.6207722586
  0
VERTEX
  8
DEFAULT_2
 62
8
  6
HIDDEN
 10
167.5291200963
 20
190.7524961823
  0
VERTEX
  8
DEFAULT_2
 62
8
  6
HIDDEN
 10
167.4932465335
 20
190.7892272236
  0
SEQEND
  0
POLYLINE
  8
DEFAULT_2
 62
8
  6
HIDDEN
 66
1
 70
0
  0
VERTEX
  8
DEFAULT_2
 62
8
  6
HIDDEN
 10
167.453125
 20
197.06569207
  0
VERTEX
  8
DEFAULT_2
 62
8
  6
HIDDEN
 10
167.4495783155
 20
197.4004506772
  0
VERTEX
  8
DEFAULT_2
 62
8
  6
HIDDEN
 10
167.4391258767
 20
197.7044133425
  0
VERTEX
  8
DEFAULT_2
 62
8
  6
HIDDEN
 10
167.4314724967
 20
197.8401692376
  0
VERTEX
  8
DEFAULT_2
 62
8
  6
HIDDEN
 10
167.4118252719
 20
198.0709978852
  0
VERTEX
  8
DEFAULT_2
 62
8
  6
HIDDEN
 10
167.3873020884
 20
198.2383691527
  0
SEQEND
  0
POLYLINE
  8
DEFAULT_2
 62
8
  6
HIDDEN
 66
1
 70
0
  0
VERTEX
  8
DEFAULT_2
 62
8
  6
HIDDEN
 10
167.453125
 20
212.3794890321
  0
VERTEX
  8
DEFAULT_2
 62
8
  6
HIDDEN
 10
167.4495783155
 20
212.7220840352
  0
VERTEX
  8
DEFAULT_2
 62
8
  6
HIDDEN
 10
167.4391258767
 20
213.0733185051
  0
VERTEX
  8
DEFAULT_2
 62
8
  6
HIDDEN
 10
167.4314724967
 20
213.2468897617
  0
VERTEX
  8
DEFAULT_2
 62
8
  6
HIDDEN
 10
167.4118252719
 20
213.5795078511
  0
VERTEX
  8
DEFAULT_2
 62
8
  6
HIDDEN
 10
167.3873020884
 20
213.8793332394
  0
SEQEND
  0
POLYLINE
  8
DEFAULT_2
 62
8
  6
HIDDEN
 66
1
 70
0
  0
VERTEX
  8
DEFAULT_2
 62
8
  6
HIDDEN
 10
167.453125
 20
204.7899712499
  0
VERTEX
  8
DEFAULT_2
 62
8
  6
HIDDEN
 10
167.4495783155
 20
205.1405952792
  0
VERTEX
  8
DEFAULT_2
 62
8
  6
HIDDEN
 10
167.4391258767
 20
205.4797502729
  0
VERTEX
  8
DEFAULT_2
 62
8
  6
HIDDEN
 10
167.4314724967
 20
205.639869789
  0
VERTEX
  8
DEFAULT_2
 62
8
  6
HIDDEN
 10
167.4118252719
 20
205.9315312818
  0
VERTEX
  8
DEFAULT_2
 62
8
  6
HIDDEN
 10
167.3873020884
 20
206.1733700665
  0
SEQEND
  0
POLYLINE
  8
DEFAULT_2
 62
8
  6
HIDDEN
 66
1
 70
0
  0
VERTEX
  8
DEFAULT_2
 62
8
  6
HIDDEN
 10
167.6368511934
 20
226.8011307535
  0
VERTEX
  8
DEFAULT_2
 62
8
  6
HIDDEN
 10
167.6350736777
 20
226.9799187321
  0
VERTEX
  8
DEFAULT_2
 62
8
  6
HIDDEN
 10
167.6237072864
 20
227.3394270833
  0
SEQEND
  0
POLYLINE
  8
DEFAULT_2
 62
8
  6
HIDDEN
 66
1
 70
0
  0
VERTEX
  8
DEFAULT_2
 62
8
  6
HIDDEN
 10
167.6368511934
 20
216.8132674992
  0
VERTEX
  8
DEFAULT_2
 62
8
  6
HIDDEN
 10
167.6320662954
 20
217.3051645216
  0
VERTEX
  8
DEFAULT_2
 62
8
  6
HIDDEN
 10
167.6180400994
 20
217.8277172239
  0
VERTEX
  8
DEFAULT_2
 62
8
  6
HIDDEN
 10
167.595587035
 20
218.3626737095
  0
VERTEX
  8
DEFAULT_2
 62
8
  6
HIDDEN
 10
167.5656697696
 20
218.8952744876
  0
VERTEX
  8
DEFAULT_2
 62
8
  6
HIDDEN
 10
167.5291200963
 20
219.4141742294
  0
SEQEND
  0
POLYLINE
  8
DEFAULT_2
 62
8
  6
HIDDEN
 66
1
 70
0
  0
VERTEX
  8
DEFAULT_2
 62
8
  6
HIDDEN
 10
167.6368511934
 20
195.9348588762
  0
VERTEX
  8
DEFAULT_2
 62
8
  6
HIDDEN
 10
167.6320662954
 20
196.4473893912
  0
VERTEX
  8
DEFAULT_2
 62
8
  6
HIDDEN
 10
167.6180400994
 20
196.9156387878
  0
VERTEX
  8
DEFAULT_2
 62
8
  6
HIDDEN
 10
167.595587035
 20
197.3247317821
  0
VERTEX
  8
DEFAULT_2
 62
8
  6
HIDDEN
 10
167.5656697696
 20
197.6644696936
  0
VERTEX
  8
DEFAULT_2
 62
8
  6
HIDDEN
 10
167.5291200963
 20
197.9270994205
  0
VERTEX
  8
DEFAULT_2
 62
8
  6
HIDDEN
 10
167.4865992629
 20
198.1039402352
  0
VERTEX
  8
DEFAULT_2
 62
8
  6
HIDDEN
 10
167.4388212174
 20
198.1830771028
  0
SEQEND
  0
POLYLINE
  8
DEFAULT_2
 62
8
  6
HIDDEN
 66
1
 70
0
  0
VERTEX
  8
DEFAULT_2
 62
8
  6
HIDDEN
 10
167.6368511934
 20
210.195146271
  0
VERTEX
  8
DEFAULT_2
 62
8
  6
HIDDEN
 10
167.6320662954
 20
210.73056918
  0
VERTEX
  8
DEFAULT_2
 62
8
  6
HIDDEN
 10
167.6180400994
 20
211.2714609137
  0
VERTEX
  8
DEFAULT_2
 62
8
  6
HIDDEN
 10
167.595587035
 20
211.7994707008
  0
VERTEX
  8
DEFAULT_2
 62
8
  6
HIDDEN
 10
167.5656697696
 20
212.3004290288
  0
VERTEX
  8
DEFAULT_2
 62
8
  6
HIDDEN
 10
167.5291200963
 20
212.7634757069
  0
VERTEX
  8
DEFAULT_2
 62
8
  6
HIDDEN
 10
167.4865992629
 20
213.1778406359
  0
VERTEX
  8
DEFAULT_2
 62
8
  6
HIDDEN
 10
167.4388212174
 20
213.5292385327
  0
SEQEND
  0
POLYLINE
  8
DEFAULT_2
 62
8
  6
HIDDEN
 66
1
 70
0
  0
VERTEX
  8
DEFAULT_2
 62
8
  6
HIDDEN
 10
167.6368511934
 20
203.0739099
  0
VERTEX
  8
DEFAULT_2
 62
8
  6
HIDDEN
 10
167.6320662954
 20
203.616370509
  0
VERTEX
  8
DEFAULT_2
 62
8
  6
HIDDEN
 10
167.6180400994
 20
204.1387403964
  0
VERTEX
  8
DEFAULT_2
 62
8
  6
HIDDEN
 10
167.595587035
 20
204.6238204905
  0
VERTEX
  8
DEFAULT_2
 62
8
  6
HIDDEN
 10
167.5656697696
 20
205.0589968864
  0
VERTEX
  8
DEFAULT_2
 62
8
  6
HIDDEN
 10
167.5291200963
 20
205.4346346348
  0
VERTEX
  8
DEFAULT_2
 62
8
  6
HIDDEN
 10
167.4865992629
 20
205.7406652469
  0
VERTEX
  8
DEFAULT_2
 62
8
  6
HIDDEN
 10
167.4388212174
 20
205.96352644
  0
SEQEND
  0
POLYLINE
  8
0
 62
7
  6
CONTINUOUS
 66
1
 70
0
  0
VERTEX
  8
0
 62
7
  6
CONTINUOUS
 10
167.6368511934
 20
183.5174298663
  0
VERTEX
  8
0
 62
7
  6
CONTINUOUS
 10
167.6350736777
 20
183.7409369558
  0
VERTEX
  8
0
 62
7
  6
CONTINUOUS
 10
167.6320521297
 20
183.818254888
  0
SEQEND
  0
POLYLINE
  8
0
 62
7
  6
CONTINUOUS
 66
1
 70
0
  0
VERTEX
  8
0
 62
7
  6
CONTINUOUS
 10
167.6368511934
 20
222.4772595596
  0
VERTEX
  8
0
 62
7
  6
CONTINUOUS
 10
167.6350736777
 20
222.7222430392
  0
VERTEX
  8
0
 62
7
  6
CONTINUOUS
 10
167.6210255895
 20
223.2785660242
  0
VERTEX
  8
0
 62
7
  6
CONTINUOUS
 10
167.5938215854
 20
223.9006545434
  0
VERTEX
  8
0
 62
7
  6
CONTINUOUS
 10
167.5757864714
 20
224.227081691
  0
VERTEX
  8
0
 62
7
  6
CONTINUOUS
 10
167.5322200655
 20
224.8908705752
  0
VERTEX
  8
0
 62
7
  6
CONTINUOUS
 10
167.4808474883
 20
225.5420640691
  0
VERTEX
  8
0
 62
7
  6
CONTINUOUS
 10
167.453125
 20
225.8528704951
  0
SEQEND
  0
POLYLINE
  8
0
 62
7
  6
CONTINUOUS
 66
1
 70
0
  0
VERTEX
  8
0
 62
7
  6
CONTINUOUS
 10
167.6368511934
 20
189.2645077292
  0
VERTEX
  8
0
 62
7
  6
CONTINUOUS
 10
167.6350736777
 20
189.5438053896
  0
VERTEX
  8
0
 62
7
  6
CONTINUOUS
 10
167.6210255895
 20
190.0350179676
  0
VERTEX
  8
0
 62
7
  6
CONTINUOUS
 10
167.5938215854
 20
190.4169766997
  0
VERTEX
  8
0
 62
7
  6
CONTINUOUS
 10
167.5757864714
 20
190.5608842265
  0
VERTEX
  8
0
 62
7
  6
CONTINUOUS
 10
167.5638925222
 20
190.6112891005
  0
SEQEND
  0
POLYLINE
  8
0
 62
7
  6
CONTINUOUS
 66
1
 70
0
  0
VERTEX
  8
0
 62
7
  6
CONTINUOUS
 10
167.6368511934
 20
216.8132674992
  0
VERTEX
  8
0
 62
7
  6
CONTINUOUS
 10
167.6350736777
 20
217.1077512607
  0
VERTEX
  8
0
 62
7
  6
CONTINUOUS
 10
167.6210255895
 20
217.7381568172
  0
VERTEX
  8
0
 62
7
  6
CONTINUOUS
 10
167.5938215854
 20
218.3982516589
  0
VERTEX
  8
0
 62
7
  6
CONTINUOUS
 10
167.5757864714
 20
218.7294781384
  0
VERTEX
  8
0
 62
7
  6
CONTINUOUS
 10
167.5322200655
 20
219.3740859653
  0
VERTEX
  8
0
 62
7
  6
CONTINUOUS
 10
167.4808474883
 20
219.9685941991
  0
VERTEX
  8
0
 62
7
  6
CONTINUOUS
 10
167.453125
 20
220.2377523838
  0
SEQEND
  0
POLYLINE
  8
0
 62
7
  6
CONTINUOUS
 66
1
 70
0
  0
VERTEX
  8
0
 62
7
  6
CONTINUOUS
 10
167.6368511934
 20
195.9348588762
  0
VERTEX
  8
0
 62
7
  6
CONTINUOUS
 10
167.6350736777
 20
196.2509134335
  0
VERTEX
  8
0
 62
7
  6
CONTINUOUS
 10
167.6210255895
 20
196.8403888771
  0
VERTEX
  8
0
 62
7
  6
CONTINUOUS
 10
167.5938215854
 20
197.3495318241
  0
VERTEX
  8
0
 62
7
  6
CONTINUOUS
 10
167.5757864714
 20
197.5660216734
  0
VERTEX
  8
0
 62
7
  6
CONTINUOUS
 10
167.5322200655
 20
197.9094165433
  0
VERTEX
  8
0
 62
7
  6
CONTINUOUS
 10
167.4808474883
 20
198.1195861535
  0
VERTEX
  8
0
 62
7
  6
CONTINUOUS
 10
167.453125
 20
198.1710680454
  0
SEQEND
  0
POLYLINE
  8
0
 62
7
  6
CONTINUOUS
 66
1
 70
0
  0
VERTEX
  8
0
 62
7
  6
CONTINUOUS
 10
167.6368511934
 20
203.0739099
  0
VERTEX
  8
0
 62
7
  6
CONTINUOUS
 10
167.6350736777
 20
203.4051827584
  0
VERTEX
  8
0
 62
7
  6
CONTINUOUS
 10
167.6210255895
 20
204.0527492902
  0
VERTEX
  8
0
 62
7
  6
CONTINUOUS
 10
167.5938215854
 20
204.6543792016
  0
VERTEX
  8
0
 62
7
  6
CONTINUOUS
 10
167.5757864714
 20
204.9286979481
  0
VERTEX
  8
0
 62
7
  6
CONTINUOUS
 10
167.5322200655
 20
205.4074576294
  0
VERTEX
  8
0
 62
7
  6
CONTINUOUS
 10
167.4808474883
 20
205.7736751022
  0
VERTEX
  8
0
 62
7
  6
CONTINUOUS
 10
167.453125
 20
205.9085970303
  0
SEQEND
  0
POLYLINE
  8
0
 62
7
  6
CONTINUOUS
 66
1
 70
0
  0
VERTEX
  8
0
 62
7
  6
CONTINUOUS
 10
167.6368511934
 20
210.195146271
  0
VERTEX
  8
0
 62
7
  6
CONTINUOUS
 10
167.6350736777
 20
210.5190617327
  0
VERTEX
  8
0
 62
7
  6
CONTINUOUS
 10
167.6210255895
 20
211.1805887639
  0
VERTEX
  8
0
 62
7
  6
CONTINUOUS
 10
167.5938215854
 20
211.8337055554
  0
VERTEX
  8
0
 62
7
  6
CONTINUOUS
 10
167.5757864714
 20
212.1471588298
  0
VERTEX
  8
0
 62
7
  6
CONTINUOUS
 10
167.5322200655
 20
212.7286566413
  0
VERTEX
  8
0
 62
7
  6
CONTINUOUS
 10
167.4808474883
 20
213.2259648613
  0
VERTEX
  8
0
 62
7
  6
CONTINUOUS
 10
167.453125
 20
213.4351321191
  0
SEQEND
  0
LINE
  8
DEFAULT_2
 62
8
  6
HIDDEN
 10
167.453125
 20
232.4625
 11
167.453125
 21
232.3964839686
  0
LINE
  8
0
 62
7
  6
CONTINUOUS
 10
167.453125
 20
231.9002413804
 11
167.453125
 21
231.2347136803
  0
LINE
  8
DEFAULT_2
 62
8
  6
HIDDEN
 10
167.453125
 20
231.2347136803
 11
167.453125
 21
230.4943024496
  0
LINE
  8
0
 62
7
  6
CONTINUOUS
 10
167.453125
 20
229.8978254331
 11
167.453125
 21
227.3394270833
  0
LINE
  8
DEFAULT_2
 62
8
  6
HIDDEN
 10
167.453125
 20
227.3394270833
 11
167.453125
 21
226.8017284028
  0
LINE
  8
0
 62
7
  6
CONTINUOUS
 10
167.453125
 20
225.8528704951
 11
167.453125
 21
221.806745112
  0
LINE
  8
DEFAULT_2
 62
8
  6
HIDDEN
 10
167.453125
 20
221.806745112
 11
167.453125
 21
221.4743280844
  0
LINE
  8
0
 62
7
  6
CONTINUOUS
 10
167.453125
 20
220.2377523838
 11
167.453125
 21
215.0137108995
  0
LINE
  8
DEFAULT_2
 62
8
  6
HIDDEN
 10
167.453125
 20
215.0137108995
 11
167.453125
 21
214.8751550221
  0
LINE
  8
0
 62
7
  6
CONTINUOUS
 10
167.453125
 20
213.4351321191
 11
167.453125
 21
207.4539319546
  0
LINE
  8
0
 62
7
  6
CONTINUOUS
 10
167.453125
 20
205.9085970303
 11
167.453125
 21
199.7164029697
  0
LINE
  8
0
 62
7
  6
CONTINUOUS
 10
167.453125
 20
198.1710680454
 11
167.453125
 21
192.1898678809
  0
LINE
  8
DEFAULT_2
 62
8
  6
HIDDEN
 10
167.453125
 20
190.7498449779
 11
167.453125
 21
190.6112891005
  0
LINE
  8
0
 62
7
  6
CONTINUOUS
 10
167.453125
 20
190.6112891005
 11
167.453125
 21
185.3872476162
  0
LINE
  8
DEFAULT_2
 62
8
  6
HIDDEN
 10
167.453125
 20
184.1506719156
 11
167.453125
 21
183.818254888
  0
LINE
  8
0
 62
7
  6
CONTINUOUS
 10
167.453125
 20
183.818254888
 11
167.453125
 21
179.7721295049
  0
LINE
  8
DEFAULT_2
 62
8
  6
HIDDEN
 10
167.453125
 20
178.8232715972
 11
167.453125
 21
178.2855729167
  0
LINE
  8
0
 62
7
  6
CONTINUOUS
 10
167.453125
 20
178.2855729167
 11
167.453125
 21
175.7271745669
  0
LINE
  8
DEFAULT_2
 62
8
  6
HIDDEN
 10
167.453125
 20
175.1306975504
 11
167.453125
 21
174.3902863197
  0
LINE
  8
0
 62
7
  6
CONTINUOUS
 10
167.453125
 20
174.3902863197
 11
167.453125
 21
173.5280397965
  0
LINE
  8
DEFAULT_2
 62
8
  6
HIDDEN
 10
167.453125
 20
173.3245925941
 11
167.453125
 21
173.1625
  0
LINE
  8
DEFAULT_2
 62
8
  6
HIDDEN
 10
167.6368511934
 20
230.3625
 11
167.6368511934
 21
230.36125977
  0
LINE
  8
DEFAULT_2
 62
8
  6
HIDDEN
 10
167.6368511934
 20
229.4902164047
 11
167.6368511934
 21
229.3549006834
  0
LINE
  8
DEFAULT_2
 62
8
  6
HIDDEN
 10
167.6368511934
 20
226.8011307535
 11
167.6368511934
 21
226.5397208536
  0
LINE
  8
0
 62
7
  6
CONTINUOUS
 10
167.6368511934
 20
222.4772595596
 11
167.6368511934
 21
222.1075701337
  0
LINE
  8
0
 62
7
  6
CONTINUOUS
 10
167.6368511934
 20
216.8132674992
 11
167.6368511934
 21
216.3604922708
  0
LINE
  8
0
 62
7
  6
CONTINUOUS
 10
167.6368511934
 20
210.195146271
 11
167.6368511934
 21
209.6901411238
  0
LINE
  8
0
 62
7
  6
CONTINUOUS
 10
167.6368511934
 20
203.0739099
 11
167.6368511934
 21
202.5510901
  0
LINE
  8
0
 62
7
  6
CONTINUOUS
 10
167.6368511934
 20
195.9348588762
 11
167.6368511934
 21
195.429853729
  0
LINE
  8
0
 62
7
  6
CONTINUOUS
 10
167.6368511934
 20
189.2645077292
 11
167.6368511934
 21
188.8117325008
  0
LINE
  8
0
 62
7
  6
CONTINUOUS
 10
167.6368511934
 20
183.5174298663
 11
167.6368511934
 21
183.1477404404
  0
LINE
  8
DEFAULT_2
 62
8
  6
HIDDEN
 10
167.6368511934
 20
179.0852791464
 11
167.6368511934
 21
178.8238692465
  0
LINE
  8
DEFAULT_2
 62
8
  6
HIDDEN
 10
167.6368511934
 20
176.2700993166
 11
167.6368511934
 21
176.1347835953
  0
LINE
  8
DEFAULT_2
 62
8
  6
HIDDEN
 10
167.6368511934
 20
175.26374023
 11
167.6368511934
 21
175.2625
  0
POLYLINE
  8
DEFAULT_2
 62
8
  6
HIDDEN
 66
1
 70
0
  0
VERTEX
  8
DEFAULT_2
 62
8
  6
HIDDEN
 10
167.6181814719
 20
182.2680568731
  0
VERTEX
  8
DEFAULT_2
 62
8
  6
HIDDEN
 10
167.6321064623
 20
182.7347724585
  0
VERTEX
  8
DEFAULT_2
 62
8
  6
HIDDEN
 10
167.6368511934
 20
183.1477404404
  0
SEQEND
  0
POLYLINE
  8
0
 62
7
  6
CONTINUOUS
 66
1
 70
0
  0
VERTEX
  8
0
 62
7
  6
CONTINUOUS
 10
167.6320510708
 20
221.806745112
  0
VERTEX
  8
0
 62
7
  6
CONTINUOUS
 10
167.6350755635
 20
221.8841744867
  0
VERTEX
  8
0
 62
7
  6
CONTINUOUS
 10
167.6368511934
 20
222.1075701337
  0
SEQEND
  0
POLYLINE
  8
DEFAULT_2
 62
8
  6
HIDDEN
 66
1
 70
0
  0
VERTEX
  8
DEFAULT_2
 62
8
  6
HIDDEN
 10
167.3873020884
 20
191.7456667606
  0
VERTEX
  8
DEFAULT_2
 62
8
  6
HIDDEN
 10
167.4118252719
 20
192.0454921489
  0
VERTEX
  8
DEFAULT_2
 62
8
  6
HIDDEN
 10
167.4314724967
 20
192.3781102383
  0
VERTEX
  8
DEFAULT_2
 62
8
  6
HIDDEN
 10
167.4391258767
 20
192.5516814949
  0
VERTEX
  8
DEFAULT_2
 62
8
  6
HIDDEN
 10
167.4495783155
 20
192.9029159648
  0
VERTEX
  8
DEFAULT_2
 62
8
  6
HIDDEN
 10
167.453125
 20
193.2455109679
  0
SEQEND
  0
LINE
  8
DEFAULT_2
 62
8
  6
HIDDEN
 10
167.453125
 20
232.3964839686
 11
167.4527953534
 21
232.3929215521
  0
POLYLINE
  8
DEFAULT_2
 62
8
  6
HIDDEN
 66
1
 70
0
  0
VERTEX
  8
DEFAULT_2
 62
8
  6
HIDDEN
 10
167.3873020884
 20
199.4516299335
  0
VERTEX
  8
DEFAULT_2
 62
8
  6
HIDDEN
 10
167.4118252719
 20
199.6934687182
  0
VERTEX
  8
DEFAULT_2
 62
8
  6
HIDDEN
 10
167.4314724967
 20
199.985130211
  0
VERTEX
  8
DEFAULT_2
 62
8
  6
HIDDEN
 10
167.4391258767
 20
200.1452497271
  0
VERTEX
  8
DEFAULT_2
 62
8
  6
HIDDEN
 10
167.4495783155
 20
200.4844047208
  0
VERTEX
  8
DEFAULT_2
 62
8
  6
HIDDEN
 10
167.453125
 20
200.8350287501
  0
SEQEND
  0
LINE
  8
DEFAULT_2
 62
8
  6
HIDDEN
 10
167.6368371094
 20
230.3611247178
 11
167.6368511934
 21
230.36125977
  0
POLYLINE
  8
DEFAULT_2
 62
8
  6
HIDDEN
 66
1
 70
0
  0
VERTEX
  8
DEFAULT_2
 62
8
  6
HIDDEN
 10
167.3873020884
 20
207.3866308473
  0
VERTEX
  8
DEFAULT_2
 62
8
  6
HIDDEN
 10
167.4118252719
 20
207.5540021148
  0
VERTEX
  8
DEFAULT_2
 62
8
  6
HIDDEN
 10
167.4314724967
 20
207.7848307624
  0
VERTEX
  8
DEFAULT_2
 62
8
  6
HIDDEN
 10
167.4391258767
 20
207.9205866575
  0
VERTEX
  8
DEFAULT_2
 62
8
  6
HIDDEN
 10
167.4495783155
 20
208.2245493228
  0
VERTEX
  8
DEFAULT_2
 62
8
  6
HIDDEN
 10
167.453125
 20
208.55930793
  0
SEQEND
  0
POLYLINE
  8
0
 62
7
  6
CONTINUOUS
 66
1
 70
0
  0
VERTEX
  8
0
 62
7
  6
CONTINUOUS
 10
167.453125
 20
199.7164029697
  0
VERTEX
  8
0
 62
7
  6
CONTINUOUS
 10
167.4808356328
 20
199.8512587178
  0
VERTEX
  8
0
 62
7
  6
CONTINUOUS
 10
167.5322113787
 20
200.2174651589
  0
VERTEX
  8
0
 62
7
  6
CONTINUOUS
 10
167.5757916964
 20
200.6963731428
  0
VERTEX
  8
0
 62
7
  6
CONTINUOUS
 10
167.5938310284
 20
200.9707821709
  0
VERTEX
  8
0
 62
7
  6
CONTINUOUS
 10
167.6210347767
 20
201.5725282734
  0
VERTEX
  8
0
 62
7
  6
CONTINUOUS
 10
167.6350755635
 20
202.2199926342
  0
VERTEX
  8
0
 62
7
  6
CONTINUOUS
 10
167.6368511934
 20
202.5510901
  0
SEQEND
  0
POLYLINE
  8
DEFAULT_2
 62
8
  6
HIDDEN
 66
1
 70
0
  0
VERTEX
  8
DEFAULT_2
 62
8
  6
HIDDEN
 10
167.4388212174
 20
199.66147356
  0
VERTEX
  8
DEFAULT_2
 62
8
  6
HIDDEN
 10
167.4867959297
 20
199.8854956154
  0
VERTEX
  8
DEFAULT_2
 62
8
  6
HIDDEN
 10
167.5294390034
 20
200.1931266453
  0
VERTEX
  8
DEFAULT_2
 62
8
  6
HIDDEN
 10
167.5660001446
 20
200.5700405958
  0
VERTEX
  8
DEFAULT_2
 62
8
  6
HIDDEN
 10
167.5958431862
 20
201.0056796767
  0
VERTEX
  8
DEFAULT_2
 62
8
  6
HIDDEN
 10
167.6181814719
 20
201.4901569683
  0
VERTEX
  8
DEFAULT_2
 62
8
  6
HIDDEN
 10
167.6321064623
 20
202.0108965374
  0
VERTEX
  8
DEFAULT_2
 62
8
  6
HIDDEN
 10
167.6368511934
 20
202.5510901
  0
SEQEND
  0
POLYLINE
  8
0
 62
7
  6
CONTINUOUS
 66
1
 70
0
  0
VERTEX
  8
0
 62
7
  6
CONTINUOUS
 10
167.5638893883
 20
215.0137108995
  0
VERTEX
  8
0
 62
7
  6
CONTINUOUS
 10
167.5757916964
 20
215.064150065
  0
VERTEX
  8
0
 62
7
  6
CONTINUOUS
 10
167.5938310284
 20
215.2081142803
  0
VERTEX
  8
0
 62
7
  6
CONTINUOUS
 10
167.6210347767
 20
215.5901760649
  0
VERTEX
  8
0
 62
7
  6
CONTINUOUS
 10
167.6350755635
 20
216.0813376103
  0
VERTEX
  8
0
 62
7
  6
CONTINUOUS
 10
167.6368511934
 20
216.3604922708
  0
SEQEND
  0
POLYLINE
  8
DEFAULT_2
 62
8
  6
HIDDEN
 66
1
 70
0
  0
VERTEX
  8
DEFAULT_2
 62
8
  6
HIDDEN
 10
167.4011818238
 20
199.52952318
  0
VERTEX
  8
DEFAULT_2
 62
8
  6
HIDDEN
 10
167.3963623438
 20
199.5093515064
  0
VERTEX
  8
DEFAULT_2
 62
8
  6
HIDDEN
 10
167.3917163171
 20
199.48327417
  0
VERTEX
  8
DEFAULT_2
 62
8
  6
HIDDEN
 10
167.3873020884
 20
199.4516299335
  0
SEQEND
  0
LINE
  8
0
 62
7
  6
CONTINUOUS
 10
175.453125
 20
233.223244533
 11
175.4540882129
 21
233.2271475585
  0
LINE
  8
0
 62
7
  6
CONTINUOUS
 10
176.2280871496
 20
230.3611247181
 11
176.228125
 21
230.36125977
  0
LINE
  8
DEFAULT_2
 62
8
  6
HIDDEN
 10
167.4011818238
 20
199.52952318
 11
167.4388212174
 21
199.66147356
  0
LINE
  8
DEFAULT_2
 62
8
  6
HIDDEN
 10
176.228125
 20
230.36125977
 11
176.2280853427
 21
230.3611247178
  0
POLYLINE
  8
0
 62
7
  6
CONTINUOUS
 66
1
 70
0
  0
VERTEX
  8
0
 62
7
  6
CONTINUOUS
 10
167.453125
 20
207.4539319546
  0
VERTEX
  8
0
 62
7
  6
CONTINUOUS
 10
167.4808356328
 20
207.5053834358
  0
VERTEX
  8
0
 62
7
  6
CONTINUOUS
 10
167.5322113787
 20
207.7155328681
  0
VERTEX
  8
0
 62
7
  6
CONTINUOUS
 10
167.5757916964
 20
208.0590328765
  0
VERTEX
  8
0
 62
7
  6
CONTINUOUS
 10
167.5938310284
 20
208.2755988032
  0
VERTEX
  8
0
 62
7
  6
CONTINUOUS
 10
167.6210347767
 20
208.784855239
  0
VERTEX
  8
0
 62
7
  6
CONTINUOUS
 10
167.6350755635
 20
209.3742513786
  0
VERTEX
  8
0
 62
7
  6
CONTINUOUS
 10
167.6368511934
 20
209.6901411238
  0
SEQEND
  0
POLYLINE
  8
DEFAULT_2
 62
8
  6
HIDDEN
 66
1
 70
0
  0
VERTEX
  8
DEFAULT_2
 62
8
  6
HIDDEN
 10
167.4388212174
 20
207.4419228972
  0
VERTEX
  8
DEFAULT_2
 62
8
  6
HIDDEN
 10
167.4867959297
 20
207.5216265429
  0
VERTEX
  8
DEFAULT_2
 62
8
  6
HIDDEN
 10
167.5294390034
 20
207.6996857588
  0
VERTEX
  8
DEFAULT_2
 62
8
  6
HIDDEN
 10
167.5660001446
 20
207.9635327436
  0
VERTEX
  8
DEFAULT_2
 62
8
  6
HIDDEN
 10
167.5958431862
 20
208.3039310409
  0
VERTEX
  8
DEFAULT_2
 62
8
  6
HIDDEN
 10
167.6181814719
 20
208.7127552448
  0
VERTEX
  8
DEFAULT_2
 62
8
  6
HIDDEN
 10
167.6321064623
 20
209.1796986007
  0
VERTEX
  8
DEFAULT_2
 62
8
  6
HIDDEN
 10
167.6368511934
 20
209.6901411238
  0
SEQEND
  0
LINE
  8
DEFAULT_2
 62
8
  6
HIDDEN
 10
160.4674287826
 20
198.1830771028
 11
160.5050681762
 21
198.2022173879
  0
LINE
  8
0
 62
7
  6
CONTINUOUS
 10
175.6622517542
 20
207.4419228972
 11
175.5546966949
 21
207.4227826121
  0
LINE
  8
DEFAULT_2
 62
8
  6
HIDDEN
 10
160.453125
 20
204.7899712499
 11
167.453125
 21
204.7899712499
  0
LINE
  8
0
 62
7
  6
CONTINUOUS
 10
160.453125
 20
205.9085970303
 11
167.453125
 21
205.9085970303
  0
LINE
  8
0
 62
9
  6
CONTINUOUS
 10
152.2439982458
 20
205.96352644
 11
175.6622517542
 21
205.96352644
  0
LINE
  8
0
 62
9
  6
CONTINUOUS
 10
175.5546966949
 20
206.09547682
 11
152.3515533051
 21
206.09547682
  0
LINE
  8
DEFAULT_2
 62
8
  6
HIDDEN
 10
160.5189479116
 20
206.1733700665
 11
167.3873020884
 21
206.1733700665
  0
LINE
  8
0
 62
9
  6
CONTINUOUS
 10
175.453125
 20
206.6346874561
 11
152.453125
 21
206.6346874561
  0
LINE
  8
0
 62
9
  6
CONTINUOUS
 10
175.453125
 20
206.9914302841
 11
152.453125
 21
206.9914302841
  0
LINE
  8
0
 62
7
  6
CONTINUOUS
 10
152.2439982458
 20
207.4419228972
 11
152.3515533051
 21
207.4227826121
  0
LINE
  8
DEFAULT_2
 62
8
  6
HIDDEN
 10
160.5050681762
 20
207.4227826121
 11
160.4674287826
 21
207.4419228972
  0
LINE
  8
0
 62
7
  6
CONTINUOUS
 10
176.228125
 20
175.26374023
 11
176.2280853427
 21
175.2638752822
  0
LINE
  8
DEFAULT_2
 62
8
  6
HIDDEN
 10
167.4388212174
 20
205.96352644
 11
167.4011818238
 21
206.09547682
  0
LINE
  8
DEFAULT_2
 62
8
  6
HIDDEN
 10
176.2280871496
 20
175.2638752819
 11
176.228125
 21
175.26374023
  0
LINE
  8
0
 62
7
  6
CONTINUOUS
 10
175.4540862634
 20
172.3978524424
 11
175.453125
 21
172.401755467
  0
POLYLINE
  8
DEFAULT_2
 62
8
  6
HIDDEN
 66
1
 70
0
  0
VERTEX
  8
DEFAULT_2
 62
8
  6
HIDDEN
 10
167.3873020884
 20
198.2383691527
  0
VERTEX
  8
DEFAULT_2
 62
8
  6
HIDDEN
 10
167.3917150585
 20
198.2200385849
  0
VERTEX
  8
DEFAULT_2
 62
8
  6
HIDDEN
 10
167.3963609313
 20
198.2079330647
  0
VERTEX
  8
DEFAULT_2
 62
8
  6
HIDDEN
 10
167.4011818238
 20
198.2022173879
  0
SEQEND
  0
POLYLINE
  8
DEFAULT_2
 62
8
  6
HIDDEN
 66
1
 70
0
  0
VERTEX
  8
DEFAULT_2
 62
8
  6
HIDDEN
 10
167.5638925222
 20
190.6112891005
  0
VERTEX
  8
DEFAULT_2
 62
8
  6
HIDDEN
 10
167.5322200655
 20
190.7455124922
  0
VERTEX
  8
DEFAULT_2
 62
8
  6
HIDDEN
 10
167.4932102457
 20
190.789227264
  0
SEQEND
  0
POLYLINE
  8
DEFAULT_2
 62
8
  6
HIDDEN
 66
1
 70
0
  0
VERTEX
  8
DEFAULT_2
 62
8
  6
HIDDEN
 10
160.2800201113
 20
229.2451802497
  0
VERTEX
  8
DEFAULT_2
 62
8
  6
HIDDEN
 10
160.2711744365
 20
229.2838578178
  0
VERTEX
  8
DEFAULT_2
 62
8
  6
HIDDEN
 10
160.2693988066
 20
229.3549006834
  0
SEQEND
  0
POLYLINE
  8
DEFAULT_2
 62
8
  6
HIDDEN
 66
1
 70
0
  0
VERTEX
  8
DEFAULT_2
 62
8
  6
HIDDEN
 10
167.3873020884
 20
206.1733700665
  0
VERTEX
  8
DEFAULT_2
 62
8
  6
HIDDEN
 10
167.3917150585
 20
206.1417338489
  0
VERTEX
  8
DEFAULT_2
 62
8
  6
HIDDEN
 10
167.3963609313
 20
206.1156553965
  0
VERTEX
  8
DEFAULT_2
 62
8
  6
HIDDEN
 10
167.4011818238
 20
206.09547682
  0
SEQEND
  0
LINE
  8
DEFAULT_2
 62
8
  6
HIDDEN
 10
167.6368370529
 20
230.3611247178
 11
167.6320662954
 21
230.4054844789
  0
LINE
  8
DEFAULT_2
 62
8
  6
HIDDEN
 10
167.4388212174
 20
230.6332814246
 11
167.4867959297
 21
230.1811470727
  0
LINE
  8
DEFAULT_2
 62
8
  6
HIDDEN
 10
167.4865992629
 20
219.9086351902
 11
167.4388212174
 21
220.3646226047
  0
LINE
  8
DEFAULT_2
 62
8
  6
HIDDEN
 10
167.4314724967
 20
232.5759985052
 11
167.4391258767
 21
232.5029448366
  0
POLYLINE
  8
DEFAULT_2
 62
8
  6
HIDDEN
 66
1
 70
0
  0
VERTEX
  8
DEFAULT_2
 62
8
  6
HIDDEN
 10
167.3873020884
 20
213.8793332394
  0
VERTEX
  8
DEFAULT_2
 62
8
  6
HIDDEN
 10
167.3917150585
 20
213.8365473278
  0
VERTEX
  8
DEFAULT_2
 62
8
  6
HIDDEN
 10
167.3963609313
 20
213.7982731467
  0
VERTEX
  8
DEFAULT_2
 62
8
  6
HIDDEN
 10
167.4011818238
 20
213.7650068071
  0
SEQEND
  0
LINE
  8
DEFAULT_2
 62
8
  6
HIDDEN
 10
167.3963623438
 20
231.0495379497
 11
167.4388212174
 21
230.6332814246
  0
LINE
  8
DEFAULT_2
 62
8
  6
HIDDEN
 10
167.6320662954
 20
230.4054844789
 11
167.595587035
 21
230.7755483007
  0
LINE
  8
DEFAULT_2
 62
8
  6
HIDDEN
 10
167.3873020884
 20
233.0285223189
 11
167.4314724967
 21
232.5759985052
  0
LINE
  8
DEFAULT_2
 62
8
  6
HIDDEN
 10
167.5958431862
 20
230.7729055096
 11
167.5291200963
 21
231.4741780471
  0
LINE
  8
DEFAULT_2
 62
8
  6
HIDDEN
 10
167.4865992629
 20
231.9330393999
 11
167.5294390034
 21
231.4707702129
  0
LINE
  8
DEFAULT_2
 62
8
  6
HIDDEN
 10
167.4865992629
 20
225.474356384
 11
167.4388212174
 21
226.0038585274
  0
LINE
  8
DEFAULT_2
 62
8
  6
HIDDEN
 10
167.3963623438
 20
232.930708766
 11
167.4867959297
 21
231.9308968655
  0
LINE
  8
DEFAULT_2
 62
8
  6
HIDDEN
 10
167.453125
 20
232.4625
 11
167.6368511934
 21
230.3625
  0
POLYLINE
  8
DEFAULT_2
 62
8
  6
HIDDEN
 66
1
 70
0
  0
VERTEX
  8
DEFAULT_2
 62
8
  6
HIDDEN
 10
167.3873020884
 20
220.8311100159
  0
VERTEX
  8
DEFAULT_2
 62
8
  6
HIDDEN
 10
167.3917150585
 20
220.7800901994
  0
VERTEX
  8
DEFAULT_2
 62
8
  6
HIDDEN
 10
167.3963609313
 20
220.7322286119
  0
VERTEX
  8
DEFAULT_2
 62
8
  6
HIDDEN
 10
167.4011818238
 20
220.6881415553
  0
SEQEND
  0
LINE
  8
DEFAULT_2
 62
8
  6
HIDDEN
 10
167.3963609313
 20
230.5472250171
 11
167.4388212174
 21
230.0626416919
  0
LINE
  8
DEFAULT_2
 62
8
  6
HIDDEN
 10
167.4865992629
 20
229.4957095157
 11
167.4808474883
 21
229.5665517101
  0
LINE
  8
DEFAULT_2
 62
8
  6
HIDDEN
 10
167.453125
 20
229.8978254331
 11
167.4388212174
 21
230.0626416919
  0
LINE
  8
0
 62
7
  6
CONTINUOUS
 10
167.4867959297
 20
231.6962760324
 11
167.3917158295
 21
232.8149618474
  0
LINE
  8
DEFAULT_2
 62
8
  6
HIDDEN
 10
167.3917158295
 20
232.8149618474
 11
167.3963609313
 21
232.7593901722
  0
LINE
  8
0
 62
7
  6
CONTINUOUS
 10
167.4867959297
 20
231.6962760324
 11
167.5243528887
 21
231.2347136803
  0
LINE
  8
DEFAULT_2
 62
8
  6
HIDDEN
 10
167.4867959297
 20
231.6962760324
 11
167.4865992629
 21
231.6986460149
  0
POLYLINE
  8
DEFAULT_2
 62
8
  6
HIDDEN
 66
1
 70
0
  0
VERTEX
  8
DEFAULT_2
 62
8
  6
HIDDEN
 10
167.3873020884
 20
226.5549482969
  0
VERTEX
  8
DEFAULT_2
 62
8
  6
HIDDEN
 10
167.3917150585
 20
226.4991714918
  0
VERTEX
  8
DEFAULT_2
 62
8
  6
HIDDEN
 10
167.3963609313
 20
226.4449841859
  0
VERTEX
  8
DEFAULT_2
 62
8
  6
HIDDEN
 10
167.4388212174
 20
226.0038585274
  0
SEQEND
  0
POLYLINE
  8
0
 62
7
  6
CONTINUOUS
 66
1
 70
0
  0
VERTEX
  8
0
 62
7
  6
CONTINUOUS
 10
167.3873020884
 20
232.8687935069
  0
VERTEX
  8
0
 62
7
  6
CONTINUOUS
 10
167.4118252719
 20
232.5590382692
  0
VERTEX
  8
0
 62
7
  6
CONTINUOUS
 10
167.4314724967
 20
232.2936090359
  0
VERTEX
  8
0
 62
7
  6
CONTINUOUS
 10
167.4391258767
 20
232.1816026304
  0
VERTEX
  8
0
 62
7
  6
CONTINUOUS
 10
167.4495783155
 20
232.0056124705
  0
VERTEX
  8
0
 62
7
  6
CONTINUOUS
 10
167.453125
 20
231.9002413804
  0
SEQEND
  0
LINE
  8
DEFAULT_2
 62
8
  6
HIDDEN
 10
167.3873020884
 20
230.6607779627
 11
167.3963609313
 21
230.5472250171
  0
LINE
  8
DEFAULT_2
 62
8
  6
HIDDEN
 10
167.5243528887
 20
231.2347136803
 11
167.5660001446
 21
230.7006137222
  0
LINE
  8
DEFAULT_2
 62
8
  6
HIDDEN
 10
167.5656697696
 20
230.7050081073
 11
167.5958431862
 21
230.287817306
  0
LINE
  8
DEFAULT_2
 62
8
  6
HIDDEN
 10
167.5322200655
 20
228.9030507165
 11
167.5291200963
 21
228.9453086212
  0
POLYLINE
  8
DEFAULT_2
 62
8
  6
HIDDEN
 66
1
 70
0
  0
VERTEX
  8
DEFAULT_2
 62
8
  6
HIDDEN
 10
167.595587035
 20
230.2915347751
  0
VERTEX
  8
DEFAULT_2
 62
8
  6
HIDDEN
 10
167.6181814719
 20
229.9416934932
  0
VERTEX
  8
DEFAULT_2
 62
8
  6
HIDDEN
 10
167.6321064623
 20
229.6723666277
  0
VERTEX
  8
DEFAULT_2
 62
8
  6
HIDDEN
 10
167.6368511934
 20
229.4902164047
  0
SEQEND
  0
LINE
  8
DEFAULT_2
 62
8
  6
HIDDEN
 10
167.595587035
 20
227.9348704409
 11
167.5938215854
 21
227.9659345457
  0
LINE
  8
DEFAULT_2
 62
8
  6
HIDDEN
 10
167.5757864714
 20
228.2653168907
 11
167.5656697696
 21
228.4221856528
  0
LINE
  8
DEFAULT_2
 62
8
  6
HIDDEN
 10
167.595587035
 20
223.8661580778
 11
167.5938215854
 21
223.9006545434
  0
POLYLINE
  8
DEFAULT_2
 62
8
  6
HIDDEN
 66
1
 70
0
  0
VERTEX
  8
DEFAULT_2
 62
8
  6
HIDDEN
 10
167.5757864714
 20
224.227081691
  0
VERTEX
  8
DEFAULT_2
 62
8
  6
HIDDEN
 10
167.5656697696
 20
224.394105443
  0
VERTEX
  8
DEFAULT_2
 62
8
  6
HIDDEN
 10
167.5291200963
 20
224.9334960887
  0
SEQEND
  0
POLYLINE
  8
0
 62
7
  6
CONTINUOUS
 66
1
 70
0
  0
VERTEX
  8
0
 62
7
  6
CONTINUOUS
 10
167.6237072864
 20
227.3394270833
  0
VERTEX
  8
0
 62
7
  6
CONTINUOUS
 10
167.6210255895
 20
227.4242466534
  0
VERTEX
  8
0
 62
7
  6
CONTINUOUS
 10
167.5938215854
 20
227.9659345457
  0
VERTEX
  8
0
 62
7
  6
CONTINUOUS
 10
167.5757864714
 20
228.2653168907
  0
VERTEX
  8
0
 62
7
  6
CONTINUOUS
 10
167.5322200655
 20
228.9030507165
  0
VERTEX
  8
0
 62
7
  6
CONTINUOUS
 10
167.4808474883
 20
229.5665517101
  0
VERTEX
  8
0
 62
7
  6
CONTINUOUS
 10
167.453125
 20
229.8978254331
  0
SEQEND
  0
POLYLINE
  8
DEFAULT_2
 62
8
  6
HIDDEN
 66
1
 70
0
  0
VERTEX
  8
DEFAULT_2
 62
8
  6
HIDDEN
 10
167.6237088555
 20
178.2855729167
  0
VERTEX
  8
DEFAULT_2
 62
8
  6
HIDDEN
 10
167.6350755635
 20
178.64518437
  0
VERTEX
  8
DEFAULT_2
 62
8
  6
HIDDEN
 10
167.6368511934
 20
178.8238692465
  0
SEQEND
  0
POLYLINE
  8
DEFAULT_2
 62
8
  6
HIDDEN
 66
1
 70
0
  0
VERTEX
  8
DEFAULT_2
 62
8
  6
HIDDEN
 10
167.6181814719
 20
178.1348097868
  0
VERTEX
  8
DEFAULT_2
 62
8
  6
HIDDEN
 10
167.6321064623
 20
178.5158133954
  0
VERTEX
  8
DEFAULT_2
 62
8
  6
HIDDEN
 10
167.6368511934
 20
178.8238692465
  0
SEQEND
  0
POLYLINE
  8
DEFAULT_2
 62
8
  6
HIDDEN
 66
1
 70
0
  0
VERTEX
  8
DEFAULT_2
 62
8
  6
HIDDEN
 10
167.6181814719
 20
175.6833065068
  0
VERTEX
  8
DEFAULT_2
 62
8
  6
HIDDEN
 10
167.6321064623
 20
175.9526333723
  0
VERTEX
  8
DEFAULT_2
 62
8
  6
HIDDEN
 10
167.6368511934
 20
176.1347835953
  0
SEQEND
  0
LINE
  8
DEFAULT_2
 62
8
  6
HIDDEN
 10
167.5938310284
 20
181.7245285391
 11
167.5958431862
 21
181.7638927564
  0
LINE
  8
DEFAULT_2
 62
8
  6
HIDDEN
 10
167.5660001446
 20
177.2078360852
 11
167.5757916964
 21
177.3597658965
  0
LINE
  8
DEFAULT_2
 62
8
  6
HIDDEN
 10
167.5938310284
 20
177.6592306173
 11
167.5958431862
 21
177.6946683669
  0
POLYLINE
  8
DEFAULT_2
 62
8
  6
HIDDEN
 66
1
 70
0
  0
VERTEX
  8
DEFAULT_2
 62
8
  6
HIDDEN
 10
167.5938310284
 20
175.3080864361
  0
VERTEX
  8
DEFAULT_2
 62
8
  6
HIDDEN
 10
167.6210347767
 20
175.7324839488
  0
VERTEX
  8
DEFAULT_2
 62
8
  6
HIDDEN
 10
167.6350755635
 20
176.0344378009
  0
VERTEX
  8
DEFAULT_2
 62
8
  6
HIDDEN
 10
167.6368511934
 20
176.1347835953
  0
SEQEND
  0
POLYLINE
  8
DEFAULT_2
 62
8
  6
HIDDEN
 66
1
 70
0
  0
VERTEX
  8
DEFAULT_2
 62
8
  6
HIDDEN
 10
167.5294390034
 20
180.6958661338
  0
VERTEX
  8
DEFAULT_2
 62
8
  6
HIDDEN
 10
167.5660001446
 20
181.2362014247
  0
VERTEX
  8
DEFAULT_2
 62
8
  6
HIDDEN
 10
167.5757916964
 20
181.3980071506
  0
SEQEND
  0
POLYLINE
  8
DEFAULT_2
 62
8
  6
HIDDEN
 66
1
 70
0
  0
VERTEX
  8
DEFAULT_2
 62
8
  6
HIDDEN
 10
167.3873020884
 20
179.0700517031
  0
VERTEX
  8
DEFAULT_2
 62
8
  6
HIDDEN
 10
167.4118252719
 20
179.4219932417
  0
VERTEX
  8
DEFAULT_2
 62
8
  6
HIDDEN
 10
167.4314724967
 20
179.7672760244
  0
VERTEX
  8
DEFAULT_2
 62
8
  6
HIDDEN
 10
167.4391258767
 20
179.9321543645
  0
VERTEX
  8
DEFAULT_2
 62
8
  6
HIDDEN
 10
167.4495783155
 20
180.2365476464
  0
VERTEX
  8
DEFAULT_2
 62
8
  6
HIDDEN
 10
167.453125
 20
180.4951809908
  0
SEQEND
  0
LINE
  8
DEFAULT_2
 62
8
  6
HIDDEN
 10
167.5294390034
 20
176.6840232897
 11
167.5322113787
 21
176.7218303979
  0
POLYLINE
  8
DEFAULT_2
 62
8
  6
HIDDEN
 66
1
 70
0
  0
VERTEX
  8
DEFAULT_2
 62
8
  6
HIDDEN
 10
167.5294390034
 20
186.2149210264
  0
VERTEX
  8
DEFAULT_2
 62
8
  6
HIDDEN
 10
167.5660001446
 20
186.7349558556
  0
VERTEX
  8
DEFAULT_2
 62
8
  6
HIDDEN
 10
167.5958431862
 20
187.2675449451
  0
VERTEX
  8
DEFAULT_2
 62
8
  6
HIDDEN
 10
167.6181814719
 20
187.8013738071
  0
VERTEX
  8
DEFAULT_2
 62
8
  6
HIDDEN
 10
167.6321064623
 20
188.3219954735
  0
VERTEX
  8
DEFAULT_2
 62
8
  6
HIDDEN
 10
167.6368511934
 20
188.8117325008
  0
SEQEND
  0
POLYLINE
  8
DEFAULT_2
 62
8
  6
HIDDEN
 66
1
 70
0
  0
VERTEX
  8
DEFAULT_2
 62
8
  6
HIDDEN
 10
167.3873020884
 20
174.9642220373
  0
VERTEX
  8
DEFAULT_2
 62
8
  6
HIDDEN
 10
167.4118252719
 20
175.3067414928
  0
VERTEX
  8
DEFAULT_2
 62
8
  6
HIDDEN
 10
167.4314724967
 20
175.6228692945
  0
VERTEX
  8
DEFAULT_2
 62
8
  6
HIDDEN
 10
167.4391258767
 20
175.7661953854
  0
VERTEX
  8
DEFAULT_2
 62
8
  6
HIDDEN
 10
167.4495783155
 20
176.0148601527
  0
VERTEX
  8
DEFAULT_2
 62
8
  6
HIDDEN
 10
167.453125
 20
176.2032827131
  0
SEQEND
  0
LINE
  8
DEFAULT_2
 62
8
  6
HIDDEN
 10
167.5660001446
 20
174.9243862778
 11
167.5958431862
 21
175.337182694
  0
POLYLINE
  8
DEFAULT_2
 62
8
  6
HIDDEN
 66
1
 70
0
  0
VERTEX
  8
DEFAULT_2
 62
8
  6
HIDDEN
 10
167.3873020884
 20
184.7938899841
  0
VERTEX
  8
DEFAULT_2
 62
8
  6
HIDDEN
 10
167.4118252719
 20
185.1312693714
  0
VERTEX
  8
DEFAULT_2
 62
8
  6
HIDDEN
 10
167.4314724967
 20
185.4821766842
  0
VERTEX
  8
DEFAULT_2
 62
8
  6
HIDDEN
 10
167.4391258767
 20
185.6573710871
  0
VERTEX
  8
DEFAULT_2
 62
8
  6
HIDDEN
 10
167.4495783155
 20
185.9967489844
  0
VERTEX
  8
DEFAULT_2
 62
8
  6
HIDDEN
 10
167.453125
 20
186.307967678
  0
SEQEND
  0
LINE
  8
DEFAULT_2
 62
8
  6
HIDDEN
 10
167.5294390034
 20
174.4527929541
 11
167.5757916964
 21
175.056086409
  0
POLYLINE
  8
DEFAULT_2
 62
8
  6
HIDDEN
 66
1
 70
0
  0
VERTEX
  8
DEFAULT_2
 62
8
  6
HIDDEN
 10
167.3873020884
 20
172.7562064931
  0
VERTEX
  8
DEFAULT_2
 62
8
  6
HIDDEN
 10
167.4118252719
 20
173.0659617308
  0
VERTEX
  8
DEFAULT_2
 62
8
  6
HIDDEN
 10
167.4314724967
 20
173.3313909641
  0
VERTEX
  8
DEFAULT_2
 62
8
  6
HIDDEN
 10
167.4391258767
 20
173.4433973696
  0
VERTEX
  8
DEFAULT_2
 62
8
  6
HIDDEN
 10
167.4495783155
 20
173.6193875295
  0
VERTEX
  8
DEFAULT_2
 62
8
  6
HIDDEN
 10
167.453125
 20
173.7247586196
  0
SEQEND
  0
LINE
  8
DEFAULT_2
 62
8
  6
HIDDEN
 10
167.5242762944
 20
174.3902863197
 11
167.5322113787
 21
174.4876875325
  0
LINE
  8
DEFAULT_2
 62
8
  6
HIDDEN
 10
167.3963623438
 20
175.0777918454
 11
167.3873020884
 21
174.9642220373
  0
POLYLINE
  8
0
 62
7
  6
CONTINUOUS
 66
1
 70
0
  0
VERTEX
  8
0
 62
7
  6
CONTINUOUS
 10
167.453125
 20
175.7271745669
  0
VERTEX
  8
0
 62
7
  6
CONTINUOUS
 10
167.4808356328
 20
176.0583030589
  0
VERTEX
  8
0
 62
7
  6
CONTINUOUS
 10
167.5322113787
 20
176.7218303979
  0
VERTEX
  8
0
 62
7
  6
CONTINUOUS
 10
167.5757916964
 20
177.3597658965
  0
VERTEX
  8
0
 62
7
  6
CONTINUOUS
 10
167.5938310284
 20
177.6592306173
  0
VERTEX
  8
0
 62
7
  6
CONTINUOUS
 10
167.6210347767
 20
178.2009723998
  0
VERTEX
  8
0
 62
7
  6
CONTINUOUS
 10
167.6237088555
 20
178.2855729167
  0
SEQEND
  0
LINE
  8
DEFAULT_2
 62
8
  6
HIDDEN
 10
167.4808356328
 20
176.0583030589
 11
167.4867959297
 21
176.1317264047
  0
POLYLINE
  8
0
 62
7
  6
CONTINUOUS
 66
1
 70
0
  0
VERTEX
  8
0
 62
7
  6
CONTINUOUS
 10
167.453125
 20
173.5280397965
  0
VERTEX
  8
0
 62
7
  6
CONTINUOUS
 10
167.4808356328
 20
173.8570628541
  0
VERTEX
  8
0
 62
7
  6
CONTINUOUS
 10
167.5242762944
 20
174.3902863197
  0
SEQEND
  0
LINE
  8
DEFAULT_2
 62
8
  6
HIDDEN
 10
167.4808356328
 20
173.8570628541
 11
167.4867959297
 21
173.9287239676
  0
POLYLINE
  8
DEFAULT_2
 62
8
  6
HIDDEN
 66
1
 70
0
  0
VERTEX
  8
DEFAULT_2
 62
8
  6
HIDDEN
 10
167.3963623438
 20
179.1800316453
  0
VERTEX
  8
DEFAULT_2
 62
8
  6
HIDDEN
 10
167.3917163171
 20
179.1258437864
  0
VERTEX
  8
DEFAULT_2
 62
8
  6
HIDDEN
 10
167.3873020884
 20
179.0700517031
  0
SEQEND
  0
LINE
  8
DEFAULT_2
 62
8
  6
HIDDEN
 10
167.3917158295
 20
172.8100381526
 11
167.453125
 21
173.5280397965
  0
LINE
  8
DEFAULT_2
 62
8
  6
HIDDEN
 10
167.453125
 20
173.1625
 11
167.6368511934
 21
175.2625
  0
LINE
  8
DEFAULT_2
 62
8
  6
HIDDEN
 10
167.3963623438
 20
175.0777918454
 11
167.453125
 21
175.7271745669
  0
POLYLINE
  8
0
 62
7
  6
CONTINUOUS
 66
1
 70
0
  0
VERTEX
  8
0
 62
7
  6
CONTINUOUS
 10
167.453125
 20
179.7721295049
  0
VERTEX
  8
0
 62
7
  6
CONTINUOUS
 10
167.4808356328
 20
180.0827975719
  0
VERTEX
  8
0
 62
7
  6
CONTINUOUS
 10
167.5322113787
 20
180.7340092798
  0
VERTEX
  8
0
 62
7
  6
CONTINUOUS
 10
167.5757916964
 20
181.3980071506
  0
VERTEX
  8
0
 62
7
  6
CONTINUOUS
 10
167.5938310284
 20
181.7245285391
  0
VERTEX
  8
0
 62
7
  6
CONTINUOUS
 10
167.6210347767
 20
182.3466957842
  0
VERTEX
  8
0
 62
7
  6
CONTINUOUS
 10
167.6350755635
 20
182.9028935608
  0
VERTEX
  8
0
 62
7
  6
CONTINUOUS
 10
167.6368511934
 20
183.1477404404
  0
SEQEND
  0
LINE
  8
DEFAULT_2
 62
8
  6
HIDDEN
 10
167.4388212174
 20
179.6211414726
 11
167.4867959297
 21
180.1529794702
  0
LINE
  8
DEFAULT_2
 62
8
  6
HIDDEN
 10
167.3873020884
 20
172.5964776811
 11
167.4865992629
 21
173.6919606001
  0
LINE
  8
DEFAULT_2
 62
8
  6
HIDDEN
 10
167.5757864714
 20
174.6439060881
 11
167.4808474883
 21
173.6292173289
  0
LINE
  8
DEFAULT_2
 62
8
  6
HIDDEN
 10
167.4118252719
 20
172.8523593934
 11
167.3873020884
 21
172.5964776811
  0
LINE
  8
DEFAULT_2
 62
8
  6
HIDDEN
 10
167.3963623438
 20
179.1800316453
 11
167.4388212174
 21
179.6211414726
  0
POLYLINE
  8
0
 62
7
  6
CONTINUOUS
 66
1
 70
0
  0
VERTEX
  8
0
 62
7
  6
CONTINUOUS
 10
167.453125
 20
185.3872476162
  0
VERTEX
  8
0
 62
7
  6
CONTINUOUS
 10
167.4808356328
 20
185.6562837427
  0
VERTEX
  8
0
 62
7
  6
CONTINUOUS
 10
167.5322113787
 20
186.2508008178
  0
VERTEX
  8
0
 62
7
  6
CONTINUOUS
 10
167.5757916964
 20
186.8956107031
  0
VERTEX
  8
0
 62
7
  6
CONTINUOUS
 10
167.5938310284
 20
187.2269368665
  0
VERTEX
  8
0
 62
7
  6
CONTINUOUS
 10
167.6210347767
 20
187.8871299047
  0
VERTEX
  8
0
 62
7
  6
CONTINUOUS
 10
167.6350755635
 20
188.5174095283
  0
VERTEX
  8
0
 62
7
  6
CONTINUOUS
 10
167.6368511934
 20
188.8117325008
  0
SEQEND
  0
LINE
  8
DEFAULT_2
 62
8
  6
HIDDEN
 10
167.4388212174
 20
185.2603773953
 11
167.4867959297
 21
185.7184414132
  0
LINE
  8
DEFAULT_2
 62
8
  6
HIDDEN
 10
167.4865992629
 20
175.4420838512
 11
167.4388212174
 21
174.9917185754
  0
POLYLINE
  8
DEFAULT_2
 62
8
  6
HIDDEN
 66
1
 70
0
  0
VERTEX
  8
DEFAULT_2
 62
8
  6
HIDDEN
 10
167.6368370529
 20
175.2638752822
  0
VERTEX
  8
DEFAULT_2
 62
8
  6
HIDDEN
 10
167.6320662954
 20
175.2195155211
  0
VERTEX
  8
DEFAULT_2
 62
8
  6
HIDDEN
 10
167.5656697696
 20
174.5379977711
  0
SEQEND
  0
POLYLINE
  8
DEFAULT_2
 62
8
  6
HIDDEN
 66
1
 70
0
  0
VERTEX
  8
DEFAULT_2
 62
8
  6
HIDDEN
 10
167.4011818238
 20
184.9368584447
  0
VERTEX
  8
DEFAULT_2
 62
8
  6
HIDDEN
 10
167.3963623438
 20
184.8927851091
  0
VERTEX
  8
DEFAULT_2
 62
8
  6
HIDDEN
 10
167.3917163171
 20
184.844923539
  0
VERTEX
  8
DEFAULT_2
 62
8
  6
HIDDEN
 10
167.3873020884
 20
184.7938899841
  0
SEQEND
  0
POLYLINE
  8
DEFAULT_2
 62
8
  6
HIDDEN
 66
1
 70
0
  0
VERTEX
  8
DEFAULT_2
 62
8
  6
HIDDEN
 10
167.4495783155
 20
173.2133772772
  0
VERTEX
  8
DEFAULT_2
 62
8
  6
HIDDEN
 10
167.4391258767
 20
173.1220551634
  0
VERTEX
  8
DEFAULT_2
 62
8
  6
HIDDEN
 10
167.4314724967
 20
173.0490014948
  0
VERTEX
  8
DEFAULT_2
 62
8
  6
HIDDEN
 10
167.4118252719
 20
172.8523593934
  0
SEQEND
  0
POLYLINE
  8
DEFAULT_2
 62
8
  6
HIDDEN
 66
1
 70
0
  0
VERTEX
  8
DEFAULT_2
 62
8
  6
HIDDEN
 10
167.6368370064
 20
175.2638752823
  0
VERTEX
  8
DEFAULT_2
 62
8
  6
HIDDEN
 10
167.6350736777
 20
175.2485541289
  0
VERTEX
  8
DEFAULT_2
 62
8
  6
HIDDEN
 10
167.6210255895
 20
175.1093611504
  0
SEQEND
  0
LINE
  8
DEFAULT_2
 62
8
  6
HIDDEN
 10
167.4011818238
 20
184.9368584447
 11
167.4388212174
 21
185.2603773953
  0
POLYLINE
  8
DEFAULT_2
 62
8
  6
HIDDEN
 66
1
 70
0
  0
VERTEX
  8
DEFAULT_2
 62
8
  6
HIDDEN
 10
167.3873020884
 20
174.4959208558
  0
VERTEX
  8
DEFAULT_2
 62
8
  6
HIDDEN
 10
167.3917150585
 20
174.5333670931
  0
VERTEX
  8
DEFAULT_2
 62
8
  6
HIDDEN
 10
167.3963609313
 20
174.5754488789
  0
VERTEX
  8
DEFAULT_2
 62
8
  6
HIDDEN
 10
167.4388212174
 20
174.9917185754
  0
SEQEND
  0
LINE
  8
DEFAULT_2
 62
8
  6
HIDDEN
 10
167.4388212174
 20
178.7133847481
 11
167.4011818238
 21
178.4169342483
  0
POLYLINE
  8
0
 62
7
  6
CONTINUOUS
 66
1
 70
0
  0
VERTEX
  8
0
 62
7
  6
CONTINUOUS
 10
167.453125
 20
192.1898678809
  0
VERTEX
  8
0
 62
7
  6
CONTINUOUS
 10
167.4808356328
 20
192.3989376995
  0
VERTEX
  8
0
 62
7
  6
CONTINUOUS
 10
167.5322113787
 20
192.8962447856
  0
VERTEX
  8
0
 62
7
  6
CONTINUOUS
 10
167.5757916964
 20
193.4779239574
  0
VERTEX
  8
0
 62
7
  6
CONTINUOUS
 10
167.5938310284
 20
193.7914755651
  0
VERTEX
  8
0
 62
7
  6
CONTINUOUS
 10
167.6210347767
 20
194.4447033318
  0
VERTEX
  8
0
 62
7
  6
CONTINUOUS
 10
167.6350755635
 20
195.1061122876
  0
VERTEX
  8
0
 62
7
  6
CONTINUOUS
 10
167.6368511934
 20
195.429853729
  0
SEQEND
  0
LINE
  8
DEFAULT_2
 62
8
  6
HIDDEN
 10
167.4118252719
 20
174.6804911269
 11
167.3873020884
 21
174.4959208558
  0
POLYLINE
  8
DEFAULT_2
 62
8
  6
HIDDEN
 66
1
 70
0
  0
VERTEX
  8
DEFAULT_2
 62
8
  6
HIDDEN
 10
167.4388212174
 20
192.0957614673
  0
VERTEX
  8
DEFAULT_2
 62
8
  6
HIDDEN
 10
167.4867959297
 20
192.4488351996
  0
VERTEX
  8
DEFAULT_2
 62
8
  6
HIDDEN
 10
167.5294390034
 20
192.8650734972
  0
VERTEX
  8
DEFAULT_2
 62
8
  6
HIDDEN
 10
167.5660001446
 20
193.3293683506
  0
VERTEX
  8
DEFAULT_2
 62
8
  6
HIDDEN
 10
167.5958431862
 20
193.8305601316
  0
VERTEX
  8
DEFAULT_2
 62
8
  6
HIDDEN
 10
167.6181814719
 20
194.3576741842
  0
VERTEX
  8
DEFAULT_2
 62
8
  6
HIDDEN
 10
167.6321064623
 20
194.8967224253
  0
VERTEX
  8
DEFAULT_2
 62
8
  6
HIDDEN
 10
167.6368511934
 20
195.429853729
  0
SEQEND
  0
POLYLINE
  8
DEFAULT_2
 62
8
  6
HIDDEN
 66
1
 70
0
  0
VERTEX
  8
DEFAULT_2
 62
8
  6
HIDDEN
 10
167.4011818238
 20
191.8599931929
  0
VERTEX
  8
DEFAULT_2
 62
8
  6
HIDDEN
 10
167.3963623438
 20
191.8267375289
  0
VERTEX
  8
DEFAULT_2
 62
8
  6
HIDDEN
 10
167.3917163171
 20
191.7884639346
  0
VERTEX
  8
DEFAULT_2
 62
8
  6
HIDDEN
 10
167.3873020884
 20
191.7456667606
  0
SEQEND
  0
LINE
  8
DEFAULT_2
 62
8
  6
HIDDEN
 10
167.4011818238
 20
191.8599931929
 11
167.4388212174
 21
192.0957614673
  0
POLYLINE
  8
DEFAULT_2
 62
8
  6
HIDDEN
 66
1
 70
0
  0
VERTEX
  8
DEFAULT_2
 62
8
  6
HIDDEN
 10
167.3873020884
 20
178.3250921038
  0
VERTEX
  8
DEFAULT_2
 62
8
  6
HIDDEN
 10
167.3917150585
 20
178.3501885827
  0
VERTEX
  8
DEFAULT_2
 62
8
  6
HIDDEN
 10
167.3963609313
 20
178.3809303794
  0
VERTEX
  8
DEFAULT_2
 62
8
  6
HIDDEN
 10
167.4011818238
 20
178.4169342483
  0
SEQEND
  0
LINE
  8
DEFAULT_2
 62
8
  6
HIDDEN
 10
167.4388212174
 20
184.0773657996
 11
167.4011818238
 21
183.8747494714
  0
POLYLINE
  8
0
 62
7
  6
CONTINUOUS
 66
1
 70
0
  0
VERTEX
  8
0
 62
7
  6
CONTINUOUS
 10
175.453125
 20
231.1977686335
  0
VERTEX
  8
0
 62
7
  6
CONTINUOUS
 10
175.4603064022
 20
231.2342417123
  0
VERTEX
  8
0
 62
7
  6
CONTINUOUS
 10
175.4622120045
 20
231.2347136797
  0
SEQEND
  0
LINE
  8
DEFAULT_2
 62
8
  6
HIDDEN
 10
167.4388212174
 20
190.7181152855
 11
167.4011818238
 21
190.623141097
  0
POLYLINE
  8
DEFAULT_2
 62
8
  6
HIDDEN
 66
1
 70
0
  0
VERTEX
  8
DEFAULT_2
 62
8
  6
HIDDEN
 10
160.280019982
 20
176.3798197504
  0
VERTEX
  8
DEFAULT_2
 62
8
  6
HIDDEN
 10
160.2741435249
 20
176.3675737913
  0
VERTEX
  8
DEFAULT_2
 62
8
  6
HIDDEN
 10
160.2693988066
 20
176.2700993166
  0
SEQEND
  0
POLYLINE
  8
DEFAULT_2
 62
8
  6
HIDDEN
 66
1
 70
0
  0
VERTEX
  8
DEFAULT_2
 62
8
  6
HIDDEN
 10
160.3094528059
 20
179.5015527377
  0
VERTEX
  8
DEFAULT_2
 62
8
  6
HIDDEN
 10
160.288068483
 20
179.4571525911
  0
VERTEX
  8
DEFAULT_2
 62
8
  6
HIDDEN
 10
160.2741435249
 20
179.3174166039
  0
VERTEX
  8
DEFAULT_2
 62
8
  6
HIDDEN
 10
160.2693988066
 20
179.0852791464
  0
SEQEND
  0
POLYLINE
  8
0
 62
7
  6
CONTINUOUS
 66
1
 70
0
  0
VERTEX
  8
0
 62
7
  6
CONTINUOUS
 10
152.4281150491
 20
178.2855729198
  0
VERTEX
  8
0
 62
7
  6
CONTINUOUS
 10
152.4459811337
 20
178.3088238538
  0
VERTEX
  8
0
 62
7
  6
CONTINUOUS
 10
152.453125
 20
178.3871164145
  0
SEQEND
  0
POLYLINE
  8
DEFAULT_2
 62
8
  6
HIDDEN
 66
1
 70
0
  0
VERTEX
  8
DEFAULT_2
 62
8
  6
HIDDEN
 10
160.4130019742
 20
190.7892272203
  0
VERTEX
  8
DEFAULT_2
 62
8
  6
HIDDEN
 10
160.376810939
 20
190.7518086359
  0
VERTEX
  8
DEFAULT_2
 62
8
  6
HIDDEN
 10
160.3402497741
 20
190.6190090425
  0
VERTEX
  8
DEFAULT_2
 62
8
  6
HIDDEN
 10
160.3104067375
 20
190.3970487758
  0
VERTEX
  8
DEFAULT_2
 62
8
  6
HIDDEN
 10
160.288068483
 20
190.0917382726
  0
VERTEX
  8
DEFAULT_2
 62
8
  6
HIDDEN
 10
160.2741435249
 20
189.7104128325
  0
VERTEX
  8
DEFAULT_2
 62
8
  6
HIDDEN
 10
160.2693988066
 20
189.2645077292
  0
SEQEND
  0
LINE
  8
DEFAULT_2
 62
8
  6
HIDDEN
 10
160.5189479116
 20
190.615087697
 11
160.5141532914
 21
190.6112891005
  0
LINE
  8
DEFAULT_2
 62
8
  6
HIDDEN
 10
167.3873020884
 20
207.3866308473
 11
160.5189479116
 21
207.3866308473
  0
LINE
  8
0
 62
9
  6
CONTINUOUS
 10
175.5546966949
 20
207.4227826121
 11
152.3515533051
 21
207.4227826121
  0
LINE
  8
0
 62
9
  6
CONTINUOUS
 10
152.2439982458
 20
207.4419228972
 11
175.6622517542
 21
207.4419228972
  0
LINE
  8
0
 62
7
  6
CONTINUOUS
 10
160.453125
 20
207.4539319546
 11
167.453125
 21
207.4539319546
  0
LINE
  8
DEFAULT_2
 62
8
  6
HIDDEN
 10
167.453125
 20
208.55930793
 11
160.453125
 21
208.55930793
  0
LINE
  8
0
 62
9
  6
CONTINUOUS
 10
151.678125
 20
209.6901411238
 11
160.2693988066
 21
209.6901411238
  0
LINE
  8
0
 62
9
  6
CONTINUOUS
 10
167.6368511934
 20
209.6901411238
 11
176.228125
 21
209.6901411238
  0
LINE
  8
0
 62
9
  6
CONTINUOUS
 10
151.678125
 20
210.195146271
 11
160.2693988066
 21
210.195146271
  0
LINE
  8
0
 62
9
  6
CONTINUOUS
 10
167.6368511934
 20
210.195146271
 11
176.228125
 21
210.195146271
  0
POLYLINE
  8
0
 62
7
  6
CONTINUOUS
 66
1
 70
0
  0
VERTEX
  8
0
 62
7
  6
CONTINUOUS
 10
152.0885619
 20
214.8357727359
  0
VERTEX
  8
0
 62
7
  6
CONTINUOUS
 10
151.9994608834
 20
214.8631370871
  0
VERTEX
  8
0
 62
7
  6
CONTINUOUS
 10
151.8647139012
 20
215.0375192897
  0
VERTEX
  8
0
 62
7
  6
CONTINUOUS
 10
151.8092281927
 20
215.1814153918
  0
VERTEX
  8
0
 62
7
  6
CONTINUOUS
 10
151.7260558718
 20
215.5703544087
  0
VERTEX
  8
0
 62
7
  6
CONTINUOUS
 10
151.6834796399
 20
216.0739930467
  0
VERTEX
  8
0
 62
7
  6
CONTINUOUS
 10
151.678125
 20
216.3604922708
  0
SEQEND
  0
LINE
  8
DEFAULT_2
 62
8
  6
HIDDEN
 10
160.5141532462
 20
215.0137108995
 11
160.5189479116
 21
215.009912303
  0
POLYLINE
  8
0
 62
7
  6
CONTINUOUS
 66
1
 70
0
  0
VERTEX
  8
0
 62
7
  6
CONTINUOUS
 10
175.5546966949
 20
198.2022173879
  0
VERTEX
  8
0
 62
7
  6
CONTINUOUS
 10
175.5138539979
 20
198.2404688294
  0
VERTEX
  8
0
 62
7
  6
CONTINUOUS
 10
175.4811501238
 20
198.3345352013
  0
VERTEX
  8
0
 62
7
  6
CONTINUOUS
 10
175.4602688663
 20
198.4711896223
  0
VERTEX
  8
0
 62
7
  6
CONTINUOUS
 10
175.453125
 20
198.6335697159
  0
SEQEND
  0
POLYLINE
  8
DEFAULT_2
 62
8
  6
HIDDEN
 66
1
 70
0
  0
VERTEX
  8
DEFAULT_2
 62
8
  6
HIDDEN
 10
160.4130407398
 20
214.8357727359
  0
VERTEX
  8
DEFAULT_2
 62
8
  6
HIDDEN
 10
160.3740386213
 20
214.8794669899
  0
VERTEX
  8
DEFAULT_2
 62
8
  6
HIDDEN
 10
160.3423606117
 20
215.0137108995
  0
SEQEND
  0
POLYLINE
  8
0
 62
7
  6
CONTINUOUS
 66
1
 70
0
  0
VERTEX
  8
0
 62
7
  6
CONTINUOUS
 10
151.708462714
 20
229.2451802526
  0
VERTEX
  8
0
 62
7
  6
CONTINUOUS
 10
151.6834796399
 20
229.2824205346
  0
VERTEX
  8
0
 62
7
  6
CONTINUOUS
 10
151.678125
 20
229.3549006834
  0
SEQEND
  0
POLYLINE
  8
DEFAULT_2
 62
8
  6
HIDDEN
 66
1
 70
0
  0
VERTEX
  8
DEFAULT_2
 62
8
  6
HIDDEN
 10
160.3094545225
 20
226.1234472624
  0
VERTEX
  8
DEFAULT_2
 62
8
  6
HIDDEN
 10
160.2852152233
 20
226.1840558736
  0
VERTEX
  8
DEFAULT_2
 62
8
  6
HIDDEN
 10
160.2711744365
 20
226.3873082642
  0
VERTEX
  8
DEFAULT_2
 62
8
  6
HIDDEN
 10
160.2693988066
 20
226.5397208536
  0
SEQEND
  0
LINE
  8
DEFAULT_2
 62
8
  6
HIDDEN
 10
167.4011818238
 20
215.001858903
 11
167.4388212174
 21
214.9068847145
  0
LINE
  8
DEFAULT_2
 62
8
  6
HIDDEN
 10
176.1799760887
 20
184.1146094452
 11
176.1801941282
 21
184.1135768716
  0
POLYLINE
  8
DEFAULT_2
 62
8
  6
HIDDEN
 66
1
 70
0
  0
VERTEX
  8
DEFAULT_2
 62
8
  6
HIDDEN
 10
167.453125
 20
221.4743280844
  0
VERTEX
  8
DEFAULT_2
 62
8
  6
HIDDEN
 10
167.4808356328
 20
221.3543748454
  0
VERTEX
  8
DEFAULT_2
 62
8
  6
HIDDEN
 10
167.5322113787
 20
221.2210572531
  0
VERTEX
  8
DEFAULT_2
 62
8
  6
HIDDEN
 10
167.5511723791
 20
221.2086667
  0
SEQEND
  0
POLYLINE
  8
DEFAULT_2
 62
8
  6
HIDDEN
 66
1
 70
0
  0
VERTEX
  8
DEFAULT_2
 62
8
  6
HIDDEN
 10
167.4388212174
 20
221.5476342004
  0
VERTEX
  8
DEFAULT_2
 62
8
  6
HIDDEN
 10
167.4867959297
 20
221.332611232
  0
VERTEX
  8
DEFAULT_2
 62
8
  6
HIDDEN
 10
167.5294390034
 20
221.224780543
  0
VERTEX
  8
DEFAULT_2
 62
8
  6
HIDDEN
 10
167.5511733969
 20
221.2086667029
  0
SEQEND
  0
POLYLINE
  8
DEFAULT_2
 62
8
  6
HIDDEN
 66
1
 70
0
  0
VERTEX
  8
DEFAULT_2
 62
8
  6
HIDDEN
 10
167.4011818238
 20
221.7502505286
  0
VERTEX
  8
DEFAULT_2
 62
8
  6
HIDDEN
 10
167.3963623438
 20
221.7736109565
  0
VERTEX
  8
DEFAULT_2
 62
8
  6
HIDDEN
 10
167.3917163171
 20
221.7909198927
  0
VERTEX
  8
DEFAULT_2
 62
8
  6
HIDDEN
 10
167.3873020884
 20
221.8019602675
  0
SEQEND
  0
LINE
  8
DEFAULT_2
 62
8
  6
HIDDEN
 10
167.4011818238
 20
221.7502505286
 11
167.4388212174
 21
221.5476342004
  0
LINE
  8
DEFAULT_2
 62
8
  6
HIDDEN
 10
167.4388212174
 20
213.5292385327
 11
167.4011818238
 21
213.7650068071
  0
POLYLINE
  8
DEFAULT_2
 62
8
  6
HIDDEN
 66
1
 70
0
  0
VERTEX
  8
DEFAULT_2
 62
8
  6
HIDDEN
 10
167.453125
 20
226.8017284028
  0
VERTEX
  8
DEFAULT_2
 62
8
  6
HIDDEN
 10
167.4808356328
 20
226.6054556589
  0
VERTEX
  8
DEFAULT_2
 62
8
  6
HIDDEN
 10
167.5322113787
 20
226.308134761
  0
VERTEX
  8
DEFAULT_2
 62
8
  6
HIDDEN
 10
167.5757916964
 20
226.1491072463
  0
VERTEX
  8
DEFAULT_2
 62
8
  6
HIDDEN
 10
167.5967954775
 20
226.1234472624
  0
SEQEND
  0
POLYLINE
  8
DEFAULT_2
 62
8
  6
HIDDEN
 66
1
 70
0
  0
VERTEX
  8
DEFAULT_2
 62
8
  6
HIDDEN
 10
167.4388212174
 20
226.9116152519
  0
VERTEX
  8
DEFAULT_2
 62
8
  6
HIDDEN
 10
167.4867959297
 20
226.5662692107
  0
VERTEX
  8
DEFAULT_2
 62
8
  6
HIDDEN
 10
167.5294390034
 20
226.3216033555
  0
VERTEX
  8
DEFAULT_2
 62
8
  6
HIDDEN
 10
167.5660001446
 20
226.1747045106
  0
VERTEX
  8
DEFAULT_2
 62
8
  6
HIDDEN
 10
167.5967971938
 20
226.1234472623
  0
SEQEND
  0
POLYLINE
  8
DEFAULT_2
 62
8
  6
HIDDEN
 66
1
 70
0
  0
VERTEX
  8
DEFAULT_2
 62
8
  6
HIDDEN
 10
167.4011818238
 20
227.2080657517
  0
VERTEX
  8
DEFAULT_2
 62
8
  6
HIDDEN
 10
167.3963623438
 20
227.244059661
  0
VERTEX
  8
DEFAULT_2
 62
8
  6
HIDDEN
 10
167.3917163171
 20
227.2748036594
  0
VERTEX
  8
DEFAULT_2
 62
8
  6
HIDDEN
 10
167.3873020884
 20
227.2999078962
  0
SEQEND
  0
POLYLINE
  8
DEFAULT_2
 62
8
  6
HIDDEN
 66
1
 70
0
  0
VERTEX
  8
DEFAULT_2
 62
8
  6
HIDDEN
 10
167.3873020884
 20
231.1290791442
  0
VERTEX
  8
DEFAULT_2
 62
8
  6
HIDDEN
 10
167.4118252719
 20
230.9445088731
  0
VERTEX
  8
DEFAULT_2
 62
8
  6
HIDDEN
 10
167.4314724967
 20
230.830054738
  0
VERTEX
  8
DEFAULT_2
 62
8
  6
HIDDEN
 10
167.4391258767
 20
230.800932293
  0
VERTEX
  8
DEFAULT_2
 62
8
  6
HIDDEN
 10
167.4452457045
 20
230.791048629
  0
SEQEND
  0
POLYLINE
  8
DEFAULT_2
 62
8
  6
HIDDEN
 66
1
 70
0
  0
VERTEX
  8
DEFAULT_2
 62
8
  6
HIDDEN
 10
167.5294390034
 20
229.816319625
  0
VERTEX
  8
DEFAULT_2
 62
8
  6
HIDDEN
 10
167.5660001446
 20
229.5398313189
  0
VERTEX
  8
DEFAULT_2
 62
8
  6
HIDDEN
 10
167.5958431862
 20
229.3525382845
  0
VERTEX
  8
DEFAULT_2
 62
8
  6
HIDDEN
 10
167.6181814719
 20
229.2571983717
  0
VERTEX
  8
DEFAULT_2
 62
8
  6
HIDDEN
 10
167.626230018
 20
229.2451802496
  0
SEQEND
  0
LINE
  8
DEFAULT_2
 62
8
  6
HIDDEN
 10
167.4011818238
 20
227.2080657517
 11
167.4388212174
 21
226.9116152519
  0
POLYLINE
  8
DEFAULT_2
 62
8
  6
HIDDEN
 66
1
 70
0
  0
VERTEX
  8
DEFAULT_2
 62
8
  6
HIDDEN
 10
167.4808356328
 20
230.2350858639
  0
VERTEX
  8
DEFAULT_2
 62
8
  6
HIDDEN
 10
167.5322113787
 20
229.7940235883
  0
VERTEX
  8
DEFAULT_2
 62
8
  6
HIDDEN
 10
167.5757916964
 20
229.473525726
  0
VERTEX
  8
DEFAULT_2
 62
8
  6
HIDDEN
 10
167.5938310284
 20
229.3635702641
  0
VERTEX
  8
DEFAULT_2
 62
8
  6
HIDDEN
 10
167.6210347767
 20
229.2506594548
  0
VERTEX
  8
DEFAULT_2
 62
8
  6
HIDDEN
 10
167.6262298887
 20
229.2451802497
  0
SEQEND
  0
LINE
  8
DEFAULT_2
 62
8
  6
HIDDEN
 10
167.4388212174
 20
220.3646226047
 11
167.4011818238
 21
220.6881415553
  0
POLYLINE
  8
DEFAULT_2
 62
8
  6
HIDDEN
 66
1
 70
0
  0
VERTEX
  8
DEFAULT_2
 62
8
  6
HIDDEN
 10
167.4391258767
 20
232.5029448366
  0
VERTEX
  8
DEFAULT_2
 62
8
  6
HIDDEN
 10
167.4495783155
 20
232.4116227228
  0
VERTEX
  8
DEFAULT_2
 62
8
  6
HIDDEN
 10
167.4527953534
 20
232.3929215521
  0
SEQEND
  0
POLYLINE
  8
DEFAULT_2
 62
8
  6
HIDDEN
 66
1
 70
0
  0
VERTEX
  8
DEFAULT_2
 62
8
  6
HIDDEN
 10
167.3963623438
 20
231.0495379497
  0
VERTEX
  8
DEFAULT_2
 62
8
  6
HIDDEN
 10
167.3917163171
 20
231.0916218575
  0
VERTEX
  8
DEFAULT_2
 62
8
  6
HIDDEN
 10
167.3873020884
 20
231.1290791442
  0
SEQEND
  0
LINE
  8
DEFAULT_2
 62
8
  6
HIDDEN
 10
176.2227236506
 20
189.5522085786
 11
176.2227703601
 21
189.5510069533
  0
POLYLINE
  8
0
 62
7
  6
CONTINUOUS
 66
1
 70
0
  0
VERTEX
  8
0
 62
7
  6
CONTINUOUS
 10
176.228125
 20
176.2700993166
  0
VERTEX
  8
0
 62
7
  6
CONTINUOUS
 10
176.2227236506
 20
176.3428123374
  0
VERTEX
  8
0
 62
7
  6
CONTINUOUS
 10
176.1977833936
 20
176.3798197497
  0
SEQEND
  0
LINE
  8
DEFAULT_2
 62
8
  6
HIDDEN
 10
176.2227236506
 20
196.2606042033
 11
176.2227703601
 21
196.2592177559
  0
POLYLINE
  8
0
 62
7
  6
CONTINUOUS
 66
1
 70
0
  0
VERTEX
  8
0
 62
7
  6
CONTINUOUS
 10
176.228125
 20
179.0852791464
  0
VERTEX
  8
0
 62
7
  6
CONTINUOUS
 10
176.2227236506
 20
179.2420008361
  0
VERTEX
  8
0
 62
7
  6
CONTINUOUS
 10
176.1799760887
 20
179.4472568463
  0
VERTEX
  8
0
 62
7
  6
CONTINUOUS
 10
176.1136876759
 20
179.5015527332
  0
SEQEND
  0
POLYLINE
  8
0
 62
7
  6
CONTINUOUS
 66
1
 70
0
  0
VERTEX
  8
0
 62
7
  6
CONTINUOUS
 10
176.228125
 20
183.5174298663
  0
VERTEX
  8
0
 62
7
  6
CONTINUOUS
 10
176.2227236506
 20
183.7474799007
  0
VERTEX
  8
0
 62
7
  6
CONTINUOUS
 10
176.1799760887
 20
184.1146094452
  0
VERTEX
  8
0
 62
7
  6
CONTINUOUS
 10
176.096826521
 20
184.3423659537
  0
VERTEX
  8
0
 62
7
  6
CONTINUOUS
 10
176.0414611485
 20
184.3992142571
  0
VERTEX
  8
0
 62
7
  6
CONTINUOUS
 10
175.9832780404
 20
184.4163332996
  0
SEQEND
  0
POLYLINE
  8
0
 62
7
  6
CONTINUOUS
 66
1
 70
0
  0
VERTEX
  8
0
 62
7
  6
CONTINUOUS
 10
176.228125
 20
189.2645077292
  0
VERTEX
  8
0
 62
7
  6
CONTINUOUS
 10
176.2227236506
 20
189.5522085786
  0
VERTEX
  8
0
 62
7
  6
CONTINUOUS
 10
176.1799760887
 20
190.0561923857
  0
VERTEX
  8
0
 62
7
  6
CONTINUOUS
 10
176.096826521
 20
190.4442021855
  0
VERTEX
  8
0
 62
7
  6
CONTINUOUS
 10
176.0414611485
 20
190.5876383516
  0
VERTEX
  8
0
 62
7
  6
CONTINUOUS
 10
175.9070626835
 20
190.7616878686
  0
VERTEX
  8
0
 62
7
  6
CONTINUOUS
 10
175.8176989614
 20
190.7892272636
  0
SEQEND
  0
LINE
  8
0
 62
7
  6
CONTINUOUS
 10
175.453125
 20
233.223244533
 11
175.453125
 21
233.1762784487
  0
LINE
  8
0
 62
7
  6
CONTINUOUS
 10
175.453125
 20
231.1977686335
 11
175.453125
 21
231.0600710416
  0
LINE
  8
0
 62
7
  6
CONTINUOUS
 10
175.453125
 20
227.2378835855
 11
175.453125
 21
227.0188383494
  0
LINE
  8
0
 62
7
  6
CONTINUOUS
 10
175.453125
 20
221.613449011
 11
175.453125
 21
221.3279837015
  0
LINE
  8
0
 62
7
  6
CONTINUOUS
 10
175.453125
 20
214.7077608315
 11
175.453125
 21
214.3753294377
  0
LINE
  8
0
 62
7
  6
CONTINUOUS
 10
175.453125
 20
206.9914302841
 11
175.453125
 21
206.6346874561
  0
LINE
  8
0
 62
7
  6
CONTINUOUS
 10
175.453125
 20
198.9903125439
 11
175.453125
 21
198.6335697159
  0
LINE
  8
0
 62
7
  6
CONTINUOUS
 10
175.453125
 20
191.2496705623
 11
175.453125
 21
190.9172391685
  0
LINE
  8
0
 62
7
  6
CONTINUOUS
 10
175.453125
 20
184.2970162985
 11
175.453125
 21
184.011550989
  0
LINE
  8
0
 62
7
  6
CONTINUOUS
 10
175.453125
 20
178.6061616506
 11
175.453125
 21
178.3871164145
  0
LINE
  8
0
 62
7
  6
CONTINUOUS
 10
175.453125
 20
174.5649289584
 11
175.453125
 21
174.4272313665
  0
LINE
  8
0
 62
7
  6
CONTINUOUS
 10
175.453125
 20
172.4487215513
 11
175.453125
 21
172.401755467
  0
LINE
  8
DEFAULT_2
 62
8
  6
HIDDEN
 10
176.2227703601
 20
216.0739930467
 11
176.2227236506
 21
216.0727914214
  0
LINE
  8
DEFAULT_2
 62
8
  6
HIDDEN
 10
176.2227703601
 20
221.8784550138
 11
176.2227236506
 21
221.8775200993
  0
POLYLINE
  8
0
 62
7
  6
CONTINUOUS
 66
1
 70
0
  0
VERTEX
  8
0
 62
7
  6
CONTINUOUS
 10
175.453125
 20
198.9903125439
  0
VERTEX
  8
0
 62
7
  6
CONTINUOUS
 10
175.4603064022
 20
199.1609724577
  0
VERTEX
  8
0
 62
7
  6
CONTINUOUS
 10
175.4811833474
 20
199.3197072662
  0
VERTEX
  8
0
 62
7
  6
CONTINUOUS
 10
175.5138045223
 20
199.4481404489
  0
VERTEX
  8
0
 62
7
  6
CONTINUOUS
 10
175.5546966949
 20
199.52952318
  0
SEQEND
  0
POLYLINE
  8
0
 62
7
  6
CONTINUOUS
 66
1
 70
0
  0
VERTEX
  8
0
 62
7
  6
CONTINUOUS
 10
175.453125
 20
191.2496705623
  0
VERTEX
  8
0
 62
7
  6
CONTINUOUS
 10
175.4603064022
 20
191.416577774
  0
VERTEX
  8
0
 62
7
  6
CONTINUOUS
 10
175.4811833474
 20
191.5868339927
  0
VERTEX
  8
0
 62
7
  6
CONTINUOUS
 10
175.5138045223
 20
191.7411147535
  0
VERTEX
  8
0
 62
7
  6
CONTINUOUS
 10
175.5546966949
 20
191.8599931929
  0
SEQEND
  0
POLYLINE
  8
0
 62
7
  6
CONTINUOUS
 66
1
 70
0
  0
VERTEX
  8
0
 62
7
  6
CONTINUOUS
 10
175.453125
 20
206.9914302841
  0
VERTEX
  8
0
 62
7
  6
CONTINUOUS
 10
175.4603064022
 20
207.1542127089
  0
VERTEX
  8
0
 62
7
  6
CONTINUOUS
 10
175.4811833474
 20
207.2906085925
  0
VERTEX
  8
0
 62
7
  6
CONTINUOUS
 10
175.5138045223
 20
207.3844416879
  0
VERTEX
  8
0
 62
7
  6
CONTINUOUS
 10
175.5546966949
 20
207.4227826121
  0
SEQEND
  0
POLYLINE
  8
0
 62
7
  6
CONTINUOUS
 66
1
 70
0
  0
VERTEX
  8
0
 62
7
  6
CONTINUOUS
 10
175.453125
 20
214.7077608315
  0
VERTEX
  8
0
 62
7
  6
CONTINUOUS
 10
175.4603064022
 20
214.851572414
  0
VERTEX
  8
0
 62
7
  6
CONTINUOUS
 10
175.4811833474
 20
214.9563342185
  0
VERTEX
  8
0
 62
7
  6
CONTINUOUS
 10
175.5138045223
 20
215.0091726563
  0
VERTEX
  8
0
 62
7
  6
CONTINUOUS
 10
175.5287369082
 20
215.0137108971
  0
SEQEND
  0
POLYLINE
  8
0
 62
7
  6
CONTINUOUS
 66
1
 70
0
  0
VERTEX
  8
0
 62
7
  6
CONTINUOUS
 10
175.453125
 20
221.613449011
  0
VERTEX
  8
0
 62
7
  6
CONTINUOUS
 10
175.4603064022
 20
221.7284892297
  0
VERTEX
  8
0
 62
7
  6
CONTINUOUS
 10
175.4811833474
 20
221.7944776113
  0
VERTEX
  8
0
 62
7
  6
CONTINUOUS
 10
175.500794759
 20
221.8067451102
  0
SEQEND
  0
LINE
  8
DEFAULT_2
 62
8
  6
HIDDEN
 10
176.1801941282
 20
208.7598589945
 11
176.1799760887
 21
208.7579033906
  0
LINE
  8
DEFAULT_2
 62
8
  6
HIDDEN
 10
176.1801941282
 20
215.5703544087
 11
176.1799760887
 21
215.5688076143
  0
POLYLINE
  8
0
 62
7
  6
CONTINUOUS
 66
1
 70
0
  0
VERTEX
  8
0
 62
7
  6
CONTINUOUS
 10
175.453125
 20
227.2378835855
  0
VERTEX
  8
0
 62
7
  6
CONTINUOUS
 10
175.4603064022
 20
227.3163126394
  0
VERTEX
  8
0
 62
7
  6
CONTINUOUS
 10
175.4781357623
 20
227.3394270808
  0
SEQEND
  0
LINE
  8
DEFAULT_2
 62
8
  6
HIDDEN
 10
176.1801941282
 20
221.5114231284
 11
176.1799760887
 21
221.5103905548
  0
LINE
  8
DEFAULT_2
 62
8
  6
HIDDEN
 10
176.0970218073
 20
208.2369827109
 11
176.096826521
 21
208.2360825261
  0
LINE
  8
DEFAULT_2
 62
8
  6
HIDDEN
 10
167.4527953534
 20
173.2320784479
 11
167.4495783155
 21
173.2133772772
  0
LINE
  8
DEFAULT_2
 62
8
  6
HIDDEN
 10
167.4118252719
 20
178.4257727747
 11
167.3873020884
 21
178.3250921038
  0
POLYLINE
  8
DEFAULT_2
 62
8
  6
HIDDEN
 66
1
 70
0
  0
VERTEX
  8
DEFAULT_2
 62
8
  6
HIDDEN
 10
167.3873020884
 20
183.8230397325
  0
VERTEX
  8
DEFAULT_2
 62
8
  6
HIDDEN
 10
167.3917150585
 20
183.8340761695
  0
VERTEX
  8
DEFAULT_2
 62
8
  6
HIDDEN
 10
167.3963609313
 20
183.8513829745
  0
VERTEX
  8
DEFAULT_2
 62
8
  6
HIDDEN
 10
167.4011818238
 20
183.8747494714
  0
SEQEND
  0
LINE
  8
DEFAULT_2
 62
8
  6
HIDDEN
 10
175.9070626835
 20
200.1511774261
 11
175.9067891166
 21
200.1503833207
  0
POLYLINE
  8
DEFAULT_2
 62
8
  6
HIDDEN
 66
1
 70
0
  0
VERTEX
  8
DEFAULT_2
 62
8
  6
HIDDEN
 10
160.4610042955
 20
174.833951371
  0
VERTEX
  8
DEFAULT_2
 62
8
  6
HIDDEN
 10
160.4566716845
 20
174.8244983236
  0
VERTEX
  8
DEFAULT_2
 62
8
  6
HIDDEN
 10
160.453125
 20
174.7483730608
  0
SEQEND
  0
POLYLINE
  8
DEFAULT_2
 62
8
  6
HIDDEN
 66
1
 70
0
  0
VERTEX
  8
DEFAULT_2
 62
8
  6
HIDDEN
 10
160.4779748006
 20
178.4515535023
  0
VERTEX
  8
DEFAULT_2
 62
8
  6
HIDDEN
 10
160.4671241233
 20
178.4334456583
  0
VERTEX
  8
DEFAULT_2
 62
8
  6
HIDDEN
 10
160.4566716845
 20
178.3429554319
  0
VERTEX
  8
DEFAULT_2
 62
8
  6
HIDDEN
 10
160.453125
 20
178.180753963
  0
SEQEND
  0
POLYLINE
  8
0
 62
7
  6
CONTINUOUS
 66
1
 70
0
  0
VERTEX
  8
0
 62
7
  6
CONTINUOUS
 10
175.6622517542
 20
199.66147356
  0
VERTEX
  8
0
 62
7
  6
CONTINUOUS
 10
175.7477487381
 20
199.7876121958
  0
VERTEX
  8
0
 62
7
  6
CONTINUOUS
 10
175.9067891166
 20
200.1503833207
  0
VERTEX
  8
0
 62
7
  6
CONTINUOUS
 10
176.0415360988
 20
200.64004714
  0
VERTEX
  8
0
 62
7
  6
CONTINUOUS
 10
176.0970218073
 20
200.9228804975
  0
VERTEX
  8
0
 62
7
  6
CONTINUOUS
 10
176.1801941282
 20
201.5440608932
  0
VERTEX
  8
0
 62
7
  6
CONTINUOUS
 10
176.2227703601
 20
202.2109760864
  0
VERTEX
  8
0
 62
7
  6
CONTINUOUS
 10
176.228125
 20
202.5510901
  0
SEQEND
  0
LINE
  8
0
 62
7
  6
CONTINUOUS
 10
175.6622517542
 20
199.66147356
 11
175.5546966949
 21
199.52952318
  0
LINE
  8
DEFAULT_2
 62
8
  6
HIDDEN
 10
167.4932102457
 20
190.789227264
 11
167.453125
 21
190.7498449779
  0
POLYLINE
  8
DEFAULT_2
 62
8
  6
HIDDEN
 66
1
 70
0
  0
VERTEX
  8
DEFAULT_2
 62
8
  6
HIDDEN
 10
167.3920967086
 20
190.6112891005
  0
VERTEX
  8
DEFAULT_2
 62
8
  6
HIDDEN
 10
167.3963609313
 20
190.6140043602
  0
VERTEX
  8
DEFAULT_2
 62
8
  6
HIDDEN
 10
167.4011818238
 20
190.623141097
  0
SEQEND
  0
POLYLINE
  8
0
 62
7
  6
CONTINUOUS
 66
1
 70
0
  0
VERTEX
  8
0
 62
7
  6
CONTINUOUS
 10
152.4054538848
 20
183.8182548893
  0
VERTEX
  8
0
 62
7
  6
CONTINUOUS
 10
152.4250998762
 20
183.8305690864
  0
VERTEX
  8
0
 62
7
  6
CONTINUOUS
 10
152.4459811337
 20
183.8967545491
  0
VERTEX
  8
0
 62
7
  6
CONTINUOUS
 10
152.453125
 20
184.011550989
  0
SEQEND
  0
POLYLINE
  8
0
 62
7
  6
CONTINUOUS
 66
1
 70
0
  0
VERTEX
  8
0
 62
7
  6
CONTINUOUS
 10
152.3775072781
 20
190.6112891011
  0
VERTEX
  8
0
 62
7
  6
CONTINUOUS
 10
152.3923960021
 20
190.6157962423
  0
VERTEX
  8
0
 62
7
  6
CONTINUOUS
 10
152.4250998762
 20
190.6687643871
  0
VERTEX
  8
0
 62
7
  6
CONTINUOUS
 10
152.4459811337
 20
190.7737620371
  0
VERTEX
  8
0
 62
7
  6
CONTINUOUS
 10
152.453125
 20
190.9172391685
  0
SEQEND
  0
LINE
  8
DEFAULT_2
 62
8
  6
HIDDEN
 10
160.453125
 20
212.3794890321
 11
167.453125
 21
212.3794890321
  0
LINE
  8
0
 62
7
  6
CONTINUOUS
 10
160.453125
 20
213.4351321191
 11
167.453125
 21
213.4351321191
  0
LINE
  8
0
 62
9
  6
CONTINUOUS
 10
152.2439982458
 20
213.5292385327
 11
175.6622517542
 21
213.5292385327
  0
LINE
  8
0
 62
9
  6
CONTINUOUS
 10
175.5546966949
 20
213.7650068071
 11
152.3515533051
 21
213.7650068071
  0
LINE
  8
DEFAULT_2
 62
8
  6
HIDDEN
 10
160.5189479116
 20
213.8793332394
 11
167.3873020884
 21
213.8793332394
  0
LINE
  8
0
 62
9
  6
CONTINUOUS
 10
175.453125
 20
214.3753294377
 11
152.453125
 21
214.3753294377
  0
LINE
  8
0
 62
9
  6
CONTINUOUS
 10
175.453125
 20
214.7077608315
 11
152.453125
 21
214.7077608315
  0
LINE
  8
DEFAULT_2
 62
8
  6
HIDDEN
 10
152.0888455838
 20
214.8357727359
 11
160.4132139011
 21
214.8357727359
  0
LINE
  8
DEFAULT_2
 62
8
  6
HIDDEN
 10
167.4930360989
 20
214.8357727359
 11
175.8174044162
 21
214.8357727359
  0
LINE
  8
DEFAULT_2
 62
8
  6
HIDDEN
 10
160.453125
 20
214.8751550221
 11
167.453125
 21
214.8751550221
  0
LINE
  8
DEFAULT_2
 62
8
  6
HIDDEN
 10
152.2439982458
 20
214.9068847145
 11
175.6622517542
 21
214.9068847145
  0
POLYLINE
  8
0
 62
7
  6
CONTINUOUS
 66
1
 70
0
  0
VERTEX
  8
0
 62
7
  6
CONTINUOUS
 10
151.7925589837
 20
226.1234472683
  0
VERTEX
  8
0
 62
7
  6
CONTINUOUS
 10
151.7260558718
 20
226.1781911382
  0
VERTEX
  8
0
 62
7
  6
CONTINUOUS
 10
151.6834796399
 20
226.3836036547
  0
VERTEX
  8
0
 62
7
  6
CONTINUOUS
 10
151.678125
 20
226.5397208536
  0
SEQEND
  0
LINE
  8
DEFAULT_2
 62
8
  6
HIDDEN
 10
167.453125
 20
214.8751550221
 11
167.4932092602
 21
214.8357727359
  0
POLYLINE
  8
DEFAULT_2
 62
8
  6
HIDDEN
 66
1
 70
0
  0
VERTEX
  8
DEFAULT_2
 62
8
  6
HIDDEN
 10
160.3550776209
 20
221.2086667
  0
VERTEX
  8
DEFAULT_2
 62
8
  6
HIDDEN
 10
160.3304583036
 20
221.2343375483
  0
VERTEX
  8
DEFAULT_2
 62
8
  6
HIDDEN
 10
160.3124189716
 20
221.2958891289
  0
VERTEX
  8
DEFAULT_2
 62
8
  6
HIDDEN
 10
160.2852152233
 20
221.524719383
  0
VERTEX
  8
DEFAULT_2
 62
8
  6
HIDDEN
 10
160.2741989292
 20
221.806745112
  0
SEQEND
  0
LINE
  8
0
 62
7
  6
CONTINUOUS
 10
175.5546966949
 20
206.09547682
 11
175.6622517542
 21
205.96352644
  0
POLYLINE
  8
DEFAULT_2
 62
8
  6
HIDDEN
 66
1
 70
0
  0
VERTEX
  8
DEFAULT_2
 62
8
  6
HIDDEN
 10
167.4388212174
 20
214.9068847145
  0
VERTEX
  8
DEFAULT_2
 62
8
  6
HIDDEN
 10
167.4867959297
 20
214.8368382787
  0
VERTEX
  8
DEFAULT_2
 62
8
  6
HIDDEN
 10
167.4932480261
 20
214.8357727797
  0
SEQEND
  0
POLYLINE
  8
DEFAULT_2
 62
8
  6
HIDDEN
 66
1
 70
0
  0
VERTEX
  8
DEFAULT_2
 62
8
  6
HIDDEN
 10
167.4011818238
 20
215.001858903
  0
VERTEX
  8
DEFAULT_2
 62
8
  6
HIDDEN
 10
167.3963623438
 20
215.010993875
  0
VERTEX
  8
DEFAULT_2
 62
8
  6
HIDDEN
 10
167.3920967538
 20
215.0137108995
  0
SEQEND
  0
POLYLINE
  8
0
 62
7
  6
CONTINUOUS
 66
1
 70
0
  0
VERTEX
  8
0
 62
7
  6
CONTINUOUS
 10
175.5546966949
 20
206.09547682
  0
VERTEX
  8
0
 62
7
  6
CONTINUOUS
 10
175.5138539979
 20
206.1767177852
  0
VERTEX
  8
0
 62
7
  6
CONTINUOUS
 10
175.4811501238
 20
206.3054719164
  0
VERTEX
  8
0
 62
7
  6
CONTINUOUS
 10
175.4602688663
 20
206.4644703354
  0
VERTEX
  8
0
 62
7
  6
CONTINUOUS
 10
175.453125
 20
206.6346874561
  0
SEQEND
  0
LINE
  8
DEFAULT_2
 62
8
  6
HIDDEN
 10
176.096826521
 20
197.3889174739
 11
176.0970218073
 21
197.3880172891
  0
POLYLINE
  8
DEFAULT_2
 62
8
  6
HIDDEN
 66
1
 70
0
  0
VERTEX
  8
DEFAULT_2
 62
8
  6
HIDDEN
 10
167.3873020884
 20
227.2999078962
  0
VERTEX
  8
DEFAULT_2
 62
8
  6
HIDDEN
 10
167.4118252719
 20
227.1992272253
  0
VERTEX
  8
DEFAULT_2
 62
8
  6
HIDDEN
 10
167.4282751994
 20
227.1734464977
  0
SEQEND
  0
LINE
  8
DEFAULT_2
 62
8
  6
HIDDEN
 10
176.1799760887
 20
190.0561923857
 11
176.1801941282
 21
190.0546455913
  0
LINE
  8
DEFAULT_2
 62
8
  6
HIDDEN
 10
176.1799760887
 20
196.8670966094
 11
176.1801941282
 21
196.8651410055
  0
POLYLINE
  8
DEFAULT_2
 62
8
  6
HIDDEN
 66
1
 70
0
  0
VERTEX
  8
DEFAULT_2
 62
8
  6
HIDDEN
 10
176.2227236506
 20
183.7474799007
  0
VERTEX
  8
DEFAULT_2
 62
8
  6
HIDDEN
 10
176.2227703601
 20
183.7465449862
  0
VERTEX
  8
DEFAULT_2
 62
8
  6
HIDDEN
 10
176.228125
 20
183.5174298663
  0
SEQEND
  0
LINE
  8
DEFAULT_2
 62
8
  6
HIDDEN
 10
176.2227236506
 20
226.9859998628
 11
176.2227703601
 21
226.9851275683
  0
LINE
  8
DEFAULT_2
 62
8
  6
HIDDEN
 10
176.2227236506
 20
222.7302918658
 11
176.2227703601
 21
222.7291382905
  0
LINE
  8
DEFAULT_2
 62
8
  6
HIDDEN
 10
176.2227236506
 20
217.1172192689
 11
176.2227703601
 21
217.115863027
  0
LINE
  8
DEFAULT_2
 62
8
  6
HIDDEN
 10
176.2227236506
 20
203.4155006989
 11
176.2227703601
 21
203.4140239136
  0
LINE
  8
DEFAULT_2
 62
8
  6
HIDDEN
 10
176.2227236506
 20
210.5293036935
 11
176.2227703601
 21
210.5278372106
  0
POLYLINE
  8
0
 62
7
  6
CONTINUOUS
 66
1
 70
0
  0
VERTEX
  8
0
 62
7
  6
CONTINUOUS
 10
176.228125
 20
229.4902164047
  0
VERTEX
  8
0
 62
7
  6
CONTINUOUS
 10
176.2227236506
 20
229.5943237928
  0
VERTEX
  8
0
 62
7
  6
CONTINUOUS
 10
176.1799760887
 20
229.9105403654
  0
VERTEX
  8
0
 62
7
  6
CONTINUOUS
 10
176.096826521
 20
230.3588475984
  0
VERTEX
  8
0
 62
7
  6
CONTINUOUS
 10
176.0414611485
 20
230.6266336075
  0
VERTEX
  8
0
 62
7
  6
CONTINUOUS
 10
175.9070626835
 20
231.2341617434
  0
VERTEX
  8
0
 62
7
  6
CONTINUOUS
 10
175.7480622036
 20
231.9110411057
  0
VERTEX
  8
0
 62
7
  6
CONTINUOUS
 10
175.6622517542
 20
232.2643727332
  0
SEQEND
  0
POLYLINE
  8
0
 62
7
  6
CONTINUOUS
 66
1
 70
0
  0
VERTEX
  8
0
 62
7
  6
CONTINUOUS
 10
176.228125
 20
226.8011307535
  0
VERTEX
  8
0
 62
7
  6
CONTINUOUS
 10
176.2227236506
 20
226.9859998628
  0
VERTEX
  8
0
 62
7
  6
CONTINUOUS
 10
176.1799760887
 20
227.4484134025
  0
VERTEX
  8
0
 62
7
  6
CONTINUOUS
 10
176.096826521
 20
228.0165021148
  0
VERTEX
  8
0
 62
7
  6
CONTINUOUS
 10
176.0414611485
 20
228.3321681963
  0
VERTEX
  8
0
 62
7
  6
CONTINUOUS
 10
175.9070626835
 20
229.0077640319
  0
VERTEX
  8
0
 62
7
  6
CONTINUOUS
 10
175.7480622036
 20
229.7119089212
  0
VERTEX
  8
0
 62
7
  6
CONTINUOUS
 10
175.6622517542
 20
230.0626416919
  0
SEQEND
  0
POLYLINE
  8
0
 62
7
  6
CONTINUOUS
 66
1
 70
0
  0
VERTEX
  8
0
 62
7
  6
CONTINUOUS
 10
176.228125
 20
222.4772595596
  0
VERTEX
  8
0
 62
7
  6
CONTINUOUS
 10
176.2227236506
 20
222.7302918658
  0
VERTEX
  8
0
 62
7
  6
CONTINUOUS
 10
176.1799760887
 20
223.3073896539
  0
VERTEX
  8
0
 62
7
  6
CONTINUOUS
 10
176.096826521
 20
223.9565455386
  0
VERTEX
  8
0
 62
7
  6
CONTINUOUS
 10
176.0414611485
 20
224.2985795707
  0
VERTEX
  8
0
 62
7
  6
CONTINUOUS
 10
175.9070626835
 20
224.9962023663
  0
VERTEX
  8
0
 62
7
  6
CONTINUOUS
 10
175.7480622036
 20
225.6796264722
  0
VERTEX
  8
0
 62
7
  6
CONTINUOUS
 10
175.6622517542
 20
226.0038585274
  0
SEQEND
  0
POLYLINE
  8
0
 62
7
  6
CONTINUOUS
 66
1
 70
0
  0
VERTEX
  8
0
 62
7
  6
CONTINUOUS
 10
176.228125
 20
216.8132674992
  0
VERTEX
  8
0
 62
7
  6
CONTINUOUS
 10
176.2227236506
 20
217.1172192689
  0
VERTEX
  8
0
 62
7
  6
CONTINUOUS
 10
176.1799760887
 20
217.7696730449
  0
VERTEX
  8
0
 62
7
  6
CONTINUOUS
 10
176.096826521
 20
218.4556572012
  0
VERTEX
  8
0
 62
7
  6
CONTINUOUS
 10
176.0414611485
 20
218.8007501299
  0
VERTEX
  8
0
 62
7
  6
CONTINUOUS
 10
175.9070626835
 20
219.4728580448
  0
VERTEX
  8
0
 62
7
  6
CONTINUOUS
 10
175.7480622036
 20
220.0889871437
  0
VERTEX
  8
0
 62
7
  6
CONTINUOUS
 10
175.6622517542
 20
220.3646226047
  0
SEQEND
  0
POLYLINE
  8
0
 62
7
  6
CONTINUOUS
 66
1
 70
0
  0
VERTEX
  8
0
 62
7
  6
CONTINUOUS
 10
176.228125
 20
195.9348588762
  0
VERTEX
  8
0
 62
7
  6
CONTINUOUS
 10
176.2227236506
 20
196.2606042033
  0
VERTEX
  8
0
 62
7
  6
CONTINUOUS
 10
176.1799760887
 20
196.8670966094
  0
VERTEX
  8
0
 62
7
  6
CONTINUOUS
 10
176.096826521
 20
197.3889174739
  0
VERTEX
  8
0
 62
7
  6
CONTINUOUS
 10
176.0414611485
 20
197.6091665649
  0
VERTEX
  8
0
 62
7
  6
CONTINUOUS
 10
175.9070626835
 20
197.9521425574
  0
VERTEX
  8
0
 62
7
  6
CONTINUOUS
 10
175.7480622036
 20
198.1466013232
  0
VERTEX
  8
0
 62
7
  6
CONTINUOUS
 10
175.6622517542
 20
198.1830771028
  0
SEQEND
  0
POLYLINE
  8
0
 62
7
  6
CONTINUOUS
 66
1
 70
0
  0
VERTEX
  8
0
 62
7
  6
CONTINUOUS
 10
176.228125
 20
210.195146271
  0
VERTEX
  8
0
 62
7
  6
CONTINUOUS
 10
176.2227236506
 20
210.5293036935
  0
VERTEX
  8
0
 62
7
  6
CONTINUOUS
 10
176.1799760887
 20
211.2126498107
  0
VERTEX
  8
0
 62
7
  6
CONTINUOUS
 10
176.096826521
 20
211.888713552
  0
VERTEX
  8
0
 62
7
  6
CONTINUOUS
 10
176.0414611485
 20
212.2133478645
  0
VERTEX
  8
0
 62
7
  6
CONTINUOUS
 10
175.9070626835
 20
212.814137855
  0
VERTEX
  8
0
 62
7
  6
CONTINUOUS
 10
175.7480622036
 20
213.3209837672
  0
VERTEX
  8
0
 62
7
  6
CONTINUOUS
 10
175.6622517542
 20
213.5292385327
  0
SEQEND
  0
POLYLINE
  8
0
 62
7
  6
CONTINUOUS
 66
1
 70
0
  0
VERTEX
  8
0
 62
7
  6
CONTINUOUS
 10
176.228125
 20
203.0739099
  0
VERTEX
  8
0
 62
7
  6
CONTINUOUS
 10
176.2227236506
 20
203.4155006989
  0
VERTEX
  8
0
 62
7
  6
CONTINUOUS
 10
176.1799760887
 20
204.0831702488
  0
VERTEX
  8
0
 62
7
  6
CONTINUOUS
 10
176.096826521
 20
204.7032409485
  0
VERTEX
  8
0
 62
7
  6
CONTINUOUS
 10
176.0414611485
 20
204.9852933529
  0
VERTEX
  8
0
 62
7
  6
CONTINUOUS
 10
175.9070626835
 20
205.4738225739
  0
VERTEX
  8
0
 62
7
  6
CONTINUOUS
 10
175.7480622036
 20
205.8368445881
  0
VERTEX
  8
0
 62
7
  6
CONTINUOUS
 10
175.6622517542
 20
205.96352644
  0
SEQEND
  0
LINE
  8
DEFAULT_2
 62
8
  6
HIDDEN
 10
176.228125
 20
230.3625
 11
176.228125
 21
230.36125977
  0
LINE
  8
0
 62
7
  6
CONTINUOUS
 10
176.228125
 20
229.4902164047
 11
176.228125
 21
229.3549006834
  0
LINE
  8
0
 62
7
  6
CONTINUOUS
 10
176.228125
 20
226.8011307535
 11
176.228125
 21
226.5397208536
  0
LINE
  8
0
 62
7
  6
CONTINUOUS
 10
176.228125
 20
222.4772595596
 11
176.228125
 21
222.1075701337
  0
LINE
  8
0
 62
7
  6
CONTINUOUS
 10
176.228125
 20
216.8132674992
 11
176.228125
 21
216.3604922708
  0
LINE
  8
0
 62
7
  6
CONTINUOUS
 10
176.228125
 20
210.195146271
 11
176.228125
 21
209.6901411238
  0
LINE
  8
0
 62
7
  6
CONTINUOUS
 10
176.228125
 20
203.0739099
 11
176.228125
 21
202.5510901
  0
LINE
  8
0
 62
7
  6
CONTINUOUS
 10
176.228125
 20
195.9348588762
 11
176.228125
 21
195.429853729
  0
LINE
  8
0
 62
7
  6
CONTINUOUS
 10
176.228125
 20
189.2645077292
 11
176.228125
 21
188.8117325008
  0
LINE
  8
0
 62
7
  6
CONTINUOUS
 10
176.228125
 20
183.5174298663
 11
176.228125
 21
183.1477404404
  0
LINE
  8
0
 62
7
  6
CONTINUOUS
 10
176.228125
 20
179.0852791464
 11
176.228125
 21
178.8238692465
  0
LINE
  8
0
 62
7
  6
CONTINUOUS
 10
176.228125
 20
176.2700993166
 11
176.228125
 21
176.1347835953
  0
LINE
  8
DEFAULT_2
 62
8
  6
HIDDEN
 10
176.228125
 20
175.26374023
 11
176.228125
 21
175.2625
  0
LINE
  8
0
 62
7
  6
CONTINUOUS
 10
176.453125
 20
229.4624877086
 11
176.453125
 21
176.1625122914
  0
LINE
  8
DEFAULT_2
 62
8
  6
HIDDEN
 10
176.2227703601
 20
202.2109760864
 11
176.2227236506
 21
202.2094993011
  0
LINE
  8
DEFAULT_2
 62
8
  6
HIDDEN
 10
176.2227703601
 20
195.0971627894
 11
176.2227236506
 21
195.0956963065
  0
LINE
  8
DEFAULT_2
 62
8
  6
HIDDEN
 10
176.2227703601
 20
209.3657822441
 11
176.2227236506
 21
209.3643957967
  0
LINE
  8
DEFAULT_2
 62
8
  6
HIDDEN
 10
176.2227703601
 20
188.509136973
 11
176.2227236506
 21
188.5077807311
  0
LINE
  8
DEFAULT_2
 62
8
  6
HIDDEN
 10
176.2227703601
 20
182.8958617095
 11
176.2227236506
 21
182.8947081342
  0
LINE
  8
DEFAULT_2
 62
8
  6
HIDDEN
 10
176.2227703601
 20
178.6398724317
 11
176.2227236506
 21
178.6390001372
  0
POLYLINE
  8
0
 62
7
  6
CONTINUOUS
 66
1
 70
0
  0
VERTEX
  8
0
 62
7
  6
CONTINUOUS
 10
175.453125
 20
184.2970162985
  0
VERTEX
  8
0
 62
7
  6
CONTINUOUS
 10
175.4603064022
 20
184.4487963574
  0
VERTEX
  8
0
 62
7
  6
CONTINUOUS
 10
175.4811833474
 20
184.6189713062
  0
VERTEX
  8
0
 62
7
  6
CONTINUOUS
 10
175.5138045223
 20
184.7885856663
  0
VERTEX
  8
0
 62
7
  6
CONTINUOUS
 10
175.5546966949
 20
184.9368584447
  0
SEQEND
  0
POLYLINE
  8
0
 62
7
  6
CONTINUOUS
 66
1
 70
0
  0
VERTEX
  8
0
 62
7
  6
CONTINUOUS
 10
175.453125
 20
178.6061616506
  0
VERTEX
  8
0
 62
7
  6
CONTINUOUS
 10
175.4603064022
 20
178.7324709966
  0
VERTEX
  8
0
 62
7
  6
CONTINUOUS
 10
175.4811833474
 20
178.890967534
  0
VERTEX
  8
0
 62
7
  6
CONTINUOUS
 10
175.5138045223
 20
179.064356555
  0
VERTEX
  8
0
 62
7
  6
CONTINUOUS
 10
175.5546966949
 20
179.2319191277
  0
SEQEND
  0
LINE
  8
DEFAULT_2
 62
8
  6
HIDDEN
 10
176.1801941282
 20
194.4147048209
 11
176.1799760887
 21
194.4123501893
  0
LINE
  8
DEFAULT_2
 62
8
  6
HIDDEN
 10
176.1801941282
 20
201.5440608932
 11
176.1799760887
 21
201.5418297512
  0
LINE
  8
DEFAULT_2
 62
8
  6
HIDDEN
 10
176.1801941282
 20
187.857644612
 11
176.1799760887
 21
187.8553269551
  0
LINE
  8
DEFAULT_2
 62
8
  6
HIDDEN
 10
176.1801941282
 20
182.3197330838
 11
176.1799760887
 21
182.3176103461
  0
LINE
  8
DEFAULT_2
 62
8
  6
HIDDEN
 10
175.4602688663
 20
174.6568535184
 11
175.453125
 21
174.5649289584
  0
POLYLINE
  8
0
 62
7
  6
CONTINUOUS
 66
1
 70
0
  0
VERTEX
  8
0
 62
7
  6
CONTINUOUS
 10
175.453125
 20
174.5649289584
  0
VERTEX
  8
0
 62
7
  6
CONTINUOUS
 10
175.4603064022
 20
174.6571598182
  0
VERTEX
  8
0
 62
7
  6
CONTINUOUS
 10
175.4811833474
 20
174.7931766672
  0
VERTEX
  8
0
 62
7
  6
CONTINUOUS
 10
175.5138045223
 20
174.9585241738
  0
VERTEX
  8
0
 62
7
  6
CONTINUOUS
 10
175.5546966949
 20
175.1339574283
  0
SEQEND
  0
LINE
  8
DEFAULT_2
 62
8
  6
HIDDEN
 10
176.1801941282
 20
178.178369755
 11
176.1799760887
 21
178.1765865975
  0
LINE
  8
DEFAULT_2
 62
8
  6
HIDDEN
 10
176.0970218073
 20
187.170667623
 11
176.096826521
 21
187.1693427988
  0
LINE
  8
DEFAULT_2
 62
8
  6
HIDDEN
 10
176.0970218073
 20
193.7375527306
 11
176.096826521
 21
193.736286448
  0
LINE
  8
DEFAULT_2
 62
8
  6
HIDDEN
 10
176.0970218073
 20
181.6697475425
 11
176.096826521
 21
181.6684544614
  0
LINE
  8
DEFAULT_2
 62
8
  6
HIDDEN
 10
176.0970218073
 20
200.9228804975
 11
176.096826521
 21
200.9217590515
  0
LINE
  8
DEFAULT_2
 62
8
  6
HIDDEN
 10
176.1801941282
 20
175.7157816925
 11
176.1799760887
 21
175.7144596346
  0
POLYLINE
  8
0
 62
7
  6
CONTINUOUS
 66
1
 70
0
  0
VERTEX
  8
0
 62
7
  6
CONTINUOUS
 10
175.453125
 20
172.4487215513
  0
VERTEX
  8
0
 62
7
  6
CONTINUOUS
 10
175.4603064022
 20
172.5005885443
  0
VERTEX
  8
0
 62
7
  6
CONTINUOUS
 10
175.4811833474
 20
172.6048563814
  0
VERTEX
  8
0
 62
7
  6
CONTINUOUS
 10
175.5138045223
 20
172.7508942143
  0
VERTEX
  8
0
 62
7
  6
CONTINUOUS
 10
175.5546966949
 20
172.9222426643
  0
SEQEND
  0
LINE
  8
DEFAULT_2
 62
8
  6
HIDDEN
 10
176.0970218073
 20
177.6096711019
 11
176.096826521
 21
177.6084978852
  0
LINE
  8
DEFAULT_2
 62
8
  6
HIDDEN
 10
175.9070626835
 20
186.1521419552
 11
175.9067891166
 21
186.1509415687
  0
LINE
  8
DEFAULT_2
 62
8
  6
HIDDEN
 10
175.9070626835
 20
192.810862145
 11
175.9067891166
 21
192.80982972
  0
LINE
  8
DEFAULT_2
 62
8
  6
HIDDEN
 10
175.7480622036
 20
192.3040162328
 11
175.7477487381
 21
192.303179786
  0
POLYLINE
  8
0
 62
7
  6
CONTINUOUS
 66
1
 70
0
  0
VERTEX
  8
0
 62
7
  6
CONTINUOUS
 10
175.6622517542
 20
192.0957614673
  0
VERTEX
  8
0
 62
7
  6
CONTINUOUS
 10
175.7477487381
 20
192.303179786
  0
VERTEX
  8
0
 62
7
  6
CONTINUOUS
 10
175.9067891166
 20
192.80982972
  0
VERTEX
  8
0
 62
7
  6
CONTINUOUS
 10
176.0415360988
 20
193.4120520639
  0
VERTEX
  8
0
 62
7
  6
CONTINUOUS
 10
176.0970218073
 20
193.7375527306
  0
VERTEX
  8
0
 62
7
  6
CONTINUOUS
 10
176.1801941282
 20
194.4147048209
  0
VERTEX
  8
0
 62
7
  6
CONTINUOUS
 10
176.2227703601
 20
195.0971627894
  0
VERTEX
  8
0
 62
7
  6
CONTINUOUS
 10
176.228125
 20
195.429853729
  0
SEQEND
  0
LINE
  8
0
 62
7
  6
CONTINUOUS
 10
175.6622517542
 20
192.0957614673
 11
175.5546966949
 21
191.8599931929
  0
POLYLINE
  8
DEFAULT_2
 62
8
  6
HIDDEN
 66
1
 70
0
  0
VERTEX
  8
DEFAULT_2
 62
8
  6
HIDDEN
 10
167.5967962763
 20
179.5015527376
  0
VERTEX
  8
DEFAULT_2
 62
8
  6
HIDDEN
 10
167.5656697696
 20
179.4493112336
  0
VERTEX
  8
DEFAULT_2
 62
8
  6
HIDDEN
 10
167.5291200963
 20
179.3018260135
  0
VERTEX
  8
DEFAULT_2
 62
8
  6
HIDDEN
 10
167.4865992629
 20
179.0574557312
  0
VERTEX
  8
DEFAULT_2
 62
8
  6
HIDDEN
 10
167.4388212174
 20
178.7133847481
  0
SEQEND
  0
POLYLINE
  8
DEFAULT_2
 62
8
  6
HIDDEN
 66
1
 70
0
  0
VERTEX
  8
DEFAULT_2
 62
8
  6
HIDDEN
 10
160.5030492054
 20
183.8383512349
  0
VERTEX
  8
DEFAULT_2
 62
8
  6
HIDDEN
 10
160.4944247281
 20
183.8329695819
  0
VERTEX
  8
DEFAULT_2
 62
8
  6
HIDDEN
 10
160.4747775033
 20
183.7657807259
  0
VERTEX
  8
DEFAULT_2
 62
8
  6
HIDDEN
 10
160.4671241233
 20
183.7042158747
  0
VERTEX
  8
DEFAULT_2
 62
8
  6
HIDDEN
 10
160.4566716845
 20
183.5289715647
  0
VERTEX
  8
DEFAULT_2
 62
8
  6
HIDDEN
 10
160.453125
 20
183.2917476517
  0
SEQEND
  0
POLYLINE
  8
DEFAULT_2
 62
8
  6
HIDDEN
 66
1
 70
0
  0
VERTEX
  8
DEFAULT_2
 62
8
  6
HIDDEN
 10
160.3550766028
 20
184.4163332971
  0
VERTEX
  8
DEFAULT_2
 62
8
  6
HIDDEN
 10
160.3402497741
 20
184.4075178268
  0
VERTEX
  8
DEFAULT_2
 62
8
  6
HIDDEN
 10
160.3104067375
 20
184.3191221694
  0
VERTEX
  8
DEFAULT_2
 62
8
  6
HIDDEN
 10
160.288068483
 20
184.1381317647
  0
VERTEX
  8
DEFAULT_2
 62
8
  6
HIDDEN
 10
160.2741435249
 20
183.8684105225
  0
VERTEX
  8
DEFAULT_2
 62
8
  6
HIDDEN
 10
160.2693988066
 20
183.5174298663
  0
SEQEND
  0
LINE
  8
0
 62
7
  6
CONTINUOUS
 10
175.5546966949
 20
190.623141097
 11
175.5287427219
 21
190.6112891011
  0
POLYLINE
  8
DEFAULT_2
 62
8
  6
HIDDEN
 66
1
 70
0
  0
VERTEX
  8
DEFAULT_2
 62
8
  6
HIDDEN
 10
160.4130034655
 20
214.8357727764
  0
VERTEX
  8
DEFAULT_2
 62
8
  6
HIDDEN
 10
160.4196507017
 20
214.8369041976
  0
VERTEX
  8
DEFAULT_2
 62
8
  6
HIDDEN
 10
160.4674287826
 20
214.9068847145
  0
SEQEND
  0
LINE
  8
DEFAULT_2
 62
8
  6
HIDDEN
 10
175.5546966949
 20
215.001858903
 11
152.3515533051
 21
215.001858903
  0
LINE
  8
DEFAULT_2
 62
8
  6
HIDDEN
 10
167.3873020884
 20
215.009912303
 11
160.5189479116
 21
215.009912303
  0
LINE
  8
0
 62
7
  6
CONTINUOUS
 10
175.5288857759
 20
215.0137108995
 11
152.3773642241
 21
215.0137108995
  0
LINE
  8
DEFAULT_2
 62
8
  6
HIDDEN
 10
167.453125
 20
215.8919516466
 11
160.453125
 21
215.8919516466
  0
LINE
  8
0
 62
9
  6
CONTINUOUS
 10
151.678125
 20
216.3604922708
 11
160.2693988066
 21
216.3604922708
  0
LINE
  8
0
 62
9
  6
CONTINUOUS
 10
167.6368511934
 20
216.3604922708
 11
176.228125
 21
216.3604922708
  0
LINE
  8
0
 62
9
  6
CONTINUOUS
 10
151.678125
 20
216.8132674992
 11
160.2693988066
 21
216.8132674992
  0
LINE
  8
0
 62
9
  6
CONTINUOUS
 10
167.6368511934
 20
216.8132674992
 11
176.228125
 21
216.8132674992
  0
POLYLINE
  8
0
 62
7
  6
CONTINUOUS
 66
1
 70
0
  0
VERTEX
  8
0
 62
7
  6
CONTINUOUS
 10
151.922973109
 20
221.2086667003
  0
VERTEX
  8
0
 62
7
  6
CONTINUOUS
 10
151.8647139012
 20
221.2258324293
  0
VERTEX
  8
0
 62
7
  6
CONTINUOUS
 10
151.8092281927
 20
221.2829269294
  0
VERTEX
  8
0
 62
7
  6
CONTINUOUS
 10
151.7260558718
 20
221.5114231284
  0
VERTEX
  8
0
 62
7
  6
CONTINUOUS
 10
151.6834796399
 20
221.8784550138
  0
VERTEX
  8
0
 62
7
  6
CONTINUOUS
 10
151.678125
 20
222.1075701337
  0
SEQEND
  0
LINE
  8
0
 62
7
  6
CONTINUOUS
 10
175.5287369082
 20
215.0137108971
 11
175.5546966949
 21
215.001858903
  0
LINE
  8
0
 62
7
  6
CONTINUOUS
 10
175.5546966949
 20
213.7650068071
 11
175.6622517542
 21
213.5292385327
  0
POLYLINE
  8
0
 62
7
  6
CONTINUOUS
 66
1
 70
0
  0
VERTEX
  8
0
 62
7
  6
CONTINUOUS
 10
175.5546966949
 20
213.7650068071
  0
VERTEX
  8
0
 62
7
  6
CONTINUOUS
 10
175.5138539979
 20
213.8837008586
  0
VERTEX
  8
0
 62
7
  6
CONTINUOUS
 10
175.4811501238
 20
214.0383683679
  0
VERTEX
  8
0
 62
7
  6
CONTINUOUS
 10
175.4602688663
 20
214.2088753054
  0
VERTEX
  8
0
 62
7
  6
CONTINUOUS
 10
175.453125
 20
214.3753294377
  0
SEQEND
  0
LINE
  8
DEFAULT_2
 62
8
  6
HIDDEN
 10
175.7477487381
 20
213.321820214
 11
175.7480622036
 21
213.3209837672
  0
POLYLINE
  8
0
 62
7
  6
CONTINUOUS
 66
1
 70
0
  0
VERTEX
  8
0
 62
7
  6
CONTINUOUS
 10
175.5546966949
 20
220.6881415553
  0
VERTEX
  8
0
 62
7
  6
CONTINUOUS
 10
175.5138539979
 20
220.8361998894
  0
VERTEX
  8
0
 62
7
  6
CONTINUOUS
 10
175.4811501238
 20
221.0062404416
  0
VERTEX
  8
0
 62
7
  6
CONTINUOUS
 10
175.4602688663
 20
221.1766361316
  0
VERTEX
  8
0
 62
7
  6
CONTINUOUS
 10
175.453125
 20
221.3279837015
  0
SEQEND
  0
LINE
  8
DEFAULT_2
 62
8
  6
HIDDEN
 10
175.9067891166
 20
205.4746166793
 11
175.9070626835
 21
205.4738225739
  0
LINE
  8
DEFAULT_2
 62
8
  6
HIDDEN
 10
175.7477487381
 20
220.0900598186
 11
175.7480622036
 21
220.0889871437
  0
LINE
  8
DEFAULT_2
 62
8
  6
HIDDEN
 10
175.9067891166
 20
212.81517028
 11
175.9070626835
 21
212.814137855
  0
LINE
  8
DEFAULT_2
 62
8
  6
HIDDEN
 10
175.9067891166
 20
219.4740584313
 11
175.9070626835
 21
219.4728580448
  0
LINE
  8
DEFAULT_2
 62
8
  6
HIDDEN
 10
176.096826521
 20
204.7032409485
 11
176.0970218073
 21
204.7021195025
  0
LINE
  8
DEFAULT_2
 62
8
  6
HIDDEN
 10
175.9067891166
 20
224.99748891
 11
175.9070626835
 21
224.9962023663
  0
LINE
  8
DEFAULT_2
 62
8
  6
HIDDEN
 10
176.096826521
 20
211.888713552
 11
176.0970218073
 21
211.8874472694
  0
LINE
  8
DEFAULT_2
 62
8
  6
HIDDEN
 10
176.096826521
 20
223.9565455386
 11
176.0970218073
 21
223.9552524575
  0
LINE
  8
DEFAULT_2
 62
8
  6
HIDDEN
 10
176.096826521
 20
218.4556572012
 11
176.0970218073
 21
218.454332377
  0
LINE
  8
DEFAULT_2
 62
8
  6
HIDDEN
 10
175.4603064022
 20
230.9678401818
 11
175.4811833474
 21
230.8318233328
  0
LINE
  8
DEFAULT_2
 62
8
  6
HIDDEN
 10
176.1799760887
 20
204.0831702488
 11
176.1801941282
 21
204.0809391068
  0
LINE
  8
DEFAULT_2
 62
8
  6
HIDDEN
 10
176.1799760887
 20
223.3073896539
 11
176.1801941282
 21
223.3052669162
  0
LINE
  8
DEFAULT_2
 62
8
  6
HIDDEN
 10
176.1799760887
 20
211.2126498107
 11
176.1801941282
 21
211.2102951791
  0
LINE
  8
DEFAULT_2
 62
8
  6
HIDDEN
 10
176.1799760887
 20
217.7696730449
 11
176.1801941282
 21
217.767355388
  0
LINE
  8
DEFAULT_2
 62
8
  6
HIDDEN
 10
176.0970218073
 20
175.2671258012
 11
176.096826521
 21
175.2661524016
  0
LINE
  8
DEFAULT_2
 62
8
  6
HIDDEN
 10
175.9070626835
 20
176.6172359681
 11
175.9067891166
 21
176.615950943
  0
LINE
  8
DEFAULT_2
 62
8
  6
HIDDEN
 10
175.9070626835
 20
180.6287976337
 11
175.9067891166
 21
180.62751109
  0
LINE
  8
DEFAULT_2
 62
8
  6
HIDDEN
 10
175.9070626835
 20
174.3908382566
 11
175.9067891166
 21
174.3896423224
  0
LINE
  8
DEFAULT_2
 62
8
  6
HIDDEN
 10
175.7480622036
 20
173.7139588943
 11
175.7477487381
 21
173.7126548693
  0
POLYLINE
  8
0
 62
7
  6
CONTINUOUS
 66
1
 70
0
  0
VERTEX
  8
0
 62
7
  6
CONTINUOUS
 10
175.6622517542
 20
173.3606272668
  0
VERTEX
  8
0
 62
7
  6
CONTINUOUS
 10
175.7477487381
 20
173.7126548693
  0
VERTEX
  8
0
 62
7
  6
CONTINUOUS
 10
175.9067891166
 20
174.3896423224
  0
VERTEX
  8
0
 62
7
  6
CONTINUOUS
 10
176.0415360988
 20
174.9987196346
  0
VERTEX
  8
0
 62
7
  6
CONTINUOUS
 10
176.0970218073
 20
175.2671258012
  0
VERTEX
  8
0
 62
7
  6
CONTINUOUS
 10
176.1801941282
 20
175.7157816925
  0
VERTEX
  8
0
 62
7
  6
CONTINUOUS
 10
176.2227703601
 20
176.0312077756
  0
VERTEX
  8
0
 62
7
  6
CONTINUOUS
 10
176.228125
 20
176.1347835953
  0
SEQEND
  0
LINE
  8
DEFAULT_2
 62
8
  6
HIDDEN
 10
175.7480622036
 20
175.9130910788
 11
175.7477487381
 21
175.9117763676
  0
POLYLINE
  8
0
 62
7
  6
CONTINUOUS
 66
1
 70
0
  0
VERTEX
  8
0
 62
7
  6
CONTINUOUS
 10
175.6622517542
 20
175.5623583081
  0
VERTEX
  8
0
 62
7
  6
CONTINUOUS
 10
175.7477487381
 20
175.9117763676
  0
VERTEX
  8
0
 62
7
  6
CONTINUOUS
 10
175.9067891166
 20
176.615950943
  0
VERTEX
  8
0
 62
7
  6
CONTINUOUS
 10
176.0415360988
 20
177.2932397467
  0
VERTEX
  8
0
 62
7
  6
CONTINUOUS
 10
176.0970218073
 20
177.6096711019
  0
VERTEX
  8
0
 62
7
  6
CONTINUOUS
 10
176.1801941282
 20
178.178369755
  0
VERTEX
  8
0
 62
7
  6
CONTINUOUS
 10
176.2227703601
 20
178.6398724317
  0
VERTEX
  8
0
 62
7
  6
CONTINUOUS
 10
176.228125
 20
178.8238692465
  0
SEQEND
  0
LINE
  8
0
 62
7
  6
CONTINUOUS
 10
175.6622517542
 20
173.3606272668
 11
175.5546966949
 21
172.9222426643
  0
LINE
  8
0
 62
7
  6
CONTINUOUS
 10
176.228125
 20
175.2625
 11
176.453125
 21
176.1625
  0
LINE
  8
0
 62
7
  6
CONTINUOUS
 10
175.6622517542
 20
175.5623583081
 11
175.5546966949
 21
175.1339574283
  0
POLYLINE
  8
0
 62
7
  6
CONTINUOUS
 66
1
 70
0
  0
VERTEX
  8
0
 62
7
  6
CONTINUOUS
 10
175.5546966949
 20
172.7474995417
  0
VERTEX
  8
0
 62
7
  6
CONTINUOUS
 10
175.5138539979
 20
172.5920963529
  0
VERTEX
  8
0
 62
7
  6
CONTINUOUS
 10
175.4811501238
 20
172.4750239455
  0
VERTEX
  8
0
 62
7
  6
CONTINUOUS
 10
175.4602688663
 20
172.4096259055
  0
VERTEX
  8
0
 62
7
  6
CONTINUOUS
 10
175.4540862634
 20
172.3978524424
  0
SEQEND
  0
LINE
  8
DEFAULT_2
 62
8
  6
HIDDEN
 10
175.7478574334
 20
173.4970522985
 11
175.7480622036
 21
173.4978441986
  0
LINE
  8
DEFAULT_2
 62
8
  6
HIDDEN
 10
175.7480622036
 20
179.9453735278
 11
175.7477487381
 21
179.9441377259
  0
POLYLINE
  8
0
 62
7
  6
CONTINUOUS
 66
1
 70
0
  0
VERTEX
  8
0
 62
7
  6
CONTINUOUS
 10
175.6622517542
 20
179.6211414726
  0
VERTEX
  8
0
 62
7
  6
CONTINUOUS
 10
175.7477487381
 20
179.9441377259
  0
VERTEX
  8
0
 62
7
  6
CONTINUOUS
 10
175.9067891166
 20
180.62751109
  0
VERTEX
  8
0
 62
7
  6
CONTINUOUS
 10
176.0415360988
 20
181.3268552725
  0
VERTEX
  8
0
 62
7
  6
CONTINUOUS
 10
176.0970218073
 20
181.6697475425
  0
VERTEX
  8
0
 62
7
  6
CONTINUOUS
 10
176.1801941282
 20
182.3197330838
  0
VERTEX
  8
0
 62
7
  6
CONTINUOUS
 10
176.2227703601
 20
182.8958617095
  0
VERTEX
  8
0
 62
7
  6
CONTINUOUS
 10
176.228125
 20
183.1477404404
  0
SEQEND
  0
LINE
  8
0
 62
7
  6
CONTINUOUS
 10
175.6622517542
 20
179.6211414726
 11
175.5546966949
 21
179.2319191277
  0
LINE
  8
0
 62
7
  6
CONTINUOUS
 10
175.5546966949
 20
174.6216365156
 11
175.6622517542
 21
174.9917185754
  0
LINE
  8
DEFAULT_2
 62
8
  6
HIDDEN
 10
175.7480622036
 20
185.5360128563
 11
175.7477487381
 21
185.5349401814
  0
POLYLINE
  8
0
 62
7
  6
CONTINUOUS
 66
1
 70
0
  0
VERTEX
  8
0
 62
7
  6
CONTINUOUS
 10
175.6622517542
 20
185.2603773953
  0
VERTEX
  8
0
 62
7
  6
CONTINUOUS
 10
175.7477487381
 20
185.5349401814
  0
VERTEX
  8
0
 62
7
  6
CONTINUOUS
 10
175.9067891166
 20
186.1509415687
  0
VERTEX
  8
0
 62
7
  6
CONTINUOUS
 10
176.0415360988
 20
186.8246819797
  0
VERTEX
  8
0
 62
7
  6
CONTINUOUS
 10
176.0970218073
 20
187.170667623
  0
VERTEX
  8
0
 62
7
  6
CONTINUOUS
 10
176.1801941282
 20
187.857644612
  0
VERTEX
  8
0
 62
7
  6
CONTINUOUS
 10
176.2227703601
 20
188.509136973
  0
VERTEX
  8
0
 62
7
  6
CONTINUOUS
 10
176.228125
 20
188.8117325008
  0
SEQEND
  0
POLYLINE
  8
0
 62
7
  6
CONTINUOUS
 66
1
 70
0
  0
VERTEX
  8
0
 62
7
  6
CONTINUOUS
 10
175.5546966949
 20
174.6216365156
  0
VERTEX
  8
0
 62
7
  6
CONTINUOUS
 10
175.5138539979
 20
174.4925552711
  0
VERTEX
  8
0
 62
7
  6
CONTINUOUS
 10
175.4811501238
 20
174.4127960305
  0
VERTEX
  8
0
 62
7
  6
CONTINUOUS
 10
175.4622110515
 20
174.3902863213
  0
SEQEND
  0
LINE
  8
DEFAULT_2
 62
8
  6
HIDDEN
 10
175.7478508843
 20
175.2787662141
 11
175.7480622036
 21
175.279474851
  0
LINE
  8
0
 62
7
  6
CONTINUOUS
 10
175.6622517542
 20
185.2603773953
 11
175.5546966949
 21
184.9368584447
  0
LINE
  8
0
 62
7
  6
CONTINUOUS
 10
175.5546966949
 20
178.4169342483
 11
175.6622517542
 21
178.7133847481
  0
LINE
  8
0
 62
7
  6
CONTINUOUS
 10
175.5546966949
 20
183.8747494714
 11
175.6622517542
 21
184.0773657996
  0
POLYLINE
  8
DEFAULT_2
 62
8
  6
HIDDEN
 66
1
 70
0
  0
VERTEX
  8
DEFAULT_2
 62
8
  6
HIDDEN
 10
167.4452457045
 20
174.833951371
  0
VERTEX
  8
DEFAULT_2
 62
8
  6
HIDDEN
 10
167.4391258767
 20
174.824067707
  0
VERTEX
  8
DEFAULT_2
 62
8
  6
HIDDEN
 10
167.4314724967
 20
174.794945262
  0
VERTEX
  8
DEFAULT_2
 62
8
  6
HIDDEN
 10
167.4118252719
 20
174.6804911269
  0
SEQEND
  0
LINE
  8
DEFAULT_2
 62
8
  6
HIDDEN
 10
167.4282751994
 20
178.4515535023
 11
167.4118252719
 21
178.4257727747
  0
POLYLINE
  8
DEFAULT_2
 62
8
  6
HIDDEN
 66
1
 70
0
  0
VERTEX
  8
DEFAULT_2
 62
8
  6
HIDDEN
 10
167.6262297176
 20
176.3798197504
  0
VERTEX
  8
DEFAULT_2
 62
8
  6
HIDDEN
 10
167.6180400994
 20
176.3674274937
  0
VERTEX
  8
DEFAULT_2
 62
8
  6
HIDDEN
 10
167.595587035
 20
176.2710737043
  0
VERTEX
  8
DEFAULT_2
 62
8
  6
HIDDEN
 10
167.5656697696
 20
176.0828642506
  0
VERTEX
  8
DEFAULT_2
 62
8
  6
HIDDEN
 10
167.5291200963
 20
175.8061033319
  0
SEQEND
  0
POLYLINE
  8
DEFAULT_2
 62
8
  6
HIDDEN
 66
1
 70
0
  0
VERTEX
  8
DEFAULT_2
 62
8
  6
HIDDEN
 10
167.5967953668
 20
179.5015527377
  0
VERTEX
  8
DEFAULT_2
 62
8
  6
HIDDEN
 10
167.5757864714
 20
179.4758810574
  0
VERTEX
  8
DEFAULT_2
 62
8
  6
HIDDEN
 10
167.5322200655
 20
179.3169069128
  0
VERTEX
  8
DEFAULT_2
 62
8
  6
HIDDEN
 10
167.4808474883
 20
179.0196233921
  0
VERTEX
  8
DEFAULT_2
 62
8
  6
HIDDEN
 10
167.453125
 20
178.8232715972
  0
SEQEND
  0
LINE
  8
DEFAULT_2
 62
8
  6
HIDDEN
 10
167.4032007946
 20
183.8383512349
 11
167.3873020884
 21
183.8230397325
  0
LINE
  8
0
 62
7
  6
CONTINUOUS
 10
175.5546966949
 20
190.623141097
 11
175.6622517542
 21
190.7181152855
  0
POLYLINE
  8
DEFAULT_2
 62
8
  6
HIDDEN
 66
1
 70
0
  0
VERTEX
  8
DEFAULT_2
 62
8
  6
HIDDEN
 10
167.5511728842
 20
184.4163332973
  0
VERTEX
  8
DEFAULT_2
 62
8
  6
HIDDEN
 10
167.5291200963
 20
184.3997622742
  0
VERTEX
  8
DEFAULT_2
 62
8
  6
HIDDEN
 10
167.4865992629
 20
184.291694621
  0
VERTEX
  8
DEFAULT_2
 62
8
  6
HIDDEN
 10
167.4388212174
 20
184.0773657996
  0
SEQEND
  0
POLYLINE
  8
DEFAULT_2
 62
8
  6
HIDDEN
 66
1
 70
0
  0
VERTEX
  8
DEFAULT_2
 62
8
  6
HIDDEN
 10
167.551172464
 20
184.4163333
  0
VERTEX
  8
DEFAULT_2
 62
8
  6
HIDDEN
 10
167.5322200655
 20
184.403953698
  0
VERTEX
  8
DEFAULT_2
 62
8
  6
HIDDEN
 10
167.4808474883
 20
184.2706699211
  0
VERTEX
  8
DEFAULT_2
 62
8
  6
HIDDEN
 10
167.453125
 20
184.1506719156
  0
SEQEND
  0
LINE
  8
DEFAULT_2
 62
8
  6
HIDDEN
 10
160.453125
 20
219.317032322
 11
167.453125
 21
219.317032322
  0
LINE
  8
0
 62
7
  6
CONTINUOUS
 10
160.453125
 20
220.2377523838
 11
167.453125
 21
220.2377523838
  0
LINE
  8
0
 62
9
  6
CONTINUOUS
 10
152.2439982458
 20
220.3646226047
 11
175.6622517542
 21
220.3646226047
  0
LINE
  8
0
 62
9
  6
CONTINUOUS
 10
175.5546966949
 20
220.6881415553
 11
152.3515533051
 21
220.6881415553
  0
LINE
  8
DEFAULT_2
 62
8
  6
HIDDEN
 10
160.5189479116
 20
220.8311100159
 11
167.3873020884
 21
220.8311100159
  0
LINE
  8
DEFAULT_2
 62
8
  6
HIDDEN
 10
151.9232474114
 20
221.2086667
 11
160.3552425696
 21
221.2086667
  0
LINE
  8
DEFAULT_2
 62
8
  6
HIDDEN
 10
167.5510074304
 20
221.2086667
 11
175.9830025886
 21
221.2086667
  0
LINE
  8
0
 62
9
  6
CONTINUOUS
 10
175.453125
 20
221.3279837015
 11
152.453125
 21
221.3279837015
  0
LINE
  8
DEFAULT_2
 62
8
  6
HIDDEN
 10
160.453125
 20
221.4743280844
 11
167.453125
 21
221.4743280844
  0
LINE
  8
DEFAULT_2
 62
8
  6
HIDDEN
 10
152.2439982458
 20
221.5476342004
 11
175.6622517542
 21
221.5476342004
  0
LINE
  8
0
 62
9
  6
CONTINUOUS
 10
175.453125
 20
221.613449011
 11
152.453125
 21
221.613449011
  0
LINE
  8
DEFAULT_2
 62
8
  6
HIDDEN
 10
175.5546966949
 20
221.7502505286
 11
152.3515533051
 21
221.7502505286
  0
LINE
  8
DEFAULT_2
 62
8
  6
HIDDEN
 10
167.4030956838
 20
221.7866487651
 11
160.5031543162
 21
221.7866487651
  0
LINE
  8
DEFAULT_2
 62
8
  6
HIDDEN
 10
167.3873020884
 20
221.8019602675
 11
160.5189479116
 21
221.8019602675
  0
LINE
  8
0
 62
7
  6
CONTINUOUS
 10
175.5010357508
 20
221.806745112
 11
152.4052142492
 21
221.806745112
  0
LINE
  8
0
 62
9
  6
CONTINUOUS
 10
151.678125
 20
222.1075701337
 11
160.2693988066
 21
222.1075701337
  0
LINE
  8
0
 62
9
  6
CONTINUOUS
 10
167.6368511934
 20
222.1075701337
 11
176.228125
 21
222.1075701337
  0
LINE
  8
DEFAULT_2
 62
8
  6
HIDDEN
 10
167.453125
 20
222.3332523483
 11
160.453125
 21
222.3332523483
  0
LINE
  8
0
 62
9
  6
CONTINUOUS
 10
151.678125
 20
222.4772595596
 11
160.2693988066
 21
222.4772595596
  0
LINE
  8
0
 62
9
  6
CONTINUOUS
 10
167.6368511934
 20
222.4772595596
 11
176.228125
 21
222.4772595596
  0
POLYLINE
  8
0
 62
7
  6
CONTINUOUS
 66
1
 70
0
  0
VERTEX
  8
0
 62
7
  6
CONTINUOUS
 10
175.6622517542
 20
214.9068847145
  0
VERTEX
  8
0
 62
7
  6
CONTINUOUS
 10
175.7477487381
 20
214.8508004545
  0
VERTEX
  8
0
 62
7
  6
CONTINUOUS
 10
175.8176881
 20
214.8357727359
  0
SEQEND
  0
LINE
  8
0
 62
7
  6
CONTINUOUS
 10
175.6622517542
 20
214.9068847145
 11
175.5546966949
 21
215.001858903
  0
LINE
  8
DEFAULT_2
 62
8
  6
HIDDEN
 10
167.3873020884
 20
221.8019602675
 11
167.4032007946
 21
221.7866487651
  0
POLYLINE
  8
0
 62
7
  6
CONTINUOUS
 66
1
 70
0
  0
VERTEX
  8
0
 62
7
  6
CONTINUOUS
 10
175.6622517542
 20
221.5476342004
  0
VERTEX
  8
0
 62
7
  6
CONTINUOUS
 10
175.7477487381
 20
221.4030249167
  0
VERTEX
  8
0
 62
7
  6
CONTINUOUS
 10
175.9067891166
 20
221.2326873976
  0
VERTEX
  8
0
 62
7
  6
CONTINUOUS
 10
175.983276891
 20
221.2086667003
  0
SEQEND
  0
LINE
  8
0
 62
7
  6
CONTINUOUS
 10
175.6622517542
 20
221.5476342004
 11
175.5546966949
 21
221.7502505286
  0
POLYLINE
  8
0
 62
7
  6
CONTINUOUS
 66
1
 70
0
  0
VERTEX
  8
0
 62
7
  6
CONTINUOUS
 10
175.6622517542
 20
226.9116152519
  0
VERTEX
  8
0
 62
7
  6
CONTINUOUS
 10
175.7477487381
 20
226.6883358282
  0
VERTEX
  8
0
 62
7
  6
CONTINUOUS
 10
175.9067891166
 20
226.3469323777
  0
VERTEX
  8
0
 62
7
  6
CONTINUOUS
 10
176.0415360988
 20
226.1593073933
  0
VERTEX
  8
0
 62
7
  6
CONTINUOUS
 10
176.1136910163
 20
226.1234472683
  0
SEQEND
  0
LINE
  8
DEFAULT_2
 62
8
  6
HIDDEN
 10
175.7480622036
 20
226.6875643331
 11
175.7478498746
 21
226.6881187238
  0
LINE
  8
0
 62
7
  6
CONTINUOUS
 10
175.6622517542
 20
226.9116152519
 11
175.5546966949
 21
227.2080657517
  0
LINE
  8
0
 62
7
  6
CONTINUOUS
 10
175.5546966949
 20
220.6881415553
 11
175.6622517542
 21
220.3646226047
  0
POLYLINE
  8
0
 62
7
  6
CONTINUOUS
 66
1
 70
0
  0
VERTEX
  8
0
 62
7
  6
CONTINUOUS
 10
175.6622517542
 20
230.6332814246
  0
VERTEX
  8
0
 62
7
  6
CONTINUOUS
 10
175.7477487381
 20
230.3465479846
  0
VERTEX
  8
0
 62
7
  6
CONTINUOUS
 10
175.9067891166
 20
229.8573446838
  0
VERTEX
  8
0
 62
7
  6
CONTINUOUS
 10
176.0415360988
 20
229.5017360158
  0
VERTEX
  8
0
 62
7
  6
CONTINUOUS
 10
176.0970218073
 20
229.3797351684
  0
VERTEX
  8
0
 62
7
  6
CONTINUOUS
 10
176.1801941282
 20
229.2526259107
  0
VERTEX
  8
0
 62
7
  6
CONTINUOUS
 10
176.197787286
 20
229.2451802526
  0
SEQEND
  0
LINE
  8
0
 62
7
  6
CONTINUOUS
 10
175.6622517542
 20
230.6332814246
 11
175.5546966949
 21
231.0033634844
  0
LINE
  8
0
 62
7
  6
CONTINUOUS
 10
175.5546966949
 20
226.3930808723
 11
175.6622517542
 21
226.0038585274
  0
POLYLINE
  8
0
 62
7
  6
CONTINUOUS
 66
1
 70
0
  0
VERTEX
  8
0
 62
7
  6
CONTINUOUS
 10
175.7477487381
 20
232.1283602731
  0
VERTEX
  8
0
 62
7
  6
CONTINUOUS
 10
175.9067891166
 20
231.5246955184
  0
VERTEX
  8
0
 62
7
  6
CONTINUOUS
 10
176.0415360988
 20
231.02533731
  0
VERTEX
  8
0
 62
7
  6
CONTINUOUS
 10
176.0970218073
 20
230.8232477689
  0
VERTEX
  8
0
 62
7
  6
CONTINUOUS
 10
176.1801941282
 20
230.5252097967
  0
VERTEX
  8
0
 62
7
  6
CONTINUOUS
 10
176.2227703601
 20
230.3773560737
  0
VERTEX
  8
0
 62
7
  6
CONTINUOUS
 10
176.2280871496
 20
230.3611247181
  0
SEQEND
  0
LINE
  8
0
 62
7
  6
CONTINUOUS
 10
175.7477487381
 20
232.1283602731
 11
175.5546966949
 21
232.8775004583
  0
LINE
  8
0
 62
7
  6
CONTINUOUS
 10
175.5546966949
 20
230.4910425717
 11
175.6622517542
 21
230.0626416919
  0
LINE
  8
0
 62
7
  6
CONTINUOUS
 10
176.228125
 20
230.3625
 11
176.453125
 21
229.4625
  0
LINE
  8
0
 62
7
  6
CONTINUOUS
 10
175.5546966949
 20
232.7027573357
 11
175.6622517542
 21
232.2643727332
  0
POLYLINE
  8
0
 62
7
  6
CONTINUOUS
 66
1
 70
0
  0
VERTEX
  8
0
 62
7
  6
CONTINUOUS
 10
175.5546966949
 20
226.3930808723
  0
VERTEX
  8
0
 62
7
  6
CONTINUOUS
 10
175.5138539979
 20
226.5604135584
  0
VERTEX
  8
0
 62
7
  6
CONTINUOUS
 10
175.4811501238
 20
226.7342391709
  0
VERTEX
  8
0
 62
7
  6
CONTINUOUS
 10
175.4602688663
 20
226.8929114287
  0
VERTEX
  8
0
 62
7
  6
CONTINUOUS
 10
175.453125
 20
227.0188383494
  0
SEQEND
  0
POLYLINE
  8
0
 62
7
  6
CONTINUOUS
 66
1
 70
0
  0
VERTEX
  8
0
 62
7
  6
CONTINUOUS
 10
175.5546966949
 20
232.7027573357
  0
VERTEX
  8
0
 62
7
  6
CONTINUOUS
 10
175.5138539979
 20
232.8738919983
  0
VERTEX
  8
0
 62
7
  6
CONTINUOUS
 10
175.4811501238
 20
233.0202992815
  0
VERTEX
  8
0
 62
7
  6
CONTINUOUS
 10
175.4602688663
 20
233.1246207563
  0
VERTEX
  8
0
 62
7
  6
CONTINUOUS
 10
175.453125
 20
233.1762784487
  0
SEQEND
  0
LINE
  8
DEFAULT_2
 62
8
  6
HIDDEN
 10
175.7477487381
 20
231.9123451307
 11
175.7480622036
 21
231.9110411057
  0
POLYLINE
  8
0
 62
7
  6
CONTINUOUS
 66
1
 70
0
  0
VERTEX
  8
0
 62
7
  6
CONTINUOUS
 10
175.5546966949
 20
230.4910425717
  0
VERTEX
  8
0
 62
7
  6
CONTINUOUS
 10
175.5138539979
 20
230.6662461636
  0
VERTEX
  8
0
 62
7
  6
CONTINUOUS
 10
175.4811501238
 20
230.8320109081
  0
VERTEX
  8
0
 62
7
  6
CONTINUOUS
 10
175.4602688663
 20
230.9681464816
  0
VERTEX
  8
0
 62
7
  6
CONTINUOUS
 10
175.453125
 20
231.0600710416
  0
SEQEND
  0
LINE
  8
DEFAULT_2
 62
8
  6
HIDDEN
 10
175.7477487381
 20
225.6808622741
 11
175.7480622036
 21
225.6796264722
  0
LINE
  8
DEFAULT_2
 62
8
  6
HIDDEN
 10
175.7477487381
 20
229.7132236324
 11
175.7480622036
 21
229.7119089212
  0
LINE
  8
DEFAULT_2
 62
8
  6
HIDDEN
 10
175.9067891166
 20
231.2353576776
 11
175.9070626835
 21
231.2341617434
  0
LINE
  8
DEFAULT_2
 62
8
  6
HIDDEN
 10
176.096826521
 20
230.3588475984
 11
176.0970218073
 21
230.3578741988
  0
LINE
  8
DEFAULT_2
 62
8
  6
HIDDEN
 10
175.9067891166
 20
229.009049057
 11
175.9070626835
 21
229.0077640319
  0
LINE
  8
DEFAULT_2
 62
8
  6
HIDDEN
 10
176.1799760887
 20
229.9105403654
 11
176.1801941282
 21
229.9092183075
  0
POLYLINE
  8
DEFAULT_2
 62
8
  6
HIDDEN
 66
1
 70
0
  0
VERTEX
  8
DEFAULT_2
 62
8
  6
HIDDEN
 10
176.096826521
 20
228.0165021148
  0
VERTEX
  8
DEFAULT_2
 62
8
  6
HIDDEN
 10
176.0970218073
 20
228.0153288981
  0
VERTEX
  8
DEFAULT_2
 62
8
  6
HIDDEN
 10
176.1801941282
 20
227.446630245
  0
SEQEND
  0
POLYLINE
  8
0
 62
7
  6
CONTINUOUS
 66
1
 70
0
  0
VERTEX
  8
0
 62
7
  6
CONTINUOUS
 10
176.2280853427
 20
175.2638752822
  0
VERTEX
  8
0
 62
7
  6
CONTINUOUS
 10
176.2227236506
 20
175.2474893097
  0
VERTEX
  8
0
 62
7
  6
CONTINUOUS
 10
176.1799760887
 20
175.0990193409
  0
VERTEX
  8
0
 62
7
  6
CONTINUOUS
 10
176.096826521
 20
174.8010449843
  0
VERTEX
  8
0
 62
7
  6
CONTINUOUS
 10
176.0414611485
 20
174.5993882217
  0
VERTEX
  8
0
 62
7
  6
CONTINUOUS
 10
175.9070626835
 20
174.1013298238
  0
VERTEX
  8
0
 62
7
  6
CONTINUOUS
 10
175.7480622036
 20
173.4978441986
  0
VERTEX
  8
0
 62
7
  6
CONTINUOUS
 10
175.5546966949
 20
172.7474995417
  0
SEQEND
  0
POLYLINE
  8
0
 62
7
  6
CONTINUOUS
 66
1
 70
0
  0
VERTEX
  8
0
 62
7
  6
CONTINUOUS
 10
175.5546966949
 20
178.4169342483
  0
VERTEX
  8
0
 62
7
  6
CONTINUOUS
 10
175.5138539979
 20
178.3229716216
  0
VERTEX
  8
0
 62
7
  6
CONTINUOUS
 10
175.4811501238
 20
178.2859610083
  0
VERTEX
  8
0
 62
7
  6
CONTINUOUS
 10
175.4781349509
 20
178.2855729198
  0
SEQEND
  0
LINE
  8
DEFAULT_2
 62
8
  6
HIDDEN
 10
176.096881205
 20
176.2449556782
 11
176.0970218073
 21
176.2452648316
  0
POLYLINE
  8
0
 62
7
  6
CONTINUOUS
 66
1
 70
0
  0
VERTEX
  8
0
 62
7
  6
CONTINUOUS
 10
175.5546966949
 20
183.8747494714
  0
VERTEX
  8
0
 62
7
  6
CONTINUOUS
 10
175.5138539979
 20
183.8223088603
  0
VERTEX
  8
0
 62
7
  6
CONTINUOUS
 10
175.5007961152
 20
183.8182548893
  0
SEQEND
  0
POLYLINE
  8
DEFAULT_2
 62
8
  6
HIDDEN
 66
1
 70
0
  0
VERTEX
  8
DEFAULT_2
 62
8
  6
HIDDEN
 10
167.6262297211
 20
176.3798197504
  0
VERTEX
  8
DEFAULT_2
 62
8
  6
HIDDEN
 10
167.6210255895
 20
176.3743228529
  0
VERTEX
  8
DEFAULT_2
 62
8
  6
HIDDEN
 10
167.5938215854
 20
176.2613772806
  0
VERTEX
  8
DEFAULT_2
 62
8
  6
HIDDEN
 10
167.5757864714
 20
176.1514399824
  0
VERTEX
  8
DEFAULT_2
 62
8
  6
HIDDEN
 10
167.5322200655
 20
175.8310459682
  0
VERTEX
  8
DEFAULT_2
 62
8
  6
HIDDEN
 10
167.4808474883
 20
175.3900220845
  0
SEQEND
  0
POLYLINE
  8
0
 62
7
  6
CONTINUOUS
 66
1
 70
0
  0
VERTEX
  8
0
 62
7
  6
CONTINUOUS
 10
175.9832780404
 20
184.4163332996
  0
VERTEX
  8
0
 62
7
  6
CONTINUOUS
 10
175.9070626835
 20
184.3924761115
  0
VERTEX
  8
0
 62
7
  6
CONTINUOUS
 10
175.7480622036
 20
184.2224426616
  0
VERTEX
  8
0
 62
7
  6
CONTINUOUS
 10
175.6622517542
 20
184.0773657996
  0
SEQEND
  0
LINE
  8
DEFAULT_2
 62
8
  6
HIDDEN
 10
160.453125
 20
225.1298190092
 11
167.453125
 21
225.1298190092
  0
LINE
  8
0
 62
7
  6
CONTINUOUS
 10
160.453125
 20
225.8528704951
 11
167.453125
 21
225.8528704951
  0
LINE
  8
0
 62
9
  6
CONTINUOUS
 10
152.2439982458
 20
226.0038585274
 11
175.6622517542
 21
226.0038585274
  0
LINE
  8
DEFAULT_2
 62
8
  6
HIDDEN
 10
151.7935940814
 20
226.1234472623
 11
160.3096714147
 21
226.1234472623
  0
LINE
  8
DEFAULT_2
 62
8
  6
HIDDEN
 10
167.5965785853
 20
226.1234472623
 11
176.1126559186
 21
226.1234472623
  0
LINE
  8
0
 62
9
  6
CONTINUOUS
 10
175.5546966949
 20
226.3930808723
 11
152.3515533051
 21
226.3930808723
  0
LINE
  8
DEFAULT_2
 62
8
  6
HIDDEN
 10
152.089270029
 20
226.5397208536
 11
160.2693988066
 21
226.5397208536
  0
LINE
  8
0
 62
9
  6
CONTINUOUS
 10
151.678125
 20
226.5397208536
 11
152.089270029
 21
226.5397208536
  0
LINE
  8
DEFAULT_2
 62
8
  6
HIDDEN
 10
167.6368511934
 20
226.5397208536
 11
175.816979971
 21
226.5397208536
  0
LINE
  8
0
 62
9
  6
CONTINUOUS
 10
175.816979971
 20
226.5397208536
 11
176.228125
 21
226.5397208536
  0
LINE
  8
DEFAULT_2
 62
8
  6
HIDDEN
 10
160.5189479116
 20
226.5549482969
 11
167.3873020884
 21
226.5549482969
  0
POLYLINE
  8
0
 62
7
  6
CONTINUOUS
 66
1
 70
0
  0
VERTEX
  8
0
 62
7
  6
CONTINUOUS
 10
175.500794759
 20
221.8067451102
  0
VERTEX
  8
0
 62
7
  6
CONTINUOUS
 10
175.5138045223
 20
221.8027205391
  0
VERTEX
  8
0
 62
7
  6
CONTINUOUS
 10
175.5546966949
 20
221.7502505286
  0
SEQEND
  0
LINE
  8
DEFAULT_2
 62
8
  6
HIDDEN
 10
176.1801269743
 20
176.3722714605
 11
176.1801941282
 21
176.3723740893
  0
POLYLINE
  8
0
 62
7
  6
CONTINUOUS
 66
1
 70
0
  0
VERTEX
  8
0
 62
7
  6
CONTINUOUS
 10
176.1136876759
 20
179.5015527332
  0
VERTEX
  8
0
 62
7
  6
CONTINUOUS
 10
176.0414611485
 20
179.4656251566
  0
VERTEX
  8
0
 62
7
  6
CONTINUOUS
 10
175.9070626835
 20
179.278558542
  0
VERTEX
  8
0
 62
7
  6
CONTINUOUS
 10
175.7480622036
 20
178.9374356669
  0
VERTEX
  8
0
 62
7
  6
CONTINUOUS
 10
175.6622517542
 20
178.7133847481
  0
SEQEND
  0
LINE
  8
DEFAULT_2
 62
8
  6
HIDDEN
 10
175.4622110515
 20
231.2347136787
 11
175.4602688663
 21
231.2342218063
  0
POLYLINE
  8
0
 62
7
  6
CONTINUOUS
 66
1
 70
0
  0
VERTEX
  8
0
 62
7
  6
CONTINUOUS
 10
152.4281142377
 20
227.3394270808
  0
VERTEX
  8
0
 62
7
  6
CONTINUOUS
 10
152.4250666526
 20
227.339030599
  0
VERTEX
  8
0
 62
7
  6
CONTINUOUS
 10
152.3924454777
 20
227.3021162751
  0
VERTEX
  8
0
 62
7
  6
CONTINUOUS
 10
152.3515533051
 20
227.2080657517
  0
SEQEND
  0
LINE
  8
DEFAULT_2
 62
8
  6
HIDDEN
 10
152.2016921021
 20
226.8011307535
 11
160.2693988066
 21
226.8011307535
  0
LINE
  8
0
 62
9
  6
CONTINUOUS
 10
151.678125
 20
226.8011307535
 11
152.2016921021
 21
226.8011307535
  0
LINE
  8
DEFAULT_2
 62
8
  6
HIDDEN
 10
167.6368511934
 20
226.8011307535
 11
175.7045578979
 21
226.8011307535
  0
LINE
  8
0
 62
9
  6
CONTINUOUS
 10
175.7045578979
 20
226.8011307535
 11
176.228125
 21
226.8011307535
  0
LINE
  8
DEFAULT_2
 62
8
  6
HIDDEN
 10
160.453125
 20
226.8017284028
 11
167.453125
 21
226.8017284028
  0
LINE
  8
DEFAULT_2
 62
8
  6
HIDDEN
 10
152.2439982458
 20
226.9116152519
 11
175.6622517542
 21
226.9116152519
  0
LINE
  8
0
 62
9
  6
CONTINUOUS
 10
175.453125
 20
227.0188383494
 11
152.453125
 21
227.0188383494
  0
LINE
  8
DEFAULT_2
 62
8
  6
HIDDEN
 10
167.4281073881
 20
227.1734464977
 11
160.4781426119
 21
227.1734464977
  0
LINE
  8
DEFAULT_2
 62
8
  6
HIDDEN
 10
175.5546966949
 20
227.2080657517
 11
152.3515533051
 21
227.2080657517
  0
LINE
  8
0
 62
9
  6
CONTINUOUS
 10
175.453125
 20
227.2378835855
 11
152.453125
 21
227.2378835855
  0
LINE
  8
DEFAULT_2
 62
8
  6
HIDDEN
 10
167.3873020884
 20
227.2999078962
 11
160.5189479116
 21
227.2999078962
  0
LINE
  8
0
 62
7
  6
CONTINUOUS
 10
175.4784053975
 20
227.3394270833
 11
152.4278446025
 21
227.3394270833
  0
LINE
  8
DEFAULT_2
 62
8
  6
HIDDEN
 10
167.453125
 20
227.444246037
 11
160.453125
 21
227.444246037
  0
LINE
  8
DEFAULT_2
 62
8
  6
HIDDEN
 10
151.7096888689
 20
229.2451802496
 11
160.28043879
 21
229.2451802496
  0
LINE
  8
DEFAULT_2
 62
8
  6
HIDDEN
 10
167.62581121
 20
229.2451802496
 11
176.1965611311
 21
229.2451802496
  0
LINE
  8
DEFAULT_2
 62
8
  6
HIDDEN
 10
151.7929780644
 20
229.3549006834
 11
160.2693988066
 21
229.3549006834
  0
LINE
  8
0
 62
9
  6
CONTINUOUS
 10
151.678125
 20
229.3549006834
 11
151.7929780644
 21
229.3549006834
  0
LINE
  8
DEFAULT_2
 62
8
  6
HIDDEN
 10
167.6368511934
 20
229.3549006834
 11
176.1132719356
 21
229.3549006834
  0
LINE
  8
0
 62
9
  6
CONTINUOUS
 10
176.1132719356
 20
229.3549006834
 11
176.228125
 21
229.3549006834
  0
LINE
  8
DEFAULT_2
 62
8
  6
HIDDEN
 10
160.453125
 20
229.4217172869
 11
167.453125
 21
229.4217172869
  0
LINE
  8
DEFAULT_2
 62
8
  6
HIDDEN
 10
151.8594748082
 20
229.4902164047
 11
160.2693988066
 21
229.4902164047
  0
LINE
  8
0
 62
9
  6
CONTINUOUS
 10
151.678125
 20
229.4902164047
 11
151.8594748082
 21
229.4902164047
  0
LINE
  8
DEFAULT_2
 62
8
  6
HIDDEN
 10
167.6368511934
 20
229.4902164047
 11
176.0467751918
 21
229.4902164047
  0
LINE
  8
0
 62
9
  6
CONTINUOUS
 10
176.0467751918
 20
229.4902164047
 11
176.228125
 21
229.4902164047
  0
LINE
  8
0
 62
7
  6
CONTINUOUS
 10
160.453125
 20
229.8978254331
 11
167.453125
 21
229.8978254331
  0
LINE
  8
0
 62
9
  6
CONTINUOUS
 10
152.2439982458
 20
230.0626416919
 11
175.6622517542
 21
230.0626416919
  0
LINE
  8
DEFAULT_2
 62
8
  6
HIDDEN
 10
151.6785743637
 20
230.3611247177
 11
160.2695242344
 21
230.3611247177
  0
LINE
  8
DEFAULT_2
 62
8
  6
HIDDEN
 10
167.6367263072
 20
230.3611247177
 11
176.2276756363
 21
230.3611247177
  0
LINE
  8
DEFAULT_2
 62
8
  6
HIDDEN
 10
151.678125
 20
230.3625
 11
160.2693988066
 21
230.3625
  0
LINE
  8
DEFAULT_2
 62
8
  6
HIDDEN
 10
167.6368511934
 20
230.3625
 11
176.228125
 21
230.3625
  0
POLYLINE
  8
0
 62
7
  6
CONTINUOUS
 66
1
 70
0
  0
VERTEX
  8
0
 62
7
  6
CONTINUOUS
 10
175.4781357623
 20
227.3394270808
  0
VERTEX
  8
0
 62
7
  6
CONTINUOUS
 10
175.4811833474
 20
227.339030599
  0
VERTEX
  8
0
 62
7
  6
CONTINUOUS
 10
175.5138045223
 20
227.3021162751
  0
VERTEX
  8
0
 62
7
  6
CONTINUOUS
 10
175.5546966949
 20
227.2080657517
  0
SEQEND
  0
LINE
  8
DEFAULT_2
 62
8
  6
HIDDEN
 10
152.4440389485
 20
231.2347136787
 11
152.4459811337
 21
231.2342218063
  0
LINE
  8
DEFAULT_2
 62
8
  6
HIDDEN
 10
176.0415023918
 20
226.1593543278
 11
176.0414611485
 21
226.1593748434
  0
POLYLINE
  8
0
 62
7
  6
CONTINUOUS
 66
1
 70
0
  0
VERTEX
  8
0
 62
7
  6
CONTINUOUS
 10
175.4622120045
 20
231.2347136797
  0
VERTEX
  8
0
 62
7
  6
CONTINUOUS
 10
175.4811833474
 20
231.2121410584
  0
VERTEX
  8
0
 62
7
  6
CONTINUOUS
 10
175.5138045223
 20
231.1325851329
  0
VERTEX
  8
0
 62
7
  6
CONTINUOUS
 10
175.5546966949
 20
231.0033634844
  0
SEQEND
  0
POLYLINE
  8
0
 62
7
  6
CONTINUOUS
 66
1
 70
0
  0
VERTEX
  8
0
 62
7
  6
CONTINUOUS
 10
175.4540882129
 20
233.2271475585
  0
VERTEX
  8
0
 62
7
  6
CONTINUOUS
 10
175.4603064022
 20
233.2152760566
  0
VERTEX
  8
0
 62
7
  6
CONTINUOUS
 10
175.4811833474
 20
233.1498629123
  0
VERTEX
  8
0
 62
7
  6
CONTINUOUS
 10
175.5138045223
 20
233.03308699
  0
VERTEX
  8
0
 62
7
  6
CONTINUOUS
 10
175.5546966949
 20
232.8775004583
  0
SEQEND
  0
POLYLINE
  8
0
 62
7
  6
CONTINUOUS
 66
1
 70
0
  0
VERTEX
  8
0
 62
7
  6
CONTINUOUS
 10
176.1977833936
 20
176.3798197497
  0
VERTEX
  8
0
 62
7
  6
CONTINUOUS
 10
176.1799760887
 20
176.3722069554
  0
VERTEX
  8
0
 62
7
  6
CONTINUOUS
 10
176.096826521
 20
176.2448719353
  0
VERTEX
  8
0
 62
7
  6
CONTINUOUS
 10
176.0414611485
 20
176.1230869941
  0
VERTEX
  8
0
 62
7
  6
CONTINUOUS
 10
175.9070626835
 20
175.7684401911
  0
VERTEX
  8
0
 62
7
  6
CONTINUOUS
 10
175.7480622036
 20
175.279474851
  0
VERTEX
  8
0
 62
7
  6
CONTINUOUS
 10
175.6622517542
 20
174.9917185754
  0
SEQEND
  0
LINE
  8
DEFAULT_2
 62
8
  6
HIDDEN
 10
176.1973994492
 20
176.3796556097
 11
176.197787286
 21
176.3798197474
  0
LINE
  8
0
 62
9
  6
CONTINUOUS
 10
175.5546966949
 20
230.4910425717
 11
152.3515533051
 21
230.4910425717
  0
LINE
  8
DEFAULT_2
 62
8
  6
HIDDEN
 10
160.453125
 20
230.4943024496
 11
167.453125
 21
230.4943024496
  0
LINE
  8
DEFAULT_2
 62
8
  6
HIDDEN
 10
152.2439982458
 20
230.6332814246
 11
175.6622517542
 21
230.6332814246
  0
LINE
  8
DEFAULT_2
 62
8
  6
HIDDEN
 10
160.5189479116
 20
230.6607779627
 11
167.3873020884
 21
230.6607779627
  0
LINE
  8
DEFAULT_2
 62
8
  6
HIDDEN
 10
167.4452367603
 20
230.791048629
 11
160.4610132397
 21
230.791048629
  0
LINE
  8
DEFAULT_2
 62
8
  6
HIDDEN
 10
167.453125
 20
230.8766269392
 11
160.453125
 21
230.8766269392
  0
LINE
  8
DEFAULT_2
 62
8
  6
HIDDEN
 10
175.5546966949
 20
231.0033634844
 11
152.3515533051
 21
231.0033634844
  0
LINE
  8
0
 62
9
  6
CONTINUOUS
 10
175.453125
 20
231.0600710416
 11
152.453125
 21
231.0600710416
  0
LINE
  8
DEFAULT_2
 62
8
  6
HIDDEN
 10
167.3873020884
 20
231.1290791442
 11
160.5189479116
 21
231.1290791442
  0
LINE
  8
0
 62
9
  6
CONTINUOUS
 10
175.453125
 20
231.1977686335
 11
152.453125
 21
231.1977686335
  0
LINE
  8
0
 62
7
  6
CONTINUOUS
 10
175.4625320219
 20
231.2347136803
 11
152.4437179781
 21
231.2347136803
  0
LINE
  8
0
 62
9
  6
CONTINUOUS
 10
167.453125
 20
231.9002413804
 11
160.453125
 21
231.9002413804
  0
LINE
  8
0
 62
9
  6
CONTINUOUS
 10
152.2439982458
 20
232.2643727332
 11
160.4674287826
 21
232.2643727332
  0
LINE
  8
0
 62
9
  6
CONTINUOUS
 10
167.4388212174
 20
232.2643727332
 11
175.6622517542
 21
232.2643727332
  0
LINE
  8
DEFAULT_2
 62
8
  6
HIDDEN
 10
167.4525846242
 20
232.3929215521
 11
160.4536653758
 21
232.3929215521
  0
LINE
  8
DEFAULT_2
 62
8
  6
HIDDEN
 10
167.453125
 20
232.3964839686
 11
160.453125
 21
232.3964839686
  0
LINE
  8
DEFAULT_2
 62
8
  6
HIDDEN
 10
152.2439982458
 20
232.4590073192
 11
160.4674287826
 21
232.4590073192
  0
LINE
  8
DEFAULT_2
 62
8
  6
HIDDEN
 10
167.4388212174
 20
232.4590073192
 11
175.6622517542
 21
232.4590073192
  0
LINE
  8
DEFAULT_2
 62
8
  6
HIDDEN
 10
160.453125
 20
232.4625
 11
167.453125
 21
232.4625
  0
LINE
  8
0
 62
9
  6
CONTINUOUS
 10
175.5546966949
 20
232.7027573357
 11
167.4011818238
 21
232.7027573357
  0
LINE
  8
0
 62
9
  6
CONTINUOUS
 10
160.5050681762
 20
232.7027573357
 11
152.3515533051
 21
232.7027573357
  0
LINE
  8
0
 62
9
  6
CONTINUOUS
 10
167.3873020884
 20
232.8687935069
 11
160.5189479116
 21
232.8687935069
  0
LINE
  8
DEFAULT_2
 62
8
  6
HIDDEN
 10
175.5546966949
 20
232.8775004583
 11
167.4011818238
 21
232.8775004583
  0
LINE
  8
DEFAULT_2
 62
8
  6
HIDDEN
 10
160.5050681762
 20
232.8775004583
 11
152.3515533051
 21
232.8775004583
  0
LINE
  8
DEFAULT_2
 62
8
  6
HIDDEN
 10
167.3873020884
 20
233.0285223189
 11
160.5189479116
 21
233.0285223189
  0
LINE
  8
0
 62
9
  6
CONTINUOUS
 10
175.453125
 20
233.1762784487
 11
152.453125
 21
233.1762784487
  0
LINE
  8
0
 62
9
  6
CONTINUOUS
 10
175.453125
 20
233.223244533
 11
152.453125
 21
233.223244533
  0
LINE
  8
0
 62
7
  6
CONTINUOUS
 10
175.4544410741
 20
233.2271475585
 11
152.4518089259
 21
233.2271475585
  0
LINE
  8
DEFAULT_2
 62
8
  6
HIDDEN
 10
176.1977833936
 20
229.2451802503
 11
176.1973994492
 21
229.2453443903
  0
LINE
  8
DEFAULT_2
 62
8
  6
HIDDEN
 10
176.1801269743
 20
229.2527285395
 11
176.1799760887
 21
229.2527930446
  0
ARC
  8
0
 62
7
  6
CONTINUOUS
 10
48.1545002823
 20
202.5226244122
 40
3.0
 50
287.5
 51
0.5436627494
  0
ARC
  8
0
 62
7
  6
CONTINUOUS
 10
49.1203941047
 20
195.185932438
 40
3.0
 50
14.4563372506
 51
87.5
  0
ARC
  8
0
 62
7
  6
CONTINUOUS
 10
49.2704447504
 20
194.6259358047
 40
3.0
 50
302.5
 51
15.5436627494
  0
ARC
  8
0
 62
7
  6
CONTINUOUS
 10
52.1023021499
 20
187.7892272641
 40
3.0
 50
29.4563372506
 51
102.5
  0
ARC
  8
0
 62
7
  6
CONTINUOUS
 10
52.3921777377
 20
187.2871480182
 40
3.0
 50
317.5
 51
30.5436627494
  0
ARC
  8
0
 62
7
  6
CONTINUOUS
 10
56.8970123123
 20
181.4163333
 40
3.0
 50
44.4563372506
 51
117.5
  0
ARC
  8
0
 62
7
  6
CONTINUOUS
 10
57.3069583
 20
181.0063873123
 40
3.0
 50
332.5
 51
45.5436627494
  0
ARC
  8
0
 62
7
  6
CONTINUOUS
 10
63.1777730182
 20
176.5015527377
 40
3.0
 50
59.4563372506
 51
132.5
  0
ARC
  8
0
 62
7
  6
CONTINUOUS
 10
63.6798522641
 20
176.2116771499
 40
3.0
 50
347.5
 51
60.5436627494
  0
ARC
  8
0
 62
7
  6
CONTINUOUS
 10
70.5165608047
 20
173.3798197504
 40
3.0
 50
74.4563372506
 51
147.5
  0
ARC
  8
0
 62
7
  6
CONTINUOUS
 10
71.076557438
 20
173.2297691047
 40
3.0
 50
2.5
 51
75.5436627494
  0
ARC
  8
0
 62
7
  6
CONTINUOUS
 10
78.4132494122
 20
172.2638752823
 40
3.0
 50
89.4563372506
 51
162.5
  0
ARC
  8
0
 62
7
  6
CONTINUOUS
 10
78.9930005878
 20
172.2638752823
 40
3.0
 50
17.5
 51
90.5436627494
  0
ARC
  8
0
 62
7
  6
CONTINUOUS
 10
48.834677358
 20
198.7017414987
 40
0.5
 50
187.8363189484
 51
267.5
  0
ARC
  8
0
 62
7
  6
CONTINUOUS
 10
48.7884774415
 20
199.0526647047
 40
0.5
 50
107.5
 51
187.1636810516
  0
ARC
  8
0
 62
7
  6
CONTINUOUS
 10
50.9163626214
 20
191.1112891005
 40
0.5
 50
202.8363189484
 51
282.5
  0
ARC
  8
0
 62
7
  6
CONTINUOUS
 10
50.7809113197
 20
191.43829747
 40
0.5
 50
122.5
 51
202.1636810516
  0
ARC
  8
0
 62
7
  6
CONTINUOUS
 10
54.8916698211
 20
184.318254888
 40
0.5
 50
217.8363189484
 51
297.5
  0
ARC
  8
0
 62
7
  6
CONTINUOUS
 10
54.6761979167
 20
184.5990633409
 40
0.5
 50
137.5
 51
217.1636810516
  0
ARC
  8
0
 62
7
  6
CONTINUOUS
 10
60.4896883409
 20
178.7855729167
 40
0.5
 50
232.8363189484
 51
312.5
  0
ARC
  8
0
 62
7
  6
CONTINUOUS
 10
60.208879888
 20
179.0010448211
 40
0.5
 50
152.5
 51
232.1636810516
  0
ARC
  8
0
 62
7
  6
CONTINUOUS
 10
67.32892247
 20
174.8902863197
 40
0.5
 50
247.8363189484
 51
327.5
  0
ARC
  8
0
 62
7
  6
CONTINUOUS
 10
67.0019141005
 20
175.0257376214
 40
0.5
 50
167.5
 51
247.1636810516
  0
ARC
  8
0
 62
7
  6
CONTINUOUS
 10
74.9432897047
 20
172.8978524415
 40
0.5
 50
262.8363189484
 51
342.5
  0
ARC
  8
0
 62
7
  6
CONTINUOUS
 10
74.5923664987
 20
172.944052358
 40
0.5
 50
182.5
 51
262.1636810516
  0
ARC
  8
0
 62
7
  6
CONTINUOUS
 10
52.3921777377
 20
218.3378519818
 40
3.0
 50
329.4563372506
 51
42.5
  0
ARC
  8
0
 62
7
  6
CONTINUOUS
 10
52.1023021499
 20
217.8357727359
 40
3.0
 50
257.5
 51
330.5436627494
  0
ARC
  8
0
 62
7
  6
CONTINUOUS
 10
49.2704447504
 20
210.9990641953
 40
3.0
 50
344.4563372506
 51
57.5
  0
ARC
  8
0
 62
7
  6
CONTINUOUS
 10
49.1203941047
 20
210.439067562
 40
3.0
 50
272.5
 51
345.5436627494
  0
ARC
  8
0
 62
7
  6
CONTINUOUS
 10
48.1545002823
 20
203.1023755878
 40
3.0
 50
359.4563372506
 51
72.5
  0
ARC
  8
0
 62
7
  6
CONTINUOUS
 10
50.7809113197
 20
214.18670253
 40
0.5
 50
157.8363189484
 51
237.5
  0
ARC
  8
0
 62
7
  6
CONTINUOUS
 10
50.9163626214
 20
214.5137108995
 40
0.5
 50
77.5
 51
157.1636810516
  0
ARC
  8
0
 62
7
  6
CONTINUOUS
 10
48.7884774415
 20
206.5723352953
 40
0.5
 50
172.8363189484
 51
252.5
  0
ARC
  8
0
 62
7
  6
CONTINUOUS
 10
48.834677358
 20
206.9232585013
 40
0.5
 50
92.5
 51
172.1636810516
  0
ARC
  8
0
 62
7
  6
CONTINUOUS
 10
63.1777730182
 20
229.1234472623
 40
3.0
 50
227.5
 51
300.5436627494
  0
ARC
  8
0
 62
7
  6
CONTINUOUS
 10
57.3069583
 20
224.6186126877
 40
3.0
 50
314.4563372506
 51
27.5
  0
ARC
  8
0
 62
7
  6
CONTINUOUS
 10
56.8970123123
 20
224.2086667
 40
3.0
 50
242.5
 51
315.5436627494
  0
ARC
  8
0
 62
7
  6
CONTINUOUS
 10
60.208879888
 20
226.6239551789
 40
0.5
 50
127.8363189484
 51
207.5
  0
ARC
  8
0
 62
7
  6
CONTINUOUS
 10
60.4896883409
 20
226.8394270833
 40
0.5
 50
47.5
 51
127.1636810516
  0
ARC
  8
0
 62
7
  6
CONTINUOUS
 10
54.6761979167
 20
221.0259366591
 40
0.5
 50
142.8363189484
 51
222.5
  0
ARC
  8
0
 62
7
  6
CONTINUOUS
 10
54.8916698211
 20
221.306745112
 40
0.5
 50
62.5
 51
142.1636810516
  0
ARC
  8
0
 62
7
  6
CONTINUOUS
 10
78.703125
 20
202.8125
 40
30.65
 50
97.1636810516
 51
97.8363189484
  0
ARC
  8
0
 62
7
  6
CONTINUOUS
 10
78.703125
 20
202.8125
 40
30.65
 50
112.1636810516
 51
112.8363189484
  0
ARC
  8
0
 62
7
  6
CONTINUOUS
 10
78.703125
 20
202.8125
 40
30.65
 50
127.1636810516
 51
127.8363189484
  0
ARC
  8
0
 62
7
  6
CONTINUOUS
 10
78.703125
 20
202.8125
 40
30.65
 50
142.1636810516
 51
142.8363189484
  0
ARC
  8
0
 62
7
  6
CONTINUOUS
 10
78.703125
 20
202.8125
 40
30.65
 50
157.1636810516
 51
157.8363189484
  0
ARC
  8
0
 62
7
  6
CONTINUOUS
 10
78.703125
 20
202.8125
 40
30.65
 50
172.1636810516
 51
172.8363189484
  0
ARC
  8
0
 62
7
  6
CONTINUOUS
 10
78.703125
 20
202.8125
 40
30.65
 50
187.1636810516
 51
187.8363189484
  0
ARC
  8
0
 62
7
  6
CONTINUOUS
 10
78.703125
 20
202.8125
 40
30.65
 50
202.1636810516
 51
202.8363189484
  0
ARC
  8
0
 62
7
  6
CONTINUOUS
 10
78.703125
 20
202.8125
 40
30.65
 50
217.1636810516
 51
217.8363189484
  0
ARC
  8
0
 62
7
  6
CONTINUOUS
 10
78.703125
 20
202.8125
 40
30.65
 50
232.1636810516
 51
232.8363189484
  0
ARC
  8
0
 62
7
  6
CONTINUOUS
 10
78.703125
 20
202.8125
 40
30.65
 50
247.1636810516
 51
247.8363189484
  0
ARC
  8
0
 62
7
  6
CONTINUOUS
 10
78.703125
 20
202.8125
 40
30.65
 50
262.1636810516
 51
262.8363189484
  0
ARC
  8
0
 62
7
  6
CONTINUOUS
 10
78.703125
 20
202.8125
 40
30.65
 50
277.1636810516
 51
277.8363189484
  0
ARC
  8
0
 62
7
  6
CONTINUOUS
 10
78.703125
 20
202.8125
 40
30.65
 50
292.1636810516
 51
292.8363189484
  0
ARC
  8
0
 62
7
  6
CONTINUOUS
 10
78.703125
 20
202.8125
 40
30.65
 50
307.1636810516
 51
307.8363189484
  0
ARC
  8
0
 62
7
  6
CONTINUOUS
 10
78.703125
 20
202.8125
 40
30.65
 50
322.1636810516
 51
322.8363189484
  0
ARC
  8
0
 62
7
  6
CONTINUOUS
 10
78.703125
 20
202.8125
 40
30.65
 50
337.1636810516
 51
337.8363189484
  0
ARC
  8
0
 62
7
  6
CONTINUOUS
 10
78.703125
 20
202.8125
 40
30.65
 50
352.1636810516
 51
352.8363189484
  0
ARC
  8
0
 62
7
  6
CONTINUOUS
 10
78.703125
 20
202.8125
 40
30.65
 50
7.1636810516
 51
7.8363189484
  0
ARC
  8
0
 62
7
  6
CONTINUOUS
 10
78.703125
 20
202.8125
 40
30.65
 50
22.1636810516
 51
22.8363189484
  0
ARC
  8
0
 62
7
  6
CONTINUOUS
 10
78.703125
 20
202.8125
 40
30.65
 50
37.1636810516
 51
37.8363189484
  0
ARC
  8
0
 62
7
  6
CONTINUOUS
 10
78.703125
 20
202.8125
 40
30.65
 50
82.1636810516
 51
82.8363189484
  0
ARC
  8
0
 62
7
  6
CONTINUOUS
 10
78.703125
 20
202.8125
 40
30.65
 50
52.1636810516
 51
52.8363189484
  0
ARC
  8
0
 62
7
  6
CONTINUOUS
 10
78.703125
 20
202.8125
 40
30.65
 50
67.1636810516
 51
67.8363189484
  0
ARC
  8
0
 62
7
  6
CONTINUOUS
 10
78.703125
 20
202.8125
 40
29.65
 50
281.1758880227
 51
288.8241119773
  0
ARC
  8
0
 62
7
  6
CONTINUOUS
 10
78.703125
 20
202.8125
 40
29.65
 50
41.1758880227
 51
48.8241119773
  0
ARC
  8
0
 62
7
  6
CONTINUOUS
 10
78.703125
 20
202.8125
 40
29.65
 50
56.1758880227
 51
63.8241119773
  0
ARC
  8
0
 62
7
  6
CONTINUOUS
 10
78.703125
 20
202.8125
 40
29.65
 50
71.1758880227
 51
78.8241119773
  0
ARC
  8
0
 62
7
  6
CONTINUOUS
 10
78.703125
 20
202.8125
 40
29.65
 50
86.1758880227
 51
93.8241119773
  0
ARC
  8
0
 62
7
  6
CONTINUOUS
 10
78.703125
 20
202.8125
 40
29.65
 50
296.1758880227
 51
303.8241119773
  0
ARC
  8
0
 62
7
  6
CONTINUOUS
 10
78.703125
 20
202.8125
 40
29.65
 50
311.1758880227
 51
318.8241119773
  0
ARC
  8
0
 62
7
  6
CONTINUOUS
 10
78.703125
 20
202.8125
 40
29.65
 50
326.1758880227
 51
333.8241119773
  0
ARC
  8
0
 62
7
  6
CONTINUOUS
 10
78.703125
 20
202.8125
 40
29.65
 50
341.1758880227
 51
348.8241119773
  0
ARC
  8
0
 62
7
  6
CONTINUOUS
 10
78.703125
 20
202.8125
 40
29.65
 50
356.1758880227
 51
3.8241119773
  0
ARC
  8
0
 62
7
  6
CONTINUOUS
 10
78.703125
 20
202.8125
 40
29.65
 50
11.1758880227
 51
18.8241119773
  0
ARC
  8
0
 62
7
  6
CONTINUOUS
 10
78.703125
 20
202.8125
 40
29.65
 50
26.1758880227
 51
33.8241119773
  0
ARC
  8
0
 62
7
  6
CONTINUOUS
 10
78.703125
 20
202.8125
 40
29.65
 50
264.0061631308
 51
273.8241119773
  0
ARC
  8
0
 62
7
  6
CONTINUOUS
 10
78.703125
 20
202.8125
 40
29.65
 50
101.1758880227
 51
110.9938368692
  0
ARC
  8
0
 62
7
  6
CONTINUOUS
 10
78.703125
 20
202.8125
 40
29.65
 50
249.0061631308
 51
260.9938368692
  0
ARC
  8
0
 62
7
  6
CONTINUOUS
 10
78.703125
 20
202.8125
 40
29.65
 50
234.0061631308
 51
245.9938368692
  0
ARC
  8
0
 62
7
  6
CONTINUOUS
 10
78.703125
 20
202.8125
 40
29.65
 50
219.0061631308
 51
230.9938368692
  0
ARC
  8
0
 62
7
  6
CONTINUOUS
 10
78.703125
 20
202.8125
 40
29.65
 50
204.0061631308
 51
215.9938368692
  0
ARC
  8
0
 62
7
  6
CONTINUOUS
 10
78.703125
 20
202.8125
 40
29.65
 50
189.0061631308
 51
200.9938368692
  0
ARC
  8
0
 62
7
  6
CONTINUOUS
 10
78.703125
 20
202.8125
 40
29.65
 50
174.0061631308
 51
185.9938368692
  0
ARC
  8
0
 62
7
  6
CONTINUOUS
 10
78.703125
 20
202.8125
 40
29.65
 50
159.0061631308
 51
170.9938368692
  0
ARC
  8
0
 62
7
  6
CONTINUOUS
 10
78.703125
 20
202.8125
 40
29.65
 50
129.0061631308
 51
140.9938368692
  0
ARC
  8
0
 62
7
  6
CONTINUOUS
 10
78.703125
 20
202.8125
 40
29.65
 50
114.0061631308
 51
125.9938368692
  0
ARC
  8
0
 62
7
  6
CONTINUOUS
 10
78.703125
 20
202.8125
 40
29.65
 50
144.0061631308
 51
155.9938368692
  0
CIRCLE
  8
0
 62
7
  6
CONTINUOUS
 10
78.703125
 20
202.8125
 40
26.65
  0
ARC
  8
0
 62
7
  6
CONTINUOUS
 10
71.076557438
 20
232.3952308953
 40
3.0
 50
284.4563372506
 51
357.5
  0
ARC
  8
0
 62
7
  6
CONTINUOUS
 10
70.5165608047
 20
232.2451802496
 40
3.0
 50
212.5
 51
285.5436627494
  0
ARC
  8
0
 62
7
  6
CONTINUOUS
 10
63.6798522641
 20
229.4133228501
 40
3.0
 50
299.4563372506
 51
12.5
  0
ARC
  8
0
 62
7
  6
CONTINUOUS
 10
78.4132494122
 20
233.3611247177
 40
3.0
 50
197.5
 51
270.5436627494
  0
ARC
  8
0
 62
7
  6
CONTINUOUS
 10
78.9930005878
 20
233.3611247177
 40
3.0
 50
269.4563372506
 51
342.5
  0
ARC
  8
0
 62
7
  6
CONTINUOUS
 10
76.6189436657
 20
233.9929215521
 40
1.6
 50
217.0670724072
 51
273.8241119773
  0
ARC
  8
0
 62
7
  6
CONTINUOUS
 10
72.6462026454
 20
233.4699002745
 40
1.6
 50
281.1758880227
 51
337.9329275928
  0
ARC
  8
0
 62
7
  6
CONTINUOUS
 10
67.0019141005
 20
230.5992623786
 40
0.5
 50
112.8363189484
 51
192.5
  0
ARC
  8
0
 62
7
  6
CONTINUOUS
 10
67.32892247
 20
230.7347136803
 40
0.5
 50
32.5
 51
112.1636810516
  0
ARC
  8
0
 62
7
  6
CONTINUOUS
 10
74.9432897047
 20
232.7271475585
 40
0.5
 50
17.5
 51
97.1636810516
  0
ARC
  8
0
 62
7
  6
CONTINUOUS
 10
74.5923664987
 20
232.680947642
 40
0.5
 50
97.8363189484
 51
177.5
  0
ARC
  8
0
 62
7
  6
CONTINUOUS
 10
86.329692562
 20
173.2297691047
 40
3.0
 50
104.4563372506
 51
177.5
  0
ARC
  8
0
 62
7
  6
CONTINUOUS
 10
86.8896891953
 20
173.3798197504
 40
3.0
 50
32.5
 51
105.5436627494
  0
ARC
  8
0
 62
7
  6
CONTINUOUS
 10
93.7263977359
 20
176.2116771499
 40
3.0
 50
119.4563372506
 51
192.5
  0
ARC
  8
0
 62
7
  6
CONTINUOUS
 10
94.2284769818
 20
176.5015527377
 40
3.0
 50
47.5
 51
120.5436627494
  0
ARC
  8
0
 62
7
  6
CONTINUOUS
 10
80.7873063343
 20
171.6320784479
 40
1.6
 50
37.0670724072
 51
93.8241119773
  0
ARC
  8
0
 62
7
  6
CONTINUOUS
 10
84.7600473546
 20
172.1550997255
 40
1.6
 50
101.1758880227
 51
157.9329275928
  0
ARC
  8
0
 62
7
  6
CONTINUOUS
 10
88.7863765094
 20
173.233951371
 40
1.6
 50
52.0670724072
 51
108.8241119773
  0
ARC
  8
0
 62
7
  6
CONTINUOUS
 10
92.4883817945
 20
174.7673721681
 40
1.6
 50
116.1758880227
 51
172.9329275928
  0
ARC
  8
0
 62
7
  6
CONTINUOUS
 10
82.8138835013
 20
172.944052358
 40
0.5
 50
277.8363189484
 51
357.5
  0
ARC
  8
0
 62
7
  6
CONTINUOUS
 10
82.4629602953
 20
172.8978524415
 40
0.5
 50
197.5
 51
277.1636810516
  0
ARC
  8
0
 62
7
  6
CONTINUOUS
 10
90.4043358995
 20
175.0257376214
 40
0.5
 50
292.8363189484
 51
12.5
  0
ARC
  8
0
 62
7
  6
CONTINUOUS
 10
90.07732753
 20
174.8902863197
 40
0.5
 50
212.5
 51
292.1636810516
  0
ARC
  8
0
 62
7
  6
CONTINUOUS
 10
100.0992917
 20
181.0063873123
 40
3.0
 50
134.4563372506
 51
207.5
  0
ARC
  8
0
 62
7
  6
CONTINUOUS
 10
100.5092376877
 20
181.4163333
 40
3.0
 50
62.5
 51
135.5436627494
  0
ARC
  8
0
 62
7
  6
CONTINUOUS
 10
96.0982897576
 20
176.8515535023
 40
1.6
 50
67.0670724072
 51
123.8241119773
  0
ARC
  8
0
 62
7
  6
CONTINUOUS
 10
99.2772737651
 20
179.2908737256
 40
1.6
 50
131.1758880227
 51
187.9329275928
  0
ARC
  8
0
 62
7
  6
CONTINUOUS
 10
102.2247512744
 20
182.2383512349
 40
1.6
 50
82.0670724072
 51
138.8241119773
  0
ARC
  8
0
 62
7
  6
CONTINUOUS
 10
104.6640714977
 20
185.4173352424
 40
1.6
 50
146.1758880227
 51
202.9329275928
  0
ARC
  8
0
 62
7
  6
CONTINUOUS
 10
97.197370112
 20
179.0010448211
 40
0.5
 50
307.8363189484
 51
27.5
  0
ARC
  8
0
 62
7
  6
CONTINUOUS
 10
96.9165616591
 20
178.7855729167
 40
0.5
 50
227.5
 51
307.1636810516
  0
ARC
  8
0
 62
7
  6
CONTINUOUS
 10
102.7300520833
 20
184.5990633409
 40
0.5
 50
322.8363189484
 51
42.5
  0
ARC
  8
0
 62
7
  6
CONTINUOUS
 10
102.5145801789
 20
184.318254888
 40
0.5
 50
242.5
 51
322.1636810516
  0
ARC
  8
0
 62
7
  6
CONTINUOUS
 10
105.0140722623
 20
187.2871480182
 40
3.0
 50
149.4563372506
 51
222.5
  0
ARC
  8
0
 62
7
  6
CONTINUOUS
 10
105.3039478501
 20
187.7892272641
 40
3.0
 50
77.5
 51
150.5436627494
  0
ARC
  8
0
 62
7
  6
CONTINUOUS
 10
108.1358052496
 20
194.6259358047
 40
3.0
 50
164.4563372506
 51
237.5
  0
ARC
  8
0
 62
7
  6
CONTINUOUS
 10
108.2858558953
 20
195.185932438
 40
3.0
 50
92.5
 51
165.5436627494
  0
ARC
  8
0
 62
7
  6
CONTINUOUS
 10
109.2517497177
 20
202.5226244122
 40
3.0
 50
179.4563372506
 51
252.5
  0
ARC
  8
0
 62
7
  6
CONTINUOUS
 10
106.7482528319
 20
189.0272432055
 40
1.6
 50
97.0670724072
 51
153.8241119773
  0
ARC
  8
0
 62
7
  6
CONTINUOUS
 10
108.281673629
 20
192.7292484906
 40
1.6
 50
161.1758880227
 51
217.9329275928
  0
ARC
  8
0
 62
7
  6
CONTINUOUS
 10
109.3605252745
 20
196.7555776454
 40
1.6
 50
112.0670724072
 51
168.8241119773
  0
ARC
  8
0
 62
7
  6
CONTINUOUS
 10
109.8835465521
 20
200.7283186657
 40
1.6
 50
176.1758880227
 51
232.9329275928
  0
ARC
  8
0
 62
7
  6
CONTINUOUS
 10
106.6253386803
 20
191.43829747
 40
0.5
 50
337.8363189484
 51
57.5
  0
ARC
  8
0
 62
7
  6
CONTINUOUS
 10
106.4898873786
 20
191.1112891005
 40
0.5
 50
257.5
 51
337.1636810516
  0
ARC
  8
0
 62
7
  6
CONTINUOUS
 10
108.6177725585
 20
199.0526647047
 40
0.5
 50
352.8363189484
 51
72.5
  0
ARC
  8
0
 62
7
  6
CONTINUOUS
 10
108.571572642
 20
198.7017414987
 40
0.5
 50
272.5
 51
352.1636810516
  0
ARC
  8
0
 62
7
  6
CONTINUOUS
 10
94.2284769818
 20
229.1234472623
 40
3.0
 50
239.4563372506
 51
312.5
  0
ARC
  8
0
 62
7
  6
CONTINUOUS
 10
93.7263977359
 20
229.4133228501
 40
3.0
 50
167.5
 51
240.5436627494
  0
ARC
  8
0
 62
7
  6
CONTINUOUS
 10
86.8896891953
 20
232.2451802496
 40
3.0
 50
254.4563372506
 51
327.5
  0
ARC
  8
0
 62
7
  6
CONTINUOUS
 10
86.329692562
 20
232.3952308953
 40
3.0
 50
182.5
 51
255.5436627494
  0
ARC
  8
0
 62
7
  6
CONTINUOUS
 10
92.4883817945
 20
230.8576278319
 40
1.6
 50
187.0670724072
 51
243.8241119773
  0
ARC
  8
0
 62
7
  6
CONTINUOUS
 10
88.7863765094
 20
232.391048629
 40
1.6
 50
251.1758880227
 51
307.9329275928
  0
ARC
  8
0
 62
7
  6
CONTINUOUS
 10
84.7600473546
 20
233.4699002745
 40
1.6
 50
202.0670724072
 51
258.8241119773
  0
ARC
  8
0
 62
7
  6
CONTINUOUS
 10
80.7873063343
 20
233.9929215521
 40
1.6
 50
266.1758880227
 51
322.9329275928
  0
ARC
  8
0
 62
7
  6
CONTINUOUS
 10
90.07732753
 20
230.7347136803
 40
0.5
 50
67.8363189484
 51
147.5
  0
ARC
  8
0
 62
7
  6
CONTINUOUS
 10
90.4043358995
 20
230.5992623786
 40
0.5
 50
347.5
 51
67.1636810516
  0
ARC
  8
0
 62
7
  6
CONTINUOUS
 10
82.4629602953
 20
232.7271475585
 40
0.5
 50
82.8363189484
 51
162.5
  0
ARC
  8
0
 62
7
  6
CONTINUOUS
 10
82.8138835013
 20
232.680947642
 40
0.5
 50
2.5
 51
82.1636810516
  0
ARC
  8
0
 62
7
  6
CONTINUOUS
 10
109.2517497177
 20
203.1023755878
 40
3.0
 50
107.5
 51
180.5436627494
  0
ARC
  8
0
 62
7
  6
CONTINUOUS
 10
108.2858558953
 20
210.439067562
 40
3.0
 50
194.4563372506
 51
267.5
  0
ARC
  8
0
 62
7
  6
CONTINUOUS
 10
108.1358052496
 20
210.9990641953
 40
3.0
 50
122.5
 51
195.5436627494
  0
ARC
  8
0
 62
7
  6
CONTINUOUS
 10
105.3039478501
 20
217.8357727359
 40
3.0
 50
209.4563372506
 51
282.5
  0
ARC
  8
0
 62
7
  6
CONTINUOUS
 10
105.0140722623
 20
218.3378519818
 40
3.0
 50
137.5
 51
210.5436627494
  0
ARC
  8
0
 62
7
  6
CONTINUOUS
 10
109.8835465521
 20
204.8966813343
 40
1.6
 50
127.0670724072
 51
183.8241119773
  0
ARC
  8
0
 62
7
  6
CONTINUOUS
 10
109.3605252745
 20
208.8694223546
 40
1.6
 50
191.1758880227
 51
247.9329275928
  0
ARC
  8
0
 62
7
  6
CONTINUOUS
 10
108.281673629
 20
212.8957515094
 40
1.6
 50
142.0670724072
 51
198.8241119773
  0
ARC
  8
0
 62
7
  6
CONTINUOUS
 10
106.7482528319
 20
216.5977567945
 40
1.6
 50
206.1758880227
 51
262.9329275928
  0
ARC
  8
0
 62
7
  6
CONTINUOUS
 10
108.571572642
 20
206.9232585013
 40
0.5
 50
7.8363189484
 51
87.5
  0
ARC
  8
0
 62
7
  6
CONTINUOUS
 10
108.6177725585
 20
206.5723352953
 40
0.5
 50
287.5
 51
7.1636810516
  0
ARC
  8
0
 62
7
  6
CONTINUOUS
 10
106.4898873786
 20
214.5137108995
 40
0.5
 50
22.8363189484
 51
102.5
  0
ARC
  8
0
 62
7
  6
CONTINUOUS
 10
106.6253386803
 20
214.18670253
 40
0.5
 50
302.5
 51
22.1636810516
  0
ARC
  8
0
 62
7
  6
CONTINUOUS
 10
100.5092376877
 20
224.2086667
 40
3.0
 50
224.4563372506
 51
297.5
  0
ARC
  8
0
 62
7
  6
CONTINUOUS
 10
100.0992917
 20
224.6186126877
 40
3.0
 50
152.5
 51
225.5436627494
  0
ARC
  8
0
 62
7
  6
CONTINUOUS
 10
104.6640714977
 20
220.2076647576
 40
1.6
 50
157.0670724072
 51
213.8241119773
  0
ARC
  8
0
 62
7
  6
CONTINUOUS
 10
102.2247512744
 20
223.3866487651
 40
1.6
 50
221.1758880227
 51
277.9329275928
  0
ARC
  8
0
 62
7
  6
CONTINUOUS
 10
99.2772737651
 20
226.3341262744
 40
1.6
 50
172.0670724072
 51
228.8241119773
  0
ARC
  8
0
 62
7
  6
CONTINUOUS
 10
96.0982897576
 20
228.7734464977
 40
1.6
 50
236.1758880227
 51
292.9329275928
  0
ARC
  8
0
 62
7
  6
CONTINUOUS
 10
102.5145801789
 20
221.306745112
 40
0.5
 50
37.8363189484
 51
117.5
  0
ARC
  8
0
 62
7
  6
CONTINUOUS
 10
102.7300520833
 20
221.0259366591
 40
0.5
 50
317.5
 51
37.1636810516
  0
ARC
  8
0
 62
7
  6
CONTINUOUS
 10
96.9165616591
 20
226.8394270833
 40
0.5
 50
52.8363189484
 51
132.5
  0
ARC
  8
0
 62
7
  6
CONTINUOUS
 10
97.197370112
 20
226.6239551789
 40
0.5
 50
332.5
 51
52.1636810516
  0
ENDSEC
  0
EOF
