  0
SECTION
  2
HEADER
  9
$EXTMAX
 10
210.0
 20
297.0
 30
0.0
  9
$EXTMIN
 10
0.0
 20
0.0
 30
0.0
  9
$LIMMIN
 10
0.0
 20
0.0
  9
$LIMMAX
 10
210.0
 20
297.0
  9
$VIEWCTR
 10
105.0
 20
148.5
  9
$VIEWSIZE
 40
297.0
  9
$CLAYER
  8
0
  9
$LTSCALE
 40
19.36
  9
$CELTYPE
  6
BYLAYER
  9
$DIMSCALE
 40
1.0
  9
$DIMASZ
 40
3.5
  9
$DIMEXO
 40
1.0
  9
$DIMDLI
 40
13.376
  9
$DIMEXE
 40
2.0
  9
$DIMCEN
 40
3.168
  9
$DIMLFAC
 40
1.0
  9
$DIMBLK
  1
_FILLED
  9
$DIMTXT
 40
3.5
  9
$AUNITS
 70
0
  9
$PDMODE
 70
3
  9
$PDSIZE
 40
0.3125
  9
$TILEMODE
 70
1
  0
ENDSEC
  0
SECTION
  2
TABLES
  0
TABLE
  2
LTYPE
 70
6
  0
LTYPE
  2
BYBLOCK
 70
0
  3

 72
65
 73
0
 40
0.0
  0
LTYPE
  2
BYLAYER
 70
0
  3

 72
65
 73
0
 40
0.0
  0
LTYPE
  2
CONTINUOUS
 70
64
  3
Solid line
 72
65
 73
0
 40
0.0
  0
LTYPE
  2
CENTER
 70
64
  3
____ _ ____ _ ____ _ ____ _ ____ _ ____ _ ____
 72
65
 73
4
 40
0.6
 49
0.375
 49
-0.075
 49
0.075
 49
-0.075
  0
LTYPE
  2
HIDDEN
 70
64
  3
- - - - - - - - - - - - - - - - - - - -
 72
65
 73
2
 40
0.2
 49
0.1
 49
-0.1
  0
LTYPE
  2
PHANTOM
 70
64
  3
_____ _ _ _____ _ _ _____ _ _ _____
 72
65
 73
6
 40
0.8
 49
0.45
 49
-0.05
 49
0.1
 49
-0.05
 49
0.1
 49
-0.05
  0
LTYPE
  2
DOT
 70
64
  3
. . . . . . . . . . . . . . . . . . . .
 72
65
 73
2
 40
0.2
 49
0.1
 49
-0.1
  0
LTYPE
  2
DASHED
 70
64
  3
- - - - - - - - - - - - - - - - - - - -
 72
65
 73
2
 40
0.2
 49
0.1
 49
-0.1
  0
ENDTAB
  0
TABLE
  2
LAYER
 70
36
  0
LAYER
  2
0
 70
0
 62
7
  6
CONTINUOUS
  0
LAYER
  2
DEFAULT_1
 70
0
 62
7
  6
CENTER
  0
LAYER
  2
DEFAULT_2
 70
0
 62
8
  6
HIDDEN
  0
LAYER
  2
DEFAULT_3
 70
0
 62
7
  6
PHANTOM
  0
LAYER
  2
01___PRT_ALL_DTM_PLN
 70
0
 62
7
  6
CONTINUOUS
  0
LAYER
  2
01___PRT_DEF_DTM_PLN
 70
0
 62
7
  6
CONTINUOUS
  0
LAYER
  2
02___PRT_ALL_AXES
 70
0
 62
7
  6
CONTINUOUS
  0
LAYER
  2
03___PRT_ALL_CURVES
 70
0
 62
7
  6
CONTINUOUS
  0
LAYER
  2
04___PRT_ALL_DTM_PNT
 70
0
 62
7
  6
CONTINUOUS
  0
LAYER
  2
05___PRT_ALL_DTM_CSYS
 70
0
 62
7
  6
CONTINUOUS
  0
LAYER
  2
05___PRT_DEF_DTM_CSYS
 70
0
 62
7
  6
CONTINUOUS
  0
LAYER
  2
06___PRT_ALL_SURFS
 70
0
 62
7
  6
CONTINUOUS
  0
ENDTAB
  0
TABLE
  2
STYLE
 70
1
  0
STYLE
  2
STANDARD
 70
0
 40
0.0
 41
0.8
 50
0.0
 71
0
 42
0.2
  3
txt
  4

  0
STYLE
  2
TEXTSTYLE_1
 70
0
 40
0.0
 41
0.8
 50
0.0
 71
0
 42
0.2
  3
gdt
  4

  0
STYLE
  2
TEXTSTYLE_2
 70
0
 40
0.0
 41
0.6
 50
0.0
 71
0
 42
0.2
  3
txt
  4

  0
STYLE
  2
TEXTSTYLE_3
 70
0
 40
0.0
 41
1.0
 50
0.0
 71
0
 42
0.2
  3
ftb_____.ttf
  4

  0
STYLE
  2
TEXTSTYLE_4
 70
0
 40
0.0
 41
1.0
 50
0.0
 71
0
 42
0.2
  3
fti_____.ttf
  4

  0
STYLE
  2
TEXTSTYLE_5
 70
0
 40
0.0
 41
1.0
 50
0.0
 71
0
 42
0.2
  3
frutiger light.ttf
  4

  0
STYLE
  2
TEXTSTYLE_6
 70
0
 40
0.0
 41
0.7
 50
0.0
 71
0
 42
0.2
  3
txt
  4

  0
STYLE
  2
TEXTSTYLE_7
 70
0
 40
0.0
 41
0.8
 50
0.0
 71
0
 42
0.2
  3
txt
  4

  0
ENDTAB
  0
ENDSEC
  0
SECTION
  2
BLOCKS
  0
BLOCK
  8
0
 62
2
  6
CONTINUOUS
  2
UNI_LOGO2_BL1
 70
64
 10
173.5956734183
 20
35.5937998301
  0
TEXT
  8
0
 62
7
  6
CONTINUOUS
 10
164.6539584268
 20
30.6865562072
  7
TEXTSTYLE_4
 40
1.0655737705
  1
The brand for plastic modular belts and chains
 41
1.0
 72
0
  0
LINE
  8
0
 62
7
  6
CONTINUOUS
 10
149.5737418074
 20
36.1675703219
 11
149.5737418074
 21
34.0364227809
  0
LINE
  8
0
 62
7
  6
CONTINUOUS
 10
149.8628043005
 20
31.0454914852
 11
149.8628043005
 21
31.1422825445
  0
LINE
  8
0
 62
7
  6
CONTINUOUS
 10
149.5737418074
 20
31.1100188581
 11
149.6315543091
 21
30.9164367395
  0
LINE
  8
0
 62
7
  6
CONTINUOUS
 10
150.9671844304
 20
33.9544555678
 11
150.9671844304
 21
36.1675703219
  0
LINE
  8
0
 62
7
  6
CONTINUOUS
 10
151.8862417523
 20
32.1101932727
 11
151.8862417523
 21
30.5937998301
  0
LINE
  8
0
 62
7
  6
CONTINUOUS
 10
152.1753043074
 20
30.5937998301
 11
152.1753043074
 21
31.3358647082
  0
LINE
  8
0
 62
7
  6
CONTINUOUS
 10
152.1753043074
 20
31.4649194539
 11
152.1753043074
 21
32.1101932727
  0
LINE
  8
0
 62
7
  6
CONTINUOUS
 10
149.6315543091
 20
31.3036010218
 11
149.5737418074
 21
31.1100188581
  0
LINE
  8
0
 62
7
  6
CONTINUOUS
 10
149.9784292936
 20
30.8841730531
 11
149.8628043005
 21
31.0454914852
  0
LINE
  8
0
 62
7
  6
CONTINUOUS
 10
151.0768668626
 20
31.400392081
 11
151.1346793074
 21
31.3036010218
  0
LINE
  8
0
 62
7
  6
CONTINUOUS
 10
151.4237418626
 20
31.3036010218
 11
151.3659292523
 21
31.4326557675
  0
LINE
  8
0
 62
7
  6
CONTINUOUS
 10
152.852430332
 20
36.1675703219
 11
152.852430332
 21
34.3642916334
  0
LINE
  8
0
 62
7
  6
CONTINUOUS
 10
152.852430332
 20
33.0528162235
 11
152.852430332
 21
32.3970785186
  0
LINE
  8
0
 62
7
  6
CONTINUOUS
 10
153.2159293074
 20
31.2390736489
 11
153.2159293074
 21
30.5937998301
  0
LINE
  8
0
 62
7
  6
CONTINUOUS
 10
153.5049916972
 20
30.5937998301
 11
153.5049916972
 21
31.2390736489
  0
LINE
  8
0
 62
7
  6
CONTINUOUS
 10
149.8628043005
 20
31.1422825445
 11
149.9206168074
 21
31.2713373354
  0
LINE
  8
0
 62
7
  6
CONTINUOUS
 10
149.6315543091
 20
30.9164367395
 11
149.7471793074
 21
30.7873819712
  0
LINE
  8
0
 62
7
  6
CONTINUOUS
 10
153.1581166972
 20
31.3681283946
 11
153.2159293074
 21
31.2390736489
  0
LINE
  8
0
 62
7
  6
CONTINUOUS
 10
153.9674919177
 20
30.8841730531
 11
154.0253041972
 21
30.7551182848
  0
LINE
  8
0
 62
7
  6
CONTINUOUS
 10
153.5049916972
 20
31.2390736489
 11
153.4471794177
 21
31.400392081
  0
LINE
  8
0
 62
7
  6
CONTINUOUS
 10
153.9674919177
 20
31.4326557675
 11
153.9674919177
 21
31.3681283946
  0
LINE
  8
0
 62
7
  6
CONTINUOUS
 10
153.9674919177
 20
30.9809641124
 11
153.9674919177
 21
30.8841730531
  0
LINE
  8
0
 62
7
  6
CONTINUOUS
 10
154.245872955
 20
32.3970785186
 11
154.245872955
 21
36.1675703219
  0
LINE
  8
0
 62
7
  6
CONTINUOUS
 10
154.2565543074
 20
30.8519093441
 11
154.2565543074
 21
30.9164367395
  0
LINE
  8
0
 62
7
  6
CONTINUOUS
 10
154.5737418074
 20
36.1675703219
 11
154.5737418074
 21
32.3970785186
  0
LINE
  8
0
 62
7
  6
CONTINUOUS
 10
151.3659292523
 20
30.7873819712
 11
151.4237418626
 21
30.9164367395
  0
LINE
  8
0
 62
7
  6
CONTINUOUS
 10
155.759679528
 20
30.6905909007
 11
155.7018665869
 21
30.8519093441
  0
LINE
  8
0
 62
7
  6
CONTINUOUS
 10
155.412804528
 20
31.3681283946
 11
155.412804528
 21
31.2713373354
  0
LINE
  8
0
 62
7
  6
CONTINUOUS
 10
155.412804528
 20
31.1422825445
 11
155.412804528
 21
30.9487004259
  0
LINE
  8
0
 62
7
  6
CONTINUOUS
 10
155.7018665869
 20
30.8519093441
 11
155.7018665869
 21
31.3681283946
  0
LINE
  8
0
 62
7
  6
CONTINUOUS
 10
155.9671844304
 20
32.3970785186
 11
155.9671844304
 21
34.2003572071
  0
LINE
  8
0
 62
7
  6
CONTINUOUS
 10
155.9671844304
 20
35.511832617
 11
155.9671844304
 21
36.1675703219
  0
LINE
  8
0
 62
7
  6
CONTINUOUS
 10
156.279992028
 20
32.1101932727
 11
156.279992028
 21
31.9488748406
  0
LINE
  8
0
 62
7
  6
CONTINUOUS
 10
156.279992028
 20
31.626237886
 11
156.279992028
 21
30.5937998301
  0
LINE
  8
0
 62
7
  6
CONTINUOUS
 10
156.5690540869
 20
30.5937998301
 11
156.5690540869
 21
31.626237886
  0
LINE
  8
0
 62
7
  6
CONTINUOUS
 10
156.5690540869
 20
31.9488748406
 11
156.5690540869
 21
32.1101932727
  0
LINE
  8
0
 62
7
  6
CONTINUOUS
 10
151.1346793074
 20
30.9164367395
 11
151.0768668626
 21
30.8196456577
  0
LINE
  8
0
 62
7
  6
CONTINUOUS
 10
153.4471794177
 20
31.400392081
 11
153.3893668074
 21
31.4649194539
  0
LINE
  8
0
 62
7
  6
CONTINUOUS
 10
154.3143669177
 20
30.7873819712
 11
154.2565543074
 21
30.8519093441
  0
LINE
  8
0
 62
7
  6
CONTINUOUS
 10
155.4706168074
 20
30.6583272086
 11
155.5284290869
 21
30.5937998301
  0
LINE
  8
0
 62
7
  6
CONTINUOUS
 10
155.412804528
 20
30.7551182848
 11
155.4706168074
 21
30.6583272086
  0
LINE
  8
0
 62
7
  6
CONTINUOUS
 10
155.8174918074
 20
30.5937998301
 11
155.759679528
 21
30.6905909007
  0
LINE
  8
0
 62
7
  6
CONTINUOUS
 10
155.7018665869
 20
31.3681283946
 11
155.6440543074
 21
31.4649194539
  0
LINE
  8
0
 62
7
  6
CONTINUOUS
 10
157.0315543074
 20
31.626237886
 11
157.0315543074
 21
30.5937998301
  0
LINE
  8
0
 62
7
  6
CONTINUOUS
 10
157.320617028
 20
30.5937998301
 11
157.320617028
 21
31.3358647082
  0
LINE
  8
0
 62
7
  6
CONTINUOUS
 10
157.320617028
 20
31.4649194539
 11
157.320617028
 21
31.626237886
  0
LINE
  8
0
 62
7
  6
CONTINUOUS
 10
157.852430332
 20
34.6101932727
 11
157.852430332
 21
32.3970785186
  0
LINE
  8
0
 62
7
  6
CONTINUOUS
 10
149.7471793074
 20
31.4326557675
 11
149.6315543091
 21
31.3036010218
  0
LINE
  8
0
 62
7
  6
CONTINUOUS
 10
149.9206168074
 20
31.2713373354
 11
149.9784292936
 21
31.3358647082
  0
LINE
  8
0
 62
7
  6
CONTINUOUS
 10
149.7471793074
 20
30.7873819712
 11
149.8628043005
 21
30.7228545871
  0
LINE
  8
0
 62
7
  6
CONTINUOUS
 10
150.1518667936
 20
30.7873819712
 11
149.9784292936
 21
30.8841730531
  0
LINE
  8
0
 62
7
  6
CONTINUOUS
 10
155.3549915869
 20
31.4326557675
 11
155.412804528
 21
31.3681283946
  0
LINE
  8
0
 62
7
  6
CONTINUOUS
 10
158.3034290869
 20
31.3681283946
 11
158.361242028
 21
31.2068099625
  0
LINE
  8
0
 62
7
  6
CONTINUOUS
 10
158.6503040869
 20
31.2068099625
 11
158.5924918074
 21
31.3681283946
  0
LINE
  8
0
 62
7
  6
CONTINUOUS
 10
158.361242028
 20
31.2068099625
 11
158.361242028
 21
30.5937998301
  0
LINE
  8
0
 62
7
  6
CONTINUOUS
 10
158.6503040869
 20
30.5937998301
 11
158.6503040869
 21
31.2068099625
  0
LINE
  8
0
 62
7
  6
CONTINUOUS
 10
159.1128043074
 20
31.4326557675
 11
159.1128043074
 21
31.3681283946
  0
LINE
  8
0
 62
7
  6
CONTINUOUS
 10
159.245872955
 20
32.3970785186
 11
159.245872955
 21
34.5282260596
  0
LINE
  8
0
 62
7
  6
CONTINUOUS
 10
159.5737418074
 20
36.1675703219
 11
159.5737418074
 21
32.3970785186
  0
LINE
  8
0
 62
7
  6
CONTINUOUS
 10
154.2565543074
 20
30.9164367395
 11
154.3143669177
 21
31.0132277988
  0
LINE
  8
0
 62
7
  6
CONTINUOUS
 10
149.8628043005
 20
30.7228545871
 11
150.0362418212
 21
30.6583272086
  0
LINE
  8
0
 62
7
  6
CONTINUOUS
 10
151.3659292523
 20
31.4326557675
 11
151.1924917523
 21
31.5294468267
  0
LINE
  8
0
 62
7
  6
CONTINUOUS
 10
154.0253041972
 20
30.7551182848
 11
154.1987416972
 21
30.6583272086
  0
LINE
  8
0
 62
7
  6
CONTINUOUS
 10
153.0424918074
 20
31.4326557675
 11
153.1581166972
 21
31.3681283946
  0
LINE
  8
0
 62
7
  6
CONTINUOUS
 10
153.3893668074
 20
31.4649194539
 11
153.2737419177
 21
31.5294468267
  0
LINE
  8
0
 62
7
  6
CONTINUOUS
 10
159.1128043074
 20
30.8519093441
 11
159.228429528
 21
30.7228545871
  0
LINE
  8
0
 62
7
  6
CONTINUOUS
 10
159.4596793074
 20
30.7873819712
 11
159.401867028
 21
30.8519093441
  0
LINE
  8
0
 62
7
  6
CONTINUOUS
 10
159.1128043074
 20
31.3681283946
 11
159.228429528
 21
31.2390736489
  0
LINE
  8
0
 62
7
  6
CONTINUOUS
 10
158.5924918074
 20
31.3681283946
 11
158.534679528
 21
31.4649194539
  0
LINE
  8
0
 62
7
  6
CONTINUOUS
 10
160.9628038663
 20
30.7873819712
 11
160.9628038663
 21
30.8519093441
  0
LINE
  8
0
 62
7
  6
CONTINUOUS
 10
160.9671844304
 20
32.3970785186
 11
160.9671844304
 21
36.1675703219
  0
LINE
  8
0
 62
7
  6
CONTINUOUS
 10
154.0253041972
 20
31.4971831403
 11
153.9674919177
 21
31.4326557675
  0
LINE
  8
0
 62
7
  6
CONTINUOUS
 10
150.9034292799
 20
31.4649194539
 11
151.0768668626
 21
31.400392081
  0
LINE
  8
0
 62
7
  6
CONTINUOUS
 10
155.6440543074
 20
31.4649194539
 11
155.5284290869
 21
31.5294468267
  0
LINE
  8
0
 62
7
  6
CONTINUOUS
 10
159.4596793074
 20
31.3036010218
 11
159.401867028
 21
31.3681283946
  0
LINE
  8
0
 62
7
  6
CONTINUOUS
 10
160.615929528
 20
30.9164367395
 11
160.6737418074
 21
30.8519093441
  0
LINE
  8
0
 62
7
  6
CONTINUOUS
 10
160.9628038663
 20
30.8519093441
 11
160.8471793074
 21
30.9809641124
  0
LINE
  8
0
 62
7
  6
CONTINUOUS
 10
160.615929528
 20
31.4326557675
 11
160.6737418074
 21
31.3681283946
  0
LINE
  8
0
 62
7
  6
CONTINUOUS
 10
160.9628038663
 20
31.3681283946
 11
160.8471793074
 21
31.4971831403
  0
LINE
  8
0
 62
7
  6
CONTINUOUS
 10
154.2565543074
 20
31.3681283946
 11
154.3143669177
 21
31.4326557675
  0
LINE
  8
0
 62
7
  6
CONTINUOUS
 10
154.0831168074
 20
31.1100188581
 11
153.9674919177
 21
30.9809641124
  0
LINE
  8
0
 62
7
  6
CONTINUOUS
 10
155.412804528
 20
30.9487004259
 11
155.3549915869
 21
30.8841730531
  0
LINE
  8
0
 62
7
  6
CONTINUOUS
 10
155.3549915869
 20
30.6905909007
 11
155.412804528
 21
30.7551182848
  0
LINE
  8
0
 62
7
  6
CONTINUOUS
 10
154.1987416972
 20
30.6583272086
 11
154.3143669177
 21
30.6260635193
  0
LINE
  8
0
 62
7
  6
CONTINUOUS
 10
151.1924917523
 20
31.5294468267
 11
150.9612418074
 21
31.5939741996
  0
LINE
  8
0
 62
7
  6
CONTINUOUS
 10
154.5456166972
 20
30.7228545871
 11
154.3143669177
 21
30.7873819712
  0
LINE
  8
0
 62
7
  6
CONTINUOUS
 10
153.2737419177
 20
31.5294468267
 11
153.1003044177
 21
31.5939741996
  0
LINE
  8
0
 62
7
  6
CONTINUOUS
 10
155.5284290869
 20
31.5294468267
 11
155.3549915869
 21
31.5939741996
  0
LINE
  8
0
 62
7
  6
CONTINUOUS
 10
158.187804528
 20
31.4326557675
 11
158.3034290869
 21
31.3681283946
  0
LINE
  8
0
 62
7
  6
CONTINUOUS
 10
158.534679528
 20
31.4649194539
 11
158.4190543074
 21
31.5294468267
  0
LINE
  8
0
 62
7
  6
CONTINUOUS
 10
150.0362418212
 20
30.6583272086
 11
150.2096793212
 21
30.6260635193
  0
LINE
  8
0
 62
7
  6
CONTINUOUS
 10
150.498741835
 20
30.7228545871
 11
150.1518667936
 21
30.7873819712
  0
LINE
  8
0
 62
7
  6
CONTINUOUS
 10
152.9268669177
 20
31.4649194539
 11
153.0424918074
 21
31.4326557675
  0
LINE
  8
0
 62
7
  6
CONTINUOUS
 10
155.239367028
 20
31.4649194539
 11
155.3549915869
 21
31.4326557675
  0
LINE
  8
0
 62
7
  6
CONTINUOUS
 10
159.575304528
 20
30.7551182848
 11
159.4596793074
 21
30.7873819712
  0
LINE
  8
0
 62
7
  6
CONTINUOUS
 10
158.0721793074
 20
31.4649194539
 11
158.187804528
 21
31.4326557675
  0
LINE
  8
0
 62
7
  6
CONTINUOUS
 10
159.228429528
 20
30.7228545871
 11
159.401867028
 21
30.6583272086
  0
LINE
  8
0
 62
7
  6
CONTINUOUS
 10
158.4190543074
 20
31.5294468267
 11
158.2456168074
 21
31.5939741996
  0
LINE
  8
0
 62
7
  6
CONTINUOUS
 10
159.6331168074
 20
31.2390736489
 11
159.4596793074
 21
31.3036010218
  0
LINE
  8
0
 62
7
  6
CONTINUOUS
 10
160.442492028
 20
30.9809641124
 11
160.615929528
 21
30.9164367395
  0
LINE
  8
0
 62
7
  6
CONTINUOUS
 10
160.8471793074
 20
31.4971831403
 11
160.6737418074
 21
31.5617105132
  0
LINE
  8
0
 62
7
  6
CONTINUOUS
 10
159.228429528
 20
31.2390736489
 11
159.4596793074
 21
31.1422825445
  0
LINE
  8
0
 62
7
  6
CONTINUOUS
 10
160.8471793074
 20
30.9809641124
 11
160.615929528
 21
31.0777551716
  0
LINE
  8
0
 62
7
  6
CONTINUOUS
 10
159.401867028
 20
31.3681283946
 11
159.4596793074
 21
31.4326557675
  0
LINE
  8
0
 62
7
  6
CONTINUOUS
 10
149.8628043005
 20
31.4971831403
 11
149.7471793074
 21
31.4326557675
  0
LINE
  8
0
 62
7
  6
CONTINUOUS
 10
149.9784292936
 20
31.3358647082
 11
150.1518667936
 21
31.4326557675
  0
LINE
  8
0
 62
7
  6
CONTINUOUS
 10
152.2909293626
 20
31.5294468267
 11
152.1753043074
 21
31.4649194539
  0
LINE
  8
0
 62
7
  6
CONTINUOUS
 10
152.1753043074
 20
31.3358647082
 11
152.2909293626
 21
31.400392081
  0
LINE
  8
0
 62
7
  6
CONTINUOUS
 10
151.1924917523
 20
30.6905909007
 11
151.3659292523
 21
30.7873819712
  0
LINE
  8
0
 62
7
  6
CONTINUOUS
 10
150.2096793212
 20
30.6260635193
 11
150.5565542799
 21
30.5937998301
  0
LINE
  8
0
 62
7
  6
CONTINUOUS
 10
154.3143669177
 20
30.6260635193
 11
154.5456166972
 21
30.5937998301
  0
LINE
  8
0
 62
7
  6
CONTINUOUS
 10
152.6956168074
 20
31.4971831403
 11
152.9268669177
 21
31.4649194539
  0
LINE
  8
0
 62
7
  6
CONTINUOUS
 10
155.0081169177
 20
31.4971831403
 11
155.239367028
 21
31.4649194539
  0
LINE
  8
0
 62
7
  6
CONTINUOUS
 10
159.4596793074
 20
31.1422825445
 11
160.442492028
 21
30.9809641124
  0
LINE
  8
0
 62
7
  6
CONTINUOUS
 10
160.615929528
 20
31.0777551716
 11
159.6331168074
 21
31.2390736489
  0
LINE
  8
0
 62
7
  6
CONTINUOUS
 10
153.1003044177
 20
31.5939741996
 11
152.9268669177
 21
31.626237886
  0
LINE
  8
0
 62
7
  6
CONTINUOUS
 10
159.401867028
 20
30.6583272086
 11
159.575304528
 21
30.6260635193
  0
LINE
  8
0
 62
7
  6
CONTINUOUS
 10
158.2456168074
 20
31.5939741996
 11
158.0721793074
 21
31.626237886
  0
LINE
  8
0
 62
7
  6
CONTINUOUS
 10
160.5003043074
 20
31.4649194539
 11
160.615929528
 21
31.4326557675
  0
LINE
  8
0
 62
7
  6
CONTINUOUS
 10
160.6737418074
 20
30.8519093441
 11
160.615929528
 21
30.7873819712
  0
LINE
  8
0
 62
7
  6
CONTINUOUS
 10
159.228429528
 20
31.5294468267
 11
159.1128043074
 21
31.4326557675
  0
LINE
  8
0
 62
7
  6
CONTINUOUS
 10
154.1409294177
 20
31.5617105132
 11
154.0253041972
 21
31.4971831403
  0
LINE
  8
0
 62
7
  6
CONTINUOUS
 10
154.1987416972
 20
31.1745462761
 11
154.0831168074
 21
31.1100188581
  0
LINE
  8
0
 62
7
  6
CONTINUOUS
 10
154.3143669177
 20
31.0132277988
 11
154.4299918074
 21
31.0777551716
  0
LINE
  8
0
 62
7
  6
CONTINUOUS
 10
151.8862417523
 20
30.5937998301
 11
152.1753043074
 21
30.5937998301
  0
LINE
  8
0
 62
7
  6
CONTINUOUS
 10
153.2159293074
 20
30.5937998301
 11
153.5049916972
 21
30.5937998301
  0
LINE
  8
0
 62
7
  6
CONTINUOUS
 10
154.5456166972
 20
30.5937998301
 11
154.8924916972
 21
30.5937998301
  0
LINE
  8
0
 62
7
  6
CONTINUOUS
 10
155.5284290869
 20
30.5937998301
 11
155.8174918074
 21
30.5937998301
  0
LINE
  8
0
 62
7
  6
CONTINUOUS
 10
156.279992028
 20
30.5937998301
 11
156.5690540869
 21
30.5937998301
  0
LINE
  8
0
 62
7
  6
CONTINUOUS
 10
157.0315543074
 20
30.5937998301
 11
157.320617028
 21
30.5937998301
  0
LINE
  8
0
 62
7
  6
CONTINUOUS
 10
158.361242028
 20
30.5937998301
 11
158.6503040869
 21
30.5937998301
  0
LINE
  8
0
 62
7
  6
CONTINUOUS
 10
159.922179528
 20
30.5937998301
 11
160.269054528
 21
30.5937998301
  0
LINE
  8
0
 62
7
  6
CONTINUOUS
 10
160.269054528
 20
30.7228545871
 11
159.922179528
 21
30.7228545871
  0
LINE
  8
0
 62
7
  6
CONTINUOUS
 10
154.8924916972
 20
30.7228545871
 11
154.5456166972
 21
30.7228545871
  0
LINE
  8
0
 62
7
  6
CONTINUOUS
 10
159.401867028
 20
30.8519093441
 11
159.1128043074
 21
30.8519093441
  0
LINE
  8
0
 62
7
  6
CONTINUOUS
 10
151.4237418626
 20
30.9164367395
 11
151.1346793074
 21
30.9164367395
  0
LINE
  8
0
 62
7
  6
CONTINUOUS
 10
150.498741835
 20
31.4971831403
 11
150.9034292799
 21
31.4649194539
  0
LINE
  8
0
 62
7
  6
CONTINUOUS
 10
150.9612418074
 20
31.5939741996
 11
150.5565542799
 21
31.626237886
  0
LINE
  8
0
 62
7
  6
CONTINUOUS
 10
159.575304528
 20
30.6260635193
 11
159.922179528
 21
30.5937998301
  0
LINE
  8
0
 62
7
  6
CONTINUOUS
 10
159.922179528
 20
30.7228545871
 11
159.575304528
 21
30.7551182848
  0
LINE
  8
0
 62
7
  6
CONTINUOUS
 10
155.3549915869
 20
31.5939741996
 11
155.0081169177
 21
31.626237886
  0
LINE
  8
0
 62
7
  6
CONTINUOUS
 10
160.1534293074
 20
31.4971831403
 11
160.5003043074
 21
31.4649194539
  0
LINE
  8
0
 62
7
  6
CONTINUOUS
 10
160.5003043074
 20
31.5939741996
 11
160.1534293074
 21
31.626237886
  0
LINE
  8
0
 62
7
  6
CONTINUOUS
 10
157.840929528
 20
31.4971831403
 11
158.0721793074
 21
31.4649194539
  0
LINE
  8
0
 62
7
  6
CONTINUOUS
 10
160.6737418074
 20
31.5617105132
 11
160.5003043074
 21
31.5939741996
  0
LINE
  8
0
 62
7
  6
CONTINUOUS
 10
160.8471793074
 20
30.6905909007
 11
160.9628038663
 21
30.7873819712
  0
LINE
  8
0
 62
7
  6
CONTINUOUS
 10
155.3549915869
 20
30.8841730531
 11
155.1815540869
 21
30.7873819712
  0
LINE
  8
0
 62
7
  6
CONTINUOUS
 10
157.4362415869
 20
31.5294468267
 11
157.320617028
 21
31.4649194539
  0
LINE
  8
0
 62
7
  6
CONTINUOUS
 10
157.320617028
 20
31.3358647082
 11
157.4362415869
 21
31.400392081
  0
LINE
  8
0
 62
7
  6
CONTINUOUS
 10
150.0362418212
 20
31.5617105132
 11
149.8628043005
 21
31.4971831403
  0
LINE
  8
0
 62
7
  6
CONTINUOUS
 10
152.4643666972
 20
31.5939741996
 11
152.2909293626
 21
31.5294468267
  0
LINE
  8
0
 62
7
  6
CONTINUOUS
 10
152.2909293626
 20
31.400392081
 11
152.4643666972
 21
31.4649194539
  0
LINE
  8
0
 62
7
  6
CONTINUOUS
 10
151.0768668626
 20
30.8196456577
 11
150.9034292799
 21
30.7551182848
  0
LINE
  8
0
 62
7
  6
CONTINUOUS
 10
160.5003043074
 20
30.7551182848
 11
160.269054528
 21
30.7228545871
  0
LINE
  8
0
 62
7
  6
CONTINUOUS
 10
154.8924916972
 20
30.5937998301
 11
155.1815540869
 21
30.6260635193
  0
LINE
  8
0
 62
7
  6
CONTINUOUS
 10
160.269054528
 20
30.5937998301
 11
160.615929528
 21
30.6260635193
  0
LINE
  8
0
 62
7
  6
CONTINUOUS
 10
150.5565542799
 20
30.5937998301
 11
150.9612418074
 21
30.6260635193
  0
LINE
  8
0
 62
7
  6
CONTINUOUS
 10
150.9034292799
 20
30.7551182848
 11
150.498741835
 21
30.7228545871
  0
LINE
  8
0
 62
7
  6
CONTINUOUS
 10
154.7768668074
 20
31.1422825445
 11
155.412804528
 21
31.1422825445
  0
LINE
  8
0
 62
7
  6
CONTINUOUS
 10
155.412804528
 20
31.2713373354
 11
154.7768668074
 21
31.2713373354
  0
LINE
  8
0
 62
7
  6
CONTINUOUS
 10
151.1346793074
 20
31.3036010218
 11
151.4237418626
 21
31.3036010218
  0
LINE
  8
0
 62
7
  6
CONTINUOUS
 10
153.9674919177
 20
31.3681283946
 11
154.2565543074
 21
31.3681283946
  0
LINE
  8
0
 62
7
  6
CONTINUOUS
 10
160.6737418074
 20
31.3681283946
 11
160.9628038663
 21
31.3681283946
  0
LINE
  8
0
 62
7
  6
CONTINUOUS
 10
154.6612419177
 20
31.4971831403
 11
155.0081169177
 21
31.4971831403
  0
LINE
  8
0
 62
7
  6
CONTINUOUS
 10
159.8065543074
 20
31.4971831403
 11
160.1534293074
 21
31.4971831403
  0
LINE
  8
0
 62
7
  6
CONTINUOUS
 10
160.1534293074
 20
31.626237886
 11
159.8065543074
 21
31.626237886
  0
LINE
  8
0
 62
7
  6
CONTINUOUS
 10
158.0721793074
 20
31.626237886
 11
157.840929528
 21
31.626237886
  0
LINE
  8
0
 62
7
  6
CONTINUOUS
 10
157.320617028
 20
31.626237886
 11
157.0315543074
 21
31.626237886
  0
LINE
  8
0
 62
7
  6
CONTINUOUS
 10
156.5690540869
 20
31.626237886
 11
156.279992028
 21
31.626237886
  0
LINE
  8
0
 62
7
  6
CONTINUOUS
 10
155.0081169177
 20
31.626237886
 11
154.6612419177
 21
31.626237886
  0
LINE
  8
0
 62
7
  6
CONTINUOUS
 10
152.9268669177
 20
31.626237886
 11
152.6956168074
 21
31.626237886
  0
LINE
  8
0
 62
7
  6
CONTINUOUS
 10
156.279992028
 20
31.9488748406
 11
156.5690540869
 21
31.9488748406
  0
LINE
  8
0
 62
7
  6
CONTINUOUS
 10
156.5690540869
 20
32.1101932727
 11
156.279992028
 21
32.1101932727
  0
LINE
  8
0
 62
7
  6
CONTINUOUS
 10
152.1753043074
 20
32.1101932727
 11
151.8862417523
 21
32.1101932727
  0
LINE
  8
0
 62
7
  6
CONTINUOUS
 10
151.2130860697
 20
32.3970785186
 11
151.6256574183
 21
32.3970785186
  0
LINE
  8
0
 62
7
  6
CONTINUOUS
 10
152.852430332
 20
32.3970785186
 11
154.245872955
 21
32.3970785186
  0
LINE
  8
0
 62
7
  6
CONTINUOUS
 10
154.5737418074
 20
32.3970785186
 11
155.9671844304
 21
32.3970785186
  0
LINE
  8
0
 62
7
  6
CONTINUOUS
 10
157.852430332
 20
32.3970785186
 11
159.245872955
 21
32.3970785186
  0
LINE
  8
0
 62
7
  6
CONTINUOUS
 10
159.5737418074
 20
32.3970785186
 11
160.9671844304
 21
32.3970785186
  0
LINE
  8
0
 62
7
  6
CONTINUOUS
 10
157.6096790869
 20
31.5939741996
 11
157.4362415869
 21
31.5294468267
  0
LINE
  8
0
 62
7
  6
CONTINUOUS
 10
155.1815540869
 20
30.6260635193
 11
155.3549915869
 21
30.6905909007
  0
LINE
  8
0
 62
7
  6
CONTINUOUS
 10
160.615929528
 20
30.6260635193
 11
160.8471793074
 21
30.6905909007
  0
LINE
  8
0
 62
7
  6
CONTINUOUS
 10
160.615929528
 20
30.7873819712
 11
160.5003043074
 21
30.7551182848
  0
LINE
  8
0
 62
7
  6
CONTINUOUS
 10
159.575304528
 20
31.4649194539
 11
159.8065543074
 21
31.4971831403
  0
LINE
  8
0
 62
7
  6
CONTINUOUS
 10
157.6096790869
 20
31.4649194539
 11
157.840929528
 21
31.4971831403
  0
LINE
  8
0
 62
7
  6
CONTINUOUS
 10
154.5456166972
 20
31.1100188581
 11
154.7768668074
 21
31.1422825445
  0
LINE
  8
0
 62
7
  6
CONTINUOUS
 10
157.840929528
 20
31.626237886
 11
157.6096790869
 21
31.5939741996
  0
LINE
  8
0
 62
7
  6
CONTINUOUS
 10
154.4299918074
 20
31.4649194539
 11
154.6612419177
 21
31.4971831403
  0
LINE
  8
0
 62
7
  6
CONTINUOUS
 10
159.8065543074
 20
31.626237886
 11
159.4596793074
 21
31.5939741996
  0
LINE
  8
0
 62
7
  6
CONTINUOUS
 10
154.7768668074
 20
31.2713373354
 11
154.4299918074
 21
31.2390736489
  0
LINE
  8
0
 62
7
  6
CONTINUOUS
 10
150.5565542799
 20
31.626237886
 11
150.2096793212
 21
31.5939741996
  0
LINE
  8
0
 62
7
  6
CONTINUOUS
 10
154.6612419177
 20
31.626237886
 11
154.2565543074
 21
31.5939741996
  0
LINE
  8
0
 62
7
  6
CONTINUOUS
 10
152.0327582009
 20
33.5446195022
 11
151.3770204959
 21
33.5446195022
  0
LINE
  8
0
 62
7
  6
CONTINUOUS
 10
157.4362415869
 20
31.400392081
 11
157.6096790869
 21
31.4649194539
  0
LINE
  8
0
 62
7
  6
CONTINUOUS
 10
159.4596793074
 20
31.4326557675
 11
159.575304528
 21
31.4649194539
  0
LINE
  8
0
 62
7
  6
CONTINUOUS
 10
159.4596793074
 20
31.5939741996
 11
159.228429528
 21
31.5294468267
  0
LINE
  8
0
 62
7
  6
CONTINUOUS
 10
155.1815540869
 20
30.7873819712
 11
154.8924916972
 21
30.7228545871
  0
LINE
  8
0
 62
7
  6
CONTINUOUS
 10
152.4643666972
 20
31.4649194539
 11
152.6956168074
 21
31.4971831403
  0
LINE
  8
0
 62
7
  6
CONTINUOUS
 10
152.6956168074
 20
31.626237886
 11
152.4643666972
 21
31.5939741996
  0
LINE
  8
0
 62
7
  6
CONTINUOUS
 10
150.2674918074
 20
31.4649194539
 11
150.498741835
 21
31.4971831403
  0
LINE
  8
0
 62
7
  6
CONTINUOUS
 10
156.7868565615
 20
35.0200293383
 11
157.4425942664
 21
35.0200293383
  0
LINE
  8
0
 62
7
  6
CONTINUOUS
 10
154.4299918074
 20
31.0777551716
 11
154.5456166972
 21
31.1100188581
  0
LINE
  8
0
 62
7
  6
CONTINUOUS
 10
154.4299918074
 20
31.2390736489
 11
154.1987416972
 21
31.1745462761
  0
LINE
  8
0
 62
7
  6
CONTINUOUS
 10
154.3143669177
 20
31.4326557675
 11
154.4299918074
 21
31.4649194539
  0
LINE
  8
0
 62
7
  6
CONTINUOUS
 10
150.9612418074
 20
30.6260635193
 11
151.1924917523
 21
30.6905909007
  0
LINE
  8
0
 62
7
  6
CONTINUOUS
 10
154.2565543074
 20
31.5939741996
 11
154.1409294177
 21
31.5617105132
  0
LINE
  8
0
 62
7
  6
CONTINUOUS
 10
150.2096793212
 20
31.5939741996
 11
150.0362418212
 21
31.5617105132
  0
LINE
  8
0
 62
7
  6
CONTINUOUS
 10
160.9671844304
 20
36.1675703219
 11
159.5737418074
 21
36.1675703219
  0
LINE
  8
0
 62
7
  6
CONTINUOUS
 10
157.6065286927
 20
36.1675703219
 11
157.1939573441
 21
36.1675703219
  0
LINE
  8
0
 62
7
  6
CONTINUOUS
 10
155.9671844304
 20
36.1675703219
 11
154.5737418074
 21
36.1675703219
  0
LINE
  8
0
 62
7
  6
CONTINUOUS
 10
154.245872955
 20
36.1675703219
 11
152.852430332
 21
36.1675703219
  0
LINE
  8
0
 62
7
  6
CONTINUOUS
 10
150.9671844304
 20
36.1675703219
 11
149.5737418074
 21
36.1675703219
  0
LINE
  8
0
 62
7
  6
CONTINUOUS
 10
150.1518667936
 20
31.4326557675
 11
150.2674918074
 21
31.4649194539
  0
CIRCLE
  8
0
 62
7
  6
CONTINUOUS
 10
160.2704631189
 20
38.5036358957
 40
2.0901639344
  0
ARC
  8
0
 62
7
  6
CONTINUOUS
 10
151.2130860697
 20
34.0364227809
 40
1.6393442623
 50
180.0
 51
270.0
  0
ARC
  8
0
 62
7
  6
CONTINUOUS
 10
157.6065286927
 20
34.5282260596
 40
1.6393442623
 50
0.0
 51
90.0
  0
ARC
  8
0
 62
7
  6
CONTINUOUS
 10
151.6256574183
 20
33.8724883547
 40
1.4754098361
 50
270.0
 51
326.2510114041
  0
ARC
  8
0
 62
7
  6
CONTINUOUS
 10
157.1939573441
 20
34.6921604858
 40
1.4754098361
 50
90.0
 51
146.2510114041
  0
ARC
  8
0
 62
7
  6
CONTINUOUS
 10
152.0327582009
 20
34.3642916334
 40
0.8196721311
 50
270.0
 51
360.0
  0
ARC
  8
0
 62
7
  6
CONTINUOUS
 10
156.7868565615
 20
34.2003572071
 40
0.8196721311
 50
90.0
 51
180.0
  0
ARC
  8
0
 62
7
  6
CONTINUOUS
 10
151.3770204959
 20
33.9544555678
 40
0.4098360656
 50
180.0
 51
270.0
  0
ARC
  8
0
 62
7
  6
CONTINUOUS
 10
157.4425942664
 20
34.6101932727
 40
0.4098360656
 50
0.0
 51
90.0
  0
SOLID
  8
0
 62
7
  6
CONTINUOUS
 10
156.279992028
 20
31.9488752009
 11
156.279992028
 21
32.1101936845
 12
156.5690540869
 22
31.9488752009
 13
156.5690540869
 23
32.1101936845
  0
SOLID
  8
0
 62
7
  6
CONTINUOUS
 10
150.5565542799
 20
31.6262382337
 11
150.9612418074
 21
31.5939740028
 12
150.2096793212
 22
31.5939740028
 13
150.2096793212
 23
31.5939740028
  0
SOLID
  8
0
 62
7
  6
CONTINUOUS
 10
150.0362418212
 20
31.5617111435
 11
150.2096793212
 21
31.5939740028
 12
150.9612418074
 22
31.5939740028
 13
150.9612418074
 23
31.5939740028
  0
SOLID
  8
0
 62
7
  6
CONTINUOUS
 10
150.9612418074
 20
31.5939740028
 11
151.1924917523
 21
31.5294468402
 12
150.0362418212
 22
31.5617111435
 13
150.0362418212
 23
31.5617111435
  0
SOLID
  8
0
 62
7
  6
CONTINUOUS
 10
149.8628043005
 20
31.49718259
 11
150.0362418212
 21
31.5617111435
 12
151.1924917523
 22
31.5294468402
 13
151.1924917523
 23
31.5294468402
  0
SOLID
  8
0
 62
7
  6
CONTINUOUS
 10
149.8628043005
 20
31.49718259
 11
151.1924917523
 21
31.5294468402
 12
150.498741835
 22
31.49718259
 13
150.498741835
 23
31.49718259
  0
SOLID
  8
0
 62
7
  6
CONTINUOUS
 10
150.498741835
 20
31.49718259
 11
151.1924917523
 21
31.5294468402
 12
150.9034292799
 22
31.4649197501
 13
150.9034292799
 23
31.4649197501
  0
SOLID
  8
0
 62
7
  6
CONTINUOUS
 10
151.1924917523
 20
31.5294468402
 11
151.3659292523
 21
31.4326554468
 12
150.9034292799
 22
31.4649197501
 13
150.9034292799
 23
31.4649197501
  0
SOLID
  8
0
 62
7
  6
CONTINUOUS
 10
151.0768668626
 20
31.4003926599
 11
150.9034292799
 21
31.4649197501
 12
151.3659292523
 22
31.4326554468
 13
151.3659292523
 23
31.4326554468
  0
SOLID
  8
0
 62
7
  6
CONTINUOUS
 10
151.0768668626
 20
31.4003926599
 11
151.3659292523
 21
31.4326554468
 12
151.1346793074
 22
31.3036013776
 13
151.1346793074
 23
31.3036013776
  0
SOLID
  8
0
 62
7
  6
CONTINUOUS
 10
151.3659292523
 20
31.4326554468
 11
151.4237418626
 21
31.3036013776
 12
151.1346793074
 22
31.3036013776
 13
151.1346793074
 23
31.3036013776
  0
SOLID
  8
0
 62
7
  6
CONTINUOUS
 10
152.4643666972
 20
31.5939739754
 11
152.6956168074
 21
31.6262382787
 12
152.9268669177
 22
31.6262382787
 13
152.9268669177
 23
31.6262382787
  0
SOLID
  8
0
 62
7
  6
CONTINUOUS
 10
152.9268669177
 20
31.6262382787
 11
153.1003044177
 21
31.5939739754
 12
152.4643666972
 22
31.5939739754
 13
152.4643666972
 23
31.5939739754
  0
SOLID
  8
0
 62
7
  6
CONTINUOUS
 10
152.2909293626
 20
31.5294468852
 11
152.4643666972
 21
31.5939739754
 12
153.1003044177
 22
31.5939739754
 13
153.1003044177
 23
31.5939739754
  0
SOLID
  8
0
 62
7
  6
CONTINUOUS
 10
153.1003044177
 20
31.5939739754
 11
153.2737419177
 21
31.5294468852
 12
152.2909293626
 22
31.5294468852
 13
152.2909293626
 23
31.5294468852
  0
SOLID
  8
0
 62
7
  6
CONTINUOUS
 10
153.2737419177
 20
31.5294468852
 11
152.6956168074
 21
31.4971825369
 12
152.2909293626
 22
31.5294468852
 13
152.2909293626
 23
31.5294468852
  0
SOLID
  8
0
 62
7
  6
CONTINUOUS
 10
152.1753043074
 20
31.4649197951
 11
152.2909293626
 21
31.5294468852
 12
152.6956168074
 22
31.4971825369
 13
152.6956168074
 23
31.4971825369
  0
SOLID
  8
0
 62
7
  6
CONTINUOUS
 10
152.6956168074
 20
31.4971825369
 11
152.4643666972
 21
31.4649197951
 12
152.1753043074
 22
31.4649197951
 13
152.1753043074
 23
31.4649197951
  0
SOLID
  8
0
 62
7
  6
CONTINUOUS
 10
152.6956168074
 20
31.4971825369
 11
153.2737419177
 21
31.5294468852
 12
152.9268669177
 22
31.4649197951
 13
152.9268669177
 23
31.4649197951
  0
SOLID
  8
0
 62
7
  6
CONTINUOUS
 10
153.2737419177
 20
31.5294468852
 11
153.3893668074
 21
31.4649197951
 12
152.9268669177
 22
31.4649197951
 13
152.9268669177
 23
31.4649197951
  0
SOLID
  8
0
 62
7
  6
CONTINUOUS
 10
153.0424918074
 20
31.4326554468
 11
152.9268669177
 21
31.4649197951
 12
153.3893668074
 22
31.4649197951
 13
153.3893668074
 23
31.4649197951
  0
SOLID
  8
0
 62
7
  6
CONTINUOUS
 10
153.3893668074
 20
31.4649197951
 11
153.4471794177
 21
31.4003927049
 12
153.0424918074
 22
31.4326554468
 13
153.0424918074
 23
31.4326554468
  0
SOLID
  8
0
 62
7
  6
CONTINUOUS
 10
153.1581166972
 20
31.3681283566
 11
153.0424918074
 21
31.4326554468
 12
153.4471794177
 22
31.4003927049
 13
153.4471794177
 23
31.4003927049
  0
SOLID
  8
0
 62
7
  6
CONTINUOUS
 10
153.1581166972
 20
31.3681283566
 11
153.4471794177
 21
31.4003927049
 12
153.2159293074
 22
31.2390742213
 13
153.2159293074
 23
31.2390742213
  0
SOLID
  8
0
 62
7
  6
CONTINUOUS
 10
153.4471794177
 20
31.4003927049
 11
153.5049916972
 21
31.2390742213
 12
153.2159293074
 22
31.2390742213
 13
153.2159293074
 23
31.2390742213
  0
SOLID
  8
0
 62
7
  6
CONTINUOUS
 10
152.4643666972
 20
31.4649197951
 11
152.2909293626
 21
31.4003927049
 12
152.1753043074
 22
31.4649197951
 13
152.1753043074
 23
31.4649197951
  0
SOLID
  8
0
 62
7
  6
CONTINUOUS
 10
152.2909293626
 20
31.4003927049
 11
152.1753043074
 21
31.3358640533
 12
152.1753043074
 22
31.4649197951
 13
152.1753043074
 23
31.4649197951
  0
SOLID
  8
0
 62
7
  6
CONTINUOUS
 10
152.1753043074
 20
31.3358640533
 11
151.8862417523
 21
30.5938002869
 12
152.1753043074
 22
31.4649197951
 13
152.1753043074
 23
31.4649197951
  0
SOLID
  8
0
 62
7
  6
CONTINUOUS
 10
152.1753043074
 20
31.4649197951
 11
151.8862417523
 21
30.5938002869
 12
152.1753043074
 22
32.1101937295
 13
152.1753043074
 23
32.1101937295
  0
SOLID
  8
0
 62
7
  6
CONTINUOUS
 10
151.8862417523
 20
30.5938002869
 11
151.8862417523
 21
32.1101937295
 12
152.1753043074
 22
32.1101937295
 13
152.1753043074
 23
32.1101937295
  0
SOLID
  8
0
 62
7
  6
CONTINUOUS
 10
152.1753043074
 20
31.3358640533
 11
152.1753043074
 21
30.5938002869
 12
151.8862417523
 22
30.5938002869
 13
151.8862417523
 23
30.5938002869
  0
SOLID
  8
0
 62
7
  6
CONTINUOUS
 10
153.2159293074
 20
30.5938002869
 11
153.2159293074
 21
31.2390742213
 12
153.5049916972
 22
31.2390742213
 13
153.5049916972
 23
31.2390742213
  0
SOLID
  8
0
 62
7
  6
CONTINUOUS
 10
153.5049916972
 20
31.2390742213
 11
153.5049916972
 21
30.5938002869
 12
153.2159293074
 22
30.5938002869
 13
153.2159293074
 23
30.5938002869
  0
SOLID
  8
0
 62
7
  6
CONTINUOUS
 10
154.2565543074
 20
31.5939738288
 11
154.6612419177
 21
31.6262385959
 12
155.0081169177
 22
31.6262385959
 13
155.0081169177
 23
31.6262385959
  0
SOLID
  8
0
 62
7
  6
CONTINUOUS
 10
155.0081169177
 20
31.6262385959
 11
155.3549915869
 21
31.5939738288
 12
154.2565543074
 22
31.5939738288
 13
154.2565543074
 23
31.5939738288
  0
SOLID
  8
0
 62
7
  6
CONTINUOUS
 10
154.1409294177
 20
31.5617111435
 11
154.2565543074
 21
31.5939738288
 12
155.3549915869
 22
31.5939738288
 13
155.3549915869
 23
31.5939738288
  0
SOLID
  8
0
 62
7
  6
CONTINUOUS
 10
155.3549915869
 20
31.5939738288
 11
155.5284290869
 21
31.5294468402
 12
154.1409294177
 22
31.5617111435
 13
154.1409294177
 23
31.5617111435
  0
SOLID
  8
0
 62
7
  6
CONTINUOUS
 10
154.0253041972
 20
31.4971826249
 11
154.1409294177
 21
31.5617111435
 12
155.5284290869
 22
31.5294468402
 13
155.5284290869
 23
31.5294468402
  0
SOLID
  8
0
 62
7
  6
CONTINUOUS
 10
154.0253041972
 20
31.4971826249
 11
155.5284290869
 21
31.5294468402
 12
154.6612419177
 22
31.4971826249
 13
154.6612419177
 23
31.4971826249
  0
SOLID
  8
0
 62
7
  6
CONTINUOUS
 10
154.6612419177
 20
31.4971826249
 11
155.5284290869
 21
31.5294468402
 12
155.0081169177
 22
31.4971826249
 13
155.0081169177
 23
31.4971826249
  0
SOLID
  8
0
 62
7
  6
CONTINUOUS
 10
155.0081169177
 20
31.4971826249
 11
155.5284290869
 21
31.5294468402
 12
155.239367028
 22
31.4649194065
 13
155.239367028
 23
31.4649194065
  0
SOLID
  8
0
 62
7
  6
CONTINUOUS
 10
155.5284290869
 20
31.5294468402
 11
155.6440543074
 21
31.4649194065
 12
155.239367028
 22
31.4649194065
 13
155.239367028
 23
31.4649194065
  0
SOLID
  8
0
 62
7
  6
CONTINUOUS
 10
153.9674919177
 20
31.4326554138
 11
154.0253041972
 21
31.4971826249
 12
154.6612419177
 22
31.4971826249
 13
154.6612419177
 23
31.4971826249
  0
SOLID
  8
0
 62
7
  6
CONTINUOUS
 10
155.3549915869
 20
31.4326554138
 11
155.239367028
 21
31.4649194065
 12
155.6440543074
 22
31.4649194065
 13
155.6440543074
 23
31.4649194065
  0
SOLID
  8
0
 62
7
  6
CONTINUOUS
 10
155.3549915869
 20
31.4326554138
 11
155.6440543074
 21
31.4649194065
 12
155.412804528
 22
31.3681282026
 13
155.412804528
 23
31.3681282026
  0
SOLID
  8
0
 62
7
  6
CONTINUOUS
 10
155.6440543074
 20
31.4649194065
 11
155.7018665869
 21
31.3681282026
 12
155.412804528
 22
31.3681282026
 13
155.412804528
 23
31.3681282026
  0
SOLID
  8
0
 62
7
  6
CONTINUOUS
 10
155.412804528
 20
31.2713369632
 11
155.412804528
 21
31.3681282026
 12
155.7018665869
 22
31.3681282026
 13
155.7018665869
 23
31.3681282026
  0
SOLID
  8
0
 62
7
  6
CONTINUOUS
 10
155.412804528
 20
31.2713369632
 11
155.7018665869
 21
31.3681282026
 12
155.412804528
 22
31.1422827828
 13
155.412804528
 23
31.1422827828
  0
SOLID
  8
0
 62
7
  6
CONTINUOUS
 10
155.412804528
 20
31.1422827828
 11
155.7018665869
 21
31.3681282026
 12
155.412804528
 22
30.9487004259
 13
155.412804528
 23
30.9487004259
  0
SOLID
  8
0
 62
7
  6
CONTINUOUS
 10
155.7018665869
 20
31.3681282026
 11
155.7018665869
 21
30.8519086025
 12
155.412804528
 22
30.9487004259
 13
155.412804528
 23
30.9487004259
  0
SOLID
  8
0
 62
7
  6
CONTINUOUS
 10
157.6096790869
 20
31.5939736268
 11
157.840929528
 21
31.6262383465
 12
158.0721793074
 22
31.6262383465
 13
158.0721793074
 23
31.6262383465
  0
SOLID
  8
0
 62
7
  6
CONTINUOUS
 10
158.0721793074
 20
31.6262383465
 11
158.2456168074
 21
31.5939736268
 12
157.6096790869
 22
31.5939736268
 13
157.6096790869
 23
31.5939736268
  0
SOLID
  8
0
 62
7
  6
CONTINUOUS
 10
157.4362415869
 20
31.5294472848
 11
157.6096790869
 21
31.5939736268
 12
158.2456168074
 22
31.5939736268
 13
158.2456168074
 23
31.5939736268
  0
SOLID
  8
0
 62
7
  6
CONTINUOUS
 10
158.2456168074
 20
31.5939736268
 11
158.4190543074
 21
31.5294472848
 12
157.4362415869
 22
31.5294472848
 13
157.4362415869
 23
31.5294472848
  0
SOLID
  8
0
 62
7
  6
CONTINUOUS
 10
158.4190543074
 20
31.5294472848
 11
157.840929528
 21
31.4971825369
 12
157.4362415869
 22
31.5294472848
 13
157.4362415869
 23
31.5294472848
  0
SOLID
  8
0
 62
7
  6
CONTINUOUS
 10
157.320617028
 20
31.4649199103
 11
157.4362415869
 21
31.5294472848
 12
157.840929528
 22
31.4971825369
 13
157.840929528
 23
31.4971825369
  0
SOLID
  8
0
 62
7
  6
CONTINUOUS
 10
157.840929528
 20
31.4971825369
 11
157.6096790869
 21
31.4649199103
 12
157.320617028
 22
31.4649199103
 13
157.320617028
 23
31.4649199103
  0
SOLID
  8
0
 62
7
  6
CONTINUOUS
 10
157.840929528
 20
31.4971825369
 11
158.4190543074
 21
31.5294472848
 12
158.0721793074
 22
31.4649199103
 13
158.0721793074
 23
31.4649199103
  0
SOLID
  8
0
 62
7
  6
CONTINUOUS
 10
158.4190543074
 20
31.5294472848
 11
158.534679528
 21
31.4649199103
 12
158.0721793074
 22
31.4649199103
 13
158.0721793074
 23
31.4649199103
  0
SOLID
  8
0
 62
7
  6
CONTINUOUS
 10
158.187804528
 20
31.4326554468
 11
158.0721793074
 21
31.4649199103
 12
158.534679528
 22
31.4649199103
 13
158.534679528
 23
31.4649199103
  0
SOLID
  8
0
 62
7
  6
CONTINUOUS
 10
158.187804528
 20
31.4326554468
 11
158.534679528
 21
31.4649199103
 12
158.3034290869
 22
31.3681288486
 13
158.3034290869
 23
31.3681288486
  0
SOLID
  8
0
 62
7
  6
CONTINUOUS
 10
158.534679528
 20
31.4649199103
 11
158.5924918074
 21
31.3681288486
 12
158.3034290869
 22
31.3681288486
 13
158.3034290869
 23
31.3681288486
  0
SOLID
  8
0
 62
7
  6
CONTINUOUS
 10
158.361242028
 20
31.2068093799
 11
158.3034290869
 21
31.3681288486
 12
158.5924918074
 22
31.3681288486
 13
158.5924918074
 23
31.3681288486
  0
SOLID
  8
0
 62
7
  6
CONTINUOUS
 10
158.5924918074
 20
31.3681288486
 11
158.6503040869
 21
31.2068093799
 12
158.361242028
 22
31.2068093799
 13
158.361242028
 23
31.2068093799
  0
SOLID
  8
0
 62
7
  6
CONTINUOUS
 10
157.6096790869
 20
31.4649199103
 11
157.4362415869
 21
31.4003926599
 12
157.320617028
 22
31.4649199103
 13
157.320617028
 23
31.4649199103
  0
SOLID
  8
0
 62
7
  6
CONTINUOUS
 10
157.4362415869
 20
31.4003926599
 11
157.320617028
 21
31.3358640533
 12
157.320617028
 22
31.4649199103
 13
157.320617028
 23
31.4649199103
  0
SOLID
  8
0
 62
7
  6
CONTINUOUS
 10
157.320617028
 20
31.3358640533
 11
157.0315543074
 21
30.5938003547
 12
157.320617028
 22
31.4649199103
 13
157.320617028
 23
31.4649199103
  0
SOLID
  8
0
 62
7
  6
CONTINUOUS
 10
157.320617028
 20
31.4649199103
 11
157.0315543074
 21
30.5938003547
 12
157.320617028
 22
31.6262383465
 13
157.320617028
 23
31.6262383465
  0
SOLID
  8
0
 62
7
  6
CONTINUOUS
 10
157.0315543074
 20
30.5938003547
 11
157.0315543074
 21
31.6262383465
 12
157.320617028
 22
31.6262383465
 13
157.320617028
 23
31.6262383465
  0
SOLID
  8
0
 62
7
  6
CONTINUOUS
 10
157.320617028
 20
31.3358640533
 11
157.320617028
 21
30.5938003547
 12
157.0315543074
 22
30.5938003547
 13
157.0315543074
 23
30.5938003547
  0
SOLID
  8
0
 62
7
  6
CONTINUOUS
 10
158.361242028
 20
30.5938003547
 11
158.361242028
 21
31.2068093799
 12
158.6503040869
 22
31.2068093799
 13
158.6503040869
 23
31.2068093799
  0
SOLID
  8
0
 62
7
  6
CONTINUOUS
 10
158.6503040869
 20
31.2068093799
 11
158.6503040869
 21
30.5938003547
 12
158.361242028
 22
30.5938003547
 13
158.361242028
 23
30.5938003547
  0
SOLID
  8
0
 62
7
  6
CONTINUOUS
 10
159.4596793074
 20
31.5939739474
 11
159.8065543074
 21
31.6262381969
 12
160.1534293074
 22
31.6262381969
 13
160.1534293074
 23
31.6262381969
  0
SOLID
  8
0
 62
7
  6
CONTINUOUS
 10
160.1534293074
 20
31.6262381969
 11
160.5003043074
 21
31.5939739474
 12
159.4596793074
 22
31.5939739474
 13
159.4596793074
 23
31.5939739474
  0
SOLID
  8
0
 62
7
  6
CONTINUOUS
 10
159.228429528
 20
31.5294468402
 11
159.4596793074
 21
31.5939739474
 12
160.5003043074
 22
31.5939739474
 13
160.5003043074
 23
31.5939739474
  0
SOLID
  8
0
 62
7
  6
CONTINUOUS
 10
159.228429528
 20
31.5294468402
 11
160.5003043074
 21
31.5939739304
 12
160.6737418074
 22
31.5617111435
 13
160.6737418074
 23
31.5617111435
  0
SOLID
  8
0
 62
7
  6
CONTINUOUS
 10
159.228429528
 20
31.5294468402
 11
160.6737418074
 21
31.5617111435
 12
159.8065543074
 22
31.4971825592
 13
159.8065543074
 23
31.4971825592
  0
SOLID
  8
0
 62
7
  6
CONTINUOUS
 10
159.8065543074
 20
31.4971825592
 11
160.6737418074
 21
31.5617111435
 12
160.1534293074
 22
31.4971825592
 13
160.1534293074
 23
31.4971825592
  0
SOLID
  8
0
 62
7
  6
CONTINUOUS
 10
160.6737418074
 20
31.5617111435
 11
160.8471793074
 21
31.4971825592
 12
160.1534293074
 22
31.4971825592
 13
160.1534293074
 23
31.4971825592
  0
SOLID
  8
0
 62
7
  6
CONTINUOUS
 10
160.5003043074
 20
31.4649197501
 11
160.1534293074
 21
31.4971825592
 12
160.8471793074
 22
31.4971825592
 13
160.8471793074
 23
31.4971825592
  0
SOLID
  8
0
 62
7
  6
CONTINUOUS
 10
159.1128043074
 20
31.4326555427
 11
159.228429528
 21
31.5294468402
 12
159.8065543074
 22
31.4971825592
 13
159.8065543074
 23
31.4971825592
  0
SOLID
  8
0
 62
7
  6
CONTINUOUS
 10
160.5003043074
 20
31.4649197501
 11
160.8471793074
 21
31.4971825592
 12
160.615929528
 22
31.4326555427
 13
160.615929528
 23
31.4326555427
  0
SOLID
  8
0
 62
7
  6
CONTINUOUS
 10
160.615929528
 20
31.4326555427
 11
160.8471793074
 21
31.4971825592
 12
160.6737418074
 22
31.3681283005
 13
160.6737418074
 23
31.3681283005
  0
SOLID
  8
0
 62
7
  6
CONTINUOUS
 10
160.8471793074
 20
31.4971825592
 11
160.9628038663
 21
31.3681283005
 12
160.6737418074
 22
31.3681283005
 13
160.6737418074
 23
31.3681283005
  0
SOLID
  8
0
 62
7
  6
CONTINUOUS
 10
150.2674918074
 20
31.4649197501
 11
149.7471793074
 21
31.4326554237
 12
150.498741835
 22
31.4971824493
 13
150.498741835
 23
31.4971824493
  0
SOLID
  8
0
 62
7
  6
CONTINUOUS
 10
149.7471793074
 20
31.4326554237
 11
149.8628043005
 21
31.4971824493
 12
150.498741835
 22
31.4971824493
 13
150.498741835
 23
31.4971824493
  0
SOLID
  8
0
 62
7
  6
CONTINUOUS
 10
150.2674918074
 20
31.4649197501
 11
150.1518667936
 21
31.4326554237
 12
149.7471793074
 22
31.4326554237
 13
149.7471793074
 23
31.4326554237
  0
SOLID
  8
0
 62
7
  6
CONTINUOUS
 10
149.6315543091
 20
31.3036012664
 11
149.7471793074
 21
31.4326554237
 12
150.1518667936
 22
31.4326554237
 13
150.1518667936
 23
31.4326554237
  0
SOLID
  8
0
 62
7
  6
CONTINUOUS
 10
153.9674919177
 20
31.4326554237
 11
154.6612419177
 21
31.4971825369
 12
154.4299918074
 22
31.4649197501
 13
154.4299918074
 23
31.4649197501
  0
SOLID
  8
0
 62
7
  6
CONTINUOUS
 10
154.4299918074
 20
31.4649197501
 11
154.3143669177
 21
31.4326554237
 12
153.9674919177
 22
31.4326554237
 13
153.9674919177
 23
31.4326554237
  0
SOLID
  8
0
 62
7
  6
CONTINUOUS
 10
153.9674919177
 20
31.3681283335
 11
153.9674919177
 21
31.4326554237
 12
154.3143669177
 22
31.4326554237
 13
154.3143669177
 23
31.4326554237
  0
SOLID
  8
0
 62
7
  6
CONTINUOUS
 10
154.3143669177
 20
31.4326554237
 11
154.2565543074
 21
31.3681283335
 12
153.9674919177
 22
31.3681283335
 13
153.9674919177
 23
31.3681283335
  0
SOLID
  8
0
 62
7
  6
CONTINUOUS
 10
159.1128043074
 20
31.4326555528
 11
159.8065543074
 21
31.4971825369
 12
159.575304528
 22
31.4649197501
 13
159.575304528
 23
31.4649197501
  0
SOLID
  8
0
 62
7
  6
CONTINUOUS
 10
159.575304528
 20
31.4649197501
 11
159.4596793074
 21
31.4326555528
 12
159.1128043074
 22
31.4326555528
 13
159.1128043074
 23
31.4326555528
  0
SOLID
  8
0
 62
7
  6
CONTINUOUS
 10
159.1128043074
 20
31.3681284626
 11
159.1128043074
 21
31.4326555528
 12
159.4596793074
 22
31.4326555528
 13
159.4596793074
 23
31.4326555528
  0
SOLID
  8
0
 62
7
  6
CONTINUOUS
 10
159.4596793074
 20
31.4326555528
 11
159.401867028
 21
31.3681284626
 12
159.1128043074
 22
31.3681284626
 13
159.1128043074
 23
31.3681284626
  0
SOLID
  8
0
 62
7
  6
CONTINUOUS
 10
159.228429528
 20
31.2390741763
 11
159.1128043074
 21
31.3681284626
 12
159.401867028
 22
31.3681284626
 13
159.401867028
 23
31.3681284626
  0
SOLID
  8
0
 62
7
  6
CONTINUOUS
 10
149.6315543091
 20
31.3036012664
 11
150.1518667936
 21
31.4326554468
 12
149.9784292936
 22
31.3358640533
 13
149.9784292936
 23
31.3358640533
  0
SOLID
  8
0
 62
7
  6
CONTINUOUS
 10
149.9784292936
 20
31.3358640533
 11
149.9206168074
 21
31.2713369632
 12
149.6315543091
 22
31.3036012664
 13
149.6315543091
 23
31.3036012664
  0
SOLID
  8
0
 62
7
  6
CONTINUOUS
 10
149.5737418074
 20
31.1100184796
 11
149.6315543091
 21
31.3036012664
 12
149.9206168074
 22
31.2713369632
 13
149.9206168074
 23
31.2713369632
  0
SOLID
  8
0
 62
7
  6
CONTINUOUS
 10
154.4299918074
 20
31.2390741763
 11
154.7768668074
 21
31.271336924
 12
155.412804528
 22
31.271336924
 13
155.412804528
 23
31.271336924
  0
SOLID
  8
0
 62
7
  6
CONTINUOUS
 10
154.4299918074
 20
31.2390741763
 11
155.412804528
 21
31.271336924
 12
154.1987416972
 22
31.1745462761
 13
154.1987416972
 23
31.1745462761
  0
SOLID
  8
0
 62
7
  6
CONTINUOUS
 10
154.1987416972
 20
31.1745462761
 11
155.412804528
 21
31.271336924
 12
154.7768668074
 22
31.1422827436
 13
154.7768668074
 23
31.1422827436
  0
SOLID
  8
0
 62
7
  6
CONTINUOUS
 10
155.412804528
 20
31.271336924
 11
155.412804528
 21
31.1422827436
 12
154.7768668074
 22
31.1422827436
 13
154.7768668074
 23
31.1422827436
  0
SOLID
  8
0
 62
7
  6
CONTINUOUS
 10
159.228429528
 20
31.2390745501
 11
159.401867028
 21
31.3681283566
 12
159.4596793074
 22
31.3036012664
 13
159.4596793074
 23
31.3036012664
  0
SOLID
  8
0
 62
7
  6
CONTINUOUS
 10
159.4596793074
 20
31.3036012664
 11
159.6331168074
 21
31.2390745501
 12
159.228429528
 22
31.2390745501
 13
159.228429528
 23
31.2390745501
  0
SOLID
  8
0
 62
7
  6
CONTINUOUS
 10
159.4596793074
 20
31.1422827828
 11
159.228429528
 21
31.2390745501
 12
159.6331168074
 22
31.2390745501
 13
159.6331168074
 23
31.2390745501
  0
SOLID
  8
0
 62
7
  6
CONTINUOUS
 10
159.6331168074
 20
31.2390745501
 11
160.615929528
 21
31.0777556927
 12
159.4596793074
 22
31.1422827828
 13
159.4596793074
 23
31.1422827828
  0
SOLID
  8
0
 62
7
  6
CONTINUOUS
 10
160.442492028
 20
30.9809646623
 11
159.4596793074
 21
31.1422827828
 12
160.615929528
 22
31.0777556927
 13
160.615929528
 23
31.0777556927
  0
SOLID
  8
0
 62
7
  6
CONTINUOUS
 10
160.615929528
 20
31.0777556927
 11
160.8471793074
 21
30.9809646623
 12
160.442492028
 22
30.9809646623
 13
160.442492028
 23
30.9809646623
  0
SOLID
  8
0
 62
7
  6
CONTINUOUS
 10
160.615929528
 20
30.9164372091
 11
160.442492028
 21
30.9809646623
 12
160.8471793074
 22
30.9809646623
 13
160.8471793074
 23
30.9809646623
  0
SOLID
  8
0
 62
7
  6
CONTINUOUS
 10
160.615929528
 20
30.9164372091
 11
160.8471793074
 21
30.9809646623
 12
160.6737418074
 22
30.8519089441
 13
160.6737418074
 23
30.8519089441
  0
SOLID
  8
0
 62
7
  6
CONTINUOUS
 10
160.8471793074
 20
30.9809646623
 11
160.9628038663
 21
30.8519089441
 12
160.6737418074
 22
30.8519089441
 13
160.6737418074
 23
30.8519089441
  0
SOLID
  8
0
 62
7
  6
CONTINUOUS
 10
160.615929528
 20
30.7873818593
 11
160.6737418074
 21
30.8519089441
 12
160.9628038663
 22
30.8519089441
 13
160.9628038663
 23
30.8519089441
  0
SOLID
  8
0
 62
7
  6
CONTINUOUS
 10
160.9628038663
 20
30.8519089441
 11
160.9628038663
 21
30.7873818593
 12
160.615929528
 22
30.7873818593
 13
160.615929528
 23
30.7873818593
  0
SOLID
  8
0
 62
7
  6
CONTINUOUS
 10
160.5003043074
 20
30.7551187255
 11
160.615929528
 21
30.7873818593
 12
160.9628038663
 22
30.7873818593
 13
160.9628038663
 23
30.7873818593
  0
SOLID
  8
0
 62
7
  6
CONTINUOUS
 10
160.5003043074
 20
30.7551187255
 11
160.9628038663
 21
30.7873818593
 12
160.269054528
 22
30.7228547745
 13
160.269054528
 23
30.7228547745
  0
SOLID
  8
0
 62
7
  6
CONTINUOUS
 10
160.9628038663
 20
30.7873818593
 11
160.8471793074
 21
30.6905916353
 12
160.269054528
 22
30.7228547745
 13
160.269054528
 23
30.7228547745
  0
SOLID
  8
0
 62
7
  6
CONTINUOUS
 10
160.8471793074
 20
30.6905916353
 11
159.401867028
 21
30.658327332
 12
160.269054528
 22
30.7228547745
 13
160.269054528
 23
30.7228547745
  0
SOLID
  8
0
 62
7
  6
CONTINUOUS
 10
160.269054528
 20
30.7228547745
 11
159.401867028
 21
30.658327332
 12
159.922179528
 22
30.7228547745
 13
159.922179528
 23
30.7228547745
  0
SOLID
  8
0
 62
7
  6
CONTINUOUS
 10
159.401867028
 20
30.658327332
 11
159.228429528
 21
30.7228547745
 12
159.922179528
 22
30.7228547745
 13
159.922179528
 23
30.7228547745
  0
SOLID
  8
0
 62
7
  6
CONTINUOUS
 10
159.401867028
 20
30.658327332
 11
160.8471793074
 21
30.6905916353
 12
159.575304528
 22
30.6260629858
 13
159.575304528
 23
30.6260629858
  0
SOLID
  8
0
 62
7
  6
CONTINUOUS
 10
160.8471793074
 20
30.6905916353
 11
160.615929528
 21
30.6260629858
 12
159.575304528
 22
30.6260629858
 13
159.575304528
 23
30.6260629858
  0
SOLID
  8
0
 62
7
  6
CONTINUOUS
 10
159.922179528
 20
30.5938006049
 11
159.575304528
 21
30.6260629858
 12
160.615929528
 22
30.6260629858
 13
160.615929528
 23
30.6260629858
  0
SOLID
  8
0
 62
7
  6
CONTINUOUS
 10
160.615929528
 20
30.6260629858
 11
160.269054528
 21
30.5938006049
 12
159.922179528
 22
30.5938006049
 13
159.922179528
 23
30.5938006049
  0
SOLID
  8
0
 62
7
  6
CONTINUOUS
 10
149.5737418074
 20
31.1100184796
 11
149.9206168074
 21
31.2713369632
 12
149.8628043005
 22
31.1422827828
 13
149.8628043005
 23
31.1422827828
  0
SOLID
  8
0
 62
7
  6
CONTINUOUS
 10
149.8628043005
 20
31.1422827828
 11
149.8628043005
 21
31.0454914852
 12
149.5737418074
 22
31.1100184796
 13
149.5737418074
 23
31.1100184796
  0
SOLID
  8
0
 62
7
  6
CONTINUOUS
 10
149.6315543091
 20
30.9164372091
 11
149.5737418074
 21
31.1100184796
 12
149.8628043005
 22
31.0454914852
 13
149.8628043005
 23
31.0454914852
  0
SOLID
  8
0
 62
7
  6
CONTINUOUS
 10
149.8628043005
 20
31.0454914852
 11
149.9784292936
 21
30.8841729058
 12
149.6315543091
 22
30.9164372091
 13
149.6315543091
 23
30.9164372091
  0
SOLID
  8
0
 62
7
  6
CONTINUOUS
 10
149.7471793074
 20
30.7873813202
 11
149.6315543091
 21
30.9164372091
 12
149.9784292936
 22
30.8841729058
 13
149.9784292936
 23
30.8841729058
  0
SOLID
  8
0
 62
7
  6
CONTINUOUS
 10
149.9784292936
 20
30.8841729058
 11
150.1518667936
 21
30.7873813202
 12
149.7471793074
 22
30.7873813202
 13
149.7471793074
 23
30.7873813202
  0
SOLID
  8
0
 62
7
  6
CONTINUOUS
 10
149.8628043005
 20
30.7228547004
 11
149.7471793074
 21
30.7873813202
 12
150.1518667936
 22
30.7873813202
 13
150.1518667936
 23
30.7873813202
  0
SOLID
  8
0
 62
7
  6
CONTINUOUS
 10
150.1518667936
 20
30.7873813202
 11
150.498741835
 21
30.7228547004
 12
149.8628043005
 22
30.7228547004
 13
149.8628043005
 23
30.7228547004
  0
SOLID
  8
0
 62
7
  6
CONTINUOUS
 10
150.0362418212
 20
30.658327332
 11
149.8628043005
 21
30.7228547004
 12
150.498741835
 22
30.7228547004
 13
150.498741835
 23
30.7228547004
  0
SOLID
  8
0
 62
7
  6
CONTINUOUS
 10
154.0831168074
 20
31.1100184386
 11
154.1987416972
 21
31.1745462761
 12
154.7768668074
 22
31.1422827828
 13
154.7768668074
 23
31.1422827828
  0
SOLID
  8
0
 62
7
  6
CONTINUOUS
 10
154.7768668074
 20
31.1422827828
 11
154.5456166972
 21
31.1100184386
 12
154.0831168074
 22
31.1100184386
 13
154.0831168074
 23
31.1100184386
  0
SOLID
  8
0
 62
7
  6
CONTINUOUS
 10
153.9674919177
 20
30.9809642992
 11
154.0831168074
 21
31.1100184386
 12
154.5456166972
 22
31.1100184386
 13
154.5456166972
 23
31.1100184386
  0
SOLID
  8
0
 62
7
  6
CONTINUOUS
 10
154.3143669177
 20
31.0132277988
 11
153.9674919177
 21
30.9809642992
 12
154.4299918074
 22
31.0777556927
 13
154.4299918074
 23
31.0777556927
  0
SOLID
  8
0
 62
7
  6
CONTINUOUS
 10
153.9674919177
 20
30.9809642992
 11
154.5456166972
 21
31.1100184796
 12
154.4299918074
 22
31.0777556927
 13
154.4299918074
 23
31.0777556927
  0
SOLID
  8
0
 62
7
  6
CONTINUOUS
 10
154.3143669177
 20
31.0132277988
 11
154.2565543074
 21
30.9164372091
 12
153.9674919177
 22
30.9809642992
 13
153.9674919177
 23
30.9809642992
  0
SOLID
  8
0
 62
7
  6
CONTINUOUS
 10
153.9674919177
 20
30.8841729058
 11
153.9674919177
 21
30.9809642992
 12
154.2565543074
 22
30.9164372091
 13
154.2565543074
 23
30.9164372091
  0
SOLID
  8
0
 62
7
  6
CONTINUOUS
 10
154.2565543074
 20
30.9164372091
 11
154.2565543074
 21
30.8519086025
 12
153.9674919177
 22
30.8841729058
 13
153.9674919177
 23
30.8841729058
  0
SOLID
  8
0
 62
7
  6
CONTINUOUS
 10
154.0253041972
 20
30.7551187255
 11
153.9674919177
 21
30.8841729058
 12
154.2565543074
 22
30.8519086025
 13
154.2565543074
 23
30.8519086025
  0
SOLID
  8
0
 62
7
  6
CONTINUOUS
 10
155.412804528
 20
30.9487004259
 11
155.7018665869
 21
30.8519086025
 12
155.3549915869
 22
30.8841729058
 13
155.3549915869
 23
30.8841729058
  0
SOLID
  8
0
 62
7
  6
CONTINUOUS
 10
155.1815540869
 20
30.7873815123
 11
155.3549915869
 21
30.8841729058
 12
155.7018665869
 22
30.8519086025
 13
155.7018665869
 23
30.8519086025
  0
SOLID
  8
0
 62
7
  6
CONTINUOUS
 10
155.1815540869
 20
30.7873815123
 11
155.7018665869
 21
30.8519086025
 12
155.412804528
 22
30.7551187255
 13
155.412804528
 23
30.7551187255
  0
SOLID
  8
0
 62
7
  6
CONTINUOUS
 10
155.7018665869
 20
30.8519086025
 11
155.759679528
 21
30.6905916353
 12
155.412804528
 22
30.7551187255
 13
155.412804528
 23
30.7551187255
  0
SOLID
  8
0
 62
7
  6
CONTINUOUS
 10
155.4706168074
 20
30.658327332
 11
155.412804528
 21
30.7551187255
 12
155.759679528
 22
30.6905916353
 13
155.759679528
 23
30.6905916353
  0
SOLID
  8
0
 62
7
  6
CONTINUOUS
 10
155.4706168074
 20
30.658327332
 11
155.759679528
 21
30.6905916353
 12
155.5284290869
 22
30.5938002079
 13
155.5284290869
 23
30.5938002079
  0
SOLID
  8
0
 62
7
  6
CONTINUOUS
 10
155.759679528
 20
30.6905916353
 11
155.8174918074
 21
30.5938002079
 12
155.5284290869
 22
30.5938002079
 13
155.5284290869
 23
30.5938002079
  0
SOLID
  8
0
 62
7
  6
CONTINUOUS
 10
151.0768668626
 20
30.8196456577
 11
151.1346793074
 21
30.9164373395
 12
151.4237418626
 22
30.9164373395
 13
151.4237418626
 23
30.9164373395
  0
SOLID
  8
0
 62
7
  6
CONTINUOUS
 10
151.4237418626
 20
30.9164373395
 11
151.3659292523
 21
30.7873815123
 12
151.0768668626
 22
30.8196456577
 13
151.0768668626
 23
30.8196456577
  0
SOLID
  8
0
 62
7
  6
CONTINUOUS
 10
150.9034292799
 20
30.7551187255
 11
151.0768668626
 21
30.8196456577
 12
151.3659292523
 22
30.7873815123
 13
151.3659292523
 23
30.7873815123
  0
SOLID
  8
0
 62
7
  6
CONTINUOUS
 10
150.9034292799
 20
30.7551187255
 11
151.3659292523
 21
30.7873815123
 12
150.498741835
 22
30.7228544222
 13
150.498741835
 23
30.7228544222
  0
SOLID
  8
0
 62
7
  6
CONTINUOUS
 10
151.3659292523
 20
30.7873815123
 11
151.1924917523
 21
30.6905916353
 12
150.498741835
 22
30.7228544222
 13
150.498741835
 23
30.7228544222
  0
SOLID
  8
0
 62
7
  6
CONTINUOUS
 10
150.0362418212
 20
30.658327332
 11
150.498741835
 21
30.7228544222
 12
151.1924917523
 22
30.6905916353
 13
151.1924917523
 23
30.6905916353
  0
SOLID
  8
0
 62
7
  6
CONTINUOUS
 10
150.0362418212
 20
30.658327332
 11
151.1924917523
 21
30.6905916353
 12
150.2096793212
 22
30.6260631011
 13
150.2096793212
 23
30.6260631011
  0
SOLID
  8
0
 62
7
  6
CONTINUOUS
 10
151.1924917523
 20
30.6905916353
 11
150.9612418074
 21
30.6260631011
 12
150.2096793212
 22
30.6260631011
 13
150.2096793212
 23
30.6260631011
  0
SOLID
  8
0
 62
7
  6
CONTINUOUS
 10
150.5565542799
 20
30.5938002419
 11
150.2096793212
 21
30.6260631011
 12
150.9612418074
 22
30.6260631011
 13
150.9612418074
 23
30.6260631011
  0
SOLID
  8
0
 62
7
  6
CONTINUOUS
 10
154.0253041972
 20
30.7551187255
 11
154.2565543074
 21
30.8519086025
 12
154.3143669177
 22
30.7873815123
 13
154.3143669177
 23
30.7873815123
  0
SOLID
  8
0
 62
7
  6
CONTINUOUS
 10
154.3143669177
 20
30.7873815123
 11
154.5456166972
 21
30.7228544222
 12
154.0253041972
 22
30.7551187255
 13
154.0253041972
 23
30.7551187255
  0
SOLID
  8
0
 62
7
  6
CONTINUOUS
 10
154.1987416972
 20
30.658327332
 11
154.0253041972
 21
30.7551187255
 12
154.5456166972
 22
30.7228544222
 13
154.5456166972
 23
30.7228544222
  0
SOLID
  8
0
 62
7
  6
CONTINUOUS
 10
154.8924916972
 20
30.7228544637
 11
155.1815540869
 21
30.7873815123
 12
155.412804528
 22
30.7551187255
 13
155.412804528
 23
30.7551187255
  0
SOLID
  8
0
 62
7
  6
CONTINUOUS
 10
155.412804528
 20
30.7551187255
 11
155.3549915869
 21
30.6905916353
 12
154.8924916972
 22
30.7228544637
 13
154.8924916972
 23
30.7228544637
  0
SOLID
  8
0
 62
7
  6
CONTINUOUS
 10
155.3549915869
 20
30.6905916353
 11
154.1987416972
 21
30.658327332
 12
154.8924916972
 22
30.7228544637
 13
154.8924916972
 23
30.7228544637
  0
SOLID
  8
0
 62
7
  6
CONTINUOUS
 10
154.1987416972
 20
30.658327332
 11
154.5456166972
 21
30.7228544637
 12
154.8924916972
 22
30.7228544637
 13
154.8924916972
 23
30.7228544637
  0
SOLID
  8
0
 62
7
  6
CONTINUOUS
 10
154.1987416972
 20
30.658327332
 11
155.3549915869
 21
30.6905916353
 12
154.3143669177
 22
30.6260630541
 13
154.3143669177
 23
30.6260630541
  0
SOLID
  8
0
 62
7
  6
CONTINUOUS
 10
155.3549915869
 20
30.6905916353
 11
155.1815540869
 21
30.6260630541
 12
154.3143669177
 22
30.6260630541
 13
154.3143669177
 23
30.6260630541
  0
SOLID
  8
0
 62
7
  6
CONTINUOUS
 10
154.5456166972
 20
30.5938002188
 11
154.3143669177
 21
30.6260630541
 12
155.1815540869
 22
30.6260630541
 13
155.1815540869
 23
30.6260630541
  0
SOLID
  8
0
 62
7
  6
CONTINUOUS
 10
155.1815540869
 20
30.6260630541
 11
154.8924916972
 21
30.5938002188
 12
154.5456166972
 22
30.5938002188
 13
154.5456166972
 23
30.5938002188
  0
SOLID
  8
0
 62
7
  6
CONTINUOUS
 10
159.575304528
 20
30.7551187255
 11
159.228429528
 21
30.7228544637
 12
159.4596793074
 22
30.7873815123
 13
159.4596793074
 23
30.7873815123
  0
SOLID
  8
0
 62
7
  6
CONTINUOUS
 10
159.4596793074
 20
30.7873815123
 11
159.228429528
 21
30.7228544637
 12
159.401867028
 22
30.851908644
 13
159.401867028
 23
30.851908644
  0
SOLID
  8
0
 62
7
  6
CONTINUOUS
 10
159.228429528
 20
30.7228544637
 11
159.1128043074
 21
30.851908644
 12
159.401867028
 22
30.851908644
 13
159.401867028
 23
30.851908644
  0
SOLID
  8
0
 62
7
  6
CONTINUOUS
 10
159.575304528
 20
30.7551187255
 11
159.922179528
 21
30.7228544637
 12
159.228429528
 22
30.7228544637
 13
159.228429528
 23
30.7228544637
  0
SOLID
  8
0
 62
7
  6
CONTINUOUS
 10
156.279992028
 20
30.5938002419
 11
156.279992028
 21
31.6262382337
 12
156.5690540869
 22
30.5938002419
 13
156.5690540869
 23
31.6262382337
  0
ENDBLK
  8
0
  6
BYBLOCK
 62
0
  0
BLOCK
  8
0
 62
2
  6
CONTINUOUS
  2
AMMEAAL_LOGO_BL0
 70
64
 10
32.1213064866
 20
19.8534310916
  0
TEXT
  8
0
 62
7
  6
CONTINUOUS
 10
18.3860103289
 20
19.2268451992
  7
TEXTSTYLE_3
 40
2.7338706658
  1
Ammeraal Beltech
 41
1.0
 51
15.0
 72
0
  0
TEXT
  8
0
 62
7
  6
CONTINUOUS
 10
29.1868111546
 20
16.9533085264
  7
TEXTSTYLE_4
 40
1.0935482663
  1
Innovation & Service in Belting
 41
1.0
 72
0
  0
LINE
  8
0
 62
7
  6
CONTINUOUS
 10
12.3614696776
 20
19.9934385078
 11
13.1396216709
 21
23.6543558055
  0
LINE
  8
0
 62
7
  6
CONTINUOUS
 10
23.2347899607
 20
27.3177497171
 11
13.6274394139
 21
24.1961322958
  0
LINE
  8
0
 62
7
  6
CONTINUOUS
 10
12.5867530099
 20
19.3000877048
 11
20.093828271
 21
12.5406867788
  0
LINE
  8
0
 62
7
  6
CONTINUOUS
 10
12.8492874206
 20
20.5352149982
 11
23.6575567857
 21
24.0470345971
  0
LINE
  8
0
 62
7
  6
CONTINUOUS
 10
23.6533516486
 20
13.6972460334
 11
15.2078919798
 21
21.3015720751
  0
LINE
  8
0
 62
7
  6
CONTINUOUS
 10
24.1731743684
 20
26.4728246013
 11
23.1966148312
 21
21.8784731989
  0
LINE
  8
0
 62
7
  6
CONTINUOUS
 10
22.4968128835
 20
18.5861638851
 11
21.810364672
 21
15.3566789607
  0
LINE
  8
0
 62
7
  6
CONTINUOUS
 10
24.8542704669
 20
14.087448211
 11
25.8105020025
 21
18.5861638851
  0
LINE
  8
0
 62
7
  6
CONTINUOUS
 10
26.5103039502
 20
21.8784731989
 11
26.9545457526
 21
23.9684665583
  0
LINE
  8
0
 62
7
  6
CONTINUOUS
 10
20.8069293463
 20
12.3891124661
 11
24.3664527239
 21
13.5456717207
  0
LINE
  8
0
 62
7
  6
CONTINUOUS
 10
23.9478910361
 20
27.1661754044
 11
26.7292624203
 21
24.6618173613
  0
ARC
  8
0
 62
7
  6
CONTINUOUS
 10
13.8527227462
 20
23.5027814928
 40
0.7290321776
 50
108.0
 51
168.0
  0
ARC
  8
0
 62
7
  6
CONTINUOUS
 10
23.4600732931
 20
26.624398914
 40
0.7290321776
 50
348.0
 51
108.0
  0
ARC
  8
0
 62
7
  6
CONTINUOUS
 10
26.2414446773
 20
24.120040871
 40
0.7290321776
 50
348.0
 51
48.0
  0
ARC
  8
0
 62
7
  6
CONTINUOUS
 10
20.581646014
 20
13.0824632691
 40
0.7290321776
 50
228.0
 51
288.0
  0
ARC
  8
0
 62
7
  6
CONTINUOUS
 10
13.0745707529
 20
19.8418641951
 40
0.7290321776
 50
108.0
 51
228.0
  0
ARC
  8
0
 62
7
  6
CONTINUOUS
 10
24.1411693916
 20
14.2390225237
 40
0.7290321776
 50
228.0
 51
348.0
  0
ENDBLK
  8
0
  6
BYBLOCK
 62
0
  0
ENDSEC
  0
SECTION
  2
ENTITIES
  0
TEXT
  8
0
 62
5
  6
CONTINUOUS
 10
96.0
 20
25.636
  7
TEXTSTYLE_2
 40
2.8
  1
Scale :
 41
0.6
 51
0.000019
 72
0
  0
TEXT
  8
0
 62
5
  6
CONTINUOUS
 10
116.0
 20
25.636
  7
TEXTSTYLE_2
 40
2.8
  1
Belt type:
 41
0.6
 51
0.000019
 72
0
  0
INSERT
  8
0
 62
2
  6
CONTINUOUS
  2
AMMEAAL_LOGO_BL0
 10
32.1213064866
 20
19.8534310916
  0
INSERT
  8
0
 62
2
  6
CONTINUOUS
  2
UNI_LOGO2_BL1
 10
173.5956734183
 20
35.5937998301
  0
LINE
  8
0
 62
2
  6
CONTINUOUS
 10
10.0
 20
30.0
 11
200.0
 21
30.0
  0
LINE
  8
0
 62
2
  6
CONTINUOUS
 10
10.0
 20
30.0
 11
10.0
 21
10.0
  0
LINE
  8
0
 62
2
  6
CONTINUOUS
 10
10.0
 20
10.0
 11
200.0
 21
10.0
  0
LINE
  8
0
 62
2
  6
CONTINUOUS
 10
95.0
 20
30.0
 11
95.0
 21
10.0
  0
LINE
  8
0
 62
2
  6
CONTINUOUS
 10
115.0
 20
30.0
 11
115.0
 21
10.0
  0
LINE
  8
0
 62
2
  6
CONTINUOUS
 10
200.0
 20
30.0
 11
200.0
 21
10.0
  0
TEXT
  8
0
 62
5
  6
CONTINUOUS
 10
13.0
 20
23.303
  7
TEXTSTYLE_5
 40
1.52
  1
                                                                     Ammeraal Beltech Modular A/S
 41
1.0
 72
0
  0
TEXT
  8
0
 62
5
  6
CONTINUOUS
 10
13.0
 20
20.595
  7
TEXTSTYLE_5
 40
1.5
  1
                                                                      Hjulmagervej 21,  7100 Vejle,  DK
 41
1.0
 72
0
  0
TEXT
  8
0
 62
5
  6
CONTINUOUS
 10
13.0
 20
17.881
  7
TEXTSTYLE_5
 40
1.495
  1
                                                                      tel: 
 41
1.0
 72
0
  0
TEXT
  8
0
 62
5
  6
CONTINUOUS
 10
57.9869465649
 20
17.881
  7
TEXTSTYLE_5
 40
1.51
  1
+45 75723100     fax: +45 75723348
 41
1.0
 72
0
  0
TEXT
  8
0
 62
5
  6
CONTINUOUS
 10
13.0
 20
15.177
  7
TEXTSTYLE_5
 40
1.5
  1
                                                                      admin@unichains.dk  www.unichains.com
 41
1.0
 72
0
  0
TEXT
  8
0
 62
5
  6
CONTINUOUS
 10
99.75
 20
13.75
  7
TEXTSTYLE_6
 40
5.0
  1
1:1
 41
0.7
 72
1
 11
105.0
 21
13.75
  0
TEXT
  8
0
 62
5
  6
CONTINUOUS
 10
118.0
 20
13.75
  7
TEXTSTYLE_7
 40
7.5
  1
uni NTB K600
 41
0.6930555556
 72
0
  0
LINE
  8
0
 62
7
  6
CONTINUOUS
 10
210.0
 20
0.0
 11
0.0
 21
0.0
  0
LINE
  8
0
 62
7
  6
CONTINUOUS
 10
10.0
 20
10.0
 11
200.0
 21
10.0
  0
LINE
  8
0
 62
7
  6
CONTINUOUS
 10
10.0
 20
30.0
 11
200.0
 21
30.0
  0
LINE
  8
0
 62
7
  6
CONTINUOUS
 10
0.0
 20
0.0
 11
0.0
 21
297.0
  0
LINE
  8
0
 62
7
  6
CONTINUOUS
 10
10.0
 20
10.0
 11
10.0
 21
287.0
  0
LINE
  8
0
 62
7
  6
CONTINUOUS
 10
200.0
 20
287.0
 11
200.0
 21
10.0
  0
LINE
  8
0
 62
7
  6
CONTINUOUS
 10
210.0
 20
0.0
 11
210.0
 21
297.0
  0
LINE
  8
0
 62
7
  6
CONTINUOUS
 10
10.0
 20
287.0
 11
200.0
 21
287.0
  0
LINE
  8
0
 62
7
  6
CONTINUOUS
 10
0.0
 20
297.0
 11
210.0
 21
297.0
  0
POLYLINE
  8
0
 62
7
  6
CONTINUOUS
 66
1
 70
0
  0
VERTEX
  8
0
 62
7
  6
CONTINUOUS
 10
20.1441406244
 20
219.2875470761
  0
VERTEX
  8
0
 62
7
  6
CONTINUOUS
 10
20.1454038003
 20
219.2170763704
  0
VERTEX
  8
0
 62
7
  6
CONTINUOUS
 10
20.1503444986
 20
219.1288568117
  0
VERTEX
  8
0
 62
7
  6
CONTINUOUS
 10
20.1582836005
 20
219.0453797627
  0
SEQEND
  0
LINE
  8
0
 62
7
  6
CONTINUOUS
 10
20.144140625
 20
219.2875195576
 11
20.144140625
 21
228.10546875
  0
POLYLINE
  8
0
 62
7
  6
CONTINUOUS
 66
1
 70
0
  0
VERTEX
  8
0
 62
7
  6
CONTINUOUS
 10
20.1582800305
 20
219.0453797372
  0
VERTEX
  8
0
 62
7
  6
CONTINUOUS
 10
20.158581856
 20
219.0440797692
  0
VERTEX
  8
0
 62
7
  6
CONTINUOUS
 10
20.166348543
 20
219.0388201777
  0
SEQEND
  0
POLYLINE
  8
0
 62
7
  6
CONTINUOUS
 66
1
 70
0
  0
VERTEX
  8
0
 62
7
  6
CONTINUOUS
 10
32.7883253039
 20
218.5469138102
  0
VERTEX
  8
0
 62
7
  6
CONTINUOUS
 10
32.7934633286
 20
218.4959019691
  0
VERTEX
  8
0
 62
7
  6
CONTINUOUS
 10
32.7996765785
 20
218.4301863244
  0
VERTEX
  8
0
 62
7
  6
CONTINUOUS
 10
32.8017325606
 20
218.3783673905
  0
SEQEND
  0
POLYLINE
  8
0
 62
7
  6
CONTINUOUS
 66
1
 70
0
  0
VERTEX
  8
0
 62
7
  6
CONTINUOUS
 10
32.6999559462
 20
224.1640236877
  0
VERTEX
  8
0
 62
7
  6
CONTINUOUS
 10
32.6948166264
 20
224.2150478057
  0
VERTEX
  8
0
 62
7
  6
CONTINUOUS
 10
32.6886037323
 20
224.2807640707
  0
VERTEX
  8
0
 62
7
  6
CONTINUOUS
 10
32.6865486918
 20
224.3325700718
  0
SEQEND
  0
LINE
  8
0
 62
7
  6
CONTINUOUS
 10
32.7865074927
 20
218.5660400149
 11
32.7883251127
 21
218.5469137927
  0
LINE
  8
0
 62
7
  6
CONTINUOUS
 10
32.7017737576
 20
224.1448974825
 11
32.6999561375
 21
224.1640237052
  0
POLYLINE
  8
0
 62
7
  6
CONTINUOUS
 66
1
 70
0
  0
VERTEX
  8
0
 62
7
  6
CONTINUOUS
 10
32.6865485232
 20
225.35546875
  0
VERTEX
  8
0
 62
7
  6
CONTINUOUS
 10
32.6825328909
 20
225.7534027988
  0
VERTEX
  8
0
 62
7
  6
CONTINUOUS
 10
32.6704234747
 20
226.146742416
  0
VERTEX
  8
0
 62
7
  6
CONTINUOUS
 10
32.651443265
 20
226.5086520734
  0
VERTEX
  8
0
 62
7
  6
CONTINUOUS
 10
32.627314278
 20
226.8294610684
  0
VERTEX
  8
0
 62
7
  6
CONTINUOUS
 10
32.5997461433
 20
227.1061541654
  0
VERTEX
  8
0
 62
7
  6
CONTINUOUS
 10
32.5697004028
 20
227.3434182949
  0
VERTEX
  8
0
 62
7
  6
CONTINUOUS
 10
32.5377148151
 20
227.5461849802
  0
VERTEX
  8
0
 62
7
  6
CONTINUOUS
 10
32.5043379794
 20
227.7172884765
  0
VERTEX
  8
0
 62
7
  6
CONTINUOUS
 10
32.4699015435
 20
227.8598293905
  0
VERTEX
  8
0
 62
7
  6
CONTINUOUS
 10
32.434205558
 20
227.9779402882
  0
VERTEX
  8
0
 62
7
  6
CONTINUOUS
 10
32.3961158933
 20
228.0766054515
  0
VERTEX
  8
0
 62
7
  6
CONTINUOUS
 10
32.3528939428
 20
228.1610928491
  0
VERTEX
  8
0
 62
7
  6
CONTINUOUS
 10
32.2994321839
 20
228.2353678849
  0
VERTEX
  8
0
 62
7
  6
CONTINUOUS
 10
32.2277098235
 20
228.2995214215
  0
VERTEX
  8
0
 62
7
  6
CONTINUOUS
 10
32.1355579194
 20
228.3432576326
  0
VERTEX
  8
0
 62
7
  6
CONTINUOUS
 10
32.0501850862
 20
228.3554687187
  0
SEQEND
  0
POLYLINE
  8
0
 62
7
  6
CONTINUOUS
 66
1
 70
0
  0
VERTEX
  8
0
 62
7
  6
CONTINUOUS
 10
32.8017327268
 20
217.35546875
  0
VERTEX
  8
0
 62
7
  6
CONTINUOUS
 10
32.805748359
 20
216.957534706
  0
VERTEX
  8
0
 62
7
  6
CONTINUOUS
 10
32.8178577747
 20
216.5641950976
  0
VERTEX
  8
0
 62
7
  6
CONTINUOUS
 10
32.8368379843
 20
216.202285438
  0
VERTEX
  8
0
 62
7
  6
CONTINUOUS
 10
32.8609669712
 20
215.8814764413
  0
VERTEX
  8
0
 62
7
  6
CONTINUOUS
 10
32.8885351057
 20
215.604783343
  0
VERTEX
  8
0
 62
7
  6
CONTINUOUS
 10
32.9185808462
 20
215.3675192121
  0
VERTEX
  8
0
 62
7
  6
CONTINUOUS
 10
32.9505664339
 20
215.1647525256
  0
VERTEX
  8
0
 62
7
  6
CONTINUOUS
 10
32.9839432697
 20
214.9936490276
  0
VERTEX
  8
0
 62
7
  6
CONTINUOUS
 10
33.0183797055
 20
214.8511081132
  0
VERTEX
  8
0
 62
7
  6
CONTINUOUS
 10
33.0540756909
 20
214.7329972149
  0
VERTEX
  8
0
 62
7
  6
CONTINUOUS
 10
33.0921653557
 20
214.6343320508
  0
VERTEX
  8
0
 62
7
  6
CONTINUOUS
 10
33.1353873065
 20
214.5498446519
  0
VERTEX
  8
0
 62
7
  6
CONTINUOUS
 10
33.1888490652
 20
214.475569616
  0
VERTEX
  8
0
 62
7
  6
CONTINUOUS
 10
33.2605714253
 20
214.4114160793
  0
VERTEX
  8
0
 62
7
  6
CONTINUOUS
 10
33.3527233291
 20
214.3676798681
  0
VERTEX
  8
0
 62
7
  6
CONTINUOUS
 10
33.4380961624
 20
214.3554687813
  0
SEQEND
  0
LINE
  8
0
 62
7
  6
CONTINUOUS
 10
32.6865485232
 20
225.35546875
 11
32.6865485232
 21
224.3325700727
  0
LINE
  8
0
 62
7
  6
CONTINUOUS
 10
32.8017327268
 20
217.35546875
 11
32.8017327268
 21
218.3783673895
  0
POLYLINE
  8
0
 62
7
  6
CONTINUOUS
 66
1
 70
0
  0
VERTEX
  8
0
 62
7
  6
CONTINUOUS
 10
20.1661130348
 20
219.0594920389
  0
VERTEX
  8
0
 62
7
  6
CONTINUOUS
 10
20.1585324833
 20
219.0482663196
  0
VERTEX
  8
0
 62
7
  6
CONTINUOUS
 10
20.1582800305
 20
219.0453797372
  0
SEQEND
  0
LINE
  8
0
 62
7
  6
CONTINUOUS
 10
45.3865485232
 20
217.35546875
 11
45.3865485232
 21
218.3783662059
  0
LINE
  8
0
 62
7
  6
CONTINUOUS
 10
45.5017327268
 20
224.3325705971
 11
45.5017327268
 21
225.35546875
  0
POLYLINE
  8
0
 62
7
  6
CONTINUOUS
 66
1
 70
0
  0
VERTEX
  8
0
 62
7
  6
CONTINUOUS
 10
45.5017326201
 20
224.3325705971
  0
VERTEX
  8
0
 62
7
  6
CONTINUOUS
 10
45.4999042884
 20
224.2839651591
  0
VERTEX
  8
0
 62
7
  6
CONTINUOUS
 10
45.4937108743
 20
224.2173808191
  0
VERTEX
  8
0
 62
7
  6
CONTINUOUS
 10
45.4883250296
 20
224.1640227931
  0
SEQEND
  0
POLYLINE
  8
0
 62
7
  6
CONTINUOUS
 66
1
 70
0
  0
VERTEX
  8
0
 62
7
  6
CONTINUOUS
 10
45.3865486532
 20
218.3783662049
  0
VERTEX
  8
0
 62
7
  6
CONTINUOUS
 10
45.3886036199
 20
218.4301729307
  0
VERTEX
  8
0
 62
7
  6
CONTINUOUS
 10
45.3948173291
 20
218.4958961027
  0
VERTEX
  8
0
 62
7
  6
CONTINUOUS
 10
45.3999559571
 20
218.5469139228
  0
SEQEND
  0
POLYLINE
  8
0
 62
7
  6
CONTINUOUS
 66
1
 70
0
  0
VERTEX
  8
0
 62
7
  6
CONTINUOUS
 10
45.3999561476
 20
218.5469139054
  0
VERTEX
  8
0
 62
7
  6
CONTINUOUS
 10
45.4007395506
 20
218.5553660025
  0
VERTEX
  8
0
 62
7
  6
CONTINUOUS
 10
45.4020126855
 20
218.568433388
  0
VERTEX
  8
0
 62
7
  6
CONTINUOUS
 10
45.4033580887
 20
218.5814454894
  0
VERTEX
  8
0
 62
7
  6
CONTINUOUS
 10
45.4047772519
 20
218.5943946399
  0
VERTEX
  8
0
 62
7
  6
CONTINUOUS
 10
45.4062714872
 20
218.607272998
  0
VERTEX
  8
0
 62
7
  6
CONTINUOUS
 10
45.4078419822
 20
218.6200724649
  0
VERTEX
  8
0
 62
7
  6
CONTINUOUS
 10
45.4094898109
 20
218.6327846388
  0
VERTEX
  8
0
 62
7
  6
CONTINUOUS
 10
45.4112158082
 20
218.6454009252
  0
VERTEX
  8
0
 62
7
  6
CONTINUOUS
 10
45.413020542
 20
218.6579125505
  0
VERTEX
  8
0
 62
7
  6
CONTINUOUS
 10
45.4149043521
 20
218.6703104552
  0
VERTEX
  8
0
 62
7
  6
CONTINUOUS
 10
45.4168673772
 20
218.6825851885
  0
VERTEX
  8
0
 62
7
  6
CONTINUOUS
 10
45.4189094226
 20
218.6947271243
  0
VERTEX
  8
0
 62
7
  6
CONTINUOUS
 10
45.4210299273
 20
218.7067265081
  0
VERTEX
  8
0
 62
7
  6
CONTINUOUS
 10
45.4232279871
 20
218.7185733773
  0
VERTEX
  8
0
 62
7
  6
CONTINUOUS
 10
45.4255024028
 20
218.7302574293
  0
VERTEX
  8
0
 62
7
  6
CONTINUOUS
 10
45.4278518599
 20
218.7417697701
  0
VERTEX
  8
0
 62
7
  6
CONTINUOUS
 10
45.4302751182
 20
218.7531036878
  0
VERTEX
  8
0
 62
7
  6
CONTINUOUS
 10
45.4327705704
 20
218.7642521654
  0
VERTEX
  8
0
 62
7
  6
CONTINUOUS
 10
45.4353362196
 20
218.7752073661
  0
VERTEX
  8
0
 62
7
  6
CONTINUOUS
 10
45.4379695776
 20
218.7859609579
  0
VERTEX
  8
0
 62
7
  6
CONTINUOUS
 10
45.4406676152
 20
218.7965042899
  0
VERTEX
  8
0
 62
7
  6
CONTINUOUS
 10
45.4434267427
 20
218.8068284287
  0
VERTEX
  8
0
 62
7
  6
CONTINUOUS
 10
45.4462427907
 20
218.8169238548
  0
VERTEX
  8
0
 62
7
  6
CONTINUOUS
 10
45.4491109661
 20
218.8267806021
  0
VERTEX
  8
0
 62
7
  6
CONTINUOUS
 10
45.452025809
 20
218.8363886135
  0
VERTEX
  8
0
 62
7
  6
CONTINUOUS
 10
45.4549795448
 20
218.845732744
  0
VERTEX
  8
0
 62
7
  6
CONTINUOUS
 10
45.4579620188
 20
218.8547936023
  0
VERTEX
  8
0
 62
7
  6
CONTINUOUS
 10
45.4609616272
 20
218.863551025
  0
VERTEX
  8
0
 62
7
  6
CONTINUOUS
 10
45.4639661861
 20
218.8719869632
  0
VERTEX
  8
0
 62
7
  6
CONTINUOUS
 10
45.4669689313
 20
218.8801011989
  0
VERTEX
  8
0
 62
7
  6
CONTINUOUS
 10
45.4699658941
 20
218.8879015048
  0
VERTEX
  8
0
 62
7
  6
CONTINUOUS
 10
45.4729529228
 20
218.8953949095
  0
VERTEX
  8
0
 62
7
  6
CONTINUOUS
 10
45.4759255341
 20
218.9025875031
  0
VERTEX
  8
0
 62
7
  6
CONTINUOUS
 10
45.4788834072
 20
218.9094948141
  0
VERTEX
  8
0
 62
7
  6
CONTINUOUS
 10
45.4818370437
 20
218.9161549138
  0
VERTEX
  8
0
 62
7
  6
CONTINUOUS
 10
45.4847999704
 20
218.9226078197
  0
VERTEX
  8
0
 62
7
  6
CONTINUOUS
 10
45.487786153
 20
218.9288895066
  0
VERTEX
  8
0
 62
7
  6
CONTINUOUS
 10
45.4907972531
 20
218.9350069991
  0
VERTEX
  8
0
 62
7
  6
CONTINUOUS
 10
45.4938372422
 20
218.9409711273
  0
VERTEX
  8
0
 62
7
  6
CONTINUOUS
 10
45.4969118448
 20
218.9467944072
  0
VERTEX
  8
0
 62
7
  6
CONTINUOUS
 10
45.5000263771
 20
218.952486633
  0
VERTEX
  8
0
 62
7
  6
CONTINUOUS
 10
45.5031857251
 20
218.958055035
  0
VERTEX
  8
0
 62
7
  6
CONTINUOUS
 10
45.5063942712
 20
218.9635043869
  0
VERTEX
  8
0
 62
7
  6
CONTINUOUS
 10
45.5096551693
 20
218.9688367897
  0
VERTEX
  8
0
 62
7
  6
CONTINUOUS
 10
45.5129704028
 20
218.9740518372
  0
VERTEX
  8
0
 62
7
  6
CONTINUOUS
 10
45.5163412024
 20
218.9791468993
  0
VERTEX
  8
0
 62
7
  6
CONTINUOUS
 10
45.5197679861
 20
218.9841171453
  0
VERTEX
  8
0
 62
7
  6
CONTINUOUS
 10
45.5232502399
 20
218.9889555385
  0
VERTEX
  8
0
 62
7
  6
CONTINUOUS
 10
45.526785385
 20
218.9936528671
  0
VERTEX
  8
0
 62
7
  6
CONTINUOUS
 10
45.5303688143
 20
218.9981983449
  0
VERTEX
  8
0
 62
7
  6
CONTINUOUS
 10
45.5339985903
 20
219.0025839844
  0
VERTEX
  8
0
 62
7
  6
CONTINUOUS
 10
45.5376692823
 20
219.0067964597
  0
VERTEX
  8
0
 62
7
  6
CONTINUOUS
 10
45.5413651107
 20
219.0108120347
  0
VERTEX
  8
0
 62
7
  6
CONTINUOUS
 10
45.545057576
 20
219.014598955
  0
VERTEX
  8
0
 62
7
  6
CONTINUOUS
 10
45.5487080016
 20
219.01812027
  0
VERTEX
  8
0
 62
7
  6
CONTINUOUS
 10
45.5522896274
 20
219.021355572
  0
VERTEX
  8
0
 62
7
  6
CONTINUOUS
 10
45.555767955
 20
219.0242849345
  0
VERTEX
  8
0
 62
7
  6
CONTINUOUS
 10
45.5591226476
 20
219.0269058114
  0
VERTEX
  8
0
 62
7
  6
CONTINUOUS
 10
45.5623987777
 20
219.0292613399
  0
VERTEX
  8
0
 62
7
  6
CONTINUOUS
 10
45.5655893057
 20
219.0313496907
  0
VERTEX
  8
0
 62
7
  6
CONTINUOUS
 10
45.5687357842
 20
219.0331937721
  0
VERTEX
  8
0
 62
7
  6
CONTINUOUS
 10
45.5719147067
 20
219.0348123588
  0
VERTEX
  8
0
 62
7
  6
CONTINUOUS
 10
45.574999704
 20
219.0361066886
  0
VERTEX
  8
0
 62
7
  6
CONTINUOUS
 10
45.5779964237
 20
219.0370297183
  0
VERTEX
  8
0
 62
7
  6
CONTINUOUS
 10
45.5808276311
 20
219.0374787884
  0
VERTEX
  8
0
 62
7
  6
CONTINUOUS
 10
45.5820027006
 20
219.0375194433
  0
SEQEND
  0
POLYLINE
  8
0
 62
7
  6
CONTINUOUS
 66
1
 70
0
  0
VERTEX
  8
0
 62
7
  6
CONTINUOUS
 10
45.4883250296
 20
224.1640227931
  0
VERTEX
  8
0
 62
7
  6
CONTINUOUS
 10
45.4865376669
 20
224.1452014902
  0
VERTEX
  8
0
 62
7
  6
CONTINUOUS
 10
45.4853663487
 20
224.1336942239
  0
VERTEX
  8
0
 62
7
  6
CONTINUOUS
 10
45.4841447502
 20
224.1222970221
  0
VERTEX
  8
0
 62
7
  6
CONTINUOUS
 10
45.482872576
 20
224.1110117604
  0
VERTEX
  8
0
 62
7
  6
CONTINUOUS
 10
45.4815496248
 20
224.0998403969
  0
VERTEX
  8
0
 62
7
  6
CONTINUOUS
 10
45.4801757431
 20
224.0887850218
  0
VERTEX
  8
0
 62
7
  6
CONTINUOUS
 10
45.4787508058
 20
224.0778478847
  0
VERTEX
  8
0
 62
7
  6
CONTINUOUS
 10
45.4772747946
 20
224.06703131
  0
VERTEX
  8
0
 62
7
  6
CONTINUOUS
 10
45.4757478073
 20
224.0563376836
  0
VERTEX
  8
0
 62
7
  6
CONTINUOUS
 10
45.4741700767
 20
224.0457695665
  0
VERTEX
  8
0
 62
7
  6
CONTINUOUS
 10
45.4725419919
 20
224.0353301617
  0
VERTEX
  8
0
 62
7
  6
CONTINUOUS
 10
45.4708637027
 20
224.0250208807
  0
VERTEX
  8
0
 62
7
  6
CONTINUOUS
 10
45.4691354051
 20
224.0148428912
  0
VERTEX
  8
0
 62
7
  6
CONTINUOUS
 10
45.4673574138
 20
224.0047975342
  0
VERTEX
  8
0
 62
7
  6
CONTINUOUS
 10
45.4655301596
 20
223.9948863273
  0
VERTEX
  8
0
 62
7
  6
CONTINUOUS
 10
45.463654144
 20
223.9851110788
  0
VERTEX
  8
0
 62
7
  6
CONTINUOUS
 10
45.4617299754
 20
223.9754738178
  0
VERTEX
  8
0
 62
7
  6
CONTINUOUS
 10
45.4597584089
 20
223.9659766992
  0
VERTEX
  8
0
 62
7
  6
CONTINUOUS
 10
45.457740349
 20
223.9566219886
  0
VERTEX
  8
0
 62
7
  6
CONTINUOUS
 10
45.4556768403
 20
223.9474121109
  0
VERTEX
  8
0
 62
7
  6
CONTINUOUS
 10
45.4535690504
 20
223.9383497759
  0
VERTEX
  8
0
 62
7
  6
CONTINUOUS
 10
45.4514183111
 20
223.9294377929
  0
VERTEX
  8
0
 62
7
  6
CONTINUOUS
 10
45.4492261278
 20
223.9206790119
  0
VERTEX
  8
0
 62
7
  6
CONTINUOUS
 10
45.4469956153
 20
223.9120817477
  0
VERTEX
  8
0
 62
7
  6
CONTINUOUS
 10
45.4447374588
 20
223.9036807637
  0
VERTEX
  8
0
 62
7
  6
CONTINUOUS
 10
45.4424659099
 20
223.8955186387
  0
VERTEX
  8
0
 62
7
  6
CONTINUOUS
 10
45.4401969081
 20
223.887637674
  0
VERTEX
  8
0
 62
7
  6
CONTINUOUS
 10
45.4379443249
 20
223.8800673866
  0
VERTEX
  8
0
 62
7
  6
CONTINUOUS
 10
45.4357047382
 20
223.8727776851
  0
VERTEX
  8
0
 62
7
  6
CONTINUOUS
 10
45.4334681798
 20
223.8657213346
  0
VERTEX
  8
0
 62
7
  6
CONTINUOUS
 10
45.4312232203
 20
223.8588519331
  0
VERTEX
  8
0
 62
7
  6
CONTINUOUS
 10
45.4289569243
 20
223.8521237247
  0
VERTEX
  8
0
 62
7
  6
CONTINUOUS
 10
45.4266586644
 20
223.8455025628
  0
VERTEX
  8
0
 62
7
  6
CONTINUOUS
 10
45.4243266164
 20
223.8389824061
  0
VERTEX
  8
0
 62
7
  6
CONTINUOUS
 10
45.421959304
 20
223.8325588556
  0
VERTEX
  8
0
 62
7
  6
CONTINUOUS
 10
45.4195553438
 20
223.8262283133
  0
VERTEX
  8
0
 62
7
  6
CONTINUOUS
 10
45.4171134525
 20
223.819987933
  0
VERTEX
  8
0
 62
7
  6
CONTINUOUS
 10
45.4146323995
 20
223.8138354442
  0
VERTEX
  8
0
 62
7
  6
CONTINUOUS
 10
45.4121110112
 20
223.8077691316
  0
VERTEX
  8
0
 62
7
  6
CONTINUOUS
 10
45.4095481762
 20
223.8017878178
  0
VERTEX
  8
0
 62
7
  6
CONTINUOUS
 10
45.4069428729
 20
223.7958908799
  0
VERTEX
  8
0
 62
7
  6
CONTINUOUS
 10
45.4042943566
 20
223.7900784813
  0
VERTEX
  8
0
 62
7
  6
CONTINUOUS
 10
45.4016020967
 20
223.7843514341
  0
VERTEX
  8
0
 62
7
  6
CONTINUOUS
 10
45.3988656894
 20
223.7787110485
  0
VERTEX
  8
0
 62
7
  6
CONTINUOUS
 10
45.396084865
 20
223.7731591225
  0
VERTEX
  8
0
 62
7
  6
CONTINUOUS
 10
45.3932594948
 20
223.7676979338
  0
VERTEX
  8
0
 62
7
  6
CONTINUOUS
 10
45.3903897332
 20
223.7623303353
  0
VERTEX
  8
0
 62
7
  6
CONTINUOUS
 10
45.387476358
 20
223.7570599894
  0
VERTEX
  8
0
 62
7
  6
CONTINUOUS
 10
45.3845203645
 20
223.7518909125
  0
VERTEX
  8
0
 62
7
  6
CONTINUOUS
 10
45.3815226856
 20
223.746827091
  0
VERTEX
  8
0
 62
7
  6
CONTINUOUS
 10
45.3784878057
 20
223.7418783371
  0
VERTEX
  8
0
 62
7
  6
CONTINUOUS
 10
45.3754223285
 20
223.7370570713
  0
VERTEX
  8
0
 62
7
  6
CONTINUOUS
 10
45.3723352144
 20
223.7323774031
  0
VERTEX
  8
0
 62
7
  6
CONTINUOUS
 10
45.3692379218
 20
223.727854881
  0
VERTEX
  8
0
 62
7
  6
CONTINUOUS
 10
45.3661438923
 20
223.7235059787
  0
VERTEX
  8
0
 62
7
  6
CONTINUOUS
 10
45.3630676398
 20
223.7193465278
  0
VERTEX
  8
0
 62
7
  6
CONTINUOUS
 10
45.3600138058
 20
223.7153776316
  0
VERTEX
  8
0
 62
7
  6
CONTINUOUS
 10
45.3569808885
 20
223.7115925026
  0
VERTEX
  8
0
 62
7
  6
CONTINUOUS
 10
45.353970227
 20
223.7079872266
  0
VERTEX
  8
0
 62
7
  6
CONTINUOUS
 10
45.3509873641
 20
223.704562916
  0
VERTEX
  8
0
 62
7
  6
CONTINUOUS
 10
45.348026536
 20
223.7013085857
  0
VERTEX
  8
0
 62
7
  6
CONTINUOUS
 10
45.3450756152
 20
223.6982090271
  0
VERTEX
  8
0
 62
7
  6
CONTINUOUS
 10
45.3421270727
 20
223.6952569915
  0
VERTEX
  8
0
 62
7
  6
CONTINUOUS
 10
45.3391785431
 20
223.6924507239
  0
VERTEX
  8
0
 62
7
  6
CONTINUOUS
 10
45.3362360151
 20
223.6897963975
  0
VERTEX
  8
0
 62
7
  6
CONTINUOUS
 10
45.3333250784
 20
223.6873169912
  0
VERTEX
  8
0
 62
7
  6
CONTINUOUS
 10
45.3304031969
 20
223.6849797632
  0
VERTEX
  8
0
 62
7
  6
CONTINUOUS
 10
45.3274383435
 20
223.6827693896
  0
VERTEX
  8
0
 62
7
  6
CONTINUOUS
 10
45.3244322668
 20
223.6807010806
  0
VERTEX
  8
0
 62
7
  6
CONTINUOUS
 10
45.3214242041
 20
223.678817654
  0
VERTEX
  8
0
 62
7
  6
CONTINUOUS
 10
45.3185195174
 20
223.6771929845
  0
VERTEX
  8
0
 62
7
  6
CONTINUOUS
 10
45.31560942
 20
223.6757799492
  0
VERTEX
  8
0
 62
7
  6
CONTINUOUS
 10
45.3126323652
 20
223.6745995282
  0
VERTEX
  8
0
 62
7
  6
CONTINUOUS
 10
45.3098032081
 20
223.6737983922
  0
VERTEX
  8
0
 62
7
  6
CONTINUOUS
 10
45.3071605087
 20
223.6734405589
  0
VERTEX
  8
0
 62
7
  6
CONTINUOUS
 10
45.3062785649
 20
223.6734180569
  0
SEQEND
  0
LINE
  8
0
 62
7
  6
CONTINUOUS
 10
20.394140625
 20
219.2875195576
 11
20.1661130348
 21
219.0594920389
  0
POLYLINE
  8
0
 62
7
  6
CONTINUOUS
 66
1
 70
0
  0
VERTEX
  8
0
 62
7
  6
CONTINUOUS
 10
58.1883250983
 20
218.5469139505
  0
VERTEX
  8
0
 62
7
  6
CONTINUOUS
 10
58.1937130412
 20
218.4935362631
  0
VERTEX
  8
0
 62
7
  6
CONTINUOUS
 10
58.1999044514
 20
218.4269682093
  0
VERTEX
  8
0
 62
7
  6
CONTINUOUS
 10
58.201732608
 20
218.3783673005
  0
SEQEND
  0
POLYLINE
  8
0
 62
7
  6
CONTINUOUS
 66
1
 70
0
  0
VERTEX
  8
0
 62
7
  6
CONTINUOUS
 10
58.0999559462
 20
224.1640236877
  0
VERTEX
  8
0
 62
7
  6
CONTINUOUS
 10
58.0948166264
 20
224.2150478057
  0
VERTEX
  8
0
 62
7
  6
CONTINUOUS
 10
58.0886037323
 20
224.2807640707
  0
VERTEX
  8
0
 62
7
  6
CONTINUOUS
 10
58.0865486918
 20
224.3325700718
  0
SEQEND
  0
LINE
  8
0
 62
7
  6
CONTINUOUS
 10
58.1865410093
 20
218.5657024068
 11
58.1883250983
 21
218.5469139505
  0
LINE
  8
0
 62
7
  6
CONTINUOUS
 10
58.1017737576
 20
224.1448974825
 11
58.0999561375
 21
224.1640237052
  0
POLYLINE
  8
0
 62
7
  6
CONTINUOUS
 66
1
 70
0
  0
VERTEX
  8
0
 62
7
  6
CONTINUOUS
 10
58.0865485232
 20
225.35546875
  0
VERTEX
  8
0
 62
7
  6
CONTINUOUS
 10
58.0825328909
 20
225.7534027988
  0
VERTEX
  8
0
 62
7
  6
CONTINUOUS
 10
58.0704234747
 20
226.146742416
  0
VERTEX
  8
0
 62
7
  6
CONTINUOUS
 10
58.051443265
 20
226.5086520734
  0
VERTEX
  8
0
 62
7
  6
CONTINUOUS
 10
58.027314278
 20
226.8294610684
  0
VERTEX
  8
0
 62
7
  6
CONTINUOUS
 10
57.9997461433
 20
227.1061541654
  0
VERTEX
  8
0
 62
7
  6
CONTINUOUS
 10
57.9697004028
 20
227.3434182949
  0
VERTEX
  8
0
 62
7
  6
CONTINUOUS
 10
57.9377148151
 20
227.5461849802
  0
VERTEX
  8
0
 62
7
  6
CONTINUOUS
 10
57.9043379794
 20
227.7172884765
  0
VERTEX
  8
0
 62
7
  6
CONTINUOUS
 10
57.8699015435
 20
227.8598293905
  0
VERTEX
  8
0
 62
7
  6
CONTINUOUS
 10
57.834205558
 20
227.9779402882
  0
VERTEX
  8
0
 62
7
  6
CONTINUOUS
 10
57.7961158933
 20
228.0766054515
  0
VERTEX
  8
0
 62
7
  6
CONTINUOUS
 10
57.7528939428
 20
228.1610928491
  0
VERTEX
  8
0
 62
7
  6
CONTINUOUS
 10
57.6994321839
 20
228.2353678849
  0
VERTEX
  8
0
 62
7
  6
CONTINUOUS
 10
57.6277098235
 20
228.2995214215
  0
VERTEX
  8
0
 62
7
  6
CONTINUOUS
 10
57.5355579194
 20
228.3432576326
  0
VERTEX
  8
0
 62
7
  6
CONTINUOUS
 10
57.4501850862
 20
228.3554687187
  0
SEQEND
  0
POLYLINE
  8
0
 62
7
  6
CONTINUOUS
 66
1
 70
0
  0
VERTEX
  8
0
 62
7
  6
CONTINUOUS
 10
58.2017327268
 20
217.35546875
  0
VERTEX
  8
0
 62
7
  6
CONTINUOUS
 10
58.2054068826
 20
216.9747475922
  0
VERTEX
  8
0
 62
7
  6
CONTINUOUS
 10
58.2173804096
 20
216.5757561838
  0
VERTEX
  8
0
 62
7
  6
CONTINUOUS
 10
58.2374034609
 20
216.1934676212
  0
VERTEX
  8
0
 62
7
  6
CONTINUOUS
 10
58.2641884676
 20
215.845236084
  0
VERTEX
  8
0
 62
7
  6
CONTINUOUS
 10
58.295898357
 20
215.5414947841
  0
VERTEX
  8
0
 62
7
  6
CONTINUOUS
 10
58.3308196394
 20
215.2847432432
  0
VERTEX
  8
0
 62
7
  6
CONTINUOUS
 10
58.3676772553
 20
215.0725168763
  0
VERTEX
  8
0
 62
7
  6
CONTINUOUS
 10
58.4060446955
 20
214.8986426728
  0
VERTEX
  8
0
 62
7
  6
CONTINUOUS
 10
58.446080963
 20
214.7571138555
  0
VERTEX
  8
0
 62
7
  6
CONTINUOUS
 10
58.4883198652
 20
214.6431668995
  0
VERTEX
  8
0
 62
7
  6
CONTINUOUS
 10
58.534892202
 20
214.5506731451
  0
VERTEX
  8
0
 62
7
  6
CONTINUOUS
 10
58.5906661175
 20
214.4735071858
  0
VERTEX
  8
0
 62
7
  6
CONTINUOUS
 10
58.6629259774
 20
214.4098255018
  0
VERTEX
  8
0
 62
7
  6
CONTINUOUS
 10
58.7532582869
 20
214.3675250137
  0
VERTEX
  8
0
 62
7
  6
CONTINUOUS
 10
58.8381081731
 20
214.3554687755
  0
SEQEND
  0
LINE
  8
0
 62
7
  6
CONTINUOUS
 10
58.0865485232
 20
225.35546875
 11
58.0865485232
 21
224.3325700727
  0
LINE
  8
0
 62
7
  6
CONTINUOUS
 10
58.2017327268
 20
218.3783673005
 11
58.2017327268
 21
217.35546875
  0
LINE
  8
0
 62
7
  6
CONTINUOUS
 10
70.7865485232
 20
218.3783668198
 11
70.7865485232
 21
217.35546875
  0
LINE
  8
0
 62
7
  6
CONTINUOUS
 10
70.9017327268
 20
224.3325705971
 11
70.9017327268
 21
225.35546875
  0
POLYLINE
  8
0
 62
7
  6
CONTINUOUS
 66
1
 70
0
  0
VERTEX
  8
0
 62
7
  6
CONTINUOUS
 10
70.9017326201
 20
224.3325705971
  0
VERTEX
  8
0
 62
7
  6
CONTINUOUS
 10
70.8999042884
 20
224.2839651591
  0
VERTEX
  8
0
 62
7
  6
CONTINUOUS
 10
70.8937108743
 20
224.2173808191
  0
VERTEX
  8
0
 62
7
  6
CONTINUOUS
 10
70.8883250296
 20
224.1640227931
  0
SEQEND
  0
POLYLINE
  8
0
 62
7
  6
CONTINUOUS
 66
1
 70
0
  0
VERTEX
  8
0
 62
7
  6
CONTINUOUS
 10
70.786548624
 20
218.3783668198
  0
VERTEX
  8
0
 62
7
  6
CONTINUOUS
 10
70.7883769416
 20
218.4269723618
  0
VERTEX
  8
0
 62
7
  6
CONTINUOUS
 10
70.7945703407
 20
218.493556282
  0
VERTEX
  8
0
 62
7
  6
CONTINUOUS
 10
70.7999562209
 20
218.5469147128
  0
SEQEND
  0
POLYLINE
  8
0
 62
7
  6
CONTINUOUS
 66
1
 70
0
  0
VERTEX
  8
0
 62
7
  6
CONTINUOUS
 10
70.8883250296
 20
224.1640227931
  0
VERTEX
  8
0
 62
7
  6
CONTINUOUS
 10
70.8865376669
 20
224.1452014902
  0
VERTEX
  8
0
 62
7
  6
CONTINUOUS
 10
70.8853663487
 20
224.1336942239
  0
VERTEX
  8
0
 62
7
  6
CONTINUOUS
 10
70.8841447502
 20
224.1222970221
  0
VERTEX
  8
0
 62
7
  6
CONTINUOUS
 10
70.882872576
 20
224.1110117604
  0
VERTEX
  8
0
 62
7
  6
CONTINUOUS
 10
70.8815496248
 20
224.0998403969
  0
VERTEX
  8
0
 62
7
  6
CONTINUOUS
 10
70.8801757431
 20
224.0887850218
  0
VERTEX
  8
0
 62
7
  6
CONTINUOUS
 10
70.8787508058
 20
224.0778478847
  0
VERTEX
  8
0
 62
7
  6
CONTINUOUS
 10
70.8772747946
 20
224.06703131
  0
VERTEX
  8
0
 62
7
  6
CONTINUOUS
 10
70.8757478073
 20
224.0563376836
  0
VERTEX
  8
0
 62
7
  6
CONTINUOUS
 10
70.8741700767
 20
224.0457695665
  0
VERTEX
  8
0
 62
7
  6
CONTINUOUS
 10
70.8725419919
 20
224.0353301617
  0
VERTEX
  8
0
 62
7
  6
CONTINUOUS
 10
70.8708637027
 20
224.0250208807
  0
VERTEX
  8
0
 62
7
  6
CONTINUOUS
 10
70.8691354051
 20
224.0148428912
  0
VERTEX
  8
0
 62
7
  6
CONTINUOUS
 10
70.8673574138
 20
224.0047975342
  0
VERTEX
  8
0
 62
7
  6
CONTINUOUS
 10
70.8655301596
 20
223.9948863273
  0
VERTEX
  8
0
 62
7
  6
CONTINUOUS
 10
70.863654144
 20
223.9851110788
  0
VERTEX
  8
0
 62
7
  6
CONTINUOUS
 10
70.8617299754
 20
223.9754738178
  0
VERTEX
  8
0
 62
7
  6
CONTINUOUS
 10
70.8597584089
 20
223.9659766992
  0
VERTEX
  8
0
 62
7
  6
CONTINUOUS
 10
70.857740349
 20
223.9566219886
  0
VERTEX
  8
0
 62
7
  6
CONTINUOUS
 10
70.8556768403
 20
223.9474121109
  0
VERTEX
  8
0
 62
7
  6
CONTINUOUS
 10
70.8535690504
 20
223.9383497759
  0
VERTEX
  8
0
 62
7
  6
CONTINUOUS
 10
70.8514183111
 20
223.9294377929
  0
VERTEX
  8
0
 62
7
  6
CONTINUOUS
 10
70.8492261278
 20
223.9206790119
  0
VERTEX
  8
0
 62
7
  6
CONTINUOUS
 10
70.8469956153
 20
223.9120817477
  0
VERTEX
  8
0
 62
7
  6
CONTINUOUS
 10
70.8447374588
 20
223.9036807637
  0
VERTEX
  8
0
 62
7
  6
CONTINUOUS
 10
70.8424659099
 20
223.8955186387
  0
VERTEX
  8
0
 62
7
  6
CONTINUOUS
 10
70.8401969081
 20
223.887637674
  0
VERTEX
  8
0
 62
7
  6
CONTINUOUS
 10
70.8379443249
 20
223.8800673866
  0
VERTEX
  8
0
 62
7
  6
CONTINUOUS
 10
70.8357047382
 20
223.8727776851
  0
VERTEX
  8
0
 62
7
  6
CONTINUOUS
 10
70.8334681798
 20
223.8657213346
  0
VERTEX
  8
0
 62
7
  6
CONTINUOUS
 10
70.8312232203
 20
223.8588519331
  0
VERTEX
  8
0
 62
7
  6
CONTINUOUS
 10
70.8289569243
 20
223.8521237247
  0
VERTEX
  8
0
 62
7
  6
CONTINUOUS
 10
70.8266586644
 20
223.8455025628
  0
VERTEX
  8
0
 62
7
  6
CONTINUOUS
 10
70.8243266164
 20
223.8389824061
  0
VERTEX
  8
0
 62
7
  6
CONTINUOUS
 10
70.821959304
 20
223.8325588556
  0
VERTEX
  8
0
 62
7
  6
CONTINUOUS
 10
70.8195553438
 20
223.8262283133
  0
VERTEX
  8
0
 62
7
  6
CONTINUOUS
 10
70.8171134525
 20
223.819987933
  0
VERTEX
  8
0
 62
7
  6
CONTINUOUS
 10
70.8146323995
 20
223.8138354442
  0
VERTEX
  8
0
 62
7
  6
CONTINUOUS
 10
70.8121110112
 20
223.8077691316
  0
VERTEX
  8
0
 62
7
  6
CONTINUOUS
 10
70.8095481762
 20
223.8017878178
  0
VERTEX
  8
0
 62
7
  6
CONTINUOUS
 10
70.8069428729
 20
223.7958908799
  0
VERTEX
  8
0
 62
7
  6
CONTINUOUS
 10
70.8042943566
 20
223.7900784813
  0
VERTEX
  8
0
 62
7
  6
CONTINUOUS
 10
70.8016020967
 20
223.7843514341
  0
VERTEX
  8
0
 62
7
  6
CONTINUOUS
 10
70.7988656894
 20
223.7787110485
  0
VERTEX
  8
0
 62
7
  6
CONTINUOUS
 10
70.796084865
 20
223.7731591225
  0
VERTEX
  8
0
 62
7
  6
CONTINUOUS
 10
70.7932594948
 20
223.7676979338
  0
VERTEX
  8
0
 62
7
  6
CONTINUOUS
 10
70.7903897332
 20
223.7623303353
  0
VERTEX
  8
0
 62
7
  6
CONTINUOUS
 10
70.787476358
 20
223.7570599894
  0
VERTEX
  8
0
 62
7
  6
CONTINUOUS
 10
70.7845203645
 20
223.7518909125
  0
VERTEX
  8
0
 62
7
  6
CONTINUOUS
 10
70.7815226856
 20
223.746827091
  0
VERTEX
  8
0
 62
7
  6
CONTINUOUS
 10
70.7784878057
 20
223.7418783371
  0
VERTEX
  8
0
 62
7
  6
CONTINUOUS
 10
70.7754223285
 20
223.7370570713
  0
VERTEX
  8
0
 62
7
  6
CONTINUOUS
 10
70.7723352144
 20
223.7323774031
  0
VERTEX
  8
0
 62
7
  6
CONTINUOUS
 10
70.7692379218
 20
223.727854881
  0
VERTEX
  8
0
 62
7
  6
CONTINUOUS
 10
70.7661438923
 20
223.7235059787
  0
VERTEX
  8
0
 62
7
  6
CONTINUOUS
 10
70.7630676398
 20
223.7193465278
  0
VERTEX
  8
0
 62
7
  6
CONTINUOUS
 10
70.7600138058
 20
223.7153776316
  0
VERTEX
  8
0
 62
7
  6
CONTINUOUS
 10
70.7569808885
 20
223.7115925026
  0
VERTEX
  8
0
 62
7
  6
CONTINUOUS
 10
70.753970227
 20
223.7079872266
  0
VERTEX
  8
0
 62
7
  6
CONTINUOUS
 10
70.7509873641
 20
223.704562916
  0
VERTEX
  8
0
 62
7
  6
CONTINUOUS
 10
70.748026536
 20
223.7013085857
  0
VERTEX
  8
0
 62
7
  6
CONTINUOUS
 10
70.7450756152
 20
223.6982090271
  0
VERTEX
  8
0
 62
7
  6
CONTINUOUS
 10
70.7421270727
 20
223.6952569915
  0
VERTEX
  8
0
 62
7
  6
CONTINUOUS
 10
70.7391785431
 20
223.6924507239
  0
VERTEX
  8
0
 62
7
  6
CONTINUOUS
 10
70.7362360151
 20
223.6897963975
  0
VERTEX
  8
0
 62
7
  6
CONTINUOUS
 10
70.7333250784
 20
223.6873169912
  0
VERTEX
  8
0
 62
7
  6
CONTINUOUS
 10
70.7304031969
 20
223.6849797632
  0
VERTEX
  8
0
 62
7
  6
CONTINUOUS
 10
70.7274383435
 20
223.6827693896
  0
VERTEX
  8
0
 62
7
  6
CONTINUOUS
 10
70.7244322668
 20
223.6807010806
  0
VERTEX
  8
0
 62
7
  6
CONTINUOUS
 10
70.7214242041
 20
223.678817654
  0
VERTEX
  8
0
 62
7
  6
CONTINUOUS
 10
70.7185195174
 20
223.6771929845
  0
VERTEX
  8
0
 62
7
  6
CONTINUOUS
 10
70.71560942
 20
223.6757799492
  0
VERTEX
  8
0
 62
7
  6
CONTINUOUS
 10
70.7126323652
 20
223.6745995282
  0
VERTEX
  8
0
 62
7
  6
CONTINUOUS
 10
70.7098032081
 20
223.6737983922
  0
VERTEX
  8
0
 62
7
  6
CONTINUOUS
 10
70.7071605087
 20
223.6734405589
  0
VERTEX
  8
0
 62
7
  6
CONTINUOUS
 10
70.7062785649
 20
223.6734180569
  0
SEQEND
  0
POLYLINE
  8
0
 62
7
  6
CONTINUOUS
 66
1
 70
0
  0
VERTEX
  8
0
 62
7
  6
CONTINUOUS
 10
70.799956221
 20
218.5469147128
  0
VERTEX
  8
0
 62
7
  6
CONTINUOUS
 10
70.8017435842
 20
218.5657360203
  0
VERTEX
  8
0
 62
7
  6
CONTINUOUS
 10
70.8029149025
 20
218.5772432871
  0
VERTEX
  8
0
 62
7
  6
CONTINUOUS
 10
70.804136501
 20
218.5886404892
  0
VERTEX
  8
0
 62
7
  6
CONTINUOUS
 10
70.8054086753
 20
218.599925751
  0
VERTEX
  8
0
 62
7
  6
CONTINUOUS
 10
70.8067316265
 20
218.6110971142
  0
VERTEX
  8
0
 62
7
  6
CONTINUOUS
 10
70.8081055082
 20
218.6221524885
  0
VERTEX
  8
0
 62
7
  6
CONTINUOUS
 10
70.8095304454
 20
218.6330896247
  0
VERTEX
  8
0
 62
7
  6
CONTINUOUS
 10
70.8110064566
 20
218.6439061985
  0
VERTEX
  8
0
 62
7
  6
CONTINUOUS
 10
70.8125334438
 20
218.6545998244
  0
VERTEX
  8
0
 62
7
  6
CONTINUOUS
 10
70.8141111745
 20
218.6651679412
  0
VERTEX
  8
0
 62
7
  6
CONTINUOUS
 10
70.8157392593
 20
218.675607346
  0
VERTEX
  8
0
 62
7
  6
CONTINUOUS
 10
70.8174175486
 20
218.6859166269
  0
VERTEX
  8
0
 62
7
  6
CONTINUOUS
 10
70.8191458462
 20
218.6960946165
  0
VERTEX
  8
0
 62
7
  6
CONTINUOUS
 10
70.8209238375
 20
218.7061399734
  0
VERTEX
  8
0
 62
7
  6
CONTINUOUS
 10
70.8227510918
 20
218.7160511801
  0
VERTEX
  8
0
 62
7
  6
CONTINUOUS
 10
70.8246271074
 20
218.7258264286
  0
VERTEX
  8
0
 62
7
  6
CONTINUOUS
 10
70.8265512761
 20
218.7354636894
  0
VERTEX
  8
0
 62
7
  6
CONTINUOUS
 10
70.8285228426
 20
218.7449608077
  0
VERTEX
  8
0
 62
7
  6
CONTINUOUS
 10
70.8305409025
 20
218.7543155182
  0
VERTEX
  8
0
 62
7
  6
CONTINUOUS
 10
70.8326044112
 20
218.7635253957
  0
VERTEX
  8
0
 62
7
  6
CONTINUOUS
 10
70.8347122011
 20
218.7725877305
  0
VERTEX
  8
0
 62
7
  6
CONTINUOUS
 10
70.8368629404
 20
218.7814997133
  0
VERTEX
  8
0
 62
7
  6
CONTINUOUS
 10
70.8390551237
 20
218.7902584942
  0
VERTEX
  8
0
 62
7
  6
CONTINUOUS
 10
70.8412856362
 20
218.7988557581
  0
VERTEX
  8
0
 62
7
  6
CONTINUOUS
 10
70.8435437927
 20
218.8072567419
  0
VERTEX
  8
0
 62
7
  6
CONTINUOUS
 10
70.8458153416
 20
218.8154188667
  0
VERTEX
  8
0
 62
7
  6
CONTINUOUS
 10
70.8480843434
 20
218.8232998311
  0
VERTEX
  8
0
 62
7
  6
CONTINUOUS
 10
70.8503369266
 20
218.8308701182
  0
VERTEX
  8
0
 62
7
  6
CONTINUOUS
 10
70.8525765132
 20
218.8381598195
  0
VERTEX
  8
0
 62
7
  6
CONTINUOUS
 10
70.8548130715
 20
218.8452161696
  0
VERTEX
  8
0
 62
7
  6
CONTINUOUS
 10
70.857058031
 20
218.8520855709
  0
VERTEX
  8
0
 62
7
  6
CONTINUOUS
 10
70.859324327
 20
218.858813779
  0
VERTEX
  8
0
 62
7
  6
CONTINUOUS
 10
70.8616225868
 20
218.8654349407
  0
VERTEX
  8
0
 62
7
  6
CONTINUOUS
 10
70.8639546348
 20
218.8719550972
  0
VERTEX
  8
0
 62
7
  6
CONTINUOUS
 10
70.8663219472
 20
218.8783786475
  0
VERTEX
  8
0
 62
7
  6
CONTINUOUS
 10
70.8687259074
 20
218.8847091896
  0
VERTEX
  8
0
 62
7
  6
CONTINUOUS
 10
70.8711677987
 20
218.8909495698
  0
VERTEX
  8
0
 62
7
  6
CONTINUOUS
 10
70.8736488516
 20
218.8971020584
  0
VERTEX
  8
0
 62
7
  6
CONTINUOUS
 10
70.8761702399
 20
218.9031683709
  0
VERTEX
  8
0
 62
7
  6
CONTINUOUS
 10
70.8787330748
 20
218.9091496845
  0
VERTEX
  8
0
 62
7
  6
CONTINUOUS
 10
70.8813383781
 20
218.9150466223
  0
VERTEX
  8
0
 62
7
  6
CONTINUOUS
 10
70.8839868944
 20
218.9208590208
  0
VERTEX
  8
0
 62
7
  6
CONTINUOUS
 10
70.8866791543
 20
218.9265860679
  0
VERTEX
  8
0
 62
7
  6
CONTINUOUS
 10
70.8894155615
 20
218.9322264534
  0
VERTEX
  8
0
 62
7
  6
CONTINUOUS
 10
70.8921963859
 20
218.9377783792
  0
VERTEX
  8
0
 62
7
  6
CONTINUOUS
 10
70.8950217561
 20
218.9432395679
  0
VERTEX
  8
0
 62
7
  6
CONTINUOUS
 10
70.8978915176
 20
218.9486071663
  0
VERTEX
  8
0
 62
7
  6
CONTINUOUS
 10
70.9008048928
 20
218.9538775121
  0
VERTEX
  8
0
 62
7
  6
CONTINUOUS
 10
70.9037608863
 20
218.9590465889
  0
VERTEX
  8
0
 62
7
  6
CONTINUOUS
 10
70.9067585652
 20
218.9641104104
  0
VERTEX
  8
0
 62
7
  6
CONTINUOUS
 10
70.9097934451
 20
218.9690591642
  0
VERTEX
  8
0
 62
7
  6
CONTINUOUS
 10
70.9128589223
 20
218.97388043
  0
VERTEX
  8
0
 62
7
  6
CONTINUOUS
 10
70.9159460364
 20
218.9785600981
  0
VERTEX
  8
0
 62
7
  6
CONTINUOUS
 10
70.9190433289
 20
218.9830826202
  0
VERTEX
  8
0
 62
7
  6
CONTINUOUS
 10
70.9221373584
 20
218.9874315225
  0
VERTEX
  8
0
 62
7
  6
CONTINUOUS
 10
70.9252136109
 20
218.9915909732
  0
VERTEX
  8
0
 62
7
  6
CONTINUOUS
 10
70.9282674449
 20
218.9955598695
  0
VERTEX
  8
0
 62
7
  6
CONTINUOUS
 10
70.9313003622
 20
218.9993449984
  0
VERTEX
  8
0
 62
7
  6
CONTINUOUS
 10
70.9343110237
 20
219.0029502744
  0
VERTEX
  8
0
 62
7
  6
CONTINUOUS
 10
70.9372938865
 20
219.006374585
  0
VERTEX
  8
0
 62
7
  6
CONTINUOUS
 10
70.9402547146
 20
219.0096289152
  0
VERTEX
  8
0
 62
7
  6
CONTINUOUS
 10
70.9432056354
 20
219.0127284737
  0
VERTEX
  8
0
 62
7
  6
CONTINUOUS
 10
70.9461541779
 20
219.0156805093
  0
VERTEX
  8
0
 62
7
  6
CONTINUOUS
 10
70.9491027074
 20
219.0184867768
  0
VERTEX
  8
0
 62
7
  6
CONTINUOUS
 10
70.9520452355
 20
219.0211411033
  0
VERTEX
  8
0
 62
7
  6
CONTINUOUS
 10
70.9549561721
 20
219.0236205095
  0
VERTEX
  8
0
 62
7
  6
CONTINUOUS
 10
70.9578780536
 20
219.0259577375
  0
VERTEX
  8
0
 62
7
  6
CONTINUOUS
 10
70.9608429069
 20
219.028168111
  0
VERTEX
  8
0
 62
7
  6
CONTINUOUS
 10
70.9638489836
 20
219.0302364199
  0
VERTEX
  8
0
 62
7
  6
CONTINUOUS
 10
70.9668570462
 20
219.0321198464
  0
VERTEX
  8
0
 62
7
  6
CONTINUOUS
 10
70.9697617329
 20
219.033744516
  0
VERTEX
  8
0
 62
7
  6
CONTINUOUS
 10
70.9726718303
 20
219.0351575512
  0
VERTEX
  8
0
 62
7
  6
CONTINUOUS
 10
70.975648885
 20
219.0363379721
  0
VERTEX
  8
0
 62
7
  6
CONTINUOUS
 10
70.978478042
 20
219.0371391081
  0
VERTEX
  8
0
 62
7
  6
CONTINUOUS
 10
70.9811207414
 20
219.0374969413
  0
VERTEX
  8
0
 62
7
  6
CONTINUOUS
 10
70.9820026851
 20
219.0375194432
  0
SEQEND
  0
POLYLINE
  8
0
 62
7
  6
CONTINUOUS
 66
1
 70
0
  0
VERTEX
  8
0
 62
7
  6
CONTINUOUS
 10
83.5883253039
 20
218.5469138102
  0
VERTEX
  8
0
 62
7
  6
CONTINUOUS
 10
83.5934633286
 20
218.4959019691
  0
VERTEX
  8
0
 62
7
  6
CONTINUOUS
 10
83.5996765785
 20
218.4301863244
  0
VERTEX
  8
0
 62
7
  6
CONTINUOUS
 10
83.6017325606
 20
218.3783673905
  0
SEQEND
  0
POLYLINE
  8
0
 62
7
  6
CONTINUOUS
 66
1
 70
0
  0
VERTEX
  8
0
 62
7
  6
CONTINUOUS
 10
83.4999559462
 20
224.1640236877
  0
VERTEX
  8
0
 62
7
  6
CONTINUOUS
 10
83.4948166264
 20
224.2150478057
  0
VERTEX
  8
0
 62
7
  6
CONTINUOUS
 10
83.4886037323
 20
224.2807640707
  0
VERTEX
  8
0
 62
7
  6
CONTINUOUS
 10
83.4865486918
 20
224.3325700718
  0
SEQEND
  0
LINE
  8
0
 62
7
  6
CONTINUOUS
 10
83.5865074927
 20
218.5660400148
 11
83.5883251127
 21
218.5469137927
  0
LINE
  8
0
 62
7
  6
CONTINUOUS
 10
83.5017737576
 20
224.1448974825
 11
83.4999561375
 21
224.1640237052
  0
POLYLINE
  8
0
 62
7
  6
CONTINUOUS
 66
1
 70
0
  0
VERTEX
  8
0
 62
7
  6
CONTINUOUS
 10
83.4865485232
 20
225.35546875
  0
VERTEX
  8
0
 62
7
  6
CONTINUOUS
 10
83.4825328909
 20
225.7534027988
  0
VERTEX
  8
0
 62
7
  6
CONTINUOUS
 10
83.4704234747
 20
226.146742416
  0
VERTEX
  8
0
 62
7
  6
CONTINUOUS
 10
83.451443265
 20
226.5086520734
  0
VERTEX
  8
0
 62
7
  6
CONTINUOUS
 10
83.427314278
 20
226.8294610684
  0
VERTEX
  8
0
 62
7
  6
CONTINUOUS
 10
83.3997461433
 20
227.1061541654
  0
VERTEX
  8
0
 62
7
  6
CONTINUOUS
 10
83.3697004028
 20
227.3434182949
  0
VERTEX
  8
0
 62
7
  6
CONTINUOUS
 10
83.3377148151
 20
227.5461849802
  0
VERTEX
  8
0
 62
7
  6
CONTINUOUS
 10
83.3043379794
 20
227.7172884765
  0
VERTEX
  8
0
 62
7
  6
CONTINUOUS
 10
83.2699015435
 20
227.8598293905
  0
VERTEX
  8
0
 62
7
  6
CONTINUOUS
 10
83.234205558
 20
227.9779402882
  0
VERTEX
  8
0
 62
7
  6
CONTINUOUS
 10
83.1961158933
 20
228.0766054515
  0
VERTEX
  8
0
 62
7
  6
CONTINUOUS
 10
83.1528939428
 20
228.1610928491
  0
VERTEX
  8
0
 62
7
  6
CONTINUOUS
 10
83.0994321839
 20
228.2353678849
  0
VERTEX
  8
0
 62
7
  6
CONTINUOUS
 10
83.0277098235
 20
228.2995214215
  0
VERTEX
  8
0
 62
7
  6
CONTINUOUS
 10
82.9355579194
 20
228.3432576326
  0
VERTEX
  8
0
 62
7
  6
CONTINUOUS
 10
82.8501850862
 20
228.3554687187
  0
SEQEND
  0
POLYLINE
  8
0
 62
7
  6
CONTINUOUS
 66
1
 70
0
  0
VERTEX
  8
0
 62
7
  6
CONTINUOUS
 10
83.6017327268
 20
217.35546875
  0
VERTEX
  8
0
 62
7
  6
CONTINUOUS
 10
83.605748359
 20
216.957534706
  0
VERTEX
  8
0
 62
7
  6
CONTINUOUS
 10
83.6178577747
 20
216.5641950976
  0
VERTEX
  8
0
 62
7
  6
CONTINUOUS
 10
83.6368379843
 20
216.202285438
  0
VERTEX
  8
0
 62
7
  6
CONTINUOUS
 10
83.6609669712
 20
215.8814764413
  0
VERTEX
  8
0
 62
7
  6
CONTINUOUS
 10
83.6885351057
 20
215.604783343
  0
VERTEX
  8
0
 62
7
  6
CONTINUOUS
 10
83.7185808462
 20
215.3675192121
  0
VERTEX
  8
0
 62
7
  6
CONTINUOUS
 10
83.7505664339
 20
215.1647525256
  0
VERTEX
  8
0
 62
7
  6
CONTINUOUS
 10
83.7839432697
 20
214.9936490276
  0
VERTEX
  8
0
 62
7
  6
CONTINUOUS
 10
83.8183797055
 20
214.8511081132
  0
VERTEX
  8
0
 62
7
  6
CONTINUOUS
 10
83.8540756909
 20
214.7329972149
  0
VERTEX
  8
0
 62
7
  6
CONTINUOUS
 10
83.8921653557
 20
214.6343320508
  0
VERTEX
  8
0
 62
7
  6
CONTINUOUS
 10
83.9353873065
 20
214.5498446519
  0
VERTEX
  8
0
 62
7
  6
CONTINUOUS
 10
83.9888490652
 20
214.475569616
  0
VERTEX
  8
0
 62
7
  6
CONTINUOUS
 10
84.0605714253
 20
214.4114160793
  0
VERTEX
  8
0
 62
7
  6
CONTINUOUS
 10
84.1527233291
 20
214.3676798681
  0
VERTEX
  8
0
 62
7
  6
CONTINUOUS
 10
84.2380961624
 20
214.3554687813
  0
SEQEND
  0
LINE
  8
0
 62
7
  6
CONTINUOUS
 10
83.4865485232
 20
225.35546875
 11
83.4865485232
 21
224.3325700727
  0
LINE
  8
0
 62
7
  6
CONTINUOUS
 10
83.6017327268
 20
217.35546875
 11
83.6017327268
 21
218.3783673895
  0
POLYLINE
  8
0
 62
7
  6
CONTINUOUS
 66
1
 70
0
  0
VERTEX
  8
0
 62
7
  6
CONTINUOUS
 10
146.3501780442
 20
214.3554687778
  0
VERTEX
  8
0
 62
7
  6
CONTINUOUS
 10
146.434123413
 20
214.3672669352
  0
VERTEX
  8
0
 62
7
  6
CONTINUOUS
 10
146.5246351411
 20
214.4093446611
  0
VERTEX
  8
0
 62
7
  6
CONTINUOUS
 10
146.5970855932
 20
214.4729111223
  0
VERTEX
  8
0
 62
7
  6
CONTINUOUS
 10
146.6529827343
 20
214.5499930186
  0
VERTEX
  8
0
 62
7
  6
CONTINUOUS
 10
146.699624222
 20
214.6423828255
  0
VERTEX
  8
0
 62
7
  6
CONTINUOUS
 10
146.7419042654
 20
214.7561980226
  0
VERTEX
  8
0
 62
7
  6
CONTINUOUS
 10
146.7819714156
 20
214.89758136
  0
VERTEX
  8
0
 62
7
  6
CONTINUOUS
 10
146.8203669435
 20
215.0713083646
  0
VERTEX
  8
0
 62
7
  6
CONTINUOUS
 10
146.8572520178
 20
215.2833851933
  0
VERTEX
  8
0
 62
7
  6
CONTINUOUS
 10
146.8922019874
 20
215.5399861721
  0
VERTEX
  8
0
 62
7
  6
CONTINUOUS
 10
146.9239458123
 20
215.8436115816
  0
VERTEX
  8
0
 62
7
  6
CONTINUOUS
 10
146.9507715592
 20
216.1918200883
  0
VERTEX
  8
0
 62
7
  6
CONTINUOUS
 10
146.9708367775
 20
216.57419389
  0
VERTEX
  8
0
 62
7
  6
CONTINUOUS
 10
146.9828469073
 20
216.9733341697
  0
VERTEX
  8
0
 62
7
  6
CONTINUOUS
 10
146.9865485232
 20
217.35546875
  0
SEQEND
  0
POLYLINE
  8
0
 62
7
  6
CONTINUOUS
 66
1
 70
0
  0
VERTEX
  8
0
 62
7
  6
CONTINUOUS
 10
120.9501780442
 20
214.3554687778
  0
VERTEX
  8
0
 62
7
  6
CONTINUOUS
 10
121.034123413
 20
214.3672669352
  0
VERTEX
  8
0
 62
7
  6
CONTINUOUS
 10
121.1246351411
 20
214.4093446611
  0
VERTEX
  8
0
 62
7
  6
CONTINUOUS
 10
121.1970855932
 20
214.4729111223
  0
VERTEX
  8
0
 62
7
  6
CONTINUOUS
 10
121.2529827343
 20
214.5499930186
  0
VERTEX
  8
0
 62
7
  6
CONTINUOUS
 10
121.299624222
 20
214.6423828255
  0
VERTEX
  8
0
 62
7
  6
CONTINUOUS
 10
121.3419042654
 20
214.7561980226
  0
VERTEX
  8
0
 62
7
  6
CONTINUOUS
 10
121.3819714156
 20
214.89758136
  0
VERTEX
  8
0
 62
7
  6
CONTINUOUS
 10
121.4203669435
 20
215.0713083646
  0
VERTEX
  8
0
 62
7
  6
CONTINUOUS
 10
121.4572520178
 20
215.2833851933
  0
VERTEX
  8
0
 62
7
  6
CONTINUOUS
 10
121.4922019874
 20
215.5399861721
  0
VERTEX
  8
0
 62
7
  6
CONTINUOUS
 10
121.5239458123
 20
215.8436115816
  0
VERTEX
  8
0
 62
7
  6
CONTINUOUS
 10
121.5507715592
 20
216.1918200883
  0
VERTEX
  8
0
 62
7
  6
CONTINUOUS
 10
121.5708367775
 20
216.57419389
  0
VERTEX
  8
0
 62
7
  6
CONTINUOUS
 10
121.5828469073
 20
216.9733341697
  0
VERTEX
  8
0
 62
7
  6
CONTINUOUS
 10
121.5865485232
 20
217.35546875
  0
SEQEND
  0
LINE
  8
0
 62
7
  6
CONTINUOUS
 10
20.166348543
 20
219.0388201777
 11
20.1782516543
 21
219.0375195576
  0
POLYLINE
  8
0
 62
7
  6
CONTINUOUS
 66
1
 70
0
  0
VERTEX
  8
0
 62
7
  6
CONTINUOUS
 10
95.5501780442
 20
214.3554687778
  0
VERTEX
  8
0
 62
7
  6
CONTINUOUS
 10
95.634123413
 20
214.3672669352
  0
VERTEX
  8
0
 62
7
  6
CONTINUOUS
 10
95.7246351411
 20
214.4093446611
  0
VERTEX
  8
0
 62
7
  6
CONTINUOUS
 10
95.7970855932
 20
214.4729111223
  0
VERTEX
  8
0
 62
7
  6
CONTINUOUS
 10
95.8529827343
 20
214.5499930186
  0
VERTEX
  8
0
 62
7
  6
CONTINUOUS
 10
95.899624222
 20
214.6423828255
  0
VERTEX
  8
0
 62
7
  6
CONTINUOUS
 10
95.9419042654
 20
214.7561980226
  0
VERTEX
  8
0
 62
7
  6
CONTINUOUS
 10
95.9819714156
 20
214.89758136
  0
VERTEX
  8
0
 62
7
  6
CONTINUOUS
 10
96.0203669435
 20
215.0713083646
  0
VERTEX
  8
0
 62
7
  6
CONTINUOUS
 10
96.0572520178
 20
215.2833851933
  0
VERTEX
  8
0
 62
7
  6
CONTINUOUS
 10
96.0922019874
 20
215.5399861721
  0
VERTEX
  8
0
 62
7
  6
CONTINUOUS
 10
96.1239458123
 20
215.8436115816
  0
VERTEX
  8
0
 62
7
  6
CONTINUOUS
 10
96.1507715592
 20
216.1918200883
  0
VERTEX
  8
0
 62
7
  6
CONTINUOUS
 10
96.1708367775
 20
216.57419389
  0
VERTEX
  8
0
 62
7
  6
CONTINUOUS
 10
96.1828469073
 20
216.9733341697
  0
VERTEX
  8
0
 62
7
  6
CONTINUOUS
 10
96.1865485232
 20
217.35546875
  0
SEQEND
  0
LINE
  8
0
 62
7
  6
CONTINUOUS
 10
70.150179842
 20
214.3554687787
 11
58.8382200222
 21
214.35546875
  0
LINE
  8
0
 62
7
  6
CONTINUOUS
 10
33.4382200222
 20
214.35546875
 11
44.7500612278
 21
214.35546875
  0
LINE
  8
0
 62
7
  6
CONTINUOUS
 10
84.2382200222
 20
214.35546875
 11
95.5500612278
 21
214.35546875
  0
LINE
  8
0
 62
7
  6
CONTINUOUS
 10
109.6382200222
 20
214.35546875
 11
120.9500612278
 21
214.35546875
  0
LINE
  8
0
 62
7
  6
CONTINUOUS
 10
135.0382200222
 20
214.35546875
 11
146.3500612278
 21
214.35546875
  0
LINE
  8
0
 62
7
  6
CONTINUOUS
 10
160.4382200222
 20
214.35546875
 11
172.094140625
 21
214.35546875
  0
LINE
  8
0
 62
7
  6
CONTINUOUS
 10
58.8382200222
 20
214.35546875
 11
58.8381081731
 21
214.3554687755
  0
LINE
  8
0
 62
7
  6
CONTINUOUS
 10
96.1865485232
 20
217.35546875
 11
96.1865485232
 21
218.3783662059
  0
LINE
  8
02___PRT_ALL_AXES
 62
2
  6
CENTER
 10
96.244140625
 20
225.75546875
 11
96.244140625
 21
223.35556875
  0
LINE
  8
02___PRT_ALL_AXES
 62
2
  6
CONTINUOUS
 10
96.244140625
 20
222.23546875
 11
96.244140625
 21
220.47546875
  0
LINE
  8
02___PRT_ALL_AXES
 62
2
  6
CENTER
 10
96.244140625
 20
216.95546875
 11
96.244140625
 21
219.35536875
  0
LINE
  8
0
 62
7
  6
CONTINUOUS
 10
96.3017327268
 20
224.3325705971
 11
96.3017327268
 21
225.35546875
  0
POLYLINE
  8
0
 62
7
  6
CONTINUOUS
 66
1
 70
0
  0
VERTEX
  8
0
 62
7
  6
CONTINUOUS
 10
96.3017326201
 20
224.3325705971
  0
VERTEX
  8
0
 62
7
  6
CONTINUOUS
 10
96.2999042884
 20
224.2839651591
  0
VERTEX
  8
0
 62
7
  6
CONTINUOUS
 10
96.2937108743
 20
224.2173808191
  0
VERTEX
  8
0
 62
7
  6
CONTINUOUS
 10
96.2883250296
 20
224.1640227931
  0
SEQEND
  0
POLYLINE
  8
0
 62
7
  6
CONTINUOUS
 66
1
 70
0
  0
VERTEX
  8
0
 62
7
  6
CONTINUOUS
 10
96.1865486532
 20
218.3783662049
  0
VERTEX
  8
0
 62
7
  6
CONTINUOUS
 10
96.1886036199
 20
218.4301729307
  0
VERTEX
  8
0
 62
7
  6
CONTINUOUS
 10
96.1948173291
 20
218.4958961027
  0
VERTEX
  8
0
 62
7
  6
CONTINUOUS
 10
96.1999559571
 20
218.5469139228
  0
SEQEND
  0
POLYLINE
  8
0
 62
7
  6
CONTINUOUS
 66
1
 70
0
  0
VERTEX
  8
0
 62
7
  6
CONTINUOUS
 10
96.1999561476
 20
218.5469139054
  0
VERTEX
  8
0
 62
7
  6
CONTINUOUS
 10
96.2007395506
 20
218.5553660025
  0
VERTEX
  8
0
 62
7
  6
CONTINUOUS
 10
96.2020126855
 20
218.568433388
  0
VERTEX
  8
0
 62
7
  6
CONTINUOUS
 10
96.2033580887
 20
218.5814454894
  0
VERTEX
  8
0
 62
7
  6
CONTINUOUS
 10
96.2047772519
 20
218.5943946399
  0
VERTEX
  8
0
 62
7
  6
CONTINUOUS
 10
96.2062714872
 20
218.607272998
  0
VERTEX
  8
0
 62
7
  6
CONTINUOUS
 10
96.2078419822
 20
218.6200724649
  0
VERTEX
  8
0
 62
7
  6
CONTINUOUS
 10
96.2094898109
 20
218.6327846388
  0
VERTEX
  8
0
 62
7
  6
CONTINUOUS
 10
96.2112158082
 20
218.6454009252
  0
VERTEX
  8
0
 62
7
  6
CONTINUOUS
 10
96.213020542
 20
218.6579125505
  0
VERTEX
  8
0
 62
7
  6
CONTINUOUS
 10
96.2149043521
 20
218.6703104552
  0
VERTEX
  8
0
 62
7
  6
CONTINUOUS
 10
96.2168673772
 20
218.6825851885
  0
VERTEX
  8
0
 62
7
  6
CONTINUOUS
 10
96.2189094226
 20
218.6947271243
  0
VERTEX
  8
0
 62
7
  6
CONTINUOUS
 10
96.2210299273
 20
218.7067265081
  0
VERTEX
  8
0
 62
7
  6
CONTINUOUS
 10
96.2232279871
 20
218.7185733773
  0
VERTEX
  8
0
 62
7
  6
CONTINUOUS
 10
96.2255024028
 20
218.7302574293
  0
VERTEX
  8
0
 62
7
  6
CONTINUOUS
 10
96.2278518599
 20
218.7417697701
  0
VERTEX
  8
0
 62
7
  6
CONTINUOUS
 10
96.2302751182
 20
218.7531036878
  0
VERTEX
  8
0
 62
7
  6
CONTINUOUS
 10
96.2327705704
 20
218.7642521654
  0
VERTEX
  8
0
 62
7
  6
CONTINUOUS
 10
96.2353362196
 20
218.7752073661
  0
VERTEX
  8
0
 62
7
  6
CONTINUOUS
 10
96.2379695776
 20
218.7859609579
  0
VERTEX
  8
0
 62
7
  6
CONTINUOUS
 10
96.2406676152
 20
218.7965042899
  0
VERTEX
  8
0
 62
7
  6
CONTINUOUS
 10
96.2434267427
 20
218.8068284287
  0
VERTEX
  8
0
 62
7
  6
CONTINUOUS
 10
96.2462427907
 20
218.8169238548
  0
VERTEX
  8
0
 62
7
  6
CONTINUOUS
 10
96.2491109661
 20
218.8267806021
  0
VERTEX
  8
0
 62
7
  6
CONTINUOUS
 10
96.252025809
 20
218.8363886135
  0
VERTEX
  8
0
 62
7
  6
CONTINUOUS
 10
96.2549795448
 20
218.845732744
  0
VERTEX
  8
0
 62
7
  6
CONTINUOUS
 10
96.2579620188
 20
218.8547936023
  0
VERTEX
  8
0
 62
7
  6
CONTINUOUS
 10
96.2609616272
 20
218.863551025
  0
VERTEX
  8
0
 62
7
  6
CONTINUOUS
 10
96.2639661861
 20
218.8719869632
  0
VERTEX
  8
0
 62
7
  6
CONTINUOUS
 10
96.2669689313
 20
218.8801011989
  0
VERTEX
  8
0
 62
7
  6
CONTINUOUS
 10
96.2699658941
 20
218.8879015048
  0
VERTEX
  8
0
 62
7
  6
CONTINUOUS
 10
96.2729529228
 20
218.8953949095
  0
VERTEX
  8
0
 62
7
  6
CONTINUOUS
 10
96.2759255341
 20
218.9025875031
  0
VERTEX
  8
0
 62
7
  6
CONTINUOUS
 10
96.2788834072
 20
218.9094948141
  0
VERTEX
  8
0
 62
7
  6
CONTINUOUS
 10
96.2818370437
 20
218.9161549138
  0
VERTEX
  8
0
 62
7
  6
CONTINUOUS
 10
96.2847999704
 20
218.9226078197
  0
VERTEX
  8
0
 62
7
  6
CONTINUOUS
 10
96.287786153
 20
218.9288895066
  0
VERTEX
  8
0
 62
7
  6
CONTINUOUS
 10
96.2907972531
 20
218.9350069991
  0
VERTEX
  8
0
 62
7
  6
CONTINUOUS
 10
96.2938372422
 20
218.9409711273
  0
VERTEX
  8
0
 62
7
  6
CONTINUOUS
 10
96.2969118448
 20
218.9467944072
  0
VERTEX
  8
0
 62
7
  6
CONTINUOUS
 10
96.3000263771
 20
218.952486633
  0
VERTEX
  8
0
 62
7
  6
CONTINUOUS
 10
96.3031857251
 20
218.958055035
  0
VERTEX
  8
0
 62
7
  6
CONTINUOUS
 10
96.3063942712
 20
218.9635043869
  0
VERTEX
  8
0
 62
7
  6
CONTINUOUS
 10
96.3096551693
 20
218.9688367897
  0
VERTEX
  8
0
 62
7
  6
CONTINUOUS
 10
96.3129704028
 20
218.9740518372
  0
VERTEX
  8
0
 62
7
  6
CONTINUOUS
 10
96.3163412024
 20
218.9791468993
  0
VERTEX
  8
0
 62
7
  6
CONTINUOUS
 10
96.3197679861
 20
218.9841171453
  0
VERTEX
  8
0
 62
7
  6
CONTINUOUS
 10
96.3232502399
 20
218.9889555385
  0
VERTEX
  8
0
 62
7
  6
CONTINUOUS
 10
96.326785385
 20
218.9936528671
  0
VERTEX
  8
0
 62
7
  6
CONTINUOUS
 10
96.3303688143
 20
218.9981983449
  0
VERTEX
  8
0
 62
7
  6
CONTINUOUS
 10
96.3339985903
 20
219.0025839844
  0
VERTEX
  8
0
 62
7
  6
CONTINUOUS
 10
96.3376692823
 20
219.0067964597
  0
VERTEX
  8
0
 62
7
  6
CONTINUOUS
 10
96.3413651107
 20
219.0108120347
  0
VERTEX
  8
0
 62
7
  6
CONTINUOUS
 10
96.345057576
 20
219.014598955
  0
VERTEX
  8
0
 62
7
  6
CONTINUOUS
 10
96.3487080016
 20
219.01812027
  0
VERTEX
  8
0
 62
7
  6
CONTINUOUS
 10
96.3522896274
 20
219.021355572
  0
VERTEX
  8
0
 62
7
  6
CONTINUOUS
 10
96.355767955
 20
219.0242849345
  0
VERTEX
  8
0
 62
7
  6
CONTINUOUS
 10
96.3591226476
 20
219.0269058114
  0
VERTEX
  8
0
 62
7
  6
CONTINUOUS
 10
96.3623987777
 20
219.0292613399
  0
VERTEX
  8
0
 62
7
  6
CONTINUOUS
 10
96.3655893057
 20
219.0313496907
  0
VERTEX
  8
0
 62
7
  6
CONTINUOUS
 10
96.3687357842
 20
219.0331937721
  0
VERTEX
  8
0
 62
7
  6
CONTINUOUS
 10
96.3719147067
 20
219.0348123588
  0
VERTEX
  8
0
 62
7
  6
CONTINUOUS
 10
96.374999704
 20
219.0361066886
  0
VERTEX
  8
0
 62
7
  6
CONTINUOUS
 10
96.3779964237
 20
219.0370297183
  0
VERTEX
  8
0
 62
7
  6
CONTINUOUS
 10
96.3808276311
 20
219.0374787884
  0
VERTEX
  8
0
 62
7
  6
CONTINUOUS
 10
96.3820027006
 20
219.0375194433
  0
SEQEND
  0
POLYLINE
  8
0
 62
7
  6
CONTINUOUS
 66
1
 70
0
  0
VERTEX
  8
0
 62
7
  6
CONTINUOUS
 10
96.2883250296
 20
224.1640227931
  0
VERTEX
  8
0
 62
7
  6
CONTINUOUS
 10
96.2865376669
 20
224.1452014902
  0
VERTEX
  8
0
 62
7
  6
CONTINUOUS
 10
96.2853663487
 20
224.1336942239
  0
VERTEX
  8
0
 62
7
  6
CONTINUOUS
 10
96.2841447502
 20
224.1222970221
  0
VERTEX
  8
0
 62
7
  6
CONTINUOUS
 10
96.282872576
 20
224.1110117604
  0
VERTEX
  8
0
 62
7
  6
CONTINUOUS
 10
96.2815496248
 20
224.0998403969
  0
VERTEX
  8
0
 62
7
  6
CONTINUOUS
 10
96.2801757431
 20
224.0887850218
  0
VERTEX
  8
0
 62
7
  6
CONTINUOUS
 10
96.2787508058
 20
224.0778478847
  0
VERTEX
  8
0
 62
7
  6
CONTINUOUS
 10
96.2772747946
 20
224.06703131
  0
VERTEX
  8
0
 62
7
  6
CONTINUOUS
 10
96.2757478073
 20
224.0563376836
  0
VERTEX
  8
0
 62
7
  6
CONTINUOUS
 10
96.2741700767
 20
224.0457695665
  0
VERTEX
  8
0
 62
7
  6
CONTINUOUS
 10
96.2725419919
 20
224.0353301617
  0
VERTEX
  8
0
 62
7
  6
CONTINUOUS
 10
96.2708637027
 20
224.0250208807
  0
VERTEX
  8
0
 62
7
  6
CONTINUOUS
 10
96.2691354051
 20
224.0148428912
  0
VERTEX
  8
0
 62
7
  6
CONTINUOUS
 10
96.2673574138
 20
224.0047975342
  0
VERTEX
  8
0
 62
7
  6
CONTINUOUS
 10
96.2655301596
 20
223.9948863273
  0
VERTEX
  8
0
 62
7
  6
CONTINUOUS
 10
96.263654144
 20
223.9851110788
  0
VERTEX
  8
0
 62
7
  6
CONTINUOUS
 10
96.2617299754
 20
223.9754738178
  0
VERTEX
  8
0
 62
7
  6
CONTINUOUS
 10
96.2597584089
 20
223.9659766992
  0
VERTEX
  8
0
 62
7
  6
CONTINUOUS
 10
96.257740349
 20
223.9566219886
  0
VERTEX
  8
0
 62
7
  6
CONTINUOUS
 10
96.2556768403
 20
223.9474121109
  0
VERTEX
  8
0
 62
7
  6
CONTINUOUS
 10
96.2535690504
 20
223.9383497759
  0
VERTEX
  8
0
 62
7
  6
CONTINUOUS
 10
96.2514183111
 20
223.9294377929
  0
VERTEX
  8
0
 62
7
  6
CONTINUOUS
 10
96.2492261278
 20
223.9206790119
  0
VERTEX
  8
0
 62
7
  6
CONTINUOUS
 10
96.2469956153
 20
223.9120817477
  0
VERTEX
  8
0
 62
7
  6
CONTINUOUS
 10
96.2447374588
 20
223.9036807637
  0
VERTEX
  8
0
 62
7
  6
CONTINUOUS
 10
96.2424659099
 20
223.8955186387
  0
VERTEX
  8
0
 62
7
  6
CONTINUOUS
 10
96.2401969081
 20
223.887637674
  0
VERTEX
  8
0
 62
7
  6
CONTINUOUS
 10
96.2379443249
 20
223.8800673866
  0
VERTEX
  8
0
 62
7
  6
CONTINUOUS
 10
96.2357047382
 20
223.8727776851
  0
VERTEX
  8
0
 62
7
  6
CONTINUOUS
 10
96.2334681798
 20
223.8657213346
  0
VERTEX
  8
0
 62
7
  6
CONTINUOUS
 10
96.2312232203
 20
223.8588519331
  0
VERTEX
  8
0
 62
7
  6
CONTINUOUS
 10
96.2289569243
 20
223.8521237247
  0
VERTEX
  8
0
 62
7
  6
CONTINUOUS
 10
96.2266586644
 20
223.8455025628
  0
VERTEX
  8
0
 62
7
  6
CONTINUOUS
 10
96.2243266164
 20
223.8389824061
  0
VERTEX
  8
0
 62
7
  6
CONTINUOUS
 10
96.221959304
 20
223.8325588556
  0
VERTEX
  8
0
 62
7
  6
CONTINUOUS
 10
96.2195553438
 20
223.8262283133
  0
VERTEX
  8
0
 62
7
  6
CONTINUOUS
 10
96.2171134525
 20
223.819987933
  0
VERTEX
  8
0
 62
7
  6
CONTINUOUS
 10
96.2146323995
 20
223.8138354442
  0
VERTEX
  8
0
 62
7
  6
CONTINUOUS
 10
96.2121110112
 20
223.8077691316
  0
VERTEX
  8
0
 62
7
  6
CONTINUOUS
 10
96.2095481762
 20
223.8017878178
  0
VERTEX
  8
0
 62
7
  6
CONTINUOUS
 10
96.2069428729
 20
223.7958908799
  0
VERTEX
  8
0
 62
7
  6
CONTINUOUS
 10
96.2042943566
 20
223.7900784813
  0
VERTEX
  8
0
 62
7
  6
CONTINUOUS
 10
96.2016020967
 20
223.7843514341
  0
VERTEX
  8
0
 62
7
  6
CONTINUOUS
 10
96.1988656894
 20
223.7787110485
  0
VERTEX
  8
0
 62
7
  6
CONTINUOUS
 10
96.196084865
 20
223.7731591225
  0
VERTEX
  8
0
 62
7
  6
CONTINUOUS
 10
96.1932594948
 20
223.7676979338
  0
VERTEX
  8
0
 62
7
  6
CONTINUOUS
 10
96.1903897332
 20
223.7623303353
  0
VERTEX
  8
0
 62
7
  6
CONTINUOUS
 10
96.187476358
 20
223.7570599894
  0
VERTEX
  8
0
 62
7
  6
CONTINUOUS
 10
96.1845203645
 20
223.7518909125
  0
VERTEX
  8
0
 62
7
  6
CONTINUOUS
 10
96.1815226856
 20
223.746827091
  0
VERTEX
  8
0
 62
7
  6
CONTINUOUS
 10
96.1784878057
 20
223.7418783371
  0
VERTEX
  8
0
 62
7
  6
CONTINUOUS
 10
96.1754223285
 20
223.7370570713
  0
VERTEX
  8
0
 62
7
  6
CONTINUOUS
 10
96.1723352144
 20
223.7323774031
  0
VERTEX
  8
0
 62
7
  6
CONTINUOUS
 10
96.1692379218
 20
223.727854881
  0
VERTEX
  8
0
 62
7
  6
CONTINUOUS
 10
96.1661438923
 20
223.7235059787
  0
VERTEX
  8
0
 62
7
  6
CONTINUOUS
 10
96.1630676398
 20
223.7193465278
  0
VERTEX
  8
0
 62
7
  6
CONTINUOUS
 10
96.1600138058
 20
223.7153776316
  0
VERTEX
  8
0
 62
7
  6
CONTINUOUS
 10
96.1569808885
 20
223.7115925026
  0
VERTEX
  8
0
 62
7
  6
CONTINUOUS
 10
96.153970227
 20
223.7079872266
  0
VERTEX
  8
0
 62
7
  6
CONTINUOUS
 10
96.1509873641
 20
223.704562916
  0
VERTEX
  8
0
 62
7
  6
CONTINUOUS
 10
96.148026536
 20
223.7013085857
  0
VERTEX
  8
0
 62
7
  6
CONTINUOUS
 10
96.1450756152
 20
223.6982090271
  0
VERTEX
  8
0
 62
7
  6
CONTINUOUS
 10
96.1421270727
 20
223.6952569915
  0
VERTEX
  8
0
 62
7
  6
CONTINUOUS
 10
96.1391785431
 20
223.6924507239
  0
VERTEX
  8
0
 62
7
  6
CONTINUOUS
 10
96.1362360151
 20
223.6897963975
  0
VERTEX
  8
0
 62
7
  6
CONTINUOUS
 10
96.1333250784
 20
223.6873169912
  0
VERTEX
  8
0
 62
7
  6
CONTINUOUS
 10
96.1304031969
 20
223.6849797632
  0
VERTEX
  8
0
 62
7
  6
CONTINUOUS
 10
96.1274383435
 20
223.6827693896
  0
VERTEX
  8
0
 62
7
  6
CONTINUOUS
 10
96.1244322668
 20
223.6807010806
  0
VERTEX
  8
0
 62
7
  6
CONTINUOUS
 10
96.1214242041
 20
223.678817654
  0
VERTEX
  8
0
 62
7
  6
CONTINUOUS
 10
96.1185195174
 20
223.6771929845
  0
VERTEX
  8
0
 62
7
  6
CONTINUOUS
 10
96.11560942
 20
223.6757799492
  0
VERTEX
  8
0
 62
7
  6
CONTINUOUS
 10
96.1126323652
 20
223.6745995282
  0
VERTEX
  8
0
 62
7
  6
CONTINUOUS
 10
96.1098032081
 20
223.6737983922
  0
VERTEX
  8
0
 62
7
  6
CONTINUOUS
 10
96.1071605087
 20
223.6734405589
  0
VERTEX
  8
0
 62
7
  6
CONTINUOUS
 10
96.1062785649
 20
223.6734180569
  0
SEQEND
  0
POLYLINE
  8
0
 62
7
  6
CONTINUOUS
 66
1
 70
0
  0
VERTEX
  8
0
 62
7
  6
CONTINUOUS
 10
70.150179842
 20
214.3554687787
  0
VERTEX
  8
0
 62
7
  6
CONTINUOUS
 10
70.2364612438
 20
214.3679437326
  0
VERTEX
  8
0
 62
7
  6
CONTINUOUS
 10
70.328423717
 20
214.4119039512
  0
VERTEX
  8
0
 62
7
  6
CONTINUOUS
 10
70.3999410713
 20
214.4761519805
  0
VERTEX
  8
0
 62
7
  6
CONTINUOUS
 10
70.4532741461
 20
214.5504806103
  0
VERTEX
  8
0
 62
7
  6
CONTINUOUS
 10
70.4964272523
 20
214.6350386299
  0
VERTEX
  8
0
 62
7
  6
CONTINUOUS
 10
70.5344772268
 20
214.7337959521
  0
VERTEX
  8
0
 62
7
  6
CONTINUOUS
 10
70.5701462743
 20
214.8520154355
  0
VERTEX
  8
0
 62
7
  6
CONTINUOUS
 10
70.6045600493
 20
214.9946722459
  0
VERTEX
  8
0
 62
7
  6
CONTINUOUS
 10
70.6379146231
 20
215.1658905288
  0
VERTEX
  8
0
 62
7
  6
CONTINUOUS
 10
70.6698766613
 20
215.3687634185
  0
VERTEX
  8
0
 62
7
  6
CONTINUOUS
 10
70.6998973331
 20
215.6061228385
  0
VERTEX
  8
0
 62
7
  6
CONTINUOUS
 10
70.7274387509
 20
215.8829015911
  0
VERTEX
  8
0
 62
7
  6
CONTINUOUS
 10
70.7515386129
 20
216.2037802583
  0
VERTEX
  8
0
 62
7
  6
CONTINUOUS
 10
70.7704864769
 20
216.5657103981
  0
VERTEX
  8
0
 62
7
  6
CONTINUOUS
 10
70.7825622297
 20
216.9589836987
  0
VERTEX
  8
0
 62
7
  6
CONTINUOUS
 10
70.7865485232
 20
217.35546875
  0
SEQEND
  0
POLYLINE
  8
0
 62
7
  6
CONTINUOUS
 66
1
 70
0
  0
VERTEX
  8
0
 62
7
  6
CONTINUOUS
 10
147.7381014074
 20
228.3554687213
  0
VERTEX
  8
0
 62
7
  6
CONTINUOUS
 10
147.6518200059
 20
228.3429937672
  0
VERTEX
  8
0
 62
7
  6
CONTINUOUS
 10
147.5598575328
 20
228.2990335487
  0
VERTEX
  8
0
 62
7
  6
CONTINUOUS
 10
147.4883401797
 20
228.2347855208
  0
VERTEX
  8
0
 62
7
  6
CONTINUOUS
 10
147.4350071042
 20
228.16045689
  0
VERTEX
  8
0
 62
7
  6
CONTINUOUS
 10
147.3918539976
 20
228.0758988696
  0
VERTEX
  8
0
 62
7
  6
CONTINUOUS
 10
147.353804023
 20
227.9771415472
  0
VERTEX
  8
0
 62
7
  6
CONTINUOUS
 10
147.3181349753
 20
227.8589220631
  0
VERTEX
  8
0
 62
7
  6
CONTINUOUS
 10
147.2837212001
 20
227.716265251
  0
VERTEX
  8
0
 62
7
  6
CONTINUOUS
 10
147.2503666262
 20
227.5450469675
  0
VERTEX
  8
0
 62
7
  6
CONTINUOUS
 10
147.2184045879
 20
227.3421740765
  0
VERTEX
  8
0
 62
7
  6
CONTINUOUS
 10
147.1883839162
 20
227.1048146552
  0
VERTEX
  8
0
 62
7
  6
CONTINUOUS
 10
147.1608424984
 20
226.8280359003
  0
VERTEX
  8
0
 62
7
  6
CONTINUOUS
 10
147.1367426363
 20
226.5071572299
  0
VERTEX
  8
0
 62
7
  6
CONTINUOUS
 10
147.1177947726
 20
226.1452270886
  0
VERTEX
  8
0
 62
7
  6
CONTINUOUS
 10
147.1057190202
 20
225.7519537968
  0
VERTEX
  8
0
 62
7
  6
CONTINUOUS
 10
147.1017327268
 20
225.35546875
  0
SEQEND
  0
POLYLINE
  8
0
 62
7
  6
CONTINUOUS
 66
1
 70
0
  0
VERTEX
  8
0
 62
7
  6
CONTINUOUS
 10
44.7501780442
 20
214.3554687778
  0
VERTEX
  8
0
 62
7
  6
CONTINUOUS
 10
44.834123413
 20
214.3672669352
  0
VERTEX
  8
0
 62
7
  6
CONTINUOUS
 10
44.9246351411
 20
214.4093446611
  0
VERTEX
  8
0
 62
7
  6
CONTINUOUS
 10
44.9970855932
 20
214.4729111223
  0
VERTEX
  8
0
 62
7
  6
CONTINUOUS
 10
45.0529827343
 20
214.5499930186
  0
VERTEX
  8
0
 62
7
  6
CONTINUOUS
 10
45.099624222
 20
214.6423828255
  0
VERTEX
  8
0
 62
7
  6
CONTINUOUS
 10
45.1419042654
 20
214.7561980226
  0
VERTEX
  8
0
 62
7
  6
CONTINUOUS
 10
45.1819714156
 20
214.89758136
  0
VERTEX
  8
0
 62
7
  6
CONTINUOUS
 10
45.2203669435
 20
215.0713083646
  0
VERTEX
  8
0
 62
7
  6
CONTINUOUS
 10
45.2572520178
 20
215.2833851933
  0
VERTEX
  8
0
 62
7
  6
CONTINUOUS
 10
45.2922019874
 20
215.5399861721
  0
VERTEX
  8
0
 62
7
  6
CONTINUOUS
 10
45.3239458123
 20
215.8436115816
  0
VERTEX
  8
0
 62
7
  6
CONTINUOUS
 10
45.3507715592
 20
216.1918200883
  0
VERTEX
  8
0
 62
7
  6
CONTINUOUS
 10
45.3708367775
 20
216.57419389
  0
VERTEX
  8
0
 62
7
  6
CONTINUOUS
 10
45.3828469073
 20
216.9733341697
  0
VERTEX
  8
0
 62
7
  6
CONTINUOUS
 10
45.3865485232
 20
217.35546875
  0
SEQEND
  0
LINE
  8
02___PRT_ALL_AXES
 62
2
  6
CENTER
 10
30.9573842727
 20
217.35546875
 11
174.344140625
 21
217.35546875
  0
LINE
  8
0
 62
7
  6
CONTINUOUS
 10
83.4062785431
 20
219.0375195576
 11
70.9820026855
 21
219.0375195576
  0
LINE
  8
0
 62
7
  6
CONTINUOUS
 10
32.6062785437
 20
219.0375195576
 11
20.1782542262
 21
219.0375195576
  0
LINE
  8
0
 62
7
  6
CONTINUOUS
 10
45.5820027011
 20
219.0375195576
 11
58.0062785228
 21
219.0375195576
  0
LINE
  8
0
 62
7
  6
CONTINUOUS
 10
96.3820027011
 20
219.0375195576
 11
108.8062785228
 21
219.0375195576
  0
LINE
  8
0
 62
7
  6
CONTINUOUS
 10
121.7820027011
 20
219.0375195576
 11
134.2062785228
 21
219.0375195576
  0
LINE
  8
0
 62
7
  6
CONTINUOUS
 10
147.1820027011
 20
219.0375195576
 11
159.6062785228
 21
219.0375195576
  0
LINE
  8
02___PRT_ALL_AXES
 62
2
  6
CENTER
 10
100.644140625
 20
221.35546875
 11
98.244240625
 21
221.35546875
  0
LINE
  8
02___PRT_ALL_AXES
 62
2
  6
CONTINUOUS
 10
97.124140625
 20
221.35546875
 11
95.364140625
 21
221.35546875
  0
LINE
  8
02___PRT_ALL_AXES
 62
2
  6
CENTER
 10
91.844140625
 20
221.35546875
 11
94.244040625
 21
221.35546875
  0
POLYLINE
  8
0
 62
7
  6
CONTINUOUS
 66
1
 70
0
  0
VERTEX
  8
0
 62
7
  6
CONTINUOUS
 10
58.0062785233
 20
219.0375194955
  0
VERTEX
  8
0
 62
7
  6
CONTINUOUS
 10
58.0071529837
 20
219.0374973732
  0
VERTEX
  8
0
 62
7
  6
CONTINUOUS
 10
58.009788286
 20
219.0371423629
  0
VERTEX
  8
0
 62
7
  6
CONTINUOUS
 10
58.0126095193
 20
219.0363459059
  0
VERTEX
  8
0
 62
7
  6
CONTINUOUS
 10
58.0155789741
 20
219.0351711211
  0
VERTEX
  8
0
 62
7
  6
CONTINUOUS
 10
58.0184833921
 20
219.0337635414
  0
VERTEX
  8
0
 62
7
  6
CONTINUOUS
 10
58.0213791352
 20
219.0321466295
  0
VERTEX
  8
0
 62
7
  6
CONTINUOUS
 10
58.0243795845
 20
219.0302710991
  0
VERTEX
  8
0
 62
7
  6
CONTINUOUS
 10
58.0273787904
 20
219.0282109733
  0
VERTEX
  8
0
 62
7
  6
CONTINUOUS
 10
58.0303373588
 20
219.0260087242
  0
VERTEX
  8
0
 62
7
  6
CONTINUOUS
 10
58.0332529587
 20
219.0236799748
  0
VERTEX
  8
0
 62
7
  6
CONTINUOUS
 10
58.0361565152
 20
219.0212107941
  0
VERTEX
  8
0
 62
7
  6
CONTINUOUS
 10
58.0390912974
 20
219.0185677821
  0
VERTEX
  8
0
 62
7
  6
CONTINUOUS
 10
58.0420326353
 20
219.0157728426
  0
VERTEX
  8
0
 62
7
  6
CONTINUOUS
 10
58.044973919
 20
219.0128326243
  0
VERTEX
  8
0
 62
7
  6
CONTINUOUS
 10
58.0479175451
 20
219.0097458527
  0
VERTEX
  8
0
 62
7
  6
CONTINUOUS
 10
58.0508707966
 20
219.0065055349
  0
VERTEX
  8
0
 62
7
  6
CONTINUOUS
 10
58.0538454789
 20
219.00309674
  0
VERTEX
  8
0
 62
7
  6
CONTINUOUS
 10
58.0568479909
 20
218.9995076577
  0
VERTEX
  8
0
 62
7
  6
CONTINUOUS
 10
58.0598725354
 20
218.995739582
  0
VERTEX
  8
0
 62
7
  6
CONTINUOUS
 10
58.062917856
 20
218.9917889586
  0
VERTEX
  8
0
 62
7
  6
CONTINUOUS
 10
58.0659853975
 20
218.9876493369
  0
VERTEX
  8
0
 62
7
  6
CONTINUOUS
 10
58.0690712128
 20
218.9833208318
  0
VERTEX
  8
0
 62
7
  6
CONTINUOUS
 10
58.0721610723
 20
218.9788187084
  0
VERTEX
  8
0
 62
7
  6
CONTINUOUS
 10
58.0752415645
 20
218.9741591895
  0
VERTEX
  8
0
 62
7
  6
CONTINUOUS
 10
58.0783012333
 20
218.969357599
  0
VERTEX
  8
0
 62
7
  6
CONTINUOUS
 10
58.0813311337
 20
218.9644278444
  0
VERTEX
  8
0
 62
7
  6
CONTINUOUS
 10
58.0843247404
 20
218.959382147
  0
VERTEX
  8
0
 62
7
  6
CONTINUOUS
 10
58.0872774771
 20
218.9542304195
  0
VERTEX
  8
0
 62
7
  6
CONTINUOUS
 10
58.0901882361
 20
218.9489769313
  0
VERTEX
  8
0
 62
7
  6
CONTINUOUS
 10
58.09305625
 20
218.9436252573
  0
VERTEX
  8
0
 62
7
  6
CONTINUOUS
 10
58.0958808553
 20
218.9381786823
  0
VERTEX
  8
0
 62
7
  6
CONTINUOUS
 10
58.0986617288
 20
218.9326398803
  0
VERTEX
  8
0
 62
7
  6
CONTINUOUS
 10
58.1013991602
 20
218.9270106383
  0
VERTEX
  8
0
 62
7
  6
CONTINUOUS
 10
58.1040936532
 20
218.9212921674
  0
VERTEX
  8
0
 62
7
  6
CONTINUOUS
 10
58.1067458214
 20
218.9154851777
  0
VERTEX
  8
0
 62
7
  6
CONTINUOUS
 10
58.109356383
 20
218.9095898667
  0
VERTEX
  8
0
 62
7
  6
CONTINUOUS
 10
58.111926155
 20
218.9036059069
  0
VERTEX
  8
0
 62
7
  6
CONTINUOUS
 10
58.1144560557
 20
218.8975324164
  0
VERTEX
  8
0
 62
7
  6
CONTINUOUS
 10
58.1169472297
 20
218.8913677069
  0
VERTEX
  8
0
 62
7
  6
CONTINUOUS
 10
58.1194009953
 20
218.8851093133
  0
VERTEX
  8
0
 62
7
  6
CONTINUOUS
 10
58.1218187174
 20
218.8787541746
  0
VERTEX
  8
0
 62
7
  6
CONTINUOUS
 10
58.1242018
 20
218.8722986165
  0
VERTEX
  8
0
 62
7
  6
CONTINUOUS
 10
58.1265516806
 20
218.8657383256
  0
VERTEX
  8
0
 62
7
  6
CONTINUOUS
 10
58.1288695228
 20
218.8590692083
  0
VERTEX
  8
0
 62
7
  6
CONTINUOUS
 10
58.1311614976
 20
218.852271553
  0
VERTEX
  8
0
 62
7
  6
CONTINUOUS
 10
58.1334391763
 20
218.8453063828
  0
VERTEX
  8
0
 62
7
  6
CONTINUOUS
 10
58.1357129934
 20
218.8381335399
  0
VERTEX
  8
0
 62
7
  6
CONTINUOUS
 10
58.1379920742
 20
218.8307122786
  0
VERTEX
  8
0
 62
7
  6
CONTINUOUS
 10
58.1402829486
 20
218.8230057237
  0
VERTEX
  8
0
 62
7
  6
CONTINUOUS
 10
58.1425783782
 20
218.8150211931
  0
VERTEX
  8
0
 62
7
  6
CONTINUOUS
 10
58.1448645535
 20
218.8067917009
  0
VERTEX
  8
0
 62
7
  6
CONTINUOUS
 10
58.1471289562
 20
218.7983505444
  0
VERTEX
  8
0
 62
7
  6
CONTINUOUS
 10
58.149360424
 20
218.7897311267
  0
VERTEX
  8
0
 62
7
  6
CONTINUOUS
 10
58.1515509462
 20
218.7809594852
  0
VERTEX
  8
0
 62
7
  6
CONTINUOUS
 10
58.1536983092
 20
218.7720414428
  0
VERTEX
  8
0
 62
7
  6
CONTINUOUS
 10
58.1558013178
 20
218.7629795007
  0
VERTEX
  8
0
 62
7
  6
CONTINUOUS
 10
58.1578589008
 20
218.7537758897
  0
VERTEX
  8
0
 62
7
  6
CONTINUOUS
 10
58.1598701084
 20
218.744432628
  0
VERTEX
  8
0
 62
7
  6
CONTINUOUS
 10
58.1618341274
 20
218.7349516447
  0
VERTEX
  8
0
 62
7
  6
CONTINUOUS
 10
58.163750281
 20
218.7253347684
  0
VERTEX
  8
0
 62
7
  6
CONTINUOUS
 10
58.165618024
 20
218.715583707
  0
VERTEX
  8
0
 62
7
  6
CONTINUOUS
 10
58.1674368898
 20
218.7056999071
  0
VERTEX
  8
0
 62
7
  6
CONTINUOUS
 10
58.1692064818
 20
218.6956845516
  0
VERTEX
  8
0
 62
7
  6
CONTINUOUS
 10
58.1709265116
 20
218.6855386662
  0
VERTEX
  8
0
 62
7
  6
CONTINUOUS
 10
58.1725967989
 20
218.6752631134
  0
VERTEX
  8
0
 62
7
  6
CONTINUOUS
 10
58.1742172668
 20
218.6648585791
  0
VERTEX
  8
0
 62
7
  6
CONTINUOUS
 10
58.1757878151
 20
218.6543259394
  0
VERTEX
  8
0
 62
7
  6
CONTINUOUS
 10
58.1773080876
 20
218.6436678299
  0
VERTEX
  8
0
 62
7
  6
CONTINUOUS
 10
58.1787779229
 20
218.6328862737
  0
VERTEX
  8
0
 62
7
  6
CONTINUOUS
 10
58.1801972817
 20
218.6219831348
  0
VERTEX
  8
0
 62
7
  6
CONTINUOUS
 10
58.1815662301
 20
218.6109602159
  0
VERTEX
  8
0
 62
7
  6
CONTINUOUS
 10
58.1828849051
 20
218.5998192154
  0
VERTEX
  8
0
 62
7
  6
CONTINUOUS
 10
58.1841534422
 20
218.5885616487
  0
VERTEX
  8
0
 62
7
  6
CONTINUOUS
 10
58.1853720465
 20
218.5771889338
  0
VERTEX
  8
0
 62
7
  6
CONTINUOUS
 10
58.1865410093
 20
218.5657024068
  0
SEQEND
  0
POLYLINE
  8
0
 62
7
  6
CONTINUOUS
 66
1
 70
0
  0
VERTEX
  8
0
 62
7
  6
CONTINUOUS
 10
108.8062785233
 20
219.0375194955
  0
VERTEX
  8
0
 62
7
  6
CONTINUOUS
 10
108.8071529837
 20
219.0374973732
  0
VERTEX
  8
0
 62
7
  6
CONTINUOUS
 10
108.809788286
 20
219.0371423629
  0
VERTEX
  8
0
 62
7
  6
CONTINUOUS
 10
108.8126095193
 20
219.0363459059
  0
VERTEX
  8
0
 62
7
  6
CONTINUOUS
 10
108.8155789741
 20
219.0351711211
  0
VERTEX
  8
0
 62
7
  6
CONTINUOUS
 10
108.8184833921
 20
219.0337635414
  0
VERTEX
  8
0
 62
7
  6
CONTINUOUS
 10
108.8213791352
 20
219.0321466295
  0
VERTEX
  8
0
 62
7
  6
CONTINUOUS
 10
108.8243795845
 20
219.0302710991
  0
VERTEX
  8
0
 62
7
  6
CONTINUOUS
 10
108.8273787904
 20
219.0282109733
  0
VERTEX
  8
0
 62
7
  6
CONTINUOUS
 10
108.8303373588
 20
219.0260087242
  0
VERTEX
  8
0
 62
7
  6
CONTINUOUS
 10
108.8332529587
 20
219.0236799748
  0
VERTEX
  8
0
 62
7
  6
CONTINUOUS
 10
108.8361565152
 20
219.0212107941
  0
VERTEX
  8
0
 62
7
  6
CONTINUOUS
 10
108.8390912974
 20
219.0185677821
  0
VERTEX
  8
0
 62
7
  6
CONTINUOUS
 10
108.8420326353
 20
219.0157728426
  0
VERTEX
  8
0
 62
7
  6
CONTINUOUS
 10
108.844973919
 20
219.0128326243
  0
VERTEX
  8
0
 62
7
  6
CONTINUOUS
 10
108.8479175451
 20
219.0097458527
  0
VERTEX
  8
0
 62
7
  6
CONTINUOUS
 10
108.8508707966
 20
219.0065055349
  0
VERTEX
  8
0
 62
7
  6
CONTINUOUS
 10
108.8538454789
 20
219.00309674
  0
VERTEX
  8
0
 62
7
  6
CONTINUOUS
 10
108.8568479909
 20
218.9995076577
  0
VERTEX
  8
0
 62
7
  6
CONTINUOUS
 10
108.8598725354
 20
218.995739582
  0
VERTEX
  8
0
 62
7
  6
CONTINUOUS
 10
108.862917856
 20
218.9917889586
  0
VERTEX
  8
0
 62
7
  6
CONTINUOUS
 10
108.8659853975
 20
218.9876493369
  0
VERTEX
  8
0
 62
7
  6
CONTINUOUS
 10
108.8690712128
 20
218.9833208318
  0
VERTEX
  8
0
 62
7
  6
CONTINUOUS
 10
108.8721610723
 20
218.9788187084
  0
VERTEX
  8
0
 62
7
  6
CONTINUOUS
 10
108.8752415645
 20
218.9741591895
  0
VERTEX
  8
0
 62
7
  6
CONTINUOUS
 10
108.8783012333
 20
218.969357599
  0
VERTEX
  8
0
 62
7
  6
CONTINUOUS
 10
108.8813311337
 20
218.9644278444
  0
VERTEX
  8
0
 62
7
  6
CONTINUOUS
 10
108.8843247404
 20
218.959382147
  0
VERTEX
  8
0
 62
7
  6
CONTINUOUS
 10
108.8872774771
 20
218.9542304195
  0
VERTEX
  8
0
 62
7
  6
CONTINUOUS
 10
108.8901882361
 20
218.9489769313
  0
VERTEX
  8
0
 62
7
  6
CONTINUOUS
 10
108.89305625
 20
218.9436252573
  0
VERTEX
  8
0
 62
7
  6
CONTINUOUS
 10
108.8958808553
 20
218.9381786823
  0
VERTEX
  8
0
 62
7
  6
CONTINUOUS
 10
108.8986617288
 20
218.9326398803
  0
VERTEX
  8
0
 62
7
  6
CONTINUOUS
 10
108.9013991602
 20
218.9270106383
  0
VERTEX
  8
0
 62
7
  6
CONTINUOUS
 10
108.9040936532
 20
218.9212921674
  0
VERTEX
  8
0
 62
7
  6
CONTINUOUS
 10
108.9067458214
 20
218.9154851777
  0
VERTEX
  8
0
 62
7
  6
CONTINUOUS
 10
108.909356383
 20
218.9095898667
  0
VERTEX
  8
0
 62
7
  6
CONTINUOUS
 10
108.911926155
 20
218.9036059069
  0
VERTEX
  8
0
 62
7
  6
CONTINUOUS
 10
108.9144560557
 20
218.8975324164
  0
VERTEX
  8
0
 62
7
  6
CONTINUOUS
 10
108.9169472297
 20
218.8913677069
  0
VERTEX
  8
0
 62
7
  6
CONTINUOUS
 10
108.9194009953
 20
218.8851093133
  0
VERTEX
  8
0
 62
7
  6
CONTINUOUS
 10
108.9218187174
 20
218.8787541746
  0
VERTEX
  8
0
 62
7
  6
CONTINUOUS
 10
108.9242018
 20
218.8722986165
  0
VERTEX
  8
0
 62
7
  6
CONTINUOUS
 10
108.9265516806
 20
218.8657383256
  0
VERTEX
  8
0
 62
7
  6
CONTINUOUS
 10
108.9288695228
 20
218.8590692083
  0
VERTEX
  8
0
 62
7
  6
CONTINUOUS
 10
108.9311614976
 20
218.852271553
  0
VERTEX
  8
0
 62
7
  6
CONTINUOUS
 10
108.9334391763
 20
218.8453063828
  0
VERTEX
  8
0
 62
7
  6
CONTINUOUS
 10
108.9357129934
 20
218.8381335399
  0
VERTEX
  8
0
 62
7
  6
CONTINUOUS
 10
108.9379920742
 20
218.8307122786
  0
VERTEX
  8
0
 62
7
  6
CONTINUOUS
 10
108.9402829486
 20
218.8230057237
  0
VERTEX
  8
0
 62
7
  6
CONTINUOUS
 10
108.9425783782
 20
218.8150211931
  0
VERTEX
  8
0
 62
7
  6
CONTINUOUS
 10
108.9448645535
 20
218.8067917009
  0
VERTEX
  8
0
 62
7
  6
CONTINUOUS
 10
108.9471289562
 20
218.7983505444
  0
VERTEX
  8
0
 62
7
  6
CONTINUOUS
 10
108.949360424
 20
218.7897311267
  0
VERTEX
  8
0
 62
7
  6
CONTINUOUS
 10
108.9515509462
 20
218.7809594852
  0
VERTEX
  8
0
 62
7
  6
CONTINUOUS
 10
108.9536983092
 20
218.7720414428
  0
VERTEX
  8
0
 62
7
  6
CONTINUOUS
 10
108.9558013178
 20
218.7629795007
  0
VERTEX
  8
0
 62
7
  6
CONTINUOUS
 10
108.9578589008
 20
218.7537758897
  0
VERTEX
  8
0
 62
7
  6
CONTINUOUS
 10
108.9598701084
 20
218.744432628
  0
VERTEX
  8
0
 62
7
  6
CONTINUOUS
 10
108.9618341274
 20
218.7349516447
  0
VERTEX
  8
0
 62
7
  6
CONTINUOUS
 10
108.963750281
 20
218.7253347684
  0
VERTEX
  8
0
 62
7
  6
CONTINUOUS
 10
108.965618024
 20
218.715583707
  0
VERTEX
  8
0
 62
7
  6
CONTINUOUS
 10
108.9674368898
 20
218.7056999071
  0
VERTEX
  8
0
 62
7
  6
CONTINUOUS
 10
108.9692064818
 20
218.6956845516
  0
VERTEX
  8
0
 62
7
  6
CONTINUOUS
 10
108.9709265116
 20
218.6855386662
  0
VERTEX
  8
0
 62
7
  6
CONTINUOUS
 10
108.9725967989
 20
218.6752631134
  0
VERTEX
  8
0
 62
7
  6
CONTINUOUS
 10
108.9742172668
 20
218.6648585791
  0
VERTEX
  8
0
 62
7
  6
CONTINUOUS
 10
108.9757878151
 20
218.6543259394
  0
VERTEX
  8
0
 62
7
  6
CONTINUOUS
 10
108.9773080876
 20
218.6436678299
  0
VERTEX
  8
0
 62
7
  6
CONTINUOUS
 10
108.9787779229
 20
218.6328862737
  0
VERTEX
  8
0
 62
7
  6
CONTINUOUS
 10
108.9801972817
 20
218.6219831348
  0
VERTEX
  8
0
 62
7
  6
CONTINUOUS
 10
108.9815662301
 20
218.6109602159
  0
VERTEX
  8
0
 62
7
  6
CONTINUOUS
 10
108.9828849051
 20
218.5998192154
  0
VERTEX
  8
0
 62
7
  6
CONTINUOUS
 10
108.9841534422
 20
218.5885616487
  0
VERTEX
  8
0
 62
7
  6
CONTINUOUS
 10
108.9853720465
 20
218.5771889338
  0
VERTEX
  8
0
 62
7
  6
CONTINUOUS
 10
108.9865410093
 20
218.5657024068
  0
SEQEND
  0
POLYLINE
  8
0
 62
7
  6
CONTINUOUS
 66
1
 70
0
  0
VERTEX
  8
0
 62
7
  6
CONTINUOUS
 10
134.2062785233
 20
219.0375194955
  0
VERTEX
  8
0
 62
7
  6
CONTINUOUS
 10
134.2071529837
 20
219.0374973732
  0
VERTEX
  8
0
 62
7
  6
CONTINUOUS
 10
134.209788286
 20
219.0371423629
  0
VERTEX
  8
0
 62
7
  6
CONTINUOUS
 10
134.2126095193
 20
219.0363459059
  0
VERTEX
  8
0
 62
7
  6
CONTINUOUS
 10
134.2155789741
 20
219.0351711211
  0
VERTEX
  8
0
 62
7
  6
CONTINUOUS
 10
134.2184833921
 20
219.0337635414
  0
VERTEX
  8
0
 62
7
  6
CONTINUOUS
 10
134.2213791352
 20
219.0321466295
  0
VERTEX
  8
0
 62
7
  6
CONTINUOUS
 10
134.2243795845
 20
219.0302710991
  0
VERTEX
  8
0
 62
7
  6
CONTINUOUS
 10
134.2273787904
 20
219.0282109733
  0
VERTEX
  8
0
 62
7
  6
CONTINUOUS
 10
134.2303373588
 20
219.0260087242
  0
VERTEX
  8
0
 62
7
  6
CONTINUOUS
 10
134.2332529587
 20
219.0236799748
  0
VERTEX
  8
0
 62
7
  6
CONTINUOUS
 10
134.2361565152
 20
219.0212107941
  0
VERTEX
  8
0
 62
7
  6
CONTINUOUS
 10
134.2390912974
 20
219.0185677821
  0
VERTEX
  8
0
 62
7
  6
CONTINUOUS
 10
134.2420326353
 20
219.0157728426
  0
VERTEX
  8
0
 62
7
  6
CONTINUOUS
 10
134.244973919
 20
219.0128326243
  0
VERTEX
  8
0
 62
7
  6
CONTINUOUS
 10
134.2479175451
 20
219.0097458527
  0
VERTEX
  8
0
 62
7
  6
CONTINUOUS
 10
134.2508707966
 20
219.0065055349
  0
VERTEX
  8
0
 62
7
  6
CONTINUOUS
 10
134.2538454789
 20
219.00309674
  0
VERTEX
  8
0
 62
7
  6
CONTINUOUS
 10
134.2568479909
 20
218.9995076577
  0
VERTEX
  8
0
 62
7
  6
CONTINUOUS
 10
134.2598725354
 20
218.995739582
  0
VERTEX
  8
0
 62
7
  6
CONTINUOUS
 10
134.262917856
 20
218.9917889586
  0
VERTEX
  8
0
 62
7
  6
CONTINUOUS
 10
134.2659853975
 20
218.9876493369
  0
VERTEX
  8
0
 62
7
  6
CONTINUOUS
 10
134.2690712128
 20
218.9833208318
  0
VERTEX
  8
0
 62
7
  6
CONTINUOUS
 10
134.2721610723
 20
218.9788187084
  0
VERTEX
  8
0
 62
7
  6
CONTINUOUS
 10
134.2752415645
 20
218.9741591895
  0
VERTEX
  8
0
 62
7
  6
CONTINUOUS
 10
134.2783012333
 20
218.969357599
  0
VERTEX
  8
0
 62
7
  6
CONTINUOUS
 10
134.2813311337
 20
218.9644278444
  0
VERTEX
  8
0
 62
7
  6
CONTINUOUS
 10
134.2843247404
 20
218.959382147
  0
VERTEX
  8
0
 62
7
  6
CONTINUOUS
 10
134.2872774771
 20
218.9542304195
  0
VERTEX
  8
0
 62
7
  6
CONTINUOUS
 10
134.2901882361
 20
218.9489769313
  0
VERTEX
  8
0
 62
7
  6
CONTINUOUS
 10
134.29305625
 20
218.9436252573
  0
VERTEX
  8
0
 62
7
  6
CONTINUOUS
 10
134.2958808553
 20
218.9381786823
  0
VERTEX
  8
0
 62
7
  6
CONTINUOUS
 10
134.2986617288
 20
218.9326398803
  0
VERTEX
  8
0
 62
7
  6
CONTINUOUS
 10
134.3013991602
 20
218.9270106383
  0
VERTEX
  8
0
 62
7
  6
CONTINUOUS
 10
134.3040936532
 20
218.9212921674
  0
VERTEX
  8
0
 62
7
  6
CONTINUOUS
 10
134.3067458214
 20
218.9154851777
  0
VERTEX
  8
0
 62
7
  6
CONTINUOUS
 10
134.309356383
 20
218.9095898667
  0
VERTEX
  8
0
 62
7
  6
CONTINUOUS
 10
134.311926155
 20
218.9036059069
  0
VERTEX
  8
0
 62
7
  6
CONTINUOUS
 10
134.3144560557
 20
218.8975324164
  0
VERTEX
  8
0
 62
7
  6
CONTINUOUS
 10
134.3169472297
 20
218.8913677069
  0
VERTEX
  8
0
 62
7
  6
CONTINUOUS
 10
134.3194009953
 20
218.8851093133
  0
VERTEX
  8
0
 62
7
  6
CONTINUOUS
 10
134.3218187174
 20
218.8787541746
  0
VERTEX
  8
0
 62
7
  6
CONTINUOUS
 10
134.3242018
 20
218.8722986165
  0
VERTEX
  8
0
 62
7
  6
CONTINUOUS
 10
134.3265516806
 20
218.8657383256
  0
VERTEX
  8
0
 62
7
  6
CONTINUOUS
 10
134.3288695228
 20
218.8590692083
  0
VERTEX
  8
0
 62
7
  6
CONTINUOUS
 10
134.3311614976
 20
218.852271553
  0
VERTEX
  8
0
 62
7
  6
CONTINUOUS
 10
134.3334391763
 20
218.8453063828
  0
VERTEX
  8
0
 62
7
  6
CONTINUOUS
 10
134.3357129934
 20
218.8381335399
  0
VERTEX
  8
0
 62
7
  6
CONTINUOUS
 10
134.3379920742
 20
218.8307122786
  0
VERTEX
  8
0
 62
7
  6
CONTINUOUS
 10
134.3402829486
 20
218.8230057237
  0
VERTEX
  8
0
 62
7
  6
CONTINUOUS
 10
134.3425783782
 20
218.8150211931
  0
VERTEX
  8
0
 62
7
  6
CONTINUOUS
 10
134.3448645535
 20
218.8067917009
  0
VERTEX
  8
0
 62
7
  6
CONTINUOUS
 10
134.3471289562
 20
218.7983505444
  0
VERTEX
  8
0
 62
7
  6
CONTINUOUS
 10
134.349360424
 20
218.7897311267
  0
VERTEX
  8
0
 62
7
  6
CONTINUOUS
 10
134.3515509462
 20
218.7809594852
  0
VERTEX
  8
0
 62
7
  6
CONTINUOUS
 10
134.3536983092
 20
218.7720414428
  0
VERTEX
  8
0
 62
7
  6
CONTINUOUS
 10
134.3558013178
 20
218.7629795007
  0
VERTEX
  8
0
 62
7
  6
CONTINUOUS
 10
134.3578589008
 20
218.7537758897
  0
VERTEX
  8
0
 62
7
  6
CONTINUOUS
 10
134.3598701084
 20
218.744432628
  0
VERTEX
  8
0
 62
7
  6
CONTINUOUS
 10
134.3618341274
 20
218.7349516447
  0
VERTEX
  8
0
 62
7
  6
CONTINUOUS
 10
134.363750281
 20
218.7253347684
  0
VERTEX
  8
0
 62
7
  6
CONTINUOUS
 10
134.365618024
 20
218.715583707
  0
VERTEX
  8
0
 62
7
  6
CONTINUOUS
 10
134.3674368898
 20
218.7056999071
  0
VERTEX
  8
0
 62
7
  6
CONTINUOUS
 10
134.3692064818
 20
218.6956845516
  0
VERTEX
  8
0
 62
7
  6
CONTINUOUS
 10
134.3709265116
 20
218.6855386662
  0
VERTEX
  8
0
 62
7
  6
CONTINUOUS
 10
134.3725967989
 20
218.6752631134
  0
VERTEX
  8
0
 62
7
  6
CONTINUOUS
 10
134.3742172668
 20
218.6648585791
  0
VERTEX
  8
0
 62
7
  6
CONTINUOUS
 10
134.3757878151
 20
218.6543259394
  0
VERTEX
  8
0
 62
7
  6
CONTINUOUS
 10
134.3773080876
 20
218.6436678299
  0
VERTEX
  8
0
 62
7
  6
CONTINUOUS
 10
134.3787779229
 20
218.6328862737
  0
VERTEX
  8
0
 62
7
  6
CONTINUOUS
 10
134.3801972817
 20
218.6219831348
  0
VERTEX
  8
0
 62
7
  6
CONTINUOUS
 10
134.3815662301
 20
218.6109602159
  0
VERTEX
  8
0
 62
7
  6
CONTINUOUS
 10
134.3828849051
 20
218.5998192154
  0
VERTEX
  8
0
 62
7
  6
CONTINUOUS
 10
134.3841534422
 20
218.5885616487
  0
VERTEX
  8
0
 62
7
  6
CONTINUOUS
 10
134.3853720465
 20
218.5771889338
  0
VERTEX
  8
0
 62
7
  6
CONTINUOUS
 10
134.3865410093
 20
218.5657024068
  0
SEQEND
  0
POLYLINE
  8
0
 62
7
  6
CONTINUOUS
 66
1
 70
0
  0
VERTEX
  8
0
 62
7
  6
CONTINUOUS
 10
159.6062785233
 20
219.0375194955
  0
VERTEX
  8
0
 62
7
  6
CONTINUOUS
 10
159.6071529837
 20
219.0374973732
  0
VERTEX
  8
0
 62
7
  6
CONTINUOUS
 10
159.609788286
 20
219.0371423629
  0
VERTEX
  8
0
 62
7
  6
CONTINUOUS
 10
159.6126095193
 20
219.0363459059
  0
VERTEX
  8
0
 62
7
  6
CONTINUOUS
 10
159.6155789741
 20
219.0351711211
  0
VERTEX
  8
0
 62
7
  6
CONTINUOUS
 10
159.6184833921
 20
219.0337635414
  0
VERTEX
  8
0
 62
7
  6
CONTINUOUS
 10
159.6213791352
 20
219.0321466295
  0
VERTEX
  8
0
 62
7
  6
CONTINUOUS
 10
159.6243795845
 20
219.0302710991
  0
VERTEX
  8
0
 62
7
  6
CONTINUOUS
 10
159.6273787904
 20
219.0282109733
  0
VERTEX
  8
0
 62
7
  6
CONTINUOUS
 10
159.6303373588
 20
219.0260087242
  0
VERTEX
  8
0
 62
7
  6
CONTINUOUS
 10
159.6332529587
 20
219.0236799748
  0
VERTEX
  8
0
 62
7
  6
CONTINUOUS
 10
159.6361565152
 20
219.0212107941
  0
VERTEX
  8
0
 62
7
  6
CONTINUOUS
 10
159.6390912974
 20
219.0185677821
  0
VERTEX
  8
0
 62
7
  6
CONTINUOUS
 10
159.6420326353
 20
219.0157728426
  0
VERTEX
  8
0
 62
7
  6
CONTINUOUS
 10
159.644973919
 20
219.0128326243
  0
VERTEX
  8
0
 62
7
  6
CONTINUOUS
 10
159.6479175451
 20
219.0097458527
  0
VERTEX
  8
0
 62
7
  6
CONTINUOUS
 10
159.6508707966
 20
219.0065055349
  0
VERTEX
  8
0
 62
7
  6
CONTINUOUS
 10
159.6538454789
 20
219.00309674
  0
VERTEX
  8
0
 62
7
  6
CONTINUOUS
 10
159.6568479909
 20
218.9995076577
  0
VERTEX
  8
0
 62
7
  6
CONTINUOUS
 10
159.6598725354
 20
218.995739582
  0
VERTEX
  8
0
 62
7
  6
CONTINUOUS
 10
159.662917856
 20
218.9917889586
  0
VERTEX
  8
0
 62
7
  6
CONTINUOUS
 10
159.6659853975
 20
218.9876493369
  0
VERTEX
  8
0
 62
7
  6
CONTINUOUS
 10
159.6690712128
 20
218.9833208318
  0
VERTEX
  8
0
 62
7
  6
CONTINUOUS
 10
159.6721610723
 20
218.9788187084
  0
VERTEX
  8
0
 62
7
  6
CONTINUOUS
 10
159.6752415645
 20
218.9741591895
  0
VERTEX
  8
0
 62
7
  6
CONTINUOUS
 10
159.6783012333
 20
218.969357599
  0
VERTEX
  8
0
 62
7
  6
CONTINUOUS
 10
159.6813311337
 20
218.9644278444
  0
VERTEX
  8
0
 62
7
  6
CONTINUOUS
 10
159.6843247404
 20
218.959382147
  0
VERTEX
  8
0
 62
7
  6
CONTINUOUS
 10
159.6872774771
 20
218.9542304195
  0
VERTEX
  8
0
 62
7
  6
CONTINUOUS
 10
159.6901882361
 20
218.9489769313
  0
VERTEX
  8
0
 62
7
  6
CONTINUOUS
 10
159.69305625
 20
218.9436252573
  0
VERTEX
  8
0
 62
7
  6
CONTINUOUS
 10
159.6958808553
 20
218.9381786823
  0
VERTEX
  8
0
 62
7
  6
CONTINUOUS
 10
159.6986617288
 20
218.9326398803
  0
VERTEX
  8
0
 62
7
  6
CONTINUOUS
 10
159.7013991602
 20
218.9270106383
  0
VERTEX
  8
0
 62
7
  6
CONTINUOUS
 10
159.7040936532
 20
218.9212921674
  0
VERTEX
  8
0
 62
7
  6
CONTINUOUS
 10
159.7067458214
 20
218.9154851777
  0
VERTEX
  8
0
 62
7
  6
CONTINUOUS
 10
159.709356383
 20
218.9095898667
  0
VERTEX
  8
0
 62
7
  6
CONTINUOUS
 10
159.711926155
 20
218.9036059069
  0
VERTEX
  8
0
 62
7
  6
CONTINUOUS
 10
159.7144560557
 20
218.8975324164
  0
VERTEX
  8
0
 62
7
  6
CONTINUOUS
 10
159.7169472297
 20
218.8913677069
  0
VERTEX
  8
0
 62
7
  6
CONTINUOUS
 10
159.7194009953
 20
218.8851093133
  0
VERTEX
  8
0
 62
7
  6
CONTINUOUS
 10
159.7218187174
 20
218.8787541746
  0
VERTEX
  8
0
 62
7
  6
CONTINUOUS
 10
159.7242018
 20
218.8722986165
  0
VERTEX
  8
0
 62
7
  6
CONTINUOUS
 10
159.7265516806
 20
218.8657383256
  0
VERTEX
  8
0
 62
7
  6
CONTINUOUS
 10
159.7288695228
 20
218.8590692083
  0
VERTEX
  8
0
 62
7
  6
CONTINUOUS
 10
159.7311614976
 20
218.852271553
  0
VERTEX
  8
0
 62
7
  6
CONTINUOUS
 10
159.7334391763
 20
218.8453063828
  0
VERTEX
  8
0
 62
7
  6
CONTINUOUS
 10
159.7357129934
 20
218.8381335399
  0
VERTEX
  8
0
 62
7
  6
CONTINUOUS
 10
159.7379920742
 20
218.8307122786
  0
VERTEX
  8
0
 62
7
  6
CONTINUOUS
 10
159.7402829486
 20
218.8230057237
  0
VERTEX
  8
0
 62
7
  6
CONTINUOUS
 10
159.7425783782
 20
218.8150211931
  0
VERTEX
  8
0
 62
7
  6
CONTINUOUS
 10
159.7448645535
 20
218.8067917009
  0
VERTEX
  8
0
 62
7
  6
CONTINUOUS
 10
159.7471289562
 20
218.7983505444
  0
VERTEX
  8
0
 62
7
  6
CONTINUOUS
 10
159.749360424
 20
218.7897311267
  0
VERTEX
  8
0
 62
7
  6
CONTINUOUS
 10
159.7515509462
 20
218.7809594852
  0
VERTEX
  8
0
 62
7
  6
CONTINUOUS
 10
159.7536983092
 20
218.7720414428
  0
VERTEX
  8
0
 62
7
  6
CONTINUOUS
 10
159.7558013178
 20
218.7629795007
  0
VERTEX
  8
0
 62
7
  6
CONTINUOUS
 10
159.7578589008
 20
218.7537758897
  0
VERTEX
  8
0
 62
7
  6
CONTINUOUS
 10
159.7598701084
 20
218.744432628
  0
VERTEX
  8
0
 62
7
  6
CONTINUOUS
 10
159.7618341274
 20
218.7349516447
  0
VERTEX
  8
0
 62
7
  6
CONTINUOUS
 10
159.763750281
 20
218.7253347684
  0
VERTEX
  8
0
 62
7
  6
CONTINUOUS
 10
159.765618024
 20
218.715583707
  0
VERTEX
  8
0
 62
7
  6
CONTINUOUS
 10
159.7674368898
 20
218.7056999071
  0
VERTEX
  8
0
 62
7
  6
CONTINUOUS
 10
159.7692064818
 20
218.6956845516
  0
VERTEX
  8
0
 62
7
  6
CONTINUOUS
 10
159.7709265116
 20
218.6855386662
  0
VERTEX
  8
0
 62
7
  6
CONTINUOUS
 10
159.7725967989
 20
218.6752631134
  0
VERTEX
  8
0
 62
7
  6
CONTINUOUS
 10
159.7742172668
 20
218.6648585791
  0
VERTEX
  8
0
 62
7
  6
CONTINUOUS
 10
159.7757878151
 20
218.6543259394
  0
VERTEX
  8
0
 62
7
  6
CONTINUOUS
 10
159.7773080876
 20
218.6436678299
  0
VERTEX
  8
0
 62
7
  6
CONTINUOUS
 10
159.7787779229
 20
218.6328862737
  0
VERTEX
  8
0
 62
7
  6
CONTINUOUS
 10
159.7801972817
 20
218.6219831348
  0
VERTEX
  8
0
 62
7
  6
CONTINUOUS
 10
159.7815662301
 20
218.6109602159
  0
VERTEX
  8
0
 62
7
  6
CONTINUOUS
 10
159.7828849051
 20
218.5998192154
  0
VERTEX
  8
0
 62
7
  6
CONTINUOUS
 10
159.7841534422
 20
218.5885616487
  0
VERTEX
  8
0
 62
7
  6
CONTINUOUS
 10
159.7853720465
 20
218.5771889338
  0
VERTEX
  8
0
 62
7
  6
CONTINUOUS
 10
159.7865410093
 20
218.5657024068
  0
SEQEND
  0
POLYLINE
  8
0
 62
7
  6
CONTINUOUS
 66
1
 70
0
  0
VERTEX
  8
0
 62
7
  6
CONTINUOUS
 10
32.606278544
 20
219.0375194955
  0
VERTEX
  8
0
 62
7
  6
CONTINUOUS
 10
32.6072906858
 20
219.0374896108
  0
VERTEX
  8
0
 62
7
  6
CONTINUOUS
 10
32.6100400626
 20
219.0370868854
  0
VERTEX
  8
0
 62
7
  6
CONTINUOUS
 10
32.6130186935
 20
219.0362023066
  0
VERTEX
  8
0
 62
7
  6
CONTINUOUS
 10
32.6161370892
 20
219.0349187606
  0
VERTEX
  8
0
 62
7
  6
CONTINUOUS
 10
32.6191732958
 20
219.033396677
  0
VERTEX
  8
0
 62
7
  6
CONTINUOUS
 10
32.622233009
 20
219.0316325991
  0
VERTEX
  8
0
 62
7
  6
CONTINUOUS
 10
32.6253833264
 20
219.0296018395
  0
VERTEX
  8
0
 62
7
  6
CONTINUOUS
 10
32.6285219028
 20
219.0273798519
  0
VERTEX
  8
0
 62
7
  6
CONTINUOUS
 10
32.631615748
 20
219.0250062571
  0
VERTEX
  8
0
 62
7
  6
CONTINUOUS
 10
32.6346709122
 20
219.0224928148
  0
VERTEX
  8
0
 62
7
  6
CONTINUOUS
 10
32.6377313804
 20
219.0198116043
  0
VERTEX
  8
0
 62
7
  6
CONTINUOUS
 10
32.6408183137
 20
219.0169444058
  0
VERTEX
  8
0
 62
7
  6
CONTINUOUS
 10
32.6439058882
 20
219.013916292
  0
VERTEX
  8
0
 62
7
  6
CONTINUOUS
 10
32.6469944747
 20
219.0107292734
  0
VERTEX
  8
0
 62
7
  6
CONTINUOUS
 10
32.6500895034
 20
219.0073778408
  0
VERTEX
  8
0
 62
7
  6
CONTINUOUS
 10
32.6532016617
 20
219.0038478324
  0
VERTEX
  8
0
 62
7
  6
CONTINUOUS
 10
32.6563436371
 20
219.0001207437
  0
VERTEX
  8
0
 62
7
  6
CONTINUOUS
 10
32.6595113495
 20
218.9961967964
  0
VERTEX
  8
0
 62
7
  6
CONTINUOUS
 10
32.6627020343
 20
218.9920741147
  0
VERTEX
  8
0
 62
7
  6
CONTINUOUS
 10
32.6659156461
 20
218.9877464254
  0
VERTEX
  8
0
 62
7
  6
CONTINUOUS
 10
32.6691493115
 20
218.9832103997
  0
VERTEX
  8
0
 62
7
  6
CONTINUOUS
 10
32.6723881894
 20
218.9784814558
  0
VERTEX
  8
0
 62
7
  6
CONTINUOUS
 10
32.6756175617
 20
218.9735780226
  0
VERTEX
  8
0
 62
7
  6
CONTINUOUS
 10
32.6788249389
 20
218.9685175124
  0
VERTEX
  8
0
 62
7
  6
CONTINUOUS
 10
32.6820000205
 20
218.9633158824
  0
VERTEX
  8
0
 62
7
  6
CONTINUOUS
 10
32.6851346143
 20
218.9579873196
  0
VERTEX
  8
0
 62
7
  6
CONTINUOUS
 10
32.6882234926
 20
218.9525429208
  0
VERTEX
  8
0
 62
7
  6
CONTINUOUS
 10
32.6912657134
 20
218.9469873127
  0
VERTEX
  8
0
 62
7
  6
CONTINUOUS
 10
32.6942605157
 20
218.9413246797
  0
VERTEX
  8
0
 62
7
  6
CONTINUOUS
 10
32.6972072736
 20
218.9355588337
  0
VERTEX
  8
0
 62
7
  6
CONTINUOUS
 10
32.7001055948
 20
218.9296930161
  0
VERTEX
  8
0
 62
7
  6
CONTINUOUS
 10
32.7029554831
 20
218.9237297091
  0
VERTEX
  8
0
 62
7
  6
CONTINUOUS
 10
32.7057574555
 20
218.9176704658
  0
VERTEX
  8
0
 62
7
  6
CONTINUOUS
 10
32.7085122011
 20
218.9115162168
  0
VERTEX
  8
0
 62
7
  6
CONTINUOUS
 10
32.7112205338
 20
218.9052672963
  0
VERTEX
  8
0
 62
7
  6
CONTINUOUS
 10
32.7138833845
 20
218.8989234266
  0
VERTEX
  8
0
 62
7
  6
CONTINUOUS
 10
32.7165018312
 20
218.8924836324
  0
VERTEX
  8
0
 62
7
  6
CONTINUOUS
 10
32.7177948153
 20
218.8892271913
  0
VERTEX
  8
0
 62
7
  6
CONTINUOUS
 10
32.720349201
 20
218.8826396523
  0
VERTEX
  8
0
 62
7
  6
CONTINUOUS
 10
32.7228627108
 20
218.8759499843
  0
VERTEX
  8
0
 62
7
  6
CONTINUOUS
 10
32.7253368694
 20
218.8691544701
  0
VERTEX
  8
0
 62
7
  6
CONTINUOUS
 10
32.7277732447
 20
218.8622486679
  0
VERTEX
  8
0
 62
7
  6
CONTINUOUS
 10
32.7301732096
 20
218.8552280527
  0
VERTEX
  8
0
 62
7
  6
CONTINUOUS
 10
32.7325437938
 20
218.8480700764
  0
VERTEX
  8
0
 62
7
  6
CONTINUOUS
 10
32.7348993101
 20
218.8407261741
  0
VERTEX
  8
0
 62
7
  6
CONTINUOUS
 10
32.7372527412
 20
218.8331458344
  0
VERTEX
  8
0
 62
7
  6
CONTINUOUS
 10
32.7396153613
 20
218.8252778118
  0
VERTEX
  8
0
 62
7
  6
CONTINUOUS
 10
32.7419942918
 20
218.8170787333
  0
VERTEX
  8
0
 62
7
  6
CONTINUOUS
 10
32.7443781989
 20
218.808566479
  0
VERTEX
  8
0
 62
7
  6
CONTINUOUS
 10
32.7467494584
 20
218.7997860756
  0
VERTEX
  8
0
 62
7
  6
CONTINUOUS
 10
32.7490923155
 20
218.7907830056
  0
VERTEX
  8
0
 62
7
  6
CONTINUOUS
 10
32.7513940019
 20
218.781598479
  0
VERTEX
  8
0
 62
7
  6
CONTINUOUS
 10
32.7536499274
 20
218.7722460838
  0
VERTEX
  8
0
 62
7
  6
CONTINUOUS
 10
32.7558583912
 20
218.7627289299
  0
VERTEX
  8
0
 62
7
  6
CONTINUOUS
 10
32.7580178903
 20
218.7530500413
  0
VERTEX
  8
0
 62
7
  6
CONTINUOUS
 10
32.7601271199
 20
218.7432123698
  0
VERTEX
  8
0
 62
7
  6
CONTINUOUS
 10
32.7621849626
 20
218.733218738
  0
VERTEX
  8
0
 62
7
  6
CONTINUOUS
 10
32.7641904324
 20
218.7230716428
  0
VERTEX
  8
0
 62
7
  6
CONTINUOUS
 10
32.7661426966
 20
218.7127733697
  0
VERTEX
  8
0
 62
7
  6
CONTINUOUS
 10
32.7680410905
 20
218.7023260508
  0
VERTEX
  8
0
 62
7
  6
CONTINUOUS
 10
32.7698851108
 20
218.6917316418
  0
VERTEX
  8
0
 62
7
  6
CONTINUOUS
 10
32.77167435
 20
218.6809917771
  0
VERTEX
  8
0
 62
7
  6
CONTINUOUS
 10
32.77340849
 20
218.670107774
  0
VERTEX
  8
0
 62
7
  6
CONTINUOUS
 10
32.7750873454
 20
218.6590807365
  0
VERTEX
  8
0
 62
7
  6
CONTINUOUS
 10
32.7767106411
 20
218.6479130885
  0
VERTEX
  8
0
 62
7
  6
CONTINUOUS
 10
32.7782780481
 20
218.6366082586
  0
VERTEX
  8
0
 62
7
  6
CONTINUOUS
 10
32.7797893911
 20
218.6251688919
  0
VERTEX
  8
0
 62
7
  6
CONTINUOUS
 10
32.7812446224
 20
218.613597547
  0
VERTEX
  8
0
 62
7
  6
CONTINUOUS
 10
32.7826438291
 20
218.6018967041
  0
VERTEX
  8
0
 62
7
  6
CONTINUOUS
 10
32.7839872106
 20
218.5900687378
  0
VERTEX
  8
0
 62
7
  6
CONTINUOUS
 10
32.7852749947
 20
218.5781158257
  0
VERTEX
  8
0
 62
7
  6
CONTINUOUS
 10
32.7865074927
 20
218.5660400149
  0
SEQEND
  0
POLYLINE
  8
0
 62
7
  6
CONTINUOUS
 66
1
 70
0
  0
VERTEX
  8
0
 62
7
  6
CONTINUOUS
 10
83.4062785435
 20
219.0375194955
  0
VERTEX
  8
0
 62
7
  6
CONTINUOUS
 10
83.4072906851
 20
219.0374896109
  0
VERTEX
  8
0
 62
7
  6
CONTINUOUS
 10
83.4100400619
 20
219.0370868856
  0
VERTEX
  8
0
 62
7
  6
CONTINUOUS
 10
83.4130186929
 20
219.0362023068
  0
VERTEX
  8
0
 62
7
  6
CONTINUOUS
 10
83.4161370886
 20
219.0349187609
  0
VERTEX
  8
0
 62
7
  6
CONTINUOUS
 10
83.4191732952
 20
219.0333966773
  0
VERTEX
  8
0
 62
7
  6
CONTINUOUS
 10
83.4222330085
 20
219.0316325994
  0
VERTEX
  8
0
 62
7
  6
CONTINUOUS
 10
83.4253833259
 20
219.0296018398
  0
VERTEX
  8
0
 62
7
  6
CONTINUOUS
 10
83.4285219024
 20
219.0273798522
  0
VERTEX
  8
0
 62
7
  6
CONTINUOUS
 10
83.4316157475
 20
219.0250062574
  0
VERTEX
  8
0
 62
7
  6
CONTINUOUS
 10
83.4346709118
 20
219.0224928151
  0
VERTEX
  8
0
 62
7
  6
CONTINUOUS
 10
83.4377313801
 20
219.0198116046
  0
VERTEX
  8
0
 62
7
  6
CONTINUOUS
 10
83.4408183134
 20
219.0169444061
  0
VERTEX
  8
0
 62
7
  6
CONTINUOUS
 10
83.4439058879
 20
219.0139162923
  0
VERTEX
  8
0
 62
7
  6
CONTINUOUS
 10
83.4469944745
 20
219.0107292737
  0
VERTEX
  8
0
 62
7
  6
CONTINUOUS
 10
83.4500895032
 20
219.007377841
  0
VERTEX
  8
0
 62
7
  6
CONTINUOUS
 10
83.4532016615
 20
219.0038478326
  0
VERTEX
  8
0
 62
7
  6
CONTINUOUS
 10
83.456343637
 20
219.0001207439
  0
VERTEX
  8
0
 62
7
  6
CONTINUOUS
 10
83.4595113494
 20
218.9961967965
  0
VERTEX
  8
0
 62
7
  6
CONTINUOUS
 10
83.4627020343
 20
218.9920741148
  0
VERTEX
  8
0
 62
7
  6
CONTINUOUS
 10
83.465915646
 20
218.9877464254
  0
VERTEX
  8
0
 62
7
  6
CONTINUOUS
 10
83.4691493116
 20
218.9832103997
  0
VERTEX
  8
0
 62
7
  6
CONTINUOUS
 10
83.4723881894
 20
218.9784814557
  0
VERTEX
  8
0
 62
7
  6
CONTINUOUS
 10
83.4756175618
 20
218.9735780224
  0
VERTEX
  8
0
 62
7
  6
CONTINUOUS
 10
83.478824939
 20
218.9685175122
  0
VERTEX
  8
0
 62
7
  6
CONTINUOUS
 10
83.4820000206
 20
218.9633158821
  0
VERTEX
  8
0
 62
7
  6
CONTINUOUS
 10
83.4851346145
 20
218.9579873193
  0
VERTEX
  8
0
 62
7
  6
CONTINUOUS
 10
83.4882234928
 20
218.9525429205
  0
VERTEX
  8
0
 62
7
  6
CONTINUOUS
 10
83.4912657135
 20
218.9469873124
  0
VERTEX
  8
0
 62
7
  6
CONTINUOUS
 10
83.4942605159
 20
218.9413246793
  0
VERTEX
  8
0
 62
7
  6
CONTINUOUS
 10
83.4972072738
 20
218.9355588333
  0
VERTEX
  8
0
 62
7
  6
CONTINUOUS
 10
83.500105595
 20
218.9296930157
  0
VERTEX
  8
0
 62
7
  6
CONTINUOUS
 10
83.5029554833
 20
218.9237297087
  0
VERTEX
  8
0
 62
7
  6
CONTINUOUS
 10
83.5057574557
 20
218.9176704653
  0
VERTEX
  8
0
 62
7
  6
CONTINUOUS
 10
83.5085122013
 20
218.9115162163
  0
VERTEX
  8
0
 62
7
  6
CONTINUOUS
 10
83.511220534
 20
218.9052672958
  0
VERTEX
  8
0
 62
7
  6
CONTINUOUS
 10
83.5138833847
 20
218.8989234261
  0
VERTEX
  8
0
 62
7
  6
CONTINUOUS
 10
83.5165018314
 20
218.8924836319
  0
VERTEX
  8
0
 62
7
  6
CONTINUOUS
 10
83.5177948155
 20
218.8892271909
  0
VERTEX
  8
0
 62
7
  6
CONTINUOUS
 10
83.5203492012
 20
218.8826396519
  0
VERTEX
  8
0
 62
7
  6
CONTINUOUS
 10
83.522862711
 20
218.8759499838
  0
VERTEX
  8
0
 62
7
  6
CONTINUOUS
 10
83.5253368696
 20
218.8691544697
  0
VERTEX
  8
0
 62
7
  6
CONTINUOUS
 10
83.5277732448
 20
218.8622486675
  0
VERTEX
  8
0
 62
7
  6
CONTINUOUS
 10
83.5301732098
 20
218.8552280523
  0
VERTEX
  8
0
 62
7
  6
CONTINUOUS
 10
83.5325437939
 20
218.848070076
  0
VERTEX
  8
0
 62
7
  6
CONTINUOUS
 10
83.5348993102
 20
218.8407261738
  0
VERTEX
  8
0
 62
7
  6
CONTINUOUS
 10
83.5372527413
 20
218.8331458341
  0
VERTEX
  8
0
 62
7
  6
CONTINUOUS
 10
83.5396153614
 20
218.8252778116
  0
VERTEX
  8
0
 62
7
  6
CONTINUOUS
 10
83.5419942919
 20
218.8170787331
  0
VERTEX
  8
0
 62
7
  6
CONTINUOUS
 10
83.5443781989
 20
218.8085664788
  0
VERTEX
  8
0
 62
7
  6
CONTINUOUS
 10
83.5467494585
 20
218.7997860754
  0
VERTEX
  8
0
 62
7
  6
CONTINUOUS
 10
83.5490923156
 20
218.7907830054
  0
VERTEX
  8
0
 62
7
  6
CONTINUOUS
 10
83.551394002
 20
218.7815984788
  0
VERTEX
  8
0
 62
7
  6
CONTINUOUS
 10
83.5536499275
 20
218.7722460835
  0
VERTEX
  8
0
 62
7
  6
CONTINUOUS
 10
83.5558583912
 20
218.7627289296
  0
VERTEX
  8
0
 62
7
  6
CONTINUOUS
 10
83.5580178903
 20
218.753050041
  0
VERTEX
  8
0
 62
7
  6
CONTINUOUS
 10
83.56012712
 20
218.7432123695
  0
VERTEX
  8
0
 62
7
  6
CONTINUOUS
 10
83.5621849626
 20
218.7332187377
  0
VERTEX
  8
0
 62
7
  6
CONTINUOUS
 10
83.5641904325
 20
218.7230716425
  0
VERTEX
  8
0
 62
7
  6
CONTINUOUS
 10
83.5661426967
 20
218.7127733693
  0
VERTEX
  8
0
 62
7
  6
CONTINUOUS
 10
83.5680410906
 20
218.7023260505
  0
VERTEX
  8
0
 62
7
  6
CONTINUOUS
 10
83.5698851109
 20
218.6917316415
  0
VERTEX
  8
0
 62
7
  6
CONTINUOUS
 10
83.57167435
 20
218.6809917768
  0
VERTEX
  8
0
 62
7
  6
CONTINUOUS
 10
83.5734084901
 20
218.6701077737
  0
VERTEX
  8
0
 62
7
  6
CONTINUOUS
 10
83.5750873454
 20
218.6590807362
  0
VERTEX
  8
0
 62
7
  6
CONTINUOUS
 10
83.5767106412
 20
218.6479130882
  0
VERTEX
  8
0
 62
7
  6
CONTINUOUS
 10
83.5782780482
 20
218.6366082583
  0
VERTEX
  8
0
 62
7
  6
CONTINUOUS
 10
83.5797893911
 20
218.6251688917
  0
VERTEX
  8
0
 62
7
  6
CONTINUOUS
 10
83.5812446225
 20
218.6135975467
  0
VERTEX
  8
0
 62
7
  6
CONTINUOUS
 10
83.5826438291
 20
218.6018967039
  0
VERTEX
  8
0
 62
7
  6
CONTINUOUS
 10
83.5839872106
 20
218.5900687376
  0
VERTEX
  8
0
 62
7
  6
CONTINUOUS
 10
83.5852749947
 20
218.5781158255
  0
VERTEX
  8
0
 62
7
  6
CONTINUOUS
 10
83.5865074927
 20
218.5660400148
  0
SEQEND
  0
POLYLINE
  8
0
 62
7
  6
CONTINUOUS
 66
1
 70
0
  0
VERTEX
  8
0
 62
7
  6
CONTINUOUS
 10
32.8820027065
 20
223.6734180046
  0
VERTEX
  8
0
 62
7
  6
CONTINUOUS
 10
32.8809905649
 20
223.6734478892
  0
VERTEX
  8
0
 62
7
  6
CONTINUOUS
 10
32.8782411881
 20
223.6738506145
  0
VERTEX
  8
0
 62
7
  6
CONTINUOUS
 10
32.8752625572
 20
223.6747351933
  0
VERTEX
  8
0
 62
7
  6
CONTINUOUS
 10
32.8721441614
 20
223.6760187392
  0
VERTEX
  8
0
 62
7
  6
CONTINUOUS
 10
32.8691079548
 20
223.6775408228
  0
VERTEX
  8
0
 62
7
  6
CONTINUOUS
 10
32.8660482416
 20
223.6793049007
  0
VERTEX
  8
0
 62
7
  6
CONTINUOUS
 10
32.8628979241
 20
223.6813356603
  0
VERTEX
  8
0
 62
7
  6
CONTINUOUS
 10
32.8597593477
 20
223.6835576478
  0
VERTEX
  8
0
 62
7
  6
CONTINUOUS
 10
32.8566655025
 20
223.6859312426
  0
VERTEX
  8
0
 62
7
  6
CONTINUOUS
 10
32.8536103383
 20
223.6884446849
  0
VERTEX
  8
0
 62
7
  6
CONTINUOUS
 10
32.85054987
 20
223.6911258954
  0
VERTEX
  8
0
 62
7
  6
CONTINUOUS
 10
32.8474629367
 20
223.6939930939
  0
VERTEX
  8
0
 62
7
  6
CONTINUOUS
 10
32.8443753621
 20
223.6970212077
  0
VERTEX
  8
0
 62
7
  6
CONTINUOUS
 10
32.8412867756
 20
223.7002082263
  0
VERTEX
  8
0
 62
7
  6
CONTINUOUS
 10
32.8381917469
 20
223.7035596589
  0
VERTEX
  8
0
 62
7
  6
CONTINUOUS
 10
32.8350795886
 20
223.7070896673
  0
VERTEX
  8
0
 62
7
  6
CONTINUOUS
 10
32.8319376131
 20
223.710816756
  0
VERTEX
  8
0
 62
7
  6
CONTINUOUS
 10
32.8287699007
 20
223.7147407033
  0
VERTEX
  8
0
 62
7
  6
CONTINUOUS
 10
32.8255792158
 20
223.718863385
  0
VERTEX
  8
0
 62
7
  6
CONTINUOUS
 10
32.822365604
 20
223.7231910744
  0
VERTEX
  8
0
 62
7
  6
CONTINUOUS
 10
32.8191319385
 20
223.7277271001
  0
VERTEX
  8
0
 62
7
  6
CONTINUOUS
 10
32.8158930607
 20
223.732456044
  0
VERTEX
  8
0
 62
7
  6
CONTINUOUS
 10
32.8126636883
 20
223.7373594773
  0
VERTEX
  8
0
 62
7
  6
CONTINUOUS
 10
32.809456311
 20
223.7424199875
  0
VERTEX
  8
0
 62
7
  6
CONTINUOUS
 10
32.8062812295
 20
223.7476216176
  0
VERTEX
  8
0
 62
7
  6
CONTINUOUS
 10
32.8031466356
 20
223.7529501804
  0
VERTEX
  8
0
 62
7
  6
CONTINUOUS
 10
32.8000577573
 20
223.7583945792
  0
VERTEX
  8
0
 62
7
  6
CONTINUOUS
 10
32.7970155366
 20
223.7639501872
  0
VERTEX
  8
0
 62
7
  6
CONTINUOUS
 10
32.7940207343
 20
223.7696128202
  0
VERTEX
  8
0
 62
7
  6
CONTINUOUS
 10
32.7910739764
 20
223.7753786663
  0
VERTEX
  8
0
 62
7
  6
CONTINUOUS
 10
32.7881756552
 20
223.7812444838
  0
VERTEX
  8
0
 62
7
  6
CONTINUOUS
 10
32.7853257669
 20
223.7872077908
  0
VERTEX
  8
0
 62
7
  6
CONTINUOUS
 10
32.7825237945
 20
223.7932670342
  0
VERTEX
  8
0
 62
7
  6
CONTINUOUS
 10
32.7797690489
 20
223.7994212832
  0
VERTEX
  8
0
 62
7
  6
CONTINUOUS
 10
32.7770607162
 20
223.8056702037
  0
VERTEX
  8
0
 62
7
  6
CONTINUOUS
 10
32.7743978655
 20
223.8120140733
  0
VERTEX
  8
0
 62
7
  6
CONTINUOUS
 10
32.7717794189
 20
223.8184538675
  0
VERTEX
  8
0
 62
7
  6
CONTINUOUS
 10
32.7704864347
 20
223.8217103085
  0
VERTEX
  8
0
 62
7
  6
CONTINUOUS
 10
32.7679320491
 20
223.8282978475
  0
VERTEX
  8
0
 62
7
  6
CONTINUOUS
 10
32.7654185393
 20
223.8349875154
  0
VERTEX
  8
0
 62
7
  6
CONTINUOUS
 10
32.7629443807
 20
223.8417830295
  0
VERTEX
  8
0
 62
7
  6
CONTINUOUS
 10
32.7605080055
 20
223.8486888317
  0
VERTEX
  8
0
 62
7
  6
CONTINUOUS
 10
32.7581080406
 20
223.8557094467
  0
VERTEX
  8
0
 62
7
  6
CONTINUOUS
 10
32.7557374564
 20
223.862867423
  0
VERTEX
  8
0
 62
7
  6
CONTINUOUS
 10
32.7533819401
 20
223.8702113251
  0
VERTEX
  8
0
 62
7
  6
CONTINUOUS
 10
32.751028509
 20
223.8777916648
  0
VERTEX
  8
0
 62
7
  6
CONTINUOUS
 10
32.748665889
 20
223.8856596872
  0
VERTEX
  8
0
 62
7
  6
CONTINUOUS
 10
32.7462869585
 20
223.8938587656
  0
VERTEX
  8
0
 62
7
  6
CONTINUOUS
 10
32.7439030514
 20
223.9023710199
  0
VERTEX
  8
0
 62
7
  6
CONTINUOUS
 10
32.7415317918
 20
223.9111514232
  0
VERTEX
  8
0
 62
7
  6
CONTINUOUS
 10
32.7391889347
 20
223.9201544932
  0
VERTEX
  8
0
 62
7
  6
CONTINUOUS
 10
32.7368872484
 20
223.9293390197
  0
VERTEX
  8
0
 62
7
  6
CONTINUOUS
 10
32.7346313229
 20
223.9386914149
  0
VERTEX
  8
0
 62
7
  6
CONTINUOUS
 10
32.7324228591
 20
223.9482085688
  0
VERTEX
  8
0
 62
7
  6
CONTINUOUS
 10
32.7302633601
 20
223.9578874572
  0
VERTEX
  8
0
 62
7
  6
CONTINUOUS
 10
32.7281541304
 20
223.9677251287
  0
VERTEX
  8
0
 62
7
  6
CONTINUOUS
 10
32.7260962878
 20
223.9777187605
  0
VERTEX
  8
0
 62
7
  6
CONTINUOUS
 10
32.7240908179
 20
223.9878658556
  0
VERTEX
  8
0
 62
7
  6
CONTINUOUS
 10
32.7221385537
 20
223.9981641288
  0
VERTEX
  8
0
 62
7
  6
CONTINUOUS
 10
32.7202401598
 20
224.0086114476
  0
VERTEX
  8
0
 62
7
  6
CONTINUOUS
 10
32.7183961395
 20
224.0192058566
  0
VERTEX
  8
0
 62
7
  6
CONTINUOUS
 10
32.7166069004
 20
224.0299457213
  0
VERTEX
  8
0
 62
7
  6
CONTINUOUS
 10
32.7148727603
 20
224.0408297244
  0
VERTEX
  8
0
 62
7
  6
CONTINUOUS
 10
32.7131939049
 20
224.0518567618
  0
VERTEX
  8
0
 62
7
  6
CONTINUOUS
 10
32.7115706092
 20
224.0630244098
  0
VERTEX
  8
0
 62
7
  6
CONTINUOUS
 10
32.7100032022
 20
224.0743292394
  0
VERTEX
  8
0
 62
7
  6
CONTINUOUS
 10
32.7084918593
 20
224.0857686058
  0
VERTEX
  8
0
 62
7
  6
CONTINUOUS
 10
32.7070366279
 20
224.0973399505
  0
VERTEX
  8
0
 62
7
  6
CONTINUOUS
 10
32.7056374213
 20
224.1090407932
  0
VERTEX
  8
0
 62
7
  6
CONTINUOUS
 10
32.7042940397
 20
224.1208687594
  0
VERTEX
  8
0
 62
7
  6
CONTINUOUS
 10
32.7030062556
 20
224.1328216716
  0
VERTEX
  8
0
 62
7
  6
CONTINUOUS
 10
32.7017737576
 20
224.1448974825
  0
SEQEND
  0
POLYLINE
  8
0
 62
7
  6
CONTINUOUS
 66
1
 70
0
  0
VERTEX
  8
0
 62
7
  6
CONTINUOUS
 10
122.3381014074
 20
228.3554687213
  0
VERTEX
  8
0
 62
7
  6
CONTINUOUS
 10
122.2518200059
 20
228.3429937672
  0
VERTEX
  8
0
 62
7
  6
CONTINUOUS
 10
122.1598575328
 20
228.2990335487
  0
VERTEX
  8
0
 62
7
  6
CONTINUOUS
 10
122.0883401797
 20
228.2347855208
  0
VERTEX
  8
0
 62
7
  6
CONTINUOUS
 10
122.0350071042
 20
228.16045689
  0
VERTEX
  8
0
 62
7
  6
CONTINUOUS
 10
121.9918539976
 20
228.0758988696
  0
VERTEX
  8
0
 62
7
  6
CONTINUOUS
 10
121.953804023
 20
227.9771415472
  0
VERTEX
  8
0
 62
7
  6
CONTINUOUS
 10
121.9181349753
 20
227.8589220631
  0
VERTEX
  8
0
 62
7
  6
CONTINUOUS
 10
121.8837212001
 20
227.716265251
  0
VERTEX
  8
0
 62
7
  6
CONTINUOUS
 10
121.8503666262
 20
227.5450469675
  0
VERTEX
  8
0
 62
7
  6
CONTINUOUS
 10
121.8184045879
 20
227.3421740765
  0
VERTEX
  8
0
 62
7
  6
CONTINUOUS
 10
121.7883839162
 20
227.1048146552
  0
VERTEX
  8
0
 62
7
  6
CONTINUOUS
 10
121.7608424984
 20
226.8280359003
  0
VERTEX
  8
0
 62
7
  6
CONTINUOUS
 10
121.7367426363
 20
226.5071572299
  0
VERTEX
  8
0
 62
7
  6
CONTINUOUS
 10
121.7177947726
 20
226.1452270886
  0
VERTEX
  8
0
 62
7
  6
CONTINUOUS
 10
121.7057190202
 20
225.7519537968
  0
VERTEX
  8
0
 62
7
  6
CONTINUOUS
 10
121.7017327268
 20
225.35546875
  0
SEQEND
  0
LINE
  8
0
 62
7
  6
CONTINUOUS
 10
32.8820027069
 20
223.6734179424
 11
45.3062785645
 21
223.6734179424
  0
LINE
  8
0
 62
7
  6
CONTINUOUS
 10
58.2820027069
 20
223.6734179424
 11
70.7062785645
 21
223.6734179424
  0
LINE
  8
0
 62
7
  6
CONTINUOUS
 10
83.6820027069
 20
223.6734179424
 11
96.1062785645
 21
223.6734179424
  0
LINE
  8
0
 62
7
  6
CONTINUOUS
 10
109.0820027069
 20
223.6734179424
 11
121.5062785645
 21
223.6734179424
  0
LINE
  8
0
 62
7
  6
CONTINUOUS
 10
134.4820027069
 20
223.6734179424
 11
146.9062785645
 21
223.6734179424
  0
LINE
  8
0
 62
7
  6
CONTINUOUS
 10
159.8820027063
 20
223.6734179424
 11
172.3100237712
 21
223.6734179424
  0
LINE
  8
02___PRT_ALL_AXES
 62
2
  6
CENTER
 10
18.144140625
 20
225.35546875
 11
161.5308969773
 21
225.35546875
  0
POLYLINE
  8
0
 62
7
  6
CONTINUOUS
 66
1
 70
0
  0
VERTEX
  8
0
 62
7
  6
CONTINUOUS
 10
58.2820027065
 20
223.6734180046
  0
VERTEX
  8
0
 62
7
  6
CONTINUOUS
 10
58.2809905649
 20
223.6734478892
  0
VERTEX
  8
0
 62
7
  6
CONTINUOUS
 10
58.2782411881
 20
223.6738506145
  0
VERTEX
  8
0
 62
7
  6
CONTINUOUS
 10
58.2752625572
 20
223.6747351933
  0
VERTEX
  8
0
 62
7
  6
CONTINUOUS
 10
58.2721441614
 20
223.6760187392
  0
VERTEX
  8
0
 62
7
  6
CONTINUOUS
 10
58.2691079548
 20
223.6775408228
  0
VERTEX
  8
0
 62
7
  6
CONTINUOUS
 10
58.2660482416
 20
223.6793049007
  0
VERTEX
  8
0
 62
7
  6
CONTINUOUS
 10
58.2628979241
 20
223.6813356603
  0
VERTEX
  8
0
 62
7
  6
CONTINUOUS
 10
58.2597593477
 20
223.6835576478
  0
VERTEX
  8
0
 62
7
  6
CONTINUOUS
 10
58.2566655025
 20
223.6859312426
  0
VERTEX
  8
0
 62
7
  6
CONTINUOUS
 10
58.2536103383
 20
223.6884446849
  0
VERTEX
  8
0
 62
7
  6
CONTINUOUS
 10
58.25054987
 20
223.6911258954
  0
VERTEX
  8
0
 62
7
  6
CONTINUOUS
 10
58.2474629367
 20
223.6939930939
  0
VERTEX
  8
0
 62
7
  6
CONTINUOUS
 10
58.2443753621
 20
223.6970212077
  0
VERTEX
  8
0
 62
7
  6
CONTINUOUS
 10
58.2412867756
 20
223.7002082263
  0
VERTEX
  8
0
 62
7
  6
CONTINUOUS
 10
58.2381917469
 20
223.7035596589
  0
VERTEX
  8
0
 62
7
  6
CONTINUOUS
 10
58.2350795886
 20
223.7070896673
  0
VERTEX
  8
0
 62
7
  6
CONTINUOUS
 10
58.2319376131
 20
223.710816756
  0
VERTEX
  8
0
 62
7
  6
CONTINUOUS
 10
58.2287699007
 20
223.7147407033
  0
VERTEX
  8
0
 62
7
  6
CONTINUOUS
 10
58.2255792158
 20
223.718863385
  0
VERTEX
  8
0
 62
7
  6
CONTINUOUS
 10
58.222365604
 20
223.7231910744
  0
VERTEX
  8
0
 62
7
  6
CONTINUOUS
 10
58.2191319385
 20
223.7277271001
  0
VERTEX
  8
0
 62
7
  6
CONTINUOUS
 10
58.2158930607
 20
223.732456044
  0
VERTEX
  8
0
 62
7
  6
CONTINUOUS
 10
58.2126636883
 20
223.7373594773
  0
VERTEX
  8
0
 62
7
  6
CONTINUOUS
 10
58.209456311
 20
223.7424199875
  0
VERTEX
  8
0
 62
7
  6
CONTINUOUS
 10
58.2062812295
 20
223.7476216176
  0
VERTEX
  8
0
 62
7
  6
CONTINUOUS
 10
58.2031466356
 20
223.7529501804
  0
VERTEX
  8
0
 62
7
  6
CONTINUOUS
 10
58.2000577573
 20
223.7583945792
  0
VERTEX
  8
0
 62
7
  6
CONTINUOUS
 10
58.1970155366
 20
223.7639501872
  0
VERTEX
  8
0
 62
7
  6
CONTINUOUS
 10
58.1940207343
 20
223.7696128202
  0
VERTEX
  8
0
 62
7
  6
CONTINUOUS
 10
58.1910739764
 20
223.7753786663
  0
VERTEX
  8
0
 62
7
  6
CONTINUOUS
 10
58.1881756552
 20
223.7812444838
  0
VERTEX
  8
0
 62
7
  6
CONTINUOUS
 10
58.1853257669
 20
223.7872077908
  0
VERTEX
  8
0
 62
7
  6
CONTINUOUS
 10
58.1825237945
 20
223.7932670342
  0
VERTEX
  8
0
 62
7
  6
CONTINUOUS
 10
58.1797690489
 20
223.7994212832
  0
VERTEX
  8
0
 62
7
  6
CONTINUOUS
 10
58.1770607162
 20
223.8056702037
  0
VERTEX
  8
0
 62
7
  6
CONTINUOUS
 10
58.1743978655
 20
223.8120140733
  0
VERTEX
  8
0
 62
7
  6
CONTINUOUS
 10
58.1717794189
 20
223.8184538675
  0
VERTEX
  8
0
 62
7
  6
CONTINUOUS
 10
58.1704864347
 20
223.8217103085
  0
VERTEX
  8
0
 62
7
  6
CONTINUOUS
 10
58.1679320491
 20
223.8282978475
  0
VERTEX
  8
0
 62
7
  6
CONTINUOUS
 10
58.1654185393
 20
223.8349875154
  0
VERTEX
  8
0
 62
7
  6
CONTINUOUS
 10
58.1629443807
 20
223.8417830295
  0
VERTEX
  8
0
 62
7
  6
CONTINUOUS
 10
58.1605080055
 20
223.8486888317
  0
VERTEX
  8
0
 62
7
  6
CONTINUOUS
 10
58.1581080406
 20
223.8557094467
  0
VERTEX
  8
0
 62
7
  6
CONTINUOUS
 10
58.1557374564
 20
223.862867423
  0
VERTEX
  8
0
 62
7
  6
CONTINUOUS
 10
58.1533819401
 20
223.8702113251
  0
VERTEX
  8
0
 62
7
  6
CONTINUOUS
 10
58.151028509
 20
223.8777916648
  0
VERTEX
  8
0
 62
7
  6
CONTINUOUS
 10
58.148665889
 20
223.8856596872
  0
VERTEX
  8
0
 62
7
  6
CONTINUOUS
 10
58.1462869585
 20
223.8938587656
  0
VERTEX
  8
0
 62
7
  6
CONTINUOUS
 10
58.1439030514
 20
223.9023710199
  0
VERTEX
  8
0
 62
7
  6
CONTINUOUS
 10
58.1415317918
 20
223.9111514232
  0
VERTEX
  8
0
 62
7
  6
CONTINUOUS
 10
58.1391889347
 20
223.9201544932
  0
VERTEX
  8
0
 62
7
  6
CONTINUOUS
 10
58.1368872484
 20
223.9293390197
  0
VERTEX
  8
0
 62
7
  6
CONTINUOUS
 10
58.1346313229
 20
223.9386914149
  0
VERTEX
  8
0
 62
7
  6
CONTINUOUS
 10
58.1324228591
 20
223.9482085688
  0
VERTEX
  8
0
 62
7
  6
CONTINUOUS
 10
58.1302633601
 20
223.9578874572
  0
VERTEX
  8
0
 62
7
  6
CONTINUOUS
 10
58.1281541304
 20
223.9677251287
  0
VERTEX
  8
0
 62
7
  6
CONTINUOUS
 10
58.1260962878
 20
223.9777187605
  0
VERTEX
  8
0
 62
7
  6
CONTINUOUS
 10
58.1240908179
 20
223.9878658556
  0
VERTEX
  8
0
 62
7
  6
CONTINUOUS
 10
58.1221385537
 20
223.9981641288
  0
VERTEX
  8
0
 62
7
  6
CONTINUOUS
 10
58.1202401598
 20
224.0086114476
  0
VERTEX
  8
0
 62
7
  6
CONTINUOUS
 10
58.1183961395
 20
224.0192058566
  0
VERTEX
  8
0
 62
7
  6
CONTINUOUS
 10
58.1166069004
 20
224.0299457213
  0
VERTEX
  8
0
 62
7
  6
CONTINUOUS
 10
58.1148727603
 20
224.0408297244
  0
VERTEX
  8
0
 62
7
  6
CONTINUOUS
 10
58.1131939049
 20
224.0518567618
  0
VERTEX
  8
0
 62
7
  6
CONTINUOUS
 10
58.1115706092
 20
224.0630244098
  0
VERTEX
  8
0
 62
7
  6
CONTINUOUS
 10
58.1100032022
 20
224.0743292394
  0
VERTEX
  8
0
 62
7
  6
CONTINUOUS
 10
58.1084918593
 20
224.0857686058
  0
VERTEX
  8
0
 62
7
  6
CONTINUOUS
 10
58.1070366279
 20
224.0973399505
  0
VERTEX
  8
0
 62
7
  6
CONTINUOUS
 10
58.1056374213
 20
224.1090407932
  0
VERTEX
  8
0
 62
7
  6
CONTINUOUS
 10
58.1042940397
 20
224.1208687594
  0
VERTEX
  8
0
 62
7
  6
CONTINUOUS
 10
58.1030062556
 20
224.1328216716
  0
VERTEX
  8
0
 62
7
  6
CONTINUOUS
 10
58.1017737576
 20
224.1448974825
  0
SEQEND
  0
POLYLINE
  8
0
 62
7
  6
CONTINUOUS
 66
1
 70
0
  0
VERTEX
  8
0
 62
7
  6
CONTINUOUS
 10
83.6820027065
 20
223.6734180046
  0
VERTEX
  8
0
 62
7
  6
CONTINUOUS
 10
83.6809905649
 20
223.6734478892
  0
VERTEX
  8
0
 62
7
  6
CONTINUOUS
 10
83.6782411881
 20
223.6738506145
  0
VERTEX
  8
0
 62
7
  6
CONTINUOUS
 10
83.6752625572
 20
223.6747351933
  0
VERTEX
  8
0
 62
7
  6
CONTINUOUS
 10
83.6721441614
 20
223.6760187392
  0
VERTEX
  8
0
 62
7
  6
CONTINUOUS
 10
83.6691079548
 20
223.6775408228
  0
VERTEX
  8
0
 62
7
  6
CONTINUOUS
 10
83.6660482416
 20
223.6793049007
  0
VERTEX
  8
0
 62
7
  6
CONTINUOUS
 10
83.6628979241
 20
223.6813356603
  0
VERTEX
  8
0
 62
7
  6
CONTINUOUS
 10
83.6597593477
 20
223.6835576478
  0
VERTEX
  8
0
 62
7
  6
CONTINUOUS
 10
83.6566655025
 20
223.6859312426
  0
VERTEX
  8
0
 62
7
  6
CONTINUOUS
 10
83.6536103383
 20
223.6884446849
  0
VERTEX
  8
0
 62
7
  6
CONTINUOUS
 10
83.65054987
 20
223.6911258954
  0
VERTEX
  8
0
 62
7
  6
CONTINUOUS
 10
83.6474629367
 20
223.6939930939
  0
VERTEX
  8
0
 62
7
  6
CONTINUOUS
 10
83.6443753621
 20
223.6970212077
  0
VERTEX
  8
0
 62
7
  6
CONTINUOUS
 10
83.6412867756
 20
223.7002082263
  0
VERTEX
  8
0
 62
7
  6
CONTINUOUS
 10
83.6381917469
 20
223.7035596589
  0
VERTEX
  8
0
 62
7
  6
CONTINUOUS
 10
83.6350795886
 20
223.7070896673
  0
VERTEX
  8
0
 62
7
  6
CONTINUOUS
 10
83.6319376131
 20
223.710816756
  0
VERTEX
  8
0
 62
7
  6
CONTINUOUS
 10
83.6287699007
 20
223.7147407033
  0
VERTEX
  8
0
 62
7
  6
CONTINUOUS
 10
83.6255792158
 20
223.718863385
  0
VERTEX
  8
0
 62
7
  6
CONTINUOUS
 10
83.622365604
 20
223.7231910744
  0
VERTEX
  8
0
 62
7
  6
CONTINUOUS
 10
83.6191319385
 20
223.7277271001
  0
VERTEX
  8
0
 62
7
  6
CONTINUOUS
 10
83.6158930607
 20
223.732456044
  0
VERTEX
  8
0
 62
7
  6
CONTINUOUS
 10
83.6126636883
 20
223.7373594773
  0
VERTEX
  8
0
 62
7
  6
CONTINUOUS
 10
83.609456311
 20
223.7424199875
  0
VERTEX
  8
0
 62
7
  6
CONTINUOUS
 10
83.6062812295
 20
223.7476216176
  0
VERTEX
  8
0
 62
7
  6
CONTINUOUS
 10
83.6031466356
 20
223.7529501804
  0
VERTEX
  8
0
 62
7
  6
CONTINUOUS
 10
83.6000577573
 20
223.7583945792
  0
VERTEX
  8
0
 62
7
  6
CONTINUOUS
 10
83.5970155366
 20
223.7639501872
  0
VERTEX
  8
0
 62
7
  6
CONTINUOUS
 10
83.5940207343
 20
223.7696128202
  0
VERTEX
  8
0
 62
7
  6
CONTINUOUS
 10
83.5910739764
 20
223.7753786663
  0
VERTEX
  8
0
 62
7
  6
CONTINUOUS
 10
83.5881756552
 20
223.7812444838
  0
VERTEX
  8
0
 62
7
  6
CONTINUOUS
 10
83.5853257669
 20
223.7872077908
  0
VERTEX
  8
0
 62
7
  6
CONTINUOUS
 10
83.5825237945
 20
223.7932670342
  0
VERTEX
  8
0
 62
7
  6
CONTINUOUS
 10
83.5797690489
 20
223.7994212832
  0
VERTEX
  8
0
 62
7
  6
CONTINUOUS
 10
83.5770607162
 20
223.8056702037
  0
VERTEX
  8
0
 62
7
  6
CONTINUOUS
 10
83.5743978655
 20
223.8120140733
  0
VERTEX
  8
0
 62
7
  6
CONTINUOUS
 10
83.5717794189
 20
223.8184538675
  0
VERTEX
  8
0
 62
7
  6
CONTINUOUS
 10
83.5704864347
 20
223.8217103085
  0
VERTEX
  8
0
 62
7
  6
CONTINUOUS
 10
83.5679320491
 20
223.8282978475
  0
VERTEX
  8
0
 62
7
  6
CONTINUOUS
 10
83.5654185393
 20
223.8349875154
  0
VERTEX
  8
0
 62
7
  6
CONTINUOUS
 10
83.5629443807
 20
223.8417830295
  0
VERTEX
  8
0
 62
7
  6
CONTINUOUS
 10
83.5605080055
 20
223.8486888317
  0
VERTEX
  8
0
 62
7
  6
CONTINUOUS
 10
83.5581080406
 20
223.8557094467
  0
VERTEX
  8
0
 62
7
  6
CONTINUOUS
 10
83.5557374564
 20
223.862867423
  0
VERTEX
  8
0
 62
7
  6
CONTINUOUS
 10
83.5533819401
 20
223.8702113251
  0
VERTEX
  8
0
 62
7
  6
CONTINUOUS
 10
83.551028509
 20
223.8777916648
  0
VERTEX
  8
0
 62
7
  6
CONTINUOUS
 10
83.548665889
 20
223.8856596872
  0
VERTEX
  8
0
 62
7
  6
CONTINUOUS
 10
83.5462869585
 20
223.8938587656
  0
VERTEX
  8
0
 62
7
  6
CONTINUOUS
 10
83.5439030514
 20
223.9023710199
  0
VERTEX
  8
0
 62
7
  6
CONTINUOUS
 10
83.5415317918
 20
223.9111514232
  0
VERTEX
  8
0
 62
7
  6
CONTINUOUS
 10
83.5391889347
 20
223.9201544932
  0
VERTEX
  8
0
 62
7
  6
CONTINUOUS
 10
83.5368872484
 20
223.9293390197
  0
VERTEX
  8
0
 62
7
  6
CONTINUOUS
 10
83.5346313229
 20
223.9386914149
  0
VERTEX
  8
0
 62
7
  6
CONTINUOUS
 10
83.5324228591
 20
223.9482085688
  0
VERTEX
  8
0
 62
7
  6
CONTINUOUS
 10
83.5302633601
 20
223.9578874572
  0
VERTEX
  8
0
 62
7
  6
CONTINUOUS
 10
83.5281541304
 20
223.9677251287
  0
VERTEX
  8
0
 62
7
  6
CONTINUOUS
 10
83.5260962878
 20
223.9777187605
  0
VERTEX
  8
0
 62
7
  6
CONTINUOUS
 10
83.5240908179
 20
223.9878658556
  0
VERTEX
  8
0
 62
7
  6
CONTINUOUS
 10
83.5221385537
 20
223.9981641288
  0
VERTEX
  8
0
 62
7
  6
CONTINUOUS
 10
83.5202401598
 20
224.0086114476
  0
VERTEX
  8
0
 62
7
  6
CONTINUOUS
 10
83.5183961395
 20
224.0192058566
  0
VERTEX
  8
0
 62
7
  6
CONTINUOUS
 10
83.5166069004
 20
224.0299457213
  0
VERTEX
  8
0
 62
7
  6
CONTINUOUS
 10
83.5148727603
 20
224.0408297244
  0
VERTEX
  8
0
 62
7
  6
CONTINUOUS
 10
83.5131939049
 20
224.0518567618
  0
VERTEX
  8
0
 62
7
  6
CONTINUOUS
 10
83.5115706092
 20
224.0630244098
  0
VERTEX
  8
0
 62
7
  6
CONTINUOUS
 10
83.5100032022
 20
224.0743292394
  0
VERTEX
  8
0
 62
7
  6
CONTINUOUS
 10
83.5084918593
 20
224.0857686058
  0
VERTEX
  8
0
 62
7
  6
CONTINUOUS
 10
83.5070366279
 20
224.0973399505
  0
VERTEX
  8
0
 62
7
  6
CONTINUOUS
 10
83.5056374213
 20
224.1090407932
  0
VERTEX
  8
0
 62
7
  6
CONTINUOUS
 10
83.5042940397
 20
224.1208687594
  0
VERTEX
  8
0
 62
7
  6
CONTINUOUS
 10
83.5030062556
 20
224.1328216716
  0
VERTEX
  8
0
 62
7
  6
CONTINUOUS
 10
83.5017737576
 20
224.1448974825
  0
SEQEND
  0
POLYLINE
  8
0
 62
7
  6
CONTINUOUS
 66
1
 70
0
  0
VERTEX
  8
0
 62
7
  6
CONTINUOUS
 10
109.0820027065
 20
223.6734180046
  0
VERTEX
  8
0
 62
7
  6
CONTINUOUS
 10
109.0809905649
 20
223.6734478892
  0
VERTEX
  8
0
 62
7
  6
CONTINUOUS
 10
109.0782411881
 20
223.6738506145
  0
VERTEX
  8
0
 62
7
  6
CONTINUOUS
 10
109.0752625572
 20
223.6747351933
  0
VERTEX
  8
0
 62
7
  6
CONTINUOUS
 10
109.0721441614
 20
223.6760187392
  0
VERTEX
  8
0
 62
7
  6
CONTINUOUS
 10
109.0691079548
 20
223.6775408228
  0
VERTEX
  8
0
 62
7
  6
CONTINUOUS
 10
109.0660482416
 20
223.6793049007
  0
VERTEX
  8
0
 62
7
  6
CONTINUOUS
 10
109.0628979241
 20
223.6813356603
  0
VERTEX
  8
0
 62
7
  6
CONTINUOUS
 10
109.0597593477
 20
223.6835576478
  0
VERTEX
  8
0
 62
7
  6
CONTINUOUS
 10
109.0566655025
 20
223.6859312426
  0
VERTEX
  8
0
 62
7
  6
CONTINUOUS
 10
109.0536103383
 20
223.6884446849
  0
VERTEX
  8
0
 62
7
  6
CONTINUOUS
 10
109.05054987
 20
223.6911258954
  0
VERTEX
  8
0
 62
7
  6
CONTINUOUS
 10
109.0474629367
 20
223.6939930939
  0
VERTEX
  8
0
 62
7
  6
CONTINUOUS
 10
109.0443753621
 20
223.6970212077
  0
VERTEX
  8
0
 62
7
  6
CONTINUOUS
 10
109.0412867756
 20
223.7002082263
  0
VERTEX
  8
0
 62
7
  6
CONTINUOUS
 10
109.0381917469
 20
223.7035596589
  0
VERTEX
  8
0
 62
7
  6
CONTINUOUS
 10
109.0350795886
 20
223.7070896673
  0
VERTEX
  8
0
 62
7
  6
CONTINUOUS
 10
109.0319376131
 20
223.710816756
  0
VERTEX
  8
0
 62
7
  6
CONTINUOUS
 10
109.0287699007
 20
223.7147407033
  0
VERTEX
  8
0
 62
7
  6
CONTINUOUS
 10
109.0255792158
 20
223.718863385
  0
VERTEX
  8
0
 62
7
  6
CONTINUOUS
 10
109.022365604
 20
223.7231910744
  0
VERTEX
  8
0
 62
7
  6
CONTINUOUS
 10
109.0191319385
 20
223.7277271001
  0
VERTEX
  8
0
 62
7
  6
CONTINUOUS
 10
109.0158930607
 20
223.732456044
  0
VERTEX
  8
0
 62
7
  6
CONTINUOUS
 10
109.0126636883
 20
223.7373594773
  0
VERTEX
  8
0
 62
7
  6
CONTINUOUS
 10
109.009456311
 20
223.7424199875
  0
VERTEX
  8
0
 62
7
  6
CONTINUOUS
 10
109.0062812295
 20
223.7476216176
  0
VERTEX
  8
0
 62
7
  6
CONTINUOUS
 10
109.0031466356
 20
223.7529501804
  0
VERTEX
  8
0
 62
7
  6
CONTINUOUS
 10
109.0000577573
 20
223.7583945792
  0
VERTEX
  8
0
 62
7
  6
CONTINUOUS
 10
108.9970155366
 20
223.7639501872
  0
VERTEX
  8
0
 62
7
  6
CONTINUOUS
 10
108.9940207343
 20
223.7696128202
  0
VERTEX
  8
0
 62
7
  6
CONTINUOUS
 10
108.9910739764
 20
223.7753786663
  0
VERTEX
  8
0
 62
7
  6
CONTINUOUS
 10
108.9881756552
 20
223.7812444838
  0
VERTEX
  8
0
 62
7
  6
CONTINUOUS
 10
108.9853257669
 20
223.7872077908
  0
VERTEX
  8
0
 62
7
  6
CONTINUOUS
 10
108.9825237945
 20
223.7932670342
  0
VERTEX
  8
0
 62
7
  6
CONTINUOUS
 10
108.9797690489
 20
223.7994212832
  0
VERTEX
  8
0
 62
7
  6
CONTINUOUS
 10
108.9770607162
 20
223.8056702037
  0
VERTEX
  8
0
 62
7
  6
CONTINUOUS
 10
108.9743978655
 20
223.8120140733
  0
VERTEX
  8
0
 62
7
  6
CONTINUOUS
 10
108.9717794189
 20
223.8184538675
  0
VERTEX
  8
0
 62
7
  6
CONTINUOUS
 10
108.9704864347
 20
223.8217103085
  0
VERTEX
  8
0
 62
7
  6
CONTINUOUS
 10
108.9679320491
 20
223.8282978475
  0
VERTEX
  8
0
 62
7
  6
CONTINUOUS
 10
108.9654185393
 20
223.8349875154
  0
VERTEX
  8
0
 62
7
  6
CONTINUOUS
 10
108.9629443807
 20
223.8417830295
  0
VERTEX
  8
0
 62
7
  6
CONTINUOUS
 10
108.9605080055
 20
223.8486888317
  0
VERTEX
  8
0
 62
7
  6
CONTINUOUS
 10
108.9581080406
 20
223.8557094467
  0
VERTEX
  8
0
 62
7
  6
CONTINUOUS
 10
108.9557374564
 20
223.862867423
  0
VERTEX
  8
0
 62
7
  6
CONTINUOUS
 10
108.9533819401
 20
223.8702113251
  0
VERTEX
  8
0
 62
7
  6
CONTINUOUS
 10
108.951028509
 20
223.8777916648
  0
VERTEX
  8
0
 62
7
  6
CONTINUOUS
 10
108.948665889
 20
223.8856596872
  0
VERTEX
  8
0
 62
7
  6
CONTINUOUS
 10
108.9462869585
 20
223.8938587656
  0
VERTEX
  8
0
 62
7
  6
CONTINUOUS
 10
108.9439030514
 20
223.9023710199
  0
VERTEX
  8
0
 62
7
  6
CONTINUOUS
 10
108.9415317918
 20
223.9111514232
  0
VERTEX
  8
0
 62
7
  6
CONTINUOUS
 10
108.9391889347
 20
223.9201544932
  0
VERTEX
  8
0
 62
7
  6
CONTINUOUS
 10
108.9368872484
 20
223.9293390197
  0
VERTEX
  8
0
 62
7
  6
CONTINUOUS
 10
108.9346313229
 20
223.9386914149
  0
VERTEX
  8
0
 62
7
  6
CONTINUOUS
 10
108.9324228591
 20
223.9482085688
  0
VERTEX
  8
0
 62
7
  6
CONTINUOUS
 10
108.9302633601
 20
223.9578874572
  0
VERTEX
  8
0
 62
7
  6
CONTINUOUS
 10
108.9281541304
 20
223.9677251287
  0
VERTEX
  8
0
 62
7
  6
CONTINUOUS
 10
108.9260962878
 20
223.9777187605
  0
VERTEX
  8
0
 62
7
  6
CONTINUOUS
 10
108.9240908179
 20
223.9878658556
  0
VERTEX
  8
0
 62
7
  6
CONTINUOUS
 10
108.9221385537
 20
223.9981641288
  0
VERTEX
  8
0
 62
7
  6
CONTINUOUS
 10
108.9202401598
 20
224.0086114476
  0
VERTEX
  8
0
 62
7
  6
CONTINUOUS
 10
108.9183961395
 20
224.0192058566
  0
VERTEX
  8
0
 62
7
  6
CONTINUOUS
 10
108.9166069004
 20
224.0299457213
  0
VERTEX
  8
0
 62
7
  6
CONTINUOUS
 10
108.9148727603
 20
224.0408297244
  0
VERTEX
  8
0
 62
7
  6
CONTINUOUS
 10
108.9131939049
 20
224.0518567618
  0
VERTEX
  8
0
 62
7
  6
CONTINUOUS
 10
108.9115706092
 20
224.0630244098
  0
VERTEX
  8
0
 62
7
  6
CONTINUOUS
 10
108.9100032022
 20
224.0743292394
  0
VERTEX
  8
0
 62
7
  6
CONTINUOUS
 10
108.9084918593
 20
224.0857686058
  0
VERTEX
  8
0
 62
7
  6
CONTINUOUS
 10
108.9070366279
 20
224.0973399505
  0
VERTEX
  8
0
 62
7
  6
CONTINUOUS
 10
108.9056374213
 20
224.1090407932
  0
VERTEX
  8
0
 62
7
  6
CONTINUOUS
 10
108.9042940397
 20
224.1208687594
  0
VERTEX
  8
0
 62
7
  6
CONTINUOUS
 10
108.9030062556
 20
224.1328216716
  0
VERTEX
  8
0
 62
7
  6
CONTINUOUS
 10
108.9017737576
 20
224.1448974825
  0
SEQEND
  0
POLYLINE
  8
0
 62
7
  6
CONTINUOUS
 66
1
 70
0
  0
VERTEX
  8
0
 62
7
  6
CONTINUOUS
 10
134.4820027065
 20
223.6734180046
  0
VERTEX
  8
0
 62
7
  6
CONTINUOUS
 10
134.4809905649
 20
223.6734478892
  0
VERTEX
  8
0
 62
7
  6
CONTINUOUS
 10
134.4782411881
 20
223.6738506145
  0
VERTEX
  8
0
 62
7
  6
CONTINUOUS
 10
134.4752625572
 20
223.6747351933
  0
VERTEX
  8
0
 62
7
  6
CONTINUOUS
 10
134.4721441614
 20
223.6760187392
  0
VERTEX
  8
0
 62
7
  6
CONTINUOUS
 10
134.4691079548
 20
223.6775408228
  0
VERTEX
  8
0
 62
7
  6
CONTINUOUS
 10
134.4660482416
 20
223.6793049007
  0
VERTEX
  8
0
 62
7
  6
CONTINUOUS
 10
134.4628979241
 20
223.6813356603
  0
VERTEX
  8
0
 62
7
  6
CONTINUOUS
 10
134.4597593477
 20
223.6835576478
  0
VERTEX
  8
0
 62
7
  6
CONTINUOUS
 10
134.4566655025
 20
223.6859312426
  0
VERTEX
  8
0
 62
7
  6
CONTINUOUS
 10
134.4536103383
 20
223.6884446849
  0
VERTEX
  8
0
 62
7
  6
CONTINUOUS
 10
134.45054987
 20
223.6911258954
  0
VERTEX
  8
0
 62
7
  6
CONTINUOUS
 10
134.4474629367
 20
223.6939930939
  0
VERTEX
  8
0
 62
7
  6
CONTINUOUS
 10
134.4443753621
 20
223.6970212077
  0
VERTEX
  8
0
 62
7
  6
CONTINUOUS
 10
134.4412867756
 20
223.7002082263
  0
VERTEX
  8
0
 62
7
  6
CONTINUOUS
 10
134.4381917469
 20
223.7035596589
  0
VERTEX
  8
0
 62
7
  6
CONTINUOUS
 10
134.4350795886
 20
223.7070896673
  0
VERTEX
  8
0
 62
7
  6
CONTINUOUS
 10
134.4319376131
 20
223.710816756
  0
VERTEX
  8
0
 62
7
  6
CONTINUOUS
 10
134.4287699007
 20
223.7147407033
  0
VERTEX
  8
0
 62
7
  6
CONTINUOUS
 10
134.4255792158
 20
223.718863385
  0
VERTEX
  8
0
 62
7
  6
CONTINUOUS
 10
134.422365604
 20
223.7231910744
  0
VERTEX
  8
0
 62
7
  6
CONTINUOUS
 10
134.4191319385
 20
223.7277271001
  0
VERTEX
  8
0
 62
7
  6
CONTINUOUS
 10
134.4158930607
 20
223.732456044
  0
VERTEX
  8
0
 62
7
  6
CONTINUOUS
 10
134.4126636883
 20
223.7373594773
  0
VERTEX
  8
0
 62
7
  6
CONTINUOUS
 10
134.409456311
 20
223.7424199875
  0
VERTEX
  8
0
 62
7
  6
CONTINUOUS
 10
134.4062812295
 20
223.7476216176
  0
VERTEX
  8
0
 62
7
  6
CONTINUOUS
 10
134.4031466356
 20
223.7529501804
  0
VERTEX
  8
0
 62
7
  6
CONTINUOUS
 10
134.4000577573
 20
223.7583945792
  0
VERTEX
  8
0
 62
7
  6
CONTINUOUS
 10
134.3970155366
 20
223.7639501872
  0
VERTEX
  8
0
 62
7
  6
CONTINUOUS
 10
134.3940207343
 20
223.7696128202
  0
VERTEX
  8
0
 62
7
  6
CONTINUOUS
 10
134.3910739764
 20
223.7753786663
  0
VERTEX
  8
0
 62
7
  6
CONTINUOUS
 10
134.3881756552
 20
223.7812444838
  0
VERTEX
  8
0
 62
7
  6
CONTINUOUS
 10
134.3853257669
 20
223.7872077908
  0
VERTEX
  8
0
 62
7
  6
CONTINUOUS
 10
134.3825237945
 20
223.7932670342
  0
VERTEX
  8
0
 62
7
  6
CONTINUOUS
 10
134.3797690489
 20
223.7994212832
  0
VERTEX
  8
0
 62
7
  6
CONTINUOUS
 10
134.3770607162
 20
223.8056702037
  0
VERTEX
  8
0
 62
7
  6
CONTINUOUS
 10
134.3743978655
 20
223.8120140733
  0
VERTEX
  8
0
 62
7
  6
CONTINUOUS
 10
134.3717794189
 20
223.8184538675
  0
VERTEX
  8
0
 62
7
  6
CONTINUOUS
 10
134.3704864347
 20
223.8217103085
  0
VERTEX
  8
0
 62
7
  6
CONTINUOUS
 10
134.3679320491
 20
223.8282978475
  0
VERTEX
  8
0
 62
7
  6
CONTINUOUS
 10
134.3654185393
 20
223.8349875154
  0
VERTEX
  8
0
 62
7
  6
CONTINUOUS
 10
134.3629443807
 20
223.8417830295
  0
VERTEX
  8
0
 62
7
  6
CONTINUOUS
 10
134.3605080055
 20
223.8486888317
  0
VERTEX
  8
0
 62
7
  6
CONTINUOUS
 10
134.3581080406
 20
223.8557094467
  0
VERTEX
  8
0
 62
7
  6
CONTINUOUS
 10
134.3557374564
 20
223.862867423
  0
VERTEX
  8
0
 62
7
  6
CONTINUOUS
 10
134.3533819401
 20
223.8702113251
  0
VERTEX
  8
0
 62
7
  6
CONTINUOUS
 10
134.351028509
 20
223.8777916648
  0
VERTEX
  8
0
 62
7
  6
CONTINUOUS
 10
134.348665889
 20
223.8856596872
  0
VERTEX
  8
0
 62
7
  6
CONTINUOUS
 10
134.3462869585
 20
223.8938587656
  0
VERTEX
  8
0
 62
7
  6
CONTINUOUS
 10
134.3439030514
 20
223.9023710199
  0
VERTEX
  8
0
 62
7
  6
CONTINUOUS
 10
134.3415317918
 20
223.9111514232
  0
VERTEX
  8
0
 62
7
  6
CONTINUOUS
 10
134.3391889347
 20
223.9201544932
  0
VERTEX
  8
0
 62
7
  6
CONTINUOUS
 10
134.3368872484
 20
223.9293390197
  0
VERTEX
  8
0
 62
7
  6
CONTINUOUS
 10
134.3346313229
 20
223.9386914149
  0
VERTEX
  8
0
 62
7
  6
CONTINUOUS
 10
134.3324228591
 20
223.9482085688
  0
VERTEX
  8
0
 62
7
  6
CONTINUOUS
 10
134.3302633601
 20
223.9578874572
  0
VERTEX
  8
0
 62
7
  6
CONTINUOUS
 10
134.3281541304
 20
223.9677251287
  0
VERTEX
  8
0
 62
7
  6
CONTINUOUS
 10
134.3260962878
 20
223.9777187605
  0
VERTEX
  8
0
 62
7
  6
CONTINUOUS
 10
134.3240908179
 20
223.9878658556
  0
VERTEX
  8
0
 62
7
  6
CONTINUOUS
 10
134.3221385537
 20
223.9981641288
  0
VERTEX
  8
0
 62
7
  6
CONTINUOUS
 10
134.3202401598
 20
224.0086114476
  0
VERTEX
  8
0
 62
7
  6
CONTINUOUS
 10
134.3183961395
 20
224.0192058566
  0
VERTEX
  8
0
 62
7
  6
CONTINUOUS
 10
134.3166069004
 20
224.0299457213
  0
VERTEX
  8
0
 62
7
  6
CONTINUOUS
 10
134.3148727603
 20
224.0408297244
  0
VERTEX
  8
0
 62
7
  6
CONTINUOUS
 10
134.3131939049
 20
224.0518567618
  0
VERTEX
  8
0
 62
7
  6
CONTINUOUS
 10
134.3115706092
 20
224.0630244098
  0
VERTEX
  8
0
 62
7
  6
CONTINUOUS
 10
134.3100032022
 20
224.0743292394
  0
VERTEX
  8
0
 62
7
  6
CONTINUOUS
 10
134.3084918593
 20
224.0857686058
  0
VERTEX
  8
0
 62
7
  6
CONTINUOUS
 10
134.3070366279
 20
224.0973399505
  0
VERTEX
  8
0
 62
7
  6
CONTINUOUS
 10
134.3056374213
 20
224.1090407932
  0
VERTEX
  8
0
 62
7
  6
CONTINUOUS
 10
134.3042940397
 20
224.1208687594
  0
VERTEX
  8
0
 62
7
  6
CONTINUOUS
 10
134.3030062556
 20
224.1328216716
  0
VERTEX
  8
0
 62
7
  6
CONTINUOUS
 10
134.3017737576
 20
224.1448974825
  0
SEQEND
  0
POLYLINE
  8
0
 62
7
  6
CONTINUOUS
 66
1
 70
0
  0
VERTEX
  8
0
 62
7
  6
CONTINUOUS
 10
159.882002706
 20
223.6734180046
  0
VERTEX
  8
0
 62
7
  6
CONTINUOUS
 10
159.8809905642
 20
223.6734478893
  0
VERTEX
  8
0
 62
7
  6
CONTINUOUS
 10
159.8782411874
 20
223.6738506146
  0
VERTEX
  8
0
 62
7
  6
CONTINUOUS
 10
159.8752625565
 20
223.6747351935
  0
VERTEX
  8
0
 62
7
  6
CONTINUOUS
 10
159.8721441608
 20
223.6760187395
  0
VERTEX
  8
0
 62
7
  6
CONTINUOUS
 10
159.8691079542
 20
223.6775408231
  0
VERTEX
  8
0
 62
7
  6
CONTINUOUS
 10
159.8660482411
 20
223.679304901
  0
VERTEX
  8
0
 62
7
  6
CONTINUOUS
 10
159.8628979237
 20
223.6813356606
  0
VERTEX
  8
0
 62
7
  6
CONTINUOUS
 10
159.8597593473
 20
223.6835576482
  0
VERTEX
  8
0
 62
7
  6
CONTINUOUS
 10
159.8566655021
 20
223.6859312429
  0
VERTEX
  8
0
 62
7
  6
CONTINUOUS
 10
159.8536103379
 20
223.6884446852
  0
VERTEX
  8
0
 62
7
  6
CONTINUOUS
 10
159.8505498697
 20
223.6911258957
  0
VERTEX
  8
0
 62
7
  6
CONTINUOUS
 10
159.8474629364
 20
223.6939930942
  0
VERTEX
  8
0
 62
7
  6
CONTINUOUS
 10
159.8443753619
 20
223.6970212079
  0
VERTEX
  8
0
 62
7
  6
CONTINUOUS
 10
159.8412867753
 20
223.7002082265
  0
VERTEX
  8
0
 62
7
  6
CONTINUOUS
 10
159.8381917467
 20
223.7035596591
  0
VERTEX
  8
0
 62
7
  6
CONTINUOUS
 10
159.8350795884
 20
223.7070896675
  0
VERTEX
  8
0
 62
7
  6
CONTINUOUS
 10
159.831937613
 20
223.7108167562
  0
VERTEX
  8
0
 62
7
  6
CONTINUOUS
 10
159.8287699006
 20
223.7147407035
  0
VERTEX
  8
0
 62
7
  6
CONTINUOUS
 10
159.8255792157
 20
223.7188633851
  0
VERTEX
  8
0
 62
7
  6
CONTINUOUS
 10
159.822365604
 20
223.7231910744
  0
VERTEX
  8
0
 62
7
  6
CONTINUOUS
 10
159.8191319385
 20
223.7277271001
  0
VERTEX
  8
0
 62
7
  6
CONTINUOUS
 10
159.8158930607
 20
223.7324560439
  0
VERTEX
  8
0
 62
7
  6
CONTINUOUS
 10
159.8126636883
 20
223.7373594772
  0
VERTEX
  8
0
 62
7
  6
CONTINUOUS
 10
159.8094563112
 20
223.7424199873
  0
VERTEX
  8
0
 62
7
  6
CONTINUOUS
 10
159.8062812296
 20
223.7476216173
  0
VERTEX
  8
0
 62
7
  6
CONTINUOUS
 10
159.8031466358
 20
223.7529501801
  0
VERTEX
  8
0
 62
7
  6
CONTINUOUS
 10
159.8000577575
 20
223.7583945788
  0
VERTEX
  8
0
 62
7
  6
CONTINUOUS
 10
159.7970155368
 20
223.7639501869
  0
VERTEX
  8
0
 62
7
  6
CONTINUOUS
 10
159.7940207345
 20
223.7696128198
  0
VERTEX
  8
0
 62
7
  6
CONTINUOUS
 10
159.7910739766
 20
223.7753786659
  0
VERTEX
  8
0
 62
7
  6
CONTINUOUS
 10
159.7881756554
 20
223.7812444834
  0
VERTEX
  8
0
 62
7
  6
CONTINUOUS
 10
159.7853257671
 20
223.7872077904
  0
VERTEX
  8
0
 62
7
  6
CONTINUOUS
 10
159.7825237947
 20
223.7932670337
  0
VERTEX
  8
0
 62
7
  6
CONTINUOUS
 10
159.7797690491
 20
223.7994212827
  0
VERTEX
  8
0
 62
7
  6
CONTINUOUS
 10
159.7770607164
 20
223.8056702032
  0
VERTEX
  8
0
 62
7
  6
CONTINUOUS
 10
159.7743978657
 20
223.8120140728
  0
VERTEX
  8
0
 62
7
  6
CONTINUOUS
 10
159.7717794191
 20
223.818453867
  0
VERTEX
  8
0
 62
7
  6
CONTINUOUS
 10
159.7704864349
 20
223.821710308
  0
VERTEX
  8
0
 62
7
  6
CONTINUOUS
 10
159.7679320493
 20
223.828297847
  0
VERTEX
  8
0
 62
7
  6
CONTINUOUS
 10
159.7654185395
 20
223.834987515
  0
VERTEX
  8
0
 62
7
  6
CONTINUOUS
 10
159.7629443809
 20
223.8417830291
  0
VERTEX
  8
0
 62
7
  6
CONTINUOUS
 10
159.7605080056
 20
223.8486888313
  0
VERTEX
  8
0
 62
7
  6
CONTINUOUS
 10
159.7581080407
 20
223.8557094464
  0
VERTEX
  8
0
 62
7
  6
CONTINUOUS
 10
159.7557374565
 20
223.8628674227
  0
VERTEX
  8
0
 62
7
  6
CONTINUOUS
 10
159.7533819402
 20
223.8702113248
  0
VERTEX
  8
0
 62
7
  6
CONTINUOUS
 10
159.7510285091
 20
223.8777916645
  0
VERTEX
  8
0
 62
7
  6
CONTINUOUS
 10
159.7486658891
 20
223.885659687
  0
VERTEX
  8
0
 62
7
  6
CONTINUOUS
 10
159.7462869586
 20
223.8938587654
  0
VERTEX
  8
0
 62
7
  6
CONTINUOUS
 10
159.7439030515
 20
223.9023710196
  0
VERTEX
  8
0
 62
7
  6
CONTINUOUS
 10
159.7415317919
 20
223.911151423
  0
VERTEX
  8
0
 62
7
  6
CONTINUOUS
 10
159.7391889348
 20
223.9201544929
  0
VERTEX
  8
0
 62
7
  6
CONTINUOUS
 10
159.7368872484
 20
223.9293390195
  0
VERTEX
  8
0
 62
7
  6
CONTINUOUS
 10
159.734631323
 20
223.9386914146
  0
VERTEX
  8
0
 62
7
  6
CONTINUOUS
 10
159.7324228592
 20
223.9482085685
  0
VERTEX
  8
0
 62
7
  6
CONTINUOUS
 10
159.7302633601
 20
223.9578874569
  0
VERTEX
  8
0
 62
7
  6
CONTINUOUS
 10
159.7281541305
 20
223.9677251284
  0
VERTEX
  8
0
 62
7
  6
CONTINUOUS
 10
159.7260962878
 20
223.9777187602
  0
VERTEX
  8
0
 62
7
  6
CONTINUOUS
 10
159.724090818
 20
223.9878658553
  0
VERTEX
  8
0
 62
7
  6
CONTINUOUS
 10
159.7221385538
 20
223.9981641285
  0
VERTEX
  8
0
 62
7
  6
CONTINUOUS
 10
159.7202401598
 20
224.0086114473
  0
VERTEX
  8
0
 62
7
  6
CONTINUOUS
 10
159.7183961396
 20
224.0192058563
  0
VERTEX
  8
0
 62
7
  6
CONTINUOUS
 10
159.7166069004
 20
224.029945721
  0
VERTEX
  8
0
 62
7
  6
CONTINUOUS
 10
159.7148727603
 20
224.0408297241
  0
VERTEX
  8
0
 62
7
  6
CONTINUOUS
 10
159.713193905
 20
224.0518567615
  0
VERTEX
  8
0
 62
7
  6
CONTINUOUS
 10
159.7115706092
 20
224.0630244095
  0
VERTEX
  8
0
 62
7
  6
CONTINUOUS
 10
159.7100032022
 20
224.0743292392
  0
VERTEX
  8
0
 62
7
  6
CONTINUOUS
 10
159.7084918593
 20
224.0857686056
  0
VERTEX
  8
0
 62
7
  6
CONTINUOUS
 10
159.7070366279
 20
224.0973399503
  0
VERTEX
  8
0
 62
7
  6
CONTINUOUS
 10
159.7056374213
 20
224.109040793
  0
VERTEX
  8
0
 62
7
  6
CONTINUOUS
 10
159.7042940397
 20
224.1208687592
  0
VERTEX
  8
0
 62
7
  6
CONTINUOUS
 10
159.7030062556
 20
224.1328216714
  0
VERTEX
  8
0
 62
7
  6
CONTINUOUS
 10
159.7017737576
 20
224.1448974823
  0
SEQEND
  0
POLYLINE
  8
0
 62
7
  6
CONTINUOUS
 66
1
 70
0
  0
VERTEX
  8
0
 62
7
  6
CONTINUOUS
 10
96.9381014074
 20
228.3554687213
  0
VERTEX
  8
0
 62
7
  6
CONTINUOUS
 10
96.8518200059
 20
228.3429937672
  0
VERTEX
  8
0
 62
7
  6
CONTINUOUS
 10
96.7598575328
 20
228.2990335487
  0
VERTEX
  8
0
 62
7
  6
CONTINUOUS
 10
96.6883401797
 20
228.2347855208
  0
VERTEX
  8
0
 62
7
  6
CONTINUOUS
 10
96.6350071042
 20
228.16045689
  0
VERTEX
  8
0
 62
7
  6
CONTINUOUS
 10
96.5918539976
 20
228.0758988696
  0
VERTEX
  8
0
 62
7
  6
CONTINUOUS
 10
96.553804023
 20
227.9771415472
  0
VERTEX
  8
0
 62
7
  6
CONTINUOUS
 10
96.5181349753
 20
227.8589220631
  0
VERTEX
  8
0
 62
7
  6
CONTINUOUS
 10
96.4837212001
 20
227.716265251
  0
VERTEX
  8
0
 62
7
  6
CONTINUOUS
 10
96.4503666262
 20
227.5450469675
  0
VERTEX
  8
0
 62
7
  6
CONTINUOUS
 10
96.4184045879
 20
227.3421740765
  0
VERTEX
  8
0
 62
7
  6
CONTINUOUS
 10
96.3883839162
 20
227.1048146552
  0
VERTEX
  8
0
 62
7
  6
CONTINUOUS
 10
96.3608424984
 20
226.8280359003
  0
VERTEX
  8
0
 62
7
  6
CONTINUOUS
 10
96.3367426363
 20
226.5071572299
  0
VERTEX
  8
0
 62
7
  6
CONTINUOUS
 10
96.3177947726
 20
226.1452270886
  0
VERTEX
  8
0
 62
7
  6
CONTINUOUS
 10
96.3057190202
 20
225.7519537968
  0
VERTEX
  8
0
 62
7
  6
CONTINUOUS
 10
96.3017327268
 20
225.35546875
  0
SEQEND
  0
POLYLINE
  8
0
 62
7
  6
CONTINUOUS
 66
1
 70
0
  0
VERTEX
  8
0
 62
7
  6
CONTINUOUS
 10
71.5381014074
 20
228.3554687213
  0
VERTEX
  8
0
 62
7
  6
CONTINUOUS
 10
71.4518200059
 20
228.3429937672
  0
VERTEX
  8
0
 62
7
  6
CONTINUOUS
 10
71.3598575328
 20
228.2990335487
  0
VERTEX
  8
0
 62
7
  6
CONTINUOUS
 10
71.2883401797
 20
228.2347855208
  0
VERTEX
  8
0
 62
7
  6
CONTINUOUS
 10
71.2350071042
 20
228.16045689
  0
VERTEX
  8
0
 62
7
  6
CONTINUOUS
 10
71.1918539976
 20
228.0758988696
  0
VERTEX
  8
0
 62
7
  6
CONTINUOUS
 10
71.153804023
 20
227.9771415472
  0
VERTEX
  8
0
 62
7
  6
CONTINUOUS
 10
71.1181349753
 20
227.8589220631
  0
VERTEX
  8
0
 62
7
  6
CONTINUOUS
 10
71.0837212001
 20
227.716265251
  0
VERTEX
  8
0
 62
7
  6
CONTINUOUS
 10
71.0503666262
 20
227.5450469675
  0
VERTEX
  8
0
 62
7
  6
CONTINUOUS
 10
71.0184045879
 20
227.3421740765
  0
VERTEX
  8
0
 62
7
  6
CONTINUOUS
 10
70.9883839162
 20
227.1048146552
  0
VERTEX
  8
0
 62
7
  6
CONTINUOUS
 10
70.9608424984
 20
226.8280359003
  0
VERTEX
  8
0
 62
7
  6
CONTINUOUS
 10
70.9367426363
 20
226.5071572299
  0
VERTEX
  8
0
 62
7
  6
CONTINUOUS
 10
70.9177947726
 20
226.1452270886
  0
VERTEX
  8
0
 62
7
  6
CONTINUOUS
 10
70.9057190202
 20
225.7519537968
  0
VERTEX
  8
0
 62
7
  6
CONTINUOUS
 10
70.9017327268
 20
225.35546875
  0
SEQEND
  0
LINE
  8
0
 62
7
  6
CONTINUOUS
 10
159.0500612278
 20
228.35546875
 11
147.7382200222
 21
228.35546875
  0
LINE
  8
0
 62
7
  6
CONTINUOUS
 10
133.6500612278
 20
228.35546875
 11
122.3382200222
 21
228.35546875
  0
LINE
  8
0
 62
7
  6
CONTINUOUS
 10
108.2500612278
 20
228.35546875
 11
96.9382200222
 21
228.35546875
  0
LINE
  8
0
 62
7
  6
CONTINUOUS
 10
82.8500612278
 20
228.35546875
 11
71.5382200222
 21
228.35546875
  0
LINE
  8
0
 62
7
  6
CONTINUOUS
 10
57.4500612278
 20
228.35546875
 11
46.1382200222
 21
228.35546875
  0
LINE
  8
0
 62
7
  6
CONTINUOUS
 10
32.0500612278
 20
228.35546875
 11
20.394140625
 21
228.35546875
  0
LINE
  8
0
 62
7
  6
CONTINUOUS
 10
172.3219322239
 20
223.6721174277
 11
172.3100305692
 21
223.6734179424
  0
POLYLINE
  8
0
 62
7
  6
CONTINUOUS
 66
1
 70
0
  0
VERTEX
  8
0
 62
7
  6
CONTINUOUS
 10
108.9883250983
 20
218.5469139505
  0
VERTEX
  8
0
 62
7
  6
CONTINUOUS
 10
108.9937130412
 20
218.4935362631
  0
VERTEX
  8
0
 62
7
  6
CONTINUOUS
 10
108.9999044514
 20
218.4269682093
  0
VERTEX
  8
0
 62
7
  6
CONTINUOUS
 10
109.001732608
 20
218.3783673005
  0
SEQEND
  0
POLYLINE
  8
0
 62
7
  6
CONTINUOUS
 66
1
 70
0
  0
VERTEX
  8
0
 62
7
  6
CONTINUOUS
 10
108.8999559462
 20
224.1640236877
  0
VERTEX
  8
0
 62
7
  6
CONTINUOUS
 10
108.8948166264
 20
224.2150478057
  0
VERTEX
  8
0
 62
7
  6
CONTINUOUS
 10
108.8886037323
 20
224.2807640707
  0
VERTEX
  8
0
 62
7
  6
CONTINUOUS
 10
108.8865486918
 20
224.3325700718
  0
SEQEND
  0
LINE
  8
0
 62
7
  6
CONTINUOUS
 10
108.9865410093
 20
218.5657024068
 11
108.9883250983
 21
218.5469139505
  0
LINE
  8
0
 62
7
  6
CONTINUOUS
 10
108.9017737576
 20
224.1448974825
 11
108.8999561375
 21
224.1640237052
  0
POLYLINE
  8
0
 62
7
  6
CONTINUOUS
 66
1
 70
0
  0
VERTEX
  8
0
 62
7
  6
CONTINUOUS
 10
108.8865485232
 20
225.35546875
  0
VERTEX
  8
0
 62
7
  6
CONTINUOUS
 10
108.8825328909
 20
225.7534027988
  0
VERTEX
  8
0
 62
7
  6
CONTINUOUS
 10
108.8704234747
 20
226.146742416
  0
VERTEX
  8
0
 62
7
  6
CONTINUOUS
 10
108.851443265
 20
226.5086520734
  0
VERTEX
  8
0
 62
7
  6
CONTINUOUS
 10
108.827314278
 20
226.8294610684
  0
VERTEX
  8
0
 62
7
  6
CONTINUOUS
 10
108.7997461433
 20
227.1061541654
  0
VERTEX
  8
0
 62
7
  6
CONTINUOUS
 10
108.7697004028
 20
227.3434182949
  0
VERTEX
  8
0
 62
7
  6
CONTINUOUS
 10
108.7377148151
 20
227.5461849802
  0
VERTEX
  8
0
 62
7
  6
CONTINUOUS
 10
108.7043379794
 20
227.7172884765
  0
VERTEX
  8
0
 62
7
  6
CONTINUOUS
 10
108.6699015435
 20
227.8598293905
  0
VERTEX
  8
0
 62
7
  6
CONTINUOUS
 10
108.634205558
 20
227.9779402882
  0
VERTEX
  8
0
 62
7
  6
CONTINUOUS
 10
108.5961158933
 20
228.0766054515
  0
VERTEX
  8
0
 62
7
  6
CONTINUOUS
 10
108.5528939428
 20
228.1610928491
  0
VERTEX
  8
0
 62
7
  6
CONTINUOUS
 10
108.4994321839
 20
228.2353678849
  0
VERTEX
  8
0
 62
7
  6
CONTINUOUS
 10
108.4277098235
 20
228.2995214215
  0
VERTEX
  8
0
 62
7
  6
CONTINUOUS
 10
108.3355579194
 20
228.3432576326
  0
VERTEX
  8
0
 62
7
  6
CONTINUOUS
 10
108.2501850862
 20
228.3554687187
  0
SEQEND
  0
POLYLINE
  8
0
 62
7
  6
CONTINUOUS
 66
1
 70
0
  0
VERTEX
  8
0
 62
7
  6
CONTINUOUS
 10
109.0017327268
 20
217.35546875
  0
VERTEX
  8
0
 62
7
  6
CONTINUOUS
 10
109.0054068826
 20
216.9747475922
  0
VERTEX
  8
0
 62
7
  6
CONTINUOUS
 10
109.0173804096
 20
216.5757561838
  0
VERTEX
  8
0
 62
7
  6
CONTINUOUS
 10
109.037403461
 20
216.1934676212
  0
VERTEX
  8
0
 62
7
  6
CONTINUOUS
 10
109.0641884676
 20
215.845236084
  0
VERTEX
  8
0
 62
7
  6
CONTINUOUS
 10
109.095898357
 20
215.5414947841
  0
VERTEX
  8
0
 62
7
  6
CONTINUOUS
 10
109.1308196394
 20
215.2847432432
  0
VERTEX
  8
0
 62
7
  6
CONTINUOUS
 10
109.1676772553
 20
215.0725168763
  0
VERTEX
  8
0
 62
7
  6
CONTINUOUS
 10
109.2060446955
 20
214.8986426728
  0
VERTEX
  8
0
 62
7
  6
CONTINUOUS
 10
109.246080963
 20
214.7571138555
  0
VERTEX
  8
0
 62
7
  6
CONTINUOUS
 10
109.2883198652
 20
214.6431668995
  0
VERTEX
  8
0
 62
7
  6
CONTINUOUS
 10
109.334892202
 20
214.5506731451
  0
VERTEX
  8
0
 62
7
  6
CONTINUOUS
 10
109.3906661175
 20
214.4735071858
  0
VERTEX
  8
0
 62
7
  6
CONTINUOUS
 10
109.4629259774
 20
214.4098255018
  0
VERTEX
  8
0
 62
7
  6
CONTINUOUS
 10
109.5532582869
 20
214.3675250137
  0
VERTEX
  8
0
 62
7
  6
CONTINUOUS
 10
109.6381081731
 20
214.3554687755
  0
SEQEND
  0
LINE
  8
0
 62
7
  6
CONTINUOUS
 10
108.8865485232
 20
225.35546875
 11
108.8865485232
 21
224.3325700727
  0
LINE
  8
0
 62
7
  6
CONTINUOUS
 10
109.0017327268
 20
218.3783673005
 11
109.0017327268
 21
217.35546875
  0
POLYLINE
  8
0
 62
7
  6
CONTINUOUS
 66
1
 70
0
  0
VERTEX
  8
0
 62
7
  6
CONTINUOUS
 10
46.1381014074
 20
228.3554687213
  0
VERTEX
  8
0
 62
7
  6
CONTINUOUS
 10
46.0518200059
 20
228.3429937672
  0
VERTEX
  8
0
 62
7
  6
CONTINUOUS
 10
45.9598575328
 20
228.2990335487
  0
VERTEX
  8
0
 62
7
  6
CONTINUOUS
 10
45.8883401797
 20
228.2347855208
  0
VERTEX
  8
0
 62
7
  6
CONTINUOUS
 10
45.8350071042
 20
228.16045689
  0
VERTEX
  8
0
 62
7
  6
CONTINUOUS
 10
45.7918539976
 20
228.0758988696
  0
VERTEX
  8
0
 62
7
  6
CONTINUOUS
 10
45.753804023
 20
227.9771415472
  0
VERTEX
  8
0
 62
7
  6
CONTINUOUS
 10
45.7181349753
 20
227.8589220631
  0
VERTEX
  8
0
 62
7
  6
CONTINUOUS
 10
45.6837212001
 20
227.716265251
  0
VERTEX
  8
0
 62
7
  6
CONTINUOUS
 10
45.6503666262
 20
227.5450469675
  0
VERTEX
  8
0
 62
7
  6
CONTINUOUS
 10
45.6184045879
 20
227.3421740765
  0
VERTEX
  8
0
 62
7
  6
CONTINUOUS
 10
45.5883839162
 20
227.1048146552
  0
VERTEX
  8
0
 62
7
  6
CONTINUOUS
 10
45.5608424984
 20
226.8280359003
  0
VERTEX
  8
0
 62
7
  6
CONTINUOUS
 10
45.5367426363
 20
226.5071572299
  0
VERTEX
  8
0
 62
7
  6
CONTINUOUS
 10
45.5177947726
 20
226.1452270886
  0
VERTEX
  8
0
 62
7
  6
CONTINUOUS
 10
45.5057190202
 20
225.7519537968
  0
VERTEX
  8
0
 62
7
  6
CONTINUOUS
 10
45.5017327268
 20
225.35546875
  0
SEQEND
  0
LINE
  8
0
 62
7
  6
CONTINUOUS
 10
121.5865485232
 20
217.35546875
 11
121.5865485232
 21
218.3783662059
  0
LINE
  8
0
 62
7
  6
CONTINUOUS
 10
121.7017327268
 20
224.3325705971
 11
121.7017327268
 21
225.35546875
  0
POLYLINE
  8
0
 62
7
  6
CONTINUOUS
 66
1
 70
0
  0
VERTEX
  8
0
 62
7
  6
CONTINUOUS
 10
121.7017326201
 20
224.3325705971
  0
VERTEX
  8
0
 62
7
  6
CONTINUOUS
 10
121.6999042884
 20
224.2839651591
  0
VERTEX
  8
0
 62
7
  6
CONTINUOUS
 10
121.6937108743
 20
224.2173808191
  0
VERTEX
  8
0
 62
7
  6
CONTINUOUS
 10
121.6883250296
 20
224.1640227931
  0
SEQEND
  0
POLYLINE
  8
0
 62
7
  6
CONTINUOUS
 66
1
 70
0
  0
VERTEX
  8
0
 62
7
  6
CONTINUOUS
 10
121.5865486532
 20
218.3783662049
  0
VERTEX
  8
0
 62
7
  6
CONTINUOUS
 10
121.5886036199
 20
218.4301729307
  0
VERTEX
  8
0
 62
7
  6
CONTINUOUS
 10
121.5948173291
 20
218.4958961027
  0
VERTEX
  8
0
 62
7
  6
CONTINUOUS
 10
121.5999559571
 20
218.5469139228
  0
SEQEND
  0
POLYLINE
  8
0
 62
7
  6
CONTINUOUS
 66
1
 70
0
  0
VERTEX
  8
0
 62
7
  6
CONTINUOUS
 10
121.5999561476
 20
218.5469139054
  0
VERTEX
  8
0
 62
7
  6
CONTINUOUS
 10
121.6007395506
 20
218.5553660025
  0
VERTEX
  8
0
 62
7
  6
CONTINUOUS
 10
121.6020126855
 20
218.568433388
  0
VERTEX
  8
0
 62
7
  6
CONTINUOUS
 10
121.6033580887
 20
218.5814454894
  0
VERTEX
  8
0
 62
7
  6
CONTINUOUS
 10
121.6047772519
 20
218.5943946399
  0
VERTEX
  8
0
 62
7
  6
CONTINUOUS
 10
121.6062714872
 20
218.607272998
  0
VERTEX
  8
0
 62
7
  6
CONTINUOUS
 10
121.6078419822
 20
218.6200724649
  0
VERTEX
  8
0
 62
7
  6
CONTINUOUS
 10
121.6094898109
 20
218.6327846388
  0
VERTEX
  8
0
 62
7
  6
CONTINUOUS
 10
121.6112158082
 20
218.6454009252
  0
VERTEX
  8
0
 62
7
  6
CONTINUOUS
 10
121.613020542
 20
218.6579125505
  0
VERTEX
  8
0
 62
7
  6
CONTINUOUS
 10
121.6149043521
 20
218.6703104552
  0
VERTEX
  8
0
 62
7
  6
CONTINUOUS
 10
121.6168673772
 20
218.6825851885
  0
VERTEX
  8
0
 62
7
  6
CONTINUOUS
 10
121.6189094226
 20
218.6947271243
  0
VERTEX
  8
0
 62
7
  6
CONTINUOUS
 10
121.6210299273
 20
218.7067265081
  0
VERTEX
  8
0
 62
7
  6
CONTINUOUS
 10
121.6232279871
 20
218.7185733773
  0
VERTEX
  8
0
 62
7
  6
CONTINUOUS
 10
121.6255024028
 20
218.7302574293
  0
VERTEX
  8
0
 62
7
  6
CONTINUOUS
 10
121.6278518599
 20
218.7417697701
  0
VERTEX
  8
0
 62
7
  6
CONTINUOUS
 10
121.6302751182
 20
218.7531036878
  0
VERTEX
  8
0
 62
7
  6
CONTINUOUS
 10
121.6327705704
 20
218.7642521654
  0
VERTEX
  8
0
 62
7
  6
CONTINUOUS
 10
121.6353362196
 20
218.7752073661
  0
VERTEX
  8
0
 62
7
  6
CONTINUOUS
 10
121.6379695776
 20
218.7859609579
  0
VERTEX
  8
0
 62
7
  6
CONTINUOUS
 10
121.6406676152
 20
218.7965042899
  0
VERTEX
  8
0
 62
7
  6
CONTINUOUS
 10
121.6434267427
 20
218.8068284287
  0
VERTEX
  8
0
 62
7
  6
CONTINUOUS
 10
121.6462427907
 20
218.8169238548
  0
VERTEX
  8
0
 62
7
  6
CONTINUOUS
 10
121.6491109661
 20
218.8267806021
  0
VERTEX
  8
0
 62
7
  6
CONTINUOUS
 10
121.652025809
 20
218.8363886135
  0
VERTEX
  8
0
 62
7
  6
CONTINUOUS
 10
121.6549795448
 20
218.845732744
  0
VERTEX
  8
0
 62
7
  6
CONTINUOUS
 10
121.6579620188
 20
218.8547936023
  0
VERTEX
  8
0
 62
7
  6
CONTINUOUS
 10
121.6609616272
 20
218.863551025
  0
VERTEX
  8
0
 62
7
  6
CONTINUOUS
 10
121.6639661861
 20
218.8719869632
  0
VERTEX
  8
0
 62
7
  6
CONTINUOUS
 10
121.6669689313
 20
218.8801011989
  0
VERTEX
  8
0
 62
7
  6
CONTINUOUS
 10
121.6699658941
 20
218.8879015048
  0
VERTEX
  8
0
 62
7
  6
CONTINUOUS
 10
121.6729529228
 20
218.8953949095
  0
VERTEX
  8
0
 62
7
  6
CONTINUOUS
 10
121.6759255341
 20
218.9025875031
  0
VERTEX
  8
0
 62
7
  6
CONTINUOUS
 10
121.6788834072
 20
218.9094948141
  0
VERTEX
  8
0
 62
7
  6
CONTINUOUS
 10
121.6818370437
 20
218.9161549138
  0
VERTEX
  8
0
 62
7
  6
CONTINUOUS
 10
121.6847999704
 20
218.9226078197
  0
VERTEX
  8
0
 62
7
  6
CONTINUOUS
 10
121.687786153
 20
218.9288895066
  0
VERTEX
  8
0
 62
7
  6
CONTINUOUS
 10
121.6907972531
 20
218.9350069991
  0
VERTEX
  8
0
 62
7
  6
CONTINUOUS
 10
121.6938372422
 20
218.9409711273
  0
VERTEX
  8
0
 62
7
  6
CONTINUOUS
 10
121.6969118448
 20
218.9467944072
  0
VERTEX
  8
0
 62
7
  6
CONTINUOUS
 10
121.7000263771
 20
218.952486633
  0
VERTEX
  8
0
 62
7
  6
CONTINUOUS
 10
121.7031857251
 20
218.958055035
  0
VERTEX
  8
0
 62
7
  6
CONTINUOUS
 10
121.7063942712
 20
218.9635043869
  0
VERTEX
  8
0
 62
7
  6
CONTINUOUS
 10
121.7096551693
 20
218.9688367897
  0
VERTEX
  8
0
 62
7
  6
CONTINUOUS
 10
121.7129704028
 20
218.9740518372
  0
VERTEX
  8
0
 62
7
  6
CONTINUOUS
 10
121.7163412024
 20
218.9791468993
  0
VERTEX
  8
0
 62
7
  6
CONTINUOUS
 10
121.7197679861
 20
218.9841171453
  0
VERTEX
  8
0
 62
7
  6
CONTINUOUS
 10
121.7232502399
 20
218.9889555385
  0
VERTEX
  8
0
 62
7
  6
CONTINUOUS
 10
121.726785385
 20
218.9936528671
  0
VERTEX
  8
0
 62
7
  6
CONTINUOUS
 10
121.7303688143
 20
218.9981983449
  0
VERTEX
  8
0
 62
7
  6
CONTINUOUS
 10
121.7339985903
 20
219.0025839844
  0
VERTEX
  8
0
 62
7
  6
CONTINUOUS
 10
121.7376692823
 20
219.0067964597
  0
VERTEX
  8
0
 62
7
  6
CONTINUOUS
 10
121.7413651107
 20
219.0108120347
  0
VERTEX
  8
0
 62
7
  6
CONTINUOUS
 10
121.745057576
 20
219.014598955
  0
VERTEX
  8
0
 62
7
  6
CONTINUOUS
 10
121.7487080016
 20
219.01812027
  0
VERTEX
  8
0
 62
7
  6
CONTINUOUS
 10
121.7522896274
 20
219.021355572
  0
VERTEX
  8
0
 62
7
  6
CONTINUOUS
 10
121.755767955
 20
219.0242849345
  0
VERTEX
  8
0
 62
7
  6
CONTINUOUS
 10
121.7591226476
 20
219.0269058114
  0
VERTEX
  8
0
 62
7
  6
CONTINUOUS
 10
121.7623987777
 20
219.0292613399
  0
VERTEX
  8
0
 62
7
  6
CONTINUOUS
 10
121.7655893057
 20
219.0313496907
  0
VERTEX
  8
0
 62
7
  6
CONTINUOUS
 10
121.7687357842
 20
219.0331937721
  0
VERTEX
  8
0
 62
7
  6
CONTINUOUS
 10
121.7719147067
 20
219.0348123588
  0
VERTEX
  8
0
 62
7
  6
CONTINUOUS
 10
121.774999704
 20
219.0361066886
  0
VERTEX
  8
0
 62
7
  6
CONTINUOUS
 10
121.7779964237
 20
219.0370297183
  0
VERTEX
  8
0
 62
7
  6
CONTINUOUS
 10
121.7808276311
 20
219.0374787884
  0
VERTEX
  8
0
 62
7
  6
CONTINUOUS
 10
121.7820027006
 20
219.0375194433
  0
SEQEND
  0
POLYLINE
  8
0
 62
7
  6
CONTINUOUS
 66
1
 70
0
  0
VERTEX
  8
0
 62
7
  6
CONTINUOUS
 10
121.6883250296
 20
224.1640227931
  0
VERTEX
  8
0
 62
7
  6
CONTINUOUS
 10
121.6865376669
 20
224.1452014902
  0
VERTEX
  8
0
 62
7
  6
CONTINUOUS
 10
121.6853663487
 20
224.1336942239
  0
VERTEX
  8
0
 62
7
  6
CONTINUOUS
 10
121.6841447502
 20
224.1222970221
  0
VERTEX
  8
0
 62
7
  6
CONTINUOUS
 10
121.682872576
 20
224.1110117604
  0
VERTEX
  8
0
 62
7
  6
CONTINUOUS
 10
121.6815496248
 20
224.0998403969
  0
VERTEX
  8
0
 62
7
  6
CONTINUOUS
 10
121.6801757431
 20
224.0887850218
  0
VERTEX
  8
0
 62
7
  6
CONTINUOUS
 10
121.6787508058
 20
224.0778478847
  0
VERTEX
  8
0
 62
7
  6
CONTINUOUS
 10
121.6772747946
 20
224.06703131
  0
VERTEX
  8
0
 62
7
  6
CONTINUOUS
 10
121.6757478073
 20
224.0563376836
  0
VERTEX
  8
0
 62
7
  6
CONTINUOUS
 10
121.6741700767
 20
224.0457695665
  0
VERTEX
  8
0
 62
7
  6
CONTINUOUS
 10
121.6725419919
 20
224.0353301617
  0
VERTEX
  8
0
 62
7
  6
CONTINUOUS
 10
121.6708637027
 20
224.0250208807
  0
VERTEX
  8
0
 62
7
  6
CONTINUOUS
 10
121.6691354051
 20
224.0148428912
  0
VERTEX
  8
0
 62
7
  6
CONTINUOUS
 10
121.6673574138
 20
224.0047975342
  0
VERTEX
  8
0
 62
7
  6
CONTINUOUS
 10
121.6655301596
 20
223.9948863273
  0
VERTEX
  8
0
 62
7
  6
CONTINUOUS
 10
121.663654144
 20
223.9851110788
  0
VERTEX
  8
0
 62
7
  6
CONTINUOUS
 10
121.6617299754
 20
223.9754738178
  0
VERTEX
  8
0
 62
7
  6
CONTINUOUS
 10
121.6597584089
 20
223.9659766992
  0
VERTEX
  8
0
 62
7
  6
CONTINUOUS
 10
121.657740349
 20
223.9566219886
  0
VERTEX
  8
0
 62
7
  6
CONTINUOUS
 10
121.6556768403
 20
223.9474121109
  0
VERTEX
  8
0
 62
7
  6
CONTINUOUS
 10
121.6535690504
 20
223.9383497759
  0
VERTEX
  8
0
 62
7
  6
CONTINUOUS
 10
121.6514183111
 20
223.9294377929
  0
VERTEX
  8
0
 62
7
  6
CONTINUOUS
 10
121.6492261278
 20
223.9206790119
  0
VERTEX
  8
0
 62
7
  6
CONTINUOUS
 10
121.6469956153
 20
223.9120817477
  0
VERTEX
  8
0
 62
7
  6
CONTINUOUS
 10
121.6447374588
 20
223.9036807637
  0
VERTEX
  8
0
 62
7
  6
CONTINUOUS
 10
121.6424659099
 20
223.8955186387
  0
VERTEX
  8
0
 62
7
  6
CONTINUOUS
 10
121.6401969081
 20
223.887637674
  0
VERTEX
  8
0
 62
7
  6
CONTINUOUS
 10
121.6379443249
 20
223.8800673866
  0
VERTEX
  8
0
 62
7
  6
CONTINUOUS
 10
121.6357047382
 20
223.8727776851
  0
VERTEX
  8
0
 62
7
  6
CONTINUOUS
 10
121.6334681798
 20
223.8657213346
  0
VERTEX
  8
0
 62
7
  6
CONTINUOUS
 10
121.6312232203
 20
223.8588519331
  0
VERTEX
  8
0
 62
7
  6
CONTINUOUS
 10
121.6289569243
 20
223.8521237247
  0
VERTEX
  8
0
 62
7
  6
CONTINUOUS
 10
121.6266586644
 20
223.8455025628
  0
VERTEX
  8
0
 62
7
  6
CONTINUOUS
 10
121.6243266164
 20
223.8389824061
  0
VERTEX
  8
0
 62
7
  6
CONTINUOUS
 10
121.621959304
 20
223.8325588556
  0
VERTEX
  8
0
 62
7
  6
CONTINUOUS
 10
121.6195553438
 20
223.8262283133
  0
VERTEX
  8
0
 62
7
  6
CONTINUOUS
 10
121.6171134525
 20
223.819987933
  0
VERTEX
  8
0
 62
7
  6
CONTINUOUS
 10
121.6146323995
 20
223.8138354442
  0
VERTEX
  8
0
 62
7
  6
CONTINUOUS
 10
121.6121110112
 20
223.8077691316
  0
VERTEX
  8
0
 62
7
  6
CONTINUOUS
 10
121.6095481762
 20
223.8017878178
  0
VERTEX
  8
0
 62
7
  6
CONTINUOUS
 10
121.6069428729
 20
223.7958908799
  0
VERTEX
  8
0
 62
7
  6
CONTINUOUS
 10
121.6042943566
 20
223.7900784813
  0
VERTEX
  8
0
 62
7
  6
CONTINUOUS
 10
121.6016020967
 20
223.7843514341
  0
VERTEX
  8
0
 62
7
  6
CONTINUOUS
 10
121.5988656894
 20
223.7787110485
  0
VERTEX
  8
0
 62
7
  6
CONTINUOUS
 10
121.596084865
 20
223.7731591225
  0
VERTEX
  8
0
 62
7
  6
CONTINUOUS
 10
121.5932594948
 20
223.7676979338
  0
VERTEX
  8
0
 62
7
  6
CONTINUOUS
 10
121.5903897332
 20
223.7623303353
  0
VERTEX
  8
0
 62
7
  6
CONTINUOUS
 10
121.587476358
 20
223.7570599894
  0
VERTEX
  8
0
 62
7
  6
CONTINUOUS
 10
121.5845203645
 20
223.7518909125
  0
VERTEX
  8
0
 62
7
  6
CONTINUOUS
 10
121.5815226856
 20
223.746827091
  0
VERTEX
  8
0
 62
7
  6
CONTINUOUS
 10
121.5784878057
 20
223.7418783371
  0
VERTEX
  8
0
 62
7
  6
CONTINUOUS
 10
121.5754223285
 20
223.7370570713
  0
VERTEX
  8
0
 62
7
  6
CONTINUOUS
 10
121.5723352144
 20
223.7323774031
  0
VERTEX
  8
0
 62
7
  6
CONTINUOUS
 10
121.5692379218
 20
223.727854881
  0
VERTEX
  8
0
 62
7
  6
CONTINUOUS
 10
121.5661438923
 20
223.7235059787
  0
VERTEX
  8
0
 62
7
  6
CONTINUOUS
 10
121.5630676398
 20
223.7193465278
  0
VERTEX
  8
0
 62
7
  6
CONTINUOUS
 10
121.5600138058
 20
223.7153776316
  0
VERTEX
  8
0
 62
7
  6
CONTINUOUS
 10
121.5569808885
 20
223.7115925026
  0
VERTEX
  8
0
 62
7
  6
CONTINUOUS
 10
121.553970227
 20
223.7079872266
  0
VERTEX
  8
0
 62
7
  6
CONTINUOUS
 10
121.5509873641
 20
223.704562916
  0
VERTEX
  8
0
 62
7
  6
CONTINUOUS
 10
121.548026536
 20
223.7013085857
  0
VERTEX
  8
0
 62
7
  6
CONTINUOUS
 10
121.5450756152
 20
223.6982090271
  0
VERTEX
  8
0
 62
7
  6
CONTINUOUS
 10
121.5421270727
 20
223.6952569915
  0
VERTEX
  8
0
 62
7
  6
CONTINUOUS
 10
121.5391785431
 20
223.6924507239
  0
VERTEX
  8
0
 62
7
  6
CONTINUOUS
 10
121.5362360151
 20
223.6897963975
  0
VERTEX
  8
0
 62
7
  6
CONTINUOUS
 10
121.5333250784
 20
223.6873169912
  0
VERTEX
  8
0
 62
7
  6
CONTINUOUS
 10
121.5304031969
 20
223.6849797632
  0
VERTEX
  8
0
 62
7
  6
CONTINUOUS
 10
121.5274383435
 20
223.6827693896
  0
VERTEX
  8
0
 62
7
  6
CONTINUOUS
 10
121.5244322668
 20
223.6807010806
  0
VERTEX
  8
0
 62
7
  6
CONTINUOUS
 10
121.5214242041
 20
223.678817654
  0
VERTEX
  8
0
 62
7
  6
CONTINUOUS
 10
121.5185195174
 20
223.6771929845
  0
VERTEX
  8
0
 62
7
  6
CONTINUOUS
 10
121.51560942
 20
223.6757799492
  0
VERTEX
  8
0
 62
7
  6
CONTINUOUS
 10
121.5126323652
 20
223.6745995282
  0
VERTEX
  8
0
 62
7
  6
CONTINUOUS
 10
121.5098032081
 20
223.6737983922
  0
VERTEX
  8
0
 62
7
  6
CONTINUOUS
 10
121.5071605087
 20
223.6734405589
  0
VERTEX
  8
0
 62
7
  6
CONTINUOUS
 10
121.5062785649
 20
223.6734180569
  0
SEQEND
  0
POLYLINE
  8
0
 62
7
  6
CONTINUOUS
 66
1
 70
0
  0
VERTEX
  8
0
 62
7
  6
CONTINUOUS
 10
134.3883250983
 20
218.5469139505
  0
VERTEX
  8
0
 62
7
  6
CONTINUOUS
 10
134.3937130412
 20
218.4935362631
  0
VERTEX
  8
0
 62
7
  6
CONTINUOUS
 10
134.3999044514
 20
218.4269682093
  0
VERTEX
  8
0
 62
7
  6
CONTINUOUS
 10
134.401732608
 20
218.3783673005
  0
SEQEND
  0
POLYLINE
  8
0
 62
7
  6
CONTINUOUS
 66
1
 70
0
  0
VERTEX
  8
0
 62
7
  6
CONTINUOUS
 10
134.2999559462
 20
224.1640236877
  0
VERTEX
  8
0
 62
7
  6
CONTINUOUS
 10
134.2948166264
 20
224.2150478057
  0
VERTEX
  8
0
 62
7
  6
CONTINUOUS
 10
134.2886037323
 20
224.2807640707
  0
VERTEX
  8
0
 62
7
  6
CONTINUOUS
 10
134.2865486918
 20
224.3325700718
  0
SEQEND
  0
LINE
  8
0
 62
7
  6
CONTINUOUS
 10
134.3865410093
 20
218.5657024068
 11
134.3883250983
 21
218.5469139505
  0
LINE
  8
0
 62
7
  6
CONTINUOUS
 10
134.3017737576
 20
224.1448974825
 11
134.2999561375
 21
224.1640237052
  0
POLYLINE
  8
0
 62
7
  6
CONTINUOUS
 66
1
 70
0
  0
VERTEX
  8
0
 62
7
  6
CONTINUOUS
 10
134.2865485232
 20
225.35546875
  0
VERTEX
  8
0
 62
7
  6
CONTINUOUS
 10
134.2825328909
 20
225.7534027988
  0
VERTEX
  8
0
 62
7
  6
CONTINUOUS
 10
134.2704234747
 20
226.146742416
  0
VERTEX
  8
0
 62
7
  6
CONTINUOUS
 10
134.251443265
 20
226.5086520734
  0
VERTEX
  8
0
 62
7
  6
CONTINUOUS
 10
134.227314278
 20
226.8294610684
  0
VERTEX
  8
0
 62
7
  6
CONTINUOUS
 10
134.1997461433
 20
227.1061541654
  0
VERTEX
  8
0
 62
7
  6
CONTINUOUS
 10
134.1697004028
 20
227.3434182949
  0
VERTEX
  8
0
 62
7
  6
CONTINUOUS
 10
134.1377148151
 20
227.5461849802
  0
VERTEX
  8
0
 62
7
  6
CONTINUOUS
 10
134.1043379794
 20
227.7172884765
  0
VERTEX
  8
0
 62
7
  6
CONTINUOUS
 10
134.0699015435
 20
227.8598293905
  0
VERTEX
  8
0
 62
7
  6
CONTINUOUS
 10
134.034205558
 20
227.9779402882
  0
VERTEX
  8
0
 62
7
  6
CONTINUOUS
 10
133.9961158933
 20
228.0766054515
  0
VERTEX
  8
0
 62
7
  6
CONTINUOUS
 10
133.9528939428
 20
228.1610928491
  0
VERTEX
  8
0
 62
7
  6
CONTINUOUS
 10
133.8994321839
 20
228.2353678849
  0
VERTEX
  8
0
 62
7
  6
CONTINUOUS
 10
133.8277098235
 20
228.2995214215
  0
VERTEX
  8
0
 62
7
  6
CONTINUOUS
 10
133.7355579194
 20
228.3432576326
  0
VERTEX
  8
0
 62
7
  6
CONTINUOUS
 10
133.6501850862
 20
228.3554687187
  0
SEQEND
  0
POLYLINE
  8
0
 62
7
  6
CONTINUOUS
 66
1
 70
0
  0
VERTEX
  8
0
 62
7
  6
CONTINUOUS
 10
134.4017327268
 20
217.35546875
  0
VERTEX
  8
0
 62
7
  6
CONTINUOUS
 10
134.4054068826
 20
216.9747475922
  0
VERTEX
  8
0
 62
7
  6
CONTINUOUS
 10
134.4173804096
 20
216.5757561838
  0
VERTEX
  8
0
 62
7
  6
CONTINUOUS
 10
134.437403461
 20
216.1934676212
  0
VERTEX
  8
0
 62
7
  6
CONTINUOUS
 10
134.4641884676
 20
215.845236084
  0
VERTEX
  8
0
 62
7
  6
CONTINUOUS
 10
134.495898357
 20
215.5414947841
  0
VERTEX
  8
0
 62
7
  6
CONTINUOUS
 10
134.5308196394
 20
215.2847432432
  0
VERTEX
  8
0
 62
7
  6
CONTINUOUS
 10
134.5676772553
 20
215.0725168763
  0
VERTEX
  8
0
 62
7
  6
CONTINUOUS
 10
134.6060446955
 20
214.8986426728
  0
VERTEX
  8
0
 62
7
  6
CONTINUOUS
 10
134.646080963
 20
214.7571138555
  0
VERTEX
  8
0
 62
7
  6
CONTINUOUS
 10
134.6883198652
 20
214.6431668995
  0
VERTEX
  8
0
 62
7
  6
CONTINUOUS
 10
134.734892202
 20
214.5506731451
  0
VERTEX
  8
0
 62
7
  6
CONTINUOUS
 10
134.7906661175
 20
214.4735071858
  0
VERTEX
  8
0
 62
7
  6
CONTINUOUS
 10
134.8629259774
 20
214.4098255018
  0
VERTEX
  8
0
 62
7
  6
CONTINUOUS
 10
134.9532582869
 20
214.3675250137
  0
VERTEX
  8
0
 62
7
  6
CONTINUOUS
 10
135.0381081731
 20
214.3554687755
  0
SEQEND
  0
LINE
  8
0
 62
7
  6
CONTINUOUS
 10
134.2865485232
 20
225.35546875
 11
134.2865485232
 21
224.3325700727
  0
LINE
  8
0
 62
7
  6
CONTINUOUS
 10
134.4017327268
 20
218.3783673005
 11
134.4017327268
 21
217.35546875
  0
LINE
  8
0
 62
7
  6
CONTINUOUS
 10
146.9865485232
 20
217.35546875
 11
146.9865485232
 21
218.3783662059
  0
LINE
  8
0
 62
7
  6
CONTINUOUS
 10
147.1017327268
 20
224.3325705971
 11
147.1017327268
 21
225.35546875
  0
POLYLINE
  8
0
 62
7
  6
CONTINUOUS
 66
1
 70
0
  0
VERTEX
  8
0
 62
7
  6
CONTINUOUS
 10
147.1017326201
 20
224.3325705971
  0
VERTEX
  8
0
 62
7
  6
CONTINUOUS
 10
147.0999042884
 20
224.2839651591
  0
VERTEX
  8
0
 62
7
  6
CONTINUOUS
 10
147.0937108743
 20
224.2173808191
  0
VERTEX
  8
0
 62
7
  6
CONTINUOUS
 10
147.0883250296
 20
224.1640227931
  0
SEQEND
  0
POLYLINE
  8
0
 62
7
  6
CONTINUOUS
 66
1
 70
0
  0
VERTEX
  8
0
 62
7
  6
CONTINUOUS
 10
146.9865486532
 20
218.3783662049
  0
VERTEX
  8
0
 62
7
  6
CONTINUOUS
 10
146.9886036199
 20
218.4301729307
  0
VERTEX
  8
0
 62
7
  6
CONTINUOUS
 10
146.9948173291
 20
218.4958961027
  0
VERTEX
  8
0
 62
7
  6
CONTINUOUS
 10
146.9999559571
 20
218.5469139228
  0
SEQEND
  0
POLYLINE
  8
0
 62
7
  6
CONTINUOUS
 66
1
 70
0
  0
VERTEX
  8
0
 62
7
  6
CONTINUOUS
 10
146.9999561476
 20
218.5469139054
  0
VERTEX
  8
0
 62
7
  6
CONTINUOUS
 10
147.0007395506
 20
218.5553660025
  0
VERTEX
  8
0
 62
7
  6
CONTINUOUS
 10
147.0020126855
 20
218.568433388
  0
VERTEX
  8
0
 62
7
  6
CONTINUOUS
 10
147.0033580887
 20
218.5814454894
  0
VERTEX
  8
0
 62
7
  6
CONTINUOUS
 10
147.0047772519
 20
218.5943946399
  0
VERTEX
  8
0
 62
7
  6
CONTINUOUS
 10
147.0062714872
 20
218.607272998
  0
VERTEX
  8
0
 62
7
  6
CONTINUOUS
 10
147.0078419822
 20
218.6200724649
  0
VERTEX
  8
0
 62
7
  6
CONTINUOUS
 10
147.0094898109
 20
218.6327846388
  0
VERTEX
  8
0
 62
7
  6
CONTINUOUS
 10
147.0112158082
 20
218.6454009252
  0
VERTEX
  8
0
 62
7
  6
CONTINUOUS
 10
147.013020542
 20
218.6579125505
  0
VERTEX
  8
0
 62
7
  6
CONTINUOUS
 10
147.0149043521
 20
218.6703104552
  0
VERTEX
  8
0
 62
7
  6
CONTINUOUS
 10
147.0168673772
 20
218.6825851885
  0
VERTEX
  8
0
 62
7
  6
CONTINUOUS
 10
147.0189094226
 20
218.6947271243
  0
VERTEX
  8
0
 62
7
  6
CONTINUOUS
 10
147.0210299273
 20
218.7067265081
  0
VERTEX
  8
0
 62
7
  6
CONTINUOUS
 10
147.0232279871
 20
218.7185733773
  0
VERTEX
  8
0
 62
7
  6
CONTINUOUS
 10
147.0255024028
 20
218.7302574293
  0
VERTEX
  8
0
 62
7
  6
CONTINUOUS
 10
147.0278518599
 20
218.7417697701
  0
VERTEX
  8
0
 62
7
  6
CONTINUOUS
 10
147.0302751182
 20
218.7531036878
  0
VERTEX
  8
0
 62
7
  6
CONTINUOUS
 10
147.0327705704
 20
218.7642521654
  0
VERTEX
  8
0
 62
7
  6
CONTINUOUS
 10
147.0353362196
 20
218.7752073661
  0
VERTEX
  8
0
 62
7
  6
CONTINUOUS
 10
147.0379695776
 20
218.7859609579
  0
VERTEX
  8
0
 62
7
  6
CONTINUOUS
 10
147.0406676152
 20
218.7965042899
  0
VERTEX
  8
0
 62
7
  6
CONTINUOUS
 10
147.0434267427
 20
218.8068284287
  0
VERTEX
  8
0
 62
7
  6
CONTINUOUS
 10
147.0462427907
 20
218.8169238548
  0
VERTEX
  8
0
 62
7
  6
CONTINUOUS
 10
147.0491109661
 20
218.8267806021
  0
VERTEX
  8
0
 62
7
  6
CONTINUOUS
 10
147.052025809
 20
218.8363886135
  0
VERTEX
  8
0
 62
7
  6
CONTINUOUS
 10
147.0549795448
 20
218.845732744
  0
VERTEX
  8
0
 62
7
  6
CONTINUOUS
 10
147.0579620188
 20
218.8547936023
  0
VERTEX
  8
0
 62
7
  6
CONTINUOUS
 10
147.0609616272
 20
218.863551025
  0
VERTEX
  8
0
 62
7
  6
CONTINUOUS
 10
147.0639661861
 20
218.8719869632
  0
VERTEX
  8
0
 62
7
  6
CONTINUOUS
 10
147.0669689313
 20
218.8801011989
  0
VERTEX
  8
0
 62
7
  6
CONTINUOUS
 10
147.0699658941
 20
218.8879015048
  0
VERTEX
  8
0
 62
7
  6
CONTINUOUS
 10
147.0729529228
 20
218.8953949095
  0
VERTEX
  8
0
 62
7
  6
CONTINUOUS
 10
147.0759255341
 20
218.9025875031
  0
VERTEX
  8
0
 62
7
  6
CONTINUOUS
 10
147.0788834072
 20
218.9094948141
  0
VERTEX
  8
0
 62
7
  6
CONTINUOUS
 10
147.0818370437
 20
218.9161549138
  0
VERTEX
  8
0
 62
7
  6
CONTINUOUS
 10
147.0847999704
 20
218.9226078197
  0
VERTEX
  8
0
 62
7
  6
CONTINUOUS
 10
147.087786153
 20
218.9288895066
  0
VERTEX
  8
0
 62
7
  6
CONTINUOUS
 10
147.0907972531
 20
218.9350069991
  0
VERTEX
  8
0
 62
7
  6
CONTINUOUS
 10
147.0938372422
 20
218.9409711273
  0
VERTEX
  8
0
 62
7
  6
CONTINUOUS
 10
147.0969118448
 20
218.9467944072
  0
VERTEX
  8
0
 62
7
  6
CONTINUOUS
 10
147.1000263771
 20
218.952486633
  0
VERTEX
  8
0
 62
7
  6
CONTINUOUS
 10
147.1031857251
 20
218.958055035
  0
VERTEX
  8
0
 62
7
  6
CONTINUOUS
 10
147.1063942712
 20
218.9635043869
  0
VERTEX
  8
0
 62
7
  6
CONTINUOUS
 10
147.1096551693
 20
218.9688367897
  0
VERTEX
  8
0
 62
7
  6
CONTINUOUS
 10
147.1129704028
 20
218.9740518372
  0
VERTEX
  8
0
 62
7
  6
CONTINUOUS
 10
147.1163412024
 20
218.9791468993
  0
VERTEX
  8
0
 62
7
  6
CONTINUOUS
 10
147.1197679861
 20
218.9841171453
  0
VERTEX
  8
0
 62
7
  6
CONTINUOUS
 10
147.1232502399
 20
218.9889555385
  0
VERTEX
  8
0
 62
7
  6
CONTINUOUS
 10
147.126785385
 20
218.9936528671
  0
VERTEX
  8
0
 62
7
  6
CONTINUOUS
 10
147.1303688143
 20
218.9981983449
  0
VERTEX
  8
0
 62
7
  6
CONTINUOUS
 10
147.1339985903
 20
219.0025839844
  0
VERTEX
  8
0
 62
7
  6
CONTINUOUS
 10
147.1376692823
 20
219.0067964597
  0
VERTEX
  8
0
 62
7
  6
CONTINUOUS
 10
147.1413651107
 20
219.0108120347
  0
VERTEX
  8
0
 62
7
  6
CONTINUOUS
 10
147.145057576
 20
219.014598955
  0
VERTEX
  8
0
 62
7
  6
CONTINUOUS
 10
147.1487080016
 20
219.01812027
  0
VERTEX
  8
0
 62
7
  6
CONTINUOUS
 10
147.1522896274
 20
219.021355572
  0
VERTEX
  8
0
 62
7
  6
CONTINUOUS
 10
147.155767955
 20
219.0242849345
  0
VERTEX
  8
0
 62
7
  6
CONTINUOUS
 10
147.1591226476
 20
219.0269058114
  0
VERTEX
  8
0
 62
7
  6
CONTINUOUS
 10
147.1623987777
 20
219.0292613399
  0
VERTEX
  8
0
 62
7
  6
CONTINUOUS
 10
147.1655893057
 20
219.0313496907
  0
VERTEX
  8
0
 62
7
  6
CONTINUOUS
 10
147.1687357842
 20
219.0331937721
  0
VERTEX
  8
0
 62
7
  6
CONTINUOUS
 10
147.1719147067
 20
219.0348123588
  0
VERTEX
  8
0
 62
7
  6
CONTINUOUS
 10
147.174999704
 20
219.0361066886
  0
VERTEX
  8
0
 62
7
  6
CONTINUOUS
 10
147.1779964237
 20
219.0370297183
  0
VERTEX
  8
0
 62
7
  6
CONTINUOUS
 10
147.1808276311
 20
219.0374787884
  0
VERTEX
  8
0
 62
7
  6
CONTINUOUS
 10
147.1820027006
 20
219.0375194433
  0
SEQEND
  0
POLYLINE
  8
0
 62
7
  6
CONTINUOUS
 66
1
 70
0
  0
VERTEX
  8
0
 62
7
  6
CONTINUOUS
 10
147.0883250296
 20
224.1640227931
  0
VERTEX
  8
0
 62
7
  6
CONTINUOUS
 10
147.0865376669
 20
224.1452014902
  0
VERTEX
  8
0
 62
7
  6
CONTINUOUS
 10
147.0853663487
 20
224.1336942239
  0
VERTEX
  8
0
 62
7
  6
CONTINUOUS
 10
147.0841447502
 20
224.1222970221
  0
VERTEX
  8
0
 62
7
  6
CONTINUOUS
 10
147.082872576
 20
224.1110117604
  0
VERTEX
  8
0
 62
7
  6
CONTINUOUS
 10
147.0815496248
 20
224.0998403969
  0
VERTEX
  8
0
 62
7
  6
CONTINUOUS
 10
147.0801757431
 20
224.0887850218
  0
VERTEX
  8
0
 62
7
  6
CONTINUOUS
 10
147.0787508058
 20
224.0778478847
  0
VERTEX
  8
0
 62
7
  6
CONTINUOUS
 10
147.0772747946
 20
224.06703131
  0
VERTEX
  8
0
 62
7
  6
CONTINUOUS
 10
147.0757478073
 20
224.0563376836
  0
VERTEX
  8
0
 62
7
  6
CONTINUOUS
 10
147.0741700767
 20
224.0457695665
  0
VERTEX
  8
0
 62
7
  6
CONTINUOUS
 10
147.0725419919
 20
224.0353301617
  0
VERTEX
  8
0
 62
7
  6
CONTINUOUS
 10
147.0708637027
 20
224.0250208807
  0
VERTEX
  8
0
 62
7
  6
CONTINUOUS
 10
147.0691354051
 20
224.0148428912
  0
VERTEX
  8
0
 62
7
  6
CONTINUOUS
 10
147.0673574138
 20
224.0047975342
  0
VERTEX
  8
0
 62
7
  6
CONTINUOUS
 10
147.0655301596
 20
223.9948863273
  0
VERTEX
  8
0
 62
7
  6
CONTINUOUS
 10
147.063654144
 20
223.9851110788
  0
VERTEX
  8
0
 62
7
  6
CONTINUOUS
 10
147.0617299754
 20
223.9754738178
  0
VERTEX
  8
0
 62
7
  6
CONTINUOUS
 10
147.0597584089
 20
223.9659766992
  0
VERTEX
  8
0
 62
7
  6
CONTINUOUS
 10
147.057740349
 20
223.9566219886
  0
VERTEX
  8
0
 62
7
  6
CONTINUOUS
 10
147.0556768403
 20
223.9474121109
  0
VERTEX
  8
0
 62
7
  6
CONTINUOUS
 10
147.0535690504
 20
223.9383497759
  0
VERTEX
  8
0
 62
7
  6
CONTINUOUS
 10
147.0514183111
 20
223.9294377929
  0
VERTEX
  8
0
 62
7
  6
CONTINUOUS
 10
147.0492261278
 20
223.9206790119
  0
VERTEX
  8
0
 62
7
  6
CONTINUOUS
 10
147.0469956153
 20
223.9120817477
  0
VERTEX
  8
0
 62
7
  6
CONTINUOUS
 10
147.0447374588
 20
223.9036807637
  0
VERTEX
  8
0
 62
7
  6
CONTINUOUS
 10
147.0424659099
 20
223.8955186387
  0
VERTEX
  8
0
 62
7
  6
CONTINUOUS
 10
147.0401969081
 20
223.887637674
  0
VERTEX
  8
0
 62
7
  6
CONTINUOUS
 10
147.0379443249
 20
223.8800673866
  0
VERTEX
  8
0
 62
7
  6
CONTINUOUS
 10
147.0357047382
 20
223.8727776851
  0
VERTEX
  8
0
 62
7
  6
CONTINUOUS
 10
147.0334681798
 20
223.8657213346
  0
VERTEX
  8
0
 62
7
  6
CONTINUOUS
 10
147.0312232203
 20
223.8588519331
  0
VERTEX
  8
0
 62
7
  6
CONTINUOUS
 10
147.0289569243
 20
223.8521237247
  0
VERTEX
  8
0
 62
7
  6
CONTINUOUS
 10
147.0266586644
 20
223.8455025628
  0
VERTEX
  8
0
 62
7
  6
CONTINUOUS
 10
147.0243266164
 20
223.8389824061
  0
VERTEX
  8
0
 62
7
  6
CONTINUOUS
 10
147.021959304
 20
223.8325588556
  0
VERTEX
  8
0
 62
7
  6
CONTINUOUS
 10
147.0195553438
 20
223.8262283133
  0
VERTEX
  8
0
 62
7
  6
CONTINUOUS
 10
147.0171134525
 20
223.819987933
  0
VERTEX
  8
0
 62
7
  6
CONTINUOUS
 10
147.0146323995
 20
223.8138354442
  0
VERTEX
  8
0
 62
7
  6
CONTINUOUS
 10
147.0121110112
 20
223.8077691316
  0
VERTEX
  8
0
 62
7
  6
CONTINUOUS
 10
147.0095481762
 20
223.8017878178
  0
VERTEX
  8
0
 62
7
  6
CONTINUOUS
 10
147.0069428729
 20
223.7958908799
  0
VERTEX
  8
0
 62
7
  6
CONTINUOUS
 10
147.0042943566
 20
223.7900784813
  0
VERTEX
  8
0
 62
7
  6
CONTINUOUS
 10
147.0016020967
 20
223.7843514341
  0
VERTEX
  8
0
 62
7
  6
CONTINUOUS
 10
146.9988656894
 20
223.7787110485
  0
VERTEX
  8
0
 62
7
  6
CONTINUOUS
 10
146.996084865
 20
223.7731591225
  0
VERTEX
  8
0
 62
7
  6
CONTINUOUS
 10
146.9932594948
 20
223.7676979338
  0
VERTEX
  8
0
 62
7
  6
CONTINUOUS
 10
146.9903897332
 20
223.7623303353
  0
VERTEX
  8
0
 62
7
  6
CONTINUOUS
 10
146.987476358
 20
223.7570599894
  0
VERTEX
  8
0
 62
7
  6
CONTINUOUS
 10
146.9845203645
 20
223.7518909125
  0
VERTEX
  8
0
 62
7
  6
CONTINUOUS
 10
146.9815226856
 20
223.746827091
  0
VERTEX
  8
0
 62
7
  6
CONTINUOUS
 10
146.9784878057
 20
223.7418783371
  0
VERTEX
  8
0
 62
7
  6
CONTINUOUS
 10
146.9754223285
 20
223.7370570713
  0
VERTEX
  8
0
 62
7
  6
CONTINUOUS
 10
146.9723352144
 20
223.7323774031
  0
VERTEX
  8
0
 62
7
  6
CONTINUOUS
 10
146.9692379218
 20
223.727854881
  0
VERTEX
  8
0
 62
7
  6
CONTINUOUS
 10
146.9661438923
 20
223.7235059787
  0
VERTEX
  8
0
 62
7
  6
CONTINUOUS
 10
146.9630676398
 20
223.7193465278
  0
VERTEX
  8
0
 62
7
  6
CONTINUOUS
 10
146.9600138058
 20
223.7153776316
  0
VERTEX
  8
0
 62
7
  6
CONTINUOUS
 10
146.9569808885
 20
223.7115925026
  0
VERTEX
  8
0
 62
7
  6
CONTINUOUS
 10
146.953970227
 20
223.7079872266
  0
VERTEX
  8
0
 62
7
  6
CONTINUOUS
 10
146.9509873641
 20
223.704562916
  0
VERTEX
  8
0
 62
7
  6
CONTINUOUS
 10
146.948026536
 20
223.7013085857
  0
VERTEX
  8
0
 62
7
  6
CONTINUOUS
 10
146.9450756152
 20
223.6982090271
  0
VERTEX
  8
0
 62
7
  6
CONTINUOUS
 10
146.9421270727
 20
223.6952569915
  0
VERTEX
  8
0
 62
7
  6
CONTINUOUS
 10
146.9391785431
 20
223.6924507239
  0
VERTEX
  8
0
 62
7
  6
CONTINUOUS
 10
146.9362360151
 20
223.6897963975
  0
VERTEX
  8
0
 62
7
  6
CONTINUOUS
 10
146.9333250784
 20
223.6873169912
  0
VERTEX
  8
0
 62
7
  6
CONTINUOUS
 10
146.9304031969
 20
223.6849797632
  0
VERTEX
  8
0
 62
7
  6
CONTINUOUS
 10
146.9274383435
 20
223.6827693896
  0
VERTEX
  8
0
 62
7
  6
CONTINUOUS
 10
146.9244322668
 20
223.6807010806
  0
VERTEX
  8
0
 62
7
  6
CONTINUOUS
 10
146.9214242041
 20
223.678817654
  0
VERTEX
  8
0
 62
7
  6
CONTINUOUS
 10
146.9185195174
 20
223.6771929845
  0
VERTEX
  8
0
 62
7
  6
CONTINUOUS
 10
146.91560942
 20
223.6757799492
  0
VERTEX
  8
0
 62
7
  6
CONTINUOUS
 10
146.9126323652
 20
223.6745995282
  0
VERTEX
  8
0
 62
7
  6
CONTINUOUS
 10
146.9098032081
 20
223.6737983922
  0
VERTEX
  8
0
 62
7
  6
CONTINUOUS
 10
146.9071605087
 20
223.6734405589
  0
VERTEX
  8
0
 62
7
  6
CONTINUOUS
 10
146.9062785649
 20
223.6734180569
  0
SEQEND
  0
LINE
  8
0
 62
7
  6
CONTINUOUS
 10
172.094140625
 20
223.4234179424
 11
172.3221677248
 21
223.6514450221
  0
POLYLINE
  8
0
 62
7
  6
CONTINUOUS
 66
1
 70
0
  0
VERTEX
  8
0
 62
7
  6
CONTINUOUS
 10
172.3221677248
 20
223.6514450221
  0
VERTEX
  8
0
 62
7
  6
CONTINUOUS
 10
172.3297342166
 20
223.6626159597
  0
VERTEX
  8
0
 62
7
  6
CONTINUOUS
 10
172.3300003116
 20
223.6655577496
  0
SEQEND
  0
POLYLINE
  8
0
 62
7
  6
CONTINUOUS
 66
1
 70
0
  0
VERTEX
  8
0
 62
7
  6
CONTINUOUS
 10
159.7883250983
 20
218.5469139505
  0
VERTEX
  8
0
 62
7
  6
CONTINUOUS
 10
159.7937130412
 20
218.4935362631
  0
VERTEX
  8
0
 62
7
  6
CONTINUOUS
 10
159.7999044514
 20
218.4269682093
  0
VERTEX
  8
0
 62
7
  6
CONTINUOUS
 10
159.801732608
 20
218.3783673005
  0
SEQEND
  0
POLYLINE
  8
0
 62
7
  6
CONTINUOUS
 66
1
 70
0
  0
VERTEX
  8
0
 62
7
  6
CONTINUOUS
 10
159.6999559462
 20
224.1640236877
  0
VERTEX
  8
0
 62
7
  6
CONTINUOUS
 10
159.6948166264
 20
224.2150478057
  0
VERTEX
  8
0
 62
7
  6
CONTINUOUS
 10
159.6886037323
 20
224.2807640707
  0
VERTEX
  8
0
 62
7
  6
CONTINUOUS
 10
159.6865486918
 20
224.3325700718
  0
SEQEND
  0
LINE
  8
0
 62
7
  6
CONTINUOUS
 10
159.7865410093
 20
218.5657024068
 11
159.7883250983
 21
218.5469139505
  0
LINE
  8
0
 62
7
  6
CONTINUOUS
 10
159.7017737576
 20
224.1448974823
 11
159.6999561375
 21
224.1640237052
  0
POLYLINE
  8
0
 62
7
  6
CONTINUOUS
 66
1
 70
0
  0
VERTEX
  8
0
 62
7
  6
CONTINUOUS
 10
159.6865485232
 20
225.35546875
  0
VERTEX
  8
0
 62
7
  6
CONTINUOUS
 10
159.6825328909
 20
225.7534027988
  0
VERTEX
  8
0
 62
7
  6
CONTINUOUS
 10
159.6704234747
 20
226.146742416
  0
VERTEX
  8
0
 62
7
  6
CONTINUOUS
 10
159.651443265
 20
226.5086520734
  0
VERTEX
  8
0
 62
7
  6
CONTINUOUS
 10
159.627314278
 20
226.8294610684
  0
VERTEX
  8
0
 62
7
  6
CONTINUOUS
 10
159.5997461433
 20
227.1061541654
  0
VERTEX
  8
0
 62
7
  6
CONTINUOUS
 10
159.5697004028
 20
227.3434182949
  0
VERTEX
  8
0
 62
7
  6
CONTINUOUS
 10
159.5377148151
 20
227.5461849802
  0
VERTEX
  8
0
 62
7
  6
CONTINUOUS
 10
159.5043379794
 20
227.7172884765
  0
VERTEX
  8
0
 62
7
  6
CONTINUOUS
 10
159.4699015435
 20
227.8598293905
  0
VERTEX
  8
0
 62
7
  6
CONTINUOUS
 10
159.434205558
 20
227.9779402882
  0
VERTEX
  8
0
 62
7
  6
CONTINUOUS
 10
159.3961158933
 20
228.0766054515
  0
VERTEX
  8
0
 62
7
  6
CONTINUOUS
 10
159.3528939428
 20
228.1610928491
  0
VERTEX
  8
0
 62
7
  6
CONTINUOUS
 10
159.2994321839
 20
228.2353678849
  0
VERTEX
  8
0
 62
7
  6
CONTINUOUS
 10
159.2277098235
 20
228.2995214215
  0
VERTEX
  8
0
 62
7
  6
CONTINUOUS
 10
159.1355579194
 20
228.3432576326
  0
VERTEX
  8
0
 62
7
  6
CONTINUOUS
 10
159.0501850862
 20
228.3554687187
  0
SEQEND
  0
POLYLINE
  8
0
 62
7
  6
CONTINUOUS
 66
1
 70
0
  0
VERTEX
  8
0
 62
7
  6
CONTINUOUS
 10
159.8017327268
 20
217.35546875
  0
VERTEX
  8
0
 62
7
  6
CONTINUOUS
 10
159.8054068826
 20
216.9747475922
  0
VERTEX
  8
0
 62
7
  6
CONTINUOUS
 10
159.8173804096
 20
216.5757561838
  0
VERTEX
  8
0
 62
7
  6
CONTINUOUS
 10
159.837403461
 20
216.1934676212
  0
VERTEX
  8
0
 62
7
  6
CONTINUOUS
 10
159.8641884676
 20
215.845236084
  0
VERTEX
  8
0
 62
7
  6
CONTINUOUS
 10
159.895898357
 20
215.5414947841
  0
VERTEX
  8
0
 62
7
  6
CONTINUOUS
 10
159.9308196394
 20
215.2847432432
  0
VERTEX
  8
0
 62
7
  6
CONTINUOUS
 10
159.9676772553
 20
215.0725168763
  0
VERTEX
  8
0
 62
7
  6
CONTINUOUS
 10
160.0060446955
 20
214.8986426728
  0
VERTEX
  8
0
 62
7
  6
CONTINUOUS
 10
160.046080963
 20
214.7571138555
  0
VERTEX
  8
0
 62
7
  6
CONTINUOUS
 10
160.0883198652
 20
214.6431668995
  0
VERTEX
  8
0
 62
7
  6
CONTINUOUS
 10
160.134892202
 20
214.5506731451
  0
VERTEX
  8
0
 62
7
  6
CONTINUOUS
 10
160.1906661175
 20
214.4735071858
  0
VERTEX
  8
0
 62
7
  6
CONTINUOUS
 10
160.2629259774
 20
214.4098255018
  0
VERTEX
  8
0
 62
7
  6
CONTINUOUS
 10
160.3532582869
 20
214.3675250137
  0
VERTEX
  8
0
 62
7
  6
CONTINUOUS
 10
160.4381081731
 20
214.3554687755
  0
SEQEND
  0
LINE
  8
0
 62
7
  6
CONTINUOUS
 10
159.6865485232
 20
225.35546875
 11
159.6865485232
 21
224.3325700727
  0
LINE
  8
0
 62
7
  6
CONTINUOUS
 10
159.8017327268
 20
218.3783673005
 11
159.8017327268
 21
217.35546875
  0
LINE
  8
0
 62
7
  6
CONTINUOUS
 10
172.3379451779
 20
223.5819709456
 11
172.3299975102
 21
223.6655577298
  0
POLYLINE
  8
0
 62
7
  6
CONTINUOUS
 66
1
 70
0
  0
VERTEX
  8
0
 62
7
  6
CONTINUOUS
 10
172.3441406214
 20
223.4234897548
  0
VERTEX
  8
0
 62
7
  6
CONTINUOUS
 10
172.3428812296
 20
223.4937518649
  0
VERTEX
  8
0
 62
7
  6
CONTINUOUS
 10
172.3379451779
 20
223.5819709456
  0
SEQEND
  0
LINE
  8
0
 62
7
  6
CONTINUOUS
 10
172.344140625
 20
223.4234179424
 11
172.344140625
 21
214.60546875
  0
POLYLINE
  8
0
 62
7
  6
CONTINUOUS
 66
1
 70
0
  0
VERTEX
  8
0
 62
7
  6
CONTINUOUS
 10
172.3300003116
 20
223.6655577496
  0
VERTEX
  8
0
 62
7
  6
CONTINUOUS
 10
172.3297098915
 20
223.6668275933
  0
VERTEX
  8
0
 62
7
  6
CONTINUOUS
 10
172.3219322239
 20
223.6721174277
  0
SEQEND
  0
LINE
  8
0
 62
7
  6
CONTINUOUS
 10
186.3220289728
 20
214.35546875
 11
187.0361718156
 21
214.35546875
  0
LINE
  8
0
 62
7
  6
CONTINUOUS
 10
186.3220289728
 20
214.35546875
 11
186.2503146585
 21
214.3606384183
  0
LINE
  8
02___PRT_ALL_AXES
 62
2
  6
CENTER
 10
191.4361718156
 20
217.35546875
 11
190.6611718156
 21
217.35546875
  0
LINE
  8
02___PRT_ALL_AXES
 62
2
  6
CONTINUOUS
 10
187.9161718156
 20
217.35546875
 11
186.1561718156
 21
217.35546875
  0
LINE
  8
02___PRT_ALL_AXES
 62
2
  6
CENTER
 10
182.6361718156
 20
217.35546875
 11
183.4111718156
 21
217.35546875
  0
LINE
  8
0
 62
7
  6
CONTINUOUS
 10
184.0361718156
 20
226.0696115929
 11
184.0361718156
 21
224.6413259071
  0
LINE
  8
0
 62
7
  6
CONTINUOUS
 10
184.0361718156
 20
216.6413259071
 11
184.0361718156
 21
218.0696115929
  0
LINE
  8
02___PRT_ALL_AXES
 62
7
  6
CONTINUOUS
 10
186.0361718156
 20
228.1028839158
 11
186.0361718156
 21
226.6363375957
  0
LINE
  8
02___PRT_ALL_AXES
 62
7
  6
CONTINUOUS
 10
186.0361718156
 20
216.0745999043
 11
186.0361718156
 21
214.6080535842
  0
LINE
  8
0
 62
7
  6
CONTINUOUS
 10
187.0361718156
 20
220.45546875
 11
187.5361718156
 21
220.45546875
  0
LINE
  8
02___PRT_ALL_AXES
 62
2
  6
CENTER
 10
187.0361718156
 20
229.75546875
 11
187.0361718156
 21
228.98046875
  0
LINE
  8
02___PRT_ALL_AXES
 62
2
  6
CONTINUOUS
 10
187.0361718156
 20
226.23546875
 11
187.0361718156
 21
224.47546875
  0
LINE
  8
02___PRT_ALL_AXES
 62
2
  6
CONTINUOUS
 10
187.0361718156
 20
218.23546875
 11
187.0361718156
 21
216.47546875
  0
LINE
  8
02___PRT_ALL_AXES
 62
2
  6
CENTER
 10
187.0361718156
 20
212.95546875
 11
187.0361718156
 21
213.73046875
  0
LINE
  8
02___PRT_ALL_AXES
 62
2
  6
CENTER
 10
187.0361718156
 20
220.95546875
 11
187.0361718156
 21
221.75546875
  0
LINE
  8
02___PRT_ALL_AXES
 62
2
  6
CENTER
 10
182.0361718156
 20
221.35546875
 11
192.03617293
 21
221.35546875
  0
LINE
  8
02___PRT_ALL_AXES
 62
7
  6
CONTINUOUS
 10
187.5361718156
 20
223.8093041404
 11
187.5361718156
 21
221.8274706227
  0
LINE
  8
0
 62
7
  6
CONTINUOUS
 10
187.5361718156
 20
220.8834668773
 11
187.5361718156
 21
220.5369198257
  0
LINE
  8
02___PRT_ALL_AXES
 62
7
  6
CONTINUOUS
 10
187.5361718156
 20
220.5369198257
 11
187.5361718156
 21
218.9016333596
  0
LINE
  8
0
 62
7
  6
CONTINUOUS
 10
187.0361718156
 20
222.25546875
 11
187.5361718156
 21
222.25546875
  0
LINE
  8
0
 62
7
  6
CONTINUOUS
 10
190.0361718156
 20
217.35546875
 11
190.0361718156
 21
225.35546875
  0
LINE
  8
02___PRT_ALL_AXES
 62
2
  6
CENTER
 10
191.4361718156
 20
225.35546875
 11
190.6611718156
 21
225.35546875
  0
LINE
  8
02___PRT_ALL_AXES
 62
2
  6
CONTINUOUS
 10
187.9161718156
 20
225.35546875
 11
186.1561718156
 21
225.35546875
  0
LINE
  8
02___PRT_ALL_AXES
 62
2
  6
CENTER
 10
182.6361718156
 20
225.35546875
 11
183.4111718156
 21
225.35546875
  0
LINE
  8
0
 62
7
  6
CONTINUOUS
 10
186.3220289728
 20
228.35546875
 11
186.2503146585
 21
228.3502990817
  0
LINE
  8
0
 62
7
  6
CONTINUOUS
 10
187.0361718156
 20
228.35546875
 11
186.3220289728
 21
228.35546875
  0
LINE
  8
0
 62
7
  6
CONTINUOUS
 10
20.144140625
 20
141.6484375594
 11
20.144140625
 21
145.1484375594
  0
LINE
  8
0
 62
7
  6
CONTINUOUS
 10
24.3571403005
 20
147.1832308346
 11
24.197039962
 21
146.0440577337
  0
LINE
  8
0
 62
7
  6
CONTINUOUS
 10
28.4311409495
 20
147.1832308346
 11
28.591241288
 21
146.0440577337
  0
LINE
  8
02___PRT_ALL_AXES
 62
7
  6
CONTINUOUS
 10
33.2960586311
 20
145.1832308346
 11
33.110584364
 21
143.8635128502
  0
LINE
  8
0
 62
7
  6
CONTINUOUS
 10
32.1922226189
 20
145.1832308346
 11
32.6841155404
 21
141.6832308346
  0
LINE
  8
0
 62
7
  6
CONTINUOUS
 10
37.0571403005
 20
147.1832308346
 11
36.68622871
 21
144.5440577337
  0
LINE
  8
02___PRT_ALL_AXES
 62
7
  6
CONTINUOUS
 10
36.8903780497
 20
145.9966557648
 11
36.897039962
 21
146.0440577337
  0
POLYLINE
  8
02___PRT_ALL_AXES
 62
7
  6
CONTINUOUS
 66
1
 70
0
  0
VERTEX
  8
02___PRT_ALL_AXES
 62
7
  6
CONTINUOUS
 10
36.8652226092
 20
145.9093886797
  0
VERTEX
  8
02___PRT_ALL_AXES
 62
7
  6
CONTINUOUS
 10
36.8771462377
 20
145.9455515297
  0
VERTEX
  8
02___PRT_ALL_AXES
 62
7
  6
CONTINUOUS
 10
36.8857127984
 20
145.9746287834
  0
VERTEX
  8
02___PRT_ALL_AXES
 62
7
  6
CONTINUOUS
 10
36.8903782472
 20
145.996657463
  0
SEQEND
  0
POLYLINE
  8
02___PRT_ALL_AXES
 62
7
  6
CONTINUOUS
 66
1
 70
0
  0
VERTEX
  8
02___PRT_ALL_AXES
 62
7
  6
CONTINUOUS
 10
41.2979030086
 20
145.9966574131
  0
VERTEX
  8
02___PRT_ALL_AXES
 62
7
  6
CONTINUOUS
 10
41.302630249
 20
145.9743930667
  0
VERTEX
  8
02___PRT_ALL_AXES
 62
7
  6
CONTINUOUS
 10
41.3112565958
 20
145.9451689994
  0
VERTEX
  8
02___PRT_ALL_AXES
 62
7
  6
CONTINUOUS
 10
41.3230586408
 20
145.9093886798
  0
SEQEND
  0
LINE
  8
02___PRT_ALL_AXES
 62
7
  6
CONTINUOUS
 10
41.291241288
 20
146.0440577337
 11
41.2979032
 21
145.9966557665
  0
LINE
  8
0
 62
7
  6
CONTINUOUS
 10
41.5020525401
 20
144.5440577337
 11
41.1311409495
 21
147.1832308346
  0
LINE
  8
02___PRT_ALL_AXES
 62
7
  6
CONTINUOUS
 10
44.8922226189
 20
145.1832308346
 11
45.0776972583
 21
143.8635102013
  0
LINE
  8
0
 62
7
  6
CONTINUOUS
 10
45.5041656338
 20
141.6832302949
 11
45.9960586311
 21
145.1832308346
  0
LINE
  8
0
 62
7
  6
CONTINUOUS
 10
49.7571403005
 20
147.1832308346
 11
49.597039962
 21
146.0440577337
  0
POLYLINE
  8
0
 62
7
  6
CONTINUOUS
 66
1
 70
0
  0
VERTEX
  8
0
 62
7
  6
CONTINUOUS
 10
46.2436256434
 20
145.1842947165
  0
VERTEX
  8
0
 62
7
  6
CONTINUOUS
 10
46.2277074403
 20
145.2086683396
  0
VERTEX
  8
0
 62
7
  6
CONTINUOUS
 10
46.2119192747
 20
145.2323454256
  0
VERTEX
  8
0
 62
7
  6
CONTINUOUS
 10
46.196306237
 20
145.2551378661
  0
SEQEND
  0
LINE
  8
0
 62
7
  6
CONTINUOUS
 10
53.8311409495
 20
147.1832308346
 11
53.991241288
 21
146.0440577337
  0
LINE
  8
02___PRT_ALL_AXES
 62
7
  6
CONTINUOUS
 10
58.6960586311
 20
145.1832308346
 11
58.510584364
 21
143.8635128502
  0
POLYLINE
  8
0
 62
7
  6
CONTINUOUS
 66
1
 70
0
  0
VERTEX
  8
0
 62
7
  6
CONTINUOUS
 10
46.196306237
 20
145.2551378661
  0
VERTEX
  8
0
 62
7
  6
CONTINUOUS
 10
46.1866076961
 20
145.2681579208
  0
VERTEX
  8
0
 62
7
  6
CONTINUOUS
 10
46.1630308931
 20
145.2958506032
  0
VERTEX
  8
0
 62
7
  6
CONTINUOUS
 10
46.1496795799
 20
145.3102187764
  0
VERTEX
  8
0
 62
7
  6
CONTINUOUS
 10
46.1197118624
 20
145.340063409
  0
VERTEX
  8
0
 62
7
  6
CONTINUOUS
 10
46.1031040439
 20
145.3552071865
  0
SEQEND
  0
LINE
  8
0
 62
7
  6
CONTINUOUS
 10
57.5922226189
 20
145.1832308346
 11
58.0841155404
 21
141.6832308346
  0
LINE
  8
0
 62
7
  6
CONTINUOUS
 10
62.4571403005
 20
147.1832308346
 11
62.08622871
 21
144.5440577337
  0
LINE
  8
02___PRT_ALL_AXES
 62
7
  6
CONTINUOUS
 10
62.2903780497
 20
145.9966557648
 11
62.297039962
 21
146.0440577337
  0
POLYLINE
  8
02___PRT_ALL_AXES
 62
7
  6
CONTINUOUS
 66
1
 70
0
  0
VERTEX
  8
02___PRT_ALL_AXES
 62
7
  6
CONTINUOUS
 10
62.2652226092
 20
145.9093886797
  0
VERTEX
  8
02___PRT_ALL_AXES
 62
7
  6
CONTINUOUS
 10
62.2771462377
 20
145.9455515297
  0
VERTEX
  8
02___PRT_ALL_AXES
 62
7
  6
CONTINUOUS
 10
62.2857127984
 20
145.9746287834
  0
VERTEX
  8
02___PRT_ALL_AXES
 62
7
  6
CONTINUOUS
 10
62.2903782472
 20
145.996657463
  0
SEQEND
  0
LINE
  8
0
 62
7
  6
CONTINUOUS
 10
70.9041656338
 20
141.6832302949
 11
71.3960586311
 21
145.1832308346
  0
POLYLINE
  8
02___PRT_ALL_AXES
 62
7
  6
CONTINUOUS
 66
1
 70
0
  0
VERTEX
  8
02___PRT_ALL_AXES
 62
7
  6
CONTINUOUS
 10
66.6979030086
 20
145.9966574131
  0
VERTEX
  8
02___PRT_ALL_AXES
 62
7
  6
CONTINUOUS
 10
66.702630249
 20
145.9743930667
  0
VERTEX
  8
02___PRT_ALL_AXES
 62
7
  6
CONTINUOUS
 10
66.7112565958
 20
145.9451689994
  0
VERTEX
  8
02___PRT_ALL_AXES
 62
7
  6
CONTINUOUS
 10
66.7230586408
 20
145.9093886798
  0
SEQEND
  0
LINE
  8
02___PRT_ALL_AXES
 62
7
  6
CONTINUOUS
 10
66.691241288
 20
146.0440577337
 11
66.6979032
 21
145.9966557665
  0
LINE
  8
0
 62
7
  6
CONTINUOUS
 10
66.9020525401
 20
144.5440577337
 11
66.5311409495
 21
147.1832308346
  0
LINE
  8
02___PRT_ALL_AXES
 62
7
  6
CONTINUOUS
 10
70.2922226189
 20
145.1832308346
 11
70.4776972583
 21
143.8635102013
  0
LINE
  8
0
 62
7
  6
CONTINUOUS
 10
75.1571403005
 20
147.1832308346
 11
74.997039962
 21
146.0440577337
  0
POLYLINE
  8
0
 62
7
  6
CONTINUOUS
 66
1
 70
0
  0
VERTEX
  8
0
 62
7
  6
CONTINUOUS
 10
71.6436256434
 20
145.1842947165
  0
VERTEX
  8
0
 62
7
  6
CONTINUOUS
 10
71.6277169926
 20
145.2086538476
  0
VERTEX
  8
0
 62
7
  6
CONTINUOUS
 10
71.6119294067
 20
145.2323304205
  0
VERTEX
  8
0
 62
7
  6
CONTINUOUS
 10
71.596306237
 20
145.2551378661
  0
SEQEND
  0
POLYLINE
  8
0
 62
7
  6
CONTINUOUS
 66
1
 70
0
  0
VERTEX
  8
0
 62
7
  6
CONTINUOUS
 10
160.0969923623
 20
143.8598393042
  0
VERTEX
  8
0
 62
7
  6
CONTINUOUS
 10
160.0783036313
 20
143.8550584596
  0
VERTEX
  8
0
 62
7
  6
CONTINUOUS
 10
160.0387167634
 20
143.8459608387
  0
VERTEX
  8
0
 62
7
  6
CONTINUOUS
 10
159.9948959155
 20
143.8379780526
  0
VERTEX
  8
0
 62
7
  6
CONTINUOUS
 10
159.9466715511
 20
143.8321450064
  0
VERTEX
  8
0
 62
7
  6
CONTINUOUS
 10
159.896590371
 20
143.8295721618
  0
VERTEX
  8
0
 62
7
  6
CONTINUOUS
 10
159.8855440016
 20
143.8294860128
  0
SEQEND
  0
POLYLINE
  8
0
 62
7
  6
CONTINUOUS
 66
1
 70
0
  0
VERTEX
  8
0
 62
7
  6
CONTINUOUS
 10
71.596306237
 20
145.2551378661
  0
VERTEX
  8
0
 62
7
  6
CONTINUOUS
 10
71.5869203423
 20
145.2677603066
  0
VERTEX
  8
0
 62
7
  6
CONTINUOUS
 10
71.5641177049
 20
145.2946473018
  0
VERTEX
  8
0
 62
7
  6
CONTINUOUS
 10
71.550691636
 20
145.3091546468
  0
VERTEX
  8
0
 62
7
  6
CONTINUOUS
 10
71.519802504
 20
145.3399779236
  0
VERTEX
  8
0
 62
7
  6
CONTINUOUS
 10
71.5031040439
 20
145.3552071865
  0
SEQEND
  0
LINE
  8
0
 62
7
  6
CONTINUOUS
 10
79.2311409495
 20
147.1832308346
 11
79.391241288
 21
146.0440577337
  0
LINE
  8
02___PRT_ALL_AXES
 62
7
  6
CONTINUOUS
 10
84.0960586311
 20
145.1832308346
 11
83.910584364
 21
143.8635128502
  0
POLYLINE
  8
0
 62
7
  6
CONTINUOUS
 66
1
 70
0
  0
VERTEX
  8
0
 62
7
  6
CONTINUOUS
 10
147.4105843129
 20
143.8635124867
  0
VERTEX
  8
0
 62
7
  6
CONTINUOUS
 10
147.3970542179
 20
143.8598555139
  0
VERTEX
  8
0
 62
7
  6
CONTINUOUS
 10
147.3783983291
 20
143.8550820196
  0
VERTEX
  8
0
 62
7
  6
CONTINUOUS
 10
147.3388522223
 20
143.8459891398
  0
VERTEX
  8
0
 62
7
  6
CONTINUOUS
 10
147.2950138706
 20
143.8379962193
  0
VERTEX
  8
0
 62
7
  6
CONTINUOUS
 10
147.2467246298
 20
143.8321496127
  0
VERTEX
  8
0
 62
7
  6
CONTINUOUS
 10
147.1965874691
 20
143.8295720951
  0
VERTEX
  8
0
 62
7
  6
CONTINUOUS
 10
147.1855439922
 20
143.8294859867
  0
SEQEND
  0
POLYLINE
  8
0
 62
7
  6
CONTINUOUS
 66
1
 70
0
  0
VERTEX
  8
0
 62
7
  6
CONTINUOUS
 10
134.6969923623
 20
143.8598393042
  0
VERTEX
  8
0
 62
7
  6
CONTINUOUS
 10
134.6783036313
 20
143.8550584596
  0
VERTEX
  8
0
 62
7
  6
CONTINUOUS
 10
134.6387167634
 20
143.8459608387
  0
VERTEX
  8
0
 62
7
  6
CONTINUOUS
 10
134.5948959155
 20
143.8379780526
  0
VERTEX
  8
0
 62
7
  6
CONTINUOUS
 10
134.5466715511
 20
143.8321450064
  0
VERTEX
  8
0
 62
7
  6
CONTINUOUS
 10
134.496590371
 20
143.8295721618
  0
VERTEX
  8
0
 62
7
  6
CONTINUOUS
 10
134.4855440016
 20
143.8294860128
  0
SEQEND
  0
POLYLINE
  8
0
 62
7
  6
CONTINUOUS
 66
1
 70
0
  0
VERTEX
  8
0
 62
7
  6
CONTINUOUS
 10
45.0167009907
 20
143.8799814725
  0
VERTEX
  8
0
 62
7
  6
CONTINUOUS
 10
44.9732572177
 20
143.8901095456
  0
VERTEX
  8
0
 62
7
  6
CONTINUOUS
 10
44.9170428736
 20
143.897735158
  0
VERTEX
  8
0
 62
7
  6
CONTINUOUS
 10
44.8952959557
 20
143.8984375561
  0
SEQEND
  0
LINE
  8
0
 62
7
  6
CONTINUOUS
 10
82.9922226189
 20
145.1832308346
 11
83.4841155404
 21
141.6832308346
  0
LINE
  8
0
 62
7
  6
CONTINUOUS
 10
87.8571403005
 20
147.1832308346
 11
87.48622871
 21
144.5440577337
  0
LINE
  8
02___PRT_ALL_AXES
 62
7
  6
CONTINUOUS
 10
87.6903780497
 20
145.9966557648
 11
87.697039962
 21
146.0440577337
  0
POLYLINE
  8
02___PRT_ALL_AXES
 62
7
  6
CONTINUOUS
 66
1
 70
0
  0
VERTEX
  8
02___PRT_ALL_AXES
 62
7
  6
CONTINUOUS
 10
87.6652226092
 20
145.9093886797
  0
VERTEX
  8
02___PRT_ALL_AXES
 62
7
  6
CONTINUOUS
 10
87.6771462377
 20
145.9455515297
  0
VERTEX
  8
02___PRT_ALL_AXES
 62
7
  6
CONTINUOUS
 10
87.6857127984
 20
145.9746287834
  0
VERTEX
  8
02___PRT_ALL_AXES
 62
7
  6
CONTINUOUS
 10
87.6903782472
 20
145.996657463
  0
SEQEND
  0
POLYLINE
  8
0
 62
7
  6
CONTINUOUS
 66
1
 70
0
  0
VERTEX
  8
0
 62
7
  6
CONTINUOUS
 10
122.0105843129
 20
143.8635124867
  0
VERTEX
  8
0
 62
7
  6
CONTINUOUS
 10
121.9970542179
 20
143.8598555139
  0
VERTEX
  8
0
 62
7
  6
CONTINUOUS
 10
121.9783983291
 20
143.8550820196
  0
VERTEX
  8
0
 62
7
  6
CONTINUOUS
 10
121.9388522223
 20
143.8459891398
  0
VERTEX
  8
0
 62
7
  6
CONTINUOUS
 10
121.8950138706
 20
143.8379962193
  0
VERTEX
  8
0
 62
7
  6
CONTINUOUS
 10
121.8467246298
 20
143.8321496127
  0
VERTEX
  8
0
 62
7
  6
CONTINUOUS
 10
121.7965874691
 20
143.8295720951
  0
VERTEX
  8
0
 62
7
  6
CONTINUOUS
 10
121.7855439922
 20
143.8294859867
  0
SEQEND
  0
POLYLINE
  8
0
 62
7
  6
CONTINUOUS
 66
1
 70
0
  0
VERTEX
  8
0
 62
7
  6
CONTINUOUS
 10
70.4167009907
 20
143.8799814725
  0
VERTEX
  8
0
 62
7
  6
CONTINUOUS
 10
70.3732572177
 20
143.8901095456
  0
VERTEX
  8
0
 62
7
  6
CONTINUOUS
 10
70.3170428736
 20
143.897735158
  0
VERTEX
  8
0
 62
7
  6
CONTINUOUS
 10
70.2952959557
 20
143.8984375561
  0
SEQEND
  0
LINE
  8
0
 62
7
  6
CONTINUOUS
 10
96.3041656338
 20
141.6832302949
 11
96.7960586311
 21
145.1832308346
  0
POLYLINE
  8
0
 62
7
  6
CONTINUOUS
 66
1
 70
0
  0
VERTEX
  8
0
 62
7
  6
CONTINUOUS
 10
96.6105843129
 20
143.8635124867
  0
VERTEX
  8
0
 62
7
  6
CONTINUOUS
 10
96.5970542179
 20
143.8598555139
  0
VERTEX
  8
0
 62
7
  6
CONTINUOUS
 10
96.5783983291
 20
143.8550820196
  0
VERTEX
  8
0
 62
7
  6
CONTINUOUS
 10
96.5388522223
 20
143.8459891398
  0
VERTEX
  8
0
 62
7
  6
CONTINUOUS
 10
96.4950138706
 20
143.8379962193
  0
VERTEX
  8
0
 62
7
  6
CONTINUOUS
 10
96.4467246298
 20
143.8321496127
  0
VERTEX
  8
0
 62
7
  6
CONTINUOUS
 10
96.3965874691
 20
143.8295720951
  0
VERTEX
  8
0
 62
7
  6
CONTINUOUS
 10
96.3855439922
 20
143.8294859867
  0
SEQEND
  0
POLYLINE
  8
0
 62
7
  6
CONTINUOUS
 66
1
 70
0
  0
VERTEX
  8
0
 62
7
  6
CONTINUOUS
 10
109.2969923623
 20
143.8598393042
  0
VERTEX
  8
0
 62
7
  6
CONTINUOUS
 10
109.2783036313
 20
143.8550584596
  0
VERTEX
  8
0
 62
7
  6
CONTINUOUS
 10
109.2387167634
 20
143.8459608387
  0
VERTEX
  8
0
 62
7
  6
CONTINUOUS
 10
109.1948959155
 20
143.8379780526
  0
VERTEX
  8
0
 62
7
  6
CONTINUOUS
 10
109.1466715511
 20
143.8321450064
  0
VERTEX
  8
0
 62
7
  6
CONTINUOUS
 10
109.096590371
 20
143.8295721618
  0
VERTEX
  8
0
 62
7
  6
CONTINUOUS
 10
109.0855440016
 20
143.8294860128
  0
SEQEND
  0
POLYLINE
  8
0
 62
7
  6
CONTINUOUS
 66
1
 70
0
  0
VERTEX
  8
0
 62
7
  6
CONTINUOUS
 10
160.29298587
 20
143.8984375564
  0
VERTEX
  8
0
 62
7
  6
CONTINUOUS
 10
160.2702109582
 20
143.8976683374
  0
VERTEX
  8
0
 62
7
  6
CONTINUOUS
 10
160.2142229085
 20
143.8899495857
  0
VERTEX
  8
0
 62
7
  6
CONTINUOUS
 10
160.1708676763
 20
143.8797965638
  0
VERTEX
  8
0
 62
7
  6
CONTINUOUS
 10
160.0969923623
 20
143.8598393042
  0
SEQEND
  0
POLYLINE
  8
0
 62
7
  6
CONTINUOUS
 66
1
 70
0
  0
VERTEX
  8
0
 62
7
  6
CONTINUOUS
 10
134.89298587
 20
143.8984375564
  0
VERTEX
  8
0
 62
7
  6
CONTINUOUS
 10
134.8702109582
 20
143.8976683374
  0
VERTEX
  8
0
 62
7
  6
CONTINUOUS
 10
134.8142229085
 20
143.8899495857
  0
VERTEX
  8
0
 62
7
  6
CONTINUOUS
 10
134.7708676763
 20
143.8797965638
  0
VERTEX
  8
0
 62
7
  6
CONTINUOUS
 10
134.6969923623
 20
143.8598393042
  0
SEQEND
  0
POLYLINE
  8
0
 62
7
  6
CONTINUOUS
 66
1
 70
0
  0
VERTEX
  8
0
 62
7
  6
CONTINUOUS
 10
109.49298587
 20
143.8984375564
  0
VERTEX
  8
0
 62
7
  6
CONTINUOUS
 10
109.4702109582
 20
143.8976683374
  0
VERTEX
  8
0
 62
7
  6
CONTINUOUS
 10
109.4142229085
 20
143.8899495857
  0
VERTEX
  8
0
 62
7
  6
CONTINUOUS
 10
109.3708676763
 20
143.8797965638
  0
VERTEX
  8
0
 62
7
  6
CONTINUOUS
 10
109.2969923623
 20
143.8598393042
  0
SEQEND
  0
POLYLINE
  8
0
 62
7
  6
CONTINUOUS
 66
1
 70
0
  0
VERTEX
  8
0
 62
7
  6
CONTINUOUS
 10
84.09298587
 20
143.8984375564
  0
VERTEX
  8
0
 62
7
  6
CONTINUOUS
 10
84.0702109582
 20
143.8976683374
  0
VERTEX
  8
0
 62
7
  6
CONTINUOUS
 10
84.0142229085
 20
143.8899495857
  0
VERTEX
  8
0
 62
7
  6
CONTINUOUS
 10
83.9708676763
 20
143.8797965638
  0
VERTEX
  8
0
 62
7
  6
CONTINUOUS
 10
83.8969923623
 20
143.8598393042
  0
SEQEND
  0
LINE
  8
0
 62
7
  6
CONTINUOUS
 10
32.4365485232
 20
141.3984375594
 11
20.394140625
 21
141.3984375594
  0
LINE
  8
0
 62
7
  6
CONTINUOUS
 10
32.4370277782
 20
141.3984375594
 11
57.8365485232
 21
141.3984375594
  0
LINE
  8
0
 62
7
  6
CONTINUOUS
 10
57.8372228512
 20
141.3984375594
 11
83.2365485232
 21
141.3984375594
  0
LINE
  8
0
 62
7
  6
CONTINUOUS
 10
83.2372392652
 20
141.3984375594
 11
108.6365485232
 21
141.3984375594
  0
LINE
  8
0
 62
7
  6
CONTINUOUS
 10
108.6372238386
 20
141.3984375594
 11
134.0365485232
 21
141.3984375594
  0
LINE
  8
0
 62
7
  6
CONTINUOUS
 10
134.0372239454
 20
141.3984375594
 11
172.094140625
 21
141.3984375594
  0
LINE
  8
0
 62
7
  6
CONTINUOUS
 10
159.4369510204
 20
141.3984379035
 11
159.4507587386
 21
141.3984376595
  0
LINE
  8
0
 62
7
  6
CONTINUOUS
 10
32.6027372491
 20
143.8294860192
 11
32.8855440016
 21
143.8294860192
  0
LINE
  8
0
 62
7
  6
CONTINUOUS
 10
45.302737254
 20
143.8294860192
 11
45.5855439922
 21
143.8294860192
  0
LINE
  8
0
 62
7
  6
CONTINUOUS
 10
58.0027372491
 20
143.8294860192
 11
58.2855440016
 21
143.8294860192
  0
LINE
  8
0
 62
7
  6
CONTINUOUS
 10
70.702737254
 20
143.8294860192
 11
70.9855439922
 21
143.8294860192
  0
LINE
  8
0
 62
7
  6
CONTINUOUS
 10
83.4027372491
 20
143.8294860192
 11
83.6855440016
 21
143.8294860192
  0
LINE
  8
0
 62
7
  6
CONTINUOUS
 10
96.102737254
 20
143.8294860192
 11
96.3855439922
 21
143.8294860192
  0
LINE
  8
0
 62
7
  6
CONTINUOUS
 10
108.8027372491
 20
143.8294860192
 11
109.0855440016
 21
143.8294860192
  0
LINE
  8
0
 62
7
  6
CONTINUOUS
 10
121.502737254
 20
143.8294860192
 11
121.7855439922
 21
143.8294860192
  0
LINE
  8
0
 62
7
  6
CONTINUOUS
 10
134.2027372491
 20
143.8294860192
 11
134.4855440016
 21
143.8294860192
  0
LINE
  8
0
 62
7
  6
CONTINUOUS
 10
146.902737254
 20
143.8294860192
 11
147.1855439922
 21
143.8294860192
  0
LINE
  8
0
 62
7
  6
CONTINUOUS
 10
159.6027372491
 20
143.8294860192
 11
159.8855440016
 21
143.8294860192
  0
LINE
  8
0
 62
7
  6
CONTINUOUS
 10
33.2930055187
 20
143.8984375594
 11
44.8952757385
 21
143.8984375594
  0
LINE
  8
0
 62
7
  6
CONTINUOUS
 10
58.6930055187
 20
143.8984375594
 11
70.2952757385
 21
143.8984375594
  0
LINE
  8
0
 62
7
  6
CONTINUOUS
 10
84.0930055187
 20
143.8984375594
 11
95.6952757385
 21
143.8984375594
  0
LINE
  8
0
 62
7
  6
CONTINUOUS
 10
109.4930055187
 20
143.8984375594
 11
121.0952757385
 21
143.8984375594
  0
LINE
  8
0
 62
7
  6
CONTINUOUS
 10
134.8930055187
 20
143.8984375594
 11
146.4952757385
 21
143.8984375594
  0
LINE
  8
0
 62
7
  6
CONTINUOUS
 10
160.2930055187
 20
143.8984375594
 11
172.094140625
 21
143.8984375594
  0
LINE
  8
02___PRT_ALL_AXES
 62
2
  6
CENTER
 10
159.5308969773
 20
144.3984375594
 11
175.6235353491
 21
144.3984375594
  0
POLYLINE
  8
0
 62
7
  6
CONTINUOUS
 66
1
 70
0
  0
VERTEX
  8
0
 62
7
  6
CONTINUOUS
 10
32.6027372491
 20
143.8294860128
  0
VERTEX
  8
0
 62
7
  6
CONTINUOUS
 10
32.5906007342
 20
143.8295900385
  0
VERTEX
  8
0
 62
7
  6
CONTINUOUS
 10
32.5405204366
 20
143.8322407798
  0
VERTEX
  8
0
 62
7
  6
CONTINUOUS
 10
32.4923616155
 20
143.8381364637
  0
VERTEX
  8
0
 62
7
  6
CONTINUOUS
 10
32.448637876
 20
143.8461548809
  0
VERTEX
  8
0
 62
7
  6
CONTINUOUS
 10
32.4091659298
 20
143.8552605043
  0
VERTEX
  8
0
 62
7
  6
CONTINUOUS
 10
32.3905298911
 20
143.8600385356
  0
VERTEX
  8
0
 62
7
  6
CONTINUOUS
 10
32.3776973057
 20
143.8635098641
  0
SEQEND
  0
POLYLINE
  8
0
 62
7
  6
CONTINUOUS
 66
1
 70
0
  0
VERTEX
  8
0
 62
7
  6
CONTINUOUS
 10
45.302737254
 20
143.8294859867
  0
VERTEX
  8
0
 62
7
  6
CONTINUOUS
 10
45.2905982296
 20
143.8295900616
  0
VERTEX
  8
0
 62
7
  6
CONTINUOUS
 10
45.240573686
 20
143.8322360362
  0
VERTEX
  8
0
 62
7
  6
CONTINUOUS
 10
45.1924793406
 20
143.8381181581
  0
VERTEX
  8
0
 62
7
  6
CONTINUOUS
 10
45.1487734569
 20
143.846126431
  0
VERTEX
  8
0
 62
7
  6
CONTINUOUS
 10
45.1092599543
 20
143.8552370707
  0
VERTEX
  8
0
 62
7
  6
CONTINUOUS
 10
45.0905901947
 20
143.8600226947
  0
VERTEX
  8
0
 62
7
  6
CONTINUOUS
 10
45.0167009907
 20
143.8799814725
  0
SEQEND
  0
POLYLINE
  8
0
 62
7
  6
CONTINUOUS
 66
1
 70
0
  0
VERTEX
  8
0
 62
7
  6
CONTINUOUS
 10
58.0027372491
 20
143.8294860128
  0
VERTEX
  8
0
 62
7
  6
CONTINUOUS
 10
57.9906007342
 20
143.8295900385
  0
VERTEX
  8
0
 62
7
  6
CONTINUOUS
 10
57.9405204366
 20
143.8322407798
  0
VERTEX
  8
0
 62
7
  6
CONTINUOUS
 10
57.8923616155
 20
143.8381364637
  0
VERTEX
  8
0
 62
7
  6
CONTINUOUS
 10
57.848637876
 20
143.8461548809
  0
VERTEX
  8
0
 62
7
  6
CONTINUOUS
 10
57.8091659298
 20
143.8552605043
  0
VERTEX
  8
0
 62
7
  6
CONTINUOUS
 10
57.7905298911
 20
143.8600385356
  0
VERTEX
  8
0
 62
7
  6
CONTINUOUS
 10
57.7776973057
 20
143.8635098641
  0
SEQEND
  0
POLYLINE
  8
0
 62
7
  6
CONTINUOUS
 66
1
 70
0
  0
VERTEX
  8
0
 62
7
  6
CONTINUOUS
 10
70.702737254
 20
143.8294859867
  0
VERTEX
  8
0
 62
7
  6
CONTINUOUS
 10
70.6905982296
 20
143.8295900616
  0
VERTEX
  8
0
 62
7
  6
CONTINUOUS
 10
70.640573686
 20
143.8322360362
  0
VERTEX
  8
0
 62
7
  6
CONTINUOUS
 10
70.5924793406
 20
143.8381181581
  0
VERTEX
  8
0
 62
7
  6
CONTINUOUS
 10
70.5487734569
 20
143.846126431
  0
VERTEX
  8
0
 62
7
  6
CONTINUOUS
 10
70.5092599543
 20
143.8552370707
  0
VERTEX
  8
0
 62
7
  6
CONTINUOUS
 10
70.4905901947
 20
143.8600226947
  0
VERTEX
  8
0
 62
7
  6
CONTINUOUS
 10
70.4167009907
 20
143.8799814725
  0
SEQEND
  0
POLYLINE
  8
0
 62
7
  6
CONTINUOUS
 66
1
 70
0
  0
VERTEX
  8
0
 62
7
  6
CONTINUOUS
 10
83.4027372491
 20
143.8294860128
  0
VERTEX
  8
0
 62
7
  6
CONTINUOUS
 10
83.3906007342
 20
143.8295900385
  0
VERTEX
  8
0
 62
7
  6
CONTINUOUS
 10
83.3405204366
 20
143.8322407798
  0
VERTEX
  8
0
 62
7
  6
CONTINUOUS
 10
83.2923616155
 20
143.8381364637
  0
VERTEX
  8
0
 62
7
  6
CONTINUOUS
 10
83.248637876
 20
143.8461548809
  0
VERTEX
  8
0
 62
7
  6
CONTINUOUS
 10
83.2091659298
 20
143.8552605043
  0
VERTEX
  8
0
 62
7
  6
CONTINUOUS
 10
83.1905298911
 20
143.8600385356
  0
VERTEX
  8
0
 62
7
  6
CONTINUOUS
 10
83.1776973057
 20
143.8635098641
  0
SEQEND
  0
POLYLINE
  8
0
 62
7
  6
CONTINUOUS
 66
1
 70
0
  0
VERTEX
  8
0
 62
7
  6
CONTINUOUS
 10
96.102737254
 20
143.8294859867
  0
VERTEX
  8
0
 62
7
  6
CONTINUOUS
 10
96.0905982296
 20
143.8295900616
  0
VERTEX
  8
0
 62
7
  6
CONTINUOUS
 10
96.040573686
 20
143.8322360362
  0
VERTEX
  8
0
 62
7
  6
CONTINUOUS
 10
95.9924793406
 20
143.8381181581
  0
VERTEX
  8
0
 62
7
  6
CONTINUOUS
 10
95.9487734569
 20
143.846126431
  0
VERTEX
  8
0
 62
7
  6
CONTINUOUS
 10
95.9092599543
 20
143.8552370707
  0
VERTEX
  8
0
 62
7
  6
CONTINUOUS
 10
95.8905901947
 20
143.8600226947
  0
VERTEX
  8
0
 62
7
  6
CONTINUOUS
 10
95.8167009907
 20
143.8799814725
  0
SEQEND
  0
POLYLINE
  8
0
 62
7
  6
CONTINUOUS
 66
1
 70
0
  0
VERTEX
  8
0
 62
7
  6
CONTINUOUS
 10
108.8027372491
 20
143.8294860128
  0
VERTEX
  8
0
 62
7
  6
CONTINUOUS
 10
108.7906007342
 20
143.8295900385
  0
VERTEX
  8
0
 62
7
  6
CONTINUOUS
 10
108.7405204366
 20
143.8322407798
  0
VERTEX
  8
0
 62
7
  6
CONTINUOUS
 10
108.6923616155
 20
143.8381364637
  0
VERTEX
  8
0
 62
7
  6
CONTINUOUS
 10
108.648637876
 20
143.8461548809
  0
VERTEX
  8
0
 62
7
  6
CONTINUOUS
 10
108.6091659298
 20
143.8552605043
  0
VERTEX
  8
0
 62
7
  6
CONTINUOUS
 10
108.5905298911
 20
143.8600385356
  0
VERTEX
  8
0
 62
7
  6
CONTINUOUS
 10
108.5776973057
 20
143.8635098641
  0
SEQEND
  0
POLYLINE
  8
0
 62
7
  6
CONTINUOUS
 66
1
 70
0
  0
VERTEX
  8
0
 62
7
  6
CONTINUOUS
 10
121.502737254
 20
143.8294859867
  0
VERTEX
  8
0
 62
7
  6
CONTINUOUS
 10
121.4905982296
 20
143.8295900616
  0
VERTEX
  8
0
 62
7
  6
CONTINUOUS
 10
121.440573686
 20
143.8322360362
  0
VERTEX
  8
0
 62
7
  6
CONTINUOUS
 10
121.3924793406
 20
143.8381181581
  0
VERTEX
  8
0
 62
7
  6
CONTINUOUS
 10
121.3487734569
 20
143.846126431
  0
VERTEX
  8
0
 62
7
  6
CONTINUOUS
 10
121.3092599543
 20
143.8552370707
  0
VERTEX
  8
0
 62
7
  6
CONTINUOUS
 10
121.2905901947
 20
143.8600226947
  0
VERTEX
  8
0
 62
7
  6
CONTINUOUS
 10
121.2167009907
 20
143.8799814725
  0
SEQEND
  0
POLYLINE
  8
0
 62
7
  6
CONTINUOUS
 66
1
 70
0
  0
VERTEX
  8
0
 62
7
  6
CONTINUOUS
 10
134.2027372491
 20
143.8294860128
  0
VERTEX
  8
0
 62
7
  6
CONTINUOUS
 10
134.1906007342
 20
143.8295900385
  0
VERTEX
  8
0
 62
7
  6
CONTINUOUS
 10
134.1405204366
 20
143.8322407798
  0
VERTEX
  8
0
 62
7
  6
CONTINUOUS
 10
134.0923616155
 20
143.8381364637
  0
VERTEX
  8
0
 62
7
  6
CONTINUOUS
 10
134.048637876
 20
143.8461548809
  0
VERTEX
  8
0
 62
7
  6
CONTINUOUS
 10
134.0091659298
 20
143.8552605043
  0
VERTEX
  8
0
 62
7
  6
CONTINUOUS
 10
133.9905298911
 20
143.8600385356
  0
VERTEX
  8
0
 62
7
  6
CONTINUOUS
 10
133.9776973057
 20
143.8635098641
  0
SEQEND
  0
POLYLINE
  8
0
 62
7
  6
CONTINUOUS
 66
1
 70
0
  0
VERTEX
  8
0
 62
7
  6
CONTINUOUS
 10
146.902737254
 20
143.8294859867
  0
VERTEX
  8
0
 62
7
  6
CONTINUOUS
 10
146.8905982296
 20
143.8295900616
  0
VERTEX
  8
0
 62
7
  6
CONTINUOUS
 10
146.840573686
 20
143.8322360362
  0
VERTEX
  8
0
 62
7
  6
CONTINUOUS
 10
146.7924793406
 20
143.8381181581
  0
VERTEX
  8
0
 62
7
  6
CONTINUOUS
 10
146.7487734569
 20
143.846126431
  0
VERTEX
  8
0
 62
7
  6
CONTINUOUS
 10
146.7092599543
 20
143.8552370707
  0
VERTEX
  8
0
 62
7
  6
CONTINUOUS
 10
146.6905901947
 20
143.8600226947
  0
VERTEX
  8
0
 62
7
  6
CONTINUOUS
 10
146.6167009907
 20
143.8799814725
  0
SEQEND
  0
POLYLINE
  8
0
 62
7
  6
CONTINUOUS
 66
1
 70
0
  0
VERTEX
  8
0
 62
7
  6
CONTINUOUS
 10
159.6027372491
 20
143.8294860128
  0
VERTEX
  8
0
 62
7
  6
CONTINUOUS
 10
159.5906007342
 20
143.8295900385
  0
VERTEX
  8
0
 62
7
  6
CONTINUOUS
 10
159.5405204366
 20
143.8322407798
  0
VERTEX
  8
0
 62
7
  6
CONTINUOUS
 10
159.4923616155
 20
143.8381364637
  0
VERTEX
  8
0
 62
7
  6
CONTINUOUS
 10
159.448637876
 20
143.8461548809
  0
VERTEX
  8
0
 62
7
  6
CONTINUOUS
 10
159.4091659298
 20
143.8552605043
  0
VERTEX
  8
0
 62
7
  6
CONTINUOUS
 10
159.3905298911
 20
143.8600385356
  0
VERTEX
  8
0
 62
7
  6
CONTINUOUS
 10
159.3776973057
 20
143.8635098641
  0
SEQEND
  0
POLYLINE
  8
0
 62
7
  6
CONTINUOUS
 66
1
 70
0
  0
VERTEX
  8
0
 62
7
  6
CONTINUOUS
 10
95.8167009907
 20
143.8799814725
  0
VERTEX
  8
0
 62
7
  6
CONTINUOUS
 10
95.7732572177
 20
143.8901095456
  0
VERTEX
  8
0
 62
7
  6
CONTINUOUS
 10
95.7170428736
 20
143.897735158
  0
VERTEX
  8
0
 62
7
  6
CONTINUOUS
 10
95.6952959557
 20
143.8984375561
  0
SEQEND
  0
POLYLINE
  8
02___PRT_ALL_AXES
 62
7
  6
CONTINUOUS
 66
1
 70
0
  0
VERTEX
  8
02___PRT_ALL_AXES
 62
7
  6
CONTINUOUS
 10
92.0979030086
 20
145.9966574131
  0
VERTEX
  8
02___PRT_ALL_AXES
 62
7
  6
CONTINUOUS
 10
92.102630249
 20
145.9743930667
  0
VERTEX
  8
02___PRT_ALL_AXES
 62
7
  6
CONTINUOUS
 10
92.1112565958
 20
145.9451689994
  0
VERTEX
  8
02___PRT_ALL_AXES
 62
7
  6
CONTINUOUS
 10
92.1230586408
 20
145.9093886798
  0
SEQEND
  0
LINE
  8
02___PRT_ALL_AXES
 62
7
  6
CONTINUOUS
 10
92.091241288
 20
146.0440577337
 11
92.0979032
 21
145.9966557665
  0
LINE
  8
0
 62
7
  6
CONTINUOUS
 10
92.3020525401
 20
144.5440577337
 11
91.9311409495
 21
147.1832308346
  0
LINE
  8
02___PRT_ALL_AXES
 62
7
  6
CONTINUOUS
 10
95.6922226189
 20
145.1832308346
 11
95.8776972583
 21
143.8635102013
  0
LINE
  8
0
 62
7
  6
CONTINUOUS
 10
100.5571403005
 20
147.1832308346
 11
100.397039962
 21
146.0440577337
  0
POLYLINE
  8
0
 62
7
  6
CONTINUOUS
 66
1
 70
0
  0
VERTEX
  8
0
 62
7
  6
CONTINUOUS
 10
83.8969923623
 20
143.8598393042
  0
VERTEX
  8
0
 62
7
  6
CONTINUOUS
 10
83.8783036313
 20
143.8550584596
  0
VERTEX
  8
0
 62
7
  6
CONTINUOUS
 10
83.8387167634
 20
143.8459608387
  0
VERTEX
  8
0
 62
7
  6
CONTINUOUS
 10
83.7948959155
 20
143.8379780526
  0
VERTEX
  8
0
 62
7
  6
CONTINUOUS
 10
83.7466715511
 20
143.8321450064
  0
VERTEX
  8
0
 62
7
  6
CONTINUOUS
 10
83.696590371
 20
143.8295721618
  0
VERTEX
  8
0
 62
7
  6
CONTINUOUS
 10
83.6855440016
 20
143.8294860128
  0
SEQEND
  0
POLYLINE
  8
0
 62
7
  6
CONTINUOUS
 66
1
 70
0
  0
VERTEX
  8
0
 62
7
  6
CONTINUOUS
 10
58.69298587
 20
143.8984375564
  0
VERTEX
  8
0
 62
7
  6
CONTINUOUS
 10
58.6702109582
 20
143.8976683374
  0
VERTEX
  8
0
 62
7
  6
CONTINUOUS
 10
58.6142229085
 20
143.8899495857
  0
VERTEX
  8
0
 62
7
  6
CONTINUOUS
 10
58.5708676763
 20
143.8797965638
  0
VERTEX
  8
0
 62
7
  6
CONTINUOUS
 10
58.4969923623
 20
143.8598393042
  0
SEQEND
  0
POLYLINE
  8
0
 62
7
  6
CONTINUOUS
 66
1
 70
0
  0
VERTEX
  8
0
 62
7
  6
CONTINUOUS
 10
33.29298587
 20
143.8984375564
  0
VERTEX
  8
0
 62
7
  6
CONTINUOUS
 10
33.2702109582
 20
143.8976683374
  0
VERTEX
  8
0
 62
7
  6
CONTINUOUS
 10
33.2142229085
 20
143.8899495857
  0
VERTEX
  8
0
 62
7
  6
CONTINUOUS
 10
33.1708676763
 20
143.8797965638
  0
VERTEX
  8
0
 62
7
  6
CONTINUOUS
 10
33.0969923623
 20
143.8598393042
  0
SEQEND
  0
POLYLINE
  8
0
 62
7
  6
CONTINUOUS
 66
1
 70
0
  0
VERTEX
  8
0
 62
7
  6
CONTINUOUS
 10
99.0799930344
 20
145.3984375254
  0
VERTEX
  8
0
 62
7
  6
CONTINUOUS
 10
98.9785264737
 20
145.3952150411
  0
VERTEX
  8
0
 62
7
  6
CONTINUOUS
 10
98.9147308862
 20
145.3922370961
  0
VERTEX
  8
0
 62
7
  6
CONTINUOUS
 10
98.7941406247
 20
145.389438028
  0
SEQEND
  0
LINE
  8
02___PRT_ALL_AXES
 62
7
  6
CONTINUOUS
 10
172.094140625
 20
145.3984375594
 11
169.0339423396
 21
145.3984375594
  0
LINE
  8
02___PRT_ALL_AXES
 62
7
  6
CONTINUOUS
 10
163.1543389104
 20
145.3984375594
 11
160.5436256483
 21
145.3984375594
  0
LINE
  8
02___PRT_ALL_AXES
 62
7
  6
CONTINUOUS
 10
146.2446556017
 20
145.3984375594
 11
143.6339423396
 21
145.3984375594
  0
LINE
  8
02___PRT_ALL_AXES
 62
7
  6
CONTINUOUS
 10
137.7543389104
 20
145.3984375594
 11
135.1436256483
 21
145.3984375594
  0
LINE
  8
02___PRT_ALL_AXES
 62
7
  6
CONTINUOUS
 10
120.8446556017
 20
145.3984375594
 11
118.2339423396
 21
145.3984375594
  0
LINE
  8
02___PRT_ALL_AXES
 62
7
  6
CONTINUOUS
 10
112.3543389104
 20
145.3984375594
 11
109.7436256483
 21
145.3984375594
  0
LINE
  8
02___PRT_ALL_AXES
 62
7
  6
CONTINUOUS
 10
95.4446556017
 20
145.3984375594
 11
92.8339423396
 21
145.3984375594
  0
LINE
  8
02___PRT_ALL_AXES
 62
7
  6
CONTINUOUS
 10
86.9543389104
 20
145.3984375594
 11
84.3436256483
 21
145.3984375594
  0
LINE
  8
02___PRT_ALL_AXES
 62
7
  6
CONTINUOUS
 10
70.0446556017
 20
145.3984375594
 11
67.4339423396
 21
145.3984375594
  0
LINE
  8
02___PRT_ALL_AXES
 62
7
  6
CONTINUOUS
 10
61.5543389104
 20
145.3984375594
 11
58.9436256483
 21
145.3984375594
  0
LINE
  8
02___PRT_ALL_AXES
 62
7
  6
CONTINUOUS
 10
44.6446556017
 20
145.3984375594
 11
42.0339423396
 21
145.3984375594
  0
LINE
  8
02___PRT_ALL_AXES
 62
7
  6
CONTINUOUS
 10
36.1543389104
 20
145.3984375594
 11
33.5436256483
 21
145.3984375594
  0
LINE
  8
0
 62
7
  6
CONTINUOUS
 10
20.394140625
 20
145.3984375594
 11
23.4543389104
 21
145.3984375594
  0
LINE
  8
0
 62
7
  6
CONTINUOUS
 10
29.3339423396
 20
145.3984375594
 11
31.9446556017
 21
145.3984375594
  0
LINE
  8
0
 62
7
  6
CONTINUOUS
 10
46.2436256483
 20
145.3984375594
 11
48.8543389104
 21
145.3984375594
  0
LINE
  8
0
 62
7
  6
CONTINUOUS
 10
54.7339423396
 20
145.3984375594
 11
57.3446556017
 21
145.3984375594
  0
LINE
  8
0
 62
7
  6
CONTINUOUS
 10
71.6436256483
 20
145.3984375594
 11
74.2543389104
 21
145.3984375594
  0
LINE
  8
0
 62
7
  6
CONTINUOUS
 10
80.1339423396
 20
145.3984375594
 11
82.7446556017
 21
145.3984375594
  0
LINE
  8
0
 62
7
  6
CONTINUOUS
 10
97.0436256483
 20
145.3984375594
 11
99.6543389104
 21
145.3984375594
  0
LINE
  8
0
 62
7
  6
CONTINUOUS
 10
105.5339423396
 20
145.3984375594
 11
108.1446556017
 21
145.3984375594
  0
LINE
  8
0
 62
7
  6
CONTINUOUS
 10
122.4436256483
 20
145.3984375594
 11
125.0543389104
 21
145.3984375594
  0
LINE
  8
0
 62
7
  6
CONTINUOUS
 10
130.9339423396
 20
145.3984375594
 11
133.5446556017
 21
145.3984375594
  0
LINE
  8
0
 62
7
  6
CONTINUOUS
 10
147.8436256483
 20
145.3984375594
 11
150.4543389104
 21
145.3984375594
  0
LINE
  8
0
 62
7
  6
CONTINUOUS
 10
156.3339423396
 20
145.3984375594
 11
158.9446556017
 21
145.3984375594
  0
LINE
  8
0
 62
7
  6
CONTINUOUS
 10
24.6047073177
 20
147.3984375594
 11
28.1835739323
 21
147.3984375594
  0
LINE
  8
0
 62
7
  6
CONTINUOUS
 10
37.3047073177
 20
147.3984375594
 11
40.8835739323
 21
147.3984375594
  0
LINE
  8
0
 62
7
  6
CONTINUOUS
 10
50.0047073177
 20
147.3984375594
 11
53.5835739323
 21
147.3984375594
  0
LINE
  8
0
 62
7
  6
CONTINUOUS
 10
62.7047073177
 20
147.3984375594
 11
66.2835739323
 21
147.3984375594
  0
LINE
  8
0
 62
7
  6
CONTINUOUS
 10
75.4047073177
 20
147.3984375594
 11
78.9835739323
 21
147.3984375594
  0
LINE
  8
0
 62
7
  6
CONTINUOUS
 10
88.1047073177
 20
147.3984375594
 11
91.6835739323
 21
147.3984375594
  0
LINE
  8
0
 62
7
  6
CONTINUOUS
 10
100.8047073177
 20
147.3984375594
 11
104.3835739323
 21
147.3984375594
  0
LINE
  8
0
 62
7
  6
CONTINUOUS
 10
113.5047073177
 20
147.3984375594
 11
117.0835739323
 21
147.3984375594
  0
LINE
  8
0
 62
7
  6
CONTINUOUS
 10
126.2047073177
 20
147.3984375594
 11
129.7835739323
 21
147.3984375594
  0
LINE
  8
0
 62
7
  6
CONTINUOUS
 10
138.9047073177
 20
147.3984375594
 11
142.4835739323
 21
147.3984375594
  0
LINE
  8
0
 62
7
  6
CONTINUOUS
 10
151.6047073177
 20
147.3984375594
 11
155.1835739323
 21
147.3984375594
  0
LINE
  8
0
 62
7
  6
CONTINUOUS
 10
164.3047073177
 20
147.3984375594
 11
167.8835739323
 21
147.3984375594
  0
POLYLINE
  8
0
 62
7
  6
CONTINUOUS
 66
1
 70
0
  0
VERTEX
  8
0
 62
7
  6
CONTINUOUS
 10
98.7941406247
 20
145.389438028
  0
VERTEX
  8
0
 62
7
  6
CONTINUOUS
 10
98.6749732255
 20
145.3921773638
  0
VERTEX
  8
0
 62
7
  6
CONTINUOUS
 10
98.6111619751
 20
145.3951477824
  0
VERTEX
  8
0
 62
7
  6
CONTINUOUS
 10
98.5082957278
 20
145.3984375235
  0
SEQEND
  0
POLYLINE
  8
0
 62
7
  6
CONTINUOUS
 66
1
 70
0
  0
VERTEX
  8
0
 62
7
  6
CONTINUOUS
 10
121.2167009907
 20
143.8799814725
  0
VERTEX
  8
0
 62
7
  6
CONTINUOUS
 10
121.1732572177
 20
143.8901095456
  0
VERTEX
  8
0
 62
7
  6
CONTINUOUS
 10
121.1170428736
 20
143.897735158
  0
VERTEX
  8
0
 62
7
  6
CONTINUOUS
 10
121.0952959557
 20
143.8984375561
  0
SEQEND
  0
POLYLINE
  8
0
 62
7
  6
CONTINUOUS
 66
1
 70
0
  0
VERTEX
  8
0
 62
7
  6
CONTINUOUS
 10
96.996306237
 20
145.2551378661
  0
VERTEX
  8
0
 62
7
  6
CONTINUOUS
 10
96.9869203423
 20
145.2677603066
  0
VERTEX
  8
0
 62
7
  6
CONTINUOUS
 10
96.9641177049
 20
145.2946473018
  0
VERTEX
  8
0
 62
7
  6
CONTINUOUS
 10
96.950691636
 20
145.3091546468
  0
VERTEX
  8
0
 62
7
  6
CONTINUOUS
 10
96.919802504
 20
145.3399779236
  0
VERTEX
  8
0
 62
7
  6
CONTINUOUS
 10
96.9031040439
 20
145.3552071865
  0
SEQEND
  0
POLYLINE
  8
0
 62
7
  6
CONTINUOUS
 66
1
 70
0
  0
VERTEX
  8
0
 62
7
  6
CONTINUOUS
 10
97.0436256434
 20
145.1842947165
  0
VERTEX
  8
0
 62
7
  6
CONTINUOUS
 10
97.0277169926
 20
145.2086538476
  0
VERTEX
  8
0
 62
7
  6
CONTINUOUS
 10
97.0119294067
 20
145.2323304205
  0
VERTEX
  8
0
 62
7
  6
CONTINUOUS
 10
96.996306237
 20
145.2551378661
  0
SEQEND
  0
POLYLINE
  8
0
 62
7
  6
CONTINUOUS
 66
1
 70
0
  0
VERTEX
  8
0
 62
7
  6
CONTINUOUS
 10
71.2105843129
 20
143.8635124867
  0
VERTEX
  8
0
 62
7
  6
CONTINUOUS
 10
71.1970542179
 20
143.8598555139
  0
VERTEX
  8
0
 62
7
  6
CONTINUOUS
 10
71.1783983291
 20
143.8550820196
  0
VERTEX
  8
0
 62
7
  6
CONTINUOUS
 10
71.1388522223
 20
143.8459891398
  0
VERTEX
  8
0
 62
7
  6
CONTINUOUS
 10
71.0950138706
 20
143.8379962193
  0
VERTEX
  8
0
 62
7
  6
CONTINUOUS
 10
71.0467246298
 20
143.8321496127
  0
VERTEX
  8
0
 62
7
  6
CONTINUOUS
 10
70.9965874691
 20
143.8295720951
  0
VERTEX
  8
0
 62
7
  6
CONTINUOUS
 10
70.9855439922
 20
143.8294859867
  0
SEQEND
  0
POLYLINE
  8
0
 62
7
  6
CONTINUOUS
 66
1
 70
0
  0
VERTEX
  8
0
 62
7
  6
CONTINUOUS
 10
58.4969923623
 20
143.8598393042
  0
VERTEX
  8
0
 62
7
  6
CONTINUOUS
 10
58.4783036313
 20
143.8550584596
  0
VERTEX
  8
0
 62
7
  6
CONTINUOUS
 10
58.4387167634
 20
143.8459608387
  0
VERTEX
  8
0
 62
7
  6
CONTINUOUS
 10
58.3948959155
 20
143.8379780526
  0
VERTEX
  8
0
 62
7
  6
CONTINUOUS
 10
58.3466715511
 20
143.8321450064
  0
VERTEX
  8
0
 62
7
  6
CONTINUOUS
 10
58.296590371
 20
143.8295721618
  0
VERTEX
  8
0
 62
7
  6
CONTINUOUS
 10
58.2855440016
 20
143.8294860128
  0
SEQEND
  0
LINE
  8
0
 62
7
  6
CONTINUOUS
 10
104.6311409495
 20
147.1832308346
 11
104.791241288
 21
146.0440577337
  0
LINE
  8
02___PRT_ALL_AXES
 62
7
  6
CONTINUOUS
 10
109.4960586311
 20
145.1832308346
 11
109.310584364
 21
143.8635128502
  0
POLYLINE
  8
02___PRT_ALL_AXES
 62
7
  6
CONTINUOUS
 66
1
 70
0
  0
VERTEX
  8
02___PRT_ALL_AXES
 62
7
  6
CONTINUOUS
 10
113.0652226092
 20
145.9093886797
  0
VERTEX
  8
02___PRT_ALL_AXES
 62
7
  6
CONTINUOUS
 10
113.0771462377
 20
145.9455515297
  0
VERTEX
  8
02___PRT_ALL_AXES
 62
7
  6
CONTINUOUS
 10
113.0857127984
 20
145.9746287834
  0
VERTEX
  8
02___PRT_ALL_AXES
 62
7
  6
CONTINUOUS
 10
113.0903782472
 20
145.996657463
  0
SEQEND
  0
POLYLINE
  8
0
 62
7
  6
CONTINUOUS
 66
1
 70
0
  0
VERTEX
  8
0
 62
7
  6
CONTINUOUS
 10
45.8105843129
 20
143.8635124867
  0
VERTEX
  8
0
 62
7
  6
CONTINUOUS
 10
45.7970542179
 20
143.8598555139
  0
VERTEX
  8
0
 62
7
  6
CONTINUOUS
 10
45.7783983291
 20
143.8550820196
  0
VERTEX
  8
0
 62
7
  6
CONTINUOUS
 10
45.7388522223
 20
143.8459891398
  0
VERTEX
  8
0
 62
7
  6
CONTINUOUS
 10
45.6950138706
 20
143.8379962193
  0
VERTEX
  8
0
 62
7
  6
CONTINUOUS
 10
45.6467246298
 20
143.8321496127
  0
VERTEX
  8
0
 62
7
  6
CONTINUOUS
 10
45.5965874691
 20
143.8295720951
  0
VERTEX
  8
0
 62
7
  6
CONTINUOUS
 10
45.5855439922
 20
143.8294859867
  0
SEQEND
  0
POLYLINE
  8
0
 62
7
  6
CONTINUOUS
 66
1
 70
0
  0
VERTEX
  8
0
 62
7
  6
CONTINUOUS
 10
33.0969923623
 20
143.8598393042
  0
VERTEX
  8
0
 62
7
  6
CONTINUOUS
 10
33.0783036313
 20
143.8550584596
  0
VERTEX
  8
0
 62
7
  6
CONTINUOUS
 10
33.0387167634
 20
143.8459608387
  0
VERTEX
  8
0
 62
7
  6
CONTINUOUS
 10
32.9948959155
 20
143.8379780526
  0
VERTEX
  8
0
 62
7
  6
CONTINUOUS
 10
32.9466715511
 20
143.8321450064
  0
VERTEX
  8
0
 62
7
  6
CONTINUOUS
 10
32.896590371
 20
143.8295721618
  0
VERTEX
  8
0
 62
7
  6
CONTINUOUS
 10
32.8855440016
 20
143.8294860128
  0
SEQEND
  0
POLYLINE
  8
0
 62
7
  6
CONTINUOUS
 66
1
 70
0
  0
VERTEX
  8
0
 62
7
  6
CONTINUOUS
 10
146.6167009907
 20
143.8799814725
  0
VERTEX
  8
0
 62
7
  6
CONTINUOUS
 10
146.5732572177
 20
143.8901095456
  0
VERTEX
  8
0
 62
7
  6
CONTINUOUS
 10
146.5170428736
 20
143.897735158
  0
VERTEX
  8
0
 62
7
  6
CONTINUOUS
 10
146.4952959557
 20
143.8984375561
  0
SEQEND
  0
LINE
  8
0
 62
7
  6
CONTINUOUS
 10
108.3922226189
 20
145.1832308346
 11
108.8841155404
 21
141.6832308346
  0
LINE
  8
0
 62
7
  6
CONTINUOUS
 10
113.2571403005
 20
147.1832308346
 11
112.8862287099
 21
144.5440577337
  0
LINE
  8
02___PRT_ALL_AXES
 62
7
  6
CONTINUOUS
 10
113.0903780497
 20
145.9966557648
 11
113.097039962
 21
146.0440577337
  0
LINE
  8
0
 62
7
  6
CONTINUOUS
 10
121.7041656338
 20
141.6832302949
 11
122.1960586311
 21
145.1832308346
  0
POLYLINE
  8
0
 62
7
  6
CONTINUOUS
 66
1
 70
0
  0
VERTEX
  8
0
 62
7
  6
CONTINUOUS
 10
122.396306237
 20
145.2551378661
  0
VERTEX
  8
0
 62
7
  6
CONTINUOUS
 10
122.3869203423
 20
145.2677603066
  0
VERTEX
  8
0
 62
7
  6
CONTINUOUS
 10
122.3641177049
 20
145.2946473018
  0
VERTEX
  8
0
 62
7
  6
CONTINUOUS
 10
122.350691636
 20
145.3091546468
  0
VERTEX
  8
0
 62
7
  6
CONTINUOUS
 10
122.319802504
 20
145.3399779236
  0
VERTEX
  8
0
 62
7
  6
CONTINUOUS
 10
122.3031040439
 20
145.3552071865
  0
SEQEND
  0
POLYLINE
  8
0
 62
7
  6
CONTINUOUS
 66
1
 70
0
  0
VERTEX
  8
0
 62
7
  6
CONTINUOUS
 10
122.4436256434
 20
145.1842947165
  0
VERTEX
  8
0
 62
7
  6
CONTINUOUS
 10
122.4277169926
 20
145.2086538476
  0
VERTEX
  8
0
 62
7
  6
CONTINUOUS
 10
122.4119294067
 20
145.2323304205
  0
VERTEX
  8
0
 62
7
  6
CONTINUOUS
 10
122.396306237
 20
145.2551378661
  0
SEQEND
  0
POLYLINE
  8
02___PRT_ALL_AXES
 62
7
  6
CONTINUOUS
 66
1
 70
0
  0
VERTEX
  8
02___PRT_ALL_AXES
 62
7
  6
CONTINUOUS
 10
117.4979030086
 20
145.9966574131
  0
VERTEX
  8
02___PRT_ALL_AXES
 62
7
  6
CONTINUOUS
 10
117.502630249
 20
145.9743930667
  0
VERTEX
  8
02___PRT_ALL_AXES
 62
7
  6
CONTINUOUS
 10
117.5112565958
 20
145.9451689994
  0
VERTEX
  8
02___PRT_ALL_AXES
 62
7
  6
CONTINUOUS
 10
117.5230586408
 20
145.9093886798
  0
SEQEND
  0
LINE
  8
02___PRT_ALL_AXES
 62
7
  6
CONTINUOUS
 10
117.491241288
 20
146.0440577337
 11
117.4979032
 21
145.9966557665
  0
LINE
  8
0
 62
7
  6
CONTINUOUS
 10
117.7020525401
 20
144.5440577337
 11
117.3311409495
 21
147.1832308346
  0
LINE
  8
02___PRT_ALL_AXES
 62
7
  6
CONTINUOUS
 10
121.0922226189
 20
145.1832308346
 11
121.2776972583
 21
143.8635102013
  0
LINE
  8
0
 62
7
  6
CONTINUOUS
 10
125.9571403005
 20
147.1832308346
 11
125.797039962
 21
146.0440577337
  0
LINE
  8
0
 62
7
  6
CONTINUOUS
 10
130.0311409495
 20
147.1832308346
 11
130.191241288
 21
146.0440577337
  0
LINE
  8
02___PRT_ALL_AXES
 62
7
  6
CONTINUOUS
 10
134.8960586311
 20
145.1832308346
 11
134.710584364
 21
143.8635128502
  0
POLYLINE
  8
02___PRT_ALL_AXES
 62
7
  6
CONTINUOUS
 66
1
 70
0
  0
VERTEX
  8
02___PRT_ALL_AXES
 62
7
  6
CONTINUOUS
 10
138.4652226092
 20
145.9093886797
  0
VERTEX
  8
02___PRT_ALL_AXES
 62
7
  6
CONTINUOUS
 10
138.4771462377
 20
145.9455515297
  0
VERTEX
  8
02___PRT_ALL_AXES
 62
7
  6
CONTINUOUS
 10
138.4857127984
 20
145.9746287834
  0
VERTEX
  8
02___PRT_ALL_AXES
 62
7
  6
CONTINUOUS
 10
138.4903782472
 20
145.996657463
  0
SEQEND
  0
LINE
  8
0
 62
7
  6
CONTINUOUS
 10
133.7922226189
 20
145.1832308346
 11
134.2841155404
 21
141.6832308346
  0
LINE
  8
0
 62
7
  6
CONTINUOUS
 10
138.6571403005
 20
147.1832308346
 11
138.28622871
 21
144.5440577337
  0
LINE
  8
02___PRT_ALL_AXES
 62
7
  6
CONTINUOUS
 10
138.4903780497
 20
145.9966557648
 11
138.497039962
 21
146.0440577337
  0
POLYLINE
  8
0
 62
7
  6
CONTINUOUS
 66
1
 70
0
  0
VERTEX
  8
0
 62
7
  6
CONTINUOUS
 10
147.796306237
 20
145.2551378661
  0
VERTEX
  8
0
 62
7
  6
CONTINUOUS
 10
147.7869203423
 20
145.2677603066
  0
VERTEX
  8
0
 62
7
  6
CONTINUOUS
 10
147.7641177049
 20
145.2946473018
  0
VERTEX
  8
0
 62
7
  6
CONTINUOUS
 10
147.750691636
 20
145.3091546468
  0
VERTEX
  8
0
 62
7
  6
CONTINUOUS
 10
147.719802504
 20
145.3399779236
  0
VERTEX
  8
0
 62
7
  6
CONTINUOUS
 10
147.7031040439
 20
145.3552071865
  0
SEQEND
  0
POLYLINE
  8
0
 62
7
  6
CONTINUOUS
 66
1
 70
0
  0
VERTEX
  8
0
 62
7
  6
CONTINUOUS
 10
147.8436256434
 20
145.1842947165
  0
VERTEX
  8
0
 62
7
  6
CONTINUOUS
 10
147.8277169926
 20
145.2086538476
  0
VERTEX
  8
0
 62
7
  6
CONTINUOUS
 10
147.8119294067
 20
145.2323304205
  0
VERTEX
  8
0
 62
7
  6
CONTINUOUS
 10
147.796306237
 20
145.2551378661
  0
SEQEND
  0
POLYLINE
  8
02___PRT_ALL_AXES
 62
7
  6
CONTINUOUS
 66
1
 70
0
  0
VERTEX
  8
02___PRT_ALL_AXES
 62
7
  6
CONTINUOUS
 10
142.8979030086
 20
145.9966574131
  0
VERTEX
  8
02___PRT_ALL_AXES
 62
7
  6
CONTINUOUS
 10
142.902630249
 20
145.9743930667
  0
VERTEX
  8
02___PRT_ALL_AXES
 62
7
  6
CONTINUOUS
 10
142.9112565958
 20
145.9451689994
  0
VERTEX
  8
02___PRT_ALL_AXES
 62
7
  6
CONTINUOUS
 10
142.9230586408
 20
145.9093886798
  0
SEQEND
  0
LINE
  8
0
 62
7
  6
CONTINUOUS
 10
147.1041656338
 20
141.6832302949
 11
147.5960586311
 21
145.1832308346
  0
LINE
  8
02___PRT_ALL_AXES
 62
7
  6
CONTINUOUS
 10
142.891241288
 20
146.0440577337
 11
142.8979032
 21
145.9966557665
  0
LINE
  8
0
 62
7
  6
CONTINUOUS
 10
143.1020525401
 20
144.5440577337
 11
142.7311409495
 21
147.1832308346
  0
LINE
  8
02___PRT_ALL_AXES
 62
7
  6
CONTINUOUS
 10
146.4922226189
 20
145.1832308346
 11
146.6776972583
 21
143.8635102013
  0
LINE
  8
0
 62
7
  6
CONTINUOUS
 10
151.3571403005
 20
147.1832308346
 11
151.197039962
 21
146.0440577337
  0
LINE
  8
0
 62
7
  6
CONTINUOUS
 10
155.4311409495
 20
147.1832308346
 11
155.591241288
 21
146.0440577337
  0
LINE
  8
02___PRT_ALL_AXES
 62
7
  6
CONTINUOUS
 10
160.2960586311
 20
145.1832308346
 11
160.110584364
 21
143.8635128502
  0
POLYLINE
  8
02___PRT_ALL_AXES
 62
7
  6
CONTINUOUS
 66
1
 70
0
  0
VERTEX
  8
02___PRT_ALL_AXES
 62
7
  6
CONTINUOUS
 10
163.8652226092
 20
145.9093886797
  0
VERTEX
  8
02___PRT_ALL_AXES
 62
7
  6
CONTINUOUS
 10
163.8771462377
 20
145.9455515297
  0
VERTEX
  8
02___PRT_ALL_AXES
 62
7
  6
CONTINUOUS
 10
163.8857127984
 20
145.9746287834
  0
VERTEX
  8
02___PRT_ALL_AXES
 62
7
  6
CONTINUOUS
 10
163.8903782472
 20
145.996657463
  0
SEQEND
  0
POLYLINE
  8
0
 62
7
  6
CONTINUOUS
 66
1
 70
0
  0
VERTEX
  8
0
 62
7
  6
CONTINUOUS
 10
172.3219322239
 20
141.6229706001
  0
VERTEX
  8
0
 62
7
  6
CONTINUOUS
 10
172.2948585572
 20
141.675354515
  0
VERTEX
  8
0
 62
7
  6
CONTINUOUS
 10
172.2542965813
 20
141.7314399415
  0
VERTEX
  8
0
 62
7
  6
CONTINUOUS
 10
172.2284025122
 20
141.7600507213
  0
VERTEX
  8
0
 62
7
  6
CONTINUOUS
 10
172.1654960163
 20
141.8152422105
  0
VERTEX
  8
0
 62
7
  6
CONTINUOUS
 10
172.094140625
 20
141.8599760209
  0
SEQEND
  0
LINE
  8
0
 62
7
  6
CONTINUOUS
 10
159.1922226189
 20
145.1832308346
 11
159.6841155404
 21
141.6832308346
  0
LINE
  8
02___PRT_ALL_AXES
 62
7
  6
CONTINUOUS
 10
172.344140625
 20
145.1484375594
 11
172.344140625
 21
143.6484375594
  0
LINE
  8
0
 62
7
  6
CONTINUOUS
 10
172.344140625
 20
143.6484375594
 11
172.344140625
 21
141.6484375594
  0
LINE
  8
0
 62
7
  6
CONTINUOUS
 10
164.0571403005
 20
147.1832308346
 11
163.68622871
 21
144.5440577337
  0
LINE
  8
02___PRT_ALL_AXES
 62
7
  6
CONTINUOUS
 10
163.8903780497
 20
145.9966557648
 11
163.897039962
 21
146.0440577337
  0
POLYLINE
  8
0
 62
7
  6
CONTINUOUS
 66
1
 70
0
  0
VERTEX
  8
0
 62
7
  6
CONTINUOUS
 10
172.3221677248
 20
141.5459502386
  0
VERTEX
  8
0
 62
7
  6
CONTINUOUS
 10
172.3297342166
 20
141.5757443096
  0
VERTEX
  8
0
 62
7
  6
CONTINUOUS
 10
172.3297098915
 20
141.591413513
  0
VERTEX
  8
0
 62
7
  6
CONTINUOUS
 10
172.3219322239
 20
141.6229706001
  0
SEQEND
  0
POLYLINE
  8
02___PRT_ALL_AXES
 62
7
  6
CONTINUOUS
 66
1
 70
0
  0
VERTEX
  8
02___PRT_ALL_AXES
 62
7
  6
CONTINUOUS
 10
168.2979030086
 20
145.9966574131
  0
VERTEX
  8
02___PRT_ALL_AXES
 62
7
  6
CONTINUOUS
 10
168.302630249
 20
145.9743930667
  0
VERTEX
  8
02___PRT_ALL_AXES
 62
7
  6
CONTINUOUS
 10
168.3112565958
 20
145.9451689994
  0
VERTEX
  8
02___PRT_ALL_AXES
 62
7
  6
CONTINUOUS
 10
168.3230586408
 20
145.9093886798
  0
SEQEND
  0
LINE
  8
02___PRT_ALL_AXES
 62
7
  6
CONTINUOUS
 10
168.291241288
 20
146.0440577337
 11
168.2979032
 21
145.9966557665
  0
LINE
  8
0
 62
7
  6
CONTINUOUS
 10
168.5020525401
 20
144.5440577337
 11
168.1311409495
 21
147.1832308346
  0
ARC
  8
0
 62
7
  6
CONTINUOUS
 10
172.094140625
 20
214.60546875
 40
0.25
 50
270.0
 51
360.0
  0
ARC
  8
0
 62
7
  6
CONTINUOUS
 10
20.394140625
 20
228.10546875
 40
0.25
 50
90.0
 51
180.0
  0
ARC
  8
0
 62
7
  6
CONTINUOUS
 10
184.5361718156
 20
216.6413259071
 40
0.5
 50
180.0
 51
195.9423686056
  0
ARC
  8
0
 62
7
  6
CONTINUOUS
 10
184.5361718156
 20
218.0696115929
 40
0.5
 50
164.0576313944
 51
180.0
  0
ARC
  8
0
 62
7
  6
CONTINUOUS
 10
186.3220289728
 20
214.85546875
 40
0.5
 50
254.0576313944
 51
261.7537048754
  0
ARC
  8
0
 62
7
  6
CONTINUOUS
 10
186.2861718156
 20
214.6080535842
 40
0.25
 50
180.0
 51
261.7537048754
  0
ARC
  8
0
 62
7
  6
CONTINUOUS
 10
187.0361718156
 20
217.35546875
 40
3.1
 50
195.9423686056
 51
254.0576313944
  0
ARC
  8
0
 62
7
  6
CONTINUOUS
 10
187.0361718156
 20
217.35546875
 40
3.1
 50
90.0
 51
164.0576313944
  0
ARC
  8
0
 62
7
  6
CONTINUOUS
 10
187.0361718156
 20
217.55546875
 40
3.0
 50
32.2042275738
 51
60.6728312346
  0
ARC
  8
0
 62
7
  6
CONTINUOUS
 10
187.0361718156
 20
217.35546875
 40
3.0
 50
270.0
 51
360.0
  0
CIRCLE
  8
02___PRT_ALL_AXES
 62
7
  6
CONTINUOUS
 10
187.0361718156
 20
217.35546875
 40
1.625
  0
ARC
  8
0
 62
7
  6
CONTINUOUS
 10
184.5361718156
 20
224.6413259071
 40
0.5
 50
180.0
 51
195.9423686056
  0
ARC
  8
0
 62
7
  6
CONTINUOUS
 10
184.5361718156
 20
226.0696115929
 40
0.5
 50
164.0576313944
 51
180.0
  0
ARC
  8
0
 62
7
  6
CONTINUOUS
 10
187.0361718156
 20
225.35546875
 40
3.1
 50
105.9423686056
 51
164.0576313944
  0
ARC
  8
0
 62
7
  6
CONTINUOUS
 10
187.0361718156
 20
225.35546875
 40
3.1
 50
195.9423686056
 51
270.0
  0
ARC
  8
0
 62
7
  6
CONTINUOUS
 10
187.0361718156
 20
225.35546875
 40
3.0
 50
0.0
 51
90.0
  0
CIRCLE
  8
02___PRT_ALL_AXES
 62
7
  6
CONTINUOUS
 10
187.0361718156
 20
225.35546875
 40
1.625
  0
ARC
  8
0
 62
7
  6
CONTINUOUS
 10
186.3220289728
 20
227.85546875
 40
0.5
 50
98.2462951246
 51
105.9423686056
  0
ARC
  8
0
 62
7
  6
CONTINUOUS
 10
186.2861718156
 20
228.1028839158
 40
0.25
 50
98.2462951246
 51
180.0
  0
ARC
  8
0
 62
7
  6
CONTINUOUS
 10
189.4361718156
 20
220.8834668773
 40
1.9
 50
165.5385231005
 51
180.0
  0
ARC
  8
0
 62
7
  6
CONTINUOUS
 10
189.7861718156
 20
219.2875195576
 40
0.25
 50
212.204227504
 51
360.0
  0
ARC
  8
0
 62
7
  6
CONTINUOUS
 10
189.4361718156
 20
221.8274706227
 40
1.9
 50
180.0
 51
240.6728312346
  0
ARC
  8
0
 62
7
  6
CONTINUOUS
 10
20.394140625
 20
141.6484375594
 40
0.25
 50
180.0
 51
270.0
  0
ARC
  8
0
 62
7
  6
CONTINUOUS
 10
32.4365485232
 20
141.6484375594
 40
0.25
 50
270.0
 51
8.0
  0
ARC
  8
0
 62
7
  6
CONTINUOUS
 10
45.7517327268
 20
141.6484375594
 40
0.25
 50
172.0
 51
270.0
  0
ARC
  8
0
 62
7
  6
CONTINUOUS
 10
83.2365485232
 20
141.6484375594
 40
0.25
 50
270.0
 51
8.0
  0
ARC
  8
0
 62
7
  6
CONTINUOUS
 10
57.8365485232
 20
141.6484375594
 40
0.25
 50
270.0
 51
8.0
  0
ARC
  8
0
 62
7
  6
CONTINUOUS
 10
71.1517327268
 20
141.6484375594
 40
0.25
 50
172.0
 51
270.0
  0
ARC
  8
0
 62
7
  6
CONTINUOUS
 10
42.2447535916
 20
144.6484375594
 40
0.75
 50
188.0
 51
270.0
  0
ARC
  8
0
 62
7
  6
CONTINUOUS
 10
35.9435276584
 20
144.6484375594
 40
0.75
 50
270.0
 51
352.0
  0
ARC
  8
0
 62
7
  6
CONTINUOUS
 10
20.394140625
 20
145.1484375594
 40
0.25
 50
90.0
 51
180.0
  0
ARC
  8
0
 62
7
  6
CONTINUOUS
 10
31.9446556017
 20
145.1484375594
 40
0.25
 50
8.0
 51
90.0
  0
ARC
  8
02___PRT_ALL_AXES
 62
7
  6
CONTINUOUS
 10
33.5436256483
 20
145.1484375594
 40
0.25
 50
90.0
 51
172.0
  0
ARC
  8
0
 62
7
  6
CONTINUOUS
 10
57.3446556017
 20
145.1484375594
 40
0.25
 50
8.0
 51
90.0
  0
ARC
  8
02___PRT_ALL_AXES
 62
7
  6
CONTINUOUS
 10
44.6446556017
 20
145.1484375594
 40
0.25
 50
8.0
 51
90.0
  0
ARC
  8
0
 62
7
  6
CONTINUOUS
 10
46.2436256483
 20
145.1484375594
 40
0.25
 50
90.0
 51
172.0
  0
ARC
  8
02___PRT_ALL_AXES
 62
7
  6
CONTINUOUS
 10
36.1543389104
 20
146.1484375594
 40
0.75
 50
350.4136173744
 51
351.8595158874
  0
ARC
  8
0
 62
7
  6
CONTINUOUS
 10
23.4543389104
 20
146.1484375594
 40
0.75
 50
270.0
 51
352.0
  0
ARC
  8
02___PRT_ALL_AXES
 62
7
  6
CONTINUOUS
 10
36.1543389104
 20
146.1484375594
 40
0.75
 50
270.0
 51
348.3537258455
  0
ARC
  8
0
 62
7
  6
CONTINUOUS
 10
36.1543389104
 20
146.1484375594
 40
0.75
 50
342.1576314433
 51
348.5866311953
  0
ARC
  8
0
 62
7
  6
CONTINUOUS
 10
36.1543389104
 20
146.1484375594
 40
0.75
 50
350.5120565708
 51
352.0
  0
ARC
  8
0
 62
7
  6
CONTINUOUS
 10
29.3339423396
 20
146.1484375594
 40
0.75
 50
188.0
 51
270.0
  0
ARC
  8
0
 62
7
  6
CONTINUOUS
 10
24.6047073177
 20
147.1484375594
 40
0.25
 50
90.0
 51
172.0
  0
ARC
  8
0
 62
7
  6
CONTINUOUS
 10
28.1835739323
 20
147.1484375594
 40
0.25
 50
8.0
 51
90.0
  0
ARC
  8
0
 62
7
  6
CONTINUOUS
 10
37.3047073177
 20
147.1484375594
 40
0.25
 50
90.0
 51
172.0
  0
ARC
  8
02___PRT_ALL_AXES
 62
7
  6
CONTINUOUS
 10
42.0339423396
 20
146.1484375594
 40
0.75
 50
188.1323147613
 51
189.5863728998
  0
ARC
  8
0
 62
7
  6
CONTINUOUS
 10
48.8543389104
 20
146.1484375594
 40
0.75
 50
270.0
 51
352.0
  0
ARC
  8
02___PRT_ALL_AXES
 62
7
  6
CONTINUOUS
 10
42.0339423396
 20
146.1484375594
 40
0.75
 50
191.64628261
 51
270.0
  0
ARC
  8
0
 62
7
  6
CONTINUOUS
 10
42.0339423396
 20
146.1484375594
 40
0.75
 50
188.0
 51
188.1358099896
  0
ARC
  8
0
 62
7
  6
CONTINUOUS
 10
42.0339423396
 20
146.1484375594
 40
0.75
 50
191.7155649729
 51
198.0316972297
  0
ARC
  8
0
 62
7
  6
CONTINUOUS
 10
54.7339423396
 20
146.1484375594
 40
0.75
 50
188.0
 51
270.0
  0
ARC
  8
0
 62
7
  6
CONTINUOUS
 10
53.5835739323
 20
147.1484375594
 40
0.25
 50
8.0
 51
90.0
  0
ARC
  8
0
 62
7
  6
CONTINUOUS
 10
50.0047073177
 20
147.1484375594
 40
0.25
 50
90.0
 51
172.0
  0
ARC
  8
0
 62
7
  6
CONTINUOUS
 10
40.8835739323
 20
147.1484375594
 40
0.25
 50
8.0
 51
90.0
  0
ARC
  8
0
 62
7
  6
CONTINUOUS
 10
67.6447535916
 20
144.6484375594
 40
0.75
 50
188.0
 51
270.0
  0
ARC
  8
0
 62
7
  6
CONTINUOUS
 10
93.0447535916
 20
144.6484375594
 40
0.75
 50
188.0
 51
270.0
  0
ARC
  8
0
 62
7
  6
CONTINUOUS
 10
61.3435276584
 20
144.6484375594
 40
0.75
 50
270.0
 51
352.0
  0
ARC
  8
0
 62
7
  6
CONTINUOUS
 10
86.7435276584
 20
144.6484375594
 40
0.75
 50
270.0
 51
352.0
  0
ARC
  8
02___PRT_ALL_AXES
 62
7
  6
CONTINUOUS
 10
95.4446556017
 20
145.1484375594
 40
0.25
 50
8.0
 51
90.0
  0
ARC
  8
0
 62
7
  6
CONTINUOUS
 10
82.7446556017
 20
145.1484375594
 40
0.25
 50
8.0
 51
90.0
  0
ARC
  8
02___PRT_ALL_AXES
 62
7
  6
CONTINUOUS
 10
84.3436256483
 20
145.1484375594
 40
0.25
 50
90.0
 51
172.0
  0
ARC
  8
02___PRT_ALL_AXES
 62
7
  6
CONTINUOUS
 10
70.0446556017
 20
145.1484375594
 40
0.25
 50
8.0
 51
90.0
  0
ARC
  8
0
 62
7
  6
CONTINUOUS
 10
71.6436256483
 20
145.1484375594
 40
0.25
 50
90.0
 51
172.0
  0
ARC
  8
02___PRT_ALL_AXES
 62
7
  6
CONTINUOUS
 10
58.9436256483
 20
145.1484375594
 40
0.25
 50
90.0
 51
172.0
  0
ARC
  8
02___PRT_ALL_AXES
 62
7
  6
CONTINUOUS
 10
61.5543389104
 20
146.1484375594
 40
0.75
 50
350.4136173744
 51
351.8595158876
  0
ARC
  8
02___PRT_ALL_AXES
 62
7
  6
CONTINUOUS
 10
67.4339423396
 20
146.1484375594
 40
0.75
 50
188.1323147626
 51
189.5863728998
  0
ARC
  8
02___PRT_ALL_AXES
 62
7
  6
CONTINUOUS
 10
67.4339423396
 20
146.1484375594
 40
0.75
 50
191.64628261
 51
270.0
  0
ARC
  8
0
 62
7
  6
CONTINUOUS
 10
67.4339423396
 20
146.1484375594
 40
0.75
 50
188.0
 51
188.1358099909
  0
ARC
  8
0
 62
7
  6
CONTINUOUS
 10
67.4339423396
 20
146.1484375594
 40
0.75
 50
191.7155649729
 51
198.0316972297
  0
ARC
  8
02___PRT_ALL_AXES
 62
7
  6
CONTINUOUS
 10
61.5543389104
 20
146.1484375594
 40
0.75
 50
270.0
 51
348.3537258455
  0
ARC
  8
0
 62
7
  6
CONTINUOUS
 10
61.5543389104
 20
146.1484375594
 40
0.75
 50
342.1576314433
 51
348.5866311953
  0
ARC
  8
0
 62
7
  6
CONTINUOUS
 10
61.5543389104
 20
146.1484375594
 40
0.75
 50
350.5120565708
 51
352.0
  0
ARC
  8
0
 62
7
  6
CONTINUOUS
 10
74.2543389104
 20
146.1484375594
 40
0.75
 50
270.0
 51
352.0
  0
ARC
  8
0
 62
7
  6
CONTINUOUS
 10
75.4047073177
 20
147.1484375594
 40
0.25
 50
90.0
 51
172.0
  0
ARC
  8
0
 62
7
  6
CONTINUOUS
 10
66.2835739323
 20
147.1484375594
 40
0.25
 50
8.0
 51
90.0
  0
ARC
  8
0
 62
7
  6
CONTINUOUS
 10
62.7047073177
 20
147.1484375594
 40
0.25
 50
90.0
 51
172.0
  0
ARC
  8
02___PRT_ALL_AXES
 62
7
  6
CONTINUOUS
 10
86.9543389104
 20
146.1484375594
 40
0.75
 50
350.4136173744
 51
351.8595158867
  0
ARC
  8
02___PRT_ALL_AXES
 62
7
  6
CONTINUOUS
 10
92.8339423396
 20
146.1484375594
 40
0.75
 50
188.1323147625
 51
189.5863728998
  0
ARC
  8
02___PRT_ALL_AXES
 62
7
  6
CONTINUOUS
 10
92.8339423396
 20
146.1484375594
 40
0.75
 50
191.64628261
 51
270.0
  0
ARC
  8
0
 62
7
  6
CONTINUOUS
 10
92.8339423396
 20
146.1484375594
 40
0.75
 50
188.0
 51
188.1358099908
  0
ARC
  8
0
 62
7
  6
CONTINUOUS
 10
92.8339423396
 20
146.1484375594
 40
0.75
 50
191.7155649729
 51
198.0316972297
  0
ARC
  8
02___PRT_ALL_AXES
 62
7
  6
CONTINUOUS
 10
86.9543389104
 20
146.1484375594
 40
0.75
 50
270.0
 51
348.3537258455
  0
ARC
  8
0
 62
7
  6
CONTINUOUS
 10
86.9543389104
 20
146.1484375594
 40
0.75
 50
342.1576314433
 51
348.5866311953
  0
ARC
  8
0
 62
7
  6
CONTINUOUS
 10
86.9543389104
 20
146.1484375594
 40
0.75
 50
350.5120565708
 51
352.0
  0
ARC
  8
0
 62
7
  6
CONTINUOUS
 10
80.1339423396
 20
146.1484375594
 40
0.75
 50
188.0
 51
270.0
  0
ARC
  8
0
 62
7
  6
CONTINUOUS
 10
91.6835739323
 20
147.1484375594
 40
0.25
 50
8.0
 51
90.0
  0
ARC
  8
0
 62
7
  6
CONTINUOUS
 10
78.9835739323
 20
147.1484375594
 40
0.25
 50
8.0
 51
90.0
  0
ARC
  8
0
 62
7
  6
CONTINUOUS
 10
88.1047073177
 20
147.1484375594
 40
0.25
 50
90.0
 51
172.0
  0
ARC
  8
0
 62
7
  6
CONTINUOUS
 10
134.0365485232
 20
141.6484375594
 40
0.25
 50
270.0
 51
8.0
  0
ARC
  8
0
 62
7
  6
CONTINUOUS
 10
108.6365485232
 20
141.6484375594
 40
0.25
 50
270.0
 51
8.0
  0
ARC
  8
0
 62
7
  6
CONTINUOUS
 10
121.9517327268
 20
141.6484375594
 40
0.25
 50
172.0
 51
270.0
  0
ARC
  8
0
 62
7
  6
CONTINUOUS
 10
96.5517327268
 20
141.6484375594
 40
0.25
 50
172.0
 51
270.0
  0
ARC
  8
0
 62
7
  6
CONTINUOUS
 10
172.094140625
 20
141.6484375594
 40
0.25
 50
270.0
 51
360.0
  0
ARC
  8
0
 62
7
  6
CONTINUOUS
 10
159.4365485232
 20
141.6484375594
 40
0.25
 50
270.0
 51
8.0
  0
ARC
  8
0
 62
7
  6
CONTINUOUS
 10
147.3517327268
 20
141.6484375594
 40
0.25
 50
172.0
 51
270.0
  0
ARC
  8
0
 62
7
  6
CONTINUOUS
 10
172.094140625
 20
143.6484375594
 40
0.25
 50
0.0
 51
90.0
  0
ARC
  8
0
 62
7
  6
CONTINUOUS
 10
118.4447535916
 20
144.6484375594
 40
0.75
 50
188.0
 51
270.0
  0
ARC
  8
0
 62
7
  6
CONTINUOUS
 10
112.1435276584
 20
144.6484375594
 40
0.75
 50
270.0
 51
352.0
  0
ARC
  8
0
 62
7
  6
CONTINUOUS
 10
133.5446556017
 20
145.1484375594
 40
0.25
 50
8.0
 51
90.0
  0
ARC
  8
02___PRT_ALL_AXES
 62
7
  6
CONTINUOUS
 10
120.8446556017
 20
145.1484375594
 40
0.25
 50
8.0
 51
90.0
  0
ARC
  8
0
 62
7
  6
CONTINUOUS
 10
108.1446556017
 20
145.1484375594
 40
0.25
 50
8.0
 51
90.0
  0
ARC
  8
0
 62
7
  6
CONTINUOUS
 10
122.4436256483
 20
145.1484375594
 40
0.25
 50
90.0
 51
172.0
  0
ARC
  8
02___PRT_ALL_AXES
 62
7
  6
CONTINUOUS
 10
109.7436256483
 20
145.1484375594
 40
0.25
 50
90.0
 51
172.0
  0
ARC
  8
0
 62
7
  6
CONTINUOUS
 10
97.0436256483
 20
145.1484375594
 40
0.25
 50
90.0
 51
172.0
  0
ARC
  8
02___PRT_ALL_AXES
 62
7
  6
CONTINUOUS
 10
112.3543389104
 20
146.1484375594
 40
0.75
 50
350.4136173744
 51
351.8595158867
  0
ARC
  8
0
 62
7
  6
CONTINUOUS
 10
99.6543389104
 20
146.1484375594
 40
0.75
 50
270.0
 51
352.0
  0
ARC
  8
02___PRT_ALL_AXES
 62
7
  6
CONTINUOUS
 10
112.3543389104
 20
146.1484375594
 40
0.75
 50
270.0
 51
348.3537258455
  0
ARC
  8
0
 62
7
  6
CONTINUOUS
 10
112.3543389104
 20
146.1484375594
 40
0.75
 50
342.1576314433
 51
348.5866311953
  0
ARC
  8
0
 62
7
  6
CONTINUOUS
 10
112.3543389104
 20
146.1484375594
 40
0.75
 50
350.5120565708
 51
352.0
  0
ARC
  8
0
 62
7
  6
CONTINUOUS
 10
105.5339423396
 20
146.1484375594
 40
0.75
 50
188.0
 51
270.0
  0
ARC
  8
0
 62
7
  6
CONTINUOUS
 10
104.3835739323
 20
147.1484375594
 40
0.25
 50
8.0
 51
90.0
  0
ARC
  8
0
 62
7
  6
CONTINUOUS
 10
113.5047073177
 20
147.1484375594
 40
0.25
 50
90.0
 51
172.0
  0
ARC
  8
0
 62
7
  6
CONTINUOUS
 10
100.8047073177
 20
147.1484375594
 40
0.25
 50
90.0
 51
172.0
  0
ARC
  8
02___PRT_ALL_AXES
 62
7
  6
CONTINUOUS
 10
118.2339423396
 20
146.1484375594
 40
0.75
 50
188.1323147645
 51
189.5863728998
  0
ARC
  8
0
 62
7
  6
CONTINUOUS
 10
125.0543389104
 20
146.1484375594
 40
0.75
 50
270.0
 51
352.0
  0
ARC
  8
02___PRT_ALL_AXES
 62
7
  6
CONTINUOUS
 10
118.2339423396
 20
146.1484375594
 40
0.75
 50
191.64628261
 51
270.0
  0
ARC
  8
0
 62
7
  6
CONTINUOUS
 10
118.2339423396
 20
146.1484375594
 40
0.75
 50
188.0
 51
188.1358099928
  0
ARC
  8
0
 62
7
  6
CONTINUOUS
 10
118.2339423396
 20
146.1484375594
 40
0.75
 50
191.7155649729
 51
198.0316972297
  0
ARC
  8
0
 62
7
  6
CONTINUOUS
 10
130.9339423396
 20
146.1484375594
 40
0.75
 50
188.0
 51
270.0
  0
ARC
  8
0
 62
7
  6
CONTINUOUS
 10
129.7835739323
 20
147.1484375594
 40
0.25
 50
8.0
 51
90.0
  0
ARC
  8
0
 62
7
  6
CONTINUOUS
 10
126.2047073177
 20
147.1484375594
 40
0.25
 50
90.0
 51
172.0
  0
ARC
  8
0
 62
7
  6
CONTINUOUS
 10
117.0835739323
 20
147.1484375594
 40
0.25
 50
8.0
 51
90.0
  0
ARC
  8
0
 62
7
  6
CONTINUOUS
 10
143.8447535916
 20
144.6484375594
 40
0.75
 50
188.0
 51
270.0
  0
ARC
  8
0
 62
7
  6
CONTINUOUS
 10
162.9435276584
 20
144.6484375594
 40
0.75
 50
270.0
 51
352.0
  0
ARC
  8
0
 62
7
  6
CONTINUOUS
 10
137.5435276584
 20
144.6484375594
 40
0.75
 50
270.0
 51
352.0
  0
ARC
  8
0
 62
7
  6
CONTINUOUS
 10
169.2447535916
 20
144.6484375594
 40
0.75
 50
188.0
 51
270.0
  0
ARC
  8
02___PRT_ALL_AXES
 62
7
  6
CONTINUOUS
 10
172.094140625
 20
145.1484375594
 40
0.25
 50
0.0
 51
90.0
  0
ARC
  8
0
 62
7
  6
CONTINUOUS
 10
158.9446556017
 20
145.1484375594
 40
0.25
 50
8.0
 51
90.0
  0
ARC
  8
02___PRT_ALL_AXES
 62
7
  6
CONTINUOUS
 10
160.5436256483
 20
145.1484375594
 40
0.25
 50
90.0
 51
172.0
  0
ARC
  8
02___PRT_ALL_AXES
 62
7
  6
CONTINUOUS
 10
146.2446556017
 20
145.1484375594
 40
0.25
 50
8.0
 51
90.0
  0
ARC
  8
0
 62
7
  6
CONTINUOUS
 10
147.8436256483
 20
145.1484375594
 40
0.25
 50
90.0
 51
172.0
  0
ARC
  8
02___PRT_ALL_AXES
 62
7
  6
CONTINUOUS
 10
135.1436256483
 20
145.1484375594
 40
0.25
 50
90.0
 51
172.0
  0
ARC
  8
02___PRT_ALL_AXES
 62
7
  6
CONTINUOUS
 10
137.7543389104
 20
146.1484375594
 40
0.75
 50
350.4136173744
 51
351.8595158875
  0
ARC
  8
02___PRT_ALL_AXES
 62
7
  6
CONTINUOUS
 10
143.6339423396
 20
146.1484375594
 40
0.75
 50
188.132314765
 51
189.5863728998
  0
ARC
  8
0
 62
7
  6
CONTINUOUS
 10
150.4543389104
 20
146.1484375594
 40
0.75
 50
270.0
 51
352.0
  0
ARC
  8
02___PRT_ALL_AXES
 62
7
  6
CONTINUOUS
 10
143.6339423396
 20
146.1484375594
 40
0.75
 50
191.64628261
 51
270.0
  0
ARC
  8
0
 62
7
  6
CONTINUOUS
 10
143.6339423396
 20
146.1484375594
 40
0.75
 50
188.0
 51
188.1358099934
  0
ARC
  8
0
 62
7
  6
CONTINUOUS
 10
143.6339423396
 20
146.1484375594
 40
0.75
 50
191.7155649729
 51
198.0316972297
  0
ARC
  8
02___PRT_ALL_AXES
 62
7
  6
CONTINUOUS
 10
137.7543389104
 20
146.1484375594
 40
0.75
 50
270.0
 51
348.3537258455
  0
ARC
  8
0
 62
7
  6
CONTINUOUS
 10
137.7543389104
 20
146.1484375594
 40
0.75
 50
342.1576314433
 51
348.5866311953
  0
ARC
  8
0
 62
7
  6
CONTINUOUS
 10
137.7543389104
 20
146.1484375594
 40
0.75
 50
350.5120565708
 51
352.0
  0
ARC
  8
0
 62
7
  6
CONTINUOUS
 10
151.6047073177
 20
147.1484375594
 40
0.25
 50
90.0
 51
172.0
  0
ARC
  8
0
 62
7
  6
CONTINUOUS
 10
142.4835739323
 20
147.1484375594
 40
0.25
 50
8.0
 51
90.0
  0
ARC
  8
0
 62
7
  6
CONTINUOUS
 10
138.9047073177
 20
147.1484375594
 40
0.25
 50
90.0
 51
172.0
  0
ARC
  8
02___PRT_ALL_AXES
 62
7
  6
CONTINUOUS
 10
169.0339423396
 20
146.1484375594
 40
0.75
 50
188.132314761
 51
189.5863728998
  0
ARC
  8
02___PRT_ALL_AXES
 62
7
  6
CONTINUOUS
 10
163.1543389104
 20
146.1484375594
 40
0.75
 50
350.4136173744
 51
351.8595158873
  0
ARC
  8
02___PRT_ALL_AXES
 62
7
  6
CONTINUOUS
 10
163.1543389104
 20
146.1484375594
 40
0.75
 50
270.0
 51
348.3537258455
  0
ARC
  8
0
 62
7
  6
CONTINUOUS
 10
163.1543389104
 20
146.1484375594
 40
0.75
 50
342.1576314433
 51
348.5866311953
  0
ARC
  8
0
 62
7
  6
CONTINUOUS
 10
163.1543389104
 20
146.1484375594
 40
0.75
 50
350.5120565708
 51
352.0
  0
ARC
  8
0
 62
7
  6
CONTINUOUS
 10
156.3339423396
 20
146.1484375594
 40
0.75
 50
188.0
 51
270.0
  0
ARC
  8
02___PRT_ALL_AXES
 62
7
  6
CONTINUOUS
 10
169.0339423396
 20
146.1484375594
 40
0.75
 50
191.64628261
 51
270.0
  0
ARC
  8
0
 62
7
  6
CONTINUOUS
 10
169.0339423396
 20
146.1484375594
 40
0.75
 50
188.0
 51
188.1358099893
  0
ARC
  8
0
 62
7
  6
CONTINUOUS
 10
169.0339423396
 20
146.1484375594
 40
0.75
 50
191.7155649729
 51
198.0316972297
  0
ARC
  8
0
 62
7
  6
CONTINUOUS
 10
167.8835739323
 20
147.1484375594
 40
0.25
 50
8.0
 51
90.0
  0
ARC
  8
0
 62
7
  6
CONTINUOUS
 10
155.1835739323
 20
147.1484375594
 40
0.25
 50
8.0
 51
90.0
  0
ARC
  8
0
 62
7
  6
CONTINUOUS
 10
164.3047073177
 20
147.1484375594
 40
0.25
 50
90.0
 51
172.0
  0
ENDSEC
  0
EOF
