  0
SECTION
  2
HEADER
  9
$EXTMAX
 10
210.0
 20
297.0
 30
0.0
  9
$EXTMIN
 10
0.0
 20
0.0
 30
0.0
  9
$LIMMIN
 10
0.0
 20
0.0
  9
$LIMMAX
 10
210.0
 20
297.0
  9
$VIEWCTR
 10
105.0
 20
148.5
  9
$VIEWSIZE
 40
297.0
  9
$CLAYER
  8
0
  9
$LTSCALE
 40
19.36
  9
$CELTYPE
  6
BYLAYER
  9
$DIMSCALE
 40
1.0
  9
$DIMASZ
 40
3.5
  9
$DIMEXO
 40
2.2
  9
$DIMDLI
 40
13.376
  9
$DIMEXE
 40
6.336
  9
$DIMCEN
 40
3.168
  9
$DIMLFAC
 40
1.0
  9
$DIMBLK
  1
_FILLED
  9
$DIMTXT
 40
3.5
  9
$PDMODE
 70
3
  9
$PDSIZE
 40
0.3125
  9
$TILEMODE
 70
1
  0
ENDSEC
  0
SECTION
  2
TABLES
  0
TABLE
  2
LTYPE
 70
6
  0
LTYPE
  2
BYBLOCK
 70
0
  3

 72
65
 73
0
 40
0.0
  0
LTYPE
  2
BYLAYER
 70
0
  3

 72
65
 73
0
 40
0.0
  0
LTYPE
  2
CONTINUOUS
 70
64
  3
Solid line
 72
65
 73
0
 40
0.0
  0
LTYPE
  2
CENTER
 70
64
  3
____ _ ____ _ ____ _ ____ _ ____ _ ____ _ ____
 72
65
 73
4
 40
0.6
 49
0.375
 49
-0.075
 49
0.075
 49
-0.075
  0
LTYPE
  2
HIDDEN
 70
64
  3
- - - - - - - - - - - - - - - - - - - -
 72
65
 73
2
 40
0.2
 49
0.1
 49
-0.1
  0
LTYPE
  2
PHANTOM
 70
64
  3
_____ _ _ _____ _ _ _____ _ _ _____
 72
65
 73
6
 40
0.8
 49
0.45
 49
-0.05
 49
0.1
 49
-0.05
 49
0.1
 49
-0.05
  0
LTYPE
  2
DOT
 70
64
  3
. . . . . . . . . . . . . . . . . . . .
 72
65
 73
2
 40
0.2
 49
0.1
 49
-0.1
  0
LTYPE
  2
DASHED
 70
64
  3
- - - - - - - - - - - - - - - - - - - -
 72
65
 73
2
 40
0.2
 49
0.1
 49
-0.1
  0
ENDTAB
  0
TABLE
  2
LAYER
 70
36
  0
LAYER
  2
0
 70
0
 62
7
  6
CONTINUOUS
  0
LAYER
  2
DEFAULT_1
 70
0
 62
7
  6
CENTER
  0
LAYER
  2
DEFAULT_2
 70
0
 62
8
  6
HIDDEN
  0
LAYER
  2
DEFAULT_3
 70
0
 62
7
  6
PHANTOM
  0
LAYER
  2
3_ALL_SYMBOLS
 70
0
 62
7
  6
CONTINUOUS
  0
LAYER
  2
BLANK_PLAN
 70
0
 62
7
  6
CONTINUOUS
  0
LAYER
  2
NOTES
 70
0
 62
7
  6
CONTINUOUS
  0
ENDTAB
  0
TABLE
  2
STYLE
 70
1
  0
STYLE
  2
STANDARD
 70
0
 40
0.0
 41
0.8
 50
0.0
 71
0
 42
0.2
  3
txt
  4

  0
STYLE
  2
TEXTSTYLE_1
 70
0
 40
0.0
 41
0.8
 50
0.0
 71
0
 42
0.2
  3
gdt
  4

  0
STYLE
  2
TEXTSTYLE_2
 70
0
 40
0.0
 41
0.6
 50
0.0
 71
0
 42
0.2
  3
txt
  4

  0
STYLE
  2
TEXTSTYLE_3
 70
0
 40
0.0
 41
1.0
 50
0.0
 71
0
 42
0.2
  3
ftb_____.ttf
  4

  0
STYLE
  2
TEXTSTYLE_4
 70
0
 40
0.0
 41
1.0
 50
0.0
 71
0
 42
0.2
  3
fti_____.ttf
  4

  0
STYLE
  2
TEXTSTYLE_5
 70
0
 40
0.0
 41
1.0
 50
0.0
 71
0
 42
0.2
  3
frutiger light.ttf
  4

  0
STYLE
  2
TEXTSTYLE_6
 70
0
 40
0.0
 41
0.7
 50
0.0
 71
0
 42
0.2
  3
txt
  4

  0
STYLE
  2
TEXTSTYLE_7
 70
0
 40
0.0
 41
0.7
 50
0.0
 71
0
 42
0.2
  3
txt
  4

  0
ENDTAB
  0
ENDSEC
  0
SECTION
  2
BLOCKS
  0
BLOCK
  8
0
 62
2
  6
CONTINUOUS
  2
SYMBOL_8_BL1
 70
64
 10
173.5956734183
 20
35.5937998301
  0
TEXT
  8
0
 62
7
  6
CONTINUOUS
 10
164.6539584268
 20
30.6865562072
  7
TEXTSTYLE_4
 40
1.0655737705
  1
The brand for plastic modular belts and chains
 41
1.0
 72
0
  0
LINE
  8
0
 62
7
  6
CONTINUOUS
 10
149.5737418074
 20
36.1675703219
 11
149.5737418074
 21
34.0364227809
  0
LINE
  8
0
 62
7
  6
CONTINUOUS
 10
149.8628043005
 20
31.0454914852
 11
149.8628043005
 21
31.1422825445
  0
LINE
  8
0
 62
7
  6
CONTINUOUS
 10
149.5737418074
 20
31.1100188581
 11
149.6315543091
 21
30.9164367395
  0
LINE
  8
0
 62
7
  6
CONTINUOUS
 10
150.9671844304
 20
33.9544555678
 11
150.9671844304
 21
36.1675703219
  0
LINE
  8
0
 62
7
  6
CONTINUOUS
 10
151.8862417523
 20
32.1101932727
 11
151.8862417523
 21
30.5937998301
  0
LINE
  8
0
 62
7
  6
CONTINUOUS
 10
152.1753043074
 20
30.5937998301
 11
152.1753043074
 21
31.3358647082
  0
LINE
  8
0
 62
7
  6
CONTINUOUS
 10
152.1753043074
 20
31.4649194539
 11
152.1753043074
 21
32.1101932727
  0
LINE
  8
0
 62
7
  6
CONTINUOUS
 10
149.6315543091
 20
31.3036010218
 11
149.5737418074
 21
31.1100188581
  0
LINE
  8
0
 62
7
  6
CONTINUOUS
 10
149.9784292936
 20
30.8841730531
 11
149.8628043005
 21
31.0454914852
  0
LINE
  8
0
 62
7
  6
CONTINUOUS
 10
151.0768668626
 20
31.400392081
 11
151.1346793074
 21
31.3036010218
  0
LINE
  8
0
 62
7
  6
CONTINUOUS
 10
151.4237418626
 20
31.3036010218
 11
151.3659292523
 21
31.4326557675
  0
LINE
  8
0
 62
7
  6
CONTINUOUS
 10
152.852430332
 20
36.1675703219
 11
152.852430332
 21
34.3642916334
  0
LINE
  8
0
 62
7
  6
CONTINUOUS
 10
152.852430332
 20
33.0528162235
 11
152.852430332
 21
32.3970785186
  0
LINE
  8
0
 62
7
  6
CONTINUOUS
 10
153.2159293074
 20
31.2390736489
 11
153.2159293074
 21
30.5937998301
  0
LINE
  8
0
 62
7
  6
CONTINUOUS
 10
153.5049916972
 20
30.5937998301
 11
153.5049916972
 21
31.2390736489
  0
LINE
  8
0
 62
7
  6
CONTINUOUS
 10
149.8628043005
 20
31.1422825445
 11
149.9206168074
 21
31.2713373354
  0
LINE
  8
0
 62
7
  6
CONTINUOUS
 10
149.6315543091
 20
30.9164367395
 11
149.7471793074
 21
30.7873819712
  0
LINE
  8
0
 62
7
  6
CONTINUOUS
 10
153.1581166972
 20
31.3681283946
 11
153.2159293074
 21
31.2390736489
  0
LINE
  8
0
 62
7
  6
CONTINUOUS
 10
153.9674919177
 20
30.8841730531
 11
154.0253041972
 21
30.7551182848
  0
LINE
  8
0
 62
7
  6
CONTINUOUS
 10
153.5049916972
 20
31.2390736489
 11
153.4471794177
 21
31.400392081
  0
LINE
  8
0
 62
7
  6
CONTINUOUS
 10
153.9674919177
 20
31.4326557675
 11
153.9674919177
 21
31.3681283946
  0
LINE
  8
0
 62
7
  6
CONTINUOUS
 10
153.9674919177
 20
30.9809641124
 11
153.9674919177
 21
30.8841730531
  0
LINE
  8
0
 62
7
  6
CONTINUOUS
 10
154.245872955
 20
32.3970785186
 11
154.245872955
 21
36.1675703219
  0
LINE
  8
0
 62
7
  6
CONTINUOUS
 10
154.2565543074
 20
30.8519093441
 11
154.2565543074
 21
30.9164367395
  0
LINE
  8
0
 62
7
  6
CONTINUOUS
 10
154.5737418074
 20
36.1675703219
 11
154.5737418074
 21
32.3970785186
  0
LINE
  8
0
 62
7
  6
CONTINUOUS
 10
151.3659292523
 20
30.7873819712
 11
151.4237418626
 21
30.9164367395
  0
LINE
  8
0
 62
7
  6
CONTINUOUS
 10
155.759679528
 20
30.6905909007
 11
155.7018665869
 21
30.8519093441
  0
LINE
  8
0
 62
7
  6
CONTINUOUS
 10
155.412804528
 20
31.3681283946
 11
155.412804528
 21
31.2713373354
  0
LINE
  8
0
 62
7
  6
CONTINUOUS
 10
155.412804528
 20
31.1422825445
 11
155.412804528
 21
30.9487004259
  0
LINE
  8
0
 62
7
  6
CONTINUOUS
 10
155.7018665869
 20
30.8519093441
 11
155.7018665869
 21
31.3681283946
  0
LINE
  8
0
 62
7
  6
CONTINUOUS
 10
155.9671844304
 20
32.3970785186
 11
155.9671844304
 21
34.2003572071
  0
LINE
  8
0
 62
7
  6
CONTINUOUS
 10
155.9671844304
 20
35.511832617
 11
155.9671844304
 21
36.1675703219
  0
LINE
  8
0
 62
7
  6
CONTINUOUS
 10
156.279992028
 20
32.1101932727
 11
156.279992028
 21
31.9488748406
  0
LINE
  8
0
 62
7
  6
CONTINUOUS
 10
156.279992028
 20
31.626237886
 11
156.279992028
 21
30.5937998301
  0
LINE
  8
0
 62
7
  6
CONTINUOUS
 10
156.5690540869
 20
30.5937998301
 11
156.5690540869
 21
31.626237886
  0
LINE
  8
0
 62
7
  6
CONTINUOUS
 10
156.5690540869
 20
31.9488748406
 11
156.5690540869
 21
32.1101932727
  0
LINE
  8
0
 62
7
  6
CONTINUOUS
 10
151.1346793074
 20
30.9164367395
 11
151.0768668626
 21
30.8196456577
  0
LINE
  8
0
 62
7
  6
CONTINUOUS
 10
153.4471794177
 20
31.400392081
 11
153.3893668074
 21
31.4649194539
  0
LINE
  8
0
 62
7
  6
CONTINUOUS
 10
154.3143669177
 20
30.7873819712
 11
154.2565543074
 21
30.8519093441
  0
LINE
  8
0
 62
7
  6
CONTINUOUS
 10
155.4706168074
 20
30.6583272086
 11
155.5284290869
 21
30.5937998301
  0
LINE
  8
0
 62
7
  6
CONTINUOUS
 10
155.412804528
 20
30.7551182848
 11
155.4706168074
 21
30.6583272086
  0
LINE
  8
0
 62
7
  6
CONTINUOUS
 10
155.8174918074
 20
30.5937998301
 11
155.759679528
 21
30.6905909007
  0
LINE
  8
0
 62
7
  6
CONTINUOUS
 10
155.7018665869
 20
31.3681283946
 11
155.6440543074
 21
31.4649194539
  0
LINE
  8
0
 62
7
  6
CONTINUOUS
 10
157.0315543074
 20
31.626237886
 11
157.0315543074
 21
30.5937998301
  0
LINE
  8
0
 62
7
  6
CONTINUOUS
 10
157.320617028
 20
30.5937998301
 11
157.320617028
 21
31.3358647082
  0
LINE
  8
0
 62
7
  6
CONTINUOUS
 10
157.320617028
 20
31.4649194539
 11
157.320617028
 21
31.626237886
  0
LINE
  8
0
 62
7
  6
CONTINUOUS
 10
157.852430332
 20
34.6101932727
 11
157.852430332
 21
32.3970785186
  0
LINE
  8
0
 62
7
  6
CONTINUOUS
 10
149.7471793074
 20
31.4326557675
 11
149.6315543091
 21
31.3036010218
  0
LINE
  8
0
 62
7
  6
CONTINUOUS
 10
149.9206168074
 20
31.2713373354
 11
149.9784292936
 21
31.3358647082
  0
LINE
  8
0
 62
7
  6
CONTINUOUS
 10
149.7471793074
 20
30.7873819712
 11
149.8628043005
 21
30.7228545871
  0
LINE
  8
0
 62
7
  6
CONTINUOUS
 10
150.1518667936
 20
30.7873819712
 11
149.9784292936
 21
30.8841730531
  0
LINE
  8
0
 62
7
  6
CONTINUOUS
 10
155.3549915869
 20
31.4326557675
 11
155.412804528
 21
31.3681283946
  0
LINE
  8
0
 62
7
  6
CONTINUOUS
 10
158.3034290869
 20
31.3681283946
 11
158.361242028
 21
31.2068099625
  0
LINE
  8
0
 62
7
  6
CONTINUOUS
 10
158.6503040869
 20
31.2068099625
 11
158.5924918074
 21
31.3681283946
  0
LINE
  8
0
 62
7
  6
CONTINUOUS
 10
158.361242028
 20
31.2068099625
 11
158.361242028
 21
30.5937998301
  0
LINE
  8
0
 62
7
  6
CONTINUOUS
 10
158.6503040869
 20
30.5937998301
 11
158.6503040869
 21
31.2068099625
  0
LINE
  8
0
 62
7
  6
CONTINUOUS
 10
159.1128043074
 20
31.4326557675
 11
159.1128043074
 21
31.3681283946
  0
LINE
  8
0
 62
7
  6
CONTINUOUS
 10
159.245872955
 20
32.3970785186
 11
159.245872955
 21
34.5282260596
  0
LINE
  8
0
 62
7
  6
CONTINUOUS
 10
159.5737418074
 20
36.1675703219
 11
159.5737418074
 21
32.3970785186
  0
LINE
  8
0
 62
7
  6
CONTINUOUS
 10
154.2565543074
 20
30.9164367395
 11
154.3143669177
 21
31.0132277988
  0
LINE
  8
0
 62
7
  6
CONTINUOUS
 10
149.8628043005
 20
30.7228545871
 11
150.0362418212
 21
30.6583272086
  0
LINE
  8
0
 62
7
  6
CONTINUOUS
 10
151.3659292523
 20
31.4326557675
 11
151.1924917523
 21
31.5294468267
  0
LINE
  8
0
 62
7
  6
CONTINUOUS
 10
154.0253041972
 20
30.7551182848
 11
154.1987416972
 21
30.6583272086
  0
LINE
  8
0
 62
7
  6
CONTINUOUS
 10
153.0424918074
 20
31.4326557675
 11
153.1581166972
 21
31.3681283946
  0
LINE
  8
0
 62
7
  6
CONTINUOUS
 10
153.3893668074
 20
31.4649194539
 11
153.2737419177
 21
31.5294468267
  0
LINE
  8
0
 62
7
  6
CONTINUOUS
 10
159.1128043074
 20
30.8519093441
 11
159.228429528
 21
30.7228545871
  0
LINE
  8
0
 62
7
  6
CONTINUOUS
 10
159.4596793074
 20
30.7873819712
 11
159.401867028
 21
30.8519093441
  0
LINE
  8
0
 62
7
  6
CONTINUOUS
 10
159.1128043074
 20
31.3681283946
 11
159.228429528
 21
31.2390736489
  0
LINE
  8
0
 62
7
  6
CONTINUOUS
 10
158.5924918074
 20
31.3681283946
 11
158.534679528
 21
31.4649194539
  0
LINE
  8
0
 62
7
  6
CONTINUOUS
 10
160.9628038663
 20
30.7873819712
 11
160.9628038663
 21
30.8519093441
  0
LINE
  8
0
 62
7
  6
CONTINUOUS
 10
160.9671844304
 20
32.3970785186
 11
160.9671844304
 21
36.1675703219
  0
LINE
  8
0
 62
7
  6
CONTINUOUS
 10
154.0253041972
 20
31.4971831403
 11
153.9674919177
 21
31.4326557675
  0
LINE
  8
0
 62
7
  6
CONTINUOUS
 10
150.9034292799
 20
31.4649194539
 11
151.0768668626
 21
31.400392081
  0
LINE
  8
0
 62
7
  6
CONTINUOUS
 10
155.6440543074
 20
31.4649194539
 11
155.5284290869
 21
31.5294468267
  0
LINE
  8
0
 62
7
  6
CONTINUOUS
 10
159.4596793074
 20
31.3036010218
 11
159.401867028
 21
31.3681283946
  0
LINE
  8
0
 62
7
  6
CONTINUOUS
 10
160.615929528
 20
30.9164367395
 11
160.6737418074
 21
30.8519093441
  0
LINE
  8
0
 62
7
  6
CONTINUOUS
 10
160.9628038663
 20
30.8519093441
 11
160.8471793074
 21
30.9809641124
  0
LINE
  8
0
 62
7
  6
CONTINUOUS
 10
160.615929528
 20
31.4326557675
 11
160.6737418074
 21
31.3681283946
  0
LINE
  8
0
 62
7
  6
CONTINUOUS
 10
160.9628038663
 20
31.3681283946
 11
160.8471793074
 21
31.4971831403
  0
LINE
  8
0
 62
7
  6
CONTINUOUS
 10
154.2565543074
 20
31.3681283946
 11
154.3143669177
 21
31.4326557675
  0
LINE
  8
0
 62
7
  6
CONTINUOUS
 10
154.0831168074
 20
31.1100188581
 11
153.9674919177
 21
30.9809641124
  0
LINE
  8
0
 62
7
  6
CONTINUOUS
 10
155.412804528
 20
30.9487004259
 11
155.3549915869
 21
30.8841730531
  0
LINE
  8
0
 62
7
  6
CONTINUOUS
 10
155.3549915869
 20
30.6905909007
 11
155.412804528
 21
30.7551182848
  0
LINE
  8
0
 62
7
  6
CONTINUOUS
 10
154.1987416972
 20
30.6583272086
 11
154.3143669177
 21
30.6260635193
  0
LINE
  8
0
 62
7
  6
CONTINUOUS
 10
151.1924917523
 20
31.5294468267
 11
150.9612418074
 21
31.5939741996
  0
LINE
  8
0
 62
7
  6
CONTINUOUS
 10
154.5456166972
 20
30.7228545871
 11
154.3143669177
 21
30.7873819712
  0
LINE
  8
0
 62
7
  6
CONTINUOUS
 10
153.2737419177
 20
31.5294468267
 11
153.1003044177
 21
31.5939741996
  0
LINE
  8
0
 62
7
  6
CONTINUOUS
 10
155.5284290869
 20
31.5294468267
 11
155.3549915869
 21
31.5939741996
  0
LINE
  8
0
 62
7
  6
CONTINUOUS
 10
158.187804528
 20
31.4326557675
 11
158.3034290869
 21
31.3681283946
  0
LINE
  8
0
 62
7
  6
CONTINUOUS
 10
158.534679528
 20
31.4649194539
 11
158.4190543074
 21
31.5294468267
  0
LINE
  8
0
 62
7
  6
CONTINUOUS
 10
150.0362418212
 20
30.6583272086
 11
150.2096793212
 21
30.6260635193
  0
LINE
  8
0
 62
7
  6
CONTINUOUS
 10
150.498741835
 20
30.7228545871
 11
150.1518667936
 21
30.7873819712
  0
LINE
  8
0
 62
7
  6
CONTINUOUS
 10
152.9268669177
 20
31.4649194539
 11
153.0424918074
 21
31.4326557675
  0
LINE
  8
0
 62
7
  6
CONTINUOUS
 10
155.239367028
 20
31.4649194539
 11
155.3549915869
 21
31.4326557675
  0
LINE
  8
0
 62
7
  6
CONTINUOUS
 10
159.575304528
 20
30.7551182848
 11
159.4596793074
 21
30.7873819712
  0
LINE
  8
0
 62
7
  6
CONTINUOUS
 10
158.0721793074
 20
31.4649194539
 11
158.187804528
 21
31.4326557675
  0
LINE
  8
0
 62
7
  6
CONTINUOUS
 10
159.228429528
 20
30.7228545871
 11
159.401867028
 21
30.6583272086
  0
LINE
  8
0
 62
7
  6
CONTINUOUS
 10
158.4190543074
 20
31.5294468267
 11
158.2456168074
 21
31.5939741996
  0
LINE
  8
0
 62
7
  6
CONTINUOUS
 10
159.6331168074
 20
31.2390736489
 11
159.4596793074
 21
31.3036010218
  0
LINE
  8
0
 62
7
  6
CONTINUOUS
 10
160.442492028
 20
30.9809641124
 11
160.615929528
 21
30.9164367395
  0
LINE
  8
0
 62
7
  6
CONTINUOUS
 10
160.8471793074
 20
31.4971831403
 11
160.6737418074
 21
31.5617105132
  0
LINE
  8
0
 62
7
  6
CONTINUOUS
 10
159.228429528
 20
31.2390736489
 11
159.4596793074
 21
31.1422825445
  0
LINE
  8
0
 62
7
  6
CONTINUOUS
 10
160.8471793074
 20
30.9809641124
 11
160.615929528
 21
31.0777551716
  0
LINE
  8
0
 62
7
  6
CONTINUOUS
 10
159.401867028
 20
31.3681283946
 11
159.4596793074
 21
31.4326557675
  0
LINE
  8
0
 62
7
  6
CONTINUOUS
 10
149.8628043005
 20
31.4971831403
 11
149.7471793074
 21
31.4326557675
  0
LINE
  8
0
 62
7
  6
CONTINUOUS
 10
149.9784292936
 20
31.3358647082
 11
150.1518667936
 21
31.4326557675
  0
LINE
  8
0
 62
7
  6
CONTINUOUS
 10
152.2909293626
 20
31.5294468267
 11
152.1753043074
 21
31.4649194539
  0
LINE
  8
0
 62
7
  6
CONTINUOUS
 10
152.1753043074
 20
31.3358647082
 11
152.2909293626
 21
31.400392081
  0
LINE
  8
0
 62
7
  6
CONTINUOUS
 10
151.1924917523
 20
30.6905909007
 11
151.3659292523
 21
30.7873819712
  0
LINE
  8
0
 62
7
  6
CONTINUOUS
 10
150.2096793212
 20
30.6260635193
 11
150.5565542799
 21
30.5937998301
  0
LINE
  8
0
 62
7
  6
CONTINUOUS
 10
154.3143669177
 20
30.6260635193
 11
154.5456166972
 21
30.5937998301
  0
LINE
  8
0
 62
7
  6
CONTINUOUS
 10
152.6956168074
 20
31.4971831403
 11
152.9268669177
 21
31.4649194539
  0
LINE
  8
0
 62
7
  6
CONTINUOUS
 10
155.0081169177
 20
31.4971831403
 11
155.239367028
 21
31.4649194539
  0
LINE
  8
0
 62
7
  6
CONTINUOUS
 10
159.4596793074
 20
31.1422825445
 11
160.442492028
 21
30.9809641124
  0
LINE
  8
0
 62
7
  6
CONTINUOUS
 10
160.615929528
 20
31.0777551716
 11
159.6331168074
 21
31.2390736489
  0
LINE
  8
0
 62
7
  6
CONTINUOUS
 10
153.1003044177
 20
31.5939741996
 11
152.9268669177
 21
31.626237886
  0
LINE
  8
0
 62
7
  6
CONTINUOUS
 10
159.401867028
 20
30.6583272086
 11
159.575304528
 21
30.6260635193
  0
LINE
  8
0
 62
7
  6
CONTINUOUS
 10
158.2456168074
 20
31.5939741996
 11
158.0721793074
 21
31.626237886
  0
LINE
  8
0
 62
7
  6
CONTINUOUS
 10
160.5003043074
 20
31.4649194539
 11
160.615929528
 21
31.4326557675
  0
LINE
  8
0
 62
7
  6
CONTINUOUS
 10
160.6737418074
 20
30.8519093441
 11
160.615929528
 21
30.7873819712
  0
LINE
  8
0
 62
7
  6
CONTINUOUS
 10
159.228429528
 20
31.5294468267
 11
159.1128043074
 21
31.4326557675
  0
LINE
  8
0
 62
7
  6
CONTINUOUS
 10
154.1409294177
 20
31.5617105132
 11
154.0253041972
 21
31.4971831403
  0
LINE
  8
0
 62
7
  6
CONTINUOUS
 10
154.1987416972
 20
31.1745462761
 11
154.0831168074
 21
31.1100188581
  0
LINE
  8
0
 62
7
  6
CONTINUOUS
 10
154.3143669177
 20
31.0132277988
 11
154.4299918074
 21
31.0777551716
  0
LINE
  8
0
 62
7
  6
CONTINUOUS
 10
151.8862417523
 20
30.5937998301
 11
152.1753043074
 21
30.5937998301
  0
LINE
  8
0
 62
7
  6
CONTINUOUS
 10
153.2159293074
 20
30.5937998301
 11
153.5049916972
 21
30.5937998301
  0
LINE
  8
0
 62
7
  6
CONTINUOUS
 10
154.5456166972
 20
30.5937998301
 11
154.8924916972
 21
30.5937998301
  0
LINE
  8
0
 62
7
  6
CONTINUOUS
 10
155.5284290869
 20
30.5937998301
 11
155.8174918074
 21
30.5937998301
  0
LINE
  8
0
 62
7
  6
CONTINUOUS
 10
156.279992028
 20
30.5937998301
 11
156.5690540869
 21
30.5937998301
  0
LINE
  8
0
 62
7
  6
CONTINUOUS
 10
157.0315543074
 20
30.5937998301
 11
157.320617028
 21
30.5937998301
  0
LINE
  8
0
 62
7
  6
CONTINUOUS
 10
158.361242028
 20
30.5937998301
 11
158.6503040869
 21
30.5937998301
  0
LINE
  8
0
 62
7
  6
CONTINUOUS
 10
159.922179528
 20
30.5937998301
 11
160.269054528
 21
30.5937998301
  0
LINE
  8
0
 62
7
  6
CONTINUOUS
 10
160.269054528
 20
30.7228545871
 11
159.922179528
 21
30.7228545871
  0
LINE
  8
0
 62
7
  6
CONTINUOUS
 10
154.8924916972
 20
30.7228545871
 11
154.5456166972
 21
30.7228545871
  0
LINE
  8
0
 62
7
  6
CONTINUOUS
 10
159.401867028
 20
30.8519093441
 11
159.1128043074
 21
30.8519093441
  0
LINE
  8
0
 62
7
  6
CONTINUOUS
 10
151.4237418626
 20
30.9164367395
 11
151.1346793074
 21
30.9164367395
  0
LINE
  8
0
 62
7
  6
CONTINUOUS
 10
150.498741835
 20
31.4971831403
 11
150.9034292799
 21
31.4649194539
  0
LINE
  8
0
 62
7
  6
CONTINUOUS
 10
150.9612418074
 20
31.5939741996
 11
150.5565542799
 21
31.626237886
  0
LINE
  8
0
 62
7
  6
CONTINUOUS
 10
159.575304528
 20
30.6260635193
 11
159.922179528
 21
30.5937998301
  0
LINE
  8
0
 62
7
  6
CONTINUOUS
 10
159.922179528
 20
30.7228545871
 11
159.575304528
 21
30.7551182848
  0
LINE
  8
0
 62
7
  6
CONTINUOUS
 10
155.3549915869
 20
31.5939741996
 11
155.0081169177
 21
31.626237886
  0
LINE
  8
0
 62
7
  6
CONTINUOUS
 10
160.1534293074
 20
31.4971831403
 11
160.5003043074
 21
31.4649194539
  0
LINE
  8
0
 62
7
  6
CONTINUOUS
 10
160.5003043074
 20
31.5939741996
 11
160.1534293074
 21
31.626237886
  0
LINE
  8
0
 62
7
  6
CONTINUOUS
 10
157.840929528
 20
31.4971831403
 11
158.0721793074
 21
31.4649194539
  0
LINE
  8
0
 62
7
  6
CONTINUOUS
 10
160.6737418074
 20
31.5617105132
 11
160.5003043074
 21
31.5939741996
  0
LINE
  8
0
 62
7
  6
CONTINUOUS
 10
160.8471793074
 20
30.6905909007
 11
160.9628038663
 21
30.7873819712
  0
LINE
  8
0
 62
7
  6
CONTINUOUS
 10
155.3549915869
 20
30.8841730531
 11
155.1815540869
 21
30.7873819712
  0
LINE
  8
0
 62
7
  6
CONTINUOUS
 10
157.4362415869
 20
31.5294468267
 11
157.320617028
 21
31.4649194539
  0
LINE
  8
0
 62
7
  6
CONTINUOUS
 10
157.320617028
 20
31.3358647082
 11
157.4362415869
 21
31.400392081
  0
LINE
  8
0
 62
7
  6
CONTINUOUS
 10
150.0362418212
 20
31.5617105132
 11
149.8628043005
 21
31.4971831403
  0
LINE
  8
0
 62
7
  6
CONTINUOUS
 10
152.4643666972
 20
31.5939741996
 11
152.2909293626
 21
31.5294468267
  0
LINE
  8
0
 62
7
  6
CONTINUOUS
 10
152.2909293626
 20
31.400392081
 11
152.4643666972
 21
31.4649194539
  0
LINE
  8
0
 62
7
  6
CONTINUOUS
 10
151.0768668626
 20
30.8196456577
 11
150.9034292799
 21
30.7551182848
  0
LINE
  8
0
 62
7
  6
CONTINUOUS
 10
160.5003043074
 20
30.7551182848
 11
160.269054528
 21
30.7228545871
  0
LINE
  8
0
 62
7
  6
CONTINUOUS
 10
154.8924916972
 20
30.5937998301
 11
155.1815540869
 21
30.6260635193
  0
LINE
  8
0
 62
7
  6
CONTINUOUS
 10
160.269054528
 20
30.5937998301
 11
160.615929528
 21
30.6260635193
  0
LINE
  8
0
 62
7
  6
CONTINUOUS
 10
150.5565542799
 20
30.5937998301
 11
150.9612418074
 21
30.6260635193
  0
LINE
  8
0
 62
7
  6
CONTINUOUS
 10
150.9034292799
 20
30.7551182848
 11
150.498741835
 21
30.7228545871
  0
LINE
  8
0
 62
7
  6
CONTINUOUS
 10
154.7768668074
 20
31.1422825445
 11
155.412804528
 21
31.1422825445
  0
LINE
  8
0
 62
7
  6
CONTINUOUS
 10
155.412804528
 20
31.2713373354
 11
154.7768668074
 21
31.2713373354
  0
LINE
  8
0
 62
7
  6
CONTINUOUS
 10
151.1346793074
 20
31.3036010218
 11
151.4237418626
 21
31.3036010218
  0
LINE
  8
0
 62
7
  6
CONTINUOUS
 10
153.9674919177
 20
31.3681283946
 11
154.2565543074
 21
31.3681283946
  0
LINE
  8
0
 62
7
  6
CONTINUOUS
 10
160.6737418074
 20
31.3681283946
 11
160.9628038663
 21
31.3681283946
  0
LINE
  8
0
 62
7
  6
CONTINUOUS
 10
154.6612419177
 20
31.4971831403
 11
155.0081169177
 21
31.4971831403
  0
LINE
  8
0
 62
7
  6
CONTINUOUS
 10
159.8065543074
 20
31.4971831403
 11
160.1534293074
 21
31.4971831403
  0
LINE
  8
0
 62
7
  6
CONTINUOUS
 10
160.1534293074
 20
31.626237886
 11
159.8065543074
 21
31.626237886
  0
LINE
  8
0
 62
7
  6
CONTINUOUS
 10
158.0721793074
 20
31.626237886
 11
157.840929528
 21
31.626237886
  0
LINE
  8
0
 62
7
  6
CONTINUOUS
 10
157.320617028
 20
31.626237886
 11
157.0315543074
 21
31.626237886
  0
LINE
  8
0
 62
7
  6
CONTINUOUS
 10
156.5690540869
 20
31.626237886
 11
156.279992028
 21
31.626237886
  0
LINE
  8
0
 62
7
  6
CONTINUOUS
 10
155.0081169177
 20
31.626237886
 11
154.6612419177
 21
31.626237886
  0
LINE
  8
0
 62
7
  6
CONTINUOUS
 10
152.9268669177
 20
31.626237886
 11
152.6956168074
 21
31.626237886
  0
LINE
  8
0
 62
7
  6
CONTINUOUS
 10
156.279992028
 20
31.9488748406
 11
156.5690540869
 21
31.9488748406
  0
LINE
  8
0
 62
7
  6
CONTINUOUS
 10
156.5690540869
 20
32.1101932727
 11
156.279992028
 21
32.1101932727
  0
LINE
  8
0
 62
7
  6
CONTINUOUS
 10
152.1753043074
 20
32.1101932727
 11
151.8862417523
 21
32.1101932727
  0
LINE
  8
0
 62
7
  6
CONTINUOUS
 10
151.2130860697
 20
32.3970785186
 11
151.6256574183
 21
32.3970785186
  0
LINE
  8
0
 62
7
  6
CONTINUOUS
 10
152.852430332
 20
32.3970785186
 11
154.245872955
 21
32.3970785186
  0
LINE
  8
0
 62
7
  6
CONTINUOUS
 10
154.5737418074
 20
32.3970785186
 11
155.9671844304
 21
32.3970785186
  0
LINE
  8
0
 62
7
  6
CONTINUOUS
 10
157.852430332
 20
32.3970785186
 11
159.245872955
 21
32.3970785186
  0
LINE
  8
0
 62
7
  6
CONTINUOUS
 10
159.5737418074
 20
32.3970785186
 11
160.9671844304
 21
32.3970785186
  0
LINE
  8
0
 62
7
  6
CONTINUOUS
 10
157.6096790869
 20
31.5939741996
 11
157.4362415869
 21
31.5294468267
  0
LINE
  8
0
 62
7
  6
CONTINUOUS
 10
155.1815540869
 20
30.6260635193
 11
155.3549915869
 21
30.6905909007
  0
LINE
  8
0
 62
7
  6
CONTINUOUS
 10
160.615929528
 20
30.6260635193
 11
160.8471793074
 21
30.6905909007
  0
LINE
  8
0
 62
7
  6
CONTINUOUS
 10
160.615929528
 20
30.7873819712
 11
160.5003043074
 21
30.7551182848
  0
LINE
  8
0
 62
7
  6
CONTINUOUS
 10
159.575304528
 20
31.4649194539
 11
159.8065543074
 21
31.4971831403
  0
LINE
  8
0
 62
7
  6
CONTINUOUS
 10
157.6096790869
 20
31.4649194539
 11
157.840929528
 21
31.4971831403
  0
LINE
  8
0
 62
7
  6
CONTINUOUS
 10
154.5456166972
 20
31.1100188581
 11
154.7768668074
 21
31.1422825445
  0
LINE
  8
0
 62
7
  6
CONTINUOUS
 10
157.840929528
 20
31.626237886
 11
157.6096790869
 21
31.5939741996
  0
LINE
  8
0
 62
7
  6
CONTINUOUS
 10
154.4299918074
 20
31.4649194539
 11
154.6612419177
 21
31.4971831403
  0
LINE
  8
0
 62
7
  6
CONTINUOUS
 10
159.8065543074
 20
31.626237886
 11
159.4596793074
 21
31.5939741996
  0
LINE
  8
0
 62
7
  6
CONTINUOUS
 10
154.7768668074
 20
31.2713373354
 11
154.4299918074
 21
31.2390736489
  0
LINE
  8
0
 62
7
  6
CONTINUOUS
 10
150.5565542799
 20
31.626237886
 11
150.2096793212
 21
31.5939741996
  0
LINE
  8
0
 62
7
  6
CONTINUOUS
 10
154.6612419177
 20
31.626237886
 11
154.2565543074
 21
31.5939741996
  0
LINE
  8
0
 62
7
  6
CONTINUOUS
 10
152.0327582009
 20
33.5446195022
 11
151.3770204959
 21
33.5446195022
  0
LINE
  8
0
 62
7
  6
CONTINUOUS
 10
157.4362415869
 20
31.400392081
 11
157.6096790869
 21
31.4649194539
  0
LINE
  8
0
 62
7
  6
CONTINUOUS
 10
159.4596793074
 20
31.4326557675
 11
159.575304528
 21
31.4649194539
  0
LINE
  8
0
 62
7
  6
CONTINUOUS
 10
159.4596793074
 20
31.5939741996
 11
159.228429528
 21
31.5294468267
  0
LINE
  8
0
 62
7
  6
CONTINUOUS
 10
155.1815540869
 20
30.7873819712
 11
154.8924916972
 21
30.7228545871
  0
LINE
  8
0
 62
7
  6
CONTINUOUS
 10
152.4643666972
 20
31.4649194539
 11
152.6956168074
 21
31.4971831403
  0
LINE
  8
0
 62
7
  6
CONTINUOUS
 10
152.6956168074
 20
31.626237886
 11
152.4643666972
 21
31.5939741996
  0
LINE
  8
0
 62
7
  6
CONTINUOUS
 10
150.2674918074
 20
31.4649194539
 11
150.498741835
 21
31.4971831403
  0
LINE
  8
0
 62
7
  6
CONTINUOUS
 10
156.7868565615
 20
35.0200293383
 11
157.4425942664
 21
35.0200293383
  0
LINE
  8
0
 62
7
  6
CONTINUOUS
 10
154.4299918074
 20
31.0777551716
 11
154.5456166972
 21
31.1100188581
  0
LINE
  8
0
 62
7
  6
CONTINUOUS
 10
154.4299918074
 20
31.2390736489
 11
154.1987416972
 21
31.1745462761
  0
LINE
  8
0
 62
7
  6
CONTINUOUS
 10
154.3143669177
 20
31.4326557675
 11
154.4299918074
 21
31.4649194539
  0
LINE
  8
0
 62
7
  6
CONTINUOUS
 10
150.9612418074
 20
30.6260635193
 11
151.1924917523
 21
30.6905909007
  0
LINE
  8
0
 62
7
  6
CONTINUOUS
 10
154.2565543074
 20
31.5939741996
 11
154.1409294177
 21
31.5617105132
  0
LINE
  8
0
 62
7
  6
CONTINUOUS
 10
150.2096793212
 20
31.5939741996
 11
150.0362418212
 21
31.5617105132
  0
LINE
  8
0
 62
7
  6
CONTINUOUS
 10
160.9671844304
 20
36.1675703219
 11
159.5737418074
 21
36.1675703219
  0
LINE
  8
0
 62
7
  6
CONTINUOUS
 10
157.6065286927
 20
36.1675703219
 11
157.1939573441
 21
36.1675703219
  0
LINE
  8
0
 62
7
  6
CONTINUOUS
 10
155.9671844304
 20
36.1675703219
 11
154.5737418074
 21
36.1675703219
  0
LINE
  8
0
 62
7
  6
CONTINUOUS
 10
154.245872955
 20
36.1675703219
 11
152.852430332
 21
36.1675703219
  0
LINE
  8
0
 62
7
  6
CONTINUOUS
 10
150.9671844304
 20
36.1675703219
 11
149.5737418074
 21
36.1675703219
  0
LINE
  8
0
 62
7
  6
CONTINUOUS
 10
150.1518667936
 20
31.4326557675
 11
150.2674918074
 21
31.4649194539
  0
CIRCLE
  8
0
 62
7
  6
CONTINUOUS
 10
160.2704631189
 20
38.5036358957
 40
2.0901639344
  0
ARC
  8
0
 62
7
  6
CONTINUOUS
 10
151.2130860697
 20
34.0364227809
 40
1.6393442623
 50
180.0
 51
270.0
  0
ARC
  8
0
 62
7
  6
CONTINUOUS
 10
157.6065286927
 20
34.5282260596
 40
1.6393442623
 50
0.0
 51
90.0
  0
ARC
  8
0
 62
7
  6
CONTINUOUS
 10
151.6256574183
 20
33.8724883547
 40
1.4754098361
 50
270.0
 51
326.2510114041
  0
ARC
  8
0
 62
7
  6
CONTINUOUS
 10
157.1939573441
 20
34.6921604858
 40
1.4754098361
 50
90.0
 51
146.2510114041
  0
ARC
  8
0
 62
7
  6
CONTINUOUS
 10
152.0327582009
 20
34.3642916334
 40
0.8196721311
 50
270.0
 51
360.0
  0
ARC
  8
0
 62
7
  6
CONTINUOUS
 10
156.7868565615
 20
34.2003572071
 40
0.8196721311
 50
90.0
 51
180.0
  0
ARC
  8
0
 62
7
  6
CONTINUOUS
 10
151.3770204959
 20
33.9544555678
 40
0.4098360656
 50
180.0
 51
270.0
  0
ARC
  8
0
 62
7
  6
CONTINUOUS
 10
157.4425942664
 20
34.6101932727
 40
0.4098360656
 50
0.0
 51
90.0
  0
SOLID
  8
0
 62
7
  6
CONTINUOUS
 10
156.279992028
 20
31.9488752009
 11
156.279992028
 21
32.1101936845
 12
156.5690540869
 22
31.9488752009
 13
156.5690540869
 23
32.1101936845
  0
SOLID
  8
0
 62
7
  6
CONTINUOUS
 10
150.5565542799
 20
31.6262382337
 11
150.9612418074
 21
31.5939740028
 12
150.2096793212
 22
31.5939740028
 13
150.2096793212
 23
31.5939740028
  0
SOLID
  8
0
 62
7
  6
CONTINUOUS
 10
150.0362418212
 20
31.5617111435
 11
150.2096793212
 21
31.5939740028
 12
150.9612418074
 22
31.5939740028
 13
150.9612418074
 23
31.5939740028
  0
SOLID
  8
0
 62
7
  6
CONTINUOUS
 10
150.9612418074
 20
31.5939740028
 11
151.1924917523
 21
31.5294468402
 12
150.0362418212
 22
31.5617111435
 13
150.0362418212
 23
31.5617111435
  0
SOLID
  8
0
 62
7
  6
CONTINUOUS
 10
149.8628043005
 20
31.49718259
 11
150.0362418212
 21
31.5617111435
 12
151.1924917523
 22
31.5294468402
 13
151.1924917523
 23
31.5294468402
  0
SOLID
  8
0
 62
7
  6
CONTINUOUS
 10
149.8628043005
 20
31.49718259
 11
151.1924917523
 21
31.5294468402
 12
150.498741835
 22
31.49718259
 13
150.498741835
 23
31.49718259
  0
SOLID
  8
0
 62
7
  6
CONTINUOUS
 10
150.498741835
 20
31.49718259
 11
151.1924917523
 21
31.5294468402
 12
150.9034292799
 22
31.4649197501
 13
150.9034292799
 23
31.4649197501
  0
SOLID
  8
0
 62
7
  6
CONTINUOUS
 10
151.1924917523
 20
31.5294468402
 11
151.3659292523
 21
31.4326554468
 12
150.9034292799
 22
31.4649197501
 13
150.9034292799
 23
31.4649197501
  0
SOLID
  8
0
 62
7
  6
CONTINUOUS
 10
151.0768668626
 20
31.4003926599
 11
150.9034292799
 21
31.4649197501
 12
151.3659292523
 22
31.4326554468
 13
151.3659292523
 23
31.4326554468
  0
SOLID
  8
0
 62
7
  6
CONTINUOUS
 10
151.0768668626
 20
31.4003926599
 11
151.3659292523
 21
31.4326554468
 12
151.1346793074
 22
31.3036013776
 13
151.1346793074
 23
31.3036013776
  0
SOLID
  8
0
 62
7
  6
CONTINUOUS
 10
151.3659292523
 20
31.4326554468
 11
151.4237418626
 21
31.3036013776
 12
151.1346793074
 22
31.3036013776
 13
151.1346793074
 23
31.3036013776
  0
SOLID
  8
0
 62
7
  6
CONTINUOUS
 10
152.4643666972
 20
31.5939739754
 11
152.6956168074
 21
31.6262382787
 12
152.9268669177
 22
31.6262382787
 13
152.9268669177
 23
31.6262382787
  0
SOLID
  8
0
 62
7
  6
CONTINUOUS
 10
152.9268669177
 20
31.6262382787
 11
153.1003044177
 21
31.5939739754
 12
152.4643666972
 22
31.5939739754
 13
152.4643666972
 23
31.5939739754
  0
SOLID
  8
0
 62
7
  6
CONTINUOUS
 10
152.2909293626
 20
31.5294468852
 11
152.4643666972
 21
31.5939739754
 12
153.1003044177
 22
31.5939739754
 13
153.1003044177
 23
31.5939739754
  0
SOLID
  8
0
 62
7
  6
CONTINUOUS
 10
153.1003044177
 20
31.5939739754
 11
153.2737419177
 21
31.5294468852
 12
152.2909293626
 22
31.5294468852
 13
152.2909293626
 23
31.5294468852
  0
SOLID
  8
0
 62
7
  6
CONTINUOUS
 10
153.2737419177
 20
31.5294468852
 11
152.6956168074
 21
31.4971825369
 12
152.2909293626
 22
31.5294468852
 13
152.2909293626
 23
31.5294468852
  0
SOLID
  8
0
 62
7
  6
CONTINUOUS
 10
152.1753043074
 20
31.4649197951
 11
152.2909293626
 21
31.5294468852
 12
152.6956168074
 22
31.4971825369
 13
152.6956168074
 23
31.4971825369
  0
SOLID
  8
0
 62
7
  6
CONTINUOUS
 10
152.6956168074
 20
31.4971825369
 11
152.4643666972
 21
31.4649197951
 12
152.1753043074
 22
31.4649197951
 13
152.1753043074
 23
31.4649197951
  0
SOLID
  8
0
 62
7
  6
CONTINUOUS
 10
152.6956168074
 20
31.4971825369
 11
153.2737419177
 21
31.5294468852
 12
152.9268669177
 22
31.4649197951
 13
152.9268669177
 23
31.4649197951
  0
SOLID
  8
0
 62
7
  6
CONTINUOUS
 10
153.2737419177
 20
31.5294468852
 11
153.3893668074
 21
31.4649197951
 12
152.9268669177
 22
31.4649197951
 13
152.9268669177
 23
31.4649197951
  0
SOLID
  8
0
 62
7
  6
CONTINUOUS
 10
153.0424918074
 20
31.4326554468
 11
152.9268669177
 21
31.4649197951
 12
153.3893668074
 22
31.4649197951
 13
153.3893668074
 23
31.4649197951
  0
SOLID
  8
0
 62
7
  6
CONTINUOUS
 10
153.3893668074
 20
31.4649197951
 11
153.4471794177
 21
31.4003927049
 12
153.0424918074
 22
31.4326554468
 13
153.0424918074
 23
31.4326554468
  0
SOLID
  8
0
 62
7
  6
CONTINUOUS
 10
153.1581166972
 20
31.3681283566
 11
153.0424918074
 21
31.4326554468
 12
153.4471794177
 22
31.4003927049
 13
153.4471794177
 23
31.4003927049
  0
SOLID
  8
0
 62
7
  6
CONTINUOUS
 10
153.1581166972
 20
31.3681283566
 11
153.4471794177
 21
31.4003927049
 12
153.2159293074
 22
31.2390742213
 13
153.2159293074
 23
31.2390742213
  0
SOLID
  8
0
 62
7
  6
CONTINUOUS
 10
153.4471794177
 20
31.4003927049
 11
153.5049916972
 21
31.2390742213
 12
153.2159293074
 22
31.2390742213
 13
153.2159293074
 23
31.2390742213
  0
SOLID
  8
0
 62
7
  6
CONTINUOUS
 10
152.4643666972
 20
31.4649197951
 11
152.2909293626
 21
31.4003927049
 12
152.1753043074
 22
31.4649197951
 13
152.1753043074
 23
31.4649197951
  0
SOLID
  8
0
 62
7
  6
CONTINUOUS
 10
152.2909293626
 20
31.4003927049
 11
152.1753043074
 21
31.3358640533
 12
152.1753043074
 22
31.4649197951
 13
152.1753043074
 23
31.4649197951
  0
SOLID
  8
0
 62
7
  6
CONTINUOUS
 10
152.1753043074
 20
31.3358640533
 11
151.8862417523
 21
30.5938002869
 12
152.1753043074
 22
31.4649197951
 13
152.1753043074
 23
31.4649197951
  0
SOLID
  8
0
 62
7
  6
CONTINUOUS
 10
152.1753043074
 20
31.4649197951
 11
151.8862417523
 21
30.5938002869
 12
152.1753043074
 22
32.1101937295
 13
152.1753043074
 23
32.1101937295
  0
SOLID
  8
0
 62
7
  6
CONTINUOUS
 10
151.8862417523
 20
30.5938002869
 11
151.8862417523
 21
32.1101937295
 12
152.1753043074
 22
32.1101937295
 13
152.1753043074
 23
32.1101937295
  0
SOLID
  8
0
 62
7
  6
CONTINUOUS
 10
152.1753043074
 20
31.3358640533
 11
152.1753043074
 21
30.5938002869
 12
151.8862417523
 22
30.5938002869
 13
151.8862417523
 23
30.5938002869
  0
SOLID
  8
0
 62
7
  6
CONTINUOUS
 10
153.2159293074
 20
30.5938002869
 11
153.2159293074
 21
31.2390742213
 12
153.5049916972
 22
31.2390742213
 13
153.5049916972
 23
31.2390742213
  0
SOLID
  8
0
 62
7
  6
CONTINUOUS
 10
153.5049916972
 20
31.2390742213
 11
153.5049916972
 21
30.5938002869
 12
153.2159293074
 22
30.5938002869
 13
153.2159293074
 23
30.5938002869
  0
SOLID
  8
0
 62
7
  6
CONTINUOUS
 10
154.2565543074
 20
31.5939738288
 11
154.6612419177
 21
31.6262385959
 12
155.0081169177
 22
31.6262385959
 13
155.0081169177
 23
31.6262385959
  0
SOLID
  8
0
 62
7
  6
CONTINUOUS
 10
155.0081169177
 20
31.6262385959
 11
155.3549915869
 21
31.5939738288
 12
154.2565543074
 22
31.5939738288
 13
154.2565543074
 23
31.5939738288
  0
SOLID
  8
0
 62
7
  6
CONTINUOUS
 10
154.1409294177
 20
31.5617111435
 11
154.2565543074
 21
31.5939738288
 12
155.3549915869
 22
31.5939738288
 13
155.3549915869
 23
31.5939738288
  0
SOLID
  8
0
 62
7
  6
CONTINUOUS
 10
155.3549915869
 20
31.5939738288
 11
155.5284290869
 21
31.5294468402
 12
154.1409294177
 22
31.5617111435
 13
154.1409294177
 23
31.5617111435
  0
SOLID
  8
0
 62
7
  6
CONTINUOUS
 10
154.0253041972
 20
31.4971826249
 11
154.1409294177
 21
31.5617111435
 12
155.5284290869
 22
31.5294468402
 13
155.5284290869
 23
31.5294468402
  0
SOLID
  8
0
 62
7
  6
CONTINUOUS
 10
154.0253041972
 20
31.4971826249
 11
155.5284290869
 21
31.5294468402
 12
154.6612419177
 22
31.4971826249
 13
154.6612419177
 23
31.4971826249
  0
SOLID
  8
0
 62
7
  6
CONTINUOUS
 10
154.6612419177
 20
31.4971826249
 11
155.5284290869
 21
31.5294468402
 12
155.0081169177
 22
31.4971826249
 13
155.0081169177
 23
31.4971826249
  0
SOLID
  8
0
 62
7
  6
CONTINUOUS
 10
155.0081169177
 20
31.4971826249
 11
155.5284290869
 21
31.5294468402
 12
155.239367028
 22
31.4649194065
 13
155.239367028
 23
31.4649194065
  0
SOLID
  8
0
 62
7
  6
CONTINUOUS
 10
155.5284290869
 20
31.5294468402
 11
155.6440543074
 21
31.4649194065
 12
155.239367028
 22
31.4649194065
 13
155.239367028
 23
31.4649194065
  0
SOLID
  8
0
 62
7
  6
CONTINUOUS
 10
153.9674919177
 20
31.4326554138
 11
154.0253041972
 21
31.4971826249
 12
154.6612419177
 22
31.4971826249
 13
154.6612419177
 23
31.4971826249
  0
SOLID
  8
0
 62
7
  6
CONTINUOUS
 10
155.3549915869
 20
31.4326554138
 11
155.239367028
 21
31.4649194065
 12
155.6440543074
 22
31.4649194065
 13
155.6440543074
 23
31.4649194065
  0
SOLID
  8
0
 62
7
  6
CONTINUOUS
 10
155.3549915869
 20
31.4326554138
 11
155.6440543074
 21
31.4649194065
 12
155.412804528
 22
31.3681282026
 13
155.412804528
 23
31.3681282026
  0
SOLID
  8
0
 62
7
  6
CONTINUOUS
 10
155.6440543074
 20
31.4649194065
 11
155.7018665869
 21
31.3681282026
 12
155.412804528
 22
31.3681282026
 13
155.412804528
 23
31.3681282026
  0
SOLID
  8
0
 62
7
  6
CONTINUOUS
 10
155.412804528
 20
31.2713369632
 11
155.412804528
 21
31.3681282026
 12
155.7018665869
 22
31.3681282026
 13
155.7018665869
 23
31.3681282026
  0
SOLID
  8
0
 62
7
  6
CONTINUOUS
 10
155.412804528
 20
31.2713369632
 11
155.7018665869
 21
31.3681282026
 12
155.412804528
 22
31.1422827828
 13
155.412804528
 23
31.1422827828
  0
SOLID
  8
0
 62
7
  6
CONTINUOUS
 10
155.412804528
 20
31.1422827828
 11
155.7018665869
 21
31.3681282026
 12
155.412804528
 22
30.9487004259
 13
155.412804528
 23
30.9487004259
  0
SOLID
  8
0
 62
7
  6
CONTINUOUS
 10
155.7018665869
 20
31.3681282026
 11
155.7018665869
 21
30.8519086025
 12
155.412804528
 22
30.9487004259
 13
155.412804528
 23
30.9487004259
  0
SOLID
  8
0
 62
7
  6
CONTINUOUS
 10
157.6096790869
 20
31.5939736268
 11
157.840929528
 21
31.6262383465
 12
158.0721793074
 22
31.6262383465
 13
158.0721793074
 23
31.6262383465
  0
SOLID
  8
0
 62
7
  6
CONTINUOUS
 10
158.0721793074
 20
31.6262383465
 11
158.2456168074
 21
31.5939736268
 12
157.6096790869
 22
31.5939736268
 13
157.6096790869
 23
31.5939736268
  0
SOLID
  8
0
 62
7
  6
CONTINUOUS
 10
157.4362415869
 20
31.5294472848
 11
157.6096790869
 21
31.5939736268
 12
158.2456168074
 22
31.5939736268
 13
158.2456168074
 23
31.5939736268
  0
SOLID
  8
0
 62
7
  6
CONTINUOUS
 10
158.2456168074
 20
31.5939736268
 11
158.4190543074
 21
31.5294472848
 12
157.4362415869
 22
31.5294472848
 13
157.4362415869
 23
31.5294472848
  0
SOLID
  8
0
 62
7
  6
CONTINUOUS
 10
158.4190543074
 20
31.5294472848
 11
157.840929528
 21
31.4971825369
 12
157.4362415869
 22
31.5294472848
 13
157.4362415869
 23
31.5294472848
  0
SOLID
  8
0
 62
7
  6
CONTINUOUS
 10
157.320617028
 20
31.4649199103
 11
157.4362415869
 21
31.5294472848
 12
157.840929528
 22
31.4971825369
 13
157.840929528
 23
31.4971825369
  0
SOLID
  8
0
 62
7
  6
CONTINUOUS
 10
157.840929528
 20
31.4971825369
 11
157.6096790869
 21
31.4649199103
 12
157.320617028
 22
31.4649199103
 13
157.320617028
 23
31.4649199103
  0
SOLID
  8
0
 62
7
  6
CONTINUOUS
 10
157.840929528
 20
31.4971825369
 11
158.4190543074
 21
31.5294472848
 12
158.0721793074
 22
31.4649199103
 13
158.0721793074
 23
31.4649199103
  0
SOLID
  8
0
 62
7
  6
CONTINUOUS
 10
158.4190543074
 20
31.5294472848
 11
158.534679528
 21
31.4649199103
 12
158.0721793074
 22
31.4649199103
 13
158.0721793074
 23
31.4649199103
  0
SOLID
  8
0
 62
7
  6
CONTINUOUS
 10
158.187804528
 20
31.4326554468
 11
158.0721793074
 21
31.4649199103
 12
158.534679528
 22
31.4649199103
 13
158.534679528
 23
31.4649199103
  0
SOLID
  8
0
 62
7
  6
CONTINUOUS
 10
158.187804528
 20
31.4326554468
 11
158.534679528
 21
31.4649199103
 12
158.3034290869
 22
31.3681288486
 13
158.3034290869
 23
31.3681288486
  0
SOLID
  8
0
 62
7
  6
CONTINUOUS
 10
158.534679528
 20
31.4649199103
 11
158.5924918074
 21
31.3681288486
 12
158.3034290869
 22
31.3681288486
 13
158.3034290869
 23
31.3681288486
  0
SOLID
  8
0
 62
7
  6
CONTINUOUS
 10
158.361242028
 20
31.2068093799
 11
158.3034290869
 21
31.3681288486
 12
158.5924918074
 22
31.3681288486
 13
158.5924918074
 23
31.3681288486
  0
SOLID
  8
0
 62
7
  6
CONTINUOUS
 10
158.5924918074
 20
31.3681288486
 11
158.6503040869
 21
31.2068093799
 12
158.361242028
 22
31.2068093799
 13
158.361242028
 23
31.2068093799
  0
SOLID
  8
0
 62
7
  6
CONTINUOUS
 10
157.6096790869
 20
31.4649199103
 11
157.4362415869
 21
31.4003926599
 12
157.320617028
 22
31.4649199103
 13
157.320617028
 23
31.4649199103
  0
SOLID
  8
0
 62
7
  6
CONTINUOUS
 10
157.4362415869
 20
31.4003926599
 11
157.320617028
 21
31.3358640533
 12
157.320617028
 22
31.4649199103
 13
157.320617028
 23
31.4649199103
  0
SOLID
  8
0
 62
7
  6
CONTINUOUS
 10
157.320617028
 20
31.3358640533
 11
157.0315543074
 21
30.5938003547
 12
157.320617028
 22
31.4649199103
 13
157.320617028
 23
31.4649199103
  0
SOLID
  8
0
 62
7
  6
CONTINUOUS
 10
157.320617028
 20
31.4649199103
 11
157.0315543074
 21
30.5938003547
 12
157.320617028
 22
31.6262383465
 13
157.320617028
 23
31.6262383465
  0
SOLID
  8
0
 62
7
  6
CONTINUOUS
 10
157.0315543074
 20
30.5938003547
 11
157.0315543074
 21
31.6262383465
 12
157.320617028
 22
31.6262383465
 13
157.320617028
 23
31.6262383465
  0
SOLID
  8
0
 62
7
  6
CONTINUOUS
 10
157.320617028
 20
31.3358640533
 11
157.320617028
 21
30.5938003547
 12
157.0315543074
 22
30.5938003547
 13
157.0315543074
 23
30.5938003547
  0
SOLID
  8
0
 62
7
  6
CONTINUOUS
 10
158.361242028
 20
30.5938003547
 11
158.361242028
 21
31.2068093799
 12
158.6503040869
 22
31.2068093799
 13
158.6503040869
 23
31.2068093799
  0
SOLID
  8
0
 62
7
  6
CONTINUOUS
 10
158.6503040869
 20
31.2068093799
 11
158.6503040869
 21
30.5938003547
 12
158.361242028
 22
30.5938003547
 13
158.361242028
 23
30.5938003547
  0
SOLID
  8
0
 62
7
  6
CONTINUOUS
 10
159.4596793074
 20
31.5939739474
 11
159.8065543074
 21
31.6262381969
 12
160.1534293074
 22
31.6262381969
 13
160.1534293074
 23
31.6262381969
  0
SOLID
  8
0
 62
7
  6
CONTINUOUS
 10
160.1534293074
 20
31.6262381969
 11
160.5003043074
 21
31.5939739474
 12
159.4596793074
 22
31.5939739474
 13
159.4596793074
 23
31.5939739474
  0
SOLID
  8
0
 62
7
  6
CONTINUOUS
 10
159.228429528
 20
31.5294468402
 11
159.4596793074
 21
31.5939739474
 12
160.5003043074
 22
31.5939739474
 13
160.5003043074
 23
31.5939739474
  0
SOLID
  8
0
 62
7
  6
CONTINUOUS
 10
159.228429528
 20
31.5294468402
 11
160.5003043074
 21
31.5939739304
 12
160.6737418074
 22
31.5617111435
 13
160.6737418074
 23
31.5617111435
  0
SOLID
  8
0
 62
7
  6
CONTINUOUS
 10
159.228429528
 20
31.5294468402
 11
160.6737418074
 21
31.5617111435
 12
159.8065543074
 22
31.4971825592
 13
159.8065543074
 23
31.4971825592
  0
SOLID
  8
0
 62
7
  6
CONTINUOUS
 10
159.8065543074
 20
31.4971825592
 11
160.6737418074
 21
31.5617111435
 12
160.1534293074
 22
31.4971825592
 13
160.1534293074
 23
31.4971825592
  0
SOLID
  8
0
 62
7
  6
CONTINUOUS
 10
160.6737418074
 20
31.5617111435
 11
160.8471793074
 21
31.4971825592
 12
160.1534293074
 22
31.4971825592
 13
160.1534293074
 23
31.4971825592
  0
SOLID
  8
0
 62
7
  6
CONTINUOUS
 10
160.5003043074
 20
31.4649197501
 11
160.1534293074
 21
31.4971825592
 12
160.8471793074
 22
31.4971825592
 13
160.8471793074
 23
31.4971825592
  0
SOLID
  8
0
 62
7
  6
CONTINUOUS
 10
159.1128043074
 20
31.4326555427
 11
159.228429528
 21
31.5294468402
 12
159.8065543074
 22
31.4971825592
 13
159.8065543074
 23
31.4971825592
  0
SOLID
  8
0
 62
7
  6
CONTINUOUS
 10
160.5003043074
 20
31.4649197501
 11
160.8471793074
 21
31.4971825592
 12
160.615929528
 22
31.4326555427
 13
160.615929528
 23
31.4326555427
  0
SOLID
  8
0
 62
7
  6
CONTINUOUS
 10
160.615929528
 20
31.4326555427
 11
160.8471793074
 21
31.4971825592
 12
160.6737418074
 22
31.3681283005
 13
160.6737418074
 23
31.3681283005
  0
SOLID
  8
0
 62
7
  6
CONTINUOUS
 10
160.8471793074
 20
31.4971825592
 11
160.9628038663
 21
31.3681283005
 12
160.6737418074
 22
31.3681283005
 13
160.6737418074
 23
31.3681283005
  0
SOLID
  8
0
 62
7
  6
CONTINUOUS
 10
150.2674918074
 20
31.4649197501
 11
149.7471793074
 21
31.4326554237
 12
150.498741835
 22
31.4971824493
 13
150.498741835
 23
31.4971824493
  0
SOLID
  8
0
 62
7
  6
CONTINUOUS
 10
149.7471793074
 20
31.4326554237
 11
149.8628043005
 21
31.4971824493
 12
150.498741835
 22
31.4971824493
 13
150.498741835
 23
31.4971824493
  0
SOLID
  8
0
 62
7
  6
CONTINUOUS
 10
150.2674918074
 20
31.4649197501
 11
150.1518667936
 21
31.4326554237
 12
149.7471793074
 22
31.4326554237
 13
149.7471793074
 23
31.4326554237
  0
SOLID
  8
0
 62
7
  6
CONTINUOUS
 10
149.6315543091
 20
31.3036012664
 11
149.7471793074
 21
31.4326554237
 12
150.1518667936
 22
31.4326554237
 13
150.1518667936
 23
31.4326554237
  0
SOLID
  8
0
 62
7
  6
CONTINUOUS
 10
153.9674919177
 20
31.4326554237
 11
154.6612419177
 21
31.4971825369
 12
154.4299918074
 22
31.4649197501
 13
154.4299918074
 23
31.4649197501
  0
SOLID
  8
0
 62
7
  6
CONTINUOUS
 10
154.4299918074
 20
31.4649197501
 11
154.3143669177
 21
31.4326554237
 12
153.9674919177
 22
31.4326554237
 13
153.9674919177
 23
31.4326554237
  0
SOLID
  8
0
 62
7
  6
CONTINUOUS
 10
153.9674919177
 20
31.3681283335
 11
153.9674919177
 21
31.4326554237
 12
154.3143669177
 22
31.4326554237
 13
154.3143669177
 23
31.4326554237
  0
SOLID
  8
0
 62
7
  6
CONTINUOUS
 10
154.3143669177
 20
31.4326554237
 11
154.2565543074
 21
31.3681283335
 12
153.9674919177
 22
31.3681283335
 13
153.9674919177
 23
31.3681283335
  0
SOLID
  8
0
 62
7
  6
CONTINUOUS
 10
159.1128043074
 20
31.4326555528
 11
159.8065543074
 21
31.4971825369
 12
159.575304528
 22
31.4649197501
 13
159.575304528
 23
31.4649197501
  0
SOLID
  8
0
 62
7
  6
CONTINUOUS
 10
159.575304528
 20
31.4649197501
 11
159.4596793074
 21
31.4326555528
 12
159.1128043074
 22
31.4326555528
 13
159.1128043074
 23
31.4326555528
  0
SOLID
  8
0
 62
7
  6
CONTINUOUS
 10
159.1128043074
 20
31.3681284626
 11
159.1128043074
 21
31.4326555528
 12
159.4596793074
 22
31.4326555528
 13
159.4596793074
 23
31.4326555528
  0
SOLID
  8
0
 62
7
  6
CONTINUOUS
 10
159.4596793074
 20
31.4326555528
 11
159.401867028
 21
31.3681284626
 12
159.1128043074
 22
31.3681284626
 13
159.1128043074
 23
31.3681284626
  0
SOLID
  8
0
 62
7
  6
CONTINUOUS
 10
159.228429528
 20
31.2390741763
 11
159.1128043074
 21
31.3681284626
 12
159.401867028
 22
31.3681284626
 13
159.401867028
 23
31.3681284626
  0
SOLID
  8
0
 62
7
  6
CONTINUOUS
 10
149.6315543091
 20
31.3036012664
 11
150.1518667936
 21
31.4326554468
 12
149.9784292936
 22
31.3358640533
 13
149.9784292936
 23
31.3358640533
  0
SOLID
  8
0
 62
7
  6
CONTINUOUS
 10
149.9784292936
 20
31.3358640533
 11
149.9206168074
 21
31.2713369632
 12
149.6315543091
 22
31.3036012664
 13
149.6315543091
 23
31.3036012664
  0
SOLID
  8
0
 62
7
  6
CONTINUOUS
 10
149.5737418074
 20
31.1100184796
 11
149.6315543091
 21
31.3036012664
 12
149.9206168074
 22
31.2713369632
 13
149.9206168074
 23
31.2713369632
  0
SOLID
  8
0
 62
7
  6
CONTINUOUS
 10
154.4299918074
 20
31.2390741763
 11
154.7768668074
 21
31.271336924
 12
155.412804528
 22
31.271336924
 13
155.412804528
 23
31.271336924
  0
SOLID
  8
0
 62
7
  6
CONTINUOUS
 10
154.4299918074
 20
31.2390741763
 11
155.412804528
 21
31.271336924
 12
154.1987416972
 22
31.1745462761
 13
154.1987416972
 23
31.1745462761
  0
SOLID
  8
0
 62
7
  6
CONTINUOUS
 10
154.1987416972
 20
31.1745462761
 11
155.412804528
 21
31.271336924
 12
154.7768668074
 22
31.1422827436
 13
154.7768668074
 23
31.1422827436
  0
SOLID
  8
0
 62
7
  6
CONTINUOUS
 10
155.412804528
 20
31.271336924
 11
155.412804528
 21
31.1422827436
 12
154.7768668074
 22
31.1422827436
 13
154.7768668074
 23
31.1422827436
  0
SOLID
  8
0
 62
7
  6
CONTINUOUS
 10
159.228429528
 20
31.2390745501
 11
159.401867028
 21
31.3681283566
 12
159.4596793074
 22
31.3036012664
 13
159.4596793074
 23
31.3036012664
  0
SOLID
  8
0
 62
7
  6
CONTINUOUS
 10
159.4596793074
 20
31.3036012664
 11
159.6331168074
 21
31.2390745501
 12
159.228429528
 22
31.2390745501
 13
159.228429528
 23
31.2390745501
  0
SOLID
  8
0
 62
7
  6
CONTINUOUS
 10
159.4596793074
 20
31.1422827828
 11
159.228429528
 21
31.2390745501
 12
159.6331168074
 22
31.2390745501
 13
159.6331168074
 23
31.2390745501
  0
SOLID
  8
0
 62
7
  6
CONTINUOUS
 10
159.6331168074
 20
31.2390745501
 11
160.615929528
 21
31.0777556927
 12
159.4596793074
 22
31.1422827828
 13
159.4596793074
 23
31.1422827828
  0
SOLID
  8
0
 62
7
  6
CONTINUOUS
 10
160.442492028
 20
30.9809646623
 11
159.4596793074
 21
31.1422827828
 12
160.615929528
 22
31.0777556927
 13
160.615929528
 23
31.0777556927
  0
SOLID
  8
0
 62
7
  6
CONTINUOUS
 10
160.615929528
 20
31.0777556927
 11
160.8471793074
 21
30.9809646623
 12
160.442492028
 22
30.9809646623
 13
160.442492028
 23
30.9809646623
  0
SOLID
  8
0
 62
7
  6
CONTINUOUS
 10
160.615929528
 20
30.9164372091
 11
160.442492028
 21
30.9809646623
 12
160.8471793074
 22
30.9809646623
 13
160.8471793074
 23
30.9809646623
  0
SOLID
  8
0
 62
7
  6
CONTINUOUS
 10
160.615929528
 20
30.9164372091
 11
160.8471793074
 21
30.9809646623
 12
160.6737418074
 22
30.8519089441
 13
160.6737418074
 23
30.8519089441
  0
SOLID
  8
0
 62
7
  6
CONTINUOUS
 10
160.8471793074
 20
30.9809646623
 11
160.9628038663
 21
30.8519089441
 12
160.6737418074
 22
30.8519089441
 13
160.6737418074
 23
30.8519089441
  0
SOLID
  8
0
 62
7
  6
CONTINUOUS
 10
160.615929528
 20
30.7873818593
 11
160.6737418074
 21
30.8519089441
 12
160.9628038663
 22
30.8519089441
 13
160.9628038663
 23
30.8519089441
  0
SOLID
  8
0
 62
7
  6
CONTINUOUS
 10
160.9628038663
 20
30.8519089441
 11
160.9628038663
 21
30.7873818593
 12
160.615929528
 22
30.7873818593
 13
160.615929528
 23
30.7873818593
  0
SOLID
  8
0
 62
7
  6
CONTINUOUS
 10
160.5003043074
 20
30.7551187255
 11
160.615929528
 21
30.7873818593
 12
160.9628038663
 22
30.7873818593
 13
160.9628038663
 23
30.7873818593
  0
SOLID
  8
0
 62
7
  6
CONTINUOUS
 10
160.5003043074
 20
30.7551187255
 11
160.9628038663
 21
30.7873818593
 12
160.269054528
 22
30.7228547745
 13
160.269054528
 23
30.7228547745
  0
SOLID
  8
0
 62
7
  6
CONTINUOUS
 10
160.9628038663
 20
30.7873818593
 11
160.8471793074
 21
30.6905916353
 12
160.269054528
 22
30.7228547745
 13
160.269054528
 23
30.7228547745
  0
SOLID
  8
0
 62
7
  6
CONTINUOUS
 10
160.8471793074
 20
30.6905916353
 11
159.401867028
 21
30.658327332
 12
160.269054528
 22
30.7228547745
 13
160.269054528
 23
30.7228547745
  0
SOLID
  8
0
 62
7
  6
CONTINUOUS
 10
160.269054528
 20
30.7228547745
 11
159.401867028
 21
30.658327332
 12
159.922179528
 22
30.7228547745
 13
159.922179528
 23
30.7228547745
  0
SOLID
  8
0
 62
7
  6
CONTINUOUS
 10
159.401867028
 20
30.658327332
 11
159.228429528
 21
30.7228547745
 12
159.922179528
 22
30.7228547745
 13
159.922179528
 23
30.7228547745
  0
SOLID
  8
0
 62
7
  6
CONTINUOUS
 10
159.401867028
 20
30.658327332
 11
160.8471793074
 21
30.6905916353
 12
159.575304528
 22
30.6260629858
 13
159.575304528
 23
30.6260629858
  0
SOLID
  8
0
 62
7
  6
CONTINUOUS
 10
160.8471793074
 20
30.6905916353
 11
160.615929528
 21
30.6260629858
 12
159.575304528
 22
30.6260629858
 13
159.575304528
 23
30.6260629858
  0
SOLID
  8
0
 62
7
  6
CONTINUOUS
 10
159.922179528
 20
30.5938006049
 11
159.575304528
 21
30.6260629858
 12
160.615929528
 22
30.6260629858
 13
160.615929528
 23
30.6260629858
  0
SOLID
  8
0
 62
7
  6
CONTINUOUS
 10
160.615929528
 20
30.6260629858
 11
160.269054528
 21
30.5938006049
 12
159.922179528
 22
30.5938006049
 13
159.922179528
 23
30.5938006049
  0
SOLID
  8
0
 62
7
  6
CONTINUOUS
 10
149.5737418074
 20
31.1100184796
 11
149.9206168074
 21
31.2713369632
 12
149.8628043005
 22
31.1422827828
 13
149.8628043005
 23
31.1422827828
  0
SOLID
  8
0
 62
7
  6
CONTINUOUS
 10
149.8628043005
 20
31.1422827828
 11
149.8628043005
 21
31.0454914852
 12
149.5737418074
 22
31.1100184796
 13
149.5737418074
 23
31.1100184796
  0
SOLID
  8
0
 62
7
  6
CONTINUOUS
 10
149.6315543091
 20
30.9164372091
 11
149.5737418074
 21
31.1100184796
 12
149.8628043005
 22
31.0454914852
 13
149.8628043005
 23
31.0454914852
  0
SOLID
  8
0
 62
7
  6
CONTINUOUS
 10
149.8628043005
 20
31.0454914852
 11
149.9784292936
 21
30.8841729058
 12
149.6315543091
 22
30.9164372091
 13
149.6315543091
 23
30.9164372091
  0
SOLID
  8
0
 62
7
  6
CONTINUOUS
 10
149.7471793074
 20
30.7873813202
 11
149.6315543091
 21
30.9164372091
 12
149.9784292936
 22
30.8841729058
 13
149.9784292936
 23
30.8841729058
  0
SOLID
  8
0
 62
7
  6
CONTINUOUS
 10
149.9784292936
 20
30.8841729058
 11
150.1518667936
 21
30.7873813202
 12
149.7471793074
 22
30.7873813202
 13
149.7471793074
 23
30.7873813202
  0
SOLID
  8
0
 62
7
  6
CONTINUOUS
 10
149.8628043005
 20
30.7228547004
 11
149.7471793074
 21
30.7873813202
 12
150.1518667936
 22
30.7873813202
 13
150.1518667936
 23
30.7873813202
  0
SOLID
  8
0
 62
7
  6
CONTINUOUS
 10
150.1518667936
 20
30.7873813202
 11
150.498741835
 21
30.7228547004
 12
149.8628043005
 22
30.7228547004
 13
149.8628043005
 23
30.7228547004
  0
SOLID
  8
0
 62
7
  6
CONTINUOUS
 10
150.0362418212
 20
30.658327332
 11
149.8628043005
 21
30.7228547004
 12
150.498741835
 22
30.7228547004
 13
150.498741835
 23
30.7228547004
  0
SOLID
  8
0
 62
7
  6
CONTINUOUS
 10
154.0831168074
 20
31.1100184386
 11
154.1987416972
 21
31.1745462761
 12
154.7768668074
 22
31.1422827828
 13
154.7768668074
 23
31.1422827828
  0
SOLID
  8
0
 62
7
  6
CONTINUOUS
 10
154.7768668074
 20
31.1422827828
 11
154.5456166972
 21
31.1100184386
 12
154.0831168074
 22
31.1100184386
 13
154.0831168074
 23
31.1100184386
  0
SOLID
  8
0
 62
7
  6
CONTINUOUS
 10
153.9674919177
 20
30.9809642992
 11
154.0831168074
 21
31.1100184386
 12
154.5456166972
 22
31.1100184386
 13
154.5456166972
 23
31.1100184386
  0
SOLID
  8
0
 62
7
  6
CONTINUOUS
 10
154.3143669177
 20
31.0132277988
 11
153.9674919177
 21
30.9809642992
 12
154.4299918074
 22
31.0777556927
 13
154.4299918074
 23
31.0777556927
  0
SOLID
  8
0
 62
7
  6
CONTINUOUS
 10
153.9674919177
 20
30.9809642992
 11
154.5456166972
 21
31.1100184796
 12
154.4299918074
 22
31.0777556927
 13
154.4299918074
 23
31.0777556927
  0
SOLID
  8
0
 62
7
  6
CONTINUOUS
 10
154.3143669177
 20
31.0132277988
 11
154.2565543074
 21
30.9164372091
 12
153.9674919177
 22
30.9809642992
 13
153.9674919177
 23
30.9809642992
  0
SOLID
  8
0
 62
7
  6
CONTINUOUS
 10
153.9674919177
 20
30.8841729058
 11
153.9674919177
 21
30.9809642992
 12
154.2565543074
 22
30.9164372091
 13
154.2565543074
 23
30.9164372091
  0
SOLID
  8
0
 62
7
  6
CONTINUOUS
 10
154.2565543074
 20
30.9164372091
 11
154.2565543074
 21
30.8519086025
 12
153.9674919177
 22
30.8841729058
 13
153.9674919177
 23
30.8841729058
  0
SOLID
  8
0
 62
7
  6
CONTINUOUS
 10
154.0253041972
 20
30.7551187255
 11
153.9674919177
 21
30.8841729058
 12
154.2565543074
 22
30.8519086025
 13
154.2565543074
 23
30.8519086025
  0
SOLID
  8
0
 62
7
  6
CONTINUOUS
 10
155.412804528
 20
30.9487004259
 11
155.7018665869
 21
30.8519086025
 12
155.3549915869
 22
30.8841729058
 13
155.3549915869
 23
30.8841729058
  0
SOLID
  8
0
 62
7
  6
CONTINUOUS
 10
155.1815540869
 20
30.7873815123
 11
155.3549915869
 21
30.8841729058
 12
155.7018665869
 22
30.8519086025
 13
155.7018665869
 23
30.8519086025
  0
SOLID
  8
0
 62
7
  6
CONTINUOUS
 10
155.1815540869
 20
30.7873815123
 11
155.7018665869
 21
30.8519086025
 12
155.412804528
 22
30.7551187255
 13
155.412804528
 23
30.7551187255
  0
SOLID
  8
0
 62
7
  6
CONTINUOUS
 10
155.7018665869
 20
30.8519086025
 11
155.759679528
 21
30.6905916353
 12
155.412804528
 22
30.7551187255
 13
155.412804528
 23
30.7551187255
  0
SOLID
  8
0
 62
7
  6
CONTINUOUS
 10
155.4706168074
 20
30.658327332
 11
155.412804528
 21
30.7551187255
 12
155.759679528
 22
30.6905916353
 13
155.759679528
 23
30.6905916353
  0
SOLID
  8
0
 62
7
  6
CONTINUOUS
 10
155.4706168074
 20
30.658327332
 11
155.759679528
 21
30.6905916353
 12
155.5284290869
 22
30.5938002079
 13
155.5284290869
 23
30.5938002079
  0
SOLID
  8
0
 62
7
  6
CONTINUOUS
 10
155.759679528
 20
30.6905916353
 11
155.8174918074
 21
30.5938002079
 12
155.5284290869
 22
30.5938002079
 13
155.5284290869
 23
30.5938002079
  0
SOLID
  8
0
 62
7
  6
CONTINUOUS
 10
151.0768668626
 20
30.8196456577
 11
151.1346793074
 21
30.9164373395
 12
151.4237418626
 22
30.9164373395
 13
151.4237418626
 23
30.9164373395
  0
SOLID
  8
0
 62
7
  6
CONTINUOUS
 10
151.4237418626
 20
30.9164373395
 11
151.3659292523
 21
30.7873815123
 12
151.0768668626
 22
30.8196456577
 13
151.0768668626
 23
30.8196456577
  0
SOLID
  8
0
 62
7
  6
CONTINUOUS
 10
150.9034292799
 20
30.7551187255
 11
151.0768668626
 21
30.8196456577
 12
151.3659292523
 22
30.7873815123
 13
151.3659292523
 23
30.7873815123
  0
SOLID
  8
0
 62
7
  6
CONTINUOUS
 10
150.9034292799
 20
30.7551187255
 11
151.3659292523
 21
30.7873815123
 12
150.498741835
 22
30.7228544222
 13
150.498741835
 23
30.7228544222
  0
SOLID
  8
0
 62
7
  6
CONTINUOUS
 10
151.3659292523
 20
30.7873815123
 11
151.1924917523
 21
30.6905916353
 12
150.498741835
 22
30.7228544222
 13
150.498741835
 23
30.7228544222
  0
SOLID
  8
0
 62
7
  6
CONTINUOUS
 10
150.0362418212
 20
30.658327332
 11
150.498741835
 21
30.7228544222
 12
151.1924917523
 22
30.6905916353
 13
151.1924917523
 23
30.6905916353
  0
SOLID
  8
0
 62
7
  6
CONTINUOUS
 10
150.0362418212
 20
30.658327332
 11
151.1924917523
 21
30.6905916353
 12
150.2096793212
 22
30.6260631011
 13
150.2096793212
 23
30.6260631011
  0
SOLID
  8
0
 62
7
  6
CONTINUOUS
 10
151.1924917523
 20
30.6905916353
 11
150.9612418074
 21
30.6260631011
 12
150.2096793212
 22
30.6260631011
 13
150.2096793212
 23
30.6260631011
  0
SOLID
  8
0
 62
7
  6
CONTINUOUS
 10
150.5565542799
 20
30.5938002419
 11
150.2096793212
 21
30.6260631011
 12
150.9612418074
 22
30.6260631011
 13
150.9612418074
 23
30.6260631011
  0
SOLID
  8
0
 62
7
  6
CONTINUOUS
 10
154.0253041972
 20
30.7551187255
 11
154.2565543074
 21
30.8519086025
 12
154.3143669177
 22
30.7873815123
 13
154.3143669177
 23
30.7873815123
  0
SOLID
  8
0
 62
7
  6
CONTINUOUS
 10
154.3143669177
 20
30.7873815123
 11
154.5456166972
 21
30.7228544222
 12
154.0253041972
 22
30.7551187255
 13
154.0253041972
 23
30.7551187255
  0
SOLID
  8
0
 62
7
  6
CONTINUOUS
 10
154.1987416972
 20
30.658327332
 11
154.0253041972
 21
30.7551187255
 12
154.5456166972
 22
30.7228544222
 13
154.5456166972
 23
30.7228544222
  0
SOLID
  8
0
 62
7
  6
CONTINUOUS
 10
154.8924916972
 20
30.7228544637
 11
155.1815540869
 21
30.7873815123
 12
155.412804528
 22
30.7551187255
 13
155.412804528
 23
30.7551187255
  0
SOLID
  8
0
 62
7
  6
CONTINUOUS
 10
155.412804528
 20
30.7551187255
 11
155.3549915869
 21
30.6905916353
 12
154.8924916972
 22
30.7228544637
 13
154.8924916972
 23
30.7228544637
  0
SOLID
  8
0
 62
7
  6
CONTINUOUS
 10
155.3549915869
 20
30.6905916353
 11
154.1987416972
 21
30.658327332
 12
154.8924916972
 22
30.7228544637
 13
154.8924916972
 23
30.7228544637
  0
SOLID
  8
0
 62
7
  6
CONTINUOUS
 10
154.1987416972
 20
30.658327332
 11
154.5456166972
 21
30.7228544637
 12
154.8924916972
 22
30.7228544637
 13
154.8924916972
 23
30.7228544637
  0
SOLID
  8
0
 62
7
  6
CONTINUOUS
 10
154.1987416972
 20
30.658327332
 11
155.3549915869
 21
30.6905916353
 12
154.3143669177
 22
30.6260630541
 13
154.3143669177
 23
30.6260630541
  0
SOLID
  8
0
 62
7
  6
CONTINUOUS
 10
155.3549915869
 20
30.6905916353
 11
155.1815540869
 21
30.6260630541
 12
154.3143669177
 22
30.6260630541
 13
154.3143669177
 23
30.6260630541
  0
SOLID
  8
0
 62
7
  6
CONTINUOUS
 10
154.5456166972
 20
30.5938002188
 11
154.3143669177
 21
30.6260630541
 12
155.1815540869
 22
30.6260630541
 13
155.1815540869
 23
30.6260630541
  0
SOLID
  8
0
 62
7
  6
CONTINUOUS
 10
155.1815540869
 20
30.6260630541
 11
154.8924916972
 21
30.5938002188
 12
154.5456166972
 22
30.5938002188
 13
154.5456166972
 23
30.5938002188
  0
SOLID
  8
0
 62
7
  6
CONTINUOUS
 10
159.575304528
 20
30.7551187255
 11
159.228429528
 21
30.7228544637
 12
159.4596793074
 22
30.7873815123
 13
159.4596793074
 23
30.7873815123
  0
SOLID
  8
0
 62
7
  6
CONTINUOUS
 10
159.4596793074
 20
30.7873815123
 11
159.228429528
 21
30.7228544637
 12
159.401867028
 22
30.851908644
 13
159.401867028
 23
30.851908644
  0
SOLID
  8
0
 62
7
  6
CONTINUOUS
 10
159.228429528
 20
30.7228544637
 11
159.1128043074
 21
30.851908644
 12
159.401867028
 22
30.851908644
 13
159.401867028
 23
30.851908644
  0
SOLID
  8
0
 62
7
  6
CONTINUOUS
 10
159.575304528
 20
30.7551187255
 11
159.922179528
 21
30.7228544637
 12
159.228429528
 22
30.7228544637
 13
159.228429528
 23
30.7228544637
  0
SOLID
  8
0
 62
7
  6
CONTINUOUS
 10
156.279992028
 20
30.5938002419
 11
156.279992028
 21
31.6262382337
 12
156.5690540869
 22
30.5938002419
 13
156.5690540869
 23
31.6262382337
  0
ENDBLK
  8
0
  6
BYBLOCK
 62
0
  0
BLOCK
  8
0
 62
2
  6
CONTINUOUS
  2
SYMBOL_3_BL0
 70
64
 10
32.1213064866
 20
19.8534310916
  0
TEXT
  8
0
 62
7
  6
CONTINUOUS
 10
18.3860103289
 20
19.2268451992
  7
TEXTSTYLE_3
 40
2.7338706658
  1
Ammeraal Beltech
 41
1.0
 51
15.0
 72
0
  0
TEXT
  8
0
 62
7
  6
CONTINUOUS
 10
29.1868111546
 20
16.9533085264
  7
TEXTSTYLE_4
 40
1.0935482663
  1
Innovation & Service in Belting
 41
1.0
 72
0
  0
LINE
  8
0
 62
7
  6
CONTINUOUS
 10
12.3614696776
 20
19.9934385078
 11
13.1396216709
 21
23.6543558055
  0
LINE
  8
0
 62
7
  6
CONTINUOUS
 10
23.2347899607
 20
27.3177497171
 11
13.6274394139
 21
24.1961322958
  0
LINE
  8
0
 62
7
  6
CONTINUOUS
 10
12.5867530099
 20
19.3000877048
 11
20.093828271
 21
12.5406867788
  0
LINE
  8
0
 62
7
  6
CONTINUOUS
 10
12.8492874206
 20
20.5352149982
 11
23.6575567857
 21
24.0470345971
  0
LINE
  8
0
 62
7
  6
CONTINUOUS
 10
23.6533516486
 20
13.6972460334
 11
15.2078919798
 21
21.3015720751
  0
LINE
  8
0
 62
7
  6
CONTINUOUS
 10
24.1731743684
 20
26.4728246013
 11
23.1966148312
 21
21.8784731989
  0
LINE
  8
0
 62
7
  6
CONTINUOUS
 10
22.4968128835
 20
18.5861638851
 11
21.810364672
 21
15.3566789607
  0
LINE
  8
0
 62
7
  6
CONTINUOUS
 10
24.8542704669
 20
14.087448211
 11
25.8105020025
 21
18.5861638851
  0
LINE
  8
0
 62
7
  6
CONTINUOUS
 10
26.5103039502
 20
21.8784731989
 11
26.9545457526
 21
23.9684665583
  0
LINE
  8
0
 62
7
  6
CONTINUOUS
 10
20.8069293463
 20
12.3891124661
 11
24.3664527239
 21
13.5456717207
  0
LINE
  8
0
 62
7
  6
CONTINUOUS
 10
23.9478910361
 20
27.1661754044
 11
26.7292624203
 21
24.6618173613
  0
ARC
  8
0
 62
7
  6
CONTINUOUS
 10
13.8527227462
 20
23.5027814928
 40
0.7290321776
 50
108.0
 51
168.0
  0
ARC
  8
0
 62
7
  6
CONTINUOUS
 10
23.4600732931
 20
26.624398914
 40
0.7290321776
 50
348.0
 51
108.0
  0
ARC
  8
0
 62
7
  6
CONTINUOUS
 10
26.2414446773
 20
24.120040871
 40
0.7290321776
 50
348.0
 51
48.0
  0
ARC
  8
0
 62
7
  6
CONTINUOUS
 10
20.581646014
 20
13.0824632691
 40
0.7290321776
 50
228.0
 51
288.0
  0
ARC
  8
0
 62
7
  6
CONTINUOUS
 10
13.0745707529
 20
19.8418641951
 40
0.7290321776
 50
108.0
 51
228.0
  0
ARC
  8
0
 62
7
  6
CONTINUOUS
 10
24.1411693916
 20
14.2390225237
 40
0.7290321776
 50
228.0
 51
348.0
  0
ENDBLK
  8
0
  6
BYBLOCK
 62
0
  0
ENDSEC
  0
SECTION
  2
ENTITIES
  0
TEXT
  8
0
 62
5
  6
CONTINUOUS
 10
96.0
 20
25.636
  7
TEXTSTYLE_2
 40
2.8
  1
Scale :
 41
0.6
 51
0.000019
 72
0
  0
TEXT
  8
0
 62
5
  6
CONTINUOUS
 10
116.0
 20
25.636
  7
TEXTSTYLE_2
 40
2.8
  1
Belt type:
 41
0.6
 51
0.000019
 72
0
  0
INSERT
  8
0
 62
2
  6
CONTINUOUS
  2
SYMBOL_3_BL0
 10
32.1213064866
 20
19.8534310916
  0
INSERT
  8
0
 62
2
  6
CONTINUOUS
  2
SYMBOL_8_BL1
 10
173.5956734183
 20
35.5937998301
  0
LINE
  8
0
 62
2
  6
CONTINUOUS
 10
10.0
 20
30.0
 11
200.0
 21
30.0
  0
LINE
  8
0
 62
2
  6
CONTINUOUS
 10
10.0
 20
30.0
 11
10.0
 21
10.0
  0
LINE
  8
0
 62
2
  6
CONTINUOUS
 10
10.0
 20
10.0
 11
200.0
 21
10.0
  0
LINE
  8
0
 62
2
  6
CONTINUOUS
 10
95.0
 20
30.0
 11
95.0
 21
10.0
  0
LINE
  8
0
 62
2
  6
CONTINUOUS
 10
115.0
 20
30.0
 11
115.0
 21
10.0
  0
LINE
  8
0
 62
2
  6
CONTINUOUS
 10
200.0
 20
30.0
 11
200.0
 21
10.0
  0
TEXT
  8
0
 62
5
  6
CONTINUOUS
 10
13.0
 20
23.303
  7
TEXTSTYLE_5
 40
1.52
  1
                                                                     Ammeraal Beltech Modular A/S
 41
1.0
 72
0
  0
TEXT
  8
0
 62
5
  6
CONTINUOUS
 10
13.0
 20
20.595
  7
TEXTSTYLE_5
 40
1.5
  1
                                                                      Hjulmagervej 21,  7100 Vejle,  DK
 41
1.0
 72
0
  0
TEXT
  8
0
 62
5
  6
CONTINUOUS
 10
13.0
 20
17.881
  7
TEXTSTYLE_5
 40
1.495
  1
                                                                      tel: 
 41
1.0
 72
0
  0
TEXT
  8
0
 62
5
  6
CONTINUOUS
 10
57.9869465649
 20
17.881
  7
TEXTSTYLE_5
 40
1.51
  1
+45 75723100     fax: +45 75723348
 41
1.0
 72
0
  0
TEXT
  8
0
 62
5
  6
CONTINUOUS
 10
13.0
 20
15.177
  7
TEXTSTYLE_5
 40
1.5
  1
                                                                      admin@unichains.dk  www.unichains.com
 41
1.0
 72
0
  0
TEXT
  8
0
 62
5
  6
CONTINUOUS
 10
99.75
 20
13.75
  7
TEXTSTYLE_6
 40
5.0
  1
1:1
 41
0.7
 72
1
 11
105.0
 21
13.75
  0
TEXT
  8
0
 62
5
  6
CONTINUOUS
 10
118.0
 20
13.75
  7
TEXTSTYLE_7
 40
7.5
  1
uni MPB NE K600
 41
0.6270833333
 72
0
  0
LINE
  8
0
 62
7
  6
CONTINUOUS
 10
210.0
 20
0.0
 11
0.0
 21
0.0
  0
LINE
  8
0
 62
7
  6
CONTINUOUS
 10
10.0
 20
10.0
 11
200.0
 21
10.0
  0
LINE
  8
0
 62
7
  6
CONTINUOUS
 10
10.0
 20
30.0
 11
200.0
 21
30.0
  0
LINE
  8
0
 62
7
  6
CONTINUOUS
 10
0.0
 20
0.0
 11
0.0
 21
297.0
  0
LINE
  8
0
 62
7
  6
CONTINUOUS
 10
10.0
 20
10.0
 11
10.0
 21
287.0
  0
LINE
  8
0
 62
7
  6
CONTINUOUS
 10
200.0
 20
287.0
 11
200.0
 21
10.0
  0
LINE
  8
0
 62
7
  6
CONTINUOUS
 10
210.0
 20
0.0
 11
210.0
 21
297.0
  0
LINE
  8
0
 62
7
  6
CONTINUOUS
 10
10.0
 20
287.0
 11
200.0
 21
287.0
  0
LINE
  8
0
 62
7
  6
CONTINUOUS
 10
0.0
 20
297.0
 11
210.0
 21
297.0
  0
POLYLINE
  8
0
 62
7
  6
CONTINUOUS
 66
1
 70
0
  0
VERTEX
  8
0
 62
7
  6
CONTINUOUS
 10
46.8656836339
 20
208.3465731864
  0
VERTEX
  8
0
 62
7
  6
CONTINUOUS
 10
46.8579208668
 20
208.3416483162
  0
VERTEX
  8
0
 62
7
  6
CONTINUOUS
 10
46.8505407417
 20
208.3270638013
  0
VERTEX
  8
0
 62
7
  6
CONTINUOUS
 10
46.8439065443
 20
208.3034553397
  0
VERTEX
  8
0
 62
7
  6
CONTINUOUS
 10
46.8383504702
 20
208.2719168899
  0
VERTEX
  8
0
 62
7
  6
CONTINUOUS
 10
46.8341562824
 20
208.2339657052
  0
VERTEX
  8
0
 62
7
  6
CONTINUOUS
 10
46.8315433688
 20
208.1914745805
  0
VERTEX
  8
0
 62
7
  6
CONTINUOUS
 10
46.8306544141
 20
208.1465731864
  0
SEQEND
  0
POLYLINE
  8
0
 62
7
  6
CONTINUOUS
 66
1
 70
0
  0
VERTEX
  8
0
 62
7
  6
CONTINUOUS
 10
108.8029446423
 20
57.3465728175
  0
VERTEX
  8
0
 62
7
  6
CONTINUOUS
 10
108.8472463825
 20
57.3515413786
  0
VERTEX
  8
0
 62
7
  6
CONTINUOUS
 10
108.8894920194
 20
57.3662697883
  0
VERTEX
  8
0
 62
7
  6
CONTINUOUS
 10
108.9274064594
 20
57.3900210768
  0
VERTEX
  8
0
 62
7
  6
CONTINUOUS
 10
108.9590922168
 20
57.4216066206
  0
VERTEX
  8
0
 62
7
  6
CONTINUOUS
 10
108.9829634983
 20
57.4594456173
  0
VERTEX
  8
0
 62
7
  6
CONTINUOUS
 10
108.9978256853
 20
57.5016442347
  0
VERTEX
  8
0
 62
7
  6
CONTINUOUS
 10
109.0029357284
 20
57.5465644683
  0
SEQEND
  0
LINE
  8
0
 62
7
  6
CONTINUOUS
 10
108.8030029427
 20
57.3465731864
 11
54.2243299696
 21
57.3465731864
  0
POLYLINE
  8
0
 62
7
  6
CONTINUOUS
 66
1
 70
0
  0
VERTEX
  8
0
 62
7
  6
CONTINUOUS
 10
42.6641690056
 20
66.7921040125
  0
VERTEX
  8
0
 62
7
  6
CONTINUOUS
 10
43.0651182274
 20
66.6123207373
  0
VERTEX
  8
0
 62
7
  6
CONTINUOUS
 10
43.5307312682
 20
66.4372561992
  0
VERTEX
  8
0
 62
7
  6
CONTINUOUS
 10
44.0323557487
 20
66.2784877973
  0
VERTEX
  8
0
 62
7
  6
CONTINUOUS
 10
44.5656919508
 20
66.1357830515
  0
VERTEX
  8
0
 62
7
  6
CONTINUOUS
 10
45.1260829726
 20
66.0090948179
  0
VERTEX
  8
0
 62
7
  6
CONTINUOUS
 10
45.7086937781
 20
65.8984072869
  0
VERTEX
  8
0
 62
7
  6
CONTINUOUS
 10
46.308518705
 20
65.8036784356
  0
VERTEX
  8
0
 62
7
  6
CONTINUOUS
 10
46.8603118264
 20
65.7318006218
  0
SEQEND
  0
POLYLINE
  8
0
 62
7
  6
CONTINUOUS
 66
1
 70
0
  0
VERTEX
  8
0
 62
7
  6
CONTINUOUS
 10
97.5133942391
 20
65.558406598
  0
VERTEX
  8
0
 62
7
  6
CONTINUOUS
 10
97.2193624681
 20
65.5544368771
  0
VERTEX
  8
0
 62
7
  6
CONTINUOUS
 10
97.1394932951
 20
65.5543902106
  0
VERTEX
  8
0
 62
7
  6
CONTINUOUS
 10
97.0603178319
 20
65.5557669753
  0
VERTEX
  8
0
 62
7
  6
CONTINUOUS
 10
96.9820958581
 20
65.5587660847
  0
VERTEX
  8
0
 62
7
  6
CONTINUOUS
 10
96.9050247386
 20
65.5636016545
  0
VERTEX
  8
0
 62
7
  6
CONTINUOUS
 10
96.829311566
 20
65.5704627843
  0
VERTEX
  8
0
 62
7
  6
CONTINUOUS
 10
96.7553842972
 20
65.5795186826
  0
VERTEX
  8
0
 62
7
  6
CONTINUOUS
 10
96.6836891209
 20
65.5909343385
  0
VERTEX
  8
0
 62
7
  6
CONTINUOUS
 10
96.6140900988
 20
65.6048903145
  0
VERTEX
  8
0
 62
7
  6
CONTINUOUS
 10
96.5468545128
 20
65.621658069
  0
VERTEX
  8
0
 62
7
  6
CONTINUOUS
 10
96.4834254718
 20
65.641360221
  0
VERTEX
  8
0
 62
7
  6
CONTINUOUS
 10
96.4244305794
 20
65.664711619
  0
VERTEX
  8
0
 62
7
  6
CONTINUOUS
 10
96.3696605745
 20
65.6921145026
  0
VERTEX
  8
0
 62
7
  6
CONTINUOUS
 10
96.320729307
 20
65.7229636363
  0
VERTEX
  8
0
 62
7
  6
CONTINUOUS
 10
96.2787029442
 20
65.7564276392
  0
VERTEX
  8
0
 62
7
  6
CONTINUOUS
 10
96.2433592695
 20
65.7925628412
  0
VERTEX
  8
0
 62
7
  6
CONTINUOUS
 10
96.2149941261
 20
65.8313260829
  0
VERTEX
  8
0
 62
7
  6
CONTINUOUS
 10
96.1944178284
 20
65.8725996826
  0
VERTEX
  8
0
 62
7
  6
CONTINUOUS
 10
96.1832348013
 20
65.9155970187
  0
VERTEX
  8
0
 62
7
  6
CONTINUOUS
 10
96.181744789
 20
65.9368359219
  0
SEQEND
  0
LINE
  8
0
 62
7
  6
CONTINUOUS
 10
97.7964084081
 20
65.5608486526
 11
97.5133942391
 21
65.558406598
  0
LINE
  8
0
 62
7
  6
CONTINUOUS
 10
97.7964084081
 20
65.5608486526
 11
103.3445093487
 21
65.5614050295
  0
LINE
  8
0
 62
7
  6
CONTINUOUS
 10
46.8603176921
 20
65.7318006514
 11
46.8613376319
 21
65.7317413462
  0
LINE
  8
0
 62
7
  6
CONTINUOUS
 10
42.5685037558
 20
66.8039454082
 11
42.6732310978
 21
66.7880406236
  0
LINE
  8
0
 62
7
  6
CONTINUOUS
 10
43.0651182274
 20
190.6808256354
 11
42.6641690056
 21
190.5010423602
  0
POLYLINE
  8
0
 62
7
  6
CONTINUOUS
 66
1
 70
0
  0
VERTEX
  8
0
 62
7
  6
CONTINUOUS
 10
107.6373587616
 20
75.2039440118
  0
VERTEX
  8
0
 62
7
  6
CONTINUOUS
 10
107.8048713308
 20
75.2316058235
  0
VERTEX
  8
0
 62
7
  6
CONTINUOUS
 10
107.969897549
 20
75.2625106213
  0
VERTEX
  8
0
 62
7
  6
CONTINUOUS
 10
108.1137252503
 20
75.2934594079
  0
VERTEX
  8
0
 62
7
  6
CONTINUOUS
 10
108.2397278734
 20
75.3248685952
  0
VERTEX
  8
0
 62
7
  6
CONTINUOUS
 10
108.3513147124
 20
75.3574517362
  0
VERTEX
  8
0
 62
7
  6
CONTINUOUS
 10
108.4521660312
 20
75.392466745
  0
VERTEX
  8
0
 62
7
  6
CONTINUOUS
 10
108.5463694977
 20
75.4321502433
  0
VERTEX
  8
0
 62
7
  6
CONTINUOUS
 10
108.6378334235
 20
75.4801773611
  0
VERTEX
  8
0
 62
7
  6
CONTINUOUS
 10
108.7294406462
 20
75.5422870119
  0
VERTEX
  8
0
 62
7
  6
CONTINUOUS
 10
108.8207315138
 20
75.6260159367
  0
VERTEX
  8
0
 62
7
  6
CONTINUOUS
 10
108.9042194215
 20
75.7366613479
  0
VERTEX
  8
0
 62
7
  6
CONTINUOUS
 10
108.9671631448
 20
75.8716510134
  0
VERTEX
  8
0
 62
7
  6
CONTINUOUS
 10
108.9993053007
 20
76.0194858026
  0
VERTEX
  8
0
 62
7
  6
CONTINUOUS
 10
109.0029356335
 20
76.0903999452
  0
SEQEND
  0
LINE
  8
0
 62
7
  6
CONTINUOUS
 10
107.5326413044
 20
75.1880428982
 11
107.6373668491
 21
75.2039452726
  0
POLYLINE
  8
0
 62
7
  6
CONTINUOUS
 66
1
 70
0
  0
VERTEX
  8
0
 62
7
  6
CONTINUOUS
 10
103.3455596202
 20
74.1318006185
  0
VERTEX
  8
0
 62
7
  6
CONTINUOUS
 10
103.8938510026
 20
74.2031778735
  0
VERTEX
  8
0
 62
7
  6
CONTINUOUS
 10
104.493832418
 20
74.2978273349
  0
VERTEX
  8
0
 62
7
  6
CONTINUOUS
 10
105.0766193825
 20
74.4084379397
  0
VERTEX
  8
0
 62
7
  6
CONTINUOUS
 10
105.6372050488
 20
74.5350518259
  0
VERTEX
  8
0
 62
7
  6
CONTINUOUS
 10
106.1707527271
 20
74.6776845803
  0
VERTEX
  8
0
 62
7
  6
CONTINUOUS
 10
106.6726031052
 20
74.8363825045
  0
VERTEX
  8
0
 62
7
  6
CONTINUOUS
 10
107.1384537105
 20
75.0113762861
  0
SEQEND
  0
POLYLINE
  8
0
 62
7
  6
CONTINUOUS
 66
1
 70
0
  0
VERTEX
  8
0
 62
7
  6
CONTINUOUS
 10
52.6885095058
 20
65.73469291
  0
VERTEX
  8
0
 62
7
  6
CONTINUOUS
 10
52.9818316246
 20
65.7386658869
  0
VERTEX
  8
0
 62
7
  6
CONTINUOUS
 10
53.0614251677
 20
65.7387922103
  0
VERTEX
  8
0
 62
7
  6
CONTINUOUS
 10
53.1404878289
 20
65.7375135309
  0
VERTEX
  8
0
 62
7
  6
CONTINUOUS
 10
53.2187395531
 20
65.7346270541
  0
VERTEX
  8
0
 62
7
  6
CONTINUOUS
 10
53.2959577971
 20
65.7299116521
  0
VERTEX
  8
0
 62
7
  6
CONTINUOUS
 10
53.371922846
 20
65.7231687316
  0
VERTEX
  8
0
 62
7
  6
CONTINUOUS
 10
53.4462019907
 20
65.7142223854
  0
VERTEX
  8
0
 62
7
  6
CONTINUOUS
 10
53.518286989
 20
65.7029028682
  0
VERTEX
  8
0
 62
7
  6
CONTINUOUS
 10
53.5883916579
 20
65.689011469
  0
VERTEX
  8
0
 62
7
  6
CONTINUOUS
 10
53.65604181
 20
65.6723115931
  0
VERTEX
  8
0
 62
7
  6
CONTINUOUS
 10
53.7201099943
 20
65.6525970512
  0
VERTEX
  8
0
 62
7
  6
CONTINUOUS
 10
53.7795998194
 20
65.6292503736
  0
VERTEX
  8
0
 62
7
  6
CONTINUOUS
 10
53.8348687682
 20
65.6017819505
  0
VERTEX
  8
0
 62
7
  6
CONTINUOUS
 10
53.8843132976
 20
65.5707670739
  0
VERTEX
  8
0
 62
7
  6
CONTINUOUS
 10
53.9264922704
 20
65.5373243879
  0
VERTEX
  8
0
 62
7
  6
CONTINUOUS
 10
53.9617665622
 20
65.5014544965
  0
VERTEX
  8
0
 62
7
  6
CONTINUOUS
 10
53.9900623737
 20
65.4631343212
  0
VERTEX
  8
0
 62
7
  6
CONTINUOUS
 10
54.0107724793
 20
65.4223033207
  0
VERTEX
  8
0
 62
7
  6
CONTINUOUS
 10
54.0223607413
 20
65.379506498
  0
VERTEX
  8
0
 62
7
  6
CONTINUOUS
 10
54.0241272515
 20
65.3561366997
  0
SEQEND
  0
LINE
  8
0
 62
7
  6
CONTINUOUS
 10
52.405487769
 20
65.7322769356
 11
52.6885095058
 21
65.73469291
  0
LINE
  8
0
 62
7
  6
CONTINUOUS
 10
46.8613996434
 20
65.7317413432
 11
52.405487769
 21
65.7322769356
  0
LINE
  8
0
 62
7
  6
CONTINUOUS
 10
103.3445414617
 20
65.5614050295
 11
103.3455494988
 21
65.5613457034
  0
LINE
  8
0
 62
7
  6
CONTINUOUS
 10
107.6373668491
 20
64.4892011002
 11
107.5326413041
 21
64.5051034745
  0
LINE
  8
0
 62
7
  6
CONTINUOUS
 10
64.9918246263
 20
197.5095320249
 11
64.3696024041
 21
197.0937923153
  0
LINE
  8
0
 62
7
  6
CONTINUOUS
 10
67.2140468485
 20
194.1836143478
 11
67.8362690707
 21
194.5993540574
  0
LINE
  8
0
 62
7
  6
CONTINUOUS
 10
103.3455537545
 20
74.1318006481
 11
103.3445338429
 21
74.1317413462
  0
LINE
  8
0
 62
7
  6
CONTINUOUS
 10
46.8603176921
 20
73.9613457213
 11
46.8613376319
 21
73.9614050265
  0
POLYLINE
  8
0
 62
7
  6
CONTINUOUS
 66
1
 70
0
  0
VERTEX
  8
0
 62
7
  6
CONTINUOUS
 10
52.985937378
 20
73.9544425245
  0
VERTEX
  8
0
 62
7
  6
CONTINUOUS
 10
52.6924733922
 20
73.958407001
  0
VERTEX
  8
0
 62
7
  6
CONTINUOUS
 10
52.4094611908
 20
73.9608487449
  0
VERTEX
  8
0
 62
7
  6
CONTINUOUS
 10
46.8613996434
 20
73.9614050295
  0
SEQEND
  0
POLYLINE
  8
0
 62
7
  6
CONTINUOUS
 66
1
 70
0
  0
VERTEX
  8
0
 62
7
  6
CONTINUOUS
 10
97.2235629225
 20
74.1386704654
  0
VERTEX
  8
0
 62
7
  6
CONTINUOUS
 10
97.5173620197
 20
74.1346929102
  0
VERTEX
  8
0
 62
7
  6
CONTINUOUS
 10
97.8003836802
 20
74.1322769357
  0
VERTEX
  8
0
 62
7
  6
CONTINUOUS
 10
103.3444718314
 20
74.1317413432
  0
SEQEND
  0
POLYLINE
  8
0
 62
7
  6
CONTINUOUS
 66
1
 70
0
  0
VERTEX
  8
0
 62
7
  6
CONTINUOUS
 10
42.6641690056
 20
83.5921040125
  0
VERTEX
  8
0
 62
7
  6
CONTINUOUS
 10
43.0651182274
 20
83.4123207373
  0
VERTEX
  8
0
 62
7
  6
CONTINUOUS
 10
43.5307312682
 20
83.2372561992
  0
VERTEX
  8
0
 62
7
  6
CONTINUOUS
 10
44.0323557487
 20
83.0784877973
  0
VERTEX
  8
0
 62
7
  6
CONTINUOUS
 10
44.5656919508
 20
82.9357830515
  0
VERTEX
  8
0
 62
7
  6
CONTINUOUS
 10
45.1260829726
 20
82.8090948179
  0
VERTEX
  8
0
 62
7
  6
CONTINUOUS
 10
45.7086937781
 20
82.6984072869
  0
VERTEX
  8
0
 62
7
  6
CONTINUOUS
 10
46.308518705
 20
82.6036784356
  0
VERTEX
  8
0
 62
7
  6
CONTINUOUS
 10
46.8603118264
 20
82.5318006218
  0
SEQEND
  0
LINE
  8
0
 62
7
  6
CONTINUOUS
 10
82.9918246263
 20
197.5095320249
 11
82.3696024041
 21
197.0937923153
  0
LINE
  8
0
 62
7
  6
CONTINUOUS
 10
43.0651182274
 20
173.8808256354
 11
42.6641690056
 21
173.7010423602
  0
POLYLINE
  8
0
 62
7
  6
CONTINUOUS
 66
1
 70
0
  0
VERTEX
  8
0
 62
7
  6
CONTINUOUS
 10
42.5685119611
 20
72.8892022437
  0
VERTEX
  8
0
 62
7
  6
CONTINUOUS
 10
42.3997169078
 20
72.861315598
  0
VERTEX
  8
0
 62
7
  6
CONTINUOUS
 10
42.2351566914
 20
72.8304716966
  0
VERTEX
  8
0
 62
7
  6
CONTINUOUS
 10
42.0917184148
 20
72.7995879458
  0
VERTEX
  8
0
 62
7
  6
CONTINUOUS
 10
41.9660401143
 20
72.7682498992
  0
VERTEX
  8
0
 62
7
  6
CONTINUOUS
 10
41.854726444
 20
72.7357485139
  0
VERTEX
  8
0
 62
7
  6
CONTINUOUS
 10
41.7541168225
 20
72.700836211
  0
VERTEX
  8
0
 62
7
  6
CONTINUOUS
 10
41.6601519514
 20
72.6612995838
  0
VERTEX
  8
0
 62
7
  6
CONTINUOUS
 10
41.5689561704
 20
72.6135109925
  0
VERTEX
  8
0
 62
7
  6
CONTINUOUS
 10
41.477643994
 20
72.5518019493
  0
VERTEX
  8
0
 62
7
  6
CONTINUOUS
 10
41.3865962401
 20
72.468704882
  0
VERTEX
  8
0
 62
7
  6
CONTINUOUS
 10
41.303126681
 20
72.3588996169
  0
VERTEX
  8
0
 62
7
  6
CONTINUOUS
 10
41.2398163738
 20
72.2247458347
  0
VERTEX
  8
0
 62
7
  6
CONTINUOUS
 10
41.2069728984
 20
72.0774995795
  0
VERTEX
  8
0
 62
7
  6
CONTINUOUS
 10
41.2029358444
 20
72.0027438738
  0
SEQEND
  0
LINE
  8
0
 62
7
  6
CONTINUOUS
 10
42.6732310978
 20
72.9051057491
 11
42.5685037558
 21
72.8892009646
  0
POLYLINE
  8
0
 62
7
  6
CONTINUOUS
 66
1
 70
0
  0
VERTEX
  8
0
 62
7
  6
CONTINUOUS
 10
46.8603118264
 20
73.9613457509
  0
VERTEX
  8
0
 62
7
  6
CONTINUOUS
 10
46.308518705
 20
73.8894679372
  0
VERTEX
  8
0
 62
7
  6
CONTINUOUS
 10
45.7086937781
 20
73.7947390858
  0
VERTEX
  8
0
 62
7
  6
CONTINUOUS
 10
45.1260829726
 20
73.6840515548
  0
VERTEX
  8
0
 62
7
  6
CONTINUOUS
 10
44.5656919508
 20
73.5573633213
  0
VERTEX
  8
0
 62
7
  6
CONTINUOUS
 10
44.0323557487
 20
73.4146585755
  0
VERTEX
  8
0
 62
7
  6
CONTINUOUS
 10
43.5307312682
 20
73.2558901736
  0
VERTEX
  8
0
 62
7
  6
CONTINUOUS
 10
43.0651182274
 20
73.0808256354
  0
SEQEND
  0
POLYLINE
  8
0
 62
7
  6
CONTINUOUS
 66
1
 70
0
  0
VERTEX
  8
0
 62
7
  6
CONTINUOUS
 10
52.6885095058
 20
82.53469291
  0
VERTEX
  8
0
 62
7
  6
CONTINUOUS
 10
52.9818316246
 20
82.5386658869
  0
VERTEX
  8
0
 62
7
  6
CONTINUOUS
 10
53.0614251677
 20
82.5387922103
  0
VERTEX
  8
0
 62
7
  6
CONTINUOUS
 10
53.1404878289
 20
82.5375135309
  0
VERTEX
  8
0
 62
7
  6
CONTINUOUS
 10
53.2187395531
 20
82.5346270541
  0
VERTEX
  8
0
 62
7
  6
CONTINUOUS
 10
53.2959577971
 20
82.5299116521
  0
VERTEX
  8
0
 62
7
  6
CONTINUOUS
 10
53.371922846
 20
82.5231687316
  0
VERTEX
  8
0
 62
7
  6
CONTINUOUS
 10
53.4462019907
 20
82.5142223854
  0
VERTEX
  8
0
 62
7
  6
CONTINUOUS
 10
53.518286989
 20
82.5029028682
  0
VERTEX
  8
0
 62
7
  6
CONTINUOUS
 10
53.5883916579
 20
82.489011469
  0
VERTEX
  8
0
 62
7
  6
CONTINUOUS
 10
53.65604181
 20
82.4723115931
  0
VERTEX
  8
0
 62
7
  6
CONTINUOUS
 10
53.7201099943
 20
82.4525970512
  0
VERTEX
  8
0
 62
7
  6
CONTINUOUS
 10
53.7795998194
 20
82.4292503736
  0
VERTEX
  8
0
 62
7
  6
CONTINUOUS
 10
53.8348687682
 20
82.4017819505
  0
VERTEX
  8
0
 62
7
  6
CONTINUOUS
 10
53.8843132976
 20
82.3707670739
  0
VERTEX
  8
0
 62
7
  6
CONTINUOUS
 10
53.9264922704
 20
82.3373243879
  0
VERTEX
  8
0
 62
7
  6
CONTINUOUS
 10
53.9617665622
 20
82.3014544965
  0
VERTEX
  8
0
 62
7
  6
CONTINUOUS
 10
53.9900623737
 20
82.2631343212
  0
VERTEX
  8
0
 62
7
  6
CONTINUOUS
 10
54.0107724793
 20
82.2223033207
  0
VERTEX
  8
0
 62
7
  6
CONTINUOUS
 10
54.0223607413
 20
82.179506498
  0
VERTEX
  8
0
 62
7
  6
CONTINUOUS
 10
54.0241272515
 20
82.1561366997
  0
SEQEND
  0
POLYLINE
  8
0
 62
7
  6
CONTINUOUS
 66
1
 70
0
  0
VERTEX
  8
0
 62
7
  6
CONTINUOUS
 10
97.5133942391
 20
82.358406598
  0
VERTEX
  8
0
 62
7
  6
CONTINUOUS
 10
97.2193624681
 20
82.3544368771
  0
VERTEX
  8
0
 62
7
  6
CONTINUOUS
 10
97.1394932951
 20
82.3543902106
  0
VERTEX
  8
0
 62
7
  6
CONTINUOUS
 10
97.0603178319
 20
82.3557669753
  0
VERTEX
  8
0
 62
7
  6
CONTINUOUS
 10
96.9820958581
 20
82.3587660847
  0
VERTEX
  8
0
 62
7
  6
CONTINUOUS
 10
96.9050247386
 20
82.3636016545
  0
VERTEX
  8
0
 62
7
  6
CONTINUOUS
 10
96.829311566
 20
82.3704627843
  0
VERTEX
  8
0
 62
7
  6
CONTINUOUS
 10
96.7553842972
 20
82.3795186826
  0
VERTEX
  8
0
 62
7
  6
CONTINUOUS
 10
96.6836891209
 20
82.3909343385
  0
VERTEX
  8
0
 62
7
  6
CONTINUOUS
 10
96.6140900988
 20
82.4048903145
  0
VERTEX
  8
0
 62
7
  6
CONTINUOUS
 10
96.5468545128
 20
82.421658069
  0
VERTEX
  8
0
 62
7
  6
CONTINUOUS
 10
96.4834254718
 20
82.441360221
  0
VERTEX
  8
0
 62
7
  6
CONTINUOUS
 10
96.4244305794
 20
82.464711619
  0
VERTEX
  8
0
 62
7
  6
CONTINUOUS
 10
96.3696605745
 20
82.4921145026
  0
VERTEX
  8
0
 62
7
  6
CONTINUOUS
 10
96.320729307
 20
82.5229636363
  0
VERTEX
  8
0
 62
7
  6
CONTINUOUS
 10
96.2787029442
 20
82.5564276392
  0
VERTEX
  8
0
 62
7
  6
CONTINUOUS
 10
96.2433592695
 20
82.5925628412
  0
VERTEX
  8
0
 62
7
  6
CONTINUOUS
 10
96.2149941261
 20
82.6313260829
  0
VERTEX
  8
0
 62
7
  6
CONTINUOUS
 10
96.1944178284
 20
82.6725996826
  0
VERTEX
  8
0
 62
7
  6
CONTINUOUS
 10
96.1832348013
 20
82.7155970187
  0
VERTEX
  8
0
 62
7
  6
CONTINUOUS
 10
96.181744789
 20
82.7368359219
  0
SEQEND
  0
LINE
  8
0
 62
7
  6
CONTINUOUS
 10
97.7964084081
 20
82.3608486526
 11
97.5133942391
 21
82.358406598
  0
LINE
  8
0
 62
7
  6
CONTINUOUS
 10
52.405487769
 20
82.5322769356
 11
52.6885095058
 21
82.53469291
  0
LINE
  8
0
 62
7
  6
CONTINUOUS
 10
97.7964084081
 20
82.3608486526
 11
103.3445093487
 21
82.3614050295
  0
LINE
  8
0
 62
7
  6
CONTINUOUS
 10
46.8613996434
 20
82.5317413432
 11
52.405487769
 21
82.5322769356
  0
LINE
  8
0
 62
7
  6
CONTINUOUS
 10
46.8603176921
 20
82.5318006514
 11
46.8613376319
 21
82.5317413462
  0
LINE
  8
0
 62
7
  6
CONTINUOUS
 10
103.3445414617
 20
82.3614050295
 11
103.3455494988
 21
82.3613457034
  0
LINE
  8
0
 62
7
  6
CONTINUOUS
 10
42.5685037558
 20
83.6039454082
 11
42.6732310978
 21
83.5880406236
  0
POLYLINE
  8
0
 62
7
  6
CONTINUOUS
 66
1
 70
0
  0
VERTEX
  8
0
 62
7
  6
CONTINUOUS
 10
107.5417003431
 20
64.5010434034
  0
VERTEX
  8
0
 62
7
  6
CONTINUOUS
 10
107.1384536036
 20
64.6817701305
  0
VERTEX
  8
0
 62
7
  6
CONTINUOUS
 10
106.6726028724
 20
64.8567639483
  0
VERTEX
  8
0
 62
7
  6
CONTINUOUS
 10
106.1707523523
 20
65.0154619013
  0
VERTEX
  8
0
 62
7
  6
CONTINUOUS
 10
105.6372045189
 20
65.158094677
  0
VERTEX
  8
0
 62
7
  6
CONTINUOUS
 10
105.0766186881
 20
65.2847085769
  0
VERTEX
  8
0
 62
7
  6
CONTINUOUS
 10
104.4938315531
 20
65.3953191877
  0
VERTEX
  8
0
 62
7
  6
CONTINUOUS
 10
103.8938499647
 20
65.4899686475
  0
VERTEX
  8
0
 62
7
  6
CONTINUOUS
 10
103.3455596202
 20
65.5613457542
  0
SEQEND
  0
LINE
  8
0
 62
7
  6
CONTINUOUS
 10
64.9918246263
 20
180.7095320249
 11
64.3696024041
 21
180.2937923153
  0
LINE
  8
0
 62
7
  6
CONTINUOUS
 10
85.2140468485
 20
194.1836143478
 11
85.8362690707
 21
194.5993540574
  0
POLYLINE
  8
0
 62
7
  6
CONTINUOUS
 66
1
 70
0
  0
VERTEX
  8
0
 62
7
  6
CONTINUOUS
 10
107.6373587616
 20
92.0039440118
  0
VERTEX
  8
0
 62
7
  6
CONTINUOUS
 10
107.8048713308
 20
92.0316058235
  0
VERTEX
  8
0
 62
7
  6
CONTINUOUS
 10
107.969897549
 20
92.0625106213
  0
VERTEX
  8
0
 62
7
  6
CONTINUOUS
 10
108.1137252503
 20
92.0934594079
  0
VERTEX
  8
0
 62
7
  6
CONTINUOUS
 10
108.2397278734
 20
92.1248685952
  0
VERTEX
  8
0
 62
7
  6
CONTINUOUS
 10
108.3513147124
 20
92.1574517362
  0
VERTEX
  8
0
 62
7
  6
CONTINUOUS
 10
108.4521660312
 20
92.192466745
  0
VERTEX
  8
0
 62
7
  6
CONTINUOUS
 10
108.5463694977
 20
92.2321502433
  0
VERTEX
  8
0
 62
7
  6
CONTINUOUS
 10
108.6378334235
 20
92.2801773611
  0
VERTEX
  8
0
 62
7
  6
CONTINUOUS
 10
108.7294406462
 20
92.3422870119
  0
VERTEX
  8
0
 62
7
  6
CONTINUOUS
 10
108.8207315138
 20
92.4260159367
  0
VERTEX
  8
0
 62
7
  6
CONTINUOUS
 10
108.9042194215
 20
92.5366613479
  0
VERTEX
  8
0
 62
7
  6
CONTINUOUS
 10
108.9671631448
 20
92.6716510134
  0
VERTEX
  8
0
 62
7
  6
CONTINUOUS
 10
108.9993053007
 20
92.8194858026
  0
VERTEX
  8
0
 62
7
  6
CONTINUOUS
 10
109.0029356335
 20
92.8903999452
  0
SEQEND
  0
LINE
  8
0
 62
7
  6
CONTINUOUS
 10
107.5326413044
 20
91.9880428982
 11
107.6373668491
 21
92.0039452726
  0
POLYLINE
  8
0
 62
7
  6
CONTINUOUS
 66
1
 70
0
  0
VERTEX
  8
0
 62
7
  6
CONTINUOUS
 10
103.3455596202
 20
90.9318006185
  0
VERTEX
  8
0
 62
7
  6
CONTINUOUS
 10
103.8938510026
 20
91.0031778735
  0
VERTEX
  8
0
 62
7
  6
CONTINUOUS
 10
104.493832418
 20
91.0978273349
  0
VERTEX
  8
0
 62
7
  6
CONTINUOUS
 10
105.0766193825
 20
91.2084379397
  0
VERTEX
  8
0
 62
7
  6
CONTINUOUS
 10
105.6372050488
 20
91.3350518259
  0
VERTEX
  8
0
 62
7
  6
CONTINUOUS
 10
106.1707527271
 20
91.4776845803
  0
VERTEX
  8
0
 62
7
  6
CONTINUOUS
 10
106.6726031052
 20
91.6363825045
  0
VERTEX
  8
0
 62
7
  6
CONTINUOUS
 10
107.1384537105
 20
91.8113762861
  0
SEQEND
  0
LINE
  8
0
 62
7
  6
CONTINUOUS
 10
103.3455537545
 20
90.9318006481
 11
103.3445338429
 21
90.9317413462
  0
LINE
  8
0
 62
7
  6
CONTINUOUS
 10
107.6373668491
 20
81.2892011002
 11
107.5326413041
 21
81.3051034745
  0
POLYLINE
  8
0
 62
7
  6
CONTINUOUS
 66
1
 70
0
  0
VERTEX
  8
0
 62
7
  6
CONTINUOUS
 10
42.6641690056
 20
100.3921040125
  0
VERTEX
  8
0
 62
7
  6
CONTINUOUS
 10
43.0651182274
 20
100.2123207373
  0
VERTEX
  8
0
 62
7
  6
CONTINUOUS
 10
43.5307312682
 20
100.0372561992
  0
VERTEX
  8
0
 62
7
  6
CONTINUOUS
 10
44.0323557487
 20
99.8784877973
  0
VERTEX
  8
0
 62
7
  6
CONTINUOUS
 10
44.5656919508
 20
99.7357830515
  0
VERTEX
  8
0
 62
7
  6
CONTINUOUS
 10
45.1260829726
 20
99.6090948179
  0
VERTEX
  8
0
 62
7
  6
CONTINUOUS
 10
45.7086937781
 20
99.4984072869
  0
VERTEX
  8
0
 62
7
  6
CONTINUOUS
 10
46.308518705
 20
99.4036784356
  0
VERTEX
  8
0
 62
7
  6
CONTINUOUS
 10
46.8603118264
 20
99.3318006218
  0
SEQEND
  0
POLYLINE
  8
0
 62
7
  6
CONTINUOUS
 66
1
 70
0
  0
VERTEX
  8
0
 62
7
  6
CONTINUOUS
 10
41.2029358409
 20
67.6903995665
  0
VERTEX
  8
0
 62
7
  6
CONTINUOUS
 10
41.2065539559
 20
67.6196044153
  0
VERTEX
  8
0
 62
7
  6
CONTINUOUS
 10
41.2386305013
 20
67.4718813775
  0
VERTEX
  8
0
 62
7
  6
CONTINUOUS
 10
41.3014706068
 20
67.336960011
  0
VERTEX
  8
0
 62
7
  6
CONTINUOUS
 10
41.3848541859
 20
67.2263260067
  0
VERTEX
  8
0
 62
7
  6
CONTINUOUS
 10
41.4760657479
 20
67.1425713977
  0
VERTEX
  8
0
 62
7
  6
CONTINUOUS
 10
41.5676089407
 20
67.0804311464
  0
VERTEX
  8
0
 62
7
  6
CONTINUOUS
 10
41.659003151
 20
67.0323834479
  0
VERTEX
  8
0
 62
7
  6
CONTINUOUS
 10
41.7531168571
 20
66.9926910009
  0
VERTEX
  8
0
 62
7
  6
CONTINUOUS
 10
41.853849806
 20
66.9576763699
  0
VERTEX
  8
0
 62
7
  6
CONTINUOUS
 10
41.9652855363
 20
66.9250998655
  0
VERTEX
  8
0
 62
7
  6
CONTINUOUS
 10
42.0911019239
 20
66.8937011989
  0
VERTEX
  8
0
 62
7
  6
CONTINUOUS
 10
42.2347062693
 20
66.8627651474
  0
VERTEX
  8
0
 62
7
  6
CONTINUOUS
 10
42.3994698823
 20
66.8318741032
  0
VERTEX
  8
0
 62
7
  6
CONTINUOUS
 10
42.5685120127
 20
66.803944121
  0
SEQEND
  0
POLYLINE
  8
0
 62
7
  6
CONTINUOUS
 66
1
 70
0
  0
VERTEX
  8
0
 62
7
  6
CONTINUOUS
 10
41.2029358409
 20
84.4903995671
  0
VERTEX
  8
0
 62
7
  6
CONTINUOUS
 10
41.206553974
 20
84.4196042394
  0
VERTEX
  8
0
 62
7
  6
CONTINUOUS
 10
41.2386305791
 20
84.2718811471
  0
VERTEX
  8
0
 62
7
  6
CONTINUOUS
 10
41.3014707171
 20
84.1369598294
  0
VERTEX
  8
0
 62
7
  6
CONTINUOUS
 10
41.3848542534
 20
84.0263259335
  0
VERTEX
  8
0
 62
7
  6
CONTINUOUS
 10
41.4760657482
 20
83.9425713975
  0
VERTEX
  8
0
 62
7
  6
CONTINUOUS
 10
41.5676088486
 20
83.8804312008
  0
VERTEX
  8
0
 62
7
  6
CONTINUOUS
 10
41.6590029724
 20
83.8323835315
  0
VERTEX
  8
0
 62
7
  6
CONTINUOUS
 10
41.7531166205
 20
83.7926910912
  0
VERTEX
  8
0
 62
7
  6
CONTINUOUS
 10
41.8538495209
 20
83.7576764605
  0
VERTEX
  8
0
 62
7
  6
CONTINUOUS
 10
41.9652852172
 20
83.7250999516
  0
VERTEX
  8
0
 62
7
  6
CONTINUOUS
 10
42.091101599
 20
83.6937012741
  0
VERTEX
  8
0
 62
7
  6
CONTINUOUS
 10
42.2347059841
 20
83.6627652047
  0
VERTEX
  8
0
 62
7
  6
CONTINUOUS
 10
42.3994697019
 20
83.6318741349
  0
VERTEX
  8
0
 62
7
  6
CONTINUOUS
 10
42.5685120127
 20
83.603944121
  0
SEQEND
  0
LINE
  8
0
 62
7
  6
CONTINUOUS
 10
67.2140468485
 20
177.3836143478
 11
67.8362690707
 21
177.7993540574
  0
LINE
  8
0
 62
7
  6
CONTINUOUS
 10
107.1384537105
 20
192.6113762861
 11
107.5417003431
 21
192.7921029694
  0
POLYLINE
  8
0
 62
7
  6
CONTINUOUS
 66
1
 70
0
  0
VERTEX
  8
0
 62
7
  6
CONTINUOUS
 10
42.5685119611
 20
89.6892022437
  0
VERTEX
  8
0
 62
7
  6
CONTINUOUS
 10
42.3997169078
 20
89.661315598
  0
VERTEX
  8
0
 62
7
  6
CONTINUOUS
 10
42.2351566914
 20
89.6304716966
  0
VERTEX
  8
0
 62
7
  6
CONTINUOUS
 10
42.0917184148
 20
89.5995879458
  0
VERTEX
  8
0
 62
7
  6
CONTINUOUS
 10
41.9660401143
 20
89.5682498992
  0
VERTEX
  8
0
 62
7
  6
CONTINUOUS
 10
41.854726444
 20
89.5357485139
  0
VERTEX
  8
0
 62
7
  6
CONTINUOUS
 10
41.7541168225
 20
89.500836211
  0
VERTEX
  8
0
 62
7
  6
CONTINUOUS
 10
41.6601519514
 20
89.4612995838
  0
VERTEX
  8
0
 62
7
  6
CONTINUOUS
 10
41.5689561704
 20
89.4135109925
  0
VERTEX
  8
0
 62
7
  6
CONTINUOUS
 10
41.477643994
 20
89.3518019493
  0
VERTEX
  8
0
 62
7
  6
CONTINUOUS
 10
41.3865962401
 20
89.268704882
  0
VERTEX
  8
0
 62
7
  6
CONTINUOUS
 10
41.303126681
 20
89.1588996169
  0
VERTEX
  8
0
 62
7
  6
CONTINUOUS
 10
41.2398163738
 20
89.0247458347
  0
VERTEX
  8
0
 62
7
  6
CONTINUOUS
 10
41.2069728984
 20
88.8774995795
  0
VERTEX
  8
0
 62
7
  6
CONTINUOUS
 10
41.2029358444
 20
88.8027438738
  0
SEQEND
  0
LINE
  8
0
 62
7
  6
CONTINUOUS
 10
42.6732310978
 20
89.7051057491
 11
42.5685037558
 21
89.6892009646
  0
POLYLINE
  8
0
 62
7
  6
CONTINUOUS
 66
1
 70
0
  0
VERTEX
  8
0
 62
7
  6
CONTINUOUS
 10
46.8603118264
 20
90.7613457509
  0
VERTEX
  8
0
 62
7
  6
CONTINUOUS
 10
46.308518705
 20
90.6894679372
  0
VERTEX
  8
0
 62
7
  6
CONTINUOUS
 10
45.7086937781
 20
90.5947390858
  0
VERTEX
  8
0
 62
7
  6
CONTINUOUS
 10
45.1260829726
 20
90.4840515548
  0
VERTEX
  8
0
 62
7
  6
CONTINUOUS
 10
44.5656919508
 20
90.3573633213
  0
VERTEX
  8
0
 62
7
  6
CONTINUOUS
 10
44.0323557487
 20
90.2146585755
  0
VERTEX
  8
0
 62
7
  6
CONTINUOUS
 10
43.5307312682
 20
90.0558901736
  0
VERTEX
  8
0
 62
7
  6
CONTINUOUS
 10
43.0651182274
 20
89.8808256354
  0
SEQEND
  0
LINE
  8
0
 62
7
  6
CONTINUOUS
 10
46.8603176921
 20
90.7613457213
 11
46.8613376319
 21
90.7614050265
  0
POLYLINE
  8
0
 62
7
  6
CONTINUOUS
 66
1
 70
0
  0
VERTEX
  8
0
 62
7
  6
CONTINUOUS
 10
52.985937378
 20
90.7544425245
  0
VERTEX
  8
0
 62
7
  6
CONTINUOUS
 10
52.6924733922
 20
90.758407001
  0
VERTEX
  8
0
 62
7
  6
CONTINUOUS
 10
52.4094611908
 20
90.7608487449
  0
VERTEX
  8
0
 62
7
  6
CONTINUOUS
 10
46.8613996434
 20
90.7614050295
  0
SEQEND
  0
POLYLINE
  8
0
 62
7
  6
CONTINUOUS
 66
1
 70
0
  0
VERTEX
  8
0
 62
7
  6
CONTINUOUS
 10
97.2235629225
 20
90.9386704654
  0
VERTEX
  8
0
 62
7
  6
CONTINUOUS
 10
97.5173620197
 20
90.9346929102
  0
VERTEX
  8
0
 62
7
  6
CONTINUOUS
 10
97.8003836802
 20
90.9322769357
  0
VERTEX
  8
0
 62
7
  6
CONTINUOUS
 10
103.3444718314
 20
90.9317413432
  0
SEQEND
  0
LINE
  8
0
 62
7
  6
CONTINUOUS
 10
42.5685037558
 20
100.4039454082
 11
42.6732310978
 21
100.3880406236
  0
LINE
  8
0
 62
7
  6
CONTINUOUS
 10
64.3696024041
 20
93.7993540574
 11
64.9918246263
 21
93.3836143478
  0
POLYLINE
  8
0
 62
7
  6
CONTINUOUS
 66
1
 70
0
  0
VERTEX
  8
0
 62
7
  6
CONTINUOUS
 10
103.3455494988
 20
65.5613457034
  0
VERTEX
  8
0
 62
7
  6
CONTINUOUS
 10
103.3541463968
 20
65.555534003
  0
VERTEX
  8
0
 62
7
  6
CONTINUOUS
 10
103.3629397153
 20
65.5364472501
  0
VERTEX
  8
0
 62
7
  6
CONTINUOUS
 10
103.369668158
 20
65.505246003
  0
VERTEX
  8
0
 62
7
  6
CONTINUOUS
 10
103.3739878614
 20
65.4639274571
  0
VERTEX
  8
0
 62
7
  6
CONTINUOUS
 10
103.375776748
 20
65.4152311109
  0
VERTEX
  8
0
 62
7
  6
CONTINUOUS
 10
103.3752170607
 20
65.3614050295
  0
SEQEND
  0
POLYLINE
  8
0
 62
7
  6
CONTINUOUS
 66
1
 70
0
  0
VERTEX
  8
0
 62
7
  6
CONTINUOUS
 10
41.2029358409
 20
101.2903995671
  0
VERTEX
  8
0
 62
7
  6
CONTINUOUS
 10
41.206553974
 20
101.2196042394
  0
VERTEX
  8
0
 62
7
  6
CONTINUOUS
 10
41.2386305791
 20
101.0718811471
  0
VERTEX
  8
0
 62
7
  6
CONTINUOUS
 10
41.3014707171
 20
100.9369598294
  0
VERTEX
  8
0
 62
7
  6
CONTINUOUS
 10
41.3848542534
 20
100.8263259335
  0
VERTEX
  8
0
 62
7
  6
CONTINUOUS
 10
41.4760657482
 20
100.7425713975
  0
VERTEX
  8
0
 62
7
  6
CONTINUOUS
 10
41.5676088486
 20
100.6804312008
  0
VERTEX
  8
0
 62
7
  6
CONTINUOUS
 10
41.6590029724
 20
100.6323835315
  0
VERTEX
  8
0
 62
7
  6
CONTINUOUS
 10
41.7531166205
 20
100.5926910912
  0
VERTEX
  8
0
 62
7
  6
CONTINUOUS
 10
41.8538495209
 20
100.5576764605
  0
VERTEX
  8
0
 62
7
  6
CONTINUOUS
 10
41.9652852172
 20
100.5250999516
  0
VERTEX
  8
0
 62
7
  6
CONTINUOUS
 10
42.091101599
 20
100.4937012741
  0
VERTEX
  8
0
 62
7
  6
CONTINUOUS
 10
42.2347059841
 20
100.4627652047
  0
VERTEX
  8
0
 62
7
  6
CONTINUOUS
 10
42.3994697019
 20
100.4318741349
  0
VERTEX
  8
0
 62
7
  6
CONTINUOUS
 10
42.5685120127
 20
100.403944121
  0
SEQEND
  0
POLYLINE
  8
0
 62
7
  6
CONTINUOUS
 66
1
 70
0
  0
VERTEX
  8
0
 62
7
  6
CONTINUOUS
 10
41.2029358409
 20
118.0903995671
  0
VERTEX
  8
0
 62
7
  6
CONTINUOUS
 10
41.206553974
 20
118.0196042394
  0
VERTEX
  8
0
 62
7
  6
CONTINUOUS
 10
41.2386305791
 20
117.8718811471
  0
VERTEX
  8
0
 62
7
  6
CONTINUOUS
 10
41.3014707171
 20
117.7369598294
  0
VERTEX
  8
0
 62
7
  6
CONTINUOUS
 10
41.3848542534
 20
117.6263259335
  0
VERTEX
  8
0
 62
7
  6
CONTINUOUS
 10
41.4760657482
 20
117.5425713975
  0
VERTEX
  8
0
 62
7
  6
CONTINUOUS
 10
41.5676088486
 20
117.4804312008
  0
VERTEX
  8
0
 62
7
  6
CONTINUOUS
 10
41.6590029724
 20
117.4323835315
  0
VERTEX
  8
0
 62
7
  6
CONTINUOUS
 10
41.7531166205
 20
117.3926910912
  0
VERTEX
  8
0
 62
7
  6
CONTINUOUS
 10
41.8538495209
 20
117.3576764605
  0
VERTEX
  8
0
 62
7
  6
CONTINUOUS
 10
41.9652852172
 20
117.3250999516
  0
VERTEX
  8
0
 62
7
  6
CONTINUOUS
 10
42.091101599
 20
117.2937012741
  0
VERTEX
  8
0
 62
7
  6
CONTINUOUS
 10
42.2347059841
 20
117.2627652047
  0
VERTEX
  8
0
 62
7
  6
CONTINUOUS
 10
42.3994697019
 20
117.2318741349
  0
VERTEX
  8
0
 62
7
  6
CONTINUOUS
 10
42.5685120127
 20
117.203944121
  0
SEQEND
  0
POLYLINE
  8
0
 62
7
  6
CONTINUOUS
 66
1
 70
0
  0
VERTEX
  8
0
 62
7
  6
CONTINUOUS
 10
41.2029358409
 20
134.8903995671
  0
VERTEX
  8
0
 62
7
  6
CONTINUOUS
 10
41.206553974
 20
134.8196042394
  0
VERTEX
  8
0
 62
7
  6
CONTINUOUS
 10
41.2386305791
 20
134.6718811471
  0
VERTEX
  8
0
 62
7
  6
CONTINUOUS
 10
41.3014707171
 20
134.5369598294
  0
VERTEX
  8
0
 62
7
  6
CONTINUOUS
 10
41.3848542534
 20
134.4263259335
  0
VERTEX
  8
0
 62
7
  6
CONTINUOUS
 10
41.4760657482
 20
134.3425713975
  0
VERTEX
  8
0
 62
7
  6
CONTINUOUS
 10
41.5676088486
 20
134.2804312008
  0
VERTEX
  8
0
 62
7
  6
CONTINUOUS
 10
41.6590029724
 20
134.2323835315
  0
VERTEX
  8
0
 62
7
  6
CONTINUOUS
 10
41.7531166205
 20
134.1926910912
  0
VERTEX
  8
0
 62
7
  6
CONTINUOUS
 10
41.8538495209
 20
134.1576764605
  0
VERTEX
  8
0
 62
7
  6
CONTINUOUS
 10
41.9652852172
 20
134.1250999516
  0
VERTEX
  8
0
 62
7
  6
CONTINUOUS
 10
42.091101599
 20
134.0937012741
  0
VERTEX
  8
0
 62
7
  6
CONTINUOUS
 10
42.2347059841
 20
134.0627652047
  0
VERTEX
  8
0
 62
7
  6
CONTINUOUS
 10
42.3994697019
 20
134.0318741349
  0
VERTEX
  8
0
 62
7
  6
CONTINUOUS
 10
42.5685120127
 20
134.003944121
  0
SEQEND
  0
POLYLINE
  8
0
 62
7
  6
CONTINUOUS
 66
1
 70
0
  0
VERTEX
  8
0
 62
7
  6
CONTINUOUS
 10
41.2029358409
 20
151.6903995671
  0
VERTEX
  8
0
 62
7
  6
CONTINUOUS
 10
41.206553974
 20
151.6196042394
  0
VERTEX
  8
0
 62
7
  6
CONTINUOUS
 10
41.2386305791
 20
151.4718811471
  0
VERTEX
  8
0
 62
7
  6
CONTINUOUS
 10
41.3014707171
 20
151.3369598294
  0
VERTEX
  8
0
 62
7
  6
CONTINUOUS
 10
41.3848542534
 20
151.2263259335
  0
VERTEX
  8
0
 62
7
  6
CONTINUOUS
 10
41.4760657482
 20
151.1425713975
  0
VERTEX
  8
0
 62
7
  6
CONTINUOUS
 10
41.5676088486
 20
151.0804312008
  0
VERTEX
  8
0
 62
7
  6
CONTINUOUS
 10
41.6590029724
 20
151.0323835315
  0
VERTEX
  8
0
 62
7
  6
CONTINUOUS
 10
41.7531166205
 20
150.9926910912
  0
VERTEX
  8
0
 62
7
  6
CONTINUOUS
 10
41.8538495209
 20
150.9576764605
  0
VERTEX
  8
0
 62
7
  6
CONTINUOUS
 10
41.9652852172
 20
150.9250999516
  0
VERTEX
  8
0
 62
7
  6
CONTINUOUS
 10
42.091101599
 20
150.8937012741
  0
VERTEX
  8
0
 62
7
  6
CONTINUOUS
 10
42.2347059841
 20
150.8627652047
  0
VERTEX
  8
0
 62
7
  6
CONTINUOUS
 10
42.3994697019
 20
150.8318741349
  0
VERTEX
  8
0
 62
7
  6
CONTINUOUS
 10
42.5685120127
 20
150.803944121
  0
SEQEND
  0
POLYLINE
  8
0
 62
7
  6
CONTINUOUS
 66
1
 70
0
  0
VERTEX
  8
0
 62
7
  6
CONTINUOUS
 10
41.2029358409
 20
168.4903995671
  0
VERTEX
  8
0
 62
7
  6
CONTINUOUS
 10
41.206553974
 20
168.4196042394
  0
VERTEX
  8
0
 62
7
  6
CONTINUOUS
 10
41.2386305791
 20
168.2718811471
  0
VERTEX
  8
0
 62
7
  6
CONTINUOUS
 10
41.3014707171
 20
168.1369598294
  0
VERTEX
  8
0
 62
7
  6
CONTINUOUS
 10
41.3848542534
 20
168.0263259335
  0
VERTEX
  8
0
 62
7
  6
CONTINUOUS
 10
41.4760657482
 20
167.9425713975
  0
VERTEX
  8
0
 62
7
  6
CONTINUOUS
 10
41.5676088486
 20
167.8804312008
  0
VERTEX
  8
0
 62
7
  6
CONTINUOUS
 10
41.6590029724
 20
167.8323835315
  0
VERTEX
  8
0
 62
7
  6
CONTINUOUS
 10
41.7531166205
 20
167.7926910912
  0
VERTEX
  8
0
 62
7
  6
CONTINUOUS
 10
41.8538495209
 20
167.7576764605
  0
VERTEX
  8
0
 62
7
  6
CONTINUOUS
 10
41.9652852172
 20
167.7250999516
  0
VERTEX
  8
0
 62
7
  6
CONTINUOUS
 10
42.091101599
 20
167.6937012741
  0
VERTEX
  8
0
 62
7
  6
CONTINUOUS
 10
42.2347059841
 20
167.6627652047
  0
VERTEX
  8
0
 62
7
  6
CONTINUOUS
 10
42.3994697019
 20
167.6318741349
  0
VERTEX
  8
0
 62
7
  6
CONTINUOUS
 10
42.5685120127
 20
167.603944121
  0
SEQEND
  0
POLYLINE
  8
0
 62
7
  6
CONTINUOUS
 66
1
 70
0
  0
VERTEX
  8
0
 62
7
  6
CONTINUOUS
 10
41.2029358409
 20
185.2903995671
  0
VERTEX
  8
0
 62
7
  6
CONTINUOUS
 10
41.206553974
 20
185.2196042394
  0
VERTEX
  8
0
 62
7
  6
CONTINUOUS
 10
41.2386305791
 20
185.0718811471
  0
VERTEX
  8
0
 62
7
  6
CONTINUOUS
 10
41.3014707171
 20
184.9369598294
  0
VERTEX
  8
0
 62
7
  6
CONTINUOUS
 10
41.3848542534
 20
184.8263259335
  0
VERTEX
  8
0
 62
7
  6
CONTINUOUS
 10
41.4760657482
 20
184.7425713975
  0
VERTEX
  8
0
 62
7
  6
CONTINUOUS
 10
41.5676088486
 20
184.6804312008
  0
VERTEX
  8
0
 62
7
  6
CONTINUOUS
 10
41.6590029724
 20
184.6323835315
  0
VERTEX
  8
0
 62
7
  6
CONTINUOUS
 10
41.7531166205
 20
184.5926910912
  0
VERTEX
  8
0
 62
7
  6
CONTINUOUS
 10
41.8538495209
 20
184.5576764605
  0
VERTEX
  8
0
 62
7
  6
CONTINUOUS
 10
41.9652852172
 20
184.5250999516
  0
VERTEX
  8
0
 62
7
  6
CONTINUOUS
 10
42.091101599
 20
184.4937012741
  0
VERTEX
  8
0
 62
7
  6
CONTINUOUS
 10
42.2347059841
 20
184.4627652047
  0
VERTEX
  8
0
 62
7
  6
CONTINUOUS
 10
42.3994697019
 20
184.4318741349
  0
VERTEX
  8
0
 62
7
  6
CONTINUOUS
 10
42.5685120127
 20
184.403944121
  0
SEQEND
  0
POLYLINE
  8
0
 62
7
  6
CONTINUOUS
 66
1
 70
0
  0
VERTEX
  8
0
 62
7
  6
CONTINUOUS
 10
41.202935828
 20
202.0903880667
  0
VERTEX
  8
0
 62
7
  6
CONTINUOUS
 10
41.2057638616
 20
202.0277590641
  0
VERTEX
  8
0
 62
7
  6
CONTINUOUS
 10
41.2370688316
 20
201.8765628452
  0
VERTEX
  8
0
 62
7
  6
CONTINUOUS
 10
41.3026008677
 20
201.7351051625
  0
VERTEX
  8
0
 62
7
  6
CONTINUOUS
 10
41.392883099
 20
201.6177505561
  0
VERTEX
  8
0
 62
7
  6
CONTINUOUS
 10
41.4939556336
 20
201.5290223226
  0
VERTEX
  8
0
 62
7
  6
CONTINUOUS
 10
41.5966939725
 20
201.4638860558
  0
VERTEX
  8
0
 62
7
  6
CONTINUOUS
 10
41.701248723
 20
201.4135557995
  0
VERTEX
  8
0
 62
7
  6
CONTINUOUS
 10
41.8121054934
 20
201.3714240501
  0
VERTEX
  8
0
 62
7
  6
CONTINUOUS
 10
41.9338331762
 20
201.3337659756
  0
VERTEX
  8
0
 62
7
  6
CONTINUOUS
 10
42.0699897878
 20
201.298649679
  0
VERTEX
  8
0
 62
7
  6
CONTINUOUS
 10
42.2235268539
 20
201.2650225093
  0
VERTEX
  8
0
 62
7
  6
CONTINUOUS
 10
42.3961907728
 20
201.2324500277
  0
VERTEX
  8
0
 62
7
  6
CONTINUOUS
 10
42.568518283
 20
201.2039431436
  0
SEQEND
  0
LINE
  8
0
 62
7
  6
CONTINUOUS
 10
41.2029357374
 20
67.6902801908
 11
41.2029357374
 21
72.002862241
  0
LINE
  8
0
 62
7
  6
CONTINUOUS
 10
41.2029357374
 20
84.4902841317
 11
41.2029357374
 21
88.802862241
  0
LINE
  8
0
 62
7
  6
CONTINUOUS
 10
41.2029357374
 20
101.2902841317
 11
41.2029357374
 21
105.602862241
  0
LINE
  8
0
 62
7
  6
CONTINUOUS
 10
41.2029357374
 20
118.0902841317
 11
41.2029357374
 21
122.402862241
  0
LINE
  8
0
 62
7
  6
CONTINUOUS
 10
41.2029357374
 20
134.8902841317
 11
41.2029357374
 21
139.202862241
  0
LINE
  8
0
 62
7
  6
CONTINUOUS
 10
41.2029357374
 20
151.6902841317
 11
41.2029357374
 21
156.002862241
  0
LINE
  8
0
 62
7
  6
CONTINUOUS
 10
41.2029357374
 20
168.4902841317
 11
41.2029357374
 21
172.802862241
  0
LINE
  8
0
 62
7
  6
CONTINUOUS
 10
41.2029357374
 20
185.2902841317
 11
41.2029357374
 21
189.602862241
  0
LINE
  8
0
 62
7
  6
CONTINUOUS
 10
41.2029357374
 20
202.090277095
 11
41.2029357374
 21
208.1465542743
  0
LINE
  8
0
 62
7
  6
CONTINUOUS
 10
82.9918246263
 20
180.7095320249
 11
82.3696024041
 21
180.2937923153
  0
LINE
  8
0
 62
7
  6
CONTINUOUS
 10
64.9918246263
 20
163.9095320249
 11
64.3696024041
 21
163.4937923153
  0
LINE
  8
0
 62
7
  6
CONTINUOUS
 10
85.2140468485
 20
177.3836143478
 11
85.8362690707
 21
177.7993540574
  0
LINE
  8
0
 62
7
  6
CONTINUOUS
 10
43.0651182274
 20
157.0808256354
 11
42.6641690056
 21
156.9010423602
  0
POLYLINE
  8
0
 62
7
  6
CONTINUOUS
 66
1
 70
0
  0
VERTEX
  8
0
 62
7
  6
CONTINUOUS
 10
52.6885095058
 20
99.33469291
  0
VERTEX
  8
0
 62
7
  6
CONTINUOUS
 10
52.9818316246
 20
99.3386658869
  0
VERTEX
  8
0
 62
7
  6
CONTINUOUS
 10
53.0614251677
 20
99.3387922103
  0
VERTEX
  8
0
 62
7
  6
CONTINUOUS
 10
53.1404878289
 20
99.3375135309
  0
VERTEX
  8
0
 62
7
  6
CONTINUOUS
 10
53.2187395531
 20
99.3346270541
  0
VERTEX
  8
0
 62
7
  6
CONTINUOUS
 10
53.2959577971
 20
99.3299116521
  0
VERTEX
  8
0
 62
7
  6
CONTINUOUS
 10
53.371922846
 20
99.3231687316
  0
VERTEX
  8
0
 62
7
  6
CONTINUOUS
 10
53.4462019907
 20
99.3142223854
  0
VERTEX
  8
0
 62
7
  6
CONTINUOUS
 10
53.518286989
 20
99.3029028682
  0
VERTEX
  8
0
 62
7
  6
CONTINUOUS
 10
53.5883916579
 20
99.289011469
  0
VERTEX
  8
0
 62
7
  6
CONTINUOUS
 10
53.65604181
 20
99.2723115931
  0
VERTEX
  8
0
 62
7
  6
CONTINUOUS
 10
53.7201099943
 20
99.2525970512
  0
VERTEX
  8
0
 62
7
  6
CONTINUOUS
 10
53.7795998194
 20
99.2292503736
  0
VERTEX
  8
0
 62
7
  6
CONTINUOUS
 10
53.8348687682
 20
99.2017819505
  0
VERTEX
  8
0
 62
7
  6
CONTINUOUS
 10
53.8843132976
 20
99.1707670739
  0
VERTEX
  8
0
 62
7
  6
CONTINUOUS
 10
53.9264922704
 20
99.1373243879
  0
VERTEX
  8
0
 62
7
  6
CONTINUOUS
 10
53.9617665622
 20
99.1014544965
  0
VERTEX
  8
0
 62
7
  6
CONTINUOUS
 10
53.9900623737
 20
99.0631343212
  0
VERTEX
  8
0
 62
7
  6
CONTINUOUS
 10
54.0107724793
 20
99.0223033207
  0
VERTEX
  8
0
 62
7
  6
CONTINUOUS
 10
54.0223607413
 20
98.979506498
  0
VERTEX
  8
0
 62
7
  6
CONTINUOUS
 10
54.0241272515
 20
98.9561366997
  0
SEQEND
  0
POLYLINE
  8
0
 62
7
  6
CONTINUOUS
 66
1
 70
0
  0
VERTEX
  8
0
 62
7
  6
CONTINUOUS
 10
97.5133942391
 20
99.158406598
  0
VERTEX
  8
0
 62
7
  6
CONTINUOUS
 10
97.2193624681
 20
99.1544368771
  0
VERTEX
  8
0
 62
7
  6
CONTINUOUS
 10
97.1394932951
 20
99.1543902106
  0
VERTEX
  8
0
 62
7
  6
CONTINUOUS
 10
97.0603178319
 20
99.1557669753
  0
VERTEX
  8
0
 62
7
  6
CONTINUOUS
 10
96.9820958581
 20
99.1587660847
  0
VERTEX
  8
0
 62
7
  6
CONTINUOUS
 10
96.9050247386
 20
99.1636016545
  0
VERTEX
  8
0
 62
7
  6
CONTINUOUS
 10
96.829311566
 20
99.1704627843
  0
VERTEX
  8
0
 62
7
  6
CONTINUOUS
 10
96.7553842972
 20
99.1795186826
  0
VERTEX
  8
0
 62
7
  6
CONTINUOUS
 10
96.6836891209
 20
99.1909343385
  0
VERTEX
  8
0
 62
7
  6
CONTINUOUS
 10
96.6140900988
 20
99.2048903145
  0
VERTEX
  8
0
 62
7
  6
CONTINUOUS
 10
96.5468545128
 20
99.221658069
  0
VERTEX
  8
0
 62
7
  6
CONTINUOUS
 10
96.4834254718
 20
99.241360221
  0
VERTEX
  8
0
 62
7
  6
CONTINUOUS
 10
96.4244305794
 20
99.264711619
  0
VERTEX
  8
0
 62
7
  6
CONTINUOUS
 10
96.3696605745
 20
99.2921145026
  0
VERTEX
  8
0
 62
7
  6
CONTINUOUS
 10
96.320729307
 20
99.3229636363
  0
VERTEX
  8
0
 62
7
  6
CONTINUOUS
 10
96.2787029442
 20
99.3564276392
  0
VERTEX
  8
0
 62
7
  6
CONTINUOUS
 10
96.2433592695
 20
99.3925628412
  0
VERTEX
  8
0
 62
7
  6
CONTINUOUS
 10
96.2149941261
 20
99.4313260829
  0
VERTEX
  8
0
 62
7
  6
CONTINUOUS
 10
96.1944178284
 20
99.4725996826
  0
VERTEX
  8
0
 62
7
  6
CONTINUOUS
 10
96.1832348013
 20
99.5155970187
  0
VERTEX
  8
0
 62
7
  6
CONTINUOUS
 10
96.181744789
 20
99.5368359219
  0
SEQEND
  0
LINE
  8
0
 62
7
  6
CONTINUOUS
 10
97.7964084081
 20
99.1608486526
 11
97.5133942391
 21
99.158406598
  0
LINE
  8
0
 62
7
  6
CONTINUOUS
 10
52.405487769
 20
99.3322769356
 11
52.6885095058
 21
99.33469291
  0
LINE
  8
0
 62
7
  6
CONTINUOUS
 10
97.7964084081
 20
99.1608486526
 11
103.3445093487
 21
99.1614050295
  0
LINE
  8
0
 62
7
  6
CONTINUOUS
 10
46.8613996434
 20
99.3317413432
 11
52.405487769
 21
99.3322769356
  0
LINE
  8
0
 62
7
  6
CONTINUOUS
 10
46.8603176921
 20
99.3318006514
 11
46.8613376319
 21
99.3317413462
  0
LINE
  8
0
 62
7
  6
CONTINUOUS
 10
103.3445414617
 20
99.1614050295
 11
103.3455494988
 21
99.1613457034
  0
POLYLINE
  8
0
 62
7
  6
CONTINUOUS
 66
1
 70
0
  0
VERTEX
  8
0
 62
7
  6
CONTINUOUS
 10
107.5417003431
 20
81.3010434034
  0
VERTEX
  8
0
 62
7
  6
CONTINUOUS
 10
107.1384536036
 20
81.4817701305
  0
VERTEX
  8
0
 62
7
  6
CONTINUOUS
 10
106.6726028724
 20
81.6567639483
  0
VERTEX
  8
0
 62
7
  6
CONTINUOUS
 10
106.1707523523
 20
81.8154619013
  0
VERTEX
  8
0
 62
7
  6
CONTINUOUS
 10
105.6372045189
 20
81.958094677
  0
VERTEX
  8
0
 62
7
  6
CONTINUOUS
 10
105.0766186881
 20
82.0847085769
  0
VERTEX
  8
0
 62
7
  6
CONTINUOUS
 10
104.4938315531
 20
82.1953191877
  0
VERTEX
  8
0
 62
7
  6
CONTINUOUS
 10
103.8938499647
 20
82.2899686475
  0
VERTEX
  8
0
 62
7
  6
CONTINUOUS
 10
103.3455596202
 20
82.3613457542
  0
SEQEND
  0
LINE
  8
0
 62
7
  6
CONTINUOUS
 10
67.8362690707
 20
96.2937923153
 11
67.2140468485
 21
96.7095320249
  0
POLYLINE
  8
0
 62
7
  6
CONTINUOUS
 66
1
 70
0
  0
VERTEX
  8
0
 62
7
  6
CONTINUOUS
 10
46.8306544141
 20
73.7614050295
  0
VERTEX
  8
0
 62
7
  6
CONTINUOUS
 10
46.8300424614
 20
73.8084337015
  0
VERTEX
  8
0
 62
7
  6
CONTINUOUS
 10
46.8311814823
 20
73.8519560425
  0
VERTEX
  8
0
 62
7
  6
CONTINUOUS
 10
46.834266455
 20
73.8906074912
  0
VERTEX
  8
0
 62
7
  6
CONTINUOUS
 10
46.8392835894
 20
73.9222559147
  0
VERTEX
  8
0
 62
7
  6
CONTINUOUS
 10
46.8460536052
 20
73.9452064289
  0
VERTEX
  8
0
 62
7
  6
CONTINUOUS
 10
46.854268279
 20
73.9583321107
  0
VERTEX
  8
0
 62
7
  6
CONTINUOUS
 10
46.8603176921
 20
73.9613457213
  0
SEQEND
  0
POLYLINE
  8
0
 62
7
  6
CONTINUOUS
 66
1
 70
0
  0
VERTEX
  8
0
 62
7
  6
CONTINUOUS
 10
46.8306544141
 20
90.5614050295
  0
VERTEX
  8
0
 62
7
  6
CONTINUOUS
 10
46.8300424614
 20
90.6084337015
  0
VERTEX
  8
0
 62
7
  6
CONTINUOUS
 10
46.8311814823
 20
90.6519560425
  0
VERTEX
  8
0
 62
7
  6
CONTINUOUS
 10
46.834266455
 20
90.6906074912
  0
VERTEX
  8
0
 62
7
  6
CONTINUOUS
 10
46.8392835894
 20
90.7222559147
  0
VERTEX
  8
0
 62
7
  6
CONTINUOUS
 10
46.8460536052
 20
90.7452064289
  0
VERTEX
  8
0
 62
7
  6
CONTINUOUS
 10
46.854268279
 20
90.7583321107
  0
VERTEX
  8
0
 62
7
  6
CONTINUOUS
 10
46.8603176921
 20
90.7613457213
  0
SEQEND
  0
POLYLINE
  8
0
 62
7
  6
CONTINUOUS
 66
1
 70
0
  0
VERTEX
  8
0
 62
7
  6
CONTINUOUS
 10
46.8306544141
 20
107.3614050295
  0
VERTEX
  8
0
 62
7
  6
CONTINUOUS
 10
46.8300424614
 20
107.4084337015
  0
VERTEX
  8
0
 62
7
  6
CONTINUOUS
 10
46.8311814823
 20
107.4519560425
  0
VERTEX
  8
0
 62
7
  6
CONTINUOUS
 10
46.834266455
 20
107.4906074912
  0
VERTEX
  8
0
 62
7
  6
CONTINUOUS
 10
46.8392835894
 20
107.5222559147
  0
VERTEX
  8
0
 62
7
  6
CONTINUOUS
 10
46.8460536052
 20
107.5452064289
  0
VERTEX
  8
0
 62
7
  6
CONTINUOUS
 10
46.854268279
 20
107.5583321107
  0
VERTEX
  8
0
 62
7
  6
CONTINUOUS
 10
46.8603176921
 20
107.5613457213
  0
SEQEND
  0
POLYLINE
  8
0
 62
7
  6
CONTINUOUS
 66
1
 70
0
  0
VERTEX
  8
0
 62
7
  6
CONTINUOUS
 10
46.8306544141
 20
124.1614050295
  0
VERTEX
  8
0
 62
7
  6
CONTINUOUS
 10
46.8300424614
 20
124.2084337015
  0
VERTEX
  8
0
 62
7
  6
CONTINUOUS
 10
46.8311814823
 20
124.2519560425
  0
VERTEX
  8
0
 62
7
  6
CONTINUOUS
 10
46.834266455
 20
124.2906074912
  0
VERTEX
  8
0
 62
7
  6
CONTINUOUS
 10
46.8392835894
 20
124.3222559147
  0
VERTEX
  8
0
 62
7
  6
CONTINUOUS
 10
46.8460536052
 20
124.3452064289
  0
VERTEX
  8
0
 62
7
  6
CONTINUOUS
 10
46.854268279
 20
124.3583321107
  0
VERTEX
  8
0
 62
7
  6
CONTINUOUS
 10
46.8603176921
 20
124.3613457213
  0
SEQEND
  0
POLYLINE
  8
0
 62
7
  6
CONTINUOUS
 66
1
 70
0
  0
VERTEX
  8
0
 62
7
  6
CONTINUOUS
 10
46.8306544141
 20
140.9614050295
  0
VERTEX
  8
0
 62
7
  6
CONTINUOUS
 10
46.8300424614
 20
141.0084337015
  0
VERTEX
  8
0
 62
7
  6
CONTINUOUS
 10
46.8311814823
 20
141.0519560425
  0
VERTEX
  8
0
 62
7
  6
CONTINUOUS
 10
46.834266455
 20
141.0906074912
  0
VERTEX
  8
0
 62
7
  6
CONTINUOUS
 10
46.8392835894
 20
141.1222559147
  0
VERTEX
  8
0
 62
7
  6
CONTINUOUS
 10
46.8460536052
 20
141.1452064289
  0
VERTEX
  8
0
 62
7
  6
CONTINUOUS
 10
46.854268279
 20
141.1583321107
  0
VERTEX
  8
0
 62
7
  6
CONTINUOUS
 10
46.8603176921
 20
141.1613457213
  0
SEQEND
  0
POLYLINE
  8
0
 62
7
  6
CONTINUOUS
 66
1
 70
0
  0
VERTEX
  8
0
 62
7
  6
CONTINUOUS
 10
46.8306544141
 20
157.7614050295
  0
VERTEX
  8
0
 62
7
  6
CONTINUOUS
 10
46.8300424614
 20
157.8084337015
  0
VERTEX
  8
0
 62
7
  6
CONTINUOUS
 10
46.8311814823
 20
157.8519560425
  0
VERTEX
  8
0
 62
7
  6
CONTINUOUS
 10
46.834266455
 20
157.8906074912
  0
VERTEX
  8
0
 62
7
  6
CONTINUOUS
 10
46.8392835894
 20
157.9222559147
  0
VERTEX
  8
0
 62
7
  6
CONTINUOUS
 10
46.8460536052
 20
157.9452064289
  0
VERTEX
  8
0
 62
7
  6
CONTINUOUS
 10
46.854268279
 20
157.9583321107
  0
VERTEX
  8
0
 62
7
  6
CONTINUOUS
 10
46.8603176921
 20
157.9613457213
  0
SEQEND
  0
POLYLINE
  8
0
 62
7
  6
CONTINUOUS
 66
1
 70
0
  0
VERTEX
  8
0
 62
7
  6
CONTINUOUS
 10
46.8306544141
 20
174.5614050295
  0
VERTEX
  8
0
 62
7
  6
CONTINUOUS
 10
46.8300424614
 20
174.6084337015
  0
VERTEX
  8
0
 62
7
  6
CONTINUOUS
 10
46.8311814823
 20
174.6519560425
  0
VERTEX
  8
0
 62
7
  6
CONTINUOUS
 10
46.834266455
 20
174.6906074912
  0
VERTEX
  8
0
 62
7
  6
CONTINUOUS
 10
46.8392835894
 20
174.7222559147
  0
VERTEX
  8
0
 62
7
  6
CONTINUOUS
 10
46.8460536052
 20
174.7452064289
  0
VERTEX
  8
0
 62
7
  6
CONTINUOUS
 10
46.854268279
 20
174.7583321107
  0
VERTEX
  8
0
 62
7
  6
CONTINUOUS
 10
46.8603176921
 20
174.7613457213
  0
SEQEND
  0
POLYLINE
  8
0
 62
7
  6
CONTINUOUS
 66
1
 70
0
  0
VERTEX
  8
0
 62
7
  6
CONTINUOUS
 10
46.8306544141
 20
191.3614050295
  0
VERTEX
  8
0
 62
7
  6
CONTINUOUS
 10
46.8300424614
 20
191.4084337015
  0
VERTEX
  8
0
 62
7
  6
CONTINUOUS
 10
46.8311814823
 20
191.4519560425
  0
VERTEX
  8
0
 62
7
  6
CONTINUOUS
 10
46.834266455
 20
191.4906074912
  0
VERTEX
  8
0
 62
7
  6
CONTINUOUS
 10
46.8392835894
 20
191.5222559147
  0
VERTEX
  8
0
 62
7
  6
CONTINUOUS
 10
46.8460536052
 20
191.5452064289
  0
VERTEX
  8
0
 62
7
  6
CONTINUOUS
 10
46.854268279
 20
191.5583321107
  0
VERTEX
  8
0
 62
7
  6
CONTINUOUS
 10
46.8603176921
 20
191.5613457213
  0
SEQEND
  0
LINE
  8
0
 62
7
  6
CONTINUOUS
 10
46.8306544141
 20
191.3614050295
 11
46.8306544141
 21
183.5317413432
  0
LINE
  8
0
 62
7
  6
CONTINUOUS
 10
46.8306544141
 20
174.5614050295
 11
46.8306544141
 21
166.7317413432
  0
LINE
  8
0
 62
7
  6
CONTINUOUS
 10
46.8306544141
 20
157.7614050295
 11
46.8306544141
 21
149.9317413432
  0
LINE
  8
0
 62
7
  6
CONTINUOUS
 10
46.8306544141
 20
140.9614050295
 11
46.8306544141
 21
133.1317413432
  0
LINE
  8
0
 62
7
  6
CONTINUOUS
 10
46.8306544141
 20
124.1614050295
 11
46.8306544141
 21
116.3317413432
  0
LINE
  8
0
 62
7
  6
CONTINUOUS
 10
46.8306544141
 20
107.3614050295
 11
46.8306544141
 21
99.5317413432
  0
LINE
  8
0
 62
7
  6
CONTINUOUS
 10
46.8306544141
 20
90.5614050295
 11
46.8306544141
 21
82.7317413432
  0
LINE
  8
0
 62
7
  6
CONTINUOUS
 10
46.8306544141
 20
73.7614050295
 11
46.8306544141
 21
65.9317413432
  0
LINE
  8
0
 62
7
  6
CONTINUOUS
 10
46.8306544141
 20
200.3317413432
 11
46.8306544141
 21
208.1465731864
  0
LINE
  8
DEFAULT_1
 62
2
  6
CENTER
 10
49.7029357374
 20
66.104192456
 11
49.7029357374
 21
210.3465731864
  0
POLYLINE
  8
0
 62
7
  6
CONTINUOUS
 66
1
 70
0
  0
VERTEX
  8
0
 62
7
  6
CONTINUOUS
 10
46.8306544141
 20
200.3317413432
  0
VERTEX
  8
0
 62
7
  6
CONTINUOUS
 10
46.8300424614
 20
200.2847126713
  0
VERTEX
  8
0
 62
7
  6
CONTINUOUS
 10
46.8311814823
 20
200.2411903302
  0
VERTEX
  8
0
 62
7
  6
CONTINUOUS
 10
46.834266455
 20
200.2025388816
  0
VERTEX
  8
0
 62
7
  6
CONTINUOUS
 10
46.8392835894
 20
200.170890458
  0
VERTEX
  8
0
 62
7
  6
CONTINUOUS
 10
46.8460536052
 20
200.1479399438
  0
VERTEX
  8
0
 62
7
  6
CONTINUOUS
 10
46.854268279
 20
200.134814262
  0
VERTEX
  8
0
 62
7
  6
CONTINUOUS
 10
46.8603176921
 20
200.1318006514
  0
SEQEND
  0
POLYLINE
  8
0
 62
7
  6
CONTINUOUS
 66
1
 70
0
  0
VERTEX
  8
0
 62
7
  6
CONTINUOUS
 10
46.8306544141
 20
183.5317413432
  0
VERTEX
  8
0
 62
7
  6
CONTINUOUS
 10
46.8300424614
 20
183.4847126713
  0
VERTEX
  8
0
 62
7
  6
CONTINUOUS
 10
46.8311814823
 20
183.4411903302
  0
VERTEX
  8
0
 62
7
  6
CONTINUOUS
 10
46.834266455
 20
183.4025388816
  0
VERTEX
  8
0
 62
7
  6
CONTINUOUS
 10
46.8392835894
 20
183.370890458
  0
VERTEX
  8
0
 62
7
  6
CONTINUOUS
 10
46.8460536052
 20
183.3479399438
  0
VERTEX
  8
0
 62
7
  6
CONTINUOUS
 10
46.854268279
 20
183.334814262
  0
VERTEX
  8
0
 62
7
  6
CONTINUOUS
 10
46.8603176921
 20
183.3318006514
  0
SEQEND
  0
POLYLINE
  8
0
 62
7
  6
CONTINUOUS
 66
1
 70
0
  0
VERTEX
  8
0
 62
7
  6
CONTINUOUS
 10
46.8306544141
 20
166.7317413432
  0
VERTEX
  8
0
 62
7
  6
CONTINUOUS
 10
46.8300424614
 20
166.6847126713
  0
VERTEX
  8
0
 62
7
  6
CONTINUOUS
 10
46.8311814823
 20
166.6411903302
  0
VERTEX
  8
0
 62
7
  6
CONTINUOUS
 10
46.834266455
 20
166.6025388816
  0
VERTEX
  8
0
 62
7
  6
CONTINUOUS
 10
46.8392835894
 20
166.570890458
  0
VERTEX
  8
0
 62
7
  6
CONTINUOUS
 10
46.8460536052
 20
166.5479399438
  0
VERTEX
  8
0
 62
7
  6
CONTINUOUS
 10
46.854268279
 20
166.534814262
  0
VERTEX
  8
0
 62
7
  6
CONTINUOUS
 10
46.8603176921
 20
166.5318006514
  0
SEQEND
  0
POLYLINE
  8
0
 62
7
  6
CONTINUOUS
 66
1
 70
0
  0
VERTEX
  8
0
 62
7
  6
CONTINUOUS
 10
46.8306544141
 20
149.9317413432
  0
VERTEX
  8
0
 62
7
  6
CONTINUOUS
 10
46.8300424614
 20
149.8847126713
  0
VERTEX
  8
0
 62
7
  6
CONTINUOUS
 10
46.8311814823
 20
149.8411903302
  0
VERTEX
  8
0
 62
7
  6
CONTINUOUS
 10
46.834266455
 20
149.8025388816
  0
VERTEX
  8
0
 62
7
  6
CONTINUOUS
 10
46.8392835894
 20
149.770890458
  0
VERTEX
  8
0
 62
7
  6
CONTINUOUS
 10
46.8460536052
 20
149.7479399438
  0
VERTEX
  8
0
 62
7
  6
CONTINUOUS
 10
46.854268279
 20
149.734814262
  0
VERTEX
  8
0
 62
7
  6
CONTINUOUS
 10
46.8603176921
 20
149.7318006514
  0
SEQEND
  0
POLYLINE
  8
0
 62
7
  6
CONTINUOUS
 66
1
 70
0
  0
VERTEX
  8
0
 62
7
  6
CONTINUOUS
 10
46.8306544141
 20
133.1317413432
  0
VERTEX
  8
0
 62
7
  6
CONTINUOUS
 10
46.8300424614
 20
133.0847126713
  0
VERTEX
  8
0
 62
7
  6
CONTINUOUS
 10
46.8311814823
 20
133.0411903302
  0
VERTEX
  8
0
 62
7
  6
CONTINUOUS
 10
46.834266455
 20
133.0025388816
  0
VERTEX
  8
0
 62
7
  6
CONTINUOUS
 10
46.8392835894
 20
132.970890458
  0
VERTEX
  8
0
 62
7
  6
CONTINUOUS
 10
46.8460536052
 20
132.9479399438
  0
VERTEX
  8
0
 62
7
  6
CONTINUOUS
 10
46.854268279
 20
132.934814262
  0
VERTEX
  8
0
 62
7
  6
CONTINUOUS
 10
46.8603176921
 20
132.9318006514
  0
SEQEND
  0
POLYLINE
  8
0
 62
7
  6
CONTINUOUS
 66
1
 70
0
  0
VERTEX
  8
0
 62
7
  6
CONTINUOUS
 10
46.8306544141
 20
116.3317413432
  0
VERTEX
  8
0
 62
7
  6
CONTINUOUS
 10
46.8300424614
 20
116.2847126713
  0
VERTEX
  8
0
 62
7
  6
CONTINUOUS
 10
46.8311814823
 20
116.2411903302
  0
VERTEX
  8
0
 62
7
  6
CONTINUOUS
 10
46.834266455
 20
116.2025388816
  0
VERTEX
  8
0
 62
7
  6
CONTINUOUS
 10
46.8392835894
 20
116.170890458
  0
VERTEX
  8
0
 62
7
  6
CONTINUOUS
 10
46.8460536052
 20
116.1479399438
  0
VERTEX
  8
0
 62
7
  6
CONTINUOUS
 10
46.854268279
 20
116.134814262
  0
VERTEX
  8
0
 62
7
  6
CONTINUOUS
 10
46.8603176921
 20
116.1318006514
  0
SEQEND
  0
POLYLINE
  8
0
 62
7
  6
CONTINUOUS
 66
1
 70
0
  0
VERTEX
  8
0
 62
7
  6
CONTINUOUS
 10
46.8306544141
 20
99.5317413432
  0
VERTEX
  8
0
 62
7
  6
CONTINUOUS
 10
46.8300424614
 20
99.4847126713
  0
VERTEX
  8
0
 62
7
  6
CONTINUOUS
 10
46.8311814823
 20
99.4411903302
  0
VERTEX
  8
0
 62
7
  6
CONTINUOUS
 10
46.834266455
 20
99.4025388816
  0
VERTEX
  8
0
 62
7
  6
CONTINUOUS
 10
46.8392835894
 20
99.370890458
  0
VERTEX
  8
0
 62
7
  6
CONTINUOUS
 10
46.8460536052
 20
99.3479399438
  0
VERTEX
  8
0
 62
7
  6
CONTINUOUS
 10
46.854268279
 20
99.334814262
  0
VERTEX
  8
0
 62
7
  6
CONTINUOUS
 10
46.8603176921
 20
99.3318006514
  0
SEQEND
  0
POLYLINE
  8
0
 62
7
  6
CONTINUOUS
 66
1
 70
0
  0
VERTEX
  8
0
 62
7
  6
CONTINUOUS
 10
46.8306544141
 20
82.7317413432
  0
VERTEX
  8
0
 62
7
  6
CONTINUOUS
 10
46.8300424614
 20
82.6847126713
  0
VERTEX
  8
0
 62
7
  6
CONTINUOUS
 10
46.8311814823
 20
82.6411903302
  0
VERTEX
  8
0
 62
7
  6
CONTINUOUS
 10
46.834266455
 20
82.6025388816
  0
VERTEX
  8
0
 62
7
  6
CONTINUOUS
 10
46.8392835894
 20
82.570890458
  0
VERTEX
  8
0
 62
7
  6
CONTINUOUS
 10
46.8460536052
 20
82.5479399438
  0
VERTEX
  8
0
 62
7
  6
CONTINUOUS
 10
46.854268279
 20
82.534814262
  0
VERTEX
  8
0
 62
7
  6
CONTINUOUS
 10
46.8603176921
 20
82.5318006514
  0
SEQEND
  0
POLYLINE
  8
0
 62
7
  6
CONTINUOUS
 66
1
 70
0
  0
VERTEX
  8
0
 62
7
  6
CONTINUOUS
 10
46.8306544141
 20
65.9317413432
  0
VERTEX
  8
0
 62
7
  6
CONTINUOUS
 10
46.8300424614
 20
65.8847126713
  0
VERTEX
  8
0
 62
7
  6
CONTINUOUS
 10
46.8311814823
 20
65.8411903302
  0
VERTEX
  8
0
 62
7
  6
CONTINUOUS
 10
46.834266455
 20
65.8025388816
  0
VERTEX
  8
0
 62
7
  6
CONTINUOUS
 10
46.8392835894
 20
65.770890458
  0
VERTEX
  8
0
 62
7
  6
CONTINUOUS
 10
46.8460536052
 20
65.7479399438
  0
VERTEX
  8
0
 62
7
  6
CONTINUOUS
 10
46.854268279
 20
65.734814262
  0
VERTEX
  8
0
 62
7
  6
CONTINUOUS
 10
46.8603176921
 20
65.7318006514
  0
SEQEND
  0
POLYLINE
  8
0
 62
7
  6
CONTINUOUS
 66
1
 70
0
  0
VERTEX
  8
0
 62
7
  6
CONTINUOUS
 10
54.0241266461
 20
191.936836877
  0
VERTEX
  8
0
 62
7
  6
CONTINUOUS
 10
54.0226118997
 20
191.9154158491
  0
VERTEX
  8
0
 62
7
  6
CONTINUOUS
 10
54.0114497599
 20
191.8725912407
  0
VERTEX
  8
0
 62
7
  6
CONTINUOUS
 10
53.9910679605
 20
191.8316372274
  0
VERTEX
  8
0
 62
7
  6
CONTINUOUS
 10
53.9630141626
 20
191.7931535058
  0
VERTEX
  8
0
 62
7
  6
CONTINUOUS
 10
53.9279471774
 20
191.7571306176
  0
VERTEX
  8
0
 62
7
  6
CONTINUOUS
 10
53.88598152
 20
191.7235606943
  0
VERTEX
  8
0
 62
7
  6
CONTINUOUS
 10
53.8367646551
 20
191.692427142
  0
VERTEX
  8
0
 62
7
  6
CONTINUOUS
 10
53.7817173289
 20
191.6648345266
  0
VERTEX
  8
0
 62
7
  6
CONTINUOUS
 10
53.7224143015
 20
191.6413541718
  0
VERTEX
  8
0
 62
7
  6
CONTINUOUS
 10
53.6586370579
 20
191.6215561218
  0
VERTEX
  8
0
 62
7
  6
CONTINUOUS
 10
53.591137015
 20
191.6047440298
  0
VERTEX
  8
0
 62
7
  6
CONTINUOUS
 10
53.5212583112
 20
191.5907709404
  0
VERTEX
  8
0
 62
7
  6
CONTINUOUS
 10
53.449348589
 20
191.5793606199
  0
VERTEX
  8
0
 62
7
  6
CONTINUOUS
 10
53.3752561529
 20
191.5703262978
  0
VERTEX
  8
0
 62
7
  6
CONTINUOUS
 10
53.2994682317
 20
191.5634978513
  0
VERTEX
  8
0
 62
7
  6
CONTINUOUS
 10
53.2224180841
 20
191.5586995682
  0
VERTEX
  8
0
 62
7
  6
CONTINUOUS
 10
53.1443255567
 20
191.5557345595
  0
VERTEX
  8
0
 62
7
  6
CONTINUOUS
 10
53.0654074277
 20
191.5543832493
  0
VERTEX
  8
0
 62
7
  6
CONTINUOUS
 10
52.985937378
 20
191.5544425245
  0
SEQEND
  0
POLYLINE
  8
0
 62
7
  6
CONTINUOUS
 66
1
 70
0
  0
VERTEX
  8
0
 62
7
  6
CONTINUOUS
 10
54.0241266461
 20
175.136836877
  0
VERTEX
  8
0
 62
7
  6
CONTINUOUS
 10
54.0226118997
 20
175.1154158491
  0
VERTEX
  8
0
 62
7
  6
CONTINUOUS
 10
54.0114497599
 20
175.0725912407
  0
VERTEX
  8
0
 62
7
  6
CONTINUOUS
 10
53.9910679605
 20
175.0316372274
  0
VERTEX
  8
0
 62
7
  6
CONTINUOUS
 10
53.9630141626
 20
174.9931535058
  0
VERTEX
  8
0
 62
7
  6
CONTINUOUS
 10
53.9279471774
 20
174.9571306176
  0
VERTEX
  8
0
 62
7
  6
CONTINUOUS
 10
53.88598152
 20
174.9235606943
  0
VERTEX
  8
0
 62
7
  6
CONTINUOUS
 10
53.8367646551
 20
174.892427142
  0
VERTEX
  8
0
 62
7
  6
CONTINUOUS
 10
53.7817173289
 20
174.8648345266
  0
VERTEX
  8
0
 62
7
  6
CONTINUOUS
 10
53.7224143015
 20
174.8413541718
  0
VERTEX
  8
0
 62
7
  6
CONTINUOUS
 10
53.6586370579
 20
174.8215561218
  0
VERTEX
  8
0
 62
7
  6
CONTINUOUS
 10
53.591137015
 20
174.8047440298
  0
VERTEX
  8
0
 62
7
  6
CONTINUOUS
 10
53.5212583112
 20
174.7907709404
  0
VERTEX
  8
0
 62
7
  6
CONTINUOUS
 10
53.449348589
 20
174.7793606199
  0
VERTEX
  8
0
 62
7
  6
CONTINUOUS
 10
53.3752561529
 20
174.7703262978
  0
VERTEX
  8
0
 62
7
  6
CONTINUOUS
 10
53.2994682317
 20
174.7634978513
  0
VERTEX
  8
0
 62
7
  6
CONTINUOUS
 10
53.2224180841
 20
174.7586995682
  0
VERTEX
  8
0
 62
7
  6
CONTINUOUS
 10
53.1443255567
 20
174.7557345595
  0
VERTEX
  8
0
 62
7
  6
CONTINUOUS
 10
53.0654074277
 20
174.7543832493
  0
VERTEX
  8
0
 62
7
  6
CONTINUOUS
 10
52.985937378
 20
174.7544425245
  0
SEQEND
  0
LINE
  8
0
 62
7
  6
CONTINUOUS
 10
67.2140468485
 20
160.5836143478
 11
67.8362690707
 21
160.9993540574
  0
LINE
  8
0
 62
7
  6
CONTINUOUS
 10
107.1384537105
 20
175.8113762861
 11
107.5417003431
 21
175.9921029694
  0
POLYLINE
  8
0
 62
7
  6
CONTINUOUS
 66
1
 70
0
  0
VERTEX
  8
0
 62
7
  6
CONTINUOUS
 10
107.6373587616
 20
108.8039440118
  0
VERTEX
  8
0
 62
7
  6
CONTINUOUS
 10
107.8048713308
 20
108.8316058235
  0
VERTEX
  8
0
 62
7
  6
CONTINUOUS
 10
107.969897549
 20
108.8625106213
  0
VERTEX
  8
0
 62
7
  6
CONTINUOUS
 10
108.1137252503
 20
108.8934594079
  0
VERTEX
  8
0
 62
7
  6
CONTINUOUS
 10
108.2397278734
 20
108.9248685952
  0
VERTEX
  8
0
 62
7
  6
CONTINUOUS
 10
108.3513147124
 20
108.9574517362
  0
VERTEX
  8
0
 62
7
  6
CONTINUOUS
 10
108.4521660312
 20
108.992466745
  0
VERTEX
  8
0
 62
7
  6
CONTINUOUS
 10
108.5463694977
 20
109.0321502433
  0
VERTEX
  8
0
 62
7
  6
CONTINUOUS
 10
108.6378334235
 20
109.0801773611
  0
VERTEX
  8
0
 62
7
  6
CONTINUOUS
 10
108.7294406462
 20
109.1422870119
  0
VERTEX
  8
0
 62
7
  6
CONTINUOUS
 10
108.8207315138
 20
109.2260159367
  0
VERTEX
  8
0
 62
7
  6
CONTINUOUS
 10
108.9042194215
 20
109.3366613479
  0
VERTEX
  8
0
 62
7
  6
CONTINUOUS
 10
108.9671631448
 20
109.4716510134
  0
VERTEX
  8
0
 62
7
  6
CONTINUOUS
 10
108.9993053007
 20
109.6194858026
  0
VERTEX
  8
0
 62
7
  6
CONTINUOUS
 10
109.0029353036
 20
109.6895851836
  0
SEQEND
  0
LINE
  8
0
 62
7
  6
CONTINUOUS
 10
107.5326413044
 20
108.7880428982
 11
107.6373668491
 21
108.8039452726
  0
POLYLINE
  8
0
 62
7
  6
CONTINUOUS
 66
1
 70
0
  0
VERTEX
  8
0
 62
7
  6
CONTINUOUS
 10
103.3455596202
 20
107.7318006185
  0
VERTEX
  8
0
 62
7
  6
CONTINUOUS
 10
103.8938510026
 20
107.8031778735
  0
VERTEX
  8
0
 62
7
  6
CONTINUOUS
 10
104.493832418
 20
107.8978273349
  0
VERTEX
  8
0
 62
7
  6
CONTINUOUS
 10
105.0766193825
 20
108.0084379397
  0
VERTEX
  8
0
 62
7
  6
CONTINUOUS
 10
105.6372050488
 20
108.1350518259
  0
VERTEX
  8
0
 62
7
  6
CONTINUOUS
 10
106.1707527271
 20
108.2776845803
  0
VERTEX
  8
0
 62
7
  6
CONTINUOUS
 10
106.6726031052
 20
108.4363825045
  0
VERTEX
  8
0
 62
7
  6
CONTINUOUS
 10
107.1384537105
 20
108.6113762861
  0
SEQEND
  0
LINE
  8
0
 62
7
  6
CONTINUOUS
 10
103.3455537545
 20
107.7318006481
 11
103.3445338429
 21
107.7317413462
  0
POLYLINE
  8
0
 62
7
  6
CONTINUOUS
 66
1
 70
0
  0
VERTEX
  8
0
 62
7
  6
CONTINUOUS
 10
52.985937378
 20
107.5544425245
  0
VERTEX
  8
0
 62
7
  6
CONTINUOUS
 10
52.6924733922
 20
107.558407001
  0
VERTEX
  8
0
 62
7
  6
CONTINUOUS
 10
52.4094611908
 20
107.5608487449
  0
VERTEX
  8
0
 62
7
  6
CONTINUOUS
 10
46.8613996434
 20
107.5614050295
  0
SEQEND
  0
POLYLINE
  8
0
 62
7
  6
CONTINUOUS
 66
1
 70
0
  0
VERTEX
  8
0
 62
7
  6
CONTINUOUS
 10
97.2235629225
 20
107.7386704654
  0
VERTEX
  8
0
 62
7
  6
CONTINUOUS
 10
97.5173620197
 20
107.7346929102
  0
VERTEX
  8
0
 62
7
  6
CONTINUOUS
 10
97.8003836802
 20
107.7322769357
  0
VERTEX
  8
0
 62
7
  6
CONTINUOUS
 10
103.3444718314
 20
107.7317413432
  0
SEQEND
  0
LINE
  8
0
 62
7
  6
CONTINUOUS
 10
107.6373668491
 20
98.0892011002
 11
107.5326413041
 21
98.1051034745
  0
POLYLINE
  8
0
 62
7
  6
CONTINUOUS
 66
1
 70
0
  0
VERTEX
  8
0
 62
7
  6
CONTINUOUS
 10
42.6641690056
 20
117.1921040125
  0
VERTEX
  8
0
 62
7
  6
CONTINUOUS
 10
43.0651182274
 20
117.0123207373
  0
VERTEX
  8
0
 62
7
  6
CONTINUOUS
 10
43.5307312682
 20
116.8372561992
  0
VERTEX
  8
0
 62
7
  6
CONTINUOUS
 10
44.0323557487
 20
116.6784877973
  0
VERTEX
  8
0
 62
7
  6
CONTINUOUS
 10
44.5656919508
 20
116.5357830515
  0
VERTEX
  8
0
 62
7
  6
CONTINUOUS
 10
45.1260829726
 20
116.4090948179
  0
VERTEX
  8
0
 62
7
  6
CONTINUOUS
 10
45.7086937781
 20
116.2984072869
  0
VERTEX
  8
0
 62
7
  6
CONTINUOUS
 10
46.308518705
 20
116.2036784356
  0
VERTEX
  8
0
 62
7
  6
CONTINUOUS
 10
46.8603118264
 20
116.1318006218
  0
SEQEND
  0
LINE
  8
0
 62
7
  6
CONTINUOUS
 10
82.3696024041
 20
93.7993540574
 11
82.9918246263
 21
93.3836143478
  0
LINE
  8
0
 62
7
  6
CONTINUOUS
 10
64.3696024041
 20
110.5993540574
 11
64.9918246263
 21
110.1836143478
  0
LINE
  8
0
 62
7
  6
CONTINUOUS
 10
85.8362690707
 20
96.2937923153
 11
85.2140468485
 21
96.7095320249
  0
POLYLINE
  8
0
 62
7
  6
CONTINUOUS
 66
1
 70
0
  0
VERTEX
  8
0
 62
7
  6
CONTINUOUS
 10
103.3455494988
 20
82.3613457034
  0
VERTEX
  8
0
 62
7
  6
CONTINUOUS
 10
103.3541463968
 20
82.355534003
  0
VERTEX
  8
0
 62
7
  6
CONTINUOUS
 10
103.3629397153
 20
82.3364472501
  0
VERTEX
  8
0
 62
7
  6
CONTINUOUS
 10
103.369668158
 20
82.305246003
  0
VERTEX
  8
0
 62
7
  6
CONTINUOUS
 10
103.3739878614
 20
82.2639274571
  0
VERTEX
  8
0
 62
7
  6
CONTINUOUS
 10
103.375776748
 20
82.2152311109
  0
VERTEX
  8
0
 62
7
  6
CONTINUOUS
 10
103.3752170607
 20
82.1614050295
  0
SEQEND
  0
LINE
  8
0
 62
7
  6
CONTINUOUS
 10
54.0240970719
 20
199.7561367448
 11
54.0243253221
 21
192.0159415438
  0
LINE
  8
0
 62
7
  6
CONTINUOUS
 10
54.0240970719
 20
182.9561367448
 11
54.0243253221
 21
175.2159415438
  0
LINE
  8
0
 62
7
  6
CONTINUOUS
 10
54.0240970719
 20
166.1561367448
 11
54.0243253221
 21
158.4159415438
  0
LINE
  8
0
 62
7
  6
CONTINUOUS
 10
54.0240970719
 20
149.3561367448
 11
54.0243253221
 21
141.6159415438
  0
LINE
  8
0
 62
7
  6
CONTINUOUS
 10
54.0240970719
 20
132.5561367448
 11
54.0243253221
 21
124.8159415438
  0
LINE
  8
0
 62
7
  6
CONTINUOUS
 10
54.0240970719
 20
115.7561367448
 11
54.0243253221
 21
108.0159415438
  0
LINE
  8
0
 62
7
  6
CONTINUOUS
 10
54.0240970719
 20
98.9561367448
 11
54.0243253221
 21
91.2159415438
  0
LINE
  8
0
 62
7
  6
CONTINUOUS
 10
54.0240970719
 20
82.1561367448
 11
54.0243253221
 21
74.4159415438
  0
LINE
  8
0
 62
7
  6
CONTINUOUS
 10
54.0240970719
 20
65.3561367448
 11
54.0243253221
 21
57.5465731864
  0
LINE
  8
0
 62
7
  6
CONTINUOUS
 10
54.0243253221
 20
192.0159415443
 11
54.0241268407
 21
191.9368371644
  0
LINE
  8
0
 62
7
  6
CONTINUOUS
 10
54.0243253221
 20
175.2159415443
 11
54.0241268407
 21
175.1368371644
  0
LINE
  8
0
 62
7
  6
CONTINUOUS
 10
54.0243253221
 20
158.4159415443
 11
54.0241268407
 21
158.3368371644
  0
LINE
  8
0
 62
7
  6
CONTINUOUS
 10
54.0243253221
 20
141.6159415443
 11
54.0241268407
 21
141.5368371644
  0
LINE
  8
0
 62
7
  6
CONTINUOUS
 10
54.0243253221
 20
124.8159415443
 11
54.0241268407
 21
124.7368371644
  0
LINE
  8
0
 62
7
  6
CONTINUOUS
 10
54.0243253221
 20
108.0159415443
 11
54.0241268407
 21
107.9368371644
  0
LINE
  8
0
 62
7
  6
CONTINUOUS
 10
54.0243253221
 20
91.2159415443
 11
54.0241268407
 21
91.1368371644
  0
LINE
  8
0
 62
7
  6
CONTINUOUS
 10
54.0243253221
 20
74.4159415443
 11
54.0241268407
 21
74.3368371644
  0
POLYLINE
  8
0
 62
7
  6
CONTINUOUS
 66
1
 70
0
  0
VERTEX
  8
0
 62
7
  6
CONTINUOUS
 10
54.0241266461
 20
158.336836877
  0
VERTEX
  8
0
 62
7
  6
CONTINUOUS
 10
54.0226118997
 20
158.3154158491
  0
VERTEX
  8
0
 62
7
  6
CONTINUOUS
 10
54.0114497599
 20
158.2725912407
  0
VERTEX
  8
0
 62
7
  6
CONTINUOUS
 10
53.9910679605
 20
158.2316372274
  0
VERTEX
  8
0
 62
7
  6
CONTINUOUS
 10
53.9630141626
 20
158.1931535058
  0
VERTEX
  8
0
 62
7
  6
CONTINUOUS
 10
53.9279471774
 20
158.1571306176
  0
VERTEX
  8
0
 62
7
  6
CONTINUOUS
 10
53.88598152
 20
158.1235606943
  0
VERTEX
  8
0
 62
7
  6
CONTINUOUS
 10
53.8367646551
 20
158.092427142
  0
VERTEX
  8
0
 62
7
  6
CONTINUOUS
 10
53.7817173289
 20
158.0648345266
  0
VERTEX
  8
0
 62
7
  6
CONTINUOUS
 10
53.7224143015
 20
158.0413541718
  0
VERTEX
  8
0
 62
7
  6
CONTINUOUS
 10
53.6586370579
 20
158.0215561218
  0
VERTEX
  8
0
 62
7
  6
CONTINUOUS
 10
53.591137015
 20
158.0047440298
  0
VERTEX
  8
0
 62
7
  6
CONTINUOUS
 10
53.5212583112
 20
157.9907709404
  0
VERTEX
  8
0
 62
7
  6
CONTINUOUS
 10
53.449348589
 20
157.9793606199
  0
VERTEX
  8
0
 62
7
  6
CONTINUOUS
 10
53.3752561529
 20
157.9703262978
  0
VERTEX
  8
0
 62
7
  6
CONTINUOUS
 10
53.2994682317
 20
157.9634978513
  0
VERTEX
  8
0
 62
7
  6
CONTINUOUS
 10
53.2224180841
 20
157.9586995682
  0
VERTEX
  8
0
 62
7
  6
CONTINUOUS
 10
53.1443255567
 20
157.9557345595
  0
VERTEX
  8
0
 62
7
  6
CONTINUOUS
 10
53.0654074277
 20
157.9543832493
  0
VERTEX
  8
0
 62
7
  6
CONTINUOUS
 10
52.985937378
 20
157.9544425245
  0
SEQEND
  0
POLYLINE
  8
0
 62
7
  6
CONTINUOUS
 66
1
 70
0
  0
VERTEX
  8
0
 62
7
  6
CONTINUOUS
 10
54.0241266461
 20
141.536836877
  0
VERTEX
  8
0
 62
7
  6
CONTINUOUS
 10
54.0226118997
 20
141.5154158491
  0
VERTEX
  8
0
 62
7
  6
CONTINUOUS
 10
54.0114497599
 20
141.4725912407
  0
VERTEX
  8
0
 62
7
  6
CONTINUOUS
 10
53.9910679605
 20
141.4316372274
  0
VERTEX
  8
0
 62
7
  6
CONTINUOUS
 10
53.9630141626
 20
141.3931535058
  0
VERTEX
  8
0
 62
7
  6
CONTINUOUS
 10
53.9279471774
 20
141.3571306176
  0
VERTEX
  8
0
 62
7
  6
CONTINUOUS
 10
53.88598152
 20
141.3235606943
  0
VERTEX
  8
0
 62
7
  6
CONTINUOUS
 10
53.8367646551
 20
141.292427142
  0
VERTEX
  8
0
 62
7
  6
CONTINUOUS
 10
53.7817173289
 20
141.2648345266
  0
VERTEX
  8
0
 62
7
  6
CONTINUOUS
 10
53.7224143015
 20
141.2413541718
  0
VERTEX
  8
0
 62
7
  6
CONTINUOUS
 10
53.6586370579
 20
141.2215561218
  0
VERTEX
  8
0
 62
7
  6
CONTINUOUS
 10
53.591137015
 20
141.2047440298
  0
VERTEX
  8
0
 62
7
  6
CONTINUOUS
 10
53.5212583112
 20
141.1907709404
  0
VERTEX
  8
0
 62
7
  6
CONTINUOUS
 10
53.449348589
 20
141.1793606199
  0
VERTEX
  8
0
 62
7
  6
CONTINUOUS
 10
53.3752561529
 20
141.1703262978
  0
VERTEX
  8
0
 62
7
  6
CONTINUOUS
 10
53.2994682317
 20
141.1634978513
  0
VERTEX
  8
0
 62
7
  6
CONTINUOUS
 10
53.2224180841
 20
141.1586995682
  0
VERTEX
  8
0
 62
7
  6
CONTINUOUS
 10
53.1443255567
 20
141.1557345595
  0
VERTEX
  8
0
 62
7
  6
CONTINUOUS
 10
53.0654074277
 20
141.1543832493
  0
VERTEX
  8
0
 62
7
  6
CONTINUOUS
 10
52.985937378
 20
141.1544425245
  0
SEQEND
  0
POLYLINE
  8
0
 62
7
  6
CONTINUOUS
 66
1
 70
0
  0
VERTEX
  8
0
 62
7
  6
CONTINUOUS
 10
54.0241266461
 20
124.736836877
  0
VERTEX
  8
0
 62
7
  6
CONTINUOUS
 10
54.0226118997
 20
124.7154158491
  0
VERTEX
  8
0
 62
7
  6
CONTINUOUS
 10
54.0114497599
 20
124.6725912407
  0
VERTEX
  8
0
 62
7
  6
CONTINUOUS
 10
53.9910679605
 20
124.6316372274
  0
VERTEX
  8
0
 62
7
  6
CONTINUOUS
 10
53.9630141626
 20
124.5931535058
  0
VERTEX
  8
0
 62
7
  6
CONTINUOUS
 10
53.9279471774
 20
124.5571306176
  0
VERTEX
  8
0
 62
7
  6
CONTINUOUS
 10
53.88598152
 20
124.5235606943
  0
VERTEX
  8
0
 62
7
  6
CONTINUOUS
 10
53.8367646551
 20
124.492427142
  0
VERTEX
  8
0
 62
7
  6
CONTINUOUS
 10
53.7817173289
 20
124.4648345266
  0
VERTEX
  8
0
 62
7
  6
CONTINUOUS
 10
53.7224143015
 20
124.4413541718
  0
VERTEX
  8
0
 62
7
  6
CONTINUOUS
 10
53.6586370579
 20
124.4215561218
  0
VERTEX
  8
0
 62
7
  6
CONTINUOUS
 10
53.591137015
 20
124.4047440298
  0
VERTEX
  8
0
 62
7
  6
CONTINUOUS
 10
53.5212583112
 20
124.3907709404
  0
VERTEX
  8
0
 62
7
  6
CONTINUOUS
 10
53.449348589
 20
124.3793606199
  0
VERTEX
  8
0
 62
7
  6
CONTINUOUS
 10
53.3752561529
 20
124.3703262978
  0
VERTEX
  8
0
 62
7
  6
CONTINUOUS
 10
53.2994682317
 20
124.3634978513
  0
VERTEX
  8
0
 62
7
  6
CONTINUOUS
 10
53.2224180841
 20
124.3586995682
  0
VERTEX
  8
0
 62
7
  6
CONTINUOUS
 10
53.1443255567
 20
124.3557345595
  0
VERTEX
  8
0
 62
7
  6
CONTINUOUS
 10
53.0654074277
 20
124.3543832493
  0
VERTEX
  8
0
 62
7
  6
CONTINUOUS
 10
52.985937378
 20
124.3544425245
  0
SEQEND
  0
POLYLINE
  8
0
 62
7
  6
CONTINUOUS
 66
1
 70
0
  0
VERTEX
  8
0
 62
7
  6
CONTINUOUS
 10
54.0241266461
 20
107.936836877
  0
VERTEX
  8
0
 62
7
  6
CONTINUOUS
 10
54.0226118997
 20
107.9154158491
  0
VERTEX
  8
0
 62
7
  6
CONTINUOUS
 10
54.0114497599
 20
107.8725912407
  0
VERTEX
  8
0
 62
7
  6
CONTINUOUS
 10
53.9910679605
 20
107.8316372274
  0
VERTEX
  8
0
 62
7
  6
CONTINUOUS
 10
53.9630141626
 20
107.7931535058
  0
VERTEX
  8
0
 62
7
  6
CONTINUOUS
 10
53.9279471774
 20
107.7571306176
  0
VERTEX
  8
0
 62
7
  6
CONTINUOUS
 10
53.88598152
 20
107.7235606943
  0
VERTEX
  8
0
 62
7
  6
CONTINUOUS
 10
53.8367646551
 20
107.692427142
  0
VERTEX
  8
0
 62
7
  6
CONTINUOUS
 10
53.7817173289
 20
107.6648345266
  0
VERTEX
  8
0
 62
7
  6
CONTINUOUS
 10
53.7224143015
 20
107.6413541718
  0
VERTEX
  8
0
 62
7
  6
CONTINUOUS
 10
53.6586370579
 20
107.6215561218
  0
VERTEX
  8
0
 62
7
  6
CONTINUOUS
 10
53.591137015
 20
107.6047440298
  0
VERTEX
  8
0
 62
7
  6
CONTINUOUS
 10
53.5212583112
 20
107.5907709404
  0
VERTEX
  8
0
 62
7
  6
CONTINUOUS
 10
53.449348589
 20
107.5793606199
  0
VERTEX
  8
0
 62
7
  6
CONTINUOUS
 10
53.3752561529
 20
107.5703262978
  0
VERTEX
  8
0
 62
7
  6
CONTINUOUS
 10
53.2994682317
 20
107.5634978513
  0
VERTEX
  8
0
 62
7
  6
CONTINUOUS
 10
53.2224180841
 20
107.5586995682
  0
VERTEX
  8
0
 62
7
  6
CONTINUOUS
 10
53.1443255567
 20
107.5557345595
  0
VERTEX
  8
0
 62
7
  6
CONTINUOUS
 10
53.0654074277
 20
107.5543832493
  0
VERTEX
  8
0
 62
7
  6
CONTINUOUS
 10
52.985937378
 20
107.5544425245
  0
SEQEND
  0
POLYLINE
  8
0
 62
7
  6
CONTINUOUS
 66
1
 70
0
  0
VERTEX
  8
0
 62
7
  6
CONTINUOUS
 10
54.0241266461
 20
91.136836877
  0
VERTEX
  8
0
 62
7
  6
CONTINUOUS
 10
54.0226118997
 20
91.1154158491
  0
VERTEX
  8
0
 62
7
  6
CONTINUOUS
 10
54.0114497599
 20
91.0725912407
  0
VERTEX
  8
0
 62
7
  6
CONTINUOUS
 10
53.9910679605
 20
91.0316372274
  0
VERTEX
  8
0
 62
7
  6
CONTINUOUS
 10
53.9630141626
 20
90.9931535058
  0
VERTEX
  8
0
 62
7
  6
CONTINUOUS
 10
53.9279471774
 20
90.9571306176
  0
VERTEX
  8
0
 62
7
  6
CONTINUOUS
 10
53.88598152
 20
90.9235606943
  0
VERTEX
  8
0
 62
7
  6
CONTINUOUS
 10
53.8367646551
 20
90.892427142
  0
VERTEX
  8
0
 62
7
  6
CONTINUOUS
 10
53.7817173289
 20
90.8648345266
  0
VERTEX
  8
0
 62
7
  6
CONTINUOUS
 10
53.7224143015
 20
90.8413541718
  0
VERTEX
  8
0
 62
7
  6
CONTINUOUS
 10
53.6586370579
 20
90.8215561218
  0
VERTEX
  8
0
 62
7
  6
CONTINUOUS
 10
53.591137015
 20
90.8047440298
  0
VERTEX
  8
0
 62
7
  6
CONTINUOUS
 10
53.5212583112
 20
90.7907709404
  0
VERTEX
  8
0
 62
7
  6
CONTINUOUS
 10
53.449348589
 20
90.7793606199
  0
VERTEX
  8
0
 62
7
  6
CONTINUOUS
 10
53.3752561529
 20
90.7703262978
  0
VERTEX
  8
0
 62
7
  6
CONTINUOUS
 10
53.2994682317
 20
90.7634978513
  0
VERTEX
  8
0
 62
7
  6
CONTINUOUS
 10
53.2224180841
 20
90.7586995682
  0
VERTEX
  8
0
 62
7
  6
CONTINUOUS
 10
53.1443255567
 20
90.7557345595
  0
VERTEX
  8
0
 62
7
  6
CONTINUOUS
 10
53.0654074277
 20
90.7543832493
  0
VERTEX
  8
0
 62
7
  6
CONTINUOUS
 10
52.985937378
 20
90.7544425245
  0
SEQEND
  0
LINE
  8
0
 62
7
  6
CONTINUOUS
 10
82.9918246263
 20
163.9095320249
 11
82.3696024041
 21
163.4937923153
  0
LINE
  8
0
 62
7
  6
CONTINUOUS
 10
43.0651182274
 20
140.2808256354
 11
42.6641690056
 21
140.1010423602
  0
POLYLINE
  8
0
 62
7
  6
CONTINUOUS
 66
1
 70
0
  0
VERTEX
  8
0
 62
7
  6
CONTINUOUS
 10
42.5685119611
 20
106.4892022437
  0
VERTEX
  8
0
 62
7
  6
CONTINUOUS
 10
42.3997169078
 20
106.461315598
  0
VERTEX
  8
0
 62
7
  6
CONTINUOUS
 10
42.2351566914
 20
106.4304716966
  0
VERTEX
  8
0
 62
7
  6
CONTINUOUS
 10
42.0917184148
 20
106.3995879458
  0
VERTEX
  8
0
 62
7
  6
CONTINUOUS
 10
41.9660401143
 20
106.3682498992
  0
VERTEX
  8
0
 62
7
  6
CONTINUOUS
 10
41.854726444
 20
106.3357485139
  0
VERTEX
  8
0
 62
7
  6
CONTINUOUS
 10
41.7541168225
 20
106.300836211
  0
VERTEX
  8
0
 62
7
  6
CONTINUOUS
 10
41.6601519514
 20
106.2612995838
  0
VERTEX
  8
0
 62
7
  6
CONTINUOUS
 10
41.5689561704
 20
106.2135109925
  0
VERTEX
  8
0
 62
7
  6
CONTINUOUS
 10
41.477643994
 20
106.1518019493
  0
VERTEX
  8
0
 62
7
  6
CONTINUOUS
 10
41.3865962401
 20
106.068704882
  0
VERTEX
  8
0
 62
7
  6
CONTINUOUS
 10
41.303126681
 20
105.9588996169
  0
VERTEX
  8
0
 62
7
  6
CONTINUOUS
 10
41.2398163738
 20
105.8247458347
  0
VERTEX
  8
0
 62
7
  6
CONTINUOUS
 10
41.2069728984
 20
105.6774995795
  0
VERTEX
  8
0
 62
7
  6
CONTINUOUS
 10
41.2029358444
 20
105.6027438738
  0
SEQEND
  0
LINE
  8
0
 62
7
  6
CONTINUOUS
 10
42.6732310978
 20
106.5051057491
 11
42.5685037558
 21
106.4892009646
  0
POLYLINE
  8
0
 62
7
  6
CONTINUOUS
 66
1
 70
0
  0
VERTEX
  8
0
 62
7
  6
CONTINUOUS
 10
46.8603118264
 20
107.5613457509
  0
VERTEX
  8
0
 62
7
  6
CONTINUOUS
 10
46.308518705
 20
107.4894679372
  0
VERTEX
  8
0
 62
7
  6
CONTINUOUS
 10
45.7086937781
 20
107.3947390858
  0
VERTEX
  8
0
 62
7
  6
CONTINUOUS
 10
45.1260829726
 20
107.2840515548
  0
VERTEX
  8
0
 62
7
  6
CONTINUOUS
 10
44.5656919508
 20
107.1573633213
  0
VERTEX
  8
0
 62
7
  6
CONTINUOUS
 10
44.0323557487
 20
107.0146585755
  0
VERTEX
  8
0
 62
7
  6
CONTINUOUS
 10
43.5307312682
 20
106.8558901736
  0
VERTEX
  8
0
 62
7
  6
CONTINUOUS
 10
43.0651182274
 20
106.6808256354
  0
SEQEND
  0
LINE
  8
0
 62
7
  6
CONTINUOUS
 10
46.8603176921
 20
107.5613457213
 11
46.8613376319
 21
107.5614050265
  0
LINE
  8
0
 62
7
  6
CONTINUOUS
 10
46.8603176921
 20
116.1318006514
 11
46.8613376319
 21
116.1317413462
  0
LINE
  8
0
 62
7
  6
CONTINUOUS
 10
42.5685037558
 20
117.2039454082
 11
42.6732310978
 21
117.1880406236
  0
POLYLINE
  8
0
 62
7
  6
CONTINUOUS
 66
1
 70
0
  0
VERTEX
  8
0
 62
7
  6
CONTINUOUS
 10
107.5417003431
 20
98.1010434034
  0
VERTEX
  8
0
 62
7
  6
CONTINUOUS
 10
107.1384536036
 20
98.2817701305
  0
VERTEX
  8
0
 62
7
  6
CONTINUOUS
 10
106.6726028724
 20
98.4567639483
  0
VERTEX
  8
0
 62
7
  6
CONTINUOUS
 10
106.1707523523
 20
98.6154619013
  0
VERTEX
  8
0
 62
7
  6
CONTINUOUS
 10
105.6372045189
 20
98.758094677
  0
VERTEX
  8
0
 62
7
  6
CONTINUOUS
 10
105.0766186881
 20
98.8847085769
  0
VERTEX
  8
0
 62
7
  6
CONTINUOUS
 10
104.4938315531
 20
98.9953191877
  0
VERTEX
  8
0
 62
7
  6
CONTINUOUS
 10
103.8938499647
 20
99.0899686475
  0
VERTEX
  8
0
 62
7
  6
CONTINUOUS
 10
103.3455596202
 20
99.1613457542
  0
SEQEND
  0
LINE
  8
0
 62
7
  6
CONTINUOUS
 10
67.8362690707
 20
113.0937923153
 11
67.2140468485
 21
113.5095320249
  0
POLYLINE
  8
0
 62
7
  6
CONTINUOUS
 66
1
 70
0
  0
VERTEX
  8
0
 62
7
  6
CONTINUOUS
 10
54.0241266461
 20
74.336836877
  0
VERTEX
  8
0
 62
7
  6
CONTINUOUS
 10
54.0226118997
 20
74.3154158491
  0
VERTEX
  8
0
 62
7
  6
CONTINUOUS
 10
54.0114497599
 20
74.2725912407
  0
VERTEX
  8
0
 62
7
  6
CONTINUOUS
 10
53.9910679605
 20
74.2316372274
  0
VERTEX
  8
0
 62
7
  6
CONTINUOUS
 10
53.9630141626
 20
74.1931535058
  0
VERTEX
  8
0
 62
7
  6
CONTINUOUS
 10
53.9279471774
 20
74.1571306176
  0
VERTEX
  8
0
 62
7
  6
CONTINUOUS
 10
53.88598152
 20
74.1235606943
  0
VERTEX
  8
0
 62
7
  6
CONTINUOUS
 10
53.8367646551
 20
74.092427142
  0
VERTEX
  8
0
 62
7
  6
CONTINUOUS
 10
53.7817173289
 20
74.0648345266
  0
VERTEX
  8
0
 62
7
  6
CONTINUOUS
 10
53.7224143015
 20
74.0413541718
  0
VERTEX
  8
0
 62
7
  6
CONTINUOUS
 10
53.6586370579
 20
74.0215561218
  0
VERTEX
  8
0
 62
7
  6
CONTINUOUS
 10
53.591137015
 20
74.0047440298
  0
VERTEX
  8
0
 62
7
  6
CONTINUOUS
 10
53.5212583112
 20
73.9907709404
  0
VERTEX
  8
0
 62
7
  6
CONTINUOUS
 10
53.449348589
 20
73.9793606199
  0
VERTEX
  8
0
 62
7
  6
CONTINUOUS
 10
53.3752561529
 20
73.9703262978
  0
VERTEX
  8
0
 62
7
  6
CONTINUOUS
 10
53.2994682317
 20
73.9634978513
  0
VERTEX
  8
0
 62
7
  6
CONTINUOUS
 10
53.2224180841
 20
73.9586995682
  0
VERTEX
  8
0
 62
7
  6
CONTINUOUS
 10
53.1443255567
 20
73.9557345595
  0
VERTEX
  8
0
 62
7
  6
CONTINUOUS
 10
53.0654074277
 20
73.9543832493
  0
VERTEX
  8
0
 62
7
  6
CONTINUOUS
 10
52.985937378
 20
73.9544425245
  0
SEQEND
  0
LINE
  8
0
 62
7
  6
CONTINUOUS
 10
64.9918246263
 20
147.1095320249
 11
64.3696024041
 21
146.6937923153
  0
LINE
  8
0
 62
7
  6
CONTINUOUS
 10
85.2140468485
 20
160.5836143478
 11
85.8362690707
 21
160.9993540574
  0
LINE
  8
0
 62
7
  6
CONTINUOUS
 10
67.2140468485
 20
143.7836143478
 11
67.8362690707
 21
144.1993540574
  0
POLYLINE
  8
0
 62
7
  6
CONTINUOUS
 66
1
 70
0
  0
VERTEX
  8
0
 62
7
  6
CONTINUOUS
 10
107.6373587616
 20
125.6039440118
  0
VERTEX
  8
0
 62
7
  6
CONTINUOUS
 10
107.8048713308
 20
125.6316058235
  0
VERTEX
  8
0
 62
7
  6
CONTINUOUS
 10
107.969897549
 20
125.6625106213
  0
VERTEX
  8
0
 62
7
  6
CONTINUOUS
 10
108.1137252503
 20
125.6934594079
  0
VERTEX
  8
0
 62
7
  6
CONTINUOUS
 10
108.2397278734
 20
125.7248685952
  0
VERTEX
  8
0
 62
7
  6
CONTINUOUS
 10
108.3513147124
 20
125.7574517362
  0
VERTEX
  8
0
 62
7
  6
CONTINUOUS
 10
108.4521660312
 20
125.792466745
  0
VERTEX
  8
0
 62
7
  6
CONTINUOUS
 10
108.5463694977
 20
125.8321502433
  0
VERTEX
  8
0
 62
7
  6
CONTINUOUS
 10
108.6378334235
 20
125.8801773611
  0
VERTEX
  8
0
 62
7
  6
CONTINUOUS
 10
108.7294406462
 20
125.9422870119
  0
VERTEX
  8
0
 62
7
  6
CONTINUOUS
 10
108.8207315138
 20
126.0260159367
  0
VERTEX
  8
0
 62
7
  6
CONTINUOUS
 10
108.9042194215
 20
126.1366613479
  0
VERTEX
  8
0
 62
7
  6
CONTINUOUS
 10
108.9671631448
 20
126.2716510134
  0
VERTEX
  8
0
 62
7
  6
CONTINUOUS
 10
108.9993053007
 20
126.4194858026
  0
VERTEX
  8
0
 62
7
  6
CONTINUOUS
 10
109.0029356335
 20
126.4903999452
  0
SEQEND
  0
LINE
  8
0
 62
7
  6
CONTINUOUS
 10
107.5326413044
 20
125.5880428982
 11
107.6373668491
 21
125.6039452726
  0
POLYLINE
  8
0
 62
7
  6
CONTINUOUS
 66
1
 70
0
  0
VERTEX
  8
0
 62
7
  6
CONTINUOUS
 10
103.3455596202
 20
124.5318006185
  0
VERTEX
  8
0
 62
7
  6
CONTINUOUS
 10
103.8938510026
 20
124.6031778735
  0
VERTEX
  8
0
 62
7
  6
CONTINUOUS
 10
104.493832418
 20
124.6978273349
  0
VERTEX
  8
0
 62
7
  6
CONTINUOUS
 10
105.0766193825
 20
124.8084379397
  0
VERTEX
  8
0
 62
7
  6
CONTINUOUS
 10
105.6372050488
 20
124.9350518259
  0
VERTEX
  8
0
 62
7
  6
CONTINUOUS
 10
106.1707527271
 20
125.0776845803
  0
VERTEX
  8
0
 62
7
  6
CONTINUOUS
 10
106.6726031052
 20
125.2363825045
  0
VERTEX
  8
0
 62
7
  6
CONTINUOUS
 10
107.1384537105
 20
125.4113762861
  0
SEQEND
  0
POLYLINE
  8
0
 62
7
  6
CONTINUOUS
 66
1
 70
0
  0
VERTEX
  8
0
 62
7
  6
CONTINUOUS
 10
52.6885095058
 20
116.13469291
  0
VERTEX
  8
0
 62
7
  6
CONTINUOUS
 10
52.9818316246
 20
116.1386658869
  0
VERTEX
  8
0
 62
7
  6
CONTINUOUS
 10
53.0614251677
 20
116.1387922103
  0
VERTEX
  8
0
 62
7
  6
CONTINUOUS
 10
53.1404878289
 20
116.1375135309
  0
VERTEX
  8
0
 62
7
  6
CONTINUOUS
 10
53.2187395531
 20
116.1346270541
  0
VERTEX
  8
0
 62
7
  6
CONTINUOUS
 10
53.2959577971
 20
116.1299116521
  0
VERTEX
  8
0
 62
7
  6
CONTINUOUS
 10
53.371922846
 20
116.1231687316
  0
VERTEX
  8
0
 62
7
  6
CONTINUOUS
 10
53.4462019907
 20
116.1142223854
  0
VERTEX
  8
0
 62
7
  6
CONTINUOUS
 10
53.518286989
 20
116.1029028682
  0
VERTEX
  8
0
 62
7
  6
CONTINUOUS
 10
53.5883916579
 20
116.089011469
  0
VERTEX
  8
0
 62
7
  6
CONTINUOUS
 10
53.65604181
 20
116.0723115931
  0
VERTEX
  8
0
 62
7
  6
CONTINUOUS
 10
53.7201099943
 20
116.0525970512
  0
VERTEX
  8
0
 62
7
  6
CONTINUOUS
 10
53.7795998194
 20
116.0292503736
  0
VERTEX
  8
0
 62
7
  6
CONTINUOUS
 10
53.8348687682
 20
116.0017819505
  0
VERTEX
  8
0
 62
7
  6
CONTINUOUS
 10
53.8843132976
 20
115.9707670739
  0
VERTEX
  8
0
 62
7
  6
CONTINUOUS
 10
53.9264922704
 20
115.9373243879
  0
VERTEX
  8
0
 62
7
  6
CONTINUOUS
 10
53.9617665622
 20
115.9014544965
  0
VERTEX
  8
0
 62
7
  6
CONTINUOUS
 10
53.9900623737
 20
115.8631343212
  0
VERTEX
  8
0
 62
7
  6
CONTINUOUS
 10
54.0107724793
 20
115.8223033207
  0
VERTEX
  8
0
 62
7
  6
CONTINUOUS
 10
54.0223607413
 20
115.779506498
  0
VERTEX
  8
0
 62
7
  6
CONTINUOUS
 10
54.0241272515
 20
115.7561366997
  0
SEQEND
  0
POLYLINE
  8
0
 62
7
  6
CONTINUOUS
 66
1
 70
0
  0
VERTEX
  8
0
 62
7
  6
CONTINUOUS
 10
97.5133942391
 20
115.958406598
  0
VERTEX
  8
0
 62
7
  6
CONTINUOUS
 10
97.2193624681
 20
115.9544368771
  0
VERTEX
  8
0
 62
7
  6
CONTINUOUS
 10
97.1394932951
 20
115.9543902106
  0
VERTEX
  8
0
 62
7
  6
CONTINUOUS
 10
97.0603178319
 20
115.9557669753
  0
VERTEX
  8
0
 62
7
  6
CONTINUOUS
 10
96.9820958581
 20
115.9587660847
  0
VERTEX
  8
0
 62
7
  6
CONTINUOUS
 10
96.9050247386
 20
115.9636016545
  0
VERTEX
  8
0
 62
7
  6
CONTINUOUS
 10
96.829311566
 20
115.9704627843
  0
VERTEX
  8
0
 62
7
  6
CONTINUOUS
 10
96.7553842972
 20
115.9795186826
  0
VERTEX
  8
0
 62
7
  6
CONTINUOUS
 10
96.6836891209
 20
115.9909343385
  0
VERTEX
  8
0
 62
7
  6
CONTINUOUS
 10
96.6140900988
 20
116.0048903145
  0
VERTEX
  8
0
 62
7
  6
CONTINUOUS
 10
96.5468545128
 20
116.021658069
  0
VERTEX
  8
0
 62
7
  6
CONTINUOUS
 10
96.4834254718
 20
116.041360221
  0
VERTEX
  8
0
 62
7
  6
CONTINUOUS
 10
96.4244305794
 20
116.064711619
  0
VERTEX
  8
0
 62
7
  6
CONTINUOUS
 10
96.3696605745
 20
116.0921145026
  0
VERTEX
  8
0
 62
7
  6
CONTINUOUS
 10
96.320729307
 20
116.1229636363
  0
VERTEX
  8
0
 62
7
  6
CONTINUOUS
 10
96.2787029442
 20
116.1564276392
  0
VERTEX
  8
0
 62
7
  6
CONTINUOUS
 10
96.2433592695
 20
116.1925628412
  0
VERTEX
  8
0
 62
7
  6
CONTINUOUS
 10
96.2149941261
 20
116.2313260829
  0
VERTEX
  8
0
 62
7
  6
CONTINUOUS
 10
96.1944178284
 20
116.2725996826
  0
VERTEX
  8
0
 62
7
  6
CONTINUOUS
 10
96.1832348013
 20
116.3155970187
  0
VERTEX
  8
0
 62
7
  6
CONTINUOUS
 10
96.181744789
 20
116.3368359219
  0
SEQEND
  0
LINE
  8
0
 62
7
  6
CONTINUOUS
 10
97.7964084081
 20
115.9608486526
 11
97.5133942391
 21
115.958406598
  0
LINE
  8
0
 62
7
  6
CONTINUOUS
 10
52.405487769
 20
116.1322769356
 11
52.6885095058
 21
116.13469291
  0
LINE
  8
0
 62
7
  6
CONTINUOUS
 10
97.7964084081
 20
115.9608486526
 11
103.3445093487
 21
115.9614050295
  0
LINE
  8
0
 62
7
  6
CONTINUOUS
 10
46.8613996434
 20
116.1317413432
 11
52.405487769
 21
116.1322769356
  0
LINE
  8
0
 62
7
  6
CONTINUOUS
 10
103.3445414617
 20
115.9614050295
 11
103.3455494988
 21
115.9613457034
  0
LINE
  8
0
 62
7
  6
CONTINUOUS
 10
107.6373668491
 20
114.8892011002
 11
107.5326413041
 21
114.9051034745
  0
POLYLINE
  8
0
 62
7
  6
CONTINUOUS
 66
1
 70
0
  0
VERTEX
  8
0
 62
7
  6
CONTINUOUS
 10
42.6641690056
 20
133.9921040125
  0
VERTEX
  8
0
 62
7
  6
CONTINUOUS
 10
43.0651182274
 20
133.8123207373
  0
VERTEX
  8
0
 62
7
  6
CONTINUOUS
 10
43.5307312682
 20
133.6372561992
  0
VERTEX
  8
0
 62
7
  6
CONTINUOUS
 10
44.0323557487
 20
133.4784877973
  0
VERTEX
  8
0
 62
7
  6
CONTINUOUS
 10
44.5656919508
 20
133.3357830515
  0
VERTEX
  8
0
 62
7
  6
CONTINUOUS
 10
45.1260829726
 20
133.2090948179
  0
VERTEX
  8
0
 62
7
  6
CONTINUOUS
 10
45.7086937781
 20
133.0984072869
  0
VERTEX
  8
0
 62
7
  6
CONTINUOUS
 10
46.308518705
 20
133.0036784356
  0
VERTEX
  8
0
 62
7
  6
CONTINUOUS
 10
46.8603118264
 20
132.9318006218
  0
SEQEND
  0
LINE
  8
0
 62
7
  6
CONTINUOUS
 10
82.3696024041
 20
110.5993540574
 11
82.9918246263
 21
110.1836143478
  0
POLYLINE
  8
0
 62
7
  6
CONTINUOUS
 66
1
 70
0
  0
VERTEX
  8
0
 62
7
  6
CONTINUOUS
 10
103.3455494988
 20
99.1613457034
  0
VERTEX
  8
0
 62
7
  6
CONTINUOUS
 10
103.3541463968
 20
99.155534003
  0
VERTEX
  8
0
 62
7
  6
CONTINUOUS
 10
103.3629397153
 20
99.1364472501
  0
VERTEX
  8
0
 62
7
  6
CONTINUOUS
 10
103.369668158
 20
99.105246003
  0
VERTEX
  8
0
 62
7
  6
CONTINUOUS
 10
103.3739878614
 20
99.0639274571
  0
VERTEX
  8
0
 62
7
  6
CONTINUOUS
 10
103.375776748
 20
99.0152311109
  0
VERTEX
  8
0
 62
7
  6
CONTINUOUS
 10
103.3752170607
 20
98.9614050295
  0
SEQEND
  0
LINE
  8
0
 62
7
  6
CONTINUOUS
 10
82.9918246263
 20
147.1095320249
 11
82.3696024041
 21
146.6937923153
  0
LINE
  8
0
 62
7
  6
CONTINUOUS
 10
107.1384537105
 20
159.0113762861
 11
107.5417003431
 21
159.1921029694
  0
LINE
  8
0
 62
7
  6
CONTINUOUS
 10
103.3455537545
 20
124.5318006481
 11
103.3445338429
 21
124.5317413462
  0
LINE
  8
0
 62
7
  6
CONTINUOUS
 10
46.8603176921
 20
124.3613457213
 11
46.8613376319
 21
124.3614050265
  0
POLYLINE
  8
0
 62
7
  6
CONTINUOUS
 66
1
 70
0
  0
VERTEX
  8
0
 62
7
  6
CONTINUOUS
 10
52.985937378
 20
124.3544425245
  0
VERTEX
  8
0
 62
7
  6
CONTINUOUS
 10
52.6924733922
 20
124.358407001
  0
VERTEX
  8
0
 62
7
  6
CONTINUOUS
 10
52.4094611908
 20
124.3608487449
  0
VERTEX
  8
0
 62
7
  6
CONTINUOUS
 10
46.8613996434
 20
124.3614050295
  0
SEQEND
  0
POLYLINE
  8
0
 62
7
  6
CONTINUOUS
 66
1
 70
0
  0
VERTEX
  8
0
 62
7
  6
CONTINUOUS
 10
97.2235629225
 20
124.5386704654
  0
VERTEX
  8
0
 62
7
  6
CONTINUOUS
 10
97.5173620197
 20
124.5346929102
  0
VERTEX
  8
0
 62
7
  6
CONTINUOUS
 10
97.8003836802
 20
124.5322769357
  0
VERTEX
  8
0
 62
7
  6
CONTINUOUS
 10
103.3444718314
 20
124.5317413432
  0
SEQEND
  0
LINE
  8
0
 62
7
  6
CONTINUOUS
 10
64.3696024041
 20
127.3993540574
 11
64.9918246263
 21
126.9836143478
  0
LINE
  8
0
 62
7
  6
CONTINUOUS
 10
85.8362690707
 20
113.0937923153
 11
85.2140468485
 21
113.5095320249
  0
LINE
  8
0
 62
7
  6
CONTINUOUS
 10
67.8362690707
 20
129.8937923153
 11
67.2140468485
 21
130.3095320249
  0
LINE
  8
0
 62
7
  6
CONTINUOUS
 10
64.9918246263
 20
130.3095320249
 11
64.3696024041
 21
129.8937923153
  0
LINE
  8
0
 62
7
  6
CONTINUOUS
 10
85.2140468485
 20
143.7836143478
 11
85.8362690707
 21
144.1993540574
  0
LINE
  8
0
 62
7
  6
CONTINUOUS
 10
67.2140468485
 20
126.9836143478
 11
67.8362690707
 21
127.3993540574
  0
LINE
  8
0
 62
7
  6
CONTINUOUS
 10
43.0651182274
 20
123.4808256354
 11
42.6641690056
 21
123.3010423602
  0
POLYLINE
  8
0
 62
7
  6
CONTINUOUS
 66
1
 70
0
  0
VERTEX
  8
0
 62
7
  6
CONTINUOUS
 10
42.5685119611
 20
123.2892022437
  0
VERTEX
  8
0
 62
7
  6
CONTINUOUS
 10
42.3997169078
 20
123.261315598
  0
VERTEX
  8
0
 62
7
  6
CONTINUOUS
 10
42.2351566914
 20
123.2304716966
  0
VERTEX
  8
0
 62
7
  6
CONTINUOUS
 10
42.0917184148
 20
123.1995879458
  0
VERTEX
  8
0
 62
7
  6
CONTINUOUS
 10
41.9660401143
 20
123.1682498992
  0
VERTEX
  8
0
 62
7
  6
CONTINUOUS
 10
41.854726444
 20
123.1357485139
  0
VERTEX
  8
0
 62
7
  6
CONTINUOUS
 10
41.7541168225
 20
123.100836211
  0
VERTEX
  8
0
 62
7
  6
CONTINUOUS
 10
41.6601519514
 20
123.0612995838
  0
VERTEX
  8
0
 62
7
  6
CONTINUOUS
 10
41.5689561704
 20
123.0135109925
  0
VERTEX
  8
0
 62
7
  6
CONTINUOUS
 10
41.477643994
 20
122.9518019493
  0
VERTEX
  8
0
 62
7
  6
CONTINUOUS
 10
41.3865962401
 20
122.868704882
  0
VERTEX
  8
0
 62
7
  6
CONTINUOUS
 10
41.303126681
 20
122.7588996169
  0
VERTEX
  8
0
 62
7
  6
CONTINUOUS
 10
41.2398163738
 20
122.6247458347
  0
VERTEX
  8
0
 62
7
  6
CONTINUOUS
 10
41.2069728984
 20
122.4774995795
  0
VERTEX
  8
0
 62
7
  6
CONTINUOUS
 10
41.2029358444
 20
122.4027438738
  0
SEQEND
  0
LINE
  8
0
 62
7
  6
CONTINUOUS
 10
42.6732310978
 20
123.3051057491
 11
42.5685037558
 21
123.2892009646
  0
POLYLINE
  8
0
 62
7
  6
CONTINUOUS
 66
1
 70
0
  0
VERTEX
  8
0
 62
7
  6
CONTINUOUS
 10
46.8603118264
 20
124.3613457509
  0
VERTEX
  8
0
 62
7
  6
CONTINUOUS
 10
46.308518705
 20
124.2894679372
  0
VERTEX
  8
0
 62
7
  6
CONTINUOUS
 10
45.7086937781
 20
124.1947390858
  0
VERTEX
  8
0
 62
7
  6
CONTINUOUS
 10
45.1260829726
 20
124.0840515548
  0
VERTEX
  8
0
 62
7
  6
CONTINUOUS
 10
44.5656919508
 20
123.9573633213
  0
VERTEX
  8
0
 62
7
  6
CONTINUOUS
 10
44.0323557487
 20
123.8146585755
  0
VERTEX
  8
0
 62
7
  6
CONTINUOUS
 10
43.5307312682
 20
123.6558901736
  0
VERTEX
  8
0
 62
7
  6
CONTINUOUS
 10
43.0651182274
 20
123.4808256354
  0
SEQEND
  0
POLYLINE
  8
0
 62
7
  6
CONTINUOUS
 66
1
 70
0
  0
VERTEX
  8
0
 62
7
  6
CONTINUOUS
 10
52.6885095058
 20
132.93469291
  0
VERTEX
  8
0
 62
7
  6
CONTINUOUS
 10
52.9818316246
 20
132.9386658869
  0
VERTEX
  8
0
 62
7
  6
CONTINUOUS
 10
53.0614251677
 20
132.9387922103
  0
VERTEX
  8
0
 62
7
  6
CONTINUOUS
 10
53.1404878289
 20
132.9375135309
  0
VERTEX
  8
0
 62
7
  6
CONTINUOUS
 10
53.2187395531
 20
132.9346270541
  0
VERTEX
  8
0
 62
7
  6
CONTINUOUS
 10
53.2959577971
 20
132.9299116521
  0
VERTEX
  8
0
 62
7
  6
CONTINUOUS
 10
53.371922846
 20
132.9231687316
  0
VERTEX
  8
0
 62
7
  6
CONTINUOUS
 10
53.4462019907
 20
132.9142223854
  0
VERTEX
  8
0
 62
7
  6
CONTINUOUS
 10
53.518286989
 20
132.9029028682
  0
VERTEX
  8
0
 62
7
  6
CONTINUOUS
 10
53.5883916579
 20
132.889011469
  0
VERTEX
  8
0
 62
7
  6
CONTINUOUS
 10
53.65604181
 20
132.8723115931
  0
VERTEX
  8
0
 62
7
  6
CONTINUOUS
 10
53.7201099943
 20
132.8525970512
  0
VERTEX
  8
0
 62
7
  6
CONTINUOUS
 10
53.7795998194
 20
132.8292503736
  0
VERTEX
  8
0
 62
7
  6
CONTINUOUS
 10
53.8348687682
 20
132.8017819505
  0
VERTEX
  8
0
 62
7
  6
CONTINUOUS
 10
53.8843132976
 20
132.7707670739
  0
VERTEX
  8
0
 62
7
  6
CONTINUOUS
 10
53.9264922704
 20
132.7373243879
  0
VERTEX
  8
0
 62
7
  6
CONTINUOUS
 10
53.9617665622
 20
132.7014544965
  0
VERTEX
  8
0
 62
7
  6
CONTINUOUS
 10
53.9900623737
 20
132.6631343212
  0
VERTEX
  8
0
 62
7
  6
CONTINUOUS
 10
54.0107724793
 20
132.6223033207
  0
VERTEX
  8
0
 62
7
  6
CONTINUOUS
 10
54.0223607413
 20
132.579506498
  0
VERTEX
  8
0
 62
7
  6
CONTINUOUS
 10
54.0241272515
 20
132.5561366997
  0
SEQEND
  0
POLYLINE
  8
0
 62
7
  6
CONTINUOUS
 66
1
 70
0
  0
VERTEX
  8
0
 62
7
  6
CONTINUOUS
 10
97.5133942391
 20
132.758406598
  0
VERTEX
  8
0
 62
7
  6
CONTINUOUS
 10
97.2193624681
 20
132.7544368771
  0
VERTEX
  8
0
 62
7
  6
CONTINUOUS
 10
97.1394932951
 20
132.7543902106
  0
VERTEX
  8
0
 62
7
  6
CONTINUOUS
 10
97.0603178319
 20
132.7557669753
  0
VERTEX
  8
0
 62
7
  6
CONTINUOUS
 10
96.9820958581
 20
132.7587660847
  0
VERTEX
  8
0
 62
7
  6
CONTINUOUS
 10
96.9050247386
 20
132.7636016545
  0
VERTEX
  8
0
 62
7
  6
CONTINUOUS
 10
96.829311566
 20
132.7704627843
  0
VERTEX
  8
0
 62
7
  6
CONTINUOUS
 10
96.7553842972
 20
132.7795186826
  0
VERTEX
  8
0
 62
7
  6
CONTINUOUS
 10
96.6836891209
 20
132.7909343385
  0
VERTEX
  8
0
 62
7
  6
CONTINUOUS
 10
96.6140900988
 20
132.8048903145
  0
VERTEX
  8
0
 62
7
  6
CONTINUOUS
 10
96.5468545128
 20
132.821658069
  0
VERTEX
  8
0
 62
7
  6
CONTINUOUS
 10
96.4834254718
 20
132.841360221
  0
VERTEX
  8
0
 62
7
  6
CONTINUOUS
 10
96.4244305794
 20
132.864711619
  0
VERTEX
  8
0
 62
7
  6
CONTINUOUS
 10
96.3696605745
 20
132.8921145026
  0
VERTEX
  8
0
 62
7
  6
CONTINUOUS
 10
96.320729307
 20
132.9229636363
  0
VERTEX
  8
0
 62
7
  6
CONTINUOUS
 10
96.2787029442
 20
132.9564276392
  0
VERTEX
  8
0
 62
7
  6
CONTINUOUS
 10
96.2433592695
 20
132.9925628412
  0
VERTEX
  8
0
 62
7
  6
CONTINUOUS
 10
96.2149941261
 20
133.0313260829
  0
VERTEX
  8
0
 62
7
  6
CONTINUOUS
 10
96.1944178284
 20
133.0725996826
  0
VERTEX
  8
0
 62
7
  6
CONTINUOUS
 10
96.1832348013
 20
133.1155970187
  0
VERTEX
  8
0
 62
7
  6
CONTINUOUS
 10
96.181744789
 20
133.1368359219
  0
SEQEND
  0
LINE
  8
0
 62
7
  6
CONTINUOUS
 10
97.7964084081
 20
132.7608486526
 11
97.5133942391
 21
132.758406598
  0
LINE
  8
0
 62
7
  6
CONTINUOUS
 10
52.405487769
 20
132.9322769356
 11
52.6885095058
 21
132.93469291
  0
LINE
  8
0
 62
7
  6
CONTINUOUS
 10
97.7964084081
 20
132.7608486526
 11
103.3445093487
 21
132.7614050295
  0
LINE
  8
0
 62
7
  6
CONTINUOUS
 10
46.8613996434
 20
132.9317413432
 11
52.405487769
 21
132.9322769356
  0
LINE
  8
0
 62
7
  6
CONTINUOUS
 10
46.8603176921
 20
132.9318006514
 11
46.8613376319
 21
132.9317413462
  0
LINE
  8
0
 62
7
  6
CONTINUOUS
 10
42.5685037558
 20
134.0039454082
 11
42.6732310978
 21
133.9880406236
  0
POLYLINE
  8
0
 62
7
  6
CONTINUOUS
 66
1
 70
0
  0
VERTEX
  8
0
 62
7
  6
CONTINUOUS
 10
107.5417003431
 20
114.9010434034
  0
VERTEX
  8
0
 62
7
  6
CONTINUOUS
 10
107.1384536036
 20
115.0817701305
  0
VERTEX
  8
0
 62
7
  6
CONTINUOUS
 10
106.6726028724
 20
115.2567639483
  0
VERTEX
  8
0
 62
7
  6
CONTINUOUS
 10
106.1707523523
 20
115.4154619013
  0
VERTEX
  8
0
 62
7
  6
CONTINUOUS
 10
105.6372045189
 20
115.558094677
  0
VERTEX
  8
0
 62
7
  6
CONTINUOUS
 10
105.0766186881
 20
115.6847085769
  0
VERTEX
  8
0
 62
7
  6
CONTINUOUS
 10
104.4938315531
 20
115.7953191877
  0
VERTEX
  8
0
 62
7
  6
CONTINUOUS
 10
103.8938499647
 20
115.8899686475
  0
VERTEX
  8
0
 62
7
  6
CONTINUOUS
 10
103.3455596202
 20
115.9613457542
  0
SEQEND
  0
LINE
  8
0
 62
7
  6
CONTINUOUS
 10
82.3696024041
 20
127.3993540574
 11
82.9918246263
 21
126.9836143478
  0
LINE
  8
0
 62
7
  6
CONTINUOUS
 10
82.9918246263
 20
130.3095320249
 11
82.3696024041
 21
129.8937923153
  0
LINE
  8
0
 62
7
  6
CONTINUOUS
 10
107.1384537105
 20
142.2113762861
 11
107.5417003431
 21
142.3921029694
  0
POLYLINE
  8
0
 62
7
  6
CONTINUOUS
 66
1
 70
0
  0
VERTEX
  8
0
 62
7
  6
CONTINUOUS
 10
107.6373587616
 20
142.4039440118
  0
VERTEX
  8
0
 62
7
  6
CONTINUOUS
 10
107.8048713308
 20
142.4316058235
  0
VERTEX
  8
0
 62
7
  6
CONTINUOUS
 10
107.969897549
 20
142.4625106213
  0
VERTEX
  8
0
 62
7
  6
CONTINUOUS
 10
108.1137252503
 20
142.4934594079
  0
VERTEX
  8
0
 62
7
  6
CONTINUOUS
 10
108.2397278734
 20
142.5248685952
  0
VERTEX
  8
0
 62
7
  6
CONTINUOUS
 10
108.3513147124
 20
142.5574517362
  0
VERTEX
  8
0
 62
7
  6
CONTINUOUS
 10
108.4521660312
 20
142.592466745
  0
VERTEX
  8
0
 62
7
  6
CONTINUOUS
 10
108.5463694977
 20
142.6321502433
  0
VERTEX
  8
0
 62
7
  6
CONTINUOUS
 10
108.6378334235
 20
142.6801773611
  0
VERTEX
  8
0
 62
7
  6
CONTINUOUS
 10
108.7294406462
 20
142.7422870119
  0
VERTEX
  8
0
 62
7
  6
CONTINUOUS
 10
108.8207315138
 20
142.8260159367
  0
VERTEX
  8
0
 62
7
  6
CONTINUOUS
 10
108.9042194215
 20
142.9366613479
  0
VERTEX
  8
0
 62
7
  6
CONTINUOUS
 10
108.9671631448
 20
143.0716510134
  0
VERTEX
  8
0
 62
7
  6
CONTINUOUS
 10
108.9993053007
 20
143.2194858026
  0
VERTEX
  8
0
 62
7
  6
CONTINUOUS
 10
109.0029353036
 20
143.2895851836
  0
SEQEND
  0
LINE
  8
0
 62
7
  6
CONTINUOUS
 10
107.5326413044
 20
142.3880428982
 11
107.6373668491
 21
142.4039452726
  0
POLYLINE
  8
0
 62
7
  6
CONTINUOUS
 66
1
 70
0
  0
VERTEX
  8
0
 62
7
  6
CONTINUOUS
 10
103.3455596202
 20
141.3318006185
  0
VERTEX
  8
0
 62
7
  6
CONTINUOUS
 10
103.8938510026
 20
141.4031778735
  0
VERTEX
  8
0
 62
7
  6
CONTINUOUS
 10
104.493832418
 20
141.4978273349
  0
VERTEX
  8
0
 62
7
  6
CONTINUOUS
 10
105.0766193825
 20
141.6084379397
  0
VERTEX
  8
0
 62
7
  6
CONTINUOUS
 10
105.6372050488
 20
141.7350518259
  0
VERTEX
  8
0
 62
7
  6
CONTINUOUS
 10
106.1707527271
 20
141.8776845803
  0
VERTEX
  8
0
 62
7
  6
CONTINUOUS
 10
106.6726031052
 20
142.0363825045
  0
VERTEX
  8
0
 62
7
  6
CONTINUOUS
 10
107.1384537105
 20
142.2113762861
  0
SEQEND
  0
LINE
  8
0
 62
7
  6
CONTINUOUS
 10
103.3455537545
 20
141.3318006481
 11
103.3445338429
 21
141.3317413462
  0
LINE
  8
0
 62
7
  6
CONTINUOUS
 10
103.3445414617
 20
132.7614050295
 11
103.3455494988
 21
132.7613457034
  0
LINE
  8
0
 62
7
  6
CONTINUOUS
 10
107.6373668491
 20
131.6892011002
 11
107.5326413041
 21
131.7051034745
  0
POLYLINE
  8
0
 62
7
  6
CONTINUOUS
 66
1
 70
0
  0
VERTEX
  8
0
 62
7
  6
CONTINUOUS
 10
42.6641690056
 20
150.7921040125
  0
VERTEX
  8
0
 62
7
  6
CONTINUOUS
 10
43.0651182274
 20
150.6123207373
  0
VERTEX
  8
0
 62
7
  6
CONTINUOUS
 10
43.5307312682
 20
150.4372561992
  0
VERTEX
  8
0
 62
7
  6
CONTINUOUS
 10
44.0323557487
 20
150.2784877973
  0
VERTEX
  8
0
 62
7
  6
CONTINUOUS
 10
44.5656919508
 20
150.1357830515
  0
VERTEX
  8
0
 62
7
  6
CONTINUOUS
 10
45.1260829726
 20
150.0090948179
  0
VERTEX
  8
0
 62
7
  6
CONTINUOUS
 10
45.7086937781
 20
149.8984072869
  0
VERTEX
  8
0
 62
7
  6
CONTINUOUS
 10
46.308518705
 20
149.8036784356
  0
VERTEX
  8
0
 62
7
  6
CONTINUOUS
 10
46.8603118264
 20
149.7318006218
  0
SEQEND
  0
LINE
  8
0
 62
7
  6
CONTINUOUS
 10
64.3696024041
 20
144.1993540574
 11
64.9918246263
 21
143.7836143478
  0
LINE
  8
0
 62
7
  6
CONTINUOUS
 10
85.8362690707
 20
129.8937923153
 11
85.2140468485
 21
130.3095320249
  0
POLYLINE
  8
0
 62
7
  6
CONTINUOUS
 66
1
 70
0
  0
VERTEX
  8
0
 62
7
  6
CONTINUOUS
 10
103.3455494988
 20
115.9613457034
  0
VERTEX
  8
0
 62
7
  6
CONTINUOUS
 10
103.3541463968
 20
115.955534003
  0
VERTEX
  8
0
 62
7
  6
CONTINUOUS
 10
103.3629397153
 20
115.9364472501
  0
VERTEX
  8
0
 62
7
  6
CONTINUOUS
 10
103.369668158
 20
115.905246003
  0
VERTEX
  8
0
 62
7
  6
CONTINUOUS
 10
103.3739878614
 20
115.8639274571
  0
VERTEX
  8
0
 62
7
  6
CONTINUOUS
 10
103.375776748
 20
115.8152311109
  0
VERTEX
  8
0
 62
7
  6
CONTINUOUS
 10
103.3752170607
 20
115.7614050295
  0
SEQEND
  0
LINE
  8
0
 62
7
  6
CONTINUOUS
 10
64.9918246263
 20
113.5095320249
 11
64.3696024041
 21
113.0937923153
  0
LINE
  8
0
 62
7
  6
CONTINUOUS
 10
85.2140468485
 20
126.9836143478
 11
85.8362690707
 21
127.3993540574
  0
LINE
  8
0
 62
7
  6
CONTINUOUS
 10
43.0651182274
 20
106.6808256354
 11
42.6641690056
 21
106.5010423602
  0
POLYLINE
  8
0
 62
7
  6
CONTINUOUS
 66
1
 70
0
  0
VERTEX
  8
0
 62
7
  6
CONTINUOUS
 10
42.5685119611
 20
140.0892022437
  0
VERTEX
  8
0
 62
7
  6
CONTINUOUS
 10
42.3997169078
 20
140.061315598
  0
VERTEX
  8
0
 62
7
  6
CONTINUOUS
 10
42.2351566914
 20
140.0304716966
  0
VERTEX
  8
0
 62
7
  6
CONTINUOUS
 10
42.0917184148
 20
139.9995879458
  0
VERTEX
  8
0
 62
7
  6
CONTINUOUS
 10
41.9660401143
 20
139.9682498992
  0
VERTEX
  8
0
 62
7
  6
CONTINUOUS
 10
41.854726444
 20
139.9357485139
  0
VERTEX
  8
0
 62
7
  6
CONTINUOUS
 10
41.7541168225
 20
139.900836211
  0
VERTEX
  8
0
 62
7
  6
CONTINUOUS
 10
41.6601519514
 20
139.8612995838
  0
VERTEX
  8
0
 62
7
  6
CONTINUOUS
 10
41.5689561704
 20
139.8135109925
  0
VERTEX
  8
0
 62
7
  6
CONTINUOUS
 10
41.477643994
 20
139.7518019493
  0
VERTEX
  8
0
 62
7
  6
CONTINUOUS
 10
41.3865962401
 20
139.668704882
  0
VERTEX
  8
0
 62
7
  6
CONTINUOUS
 10
41.303126681
 20
139.5588996169
  0
VERTEX
  8
0
 62
7
  6
CONTINUOUS
 10
41.2398163738
 20
139.4247458347
  0
VERTEX
  8
0
 62
7
  6
CONTINUOUS
 10
41.2069728984
 20
139.2774995795
  0
VERTEX
  8
0
 62
7
  6
CONTINUOUS
 10
41.2029358444
 20
139.2027438738
  0
SEQEND
  0
LINE
  8
0
 62
7
  6
CONTINUOUS
 10
42.6732310978
 20
140.1051057491
 11
42.5685037558
 21
140.0892009646
  0
POLYLINE
  8
0
 62
7
  6
CONTINUOUS
 66
1
 70
0
  0
VERTEX
  8
0
 62
7
  6
CONTINUOUS
 10
46.8603118264
 20
141.1613457509
  0
VERTEX
  8
0
 62
7
  6
CONTINUOUS
 10
46.308518705
 20
141.0894679372
  0
VERTEX
  8
0
 62
7
  6
CONTINUOUS
 10
45.7086937781
 20
140.9947390858
  0
VERTEX
  8
0
 62
7
  6
CONTINUOUS
 10
45.1260829726
 20
140.8840515548
  0
VERTEX
  8
0
 62
7
  6
CONTINUOUS
 10
44.5656919508
 20
140.7573633213
  0
VERTEX
  8
0
 62
7
  6
CONTINUOUS
 10
44.0323557487
 20
140.6146585755
  0
VERTEX
  8
0
 62
7
  6
CONTINUOUS
 10
43.5307312682
 20
140.4558901736
  0
VERTEX
  8
0
 62
7
  6
CONTINUOUS
 10
43.0651182274
 20
140.2808256354
  0
SEQEND
  0
LINE
  8
0
 62
7
  6
CONTINUOUS
 10
46.8603176921
 20
141.1613457213
 11
46.8613376319
 21
141.1614050265
  0
POLYLINE
  8
0
 62
7
  6
CONTINUOUS
 66
1
 70
0
  0
VERTEX
  8
0
 62
7
  6
CONTINUOUS
 10
52.985937378
 20
141.1544425245
  0
VERTEX
  8
0
 62
7
  6
CONTINUOUS
 10
52.6924733922
 20
141.158407001
  0
VERTEX
  8
0
 62
7
  6
CONTINUOUS
 10
52.4094611908
 20
141.1608487449
  0
VERTEX
  8
0
 62
7
  6
CONTINUOUS
 10
46.8613996434
 20
141.1614050295
  0
SEQEND
  0
POLYLINE
  8
0
 62
7
  6
CONTINUOUS
 66
1
 70
0
  0
VERTEX
  8
0
 62
7
  6
CONTINUOUS
 10
97.2235629225
 20
141.3386704654
  0
VERTEX
  8
0
 62
7
  6
CONTINUOUS
 10
97.5173620197
 20
141.3346929102
  0
VERTEX
  8
0
 62
7
  6
CONTINUOUS
 10
97.8003836802
 20
141.3322769357
  0
VERTEX
  8
0
 62
7
  6
CONTINUOUS
 10
103.3444718314
 20
141.3317413432
  0
SEQEND
  0
LINE
  8
0
 62
7
  6
CONTINUOUS
 10
42.5685037558
 20
150.8039454082
 11
42.6732310978
 21
150.7880406236
  0
POLYLINE
  8
0
 62
7
  6
CONTINUOUS
 66
1
 70
0
  0
VERTEX
  8
0
 62
7
  6
CONTINUOUS
 10
107.5417003431
 20
131.7010434034
  0
VERTEX
  8
0
 62
7
  6
CONTINUOUS
 10
107.1384536036
 20
131.8817701305
  0
VERTEX
  8
0
 62
7
  6
CONTINUOUS
 10
106.6726028724
 20
132.0567639483
  0
VERTEX
  8
0
 62
7
  6
CONTINUOUS
 10
106.1707523523
 20
132.2154619013
  0
VERTEX
  8
0
 62
7
  6
CONTINUOUS
 10
105.6372045189
 20
132.358094677
  0
VERTEX
  8
0
 62
7
  6
CONTINUOUS
 10
105.0766186881
 20
132.4847085769
  0
VERTEX
  8
0
 62
7
  6
CONTINUOUS
 10
104.4938315531
 20
132.5953191877
  0
VERTEX
  8
0
 62
7
  6
CONTINUOUS
 10
103.8938499647
 20
132.6899686475
  0
VERTEX
  8
0
 62
7
  6
CONTINUOUS
 10
103.3455596202
 20
132.7613457542
  0
SEQEND
  0
LINE
  8
0
 62
7
  6
CONTINUOUS
 10
67.8362690707
 20
146.6937923153
 11
67.2140468485
 21
147.1095320249
  0
POLYLINE
  8
0
 62
7
  6
CONTINUOUS
 66
1
 70
0
  0
VERTEX
  8
0
 62
7
  6
CONTINUOUS
 10
96.1817442335
 20
191.3561373997
  0
VERTEX
  8
0
 62
7
  6
CONTINUOUS
 10
96.1834786411
 20
191.3792876165
  0
VERTEX
  8
0
 62
7
  6
CONTINUOUS
 10
96.1950824675
 20
191.4222621813
  0
VERTEX
  8
0
 62
7
  6
CONTINUOUS
 10
96.2159887176
 20
191.4634224777
  0
VERTEX
  8
0
 62
7
  6
CONTINUOUS
 10
96.244605396
 20
191.5020363594
  0
VERTEX
  8
0
 62
7
  6
CONTINUOUS
 10
96.2801668004
 20
191.5380280472
  0
VERTEX
  8
0
 62
7
  6
CONTINUOUS
 10
96.3224097599
 20
191.5713667165
  0
VERTEX
  8
0
 62
7
  6
CONTINUOUS
 10
96.3715734905
 20
191.6021010462
  0
VERTEX
  8
0
 62
7
  6
CONTINUOUS
 10
96.4265673163
 20
191.6293812335
  0
VERTEX
  8
0
 62
7
  6
CONTINUOUS
 10
96.4857837321
 20
191.6526048611
  0
VERTEX
  8
0
 62
7
  6
CONTINUOUS
 10
96.5494961773
 20
191.6722132389
  0
VERTEX
  8
0
 62
7
  6
CONTINUOUS
 10
96.6169157551
 20
191.6888860576
  0
VERTEX
  8
0
 62
7
  6
CONTINUOUS
 10
96.686713017
 20
191.7027496836
  0
VERTEX
  8
0
 62
7
  6
CONTINUOUS
 10
96.7585848932
 20
191.7140724952
  0
VERTEX
  8
0
 62
7
  6
CONTINUOUS
 10
96.8327023295
 20
191.7230390815
  0
VERTEX
  8
0
 62
7
  6
CONTINUOUS
 10
96.908594612
 20
191.7298132278
  0
VERTEX
  8
0
 62
7
  6
CONTINUOUS
 10
96.9858373815
 20
191.7345641524
  0
VERTEX
  8
0
 62
7
  6
CONTINUOUS
 10
97.0642267239
 20
191.7374833157
  0
VERTEX
  8
0
 62
7
  6
CONTINUOUS
 10
97.1435564907
 20
191.7387859594
  0
VERTEX
  8
0
 62
7
  6
CONTINUOUS
 10
97.2235629225
 20
191.7386704654
  0
SEQEND
  0
POLYLINE
  8
0
 62
7
  6
CONTINUOUS
 66
1
 70
0
  0
VERTEX
  8
0
 62
7
  6
CONTINUOUS
 10
96.1817442335
 20
174.5561373997
  0
VERTEX
  8
0
 62
7
  6
CONTINUOUS
 10
96.1834786411
 20
174.5792876165
  0
VERTEX
  8
0
 62
7
  6
CONTINUOUS
 10
96.1950824675
 20
174.6222621813
  0
VERTEX
  8
0
 62
7
  6
CONTINUOUS
 10
96.2159887176
 20
174.6634224777
  0
VERTEX
  8
0
 62
7
  6
CONTINUOUS
 10
96.244605396
 20
174.7020363594
  0
VERTEX
  8
0
 62
7
  6
CONTINUOUS
 10
96.2801668004
 20
174.7380280472
  0
VERTEX
  8
0
 62
7
  6
CONTINUOUS
 10
96.3224097599
 20
174.7713667165
  0
VERTEX
  8
0
 62
7
  6
CONTINUOUS
 10
96.3715734905
 20
174.8021010462
  0
VERTEX
  8
0
 62
7
  6
CONTINUOUS
 10
96.4265673163
 20
174.8293812335
  0
VERTEX
  8
0
 62
7
  6
CONTINUOUS
 10
96.4857837321
 20
174.8526048611
  0
VERTEX
  8
0
 62
7
  6
CONTINUOUS
 10
96.5494961773
 20
174.8722132389
  0
VERTEX
  8
0
 62
7
  6
CONTINUOUS
 10
96.6169157551
 20
174.8888860576
  0
VERTEX
  8
0
 62
7
  6
CONTINUOUS
 10
96.686713017
 20
174.9027496836
  0
VERTEX
  8
0
 62
7
  6
CONTINUOUS
 10
96.7585848932
 20
174.9140724952
  0
VERTEX
  8
0
 62
7
  6
CONTINUOUS
 10
96.8327023295
 20
174.9230390815
  0
VERTEX
  8
0
 62
7
  6
CONTINUOUS
 10
96.908594612
 20
174.9298132278
  0
VERTEX
  8
0
 62
7
  6
CONTINUOUS
 10
96.9858373815
 20
174.9345641524
  0
VERTEX
  8
0
 62
7
  6
CONTINUOUS
 10
97.0642267239
 20
174.9374833157
  0
VERTEX
  8
0
 62
7
  6
CONTINUOUS
 10
97.1435564907
 20
174.9387859594
  0
VERTEX
  8
0
 62
7
  6
CONTINUOUS
 10
97.2235629225
 20
174.9386704654
  0
SEQEND
  0
POLYLINE
  8
0
 62
7
  6
CONTINUOUS
 66
1
 70
0
  0
VERTEX
  8
0
 62
7
  6
CONTINUOUS
 10
96.1817442335
 20
157.7561373997
  0
VERTEX
  8
0
 62
7
  6
CONTINUOUS
 10
96.1834786411
 20
157.7792876165
  0
VERTEX
  8
0
 62
7
  6
CONTINUOUS
 10
96.1950824675
 20
157.8222621813
  0
VERTEX
  8
0
 62
7
  6
CONTINUOUS
 10
96.2159887176
 20
157.8634224777
  0
VERTEX
  8
0
 62
7
  6
CONTINUOUS
 10
96.244605396
 20
157.9020363594
  0
VERTEX
  8
0
 62
7
  6
CONTINUOUS
 10
96.2801668004
 20
157.9380280472
  0
VERTEX
  8
0
 62
7
  6
CONTINUOUS
 10
96.3224097599
 20
157.9713667165
  0
VERTEX
  8
0
 62
7
  6
CONTINUOUS
 10
96.3715734905
 20
158.0021010462
  0
VERTEX
  8
0
 62
7
  6
CONTINUOUS
 10
96.4265673163
 20
158.0293812335
  0
VERTEX
  8
0
 62
7
  6
CONTINUOUS
 10
96.4857837321
 20
158.0526048611
  0
VERTEX
  8
0
 62
7
  6
CONTINUOUS
 10
96.5494961773
 20
158.0722132389
  0
VERTEX
  8
0
 62
7
  6
CONTINUOUS
 10
96.6169157551
 20
158.0888860576
  0
VERTEX
  8
0
 62
7
  6
CONTINUOUS
 10
96.686713017
 20
158.1027496836
  0
VERTEX
  8
0
 62
7
  6
CONTINUOUS
 10
96.7585848932
 20
158.1140724952
  0
VERTEX
  8
0
 62
7
  6
CONTINUOUS
 10
96.8327023295
 20
158.1230390815
  0
VERTEX
  8
0
 62
7
  6
CONTINUOUS
 10
96.908594612
 20
158.1298132278
  0
VERTEX
  8
0
 62
7
  6
CONTINUOUS
 10
96.9858373815
 20
158.1345641524
  0
VERTEX
  8
0
 62
7
  6
CONTINUOUS
 10
97.0642267239
 20
158.1374833157
  0
VERTEX
  8
0
 62
7
  6
CONTINUOUS
 10
97.1435564907
 20
158.1387859594
  0
VERTEX
  8
0
 62
7
  6
CONTINUOUS
 10
97.2235629225
 20
158.1386704654
  0
SEQEND
  0
LINE
  8
0
 62
7
  6
CONTINUOUS
 10
67.2140468485
 20
110.1836143478
 11
67.8362690707
 21
110.5993540574
  0
POLYLINE
  8
0
 62
7
  6
CONTINUOUS
 66
1
 70
0
  0
VERTEX
  8
0
 62
7
  6
CONTINUOUS
 10
52.6885095058
 20
149.73469291
  0
VERTEX
  8
0
 62
7
  6
CONTINUOUS
 10
52.9818316246
 20
149.7386658869
  0
VERTEX
  8
0
 62
7
  6
CONTINUOUS
 10
53.0614251677
 20
149.7387922103
  0
VERTEX
  8
0
 62
7
  6
CONTINUOUS
 10
53.1404878289
 20
149.7375135309
  0
VERTEX
  8
0
 62
7
  6
CONTINUOUS
 10
53.2187395531
 20
149.7346270541
  0
VERTEX
  8
0
 62
7
  6
CONTINUOUS
 10
53.2959577971
 20
149.7299116521
  0
VERTEX
  8
0
 62
7
  6
CONTINUOUS
 10
53.371922846
 20
149.7231687316
  0
VERTEX
  8
0
 62
7
  6
CONTINUOUS
 10
53.4462019907
 20
149.7142223854
  0
VERTEX
  8
0
 62
7
  6
CONTINUOUS
 10
53.518286989
 20
149.7029028682
  0
VERTEX
  8
0
 62
7
  6
CONTINUOUS
 10
53.5883916579
 20
149.689011469
  0
VERTEX
  8
0
 62
7
  6
CONTINUOUS
 10
53.65604181
 20
149.6723115931
  0
VERTEX
  8
0
 62
7
  6
CONTINUOUS
 10
53.7201099943
 20
149.6525970512
  0
VERTEX
  8
0
 62
7
  6
CONTINUOUS
 10
53.7795998194
 20
149.6292503736
  0
VERTEX
  8
0
 62
7
  6
CONTINUOUS
 10
53.8348687682
 20
149.6017819505
  0
VERTEX
  8
0
 62
7
  6
CONTINUOUS
 10
53.8843132976
 20
149.5707670739
  0
VERTEX
  8
0
 62
7
  6
CONTINUOUS
 10
53.9264922704
 20
149.5373243879
  0
VERTEX
  8
0
 62
7
  6
CONTINUOUS
 10
53.9617665622
 20
149.5014544965
  0
VERTEX
  8
0
 62
7
  6
CONTINUOUS
 10
53.9900623737
 20
149.4631343212
  0
VERTEX
  8
0
 62
7
  6
CONTINUOUS
 10
54.0107724793
 20
149.4223033207
  0
VERTEX
  8
0
 62
7
  6
CONTINUOUS
 10
54.0223607413
 20
149.379506498
  0
VERTEX
  8
0
 62
7
  6
CONTINUOUS
 10
54.0241272515
 20
149.3561366997
  0
SEQEND
  0
POLYLINE
  8
0
 62
7
  6
CONTINUOUS
 66
1
 70
0
  0
VERTEX
  8
0
 62
7
  6
CONTINUOUS
 10
97.5133942391
 20
149.558406598
  0
VERTEX
  8
0
 62
7
  6
CONTINUOUS
 10
97.2193624681
 20
149.5544368771
  0
VERTEX
  8
0
 62
7
  6
CONTINUOUS
 10
97.1394932951
 20
149.5543902106
  0
VERTEX
  8
0
 62
7
  6
CONTINUOUS
 10
97.0603178319
 20
149.5557669753
  0
VERTEX
  8
0
 62
7
  6
CONTINUOUS
 10
96.9820958581
 20
149.5587660847
  0
VERTEX
  8
0
 62
7
  6
CONTINUOUS
 10
96.9050247386
 20
149.5636016545
  0
VERTEX
  8
0
 62
7
  6
CONTINUOUS
 10
96.829311566
 20
149.5704627843
  0
VERTEX
  8
0
 62
7
  6
CONTINUOUS
 10
96.7553842972
 20
149.5795186826
  0
VERTEX
  8
0
 62
7
  6
CONTINUOUS
 10
96.6836891209
 20
149.5909343385
  0
VERTEX
  8
0
 62
7
  6
CONTINUOUS
 10
96.6140900988
 20
149.6048903145
  0
VERTEX
  8
0
 62
7
  6
CONTINUOUS
 10
96.5468545128
 20
149.621658069
  0
VERTEX
  8
0
 62
7
  6
CONTINUOUS
 10
96.4834254718
 20
149.641360221
  0
VERTEX
  8
0
 62
7
  6
CONTINUOUS
 10
96.4244305794
 20
149.664711619
  0
VERTEX
  8
0
 62
7
  6
CONTINUOUS
 10
96.3696605745
 20
149.6921145026
  0
VERTEX
  8
0
 62
7
  6
CONTINUOUS
 10
96.320729307
 20
149.7229636363
  0
VERTEX
  8
0
 62
7
  6
CONTINUOUS
 10
96.2787029442
 20
149.7564276392
  0
VERTEX
  8
0
 62
7
  6
CONTINUOUS
 10
96.2433592695
 20
149.7925628412
  0
VERTEX
  8
0
 62
7
  6
CONTINUOUS
 10
96.2149941261
 20
149.8313260829
  0
VERTEX
  8
0
 62
7
  6
CONTINUOUS
 10
96.1944178284
 20
149.8725996826
  0
VERTEX
  8
0
 62
7
  6
CONTINUOUS
 10
96.1832348013
 20
149.9155970187
  0
VERTEX
  8
0
 62
7
  6
CONTINUOUS
 10
96.181744789
 20
149.9368359219
  0
SEQEND
  0
LINE
  8
0
 62
7
  6
CONTINUOUS
 10
97.7964084081
 20
149.5608486526
 11
97.5133942391
 21
149.558406598
  0
LINE
  8
0
 62
7
  6
CONTINUOUS
 10
52.405487769
 20
149.7322769356
 11
52.6885095058
 21
149.73469291
  0
LINE
  8
0
 62
7
  6
CONTINUOUS
 10
97.7964084081
 20
149.5608486526
 11
103.3445093487
 21
149.5614050295
  0
LINE
  8
0
 62
7
  6
CONTINUOUS
 10
46.8613996434
 20
149.7317413432
 11
52.405487769
 21
149.7322769356
  0
LINE
  8
0
 62
7
  6
CONTINUOUS
 10
46.8603176921
 20
149.7318006514
 11
46.8613376319
 21
149.7317413462
  0
LINE
  8
0
 62
7
  6
CONTINUOUS
 10
103.3445414617
 20
149.5614050295
 11
103.3455494988
 21
149.5613457034
  0
POLYLINE
  8
0
 62
7
  6
CONTINUOUS
 66
1
 70
0
  0
VERTEX
  8
0
 62
7
  6
CONTINUOUS
 10
42.6641690056
 20
167.5921040125
  0
VERTEX
  8
0
 62
7
  6
CONTINUOUS
 10
43.0651182274
 20
167.4123207373
  0
VERTEX
  8
0
 62
7
  6
CONTINUOUS
 10
43.5307312682
 20
167.2372561992
  0
VERTEX
  8
0
 62
7
  6
CONTINUOUS
 10
44.0323557487
 20
167.0784877973
  0
VERTEX
  8
0
 62
7
  6
CONTINUOUS
 10
44.5656919508
 20
166.9357830515
  0
VERTEX
  8
0
 62
7
  6
CONTINUOUS
 10
45.1260829726
 20
166.8090948179
  0
VERTEX
  8
0
 62
7
  6
CONTINUOUS
 10
45.7086937781
 20
166.6984072869
  0
VERTEX
  8
0
 62
7
  6
CONTINUOUS
 10
46.308518705
 20
166.6036784356
  0
VERTEX
  8
0
 62
7
  6
CONTINUOUS
 10
46.8603118264
 20
166.5318006218
  0
SEQEND
  0
LINE
  8
0
 62
7
  6
CONTINUOUS
 10
82.3696024041
 20
144.1993540574
 11
82.9918246263
 21
143.7836143478
  0
LINE
  8
0
 62
7
  6
CONTINUOUS
 10
64.3696024041
 20
160.9993540574
 11
64.9918246263
 21
160.5836143478
  0
LINE
  8
0
 62
7
  6
CONTINUOUS
 10
85.8362690707
 20
146.6937923153
 11
85.2140468485
 21
147.1095320249
  0
POLYLINE
  8
0
 62
7
  6
CONTINUOUS
 66
1
 70
0
  0
VERTEX
  8
0
 62
7
  6
CONTINUOUS
 10
103.3455494988
 20
132.7613457034
  0
VERTEX
  8
0
 62
7
  6
CONTINUOUS
 10
103.3541463968
 20
132.755534003
  0
VERTEX
  8
0
 62
7
  6
CONTINUOUS
 10
103.3629397153
 20
132.7364472501
  0
VERTEX
  8
0
 62
7
  6
CONTINUOUS
 10
103.369668158
 20
132.705246003
  0
VERTEX
  8
0
 62
7
  6
CONTINUOUS
 10
103.3739878614
 20
132.6639274571
  0
VERTEX
  8
0
 62
7
  6
CONTINUOUS
 10
103.375776748
 20
132.6152311109
  0
VERTEX
  8
0
 62
7
  6
CONTINUOUS
 10
103.3752170607
 20
132.5614050295
  0
SEQEND
  0
LINE
  8
0
 62
7
  6
CONTINUOUS
 10
96.1815461527
 20
208.1465731864
 11
96.1817445546
 21
200.3368361964
  0
LINE
  8
0
 62
7
  6
CONTINUOUS
 10
96.1815461527
 20
191.2772054537
 11
96.1817445546
 21
183.5368361964
  0
LINE
  8
0
 62
7
  6
CONTINUOUS
 10
96.1815461527
 20
174.4772054537
 11
96.1817445546
 21
166.7368361964
  0
LINE
  8
0
 62
7
  6
CONTINUOUS
 10
96.1815461527
 20
157.6772054537
 11
96.1817445546
 21
149.9368361964
  0
LINE
  8
0
 62
7
  6
CONTINUOUS
 10
96.1815461527
 20
140.8772054537
 11
96.1817445546
 21
133.1368361964
  0
LINE
  8
0
 62
7
  6
CONTINUOUS
 10
96.1815461527
 20
124.0772054537
 11
96.1817445546
 21
116.3368361964
  0
LINE
  8
0
 62
7
  6
CONTINUOUS
 10
96.1815461527
 20
107.2772054537
 11
96.1817445546
 21
99.5368361964
  0
LINE
  8
0
 62
7
  6
CONTINUOUS
 10
96.1815461527
 20
90.4772054537
 11
96.1817445546
 21
82.7368361964
  0
LINE
  8
0
 62
7
  6
CONTINUOUS
 10
96.1815461527
 20
73.6772054537
 11
96.1817445546
 21
65.9368361964
  0
LINE
  8
DEFAULT_1
 62
2
  6
CENTER
 10
100.5029357374
 20
55.3465731864
 11
100.5029357374
 21
199.5889539167
  0
LINE
  8
0
 62
7
  6
CONTINUOUS
 10
96.1817744071
 20
191.3561374582
 11
96.1815008892
 21
191.2772049047
  0
LINE
  8
0
 62
7
  6
CONTINUOUS
 10
96.1817744071
 20
174.5561374582
 11
96.1815008892
 21
174.4772049047
  0
LINE
  8
0
 62
7
  6
CONTINUOUS
 10
96.1817744071
 20
157.7561374582
 11
96.1815008892
 21
157.6772049047
  0
LINE
  8
0
 62
7
  6
CONTINUOUS
 10
96.1817744071
 20
140.9561374582
 11
96.1815008892
 21
140.8772049047
  0
LINE
  8
0
 62
7
  6
CONTINUOUS
 10
96.1817744071
 20
124.1561374582
 11
96.1815008892
 21
124.0772049047
  0
LINE
  8
0
 62
7
  6
CONTINUOUS
 10
96.1817744071
 20
107.3561374582
 11
96.1815008892
 21
107.2772049047
  0
LINE
  8
0
 62
7
  6
CONTINUOUS
 10
96.1817744071
 20
90.5561374582
 11
96.1815008892
 21
90.4772049047
  0
LINE
  8
0
 62
7
  6
CONTINUOUS
 10
96.1817744071
 20
73.7561374582
 11
96.1815008892
 21
73.6772049047
  0
POLYLINE
  8
0
 62
7
  6
CONTINUOUS
 66
1
 70
0
  0
VERTEX
  8
0
 62
7
  6
CONTINUOUS
 10
96.1817442335
 20
140.9561373997
  0
VERTEX
  8
0
 62
7
  6
CONTINUOUS
 10
96.1834786411
 20
140.9792876165
  0
VERTEX
  8
0
 62
7
  6
CONTINUOUS
 10
96.1950824675
 20
141.0222621813
  0
VERTEX
  8
0
 62
7
  6
CONTINUOUS
 10
96.2159887176
 20
141.0634224777
  0
VERTEX
  8
0
 62
7
  6
CONTINUOUS
 10
96.244605396
 20
141.1020363594
  0
VERTEX
  8
0
 62
7
  6
CONTINUOUS
 10
96.2801668004
 20
141.1380280472
  0
VERTEX
  8
0
 62
7
  6
CONTINUOUS
 10
96.3224097599
 20
141.1713667165
  0
VERTEX
  8
0
 62
7
  6
CONTINUOUS
 10
96.3715734905
 20
141.2021010462
  0
VERTEX
  8
0
 62
7
  6
CONTINUOUS
 10
96.4265673163
 20
141.2293812335
  0
VERTEX
  8
0
 62
7
  6
CONTINUOUS
 10
96.4857837321
 20
141.2526048611
  0
VERTEX
  8
0
 62
7
  6
CONTINUOUS
 10
96.5494961773
 20
141.2722132389
  0
VERTEX
  8
0
 62
7
  6
CONTINUOUS
 10
96.6169157551
 20
141.2888860576
  0
VERTEX
  8
0
 62
7
  6
CONTINUOUS
 10
96.686713017
 20
141.3027496836
  0
VERTEX
  8
0
 62
7
  6
CONTINUOUS
 10
96.7585848932
 20
141.3140724952
  0
VERTEX
  8
0
 62
7
  6
CONTINUOUS
 10
96.8327023295
 20
141.3230390815
  0
VERTEX
  8
0
 62
7
  6
CONTINUOUS
 10
96.908594612
 20
141.3298132278
  0
VERTEX
  8
0
 62
7
  6
CONTINUOUS
 10
96.9858373815
 20
141.3345641524
  0
VERTEX
  8
0
 62
7
  6
CONTINUOUS
 10
97.0642267239
 20
141.3374833157
  0
VERTEX
  8
0
 62
7
  6
CONTINUOUS
 10
97.1435564907
 20
141.3387859594
  0
VERTEX
  8
0
 62
7
  6
CONTINUOUS
 10
97.2235629225
 20
141.3386704654
  0
SEQEND
  0
POLYLINE
  8
0
 62
7
  6
CONTINUOUS
 66
1
 70
0
  0
VERTEX
  8
0
 62
7
  6
CONTINUOUS
 10
96.1817442335
 20
124.1561373997
  0
VERTEX
  8
0
 62
7
  6
CONTINUOUS
 10
96.1834786411
 20
124.1792876165
  0
VERTEX
  8
0
 62
7
  6
CONTINUOUS
 10
96.1950824675
 20
124.2222621813
  0
VERTEX
  8
0
 62
7
  6
CONTINUOUS
 10
96.2159887176
 20
124.2634224777
  0
VERTEX
  8
0
 62
7
  6
CONTINUOUS
 10
96.244605396
 20
124.3020363594
  0
VERTEX
  8
0
 62
7
  6
CONTINUOUS
 10
96.2801668004
 20
124.3380280472
  0
VERTEX
  8
0
 62
7
  6
CONTINUOUS
 10
96.3224097599
 20
124.3713667165
  0
VERTEX
  8
0
 62
7
  6
CONTINUOUS
 10
96.3715734905
 20
124.4021010462
  0
VERTEX
  8
0
 62
7
  6
CONTINUOUS
 10
96.4265673163
 20
124.4293812335
  0
VERTEX
  8
0
 62
7
  6
CONTINUOUS
 10
96.4857837321
 20
124.4526048611
  0
VERTEX
  8
0
 62
7
  6
CONTINUOUS
 10
96.5494961773
 20
124.4722132389
  0
VERTEX
  8
0
 62
7
  6
CONTINUOUS
 10
96.6169157551
 20
124.4888860576
  0
VERTEX
  8
0
 62
7
  6
CONTINUOUS
 10
96.686713017
 20
124.5027496836
  0
VERTEX
  8
0
 62
7
  6
CONTINUOUS
 10
96.7585848932
 20
124.5140724952
  0
VERTEX
  8
0
 62
7
  6
CONTINUOUS
 10
96.8327023295
 20
124.5230390815
  0
VERTEX
  8
0
 62
7
  6
CONTINUOUS
 10
96.908594612
 20
124.5298132278
  0
VERTEX
  8
0
 62
7
  6
CONTINUOUS
 10
96.9858373815
 20
124.5345641524
  0
VERTEX
  8
0
 62
7
  6
CONTINUOUS
 10
97.0642267239
 20
124.5374833157
  0
VERTEX
  8
0
 62
7
  6
CONTINUOUS
 10
97.1435564907
 20
124.5387859594
  0
VERTEX
  8
0
 62
7
  6
CONTINUOUS
 10
97.2235629225
 20
124.5386704654
  0
SEQEND
  0
POLYLINE
  8
0
 62
7
  6
CONTINUOUS
 66
1
 70
0
  0
VERTEX
  8
0
 62
7
  6
CONTINUOUS
 10
96.1817442335
 20
107.3561373997
  0
VERTEX
  8
0
 62
7
  6
CONTINUOUS
 10
96.1834786411
 20
107.3792876165
  0
VERTEX
  8
0
 62
7
  6
CONTINUOUS
 10
96.1950824675
 20
107.4222621813
  0
VERTEX
  8
0
 62
7
  6
CONTINUOUS
 10
96.2159887176
 20
107.4634224777
  0
VERTEX
  8
0
 62
7
  6
CONTINUOUS
 10
96.244605396
 20
107.5020363594
  0
VERTEX
  8
0
 62
7
  6
CONTINUOUS
 10
96.2801668004
 20
107.5380280472
  0
VERTEX
  8
0
 62
7
  6
CONTINUOUS
 10
96.3224097599
 20
107.5713667165
  0
VERTEX
  8
0
 62
7
  6
CONTINUOUS
 10
96.3715734905
 20
107.6021010462
  0
VERTEX
  8
0
 62
7
  6
CONTINUOUS
 10
96.4265673163
 20
107.6293812335
  0
VERTEX
  8
0
 62
7
  6
CONTINUOUS
 10
96.4857837321
 20
107.6526048611
  0
VERTEX
  8
0
 62
7
  6
CONTINUOUS
 10
96.5494961773
 20
107.6722132389
  0
VERTEX
  8
0
 62
7
  6
CONTINUOUS
 10
96.6169157551
 20
107.6888860576
  0
VERTEX
  8
0
 62
7
  6
CONTINUOUS
 10
96.686713017
 20
107.7027496836
  0
VERTEX
  8
0
 62
7
  6
CONTINUOUS
 10
96.7585848932
 20
107.7140724952
  0
VERTEX
  8
0
 62
7
  6
CONTINUOUS
 10
96.8327023295
 20
107.7230390815
  0
VERTEX
  8
0
 62
7
  6
CONTINUOUS
 10
96.908594612
 20
107.7298132278
  0
VERTEX
  8
0
 62
7
  6
CONTINUOUS
 10
96.9858373815
 20
107.7345641524
  0
VERTEX
  8
0
 62
7
  6
CONTINUOUS
 10
97.0642267239
 20
107.7374833157
  0
VERTEX
  8
0
 62
7
  6
CONTINUOUS
 10
97.1435564907
 20
107.7387859594
  0
VERTEX
  8
0
 62
7
  6
CONTINUOUS
 10
97.2235629225
 20
107.7386704654
  0
SEQEND
  0
POLYLINE
  8
0
 62
7
  6
CONTINUOUS
 66
1
 70
0
  0
VERTEX
  8
0
 62
7
  6
CONTINUOUS
 10
96.1817442335
 20
90.5561373997
  0
VERTEX
  8
0
 62
7
  6
CONTINUOUS
 10
96.1834786411
 20
90.5792876165
  0
VERTEX
  8
0
 62
7
  6
CONTINUOUS
 10
96.1950824675
 20
90.6222621813
  0
VERTEX
  8
0
 62
7
  6
CONTINUOUS
 10
96.2159887176
 20
90.6634224777
  0
VERTEX
  8
0
 62
7
  6
CONTINUOUS
 10
96.244605396
 20
90.7020363594
  0
VERTEX
  8
0
 62
7
  6
CONTINUOUS
 10
96.2801668004
 20
90.7380280472
  0
VERTEX
  8
0
 62
7
  6
CONTINUOUS
 10
96.3224097599
 20
90.7713667165
  0
VERTEX
  8
0
 62
7
  6
CONTINUOUS
 10
96.3715734905
 20
90.8021010462
  0
VERTEX
  8
0
 62
7
  6
CONTINUOUS
 10
96.4265673163
 20
90.8293812335
  0
VERTEX
  8
0
 62
7
  6
CONTINUOUS
 10
96.4857837321
 20
90.8526048611
  0
VERTEX
  8
0
 62
7
  6
CONTINUOUS
 10
96.5494961773
 20
90.8722132389
  0
VERTEX
  8
0
 62
7
  6
CONTINUOUS
 10
96.6169157551
 20
90.8888860576
  0
VERTEX
  8
0
 62
7
  6
CONTINUOUS
 10
96.686713017
 20
90.9027496836
  0
VERTEX
  8
0
 62
7
  6
CONTINUOUS
 10
96.7585848932
 20
90.9140724952
  0
VERTEX
  8
0
 62
7
  6
CONTINUOUS
 10
96.8327023295
 20
90.9230390815
  0
VERTEX
  8
0
 62
7
  6
CONTINUOUS
 10
96.908594612
 20
90.9298132278
  0
VERTEX
  8
0
 62
7
  6
CONTINUOUS
 10
96.9858373815
 20
90.9345641524
  0
VERTEX
  8
0
 62
7
  6
CONTINUOUS
 10
97.0642267239
 20
90.9374833157
  0
VERTEX
  8
0
 62
7
  6
CONTINUOUS
 10
97.1435564907
 20
90.9387859594
  0
VERTEX
  8
0
 62
7
  6
CONTINUOUS
 10
97.2235629225
 20
90.9386704654
  0
SEQEND
  0
POLYLINE
  8
0
 62
7
  6
CONTINUOUS
 66
1
 70
0
  0
VERTEX
  8
0
 62
7
  6
CONTINUOUS
 10
96.1817442335
 20
73.7561373997
  0
VERTEX
  8
0
 62
7
  6
CONTINUOUS
 10
96.1834786411
 20
73.7792876165
  0
VERTEX
  8
0
 62
7
  6
CONTINUOUS
 10
96.1950824675
 20
73.8222621813
  0
VERTEX
  8
0
 62
7
  6
CONTINUOUS
 10
96.2159887176
 20
73.8634224777
  0
VERTEX
  8
0
 62
7
  6
CONTINUOUS
 10
96.244605396
 20
73.9020363594
  0
VERTEX
  8
0
 62
7
  6
CONTINUOUS
 10
96.2801668004
 20
73.9380280472
  0
VERTEX
  8
0
 62
7
  6
CONTINUOUS
 10
96.3224097599
 20
73.9713667165
  0
VERTEX
  8
0
 62
7
  6
CONTINUOUS
 10
96.3715734905
 20
74.0021010462
  0
VERTEX
  8
0
 62
7
  6
CONTINUOUS
 10
96.4265673163
 20
74.0293812335
  0
VERTEX
  8
0
 62
7
  6
CONTINUOUS
 10
96.4857837321
 20
74.0526048611
  0
VERTEX
  8
0
 62
7
  6
CONTINUOUS
 10
96.5494961773
 20
74.0722132389
  0
VERTEX
  8
0
 62
7
  6
CONTINUOUS
 10
96.6169157551
 20
74.0888860576
  0
VERTEX
  8
0
 62
7
  6
CONTINUOUS
 10
96.686713017
 20
74.1027496836
  0
VERTEX
  8
0
 62
7
  6
CONTINUOUS
 10
96.7585848932
 20
74.1140724952
  0
VERTEX
  8
0
 62
7
  6
CONTINUOUS
 10
96.8327023295
 20
74.1230390815
  0
VERTEX
  8
0
 62
7
  6
CONTINUOUS
 10
96.908594612
 20
74.1298132278
  0
VERTEX
  8
0
 62
7
  6
CONTINUOUS
 10
96.9858373815
 20
74.1345641524
  0
VERTEX
  8
0
 62
7
  6
CONTINUOUS
 10
97.0642267239
 20
74.1374833157
  0
VERTEX
  8
0
 62
7
  6
CONTINUOUS
 10
97.1435564907
 20
74.1387859594
  0
VERTEX
  8
0
 62
7
  6
CONTINUOUS
 10
97.2235629225
 20
74.1386704654
  0
SEQEND
  0
LINE
  8
0
 62
7
  6
CONTINUOUS
 10
82.9918246263
 20
113.5095320249
 11
82.3696024041
 21
113.0937923153
  0
LINE
  8
0
 62
7
  6
CONTINUOUS
 10
64.9918246263
 20
96.7095320249
 11
64.3696024041
 21
96.2937923153
  0
LINE
  8
0
 62
7
  6
CONTINUOUS
 10
85.2140468485
 20
110.1836143478
 11
85.8362690707
 21
110.5993540574
  0
LINE
  8
0
 62
7
  6
CONTINUOUS
 10
107.1384537105
 20
125.4113762861
 11
107.5417003431
 21
125.5921029694
  0
POLYLINE
  8
0
 62
7
  6
CONTINUOUS
 66
1
 70
0
  0
VERTEX
  8
0
 62
7
  6
CONTINUOUS
 10
107.6373587616
 20
159.2039440118
  0
VERTEX
  8
0
 62
7
  6
CONTINUOUS
 10
107.8048713308
 20
159.2316058235
  0
VERTEX
  8
0
 62
7
  6
CONTINUOUS
 10
107.969897549
 20
159.2625106213
  0
VERTEX
  8
0
 62
7
  6
CONTINUOUS
 10
108.1137252503
 20
159.2934594079
  0
VERTEX
  8
0
 62
7
  6
CONTINUOUS
 10
108.2397278734
 20
159.3248685952
  0
VERTEX
  8
0
 62
7
  6
CONTINUOUS
 10
108.3513147124
 20
159.3574517362
  0
VERTEX
  8
0
 62
7
  6
CONTINUOUS
 10
108.4521660312
 20
159.392466745
  0
VERTEX
  8
0
 62
7
  6
CONTINUOUS
 10
108.5463694977
 20
159.4321502433
  0
VERTEX
  8
0
 62
7
  6
CONTINUOUS
 10
108.6378334235
 20
159.4801773611
  0
VERTEX
  8
0
 62
7
  6
CONTINUOUS
 10
108.7294406462
 20
159.5422870119
  0
VERTEX
  8
0
 62
7
  6
CONTINUOUS
 10
108.8207315138
 20
159.6260159367
  0
VERTEX
  8
0
 62
7
  6
CONTINUOUS
 10
108.9042194215
 20
159.7366613479
  0
VERTEX
  8
0
 62
7
  6
CONTINUOUS
 10
108.9671631448
 20
159.8716510134
  0
VERTEX
  8
0
 62
7
  6
CONTINUOUS
 10
108.9993053007
 20
160.0194858026
  0
VERTEX
  8
0
 62
7
  6
CONTINUOUS
 10
109.0029356335
 20
160.0903999452
  0
SEQEND
  0
LINE
  8
0
 62
7
  6
CONTINUOUS
 10
107.5326413044
 20
159.1880428982
 11
107.6373668491
 21
159.2039452726
  0
POLYLINE
  8
0
 62
7
  6
CONTINUOUS
 66
1
 70
0
  0
VERTEX
  8
0
 62
7
  6
CONTINUOUS
 10
103.3455596202
 20
158.1318006185
  0
VERTEX
  8
0
 62
7
  6
CONTINUOUS
 10
103.8938510026
 20
158.2031778735
  0
VERTEX
  8
0
 62
7
  6
CONTINUOUS
 10
104.493832418
 20
158.2978273349
  0
VERTEX
  8
0
 62
7
  6
CONTINUOUS
 10
105.0766193825
 20
158.4084379397
  0
VERTEX
  8
0
 62
7
  6
CONTINUOUS
 10
105.6372050488
 20
158.5350518259
  0
VERTEX
  8
0
 62
7
  6
CONTINUOUS
 10
106.1707527271
 20
158.6776845803
  0
VERTEX
  8
0
 62
7
  6
CONTINUOUS
 10
106.6726031052
 20
158.8363825045
  0
VERTEX
  8
0
 62
7
  6
CONTINUOUS
 10
107.1384537105
 20
159.0113762861
  0
SEQEND
  0
LINE
  8
0
 62
7
  6
CONTINUOUS
 10
103.3455537545
 20
158.1318006481
 11
103.3445338429
 21
158.1317413462
  0
POLYLINE
  8
0
 62
7
  6
CONTINUOUS
 66
1
 70
0
  0
VERTEX
  8
0
 62
7
  6
CONTINUOUS
 10
52.985937378
 20
157.9544425245
  0
VERTEX
  8
0
 62
7
  6
CONTINUOUS
 10
52.6924733922
 20
157.958407001
  0
VERTEX
  8
0
 62
7
  6
CONTINUOUS
 10
52.4094611908
 20
157.9608487449
  0
VERTEX
  8
0
 62
7
  6
CONTINUOUS
 10
46.8613996434
 20
157.9614050295
  0
SEQEND
  0
LINE
  8
0
 62
7
  6
CONTINUOUS
 10
107.6373668491
 20
148.4892011002
 11
107.5326413041
 21
148.5051034745
  0
LINE
  8
0
 62
7
  6
CONTINUOUS
 10
67.8362690707
 20
163.4937923153
 11
67.2140468485
 21
163.9095320249
  0
POLYLINE
  8
0
 62
7
  6
CONTINUOUS
 66
1
 70
0
  0
VERTEX
  8
0
 62
7
  6
CONTINUOUS
 10
109.00293563
 20
80.4027435016
  0
VERTEX
  8
0
 62
7
  6
CONTINUOUS
 10
108.9988856933
 20
80.4776179004
  0
VERTEX
  8
0
 62
7
  6
CONTINUOUS
 10
108.9659762211
 20
80.6249751848
  0
VERTEX
  8
0
 62
7
  6
CONTINUOUS
 10
108.9025625632
 20
80.7591964538
  0
VERTEX
  8
0
 62
7
  6
CONTINUOUS
 10
108.8189893828
 20
80.8690128276
  0
VERTEX
  8
0
 62
7
  6
CONTINUOUS
 10
108.7278627327
 20
80.9520846191
  0
VERTEX
  8
0
 62
7
  6
CONTINUOUS
 10
108.6364864711
 20
81.0137636675
  0
VERTEX
  8
0
 62
7
  6
CONTINUOUS
 10
108.5452206591
 20
81.0615321729
  0
VERTEX
  8
0
 62
7
  6
CONTINUOUS
 10
108.4511657067
 20
81.1010601597
  0
VERTEX
  8
0
 62
7
  6
CONTINUOUS
 10
108.3504374868
 20
81.1359730129
  0
VERTEX
  8
0
 62
7
  6
CONTINUOUS
 10
108.2389725863
 20
81.1684811277
  0
VERTEX
  8
0
 62
7
  6
CONTINUOUS
 10
108.1131080406
 20
81.1998297401
  0
VERTEX
  8
0
 62
7
  6
CONTINUOUS
 10
107.9694465179
 20
81.2307262414
  0
VERTEX
  8
0
 62
7
  6
CONTINUOUS
 10
107.8046239345
 20
81.2615838929
  0
VERTEX
  8
0
 62
7
  6
CONTINUOUS
 10
107.6373588172
 20
81.2892023523
  0
SEQEND
  0
POLYLINE
  8
0
 62
7
  6
CONTINUOUS
 66
1
 70
0
  0
VERTEX
  8
0
 62
7
  6
CONTINUOUS
 10
109.002935641
 20
63.6027530017
  0
VERTEX
  8
0
 62
7
  6
CONTINUOUS
 10
108.9996690294
 20
63.6700383198
  0
VERTEX
  8
0
 62
7
  6
CONTINUOUS
 10
108.9674201054
 20
63.8207337431
  0
VERTEX
  8
0
 62
7
  6
CONTINUOUS
 10
108.9012689874
 20
63.9612938918
  0
VERTEX
  8
0
 62
7
  6
CONTINUOUS
 10
108.8108357054
 20
64.0776482099
  0
VERTEX
  8
0
 62
7
  6
CONTINUOUS
 10
108.7099091376
 20
64.1655962233
  0
VERTEX
  8
0
 62
7
  6
CONTINUOUS
 10
108.6073529065
 20
64.2302557649
  0
VERTEX
  8
0
 62
7
  6
CONTINUOUS
 10
108.5028941931
 20
64.2803234973
  0
VERTEX
  8
0
 62
7
  6
CONTINUOUS
 10
108.3920456405
 20
64.3223086155
  0
VERTEX
  8
0
 62
7
  6
CONTINUOUS
 10
108.2702722089
 20
64.3598770689
  0
VERTEX
  8
0
 62
7
  6
CONTINUOUS
 10
108.1340477472
 20
64.3949311901
  0
VERTEX
  8
0
 62
7
  6
CONTINUOUS
 10
107.9804551925
 20
64.4285069942
  0
VERTEX
  8
0
 62
7
  6
CONTINUOUS
 10
107.8077787273
 20
64.4610305708
  0
VERTEX
  8
0
 62
7
  6
CONTINUOUS
 10
107.6373520818
 20
64.4892034021
  0
SEQEND
  0
POLYLINE
  8
0
 62
7
  6
CONTINUOUS
 66
1
 70
0
  0
VERTEX
  8
0
 62
7
  6
CONTINUOUS
 10
103.3752170607
 20
74.3317413432
  0
VERTEX
  8
0
 62
7
  6
CONTINUOUS
 10
103.3758290133
 20
74.284712668
  0
VERTEX
  8
0
 62
7
  6
CONTINUOUS
 10
103.3746899924
 20
74.2411903279
  0
VERTEX
  8
0
 62
7
  6
CONTINUOUS
 10
103.3716050196
 20
74.2025388798
  0
VERTEX
  8
0
 62
7
  6
CONTINUOUS
 10
103.3665878851
 20
74.1708904566
  0
VERTEX
  8
0
 62
7
  6
CONTINUOUS
 10
103.3598178692
 20
74.1479399429
  0
VERTEX
  8
0
 62
7
  6
CONTINUOUS
 10
103.3516031955
 20
74.1348142617
  0
VERTEX
  8
0
 62
7
  6
CONTINUOUS
 10
103.3455537545
 20
74.1318006481
  0
SEQEND
  0
POLYLINE
  8
0
 62
7
  6
CONTINUOUS
 66
1
 70
0
  0
VERTEX
  8
0
 62
7
  6
CONTINUOUS
 10
103.3752170607
 20
91.1317413432
  0
VERTEX
  8
0
 62
7
  6
CONTINUOUS
 10
103.3758290133
 20
91.084712668
  0
VERTEX
  8
0
 62
7
  6
CONTINUOUS
 10
103.3746899924
 20
91.0411903279
  0
VERTEX
  8
0
 62
7
  6
CONTINUOUS
 10
103.3716050196
 20
91.0025388798
  0
VERTEX
  8
0
 62
7
  6
CONTINUOUS
 10
103.3665878851
 20
90.9708904566
  0
VERTEX
  8
0
 62
7
  6
CONTINUOUS
 10
103.3598178692
 20
90.9479399429
  0
VERTEX
  8
0
 62
7
  6
CONTINUOUS
 10
103.3516031955
 20
90.9348142617
  0
VERTEX
  8
0
 62
7
  6
CONTINUOUS
 10
103.3455537545
 20
90.9318006481
  0
SEQEND
  0
POLYLINE
  8
0
 62
7
  6
CONTINUOUS
 66
1
 70
0
  0
VERTEX
  8
0
 62
7
  6
CONTINUOUS
 10
103.3752170607
 20
107.9317413432
  0
VERTEX
  8
0
 62
7
  6
CONTINUOUS
 10
103.3758290133
 20
107.884712668
  0
VERTEX
  8
0
 62
7
  6
CONTINUOUS
 10
103.3746899924
 20
107.8411903279
  0
VERTEX
  8
0
 62
7
  6
CONTINUOUS
 10
103.3716050196
 20
107.8025388798
  0
VERTEX
  8
0
 62
7
  6
CONTINUOUS
 10
103.3665878851
 20
107.7708904566
  0
VERTEX
  8
0
 62
7
  6
CONTINUOUS
 10
103.3598178692
 20
107.7479399429
  0
VERTEX
  8
0
 62
7
  6
CONTINUOUS
 10
103.3516031955
 20
107.7348142617
  0
VERTEX
  8
0
 62
7
  6
CONTINUOUS
 10
103.3455537545
 20
107.7318006481
  0
SEQEND
  0
POLYLINE
  8
0
 62
7
  6
CONTINUOUS
 66
1
 70
0
  0
VERTEX
  8
0
 62
7
  6
CONTINUOUS
 10
103.3752170607
 20
124.7317413432
  0
VERTEX
  8
0
 62
7
  6
CONTINUOUS
 10
103.3758290133
 20
124.684712668
  0
VERTEX
  8
0
 62
7
  6
CONTINUOUS
 10
103.3746899924
 20
124.6411903279
  0
VERTEX
  8
0
 62
7
  6
CONTINUOUS
 10
103.3716050196
 20
124.6025388798
  0
VERTEX
  8
0
 62
7
  6
CONTINUOUS
 10
103.3665878851
 20
124.5708904566
  0
VERTEX
  8
0
 62
7
  6
CONTINUOUS
 10
103.3598178692
 20
124.5479399429
  0
VERTEX
  8
0
 62
7
  6
CONTINUOUS
 10
103.3516031955
 20
124.5348142617
  0
VERTEX
  8
0
 62
7
  6
CONTINUOUS
 10
103.3455537545
 20
124.5318006481
  0
SEQEND
  0
POLYLINE
  8
0
 62
7
  6
CONTINUOUS
 66
1
 70
0
  0
VERTEX
  8
0
 62
7
  6
CONTINUOUS
 10
103.3752170607
 20
141.5317413432
  0
VERTEX
  8
0
 62
7
  6
CONTINUOUS
 10
103.3758290133
 20
141.484712668
  0
VERTEX
  8
0
 62
7
  6
CONTINUOUS
 10
103.3746899924
 20
141.4411903279
  0
VERTEX
  8
0
 62
7
  6
CONTINUOUS
 10
103.3716050196
 20
141.4025388798
  0
VERTEX
  8
0
 62
7
  6
CONTINUOUS
 10
103.3665878851
 20
141.3708904566
  0
VERTEX
  8
0
 62
7
  6
CONTINUOUS
 10
103.3598178692
 20
141.3479399429
  0
VERTEX
  8
0
 62
7
  6
CONTINUOUS
 10
103.3516031955
 20
141.3348142617
  0
VERTEX
  8
0
 62
7
  6
CONTINUOUS
 10
103.3455537545
 20
141.3318006481
  0
SEQEND
  0
POLYLINE
  8
0
 62
7
  6
CONTINUOUS
 66
1
 70
0
  0
VERTEX
  8
0
 62
7
  6
CONTINUOUS
 10
103.3752170607
 20
158.3317413432
  0
VERTEX
  8
0
 62
7
  6
CONTINUOUS
 10
103.3758290133
 20
158.284712668
  0
VERTEX
  8
0
 62
7
  6
CONTINUOUS
 10
103.3746899924
 20
158.2411903279
  0
VERTEX
  8
0
 62
7
  6
CONTINUOUS
 10
103.3716050196
 20
158.2025388798
  0
VERTEX
  8
0
 62
7
  6
CONTINUOUS
 10
103.3665878851
 20
158.1708904566
  0
VERTEX
  8
0
 62
7
  6
CONTINUOUS
 10
103.3598178692
 20
158.1479399429
  0
VERTEX
  8
0
 62
7
  6
CONTINUOUS
 10
103.3516031955
 20
158.1348142617
  0
VERTEX
  8
0
 62
7
  6
CONTINUOUS
 10
103.3455537545
 20
158.1318006481
  0
SEQEND
  0
POLYLINE
  8
0
 62
7
  6
CONTINUOUS
 66
1
 70
0
  0
VERTEX
  8
0
 62
7
  6
CONTINUOUS
 10
103.3752170607
 20
175.1317413432
  0
VERTEX
  8
0
 62
7
  6
CONTINUOUS
 10
103.3758290133
 20
175.084712668
  0
VERTEX
  8
0
 62
7
  6
CONTINUOUS
 10
103.3746899924
 20
175.0411903279
  0
VERTEX
  8
0
 62
7
  6
CONTINUOUS
 10
103.3716050196
 20
175.0025388798
  0
VERTEX
  8
0
 62
7
  6
CONTINUOUS
 10
103.3665878851
 20
174.9708904566
  0
VERTEX
  8
0
 62
7
  6
CONTINUOUS
 10
103.3598178692
 20
174.9479399429
  0
VERTEX
  8
0
 62
7
  6
CONTINUOUS
 10
103.3516031955
 20
174.9348142617
  0
VERTEX
  8
0
 62
7
  6
CONTINUOUS
 10
103.3455537545
 20
174.9318006481
  0
SEQEND
  0
POLYLINE
  8
0
 62
7
  6
CONTINUOUS
 66
1
 70
0
  0
VERTEX
  8
0
 62
7
  6
CONTINUOUS
 10
103.3752170607
 20
191.9317413432
  0
VERTEX
  8
0
 62
7
  6
CONTINUOUS
 10
103.3758290133
 20
191.884712668
  0
VERTEX
  8
0
 62
7
  6
CONTINUOUS
 10
103.3746899924
 20
191.8411903279
  0
VERTEX
  8
0
 62
7
  6
CONTINUOUS
 10
103.3716050196
 20
191.8025388798
  0
VERTEX
  8
0
 62
7
  6
CONTINUOUS
 10
103.3665878851
 20
191.7708904566
  0
VERTEX
  8
0
 62
7
  6
CONTINUOUS
 10
103.3598178692
 20
191.7479399429
  0
VERTEX
  8
0
 62
7
  6
CONTINUOUS
 10
103.3516031955
 20
191.7348142617
  0
VERTEX
  8
0
 62
7
  6
CONTINUOUS
 10
103.3455537545
 20
191.7318006481
  0
SEQEND
  0
LINE
  8
0
 62
7
  6
CONTINUOUS
 10
103.3752170607
 20
65.3614050295
 11
103.3752170607
 21
57.5465731864
  0
LINE
  8
0
 62
7
  6
CONTINUOUS
 10
103.3752170607
 20
74.3317413432
 11
103.3752170607
 21
82.1614050295
  0
LINE
  8
0
 62
7
  6
CONTINUOUS
 10
103.3752170607
 20
91.1317413432
 11
103.3752170607
 21
98.9614050295
  0
LINE
  8
0
 62
7
  6
CONTINUOUS
 10
103.3752170607
 20
107.9317413432
 11
103.3752170607
 21
115.7614050295
  0
LINE
  8
0
 62
7
  6
CONTINUOUS
 10
103.3752170607
 20
124.7317413432
 11
103.3752170607
 21
132.5614050295
  0
LINE
  8
0
 62
7
  6
CONTINUOUS
 10
103.3752170607
 20
141.5317413432
 11
103.3752170607
 21
149.3614050295
  0
LINE
  8
0
 62
7
  6
CONTINUOUS
 10
103.3752170607
 20
158.3317413432
 11
103.3752170607
 21
166.1614050295
  0
LINE
  8
0
 62
7
  6
CONTINUOUS
 10
103.3752170607
 20
175.1317413432
 11
103.3752170607
 21
182.9614050295
  0
LINE
  8
0
 62
7
  6
CONTINUOUS
 10
103.3752170607
 20
191.9317413432
 11
103.3752170607
 21
199.7614050295
  0
LINE
  8
0
 62
7
  6
CONTINUOUS
 10
67.2140468485
 20
93.3836143478
 11
67.8362690707
 21
93.7993540574
  0
LINE
  8
0
 62
7
  6
CONTINUOUS
 10
43.0651182274
 20
89.8808256354
 11
42.6641690056
 21
89.7010423602
  0
POLYLINE
  8
0
 62
7
  6
CONTINUOUS
 66
1
 70
0
  0
VERTEX
  8
0
 62
7
  6
CONTINUOUS
 10
42.5685119611
 20
156.8892022437
  0
VERTEX
  8
0
 62
7
  6
CONTINUOUS
 10
42.3997169078
 20
156.861315598
  0
VERTEX
  8
0
 62
7
  6
CONTINUOUS
 10
42.2351566914
 20
156.8304716966
  0
VERTEX
  8
0
 62
7
  6
CONTINUOUS
 10
42.0917184148
 20
156.7995879458
  0
VERTEX
  8
0
 62
7
  6
CONTINUOUS
 10
41.9660401143
 20
156.7682498992
  0
VERTEX
  8
0
 62
7
  6
CONTINUOUS
 10
41.854726444
 20
156.7357485139
  0
VERTEX
  8
0
 62
7
  6
CONTINUOUS
 10
41.7541168225
 20
156.700836211
  0
VERTEX
  8
0
 62
7
  6
CONTINUOUS
 10
41.6601519514
 20
156.6612995838
  0
VERTEX
  8
0
 62
7
  6
CONTINUOUS
 10
41.5689561704
 20
156.6135109925
  0
VERTEX
  8
0
 62
7
  6
CONTINUOUS
 10
41.477643994
 20
156.5518019493
  0
VERTEX
  8
0
 62
7
  6
CONTINUOUS
 10
41.3865962401
 20
156.468704882
  0
VERTEX
  8
0
 62
7
  6
CONTINUOUS
 10
41.303126681
 20
156.3588996169
  0
VERTEX
  8
0
 62
7
  6
CONTINUOUS
 10
41.2398163738
 20
156.2247458347
  0
VERTEX
  8
0
 62
7
  6
CONTINUOUS
 10
41.2069728984
 20
156.0774995795
  0
VERTEX
  8
0
 62
7
  6
CONTINUOUS
 10
41.2029358444
 20
156.0027438738
  0
SEQEND
  0
LINE
  8
0
 62
7
  6
CONTINUOUS
 10
42.6732310978
 20
156.9051057491
 11
42.5685037558
 21
156.8892009646
  0
POLYLINE
  8
0
 62
7
  6
CONTINUOUS
 66
1
 70
0
  0
VERTEX
  8
0
 62
7
  6
CONTINUOUS
 10
46.8603118264
 20
157.9613457509
  0
VERTEX
  8
0
 62
7
  6
CONTINUOUS
 10
46.308518705
 20
157.8894679372
  0
VERTEX
  8
0
 62
7
  6
CONTINUOUS
 10
45.7086937781
 20
157.7947390858
  0
VERTEX
  8
0
 62
7
  6
CONTINUOUS
 10
45.1260829726
 20
157.6840515548
  0
VERTEX
  8
0
 62
7
  6
CONTINUOUS
 10
44.5656919508
 20
157.5573633213
  0
VERTEX
  8
0
 62
7
  6
CONTINUOUS
 10
44.0323557487
 20
157.4146585755
  0
VERTEX
  8
0
 62
7
  6
CONTINUOUS
 10
43.5307312682
 20
157.2558901736
  0
VERTEX
  8
0
 62
7
  6
CONTINUOUS
 10
43.0651182274
 20
157.0808256354
  0
SEQEND
  0
LINE
  8
0
 62
7
  6
CONTINUOUS
 10
46.8603176921
 20
157.9613457213
 11
46.8613376319
 21
157.9614050265
  0
POLYLINE
  8
0
 62
7
  6
CONTINUOUS
 66
1
 70
0
  0
VERTEX
  8
0
 62
7
  6
CONTINUOUS
 10
97.2235629225
 20
158.1386704654
  0
VERTEX
  8
0
 62
7
  6
CONTINUOUS
 10
97.5173620197
 20
158.1346929102
  0
VERTEX
  8
0
 62
7
  6
CONTINUOUS
 10
97.8003836802
 20
158.1322769357
  0
VERTEX
  8
0
 62
7
  6
CONTINUOUS
 10
103.3444718314
 20
158.1317413432
  0
SEQEND
  0
LINE
  8
0
 62
7
  6
CONTINUOUS
 10
42.5685037558
 20
167.6039454082
 11
42.6732310978
 21
167.5880406236
  0
POLYLINE
  8
0
 62
7
  6
CONTINUOUS
 66
1
 70
0
  0
VERTEX
  8
0
 62
7
  6
CONTINUOUS
 10
107.5417003431
 20
148.5010434034
  0
VERTEX
  8
0
 62
7
  6
CONTINUOUS
 10
107.1384536036
 20
148.6817701305
  0
VERTEX
  8
0
 62
7
  6
CONTINUOUS
 10
106.6726028724
 20
148.8567639483
  0
VERTEX
  8
0
 62
7
  6
CONTINUOUS
 10
106.1707523523
 20
149.0154619013
  0
VERTEX
  8
0
 62
7
  6
CONTINUOUS
 10
105.6372045189
 20
149.158094677
  0
VERTEX
  8
0
 62
7
  6
CONTINUOUS
 10
105.0766186881
 20
149.2847085769
  0
VERTEX
  8
0
 62
7
  6
CONTINUOUS
 10
104.4938315531
 20
149.3953191877
  0
VERTEX
  8
0
 62
7
  6
CONTINUOUS
 10
103.8938499647
 20
149.4899686475
  0
VERTEX
  8
0
 62
7
  6
CONTINUOUS
 10
103.3455596202
 20
149.5613457542
  0
SEQEND
  0
LINE
  8
0
 62
7
  6
CONTINUOUS
 10
82.3696024041
 20
160.9993540574
 11
82.9918246263
 21
160.5836143478
  0
LINE
  8
0
 62
7
  6
CONTINUOUS
 10
64.3696024041
 20
177.7993540574
 11
64.9918246263
 21
177.3836143478
  0
LINE
  8
0
 62
7
  6
CONTINUOUS
 10
85.8362690707
 20
163.4937923153
 11
85.2140468485
 21
163.9095320249
  0
POLYLINE
  8
0
 62
7
  6
CONTINUOUS
 66
1
 70
0
  0
VERTEX
  8
0
 62
7
  6
CONTINUOUS
 10
103.3455494988
 20
149.5613457034
  0
VERTEX
  8
0
 62
7
  6
CONTINUOUS
 10
103.3541463968
 20
149.555534003
  0
VERTEX
  8
0
 62
7
  6
CONTINUOUS
 10
103.3629397153
 20
149.5364472501
  0
VERTEX
  8
0
 62
7
  6
CONTINUOUS
 10
103.369668158
 20
149.505246003
  0
VERTEX
  8
0
 62
7
  6
CONTINUOUS
 10
103.3739878614
 20
149.4639274571
  0
VERTEX
  8
0
 62
7
  6
CONTINUOUS
 10
103.375776748
 20
149.4152311109
  0
VERTEX
  8
0
 62
7
  6
CONTINUOUS
 10
103.3752170607
 20
149.3614050295
  0
SEQEND
  0
POLYLINE
  8
0
 62
7
  6
CONTINUOUS
 66
1
 70
0
  0
VERTEX
  8
0
 62
7
  6
CONTINUOUS
 10
109.0029352835
 20
114.0035781575
  0
VERTEX
  8
0
 62
7
  6
CONTINUOUS
 10
108.9988856933
 20
114.0776179004
  0
VERTEX
  8
0
 62
7
  6
CONTINUOUS
 10
108.9659762211
 20
114.2249751848
  0
VERTEX
  8
0
 62
7
  6
CONTINUOUS
 10
108.9025625632
 20
114.3591964538
  0
VERTEX
  8
0
 62
7
  6
CONTINUOUS
 10
108.8189893828
 20
114.4690128276
  0
VERTEX
  8
0
 62
7
  6
CONTINUOUS
 10
108.7278627327
 20
114.5520846191
  0
VERTEX
  8
0
 62
7
  6
CONTINUOUS
 10
108.6364864711
 20
114.6137636675
  0
VERTEX
  8
0
 62
7
  6
CONTINUOUS
 10
108.5452206591
 20
114.6615321729
  0
VERTEX
  8
0
 62
7
  6
CONTINUOUS
 10
108.4511657067
 20
114.7010601597
  0
VERTEX
  8
0
 62
7
  6
CONTINUOUS
 10
108.3504374868
 20
114.7359730129
  0
VERTEX
  8
0
 62
7
  6
CONTINUOUS
 10
108.2389725863
 20
114.7684811277
  0
VERTEX
  8
0
 62
7
  6
CONTINUOUS
 10
108.1131080406
 20
114.7998297401
  0
VERTEX
  8
0
 62
7
  6
CONTINUOUS
 10
107.9694465179
 20
114.8307262414
  0
VERTEX
  8
0
 62
7
  6
CONTINUOUS
 10
107.8046239345
 20
114.8615838929
  0
VERTEX
  8
0
 62
7
  6
CONTINUOUS
 10
107.6373588172
 20
114.8892023523
  0
SEQEND
  0
POLYLINE
  8
0
 62
7
  6
CONTINUOUS
 66
1
 70
0
  0
VERTEX
  8
0
 62
7
  6
CONTINUOUS
 10
109.0029352835
 20
147.6035781575
  0
VERTEX
  8
0
 62
7
  6
CONTINUOUS
 10
108.9988856933
 20
147.6776179004
  0
VERTEX
  8
0
 62
7
  6
CONTINUOUS
 10
108.9659762211
 20
147.8249751848
  0
VERTEX
  8
0
 62
7
  6
CONTINUOUS
 10
108.9025625632
 20
147.9591964538
  0
VERTEX
  8
0
 62
7
  6
CONTINUOUS
 10
108.8189893828
 20
148.0690128276
  0
VERTEX
  8
0
 62
7
  6
CONTINUOUS
 10
108.7278627327
 20
148.1520846191
  0
VERTEX
  8
0
 62
7
  6
CONTINUOUS
 10
108.6364864711
 20
148.2137636675
  0
VERTEX
  8
0
 62
7
  6
CONTINUOUS
 10
108.5452206591
 20
148.2615321729
  0
VERTEX
  8
0
 62
7
  6
CONTINUOUS
 10
108.4511657067
 20
148.3010601597
  0
VERTEX
  8
0
 62
7
  6
CONTINUOUS
 10
108.3504374868
 20
148.3359730129
  0
VERTEX
  8
0
 62
7
  6
CONTINUOUS
 10
108.2389725863
 20
148.3684811277
  0
VERTEX
  8
0
 62
7
  6
CONTINUOUS
 10
108.1131080406
 20
148.3998297401
  0
VERTEX
  8
0
 62
7
  6
CONTINUOUS
 10
107.9694465179
 20
148.4307262414
  0
VERTEX
  8
0
 62
7
  6
CONTINUOUS
 10
107.8046239345
 20
148.4615838929
  0
VERTEX
  8
0
 62
7
  6
CONTINUOUS
 10
107.6373588172
 20
148.4892023523
  0
SEQEND
  0
POLYLINE
  8
0
 62
7
  6
CONTINUOUS
 66
1
 70
0
  0
VERTEX
  8
0
 62
7
  6
CONTINUOUS
 10
109.00293563
 20
97.2027435016
  0
VERTEX
  8
0
 62
7
  6
CONTINUOUS
 10
108.9988856933
 20
97.2776179004
  0
VERTEX
  8
0
 62
7
  6
CONTINUOUS
 10
108.9659762211
 20
97.4249751848
  0
VERTEX
  8
0
 62
7
  6
CONTINUOUS
 10
108.9025625632
 20
97.5591964538
  0
VERTEX
  8
0
 62
7
  6
CONTINUOUS
 10
108.8189893828
 20
97.6690128276
  0
VERTEX
  8
0
 62
7
  6
CONTINUOUS
 10
108.7278627327
 20
97.7520846191
  0
VERTEX
  8
0
 62
7
  6
CONTINUOUS
 10
108.6364864711
 20
97.8137636675
  0
VERTEX
  8
0
 62
7
  6
CONTINUOUS
 10
108.5452206591
 20
97.8615321729
  0
VERTEX
  8
0
 62
7
  6
CONTINUOUS
 10
108.4511657067
 20
97.9010601597
  0
VERTEX
  8
0
 62
7
  6
CONTINUOUS
 10
108.3504374868
 20
97.9359730129
  0
VERTEX
  8
0
 62
7
  6
CONTINUOUS
 10
108.2389725863
 20
97.9684811277
  0
VERTEX
  8
0
 62
7
  6
CONTINUOUS
 10
108.1131080406
 20
97.9998297401
  0
VERTEX
  8
0
 62
7
  6
CONTINUOUS
 10
107.9694465179
 20
98.0307262414
  0
VERTEX
  8
0
 62
7
  6
CONTINUOUS
 10
107.8046239345
 20
98.0615838929
  0
VERTEX
  8
0
 62
7
  6
CONTINUOUS
 10
107.6373588172
 20
98.0892023523
  0
SEQEND
  0
POLYLINE
  8
0
 62
7
  6
CONTINUOUS
 66
1
 70
0
  0
VERTEX
  8
0
 62
7
  6
CONTINUOUS
 10
109.00293563
 20
130.8027435016
  0
VERTEX
  8
0
 62
7
  6
CONTINUOUS
 10
108.9988856933
 20
130.8776179004
  0
VERTEX
  8
0
 62
7
  6
CONTINUOUS
 10
108.9659762211
 20
131.0249751848
  0
VERTEX
  8
0
 62
7
  6
CONTINUOUS
 10
108.9025625632
 20
131.1591964538
  0
VERTEX
  8
0
 62
7
  6
CONTINUOUS
 10
108.8189893828
 20
131.2690128276
  0
VERTEX
  8
0
 62
7
  6
CONTINUOUS
 10
108.7278627327
 20
131.3520846191
  0
VERTEX
  8
0
 62
7
  6
CONTINUOUS
 10
108.6364864711
 20
131.4137636675
  0
VERTEX
  8
0
 62
7
  6
CONTINUOUS
 10
108.5452206591
 20
131.4615321729
  0
VERTEX
  8
0
 62
7
  6
CONTINUOUS
 10
108.4511657067
 20
131.5010601597
  0
VERTEX
  8
0
 62
7
  6
CONTINUOUS
 10
108.3504374868
 20
131.5359730129
  0
VERTEX
  8
0
 62
7
  6
CONTINUOUS
 10
108.2389725863
 20
131.5684811277
  0
VERTEX
  8
0
 62
7
  6
CONTINUOUS
 10
108.1131080406
 20
131.5998297401
  0
VERTEX
  8
0
 62
7
  6
CONTINUOUS
 10
107.9694465179
 20
131.6307262414
  0
VERTEX
  8
0
 62
7
  6
CONTINUOUS
 10
107.8046239345
 20
131.6615838929
  0
VERTEX
  8
0
 62
7
  6
CONTINUOUS
 10
107.6373588172
 20
131.6892023523
  0
SEQEND
  0
POLYLINE
  8
0
 62
7
  6
CONTINUOUS
 66
1
 70
0
  0
VERTEX
  8
0
 62
7
  6
CONTINUOUS
 10
109.00293563
 20
164.4027435016
  0
VERTEX
  8
0
 62
7
  6
CONTINUOUS
 10
108.9988856933
 20
164.4776179004
  0
VERTEX
  8
0
 62
7
  6
CONTINUOUS
 10
108.9659762211
 20
164.6249751848
  0
VERTEX
  8
0
 62
7
  6
CONTINUOUS
 10
108.9025625632
 20
164.7591964538
  0
VERTEX
  8
0
 62
7
  6
CONTINUOUS
 10
108.8189893828
 20
164.8690128276
  0
VERTEX
  8
0
 62
7
  6
CONTINUOUS
 10
108.7278627327
 20
164.9520846191
  0
VERTEX
  8
0
 62
7
  6
CONTINUOUS
 10
108.6364864711
 20
165.0137636675
  0
VERTEX
  8
0
 62
7
  6
CONTINUOUS
 10
108.5452206591
 20
165.0615321729
  0
VERTEX
  8
0
 62
7
  6
CONTINUOUS
 10
108.4511657067
 20
165.1010601597
  0
VERTEX
  8
0
 62
7
  6
CONTINUOUS
 10
108.3504374868
 20
165.1359730129
  0
VERTEX
  8
0
 62
7
  6
CONTINUOUS
 10
108.2389725863
 20
165.1684811277
  0
VERTEX
  8
0
 62
7
  6
CONTINUOUS
 10
108.1131080406
 20
165.1998297401
  0
VERTEX
  8
0
 62
7
  6
CONTINUOUS
 10
107.9694465179
 20
165.2307262414
  0
VERTEX
  8
0
 62
7
  6
CONTINUOUS
 10
107.8046239345
 20
165.2615838929
  0
VERTEX
  8
0
 62
7
  6
CONTINUOUS
 10
107.6373588172
 20
165.2892023523
  0
SEQEND
  0
POLYLINE
  8
0
 62
7
  6
CONTINUOUS
 66
1
 70
0
  0
VERTEX
  8
0
 62
7
  6
CONTINUOUS
 10
109.00293563
 20
181.2027435016
  0
VERTEX
  8
0
 62
7
  6
CONTINUOUS
 10
108.9988856933
 20
181.2776179004
  0
VERTEX
  8
0
 62
7
  6
CONTINUOUS
 10
108.9659762211
 20
181.4249751848
  0
VERTEX
  8
0
 62
7
  6
CONTINUOUS
 10
108.9025625632
 20
181.5591964538
  0
VERTEX
  8
0
 62
7
  6
CONTINUOUS
 10
108.8189893828
 20
181.6690128276
  0
VERTEX
  8
0
 62
7
  6
CONTINUOUS
 10
108.7278627327
 20
181.7520846191
  0
VERTEX
  8
0
 62
7
  6
CONTINUOUS
 10
108.6364864711
 20
181.8137636675
  0
VERTEX
  8
0
 62
7
  6
CONTINUOUS
 10
108.5452206591
 20
181.8615321729
  0
VERTEX
  8
0
 62
7
  6
CONTINUOUS
 10
108.4511657067
 20
181.9010601597
  0
VERTEX
  8
0
 62
7
  6
CONTINUOUS
 10
108.3504374868
 20
181.9359730129
  0
VERTEX
  8
0
 62
7
  6
CONTINUOUS
 10
108.2389725863
 20
181.9684811277
  0
VERTEX
  8
0
 62
7
  6
CONTINUOUS
 10
108.1131080406
 20
181.9998297401
  0
VERTEX
  8
0
 62
7
  6
CONTINUOUS
 10
107.9694465179
 20
182.0307262414
  0
VERTEX
  8
0
 62
7
  6
CONTINUOUS
 10
107.8046239345
 20
182.0615838929
  0
VERTEX
  8
0
 62
7
  6
CONTINUOUS
 10
107.6373588172
 20
182.0892023523
  0
SEQEND
  0
POLYLINE
  8
0
 62
7
  6
CONTINUOUS
 66
1
 70
0
  0
VERTEX
  8
0
 62
7
  6
CONTINUOUS
 10
109.00293563
 20
198.0027435023
  0
VERTEX
  8
0
 62
7
  6
CONTINUOUS
 10
108.9988857147
 20
198.0776177031
  0
VERTEX
  8
0
 62
7
  6
CONTINUOUS
 10
108.9659763098
 20
198.2249749271
  0
VERTEX
  8
0
 62
7
  6
CONTINUOUS
 10
108.9025626882
 20
198.3591962503
  0
VERTEX
  8
0
 62
7
  6
CONTINUOUS
 10
108.8189894604
 20
198.4690127441
  0
VERTEX
  8
0
 62
7
  6
CONTINUOUS
 10
108.7278627348
 20
198.5520846175
  0
VERTEX
  8
0
 62
7
  6
CONTINUOUS
 10
108.6364863706
 20
198.6137637267
  0
VERTEX
  8
0
 62
7
  6
CONTINUOUS
 10
108.5452204617
 20
198.6615322648
  0
VERTEX
  8
0
 62
7
  6
CONTINUOUS
 10
108.4511654439
 20
198.7010602596
  0
VERTEX
  8
0
 62
7
  6
CONTINUOUS
 10
108.3504371695
 20
198.7359731135
  0
VERTEX
  8
0
 62
7
  6
CONTINUOUS
 10
108.2389722308
 20
198.7684812233
  0
VERTEX
  8
0
 62
7
  6
CONTINUOUS
 10
108.1131076784
 20
198.7998298239
  0
VERTEX
  8
0
 62
7
  6
CONTINUOUS
 10
107.9694462001
 20
198.8307263051
  0
VERTEX
  8
0
 62
7
  6
CONTINUOUS
 10
107.8046237339
 20
198.861583928
  0
VERTEX
  8
0
 62
7
  6
CONTINUOUS
 10
107.6373588172
 20
198.8892023523
  0
SEQEND
  0
LINE
  8
0
 62
7
  6
CONTINUOUS
 10
109.0029357374
 20
57.5465718948
 11
109.0029357374
 21
63.6028692771
  0
LINE
  8
0
 62
7
  6
CONTINUOUS
 10
109.0029357374
 20
76.0902740559
 11
109.0029357374
 21
80.402862241
  0
LINE
  8
0
 62
7
  6
CONTINUOUS
 10
109.0029357374
 20
92.8902740559
 11
109.0029357374
 21
97.202862241
  0
LINE
  8
0
 62
7
  6
CONTINUOUS
 10
109.0029357374
 20
109.690274999
 11
109.0029357374
 21
114.0028713739
  0
LINE
  8
0
 62
7
  6
CONTINUOUS
 10
109.0029357374
 20
126.4902740559
 11
109.0029357374
 21
130.802862241
  0
LINE
  8
0
 62
7
  6
CONTINUOUS
 10
109.0029357374
 20
143.290274999
 11
109.0029357374
 21
147.6028713739
  0
LINE
  8
0
 62
7
  6
CONTINUOUS
 10
109.0029357374
 20
160.0902740559
 11
109.0029357374
 21
164.402862241
  0
LINE
  8
0
 62
7
  6
CONTINUOUS
 10
109.0029357374
 20
176.8902740559
 11
109.0029357374
 21
181.202862241
  0
LINE
  8
0
 62
7
  6
CONTINUOUS
 10
109.0029357374
 20
193.6902740559
 11
109.0029357374
 21
198.0028661819
  0
LINE
  8
0
 62
7
  6
CONTINUOUS
 10
109.0029357374
 20
198.0028726922
 11
109.0029356603
 21
198.002744066
  0
LINE
  8
0
 62
7
  6
CONTINUOUS
 10
109.0029357374
 20
181.2028723168
 11
109.0029356603
 21
181.2027434485
  0
LINE
  8
0
 62
7
  6
CONTINUOUS
 10
109.0029357374
 20
164.4028723168
 11
109.0029356603
 21
164.4027434485
  0
LINE
  8
0
 62
7
  6
CONTINUOUS
 10
109.0029357374
 20
130.8028723168
 11
109.0029356603
 21
130.8027434485
  0
LINE
  8
0
 62
7
  6
CONTINUOUS
 10
109.0029357374
 20
97.2028723168
 11
109.0029356603
 21
97.2027434485
  0
LINE
  8
0
 62
7
  6
CONTINUOUS
 10
109.0029357374
 20
80.4028723168
 11
109.0029356603
 21
80.4027434485
  0
LINE
  8
0
 62
7
  6
CONTINUOUS
 10
82.9918246263
 20
96.7095320249
 11
82.3696024041
 21
96.2937923153
  0
LINE
  8
0
 62
7
  6
CONTINUOUS
 10
107.1384537105
 20
108.6113762861
 11
107.5417003431
 21
108.7921029694
  0
POLYLINE
  8
0
 62
7
  6
CONTINUOUS
 66
1
 70
0
  0
VERTEX
  8
0
 62
7
  6
CONTINUOUS
 10
107.6373587616
 20
176.0039440118
  0
VERTEX
  8
0
 62
7
  6
CONTINUOUS
 10
107.8048713308
 20
176.0316058235
  0
VERTEX
  8
0
 62
7
  6
CONTINUOUS
 10
107.969897549
 20
176.0625106213
  0
VERTEX
  8
0
 62
7
  6
CONTINUOUS
 10
108.1137252503
 20
176.0934594079
  0
VERTEX
  8
0
 62
7
  6
CONTINUOUS
 10
108.2397278734
 20
176.1248685952
  0
VERTEX
  8
0
 62
7
  6
CONTINUOUS
 10
108.3513147124
 20
176.1574517362
  0
VERTEX
  8
0
 62
7
  6
CONTINUOUS
 10
108.4521660312
 20
176.192466745
  0
VERTEX
  8
0
 62
7
  6
CONTINUOUS
 10
108.5463694977
 20
176.2321502433
  0
VERTEX
  8
0
 62
7
  6
CONTINUOUS
 10
108.6378334235
 20
176.2801773611
  0
VERTEX
  8
0
 62
7
  6
CONTINUOUS
 10
108.7294406462
 20
176.3422870119
  0
VERTEX
  8
0
 62
7
  6
CONTINUOUS
 10
108.8207315138
 20
176.4260159367
  0
VERTEX
  8
0
 62
7
  6
CONTINUOUS
 10
108.9042194215
 20
176.5366613479
  0
VERTEX
  8
0
 62
7
  6
CONTINUOUS
 10
108.9671631448
 20
176.6716510134
  0
VERTEX
  8
0
 62
7
  6
CONTINUOUS
 10
108.9993053007
 20
176.8194858026
  0
VERTEX
  8
0
 62
7
  6
CONTINUOUS
 10
109.0029356335
 20
176.8903999452
  0
SEQEND
  0
LINE
  8
0
 62
7
  6
CONTINUOUS
 10
107.5326413044
 20
175.9880428982
 11
107.6373668491
 21
176.0039452726
  0
POLYLINE
  8
0
 62
7
  6
CONTINUOUS
 66
1
 70
0
  0
VERTEX
  8
0
 62
7
  6
CONTINUOUS
 10
52.6885095058
 20
166.53469291
  0
VERTEX
  8
0
 62
7
  6
CONTINUOUS
 10
52.9818316246
 20
166.5386658869
  0
VERTEX
  8
0
 62
7
  6
CONTINUOUS
 10
53.0614251677
 20
166.5387922103
  0
VERTEX
  8
0
 62
7
  6
CONTINUOUS
 10
53.1404878289
 20
166.5375135309
  0
VERTEX
  8
0
 62
7
  6
CONTINUOUS
 10
53.2187395531
 20
166.5346270541
  0
VERTEX
  8
0
 62
7
  6
CONTINUOUS
 10
53.2959577971
 20
166.5299116521
  0
VERTEX
  8
0
 62
7
  6
CONTINUOUS
 10
53.371922846
 20
166.5231687316
  0
VERTEX
  8
0
 62
7
  6
CONTINUOUS
 10
53.4462019907
 20
166.5142223854
  0
VERTEX
  8
0
 62
7
  6
CONTINUOUS
 10
53.518286989
 20
166.5029028682
  0
VERTEX
  8
0
 62
7
  6
CONTINUOUS
 10
53.5883916579
 20
166.489011469
  0
VERTEX
  8
0
 62
7
  6
CONTINUOUS
 10
53.65604181
 20
166.4723115931
  0
VERTEX
  8
0
 62
7
  6
CONTINUOUS
 10
53.7201099943
 20
166.4525970512
  0
VERTEX
  8
0
 62
7
  6
CONTINUOUS
 10
53.7795998194
 20
166.4292503736
  0
VERTEX
  8
0
 62
7
  6
CONTINUOUS
 10
53.8348687682
 20
166.4017819505
  0
VERTEX
  8
0
 62
7
  6
CONTINUOUS
 10
53.8843132976
 20
166.3707670739
  0
VERTEX
  8
0
 62
7
  6
CONTINUOUS
 10
53.9264922704
 20
166.3373243879
  0
VERTEX
  8
0
 62
7
  6
CONTINUOUS
 10
53.9617665622
 20
166.3014544965
  0
VERTEX
  8
0
 62
7
  6
CONTINUOUS
 10
53.9900623737
 20
166.2631343212
  0
VERTEX
  8
0
 62
7
  6
CONTINUOUS
 10
54.0107724793
 20
166.2223033207
  0
VERTEX
  8
0
 62
7
  6
CONTINUOUS
 10
54.0223607413
 20
166.179506498
  0
VERTEX
  8
0
 62
7
  6
CONTINUOUS
 10
54.0241272515
 20
166.1561366997
  0
SEQEND
  0
POLYLINE
  8
0
 62
7
  6
CONTINUOUS
 66
1
 70
0
  0
VERTEX
  8
0
 62
7
  6
CONTINUOUS
 10
97.5133942391
 20
166.358406598
  0
VERTEX
  8
0
 62
7
  6
CONTINUOUS
 10
97.2193624681
 20
166.3544368771
  0
VERTEX
  8
0
 62
7
  6
CONTINUOUS
 10
97.1394932951
 20
166.3543902106
  0
VERTEX
  8
0
 62
7
  6
CONTINUOUS
 10
97.0603178319
 20
166.3557669753
  0
VERTEX
  8
0
 62
7
  6
CONTINUOUS
 10
96.9820958581
 20
166.3587660847
  0
VERTEX
  8
0
 62
7
  6
CONTINUOUS
 10
96.9050247386
 20
166.3636016545
  0
VERTEX
  8
0
 62
7
  6
CONTINUOUS
 10
96.829311566
 20
166.3704627843
  0
VERTEX
  8
0
 62
7
  6
CONTINUOUS
 10
96.7553842972
 20
166.3795186826
  0
VERTEX
  8
0
 62
7
  6
CONTINUOUS
 10
96.6836891209
 20
166.3909343385
  0
VERTEX
  8
0
 62
7
  6
CONTINUOUS
 10
96.6140900988
 20
166.4048903145
  0
VERTEX
  8
0
 62
7
  6
CONTINUOUS
 10
96.5468545128
 20
166.421658069
  0
VERTEX
  8
0
 62
7
  6
CONTINUOUS
 10
96.4834254718
 20
166.441360221
  0
VERTEX
  8
0
 62
7
  6
CONTINUOUS
 10
96.4244305794
 20
166.464711619
  0
VERTEX
  8
0
 62
7
  6
CONTINUOUS
 10
96.3696605745
 20
166.4921145026
  0
VERTEX
  8
0
 62
7
  6
CONTINUOUS
 10
96.320729307
 20
166.5229636363
  0
VERTEX
  8
0
 62
7
  6
CONTINUOUS
 10
96.2787029442
 20
166.5564276392
  0
VERTEX
  8
0
 62
7
  6
CONTINUOUS
 10
96.2433592695
 20
166.5925628412
  0
VERTEX
  8
0
 62
7
  6
CONTINUOUS
 10
96.2149941261
 20
166.6313260829
  0
VERTEX
  8
0
 62
7
  6
CONTINUOUS
 10
96.1944178284
 20
166.6725996826
  0
VERTEX
  8
0
 62
7
  6
CONTINUOUS
 10
96.1832348013
 20
166.7155970187
  0
VERTEX
  8
0
 62
7
  6
CONTINUOUS
 10
96.181744789
 20
166.7368359219
  0
SEQEND
  0
LINE
  8
0
 62
7
  6
CONTINUOUS
 10
97.7964084081
 20
166.3608486526
 11
97.5133942391
 21
166.358406598
  0
LINE
  8
0
 62
7
  6
CONTINUOUS
 10
52.405487769
 20
166.5322769356
 11
52.6885095058
 21
166.53469291
  0
LINE
  8
0
 62
7
  6
CONTINUOUS
 10
97.7964084081
 20
166.3608486526
 11
103.3445093487
 21
166.3614050295
  0
LINE
  8
0
 62
7
  6
CONTINUOUS
 10
46.8613996434
 20
166.5317413432
 11
52.405487769
 21
166.5322769356
  0
LINE
  8
0
 62
7
  6
CONTINUOUS
 10
46.8603176921
 20
166.5318006514
 11
46.8613376319
 21
166.5317413462
  0
LINE
  8
0
 62
7
  6
CONTINUOUS
 10
103.3445414617
 20
166.3614050295
 11
103.3455494988
 21
166.3613457034
  0
LINE
  8
0
 62
7
  6
CONTINUOUS
 10
107.6373668491
 20
165.2892011002
 11
107.5326413041
 21
165.3051034745
  0
POLYLINE
  8
0
 62
7
  6
CONTINUOUS
 66
1
 70
0
  0
VERTEX
  8
0
 62
7
  6
CONTINUOUS
 10
42.6641690056
 20
184.3921040125
  0
VERTEX
  8
0
 62
7
  6
CONTINUOUS
 10
43.0651182274
 20
184.2123207373
  0
VERTEX
  8
0
 62
7
  6
CONTINUOUS
 10
43.5307312682
 20
184.0372561992
  0
VERTEX
  8
0
 62
7
  6
CONTINUOUS
 10
44.0323557487
 20
183.8784877973
  0
VERTEX
  8
0
 62
7
  6
CONTINUOUS
 10
44.5656919508
 20
183.7357830515
  0
VERTEX
  8
0
 62
7
  6
CONTINUOUS
 10
45.1260829726
 20
183.6090948179
  0
VERTEX
  8
0
 62
7
  6
CONTINUOUS
 10
45.7086937781
 20
183.4984072869
  0
VERTEX
  8
0
 62
7
  6
CONTINUOUS
 10
46.308518705
 20
183.4036784356
  0
VERTEX
  8
0
 62
7
  6
CONTINUOUS
 10
46.8603118264
 20
183.3318006218
  0
SEQEND
  0
LINE
  8
0
 62
7
  6
CONTINUOUS
 10
67.8362690707
 20
180.2937923153
 11
67.2140468485
 21
180.7095320249
  0
LINE
  8
0
 62
7
  6
CONTINUOUS
 10
85.2140468485
 20
93.3836143478
 11
85.8362690707
 21
93.7993540574
  0
LINE
  8
0
 62
7
  6
CONTINUOUS
 10
43.0651182274
 20
73.0808256354
 11
42.6641690056
 21
72.9010423602
  0
POLYLINE
  8
0
 62
7
  6
CONTINUOUS
 66
1
 70
0
  0
VERTEX
  8
0
 62
7
  6
CONTINUOUS
 10
103.3455596202
 20
174.9318006185
  0
VERTEX
  8
0
 62
7
  6
CONTINUOUS
 10
103.8938510026
 20
175.0031778735
  0
VERTEX
  8
0
 62
7
  6
CONTINUOUS
 10
104.493832418
 20
175.0978273349
  0
VERTEX
  8
0
 62
7
  6
CONTINUOUS
 10
105.0766193825
 20
175.2084379397
  0
VERTEX
  8
0
 62
7
  6
CONTINUOUS
 10
105.6372050488
 20
175.3350518259
  0
VERTEX
  8
0
 62
7
  6
CONTINUOUS
 10
106.1707527271
 20
175.4776845803
  0
VERTEX
  8
0
 62
7
  6
CONTINUOUS
 10
106.6726031052
 20
175.6363825045
  0
VERTEX
  8
0
 62
7
  6
CONTINUOUS
 10
107.1384537105
 20
175.8113762861
  0
SEQEND
  0
LINE
  8
0
 62
7
  6
CONTINUOUS
 10
103.3455537545
 20
174.9318006481
 11
103.3445338429
 21
174.9317413462
  0
LINE
  8
0
 62
7
  6
CONTINUOUS
 10
46.8603176921
 20
174.7613457213
 11
46.8613376319
 21
174.7614050265
  0
POLYLINE
  8
0
 62
7
  6
CONTINUOUS
 66
1
 70
0
  0
VERTEX
  8
0
 62
7
  6
CONTINUOUS
 10
52.985937378
 20
174.7544425245
  0
VERTEX
  8
0
 62
7
  6
CONTINUOUS
 10
52.6924733922
 20
174.758407001
  0
VERTEX
  8
0
 62
7
  6
CONTINUOUS
 10
52.4094611908
 20
174.7608487449
  0
VERTEX
  8
0
 62
7
  6
CONTINUOUS
 10
46.8613996434
 20
174.7614050295
  0
SEQEND
  0
POLYLINE
  8
0
 62
7
  6
CONTINUOUS
 66
1
 70
0
  0
VERTEX
  8
0
 62
7
  6
CONTINUOUS
 10
97.2235629225
 20
174.9386704654
  0
VERTEX
  8
0
 62
7
  6
CONTINUOUS
 10
97.5173620197
 20
174.9346929102
  0
VERTEX
  8
0
 62
7
  6
CONTINUOUS
 10
97.8003836802
 20
174.9322769357
  0
VERTEX
  8
0
 62
7
  6
CONTINUOUS
 10
103.3444718314
 20
174.9317413432
  0
SEQEND
  0
POLYLINE
  8
0
 62
7
  6
CONTINUOUS
 66
1
 70
0
  0
VERTEX
  8
0
 62
7
  6
CONTINUOUS
 10
107.5417003431
 20
165.3010434034
  0
VERTEX
  8
0
 62
7
  6
CONTINUOUS
 10
107.1384536036
 20
165.4817701305
  0
VERTEX
  8
0
 62
7
  6
CONTINUOUS
 10
106.6726028724
 20
165.6567639483
  0
VERTEX
  8
0
 62
7
  6
CONTINUOUS
 10
106.1707523523
 20
165.8154619013
  0
VERTEX
  8
0
 62
7
  6
CONTINUOUS
 10
105.6372045189
 20
165.958094677
  0
VERTEX
  8
0
 62
7
  6
CONTINUOUS
 10
105.0766186881
 20
166.0847085769
  0
VERTEX
  8
0
 62
7
  6
CONTINUOUS
 10
104.4938315531
 20
166.1953191877
  0
VERTEX
  8
0
 62
7
  6
CONTINUOUS
 10
103.8938499647
 20
166.2899686475
  0
VERTEX
  8
0
 62
7
  6
CONTINUOUS
 10
103.3455596202
 20
166.3613457542
  0
SEQEND
  0
LINE
  8
0
 62
7
  6
CONTINUOUS
 10
82.3696024041
 20
177.7993540574
 11
82.9918246263
 21
177.3836143478
  0
POLYLINE
  8
0
 62
7
  6
CONTINUOUS
 66
1
 70
0
  0
VERTEX
  8
0
 62
7
  6
CONTINUOUS
 10
103.3455494988
 20
166.3613457034
  0
VERTEX
  8
0
 62
7
  6
CONTINUOUS
 10
103.3541463968
 20
166.355534003
  0
VERTEX
  8
0
 62
7
  6
CONTINUOUS
 10
103.3629397153
 20
166.3364472501
  0
VERTEX
  8
0
 62
7
  6
CONTINUOUS
 10
103.369668158
 20
166.305246003
  0
VERTEX
  8
0
 62
7
  6
CONTINUOUS
 10
103.3739878614
 20
166.2639274571
  0
VERTEX
  8
0
 62
7
  6
CONTINUOUS
 10
103.375776748
 20
166.2152311109
  0
VERTEX
  8
0
 62
7
  6
CONTINUOUS
 10
103.3752170607
 20
166.1614050295
  0
SEQEND
  0
POLYLINE
  8
0
 62
7
  6
CONTINUOUS
 66
1
 70
0
  0
VERTEX
  8
0
 62
7
  6
CONTINUOUS
 10
42.5685119611
 20
173.6892022437
  0
VERTEX
  8
0
 62
7
  6
CONTINUOUS
 10
42.3997169078
 20
173.661315598
  0
VERTEX
  8
0
 62
7
  6
CONTINUOUS
 10
42.2351566914
 20
173.6304716966
  0
VERTEX
  8
0
 62
7
  6
CONTINUOUS
 10
42.0917184148
 20
173.5995879458
  0
VERTEX
  8
0
 62
7
  6
CONTINUOUS
 10
41.9660401143
 20
173.5682498992
  0
VERTEX
  8
0
 62
7
  6
CONTINUOUS
 10
41.854726444
 20
173.5357485139
  0
VERTEX
  8
0
 62
7
  6
CONTINUOUS
 10
41.7541168225
 20
173.500836211
  0
VERTEX
  8
0
 62
7
  6
CONTINUOUS
 10
41.6601519514
 20
173.4612995838
  0
VERTEX
  8
0
 62
7
  6
CONTINUOUS
 10
41.5689561704
 20
173.4135109925
  0
VERTEX
  8
0
 62
7
  6
CONTINUOUS
 10
41.477643994
 20
173.3518019493
  0
VERTEX
  8
0
 62
7
  6
CONTINUOUS
 10
41.3865962401
 20
173.268704882
  0
VERTEX
  8
0
 62
7
  6
CONTINUOUS
 10
41.303126681
 20
173.1588996169
  0
VERTEX
  8
0
 62
7
  6
CONTINUOUS
 10
41.2398163738
 20
173.0247458347
  0
VERTEX
  8
0
 62
7
  6
CONTINUOUS
 10
41.2069728984
 20
172.8774995795
  0
VERTEX
  8
0
 62
7
  6
CONTINUOUS
 10
41.2029358444
 20
172.8027438738
  0
SEQEND
  0
LINE
  8
0
 62
7
  6
CONTINUOUS
 10
42.6732310978
 20
173.7051057491
 11
42.5685037558
 21
173.6892009646
  0
POLYLINE
  8
0
 62
7
  6
CONTINUOUS
 66
1
 70
0
  0
VERTEX
  8
0
 62
7
  6
CONTINUOUS
 10
46.8603118264
 20
174.7613457509
  0
VERTEX
  8
0
 62
7
  6
CONTINUOUS
 10
46.308518705
 20
174.6894679372
  0
VERTEX
  8
0
 62
7
  6
CONTINUOUS
 10
45.7086937781
 20
174.5947390858
  0
VERTEX
  8
0
 62
7
  6
CONTINUOUS
 10
45.1260829726
 20
174.4840515548
  0
VERTEX
  8
0
 62
7
  6
CONTINUOUS
 10
44.5656919508
 20
174.3573633213
  0
VERTEX
  8
0
 62
7
  6
CONTINUOUS
 10
44.0323557487
 20
174.2146585755
  0
VERTEX
  8
0
 62
7
  6
CONTINUOUS
 10
43.5307312682
 20
174.0558901736
  0
VERTEX
  8
0
 62
7
  6
CONTINUOUS
 10
43.0651182274
 20
173.8808256354
  0
SEQEND
  0
POLYLINE
  8
0
 62
7
  6
CONTINUOUS
 66
1
 70
0
  0
VERTEX
  8
0
 62
7
  6
CONTINUOUS
 10
97.5133942391
 20
183.158406598
  0
VERTEX
  8
0
 62
7
  6
CONTINUOUS
 10
97.2193624681
 20
183.1544368771
  0
VERTEX
  8
0
 62
7
  6
CONTINUOUS
 10
97.1394932951
 20
183.1543902106
  0
VERTEX
  8
0
 62
7
  6
CONTINUOUS
 10
97.0603178319
 20
183.1557669753
  0
VERTEX
  8
0
 62
7
  6
CONTINUOUS
 10
96.9820958581
 20
183.1587660847
  0
VERTEX
  8
0
 62
7
  6
CONTINUOUS
 10
96.9050247386
 20
183.1636016545
  0
VERTEX
  8
0
 62
7
  6
CONTINUOUS
 10
96.829311566
 20
183.1704627843
  0
VERTEX
  8
0
 62
7
  6
CONTINUOUS
 10
96.7553842972
 20
183.1795186826
  0
VERTEX
  8
0
 62
7
  6
CONTINUOUS
 10
96.6836891209
 20
183.1909343385
  0
VERTEX
  8
0
 62
7
  6
CONTINUOUS
 10
96.6140900988
 20
183.2048903145
  0
VERTEX
  8
0
 62
7
  6
CONTINUOUS
 10
96.5468545128
 20
183.221658069
  0
VERTEX
  8
0
 62
7
  6
CONTINUOUS
 10
96.4834254718
 20
183.241360221
  0
VERTEX
  8
0
 62
7
  6
CONTINUOUS
 10
96.4244305794
 20
183.264711619
  0
VERTEX
  8
0
 62
7
  6
CONTINUOUS
 10
96.3696605745
 20
183.2921145026
  0
VERTEX
  8
0
 62
7
  6
CONTINUOUS
 10
96.320729307
 20
183.3229636363
  0
VERTEX
  8
0
 62
7
  6
CONTINUOUS
 10
96.2787029442
 20
183.3564276392
  0
VERTEX
  8
0
 62
7
  6
CONTINUOUS
 10
96.2433592695
 20
183.3925628412
  0
VERTEX
  8
0
 62
7
  6
CONTINUOUS
 10
96.2149941261
 20
183.4313260829
  0
VERTEX
  8
0
 62
7
  6
CONTINUOUS
 10
96.1944178284
 20
183.4725996826
  0
VERTEX
  8
0
 62
7
  6
CONTINUOUS
 10
96.1832348013
 20
183.5155970187
  0
VERTEX
  8
0
 62
7
  6
CONTINUOUS
 10
96.181744789
 20
183.5368359219
  0
SEQEND
  0
POLYLINE
  8
0
 62
7
  6
CONTINUOUS
 66
1
 70
0
  0
VERTEX
  8
0
 62
7
  6
CONTINUOUS
 10
98.0088966014
 20
183.1614050295
  0
VERTEX
  8
0
 62
7
  6
CONTINUOUS
 10
97.7964084081
 20
183.1608486526
  0
VERTEX
  8
0
 62
7
  6
CONTINUOUS
 10
97.5133942391
 20
183.158406598
  0
SEQEND
  0
LINE
  8
0
 62
7
  6
CONTINUOUS
 10
46.8603176921
 20
183.3318006514
 11
46.8613376319
 21
183.3317413462
  0
LINE
  8
0
 62
7
  6
CONTINUOUS
 10
42.5685037558
 20
184.4039454082
 11
42.6732310978
 21
184.3880406236
  0
POLYLINE
  8
0
 62
7
  6
CONTINUOUS
 66
1
 70
0
  0
VERTEX
  8
0
 62
7
  6
CONTINUOUS
 10
42.6641690056
 20
201.1921040125
  0
VERTEX
  8
0
 62
7
  6
CONTINUOUS
 10
43.0651182274
 20
201.0123207373
  0
VERTEX
  8
0
 62
7
  6
CONTINUOUS
 10
43.5307312682
 20
200.8372561992
  0
VERTEX
  8
0
 62
7
  6
CONTINUOUS
 10
44.0323557487
 20
200.6784877973
  0
VERTEX
  8
0
 62
7
  6
CONTINUOUS
 10
44.5656919508
 20
200.5357830515
  0
VERTEX
  8
0
 62
7
  6
CONTINUOUS
 10
45.1260829726
 20
200.4090948179
  0
VERTEX
  8
0
 62
7
  6
CONTINUOUS
 10
45.7086937781
 20
200.2984072869
  0
VERTEX
  8
0
 62
7
  6
CONTINUOUS
 10
46.308518705
 20
200.2036784356
  0
VERTEX
  8
0
 62
7
  6
CONTINUOUS
 10
46.8603118264
 20
200.1318006218
  0
SEQEND
  0
LINE
  8
0
 62
7
  6
CONTINUOUS
 10
64.3696024041
 20
194.5993540574
 11
64.9918246263
 21
194.1836143478
  0
LINE
  8
0
 62
7
  6
CONTINUOUS
 10
85.8362690707
 20
180.2937923153
 11
85.2140468485
 21
180.7095320249
  0
LINE
  8
0
 62
7
  6
CONTINUOUS
 10
67.8362690707
 20
197.0937923153
 11
67.2140468485
 21
197.5095320249
  0
LINE
  8
0
 62
7
  6
CONTINUOUS
 10
107.1384537105
 20
91.8113762861
 11
107.5417003431
 21
91.9921029694
  0
POLYLINE
  8
0
 62
7
  6
CONTINUOUS
 66
1
 70
0
  0
VERTEX
  8
0
 62
7
  6
CONTINUOUS
 10
107.6373587616
 20
192.8039440118
  0
VERTEX
  8
0
 62
7
  6
CONTINUOUS
 10
107.8048713308
 20
192.8316058235
  0
VERTEX
  8
0
 62
7
  6
CONTINUOUS
 10
107.969897549
 20
192.8625106213
  0
VERTEX
  8
0
 62
7
  6
CONTINUOUS
 10
108.1137252503
 20
192.8934594079
  0
VERTEX
  8
0
 62
7
  6
CONTINUOUS
 10
108.2397278734
 20
192.9248685952
  0
VERTEX
  8
0
 62
7
  6
CONTINUOUS
 10
108.3513147124
 20
192.9574517362
  0
VERTEX
  8
0
 62
7
  6
CONTINUOUS
 10
108.4521660312
 20
192.992466745
  0
VERTEX
  8
0
 62
7
  6
CONTINUOUS
 10
108.5463694977
 20
193.0321502433
  0
VERTEX
  8
0
 62
7
  6
CONTINUOUS
 10
108.6378334235
 20
193.0801773611
  0
VERTEX
  8
0
 62
7
  6
CONTINUOUS
 10
108.7294406462
 20
193.1422870119
  0
VERTEX
  8
0
 62
7
  6
CONTINUOUS
 10
108.8207315138
 20
193.2260159367
  0
VERTEX
  8
0
 62
7
  6
CONTINUOUS
 10
108.9042194215
 20
193.3366613479
  0
VERTEX
  8
0
 62
7
  6
CONTINUOUS
 10
108.9671631448
 20
193.4716510134
  0
VERTEX
  8
0
 62
7
  6
CONTINUOUS
 10
108.9993053007
 20
193.6194858026
  0
VERTEX
  8
0
 62
7
  6
CONTINUOUS
 10
109.0029356335
 20
193.6903999452
  0
SEQEND
  0
LINE
  8
0
 62
7
  6
CONTINUOUS
 10
107.5326413044
 20
192.7880428982
 11
107.6373668491
 21
192.8039452726
  0
POLYLINE
  8
0
 62
7
  6
CONTINUOUS
 66
1
 70
0
  0
VERTEX
  8
0
 62
7
  6
CONTINUOUS
 10
103.3455596202
 20
191.7318006185
  0
VERTEX
  8
0
 62
7
  6
CONTINUOUS
 10
103.8938510026
 20
191.8031778735
  0
VERTEX
  8
0
 62
7
  6
CONTINUOUS
 10
104.493832418
 20
191.8978273349
  0
VERTEX
  8
0
 62
7
  6
CONTINUOUS
 10
105.0766193825
 20
192.0084379397
  0
VERTEX
  8
0
 62
7
  6
CONTINUOUS
 10
105.6372050488
 20
192.1350518259
  0
VERTEX
  8
0
 62
7
  6
CONTINUOUS
 10
106.1707527271
 20
192.2776845803
  0
VERTEX
  8
0
 62
7
  6
CONTINUOUS
 10
106.6726031052
 20
192.4363825045
  0
VERTEX
  8
0
 62
7
  6
CONTINUOUS
 10
107.1384537105
 20
192.6113762861
  0
SEQEND
  0
POLYLINE
  8
0
 62
7
  6
CONTINUOUS
 66
1
 70
0
  0
VERTEX
  8
0
 62
7
  6
CONTINUOUS
 10
52.6885095058
 20
183.33469291
  0
VERTEX
  8
0
 62
7
  6
CONTINUOUS
 10
52.9818316246
 20
183.3386658869
  0
VERTEX
  8
0
 62
7
  6
CONTINUOUS
 10
53.0614251677
 20
183.3387922103
  0
VERTEX
  8
0
 62
7
  6
CONTINUOUS
 10
53.1404878289
 20
183.3375135309
  0
VERTEX
  8
0
 62
7
  6
CONTINUOUS
 10
53.2187395531
 20
183.3346270541
  0
VERTEX
  8
0
 62
7
  6
CONTINUOUS
 10
53.2959577971
 20
183.3299116521
  0
VERTEX
  8
0
 62
7
  6
CONTINUOUS
 10
53.371922846
 20
183.3231687316
  0
VERTEX
  8
0
 62
7
  6
CONTINUOUS
 10
53.4462019907
 20
183.3142223854
  0
VERTEX
  8
0
 62
7
  6
CONTINUOUS
 10
53.518286989
 20
183.3029028682
  0
VERTEX
  8
0
 62
7
  6
CONTINUOUS
 10
53.5883916579
 20
183.289011469
  0
VERTEX
  8
0
 62
7
  6
CONTINUOUS
 10
53.65604181
 20
183.2723115931
  0
VERTEX
  8
0
 62
7
  6
CONTINUOUS
 10
53.7201099943
 20
183.2525970512
  0
VERTEX
  8
0
 62
7
  6
CONTINUOUS
 10
53.7795998194
 20
183.2292503736
  0
VERTEX
  8
0
 62
7
  6
CONTINUOUS
 10
53.8348687682
 20
183.2017819505
  0
VERTEX
  8
0
 62
7
  6
CONTINUOUS
 10
53.8843132976
 20
183.1707670739
  0
VERTEX
  8
0
 62
7
  6
CONTINUOUS
 10
53.9264922704
 20
183.1373243879
  0
VERTEX
  8
0
 62
7
  6
CONTINUOUS
 10
53.9617665622
 20
183.1014544965
  0
VERTEX
  8
0
 62
7
  6
CONTINUOUS
 10
53.9900623737
 20
183.0631343212
  0
VERTEX
  8
0
 62
7
  6
CONTINUOUS
 10
54.0107724793
 20
183.0223033207
  0
VERTEX
  8
0
 62
7
  6
CONTINUOUS
 10
54.0223607413
 20
182.979506498
  0
VERTEX
  8
0
 62
7
  6
CONTINUOUS
 10
54.0241272515
 20
182.9561366997
  0
SEQEND
  0
LINE
  8
0
 62
7
  6
CONTINUOUS
 10
52.405487769
 20
183.3322769356
 11
52.6885095058
 21
183.33469291
  0
LINE
  8
0
 62
7
  6
CONTINUOUS
 10
98.0088966014
 20
183.1614050295
 11
103.3445093487
 21
183.1614050295
  0
LINE
  8
0
 62
7
  6
CONTINUOUS
 10
46.8613996434
 20
183.3317413432
 11
52.405487769
 21
183.3322769356
  0
LINE
  8
0
 62
7
  6
CONTINUOUS
 10
103.3445414617
 20
183.1614050295
 11
103.3455494988
 21
183.1613457034
  0
LINE
  8
0
 62
7
  6
CONTINUOUS
 10
107.6373668491
 20
182.0892011002
 11
107.5326413041
 21
182.1051034745
  0
LINE
  8
0
 62
7
  6
CONTINUOUS
 10
82.3696024041
 20
194.5993540574
 11
82.9918246263
 21
194.1836143478
  0
POLYLINE
  8
0
 62
7
  6
CONTINUOUS
 66
1
 70
0
  0
VERTEX
  8
0
 62
7
  6
CONTINUOUS
 10
42.5685119611
 20
190.4892022437
  0
VERTEX
  8
0
 62
7
  6
CONTINUOUS
 10
42.3997169078
 20
190.461315598
  0
VERTEX
  8
0
 62
7
  6
CONTINUOUS
 10
42.2351566914
 20
190.4304716966
  0
VERTEX
  8
0
 62
7
  6
CONTINUOUS
 10
42.0917184148
 20
190.3995879458
  0
VERTEX
  8
0
 62
7
  6
CONTINUOUS
 10
41.9660401143
 20
190.3682498992
  0
VERTEX
  8
0
 62
7
  6
CONTINUOUS
 10
41.854726444
 20
190.3357485139
  0
VERTEX
  8
0
 62
7
  6
CONTINUOUS
 10
41.7541168225
 20
190.300836211
  0
VERTEX
  8
0
 62
7
  6
CONTINUOUS
 10
41.6601519514
 20
190.2612995838
  0
VERTEX
  8
0
 62
7
  6
CONTINUOUS
 10
41.5689561704
 20
190.2135109925
  0
VERTEX
  8
0
 62
7
  6
CONTINUOUS
 10
41.477643994
 20
190.1518019493
  0
VERTEX
  8
0
 62
7
  6
CONTINUOUS
 10
41.3865962401
 20
190.068704882
  0
VERTEX
  8
0
 62
7
  6
CONTINUOUS
 10
41.303126681
 20
189.9588996169
  0
VERTEX
  8
0
 62
7
  6
CONTINUOUS
 10
41.2398163738
 20
189.8247458347
  0
VERTEX
  8
0
 62
7
  6
CONTINUOUS
 10
41.2069728984
 20
189.6774995795
  0
VERTEX
  8
0
 62
7
  6
CONTINUOUS
 10
41.2029358444
 20
189.6027438738
  0
SEQEND
  0
LINE
  8
0
 62
7
  6
CONTINUOUS
 10
42.6732310978
 20
190.5051057491
 11
42.5685037558
 21
190.4892009646
  0
POLYLINE
  8
0
 62
7
  6
CONTINUOUS
 66
1
 70
0
  0
VERTEX
  8
0
 62
7
  6
CONTINUOUS
 10
46.8603118264
 20
191.5613457509
  0
VERTEX
  8
0
 62
7
  6
CONTINUOUS
 10
46.308518705
 20
191.4894679372
  0
VERTEX
  8
0
 62
7
  6
CONTINUOUS
 10
45.7086937781
 20
191.3947390858
  0
VERTEX
  8
0
 62
7
  6
CONTINUOUS
 10
45.1260829726
 20
191.2840515548
  0
VERTEX
  8
0
 62
7
  6
CONTINUOUS
 10
44.5656919508
 20
191.1573633213
  0
VERTEX
  8
0
 62
7
  6
CONTINUOUS
 10
44.0323557487
 20
191.0146585755
  0
VERTEX
  8
0
 62
7
  6
CONTINUOUS
 10
43.5307312682
 20
190.8558901736
  0
VERTEX
  8
0
 62
7
  6
CONTINUOUS
 10
43.0651182274
 20
190.6808256354
  0
SEQEND
  0
LINE
  8
0
 62
7
  6
CONTINUOUS
 10
103.3455537545
 20
191.7318006481
 11
103.3445338429
 21
191.7317413462
  0
LINE
  8
0
 62
7
  6
CONTINUOUS
 10
46.8603176921
 20
191.5613457213
 11
46.8613376319
 21
191.5614050265
  0
POLYLINE
  8
0
 62
7
  6
CONTINUOUS
 66
1
 70
0
  0
VERTEX
  8
0
 62
7
  6
CONTINUOUS
 10
52.985937378
 20
191.5544425245
  0
VERTEX
  8
0
 62
7
  6
CONTINUOUS
 10
52.6924733922
 20
191.558407001
  0
VERTEX
  8
0
 62
7
  6
CONTINUOUS
 10
52.4094611908
 20
191.5608487449
  0
VERTEX
  8
0
 62
7
  6
CONTINUOUS
 10
46.8613996434
 20
191.5614050295
  0
SEQEND
  0
POLYLINE
  8
0
 62
7
  6
CONTINUOUS
 66
1
 70
0
  0
VERTEX
  8
0
 62
7
  6
CONTINUOUS
 10
97.2235629225
 20
191.7386704654
  0
VERTEX
  8
0
 62
7
  6
CONTINUOUS
 10
97.5173620197
 20
191.7346929102
  0
VERTEX
  8
0
 62
7
  6
CONTINUOUS
 10
97.8003836802
 20
191.7322769357
  0
VERTEX
  8
0
 62
7
  6
CONTINUOUS
 10
103.3444718314
 20
191.7317413432
  0
SEQEND
  0
POLYLINE
  8
0
 62
7
  6
CONTINUOUS
 66
1
 70
0
  0
VERTEX
  8
0
 62
7
  6
CONTINUOUS
 10
107.5417003431
 20
182.1010434034
  0
VERTEX
  8
0
 62
7
  6
CONTINUOUS
 10
107.1384536036
 20
182.2817701305
  0
VERTEX
  8
0
 62
7
  6
CONTINUOUS
 10
106.6726028724
 20
182.4567639483
  0
VERTEX
  8
0
 62
7
  6
CONTINUOUS
 10
106.1707523523
 20
182.6154619013
  0
VERTEX
  8
0
 62
7
  6
CONTINUOUS
 10
105.6372045189
 20
182.758094677
  0
VERTEX
  8
0
 62
7
  6
CONTINUOUS
 10
105.0766186881
 20
182.8847085769
  0
VERTEX
  8
0
 62
7
  6
CONTINUOUS
 10
104.4938315531
 20
182.9953191877
  0
VERTEX
  8
0
 62
7
  6
CONTINUOUS
 10
103.8938499647
 20
183.0899686475
  0
VERTEX
  8
0
 62
7
  6
CONTINUOUS
 10
103.3455596202
 20
183.1613457542
  0
SEQEND
  0
LINE
  8
0
 62
7
  6
CONTINUOUS
 10
85.8362690707
 20
197.0937923153
 11
85.2140468485
 21
197.5095320249
  0
POLYLINE
  8
0
 62
7
  6
CONTINUOUS
 66
1
 70
0
  0
VERTEX
  8
0
 62
7
  6
CONTINUOUS
 10
103.3455494988
 20
183.1613457034
  0
VERTEX
  8
0
 62
7
  6
CONTINUOUS
 10
103.3541463968
 20
183.155534003
  0
VERTEX
  8
0
 62
7
  6
CONTINUOUS
 10
103.3629397153
 20
183.1364472501
  0
VERTEX
  8
0
 62
7
  6
CONTINUOUS
 10
103.369668158
 20
183.105246003
  0
VERTEX
  8
0
 62
7
  6
CONTINUOUS
 10
103.3739878614
 20
183.0639274571
  0
VERTEX
  8
0
 62
7
  6
CONTINUOUS
 10
103.375776748
 20
183.0152311109
  0
VERTEX
  8
0
 62
7
  6
CONTINUOUS
 10
103.3752170607
 20
182.9614050295
  0
SEQEND
  0
LINE
  8
0
 62
7
  6
CONTINUOUS
 10
107.1384537105
 20
75.0113762861
 11
107.5417003431
 21
75.1921029694
  0
POLYLINE
  8
0
 62
7
  6
CONTINUOUS
 66
1
 70
0
  0
VERTEX
  8
0
 62
7
  6
CONTINUOUS
 10
52.6885095058
 20
200.13469291
  0
VERTEX
  8
0
 62
7
  6
CONTINUOUS
 10
52.9818316246
 20
200.1386658869
  0
VERTEX
  8
0
 62
7
  6
CONTINUOUS
 10
53.0614251677
 20
200.1387922103
  0
VERTEX
  8
0
 62
7
  6
CONTINUOUS
 10
53.1404878289
 20
200.1375135309
  0
VERTEX
  8
0
 62
7
  6
CONTINUOUS
 10
53.2187395531
 20
200.1346270541
  0
VERTEX
  8
0
 62
7
  6
CONTINUOUS
 10
53.2959577971
 20
200.1299116521
  0
VERTEX
  8
0
 62
7
  6
CONTINUOUS
 10
53.371922846
 20
200.1231687316
  0
VERTEX
  8
0
 62
7
  6
CONTINUOUS
 10
53.4462019907
 20
200.1142223854
  0
VERTEX
  8
0
 62
7
  6
CONTINUOUS
 10
53.518286989
 20
200.1029028682
  0
VERTEX
  8
0
 62
7
  6
CONTINUOUS
 10
53.5883916579
 20
200.089011469
  0
VERTEX
  8
0
 62
7
  6
CONTINUOUS
 10
53.65604181
 20
200.0723115931
  0
VERTEX
  8
0
 62
7
  6
CONTINUOUS
 10
53.7201099943
 20
200.0525970512
  0
VERTEX
  8
0
 62
7
  6
CONTINUOUS
 10
53.7795998194
 20
200.0292503736
  0
VERTEX
  8
0
 62
7
  6
CONTINUOUS
 10
53.8348687682
 20
200.0017819505
  0
VERTEX
  8
0
 62
7
  6
CONTINUOUS
 10
53.8843132976
 20
199.9707670739
  0
VERTEX
  8
0
 62
7
  6
CONTINUOUS
 10
53.9264922704
 20
199.9373243879
  0
VERTEX
  8
0
 62
7
  6
CONTINUOUS
 10
53.9617665622
 20
199.9014544965
  0
VERTEX
  8
0
 62
7
  6
CONTINUOUS
 10
53.9900623737
 20
199.8631343212
  0
VERTEX
  8
0
 62
7
  6
CONTINUOUS
 10
54.0107724793
 20
199.8223033207
  0
VERTEX
  8
0
 62
7
  6
CONTINUOUS
 10
54.0223607413
 20
199.779506498
  0
VERTEX
  8
0
 62
7
  6
CONTINUOUS
 10
54.0241272515
 20
199.7561366997
  0
SEQEND
  0
POLYLINE
  8
0
 62
7
  6
CONTINUOUS
 66
1
 70
0
  0
VERTEX
  8
0
 62
7
  6
CONTINUOUS
 10
97.5133942391
 20
199.958406598
  0
VERTEX
  8
0
 62
7
  6
CONTINUOUS
 10
97.2193624681
 20
199.9544368771
  0
VERTEX
  8
0
 62
7
  6
CONTINUOUS
 10
97.1394932951
 20
199.9543902106
  0
VERTEX
  8
0
 62
7
  6
CONTINUOUS
 10
97.0603178319
 20
199.9557669753
  0
VERTEX
  8
0
 62
7
  6
CONTINUOUS
 10
96.9820958581
 20
199.9587660847
  0
VERTEX
  8
0
 62
7
  6
CONTINUOUS
 10
96.9050247386
 20
199.9636016545
  0
VERTEX
  8
0
 62
7
  6
CONTINUOUS
 10
96.829311566
 20
199.9704627843
  0
VERTEX
  8
0
 62
7
  6
CONTINUOUS
 10
96.7553842972
 20
199.9795186826
  0
VERTEX
  8
0
 62
7
  6
CONTINUOUS
 10
96.6836891209
 20
199.9909343385
  0
VERTEX
  8
0
 62
7
  6
CONTINUOUS
 10
96.6140900988
 20
200.0048903145
  0
VERTEX
  8
0
 62
7
  6
CONTINUOUS
 10
96.5468545128
 20
200.021658069
  0
VERTEX
  8
0
 62
7
  6
CONTINUOUS
 10
96.4834254718
 20
200.041360221
  0
VERTEX
  8
0
 62
7
  6
CONTINUOUS
 10
96.4244305794
 20
200.064711619
  0
VERTEX
  8
0
 62
7
  6
CONTINUOUS
 10
96.3696605745
 20
200.0921145026
  0
VERTEX
  8
0
 62
7
  6
CONTINUOUS
 10
96.320729307
 20
200.1229636363
  0
VERTEX
  8
0
 62
7
  6
CONTINUOUS
 10
96.2787029442
 20
200.1564276392
  0
VERTEX
  8
0
 62
7
  6
CONTINUOUS
 10
96.2433592695
 20
200.1925628412
  0
VERTEX
  8
0
 62
7
  6
CONTINUOUS
 10
96.2149941261
 20
200.2313260829
  0
VERTEX
  8
0
 62
7
  6
CONTINUOUS
 10
96.1944178284
 20
200.2725996826
  0
VERTEX
  8
0
 62
7
  6
CONTINUOUS
 10
96.1832348013
 20
200.3155970187
  0
VERTEX
  8
0
 62
7
  6
CONTINUOUS
 10
96.181744789
 20
200.3368359219
  0
SEQEND
  0
LINE
  8
0
 62
7
  6
CONTINUOUS
 10
97.7964084081
 20
199.9608486526
 11
97.5133942391
 21
199.958406598
  0
LINE
  8
0
 62
7
  6
CONTINUOUS
 10
52.405487769
 20
200.1322769356
 11
52.6885095058
 21
200.13469291
  0
LINE
  8
0
 62
7
  6
CONTINUOUS
 10
97.7964084081
 20
199.9608486526
 11
103.3445093487
 21
199.9614050295
  0
LINE
  8
0
 62
7
  6
CONTINUOUS
 10
46.8613996434
 20
200.1317413432
 11
52.405487769
 21
200.1322769356
  0
LINE
  8
0
 62
7
  6
CONTINUOUS
 10
46.8603176921
 20
200.1318006514
 11
46.8613376319
 21
200.1317413462
  0
LINE
  8
0
 62
7
  6
CONTINUOUS
 10
103.3445414617
 20
199.9614050295
 11
103.3455494988
 21
199.9613457034
  0
LINE
  8
0
 62
7
  6
CONTINUOUS
 10
42.5685037558
 20
201.2039454082
 11
42.6732310978
 21
201.1880406236
  0
LINE
  8
0
 62
7
  6
CONTINUOUS
 10
107.6373668491
 20
198.8892011002
 11
107.5326413041
 21
198.9051034745
  0
POLYLINE
  8
0
 62
7
  6
CONTINUOUS
 66
1
 70
0
  0
VERTEX
  8
0
 62
7
  6
CONTINUOUS
 10
107.5417003431
 20
198.9010434034
  0
VERTEX
  8
0
 62
7
  6
CONTINUOUS
 10
107.1384536036
 20
199.0817701305
  0
VERTEX
  8
0
 62
7
  6
CONTINUOUS
 10
106.6726028724
 20
199.2567639483
  0
VERTEX
  8
0
 62
7
  6
CONTINUOUS
 10
106.1707523523
 20
199.4154619013
  0
VERTEX
  8
0
 62
7
  6
CONTINUOUS
 10
105.6372045189
 20
199.558094677
  0
VERTEX
  8
0
 62
7
  6
CONTINUOUS
 10
105.0766186881
 20
199.6847085769
  0
VERTEX
  8
0
 62
7
  6
CONTINUOUS
 10
104.4938315531
 20
199.7953191877
  0
VERTEX
  8
0
 62
7
  6
CONTINUOUS
 10
103.8938499647
 20
199.8899686475
  0
VERTEX
  8
0
 62
7
  6
CONTINUOUS
 10
103.3455596202
 20
199.9613457542
  0
SEQEND
  0
POLYLINE
  8
0
 62
7
  6
CONTINUOUS
 66
1
 70
0
  0
VERTEX
  8
0
 62
7
  6
CONTINUOUS
 10
103.3455494988
 20
199.9613457034
  0
VERTEX
  8
0
 62
7
  6
CONTINUOUS
 10
103.3541463968
 20
199.955534003
  0
VERTEX
  8
0
 62
7
  6
CONTINUOUS
 10
103.3629397153
 20
199.9364472501
  0
VERTEX
  8
0
 62
7
  6
CONTINUOUS
 10
103.369668158
 20
199.905246003
  0
VERTEX
  8
0
 62
7
  6
CONTINUOUS
 10
103.3739878614
 20
199.8639274571
  0
VERTEX
  8
0
 62
7
  6
CONTINUOUS
 10
103.375776748
 20
199.8152311109
  0
VERTEX
  8
0
 62
7
  6
CONTINUOUS
 10
103.3752170607
 20
199.7614050295
  0
SEQEND
  0
POLYLINE
  8
0
 62
7
  6
CONTINUOUS
 66
1
 70
0
  0
VERTEX
  8
0
 62
7
  6
CONTINUOUS
 10
103.3401879207
 20
57.3465731864
  0
VERTEX
  8
0
 62
7
  6
CONTINUOUS
 10
103.347950661
 20
57.3514980573
  0
VERTEX
  8
0
 62
7
  6
CONTINUOUS
 10
103.3553307883
 20
57.366082572
  0
VERTEX
  8
0
 62
7
  6
CONTINUOUS
 10
103.3619649814
 20
57.3896910334
  0
VERTEX
  8
0
 62
7
  6
CONTINUOUS
 10
103.3675210504
 20
57.4212294829
  0
VERTEX
  8
0
 62
7
  6
CONTINUOUS
 10
103.3717152337
 20
57.4591806674
  0
VERTEX
  8
0
 62
7
  6
CONTINUOUS
 10
103.3743281444
 20
57.501671792
  0
VERTEX
  8
0
 62
7
  6
CONTINUOUS
 10
103.3752170607
 20
57.5465731864
  0
SEQEND
  0
POLYLINE
  8
0
 62
7
  6
CONTINUOUS
 66
1
 70
0
  0
VERTEX
  8
0
 62
7
  6
CONTINUOUS
 10
41.4027469402
 20
208.3465728705
  0
VERTEX
  8
0
 62
7
  6
CONTINUOUS
 10
41.3583306841
 20
208.3415338104
  0
VERTEX
  8
0
 62
7
  6
CONTINUOUS
 10
41.3161480693
 20
208.3267583558
  0
VERTEX
  8
0
 62
7
  6
CONTINUOUS
 10
41.2782979084
 20
208.3029827982
  0
VERTEX
  8
0
 62
7
  6
CONTINUOUS
 10
41.2466723957
 20
208.271394346
  0
VERTEX
  8
0
 62
7
  6
CONTINUOUS
 10
41.2228516054
 20
208.2335703261
  0
VERTEX
  8
0
 62
7
  6
CONTINUOUS
 10
41.2080260417
 20
208.1914005305
  0
VERTEX
  8
0
 62
7
  6
CONTINUOUS
 10
41.2029357384
 20
208.1465640075
  0
SEQEND
  0
LINE
  8
0
 62
7
  6
CONTINUOUS
 10
41.4028685582
 20
208.3465731864
 11
95.9815415053
 21
208.3465731864
  0
LINE
  8
0
 62
7
  6
CONTINUOUS
 10
150.5911542611
 20
57.3465731864
 11
165.3911542611
 21
57.3465731864
  0
POLYLINE
  8
0
 62
7
  6
CONTINUOUS
 66
1
 70
0
  0
VERTEX
  8
0
 62
7
  6
CONTINUOUS
 10
158.5914571836
 20
57.3465731864
  0
VERTEX
  8
0
 62
7
  6
CONTINUOUS
 10
158.4349753036
 20
57.3588885829
  0
VERTEX
  8
0
 62
7
  6
CONTINUOUS
 10
158.2823465277
 20
57.3955315246
  0
VERTEX
  8
0
 62
7
  6
CONTINUOUS
 10
158.1373291021
 20
57.4555997291
  0
VERTEX
  8
0
 62
7
  6
CONTINUOUS
 10
158.0034938526
 20
57.5376140938
  0
VERTEX
  8
0
 62
7
  6
CONTINUOUS
 10
157.8841362228
 20
57.6395551481
  0
VERTEX
  8
0
 62
7
  6
CONTINUOUS
 10
157.7821951685
 20
57.7589127779
  0
VERTEX
  8
0
 62
7
  6
CONTINUOUS
 10
157.7001808037
 20
57.8927480274
  0
VERTEX
  8
0
 62
7
  6
CONTINUOUS
 10
157.6401125993
 20
58.037765453
  0
VERTEX
  8
0
 62
7
  6
CONTINUOUS
 10
157.6034696576
 20
58.1903942289
  0
VERTEX
  8
0
 62
7
  6
CONTINUOUS
 10
157.5911542611
 20
58.3468790582
  0
SEQEND
  0
LINE
  8
0
 62
7
  6
CONTINUOUS
 10
149.6411542611
 20
61.9850795221
 11
149.5911542611
 21
61.9815831815
  0
LINE
  8
0
 62
7
  6
CONTINUOUS
 10
149.6012451929
 20
68.5281274222
 11
151.7380502596
 21
68.4535085451
  0
LINE
  8
0
 62
7
  6
CONTINUOUS
 10
150.8467157553
 20
67.6462147455
 11
161.6501952175
 21
66.7826804947
  0
LINE
  8
0
 62
7
  6
CONTINUOUS
 10
152.3558310497
 20
68.1571625807
 11
153.5138061754
 21
68.0606809231
  0
LINE
  8
0
 62
7
  6
CONTINUOUS
 10
153.5138061754
 20
68.0606809231
 11
154.7817704874
 21
67.9533829309
  0
POLYLINE
  8
0
 62
7
  6
CONTINUOUS
 66
1
 70
0
  0
VERTEX
  8
0
 62
7
  6
CONTINUOUS
 10
154.7817704874
 20
67.9533829309
  0
VERTEX
  8
0
 62
7
  6
CONTINUOUS
 10
156.1254970592
 20
67.8376509676
  0
VERTEX
  8
0
 62
7
  6
CONTINUOUS
 10
156.8144543765
 20
67.7775272942
  0
SEQEND
  0
POLYLINE
  8
0
 62
7
  6
CONTINUOUS
 66
1
 70
0
  0
VERTEX
  8
0
 62
7
  6
CONTINUOUS
 10
151.7380456651
 20
68.453508717
  0
VERTEX
  8
0
 62
7
  6
CONTINUOUS
 10
151.8260940312
 20
68.4410120163
  0
VERTEX
  8
0
 62
7
  6
CONTINUOUS
 10
151.8850382287
 20
68.422706614
  0
SEQEND
  0
LINE
  8
0
 62
7
  6
CONTINUOUS
 10
161.7477559129
 20
66.7650210622
 11
165.3361945827
 21
65.7394409695
  0
POLYLINE
  8
0
 62
7
  6
CONTINUOUS
 66
1
 70
0
  0
VERTEX
  8
0
 62
7
  6
CONTINUOUS
 10
151.8850382287
 20
68.422706614
  0
VERTEX
  8
0
 62
7
  6
CONTINUOUS
 10
151.9099133217
 20
68.4129107048
  0
VERTEX
  8
0
 62
7
  6
CONTINUOUS
 10
151.9864965791
 20
68.3748974658
  0
VERTEX
  8
0
 62
7
  6
CONTINUOUS
 10
152.0550963179
 20
68.3322961544
  0
VERTEX
  8
0
 62
7
  6
CONTINUOUS
 10
152.1159026882
 20
68.289564703
  0
VERTEX
  8
0
 62
7
  6
CONTINUOUS
 10
152.1708116581
 20
68.249271104
  0
VERTEX
  8
0
 62
7
  6
CONTINUOUS
 10
152.2210062806
 20
68.2139004117
  0
VERTEX
  8
0
 62
7
  6
CONTINUOUS
 10
152.267432866
 20
68.1857457594
  0
VERTEX
  8
0
 62
7
  6
CONTINUOUS
 10
152.3117974414
 20
68.1663521154
  0
VERTEX
  8
0
 62
7
  6
CONTINUOUS
 10
152.3558310497
 20
68.1571625807
  0
SEQEND
  0
LINE
  8
0
 62
7
  6
CONTINUOUS
 10
150.5114772599
 20
72.0201356376
 11
161.6501952175
 21
72.910465878
  0
LINE
  8
0
 62
7
  6
CONTINUOUS
 10
159.7805779457
 20
75.6671981864
 11
160.128721038
 21
75.6671981864
  0
LINE
  8
0
 62
7
  6
CONTINUOUS
 10
159.3501619053
 20
75.8246980362
 11
159.6983049977
 21
75.8246980362
  0
LINE
  8
0
 62
7
  6
CONTINUOUS
 10
159.1527338161
 20
75.9765731864
 11
158.9405115586
 21
75.9765731864
  0
POLYLINE
  8
0
 62
7
  6
CONTINUOUS
 66
1
 70
0
  0
VERTEX
  8
0
 62
7
  6
CONTINUOUS
 10
151.8850556458
 20
68.4227914541
  0
VERTEX
  8
0
 62
7
  6
CONTINUOUS
 10
151.9676626837
 20
68.3831056642
  0
VERTEX
  8
0
 62
7
  6
CONTINUOUS
 10
152.035674842
 20
68.334190206
  0
VERTEX
  8
0
 62
7
  6
CONTINUOUS
 10
152.0945653202
 20
68.2746058335
  0
VERTEX
  8
0
 62
7
  6
CONTINUOUS
 10
152.1426808099
 20
68.2060253065
  0
VERTEX
  8
0
 62
7
  6
CONTINUOUS
 10
152.1786705144
 20
68.1303739584
  0
SEQEND
  0
LINE
  8
0
 62
7
  6
CONTINUOUS
 10
161.7477559129
 20
190.5281253105
 11
165.3361945827
 21
191.5537054033
  0
LINE
  8
0
 62
7
  6
CONTINUOUS
 10
159.1527338161
 20
76.5165731864
 11
158.9405115586
 21
76.5165731864
  0
LINE
  8
0
 62
7
  6
CONTINUOUS
 10
158.8517854475
 20
76.8484481864
 11
159.3501619053
 21
76.8484481864
  0
LINE
  8
0
 62
7
  6
CONTINUOUS
 10
159.4860827401
 20
76.8484481864
 11
159.7805779457
 21
76.8484481864
  0
LINE
  8
0
 62
7
  6
CONTINUOUS
 10
160.128721038
 20
77.0846981864
 11
158.8517854475
 21
77.0846981864
  0
LINE
  8
0
 62
7
  6
CONTINUOUS
 10
159.1009736764
 20
77.3996981113
 11
159.4264632963
 21
77.3996981113
  0
LINE
  8
0
 62
7
  6
CONTINUOUS
 10
159.5170772179
 20
77.4784482615
 11
159.3048549604
 21
77.4784482615
  0
LINE
  8
0
 62
7
  6
CONTINUOUS
 10
159.8795328409
 20
77.5178231113
 11
159.6673105834
 21
77.5178231113
  0
LINE
  8
0
 62
7
  6
CONTINUOUS
 10
159.9474932583
 20
77.5571981864
 11
159.7352710008
 21
77.5571981864
  0
LINE
  8
0
 62
7
  6
CONTINUOUS
 10
159.6076911078
 20
77.6359481113
 11
159.3954688503
 21
77.6359481113
  0
LINE
  8
0
 62
7
  6
CONTINUOUS
 10
159.1915875663
 20
77.6359481113
 11
159.1236271489
 21
77.6359481113
  0
LINE
  8
0
 62
7
  6
CONTINUOUS
 10
160.0381071482
 20
77.6753231864
 11
159.8258848906
 21
77.6753231864
  0
LINE
  8
0
 62
7
  6
CONTINUOUS
 10
159.2595480154
 20
77.7146982615
 11
159.0556667315
 21
77.7146982615
  0
LINE
  8
0
 62
7
  6
CONTINUOUS
 10
159.6529980527
 20
77.7934481864
 11
159.4407757952
 21
77.7934481864
  0
LINE
  8
0
 62
7
  6
CONTINUOUS
 10
160.1060675656
 20
77.8328232615
 11
159.8938453081
 21
77.8328232615
  0
LINE
  8
0
 62
7
  6
CONTINUOUS
 10
159.2225820282
 20
77.8328232615
 11
159.0103597707
 21
77.8328232615
  0
LINE
  8
0
 62
7
  6
CONTINUOUS
 10
159.6756515252
 20
77.9903231113
 11
159.4634292677
 21
77.9903231113
  0
LINE
  8
0
 62
7
  6
CONTINUOUS
 10
159.1999285557
 20
77.9903231113
 11
158.9877062982
 21
77.9903231113
  0
LINE
  8
0
 62
7
  6
CONTINUOUS
 10
160.128721038
 20
78.0296981864
 11
159.9164987805
 21
78.0296981864
  0
LINE
  8
0
 62
7
  6
CONTINUOUS
 10
160.128721038
 20
78.2265731113
 11
159.9164987805
 21
78.2265731113
  0
LINE
  8
0
 62
7
  6
CONTINUOUS
 10
159.6756515252
 20
78.2265731113
 11
159.4634292677
 21
78.2265731113
  0
LINE
  8
0
 62
7
  6
CONTINUOUS
 10
159.1999285557
 20
78.3053232615
 11
158.9877062982
 21
78.3053232615
  0
LINE
  8
0
 62
7
  6
CONTINUOUS
 10
159.6983049977
 20
78.3446981113
 11
159.4860827401
 21
78.3446981113
  0
LINE
  8
0
 62
7
  6
CONTINUOUS
 10
160.1060675656
 20
78.3840731864
 11
159.8938453081
 21
78.3840731864
  0
LINE
  8
0
 62
7
  6
CONTINUOUS
 10
159.7126175283
 20
78.4628231113
 11
159.5313896851
 21
78.4628231113
  0
LINE
  8
0
 62
7
  6
CONTINUOUS
 10
159.2225820282
 20
78.4628231113
 11
159.0103597707
 21
78.4628231113
  0
LINE
  8
0
 62
7
  6
CONTINUOUS
 10
159.5993501025
 20
78.5021981864
 11
159.6446570474
 21
78.5021981864
  0
LINE
  8
0
 62
7
  6
CONTINUOUS
 10
160.0607606206
 20
78.5415732615
 11
159.8485383631
 21
78.5415732615
  0
LINE
  8
0
 62
7
  6
CONTINUOUS
 10
159.2905424615
 20
78.5809481113
 11
159.078320204
 21
78.5809481113
  0
LINE
  8
0
 62
7
  6
CONTINUOUS
 10
159.3585028789
 20
78.6203231864
 11
159.1462806214
 21
78.6203231864
  0
LINE
  8
0
 62
7
  6
CONTINUOUS
 10
159.9701467308
 20
78.6990731113
 11
159.7579244732
 21
78.6990731113
  0
LINE
  8
0
 62
7
  6
CONTINUOUS
 10
159.8795328409
 20
78.7384481864
 11
159.57669663
 21
78.7384481864
  0
LINE
  8
0
 62
7
  6
CONTINUOUS
 10
159.3585028789
 20
78.8565731864
 11
159.1462806214
 21
78.8565731864
  0
LINE
  8
0
 62
7
  6
CONTINUOUS
 10
158.8517854475
 20
79.1715732239
 11
160.128721038
 21
79.1715732239
  0
LINE
  8
0
 62
7
  6
CONTINUOUS
 10
160.128721038
 20
79.4078232239
 11
159.0103597707
 21
79.4078232239
  0
LINE
  8
0
 62
7
  6
CONTINUOUS
 10
160.128721038
 20
80.3921981864
 11
159.9164987805
 21
80.3921981864
  0
LINE
  8
0
 62
7
  6
CONTINUOUS
 10
158.8517854475
 20
80.5103231864
 11
159.7805779457
 21
80.5103231864
  0
LINE
  8
0
 62
7
  6
CONTINUOUS
 10
160.128721038
 20
80.7465731864
 11
158.8517854475
 21
80.7465731864
  0
LINE
  8
0
 62
7
  6
CONTINUOUS
 10
150.5114772599
 20
84.4730107351
 11
161.6501952175
 21
83.5826804947
  0
LINE
  8
0
 62
7
  6
CONTINUOUS
 10
161.7477559129
 20
83.5650210622
 11
165.3361945827
 21
82.5394409695
  0
LINE
  8
0
 62
7
  6
CONTINUOUS
 10
159.7579244732
 20
78.6990731113
 11
159.6673105834
 21
78.7384481864
  0
LINE
  8
0
 62
7
  6
CONTINUOUS
 10
159.9701467308
 20
78.6990731113
 11
159.8795328409
 21
78.7384481864
  0
POLYLINE
  8
0
 62
7
  6
CONTINUOUS
 66
1
 70
0
  0
VERTEX
  8
0
 62
7
  6
CONTINUOUS
 10
149.917769445
 20
68.345201265
  0
VERTEX
  8
0
 62
7
  6
CONTINUOUS
 10
149.8792486737
 20
68.3926812196
  0
VERTEX
  8
0
 62
7
  6
CONTINUOUS
 10
149.8304678462
 20
68.450558889
  0
VERTEX
  8
0
 62
7
  6
CONTINUOUS
 10
149.7908115317
 20
68.4914242326
  0
VERTEX
  8
0
 62
7
  6
CONTINUOUS
 10
149.7587350613
 20
68.5153396758
  0
VERTEX
  8
0
 62
7
  6
CONTINUOUS
 10
149.7328747266
 20
68.5235282881
  0
SEQEND
  0
LINE
  8
0
 62
7
  6
CONTINUOUS
 10
150.5114772599
 20
88.8201356376
 11
161.6501952175
 21
89.710465878
  0
LINE
  8
0
 62
7
  6
CONTINUOUS
 10
159.6446570474
 20
78.5021981864
 11
159.7126175283
 21
78.4628231113
  0
LINE
  8
0
 62
7
  6
CONTINUOUS
 10
158.6764041407
 20
66.8494699989
 11
158.6765024643
 21
66.8493654333
  0
POLYLINE
  8
0
 62
7
  6
CONTINUOUS
 66
1
 70
0
  0
VERTEX
  8
0
 62
7
  6
CONTINUOUS
 10
149.9177742635
 20
68.3451953211
  0
VERTEX
  8
0
 62
7
  6
CONTINUOUS
 10
149.9668319756
 20
68.272454385
  0
VERTEX
  8
0
 62
7
  6
CONTINUOUS
 10
149.9837082251
 20
68.2390729917
  0
SEQEND
  0
LINE
  8
0
 62
7
  6
CONTINUOUS
 10
158.6764041417
 20
190.443676375
 11
158.6765024634
 21
190.4437809385
  0
LINE
  8
0
 62
7
  6
CONTINUOUS
 10
161.7477559129
 20
173.7281253105
 11
165.3361945827
 21
174.7537054033
  0
LINE
  8
0
 62
7
  6
CONTINUOUS
 10
167.3585933795
 20
93.1701645692
 11
165.5911542611
 21
93.0465731864
  0
LINE
  8
0
 62
7
  6
CONTINUOUS
 10
159.0103597707
 20
77.4784482615
 11
159.1009736764
 21
77.3996981113
  0
POLYLINE
  8
0
 62
7
  6
CONTINUOUS
 66
1
 70
0
  0
VERTEX
  8
0
 62
7
  6
CONTINUOUS
 10
149.9837081561
 20
68.2390729597
  0
VERTEX
  8
0
 62
7
  6
CONTINUOUS
 10
150.0257283153
 20
68.1577248722
  0
VERTEX
  8
0
 62
7
  6
CONTINUOUS
 10
150.1080434567
 20
68.0364224913
  0
VERTEX
  8
0
 62
7
  6
CONTINUOUS
 10
150.2079426325
 20
67.9275136359
  0
VERTEX
  8
0
 62
7
  6
CONTINUOUS
 10
150.3235103789
 20
67.8334458519
  0
VERTEX
  8
0
 62
7
  6
CONTINUOUS
 10
150.452535303
 20
67.7563447759
  0
VERTEX
  8
0
 62
7
  6
CONTINUOUS
 10
150.5924217526
 20
67.6980697644
  0
VERTEX
  8
0
 62
7
  6
CONTINUOUS
 10
150.7403691001
 20
67.6600876242
  0
VERTEX
  8
0
 62
7
  6
CONTINUOUS
 10
150.8468813428
 20
67.6462029328
  0
SEQEND
  0
LINE
  8
0
 62
7
  6
CONTINUOUS
 10
167.3585933795
 20
101.5701645692
 11
165.5911542611
 21
101.4465731864
  0
LINE
  8
0
 62
7
  6
CONTINUOUS
 10
167.3585933795
 20
96.9229818035
 11
165.5911542611
 21
97.0465731864
  0
LINE
  8
0
 62
7
  6
CONTINUOUS
 10
150.5114772599
 20
101.2730107351
 11
161.6501952175
 21
100.3826804947
  0
LINE
  8
0
 62
7
  6
CONTINUOUS
 10
158.6764041407
 20
83.6494699989
 11
158.6765024643
 21
83.6493654334
  0
LINE
  8
0
 62
7
  6
CONTINUOUS
 10
159.1236271489
 20
77.6359481113
 11
159.0556667315
 21
77.7146982615
  0
LINE
  8
0
 62
7
  6
CONTINUOUS
 10
158.6764041417
 20
173.643676375
 11
158.6765024634
 21
173.6437809385
  0
LINE
  8
0
 62
7
  6
CONTINUOUS
 10
150.5114772599
 20
105.6201356376
 11
161.6501952175
 21
106.510465878
  0
LINE
  8
0
 62
7
  6
CONTINUOUS
 10
167.3585933795
 20
105.3229818035
 11
165.5911542611
 21
105.4465731864
  0
LINE
  8
0
 62
7
  6
CONTINUOUS
 10
161.7477559129
 20
100.3650210622
 11
165.3361945827
 21
99.3394409695
  0
LINE
  8
0
 62
7
  6
CONTINUOUS
 10
158.9197458729
 20
77.6359481113
 11
159.0103597707
 21
77.4784482615
  0
POLYLINE
  8
0
 62
7
  6
CONTINUOUS
 66
1
 70
0
  0
VERTEX
  8
0
 62
7
  6
CONTINUOUS
 10
152.1786705144
 20
68.1303739584
  0
VERTEX
  8
0
 62
7
  6
CONTINUOUS
 10
152.2053165453
 20
68.0508697167
  0
VERTEX
  8
0
 62
7
  6
CONTINUOUS
 10
152.2566141525
 20
67.9410587465
  0
VERTEX
  8
0
 62
7
  6
CONTINUOUS
 10
152.3284801749
 20
67.8357070316
  0
VERTEX
  8
0
 62
7
  6
CONTINUOUS
 10
152.4207574562
 20
67.738104828
  0
VERTEX
  8
0
 62
7
  6
CONTINUOUS
 10
152.5319973497
 20
67.6517092914
  0
VERTEX
  8
0
 62
7
  6
CONTINUOUS
 10
152.6605928094
 20
67.5790003649
  0
VERTEX
  8
0
 62
7
  6
CONTINUOUS
 10
152.8045472686
 20
67.5221659012
  0
VERTEX
  8
0
 62
7
  6
CONTINUOUS
 10
152.9616637884
 20
67.483255482
  0
VERTEX
  8
0
 62
7
  6
CONTINUOUS
 10
153.0852878681
 20
67.4672810472
  0
SEQEND
  0
LINE
  8
0
 62
7
  6
CONTINUOUS
 10
161.7477559129
 20
156.9281253105
 11
165.3361945827
 21
157.9537054033
  0
LINE
  8
0
 62
7
  6
CONTINUOUS
 10
167.3585933795
 20
109.9701645692
 11
165.5911542611
 21
109.8465731864
  0
LINE
  8
0
 62
7
  6
CONTINUOUS
 10
158.6764041407
 20
100.4494699989
 11
158.6765024643
 21
100.4493654334
  0
LINE
  8
0
 62
7
  6
CONTINUOUS
 10
159.8485383631
 20
78.5415732615
 11
159.7579244732
 21
78.6990731113
  0
LINE
  8
0
 62
7
  6
CONTINUOUS
 10
160.0607606206
 20
78.5415732615
 11
159.9701467308
 21
78.6990731113
  0
LINE
  8
0
 62
7
  6
CONTINUOUS
 10
158.6764041417
 20
156.843676375
 11
158.6765024634
 21
156.8437809385
  0
LINE
  8
0
 62
7
  6
CONTINUOUS
 10
167.3585933795
 20
118.3701645692
 11
165.5911542611
 21
118.2465731864
  0
LINE
  8
0
 62
7
  6
CONTINUOUS
 10
167.3585933795
 20
113.7229818035
 11
165.5911542611
 21
113.8465731864
  0
LINE
  8
0
 62
7
  6
CONTINUOUS
 10
150.5114772599
 20
118.0730107351
 11
161.6501952175
 21
117.1826804947
  0
LINE
  8
0
 62
7
  6
CONTINUOUS
 10
159.0556667315
 20
77.7146982615
 11
159.0103597707
 21
77.8328232615
  0
LINE
  8
0
 62
7
  6
CONTINUOUS
 10
159.2637185015
 20
77.7255716202
 11
159.2225820282
 21
77.8328232615
  0
LINE
  8
0
 62
7
  6
CONTINUOUS
 10
159.7126175283
 20
78.4628231113
 11
159.7579244732
 21
78.3446981113
  0
LINE
  8
0
 62
7
  6
CONTINUOUS
 10
150.5114772599
 20
122.4201356376
 11
161.6501952175
 21
123.310465878
  0
LINE
  8
0
 62
7
  6
CONTINUOUS
 10
167.3585933795
 20
122.1229818035
 11
165.5911542611
 21
122.2465731864
  0
LINE
  8
0
 62
7
  6
CONTINUOUS
 10
161.7477559129
 20
117.1650210622
 11
165.3361945827
 21
116.1394409695
  0
LINE
  8
0
 62
7
  6
CONTINUOUS
 10
158.6764041407
 20
117.2494699989
 11
158.6765024643
 21
117.2493654334
  0
LINE
  8
0
 62
7
  6
CONTINUOUS
 10
158.874438922
 20
77.7934481864
 11
158.9197458729
 21
77.6359481113
  0
LINE
  8
0
 62
7
  6
CONTINUOUS
 10
159.8938453081
 20
78.3840731864
 11
159.8485383631
 21
78.5415732615
  0
LINE
  8
0
 62
7
  6
CONTINUOUS
 10
160.1060675656
 20
78.3840731864
 11
160.0607606206
 21
78.5415732615
  0
POLYLINE
  8
0
 62
7
  6
CONTINUOUS
 66
1
 70
0
  0
VERTEX
  8
0
 62
7
  6
CONTINUOUS
 10
149.8940435311
 20
203.0478224161
  0
VERTEX
  8
0
 62
7
  6
CONTINUOUS
 10
149.8979785035
 20
202.9603510738
  0
VERTEX
  8
0
 62
7
  6
CONTINUOUS
 10
149.9211746022
 20
202.819486955
  0
VERTEX
  8
0
 62
7
  6
CONTINUOUS
 10
149.9648700256
 20
202.6828259524
  0
VERTEX
  8
0
 62
7
  6
CONTINUOUS
 10
150.0284079791
 20
202.5531041612
  0
VERTEX
  8
0
 62
7
  6
CONTINUOUS
 10
150.1107461363
 20
202.4330207944
  0
VERTEX
  8
0
 62
7
  6
CONTINUOUS
 10
150.2105251799
 20
202.3250877799
  0
VERTEX
  8
0
 62
7
  6
CONTINUOUS
 10
150.3259903095
 20
202.2317145514
  0
VERTEX
  8
0
 62
7
  6
CONTINUOUS
 10
150.4548183802
 20
202.1551980181
  0
VERTEX
  8
0
 62
7
  6
CONTINUOUS
 10
150.5943794227
 20
202.0974164164
  0
VERTEX
  8
0
 62
7
  6
CONTINUOUS
 10
150.74174917
 20
202.0598378316
  0
VERTEX
  8
0
 62
7
  6
CONTINUOUS
 10
150.8469038608
 20
202.046201106
  0
SEQEND
  0
LINE
  8
0
 62
7
  6
CONTINUOUS
 10
149.5911542611
 20
197.0233149037
 11
149.5911542611
 21
194.669831469
  0
LINE
  8
0
 62
7
  6
CONTINUOUS
 10
149.5911542611
 20
180.2233149037
 11
149.5911542611
 21
177.869831469
  0
LINE
  8
0
 62
7
  6
CONTINUOUS
 10
149.5911542611
 20
163.4233149037
 11
149.5911542611
 21
161.069831469
  0
LINE
  8
0
 62
7
  6
CONTINUOUS
 10
149.5911542611
 20
146.6233149037
 11
149.5911542611
 21
144.269831469
  0
LINE
  8
0
 62
7
  6
CONTINUOUS
 10
149.5911542611
 20
129.8233149037
 11
149.5911542611
 21
127.469831469
  0
LINE
  8
0
 62
7
  6
CONTINUOUS
 10
149.5911542611
 20
113.0233149037
 11
149.5911542611
 21
110.669831469
  0
LINE
  8
0
 62
7
  6
CONTINUOUS
 10
149.5911542611
 20
96.2233149037
 11
149.5911542611
 21
93.869831469
  0
LINE
  8
0
 62
7
  6
CONTINUOUS
 10
149.5911542611
 20
79.4233149037
 11
149.5911542611
 21
77.069831469
  0
LINE
  8
0
 62
7
  6
CONTINUOUS
 10
149.5911542611
 20
61.9815831815
 11
149.5911542611
 21
58.3465731864
  0
LINE
  8
0
 62
7
  6
CONTINUOUS
 10
149.5911542611
 20
68.669831469
 11
149.5911542611
 21
71.0233149037
  0
LINE
  8
0
 62
7
  6
CONTINUOUS
 10
149.5911542611
 20
85.469831469
 11
149.5911542611
 21
87.8233149037
  0
LINE
  8
0
 62
7
  6
CONTINUOUS
 10
149.5911542611
 20
102.269831469
 11
149.5911542611
 21
104.6233149037
  0
LINE
  8
0
 62
7
  6
CONTINUOUS
 10
149.5911542611
 20
119.069831469
 11
149.5911542611
 21
121.4233149037
  0
LINE
  8
0
 62
7
  6
CONTINUOUS
 10
149.5911542611
 20
135.869831469
 11
149.5911542611
 21
138.2233149037
  0
LINE
  8
0
 62
7
  6
CONTINUOUS
 10
149.5911542611
 20
152.669831469
 11
149.5911542611
 21
155.0233149037
  0
LINE
  8
0
 62
7
  6
CONTINUOUS
 10
149.5911542611
 20
169.469831469
 11
149.5911542611
 21
171.8233149037
  0
LINE
  8
0
 62
7
  6
CONTINUOUS
 10
149.5911542611
 20
186.269831469
 11
149.5911542611
 21
188.6233149037
  0
LINE
  8
0
 62
7
  6
CONTINUOUS
 10
149.5911542611
 20
203.7115631912
 11
149.5911542611
 21
207.3465731864
  0
LINE
  8
0
 62
7
  6
CONTINUOUS
 10
149.6411542611
 20
203.7080668506
 11
149.6411542611
 21
188.9224553933
  0
LINE
  8
0
 62
7
  6
CONTINUOUS
 10
149.6411542611
 20
185.971111086
 11
149.6411542611
 21
172.1224553933
  0
LINE
  8
0
 62
7
  6
CONTINUOUS
 10
149.6411542611
 20
169.171111086
 11
149.6411542611
 21
155.3224553933
  0
LINE
  8
0
 62
7
  6
CONTINUOUS
 10
149.6411542611
 20
152.371111086
 11
149.6411542611
 21
138.5224553933
  0
LINE
  8
0
 62
7
  6
CONTINUOUS
 10
149.6411542611
 20
135.571111086
 11
149.6411542611
 21
121.7224553933
  0
LINE
  8
0
 62
7
  6
CONTINUOUS
 10
149.6411542611
 20
118.771111086
 11
149.6411542611
 21
104.9224553933
  0
LINE
  8
0
 62
7
  6
CONTINUOUS
 10
149.6411542611
 20
101.971111086
 11
149.6411542611
 21
88.1224553933
  0
LINE
  8
0
 62
7
  6
CONTINUOUS
 10
149.6411542611
 20
85.171111086
 11
149.6411542611
 21
71.3224553933
  0
LINE
  8
0
 62
7
  6
CONTINUOUS
 10
149.6411542611
 20
68.5267337669
 11
149.6411542611
 21
58.3465731864
  0
LINE
  8
0
 62
7
  6
CONTINUOUS
 10
149.894039677
 20
203.223962932
 11
149.894039677
 21
203.047822416
  0
LINE
  8
0
 62
7
  6
CONTINUOUS
 10
152.1606370468
 20
202.6971798972
 11
152.1606370468
 21
203.0655005272
  0
LINE
  8
0
 62
7
  6
CONTINUOUS
 10
161.7477559129
 20
140.1281253105
 11
165.3361945827
 21
141.1537054033
  0
LINE
  8
0
 62
7
  6
CONTINUOUS
 10
167.3585933795
 20
126.7701645692
 11
165.5911542611
 21
126.6465731864
  0
LINE
  8
0
 62
7
  6
CONTINUOUS
 10
159.7579244732
 20
78.3446981113
 11
159.7805779457
 21
78.2265731113
  0
LINE
  8
0
 62
7
  6
CONTINUOUS
 10
159.0103597707
 20
77.8328232615
 11
158.9877062982
 21
77.9903231113
  0
LINE
  8
0
 62
7
  6
CONTINUOUS
 10
159.2225820282
 20
77.8328232615
 11
159.1999285557
 21
77.9903231113
  0
LINE
  8
0
 62
7
  6
CONTINUOUS
 10
159.9164987805
 20
78.2265731113
 11
159.8938453081
 21
78.3840731864
  0
LINE
  8
0
 62
7
  6
CONTINUOUS
 10
160.128721038
 20
78.2265731113
 11
160.1060675656
 21
78.3840731864
  0
LINE
  8
0
 62
7
  6
CONTINUOUS
 10
158.8517854475
 20
77.9903231113
 11
158.874438922
 21
77.7934481864
  0
POLYLINE
  8
0
 62
7
  6
CONTINUOUS
 66
1
 70
0
  0
VERTEX
  8
0
 62
7
  6
CONTINUOUS
 10
152.1606409315
 20
202.6971798978
  0
VERTEX
  8
0
 62
7
  6
CONTINUOUS
 10
152.1620485232
 20
202.6533343851
  0
VERTEX
  8
0
 62
7
  6
CONTINUOUS
 10
152.1783204051
 20
202.541150226
  0
VERTEX
  8
0
 62
7
  6
CONTINUOUS
 10
152.2130822276
 20
202.4308540157
  0
VERTEX
  8
0
 62
7
  6
CONTINUOUS
 10
152.2665690196
 20
202.3240794729
  0
VERTEX
  8
0
 62
7
  6
CONTINUOUS
 10
152.3389540621
 20
202.2229589994
  0
VERTEX
  8
0
 62
7
  6
CONTINUOUS
 10
152.4304577083
 20
202.1294353571
  0
VERTEX
  8
0
 62
7
  6
CONTINUOUS
 10
152.5401854114
 20
202.0463213008
  0
VERTEX
  8
0
 62
7
  6
CONTINUOUS
 10
152.6664843631
 20
201.9762133807
  0
VERTEX
  8
0
 62
7
  6
CONTINUOUS
 10
152.8079314533
 20
201.9210901086
  0
VERTEX
  8
0
 62
7
  6
CONTINUOUS
 10
152.9626055548
 20
201.8830866568
  0
VERTEX
  8
0
 62
7
  6
CONTINUOUS
 10
153.0853345148
 20
201.867277405
  0
SEQEND
  0
LINE
  8
0
 62
7
  6
CONTINUOUS
 10
157.591246473
 20
58.3328758565
 11
157.5911542611
 21
58.3464550164
  0
LINE
  8
DEFAULT_1
 62
2
  6
CENTER
 10
157.5911542611
 20
190.1860221741
 11
157.5911542611
 21
184.7071241986
  0
LINE
  8
DEFAULT_1
 62
2
  6
CENTER
 10
157.5911542611
 20
173.3860221741
 11
157.5911542611
 21
167.9071241986
  0
LINE
  8
DEFAULT_1
 62
2
  6
CENTER
 10
157.5911542611
 20
156.5860221741
 11
157.5911542611
 21
151.1071241986
  0
LINE
  8
DEFAULT_1
 62
2
  6
CENTER
 10
157.5911542611
 20
139.7860221741
 11
157.5911542611
 21
134.3071241986
  0
LINE
  8
DEFAULT_1
 62
2
  6
CENTER
 10
157.5911542611
 20
122.9860221741
 11
157.5911542611
 21
117.5071241986
  0
LINE
  8
DEFAULT_1
 62
2
  6
CENTER
 10
157.5911542611
 20
106.1860221741
 11
157.5911542611
 21
100.7071241986
  0
LINE
  8
DEFAULT_1
 62
2
  6
CENTER
 10
157.5911542611
 20
89.3860221741
 11
157.5911542611
 21
83.9071241986
  0
LINE
  8
DEFAULT_1
 62
2
  6
CENTER
 10
157.5911542611
 20
72.5860221741
 11
157.5911542611
 21
67.1071241986
  0
LINE
  8
0
 62
7
  6
CONTINUOUS
 10
157.5911542611
 20
201.5071241986
 11
157.5911542611
 21
190.1860221741
  0
LINE
  8
0
 62
7
  6
CONTINUOUS
 10
157.5911542611
 20
184.7071241986
 11
157.5911542611
 21
173.3860221741
  0
LINE
  8
0
 62
7
  6
CONTINUOUS
 10
157.5911542611
 20
167.9071241986
 11
157.5911542611
 21
156.5860221741
  0
LINE
  8
0
 62
7
  6
CONTINUOUS
 10
157.5911542611
 20
151.1071241986
 11
157.5911542611
 21
139.7860221741
  0
LINE
  8
0
 62
7
  6
CONTINUOUS
 10
157.5911542611
 20
134.3071241986
 11
157.5911542611
 21
122.9860221741
  0
LINE
  8
0
 62
7
  6
CONTINUOUS
 10
157.5911542611
 20
117.5071241986
 11
157.5911542611
 21
106.1860221741
  0
LINE
  8
0
 62
7
  6
CONTINUOUS
 10
157.5911542611
 20
100.7071241986
 11
157.5911542611
 21
89.3860221741
  0
LINE
  8
0
 62
7
  6
CONTINUOUS
 10
157.5911542611
 20
83.9071241986
 11
157.5911542611
 21
72.5860221741
  0
LINE
  8
0
 62
7
  6
CONTINUOUS
 10
157.5911542611
 20
67.1071241986
 11
157.5911542611
 21
58.3468761606
  0
LINE
  8
DEFAULT_1
 62
2
  6
CENTER
 10
157.5911542611
 20
201.5071241986
 11
157.5911542611
 21
210.3465731864
  0
LINE
  8
0
 62
7
  6
CONTINUOUS
 10
158.6764041417
 20
140.043676375
 11
158.6765024634
 21
140.0437809385
  0
LINE
  8
0
 62
7
  6
CONTINUOUS
 10
167.3585933795
 20
130.5229818035
 11
165.5911542611
 21
130.6465731864
  0
LINE
  8
0
 62
7
  6
CONTINUOUS
 10
158.8207635576
 20
73.2770461976
 11
158.820763558
 21
73.2769744812
  0
LINE
  8
0
 62
7
  6
CONTINUOUS
 10
158.8207635576
 20
90.0770461976
 11
158.820763558
 21
90.0769744812
  0
LINE
  8
0
 62
7
  6
CONTINUOUS
 10
158.8207635576
 20
106.8770461976
 11
158.820763558
 21
106.8769744812
  0
LINE
  8
0
 62
7
  6
CONTINUOUS
 10
158.8207635576
 20
123.6770461976
 11
158.820763558
 21
123.6769744812
  0
LINE
  8
0
 62
7
  6
CONTINUOUS
 10
158.8207635576
 20
140.4770461976
 11
158.820763558
 21
140.4769744812
  0
LINE
  8
0
 62
7
  6
CONTINUOUS
 10
158.8207635576
 20
157.2770461976
 11
158.820763558
 21
157.2769744812
  0
LINE
  8
0
 62
7
  6
CONTINUOUS
 10
158.8207635576
 20
174.0770461976
 11
158.820763558
 21
174.0769744812
  0
LINE
  8
0
 62
7
  6
CONTINUOUS
 10
158.8207635576
 20
190.8770461976
 11
158.820763558
 21
190.8769744812
  0
LINE
  8
0
 62
7
  6
CONTINUOUS
 10
158.8517854475
 20
80.7465731864
 11
158.8517854475
 21
80.5103231864
  0
LINE
  8
0
 62
7
  6
CONTINUOUS
 10
158.8517854475
 20
79.5259482239
 11
158.8517854475
 21
79.1715732239
  0
LINE
  8
0
 62
7
  6
CONTINUOUS
 10
158.8517854475
 20
78.3053232615
 11
158.8517854475
 21
77.9903231113
  0
LINE
  8
0
 62
7
  6
CONTINUOUS
 10
158.8517854475
 20
77.0846981864
 11
158.8517854475
 21
76.8484481864
  0
LINE
  8
0
 62
7
  6
CONTINUOUS
 10
158.9877062982
 20
77.9903231113
 11
158.9877062982
 21
78.3053232615
  0
LINE
  8
0
 62
7
  6
CONTINUOUS
 10
159.1462806214
 20
78.6203231864
 11
159.1462806214
 21
78.8565731864
  0
LINE
  8
0
 62
7
  6
CONTINUOUS
 10
159.1999285557
 20
77.9903231113
 11
159.1999285557
 21
78.3053232615
  0
LINE
  8
0
 62
7
  6
CONTINUOUS
 10
159.3275084329
 20
78.2265731113
 11
159.3275084329
 21
77.9903231113
  0
LINE
  8
0
 62
7
  6
CONTINUOUS
 10
159.3501619053
 20
76.8484481864
 11
159.3501619053
 21
75.8246980362
  0
LINE
  8
0
 62
7
  6
CONTINUOUS
 10
159.3585028789
 20
78.6203231864
 11
159.3585028789
 21
78.8565731864
  0
LINE
  8
0
 62
7
  6
CONTINUOUS
 10
159.4634292677
 20
77.9903231113
 11
159.4634292677
 21
78.2265731113
  0
LINE
  8
0
 62
7
  6
CONTINUOUS
 10
159.4860827401
 20
75.8246980362
 11
159.4860827401
 21
76.8484481864
  0
LINE
  8
0
 62
7
  6
CONTINUOUS
 10
159.6673105834
 20
77.7540731113
 11
159.6673105834
 21
77.5178231113
  0
LINE
  8
0
 62
7
  6
CONTINUOUS
 10
159.6756515252
 20
77.9903231113
 11
159.6756515252
 21
78.2265731113
  0
LINE
  8
0
 62
7
  6
CONTINUOUS
 10
159.6983049977
 20
75.8246980362
 11
159.6983049977
 21
76.8484481864
  0
LINE
  8
0
 62
7
  6
CONTINUOUS
 10
159.7805779457
 20
78.2265731113
 11
159.7805779457
 21
77.9903231113
  0
LINE
  8
0
 62
7
  6
CONTINUOUS
 10
159.7805779457
 20
76.8484481864
 11
159.7805779457
 21
75.6671981864
  0
LINE
  8
0
 62
7
  6
CONTINUOUS
 10
159.9164987805
 20
75.6671981864
 11
159.9164987805
 21
77.0846981864
  0
LINE
  8
0
 62
7
  6
CONTINUOUS
 10
159.9164987805
 20
78.0296981864
 11
159.9164987805
 21
78.2265731113
  0
LINE
  8
0
 62
7
  6
CONTINUOUS
 10
159.9164987805
 20
79.1715732239
 11
159.9164987805
 21
79.4078232239
  0
LINE
  8
0
 62
7
  6
CONTINUOUS
 10
159.9164987805
 20
80.3921981864
 11
159.9164987805
 21
80.7465731864
  0
LINE
  8
0
 62
7
  6
CONTINUOUS
 10
160.128721038
 20
75.6671981864
 11
160.128721038
 21
77.0846981864
  0
LINE
  8
0
 62
7
  6
CONTINUOUS
 10
160.128721038
 20
78.0296981864
 11
160.128721038
 21
78.2265731113
  0
LINE
  8
0
 62
7
  6
CONTINUOUS
 10
160.128721038
 20
79.1715732239
 11
160.128721038
 21
79.4078232239
  0
LINE
  8
0
 62
7
  6
CONTINUOUS
 10
160.128721038
 20
80.3921981864
 11
160.128721038
 21
80.7465731864
  0
LINE
  8
0
 62
7
  6
CONTINUOUS
 10
167.3585933795
 20
135.1701645692
 11
165.5911542611
 21
135.0465731864
  0
LINE
  8
0
 62
7
  6
CONTINUOUS
 10
150.5114772599
 20
134.8730107351
 11
161.6501952175
 21
133.9826804947
  0
LINE
  8
0
 62
7
  6
CONTINUOUS
 10
161.7477559129
 20
133.9650210622
 11
165.3361945827
 21
132.9394409695
  0
LINE
  8
0
 62
7
  6
CONTINUOUS
 10
158.6764041407
 20
134.0494699989
 11
158.6765024643
 21
134.0493654334
  0
LINE
  8
0
 62
7
  6
CONTINUOUS
 10
165.5911542611
 20
191.3614050295
 11
165.5911542611
 21
183.5317413432
  0
LINE
  8
0
 62
7
  6
CONTINUOUS
 10
165.5911542611
 20
200.3132502273
 11
165.5911542611
 21
191.3866010634
  0
LINE
  8
0
 62
7
  6
CONTINUOUS
 10
165.5911542611
 20
183.5132502273
 11
165.5911542611
 21
174.5866010634
  0
LINE
  8
0
 62
7
  6
CONTINUOUS
 10
165.5911542611
 20
174.5614050295
 11
165.5911542611
 21
166.7317413432
  0
LINE
  8
0
 62
7
  6
CONTINUOUS
 10
165.5911542611
 20
157.7614050295
 11
165.5911542611
 21
149.9317413432
  0
LINE
  8
0
 62
7
  6
CONTINUOUS
 10
165.5911542611
 20
166.7132502273
 11
165.5911542611
 21
157.7866010634
  0
LINE
  8
0
 62
7
  6
CONTINUOUS
 10
165.5911542611
 20
140.9614050295
 11
165.5911542611
 21
133.1317413432
  0
LINE
  8
0
 62
7
  6
CONTINUOUS
 10
165.5911542611
 20
149.9132502273
 11
165.5911542611
 21
140.9866010634
  0
LINE
  8
0
 62
7
  6
CONTINUOUS
 10
165.5911542611
 20
124.1614050295
 11
165.5911542611
 21
116.3317413432
  0
LINE
  8
0
 62
7
  6
CONTINUOUS
 10
165.5911542611
 20
133.1132502273
 11
165.5911542611
 21
124.1866010634
  0
LINE
  8
0
 62
7
  6
CONTINUOUS
 10
165.5911542611
 20
107.3614050295
 11
165.5911542611
 21
99.5317413432
  0
LINE
  8
0
 62
7
  6
CONTINUOUS
 10
165.5911542611
 20
116.3132502273
 11
165.5911542611
 21
107.3866010634
  0
LINE
  8
0
 62
7
  6
CONTINUOUS
 10
165.5911542611
 20
90.5614050295
 11
165.5911542611
 21
82.7317413432
  0
LINE
  8
0
 62
7
  6
CONTINUOUS
 10
165.5911542611
 20
99.5132502273
 11
165.5911542611
 21
90.5866010634
  0
LINE
  8
0
 62
7
  6
CONTINUOUS
 10
165.5911542611
 20
73.7614050295
 11
165.5911542611
 21
65.9317413432
  0
LINE
  8
0
 62
7
  6
CONTINUOUS
 10
165.5911542611
 20
82.7132502273
 11
165.5911542611
 21
73.7866010634
  0
LINE
  8
0
 62
7
  6
CONTINUOUS
 10
165.5911542611
 20
65.9132502273
 11
165.5911542611
 21
57.5465731864
  0
LINE
  8
0
 62
7
  6
CONTINUOUS
 10
165.5911542611
 20
200.3317413432
 11
165.5911542611
 21
208.1465731864
  0
LINE
  8
0
 62
7
  6
CONTINUOUS
 10
167.5911542611
 20
93.4195555818
 11
167.5911542611
 21
96.6735907909
  0
LINE
  8
0
 62
7
  6
CONTINUOUS
 10
167.5911542611
 20
101.8195555818
 11
167.5911542611
 21
105.0735907909
  0
LINE
  8
0
 62
7
  6
CONTINUOUS
 10
167.5911542611
 20
110.2195555818
 11
167.5911542611
 21
113.4735907909
  0
LINE
  8
0
 62
7
  6
CONTINUOUS
 10
167.5911542611
 20
118.6195555818
 11
167.5911542611
 21
121.8735907909
  0
LINE
  8
0
 62
7
  6
CONTINUOUS
 10
167.5911542611
 20
127.0195555818
 11
167.5911542611
 21
130.2735907909
  0
LINE
  8
0
 62
7
  6
CONTINUOUS
 10
167.5911542611
 20
135.4195555818
 11
167.5911542611
 21
138.6735907909
  0
LINE
  8
0
 62
7
  6
CONTINUOUS
 10
167.5911542611
 20
143.8195555818
 11
167.5911542611
 21
147.0735907909
  0
LINE
  8
0
 62
7
  6
CONTINUOUS
 10
167.5911542611
 20
152.2195555818
 11
167.5911542611
 21
155.4735907909
  0
LINE
  8
0
 62
7
  6
CONTINUOUS
 10
167.5911542611
 20
160.6195555818
 11
167.5911542611
 21
163.8735907909
  0
LINE
  8
0
 62
7
  6
CONTINUOUS
 10
167.5911542611
 20
169.0195555818
 11
167.5911542611
 21
172.2735907909
  0
LINE
  8
0
 62
7
  6
CONTINUOUS
 10
167.5911542611
 20
177.4195555818
 11
167.5911542611
 21
180.6735907909
  0
LINE
  8
0
 62
7
  6
CONTINUOUS
 10
167.5911542611
 20
185.8195555818
 11
167.5911542611
 21
189.0735907909
  0
LINE
  8
0
 62
7
  6
CONTINUOUS
 10
167.5911542611
 20
194.2195555818
 11
167.5911542611
 21
197.4735907909
  0
LINE
  8
0
 62
7
  6
CONTINUOUS
 10
167.5911542611
 20
202.6195555818
 11
167.5911542611
 21
205.8735907909
  0
LINE
  8
0
 62
7
  6
CONTINUOUS
 10
158.874438922
 20
78.5021981864
 11
158.8517854475
 21
78.3053232615
  0
LINE
  8
0
 62
7
  6
CONTINUOUS
 10
159.4407757952
 20
77.7934481864
 11
159.4634292677
 21
77.9903231113
  0
LINE
  8
0
 62
7
  6
CONTINUOUS
 10
159.6529980527
 20
77.7934481864
 11
159.6756515252
 21
77.9903231113
  0
LINE
  8
0
 62
7
  6
CONTINUOUS
 10
159.8938453081
 20
77.8328232615
 11
159.9164987805
 21
78.0296981864
  0
LINE
  8
0
 62
7
  6
CONTINUOUS
 10
160.1060675656
 20
77.8328232615
 11
160.128721038
 21
78.0296981864
  0
LINE
  8
0
 62
7
  6
CONTINUOUS
 10
158.9877062982
 20
78.3053232615
 11
159.0103597707
 21
78.4628231113
  0
LINE
  8
0
 62
7
  6
CONTINUOUS
 10
159.1999285557
 20
78.3053232615
 11
159.2225820282
 21
78.4628231113
  0
LINE
  8
0
 62
7
  6
CONTINUOUS
 10
159.3501619053
 20
78.3840731864
 11
159.3275084329
 21
78.2265731113
  0
LINE
  8
0
 62
7
  6
CONTINUOUS
 10
159.3275084329
 20
77.9903231113
 11
159.3048549604
 21
77.8328232615
  0
LINE
  8
0
 62
7
  6
CONTINUOUS
 10
158.6764041417
 20
123.243676375
 11
158.6765024634
 21
123.2437809385
  0
LINE
  8
0
 62
7
  6
CONTINUOUS
 10
161.7477559129
 20
123.3281253105
 11
165.3361945827
 21
124.3537054033
  0
LINE
  8
0
 62
7
  6
CONTINUOUS
 10
150.5114772599
 20
139.2201356376
 11
161.6501952175
 21
140.110465878
  0
LINE
  8
0
 62
7
  6
CONTINUOUS
 10
167.3585933795
 20
143.5701645692
 11
165.5911542611
 21
143.4465731864
  0
LINE
  8
0
 62
7
  6
CONTINUOUS
 10
167.3585933795
 20
138.9229818035
 11
165.5911542611
 21
139.0465731864
  0
LINE
  8
0
 62
7
  6
CONTINUOUS
 10
159.4634292677
 20
78.2265731113
 11
159.4860827401
 21
78.3446981113
  0
LINE
  8
0
 62
7
  6
CONTINUOUS
 10
159.6756515252
 20
78.2265731113
 11
159.6983049977
 21
78.3446981113
  0
LINE
  8
0
 62
7
  6
CONTINUOUS
 10
159.7805779457
 20
77.9903231113
 11
159.7579244732
 21
77.8721981113
  0
LINE
  8
0
 62
7
  6
CONTINUOUS
 10
167.3585933795
 20
147.3229818035
 11
165.5911542611
 21
147.4465731864
  0
LINE
  8
0
 62
7
  6
CONTINUOUS
 10
158.6764041407
 20
150.8494699989
 11
158.6765024643
 21
150.8493654334
  0
POLYLINE
  8
0
 62
7
  6
CONTINUOUS
 66
1
 70
0
  0
VERTEX
  8
0
 62
7
  6
CONTINUOUS
 10
149.8674908776
 20
203.3847242605
  0
VERTEX
  8
0
 62
7
  6
CONTINUOUS
 10
149.838100368
 20
203.468289627
  0
VERTEX
  8
0
 62
7
  6
CONTINUOUS
 10
149.8022857481
 20
203.5584641081
  0
VERTEX
  8
0
 62
7
  6
CONTINUOUS
 10
149.7703611394
 20
203.6248133131
  0
VERTEX
  8
0
 62
7
  6
CONTINUOUS
 10
149.7423412026
 20
203.6693592838
  0
VERTEX
  8
0
 62
7
  6
CONTINUOUS
 10
149.717905011
 20
203.6950121251
  0
VERTEX
  8
0
 62
7
  6
CONTINUOUS
 10
149.6964600453
 20
203.7041995166
  0
SEQEND
  0
POLYLINE
  8
0
 62
7
  6
CONTINUOUS
 66
1
 70
0
  0
VERTEX
  8
0
 62
7
  6
CONTINUOUS
 10
149.8675150651
 20
203.3848156348
  0
VERTEX
  8
0
 62
7
  6
CONTINUOUS
 10
149.877466926
 20
203.3517905043
  0
VERTEX
  8
0
 62
7
  6
CONTINUOUS
 10
149.8924111005
 20
203.2644510943
  0
VERTEX
  8
0
 62
7
  6
CONTINUOUS
 10
149.8940398842
 20
203.2241258077
  0
SEQEND
  0
LINE
  8
0
 62
7
  6
CONTINUOUS
 10
159.3954688503
 20
78.5415732615
 11
159.3501619053
 21
78.3840731864
  0
LINE
  8
0
 62
7
  6
CONTINUOUS
 10
159.3954688503
 20
77.6359481113
 11
159.4407757952
 21
77.7934481864
  0
LINE
  8
0
 62
7
  6
CONTINUOUS
 10
159.6076911078
 20
77.6359481113
 11
159.6529980527
 21
77.7934481864
  0
LINE
  8
0
 62
7
  6
CONTINUOUS
 10
158.9423993453
 20
78.6990731113
 11
158.874438922
 21
78.5021981864
  0
LINE
  8
0
 62
7
  6
CONTINUOUS
 10
159.4860827401
 20
78.3446981113
 11
159.5313896851
 21
78.4628231113
  0
LINE
  8
0
 62
7
  6
CONTINUOUS
 10
159.3048549604
 20
77.8328232615
 11
159.2595480154
 21
77.7146982615
  0
LINE
  8
0
 62
7
  6
CONTINUOUS
 10
159.6983049977
 20
78.3446981113
 11
159.7281147354
 21
78.422418542
  0
LINE
  8
0
 62
7
  6
CONTINUOUS
 10
158.6764041417
 20
106.443676375
 11
158.6765024634
 21
106.4437809385
  0
LINE
  8
0
 62
7
  6
CONTINUOUS
 10
167.3585933795
 20
151.9701645692
 11
165.5911542611
 21
151.8465731864
  0
LINE
  8
0
 62
7
  6
CONTINUOUS
 10
150.5114772599
 20
151.6730107351
 11
161.6501952175
 21
150.7826804947
  0
LINE
  8
0
 62
7
  6
CONTINUOUS
 10
161.7477559129
 20
150.7650210622
 11
165.3361945827
 21
149.7394409695
  0
LINE
  8
0
 62
7
  6
CONTINUOUS
 10
159.8258848906
 20
77.6753231864
 11
159.8938453081
 21
77.8328232615
  0
LINE
  8
0
 62
7
  6
CONTINUOUS
 10
160.0381071482
 20
77.6753231864
 11
160.1060675656
 21
77.8328232615
  0
LINE
  8
0
 62
7
  6
CONTINUOUS
 10
161.7477559129
 20
106.5281253105
 11
165.3361945827
 21
107.5537054033
  0
LINE
  8
0
 62
7
  6
CONTINUOUS
 10
150.5114772599
 20
156.0201356376
 11
161.6501952175
 21
156.910465878
  0
LINE
  8
0
 62
7
  6
CONTINUOUS
 10
167.3585933795
 20
155.7229818035
 11
165.5911542611
 21
155.8465731864
  0
LINE
  8
0
 62
7
  6
CONTINUOUS
 10
158.6764041407
 20
167.6494699989
 11
158.6765024643
 21
167.6493654334
  0
LINE
  8
0
 62
7
  6
CONTINUOUS
 10
159.0103597707
 20
78.4628231113
 11
159.078320204
 21
78.5809481113
  0
LINE
  8
0
 62
7
  6
CONTINUOUS
 10
159.2225820282
 20
78.4628231113
 11
159.2905424615
 21
78.5809481113
  0
LINE
  8
0
 62
7
  6
CONTINUOUS
 10
159.4860827401
 20
78.6990731113
 11
159.3954688503
 21
78.5415732615
  0
LINE
  8
0
 62
7
  6
CONTINUOUS
 10
159.3048549604
 20
77.4784482615
 11
159.3954688503
 21
77.6359481113
  0
LINE
  8
0
 62
7
  6
CONTINUOUS
 10
159.5170772179
 20
77.4784482615
 11
159.6076911078
 21
77.6359481113
  0
LINE
  8
0
 62
7
  6
CONTINUOUS
 10
159.7579244732
 20
77.8721981113
 11
159.7126175283
 21
77.7934481864
  0
LINE
  8
0
 62
7
  6
CONTINUOUS
 10
158.6764041417
 20
89.643676375
 11
158.6765024634
 21
89.6437809385
  0
LINE
  8
0
 62
7
  6
CONTINUOUS
 10
167.3585933795
 20
160.3701645692
 11
165.5911542611
 21
160.2465731864
  0
LINE
  8
0
 62
7
  6
CONTINUOUS
 10
167.3585933795
 20
164.1229818035
 11
165.5911542611
 21
164.2465731864
  0
LINE
  8
0
 62
7
  6
CONTINUOUS
 10
159.7352710008
 20
77.5571981864
 11
159.8258848906
 21
77.6753231864
  0
LINE
  8
0
 62
7
  6
CONTINUOUS
 10
159.9474932583
 20
77.5571981864
 11
160.0381071482
 21
77.6753231864
  0
LINE
  8
0
 62
7
  6
CONTINUOUS
 10
167.3585933795
 20
168.7701645692
 11
165.5911542611
 21
168.6465731864
  0
LINE
  8
0
 62
7
  6
CONTINUOUS
 10
150.5114772599
 20
168.4730107351
 11
161.6501952175
 21
167.5826804947
  0
LINE
  8
0
 62
7
  6
CONTINUOUS
 10
161.7477559129
 20
167.5650210622
 11
165.3361945827
 21
166.5394409695
  0
LINE
  8
0
 62
7
  6
CONTINUOUS
 10
158.6764041407
 20
184.4494699989
 11
158.6765024643
 21
184.4493654334
  0
LINE
  8
0
 62
7
  6
CONTINUOUS
 10
159.2595480154
 20
77.7146982615
 11
159.1915875663
 21
77.6359481113
  0
LINE
  8
0
 62
7
  6
CONTINUOUS
 10
159.0103597707
 20
79.4078232239
 11
159.9164987805
 21
80.3921981864
  0
LINE
  8
0
 62
7
  6
CONTINUOUS
 10
159.2225820282
 20
79.4078232239
 11
160.128721038
 21
80.3921981864
  0
LINE
  8
0
 62
7
  6
CONTINUOUS
 10
158.6764041417
 20
72.843676375
 11
158.6765024634
 21
72.8437809385
  0
LINE
  8
0
 62
7
  6
CONTINUOUS
 10
159.7805779457
 20
80.5103231864
 11
158.8517854475
 21
79.5259482239
  0
LINE
  8
0
 62
7
  6
CONTINUOUS
 10
159.0556667315
 20
78.8171981113
 11
158.9423993453
 21
78.6990731113
  0
LINE
  8
0
 62
7
  6
CONTINUOUS
 10
150.5114772599
 20
172.8201356376
 11
161.6501952175
 21
173.710465878
  0
LINE
  8
0
 62
7
  6
CONTINUOUS
 10
167.3585933795
 20
172.5229818035
 11
165.5911542611
 21
172.6465731864
  0
LINE
  8
0
 62
7
  6
CONTINUOUS
 10
159.2142410388
 20
77.3996981113
 11
159.3048549604
 21
77.4784482615
  0
LINE
  8
0
 62
7
  6
CONTINUOUS
 10
159.7126175283
 20
77.7934481864
 11
159.6673105834
 21
77.7540731113
  0
LINE
  8
0
 62
7
  6
CONTINUOUS
 10
159.4264632963
 20
77.3996981113
 11
159.5170772179
 21
77.4784482615
  0
LINE
  8
0
 62
7
  6
CONTINUOUS
 10
161.7477559129
 20
89.7281253105
 11
165.3361945827
 21
90.7537054033
  0
LINE
  8
0
 62
7
  6
CONTINUOUS
 10
167.3585933795
 20
177.1701645692
 11
165.5911542611
 21
177.0465731864
  0
LINE
  8
0
 62
7
  6
CONTINUOUS
 10
159.078320204
 20
78.5809481113
 11
159.1462806214
 21
78.6203231864
  0
LINE
  8
0
 62
7
  6
CONTINUOUS
 10
159.2905424615
 20
78.5809481113
 11
159.3585028789
 21
78.6203231864
  0
LINE
  8
0
 62
7
  6
CONTINUOUS
 10
159.5313896851
 20
78.4628231113
 11
159.5993501025
 21
78.5021981864
  0
LINE
  8
0
 62
7
  6
CONTINUOUS
 10
159.6673105834
 20
77.5178231113
 11
159.7352710008
 21
77.5571981864
  0
LINE
  8
0
 62
7
  6
CONTINUOUS
 10
159.8795328409
 20
77.5178231113
 11
159.9474932583
 21
77.5571981864
  0
LINE
  8
0
 62
7
  6
CONTINUOUS
 10
159.1462806214
 20
78.8565731864
 11
159.0556667315
 21
78.8171981113
  0
LINE
  8
0
 62
7
  6
CONTINUOUS
 10
159.57669663
 20
78.7384481864
 11
159.4860827401
 21
78.6990731113
  0
LINE
  8
0
 62
7
  6
CONTINUOUS
 10
167.3585933795
 20
185.5701645692
 11
165.5911542611
 21
185.4465731864
  0
LINE
  8
0
 62
7
  6
CONTINUOUS
 10
167.3585933795
 20
180.9229818035
 11
165.5911542611
 21
181.0465731864
  0
LINE
  8
0
 62
7
  6
CONTINUOUS
 10
150.5114772599
 20
185.2730107351
 11
161.6501952175
 21
184.3826804947
  0
LINE
  8
0
 62
7
  6
CONTINUOUS
 10
161.7477559129
 20
184.3650210622
 11
165.3361945827
 21
183.3394409695
  0
POLYLINE
  8
0
 62
7
  6
CONTINUOUS
 66
1
 70
0
  0
VERTEX
  8
0
 62
7
  6
CONTINUOUS
 10
151.9437041457
 20
203.4777858554
  0
VERTEX
  8
0
 62
7
  6
CONTINUOUS
 10
152.0120725905
 20
203.4212883111
  0
VERTEX
  8
0
 62
7
  6
CONTINUOUS
 10
152.0693831548
 20
203.3535999852
  0
VERTEX
  8
0
 62
7
  6
CONTINUOUS
 10
152.1138325681
 20
203.2768506941
  0
VERTEX
  8
0
 62
7
  6
CONTINUOUS
 10
152.1440222367
 20
203.1934553557
  0
VERTEX
  8
0
 62
7
  6
CONTINUOUS
 10
152.15900225
 20
203.1060380065
  0
VERTEX
  8
0
 62
7
  6
CONTINUOUS
 10
152.1606377545
 20
203.0656298096
  0
SEQEND
  0
LINE
  8
0
 62
7
  6
CONTINUOUS
 10
158.6764041407
 20
201.2494699989
 11
158.6765024643
 21
201.2493654334
  0
POLYLINE
  8
0
 62
7
  6
CONTINUOUS
 66
1
 70
0
  0
VERTEX
  8
0
 62
7
  6
CONTINUOUS
 10
159.1527338161
 20
75.9765731864
  0
VERTEX
  8
0
 62
7
  6
CONTINUOUS
 10
159.1733512013
 20
75.9828968145
  0
VERTEX
  8
0
 62
7
  6
CONTINUOUS
 10
159.1928874653
 20
76.0014212066
  0
VERTEX
  8
0
 62
7
  6
CONTINUOUS
 10
159.2103827276
 20
76.0309001389
  0
VERTEX
  8
0
 62
7
  6
CONTINUOUS
 10
159.2250808671
 20
76.0695267794
  0
VERTEX
  8
0
 62
7
  6
CONTINUOUS
 10
159.2364529378
 20
76.1152150461
  0
VERTEX
  8
0
 62
7
  6
CONTINUOUS
 10
159.2441740166
 20
76.1658401248
  0
VERTEX
  8
0
 62
7
  6
CONTINUOUS
 10
159.2480698607
 20
76.219354548
  0
VERTEX
  8
0
 62
7
  6
CONTINUOUS
 10
159.248068937
 20
76.2738174995
  0
VERTEX
  8
0
 62
7
  6
CONTINUOUS
 10
159.2441716017
 20
76.3273279597
  0
VERTEX
  8
0
 62
7
  6
CONTINUOUS
 10
159.2364498487
 20
76.3779469563
  0
VERTEX
  8
0
 62
7
  6
CONTINUOUS
 10
159.2250780522
 20
76.4236287251
  0
VERTEX
  8
0
 62
7
  6
CONTINUOUS
 10
159.2103807808
 20
76.4622503651
  0
VERTEX
  8
0
 62
7
  6
CONTINUOUS
 10
159.192886481
 20
76.4917264461
  0
VERTEX
  8
0
 62
7
  6
CONTINUOUS
 10
159.1733509407
 20
76.5102497201
  0
VERTEX
  8
0
 62
7
  6
CONTINUOUS
 10
159.1527338161
 20
76.5165731864
  0
SEQEND
  0
POLYLINE
  8
0
 62
7
  6
CONTINUOUS
 66
1
 70
0
  0
VERTEX
  8
0
 62
7
  6
CONTINUOUS
 10
158.9405115586
 20
76.5165731864
  0
VERTEX
  8
0
 62
7
  6
CONTINUOUS
 10
158.919948287
 20
76.5102831048
  0
VERTEX
  8
0
 62
7
  6
CONTINUOUS
 10
158.9005249982
 20
76.4919418954
  0
VERTEX
  8
0
 62
7
  6
CONTINUOUS
 10
158.8830641818
 20
76.4626727476
  0
VERTEX
  8
0
 62
7
  6
CONTINUOUS
 10
158.8683334308
 20
76.4241661344
  0
VERTEX
  8
0
 62
7
  6
CONTINUOUS
 10
158.8569149919
 20
76.3785495378
  0
VERTEX
  8
0
 62
7
  6
CONTINUOUS
 10
158.8491115934
 20
76.3276671624
  0
VERTEX
  8
0
 62
7
  6
CONTINUOUS
 10
158.8451866038
 20
76.2740984615
  0
VERTEX
  8
0
 62
7
  6
CONTINUOUS
 10
158.8451866038
 20
76.2190479112
  0
VERTEX
  8
0
 62
7
  6
CONTINUOUS
 10
158.8491115934
 20
76.1654792103
  0
VERTEX
  8
0
 62
7
  6
CONTINUOUS
 10
158.8569149919
 20
76.1145968349
  0
VERTEX
  8
0
 62
7
  6
CONTINUOUS
 10
158.8683334308
 20
76.0689802383
  0
VERTEX
  8
0
 62
7
  6
CONTINUOUS
 10
158.8830641818
 20
76.0304736252
  0
VERTEX
  8
0
 62
7
  6
CONTINUOUS
 10
158.9005249982
 20
76.0012044773
  0
VERTEX
  8
0
 62
7
  6
CONTINUOUS
 10
158.919948287
 20
75.9828632679
  0
VERTEX
  8
0
 62
7
  6
CONTINUOUS
 10
158.9405115586
 20
75.9765731864
  0
SEQEND
  0
POLYLINE
  8
0
 62
7
  6
CONTINUOUS
 66
1
 70
0
  0
VERTEX
  8
0
 62
7
  6
CONTINUOUS
 10
158.9405115586
 20
75.9765731864
  0
VERTEX
  8
0
 62
7
  6
CONTINUOUS
 10
158.9610748302
 20
75.9828632679
  0
VERTEX
  8
0
 62
7
  6
CONTINUOUS
 10
158.980498119
 20
76.0012044773
  0
VERTEX
  8
0
 62
7
  6
CONTINUOUS
 10
158.9979589355
 20
76.0304736252
  0
VERTEX
  8
0
 62
7
  6
CONTINUOUS
 10
159.0126896865
 20
76.0689802383
  0
VERTEX
  8
0
 62
7
  6
CONTINUOUS
 10
159.0241081253
 20
76.1145968349
  0
VERTEX
  8
0
 62
7
  6
CONTINUOUS
 10
159.0319115238
 20
76.1654792103
  0
VERTEX
  8
0
 62
7
  6
CONTINUOUS
 10
159.0358365135
 20
76.2190479112
  0
VERTEX
  8
0
 62
7
  6
CONTINUOUS
 10
159.0358365135
 20
76.2740984615
  0
VERTEX
  8
0
 62
7
  6
CONTINUOUS
 10
159.0319115238
 20
76.3276671624
  0
VERTEX
  8
0
 62
7
  6
CONTINUOUS
 10
159.0241081253
 20
76.3785495378
  0
VERTEX
  8
0
 62
7
  6
CONTINUOUS
 10
159.0126896865
 20
76.4241661344
  0
VERTEX
  8
0
 62
7
  6
CONTINUOUS
 10
158.9979589355
 20
76.4626727476
  0
VERTEX
  8
0
 62
7
  6
CONTINUOUS
 10
158.980498119
 20
76.4919418954
  0
VERTEX
  8
0
 62
7
  6
CONTINUOUS
 10
158.9610748302
 20
76.5102831048
  0
VERTEX
  8
0
 62
7
  6
CONTINUOUS
 10
158.9405115586
 20
76.5165731864
  0
SEQEND
  0
LINE
  8
0
 62
7
  6
CONTINUOUS
 10
150.5114772599
 20
189.6201356376
 11
161.6501952175
 21
190.510465878
  0
LINE
  8
0
 62
7
  6
CONTINUOUS
 10
167.3585933795
 20
189.3229818035
 11
165.5911542611
 21
189.4465731864
  0
POLYLINE
  8
0
 62
7
  6
CONTINUOUS
 66
1
 70
0
  0
VERTEX
  8
0
 62
7
  6
CONTINUOUS
 10
151.8849795122
 20
203.5124396612
  0
VERTEX
  8
0
 62
7
  6
CONTINUOUS
 10
151.9601316989
 20
203.4680880929
  0
VERTEX
  8
0
 62
7
  6
CONTINUOUS
 10
152.0527954845
 20
203.3951106187
  0
VERTEX
  8
0
 62
7
  6
CONTINUOUS
 10
152.1494928265
 20
203.2979261736
  0
VERTEX
  8
0
 62
7
  6
CONTINUOUS
 10
152.2490868538
 20
203.1777759607
  0
VERTEX
  8
0
 62
7
  6
CONTINUOUS
 10
152.3524797209
 20
203.0388000154
  0
SEQEND
  0
LINE
  8
0
 62
7
  6
CONTINUOUS
 10
161.7477559129
 20
72.9281253105
 11
165.3361945827
 21
73.9537054033
  0
LINE
  8
0
 62
7
  6
CONTINUOUS
 10
167.3585933795
 20
193.9701645692
 11
165.5911542611
 21
193.8465731864
  0
LINE
  8
0
 62
7
  6
CONTINUOUS
 10
149.6411542611
 20
197.1664126059
 11
149.6012451929
 21
197.1650189505
  0
LINE
  8
0
 62
7
  6
CONTINUOUS
 10
167.3585933795
 20
197.7229818035
 11
165.5911542611
 21
197.8465731864
  0
LINE
  8
0
 62
7
  6
CONTINUOUS
 10
161.7477559129
 20
201.1650210622
 11
165.3361945827
 21
200.1394409695
  0
LINE
  8
0
 62
7
  6
CONTINUOUS
 10
167.3585933795
 20
202.3701645692
 11
165.5911542611
 21
202.2465731864
  0
LINE
  8
0
 62
7
  6
CONTINUOUS
 10
150.5911542611
 20
208.3465731864
 11
165.3911542611
 21
208.3465731864
  0
LINE
  8
0
 62
7
  6
CONTINUOUS
 10
149.5911542611
 20
203.7115631912
 11
151.7090543917
 21
203.563465187
  0
LINE
  8
0
 62
7
  6
CONTINUOUS
 10
167.3585933795
 20
206.1229818035
 11
165.5911542611
 21
206.2465731864
  0
LINE
  8
0
 62
7
  6
CONTINUOUS
 10
150.8467157553
 20
202.0462147455
 11
161.6501952175
 21
201.1826804947
  0
POLYLINE
  8
0
 62
7
  6
CONTINUOUS
 66
1
 70
0
  0
VERTEX
  8
0
 62
7
  6
CONTINUOUS
 10
151.7090503016
 20
203.5634654561
  0
VERTEX
  8
0
 62
7
  6
CONTINUOUS
 10
151.7880711167
 20
203.54994423
  0
VERTEX
  8
0
 62
7
  6
CONTINUOUS
 10
151.8719218401
 20
203.5188282448
  0
VERTEX
  8
0
 62
7
  6
CONTINUOUS
 10
151.8849795122
 20
203.5124396612
  0
SEQEND
  0
LINE
  8
0
 62
7
  6
CONTINUOUS
 10
43.9029357374
 20
249.4757281553
 11
43.9029357374
 21
246.3633337118
  0
LINE
  8
DEFAULT_1
 62
2
  6
CENTER
 10
49.7029357374
 20
253.8757281553
 11
49.7029357374
 21
251.4758281553
  0
LINE
  8
0
 62
2
  6
CONTINUOUS
 10
49.7029357374
 20
250.3557281553
 11
49.7029357374
 21
248.5957281553
  0
LINE
  8
DEFAULT_1
 62
2
  6
CENTER
 10
49.7029357374
 20
245.0757281553
 11
49.7029357374
 21
247.4756281553
  0
LINE
  8
0
 62
7
  6
CONTINUOUS
 10
55.5029357374
 20
246.3633337118
 11
55.5029357374
 21
249.4757281553
  0
LINE
  8
0
 62
7
  6
CONTINUOUS
 10
55.2265271203
 20
259.2431672738
 11
55.1029357374
 21
257.4757281553
  0
POLYLINE
  8
0
 62
7
  6
CONTINUOUS
 66
1
 70
0
  0
VERTEX
  8
0
 62
7
  6
CONTINUOUS
 10
46.8307012809
 20
241.4757281553
  0
VERTEX
  8
0
 62
7
  6
CONTINUOUS
 10
46.8322985421
 20
241.4782568795
  0
VERTEX
  8
0
 62
7
  6
CONTINUOUS
 10
46.8347091392
 20
241.4858190872
  0
SEQEND
  0
LINE
  8
0
 62
7
  6
CONTINUOUS
 10
58.9793443545
 20
259.2431672738
 11
59.1029357374
 21
257.4757281553
  0
POLYLINE
  8
0
 62
7
  6
CONTINUOUS
 66
1
 70
0
  0
VERTEX
  8
0
 62
7
  6
CONTINUOUS
 10
46.8347091392
 20
241.4858190872
  0
VERTEX
  8
0
 62
7
  6
CONTINUOUS
 10
46.2075121342
 20
241.735008376
  0
VERTEX
  8
0
 62
7
  6
CONTINUOUS
 10
45.5999479511
 20
242.0352425532
  0
VERTEX
  8
0
 62
7
  6
CONTINUOUS
 10
45.018807793
 20
242.3838909558
  0
VERTEX
  8
0
 62
7
  6
CONTINUOUS
 10
44.4692418877
 20
242.7780831511
  0
SEQEND
  0
LINE
  8
0
 62
7
  6
CONTINUOUS
 10
63.7029357374
 20
257.4757281553
 11
63.8265271206
 21
259.243167278
  0
LINE
  8
0
 62
7
  6
CONTINUOUS
 10
54.2029357374
 20
241.4757281553
 11
46.8307012809
 21
241.4757281553
  0
LINE
  8
0
 62
7
  6
CONTINUOUS
 10
96.0029357374
 20
241.4757281553
 11
103.3752170607
 21
241.4757281553
  0
LINE
  8
0
 62
7
  6
CONTINUOUS
 10
74.3501123767
 20
241.5257281553
 11
75.8557590981
 21
241.5257281553
  0
LINE
  8
0
 62
7
  6
CONTINUOUS
 10
68.5029357374
 20
257.4757281553
 11
68.3793443543
 21
259.243167278
  0
LINE
  8
0
 62
7
  6
CONTINUOUS
 10
71.432968978
 20
248.866679533
 11
73.391131925
 21
242.2422559463
  0
LINE
  8
0
 62
7
  6
CONTINUOUS
 10
73.2265271203
 20
259.2431672738
 11
73.1029357374
 21
257.4757281553
  0
LINE
  8
DEFAULT_1
 62
2
  6
CENTER
 10
104.9029357374
 20
249.4757281553
 11
102.5030357374
 21
249.4757281553
  0
LINE
  8
0
 62
2
  6
CONTINUOUS
 10
101.3829357374
 20
249.4757281553
 11
99.6229357374
 21
249.4757281553
  0
LINE
  8
0
 62
7
  6
CONTINUOUS
 10
70.617835594
 20
249.4757281553
 11
68.9251265582
 21
249.4757281553
  0
LINE
  8
DEFAULT_1
 62
2
  6
CENTER
 10
54.1029357374
 20
249.4757281553
 11
51.7030357374
 21
249.4757281553
  0
LINE
  8
0
 62
2
  6
CONTINUOUS
 10
50.5829357374
 20
249.4757281553
 11
48.8229357374
 21
249.4757281553
  0
LINE
  8
DEFAULT_1
 62
2
  6
CENTER
 10
45.3029357374
 20
249.4757281553
 11
47.7028357374
 21
249.4757281553
  0
LINE
  8
0
 62
7
  6
CONTINUOUS
 10
79.5880358808
 20
249.4757281553
 11
81.2807449166
 21
249.4757281553
  0
LINE
  8
DEFAULT_1
 62
2
  6
CENTER
 10
96.1029357374
 20
249.4757281553
 11
98.5028357374
 21
249.4757281553
  0
LINE
  8
0
 62
7
  6
CONTINUOUS
 10
57.7540166802
 20
253.3792934116
 11
68.5906616924
 21
249.5333199351
  0
LINE
  8
0
 62
7
  6
CONTINUOUS
 10
76.9793443545
 20
259.2431672738
 11
77.1029357374
 21
257.4757281553
  0
LINE
  8
0
 62
7
  6
CONTINUOUS
 10
76.8147395498
 20
242.2422559463
 11
78.7729024968
 21
248.866679533
  0
LINE
  8
0
 62
7
  6
CONTINUOUS
 10
81.6152097824
 20
249.5333199351
 11
84.8364194504
 21
250.6765415624
  0
LINE
  8
0
 62
7
  6
CONTINUOUS
 10
81.7029357374
 20
257.4757281553
 11
81.8265271206
 21
259.243167278
  0
LINE
  8
0
 62
7
  6
CONTINUOUS
 10
46.8306544141
 20
257.4757281553
 11
103.3752170607
 21
257.4757281553
  0
LINE
  8
0
 62
7
  6
CONTINUOUS
 10
86.5029357374
 20
257.4757281553
 11
86.3793443543
 21
259.243167278
  0
POLYLINE
  8
0
 62
7
  6
CONTINUOUS
 66
1
 70
0
  0
VERTEX
  8
0
 62
7
  6
CONTINUOUS
 10
54.2740490938
 20
257.4757573355
  0
VERTEX
  8
0
 62
7
  6
CONTINUOUS
 10
54.2095919413
 20
257.4673032639
  0
VERTEX
  8
0
 62
7
  6
CONTINUOUS
 10
54.1494946072
 20
257.4425124852
  0
VERTEX
  8
0
 62
7
  6
CONTINUOUS
 10
54.0978226307
 20
257.4030618429
  0
VERTEX
  8
0
 62
7
  6
CONTINUOUS
 10
54.0580716819
 20
257.3516199995
  0
VERTEX
  8
0
 62
7
  6
CONTINUOUS
 10
54.0329309862
 20
257.2916669256
  0
VERTEX
  8
0
 62
7
  6
CONTINUOUS
 10
54.0241013153
 20
257.227258448
  0
VERTEX
  8
0
 62
7
  6
CONTINUOUS
 10
54.0321798859
 20
257.1627518064
  0
VERTEX
  8
0
 62
7
  6
CONTINUOUS
 10
54.0566199607
 20
257.102510811
  0
VERTEX
  8
0
 62
7
  6
CONTINUOUS
 10
54.09576788
 20
257.0506105732
  0
VERTEX
  8
0
 62
7
  6
CONTINUOUS
 10
54.1469750069
 20
257.0105617935
  0
SEQEND
  0
LINE
  8
0
 62
7
  6
CONTINUOUS
 10
94.729953342
 20
259.4757281553
 11
91.4759181328
 21
259.4757281553
  0
LINE
  8
0
 62
7
  6
CONTINUOUS
 10
76.729953342
 20
259.4757281553
 11
73.4759181328
 21
259.4757281553
  0
LINE
  8
0
 62
7
  6
CONTINUOUS
 10
58.729953342
 20
259.4757281553
 11
55.4759181328
 21
259.4757281553
  0
LINE
  8
0
 62
7
  6
CONTINUOUS
 10
64.0759181745
 20
259.4757281553
 11
68.1299533003
 21
259.4757281553
  0
LINE
  8
0
 62
7
  6
CONTINUOUS
 10
82.0759181745
 20
259.4757281553
 11
86.1299533003
 21
259.4757281553
  0
LINE
  8
0
 62
7
  6
CONTINUOUS
 10
91.2265271203
 20
259.2431672738
 11
91.1029357374
 21
257.4757281553
  0
LINE
  8
0
 62
7
  6
CONTINUOUS
 10
94.9793443545
 20
259.2431672738
 11
95.1029357374
 21
257.4757281553
  0
LINE
  8
DEFAULT_1
 62
2
  6
CENTER
 10
100.5029357374
 20
253.8757281553
 11
100.5029357374
 21
251.4758281553
  0
LINE
  8
0
 62
2
  6
CONTINUOUS
 10
100.5029357374
 20
250.3557281553
 11
100.5029357374
 21
248.5957281553
  0
LINE
  8
DEFAULT_1
 62
2
  6
CENTER
 10
100.5029357374
 20
245.0757281553
 11
100.5029357374
 21
247.4756281553
  0
CIRCLE
  8
0
 62
7
  6
CONTINUOUS
 10
57.1029357374
 20
128.6465731864
 40
2.0
  0
CIRCLE
  8
0
 62
7
  6
CONTINUOUS
 10
57.1029357374
 20
120.2465731864
 40
2.0
  0
CIRCLE
  8
0
 62
7
  6
CONTINUOUS
 10
66.1029357374
 20
120.2465731864
 40
2.0
  0
CIRCLE
  8
0
 62
7
  6
CONTINUOUS
 10
57.1029357374
 20
111.8465731864
 40
2.0
  0
CIRCLE
  8
0
 62
7
  6
CONTINUOUS
 10
57.1029357374
 20
103.4465731864
 40
2.0
  0
CIRCLE
  8
0
 62
7
  6
CONTINUOUS
 10
66.1029357374
 20
103.4465731864
 40
2.0
  0
CIRCLE
  8
0
 62
7
  6
CONTINUOUS
 10
57.1029357374
 20
95.0465731864
 40
2.0
  0
ARC
  8
0
 62
7
  6
CONTINUOUS
 10
66.1029357374
 20
128.6465731864
 40
2.0
 50
56.2510114041
 51
123.7489885959
  0
ARC
  8
0
 62
7
  6
CONTINUOUS
 10
66.1029357374
 20
128.6465731864
 40
2.0
 50
236.2510114041
 51
303.7489885959
  0
ARC
  8
0
 62
7
  6
CONTINUOUS
 10
66.1029357374
 20
111.8465731864
 40
2.0
 50
56.2510114041
 51
123.7489885959
  0
ARC
  8
0
 62
7
  6
CONTINUOUS
 10
66.1029357374
 20
111.8465731864
 40
2.0
 50
236.2510114041
 51
303.7489885959
  0
ARC
  8
0
 62
7
  6
CONTINUOUS
 10
66.1029357374
 20
95.0465731864
 40
2.0
 50
56.2510114041
 51
123.7489885959
  0
ARC
  8
0
 62
7
  6
CONTINUOUS
 10
66.1029357374
 20
95.0465731864
 40
2.0
 50
236.2510114041
 51
303.7489885959
  0
ARC
  8
0
 62
7
  6
CONTINUOUS
 10
67.0029357374
 20
128.6465731864
 40
1.5
 50
303.7489885959
 51
56.2510114041
  0
ARC
  8
0
 62
7
  6
CONTINUOUS
 10
65.2029357374
 20
128.6465731864
 40
1.5
 50
123.7489885959
 51
236.2510114041
  0
ARC
  8
0
 62
7
  6
CONTINUOUS
 10
67.0029357374
 20
111.8465731864
 40
1.5
 50
303.7489885959
 51
56.2510114041
  0
ARC
  8
0
 62
7
  6
CONTINUOUS
 10
65.2029357374
 20
111.8465731864
 40
1.5
 50
123.7489885959
 51
236.2510114041
  0
ARC
  8
0
 62
7
  6
CONTINUOUS
 10
67.0029357374
 20
95.0465731864
 40
1.5
 50
303.7489885959
 51
56.2510114041
  0
ARC
  8
0
 62
7
  6
CONTINUOUS
 10
65.2029357374
 20
95.0465731864
 40
1.5
 50
123.7489885959
 51
236.2510114041
  0
ARC
  8
0
 62
7
  6
CONTINUOUS
 10
54.2243253221
 20
57.5465731864
 40
0.2
 50
180.0
 51
270.0
  0
CIRCLE
  8
0
 62
7
  6
CONTINUOUS
 10
57.1029357374
 20
162.2465731864
 40
2.0
  0
CIRCLE
  8
0
 62
7
  6
CONTINUOUS
 10
57.1029357374
 20
153.8465731864
 40
2.0
  0
CIRCLE
  8
0
 62
7
  6
CONTINUOUS
 10
57.1029357374
 20
145.4465731864
 40
2.0
  0
CIRCLE
  8
0
 62
7
  6
CONTINUOUS
 10
57.1029357374
 20
137.0465731864
 40
2.0
  0
CIRCLE
  8
0
 62
7
  6
CONTINUOUS
 10
57.1029357374
 20
170.6465731864
 40
2.0
  0
CIRCLE
  8
0
 62
7
  6
CONTINUOUS
 10
57.1029357374
 20
204.2465731864
 40
2.0
  0
CIRCLE
  8
0
 62
7
  6
CONTINUOUS
 10
57.1029357374
 20
195.8465731864
 40
2.0
  0
CIRCLE
  8
0
 62
7
  6
CONTINUOUS
 10
57.1029357374
 20
187.4465731864
 40
2.0
  0
CIRCLE
  8
0
 62
7
  6
CONTINUOUS
 10
57.1029357374
 20
179.0465731864
 40
2.0
  0
CIRCLE
  8
0
 62
7
  6
CONTINUOUS
 10
66.1029357374
 20
153.8465731864
 40
2.0
  0
CIRCLE
  8
0
 62
7
  6
CONTINUOUS
 10
66.1029357374
 20
137.0465731864
 40
2.0
  0
ARC
  8
0
 62
7
  6
CONTINUOUS
 10
66.1029357374
 20
162.2465731864
 40
2.0
 50
56.2510114041
 51
123.7489885959
  0
ARC
  8
0
 62
7
  6
CONTINUOUS
 10
66.1029357374
 20
162.2465731864
 40
2.0
 50
236.2510114041
 51
303.7489885959
  0
ARC
  8
0
 62
7
  6
CONTINUOUS
 10
66.1029357374
 20
145.4465731864
 40
2.0
 50
56.2510114041
 51
123.7489885959
  0
ARC
  8
0
 62
7
  6
CONTINUOUS
 10
66.1029357374
 20
145.4465731864
 40
2.0
 50
236.2510114041
 51
303.7489885959
  0
ARC
  8
0
 62
7
  6
CONTINUOUS
 10
67.0029357374
 20
162.2465731864
 40
1.5
 50
303.7489885959
 51
56.2510114041
  0
ARC
  8
0
 62
7
  6
CONTINUOUS
 10
65.2029357374
 20
162.2465731864
 40
1.5
 50
123.7489885959
 51
236.2510114041
  0
ARC
  8
0
 62
7
  6
CONTINUOUS
 10
67.0029357374
 20
145.4465731864
 40
1.5
 50
303.7489885959
 51
56.2510114041
  0
ARC
  8
0
 62
7
  6
CONTINUOUS
 10
65.2029357374
 20
145.4465731864
 40
1.5
 50
123.7489885959
 51
236.2510114041
  0
CIRCLE
  8
0
 62
7
  6
CONTINUOUS
 10
66.1029357374
 20
170.6465731864
 40
2.0
  0
ARC
  8
0
 62
7
  6
CONTINUOUS
 10
66.1029357374
 20
195.8465731864
 40
2.0
 50
236.2510114041
 51
303.7489885959
  0
ARC
  8
0
 62
7
  6
CONTINUOUS
 10
66.1029357374
 20
195.8465731864
 40
2.0
 50
56.2510114041
 51
123.7489885959
  0
ARC
  8
0
 62
7
  6
CONTINUOUS
 10
66.1029357374
 20
179.0465731864
 40
2.0
 50
56.2510114041
 51
123.7489885959
  0
ARC
  8
0
 62
7
  6
CONTINUOUS
 10
66.1029357374
 20
179.0465731864
 40
2.0
 50
236.2510114041
 51
303.7489885959
  0
CIRCLE
  8
0
 62
7
  6
CONTINUOUS
 10
66.1029357374
 20
204.2465731864
 40
2.0
  0
CIRCLE
  8
0
 62
7
  6
CONTINUOUS
 10
66.1029357374
 20
187.4465731864
 40
2.0
  0
ARC
  8
0
 62
7
  6
CONTINUOUS
 10
67.0029357374
 20
195.8465731864
 40
1.5
 50
303.7489885959
 51
56.2510114041
  0
ARC
  8
0
 62
7
  6
CONTINUOUS
 10
65.2029357374
 20
195.8465731864
 40
1.5
 50
123.7489885959
 51
236.2510114041
  0
ARC
  8
0
 62
7
  6
CONTINUOUS
 10
67.0029357374
 20
179.0465731864
 40
1.5
 50
303.7489885959
 51
56.2510114041
  0
ARC
  8
0
 62
7
  6
CONTINUOUS
 10
65.2029357374
 20
179.0465731864
 40
1.5
 50
123.7489885959
 51
236.2510114041
  0
CIRCLE
  8
0
 62
7
  6
CONTINUOUS
 10
75.1029357374
 20
128.6465731864
 40
2.0
  0
CIRCLE
  8
0
 62
7
  6
CONTINUOUS
 10
93.1029357374
 20
128.6465731864
 40
2.0
  0
CIRCLE
  8
0
 62
7
  6
CONTINUOUS
 10
75.1029357374
 20
120.2465731864
 40
2.0
  0
CIRCLE
  8
0
 62
7
  6
CONTINUOUS
 10
84.1029357374
 20
120.2465731864
 40
2.0
  0
CIRCLE
  8
0
 62
7
  6
CONTINUOUS
 10
93.1029357374
 20
120.2465731864
 40
2.0
  0
CIRCLE
  8
0
 62
7
  6
CONTINUOUS
 10
75.1029357374
 20
111.8465731864
 40
2.0
  0
CIRCLE
  8
0
 62
7
  6
CONTINUOUS
 10
93.1029357374
 20
111.8465731864
 40
2.0
  0
CIRCLE
  8
0
 62
7
  6
CONTINUOUS
 10
75.1029357374
 20
103.4465731864
 40
2.0
  0
CIRCLE
  8
0
 62
7
  6
CONTINUOUS
 10
84.1029357374
 20
103.4465731864
 40
2.0
  0
CIRCLE
  8
0
 62
7
  6
CONTINUOUS
 10
93.1029357374
 20
103.4465731864
 40
2.0
  0
CIRCLE
  8
0
 62
7
  6
CONTINUOUS
 10
75.1029357374
 20
95.0465731864
 40
2.0
  0
CIRCLE
  8
0
 62
7
  6
CONTINUOUS
 10
93.1029357374
 20
95.0465731864
 40
2.0
  0
ARC
  8
0
 62
7
  6
CONTINUOUS
 10
84.1029357374
 20
128.6465731864
 40
2.0
 50
56.2510114041
 51
123.7489885959
  0
ARC
  8
0
 62
7
  6
CONTINUOUS
 10
84.1029357374
 20
128.6465731864
 40
2.0
 50
236.2510114041
 51
303.7489885959
  0
ARC
  8
0
 62
7
  6
CONTINUOUS
 10
84.1029357374
 20
111.8465731864
 40
2.0
 50
56.2510114041
 51
123.7489885959
  0
ARC
  8
0
 62
7
  6
CONTINUOUS
 10
84.1029357374
 20
111.8465731864
 40
2.0
 50
236.2510114041
 51
303.7489885959
  0
ARC
  8
0
 62
7
  6
CONTINUOUS
 10
84.1029357374
 20
95.0465731864
 40
2.0
 50
56.2510114041
 51
123.7489885959
  0
ARC
  8
0
 62
7
  6
CONTINUOUS
 10
84.1029357374
 20
95.0465731864
 40
2.0
 50
236.2510114041
 51
303.7489885959
  0
ARC
  8
0
 62
7
  6
CONTINUOUS
 10
85.0029357374
 20
128.6465731864
 40
1.5
 50
303.7489885959
 51
56.2510114041
  0
ARC
  8
0
 62
7
  6
CONTINUOUS
 10
83.2029357374
 20
128.6465731864
 40
1.5
 50
123.7489885959
 51
236.2510114041
  0
ARC
  8
0
 62
7
  6
CONTINUOUS
 10
85.0029357374
 20
111.8465731864
 40
1.5
 50
303.7489885959
 51
56.2510114041
  0
ARC
  8
0
 62
7
  6
CONTINUOUS
 10
83.2029357374
 20
111.8465731864
 40
1.5
 50
123.7489885959
 51
236.2510114041
  0
ARC
  8
0
 62
7
  6
CONTINUOUS
 10
85.0029357374
 20
95.0465731864
 40
1.5
 50
303.7489885959
 51
56.2510114041
  0
ARC
  8
0
 62
7
  6
CONTINUOUS
 10
83.2029357374
 20
95.0465731864
 40
1.5
 50
123.7489885959
 51
236.2510114041
  0
CIRCLE
  8
0
 62
7
  6
CONTINUOUS
 10
75.1029357374
 20
170.6465731864
 40
2.0
  0
CIRCLE
  8
0
 62
7
  6
CONTINUOUS
 10
84.1029357374
 20
170.6465731864
 40
2.0
  0
CIRCLE
  8
0
 62
7
  6
CONTINUOUS
 10
75.1029357374
 20
162.2465731864
 40
2.0
  0
CIRCLE
  8
0
 62
7
  6
CONTINUOUS
 10
75.1029357374
 20
153.8465731864
 40
2.0
  0
CIRCLE
  8
0
 62
7
  6
CONTINUOUS
 10
84.1029357374
 20
153.8465731864
 40
2.0
  0
CIRCLE
  8
0
 62
7
  6
CONTINUOUS
 10
75.1029357374
 20
145.4465731864
 40
2.0
  0
CIRCLE
  8
0
 62
7
  6
CONTINUOUS
 10
75.1029357374
 20
137.0465731864
 40
2.0
  0
CIRCLE
  8
0
 62
7
  6
CONTINUOUS
 10
84.1029357374
 20
137.0465731864
 40
2.0
  0
ARC
  8
0
 62
7
  6
CONTINUOUS
 10
84.1029357374
 20
162.2465731864
 40
2.0
 50
56.2510114041
 51
123.7489885959
  0
ARC
  8
0
 62
7
  6
CONTINUOUS
 10
84.1029357374
 20
162.2465731864
 40
2.0
 50
236.2510114041
 51
303.7489885959
  0
ARC
  8
0
 62
7
  6
CONTINUOUS
 10
84.1029357374
 20
145.4465731864
 40
2.0
 50
56.2510114041
 51
123.7489885959
  0
ARC
  8
0
 62
7
  6
CONTINUOUS
 10
84.1029357374
 20
145.4465731864
 40
2.0
 50
236.2510114041
 51
303.7489885959
  0
ARC
  8
0
 62
7
  6
CONTINUOUS
 10
85.0029357374
 20
162.2465731864
 40
1.5
 50
303.7489885959
 51
56.2510114041
  0
ARC
  8
0
 62
7
  6
CONTINUOUS
 10
83.2029357374
 20
162.2465731864
 40
1.5
 50
123.7489885959
 51
236.2510114041
  0
ARC
  8
0
 62
7
  6
CONTINUOUS
 10
85.0029357374
 20
145.4465731864
 40
1.5
 50
303.7489885959
 51
56.2510114041
  0
ARC
  8
0
 62
7
  6
CONTINUOUS
 10
83.2029357374
 20
145.4465731864
 40
1.5
 50
123.7489885959
 51
236.2510114041
  0
ARC
  8
0
 62
7
  6
CONTINUOUS
 10
84.1029357374
 20
195.8465731864
 40
2.0
 50
56.2510114041
 51
123.7489885959
  0
ARC
  8
0
 62
7
  6
CONTINUOUS
 10
84.1029357374
 20
195.8465731864
 40
2.0
 50
236.2510114041
 51
303.7489885959
  0
ARC
  8
0
 62
7
  6
CONTINUOUS
 10
84.1029357374
 20
179.0465731864
 40
2.0
 50
56.2510114041
 51
123.7489885959
  0
ARC
  8
0
 62
7
  6
CONTINUOUS
 10
84.1029357374
 20
179.0465731864
 40
2.0
 50
236.2510114041
 51
303.7489885959
  0
CIRCLE
  8
0
 62
7
  6
CONTINUOUS
 10
75.1029357374
 20
204.2465731864
 40
2.0
  0
CIRCLE
  8
0
 62
7
  6
CONTINUOUS
 10
84.1029357374
 20
204.2465731864
 40
2.0
  0
CIRCLE
  8
0
 62
7
  6
CONTINUOUS
 10
75.1029357374
 20
195.8465731864
 40
2.0
  0
CIRCLE
  8
0
 62
7
  6
CONTINUOUS
 10
75.1029357374
 20
187.4465731864
 40
2.0
  0
CIRCLE
  8
0
 62
7
  6
CONTINUOUS
 10
84.1029357374
 20
187.4465731864
 40
2.0
  0
CIRCLE
  8
0
 62
7
  6
CONTINUOUS
 10
75.1029357374
 20
179.0465731864
 40
2.0
  0
ARC
  8
0
 62
7
  6
CONTINUOUS
 10
85.0029357374
 20
195.8465731864
 40
1.5
 50
303.7489885959
 51
56.2510114041
  0
ARC
  8
0
 62
7
  6
CONTINUOUS
 10
83.2029357374
 20
195.8465731864
 40
1.5
 50
123.7489885959
 51
236.2510114041
  0
ARC
  8
0
 62
7
  6
CONTINUOUS
 10
85.0029357374
 20
179.0465731864
 40
1.5
 50
303.7489885959
 51
56.2510114041
  0
ARC
  8
0
 62
7
  6
CONTINUOUS
 10
83.2029357374
 20
179.0465731864
 40
1.5
 50
123.7489885959
 51
236.2510114041
  0
CIRCLE
  8
0
 62
7
  6
CONTINUOUS
 10
93.1029357374
 20
170.6465731864
 40
2.0
  0
CIRCLE
  8
0
 62
7
  6
CONTINUOUS
 10
93.1029357374
 20
162.2465731864
 40
2.0
  0
CIRCLE
  8
0
 62
7
  6
CONTINUOUS
 10
93.1029357374
 20
153.8465731864
 40
2.0
  0
CIRCLE
  8
0
 62
7
  6
CONTINUOUS
 10
93.1029357374
 20
145.4465731864
 40
2.0
  0
CIRCLE
  8
0
 62
7
  6
CONTINUOUS
 10
93.1029357374
 20
137.0465731864
 40
2.0
  0
CIRCLE
  8
0
 62
7
  6
CONTINUOUS
 10
93.1029357374
 20
179.0465731864
 40
2.0
  0
CIRCLE
  8
0
 62
7
  6
CONTINUOUS
 10
93.1029357374
 20
204.2465731864
 40
2.0
  0
CIRCLE
  8
0
 62
7
  6
CONTINUOUS
 10
93.1029357374
 20
195.8465731864
 40
2.0
  0
CIRCLE
  8
0
 62
7
  6
CONTINUOUS
 10
93.1029357374
 20
187.4465731864
 40
2.0
  0
ARC
  8
0
 62
7
  6
CONTINUOUS
 10
95.9815461527
 20
208.1465731864
 40
0.2
 50
0.0
 51
90.0
  0
ARC
  8
0
 62
7
  6
CONTINUOUS
 10
150.5911542611
 20
58.3465731864
 40
1.0
 50
180.0
 51
270.0
  0
ARC
  8
0
 62
7
  6
CONTINUOUS
 10
150.5911542611
 20
127.469831469
 40
1.0
 50
180.0
 51
197.4745042926
  0
ARC
  8
0
 62
7
  6
CONTINUOUS
 10
150.5911542611
 20
129.8233149037
 40
1.0
 50
162.5254957074
 51
180.0
  0
ARC
  8
0
 62
7
  6
CONTINUOUS
 10
150.5911542611
 20
121.4233149037
 40
1.0
 50
94.57
 51
180.0
  0
ARC
  8
0
 62
7
  6
CONTINUOUS
 10
150.5911542611
 20
110.669831469
 40
1.0
 50
180.0
 51
197.4745042926
  0
ARC
  8
0
 62
7
  6
CONTINUOUS
 10
150.5911542611
 20
113.0233149037
 40
1.0
 50
162.5254957074
 51
180.0
  0
ARC
  8
0
 62
7
  6
CONTINUOUS
 10
150.5911542611
 20
119.069831469
 40
1.0
 50
180.0
 51
265.43
  0
ARC
  8
0
 62
7
  6
CONTINUOUS
 10
150.5911542611
 20
104.6233149037
 40
1.0
 50
94.57
 51
180.0
  0
ARC
  8
0
 62
7
  6
CONTINUOUS
 10
150.5911542611
 20
93.869831469
 40
1.0
 50
180.0
 51
197.4745042926
  0
ARC
  8
0
 62
7
  6
CONTINUOUS
 10
150.5911542611
 20
96.2233149037
 40
1.0
 50
162.5254957074
 51
180.0
  0
ARC
  8
0
 62
7
  6
CONTINUOUS
 10
150.5911542611
 20
102.269831469
 40
1.0
 50
180.0
 51
265.43
  0
ARC
  8
0
 62
7
  6
CONTINUOUS
 10
150.5911542611
 20
87.8233149037
 40
1.0
 50
94.57
 51
180.0
  0
ARC
  8
0
 62
7
  6
CONTINUOUS
 10
150.5911542611
 20
77.069831469
 40
1.0
 50
180.0
 51
197.4745042926
  0
ARC
  8
0
 62
7
  6
CONTINUOUS
 10
150.5911542611
 20
79.4233149037
 40
1.0
 50
162.5254957074
 51
180.0
  0
ARC
  8
0
 62
7
  6
CONTINUOUS
 10
150.5911542611
 20
85.469831469
 40
1.0
 50
180.0
 51
265.43
  0
ARC
  8
0
 62
7
  6
CONTINUOUS
 10
150.5911542611
 20
71.0233149037
 40
1.0
 50
94.57
 51
180.0
  0
ARC
  8
0
 62
7
  6
CONTINUOUS
 10
150.5911542611
 20
68.669831469
 40
1.0
 50
180.0
 51
188.1464641015
  0
ARC
  8
0
 62
7
  6
CONTINUOUS
 10
150.6411542611
 20
58.3465731864
 40
1.0
 50
180.0
 51
270.0
  0
ARC
  8
0
 62
7
  6
CONTINUOUS
 10
158.5910360911
 20
58.3464550164
 40
0.9998818301
 50
180.7781444247
 51
268.0049485052
  0
ARC
  8
0
 62
7
  6
CONTINUOUS
 10
150.5911542611
 20
197.0233149037
 40
1.0
 50
171.8535358985
 51
180.0
  0
ARC
  8
0
 62
7
  6
CONTINUOUS
 10
150.5911542611
 20
194.669831469
 40
1.0
 50
180.0
 51
197.4745042926
  0
ARC
  8
0
 62
7
  6
CONTINUOUS
 10
150.5911542611
 20
188.6233149037
 40
1.0
 50
94.57
 51
180.0
  0
ARC
  8
0
 62
7
  6
CONTINUOUS
 10
150.5911542611
 20
177.869831469
 40
1.0
 50
180.0
 51
197.4745042926
  0
ARC
  8
0
 62
7
  6
CONTINUOUS
 10
150.5911542611
 20
180.2233149037
 40
1.0
 50
162.5254957074
 51
180.0
  0
ARC
  8
0
 62
7
  6
CONTINUOUS
 10
150.5911542611
 20
186.269831469
 40
1.0
 50
180.0
 51
265.43
  0
ARC
  8
0
 62
7
  6
CONTINUOUS
 10
150.5911542611
 20
171.8233149037
 40
1.0
 50
94.57
 51
180.0
  0
ARC
  8
0
 62
7
  6
CONTINUOUS
 10
150.5911542611
 20
161.069831469
 40
1.0
 50
180.0
 51
197.4745042926
  0
ARC
  8
0
 62
7
  6
CONTINUOUS
 10
150.5911542611
 20
163.4233149037
 40
1.0
 50
162.5254957074
 51
180.0
  0
ARC
  8
0
 62
7
  6
CONTINUOUS
 10
150.5911542611
 20
169.469831469
 40
1.0
 50
180.0
 51
265.43
  0
ARC
  8
0
 62
7
  6
CONTINUOUS
 10
150.5911542611
 20
155.0233149037
 40
1.0
 50
94.57
 51
180.0
  0
ARC
  8
0
 62
7
  6
CONTINUOUS
 10
150.5911542611
 20
144.269831469
 40
1.0
 50
180.0
 51
197.4745042926
  0
ARC
  8
0
 62
7
  6
CONTINUOUS
 10
150.5911542611
 20
146.6233149037
 40
1.0
 50
162.5254957074
 51
180.0
  0
ARC
  8
0
 62
7
  6
CONTINUOUS
 10
150.5911542611
 20
152.669831469
 40
1.0
 50
180.0
 51
265.43
  0
ARC
  8
0
 62
7
  6
CONTINUOUS
 10
150.5911542611
 20
138.2233149037
 40
1.0
 50
94.57
 51
180.0
  0
ARC
  8
0
 62
7
  6
CONTINUOUS
 10
150.5911542611
 20
135.869831469
 40
1.0
 50
180.0
 51
265.43
  0
ARC
  8
0
 62
7
  6
CONTINUOUS
 10
150.5911542611
 20
207.3465731864
 40
1.0
 50
90.0
 51
180.0
  0
ARC
  8
0
 62
7
  6
CONTINUOUS
 10
161.610356717
 20
123.808876245
 40
0.5
 50
274.57
 51
285.95
  0
ARC
  8
0
 62
7
  6
CONTINUOUS
 10
161.610356717
 20
107.008876245
 40
0.5
 50
274.57
 51
285.95
  0
ARC
  8
0
 62
7
  6
CONTINUOUS
 10
161.610356717
 20
116.6842701278
 40
0.5
 50
74.05
 51
85.43
  0
ARC
  8
0
 62
7
  6
CONTINUOUS
 10
161.610356717
 20
90.208876245
 40
0.5
 50
274.57
 51
285.95
  0
ARC
  8
0
 62
7
  6
CONTINUOUS
 10
161.610356717
 20
99.8842701278
 40
0.5
 50
74.05
 51
85.43
  0
ARC
  8
0
 62
7
  6
CONTINUOUS
 10
161.610356717
 20
73.408876245
 40
0.5
 50
274.57
 51
285.95
  0
ARC
  8
0
 62
7
  6
CONTINUOUS
 10
161.610356717
 20
83.0842701278
 40
0.5
 50
74.05
 51
85.43
  0
ARC
  8
0
 62
7
  6
CONTINUOUS
 10
161.610356717
 20
66.2842701278
 40
0.5
 50
74.05
 51
85.43
  0
ARC
  8
0
 62
7
  6
CONTINUOUS
 10
167.3411542611
 20
93.4195555818
 40
0.25
 50
274.0
 51
360.0
  0
ARC
  8
0
 62
7
  6
CONTINUOUS
 10
167.3411542611
 20
96.6735907909
 40
0.25
 50
0.0
 51
86.0
  0
ARC
  8
0
 62
7
  6
CONTINUOUS
 10
167.3411542611
 20
101.8195555818
 40
0.25
 50
274.0
 51
360.0
  0
ARC
  8
0
 62
7
  6
CONTINUOUS
 10
167.3411542611
 20
105.0735907909
 40
0.25
 50
0.0
 51
86.0
  0
ARC
  8
0
 62
7
  6
CONTINUOUS
 10
167.3411542611
 20
110.2195555818
 40
0.25
 50
274.0
 51
360.0
  0
ARC
  8
0
 62
7
  6
CONTINUOUS
 10
167.3411542611
 20
113.4735907909
 40
0.25
 50
0.0
 51
86.0
  0
ARC
  8
0
 62
7
  6
CONTINUOUS
 10
167.3411542611
 20
118.6195555818
 40
0.25
 50
274.0
 51
360.0
  0
ARC
  8
0
 62
7
  6
CONTINUOUS
 10
167.3411542611
 20
121.8735907909
 40
0.25
 50
0.0
 51
86.0
  0
ARC
  8
0
 62
7
  6
CONTINUOUS
 10
167.3411542611
 20
127.0195555818
 40
0.25
 50
274.0
 51
360.0
  0
ARC
  8
0
 62
7
  6
CONTINUOUS
 10
167.3411542611
 20
130.2735907909
 40
0.25
 50
0.0
 51
86.0
  0
ARC
  8
0
 62
7
  6
CONTINUOUS
 10
165.3911542611
 20
124.1614050295
 40
0.2
 50
0.0
 51
105.95
  0
ARC
  8
0
 62
7
  6
CONTINUOUS
 10
165.3911542611
 20
116.3317413432
 40
0.2
 50
254.05
 51
360.0
  0
ARC
  8
0
 62
7
  6
CONTINUOUS
 10
165.3911542611
 20
107.3614050295
 40
0.2
 50
0.0
 51
105.95
  0
ARC
  8
0
 62
7
  6
CONTINUOUS
 10
165.3911542611
 20
99.5317413432
 40
0.2
 50
254.05
 51
360.0
  0
ARC
  8
0
 62
7
  6
CONTINUOUS
 10
165.3911542611
 20
90.5614050295
 40
0.2
 50
0.0
 51
105.95
  0
ARC
  8
0
 62
7
  6
CONTINUOUS
 10
165.3911542611
 20
82.7317413432
 40
0.2
 50
254.05
 51
360.0
  0
ARC
  8
0
 62
7
  6
CONTINUOUS
 10
165.3911542611
 20
73.7614050295
 40
0.2
 50
0.0
 51
105.95
  0
ARC
  8
0
 62
7
  6
CONTINUOUS
 10
165.3911542611
 20
65.9317413432
 40
0.2
 50
254.05
 51
360.0
  0
ARC
  8
0
 62
7
  6
CONTINUOUS
 10
165.3911542611
 20
57.5465731864
 40
0.2
 50
270.0
 51
360.0
  0
ARC
  8
0
 62
7
  6
CONTINUOUS
 10
161.610356717
 20
191.008876245
 40
0.5
 50
274.57
 51
285.95
  0
ARC
  8
0
 62
7
  6
CONTINUOUS
 10
161.610356717
 20
200.6842701278
 40
0.5
 50
74.05
 51
85.43
  0
ARC
  8
0
 62
7
  6
CONTINUOUS
 10
161.610356717
 20
174.208876245
 40
0.5
 50
274.57
 51
285.95
  0
ARC
  8
0
 62
7
  6
CONTINUOUS
 10
161.610356717
 20
183.8842701278
 40
0.5
 50
74.05
 51
85.43
  0
ARC
  8
0
 62
7
  6
CONTINUOUS
 10
161.610356717
 20
157.408876245
 40
0.5
 50
274.57
 51
285.95
  0
ARC
  8
0
 62
7
  6
CONTINUOUS
 10
161.610356717
 20
167.0842701278
 40
0.5
 50
74.05
 51
85.43
  0
ARC
  8
0
 62
7
  6
CONTINUOUS
 10
161.610356717
 20
140.608876245
 40
0.5
 50
274.57
 51
285.95
  0
ARC
  8
0
 62
7
  6
CONTINUOUS
 10
161.610356717
 20
150.2842701278
 40
0.5
 50
74.05
 51
85.43
  0
ARC
  8
0
 62
7
  6
CONTINUOUS
 10
161.610356717
 20
133.4842701278
 40
0.5
 50
74.05
 51
85.43
  0
ARC
  8
0
 62
7
  6
CONTINUOUS
 10
167.3411542611
 20
135.4195555818
 40
0.25
 50
274.0
 51
360.0
  0
ARC
  8
0
 62
7
  6
CONTINUOUS
 10
167.3411542611
 20
138.6735907909
 40
0.25
 50
0.0
 51
86.0
  0
ARC
  8
0
 62
7
  6
CONTINUOUS
 10
167.3411542611
 20
143.8195555818
 40
0.25
 50
274.0
 51
360.0
  0
ARC
  8
0
 62
7
  6
CONTINUOUS
 10
167.3411542611
 20
147.0735907909
 40
0.25
 50
0.0
 51
86.0
  0
ARC
  8
0
 62
7
  6
CONTINUOUS
 10
167.3411542611
 20
152.2195555818
 40
0.25
 50
274.0
 51
360.0
  0
ARC
  8
0
 62
7
  6
CONTINUOUS
 10
167.3411542611
 20
155.4735907909
 40
0.25
 50
0.0
 51
86.0
  0
ARC
  8
0
 62
7
  6
CONTINUOUS
 10
167.3411542611
 20
160.6195555818
 40
0.25
 50
274.0
 51
360.0
  0
ARC
  8
0
 62
7
  6
CONTINUOUS
 10
167.3411542611
 20
163.8735907909
 40
0.25
 50
0.0
 51
86.0
  0
ARC
  8
0
 62
7
  6
CONTINUOUS
 10
167.3411542611
 20
169.0195555818
 40
0.25
 50
274.0
 51
360.0
  0
ARC
  8
0
 62
7
  6
CONTINUOUS
 10
167.3411542611
 20
172.2735907909
 40
0.25
 50
0.0
 51
86.0
  0
ARC
  8
0
 62
7
  6
CONTINUOUS
 10
167.3411542611
 20
177.4195555818
 40
0.25
 50
274.0
 51
360.0
  0
ARC
  8
0
 62
7
  6
CONTINUOUS
 10
167.3411542611
 20
180.6735907909
 40
0.25
 50
0.0
 51
86.0
  0
ARC
  8
0
 62
7
  6
CONTINUOUS
 10
167.3411542611
 20
185.8195555818
 40
0.25
 50
274.0
 51
360.0
  0
ARC
  8
0
 62
7
  6
CONTINUOUS
 10
167.3411542611
 20
189.0735907909
 40
0.25
 50
0.0
 51
86.0
  0
ARC
  8
0
 62
7
  6
CONTINUOUS
 10
167.3411542611
 20
194.2195555818
 40
0.25
 50
274.0
 51
360.0
  0
ARC
  8
0
 62
7
  6
CONTINUOUS
 10
167.3411542611
 20
197.4735907909
 40
0.25
 50
0.0
 51
86.0
  0
ARC
  8
0
 62
7
  6
CONTINUOUS
 10
167.3411542611
 20
202.6195555818
 40
0.25
 50
274.0
 51
360.0
  0
ARC
  8
0
 62
7
  6
CONTINUOUS
 10
167.3411542611
 20
205.8735907909
 40
0.25
 50
0.0
 51
86.0
  0
ARC
  8
0
 62
7
  6
CONTINUOUS
 10
165.3911542611
 20
200.3317413432
 40
0.2
 50
254.05
 51
360.0
  0
ARC
  8
0
 62
7
  6
CONTINUOUS
 10
165.3911542611
 20
191.3614050295
 40
0.2
 50
0.0
 51
105.95
  0
ARC
  8
0
 62
7
  6
CONTINUOUS
 10
165.3911542611
 20
183.5317413432
 40
0.2
 50
254.05
 51
360.0
  0
ARC
  8
0
 62
7
  6
CONTINUOUS
 10
165.3911542611
 20
174.5614050295
 40
0.2
 50
0.0
 51
105.95
  0
ARC
  8
0
 62
7
  6
CONTINUOUS
 10
165.3911542611
 20
166.7317413432
 40
0.2
 50
254.05
 51
360.0
  0
ARC
  8
0
 62
7
  6
CONTINUOUS
 10
165.3911542611
 20
157.7614050295
 40
0.2
 50
0.0
 51
105.95
  0
ARC
  8
0
 62
7
  6
CONTINUOUS
 10
165.3911542611
 20
149.9317413432
 40
0.2
 50
254.05
 51
360.0
  0
ARC
  8
0
 62
7
  6
CONTINUOUS
 10
165.3911542611
 20
140.9614050295
 40
0.2
 50
0.0
 51
105.95
  0
ARC
  8
0
 62
7
  6
CONTINUOUS
 10
165.3911542611
 20
133.1317413432
 40
0.2
 50
254.05
 51
360.0
  0
ARC
  8
0
 62
7
  6
CONTINUOUS
 10
165.3911542611
 20
208.1465731864
 40
0.2
 50
0.0
 51
90.0
  0
ARC
  8
0
 62
7
  6
CONTINUOUS
 10
50.7916946171
 20
214.431157098
 40
50.0
 50
36.1628008448
 51
46.2787379139
  0
ARC
  8
0
 62
7
  6
CONTINUOUS
 10
49.6985740177
 20
249.4757281553
 40
8.75
 50
29.0322772227
 51
59.4415682141
  0
ARC
  8
0
 62
7
  6
CONTINUOUS
 10
49.7029357374
 20
249.4757281553
 40
8.5
 50
245.0391640344
 51
250.2500772044
  0
ARC
  8
0
 62
7
  6
CONTINUOUS
 10
49.7029357374
 20
249.4757281553
 40
8.5
 50
109.7499227956
 51
231.9951143277
  0
ARC
  8
0
 62
7
  6
CONTINUOUS
 10
54.2029357374
 20
247.4757281553
 40
6.0
 50
270.0
 51
323.8371991552
  0
ARC
  8
0
 62
7
  6
CONTINUOUS
 10
49.7029357374
 20
249.4757281553
 40
5.8
 50
0.0
 51
180.0
  0
CIRCLE
  8
0
 62
7
  6
CONTINUOUS
 10
49.7029357374
 20
249.4757281553
 40
4.15
  0
ARC
  8
0
 62
7
  6
CONTINUOUS
 10
58.0048653295
 20
254.0860995768
 40
0.75
 50
209.0322772227
 51
250.46
  0
ARC
  8
0
 62
7
  6
CONTINUOUS
 10
58.729953342
 20
259.2257281553
 40
0.25
 50
4.0
 51
90.0
  0
ARC
  8
0
 62
7
  6
CONTINUOUS
 10
55.4759181328
 20
259.2257281553
 40
0.25
 50
90.0
 51
176.0
  0
ARC
  8
0
 62
7
  6
CONTINUOUS
 10
54.2743253221
 20
257.2257281553
 40
0.25
 50
90.0
 51
239.4415682141
  0
ARC
  8
0
 62
7
  6
CONTINUOUS
 10
74.3501123767
 20
242.5257281553
 40
1.0
 50
196.467546793
 51
270.0
  0
ARC
  8
0
 62
7
  6
CONTINUOUS
 10
68.9251265582
 20
250.4757281553
 40
1.0
 50
250.46
 51
270.0
  0
ARC
  8
0
 62
7
  6
CONTINUOUS
 10
70.617835594
 20
248.6257281553
 40
0.85
 50
16.467546793
 51
90.0
  0
ARC
  8
0
 62
7
  6
CONTINUOUS
 10
65.2022195915
 20
250.2053374523
 40
0.5
 50
70.46
 51
133.7212620861
  0
ARC
  8
0
 62
7
  6
CONTINUOUS
 10
68.129953342
 20
259.2257281553
 40
0.25
 50
4.0000009683
 51
90.0000095229
  0
ARC
  8
0
 62
7
  6
CONTINUOUS
 10
64.0759181328
 20
259.2257281553
 40
0.25
 50
89.9999904771
 51
175.9999990317
  0
ARC
  8
0
 62
7
  6
CONTINUOUS
 10
73.4759181328
 20
259.2257281553
 40
0.25
 50
90.0
 51
176.0
  0
ARC
  8
0
 62
7
  6
CONTINUOUS
 10
99.4141768577
 20
214.431157098
 40
50.0
 50
133.7212620861
 51
143.8371991552
  0
ARC
  8
0
 62
7
  6
CONTINUOUS
 10
75.8557590981
 20
242.5257281553
 40
1.0
 50
270.0
 51
343.532453207
  0
ARC
  8
0
 62
7
  6
CONTINUOUS
 10
81.2807449166
 20
250.4757281553
 40
1.0
 50
270.0
 51
289.54
  0
ARC
  8
0
 62
7
  6
CONTINUOUS
 10
79.5880358808
 20
248.6257281553
 40
0.85
 50
90.0
 51
163.532453207
  0
ARC
  8
0
 62
7
  6
CONTINUOUS
 10
85.0036518833
 20
250.2053374523
 40
0.5
 50
46.2787379139
 51
109.54
  0
ARC
  8
0
 62
7
  6
CONTINUOUS
 10
86.129953342
 20
259.2257281553
 40
0.25
 50
4.0000009683
 51
90.0000095229
  0
ARC
  8
0
 62
7
  6
CONTINUOUS
 10
82.0759181328
 20
259.2257281553
 40
0.25
 50
89.9999904771
 51
175.9999990317
  0
ARC
  8
0
 62
7
  6
CONTINUOUS
 10
76.729953342
 20
259.2257281553
 40
0.25
 50
4.0
 51
90.0
  0
ARC
  8
0
 62
7
  6
CONTINUOUS
 10
100.5029357374
 20
249.4757281553
 40
8.5
 50
289.7499227956
 51
70.2500772044
  0
ARC
  8
0
 62
7
  6
CONTINUOUS
 10
96.0029357374
 20
247.4757281553
 40
6.0
 50
216.1628008448
 51
270.0
  0
CIRCLE
  8
0
 62
7
  6
CONTINUOUS
 10
100.5029357374
 20
249.4757281553
 40
4.15
  0
ARC
  8
0
 62
7
  6
CONTINUOUS
 10
94.729953342
 20
259.2257281553
 40
0.25
 50
4.0
 51
90.0
  0
ARC
  8
0
 62
7
  6
CONTINUOUS
 10
91.4759181328
 20
259.2257281553
 40
0.25
 50
90.0
 51
176.0
  0
ENDSEC
  0
EOF
