  0
SECTION
  2
HEADER
  9
$EXTMAX
 10
210.0
 20
297.0
 30
0.0
  9
$EXTMIN
 10
0.0
 20
0.0
 30
0.0
  9
$LIMMIN
 10
0.0
 20
0.0
  9
$LIMMAX
 10
210.0
 20
297.0
  9
$VIEWCTR
 10
105.0
 20
148.5
  9
$VIEWSIZE
 40
297.0
  9
$CLAYER
  8
0
  9
$LTSCALE
 40
19.36
  9
$CELTYPE
  6
BYLAYER
  9
$DIMSCALE
 40
1.0
  9
$DIMASZ
 40
3.5
  9
$DIMEXO
 40
2.2
  9
$DIMDLI
 40
13.376
  9
$DIMEXE
 40
6.336
  9
$DIMCEN
 40
3.168
  9
$DIMLFAC
 40
1.0
  9
$DIMBLK
  1
_FILLED
  9
$DIMTXT
 40
3.5
  9
$PDMODE
 70
3
  9
$PDSIZE
 40
0.3125
  9
$TILEMODE
 70
1
  0
ENDSEC
  0
SECTION
  2
TABLES
  0
TABLE
  2
LTYPE
 70
6
  0
LTYPE
  2
BYBLOCK
 70
0
  3

 72
65
 73
0
 40
0.0
  0
LTYPE
  2
BYLAYER
 70
0
  3

 72
65
 73
0
 40
0.0
  0
LTYPE
  2
CONTINUOUS
 70
64
  3
Solid line
 72
65
 73
0
 40
0.0
  0
LTYPE
  2
CENTER
 70
64
  3
____ _ ____ _ ____ _ ____ _ ____ _ ____ _ ____
 72
65
 73
4
 40
0.6
 49
0.375
 49
-0.075
 49
0.075
 49
-0.075
  0
LTYPE
  2
HIDDEN
 70
64
  3
- - - - - - - - - - - - - - - - - - - -
 72
65
 73
2
 40
0.2
 49
0.1
 49
-0.1
  0
LTYPE
  2
PHANTOM
 70
64
  3
_____ _ _ _____ _ _ _____ _ _ _____
 72
65
 73
6
 40
0.8
 49
0.45
 49
-0.05
 49
0.1
 49
-0.05
 49
0.1
 49
-0.05
  0
LTYPE
  2
DOT
 70
64
  3
. . . . . . . . . . . . . . . . . . . .
 72
65
 73
2
 40
0.2
 49
0.1
 49
-0.1
  0
LTYPE
  2
DASHED
 70
64
  3
- - - - - - - - - - - - - - - - - - - -
 72
65
 73
2
 40
0.2
 49
0.1
 49
-0.1
  0
ENDTAB
  0
TABLE
  2
LAYER
 70
36
  0
LAYER
  2
0
 70
0
 62
7
  6
CONTINUOUS
  0
LAYER
  2
DEFAULT_1
 70
0
 62
7
  6
CENTER
  0
LAYER
  2
DEFAULT_2
 70
0
 62
8
  6
HIDDEN
  0
LAYER
  2
DEFAULT_3
 70
0
 62
7
  6
PHANTOM
  0
LAYER
  2
3_ALL_SYMBOLS
 70
0
 62
7
  6
CONTINUOUS
  0
LAYER
  2
BLANK_PLAN
 70
0
 62
7
  6
CONTINUOUS
  0
LAYER
  2
NOTES
 70
0
 62
7
  6
CONTINUOUS
  0
ENDTAB
  0
TABLE
  2
STYLE
 70
1
  0
STYLE
  2
STANDARD
 70
0
 40
0.0
 41
0.8
 50
0.0
 71
0
 42
0.2
  3
txt
  4

  0
STYLE
  2
TEXTSTYLE_1
 70
0
 40
0.0
 41
0.8
 50
0.0
 71
0
 42
0.2
  3
gdt
  4

  0
STYLE
  2
TEXTSTYLE_2
 70
0
 40
0.0
 41
0.6
 50
0.0
 71
0
 42
0.2
  3
txt
  4

  0
STYLE
  2
TEXTSTYLE_3
 70
0
 40
0.0
 41
1.0
 50
0.0
 71
0
 42
0.2
  3
ftb_____.ttf
  4

  0
STYLE
  2
TEXTSTYLE_4
 70
0
 40
0.0
 41
1.0
 50
0.0
 71
0
 42
0.2
  3
fti_____.ttf
  4

  0
STYLE
  2
TEXTSTYLE_5
 70
0
 40
0.0
 41
1.0
 50
0.0
 71
0
 42
0.2
  3
frutiger light.ttf
  4

  0
STYLE
  2
TEXTSTYLE_6
 70
0
 40
0.0
 41
0.7
 50
0.0
 71
0
 42
0.2
  3
txt
  4

  0
STYLE
  2
TEXTSTYLE_7
 70
0
 40
0.0
 41
0.7
 50
0.0
 71
0
 42
0.2
  3
txt
  4

  0
ENDTAB
  0
ENDSEC
  0
SECTION
  2
BLOCKS
  0
BLOCK
  8
0
 62
2
  6
CONTINUOUS
  2
SYMBOL_8_BL1
 70
64
 10
173.5956734183
 20
35.5937998301
  0
TEXT
  8
0
 62
7
  6
CONTINUOUS
 10
164.6539584268
 20
30.6865562072
  7
TEXTSTYLE_4
 40
1.0655737705
  1
The brand for plastic modular belts and chains
 41
1.0
 72
0
  0
LINE
  8
0
 62
7
  6
CONTINUOUS
 10
149.5737418074
 20
36.1675703219
 11
149.5737418074
 21
34.0364227809
  0
LINE
  8
0
 62
7
  6
CONTINUOUS
 10
149.8628043005
 20
31.0454914852
 11
149.8628043005
 21
31.1422825445
  0
LINE
  8
0
 62
7
  6
CONTINUOUS
 10
149.5737418074
 20
31.1100188581
 11
149.6315543091
 21
30.9164367395
  0
LINE
  8
0
 62
7
  6
CONTINUOUS
 10
150.9671844304
 20
33.9544555678
 11
150.9671844304
 21
36.1675703219
  0
LINE
  8
0
 62
7
  6
CONTINUOUS
 10
151.8862417523
 20
32.1101932727
 11
151.8862417523
 21
30.5937998301
  0
LINE
  8
0
 62
7
  6
CONTINUOUS
 10
152.1753043074
 20
30.5937998301
 11
152.1753043074
 21
31.3358647082
  0
LINE
  8
0
 62
7
  6
CONTINUOUS
 10
152.1753043074
 20
31.4649194539
 11
152.1753043074
 21
32.1101932727
  0
LINE
  8
0
 62
7
  6
CONTINUOUS
 10
149.6315543091
 20
31.3036010218
 11
149.5737418074
 21
31.1100188581
  0
LINE
  8
0
 62
7
  6
CONTINUOUS
 10
149.9784292936
 20
30.8841730531
 11
149.8628043005
 21
31.0454914852
  0
LINE
  8
0
 62
7
  6
CONTINUOUS
 10
151.0768668626
 20
31.400392081
 11
151.1346793074
 21
31.3036010218
  0
LINE
  8
0
 62
7
  6
CONTINUOUS
 10
151.4237418626
 20
31.3036010218
 11
151.3659292523
 21
31.4326557675
  0
LINE
  8
0
 62
7
  6
CONTINUOUS
 10
152.852430332
 20
36.1675703219
 11
152.852430332
 21
34.3642916334
  0
LINE
  8
0
 62
7
  6
CONTINUOUS
 10
152.852430332
 20
33.0528162235
 11
152.852430332
 21
32.3970785186
  0
LINE
  8
0
 62
7
  6
CONTINUOUS
 10
153.2159293074
 20
31.2390736489
 11
153.2159293074
 21
30.5937998301
  0
LINE
  8
0
 62
7
  6
CONTINUOUS
 10
153.5049916972
 20
30.5937998301
 11
153.5049916972
 21
31.2390736489
  0
LINE
  8
0
 62
7
  6
CONTINUOUS
 10
149.8628043005
 20
31.1422825445
 11
149.9206168074
 21
31.2713373354
  0
LINE
  8
0
 62
7
  6
CONTINUOUS
 10
149.6315543091
 20
30.9164367395
 11
149.7471793074
 21
30.7873819712
  0
LINE
  8
0
 62
7
  6
CONTINUOUS
 10
153.1581166972
 20
31.3681283946
 11
153.2159293074
 21
31.2390736489
  0
LINE
  8
0
 62
7
  6
CONTINUOUS
 10
153.9674919177
 20
30.8841730531
 11
154.0253041972
 21
30.7551182848
  0
LINE
  8
0
 62
7
  6
CONTINUOUS
 10
153.5049916972
 20
31.2390736489
 11
153.4471794177
 21
31.400392081
  0
LINE
  8
0
 62
7
  6
CONTINUOUS
 10
153.9674919177
 20
31.4326557675
 11
153.9674919177
 21
31.3681283946
  0
LINE
  8
0
 62
7
  6
CONTINUOUS
 10
153.9674919177
 20
30.9809641124
 11
153.9674919177
 21
30.8841730531
  0
LINE
  8
0
 62
7
  6
CONTINUOUS
 10
154.245872955
 20
32.3970785186
 11
154.245872955
 21
36.1675703219
  0
LINE
  8
0
 62
7
  6
CONTINUOUS
 10
154.2565543074
 20
30.8519093441
 11
154.2565543074
 21
30.9164367395
  0
LINE
  8
0
 62
7
  6
CONTINUOUS
 10
154.5737418074
 20
36.1675703219
 11
154.5737418074
 21
32.3970785186
  0
LINE
  8
0
 62
7
  6
CONTINUOUS
 10
151.3659292523
 20
30.7873819712
 11
151.4237418626
 21
30.9164367395
  0
LINE
  8
0
 62
7
  6
CONTINUOUS
 10
155.759679528
 20
30.6905909007
 11
155.7018665869
 21
30.8519093441
  0
LINE
  8
0
 62
7
  6
CONTINUOUS
 10
155.412804528
 20
31.3681283946
 11
155.412804528
 21
31.2713373354
  0
LINE
  8
0
 62
7
  6
CONTINUOUS
 10
155.412804528
 20
31.1422825445
 11
155.412804528
 21
30.9487004259
  0
LINE
  8
0
 62
7
  6
CONTINUOUS
 10
155.7018665869
 20
30.8519093441
 11
155.7018665869
 21
31.3681283946
  0
LINE
  8
0
 62
7
  6
CONTINUOUS
 10
155.9671844304
 20
32.3970785186
 11
155.9671844304
 21
34.2003572071
  0
LINE
  8
0
 62
7
  6
CONTINUOUS
 10
155.9671844304
 20
35.511832617
 11
155.9671844304
 21
36.1675703219
  0
LINE
  8
0
 62
7
  6
CONTINUOUS
 10
156.279992028
 20
32.1101932727
 11
156.279992028
 21
31.9488748406
  0
LINE
  8
0
 62
7
  6
CONTINUOUS
 10
156.279992028
 20
31.626237886
 11
156.279992028
 21
30.5937998301
  0
LINE
  8
0
 62
7
  6
CONTINUOUS
 10
156.5690540869
 20
30.5937998301
 11
156.5690540869
 21
31.626237886
  0
LINE
  8
0
 62
7
  6
CONTINUOUS
 10
156.5690540869
 20
31.9488748406
 11
156.5690540869
 21
32.1101932727
  0
LINE
  8
0
 62
7
  6
CONTINUOUS
 10
151.1346793074
 20
30.9164367395
 11
151.0768668626
 21
30.8196456577
  0
LINE
  8
0
 62
7
  6
CONTINUOUS
 10
153.4471794177
 20
31.400392081
 11
153.3893668074
 21
31.4649194539
  0
LINE
  8
0
 62
7
  6
CONTINUOUS
 10
154.3143669177
 20
30.7873819712
 11
154.2565543074
 21
30.8519093441
  0
LINE
  8
0
 62
7
  6
CONTINUOUS
 10
155.4706168074
 20
30.6583272086
 11
155.5284290869
 21
30.5937998301
  0
LINE
  8
0
 62
7
  6
CONTINUOUS
 10
155.412804528
 20
30.7551182848
 11
155.4706168074
 21
30.6583272086
  0
LINE
  8
0
 62
7
  6
CONTINUOUS
 10
155.8174918074
 20
30.5937998301
 11
155.759679528
 21
30.6905909007
  0
LINE
  8
0
 62
7
  6
CONTINUOUS
 10
155.7018665869
 20
31.3681283946
 11
155.6440543074
 21
31.4649194539
  0
LINE
  8
0
 62
7
  6
CONTINUOUS
 10
157.0315543074
 20
31.626237886
 11
157.0315543074
 21
30.5937998301
  0
LINE
  8
0
 62
7
  6
CONTINUOUS
 10
157.320617028
 20
30.5937998301
 11
157.320617028
 21
31.3358647082
  0
LINE
  8
0
 62
7
  6
CONTINUOUS
 10
157.320617028
 20
31.4649194539
 11
157.320617028
 21
31.626237886
  0
LINE
  8
0
 62
7
  6
CONTINUOUS
 10
157.852430332
 20
34.6101932727
 11
157.852430332
 21
32.3970785186
  0
LINE
  8
0
 62
7
  6
CONTINUOUS
 10
149.7471793074
 20
31.4326557675
 11
149.6315543091
 21
31.3036010218
  0
LINE
  8
0
 62
7
  6
CONTINUOUS
 10
149.9206168074
 20
31.2713373354
 11
149.9784292936
 21
31.3358647082
  0
LINE
  8
0
 62
7
  6
CONTINUOUS
 10
149.7471793074
 20
30.7873819712
 11
149.8628043005
 21
30.7228545871
  0
LINE
  8
0
 62
7
  6
CONTINUOUS
 10
150.1518667936
 20
30.7873819712
 11
149.9784292936
 21
30.8841730531
  0
LINE
  8
0
 62
7
  6
CONTINUOUS
 10
155.3549915869
 20
31.4326557675
 11
155.412804528
 21
31.3681283946
  0
LINE
  8
0
 62
7
  6
CONTINUOUS
 10
158.3034290869
 20
31.3681283946
 11
158.361242028
 21
31.2068099625
  0
LINE
  8
0
 62
7
  6
CONTINUOUS
 10
158.6503040869
 20
31.2068099625
 11
158.5924918074
 21
31.3681283946
  0
LINE
  8
0
 62
7
  6
CONTINUOUS
 10
158.361242028
 20
31.2068099625
 11
158.361242028
 21
30.5937998301
  0
LINE
  8
0
 62
7
  6
CONTINUOUS
 10
158.6503040869
 20
30.5937998301
 11
158.6503040869
 21
31.2068099625
  0
LINE
  8
0
 62
7
  6
CONTINUOUS
 10
159.1128043074
 20
31.4326557675
 11
159.1128043074
 21
31.3681283946
  0
LINE
  8
0
 62
7
  6
CONTINUOUS
 10
159.245872955
 20
32.3970785186
 11
159.245872955
 21
34.5282260596
  0
LINE
  8
0
 62
7
  6
CONTINUOUS
 10
159.5737418074
 20
36.1675703219
 11
159.5737418074
 21
32.3970785186
  0
LINE
  8
0
 62
7
  6
CONTINUOUS
 10
154.2565543074
 20
30.9164367395
 11
154.3143669177
 21
31.0132277988
  0
LINE
  8
0
 62
7
  6
CONTINUOUS
 10
149.8628043005
 20
30.7228545871
 11
150.0362418212
 21
30.6583272086
  0
LINE
  8
0
 62
7
  6
CONTINUOUS
 10
151.3659292523
 20
31.4326557675
 11
151.1924917523
 21
31.5294468267
  0
LINE
  8
0
 62
7
  6
CONTINUOUS
 10
154.0253041972
 20
30.7551182848
 11
154.1987416972
 21
30.6583272086
  0
LINE
  8
0
 62
7
  6
CONTINUOUS
 10
153.0424918074
 20
31.4326557675
 11
153.1581166972
 21
31.3681283946
  0
LINE
  8
0
 62
7
  6
CONTINUOUS
 10
153.3893668074
 20
31.4649194539
 11
153.2737419177
 21
31.5294468267
  0
LINE
  8
0
 62
7
  6
CONTINUOUS
 10
159.1128043074
 20
30.8519093441
 11
159.228429528
 21
30.7228545871
  0
LINE
  8
0
 62
7
  6
CONTINUOUS
 10
159.4596793074
 20
30.7873819712
 11
159.401867028
 21
30.8519093441
  0
LINE
  8
0
 62
7
  6
CONTINUOUS
 10
159.1128043074
 20
31.3681283946
 11
159.228429528
 21
31.2390736489
  0
LINE
  8
0
 62
7
  6
CONTINUOUS
 10
158.5924918074
 20
31.3681283946
 11
158.534679528
 21
31.4649194539
  0
LINE
  8
0
 62
7
  6
CONTINUOUS
 10
160.9628038663
 20
30.7873819712
 11
160.9628038663
 21
30.8519093441
  0
LINE
  8
0
 62
7
  6
CONTINUOUS
 10
160.9671844304
 20
32.3970785186
 11
160.9671844304
 21
36.1675703219
  0
LINE
  8
0
 62
7
  6
CONTINUOUS
 10
154.0253041972
 20
31.4971831403
 11
153.9674919177
 21
31.4326557675
  0
LINE
  8
0
 62
7
  6
CONTINUOUS
 10
150.9034292799
 20
31.4649194539
 11
151.0768668626
 21
31.400392081
  0
LINE
  8
0
 62
7
  6
CONTINUOUS
 10
155.6440543074
 20
31.4649194539
 11
155.5284290869
 21
31.5294468267
  0
LINE
  8
0
 62
7
  6
CONTINUOUS
 10
159.4596793074
 20
31.3036010218
 11
159.401867028
 21
31.3681283946
  0
LINE
  8
0
 62
7
  6
CONTINUOUS
 10
160.615929528
 20
30.9164367395
 11
160.6737418074
 21
30.8519093441
  0
LINE
  8
0
 62
7
  6
CONTINUOUS
 10
160.9628038663
 20
30.8519093441
 11
160.8471793074
 21
30.9809641124
  0
LINE
  8
0
 62
7
  6
CONTINUOUS
 10
160.615929528
 20
31.4326557675
 11
160.6737418074
 21
31.3681283946
  0
LINE
  8
0
 62
7
  6
CONTINUOUS
 10
160.9628038663
 20
31.3681283946
 11
160.8471793074
 21
31.4971831403
  0
LINE
  8
0
 62
7
  6
CONTINUOUS
 10
154.2565543074
 20
31.3681283946
 11
154.3143669177
 21
31.4326557675
  0
LINE
  8
0
 62
7
  6
CONTINUOUS
 10
154.0831168074
 20
31.1100188581
 11
153.9674919177
 21
30.9809641124
  0
LINE
  8
0
 62
7
  6
CONTINUOUS
 10
155.412804528
 20
30.9487004259
 11
155.3549915869
 21
30.8841730531
  0
LINE
  8
0
 62
7
  6
CONTINUOUS
 10
155.3549915869
 20
30.6905909007
 11
155.412804528
 21
30.7551182848
  0
LINE
  8
0
 62
7
  6
CONTINUOUS
 10
154.1987416972
 20
30.6583272086
 11
154.3143669177
 21
30.6260635193
  0
LINE
  8
0
 62
7
  6
CONTINUOUS
 10
151.1924917523
 20
31.5294468267
 11
150.9612418074
 21
31.5939741996
  0
LINE
  8
0
 62
7
  6
CONTINUOUS
 10
154.5456166972
 20
30.7228545871
 11
154.3143669177
 21
30.7873819712
  0
LINE
  8
0
 62
7
  6
CONTINUOUS
 10
153.2737419177
 20
31.5294468267
 11
153.1003044177
 21
31.5939741996
  0
LINE
  8
0
 62
7
  6
CONTINUOUS
 10
155.5284290869
 20
31.5294468267
 11
155.3549915869
 21
31.5939741996
  0
LINE
  8
0
 62
7
  6
CONTINUOUS
 10
158.187804528
 20
31.4326557675
 11
158.3034290869
 21
31.3681283946
  0
LINE
  8
0
 62
7
  6
CONTINUOUS
 10
158.534679528
 20
31.4649194539
 11
158.4190543074
 21
31.5294468267
  0
LINE
  8
0
 62
7
  6
CONTINUOUS
 10
150.0362418212
 20
30.6583272086
 11
150.2096793212
 21
30.6260635193
  0
LINE
  8
0
 62
7
  6
CONTINUOUS
 10
150.498741835
 20
30.7228545871
 11
150.1518667936
 21
30.7873819712
  0
LINE
  8
0
 62
7
  6
CONTINUOUS
 10
152.9268669177
 20
31.4649194539
 11
153.0424918074
 21
31.4326557675
  0
LINE
  8
0
 62
7
  6
CONTINUOUS
 10
155.239367028
 20
31.4649194539
 11
155.3549915869
 21
31.4326557675
  0
LINE
  8
0
 62
7
  6
CONTINUOUS
 10
159.575304528
 20
30.7551182848
 11
159.4596793074
 21
30.7873819712
  0
LINE
  8
0
 62
7
  6
CONTINUOUS
 10
158.0721793074
 20
31.4649194539
 11
158.187804528
 21
31.4326557675
  0
LINE
  8
0
 62
7
  6
CONTINUOUS
 10
159.228429528
 20
30.7228545871
 11
159.401867028
 21
30.6583272086
  0
LINE
  8
0
 62
7
  6
CONTINUOUS
 10
158.4190543074
 20
31.5294468267
 11
158.2456168074
 21
31.5939741996
  0
LINE
  8
0
 62
7
  6
CONTINUOUS
 10
159.6331168074
 20
31.2390736489
 11
159.4596793074
 21
31.3036010218
  0
LINE
  8
0
 62
7
  6
CONTINUOUS
 10
160.442492028
 20
30.9809641124
 11
160.615929528
 21
30.9164367395
  0
LINE
  8
0
 62
7
  6
CONTINUOUS
 10
160.8471793074
 20
31.4971831403
 11
160.6737418074
 21
31.5617105132
  0
LINE
  8
0
 62
7
  6
CONTINUOUS
 10
159.228429528
 20
31.2390736489
 11
159.4596793074
 21
31.1422825445
  0
LINE
  8
0
 62
7
  6
CONTINUOUS
 10
160.8471793074
 20
30.9809641124
 11
160.615929528
 21
31.0777551716
  0
LINE
  8
0
 62
7
  6
CONTINUOUS
 10
159.401867028
 20
31.3681283946
 11
159.4596793074
 21
31.4326557675
  0
LINE
  8
0
 62
7
  6
CONTINUOUS
 10
149.8628043005
 20
31.4971831403
 11
149.7471793074
 21
31.4326557675
  0
LINE
  8
0
 62
7
  6
CONTINUOUS
 10
149.9784292936
 20
31.3358647082
 11
150.1518667936
 21
31.4326557675
  0
LINE
  8
0
 62
7
  6
CONTINUOUS
 10
152.2909293626
 20
31.5294468267
 11
152.1753043074
 21
31.4649194539
  0
LINE
  8
0
 62
7
  6
CONTINUOUS
 10
152.1753043074
 20
31.3358647082
 11
152.2909293626
 21
31.400392081
  0
LINE
  8
0
 62
7
  6
CONTINUOUS
 10
151.1924917523
 20
30.6905909007
 11
151.3659292523
 21
30.7873819712
  0
LINE
  8
0
 62
7
  6
CONTINUOUS
 10
150.2096793212
 20
30.6260635193
 11
150.5565542799
 21
30.5937998301
  0
LINE
  8
0
 62
7
  6
CONTINUOUS
 10
154.3143669177
 20
30.6260635193
 11
154.5456166972
 21
30.5937998301
  0
LINE
  8
0
 62
7
  6
CONTINUOUS
 10
152.6956168074
 20
31.4971831403
 11
152.9268669177
 21
31.4649194539
  0
LINE
  8
0
 62
7
  6
CONTINUOUS
 10
155.0081169177
 20
31.4971831403
 11
155.239367028
 21
31.4649194539
  0
LINE
  8
0
 62
7
  6
CONTINUOUS
 10
159.4596793074
 20
31.1422825445
 11
160.442492028
 21
30.9809641124
  0
LINE
  8
0
 62
7
  6
CONTINUOUS
 10
160.615929528
 20
31.0777551716
 11
159.6331168074
 21
31.2390736489
  0
LINE
  8
0
 62
7
  6
CONTINUOUS
 10
153.1003044177
 20
31.5939741996
 11
152.9268669177
 21
31.626237886
  0
LINE
  8
0
 62
7
  6
CONTINUOUS
 10
159.401867028
 20
30.6583272086
 11
159.575304528
 21
30.6260635193
  0
LINE
  8
0
 62
7
  6
CONTINUOUS
 10
158.2456168074
 20
31.5939741996
 11
158.0721793074
 21
31.626237886
  0
LINE
  8
0
 62
7
  6
CONTINUOUS
 10
160.5003043074
 20
31.4649194539
 11
160.615929528
 21
31.4326557675
  0
LINE
  8
0
 62
7
  6
CONTINUOUS
 10
160.6737418074
 20
30.8519093441
 11
160.615929528
 21
30.7873819712
  0
LINE
  8
0
 62
7
  6
CONTINUOUS
 10
159.228429528
 20
31.5294468267
 11
159.1128043074
 21
31.4326557675
  0
LINE
  8
0
 62
7
  6
CONTINUOUS
 10
154.1409294177
 20
31.5617105132
 11
154.0253041972
 21
31.4971831403
  0
LINE
  8
0
 62
7
  6
CONTINUOUS
 10
154.1987416972
 20
31.1745462761
 11
154.0831168074
 21
31.1100188581
  0
LINE
  8
0
 62
7
  6
CONTINUOUS
 10
154.3143669177
 20
31.0132277988
 11
154.4299918074
 21
31.0777551716
  0
LINE
  8
0
 62
7
  6
CONTINUOUS
 10
151.8862417523
 20
30.5937998301
 11
152.1753043074
 21
30.5937998301
  0
LINE
  8
0
 62
7
  6
CONTINUOUS
 10
153.2159293074
 20
30.5937998301
 11
153.5049916972
 21
30.5937998301
  0
LINE
  8
0
 62
7
  6
CONTINUOUS
 10
154.5456166972
 20
30.5937998301
 11
154.8924916972
 21
30.5937998301
  0
LINE
  8
0
 62
7
  6
CONTINUOUS
 10
155.5284290869
 20
30.5937998301
 11
155.8174918074
 21
30.5937998301
  0
LINE
  8
0
 62
7
  6
CONTINUOUS
 10
156.279992028
 20
30.5937998301
 11
156.5690540869
 21
30.5937998301
  0
LINE
  8
0
 62
7
  6
CONTINUOUS
 10
157.0315543074
 20
30.5937998301
 11
157.320617028
 21
30.5937998301
  0
LINE
  8
0
 62
7
  6
CONTINUOUS
 10
158.361242028
 20
30.5937998301
 11
158.6503040869
 21
30.5937998301
  0
LINE
  8
0
 62
7
  6
CONTINUOUS
 10
159.922179528
 20
30.5937998301
 11
160.269054528
 21
30.5937998301
  0
LINE
  8
0
 62
7
  6
CONTINUOUS
 10
160.269054528
 20
30.7228545871
 11
159.922179528
 21
30.7228545871
  0
LINE
  8
0
 62
7
  6
CONTINUOUS
 10
154.8924916972
 20
30.7228545871
 11
154.5456166972
 21
30.7228545871
  0
LINE
  8
0
 62
7
  6
CONTINUOUS
 10
159.401867028
 20
30.8519093441
 11
159.1128043074
 21
30.8519093441
  0
LINE
  8
0
 62
7
  6
CONTINUOUS
 10
151.4237418626
 20
30.9164367395
 11
151.1346793074
 21
30.9164367395
  0
LINE
  8
0
 62
7
  6
CONTINUOUS
 10
150.498741835
 20
31.4971831403
 11
150.9034292799
 21
31.4649194539
  0
LINE
  8
0
 62
7
  6
CONTINUOUS
 10
150.9612418074
 20
31.5939741996
 11
150.5565542799
 21
31.626237886
  0
LINE
  8
0
 62
7
  6
CONTINUOUS
 10
159.575304528
 20
30.6260635193
 11
159.922179528
 21
30.5937998301
  0
LINE
  8
0
 62
7
  6
CONTINUOUS
 10
159.922179528
 20
30.7228545871
 11
159.575304528
 21
30.7551182848
  0
LINE
  8
0
 62
7
  6
CONTINUOUS
 10
155.3549915869
 20
31.5939741996
 11
155.0081169177
 21
31.626237886
  0
LINE
  8
0
 62
7
  6
CONTINUOUS
 10
160.1534293074
 20
31.4971831403
 11
160.5003043074
 21
31.4649194539
  0
LINE
  8
0
 62
7
  6
CONTINUOUS
 10
160.5003043074
 20
31.5939741996
 11
160.1534293074
 21
31.626237886
  0
LINE
  8
0
 62
7
  6
CONTINUOUS
 10
157.840929528
 20
31.4971831403
 11
158.0721793074
 21
31.4649194539
  0
LINE
  8
0
 62
7
  6
CONTINUOUS
 10
160.6737418074
 20
31.5617105132
 11
160.5003043074
 21
31.5939741996
  0
LINE
  8
0
 62
7
  6
CONTINUOUS
 10
160.8471793074
 20
30.6905909007
 11
160.9628038663
 21
30.7873819712
  0
LINE
  8
0
 62
7
  6
CONTINUOUS
 10
155.3549915869
 20
30.8841730531
 11
155.1815540869
 21
30.7873819712
  0
LINE
  8
0
 62
7
  6
CONTINUOUS
 10
157.4362415869
 20
31.5294468267
 11
157.320617028
 21
31.4649194539
  0
LINE
  8
0
 62
7
  6
CONTINUOUS
 10
157.320617028
 20
31.3358647082
 11
157.4362415869
 21
31.400392081
  0
LINE
  8
0
 62
7
  6
CONTINUOUS
 10
150.0362418212
 20
31.5617105132
 11
149.8628043005
 21
31.4971831403
  0
LINE
  8
0
 62
7
  6
CONTINUOUS
 10
152.4643666972
 20
31.5939741996
 11
152.2909293626
 21
31.5294468267
  0
LINE
  8
0
 62
7
  6
CONTINUOUS
 10
152.2909293626
 20
31.400392081
 11
152.4643666972
 21
31.4649194539
  0
LINE
  8
0
 62
7
  6
CONTINUOUS
 10
151.0768668626
 20
30.8196456577
 11
150.9034292799
 21
30.7551182848
  0
LINE
  8
0
 62
7
  6
CONTINUOUS
 10
160.5003043074
 20
30.7551182848
 11
160.269054528
 21
30.7228545871
  0
LINE
  8
0
 62
7
  6
CONTINUOUS
 10
154.8924916972
 20
30.5937998301
 11
155.1815540869
 21
30.6260635193
  0
LINE
  8
0
 62
7
  6
CONTINUOUS
 10
160.269054528
 20
30.5937998301
 11
160.615929528
 21
30.6260635193
  0
LINE
  8
0
 62
7
  6
CONTINUOUS
 10
150.5565542799
 20
30.5937998301
 11
150.9612418074
 21
30.6260635193
  0
LINE
  8
0
 62
7
  6
CONTINUOUS
 10
150.9034292799
 20
30.7551182848
 11
150.498741835
 21
30.7228545871
  0
LINE
  8
0
 62
7
  6
CONTINUOUS
 10
154.7768668074
 20
31.1422825445
 11
155.412804528
 21
31.1422825445
  0
LINE
  8
0
 62
7
  6
CONTINUOUS
 10
155.412804528
 20
31.2713373354
 11
154.7768668074
 21
31.2713373354
  0
LINE
  8
0
 62
7
  6
CONTINUOUS
 10
151.1346793074
 20
31.3036010218
 11
151.4237418626
 21
31.3036010218
  0
LINE
  8
0
 62
7
  6
CONTINUOUS
 10
153.9674919177
 20
31.3681283946
 11
154.2565543074
 21
31.3681283946
  0
LINE
  8
0
 62
7
  6
CONTINUOUS
 10
160.6737418074
 20
31.3681283946
 11
160.9628038663
 21
31.3681283946
  0
LINE
  8
0
 62
7
  6
CONTINUOUS
 10
154.6612419177
 20
31.4971831403
 11
155.0081169177
 21
31.4971831403
  0
LINE
  8
0
 62
7
  6
CONTINUOUS
 10
159.8065543074
 20
31.4971831403
 11
160.1534293074
 21
31.4971831403
  0
LINE
  8
0
 62
7
  6
CONTINUOUS
 10
160.1534293074
 20
31.626237886
 11
159.8065543074
 21
31.626237886
  0
LINE
  8
0
 62
7
  6
CONTINUOUS
 10
158.0721793074
 20
31.626237886
 11
157.840929528
 21
31.626237886
  0
LINE
  8
0
 62
7
  6
CONTINUOUS
 10
157.320617028
 20
31.626237886
 11
157.0315543074
 21
31.626237886
  0
LINE
  8
0
 62
7
  6
CONTINUOUS
 10
156.5690540869
 20
31.626237886
 11
156.279992028
 21
31.626237886
  0
LINE
  8
0
 62
7
  6
CONTINUOUS
 10
155.0081169177
 20
31.626237886
 11
154.6612419177
 21
31.626237886
  0
LINE
  8
0
 62
7
  6
CONTINUOUS
 10
152.9268669177
 20
31.626237886
 11
152.6956168074
 21
31.626237886
  0
LINE
  8
0
 62
7
  6
CONTINUOUS
 10
156.279992028
 20
31.9488748406
 11
156.5690540869
 21
31.9488748406
  0
LINE
  8
0
 62
7
  6
CONTINUOUS
 10
156.5690540869
 20
32.1101932727
 11
156.279992028
 21
32.1101932727
  0
LINE
  8
0
 62
7
  6
CONTINUOUS
 10
152.1753043074
 20
32.1101932727
 11
151.8862417523
 21
32.1101932727
  0
LINE
  8
0
 62
7
  6
CONTINUOUS
 10
151.2130860697
 20
32.3970785186
 11
151.6256574183
 21
32.3970785186
  0
LINE
  8
0
 62
7
  6
CONTINUOUS
 10
152.852430332
 20
32.3970785186
 11
154.245872955
 21
32.3970785186
  0
LINE
  8
0
 62
7
  6
CONTINUOUS
 10
154.5737418074
 20
32.3970785186
 11
155.9671844304
 21
32.3970785186
  0
LINE
  8
0
 62
7
  6
CONTINUOUS
 10
157.852430332
 20
32.3970785186
 11
159.245872955
 21
32.3970785186
  0
LINE
  8
0
 62
7
  6
CONTINUOUS
 10
159.5737418074
 20
32.3970785186
 11
160.9671844304
 21
32.3970785186
  0
LINE
  8
0
 62
7
  6
CONTINUOUS
 10
157.6096790869
 20
31.5939741996
 11
157.4362415869
 21
31.5294468267
  0
LINE
  8
0
 62
7
  6
CONTINUOUS
 10
155.1815540869
 20
30.6260635193
 11
155.3549915869
 21
30.6905909007
  0
LINE
  8
0
 62
7
  6
CONTINUOUS
 10
160.615929528
 20
30.6260635193
 11
160.8471793074
 21
30.6905909007
  0
LINE
  8
0
 62
7
  6
CONTINUOUS
 10
160.615929528
 20
30.7873819712
 11
160.5003043074
 21
30.7551182848
  0
LINE
  8
0
 62
7
  6
CONTINUOUS
 10
159.575304528
 20
31.4649194539
 11
159.8065543074
 21
31.4971831403
  0
LINE
  8
0
 62
7
  6
CONTINUOUS
 10
157.6096790869
 20
31.4649194539
 11
157.840929528
 21
31.4971831403
  0
LINE
  8
0
 62
7
  6
CONTINUOUS
 10
154.5456166972
 20
31.1100188581
 11
154.7768668074
 21
31.1422825445
  0
LINE
  8
0
 62
7
  6
CONTINUOUS
 10
157.840929528
 20
31.626237886
 11
157.6096790869
 21
31.5939741996
  0
LINE
  8
0
 62
7
  6
CONTINUOUS
 10
154.4299918074
 20
31.4649194539
 11
154.6612419177
 21
31.4971831403
  0
LINE
  8
0
 62
7
  6
CONTINUOUS
 10
159.8065543074
 20
31.626237886
 11
159.4596793074
 21
31.5939741996
  0
LINE
  8
0
 62
7
  6
CONTINUOUS
 10
154.7768668074
 20
31.2713373354
 11
154.4299918074
 21
31.2390736489
  0
LINE
  8
0
 62
7
  6
CONTINUOUS
 10
150.5565542799
 20
31.626237886
 11
150.2096793212
 21
31.5939741996
  0
LINE
  8
0
 62
7
  6
CONTINUOUS
 10
154.6612419177
 20
31.626237886
 11
154.2565543074
 21
31.5939741996
  0
LINE
  8
0
 62
7
  6
CONTINUOUS
 10
152.0327582009
 20
33.5446195022
 11
151.3770204959
 21
33.5446195022
  0
LINE
  8
0
 62
7
  6
CONTINUOUS
 10
157.4362415869
 20
31.400392081
 11
157.6096790869
 21
31.4649194539
  0
LINE
  8
0
 62
7
  6
CONTINUOUS
 10
159.4596793074
 20
31.4326557675
 11
159.575304528
 21
31.4649194539
  0
LINE
  8
0
 62
7
  6
CONTINUOUS
 10
159.4596793074
 20
31.5939741996
 11
159.228429528
 21
31.5294468267
  0
LINE
  8
0
 62
7
  6
CONTINUOUS
 10
155.1815540869
 20
30.7873819712
 11
154.8924916972
 21
30.7228545871
  0
LINE
  8
0
 62
7
  6
CONTINUOUS
 10
152.4643666972
 20
31.4649194539
 11
152.6956168074
 21
31.4971831403
  0
LINE
  8
0
 62
7
  6
CONTINUOUS
 10
152.6956168074
 20
31.626237886
 11
152.4643666972
 21
31.5939741996
  0
LINE
  8
0
 62
7
  6
CONTINUOUS
 10
150.2674918074
 20
31.4649194539
 11
150.498741835
 21
31.4971831403
  0
LINE
  8
0
 62
7
  6
CONTINUOUS
 10
156.7868565615
 20
35.0200293383
 11
157.4425942664
 21
35.0200293383
  0
LINE
  8
0
 62
7
  6
CONTINUOUS
 10
154.4299918074
 20
31.0777551716
 11
154.5456166972
 21
31.1100188581
  0
LINE
  8
0
 62
7
  6
CONTINUOUS
 10
154.4299918074
 20
31.2390736489
 11
154.1987416972
 21
31.1745462761
  0
LINE
  8
0
 62
7
  6
CONTINUOUS
 10
154.3143669177
 20
31.4326557675
 11
154.4299918074
 21
31.4649194539
  0
LINE
  8
0
 62
7
  6
CONTINUOUS
 10
150.9612418074
 20
30.6260635193
 11
151.1924917523
 21
30.6905909007
  0
LINE
  8
0
 62
7
  6
CONTINUOUS
 10
154.2565543074
 20
31.5939741996
 11
154.1409294177
 21
31.5617105132
  0
LINE
  8
0
 62
7
  6
CONTINUOUS
 10
150.2096793212
 20
31.5939741996
 11
150.0362418212
 21
31.5617105132
  0
LINE
  8
0
 62
7
  6
CONTINUOUS
 10
160.9671844304
 20
36.1675703219
 11
159.5737418074
 21
36.1675703219
  0
LINE
  8
0
 62
7
  6
CONTINUOUS
 10
157.6065286927
 20
36.1675703219
 11
157.1939573441
 21
36.1675703219
  0
LINE
  8
0
 62
7
  6
CONTINUOUS
 10
155.9671844304
 20
36.1675703219
 11
154.5737418074
 21
36.1675703219
  0
LINE
  8
0
 62
7
  6
CONTINUOUS
 10
154.245872955
 20
36.1675703219
 11
152.852430332
 21
36.1675703219
  0
LINE
  8
0
 62
7
  6
CONTINUOUS
 10
150.9671844304
 20
36.1675703219
 11
149.5737418074
 21
36.1675703219
  0
LINE
  8
0
 62
7
  6
CONTINUOUS
 10
150.1518667936
 20
31.4326557675
 11
150.2674918074
 21
31.4649194539
  0
CIRCLE
  8
0
 62
7
  6
CONTINUOUS
 10
160.2704631189
 20
38.5036358957
 40
2.0901639344
  0
ARC
  8
0
 62
7
  6
CONTINUOUS
 10
151.2130860697
 20
34.0364227809
 40
1.6393442623
 50
180.0
 51
270.0
  0
ARC
  8
0
 62
7
  6
CONTINUOUS
 10
157.6065286927
 20
34.5282260596
 40
1.6393442623
 50
0.0
 51
90.0
  0
ARC
  8
0
 62
7
  6
CONTINUOUS
 10
151.6256574183
 20
33.8724883547
 40
1.4754098361
 50
270.0
 51
326.2510114041
  0
ARC
  8
0
 62
7
  6
CONTINUOUS
 10
157.1939573441
 20
34.6921604858
 40
1.4754098361
 50
90.0
 51
146.2510114041
  0
ARC
  8
0
 62
7
  6
CONTINUOUS
 10
152.0327582009
 20
34.3642916334
 40
0.8196721311
 50
270.0
 51
360.0
  0
ARC
  8
0
 62
7
  6
CONTINUOUS
 10
156.7868565615
 20
34.2003572071
 40
0.8196721311
 50
90.0
 51
180.0
  0
ARC
  8
0
 62
7
  6
CONTINUOUS
 10
151.3770204959
 20
33.9544555678
 40
0.4098360656
 50
180.0
 51
270.0
  0
ARC
  8
0
 62
7
  6
CONTINUOUS
 10
157.4425942664
 20
34.6101932727
 40
0.4098360656
 50
0.0
 51
90.0
  0
SOLID
  8
0
 62
7
  6
CONTINUOUS
 10
156.279992028
 20
31.9488752009
 11
156.279992028
 21
32.1101936845
 12
156.5690540869
 22
31.9488752009
 13
156.5690540869
 23
32.1101936845
  0
SOLID
  8
0
 62
7
  6
CONTINUOUS
 10
150.5565542799
 20
31.6262382337
 11
150.9612418074
 21
31.5939740028
 12
150.2096793212
 22
31.5939740028
 13
150.2096793212
 23
31.5939740028
  0
SOLID
  8
0
 62
7
  6
CONTINUOUS
 10
150.0362418212
 20
31.5617111435
 11
150.2096793212
 21
31.5939740028
 12
150.9612418074
 22
31.5939740028
 13
150.9612418074
 23
31.5939740028
  0
SOLID
  8
0
 62
7
  6
CONTINUOUS
 10
150.9612418074
 20
31.5939740028
 11
151.1924917523
 21
31.5294468402
 12
150.0362418212
 22
31.5617111435
 13
150.0362418212
 23
31.5617111435
  0
SOLID
  8
0
 62
7
  6
CONTINUOUS
 10
149.8628043005
 20
31.49718259
 11
150.0362418212
 21
31.5617111435
 12
151.1924917523
 22
31.5294468402
 13
151.1924917523
 23
31.5294468402
  0
SOLID
  8
0
 62
7
  6
CONTINUOUS
 10
149.8628043005
 20
31.49718259
 11
151.1924917523
 21
31.5294468402
 12
150.498741835
 22
31.49718259
 13
150.498741835
 23
31.49718259
  0
SOLID
  8
0
 62
7
  6
CONTINUOUS
 10
150.498741835
 20
31.49718259
 11
151.1924917523
 21
31.5294468402
 12
150.9034292799
 22
31.4649197501
 13
150.9034292799
 23
31.4649197501
  0
SOLID
  8
0
 62
7
  6
CONTINUOUS
 10
151.1924917523
 20
31.5294468402
 11
151.3659292523
 21
31.4326554468
 12
150.9034292799
 22
31.4649197501
 13
150.9034292799
 23
31.4649197501
  0
SOLID
  8
0
 62
7
  6
CONTINUOUS
 10
151.0768668626
 20
31.4003926599
 11
150.9034292799
 21
31.4649197501
 12
151.3659292523
 22
31.4326554468
 13
151.3659292523
 23
31.4326554468
  0
SOLID
  8
0
 62
7
  6
CONTINUOUS
 10
151.0768668626
 20
31.4003926599
 11
151.3659292523
 21
31.4326554468
 12
151.1346793074
 22
31.3036013776
 13
151.1346793074
 23
31.3036013776
  0
SOLID
  8
0
 62
7
  6
CONTINUOUS
 10
151.3659292523
 20
31.4326554468
 11
151.4237418626
 21
31.3036013776
 12
151.1346793074
 22
31.3036013776
 13
151.1346793074
 23
31.3036013776
  0
SOLID
  8
0
 62
7
  6
CONTINUOUS
 10
152.4643666972
 20
31.5939739754
 11
152.6956168074
 21
31.6262382787
 12
152.9268669177
 22
31.6262382787
 13
152.9268669177
 23
31.6262382787
  0
SOLID
  8
0
 62
7
  6
CONTINUOUS
 10
152.9268669177
 20
31.6262382787
 11
153.1003044177
 21
31.5939739754
 12
152.4643666972
 22
31.5939739754
 13
152.4643666972
 23
31.5939739754
  0
SOLID
  8
0
 62
7
  6
CONTINUOUS
 10
152.2909293626
 20
31.5294468852
 11
152.4643666972
 21
31.5939739754
 12
153.1003044177
 22
31.5939739754
 13
153.1003044177
 23
31.5939739754
  0
SOLID
  8
0
 62
7
  6
CONTINUOUS
 10
153.1003044177
 20
31.5939739754
 11
153.2737419177
 21
31.5294468852
 12
152.2909293626
 22
31.5294468852
 13
152.2909293626
 23
31.5294468852
  0
SOLID
  8
0
 62
7
  6
CONTINUOUS
 10
153.2737419177
 20
31.5294468852
 11
152.6956168074
 21
31.4971825369
 12
152.2909293626
 22
31.5294468852
 13
152.2909293626
 23
31.5294468852
  0
SOLID
  8
0
 62
7
  6
CONTINUOUS
 10
152.1753043074
 20
31.4649197951
 11
152.2909293626
 21
31.5294468852
 12
152.6956168074
 22
31.4971825369
 13
152.6956168074
 23
31.4971825369
  0
SOLID
  8
0
 62
7
  6
CONTINUOUS
 10
152.6956168074
 20
31.4971825369
 11
152.4643666972
 21
31.4649197951
 12
152.1753043074
 22
31.4649197951
 13
152.1753043074
 23
31.4649197951
  0
SOLID
  8
0
 62
7
  6
CONTINUOUS
 10
152.6956168074
 20
31.4971825369
 11
153.2737419177
 21
31.5294468852
 12
152.9268669177
 22
31.4649197951
 13
152.9268669177
 23
31.4649197951
  0
SOLID
  8
0
 62
7
  6
CONTINUOUS
 10
153.2737419177
 20
31.5294468852
 11
153.3893668074
 21
31.4649197951
 12
152.9268669177
 22
31.4649197951
 13
152.9268669177
 23
31.4649197951
  0
SOLID
  8
0
 62
7
  6
CONTINUOUS
 10
153.0424918074
 20
31.4326554468
 11
152.9268669177
 21
31.4649197951
 12
153.3893668074
 22
31.4649197951
 13
153.3893668074
 23
31.4649197951
  0
SOLID
  8
0
 62
7
  6
CONTINUOUS
 10
153.3893668074
 20
31.4649197951
 11
153.4471794177
 21
31.4003927049
 12
153.0424918074
 22
31.4326554468
 13
153.0424918074
 23
31.4326554468
  0
SOLID
  8
0
 62
7
  6
CONTINUOUS
 10
153.1581166972
 20
31.3681283566
 11
153.0424918074
 21
31.4326554468
 12
153.4471794177
 22
31.4003927049
 13
153.4471794177
 23
31.4003927049
  0
SOLID
  8
0
 62
7
  6
CONTINUOUS
 10
153.1581166972
 20
31.3681283566
 11
153.4471794177
 21
31.4003927049
 12
153.2159293074
 22
31.2390742213
 13
153.2159293074
 23
31.2390742213
  0
SOLID
  8
0
 62
7
  6
CONTINUOUS
 10
153.4471794177
 20
31.4003927049
 11
153.5049916972
 21
31.2390742213
 12
153.2159293074
 22
31.2390742213
 13
153.2159293074
 23
31.2390742213
  0
SOLID
  8
0
 62
7
  6
CONTINUOUS
 10
152.4643666972
 20
31.4649197951
 11
152.2909293626
 21
31.4003927049
 12
152.1753043074
 22
31.4649197951
 13
152.1753043074
 23
31.4649197951
  0
SOLID
  8
0
 62
7
  6
CONTINUOUS
 10
152.2909293626
 20
31.4003927049
 11
152.1753043074
 21
31.3358640533
 12
152.1753043074
 22
31.4649197951
 13
152.1753043074
 23
31.4649197951
  0
SOLID
  8
0
 62
7
  6
CONTINUOUS
 10
152.1753043074
 20
31.3358640533
 11
151.8862417523
 21
30.5938002869
 12
152.1753043074
 22
31.4649197951
 13
152.1753043074
 23
31.4649197951
  0
SOLID
  8
0
 62
7
  6
CONTINUOUS
 10
152.1753043074
 20
31.4649197951
 11
151.8862417523
 21
30.5938002869
 12
152.1753043074
 22
32.1101937295
 13
152.1753043074
 23
32.1101937295
  0
SOLID
  8
0
 62
7
  6
CONTINUOUS
 10
151.8862417523
 20
30.5938002869
 11
151.8862417523
 21
32.1101937295
 12
152.1753043074
 22
32.1101937295
 13
152.1753043074
 23
32.1101937295
  0
SOLID
  8
0
 62
7
  6
CONTINUOUS
 10
152.1753043074
 20
31.3358640533
 11
152.1753043074
 21
30.5938002869
 12
151.8862417523
 22
30.5938002869
 13
151.8862417523
 23
30.5938002869
  0
SOLID
  8
0
 62
7
  6
CONTINUOUS
 10
153.2159293074
 20
30.5938002869
 11
153.2159293074
 21
31.2390742213
 12
153.5049916972
 22
31.2390742213
 13
153.5049916972
 23
31.2390742213
  0
SOLID
  8
0
 62
7
  6
CONTINUOUS
 10
153.5049916972
 20
31.2390742213
 11
153.5049916972
 21
30.5938002869
 12
153.2159293074
 22
30.5938002869
 13
153.2159293074
 23
30.5938002869
  0
SOLID
  8
0
 62
7
  6
CONTINUOUS
 10
154.2565543074
 20
31.5939738288
 11
154.6612419177
 21
31.6262385959
 12
155.0081169177
 22
31.6262385959
 13
155.0081169177
 23
31.6262385959
  0
SOLID
  8
0
 62
7
  6
CONTINUOUS
 10
155.0081169177
 20
31.6262385959
 11
155.3549915869
 21
31.5939738288
 12
154.2565543074
 22
31.5939738288
 13
154.2565543074
 23
31.5939738288
  0
SOLID
  8
0
 62
7
  6
CONTINUOUS
 10
154.1409294177
 20
31.5617111435
 11
154.2565543074
 21
31.5939738288
 12
155.3549915869
 22
31.5939738288
 13
155.3549915869
 23
31.5939738288
  0
SOLID
  8
0
 62
7
  6
CONTINUOUS
 10
155.3549915869
 20
31.5939738288
 11
155.5284290869
 21
31.5294468402
 12
154.1409294177
 22
31.5617111435
 13
154.1409294177
 23
31.5617111435
  0
SOLID
  8
0
 62
7
  6
CONTINUOUS
 10
154.0253041972
 20
31.4971826249
 11
154.1409294177
 21
31.5617111435
 12
155.5284290869
 22
31.5294468402
 13
155.5284290869
 23
31.5294468402
  0
SOLID
  8
0
 62
7
  6
CONTINUOUS
 10
154.0253041972
 20
31.4971826249
 11
155.5284290869
 21
31.5294468402
 12
154.6612419177
 22
31.4971826249
 13
154.6612419177
 23
31.4971826249
  0
SOLID
  8
0
 62
7
  6
CONTINUOUS
 10
154.6612419177
 20
31.4971826249
 11
155.5284290869
 21
31.5294468402
 12
155.0081169177
 22
31.4971826249
 13
155.0081169177
 23
31.4971826249
  0
SOLID
  8
0
 62
7
  6
CONTINUOUS
 10
155.0081169177
 20
31.4971826249
 11
155.5284290869
 21
31.5294468402
 12
155.239367028
 22
31.4649194065
 13
155.239367028
 23
31.4649194065
  0
SOLID
  8
0
 62
7
  6
CONTINUOUS
 10
155.5284290869
 20
31.5294468402
 11
155.6440543074
 21
31.4649194065
 12
155.239367028
 22
31.4649194065
 13
155.239367028
 23
31.4649194065
  0
SOLID
  8
0
 62
7
  6
CONTINUOUS
 10
153.9674919177
 20
31.4326554138
 11
154.0253041972
 21
31.4971826249
 12
154.6612419177
 22
31.4971826249
 13
154.6612419177
 23
31.4971826249
  0
SOLID
  8
0
 62
7
  6
CONTINUOUS
 10
155.3549915869
 20
31.4326554138
 11
155.239367028
 21
31.4649194065
 12
155.6440543074
 22
31.4649194065
 13
155.6440543074
 23
31.4649194065
  0
SOLID
  8
0
 62
7
  6
CONTINUOUS
 10
155.3549915869
 20
31.4326554138
 11
155.6440543074
 21
31.4649194065
 12
155.412804528
 22
31.3681282026
 13
155.412804528
 23
31.3681282026
  0
SOLID
  8
0
 62
7
  6
CONTINUOUS
 10
155.6440543074
 20
31.4649194065
 11
155.7018665869
 21
31.3681282026
 12
155.412804528
 22
31.3681282026
 13
155.412804528
 23
31.3681282026
  0
SOLID
  8
0
 62
7
  6
CONTINUOUS
 10
155.412804528
 20
31.2713369632
 11
155.412804528
 21
31.3681282026
 12
155.7018665869
 22
31.3681282026
 13
155.7018665869
 23
31.3681282026
  0
SOLID
  8
0
 62
7
  6
CONTINUOUS
 10
155.412804528
 20
31.2713369632
 11
155.7018665869
 21
31.3681282026
 12
155.412804528
 22
31.1422827828
 13
155.412804528
 23
31.1422827828
  0
SOLID
  8
0
 62
7
  6
CONTINUOUS
 10
155.412804528
 20
31.1422827828
 11
155.7018665869
 21
31.3681282026
 12
155.412804528
 22
30.9487004259
 13
155.412804528
 23
30.9487004259
  0
SOLID
  8
0
 62
7
  6
CONTINUOUS
 10
155.7018665869
 20
31.3681282026
 11
155.7018665869
 21
30.8519086025
 12
155.412804528
 22
30.9487004259
 13
155.412804528
 23
30.9487004259
  0
SOLID
  8
0
 62
7
  6
CONTINUOUS
 10
157.6096790869
 20
31.5939736268
 11
157.840929528
 21
31.6262383465
 12
158.0721793074
 22
31.6262383465
 13
158.0721793074
 23
31.6262383465
  0
SOLID
  8
0
 62
7
  6
CONTINUOUS
 10
158.0721793074
 20
31.6262383465
 11
158.2456168074
 21
31.5939736268
 12
157.6096790869
 22
31.5939736268
 13
157.6096790869
 23
31.5939736268
  0
SOLID
  8
0
 62
7
  6
CONTINUOUS
 10
157.4362415869
 20
31.5294472848
 11
157.6096790869
 21
31.5939736268
 12
158.2456168074
 22
31.5939736268
 13
158.2456168074
 23
31.5939736268
  0
SOLID
  8
0
 62
7
  6
CONTINUOUS
 10
158.2456168074
 20
31.5939736268
 11
158.4190543074
 21
31.5294472848
 12
157.4362415869
 22
31.5294472848
 13
157.4362415869
 23
31.5294472848
  0
SOLID
  8
0
 62
7
  6
CONTINUOUS
 10
158.4190543074
 20
31.5294472848
 11
157.840929528
 21
31.4971825369
 12
157.4362415869
 22
31.5294472848
 13
157.4362415869
 23
31.5294472848
  0
SOLID
  8
0
 62
7
  6
CONTINUOUS
 10
157.320617028
 20
31.4649199103
 11
157.4362415869
 21
31.5294472848
 12
157.840929528
 22
31.4971825369
 13
157.840929528
 23
31.4971825369
  0
SOLID
  8
0
 62
7
  6
CONTINUOUS
 10
157.840929528
 20
31.4971825369
 11
157.6096790869
 21
31.4649199103
 12
157.320617028
 22
31.4649199103
 13
157.320617028
 23
31.4649199103
  0
SOLID
  8
0
 62
7
  6
CONTINUOUS
 10
157.840929528
 20
31.4971825369
 11
158.4190543074
 21
31.5294472848
 12
158.0721793074
 22
31.4649199103
 13
158.0721793074
 23
31.4649199103
  0
SOLID
  8
0
 62
7
  6
CONTINUOUS
 10
158.4190543074
 20
31.5294472848
 11
158.534679528
 21
31.4649199103
 12
158.0721793074
 22
31.4649199103
 13
158.0721793074
 23
31.4649199103
  0
SOLID
  8
0
 62
7
  6
CONTINUOUS
 10
158.187804528
 20
31.4326554468
 11
158.0721793074
 21
31.4649199103
 12
158.534679528
 22
31.4649199103
 13
158.534679528
 23
31.4649199103
  0
SOLID
  8
0
 62
7
  6
CONTINUOUS
 10
158.187804528
 20
31.4326554468
 11
158.534679528
 21
31.4649199103
 12
158.3034290869
 22
31.3681288486
 13
158.3034290869
 23
31.3681288486
  0
SOLID
  8
0
 62
7
  6
CONTINUOUS
 10
158.534679528
 20
31.4649199103
 11
158.5924918074
 21
31.3681288486
 12
158.3034290869
 22
31.3681288486
 13
158.3034290869
 23
31.3681288486
  0
SOLID
  8
0
 62
7
  6
CONTINUOUS
 10
158.361242028
 20
31.2068093799
 11
158.3034290869
 21
31.3681288486
 12
158.5924918074
 22
31.3681288486
 13
158.5924918074
 23
31.3681288486
  0
SOLID
  8
0
 62
7
  6
CONTINUOUS
 10
158.5924918074
 20
31.3681288486
 11
158.6503040869
 21
31.2068093799
 12
158.361242028
 22
31.2068093799
 13
158.361242028
 23
31.2068093799
  0
SOLID
  8
0
 62
7
  6
CONTINUOUS
 10
157.6096790869
 20
31.4649199103
 11
157.4362415869
 21
31.4003926599
 12
157.320617028
 22
31.4649199103
 13
157.320617028
 23
31.4649199103
  0
SOLID
  8
0
 62
7
  6
CONTINUOUS
 10
157.4362415869
 20
31.4003926599
 11
157.320617028
 21
31.3358640533
 12
157.320617028
 22
31.4649199103
 13
157.320617028
 23
31.4649199103
  0
SOLID
  8
0
 62
7
  6
CONTINUOUS
 10
157.320617028
 20
31.3358640533
 11
157.0315543074
 21
30.5938003547
 12
157.320617028
 22
31.4649199103
 13
157.320617028
 23
31.4649199103
  0
SOLID
  8
0
 62
7
  6
CONTINUOUS
 10
157.320617028
 20
31.4649199103
 11
157.0315543074
 21
30.5938003547
 12
157.320617028
 22
31.6262383465
 13
157.320617028
 23
31.6262383465
  0
SOLID
  8
0
 62
7
  6
CONTINUOUS
 10
157.0315543074
 20
30.5938003547
 11
157.0315543074
 21
31.6262383465
 12
157.320617028
 22
31.6262383465
 13
157.320617028
 23
31.6262383465
  0
SOLID
  8
0
 62
7
  6
CONTINUOUS
 10
157.320617028
 20
31.3358640533
 11
157.320617028
 21
30.5938003547
 12
157.0315543074
 22
30.5938003547
 13
157.0315543074
 23
30.5938003547
  0
SOLID
  8
0
 62
7
  6
CONTINUOUS
 10
158.361242028
 20
30.5938003547
 11
158.361242028
 21
31.2068093799
 12
158.6503040869
 22
31.2068093799
 13
158.6503040869
 23
31.2068093799
  0
SOLID
  8
0
 62
7
  6
CONTINUOUS
 10
158.6503040869
 20
31.2068093799
 11
158.6503040869
 21
30.5938003547
 12
158.361242028
 22
30.5938003547
 13
158.361242028
 23
30.5938003547
  0
SOLID
  8
0
 62
7
  6
CONTINUOUS
 10
159.4596793074
 20
31.5939739474
 11
159.8065543074
 21
31.6262381969
 12
160.1534293074
 22
31.6262381969
 13
160.1534293074
 23
31.6262381969
  0
SOLID
  8
0
 62
7
  6
CONTINUOUS
 10
160.1534293074
 20
31.6262381969
 11
160.5003043074
 21
31.5939739474
 12
159.4596793074
 22
31.5939739474
 13
159.4596793074
 23
31.5939739474
  0
SOLID
  8
0
 62
7
  6
CONTINUOUS
 10
159.228429528
 20
31.5294468402
 11
159.4596793074
 21
31.5939739474
 12
160.5003043074
 22
31.5939739474
 13
160.5003043074
 23
31.5939739474
  0
SOLID
  8
0
 62
7
  6
CONTINUOUS
 10
159.228429528
 20
31.5294468402
 11
160.5003043074
 21
31.5939739304
 12
160.6737418074
 22
31.5617111435
 13
160.6737418074
 23
31.5617111435
  0
SOLID
  8
0
 62
7
  6
CONTINUOUS
 10
159.228429528
 20
31.5294468402
 11
160.6737418074
 21
31.5617111435
 12
159.8065543074
 22
31.4971825592
 13
159.8065543074
 23
31.4971825592
  0
SOLID
  8
0
 62
7
  6
CONTINUOUS
 10
159.8065543074
 20
31.4971825592
 11
160.6737418074
 21
31.5617111435
 12
160.1534293074
 22
31.4971825592
 13
160.1534293074
 23
31.4971825592
  0
SOLID
  8
0
 62
7
  6
CONTINUOUS
 10
160.6737418074
 20
31.5617111435
 11
160.8471793074
 21
31.4971825592
 12
160.1534293074
 22
31.4971825592
 13
160.1534293074
 23
31.4971825592
  0
SOLID
  8
0
 62
7
  6
CONTINUOUS
 10
160.5003043074
 20
31.4649197501
 11
160.1534293074
 21
31.4971825592
 12
160.8471793074
 22
31.4971825592
 13
160.8471793074
 23
31.4971825592
  0
SOLID
  8
0
 62
7
  6
CONTINUOUS
 10
159.1128043074
 20
31.4326555427
 11
159.228429528
 21
31.5294468402
 12
159.8065543074
 22
31.4971825592
 13
159.8065543074
 23
31.4971825592
  0
SOLID
  8
0
 62
7
  6
CONTINUOUS
 10
160.5003043074
 20
31.4649197501
 11
160.8471793074
 21
31.4971825592
 12
160.615929528
 22
31.4326555427
 13
160.615929528
 23
31.4326555427
  0
SOLID
  8
0
 62
7
  6
CONTINUOUS
 10
160.615929528
 20
31.4326555427
 11
160.8471793074
 21
31.4971825592
 12
160.6737418074
 22
31.3681283005
 13
160.6737418074
 23
31.3681283005
  0
SOLID
  8
0
 62
7
  6
CONTINUOUS
 10
160.8471793074
 20
31.4971825592
 11
160.9628038663
 21
31.3681283005
 12
160.6737418074
 22
31.3681283005
 13
160.6737418074
 23
31.3681283005
  0
SOLID
  8
0
 62
7
  6
CONTINUOUS
 10
150.2674918074
 20
31.4649197501
 11
149.7471793074
 21
31.4326554237
 12
150.498741835
 22
31.4971824493
 13
150.498741835
 23
31.4971824493
  0
SOLID
  8
0
 62
7
  6
CONTINUOUS
 10
149.7471793074
 20
31.4326554237
 11
149.8628043005
 21
31.4971824493
 12
150.498741835
 22
31.4971824493
 13
150.498741835
 23
31.4971824493
  0
SOLID
  8
0
 62
7
  6
CONTINUOUS
 10
150.2674918074
 20
31.4649197501
 11
150.1518667936
 21
31.4326554237
 12
149.7471793074
 22
31.4326554237
 13
149.7471793074
 23
31.4326554237
  0
SOLID
  8
0
 62
7
  6
CONTINUOUS
 10
149.6315543091
 20
31.3036012664
 11
149.7471793074
 21
31.4326554237
 12
150.1518667936
 22
31.4326554237
 13
150.1518667936
 23
31.4326554237
  0
SOLID
  8
0
 62
7
  6
CONTINUOUS
 10
153.9674919177
 20
31.4326554237
 11
154.6612419177
 21
31.4971825369
 12
154.4299918074
 22
31.4649197501
 13
154.4299918074
 23
31.4649197501
  0
SOLID
  8
0
 62
7
  6
CONTINUOUS
 10
154.4299918074
 20
31.4649197501
 11
154.3143669177
 21
31.4326554237
 12
153.9674919177
 22
31.4326554237
 13
153.9674919177
 23
31.4326554237
  0
SOLID
  8
0
 62
7
  6
CONTINUOUS
 10
153.9674919177
 20
31.3681283335
 11
153.9674919177
 21
31.4326554237
 12
154.3143669177
 22
31.4326554237
 13
154.3143669177
 23
31.4326554237
  0
SOLID
  8
0
 62
7
  6
CONTINUOUS
 10
154.3143669177
 20
31.4326554237
 11
154.2565543074
 21
31.3681283335
 12
153.9674919177
 22
31.3681283335
 13
153.9674919177
 23
31.3681283335
  0
SOLID
  8
0
 62
7
  6
CONTINUOUS
 10
159.1128043074
 20
31.4326555528
 11
159.8065543074
 21
31.4971825369
 12
159.575304528
 22
31.4649197501
 13
159.575304528
 23
31.4649197501
  0
SOLID
  8
0
 62
7
  6
CONTINUOUS
 10
159.575304528
 20
31.4649197501
 11
159.4596793074
 21
31.4326555528
 12
159.1128043074
 22
31.4326555528
 13
159.1128043074
 23
31.4326555528
  0
SOLID
  8
0
 62
7
  6
CONTINUOUS
 10
159.1128043074
 20
31.3681284626
 11
159.1128043074
 21
31.4326555528
 12
159.4596793074
 22
31.4326555528
 13
159.4596793074
 23
31.4326555528
  0
SOLID
  8
0
 62
7
  6
CONTINUOUS
 10
159.4596793074
 20
31.4326555528
 11
159.401867028
 21
31.3681284626
 12
159.1128043074
 22
31.3681284626
 13
159.1128043074
 23
31.3681284626
  0
SOLID
  8
0
 62
7
  6
CONTINUOUS
 10
159.228429528
 20
31.2390741763
 11
159.1128043074
 21
31.3681284626
 12
159.401867028
 22
31.3681284626
 13
159.401867028
 23
31.3681284626
  0
SOLID
  8
0
 62
7
  6
CONTINUOUS
 10
149.6315543091
 20
31.3036012664
 11
150.1518667936
 21
31.4326554468
 12
149.9784292936
 22
31.3358640533
 13
149.9784292936
 23
31.3358640533
  0
SOLID
  8
0
 62
7
  6
CONTINUOUS
 10
149.9784292936
 20
31.3358640533
 11
149.9206168074
 21
31.2713369632
 12
149.6315543091
 22
31.3036012664
 13
149.6315543091
 23
31.3036012664
  0
SOLID
  8
0
 62
7
  6
CONTINUOUS
 10
149.5737418074
 20
31.1100184796
 11
149.6315543091
 21
31.3036012664
 12
149.9206168074
 22
31.2713369632
 13
149.9206168074
 23
31.2713369632
  0
SOLID
  8
0
 62
7
  6
CONTINUOUS
 10
154.4299918074
 20
31.2390741763
 11
154.7768668074
 21
31.271336924
 12
155.412804528
 22
31.271336924
 13
155.412804528
 23
31.271336924
  0
SOLID
  8
0
 62
7
  6
CONTINUOUS
 10
154.4299918074
 20
31.2390741763
 11
155.412804528
 21
31.271336924
 12
154.1987416972
 22
31.1745462761
 13
154.1987416972
 23
31.1745462761
  0
SOLID
  8
0
 62
7
  6
CONTINUOUS
 10
154.1987416972
 20
31.1745462761
 11
155.412804528
 21
31.271336924
 12
154.7768668074
 22
31.1422827436
 13
154.7768668074
 23
31.1422827436
  0
SOLID
  8
0
 62
7
  6
CONTINUOUS
 10
155.412804528
 20
31.271336924
 11
155.412804528
 21
31.1422827436
 12
154.7768668074
 22
31.1422827436
 13
154.7768668074
 23
31.1422827436
  0
SOLID
  8
0
 62
7
  6
CONTINUOUS
 10
159.228429528
 20
31.2390745501
 11
159.401867028
 21
31.3681283566
 12
159.4596793074
 22
31.3036012664
 13
159.4596793074
 23
31.3036012664
  0
SOLID
  8
0
 62
7
  6
CONTINUOUS
 10
159.4596793074
 20
31.3036012664
 11
159.6331168074
 21
31.2390745501
 12
159.228429528
 22
31.2390745501
 13
159.228429528
 23
31.2390745501
  0
SOLID
  8
0
 62
7
  6
CONTINUOUS
 10
159.4596793074
 20
31.1422827828
 11
159.228429528
 21
31.2390745501
 12
159.6331168074
 22
31.2390745501
 13
159.6331168074
 23
31.2390745501
  0
SOLID
  8
0
 62
7
  6
CONTINUOUS
 10
159.6331168074
 20
31.2390745501
 11
160.615929528
 21
31.0777556927
 12
159.4596793074
 22
31.1422827828
 13
159.4596793074
 23
31.1422827828
  0
SOLID
  8
0
 62
7
  6
CONTINUOUS
 10
160.442492028
 20
30.9809646623
 11
159.4596793074
 21
31.1422827828
 12
160.615929528
 22
31.0777556927
 13
160.615929528
 23
31.0777556927
  0
SOLID
  8
0
 62
7
  6
CONTINUOUS
 10
160.615929528
 20
31.0777556927
 11
160.8471793074
 21
30.9809646623
 12
160.442492028
 22
30.9809646623
 13
160.442492028
 23
30.9809646623
  0
SOLID
  8
0
 62
7
  6
CONTINUOUS
 10
160.615929528
 20
30.9164372091
 11
160.442492028
 21
30.9809646623
 12
160.8471793074
 22
30.9809646623
 13
160.8471793074
 23
30.9809646623
  0
SOLID
  8
0
 62
7
  6
CONTINUOUS
 10
160.615929528
 20
30.9164372091
 11
160.8471793074
 21
30.9809646623
 12
160.6737418074
 22
30.8519089441
 13
160.6737418074
 23
30.8519089441
  0
SOLID
  8
0
 62
7
  6
CONTINUOUS
 10
160.8471793074
 20
30.9809646623
 11
160.9628038663
 21
30.8519089441
 12
160.6737418074
 22
30.8519089441
 13
160.6737418074
 23
30.8519089441
  0
SOLID
  8
0
 62
7
  6
CONTINUOUS
 10
160.615929528
 20
30.7873818593
 11
160.6737418074
 21
30.8519089441
 12
160.9628038663
 22
30.8519089441
 13
160.9628038663
 23
30.8519089441
  0
SOLID
  8
0
 62
7
  6
CONTINUOUS
 10
160.9628038663
 20
30.8519089441
 11
160.9628038663
 21
30.7873818593
 12
160.615929528
 22
30.7873818593
 13
160.615929528
 23
30.7873818593
  0
SOLID
  8
0
 62
7
  6
CONTINUOUS
 10
160.5003043074
 20
30.7551187255
 11
160.615929528
 21
30.7873818593
 12
160.9628038663
 22
30.7873818593
 13
160.9628038663
 23
30.7873818593
  0
SOLID
  8
0
 62
7
  6
CONTINUOUS
 10
160.5003043074
 20
30.7551187255
 11
160.9628038663
 21
30.7873818593
 12
160.269054528
 22
30.7228547745
 13
160.269054528
 23
30.7228547745
  0
SOLID
  8
0
 62
7
  6
CONTINUOUS
 10
160.9628038663
 20
30.7873818593
 11
160.8471793074
 21
30.6905916353
 12
160.269054528
 22
30.7228547745
 13
160.269054528
 23
30.7228547745
  0
SOLID
  8
0
 62
7
  6
CONTINUOUS
 10
160.8471793074
 20
30.6905916353
 11
159.401867028
 21
30.658327332
 12
160.269054528
 22
30.7228547745
 13
160.269054528
 23
30.7228547745
  0
SOLID
  8
0
 62
7
  6
CONTINUOUS
 10
160.269054528
 20
30.7228547745
 11
159.401867028
 21
30.658327332
 12
159.922179528
 22
30.7228547745
 13
159.922179528
 23
30.7228547745
  0
SOLID
  8
0
 62
7
  6
CONTINUOUS
 10
159.401867028
 20
30.658327332
 11
159.228429528
 21
30.7228547745
 12
159.922179528
 22
30.7228547745
 13
159.922179528
 23
30.7228547745
  0
SOLID
  8
0
 62
7
  6
CONTINUOUS
 10
159.401867028
 20
30.658327332
 11
160.8471793074
 21
30.6905916353
 12
159.575304528
 22
30.6260629858
 13
159.575304528
 23
30.6260629858
  0
SOLID
  8
0
 62
7
  6
CONTINUOUS
 10
160.8471793074
 20
30.6905916353
 11
160.615929528
 21
30.6260629858
 12
159.575304528
 22
30.6260629858
 13
159.575304528
 23
30.6260629858
  0
SOLID
  8
0
 62
7
  6
CONTINUOUS
 10
159.922179528
 20
30.5938006049
 11
159.575304528
 21
30.6260629858
 12
160.615929528
 22
30.6260629858
 13
160.615929528
 23
30.6260629858
  0
SOLID
  8
0
 62
7
  6
CONTINUOUS
 10
160.615929528
 20
30.6260629858
 11
160.269054528
 21
30.5938006049
 12
159.922179528
 22
30.5938006049
 13
159.922179528
 23
30.5938006049
  0
SOLID
  8
0
 62
7
  6
CONTINUOUS
 10
149.5737418074
 20
31.1100184796
 11
149.9206168074
 21
31.2713369632
 12
149.8628043005
 22
31.1422827828
 13
149.8628043005
 23
31.1422827828
  0
SOLID
  8
0
 62
7
  6
CONTINUOUS
 10
149.8628043005
 20
31.1422827828
 11
149.8628043005
 21
31.0454914852
 12
149.5737418074
 22
31.1100184796
 13
149.5737418074
 23
31.1100184796
  0
SOLID
  8
0
 62
7
  6
CONTINUOUS
 10
149.6315543091
 20
30.9164372091
 11
149.5737418074
 21
31.1100184796
 12
149.8628043005
 22
31.0454914852
 13
149.8628043005
 23
31.0454914852
  0
SOLID
  8
0
 62
7
  6
CONTINUOUS
 10
149.8628043005
 20
31.0454914852
 11
149.9784292936
 21
30.8841729058
 12
149.6315543091
 22
30.9164372091
 13
149.6315543091
 23
30.9164372091
  0
SOLID
  8
0
 62
7
  6
CONTINUOUS
 10
149.7471793074
 20
30.7873813202
 11
149.6315543091
 21
30.9164372091
 12
149.9784292936
 22
30.8841729058
 13
149.9784292936
 23
30.8841729058
  0
SOLID
  8
0
 62
7
  6
CONTINUOUS
 10
149.9784292936
 20
30.8841729058
 11
150.1518667936
 21
30.7873813202
 12
149.7471793074
 22
30.7873813202
 13
149.7471793074
 23
30.7873813202
  0
SOLID
  8
0
 62
7
  6
CONTINUOUS
 10
149.8628043005
 20
30.7228547004
 11
149.7471793074
 21
30.7873813202
 12
150.1518667936
 22
30.7873813202
 13
150.1518667936
 23
30.7873813202
  0
SOLID
  8
0
 62
7
  6
CONTINUOUS
 10
150.1518667936
 20
30.7873813202
 11
150.498741835
 21
30.7228547004
 12
149.8628043005
 22
30.7228547004
 13
149.8628043005
 23
30.7228547004
  0
SOLID
  8
0
 62
7
  6
CONTINUOUS
 10
150.0362418212
 20
30.658327332
 11
149.8628043005
 21
30.7228547004
 12
150.498741835
 22
30.7228547004
 13
150.498741835
 23
30.7228547004
  0
SOLID
  8
0
 62
7
  6
CONTINUOUS
 10
154.0831168074
 20
31.1100184386
 11
154.1987416972
 21
31.1745462761
 12
154.7768668074
 22
31.1422827828
 13
154.7768668074
 23
31.1422827828
  0
SOLID
  8
0
 62
7
  6
CONTINUOUS
 10
154.7768668074
 20
31.1422827828
 11
154.5456166972
 21
31.1100184386
 12
154.0831168074
 22
31.1100184386
 13
154.0831168074
 23
31.1100184386
  0
SOLID
  8
0
 62
7
  6
CONTINUOUS
 10
153.9674919177
 20
30.9809642992
 11
154.0831168074
 21
31.1100184386
 12
154.5456166972
 22
31.1100184386
 13
154.5456166972
 23
31.1100184386
  0
SOLID
  8
0
 62
7
  6
CONTINUOUS
 10
154.3143669177
 20
31.0132277988
 11
153.9674919177
 21
30.9809642992
 12
154.4299918074
 22
31.0777556927
 13
154.4299918074
 23
31.0777556927
  0
SOLID
  8
0
 62
7
  6
CONTINUOUS
 10
153.9674919177
 20
30.9809642992
 11
154.5456166972
 21
31.1100184796
 12
154.4299918074
 22
31.0777556927
 13
154.4299918074
 23
31.0777556927
  0
SOLID
  8
0
 62
7
  6
CONTINUOUS
 10
154.3143669177
 20
31.0132277988
 11
154.2565543074
 21
30.9164372091
 12
153.9674919177
 22
30.9809642992
 13
153.9674919177
 23
30.9809642992
  0
SOLID
  8
0
 62
7
  6
CONTINUOUS
 10
153.9674919177
 20
30.8841729058
 11
153.9674919177
 21
30.9809642992
 12
154.2565543074
 22
30.9164372091
 13
154.2565543074
 23
30.9164372091
  0
SOLID
  8
0
 62
7
  6
CONTINUOUS
 10
154.2565543074
 20
30.9164372091
 11
154.2565543074
 21
30.8519086025
 12
153.9674919177
 22
30.8841729058
 13
153.9674919177
 23
30.8841729058
  0
SOLID
  8
0
 62
7
  6
CONTINUOUS
 10
154.0253041972
 20
30.7551187255
 11
153.9674919177
 21
30.8841729058
 12
154.2565543074
 22
30.8519086025
 13
154.2565543074
 23
30.8519086025
  0
SOLID
  8
0
 62
7
  6
CONTINUOUS
 10
155.412804528
 20
30.9487004259
 11
155.7018665869
 21
30.8519086025
 12
155.3549915869
 22
30.8841729058
 13
155.3549915869
 23
30.8841729058
  0
SOLID
  8
0
 62
7
  6
CONTINUOUS
 10
155.1815540869
 20
30.7873815123
 11
155.3549915869
 21
30.8841729058
 12
155.7018665869
 22
30.8519086025
 13
155.7018665869
 23
30.8519086025
  0
SOLID
  8
0
 62
7
  6
CONTINUOUS
 10
155.1815540869
 20
30.7873815123
 11
155.7018665869
 21
30.8519086025
 12
155.412804528
 22
30.7551187255
 13
155.412804528
 23
30.7551187255
  0
SOLID
  8
0
 62
7
  6
CONTINUOUS
 10
155.7018665869
 20
30.8519086025
 11
155.759679528
 21
30.6905916353
 12
155.412804528
 22
30.7551187255
 13
155.412804528
 23
30.7551187255
  0
SOLID
  8
0
 62
7
  6
CONTINUOUS
 10
155.4706168074
 20
30.658327332
 11
155.412804528
 21
30.7551187255
 12
155.759679528
 22
30.6905916353
 13
155.759679528
 23
30.6905916353
  0
SOLID
  8
0
 62
7
  6
CONTINUOUS
 10
155.4706168074
 20
30.658327332
 11
155.759679528
 21
30.6905916353
 12
155.5284290869
 22
30.5938002079
 13
155.5284290869
 23
30.5938002079
  0
SOLID
  8
0
 62
7
  6
CONTINUOUS
 10
155.759679528
 20
30.6905916353
 11
155.8174918074
 21
30.5938002079
 12
155.5284290869
 22
30.5938002079
 13
155.5284290869
 23
30.5938002079
  0
SOLID
  8
0
 62
7
  6
CONTINUOUS
 10
151.0768668626
 20
30.8196456577
 11
151.1346793074
 21
30.9164373395
 12
151.4237418626
 22
30.9164373395
 13
151.4237418626
 23
30.9164373395
  0
SOLID
  8
0
 62
7
  6
CONTINUOUS
 10
151.4237418626
 20
30.9164373395
 11
151.3659292523
 21
30.7873815123
 12
151.0768668626
 22
30.8196456577
 13
151.0768668626
 23
30.8196456577
  0
SOLID
  8
0
 62
7
  6
CONTINUOUS
 10
150.9034292799
 20
30.7551187255
 11
151.0768668626
 21
30.8196456577
 12
151.3659292523
 22
30.7873815123
 13
151.3659292523
 23
30.7873815123
  0
SOLID
  8
0
 62
7
  6
CONTINUOUS
 10
150.9034292799
 20
30.7551187255
 11
151.3659292523
 21
30.7873815123
 12
150.498741835
 22
30.7228544222
 13
150.498741835
 23
30.7228544222
  0
SOLID
  8
0
 62
7
  6
CONTINUOUS
 10
151.3659292523
 20
30.7873815123
 11
151.1924917523
 21
30.6905916353
 12
150.498741835
 22
30.7228544222
 13
150.498741835
 23
30.7228544222
  0
SOLID
  8
0
 62
7
  6
CONTINUOUS
 10
150.0362418212
 20
30.658327332
 11
150.498741835
 21
30.7228544222
 12
151.1924917523
 22
30.6905916353
 13
151.1924917523
 23
30.6905916353
  0
SOLID
  8
0
 62
7
  6
CONTINUOUS
 10
150.0362418212
 20
30.658327332
 11
151.1924917523
 21
30.6905916353
 12
150.2096793212
 22
30.6260631011
 13
150.2096793212
 23
30.6260631011
  0
SOLID
  8
0
 62
7
  6
CONTINUOUS
 10
151.1924917523
 20
30.6905916353
 11
150.9612418074
 21
30.6260631011
 12
150.2096793212
 22
30.6260631011
 13
150.2096793212
 23
30.6260631011
  0
SOLID
  8
0
 62
7
  6
CONTINUOUS
 10
150.5565542799
 20
30.5938002419
 11
150.2096793212
 21
30.6260631011
 12
150.9612418074
 22
30.6260631011
 13
150.9612418074
 23
30.6260631011
  0
SOLID
  8
0
 62
7
  6
CONTINUOUS
 10
154.0253041972
 20
30.7551187255
 11
154.2565543074
 21
30.8519086025
 12
154.3143669177
 22
30.7873815123
 13
154.3143669177
 23
30.7873815123
  0
SOLID
  8
0
 62
7
  6
CONTINUOUS
 10
154.3143669177
 20
30.7873815123
 11
154.5456166972
 21
30.7228544222
 12
154.0253041972
 22
30.7551187255
 13
154.0253041972
 23
30.7551187255
  0
SOLID
  8
0
 62
7
  6
CONTINUOUS
 10
154.1987416972
 20
30.658327332
 11
154.0253041972
 21
30.7551187255
 12
154.5456166972
 22
30.7228544222
 13
154.5456166972
 23
30.7228544222
  0
SOLID
  8
0
 62
7
  6
CONTINUOUS
 10
154.8924916972
 20
30.7228544637
 11
155.1815540869
 21
30.7873815123
 12
155.412804528
 22
30.7551187255
 13
155.412804528
 23
30.7551187255
  0
SOLID
  8
0
 62
7
  6
CONTINUOUS
 10
155.412804528
 20
30.7551187255
 11
155.3549915869
 21
30.6905916353
 12
154.8924916972
 22
30.7228544637
 13
154.8924916972
 23
30.7228544637
  0
SOLID
  8
0
 62
7
  6
CONTINUOUS
 10
155.3549915869
 20
30.6905916353
 11
154.1987416972
 21
30.658327332
 12
154.8924916972
 22
30.7228544637
 13
154.8924916972
 23
30.7228544637
  0
SOLID
  8
0
 62
7
  6
CONTINUOUS
 10
154.1987416972
 20
30.658327332
 11
154.5456166972
 21
30.7228544637
 12
154.8924916972
 22
30.7228544637
 13
154.8924916972
 23
30.7228544637
  0
SOLID
  8
0
 62
7
  6
CONTINUOUS
 10
154.1987416972
 20
30.658327332
 11
155.3549915869
 21
30.6905916353
 12
154.3143669177
 22
30.6260630541
 13
154.3143669177
 23
30.6260630541
  0
SOLID
  8
0
 62
7
  6
CONTINUOUS
 10
155.3549915869
 20
30.6905916353
 11
155.1815540869
 21
30.6260630541
 12
154.3143669177
 22
30.6260630541
 13
154.3143669177
 23
30.6260630541
  0
SOLID
  8
0
 62
7
  6
CONTINUOUS
 10
154.5456166972
 20
30.5938002188
 11
154.3143669177
 21
30.6260630541
 12
155.1815540869
 22
30.6260630541
 13
155.1815540869
 23
30.6260630541
  0
SOLID
  8
0
 62
7
  6
CONTINUOUS
 10
155.1815540869
 20
30.6260630541
 11
154.8924916972
 21
30.5938002188
 12
154.5456166972
 22
30.5938002188
 13
154.5456166972
 23
30.5938002188
  0
SOLID
  8
0
 62
7
  6
CONTINUOUS
 10
159.575304528
 20
30.7551187255
 11
159.228429528
 21
30.7228544637
 12
159.4596793074
 22
30.7873815123
 13
159.4596793074
 23
30.7873815123
  0
SOLID
  8
0
 62
7
  6
CONTINUOUS
 10
159.4596793074
 20
30.7873815123
 11
159.228429528
 21
30.7228544637
 12
159.401867028
 22
30.851908644
 13
159.401867028
 23
30.851908644
  0
SOLID
  8
0
 62
7
  6
CONTINUOUS
 10
159.228429528
 20
30.7228544637
 11
159.1128043074
 21
30.851908644
 12
159.401867028
 22
30.851908644
 13
159.401867028
 23
30.851908644
  0
SOLID
  8
0
 62
7
  6
CONTINUOUS
 10
159.575304528
 20
30.7551187255
 11
159.922179528
 21
30.7228544637
 12
159.228429528
 22
30.7228544637
 13
159.228429528
 23
30.7228544637
  0
SOLID
  8
0
 62
7
  6
CONTINUOUS
 10
156.279992028
 20
30.5938002419
 11
156.279992028
 21
31.6262382337
 12
156.5690540869
 22
30.5938002419
 13
156.5690540869
 23
31.6262382337
  0
ENDBLK
  8
0
  6
BYBLOCK
 62
0
  0
BLOCK
  8
0
 62
2
  6
CONTINUOUS
  2
SYMBOL_3_BL0
 70
64
 10
32.1213064866
 20
19.8534310916
  0
TEXT
  8
0
 62
7
  6
CONTINUOUS
 10
18.3860103289
 20
19.2268451992
  7
TEXTSTYLE_3
 40
2.7338706658
  1
Ammeraal Beltech
 41
1.0
 51
15.0
 72
0
  0
TEXT
  8
0
 62
7
  6
CONTINUOUS
 10
29.1868111546
 20
16.9533085264
  7
TEXTSTYLE_4
 40
1.0935482663
  1
Innovation & Service in Belting
 41
1.0
 72
0
  0
LINE
  8
0
 62
7
  6
CONTINUOUS
 10
12.3614696776
 20
19.9934385078
 11
13.1396216709
 21
23.6543558055
  0
LINE
  8
0
 62
7
  6
CONTINUOUS
 10
23.2347899607
 20
27.3177497171
 11
13.6274394139
 21
24.1961322958
  0
LINE
  8
0
 62
7
  6
CONTINUOUS
 10
12.5867530099
 20
19.3000877048
 11
20.093828271
 21
12.5406867788
  0
LINE
  8
0
 62
7
  6
CONTINUOUS
 10
12.8492874206
 20
20.5352149982
 11
23.6575567857
 21
24.0470345971
  0
LINE
  8
0
 62
7
  6
CONTINUOUS
 10
23.6533516486
 20
13.6972460334
 11
15.2078919798
 21
21.3015720751
  0
LINE
  8
0
 62
7
  6
CONTINUOUS
 10
24.1731743684
 20
26.4728246013
 11
23.1966148312
 21
21.8784731989
  0
LINE
  8
0
 62
7
  6
CONTINUOUS
 10
22.4968128835
 20
18.5861638851
 11
21.810364672
 21
15.3566789607
  0
LINE
  8
0
 62
7
  6
CONTINUOUS
 10
24.8542704669
 20
14.087448211
 11
25.8105020025
 21
18.5861638851
  0
LINE
  8
0
 62
7
  6
CONTINUOUS
 10
26.5103039502
 20
21.8784731989
 11
26.9545457526
 21
23.9684665583
  0
LINE
  8
0
 62
7
  6
CONTINUOUS
 10
20.8069293463
 20
12.3891124661
 11
24.3664527239
 21
13.5456717207
  0
LINE
  8
0
 62
7
  6
CONTINUOUS
 10
23.9478910361
 20
27.1661754044
 11
26.7292624203
 21
24.6618173613
  0
ARC
  8
0
 62
7
  6
CONTINUOUS
 10
13.8527227462
 20
23.5027814928
 40
0.7290321776
 50
108.0
 51
168.0
  0
ARC
  8
0
 62
7
  6
CONTINUOUS
 10
23.4600732931
 20
26.624398914
 40
0.7290321776
 50
348.0
 51
108.0
  0
ARC
  8
0
 62
7
  6
CONTINUOUS
 10
26.2414446773
 20
24.120040871
 40
0.7290321776
 50
348.0
 51
48.0
  0
ARC
  8
0
 62
7
  6
CONTINUOUS
 10
20.581646014
 20
13.0824632691
 40
0.7290321776
 50
228.0
 51
288.0
  0
ARC
  8
0
 62
7
  6
CONTINUOUS
 10
13.0745707529
 20
19.8418641951
 40
0.7290321776
 50
108.0
 51
228.0
  0
ARC
  8
0
 62
7
  6
CONTINUOUS
 10
24.1411693916
 20
14.2390225237
 40
0.7290321776
 50
228.0
 51
348.0
  0
ENDBLK
  8
0
  6
BYBLOCK
 62
0
  0
ENDSEC
  0
SECTION
  2
ENTITIES
  0
TEXT
  8
0
 62
5
  6
CONTINUOUS
 10
96.0
 20
25.636
  7
TEXTSTYLE_2
 40
2.8
  1
Scale :
 41
0.6
 51
0.000019
 72
0
  0
TEXT
  8
0
 62
5
  6
CONTINUOUS
 10
116.0
 20
25.636
  7
TEXTSTYLE_2
 40
2.8
  1
Belt type:
 41
0.6
 51
0.000019
 72
0
  0
INSERT
  8
0
 62
2
  6
CONTINUOUS
  2
SYMBOL_3_BL0
 10
32.1213064866
 20
19.8534310916
  0
INSERT
  8
0
 62
2
  6
CONTINUOUS
  2
SYMBOL_8_BL1
 10
173.5956734183
 20
35.5937998301
  0
LINE
  8
0
 62
2
  6
CONTINUOUS
 10
10.0
 20
30.0
 11
200.0
 21
30.0
  0
LINE
  8
0
 62
2
  6
CONTINUOUS
 10
10.0
 20
30.0
 11
10.0
 21
10.0
  0
LINE
  8
0
 62
2
  6
CONTINUOUS
 10
10.0
 20
10.0
 11
200.0
 21
10.0
  0
LINE
  8
0
 62
2
  6
CONTINUOUS
 10
95.0
 20
30.0
 11
95.0
 21
10.0
  0
LINE
  8
0
 62
2
  6
CONTINUOUS
 10
115.0
 20
30.0
 11
115.0
 21
10.0
  0
LINE
  8
0
 62
2
  6
CONTINUOUS
 10
200.0
 20
30.0
 11
200.0
 21
10.0
  0
TEXT
  8
0
 62
5
  6
CONTINUOUS
 10
13.0
 20
23.303
  7
TEXTSTYLE_5
 40
1.52
  1
                                                                     Ammeraal Beltech Modular A/S
 41
1.0
 72
0
  0
TEXT
  8
0
 62
5
  6
CONTINUOUS
 10
13.0
 20
20.595
  7
TEXTSTYLE_5
 40
1.5
  1
                                                                      Hjulmagervej 21,  7100 Vejle,  DK
 41
1.0
 72
0
  0
TEXT
  8
0
 62
5
  6
CONTINUOUS
 10
13.0
 20
17.881
  7
TEXTSTYLE_5
 40
1.495
  1
                                                                      tel: 
 41
1.0
 72
0
  0
TEXT
  8
0
 62
5
  6
CONTINUOUS
 10
57.9869465649
 20
17.881
  7
TEXTSTYLE_5
 40
1.51
  1
+45 75723100     fax: +45 75723348
 41
1.0
 72
0
  0
TEXT
  8
0
 62
5
  6
CONTINUOUS
 10
13.0
 20
15.177
  7
TEXTSTYLE_5
 40
1.5
  1
                                                                      admin@unichains.dk  www.unichains.com
 41
1.0
 72
0
  0
TEXT
  8
0
 62
5
  6
CONTINUOUS
 10
99.75
 20
13.75
  7
TEXTSTYLE_6
 40
5.0
  1
1:1
 41
0.7
 72
1
 11
105.0
 21
13.75
  0
TEXT
  8
0
 62
5
  6
CONTINUOUS
 10
118.0
 20
13.75
  7
TEXTSTYLE_7
 40
7.5
  1
uni MPB N K600
 41
0.6260416667
 72
0
  0
LINE
  8
0
 62
7
  6
CONTINUOUS
 10
210.0
 20
0.0
 11
0.0
 21
0.0
  0
LINE
  8
0
 62
7
  6
CONTINUOUS
 10
10.0
 20
10.0
 11
200.0
 21
10.0
  0
LINE
  8
0
 62
7
  6
CONTINUOUS
 10
10.0
 20
30.0
 11
200.0
 21
30.0
  0
LINE
  8
0
 62
7
  6
CONTINUOUS
 10
0.0
 20
0.0
 11
0.0
 21
297.0
  0
LINE
  8
0
 62
7
  6
CONTINUOUS
 10
10.0
 20
10.0
 11
10.0
 21
287.0
  0
LINE
  8
0
 62
7
  6
CONTINUOUS
 10
200.0
 20
287.0
 11
200.0
 21
10.0
  0
LINE
  8
0
 62
7
  6
CONTINUOUS
 10
210.0
 20
0.0
 11
210.0
 21
297.0
  0
LINE
  8
0
 62
7
  6
CONTINUOUS
 10
10.0
 20
287.0
 11
200.0
 21
287.0
  0
LINE
  8
0
 62
7
  6
CONTINUOUS
 10
0.0
 20
297.0
 11
210.0
 21
297.0
  0
POLYLINE
  8
0
 62
7
  6
CONTINUOUS
 66
1
 70
0
  0
VERTEX
  8
0
 62
7
  6
CONTINUOUS
 10
48.4736432579
 20
210.3004322475
  0
VERTEX
  8
0
 62
7
  6
CONTINUOUS
 10
48.4658804908
 20
210.2955073773
  0
VERTEX
  8
0
 62
7
  6
CONTINUOUS
 10
48.4585003657
 20
210.2809228624
  0
VERTEX
  8
0
 62
7
  6
CONTINUOUS
 10
48.4518661683
 20
210.2573144008
  0
VERTEX
  8
0
 62
7
  6
CONTINUOUS
 10
48.4463100941
 20
210.225775951
  0
VERTEX
  8
0
 62
7
  6
CONTINUOUS
 10
48.4421159064
 20
210.1878247663
  0
VERTEX
  8
0
 62
7
  6
CONTINUOUS
 10
48.4395029928
 20
210.1453336416
  0
VERTEX
  8
0
 62
7
  6
CONTINUOUS
 10
48.4386140381
 20
210.1004322475
  0
SEQEND
  0
POLYLINE
  8
0
 62
7
  6
CONTINUOUS
 66
1
 70
0
  0
VERTEX
  8
0
 62
7
  6
CONTINUOUS
 10
110.4109042663
 20
59.3004318786
  0
VERTEX
  8
0
 62
7
  6
CONTINUOUS
 10
110.4552060065
 20
59.3054004397
  0
VERTEX
  8
0
 62
7
  6
CONTINUOUS
 10
110.4974516434
 20
59.3201288493
  0
VERTEX
  8
0
 62
7
  6
CONTINUOUS
 10
110.5353660834
 20
59.3438801379
  0
VERTEX
  8
0
 62
7
  6
CONTINUOUS
 10
110.5670518407
 20
59.3754656817
  0
VERTEX
  8
0
 62
7
  6
CONTINUOUS
 10
110.5909231223
 20
59.4133046784
  0
VERTEX
  8
0
 62
7
  6
CONTINUOUS
 10
110.6057853093
 20
59.4555032957
  0
VERTEX
  8
0
 62
7
  6
CONTINUOUS
 10
110.6108953524
 20
59.5004235293
  0
SEQEND
  0
LINE
  8
0
 62
7
  6
CONTINUOUS
 10
110.4109625667
 20
59.3004322475
 11
55.8322895935
 21
59.3004322475
  0
POLYLINE
  8
0
 62
7
  6
CONTINUOUS
 66
1
 70
0
  0
VERTEX
  8
0
 62
7
  6
CONTINUOUS
 10
44.2721286296
 20
68.7459630736
  0
VERTEX
  8
0
 62
7
  6
CONTINUOUS
 10
44.6730778513
 20
68.5661797984
  0
VERTEX
  8
0
 62
7
  6
CONTINUOUS
 10
45.1386908922
 20
68.3911152603
  0
VERTEX
  8
0
 62
7
  6
CONTINUOUS
 10
45.6403153726
 20
68.2323468583
  0
VERTEX
  8
0
 62
7
  6
CONTINUOUS
 10
46.1736515748
 20
68.0896421126
  0
VERTEX
  8
0
 62
7
  6
CONTINUOUS
 10
46.7340425966
 20
67.962953879
  0
VERTEX
  8
0
 62
7
  6
CONTINUOUS
 10
47.3166534021
 20
67.852266348
  0
VERTEX
  8
0
 62
7
  6
CONTINUOUS
 10
47.916478329
 20
67.7575374966
  0
VERTEX
  8
0
 62
7
  6
CONTINUOUS
 10
48.4682714504
 20
67.6856596829
  0
SEQEND
  0
POLYLINE
  8
0
 62
7
  6
CONTINUOUS
 66
1
 70
0
  0
VERTEX
  8
0
 62
7
  6
CONTINUOUS
 10
99.1213538631
 20
67.5122656591
  0
VERTEX
  8
0
 62
7
  6
CONTINUOUS
 10
98.8273220921
 20
67.5082959381
  0
VERTEX
  8
0
 62
7
  6
CONTINUOUS
 10
98.7474529191
 20
67.5082492717
  0
VERTEX
  8
0
 62
7
  6
CONTINUOUS
 10
98.6682774559
 20
67.5096260364
  0
VERTEX
  8
0
 62
7
  6
CONTINUOUS
 10
98.5900554821
 20
67.5126251458
  0
VERTEX
  8
0
 62
7
  6
CONTINUOUS
 10
98.5129843626
 20
67.5174607156
  0
VERTEX
  8
0
 62
7
  6
CONTINUOUS
 10
98.43727119
 20
67.5243218454
  0
VERTEX
  8
0
 62
7
  6
CONTINUOUS
 10
98.3633439211
 20
67.5333777437
  0
VERTEX
  8
0
 62
7
  6
CONTINUOUS
 10
98.2916487449
 20
67.5447933995
  0
VERTEX
  8
0
 62
7
  6
CONTINUOUS
 10
98.2220497228
 20
67.5587493756
  0
VERTEX
  8
0
 62
7
  6
CONTINUOUS
 10
98.1548141367
 20
67.5755171301
  0
VERTEX
  8
0
 62
7
  6
CONTINUOUS
 10
98.0913850958
 20
67.5952192821
  0
VERTEX
  8
0
 62
7
  6
CONTINUOUS
 10
98.0323902034
 20
67.6185706801
  0
VERTEX
  8
0
 62
7
  6
CONTINUOUS
 10
97.9776201984
 20
67.6459735637
  0
VERTEX
  8
0
 62
7
  6
CONTINUOUS
 10
97.928688931
 20
67.6768226974
  0
VERTEX
  8
0
 62
7
  6
CONTINUOUS
 10
97.8866625682
 20
67.7102867003
  0
VERTEX
  8
0
 62
7
  6
CONTINUOUS
 10
97.8513188935
 20
67.7464219023
  0
VERTEX
  8
0
 62
7
  6
CONTINUOUS
 10
97.8229537501
 20
67.785185144
  0
VERTEX
  8
0
 62
7
  6
CONTINUOUS
 10
97.8023774524
 20
67.8264587437
  0
VERTEX
  8
0
 62
7
  6
CONTINUOUS
 10
97.7911944253
 20
67.8694560798
  0
VERTEX
  8
0
 62
7
  6
CONTINUOUS
 10
97.789704413
 20
67.890694983
  0
SEQEND
  0
LINE
  8
0
 62
7
  6
CONTINUOUS
 10
99.4043680321
 20
67.5147077137
 11
99.1213538631
 21
67.5122656591
  0
LINE
  8
0
 62
7
  6
CONTINUOUS
 10
99.4043680321
 20
67.5147077137
 11
104.9524689727
 21
67.5152640906
  0
LINE
  8
0
 62
7
  6
CONTINUOUS
 10
48.4682773161
 20
67.6856597125
 11
48.4692972559
 21
67.6856004073
  0
LINE
  8
0
 62
7
  6
CONTINUOUS
 10
44.1764633798
 20
68.7578044693
 11
44.2811907218
 21
68.7418996847
  0
LINE
  8
0
 62
7
  6
CONTINUOUS
 10
44.6730778513
 20
192.6346846965
 11
44.2721286296
 21
192.4549014213
  0
POLYLINE
  8
0
 62
7
  6
CONTINUOUS
 66
1
 70
0
  0
VERTEX
  8
0
 62
7
  6
CONTINUOUS
 10
109.2453183856
 20
77.1578030729
  0
VERTEX
  8
0
 62
7
  6
CONTINUOUS
 10
109.4128309548
 20
77.1854648846
  0
VERTEX
  8
0
 62
7
  6
CONTINUOUS
 10
109.5778571729
 20
77.2163696824
  0
VERTEX
  8
0
 62
7
  6
CONTINUOUS
 10
109.7216848742
 20
77.247318469
  0
VERTEX
  8
0
 62
7
  6
CONTINUOUS
 10
109.8476874973
 20
77.2787276563
  0
VERTEX
  8
0
 62
7
  6
CONTINUOUS
 10
109.9592743364
 20
77.3113107973
  0
VERTEX
  8
0
 62
7
  6
CONTINUOUS
 10
110.0601256552
 20
77.3463258061
  0
VERTEX
  8
0
 62
7
  6
CONTINUOUS
 10
110.1543291217
 20
77.3860093044
  0
VERTEX
  8
0
 62
7
  6
CONTINUOUS
 10
110.2457930475
 20
77.4340364222
  0
VERTEX
  8
0
 62
7
  6
CONTINUOUS
 10
110.3374002702
 20
77.496146073
  0
VERTEX
  8
0
 62
7
  6
CONTINUOUS
 10
110.4286911378
 20
77.5798749978
  0
VERTEX
  8
0
 62
7
  6
CONTINUOUS
 10
110.5121790454
 20
77.690520409
  0
VERTEX
  8
0
 62
7
  6
CONTINUOUS
 10
110.5751227688
 20
77.8255100744
  0
VERTEX
  8
0
 62
7
  6
CONTINUOUS
 10
110.6072649247
 20
77.9733448637
  0
VERTEX
  8
0
 62
7
  6
CONTINUOUS
 10
110.6108952574
 20
78.0442590062
  0
SEQEND
  0
LINE
  8
0
 62
7
  6
CONTINUOUS
 10
109.1406009284
 20
77.1419019593
 11
109.2453264731
 21
77.1578043336
  0
POLYLINE
  8
0
 62
7
  6
CONTINUOUS
 66
1
 70
0
  0
VERTEX
  8
0
 62
7
  6
CONTINUOUS
 10
104.9535192442
 20
76.0856596796
  0
VERTEX
  8
0
 62
7
  6
CONTINUOUS
 10
105.5018106266
 20
76.1570369346
  0
VERTEX
  8
0
 62
7
  6
CONTINUOUS
 10
106.101792042
 20
76.251686396
  0
VERTEX
  8
0
 62
7
  6
CONTINUOUS
 10
106.6845790065
 20
76.3622970008
  0
VERTEX
  8
0
 62
7
  6
CONTINUOUS
 10
107.2451646728
 20
76.488910887
  0
VERTEX
  8
0
 62
7
  6
CONTINUOUS
 10
107.7787123511
 20
76.6315436414
  0
VERTEX
  8
0
 62
7
  6
CONTINUOUS
 10
108.2805627291
 20
76.7902415656
  0
VERTEX
  8
0
 62
7
  6
CONTINUOUS
 10
108.7464133345
 20
76.9652353472
  0
SEQEND
  0
POLYLINE
  8
0
 62
7
  6
CONTINUOUS
 66
1
 70
0
  0
VERTEX
  8
0
 62
7
  6
CONTINUOUS
 10
54.2964691297
 20
67.6885519711
  0
VERTEX
  8
0
 62
7
  6
CONTINUOUS
 10
54.5897912486
 20
67.692524948
  0
VERTEX
  8
0
 62
7
  6
CONTINUOUS
 10
54.6693847917
 20
67.6926512714
  0
VERTEX
  8
0
 62
7
  6
CONTINUOUS
 10
54.7484474529
 20
67.691372592
  0
VERTEX
  8
0
 62
7
  6
CONTINUOUS
 10
54.8266991771
 20
67.6884861152
  0
VERTEX
  8
0
 62
7
  6
CONTINUOUS
 10
54.9039174211
 20
67.6837707132
  0
VERTEX
  8
0
 62
7
  6
CONTINUOUS
 10
54.97988247
 20
67.6770277927
  0
VERTEX
  8
0
 62
7
  6
CONTINUOUS
 10
55.0541616147
 20
67.6680814465
  0
VERTEX
  8
0
 62
7
  6
CONTINUOUS
 10
55.126246613
 20
67.6567619293
  0
VERTEX
  8
0
 62
7
  6
CONTINUOUS
 10
55.1963512819
 20
67.6428705301
  0
VERTEX
  8
0
 62
7
  6
CONTINUOUS
 10
55.264001434
 20
67.6261706542
  0
VERTEX
  8
0
 62
7
  6
CONTINUOUS
 10
55.3280696183
 20
67.6064561123
  0
VERTEX
  8
0
 62
7
  6
CONTINUOUS
 10
55.3875594433
 20
67.5831094347
  0
VERTEX
  8
0
 62
7
  6
CONTINUOUS
 10
55.4428283922
 20
67.5556410115
  0
VERTEX
  8
0
 62
7
  6
CONTINUOUS
 10
55.4922729215
 20
67.524626135
  0
VERTEX
  8
0
 62
7
  6
CONTINUOUS
 10
55.5344518944
 20
67.491183449
  0
VERTEX
  8
0
 62
7
  6
CONTINUOUS
 10
55.5697261862
 20
67.4553135576
  0
VERTEX
  8
0
 62
7
  6
CONTINUOUS
 10
55.5980219977
 20
67.4169933823
  0
VERTEX
  8
0
 62
7
  6
CONTINUOUS
 10
55.6187321033
 20
67.3761623818
  0
VERTEX
  8
0
 62
7
  6
CONTINUOUS
 10
55.6303203653
 20
67.3333655591
  0
VERTEX
  8
0
 62
7
  6
CONTINUOUS
 10
55.6320868755
 20
67.3099957608
  0
SEQEND
  0
LINE
  8
0
 62
7
  6
CONTINUOUS
 10
54.013447393
 20
67.6861359966
 11
54.2964691297
 21
67.6885519711
  0
LINE
  8
0
 62
7
  6
CONTINUOUS
 10
48.4693592674
 20
67.6856004043
 11
54.013447393
 21
67.6861359966
  0
LINE
  8
0
 62
7
  6
CONTINUOUS
 10
104.9525010857
 20
67.5152640905
 11
104.9535091228
 21
67.5152047645
  0
LINE
  8
0
 62
7
  6
CONTINUOUS
 10
109.2453264731
 20
66.4430601613
 11
109.1406009281
 21
66.4589625356
  0
LINE
  8
0
 62
7
  6
CONTINUOUS
 10
65.977562028
 20
62.1532131185
 11
66.5997842503
 21
61.7374734089
  0
LINE
  8
0
 62
7
  6
CONTINUOUS
 10
69.4442286947
 20
64.6476513764
 11
68.8220064725
 21
65.063391086
  0
LINE
  8
0
 62
7
  6
CONTINUOUS
 10
66.5997842503
 20
199.463391086
 11
65.977562028
 21
199.0476513764
  0
LINE
  8
0
 62
7
  6
CONTINUOUS
 10
68.8220064725
 20
196.1374734089
 11
69.4442286947
 21
196.5532131185
  0
LINE
  8
0
 62
7
  6
CONTINUOUS
 10
104.9535133785
 20
76.0856597092
 11
104.9524934668
 21
76.0856004073
  0
LINE
  8
0
 62
7
  6
CONTINUOUS
 10
48.4682773161
 20
75.9152047824
 11
48.4692972559
 21
75.9152640876
  0
POLYLINE
  8
0
 62
7
  6
CONTINUOUS
 66
1
 70
0
  0
VERTEX
  8
0
 62
7
  6
CONTINUOUS
 10
54.593897002
 20
75.9083015856
  0
VERTEX
  8
0
 62
7
  6
CONTINUOUS
 10
54.3004330162
 20
75.9122660621
  0
VERTEX
  8
0
 62
7
  6
CONTINUOUS
 10
54.0174208147
 20
75.9147078059
  0
VERTEX
  8
0
 62
7
  6
CONTINUOUS
 10
48.4693592674
 20
75.9152640906
  0
SEQEND
  0
POLYLINE
  8
0
 62
7
  6
CONTINUOUS
 66
1
 70
0
  0
VERTEX
  8
0
 62
7
  6
CONTINUOUS
 10
98.8315225465
 20
76.0925295265
  0
VERTEX
  8
0
 62
7
  6
CONTINUOUS
 10
99.1253216437
 20
76.0885519713
  0
VERTEX
  8
0
 62
7
  6
CONTINUOUS
 10
99.4083433042
 20
76.0861359968
  0
VERTEX
  8
0
 62
7
  6
CONTINUOUS
 10
104.9524314554
 20
76.0856004043
  0
SEQEND
  0
POLYLINE
  8
0
 62
7
  6
CONTINUOUS
 66
1
 70
0
  0
VERTEX
  8
0
 62
7
  6
CONTINUOUS
 10
44.2721286296
 20
85.5459630736
  0
VERTEX
  8
0
 62
7
  6
CONTINUOUS
 10
44.6730778513
 20
85.3661797984
  0
VERTEX
  8
0
 62
7
  6
CONTINUOUS
 10
45.1386908922
 20
85.1911152603
  0
VERTEX
  8
0
 62
7
  6
CONTINUOUS
 10
45.6403153726
 20
85.0323468583
  0
VERTEX
  8
0
 62
7
  6
CONTINUOUS
 10
46.1736515748
 20
84.8896421126
  0
VERTEX
  8
0
 62
7
  6
CONTINUOUS
 10
46.7340425966
 20
84.762953879
  0
VERTEX
  8
0
 62
7
  6
CONTINUOUS
 10
47.3166534021
 20
84.652266348
  0
VERTEX
  8
0
 62
7
  6
CONTINUOUS
 10
47.916478329
 20
84.5575374966
  0
VERTEX
  8
0
 62
7
  6
CONTINUOUS
 10
48.4682714504
 20
84.4856596829
  0
SEQEND
  0
LINE
  8
0
 62
7
  6
CONTINUOUS
 10
83.977562028
 20
62.1532131185
 11
84.5997842503
 21
61.7374734089
  0
LINE
  8
0
 62
7
  6
CONTINUOUS
 10
84.5997842503
 20
199.463391086
 11
83.977562028
 21
199.0476513764
  0
LINE
  8
0
 62
7
  6
CONTINUOUS
 10
44.6730778513
 20
175.8346846965
 11
44.2721286296
 21
175.6549014213
  0
POLYLINE
  8
0
 62
7
  6
CONTINUOUS
 66
1
 70
0
  0
VERTEX
  8
0
 62
7
  6
CONTINUOUS
 10
44.1764715851
 20
74.8430613048
  0
VERTEX
  8
0
 62
7
  6
CONTINUOUS
 10
44.0076765317
 20
74.8151746591
  0
VERTEX
  8
0
 62
7
  6
CONTINUOUS
 10
43.8431163153
 20
74.7843307577
  0
VERTEX
  8
0
 62
7
  6
CONTINUOUS
 10
43.6996780388
 20
74.7534470069
  0
VERTEX
  8
0
 62
7
  6
CONTINUOUS
 10
43.5739997383
 20
74.7221089603
  0
VERTEX
  8
0
 62
7
  6
CONTINUOUS
 10
43.462686068
 20
74.689607575
  0
VERTEX
  8
0
 62
7
  6
CONTINUOUS
 10
43.3620764465
 20
74.6546952721
  0
VERTEX
  8
0
 62
7
  6
CONTINUOUS
 10
43.2681115754
 20
74.6151586449
  0
VERTEX
  8
0
 62
7
  6
CONTINUOUS
 10
43.1769157944
 20
74.5673700536
  0
VERTEX
  8
0
 62
7
  6
CONTINUOUS
 10
43.085603618
 20
74.5056610104
  0
VERTEX
  8
0
 62
7
  6
CONTINUOUS
 10
42.9945558641
 20
74.422563943
  0
VERTEX
  8
0
 62
7
  6
CONTINUOUS
 10
42.911086305
 20
74.312758678
  0
VERTEX
  8
0
 62
7
  6
CONTINUOUS
 10
42.8477759978
 20
74.1786048958
  0
VERTEX
  8
0
 62
7
  6
CONTINUOUS
 10
42.8149325224
 20
74.0313586406
  0
VERTEX
  8
0
 62
7
  6
CONTINUOUS
 10
42.8108954683
 20
73.9566029349
  0
SEQEND
  0
LINE
  8
0
 62
7
  6
CONTINUOUS
 10
44.2811907218
 20
74.8589648102
 11
44.1764633798
 21
74.8430600256
  0
POLYLINE
  8
0
 62
7
  6
CONTINUOUS
 66
1
 70
0
  0
VERTEX
  8
0
 62
7
  6
CONTINUOUS
 10
48.4682714504
 20
75.915204812
  0
VERTEX
  8
0
 62
7
  6
CONTINUOUS
 10
47.916478329
 20
75.8433269983
  0
VERTEX
  8
0
 62
7
  6
CONTINUOUS
 10
47.3166534021
 20
75.7485981469
  0
VERTEX
  8
0
 62
7
  6
CONTINUOUS
 10
46.7340425966
 20
75.6379106159
  0
VERTEX
  8
0
 62
7
  6
CONTINUOUS
 10
46.1736515748
 20
75.5112223824
  0
VERTEX
  8
0
 62
7
  6
CONTINUOUS
 10
45.6403153726
 20
75.3685176366
  0
VERTEX
  8
0
 62
7
  6
CONTINUOUS
 10
45.1386908922
 20
75.2097492347
  0
VERTEX
  8
0
 62
7
  6
CONTINUOUS
 10
44.6730778513
 20
75.0346846965
  0
SEQEND
  0
POLYLINE
  8
0
 62
7
  6
CONTINUOUS
 66
1
 70
0
  0
VERTEX
  8
0
 62
7
  6
CONTINUOUS
 10
54.2964691297
 20
84.4885519711
  0
VERTEX
  8
0
 62
7
  6
CONTINUOUS
 10
54.5897912486
 20
84.492524948
  0
VERTEX
  8
0
 62
7
  6
CONTINUOUS
 10
54.6693847917
 20
84.4926512714
  0
VERTEX
  8
0
 62
7
  6
CONTINUOUS
 10
54.7484474529
 20
84.491372592
  0
VERTEX
  8
0
 62
7
  6
CONTINUOUS
 10
54.8266991771
 20
84.4884861152
  0
VERTEX
  8
0
 62
7
  6
CONTINUOUS
 10
54.9039174211
 20
84.4837707132
  0
VERTEX
  8
0
 62
7
  6
CONTINUOUS
 10
54.97988247
 20
84.4770277927
  0
VERTEX
  8
0
 62
7
  6
CONTINUOUS
 10
55.0541616147
 20
84.4680814465
  0
VERTEX
  8
0
 62
7
  6
CONTINUOUS
 10
55.126246613
 20
84.4567619293
  0
VERTEX
  8
0
 62
7
  6
CONTINUOUS
 10
55.1963512819
 20
84.4428705301
  0
VERTEX
  8
0
 62
7
  6
CONTINUOUS
 10
55.264001434
 20
84.4261706542
  0
VERTEX
  8
0
 62
7
  6
CONTINUOUS
 10
55.3280696183
 20
84.4064561123
  0
VERTEX
  8
0
 62
7
  6
CONTINUOUS
 10
55.3875594433
 20
84.3831094347
  0
VERTEX
  8
0
 62
7
  6
CONTINUOUS
 10
55.4428283922
 20
84.3556410115
  0
VERTEX
  8
0
 62
7
  6
CONTINUOUS
 10
55.4922729215
 20
84.324626135
  0
VERTEX
  8
0
 62
7
  6
CONTINUOUS
 10
55.5344518944
 20
84.291183449
  0
VERTEX
  8
0
 62
7
  6
CONTINUOUS
 10
55.5697261862
 20
84.2553135576
  0
VERTEX
  8
0
 62
7
  6
CONTINUOUS
 10
55.5980219977
 20
84.2169933823
  0
VERTEX
  8
0
 62
7
  6
CONTINUOUS
 10
55.6187321033
 20
84.1761623818
  0
VERTEX
  8
0
 62
7
  6
CONTINUOUS
 10
55.6303203653
 20
84.1333655591
  0
VERTEX
  8
0
 62
7
  6
CONTINUOUS
 10
55.6320868755
 20
84.1099957608
  0
SEQEND
  0
POLYLINE
  8
0
 62
7
  6
CONTINUOUS
 66
1
 70
0
  0
VERTEX
  8
0
 62
7
  6
CONTINUOUS
 10
99.1213538631
 20
84.3122656591
  0
VERTEX
  8
0
 62
7
  6
CONTINUOUS
 10
98.8273220921
 20
84.3082959381
  0
VERTEX
  8
0
 62
7
  6
CONTINUOUS
 10
98.7474529191
 20
84.3082492717
  0
VERTEX
  8
0
 62
7
  6
CONTINUOUS
 10
98.6682774559
 20
84.3096260364
  0
VERTEX
  8
0
 62
7
  6
CONTINUOUS
 10
98.5900554821
 20
84.3126251458
  0
VERTEX
  8
0
 62
7
  6
CONTINUOUS
 10
98.5129843626
 20
84.3174607156
  0
VERTEX
  8
0
 62
7
  6
CONTINUOUS
 10
98.43727119
 20
84.3243218454
  0
VERTEX
  8
0
 62
7
  6
CONTINUOUS
 10
98.3633439211
 20
84.3333777437
  0
VERTEX
  8
0
 62
7
  6
CONTINUOUS
 10
98.2916487449
 20
84.3447933995
  0
VERTEX
  8
0
 62
7
  6
CONTINUOUS
 10
98.2220497228
 20
84.3587493756
  0
VERTEX
  8
0
 62
7
  6
CONTINUOUS
 10
98.1548141367
 20
84.3755171301
  0
VERTEX
  8
0
 62
7
  6
CONTINUOUS
 10
98.0913850958
 20
84.3952192821
  0
VERTEX
  8
0
 62
7
  6
CONTINUOUS
 10
98.0323902034
 20
84.4185706801
  0
VERTEX
  8
0
 62
7
  6
CONTINUOUS
 10
97.9776201984
 20
84.4459735637
  0
VERTEX
  8
0
 62
7
  6
CONTINUOUS
 10
97.928688931
 20
84.4768226974
  0
VERTEX
  8
0
 62
7
  6
CONTINUOUS
 10
97.8866625682
 20
84.5102867003
  0
VERTEX
  8
0
 62
7
  6
CONTINUOUS
 10
97.8513188935
 20
84.5464219023
  0
VERTEX
  8
0
 62
7
  6
CONTINUOUS
 10
97.8229537501
 20
84.585185144
  0
VERTEX
  8
0
 62
7
  6
CONTINUOUS
 10
97.8023774524
 20
84.6264587437
  0
VERTEX
  8
0
 62
7
  6
CONTINUOUS
 10
97.7911944253
 20
84.6694560798
  0
VERTEX
  8
0
 62
7
  6
CONTINUOUS
 10
97.789704413
 20
84.690694983
  0
SEQEND
  0
LINE
  8
0
 62
7
  6
CONTINUOUS
 10
99.4043680321
 20
84.3147077137
 11
99.1213538631
 21
84.3122656591
  0
LINE
  8
0
 62
7
  6
CONTINUOUS
 10
54.013447393
 20
84.4861359966
 11
54.2964691297
 21
84.4885519711
  0
LINE
  8
0
 62
7
  6
CONTINUOUS
 10
99.4043680321
 20
84.3147077137
 11
104.9524689727
 21
84.3152640906
  0
LINE
  8
0
 62
7
  6
CONTINUOUS
 10
48.4693592674
 20
84.4856004043
 11
54.013447393
 21
84.4861359966
  0
LINE
  8
0
 62
7
  6
CONTINUOUS
 10
48.4682773161
 20
84.4856597125
 11
48.4692972559
 21
84.4856004073
  0
LINE
  8
0
 62
7
  6
CONTINUOUS
 10
104.9525010857
 20
84.3152640905
 11
104.9535091228
 21
84.3152047645
  0
LINE
  8
0
 62
7
  6
CONTINUOUS
 10
44.1764633798
 20
85.5578044693
 11
44.2811907218
 21
85.5418996847
  0
POLYLINE
  8
0
 62
7
  6
CONTINUOUS
 66
1
 70
0
  0
VERTEX
  8
0
 62
7
  6
CONTINUOUS
 10
109.1496599671
 20
66.4549024645
  0
VERTEX
  8
0
 62
7
  6
CONTINUOUS
 10
108.7464132276
 20
66.6356291916
  0
VERTEX
  8
0
 62
7
  6
CONTINUOUS
 10
108.2805624964
 20
66.8106230094
  0
VERTEX
  8
0
 62
7
  6
CONTINUOUS
 10
107.7787119763
 20
66.9693209624
  0
VERTEX
  8
0
 62
7
  6
CONTINUOUS
 10
107.2451641429
 20
67.1119537381
  0
VERTEX
  8
0
 62
7
  6
CONTINUOUS
 10
106.684578312
 20
67.2385676379
  0
VERTEX
  8
0
 62
7
  6
CONTINUOUS
 10
106.101791177
 20
67.3491782488
  0
VERTEX
  8
0
 62
7
  6
CONTINUOUS
 10
105.5018095887
 20
67.4438277086
  0
VERTEX
  8
0
 62
7
  6
CONTINUOUS
 10
104.9535192442
 20
67.5152048153
  0
SEQEND
  0
LINE
  8
0
 62
7
  6
CONTINUOUS
 10
65.977562028
 20
78.9532131185
 11
66.5997842503
 21
78.5374734089
  0
LINE
  8
0
 62
7
  6
CONTINUOUS
 10
87.4442286947
 20
64.6476513764
 11
86.8220064725
 21
65.063391086
  0
LINE
  8
0
 62
7
  6
CONTINUOUS
 10
66.5997842503
 20
182.663391086
 11
65.977562028
 21
182.2476513764
  0
LINE
  8
0
 62
7
  6
CONTINUOUS
 10
86.8220064725
 20
196.1374734089
 11
87.4442286947
 21
196.5532131185
  0
POLYLINE
  8
0
 62
7
  6
CONTINUOUS
 66
1
 70
0
  0
VERTEX
  8
0
 62
7
  6
CONTINUOUS
 10
109.2453183856
 20
93.9578030729
  0
VERTEX
  8
0
 62
7
  6
CONTINUOUS
 10
109.4128309548
 20
93.9854648846
  0
VERTEX
  8
0
 62
7
  6
CONTINUOUS
 10
109.5778571729
 20
94.0163696824
  0
VERTEX
  8
0
 62
7
  6
CONTINUOUS
 10
109.7216848742
 20
94.047318469
  0
VERTEX
  8
0
 62
7
  6
CONTINUOUS
 10
109.8476874973
 20
94.0787276563
  0
VERTEX
  8
0
 62
7
  6
CONTINUOUS
 10
109.9592743364
 20
94.1113107973
  0
VERTEX
  8
0
 62
7
  6
CONTINUOUS
 10
110.0601256552
 20
94.1463258061
  0
VERTEX
  8
0
 62
7
  6
CONTINUOUS
 10
110.1543291217
 20
94.1860093044
  0
VERTEX
  8
0
 62
7
  6
CONTINUOUS
 10
110.2457930475
 20
94.2340364222
  0
VERTEX
  8
0
 62
7
  6
CONTINUOUS
 10
110.3374002702
 20
94.296146073
  0
VERTEX
  8
0
 62
7
  6
CONTINUOUS
 10
110.4286911378
 20
94.3798749978
  0
VERTEX
  8
0
 62
7
  6
CONTINUOUS
 10
110.5121790454
 20
94.490520409
  0
VERTEX
  8
0
 62
7
  6
CONTINUOUS
 10
110.5751227688
 20
94.6255100744
  0
VERTEX
  8
0
 62
7
  6
CONTINUOUS
 10
110.6072649247
 20
94.7733448637
  0
VERTEX
  8
0
 62
7
  6
CONTINUOUS
 10
110.6108952574
 20
94.8442590062
  0
SEQEND
  0
LINE
  8
0
 62
7
  6
CONTINUOUS
 10
109.1406009284
 20
93.9419019593
 11
109.2453264731
 21
93.9578043336
  0
POLYLINE
  8
0
 62
7
  6
CONTINUOUS
 66
1
 70
0
  0
VERTEX
  8
0
 62
7
  6
CONTINUOUS
 10
104.9535192442
 20
92.8856596796
  0
VERTEX
  8
0
 62
7
  6
CONTINUOUS
 10
105.5018106266
 20
92.9570369346
  0
VERTEX
  8
0
 62
7
  6
CONTINUOUS
 10
106.101792042
 20
93.051686396
  0
VERTEX
  8
0
 62
7
  6
CONTINUOUS
 10
106.6845790065
 20
93.1622970008
  0
VERTEX
  8
0
 62
7
  6
CONTINUOUS
 10
107.2451646728
 20
93.288910887
  0
VERTEX
  8
0
 62
7
  6
CONTINUOUS
 10
107.7787123511
 20
93.4315436414
  0
VERTEX
  8
0
 62
7
  6
CONTINUOUS
 10
108.2805627291
 20
93.5902415656
  0
VERTEX
  8
0
 62
7
  6
CONTINUOUS
 10
108.7464133345
 20
93.7652353472
  0
SEQEND
  0
LINE
  8
0
 62
7
  6
CONTINUOUS
 10
104.9535133785
 20
92.8856597092
 11
104.9524934668
 21
92.8856004073
  0
LINE
  8
0
 62
7
  6
CONTINUOUS
 10
109.2453264731
 20
83.2430601613
 11
109.1406009281
 21
83.2589625356
  0
POLYLINE
  8
0
 62
7
  6
CONTINUOUS
 66
1
 70
0
  0
VERTEX
  8
0
 62
7
  6
CONTINUOUS
 10
44.2721286296
 20
102.3459630736
  0
VERTEX
  8
0
 62
7
  6
CONTINUOUS
 10
44.6730778513
 20
102.1661797984
  0
VERTEX
  8
0
 62
7
  6
CONTINUOUS
 10
45.1386908922
 20
101.9911152603
  0
VERTEX
  8
0
 62
7
  6
CONTINUOUS
 10
45.6403153726
 20
101.8323468583
  0
VERTEX
  8
0
 62
7
  6
CONTINUOUS
 10
46.1736515748
 20
101.6896421126
  0
VERTEX
  8
0
 62
7
  6
CONTINUOUS
 10
46.7340425966
 20
101.562953879
  0
VERTEX
  8
0
 62
7
  6
CONTINUOUS
 10
47.3166534021
 20
101.452266348
  0
VERTEX
  8
0
 62
7
  6
CONTINUOUS
 10
47.916478329
 20
101.3575374966
  0
VERTEX
  8
0
 62
7
  6
CONTINUOUS
 10
48.4682714504
 20
101.2856596829
  0
SEQEND
  0
LINE
  8
0
 62
7
  6
CONTINUOUS
 10
69.4442286947
 20
81.4476513764
 11
68.8220064725
 21
81.863391086
  0
POLYLINE
  8
0
 62
7
  6
CONTINUOUS
 66
1
 70
0
  0
VERTEX
  8
0
 62
7
  6
CONTINUOUS
 10
42.8108954649
 20
69.6442586276
  0
VERTEX
  8
0
 62
7
  6
CONTINUOUS
 10
42.8145135798
 20
69.5734634764
  0
VERTEX
  8
0
 62
7
  6
CONTINUOUS
 10
42.8465901253
 20
69.4257404386
  0
VERTEX
  8
0
 62
7
  6
CONTINUOUS
 10
42.9094302308
 20
69.2908190721
  0
VERTEX
  8
0
 62
7
  6
CONTINUOUS
 10
42.9928138099
 20
69.1801850678
  0
VERTEX
  8
0
 62
7
  6
CONTINUOUS
 10
43.0840253719
 20
69.0964304587
  0
VERTEX
  8
0
 62
7
  6
CONTINUOUS
 10
43.1755685647
 20
69.0342902074
  0
VERTEX
  8
0
 62
7
  6
CONTINUOUS
 10
43.266962775
 20
68.986242509
  0
VERTEX
  8
0
 62
7
  6
CONTINUOUS
 10
43.3610764811
 20
68.946550062
  0
VERTEX
  8
0
 62
7
  6
CONTINUOUS
 10
43.46180943
 20
68.911535431
  0
VERTEX
  8
0
 62
7
  6
CONTINUOUS
 10
43.5732451603
 20
68.8789589266
  0
VERTEX
  8
0
 62
7
  6
CONTINUOUS
 10
43.6990615479
 20
68.8475602599
  0
VERTEX
  8
0
 62
7
  6
CONTINUOUS
 10
43.8426658932
 20
68.8166242084
  0
VERTEX
  8
0
 62
7
  6
CONTINUOUS
 10
44.0074295062
 20
68.7857331643
  0
VERTEX
  8
0
 62
7
  6
CONTINUOUS
 10
44.1764716367
 20
68.757803182
  0
SEQEND
  0
POLYLINE
  8
0
 62
7
  6
CONTINUOUS
 66
1
 70
0
  0
VERTEX
  8
0
 62
7
  6
CONTINUOUS
 10
42.8108954649
 20
86.4442586282
  0
VERTEX
  8
0
 62
7
  6
CONTINUOUS
 10
42.814513598
 20
86.3734633004
  0
VERTEX
  8
0
 62
7
  6
CONTINUOUS
 10
42.8465902031
 20
86.2257402082
  0
VERTEX
  8
0
 62
7
  6
CONTINUOUS
 10
42.909430341
 20
86.0908188905
  0
VERTEX
  8
0
 62
7
  6
CONTINUOUS
 10
42.9928138773
 20
85.9801849946
  0
VERTEX
  8
0
 62
7
  6
CONTINUOUS
 10
43.0840253721
 20
85.8964304586
  0
VERTEX
  8
0
 62
7
  6
CONTINUOUS
 10
43.1755684726
 20
85.8342902619
  0
VERTEX
  8
0
 62
7
  6
CONTINUOUS
 10
43.2669625964
 20
85.7862425926
  0
VERTEX
  8
0
 62
7
  6
CONTINUOUS
 10
43.3610762445
 20
85.7465501522
  0
VERTEX
  8
0
 62
7
  6
CONTINUOUS
 10
43.4618091449
 20
85.7115355216
  0
VERTEX
  8
0
 62
7
  6
CONTINUOUS
 10
43.5732448411
 20
85.6789590126
  0
VERTEX
  8
0
 62
7
  6
CONTINUOUS
 10
43.699061223
 20
85.6475603352
  0
VERTEX
  8
0
 62
7
  6
CONTINUOUS
 10
43.8426656081
 20
85.6166242657
  0
VERTEX
  8
0
 62
7
  6
CONTINUOUS
 10
44.0074293258
 20
85.585733196
  0
VERTEX
  8
0
 62
7
  6
CONTINUOUS
 10
44.1764716367
 20
85.557803182
  0
SEQEND
  0
LINE
  8
0
 62
7
  6
CONTINUOUS
 10
68.8220064725
 20
179.3374734089
 11
69.4442286947
 21
179.7532131185
  0
LINE
  8
0
 62
7
  6
CONTINUOUS
 10
108.7464133345
 20
194.5652353472
 11
109.1496599671
 21
194.7459620304
  0
POLYLINE
  8
0
 62
7
  6
CONTINUOUS
 66
1
 70
0
  0
VERTEX
  8
0
 62
7
  6
CONTINUOUS
 10
44.1764715851
 20
91.6430613048
  0
VERTEX
  8
0
 62
7
  6
CONTINUOUS
 10
44.0076765317
 20
91.6151746591
  0
VERTEX
  8
0
 62
7
  6
CONTINUOUS
 10
43.8431163153
 20
91.5843307577
  0
VERTEX
  8
0
 62
7
  6
CONTINUOUS
 10
43.6996780388
 20
91.5534470069
  0
VERTEX
  8
0
 62
7
  6
CONTINUOUS
 10
43.5739997383
 20
91.5221089603
  0
VERTEX
  8
0
 62
7
  6
CONTINUOUS
 10
43.462686068
 20
91.489607575
  0
VERTEX
  8
0
 62
7
  6
CONTINUOUS
 10
43.3620764465
 20
91.4546952721
  0
VERTEX
  8
0
 62
7
  6
CONTINUOUS
 10
43.2681115754
 20
91.4151586449
  0
VERTEX
  8
0
 62
7
  6
CONTINUOUS
 10
43.1769157944
 20
91.3673700536
  0
VERTEX
  8
0
 62
7
  6
CONTINUOUS
 10
43.085603618
 20
91.3056610104
  0
VERTEX
  8
0
 62
7
  6
CONTINUOUS
 10
42.9945558641
 20
91.222563943
  0
VERTEX
  8
0
 62
7
  6
CONTINUOUS
 10
42.911086305
 20
91.112758678
  0
VERTEX
  8
0
 62
7
  6
CONTINUOUS
 10
42.8477759978
 20
90.9786048958
  0
VERTEX
  8
0
 62
7
  6
CONTINUOUS
 10
42.8149325224
 20
90.8313586406
  0
VERTEX
  8
0
 62
7
  6
CONTINUOUS
 10
42.8108954683
 20
90.7566029349
  0
SEQEND
  0
LINE
  8
0
 62
7
  6
CONTINUOUS
 10
44.2811907218
 20
91.6589648102
 11
44.1764633798
 21
91.6430600256
  0
POLYLINE
  8
0
 62
7
  6
CONTINUOUS
 66
1
 70
0
  0
VERTEX
  8
0
 62
7
  6
CONTINUOUS
 10
48.4682714504
 20
92.715204812
  0
VERTEX
  8
0
 62
7
  6
CONTINUOUS
 10
47.916478329
 20
92.6433269983
  0
VERTEX
  8
0
 62
7
  6
CONTINUOUS
 10
47.3166534021
 20
92.5485981469
  0
VERTEX
  8
0
 62
7
  6
CONTINUOUS
 10
46.7340425966
 20
92.4379106159
  0
VERTEX
  8
0
 62
7
  6
CONTINUOUS
 10
46.1736515748
 20
92.3112223824
  0
VERTEX
  8
0
 62
7
  6
CONTINUOUS
 10
45.6403153726
 20
92.1685176366
  0
VERTEX
  8
0
 62
7
  6
CONTINUOUS
 10
45.1386908922
 20
92.0097492347
  0
VERTEX
  8
0
 62
7
  6
CONTINUOUS
 10
44.6730778513
 20
91.8346846965
  0
SEQEND
  0
LINE
  8
0
 62
7
  6
CONTINUOUS
 10
48.4682773161
 20
92.7152047824
 11
48.4692972559
 21
92.7152640876
  0
POLYLINE
  8
0
 62
7
  6
CONTINUOUS
 66
1
 70
0
  0
VERTEX
  8
0
 62
7
  6
CONTINUOUS
 10
54.593897002
 20
92.7083015856
  0
VERTEX
  8
0
 62
7
  6
CONTINUOUS
 10
54.3004330162
 20
92.7122660621
  0
VERTEX
  8
0
 62
7
  6
CONTINUOUS
 10
54.0174208147
 20
92.7147078059
  0
VERTEX
  8
0
 62
7
  6
CONTINUOUS
 10
48.4693592674
 20
92.7152640906
  0
SEQEND
  0
POLYLINE
  8
0
 62
7
  6
CONTINUOUS
 66
1
 70
0
  0
VERTEX
  8
0
 62
7
  6
CONTINUOUS
 10
98.8315225465
 20
92.8925295265
  0
VERTEX
  8
0
 62
7
  6
CONTINUOUS
 10
99.1253216437
 20
92.8885519713
  0
VERTEX
  8
0
 62
7
  6
CONTINUOUS
 10
99.4083433042
 20
92.8861359968
  0
VERTEX
  8
0
 62
7
  6
CONTINUOUS
 10
104.9524314554
 20
92.8856004043
  0
SEQEND
  0
LINE
  8
0
 62
7
  6
CONTINUOUS
 10
44.1764633798
 20
102.3578044693
 11
44.2811907218
 21
102.3418996847
  0
LINE
  8
0
 62
7
  6
CONTINUOUS
 10
83.977562028
 20
78.9532131185
 11
84.5997842503
 21
78.5374734089
  0
LINE
  8
0
 62
7
  6
CONTINUOUS
 10
65.977562028
 20
95.7532131185
 11
66.5997842503
 21
95.3374734089
  0
LINE
  8
0
 62
7
  6
CONTINUOUS
 10
87.4442286947
 20
81.4476513764
 11
86.8220064725
 21
81.863391086
  0
POLYLINE
  8
0
 62
7
  6
CONTINUOUS
 66
1
 70
0
  0
VERTEX
  8
0
 62
7
  6
CONTINUOUS
 10
104.9535091228
 20
67.5152047645
  0
VERTEX
  8
0
 62
7
  6
CONTINUOUS
 10
104.9621060208
 20
67.5093930641
  0
VERTEX
  8
0
 62
7
  6
CONTINUOUS
 10
104.9708993392
 20
67.4903063112
  0
VERTEX
  8
0
 62
7
  6
CONTINUOUS
 10
104.977627782
 20
67.4591050641
  0
VERTEX
  8
0
 62
7
  6
CONTINUOUS
 10
104.9819474853
 20
67.4177865182
  0
VERTEX
  8
0
 62
7
  6
CONTINUOUS
 10
104.983736372
 20
67.369090172
  0
VERTEX
  8
0
 62
7
  6
CONTINUOUS
 10
104.9831766846
 20
67.3152640906
  0
SEQEND
  0
POLYLINE
  8
0
 62
7
  6
CONTINUOUS
 66
1
 70
0
  0
VERTEX
  8
0
 62
7
  6
CONTINUOUS
 10
42.8108954649
 20
103.2442586282
  0
VERTEX
  8
0
 62
7
  6
CONTINUOUS
 10
42.814513598
 20
103.1734633004
  0
VERTEX
  8
0
 62
7
  6
CONTINUOUS
 10
42.8465902031
 20
103.0257402082
  0
VERTEX
  8
0
 62
7
  6
CONTINUOUS
 10
42.909430341
 20
102.8908188905
  0
VERTEX
  8
0
 62
7
  6
CONTINUOUS
 10
42.9928138773
 20
102.7801849946
  0
VERTEX
  8
0
 62
7
  6
CONTINUOUS
 10
43.0840253721
 20
102.6964304586
  0
VERTEX
  8
0
 62
7
  6
CONTINUOUS
 10
43.1755684726
 20
102.6342902619
  0
VERTEX
  8
0
 62
7
  6
CONTINUOUS
 10
43.2669625964
 20
102.5862425926
  0
VERTEX
  8
0
 62
7
  6
CONTINUOUS
 10
43.3610762445
 20
102.5465501522
  0
VERTEX
  8
0
 62
7
  6
CONTINUOUS
 10
43.4618091449
 20
102.5115355216
  0
VERTEX
  8
0
 62
7
  6
CONTINUOUS
 10
43.5732448411
 20
102.4789590126
  0
VERTEX
  8
0
 62
7
  6
CONTINUOUS
 10
43.699061223
 20
102.4475603352
  0
VERTEX
  8
0
 62
7
  6
CONTINUOUS
 10
43.8426656081
 20
102.4166242657
  0
VERTEX
  8
0
 62
7
  6
CONTINUOUS
 10
44.0074293258
 20
102.385733196
  0
VERTEX
  8
0
 62
7
  6
CONTINUOUS
 10
44.1764716367
 20
102.357803182
  0
SEQEND
  0
POLYLINE
  8
0
 62
7
  6
CONTINUOUS
 66
1
 70
0
  0
VERTEX
  8
0
 62
7
  6
CONTINUOUS
 10
42.8108954649
 20
120.0442586282
  0
VERTEX
  8
0
 62
7
  6
CONTINUOUS
 10
42.814513598
 20
119.9734633004
  0
VERTEX
  8
0
 62
7
  6
CONTINUOUS
 10
42.8465902031
 20
119.8257402082
  0
VERTEX
  8
0
 62
7
  6
CONTINUOUS
 10
42.909430341
 20
119.6908188905
  0
VERTEX
  8
0
 62
7
  6
CONTINUOUS
 10
42.9928138773
 20
119.5801849946
  0
VERTEX
  8
0
 62
7
  6
CONTINUOUS
 10
43.0840253721
 20
119.4964304586
  0
VERTEX
  8
0
 62
7
  6
CONTINUOUS
 10
43.1755684726
 20
119.4342902619
  0
VERTEX
  8
0
 62
7
  6
CONTINUOUS
 10
43.2669625964
 20
119.3862425926
  0
VERTEX
  8
0
 62
7
  6
CONTINUOUS
 10
43.3610762445
 20
119.3465501522
  0
VERTEX
  8
0
 62
7
  6
CONTINUOUS
 10
43.4618091449
 20
119.3115355216
  0
VERTEX
  8
0
 62
7
  6
CONTINUOUS
 10
43.5732448411
 20
119.2789590126
  0
VERTEX
  8
0
 62
7
  6
CONTINUOUS
 10
43.699061223
 20
119.2475603352
  0
VERTEX
  8
0
 62
7
  6
CONTINUOUS
 10
43.8426656081
 20
119.2166242657
  0
VERTEX
  8
0
 62
7
  6
CONTINUOUS
 10
44.0074293258
 20
119.185733196
  0
VERTEX
  8
0
 62
7
  6
CONTINUOUS
 10
44.1764716367
 20
119.157803182
  0
SEQEND
  0
POLYLINE
  8
0
 62
7
  6
CONTINUOUS
 66
1
 70
0
  0
VERTEX
  8
0
 62
7
  6
CONTINUOUS
 10
42.8108954649
 20
136.8442586282
  0
VERTEX
  8
0
 62
7
  6
CONTINUOUS
 10
42.814513598
 20
136.7734633004
  0
VERTEX
  8
0
 62
7
  6
CONTINUOUS
 10
42.8465902031
 20
136.6257402082
  0
VERTEX
  8
0
 62
7
  6
CONTINUOUS
 10
42.909430341
 20
136.4908188905
  0
VERTEX
  8
0
 62
7
  6
CONTINUOUS
 10
42.9928138773
 20
136.3801849946
  0
VERTEX
  8
0
 62
7
  6
CONTINUOUS
 10
43.0840253721
 20
136.2964304586
  0
VERTEX
  8
0
 62
7
  6
CONTINUOUS
 10
43.1755684726
 20
136.2342902619
  0
VERTEX
  8
0
 62
7
  6
CONTINUOUS
 10
43.2669625964
 20
136.1862425926
  0
VERTEX
  8
0
 62
7
  6
CONTINUOUS
 10
43.3610762445
 20
136.1465501522
  0
VERTEX
  8
0
 62
7
  6
CONTINUOUS
 10
43.4618091449
 20
136.1115355216
  0
VERTEX
  8
0
 62
7
  6
CONTINUOUS
 10
43.5732448411
 20
136.0789590126
  0
VERTEX
  8
0
 62
7
  6
CONTINUOUS
 10
43.699061223
 20
136.0475603352
  0
VERTEX
  8
0
 62
7
  6
CONTINUOUS
 10
43.8426656081
 20
136.0166242657
  0
VERTEX
  8
0
 62
7
  6
CONTINUOUS
 10
44.0074293258
 20
135.985733196
  0
VERTEX
  8
0
 62
7
  6
CONTINUOUS
 10
44.1764716367
 20
135.957803182
  0
SEQEND
  0
POLYLINE
  8
0
 62
7
  6
CONTINUOUS
 66
1
 70
0
  0
VERTEX
  8
0
 62
7
  6
CONTINUOUS
 10
42.8108954649
 20
153.6442586282
  0
VERTEX
  8
0
 62
7
  6
CONTINUOUS
 10
42.814513598
 20
153.5734633004
  0
VERTEX
  8
0
 62
7
  6
CONTINUOUS
 10
42.8465902031
 20
153.4257402082
  0
VERTEX
  8
0
 62
7
  6
CONTINUOUS
 10
42.909430341
 20
153.2908188905
  0
VERTEX
  8
0
 62
7
  6
CONTINUOUS
 10
42.9928138773
 20
153.1801849946
  0
VERTEX
  8
0
 62
7
  6
CONTINUOUS
 10
43.0840253721
 20
153.0964304586
  0
VERTEX
  8
0
 62
7
  6
CONTINUOUS
 10
43.1755684726
 20
153.0342902619
  0
VERTEX
  8
0
 62
7
  6
CONTINUOUS
 10
43.2669625964
 20
152.9862425926
  0
VERTEX
  8
0
 62
7
  6
CONTINUOUS
 10
43.3610762445
 20
152.9465501522
  0
VERTEX
  8
0
 62
7
  6
CONTINUOUS
 10
43.4618091449
 20
152.9115355216
  0
VERTEX
  8
0
 62
7
  6
CONTINUOUS
 10
43.5732448411
 20
152.8789590126
  0
VERTEX
  8
0
 62
7
  6
CONTINUOUS
 10
43.699061223
 20
152.8475603352
  0
VERTEX
  8
0
 62
7
  6
CONTINUOUS
 10
43.8426656081
 20
152.8166242657
  0
VERTEX
  8
0
 62
7
  6
CONTINUOUS
 10
44.0074293258
 20
152.785733196
  0
VERTEX
  8
0
 62
7
  6
CONTINUOUS
 10
44.1764716367
 20
152.757803182
  0
SEQEND
  0
POLYLINE
  8
0
 62
7
  6
CONTINUOUS
 66
1
 70
0
  0
VERTEX
  8
0
 62
7
  6
CONTINUOUS
 10
42.8108954649
 20
170.4442586282
  0
VERTEX
  8
0
 62
7
  6
CONTINUOUS
 10
42.814513598
 20
170.3734633004
  0
VERTEX
  8
0
 62
7
  6
CONTINUOUS
 10
42.8465902031
 20
170.2257402082
  0
VERTEX
  8
0
 62
7
  6
CONTINUOUS
 10
42.909430341
 20
170.0908188905
  0
VERTEX
  8
0
 62
7
  6
CONTINUOUS
 10
42.9928138773
 20
169.9801849946
  0
VERTEX
  8
0
 62
7
  6
CONTINUOUS
 10
43.0840253721
 20
169.8964304586
  0
VERTEX
  8
0
 62
7
  6
CONTINUOUS
 10
43.1755684726
 20
169.8342902619
  0
VERTEX
  8
0
 62
7
  6
CONTINUOUS
 10
43.2669625964
 20
169.7862425926
  0
VERTEX
  8
0
 62
7
  6
CONTINUOUS
 10
43.3610762445
 20
169.7465501522
  0
VERTEX
  8
0
 62
7
  6
CONTINUOUS
 10
43.4618091449
 20
169.7115355216
  0
VERTEX
  8
0
 62
7
  6
CONTINUOUS
 10
43.5732448411
 20
169.6789590126
  0
VERTEX
  8
0
 62
7
  6
CONTINUOUS
 10
43.699061223
 20
169.6475603352
  0
VERTEX
  8
0
 62
7
  6
CONTINUOUS
 10
43.8426656081
 20
169.6166242657
  0
VERTEX
  8
0
 62
7
  6
CONTINUOUS
 10
44.0074293258
 20
169.585733196
  0
VERTEX
  8
0
 62
7
  6
CONTINUOUS
 10
44.1764716367
 20
169.557803182
  0
SEQEND
  0
POLYLINE
  8
0
 62
7
  6
CONTINUOUS
 66
1
 70
0
  0
VERTEX
  8
0
 62
7
  6
CONTINUOUS
 10
42.8108954649
 20
187.2442586282
  0
VERTEX
  8
0
 62
7
  6
CONTINUOUS
 10
42.814513598
 20
187.1734633004
  0
VERTEX
  8
0
 62
7
  6
CONTINUOUS
 10
42.8465902031
 20
187.0257402082
  0
VERTEX
  8
0
 62
7
  6
CONTINUOUS
 10
42.909430341
 20
186.8908188905
  0
VERTEX
  8
0
 62
7
  6
CONTINUOUS
 10
42.9928138773
 20
186.7801849946
  0
VERTEX
  8
0
 62
7
  6
CONTINUOUS
 10
43.0840253721
 20
186.6964304586
  0
VERTEX
  8
0
 62
7
  6
CONTINUOUS
 10
43.1755684726
 20
186.6342902619
  0
VERTEX
  8
0
 62
7
  6
CONTINUOUS
 10
43.2669625964
 20
186.5862425926
  0
VERTEX
  8
0
 62
7
  6
CONTINUOUS
 10
43.3610762445
 20
186.5465501522
  0
VERTEX
  8
0
 62
7
  6
CONTINUOUS
 10
43.4618091449
 20
186.5115355216
  0
VERTEX
  8
0
 62
7
  6
CONTINUOUS
 10
43.5732448411
 20
186.4789590126
  0
VERTEX
  8
0
 62
7
  6
CONTINUOUS
 10
43.699061223
 20
186.4475603352
  0
VERTEX
  8
0
 62
7
  6
CONTINUOUS
 10
43.8426656081
 20
186.4166242657
  0
VERTEX
  8
0
 62
7
  6
CONTINUOUS
 10
44.0074293258
 20
186.385733196
  0
VERTEX
  8
0
 62
7
  6
CONTINUOUS
 10
44.1764716367
 20
186.357803182
  0
SEQEND
  0
POLYLINE
  8
0
 62
7
  6
CONTINUOUS
 66
1
 70
0
  0
VERTEX
  8
0
 62
7
  6
CONTINUOUS
 10
42.810895452
 20
204.0442471278
  0
VERTEX
  8
0
 62
7
  6
CONTINUOUS
 10
42.8137234856
 20
203.9816181252
  0
VERTEX
  8
0
 62
7
  6
CONTINUOUS
 10
42.8450284556
 20
203.8304219063
  0
VERTEX
  8
0
 62
7
  6
CONTINUOUS
 10
42.9105604917
 20
203.6889642236
  0
VERTEX
  8
0
 62
7
  6
CONTINUOUS
 10
43.000842723
 20
203.5716096171
  0
VERTEX
  8
0
 62
7
  6
CONTINUOUS
 10
43.1019152576
 20
203.4828813837
  0
VERTEX
  8
0
 62
7
  6
CONTINUOUS
 10
43.2046535964
 20
203.4177451168
  0
VERTEX
  8
0
 62
7
  6
CONTINUOUS
 10
43.309208347
 20
203.3674148606
  0
VERTEX
  8
0
 62
7
  6
CONTINUOUS
 10
43.4200651174
 20
203.3252831112
  0
VERTEX
  8
0
 62
7
  6
CONTINUOUS
 10
43.5417928002
 20
203.2876250367
  0
VERTEX
  8
0
 62
7
  6
CONTINUOUS
 10
43.6779494118
 20
203.2525087401
  0
VERTEX
  8
0
 62
7
  6
CONTINUOUS
 10
43.8314864779
 20
203.2188815704
  0
VERTEX
  8
0
 62
7
  6
CONTINUOUS
 10
44.0041503968
 20
203.1863090888
  0
VERTEX
  8
0
 62
7
  6
CONTINUOUS
 10
44.176477907
 20
203.1578022047
  0
SEQEND
  0
LINE
  8
0
 62
7
  6
CONTINUOUS
 10
42.8108953614
 20
69.6441392519
 11
42.8108953614
 21
73.9567213021
  0
LINE
  8
0
 62
7
  6
CONTINUOUS
 10
42.8108953614
 20
86.4441431928
 11
42.8108953614
 21
90.7567213021
  0
LINE
  8
0
 62
7
  6
CONTINUOUS
 10
42.8108953614
 20
103.2441431928
 11
42.8108953614
 21
107.5567213021
  0
LINE
  8
0
 62
7
  6
CONTINUOUS
 10
42.8108953614
 20
120.0441431928
 11
42.8108953614
 21
124.3567213021
  0
LINE
  8
0
 62
7
  6
CONTINUOUS
 10
42.8108953614
 20
136.8441431928
 11
42.8108953614
 21
141.1567213021
  0
LINE
  8
0
 62
7
  6
CONTINUOUS
 10
42.8108953614
 20
153.6441431928
 11
42.8108953614
 21
157.9567213021
  0
LINE
  8
0
 62
7
  6
CONTINUOUS
 10
42.8108953614
 20
170.4441431928
 11
42.8108953614
 21
174.7567213021
  0
LINE
  8
0
 62
7
  6
CONTINUOUS
 10
42.8108953614
 20
187.2441431928
 11
42.8108953614
 21
191.5567213021
  0
LINE
  8
0
 62
7
  6
CONTINUOUS
 10
42.8108953614
 20
204.0441361561
 11
42.8108953614
 21
210.1004133354
  0
LINE
  8
0
 62
7
  6
CONTINUOUS
 10
84.5997842503
 20
182.663391086
 11
83.977562028
 21
182.2476513764
  0
LINE
  8
0
 62
7
  6
CONTINUOUS
 10
66.5997842503
 20
165.863391086
 11
65.977562028
 21
165.4476513764
  0
LINE
  8
0
 62
7
  6
CONTINUOUS
 10
86.8220064725
 20
179.3374734089
 11
87.4442286947
 21
179.7532131185
  0
LINE
  8
0
 62
7
  6
CONTINUOUS
 10
44.6730778513
 20
159.0346846965
 11
44.2721286296
 21
158.8549014213
  0
POLYLINE
  8
0
 62
7
  6
CONTINUOUS
 66
1
 70
0
  0
VERTEX
  8
0
 62
7
  6
CONTINUOUS
 10
54.2964691297
 20
101.2885519711
  0
VERTEX
  8
0
 62
7
  6
CONTINUOUS
 10
54.5897912486
 20
101.292524948
  0
VERTEX
  8
0
 62
7
  6
CONTINUOUS
 10
54.6693847917
 20
101.2926512714
  0
VERTEX
  8
0
 62
7
  6
CONTINUOUS
 10
54.7484474529
 20
101.291372592
  0
VERTEX
  8
0
 62
7
  6
CONTINUOUS
 10
54.8266991771
 20
101.2884861152
  0
VERTEX
  8
0
 62
7
  6
CONTINUOUS
 10
54.9039174211
 20
101.2837707132
  0
VERTEX
  8
0
 62
7
  6
CONTINUOUS
 10
54.97988247
 20
101.2770277927
  0
VERTEX
  8
0
 62
7
  6
CONTINUOUS
 10
55.0541616147
 20
101.2680814465
  0
VERTEX
  8
0
 62
7
  6
CONTINUOUS
 10
55.126246613
 20
101.2567619293
  0
VERTEX
  8
0
 62
7
  6
CONTINUOUS
 10
55.1963512819
 20
101.2428705301
  0
VERTEX
  8
0
 62
7
  6
CONTINUOUS
 10
55.264001434
 20
101.2261706542
  0
VERTEX
  8
0
 62
7
  6
CONTINUOUS
 10
55.3280696183
 20
101.2064561123
  0
VERTEX
  8
0
 62
7
  6
CONTINUOUS
 10
55.3875594433
 20
101.1831094347
  0
VERTEX
  8
0
 62
7
  6
CONTINUOUS
 10
55.4428283922
 20
101.1556410115
  0
VERTEX
  8
0
 62
7
  6
CONTINUOUS
 10
55.4922729215
 20
101.124626135
  0
VERTEX
  8
0
 62
7
  6
CONTINUOUS
 10
55.5344518944
 20
101.091183449
  0
VERTEX
  8
0
 62
7
  6
CONTINUOUS
 10
55.5697261862
 20
101.0553135576
  0
VERTEX
  8
0
 62
7
  6
CONTINUOUS
 10
55.5980219977
 20
101.0169933823
  0
VERTEX
  8
0
 62
7
  6
CONTINUOUS
 10
55.6187321033
 20
100.9761623818
  0
VERTEX
  8
0
 62
7
  6
CONTINUOUS
 10
55.6303203653
 20
100.9333655591
  0
VERTEX
  8
0
 62
7
  6
CONTINUOUS
 10
55.6320868755
 20
100.9099957608
  0
SEQEND
  0
POLYLINE
  8
0
 62
7
  6
CONTINUOUS
 66
1
 70
0
  0
VERTEX
  8
0
 62
7
  6
CONTINUOUS
 10
99.1213538631
 20
101.1122656591
  0
VERTEX
  8
0
 62
7
  6
CONTINUOUS
 10
98.8273220921
 20
101.1082959381
  0
VERTEX
  8
0
 62
7
  6
CONTINUOUS
 10
98.7474529191
 20
101.1082492717
  0
VERTEX
  8
0
 62
7
  6
CONTINUOUS
 10
98.6682774559
 20
101.1096260364
  0
VERTEX
  8
0
 62
7
  6
CONTINUOUS
 10
98.5900554821
 20
101.1126251458
  0
VERTEX
  8
0
 62
7
  6
CONTINUOUS
 10
98.5129843626
 20
101.1174607156
  0
VERTEX
  8
0
 62
7
  6
CONTINUOUS
 10
98.43727119
 20
101.1243218454
  0
VERTEX
  8
0
 62
7
  6
CONTINUOUS
 10
98.3633439211
 20
101.1333777437
  0
VERTEX
  8
0
 62
7
  6
CONTINUOUS
 10
98.2916487449
 20
101.1447933995
  0
VERTEX
  8
0
 62
7
  6
CONTINUOUS
 10
98.2220497228
 20
101.1587493756
  0
VERTEX
  8
0
 62
7
  6
CONTINUOUS
 10
98.1548141367
 20
101.1755171301
  0
VERTEX
  8
0
 62
7
  6
CONTINUOUS
 10
98.0913850958
 20
101.1952192821
  0
VERTEX
  8
0
 62
7
  6
CONTINUOUS
 10
98.0323902034
 20
101.2185706801
  0
VERTEX
  8
0
 62
7
  6
CONTINUOUS
 10
97.9776201984
 20
101.2459735637
  0
VERTEX
  8
0
 62
7
  6
CONTINUOUS
 10
97.928688931
 20
101.2768226974
  0
VERTEX
  8
0
 62
7
  6
CONTINUOUS
 10
97.8866625682
 20
101.3102867003
  0
VERTEX
  8
0
 62
7
  6
CONTINUOUS
 10
97.8513188935
 20
101.3464219023
  0
VERTEX
  8
0
 62
7
  6
CONTINUOUS
 10
97.8229537501
 20
101.385185144
  0
VERTEX
  8
0
 62
7
  6
CONTINUOUS
 10
97.8023774524
 20
101.4264587437
  0
VERTEX
  8
0
 62
7
  6
CONTINUOUS
 10
97.7911944253
 20
101.4694560798
  0
VERTEX
  8
0
 62
7
  6
CONTINUOUS
 10
97.789704413
 20
101.490694983
  0
SEQEND
  0
LINE
  8
0
 62
7
  6
CONTINUOUS
 10
99.4043680321
 20
101.1147077137
 11
99.1213538631
 21
101.1122656591
  0
LINE
  8
0
 62
7
  6
CONTINUOUS
 10
54.013447393
 20
101.2861359966
 11
54.2964691297
 21
101.2885519711
  0
LINE
  8
0
 62
7
  6
CONTINUOUS
 10
99.4043680321
 20
101.1147077137
 11
104.9524689727
 21
101.1152640906
  0
LINE
  8
0
 62
7
  6
CONTINUOUS
 10
48.4693592674
 20
101.2856004043
 11
54.013447393
 21
101.2861359966
  0
LINE
  8
0
 62
7
  6
CONTINUOUS
 10
48.4682773161
 20
101.2856597125
 11
48.4692972559
 21
101.2856004073
  0
LINE
  8
0
 62
7
  6
CONTINUOUS
 10
104.9525010857
 20
101.1152640905
 11
104.9535091228
 21
101.1152047645
  0
POLYLINE
  8
0
 62
7
  6
CONTINUOUS
 66
1
 70
0
  0
VERTEX
  8
0
 62
7
  6
CONTINUOUS
 10
109.1496599671
 20
83.2549024645
  0
VERTEX
  8
0
 62
7
  6
CONTINUOUS
 10
108.7464132276
 20
83.4356291916
  0
VERTEX
  8
0
 62
7
  6
CONTINUOUS
 10
108.2805624964
 20
83.6106230094
  0
VERTEX
  8
0
 62
7
  6
CONTINUOUS
 10
107.7787119763
 20
83.7693209624
  0
VERTEX
  8
0
 62
7
  6
CONTINUOUS
 10
107.2451641429
 20
83.9119537381
  0
VERTEX
  8
0
 62
7
  6
CONTINUOUS
 10
106.684578312
 20
84.0385676379
  0
VERTEX
  8
0
 62
7
  6
CONTINUOUS
 10
106.101791177
 20
84.1491782488
  0
VERTEX
  8
0
 62
7
  6
CONTINUOUS
 10
105.5018095887
 20
84.2438277086
  0
VERTEX
  8
0
 62
7
  6
CONTINUOUS
 10
104.9535192442
 20
84.3152048153
  0
SEQEND
  0
LINE
  8
0
 62
7
  6
CONTINUOUS
 10
69.4442286947
 20
98.2476513764
 11
68.8220064725
 21
98.663391086
  0
POLYLINE
  8
0
 62
7
  6
CONTINUOUS
 66
1
 70
0
  0
VERTEX
  8
0
 62
7
  6
CONTINUOUS
 10
48.4386140381
 20
75.7152640906
  0
VERTEX
  8
0
 62
7
  6
CONTINUOUS
 10
48.4380020854
 20
75.7622927626
  0
VERTEX
  8
0
 62
7
  6
CONTINUOUS
 10
48.4391411063
 20
75.8058151036
  0
VERTEX
  8
0
 62
7
  6
CONTINUOUS
 10
48.442226079
 20
75.8444665523
  0
VERTEX
  8
0
 62
7
  6
CONTINUOUS
 10
48.4472432134
 20
75.8761149758
  0
VERTEX
  8
0
 62
7
  6
CONTINUOUS
 10
48.4540132292
 20
75.89906549
  0
VERTEX
  8
0
 62
7
  6
CONTINUOUS
 10
48.4622279029
 20
75.9121911718
  0
VERTEX
  8
0
 62
7
  6
CONTINUOUS
 10
48.4682773161
 20
75.9152047824
  0
SEQEND
  0
POLYLINE
  8
0
 62
7
  6
CONTINUOUS
 66
1
 70
0
  0
VERTEX
  8
0
 62
7
  6
CONTINUOUS
 10
48.4386140381
 20
92.5152640906
  0
VERTEX
  8
0
 62
7
  6
CONTINUOUS
 10
48.4380020854
 20
92.5622927626
  0
VERTEX
  8
0
 62
7
  6
CONTINUOUS
 10
48.4391411063
 20
92.6058151036
  0
VERTEX
  8
0
 62
7
  6
CONTINUOUS
 10
48.442226079
 20
92.6444665523
  0
VERTEX
  8
0
 62
7
  6
CONTINUOUS
 10
48.4472432134
 20
92.6761149758
  0
VERTEX
  8
0
 62
7
  6
CONTINUOUS
 10
48.4540132292
 20
92.69906549
  0
VERTEX
  8
0
 62
7
  6
CONTINUOUS
 10
48.4622279029
 20
92.7121911718
  0
VERTEX
  8
0
 62
7
  6
CONTINUOUS
 10
48.4682773161
 20
92.7152047824
  0
SEQEND
  0
POLYLINE
  8
0
 62
7
  6
CONTINUOUS
 66
1
 70
0
  0
VERTEX
  8
0
 62
7
  6
CONTINUOUS
 10
48.4386140381
 20
109.3152640906
  0
VERTEX
  8
0
 62
7
  6
CONTINUOUS
 10
48.4380020854
 20
109.3622927626
  0
VERTEX
  8
0
 62
7
  6
CONTINUOUS
 10
48.4391411063
 20
109.4058151036
  0
VERTEX
  8
0
 62
7
  6
CONTINUOUS
 10
48.442226079
 20
109.4444665523
  0
VERTEX
  8
0
 62
7
  6
CONTINUOUS
 10
48.4472432134
 20
109.4761149758
  0
VERTEX
  8
0
 62
7
  6
CONTINUOUS
 10
48.4540132292
 20
109.49906549
  0
VERTEX
  8
0
 62
7
  6
CONTINUOUS
 10
48.4622279029
 20
109.5121911718
  0
VERTEX
  8
0
 62
7
  6
CONTINUOUS
 10
48.4682773161
 20
109.5152047824
  0
SEQEND
  0
POLYLINE
  8
0
 62
7
  6
CONTINUOUS
 66
1
 70
0
  0
VERTEX
  8
0
 62
7
  6
CONTINUOUS
 10
48.4386140381
 20
126.1152640906
  0
VERTEX
  8
0
 62
7
  6
CONTINUOUS
 10
48.4380020854
 20
126.1622927626
  0
VERTEX
  8
0
 62
7
  6
CONTINUOUS
 10
48.4391411063
 20
126.2058151036
  0
VERTEX
  8
0
 62
7
  6
CONTINUOUS
 10
48.442226079
 20
126.2444665523
  0
VERTEX
  8
0
 62
7
  6
CONTINUOUS
 10
48.4472432134
 20
126.2761149758
  0
VERTEX
  8
0
 62
7
  6
CONTINUOUS
 10
48.4540132292
 20
126.29906549
  0
VERTEX
  8
0
 62
7
  6
CONTINUOUS
 10
48.4622279029
 20
126.3121911718
  0
VERTEX
  8
0
 62
7
  6
CONTINUOUS
 10
48.4682773161
 20
126.3152047824
  0
SEQEND
  0
POLYLINE
  8
0
 62
7
  6
CONTINUOUS
 66
1
 70
0
  0
VERTEX
  8
0
 62
7
  6
CONTINUOUS
 10
48.4386140381
 20
142.9152640906
  0
VERTEX
  8
0
 62
7
  6
CONTINUOUS
 10
48.4380020854
 20
142.9622927626
  0
VERTEX
  8
0
 62
7
  6
CONTINUOUS
 10
48.4391411063
 20
143.0058151036
  0
VERTEX
  8
0
 62
7
  6
CONTINUOUS
 10
48.442226079
 20
143.0444665523
  0
VERTEX
  8
0
 62
7
  6
CONTINUOUS
 10
48.4472432134
 20
143.0761149758
  0
VERTEX
  8
0
 62
7
  6
CONTINUOUS
 10
48.4540132292
 20
143.09906549
  0
VERTEX
  8
0
 62
7
  6
CONTINUOUS
 10
48.4622279029
 20
143.1121911718
  0
VERTEX
  8
0
 62
7
  6
CONTINUOUS
 10
48.4682773161
 20
143.1152047824
  0
SEQEND
  0
POLYLINE
  8
0
 62
7
  6
CONTINUOUS
 66
1
 70
0
  0
VERTEX
  8
0
 62
7
  6
CONTINUOUS
 10
48.4386140381
 20
159.7152640906
  0
VERTEX
  8
0
 62
7
  6
CONTINUOUS
 10
48.4380020854
 20
159.7622927626
  0
VERTEX
  8
0
 62
7
  6
CONTINUOUS
 10
48.4391411063
 20
159.8058151036
  0
VERTEX
  8
0
 62
7
  6
CONTINUOUS
 10
48.442226079
 20
159.8444665523
  0
VERTEX
  8
0
 62
7
  6
CONTINUOUS
 10
48.4472432134
 20
159.8761149758
  0
VERTEX
  8
0
 62
7
  6
CONTINUOUS
 10
48.4540132292
 20
159.89906549
  0
VERTEX
  8
0
 62
7
  6
CONTINUOUS
 10
48.4622279029
 20
159.9121911718
  0
VERTEX
  8
0
 62
7
  6
CONTINUOUS
 10
48.4682773161
 20
159.9152047824
  0
SEQEND
  0
POLYLINE
  8
0
 62
7
  6
CONTINUOUS
 66
1
 70
0
  0
VERTEX
  8
0
 62
7
  6
CONTINUOUS
 10
48.4386140381
 20
176.5152640906
  0
VERTEX
  8
0
 62
7
  6
CONTINUOUS
 10
48.4380020854
 20
176.5622927626
  0
VERTEX
  8
0
 62
7
  6
CONTINUOUS
 10
48.4391411063
 20
176.6058151036
  0
VERTEX
  8
0
 62
7
  6
CONTINUOUS
 10
48.442226079
 20
176.6444665523
  0
VERTEX
  8
0
 62
7
  6
CONTINUOUS
 10
48.4472432134
 20
176.6761149758
  0
VERTEX
  8
0
 62
7
  6
CONTINUOUS
 10
48.4540132292
 20
176.69906549
  0
VERTEX
  8
0
 62
7
  6
CONTINUOUS
 10
48.4622279029
 20
176.7121911718
  0
VERTEX
  8
0
 62
7
  6
CONTINUOUS
 10
48.4682773161
 20
176.7152047824
  0
SEQEND
  0
POLYLINE
  8
0
 62
7
  6
CONTINUOUS
 66
1
 70
0
  0
VERTEX
  8
0
 62
7
  6
CONTINUOUS
 10
48.4386140381
 20
193.3152640906
  0
VERTEX
  8
0
 62
7
  6
CONTINUOUS
 10
48.4380020854
 20
193.3622927626
  0
VERTEX
  8
0
 62
7
  6
CONTINUOUS
 10
48.4391411063
 20
193.4058151036
  0
VERTEX
  8
0
 62
7
  6
CONTINUOUS
 10
48.442226079
 20
193.4444665523
  0
VERTEX
  8
0
 62
7
  6
CONTINUOUS
 10
48.4472432134
 20
193.4761149758
  0
VERTEX
  8
0
 62
7
  6
CONTINUOUS
 10
48.4540132292
 20
193.49906549
  0
VERTEX
  8
0
 62
7
  6
CONTINUOUS
 10
48.4622279029
 20
193.5121911718
  0
VERTEX
  8
0
 62
7
  6
CONTINUOUS
 10
48.4682773161
 20
193.5152047824
  0
SEQEND
  0
LINE
  8
0
 62
7
  6
CONTINUOUS
 10
48.4386140381
 20
193.3152640906
 11
48.4386140381
 21
185.4856004043
  0
LINE
  8
0
 62
7
  6
CONTINUOUS
 10
48.4386140381
 20
176.5152640906
 11
48.4386140381
 21
168.6856004043
  0
LINE
  8
0
 62
7
  6
CONTINUOUS
 10
48.4386140381
 20
159.7152640906
 11
48.4386140381
 21
151.8856004043
  0
LINE
  8
0
 62
7
  6
CONTINUOUS
 10
48.4386140381
 20
142.9152640906
 11
48.4386140381
 21
135.0856004043
  0
LINE
  8
0
 62
7
  6
CONTINUOUS
 10
48.4386140381
 20
126.1152640906
 11
48.4386140381
 21
118.2856004043
  0
LINE
  8
0
 62
7
  6
CONTINUOUS
 10
48.4386140381
 20
109.3152640906
 11
48.4386140381
 21
101.4856004043
  0
LINE
  8
0
 62
7
  6
CONTINUOUS
 10
48.4386140381
 20
92.5152640906
 11
48.4386140381
 21
84.6856004043
  0
LINE
  8
0
 62
7
  6
CONTINUOUS
 10
48.4386140381
 20
75.7152640906
 11
48.4386140381
 21
67.8856004043
  0
LINE
  8
0
 62
7
  6
CONTINUOUS
 10
48.4386140381
 20
202.2856004043
 11
48.4386140381
 21
210.1004322475
  0
LINE
  8
DEFAULT_1
 62
2
  6
CENTER
 10
51.3108953614
 20
68.0580515171
 11
51.3108953614
 21
212.3004322475
  0
POLYLINE
  8
0
 62
7
  6
CONTINUOUS
 66
1
 70
0
  0
VERTEX
  8
0
 62
7
  6
CONTINUOUS
 10
48.4386140381
 20
202.2856004043
  0
VERTEX
  8
0
 62
7
  6
CONTINUOUS
 10
48.4380020854
 20
202.2385717323
  0
VERTEX
  8
0
 62
7
  6
CONTINUOUS
 10
48.4391411063
 20
202.1950493913
  0
VERTEX
  8
0
 62
7
  6
CONTINUOUS
 10
48.442226079
 20
202.1563979426
  0
VERTEX
  8
0
 62
7
  6
CONTINUOUS
 10
48.4472432134
 20
202.1247495191
  0
VERTEX
  8
0
 62
7
  6
CONTINUOUS
 10
48.4540132292
 20
202.1017990049
  0
VERTEX
  8
0
 62
7
  6
CONTINUOUS
 10
48.4622279029
 20
202.0886733231
  0
VERTEX
  8
0
 62
7
  6
CONTINUOUS
 10
48.4682773161
 20
202.0856597125
  0
SEQEND
  0
POLYLINE
  8
0
 62
7
  6
CONTINUOUS
 66
1
 70
0
  0
VERTEX
  8
0
 62
7
  6
CONTINUOUS
 10
48.4386140381
 20
185.4856004043
  0
VERTEX
  8
0
 62
7
  6
CONTINUOUS
 10
48.4380020854
 20
185.4385717323
  0
VERTEX
  8
0
 62
7
  6
CONTINUOUS
 10
48.4391411063
 20
185.3950493913
  0
VERTEX
  8
0
 62
7
  6
CONTINUOUS
 10
48.442226079
 20
185.3563979426
  0
VERTEX
  8
0
 62
7
  6
CONTINUOUS
 10
48.4472432134
 20
185.3247495191
  0
VERTEX
  8
0
 62
7
  6
CONTINUOUS
 10
48.4540132292
 20
185.3017990049
  0
VERTEX
  8
0
 62
7
  6
CONTINUOUS
 10
48.4622279029
 20
185.2886733231
  0
VERTEX
  8
0
 62
7
  6
CONTINUOUS
 10
48.4682773161
 20
185.2856597125
  0
SEQEND
  0
POLYLINE
  8
0
 62
7
  6
CONTINUOUS
 66
1
 70
0
  0
VERTEX
  8
0
 62
7
  6
CONTINUOUS
 10
48.4386140381
 20
168.6856004043
  0
VERTEX
  8
0
 62
7
  6
CONTINUOUS
 10
48.4380020854
 20
168.6385717323
  0
VERTEX
  8
0
 62
7
  6
CONTINUOUS
 10
48.4391411063
 20
168.5950493913
  0
VERTEX
  8
0
 62
7
  6
CONTINUOUS
 10
48.442226079
 20
168.5563979426
  0
VERTEX
  8
0
 62
7
  6
CONTINUOUS
 10
48.4472432134
 20
168.5247495191
  0
VERTEX
  8
0
 62
7
  6
CONTINUOUS
 10
48.4540132292
 20
168.5017990049
  0
VERTEX
  8
0
 62
7
  6
CONTINUOUS
 10
48.4622279029
 20
168.4886733231
  0
VERTEX
  8
0
 62
7
  6
CONTINUOUS
 10
48.4682773161
 20
168.4856597125
  0
SEQEND
  0
POLYLINE
  8
0
 62
7
  6
CONTINUOUS
 66
1
 70
0
  0
VERTEX
  8
0
 62
7
  6
CONTINUOUS
 10
48.4386140381
 20
151.8856004043
  0
VERTEX
  8
0
 62
7
  6
CONTINUOUS
 10
48.4380020854
 20
151.8385717323
  0
VERTEX
  8
0
 62
7
  6
CONTINUOUS
 10
48.4391411063
 20
151.7950493913
  0
VERTEX
  8
0
 62
7
  6
CONTINUOUS
 10
48.442226079
 20
151.7563979426
  0
VERTEX
  8
0
 62
7
  6
CONTINUOUS
 10
48.4472432134
 20
151.7247495191
  0
VERTEX
  8
0
 62
7
  6
CONTINUOUS
 10
48.4540132292
 20
151.7017990049
  0
VERTEX
  8
0
 62
7
  6
CONTINUOUS
 10
48.4622279029
 20
151.6886733231
  0
VERTEX
  8
0
 62
7
  6
CONTINUOUS
 10
48.4682773161
 20
151.6856597125
  0
SEQEND
  0
POLYLINE
  8
0
 62
7
  6
CONTINUOUS
 66
1
 70
0
  0
VERTEX
  8
0
 62
7
  6
CONTINUOUS
 10
48.4386140381
 20
135.0856004043
  0
VERTEX
  8
0
 62
7
  6
CONTINUOUS
 10
48.4380020854
 20
135.0385717323
  0
VERTEX
  8
0
 62
7
  6
CONTINUOUS
 10
48.4391411063
 20
134.9950493913
  0
VERTEX
  8
0
 62
7
  6
CONTINUOUS
 10
48.442226079
 20
134.9563979426
  0
VERTEX
  8
0
 62
7
  6
CONTINUOUS
 10
48.4472432134
 20
134.9247495191
  0
VERTEX
  8
0
 62
7
  6
CONTINUOUS
 10
48.4540132292
 20
134.9017990049
  0
VERTEX
  8
0
 62
7
  6
CONTINUOUS
 10
48.4622279029
 20
134.8886733231
  0
VERTEX
  8
0
 62
7
  6
CONTINUOUS
 10
48.4682773161
 20
134.8856597125
  0
SEQEND
  0
POLYLINE
  8
0
 62
7
  6
CONTINUOUS
 66
1
 70
0
  0
VERTEX
  8
0
 62
7
  6
CONTINUOUS
 10
48.4386140381
 20
118.2856004043
  0
VERTEX
  8
0
 62
7
  6
CONTINUOUS
 10
48.4380020854
 20
118.2385717323
  0
VERTEX
  8
0
 62
7
  6
CONTINUOUS
 10
48.4391411063
 20
118.1950493913
  0
VERTEX
  8
0
 62
7
  6
CONTINUOUS
 10
48.442226079
 20
118.1563979426
  0
VERTEX
  8
0
 62
7
  6
CONTINUOUS
 10
48.4472432134
 20
118.1247495191
  0
VERTEX
  8
0
 62
7
  6
CONTINUOUS
 10
48.4540132292
 20
118.1017990049
  0
VERTEX
  8
0
 62
7
  6
CONTINUOUS
 10
48.4622279029
 20
118.0886733231
  0
VERTEX
  8
0
 62
7
  6
CONTINUOUS
 10
48.4682773161
 20
118.0856597125
  0
SEQEND
  0
POLYLINE
  8
0
 62
7
  6
CONTINUOUS
 66
1
 70
0
  0
VERTEX
  8
0
 62
7
  6
CONTINUOUS
 10
48.4386140381
 20
101.4856004043
  0
VERTEX
  8
0
 62
7
  6
CONTINUOUS
 10
48.4380020854
 20
101.4385717323
  0
VERTEX
  8
0
 62
7
  6
CONTINUOUS
 10
48.4391411063
 20
101.3950493913
  0
VERTEX
  8
0
 62
7
  6
CONTINUOUS
 10
48.442226079
 20
101.3563979426
  0
VERTEX
  8
0
 62
7
  6
CONTINUOUS
 10
48.4472432134
 20
101.3247495191
  0
VERTEX
  8
0
 62
7
  6
CONTINUOUS
 10
48.4540132292
 20
101.3017990049
  0
VERTEX
  8
0
 62
7
  6
CONTINUOUS
 10
48.4622279029
 20
101.2886733231
  0
VERTEX
  8
0
 62
7
  6
CONTINUOUS
 10
48.4682773161
 20
101.2856597125
  0
SEQEND
  0
POLYLINE
  8
0
 62
7
  6
CONTINUOUS
 66
1
 70
0
  0
VERTEX
  8
0
 62
7
  6
CONTINUOUS
 10
48.4386140381
 20
84.6856004043
  0
VERTEX
  8
0
 62
7
  6
CONTINUOUS
 10
48.4380020854
 20
84.6385717323
  0
VERTEX
  8
0
 62
7
  6
CONTINUOUS
 10
48.4391411063
 20
84.5950493913
  0
VERTEX
  8
0
 62
7
  6
CONTINUOUS
 10
48.442226079
 20
84.5563979426
  0
VERTEX
  8
0
 62
7
  6
CONTINUOUS
 10
48.4472432134
 20
84.5247495191
  0
VERTEX
  8
0
 62
7
  6
CONTINUOUS
 10
48.4540132292
 20
84.5017990049
  0
VERTEX
  8
0
 62
7
  6
CONTINUOUS
 10
48.4622279029
 20
84.4886733231
  0
VERTEX
  8
0
 62
7
  6
CONTINUOUS
 10
48.4682773161
 20
84.4856597125
  0
SEQEND
  0
POLYLINE
  8
0
 62
7
  6
CONTINUOUS
 66
1
 70
0
  0
VERTEX
  8
0
 62
7
  6
CONTINUOUS
 10
48.4386140381
 20
67.8856004043
  0
VERTEX
  8
0
 62
7
  6
CONTINUOUS
 10
48.4380020854
 20
67.8385717323
  0
VERTEX
  8
0
 62
7
  6
CONTINUOUS
 10
48.4391411063
 20
67.7950493913
  0
VERTEX
  8
0
 62
7
  6
CONTINUOUS
 10
48.442226079
 20
67.7563979426
  0
VERTEX
  8
0
 62
7
  6
CONTINUOUS
 10
48.4472432134
 20
67.7247495191
  0
VERTEX
  8
0
 62
7
  6
CONTINUOUS
 10
48.4540132292
 20
67.7017990049
  0
VERTEX
  8
0
 62
7
  6
CONTINUOUS
 10
48.4622279029
 20
67.6886733231
  0
VERTEX
  8
0
 62
7
  6
CONTINUOUS
 10
48.4682773161
 20
67.6856597125
  0
SEQEND
  0
POLYLINE
  8
0
 62
7
  6
CONTINUOUS
 66
1
 70
0
  0
VERTEX
  8
0
 62
7
  6
CONTINUOUS
 10
55.6320862701
 20
193.8906959381
  0
VERTEX
  8
0
 62
7
  6
CONTINUOUS
 10
55.6305715237
 20
193.8692749102
  0
VERTEX
  8
0
 62
7
  6
CONTINUOUS
 10
55.6194093839
 20
193.8264503018
  0
VERTEX
  8
0
 62
7
  6
CONTINUOUS
 10
55.5990275844
 20
193.7854962885
  0
VERTEX
  8
0
 62
7
  6
CONTINUOUS
 10
55.5709737866
 20
193.7470125668
  0
VERTEX
  8
0
 62
7
  6
CONTINUOUS
 10
55.5359068014
 20
193.7109896787
  0
VERTEX
  8
0
 62
7
  6
CONTINUOUS
 10
55.493941144
 20
193.6774197554
  0
VERTEX
  8
0
 62
7
  6
CONTINUOUS
 10
55.4447242791
 20
193.6462862031
  0
VERTEX
  8
0
 62
7
  6
CONTINUOUS
 10
55.3896769529
 20
193.6186935877
  0
VERTEX
  8
0
 62
7
  6
CONTINUOUS
 10
55.3303739255
 20
193.5952132328
  0
VERTEX
  8
0
 62
7
  6
CONTINUOUS
 10
55.2665966819
 20
193.5754151829
  0
VERTEX
  8
0
 62
7
  6
CONTINUOUS
 10
55.199096639
 20
193.5586030909
  0
VERTEX
  8
0
 62
7
  6
CONTINUOUS
 10
55.1292179351
 20
193.5446300015
  0
VERTEX
  8
0
 62
7
  6
CONTINUOUS
 10
55.057308213
 20
193.5332196809
  0
VERTEX
  8
0
 62
7
  6
CONTINUOUS
 10
54.9832157769
 20
193.5241853589
  0
VERTEX
  8
0
 62
7
  6
CONTINUOUS
 10
54.9074278557
 20
193.5173569124
  0
VERTEX
  8
0
 62
7
  6
CONTINUOUS
 10
54.8303777081
 20
193.5125586293
  0
VERTEX
  8
0
 62
7
  6
CONTINUOUS
 10
54.7522851806
 20
193.5095936206
  0
VERTEX
  8
0
 62
7
  6
CONTINUOUS
 10
54.6733670517
 20
193.5082423103
  0
VERTEX
  8
0
 62
7
  6
CONTINUOUS
 10
54.593897002
 20
193.5083015856
  0
SEQEND
  0
POLYLINE
  8
0
 62
7
  6
CONTINUOUS
 66
1
 70
0
  0
VERTEX
  8
0
 62
7
  6
CONTINUOUS
 10
55.6320862701
 20
177.0906959381
  0
VERTEX
  8
0
 62
7
  6
CONTINUOUS
 10
55.6305715237
 20
177.0692749102
  0
VERTEX
  8
0
 62
7
  6
CONTINUOUS
 10
55.6194093839
 20
177.0264503018
  0
VERTEX
  8
0
 62
7
  6
CONTINUOUS
 10
55.5990275844
 20
176.9854962885
  0
VERTEX
  8
0
 62
7
  6
CONTINUOUS
 10
55.5709737866
 20
176.9470125668
  0
VERTEX
  8
0
 62
7
  6
CONTINUOUS
 10
55.5359068014
 20
176.9109896787
  0
VERTEX
  8
0
 62
7
  6
CONTINUOUS
 10
55.493941144
 20
176.8774197554
  0
VERTEX
  8
0
 62
7
  6
CONTINUOUS
 10
55.4447242791
 20
176.8462862031
  0
VERTEX
  8
0
 62
7
  6
CONTINUOUS
 10
55.3896769529
 20
176.8186935877
  0
VERTEX
  8
0
 62
7
  6
CONTINUOUS
 10
55.3303739255
 20
176.7952132328
  0
VERTEX
  8
0
 62
7
  6
CONTINUOUS
 10
55.2665966819
 20
176.7754151829
  0
VERTEX
  8
0
 62
7
  6
CONTINUOUS
 10
55.199096639
 20
176.7586030909
  0
VERTEX
  8
0
 62
7
  6
CONTINUOUS
 10
55.1292179351
 20
176.7446300015
  0
VERTEX
  8
0
 62
7
  6
CONTINUOUS
 10
55.057308213
 20
176.7332196809
  0
VERTEX
  8
0
 62
7
  6
CONTINUOUS
 10
54.9832157769
 20
176.7241853589
  0
VERTEX
  8
0
 62
7
  6
CONTINUOUS
 10
54.9074278557
 20
176.7173569124
  0
VERTEX
  8
0
 62
7
  6
CONTINUOUS
 10
54.8303777081
 20
176.7125586293
  0
VERTEX
  8
0
 62
7
  6
CONTINUOUS
 10
54.7522851806
 20
176.7095936206
  0
VERTEX
  8
0
 62
7
  6
CONTINUOUS
 10
54.6733670517
 20
176.7082423103
  0
VERTEX
  8
0
 62
7
  6
CONTINUOUS
 10
54.593897002
 20
176.7083015856
  0
SEQEND
  0
LINE
  8
0
 62
7
  6
CONTINUOUS
 10
68.8220064725
 20
162.5374734089
 11
69.4442286947
 21
162.9532131185
  0
LINE
  8
0
 62
7
  6
CONTINUOUS
 10
108.7464133345
 20
177.7652353472
 11
109.1496599671
 21
177.9459620304
  0
POLYLINE
  8
0
 62
7
  6
CONTINUOUS
 66
1
 70
0
  0
VERTEX
  8
0
 62
7
  6
CONTINUOUS
 10
109.2453183856
 20
110.7578030729
  0
VERTEX
  8
0
 62
7
  6
CONTINUOUS
 10
109.4128309548
 20
110.7854648846
  0
VERTEX
  8
0
 62
7
  6
CONTINUOUS
 10
109.5778571729
 20
110.8163696824
  0
VERTEX
  8
0
 62
7
  6
CONTINUOUS
 10
109.7216848742
 20
110.847318469
  0
VERTEX
  8
0
 62
7
  6
CONTINUOUS
 10
109.8476874973
 20
110.8787276563
  0
VERTEX
  8
0
 62
7
  6
CONTINUOUS
 10
109.9592743364
 20
110.9113107973
  0
VERTEX
  8
0
 62
7
  6
CONTINUOUS
 10
110.0601256552
 20
110.9463258061
  0
VERTEX
  8
0
 62
7
  6
CONTINUOUS
 10
110.1543291217
 20
110.9860093044
  0
VERTEX
  8
0
 62
7
  6
CONTINUOUS
 10
110.2457930475
 20
111.0340364222
  0
VERTEX
  8
0
 62
7
  6
CONTINUOUS
 10
110.3374002702
 20
111.096146073
  0
VERTEX
  8
0
 62
7
  6
CONTINUOUS
 10
110.4286911378
 20
111.1798749978
  0
VERTEX
  8
0
 62
7
  6
CONTINUOUS
 10
110.5121790454
 20
111.290520409
  0
VERTEX
  8
0
 62
7
  6
CONTINUOUS
 10
110.5751227688
 20
111.4255100744
  0
VERTEX
  8
0
 62
7
  6
CONTINUOUS
 10
110.6072649247
 20
111.5733448637
  0
VERTEX
  8
0
 62
7
  6
CONTINUOUS
 10
110.6108949275
 20
111.6434442447
  0
SEQEND
  0
LINE
  8
0
 62
7
  6
CONTINUOUS
 10
109.1406009284
 20
110.7419019593
 11
109.2453264731
 21
110.7578043336
  0
POLYLINE
  8
0
 62
7
  6
CONTINUOUS
 66
1
 70
0
  0
VERTEX
  8
0
 62
7
  6
CONTINUOUS
 10
104.9535192442
 20
109.6856596796
  0
VERTEX
  8
0
 62
7
  6
CONTINUOUS
 10
105.5018106266
 20
109.7570369346
  0
VERTEX
  8
0
 62
7
  6
CONTINUOUS
 10
106.101792042
 20
109.851686396
  0
VERTEX
  8
0
 62
7
  6
CONTINUOUS
 10
106.6845790065
 20
109.9622970008
  0
VERTEX
  8
0
 62
7
  6
CONTINUOUS
 10
107.2451646728
 20
110.088910887
  0
VERTEX
  8
0
 62
7
  6
CONTINUOUS
 10
107.7787123511
 20
110.2315436414
  0
VERTEX
  8
0
 62
7
  6
CONTINUOUS
 10
108.2805627291
 20
110.3902415656
  0
VERTEX
  8
0
 62
7
  6
CONTINUOUS
 10
108.7464133345
 20
110.5652353472
  0
SEQEND
  0
LINE
  8
0
 62
7
  6
CONTINUOUS
 10
104.9535133785
 20
109.6856597092
 11
104.9524934668
 21
109.6856004073
  0
POLYLINE
  8
0
 62
7
  6
CONTINUOUS
 66
1
 70
0
  0
VERTEX
  8
0
 62
7
  6
CONTINUOUS
 10
54.593897002
 20
109.5083015856
  0
VERTEX
  8
0
 62
7
  6
CONTINUOUS
 10
54.3004330162
 20
109.5122660621
  0
VERTEX
  8
0
 62
7
  6
CONTINUOUS
 10
54.0174208147
 20
109.5147078059
  0
VERTEX
  8
0
 62
7
  6
CONTINUOUS
 10
48.4693592674
 20
109.5152640906
  0
SEQEND
  0
POLYLINE
  8
0
 62
7
  6
CONTINUOUS
 66
1
 70
0
  0
VERTEX
  8
0
 62
7
  6
CONTINUOUS
 10
98.8315225465
 20
109.6925295265
  0
VERTEX
  8
0
 62
7
  6
CONTINUOUS
 10
99.1253216437
 20
109.6885519713
  0
VERTEX
  8
0
 62
7
  6
CONTINUOUS
 10
99.4083433042
 20
109.6861359968
  0
VERTEX
  8
0
 62
7
  6
CONTINUOUS
 10
104.9524314554
 20
109.6856004043
  0
SEQEND
  0
LINE
  8
0
 62
7
  6
CONTINUOUS
 10
109.2453264731
 20
100.0430601613
 11
109.1406009281
 21
100.0589625356
  0
POLYLINE
  8
0
 62
7
  6
CONTINUOUS
 66
1
 70
0
  0
VERTEX
  8
0
 62
7
  6
CONTINUOUS
 10
44.2721286296
 20
119.1459630736
  0
VERTEX
  8
0
 62
7
  6
CONTINUOUS
 10
44.6730778513
 20
118.9661797984
  0
VERTEX
  8
0
 62
7
  6
CONTINUOUS
 10
45.1386908922
 20
118.7911152603
  0
VERTEX
  8
0
 62
7
  6
CONTINUOUS
 10
45.6403153726
 20
118.6323468583
  0
VERTEX
  8
0
 62
7
  6
CONTINUOUS
 10
46.1736515748
 20
118.4896421126
  0
VERTEX
  8
0
 62
7
  6
CONTINUOUS
 10
46.7340425966
 20
118.362953879
  0
VERTEX
  8
0
 62
7
  6
CONTINUOUS
 10
47.3166534021
 20
118.252266348
  0
VERTEX
  8
0
 62
7
  6
CONTINUOUS
 10
47.916478329
 20
118.1575374966
  0
VERTEX
  8
0
 62
7
  6
CONTINUOUS
 10
48.4682714504
 20
118.0856596829
  0
SEQEND
  0
LINE
  8
0
 62
7
  6
CONTINUOUS
 10
83.977562028
 20
95.7532131185
 11
84.5997842503
 21
95.3374734089
  0
LINE
  8
0
 62
7
  6
CONTINUOUS
 10
65.977562028
 20
112.5532131185
 11
66.5997842503
 21
112.1374734089
  0
LINE
  8
0
 62
7
  6
CONTINUOUS
 10
87.4442286947
 20
98.2476513764
 11
86.8220064725
 21
98.663391086
  0
POLYLINE
  8
0
 62
7
  6
CONTINUOUS
 66
1
 70
0
  0
VERTEX
  8
0
 62
7
  6
CONTINUOUS
 10
104.9535091228
 20
84.3152047645
  0
VERTEX
  8
0
 62
7
  6
CONTINUOUS
 10
104.9621060208
 20
84.3093930641
  0
VERTEX
  8
0
 62
7
  6
CONTINUOUS
 10
104.9708993392
 20
84.2903063112
  0
VERTEX
  8
0
 62
7
  6
CONTINUOUS
 10
104.977627782
 20
84.2591050641
  0
VERTEX
  8
0
 62
7
  6
CONTINUOUS
 10
104.9819474853
 20
84.2177865182
  0
VERTEX
  8
0
 62
7
  6
CONTINUOUS
 10
104.983736372
 20
84.169090172
  0
VERTEX
  8
0
 62
7
  6
CONTINUOUS
 10
104.9831766846
 20
84.1152640906
  0
SEQEND
  0
LINE
  8
0
 62
7
  6
CONTINUOUS
 10
55.8820087176
 20
67.3111743752
 11
55.8822849461
 21
67.2310644364
  0
LINE
  8
0
 62
7
  6
CONTINUOUS
 10
55.8820087176
 20
84.1111743752
 11
55.8822849461
 21
84.0310644364
  0
LINE
  8
0
 62
7
  6
CONTINUOUS
 10
55.8820087176
 20
100.9111743752
 11
55.8822849461
 21
100.8310644364
  0
LINE
  8
0
 62
7
  6
CONTINUOUS
 10
55.8820087176
 20
117.7111743752
 11
55.8822849461
 21
117.6310644364
  0
LINE
  8
0
 62
7
  6
CONTINUOUS
 10
55.8820087176
 20
134.5111743752
 11
55.8822849461
 21
134.4310644364
  0
LINE
  8
0
 62
7
  6
CONTINUOUS
 10
55.8820087176
 20
151.3111743752
 11
55.8822849461
 21
151.2310644364
  0
LINE
  8
0
 62
7
  6
CONTINUOUS
 10
55.8820087176
 20
168.1111743752
 11
55.8822849461
 21
168.0310644364
  0
LINE
  8
0
 62
7
  6
CONTINUOUS
 10
55.8820087176
 20
184.9111743752
 11
55.8822849461
 21
184.8310644364
  0
LINE
  8
0
 62
7
  6
CONTINUOUS
 10
55.8820087176
 20
201.7111743752
 11
55.8822849461
 21
201.6310644364
  0
LINE
  8
0
 62
7
  6
CONTINUOUS
 10
55.6320566959
 20
201.7099958059
 11
55.6322849461
 21
193.9698006049
  0
LINE
  8
0
 62
7
  6
CONTINUOUS
 10
55.6320566959
 20
184.9099958059
 11
55.6322849461
 21
177.1698006049
  0
LINE
  8
0
 62
7
  6
CONTINUOUS
 10
55.6320566959
 20
168.1099958059
 11
55.6322849461
 21
160.3698006049
  0
LINE
  8
0
 62
7
  6
CONTINUOUS
 10
55.6320566959
 20
151.3099958059
 11
55.6322849461
 21
143.5698006049
  0
LINE
  8
0
 62
7
  6
CONTINUOUS
 10
55.6320566959
 20
134.5099958059
 11
55.6322849461
 21
126.7698006049
  0
LINE
  8
0
 62
7
  6
CONTINUOUS
 10
55.6320566959
 20
117.7099958059
 11
55.6322849461
 21
109.9698006049
  0
LINE
  8
0
 62
7
  6
CONTINUOUS
 10
55.6320566959
 20
100.9099958059
 11
55.6322849461
 21
93.1698006049
  0
LINE
  8
0
 62
7
  6
CONTINUOUS
 10
55.6320566959
 20
84.1099958059
 11
55.6322849461
 21
76.3698006049
  0
LINE
  8
0
 62
7
  6
CONTINUOUS
 10
55.6320566959
 20
67.3099958059
 11
55.6322849461
 21
59.5004322475
  0
LINE
  8
0
 62
7
  6
CONTINUOUS
 10
55.6322849461
 20
193.9698006054
 11
55.6320864647
 21
193.8906962255
  0
LINE
  8
0
 62
7
  6
CONTINUOUS
 10
55.6322849461
 20
177.1698006054
 11
55.6320864647
 21
177.0906962255
  0
LINE
  8
0
 62
7
  6
CONTINUOUS
 10
55.6322849461
 20
160.3698006054
 11
55.6320864647
 21
160.2906962255
  0
LINE
  8
0
 62
7
  6
CONTINUOUS
 10
55.6322849461
 20
143.5698006054
 11
55.6320864647
 21
143.4906962255
  0
LINE
  8
0
 62
7
  6
CONTINUOUS
 10
55.6322849461
 20
126.7698006054
 11
55.6320864647
 21
126.6906962255
  0
LINE
  8
0
 62
7
  6
CONTINUOUS
 10
55.6322849461
 20
109.9698006054
 11
55.6320864647
 21
109.8906962255
  0
LINE
  8
0
 62
7
  6
CONTINUOUS
 10
55.6322849461
 20
93.1698006054
 11
55.6320864647
 21
93.0906962255
  0
LINE
  8
0
 62
7
  6
CONTINUOUS
 10
55.6322849461
 20
76.3698006054
 11
55.6320864647
 21
76.2906962255
  0
POLYLINE
  8
0
 62
7
  6
CONTINUOUS
 66
1
 70
0
  0
VERTEX
  8
0
 62
7
  6
CONTINUOUS
 10
55.6320862701
 20
160.2906959381
  0
VERTEX
  8
0
 62
7
  6
CONTINUOUS
 10
55.6305715237
 20
160.2692749102
  0
VERTEX
  8
0
 62
7
  6
CONTINUOUS
 10
55.6194093839
 20
160.2264503018
  0
VERTEX
  8
0
 62
7
  6
CONTINUOUS
 10
55.5990275844
 20
160.1854962885
  0
VERTEX
  8
0
 62
7
  6
CONTINUOUS
 10
55.5709737866
 20
160.1470125668
  0
VERTEX
  8
0
 62
7
  6
CONTINUOUS
 10
55.5359068014
 20
160.1109896787
  0
VERTEX
  8
0
 62
7
  6
CONTINUOUS
 10
55.493941144
 20
160.0774197554
  0
VERTEX
  8
0
 62
7
  6
CONTINUOUS
 10
55.4447242791
 20
160.0462862031
  0
VERTEX
  8
0
 62
7
  6
CONTINUOUS
 10
55.3896769529
 20
160.0186935877
  0
VERTEX
  8
0
 62
7
  6
CONTINUOUS
 10
55.3303739255
 20
159.9952132328
  0
VERTEX
  8
0
 62
7
  6
CONTINUOUS
 10
55.2665966819
 20
159.9754151829
  0
VERTEX
  8
0
 62
7
  6
CONTINUOUS
 10
55.199096639
 20
159.9586030909
  0
VERTEX
  8
0
 62
7
  6
CONTINUOUS
 10
55.1292179351
 20
159.9446300015
  0
VERTEX
  8
0
 62
7
  6
CONTINUOUS
 10
55.057308213
 20
159.9332196809
  0
VERTEX
  8
0
 62
7
  6
CONTINUOUS
 10
54.9832157769
 20
159.9241853589
  0
VERTEX
  8
0
 62
7
  6
CONTINUOUS
 10
54.9074278557
 20
159.9173569124
  0
VERTEX
  8
0
 62
7
  6
CONTINUOUS
 10
54.8303777081
 20
159.9125586293
  0
VERTEX
  8
0
 62
7
  6
CONTINUOUS
 10
54.7522851806
 20
159.9095936206
  0
VERTEX
  8
0
 62
7
  6
CONTINUOUS
 10
54.6733670517
 20
159.9082423103
  0
VERTEX
  8
0
 62
7
  6
CONTINUOUS
 10
54.593897002
 20
159.9083015856
  0
SEQEND
  0
POLYLINE
  8
0
 62
7
  6
CONTINUOUS
 66
1
 70
0
  0
VERTEX
  8
0
 62
7
  6
CONTINUOUS
 10
55.6320862701
 20
143.4906959381
  0
VERTEX
  8
0
 62
7
  6
CONTINUOUS
 10
55.6305715237
 20
143.4692749102
  0
VERTEX
  8
0
 62
7
  6
CONTINUOUS
 10
55.6194093839
 20
143.4264503018
  0
VERTEX
  8
0
 62
7
  6
CONTINUOUS
 10
55.5990275844
 20
143.3854962885
  0
VERTEX
  8
0
 62
7
  6
CONTINUOUS
 10
55.5709737866
 20
143.3470125668
  0
VERTEX
  8
0
 62
7
  6
CONTINUOUS
 10
55.5359068014
 20
143.3109896787
  0
VERTEX
  8
0
 62
7
  6
CONTINUOUS
 10
55.493941144
 20
143.2774197554
  0
VERTEX
  8
0
 62
7
  6
CONTINUOUS
 10
55.4447242791
 20
143.2462862031
  0
VERTEX
  8
0
 62
7
  6
CONTINUOUS
 10
55.3896769529
 20
143.2186935877
  0
VERTEX
  8
0
 62
7
  6
CONTINUOUS
 10
55.3303739255
 20
143.1952132328
  0
VERTEX
  8
0
 62
7
  6
CONTINUOUS
 10
55.2665966819
 20
143.1754151829
  0
VERTEX
  8
0
 62
7
  6
CONTINUOUS
 10
55.199096639
 20
143.1586030909
  0
VERTEX
  8
0
 62
7
  6
CONTINUOUS
 10
55.1292179351
 20
143.1446300015
  0
VERTEX
  8
0
 62
7
  6
CONTINUOUS
 10
55.057308213
 20
143.1332196809
  0
VERTEX
  8
0
 62
7
  6
CONTINUOUS
 10
54.9832157769
 20
143.1241853589
  0
VERTEX
  8
0
 62
7
  6
CONTINUOUS
 10
54.9074278557
 20
143.1173569124
  0
VERTEX
  8
0
 62
7
  6
CONTINUOUS
 10
54.8303777081
 20
143.1125586293
  0
VERTEX
  8
0
 62
7
  6
CONTINUOUS
 10
54.7522851806
 20
143.1095936206
  0
VERTEX
  8
0
 62
7
  6
CONTINUOUS
 10
54.6733670517
 20
143.1082423103
  0
VERTEX
  8
0
 62
7
  6
CONTINUOUS
 10
54.593897002
 20
143.1083015856
  0
SEQEND
  0
POLYLINE
  8
0
 62
7
  6
CONTINUOUS
 66
1
 70
0
  0
VERTEX
  8
0
 62
7
  6
CONTINUOUS
 10
55.6320862701
 20
126.6906959381
  0
VERTEX
  8
0
 62
7
  6
CONTINUOUS
 10
55.6305715237
 20
126.6692749102
  0
VERTEX
  8
0
 62
7
  6
CONTINUOUS
 10
55.6194093839
 20
126.6264503018
  0
VERTEX
  8
0
 62
7
  6
CONTINUOUS
 10
55.5990275844
 20
126.5854962885
  0
VERTEX
  8
0
 62
7
  6
CONTINUOUS
 10
55.5709737866
 20
126.5470125668
  0
VERTEX
  8
0
 62
7
  6
CONTINUOUS
 10
55.5359068014
 20
126.5109896787
  0
VERTEX
  8
0
 62
7
  6
CONTINUOUS
 10
55.493941144
 20
126.4774197554
  0
VERTEX
  8
0
 62
7
  6
CONTINUOUS
 10
55.4447242791
 20
126.4462862031
  0
VERTEX
  8
0
 62
7
  6
CONTINUOUS
 10
55.3896769529
 20
126.4186935877
  0
VERTEX
  8
0
 62
7
  6
CONTINUOUS
 10
55.3303739255
 20
126.3952132328
  0
VERTEX
  8
0
 62
7
  6
CONTINUOUS
 10
55.2665966819
 20
126.3754151829
  0
VERTEX
  8
0
 62
7
  6
CONTINUOUS
 10
55.199096639
 20
126.3586030909
  0
VERTEX
  8
0
 62
7
  6
CONTINUOUS
 10
55.1292179351
 20
126.3446300015
  0
VERTEX
  8
0
 62
7
  6
CONTINUOUS
 10
55.057308213
 20
126.3332196809
  0
VERTEX
  8
0
 62
7
  6
CONTINUOUS
 10
54.9832157769
 20
126.3241853589
  0
VERTEX
  8
0
 62
7
  6
CONTINUOUS
 10
54.9074278557
 20
126.3173569124
  0
VERTEX
  8
0
 62
7
  6
CONTINUOUS
 10
54.8303777081
 20
126.3125586293
  0
VERTEX
  8
0
 62
7
  6
CONTINUOUS
 10
54.7522851806
 20
126.3095936206
  0
VERTEX
  8
0
 62
7
  6
CONTINUOUS
 10
54.6733670517
 20
126.3082423103
  0
VERTEX
  8
0
 62
7
  6
CONTINUOUS
 10
54.593897002
 20
126.3083015856
  0
SEQEND
  0
POLYLINE
  8
0
 62
7
  6
CONTINUOUS
 66
1
 70
0
  0
VERTEX
  8
0
 62
7
  6
CONTINUOUS
 10
55.6320862701
 20
109.8906959381
  0
VERTEX
  8
0
 62
7
  6
CONTINUOUS
 10
55.6305715237
 20
109.8692749102
  0
VERTEX
  8
0
 62
7
  6
CONTINUOUS
 10
55.6194093839
 20
109.8264503018
  0
VERTEX
  8
0
 62
7
  6
CONTINUOUS
 10
55.5990275844
 20
109.7854962885
  0
VERTEX
  8
0
 62
7
  6
CONTINUOUS
 10
55.5709737866
 20
109.7470125668
  0
VERTEX
  8
0
 62
7
  6
CONTINUOUS
 10
55.5359068014
 20
109.7109896787
  0
VERTEX
  8
0
 62
7
  6
CONTINUOUS
 10
55.493941144
 20
109.6774197554
  0
VERTEX
  8
0
 62
7
  6
CONTINUOUS
 10
55.4447242791
 20
109.6462862031
  0
VERTEX
  8
0
 62
7
  6
CONTINUOUS
 10
55.3896769529
 20
109.6186935877
  0
VERTEX
  8
0
 62
7
  6
CONTINUOUS
 10
55.3303739255
 20
109.5952132328
  0
VERTEX
  8
0
 62
7
  6
CONTINUOUS
 10
55.2665966819
 20
109.5754151829
  0
VERTEX
  8
0
 62
7
  6
CONTINUOUS
 10
55.199096639
 20
109.5586030909
  0
VERTEX
  8
0
 62
7
  6
CONTINUOUS
 10
55.1292179351
 20
109.5446300015
  0
VERTEX
  8
0
 62
7
  6
CONTINUOUS
 10
55.057308213
 20
109.5332196809
  0
VERTEX
  8
0
 62
7
  6
CONTINUOUS
 10
54.9832157769
 20
109.5241853589
  0
VERTEX
  8
0
 62
7
  6
CONTINUOUS
 10
54.9074278557
 20
109.5173569124
  0
VERTEX
  8
0
 62
7
  6
CONTINUOUS
 10
54.8303777081
 20
109.5125586293
  0
VERTEX
  8
0
 62
7
  6
CONTINUOUS
 10
54.7522851806
 20
109.5095936206
  0
VERTEX
  8
0
 62
7
  6
CONTINUOUS
 10
54.6733670517
 20
109.5082423103
  0
VERTEX
  8
0
 62
7
  6
CONTINUOUS
 10
54.593897002
 20
109.5083015856
  0
SEQEND
  0
POLYLINE
  8
0
 62
7
  6
CONTINUOUS
 66
1
 70
0
  0
VERTEX
  8
0
 62
7
  6
CONTINUOUS
 10
55.6320862701
 20
93.0906959381
  0
VERTEX
  8
0
 62
7
  6
CONTINUOUS
 10
55.6305715237
 20
93.0692749102
  0
VERTEX
  8
0
 62
7
  6
CONTINUOUS
 10
55.6194093839
 20
93.0264503018
  0
VERTEX
  8
0
 62
7
  6
CONTINUOUS
 10
55.5990275844
 20
92.9854962885
  0
VERTEX
  8
0
 62
7
  6
CONTINUOUS
 10
55.5709737866
 20
92.9470125668
  0
VERTEX
  8
0
 62
7
  6
CONTINUOUS
 10
55.5359068014
 20
92.9109896787
  0
VERTEX
  8
0
 62
7
  6
CONTINUOUS
 10
55.493941144
 20
92.8774197554
  0
VERTEX
  8
0
 62
7
  6
CONTINUOUS
 10
55.4447242791
 20
92.8462862031
  0
VERTEX
  8
0
 62
7
  6
CONTINUOUS
 10
55.3896769529
 20
92.8186935877
  0
VERTEX
  8
0
 62
7
  6
CONTINUOUS
 10
55.3303739255
 20
92.7952132328
  0
VERTEX
  8
0
 62
7
  6
CONTINUOUS
 10
55.2665966819
 20
92.7754151829
  0
VERTEX
  8
0
 62
7
  6
CONTINUOUS
 10
55.199096639
 20
92.7586030909
  0
VERTEX
  8
0
 62
7
  6
CONTINUOUS
 10
55.1292179351
 20
92.7446300015
  0
VERTEX
  8
0
 62
7
  6
CONTINUOUS
 10
55.057308213
 20
92.7332196809
  0
VERTEX
  8
0
 62
7
  6
CONTINUOUS
 10
54.9832157769
 20
92.7241853589
  0
VERTEX
  8
0
 62
7
  6
CONTINUOUS
 10
54.9074278557
 20
92.7173569124
  0
VERTEX
  8
0
 62
7
  6
CONTINUOUS
 10
54.8303777081
 20
92.7125586293
  0
VERTEX
  8
0
 62
7
  6
CONTINUOUS
 10
54.7522851806
 20
92.7095936206
  0
VERTEX
  8
0
 62
7
  6
CONTINUOUS
 10
54.6733670517
 20
92.7082423103
  0
VERTEX
  8
0
 62
7
  6
CONTINUOUS
 10
54.593897002
 20
92.7083015856
  0
SEQEND
  0
LINE
  8
0
 62
7
  6
CONTINUOUS
 10
84.5997842503
 20
165.863391086
 11
83.977562028
 21
165.4476513764
  0
LINE
  8
0
 62
7
  6
CONTINUOUS
 10
44.6730778513
 20
142.2346846965
 11
44.2721286296
 21
142.0549014213
  0
POLYLINE
  8
0
 62
7
  6
CONTINUOUS
 66
1
 70
0
  0
VERTEX
  8
0
 62
7
  6
CONTINUOUS
 10
44.1764715851
 20
108.4430613048
  0
VERTEX
  8
0
 62
7
  6
CONTINUOUS
 10
44.0076765317
 20
108.4151746591
  0
VERTEX
  8
0
 62
7
  6
CONTINUOUS
 10
43.8431163153
 20
108.3843307577
  0
VERTEX
  8
0
 62
7
  6
CONTINUOUS
 10
43.6996780388
 20
108.3534470069
  0
VERTEX
  8
0
 62
7
  6
CONTINUOUS
 10
43.5739997383
 20
108.3221089603
  0
VERTEX
  8
0
 62
7
  6
CONTINUOUS
 10
43.462686068
 20
108.289607575
  0
VERTEX
  8
0
 62
7
  6
CONTINUOUS
 10
43.3620764465
 20
108.2546952721
  0
VERTEX
  8
0
 62
7
  6
CONTINUOUS
 10
43.2681115754
 20
108.2151586449
  0
VERTEX
  8
0
 62
7
  6
CONTINUOUS
 10
43.1769157944
 20
108.1673700536
  0
VERTEX
  8
0
 62
7
  6
CONTINUOUS
 10
43.085603618
 20
108.1056610104
  0
VERTEX
  8
0
 62
7
  6
CONTINUOUS
 10
42.9945558641
 20
108.022563943
  0
VERTEX
  8
0
 62
7
  6
CONTINUOUS
 10
42.911086305
 20
107.912758678
  0
VERTEX
  8
0
 62
7
  6
CONTINUOUS
 10
42.8477759978
 20
107.7786048958
  0
VERTEX
  8
0
 62
7
  6
CONTINUOUS
 10
42.8149325224
 20
107.6313586406
  0
VERTEX
  8
0
 62
7
  6
CONTINUOUS
 10
42.8108954683
 20
107.5566029349
  0
SEQEND
  0
LINE
  8
0
 62
7
  6
CONTINUOUS
 10
44.2811907218
 20
108.4589648102
 11
44.1764633798
 21
108.4430600256
  0
POLYLINE
  8
0
 62
7
  6
CONTINUOUS
 66
1
 70
0
  0
VERTEX
  8
0
 62
7
  6
CONTINUOUS
 10
48.4682714504
 20
109.515204812
  0
VERTEX
  8
0
 62
7
  6
CONTINUOUS
 10
47.916478329
 20
109.4433269983
  0
VERTEX
  8
0
 62
7
  6
CONTINUOUS
 10
47.3166534021
 20
109.3485981469
  0
VERTEX
  8
0
 62
7
  6
CONTINUOUS
 10
46.7340425966
 20
109.2379106159
  0
VERTEX
  8
0
 62
7
  6
CONTINUOUS
 10
46.1736515748
 20
109.1112223824
  0
VERTEX
  8
0
 62
7
  6
CONTINUOUS
 10
45.6403153726
 20
108.9685176366
  0
VERTEX
  8
0
 62
7
  6
CONTINUOUS
 10
45.1386908922
 20
108.8097492347
  0
VERTEX
  8
0
 62
7
  6
CONTINUOUS
 10
44.6730778513
 20
108.6346846965
  0
SEQEND
  0
LINE
  8
0
 62
7
  6
CONTINUOUS
 10
48.4682773161
 20
109.5152047824
 11
48.4692972559
 21
109.5152640876
  0
LINE
  8
0
 62
7
  6
CONTINUOUS
 10
48.4682773161
 20
118.0856597125
 11
48.4692972559
 21
118.0856004073
  0
LINE
  8
0
 62
7
  6
CONTINUOUS
 10
44.1764633798
 20
119.1578044693
 11
44.2811907218
 21
119.1418996847
  0
POLYLINE
  8
0
 62
7
  6
CONTINUOUS
 66
1
 70
0
  0
VERTEX
  8
0
 62
7
  6
CONTINUOUS
 10
109.1496599671
 20
100.0549024645
  0
VERTEX
  8
0
 62
7
  6
CONTINUOUS
 10
108.7464132276
 20
100.2356291916
  0
VERTEX
  8
0
 62
7
  6
CONTINUOUS
 10
108.2805624964
 20
100.4106230094
  0
VERTEX
  8
0
 62
7
  6
CONTINUOUS
 10
107.7787119763
 20
100.5693209624
  0
VERTEX
  8
0
 62
7
  6
CONTINUOUS
 10
107.2451641429
 20
100.7119537381
  0
VERTEX
  8
0
 62
7
  6
CONTINUOUS
 10
106.684578312
 20
100.8385676379
  0
VERTEX
  8
0
 62
7
  6
CONTINUOUS
 10
106.101791177
 20
100.9491782488
  0
VERTEX
  8
0
 62
7
  6
CONTINUOUS
 10
105.5018095887
 20
101.0438277086
  0
VERTEX
  8
0
 62
7
  6
CONTINUOUS
 10
104.9535192442
 20
101.1152048153
  0
SEQEND
  0
LINE
  8
0
 62
7
  6
CONTINUOUS
 10
69.4442286947
 20
115.0476513764
 11
68.8220064725
 21
115.463391086
  0
POLYLINE
  8
0
 62
7
  6
CONTINUOUS
 66
1
 70
0
  0
VERTEX
  8
0
 62
7
  6
CONTINUOUS
 10
55.6320862701
 20
76.2906959381
  0
VERTEX
  8
0
 62
7
  6
CONTINUOUS
 10
55.6305715237
 20
76.2692749102
  0
VERTEX
  8
0
 62
7
  6
CONTINUOUS
 10
55.6194093839
 20
76.2264503018
  0
VERTEX
  8
0
 62
7
  6
CONTINUOUS
 10
55.5990275844
 20
76.1854962885
  0
VERTEX
  8
0
 62
7
  6
CONTINUOUS
 10
55.5709737866
 20
76.1470125668
  0
VERTEX
  8
0
 62
7
  6
CONTINUOUS
 10
55.5359068014
 20
76.1109896787
  0
VERTEX
  8
0
 62
7
  6
CONTINUOUS
 10
55.493941144
 20
76.0774197554
  0
VERTEX
  8
0
 62
7
  6
CONTINUOUS
 10
55.4447242791
 20
76.0462862031
  0
VERTEX
  8
0
 62
7
  6
CONTINUOUS
 10
55.3896769529
 20
76.0186935877
  0
VERTEX
  8
0
 62
7
  6
CONTINUOUS
 10
55.3303739255
 20
75.9952132328
  0
VERTEX
  8
0
 62
7
  6
CONTINUOUS
 10
55.2665966819
 20
75.9754151829
  0
VERTEX
  8
0
 62
7
  6
CONTINUOUS
 10
55.199096639
 20
75.9586030909
  0
VERTEX
  8
0
 62
7
  6
CONTINUOUS
 10
55.1292179351
 20
75.9446300015
  0
VERTEX
  8
0
 62
7
  6
CONTINUOUS
 10
55.057308213
 20
75.9332196809
  0
VERTEX
  8
0
 62
7
  6
CONTINUOUS
 10
54.9832157769
 20
75.9241853589
  0
VERTEX
  8
0
 62
7
  6
CONTINUOUS
 10
54.9074278557
 20
75.9173569124
  0
VERTEX
  8
0
 62
7
  6
CONTINUOUS
 10
54.8303777081
 20
75.9125586293
  0
VERTEX
  8
0
 62
7
  6
CONTINUOUS
 10
54.7522851806
 20
75.9095936206
  0
VERTEX
  8
0
 62
7
  6
CONTINUOUS
 10
54.6733670517
 20
75.9082423103
  0
VERTEX
  8
0
 62
7
  6
CONTINUOUS
 10
54.593897002
 20
75.9083015856
  0
SEQEND
  0
LINE
  8
0
 62
7
  6
CONTINUOUS
 10
66.5997842503
 20
149.063391086
 11
65.977562028
 21
148.6476513764
  0
LINE
  8
0
 62
7
  6
CONTINUOUS
 10
86.8220064725
 20
162.5374734089
 11
87.4442286947
 21
162.9532131185
  0
LINE
  8
0
 62
7
  6
CONTINUOUS
 10
68.8220064725
 20
145.7374734089
 11
69.4442286947
 21
146.1532131185
  0
POLYLINE
  8
0
 62
7
  6
CONTINUOUS
 66
1
 70
0
  0
VERTEX
  8
0
 62
7
  6
CONTINUOUS
 10
109.2453183856
 20
127.5578030729
  0
VERTEX
  8
0
 62
7
  6
CONTINUOUS
 10
109.4128309548
 20
127.5854648846
  0
VERTEX
  8
0
 62
7
  6
CONTINUOUS
 10
109.5778571729
 20
127.6163696824
  0
VERTEX
  8
0
 62
7
  6
CONTINUOUS
 10
109.7216848742
 20
127.647318469
  0
VERTEX
  8
0
 62
7
  6
CONTINUOUS
 10
109.8476874973
 20
127.6787276563
  0
VERTEX
  8
0
 62
7
  6
CONTINUOUS
 10
109.9592743364
 20
127.7113107973
  0
VERTEX
  8
0
 62
7
  6
CONTINUOUS
 10
110.0601256552
 20
127.7463258061
  0
VERTEX
  8
0
 62
7
  6
CONTINUOUS
 10
110.1543291217
 20
127.7860093044
  0
VERTEX
  8
0
 62
7
  6
CONTINUOUS
 10
110.2457930475
 20
127.8340364222
  0
VERTEX
  8
0
 62
7
  6
CONTINUOUS
 10
110.3374002702
 20
127.896146073
  0
VERTEX
  8
0
 62
7
  6
CONTINUOUS
 10
110.4286911378
 20
127.9798749978
  0
VERTEX
  8
0
 62
7
  6
CONTINUOUS
 10
110.5121790454
 20
128.090520409
  0
VERTEX
  8
0
 62
7
  6
CONTINUOUS
 10
110.5751227688
 20
128.2255100744
  0
VERTEX
  8
0
 62
7
  6
CONTINUOUS
 10
110.6072649247
 20
128.3733448637
  0
VERTEX
  8
0
 62
7
  6
CONTINUOUS
 10
110.6108952574
 20
128.4442590062
  0
SEQEND
  0
LINE
  8
0
 62
7
  6
CONTINUOUS
 10
109.1406009284
 20
127.5419019593
 11
109.2453264731
 21
127.5578043336
  0
POLYLINE
  8
0
 62
7
  6
CONTINUOUS
 66
1
 70
0
  0
VERTEX
  8
0
 62
7
  6
CONTINUOUS
 10
104.9535192442
 20
126.4856596796
  0
VERTEX
  8
0
 62
7
  6
CONTINUOUS
 10
105.5018106266
 20
126.5570369346
  0
VERTEX
  8
0
 62
7
  6
CONTINUOUS
 10
106.101792042
 20
126.651686396
  0
VERTEX
  8
0
 62
7
  6
CONTINUOUS
 10
106.6845790065
 20
126.7622970008
  0
VERTEX
  8
0
 62
7
  6
CONTINUOUS
 10
107.2451646728
 20
126.888910887
  0
VERTEX
  8
0
 62
7
  6
CONTINUOUS
 10
107.7787123511
 20
127.0315436414
  0
VERTEX
  8
0
 62
7
  6
CONTINUOUS
 10
108.2805627291
 20
127.1902415656
  0
VERTEX
  8
0
 62
7
  6
CONTINUOUS
 10
108.7464133345
 20
127.3652353472
  0
SEQEND
  0
POLYLINE
  8
0
 62
7
  6
CONTINUOUS
 66
1
 70
0
  0
VERTEX
  8
0
 62
7
  6
CONTINUOUS
 10
54.2964691297
 20
118.0885519711
  0
VERTEX
  8
0
 62
7
  6
CONTINUOUS
 10
54.5897912486
 20
118.092524948
  0
VERTEX
  8
0
 62
7
  6
CONTINUOUS
 10
54.6693847917
 20
118.0926512714
  0
VERTEX
  8
0
 62
7
  6
CONTINUOUS
 10
54.7484474529
 20
118.091372592
  0
VERTEX
  8
0
 62
7
  6
CONTINUOUS
 10
54.8266991771
 20
118.0884861152
  0
VERTEX
  8
0
 62
7
  6
CONTINUOUS
 10
54.9039174211
 20
118.0837707132
  0
VERTEX
  8
0
 62
7
  6
CONTINUOUS
 10
54.97988247
 20
118.0770277927
  0
VERTEX
  8
0
 62
7
  6
CONTINUOUS
 10
55.0541616147
 20
118.0680814465
  0
VERTEX
  8
0
 62
7
  6
CONTINUOUS
 10
55.126246613
 20
118.0567619293
  0
VERTEX
  8
0
 62
7
  6
CONTINUOUS
 10
55.1963512819
 20
118.0428705301
  0
VERTEX
  8
0
 62
7
  6
CONTINUOUS
 10
55.264001434
 20
118.0261706542
  0
VERTEX
  8
0
 62
7
  6
CONTINUOUS
 10
55.3280696183
 20
118.0064561123
  0
VERTEX
  8
0
 62
7
  6
CONTINUOUS
 10
55.3875594433
 20
117.9831094347
  0
VERTEX
  8
0
 62
7
  6
CONTINUOUS
 10
55.4428283922
 20
117.9556410115
  0
VERTEX
  8
0
 62
7
  6
CONTINUOUS
 10
55.4922729215
 20
117.924626135
  0
VERTEX
  8
0
 62
7
  6
CONTINUOUS
 10
55.5344518944
 20
117.891183449
  0
VERTEX
  8
0
 62
7
  6
CONTINUOUS
 10
55.5697261862
 20
117.8553135576
  0
VERTEX
  8
0
 62
7
  6
CONTINUOUS
 10
55.5980219977
 20
117.8169933823
  0
VERTEX
  8
0
 62
7
  6
CONTINUOUS
 10
55.6187321033
 20
117.7761623818
  0
VERTEX
  8
0
 62
7
  6
CONTINUOUS
 10
55.6303203653
 20
117.7333655591
  0
VERTEX
  8
0
 62
7
  6
CONTINUOUS
 10
55.6320868755
 20
117.7099957608
  0
SEQEND
  0
POLYLINE
  8
0
 62
7
  6
CONTINUOUS
 66
1
 70
0
  0
VERTEX
  8
0
 62
7
  6
CONTINUOUS
 10
99.1213538631
 20
117.9122656591
  0
VERTEX
  8
0
 62
7
  6
CONTINUOUS
 10
98.8273220921
 20
117.9082959381
  0
VERTEX
  8
0
 62
7
  6
CONTINUOUS
 10
98.7474529191
 20
117.9082492717
  0
VERTEX
  8
0
 62
7
  6
CONTINUOUS
 10
98.6682774559
 20
117.9096260364
  0
VERTEX
  8
0
 62
7
  6
CONTINUOUS
 10
98.5900554821
 20
117.9126251458
  0
VERTEX
  8
0
 62
7
  6
CONTINUOUS
 10
98.5129843626
 20
117.9174607156
  0
VERTEX
  8
0
 62
7
  6
CONTINUOUS
 10
98.43727119
 20
117.9243218454
  0
VERTEX
  8
0
 62
7
  6
CONTINUOUS
 10
98.3633439211
 20
117.9333777437
  0
VERTEX
  8
0
 62
7
  6
CONTINUOUS
 10
98.2916487449
 20
117.9447933995
  0
VERTEX
  8
0
 62
7
  6
CONTINUOUS
 10
98.2220497228
 20
117.9587493756
  0
VERTEX
  8
0
 62
7
  6
CONTINUOUS
 10
98.1548141367
 20
117.9755171301
  0
VERTEX
  8
0
 62
7
  6
CONTINUOUS
 10
98.0913850958
 20
117.9952192821
  0
VERTEX
  8
0
 62
7
  6
CONTINUOUS
 10
98.0323902034
 20
118.0185706801
  0
VERTEX
  8
0
 62
7
  6
CONTINUOUS
 10
97.9776201984
 20
118.0459735637
  0
VERTEX
  8
0
 62
7
  6
CONTINUOUS
 10
97.928688931
 20
118.0768226974
  0
VERTEX
  8
0
 62
7
  6
CONTINUOUS
 10
97.8866625682
 20
118.1102867003
  0
VERTEX
  8
0
 62
7
  6
CONTINUOUS
 10
97.8513188935
 20
118.1464219023
  0
VERTEX
  8
0
 62
7
  6
CONTINUOUS
 10
97.8229537501
 20
118.185185144
  0
VERTEX
  8
0
 62
7
  6
CONTINUOUS
 10
97.8023774524
 20
118.2264587437
  0
VERTEX
  8
0
 62
7
  6
CONTINUOUS
 10
97.7911944253
 20
118.2694560798
  0
VERTEX
  8
0
 62
7
  6
CONTINUOUS
 10
97.789704413
 20
118.290694983
  0
SEQEND
  0
LINE
  8
0
 62
7
  6
CONTINUOUS
 10
99.4043680321
 20
117.9147077137
 11
99.1213538631
 21
117.9122656591
  0
LINE
  8
0
 62
7
  6
CONTINUOUS
 10
54.013447393
 20
118.0861359966
 11
54.2964691297
 21
118.0885519711
  0
LINE
  8
0
 62
7
  6
CONTINUOUS
 10
99.4043680321
 20
117.9147077137
 11
104.9524689727
 21
117.9152640906
  0
LINE
  8
0
 62
7
  6
CONTINUOUS
 10
48.4693592674
 20
118.0856004043
 11
54.013447393
 21
118.0861359966
  0
LINE
  8
0
 62
7
  6
CONTINUOUS
 10
104.9525010857
 20
117.9152640905
 11
104.9535091228
 21
117.9152047645
  0
LINE
  8
0
 62
7
  6
CONTINUOUS
 10
109.2453264731
 20
116.8430601613
 11
109.1406009281
 21
116.8589625356
  0
POLYLINE
  8
0
 62
7
  6
CONTINUOUS
 66
1
 70
0
  0
VERTEX
  8
0
 62
7
  6
CONTINUOUS
 10
44.2721286296
 20
135.9459630736
  0
VERTEX
  8
0
 62
7
  6
CONTINUOUS
 10
44.6730778513
 20
135.7661797984
  0
VERTEX
  8
0
 62
7
  6
CONTINUOUS
 10
45.1386908922
 20
135.5911152603
  0
VERTEX
  8
0
 62
7
  6
CONTINUOUS
 10
45.6403153726
 20
135.4323468583
  0
VERTEX
  8
0
 62
7
  6
CONTINUOUS
 10
46.1736515748
 20
135.2896421126
  0
VERTEX
  8
0
 62
7
  6
CONTINUOUS
 10
46.7340425966
 20
135.162953879
  0
VERTEX
  8
0
 62
7
  6
CONTINUOUS
 10
47.3166534021
 20
135.052266348
  0
VERTEX
  8
0
 62
7
  6
CONTINUOUS
 10
47.916478329
 20
134.9575374966
  0
VERTEX
  8
0
 62
7
  6
CONTINUOUS
 10
48.4682714504
 20
134.8856596829
  0
SEQEND
  0
LINE
  8
0
 62
7
  6
CONTINUOUS
 10
83.977562028
 20
112.5532131185
 11
84.5997842503
 21
112.1374734089
  0
POLYLINE
  8
0
 62
7
  6
CONTINUOUS
 66
1
 70
0
  0
VERTEX
  8
0
 62
7
  6
CONTINUOUS
 10
104.9535091228
 20
101.1152047645
  0
VERTEX
  8
0
 62
7
  6
CONTINUOUS
 10
104.9621060208
 20
101.1093930641
  0
VERTEX
  8
0
 62
7
  6
CONTINUOUS
 10
104.9708993392
 20
101.0903063112
  0
VERTEX
  8
0
 62
7
  6
CONTINUOUS
 10
104.977627782
 20
101.0591050641
  0
VERTEX
  8
0
 62
7
  6
CONTINUOUS
 10
104.9819474853
 20
101.0177865182
  0
VERTEX
  8
0
 62
7
  6
CONTINUOUS
 10
104.983736372
 20
100.969090172
  0
VERTEX
  8
0
 62
7
  6
CONTINUOUS
 10
104.9831766846
 20
100.9152640906
  0
SEQEND
  0
LINE
  8
0
 62
7
  6
CONTINUOUS
 10
84.5997842503
 20
149.063391086
 11
83.977562028
 21
148.6476513764
  0
LINE
  8
0
 62
7
  6
CONTINUOUS
 10
108.7464133345
 20
160.9652353472
 11
109.1496599671
 21
161.1459620304
  0
LINE
  8
0
 62
7
  6
CONTINUOUS
 10
104.9535133785
 20
126.4856597092
 11
104.9524934668
 21
126.4856004073
  0
LINE
  8
0
 62
7
  6
CONTINUOUS
 10
48.4682773161
 20
126.3152047824
 11
48.4692972559
 21
126.3152640876
  0
POLYLINE
  8
0
 62
7
  6
CONTINUOUS
 66
1
 70
0
  0
VERTEX
  8
0
 62
7
  6
CONTINUOUS
 10
54.593897002
 20
126.3083015856
  0
VERTEX
  8
0
 62
7
  6
CONTINUOUS
 10
54.3004330162
 20
126.3122660621
  0
VERTEX
  8
0
 62
7
  6
CONTINUOUS
 10
54.0174208147
 20
126.3147078059
  0
VERTEX
  8
0
 62
7
  6
CONTINUOUS
 10
48.4693592674
 20
126.3152640906
  0
SEQEND
  0
POLYLINE
  8
0
 62
7
  6
CONTINUOUS
 66
1
 70
0
  0
VERTEX
  8
0
 62
7
  6
CONTINUOUS
 10
98.8315225465
 20
126.4925295265
  0
VERTEX
  8
0
 62
7
  6
CONTINUOUS
 10
99.1253216437
 20
126.4885519713
  0
VERTEX
  8
0
 62
7
  6
CONTINUOUS
 10
99.4083433042
 20
126.4861359968
  0
VERTEX
  8
0
 62
7
  6
CONTINUOUS
 10
104.9524314554
 20
126.4856004043
  0
SEQEND
  0
LINE
  8
0
 62
7
  6
CONTINUOUS
 10
65.977562028
 20
129.3532131185
 11
66.5997842503
 21
128.9374734089
  0
LINE
  8
0
 62
7
  6
CONTINUOUS
 10
87.4442286947
 20
115.0476513764
 11
86.8220064725
 21
115.463391086
  0
LINE
  8
0
 62
7
  6
CONTINUOUS
 10
69.4442286947
 20
131.8476513764
 11
68.8220064725
 21
132.263391086
  0
LINE
  8
0
 62
7
  6
CONTINUOUS
 10
66.5997842503
 20
132.263391086
 11
65.977562028
 21
131.8476513764
  0
LINE
  8
0
 62
7
  6
CONTINUOUS
 10
86.8220064725
 20
145.7374734089
 11
87.4442286947
 21
146.1532131185
  0
LINE
  8
0
 62
7
  6
CONTINUOUS
 10
68.8220064725
 20
128.9374734089
 11
69.4442286947
 21
129.3532131185
  0
LINE
  8
0
 62
7
  6
CONTINUOUS
 10
44.6730778513
 20
125.4346846965
 11
44.2721286296
 21
125.2549014213
  0
POLYLINE
  8
0
 62
7
  6
CONTINUOUS
 66
1
 70
0
  0
VERTEX
  8
0
 62
7
  6
CONTINUOUS
 10
44.1764715851
 20
125.2430613048
  0
VERTEX
  8
0
 62
7
  6
CONTINUOUS
 10
44.0076765317
 20
125.2151746591
  0
VERTEX
  8
0
 62
7
  6
CONTINUOUS
 10
43.8431163153
 20
125.1843307577
  0
VERTEX
  8
0
 62
7
  6
CONTINUOUS
 10
43.6996780388
 20
125.1534470069
  0
VERTEX
  8
0
 62
7
  6
CONTINUOUS
 10
43.5739997383
 20
125.1221089603
  0
VERTEX
  8
0
 62
7
  6
CONTINUOUS
 10
43.462686068
 20
125.089607575
  0
VERTEX
  8
0
 62
7
  6
CONTINUOUS
 10
43.3620764465
 20
125.0546952721
  0
VERTEX
  8
0
 62
7
  6
CONTINUOUS
 10
43.2681115754
 20
125.0151586449
  0
VERTEX
  8
0
 62
7
  6
CONTINUOUS
 10
43.1769157944
 20
124.9673700536
  0
VERTEX
  8
0
 62
7
  6
CONTINUOUS
 10
43.085603618
 20
124.9056610104
  0
VERTEX
  8
0
 62
7
  6
CONTINUOUS
 10
42.9945558641
 20
124.822563943
  0
VERTEX
  8
0
 62
7
  6
CONTINUOUS
 10
42.911086305
 20
124.712758678
  0
VERTEX
  8
0
 62
7
  6
CONTINUOUS
 10
42.8477759978
 20
124.5786048958
  0
VERTEX
  8
0
 62
7
  6
CONTINUOUS
 10
42.8149325224
 20
124.4313586406
  0
VERTEX
  8
0
 62
7
  6
CONTINUOUS
 10
42.8108954683
 20
124.3566029349
  0
SEQEND
  0
LINE
  8
0
 62
7
  6
CONTINUOUS
 10
44.2811907218
 20
125.2589648102
 11
44.1764633798
 21
125.2430600256
  0
POLYLINE
  8
0
 62
7
  6
CONTINUOUS
 66
1
 70
0
  0
VERTEX
  8
0
 62
7
  6
CONTINUOUS
 10
48.4682714504
 20
126.315204812
  0
VERTEX
  8
0
 62
7
  6
CONTINUOUS
 10
47.916478329
 20
126.2433269983
  0
VERTEX
  8
0
 62
7
  6
CONTINUOUS
 10
47.3166534021
 20
126.1485981469
  0
VERTEX
  8
0
 62
7
  6
CONTINUOUS
 10
46.7340425966
 20
126.0379106159
  0
VERTEX
  8
0
 62
7
  6
CONTINUOUS
 10
46.1736515748
 20
125.9112223824
  0
VERTEX
  8
0
 62
7
  6
CONTINUOUS
 10
45.6403153726
 20
125.7685176366
  0
VERTEX
  8
0
 62
7
  6
CONTINUOUS
 10
45.1386908922
 20
125.6097492347
  0
VERTEX
  8
0
 62
7
  6
CONTINUOUS
 10
44.6730778513
 20
125.4346846965
  0
SEQEND
  0
POLYLINE
  8
0
 62
7
  6
CONTINUOUS
 66
1
 70
0
  0
VERTEX
  8
0
 62
7
  6
CONTINUOUS
 10
54.2964691297
 20
134.8885519711
  0
VERTEX
  8
0
 62
7
  6
CONTINUOUS
 10
54.5897912486
 20
134.892524948
  0
VERTEX
  8
0
 62
7
  6
CONTINUOUS
 10
54.6693847917
 20
134.8926512714
  0
VERTEX
  8
0
 62
7
  6
CONTINUOUS
 10
54.7484474529
 20
134.891372592
  0
VERTEX
  8
0
 62
7
  6
CONTINUOUS
 10
54.8266991771
 20
134.8884861152
  0
VERTEX
  8
0
 62
7
  6
CONTINUOUS
 10
54.9039174211
 20
134.8837707132
  0
VERTEX
  8
0
 62
7
  6
CONTINUOUS
 10
54.97988247
 20
134.8770277927
  0
VERTEX
  8
0
 62
7
  6
CONTINUOUS
 10
55.0541616147
 20
134.8680814465
  0
VERTEX
  8
0
 62
7
  6
CONTINUOUS
 10
55.126246613
 20
134.8567619293
  0
VERTEX
  8
0
 62
7
  6
CONTINUOUS
 10
55.1963512819
 20
134.8428705301
  0
VERTEX
  8
0
 62
7
  6
CONTINUOUS
 10
55.264001434
 20
134.8261706542
  0
VERTEX
  8
0
 62
7
  6
CONTINUOUS
 10
55.3280696183
 20
134.8064561123
  0
VERTEX
  8
0
 62
7
  6
CONTINUOUS
 10
55.3875594433
 20
134.7831094347
  0
VERTEX
  8
0
 62
7
  6
CONTINUOUS
 10
55.4428283922
 20
134.7556410115
  0
VERTEX
  8
0
 62
7
  6
CONTINUOUS
 10
55.4922729215
 20
134.724626135
  0
VERTEX
  8
0
 62
7
  6
CONTINUOUS
 10
55.5344518944
 20
134.691183449
  0
VERTEX
  8
0
 62
7
  6
CONTINUOUS
 10
55.5697261862
 20
134.6553135576
  0
VERTEX
  8
0
 62
7
  6
CONTINUOUS
 10
55.5980219977
 20
134.6169933823
  0
VERTEX
  8
0
 62
7
  6
CONTINUOUS
 10
55.6187321033
 20
134.5761623818
  0
VERTEX
  8
0
 62
7
  6
CONTINUOUS
 10
55.6303203653
 20
134.5333655591
  0
VERTEX
  8
0
 62
7
  6
CONTINUOUS
 10
55.6320868755
 20
134.5099957608
  0
SEQEND
  0
POLYLINE
  8
0
 62
7
  6
CONTINUOUS
 66
1
 70
0
  0
VERTEX
  8
0
 62
7
  6
CONTINUOUS
 10
99.1213538631
 20
134.7122656591
  0
VERTEX
  8
0
 62
7
  6
CONTINUOUS
 10
98.8273220921
 20
134.7082959381
  0
VERTEX
  8
0
 62
7
  6
CONTINUOUS
 10
98.7474529191
 20
134.7082492717
  0
VERTEX
  8
0
 62
7
  6
CONTINUOUS
 10
98.6682774559
 20
134.7096260364
  0
VERTEX
  8
0
 62
7
  6
CONTINUOUS
 10
98.5900554821
 20
134.7126251458
  0
VERTEX
  8
0
 62
7
  6
CONTINUOUS
 10
98.5129843626
 20
134.7174607156
  0
VERTEX
  8
0
 62
7
  6
CONTINUOUS
 10
98.43727119
 20
134.7243218454
  0
VERTEX
  8
0
 62
7
  6
CONTINUOUS
 10
98.3633439211
 20
134.7333777437
  0
VERTEX
  8
0
 62
7
  6
CONTINUOUS
 10
98.2916487449
 20
134.7447933995
  0
VERTEX
  8
0
 62
7
  6
CONTINUOUS
 10
98.2220497228
 20
134.7587493756
  0
VERTEX
  8
0
 62
7
  6
CONTINUOUS
 10
98.1548141367
 20
134.7755171301
  0
VERTEX
  8
0
 62
7
  6
CONTINUOUS
 10
98.0913850958
 20
134.7952192821
  0
VERTEX
  8
0
 62
7
  6
CONTINUOUS
 10
98.0323902034
 20
134.8185706801
  0
VERTEX
  8
0
 62
7
  6
CONTINUOUS
 10
97.9776201984
 20
134.8459735637
  0
VERTEX
  8
0
 62
7
  6
CONTINUOUS
 10
97.928688931
 20
134.8768226974
  0
VERTEX
  8
0
 62
7
  6
CONTINUOUS
 10
97.8866625682
 20
134.9102867003
  0
VERTEX
  8
0
 62
7
  6
CONTINUOUS
 10
97.8513188935
 20
134.9464219023
  0
VERTEX
  8
0
 62
7
  6
CONTINUOUS
 10
97.8229537501
 20
134.985185144
  0
VERTEX
  8
0
 62
7
  6
CONTINUOUS
 10
97.8023774524
 20
135.0264587437
  0
VERTEX
  8
0
 62
7
  6
CONTINUOUS
 10
97.7911944253
 20
135.0694560798
  0
VERTEX
  8
0
 62
7
  6
CONTINUOUS
 10
97.789704413
 20
135.090694983
  0
SEQEND
  0
LINE
  8
0
 62
7
  6
CONTINUOUS
 10
99.4043680321
 20
134.7147077137
 11
99.1213538631
 21
134.7122656591
  0
LINE
  8
0
 62
7
  6
CONTINUOUS
 10
54.013447393
 20
134.8861359966
 11
54.2964691297
 21
134.8885519711
  0
LINE
  8
0
 62
7
  6
CONTINUOUS
 10
99.4043680321
 20
134.7147077137
 11
104.9524689727
 21
134.7152640906
  0
LINE
  8
0
 62
7
  6
CONTINUOUS
 10
48.4693592674
 20
134.8856004043
 11
54.013447393
 21
134.8861359966
  0
LINE
  8
0
 62
7
  6
CONTINUOUS
 10
48.4682773161
 20
134.8856597125
 11
48.4692972559
 21
134.8856004073
  0
LINE
  8
0
 62
7
  6
CONTINUOUS
 10
44.1764633798
 20
135.9578044693
 11
44.2811907218
 21
135.9418996847
  0
POLYLINE
  8
0
 62
7
  6
CONTINUOUS
 66
1
 70
0
  0
VERTEX
  8
0
 62
7
  6
CONTINUOUS
 10
109.1496599671
 20
116.8549024645
  0
VERTEX
  8
0
 62
7
  6
CONTINUOUS
 10
108.7464132276
 20
117.0356291916
  0
VERTEX
  8
0
 62
7
  6
CONTINUOUS
 10
108.2805624964
 20
117.2106230094
  0
VERTEX
  8
0
 62
7
  6
CONTINUOUS
 10
107.7787119763
 20
117.3693209624
  0
VERTEX
  8
0
 62
7
  6
CONTINUOUS
 10
107.2451641429
 20
117.5119537381
  0
VERTEX
  8
0
 62
7
  6
CONTINUOUS
 10
106.684578312
 20
117.6385676379
  0
VERTEX
  8
0
 62
7
  6
CONTINUOUS
 10
106.101791177
 20
117.7491782488
  0
VERTEX
  8
0
 62
7
  6
CONTINUOUS
 10
105.5018095887
 20
117.8438277086
  0
VERTEX
  8
0
 62
7
  6
CONTINUOUS
 10
104.9535192442
 20
117.9152048153
  0
SEQEND
  0
LINE
  8
0
 62
7
  6
CONTINUOUS
 10
83.977562028
 20
129.3532131185
 11
84.5997842503
 21
128.9374734089
  0
LINE
  8
0
 62
7
  6
CONTINUOUS
 10
84.5997842503
 20
132.263391086
 11
83.977562028
 21
131.8476513764
  0
LINE
  8
0
 62
7
  6
CONTINUOUS
 10
108.7464133345
 20
144.1652353472
 11
109.1496599671
 21
144.3459620304
  0
POLYLINE
  8
0
 62
7
  6
CONTINUOUS
 66
1
 70
0
  0
VERTEX
  8
0
 62
7
  6
CONTINUOUS
 10
109.2453183856
 20
144.3578030729
  0
VERTEX
  8
0
 62
7
  6
CONTINUOUS
 10
109.4128309548
 20
144.3854648846
  0
VERTEX
  8
0
 62
7
  6
CONTINUOUS
 10
109.5778571729
 20
144.4163696824
  0
VERTEX
  8
0
 62
7
  6
CONTINUOUS
 10
109.7216848742
 20
144.447318469
  0
VERTEX
  8
0
 62
7
  6
CONTINUOUS
 10
109.8476874973
 20
144.4787276563
  0
VERTEX
  8
0
 62
7
  6
CONTINUOUS
 10
109.9592743364
 20
144.5113107973
  0
VERTEX
  8
0
 62
7
  6
CONTINUOUS
 10
110.0601256552
 20
144.5463258061
  0
VERTEX
  8
0
 62
7
  6
CONTINUOUS
 10
110.1543291217
 20
144.5860093044
  0
VERTEX
  8
0
 62
7
  6
CONTINUOUS
 10
110.2457930475
 20
144.6340364222
  0
VERTEX
  8
0
 62
7
  6
CONTINUOUS
 10
110.3374002702
 20
144.696146073
  0
VERTEX
  8
0
 62
7
  6
CONTINUOUS
 10
110.4286911378
 20
144.7798749978
  0
VERTEX
  8
0
 62
7
  6
CONTINUOUS
 10
110.5121790454
 20
144.890520409
  0
VERTEX
  8
0
 62
7
  6
CONTINUOUS
 10
110.5751227688
 20
145.0255100744
  0
VERTEX
  8
0
 62
7
  6
CONTINUOUS
 10
110.6072649247
 20
145.1733448637
  0
VERTEX
  8
0
 62
7
  6
CONTINUOUS
 10
110.6108949275
 20
145.2434442447
  0
SEQEND
  0
LINE
  8
0
 62
7
  6
CONTINUOUS
 10
109.1406009284
 20
144.3419019593
 11
109.2453264731
 21
144.3578043336
  0
POLYLINE
  8
0
 62
7
  6
CONTINUOUS
 66
1
 70
0
  0
VERTEX
  8
0
 62
7
  6
CONTINUOUS
 10
104.9535192442
 20
143.2856596796
  0
VERTEX
  8
0
 62
7
  6
CONTINUOUS
 10
105.5018106266
 20
143.3570369346
  0
VERTEX
  8
0
 62
7
  6
CONTINUOUS
 10
106.101792042
 20
143.451686396
  0
VERTEX
  8
0
 62
7
  6
CONTINUOUS
 10
106.6845790065
 20
143.5622970008
  0
VERTEX
  8
0
 62
7
  6
CONTINUOUS
 10
107.2451646728
 20
143.688910887
  0
VERTEX
  8
0
 62
7
  6
CONTINUOUS
 10
107.7787123511
 20
143.8315436414
  0
VERTEX
  8
0
 62
7
  6
CONTINUOUS
 10
108.2805627291
 20
143.9902415656
  0
VERTEX
  8
0
 62
7
  6
CONTINUOUS
 10
108.7464133345
 20
144.1652353472
  0
SEQEND
  0
LINE
  8
0
 62
7
  6
CONTINUOUS
 10
104.9535133785
 20
143.2856597092
 11
104.9524934668
 21
143.2856004073
  0
LINE
  8
0
 62
7
  6
CONTINUOUS
 10
104.9525010857
 20
134.7152640905
 11
104.9535091228
 21
134.7152047645
  0
LINE
  8
0
 62
7
  6
CONTINUOUS
 10
109.2453264731
 20
133.6430601613
 11
109.1406009281
 21
133.6589625356
  0
POLYLINE
  8
0
 62
7
  6
CONTINUOUS
 66
1
 70
0
  0
VERTEX
  8
0
 62
7
  6
CONTINUOUS
 10
44.2721286296
 20
152.7459630736
  0
VERTEX
  8
0
 62
7
  6
CONTINUOUS
 10
44.6730778513
 20
152.5661797984
  0
VERTEX
  8
0
 62
7
  6
CONTINUOUS
 10
45.1386908922
 20
152.3911152603
  0
VERTEX
  8
0
 62
7
  6
CONTINUOUS
 10
45.6403153726
 20
152.2323468583
  0
VERTEX
  8
0
 62
7
  6
CONTINUOUS
 10
46.1736515748
 20
152.0896421126
  0
VERTEX
  8
0
 62
7
  6
CONTINUOUS
 10
46.7340425966
 20
151.962953879
  0
VERTEX
  8
0
 62
7
  6
CONTINUOUS
 10
47.3166534021
 20
151.852266348
  0
VERTEX
  8
0
 62
7
  6
CONTINUOUS
 10
47.916478329
 20
151.7575374966
  0
VERTEX
  8
0
 62
7
  6
CONTINUOUS
 10
48.4682714504
 20
151.6856596829
  0
SEQEND
  0
LINE
  8
0
 62
7
  6
CONTINUOUS
 10
65.977562028
 20
146.1532131185
 11
66.5997842503
 21
145.7374734089
  0
LINE
  8
0
 62
7
  6
CONTINUOUS
 10
87.4442286947
 20
131.8476513764
 11
86.8220064725
 21
132.263391086
  0
POLYLINE
  8
0
 62
7
  6
CONTINUOUS
 66
1
 70
0
  0
VERTEX
  8
0
 62
7
  6
CONTINUOUS
 10
104.9535091228
 20
117.9152047645
  0
VERTEX
  8
0
 62
7
  6
CONTINUOUS
 10
104.9621060208
 20
117.9093930641
  0
VERTEX
  8
0
 62
7
  6
CONTINUOUS
 10
104.9708993392
 20
117.8903063112
  0
VERTEX
  8
0
 62
7
  6
CONTINUOUS
 10
104.977627782
 20
117.8591050641
  0
VERTEX
  8
0
 62
7
  6
CONTINUOUS
 10
104.9819474853
 20
117.8177865182
  0
VERTEX
  8
0
 62
7
  6
CONTINUOUS
 10
104.983736372
 20
117.769090172
  0
VERTEX
  8
0
 62
7
  6
CONTINUOUS
 10
104.9831766846
 20
117.7152640906
  0
SEQEND
  0
LINE
  8
0
 62
7
  6
CONTINUOUS
 10
66.5997842503
 20
115.463391086
 11
65.977562028
 21
115.0476513764
  0
LINE
  8
0
 62
7
  6
CONTINUOUS
 10
86.8220064725
 20
128.9374734089
 11
87.4442286947
 21
129.3532131185
  0
LINE
  8
0
 62
7
  6
CONTINUOUS
 10
44.6730778513
 20
108.6346846965
 11
44.2721286296
 21
108.4549014213
  0
POLYLINE
  8
0
 62
7
  6
CONTINUOUS
 66
1
 70
0
  0
VERTEX
  8
0
 62
7
  6
CONTINUOUS
 10
44.1764715851
 20
142.0430613048
  0
VERTEX
  8
0
 62
7
  6
CONTINUOUS
 10
44.0076765317
 20
142.0151746591
  0
VERTEX
  8
0
 62
7
  6
CONTINUOUS
 10
43.8431163153
 20
141.9843307577
  0
VERTEX
  8
0
 62
7
  6
CONTINUOUS
 10
43.6996780388
 20
141.9534470069
  0
VERTEX
  8
0
 62
7
  6
CONTINUOUS
 10
43.5739997383
 20
141.9221089603
  0
VERTEX
  8
0
 62
7
  6
CONTINUOUS
 10
43.462686068
 20
141.889607575
  0
VERTEX
  8
0
 62
7
  6
CONTINUOUS
 10
43.3620764465
 20
141.8546952721
  0
VERTEX
  8
0
 62
7
  6
CONTINUOUS
 10
43.2681115754
 20
141.8151586449
  0
VERTEX
  8
0
 62
7
  6
CONTINUOUS
 10
43.1769157944
 20
141.7673700536
  0
VERTEX
  8
0
 62
7
  6
CONTINUOUS
 10
43.085603618
 20
141.7056610104
  0
VERTEX
  8
0
 62
7
  6
CONTINUOUS
 10
42.9945558641
 20
141.622563943
  0
VERTEX
  8
0
 62
7
  6
CONTINUOUS
 10
42.911086305
 20
141.512758678
  0
VERTEX
  8
0
 62
7
  6
CONTINUOUS
 10
42.8477759978
 20
141.3786048958
  0
VERTEX
  8
0
 62
7
  6
CONTINUOUS
 10
42.8149325224
 20
141.2313586406
  0
VERTEX
  8
0
 62
7
  6
CONTINUOUS
 10
42.8108954683
 20
141.1566029349
  0
SEQEND
  0
LINE
  8
0
 62
7
  6
CONTINUOUS
 10
44.2811907218
 20
142.0589648102
 11
44.1764633798
 21
142.0430600256
  0
POLYLINE
  8
0
 62
7
  6
CONTINUOUS
 66
1
 70
0
  0
VERTEX
  8
0
 62
7
  6
CONTINUOUS
 10
48.4682714504
 20
143.115204812
  0
VERTEX
  8
0
 62
7
  6
CONTINUOUS
 10
47.916478329
 20
143.0433269983
  0
VERTEX
  8
0
 62
7
  6
CONTINUOUS
 10
47.3166534021
 20
142.9485981469
  0
VERTEX
  8
0
 62
7
  6
CONTINUOUS
 10
46.7340425966
 20
142.8379106159
  0
VERTEX
  8
0
 62
7
  6
CONTINUOUS
 10
46.1736515748
 20
142.7112223824
  0
VERTEX
  8
0
 62
7
  6
CONTINUOUS
 10
45.6403153726
 20
142.5685176366
  0
VERTEX
  8
0
 62
7
  6
CONTINUOUS
 10
45.1386908922
 20
142.4097492347
  0
VERTEX
  8
0
 62
7
  6
CONTINUOUS
 10
44.6730778513
 20
142.2346846965
  0
SEQEND
  0
LINE
  8
0
 62
7
  6
CONTINUOUS
 10
48.4682773161
 20
143.1152047824
 11
48.4692972559
 21
143.1152640876
  0
POLYLINE
  8
0
 62
7
  6
CONTINUOUS
 66
1
 70
0
  0
VERTEX
  8
0
 62
7
  6
CONTINUOUS
 10
54.593897002
 20
143.1083015856
  0
VERTEX
  8
0
 62
7
  6
CONTINUOUS
 10
54.3004330162
 20
143.1122660621
  0
VERTEX
  8
0
 62
7
  6
CONTINUOUS
 10
54.0174208147
 20
143.1147078059
  0
VERTEX
  8
0
 62
7
  6
CONTINUOUS
 10
48.4693592674
 20
143.1152640906
  0
SEQEND
  0
POLYLINE
  8
0
 62
7
  6
CONTINUOUS
 66
1
 70
0
  0
VERTEX
  8
0
 62
7
  6
CONTINUOUS
 10
98.8315225465
 20
143.2925295265
  0
VERTEX
  8
0
 62
7
  6
CONTINUOUS
 10
99.1253216437
 20
143.2885519713
  0
VERTEX
  8
0
 62
7
  6
CONTINUOUS
 10
99.4083433042
 20
143.2861359968
  0
VERTEX
  8
0
 62
7
  6
CONTINUOUS
 10
104.9524314554
 20
143.2856004043
  0
SEQEND
  0
LINE
  8
0
 62
7
  6
CONTINUOUS
 10
44.1764633798
 20
152.7578044693
 11
44.2811907218
 21
152.7418996847
  0
POLYLINE
  8
0
 62
7
  6
CONTINUOUS
 66
1
 70
0
  0
VERTEX
  8
0
 62
7
  6
CONTINUOUS
 10
109.1496599671
 20
133.6549024645
  0
VERTEX
  8
0
 62
7
  6
CONTINUOUS
 10
108.7464132276
 20
133.8356291916
  0
VERTEX
  8
0
 62
7
  6
CONTINUOUS
 10
108.2805624964
 20
134.0106230094
  0
VERTEX
  8
0
 62
7
  6
CONTINUOUS
 10
107.7787119763
 20
134.1693209624
  0
VERTEX
  8
0
 62
7
  6
CONTINUOUS
 10
107.2451641429
 20
134.3119537381
  0
VERTEX
  8
0
 62
7
  6
CONTINUOUS
 10
106.684578312
 20
134.4385676379
  0
VERTEX
  8
0
 62
7
  6
CONTINUOUS
 10
106.101791177
 20
134.5491782488
  0
VERTEX
  8
0
 62
7
  6
CONTINUOUS
 10
105.5018095886
 20
134.6438277086
  0
VERTEX
  8
0
 62
7
  6
CONTINUOUS
 10
104.9535192442
 20
134.7152048153
  0
SEQEND
  0
LINE
  8
0
 62
7
  6
CONTINUOUS
 10
69.4442286947
 20
148.6476513764
 11
68.8220064725
 21
149.063391086
  0
POLYLINE
  8
0
 62
7
  6
CONTINUOUS
 66
1
 70
0
  0
VERTEX
  8
0
 62
7
  6
CONTINUOUS
 10
97.7897038574
 20
193.3099964608
  0
VERTEX
  8
0
 62
7
  6
CONTINUOUS
 10
97.7914382651
 20
193.3331466776
  0
VERTEX
  8
0
 62
7
  6
CONTINUOUS
 10
97.8030420914
 20
193.3761212424
  0
VERTEX
  8
0
 62
7
  6
CONTINUOUS
 10
97.8239483415
 20
193.4172815387
  0
VERTEX
  8
0
 62
7
  6
CONTINUOUS
 10
97.85256502
 20
193.4558954205
  0
VERTEX
  8
0
 62
7
  6
CONTINUOUS
 10
97.8881264244
 20
193.4918871083
  0
VERTEX
  8
0
 62
7
  6
CONTINUOUS
 10
97.9303693838
 20
193.5252257776
  0
VERTEX
  8
0
 62
7
  6
CONTINUOUS
 10
97.9795331145
 20
193.5559601073
  0
VERTEX
  8
0
 62
7
  6
CONTINUOUS
 10
98.0345269403
 20
193.5832402946
  0
VERTEX
  8
0
 62
7
  6
CONTINUOUS
 10
98.093743356
 20
193.6064639222
  0
VERTEX
  8
0
 62
7
  6
CONTINUOUS
 10
98.1574558013
 20
193.6260723
  0
VERTEX
  8
0
 62
7
  6
CONTINUOUS
 10
98.2248753791
 20
193.6427451186
  0
VERTEX
  8
0
 62
7
  6
CONTINUOUS
 10
98.294672641
 20
193.6566087446
  0
VERTEX
  8
0
 62
7
  6
CONTINUOUS
 10
98.3665445172
 20
193.6679315562
  0
VERTEX
  8
0
 62
7
  6
CONTINUOUS
 10
98.4406619534
 20
193.6768981425
  0
VERTEX
  8
0
 62
7
  6
CONTINUOUS
 10
98.516554236
 20
193.6836722889
  0
VERTEX
  8
0
 62
7
  6
CONTINUOUS
 10
98.5937970055
 20
193.6884232135
  0
VERTEX
  8
0
 62
7
  6
CONTINUOUS
 10
98.6721863479
 20
193.6913423768
  0
VERTEX
  8
0
 62
7
  6
CONTINUOUS
 10
98.7515161147
 20
193.6926450205
  0
VERTEX
  8
0
 62
7
  6
CONTINUOUS
 10
98.8315225465
 20
193.6925295265
  0
SEQEND
  0
POLYLINE
  8
0
 62
7
  6
CONTINUOUS
 66
1
 70
0
  0
VERTEX
  8
0
 62
7
  6
CONTINUOUS
 10
97.7897038574
 20
176.5099964608
  0
VERTEX
  8
0
 62
7
  6
CONTINUOUS
 10
97.7914382651
 20
176.5331466776
  0
VERTEX
  8
0
 62
7
  6
CONTINUOUS
 10
97.8030420914
 20
176.5761212424
  0
VERTEX
  8
0
 62
7
  6
CONTINUOUS
 10
97.8239483415
 20
176.6172815387
  0
VERTEX
  8
0
 62
7
  6
CONTINUOUS
 10
97.85256502
 20
176.6558954205
  0
VERTEX
  8
0
 62
7
  6
CONTINUOUS
 10
97.8881264244
 20
176.6918871083
  0
VERTEX
  8
0
 62
7
  6
CONTINUOUS
 10
97.9303693838
 20
176.7252257776
  0
VERTEX
  8
0
 62
7
  6
CONTINUOUS
 10
97.9795331145
 20
176.7559601073
  0
VERTEX
  8
0
 62
7
  6
CONTINUOUS
 10
98.0345269403
 20
176.7832402946
  0
VERTEX
  8
0
 62
7
  6
CONTINUOUS
 10
98.093743356
 20
176.8064639222
  0
VERTEX
  8
0
 62
7
  6
CONTINUOUS
 10
98.1574558013
 20
176.8260723
  0
VERTEX
  8
0
 62
7
  6
CONTINUOUS
 10
98.2248753791
 20
176.8427451186
  0
VERTEX
  8
0
 62
7
  6
CONTINUOUS
 10
98.294672641
 20
176.8566087446
  0
VERTEX
  8
0
 62
7
  6
CONTINUOUS
 10
98.3665445172
 20
176.8679315562
  0
VERTEX
  8
0
 62
7
  6
CONTINUOUS
 10
98.4406619534
 20
176.8768981425
  0
VERTEX
  8
0
 62
7
  6
CONTINUOUS
 10
98.516554236
 20
176.8836722889
  0
VERTEX
  8
0
 62
7
  6
CONTINUOUS
 10
98.5937970055
 20
176.8884232135
  0
VERTEX
  8
0
 62
7
  6
CONTINUOUS
 10
98.6721863479
 20
176.8913423768
  0
VERTEX
  8
0
 62
7
  6
CONTINUOUS
 10
98.7515161147
 20
176.8926450205
  0
VERTEX
  8
0
 62
7
  6
CONTINUOUS
 10
98.8315225465
 20
176.8925295265
  0
SEQEND
  0
POLYLINE
  8
0
 62
7
  6
CONTINUOUS
 66
1
 70
0
  0
VERTEX
  8
0
 62
7
  6
CONTINUOUS
 10
97.7897038574
 20
159.7099964608
  0
VERTEX
  8
0
 62
7
  6
CONTINUOUS
 10
97.7914382651
 20
159.7331466776
  0
VERTEX
  8
0
 62
7
  6
CONTINUOUS
 10
97.8030420914
 20
159.7761212424
  0
VERTEX
  8
0
 62
7
  6
CONTINUOUS
 10
97.8239483415
 20
159.8172815387
  0
VERTEX
  8
0
 62
7
  6
CONTINUOUS
 10
97.85256502
 20
159.8558954205
  0
VERTEX
  8
0
 62
7
  6
CONTINUOUS
 10
97.8881264244
 20
159.8918871083
  0
VERTEX
  8
0
 62
7
  6
CONTINUOUS
 10
97.9303693838
 20
159.9252257776
  0
VERTEX
  8
0
 62
7
  6
CONTINUOUS
 10
97.9795331145
 20
159.9559601073
  0
VERTEX
  8
0
 62
7
  6
CONTINUOUS
 10
98.0345269403
 20
159.9832402946
  0
VERTEX
  8
0
 62
7
  6
CONTINUOUS
 10
98.093743356
 20
160.0064639222
  0
VERTEX
  8
0
 62
7
  6
CONTINUOUS
 10
98.1574558013
 20
160.0260723
  0
VERTEX
  8
0
 62
7
  6
CONTINUOUS
 10
98.2248753791
 20
160.0427451186
  0
VERTEX
  8
0
 62
7
  6
CONTINUOUS
 10
98.294672641
 20
160.0566087446
  0
VERTEX
  8
0
 62
7
  6
CONTINUOUS
 10
98.3665445172
 20
160.0679315562
  0
VERTEX
  8
0
 62
7
  6
CONTINUOUS
 10
98.4406619534
 20
160.0768981425
  0
VERTEX
  8
0
 62
7
  6
CONTINUOUS
 10
98.516554236
 20
160.0836722889
  0
VERTEX
  8
0
 62
7
  6
CONTINUOUS
 10
98.5937970055
 20
160.0884232135
  0
VERTEX
  8
0
 62
7
  6
CONTINUOUS
 10
98.6721863479
 20
160.0913423768
  0
VERTEX
  8
0
 62
7
  6
CONTINUOUS
 10
98.7515161147
 20
160.0926450205
  0
VERTEX
  8
0
 62
7
  6
CONTINUOUS
 10
98.8315225465
 20
160.0925295265
  0
SEQEND
  0
LINE
  8
0
 62
7
  6
CONTINUOUS
 10
68.8220064725
 20
112.1374734089
 11
69.4442286947
 21
112.5532131185
  0
POLYLINE
  8
0
 62
7
  6
CONTINUOUS
 66
1
 70
0
  0
VERTEX
  8
0
 62
7
  6
CONTINUOUS
 10
54.2964691297
 20
151.6885519711
  0
VERTEX
  8
0
 62
7
  6
CONTINUOUS
 10
54.5897912486
 20
151.692524948
  0
VERTEX
  8
0
 62
7
  6
CONTINUOUS
 10
54.6693847917
 20
151.6926512714
  0
VERTEX
  8
0
 62
7
  6
CONTINUOUS
 10
54.7484474529
 20
151.691372592
  0
VERTEX
  8
0
 62
7
  6
CONTINUOUS
 10
54.8266991771
 20
151.6884861152
  0
VERTEX
  8
0
 62
7
  6
CONTINUOUS
 10
54.9039174211
 20
151.6837707132
  0
VERTEX
  8
0
 62
7
  6
CONTINUOUS
 10
54.97988247
 20
151.6770277927
  0
VERTEX
  8
0
 62
7
  6
CONTINUOUS
 10
55.0541616147
 20
151.6680814465
  0
VERTEX
  8
0
 62
7
  6
CONTINUOUS
 10
55.126246613
 20
151.6567619293
  0
VERTEX
  8
0
 62
7
  6
CONTINUOUS
 10
55.1963512819
 20
151.6428705301
  0
VERTEX
  8
0
 62
7
  6
CONTINUOUS
 10
55.264001434
 20
151.6261706542
  0
VERTEX
  8
0
 62
7
  6
CONTINUOUS
 10
55.3280696183
 20
151.6064561123
  0
VERTEX
  8
0
 62
7
  6
CONTINUOUS
 10
55.3875594433
 20
151.5831094347
  0
VERTEX
  8
0
 62
7
  6
CONTINUOUS
 10
55.4428283922
 20
151.5556410115
  0
VERTEX
  8
0
 62
7
  6
CONTINUOUS
 10
55.4922729215
 20
151.524626135
  0
VERTEX
  8
0
 62
7
  6
CONTINUOUS
 10
55.5344518944
 20
151.491183449
  0
VERTEX
  8
0
 62
7
  6
CONTINUOUS
 10
55.5697261862
 20
151.4553135576
  0
VERTEX
  8
0
 62
7
  6
CONTINUOUS
 10
55.5980219977
 20
151.4169933823
  0
VERTEX
  8
0
 62
7
  6
CONTINUOUS
 10
55.6187321033
 20
151.3761623818
  0
VERTEX
  8
0
 62
7
  6
CONTINUOUS
 10
55.6303203653
 20
151.3333655591
  0
VERTEX
  8
0
 62
7
  6
CONTINUOUS
 10
55.6320868755
 20
151.3099957608
  0
SEQEND
  0
POLYLINE
  8
0
 62
7
  6
CONTINUOUS
 66
1
 70
0
  0
VERTEX
  8
0
 62
7
  6
CONTINUOUS
 10
99.1213538631
 20
151.5122656591
  0
VERTEX
  8
0
 62
7
  6
CONTINUOUS
 10
98.8273220921
 20
151.5082959381
  0
VERTEX
  8
0
 62
7
  6
CONTINUOUS
 10
98.7474529191
 20
151.5082492717
  0
VERTEX
  8
0
 62
7
  6
CONTINUOUS
 10
98.6682774559
 20
151.5096260364
  0
VERTEX
  8
0
 62
7
  6
CONTINUOUS
 10
98.5900554821
 20
151.5126251458
  0
VERTEX
  8
0
 62
7
  6
CONTINUOUS
 10
98.5129843626
 20
151.5174607156
  0
VERTEX
  8
0
 62
7
  6
CONTINUOUS
 10
98.43727119
 20
151.5243218454
  0
VERTEX
  8
0
 62
7
  6
CONTINUOUS
 10
98.3633439211
 20
151.5333777437
  0
VERTEX
  8
0
 62
7
  6
CONTINUOUS
 10
98.2916487449
 20
151.5447933995
  0
VERTEX
  8
0
 62
7
  6
CONTINUOUS
 10
98.2220497228
 20
151.5587493756
  0
VERTEX
  8
0
 62
7
  6
CONTINUOUS
 10
98.1548141367
 20
151.5755171301
  0
VERTEX
  8
0
 62
7
  6
CONTINUOUS
 10
98.0913850958
 20
151.5952192821
  0
VERTEX
  8
0
 62
7
  6
CONTINUOUS
 10
98.0323902034
 20
151.6185706801
  0
VERTEX
  8
0
 62
7
  6
CONTINUOUS
 10
97.9776201984
 20
151.6459735637
  0
VERTEX
  8
0
 62
7
  6
CONTINUOUS
 10
97.928688931
 20
151.6768226974
  0
VERTEX
  8
0
 62
7
  6
CONTINUOUS
 10
97.8866625682
 20
151.7102867003
  0
VERTEX
  8
0
 62
7
  6
CONTINUOUS
 10
97.8513188935
 20
151.7464219023
  0
VERTEX
  8
0
 62
7
  6
CONTINUOUS
 10
97.8229537501
 20
151.785185144
  0
VERTEX
  8
0
 62
7
  6
CONTINUOUS
 10
97.8023774524
 20
151.8264587437
  0
VERTEX
  8
0
 62
7
  6
CONTINUOUS
 10
97.7911944253
 20
151.8694560798
  0
VERTEX
  8
0
 62
7
  6
CONTINUOUS
 10
97.789704413
 20
151.890694983
  0
SEQEND
  0
LINE
  8
0
 62
7
  6
CONTINUOUS
 10
99.4043680321
 20
151.5147077137
 11
99.1213538631
 21
151.5122656591
  0
LINE
  8
0
 62
7
  6
CONTINUOUS
 10
54.013447393
 20
151.6861359966
 11
54.2964691297
 21
151.6885519711
  0
LINE
  8
0
 62
7
  6
CONTINUOUS
 10
99.4043680321
 20
151.5147077137
 11
104.9524689727
 21
151.5152640906
  0
LINE
  8
0
 62
7
  6
CONTINUOUS
 10
48.4693592674
 20
151.6856004043
 11
54.013447393
 21
151.6861359966
  0
LINE
  8
0
 62
7
  6
CONTINUOUS
 10
48.4682773161
 20
151.6856597125
 11
48.4692972559
 21
151.6856004073
  0
LINE
  8
0
 62
7
  6
CONTINUOUS
 10
104.9525010857
 20
151.5152640905
 11
104.9535091228
 21
151.5152047645
  0
POLYLINE
  8
0
 62
7
  6
CONTINUOUS
 66
1
 70
0
  0
VERTEX
  8
0
 62
7
  6
CONTINUOUS
 10
44.2721286296
 20
169.5459630736
  0
VERTEX
  8
0
 62
7
  6
CONTINUOUS
 10
44.6730778513
 20
169.3661797984
  0
VERTEX
  8
0
 62
7
  6
CONTINUOUS
 10
45.1386908922
 20
169.1911152603
  0
VERTEX
  8
0
 62
7
  6
CONTINUOUS
 10
45.6403153726
 20
169.0323468583
  0
VERTEX
  8
0
 62
7
  6
CONTINUOUS
 10
46.1736515748
 20
168.8896421126
  0
VERTEX
  8
0
 62
7
  6
CONTINUOUS
 10
46.7340425966
 20
168.762953879
  0
VERTEX
  8
0
 62
7
  6
CONTINUOUS
 10
47.3166534021
 20
168.652266348
  0
VERTEX
  8
0
 62
7
  6
CONTINUOUS
 10
47.916478329
 20
168.5575374966
  0
VERTEX
  8
0
 62
7
  6
CONTINUOUS
 10
48.4682714504
 20
168.4856596829
  0
SEQEND
  0
LINE
  8
0
 62
7
  6
CONTINUOUS
 10
83.977562028
 20
146.1532131185
 11
84.5997842503
 21
145.7374734089
  0
LINE
  8
0
 62
7
  6
CONTINUOUS
 10
65.977562028
 20
162.9532131185
 11
66.5997842503
 21
162.5374734089
  0
LINE
  8
0
 62
7
  6
CONTINUOUS
 10
87.4442286947
 20
148.6476513764
 11
86.8220064725
 21
149.063391086
  0
POLYLINE
  8
0
 62
7
  6
CONTINUOUS
 66
1
 70
0
  0
VERTEX
  8
0
 62
7
  6
CONTINUOUS
 10
104.9535091228
 20
134.7152047645
  0
VERTEX
  8
0
 62
7
  6
CONTINUOUS
 10
104.9621060208
 20
134.7093930641
  0
VERTEX
  8
0
 62
7
  6
CONTINUOUS
 10
104.9708993392
 20
134.6903063112
  0
VERTEX
  8
0
 62
7
  6
CONTINUOUS
 10
104.977627782
 20
134.6591050641
  0
VERTEX
  8
0
 62
7
  6
CONTINUOUS
 10
104.9819474853
 20
134.6177865182
  0
VERTEX
  8
0
 62
7
  6
CONTINUOUS
 10
104.983736372
 20
134.569090172
  0
VERTEX
  8
0
 62
7
  6
CONTINUOUS
 10
104.9831766846
 20
134.5152640906
  0
SEQEND
  0
LINE
  8
0
 62
7
  6
CONTINUOUS
 10
97.7895057766
 20
210.1004322475
 11
97.7897041785
 21
202.2906952575
  0
LINE
  8
0
 62
7
  6
CONTINUOUS
 10
97.7895057766
 20
193.2310645148
 11
97.7897041785
 21
185.4906952575
  0
LINE
  8
0
 62
7
  6
CONTINUOUS
 10
97.7895057766
 20
176.4310645148
 11
97.7897041785
 21
168.6906952575
  0
LINE
  8
0
 62
7
  6
CONTINUOUS
 10
97.7895057766
 20
159.6310645148
 11
97.7897041785
 21
151.8906952575
  0
LINE
  8
0
 62
7
  6
CONTINUOUS
 10
97.7895057766
 20
142.8310645148
 11
97.7897041785
 21
135.0906952575
  0
LINE
  8
0
 62
7
  6
CONTINUOUS
 10
97.7895057766
 20
126.0310645148
 11
97.7897041785
 21
118.2906952575
  0
LINE
  8
0
 62
7
  6
CONTINUOUS
 10
97.7895057766
 20
109.2310645148
 11
97.7897041785
 21
101.4906952575
  0
LINE
  8
0
 62
7
  6
CONTINUOUS
 10
97.7895057766
 20
92.4310645148
 11
97.7897041785
 21
84.6906952575
  0
LINE
  8
0
 62
7
  6
CONTINUOUS
 10
97.7895057766
 20
75.6310645148
 11
97.7897041785
 21
67.8906952575
  0
LINE
  8
DEFAULT_1
 62
2
  6
CENTER
 10
102.1108953614
 20
57.3004322475
 11
102.1108953614
 21
201.5428129778
  0
LINE
  8
0
 62
7
  6
CONTINUOUS
 10
97.5397820104
 20
193.3111750983
 11
97.5395057766
 21
193.2310644364
  0
LINE
  8
0
 62
7
  6
CONTINUOUS
 10
97.5397820104
 20
176.5111750983
 11
97.5395057766
 21
176.4310644364
  0
LINE
  8
0
 62
7
  6
CONTINUOUS
 10
97.5397820104
 20
159.7111750983
 11
97.5395057766
 21
159.6310644364
  0
LINE
  8
0
 62
7
  6
CONTINUOUS
 10
97.5397820104
 20
142.9111750983
 11
97.5395057766
 21
142.8310644364
  0
LINE
  8
0
 62
7
  6
CONTINUOUS
 10
97.5397820104
 20
126.1111750983
 11
97.5395057766
 21
126.0310644364
  0
LINE
  8
0
 62
7
  6
CONTINUOUS
 10
97.7897340311
 20
193.3099965193
 11
97.7894605131
 21
193.2310639657
  0
LINE
  8
0
 62
7
  6
CONTINUOUS
 10
97.5397820104
 20
109.3111750983
 11
97.5395057766
 21
109.2310644364
  0
LINE
  8
0
 62
7
  6
CONTINUOUS
 10
97.7897340311
 20
176.5099965193
 11
97.7894605131
 21
176.4310639657
  0
LINE
  8
0
 62
7
  6
CONTINUOUS
 10
97.5397820104
 20
92.5111750983
 11
97.5395057766
 21
92.4310644364
  0
LINE
  8
0
 62
7
  6
CONTINUOUS
 10
97.7897340311
 20
159.7099965193
 11
97.7894605131
 21
159.6310639657
  0
LINE
  8
0
 62
7
  6
CONTINUOUS
 10
97.5397820104
 20
75.7111750983
 11
97.5395057766
 21
75.6310644364
  0
LINE
  8
0
 62
7
  6
CONTINUOUS
 10
97.7897340311
 20
142.9099965193
 11
97.7894605131
 21
142.8310639657
  0
LINE
  8
0
 62
7
  6
CONTINUOUS
 10
97.7897340311
 20
126.1099965193
 11
97.7894605131
 21
126.0310639657
  0
LINE
  8
0
 62
7
  6
CONTINUOUS
 10
97.7897340311
 20
109.3099965193
 11
97.7894605131
 21
109.2310639657
  0
LINE
  8
0
 62
7
  6
CONTINUOUS
 10
97.7897340311
 20
92.5099965193
 11
97.7894605131
 21
92.4310639657
  0
LINE
  8
0
 62
7
  6
CONTINUOUS
 10
97.7897340311
 20
75.7099965193
 11
97.7894605131
 21
75.6310639657
  0
POLYLINE
  8
0
 62
7
  6
CONTINUOUS
 66
1
 70
0
  0
VERTEX
  8
0
 62
7
  6
CONTINUOUS
 10
97.7897038574
 20
142.9099964608
  0
VERTEX
  8
0
 62
7
  6
CONTINUOUS
 10
97.7914382651
 20
142.9331466776
  0
VERTEX
  8
0
 62
7
  6
CONTINUOUS
 10
97.8030420914
 20
142.9761212424
  0
VERTEX
  8
0
 62
7
  6
CONTINUOUS
 10
97.8239483415
 20
143.0172815387
  0
VERTEX
  8
0
 62
7
  6
CONTINUOUS
 10
97.85256502
 20
143.0558954205
  0
VERTEX
  8
0
 62
7
  6
CONTINUOUS
 10
97.8881264244
 20
143.0918871083
  0
VERTEX
  8
0
 62
7
  6
CONTINUOUS
 10
97.9303693838
 20
143.1252257776
  0
VERTEX
  8
0
 62
7
  6
CONTINUOUS
 10
97.9795331145
 20
143.1559601073
  0
VERTEX
  8
0
 62
7
  6
CONTINUOUS
 10
98.0345269403
 20
143.1832402946
  0
VERTEX
  8
0
 62
7
  6
CONTINUOUS
 10
98.093743356
 20
143.2064639222
  0
VERTEX
  8
0
 62
7
  6
CONTINUOUS
 10
98.1574558013
 20
143.2260723
  0
VERTEX
  8
0
 62
7
  6
CONTINUOUS
 10
98.2248753791
 20
143.2427451186
  0
VERTEX
  8
0
 62
7
  6
CONTINUOUS
 10
98.294672641
 20
143.2566087446
  0
VERTEX
  8
0
 62
7
  6
CONTINUOUS
 10
98.3665445172
 20
143.2679315562
  0
VERTEX
  8
0
 62
7
  6
CONTINUOUS
 10
98.4406619534
 20
143.2768981425
  0
VERTEX
  8
0
 62
7
  6
CONTINUOUS
 10
98.516554236
 20
143.2836722889
  0
VERTEX
  8
0
 62
7
  6
CONTINUOUS
 10
98.5937970055
 20
143.2884232135
  0
VERTEX
  8
0
 62
7
  6
CONTINUOUS
 10
98.6721863479
 20
143.2913423768
  0
VERTEX
  8
0
 62
7
  6
CONTINUOUS
 10
98.7515161147
 20
143.2926450205
  0
VERTEX
  8
0
 62
7
  6
CONTINUOUS
 10
98.8315225465
 20
143.2925295265
  0
SEQEND
  0
POLYLINE
  8
0
 62
7
  6
CONTINUOUS
 66
1
 70
0
  0
VERTEX
  8
0
 62
7
  6
CONTINUOUS
 10
97.7897038574
 20
126.1099964608
  0
VERTEX
  8
0
 62
7
  6
CONTINUOUS
 10
97.7914382651
 20
126.1331466775
  0
VERTEX
  8
0
 62
7
  6
CONTINUOUS
 10
97.8030420914
 20
126.1761212424
  0
VERTEX
  8
0
 62
7
  6
CONTINUOUS
 10
97.8239483415
 20
126.2172815387
  0
VERTEX
  8
0
 62
7
  6
CONTINUOUS
 10
97.85256502
 20
126.2558954205
  0
VERTEX
  8
0
 62
7
  6
CONTINUOUS
 10
97.8881264244
 20
126.2918871083
  0
VERTEX
  8
0
 62
7
  6
CONTINUOUS
 10
97.9303693838
 20
126.3252257776
  0
VERTEX
  8
0
 62
7
  6
CONTINUOUS
 10
97.9795331145
 20
126.3559601073
  0
VERTEX
  8
0
 62
7
  6
CONTINUOUS
 10
98.0345269403
 20
126.3832402946
  0
VERTEX
  8
0
 62
7
  6
CONTINUOUS
 10
98.093743356
 20
126.4064639222
  0
VERTEX
  8
0
 62
7
  6
CONTINUOUS
 10
98.1574558013
 20
126.4260723
  0
VERTEX
  8
0
 62
7
  6
CONTINUOUS
 10
98.2248753791
 20
126.4427451186
  0
VERTEX
  8
0
 62
7
  6
CONTINUOUS
 10
98.294672641
 20
126.4566087446
  0
VERTEX
  8
0
 62
7
  6
CONTINUOUS
 10
98.3665445172
 20
126.4679315562
  0
VERTEX
  8
0
 62
7
  6
CONTINUOUS
 10
98.4406619534
 20
126.4768981425
  0
VERTEX
  8
0
 62
7
  6
CONTINUOUS
 10
98.516554236
 20
126.4836722889
  0
VERTEX
  8
0
 62
7
  6
CONTINUOUS
 10
98.5937970055
 20
126.4884232135
  0
VERTEX
  8
0
 62
7
  6
CONTINUOUS
 10
98.6721863479
 20
126.4913423768
  0
VERTEX
  8
0
 62
7
  6
CONTINUOUS
 10
98.7515161147
 20
126.4926450205
  0
VERTEX
  8
0
 62
7
  6
CONTINUOUS
 10
98.8315225465
 20
126.4925295265
  0
SEQEND
  0
POLYLINE
  8
0
 62
7
  6
CONTINUOUS
 66
1
 70
0
  0
VERTEX
  8
0
 62
7
  6
CONTINUOUS
 10
97.7897038574
 20
109.3099964608
  0
VERTEX
  8
0
 62
7
  6
CONTINUOUS
 10
97.7914382651
 20
109.3331466776
  0
VERTEX
  8
0
 62
7
  6
CONTINUOUS
 10
97.8030420914
 20
109.3761212424
  0
VERTEX
  8
0
 62
7
  6
CONTINUOUS
 10
97.8239483415
 20
109.4172815387
  0
VERTEX
  8
0
 62
7
  6
CONTINUOUS
 10
97.85256502
 20
109.4558954205
  0
VERTEX
  8
0
 62
7
  6
CONTINUOUS
 10
97.8881264244
 20
109.4918871083
  0
VERTEX
  8
0
 62
7
  6
CONTINUOUS
 10
97.9303693838
 20
109.5252257776
  0
VERTEX
  8
0
 62
7
  6
CONTINUOUS
 10
97.9795331145
 20
109.5559601073
  0
VERTEX
  8
0
 62
7
  6
CONTINUOUS
 10
98.0345269403
 20
109.5832402946
  0
VERTEX
  8
0
 62
7
  6
CONTINUOUS
 10
98.093743356
 20
109.6064639222
  0
VERTEX
  8
0
 62
7
  6
CONTINUOUS
 10
98.1574558013
 20
109.6260723
  0
VERTEX
  8
0
 62
7
  6
CONTINUOUS
 10
98.2248753791
 20
109.6427451186
  0
VERTEX
  8
0
 62
7
  6
CONTINUOUS
 10
98.294672641
 20
109.6566087446
  0
VERTEX
  8
0
 62
7
  6
CONTINUOUS
 10
98.3665445172
 20
109.6679315562
  0
VERTEX
  8
0
 62
7
  6
CONTINUOUS
 10
98.4406619534
 20
109.6768981425
  0
VERTEX
  8
0
 62
7
  6
CONTINUOUS
 10
98.516554236
 20
109.6836722889
  0
VERTEX
  8
0
 62
7
  6
CONTINUOUS
 10
98.5937970055
 20
109.6884232135
  0
VERTEX
  8
0
 62
7
  6
CONTINUOUS
 10
98.6721863479
 20
109.6913423768
  0
VERTEX
  8
0
 62
7
  6
CONTINUOUS
 10
98.7515161147
 20
109.6926450205
  0
VERTEX
  8
0
 62
7
  6
CONTINUOUS
 10
98.8315225465
 20
109.6925295265
  0
SEQEND
  0
POLYLINE
  8
0
 62
7
  6
CONTINUOUS
 66
1
 70
0
  0
VERTEX
  8
0
 62
7
  6
CONTINUOUS
 10
97.7897038574
 20
92.5099964608
  0
VERTEX
  8
0
 62
7
  6
CONTINUOUS
 10
97.7914382651
 20
92.5331466776
  0
VERTEX
  8
0
 62
7
  6
CONTINUOUS
 10
97.8030420914
 20
92.5761212424
  0
VERTEX
  8
0
 62
7
  6
CONTINUOUS
 10
97.8239483415
 20
92.6172815387
  0
VERTEX
  8
0
 62
7
  6
CONTINUOUS
 10
97.85256502
 20
92.6558954205
  0
VERTEX
  8
0
 62
7
  6
CONTINUOUS
 10
97.8881264244
 20
92.6918871083
  0
VERTEX
  8
0
 62
7
  6
CONTINUOUS
 10
97.9303693838
 20
92.7252257776
  0
VERTEX
  8
0
 62
7
  6
CONTINUOUS
 10
97.9795331145
 20
92.7559601073
  0
VERTEX
  8
0
 62
7
  6
CONTINUOUS
 10
98.0345269403
 20
92.7832402946
  0
VERTEX
  8
0
 62
7
  6
CONTINUOUS
 10
98.093743356
 20
92.8064639222
  0
VERTEX
  8
0
 62
7
  6
CONTINUOUS
 10
98.1574558013
 20
92.8260723
  0
VERTEX
  8
0
 62
7
  6
CONTINUOUS
 10
98.2248753791
 20
92.8427451186
  0
VERTEX
  8
0
 62
7
  6
CONTINUOUS
 10
98.294672641
 20
92.8566087446
  0
VERTEX
  8
0
 62
7
  6
CONTINUOUS
 10
98.3665445172
 20
92.8679315562
  0
VERTEX
  8
0
 62
7
  6
CONTINUOUS
 10
98.4406619534
 20
92.8768981425
  0
VERTEX
  8
0
 62
7
  6
CONTINUOUS
 10
98.516554236
 20
92.8836722889
  0
VERTEX
  8
0
 62
7
  6
CONTINUOUS
 10
98.5937970055
 20
92.8884232135
  0
VERTEX
  8
0
 62
7
  6
CONTINUOUS
 10
98.6721863479
 20
92.8913423768
  0
VERTEX
  8
0
 62
7
  6
CONTINUOUS
 10
98.7515161147
 20
92.8926450205
  0
VERTEX
  8
0
 62
7
  6
CONTINUOUS
 10
98.8315225465
 20
92.8925295265
  0
SEQEND
  0
POLYLINE
  8
0
 62
7
  6
CONTINUOUS
 66
1
 70
0
  0
VERTEX
  8
0
 62
7
  6
CONTINUOUS
 10
97.7897038574
 20
75.7099964608
  0
VERTEX
  8
0
 62
7
  6
CONTINUOUS
 10
97.7914382651
 20
75.7331466776
  0
VERTEX
  8
0
 62
7
  6
CONTINUOUS
 10
97.8030420914
 20
75.7761212424
  0
VERTEX
  8
0
 62
7
  6
CONTINUOUS
 10
97.8239483415
 20
75.8172815387
  0
VERTEX
  8
0
 62
7
  6
CONTINUOUS
 10
97.85256502
 20
75.8558954205
  0
VERTEX
  8
0
 62
7
  6
CONTINUOUS
 10
97.8881264244
 20
75.8918871083
  0
VERTEX
  8
0
 62
7
  6
CONTINUOUS
 10
97.9303693838
 20
75.9252257776
  0
VERTEX
  8
0
 62
7
  6
CONTINUOUS
 10
97.9795331145
 20
75.9559601073
  0
VERTEX
  8
0
 62
7
  6
CONTINUOUS
 10
98.0345269403
 20
75.9832402946
  0
VERTEX
  8
0
 62
7
  6
CONTINUOUS
 10
98.093743356
 20
76.0064639222
  0
VERTEX
  8
0
 62
7
  6
CONTINUOUS
 10
98.1574558013
 20
76.0260723
  0
VERTEX
  8
0
 62
7
  6
CONTINUOUS
 10
98.2248753791
 20
76.0427451186
  0
VERTEX
  8
0
 62
7
  6
CONTINUOUS
 10
98.294672641
 20
76.0566087446
  0
VERTEX
  8
0
 62
7
  6
CONTINUOUS
 10
98.3665445172
 20
76.0679315562
  0
VERTEX
  8
0
 62
7
  6
CONTINUOUS
 10
98.4406619534
 20
76.0768981425
  0
VERTEX
  8
0
 62
7
  6
CONTINUOUS
 10
98.516554236
 20
76.0836722889
  0
VERTEX
  8
0
 62
7
  6
CONTINUOUS
 10
98.5937970055
 20
76.0884232135
  0
VERTEX
  8
0
 62
7
  6
CONTINUOUS
 10
98.6721863479
 20
76.0913423768
  0
VERTEX
  8
0
 62
7
  6
CONTINUOUS
 10
98.7515161147
 20
76.0926450205
  0
VERTEX
  8
0
 62
7
  6
CONTINUOUS
 10
98.8315225465
 20
76.0925295265
  0
SEQEND
  0
LINE
  8
0
 62
7
  6
CONTINUOUS
 10
84.5997842503
 20
115.463391086
 11
83.977562028
 21
115.0476513764
  0
LINE
  8
0
 62
7
  6
CONTINUOUS
 10
66.5997842503
 20
98.663391086
 11
65.977562028
 21
98.2476513764
  0
LINE
  8
0
 62
7
  6
CONTINUOUS
 10
86.8220064725
 20
112.1374734089
 11
87.4442286947
 21
112.5532131185
  0
LINE
  8
0
 62
7
  6
CONTINUOUS
 10
108.7464133345
 20
127.3652353472
 11
109.1496599671
 21
127.5459620304
  0
POLYLINE
  8
0
 62
7
  6
CONTINUOUS
 66
1
 70
0
  0
VERTEX
  8
0
 62
7
  6
CONTINUOUS
 10
109.2453183856
 20
161.1578030729
  0
VERTEX
  8
0
 62
7
  6
CONTINUOUS
 10
109.4128309548
 20
161.1854648846
  0
VERTEX
  8
0
 62
7
  6
CONTINUOUS
 10
109.5778571729
 20
161.2163696824
  0
VERTEX
  8
0
 62
7
  6
CONTINUOUS
 10
109.7216848742
 20
161.247318469
  0
VERTEX
  8
0
 62
7
  6
CONTINUOUS
 10
109.8476874973
 20
161.2787276563
  0
VERTEX
  8
0
 62
7
  6
CONTINUOUS
 10
109.9592743364
 20
161.3113107973
  0
VERTEX
  8
0
 62
7
  6
CONTINUOUS
 10
110.0601256552
 20
161.3463258061
  0
VERTEX
  8
0
 62
7
  6
CONTINUOUS
 10
110.1543291217
 20
161.3860093044
  0
VERTEX
  8
0
 62
7
  6
CONTINUOUS
 10
110.2457930475
 20
161.4340364222
  0
VERTEX
  8
0
 62
7
  6
CONTINUOUS
 10
110.3374002702
 20
161.496146073
  0
VERTEX
  8
0
 62
7
  6
CONTINUOUS
 10
110.4286911378
 20
161.5798749978
  0
VERTEX
  8
0
 62
7
  6
CONTINUOUS
 10
110.5121790454
 20
161.690520409
  0
VERTEX
  8
0
 62
7
  6
CONTINUOUS
 10
110.5751227688
 20
161.8255100744
  0
VERTEX
  8
0
 62
7
  6
CONTINUOUS
 10
110.6072649247
 20
161.9733448637
  0
VERTEX
  8
0
 62
7
  6
CONTINUOUS
 10
110.6108952574
 20
162.0442590062
  0
SEQEND
  0
LINE
  8
0
 62
7
  6
CONTINUOUS
 10
109.1406009284
 20
161.1419019593
 11
109.2453264731
 21
161.1578043336
  0
POLYLINE
  8
0
 62
7
  6
CONTINUOUS
 66
1
 70
0
  0
VERTEX
  8
0
 62
7
  6
CONTINUOUS
 10
104.9535192442
 20
160.0856596796
  0
VERTEX
  8
0
 62
7
  6
CONTINUOUS
 10
105.5018106266
 20
160.1570369346
  0
VERTEX
  8
0
 62
7
  6
CONTINUOUS
 10
106.101792042
 20
160.251686396
  0
VERTEX
  8
0
 62
7
  6
CONTINUOUS
 10
106.6845790065
 20
160.3622970008
  0
VERTEX
  8
0
 62
7
  6
CONTINUOUS
 10
107.2451646728
 20
160.488910887
  0
VERTEX
  8
0
 62
7
  6
CONTINUOUS
 10
107.7787123511
 20
160.6315436414
  0
VERTEX
  8
0
 62
7
  6
CONTINUOUS
 10
108.2805627291
 20
160.7902415656
  0
VERTEX
  8
0
 62
7
  6
CONTINUOUS
 10
108.7464133345
 20
160.9652353472
  0
SEQEND
  0
LINE
  8
0
 62
7
  6
CONTINUOUS
 10
104.9535133785
 20
160.0856597092
 11
104.9524934668
 21
160.0856004073
  0
POLYLINE
  8
0
 62
7
  6
CONTINUOUS
 66
1
 70
0
  0
VERTEX
  8
0
 62
7
  6
CONTINUOUS
 10
54.593897002
 20
159.9083015856
  0
VERTEX
  8
0
 62
7
  6
CONTINUOUS
 10
54.3004330162
 20
159.9122660621
  0
VERTEX
  8
0
 62
7
  6
CONTINUOUS
 10
54.0174208147
 20
159.9147078059
  0
VERTEX
  8
0
 62
7
  6
CONTINUOUS
 10
48.4693592674
 20
159.9152640906
  0
SEQEND
  0
LINE
  8
0
 62
7
  6
CONTINUOUS
 10
109.2453264731
 20
150.4430601613
 11
109.1406009281
 21
150.4589625356
  0
LINE
  8
0
 62
7
  6
CONTINUOUS
 10
69.4442286947
 20
165.4476513764
 11
68.8220064725
 21
165.863391086
  0
POLYLINE
  8
0
 62
7
  6
CONTINUOUS
 66
1
 70
0
  0
VERTEX
  8
0
 62
7
  6
CONTINUOUS
 10
110.610895254
 20
82.3566025627
  0
VERTEX
  8
0
 62
7
  6
CONTINUOUS
 10
110.6068453172
 20
82.4314769615
  0
VERTEX
  8
0
 62
7
  6
CONTINUOUS
 10
110.5739358451
 20
82.5788342459
  0
VERTEX
  8
0
 62
7
  6
CONTINUOUS
 10
110.5105221872
 20
82.7130555149
  0
VERTEX
  8
0
 62
7
  6
CONTINUOUS
 10
110.4269490068
 20
82.8228718887
  0
VERTEX
  8
0
 62
7
  6
CONTINUOUS
 10
110.3358223567
 20
82.9059436802
  0
VERTEX
  8
0
 62
7
  6
CONTINUOUS
 10
110.2444460951
 20
82.9676227286
  0
VERTEX
  8
0
 62
7
  6
CONTINUOUS
 10
110.1531802831
 20
83.015391234
  0
VERTEX
  8
0
 62
7
  6
CONTINUOUS
 10
110.0591253306
 20
83.0549192208
  0
VERTEX
  8
0
 62
7
  6
CONTINUOUS
 10
109.9583971107
 20
83.089832074
  0
VERTEX
  8
0
 62
7
  6
CONTINUOUS
 10
109.8469322103
 20
83.1223401887
  0
VERTEX
  8
0
 62
7
  6
CONTINUOUS
 10
109.7210676646
 20
83.1536888012
  0
VERTEX
  8
0
 62
7
  6
CONTINUOUS
 10
109.5774061418
 20
83.1845853025
  0
VERTEX
  8
0
 62
7
  6
CONTINUOUS
 10
109.4125835585
 20
83.2154429539
  0
VERTEX
  8
0
 62
7
  6
CONTINUOUS
 10
109.2453184412
 20
83.2430614134
  0
SEQEND
  0
POLYLINE
  8
0
 62
7
  6
CONTINUOUS
 66
1
 70
0
  0
VERTEX
  8
0
 62
7
  6
CONTINUOUS
 10
110.610895265
 20
65.5566120628
  0
VERTEX
  8
0
 62
7
  6
CONTINUOUS
 10
110.6076286534
 20
65.6238973809
  0
VERTEX
  8
0
 62
7
  6
CONTINUOUS
 10
110.5753797294
 20
65.7745928042
  0
VERTEX
  8
0
 62
7
  6
CONTINUOUS
 10
110.5092286113
 20
65.9151529529
  0
VERTEX
  8
0
 62
7
  6
CONTINUOUS
 10
110.4187953294
 20
66.0315072709
  0
VERTEX
  8
0
 62
7
  6
CONTINUOUS
 10
110.3178687615
 20
66.1194552844
  0
VERTEX
  8
0
 62
7
  6
CONTINUOUS
 10
110.2153125305
 20
66.184114826
  0
VERTEX
  8
0
 62
7
  6
CONTINUOUS
 10
110.1108538171
 20
66.2341825584
  0
VERTEX
  8
0
 62
7
  6
CONTINUOUS
 10
110.0000052644
 20
66.2761676766
  0
VERTEX
  8
0
 62
7
  6
CONTINUOUS
 10
109.8782318329
 20
66.31373613
  0
VERTEX
  8
0
 62
7
  6
CONTINUOUS
 10
109.7420073711
 20
66.3487902512
  0
VERTEX
  8
0
 62
7
  6
CONTINUOUS
 10
109.5884148164
 20
66.3823660553
  0
VERTEX
  8
0
 62
7
  6
CONTINUOUS
 10
109.4157383512
 20
66.4148896319
  0
VERTEX
  8
0
 62
7
  6
CONTINUOUS
 10
109.2453117058
 20
66.4430624632
  0
SEQEND
  0
POLYLINE
  8
0
 62
7
  6
CONTINUOUS
 66
1
 70
0
  0
VERTEX
  8
0
 62
7
  6
CONTINUOUS
 10
104.9831766846
 20
76.2856004043
  0
VERTEX
  8
0
 62
7
  6
CONTINUOUS
 10
104.9837886373
 20
76.2385717291
  0
VERTEX
  8
0
 62
7
  6
CONTINUOUS
 10
104.9826496164
 20
76.195049389
  0
VERTEX
  8
0
 62
7
  6
CONTINUOUS
 10
104.9795646436
 20
76.1563979409
  0
VERTEX
  8
0
 62
7
  6
CONTINUOUS
 10
104.9745475091
 20
76.1247495177
  0
VERTEX
  8
0
 62
7
  6
CONTINUOUS
 10
104.9677774932
 20
76.101799004
  0
VERTEX
  8
0
 62
7
  6
CONTINUOUS
 10
104.9595628194
 20
76.0886733227
  0
VERTEX
  8
0
 62
7
  6
CONTINUOUS
 10
104.9535133785
 20
76.0856597092
  0
SEQEND
  0
POLYLINE
  8
0
 62
7
  6
CONTINUOUS
 66
1
 70
0
  0
VERTEX
  8
0
 62
7
  6
CONTINUOUS
 10
104.9831766846
 20
93.0856004043
  0
VERTEX
  8
0
 62
7
  6
CONTINUOUS
 10
104.9837886373
 20
93.0385717291
  0
VERTEX
  8
0
 62
7
  6
CONTINUOUS
 10
104.9826496164
 20
92.995049389
  0
VERTEX
  8
0
 62
7
  6
CONTINUOUS
 10
104.9795646436
 20
92.9563979409
  0
VERTEX
  8
0
 62
7
  6
CONTINUOUS
 10
104.9745475091
 20
92.9247495177
  0
VERTEX
  8
0
 62
7
  6
CONTINUOUS
 10
104.9677774932
 20
92.901799004
  0
VERTEX
  8
0
 62
7
  6
CONTINUOUS
 10
104.9595628194
 20
92.8886733227
  0
VERTEX
  8
0
 62
7
  6
CONTINUOUS
 10
104.9535133785
 20
92.8856597092
  0
SEQEND
  0
POLYLINE
  8
0
 62
7
  6
CONTINUOUS
 66
1
 70
0
  0
VERTEX
  8
0
 62
7
  6
CONTINUOUS
 10
104.9831766846
 20
109.8856004043
  0
VERTEX
  8
0
 62
7
  6
CONTINUOUS
 10
104.9837886373
 20
109.8385717291
  0
VERTEX
  8
0
 62
7
  6
CONTINUOUS
 10
104.9826496164
 20
109.795049389
  0
VERTEX
  8
0
 62
7
  6
CONTINUOUS
 10
104.9795646436
 20
109.7563979409
  0
VERTEX
  8
0
 62
7
  6
CONTINUOUS
 10
104.9745475091
 20
109.7247495177
  0
VERTEX
  8
0
 62
7
  6
CONTINUOUS
 10
104.9677774932
 20
109.701799004
  0
VERTEX
  8
0
 62
7
  6
CONTINUOUS
 10
104.9595628194
 20
109.6886733227
  0
VERTEX
  8
0
 62
7
  6
CONTINUOUS
 10
104.9535133785
 20
109.6856597092
  0
SEQEND
  0
POLYLINE
  8
0
 62
7
  6
CONTINUOUS
 66
1
 70
0
  0
VERTEX
  8
0
 62
7
  6
CONTINUOUS
 10
104.9831766846
 20
126.6856004043
  0
VERTEX
  8
0
 62
7
  6
CONTINUOUS
 10
104.9837886373
 20
126.6385717291
  0
VERTEX
  8
0
 62
7
  6
CONTINUOUS
 10
104.9826496164
 20
126.595049389
  0
VERTEX
  8
0
 62
7
  6
CONTINUOUS
 10
104.9795646436
 20
126.5563979409
  0
VERTEX
  8
0
 62
7
  6
CONTINUOUS
 10
104.9745475091
 20
126.5247495177
  0
VERTEX
  8
0
 62
7
  6
CONTINUOUS
 10
104.9677774932
 20
126.501799004
  0
VERTEX
  8
0
 62
7
  6
CONTINUOUS
 10
104.9595628194
 20
126.4886733227
  0
VERTEX
  8
0
 62
7
  6
CONTINUOUS
 10
104.9535133785
 20
126.4856597092
  0
SEQEND
  0
POLYLINE
  8
0
 62
7
  6
CONTINUOUS
 66
1
 70
0
  0
VERTEX
  8
0
 62
7
  6
CONTINUOUS
 10
104.9831766846
 20
143.4856004043
  0
VERTEX
  8
0
 62
7
  6
CONTINUOUS
 10
104.9837886373
 20
143.4385717291
  0
VERTEX
  8
0
 62
7
  6
CONTINUOUS
 10
104.9826496164
 20
143.395049389
  0
VERTEX
  8
0
 62
7
  6
CONTINUOUS
 10
104.9795646436
 20
143.3563979409
  0
VERTEX
  8
0
 62
7
  6
CONTINUOUS
 10
104.9745475091
 20
143.3247495177
  0
VERTEX
  8
0
 62
7
  6
CONTINUOUS
 10
104.9677774932
 20
143.301799004
  0
VERTEX
  8
0
 62
7
  6
CONTINUOUS
 10
104.9595628194
 20
143.2886733227
  0
VERTEX
  8
0
 62
7
  6
CONTINUOUS
 10
104.9535133785
 20
143.2856597092
  0
SEQEND
  0
POLYLINE
  8
0
 62
7
  6
CONTINUOUS
 66
1
 70
0
  0
VERTEX
  8
0
 62
7
  6
CONTINUOUS
 10
104.9831766846
 20
160.2856004043
  0
VERTEX
  8
0
 62
7
  6
CONTINUOUS
 10
104.9837886373
 20
160.2385717291
  0
VERTEX
  8
0
 62
7
  6
CONTINUOUS
 10
104.9826496164
 20
160.195049389
  0
VERTEX
  8
0
 62
7
  6
CONTINUOUS
 10
104.9795646436
 20
160.1563979409
  0
VERTEX
  8
0
 62
7
  6
CONTINUOUS
 10
104.9745475091
 20
160.1247495177
  0
VERTEX
  8
0
 62
7
  6
CONTINUOUS
 10
104.9677774932
 20
160.101799004
  0
VERTEX
  8
0
 62
7
  6
CONTINUOUS
 10
104.9595628194
 20
160.0886733227
  0
VERTEX
  8
0
 62
7
  6
CONTINUOUS
 10
104.9535133785
 20
160.0856597092
  0
SEQEND
  0
POLYLINE
  8
0
 62
7
  6
CONTINUOUS
 66
1
 70
0
  0
VERTEX
  8
0
 62
7
  6
CONTINUOUS
 10
104.9831766846
 20
177.0856004043
  0
VERTEX
  8
0
 62
7
  6
CONTINUOUS
 10
104.9837886373
 20
177.0385717291
  0
VERTEX
  8
0
 62
7
  6
CONTINUOUS
 10
104.9826496164
 20
176.995049389
  0
VERTEX
  8
0
 62
7
  6
CONTINUOUS
 10
104.9795646436
 20
176.9563979409
  0
VERTEX
  8
0
 62
7
  6
CONTINUOUS
 10
104.9745475091
 20
176.9247495177
  0
VERTEX
  8
0
 62
7
  6
CONTINUOUS
 10
104.9677774932
 20
176.901799004
  0
VERTEX
  8
0
 62
7
  6
CONTINUOUS
 10
104.9595628194
 20
176.8886733227
  0
VERTEX
  8
0
 62
7
  6
CONTINUOUS
 10
104.9535133785
 20
176.8856597092
  0
SEQEND
  0
POLYLINE
  8
0
 62
7
  6
CONTINUOUS
 66
1
 70
0
  0
VERTEX
  8
0
 62
7
  6
CONTINUOUS
 10
104.9831766846
 20
193.8856004043
  0
VERTEX
  8
0
 62
7
  6
CONTINUOUS
 10
104.9837886373
 20
193.8385717291
  0
VERTEX
  8
0
 62
7
  6
CONTINUOUS
 10
104.9826496164
 20
193.795049389
  0
VERTEX
  8
0
 62
7
  6
CONTINUOUS
 10
104.9795646436
 20
193.7563979409
  0
VERTEX
  8
0
 62
7
  6
CONTINUOUS
 10
104.9745475091
 20
193.7247495177
  0
VERTEX
  8
0
 62
7
  6
CONTINUOUS
 10
104.9677774932
 20
193.701799004
  0
VERTEX
  8
0
 62
7
  6
CONTINUOUS
 10
104.9595628194
 20
193.6886733227
  0
VERTEX
  8
0
 62
7
  6
CONTINUOUS
 10
104.9535133785
 20
193.6856597092
  0
SEQEND
  0
LINE
  8
0
 62
7
  6
CONTINUOUS
 10
104.9831766846
 20
67.3152640906
 11
104.9831766846
 21
59.5004322475
  0
LINE
  8
0
 62
7
  6
CONTINUOUS
 10
104.9831766846
 20
76.2856004043
 11
104.9831766846
 21
84.1152640906
  0
LINE
  8
0
 62
7
  6
CONTINUOUS
 10
104.9831766846
 20
93.0856004043
 11
104.9831766846
 21
100.9152640906
  0
LINE
  8
0
 62
7
  6
CONTINUOUS
 10
104.9831766846
 20
109.8856004043
 11
104.9831766846
 21
117.7152640906
  0
LINE
  8
0
 62
7
  6
CONTINUOUS
 10
104.9831766846
 20
126.6856004043
 11
104.9831766846
 21
134.5152640906
  0
LINE
  8
0
 62
7
  6
CONTINUOUS
 10
104.9831766846
 20
143.4856004043
 11
104.9831766846
 21
151.3152640906
  0
LINE
  8
0
 62
7
  6
CONTINUOUS
 10
104.9831766846
 20
160.2856004043
 11
104.9831766846
 21
168.1152640906
  0
LINE
  8
0
 62
7
  6
CONTINUOUS
 10
104.9831766846
 20
177.0856004043
 11
104.9831766846
 21
184.9152640906
  0
LINE
  8
0
 62
7
  6
CONTINUOUS
 10
104.9831766846
 20
193.8856004043
 11
104.9831766846
 21
201.7152640906
  0
LINE
  8
0
 62
7
  6
CONTINUOUS
 10
68.8220064725
 20
95.3374734089
 11
69.4442286947
 21
95.7532131185
  0
LINE
  8
0
 62
7
  6
CONTINUOUS
 10
44.6730778513
 20
91.8346846965
 11
44.2721286296
 21
91.6549014213
  0
POLYLINE
  8
0
 62
7
  6
CONTINUOUS
 66
1
 70
0
  0
VERTEX
  8
0
 62
7
  6
CONTINUOUS
 10
44.1764715851
 20
158.8430613048
  0
VERTEX
  8
0
 62
7
  6
CONTINUOUS
 10
44.0076765317
 20
158.8151746591
  0
VERTEX
  8
0
 62
7
  6
CONTINUOUS
 10
43.8431163153
 20
158.7843307577
  0
VERTEX
  8
0
 62
7
  6
CONTINUOUS
 10
43.6996780388
 20
158.7534470069
  0
VERTEX
  8
0
 62
7
  6
CONTINUOUS
 10
43.5739997383
 20
158.7221089603
  0
VERTEX
  8
0
 62
7
  6
CONTINUOUS
 10
43.462686068
 20
158.689607575
  0
VERTEX
  8
0
 62
7
  6
CONTINUOUS
 10
43.3620764465
 20
158.6546952721
  0
VERTEX
  8
0
 62
7
  6
CONTINUOUS
 10
43.2681115754
 20
158.6151586449
  0
VERTEX
  8
0
 62
7
  6
CONTINUOUS
 10
43.1769157944
 20
158.5673700536
  0
VERTEX
  8
0
 62
7
  6
CONTINUOUS
 10
43.085603618
 20
158.5056610104
  0
VERTEX
  8
0
 62
7
  6
CONTINUOUS
 10
42.9945558641
 20
158.422563943
  0
VERTEX
  8
0
 62
7
  6
CONTINUOUS
 10
42.911086305
 20
158.312758678
  0
VERTEX
  8
0
 62
7
  6
CONTINUOUS
 10
42.8477759978
 20
158.1786048958
  0
VERTEX
  8
0
 62
7
  6
CONTINUOUS
 10
42.8149325224
 20
158.0313586406
  0
VERTEX
  8
0
 62
7
  6
CONTINUOUS
 10
42.8108954683
 20
157.9566029349
  0
SEQEND
  0
LINE
  8
0
 62
7
  6
CONTINUOUS
 10
44.2811907218
 20
158.8589648102
 11
44.1764633798
 21
158.8430600256
  0
POLYLINE
  8
0
 62
7
  6
CONTINUOUS
 66
1
 70
0
  0
VERTEX
  8
0
 62
7
  6
CONTINUOUS
 10
48.4682714504
 20
159.915204812
  0
VERTEX
  8
0
 62
7
  6
CONTINUOUS
 10
47.916478329
 20
159.8433269983
  0
VERTEX
  8
0
 62
7
  6
CONTINUOUS
 10
47.3166534021
 20
159.7485981469
  0
VERTEX
  8
0
 62
7
  6
CONTINUOUS
 10
46.7340425966
 20
159.6379106159
  0
VERTEX
  8
0
 62
7
  6
CONTINUOUS
 10
46.1736515748
 20
159.5112223824
  0
VERTEX
  8
0
 62
7
  6
CONTINUOUS
 10
45.6403153726
 20
159.3685176366
  0
VERTEX
  8
0
 62
7
  6
CONTINUOUS
 10
45.1386908922
 20
159.2097492347
  0
VERTEX
  8
0
 62
7
  6
CONTINUOUS
 10
44.6730778513
 20
159.0346846965
  0
SEQEND
  0
LINE
  8
0
 62
7
  6
CONTINUOUS
 10
48.4682773161
 20
159.9152047824
 11
48.4692972559
 21
159.9152640876
  0
POLYLINE
  8
0
 62
7
  6
CONTINUOUS
 66
1
 70
0
  0
VERTEX
  8
0
 62
7
  6
CONTINUOUS
 10
98.8315225465
 20
160.0925295265
  0
VERTEX
  8
0
 62
7
  6
CONTINUOUS
 10
99.1253216437
 20
160.0885519713
  0
VERTEX
  8
0
 62
7
  6
CONTINUOUS
 10
99.4083433042
 20
160.0861359968
  0
VERTEX
  8
0
 62
7
  6
CONTINUOUS
 10
104.9524314554
 20
160.0856004043
  0
SEQEND
  0
LINE
  8
0
 62
7
  6
CONTINUOUS
 10
44.1764633798
 20
169.5578044693
 11
44.2811907218
 21
169.5418996847
  0
POLYLINE
  8
0
 62
7
  6
CONTINUOUS
 66
1
 70
0
  0
VERTEX
  8
0
 62
7
  6
CONTINUOUS
 10
109.1496599671
 20
150.4549024645
  0
VERTEX
  8
0
 62
7
  6
CONTINUOUS
 10
108.7464132276
 20
150.6356291916
  0
VERTEX
  8
0
 62
7
  6
CONTINUOUS
 10
108.2805624964
 20
150.8106230094
  0
VERTEX
  8
0
 62
7
  6
CONTINUOUS
 10
107.7787119763
 20
150.9693209624
  0
VERTEX
  8
0
 62
7
  6
CONTINUOUS
 10
107.2451641429
 20
151.1119537381
  0
VERTEX
  8
0
 62
7
  6
CONTINUOUS
 10
106.684578312
 20
151.2385676379
  0
VERTEX
  8
0
 62
7
  6
CONTINUOUS
 10
106.101791177
 20
151.3491782488
  0
VERTEX
  8
0
 62
7
  6
CONTINUOUS
 10
105.5018095887
 20
151.4438277086
  0
VERTEX
  8
0
 62
7
  6
CONTINUOUS
 10
104.9535192442
 20
151.5152048153
  0
SEQEND
  0
LINE
  8
0
 62
7
  6
CONTINUOUS
 10
83.977562028
 20
162.9532131185
 11
84.5997842503
 21
162.5374734089
  0
LINE
  8
0
 62
7
  6
CONTINUOUS
 10
65.977562028
 20
179.7532131185
 11
66.5997842503
 21
179.3374734089
  0
LINE
  8
0
 62
7
  6
CONTINUOUS
 10
87.4442286947
 20
165.4476513764
 11
86.8220064725
 21
165.863391086
  0
POLYLINE
  8
0
 62
7
  6
CONTINUOUS
 66
1
 70
0
  0
VERTEX
  8
0
 62
7
  6
CONTINUOUS
 10
104.9535091228
 20
151.5152047645
  0
VERTEX
  8
0
 62
7
  6
CONTINUOUS
 10
104.9621060208
 20
151.5093930641
  0
VERTEX
  8
0
 62
7
  6
CONTINUOUS
 10
104.9708993392
 20
151.4903063112
  0
VERTEX
  8
0
 62
7
  6
CONTINUOUS
 10
104.977627782
 20
151.4591050641
  0
VERTEX
  8
0
 62
7
  6
CONTINUOUS
 10
104.9819474853
 20
151.4177865182
  0
VERTEX
  8
0
 62
7
  6
CONTINUOUS
 10
104.983736372
 20
151.369090172
  0
VERTEX
  8
0
 62
7
  6
CONTINUOUS
 10
104.9831766846
 20
151.3152640906
  0
SEQEND
  0
POLYLINE
  8
0
 62
7
  6
CONTINUOUS
 66
1
 70
0
  0
VERTEX
  8
0
 62
7
  6
CONTINUOUS
 10
110.6108949074
 20
115.9574372186
  0
VERTEX
  8
0
 62
7
  6
CONTINUOUS
 10
110.6068453172
 20
116.0314769615
  0
VERTEX
  8
0
 62
7
  6
CONTINUOUS
 10
110.5739358451
 20
116.1788342459
  0
VERTEX
  8
0
 62
7
  6
CONTINUOUS
 10
110.5105221872
 20
116.3130555149
  0
VERTEX
  8
0
 62
7
  6
CONTINUOUS
 10
110.4269490068
 20
116.4228718887
  0
VERTEX
  8
0
 62
7
  6
CONTINUOUS
 10
110.3358223567
 20
116.5059436802
  0
VERTEX
  8
0
 62
7
  6
CONTINUOUS
 10
110.2444460951
 20
116.5676227286
  0
VERTEX
  8
0
 62
7
  6
CONTINUOUS
 10
110.1531802831
 20
116.615391234
  0
VERTEX
  8
0
 62
7
  6
CONTINUOUS
 10
110.0591253306
 20
116.6549192208
  0
VERTEX
  8
0
 62
7
  6
CONTINUOUS
 10
109.9583971107
 20
116.689832074
  0
VERTEX
  8
0
 62
7
  6
CONTINUOUS
 10
109.8469322103
 20
116.7223401887
  0
VERTEX
  8
0
 62
7
  6
CONTINUOUS
 10
109.7210676646
 20
116.7536888012
  0
VERTEX
  8
0
 62
7
  6
CONTINUOUS
 10
109.5774061418
 20
116.7845853025
  0
VERTEX
  8
0
 62
7
  6
CONTINUOUS
 10
109.4125835585
 20
116.8154429539
  0
VERTEX
  8
0
 62
7
  6
CONTINUOUS
 10
109.2453184412
 20
116.8430614134
  0
SEQEND
  0
POLYLINE
  8
0
 62
7
  6
CONTINUOUS
 66
1
 70
0
  0
VERTEX
  8
0
 62
7
  6
CONTINUOUS
 10
110.6108949074
 20
149.5574372186
  0
VERTEX
  8
0
 62
7
  6
CONTINUOUS
 10
110.6068453172
 20
149.6314769615
  0
VERTEX
  8
0
 62
7
  6
CONTINUOUS
 10
110.5739358451
 20
149.7788342459
  0
VERTEX
  8
0
 62
7
  6
CONTINUOUS
 10
110.5105221872
 20
149.9130555149
  0
VERTEX
  8
0
 62
7
  6
CONTINUOUS
 10
110.4269490068
 20
150.0228718887
  0
VERTEX
  8
0
 62
7
  6
CONTINUOUS
 10
110.3358223567
 20
150.1059436802
  0
VERTEX
  8
0
 62
7
  6
CONTINUOUS
 10
110.2444460951
 20
150.1676227286
  0
VERTEX
  8
0
 62
7
  6
CONTINUOUS
 10
110.1531802831
 20
150.215391234
  0
VERTEX
  8
0
 62
7
  6
CONTINUOUS
 10
110.0591253306
 20
150.2549192208
  0
VERTEX
  8
0
 62
7
  6
CONTINUOUS
 10
109.9583971107
 20
150.289832074
  0
VERTEX
  8
0
 62
7
  6
CONTINUOUS
 10
109.8469322103
 20
150.3223401887
  0
VERTEX
  8
0
 62
7
  6
CONTINUOUS
 10
109.7210676646
 20
150.3536888012
  0
VERTEX
  8
0
 62
7
  6
CONTINUOUS
 10
109.5774061418
 20
150.3845853025
  0
VERTEX
  8
0
 62
7
  6
CONTINUOUS
 10
109.4125835585
 20
150.4154429539
  0
VERTEX
  8
0
 62
7
  6
CONTINUOUS
 10
109.2453184412
 20
150.4430614134
  0
SEQEND
  0
POLYLINE
  8
0
 62
7
  6
CONTINUOUS
 66
1
 70
0
  0
VERTEX
  8
0
 62
7
  6
CONTINUOUS
 10
110.610895254
 20
99.1566025627
  0
VERTEX
  8
0
 62
7
  6
CONTINUOUS
 10
110.6068453172
 20
99.2314769615
  0
VERTEX
  8
0
 62
7
  6
CONTINUOUS
 10
110.5739358451
 20
99.3788342459
  0
VERTEX
  8
0
 62
7
  6
CONTINUOUS
 10
110.5105221872
 20
99.5130555149
  0
VERTEX
  8
0
 62
7
  6
CONTINUOUS
 10
110.4269490068
 20
99.6228718887
  0
VERTEX
  8
0
 62
7
  6
CONTINUOUS
 10
110.3358223567
 20
99.7059436802
  0
VERTEX
  8
0
 62
7
  6
CONTINUOUS
 10
110.2444460951
 20
99.7676227286
  0
VERTEX
  8
0
 62
7
  6
CONTINUOUS
 10
110.1531802831
 20
99.815391234
  0
VERTEX
  8
0
 62
7
  6
CONTINUOUS
 10
110.0591253306
 20
99.8549192208
  0
VERTEX
  8
0
 62
7
  6
CONTINUOUS
 10
109.9583971107
 20
99.889832074
  0
VERTEX
  8
0
 62
7
  6
CONTINUOUS
 10
109.8469322103
 20
99.9223401887
  0
VERTEX
  8
0
 62
7
  6
CONTINUOUS
 10
109.7210676646
 20
99.9536888012
  0
VERTEX
  8
0
 62
7
  6
CONTINUOUS
 10
109.5774061418
 20
99.9845853025
  0
VERTEX
  8
0
 62
7
  6
CONTINUOUS
 10
109.4125835585
 20
100.0154429539
  0
VERTEX
  8
0
 62
7
  6
CONTINUOUS
 10
109.2453184412
 20
100.0430614134
  0
SEQEND
  0
POLYLINE
  8
0
 62
7
  6
CONTINUOUS
 66
1
 70
0
  0
VERTEX
  8
0
 62
7
  6
CONTINUOUS
 10
110.610895254
 20
132.7566025627
  0
VERTEX
  8
0
 62
7
  6
CONTINUOUS
 10
110.6068453172
 20
132.8314769615
  0
VERTEX
  8
0
 62
7
  6
CONTINUOUS
 10
110.5739358451
 20
132.9788342459
  0
VERTEX
  8
0
 62
7
  6
CONTINUOUS
 10
110.5105221872
 20
133.1130555149
  0
VERTEX
  8
0
 62
7
  6
CONTINUOUS
 10
110.4269490068
 20
133.2228718887
  0
VERTEX
  8
0
 62
7
  6
CONTINUOUS
 10
110.3358223567
 20
133.3059436802
  0
VERTEX
  8
0
 62
7
  6
CONTINUOUS
 10
110.2444460951
 20
133.3676227286
  0
VERTEX
  8
0
 62
7
  6
CONTINUOUS
 10
110.1531802831
 20
133.415391234
  0
VERTEX
  8
0
 62
7
  6
CONTINUOUS
 10
110.0591253306
 20
133.4549192208
  0
VERTEX
  8
0
 62
7
  6
CONTINUOUS
 10
109.9583971107
 20
133.489832074
  0
VERTEX
  8
0
 62
7
  6
CONTINUOUS
 10
109.8469322103
 20
133.5223401887
  0
VERTEX
  8
0
 62
7
  6
CONTINUOUS
 10
109.7210676646
 20
133.5536888012
  0
VERTEX
  8
0
 62
7
  6
CONTINUOUS
 10
109.5774061418
 20
133.5845853025
  0
VERTEX
  8
0
 62
7
  6
CONTINUOUS
 10
109.4125835585
 20
133.6154429539
  0
VERTEX
  8
0
 62
7
  6
CONTINUOUS
 10
109.2453184412
 20
133.6430614134
  0
SEQEND
  0
POLYLINE
  8
0
 62
7
  6
CONTINUOUS
 66
1
 70
0
  0
VERTEX
  8
0
 62
7
  6
CONTINUOUS
 10
110.610895254
 20
166.3566025627
  0
VERTEX
  8
0
 62
7
  6
CONTINUOUS
 10
110.6068453172
 20
166.4314769615
  0
VERTEX
  8
0
 62
7
  6
CONTINUOUS
 10
110.5739358451
 20
166.5788342459
  0
VERTEX
  8
0
 62
7
  6
CONTINUOUS
 10
110.5105221872
 20
166.7130555149
  0
VERTEX
  8
0
 62
7
  6
CONTINUOUS
 10
110.4269490068
 20
166.8228718887
  0
VERTEX
  8
0
 62
7
  6
CONTINUOUS
 10
110.3358223567
 20
166.9059436802
  0
VERTEX
  8
0
 62
7
  6
CONTINUOUS
 10
110.2444460951
 20
166.9676227286
  0
VERTEX
  8
0
 62
7
  6
CONTINUOUS
 10
110.1531802831
 20
167.015391234
  0
VERTEX
  8
0
 62
7
  6
CONTINUOUS
 10
110.0591253306
 20
167.0549192208
  0
VERTEX
  8
0
 62
7
  6
CONTINUOUS
 10
109.9583971107
 20
167.089832074
  0
VERTEX
  8
0
 62
7
  6
CONTINUOUS
 10
109.8469322103
 20
167.1223401887
  0
VERTEX
  8
0
 62
7
  6
CONTINUOUS
 10
109.7210676646
 20
167.1536888012
  0
VERTEX
  8
0
 62
7
  6
CONTINUOUS
 10
109.5774061418
 20
167.1845853025
  0
VERTEX
  8
0
 62
7
  6
CONTINUOUS
 10
109.4125835585
 20
167.2154429539
  0
VERTEX
  8
0
 62
7
  6
CONTINUOUS
 10
109.2453184412
 20
167.2430614134
  0
SEQEND
  0
POLYLINE
  8
0
 62
7
  6
CONTINUOUS
 66
1
 70
0
  0
VERTEX
  8
0
 62
7
  6
CONTINUOUS
 10
110.610895254
 20
183.1566025627
  0
VERTEX
  8
0
 62
7
  6
CONTINUOUS
 10
110.6068453172
 20
183.2314769615
  0
VERTEX
  8
0
 62
7
  6
CONTINUOUS
 10
110.5739358451
 20
183.3788342459
  0
VERTEX
  8
0
 62
7
  6
CONTINUOUS
 10
110.5105221872
 20
183.5130555149
  0
VERTEX
  8
0
 62
7
  6
CONTINUOUS
 10
110.4269490068
 20
183.6228718887
  0
VERTEX
  8
0
 62
7
  6
CONTINUOUS
 10
110.3358223567
 20
183.7059436802
  0
VERTEX
  8
0
 62
7
  6
CONTINUOUS
 10
110.2444460951
 20
183.7676227286
  0
VERTEX
  8
0
 62
7
  6
CONTINUOUS
 10
110.1531802831
 20
183.815391234
  0
VERTEX
  8
0
 62
7
  6
CONTINUOUS
 10
110.0591253306
 20
183.8549192208
  0
VERTEX
  8
0
 62
7
  6
CONTINUOUS
 10
109.9583971107
 20
183.889832074
  0
VERTEX
  8
0
 62
7
  6
CONTINUOUS
 10
109.8469322103
 20
183.9223401887
  0
VERTEX
  8
0
 62
7
  6
CONTINUOUS
 10
109.7210676646
 20
183.9536888012
  0
VERTEX
  8
0
 62
7
  6
CONTINUOUS
 10
109.5774061418
 20
183.9845853025
  0
VERTEX
  8
0
 62
7
  6
CONTINUOUS
 10
109.4125835585
 20
184.0154429539
  0
VERTEX
  8
0
 62
7
  6
CONTINUOUS
 10
109.2453184412
 20
184.0430614134
  0
SEQEND
  0
POLYLINE
  8
0
 62
7
  6
CONTINUOUS
 66
1
 70
0
  0
VERTEX
  8
0
 62
7
  6
CONTINUOUS
 10
110.610895254
 20
199.9566025634
  0
VERTEX
  8
0
 62
7
  6
CONTINUOUS
 10
110.6068453387
 20
200.0314767642
  0
VERTEX
  8
0
 62
7
  6
CONTINUOUS
 10
110.5739359338
 20
200.1788339882
  0
VERTEX
  8
0
 62
7
  6
CONTINUOUS
 10
110.5105223122
 20
200.3130553114
  0
VERTEX
  8
0
 62
7
  6
CONTINUOUS
 10
110.4269490844
 20
200.4228718051
  0
VERTEX
  8
0
 62
7
  6
CONTINUOUS
 10
110.3358223588
 20
200.5059436786
  0
VERTEX
  8
0
 62
7
  6
CONTINUOUS
 10
110.2444459946
 20
200.5676227877
  0
VERTEX
  8
0
 62
7
  6
CONTINUOUS
 10
110.1531800857
 20
200.6153913259
  0
VERTEX
  8
0
 62
7
  6
CONTINUOUS
 10
110.0591250679
 20
200.6549193206
  0
VERTEX
  8
0
 62
7
  6
CONTINUOUS
 10
109.9583967934
 20
200.6898321746
  0
VERTEX
  8
0
 62
7
  6
CONTINUOUS
 10
109.8469318547
 20
200.7223402844
  0
VERTEX
  8
0
 62
7
  6
CONTINUOUS
 10
109.7210673024
 20
200.753688885
  0
VERTEX
  8
0
 62
7
  6
CONTINUOUS
 10
109.5774058241
 20
200.7845853662
  0
VERTEX
  8
0
 62
7
  6
CONTINUOUS
 10
109.4125833579
 20
200.8154429891
  0
VERTEX
  8
0
 62
7
  6
CONTINUOUS
 10
109.2453184411
 20
200.8430614134
  0
SEQEND
  0
LINE
  8
0
 62
7
  6
CONTINUOUS
 10
110.6108953614
 20
59.5004309558
 11
110.6108953614
 21
65.5567283382
  0
LINE
  8
0
 62
7
  6
CONTINUOUS
 10
110.6108953614
 20
78.044133117
 11
110.6108953614
 21
82.3567213021
  0
LINE
  8
0
 62
7
  6
CONTINUOUS
 10
110.6108953614
 20
94.844133117
 11
110.6108953614
 21
99.1567213021
  0
LINE
  8
0
 62
7
  6
CONTINUOUS
 10
110.6108953614
 20
111.6441340601
 11
110.6108953614
 21
115.9567304349
  0
LINE
  8
0
 62
7
  6
CONTINUOUS
 10
110.6108953614
 20
128.444133117
 11
110.6108953614
 21
132.7567213021
  0
LINE
  8
0
 62
7
  6
CONTINUOUS
 10
110.6108953614
 20
145.2441340601
 11
110.6108953614
 21
149.5567304349
  0
LINE
  8
0
 62
7
  6
CONTINUOUS
 10
110.6108953614
 20
162.044133117
 11
110.6108953614
 21
166.3567213021
  0
LINE
  8
0
 62
7
  6
CONTINUOUS
 10
110.6108953614
 20
178.844133117
 11
110.6108953614
 21
183.1567213021
  0
LINE
  8
0
 62
7
  6
CONTINUOUS
 10
110.6108953614
 20
195.644133117
 11
110.6108953614
 21
199.956725243
  0
LINE
  8
0
 62
7
  6
CONTINUOUS
 10
110.6108953614
 20
199.9567317533
 11
110.6108952843
 21
199.9566031271
  0
LINE
  8
0
 62
7
  6
CONTINUOUS
 10
110.6108953614
 20
183.1567313779
 11
110.6108952843
 21
183.1566025095
  0
LINE
  8
0
 62
7
  6
CONTINUOUS
 10
110.6108953614
 20
166.3567313779
 11
110.6108952843
 21
166.3566025095
  0
LINE
  8
0
 62
7
  6
CONTINUOUS
 10
110.6108953614
 20
132.7567313779
 11
110.6108952843
 21
132.7566025095
  0
LINE
  8
0
 62
7
  6
CONTINUOUS
 10
110.6108953614
 20
99.1567313779
 11
110.6108952843
 21
99.1566025095
  0
LINE
  8
0
 62
7
  6
CONTINUOUS
 10
110.6108953614
 20
82.3567313779
 11
110.6108952843
 21
82.3566025095
  0
LINE
  8
0
 62
7
  6
CONTINUOUS
 10
84.5997842503
 20
98.663391086
 11
83.977562028
 21
98.2476513764
  0
LINE
  8
0
 62
7
  6
CONTINUOUS
 10
108.7464133345
 20
110.5652353472
 11
109.1496599671
 21
110.7459620304
  0
POLYLINE
  8
0
 62
7
  6
CONTINUOUS
 66
1
 70
0
  0
VERTEX
  8
0
 62
7
  6
CONTINUOUS
 10
109.2453183856
 20
177.9578030729
  0
VERTEX
  8
0
 62
7
  6
CONTINUOUS
 10
109.4128309548
 20
177.9854648846
  0
VERTEX
  8
0
 62
7
  6
CONTINUOUS
 10
109.5778571729
 20
178.0163696824
  0
VERTEX
  8
0
 62
7
  6
CONTINUOUS
 10
109.7216848742
 20
178.047318469
  0
VERTEX
  8
0
 62
7
  6
CONTINUOUS
 10
109.8476874973
 20
178.0787276563
  0
VERTEX
  8
0
 62
7
  6
CONTINUOUS
 10
109.9592743364
 20
178.1113107973
  0
VERTEX
  8
0
 62
7
  6
CONTINUOUS
 10
110.0601256552
 20
178.1463258061
  0
VERTEX
  8
0
 62
7
  6
CONTINUOUS
 10
110.1543291217
 20
178.1860093044
  0
VERTEX
  8
0
 62
7
  6
CONTINUOUS
 10
110.2457930475
 20
178.2340364222
  0
VERTEX
  8
0
 62
7
  6
CONTINUOUS
 10
110.3374002702
 20
178.296146073
  0
VERTEX
  8
0
 62
7
  6
CONTINUOUS
 10
110.4286911378
 20
178.3798749978
  0
VERTEX
  8
0
 62
7
  6
CONTINUOUS
 10
110.5121790454
 20
178.490520409
  0
VERTEX
  8
0
 62
7
  6
CONTINUOUS
 10
110.5751227688
 20
178.6255100744
  0
VERTEX
  8
0
 62
7
  6
CONTINUOUS
 10
110.6072649247
 20
178.7733448637
  0
VERTEX
  8
0
 62
7
  6
CONTINUOUS
 10
110.6108952574
 20
178.8442590062
  0
SEQEND
  0
LINE
  8
0
 62
7
  6
CONTINUOUS
 10
109.1406009284
 20
177.9419019593
 11
109.2453264731
 21
177.9578043336
  0
POLYLINE
  8
0
 62
7
  6
CONTINUOUS
 66
1
 70
0
  0
VERTEX
  8
0
 62
7
  6
CONTINUOUS
 10
54.2964691297
 20
168.4885519711
  0
VERTEX
  8
0
 62
7
  6
CONTINUOUS
 10
54.5897912486
 20
168.492524948
  0
VERTEX
  8
0
 62
7
  6
CONTINUOUS
 10
54.6693847917
 20
168.4926512714
  0
VERTEX
  8
0
 62
7
  6
CONTINUOUS
 10
54.7484474529
 20
168.491372592
  0
VERTEX
  8
0
 62
7
  6
CONTINUOUS
 10
54.8266991771
 20
168.4884861152
  0
VERTEX
  8
0
 62
7
  6
CONTINUOUS
 10
54.9039174211
 20
168.4837707132
  0
VERTEX
  8
0
 62
7
  6
CONTINUOUS
 10
54.97988247
 20
168.4770277927
  0
VERTEX
  8
0
 62
7
  6
CONTINUOUS
 10
55.0541616147
 20
168.4680814465
  0
VERTEX
  8
0
 62
7
  6
CONTINUOUS
 10
55.126246613
 20
168.4567619293
  0
VERTEX
  8
0
 62
7
  6
CONTINUOUS
 10
55.1963512819
 20
168.4428705301
  0
VERTEX
  8
0
 62
7
  6
CONTINUOUS
 10
55.264001434
 20
168.4261706542
  0
VERTEX
  8
0
 62
7
  6
CONTINUOUS
 10
55.3280696183
 20
168.4064561123
  0
VERTEX
  8
0
 62
7
  6
CONTINUOUS
 10
55.3875594433
 20
168.3831094347
  0
VERTEX
  8
0
 62
7
  6
CONTINUOUS
 10
55.4428283922
 20
168.3556410115
  0
VERTEX
  8
0
 62
7
  6
CONTINUOUS
 10
55.4922729215
 20
168.324626135
  0
VERTEX
  8
0
 62
7
  6
CONTINUOUS
 10
55.5344518944
 20
168.291183449
  0
VERTEX
  8
0
 62
7
  6
CONTINUOUS
 10
55.5697261862
 20
168.2553135576
  0
VERTEX
  8
0
 62
7
  6
CONTINUOUS
 10
55.5980219977
 20
168.2169933823
  0
VERTEX
  8
0
 62
7
  6
CONTINUOUS
 10
55.6187321033
 20
168.1761623818
  0
VERTEX
  8
0
 62
7
  6
CONTINUOUS
 10
55.6303203653
 20
168.1333655591
  0
VERTEX
  8
0
 62
7
  6
CONTINUOUS
 10
55.6320868755
 20
168.1099957608
  0
SEQEND
  0
POLYLINE
  8
0
 62
7
  6
CONTINUOUS
 66
1
 70
0
  0
VERTEX
  8
0
 62
7
  6
CONTINUOUS
 10
99.1213538631
 20
168.3122656591
  0
VERTEX
  8
0
 62
7
  6
CONTINUOUS
 10
98.8273220921
 20
168.3082959381
  0
VERTEX
  8
0
 62
7
  6
CONTINUOUS
 10
98.7474529191
 20
168.3082492717
  0
VERTEX
  8
0
 62
7
  6
CONTINUOUS
 10
98.6682774559
 20
168.3096260364
  0
VERTEX
  8
0
 62
7
  6
CONTINUOUS
 10
98.5900554821
 20
168.3126251458
  0
VERTEX
  8
0
 62
7
  6
CONTINUOUS
 10
98.5129843626
 20
168.3174607156
  0
VERTEX
  8
0
 62
7
  6
CONTINUOUS
 10
98.43727119
 20
168.3243218454
  0
VERTEX
  8
0
 62
7
  6
CONTINUOUS
 10
98.3633439211
 20
168.3333777437
  0
VERTEX
  8
0
 62
7
  6
CONTINUOUS
 10
98.2916487449
 20
168.3447933995
  0
VERTEX
  8
0
 62
7
  6
CONTINUOUS
 10
98.2220497228
 20
168.3587493756
  0
VERTEX
  8
0
 62
7
  6
CONTINUOUS
 10
98.1548141367
 20
168.3755171301
  0
VERTEX
  8
0
 62
7
  6
CONTINUOUS
 10
98.0913850958
 20
168.3952192821
  0
VERTEX
  8
0
 62
7
  6
CONTINUOUS
 10
98.0323902034
 20
168.4185706801
  0
VERTEX
  8
0
 62
7
  6
CONTINUOUS
 10
97.9776201984
 20
168.4459735637
  0
VERTEX
  8
0
 62
7
  6
CONTINUOUS
 10
97.928688931
 20
168.4768226974
  0
VERTEX
  8
0
 62
7
  6
CONTINUOUS
 10
97.8866625682
 20
168.5102867003
  0
VERTEX
  8
0
 62
7
  6
CONTINUOUS
 10
97.8513188935
 20
168.5464219023
  0
VERTEX
  8
0
 62
7
  6
CONTINUOUS
 10
97.8229537501
 20
168.585185144
  0
VERTEX
  8
0
 62
7
  6
CONTINUOUS
 10
97.8023774524
 20
168.6264587437
  0
VERTEX
  8
0
 62
7
  6
CONTINUOUS
 10
97.7911944253
 20
168.6694560798
  0
VERTEX
  8
0
 62
7
  6
CONTINUOUS
 10
97.789704413
 20
168.690694983
  0
SEQEND
  0
LINE
  8
0
 62
7
  6
CONTINUOUS
 10
99.4043680321
 20
168.3147077137
 11
99.1213538631
 21
168.3122656591
  0
LINE
  8
0
 62
7
  6
CONTINUOUS
 10
54.013447393
 20
168.4861359966
 11
54.2964691297
 21
168.4885519711
  0
LINE
  8
0
 62
7
  6
CONTINUOUS
 10
99.4043680321
 20
168.3147077137
 11
104.9524689727
 21
168.3152640906
  0
LINE
  8
0
 62
7
  6
CONTINUOUS
 10
48.4693592674
 20
168.4856004043
 11
54.013447393
 21
168.4861359966
  0
LINE
  8
0
 62
7
  6
CONTINUOUS
 10
48.4682773161
 20
168.4856597125
 11
48.4692972559
 21
168.4856004073
  0
LINE
  8
0
 62
7
  6
CONTINUOUS
 10
104.9525010857
 20
168.3152640905
 11
104.9535091228
 21
168.3152047645
  0
LINE
  8
0
 62
7
  6
CONTINUOUS
 10
109.2453264731
 20
167.2430601613
 11
109.1406009281
 21
167.2589625356
  0
POLYLINE
  8
0
 62
7
  6
CONTINUOUS
 66
1
 70
0
  0
VERTEX
  8
0
 62
7
  6
CONTINUOUS
 10
44.2721286296
 20
186.3459630736
  0
VERTEX
  8
0
 62
7
  6
CONTINUOUS
 10
44.6730778513
 20
186.1661797984
  0
VERTEX
  8
0
 62
7
  6
CONTINUOUS
 10
45.1386908922
 20
185.9911152603
  0
VERTEX
  8
0
 62
7
  6
CONTINUOUS
 10
45.6403153726
 20
185.8323468583
  0
VERTEX
  8
0
 62
7
  6
CONTINUOUS
 10
46.1736515748
 20
185.6896421126
  0
VERTEX
  8
0
 62
7
  6
CONTINUOUS
 10
46.7340425966
 20
185.562953879
  0
VERTEX
  8
0
 62
7
  6
CONTINUOUS
 10
47.3166534021
 20
185.452266348
  0
VERTEX
  8
0
 62
7
  6
CONTINUOUS
 10
47.916478329
 20
185.3575374966
  0
VERTEX
  8
0
 62
7
  6
CONTINUOUS
 10
48.4682714504
 20
185.2856596829
  0
SEQEND
  0
LINE
  8
0
 62
7
  6
CONTINUOUS
 10
69.4442286947
 20
182.2476513764
 11
68.8220064725
 21
182.663391086
  0
LINE
  8
0
 62
7
  6
CONTINUOUS
 10
66.5997842503
 20
81.863391086
 11
65.977562028
 21
81.4476513764
  0
LINE
  8
0
 62
7
  6
CONTINUOUS
 10
86.8220064725
 20
95.3374734089
 11
87.4442286947
 21
95.7532131185
  0
LINE
  8
0
 62
7
  6
CONTINUOUS
 10
68.8220064725
 20
78.5374734089
 11
69.4442286947
 21
78.9532131185
  0
LINE
  8
0
 62
7
  6
CONTINUOUS
 10
44.6730778513
 20
75.0346846965
 11
44.2721286296
 21
74.8549014213
  0
POLYLINE
  8
0
 62
7
  6
CONTINUOUS
 66
1
 70
0
  0
VERTEX
  8
0
 62
7
  6
CONTINUOUS
 10
104.9535192442
 20
176.8856596796
  0
VERTEX
  8
0
 62
7
  6
CONTINUOUS
 10
105.5018106266
 20
176.9570369346
  0
VERTEX
  8
0
 62
7
  6
CONTINUOUS
 10
106.101792042
 20
177.051686396
  0
VERTEX
  8
0
 62
7
  6
CONTINUOUS
 10
106.6845790065
 20
177.1622970008
  0
VERTEX
  8
0
 62
7
  6
CONTINUOUS
 10
107.2451646728
 20
177.288910887
  0
VERTEX
  8
0
 62
7
  6
CONTINUOUS
 10
107.7787123511
 20
177.4315436414
  0
VERTEX
  8
0
 62
7
  6
CONTINUOUS
 10
108.2805627291
 20
177.5902415656
  0
VERTEX
  8
0
 62
7
  6
CONTINUOUS
 10
108.7464133345
 20
177.7652353472
  0
SEQEND
  0
LINE
  8
0
 62
7
  6
CONTINUOUS
 10
104.9535133785
 20
176.8856597092
 11
104.9524934668
 21
176.8856004073
  0
LINE
  8
0
 62
7
  6
CONTINUOUS
 10
48.4682773161
 20
176.7152047824
 11
48.4692972559
 21
176.7152640876
  0
POLYLINE
  8
0
 62
7
  6
CONTINUOUS
 66
1
 70
0
  0
VERTEX
  8
0
 62
7
  6
CONTINUOUS
 10
54.593897002
 20
176.7083015856
  0
VERTEX
  8
0
 62
7
  6
CONTINUOUS
 10
54.3004330162
 20
176.7122660621
  0
VERTEX
  8
0
 62
7
  6
CONTINUOUS
 10
54.0174208147
 20
176.7147078059
  0
VERTEX
  8
0
 62
7
  6
CONTINUOUS
 10
48.4693592674
 20
176.7152640906
  0
SEQEND
  0
POLYLINE
  8
0
 62
7
  6
CONTINUOUS
 66
1
 70
0
  0
VERTEX
  8
0
 62
7
  6
CONTINUOUS
 10
98.8315225465
 20
176.8925295265
  0
VERTEX
  8
0
 62
7
  6
CONTINUOUS
 10
99.1253216437
 20
176.8885519713
  0
VERTEX
  8
0
 62
7
  6
CONTINUOUS
 10
99.4083433042
 20
176.8861359968
  0
VERTEX
  8
0
 62
7
  6
CONTINUOUS
 10
104.9524314554
 20
176.8856004043
  0
SEQEND
  0
POLYLINE
  8
0
 62
7
  6
CONTINUOUS
 66
1
 70
0
  0
VERTEX
  8
0
 62
7
  6
CONTINUOUS
 10
109.1496599671
 20
167.2549024645
  0
VERTEX
  8
0
 62
7
  6
CONTINUOUS
 10
108.7464132276
 20
167.4356291916
  0
VERTEX
  8
0
 62
7
  6
CONTINUOUS
 10
108.2805624964
 20
167.6106230094
  0
VERTEX
  8
0
 62
7
  6
CONTINUOUS
 10
107.7787119763
 20
167.7693209624
  0
VERTEX
  8
0
 62
7
  6
CONTINUOUS
 10
107.2451641429
 20
167.9119537381
  0
VERTEX
  8
0
 62
7
  6
CONTINUOUS
 10
106.684578312
 20
168.0385676379
  0
VERTEX
  8
0
 62
7
  6
CONTINUOUS
 10
106.101791177
 20
168.1491782488
  0
VERTEX
  8
0
 62
7
  6
CONTINUOUS
 10
105.5018095887
 20
168.2438277086
  0
VERTEX
  8
0
 62
7
  6
CONTINUOUS
 10
104.9535192442
 20
168.3152048153
  0
SEQEND
  0
LINE
  8
0
 62
7
  6
CONTINUOUS
 10
83.977562028
 20
179.7532131185
 11
84.5997842503
 21
179.3374734089
  0
POLYLINE
  8
0
 62
7
  6
CONTINUOUS
 66
1
 70
0
  0
VERTEX
  8
0
 62
7
  6
CONTINUOUS
 10
104.9535091228
 20
168.3152047645
  0
VERTEX
  8
0
 62
7
  6
CONTINUOUS
 10
104.9621060208
 20
168.3093930641
  0
VERTEX
  8
0
 62
7
  6
CONTINUOUS
 10
104.9708993392
 20
168.2903063112
  0
VERTEX
  8
0
 62
7
  6
CONTINUOUS
 10
104.977627782
 20
168.2591050641
  0
VERTEX
  8
0
 62
7
  6
CONTINUOUS
 10
104.9819474853
 20
168.2177865182
  0
VERTEX
  8
0
 62
7
  6
CONTINUOUS
 10
104.983736372
 20
168.169090172
  0
VERTEX
  8
0
 62
7
  6
CONTINUOUS
 10
104.9831766846
 20
168.1152640906
  0
SEQEND
  0
LINE
  8
0
 62
7
  6
CONTINUOUS
 10
84.5997842503
 20
81.863391086
 11
83.977562028
 21
81.4476513764
  0
POLYLINE
  8
0
 62
7
  6
CONTINUOUS
 66
1
 70
0
  0
VERTEX
  8
0
 62
7
  6
CONTINUOUS
 10
44.1764715851
 20
175.6430613048
  0
VERTEX
  8
0
 62
7
  6
CONTINUOUS
 10
44.0076765317
 20
175.6151746591
  0
VERTEX
  8
0
 62
7
  6
CONTINUOUS
 10
43.8431163153
 20
175.5843307577
  0
VERTEX
  8
0
 62
7
  6
CONTINUOUS
 10
43.6996780388
 20
175.5534470069
  0
VERTEX
  8
0
 62
7
  6
CONTINUOUS
 10
43.5739997383
 20
175.5221089603
  0
VERTEX
  8
0
 62
7
  6
CONTINUOUS
 10
43.462686068
 20
175.489607575
  0
VERTEX
  8
0
 62
7
  6
CONTINUOUS
 10
43.3620764465
 20
175.4546952721
  0
VERTEX
  8
0
 62
7
  6
CONTINUOUS
 10
43.2681115754
 20
175.4151586449
  0
VERTEX
  8
0
 62
7
  6
CONTINUOUS
 10
43.1769157944
 20
175.3673700536
  0
VERTEX
  8
0
 62
7
  6
CONTINUOUS
 10
43.085603618
 20
175.3056610104
  0
VERTEX
  8
0
 62
7
  6
CONTINUOUS
 10
42.9945558641
 20
175.222563943
  0
VERTEX
  8
0
 62
7
  6
CONTINUOUS
 10
42.911086305
 20
175.112758678
  0
VERTEX
  8
0
 62
7
  6
CONTINUOUS
 10
42.8477759978
 20
174.9786048958
  0
VERTEX
  8
0
 62
7
  6
CONTINUOUS
 10
42.8149325224
 20
174.8313586406
  0
VERTEX
  8
0
 62
7
  6
CONTINUOUS
 10
42.8108954683
 20
174.7566029349
  0
SEQEND
  0
LINE
  8
0
 62
7
  6
CONTINUOUS
 10
44.2811907218
 20
175.6589648102
 11
44.1764633798
 21
175.6430600256
  0
POLYLINE
  8
0
 62
7
  6
CONTINUOUS
 66
1
 70
0
  0
VERTEX
  8
0
 62
7
  6
CONTINUOUS
 10
48.4682714504
 20
176.715204812
  0
VERTEX
  8
0
 62
7
  6
CONTINUOUS
 10
47.916478329
 20
176.6433269983
  0
VERTEX
  8
0
 62
7
  6
CONTINUOUS
 10
47.3166534021
 20
176.5485981469
  0
VERTEX
  8
0
 62
7
  6
CONTINUOUS
 10
46.7340425966
 20
176.4379106159
  0
VERTEX
  8
0
 62
7
  6
CONTINUOUS
 10
46.1736515748
 20
176.3112223824
  0
VERTEX
  8
0
 62
7
  6
CONTINUOUS
 10
45.6403153726
 20
176.1685176366
  0
VERTEX
  8
0
 62
7
  6
CONTINUOUS
 10
45.1386908922
 20
176.0097492347
  0
VERTEX
  8
0
 62
7
  6
CONTINUOUS
 10
44.6730778513
 20
175.8346846965
  0
SEQEND
  0
POLYLINE
  8
0
 62
7
  6
CONTINUOUS
 66
1
 70
0
  0
VERTEX
  8
0
 62
7
  6
CONTINUOUS
 10
99.1213538631
 20
185.1122656591
  0
VERTEX
  8
0
 62
7
  6
CONTINUOUS
 10
98.8273220921
 20
185.1082959381
  0
VERTEX
  8
0
 62
7
  6
CONTINUOUS
 10
98.7474529191
 20
185.1082492717
  0
VERTEX
  8
0
 62
7
  6
CONTINUOUS
 10
98.6682774559
 20
185.1096260364
  0
VERTEX
  8
0
 62
7
  6
CONTINUOUS
 10
98.5900554821
 20
185.1126251458
  0
VERTEX
  8
0
 62
7
  6
CONTINUOUS
 10
98.5129843626
 20
185.1174607156
  0
VERTEX
  8
0
 62
7
  6
CONTINUOUS
 10
98.43727119
 20
185.1243218454
  0
VERTEX
  8
0
 62
7
  6
CONTINUOUS
 10
98.3633439211
 20
185.1333777437
  0
VERTEX
  8
0
 62
7
  6
CONTINUOUS
 10
98.2916487449
 20
185.1447933995
  0
VERTEX
  8
0
 62
7
  6
CONTINUOUS
 10
98.2220497228
 20
185.1587493756
  0
VERTEX
  8
0
 62
7
  6
CONTINUOUS
 10
98.1548141367
 20
185.1755171301
  0
VERTEX
  8
0
 62
7
  6
CONTINUOUS
 10
98.0913850958
 20
185.1952192821
  0
VERTEX
  8
0
 62
7
  6
CONTINUOUS
 10
98.0323902034
 20
185.2185706801
  0
VERTEX
  8
0
 62
7
  6
CONTINUOUS
 10
97.9776201984
 20
185.2459735637
  0
VERTEX
  8
0
 62
7
  6
CONTINUOUS
 10
97.928688931
 20
185.2768226974
  0
VERTEX
  8
0
 62
7
  6
CONTINUOUS
 10
97.8866625682
 20
185.3102867003
  0
VERTEX
  8
0
 62
7
  6
CONTINUOUS
 10
97.8513188935
 20
185.3464219023
  0
VERTEX
  8
0
 62
7
  6
CONTINUOUS
 10
97.8229537501
 20
185.385185144
  0
VERTEX
  8
0
 62
7
  6
CONTINUOUS
 10
97.8023774524
 20
185.4264587437
  0
VERTEX
  8
0
 62
7
  6
CONTINUOUS
 10
97.7911944253
 20
185.4694560798
  0
VERTEX
  8
0
 62
7
  6
CONTINUOUS
 10
97.789704413
 20
185.490694983
  0
SEQEND
  0
POLYLINE
  8
0
 62
7
  6
CONTINUOUS
 66
1
 70
0
  0
VERTEX
  8
0
 62
7
  6
CONTINUOUS
 10
99.6168562254
 20
185.1152640906
  0
VERTEX
  8
0
 62
7
  6
CONTINUOUS
 10
99.4043680321
 20
185.1147077137
  0
VERTEX
  8
0
 62
7
  6
CONTINUOUS
 10
99.1213538631
 20
185.1122656591
  0
SEQEND
  0
LINE
  8
0
 62
7
  6
CONTINUOUS
 10
48.4682773161
 20
185.2856597125
 11
48.4692972559
 21
185.2856004073
  0
LINE
  8
0
 62
7
  6
CONTINUOUS
 10
44.1764633798
 20
186.3578044693
 11
44.2811907218
 21
186.3418996847
  0
POLYLINE
  8
0
 62
7
  6
CONTINUOUS
 66
1
 70
0
  0
VERTEX
  8
0
 62
7
  6
CONTINUOUS
 10
44.2721286296
 20
203.1459630736
  0
VERTEX
  8
0
 62
7
  6
CONTINUOUS
 10
44.6730778513
 20
202.9661797984
  0
VERTEX
  8
0
 62
7
  6
CONTINUOUS
 10
45.1386908922
 20
202.7911152603
  0
VERTEX
  8
0
 62
7
  6
CONTINUOUS
 10
45.6403153726
 20
202.6323468583
  0
VERTEX
  8
0
 62
7
  6
CONTINUOUS
 10
46.1736515748
 20
202.4896421126
  0
VERTEX
  8
0
 62
7
  6
CONTINUOUS
 10
46.7340425966
 20
202.362953879
  0
VERTEX
  8
0
 62
7
  6
CONTINUOUS
 10
47.3166534021
 20
202.252266348
  0
VERTEX
  8
0
 62
7
  6
CONTINUOUS
 10
47.916478329
 20
202.1575374966
  0
VERTEX
  8
0
 62
7
  6
CONTINUOUS
 10
48.4682714504
 20
202.0856596829
  0
SEQEND
  0
LINE
  8
0
 62
7
  6
CONTINUOUS
 10
65.977562028
 20
196.5532131185
 11
66.5997842503
 21
196.1374734089
  0
LINE
  8
0
 62
7
  6
CONTINUOUS
 10
87.4442286947
 20
182.2476513764
 11
86.8220064725
 21
182.663391086
  0
LINE
  8
0
 62
7
  6
CONTINUOUS
 10
69.4442286947
 20
199.0476513764
 11
68.8220064725
 21
199.463391086
  0
LINE
  8
0
 62
7
  6
CONTINUOUS
 10
66.5997842503
 20
65.063391086
 11
65.977562028
 21
64.6476513764
  0
LINE
  8
0
 62
7
  6
CONTINUOUS
 10
86.8220064725
 20
78.5374734089
 11
87.4442286947
 21
78.9532131185
  0
LINE
  8
0
 62
7
  6
CONTINUOUS
 10
68.8220064725
 20
61.7374734089
 11
69.4442286947
 21
62.1532131185
  0
LINE
  8
0
 62
7
  6
CONTINUOUS
 10
108.7464133345
 20
93.7652353472
 11
109.1496599671
 21
93.9459620304
  0
POLYLINE
  8
0
 62
7
  6
CONTINUOUS
 66
1
 70
0
  0
VERTEX
  8
0
 62
7
  6
CONTINUOUS
 10
109.2453183856
 20
194.7578030729
  0
VERTEX
  8
0
 62
7
  6
CONTINUOUS
 10
109.4128309548
 20
194.7854648846
  0
VERTEX
  8
0
 62
7
  6
CONTINUOUS
 10
109.5778571729
 20
194.8163696824
  0
VERTEX
  8
0
 62
7
  6
CONTINUOUS
 10
109.7216848742
 20
194.847318469
  0
VERTEX
  8
0
 62
7
  6
CONTINUOUS
 10
109.8476874973
 20
194.8787276563
  0
VERTEX
  8
0
 62
7
  6
CONTINUOUS
 10
109.9592743364
 20
194.9113107973
  0
VERTEX
  8
0
 62
7
  6
CONTINUOUS
 10
110.0601256552
 20
194.9463258061
  0
VERTEX
  8
0
 62
7
  6
CONTINUOUS
 10
110.1543291217
 20
194.9860093044
  0
VERTEX
  8
0
 62
7
  6
CONTINUOUS
 10
110.2457930475
 20
195.0340364222
  0
VERTEX
  8
0
 62
7
  6
CONTINUOUS
 10
110.3374002702
 20
195.096146073
  0
VERTEX
  8
0
 62
7
  6
CONTINUOUS
 10
110.4286911378
 20
195.1798749978
  0
VERTEX
  8
0
 62
7
  6
CONTINUOUS
 10
110.5121790454
 20
195.290520409
  0
VERTEX
  8
0
 62
7
  6
CONTINUOUS
 10
110.5751227688
 20
195.4255100744
  0
VERTEX
  8
0
 62
7
  6
CONTINUOUS
 10
110.6072649247
 20
195.5733448637
  0
VERTEX
  8
0
 62
7
  6
CONTINUOUS
 10
110.6108952574
 20
195.6442590062
  0
SEQEND
  0
LINE
  8
0
 62
7
  6
CONTINUOUS
 10
109.1406009284
 20
194.7419019593
 11
109.2453264731
 21
194.7578043336
  0
POLYLINE
  8
0
 62
7
  6
CONTINUOUS
 66
1
 70
0
  0
VERTEX
  8
0
 62
7
  6
CONTINUOUS
 10
104.9535192442
 20
193.6856596796
  0
VERTEX
  8
0
 62
7
  6
CONTINUOUS
 10
105.5018106266
 20
193.7570369346
  0
VERTEX
  8
0
 62
7
  6
CONTINUOUS
 10
106.101792042
 20
193.851686396
  0
VERTEX
  8
0
 62
7
  6
CONTINUOUS
 10
106.6845790065
 20
193.9622970008
  0
VERTEX
  8
0
 62
7
  6
CONTINUOUS
 10
107.2451646728
 20
194.088910887
  0
VERTEX
  8
0
 62
7
  6
CONTINUOUS
 10
107.7787123511
 20
194.2315436414
  0
VERTEX
  8
0
 62
7
  6
CONTINUOUS
 10
108.2805627291
 20
194.3902415656
  0
VERTEX
  8
0
 62
7
  6
CONTINUOUS
 10
108.7464133345
 20
194.5652353472
  0
SEQEND
  0
POLYLINE
  8
0
 62
7
  6
CONTINUOUS
 66
1
 70
0
  0
VERTEX
  8
0
 62
7
  6
CONTINUOUS
 10
54.2964691297
 20
185.2885519711
  0
VERTEX
  8
0
 62
7
  6
CONTINUOUS
 10
54.5897912486
 20
185.292524948
  0
VERTEX
  8
0
 62
7
  6
CONTINUOUS
 10
54.6693847917
 20
185.2926512714
  0
VERTEX
  8
0
 62
7
  6
CONTINUOUS
 10
54.7484474529
 20
185.291372592
  0
VERTEX
  8
0
 62
7
  6
CONTINUOUS
 10
54.8266991771
 20
185.2884861152
  0
VERTEX
  8
0
 62
7
  6
CONTINUOUS
 10
54.9039174211
 20
185.2837707132
  0
VERTEX
  8
0
 62
7
  6
CONTINUOUS
 10
54.97988247
 20
185.2770277927
  0
VERTEX
  8
0
 62
7
  6
CONTINUOUS
 10
55.0541616147
 20
185.2680814465
  0
VERTEX
  8
0
 62
7
  6
CONTINUOUS
 10
55.126246613
 20
185.2567619293
  0
VERTEX
  8
0
 62
7
  6
CONTINUOUS
 10
55.1963512819
 20
185.2428705301
  0
VERTEX
  8
0
 62
7
  6
CONTINUOUS
 10
55.264001434
 20
185.2261706542
  0
VERTEX
  8
0
 62
7
  6
CONTINUOUS
 10
55.3280696183
 20
185.2064561123
  0
VERTEX
  8
0
 62
7
  6
CONTINUOUS
 10
55.3875594433
 20
185.1831094347
  0
VERTEX
  8
0
 62
7
  6
CONTINUOUS
 10
55.4428283922
 20
185.1556410115
  0
VERTEX
  8
0
 62
7
  6
CONTINUOUS
 10
55.4922729215
 20
185.124626135
  0
VERTEX
  8
0
 62
7
  6
CONTINUOUS
 10
55.5344518944
 20
185.091183449
  0
VERTEX
  8
0
 62
7
  6
CONTINUOUS
 10
55.5697261862
 20
185.0553135576
  0
VERTEX
  8
0
 62
7
  6
CONTINUOUS
 10
55.5980219977
 20
185.0169933823
  0
VERTEX
  8
0
 62
7
  6
CONTINUOUS
 10
55.6187321033
 20
184.9761623818
  0
VERTEX
  8
0
 62
7
  6
CONTINUOUS
 10
55.6303203653
 20
184.9333655591
  0
VERTEX
  8
0
 62
7
  6
CONTINUOUS
 10
55.6320868755
 20
184.9099957608
  0
SEQEND
  0
LINE
  8
0
 62
7
  6
CONTINUOUS
 10
54.013447393
 20
185.2861359966
 11
54.2964691297
 21
185.2885519711
  0
LINE
  8
0
 62
7
  6
CONTINUOUS
 10
99.6168562254
 20
185.1152640906
 11
104.9524689727
 21
185.1152640906
  0
LINE
  8
0
 62
7
  6
CONTINUOUS
 10
48.4693592674
 20
185.2856004043
 11
54.013447393
 21
185.2861359966
  0
LINE
  8
0
 62
7
  6
CONTINUOUS
 10
104.9525010857
 20
185.1152640905
 11
104.9535091228
 21
185.1152047645
  0
LINE
  8
0
 62
7
  6
CONTINUOUS
 10
109.2453264731
 20
184.0430601613
 11
109.1406009281
 21
184.0589625356
  0
LINE
  8
0
 62
7
  6
CONTINUOUS
 10
83.977562028
 20
196.5532131185
 11
84.5997842503
 21
196.1374734089
  0
LINE
  8
0
 62
7
  6
CONTINUOUS
 10
84.5997842503
 20
65.063391086
 11
83.977562028
 21
64.6476513764
  0
POLYLINE
  8
0
 62
7
  6
CONTINUOUS
 66
1
 70
0
  0
VERTEX
  8
0
 62
7
  6
CONTINUOUS
 10
44.1764715851
 20
192.4430613048
  0
VERTEX
  8
0
 62
7
  6
CONTINUOUS
 10
44.0076765317
 20
192.4151746591
  0
VERTEX
  8
0
 62
7
  6
CONTINUOUS
 10
43.8431163153
 20
192.3843307577
  0
VERTEX
  8
0
 62
7
  6
CONTINUOUS
 10
43.6996780388
 20
192.3534470069
  0
VERTEX
  8
0
 62
7
  6
CONTINUOUS
 10
43.5739997383
 20
192.3221089603
  0
VERTEX
  8
0
 62
7
  6
CONTINUOUS
 10
43.462686068
 20
192.289607575
  0
VERTEX
  8
0
 62
7
  6
CONTINUOUS
 10
43.3620764465
 20
192.2546952721
  0
VERTEX
  8
0
 62
7
  6
CONTINUOUS
 10
43.2681115754
 20
192.2151586449
  0
VERTEX
  8
0
 62
7
  6
CONTINUOUS
 10
43.1769157944
 20
192.1673700536
  0
VERTEX
  8
0
 62
7
  6
CONTINUOUS
 10
43.085603618
 20
192.1056610104
  0
VERTEX
  8
0
 62
7
  6
CONTINUOUS
 10
42.9945558641
 20
192.022563943
  0
VERTEX
  8
0
 62
7
  6
CONTINUOUS
 10
42.911086305
 20
191.912758678
  0
VERTEX
  8
0
 62
7
  6
CONTINUOUS
 10
42.8477759978
 20
191.7786048958
  0
VERTEX
  8
0
 62
7
  6
CONTINUOUS
 10
42.8149325224
 20
191.6313586406
  0
VERTEX
  8
0
 62
7
  6
CONTINUOUS
 10
42.8108954683
 20
191.5566029349
  0
SEQEND
  0
LINE
  8
0
 62
7
  6
CONTINUOUS
 10
44.2811907218
 20
192.4589648102
 11
44.1764633798
 21
192.4430600256
  0
POLYLINE
  8
0
 62
7
  6
CONTINUOUS
 66
1
 70
0
  0
VERTEX
  8
0
 62
7
  6
CONTINUOUS
 10
48.4682714504
 20
193.515204812
  0
VERTEX
  8
0
 62
7
  6
CONTINUOUS
 10
47.916478329
 20
193.4433269983
  0
VERTEX
  8
0
 62
7
  6
CONTINUOUS
 10
47.3166534021
 20
193.3485981469
  0
VERTEX
  8
0
 62
7
  6
CONTINUOUS
 10
46.7340425966
 20
193.2379106159
  0
VERTEX
  8
0
 62
7
  6
CONTINUOUS
 10
46.1736515748
 20
193.1112223824
  0
VERTEX
  8
0
 62
7
  6
CONTINUOUS
 10
45.6403153726
 20
192.9685176366
  0
VERTEX
  8
0
 62
7
  6
CONTINUOUS
 10
45.1386908922
 20
192.8097492347
  0
VERTEX
  8
0
 62
7
  6
CONTINUOUS
 10
44.6730778513
 20
192.6346846965
  0
SEQEND
  0
LINE
  8
0
 62
7
  6
CONTINUOUS
 10
104.9535133785
 20
193.6856597092
 11
104.9524934668
 21
193.6856004073
  0
LINE
  8
0
 62
7
  6
CONTINUOUS
 10
48.4682773161
 20
193.5152047824
 11
48.4692972559
 21
193.5152640876
  0
POLYLINE
  8
0
 62
7
  6
CONTINUOUS
 66
1
 70
0
  0
VERTEX
  8
0
 62
7
  6
CONTINUOUS
 10
54.593897002
 20
193.5083015856
  0
VERTEX
  8
0
 62
7
  6
CONTINUOUS
 10
54.3004330162
 20
193.5122660621
  0
VERTEX
  8
0
 62
7
  6
CONTINUOUS
 10
54.0174208147
 20
193.5147078059
  0
VERTEX
  8
0
 62
7
  6
CONTINUOUS
 10
48.4693592674
 20
193.5152640906
  0
SEQEND
  0
POLYLINE
  8
0
 62
7
  6
CONTINUOUS
 66
1
 70
0
  0
VERTEX
  8
0
 62
7
  6
CONTINUOUS
 10
98.8315225465
 20
193.6925295265
  0
VERTEX
  8
0
 62
7
  6
CONTINUOUS
 10
99.1253216437
 20
193.6885519713
  0
VERTEX
  8
0
 62
7
  6
CONTINUOUS
 10
99.4083433042
 20
193.6861359968
  0
VERTEX
  8
0
 62
7
  6
CONTINUOUS
 10
104.9524314554
 20
193.6856004043
  0
SEQEND
  0
POLYLINE
  8
0
 62
7
  6
CONTINUOUS
 66
1
 70
0
  0
VERTEX
  8
0
 62
7
  6
CONTINUOUS
 10
109.1496599671
 20
184.0549024645
  0
VERTEX
  8
0
 62
7
  6
CONTINUOUS
 10
108.7464132276
 20
184.2356291916
  0
VERTEX
  8
0
 62
7
  6
CONTINUOUS
 10
108.2805624964
 20
184.4106230094
  0
VERTEX
  8
0
 62
7
  6
CONTINUOUS
 10
107.7787119763
 20
184.5693209624
  0
VERTEX
  8
0
 62
7
  6
CONTINUOUS
 10
107.2451641429
 20
184.7119537381
  0
VERTEX
  8
0
 62
7
  6
CONTINUOUS
 10
106.684578312
 20
184.8385676379
  0
VERTEX
  8
0
 62
7
  6
CONTINUOUS
 10
106.101791177
 20
184.9491782488
  0
VERTEX
  8
0
 62
7
  6
CONTINUOUS
 10
105.5018095887
 20
185.0438277086
  0
VERTEX
  8
0
 62
7
  6
CONTINUOUS
 10
104.9535192442
 20
185.1152048153
  0
SEQEND
  0
LINE
  8
0
 62
7
  6
CONTINUOUS
 10
87.4442286947
 20
199.0476513764
 11
86.8220064725
 21
199.463391086
  0
POLYLINE
  8
0
 62
7
  6
CONTINUOUS
 66
1
 70
0
  0
VERTEX
  8
0
 62
7
  6
CONTINUOUS
 10
104.9535091228
 20
185.1152047645
  0
VERTEX
  8
0
 62
7
  6
CONTINUOUS
 10
104.9621060208
 20
185.1093930641
  0
VERTEX
  8
0
 62
7
  6
CONTINUOUS
 10
104.9708993392
 20
185.0903063112
  0
VERTEX
  8
0
 62
7
  6
CONTINUOUS
 10
104.977627782
 20
185.0591050641
  0
VERTEX
  8
0
 62
7
  6
CONTINUOUS
 10
104.9819474853
 20
185.0177865182
  0
VERTEX
  8
0
 62
7
  6
CONTINUOUS
 10
104.983736372
 20
184.969090172
  0
VERTEX
  8
0
 62
7
  6
CONTINUOUS
 10
104.9831766846
 20
184.9152640906
  0
SEQEND
  0
LINE
  8
0
 62
7
  6
CONTINUOUS
 10
86.8220064725
 20
61.7374734089
 11
87.4442286947
 21
62.1532131185
  0
LINE
  8
0
 62
7
  6
CONTINUOUS
 10
108.7464133345
 20
76.9652353472
 11
109.1496599671
 21
77.1459620304
  0
POLYLINE
  8
0
 62
7
  6
CONTINUOUS
 66
1
 70
0
  0
VERTEX
  8
0
 62
7
  6
CONTINUOUS
 10
54.2964691297
 20
202.0885519711
  0
VERTEX
  8
0
 62
7
  6
CONTINUOUS
 10
54.5897912486
 20
202.092524948
  0
VERTEX
  8
0
 62
7
  6
CONTINUOUS
 10
54.6693847917
 20
202.0926512714
  0
VERTEX
  8
0
 62
7
  6
CONTINUOUS
 10
54.7484474529
 20
202.091372592
  0
VERTEX
  8
0
 62
7
  6
CONTINUOUS
 10
54.8266991771
 20
202.0884861152
  0
VERTEX
  8
0
 62
7
  6
CONTINUOUS
 10
54.9039174211
 20
202.0837707132
  0
VERTEX
  8
0
 62
7
  6
CONTINUOUS
 10
54.97988247
 20
202.0770277927
  0
VERTEX
  8
0
 62
7
  6
CONTINUOUS
 10
55.0541616147
 20
202.0680814465
  0
VERTEX
  8
0
 62
7
  6
CONTINUOUS
 10
55.126246613
 20
202.0567619293
  0
VERTEX
  8
0
 62
7
  6
CONTINUOUS
 10
55.1963512819
 20
202.0428705301
  0
VERTEX
  8
0
 62
7
  6
CONTINUOUS
 10
55.264001434
 20
202.0261706542
  0
VERTEX
  8
0
 62
7
  6
CONTINUOUS
 10
55.3280696183
 20
202.0064561123
  0
VERTEX
  8
0
 62
7
  6
CONTINUOUS
 10
55.3875594433
 20
201.9831094347
  0
VERTEX
  8
0
 62
7
  6
CONTINUOUS
 10
55.4428283922
 20
201.9556410115
  0
VERTEX
  8
0
 62
7
  6
CONTINUOUS
 10
55.4922729215
 20
201.924626135
  0
VERTEX
  8
0
 62
7
  6
CONTINUOUS
 10
55.5344518944
 20
201.891183449
  0
VERTEX
  8
0
 62
7
  6
CONTINUOUS
 10
55.5697261862
 20
201.8553135576
  0
VERTEX
  8
0
 62
7
  6
CONTINUOUS
 10
55.5980219977
 20
201.8169933823
  0
VERTEX
  8
0
 62
7
  6
CONTINUOUS
 10
55.6187321033
 20
201.7761623818
  0
VERTEX
  8
0
 62
7
  6
CONTINUOUS
 10
55.6303203653
 20
201.7333655591
  0
VERTEX
  8
0
 62
7
  6
CONTINUOUS
 10
55.6320868755
 20
201.7099957608
  0
SEQEND
  0
POLYLINE
  8
0
 62
7
  6
CONTINUOUS
 66
1
 70
0
  0
VERTEX
  8
0
 62
7
  6
CONTINUOUS
 10
99.1213538631
 20
201.9122656591
  0
VERTEX
  8
0
 62
7
  6
CONTINUOUS
 10
98.8273220921
 20
201.9082959381
  0
VERTEX
  8
0
 62
7
  6
CONTINUOUS
 10
98.7474529191
 20
201.9082492717
  0
VERTEX
  8
0
 62
7
  6
CONTINUOUS
 10
98.6682774559
 20
201.9096260364
  0
VERTEX
  8
0
 62
7
  6
CONTINUOUS
 10
98.5900554821
 20
201.9126251458
  0
VERTEX
  8
0
 62
7
  6
CONTINUOUS
 10
98.5129843626
 20
201.9174607156
  0
VERTEX
  8
0
 62
7
  6
CONTINUOUS
 10
98.43727119
 20
201.9243218454
  0
VERTEX
  8
0
 62
7
  6
CONTINUOUS
 10
98.3633439211
 20
201.9333777437
  0
VERTEX
  8
0
 62
7
  6
CONTINUOUS
 10
98.2916487449
 20
201.9447933995
  0
VERTEX
  8
0
 62
7
  6
CONTINUOUS
 10
98.2220497228
 20
201.9587493756
  0
VERTEX
  8
0
 62
7
  6
CONTINUOUS
 10
98.1548141367
 20
201.9755171301
  0
VERTEX
  8
0
 62
7
  6
CONTINUOUS
 10
98.0913850958
 20
201.9952192821
  0
VERTEX
  8
0
 62
7
  6
CONTINUOUS
 10
98.0323902034
 20
202.0185706801
  0
VERTEX
  8
0
 62
7
  6
CONTINUOUS
 10
97.9776201984
 20
202.0459735637
  0
VERTEX
  8
0
 62
7
  6
CONTINUOUS
 10
97.928688931
 20
202.0768226974
  0
VERTEX
  8
0
 62
7
  6
CONTINUOUS
 10
97.8866625682
 20
202.1102867003
  0
VERTEX
  8
0
 62
7
  6
CONTINUOUS
 10
97.8513188935
 20
202.1464219023
  0
VERTEX
  8
0
 62
7
  6
CONTINUOUS
 10
97.8229537501
 20
202.185185144
  0
VERTEX
  8
0
 62
7
  6
CONTINUOUS
 10
97.8023774524
 20
202.2264587437
  0
VERTEX
  8
0
 62
7
  6
CONTINUOUS
 10
97.7911944253
 20
202.2694560798
  0
VERTEX
  8
0
 62
7
  6
CONTINUOUS
 10
97.789704413
 20
202.290694983
  0
SEQEND
  0
LINE
  8
0
 62
7
  6
CONTINUOUS
 10
99.4043680321
 20
201.9147077137
 11
99.1213538631
 21
201.9122656591
  0
LINE
  8
0
 62
7
  6
CONTINUOUS
 10
54.013447393
 20
202.0861359966
 11
54.2964691297
 21
202.0885519711
  0
LINE
  8
0
 62
7
  6
CONTINUOUS
 10
99.4043680321
 20
201.9147077137
 11
104.9524689727
 21
201.9152640906
  0
LINE
  8
0
 62
7
  6
CONTINUOUS
 10
48.4693592674
 20
202.0856004043
 11
54.013447393
 21
202.0861359966
  0
LINE
  8
0
 62
7
  6
CONTINUOUS
 10
48.4682773161
 20
202.0856597125
 11
48.4692972559
 21
202.0856004073
  0
LINE
  8
0
 62
7
  6
CONTINUOUS
 10
104.9525010857
 20
201.9152640905
 11
104.9535091228
 21
201.9152047645
  0
LINE
  8
0
 62
7
  6
CONTINUOUS
 10
44.1764633798
 20
203.1578044693
 11
44.2811907218
 21
203.1418996847
  0
LINE
  8
0
 62
7
  6
CONTINUOUS
 10
109.2453264731
 20
200.8430601613
 11
109.1406009281
 21
200.8589625356
  0
POLYLINE
  8
0
 62
7
  6
CONTINUOUS
 66
1
 70
0
  0
VERTEX
  8
0
 62
7
  6
CONTINUOUS
 10
109.1496599671
 20
200.8549024645
  0
VERTEX
  8
0
 62
7
  6
CONTINUOUS
 10
108.7464132276
 20
201.0356291916
  0
VERTEX
  8
0
 62
7
  6
CONTINUOUS
 10
108.2805624964
 20
201.2106230094
  0
VERTEX
  8
0
 62
7
  6
CONTINUOUS
 10
107.7787119763
 20
201.3693209624
  0
VERTEX
  8
0
 62
7
  6
CONTINUOUS
 10
107.2451641429
 20
201.5119537381
  0
VERTEX
  8
0
 62
7
  6
CONTINUOUS
 10
106.684578312
 20
201.6385676379
  0
VERTEX
  8
0
 62
7
  6
CONTINUOUS
 10
106.101791177
 20
201.7491782488
  0
VERTEX
  8
0
 62
7
  6
CONTINUOUS
 10
105.5018095887
 20
201.8438277086
  0
VERTEX
  8
0
 62
7
  6
CONTINUOUS
 10
104.9535192442
 20
201.9152048153
  0
SEQEND
  0
POLYLINE
  8
0
 62
7
  6
CONTINUOUS
 66
1
 70
0
  0
VERTEX
  8
0
 62
7
  6
CONTINUOUS
 10
104.9535091228
 20
201.9152047645
  0
VERTEX
  8
0
 62
7
  6
CONTINUOUS
 10
104.9621060208
 20
201.9093930641
  0
VERTEX
  8
0
 62
7
  6
CONTINUOUS
 10
104.9708993392
 20
201.8903063112
  0
VERTEX
  8
0
 62
7
  6
CONTINUOUS
 10
104.977627782
 20
201.8591050641
  0
VERTEX
  8
0
 62
7
  6
CONTINUOUS
 10
104.9819474853
 20
201.8177865182
  0
VERTEX
  8
0
 62
7
  6
CONTINUOUS
 10
104.983736372
 20
201.769090172
  0
VERTEX
  8
0
 62
7
  6
CONTINUOUS
 10
104.9831766846
 20
201.7152640906
  0
SEQEND
  0
POLYLINE
  8
0
 62
7
  6
CONTINUOUS
 66
1
 70
0
  0
VERTEX
  8
0
 62
7
  6
CONTINUOUS
 10
104.9481475447
 20
59.3004322475
  0
VERTEX
  8
0
 62
7
  6
CONTINUOUS
 10
104.9559102849
 20
59.3053571183
  0
VERTEX
  8
0
 62
7
  6
CONTINUOUS
 10
104.9632904123
 20
59.3199416331
  0
VERTEX
  8
0
 62
7
  6
CONTINUOUS
 10
104.9699246054
 20
59.3435500945
  0
VERTEX
  8
0
 62
7
  6
CONTINUOUS
 10
104.9754806744
 20
59.375088544
  0
VERTEX
  8
0
 62
7
  6
CONTINUOUS
 10
104.9796748577
 20
59.4130397284
  0
VERTEX
  8
0
 62
7
  6
CONTINUOUS
 10
104.9822877684
 20
59.4555308531
  0
VERTEX
  8
0
 62
7
  6
CONTINUOUS
 10
104.9831766846
 20
59.5004322475
  0
SEQEND
  0
POLYLINE
  8
0
 62
7
  6
CONTINUOUS
 66
1
 70
0
  0
VERTEX
  8
0
 62
7
  6
CONTINUOUS
 10
43.0107065642
 20
210.3004319316
  0
VERTEX
  8
0
 62
7
  6
CONTINUOUS
 10
42.966290308
 20
210.2953928715
  0
VERTEX
  8
0
 62
7
  6
CONTINUOUS
 10
42.9241076932
 20
210.2806174169
  0
VERTEX
  8
0
 62
7
  6
CONTINUOUS
 10
42.8862575324
 20
210.2568418593
  0
VERTEX
  8
0
 62
7
  6
CONTINUOUS
 10
42.8546320197
 20
210.2252534071
  0
VERTEX
  8
0
 62
7
  6
CONTINUOUS
 10
42.8308112294
 20
210.1874293872
  0
VERTEX
  8
0
 62
7
  6
CONTINUOUS
 10
42.8159856657
 20
210.1452595916
  0
VERTEX
  8
0
 62
7
  6
CONTINUOUS
 10
42.8108953624
 20
210.1004230686
  0
SEQEND
  0
LINE
  8
0
 62
7
  6
CONTINUOUS
 10
43.0108281822
 20
210.3004322475
 11
97.5895011292
 21
210.3004322475
  0
LINE
  8
0
 62
7
  6
CONTINUOUS
 10
168.3447314593
 20
61.5240236303
 11
166.5772923409
 21
61.4004322475
  0
LINE
  8
0
 62
7
  6
CONTINUOUS
 10
151.5772923409
 20
59.3004322475
 11
166.3772923409
 21
59.3004322475
  0
POLYLINE
  8
0
 62
7
  6
CONTINUOUS
 66
1
 70
0
  0
VERTEX
  8
0
 62
7
  6
CONTINUOUS
 10
159.5775952634
 20
59.3004322475
  0
VERTEX
  8
0
 62
7
  6
CONTINUOUS
 10
159.4211133834
 20
59.312747644
  0
VERTEX
  8
0
 62
7
  6
CONTINUOUS
 10
159.2684846076
 20
59.3493905856
  0
VERTEX
  8
0
 62
7
  6
CONTINUOUS
 10
159.1234671819
 20
59.4094587901
  0
VERTEX
  8
0
 62
7
  6
CONTINUOUS
 10
158.9896319324
 20
59.4914731549
  0
VERTEX
  8
0
 62
7
  6
CONTINUOUS
 10
158.8702743026
 20
59.5934142092
  0
VERTEX
  8
0
 62
7
  6
CONTINUOUS
 10
158.7683332483
 20
59.712771839
  0
VERTEX
  8
0
 62
7
  6
CONTINUOUS
 10
158.6863188836
 20
59.8466070885
  0
VERTEX
  8
0
 62
7
  6
CONTINUOUS
 10
158.6262506791
 20
59.9916245141
  0
VERTEX
  8
0
 62
7
  6
CONTINUOUS
 10
158.5896077374
 20
60.14425329
  0
VERTEX
  8
0
 62
7
  6
CONTINUOUS
 10
158.5772923409
 20
60.3007381193
  0
SEQEND
  0
LINE
  8
0
 62
7
  6
CONTINUOUS
 10
150.6272923409
 20
63.9389385832
 11
150.5772923409
 21
63.9354422426
  0
LINE
  8
0
 62
7
  6
CONTINUOUS
 10
168.3447314593
 20
65.2768408646
 11
166.5772923409
 21
65.4004322475
  0
LINE
  8
0
 62
7
  6
CONTINUOUS
 10
168.3447314593
 20
69.9240236303
 11
166.5772923409
 21
69.8004322475
  0
LINE
  8
0
 62
7
  6
CONTINUOUS
 10
150.5873832728
 20
70.4819864833
 11
152.7241883394
 21
70.4073676062
  0
LINE
  8
0
 62
7
  6
CONTINUOUS
 10
151.8328538351
 20
69.6000738066
 11
162.6363332974
 21
68.7365395558
  0
LINE
  8
0
 62
7
  6
CONTINUOUS
 10
153.3419691296
 20
70.1110216418
 11
154.4999442552
 21
70.0145399842
  0
LINE
  8
0
 62
7
  6
CONTINUOUS
 10
154.4999442552
 20
70.0145399842
 11
155.7679085672
 21
69.907241992
  0
POLYLINE
  8
0
 62
7
  6
CONTINUOUS
 66
1
 70
0
  0
VERTEX
  8
0
 62
7
  6
CONTINUOUS
 10
155.7679085672
 20
69.907241992
  0
VERTEX
  8
0
 62
7
  6
CONTINUOUS
 10
157.1116351391
 20
69.7915100287
  0
VERTEX
  8
0
 62
7
  6
CONTINUOUS
 10
157.8005924563
 20
69.7313863553
  0
SEQEND
  0
POLYLINE
  8
0
 62
7
  6
CONTINUOUS
 66
1
 70
0
  0
VERTEX
  8
0
 62
7
  6
CONTINUOUS
 10
159.2957917346
 20
69.0035528013
  0
VERTEX
  8
0
 62
7
  6
CONTINUOUS
 10
159.3350019625
 20
68.9985647071
  0
VERTEX
  8
0
 62
7
  6
CONTINUOUS
 10
159.3826827136
 20
68.9874339359
  0
VERTEX
  8
0
 62
7
  6
CONTINUOUS
 10
159.4135430873
 20
68.9772297123
  0
SEQEND
  0
POLYLINE
  8
0
 62
7
  6
CONTINUOUS
 66
1
 70
0
  0
VERTEX
  8
0
 62
7
  6
CONTINUOUS
 10
152.724183745
 20
70.4073677781
  0
VERTEX
  8
0
 62
7
  6
CONTINUOUS
 10
152.8122321111
 20
70.3948710774
  0
VERTEX
  8
0
 62
7
  6
CONTINUOUS
 10
152.8711763085
 20
70.3765656751
  0
SEQEND
  0
LINE
  8
0
 62
7
  6
CONTINUOUS
 10
162.7338939927
 20
68.7188801233
 11
166.3223326625
 21
67.6933000305
  0
POLYLINE
  8
0
 62
7
  6
CONTINUOUS
 66
1
 70
0
  0
VERTEX
  8
0
 62
7
  6
CONTINUOUS
 10
152.8711763085
 20
70.3765656751
  0
VERTEX
  8
0
 62
7
  6
CONTINUOUS
 10
152.8960514016
 20
70.3667697659
  0
VERTEX
  8
0
 62
7
  6
CONTINUOUS
 10
152.9726346589
 20
70.3287565269
  0
VERTEX
  8
0
 62
7
  6
CONTINUOUS
 10
153.0412343977
 20
70.2861552155
  0
VERTEX
  8
0
 62
7
  6
CONTINUOUS
 10
153.102040768
 20
70.2434237641
  0
VERTEX
  8
0
 62
7
  6
CONTINUOUS
 10
153.1569497379
 20
70.2031301651
  0
VERTEX
  8
0
 62
7
  6
CONTINUOUS
 10
153.2071443605
 20
70.1677594728
  0
VERTEX
  8
0
 62
7
  6
CONTINUOUS
 10
153.2535709458
 20
70.1396048205
  0
VERTEX
  8
0
 62
7
  6
CONTINUOUS
 10
153.2979355212
 20
70.1202111765
  0
VERTEX
  8
0
 62
7
  6
CONTINUOUS
 10
153.3419691296
 20
70.1110216418
  0
SEQEND
  0
LINE
  8
0
 62
7
  6
CONTINUOUS
 10
151.4976153397
 20
73.9739946987
 11
162.6363332974
 21
74.8643249391
  0
LINE
  8
0
 62
7
  6
CONTINUOUS
 10
168.3447314593
 20
78.3240236303
 11
166.5772923409
 21
78.2004322475
  0
LINE
  8
0
 62
7
  6
CONTINUOUS
 10
160.7667160255
 20
77.6210572475
 11
161.1148591179
 21
77.6210572475
  0
LINE
  8
0
 62
7
  6
CONTINUOUS
 10
160.3362999851
 20
77.7785570972
 11
160.6844430775
 21
77.7785570972
  0
LINE
  8
0
 62
7
  6
CONTINUOUS
 10
160.138871896
 20
77.9304322475
 11
159.9266496384
 21
77.9304322475
  0
LINE
  8
0
 62
7
  6
CONTINUOUS
 10
168.3447314593
 20
73.6768408646
 11
166.5772923409
 21
73.8004322475
  0
LINE
  8
0
 62
7
  6
CONTINUOUS
 10
159.4135179713
 20
68.977238983
 11
159.4706058431
 21
68.9520699464
  0
POLYLINE
  8
0
 62
7
  6
CONTINUOUS
 66
1
 70
0
  0
VERTEX
  8
0
 62
7
  6
CONTINUOUS
 10
152.8711937257
 20
70.3766505152
  0
VERTEX
  8
0
 62
7
  6
CONTINUOUS
 10
152.9538007635
 20
70.3369647253
  0
VERTEX
  8
0
 62
7
  6
CONTINUOUS
 10
153.0218129218
 20
70.2880492671
  0
VERTEX
  8
0
 62
7
  6
CONTINUOUS
 10
153.0807034
 20
70.2284648946
  0
VERTEX
  8
0
 62
7
  6
CONTINUOUS
 10
153.1288188897
 20
70.1598843676
  0
VERTEX
  8
0
 62
7
  6
CONTINUOUS
 10
153.1648085943
 20
70.0842330195
  0
SEQEND
  0
LINE
  8
0
 62
7
  6
CONTINUOUS
 10
159.4706058434
 20
192.2487945487
 11
159.4135179714
 21
192.2236255119
  0
LINE
  8
0
 62
7
  6
CONTINUOUS
 10
162.7338939927
 20
192.4819843716
 11
166.3223326625
 21
193.5075644644
  0
LINE
  8
0
 62
7
  6
CONTINUOUS
 10
160.138871896
 20
78.4704322475
 11
159.9266496384
 21
78.4704322475
  0
LINE
  8
0
 62
7
  6
CONTINUOUS
 10
159.8379235274
 20
78.8023072475
 11
160.3362999851
 21
78.8023072475
  0
LINE
  8
0
 62
7
  6
CONTINUOUS
 10
160.47222082
 20
78.8023072475
 11
160.7667160255
 21
78.8023072475
  0
LINE
  8
0
 62
7
  6
CONTINUOUS
 10
161.1148591179
 20
79.0385572475
 11
159.8379235274
 21
79.0385572475
  0
LINE
  8
0
 62
7
  6
CONTINUOUS
 10
160.0871117563
 20
79.3535571723
 11
160.4126013761
 21
79.3535571723
  0
LINE
  8
0
 62
7
  6
CONTINUOUS
 10
160.5032152977
 20
79.4323073226
 11
160.2909930402
 21
79.4323073226
  0
LINE
  8
0
 62
7
  6
CONTINUOUS
 10
160.8656709207
 20
79.4716821723
 11
160.6534486632
 21
79.4716821723
  0
LINE
  8
0
 62
7
  6
CONTINUOUS
 10
160.9336313381
 20
79.5110572475
 11
160.7214090806
 21
79.5110572475
  0
LINE
  8
0
 62
7
  6
CONTINUOUS
 10
160.5938291876
 20
79.5898071723
 11
160.3816069301
 21
79.5898071723
  0
LINE
  8
0
 62
7
  6
CONTINUOUS
 10
160.1777256461
 20
79.5898071723
 11
160.1097652287
 21
79.5898071723
  0
LINE
  8
0
 62
7
  6
CONTINUOUS
 10
161.024245228
 20
79.6291822475
 11
160.8120229705
 21
79.6291822475
  0
LINE
  8
0
 62
7
  6
CONTINUOUS
 10
160.2456860953
 20
79.6685573226
 11
160.0418048113
 21
79.6685573226
  0
LINE
  8
0
 62
7
  6
CONTINUOUS
 10
160.6391361325
 20
79.7473072475
 11
160.426913875
 21
79.7473072475
  0
LINE
  8
0
 62
7
  6
CONTINUOUS
 10
161.0922056454
 20
79.7866823226
 11
160.8799833879
 21
79.7866823226
  0
LINE
  8
0
 62
7
  6
CONTINUOUS
 10
160.208720108
 20
79.7866823226
 11
159.9964978505
 21
79.7866823226
  0
LINE
  8
0
 62
7
  6
CONTINUOUS
 10
160.661789605
 20
79.9441821723
 11
160.4495673475
 21
79.9441821723
  0
LINE
  8
0
 62
7
  6
CONTINUOUS
 10
160.1860666356
 20
79.9441821723
 11
159.973844378
 21
79.9441821723
  0
LINE
  8
0
 62
7
  6
CONTINUOUS
 10
161.1148591179
 20
79.9835572475
 11
160.9026368604
 21
79.9835572475
  0
LINE
  8
0
 62
7
  6
CONTINUOUS
 10
161.1148591179
 20
80.1804321723
 11
160.9026368604
 21
80.1804321723
  0
LINE
  8
0
 62
7
  6
CONTINUOUS
 10
160.661789605
 20
80.1804321723
 11
160.4495673475
 21
80.1804321723
  0
LINE
  8
0
 62
7
  6
CONTINUOUS
 10
160.1860666356
 20
80.2591823226
 11
159.973844378
 21
80.2591823226
  0
LINE
  8
0
 62
7
  6
CONTINUOUS
 10
160.6844430775
 20
80.2985571723
 11
160.47222082
 21
80.2985571723
  0
LINE
  8
0
 62
7
  6
CONTINUOUS
 10
161.0922056454
 20
80.3379322475
 11
160.8799833879
 21
80.3379322475
  0
LINE
  8
0
 62
7
  6
CONTINUOUS
 10
160.6987556081
 20
80.4166821723
 11
160.5175277649
 21
80.4166821723
  0
LINE
  8
0
 62
7
  6
CONTINUOUS
 10
160.208720108
 20
80.4166821723
 11
159.9964978505
 21
80.4166821723
  0
LINE
  8
0
 62
7
  6
CONTINUOUS
 10
160.5854881823
 20
80.4560572475
 11
160.6307951273
 21
80.4560572475
  0
LINE
  8
0
 62
7
  6
CONTINUOUS
 10
161.0468987005
 20
80.4954323226
 11
160.8346764429
 21
80.4954323226
  0
LINE
  8
0
 62
7
  6
CONTINUOUS
 10
160.2766805413
 20
80.5348071723
 11
160.0644582838
 21
80.5348071723
  0
LINE
  8
0
 62
7
  6
CONTINUOUS
 10
160.3446409587
 20
80.5741822475
 11
160.1324187012
 21
80.5741822475
  0
LINE
  8
0
 62
7
  6
CONTINUOUS
 10
160.9562848106
 20
80.6529321723
 11
160.7440625531
 21
80.6529321723
  0
LINE
  8
0
 62
7
  6
CONTINUOUS
 10
160.8656709207
 20
80.6923072475
 11
160.5628347098
 21
80.6923072475
  0
LINE
  8
0
 62
7
  6
CONTINUOUS
 10
160.3446409587
 20
80.8104322475
 11
160.1324187012
 21
80.8104322475
  0
LINE
  8
0
 62
7
  6
CONTINUOUS
 10
159.8379235274
 20
81.125432285
 11
161.1148591179
 21
81.125432285
  0
LINE
  8
0
 62
7
  6
CONTINUOUS
 10
161.1148591179
 20
81.361682285
 11
159.9964978505
 21
81.361682285
  0
LINE
  8
0
 62
7
  6
CONTINUOUS
 10
161.1148591179
 20
82.3460572475
 11
160.9026368604
 21
82.3460572475
  0
LINE
  8
0
 62
7
  6
CONTINUOUS
 10
159.8379235274
 20
82.4641822475
 11
160.7667160255
 21
82.4641822475
  0
LINE
  8
0
 62
7
  6
CONTINUOUS
 10
161.1148591179
 20
82.7004322475
 11
159.8379235274
 21
82.7004322475
  0
LINE
  8
0
 62
7
  6
CONTINUOUS
 10
168.3447314593
 20
82.0768408646
 11
166.5772923409
 21
82.2004322475
  0
POLYLINE
  8
0
 62
7
  6
CONTINUOUS
 66
1
 70
0
  0
VERTEX
  8
0
 62
7
  6
CONTINUOUS
 10
159.4706058431
 20
68.9520699464
  0
VERTEX
  8
0
 62
7
  6
CONTINUOUS
 10
159.5410808883
 20
68.9094395972
  0
VERTEX
  8
0
 62
7
  6
CONTINUOUS
 10
159.6113022428
 20
68.853491576
  0
VERTEX
  8
0
 62
7
  6
CONTINUOUS
 10
159.6626405441
 20
68.8032244944
  0
SEQEND
  0
LINE
  8
0
 62
7
  6
CONTINUOUS
 10
159.5410808883
 20
192.2914248977
 11
159.4706058434
 21
192.2487945487
  0
LINE
  8
0
 62
7
  6
CONTINUOUS
 10
168.3447314593
 20
86.7240236303
 11
166.5772923409
 21
86.6004322475
  0
LINE
  8
0
 62
7
  6
CONTINUOUS
 10
151.4976153397
 20
86.4268697962
 11
162.6363332974
 21
85.5365395558
  0
LINE
  8
0
 62
7
  6
CONTINUOUS
 10
162.7338939927
 20
85.5188801233
 11
166.3223326625
 21
84.4933000305
  0
LINE
  8
0
 62
7
  6
CONTINUOUS
 10
160.7440625531
 20
80.6529321723
 11
160.6534486632
 21
80.6923072475
  0
LINE
  8
0
 62
7
  6
CONTINUOUS
 10
160.9562848106
 20
80.6529321723
 11
160.8656709207
 21
80.6923072475
  0
POLYLINE
  8
0
 62
7
  6
CONTINUOUS
 66
1
 70
0
  0
VERTEX
  8
0
 62
7
  6
CONTINUOUS
 10
150.9039075249
 20
70.2990603261
  0
VERTEX
  8
0
 62
7
  6
CONTINUOUS
 10
150.8653867535
 20
70.3465402807
  0
VERTEX
  8
0
 62
7
  6
CONTINUOUS
 10
150.816605926
 20
70.4044179501
  0
VERTEX
  8
0
 62
7
  6
CONTINUOUS
 10
150.7769496115
 20
70.4452832937
  0
VERTEX
  8
0
 62
7
  6
CONTINUOUS
 10
150.7448731411
 20
70.4691987369
  0
VERTEX
  8
0
 62
7
  6
CONTINUOUS
 10
150.7190128065
 20
70.4773873492
  0
SEQEND
  0
LINE
  8
0
 62
7
  6
CONTINUOUS
 10
151.4976153397
 20
90.7739946987
 11
162.6363332974
 21
91.6643249391
  0
LINE
  8
0
 62
7
  6
CONTINUOUS
 10
168.3447314593
 20
90.4768408646
 11
166.5772923409
 21
90.6004322475
  0
LINE
  8
0
 62
7
  6
CONTINUOUS
 10
159.4135179713
 20
85.777238983
 11
159.4706058431
 21
85.7520699464
  0
LINE
  8
0
 62
7
  6
CONTINUOUS
 10
160.6307951273
 20
80.4560572475
 11
160.6987556081
 21
80.4166821723
  0
POLYLINE
  8
0
 62
7
  6
CONTINUOUS
 66
1
 70
0
  0
VERTEX
  8
0
 62
7
  6
CONTINUOUS
 10
159.4706058431
 20
85.7520699464
  0
VERTEX
  8
0
 62
7
  6
CONTINUOUS
 10
159.5410808883
 20
85.7094395972
  0
VERTEX
  8
0
 62
7
  6
CONTINUOUS
 10
159.6113022428
 20
85.653491576
  0
VERTEX
  8
0
 62
7
  6
CONTINUOUS
 10
159.6626405441
 20
85.6032244944
  0
SEQEND
  0
LINE
  8
0
 62
7
  6
CONTINUOUS
 10
159.6625422205
 20
68.80332906
 11
159.6626405441
 21
68.8032244944
  0
POLYLINE
  8
0
 62
7
  6
CONTINUOUS
 66
1
 70
0
  0
VERTEX
  8
0
 62
7
  6
CONTINUOUS
 10
150.9039123433
 20
70.2990543822
  0
VERTEX
  8
0
 62
7
  6
CONTINUOUS
 10
150.9529700554
 20
70.2263134461
  0
VERTEX
  8
0
 62
7
  6
CONTINUOUS
 10
150.9698463049
 20
70.1929320528
  0
SEQEND
  0
LINE
  8
0
 62
7
  6
CONTINUOUS
 10
159.6625422215
 20
192.3975354361
 11
159.6626405433
 21
192.3976399996
  0
POLYLINE
  8
0
 62
7
  6
CONTINUOUS
 66
1
 70
0
  0
VERTEX
  8
0
 62
7
  6
CONTINUOUS
 10
159.6626405433
 20
192.3976399996
  0
VERTEX
  8
0
 62
7
  6
CONTINUOUS
 10
159.6113022429
 20
192.3473729189
  0
VERTEX
  8
0
 62
7
  6
CONTINUOUS
 10
159.5410808883
 20
192.2914248977
  0
SEQEND
  0
LINE
  8
0
 62
7
  6
CONTINUOUS
 10
159.4706058434
 20
175.4487945487
 11
159.4135179714
 21
175.4236255119
  0
LINE
  8
0
 62
7
  6
CONTINUOUS
 10
162.7338939927
 20
175.6819843716
 11
166.3223326625
 21
176.7075644644
  0
LINE
  8
0
 62
7
  6
CONTINUOUS
 10
168.3447314593
 20
95.1240236303
 11
166.5772923409
 21
95.0004322475
  0
LINE
  8
0
 62
7
  6
CONTINUOUS
 10
159.9964978505
 20
79.4323073226
 11
160.0871117563
 21
79.3535571723
  0
LINE
  8
0
 62
7
  6
CONTINUOUS
 10
159.6625422231
 20
68.8033290625
 11
159.7065247956
 21
68.7488382621
  0
POLYLINE
  8
0
 62
7
  6
CONTINUOUS
 66
1
 70
0
  0
VERTEX
  8
0
 62
7
  6
CONTINUOUS
 10
150.969846236
 20
70.1929320208
  0
VERTEX
  8
0
 62
7
  6
CONTINUOUS
 10
151.0118663951
 20
70.1115839333
  0
VERTEX
  8
0
 62
7
  6
CONTINUOUS
 10
151.0941815365
 20
69.9902815524
  0
VERTEX
  8
0
 62
7
  6
CONTINUOUS
 10
151.1940807123
 20
69.881372697
  0
VERTEX
  8
0
 62
7
  6
CONTINUOUS
 10
151.3096484587
 20
69.787304913
  0
VERTEX
  8
0
 62
7
  6
CONTINUOUS
 10
151.4386733828
 20
69.710203837
  0
VERTEX
  8
0
 62
7
  6
CONTINUOUS
 10
151.5785598324
 20
69.6519288255
  0
VERTEX
  8
0
 62
7
  6
CONTINUOUS
 10
151.7265071799
 20
69.6139466852
  0
VERTEX
  8
0
 62
7
  6
CONTINUOUS
 10
151.8330194227
 20
69.6000619939
  0
SEQEND
  0
LINE
  8
0
 62
7
  6
CONTINUOUS
 10
159.5410808883
 20
175.4914248977
 11
159.4706058434
 21
175.4487945487
  0
LINE
  8
0
 62
7
  6
CONTINUOUS
 10
168.3447314593
 20
103.5240236303
 11
166.5772923409
 21
103.4004322475
  0
LINE
  8
0
 62
7
  6
CONTINUOUS
 10
168.3447314593
 20
98.8768408646
 11
166.5772923409
 21
99.0004322475
  0
LINE
  8
0
 62
7
  6
CONTINUOUS
 10
151.4976153397
 20
103.2268697962
 11
162.6363332974
 21
102.3365395558
  0
LINE
  8
0
 62
7
  6
CONTINUOUS
 10
159.6625422205
 20
85.60332906
 11
159.6626405441
 21
85.6032244944
  0
LINE
  8
0
 62
7
  6
CONTINUOUS
 10
160.1097652287
 20
79.5898071723
 11
160.0418048113
 21
79.6685573226
  0
LINE
  8
0
 62
7
  6
CONTINUOUS
 10
159.7065247956
 20
68.7488382621
 11
159.7515099707
 21
68.6676092261
  0
POLYLINE
  8
0
 62
7
  6
CONTINUOUS
 66
1
 70
0
  0
VERTEX
  8
0
 62
7
  6
CONTINUOUS
 10
159.7515099719
 20
192.5332552716
  0
VERTEX
  8
0
 62
7
  6
CONTINUOUS
 10
159.7065247969
 20
192.4520262349
  0
VERTEX
  8
0
 62
7
  6
CONTINUOUS
 10
159.6625422242
 20
192.3975354336
  0
SEQEND
  0
LINE
  8
0
 62
7
  6
CONTINUOUS
 10
159.6625422215
 20
175.5975354361
 11
159.6626405433
 21
175.5976399996
  0
POLYLINE
  8
0
 62
7
  6
CONTINUOUS
 66
1
 70
0
  0
VERTEX
  8
0
 62
7
  6
CONTINUOUS
 10
159.6626405433
 20
175.5976399996
  0
VERTEX
  8
0
 62
7
  6
CONTINUOUS
 10
159.6113022429
 20
175.5473729189
  0
VERTEX
  8
0
 62
7
  6
CONTINUOUS
 10
159.5410808883
 20
175.4914248977
  0
SEQEND
  0
LINE
  8
0
 62
7
  6
CONTINUOUS
 10
151.4976153397
 20
107.5739946987
 11
162.6363332974
 21
108.4643249391
  0
LINE
  8
0
 62
7
  6
CONTINUOUS
 10
168.3447314593
 20
107.2768408646
 11
166.5772923409
 21
107.4004322475
  0
LINE
  8
0
 62
7
  6
CONTINUOUS
 10
162.7338939927
 20
102.3188801233
 11
166.3223326625
 21
101.2933000305
  0
LINE
  8
0
 62
7
  6
CONTINUOUS
 10
159.4135179713
 20
102.577238983
 11
159.4706058431
 21
102.5520699464
  0
POLYLINE
  8
0
 62
7
  6
CONTINUOUS
 66
1
 70
0
  0
VERTEX
  8
0
 62
7
  6
CONTINUOUS
 10
159.4706058431
 20
102.5520699464
  0
VERTEX
  8
0
 62
7
  6
CONTINUOUS
 10
159.5410808883
 20
102.5094395972
  0
VERTEX
  8
0
 62
7
  6
CONTINUOUS
 10
159.6113022428
 20
102.453491576
  0
VERTEX
  8
0
 62
7
  6
CONTINUOUS
 10
159.6626405441
 20
102.4032244944
  0
SEQEND
  0
LINE
  8
0
 62
7
  6
CONTINUOUS
 10
159.6625422231
 20
85.6033290625
 11
159.7065247956
 21
85.5488382621
  0
LINE
  8
0
 62
7
  6
CONTINUOUS
 10
159.9058839527
 20
79.5898071723
 11
159.9964978505
 21
79.4323073226
  0
POLYLINE
  8
0
 62
7
  6
CONTINUOUS
 66
1
 70
0
  0
VERTEX
  8
0
 62
7
  6
CONTINUOUS
 10
153.1648085943
 20
70.0842330195
  0
VERTEX
  8
0
 62
7
  6
CONTINUOUS
 10
153.1914546251
 20
70.0047287777
  0
VERTEX
  8
0
 62
7
  6
CONTINUOUS
 10
153.2427522324
 20
69.8949178076
  0
VERTEX
  8
0
 62
7
  6
CONTINUOUS
 10
153.3146182547
 20
69.7895660927
  0
VERTEX
  8
0
 62
7
  6
CONTINUOUS
 10
153.406895536
 20
69.6919638891
  0
VERTEX
  8
0
 62
7
  6
CONTINUOUS
 10
153.5181354296
 20
69.6055683525
  0
VERTEX
  8
0
 62
7
  6
CONTINUOUS
 10
153.6467308893
 20
69.5328594259
  0
VERTEX
  8
0
 62
7
  6
CONTINUOUS
 10
153.7906853484
 20
69.4760249623
  0
VERTEX
  8
0
 62
7
  6
CONTINUOUS
 10
153.9478018682
 20
69.4371145431
  0
VERTEX
  8
0
 62
7
  6
CONTINUOUS
 10
154.0714259479
 20
69.4211401083
  0
SEQEND
  0
LINE
  8
0
 62
7
  6
CONTINUOUS
 10
159.4706058434
 20
158.6487945487
 11
159.4135179714
 21
158.6236255119
  0
LINE
  8
0
 62
7
  6
CONTINUOUS
 10
162.7338939927
 20
158.8819843716
 11
166.3223326625
 21
159.9075644644
  0
LINE
  8
0
 62
7
  6
CONTINUOUS
 10
168.3447314593
 20
111.9240236303
 11
166.5772923409
 21
111.8004322475
  0
LINE
  8
0
 62
7
  6
CONTINUOUS
 10
159.6625422205
 20
102.40332906
 11
159.6626405441
 21
102.4032244944
  0
LINE
  8
0
 62
7
  6
CONTINUOUS
 10
160.8346764429
 20
80.4954323226
 11
160.7440625531
 21
80.6529321723
  0
LINE
  8
0
 62
7
  6
CONTINUOUS
 10
161.0468987005
 20
80.4954323226
 11
160.9562848106
 21
80.6529321723
  0
LINE
  8
0
 62
7
  6
CONTINUOUS
 10
159.7065247956
 20
85.5488382621
 11
159.7515099707
 21
85.4676092261
  0
LINE
  8
0
 62
7
  6
CONTINUOUS
 10
159.7515099707
 20
68.6676092261
 11
159.7801449832
 21
68.5860254769
  0
LINE
  8
0
 62
7
  6
CONTINUOUS
 10
159.7801449739
 20
192.6148389842
 11
159.7515099719
 21
192.5332552716
  0
POLYLINE
  8
0
 62
7
  6
CONTINUOUS
 66
1
 70
0
  0
VERTEX
  8
0
 62
7
  6
CONTINUOUS
 10
159.7515099719
 20
175.7332552716
  0
VERTEX
  8
0
 62
7
  6
CONTINUOUS
 10
159.7065247969
 20
175.6520262349
  0
VERTEX
  8
0
 62
7
  6
CONTINUOUS
 10
159.6625422242
 20
175.5975354336
  0
SEQEND
  0
LINE
  8
0
 62
7
  6
CONTINUOUS
 10
159.6625422215
 20
158.7975354361
 11
159.6626405433
 21
158.7976399996
  0
POLYLINE
  8
0
 62
7
  6
CONTINUOUS
 66
1
 70
0
  0
VERTEX
  8
0
 62
7
  6
CONTINUOUS
 10
159.6626405433
 20
158.7976399996
  0
VERTEX
  8
0
 62
7
  6
CONTINUOUS
 10
159.6113022429
 20
158.7473729189
  0
VERTEX
  8
0
 62
7
  6
CONTINUOUS
 10
159.5410808883
 20
158.6914248977
  0
SEQEND
  0
LINE
  8
0
 62
7
  6
CONTINUOUS
 10
159.5410808883
 20
158.6914248977
 11
159.4706058434
 21
158.6487945487
  0
LINE
  8
0
 62
7
  6
CONTINUOUS
 10
168.3447314593
 20
120.3240236303
 11
166.5772923409
 21
120.2004322475
  0
LINE
  8
0
 62
7
  6
CONTINUOUS
 10
168.3447314593
 20
115.6768408646
 11
166.5772923409
 21
115.8004322475
  0
LINE
  8
0
 62
7
  6
CONTINUOUS
 10
151.4976153397
 20
120.0268697962
 11
162.6363332974
 21
119.1365395558
  0
LINE
  8
0
 62
7
  6
CONTINUOUS
 10
159.6625422231
 20
102.4033290625
 11
159.7065247956
 21
102.3488382621
  0
LINE
  8
0
 62
7
  6
CONTINUOUS
 10
160.0418048113
 20
79.6685573226
 11
159.9964978505
 21
79.7866823226
  0
LINE
  8
0
 62
7
  6
CONTINUOUS
 10
160.2498565813
 20
79.6794306813
 11
160.208720108
 21
79.7866823226
  0
LINE
  8
0
 62
7
  6
CONTINUOUS
 10
160.6987556081
 20
80.4166821723
 11
160.7440625531
 21
80.2985571723
  0
LINE
  8
0
 62
7
  6
CONTINUOUS
 10
159.7515099707
 20
85.4676092261
 11
159.7801449832
 21
85.3860254769
  0
LINE
  8
0
 62
7
  6
CONTINUOUS
 10
159.7801449739
 20
175.8148389842
 11
159.7515099719
 21
175.7332552716
  0
POLYLINE
  8
0
 62
7
  6
CONTINUOUS
 66
1
 70
0
  0
VERTEX
  8
0
 62
7
  6
CONTINUOUS
 10
159.7515099719
 20
158.9332552716
  0
VERTEX
  8
0
 62
7
  6
CONTINUOUS
 10
159.7065247969
 20
158.8520262349
  0
VERTEX
  8
0
 62
7
  6
CONTINUOUS
 10
159.6625422242
 20
158.7975354336
  0
SEQEND
  0
LINE
  8
0
 62
7
  6
CONTINUOUS
 10
151.4976153397
 20
124.3739946987
 11
162.6363332974
 21
125.2643249391
  0
LINE
  8
0
 62
7
  6
CONTINUOUS
 10
168.3447314593
 20
124.0768408646
 11
166.5772923409
 21
124.2004322475
  0
LINE
  8
0
 62
7
  6
CONTINUOUS
 10
162.7338939927
 20
119.1188801233
 11
166.3223326625
 21
118.0933000305
  0
LINE
  8
0
 62
7
  6
CONTINUOUS
 10
159.4135179713
 20
119.377238983
 11
159.4706058431
 21
119.3520699464
  0
POLYLINE
  8
0
 62
7
  6
CONTINUOUS
 66
1
 70
0
  0
VERTEX
  8
0
 62
7
  6
CONTINUOUS
 10
159.4706058431
 20
119.3520699464
  0
VERTEX
  8
0
 62
7
  6
CONTINUOUS
 10
159.5410808883
 20
119.3094395972
  0
VERTEX
  8
0
 62
7
  6
CONTINUOUS
 10
159.6113022428
 20
119.253491576
  0
VERTEX
  8
0
 62
7
  6
CONTINUOUS
 10
159.6626405441
 20
119.2032244944
  0
SEQEND
  0
LINE
  8
0
 62
7
  6
CONTINUOUS
 10
159.6625422205
 20
119.20332906
 11
159.6626405441
 21
119.2032244944
  0
LINE
  8
0
 62
7
  6
CONTINUOUS
 10
159.7065247956
 20
102.3488382621
 11
159.7515099707
 21
102.2676092261
  0
LINE
  8
0
 62
7
  6
CONTINUOUS
 10
159.8605770018
 20
79.7473072475
 11
159.9058839527
 21
79.5898071723
  0
LINE
  8
0
 62
7
  6
CONTINUOUS
 10
160.8799833879
 20
80.3379322475
 11
160.8346764429
 21
80.4954323226
  0
LINE
  8
0
 62
7
  6
CONTINUOUS
 10
161.0922056454
 20
80.3379322475
 11
161.0468987005
 21
80.4954323226
  0
POLYLINE
  8
0
 62
7
  6
CONTINUOUS
 66
1
 70
0
  0
VERTEX
  8
0
 62
7
  6
CONTINUOUS
 10
159.7801451675
 20
68.586024803
  0
VERTEX
  8
0
 62
7
  6
CONTINUOUS
 10
159.801418926
 20
68.4724581263
  0
VERTEX
  8
0
 62
7
  6
CONTINUOUS
 10
159.8069016378
 20
68.3700032585
  0
SEQEND
  0
POLYLINE
  8
0
 62
7
  6
CONTINUOUS
 66
1
 70
0
  0
VERTEX
  8
0
 62
7
  6
CONTINUOUS
 10
150.8801816109
 20
205.0016814772
  0
VERTEX
  8
0
 62
7
  6
CONTINUOUS
 10
150.8841165833
 20
204.9142101349
  0
VERTEX
  8
0
 62
7
  6
CONTINUOUS
 10
150.907312682
 20
204.7733460161
  0
VERTEX
  8
0
 62
7
  6
CONTINUOUS
 10
150.9510081054
 20
204.6366850135
  0
VERTEX
  8
0
 62
7
  6
CONTINUOUS
 10
151.014546059
 20
204.5069632223
  0
VERTEX
  8
0
 62
7
  6
CONTINUOUS
 10
151.0968842161
 20
204.3868798555
  0
VERTEX
  8
0
 62
7
  6
CONTINUOUS
 10
151.1966632597
 20
204.278946841
  0
VERTEX
  8
0
 62
7
  6
CONTINUOUS
 10
151.3121283893
 20
204.1855736125
  0
VERTEX
  8
0
 62
7
  6
CONTINUOUS
 10
151.44095646
 20
204.1090570792
  0
VERTEX
  8
0
 62
7
  6
CONTINUOUS
 10
151.5805175025
 20
204.0512754775
  0
VERTEX
  8
0
 62
7
  6
CONTINUOUS
 10
151.7278872499
 20
204.0136968927
  0
VERTEX
  8
0
 62
7
  6
CONTINUOUS
 10
151.8330419406
 20
204.0000601671
  0
SEQEND
  0
LINE
  8
0
 62
7
  6
CONTINUOUS
 10
150.5772923409
 20
198.9771739648
 11
150.5772923409
 21
196.6236905301
  0
LINE
  8
0
 62
7
  6
CONTINUOUS
 10
150.5772923409
 20
182.1771739648
 11
150.5772923409
 21
179.8236905301
  0
LINE
  8
0
 62
7
  6
CONTINUOUS
 10
150.5772923409
 20
165.3771739648
 11
150.5772923409
 21
163.0236905301
  0
LINE
  8
0
 62
7
  6
CONTINUOUS
 10
150.5772923409
 20
148.5771739648
 11
150.5772923409
 21
146.2236905301
  0
LINE
  8
0
 62
7
  6
CONTINUOUS
 10
150.5772923409
 20
131.7771739648
 11
150.5772923409
 21
129.4236905301
  0
LINE
  8
0
 62
7
  6
CONTINUOUS
 10
150.5772923409
 20
114.9771739648
 11
150.5772923409
 21
112.6236905301
  0
LINE
  8
0
 62
7
  6
CONTINUOUS
 10
150.5772923409
 20
98.1771739648
 11
150.5772923409
 21
95.8236905301
  0
LINE
  8
0
 62
7
  6
CONTINUOUS
 10
150.5772923409
 20
81.3771739648
 11
150.5772923409
 21
79.0236905301
  0
LINE
  8
0
 62
7
  6
CONTINUOUS
 10
150.5772923409
 20
63.9354422426
 11
150.5772923409
 21
60.3004322475
  0
LINE
  8
0
 62
7
  6
CONTINUOUS
 10
150.5772923409
 20
70.6236905301
 11
150.5772923409
 21
72.9771739648
  0
LINE
  8
0
 62
7
  6
CONTINUOUS
 10
150.5772923409
 20
87.4236905301
 11
150.5772923409
 21
89.7771739648
  0
LINE
  8
0
 62
7
  6
CONTINUOUS
 10
150.5772923409
 20
104.2236905301
 11
150.5772923409
 21
106.5771739648
  0
LINE
  8
0
 62
7
  6
CONTINUOUS
 10
150.5772923409
 20
121.0236905301
 11
150.5772923409
 21
123.3771739648
  0
LINE
  8
0
 62
7
  6
CONTINUOUS
 10
150.5772923409
 20
137.8236905301
 11
150.5772923409
 21
140.1771739648
  0
LINE
  8
0
 62
7
  6
CONTINUOUS
 10
150.5772923409
 20
154.6236905301
 11
150.5772923409
 21
156.9771739648
  0
LINE
  8
0
 62
7
  6
CONTINUOUS
 10
150.5772923409
 20
171.4236905301
 11
150.5772923409
 21
173.7771739648
  0
LINE
  8
0
 62
7
  6
CONTINUOUS
 10
150.5772923409
 20
188.2236905301
 11
150.5772923409
 21
190.5771739648
  0
LINE
  8
0
 62
7
  6
CONTINUOUS
 10
150.5772923409
 20
205.6654222523
 11
150.5772923409
 21
209.3004322475
  0
LINE
  8
0
 62
7
  6
CONTINUOUS
 10
150.6272923409
 20
205.6619259117
 11
150.6272923409
 21
190.8763144544
  0
LINE
  8
0
 62
7
  6
CONTINUOUS
 10
150.6272923409
 20
187.9249701471
 11
150.6272923409
 21
174.0763144544
  0
LINE
  8
0
 62
7
  6
CONTINUOUS
 10
150.6272923409
 20
171.1249701471
 11
150.6272923409
 21
157.2763144544
  0
LINE
  8
0
 62
7
  6
CONTINUOUS
 10
150.6272923409
 20
154.3249701471
 11
150.6272923409
 21
140.4763144544
  0
LINE
  8
0
 62
7
  6
CONTINUOUS
 10
150.6272923409
 20
137.5249701471
 11
150.6272923409
 21
123.6763144544
  0
LINE
  8
0
 62
7
  6
CONTINUOUS
 10
150.6272923409
 20
120.7249701471
 11
150.6272923409
 21
106.8763144544
  0
LINE
  8
0
 62
7
  6
CONTINUOUS
 10
150.6272923409
 20
103.9249701471
 11
150.6272923409
 21
90.0763144544
  0
LINE
  8
0
 62
7
  6
CONTINUOUS
 10
150.6272923409
 20
87.1249701471
 11
150.6272923409
 21
73.2763144544
  0
LINE
  8
0
 62
7
  6
CONTINUOUS
 10
150.6272923409
 20
70.480592828
 11
150.6272923409
 21
60.3004322475
  0
LINE
  8
0
 62
7
  6
CONTINUOUS
 10
150.8801777568
 20
205.177821993
 11
150.8801777568
 21
205.0016814771
  0
LINE
  8
0
 62
7
  6
CONTINUOUS
 10
153.1467751266
 20
204.6510389583
 11
153.1467751266
 21
205.0193595882
  0
LINE
  8
0
 62
7
  6
CONTINUOUS
 10
159.7801449739
 20
159.0148389842
 11
159.7515099719
 21
158.9332552716
  0
LINE
  8
0
 62
7
  6
CONTINUOUS
 10
159.5410808883
 20
141.8914248977
 11
159.4706058434
 21
141.8487945487
  0
LINE
  8
0
 62
7
  6
CONTINUOUS
 10
159.4706058434
 20
141.8487945487
 11
159.4135179714
 21
141.8236255119
  0
LINE
  8
0
 62
7
  6
CONTINUOUS
 10
162.7338939927
 20
142.0819843716
 11
166.3223326625
 21
143.1075644644
  0
LINE
  8
0
 62
7
  6
CONTINUOUS
 10
168.3447314593
 20
128.7240236303
 11
166.5772923409
 21
128.6004322475
  0
LINE
  8
0
 62
7
  6
CONTINUOUS
 10
159.6625422231
 20
119.2033290625
 11
159.7065247956
 21
119.1488382621
  0
LINE
  8
0
 62
7
  6
CONTINUOUS
 10
159.7065247956
 20
119.1488382621
 11
159.7515099707
 21
119.0676092261
  0
LINE
  8
0
 62
7
  6
CONTINUOUS
 10
159.7515099707
 20
102.2676092261
 11
159.7801449832
 21
102.1860254769
  0
LINE
  8
0
 62
7
  6
CONTINUOUS
 10
160.7440625531
 20
80.2985571723
 11
160.7667160255
 21
80.1804321723
  0
POLYLINE
  8
0
 62
7
  6
CONTINUOUS
 66
1
 70
0
  0
VERTEX
  8
0
 62
7
  6
CONTINUOUS
 10
159.7801451675
 20
85.386024803
  0
VERTEX
  8
0
 62
7
  6
CONTINUOUS
 10
159.801418926
 20
85.2724581263
  0
VERTEX
  8
0
 62
7
  6
CONTINUOUS
 10
159.8069016378
 20
85.1700032585
  0
SEQEND
  0
POLYLINE
  8
0
 62
7
  6
CONTINUOUS
 66
1
 70
0
  0
VERTEX
  8
0
 62
7
  6
CONTINUOUS
 10
159.7801451675
 20
102.186024803
  0
VERTEX
  8
0
 62
7
  6
CONTINUOUS
 10
159.801418926
 20
102.0724581263
  0
VERTEX
  8
0
 62
7
  6
CONTINUOUS
 10
159.8069016378
 20
101.9700032585
  0
SEQEND
  0
LINE
  8
0
 62
7
  6
CONTINUOUS
 10
159.9964978505
 20
79.7866823226
 11
159.973844378
 21
79.9441821723
  0
LINE
  8
0
 62
7
  6
CONTINUOUS
 10
160.208720108
 20
79.7866823226
 11
160.1860666356
 21
79.9441821723
  0
LINE
  8
0
 62
7
  6
CONTINUOUS
 10
160.9026368604
 20
80.1804321723
 11
160.8799833879
 21
80.3379322475
  0
LINE
  8
0
 62
7
  6
CONTINUOUS
 10
161.1148591179
 20
80.1804321723
 11
161.0922056454
 21
80.3379322475
  0
LINE
  8
0
 62
7
  6
CONTINUOUS
 10
159.8379235274
 20
79.9441821723
 11
159.8605770018
 21
79.7473072475
  0
POLYLINE
  8
0
 62
7
  6
CONTINUOUS
 66
1
 70
0
  0
VERTEX
  8
0
 62
7
  6
CONTINUOUS
 10
153.1467790114
 20
204.6510389589
  0
VERTEX
  8
0
 62
7
  6
CONTINUOUS
 10
153.148186603
 20
204.6071934462
  0
VERTEX
  8
0
 62
7
  6
CONTINUOUS
 10
153.164458485
 20
204.4950092871
  0
VERTEX
  8
0
 62
7
  6
CONTINUOUS
 10
153.1992203074
 20
204.3847130768
  0
VERTEX
  8
0
 62
7
  6
CONTINUOUS
 10
153.2527070994
 20
204.277938534
  0
VERTEX
  8
0
 62
7
  6
CONTINUOUS
 10
153.3250921419
 20
204.1768180605
  0
VERTEX
  8
0
 62
7
  6
CONTINUOUS
 10
153.4165957882
 20
204.0832944181
  0
VERTEX
  8
0
 62
7
  6
CONTINUOUS
 10
153.5263234912
 20
204.0001803618
  0
VERTEX
  8
0
 62
7
  6
CONTINUOUS
 10
153.652622443
 20
203.9300724418
  0
VERTEX
  8
0
 62
7
  6
CONTINUOUS
 10
153.7940695331
 20
203.8749491697
  0
VERTEX
  8
0
 62
7
  6
CONTINUOUS
 10
153.9487436346
 20
203.8369457179
  0
VERTEX
  8
0
 62
7
  6
CONTINUOUS
 10
154.0714725946
 20
203.8211364661
  0
SEQEND
  0
LINE
  8
0
 62
7
  6
CONTINUOUS
 10
158.5773845528
 20
60.2867349176
 11
158.5772923409
 21
60.3003140775
  0
LINE
  8
DEFAULT_1
 62
2
  6
CENTER
 10
158.5772923409
 20
192.1398812352
 11
158.5772923409
 21
186.6609832597
  0
LINE
  8
DEFAULT_1
 62
2
  6
CENTER
 10
158.5772923409
 20
175.3398812352
 11
158.5772923409
 21
169.8609832597
  0
LINE
  8
DEFAULT_1
 62
2
  6
CENTER
 10
158.5772923409
 20
158.5398812352
 11
158.5772923409
 21
153.0609832597
  0
LINE
  8
DEFAULT_1
 62
2
  6
CENTER
 10
158.5772923409
 20
141.7398812352
 11
158.5772923409
 21
136.2609832597
  0
LINE
  8
DEFAULT_1
 62
2
  6
CENTER
 10
158.5772923409
 20
124.9398812352
 11
158.5772923409
 21
119.4609832597
  0
LINE
  8
DEFAULT_1
 62
2
  6
CENTER
 10
158.5772923409
 20
108.1398812352
 11
158.5772923409
 21
102.6609832597
  0
LINE
  8
DEFAULT_1
 62
2
  6
CENTER
 10
158.5772923409
 20
91.3398812352
 11
158.5772923409
 21
85.8609832597
  0
LINE
  8
DEFAULT_1
 62
2
  6
CENTER
 10
158.5772923409
 20
74.5398812352
 11
158.5772923409
 21
69.0609832597
  0
LINE
  8
0
 62
7
  6
CONTINUOUS
 10
158.5772923409
 20
203.4609832597
 11
158.5772923409
 21
192.1398812352
  0
LINE
  8
0
 62
7
  6
CONTINUOUS
 10
158.5772923409
 20
186.6609832597
 11
158.5772923409
 21
175.3398812352
  0
LINE
  8
0
 62
7
  6
CONTINUOUS
 10
158.5772923409
 20
169.8609832597
 11
158.5772923409
 21
158.5398812352
  0
LINE
  8
0
 62
7
  6
CONTINUOUS
 10
158.5772923409
 20
153.0609832597
 11
158.5772923409
 21
141.7398812352
  0
LINE
  8
0
 62
7
  6
CONTINUOUS
 10
158.5772923409
 20
136.2609832597
 11
158.5772923409
 21
124.9398812352
  0
LINE
  8
0
 62
7
  6
CONTINUOUS
 10
158.5772923409
 20
119.4609832597
 11
158.5772923409
 21
108.1398812352
  0
LINE
  8
0
 62
7
  6
CONTINUOUS
 10
158.5772923409
 20
102.6609832597
 11
158.5772923409
 21
91.3398812352
  0
LINE
  8
0
 62
7
  6
CONTINUOUS
 10
158.5772923409
 20
85.8609832597
 11
158.5772923409
 21
74.5398812352
  0
LINE
  8
0
 62
7
  6
CONTINUOUS
 10
158.5772923409
 20
69.0609832597
 11
158.5772923409
 21
60.3007352217
  0
LINE
  8
DEFAULT_1
 62
2
  6
CENTER
 10
158.5772923409
 20
203.4609832597
 11
158.5772923409
 21
212.3004322475
  0
POLYLINE
  8
0
 62
7
  6
CONTINUOUS
 66
1
 70
0
  0
VERTEX
  8
0
 62
7
  6
CONTINUOUS
 10
159.8069016375
 20
192.8309052868
  0
VERTEX
  8
0
 62
7
  6
CONTINUOUS
 10
159.8012300612
 20
192.7267197621
  0
VERTEX
  8
0
 62
7
  6
CONTINUOUS
 10
159.7801346943
 20
192.6148013998
  0
SEQEND
  0
POLYLINE
  8
0
 62
7
  6
CONTINUOUS
 66
1
 70
0
  0
VERTEX
  8
0
 62
7
  6
CONTINUOUS
 10
159.8069016375
 20
176.0309052868
  0
VERTEX
  8
0
 62
7
  6
CONTINUOUS
 10
159.8012300612
 20
175.9267197621
  0
VERTEX
  8
0
 62
7
  6
CONTINUOUS
 10
159.7801346943
 20
175.8148013998
  0
SEQEND
  0
POLYLINE
  8
0
 62
7
  6
CONTINUOUS
 66
1
 70
0
  0
VERTEX
  8
0
 62
7
  6
CONTINUOUS
 10
159.8069016375
 20
159.2309052868
  0
VERTEX
  8
0
 62
7
  6
CONTINUOUS
 10
159.8012300612
 20
159.1267197621
  0
VERTEX
  8
0
 62
7
  6
CONTINUOUS
 10
159.7801346943
 20
159.0148013998
  0
SEQEND
  0
LINE
  8
0
 62
7
  6
CONTINUOUS
 10
159.7801449739
 20
142.2148389842
 11
159.7515099719
 21
142.1332552716
  0
POLYLINE
  8
0
 62
7
  6
CONTINUOUS
 66
1
 70
0
  0
VERTEX
  8
0
 62
7
  6
CONTINUOUS
 10
159.7515099719
 20
142.1332552716
  0
VERTEX
  8
0
 62
7
  6
CONTINUOUS
 10
159.7065247969
 20
142.0520262349
  0
VERTEX
  8
0
 62
7
  6
CONTINUOUS
 10
159.6625422242
 20
141.9975354336
  0
SEQEND
  0
LINE
  8
0
 62
7
  6
CONTINUOUS
 10
159.6625422215
 20
141.9975354361
 11
159.6626405433
 21
141.9976399996
  0
POLYLINE
  8
0
 62
7
  6
CONTINUOUS
 66
1
 70
0
  0
VERTEX
  8
0
 62
7
  6
CONTINUOUS
 10
159.6626405433
 20
141.9976399996
  0
VERTEX
  8
0
 62
7
  6
CONTINUOUS
 10
159.6113022429
 20
141.9473729189
  0
VERTEX
  8
0
 62
7
  6
CONTINUOUS
 10
159.5410808883
 20
141.8914248977
  0
SEQEND
  0
LINE
  8
0
 62
7
  6
CONTINUOUS
 10
168.3447314593
 20
132.4768408646
 11
166.5772923409
 21
132.6004322475
  0
LINE
  8
0
 62
7
  6
CONTINUOUS
 10
159.7515099707
 20
119.0676092261
 11
159.7801449832
 21
118.9860254769
  0
POLYLINE
  8
0
 62
7
  6
CONTINUOUS
 66
1
 70
0
  0
VERTEX
  8
0
 62
7
  6
CONTINUOUS
 10
159.7801451675
 20
118.986024803
  0
VERTEX
  8
0
 62
7
  6
CONTINUOUS
 10
159.801418926
 20
118.8724581263
  0
VERTEX
  8
0
 62
7
  6
CONTINUOUS
 10
159.8069016378
 20
118.7700032585
  0
SEQEND
  0
LINE
  8
0
 62
7
  6
CONTINUOUS
 10
159.8069016374
 20
75.2309052586
 11
159.8069016378
 21
75.2308335423
  0
LINE
  8
0
 62
7
  6
CONTINUOUS
 10
159.8069016374
 20
92.0309052586
 11
159.8069016378
 21
92.0308335423
  0
LINE
  8
0
 62
7
  6
CONTINUOUS
 10
159.8069016374
 20
108.8309052586
 11
159.8069016378
 21
108.8308335423
  0
LINE
  8
0
 62
7
  6
CONTINUOUS
 10
159.8069016374
 20
125.6309052586
 11
159.8069016378
 21
125.6308335423
  0
LINE
  8
0
 62
7
  6
CONTINUOUS
 10
159.8069016374
 20
142.4309052586
 11
159.8069016378
 21
142.4308335423
  0
LINE
  8
0
 62
7
  6
CONTINUOUS
 10
159.8069016374
 20
159.2309052586
 11
159.8069016378
 21
159.2308335423
  0
LINE
  8
0
 62
7
  6
CONTINUOUS
 10
159.8069016374
 20
176.0309052586
 11
159.8069016378
 21
176.0308335423
  0
LINE
  8
0
 62
7
  6
CONTINUOUS
 10
159.8069016374
 20
192.8309052586
 11
159.8069016378
 21
192.8308335423
  0
LINE
  8
0
 62
7
  6
CONTINUOUS
 10
159.8379235274
 20
82.7004322475
 11
159.8379235274
 21
82.4641822475
  0
LINE
  8
0
 62
7
  6
CONTINUOUS
 10
159.8379235274
 20
81.479807285
 11
159.8379235274
 21
81.125432285
  0
LINE
  8
0
 62
7
  6
CONTINUOUS
 10
159.8379235274
 20
80.2591823226
 11
159.8379235274
 21
79.9441821723
  0
LINE
  8
0
 62
7
  6
CONTINUOUS
 10
159.8379235274
 20
79.0385572475
 11
159.8379235274
 21
78.8023072475
  0
LINE
  8
0
 62
7
  6
CONTINUOUS
 10
159.973844378
 20
79.9441821723
 11
159.973844378
 21
80.2591823226
  0
LINE
  8
0
 62
7
  6
CONTINUOUS
 10
160.1324187012
 20
80.5741822475
 11
160.1324187012
 21
80.8104322475
  0
LINE
  8
0
 62
7
  6
CONTINUOUS
 10
160.1860666356
 20
79.9441821723
 11
160.1860666356
 21
80.2591823226
  0
LINE
  8
0
 62
7
  6
CONTINUOUS
 10
160.3136465127
 20
80.1804321723
 11
160.3136465127
 21
79.9441821723
  0
LINE
  8
0
 62
7
  6
CONTINUOUS
 10
160.3362999851
 20
78.8023072475
 11
160.3362999851
 21
77.7785570972
  0
LINE
  8
0
 62
7
  6
CONTINUOUS
 10
160.3446409587
 20
80.5741822475
 11
160.3446409587
 21
80.8104322475
  0
LINE
  8
0
 62
7
  6
CONTINUOUS
 10
160.4495673475
 20
79.9441821723
 11
160.4495673475
 21
80.1804321723
  0
LINE
  8
0
 62
7
  6
CONTINUOUS
 10
160.47222082
 20
77.7785570972
 11
160.47222082
 21
78.8023072475
  0
LINE
  8
0
 62
7
  6
CONTINUOUS
 10
160.6534486632
 20
79.7079321723
 11
160.6534486632
 21
79.4716821723
  0
LINE
  8
0
 62
7
  6
CONTINUOUS
 10
160.661789605
 20
79.9441821723
 11
160.661789605
 21
80.1804321723
  0
LINE
  8
0
 62
7
  6
CONTINUOUS
 10
160.6844430775
 20
77.7785570972
 11
160.6844430775
 21
78.8023072475
  0
LINE
  8
0
 62
7
  6
CONTINUOUS
 10
160.7667160255
 20
80.1804321723
 11
160.7667160255
 21
79.9441821723
  0
LINE
  8
0
 62
7
  6
CONTINUOUS
 10
160.7667160255
 20
78.8023072475
 11
160.7667160255
 21
77.6210572475
  0
LINE
  8
0
 62
7
  6
CONTINUOUS
 10
160.9026368604
 20
77.6210572475
 11
160.9026368604
 21
79.0385572475
  0
LINE
  8
0
 62
7
  6
CONTINUOUS
 10
160.9026368604
 20
79.9835572475
 11
160.9026368604
 21
80.1804321723
  0
LINE
  8
0
 62
7
  6
CONTINUOUS
 10
160.9026368604
 20
81.125432285
 11
160.9026368604
 21
81.361682285
  0
LINE
  8
0
 62
7
  6
CONTINUOUS
 10
160.9026368604
 20
82.3460572475
 11
160.9026368604
 21
82.7004322475
  0
LINE
  8
0
 62
7
  6
CONTINUOUS
 10
161.1148591179
 20
77.6210572475
 11
161.1148591179
 21
79.0385572475
  0
LINE
  8
0
 62
7
  6
CONTINUOUS
 10
161.1148591179
 20
79.9835572475
 11
161.1148591179
 21
80.1804321723
  0
LINE
  8
0
 62
7
  6
CONTINUOUS
 10
161.1148591179
 20
81.125432285
 11
161.1148591179
 21
81.361682285
  0
LINE
  8
0
 62
7
  6
CONTINUOUS
 10
161.1148591179
 20
82.3460572475
 11
161.1148591179
 21
82.7004322475
  0
POLYLINE
  8
0
 62
7
  6
CONTINUOUS
 66
1
 70
0
  0
VERTEX
  8
0
 62
7
  6
CONTINUOUS
 10
159.8069016375
 20
142.4309052868
  0
VERTEX
  8
0
 62
7
  6
CONTINUOUS
 10
159.8012300612
 20
142.3267197621
  0
VERTEX
  8
0
 62
7
  6
CONTINUOUS
 10
159.7801346943
 20
142.2148013998
  0
SEQEND
  0
POLYLINE
  8
0
 62
7
  6
CONTINUOUS
 66
1
 70
0
  0
VERTEX
  8
0
 62
7
  6
CONTINUOUS
 10
159.8069016375
 20
125.6309052868
  0
VERTEX
  8
0
 62
7
  6
CONTINUOUS
 10
159.8012300612
 20
125.5267197621
  0
VERTEX
  8
0
 62
7
  6
CONTINUOUS
 10
159.7801346943
 20
125.4148013998
  0
SEQEND
  0
POLYLINE
  8
0
 62
7
  6
CONTINUOUS
 66
1
 70
0
  0
VERTEX
  8
0
 62
7
  6
CONTINUOUS
 10
159.8069016375
 20
108.8309052868
  0
VERTEX
  8
0
 62
7
  6
CONTINUOUS
 10
159.8012300612
 20
108.7267197621
  0
VERTEX
  8
0
 62
7
  6
CONTINUOUS
 10
159.7801346943
 20
108.6148013998
  0
SEQEND
  0
POLYLINE
  8
0
 62
7
  6
CONTINUOUS
 66
1
 70
0
  0
VERTEX
  8
0
 62
7
  6
CONTINUOUS
 10
159.8069016375
 20
92.0309052868
  0
VERTEX
  8
0
 62
7
  6
CONTINUOUS
 10
159.8012300612
 20
91.9267197621
  0
VERTEX
  8
0
 62
7
  6
CONTINUOUS
 10
159.7801346943
 20
91.8148013998
  0
SEQEND
  0
POLYLINE
  8
0
 62
7
  6
CONTINUOUS
 66
1
 70
0
  0
VERTEX
  8
0
 62
7
  6
CONTINUOUS
 10
159.8069016375
 20
75.2309052868
  0
VERTEX
  8
0
 62
7
  6
CONTINUOUS
 10
159.8012300612
 20
75.1267197621
  0
VERTEX
  8
0
 62
7
  6
CONTINUOUS
 10
159.7801346943
 20
75.0148013998
  0
SEQEND
  0
LINE
  8
0
 62
7
  6
CONTINUOUS
 10
159.7801449739
 20
125.4148389842
 11
159.7515099719
 21
125.3332552716
  0
POLYLINE
  8
0
 62
7
  6
CONTINUOUS
 66
1
 70
0
  0
VERTEX
  8
0
 62
7
  6
CONTINUOUS
 10
159.7515099719
 20
125.3332552716
  0
VERTEX
  8
0
 62
7
  6
CONTINUOUS
 10
159.7065247969
 20
125.2520262349
  0
VERTEX
  8
0
 62
7
  6
CONTINUOUS
 10
159.6625422242
 20
125.1975354336
  0
SEQEND
  0
LINE
  8
0
 62
7
  6
CONTINUOUS
 10
168.3447314593
 20
137.1240236303
 11
166.5772923409
 21
137.0004322475
  0
LINE
  8
0
 62
7
  6
CONTINUOUS
 10
151.4976153397
 20
136.8268697962
 11
162.6363332974
 21
135.9365395558
  0
LINE
  8
0
 62
7
  6
CONTINUOUS
 10
162.7338939927
 20
135.9188801233
 11
166.3223326625
 21
134.8933000305
  0
LINE
  8
0
 62
7
  6
CONTINUOUS
 10
159.4135179713
 20
136.177238983
 11
159.4706058431
 21
136.1520699464
  0
POLYLINE
  8
0
 62
7
  6
CONTINUOUS
 66
1
 70
0
  0
VERTEX
  8
0
 62
7
  6
CONTINUOUS
 10
159.4706058431
 20
136.1520699464
  0
VERTEX
  8
0
 62
7
  6
CONTINUOUS
 10
159.5410808883
 20
136.1094395972
  0
VERTEX
  8
0
 62
7
  6
CONTINUOUS
 10
159.6113022428
 20
136.053491576
  0
VERTEX
  8
0
 62
7
  6
CONTINUOUS
 10
159.6626405441
 20
136.0032244944
  0
SEQEND
  0
LINE
  8
0
 62
7
  6
CONTINUOUS
 10
159.6625422205
 20
136.00332906
 11
159.6626405441
 21
136.0032244944
  0
LINE
  8
0
 62
7
  6
CONTINUOUS
 10
159.6625422231
 20
136.0033290625
 11
159.7065247956
 21
135.9488382621
  0
LINE
  8
0
 62
7
  6
CONTINUOUS
 10
159.7065247956
 20
135.9488382621
 11
159.7515099707
 21
135.8676092261
  0
LINE
  8
0
 62
7
  6
CONTINUOUS
 10
159.7515099707
 20
135.8676092261
 11
159.7801449832
 21
135.7860254769
  0
POLYLINE
  8
0
 62
7
  6
CONTINUOUS
 66
1
 70
0
  0
VERTEX
  8
0
 62
7
  6
CONTINUOUS
 10
159.7801451675
 20
135.786024803
  0
VERTEX
  8
0
 62
7
  6
CONTINUOUS
 10
159.801418926
 20
135.6724581263
  0
VERTEX
  8
0
 62
7
  6
CONTINUOUS
 10
159.8069016378
 20
135.5700032585
  0
SEQEND
  0
POLYLINE
  8
0
 62
7
  6
CONTINUOUS
 66
1
 70
0
  0
VERTEX
  8
0
 62
7
  6
CONTINUOUS
 10
159.7801451675
 20
152.586024803
  0
VERTEX
  8
0
 62
7
  6
CONTINUOUS
 10
159.801418926
 20
152.4724581263
  0
VERTEX
  8
0
 62
7
  6
CONTINUOUS
 10
159.8069016378
 20
152.3700032585
  0
SEQEND
  0
LINE
  8
0
 62
7
  6
CONTINUOUS
 10
166.5772923409
 20
193.3152640906
 11
166.5772923409
 21
185.4856004043
  0
LINE
  8
0
 62
7
  6
CONTINUOUS
 10
166.5772923409
 20
202.2671092884
 11
166.5772923409
 21
193.3404601245
  0
LINE
  8
0
 62
7
  6
CONTINUOUS
 10
166.5772923409
 20
176.5152640906
 11
166.5772923409
 21
168.6856004043
  0
LINE
  8
0
 62
7
  6
CONTINUOUS
 10
166.5772923409
 20
185.4671092884
 11
166.5772923409
 21
176.5404601245
  0
LINE
  8
0
 62
7
  6
CONTINUOUS
 10
166.5772923409
 20
159.7152640906
 11
166.5772923409
 21
151.8856004043
  0
LINE
  8
0
 62
7
  6
CONTINUOUS
 10
166.5772923409
 20
168.6671092884
 11
166.5772923409
 21
159.7404601245
  0
LINE
  8
0
 62
7
  6
CONTINUOUS
 10
166.5772923409
 20
142.9152640906
 11
166.5772923409
 21
135.0856004043
  0
LINE
  8
0
 62
7
  6
CONTINUOUS
 10
166.5772923409
 20
151.8671092884
 11
166.5772923409
 21
142.9404601245
  0
LINE
  8
0
 62
7
  6
CONTINUOUS
 10
166.5772923409
 20
126.1152640906
 11
166.5772923409
 21
118.2856004043
  0
LINE
  8
0
 62
7
  6
CONTINUOUS
 10
166.5772923409
 20
135.0671092884
 11
166.5772923409
 21
126.1404601245
  0
LINE
  8
0
 62
7
  6
CONTINUOUS
 10
166.5772923409
 20
109.3152640906
 11
166.5772923409
 21
101.4856004043
  0
LINE
  8
0
 62
7
  6
CONTINUOUS
 10
166.5772923409
 20
118.2671092884
 11
166.5772923409
 21
109.3404601245
  0
LINE
  8
0
 62
7
  6
CONTINUOUS
 10
166.5772923409
 20
92.5152640906
 11
166.5772923409
 21
84.6856004043
  0
LINE
  8
0
 62
7
  6
CONTINUOUS
 10
166.5772923409
 20
101.4671092884
 11
166.5772923409
 21
92.5404601245
  0
LINE
  8
0
 62
7
  6
CONTINUOUS
 10
166.5772923409
 20
75.7152640906
 11
166.5772923409
 21
67.8856004043
  0
LINE
  8
0
 62
7
  6
CONTINUOUS
 10
166.5772923409
 20
84.6671092884
 11
166.5772923409
 21
75.7404601245
  0
LINE
  8
0
 62
7
  6
CONTINUOUS
 10
166.5772923409
 20
67.8671092884
 11
166.5772923409
 21
59.5004322475
  0
LINE
  8
0
 62
7
  6
CONTINUOUS
 10
166.5772923409
 20
202.2856004043
 11
166.5772923409
 21
210.1004322475
  0
LINE
  8
0
 62
7
  6
CONTINUOUS
 10
168.5772923409
 20
61.7734146429
 11
168.5772923409
 21
65.027449852
  0
LINE
  8
0
 62
7
  6
CONTINUOUS
 10
168.5772923409
 20
70.1734146429
 11
168.5772923409
 21
73.427449852
  0
LINE
  8
0
 62
7
  6
CONTINUOUS
 10
168.5772923409
 20
78.5734146429
 11
168.5772923409
 21
81.827449852
  0
LINE
  8
0
 62
7
  6
CONTINUOUS
 10
168.5772923409
 20
86.9734146429
 11
168.5772923409
 21
90.227449852
  0
LINE
  8
0
 62
7
  6
CONTINUOUS
 10
168.5772923409
 20
95.3734146429
 11
168.5772923409
 21
98.627449852
  0
LINE
  8
0
 62
7
  6
CONTINUOUS
 10
168.5772923409
 20
103.7734146429
 11
168.5772923409
 21
107.027449852
  0
LINE
  8
0
 62
7
  6
CONTINUOUS
 10
168.5772923409
 20
112.1734146429
 11
168.5772923409
 21
115.427449852
  0
LINE
  8
0
 62
7
  6
CONTINUOUS
 10
168.5772923409
 20
120.5734146429
 11
168.5772923409
 21
123.827449852
  0
LINE
  8
0
 62
7
  6
CONTINUOUS
 10
168.5772923409
 20
128.9734146429
 11
168.5772923409
 21
132.227449852
  0
LINE
  8
0
 62
7
  6
CONTINUOUS
 10
168.5772923409
 20
137.3734146429
 11
168.5772923409
 21
140.627449852
  0
LINE
  8
0
 62
7
  6
CONTINUOUS
 10
168.5772923409
 20
145.7734146429
 11
168.5772923409
 21
149.027449852
  0
LINE
  8
0
 62
7
  6
CONTINUOUS
 10
168.5772923409
 20
154.1734146429
 11
168.5772923409
 21
157.427449852
  0
LINE
  8
0
 62
7
  6
CONTINUOUS
 10
168.5772923409
 20
162.5734146429
 11
168.5772923409
 21
165.827449852
  0
LINE
  8
0
 62
7
  6
CONTINUOUS
 10
168.5772923409
 20
170.9734146429
 11
168.5772923409
 21
174.227449852
  0
LINE
  8
0
 62
7
  6
CONTINUOUS
 10
168.5772923409
 20
179.3734146429
 11
168.5772923409
 21
182.627449852
  0
LINE
  8
0
 62
7
  6
CONTINUOUS
 10
168.5772923409
 20
187.7734146429
 11
168.5772923409
 21
191.027449852
  0
LINE
  8
0
 62
7
  6
CONTINUOUS
 10
168.5772923409
 20
196.1734146429
 11
168.5772923409
 21
199.427449852
  0
LINE
  8
0
 62
7
  6
CONTINUOUS
 10
168.5772923409
 20
204.5734146429
 11
168.5772923409
 21
207.827449852
  0
LINE
  8
0
 62
7
  6
CONTINUOUS
 10
166.1121259791
 20
201.7111743497
 11
166.1120547337
 21
201.6310644806
  0
LINE
  8
0
 62
7
  6
CONTINUOUS
 10
166.1121259791
 20
184.9111743497
 11
166.1120547337
 21
184.8310644806
  0
LINE
  8
0
 62
7
  6
CONTINUOUS
 10
166.1121259791
 20
168.1111743497
 11
166.1120547337
 21
168.0310644806
  0
LINE
  8
0
 62
7
  6
CONTINUOUS
 10
166.1121259791
 20
151.3111743497
 11
166.1120547337
 21
151.2310644806
  0
LINE
  8
0
 62
7
  6
CONTINUOUS
 10
166.1121259791
 20
134.5111743497
 11
166.1120547337
 21
134.4310644806
  0
LINE
  8
0
 62
7
  6
CONTINUOUS
 10
166.1121259791
 20
117.7111743497
 11
166.1120547337
 21
117.6310644806
  0
LINE
  8
0
 62
7
  6
CONTINUOUS
 10
166.1121259791
 20
100.9111743497
 11
166.1120547337
 21
100.8310644806
  0
LINE
  8
0
 62
7
  6
CONTINUOUS
 10
166.1121259791
 20
84.1111743497
 11
166.1120547337
 21
84.0310644806
  0
LINE
  8
0
 62
7
  6
CONTINUOUS
 10
166.1121259791
 20
67.3111743497
 11
166.1120547337
 21
67.2310644806
  0
LINE
  8
0
 62
7
  6
CONTINUOUS
 10
159.8605770018
 20
80.4560572475
 11
159.8379235274
 21
80.2591823226
  0
LINE
  8
0
 62
7
  6
CONTINUOUS
 10
160.426913875
 20
79.7473072475
 11
160.4495673475
 21
79.9441821723
  0
LINE
  8
0
 62
7
  6
CONTINUOUS
 10
160.6391361325
 20
79.7473072475
 11
160.661789605
 21
79.9441821723
  0
LINE
  8
0
 62
7
  6
CONTINUOUS
 10
160.8799833879
 20
79.7866823226
 11
160.9026368604
 21
79.9835572475
  0
LINE
  8
0
 62
7
  6
CONTINUOUS
 10
161.0922056454
 20
79.7866823226
 11
161.1148591179
 21
79.9835572475
  0
LINE
  8
0
 62
7
  6
CONTINUOUS
 10
159.973844378
 20
80.2591823226
 11
159.9964978505
 21
80.4166821723
  0
LINE
  8
0
 62
7
  6
CONTINUOUS
 10
160.1860666356
 20
80.2591823226
 11
160.208720108
 21
80.4166821723
  0
LINE
  8
0
 62
7
  6
CONTINUOUS
 10
160.3362999851
 20
80.3379322475
 11
160.3136465127
 21
80.1804321723
  0
LINE
  8
0
 62
7
  6
CONTINUOUS
 10
160.3136465127
 20
79.9441821723
 11
160.2909930402
 21
79.7866823226
  0
LINE
  8
0
 62
7
  6
CONTINUOUS
 10
159.7801449739
 20
108.6148389842
 11
159.7515099719
 21
108.5332552716
  0
LINE
  8
0
 62
7
  6
CONTINUOUS
 10
159.6625422215
 20
125.1975354361
 11
159.6626405433
 21
125.1976399996
  0
POLYLINE
  8
0
 62
7
  6
CONTINUOUS
 66
1
 70
0
  0
VERTEX
  8
0
 62
7
  6
CONTINUOUS
 10
159.6626405433
 20
125.1976399996
  0
VERTEX
  8
0
 62
7
  6
CONTINUOUS
 10
159.6113022429
 20
125.1473729189
  0
VERTEX
  8
0
 62
7
  6
CONTINUOUS
 10
159.5410808883
 20
125.0914248977
  0
SEQEND
  0
LINE
  8
0
 62
7
  6
CONTINUOUS
 10
159.5410808883
 20
125.0914248977
 11
159.4706058434
 21
125.0487945487
  0
LINE
  8
0
 62
7
  6
CONTINUOUS
 10
159.4706058434
 20
125.0487945487
 11
159.4135179714
 21
125.0236255119
  0
LINE
  8
0
 62
7
  6
CONTINUOUS
 10
162.7338939927
 20
125.2819843716
 11
166.3223326625
 21
126.3075644644
  0
LINE
  8
0
 62
7
  6
CONTINUOUS
 10
151.4976153397
 20
141.1739946987
 11
162.6363332974
 21
142.0643249391
  0
LINE
  8
0
 62
7
  6
CONTINUOUS
 10
168.3447314593
 20
145.5240236303
 11
166.5772923409
 21
145.4004322475
  0
LINE
  8
0
 62
7
  6
CONTINUOUS
 10
168.3447314593
 20
140.8768408646
 11
166.5772923409
 21
141.0004322475
  0
LINE
  8
0
 62
7
  6
CONTINUOUS
 10
159.7065247956
 20
152.7488382621
 11
159.7515099707
 21
152.6676092261
  0
LINE
  8
0
 62
7
  6
CONTINUOUS
 10
159.7515099707
 20
152.6676092261
 11
159.7801449832
 21
152.5860254769
  0
POLYLINE
  8
0
 62
7
  6
CONTINUOUS
 66
1
 70
0
  0
VERTEX
  8
0
 62
7
  6
CONTINUOUS
 10
159.7801451675
 20
169.386024803
  0
VERTEX
  8
0
 62
7
  6
CONTINUOUS
 10
159.801418926
 20
169.2724581263
  0
VERTEX
  8
0
 62
7
  6
CONTINUOUS
 10
159.8069016378
 20
169.1700032585
  0
SEQEND
  0
POLYLINE
  8
0
 62
7
  6
CONTINUOUS
 66
1
 70
0
  0
VERTEX
  8
0
 62
7
  6
CONTINUOUS
 10
159.7801451675
 20
186.186024803
  0
VERTEX
  8
0
 62
7
  6
CONTINUOUS
 10
159.801418926
 20
186.0724581263
  0
VERTEX
  8
0
 62
7
  6
CONTINUOUS
 10
159.8069016378
 20
185.9700032585
  0
SEQEND
  0
LINE
  8
0
 62
7
  6
CONTINUOUS
 10
160.4495673475
 20
80.1804321723
 11
160.47222082
 21
80.2985571723
  0
LINE
  8
0
 62
7
  6
CONTINUOUS
 10
160.661789605
 20
80.1804321723
 11
160.6844430775
 21
80.2985571723
  0
LINE
  8
0
 62
7
  6
CONTINUOUS
 10
160.7667160255
 20
79.9441821723
 11
160.7440625531
 21
79.8260571723
  0
LINE
  8
0
 62
7
  6
CONTINUOUS
 10
159.7801449739
 20
91.8148389842
 11
159.7515099719
 21
91.7332552716
  0
POLYLINE
  8
0
 62
7
  6
CONTINUOUS
 66
1
 70
0
  0
VERTEX
  8
0
 62
7
  6
CONTINUOUS
 10
159.7515099719
 20
108.5332552716
  0
VERTEX
  8
0
 62
7
  6
CONTINUOUS
 10
159.7065247969
 20
108.4520262349
  0
VERTEX
  8
0
 62
7
  6
CONTINUOUS
 10
159.6625422242
 20
108.3975354336
  0
SEQEND
  0
LINE
  8
0
 62
7
  6
CONTINUOUS
 10
168.3447314593
 20
149.2768408646
 11
166.5772923409
 21
149.4004322475
  0
POLYLINE
  8
0
 62
7
  6
CONTINUOUS
 66
1
 70
0
  0
VERTEX
  8
0
 62
7
  6
CONTINUOUS
 10
159.4706058431
 20
152.9520699464
  0
VERTEX
  8
0
 62
7
  6
CONTINUOUS
 10
159.5410808883
 20
152.9094395972
  0
VERTEX
  8
0
 62
7
  6
CONTINUOUS
 10
159.6113022428
 20
152.853491576
  0
VERTEX
  8
0
 62
7
  6
CONTINUOUS
 10
159.6626405441
 20
152.8032244944
  0
SEQEND
  0
LINE
  8
0
 62
7
  6
CONTINUOUS
 10
159.6625422205
 20
152.80332906
 11
159.6626405441
 21
152.8032244944
  0
LINE
  8
0
 62
7
  6
CONTINUOUS
 10
159.6625422231
 20
152.8033290625
 11
159.7065247956
 21
152.7488382621
  0
POLYLINE
  8
0
 62
7
  6
CONTINUOUS
 66
1
 70
0
  0
VERTEX
  8
0
 62
7
  6
CONTINUOUS
 10
150.8536289574
 20
205.3385833216
  0
VERTEX
  8
0
 62
7
  6
CONTINUOUS
 10
150.8242384478
 20
205.4221486881
  0
VERTEX
  8
0
 62
7
  6
CONTINUOUS
 10
150.788423828
 20
205.5123231691
  0
VERTEX
  8
0
 62
7
  6
CONTINUOUS
 10
150.7564992193
 20
205.5786723742
  0
VERTEX
  8
0
 62
7
  6
CONTINUOUS
 10
150.7284792824
 20
205.6232183449
  0
VERTEX
  8
0
 62
7
  6
CONTINUOUS
 10
150.7040430908
 20
205.6488711862
  0
VERTEX
  8
0
 62
7
  6
CONTINUOUS
 10
150.6825981251
 20
205.6580585777
  0
SEQEND
  0
LINE
  8
0
 62
7
  6
CONTINUOUS
 10
159.7515099707
 20
169.4676092261
 11
159.7801449832
 21
169.3860254769
  0
POLYLINE
  8
0
 62
7
  6
CONTINUOUS
 66
1
 70
0
  0
VERTEX
  8
0
 62
7
  6
CONTINUOUS
 10
150.8536531449
 20
205.3386746959
  0
VERTEX
  8
0
 62
7
  6
CONTINUOUS
 10
150.8636050058
 20
205.3056495654
  0
VERTEX
  8
0
 62
7
  6
CONTINUOUS
 10
150.8785491803
 20
205.2183101554
  0
VERTEX
  8
0
 62
7
  6
CONTINUOUS
 10
150.880177964
 20
205.1779848688
  0
SEQEND
  0
POLYLINE
  8
0
 62
7
  6
CONTINUOUS
 66
1
 70
0
  0
VERTEX
  8
0
 62
7
  6
CONTINUOUS
 10
159.7801451675
 20
202.986024803
  0
VERTEX
  8
0
 62
7
  6
CONTINUOUS
 10
159.801418926
 20
202.8724581263
  0
VERTEX
  8
0
 62
7
  6
CONTINUOUS
 10
159.8069016378
 20
202.7700032585
  0
SEQEND
  0
LINE
  8
0
 62
7
  6
CONTINUOUS
 10
160.3816069301
 20
80.4954323226
 11
160.3362999851
 21
80.3379322475
  0
LINE
  8
0
 62
7
  6
CONTINUOUS
 10
160.3816069301
 20
79.5898071723
 11
160.426913875
 21
79.7473072475
  0
LINE
  8
0
 62
7
  6
CONTINUOUS
 10
160.5938291876
 20
79.5898071723
 11
160.6391361325
 21
79.7473072475
  0
LINE
  8
0
 62
7
  6
CONTINUOUS
 10
159.9285374252
 20
80.6529321723
 11
159.8605770018
 21
80.4560572475
  0
LINE
  8
0
 62
7
  6
CONTINUOUS
 10
159.7801449739
 20
75.0148389842
 11
159.7515099719
 21
74.9332552716
  0
LINE
  8
0
 62
7
  6
CONTINUOUS
 10
160.47222082
 20
80.2985571723
 11
160.5175277649
 21
80.4166821723
  0
LINE
  8
0
 62
7
  6
CONTINUOUS
 10
160.2909930402
 20
79.7866823226
 11
160.2456860953
 21
79.6685573226
  0
LINE
  8
0
 62
7
  6
CONTINUOUS
 10
160.6844430775
 20
80.2985571723
 11
160.7142528153
 21
80.3762776031
  0
LINE
  8
0
 62
7
  6
CONTINUOUS
 10
159.6625422215
 20
108.3975354361
 11
159.6626405433
 21
108.3976399996
  0
POLYLINE
  8
0
 62
7
  6
CONTINUOUS
 66
1
 70
0
  0
VERTEX
  8
0
 62
7
  6
CONTINUOUS
 10
159.6626405433
 20
108.3976399996
  0
VERTEX
  8
0
 62
7
  6
CONTINUOUS
 10
159.6113022429
 20
108.3473729189
  0
VERTEX
  8
0
 62
7
  6
CONTINUOUS
 10
159.5410808883
 20
108.2914248977
  0
SEQEND
  0
LINE
  8
0
 62
7
  6
CONTINUOUS
 10
168.3447314593
 20
153.9240236303
 11
166.5772923409
 21
153.8004322475
  0
LINE
  8
0
 62
7
  6
CONTINUOUS
 10
151.4976153397
 20
153.6268697962
 11
162.6363332974
 21
152.7365395558
  0
LINE
  8
0
 62
7
  6
CONTINUOUS
 10
162.7338939927
 20
152.7188801233
 11
166.3223326625
 21
151.6933000305
  0
LINE
  8
0
 62
7
  6
CONTINUOUS
 10
159.4135179713
 20
152.977238983
 11
159.4706058431
 21
152.9520699464
  0
LINE
  8
0
 62
7
  6
CONTINUOUS
 10
159.7065247956
 20
169.5488382621
 11
159.7515099707
 21
169.4676092261
  0
LINE
  8
0
 62
7
  6
CONTINUOUS
 10
159.7515099707
 20
186.2676092261
 11
159.7801449832
 21
186.1860254769
  0
LINE
  8
0
 62
7
  6
CONTINUOUS
 10
160.8120229705
 20
79.6291822475
 11
160.8799833879
 21
79.7866823226
  0
LINE
  8
0
 62
7
  6
CONTINUOUS
 10
161.024245228
 20
79.6291822475
 11
161.0922056454
 21
79.7866823226
  0
POLYLINE
  8
0
 62
7
  6
CONTINUOUS
 66
1
 70
0
  0
VERTEX
  8
0
 62
7
  6
CONTINUOUS
 10
159.7515099719
 20
91.7332552716
  0
VERTEX
  8
0
 62
7
  6
CONTINUOUS
 10
159.7065247969
 20
91.6520262349
  0
VERTEX
  8
0
 62
7
  6
CONTINUOUS
 10
159.6625422242
 20
91.5975354336
  0
SEQEND
  0
LINE
  8
0
 62
7
  6
CONTINUOUS
 10
159.5410808883
 20
108.2914248977
 11
159.4706058434
 21
108.2487945487
  0
LINE
  8
0
 62
7
  6
CONTINUOUS
 10
159.4706058434
 20
108.2487945487
 11
159.4135179714
 21
108.2236255119
  0
LINE
  8
0
 62
7
  6
CONTINUOUS
 10
162.7338939927
 20
108.4819843716
 11
166.3223326625
 21
109.5075644644
  0
LINE
  8
0
 62
7
  6
CONTINUOUS
 10
151.4976153397
 20
157.9739946987
 11
162.6363332974
 21
158.8643249391
  0
LINE
  8
0
 62
7
  6
CONTINUOUS
 10
168.3447314593
 20
157.6768408646
 11
166.5772923409
 21
157.8004322475
  0
LINE
  8
0
 62
7
  6
CONTINUOUS
 10
159.6625422205
 20
169.60332906
 11
159.6626405441
 21
169.6032244944
  0
LINE
  8
0
 62
7
  6
CONTINUOUS
 10
159.6625422231
 20
169.6033290625
 11
159.7065247956
 21
169.5488382621
  0
LINE
  8
0
 62
7
  6
CONTINUOUS
 10
159.7065247956
 20
186.3488382621
 11
159.7515099707
 21
186.2676092261
  0
LINE
  8
0
 62
7
  6
CONTINUOUS
 10
159.7515099707
 20
203.0676092261
 11
159.7801449832
 21
202.9860254769
  0
POLYLINE
  8
0
 62
7
  6
CONTINUOUS
 66
1
 70
0
  0
VERTEX
  8
0
 62
7
  6
CONTINUOUS
 10
159.7515099719
 20
74.9332552716
  0
VERTEX
  8
0
 62
7
  6
CONTINUOUS
 10
159.7065247969
 20
74.8520262349
  0
VERTEX
  8
0
 62
7
  6
CONTINUOUS
 10
159.6625422242
 20
74.7975354336
  0
SEQEND
  0
LINE
  8
0
 62
7
  6
CONTINUOUS
 10
159.9964978505
 20
80.4166821723
 11
160.0644582838
 21
80.5348071723
  0
LINE
  8
0
 62
7
  6
CONTINUOUS
 10
160.208720108
 20
80.4166821723
 11
160.2766805413
 21
80.5348071723
  0
LINE
  8
0
 62
7
  6
CONTINUOUS
 10
160.47222082
 20
80.6529321723
 11
160.3816069301
 21
80.4954323226
  0
LINE
  8
0
 62
7
  6
CONTINUOUS
 10
160.2909930402
 20
79.4323073226
 11
160.3816069301
 21
79.5898071723
  0
LINE
  8
0
 62
7
  6
CONTINUOUS
 10
160.5032152977
 20
79.4323073226
 11
160.5938291876
 21
79.5898071723
  0
LINE
  8
0
 62
7
  6
CONTINUOUS
 10
160.7440625531
 20
79.8260571723
 11
160.6987556081
 21
79.7473072475
  0
LINE
  8
0
 62
7
  6
CONTINUOUS
 10
159.6625422215
 20
91.5975354361
 11
159.6626405433
 21
91.5976399996
  0
POLYLINE
  8
0
 62
7
  6
CONTINUOUS
 66
1
 70
0
  0
VERTEX
  8
0
 62
7
  6
CONTINUOUS
 10
159.6626405433
 20
91.5976399996
  0
VERTEX
  8
0
 62
7
  6
CONTINUOUS
 10
159.6113022429
 20
91.5473729189
  0
VERTEX
  8
0
 62
7
  6
CONTINUOUS
 10
159.5410808883
 20
91.4914248977
  0
SEQEND
  0
LINE
  8
0
 62
7
  6
CONTINUOUS
 10
168.3447314593
 20
162.3240236303
 11
166.5772923409
 21
162.2004322475
  0
LINE
  8
0
 62
7
  6
CONTINUOUS
 10
168.3447314593
 20
166.0768408646
 11
166.5772923409
 21
166.2004322475
  0
POLYLINE
  8
0
 62
7
  6
CONTINUOUS
 66
1
 70
0
  0
VERTEX
  8
0
 62
7
  6
CONTINUOUS
 10
159.4706058431
 20
169.7520699464
  0
VERTEX
  8
0
 62
7
  6
CONTINUOUS
 10
159.5410808883
 20
169.7094395972
  0
VERTEX
  8
0
 62
7
  6
CONTINUOUS
 10
159.6113022428
 20
169.653491576
  0
VERTEX
  8
0
 62
7
  6
CONTINUOUS
 10
159.6626405441
 20
169.6032244944
  0
SEQEND
  0
LINE
  8
0
 62
7
  6
CONTINUOUS
 10
160.7214090806
 20
79.5110572475
 11
160.8120229705
 21
79.6291822475
  0
LINE
  8
0
 62
7
  6
CONTINUOUS
 10
160.9336313381
 20
79.5110572475
 11
161.024245228
 21
79.6291822475
  0
LINE
  8
0
 62
7
  6
CONTINUOUS
 10
168.3447314593
 20
170.7240236303
 11
166.5772923409
 21
170.6004322475
  0
LINE
  8
0
 62
7
  6
CONTINUOUS
 10
151.4976153397
 20
170.4268697962
 11
162.6363332974
 21
169.5365395558
  0
LINE
  8
0
 62
7
  6
CONTINUOUS
 10
162.7338939927
 20
169.5188801233
 11
166.3223326625
 21
168.4933000305
  0
LINE
  8
0
 62
7
  6
CONTINUOUS
 10
159.4135179713
 20
169.777238983
 11
159.4706058431
 21
169.7520699464
  0
LINE
  8
0
 62
7
  6
CONTINUOUS
 10
159.6625422205
 20
186.40332906
 11
159.6626405441
 21
186.4032244944
  0
LINE
  8
0
 62
7
  6
CONTINUOUS
 10
159.6625422231
 20
186.4033290625
 11
159.7065247956
 21
186.3488382621
  0
LINE
  8
0
 62
7
  6
CONTINUOUS
 10
159.7065247956
 20
203.1488382621
 11
159.7515099707
 21
203.0676092261
  0
LINE
  8
0
 62
7
  6
CONTINUOUS
 10
160.2456860953
 20
79.6685573226
 11
160.1777256461
 21
79.5898071723
  0
LINE
  8
0
 62
7
  6
CONTINUOUS
 10
159.9964978505
 20
81.361682285
 11
160.9026368604
 21
82.3460572475
  0
LINE
  8
0
 62
7
  6
CONTINUOUS
 10
160.208720108
 20
81.361682285
 11
161.1148591179
 21
82.3460572475
  0
LINE
  8
0
 62
7
  6
CONTINUOUS
 10
159.6625422215
 20
74.7975354361
 11
159.6626405433
 21
74.7976399996
  0
LINE
  8
0
 62
7
  6
CONTINUOUS
 10
160.7667160255
 20
82.4641822475
 11
159.8379235274
 21
81.479807285
  0
LINE
  8
0
 62
7
  6
CONTINUOUS
 10
160.0418048113
 20
80.7710571723
 11
159.9285374252
 21
80.6529321723
  0
LINE
  8
0
 62
7
  6
CONTINUOUS
 10
159.5410808883
 20
91.4914248977
 11
159.4706058434
 21
91.4487945487
  0
LINE
  8
0
 62
7
  6
CONTINUOUS
 10
159.4706058434
 20
91.4487945487
 11
159.4135179714
 21
91.4236255119
  0
LINE
  8
0
 62
7
  6
CONTINUOUS
 10
151.4976153397
 20
174.7739946987
 11
162.6363332974
 21
175.6643249391
  0
LINE
  8
0
 62
7
  6
CONTINUOUS
 10
168.3447314593
 20
174.4768408646
 11
166.5772923409
 21
174.6004322475
  0
POLYLINE
  8
0
 62
7
  6
CONTINUOUS
 66
1
 70
0
  0
VERTEX
  8
0
 62
7
  6
CONTINUOUS
 10
159.6626405433
 20
74.7976399996
  0
VERTEX
  8
0
 62
7
  6
CONTINUOUS
 10
159.6113022429
 20
74.7473729189
  0
VERTEX
  8
0
 62
7
  6
CONTINUOUS
 10
159.5410808883
 20
74.6914248977
  0
SEQEND
  0
LINE
  8
0
 62
7
  6
CONTINUOUS
 10
160.2003791186
 20
79.3535571723
 11
160.2909930402
 21
79.4323073226
  0
LINE
  8
0
 62
7
  6
CONTINUOUS
 10
160.6987556081
 20
79.7473072475
 11
160.6534486632
 21
79.7079321723
  0
LINE
  8
0
 62
7
  6
CONTINUOUS
 10
160.4126013761
 20
79.3535571723
 11
160.5032152977
 21
79.4323073226
  0
LINE
  8
0
 62
7
  6
CONTINUOUS
 10
162.7338939927
 20
91.6819843716
 11
166.3223326625
 21
92.7075644644
  0
LINE
  8
0
 62
7
  6
CONTINUOUS
 10
168.3447314593
 20
179.1240236303
 11
166.5772923409
 21
179.0004322475
  0
POLYLINE
  8
0
 62
7
  6
CONTINUOUS
 66
1
 70
0
  0
VERTEX
  8
0
 62
7
  6
CONTINUOUS
 10
159.4706058431
 20
186.5520699464
  0
VERTEX
  8
0
 62
7
  6
CONTINUOUS
 10
159.5410808883
 20
186.5094395972
  0
VERTEX
  8
0
 62
7
  6
CONTINUOUS
 10
159.6113022428
 20
186.453491576
  0
VERTEX
  8
0
 62
7
  6
CONTINUOUS
 10
159.6626405441
 20
186.4032244944
  0
SEQEND
  0
LINE
  8
0
 62
7
  6
CONTINUOUS
 10
159.6625422231
 20
203.2033290625
 11
159.7065247956
 21
203.1488382621
  0
LINE
  8
0
 62
7
  6
CONTINUOUS
 10
159.5410808883
 20
74.6914248977
 11
159.4706058434
 21
74.6487945487
  0
LINE
  8
0
 62
7
  6
CONTINUOUS
 10
160.0644582838
 20
80.5348071723
 11
160.1324187012
 21
80.5741822475
  0
LINE
  8
0
 62
7
  6
CONTINUOUS
 10
160.2766805413
 20
80.5348071723
 11
160.3446409587
 21
80.5741822475
  0
LINE
  8
0
 62
7
  6
CONTINUOUS
 10
160.5175277649
 20
80.4166821723
 11
160.5854881823
 21
80.4560572475
  0
LINE
  8
0
 62
7
  6
CONTINUOUS
 10
160.6534486632
 20
79.4716821723
 11
160.7214090806
 21
79.5110572475
  0
LINE
  8
0
 62
7
  6
CONTINUOUS
 10
160.8656709207
 20
79.4716821723
 11
160.9336313381
 21
79.5110572475
  0
LINE
  8
0
 62
7
  6
CONTINUOUS
 10
160.1324187012
 20
80.8104322475
 11
160.0418048113
 21
80.7710571723
  0
LINE
  8
0
 62
7
  6
CONTINUOUS
 10
160.5628347098
 20
80.6923072475
 11
160.47222082
 21
80.6529321723
  0
LINE
  8
0
 62
7
  6
CONTINUOUS
 10
168.3447314593
 20
187.5240236303
 11
166.5772923409
 21
187.4004322475
  0
LINE
  8
0
 62
7
  6
CONTINUOUS
 10
168.3447314593
 20
182.8768408646
 11
166.5772923409
 21
183.0004322475
  0
LINE
  8
0
 62
7
  6
CONTINUOUS
 10
151.4976153397
 20
187.2268697962
 11
162.6363332974
 21
186.3365395558
  0
LINE
  8
0
 62
7
  6
CONTINUOUS
 10
162.7338939927
 20
186.3188801233
 11
166.3223326625
 21
185.2933000305
  0
LINE
  8
0
 62
7
  6
CONTINUOUS
 10
159.4135179713
 20
186.577238983
 11
159.4706058431
 21
186.5520699464
  0
POLYLINE
  8
0
 62
7
  6
CONTINUOUS
 66
1
 70
0
  0
VERTEX
  8
0
 62
7
  6
CONTINUOUS
 10
152.9298422255
 20
205.4316449165
  0
VERTEX
  8
0
 62
7
  6
CONTINUOUS
 10
152.9982106704
 20
205.3751473722
  0
VERTEX
  8
0
 62
7
  6
CONTINUOUS
 10
153.0555212347
 20
205.3074590463
  0
VERTEX
  8
0
 62
7
  6
CONTINUOUS
 10
153.099970648
 20
205.2307097552
  0
VERTEX
  8
0
 62
7
  6
CONTINUOUS
 10
153.1301603165
 20
205.1473144168
  0
VERTEX
  8
0
 62
7
  6
CONTINUOUS
 10
153.1451403299
 20
205.0598970675
  0
VERTEX
  8
0
 62
7
  6
CONTINUOUS
 10
153.1467758343
 20
205.0194888707
  0
SEQEND
  0
LINE
  8
0
 62
7
  6
CONTINUOUS
 10
159.6625422205
 20
203.20332906
 11
159.6626405441
 21
203.2032244944
  0
LINE
  8
0
 62
7
  6
CONTINUOUS
 10
159.4706058434
 20
74.6487945487
 11
159.4135179714
 21
74.6236255119
  0
POLYLINE
  8
0
 62
7
  6
CONTINUOUS
 66
1
 70
0
  0
VERTEX
  8
0
 62
7
  6
CONTINUOUS
 10
160.138871896
 20
77.9304322475
  0
VERTEX
  8
0
 62
7
  6
CONTINUOUS
 10
160.1594892812
 20
77.9367558755
  0
VERTEX
  8
0
 62
7
  6
CONTINUOUS
 10
160.1790255451
 20
77.9552802677
  0
VERTEX
  8
0
 62
7
  6
CONTINUOUS
 10
160.1965208074
 20
77.9847592
  0
VERTEX
  8
0
 62
7
  6
CONTINUOUS
 10
160.2112189469
 20
78.0233858405
  0
VERTEX
  8
0
 62
7
  6
CONTINUOUS
 10
160.2225910176
 20
78.0690741072
  0
VERTEX
  8
0
 62
7
  6
CONTINUOUS
 10
160.2303120964
 20
78.1196991858
  0
VERTEX
  8
0
 62
7
  6
CONTINUOUS
 10
160.2342079405
 20
78.173213609
  0
VERTEX
  8
0
 62
7
  6
CONTINUOUS
 10
160.2342070168
 20
78.2276765606
  0
VERTEX
  8
0
 62
7
  6
CONTINUOUS
 10
160.2303096815
 20
78.2811870208
  0
VERTEX
  8
0
 62
7
  6
CONTINUOUS
 10
160.2225879285
 20
78.3318060173
  0
VERTEX
  8
0
 62
7
  6
CONTINUOUS
 10
160.211216132
 20
78.3774877862
  0
VERTEX
  8
0
 62
7
  6
CONTINUOUS
 10
160.1965188606
 20
78.4161094262
  0
VERTEX
  8
0
 62
7
  6
CONTINUOUS
 10
160.1790245608
 20
78.4455855072
  0
VERTEX
  8
0
 62
7
  6
CONTINUOUS
 10
160.1594890205
 20
78.4641087812
  0
VERTEX
  8
0
 62
7
  6
CONTINUOUS
 10
160.138871896
 20
78.4704322475
  0
SEQEND
  0
POLYLINE
  8
0
 62
7
  6
CONTINUOUS
 66
1
 70
0
  0
VERTEX
  8
0
 62
7
  6
CONTINUOUS
 10
159.9266496384
 20
78.4704322475
  0
VERTEX
  8
0
 62
7
  6
CONTINUOUS
 10
159.9060863668
 20
78.4641421659
  0
VERTEX
  8
0
 62
7
  6
CONTINUOUS
 10
159.886663078
 20
78.4458009565
  0
VERTEX
  8
0
 62
7
  6
CONTINUOUS
 10
159.8692022616
 20
78.4165318087
  0
VERTEX
  8
0
 62
7
  6
CONTINUOUS
 10
159.8544715106
 20
78.3780251955
  0
VERTEX
  8
0
 62
7
  6
CONTINUOUS
 10
159.8430530717
 20
78.3324085989
  0
VERTEX
  8
0
 62
7
  6
CONTINUOUS
 10
159.8352496732
 20
78.2815262235
  0
VERTEX
  8
0
 62
7
  6
CONTINUOUS
 10
159.8313246836
 20
78.2279575226
  0
VERTEX
  8
0
 62
7
  6
CONTINUOUS
 10
159.8313246836
 20
78.1729069723
  0
VERTEX
  8
0
 62
7
  6
CONTINUOUS
 10
159.8352496732
 20
78.1193382714
  0
VERTEX
  8
0
 62
7
  6
CONTINUOUS
 10
159.8430530717
 20
78.068455896
  0
VERTEX
  8
0
 62
7
  6
CONTINUOUS
 10
159.8544715106
 20
78.0228392994
  0
VERTEX
  8
0
 62
7
  6
CONTINUOUS
 10
159.8692022616
 20
77.9843326862
  0
VERTEX
  8
0
 62
7
  6
CONTINUOUS
 10
159.886663078
 20
77.9550635384
  0
VERTEX
  8
0
 62
7
  6
CONTINUOUS
 10
159.9060863668
 20
77.936722329
  0
VERTEX
  8
0
 62
7
  6
CONTINUOUS
 10
159.9266496384
 20
77.9304322475
  0
SEQEND
  0
POLYLINE
  8
0
 62
7
  6
CONTINUOUS
 66
1
 70
0
  0
VERTEX
  8
0
 62
7
  6
CONTINUOUS
 10
159.9266496384
 20
77.9304322475
  0
VERTEX
  8
0
 62
7
  6
CONTINUOUS
 10
159.9472129101
 20
77.936722329
  0
VERTEX
  8
0
 62
7
  6
CONTINUOUS
 10
159.9666361988
 20
77.9550635384
  0
VERTEX
  8
0
 62
7
  6
CONTINUOUS
 10
159.9840970153
 20
77.9843326862
  0
VERTEX
  8
0
 62
7
  6
CONTINUOUS
 10
159.9988277663
 20
78.0228392994
  0
VERTEX
  8
0
 62
7
  6
CONTINUOUS
 10
160.0102462052
 20
78.068455896
  0
VERTEX
  8
0
 62
7
  6
CONTINUOUS
 10
160.0180496037
 20
78.1193382714
  0
VERTEX
  8
0
 62
7
  6
CONTINUOUS
 10
160.0219745933
 20
78.1729069723
  0
VERTEX
  8
0
 62
7
  6
CONTINUOUS
 10
160.0219745933
 20
78.2279575226
  0
VERTEX
  8
0
 62
7
  6
CONTINUOUS
 10
160.0180496037
 20
78.2815262235
  0
VERTEX
  8
0
 62
7
  6
CONTINUOUS
 10
160.0102462052
 20
78.3324085989
  0
VERTEX
  8
0
 62
7
  6
CONTINUOUS
 10
159.9988277663
 20
78.3780251955
  0
VERTEX
  8
0
 62
7
  6
CONTINUOUS
 10
159.9840970153
 20
78.4165318087
  0
VERTEX
  8
0
 62
7
  6
CONTINUOUS
 10
159.9666361988
 20
78.4458009565
  0
VERTEX
  8
0
 62
7
  6
CONTINUOUS
 10
159.9472129101
 20
78.4641421659
  0
VERTEX
  8
0
 62
7
  6
CONTINUOUS
 10
159.9266496384
 20
78.4704322475
  0
SEQEND
  0
LINE
  8
0
 62
7
  6
CONTINUOUS
 10
151.4976153397
 20
191.5739946987
 11
162.6363332974
 21
192.4643249391
  0
LINE
  8
0
 62
7
  6
CONTINUOUS
 10
168.3447314593
 20
191.2768408646
 11
166.5772923409
 21
191.4004322475
  0
POLYLINE
  8
0
 62
7
  6
CONTINUOUS
 66
1
 70
0
  0
VERTEX
  8
0
 62
7
  6
CONTINUOUS
 10
152.871117592
 20
205.4662987222
  0
VERTEX
  8
0
 62
7
  6
CONTINUOUS
 10
152.9462697787
 20
205.421947154
  0
VERTEX
  8
0
 62
7
  6
CONTINUOUS
 10
153.0389335643
 20
205.3489696798
  0
VERTEX
  8
0
 62
7
  6
CONTINUOUS
 10
153.1356309063
 20
205.2517852347
  0
VERTEX
  8
0
 62
7
  6
CONTINUOUS
 10
153.2352249336
 20
205.1316350218
  0
VERTEX
  8
0
 62
7
  6
CONTINUOUS
 10
153.3386178007
 20
204.9926590765
  0
SEQEND
  0
LINE
  8
0
 62
7
  6
CONTINUOUS
 10
162.7338939927
 20
74.8819843716
 11
166.3223326625
 21
75.9075644644
  0
LINE
  8
0
 62
7
  6
CONTINUOUS
 10
168.3447314593
 20
195.9240236303
 11
166.5772923409
 21
195.8004322475
  0
LINE
  8
0
 62
7
  6
CONTINUOUS
 10
159.4135179713
 20
203.377238983
 11
159.4706058431
 21
203.3520699464
  0
POLYLINE
  8
0
 62
7
  6
CONTINUOUS
 66
1
 70
0
  0
VERTEX
  8
0
 62
7
  6
CONTINUOUS
 10
159.4706058431
 20
203.3520699464
  0
VERTEX
  8
0
 62
7
  6
CONTINUOUS
 10
159.5410808883
 20
203.3094395972
  0
VERTEX
  8
0
 62
7
  6
CONTINUOUS
 10
159.6113022428
 20
203.253491576
  0
VERTEX
  8
0
 62
7
  6
CONTINUOUS
 10
159.6626405441
 20
203.2032244944
  0
SEQEND
  0
LINE
  8
0
 62
7
  6
CONTINUOUS
 10
150.6272923409
 20
199.1202716669
 11
150.5873832728
 21
199.1188780116
  0
LINE
  8
0
 62
7
  6
CONTINUOUS
 10
168.3447314593
 20
199.6768408646
 11
166.5772923409
 21
199.8004322475
  0
POLYLINE
  8
0
 62
7
  6
CONTINUOUS
 66
1
 70
0
  0
VERTEX
  8
0
 62
7
  6
CONTINUOUS
 10
159.2957917346
 20
203.4035528013
  0
VERTEX
  8
0
 62
7
  6
CONTINUOUS
 10
159.3350019625
 20
203.3985647071
  0
VERTEX
  8
0
 62
7
  6
CONTINUOUS
 10
159.3826827136
 20
203.3874339359
  0
VERTEX
  8
0
 62
7
  6
CONTINUOUS
 10
159.4135430873
 20
203.3772297123
  0
SEQEND
  0
LINE
  8
0
 62
7
  6
CONTINUOUS
 10
162.7338939927
 20
203.1188801233
 11
166.3223326625
 21
202.0933000305
  0
LINE
  8
0
 62
7
  6
CONTINUOUS
 10
168.3447314593
 20
204.3240236303
 11
166.5772923409
 21
204.2004322475
  0
LINE
  8
0
 62
7
  6
CONTINUOUS
 10
151.5772923409
 20
210.3004322475
 11
166.3772923409
 21
210.3004322475
  0
LINE
  8
0
 62
7
  6
CONTINUOUS
 10
150.5772923409
 20
205.6654222523
 11
152.6951924716
 21
205.5173242481
  0
LINE
  8
0
 62
7
  6
CONTINUOUS
 10
168.3447314593
 20
208.0768408646
 11
166.5772923409
 21
208.2004322475
  0
LINE
  8
0
 62
7
  6
CONTINUOUS
 10
151.8328538351
 20
204.0000738066
 11
162.6363332974
 21
203.1365395558
  0
POLYLINE
  8
0
 62
7
  6
CONTINUOUS
 66
1
 70
0
  0
VERTEX
  8
0
 62
7
  6
CONTINUOUS
 10
152.6951883814
 20
205.5173245171
  0
VERTEX
  8
0
 62
7
  6
CONTINUOUS
 10
152.7742091966
 20
205.503803291
  0
VERTEX
  8
0
 62
7
  6
CONTINUOUS
 10
152.8580599199
 20
205.4726873059
  0
VERTEX
  8
0
 62
7
  6
CONTINUOUS
 10
152.871117592
 20
205.4662987222
  0
SEQEND
  0
LINE
  8
0
 62
7
  6
CONTINUOUS
 10
45.5108953614
 20
250.235167206
 11
45.5108953614
 21
247.1227727625
  0
LINE
  8
DEFAULT_1
 62
2
  6
CENTER
 10
51.3108953614
 20
254.635167206
 11
51.3108953614
 21
252.235267206
  0
LINE
  8
0
 62
2
  6
CONTINUOUS
 10
51.3108953614
 20
251.115167206
 11
51.3108953614
 21
249.355167206
  0
LINE
  8
DEFAULT_1
 62
2
  6
CENTER
 10
51.3108953614
 20
245.835167206
 11
51.3108953614
 21
248.235067206
  0
LINE
  8
0
 62
7
  6
CONTINUOUS
 10
57.1108953614
 20
247.1227727625
 11
57.1108953614
 21
250.235167206
  0
LINE
  8
0
 62
7
  6
CONTINUOUS
 10
56.8344867442
 20
260.0026063245
 11
56.7108953614
 21
258.235167206
  0
POLYLINE
  8
0
 62
7
  6
CONTINUOUS
 66
1
 70
0
  0
VERTEX
  8
0
 62
7
  6
CONTINUOUS
 10
48.4386609049
 20
242.235167206
  0
VERTEX
  8
0
 62
7
  6
CONTINUOUS
 10
48.4402581661
 20
242.2376959302
  0
VERTEX
  8
0
 62
7
  6
CONTINUOUS
 10
48.4426687632
 20
242.2452581379
  0
SEQEND
  0
LINE
  8
0
 62
7
  6
CONTINUOUS
 10
60.5873039785
 20
260.0026063245
 11
60.7108953614
 21
258.235167206
  0
POLYLINE
  8
0
 62
7
  6
CONTINUOUS
 66
1
 70
0
  0
VERTEX
  8
0
 62
7
  6
CONTINUOUS
 10
48.4426687632
 20
242.2452581379
  0
VERTEX
  8
0
 62
7
  6
CONTINUOUS
 10
47.8154717582
 20
242.4944474267
  0
VERTEX
  8
0
 62
7
  6
CONTINUOUS
 10
47.207907575
 20
242.7946816039
  0
VERTEX
  8
0
 62
7
  6
CONTINUOUS
 10
46.6267674169
 20
243.1433300065
  0
VERTEX
  8
0
 62
7
  6
CONTINUOUS
 10
46.0772015117
 20
243.5375222018
  0
SEQEND
  0
LINE
  8
0
 62
7
  6
CONTINUOUS
 10
65.3108953614
 20
258.235167206
 11
65.4344867445
 21
260.0026063287
  0
LINE
  8
0
 62
7
  6
CONTINUOUS
 10
55.8108953614
 20
242.235167206
 11
48.4386609049
 21
242.235167206
  0
LINE
  8
0
 62
7
  6
CONTINUOUS
 10
97.6108953614
 20
242.235167206
 11
104.9831766846
 21
242.235167206
  0
LINE
  8
0
 62
7
  6
CONTINUOUS
 10
55.8108953613
 20
242.2452581379
 11
48.4426687632
 21
242.2452581379
  0
LINE
  8
0
 62
7
  6
CONTINUOUS
 10
75.9580720006
 20
242.285167206
 11
77.4637187221
 21
242.285167206
  0
LINE
  8
0
 62
7
  6
CONTINUOUS
 10
70.1108953614
 20
258.235167206
 11
69.9873039782
 21
260.0026063287
  0
LINE
  8
0
 62
7
  6
CONTINUOUS
 10
73.040928602
 20
249.6261185837
 11
74.9990915489
 21
243.001694997
  0
LINE
  8
0
 62
7
  6
CONTINUOUS
 10
74.8344867442
 20
260.0026063245
 11
74.7108953614
 21
258.235167206
  0
LINE
  8
DEFAULT_1
 62
2
  6
CENTER
 10
106.5108953614
 20
250.235167206
 11
104.1109953614
 21
250.235167206
  0
LINE
  8
0
 62
2
  6
CONTINUOUS
 10
102.9908953614
 20
250.235167206
 11
101.2308953614
 21
250.235167206
  0
LINE
  8
0
 62
7
  6
CONTINUOUS
 10
72.225795218
 20
250.235167206
 11
70.5330861822
 21
250.235167206
  0
LINE
  8
DEFAULT_1
 62
2
  6
CENTER
 10
55.7108953614
 20
250.235167206
 11
53.3109953614
 21
250.235167206
  0
LINE
  8
0
 62
2
  6
CONTINUOUS
 10
52.1908953614
 20
250.235167206
 11
50.4308953614
 21
250.235167206
  0
LINE
  8
DEFAULT_1
 62
2
  6
CENTER
 10
46.9108953614
 20
250.235167206
 11
49.3107953614
 21
250.235167206
  0
LINE
  8
0
 62
7
  6
CONTINUOUS
 10
81.1959955047
 20
250.235167206
 11
82.8887045406
 21
250.235167206
  0
LINE
  8
DEFAULT_1
 62
2
  6
CENTER
 10
97.7108953614
 20
250.235167206
 11
100.1107953614
 21
250.235167206
  0
LINE
  8
0
 62
7
  6
CONTINUOUS
 10
59.3619763042
 20
254.1387324623
 11
70.1986213164
 21
250.2927589858
  0
LINE
  8
0
 62
7
  6
CONTINUOUS
 10
78.5873039785
 20
260.0026063245
 11
78.7108953614
 21
258.235167206
  0
LINE
  8
0
 62
7
  6
CONTINUOUS
 10
78.4226991738
 20
243.001694997
 11
80.3808621208
 21
249.6261185837
  0
LINE
  8
0
 62
7
  6
CONTINUOUS
 10
83.2231694063
 20
250.2927589858
 11
86.4443790744
 21
251.4359806131
  0
LINE
  8
0
 62
7
  6
CONTINUOUS
 10
83.3108953614
 20
258.235167206
 11
83.4344867445
 21
260.0026063287
  0
LINE
  8
0
 62
7
  6
CONTINUOUS
 10
48.4386140381
 20
258.235167206
 11
104.9831766846
 21
258.235167206
  0
LINE
  8
0
 62
7
  6
CONTINUOUS
 10
88.1108953614
 20
258.235167206
 11
87.9873039782
 21
260.0026063287
  0
POLYLINE
  8
0
 62
7
  6
CONTINUOUS
 66
1
 70
0
  0
VERTEX
  8
0
 62
7
  6
CONTINUOUS
 10
55.8820087178
 20
258.2351963862
  0
VERTEX
  8
0
 62
7
  6
CONTINUOUS
 10
55.8175515653
 20
258.2267423146
  0
VERTEX
  8
0
 62
7
  6
CONTINUOUS
 10
55.7574542312
 20
258.2019515359
  0
VERTEX
  8
0
 62
7
  6
CONTINUOUS
 10
55.7057822547
 20
258.1625008936
  0
VERTEX
  8
0
 62
7
  6
CONTINUOUS
 10
55.6660313059
 20
258.1110590502
  0
VERTEX
  8
0
 62
7
  6
CONTINUOUS
 10
55.6408906102
 20
258.0511059763
  0
VERTEX
  8
0
 62
7
  6
CONTINUOUS
 10
55.6320609393
 20
257.9866974987
  0
VERTEX
  8
0
 62
7
  6
CONTINUOUS
 10
55.6401395099
 20
257.9221908571
  0
VERTEX
  8
0
 62
7
  6
CONTINUOUS
 10
55.6645795847
 20
257.8619498617
  0
VERTEX
  8
0
 62
7
  6
CONTINUOUS
 10
55.703727504
 20
257.8100496239
  0
VERTEX
  8
0
 62
7
  6
CONTINUOUS
 10
55.7549346308
 20
257.7700008442
  0
SEQEND
  0
LINE
  8
0
 62
7
  6
CONTINUOUS
 10
96.337912966
 20
260.235167206
 11
93.0838777568
 21
260.235167206
  0
LINE
  8
0
 62
7
  6
CONTINUOUS
 10
78.337912966
 20
260.235167206
 11
75.0838777568
 21
260.235167206
  0
LINE
  8
0
 62
7
  6
CONTINUOUS
 10
60.337912966
 20
260.235167206
 11
57.0838777568
 21
260.235167206
  0
LINE
  8
0
 62
7
  6
CONTINUOUS
 10
65.6838777984
 20
260.235167206
 11
69.7379129243
 21
260.235167206
  0
LINE
  8
0
 62
7
  6
CONTINUOUS
 10
83.6838777984
 20
260.235167206
 11
87.7379129243
 21
260.235167206
  0
LINE
  8
0
 62
7
  6
CONTINUOUS
 10
92.8344867442
 20
260.0026063245
 11
92.7108953614
 21
258.235167206
  0
LINE
  8
0
 62
7
  6
CONTINUOUS
 10
96.5873039785
 20
260.0026063245
 11
96.7108953614
 21
258.235167206
  0
LINE
  8
DEFAULT_1
 62
2
  6
CENTER
 10
102.1108953614
 20
254.635167206
 11
102.1108953614
 21
252.235267206
  0
LINE
  8
0
 62
2
  6
CONTINUOUS
 10
102.1108953614
 20
251.115167206
 11
102.1108953614
 21
249.355167206
  0
LINE
  8
DEFAULT_1
 62
2
  6
CENTER
 10
102.1108953614
 20
245.835167206
 11
102.1108953614
 21
248.235067206
  0
CIRCLE
  8
0
 62
7
  6
CONTINUOUS
 10
58.7108953614
 20
88.6004322475
 40
2.0
  0
CIRCLE
  8
0
 62
7
  6
CONTINUOUS
 10
58.7108953614
 20
80.2004322475
 40
2.0
  0
CIRCLE
  8
0
 62
7
  6
CONTINUOUS
 10
58.7108953614
 20
71.8004322475
 40
2.0
  0
CIRCLE
  8
0
 62
7
  6
CONTINUOUS
 10
58.7108953614
 20
63.4004322475
 40
2.0
  0
ARC
  8
0
 62
7
  6
CONTINUOUS
 10
55.8322849461
 20
59.5004322475
 40
0.2
 50
180.0
 51
270.0
  0
CIRCLE
  8
0
 62
7
  6
CONTINUOUS
 10
58.7108953614
 20
130.6004322475
 40
2.0
  0
CIRCLE
  8
0
 62
7
  6
CONTINUOUS
 10
58.7108953614
 20
122.2004322475
 40
2.0
  0
CIRCLE
  8
0
 62
7
  6
CONTINUOUS
 10
58.7108953614
 20
113.8004322475
 40
2.0
  0
CIRCLE
  8
0
 62
7
  6
CONTINUOUS
 10
58.7108953614
 20
105.4004322475
 40
2.0
  0
CIRCLE
  8
0
 62
7
  6
CONTINUOUS
 10
58.7108953614
 20
97.0004322475
 40
2.0
  0
CIRCLE
  8
0
 62
7
  6
CONTINUOUS
 10
67.7108953614
 20
88.6004322475
 40
2.0
  0
CIRCLE
  8
0
 62
7
  6
CONTINUOUS
 10
67.7108953614
 20
71.8004322475
 40
2.0
  0
ARC
  8
0
 62
7
  6
CONTINUOUS
 10
67.7108953614
 20
80.2004322475
 40
2.0
 50
56.2510114041
 51
123.7489885959
  0
ARC
  8
0
 62
7
  6
CONTINUOUS
 10
67.7108953614
 20
80.2004322475
 40
2.0
 50
236.2510114041
 51
303.7489885959
  0
ARC
  8
0
 62
7
  6
CONTINUOUS
 10
67.7108953614
 20
63.4004322475
 40
2.0
 50
56.2510114041
 51
123.7489885959
  0
ARC
  8
0
 62
7
  6
CONTINUOUS
 10
67.7108953614
 20
63.4004322475
 40
2.0
 50
236.2510114041
 51
303.7489885959
  0
ARC
  8
0
 62
7
  6
CONTINUOUS
 10
68.6108953614
 20
80.2004322475
 40
1.5
 50
303.7489885959
 51
56.2510114041
  0
ARC
  8
0
 62
7
  6
CONTINUOUS
 10
66.8108953614
 20
80.2004322475
 40
1.5
 50
123.7489885959
 51
236.2510114041
  0
ARC
  8
0
 62
7
  6
CONTINUOUS
 10
68.6108953614
 20
63.4004322475
 40
1.5
 50
303.7489885959
 51
56.2510114041
  0
ARC
  8
0
 62
7
  6
CONTINUOUS
 10
66.8108953614
 20
63.4004322475
 40
1.5
 50
123.7489885959
 51
236.2510114041
  0
CIRCLE
  8
0
 62
7
  6
CONTINUOUS
 10
67.7108953614
 20
122.2004322475
 40
2.0
  0
CIRCLE
  8
0
 62
7
  6
CONTINUOUS
 10
67.7108953614
 20
105.4004322475
 40
2.0
  0
ARC
  8
0
 62
7
  6
CONTINUOUS
 10
67.7108953614
 20
130.6004322475
 40
2.0
 50
56.2510114041
 51
123.7489885959
  0
ARC
  8
0
 62
7
  6
CONTINUOUS
 10
67.7108953614
 20
130.6004322475
 40
2.0
 50
236.2510114041
 51
303.7489885959
  0
ARC
  8
0
 62
7
  6
CONTINUOUS
 10
67.7108953614
 20
113.8004322475
 40
2.0
 50
56.2510114041
 51
123.7489885959
  0
ARC
  8
0
 62
7
  6
CONTINUOUS
 10
67.7108953614
 20
113.8004322475
 40
2.0
 50
236.2510114041
 51
303.7489885959
  0
ARC
  8
0
 62
7
  6
CONTINUOUS
 10
67.7108953614
 20
97.0004322475
 40
2.0
 50
56.2510114041
 51
123.7489885959
  0
ARC
  8
0
 62
7
  6
CONTINUOUS
 10
67.7108953614
 20
97.0004322475
 40
2.0
 50
236.2510114041
 51
303.7489885959
  0
ARC
  8
0
 62
7
  6
CONTINUOUS
 10
68.6108953614
 20
130.6004322475
 40
1.5
 50
303.7489885959
 51
56.2510114041
  0
ARC
  8
0
 62
7
  6
CONTINUOUS
 10
66.8108953614
 20
130.6004322475
 40
1.5
 50
123.7489885959
 51
236.2510114041
  0
ARC
  8
0
 62
7
  6
CONTINUOUS
 10
68.6108953614
 20
113.8004322475
 40
1.5
 50
303.7489885959
 51
56.2510114041
  0
ARC
  8
0
 62
7
  6
CONTINUOUS
 10
66.8108953614
 20
113.8004322475
 40
1.5
 50
123.7489885959
 51
236.2510114041
  0
ARC
  8
0
 62
7
  6
CONTINUOUS
 10
68.6108953614
 20
97.0004322475
 40
1.5
 50
303.7489885959
 51
56.2510114041
  0
ARC
  8
0
 62
7
  6
CONTINUOUS
 10
66.8108953614
 20
97.0004322475
 40
1.5
 50
123.7489885959
 51
236.2510114041
  0
CIRCLE
  8
0
 62
7
  6
CONTINUOUS
 10
58.7108953614
 20
164.2004322475
 40
2.0
  0
CIRCLE
  8
0
 62
7
  6
CONTINUOUS
 10
58.7108953614
 20
155.8004322475
 40
2.0
  0
CIRCLE
  8
0
 62
7
  6
CONTINUOUS
 10
58.7108953614
 20
147.4004322475
 40
2.0
  0
CIRCLE
  8
0
 62
7
  6
CONTINUOUS
 10
58.7108953614
 20
139.0004322475
 40
2.0
  0
CIRCLE
  8
0
 62
7
  6
CONTINUOUS
 10
58.7108953614
 20
206.2004322475
 40
2.0
  0
CIRCLE
  8
0
 62
7
  6
CONTINUOUS
 10
58.7108953614
 20
197.8004322475
 40
2.0
  0
CIRCLE
  8
0
 62
7
  6
CONTINUOUS
 10
58.7108953614
 20
189.4004322475
 40
2.0
  0
CIRCLE
  8
0
 62
7
  6
CONTINUOUS
 10
58.7108953614
 20
181.0004322475
 40
2.0
  0
CIRCLE
  8
0
 62
7
  6
CONTINUOUS
 10
58.7108953614
 20
172.6004322475
 40
2.0
  0
CIRCLE
  8
0
 62
7
  6
CONTINUOUS
 10
67.7108953614
 20
155.8004322475
 40
2.0
  0
CIRCLE
  8
0
 62
7
  6
CONTINUOUS
 10
67.7108953614
 20
139.0004322475
 40
2.0
  0
ARC
  8
0
 62
7
  6
CONTINUOUS
 10
67.7108953614
 20
164.2004322475
 40
2.0
 50
56.2510114041
 51
123.7489885959
  0
ARC
  8
0
 62
7
  6
CONTINUOUS
 10
67.7108953614
 20
164.2004322475
 40
2.0
 50
236.2510114041
 51
303.7489885959
  0
ARC
  8
0
 62
7
  6
CONTINUOUS
 10
67.7108953614
 20
147.4004322475
 40
2.0
 50
56.2510114041
 51
123.7489885959
  0
ARC
  8
0
 62
7
  6
CONTINUOUS
 10
67.7108953614
 20
147.4004322475
 40
2.0
 50
236.2510114041
 51
303.7489885959
  0
ARC
  8
0
 62
7
  6
CONTINUOUS
 10
68.6108953614
 20
164.2004322475
 40
1.5
 50
303.7489885959
 51
56.2510114041
  0
ARC
  8
0
 62
7
  6
CONTINUOUS
 10
66.8108953614
 20
164.2004322475
 40
1.5
 50
123.7489885959
 51
236.2510114041
  0
ARC
  8
0
 62
7
  6
CONTINUOUS
 10
68.6108953614
 20
147.4004322475
 40
1.5
 50
303.7489885959
 51
56.2510114041
  0
ARC
  8
0
 62
7
  6
CONTINUOUS
 10
66.8108953614
 20
147.4004322475
 40
1.5
 50
123.7489885959
 51
236.2510114041
  0
CIRCLE
  8
0
 62
7
  6
CONTINUOUS
 10
67.7108953614
 20
206.2004322475
 40
2.0
  0
CIRCLE
  8
0
 62
7
  6
CONTINUOUS
 10
67.7108953614
 20
189.4004322475
 40
2.0
  0
CIRCLE
  8
0
 62
7
  6
CONTINUOUS
 10
67.7108953614
 20
172.6004322475
 40
2.0
  0
ARC
  8
0
 62
7
  6
CONTINUOUS
 10
67.7108953614
 20
197.8004322475
 40
2.0
 50
236.2510114041
 51
303.7489885959
  0
ARC
  8
0
 62
7
  6
CONTINUOUS
 10
67.7108953614
 20
197.8004322475
 40
2.0
 50
56.2510114041
 51
123.7489885959
  0
ARC
  8
0
 62
7
  6
CONTINUOUS
 10
67.7108953614
 20
181.0004322475
 40
2.0
 50
56.2510114041
 51
123.7489885959
  0
ARC
  8
0
 62
7
  6
CONTINUOUS
 10
67.7108953614
 20
181.0004322475
 40
2.0
 50
236.2510114041
 51
303.7489885959
  0
ARC
  8
0
 62
7
  6
CONTINUOUS
 10
68.6108953614
 20
197.8004322475
 40
1.5
 50
303.7489885959
 51
56.2510114041
  0
ARC
  8
0
 62
7
  6
CONTINUOUS
 10
66.8108953614
 20
197.8004322475
 40
1.5
 50
123.7489885959
 51
236.2510114041
  0
ARC
  8
0
 62
7
  6
CONTINUOUS
 10
68.6108953614
 20
181.0004322475
 40
1.5
 50
303.7489885959
 51
56.2510114041
  0
ARC
  8
0
 62
7
  6
CONTINUOUS
 10
66.8108953614
 20
181.0004322475
 40
1.5
 50
123.7489885959
 51
236.2510114041
  0
CIRCLE
  8
0
 62
7
  6
CONTINUOUS
 10
76.7108953614
 20
88.6004322475
 40
2.0
  0
CIRCLE
  8
0
 62
7
  6
CONTINUOUS
 10
76.7108953614
 20
80.2004322475
 40
2.0
  0
CIRCLE
  8
0
 62
7
  6
CONTINUOUS
 10
76.7108953614
 20
71.8004322475
 40
2.0
  0
CIRCLE
  8
0
 62
7
  6
CONTINUOUS
 10
76.7108953614
 20
63.4004322475
 40
2.0
  0
ARC
  8
0
 62
7
  6
CONTINUOUS
 10
84.8108953614
 20
80.2004322475
 40
1.5
 50
123.7489885959
 51
236.2510114041
  0
ARC
  8
0
 62
7
  6
CONTINUOUS
 10
84.8108953614
 20
63.4004322475
 40
1.5
 50
123.7489885959
 51
236.2510114041
  0
CIRCLE
  8
0
 62
7
  6
CONTINUOUS
 10
76.7108953614
 20
130.6004322475
 40
2.0
  0
CIRCLE
  8
0
 62
7
  6
CONTINUOUS
 10
76.7108953614
 20
122.2004322475
 40
2.0
  0
CIRCLE
  8
0
 62
7
  6
CONTINUOUS
 10
76.7108953614
 20
113.8004322475
 40
2.0
  0
CIRCLE
  8
0
 62
7
  6
CONTINUOUS
 10
76.7108953614
 20
105.4004322475
 40
2.0
  0
CIRCLE
  8
0
 62
7
  6
CONTINUOUS
 10
76.7108953614
 20
97.0004322475
 40
2.0
  0
ARC
  8
0
 62
7
  6
CONTINUOUS
 10
84.8108953614
 20
130.6004322475
 40
1.5
 50
123.7489885959
 51
236.2510114041
  0
ARC
  8
0
 62
7
  6
CONTINUOUS
 10
84.8108953614
 20
113.8004322475
 40
1.5
 50
123.7489885959
 51
236.2510114041
  0
ARC
  8
0
 62
7
  6
CONTINUOUS
 10
84.8108953614
 20
97.0004322475
 40
1.5
 50
123.7489885959
 51
236.2510114041
  0
ARC
  8
0
 62
7
  6
CONTINUOUS
 10
85.7108953614
 20
80.2004322475
 40
2.0
 50
56.2510114041
 51
123.7489885959
  0
ARC
  8
0
 62
7
  6
CONTINUOUS
 10
85.7108953614
 20
80.2004322475
 40
2.0
 50
236.2510114041
 51
303.7489885959
  0
ARC
  8
0
 62
7
  6
CONTINUOUS
 10
85.7108953614
 20
63.4004322475
 40
2.0
 50
56.2510114041
 51
123.7489885959
  0
ARC
  8
0
 62
7
  6
CONTINUOUS
 10
85.7108953614
 20
63.4004322475
 40
2.0
 50
236.2510114041
 51
303.7489885959
  0
CIRCLE
  8
0
 62
7
  6
CONTINUOUS
 10
85.7108953614
 20
88.6004322475
 40
2.0
  0
CIRCLE
  8
0
 62
7
  6
CONTINUOUS
 10
94.7108953614
 20
88.6004322475
 40
2.0
  0
CIRCLE
  8
0
 62
7
  6
CONTINUOUS
 10
94.7108953614
 20
80.2004322475
 40
2.0
  0
CIRCLE
  8
0
 62
7
  6
CONTINUOUS
 10
85.7108953614
 20
71.8004322475
 40
2.0
  0
CIRCLE
  8
0
 62
7
  6
CONTINUOUS
 10
94.7108953614
 20
71.8004322475
 40
2.0
  0
CIRCLE
  8
0
 62
7
  6
CONTINUOUS
 10
94.7108953614
 20
63.4004322475
 40
2.0
  0
ARC
  8
0
 62
7
  6
CONTINUOUS
 10
86.6108953614
 20
63.4004322475
 40
1.5
 50
303.7489885959
 51
56.2510114041
  0
ARC
  8
0
 62
7
  6
CONTINUOUS
 10
86.6108953614
 20
80.2004322475
 40
1.5
 50
303.7489885959
 51
56.2510114041
  0
CIRCLE
  8
0
 62
7
  6
CONTINUOUS
 10
94.7108953614
 20
130.6004322475
 40
2.0
  0
CIRCLE
  8
0
 62
7
  6
CONTINUOUS
 10
85.7108953614
 20
122.2004322475
 40
2.0
  0
CIRCLE
  8
0
 62
7
  6
CONTINUOUS
 10
94.7108953614
 20
122.2004322475
 40
2.0
  0
CIRCLE
  8
0
 62
7
  6
CONTINUOUS
 10
94.7108953614
 20
113.8004322475
 40
2.0
  0
CIRCLE
  8
0
 62
7
  6
CONTINUOUS
 10
85.7108953614
 20
105.4004322475
 40
2.0
  0
CIRCLE
  8
0
 62
7
  6
CONTINUOUS
 10
94.7108953614
 20
105.4004322475
 40
2.0
  0
CIRCLE
  8
0
 62
7
  6
CONTINUOUS
 10
94.7108953614
 20
97.0004322475
 40
2.0
  0
ARC
  8
0
 62
7
  6
CONTINUOUS
 10
85.7108953614
 20
130.6004322475
 40
2.0
 50
56.2510114041
 51
123.7489885959
  0
ARC
  8
0
 62
7
  6
CONTINUOUS
 10
85.7108953614
 20
130.6004322475
 40
2.0
 50
236.2510114041
 51
303.7489885959
  0
ARC
  8
0
 62
7
  6
CONTINUOUS
 10
85.7108953614
 20
113.8004322475
 40
2.0
 50
56.2510114041
 51
123.7489885959
  0
ARC
  8
0
 62
7
  6
CONTINUOUS
 10
85.7108953614
 20
113.8004322475
 40
2.0
 50
236.2510114041
 51
303.7489885959
  0
ARC
  8
0
 62
7
  6
CONTINUOUS
 10
85.7108953614
 20
97.0004322475
 40
2.0
 50
56.2510114041
 51
123.7489885959
  0
ARC
  8
0
 62
7
  6
CONTINUOUS
 10
85.7108953614
 20
97.0004322475
 40
2.0
 50
236.2510114041
 51
303.7489885959
  0
ARC
  8
0
 62
7
  6
CONTINUOUS
 10
86.6108953614
 20
130.6004322475
 40
1.5
 50
303.7489885959
 51
56.2510114041
  0
ARC
  8
0
 62
7
  6
CONTINUOUS
 10
86.6108953614
 20
113.8004322475
 40
1.5
 50
303.7489885959
 51
56.2510114041
  0
ARC
  8
0
 62
7
  6
CONTINUOUS
 10
86.6108953614
 20
97.0004322475
 40
1.5
 50
303.7489885959
 51
56.2510114041
  0
CIRCLE
  8
0
 62
7
  6
CONTINUOUS
 10
76.7108953614
 20
172.6004322475
 40
2.0
  0
CIRCLE
  8
0
 62
7
  6
CONTINUOUS
 10
85.7108953614
 20
172.6004322475
 40
2.0
  0
CIRCLE
  8
0
 62
7
  6
CONTINUOUS
 10
76.7108953614
 20
164.2004322475
 40
2.0
  0
CIRCLE
  8
0
 62
7
  6
CONTINUOUS
 10
76.7108953614
 20
155.8004322475
 40
2.0
  0
CIRCLE
  8
0
 62
7
  6
CONTINUOUS
 10
85.7108953614
 20
155.8004322475
 40
2.0
  0
CIRCLE
  8
0
 62
7
  6
CONTINUOUS
 10
76.7108953614
 20
147.4004322475
 40
2.0
  0
CIRCLE
  8
0
 62
7
  6
CONTINUOUS
 10
76.7108953614
 20
139.0004322475
 40
2.0
  0
CIRCLE
  8
0
 62
7
  6
CONTINUOUS
 10
85.7108953614
 20
139.0004322475
 40
2.0
  0
ARC
  8
0
 62
7
  6
CONTINUOUS
 10
85.7108953614
 20
164.2004322475
 40
2.0
 50
56.2510114041
 51
123.7489885959
  0
ARC
  8
0
 62
7
  6
CONTINUOUS
 10
85.7108953614
 20
164.2004322475
 40
2.0
 50
236.2510114041
 51
303.7489885959
  0
ARC
  8
0
 62
7
  6
CONTINUOUS
 10
85.7108953614
 20
147.4004322475
 40
2.0
 50
56.2510114041
 51
123.7489885959
  0
ARC
  8
0
 62
7
  6
CONTINUOUS
 10
85.7108953614
 20
147.4004322475
 40
2.0
 50
236.2510114041
 51
303.7489885959
  0
ARC
  8
0
 62
7
  6
CONTINUOUS
 10
86.6108953614
 20
164.2004322475
 40
1.5
 50
303.7489885959
 51
56.2510114041
  0
ARC
  8
0
 62
7
  6
CONTINUOUS
 10
84.8108953614
 20
164.2004322475
 40
1.5
 50
123.7489885959
 51
236.2510114041
  0
ARC
  8
0
 62
7
  6
CONTINUOUS
 10
86.6108953614
 20
147.4004322475
 40
1.5
 50
303.7489885959
 51
56.2510114041
  0
ARC
  8
0
 62
7
  6
CONTINUOUS
 10
84.8108953614
 20
147.4004322475
 40
1.5
 50
123.7489885959
 51
236.2510114041
  0
CIRCLE
  8
0
 62
7
  6
CONTINUOUS
 10
76.7108953614
 20
206.2004322475
 40
2.0
  0
CIRCLE
  8
0
 62
7
  6
CONTINUOUS
 10
85.7108953614
 20
206.2004322475
 40
2.0
  0
CIRCLE
  8
0
 62
7
  6
CONTINUOUS
 10
76.7108953614
 20
197.8004322475
 40
2.0
  0
CIRCLE
  8
0
 62
7
  6
CONTINUOUS
 10
76.7108953614
 20
189.4004322475
 40
2.0
  0
CIRCLE
  8
0
 62
7
  6
CONTINUOUS
 10
85.7108953614
 20
189.4004322475
 40
2.0
  0
CIRCLE
  8
0
 62
7
  6
CONTINUOUS
 10
76.7108953614
 20
181.0004322475
 40
2.0
  0
ARC
  8
0
 62
7
  6
CONTINUOUS
 10
85.7108953614
 20
197.8004322475
 40
2.0
 50
56.2510114041
 51
123.7489885959
  0
ARC
  8
0
 62
7
  6
CONTINUOUS
 10
85.7108953614
 20
197.8004322475
 40
2.0
 50
236.2510114041
 51
303.7489885959
  0
ARC
  8
0
 62
7
  6
CONTINUOUS
 10
85.7108953614
 20
181.0004322475
 40
2.0
 50
56.2510114041
 51
123.7489885959
  0
ARC
  8
0
 62
7
  6
CONTINUOUS
 10
85.7108953614
 20
181.0004322475
 40
2.0
 50
236.2510114041
 51
303.7489885959
  0
ARC
  8
0
 62
7
  6
CONTINUOUS
 10
86.6108953614
 20
197.8004322475
 40
1.5
 50
303.7489885959
 51
56.2510114041
  0
ARC
  8
0
 62
7
  6
CONTINUOUS
 10
84.8108953614
 20
197.8004322475
 40
1.5
 50
123.7489885959
 51
236.2510114041
  0
ARC
  8
0
 62
7
  6
CONTINUOUS
 10
86.6108953614
 20
181.0004322475
 40
1.5
 50
303.7489885959
 51
56.2510114041
  0
ARC
  8
0
 62
7
  6
CONTINUOUS
 10
84.8108953614
 20
181.0004322475
 40
1.5
 50
123.7489885959
 51
236.2510114041
  0
CIRCLE
  8
0
 62
7
  6
CONTINUOUS
 10
94.7108953614
 20
172.6004322475
 40
2.0
  0
CIRCLE
  8
0
 62
7
  6
CONTINUOUS
 10
94.7108953614
 20
164.2004322475
 40
2.0
  0
CIRCLE
  8
0
 62
7
  6
CONTINUOUS
 10
94.7108953614
 20
155.8004322475
 40
2.0
  0
CIRCLE
  8
0
 62
7
  6
CONTINUOUS
 10
94.7108953614
 20
147.4004322475
 40
2.0
  0
CIRCLE
  8
0
 62
7
  6
CONTINUOUS
 10
94.7108953614
 20
139.0004322475
 40
2.0
  0
CIRCLE
  8
0
 62
7
  6
CONTINUOUS
 10
94.7108953614
 20
206.2004322475
 40
2.0
  0
CIRCLE
  8
0
 62
7
  6
CONTINUOUS
 10
94.7108953614
 20
197.8004322475
 40
2.0
  0
CIRCLE
  8
0
 62
7
  6
CONTINUOUS
 10
94.7108953614
 20
189.4004322475
 40
2.0
  0
CIRCLE
  8
0
 62
7
  6
CONTINUOUS
 10
94.7108953614
 20
181.0004322475
 40
2.0
  0
ARC
  8
0
 62
7
  6
CONTINUOUS
 10
97.5895057767
 20
210.1004322475
 40
0.2
 50
0.0
 51
90.0
  0
ARC
  8
0
 62
7
  6
CONTINUOUS
 10
151.5772923409
 20
129.4236905301
 40
1.0
 50
180.0
 51
197.4745042926
  0
ARC
  8
0
 62
7
  6
CONTINUOUS
 10
151.5772923409
 20
131.7771739648
 40
1.0
 50
162.5254957074
 51
180.0
  0
ARC
  8
0
 62
7
  6
CONTINUOUS
 10
151.5772923409
 20
123.3771739648
 40
1.0
 50
94.57
 51
180.0
  0
ARC
  8
0
 62
7
  6
CONTINUOUS
 10
151.5772923409
 20
60.3004322475
 40
1.0
 50
180.0
 51
270.0
  0
ARC
  8
0
 62
7
  6
CONTINUOUS
 10
151.5772923409
 20
112.6236905301
 40
1.0
 50
180.0
 51
197.4745042926
  0
ARC
  8
0
 62
7
  6
CONTINUOUS
 10
151.5772923409
 20
114.9771739648
 40
1.0
 50
162.5254957074
 51
180.0
  0
ARC
  8
0
 62
7
  6
CONTINUOUS
 10
151.5772923409
 20
121.0236905301
 40
1.0
 50
180.0
 51
265.43
  0
ARC
  8
0
 62
7
  6
CONTINUOUS
 10
151.5772923409
 20
106.5771739648
 40
1.0
 50
94.57
 51
180.0
  0
ARC
  8
0
 62
7
  6
CONTINUOUS
 10
151.5772923409
 20
95.8236905301
 40
1.0
 50
180.0
 51
197.4745042926
  0
ARC
  8
0
 62
7
  6
CONTINUOUS
 10
151.5772923409
 20
98.1771739648
 40
1.0
 50
162.5254957074
 51
180.0
  0
ARC
  8
0
 62
7
  6
CONTINUOUS
 10
151.5772923409
 20
104.2236905301
 40
1.0
 50
180.0
 51
265.43
  0
ARC
  8
0
 62
7
  6
CONTINUOUS
 10
151.5772923409
 20
89.7771739648
 40
1.0
 50
94.57
 51
180.0
  0
ARC
  8
0
 62
7
  6
CONTINUOUS
 10
151.5772923409
 20
79.0236905301
 40
1.0
 50
180.0
 51
197.4745042926
  0
ARC
  8
0
 62
7
  6
CONTINUOUS
 10
151.5772923409
 20
81.3771739648
 40
1.0
 50
162.5254957074
 51
180.0
  0
ARC
  8
0
 62
7
  6
CONTINUOUS
 10
151.5772923409
 20
87.4236905301
 40
1.0
 50
180.0
 51
265.43
  0
ARC
  8
0
 62
7
  6
CONTINUOUS
 10
151.5772923409
 20
72.9771739648
 40
1.0
 50
94.57
 51
180.0
  0
ARC
  8
0
 62
7
  6
CONTINUOUS
 10
151.5772923409
 20
70.6236905301
 40
1.0
 50
180.0
 51
188.1464641015
  0
ARC
  8
0
 62
7
  6
CONTINUOUS
 10
151.6272923409
 20
60.3004322475
 40
1.0
 50
180.0
 51
270.0
  0
ARC
  8
0
 62
7
  6
CONTINUOUS
 10
159.577174171
 20
60.3003140775
 40
0.9998818301
 50
180.7781444247
 51
268.0049485052
  0
ARC
  8
0
 62
7
  6
CONTINUOUS
 10
151.5772923409
 20
198.9771739648
 40
1.0
 50
171.8535358985
 51
180.0
  0
ARC
  8
0
 62
7
  6
CONTINUOUS
 10
151.5772923409
 20
196.6236905301
 40
1.0
 50
180.0
 51
197.4745042926
  0
ARC
  8
0
 62
7
  6
CONTINUOUS
 10
151.5772923409
 20
190.5771739648
 40
1.0
 50
94.57
 51
180.0
  0
ARC
  8
0
 62
7
  6
CONTINUOUS
 10
151.5772923409
 20
179.8236905301
 40
1.0
 50
180.0
 51
197.4745042926
  0
ARC
  8
0
 62
7
  6
CONTINUOUS
 10
151.5772923409
 20
182.1771739648
 40
1.0
 50
162.5254957074
 51
180.0
  0
ARC
  8
0
 62
7
  6
CONTINUOUS
 10
151.5772923409
 20
188.2236905301
 40
1.0
 50
180.0
 51
265.43
  0
ARC
  8
0
 62
7
  6
CONTINUOUS
 10
151.5772923409
 20
173.7771739648
 40
1.0
 50
94.57
 51
180.0
  0
ARC
  8
0
 62
7
  6
CONTINUOUS
 10
151.5772923409
 20
163.0236905301
 40
1.0
 50
180.0
 51
197.4745042926
  0
ARC
  8
0
 62
7
  6
CONTINUOUS
 10
151.5772923409
 20
165.3771739648
 40
1.0
 50
162.5254957074
 51
180.0
  0
ARC
  8
0
 62
7
  6
CONTINUOUS
 10
151.5772923409
 20
171.4236905301
 40
1.0
 50
180.0
 51
265.43
  0
ARC
  8
0
 62
7
  6
CONTINUOUS
 10
151.5772923409
 20
156.9771739648
 40
1.0
 50
94.57
 51
180.0
  0
ARC
  8
0
 62
7
  6
CONTINUOUS
 10
151.5772923409
 20
146.2236905301
 40
1.0
 50
180.0
 51
197.4745042926
  0
ARC
  8
0
 62
7
  6
CONTINUOUS
 10
151.5772923409
 20
148.5771739648
 40
1.0
 50
162.5254957074
 51
180.0
  0
ARC
  8
0
 62
7
  6
CONTINUOUS
 10
151.5772923409
 20
154.6236905301
 40
1.0
 50
180.0
 51
265.43
  0
ARC
  8
0
 62
7
  6
CONTINUOUS
 10
151.5772923409
 20
140.1771739648
 40
1.0
 50
94.57
 51
180.0
  0
ARC
  8
0
 62
7
  6
CONTINUOUS
 10
151.5772923409
 20
137.8236905301
 40
1.0
 50
180.0
 51
265.43
  0
ARC
  8
0
 62
7
  6
CONTINUOUS
 10
151.5772923409
 20
209.3004322475
 40
1.0
 50
90.0
 51
180.0
  0
ARC
  8
0
 62
7
  6
CONTINUOUS
 10
162.5964947968
 20
125.762735306
 40
0.5
 50
274.57
 51
285.95
  0
ARC
  8
0
 62
7
  6
CONTINUOUS
 10
162.5964947968
 20
108.962735306
 40
0.5
 50
274.57
 51
285.95
  0
ARC
  8
0
 62
7
  6
CONTINUOUS
 10
162.5964947968
 20
118.6381291889
 40
0.5
 50
74.05
 51
85.43
  0
ARC
  8
0
 62
7
  6
CONTINUOUS
 10
162.5964947968
 20
92.162735306
 40
0.5
 50
274.57
 51
285.95
  0
ARC
  8
0
 62
7
  6
CONTINUOUS
 10
162.5964947968
 20
101.8381291889
 40
0.5
 50
74.05
 51
85.43
  0
ARC
  8
0
 62
7
  6
CONTINUOUS
 10
162.5964947968
 20
75.362735306
 40
0.5
 50
274.57
 51
285.95
  0
ARC
  8
0
 62
7
  6
CONTINUOUS
 10
162.5964947968
 20
85.0381291889
 40
0.5
 50
74.05
 51
85.43
  0
ARC
  8
0
 62
7
  6
CONTINUOUS
 10
162.5964947968
 20
68.2381291889
 40
0.5
 50
74.05
 51
85.43
  0
ARC
  8
0
 62
7
  6
CONTINUOUS
 10
168.3272923409
 20
61.7734146429
 40
0.25
 50
274.0
 51
360.0
  0
ARC
  8
0
 62
7
  6
CONTINUOUS
 10
168.3272923409
 20
65.027449852
 40
0.25
 50
0.0
 51
86.0
  0
ARC
  8
0
 62
7
  6
CONTINUOUS
 10
168.3272923409
 20
70.1734146429
 40
0.25
 50
274.0
 51
360.0
  0
ARC
  8
0
 62
7
  6
CONTINUOUS
 10
168.3272923409
 20
73.427449852
 40
0.25
 50
0.0
 51
86.0
  0
ARC
  8
0
 62
7
  6
CONTINUOUS
 10
168.3272923409
 20
78.5734146429
 40
0.25
 50
274.0
 51
360.0
  0
ARC
  8
0
 62
7
  6
CONTINUOUS
 10
168.3272923409
 20
81.827449852
 40
0.25
 50
0.0
 51
86.0
  0
ARC
  8
0
 62
7
  6
CONTINUOUS
 10
168.3272923409
 20
86.9734146429
 40
0.25
 50
274.0
 51
360.0
  0
ARC
  8
0
 62
7
  6
CONTINUOUS
 10
168.3272923409
 20
90.227449852
 40
0.25
 50
0.0
 51
86.0
  0
ARC
  8
0
 62
7
  6
CONTINUOUS
 10
168.3272923409
 20
95.3734146429
 40
0.25
 50
274.0
 51
360.0
  0
ARC
  8
0
 62
7
  6
CONTINUOUS
 10
168.3272923409
 20
98.627449852
 40
0.25
 50
0.0
 51
86.0
  0
ARC
  8
0
 62
7
  6
CONTINUOUS
 10
168.3272923409
 20
103.7734146429
 40
0.25
 50
274.0
 51
360.0
  0
ARC
  8
0
 62
7
  6
CONTINUOUS
 10
168.3272923409
 20
107.027449852
 40
0.25
 50
0.0
 51
86.0
  0
ARC
  8
0
 62
7
  6
CONTINUOUS
 10
168.3272923409
 20
112.1734146429
 40
0.25
 50
274.0
 51
360.0
  0
ARC
  8
0
 62
7
  6
CONTINUOUS
 10
168.3272923409
 20
115.427449852
 40
0.25
 50
0.0
 51
86.0
  0
ARC
  8
0
 62
7
  6
CONTINUOUS
 10
168.3272923409
 20
120.5734146429
 40
0.25
 50
274.0
 51
360.0
  0
ARC
  8
0
 62
7
  6
CONTINUOUS
 10
168.3272923409
 20
123.827449852
 40
0.25
 50
0.0
 51
86.0
  0
ARC
  8
0
 62
7
  6
CONTINUOUS
 10
168.3272923409
 20
128.9734146429
 40
0.25
 50
274.0
 51
360.0
  0
ARC
  8
0
 62
7
  6
CONTINUOUS
 10
168.3272923409
 20
132.227449852
 40
0.25
 50
0.0
 51
86.0
  0
ARC
  8
0
 62
7
  6
CONTINUOUS
 10
166.3772923409
 20
126.1152640906
 40
0.2
 50
0.0
 51
105.95
  0
ARC
  8
0
 62
7
  6
CONTINUOUS
 10
166.3772923409
 20
118.2856004043
 40
0.2
 50
254.05
 51
360.0
  0
ARC
  8
0
 62
7
  6
CONTINUOUS
 10
166.3772923409
 20
109.3152640906
 40
0.2
 50
0.0
 51
105.95
  0
ARC
  8
0
 62
7
  6
CONTINUOUS
 10
166.3772923409
 20
101.4856004043
 40
0.2
 50
254.05
 51
360.0
  0
ARC
  8
0
 62
7
  6
CONTINUOUS
 10
166.3772923409
 20
92.5152640906
 40
0.2
 50
0.0
 51
105.95
  0
ARC
  8
0
 62
7
  6
CONTINUOUS
 10
166.3772923409
 20
84.6856004043
 40
0.2
 50
254.05
 51
360.0
  0
ARC
  8
0
 62
7
  6
CONTINUOUS
 10
166.3772923409
 20
75.7152640906
 40
0.2
 50
0.0
 51
105.95
  0
ARC
  8
0
 62
7
  6
CONTINUOUS
 10
166.3772923409
 20
67.8856004043
 40
0.2
 50
254.05
 51
360.0
  0
ARC
  8
0
 62
7
  6
CONTINUOUS
 10
166.3772923409
 20
59.5004322475
 40
0.2
 50
270.0
 51
360.0
  0
ARC
  8
0
 62
7
  6
CONTINUOUS
 10
162.5964947968
 20
192.962735306
 40
0.5
 50
274.57
 51
285.95
  0
ARC
  8
0
 62
7
  6
CONTINUOUS
 10
162.5964947968
 20
202.6381291889
 40
0.5
 50
74.05
 51
85.43
  0
ARC
  8
0
 62
7
  6
CONTINUOUS
 10
162.5964947968
 20
176.162735306
 40
0.5
 50
274.57
 51
285.95
  0
ARC
  8
0
 62
7
  6
CONTINUOUS
 10
162.5964947968
 20
185.8381291889
 40
0.5
 50
74.05
 51
85.43
  0
ARC
  8
0
 62
7
  6
CONTINUOUS
 10
162.5964947968
 20
159.362735306
 40
0.5
 50
274.57
 51
285.95
  0
ARC
  8
0
 62
7
  6
CONTINUOUS
 10
162.5964947968
 20
169.0381291889
 40
0.5
 50
74.05
 51
85.43
  0
ARC
  8
0
 62
7
  6
CONTINUOUS
 10
162.5964947968
 20
142.562735306
 40
0.5
 50
274.57
 51
285.95
  0
ARC
  8
0
 62
7
  6
CONTINUOUS
 10
162.5964947968
 20
152.2381291889
 40
0.5
 50
74.05
 51
85.43
  0
ARC
  8
0
 62
7
  6
CONTINUOUS
 10
162.5964947968
 20
135.4381291889
 40
0.5
 50
74.05
 51
85.43
  0
ARC
  8
0
 62
7
  6
CONTINUOUS
 10
168.3272923409
 20
137.3734146429
 40
0.25
 50
274.0
 51
360.0
  0
ARC
  8
0
 62
7
  6
CONTINUOUS
 10
168.3272923409
 20
140.627449852
 40
0.25
 50
0.0
 51
86.0
  0
ARC
  8
0
 62
7
  6
CONTINUOUS
 10
168.3272923409
 20
145.7734146429
 40
0.25
 50
274.0
 51
360.0
  0
ARC
  8
0
 62
7
  6
CONTINUOUS
 10
168.3272923409
 20
149.027449852
 40
0.25
 50
0.0
 51
86.0
  0
ARC
  8
0
 62
7
  6
CONTINUOUS
 10
168.3272923409
 20
154.1734146429
 40
0.25
 50
274.0
 51
360.0
  0
ARC
  8
0
 62
7
  6
CONTINUOUS
 10
168.3272923409
 20
157.427449852
 40
0.25
 50
0.0
 51
86.0
  0
ARC
  8
0
 62
7
  6
CONTINUOUS
 10
168.3272923409
 20
162.5734146429
 40
0.25
 50
274.0
 51
360.0
  0
ARC
  8
0
 62
7
  6
CONTINUOUS
 10
168.3272923409
 20
165.827449852
 40
0.25
 50
0.0
 51
86.0
  0
ARC
  8
0
 62
7
  6
CONTINUOUS
 10
168.3272923409
 20
170.9734146429
 40
0.25
 50
274.0
 51
360.0
  0
ARC
  8
0
 62
7
  6
CONTINUOUS
 10
168.3272923409
 20
174.227449852
 40
0.25
 50
0.0
 51
86.0
  0
ARC
  8
0
 62
7
  6
CONTINUOUS
 10
168.3272923409
 20
179.3734146429
 40
0.25
 50
274.0
 51
360.0
  0
ARC
  8
0
 62
7
  6
CONTINUOUS
 10
168.3272923409
 20
182.627449852
 40
0.25
 50
0.0
 51
86.0
  0
ARC
  8
0
 62
7
  6
CONTINUOUS
 10
168.3272923409
 20
187.7734146429
 40
0.25
 50
274.0
 51
360.0
  0
ARC
  8
0
 62
7
  6
CONTINUOUS
 10
168.3272923409
 20
191.027449852
 40
0.25
 50
0.0
 51
86.0
  0
ARC
  8
0
 62
7
  6
CONTINUOUS
 10
168.3272923409
 20
196.1734146429
 40
0.25
 50
274.0
 51
360.0
  0
ARC
  8
0
 62
7
  6
CONTINUOUS
 10
168.3272923409
 20
199.427449852
 40
0.25
 50
0.0
 51
86.0
  0
ARC
  8
0
 62
7
  6
CONTINUOUS
 10
168.3272923409
 20
204.5734146429
 40
0.25
 50
274.0
 51
360.0
  0
ARC
  8
0
 62
7
  6
CONTINUOUS
 10
168.3272923409
 20
207.827449852
 40
0.25
 50
0.0
 51
86.0
  0
ARC
  8
0
 62
7
  6
CONTINUOUS
 10
166.3772923409
 20
202.2856004043
 40
0.2
 50
254.05
 51
360.0
  0
ARC
  8
0
 62
7
  6
CONTINUOUS
 10
166.3772923409
 20
193.3152640906
 40
0.2
 50
0.0
 51
105.95
  0
ARC
  8
0
 62
7
  6
CONTINUOUS
 10
166.3772923409
 20
185.4856004043
 40
0.2
 50
254.05
 51
360.0
  0
ARC
  8
0
 62
7
  6
CONTINUOUS
 10
166.3772923409
 20
176.5152640906
 40
0.2
 50
0.0
 51
105.95
  0
ARC
  8
0
 62
7
  6
CONTINUOUS
 10
166.3772923409
 20
168.6856004043
 40
0.2
 50
254.05
 51
360.0
  0
ARC
  8
0
 62
7
  6
CONTINUOUS
 10
166.3772923409
 20
159.7152640906
 40
0.2
 50
0.0
 51
105.95
  0
ARC
  8
0
 62
7
  6
CONTINUOUS
 10
166.3772923409
 20
151.8856004043
 40
0.2
 50
254.05
 51
360.0
  0
ARC
  8
0
 62
7
  6
CONTINUOUS
 10
166.3772923409
 20
142.9152640906
 40
0.2
 50
0.0
 51
105.95
  0
ARC
  8
0
 62
7
  6
CONTINUOUS
 10
166.3772923409
 20
135.0856004043
 40
0.2
 50
254.05
 51
360.0
  0
ARC
  8
0
 62
7
  6
CONTINUOUS
 10
166.3772923409
 20
210.1004322475
 40
0.2
 50
0.0
 51
90.0
  0
ARC
  8
0
 62
7
  6
CONTINUOUS
 10
52.3996542411
 20
215.1905961487
 40
50.0
 50
36.1628008448
 51
46.2787379139
  0
ARC
  8
0
 62
7
  6
CONTINUOUS
 10
51.3065336417
 20
250.235167206
 40
8.75
 50
29.0322772227
 51
59.4415682141
  0
ARC
  8
0
 62
7
  6
CONTINUOUS
 10
51.3108953614
 20
250.235167206
 40
8.5
 50
245.0391640344
 51
250.2500772044
  0
ARC
  8
0
 62
7
  6
CONTINUOUS
 10
51.3108953614
 20
250.235167206
 40
8.5
 50
109.7499227956
 51
231.9951143277
  0
ARC
  8
0
 62
7
  6
CONTINUOUS
 10
55.8108953614
 20
248.235167206
 40
6.0
 50
270.0
 51
323.8371991552
  0
ARC
  8
0
 62
7
  6
CONTINUOUS
 10
51.3108953614
 20
250.235167206
 40
5.8
 50
0.0
 51
180.0
  0
CIRCLE
  8
0
 62
7
  6
CONTINUOUS
 10
51.3108953614
 20
250.235167206
 40
4.15
  0
ARC
  8
0
 62
7
  6
CONTINUOUS
 10
59.6128249535
 20
254.8455386275
 40
0.75
 50
209.0322772227
 51
250.46
  0
ARC
  8
0
 62
7
  6
CONTINUOUS
 10
60.337912966
 20
259.985167206
 40
0.25
 50
4.0
 51
90.0
  0
ARC
  8
0
 62
7
  6
CONTINUOUS
 10
57.0838777568
 20
259.985167206
 40
0.25
 50
90.0
 51
176.0
  0
ARC
  8
0
 62
7
  6
CONTINUOUS
 10
55.8822849461
 20
257.985167206
 40
0.25
 50
90.0
 51
239.4415682141
  0
ARC
  8
0
 62
7
  6
CONTINUOUS
 10
70.5330861822
 20
251.235167206
 40
1.0
 50
250.46
 51
270.0
  0
ARC
  8
0
 62
7
  6
CONTINUOUS
 10
75.9580720006
 20
243.285167206
 40
1.0
 50
196.467546793
 51
270.0
  0
ARC
  8
0
 62
7
  6
CONTINUOUS
 10
72.225795218
 20
249.385167206
 40
0.85
 50
16.467546793
 51
90.0
  0
ARC
  8
0
 62
7
  6
CONTINUOUS
 10
66.8101792155
 20
250.964776503
 40
0.5
 50
70.46
 51
133.7212620861
  0
ARC
  8
0
 62
7
  6
CONTINUOUS
 10
69.737912966
 20
259.985167206
 40
0.25
 50
4.0000009683
 51
90.0000095229
  0
ARC
  8
0
 62
7
  6
CONTINUOUS
 10
65.6838777568
 20
259.985167206
 40
0.25
 50
89.9999904771
 51
175.9999990317
  0
ARC
  8
0
 62
7
  6
CONTINUOUS
 10
75.0838777568
 20
259.985167206
 40
0.25
 50
90.0
 51
176.0
  0
ARC
  8
0
 62
7
  6
CONTINUOUS
 10
101.0221364817
 20
215.1905961487
 40
50.0
 50
133.7212620861
 51
143.8371991552
  0
ARC
  8
0
 62
7
  6
CONTINUOUS
 10
82.8887045406
 20
251.235167206
 40
1.0
 50
270.0
 51
289.54
  0
ARC
  8
0
 62
7
  6
CONTINUOUS
 10
77.4637187221
 20
243.285167206
 40
1.0
 50
270.0
 51
343.532453207
  0
ARC
  8
0
 62
7
  6
CONTINUOUS
 10
81.1959955047
 20
249.385167206
 40
0.85
 50
90.0
 51
163.532453207
  0
ARC
  8
0
 62
7
  6
CONTINUOUS
 10
86.6116115072
 20
250.964776503
 40
0.5
 50
46.2787379139
 51
109.54
  0
ARC
  8
0
 62
7
  6
CONTINUOUS
 10
87.737912966
 20
259.985167206
 40
0.25
 50
4.0000009683
 51
90.0000095229
  0
ARC
  8
0
 62
7
  6
CONTINUOUS
 10
83.6838777568
 20
259.985167206
 40
0.25
 50
89.9999904771
 51
175.9999990317
  0
ARC
  8
0
 62
7
  6
CONTINUOUS
 10
78.337912966
 20
259.985167206
 40
0.25
 50
4.0
 51
90.0
  0
ARC
  8
0
 62
7
  6
CONTINUOUS
 10
102.1108953614
 20
250.235167206
 40
8.5
 50
289.7499227956
 51
70.2500772044
  0
ARC
  8
0
 62
7
  6
CONTINUOUS
 10
97.6108953614
 20
248.235167206
 40
6.0
 50
216.1628008448
 51
270.0
  0
CIRCLE
  8
0
 62
7
  6
CONTINUOUS
 10
102.1108953614
 20
250.235167206
 40
4.15
  0
ARC
  8
0
 62
7
  6
CONTINUOUS
 10
96.337912966
 20
259.985167206
 40
0.25
 50
4.0
 51
90.0
  0
ARC
  8
0
 62
7
  6
CONTINUOUS
 10
93.0838777568
 20
259.985167206
 40
0.25
 50
90.0
 51
176.0
  0
ENDSEC
  0
EOF
