  0
SECTION
  2
HEADER
  9
$EXTMAX
 10
210.0
 20
297.0
 30
0.0
  9
$EXTMIN
 10
0.0
 20
0.0
 30
0.0
  9
$LIMMIN
 10
0.0
 20
0.0
  9
$LIMMAX
 10
210.0
 20
297.0
  9
$VIEWCTR
 10
105.0
 20
148.5
  9
$VIEWSIZE
 40
297.0
  9
$CLAYER
  8
0
  9
$LTSCALE
 40
19.36
  9
$CELTYPE
  6
BYLAYER
  9
$DIMSCALE
 40
1.0
  9
$DIMASZ
 40
3.5
  9
$DIMEXO
 40
2.2
  9
$DIMDLI
 40
13.376
  9
$DIMEXE
 40
6.336
  9
$DIMCEN
 40
3.168
  9
$DIMLFAC
 40
1.0
  9
$DIMBLK
  1
_FILLED
  9
$DIMTXT
 40
3.5
  9
$PDMODE
 70
3
  9
$PDSIZE
 40
0.3125
  9
$TILEMODE
 70
1
  0
ENDSEC
  0
SECTION
  2
TABLES
  0
TABLE
  2
LTYPE
 70
6
  0
LTYPE
  2
BYBLOCK
 70
0
  3

 72
65
 73
0
 40
0.0
  0
LTYPE
  2
BYLAYER
 70
0
  3

 72
65
 73
0
 40
0.0
  0
LTYPE
  2
CONTINUOUS
 70
64
  3
Solid line
 72
65
 73
0
 40
0.0
  0
LTYPE
  2
CENTER
 70
64
  3
____ _ ____ _ ____ _ ____ _ ____ _ ____ _ ____
 72
65
 73
4
 40
0.6
 49
0.375
 49
-0.075
 49
0.075
 49
-0.075
  0
LTYPE
  2
HIDDEN
 70
64
  3
- - - - - - - - - - - - - - - - - - - -
 72
65
 73
2
 40
0.2
 49
0.1
 49
-0.1
  0
LTYPE
  2
PHANTOM
 70
64
  3
_____ _ _ _____ _ _ _____ _ _ _____
 72
65
 73
6
 40
0.8
 49
0.45
 49
-0.05
 49
0.1
 49
-0.05
 49
0.1
 49
-0.05
  0
LTYPE
  2
DOT
 70
64
  3
. . . . . . . . . . . . . . . . . . . .
 72
65
 73
2
 40
0.2
 49
0.1
 49
-0.1
  0
LTYPE
  2
DASHED
 70
64
  3
- - - - - - - - - - - - - - - - - - - -
 72
65
 73
2
 40
0.2
 49
0.1
 49
-0.1
  0
ENDTAB
  0
TABLE
  2
LAYER
 70
36
  0
LAYER
  2
0
 70
0
 62
7
  6
CONTINUOUS
  0
LAYER
  2
DEFAULT_1
 70
0
 62
7
  6
CENTER
  0
LAYER
  2
DEFAULT_2
 70
0
 62
8
  6
HIDDEN
  0
LAYER
  2
DEFAULT_3
 70
0
 62
7
  6
PHANTOM
  0
LAYER
  2
3_ALL_SYMBOLS
 70
0
 62
7
  6
CONTINUOUS
  0
LAYER
  2
BLANK_PLAN
 70
0
 62
7
  6
CONTINUOUS
  0
LAYER
  2
NOTES
 70
0
 62
7
  6
CONTINUOUS
  0
ENDTAB
  0
TABLE
  2
STYLE
 70
1
  0
STYLE
  2
STANDARD
 70
0
 40
0.0
 41
0.8
 50
0.0
 71
0
 42
0.2
  3
txt
  4

  0
STYLE
  2
TEXTSTYLE_1
 70
0
 40
0.0
 41
0.8
 50
0.0
 71
0
 42
0.2
  3
gdt
  4

  0
STYLE
  2
TEXTSTYLE_2
 70
0
 40
0.0
 41
0.6
 50
0.0
 71
0
 42
0.2
  3
txt
  4

  0
STYLE
  2
TEXTSTYLE_3
 70
0
 40
0.0
 41
1.0
 50
0.0
 71
0
 42
0.2
  3
ftb_____.ttf
  4

  0
STYLE
  2
TEXTSTYLE_4
 70
0
 40
0.0
 41
1.0
 50
0.0
 71
0
 42
0.2
  3
fti_____.ttf
  4

  0
STYLE
  2
TEXTSTYLE_5
 70
0
 40
0.0
 41
1.0
 50
0.0
 71
0
 42
0.2
  3
frutiger light.ttf
  4

  0
STYLE
  2
TEXTSTYLE_6
 70
0
 40
0.0
 41
0.7
 50
0.0
 71
0
 42
0.2
  3
txt
  4

  0
STYLE
  2
TEXTSTYLE_7
 70
0
 40
0.0
 41
0.7
 50
0.0
 71
0
 42
0.2
  3
txt
  4

  0
ENDTAB
  0
ENDSEC
  0
SECTION
  2
BLOCKS
  0
BLOCK
  8
0
 62
2
  6
CONTINUOUS
  2
SYMBOL_8_BL1
 70
64
 10
173.5956734183
 20
35.5937998301
  0
TEXT
  8
0
 62
7
  6
CONTINUOUS
 10
164.6539584268
 20
30.6865562072
  7
TEXTSTYLE_4
 40
1.0655737705
  1
The brand for plastic modular belts and chains
 41
1.0
 72
0
  0
LINE
  8
0
 62
7
  6
CONTINUOUS
 10
149.5737418074
 20
36.1675703219
 11
149.5737418074
 21
34.0364227809
  0
LINE
  8
0
 62
7
  6
CONTINUOUS
 10
149.8628043005
 20
31.0454914852
 11
149.8628043005
 21
31.1422825445
  0
LINE
  8
0
 62
7
  6
CONTINUOUS
 10
149.5737418074
 20
31.1100188581
 11
149.6315543091
 21
30.9164367395
  0
LINE
  8
0
 62
7
  6
CONTINUOUS
 10
150.9671844304
 20
33.9544555678
 11
150.9671844304
 21
36.1675703219
  0
LINE
  8
0
 62
7
  6
CONTINUOUS
 10
151.8862417523
 20
32.1101932727
 11
151.8862417523
 21
30.5937998301
  0
LINE
  8
0
 62
7
  6
CONTINUOUS
 10
152.1753043074
 20
30.5937998301
 11
152.1753043074
 21
31.3358647082
  0
LINE
  8
0
 62
7
  6
CONTINUOUS
 10
152.1753043074
 20
31.4649194539
 11
152.1753043074
 21
32.1101932727
  0
LINE
  8
0
 62
7
  6
CONTINUOUS
 10
149.6315543091
 20
31.3036010218
 11
149.5737418074
 21
31.1100188581
  0
LINE
  8
0
 62
7
  6
CONTINUOUS
 10
149.9784292936
 20
30.8841730531
 11
149.8628043005
 21
31.0454914852
  0
LINE
  8
0
 62
7
  6
CONTINUOUS
 10
151.0768668626
 20
31.400392081
 11
151.1346793074
 21
31.3036010218
  0
LINE
  8
0
 62
7
  6
CONTINUOUS
 10
151.4237418626
 20
31.3036010218
 11
151.3659292523
 21
31.4326557675
  0
LINE
  8
0
 62
7
  6
CONTINUOUS
 10
152.852430332
 20
36.1675703219
 11
152.852430332
 21
34.3642916334
  0
LINE
  8
0
 62
7
  6
CONTINUOUS
 10
152.852430332
 20
33.0528162235
 11
152.852430332
 21
32.3970785186
  0
LINE
  8
0
 62
7
  6
CONTINUOUS
 10
153.2159293074
 20
31.2390736489
 11
153.2159293074
 21
30.5937998301
  0
LINE
  8
0
 62
7
  6
CONTINUOUS
 10
153.5049916972
 20
30.5937998301
 11
153.5049916972
 21
31.2390736489
  0
LINE
  8
0
 62
7
  6
CONTINUOUS
 10
149.8628043005
 20
31.1422825445
 11
149.9206168074
 21
31.2713373354
  0
LINE
  8
0
 62
7
  6
CONTINUOUS
 10
149.6315543091
 20
30.9164367395
 11
149.7471793074
 21
30.7873819712
  0
LINE
  8
0
 62
7
  6
CONTINUOUS
 10
153.1581166972
 20
31.3681283946
 11
153.2159293074
 21
31.2390736489
  0
LINE
  8
0
 62
7
  6
CONTINUOUS
 10
153.9674919177
 20
30.8841730531
 11
154.0253041972
 21
30.7551182848
  0
LINE
  8
0
 62
7
  6
CONTINUOUS
 10
153.5049916972
 20
31.2390736489
 11
153.4471794177
 21
31.400392081
  0
LINE
  8
0
 62
7
  6
CONTINUOUS
 10
153.9674919177
 20
31.4326557675
 11
153.9674919177
 21
31.3681283946
  0
LINE
  8
0
 62
7
  6
CONTINUOUS
 10
153.9674919177
 20
30.9809641124
 11
153.9674919177
 21
30.8841730531
  0
LINE
  8
0
 62
7
  6
CONTINUOUS
 10
154.245872955
 20
32.3970785186
 11
154.245872955
 21
36.1675703219
  0
LINE
  8
0
 62
7
  6
CONTINUOUS
 10
154.2565543074
 20
30.8519093441
 11
154.2565543074
 21
30.9164367395
  0
LINE
  8
0
 62
7
  6
CONTINUOUS
 10
154.5737418074
 20
36.1675703219
 11
154.5737418074
 21
32.3970785186
  0
LINE
  8
0
 62
7
  6
CONTINUOUS
 10
151.3659292523
 20
30.7873819712
 11
151.4237418626
 21
30.9164367395
  0
LINE
  8
0
 62
7
  6
CONTINUOUS
 10
155.759679528
 20
30.6905909007
 11
155.7018665869
 21
30.8519093441
  0
LINE
  8
0
 62
7
  6
CONTINUOUS
 10
155.412804528
 20
31.3681283946
 11
155.412804528
 21
31.2713373354
  0
LINE
  8
0
 62
7
  6
CONTINUOUS
 10
155.412804528
 20
31.1422825445
 11
155.412804528
 21
30.9487004259
  0
LINE
  8
0
 62
7
  6
CONTINUOUS
 10
155.7018665869
 20
30.8519093441
 11
155.7018665869
 21
31.3681283946
  0
LINE
  8
0
 62
7
  6
CONTINUOUS
 10
155.9671844304
 20
32.3970785186
 11
155.9671844304
 21
34.2003572071
  0
LINE
  8
0
 62
7
  6
CONTINUOUS
 10
155.9671844304
 20
35.511832617
 11
155.9671844304
 21
36.1675703219
  0
LINE
  8
0
 62
7
  6
CONTINUOUS
 10
156.279992028
 20
32.1101932727
 11
156.279992028
 21
31.9488748406
  0
LINE
  8
0
 62
7
  6
CONTINUOUS
 10
156.279992028
 20
31.626237886
 11
156.279992028
 21
30.5937998301
  0
LINE
  8
0
 62
7
  6
CONTINUOUS
 10
156.5690540869
 20
30.5937998301
 11
156.5690540869
 21
31.626237886
  0
LINE
  8
0
 62
7
  6
CONTINUOUS
 10
156.5690540869
 20
31.9488748406
 11
156.5690540869
 21
32.1101932727
  0
LINE
  8
0
 62
7
  6
CONTINUOUS
 10
151.1346793074
 20
30.9164367395
 11
151.0768668626
 21
30.8196456577
  0
LINE
  8
0
 62
7
  6
CONTINUOUS
 10
153.4471794177
 20
31.400392081
 11
153.3893668074
 21
31.4649194539
  0
LINE
  8
0
 62
7
  6
CONTINUOUS
 10
154.3143669177
 20
30.7873819712
 11
154.2565543074
 21
30.8519093441
  0
LINE
  8
0
 62
7
  6
CONTINUOUS
 10
155.4706168074
 20
30.6583272086
 11
155.5284290869
 21
30.5937998301
  0
LINE
  8
0
 62
7
  6
CONTINUOUS
 10
155.412804528
 20
30.7551182848
 11
155.4706168074
 21
30.6583272086
  0
LINE
  8
0
 62
7
  6
CONTINUOUS
 10
155.8174918074
 20
30.5937998301
 11
155.759679528
 21
30.6905909007
  0
LINE
  8
0
 62
7
  6
CONTINUOUS
 10
155.7018665869
 20
31.3681283946
 11
155.6440543074
 21
31.4649194539
  0
LINE
  8
0
 62
7
  6
CONTINUOUS
 10
157.0315543074
 20
31.626237886
 11
157.0315543074
 21
30.5937998301
  0
LINE
  8
0
 62
7
  6
CONTINUOUS
 10
157.320617028
 20
30.5937998301
 11
157.320617028
 21
31.3358647082
  0
LINE
  8
0
 62
7
  6
CONTINUOUS
 10
157.320617028
 20
31.4649194539
 11
157.320617028
 21
31.626237886
  0
LINE
  8
0
 62
7
  6
CONTINUOUS
 10
157.852430332
 20
34.6101932727
 11
157.852430332
 21
32.3970785186
  0
LINE
  8
0
 62
7
  6
CONTINUOUS
 10
149.7471793074
 20
31.4326557675
 11
149.6315543091
 21
31.3036010218
  0
LINE
  8
0
 62
7
  6
CONTINUOUS
 10
149.9206168074
 20
31.2713373354
 11
149.9784292936
 21
31.3358647082
  0
LINE
  8
0
 62
7
  6
CONTINUOUS
 10
149.7471793074
 20
30.7873819712
 11
149.8628043005
 21
30.7228545871
  0
LINE
  8
0
 62
7
  6
CONTINUOUS
 10
150.1518667936
 20
30.7873819712
 11
149.9784292936
 21
30.8841730531
  0
LINE
  8
0
 62
7
  6
CONTINUOUS
 10
155.3549915869
 20
31.4326557675
 11
155.412804528
 21
31.3681283946
  0
LINE
  8
0
 62
7
  6
CONTINUOUS
 10
158.3034290869
 20
31.3681283946
 11
158.361242028
 21
31.2068099625
  0
LINE
  8
0
 62
7
  6
CONTINUOUS
 10
158.6503040869
 20
31.2068099625
 11
158.5924918074
 21
31.3681283946
  0
LINE
  8
0
 62
7
  6
CONTINUOUS
 10
158.361242028
 20
31.2068099625
 11
158.361242028
 21
30.5937998301
  0
LINE
  8
0
 62
7
  6
CONTINUOUS
 10
158.6503040869
 20
30.5937998301
 11
158.6503040869
 21
31.2068099625
  0
LINE
  8
0
 62
7
  6
CONTINUOUS
 10
159.1128043074
 20
31.4326557675
 11
159.1128043074
 21
31.3681283946
  0
LINE
  8
0
 62
7
  6
CONTINUOUS
 10
159.245872955
 20
32.3970785186
 11
159.245872955
 21
34.5282260596
  0
LINE
  8
0
 62
7
  6
CONTINUOUS
 10
159.5737418074
 20
36.1675703219
 11
159.5737418074
 21
32.3970785186
  0
LINE
  8
0
 62
7
  6
CONTINUOUS
 10
154.2565543074
 20
30.9164367395
 11
154.3143669177
 21
31.0132277988
  0
LINE
  8
0
 62
7
  6
CONTINUOUS
 10
149.8628043005
 20
30.7228545871
 11
150.0362418212
 21
30.6583272086
  0
LINE
  8
0
 62
7
  6
CONTINUOUS
 10
151.3659292523
 20
31.4326557675
 11
151.1924917523
 21
31.5294468267
  0
LINE
  8
0
 62
7
  6
CONTINUOUS
 10
154.0253041972
 20
30.7551182848
 11
154.1987416972
 21
30.6583272086
  0
LINE
  8
0
 62
7
  6
CONTINUOUS
 10
153.0424918074
 20
31.4326557675
 11
153.1581166972
 21
31.3681283946
  0
LINE
  8
0
 62
7
  6
CONTINUOUS
 10
153.3893668074
 20
31.4649194539
 11
153.2737419177
 21
31.5294468267
  0
LINE
  8
0
 62
7
  6
CONTINUOUS
 10
159.1128043074
 20
30.8519093441
 11
159.228429528
 21
30.7228545871
  0
LINE
  8
0
 62
7
  6
CONTINUOUS
 10
159.4596793074
 20
30.7873819712
 11
159.401867028
 21
30.8519093441
  0
LINE
  8
0
 62
7
  6
CONTINUOUS
 10
159.1128043074
 20
31.3681283946
 11
159.228429528
 21
31.2390736489
  0
LINE
  8
0
 62
7
  6
CONTINUOUS
 10
158.5924918074
 20
31.3681283946
 11
158.534679528
 21
31.4649194539
  0
LINE
  8
0
 62
7
  6
CONTINUOUS
 10
160.9628038663
 20
30.7873819712
 11
160.9628038663
 21
30.8519093441
  0
LINE
  8
0
 62
7
  6
CONTINUOUS
 10
160.9671844304
 20
32.3970785186
 11
160.9671844304
 21
36.1675703219
  0
LINE
  8
0
 62
7
  6
CONTINUOUS
 10
154.0253041972
 20
31.4971831403
 11
153.9674919177
 21
31.4326557675
  0
LINE
  8
0
 62
7
  6
CONTINUOUS
 10
150.9034292799
 20
31.4649194539
 11
151.0768668626
 21
31.400392081
  0
LINE
  8
0
 62
7
  6
CONTINUOUS
 10
155.6440543074
 20
31.4649194539
 11
155.5284290869
 21
31.5294468267
  0
LINE
  8
0
 62
7
  6
CONTINUOUS
 10
159.4596793074
 20
31.3036010218
 11
159.401867028
 21
31.3681283946
  0
LINE
  8
0
 62
7
  6
CONTINUOUS
 10
160.615929528
 20
30.9164367395
 11
160.6737418074
 21
30.8519093441
  0
LINE
  8
0
 62
7
  6
CONTINUOUS
 10
160.9628038663
 20
30.8519093441
 11
160.8471793074
 21
30.9809641124
  0
LINE
  8
0
 62
7
  6
CONTINUOUS
 10
160.615929528
 20
31.4326557675
 11
160.6737418074
 21
31.3681283946
  0
LINE
  8
0
 62
7
  6
CONTINUOUS
 10
160.9628038663
 20
31.3681283946
 11
160.8471793074
 21
31.4971831403
  0
LINE
  8
0
 62
7
  6
CONTINUOUS
 10
154.2565543074
 20
31.3681283946
 11
154.3143669177
 21
31.4326557675
  0
LINE
  8
0
 62
7
  6
CONTINUOUS
 10
154.0831168074
 20
31.1100188581
 11
153.9674919177
 21
30.9809641124
  0
LINE
  8
0
 62
7
  6
CONTINUOUS
 10
155.412804528
 20
30.9487004259
 11
155.3549915869
 21
30.8841730531
  0
LINE
  8
0
 62
7
  6
CONTINUOUS
 10
155.3549915869
 20
30.6905909007
 11
155.412804528
 21
30.7551182848
  0
LINE
  8
0
 62
7
  6
CONTINUOUS
 10
154.1987416972
 20
30.6583272086
 11
154.3143669177
 21
30.6260635193
  0
LINE
  8
0
 62
7
  6
CONTINUOUS
 10
151.1924917523
 20
31.5294468267
 11
150.9612418074
 21
31.5939741996
  0
LINE
  8
0
 62
7
  6
CONTINUOUS
 10
154.5456166972
 20
30.7228545871
 11
154.3143669177
 21
30.7873819712
  0
LINE
  8
0
 62
7
  6
CONTINUOUS
 10
153.2737419177
 20
31.5294468267
 11
153.1003044177
 21
31.5939741996
  0
LINE
  8
0
 62
7
  6
CONTINUOUS
 10
155.5284290869
 20
31.5294468267
 11
155.3549915869
 21
31.5939741996
  0
LINE
  8
0
 62
7
  6
CONTINUOUS
 10
158.187804528
 20
31.4326557675
 11
158.3034290869
 21
31.3681283946
  0
LINE
  8
0
 62
7
  6
CONTINUOUS
 10
158.534679528
 20
31.4649194539
 11
158.4190543074
 21
31.5294468267
  0
LINE
  8
0
 62
7
  6
CONTINUOUS
 10
150.0362418212
 20
30.6583272086
 11
150.2096793212
 21
30.6260635193
  0
LINE
  8
0
 62
7
  6
CONTINUOUS
 10
150.498741835
 20
30.7228545871
 11
150.1518667936
 21
30.7873819712
  0
LINE
  8
0
 62
7
  6
CONTINUOUS
 10
152.9268669177
 20
31.4649194539
 11
153.0424918074
 21
31.4326557675
  0
LINE
  8
0
 62
7
  6
CONTINUOUS
 10
155.239367028
 20
31.4649194539
 11
155.3549915869
 21
31.4326557675
  0
LINE
  8
0
 62
7
  6
CONTINUOUS
 10
159.575304528
 20
30.7551182848
 11
159.4596793074
 21
30.7873819712
  0
LINE
  8
0
 62
7
  6
CONTINUOUS
 10
158.0721793074
 20
31.4649194539
 11
158.187804528
 21
31.4326557675
  0
LINE
  8
0
 62
7
  6
CONTINUOUS
 10
159.228429528
 20
30.7228545871
 11
159.401867028
 21
30.6583272086
  0
LINE
  8
0
 62
7
  6
CONTINUOUS
 10
158.4190543074
 20
31.5294468267
 11
158.2456168074
 21
31.5939741996
  0
LINE
  8
0
 62
7
  6
CONTINUOUS
 10
159.6331168074
 20
31.2390736489
 11
159.4596793074
 21
31.3036010218
  0
LINE
  8
0
 62
7
  6
CONTINUOUS
 10
160.442492028
 20
30.9809641124
 11
160.615929528
 21
30.9164367395
  0
LINE
  8
0
 62
7
  6
CONTINUOUS
 10
160.8471793074
 20
31.4971831403
 11
160.6737418074
 21
31.5617105132
  0
LINE
  8
0
 62
7
  6
CONTINUOUS
 10
159.228429528
 20
31.2390736489
 11
159.4596793074
 21
31.1422825445
  0
LINE
  8
0
 62
7
  6
CONTINUOUS
 10
160.8471793074
 20
30.9809641124
 11
160.615929528
 21
31.0777551716
  0
LINE
  8
0
 62
7
  6
CONTINUOUS
 10
159.401867028
 20
31.3681283946
 11
159.4596793074
 21
31.4326557675
  0
LINE
  8
0
 62
7
  6
CONTINUOUS
 10
149.8628043005
 20
31.4971831403
 11
149.7471793074
 21
31.4326557675
  0
LINE
  8
0
 62
7
  6
CONTINUOUS
 10
149.9784292936
 20
31.3358647082
 11
150.1518667936
 21
31.4326557675
  0
LINE
  8
0
 62
7
  6
CONTINUOUS
 10
152.2909293626
 20
31.5294468267
 11
152.1753043074
 21
31.4649194539
  0
LINE
  8
0
 62
7
  6
CONTINUOUS
 10
152.1753043074
 20
31.3358647082
 11
152.2909293626
 21
31.400392081
  0
LINE
  8
0
 62
7
  6
CONTINUOUS
 10
151.1924917523
 20
30.6905909007
 11
151.3659292523
 21
30.7873819712
  0
LINE
  8
0
 62
7
  6
CONTINUOUS
 10
150.2096793212
 20
30.6260635193
 11
150.5565542799
 21
30.5937998301
  0
LINE
  8
0
 62
7
  6
CONTINUOUS
 10
154.3143669177
 20
30.6260635193
 11
154.5456166972
 21
30.5937998301
  0
LINE
  8
0
 62
7
  6
CONTINUOUS
 10
152.6956168074
 20
31.4971831403
 11
152.9268669177
 21
31.4649194539
  0
LINE
  8
0
 62
7
  6
CONTINUOUS
 10
155.0081169177
 20
31.4971831403
 11
155.239367028
 21
31.4649194539
  0
LINE
  8
0
 62
7
  6
CONTINUOUS
 10
159.4596793074
 20
31.1422825445
 11
160.442492028
 21
30.9809641124
  0
LINE
  8
0
 62
7
  6
CONTINUOUS
 10
160.615929528
 20
31.0777551716
 11
159.6331168074
 21
31.2390736489
  0
LINE
  8
0
 62
7
  6
CONTINUOUS
 10
153.1003044177
 20
31.5939741996
 11
152.9268669177
 21
31.626237886
  0
LINE
  8
0
 62
7
  6
CONTINUOUS
 10
159.401867028
 20
30.6583272086
 11
159.575304528
 21
30.6260635193
  0
LINE
  8
0
 62
7
  6
CONTINUOUS
 10
158.2456168074
 20
31.5939741996
 11
158.0721793074
 21
31.626237886
  0
LINE
  8
0
 62
7
  6
CONTINUOUS
 10
160.5003043074
 20
31.4649194539
 11
160.615929528
 21
31.4326557675
  0
LINE
  8
0
 62
7
  6
CONTINUOUS
 10
160.6737418074
 20
30.8519093441
 11
160.615929528
 21
30.7873819712
  0
LINE
  8
0
 62
7
  6
CONTINUOUS
 10
159.228429528
 20
31.5294468267
 11
159.1128043074
 21
31.4326557675
  0
LINE
  8
0
 62
7
  6
CONTINUOUS
 10
154.1409294177
 20
31.5617105132
 11
154.0253041972
 21
31.4971831403
  0
LINE
  8
0
 62
7
  6
CONTINUOUS
 10
154.1987416972
 20
31.1745462761
 11
154.0831168074
 21
31.1100188581
  0
LINE
  8
0
 62
7
  6
CONTINUOUS
 10
154.3143669177
 20
31.0132277988
 11
154.4299918074
 21
31.0777551716
  0
LINE
  8
0
 62
7
  6
CONTINUOUS
 10
151.8862417523
 20
30.5937998301
 11
152.1753043074
 21
30.5937998301
  0
LINE
  8
0
 62
7
  6
CONTINUOUS
 10
153.2159293074
 20
30.5937998301
 11
153.5049916972
 21
30.5937998301
  0
LINE
  8
0
 62
7
  6
CONTINUOUS
 10
154.5456166972
 20
30.5937998301
 11
154.8924916972
 21
30.5937998301
  0
LINE
  8
0
 62
7
  6
CONTINUOUS
 10
155.5284290869
 20
30.5937998301
 11
155.8174918074
 21
30.5937998301
  0
LINE
  8
0
 62
7
  6
CONTINUOUS
 10
156.279992028
 20
30.5937998301
 11
156.5690540869
 21
30.5937998301
  0
LINE
  8
0
 62
7
  6
CONTINUOUS
 10
157.0315543074
 20
30.5937998301
 11
157.320617028
 21
30.5937998301
  0
LINE
  8
0
 62
7
  6
CONTINUOUS
 10
158.361242028
 20
30.5937998301
 11
158.6503040869
 21
30.5937998301
  0
LINE
  8
0
 62
7
  6
CONTINUOUS
 10
159.922179528
 20
30.5937998301
 11
160.269054528
 21
30.5937998301
  0
LINE
  8
0
 62
7
  6
CONTINUOUS
 10
160.269054528
 20
30.7228545871
 11
159.922179528
 21
30.7228545871
  0
LINE
  8
0
 62
7
  6
CONTINUOUS
 10
154.8924916972
 20
30.7228545871
 11
154.5456166972
 21
30.7228545871
  0
LINE
  8
0
 62
7
  6
CONTINUOUS
 10
159.401867028
 20
30.8519093441
 11
159.1128043074
 21
30.8519093441
  0
LINE
  8
0
 62
7
  6
CONTINUOUS
 10
151.4237418626
 20
30.9164367395
 11
151.1346793074
 21
30.9164367395
  0
LINE
  8
0
 62
7
  6
CONTINUOUS
 10
150.498741835
 20
31.4971831403
 11
150.9034292799
 21
31.4649194539
  0
LINE
  8
0
 62
7
  6
CONTINUOUS
 10
150.9612418074
 20
31.5939741996
 11
150.5565542799
 21
31.626237886
  0
LINE
  8
0
 62
7
  6
CONTINUOUS
 10
159.575304528
 20
30.6260635193
 11
159.922179528
 21
30.5937998301
  0
LINE
  8
0
 62
7
  6
CONTINUOUS
 10
159.922179528
 20
30.7228545871
 11
159.575304528
 21
30.7551182848
  0
LINE
  8
0
 62
7
  6
CONTINUOUS
 10
155.3549915869
 20
31.5939741996
 11
155.0081169177
 21
31.626237886
  0
LINE
  8
0
 62
7
  6
CONTINUOUS
 10
160.1534293074
 20
31.4971831403
 11
160.5003043074
 21
31.4649194539
  0
LINE
  8
0
 62
7
  6
CONTINUOUS
 10
160.5003043074
 20
31.5939741996
 11
160.1534293074
 21
31.626237886
  0
LINE
  8
0
 62
7
  6
CONTINUOUS
 10
157.840929528
 20
31.4971831403
 11
158.0721793074
 21
31.4649194539
  0
LINE
  8
0
 62
7
  6
CONTINUOUS
 10
160.6737418074
 20
31.5617105132
 11
160.5003043074
 21
31.5939741996
  0
LINE
  8
0
 62
7
  6
CONTINUOUS
 10
160.8471793074
 20
30.6905909007
 11
160.9628038663
 21
30.7873819712
  0
LINE
  8
0
 62
7
  6
CONTINUOUS
 10
155.3549915869
 20
30.8841730531
 11
155.1815540869
 21
30.7873819712
  0
LINE
  8
0
 62
7
  6
CONTINUOUS
 10
157.4362415869
 20
31.5294468267
 11
157.320617028
 21
31.4649194539
  0
LINE
  8
0
 62
7
  6
CONTINUOUS
 10
157.320617028
 20
31.3358647082
 11
157.4362415869
 21
31.400392081
  0
LINE
  8
0
 62
7
  6
CONTINUOUS
 10
150.0362418212
 20
31.5617105132
 11
149.8628043005
 21
31.4971831403
  0
LINE
  8
0
 62
7
  6
CONTINUOUS
 10
152.4643666972
 20
31.5939741996
 11
152.2909293626
 21
31.5294468267
  0
LINE
  8
0
 62
7
  6
CONTINUOUS
 10
152.2909293626
 20
31.400392081
 11
152.4643666972
 21
31.4649194539
  0
LINE
  8
0
 62
7
  6
CONTINUOUS
 10
151.0768668626
 20
30.8196456577
 11
150.9034292799
 21
30.7551182848
  0
LINE
  8
0
 62
7
  6
CONTINUOUS
 10
160.5003043074
 20
30.7551182848
 11
160.269054528
 21
30.7228545871
  0
LINE
  8
0
 62
7
  6
CONTINUOUS
 10
154.8924916972
 20
30.5937998301
 11
155.1815540869
 21
30.6260635193
  0
LINE
  8
0
 62
7
  6
CONTINUOUS
 10
160.269054528
 20
30.5937998301
 11
160.615929528
 21
30.6260635193
  0
LINE
  8
0
 62
7
  6
CONTINUOUS
 10
150.5565542799
 20
30.5937998301
 11
150.9612418074
 21
30.6260635193
  0
LINE
  8
0
 62
7
  6
CONTINUOUS
 10
150.9034292799
 20
30.7551182848
 11
150.498741835
 21
30.7228545871
  0
LINE
  8
0
 62
7
  6
CONTINUOUS
 10
154.7768668074
 20
31.1422825445
 11
155.412804528
 21
31.1422825445
  0
LINE
  8
0
 62
7
  6
CONTINUOUS
 10
155.412804528
 20
31.2713373354
 11
154.7768668074
 21
31.2713373354
  0
LINE
  8
0
 62
7
  6
CONTINUOUS
 10
151.1346793074
 20
31.3036010218
 11
151.4237418626
 21
31.3036010218
  0
LINE
  8
0
 62
7
  6
CONTINUOUS
 10
153.9674919177
 20
31.3681283946
 11
154.2565543074
 21
31.3681283946
  0
LINE
  8
0
 62
7
  6
CONTINUOUS
 10
160.6737418074
 20
31.3681283946
 11
160.9628038663
 21
31.3681283946
  0
LINE
  8
0
 62
7
  6
CONTINUOUS
 10
154.6612419177
 20
31.4971831403
 11
155.0081169177
 21
31.4971831403
  0
LINE
  8
0
 62
7
  6
CONTINUOUS
 10
159.8065543074
 20
31.4971831403
 11
160.1534293074
 21
31.4971831403
  0
LINE
  8
0
 62
7
  6
CONTINUOUS
 10
160.1534293074
 20
31.626237886
 11
159.8065543074
 21
31.626237886
  0
LINE
  8
0
 62
7
  6
CONTINUOUS
 10
158.0721793074
 20
31.626237886
 11
157.840929528
 21
31.626237886
  0
LINE
  8
0
 62
7
  6
CONTINUOUS
 10
157.320617028
 20
31.626237886
 11
157.0315543074
 21
31.626237886
  0
LINE
  8
0
 62
7
  6
CONTINUOUS
 10
156.5690540869
 20
31.626237886
 11
156.279992028
 21
31.626237886
  0
LINE
  8
0
 62
7
  6
CONTINUOUS
 10
155.0081169177
 20
31.626237886
 11
154.6612419177
 21
31.626237886
  0
LINE
  8
0
 62
7
  6
CONTINUOUS
 10
152.9268669177
 20
31.626237886
 11
152.6956168074
 21
31.626237886
  0
LINE
  8
0
 62
7
  6
CONTINUOUS
 10
156.279992028
 20
31.9488748406
 11
156.5690540869
 21
31.9488748406
  0
LINE
  8
0
 62
7
  6
CONTINUOUS
 10
156.5690540869
 20
32.1101932727
 11
156.279992028
 21
32.1101932727
  0
LINE
  8
0
 62
7
  6
CONTINUOUS
 10
152.1753043074
 20
32.1101932727
 11
151.8862417523
 21
32.1101932727
  0
LINE
  8
0
 62
7
  6
CONTINUOUS
 10
151.2130860697
 20
32.3970785186
 11
151.6256574183
 21
32.3970785186
  0
LINE
  8
0
 62
7
  6
CONTINUOUS
 10
152.852430332
 20
32.3970785186
 11
154.245872955
 21
32.3970785186
  0
LINE
  8
0
 62
7
  6
CONTINUOUS
 10
154.5737418074
 20
32.3970785186
 11
155.9671844304
 21
32.3970785186
  0
LINE
  8
0
 62
7
  6
CONTINUOUS
 10
157.852430332
 20
32.3970785186
 11
159.245872955
 21
32.3970785186
  0
LINE
  8
0
 62
7
  6
CONTINUOUS
 10
159.5737418074
 20
32.3970785186
 11
160.9671844304
 21
32.3970785186
  0
LINE
  8
0
 62
7
  6
CONTINUOUS
 10
157.6096790869
 20
31.5939741996
 11
157.4362415869
 21
31.5294468267
  0
LINE
  8
0
 62
7
  6
CONTINUOUS
 10
155.1815540869
 20
30.6260635193
 11
155.3549915869
 21
30.6905909007
  0
LINE
  8
0
 62
7
  6
CONTINUOUS
 10
160.615929528
 20
30.6260635193
 11
160.8471793074
 21
30.6905909007
  0
LINE
  8
0
 62
7
  6
CONTINUOUS
 10
160.615929528
 20
30.7873819712
 11
160.5003043074
 21
30.7551182848
  0
LINE
  8
0
 62
7
  6
CONTINUOUS
 10
159.575304528
 20
31.4649194539
 11
159.8065543074
 21
31.4971831403
  0
LINE
  8
0
 62
7
  6
CONTINUOUS
 10
157.6096790869
 20
31.4649194539
 11
157.840929528
 21
31.4971831403
  0
LINE
  8
0
 62
7
  6
CONTINUOUS
 10
154.5456166972
 20
31.1100188581
 11
154.7768668074
 21
31.1422825445
  0
LINE
  8
0
 62
7
  6
CONTINUOUS
 10
157.840929528
 20
31.626237886
 11
157.6096790869
 21
31.5939741996
  0
LINE
  8
0
 62
7
  6
CONTINUOUS
 10
154.4299918074
 20
31.4649194539
 11
154.6612419177
 21
31.4971831403
  0
LINE
  8
0
 62
7
  6
CONTINUOUS
 10
159.8065543074
 20
31.626237886
 11
159.4596793074
 21
31.5939741996
  0
LINE
  8
0
 62
7
  6
CONTINUOUS
 10
154.7768668074
 20
31.2713373354
 11
154.4299918074
 21
31.2390736489
  0
LINE
  8
0
 62
7
  6
CONTINUOUS
 10
150.5565542799
 20
31.626237886
 11
150.2096793212
 21
31.5939741996
  0
LINE
  8
0
 62
7
  6
CONTINUOUS
 10
154.6612419177
 20
31.626237886
 11
154.2565543074
 21
31.5939741996
  0
LINE
  8
0
 62
7
  6
CONTINUOUS
 10
152.0327582009
 20
33.5446195022
 11
151.3770204959
 21
33.5446195022
  0
LINE
  8
0
 62
7
  6
CONTINUOUS
 10
157.4362415869
 20
31.400392081
 11
157.6096790869
 21
31.4649194539
  0
LINE
  8
0
 62
7
  6
CONTINUOUS
 10
159.4596793074
 20
31.4326557675
 11
159.575304528
 21
31.4649194539
  0
LINE
  8
0
 62
7
  6
CONTINUOUS
 10
159.4596793074
 20
31.5939741996
 11
159.228429528
 21
31.5294468267
  0
LINE
  8
0
 62
7
  6
CONTINUOUS
 10
155.1815540869
 20
30.7873819712
 11
154.8924916972
 21
30.7228545871
  0
LINE
  8
0
 62
7
  6
CONTINUOUS
 10
152.4643666972
 20
31.4649194539
 11
152.6956168074
 21
31.4971831403
  0
LINE
  8
0
 62
7
  6
CONTINUOUS
 10
152.6956168074
 20
31.626237886
 11
152.4643666972
 21
31.5939741996
  0
LINE
  8
0
 62
7
  6
CONTINUOUS
 10
150.2674918074
 20
31.4649194539
 11
150.498741835
 21
31.4971831403
  0
LINE
  8
0
 62
7
  6
CONTINUOUS
 10
156.7868565615
 20
35.0200293383
 11
157.4425942664
 21
35.0200293383
  0
LINE
  8
0
 62
7
  6
CONTINUOUS
 10
154.4299918074
 20
31.0777551716
 11
154.5456166972
 21
31.1100188581
  0
LINE
  8
0
 62
7
  6
CONTINUOUS
 10
154.4299918074
 20
31.2390736489
 11
154.1987416972
 21
31.1745462761
  0
LINE
  8
0
 62
7
  6
CONTINUOUS
 10
154.3143669177
 20
31.4326557675
 11
154.4299918074
 21
31.4649194539
  0
LINE
  8
0
 62
7
  6
CONTINUOUS
 10
150.9612418074
 20
30.6260635193
 11
151.1924917523
 21
30.6905909007
  0
LINE
  8
0
 62
7
  6
CONTINUOUS
 10
154.2565543074
 20
31.5939741996
 11
154.1409294177
 21
31.5617105132
  0
LINE
  8
0
 62
7
  6
CONTINUOUS
 10
150.2096793212
 20
31.5939741996
 11
150.0362418212
 21
31.5617105132
  0
LINE
  8
0
 62
7
  6
CONTINUOUS
 10
160.9671844304
 20
36.1675703219
 11
159.5737418074
 21
36.1675703219
  0
LINE
  8
0
 62
7
  6
CONTINUOUS
 10
157.6065286927
 20
36.1675703219
 11
157.1939573441
 21
36.1675703219
  0
LINE
  8
0
 62
7
  6
CONTINUOUS
 10
155.9671844304
 20
36.1675703219
 11
154.5737418074
 21
36.1675703219
  0
LINE
  8
0
 62
7
  6
CONTINUOUS
 10
154.245872955
 20
36.1675703219
 11
152.852430332
 21
36.1675703219
  0
LINE
  8
0
 62
7
  6
CONTINUOUS
 10
150.9671844304
 20
36.1675703219
 11
149.5737418074
 21
36.1675703219
  0
LINE
  8
0
 62
7
  6
CONTINUOUS
 10
150.1518667936
 20
31.4326557675
 11
150.2674918074
 21
31.4649194539
  0
CIRCLE
  8
0
 62
7
  6
CONTINUOUS
 10
160.2704631189
 20
38.5036358957
 40
2.0901639344
  0
ARC
  8
0
 62
7
  6
CONTINUOUS
 10
151.2130860697
 20
34.0364227809
 40
1.6393442623
 50
180.0
 51
270.0
  0
ARC
  8
0
 62
7
  6
CONTINUOUS
 10
157.6065286927
 20
34.5282260596
 40
1.6393442623
 50
0.0
 51
90.0
  0
ARC
  8
0
 62
7
  6
CONTINUOUS
 10
151.6256574183
 20
33.8724883547
 40
1.4754098361
 50
270.0
 51
326.2510114041
  0
ARC
  8
0
 62
7
  6
CONTINUOUS
 10
157.1939573441
 20
34.6921604858
 40
1.4754098361
 50
90.0
 51
146.2510114041
  0
ARC
  8
0
 62
7
  6
CONTINUOUS
 10
152.0327582009
 20
34.3642916334
 40
0.8196721311
 50
270.0
 51
360.0
  0
ARC
  8
0
 62
7
  6
CONTINUOUS
 10
156.7868565615
 20
34.2003572071
 40
0.8196721311
 50
90.0
 51
180.0
  0
ARC
  8
0
 62
7
  6
CONTINUOUS
 10
151.3770204959
 20
33.9544555678
 40
0.4098360656
 50
180.0
 51
270.0
  0
ARC
  8
0
 62
7
  6
CONTINUOUS
 10
157.4425942664
 20
34.6101932727
 40
0.4098360656
 50
0.0
 51
90.0
  0
SOLID
  8
0
 62
7
  6
CONTINUOUS
 10
156.279992028
 20
31.9488752009
 11
156.279992028
 21
32.1101936845
 12
156.5690540869
 22
31.9488752009
 13
156.5690540869
 23
32.1101936845
  0
SOLID
  8
0
 62
7
  6
CONTINUOUS
 10
150.5565542799
 20
31.6262382337
 11
150.9612418074
 21
31.5939740028
 12
150.2096793212
 22
31.5939740028
 13
150.2096793212
 23
31.5939740028
  0
SOLID
  8
0
 62
7
  6
CONTINUOUS
 10
150.0362418212
 20
31.5617111435
 11
150.2096793212
 21
31.5939740028
 12
150.9612418074
 22
31.5939740028
 13
150.9612418074
 23
31.5939740028
  0
SOLID
  8
0
 62
7
  6
CONTINUOUS
 10
150.9612418074
 20
31.5939740028
 11
151.1924917523
 21
31.5294468402
 12
150.0362418212
 22
31.5617111435
 13
150.0362418212
 23
31.5617111435
  0
SOLID
  8
0
 62
7
  6
CONTINUOUS
 10
149.8628043005
 20
31.49718259
 11
150.0362418212
 21
31.5617111435
 12
151.1924917523
 22
31.5294468402
 13
151.1924917523
 23
31.5294468402
  0
SOLID
  8
0
 62
7
  6
CONTINUOUS
 10
149.8628043005
 20
31.49718259
 11
151.1924917523
 21
31.5294468402
 12
150.498741835
 22
31.49718259
 13
150.498741835
 23
31.49718259
  0
SOLID
  8
0
 62
7
  6
CONTINUOUS
 10
150.498741835
 20
31.49718259
 11
151.1924917523
 21
31.5294468402
 12
150.9034292799
 22
31.4649197501
 13
150.9034292799
 23
31.4649197501
  0
SOLID
  8
0
 62
7
  6
CONTINUOUS
 10
151.1924917523
 20
31.5294468402
 11
151.3659292523
 21
31.4326554468
 12
150.9034292799
 22
31.4649197501
 13
150.9034292799
 23
31.4649197501
  0
SOLID
  8
0
 62
7
  6
CONTINUOUS
 10
151.0768668626
 20
31.4003926599
 11
150.9034292799
 21
31.4649197501
 12
151.3659292523
 22
31.4326554468
 13
151.3659292523
 23
31.4326554468
  0
SOLID
  8
0
 62
7
  6
CONTINUOUS
 10
151.0768668626
 20
31.4003926599
 11
151.3659292523
 21
31.4326554468
 12
151.1346793074
 22
31.3036013776
 13
151.1346793074
 23
31.3036013776
  0
SOLID
  8
0
 62
7
  6
CONTINUOUS
 10
151.3659292523
 20
31.4326554468
 11
151.4237418626
 21
31.3036013776
 12
151.1346793074
 22
31.3036013776
 13
151.1346793074
 23
31.3036013776
  0
SOLID
  8
0
 62
7
  6
CONTINUOUS
 10
152.4643666972
 20
31.5939739754
 11
152.6956168074
 21
31.6262382787
 12
152.9268669177
 22
31.6262382787
 13
152.9268669177
 23
31.6262382787
  0
SOLID
  8
0
 62
7
  6
CONTINUOUS
 10
152.9268669177
 20
31.6262382787
 11
153.1003044177
 21
31.5939739754
 12
152.4643666972
 22
31.5939739754
 13
152.4643666972
 23
31.5939739754
  0
SOLID
  8
0
 62
7
  6
CONTINUOUS
 10
152.2909293626
 20
31.5294468852
 11
152.4643666972
 21
31.5939739754
 12
153.1003044177
 22
31.5939739754
 13
153.1003044177
 23
31.5939739754
  0
SOLID
  8
0
 62
7
  6
CONTINUOUS
 10
153.1003044177
 20
31.5939739754
 11
153.2737419177
 21
31.5294468852
 12
152.2909293626
 22
31.5294468852
 13
152.2909293626
 23
31.5294468852
  0
SOLID
  8
0
 62
7
  6
CONTINUOUS
 10
153.2737419177
 20
31.5294468852
 11
152.6956168074
 21
31.4971825369
 12
152.2909293626
 22
31.5294468852
 13
152.2909293626
 23
31.5294468852
  0
SOLID
  8
0
 62
7
  6
CONTINUOUS
 10
152.1753043074
 20
31.4649197951
 11
152.2909293626
 21
31.5294468852
 12
152.6956168074
 22
31.4971825369
 13
152.6956168074
 23
31.4971825369
  0
SOLID
  8
0
 62
7
  6
CONTINUOUS
 10
152.6956168074
 20
31.4971825369
 11
152.4643666972
 21
31.4649197951
 12
152.1753043074
 22
31.4649197951
 13
152.1753043074
 23
31.4649197951
  0
SOLID
  8
0
 62
7
  6
CONTINUOUS
 10
152.6956168074
 20
31.4971825369
 11
153.2737419177
 21
31.5294468852
 12
152.9268669177
 22
31.4649197951
 13
152.9268669177
 23
31.4649197951
  0
SOLID
  8
0
 62
7
  6
CONTINUOUS
 10
153.2737419177
 20
31.5294468852
 11
153.3893668074
 21
31.4649197951
 12
152.9268669177
 22
31.4649197951
 13
152.9268669177
 23
31.4649197951
  0
SOLID
  8
0
 62
7
  6
CONTINUOUS
 10
153.0424918074
 20
31.4326554468
 11
152.9268669177
 21
31.4649197951
 12
153.3893668074
 22
31.4649197951
 13
153.3893668074
 23
31.4649197951
  0
SOLID
  8
0
 62
7
  6
CONTINUOUS
 10
153.3893668074
 20
31.4649197951
 11
153.4471794177
 21
31.4003927049
 12
153.0424918074
 22
31.4326554468
 13
153.0424918074
 23
31.4326554468
  0
SOLID
  8
0
 62
7
  6
CONTINUOUS
 10
153.1581166972
 20
31.3681283566
 11
153.0424918074
 21
31.4326554468
 12
153.4471794177
 22
31.4003927049
 13
153.4471794177
 23
31.4003927049
  0
SOLID
  8
0
 62
7
  6
CONTINUOUS
 10
153.1581166972
 20
31.3681283566
 11
153.4471794177
 21
31.4003927049
 12
153.2159293074
 22
31.2390742213
 13
153.2159293074
 23
31.2390742213
  0
SOLID
  8
0
 62
7
  6
CONTINUOUS
 10
153.4471794177
 20
31.4003927049
 11
153.5049916972
 21
31.2390742213
 12
153.2159293074
 22
31.2390742213
 13
153.2159293074
 23
31.2390742213
  0
SOLID
  8
0
 62
7
  6
CONTINUOUS
 10
152.4643666972
 20
31.4649197951
 11
152.2909293626
 21
31.4003927049
 12
152.1753043074
 22
31.4649197951
 13
152.1753043074
 23
31.4649197951
  0
SOLID
  8
0
 62
7
  6
CONTINUOUS
 10
152.2909293626
 20
31.4003927049
 11
152.1753043074
 21
31.3358640533
 12
152.1753043074
 22
31.4649197951
 13
152.1753043074
 23
31.4649197951
  0
SOLID
  8
0
 62
7
  6
CONTINUOUS
 10
152.1753043074
 20
31.3358640533
 11
151.8862417523
 21
30.5938002869
 12
152.1753043074
 22
31.4649197951
 13
152.1753043074
 23
31.4649197951
  0
SOLID
  8
0
 62
7
  6
CONTINUOUS
 10
152.1753043074
 20
31.4649197951
 11
151.8862417523
 21
30.5938002869
 12
152.1753043074
 22
32.1101937295
 13
152.1753043074
 23
32.1101937295
  0
SOLID
  8
0
 62
7
  6
CONTINUOUS
 10
151.8862417523
 20
30.5938002869
 11
151.8862417523
 21
32.1101937295
 12
152.1753043074
 22
32.1101937295
 13
152.1753043074
 23
32.1101937295
  0
SOLID
  8
0
 62
7
  6
CONTINUOUS
 10
152.1753043074
 20
31.3358640533
 11
152.1753043074
 21
30.5938002869
 12
151.8862417523
 22
30.5938002869
 13
151.8862417523
 23
30.5938002869
  0
SOLID
  8
0
 62
7
  6
CONTINUOUS
 10
153.2159293074
 20
30.5938002869
 11
153.2159293074
 21
31.2390742213
 12
153.5049916972
 22
31.2390742213
 13
153.5049916972
 23
31.2390742213
  0
SOLID
  8
0
 62
7
  6
CONTINUOUS
 10
153.5049916972
 20
31.2390742213
 11
153.5049916972
 21
30.5938002869
 12
153.2159293074
 22
30.5938002869
 13
153.2159293074
 23
30.5938002869
  0
SOLID
  8
0
 62
7
  6
CONTINUOUS
 10
154.2565543074
 20
31.5939738288
 11
154.6612419177
 21
31.6262385959
 12
155.0081169177
 22
31.6262385959
 13
155.0081169177
 23
31.6262385959
  0
SOLID
  8
0
 62
7
  6
CONTINUOUS
 10
155.0081169177
 20
31.6262385959
 11
155.3549915869
 21
31.5939738288
 12
154.2565543074
 22
31.5939738288
 13
154.2565543074
 23
31.5939738288
  0
SOLID
  8
0
 62
7
  6
CONTINUOUS
 10
154.1409294177
 20
31.5617111435
 11
154.2565543074
 21
31.5939738288
 12
155.3549915869
 22
31.5939738288
 13
155.3549915869
 23
31.5939738288
  0
SOLID
  8
0
 62
7
  6
CONTINUOUS
 10
155.3549915869
 20
31.5939738288
 11
155.5284290869
 21
31.5294468402
 12
154.1409294177
 22
31.5617111435
 13
154.1409294177
 23
31.5617111435
  0
SOLID
  8
0
 62
7
  6
CONTINUOUS
 10
154.0253041972
 20
31.4971826249
 11
154.1409294177
 21
31.5617111435
 12
155.5284290869
 22
31.5294468402
 13
155.5284290869
 23
31.5294468402
  0
SOLID
  8
0
 62
7
  6
CONTINUOUS
 10
154.0253041972
 20
31.4971826249
 11
155.5284290869
 21
31.5294468402
 12
154.6612419177
 22
31.4971826249
 13
154.6612419177
 23
31.4971826249
  0
SOLID
  8
0
 62
7
  6
CONTINUOUS
 10
154.6612419177
 20
31.4971826249
 11
155.5284290869
 21
31.5294468402
 12
155.0081169177
 22
31.4971826249
 13
155.0081169177
 23
31.4971826249
  0
SOLID
  8
0
 62
7
  6
CONTINUOUS
 10
155.0081169177
 20
31.4971826249
 11
155.5284290869
 21
31.5294468402
 12
155.239367028
 22
31.4649194065
 13
155.239367028
 23
31.4649194065
  0
SOLID
  8
0
 62
7
  6
CONTINUOUS
 10
155.5284290869
 20
31.5294468402
 11
155.6440543074
 21
31.4649194065
 12
155.239367028
 22
31.4649194065
 13
155.239367028
 23
31.4649194065
  0
SOLID
  8
0
 62
7
  6
CONTINUOUS
 10
153.9674919177
 20
31.4326554138
 11
154.0253041972
 21
31.4971826249
 12
154.6612419177
 22
31.4971826249
 13
154.6612419177
 23
31.4971826249
  0
SOLID
  8
0
 62
7
  6
CONTINUOUS
 10
155.3549915869
 20
31.4326554138
 11
155.239367028
 21
31.4649194065
 12
155.6440543074
 22
31.4649194065
 13
155.6440543074
 23
31.4649194065
  0
SOLID
  8
0
 62
7
  6
CONTINUOUS
 10
155.3549915869
 20
31.4326554138
 11
155.6440543074
 21
31.4649194065
 12
155.412804528
 22
31.3681282026
 13
155.412804528
 23
31.3681282026
  0
SOLID
  8
0
 62
7
  6
CONTINUOUS
 10
155.6440543074
 20
31.4649194065
 11
155.7018665869
 21
31.3681282026
 12
155.412804528
 22
31.3681282026
 13
155.412804528
 23
31.3681282026
  0
SOLID
  8
0
 62
7
  6
CONTINUOUS
 10
155.412804528
 20
31.2713369632
 11
155.412804528
 21
31.3681282026
 12
155.7018665869
 22
31.3681282026
 13
155.7018665869
 23
31.3681282026
  0
SOLID
  8
0
 62
7
  6
CONTINUOUS
 10
155.412804528
 20
31.2713369632
 11
155.7018665869
 21
31.3681282026
 12
155.412804528
 22
31.1422827828
 13
155.412804528
 23
31.1422827828
  0
SOLID
  8
0
 62
7
  6
CONTINUOUS
 10
155.412804528
 20
31.1422827828
 11
155.7018665869
 21
31.3681282026
 12
155.412804528
 22
30.9487004259
 13
155.412804528
 23
30.9487004259
  0
SOLID
  8
0
 62
7
  6
CONTINUOUS
 10
155.7018665869
 20
31.3681282026
 11
155.7018665869
 21
30.8519086025
 12
155.412804528
 22
30.9487004259
 13
155.412804528
 23
30.9487004259
  0
SOLID
  8
0
 62
7
  6
CONTINUOUS
 10
157.6096790869
 20
31.5939736268
 11
157.840929528
 21
31.6262383465
 12
158.0721793074
 22
31.6262383465
 13
158.0721793074
 23
31.6262383465
  0
SOLID
  8
0
 62
7
  6
CONTINUOUS
 10
158.0721793074
 20
31.6262383465
 11
158.2456168074
 21
31.5939736268
 12
157.6096790869
 22
31.5939736268
 13
157.6096790869
 23
31.5939736268
  0
SOLID
  8
0
 62
7
  6
CONTINUOUS
 10
157.4362415869
 20
31.5294472848
 11
157.6096790869
 21
31.5939736268
 12
158.2456168074
 22
31.5939736268
 13
158.2456168074
 23
31.5939736268
  0
SOLID
  8
0
 62
7
  6
CONTINUOUS
 10
158.2456168074
 20
31.5939736268
 11
158.4190543074
 21
31.5294472848
 12
157.4362415869
 22
31.5294472848
 13
157.4362415869
 23
31.5294472848
  0
SOLID
  8
0
 62
7
  6
CONTINUOUS
 10
158.4190543074
 20
31.5294472848
 11
157.840929528
 21
31.4971825369
 12
157.4362415869
 22
31.5294472848
 13
157.4362415869
 23
31.5294472848
  0
SOLID
  8
0
 62
7
  6
CONTINUOUS
 10
157.320617028
 20
31.4649199103
 11
157.4362415869
 21
31.5294472848
 12
157.840929528
 22
31.4971825369
 13
157.840929528
 23
31.4971825369
  0
SOLID
  8
0
 62
7
  6
CONTINUOUS
 10
157.840929528
 20
31.4971825369
 11
157.6096790869
 21
31.4649199103
 12
157.320617028
 22
31.4649199103
 13
157.320617028
 23
31.4649199103
  0
SOLID
  8
0
 62
7
  6
CONTINUOUS
 10
157.840929528
 20
31.4971825369
 11
158.4190543074
 21
31.5294472848
 12
158.0721793074
 22
31.4649199103
 13
158.0721793074
 23
31.4649199103
  0
SOLID
  8
0
 62
7
  6
CONTINUOUS
 10
158.4190543074
 20
31.5294472848
 11
158.534679528
 21
31.4649199103
 12
158.0721793074
 22
31.4649199103
 13
158.0721793074
 23
31.4649199103
  0
SOLID
  8
0
 62
7
  6
CONTINUOUS
 10
158.187804528
 20
31.4326554468
 11
158.0721793074
 21
31.4649199103
 12
158.534679528
 22
31.4649199103
 13
158.534679528
 23
31.4649199103
  0
SOLID
  8
0
 62
7
  6
CONTINUOUS
 10
158.187804528
 20
31.4326554468
 11
158.534679528
 21
31.4649199103
 12
158.3034290869
 22
31.3681288486
 13
158.3034290869
 23
31.3681288486
  0
SOLID
  8
0
 62
7
  6
CONTINUOUS
 10
158.534679528
 20
31.4649199103
 11
158.5924918074
 21
31.3681288486
 12
158.3034290869
 22
31.3681288486
 13
158.3034290869
 23
31.3681288486
  0
SOLID
  8
0
 62
7
  6
CONTINUOUS
 10
158.361242028
 20
31.2068093799
 11
158.3034290869
 21
31.3681288486
 12
158.5924918074
 22
31.3681288486
 13
158.5924918074
 23
31.3681288486
  0
SOLID
  8
0
 62
7
  6
CONTINUOUS
 10
158.5924918074
 20
31.3681288486
 11
158.6503040869
 21
31.2068093799
 12
158.361242028
 22
31.2068093799
 13
158.361242028
 23
31.2068093799
  0
SOLID
  8
0
 62
7
  6
CONTINUOUS
 10
157.6096790869
 20
31.4649199103
 11
157.4362415869
 21
31.4003926599
 12
157.320617028
 22
31.4649199103
 13
157.320617028
 23
31.4649199103
  0
SOLID
  8
0
 62
7
  6
CONTINUOUS
 10
157.4362415869
 20
31.4003926599
 11
157.320617028
 21
31.3358640533
 12
157.320617028
 22
31.4649199103
 13
157.320617028
 23
31.4649199103
  0
SOLID
  8
0
 62
7
  6
CONTINUOUS
 10
157.320617028
 20
31.3358640533
 11
157.0315543074
 21
30.5938003547
 12
157.320617028
 22
31.4649199103
 13
157.320617028
 23
31.4649199103
  0
SOLID
  8
0
 62
7
  6
CONTINUOUS
 10
157.320617028
 20
31.4649199103
 11
157.0315543074
 21
30.5938003547
 12
157.320617028
 22
31.6262383465
 13
157.320617028
 23
31.6262383465
  0
SOLID
  8
0
 62
7
  6
CONTINUOUS
 10
157.0315543074
 20
30.5938003547
 11
157.0315543074
 21
31.6262383465
 12
157.320617028
 22
31.6262383465
 13
157.320617028
 23
31.6262383465
  0
SOLID
  8
0
 62
7
  6
CONTINUOUS
 10
157.320617028
 20
31.3358640533
 11
157.320617028
 21
30.5938003547
 12
157.0315543074
 22
30.5938003547
 13
157.0315543074
 23
30.5938003547
  0
SOLID
  8
0
 62
7
  6
CONTINUOUS
 10
158.361242028
 20
30.5938003547
 11
158.361242028
 21
31.2068093799
 12
158.6503040869
 22
31.2068093799
 13
158.6503040869
 23
31.2068093799
  0
SOLID
  8
0
 62
7
  6
CONTINUOUS
 10
158.6503040869
 20
31.2068093799
 11
158.6503040869
 21
30.5938003547
 12
158.361242028
 22
30.5938003547
 13
158.361242028
 23
30.5938003547
  0
SOLID
  8
0
 62
7
  6
CONTINUOUS
 10
159.4596793074
 20
31.5939739474
 11
159.8065543074
 21
31.6262381969
 12
160.1534293074
 22
31.6262381969
 13
160.1534293074
 23
31.6262381969
  0
SOLID
  8
0
 62
7
  6
CONTINUOUS
 10
160.1534293074
 20
31.6262381969
 11
160.5003043074
 21
31.5939739474
 12
159.4596793074
 22
31.5939739474
 13
159.4596793074
 23
31.5939739474
  0
SOLID
  8
0
 62
7
  6
CONTINUOUS
 10
159.228429528
 20
31.5294468402
 11
159.4596793074
 21
31.5939739474
 12
160.5003043074
 22
31.5939739474
 13
160.5003043074
 23
31.5939739474
  0
SOLID
  8
0
 62
7
  6
CONTINUOUS
 10
159.228429528
 20
31.5294468402
 11
160.5003043074
 21
31.5939739304
 12
160.6737418074
 22
31.5617111435
 13
160.6737418074
 23
31.5617111435
  0
SOLID
  8
0
 62
7
  6
CONTINUOUS
 10
159.228429528
 20
31.5294468402
 11
160.6737418074
 21
31.5617111435
 12
159.8065543074
 22
31.4971825592
 13
159.8065543074
 23
31.4971825592
  0
SOLID
  8
0
 62
7
  6
CONTINUOUS
 10
159.8065543074
 20
31.4971825592
 11
160.6737418074
 21
31.5617111435
 12
160.1534293074
 22
31.4971825592
 13
160.1534293074
 23
31.4971825592
  0
SOLID
  8
0
 62
7
  6
CONTINUOUS
 10
160.6737418074
 20
31.5617111435
 11
160.8471793074
 21
31.4971825592
 12
160.1534293074
 22
31.4971825592
 13
160.1534293074
 23
31.4971825592
  0
SOLID
  8
0
 62
7
  6
CONTINUOUS
 10
160.5003043074
 20
31.4649197501
 11
160.1534293074
 21
31.4971825592
 12
160.8471793074
 22
31.4971825592
 13
160.8471793074
 23
31.4971825592
  0
SOLID
  8
0
 62
7
  6
CONTINUOUS
 10
159.1128043074
 20
31.4326555427
 11
159.228429528
 21
31.5294468402
 12
159.8065543074
 22
31.4971825592
 13
159.8065543074
 23
31.4971825592
  0
SOLID
  8
0
 62
7
  6
CONTINUOUS
 10
160.5003043074
 20
31.4649197501
 11
160.8471793074
 21
31.4971825592
 12
160.615929528
 22
31.4326555427
 13
160.615929528
 23
31.4326555427
  0
SOLID
  8
0
 62
7
  6
CONTINUOUS
 10
160.615929528
 20
31.4326555427
 11
160.8471793074
 21
31.4971825592
 12
160.6737418074
 22
31.3681283005
 13
160.6737418074
 23
31.3681283005
  0
SOLID
  8
0
 62
7
  6
CONTINUOUS
 10
160.8471793074
 20
31.4971825592
 11
160.9628038663
 21
31.3681283005
 12
160.6737418074
 22
31.3681283005
 13
160.6737418074
 23
31.3681283005
  0
SOLID
  8
0
 62
7
  6
CONTINUOUS
 10
150.2674918074
 20
31.4649197501
 11
149.7471793074
 21
31.4326554237
 12
150.498741835
 22
31.4971824493
 13
150.498741835
 23
31.4971824493
  0
SOLID
  8
0
 62
7
  6
CONTINUOUS
 10
149.7471793074
 20
31.4326554237
 11
149.8628043005
 21
31.4971824493
 12
150.498741835
 22
31.4971824493
 13
150.498741835
 23
31.4971824493
  0
SOLID
  8
0
 62
7
  6
CONTINUOUS
 10
150.2674918074
 20
31.4649197501
 11
150.1518667936
 21
31.4326554237
 12
149.7471793074
 22
31.4326554237
 13
149.7471793074
 23
31.4326554237
  0
SOLID
  8
0
 62
7
  6
CONTINUOUS
 10
149.6315543091
 20
31.3036012664
 11
149.7471793074
 21
31.4326554237
 12
150.1518667936
 22
31.4326554237
 13
150.1518667936
 23
31.4326554237
  0
SOLID
  8
0
 62
7
  6
CONTINUOUS
 10
153.9674919177
 20
31.4326554237
 11
154.6612419177
 21
31.4971825369
 12
154.4299918074
 22
31.4649197501
 13
154.4299918074
 23
31.4649197501
  0
SOLID
  8
0
 62
7
  6
CONTINUOUS
 10
154.4299918074
 20
31.4649197501
 11
154.3143669177
 21
31.4326554237
 12
153.9674919177
 22
31.4326554237
 13
153.9674919177
 23
31.4326554237
  0
SOLID
  8
0
 62
7
  6
CONTINUOUS
 10
153.9674919177
 20
31.3681283335
 11
153.9674919177
 21
31.4326554237
 12
154.3143669177
 22
31.4326554237
 13
154.3143669177
 23
31.4326554237
  0
SOLID
  8
0
 62
7
  6
CONTINUOUS
 10
154.3143669177
 20
31.4326554237
 11
154.2565543074
 21
31.3681283335
 12
153.9674919177
 22
31.3681283335
 13
153.9674919177
 23
31.3681283335
  0
SOLID
  8
0
 62
7
  6
CONTINUOUS
 10
159.1128043074
 20
31.4326555528
 11
159.8065543074
 21
31.4971825369
 12
159.575304528
 22
31.4649197501
 13
159.575304528
 23
31.4649197501
  0
SOLID
  8
0
 62
7
  6
CONTINUOUS
 10
159.575304528
 20
31.4649197501
 11
159.4596793074
 21
31.4326555528
 12
159.1128043074
 22
31.4326555528
 13
159.1128043074
 23
31.4326555528
  0
SOLID
  8
0
 62
7
  6
CONTINUOUS
 10
159.1128043074
 20
31.3681284626
 11
159.1128043074
 21
31.4326555528
 12
159.4596793074
 22
31.4326555528
 13
159.4596793074
 23
31.4326555528
  0
SOLID
  8
0
 62
7
  6
CONTINUOUS
 10
159.4596793074
 20
31.4326555528
 11
159.401867028
 21
31.3681284626
 12
159.1128043074
 22
31.3681284626
 13
159.1128043074
 23
31.3681284626
  0
SOLID
  8
0
 62
7
  6
CONTINUOUS
 10
159.228429528
 20
31.2390741763
 11
159.1128043074
 21
31.3681284626
 12
159.401867028
 22
31.3681284626
 13
159.401867028
 23
31.3681284626
  0
SOLID
  8
0
 62
7
  6
CONTINUOUS
 10
149.6315543091
 20
31.3036012664
 11
150.1518667936
 21
31.4326554468
 12
149.9784292936
 22
31.3358640533
 13
149.9784292936
 23
31.3358640533
  0
SOLID
  8
0
 62
7
  6
CONTINUOUS
 10
149.9784292936
 20
31.3358640533
 11
149.9206168074
 21
31.2713369632
 12
149.6315543091
 22
31.3036012664
 13
149.6315543091
 23
31.3036012664
  0
SOLID
  8
0
 62
7
  6
CONTINUOUS
 10
149.5737418074
 20
31.1100184796
 11
149.6315543091
 21
31.3036012664
 12
149.9206168074
 22
31.2713369632
 13
149.9206168074
 23
31.2713369632
  0
SOLID
  8
0
 62
7
  6
CONTINUOUS
 10
154.4299918074
 20
31.2390741763
 11
154.7768668074
 21
31.271336924
 12
155.412804528
 22
31.271336924
 13
155.412804528
 23
31.271336924
  0
SOLID
  8
0
 62
7
  6
CONTINUOUS
 10
154.4299918074
 20
31.2390741763
 11
155.412804528
 21
31.271336924
 12
154.1987416972
 22
31.1745462761
 13
154.1987416972
 23
31.1745462761
  0
SOLID
  8
0
 62
7
  6
CONTINUOUS
 10
154.1987416972
 20
31.1745462761
 11
155.412804528
 21
31.271336924
 12
154.7768668074
 22
31.1422827436
 13
154.7768668074
 23
31.1422827436
  0
SOLID
  8
0
 62
7
  6
CONTINUOUS
 10
155.412804528
 20
31.271336924
 11
155.412804528
 21
31.1422827436
 12
154.7768668074
 22
31.1422827436
 13
154.7768668074
 23
31.1422827436
  0
SOLID
  8
0
 62
7
  6
CONTINUOUS
 10
159.228429528
 20
31.2390745501
 11
159.401867028
 21
31.3681283566
 12
159.4596793074
 22
31.3036012664
 13
159.4596793074
 23
31.3036012664
  0
SOLID
  8
0
 62
7
  6
CONTINUOUS
 10
159.4596793074
 20
31.3036012664
 11
159.6331168074
 21
31.2390745501
 12
159.228429528
 22
31.2390745501
 13
159.228429528
 23
31.2390745501
  0
SOLID
  8
0
 62
7
  6
CONTINUOUS
 10
159.4596793074
 20
31.1422827828
 11
159.228429528
 21
31.2390745501
 12
159.6331168074
 22
31.2390745501
 13
159.6331168074
 23
31.2390745501
  0
SOLID
  8
0
 62
7
  6
CONTINUOUS
 10
159.6331168074
 20
31.2390745501
 11
160.615929528
 21
31.0777556927
 12
159.4596793074
 22
31.1422827828
 13
159.4596793074
 23
31.1422827828
  0
SOLID
  8
0
 62
7
  6
CONTINUOUS
 10
160.442492028
 20
30.9809646623
 11
159.4596793074
 21
31.1422827828
 12
160.615929528
 22
31.0777556927
 13
160.615929528
 23
31.0777556927
  0
SOLID
  8
0
 62
7
  6
CONTINUOUS
 10
160.615929528
 20
31.0777556927
 11
160.8471793074
 21
30.9809646623
 12
160.442492028
 22
30.9809646623
 13
160.442492028
 23
30.9809646623
  0
SOLID
  8
0
 62
7
  6
CONTINUOUS
 10
160.615929528
 20
30.9164372091
 11
160.442492028
 21
30.9809646623
 12
160.8471793074
 22
30.9809646623
 13
160.8471793074
 23
30.9809646623
  0
SOLID
  8
0
 62
7
  6
CONTINUOUS
 10
160.615929528
 20
30.9164372091
 11
160.8471793074
 21
30.9809646623
 12
160.6737418074
 22
30.8519089441
 13
160.6737418074
 23
30.8519089441
  0
SOLID
  8
0
 62
7
  6
CONTINUOUS
 10
160.8471793074
 20
30.9809646623
 11
160.9628038663
 21
30.8519089441
 12
160.6737418074
 22
30.8519089441
 13
160.6737418074
 23
30.8519089441
  0
SOLID
  8
0
 62
7
  6
CONTINUOUS
 10
160.615929528
 20
30.7873818593
 11
160.6737418074
 21
30.8519089441
 12
160.9628038663
 22
30.8519089441
 13
160.9628038663
 23
30.8519089441
  0
SOLID
  8
0
 62
7
  6
CONTINUOUS
 10
160.9628038663
 20
30.8519089441
 11
160.9628038663
 21
30.7873818593
 12
160.615929528
 22
30.7873818593
 13
160.615929528
 23
30.7873818593
  0
SOLID
  8
0
 62
7
  6
CONTINUOUS
 10
160.5003043074
 20
30.7551187255
 11
160.615929528
 21
30.7873818593
 12
160.9628038663
 22
30.7873818593
 13
160.9628038663
 23
30.7873818593
  0
SOLID
  8
0
 62
7
  6
CONTINUOUS
 10
160.5003043074
 20
30.7551187255
 11
160.9628038663
 21
30.7873818593
 12
160.269054528
 22
30.7228547745
 13
160.269054528
 23
30.7228547745
  0
SOLID
  8
0
 62
7
  6
CONTINUOUS
 10
160.9628038663
 20
30.7873818593
 11
160.8471793074
 21
30.6905916353
 12
160.269054528
 22
30.7228547745
 13
160.269054528
 23
30.7228547745
  0
SOLID
  8
0
 62
7
  6
CONTINUOUS
 10
160.8471793074
 20
30.6905916353
 11
159.401867028
 21
30.658327332
 12
160.269054528
 22
30.7228547745
 13
160.269054528
 23
30.7228547745
  0
SOLID
  8
0
 62
7
  6
CONTINUOUS
 10
160.269054528
 20
30.7228547745
 11
159.401867028
 21
30.658327332
 12
159.922179528
 22
30.7228547745
 13
159.922179528
 23
30.7228547745
  0
SOLID
  8
0
 62
7
  6
CONTINUOUS
 10
159.401867028
 20
30.658327332
 11
159.228429528
 21
30.7228547745
 12
159.922179528
 22
30.7228547745
 13
159.922179528
 23
30.7228547745
  0
SOLID
  8
0
 62
7
  6
CONTINUOUS
 10
159.401867028
 20
30.658327332
 11
160.8471793074
 21
30.6905916353
 12
159.575304528
 22
30.6260629858
 13
159.575304528
 23
30.6260629858
  0
SOLID
  8
0
 62
7
  6
CONTINUOUS
 10
160.8471793074
 20
30.6905916353
 11
160.615929528
 21
30.6260629858
 12
159.575304528
 22
30.6260629858
 13
159.575304528
 23
30.6260629858
  0
SOLID
  8
0
 62
7
  6
CONTINUOUS
 10
159.922179528
 20
30.5938006049
 11
159.575304528
 21
30.6260629858
 12
160.615929528
 22
30.6260629858
 13
160.615929528
 23
30.6260629858
  0
SOLID
  8
0
 62
7
  6
CONTINUOUS
 10
160.615929528
 20
30.6260629858
 11
160.269054528
 21
30.5938006049
 12
159.922179528
 22
30.5938006049
 13
159.922179528
 23
30.5938006049
  0
SOLID
  8
0
 62
7
  6
CONTINUOUS
 10
149.5737418074
 20
31.1100184796
 11
149.9206168074
 21
31.2713369632
 12
149.8628043005
 22
31.1422827828
 13
149.8628043005
 23
31.1422827828
  0
SOLID
  8
0
 62
7
  6
CONTINUOUS
 10
149.8628043005
 20
31.1422827828
 11
149.8628043005
 21
31.0454914852
 12
149.5737418074
 22
31.1100184796
 13
149.5737418074
 23
31.1100184796
  0
SOLID
  8
0
 62
7
  6
CONTINUOUS
 10
149.6315543091
 20
30.9164372091
 11
149.5737418074
 21
31.1100184796
 12
149.8628043005
 22
31.0454914852
 13
149.8628043005
 23
31.0454914852
  0
SOLID
  8
0
 62
7
  6
CONTINUOUS
 10
149.8628043005
 20
31.0454914852
 11
149.9784292936
 21
30.8841729058
 12
149.6315543091
 22
30.9164372091
 13
149.6315543091
 23
30.9164372091
  0
SOLID
  8
0
 62
7
  6
CONTINUOUS
 10
149.7471793074
 20
30.7873813202
 11
149.6315543091
 21
30.9164372091
 12
149.9784292936
 22
30.8841729058
 13
149.9784292936
 23
30.8841729058
  0
SOLID
  8
0
 62
7
  6
CONTINUOUS
 10
149.9784292936
 20
30.8841729058
 11
150.1518667936
 21
30.7873813202
 12
149.7471793074
 22
30.7873813202
 13
149.7471793074
 23
30.7873813202
  0
SOLID
  8
0
 62
7
  6
CONTINUOUS
 10
149.8628043005
 20
30.7228547004
 11
149.7471793074
 21
30.7873813202
 12
150.1518667936
 22
30.7873813202
 13
150.1518667936
 23
30.7873813202
  0
SOLID
  8
0
 62
7
  6
CONTINUOUS
 10
150.1518667936
 20
30.7873813202
 11
150.498741835
 21
30.7228547004
 12
149.8628043005
 22
30.7228547004
 13
149.8628043005
 23
30.7228547004
  0
SOLID
  8
0
 62
7
  6
CONTINUOUS
 10
150.0362418212
 20
30.658327332
 11
149.8628043005
 21
30.7228547004
 12
150.498741835
 22
30.7228547004
 13
150.498741835
 23
30.7228547004
  0
SOLID
  8
0
 62
7
  6
CONTINUOUS
 10
154.0831168074
 20
31.1100184386
 11
154.1987416972
 21
31.1745462761
 12
154.7768668074
 22
31.1422827828
 13
154.7768668074
 23
31.1422827828
  0
SOLID
  8
0
 62
7
  6
CONTINUOUS
 10
154.7768668074
 20
31.1422827828
 11
154.5456166972
 21
31.1100184386
 12
154.0831168074
 22
31.1100184386
 13
154.0831168074
 23
31.1100184386
  0
SOLID
  8
0
 62
7
  6
CONTINUOUS
 10
153.9674919177
 20
30.9809642992
 11
154.0831168074
 21
31.1100184386
 12
154.5456166972
 22
31.1100184386
 13
154.5456166972
 23
31.1100184386
  0
SOLID
  8
0
 62
7
  6
CONTINUOUS
 10
154.3143669177
 20
31.0132277988
 11
153.9674919177
 21
30.9809642992
 12
154.4299918074
 22
31.0777556927
 13
154.4299918074
 23
31.0777556927
  0
SOLID
  8
0
 62
7
  6
CONTINUOUS
 10
153.9674919177
 20
30.9809642992
 11
154.5456166972
 21
31.1100184796
 12
154.4299918074
 22
31.0777556927
 13
154.4299918074
 23
31.0777556927
  0
SOLID
  8
0
 62
7
  6
CONTINUOUS
 10
154.3143669177
 20
31.0132277988
 11
154.2565543074
 21
30.9164372091
 12
153.9674919177
 22
30.9809642992
 13
153.9674919177
 23
30.9809642992
  0
SOLID
  8
0
 62
7
  6
CONTINUOUS
 10
153.9674919177
 20
30.8841729058
 11
153.9674919177
 21
30.9809642992
 12
154.2565543074
 22
30.9164372091
 13
154.2565543074
 23
30.9164372091
  0
SOLID
  8
0
 62
7
  6
CONTINUOUS
 10
154.2565543074
 20
30.9164372091
 11
154.2565543074
 21
30.8519086025
 12
153.9674919177
 22
30.8841729058
 13
153.9674919177
 23
30.8841729058
  0
SOLID
  8
0
 62
7
  6
CONTINUOUS
 10
154.0253041972
 20
30.7551187255
 11
153.9674919177
 21
30.8841729058
 12
154.2565543074
 22
30.8519086025
 13
154.2565543074
 23
30.8519086025
  0
SOLID
  8
0
 62
7
  6
CONTINUOUS
 10
155.412804528
 20
30.9487004259
 11
155.7018665869
 21
30.8519086025
 12
155.3549915869
 22
30.8841729058
 13
155.3549915869
 23
30.8841729058
  0
SOLID
  8
0
 62
7
  6
CONTINUOUS
 10
155.1815540869
 20
30.7873815123
 11
155.3549915869
 21
30.8841729058
 12
155.7018665869
 22
30.8519086025
 13
155.7018665869
 23
30.8519086025
  0
SOLID
  8
0
 62
7
  6
CONTINUOUS
 10
155.1815540869
 20
30.7873815123
 11
155.7018665869
 21
30.8519086025
 12
155.412804528
 22
30.7551187255
 13
155.412804528
 23
30.7551187255
  0
SOLID
  8
0
 62
7
  6
CONTINUOUS
 10
155.7018665869
 20
30.8519086025
 11
155.759679528
 21
30.6905916353
 12
155.412804528
 22
30.7551187255
 13
155.412804528
 23
30.7551187255
  0
SOLID
  8
0
 62
7
  6
CONTINUOUS
 10
155.4706168074
 20
30.658327332
 11
155.412804528
 21
30.7551187255
 12
155.759679528
 22
30.6905916353
 13
155.759679528
 23
30.6905916353
  0
SOLID
  8
0
 62
7
  6
CONTINUOUS
 10
155.4706168074
 20
30.658327332
 11
155.759679528
 21
30.6905916353
 12
155.5284290869
 22
30.5938002079
 13
155.5284290869
 23
30.5938002079
  0
SOLID
  8
0
 62
7
  6
CONTINUOUS
 10
155.759679528
 20
30.6905916353
 11
155.8174918074
 21
30.5938002079
 12
155.5284290869
 22
30.5938002079
 13
155.5284290869
 23
30.5938002079
  0
SOLID
  8
0
 62
7
  6
CONTINUOUS
 10
151.0768668626
 20
30.8196456577
 11
151.1346793074
 21
30.9164373395
 12
151.4237418626
 22
30.9164373395
 13
151.4237418626
 23
30.9164373395
  0
SOLID
  8
0
 62
7
  6
CONTINUOUS
 10
151.4237418626
 20
30.9164373395
 11
151.3659292523
 21
30.7873815123
 12
151.0768668626
 22
30.8196456577
 13
151.0768668626
 23
30.8196456577
  0
SOLID
  8
0
 62
7
  6
CONTINUOUS
 10
150.9034292799
 20
30.7551187255
 11
151.0768668626
 21
30.8196456577
 12
151.3659292523
 22
30.7873815123
 13
151.3659292523
 23
30.7873815123
  0
SOLID
  8
0
 62
7
  6
CONTINUOUS
 10
150.9034292799
 20
30.7551187255
 11
151.3659292523
 21
30.7873815123
 12
150.498741835
 22
30.7228544222
 13
150.498741835
 23
30.7228544222
  0
SOLID
  8
0
 62
7
  6
CONTINUOUS
 10
151.3659292523
 20
30.7873815123
 11
151.1924917523
 21
30.6905916353
 12
150.498741835
 22
30.7228544222
 13
150.498741835
 23
30.7228544222
  0
SOLID
  8
0
 62
7
  6
CONTINUOUS
 10
150.0362418212
 20
30.658327332
 11
150.498741835
 21
30.7228544222
 12
151.1924917523
 22
30.6905916353
 13
151.1924917523
 23
30.6905916353
  0
SOLID
  8
0
 62
7
  6
CONTINUOUS
 10
150.0362418212
 20
30.658327332
 11
151.1924917523
 21
30.6905916353
 12
150.2096793212
 22
30.6260631011
 13
150.2096793212
 23
30.6260631011
  0
SOLID
  8
0
 62
7
  6
CONTINUOUS
 10
151.1924917523
 20
30.6905916353
 11
150.9612418074
 21
30.6260631011
 12
150.2096793212
 22
30.6260631011
 13
150.2096793212
 23
30.6260631011
  0
SOLID
  8
0
 62
7
  6
CONTINUOUS
 10
150.5565542799
 20
30.5938002419
 11
150.2096793212
 21
30.6260631011
 12
150.9612418074
 22
30.6260631011
 13
150.9612418074
 23
30.6260631011
  0
SOLID
  8
0
 62
7
  6
CONTINUOUS
 10
154.0253041972
 20
30.7551187255
 11
154.2565543074
 21
30.8519086025
 12
154.3143669177
 22
30.7873815123
 13
154.3143669177
 23
30.7873815123
  0
SOLID
  8
0
 62
7
  6
CONTINUOUS
 10
154.3143669177
 20
30.7873815123
 11
154.5456166972
 21
30.7228544222
 12
154.0253041972
 22
30.7551187255
 13
154.0253041972
 23
30.7551187255
  0
SOLID
  8
0
 62
7
  6
CONTINUOUS
 10
154.1987416972
 20
30.658327332
 11
154.0253041972
 21
30.7551187255
 12
154.5456166972
 22
30.7228544222
 13
154.5456166972
 23
30.7228544222
  0
SOLID
  8
0
 62
7
  6
CONTINUOUS
 10
154.8924916972
 20
30.7228544637
 11
155.1815540869
 21
30.7873815123
 12
155.412804528
 22
30.7551187255
 13
155.412804528
 23
30.7551187255
  0
SOLID
  8
0
 62
7
  6
CONTINUOUS
 10
155.412804528
 20
30.7551187255
 11
155.3549915869
 21
30.6905916353
 12
154.8924916972
 22
30.7228544637
 13
154.8924916972
 23
30.7228544637
  0
SOLID
  8
0
 62
7
  6
CONTINUOUS
 10
155.3549915869
 20
30.6905916353
 11
154.1987416972
 21
30.658327332
 12
154.8924916972
 22
30.7228544637
 13
154.8924916972
 23
30.7228544637
  0
SOLID
  8
0
 62
7
  6
CONTINUOUS
 10
154.1987416972
 20
30.658327332
 11
154.5456166972
 21
30.7228544637
 12
154.8924916972
 22
30.7228544637
 13
154.8924916972
 23
30.7228544637
  0
SOLID
  8
0
 62
7
  6
CONTINUOUS
 10
154.1987416972
 20
30.658327332
 11
155.3549915869
 21
30.6905916353
 12
154.3143669177
 22
30.6260630541
 13
154.3143669177
 23
30.6260630541
  0
SOLID
  8
0
 62
7
  6
CONTINUOUS
 10
155.3549915869
 20
30.6905916353
 11
155.1815540869
 21
30.6260630541
 12
154.3143669177
 22
30.6260630541
 13
154.3143669177
 23
30.6260630541
  0
SOLID
  8
0
 62
7
  6
CONTINUOUS
 10
154.5456166972
 20
30.5938002188
 11
154.3143669177
 21
30.6260630541
 12
155.1815540869
 22
30.6260630541
 13
155.1815540869
 23
30.6260630541
  0
SOLID
  8
0
 62
7
  6
CONTINUOUS
 10
155.1815540869
 20
30.6260630541
 11
154.8924916972
 21
30.5938002188
 12
154.5456166972
 22
30.5938002188
 13
154.5456166972
 23
30.5938002188
  0
SOLID
  8
0
 62
7
  6
CONTINUOUS
 10
159.575304528
 20
30.7551187255
 11
159.228429528
 21
30.7228544637
 12
159.4596793074
 22
30.7873815123
 13
159.4596793074
 23
30.7873815123
  0
SOLID
  8
0
 62
7
  6
CONTINUOUS
 10
159.4596793074
 20
30.7873815123
 11
159.228429528
 21
30.7228544637
 12
159.401867028
 22
30.851908644
 13
159.401867028
 23
30.851908644
  0
SOLID
  8
0
 62
7
  6
CONTINUOUS
 10
159.228429528
 20
30.7228544637
 11
159.1128043074
 21
30.851908644
 12
159.401867028
 22
30.851908644
 13
159.401867028
 23
30.851908644
  0
SOLID
  8
0
 62
7
  6
CONTINUOUS
 10
159.575304528
 20
30.7551187255
 11
159.922179528
 21
30.7228544637
 12
159.228429528
 22
30.7228544637
 13
159.228429528
 23
30.7228544637
  0
SOLID
  8
0
 62
7
  6
CONTINUOUS
 10
156.279992028
 20
30.5938002419
 11
156.279992028
 21
31.6262382337
 12
156.5690540869
 22
30.5938002419
 13
156.5690540869
 23
31.6262382337
  0
ENDBLK
  8
0
  6
BYBLOCK
 62
0
  0
BLOCK
  8
0
 62
2
  6
CONTINUOUS
  2
SYMBOL_3_BL0
 70
64
 10
32.1213064866
 20
19.8534310916
  0
TEXT
  8
0
 62
7
  6
CONTINUOUS
 10
18.3860103289
 20
19.2268451992
  7
TEXTSTYLE_3
 40
2.7338706658
  1
Ammeraal Beltech
 41
1.0
 51
15.0
 72
0
  0
TEXT
  8
0
 62
7
  6
CONTINUOUS
 10
29.1868111546
 20
16.9533085264
  7
TEXTSTYLE_4
 40
1.0935482663
  1
Innovation & Service in Belting
 41
1.0
 72
0
  0
LINE
  8
0
 62
7
  6
CONTINUOUS
 10
12.3614696776
 20
19.9934385078
 11
13.1396216709
 21
23.6543558055
  0
LINE
  8
0
 62
7
  6
CONTINUOUS
 10
23.2347899607
 20
27.3177497171
 11
13.6274394139
 21
24.1961322958
  0
LINE
  8
0
 62
7
  6
CONTINUOUS
 10
12.5867530099
 20
19.3000877048
 11
20.093828271
 21
12.5406867788
  0
LINE
  8
0
 62
7
  6
CONTINUOUS
 10
12.8492874206
 20
20.5352149982
 11
23.6575567857
 21
24.0470345971
  0
LINE
  8
0
 62
7
  6
CONTINUOUS
 10
23.6533516486
 20
13.6972460334
 11
15.2078919798
 21
21.3015720751
  0
LINE
  8
0
 62
7
  6
CONTINUOUS
 10
24.1731743684
 20
26.4728246013
 11
23.1966148312
 21
21.8784731989
  0
LINE
  8
0
 62
7
  6
CONTINUOUS
 10
22.4968128835
 20
18.5861638851
 11
21.810364672
 21
15.3566789607
  0
LINE
  8
0
 62
7
  6
CONTINUOUS
 10
24.8542704669
 20
14.087448211
 11
25.8105020025
 21
18.5861638851
  0
LINE
  8
0
 62
7
  6
CONTINUOUS
 10
26.5103039502
 20
21.8784731989
 11
26.9545457526
 21
23.9684665583
  0
LINE
  8
0
 62
7
  6
CONTINUOUS
 10
20.8069293463
 20
12.3891124661
 11
24.3664527239
 21
13.5456717207
  0
LINE
  8
0
 62
7
  6
CONTINUOUS
 10
23.9478910361
 20
27.1661754044
 11
26.7292624203
 21
24.6618173613
  0
ARC
  8
0
 62
7
  6
CONTINUOUS
 10
13.8527227462
 20
23.5027814928
 40
0.7290321776
 50
108.0
 51
168.0
  0
ARC
  8
0
 62
7
  6
CONTINUOUS
 10
23.4600732931
 20
26.624398914
 40
0.7290321776
 50
348.0
 51
108.0
  0
ARC
  8
0
 62
7
  6
CONTINUOUS
 10
26.2414446773
 20
24.120040871
 40
0.7290321776
 50
348.0
 51
48.0
  0
ARC
  8
0
 62
7
  6
CONTINUOUS
 10
20.581646014
 20
13.0824632691
 40
0.7290321776
 50
228.0
 51
288.0
  0
ARC
  8
0
 62
7
  6
CONTINUOUS
 10
13.0745707529
 20
19.8418641951
 40
0.7290321776
 50
108.0
 51
228.0
  0
ARC
  8
0
 62
7
  6
CONTINUOUS
 10
24.1411693916
 20
14.2390225237
 40
0.7290321776
 50
228.0
 51
348.0
  0
ENDBLK
  8
0
  6
BYBLOCK
 62
0
  0
ENDSEC
  0
SECTION
  2
ENTITIES
  0
TEXT
  8
0
 62
5
  6
CONTINUOUS
 10
96.0
 20
25.636
  7
TEXTSTYLE_2
 40
2.8
  1
Scale :
 41
0.6
 51
0.000019
 72
0
  0
TEXT
  8
0
 62
5
  6
CONTINUOUS
 10
116.0
 20
25.636
  7
TEXTSTYLE_2
 40
2.8
  1
Belt type:
 41
0.6
 51
0.000019
 72
0
  0
INSERT
  8
0
 62
2
  6
CONTINUOUS
  2
SYMBOL_3_BL0
 10
32.1213064866
 20
19.8534310916
  0
INSERT
  8
0
 62
2
  6
CONTINUOUS
  2
SYMBOL_8_BL1
 10
173.5956734183
 20
35.5937998301
  0
LINE
  8
0
 62
2
  6
CONTINUOUS
 10
10.0
 20
30.0
 11
200.0
 21
30.0
  0
LINE
  8
0
 62
2
  6
CONTINUOUS
 10
10.0
 20
30.0
 11
10.0
 21
10.0
  0
LINE
  8
0
 62
2
  6
CONTINUOUS
 10
10.0
 20
10.0
 11
200.0
 21
10.0
  0
LINE
  8
0
 62
2
  6
CONTINUOUS
 10
95.0
 20
30.0
 11
95.0
 21
10.0
  0
LINE
  8
0
 62
2
  6
CONTINUOUS
 10
115.0
 20
30.0
 11
115.0
 21
10.0
  0
LINE
  8
0
 62
2
  6
CONTINUOUS
 10
200.0
 20
30.0
 11
200.0
 21
10.0
  0
TEXT
  8
0
 62
5
  6
CONTINUOUS
 10
13.0
 20
23.303
  7
TEXTSTYLE_5
 40
1.52
  1
                                                                     Ammeraal Beltech Modular A/S
 41
1.0
 72
0
  0
TEXT
  8
0
 62
5
  6
CONTINUOUS
 10
13.0
 20
20.595
  7
TEXTSTYLE_5
 40
1.5
  1
                                                                      Hjulmagervej 21,  7100 Vejle,  DK
 41
1.0
 72
0
  0
TEXT
  8
0
 62
5
  6
CONTINUOUS
 10
13.0
 20
17.881
  7
TEXTSTYLE_5
 40
1.495
  1
                                                                      tel: 
 41
1.0
 72
0
  0
TEXT
  8
0
 62
5
  6
CONTINUOUS
 10
57.9869465649
 20
17.881
  7
TEXTSTYLE_5
 40
1.51
  1
+45 75723100     fax: +45 75723348
 41
1.0
 72
0
  0
TEXT
  8
0
 62
5
  6
CONTINUOUS
 10
13.0
 20
15.177
  7
TEXTSTYLE_5
 40
1.5
  1
                                                                      admin@unichains.dk  www.unichains.com
 41
1.0
 72
0
  0
TEXT
  8
0
 62
5
  6
CONTINUOUS
 10
99.75
 20
13.75
  7
TEXTSTYLE_6
 40
5.0
  1
1:1
 41
0.7
 72
1
 11
105.0
 21
13.75
  0
TEXT
  8
0
 62
5
  6
CONTINUOUS
 10
118.0
 20
13.75
  7
TEXTSTYLE_7
 40
7.5
  1
uni MPB GE K600
 41
0.6270833333
 72
0
  0
LINE
  8
0
 62
7
  6
CONTINUOUS
 10
210.0
 20
0.0
 11
0.0
 21
0.0
  0
LINE
  8
0
 62
7
  6
CONTINUOUS
 10
10.0
 20
10.0
 11
200.0
 21
10.0
  0
LINE
  8
0
 62
7
  6
CONTINUOUS
 10
10.0
 20
30.0
 11
200.0
 21
30.0
  0
LINE
  8
0
 62
7
  6
CONTINUOUS
 10
0.0
 20
0.0
 11
0.0
 21
297.0
  0
LINE
  8
0
 62
7
  6
CONTINUOUS
 10
10.0
 20
10.0
 11
10.0
 21
287.0
  0
LINE
  8
0
 62
7
  6
CONTINUOUS
 10
200.0
 20
287.0
 11
200.0
 21
10.0
  0
LINE
  8
0
 62
7
  6
CONTINUOUS
 10
210.0
 20
0.0
 11
210.0
 21
297.0
  0
LINE
  8
0
 62
7
  6
CONTINUOUS
 10
10.0
 20
287.0
 11
200.0
 21
287.0
  0
LINE
  8
0
 62
7
  6
CONTINUOUS
 10
0.0
 20
297.0
 11
210.0
 21
297.0
  0
LINE
  8
0
 62
7
  6
CONTINUOUS
 10
43.5239224138
 20
252.7060344828
 11
43.5239224138
 21
249.5936400392
  0
POLYLINE
  8
0
 62
7
  6
CONTINUOUS
 66
1
 70
0
  0
VERTEX
  8
0
 62
7
  6
CONTINUOUS
 10
46.4516410905
 20
260.7060344828
  0
VERTEX
  8
0
 62
7
  6
CONTINUOUS
 10
46.4510291378
 20
260.7004266226
  0
VERTEX
  8
0
 62
7
  6
CONTINUOUS
 10
46.4521681587
 20
260.6843614691
  0
VERTEX
  8
0
 62
7
  6
CONTINUOUS
 10
46.4552531314
 20
260.6586998813
  0
VERTEX
  8
0
 62
7
  6
CONTINUOUS
 10
46.4602702658
 20
260.6248915092
  0
VERTEX
  8
0
 62
7
  6
CONTINUOUS
 10
46.4670402816
 20
260.5848827268
  0
VERTEX
  8
0
 62
7
  6
CONTINUOUS
 10
46.4752549553
 20
260.5409590398
  0
VERTEX
  8
0
 62
7
  6
CONTINUOUS
 10
46.4845163771
 20
260.495553962
  0
VERTEX
  8
0
 62
7
  6
CONTINUOUS
 10
46.4943746387
 20
260.4510748044
  0
SEQEND
  0
LINE
  8
0
 62
2
  6
CONTINUOUS
 10
49.3239224138
 20
253.5860344828
 11
49.3239224138
 21
251.8260344828
  0
LINE
  8
DEFAULT_1
 62
2
  6
CENTER
 10
49.3239224138
 20
248.3060344828
 11
49.3239224138
 21
246.5560344828
  0
LINE
  8
DEFAULT_1
 62
2
  6
CENTER
 10
49.3239224138
 20
257.1060344828
 11
49.3239224138
 21
258.8560344828
  0
LINE
  8
0
 62
7
  6
CONTINUOUS
 10
55.1239224138
 20
249.5936400392
 11
55.1239224138
 21
252.7060344828
  0
LINE
  8
0
 62
7
  6
CONTINUOUS
 10
55.7205743484
 20
263.223435395
 11
55.0939224138
 21
260.7060344828
  0
POLYLINE
  8
0
 62
7
  6
CONTINUOUS
 66
1
 70
0
  0
VERTEX
  8
0
 62
7
  6
CONTINUOUS
 10
46.4516879573
 20
244.7060344828
  0
VERTEX
  8
0
 62
7
  6
CONTINUOUS
 10
46.4532852185
 20
244.708563207
  0
VERTEX
  8
0
 62
7
  6
CONTINUOUS
 10
46.4556958156
 20
244.7161254146
  0
SEQEND
  0
POLYLINE
  8
0
 62
7
  6
CONTINUOUS
 66
1
 70
0
  0
VERTEX
  8
0
 62
7
  6
CONTINUOUS
 10
46.4556958156
 20
244.7161254146
  0
VERTEX
  8
0
 62
7
  6
CONTINUOUS
 10
45.8284988106
 20
244.9653147034
  0
VERTEX
  8
0
 62
7
  6
CONTINUOUS
 10
45.2209346274
 20
245.2655488806
  0
VERTEX
  8
0
 62
7
  6
CONTINUOUS
 10
44.6397944694
 20
245.6141972832
  0
VERTEX
  8
0
 62
7
  6
CONTINUOUS
 10
44.0902285641
 20
246.0083894785
  0
SEQEND
  0
LINE
  8
0
 62
7
  6
CONTINUOUS
 10
62.9805743484
 20
263.223435395
 11
62.3539224138
 21
260.7060344828
  0
LINE
  8
0
 62
7
  6
CONTINUOUS
 10
57.4672704792
 20
263.223435395
 11
58.0939224138
 21
260.7060344828
  0
LINE
  8
0
 62
7
  6
CONTINUOUS
 10
53.8239224138
 20
244.7060344828
 11
46.4516879573
 21
244.7060344828
  0
LINE
  8
0
 62
7
  6
CONTINUOUS
 10
95.6239224138
 20
244.7060344828
 11
102.9962037371
 21
244.7060344828
  0
LINE
  8
0
 62
7
  6
CONTINUOUS
 10
53.8239224137
 20
244.7161254146
 11
46.4556958156
 21
244.7161254146
  0
LINE
  8
0
 62
7
  6
CONTINUOUS
 10
73.971099053
 20
244.7560344828
 11
75.4767457745
 21
244.7560344828
  0
LINE
  8
0
 62
7
  6
CONTINUOUS
 10
64.7272704792
 20
263.223435395
 11
65.3539224138
 21
260.7060344828
  0
LINE
  8
0
 62
7
  6
CONTINUOUS
 10
70.2205743484
 20
263.223435395
 11
69.5939224138
 21
260.7060344828
  0
POLYLINE
  8
0
 62
7
  6
CONTINUOUS
 66
1
 70
0
  0
VERTEX
  8
0
 62
7
  6
CONTINUOUS
 10
55.7694785479
 20
245.1244728417
  0
VERTEX
  8
0
 62
7
  6
CONTINUOUS
 10
55.6614871431
 20
245.0534013336
  0
VERTEX
  8
0
 62
7
  6
CONTINUOUS
 10
55.5450579919
 20
244.9941288954
  0
VERTEX
  8
0
 62
7
  6
CONTINUOUS
 10
55.4242222192
 20
244.9453480679
  0
VERTEX
  8
0
 62
7
  6
CONTINUOUS
 10
55.3037106403
 20
244.9056917534
  0
VERTEX
  8
0
 62
7
  6
CONTINUOUS
 10
55.1869897998
 20
244.873615283
  0
VERTEX
  8
0
 62
7
  6
CONTINUOUS
 10
55.0756158741
 20
244.8477549483
  0
SEQEND
  0
POLYLINE
  8
0
 62
7
  6
CONTINUOUS
 66
1
 70
0
  0
VERTEX
  8
0
 62
7
  6
CONTINUOUS
 10
55.0756411523
 20
244.8477604626
  0
VERTEX
  8
0
 62
7
  6
CONTINUOUS
 10
54.6618820984
 20
244.7747570103
  0
VERTEX
  8
0
 62
7
  6
CONTINUOUS
 10
54.2439947152
 20
244.7308056184
  0
VERTEX
  8
0
 62
7
  6
CONTINUOUS
 10
53.8239224137
 20
244.7161254146
  0
SEQEND
  0
LINE
  8
0
 62
7
  6
CONTINUOUS
 10
71.0539556544
 20
252.0969858604
 11
73.0121186014
 21
245.4725622738
  0
LINE
  8
DEFAULT_1
 62
2
  6
CENTER
 10
74.7239224138
 20
230.7060344828
 11
74.7239224138
 21
274.7060344828
  0
LINE
  8
0
 62
7
  6
CONTINUOUS
 10
77.4805743484
 20
263.223435395
 11
76.8539224138
 21
260.7060344828
  0
LINE
  8
0
 62
2
  6
CONTINUOUS
 10
101.0039224138
 20
252.7060344828
 11
99.2439224138
 21
252.7060344828
  0
LINE
  8
0
 62
40
  6
CONTINUOUS
 10
99.2439224138
 20
252.7060344828
 11
98.7439224138
 21
252.7060344828
  0
LINE
  8
DEFAULT_1
 62
2
  6
CENTER
 10
95.7239224138
 20
252.7060344828
 11
93.9739224138
 21
252.7060344828
  0
LINE
  8
0
 62
7
  6
CONTINUOUS
 10
70.2388222704
 20
252.7060344828
 11
68.5461132346
 21
252.7060344828
  0
LINE
  8
0
 62
2
  6
CONTINUOUS
 10
50.2039224138
 20
252.7060344828
 11
48.4439224138
 21
252.7060344828
  0
LINE
  8
0
 62
40
  6
CONTINUOUS
 10
48.4439224138
 20
252.7060344828
 11
47.7039224138
 21
252.7060344828
  0
LINE
  8
DEFAULT_1
 62
2
  6
CENTER
 10
44.9239224138
 20
252.7060344828
 11
43.1739224138
 21
252.7060344828
  0
LINE
  8
0
 62
40
  6
CONTINUOUS
 10
50.2039224138
 20
252.7060344828
 11
50.7039224138
 21
252.7060344828
  0
LINE
  8
DEFAULT_1
 62
2
  6
CENTER
 10
53.7239224138
 20
252.7060344828
 11
55.4739224138
 21
252.7060344828
  0
LINE
  8
0
 62
7
  6
CONTINUOUS
 10
79.2090225572
 20
252.7060344828
 11
80.901731593
 21
252.7060344828
  0
LINE
  8
0
 62
40
  6
CONTINUOUS
 10
101.0039224138
 20
252.7060344828
 11
101.7439224138
 21
252.7060344828
  0
LINE
  8
DEFAULT_1
 62
2
  6
CENTER
 10
104.5239224138
 20
252.7060344828
 11
106.2739224138
 21
252.7060344828
  0
LINE
  8
0
 62
7
  6
CONTINUOUS
 10
57.3750033566
 20
256.609599739
 11
68.2116483688
 21
252.7636262625
  0
LINE
  8
0
 62
7
  6
CONTINUOUS
 10
71.9672704792
 20
263.223435395
 11
72.5939224138
 21
260.7060344828
  0
LINE
  8
0
 62
7
  6
CONTINUOUS
 10
76.4357262262
 20
245.4725622738
 11
78.3938891732
 21
252.0969858604
  0
LINE
  8
0
 62
7
  6
CONTINUOUS
 10
81.2361964588
 20
252.7636262625
 11
84.4574061268
 21
253.9068478898
  0
LINE
  8
0
 62
7
  6
CONTINUOUS
 10
84.7205743484
 20
263.223435395
 11
84.0939224138
 21
260.7060344828
  0
LINE
  8
0
 62
7
  6
CONTINUOUS
 10
46.4516410905
 20
260.7060344828
 11
102.9962037371
 21
260.7060344828
  0
LINE
  8
0
 62
7
  6
CONTINUOUS
 10
79.2272704792
 20
263.223435395
 11
79.8539224138
 21
260.7060344828
  0
POLYLINE
  8
0
 62
7
  6
CONTINUOUS
 66
1
 70
0
  0
VERTEX
  8
0
 62
7
  6
CONTINUOUS
 10
53.8950357702
 20
260.7060636629
  0
VERTEX
  8
0
 62
7
  6
CONTINUOUS
 10
53.8305786177
 20
260.6976095913
  0
VERTEX
  8
0
 62
7
  6
CONTINUOUS
 10
53.7704812836
 20
260.6728188126
  0
VERTEX
  8
0
 62
7
  6
CONTINUOUS
 10
53.7188093071
 20
260.6333681704
  0
VERTEX
  8
0
 62
7
  6
CONTINUOUS
 10
53.6790583583
 20
260.5819263269
  0
VERTEX
  8
0
 62
7
  6
CONTINUOUS
 10
53.6539176626
 20
260.521973253
  0
VERTEX
  8
0
 62
7
  6
CONTINUOUS
 10
53.6450879917
 20
260.4575647754
  0
VERTEX
  8
0
 62
7
  6
CONTINUOUS
 10
53.6531665623
 20
260.3930581338
  0
VERTEX
  8
0
 62
7
  6
CONTINUOUS
 10
53.6776066371
 20
260.3328171384
  0
VERTEX
  8
0
 62
7
  6
CONTINUOUS
 10
53.7167545564
 20
260.2809169006
  0
VERTEX
  8
0
 62
7
  6
CONTINUOUS
 10
53.7679616833
 20
260.2408681209
  0
SEQEND
  0
LINE
  8
0
 62
7
  6
CONTINUOUS
 10
91.9805743484
 20
263.223435395
 11
91.3539224138
 21
260.7060344828
  0
LINE
  8
0
 62
7
  6
CONTINUOUS
 10
86.4672704792
 20
263.223435395
 11
87.0939224138
 21
260.7060344828
  0
LINE
  8
0
 62
7
  6
CONTINUOUS
 10
93.7272704792
 20
263.223435395
 11
94.3539224138
 21
260.7060344828
  0
LINE
  8
0
 62
2
  6
CONTINUOUS
 10
100.1239224138
 20
253.5860344828
 11
100.1239224138
 21
251.8260344828
  0
LINE
  8
DEFAULT_1
 62
2
  6
CENTER
 10
100.1239224138
 20
248.3060344828
 11
100.1239224138
 21
246.5560344828
  0
LINE
  8
DEFAULT_1
 62
2
  6
CENTER
 10
100.1239224138
 20
257.1060344828
 11
100.1239224138
 21
258.8560344828
  0
LINE
  8
0
 62
7
  6
CONTINUOUS
 10
102.9611745971
 20
260.5060344828
 11
102.9962037371
 21
260.7060344828
  0
POLYLINE
  8
0
 62
7
  6
CONTINUOUS
 66
1
 70
0
  0
VERTEX
  8
0
 62
7
  6
CONTINUOUS
 10
102.9552162642
 20
245.7060344828
  0
VERTEX
  8
0
 62
7
  6
CONTINUOUS
 10
102.9553567978
 20
245.551255235
  0
VERTEX
  8
0
 62
7
  6
CONTINUOUS
 10
102.9580913003
 20
245.3998746515
  0
VERTEX
  8
0
 62
7
  6
CONTINUOUS
 10
102.9626966626
 20
245.2555989374
  0
VERTEX
  8
0
 62
7
  6
CONTINUOUS
 10
102.9685053933
 20
245.1219901143
  0
VERTEX
  8
0
 62
7
  6
CONTINUOUS
 10
102.9748945485
 20
245.002385819
  0
VERTEX
  8
0
 62
7
  6
CONTINUOUS
 10
102.981278925
 20
244.8998210316
  0
VERTEX
  8
0
 62
7
  6
CONTINUOUS
 10
102.9871070221
 20
244.8169531007
  0
VERTEX
  8
0
 62
7
  6
CONTINUOUS
 10
102.9918587847
 20
244.7559922185
  0
VERTEX
  8
0
 62
7
  6
CONTINUOUS
 10
102.9950444218
 20
244.7186394344
  0
VERTEX
  8
0
 62
7
  6
CONTINUOUS
 10
102.9962037371
 20
244.7060344828
  0
SEQEND
  0
POLYLINE
  8
0
 62
7
  6
CONTINUOUS
 66
1
 70
0
  0
VERTEX
  8
0
 62
7
  6
CONTINUOUS
 10
46.4866703103
 20
210.8142241379
  0
VERTEX
  8
0
 62
7
  6
CONTINUOUS
 10
46.4789075432
 20
210.8092992678
  0
VERTEX
  8
0
 62
7
  6
CONTINUOUS
 10
46.4715274181
 20
210.7947147529
  0
VERTEX
  8
0
 62
7
  6
CONTINUOUS
 10
46.4648932207
 20
210.7711062913
  0
VERTEX
  8
0
 62
7
  6
CONTINUOUS
 10
46.4593371465
 20
210.7395678415
  0
VERTEX
  8
0
 62
7
  6
CONTINUOUS
 10
46.4551429588
 20
210.7016166568
  0
VERTEX
  8
0
 62
7
  6
CONTINUOUS
 10
46.4525300452
 20
210.659125532
  0
VERTEX
  8
0
 62
7
  6
CONTINUOUS
 10
46.4516410905
 20
210.6142241379
  0
SEQEND
  0
POLYLINE
  8
0
 62
7
  6
CONTINUOUS
 66
1
 70
0
  0
VERTEX
  8
0
 62
7
  6
CONTINUOUS
 10
108.4239313187
 20
59.8142237691
  0
VERTEX
  8
0
 62
7
  6
CONTINUOUS
 10
108.4682330589
 20
59.8191923302
  0
VERTEX
  8
0
 62
7
  6
CONTINUOUS
 10
108.5104786958
 20
59.8339207398
  0
VERTEX
  8
0
 62
7
  6
CONTINUOUS
 10
108.5483931358
 20
59.8576720284
  0
VERTEX
  8
0
 62
7
  6
CONTINUOUS
 10
108.5800788932
 20
59.8892575722
  0
VERTEX
  8
0
 62
7
  6
CONTINUOUS
 10
108.6039501747
 20
59.9270965689
  0
VERTEX
  8
0
 62
7
  6
CONTINUOUS
 10
108.6188123617
 20
59.9692951862
  0
VERTEX
  8
0
 62
7
  6
CONTINUOUS
 10
108.6239224048
 20
60.0142154198
  0
SEQEND
  0
LINE
  8
0
 62
7
  6
CONTINUOUS
 10
108.4239896191
 20
59.8142241379
 11
53.8453166459
 21
59.8142241379
  0
POLYLINE
  8
0
 62
7
  6
CONTINUOUS
 66
1
 70
0
  0
VERTEX
  8
0
 62
7
  6
CONTINUOUS
 10
42.285155682
 20
69.2597549641
  0
VERTEX
  8
0
 62
7
  6
CONTINUOUS
 10
42.6861049038
 20
69.0799716889
  0
VERTEX
  8
0
 62
7
  6
CONTINUOUS
 10
43.1517179446
 20
68.9049071507
  0
VERTEX
  8
0
 62
7
  6
CONTINUOUS
 10
43.653342425
 20
68.7461387488
  0
VERTEX
  8
0
 62
7
  6
CONTINUOUS
 10
44.1866786272
 20
68.603434003
  0
VERTEX
  8
0
 62
7
  6
CONTINUOUS
 10
44.747069649
 20
68.4767457695
  0
VERTEX
  8
0
 62
7
  6
CONTINUOUS
 10
45.3296804545
 20
68.3660582385
  0
VERTEX
  8
0
 62
7
  6
CONTINUOUS
 10
45.9295053814
 20
68.2713293871
  0
VERTEX
  8
0
 62
7
  6
CONTINUOUS
 10
46.4812985028
 20
68.1994515734
  0
SEQEND
  0
POLYLINE
  8
0
 62
7
  6
CONTINUOUS
 66
1
 70
0
  0
VERTEX
  8
0
 62
7
  6
CONTINUOUS
 10
97.1343809155
 20
68.0260575496
  0
VERTEX
  8
0
 62
7
  6
CONTINUOUS
 10
96.8403491445
 20
68.0220878286
  0
VERTEX
  8
0
 62
7
  6
CONTINUOUS
 10
96.7604799715
 20
68.0220411622
  0
VERTEX
  8
0
 62
7
  6
CONTINUOUS
 10
96.6813045083
 20
68.0234179269
  0
VERTEX
  8
0
 62
7
  6
CONTINUOUS
 10
96.6030825345
 20
68.0264170363
  0
VERTEX
  8
0
 62
7
  6
CONTINUOUS
 10
96.526011415
 20
68.0312526061
  0
VERTEX
  8
0
 62
7
  6
CONTINUOUS
 10
96.4502982424
 20
68.0381137358
  0
VERTEX
  8
0
 62
7
  6
CONTINUOUS
 10
96.3763709736
 20
68.0471696342
  0
VERTEX
  8
0
 62
7
  6
CONTINUOUS
 10
96.3046757973
 20
68.05858529
  0
VERTEX
  8
0
 62
7
  6
CONTINUOUS
 10
96.2350767752
 20
68.0725412661
  0
VERTEX
  8
0
 62
7
  6
CONTINUOUS
 10
96.1678411892
 20
68.0893090206
  0
VERTEX
  8
0
 62
7
  6
CONTINUOUS
 10
96.1044121482
 20
68.1090111726
  0
VERTEX
  8
0
 62
7
  6
CONTINUOUS
 10
96.0454172558
 20
68.1323625705
  0
VERTEX
  8
0
 62
7
  6
CONTINUOUS
 10
95.9906472508
 20
68.1597654542
  0
VERTEX
  8
0
 62
7
  6
CONTINUOUS
 10
95.9417159834
 20
68.1906145879
  0
VERTEX
  8
0
 62
7
  6
CONTINUOUS
 10
95.8996896206
 20
68.2240785908
  0
VERTEX
  8
0
 62
7
  6
CONTINUOUS
 10
95.8643459459
 20
68.2602137928
  0
VERTEX
  8
0
 62
7
  6
CONTINUOUS
 10
95.8359808025
 20
68.2989770345
  0
VERTEX
  8
0
 62
7
  6
CONTINUOUS
 10
95.8154045048
 20
68.3402506342
  0
VERTEX
  8
0
 62
7
  6
CONTINUOUS
 10
95.8042214777
 20
68.3832479703
  0
VERTEX
  8
0
 62
7
  6
CONTINUOUS
 10
95.8027314654
 20
68.4044868735
  0
SEQEND
  0
LINE
  8
0
 62
7
  6
CONTINUOUS
 10
97.4173950845
 20
68.0284996042
 11
97.1343809155
 21
68.0260575496
  0
LINE
  8
0
 62
7
  6
CONTINUOUS
 10
97.4173950845
 20
68.0284996042
 11
102.9654960251
 21
68.0290559811
  0
LINE
  8
0
 62
7
  6
CONTINUOUS
 10
46.4813043685
 20
68.199451603
 11
46.4823243083
 21
68.1993922977
  0
LINE
  8
0
 62
7
  6
CONTINUOUS
 10
42.1894904322
 20
69.2715963597
 11
42.2942177742
 21
69.2556915752
  0
LINE
  8
0
 62
7
  6
CONTINUOUS
 10
42.6861049038
 20
193.148476587
 11
42.285155682
 21
192.9686933118
  0
POLYLINE
  8
0
 62
7
  6
CONTINUOUS
 66
1
 70
0
  0
VERTEX
  8
0
 62
7
  6
CONTINUOUS
 10
107.258345438
 20
77.6715949633
  0
VERTEX
  8
0
 62
7
  6
CONTINUOUS
 10
107.4258580072
 20
77.699256775
  0
VERTEX
  8
0
 62
7
  6
CONTINUOUS
 10
107.5908842254
 20
77.7301615729
  0
VERTEX
  8
0
 62
7
  6
CONTINUOUS
 10
107.7347119266
 20
77.7611103595
  0
VERTEX
  8
0
 62
7
  6
CONTINUOUS
 10
107.8607145497
 20
77.7925195467
  0
VERTEX
  8
0
 62
7
  6
CONTINUOUS
 10
107.9723013888
 20
77.8251026878
  0
VERTEX
  8
0
 62
7
  6
CONTINUOUS
 10
108.0731527076
 20
77.8601176965
  0
VERTEX
  8
0
 62
7
  6
CONTINUOUS
 10
108.1673561741
 20
77.8998011949
  0
VERTEX
  8
0
 62
7
  6
CONTINUOUS
 10
108.2588200999
 20
77.9478283127
  0
VERTEX
  8
0
 62
7
  6
CONTINUOUS
 10
108.3504273226
 20
78.0099379634
  0
VERTEX
  8
0
 62
7
  6
CONTINUOUS
 10
108.4417181902
 20
78.0936668883
  0
VERTEX
  8
0
 62
7
  6
CONTINUOUS
 10
108.5252060978
 20
78.2043122994
  0
VERTEX
  8
0
 62
7
  6
CONTINUOUS
 10
108.5881498212
 20
78.3393019649
  0
VERTEX
  8
0
 62
7
  6
CONTINUOUS
 10
108.6202919771
 20
78.4871367542
  0
VERTEX
  8
0
 62
7
  6
CONTINUOUS
 10
108.6239223099
 20
78.5580508967
  0
SEQEND
  0
LINE
  8
0
 62
7
  6
CONTINUOUS
 10
107.1536279808
 20
77.6556938498
 11
107.2583535255
 21
77.6715962241
  0
POLYLINE
  8
0
 62
7
  6
CONTINUOUS
 66
1
 70
0
  0
VERTEX
  8
0
 62
7
  6
CONTINUOUS
 10
102.9665462966
 20
76.5994515701
  0
VERTEX
  8
0
 62
7
  6
CONTINUOUS
 10
103.514837679
 20
76.6708288251
  0
VERTEX
  8
0
 62
7
  6
CONTINUOUS
 10
104.1148190944
 20
76.7654782865
  0
VERTEX
  8
0
 62
7
  6
CONTINUOUS
 10
104.6976060589
 20
76.8760888913
  0
VERTEX
  8
0
 62
7
  6
CONTINUOUS
 10
105.2581917252
 20
77.0027027775
  0
VERTEX
  8
0
 62
7
  6
CONTINUOUS
 10
105.7917394035
 20
77.1453355319
  0
VERTEX
  8
0
 62
7
  6
CONTINUOUS
 10
106.2935897816
 20
77.3040334561
  0
VERTEX
  8
0
 62
7
  6
CONTINUOUS
 10
106.7594403869
 20
77.4790272377
  0
SEQEND
  0
POLYLINE
  8
0
 62
7
  6
CONTINUOUS
 66
1
 70
0
  0
VERTEX
  8
0
 62
7
  6
CONTINUOUS
 10
52.3094961821
 20
68.2023438615
  0
VERTEX
  8
0
 62
7
  6
CONTINUOUS
 10
52.602818301
 20
68.2063168385
  0
VERTEX
  8
0
 62
7
  6
CONTINUOUS
 10
52.6824118441
 20
68.2064431619
  0
VERTEX
  8
0
 62
7
  6
CONTINUOUS
 10
52.7614745053
 20
68.2051644825
  0
VERTEX
  8
0
 62
7
  6
CONTINUOUS
 10
52.8397262295
 20
68.2022780057
  0
VERTEX
  8
0
 62
7
  6
CONTINUOUS
 10
52.9169444735
 20
68.1975626037
  0
VERTEX
  8
0
 62
7
  6
CONTINUOUS
 10
52.9929095224
 20
68.1908196831
  0
VERTEX
  8
0
 62
7
  6
CONTINUOUS
 10
53.0671886671
 20
68.181873337
  0
VERTEX
  8
0
 62
7
  6
CONTINUOUS
 10
53.1392736654
 20
68.1705538197
  0
VERTEX
  8
0
 62
7
  6
CONTINUOUS
 10
53.2093783343
 20
68.1566624205
  0
VERTEX
  8
0
 62
7
  6
CONTINUOUS
 10
53.2770284864
 20
68.1399625447
  0
VERTEX
  8
0
 62
7
  6
CONTINUOUS
 10
53.3410966707
 20
68.1202480028
  0
VERTEX
  8
0
 62
7
  6
CONTINUOUS
 10
53.4005864958
 20
68.0969013252
  0
VERTEX
  8
0
 62
7
  6
CONTINUOUS
 10
53.4558554446
 20
68.069432902
  0
VERTEX
  8
0
 62
7
  6
CONTINUOUS
 10
53.5052999739
 20
68.0384180255
  0
VERTEX
  8
0
 62
7
  6
CONTINUOUS
 10
53.5474789468
 20
68.0049753395
  0
VERTEX
  8
0
 62
7
  6
CONTINUOUS
 10
53.5827532386
 20
67.9691054481
  0
VERTEX
  8
0
 62
7
  6
CONTINUOUS
 10
53.6110490501
 20
67.9307852728
  0
VERTEX
  8
0
 62
7
  6
CONTINUOUS
 10
53.6317591557
 20
67.8899542722
  0
VERTEX
  8
0
 62
7
  6
CONTINUOUS
 10
53.6433474177
 20
67.8471574496
  0
VERTEX
  8
0
 62
7
  6
CONTINUOUS
 10
53.6451139279
 20
67.8237876512
  0
SEQEND
  0
LINE
  8
0
 62
7
  6
CONTINUOUS
 10
52.0264744454
 20
68.1999278871
 11
52.3094961821
 21
68.2023438615
  0
LINE
  8
0
 62
7
  6
CONTINUOUS
 10
46.4823863198
 20
68.1993922948
 11
52.0264744454
 21
68.1999278871
  0
LINE
  8
0
 62
7
  6
CONTINUOUS
 10
102.9655281381
 20
68.029055981
 11
102.9665361752
 21
68.028996655
  0
LINE
  8
0
 62
7
  6
CONTINUOUS
 10
107.2583535255
 20
66.9568520517
 11
107.1536279805
 21
66.9727544261
  0
LINE
  8
0
 62
7
  6
CONTINUOUS
 10
102.9665404309
 20
76.5994515996
 11
102.9655205193
 21
76.5993922977
  0
LINE
  8
0
 62
7
  6
CONTINUOUS
 10
46.4813043685
 20
76.4289966729
 11
46.4823243083
 21
76.4290559781
  0
POLYLINE
  8
0
 62
7
  6
CONTINUOUS
 66
1
 70
0
  0
VERTEX
  8
0
 62
7
  6
CONTINUOUS
 10
52.6069240544
 20
76.4220934761
  0
VERTEX
  8
0
 62
7
  6
CONTINUOUS
 10
52.3134600686
 20
76.4260579526
  0
VERTEX
  8
0
 62
7
  6
CONTINUOUS
 10
52.0304478671
 20
76.4284996964
  0
VERTEX
  8
0
 62
7
  6
CONTINUOUS
 10
46.4823863198
 20
76.4290559811
  0
SEQEND
  0
POLYLINE
  8
0
 62
7
  6
CONTINUOUS
 66
1
 70
0
  0
VERTEX
  8
0
 62
7
  6
CONTINUOUS
 10
96.8445495989
 20
76.6063214169
  0
VERTEX
  8
0
 62
7
  6
CONTINUOUS
 10
97.1383486961
 20
76.6023438618
  0
VERTEX
  8
0
 62
7
  6
CONTINUOUS
 10
97.4213703566
 20
76.5999278873
  0
VERTEX
  8
0
 62
7
  6
CONTINUOUS
 10
102.9654585078
 20
76.5993922948
  0
SEQEND
  0
POLYLINE
  8
0
 62
7
  6
CONTINUOUS
 66
1
 70
0
  0
VERTEX
  8
0
 62
7
  6
CONTINUOUS
 10
42.285155682
 20
86.0597549641
  0
VERTEX
  8
0
 62
7
  6
CONTINUOUS
 10
42.6861049038
 20
85.8799716889
  0
VERTEX
  8
0
 62
7
  6
CONTINUOUS
 10
43.1517179446
 20
85.7049071507
  0
VERTEX
  8
0
 62
7
  6
CONTINUOUS
 10
43.653342425
 20
85.5461387488
  0
VERTEX
  8
0
 62
7
  6
CONTINUOUS
 10
44.1866786272
 20
85.403434003
  0
VERTEX
  8
0
 62
7
  6
CONTINUOUS
 10
44.747069649
 20
85.2767457695
  0
VERTEX
  8
0
 62
7
  6
CONTINUOUS
 10
45.3296804545
 20
85.1660582385
  0
VERTEX
  8
0
 62
7
  6
CONTINUOUS
 10
45.9295053814
 20
85.0713293871
  0
VERTEX
  8
0
 62
7
  6
CONTINUOUS
 10
46.4812985028
 20
84.9994515734
  0
SEQEND
  0
LINE
  8
0
 62
7
  6
CONTINUOUS
 10
42.6861049038
 20
176.348476587
 11
42.285155682
 21
176.1686933118
  0
POLYLINE
  8
0
 62
7
  6
CONTINUOUS
 66
1
 70
0
  0
VERTEX
  8
0
 62
7
  6
CONTINUOUS
 10
42.1894986375
 20
75.3568531953
  0
VERTEX
  8
0
 62
7
  6
CONTINUOUS
 10
42.0207035841
 20
75.3289665496
  0
VERTEX
  8
0
 62
7
  6
CONTINUOUS
 10
41.8561433678
 20
75.2981226481
  0
VERTEX
  8
0
 62
7
  6
CONTINUOUS
 10
41.7127050912
 20
75.2672388973
  0
VERTEX
  8
0
 62
7
  6
CONTINUOUS
 10
41.5870267907
 20
75.2359008508
  0
VERTEX
  8
0
 62
7
  6
CONTINUOUS
 10
41.4757131204
 20
75.2033994654
  0
VERTEX
  8
0
 62
7
  6
CONTINUOUS
 10
41.3751034989
 20
75.1684871626
  0
VERTEX
  8
0
 62
7
  6
CONTINUOUS
 10
41.2811386278
 20
75.1289505354
  0
VERTEX
  8
0
 62
7
  6
CONTINUOUS
 10
41.1899428468
 20
75.0811619441
  0
VERTEX
  8
0
 62
7
  6
CONTINUOUS
 10
41.0986306704
 20
75.0194529009
  0
VERTEX
  8
0
 62
7
  6
CONTINUOUS
 10
41.0075829165
 20
74.9363558335
  0
VERTEX
  8
0
 62
7
  6
CONTINUOUS
 10
40.9241133574
 20
74.8265505684
  0
VERTEX
  8
0
 62
7
  6
CONTINUOUS
 10
40.8608030502
 20
74.6923967863
  0
VERTEX
  8
0
 62
7
  6
CONTINUOUS
 10
40.8279595748
 20
74.545150531
  0
VERTEX
  8
0
 62
7
  6
CONTINUOUS
 10
40.8239225208
 20
74.4703948254
  0
SEQEND
  0
LINE
  8
0
 62
7
  6
CONTINUOUS
 10
42.2942177742
 20
75.3727567007
 11
42.1894904322
 21
75.3568519161
  0
POLYLINE
  8
0
 62
7
  6
CONTINUOUS
 66
1
 70
0
  0
VERTEX
  8
0
 62
7
  6
CONTINUOUS
 10
46.4812985028
 20
76.4289967025
  0
VERTEX
  8
0
 62
7
  6
CONTINUOUS
 10
45.9295053814
 20
76.3571188887
  0
VERTEX
  8
0
 62
7
  6
CONTINUOUS
 10
45.3296804545
 20
76.2623900374
  0
VERTEX
  8
0
 62
7
  6
CONTINUOUS
 10
44.747069649
 20
76.1517025064
  0
VERTEX
  8
0
 62
7
  6
CONTINUOUS
 10
44.1866786272
 20
76.0250142728
  0
VERTEX
  8
0
 62
7
  6
CONTINUOUS
 10
43.653342425
 20
75.882309527
  0
VERTEX
  8
0
 62
7
  6
CONTINUOUS
 10
43.1517179446
 20
75.7235411251
  0
VERTEX
  8
0
 62
7
  6
CONTINUOUS
 10
42.6861049038
 20
75.548476587
  0
SEQEND
  0
POLYLINE
  8
0
 62
7
  6
CONTINUOUS
 66
1
 70
0
  0
VERTEX
  8
0
 62
7
  6
CONTINUOUS
 10
52.3094961821
 20
85.0023438615
  0
VERTEX
  8
0
 62
7
  6
CONTINUOUS
 10
52.602818301
 20
85.0063168385
  0
VERTEX
  8
0
 62
7
  6
CONTINUOUS
 10
52.6824118441
 20
85.0064431619
  0
VERTEX
  8
0
 62
7
  6
CONTINUOUS
 10
52.7614745053
 20
85.0051644825
  0
VERTEX
  8
0
 62
7
  6
CONTINUOUS
 10
52.8397262295
 20
85.0022780057
  0
VERTEX
  8
0
 62
7
  6
CONTINUOUS
 10
52.9169444735
 20
84.9975626037
  0
VERTEX
  8
0
 62
7
  6
CONTINUOUS
 10
52.9929095224
 20
84.9908196831
  0
VERTEX
  8
0
 62
7
  6
CONTINUOUS
 10
53.0671886671
 20
84.981873337
  0
VERTEX
  8
0
 62
7
  6
CONTINUOUS
 10
53.1392736654
 20
84.9705538197
  0
VERTEX
  8
0
 62
7
  6
CONTINUOUS
 10
53.2093783343
 20
84.9566624205
  0
VERTEX
  8
0
 62
7
  6
CONTINUOUS
 10
53.2770284864
 20
84.9399625447
  0
VERTEX
  8
0
 62
7
  6
CONTINUOUS
 10
53.3410966707
 20
84.9202480028
  0
VERTEX
  8
0
 62
7
  6
CONTINUOUS
 10
53.4005864958
 20
84.8969013252
  0
VERTEX
  8
0
 62
7
  6
CONTINUOUS
 10
53.4558554446
 20
84.869432902
  0
VERTEX
  8
0
 62
7
  6
CONTINUOUS
 10
53.5052999739
 20
84.8384180255
  0
VERTEX
  8
0
 62
7
  6
CONTINUOUS
 10
53.5474789468
 20
84.8049753395
  0
VERTEX
  8
0
 62
7
  6
CONTINUOUS
 10
53.5827532386
 20
84.7691054481
  0
VERTEX
  8
0
 62
7
  6
CONTINUOUS
 10
53.6110490501
 20
84.7307852728
  0
VERTEX
  8
0
 62
7
  6
CONTINUOUS
 10
53.6317591557
 20
84.6899542722
  0
VERTEX
  8
0
 62
7
  6
CONTINUOUS
 10
53.6433474177
 20
84.6471574496
  0
VERTEX
  8
0
 62
7
  6
CONTINUOUS
 10
53.6451139279
 20
84.6237876512
  0
SEQEND
  0
POLYLINE
  8
0
 62
7
  6
CONTINUOUS
 66
1
 70
0
  0
VERTEX
  8
0
 62
7
  6
CONTINUOUS
 10
97.1343809155
 20
84.8260575496
  0
VERTEX
  8
0
 62
7
  6
CONTINUOUS
 10
96.8403491445
 20
84.8220878286
  0
VERTEX
  8
0
 62
7
  6
CONTINUOUS
 10
96.7604799715
 20
84.8220411622
  0
VERTEX
  8
0
 62
7
  6
CONTINUOUS
 10
96.6813045083
 20
84.8234179269
  0
VERTEX
  8
0
 62
7
  6
CONTINUOUS
 10
96.6030825345
 20
84.8264170363
  0
VERTEX
  8
0
 62
7
  6
CONTINUOUS
 10
96.526011415
 20
84.8312526061
  0
VERTEX
  8
0
 62
7
  6
CONTINUOUS
 10
96.4502982424
 20
84.8381137358
  0
VERTEX
  8
0
 62
7
  6
CONTINUOUS
 10
96.3763709736
 20
84.8471696342
  0
VERTEX
  8
0
 62
7
  6
CONTINUOUS
 10
96.3046757973
 20
84.85858529
  0
VERTEX
  8
0
 62
7
  6
CONTINUOUS
 10
96.2350767752
 20
84.8725412661
  0
VERTEX
  8
0
 62
7
  6
CONTINUOUS
 10
96.1678411892
 20
84.8893090206
  0
VERTEX
  8
0
 62
7
  6
CONTINUOUS
 10
96.1044121482
 20
84.9090111726
  0
VERTEX
  8
0
 62
7
  6
CONTINUOUS
 10
96.0454172558
 20
84.9323625705
  0
VERTEX
  8
0
 62
7
  6
CONTINUOUS
 10
95.9906472508
 20
84.9597654542
  0
VERTEX
  8
0
 62
7
  6
CONTINUOUS
 10
95.9417159834
 20
84.9906145879
  0
VERTEX
  8
0
 62
7
  6
CONTINUOUS
 10
95.8996896206
 20
85.0240785908
  0
VERTEX
  8
0
 62
7
  6
CONTINUOUS
 10
95.8643459459
 20
85.0602137928
  0
VERTEX
  8
0
 62
7
  6
CONTINUOUS
 10
95.8359808025
 20
85.0989770345
  0
VERTEX
  8
0
 62
7
  6
CONTINUOUS
 10
95.8154045048
 20
85.1402506342
  0
VERTEX
  8
0
 62
7
  6
CONTINUOUS
 10
95.8042214777
 20
85.1832479703
  0
VERTEX
  8
0
 62
7
  6
CONTINUOUS
 10
95.8027314654
 20
85.2044868735
  0
SEQEND
  0
LINE
  8
0
 62
7
  6
CONTINUOUS
 10
97.4173950845
 20
84.8284996042
 11
97.1343809155
 21
84.8260575496
  0
LINE
  8
0
 62
7
  6
CONTINUOUS
 10
52.0264744454
 20
84.9999278871
 11
52.3094961821
 21
85.0023438615
  0
LINE
  8
0
 62
7
  6
CONTINUOUS
 10
97.4173950845
 20
84.8284996042
 11
102.9654960251
 21
84.8290559811
  0
LINE
  8
0
 62
7
  6
CONTINUOUS
 10
46.4823863198
 20
84.9993922948
 11
52.0264744454
 21
84.9999278871
  0
LINE
  8
0
 62
7
  6
CONTINUOUS
 10
46.4813043685
 20
84.999451603
 11
46.4823243083
 21
84.9993922977
  0
LINE
  8
0
 62
7
  6
CONTINUOUS
 10
102.9655281381
 20
84.829055981
 11
102.9665361752
 21
84.828996655
  0
LINE
  8
0
 62
7
  6
CONTINUOUS
 10
42.1894904322
 20
86.0715963597
 11
42.2942177742
 21
86.0556915752
  0
POLYLINE
  8
0
 62
7
  6
CONTINUOUS
 66
1
 70
0
  0
VERTEX
  8
0
 62
7
  6
CONTINUOUS
 10
107.1626870195
 20
66.9686943549
  0
VERTEX
  8
0
 62
7
  6
CONTINUOUS
 10
106.75944028
 20
67.1494210821
  0
VERTEX
  8
0
 62
7
  6
CONTINUOUS
 10
106.2935895488
 20
67.3244148999
  0
VERTEX
  8
0
 62
7
  6
CONTINUOUS
 10
105.7917390287
 20
67.4831128529
  0
VERTEX
  8
0
 62
7
  6
CONTINUOUS
 10
105.2581911953
 20
67.6257456286
  0
VERTEX
  8
0
 62
7
  6
CONTINUOUS
 10
104.6976053644
 20
67.7523595284
  0
VERTEX
  8
0
 62
7
  6
CONTINUOUS
 10
104.1148182295
 20
67.8629701393
  0
VERTEX
  8
0
 62
7
  6
CONTINUOUS
 10
103.5148366411
 20
67.957619599
  0
VERTEX
  8
0
 62
7
  6
CONTINUOUS
 10
102.9665462966
 20
68.0289967058
  0
SEQEND
  0
POLYLINE
  8
0
 62
7
  6
CONTINUOUS
 66
1
 70
0
  0
VERTEX
  8
0
 62
7
  6
CONTINUOUS
 10
107.258345438
 20
94.4715949633
  0
VERTEX
  8
0
 62
7
  6
CONTINUOUS
 10
107.4258580072
 20
94.499256775
  0
VERTEX
  8
0
 62
7
  6
CONTINUOUS
 10
107.5908842254
 20
94.5301615729
  0
VERTEX
  8
0
 62
7
  6
CONTINUOUS
 10
107.7347119266
 20
94.5611103595
  0
VERTEX
  8
0
 62
7
  6
CONTINUOUS
 10
107.8607145497
 20
94.5925195467
  0
VERTEX
  8
0
 62
7
  6
CONTINUOUS
 10
107.9723013888
 20
94.6251026878
  0
VERTEX
  8
0
 62
7
  6
CONTINUOUS
 10
108.0731527076
 20
94.6601176965
  0
VERTEX
  8
0
 62
7
  6
CONTINUOUS
 10
108.1673561741
 20
94.6998011949
  0
VERTEX
  8
0
 62
7
  6
CONTINUOUS
 10
108.2588200999
 20
94.7478283127
  0
VERTEX
  8
0
 62
7
  6
CONTINUOUS
 10
108.3504273226
 20
94.8099379634
  0
VERTEX
  8
0
 62
7
  6
CONTINUOUS
 10
108.4417181902
 20
94.8936668883
  0
VERTEX
  8
0
 62
7
  6
CONTINUOUS
 10
108.5252060978
 20
95.0043122994
  0
VERTEX
  8
0
 62
7
  6
CONTINUOUS
 10
108.5881498212
 20
95.1393019649
  0
VERTEX
  8
0
 62
7
  6
CONTINUOUS
 10
108.6202919771
 20
95.2871367542
  0
VERTEX
  8
0
 62
7
  6
CONTINUOUS
 10
108.6239223099
 20
95.3580508967
  0
SEQEND
  0
LINE
  8
0
 62
7
  6
CONTINUOUS
 10
107.1536279808
 20
94.4556938498
 11
107.2583535255
 21
94.4715962241
  0
POLYLINE
  8
0
 62
7
  6
CONTINUOUS
 66
1
 70
0
  0
VERTEX
  8
0
 62
7
  6
CONTINUOUS
 10
102.9665462966
 20
93.3994515701
  0
VERTEX
  8
0
 62
7
  6
CONTINUOUS
 10
103.514837679
 20
93.4708288251
  0
VERTEX
  8
0
 62
7
  6
CONTINUOUS
 10
104.1148190944
 20
93.5654782865
  0
VERTEX
  8
0
 62
7
  6
CONTINUOUS
 10
104.6976060589
 20
93.6760888913
  0
VERTEX
  8
0
 62
7
  6
CONTINUOUS
 10
105.2581917252
 20
93.8027027775
  0
VERTEX
  8
0
 62
7
  6
CONTINUOUS
 10
105.7917394035
 20
93.9453355319
  0
VERTEX
  8
0
 62
7
  6
CONTINUOUS
 10
106.2935897816
 20
94.1040334561
  0
VERTEX
  8
0
 62
7
  6
CONTINUOUS
 10
106.7594403869
 20
94.2790272377
  0
SEQEND
  0
LINE
  8
0
 62
7
  6
CONTINUOUS
 10
102.9665404309
 20
93.3994515996
 11
102.9655205193
 21
93.3993922977
  0
LINE
  8
0
 62
7
  6
CONTINUOUS
 10
107.2583535255
 20
83.7568520517
 11
107.1536279805
 21
83.7727544261
  0
POLYLINE
  8
0
 62
7
  6
CONTINUOUS
 66
1
 70
0
  0
VERTEX
  8
0
 62
7
  6
CONTINUOUS
 10
42.285155682
 20
102.8597549641
  0
VERTEX
  8
0
 62
7
  6
CONTINUOUS
 10
42.6861049038
 20
102.6799716889
  0
VERTEX
  8
0
 62
7
  6
CONTINUOUS
 10
43.1517179446
 20
102.5049071507
  0
VERTEX
  8
0
 62
7
  6
CONTINUOUS
 10
43.653342425
 20
102.3461387488
  0
VERTEX
  8
0
 62
7
  6
CONTINUOUS
 10
44.1866786272
 20
102.203434003
  0
VERTEX
  8
0
 62
7
  6
CONTINUOUS
 10
44.747069649
 20
102.0767457695
  0
VERTEX
  8
0
 62
7
  6
CONTINUOUS
 10
45.3296804545
 20
101.9660582385
  0
VERTEX
  8
0
 62
7
  6
CONTINUOUS
 10
45.9295053814
 20
101.8713293871
  0
VERTEX
  8
0
 62
7
  6
CONTINUOUS
 10
46.4812985028
 20
101.7994515734
  0
SEQEND
  0
POLYLINE
  8
0
 62
7
  6
CONTINUOUS
 66
1
 70
0
  0
VERTEX
  8
0
 62
7
  6
CONTINUOUS
 10
40.8239225173
 20
70.158050518
  0
VERTEX
  8
0
 62
7
  6
CONTINUOUS
 10
40.8275406323
 20
70.0872553669
  0
VERTEX
  8
0
 62
7
  6
CONTINUOUS
 10
40.8596171777
 20
69.9395323291
  0
VERTEX
  8
0
 62
7
  6
CONTINUOUS
 10
40.9224572832
 20
69.8046109626
  0
VERTEX
  8
0
 62
7
  6
CONTINUOUS
 10
41.0058408623
 20
69.6939769583
  0
VERTEX
  8
0
 62
7
  6
CONTINUOUS
 10
41.0970524243
 20
69.6102223492
  0
VERTEX
  8
0
 62
7
  6
CONTINUOUS
 10
41.1885956171
 20
69.5480820979
  0
VERTEX
  8
0
 62
7
  6
CONTINUOUS
 10
41.2799898274
 20
69.5000343995
  0
VERTEX
  8
0
 62
7
  6
CONTINUOUS
 10
41.3741035335
 20
69.4603419525
  0
VERTEX
  8
0
 62
7
  6
CONTINUOUS
 10
41.4748364824
 20
69.4253273214
  0
VERTEX
  8
0
 62
7
  6
CONTINUOUS
 10
41.5862722127
 20
69.3927508171
  0
VERTEX
  8
0
 62
7
  6
CONTINUOUS
 10
41.7120886003
 20
69.3613521504
  0
VERTEX
  8
0
 62
7
  6
CONTINUOUS
 10
41.8556929457
 20
69.3304160989
  0
VERTEX
  8
0
 62
7
  6
CONTINUOUS
 10
42.0204565587
 20
69.2995250548
  0
VERTEX
  8
0
 62
7
  6
CONTINUOUS
 10
42.1894986891
 20
69.2715950725
  0
SEQEND
  0
POLYLINE
  8
0
 62
7
  6
CONTINUOUS
 66
1
 70
0
  0
VERTEX
  8
0
 62
7
  6
CONTINUOUS
 10
40.8239225173
 20
86.9580505186
  0
VERTEX
  8
0
 62
7
  6
CONTINUOUS
 10
40.8275406504
 20
86.8872551909
  0
VERTEX
  8
0
 62
7
  6
CONTINUOUS
 10
40.8596172555
 20
86.7395320987
  0
VERTEX
  8
0
 62
7
  6
CONTINUOUS
 10
40.9224573935
 20
86.604610781
  0
VERTEX
  8
0
 62
7
  6
CONTINUOUS
 10
41.0058409298
 20
86.4939768851
  0
VERTEX
  8
0
 62
7
  6
CONTINUOUS
 10
41.0970524246
 20
86.410222349
  0
VERTEX
  8
0
 62
7
  6
CONTINUOUS
 10
41.188595525
 20
86.3480821524
  0
VERTEX
  8
0
 62
7
  6
CONTINUOUS
 10
41.2799896488
 20
86.3000344831
  0
VERTEX
  8
0
 62
7
  6
CONTINUOUS
 10
41.3741032969
 20
86.2603420427
  0
VERTEX
  8
0
 62
7
  6
CONTINUOUS
 10
41.4748361973
 20
86.2253274121
  0
VERTEX
  8
0
 62
7
  6
CONTINUOUS
 10
41.5862718935
 20
86.1927509031
  0
VERTEX
  8
0
 62
7
  6
CONTINUOUS
 10
41.7120882754
 20
86.1613522257
  0
VERTEX
  8
0
 62
7
  6
CONTINUOUS
 10
41.8556926605
 20
86.1304161562
  0
VERTEX
  8
0
 62
7
  6
CONTINUOUS
 10
42.0204563782
 20
86.0995250864
  0
VERTEX
  8
0
 62
7
  6
CONTINUOUS
 10
42.1894986891
 20
86.0715950725
  0
SEQEND
  0
LINE
  8
0
 62
7
  6
CONTINUOUS
 10
106.7594403869
 20
195.0790272377
 11
107.1626870195
 21
195.2597539209
  0
POLYLINE
  8
0
 62
7
  6
CONTINUOUS
 66
1
 70
0
  0
VERTEX
  8
0
 62
7
  6
CONTINUOUS
 10
42.1894986375
 20
92.1568531953
  0
VERTEX
  8
0
 62
7
  6
CONTINUOUS
 10
42.0207035841
 20
92.1289665496
  0
VERTEX
  8
0
 62
7
  6
CONTINUOUS
 10
41.8561433678
 20
92.0981226481
  0
VERTEX
  8
0
 62
7
  6
CONTINUOUS
 10
41.7127050912
 20
92.0672388973
  0
VERTEX
  8
0
 62
7
  6
CONTINUOUS
 10
41.5870267907
 20
92.0359008508
  0
VERTEX
  8
0
 62
7
  6
CONTINUOUS
 10
41.4757131204
 20
92.0033994654
  0
VERTEX
  8
0
 62
7
  6
CONTINUOUS
 10
41.3751034989
 20
91.9684871626
  0
VERTEX
  8
0
 62
7
  6
CONTINUOUS
 10
41.2811386278
 20
91.9289505354
  0
VERTEX
  8
0
 62
7
  6
CONTINUOUS
 10
41.1899428468
 20
91.8811619441
  0
VERTEX
  8
0
 62
7
  6
CONTINUOUS
 10
41.0986306704
 20
91.8194529009
  0
VERTEX
  8
0
 62
7
  6
CONTINUOUS
 10
41.0075829165
 20
91.7363558335
  0
VERTEX
  8
0
 62
7
  6
CONTINUOUS
 10
40.9241133574
 20
91.6265505684
  0
VERTEX
  8
0
 62
7
  6
CONTINUOUS
 10
40.8608030502
 20
91.4923967863
  0
VERTEX
  8
0
 62
7
  6
CONTINUOUS
 10
40.8279595748
 20
91.345150531
  0
VERTEX
  8
0
 62
7
  6
CONTINUOUS
 10
40.8239225208
 20
91.2703948254
  0
SEQEND
  0
LINE
  8
0
 62
7
  6
CONTINUOUS
 10
42.2942177742
 20
92.1727567007
 11
42.1894904322
 21
92.1568519161
  0
POLYLINE
  8
0
 62
7
  6
CONTINUOUS
 66
1
 70
0
  0
VERTEX
  8
0
 62
7
  6
CONTINUOUS
 10
46.4812985028
 20
93.2289967025
  0
VERTEX
  8
0
 62
7
  6
CONTINUOUS
 10
45.9295053814
 20
93.1571188887
  0
VERTEX
  8
0
 62
7
  6
CONTINUOUS
 10
45.3296804545
 20
93.0623900374
  0
VERTEX
  8
0
 62
7
  6
CONTINUOUS
 10
44.747069649
 20
92.9517025064
  0
VERTEX
  8
0
 62
7
  6
CONTINUOUS
 10
44.1866786272
 20
92.8250142728
  0
VERTEX
  8
0
 62
7
  6
CONTINUOUS
 10
43.653342425
 20
92.682309527
  0
VERTEX
  8
0
 62
7
  6
CONTINUOUS
 10
43.1517179446
 20
92.5235411251
  0
VERTEX
  8
0
 62
7
  6
CONTINUOUS
 10
42.6861049038
 20
92.348476587
  0
SEQEND
  0
LINE
  8
0
 62
7
  6
CONTINUOUS
 10
46.4813043685
 20
93.2289966729
 11
46.4823243083
 21
93.2290559781
  0
POLYLINE
  8
0
 62
7
  6
CONTINUOUS
 66
1
 70
0
  0
VERTEX
  8
0
 62
7
  6
CONTINUOUS
 10
52.6069240544
 20
93.2220934761
  0
VERTEX
  8
0
 62
7
  6
CONTINUOUS
 10
52.3134600686
 20
93.2260579526
  0
VERTEX
  8
0
 62
7
  6
CONTINUOUS
 10
52.0304478671
 20
93.2284996964
  0
VERTEX
  8
0
 62
7
  6
CONTINUOUS
 10
46.4823863198
 20
93.2290559811
  0
SEQEND
  0
POLYLINE
  8
0
 62
7
  6
CONTINUOUS
 66
1
 70
0
  0
VERTEX
  8
0
 62
7
  6
CONTINUOUS
 10
96.8445495989
 20
93.4063214169
  0
VERTEX
  8
0
 62
7
  6
CONTINUOUS
 10
97.1383486961
 20
93.4023438618
  0
VERTEX
  8
0
 62
7
  6
CONTINUOUS
 10
97.4213703566
 20
93.3999278873
  0
VERTEX
  8
0
 62
7
  6
CONTINUOUS
 10
102.9654585078
 20
93.3993922948
  0
SEQEND
  0
LINE
  8
0
 62
7
  6
CONTINUOUS
 10
42.1894904322
 20
102.8715963597
 11
42.2942177742
 21
102.8556915752
  0
POLYLINE
  8
0
 62
7
  6
CONTINUOUS
 66
1
 70
0
  0
VERTEX
  8
0
 62
7
  6
CONTINUOUS
 10
102.9665361752
 20
68.028996655
  0
VERTEX
  8
0
 62
7
  6
CONTINUOUS
 10
102.9751330732
 20
68.0231849546
  0
VERTEX
  8
0
 62
7
  6
CONTINUOUS
 10
102.9839263916
 20
68.0040982016
  0
VERTEX
  8
0
 62
7
  6
CONTINUOUS
 10
102.9906548344
 20
67.9728969545
  0
VERTEX
  8
0
 62
7
  6
CONTINUOUS
 10
102.9949745378
 20
67.9315784087
  0
VERTEX
  8
0
 62
7
  6
CONTINUOUS
 10
102.9967634244
 20
67.8828820625
  0
VERTEX
  8
0
 62
7
  6
CONTINUOUS
 10
102.9962037371
 20
67.8290559811
  0
SEQEND
  0
POLYLINE
  8
0
 62
7
  6
CONTINUOUS
 66
1
 70
0
  0
VERTEX
  8
0
 62
7
  6
CONTINUOUS
 10
40.8239225173
 20
103.7580505186
  0
VERTEX
  8
0
 62
7
  6
CONTINUOUS
 10
40.8275406504
 20
103.6872551909
  0
VERTEX
  8
0
 62
7
  6
CONTINUOUS
 10
40.8596172555
 20
103.5395320987
  0
VERTEX
  8
0
 62
7
  6
CONTINUOUS
 10
40.9224573935
 20
103.404610781
  0
VERTEX
  8
0
 62
7
  6
CONTINUOUS
 10
41.0058409298
 20
103.2939768851
  0
VERTEX
  8
0
 62
7
  6
CONTINUOUS
 10
41.0970524246
 20
103.210222349
  0
VERTEX
  8
0
 62
7
  6
CONTINUOUS
 10
41.188595525
 20
103.1480821524
  0
VERTEX
  8
0
 62
7
  6
CONTINUOUS
 10
41.2799896488
 20
103.1000344831
  0
VERTEX
  8
0
 62
7
  6
CONTINUOUS
 10
41.3741032969
 20
103.0603420427
  0
VERTEX
  8
0
 62
7
  6
CONTINUOUS
 10
41.4748361973
 20
103.0253274121
  0
VERTEX
  8
0
 62
7
  6
CONTINUOUS
 10
41.5862718935
 20
102.9927509031
  0
VERTEX
  8
0
 62
7
  6
CONTINUOUS
 10
41.7120882754
 20
102.9613522257
  0
VERTEX
  8
0
 62
7
  6
CONTINUOUS
 10
41.8556926605
 20
102.9304161562
  0
VERTEX
  8
0
 62
7
  6
CONTINUOUS
 10
42.0204563782
 20
102.8995250864
  0
VERTEX
  8
0
 62
7
  6
CONTINUOUS
 10
42.1894986891
 20
102.8715950725
  0
SEQEND
  0
POLYLINE
  8
0
 62
7
  6
CONTINUOUS
 66
1
 70
0
  0
VERTEX
  8
0
 62
7
  6
CONTINUOUS
 10
40.8239225173
 20
120.5580505186
  0
VERTEX
  8
0
 62
7
  6
CONTINUOUS
 10
40.8275406504
 20
120.4872551909
  0
VERTEX
  8
0
 62
7
  6
CONTINUOUS
 10
40.8596172555
 20
120.3395320987
  0
VERTEX
  8
0
 62
7
  6
CONTINUOUS
 10
40.9224573935
 20
120.204610781
  0
VERTEX
  8
0
 62
7
  6
CONTINUOUS
 10
41.0058409298
 20
120.0939768851
  0
VERTEX
  8
0
 62
7
  6
CONTINUOUS
 10
41.0970524246
 20
120.010222349
  0
VERTEX
  8
0
 62
7
  6
CONTINUOUS
 10
41.188595525
 20
119.9480821524
  0
VERTEX
  8
0
 62
7
  6
CONTINUOUS
 10
41.2799896488
 20
119.9000344831
  0
VERTEX
  8
0
 62
7
  6
CONTINUOUS
 10
41.3741032969
 20
119.8603420427
  0
VERTEX
  8
0
 62
7
  6
CONTINUOUS
 10
41.4748361973
 20
119.8253274121
  0
VERTEX
  8
0
 62
7
  6
CONTINUOUS
 10
41.5862718935
 20
119.7927509031
  0
VERTEX
  8
0
 62
7
  6
CONTINUOUS
 10
41.7120882754
 20
119.7613522257
  0
VERTEX
  8
0
 62
7
  6
CONTINUOUS
 10
41.8556926605
 20
119.7304161562
  0
VERTEX
  8
0
 62
7
  6
CONTINUOUS
 10
42.0204563782
 20
119.6995250864
  0
VERTEX
  8
0
 62
7
  6
CONTINUOUS
 10
42.1894986891
 20
119.6715950725
  0
SEQEND
  0
POLYLINE
  8
0
 62
7
  6
CONTINUOUS
 66
1
 70
0
  0
VERTEX
  8
0
 62
7
  6
CONTINUOUS
 10
40.8239225173
 20
137.3580505186
  0
VERTEX
  8
0
 62
7
  6
CONTINUOUS
 10
40.8275406504
 20
137.2872551909
  0
VERTEX
  8
0
 62
7
  6
CONTINUOUS
 10
40.8596172555
 20
137.1395320987
  0
VERTEX
  8
0
 62
7
  6
CONTINUOUS
 10
40.9224573935
 20
137.004610781
  0
VERTEX
  8
0
 62
7
  6
CONTINUOUS
 10
41.0058409298
 20
136.8939768851
  0
VERTEX
  8
0
 62
7
  6
CONTINUOUS
 10
41.0970524246
 20
136.810222349
  0
VERTEX
  8
0
 62
7
  6
CONTINUOUS
 10
41.188595525
 20
136.7480821524
  0
VERTEX
  8
0
 62
7
  6
CONTINUOUS
 10
41.2799896488
 20
136.7000344831
  0
VERTEX
  8
0
 62
7
  6
CONTINUOUS
 10
41.3741032969
 20
136.6603420427
  0
VERTEX
  8
0
 62
7
  6
CONTINUOUS
 10
41.4748361973
 20
136.6253274121
  0
VERTEX
  8
0
 62
7
  6
CONTINUOUS
 10
41.5862718935
 20
136.5927509031
  0
VERTEX
  8
0
 62
7
  6
CONTINUOUS
 10
41.7120882754
 20
136.5613522257
  0
VERTEX
  8
0
 62
7
  6
CONTINUOUS
 10
41.8556926605
 20
136.5304161562
  0
VERTEX
  8
0
 62
7
  6
CONTINUOUS
 10
42.0204563782
 20
136.4995250864
  0
VERTEX
  8
0
 62
7
  6
CONTINUOUS
 10
42.1894986891
 20
136.4715950725
  0
SEQEND
  0
POLYLINE
  8
0
 62
7
  6
CONTINUOUS
 66
1
 70
0
  0
VERTEX
  8
0
 62
7
  6
CONTINUOUS
 10
40.8239225173
 20
154.1580505186
  0
VERTEX
  8
0
 62
7
  6
CONTINUOUS
 10
40.8275406504
 20
154.0872551909
  0
VERTEX
  8
0
 62
7
  6
CONTINUOUS
 10
40.8596172555
 20
153.9395320987
  0
VERTEX
  8
0
 62
7
  6
CONTINUOUS
 10
40.9224573935
 20
153.804610781
  0
VERTEX
  8
0
 62
7
  6
CONTINUOUS
 10
41.0058409298
 20
153.6939768851
  0
VERTEX
  8
0
 62
7
  6
CONTINUOUS
 10
41.0970524246
 20
153.610222349
  0
VERTEX
  8
0
 62
7
  6
CONTINUOUS
 10
41.188595525
 20
153.5480821524
  0
VERTEX
  8
0
 62
7
  6
CONTINUOUS
 10
41.2799896488
 20
153.5000344831
  0
VERTEX
  8
0
 62
7
  6
CONTINUOUS
 10
41.3741032969
 20
153.4603420427
  0
VERTEX
  8
0
 62
7
  6
CONTINUOUS
 10
41.4748361973
 20
153.4253274121
  0
VERTEX
  8
0
 62
7
  6
CONTINUOUS
 10
41.5862718935
 20
153.3927509031
  0
VERTEX
  8
0
 62
7
  6
CONTINUOUS
 10
41.7120882754
 20
153.3613522257
  0
VERTEX
  8
0
 62
7
  6
CONTINUOUS
 10
41.8556926605
 20
153.3304161562
  0
VERTEX
  8
0
 62
7
  6
CONTINUOUS
 10
42.0204563782
 20
153.2995250864
  0
VERTEX
  8
0
 62
7
  6
CONTINUOUS
 10
42.1894986891
 20
153.2715950725
  0
SEQEND
  0
POLYLINE
  8
0
 62
7
  6
CONTINUOUS
 66
1
 70
0
  0
VERTEX
  8
0
 62
7
  6
CONTINUOUS
 10
40.8239225173
 20
170.9580505186
  0
VERTEX
  8
0
 62
7
  6
CONTINUOUS
 10
40.8275406504
 20
170.8872551909
  0
VERTEX
  8
0
 62
7
  6
CONTINUOUS
 10
40.8596172555
 20
170.7395320987
  0
VERTEX
  8
0
 62
7
  6
CONTINUOUS
 10
40.9224573935
 20
170.604610781
  0
VERTEX
  8
0
 62
7
  6
CONTINUOUS
 10
41.0058409298
 20
170.4939768851
  0
VERTEX
  8
0
 62
7
  6
CONTINUOUS
 10
41.0970524246
 20
170.410222349
  0
VERTEX
  8
0
 62
7
  6
CONTINUOUS
 10
41.188595525
 20
170.3480821524
  0
VERTEX
  8
0
 62
7
  6
CONTINUOUS
 10
41.2799896488
 20
170.3000344831
  0
VERTEX
  8
0
 62
7
  6
CONTINUOUS
 10
41.3741032969
 20
170.2603420427
  0
VERTEX
  8
0
 62
7
  6
CONTINUOUS
 10
41.4748361973
 20
170.2253274121
  0
VERTEX
  8
0
 62
7
  6
CONTINUOUS
 10
41.5862718935
 20
170.1927509031
  0
VERTEX
  8
0
 62
7
  6
CONTINUOUS
 10
41.7120882754
 20
170.1613522257
  0
VERTEX
  8
0
 62
7
  6
CONTINUOUS
 10
41.8556926605
 20
170.1304161562
  0
VERTEX
  8
0
 62
7
  6
CONTINUOUS
 10
42.0204563782
 20
170.0995250864
  0
VERTEX
  8
0
 62
7
  6
CONTINUOUS
 10
42.1894986891
 20
170.0715950725
  0
SEQEND
  0
POLYLINE
  8
0
 62
7
  6
CONTINUOUS
 66
1
 70
0
  0
VERTEX
  8
0
 62
7
  6
CONTINUOUS
 10
40.8239225173
 20
187.7580505186
  0
VERTEX
  8
0
 62
7
  6
CONTINUOUS
 10
40.8275406504
 20
187.6872551909
  0
VERTEX
  8
0
 62
7
  6
CONTINUOUS
 10
40.8596172555
 20
187.5395320987
  0
VERTEX
  8
0
 62
7
  6
CONTINUOUS
 10
40.9224573935
 20
187.404610781
  0
VERTEX
  8
0
 62
7
  6
CONTINUOUS
 10
41.0058409298
 20
187.2939768851
  0
VERTEX
  8
0
 62
7
  6
CONTINUOUS
 10
41.0970524246
 20
187.210222349
  0
VERTEX
  8
0
 62
7
  6
CONTINUOUS
 10
41.188595525
 20
187.1480821524
  0
VERTEX
  8
0
 62
7
  6
CONTINUOUS
 10
41.2799896488
 20
187.1000344831
  0
VERTEX
  8
0
 62
7
  6
CONTINUOUS
 10
41.3741032969
 20
187.0603420427
  0
VERTEX
  8
0
 62
7
  6
CONTINUOUS
 10
41.4748361973
 20
187.0253274121
  0
VERTEX
  8
0
 62
7
  6
CONTINUOUS
 10
41.5862718935
 20
186.9927509031
  0
VERTEX
  8
0
 62
7
  6
CONTINUOUS
 10
41.7120882754
 20
186.9613522257
  0
VERTEX
  8
0
 62
7
  6
CONTINUOUS
 10
41.8556926605
 20
186.9304161562
  0
VERTEX
  8
0
 62
7
  6
CONTINUOUS
 10
42.0204563782
 20
186.8995250864
  0
VERTEX
  8
0
 62
7
  6
CONTINUOUS
 10
42.1894986891
 20
186.8715950725
  0
SEQEND
  0
POLYLINE
  8
0
 62
7
  6
CONTINUOUS
 66
1
 70
0
  0
VERTEX
  8
0
 62
7
  6
CONTINUOUS
 10
40.8239225044
 20
204.5580390182
  0
VERTEX
  8
0
 62
7
  6
CONTINUOUS
 10
40.826750538
 20
204.4954100157
  0
VERTEX
  8
0
 62
7
  6
CONTINUOUS
 10
40.858055508
 20
204.3442137968
  0
VERTEX
  8
0
 62
7
  6
CONTINUOUS
 10
40.9235875441
 20
204.2027561141
  0
VERTEX
  8
0
 62
7
  6
CONTINUOUS
 10
41.0138697754
 20
204.0854015076
  0
VERTEX
  8
0
 62
7
  6
CONTINUOUS
 10
41.11494231
 20
203.9966732742
  0
VERTEX
  8
0
 62
7
  6
CONTINUOUS
 10
41.2176806488
 20
203.9315370073
  0
VERTEX
  8
0
 62
7
  6
CONTINUOUS
 10
41.3222353994
 20
203.8812067511
  0
VERTEX
  8
0
 62
7
  6
CONTINUOUS
 10
41.4330921698
 20
203.8390750017
  0
VERTEX
  8
0
 62
7
  6
CONTINUOUS
 10
41.5548198526
 20
203.8014169272
  0
VERTEX
  8
0
 62
7
  6
CONTINUOUS
 10
41.6909764642
 20
203.7663006306
  0
VERTEX
  8
0
 62
7
  6
CONTINUOUS
 10
41.8445135303
 20
203.7326734609
  0
VERTEX
  8
0
 62
7
  6
CONTINUOUS
 10
42.0171774492
 20
203.7001009792
  0
VERTEX
  8
0
 62
7
  6
CONTINUOUS
 10
42.1895049594
 20
203.6715940952
  0
SEQEND
  0
LINE
  8
0
 62
7
  6
CONTINUOUS
 10
40.8239224138
 20
70.1579311424
 11
40.8239224138
 21
74.4705131926
  0
LINE
  8
0
 62
7
  6
CONTINUOUS
 10
40.8239224138
 20
86.9579350833
 11
40.8239224138
 21
91.2705131926
  0
LINE
  8
0
 62
7
  6
CONTINUOUS
 10
40.8239224138
 20
103.7579350833
 11
40.8239224138
 21
108.0705131926
  0
LINE
  8
0
 62
7
  6
CONTINUOUS
 10
40.8239224138
 20
120.5579350833
 11
40.8239224138
 21
124.8705131926
  0
LINE
  8
0
 62
7
  6
CONTINUOUS
 10
40.8239224138
 20
137.3579350833
 11
40.8239224138
 21
141.6705131926
  0
LINE
  8
0
 62
7
  6
CONTINUOUS
 10
40.8239224138
 20
154.1579350833
 11
40.8239224138
 21
158.4705131926
  0
LINE
  8
0
 62
7
  6
CONTINUOUS
 10
40.8239224138
 20
170.9579350833
 11
40.8239224138
 21
175.2705131926
  0
LINE
  8
0
 62
7
  6
CONTINUOUS
 10
40.8239224138
 20
187.7579350833
 11
40.8239224138
 21
192.0705131926
  0
LINE
  8
0
 62
7
  6
CONTINUOUS
 10
40.8239224138
 20
204.5579280466
 11
40.8239224138
 21
210.6142052258
  0
LINE
  8
0
 62
7
  6
CONTINUOUS
 10
42.6861049038
 20
159.548476587
 11
42.285155682
 21
159.3686933118
  0
POLYLINE
  8
0
 62
7
  6
CONTINUOUS
 66
1
 70
0
  0
VERTEX
  8
0
 62
7
  6
CONTINUOUS
 10
52.3094961821
 20
101.8023438615
  0
VERTEX
  8
0
 62
7
  6
CONTINUOUS
 10
52.602818301
 20
101.8063168385
  0
VERTEX
  8
0
 62
7
  6
CONTINUOUS
 10
52.6824118441
 20
101.8064431619
  0
VERTEX
  8
0
 62
7
  6
CONTINUOUS
 10
52.7614745053
 20
101.8051644825
  0
VERTEX
  8
0
 62
7
  6
CONTINUOUS
 10
52.8397262295
 20
101.8022780057
  0
VERTEX
  8
0
 62
7
  6
CONTINUOUS
 10
52.9169444735
 20
101.7975626037
  0
VERTEX
  8
0
 62
7
  6
CONTINUOUS
 10
52.9929095224
 20
101.7908196831
  0
VERTEX
  8
0
 62
7
  6
CONTINUOUS
 10
53.0671886671
 20
101.781873337
  0
VERTEX
  8
0
 62
7
  6
CONTINUOUS
 10
53.1392736654
 20
101.7705538197
  0
VERTEX
  8
0
 62
7
  6
CONTINUOUS
 10
53.2093783343
 20
101.7566624205
  0
VERTEX
  8
0
 62
7
  6
CONTINUOUS
 10
53.2770284864
 20
101.7399625447
  0
VERTEX
  8
0
 62
7
  6
CONTINUOUS
 10
53.3410966707
 20
101.7202480028
  0
VERTEX
  8
0
 62
7
  6
CONTINUOUS
 10
53.4005864958
 20
101.6969013252
  0
VERTEX
  8
0
 62
7
  6
CONTINUOUS
 10
53.4558554446
 20
101.669432902
  0
VERTEX
  8
0
 62
7
  6
CONTINUOUS
 10
53.5052999739
 20
101.6384180255
  0
VERTEX
  8
0
 62
7
  6
CONTINUOUS
 10
53.5474789468
 20
101.6049753395
  0
VERTEX
  8
0
 62
7
  6
CONTINUOUS
 10
53.5827532386
 20
101.5691054481
  0
VERTEX
  8
0
 62
7
  6
CONTINUOUS
 10
53.6110490501
 20
101.5307852728
  0
VERTEX
  8
0
 62
7
  6
CONTINUOUS
 10
53.6317591557
 20
101.4899542722
  0
VERTEX
  8
0
 62
7
  6
CONTINUOUS
 10
53.6433474177
 20
101.4471574496
  0
VERTEX
  8
0
 62
7
  6
CONTINUOUS
 10
53.6451139279
 20
101.4237876512
  0
SEQEND
  0
POLYLINE
  8
0
 62
7
  6
CONTINUOUS
 66
1
 70
0
  0
VERTEX
  8
0
 62
7
  6
CONTINUOUS
 10
97.1343809155
 20
101.6260575496
  0
VERTEX
  8
0
 62
7
  6
CONTINUOUS
 10
96.8403491445
 20
101.6220878286
  0
VERTEX
  8
0
 62
7
  6
CONTINUOUS
 10
96.7604799715
 20
101.6220411622
  0
VERTEX
  8
0
 62
7
  6
CONTINUOUS
 10
96.6813045083
 20
101.6234179269
  0
VERTEX
  8
0
 62
7
  6
CONTINUOUS
 10
96.6030825345
 20
101.6264170363
  0
VERTEX
  8
0
 62
7
  6
CONTINUOUS
 10
96.526011415
 20
101.6312526061
  0
VERTEX
  8
0
 62
7
  6
CONTINUOUS
 10
96.4502982424
 20
101.6381137358
  0
VERTEX
  8
0
 62
7
  6
CONTINUOUS
 10
96.3763709736
 20
101.6471696342
  0
VERTEX
  8
0
 62
7
  6
CONTINUOUS
 10
96.3046757973
 20
101.65858529
  0
VERTEX
  8
0
 62
7
  6
CONTINUOUS
 10
96.2350767752
 20
101.6725412661
  0
VERTEX
  8
0
 62
7
  6
CONTINUOUS
 10
96.1678411892
 20
101.6893090206
  0
VERTEX
  8
0
 62
7
  6
CONTINUOUS
 10
96.1044121482
 20
101.7090111726
  0
VERTEX
  8
0
 62
7
  6
CONTINUOUS
 10
96.0454172558
 20
101.7323625705
  0
VERTEX
  8
0
 62
7
  6
CONTINUOUS
 10
95.9906472508
 20
101.7597654542
  0
VERTEX
  8
0
 62
7
  6
CONTINUOUS
 10
95.9417159834
 20
101.7906145879
  0
VERTEX
  8
0
 62
7
  6
CONTINUOUS
 10
95.8996896206
 20
101.8240785908
  0
VERTEX
  8
0
 62
7
  6
CONTINUOUS
 10
95.8643459459
 20
101.8602137928
  0
VERTEX
  8
0
 62
7
  6
CONTINUOUS
 10
95.8359808025
 20
101.8989770345
  0
VERTEX
  8
0
 62
7
  6
CONTINUOUS
 10
95.8154045048
 20
101.9402506342
  0
VERTEX
  8
0
 62
7
  6
CONTINUOUS
 10
95.8042214777
 20
101.9832479703
  0
VERTEX
  8
0
 62
7
  6
CONTINUOUS
 10
95.8027314654
 20
102.0044868735
  0
SEQEND
  0
LINE
  8
0
 62
7
  6
CONTINUOUS
 10
97.4173950845
 20
101.6284996042
 11
97.1343809155
 21
101.6260575496
  0
LINE
  8
0
 62
7
  6
CONTINUOUS
 10
52.0264744454
 20
101.7999278871
 11
52.3094961821
 21
101.8023438615
  0
LINE
  8
0
 62
7
  6
CONTINUOUS
 10
97.4173950845
 20
101.6284996042
 11
102.9654960251
 21
101.6290559811
  0
LINE
  8
0
 62
7
  6
CONTINUOUS
 10
46.4823863198
 20
101.7993922948
 11
52.0264744454
 21
101.7999278871
  0
LINE
  8
0
 62
7
  6
CONTINUOUS
 10
46.4813043685
 20
101.799451603
 11
46.4823243083
 21
101.7993922977
  0
LINE
  8
0
 62
7
  6
CONTINUOUS
 10
102.9655281381
 20
101.629055981
 11
102.9665361752
 21
101.628996655
  0
POLYLINE
  8
0
 62
7
  6
CONTINUOUS
 66
1
 70
0
  0
VERTEX
  8
0
 62
7
  6
CONTINUOUS
 10
107.1626870195
 20
83.7686943549
  0
VERTEX
  8
0
 62
7
  6
CONTINUOUS
 10
106.75944028
 20
83.9494210821
  0
VERTEX
  8
0
 62
7
  6
CONTINUOUS
 10
106.2935895488
 20
84.1244148999
  0
VERTEX
  8
0
 62
7
  6
CONTINUOUS
 10
105.7917390287
 20
84.2831128529
  0
VERTEX
  8
0
 62
7
  6
CONTINUOUS
 10
105.2581911953
 20
84.4257456286
  0
VERTEX
  8
0
 62
7
  6
CONTINUOUS
 10
104.6976053644
 20
84.5523595284
  0
VERTEX
  8
0
 62
7
  6
CONTINUOUS
 10
104.1148182295
 20
84.6629701393
  0
VERTEX
  8
0
 62
7
  6
CONTINUOUS
 10
103.5148366411
 20
84.757619599
  0
VERTEX
  8
0
 62
7
  6
CONTINUOUS
 10
102.9665462966
 20
84.8289967058
  0
SEQEND
  0
POLYLINE
  8
0
 62
7
  6
CONTINUOUS
 66
1
 70
0
  0
VERTEX
  8
0
 62
7
  6
CONTINUOUS
 10
46.4516410905
 20
76.2290559811
  0
VERTEX
  8
0
 62
7
  6
CONTINUOUS
 10
46.4510291378
 20
76.276084653
  0
VERTEX
  8
0
 62
7
  6
CONTINUOUS
 10
46.4521681587
 20
76.3196069941
  0
VERTEX
  8
0
 62
7
  6
CONTINUOUS
 10
46.4552531314
 20
76.3582584427
  0
VERTEX
  8
0
 62
7
  6
CONTINUOUS
 10
46.4602702658
 20
76.3899068663
  0
VERTEX
  8
0
 62
7
  6
CONTINUOUS
 10
46.4670402816
 20
76.4128573805
  0
VERTEX
  8
0
 62
7
  6
CONTINUOUS
 10
46.4752549553
 20
76.4259830623
  0
VERTEX
  8
0
 62
7
  6
CONTINUOUS
 10
46.4813043685
 20
76.4289966729
  0
SEQEND
  0
POLYLINE
  8
0
 62
7
  6
CONTINUOUS
 66
1
 70
0
  0
VERTEX
  8
0
 62
7
  6
CONTINUOUS
 10
46.4516410905
 20
93.0290559811
  0
VERTEX
  8
0
 62
7
  6
CONTINUOUS
 10
46.4510291378
 20
93.076084653
  0
VERTEX
  8
0
 62
7
  6
CONTINUOUS
 10
46.4521681587
 20
93.1196069941
  0
VERTEX
  8
0
 62
7
  6
CONTINUOUS
 10
46.4552531314
 20
93.1582584427
  0
VERTEX
  8
0
 62
7
  6
CONTINUOUS
 10
46.4602702658
 20
93.1899068663
  0
VERTEX
  8
0
 62
7
  6
CONTINUOUS
 10
46.4670402816
 20
93.2128573805
  0
VERTEX
  8
0
 62
7
  6
CONTINUOUS
 10
46.4752549553
 20
93.2259830623
  0
VERTEX
  8
0
 62
7
  6
CONTINUOUS
 10
46.4813043685
 20
93.2289966729
  0
SEQEND
  0
POLYLINE
  8
0
 62
7
  6
CONTINUOUS
 66
1
 70
0
  0
VERTEX
  8
0
 62
7
  6
CONTINUOUS
 10
46.4516410905
 20
109.8290559811
  0
VERTEX
  8
0
 62
7
  6
CONTINUOUS
 10
46.4510291378
 20
109.876084653
  0
VERTEX
  8
0
 62
7
  6
CONTINUOUS
 10
46.4521681587
 20
109.9196069941
  0
VERTEX
  8
0
 62
7
  6
CONTINUOUS
 10
46.4552531314
 20
109.9582584427
  0
VERTEX
  8
0
 62
7
  6
CONTINUOUS
 10
46.4602702658
 20
109.9899068663
  0
VERTEX
  8
0
 62
7
  6
CONTINUOUS
 10
46.4670402816
 20
110.0128573805
  0
VERTEX
  8
0
 62
7
  6
CONTINUOUS
 10
46.4752549553
 20
110.0259830623
  0
VERTEX
  8
0
 62
7
  6
CONTINUOUS
 10
46.4813043685
 20
110.0289966729
  0
SEQEND
  0
POLYLINE
  8
0
 62
7
  6
CONTINUOUS
 66
1
 70
0
  0
VERTEX
  8
0
 62
7
  6
CONTINUOUS
 10
46.4516410905
 20
126.6290559811
  0
VERTEX
  8
0
 62
7
  6
CONTINUOUS
 10
46.4510291378
 20
126.676084653
  0
VERTEX
  8
0
 62
7
  6
CONTINUOUS
 10
46.4521681587
 20
126.7196069941
  0
VERTEX
  8
0
 62
7
  6
CONTINUOUS
 10
46.4552531314
 20
126.7582584427
  0
VERTEX
  8
0
 62
7
  6
CONTINUOUS
 10
46.4602702658
 20
126.7899068663
  0
VERTEX
  8
0
 62
7
  6
CONTINUOUS
 10
46.4670402816
 20
126.8128573805
  0
VERTEX
  8
0
 62
7
  6
CONTINUOUS
 10
46.4752549553
 20
126.8259830623
  0
VERTEX
  8
0
 62
7
  6
CONTINUOUS
 10
46.4813043685
 20
126.8289966729
  0
SEQEND
  0
POLYLINE
  8
0
 62
7
  6
CONTINUOUS
 66
1
 70
0
  0
VERTEX
  8
0
 62
7
  6
CONTINUOUS
 10
46.4516410905
 20
143.4290559811
  0
VERTEX
  8
0
 62
7
  6
CONTINUOUS
 10
46.4510291378
 20
143.476084653
  0
VERTEX
  8
0
 62
7
  6
CONTINUOUS
 10
46.4521681587
 20
143.5196069941
  0
VERTEX
  8
0
 62
7
  6
CONTINUOUS
 10
46.4552531314
 20
143.5582584427
  0
VERTEX
  8
0
 62
7
  6
CONTINUOUS
 10
46.4602702658
 20
143.5899068663
  0
VERTEX
  8
0
 62
7
  6
CONTINUOUS
 10
46.4670402816
 20
143.6128573805
  0
VERTEX
  8
0
 62
7
  6
CONTINUOUS
 10
46.4752549553
 20
143.6259830623
  0
VERTEX
  8
0
 62
7
  6
CONTINUOUS
 10
46.4813043685
 20
143.6289966729
  0
SEQEND
  0
POLYLINE
  8
0
 62
7
  6
CONTINUOUS
 66
1
 70
0
  0
VERTEX
  8
0
 62
7
  6
CONTINUOUS
 10
46.4516410905
 20
160.2290559811
  0
VERTEX
  8
0
 62
7
  6
CONTINUOUS
 10
46.4510291378
 20
160.276084653
  0
VERTEX
  8
0
 62
7
  6
CONTINUOUS
 10
46.4521681587
 20
160.3196069941
  0
VERTEX
  8
0
 62
7
  6
CONTINUOUS
 10
46.4552531314
 20
160.3582584427
  0
VERTEX
  8
0
 62
7
  6
CONTINUOUS
 10
46.4602702658
 20
160.3899068663
  0
VERTEX
  8
0
 62
7
  6
CONTINUOUS
 10
46.4670402816
 20
160.4128573805
  0
VERTEX
  8
0
 62
7
  6
CONTINUOUS
 10
46.4752549553
 20
160.4259830623
  0
VERTEX
  8
0
 62
7
  6
CONTINUOUS
 10
46.4813043685
 20
160.4289966729
  0
SEQEND
  0
POLYLINE
  8
0
 62
7
  6
CONTINUOUS
 66
1
 70
0
  0
VERTEX
  8
0
 62
7
  6
CONTINUOUS
 10
46.4516410905
 20
177.0290559811
  0
VERTEX
  8
0
 62
7
  6
CONTINUOUS
 10
46.4510291378
 20
177.076084653
  0
VERTEX
  8
0
 62
7
  6
CONTINUOUS
 10
46.4521681587
 20
177.1196069941
  0
VERTEX
  8
0
 62
7
  6
CONTINUOUS
 10
46.4552531314
 20
177.1582584427
  0
VERTEX
  8
0
 62
7
  6
CONTINUOUS
 10
46.4602702658
 20
177.1899068663
  0
VERTEX
  8
0
 62
7
  6
CONTINUOUS
 10
46.4670402816
 20
177.2128573805
  0
VERTEX
  8
0
 62
7
  6
CONTINUOUS
 10
46.4752549553
 20
177.2259830623
  0
VERTEX
  8
0
 62
7
  6
CONTINUOUS
 10
46.4813043685
 20
177.2289966729
  0
SEQEND
  0
POLYLINE
  8
0
 62
7
  6
CONTINUOUS
 66
1
 70
0
  0
VERTEX
  8
0
 62
7
  6
CONTINUOUS
 10
46.4516410905
 20
193.8290559811
  0
VERTEX
  8
0
 62
7
  6
CONTINUOUS
 10
46.4510291378
 20
193.876084653
  0
VERTEX
  8
0
 62
7
  6
CONTINUOUS
 10
46.4521681587
 20
193.9196069941
  0
VERTEX
  8
0
 62
7
  6
CONTINUOUS
 10
46.4552531314
 20
193.9582584427
  0
VERTEX
  8
0
 62
7
  6
CONTINUOUS
 10
46.4602702658
 20
193.9899068663
  0
VERTEX
  8
0
 62
7
  6
CONTINUOUS
 10
46.4670402816
 20
194.0128573805
  0
VERTEX
  8
0
 62
7
  6
CONTINUOUS
 10
46.4752549553
 20
194.0259830623
  0
VERTEX
  8
0
 62
7
  6
CONTINUOUS
 10
46.4813043685
 20
194.0289966729
  0
SEQEND
  0
LINE
  8
0
 62
7
  6
CONTINUOUS
 10
46.4516410905
 20
193.8290559811
 11
46.4516410905
 21
185.9993922948
  0
LINE
  8
0
 62
7
  6
CONTINUOUS
 10
46.4516410905
 20
177.0290559811
 11
46.4516410905
 21
169.1993922948
  0
LINE
  8
0
 62
7
  6
CONTINUOUS
 10
46.4516410905
 20
160.2290559811
 11
46.4516410905
 21
152.3993922948
  0
LINE
  8
0
 62
7
  6
CONTINUOUS
 10
46.4516410905
 20
143.4290559811
 11
46.4516410905
 21
135.5993922948
  0
LINE
  8
0
 62
7
  6
CONTINUOUS
 10
46.4516410905
 20
126.6290559811
 11
46.4516410905
 21
118.7993922948
  0
LINE
  8
0
 62
7
  6
CONTINUOUS
 10
46.4516410905
 20
109.8290559811
 11
46.4516410905
 21
101.9993922948
  0
LINE
  8
0
 62
7
  6
CONTINUOUS
 10
46.4516410905
 20
93.0290559811
 11
46.4516410905
 21
85.1993922948
  0
LINE
  8
0
 62
7
  6
CONTINUOUS
 10
46.4516410905
 20
76.2290559811
 11
46.4516410905
 21
68.3993922948
  0
LINE
  8
0
 62
7
  6
CONTINUOUS
 10
46.4516410905
 20
202.7993922948
 11
46.4516410905
 21
210.6142241379
  0
LINE
  8
DEFAULT_1
 62
2
  6
CENTER
 10
49.3239224138
 20
68.5718434076
 11
49.3239224138
 21
212.8142241379
  0
POLYLINE
  8
0
 62
7
  6
CONTINUOUS
 66
1
 70
0
  0
VERTEX
  8
0
 62
7
  6
CONTINUOUS
 10
46.4516410905
 20
202.7993922948
  0
VERTEX
  8
0
 62
7
  6
CONTINUOUS
 10
46.4510291378
 20
202.7523636228
  0
VERTEX
  8
0
 62
7
  6
CONTINUOUS
 10
46.4521681587
 20
202.7088412818
  0
VERTEX
  8
0
 62
7
  6
CONTINUOUS
 10
46.4552531314
 20
202.6701898331
  0
VERTEX
  8
0
 62
7
  6
CONTINUOUS
 10
46.4602702658
 20
202.6385414096
  0
VERTEX
  8
0
 62
7
  6
CONTINUOUS
 10
46.4670402816
 20
202.6155908954
  0
VERTEX
  8
0
 62
7
  6
CONTINUOUS
 10
46.4752549553
 20
202.6024652136
  0
VERTEX
  8
0
 62
7
  6
CONTINUOUS
 10
46.4813043685
 20
202.599451603
  0
SEQEND
  0
POLYLINE
  8
0
 62
7
  6
CONTINUOUS
 66
1
 70
0
  0
VERTEX
  8
0
 62
7
  6
CONTINUOUS
 10
46.4516410905
 20
185.9993922948
  0
VERTEX
  8
0
 62
7
  6
CONTINUOUS
 10
46.4510291378
 20
185.9523636228
  0
VERTEX
  8
0
 62
7
  6
CONTINUOUS
 10
46.4521681587
 20
185.9088412818
  0
VERTEX
  8
0
 62
7
  6
CONTINUOUS
 10
46.4552531314
 20
185.8701898331
  0
VERTEX
  8
0
 62
7
  6
CONTINUOUS
 10
46.4602702658
 20
185.8385414096
  0
VERTEX
  8
0
 62
7
  6
CONTINUOUS
 10
46.4670402816
 20
185.8155908954
  0
VERTEX
  8
0
 62
7
  6
CONTINUOUS
 10
46.4752549553
 20
185.8024652136
  0
VERTEX
  8
0
 62
7
  6
CONTINUOUS
 10
46.4813043685
 20
185.799451603
  0
SEQEND
  0
POLYLINE
  8
0
 62
7
  6
CONTINUOUS
 66
1
 70
0
  0
VERTEX
  8
0
 62
7
  6
CONTINUOUS
 10
46.4516410905
 20
169.1993922948
  0
VERTEX
  8
0
 62
7
  6
CONTINUOUS
 10
46.4510291378
 20
169.1523636228
  0
VERTEX
  8
0
 62
7
  6
CONTINUOUS
 10
46.4521681587
 20
169.1088412818
  0
VERTEX
  8
0
 62
7
  6
CONTINUOUS
 10
46.4552531314
 20
169.0701898331
  0
VERTEX
  8
0
 62
7
  6
CONTINUOUS
 10
46.4602702658
 20
169.0385414096
  0
VERTEX
  8
0
 62
7
  6
CONTINUOUS
 10
46.4670402816
 20
169.0155908954
  0
VERTEX
  8
0
 62
7
  6
CONTINUOUS
 10
46.4752549553
 20
169.0024652136
  0
VERTEX
  8
0
 62
7
  6
CONTINUOUS
 10
46.4813043685
 20
168.999451603
  0
SEQEND
  0
POLYLINE
  8
0
 62
7
  6
CONTINUOUS
 66
1
 70
0
  0
VERTEX
  8
0
 62
7
  6
CONTINUOUS
 10
46.4516410905
 20
152.3993922948
  0
VERTEX
  8
0
 62
7
  6
CONTINUOUS
 10
46.4510291378
 20
152.3523636228
  0
VERTEX
  8
0
 62
7
  6
CONTINUOUS
 10
46.4521681587
 20
152.3088412818
  0
VERTEX
  8
0
 62
7
  6
CONTINUOUS
 10
46.4552531314
 20
152.2701898331
  0
VERTEX
  8
0
 62
7
  6
CONTINUOUS
 10
46.4602702658
 20
152.2385414096
  0
VERTEX
  8
0
 62
7
  6
CONTINUOUS
 10
46.4670402816
 20
152.2155908954
  0
VERTEX
  8
0
 62
7
  6
CONTINUOUS
 10
46.4752549553
 20
152.2024652136
  0
VERTEX
  8
0
 62
7
  6
CONTINUOUS
 10
46.4813043685
 20
152.199451603
  0
SEQEND
  0
POLYLINE
  8
0
 62
7
  6
CONTINUOUS
 66
1
 70
0
  0
VERTEX
  8
0
 62
7
  6
CONTINUOUS
 10
46.4516410905
 20
135.5993922948
  0
VERTEX
  8
0
 62
7
  6
CONTINUOUS
 10
46.4510291378
 20
135.5523636228
  0
VERTEX
  8
0
 62
7
  6
CONTINUOUS
 10
46.4521681587
 20
135.5088412818
  0
VERTEX
  8
0
 62
7
  6
CONTINUOUS
 10
46.4552531314
 20
135.4701898331
  0
VERTEX
  8
0
 62
7
  6
CONTINUOUS
 10
46.4602702658
 20
135.4385414096
  0
VERTEX
  8
0
 62
7
  6
CONTINUOUS
 10
46.4670402816
 20
135.4155908954
  0
VERTEX
  8
0
 62
7
  6
CONTINUOUS
 10
46.4752549553
 20
135.4024652136
  0
VERTEX
  8
0
 62
7
  6
CONTINUOUS
 10
46.4813043685
 20
135.399451603
  0
SEQEND
  0
POLYLINE
  8
0
 62
7
  6
CONTINUOUS
 66
1
 70
0
  0
VERTEX
  8
0
 62
7
  6
CONTINUOUS
 10
46.4516410905
 20
118.7993922948
  0
VERTEX
  8
0
 62
7
  6
CONTINUOUS
 10
46.4510291378
 20
118.7523636228
  0
VERTEX
  8
0
 62
7
  6
CONTINUOUS
 10
46.4521681587
 20
118.7088412818
  0
VERTEX
  8
0
 62
7
  6
CONTINUOUS
 10
46.4552531314
 20
118.6701898331
  0
VERTEX
  8
0
 62
7
  6
CONTINUOUS
 10
46.4602702658
 20
118.6385414096
  0
VERTEX
  8
0
 62
7
  6
CONTINUOUS
 10
46.4670402816
 20
118.6155908954
  0
VERTEX
  8
0
 62
7
  6
CONTINUOUS
 10
46.4752549553
 20
118.6024652136
  0
VERTEX
  8
0
 62
7
  6
CONTINUOUS
 10
46.4813043685
 20
118.599451603
  0
SEQEND
  0
POLYLINE
  8
0
 62
7
  6
CONTINUOUS
 66
1
 70
0
  0
VERTEX
  8
0
 62
7
  6
CONTINUOUS
 10
46.4516410905
 20
101.9993922948
  0
VERTEX
  8
0
 62
7
  6
CONTINUOUS
 10
46.4510291378
 20
101.9523636228
  0
VERTEX
  8
0
 62
7
  6
CONTINUOUS
 10
46.4521681587
 20
101.9088412818
  0
VERTEX
  8
0
 62
7
  6
CONTINUOUS
 10
46.4552531314
 20
101.8701898331
  0
VERTEX
  8
0
 62
7
  6
CONTINUOUS
 10
46.4602702658
 20
101.8385414096
  0
VERTEX
  8
0
 62
7
  6
CONTINUOUS
 10
46.4670402816
 20
101.8155908954
  0
VERTEX
  8
0
 62
7
  6
CONTINUOUS
 10
46.4752549553
 20
101.8024652136
  0
VERTEX
  8
0
 62
7
  6
CONTINUOUS
 10
46.4813043685
 20
101.799451603
  0
SEQEND
  0
POLYLINE
  8
0
 62
7
  6
CONTINUOUS
 66
1
 70
0
  0
VERTEX
  8
0
 62
7
  6
CONTINUOUS
 10
46.4516410905
 20
85.1993922948
  0
VERTEX
  8
0
 62
7
  6
CONTINUOUS
 10
46.4510291378
 20
85.1523636228
  0
VERTEX
  8
0
 62
7
  6
CONTINUOUS
 10
46.4521681587
 20
85.1088412818
  0
VERTEX
  8
0
 62
7
  6
CONTINUOUS
 10
46.4552531314
 20
85.0701898331
  0
VERTEX
  8
0
 62
7
  6
CONTINUOUS
 10
46.4602702658
 20
85.0385414096
  0
VERTEX
  8
0
 62
7
  6
CONTINUOUS
 10
46.4670402816
 20
85.0155908954
  0
VERTEX
  8
0
 62
7
  6
CONTINUOUS
 10
46.4752549553
 20
85.0024652136
  0
VERTEX
  8
0
 62
7
  6
CONTINUOUS
 10
46.4813043685
 20
84.999451603
  0
SEQEND
  0
POLYLINE
  8
0
 62
7
  6
CONTINUOUS
 66
1
 70
0
  0
VERTEX
  8
0
 62
7
  6
CONTINUOUS
 10
46.4516410905
 20
68.3993922948
  0
VERTEX
  8
0
 62
7
  6
CONTINUOUS
 10
46.4510291378
 20
68.3523636228
  0
VERTEX
  8
0
 62
7
  6
CONTINUOUS
 10
46.4521681587
 20
68.3088412818
  0
VERTEX
  8
0
 62
7
  6
CONTINUOUS
 10
46.4552531314
 20
68.2701898331
  0
VERTEX
  8
0
 62
7
  6
CONTINUOUS
 10
46.4602702658
 20
68.2385414096
  0
VERTEX
  8
0
 62
7
  6
CONTINUOUS
 10
46.4670402816
 20
68.2155908954
  0
VERTEX
  8
0
 62
7
  6
CONTINUOUS
 10
46.4752549553
 20
68.2024652136
  0
VERTEX
  8
0
 62
7
  6
CONTINUOUS
 10
46.4813043685
 20
68.199451603
  0
SEQEND
  0
POLYLINE
  8
0
 62
7
  6
CONTINUOUS
 66
1
 70
0
  0
VERTEX
  8
0
 62
7
  6
CONTINUOUS
 10
53.6451133225
 20
194.4044878286
  0
VERTEX
  8
0
 62
7
  6
CONTINUOUS
 10
53.6435985761
 20
194.3830668006
  0
VERTEX
  8
0
 62
7
  6
CONTINUOUS
 10
53.6324364363
 20
194.3402421923
  0
VERTEX
  8
0
 62
7
  6
CONTINUOUS
 10
53.6120546369
 20
194.2992881789
  0
VERTEX
  8
0
 62
7
  6
CONTINUOUS
 10
53.584000839
 20
194.2608044573
  0
VERTEX
  8
0
 62
7
  6
CONTINUOUS
 10
53.5489338538
 20
194.2247815691
  0
VERTEX
  8
0
 62
7
  6
CONTINUOUS
 10
53.5069681964
 20
194.1912116458
  0
VERTEX
  8
0
 62
7
  6
CONTINUOUS
 10
53.4577513315
 20
194.1600780935
  0
VERTEX
  8
0
 62
7
  6
CONTINUOUS
 10
53.4027040053
 20
194.1324854781
  0
VERTEX
  8
0
 62
7
  6
CONTINUOUS
 10
53.3434009779
 20
194.1090051233
  0
VERTEX
  8
0
 62
7
  6
CONTINUOUS
 10
53.2796237343
 20
194.0892070733
  0
VERTEX
  8
0
 62
7
  6
CONTINUOUS
 10
53.2121236914
 20
194.0723949814
  0
VERTEX
  8
0
 62
7
  6
CONTINUOUS
 10
53.1422449875
 20
194.058421892
  0
VERTEX
  8
0
 62
7
  6
CONTINUOUS
 10
53.0703352654
 20
194.0470115714
  0
VERTEX
  8
0
 62
7
  6
CONTINUOUS
 10
52.9962428293
 20
194.0379772493
  0
VERTEX
  8
0
 62
7
  6
CONTINUOUS
 10
52.9204549081
 20
194.0311488028
  0
VERTEX
  8
0
 62
7
  6
CONTINUOUS
 10
52.8434047605
 20
194.0263505197
  0
VERTEX
  8
0
 62
7
  6
CONTINUOUS
 10
52.7653122331
 20
194.023385511
  0
VERTEX
  8
0
 62
7
  6
CONTINUOUS
 10
52.6863941041
 20
194.0220342008
  0
VERTEX
  8
0
 62
7
  6
CONTINUOUS
 10
52.6069240544
 20
194.0220934761
  0
SEQEND
  0
POLYLINE
  8
0
 62
7
  6
CONTINUOUS
 66
1
 70
0
  0
VERTEX
  8
0
 62
7
  6
CONTINUOUS
 10
53.6451133225
 20
177.6044878286
  0
VERTEX
  8
0
 62
7
  6
CONTINUOUS
 10
53.6435985761
 20
177.5830668006
  0
VERTEX
  8
0
 62
7
  6
CONTINUOUS
 10
53.6324364363
 20
177.5402421923
  0
VERTEX
  8
0
 62
7
  6
CONTINUOUS
 10
53.6120546369
 20
177.4992881789
  0
VERTEX
  8
0
 62
7
  6
CONTINUOUS
 10
53.584000839
 20
177.4608044573
  0
VERTEX
  8
0
 62
7
  6
CONTINUOUS
 10
53.5489338538
 20
177.4247815691
  0
VERTEX
  8
0
 62
7
  6
CONTINUOUS
 10
53.5069681964
 20
177.3912116458
  0
VERTEX
  8
0
 62
7
  6
CONTINUOUS
 10
53.4577513315
 20
177.3600780935
  0
VERTEX
  8
0
 62
7
  6
CONTINUOUS
 10
53.4027040053
 20
177.3324854781
  0
VERTEX
  8
0
 62
7
  6
CONTINUOUS
 10
53.3434009779
 20
177.3090051233
  0
VERTEX
  8
0
 62
7
  6
CONTINUOUS
 10
53.2796237343
 20
177.2892070733
  0
VERTEX
  8
0
 62
7
  6
CONTINUOUS
 10
53.2121236914
 20
177.2723949814
  0
VERTEX
  8
0
 62
7
  6
CONTINUOUS
 10
53.1422449875
 20
177.258421892
  0
VERTEX
  8
0
 62
7
  6
CONTINUOUS
 10
53.0703352654
 20
177.2470115714
  0
VERTEX
  8
0
 62
7
  6
CONTINUOUS
 10
52.9962428293
 20
177.2379772493
  0
VERTEX
  8
0
 62
7
  6
CONTINUOUS
 10
52.9204549081
 20
177.2311488028
  0
VERTEX
  8
0
 62
7
  6
CONTINUOUS
 10
52.8434047605
 20
177.2263505197
  0
VERTEX
  8
0
 62
7
  6
CONTINUOUS
 10
52.7653122331
 20
177.223385511
  0
VERTEX
  8
0
 62
7
  6
CONTINUOUS
 10
52.6863941041
 20
177.2220342008
  0
VERTEX
  8
0
 62
7
  6
CONTINUOUS
 10
52.6069240544
 20
177.2220934761
  0
SEQEND
  0
LINE
  8
0
 62
7
  6
CONTINUOUS
 10
106.7594403869
 20
178.2790272377
 11
107.1626870195
 21
178.4597539209
  0
POLYLINE
  8
0
 62
7
  6
CONTINUOUS
 66
1
 70
0
  0
VERTEX
  8
0
 62
7
  6
CONTINUOUS
 10
107.258345438
 20
111.2715949633
  0
VERTEX
  8
0
 62
7
  6
CONTINUOUS
 10
107.4258580072
 20
111.299256775
  0
VERTEX
  8
0
 62
7
  6
CONTINUOUS
 10
107.5908842254
 20
111.3301615729
  0
VERTEX
  8
0
 62
7
  6
CONTINUOUS
 10
107.7347119266
 20
111.3611103595
  0
VERTEX
  8
0
 62
7
  6
CONTINUOUS
 10
107.8607145497
 20
111.3925195467
  0
VERTEX
  8
0
 62
7
  6
CONTINUOUS
 10
107.9723013888
 20
111.4251026878
  0
VERTEX
  8
0
 62
7
  6
CONTINUOUS
 10
108.0731527076
 20
111.4601176965
  0
VERTEX
  8
0
 62
7
  6
CONTINUOUS
 10
108.1673561741
 20
111.4998011949
  0
VERTEX
  8
0
 62
7
  6
CONTINUOUS
 10
108.2588200999
 20
111.5478283127
  0
VERTEX
  8
0
 62
7
  6
CONTINUOUS
 10
108.3504273226
 20
111.6099379634
  0
VERTEX
  8
0
 62
7
  6
CONTINUOUS
 10
108.4417181902
 20
111.6936668883
  0
VERTEX
  8
0
 62
7
  6
CONTINUOUS
 10
108.5252060978
 20
111.8043122994
  0
VERTEX
  8
0
 62
7
  6
CONTINUOUS
 10
108.5881498212
 20
111.9393019649
  0
VERTEX
  8
0
 62
7
  6
CONTINUOUS
 10
108.6202919771
 20
112.0871367542
  0
VERTEX
  8
0
 62
7
  6
CONTINUOUS
 10
108.62392198
 20
112.1572361352
  0
SEQEND
  0
LINE
  8
0
 62
7
  6
CONTINUOUS
 10
107.1536279808
 20
111.2556938498
 11
107.2583535255
 21
111.2715962241
  0
POLYLINE
  8
0
 62
7
  6
CONTINUOUS
 66
1
 70
0
  0
VERTEX
  8
0
 62
7
  6
CONTINUOUS
 10
102.9665462966
 20
110.1994515701
  0
VERTEX
  8
0
 62
7
  6
CONTINUOUS
 10
103.514837679
 20
110.2708288251
  0
VERTEX
  8
0
 62
7
  6
CONTINUOUS
 10
104.1148190944
 20
110.3654782865
  0
VERTEX
  8
0
 62
7
  6
CONTINUOUS
 10
104.6976060589
 20
110.4760888913
  0
VERTEX
  8
0
 62
7
  6
CONTINUOUS
 10
105.2581917252
 20
110.6027027775
  0
VERTEX
  8
0
 62
7
  6
CONTINUOUS
 10
105.7917394035
 20
110.7453355319
  0
VERTEX
  8
0
 62
7
  6
CONTINUOUS
 10
106.2935897816
 20
110.9040334561
  0
VERTEX
  8
0
 62
7
  6
CONTINUOUS
 10
106.7594403869
 20
111.0790272377
  0
SEQEND
  0
LINE
  8
0
 62
7
  6
CONTINUOUS
 10
102.9665404309
 20
110.1994515996
 11
102.9655205193
 21
110.1993922977
  0
POLYLINE
  8
0
 62
7
  6
CONTINUOUS
 66
1
 70
0
  0
VERTEX
  8
0
 62
7
  6
CONTINUOUS
 10
52.6069240544
 20
110.0220934761
  0
VERTEX
  8
0
 62
7
  6
CONTINUOUS
 10
52.3134600686
 20
110.0260579526
  0
VERTEX
  8
0
 62
7
  6
CONTINUOUS
 10
52.0304478671
 20
110.0284996964
  0
VERTEX
  8
0
 62
7
  6
CONTINUOUS
 10
46.4823863198
 20
110.0290559811
  0
SEQEND
  0
POLYLINE
  8
0
 62
7
  6
CONTINUOUS
 66
1
 70
0
  0
VERTEX
  8
0
 62
7
  6
CONTINUOUS
 10
96.8445495989
 20
110.2063214169
  0
VERTEX
  8
0
 62
7
  6
CONTINUOUS
 10
97.1383486961
 20
110.2023438618
  0
VERTEX
  8
0
 62
7
  6
CONTINUOUS
 10
97.4213703566
 20
110.1999278873
  0
VERTEX
  8
0
 62
7
  6
CONTINUOUS
 10
102.9654585078
 20
110.1993922948
  0
SEQEND
  0
LINE
  8
0
 62
7
  6
CONTINUOUS
 10
107.2583535255
 20
100.5568520517
 11
107.1536279805
 21
100.5727544261
  0
POLYLINE
  8
0
 62
7
  6
CONTINUOUS
 66
1
 70
0
  0
VERTEX
  8
0
 62
7
  6
CONTINUOUS
 10
42.285155682
 20
119.6597549641
  0
VERTEX
  8
0
 62
7
  6
CONTINUOUS
 10
42.6861049038
 20
119.4799716889
  0
VERTEX
  8
0
 62
7
  6
CONTINUOUS
 10
43.1517179446
 20
119.3049071507
  0
VERTEX
  8
0
 62
7
  6
CONTINUOUS
 10
43.653342425
 20
119.1461387488
  0
VERTEX
  8
0
 62
7
  6
CONTINUOUS
 10
44.1866786272
 20
119.003434003
  0
VERTEX
  8
0
 62
7
  6
CONTINUOUS
 10
44.747069649
 20
118.8767457695
  0
VERTEX
  8
0
 62
7
  6
CONTINUOUS
 10
45.3296804545
 20
118.7660582385
  0
VERTEX
  8
0
 62
7
  6
CONTINUOUS
 10
45.9295053814
 20
118.6713293871
  0
VERTEX
  8
0
 62
7
  6
CONTINUOUS
 10
46.4812985028
 20
118.5994515734
  0
SEQEND
  0
POLYLINE
  8
0
 62
7
  6
CONTINUOUS
 66
1
 70
0
  0
VERTEX
  8
0
 62
7
  6
CONTINUOUS
 10
102.9665361752
 20
84.828996655
  0
VERTEX
  8
0
 62
7
  6
CONTINUOUS
 10
102.9751330732
 20
84.8231849546
  0
VERTEX
  8
0
 62
7
  6
CONTINUOUS
 10
102.9839263916
 20
84.8040982016
  0
VERTEX
  8
0
 62
7
  6
CONTINUOUS
 10
102.9906548344
 20
84.7728969545
  0
VERTEX
  8
0
 62
7
  6
CONTINUOUS
 10
102.9949745378
 20
84.7315784087
  0
VERTEX
  8
0
 62
7
  6
CONTINUOUS
 10
102.9967634244
 20
84.6828820625
  0
VERTEX
  8
0
 62
7
  6
CONTINUOUS
 10
102.9962037371
 20
84.6290559811
  0
SEQEND
  0
LINE
  8
0
 62
7
  6
CONTINUOUS
 10
53.89503577
 20
67.8249662657
 11
53.8953119985
 21
67.7448563269
  0
LINE
  8
0
 62
7
  6
CONTINUOUS
 10
53.89503577
 20
84.6249662657
 11
53.8953119985
 21
84.5448563269
  0
LINE
  8
0
 62
7
  6
CONTINUOUS
 10
53.89503577
 20
101.4249662657
 11
53.8953119985
 21
101.3448563269
  0
LINE
  8
0
 62
7
  6
CONTINUOUS
 10
53.89503577
 20
118.2249662657
 11
53.8953119985
 21
118.1448563269
  0
LINE
  8
0
 62
7
  6
CONTINUOUS
 10
53.89503577
 20
135.0249662657
 11
53.8953119985
 21
134.9448563269
  0
LINE
  8
0
 62
7
  6
CONTINUOUS
 10
53.89503577
 20
151.8249662657
 11
53.8953119985
 21
151.7448563269
  0
LINE
  8
0
 62
7
  6
CONTINUOUS
 10
53.89503577
 20
168.6249662657
 11
53.8953119985
 21
168.5448563269
  0
LINE
  8
0
 62
7
  6
CONTINUOUS
 10
53.89503577
 20
185.4249662657
 11
53.8953119985
 21
185.3448563269
  0
LINE
  8
0
 62
7
  6
CONTINUOUS
 10
53.89503577
 20
202.2249662657
 11
53.8953119985
 21
202.1448563269
  0
LINE
  8
0
 62
7
  6
CONTINUOUS
 10
53.6450837483
 20
202.2237876964
 11
53.6453119985
 21
194.4835924953
  0
LINE
  8
0
 62
7
  6
CONTINUOUS
 10
53.6450837483
 20
185.4237876964
 11
53.6453119985
 21
177.6835924953
  0
LINE
  8
0
 62
7
  6
CONTINUOUS
 10
53.6450837483
 20
168.6237876964
 11
53.6453119985
 21
160.8835924953
  0
LINE
  8
0
 62
7
  6
CONTINUOUS
 10
53.6450837483
 20
151.8237876964
 11
53.6453119985
 21
144.0835924953
  0
LINE
  8
0
 62
7
  6
CONTINUOUS
 10
53.6450837483
 20
135.0237876964
 11
53.6453119985
 21
127.2835924953
  0
LINE
  8
0
 62
7
  6
CONTINUOUS
 10
53.6450837483
 20
118.2237876964
 11
53.6453119985
 21
110.4835924953
  0
LINE
  8
0
 62
7
  6
CONTINUOUS
 10
53.6450837483
 20
101.4237876964
 11
53.6453119985
 21
93.6835924953
  0
LINE
  8
0
 62
7
  6
CONTINUOUS
 10
53.6450837483
 20
84.6237876964
 11
53.6453119985
 21
76.8835924953
  0
LINE
  8
0
 62
7
  6
CONTINUOUS
 10
53.6450837483
 20
67.8237876964
 11
53.6453119985
 21
60.0142241379
  0
LINE
  8
0
 62
7
  6
CONTINUOUS
 10
53.6453119985
 20
194.4835924959
 11
53.6451135171
 21
194.404488116
  0
LINE
  8
0
 62
7
  6
CONTINUOUS
 10
53.6453119985
 20
177.6835924959
 11
53.6451135171
 21
177.604488116
  0
LINE
  8
0
 62
7
  6
CONTINUOUS
 10
53.6453119985
 20
160.8835924959
 11
53.6451135171
 21
160.804488116
  0
LINE
  8
0
 62
7
  6
CONTINUOUS
 10
53.6453119985
 20
144.0835924959
 11
53.6451135171
 21
144.004488116
  0
LINE
  8
0
 62
7
  6
CONTINUOUS
 10
53.6453119985
 20
127.2835924959
 11
53.6451135171
 21
127.204488116
  0
LINE
  8
0
 62
7
  6
CONTINUOUS
 10
53.6453119985
 20
110.4835924959
 11
53.6451135171
 21
110.404488116
  0
LINE
  8
0
 62
7
  6
CONTINUOUS
 10
53.6453119985
 20
93.6835924959
 11
53.6451135171
 21
93.604488116
  0
LINE
  8
0
 62
7
  6
CONTINUOUS
 10
53.6453119985
 20
76.8835924959
 11
53.6451135171
 21
76.804488116
  0
POLYLINE
  8
0
 62
7
  6
CONTINUOUS
 66
1
 70
0
  0
VERTEX
  8
0
 62
7
  6
CONTINUOUS
 10
53.6451133225
 20
160.8044878286
  0
VERTEX
  8
0
 62
7
  6
CONTINUOUS
 10
53.6435985761
 20
160.7830668006
  0
VERTEX
  8
0
 62
7
  6
CONTINUOUS
 10
53.6324364363
 20
160.7402421923
  0
VERTEX
  8
0
 62
7
  6
CONTINUOUS
 10
53.6120546369
 20
160.6992881789
  0
VERTEX
  8
0
 62
7
  6
CONTINUOUS
 10
53.584000839
 20
160.6608044573
  0
VERTEX
  8
0
 62
7
  6
CONTINUOUS
 10
53.5489338538
 20
160.6247815691
  0
VERTEX
  8
0
 62
7
  6
CONTINUOUS
 10
53.5069681964
 20
160.5912116458
  0
VERTEX
  8
0
 62
7
  6
CONTINUOUS
 10
53.4577513315
 20
160.5600780935
  0
VERTEX
  8
0
 62
7
  6
CONTINUOUS
 10
53.4027040053
 20
160.5324854781
  0
VERTEX
  8
0
 62
7
  6
CONTINUOUS
 10
53.3434009779
 20
160.5090051233
  0
VERTEX
  8
0
 62
7
  6
CONTINUOUS
 10
53.2796237343
 20
160.4892070733
  0
VERTEX
  8
0
 62
7
  6
CONTINUOUS
 10
53.2121236914
 20
160.4723949814
  0
VERTEX
  8
0
 62
7
  6
CONTINUOUS
 10
53.1422449875
 20
160.458421892
  0
VERTEX
  8
0
 62
7
  6
CONTINUOUS
 10
53.0703352654
 20
160.4470115714
  0
VERTEX
  8
0
 62
7
  6
CONTINUOUS
 10
52.9962428293
 20
160.4379772493
  0
VERTEX
  8
0
 62
7
  6
CONTINUOUS
 10
52.9204549081
 20
160.4311488028
  0
VERTEX
  8
0
 62
7
  6
CONTINUOUS
 10
52.8434047605
 20
160.4263505197
  0
VERTEX
  8
0
 62
7
  6
CONTINUOUS
 10
52.7653122331
 20
160.423385511
  0
VERTEX
  8
0
 62
7
  6
CONTINUOUS
 10
52.6863941041
 20
160.4220342008
  0
VERTEX
  8
0
 62
7
  6
CONTINUOUS
 10
52.6069240544
 20
160.4220934761
  0
SEQEND
  0
POLYLINE
  8
0
 62
7
  6
CONTINUOUS
 66
1
 70
0
  0
VERTEX
  8
0
 62
7
  6
CONTINUOUS
 10
53.6451133225
 20
144.0044878286
  0
VERTEX
  8
0
 62
7
  6
CONTINUOUS
 10
53.6435985761
 20
143.9830668006
  0
VERTEX
  8
0
 62
7
  6
CONTINUOUS
 10
53.6324364363
 20
143.9402421923
  0
VERTEX
  8
0
 62
7
  6
CONTINUOUS
 10
53.6120546369
 20
143.8992881789
  0
VERTEX
  8
0
 62
7
  6
CONTINUOUS
 10
53.584000839
 20
143.8608044573
  0
VERTEX
  8
0
 62
7
  6
CONTINUOUS
 10
53.5489338538
 20
143.8247815691
  0
VERTEX
  8
0
 62
7
  6
CONTINUOUS
 10
53.5069681964
 20
143.7912116458
  0
VERTEX
  8
0
 62
7
  6
CONTINUOUS
 10
53.4577513315
 20
143.7600780935
  0
VERTEX
  8
0
 62
7
  6
CONTINUOUS
 10
53.4027040053
 20
143.7324854781
  0
VERTEX
  8
0
 62
7
  6
CONTINUOUS
 10
53.3434009779
 20
143.7090051233
  0
VERTEX
  8
0
 62
7
  6
CONTINUOUS
 10
53.2796237343
 20
143.6892070733
  0
VERTEX
  8
0
 62
7
  6
CONTINUOUS
 10
53.2121236914
 20
143.6723949814
  0
VERTEX
  8
0
 62
7
  6
CONTINUOUS
 10
53.1422449875
 20
143.658421892
  0
VERTEX
  8
0
 62
7
  6
CONTINUOUS
 10
53.0703352654
 20
143.6470115714
  0
VERTEX
  8
0
 62
7
  6
CONTINUOUS
 10
52.9962428293
 20
143.6379772493
  0
VERTEX
  8
0
 62
7
  6
CONTINUOUS
 10
52.9204549081
 20
143.6311488028
  0
VERTEX
  8
0
 62
7
  6
CONTINUOUS
 10
52.8434047605
 20
143.6263505197
  0
VERTEX
  8
0
 62
7
  6
CONTINUOUS
 10
52.7653122331
 20
143.623385511
  0
VERTEX
  8
0
 62
7
  6
CONTINUOUS
 10
52.6863941041
 20
143.6220342008
  0
VERTEX
  8
0
 62
7
  6
CONTINUOUS
 10
52.6069240544
 20
143.6220934761
  0
SEQEND
  0
POLYLINE
  8
0
 62
7
  6
CONTINUOUS
 66
1
 70
0
  0
VERTEX
  8
0
 62
7
  6
CONTINUOUS
 10
53.6451133225
 20
127.2044878286
  0
VERTEX
  8
0
 62
7
  6
CONTINUOUS
 10
53.6435985761
 20
127.1830668006
  0
VERTEX
  8
0
 62
7
  6
CONTINUOUS
 10
53.6324364363
 20
127.1402421923
  0
VERTEX
  8
0
 62
7
  6
CONTINUOUS
 10
53.6120546369
 20
127.0992881789
  0
VERTEX
  8
0
 62
7
  6
CONTINUOUS
 10
53.584000839
 20
127.0608044573
  0
VERTEX
  8
0
 62
7
  6
CONTINUOUS
 10
53.5489338538
 20
127.0247815691
  0
VERTEX
  8
0
 62
7
  6
CONTINUOUS
 10
53.5069681964
 20
126.9912116458
  0
VERTEX
  8
0
 62
7
  6
CONTINUOUS
 10
53.4577513315
 20
126.9600780935
  0
VERTEX
  8
0
 62
7
  6
CONTINUOUS
 10
53.4027040053
 20
126.9324854781
  0
VERTEX
  8
0
 62
7
  6
CONTINUOUS
 10
53.3434009779
 20
126.9090051233
  0
VERTEX
  8
0
 62
7
  6
CONTINUOUS
 10
53.2796237343
 20
126.8892070733
  0
VERTEX
  8
0
 62
7
  6
CONTINUOUS
 10
53.2121236914
 20
126.8723949814
  0
VERTEX
  8
0
 62
7
  6
CONTINUOUS
 10
53.1422449875
 20
126.858421892
  0
VERTEX
  8
0
 62
7
  6
CONTINUOUS
 10
53.0703352654
 20
126.8470115714
  0
VERTEX
  8
0
 62
7
  6
CONTINUOUS
 10
52.9962428293
 20
126.8379772493
  0
VERTEX
  8
0
 62
7
  6
CONTINUOUS
 10
52.9204549081
 20
126.8311488028
  0
VERTEX
  8
0
 62
7
  6
CONTINUOUS
 10
52.8434047605
 20
126.8263505197
  0
VERTEX
  8
0
 62
7
  6
CONTINUOUS
 10
52.7653122331
 20
126.823385511
  0
VERTEX
  8
0
 62
7
  6
CONTINUOUS
 10
52.6863941041
 20
126.8220342008
  0
VERTEX
  8
0
 62
7
  6
CONTINUOUS
 10
52.6069240544
 20
126.8220934761
  0
SEQEND
  0
POLYLINE
  8
0
 62
7
  6
CONTINUOUS
 66
1
 70
0
  0
VERTEX
  8
0
 62
7
  6
CONTINUOUS
 10
53.6451133225
 20
110.4044878286
  0
VERTEX
  8
0
 62
7
  6
CONTINUOUS
 10
53.6435985761
 20
110.3830668006
  0
VERTEX
  8
0
 62
7
  6
CONTINUOUS
 10
53.6324364363
 20
110.3402421923
  0
VERTEX
  8
0
 62
7
  6
CONTINUOUS
 10
53.6120546369
 20
110.2992881789
  0
VERTEX
  8
0
 62
7
  6
CONTINUOUS
 10
53.584000839
 20
110.2608044573
  0
VERTEX
  8
0
 62
7
  6
CONTINUOUS
 10
53.5489338538
 20
110.2247815691
  0
VERTEX
  8
0
 62
7
  6
CONTINUOUS
 10
53.5069681964
 20
110.1912116458
  0
VERTEX
  8
0
 62
7
  6
CONTINUOUS
 10
53.4577513315
 20
110.1600780935
  0
VERTEX
  8
0
 62
7
  6
CONTINUOUS
 10
53.4027040053
 20
110.1324854781
  0
VERTEX
  8
0
 62
7
  6
CONTINUOUS
 10
53.3434009779
 20
110.1090051233
  0
VERTEX
  8
0
 62
7
  6
CONTINUOUS
 10
53.2796237343
 20
110.0892070733
  0
VERTEX
  8
0
 62
7
  6
CONTINUOUS
 10
53.2121236914
 20
110.0723949814
  0
VERTEX
  8
0
 62
7
  6
CONTINUOUS
 10
53.1422449875
 20
110.058421892
  0
VERTEX
  8
0
 62
7
  6
CONTINUOUS
 10
53.0703352654
 20
110.0470115714
  0
VERTEX
  8
0
 62
7
  6
CONTINUOUS
 10
52.9962428293
 20
110.0379772493
  0
VERTEX
  8
0
 62
7
  6
CONTINUOUS
 10
52.9204549081
 20
110.0311488028
  0
VERTEX
  8
0
 62
7
  6
CONTINUOUS
 10
52.8434047605
 20
110.0263505197
  0
VERTEX
  8
0
 62
7
  6
CONTINUOUS
 10
52.7653122331
 20
110.023385511
  0
VERTEX
  8
0
 62
7
  6
CONTINUOUS
 10
52.6863941041
 20
110.0220342008
  0
VERTEX
  8
0
 62
7
  6
CONTINUOUS
 10
52.6069240544
 20
110.0220934761
  0
SEQEND
  0
POLYLINE
  8
0
 62
7
  6
CONTINUOUS
 66
1
 70
0
  0
VERTEX
  8
0
 62
7
  6
CONTINUOUS
 10
53.6451133225
 20
93.6044878286
  0
VERTEX
  8
0
 62
7
  6
CONTINUOUS
 10
53.6435985761
 20
93.5830668006
  0
VERTEX
  8
0
 62
7
  6
CONTINUOUS
 10
53.6324364363
 20
93.5402421923
  0
VERTEX
  8
0
 62
7
  6
CONTINUOUS
 10
53.6120546369
 20
93.4992881789
  0
VERTEX
  8
0
 62
7
  6
CONTINUOUS
 10
53.584000839
 20
93.4608044573
  0
VERTEX
  8
0
 62
7
  6
CONTINUOUS
 10
53.5489338538
 20
93.4247815691
  0
VERTEX
  8
0
 62
7
  6
CONTINUOUS
 10
53.5069681964
 20
93.3912116458
  0
VERTEX
  8
0
 62
7
  6
CONTINUOUS
 10
53.4577513315
 20
93.3600780935
  0
VERTEX
  8
0
 62
7
  6
CONTINUOUS
 10
53.4027040053
 20
93.3324854781
  0
VERTEX
  8
0
 62
7
  6
CONTINUOUS
 10
53.3434009779
 20
93.3090051233
  0
VERTEX
  8
0
 62
7
  6
CONTINUOUS
 10
53.2796237343
 20
93.2892070733
  0
VERTEX
  8
0
 62
7
  6
CONTINUOUS
 10
53.2121236914
 20
93.2723949814
  0
VERTEX
  8
0
 62
7
  6
CONTINUOUS
 10
53.1422449875
 20
93.258421892
  0
VERTEX
  8
0
 62
7
  6
CONTINUOUS
 10
53.0703352654
 20
93.2470115714
  0
VERTEX
  8
0
 62
7
  6
CONTINUOUS
 10
52.9962428293
 20
93.2379772493
  0
VERTEX
  8
0
 62
7
  6
CONTINUOUS
 10
52.9204549081
 20
93.2311488028
  0
VERTEX
  8
0
 62
7
  6
CONTINUOUS
 10
52.8434047605
 20
93.2263505197
  0
VERTEX
  8
0
 62
7
  6
CONTINUOUS
 10
52.7653122331
 20
93.223385511
  0
VERTEX
  8
0
 62
7
  6
CONTINUOUS
 10
52.6863941041
 20
93.2220342008
  0
VERTEX
  8
0
 62
7
  6
CONTINUOUS
 10
52.6069240544
 20
93.2220934761
  0
SEQEND
  0
LINE
  8
0
 62
7
  6
CONTINUOUS
 10
42.6861049038
 20
142.748476587
 11
42.285155682
 21
142.5686933118
  0
POLYLINE
  8
0
 62
7
  6
CONTINUOUS
 66
1
 70
0
  0
VERTEX
  8
0
 62
7
  6
CONTINUOUS
 10
42.1894986375
 20
108.9568531953
  0
VERTEX
  8
0
 62
7
  6
CONTINUOUS
 10
42.0207035841
 20
108.9289665496
  0
VERTEX
  8
0
 62
7
  6
CONTINUOUS
 10
41.8561433678
 20
108.8981226481
  0
VERTEX
  8
0
 62
7
  6
CONTINUOUS
 10
41.7127050912
 20
108.8672388973
  0
VERTEX
  8
0
 62
7
  6
CONTINUOUS
 10
41.5870267907
 20
108.8359008508
  0
VERTEX
  8
0
 62
7
  6
CONTINUOUS
 10
41.4757131204
 20
108.8033994654
  0
VERTEX
  8
0
 62
7
  6
CONTINUOUS
 10
41.3751034989
 20
108.7684871626
  0
VERTEX
  8
0
 62
7
  6
CONTINUOUS
 10
41.2811386278
 20
108.7289505354
  0
VERTEX
  8
0
 62
7
  6
CONTINUOUS
 10
41.1899428468
 20
108.6811619441
  0
VERTEX
  8
0
 62
7
  6
CONTINUOUS
 10
41.0986306704
 20
108.6194529009
  0
VERTEX
  8
0
 62
7
  6
CONTINUOUS
 10
41.0075829165
 20
108.5363558335
  0
VERTEX
  8
0
 62
7
  6
CONTINUOUS
 10
40.9241133574
 20
108.4265505684
  0
VERTEX
  8
0
 62
7
  6
CONTINUOUS
 10
40.8608030502
 20
108.2923967863
  0
VERTEX
  8
0
 62
7
  6
CONTINUOUS
 10
40.8279595748
 20
108.145150531
  0
VERTEX
  8
0
 62
7
  6
CONTINUOUS
 10
40.8239225208
 20
108.0703948254
  0
SEQEND
  0
LINE
  8
0
 62
7
  6
CONTINUOUS
 10
42.2942177742
 20
108.9727567007
 11
42.1894904322
 21
108.9568519161
  0
POLYLINE
  8
0
 62
7
  6
CONTINUOUS
 66
1
 70
0
  0
VERTEX
  8
0
 62
7
  6
CONTINUOUS
 10
46.4812985028
 20
110.0289967025
  0
VERTEX
  8
0
 62
7
  6
CONTINUOUS
 10
45.9295053814
 20
109.9571188887
  0
VERTEX
  8
0
 62
7
  6
CONTINUOUS
 10
45.3296804545
 20
109.8623900374
  0
VERTEX
  8
0
 62
7
  6
CONTINUOUS
 10
44.747069649
 20
109.7517025064
  0
VERTEX
  8
0
 62
7
  6
CONTINUOUS
 10
44.1866786272
 20
109.6250142728
  0
VERTEX
  8
0
 62
7
  6
CONTINUOUS
 10
43.653342425
 20
109.482309527
  0
VERTEX
  8
0
 62
7
  6
CONTINUOUS
 10
43.1517179446
 20
109.3235411251
  0
VERTEX
  8
0
 62
7
  6
CONTINUOUS
 10
42.6861049038
 20
109.148476587
  0
SEQEND
  0
LINE
  8
0
 62
7
  6
CONTINUOUS
 10
46.4813043685
 20
110.0289966729
 11
46.4823243083
 21
110.0290559781
  0
LINE
  8
0
 62
7
  6
CONTINUOUS
 10
46.4813043685
 20
118.599451603
 11
46.4823243083
 21
118.5993922977
  0
LINE
  8
0
 62
7
  6
CONTINUOUS
 10
42.1894904322
 20
119.6715963597
 11
42.2942177742
 21
119.6556915752
  0
POLYLINE
  8
0
 62
7
  6
CONTINUOUS
 66
1
 70
0
  0
VERTEX
  8
0
 62
7
  6
CONTINUOUS
 10
107.1626870195
 20
100.5686943549
  0
VERTEX
  8
0
 62
7
  6
CONTINUOUS
 10
106.75944028
 20
100.7494210821
  0
VERTEX
  8
0
 62
7
  6
CONTINUOUS
 10
106.2935895488
 20
100.9244148999
  0
VERTEX
  8
0
 62
7
  6
CONTINUOUS
 10
105.7917390287
 20
101.0831128529
  0
VERTEX
  8
0
 62
7
  6
CONTINUOUS
 10
105.2581911953
 20
101.2257456286
  0
VERTEX
  8
0
 62
7
  6
CONTINUOUS
 10
104.6976053644
 20
101.3523595284
  0
VERTEX
  8
0
 62
7
  6
CONTINUOUS
 10
104.1148182295
 20
101.4629701393
  0
VERTEX
  8
0
 62
7
  6
CONTINUOUS
 10
103.5148366411
 20
101.557619599
  0
VERTEX
  8
0
 62
7
  6
CONTINUOUS
 10
102.9665462966
 20
101.6289967058
  0
SEQEND
  0
POLYLINE
  8
0
 62
7
  6
CONTINUOUS
 66
1
 70
0
  0
VERTEX
  8
0
 62
7
  6
CONTINUOUS
 10
53.6451133225
 20
76.8044878286
  0
VERTEX
  8
0
 62
7
  6
CONTINUOUS
 10
53.6435985761
 20
76.7830668006
  0
VERTEX
  8
0
 62
7
  6
CONTINUOUS
 10
53.6324364363
 20
76.7402421923
  0
VERTEX
  8
0
 62
7
  6
CONTINUOUS
 10
53.6120546369
 20
76.6992881789
  0
VERTEX
  8
0
 62
7
  6
CONTINUOUS
 10
53.584000839
 20
76.6608044573
  0
VERTEX
  8
0
 62
7
  6
CONTINUOUS
 10
53.5489338538
 20
76.6247815691
  0
VERTEX
  8
0
 62
7
  6
CONTINUOUS
 10
53.5069681964
 20
76.5912116458
  0
VERTEX
  8
0
 62
7
  6
CONTINUOUS
 10
53.4577513315
 20
76.5600780935
  0
VERTEX
  8
0
 62
7
  6
CONTINUOUS
 10
53.4027040053
 20
76.5324854781
  0
VERTEX
  8
0
 62
7
  6
CONTINUOUS
 10
53.3434009779
 20
76.5090051233
  0
VERTEX
  8
0
 62
7
  6
CONTINUOUS
 10
53.2796237343
 20
76.4892070733
  0
VERTEX
  8
0
 62
7
  6
CONTINUOUS
 10
53.2121236914
 20
76.4723949814
  0
VERTEX
  8
0
 62
7
  6
CONTINUOUS
 10
53.1422449875
 20
76.458421892
  0
VERTEX
  8
0
 62
7
  6
CONTINUOUS
 10
53.0703352654
 20
76.4470115714
  0
VERTEX
  8
0
 62
7
  6
CONTINUOUS
 10
52.9962428293
 20
76.4379772493
  0
VERTEX
  8
0
 62
7
  6
CONTINUOUS
 10
52.9204549081
 20
76.4311488028
  0
VERTEX
  8
0
 62
7
  6
CONTINUOUS
 10
52.8434047605
 20
76.4263505197
  0
VERTEX
  8
0
 62
7
  6
CONTINUOUS
 10
52.7653122331
 20
76.423385511
  0
VERTEX
  8
0
 62
7
  6
CONTINUOUS
 10
52.6863941041
 20
76.4220342008
  0
VERTEX
  8
0
 62
7
  6
CONTINUOUS
 10
52.6069240544
 20
76.4220934761
  0
SEQEND
  0
POLYLINE
  8
0
 62
7
  6
CONTINUOUS
 66
1
 70
0
  0
VERTEX
  8
0
 62
7
  6
CONTINUOUS
 10
107.258345438
 20
128.0715949633
  0
VERTEX
  8
0
 62
7
  6
CONTINUOUS
 10
107.4258580072
 20
128.099256775
  0
VERTEX
  8
0
 62
7
  6
CONTINUOUS
 10
107.5908842254
 20
128.1301615729
  0
VERTEX
  8
0
 62
7
  6
CONTINUOUS
 10
107.7347119266
 20
128.1611103595
  0
VERTEX
  8
0
 62
7
  6
CONTINUOUS
 10
107.8607145497
 20
128.1925195467
  0
VERTEX
  8
0
 62
7
  6
CONTINUOUS
 10
107.9723013888
 20
128.2251026878
  0
VERTEX
  8
0
 62
7
  6
CONTINUOUS
 10
108.0731527076
 20
128.2601176965
  0
VERTEX
  8
0
 62
7
  6
CONTINUOUS
 10
108.1673561741
 20
128.2998011949
  0
VERTEX
  8
0
 62
7
  6
CONTINUOUS
 10
108.2588200999
 20
128.3478283127
  0
VERTEX
  8
0
 62
7
  6
CONTINUOUS
 10
108.3504273226
 20
128.4099379634
  0
VERTEX
  8
0
 62
7
  6
CONTINUOUS
 10
108.4417181902
 20
128.4936668883
  0
VERTEX
  8
0
 62
7
  6
CONTINUOUS
 10
108.5252060978
 20
128.6043122994
  0
VERTEX
  8
0
 62
7
  6
CONTINUOUS
 10
108.5881498212
 20
128.7393019649
  0
VERTEX
  8
0
 62
7
  6
CONTINUOUS
 10
108.6202919771
 20
128.8871367542
  0
VERTEX
  8
0
 62
7
  6
CONTINUOUS
 10
108.6239223099
 20
128.9580508967
  0
SEQEND
  0
LINE
  8
0
 62
7
  6
CONTINUOUS
 10
107.1536279808
 20
128.0556938498
 11
107.2583535255
 21
128.0715962241
  0
POLYLINE
  8
0
 62
7
  6
CONTINUOUS
 66
1
 70
0
  0
VERTEX
  8
0
 62
7
  6
CONTINUOUS
 10
102.9665462966
 20
126.9994515701
  0
VERTEX
  8
0
 62
7
  6
CONTINUOUS
 10
103.514837679
 20
127.0708288251
  0
VERTEX
  8
0
 62
7
  6
CONTINUOUS
 10
104.1148190944
 20
127.1654782865
  0
VERTEX
  8
0
 62
7
  6
CONTINUOUS
 10
104.6976060589
 20
127.2760888913
  0
VERTEX
  8
0
 62
7
  6
CONTINUOUS
 10
105.2581917252
 20
127.4027027775
  0
VERTEX
  8
0
 62
7
  6
CONTINUOUS
 10
105.7917394035
 20
127.5453355319
  0
VERTEX
  8
0
 62
7
  6
CONTINUOUS
 10
106.2935897816
 20
127.7040334561
  0
VERTEX
  8
0
 62
7
  6
CONTINUOUS
 10
106.7594403869
 20
127.8790272377
  0
SEQEND
  0
POLYLINE
  8
0
 62
7
  6
CONTINUOUS
 66
1
 70
0
  0
VERTEX
  8
0
 62
7
  6
CONTINUOUS
 10
52.3094961821
 20
118.6023438615
  0
VERTEX
  8
0
 62
7
  6
CONTINUOUS
 10
52.602818301
 20
118.6063168385
  0
VERTEX
  8
0
 62
7
  6
CONTINUOUS
 10
52.6824118441
 20
118.6064431619
  0
VERTEX
  8
0
 62
7
  6
CONTINUOUS
 10
52.7614745053
 20
118.6051644825
  0
VERTEX
  8
0
 62
7
  6
CONTINUOUS
 10
52.8397262295
 20
118.6022780057
  0
VERTEX
  8
0
 62
7
  6
CONTINUOUS
 10
52.9169444735
 20
118.5975626037
  0
VERTEX
  8
0
 62
7
  6
CONTINUOUS
 10
52.9929095224
 20
118.5908196831
  0
VERTEX
  8
0
 62
7
  6
CONTINUOUS
 10
53.0671886671
 20
118.581873337
  0
VERTEX
  8
0
 62
7
  6
CONTINUOUS
 10
53.1392736654
 20
118.5705538197
  0
VERTEX
  8
0
 62
7
  6
CONTINUOUS
 10
53.2093783343
 20
118.5566624205
  0
VERTEX
  8
0
 62
7
  6
CONTINUOUS
 10
53.2770284864
 20
118.5399625447
  0
VERTEX
  8
0
 62
7
  6
CONTINUOUS
 10
53.3410966707
 20
118.5202480028
  0
VERTEX
  8
0
 62
7
  6
CONTINUOUS
 10
53.4005864958
 20
118.4969013252
  0
VERTEX
  8
0
 62
7
  6
CONTINUOUS
 10
53.4558554446
 20
118.469432902
  0
VERTEX
  8
0
 62
7
  6
CONTINUOUS
 10
53.5052999739
 20
118.4384180255
  0
VERTEX
  8
0
 62
7
  6
CONTINUOUS
 10
53.5474789468
 20
118.4049753395
  0
VERTEX
  8
0
 62
7
  6
CONTINUOUS
 10
53.5827532386
 20
118.3691054481
  0
VERTEX
  8
0
 62
7
  6
CONTINUOUS
 10
53.6110490501
 20
118.3307852728
  0
VERTEX
  8
0
 62
7
  6
CONTINUOUS
 10
53.6317591557
 20
118.2899542722
  0
VERTEX
  8
0
 62
7
  6
CONTINUOUS
 10
53.6433474177
 20
118.2471574496
  0
VERTEX
  8
0
 62
7
  6
CONTINUOUS
 10
53.6451139279
 20
118.2237876512
  0
SEQEND
  0
POLYLINE
  8
0
 62
7
  6
CONTINUOUS
 66
1
 70
0
  0
VERTEX
  8
0
 62
7
  6
CONTINUOUS
 10
97.1343809155
 20
118.4260575496
  0
VERTEX
  8
0
 62
7
  6
CONTINUOUS
 10
96.8403491445
 20
118.4220878286
  0
VERTEX
  8
0
 62
7
  6
CONTINUOUS
 10
96.7604799715
 20
118.4220411622
  0
VERTEX
  8
0
 62
7
  6
CONTINUOUS
 10
96.6813045083
 20
118.4234179269
  0
VERTEX
  8
0
 62
7
  6
CONTINUOUS
 10
96.6030825345
 20
118.4264170363
  0
VERTEX
  8
0
 62
7
  6
CONTINUOUS
 10
96.526011415
 20
118.4312526061
  0
VERTEX
  8
0
 62
7
  6
CONTINUOUS
 10
96.4502982424
 20
118.4381137358
  0
VERTEX
  8
0
 62
7
  6
CONTINUOUS
 10
96.3763709736
 20
118.4471696342
  0
VERTEX
  8
0
 62
7
  6
CONTINUOUS
 10
96.3046757973
 20
118.45858529
  0
VERTEX
  8
0
 62
7
  6
CONTINUOUS
 10
96.2350767752
 20
118.4725412661
  0
VERTEX
  8
0
 62
7
  6
CONTINUOUS
 10
96.1678411892
 20
118.4893090206
  0
VERTEX
  8
0
 62
7
  6
CONTINUOUS
 10
96.1044121482
 20
118.5090111726
  0
VERTEX
  8
0
 62
7
  6
CONTINUOUS
 10
96.0454172558
 20
118.5323625705
  0
VERTEX
  8
0
 62
7
  6
CONTINUOUS
 10
95.9906472508
 20
118.5597654542
  0
VERTEX
  8
0
 62
7
  6
CONTINUOUS
 10
95.9417159834
 20
118.5906145879
  0
VERTEX
  8
0
 62
7
  6
CONTINUOUS
 10
95.8996896206
 20
118.6240785908
  0
VERTEX
  8
0
 62
7
  6
CONTINUOUS
 10
95.8643459459
 20
118.6602137928
  0
VERTEX
  8
0
 62
7
  6
CONTINUOUS
 10
95.8359808025
 20
118.6989770345
  0
VERTEX
  8
0
 62
7
  6
CONTINUOUS
 10
95.8154045048
 20
118.7402506342
  0
VERTEX
  8
0
 62
7
  6
CONTINUOUS
 10
95.8042214777
 20
118.7832479703
  0
VERTEX
  8
0
 62
7
  6
CONTINUOUS
 10
95.8027314654
 20
118.8044868735
  0
SEQEND
  0
LINE
  8
0
 62
7
  6
CONTINUOUS
 10
97.4173950845
 20
118.4284996042
 11
97.1343809155
 21
118.4260575496
  0
LINE
  8
0
 62
7
  6
CONTINUOUS
 10
52.0264744454
 20
118.5999278871
 11
52.3094961821
 21
118.6023438615
  0
LINE
  8
0
 62
7
  6
CONTINUOUS
 10
97.4173950845
 20
118.4284996042
 11
102.9654960251
 21
118.4290559811
  0
LINE
  8
0
 62
7
  6
CONTINUOUS
 10
46.4823863198
 20
118.5993922948
 11
52.0264744454
 21
118.5999278871
  0
LINE
  8
0
 62
7
  6
CONTINUOUS
 10
102.9655281381
 20
118.429055981
 11
102.9665361752
 21
118.428996655
  0
LINE
  8
0
 62
7
  6
CONTINUOUS
 10
107.2583535255
 20
117.3568520517
 11
107.1536279805
 21
117.3727544261
  0
POLYLINE
  8
0
 62
7
  6
CONTINUOUS
 66
1
 70
0
  0
VERTEX
  8
0
 62
7
  6
CONTINUOUS
 10
42.285155682
 20
136.4597549641
  0
VERTEX
  8
0
 62
7
  6
CONTINUOUS
 10
42.6861049038
 20
136.2799716889
  0
VERTEX
  8
0
 62
7
  6
CONTINUOUS
 10
43.1517179446
 20
136.1049071507
  0
VERTEX
  8
0
 62
7
  6
CONTINUOUS
 10
43.653342425
 20
135.9461387488
  0
VERTEX
  8
0
 62
7
  6
CONTINUOUS
 10
44.1866786272
 20
135.803434003
  0
VERTEX
  8
0
 62
7
  6
CONTINUOUS
 10
44.747069649
 20
135.6767457695
  0
VERTEX
  8
0
 62
7
  6
CONTINUOUS
 10
45.3296804545
 20
135.5660582385
  0
VERTEX
  8
0
 62
7
  6
CONTINUOUS
 10
45.9295053814
 20
135.4713293871
  0
VERTEX
  8
0
 62
7
  6
CONTINUOUS
 10
46.4812985028
 20
135.3994515734
  0
SEQEND
  0
POLYLINE
  8
0
 62
7
  6
CONTINUOUS
 66
1
 70
0
  0
VERTEX
  8
0
 62
7
  6
CONTINUOUS
 10
102.9665361752
 20
101.628996655
  0
VERTEX
  8
0
 62
7
  6
CONTINUOUS
 10
102.9751330732
 20
101.6231849546
  0
VERTEX
  8
0
 62
7
  6
CONTINUOUS
 10
102.9839263916
 20
101.6040982016
  0
VERTEX
  8
0
 62
7
  6
CONTINUOUS
 10
102.9906548344
 20
101.5728969545
  0
VERTEX
  8
0
 62
7
  6
CONTINUOUS
 10
102.9949745378
 20
101.5315784087
  0
VERTEX
  8
0
 62
7
  6
CONTINUOUS
 10
102.9967634244
 20
101.4828820625
  0
VERTEX
  8
0
 62
7
  6
CONTINUOUS
 10
102.9962037371
 20
101.4290559811
  0
SEQEND
  0
LINE
  8
0
 62
7
  6
CONTINUOUS
 10
106.7594403869
 20
161.4790272377
 11
107.1626870195
 21
161.6597539209
  0
LINE
  8
0
 62
7
  6
CONTINUOUS
 10
102.9665404309
 20
126.9994515996
 11
102.9655205193
 21
126.9993922977
  0
LINE
  8
0
 62
7
  6
CONTINUOUS
 10
46.4813043685
 20
126.8289966729
 11
46.4823243083
 21
126.8290559781
  0
POLYLINE
  8
0
 62
7
  6
CONTINUOUS
 66
1
 70
0
  0
VERTEX
  8
0
 62
7
  6
CONTINUOUS
 10
52.6069240544
 20
126.8220934761
  0
VERTEX
  8
0
 62
7
  6
CONTINUOUS
 10
52.3134600686
 20
126.8260579526
  0
VERTEX
  8
0
 62
7
  6
CONTINUOUS
 10
52.0304478671
 20
126.8284996964
  0
VERTEX
  8
0
 62
7
  6
CONTINUOUS
 10
46.4823863198
 20
126.8290559811
  0
SEQEND
  0
POLYLINE
  8
0
 62
7
  6
CONTINUOUS
 66
1
 70
0
  0
VERTEX
  8
0
 62
7
  6
CONTINUOUS
 10
96.8445495989
 20
127.0063214169
  0
VERTEX
  8
0
 62
7
  6
CONTINUOUS
 10
97.1383486961
 20
127.0023438618
  0
VERTEX
  8
0
 62
7
  6
CONTINUOUS
 10
97.4213703566
 20
126.9999278873
  0
VERTEX
  8
0
 62
7
  6
CONTINUOUS
 10
102.9654585078
 20
126.9993922948
  0
SEQEND
  0
LINE
  8
DEFAULT_1
 62
2
  6
CENTER
 10
74.7239224138
 20
139.7142241379
 11
74.7239224138
 21
137.3143241379
  0
LINE
  8
0
 62
2
  6
CONTINUOUS
 10
74.7239224138
 20
136.1942241379
 11
74.7239224138
 21
134.4342241379
  0
LINE
  8
DEFAULT_1
 62
2
  6
CENTER
 10
74.7239224138
 20
130.9142241379
 11
74.7239224138
 21
133.3141241379
  0
LINE
  8
0
 62
7
  6
CONTINUOUS
 10
42.6861049038
 20
125.948476587
 11
42.285155682
 21
125.7686933118
  0
POLYLINE
  8
0
 62
7
  6
CONTINUOUS
 66
1
 70
0
  0
VERTEX
  8
0
 62
7
  6
CONTINUOUS
 10
42.1894986375
 20
125.7568531953
  0
VERTEX
  8
0
 62
7
  6
CONTINUOUS
 10
42.0207035841
 20
125.7289665496
  0
VERTEX
  8
0
 62
7
  6
CONTINUOUS
 10
41.8561433678
 20
125.6981226481
  0
VERTEX
  8
0
 62
7
  6
CONTINUOUS
 10
41.7127050912
 20
125.6672388973
  0
VERTEX
  8
0
 62
7
  6
CONTINUOUS
 10
41.5870267907
 20
125.6359008508
  0
VERTEX
  8
0
 62
7
  6
CONTINUOUS
 10
41.4757131204
 20
125.6033994654
  0
VERTEX
  8
0
 62
7
  6
CONTINUOUS
 10
41.3751034989
 20
125.5684871626
  0
VERTEX
  8
0
 62
7
  6
CONTINUOUS
 10
41.2811386278
 20
125.5289505354
  0
VERTEX
  8
0
 62
7
  6
CONTINUOUS
 10
41.1899428468
 20
125.4811619441
  0
VERTEX
  8
0
 62
7
  6
CONTINUOUS
 10
41.0986306704
 20
125.4194529009
  0
VERTEX
  8
0
 62
7
  6
CONTINUOUS
 10
41.0075829165
 20
125.3363558335
  0
VERTEX
  8
0
 62
7
  6
CONTINUOUS
 10
40.9241133574
 20
125.2265505684
  0
VERTEX
  8
0
 62
7
  6
CONTINUOUS
 10
40.8608030502
 20
125.0923967863
  0
VERTEX
  8
0
 62
7
  6
CONTINUOUS
 10
40.8279595748
 20
124.945150531
  0
VERTEX
  8
0
 62
7
  6
CONTINUOUS
 10
40.8239225208
 20
124.8703948254
  0
SEQEND
  0
LINE
  8
0
 62
7
  6
CONTINUOUS
 10
42.2942177742
 20
125.7727567007
 11
42.1894904322
 21
125.7568519161
  0
POLYLINE
  8
0
 62
7
  6
CONTINUOUS
 66
1
 70
0
  0
VERTEX
  8
0
 62
7
  6
CONTINUOUS
 10
46.4812985028
 20
126.8289967025
  0
VERTEX
  8
0
 62
7
  6
CONTINUOUS
 10
45.9295053814
 20
126.7571188887
  0
VERTEX
  8
0
 62
7
  6
CONTINUOUS
 10
45.3296804545
 20
126.6623900374
  0
VERTEX
  8
0
 62
7
  6
CONTINUOUS
 10
44.747069649
 20
126.5517025064
  0
VERTEX
  8
0
 62
7
  6
CONTINUOUS
 10
44.1866786272
 20
126.4250142728
  0
VERTEX
  8
0
 62
7
  6
CONTINUOUS
 10
43.653342425
 20
126.282309527
  0
VERTEX
  8
0
 62
7
  6
CONTINUOUS
 10
43.1517179446
 20
126.1235411251
  0
VERTEX
  8
0
 62
7
  6
CONTINUOUS
 10
42.6861049038
 20
125.948476587
  0
SEQEND
  0
POLYLINE
  8
0
 62
7
  6
CONTINUOUS
 66
1
 70
0
  0
VERTEX
  8
0
 62
7
  6
CONTINUOUS
 10
52.3094961821
 20
135.4023438615
  0
VERTEX
  8
0
 62
7
  6
CONTINUOUS
 10
52.602818301
 20
135.4063168385
  0
VERTEX
  8
0
 62
7
  6
CONTINUOUS
 10
52.6824118441
 20
135.4064431619
  0
VERTEX
  8
0
 62
7
  6
CONTINUOUS
 10
52.7614745053
 20
135.4051644825
  0
VERTEX
  8
0
 62
7
  6
CONTINUOUS
 10
52.8397262295
 20
135.4022780057
  0
VERTEX
  8
0
 62
7
  6
CONTINUOUS
 10
52.9169444735
 20
135.3975626037
  0
VERTEX
  8
0
 62
7
  6
CONTINUOUS
 10
52.9929095224
 20
135.3908196831
  0
VERTEX
  8
0
 62
7
  6
CONTINUOUS
 10
53.0671886671
 20
135.381873337
  0
VERTEX
  8
0
 62
7
  6
CONTINUOUS
 10
53.1392736654
 20
135.3705538197
  0
VERTEX
  8
0
 62
7
  6
CONTINUOUS
 10
53.2093783343
 20
135.3566624205
  0
VERTEX
  8
0
 62
7
  6
CONTINUOUS
 10
53.2770284864
 20
135.3399625447
  0
VERTEX
  8
0
 62
7
  6
CONTINUOUS
 10
53.3410966707
 20
135.3202480028
  0
VERTEX
  8
0
 62
7
  6
CONTINUOUS
 10
53.4005864958
 20
135.2969013252
  0
VERTEX
  8
0
 62
7
  6
CONTINUOUS
 10
53.4558554446
 20
135.269432902
  0
VERTEX
  8
0
 62
7
  6
CONTINUOUS
 10
53.5052999739
 20
135.2384180255
  0
VERTEX
  8
0
 62
7
  6
CONTINUOUS
 10
53.5474789468
 20
135.2049753395
  0
VERTEX
  8
0
 62
7
  6
CONTINUOUS
 10
53.5827532386
 20
135.1691054481
  0
VERTEX
  8
0
 62
7
  6
CONTINUOUS
 10
53.6110490501
 20
135.1307852728
  0
VERTEX
  8
0
 62
7
  6
CONTINUOUS
 10
53.6317591557
 20
135.0899542722
  0
VERTEX
  8
0
 62
7
  6
CONTINUOUS
 10
53.6433474177
 20
135.0471574496
  0
VERTEX
  8
0
 62
7
  6
CONTINUOUS
 10
53.6451139279
 20
135.0237876512
  0
SEQEND
  0
POLYLINE
  8
0
 62
7
  6
CONTINUOUS
 66
1
 70
0
  0
VERTEX
  8
0
 62
7
  6
CONTINUOUS
 10
97.1343809155
 20
135.2260575496
  0
VERTEX
  8
0
 62
7
  6
CONTINUOUS
 10
96.8403491445
 20
135.2220878286
  0
VERTEX
  8
0
 62
7
  6
CONTINUOUS
 10
96.7604799715
 20
135.2220411622
  0
VERTEX
  8
0
 62
7
  6
CONTINUOUS
 10
96.6813045083
 20
135.2234179269
  0
VERTEX
  8
0
 62
7
  6
CONTINUOUS
 10
96.6030825345
 20
135.2264170363
  0
VERTEX
  8
0
 62
7
  6
CONTINUOUS
 10
96.526011415
 20
135.2312526061
  0
VERTEX
  8
0
 62
7
  6
CONTINUOUS
 10
96.4502982424
 20
135.2381137358
  0
VERTEX
  8
0
 62
7
  6
CONTINUOUS
 10
96.3763709736
 20
135.2471696342
  0
VERTEX
  8
0
 62
7
  6
CONTINUOUS
 10
96.3046757973
 20
135.25858529
  0
VERTEX
  8
0
 62
7
  6
CONTINUOUS
 10
96.2350767752
 20
135.2725412661
  0
VERTEX
  8
0
 62
7
  6
CONTINUOUS
 10
96.1678411892
 20
135.2893090206
  0
VERTEX
  8
0
 62
7
  6
CONTINUOUS
 10
96.1044121482
 20
135.3090111726
  0
VERTEX
  8
0
 62
7
  6
CONTINUOUS
 10
96.0454172558
 20
135.3323625705
  0
VERTEX
  8
0
 62
7
  6
CONTINUOUS
 10
95.9906472508
 20
135.3597654542
  0
VERTEX
  8
0
 62
7
  6
CONTINUOUS
 10
95.9417159834
 20
135.3906145879
  0
VERTEX
  8
0
 62
7
  6
CONTINUOUS
 10
95.8996896206
 20
135.4240785908
  0
VERTEX
  8
0
 62
7
  6
CONTINUOUS
 10
95.8643459459
 20
135.4602137928
  0
VERTEX
  8
0
 62
7
  6
CONTINUOUS
 10
95.8359808025
 20
135.4989770345
  0
VERTEX
  8
0
 62
7
  6
CONTINUOUS
 10
95.8154045048
 20
135.5402506342
  0
VERTEX
  8
0
 62
7
  6
CONTINUOUS
 10
95.8042214777
 20
135.5832479703
  0
VERTEX
  8
0
 62
7
  6
CONTINUOUS
 10
95.8027314654
 20
135.6044868735
  0
SEQEND
  0
LINE
  8
0
 62
7
  6
CONTINUOUS
 10
97.4173950845
 20
135.2284996042
 11
97.1343809155
 21
135.2260575496
  0
LINE
  8
0
 62
7
  6
CONTINUOUS
 10
52.0264744454
 20
135.3999278871
 11
52.3094961821
 21
135.4023438615
  0
LINE
  8
0
 62
7
  6
CONTINUOUS
 10
97.4173950845
 20
135.2284996042
 11
102.9654960251
 21
135.2290559811
  0
LINE
  8
DEFAULT_1
 62
2
  6
CENTER
 10
79.1239224138
 20
135.3142241379
 11
76.7240224138
 21
135.3142241379
  0
LINE
  8
0
 62
2
  6
CONTINUOUS
 10
75.6039224138
 20
135.3142241379
 11
73.8439224138
 21
135.3142241379
  0
LINE
  8
DEFAULT_1
 62
2
  6
CENTER
 10
70.3239224138
 20
135.3142241379
 11
72.7238224138
 21
135.3142241379
  0
LINE
  8
0
 62
7
  6
CONTINUOUS
 10
46.4823863198
 20
135.3993922948
 11
52.0264744454
 21
135.3999278871
  0
LINE
  8
0
 62
7
  6
CONTINUOUS
 10
46.4813043685
 20
135.399451603
 11
46.4823243083
 21
135.3993922977
  0
LINE
  8
0
 62
7
  6
CONTINUOUS
 10
42.1894904322
 20
136.4715963597
 11
42.2942177742
 21
136.4556915752
  0
POLYLINE
  8
0
 62
7
  6
CONTINUOUS
 66
1
 70
0
  0
VERTEX
  8
0
 62
7
  6
CONTINUOUS
 10
107.1626870195
 20
117.3686943549
  0
VERTEX
  8
0
 62
7
  6
CONTINUOUS
 10
106.75944028
 20
117.5494210821
  0
VERTEX
  8
0
 62
7
  6
CONTINUOUS
 10
106.2935895488
 20
117.7244148999
  0
VERTEX
  8
0
 62
7
  6
CONTINUOUS
 10
105.7917390287
 20
117.8831128529
  0
VERTEX
  8
0
 62
7
  6
CONTINUOUS
 10
105.2581911953
 20
118.0257456286
  0
VERTEX
  8
0
 62
7
  6
CONTINUOUS
 10
104.6976053644
 20
118.1523595284
  0
VERTEX
  8
0
 62
7
  6
CONTINUOUS
 10
104.1148182295
 20
118.2629701393
  0
VERTEX
  8
0
 62
7
  6
CONTINUOUS
 10
103.5148366411
 20
118.357619599
  0
VERTEX
  8
0
 62
7
  6
CONTINUOUS
 10
102.9665462966
 20
118.4289967058
  0
SEQEND
  0
LINE
  8
0
 62
7
  6
CONTINUOUS
 10
106.7594403869
 20
144.6790272377
 11
107.1626870195
 21
144.8597539209
  0
POLYLINE
  8
0
 62
7
  6
CONTINUOUS
 66
1
 70
0
  0
VERTEX
  8
0
 62
7
  6
CONTINUOUS
 10
107.258345438
 20
144.8715949633
  0
VERTEX
  8
0
 62
7
  6
CONTINUOUS
 10
107.4258580072
 20
144.899256775
  0
VERTEX
  8
0
 62
7
  6
CONTINUOUS
 10
107.5908842254
 20
144.9301615729
  0
VERTEX
  8
0
 62
7
  6
CONTINUOUS
 10
107.7347119266
 20
144.9611103595
  0
VERTEX
  8
0
 62
7
  6
CONTINUOUS
 10
107.8607145497
 20
144.9925195467
  0
VERTEX
  8
0
 62
7
  6
CONTINUOUS
 10
107.9723013888
 20
145.0251026878
  0
VERTEX
  8
0
 62
7
  6
CONTINUOUS
 10
108.0731527076
 20
145.0601176965
  0
VERTEX
  8
0
 62
7
  6
CONTINUOUS
 10
108.1673561741
 20
145.0998011949
  0
VERTEX
  8
0
 62
7
  6
CONTINUOUS
 10
108.2588200999
 20
145.1478283127
  0
VERTEX
  8
0
 62
7
  6
CONTINUOUS
 10
108.3504273226
 20
145.2099379634
  0
VERTEX
  8
0
 62
7
  6
CONTINUOUS
 10
108.4417181902
 20
145.2936668883
  0
VERTEX
  8
0
 62
7
  6
CONTINUOUS
 10
108.5252060978
 20
145.4043122994
  0
VERTEX
  8
0
 62
7
  6
CONTINUOUS
 10
108.5881498212
 20
145.5393019649
  0
VERTEX
  8
0
 62
7
  6
CONTINUOUS
 10
108.6202919771
 20
145.6871367542
  0
VERTEX
  8
0
 62
7
  6
CONTINUOUS
 10
108.62392198
 20
145.7572361352
  0
SEQEND
  0
LINE
  8
0
 62
7
  6
CONTINUOUS
 10
107.1536279808
 20
144.8556938498
 11
107.2583535255
 21
144.8715962241
  0
POLYLINE
  8
0
 62
7
  6
CONTINUOUS
 66
1
 70
0
  0
VERTEX
  8
0
 62
7
  6
CONTINUOUS
 10
102.9665462966
 20
143.7994515701
  0
VERTEX
  8
0
 62
7
  6
CONTINUOUS
 10
103.514837679
 20
143.8708288251
  0
VERTEX
  8
0
 62
7
  6
CONTINUOUS
 10
104.1148190944
 20
143.9654782865
  0
VERTEX
  8
0
 62
7
  6
CONTINUOUS
 10
104.6976060589
 20
144.0760888913
  0
VERTEX
  8
0
 62
7
  6
CONTINUOUS
 10
105.2581917252
 20
144.2027027775
  0
VERTEX
  8
0
 62
7
  6
CONTINUOUS
 10
105.7917394035
 20
144.3453355319
  0
VERTEX
  8
0
 62
7
  6
CONTINUOUS
 10
106.2935897816
 20
144.5040334561
  0
VERTEX
  8
0
 62
7
  6
CONTINUOUS
 10
106.7594403869
 20
144.6790272377
  0
SEQEND
  0
LINE
  8
0
 62
7
  6
CONTINUOUS
 10
102.9665404309
 20
143.7994515996
 11
102.9655205193
 21
143.7993922977
  0
LINE
  8
0
 62
7
  6
CONTINUOUS
 10
102.9655281381
 20
135.229055981
 11
102.9665361752
 21
135.228996655
  0
LINE
  8
0
 62
7
  6
CONTINUOUS
 10
107.2583535255
 20
134.1568520517
 11
107.1536279805
 21
134.1727544261
  0
POLYLINE
  8
0
 62
7
  6
CONTINUOUS
 66
1
 70
0
  0
VERTEX
  8
0
 62
7
  6
CONTINUOUS
 10
42.285155682
 20
153.2597549641
  0
VERTEX
  8
0
 62
7
  6
CONTINUOUS
 10
42.6861049038
 20
153.0799716889
  0
VERTEX
  8
0
 62
7
  6
CONTINUOUS
 10
43.1517179446
 20
152.9049071507
  0
VERTEX
  8
0
 62
7
  6
CONTINUOUS
 10
43.653342425
 20
152.7461387488
  0
VERTEX
  8
0
 62
7
  6
CONTINUOUS
 10
44.1866786272
 20
152.603434003
  0
VERTEX
  8
0
 62
7
  6
CONTINUOUS
 10
44.747069649
 20
152.4767457695
  0
VERTEX
  8
0
 62
7
  6
CONTINUOUS
 10
45.3296804545
 20
152.3660582385
  0
VERTEX
  8
0
 62
7
  6
CONTINUOUS
 10
45.9295053814
 20
152.2713293871
  0
VERTEX
  8
0
 62
7
  6
CONTINUOUS
 10
46.4812985028
 20
152.1994515734
  0
SEQEND
  0
POLYLINE
  8
0
 62
7
  6
CONTINUOUS
 66
1
 70
0
  0
VERTEX
  8
0
 62
7
  6
CONTINUOUS
 10
102.9665361752
 20
118.428996655
  0
VERTEX
  8
0
 62
7
  6
CONTINUOUS
 10
102.9751330732
 20
118.4231849546
  0
VERTEX
  8
0
 62
7
  6
CONTINUOUS
 10
102.9839263916
 20
118.4040982016
  0
VERTEX
  8
0
 62
7
  6
CONTINUOUS
 10
102.9906548344
 20
118.3728969545
  0
VERTEX
  8
0
 62
7
  6
CONTINUOUS
 10
102.9949745378
 20
118.3315784087
  0
VERTEX
  8
0
 62
7
  6
CONTINUOUS
 10
102.9967634244
 20
118.2828820625
  0
VERTEX
  8
0
 62
7
  6
CONTINUOUS
 10
102.9962037371
 20
118.2290559811
  0
SEQEND
  0
LINE
  8
0
 62
7
  6
CONTINUOUS
 10
42.6861049038
 20
109.148476587
 11
42.285155682
 21
108.9686933118
  0
POLYLINE
  8
0
 62
7
  6
CONTINUOUS
 66
1
 70
0
  0
VERTEX
  8
0
 62
7
  6
CONTINUOUS
 10
42.1894986375
 20
142.5568531953
  0
VERTEX
  8
0
 62
7
  6
CONTINUOUS
 10
42.0207035841
 20
142.5289665496
  0
VERTEX
  8
0
 62
7
  6
CONTINUOUS
 10
41.8561433678
 20
142.4981226481
  0
VERTEX
  8
0
 62
7
  6
CONTINUOUS
 10
41.7127050912
 20
142.4672388973
  0
VERTEX
  8
0
 62
7
  6
CONTINUOUS
 10
41.5870267907
 20
142.4359008508
  0
VERTEX
  8
0
 62
7
  6
CONTINUOUS
 10
41.4757131204
 20
142.4033994654
  0
VERTEX
  8
0
 62
7
  6
CONTINUOUS
 10
41.3751034989
 20
142.3684871626
  0
VERTEX
  8
0
 62
7
  6
CONTINUOUS
 10
41.2811386278
 20
142.3289505354
  0
VERTEX
  8
0
 62
7
  6
CONTINUOUS
 10
41.1899428468
 20
142.2811619441
  0
VERTEX
  8
0
 62
7
  6
CONTINUOUS
 10
41.0986306704
 20
142.2194529009
  0
VERTEX
  8
0
 62
7
  6
CONTINUOUS
 10
41.0075829165
 20
142.1363558335
  0
VERTEX
  8
0
 62
7
  6
CONTINUOUS
 10
40.9241133574
 20
142.0265505684
  0
VERTEX
  8
0
 62
7
  6
CONTINUOUS
 10
40.8608030502
 20
141.8923967863
  0
VERTEX
  8
0
 62
7
  6
CONTINUOUS
 10
40.8279595748
 20
141.745150531
  0
VERTEX
  8
0
 62
7
  6
CONTINUOUS
 10
40.8239225208
 20
141.6703948254
  0
SEQEND
  0
LINE
  8
0
 62
7
  6
CONTINUOUS
 10
42.2942177742
 20
142.5727567007
 11
42.1894904322
 21
142.5568519161
  0
POLYLINE
  8
0
 62
7
  6
CONTINUOUS
 66
1
 70
0
  0
VERTEX
  8
0
 62
7
  6
CONTINUOUS
 10
46.4812985028
 20
143.6289967025
  0
VERTEX
  8
0
 62
7
  6
CONTINUOUS
 10
45.9295053814
 20
143.5571188887
  0
VERTEX
  8
0
 62
7
  6
CONTINUOUS
 10
45.3296804545
 20
143.4623900374
  0
VERTEX
  8
0
 62
7
  6
CONTINUOUS
 10
44.747069649
 20
143.3517025064
  0
VERTEX
  8
0
 62
7
  6
CONTINUOUS
 10
44.1866786272
 20
143.2250142728
  0
VERTEX
  8
0
 62
7
  6
CONTINUOUS
 10
43.653342425
 20
143.082309527
  0
VERTEX
  8
0
 62
7
  6
CONTINUOUS
 10
43.1517179446
 20
142.9235411251
  0
VERTEX
  8
0
 62
7
  6
CONTINUOUS
 10
42.6861049038
 20
142.748476587
  0
SEQEND
  0
LINE
  8
0
 62
7
  6
CONTINUOUS
 10
46.4813043685
 20
143.6289966729
 11
46.4823243083
 21
143.6290559781
  0
POLYLINE
  8
0
 62
7
  6
CONTINUOUS
 66
1
 70
0
  0
VERTEX
  8
0
 62
7
  6
CONTINUOUS
 10
52.6069240544
 20
143.6220934761
  0
VERTEX
  8
0
 62
7
  6
CONTINUOUS
 10
52.3134600686
 20
143.6260579526
  0
VERTEX
  8
0
 62
7
  6
CONTINUOUS
 10
52.0304478671
 20
143.6284996964
  0
VERTEX
  8
0
 62
7
  6
CONTINUOUS
 10
46.4823863198
 20
143.6290559811
  0
SEQEND
  0
POLYLINE
  8
0
 62
7
  6
CONTINUOUS
 66
1
 70
0
  0
VERTEX
  8
0
 62
7
  6
CONTINUOUS
 10
96.8445495989
 20
143.8063214169
  0
VERTEX
  8
0
 62
7
  6
CONTINUOUS
 10
97.1383486961
 20
143.8023438618
  0
VERTEX
  8
0
 62
7
  6
CONTINUOUS
 10
97.4213703566
 20
143.7999278873
  0
VERTEX
  8
0
 62
7
  6
CONTINUOUS
 10
102.9654585078
 20
143.7993922948
  0
SEQEND
  0
LINE
  8
0
 62
7
  6
CONTINUOUS
 10
42.1894904322
 20
153.2715963597
 11
42.2942177742
 21
153.2556915752
  0
POLYLINE
  8
0
 62
7
  6
CONTINUOUS
 66
1
 70
0
  0
VERTEX
  8
0
 62
7
  6
CONTINUOUS
 10
107.1626870195
 20
134.1686943549
  0
VERTEX
  8
0
 62
7
  6
CONTINUOUS
 10
106.75944028
 20
134.3494210821
  0
VERTEX
  8
0
 62
7
  6
CONTINUOUS
 10
106.2935895488
 20
134.5244148999
  0
VERTEX
  8
0
 62
7
  6
CONTINUOUS
 10
105.7917390287
 20
134.6831128529
  0
VERTEX
  8
0
 62
7
  6
CONTINUOUS
 10
105.2581911953
 20
134.8257456286
  0
VERTEX
  8
0
 62
7
  6
CONTINUOUS
 10
104.6976053644
 20
134.9523595284
  0
VERTEX
  8
0
 62
7
  6
CONTINUOUS
 10
104.1148182295
 20
135.0629701393
  0
VERTEX
  8
0
 62
7
  6
CONTINUOUS
 10
103.5148366411
 20
135.157619599
  0
VERTEX
  8
0
 62
7
  6
CONTINUOUS
 10
102.9665462966
 20
135.2289967058
  0
SEQEND
  0
POLYLINE
  8
0
 62
7
  6
CONTINUOUS
 66
1
 70
0
  0
VERTEX
  8
0
 62
7
  6
CONTINUOUS
 10
95.8027309099
 20
193.8237883513
  0
VERTEX
  8
0
 62
7
  6
CONTINUOUS
 10
95.8044653175
 20
193.846938568
  0
VERTEX
  8
0
 62
7
  6
CONTINUOUS
 10
95.8160691439
 20
193.8899131329
  0
VERTEX
  8
0
 62
7
  6
CONTINUOUS
 10
95.836975394
 20
193.9310734292
  0
VERTEX
  8
0
 62
7
  6
CONTINUOUS
 10
95.8655920724
 20
193.969687311
  0
VERTEX
  8
0
 62
7
  6
CONTINUOUS
 10
95.9011534768
 20
194.0056789988
  0
VERTEX
  8
0
 62
7
  6
CONTINUOUS
 10
95.9433964363
 20
194.0390176681
  0
VERTEX
  8
0
 62
7
  6
CONTINUOUS
 10
95.9925601669
 20
194.0697519978
  0
VERTEX
  8
0
 62
7
  6
CONTINUOUS
 10
96.0475539927
 20
194.0970321851
  0
VERTEX
  8
0
 62
7
  6
CONTINUOUS
 10
96.1067704085
 20
194.1202558127
  0
VERTEX
  8
0
 62
7
  6
CONTINUOUS
 10
96.1704828537
 20
194.1398641904
  0
VERTEX
  8
0
 62
7
  6
CONTINUOUS
 10
96.2379024315
 20
194.1565370091
  0
VERTEX
  8
0
 62
7
  6
CONTINUOUS
 10
96.3076996934
 20
194.1704006351
  0
VERTEX
  8
0
 62
7
  6
CONTINUOUS
 10
96.3795715696
 20
194.1817234467
  0
VERTEX
  8
0
 62
7
  6
CONTINUOUS
 10
96.4536890058
 20
194.190690033
  0
VERTEX
  8
0
 62
7
  6
CONTINUOUS
 10
96.5295812884
 20
194.1974641794
  0
VERTEX
  8
0
 62
7
  6
CONTINUOUS
 10
96.6068240579
 20
194.202215104
  0
VERTEX
  8
0
 62
7
  6
CONTINUOUS
 10
96.6852134003
 20
194.2051342673
  0
VERTEX
  8
0
 62
7
  6
CONTINUOUS
 10
96.7645431671
 20
194.206436911
  0
VERTEX
  8
0
 62
7
  6
CONTINUOUS
 10
96.8445495989
 20
194.2063214169
  0
SEQEND
  0
POLYLINE
  8
0
 62
7
  6
CONTINUOUS
 66
1
 70
0
  0
VERTEX
  8
0
 62
7
  6
CONTINUOUS
 10
95.8027309099
 20
177.0237883513
  0
VERTEX
  8
0
 62
7
  6
CONTINUOUS
 10
95.8044653175
 20
177.046938568
  0
VERTEX
  8
0
 62
7
  6
CONTINUOUS
 10
95.8160691439
 20
177.0899131329
  0
VERTEX
  8
0
 62
7
  6
CONTINUOUS
 10
95.836975394
 20
177.1310734292
  0
VERTEX
  8
0
 62
7
  6
CONTINUOUS
 10
95.8655920724
 20
177.169687311
  0
VERTEX
  8
0
 62
7
  6
CONTINUOUS
 10
95.9011534768
 20
177.2056789988
  0
VERTEX
  8
0
 62
7
  6
CONTINUOUS
 10
95.9433964363
 20
177.2390176681
  0
VERTEX
  8
0
 62
7
  6
CONTINUOUS
 10
95.9925601669
 20
177.2697519978
  0
VERTEX
  8
0
 62
7
  6
CONTINUOUS
 10
96.0475539927
 20
177.2970321851
  0
VERTEX
  8
0
 62
7
  6
CONTINUOUS
 10
96.1067704085
 20
177.3202558127
  0
VERTEX
  8
0
 62
7
  6
CONTINUOUS
 10
96.1704828537
 20
177.3398641904
  0
VERTEX
  8
0
 62
7
  6
CONTINUOUS
 10
96.2379024315
 20
177.3565370091
  0
VERTEX
  8
0
 62
7
  6
CONTINUOUS
 10
96.3076996934
 20
177.3704006351
  0
VERTEX
  8
0
 62
7
  6
CONTINUOUS
 10
96.3795715696
 20
177.3817234467
  0
VERTEX
  8
0
 62
7
  6
CONTINUOUS
 10
96.4536890058
 20
177.390690033
  0
VERTEX
  8
0
 62
7
  6
CONTINUOUS
 10
96.5295812884
 20
177.3974641794
  0
VERTEX
  8
0
 62
7
  6
CONTINUOUS
 10
96.6068240579
 20
177.402215104
  0
VERTEX
  8
0
 62
7
  6
CONTINUOUS
 10
96.6852134003
 20
177.4051342673
  0
VERTEX
  8
0
 62
7
  6
CONTINUOUS
 10
96.7645431671
 20
177.406436911
  0
VERTEX
  8
0
 62
7
  6
CONTINUOUS
 10
96.8445495989
 20
177.4063214169
  0
SEQEND
  0
POLYLINE
  8
0
 62
7
  6
CONTINUOUS
 66
1
 70
0
  0
VERTEX
  8
0
 62
7
  6
CONTINUOUS
 10
95.8027309099
 20
160.2237883513
  0
VERTEX
  8
0
 62
7
  6
CONTINUOUS
 10
95.8044653175
 20
160.246938568
  0
VERTEX
  8
0
 62
7
  6
CONTINUOUS
 10
95.8160691439
 20
160.2899131329
  0
VERTEX
  8
0
 62
7
  6
CONTINUOUS
 10
95.836975394
 20
160.3310734292
  0
VERTEX
  8
0
 62
7
  6
CONTINUOUS
 10
95.8655920724
 20
160.369687311
  0
VERTEX
  8
0
 62
7
  6
CONTINUOUS
 10
95.9011534768
 20
160.4056789988
  0
VERTEX
  8
0
 62
7
  6
CONTINUOUS
 10
95.9433964363
 20
160.4390176681
  0
VERTEX
  8
0
 62
7
  6
CONTINUOUS
 10
95.9925601669
 20
160.4697519978
  0
VERTEX
  8
0
 62
7
  6
CONTINUOUS
 10
96.0475539927
 20
160.4970321851
  0
VERTEX
  8
0
 62
7
  6
CONTINUOUS
 10
96.1067704085
 20
160.5202558127
  0
VERTEX
  8
0
 62
7
  6
CONTINUOUS
 10
96.1704828537
 20
160.5398641904
  0
VERTEX
  8
0
 62
7
  6
CONTINUOUS
 10
96.2379024315
 20
160.5565370091
  0
VERTEX
  8
0
 62
7
  6
CONTINUOUS
 10
96.3076996934
 20
160.5704006351
  0
VERTEX
  8
0
 62
7
  6
CONTINUOUS
 10
96.3795715696
 20
160.5817234467
  0
VERTEX
  8
0
 62
7
  6
CONTINUOUS
 10
96.4536890058
 20
160.590690033
  0
VERTEX
  8
0
 62
7
  6
CONTINUOUS
 10
96.5295812884
 20
160.5974641794
  0
VERTEX
  8
0
 62
7
  6
CONTINUOUS
 10
96.6068240579
 20
160.602215104
  0
VERTEX
  8
0
 62
7
  6
CONTINUOUS
 10
96.6852134003
 20
160.6051342673
  0
VERTEX
  8
0
 62
7
  6
CONTINUOUS
 10
96.7645431671
 20
160.606436911
  0
VERTEX
  8
0
 62
7
  6
CONTINUOUS
 10
96.8445495989
 20
160.6063214169
  0
SEQEND
  0
POLYLINE
  8
0
 62
7
  6
CONTINUOUS
 66
1
 70
0
  0
VERTEX
  8
0
 62
7
  6
CONTINUOUS
 10
52.3094961821
 20
152.2023438615
  0
VERTEX
  8
0
 62
7
  6
CONTINUOUS
 10
52.602818301
 20
152.2063168385
  0
VERTEX
  8
0
 62
7
  6
CONTINUOUS
 10
52.6824118441
 20
152.2064431619
  0
VERTEX
  8
0
 62
7
  6
CONTINUOUS
 10
52.7614745053
 20
152.2051644825
  0
VERTEX
  8
0
 62
7
  6
CONTINUOUS
 10
52.8397262295
 20
152.2022780057
  0
VERTEX
  8
0
 62
7
  6
CONTINUOUS
 10
52.9169444735
 20
152.1975626037
  0
VERTEX
  8
0
 62
7
  6
CONTINUOUS
 10
52.9929095224
 20
152.1908196831
  0
VERTEX
  8
0
 62
7
  6
CONTINUOUS
 10
53.0671886671
 20
152.181873337
  0
VERTEX
  8
0
 62
7
  6
CONTINUOUS
 10
53.1392736654
 20
152.1705538197
  0
VERTEX
  8
0
 62
7
  6
CONTINUOUS
 10
53.2093783343
 20
152.1566624205
  0
VERTEX
  8
0
 62
7
  6
CONTINUOUS
 10
53.2770284864
 20
152.1399625447
  0
VERTEX
  8
0
 62
7
  6
CONTINUOUS
 10
53.3410966707
 20
152.1202480028
  0
VERTEX
  8
0
 62
7
  6
CONTINUOUS
 10
53.4005864958
 20
152.0969013252
  0
VERTEX
  8
0
 62
7
  6
CONTINUOUS
 10
53.4558554446
 20
152.069432902
  0
VERTEX
  8
0
 62
7
  6
CONTINUOUS
 10
53.5052999739
 20
152.0384180255
  0
VERTEX
  8
0
 62
7
  6
CONTINUOUS
 10
53.5474789468
 20
152.0049753395
  0
VERTEX
  8
0
 62
7
  6
CONTINUOUS
 10
53.5827532386
 20
151.9691054481
  0
VERTEX
  8
0
 62
7
  6
CONTINUOUS
 10
53.6110490501
 20
151.9307852728
  0
VERTEX
  8
0
 62
7
  6
CONTINUOUS
 10
53.6317591557
 20
151.8899542722
  0
VERTEX
  8
0
 62
7
  6
CONTINUOUS
 10
53.6433474177
 20
151.8471574496
  0
VERTEX
  8
0
 62
7
  6
CONTINUOUS
 10
53.6451139279
 20
151.8237876512
  0
SEQEND
  0
POLYLINE
  8
0
 62
7
  6
CONTINUOUS
 66
1
 70
0
  0
VERTEX
  8
0
 62
7
  6
CONTINUOUS
 10
97.1343809155
 20
152.0260575496
  0
VERTEX
  8
0
 62
7
  6
CONTINUOUS
 10
96.8403491445
 20
152.0220878286
  0
VERTEX
  8
0
 62
7
  6
CONTINUOUS
 10
96.7604799715
 20
152.0220411622
  0
VERTEX
  8
0
 62
7
  6
CONTINUOUS
 10
96.6813045083
 20
152.0234179269
  0
VERTEX
  8
0
 62
7
  6
CONTINUOUS
 10
96.6030825345
 20
152.0264170363
  0
VERTEX
  8
0
 62
7
  6
CONTINUOUS
 10
96.526011415
 20
152.0312526061
  0
VERTEX
  8
0
 62
7
  6
CONTINUOUS
 10
96.4502982424
 20
152.0381137358
  0
VERTEX
  8
0
 62
7
  6
CONTINUOUS
 10
96.3763709736
 20
152.0471696342
  0
VERTEX
  8
0
 62
7
  6
CONTINUOUS
 10
96.3046757973
 20
152.05858529
  0
VERTEX
  8
0
 62
7
  6
CONTINUOUS
 10
96.2350767752
 20
152.0725412661
  0
VERTEX
  8
0
 62
7
  6
CONTINUOUS
 10
96.1678411892
 20
152.0893090206
  0
VERTEX
  8
0
 62
7
  6
CONTINUOUS
 10
96.1044121482
 20
152.1090111726
  0
VERTEX
  8
0
 62
7
  6
CONTINUOUS
 10
96.0454172558
 20
152.1323625705
  0
VERTEX
  8
0
 62
7
  6
CONTINUOUS
 10
95.9906472508
 20
152.1597654542
  0
VERTEX
  8
0
 62
7
  6
CONTINUOUS
 10
95.9417159834
 20
152.1906145879
  0
VERTEX
  8
0
 62
7
  6
CONTINUOUS
 10
95.8996896206
 20
152.2240785908
  0
VERTEX
  8
0
 62
7
  6
CONTINUOUS
 10
95.8643459459
 20
152.2602137928
  0
VERTEX
  8
0
 62
7
  6
CONTINUOUS
 10
95.8359808025
 20
152.2989770345
  0
VERTEX
  8
0
 62
7
  6
CONTINUOUS
 10
95.8154045048
 20
152.3402506342
  0
VERTEX
  8
0
 62
7
  6
CONTINUOUS
 10
95.8042214777
 20
152.3832479703
  0
VERTEX
  8
0
 62
7
  6
CONTINUOUS
 10
95.8027314654
 20
152.4044868735
  0
SEQEND
  0
LINE
  8
0
 62
7
  6
CONTINUOUS
 10
97.4173950845
 20
152.0284996042
 11
97.1343809155
 21
152.0260575496
  0
LINE
  8
0
 62
7
  6
CONTINUOUS
 10
52.0264744454
 20
152.1999278871
 11
52.3094961821
 21
152.2023438615
  0
LINE
  8
0
 62
7
  6
CONTINUOUS
 10
97.4173950845
 20
152.0284996042
 11
102.9654960251
 21
152.0290559811
  0
LINE
  8
0
 62
7
  6
CONTINUOUS
 10
46.4823863198
 20
152.1993922948
 11
52.0264744454
 21
152.1999278871
  0
LINE
  8
0
 62
7
  6
CONTINUOUS
 10
46.4813043685
 20
152.199451603
 11
46.4823243083
 21
152.1993922977
  0
LINE
  8
0
 62
7
  6
CONTINUOUS
 10
102.9655281381
 20
152.029055981
 11
102.9665361752
 21
152.028996655
  0
POLYLINE
  8
0
 62
7
  6
CONTINUOUS
 66
1
 70
0
  0
VERTEX
  8
0
 62
7
  6
CONTINUOUS
 10
42.285155682
 20
170.0597549641
  0
VERTEX
  8
0
 62
7
  6
CONTINUOUS
 10
42.6861049038
 20
169.8799716889
  0
VERTEX
  8
0
 62
7
  6
CONTINUOUS
 10
43.1517179446
 20
169.7049071507
  0
VERTEX
  8
0
 62
7
  6
CONTINUOUS
 10
43.653342425
 20
169.5461387488
  0
VERTEX
  8
0
 62
7
  6
CONTINUOUS
 10
44.1866786272
 20
169.403434003
  0
VERTEX
  8
0
 62
7
  6
CONTINUOUS
 10
44.747069649
 20
169.2767457695
  0
VERTEX
  8
0
 62
7
  6
CONTINUOUS
 10
45.3296804545
 20
169.1660582385
  0
VERTEX
  8
0
 62
7
  6
CONTINUOUS
 10
45.9295053814
 20
169.0713293871
  0
VERTEX
  8
0
 62
7
  6
CONTINUOUS
 10
46.4812985028
 20
168.9994515734
  0
SEQEND
  0
POLYLINE
  8
0
 62
7
  6
CONTINUOUS
 66
1
 70
0
  0
VERTEX
  8
0
 62
7
  6
CONTINUOUS
 10
102.9665361752
 20
135.228996655
  0
VERTEX
  8
0
 62
7
  6
CONTINUOUS
 10
102.9751330732
 20
135.2231849546
  0
VERTEX
  8
0
 62
7
  6
CONTINUOUS
 10
102.9839263916
 20
135.2040982016
  0
VERTEX
  8
0
 62
7
  6
CONTINUOUS
 10
102.9906548344
 20
135.1728969545
  0
VERTEX
  8
0
 62
7
  6
CONTINUOUS
 10
102.9949745378
 20
135.1315784087
  0
VERTEX
  8
0
 62
7
  6
CONTINUOUS
 10
102.9967634244
 20
135.0828820625
  0
VERTEX
  8
0
 62
7
  6
CONTINUOUS
 10
102.9962037371
 20
135.0290559811
  0
SEQEND
  0
LINE
  8
0
 62
7
  6
CONTINUOUS
 10
95.8025328291
 20
210.6142241379
 11
95.8027312309
 21
202.804487148
  0
LINE
  8
0
 62
7
  6
CONTINUOUS
 10
95.8025328291
 20
193.7448564052
 11
95.8027312309
 21
186.004487148
  0
LINE
  8
0
 62
7
  6
CONTINUOUS
 10
95.8025328291
 20
176.9448564052
 11
95.8027312309
 21
169.204487148
  0
LINE
  8
0
 62
7
  6
CONTINUOUS
 10
95.8025328291
 20
160.1448564052
 11
95.8027312309
 21
152.404487148
  0
LINE
  8
0
 62
7
  6
CONTINUOUS
 10
95.8025328291
 20
143.3448564052
 11
95.8027312309
 21
135.604487148
  0
LINE
  8
0
 62
7
  6
CONTINUOUS
 10
95.8025328291
 20
126.5448564052
 11
95.8027312309
 21
118.804487148
  0
LINE
  8
0
 62
7
  6
CONTINUOUS
 10
95.8025328291
 20
109.7448564052
 11
95.8027312309
 21
102.004487148
  0
LINE
  8
0
 62
7
  6
CONTINUOUS
 10
95.8025328291
 20
92.9448564052
 11
95.8027312309
 21
85.204487148
  0
LINE
  8
0
 62
7
  6
CONTINUOUS
 10
95.8025328291
 20
76.1448564052
 11
95.8027312309
 21
68.404487148
  0
LINE
  8
DEFAULT_1
 62
2
  6
CENTER
 10
100.1239224138
 20
57.8142241379
 11
100.1239224138
 21
202.0566048683
  0
LINE
  8
0
 62
7
  6
CONTINUOUS
 10
95.5528090628
 20
193.8249669888
 11
95.5525328291
 21
193.7448563269
  0
LINE
  8
0
 62
7
  6
CONTINUOUS
 10
95.5528090628
 20
177.0249669888
 11
95.5525328291
 21
176.9448563269
  0
LINE
  8
0
 62
7
  6
CONTINUOUS
 10
95.5528090628
 20
160.2249669888
 11
95.5525328291
 21
160.1448563269
  0
LINE
  8
0
 62
7
  6
CONTINUOUS
 10
95.5528090628
 20
143.4249669888
 11
95.5525328291
 21
143.3448563269
  0
LINE
  8
0
 62
7
  6
CONTINUOUS
 10
95.5528090628
 20
126.6249669888
 11
95.5525328291
 21
126.5448563269
  0
LINE
  8
0
 62
7
  6
CONTINUOUS
 10
95.8027610835
 20
193.8237884098
 11
95.8024875655
 21
193.7448558562
  0
LINE
  8
0
 62
7
  6
CONTINUOUS
 10
95.5528090628
 20
109.8249669888
 11
95.5525328291
 21
109.7448563269
  0
LINE
  8
0
 62
7
  6
CONTINUOUS
 10
95.8027610835
 20
177.0237884098
 11
95.8024875655
 21
176.9448558562
  0
LINE
  8
0
 62
7
  6
CONTINUOUS
 10
95.5528090628
 20
93.0249669888
 11
95.5525328291
 21
92.9448563269
  0
LINE
  8
0
 62
7
  6
CONTINUOUS
 10
95.8027610835
 20
160.2237884098
 11
95.8024875655
 21
160.1448558562
  0
LINE
  8
0
 62
7
  6
CONTINUOUS
 10
95.5528090628
 20
76.2249669888
 11
95.5525328291
 21
76.1448563269
  0
LINE
  8
0
 62
7
  6
CONTINUOUS
 10
95.8027610835
 20
143.4237884098
 11
95.8024875655
 21
143.3448558562
  0
LINE
  8
0
 62
7
  6
CONTINUOUS
 10
95.8027610835
 20
126.6237884098
 11
95.8024875655
 21
126.5448558562
  0
LINE
  8
0
 62
7
  6
CONTINUOUS
 10
95.8027610835
 20
109.8237884098
 11
95.8024875655
 21
109.7448558562
  0
LINE
  8
0
 62
7
  6
CONTINUOUS
 10
95.8027610835
 20
93.0237884098
 11
95.8024875655
 21
92.9448558562
  0
LINE
  8
0
 62
7
  6
CONTINUOUS
 10
95.8027610835
 20
76.2237884098
 11
95.8024875655
 21
76.1448558562
  0
POLYLINE
  8
0
 62
7
  6
CONTINUOUS
 66
1
 70
0
  0
VERTEX
  8
0
 62
7
  6
CONTINUOUS
 10
95.8027309099
 20
143.4237883513
  0
VERTEX
  8
0
 62
7
  6
CONTINUOUS
 10
95.8044653175
 20
143.446938568
  0
VERTEX
  8
0
 62
7
  6
CONTINUOUS
 10
95.8160691439
 20
143.4899131329
  0
VERTEX
  8
0
 62
7
  6
CONTINUOUS
 10
95.836975394
 20
143.5310734292
  0
VERTEX
  8
0
 62
7
  6
CONTINUOUS
 10
95.8655920724
 20
143.569687311
  0
VERTEX
  8
0
 62
7
  6
CONTINUOUS
 10
95.9011534768
 20
143.6056789988
  0
VERTEX
  8
0
 62
7
  6
CONTINUOUS
 10
95.9433964363
 20
143.6390176681
  0
VERTEX
  8
0
 62
7
  6
CONTINUOUS
 10
95.9925601669
 20
143.6697519978
  0
VERTEX
  8
0
 62
7
  6
CONTINUOUS
 10
96.0475539927
 20
143.6970321851
  0
VERTEX
  8
0
 62
7
  6
CONTINUOUS
 10
96.1067704085
 20
143.7202558127
  0
VERTEX
  8
0
 62
7
  6
CONTINUOUS
 10
96.1704828537
 20
143.7398641904
  0
VERTEX
  8
0
 62
7
  6
CONTINUOUS
 10
96.2379024315
 20
143.7565370091
  0
VERTEX
  8
0
 62
7
  6
CONTINUOUS
 10
96.3076996934
 20
143.7704006351
  0
VERTEX
  8
0
 62
7
  6
CONTINUOUS
 10
96.3795715696
 20
143.7817234467
  0
VERTEX
  8
0
 62
7
  6
CONTINUOUS
 10
96.4536890058
 20
143.790690033
  0
VERTEX
  8
0
 62
7
  6
CONTINUOUS
 10
96.5295812884
 20
143.7974641794
  0
VERTEX
  8
0
 62
7
  6
CONTINUOUS
 10
96.6068240579
 20
143.802215104
  0
VERTEX
  8
0
 62
7
  6
CONTINUOUS
 10
96.6852134003
 20
143.8051342673
  0
VERTEX
  8
0
 62
7
  6
CONTINUOUS
 10
96.7645431671
 20
143.806436911
  0
VERTEX
  8
0
 62
7
  6
CONTINUOUS
 10
96.8445495989
 20
143.8063214169
  0
SEQEND
  0
POLYLINE
  8
0
 62
7
  6
CONTINUOUS
 66
1
 70
0
  0
VERTEX
  8
0
 62
7
  6
CONTINUOUS
 10
95.8027309099
 20
126.6237883513
  0
VERTEX
  8
0
 62
7
  6
CONTINUOUS
 10
95.8044653175
 20
126.646938568
  0
VERTEX
  8
0
 62
7
  6
CONTINUOUS
 10
95.8160691439
 20
126.6899131329
  0
VERTEX
  8
0
 62
7
  6
CONTINUOUS
 10
95.836975394
 20
126.7310734292
  0
VERTEX
  8
0
 62
7
  6
CONTINUOUS
 10
95.8655920724
 20
126.769687311
  0
VERTEX
  8
0
 62
7
  6
CONTINUOUS
 10
95.9011534768
 20
126.8056789988
  0
VERTEX
  8
0
 62
7
  6
CONTINUOUS
 10
95.9433964363
 20
126.8390176681
  0
VERTEX
  8
0
 62
7
  6
CONTINUOUS
 10
95.9925601669
 20
126.8697519978
  0
VERTEX
  8
0
 62
7
  6
CONTINUOUS
 10
96.0475539927
 20
126.8970321851
  0
VERTEX
  8
0
 62
7
  6
CONTINUOUS
 10
96.1067704085
 20
126.9202558127
  0
VERTEX
  8
0
 62
7
  6
CONTINUOUS
 10
96.1704828537
 20
126.9398641904
  0
VERTEX
  8
0
 62
7
  6
CONTINUOUS
 10
96.2379024315
 20
126.9565370091
  0
VERTEX
  8
0
 62
7
  6
CONTINUOUS
 10
96.3076996934
 20
126.9704006351
  0
VERTEX
  8
0
 62
7
  6
CONTINUOUS
 10
96.3795715696
 20
126.9817234467
  0
VERTEX
  8
0
 62
7
  6
CONTINUOUS
 10
96.4536890058
 20
126.990690033
  0
VERTEX
  8
0
 62
7
  6
CONTINUOUS
 10
96.5295812884
 20
126.9974641794
  0
VERTEX
  8
0
 62
7
  6
CONTINUOUS
 10
96.6068240579
 20
127.002215104
  0
VERTEX
  8
0
 62
7
  6
CONTINUOUS
 10
96.6852134003
 20
127.0051342673
  0
VERTEX
  8
0
 62
7
  6
CONTINUOUS
 10
96.7645431671
 20
127.006436911
  0
VERTEX
  8
0
 62
7
  6
CONTINUOUS
 10
96.8445495989
 20
127.0063214169
  0
SEQEND
  0
POLYLINE
  8
0
 62
7
  6
CONTINUOUS
 66
1
 70
0
  0
VERTEX
  8
0
 62
7
  6
CONTINUOUS
 10
95.8027309099
 20
109.8237883513
  0
VERTEX
  8
0
 62
7
  6
CONTINUOUS
 10
95.8044653175
 20
109.846938568
  0
VERTEX
  8
0
 62
7
  6
CONTINUOUS
 10
95.8160691439
 20
109.8899131329
  0
VERTEX
  8
0
 62
7
  6
CONTINUOUS
 10
95.836975394
 20
109.9310734292
  0
VERTEX
  8
0
 62
7
  6
CONTINUOUS
 10
95.8655920724
 20
109.969687311
  0
VERTEX
  8
0
 62
7
  6
CONTINUOUS
 10
95.9011534768
 20
110.0056789988
  0
VERTEX
  8
0
 62
7
  6
CONTINUOUS
 10
95.9433964363
 20
110.0390176681
  0
VERTEX
  8
0
 62
7
  6
CONTINUOUS
 10
95.9925601669
 20
110.0697519978
  0
VERTEX
  8
0
 62
7
  6
CONTINUOUS
 10
96.0475539927
 20
110.0970321851
  0
VERTEX
  8
0
 62
7
  6
CONTINUOUS
 10
96.1067704085
 20
110.1202558127
  0
VERTEX
  8
0
 62
7
  6
CONTINUOUS
 10
96.1704828537
 20
110.1398641904
  0
VERTEX
  8
0
 62
7
  6
CONTINUOUS
 10
96.2379024315
 20
110.1565370091
  0
VERTEX
  8
0
 62
7
  6
CONTINUOUS
 10
96.3076996934
 20
110.1704006351
  0
VERTEX
  8
0
 62
7
  6
CONTINUOUS
 10
96.3795715696
 20
110.1817234467
  0
VERTEX
  8
0
 62
7
  6
CONTINUOUS
 10
96.4536890058
 20
110.190690033
  0
VERTEX
  8
0
 62
7
  6
CONTINUOUS
 10
96.5295812884
 20
110.1974641794
  0
VERTEX
  8
0
 62
7
  6
CONTINUOUS
 10
96.6068240579
 20
110.202215104
  0
VERTEX
  8
0
 62
7
  6
CONTINUOUS
 10
96.6852134003
 20
110.2051342673
  0
VERTEX
  8
0
 62
7
  6
CONTINUOUS
 10
96.7645431671
 20
110.206436911
  0
VERTEX
  8
0
 62
7
  6
CONTINUOUS
 10
96.8445495989
 20
110.2063214169
  0
SEQEND
  0
POLYLINE
  8
0
 62
7
  6
CONTINUOUS
 66
1
 70
0
  0
VERTEX
  8
0
 62
7
  6
CONTINUOUS
 10
95.8027309099
 20
93.0237883513
  0
VERTEX
  8
0
 62
7
  6
CONTINUOUS
 10
95.8044653175
 20
93.046938568
  0
VERTEX
  8
0
 62
7
  6
CONTINUOUS
 10
95.8160691439
 20
93.0899131329
  0
VERTEX
  8
0
 62
7
  6
CONTINUOUS
 10
95.836975394
 20
93.1310734292
  0
VERTEX
  8
0
 62
7
  6
CONTINUOUS
 10
95.8655920724
 20
93.169687311
  0
VERTEX
  8
0
 62
7
  6
CONTINUOUS
 10
95.9011534768
 20
93.2056789988
  0
VERTEX
  8
0
 62
7
  6
CONTINUOUS
 10
95.9433964363
 20
93.2390176681
  0
VERTEX
  8
0
 62
7
  6
CONTINUOUS
 10
95.9925601669
 20
93.2697519978
  0
VERTEX
  8
0
 62
7
  6
CONTINUOUS
 10
96.0475539927
 20
93.2970321851
  0
VERTEX
  8
0
 62
7
  6
CONTINUOUS
 10
96.1067704085
 20
93.3202558127
  0
VERTEX
  8
0
 62
7
  6
CONTINUOUS
 10
96.1704828537
 20
93.3398641904
  0
VERTEX
  8
0
 62
7
  6
CONTINUOUS
 10
96.2379024315
 20
93.3565370091
  0
VERTEX
  8
0
 62
7
  6
CONTINUOUS
 10
96.3076996934
 20
93.3704006351
  0
VERTEX
  8
0
 62
7
  6
CONTINUOUS
 10
96.3795715696
 20
93.3817234467
  0
VERTEX
  8
0
 62
7
  6
CONTINUOUS
 10
96.4536890058
 20
93.390690033
  0
VERTEX
  8
0
 62
7
  6
CONTINUOUS
 10
96.5295812884
 20
93.3974641794
  0
VERTEX
  8
0
 62
7
  6
CONTINUOUS
 10
96.6068240579
 20
93.402215104
  0
VERTEX
  8
0
 62
7
  6
CONTINUOUS
 10
96.6852134003
 20
93.4051342673
  0
VERTEX
  8
0
 62
7
  6
CONTINUOUS
 10
96.7645431671
 20
93.406436911
  0
VERTEX
  8
0
 62
7
  6
CONTINUOUS
 10
96.8445495989
 20
93.4063214169
  0
SEQEND
  0
POLYLINE
  8
0
 62
7
  6
CONTINUOUS
 66
1
 70
0
  0
VERTEX
  8
0
 62
7
  6
CONTINUOUS
 10
95.8027309099
 20
76.2237883513
  0
VERTEX
  8
0
 62
7
  6
CONTINUOUS
 10
95.8044653175
 20
76.246938568
  0
VERTEX
  8
0
 62
7
  6
CONTINUOUS
 10
95.8160691439
 20
76.2899131329
  0
VERTEX
  8
0
 62
7
  6
CONTINUOUS
 10
95.836975394
 20
76.3310734292
  0
VERTEX
  8
0
 62
7
  6
CONTINUOUS
 10
95.8655920724
 20
76.369687311
  0
VERTEX
  8
0
 62
7
  6
CONTINUOUS
 10
95.9011534768
 20
76.4056789988
  0
VERTEX
  8
0
 62
7
  6
CONTINUOUS
 10
95.9433964363
 20
76.4390176681
  0
VERTEX
  8
0
 62
7
  6
CONTINUOUS
 10
95.9925601669
 20
76.4697519978
  0
VERTEX
  8
0
 62
7
  6
CONTINUOUS
 10
96.0475539927
 20
76.4970321851
  0
VERTEX
  8
0
 62
7
  6
CONTINUOUS
 10
96.1067704085
 20
76.5202558127
  0
VERTEX
  8
0
 62
7
  6
CONTINUOUS
 10
96.1704828537
 20
76.5398641904
  0
VERTEX
  8
0
 62
7
  6
CONTINUOUS
 10
96.2379024315
 20
76.5565370091
  0
VERTEX
  8
0
 62
7
  6
CONTINUOUS
 10
96.3076996934
 20
76.5704006351
  0
VERTEX
  8
0
 62
7
  6
CONTINUOUS
 10
96.3795715696
 20
76.5817234467
  0
VERTEX
  8
0
 62
7
  6
CONTINUOUS
 10
96.4536890058
 20
76.590690033
  0
VERTEX
  8
0
 62
7
  6
CONTINUOUS
 10
96.5295812884
 20
76.5974641794
  0
VERTEX
  8
0
 62
7
  6
CONTINUOUS
 10
96.6068240579
 20
76.602215104
  0
VERTEX
  8
0
 62
7
  6
CONTINUOUS
 10
96.6852134003
 20
76.6051342673
  0
VERTEX
  8
0
 62
7
  6
CONTINUOUS
 10
96.7645431671
 20
76.606436911
  0
VERTEX
  8
0
 62
7
  6
CONTINUOUS
 10
96.8445495989
 20
76.6063214169
  0
SEQEND
  0
LINE
  8
0
 62
7
  6
CONTINUOUS
 10
106.7594403869
 20
127.8790272377
 11
107.1626870195
 21
128.0597539209
  0
POLYLINE
  8
0
 62
7
  6
CONTINUOUS
 66
1
 70
0
  0
VERTEX
  8
0
 62
7
  6
CONTINUOUS
 10
107.258345438
 20
161.6715949633
  0
VERTEX
  8
0
 62
7
  6
CONTINUOUS
 10
107.4258580072
 20
161.699256775
  0
VERTEX
  8
0
 62
7
  6
CONTINUOUS
 10
107.5908842254
 20
161.7301615729
  0
VERTEX
  8
0
 62
7
  6
CONTINUOUS
 10
107.7347119266
 20
161.7611103595
  0
VERTEX
  8
0
 62
7
  6
CONTINUOUS
 10
107.8607145497
 20
161.7925195467
  0
VERTEX
  8
0
 62
7
  6
CONTINUOUS
 10
107.9723013888
 20
161.8251026878
  0
VERTEX
  8
0
 62
7
  6
CONTINUOUS
 10
108.0731527076
 20
161.8601176965
  0
VERTEX
  8
0
 62
7
  6
CONTINUOUS
 10
108.1673561741
 20
161.8998011949
  0
VERTEX
  8
0
 62
7
  6
CONTINUOUS
 10
108.2588200999
 20
161.9478283127
  0
VERTEX
  8
0
 62
7
  6
CONTINUOUS
 10
108.3504273226
 20
162.0099379634
  0
VERTEX
  8
0
 62
7
  6
CONTINUOUS
 10
108.4417181902
 20
162.0936668883
  0
VERTEX
  8
0
 62
7
  6
CONTINUOUS
 10
108.5252060978
 20
162.2043122994
  0
VERTEX
  8
0
 62
7
  6
CONTINUOUS
 10
108.5881498212
 20
162.3393019649
  0
VERTEX
  8
0
 62
7
  6
CONTINUOUS
 10
108.6202919771
 20
162.4871367542
  0
VERTEX
  8
0
 62
7
  6
CONTINUOUS
 10
108.6239223099
 20
162.5580508967
  0
SEQEND
  0
LINE
  8
0
 62
7
  6
CONTINUOUS
 10
107.1536279808
 20
161.6556938498
 11
107.2583535255
 21
161.6715962241
  0
POLYLINE
  8
0
 62
7
  6
CONTINUOUS
 66
1
 70
0
  0
VERTEX
  8
0
 62
7
  6
CONTINUOUS
 10
102.9665462966
 20
160.5994515701
  0
VERTEX
  8
0
 62
7
  6
CONTINUOUS
 10
103.514837679
 20
160.6708288251
  0
VERTEX
  8
0
 62
7
  6
CONTINUOUS
 10
104.1148190944
 20
160.7654782865
  0
VERTEX
  8
0
 62
7
  6
CONTINUOUS
 10
104.6976060589
 20
160.8760888913
  0
VERTEX
  8
0
 62
7
  6
CONTINUOUS
 10
105.2581917252
 20
161.0027027775
  0
VERTEX
  8
0
 62
7
  6
CONTINUOUS
 10
105.7917394035
 20
161.1453355319
  0
VERTEX
  8
0
 62
7
  6
CONTINUOUS
 10
106.2935897816
 20
161.3040334561
  0
VERTEX
  8
0
 62
7
  6
CONTINUOUS
 10
106.7594403869
 20
161.4790272377
  0
SEQEND
  0
LINE
  8
0
 62
7
  6
CONTINUOUS
 10
102.9665404309
 20
160.5994515996
 11
102.9655205193
 21
160.5993922977
  0
POLYLINE
  8
0
 62
7
  6
CONTINUOUS
 66
1
 70
0
  0
VERTEX
  8
0
 62
7
  6
CONTINUOUS
 10
52.6069240544
 20
160.4220934761
  0
VERTEX
  8
0
 62
7
  6
CONTINUOUS
 10
52.3134600686
 20
160.4260579526
  0
VERTEX
  8
0
 62
7
  6
CONTINUOUS
 10
52.0304478671
 20
160.4284996964
  0
VERTEX
  8
0
 62
7
  6
CONTINUOUS
 10
46.4823863198
 20
160.4290559811
  0
SEQEND
  0
POLYLINE
  8
0
 62
7
  6
CONTINUOUS
 66
1
 70
0
  0
VERTEX
  8
0
 62
7
  6
CONTINUOUS
 10
96.8445495989
 20
160.6063214169
  0
VERTEX
  8
0
 62
7
  6
CONTINUOUS
 10
97.1383486961
 20
160.6023438618
  0
VERTEX
  8
0
 62
7
  6
CONTINUOUS
 10
97.4213703566
 20
160.5999278873
  0
VERTEX
  8
0
 62
7
  6
CONTINUOUS
 10
102.9654585078
 20
160.5993922948
  0
SEQEND
  0
LINE
  8
0
 62
7
  6
CONTINUOUS
 10
107.2583535255
 20
150.9568520517
 11
107.1536279805
 21
150.9727544261
  0
POLYLINE
  8
0
 62
7
  6
CONTINUOUS
 66
1
 70
0
  0
VERTEX
  8
0
 62
7
  6
CONTINUOUS
 10
108.6239223064
 20
82.8703944532
  0
VERTEX
  8
0
 62
7
  6
CONTINUOUS
 10
108.6198723696
 20
82.9452688519
  0
VERTEX
  8
0
 62
7
  6
CONTINUOUS
 10
108.5869628975
 20
83.0926261364
  0
VERTEX
  8
0
 62
7
  6
CONTINUOUS
 10
108.5235492396
 20
83.2268474054
  0
VERTEX
  8
0
 62
7
  6
CONTINUOUS
 10
108.4399760592
 20
83.3366637792
  0
VERTEX
  8
0
 62
7
  6
CONTINUOUS
 10
108.3488494091
 20
83.4197355707
  0
VERTEX
  8
0
 62
7
  6
CONTINUOUS
 10
108.2574731475
 20
83.4814146191
  0
VERTEX
  8
0
 62
7
  6
CONTINUOUS
 10
108.1662073355
 20
83.5291831244
  0
VERTEX
  8
0
 62
7
  6
CONTINUOUS
 10
108.0721523831
 20
83.5687111112
  0
VERTEX
  8
0
 62
7
  6
CONTINUOUS
 10
107.9714241631
 20
83.6036239645
  0
VERTEX
  8
0
 62
7
  6
CONTINUOUS
 10
107.8599592627
 20
83.6361320792
  0
VERTEX
  8
0
 62
7
  6
CONTINUOUS
 10
107.734094717
 20
83.6674806917
  0
VERTEX
  8
0
 62
7
  6
CONTINUOUS
 10
107.5904331943
 20
83.6983771929
  0
VERTEX
  8
0
 62
7
  6
CONTINUOUS
 10
107.4256106109
 20
83.7292348444
  0
VERTEX
  8
0
 62
7
  6
CONTINUOUS
 10
107.2583454936
 20
83.7568533039
  0
SEQEND
  0
POLYLINE
  8
0
 62
7
  6
CONTINUOUS
 66
1
 70
0
  0
VERTEX
  8
0
 62
7
  6
CONTINUOUS
 10
108.6239223174
 20
66.0704039532
  0
VERTEX
  8
0
 62
7
  6
CONTINUOUS
 10
108.6206557058
 20
66.1376892714
  0
VERTEX
  8
0
 62
7
  6
CONTINUOUS
 10
108.5884067818
 20
66.2883846946
  0
VERTEX
  8
0
 62
7
  6
CONTINUOUS
 10
108.5222556637
 20
66.4289448434
  0
VERTEX
  8
0
 62
7
  6
CONTINUOUS
 10
108.4318223818
 20
66.5452991614
  0
VERTEX
  8
0
 62
7
  6
CONTINUOUS
 10
108.330895814
 20
66.6332471748
  0
VERTEX
  8
0
 62
7
  6
CONTINUOUS
 10
108.2283395829
 20
66.6979067165
  0
VERTEX
  8
0
 62
7
  6
CONTINUOUS
 10
108.1238808695
 20
66.7479744489
  0
VERTEX
  8
0
 62
7
  6
CONTINUOUS
 10
108.0130323168
 20
66.7899595671
  0
VERTEX
  8
0
 62
7
  6
CONTINUOUS
 10
107.8912588853
 20
66.8275280205
  0
VERTEX
  8
0
 62
7
  6
CONTINUOUS
 10
107.7550344235
 20
66.8625821417
  0
VERTEX
  8
0
 62
7
  6
CONTINUOUS
 10
107.6014418688
 20
66.8961579457
  0
VERTEX
  8
0
 62
7
  6
CONTINUOUS
 10
107.4287654037
 20
66.9286815224
  0
VERTEX
  8
0
 62
7
  6
CONTINUOUS
 10
107.2583387582
 20
66.9568543537
  0
SEQEND
  0
POLYLINE
  8
0
 62
7
  6
CONTINUOUS
 66
1
 70
0
  0
VERTEX
  8
0
 62
7
  6
CONTINUOUS
 10
102.9962037371
 20
76.7993922948
  0
VERTEX
  8
0
 62
7
  6
CONTINUOUS
 10
102.9968156897
 20
76.7523636196
  0
VERTEX
  8
0
 62
7
  6
CONTINUOUS
 10
102.9956766688
 20
76.7088412795
  0
VERTEX
  8
0
 62
7
  6
CONTINUOUS
 10
102.992591696
 20
76.6701898313
  0
VERTEX
  8
0
 62
7
  6
CONTINUOUS
 10
102.9875745615
 20
76.6385414082
  0
VERTEX
  8
0
 62
7
  6
CONTINUOUS
 10
102.9808045456
 20
76.6155908945
  0
VERTEX
  8
0
 62
7
  6
CONTINUOUS
 10
102.9725898718
 20
76.6024652132
  0
VERTEX
  8
0
 62
7
  6
CONTINUOUS
 10
102.9665404309
 20
76.5994515996
  0
SEQEND
  0
POLYLINE
  8
0
 62
7
  6
CONTINUOUS
 66
1
 70
0
  0
VERTEX
  8
0
 62
7
  6
CONTINUOUS
 10
102.9962037371
 20
93.5993922948
  0
VERTEX
  8
0
 62
7
  6
CONTINUOUS
 10
102.9968156897
 20
93.5523636196
  0
VERTEX
  8
0
 62
7
  6
CONTINUOUS
 10
102.9956766688
 20
93.5088412795
  0
VERTEX
  8
0
 62
7
  6
CONTINUOUS
 10
102.992591696
 20
93.4701898313
  0
VERTEX
  8
0
 62
7
  6
CONTINUOUS
 10
102.9875745615
 20
93.4385414082
  0
VERTEX
  8
0
 62
7
  6
CONTINUOUS
 10
102.9808045456
 20
93.4155908945
  0
VERTEX
  8
0
 62
7
  6
CONTINUOUS
 10
102.9725898718
 20
93.4024652132
  0
VERTEX
  8
0
 62
7
  6
CONTINUOUS
 10
102.9665404309
 20
93.3994515996
  0
SEQEND
  0
POLYLINE
  8
0
 62
7
  6
CONTINUOUS
 66
1
 70
0
  0
VERTEX
  8
0
 62
7
  6
CONTINUOUS
 10
102.9962037371
 20
110.3993922948
  0
VERTEX
  8
0
 62
7
  6
CONTINUOUS
 10
102.9968156897
 20
110.3523636196
  0
VERTEX
  8
0
 62
7
  6
CONTINUOUS
 10
102.9956766688
 20
110.3088412795
  0
VERTEX
  8
0
 62
7
  6
CONTINUOUS
 10
102.992591696
 20
110.2701898313
  0
VERTEX
  8
0
 62
7
  6
CONTINUOUS
 10
102.9875745615
 20
110.2385414082
  0
VERTEX
  8
0
 62
7
  6
CONTINUOUS
 10
102.9808045456
 20
110.2155908945
  0
VERTEX
  8
0
 62
7
  6
CONTINUOUS
 10
102.9725898718
 20
110.2024652132
  0
VERTEX
  8
0
 62
7
  6
CONTINUOUS
 10
102.9665404309
 20
110.1994515996
  0
SEQEND
  0
POLYLINE
  8
0
 62
7
  6
CONTINUOUS
 66
1
 70
0
  0
VERTEX
  8
0
 62
7
  6
CONTINUOUS
 10
102.9962037371
 20
127.1993922948
  0
VERTEX
  8
0
 62
7
  6
CONTINUOUS
 10
102.9968156897
 20
127.1523636196
  0
VERTEX
  8
0
 62
7
  6
CONTINUOUS
 10
102.9956766688
 20
127.1088412795
  0
VERTEX
  8
0
 62
7
  6
CONTINUOUS
 10
102.992591696
 20
127.0701898313
  0
VERTEX
  8
0
 62
7
  6
CONTINUOUS
 10
102.9875745615
 20
127.0385414082
  0
VERTEX
  8
0
 62
7
  6
CONTINUOUS
 10
102.9808045456
 20
127.0155908945
  0
VERTEX
  8
0
 62
7
  6
CONTINUOUS
 10
102.9725898718
 20
127.0024652132
  0
VERTEX
  8
0
 62
7
  6
CONTINUOUS
 10
102.9665404309
 20
126.9994515996
  0
SEQEND
  0
POLYLINE
  8
0
 62
7
  6
CONTINUOUS
 66
1
 70
0
  0
VERTEX
  8
0
 62
7
  6
CONTINUOUS
 10
102.9962037371
 20
143.9993922948
  0
VERTEX
  8
0
 62
7
  6
CONTINUOUS
 10
102.9968156897
 20
143.9523636196
  0
VERTEX
  8
0
 62
7
  6
CONTINUOUS
 10
102.9956766688
 20
143.9088412795
  0
VERTEX
  8
0
 62
7
  6
CONTINUOUS
 10
102.992591696
 20
143.8701898313
  0
VERTEX
  8
0
 62
7
  6
CONTINUOUS
 10
102.9875745615
 20
143.8385414082
  0
VERTEX
  8
0
 62
7
  6
CONTINUOUS
 10
102.9808045456
 20
143.8155908945
  0
VERTEX
  8
0
 62
7
  6
CONTINUOUS
 10
102.9725898718
 20
143.8024652132
  0
VERTEX
  8
0
 62
7
  6
CONTINUOUS
 10
102.9665404309
 20
143.7994515996
  0
SEQEND
  0
POLYLINE
  8
0
 62
7
  6
CONTINUOUS
 66
1
 70
0
  0
VERTEX
  8
0
 62
7
  6
CONTINUOUS
 10
102.9962037371
 20
160.7993922948
  0
VERTEX
  8
0
 62
7
  6
CONTINUOUS
 10
102.9968156897
 20
160.7523636196
  0
VERTEX
  8
0
 62
7
  6
CONTINUOUS
 10
102.9956766688
 20
160.7088412795
  0
VERTEX
  8
0
 62
7
  6
CONTINUOUS
 10
102.992591696
 20
160.6701898313
  0
VERTEX
  8
0
 62
7
  6
CONTINUOUS
 10
102.9875745615
 20
160.6385414082
  0
VERTEX
  8
0
 62
7
  6
CONTINUOUS
 10
102.9808045456
 20
160.6155908945
  0
VERTEX
  8
0
 62
7
  6
CONTINUOUS
 10
102.9725898718
 20
160.6024652132
  0
VERTEX
  8
0
 62
7
  6
CONTINUOUS
 10
102.9665404309
 20
160.5994515996
  0
SEQEND
  0
POLYLINE
  8
0
 62
7
  6
CONTINUOUS
 66
1
 70
0
  0
VERTEX
  8
0
 62
7
  6
CONTINUOUS
 10
102.9962037371
 20
177.5993922948
  0
VERTEX
  8
0
 62
7
  6
CONTINUOUS
 10
102.9968156897
 20
177.5523636196
  0
VERTEX
  8
0
 62
7
  6
CONTINUOUS
 10
102.9956766688
 20
177.5088412795
  0
VERTEX
  8
0
 62
7
  6
CONTINUOUS
 10
102.992591696
 20
177.4701898313
  0
VERTEX
  8
0
 62
7
  6
CONTINUOUS
 10
102.9875745615
 20
177.4385414082
  0
VERTEX
  8
0
 62
7
  6
CONTINUOUS
 10
102.9808045456
 20
177.4155908945
  0
VERTEX
  8
0
 62
7
  6
CONTINUOUS
 10
102.9725898718
 20
177.4024652132
  0
VERTEX
  8
0
 62
7
  6
CONTINUOUS
 10
102.9665404309
 20
177.3994515996
  0
SEQEND
  0
POLYLINE
  8
0
 62
7
  6
CONTINUOUS
 66
1
 70
0
  0
VERTEX
  8
0
 62
7
  6
CONTINUOUS
 10
102.9962037371
 20
194.3993922948
  0
VERTEX
  8
0
 62
7
  6
CONTINUOUS
 10
102.9968156897
 20
194.3523636196
  0
VERTEX
  8
0
 62
7
  6
CONTINUOUS
 10
102.9956766688
 20
194.3088412795
  0
VERTEX
  8
0
 62
7
  6
CONTINUOUS
 10
102.992591696
 20
194.2701898313
  0
VERTEX
  8
0
 62
7
  6
CONTINUOUS
 10
102.9875745615
 20
194.2385414082
  0
VERTEX
  8
0
 62
7
  6
CONTINUOUS
 10
102.9808045456
 20
194.2155908945
  0
VERTEX
  8
0
 62
7
  6
CONTINUOUS
 10
102.9725898718
 20
194.2024652132
  0
VERTEX
  8
0
 62
7
  6
CONTINUOUS
 10
102.9665404309
 20
194.1994515996
  0
SEQEND
  0
LINE
  8
0
 62
7
  6
CONTINUOUS
 10
102.9962037371
 20
67.8290559811
 11
102.9962037371
 21
60.0142241379
  0
LINE
  8
0
 62
7
  6
CONTINUOUS
 10
102.9962037371
 20
76.7993922948
 11
102.9962037371
 21
84.6290559811
  0
LINE
  8
0
 62
7
  6
CONTINUOUS
 10
102.9962037371
 20
93.5993922948
 11
102.9962037371
 21
101.4290559811
  0
LINE
  8
0
 62
7
  6
CONTINUOUS
 10
102.9962037371
 20
110.3993922948
 11
102.9962037371
 21
118.2290559811
  0
LINE
  8
0
 62
7
  6
CONTINUOUS
 10
102.9962037371
 20
127.1993922948
 11
102.9962037371
 21
135.0290559811
  0
LINE
  8
0
 62
7
  6
CONTINUOUS
 10
102.9962037371
 20
143.9993922948
 11
102.9962037371
 21
151.8290559811
  0
LINE
  8
0
 62
7
  6
CONTINUOUS
 10
102.9962037371
 20
160.7993922948
 11
102.9962037371
 21
168.6290559811
  0
LINE
  8
0
 62
7
  6
CONTINUOUS
 10
102.9962037371
 20
177.5993922948
 11
102.9962037371
 21
185.4290559811
  0
LINE
  8
0
 62
7
  6
CONTINUOUS
 10
102.9962037371
 20
194.3993922948
 11
102.9962037371
 21
202.2290559811
  0
LINE
  8
0
 62
7
  6
CONTINUOUS
 10
42.6861049038
 20
92.348476587
 11
42.285155682
 21
92.1686933118
  0
POLYLINE
  8
0
 62
7
  6
CONTINUOUS
 66
1
 70
0
  0
VERTEX
  8
0
 62
7
  6
CONTINUOUS
 10
42.1894986375
 20
159.3568531953
  0
VERTEX
  8
0
 62
7
  6
CONTINUOUS
 10
42.0207035841
 20
159.3289665496
  0
VERTEX
  8
0
 62
7
  6
CONTINUOUS
 10
41.8561433678
 20
159.2981226481
  0
VERTEX
  8
0
 62
7
  6
CONTINUOUS
 10
41.7127050912
 20
159.2672388973
  0
VERTEX
  8
0
 62
7
  6
CONTINUOUS
 10
41.5870267907
 20
159.2359008508
  0
VERTEX
  8
0
 62
7
  6
CONTINUOUS
 10
41.4757131204
 20
159.2033994654
  0
VERTEX
  8
0
 62
7
  6
CONTINUOUS
 10
41.3751034989
 20
159.1684871626
  0
VERTEX
  8
0
 62
7
  6
CONTINUOUS
 10
41.2811386278
 20
159.1289505354
  0
VERTEX
  8
0
 62
7
  6
CONTINUOUS
 10
41.1899428468
 20
159.0811619441
  0
VERTEX
  8
0
 62
7
  6
CONTINUOUS
 10
41.0986306704
 20
159.0194529009
  0
VERTEX
  8
0
 62
7
  6
CONTINUOUS
 10
41.0075829165
 20
158.9363558335
  0
VERTEX
  8
0
 62
7
  6
CONTINUOUS
 10
40.9241133574
 20
158.8265505684
  0
VERTEX
  8
0
 62
7
  6
CONTINUOUS
 10
40.8608030502
 20
158.6923967863
  0
VERTEX
  8
0
 62
7
  6
CONTINUOUS
 10
40.8279595748
 20
158.545150531
  0
VERTEX
  8
0
 62
7
  6
CONTINUOUS
 10
40.8239225208
 20
158.4703948254
  0
SEQEND
  0
LINE
  8
0
 62
7
  6
CONTINUOUS
 10
42.2942177742
 20
159.3727567007
 11
42.1894904322
 21
159.3568519161
  0
POLYLINE
  8
0
 62
7
  6
CONTINUOUS
 66
1
 70
0
  0
VERTEX
  8
0
 62
7
  6
CONTINUOUS
 10
46.4812985028
 20
160.4289967025
  0
VERTEX
  8
0
 62
7
  6
CONTINUOUS
 10
45.9295053814
 20
160.3571188887
  0
VERTEX
  8
0
 62
7
  6
CONTINUOUS
 10
45.3296804545
 20
160.2623900374
  0
VERTEX
  8
0
 62
7
  6
CONTINUOUS
 10
44.747069649
 20
160.1517025064
  0
VERTEX
  8
0
 62
7
  6
CONTINUOUS
 10
44.1866786272
 20
160.0250142728
  0
VERTEX
  8
0
 62
7
  6
CONTINUOUS
 10
43.653342425
 20
159.882309527
  0
VERTEX
  8
0
 62
7
  6
CONTINUOUS
 10
43.1517179446
 20
159.7235411251
  0
VERTEX
  8
0
 62
7
  6
CONTINUOUS
 10
42.6861049038
 20
159.548476587
  0
SEQEND
  0
LINE
  8
0
 62
7
  6
CONTINUOUS
 10
46.4813043685
 20
160.4289966729
 11
46.4823243083
 21
160.4290559781
  0
LINE
  8
0
 62
7
  6
CONTINUOUS
 10
42.1894904322
 20
170.0715963597
 11
42.2942177742
 21
170.0556915752
  0
POLYLINE
  8
0
 62
7
  6
CONTINUOUS
 66
1
 70
0
  0
VERTEX
  8
0
 62
7
  6
CONTINUOUS
 10
107.1626870195
 20
150.9686943549
  0
VERTEX
  8
0
 62
7
  6
CONTINUOUS
 10
106.75944028
 20
151.1494210821
  0
VERTEX
  8
0
 62
7
  6
CONTINUOUS
 10
106.2935895488
 20
151.3244148999
  0
VERTEX
  8
0
 62
7
  6
CONTINUOUS
 10
105.7917390287
 20
151.4831128529
  0
VERTEX
  8
0
 62
7
  6
CONTINUOUS
 10
105.2581911953
 20
151.6257456286
  0
VERTEX
  8
0
 62
7
  6
CONTINUOUS
 10
104.6976053644
 20
151.7523595284
  0
VERTEX
  8
0
 62
7
  6
CONTINUOUS
 10
104.1148182295
 20
151.8629701393
  0
VERTEX
  8
0
 62
7
  6
CONTINUOUS
 10
103.5148366411
 20
151.957619599
  0
VERTEX
  8
0
 62
7
  6
CONTINUOUS
 10
102.9665462966
 20
152.0289967058
  0
SEQEND
  0
POLYLINE
  8
0
 62
7
  6
CONTINUOUS
 66
1
 70
0
  0
VERTEX
  8
0
 62
7
  6
CONTINUOUS
 10
102.9665361752
 20
152.028996655
  0
VERTEX
  8
0
 62
7
  6
CONTINUOUS
 10
102.9751330732
 20
152.0231849546
  0
VERTEX
  8
0
 62
7
  6
CONTINUOUS
 10
102.9839263916
 20
152.0040982016
  0
VERTEX
  8
0
 62
7
  6
CONTINUOUS
 10
102.9906548344
 20
151.9728969545
  0
VERTEX
  8
0
 62
7
  6
CONTINUOUS
 10
102.9949745378
 20
151.9315784087
  0
VERTEX
  8
0
 62
7
  6
CONTINUOUS
 10
102.9967634244
 20
151.8828820625
  0
VERTEX
  8
0
 62
7
  6
CONTINUOUS
 10
102.9962037371
 20
151.8290559811
  0
SEQEND
  0
POLYLINE
  8
0
 62
7
  6
CONTINUOUS
 66
1
 70
0
  0
VERTEX
  8
0
 62
7
  6
CONTINUOUS
 10
108.6239219599
 20
116.4712291091
  0
VERTEX
  8
0
 62
7
  6
CONTINUOUS
 10
108.6198723696
 20
116.5452688519
  0
VERTEX
  8
0
 62
7
  6
CONTINUOUS
 10
108.5869628975
 20
116.6926261364
  0
VERTEX
  8
0
 62
7
  6
CONTINUOUS
 10
108.5235492396
 20
116.8268474054
  0
VERTEX
  8
0
 62
7
  6
CONTINUOUS
 10
108.4399760592
 20
116.9366637792
  0
VERTEX
  8
0
 62
7
  6
CONTINUOUS
 10
108.3488494091
 20
117.0197355707
  0
VERTEX
  8
0
 62
7
  6
CONTINUOUS
 10
108.2574731475
 20
117.0814146191
  0
VERTEX
  8
0
 62
7
  6
CONTINUOUS
 10
108.1662073355
 20
117.1291831244
  0
VERTEX
  8
0
 62
7
  6
CONTINUOUS
 10
108.0721523831
 20
117.1687111112
  0
VERTEX
  8
0
 62
7
  6
CONTINUOUS
 10
107.9714241631
 20
117.2036239645
  0
VERTEX
  8
0
 62
7
  6
CONTINUOUS
 10
107.8599592627
 20
117.2361320792
  0
VERTEX
  8
0
 62
7
  6
CONTINUOUS
 10
107.734094717
 20
117.2674806917
  0
VERTEX
  8
0
 62
7
  6
CONTINUOUS
 10
107.5904331943
 20
117.2983771929
  0
VERTEX
  8
0
 62
7
  6
CONTINUOUS
 10
107.4256106109
 20
117.3292348444
  0
VERTEX
  8
0
 62
7
  6
CONTINUOUS
 10
107.2583454936
 20
117.3568533039
  0
SEQEND
  0
POLYLINE
  8
0
 62
7
  6
CONTINUOUS
 66
1
 70
0
  0
VERTEX
  8
0
 62
7
  6
CONTINUOUS
 10
108.6239219599
 20
150.0712291091
  0
VERTEX
  8
0
 62
7
  6
CONTINUOUS
 10
108.6198723696
 20
150.1452688519
  0
VERTEX
  8
0
 62
7
  6
CONTINUOUS
 10
108.5869628975
 20
150.2926261364
  0
VERTEX
  8
0
 62
7
  6
CONTINUOUS
 10
108.5235492396
 20
150.4268474054
  0
VERTEX
  8
0
 62
7
  6
CONTINUOUS
 10
108.4399760592
 20
150.5366637792
  0
VERTEX
  8
0
 62
7
  6
CONTINUOUS
 10
108.3488494091
 20
150.6197355707
  0
VERTEX
  8
0
 62
7
  6
CONTINUOUS
 10
108.2574731475
 20
150.6814146191
  0
VERTEX
  8
0
 62
7
  6
CONTINUOUS
 10
108.1662073355
 20
150.7291831244
  0
VERTEX
  8
0
 62
7
  6
CONTINUOUS
 10
108.0721523831
 20
150.7687111112
  0
VERTEX
  8
0
 62
7
  6
CONTINUOUS
 10
107.9714241631
 20
150.8036239645
  0
VERTEX
  8
0
 62
7
  6
CONTINUOUS
 10
107.8599592627
 20
150.8361320792
  0
VERTEX
  8
0
 62
7
  6
CONTINUOUS
 10
107.734094717
 20
150.8674806917
  0
VERTEX
  8
0
 62
7
  6
CONTINUOUS
 10
107.5904331943
 20
150.8983771929
  0
VERTEX
  8
0
 62
7
  6
CONTINUOUS
 10
107.4256106109
 20
150.9292348444
  0
VERTEX
  8
0
 62
7
  6
CONTINUOUS
 10
107.2583454936
 20
150.9568533039
  0
SEQEND
  0
POLYLINE
  8
0
 62
7
  6
CONTINUOUS
 66
1
 70
0
  0
VERTEX
  8
0
 62
7
  6
CONTINUOUS
 10
108.6239223064
 20
99.6703944532
  0
VERTEX
  8
0
 62
7
  6
CONTINUOUS
 10
108.6198723696
 20
99.7452688519
  0
VERTEX
  8
0
 62
7
  6
CONTINUOUS
 10
108.5869628975
 20
99.8926261364
  0
VERTEX
  8
0
 62
7
  6
CONTINUOUS
 10
108.5235492396
 20
100.0268474054
  0
VERTEX
  8
0
 62
7
  6
CONTINUOUS
 10
108.4399760592
 20
100.1366637792
  0
VERTEX
  8
0
 62
7
  6
CONTINUOUS
 10
108.3488494091
 20
100.2197355707
  0
VERTEX
  8
0
 62
7
  6
CONTINUOUS
 10
108.2574731475
 20
100.2814146191
  0
VERTEX
  8
0
 62
7
  6
CONTINUOUS
 10
108.1662073355
 20
100.3291831244
  0
VERTEX
  8
0
 62
7
  6
CONTINUOUS
 10
108.0721523831
 20
100.3687111112
  0
VERTEX
  8
0
 62
7
  6
CONTINUOUS
 10
107.9714241631
 20
100.4036239645
  0
VERTEX
  8
0
 62
7
  6
CONTINUOUS
 10
107.8599592627
 20
100.4361320792
  0
VERTEX
  8
0
 62
7
  6
CONTINUOUS
 10
107.734094717
 20
100.4674806917
  0
VERTEX
  8
0
 62
7
  6
CONTINUOUS
 10
107.5904331943
 20
100.4983771929
  0
VERTEX
  8
0
 62
7
  6
CONTINUOUS
 10
107.4256106109
 20
100.5292348444
  0
VERTEX
  8
0
 62
7
  6
CONTINUOUS
 10
107.2583454936
 20
100.5568533039
  0
SEQEND
  0
POLYLINE
  8
0
 62
7
  6
CONTINUOUS
 66
1
 70
0
  0
VERTEX
  8
0
 62
7
  6
CONTINUOUS
 10
108.6239223064
 20
133.2703944532
  0
VERTEX
  8
0
 62
7
  6
CONTINUOUS
 10
108.6198723696
 20
133.3452688519
  0
VERTEX
  8
0
 62
7
  6
CONTINUOUS
 10
108.5869628975
 20
133.4926261364
  0
VERTEX
  8
0
 62
7
  6
CONTINUOUS
 10
108.5235492396
 20
133.6268474054
  0
VERTEX
  8
0
 62
7
  6
CONTINUOUS
 10
108.4399760592
 20
133.7366637792
  0
VERTEX
  8
0
 62
7
  6
CONTINUOUS
 10
108.3488494091
 20
133.8197355707
  0
VERTEX
  8
0
 62
7
  6
CONTINUOUS
 10
108.2574731475
 20
133.8814146191
  0
VERTEX
  8
0
 62
7
  6
CONTINUOUS
 10
108.1662073355
 20
133.9291831244
  0
VERTEX
  8
0
 62
7
  6
CONTINUOUS
 10
108.0721523831
 20
133.9687111112
  0
VERTEX
  8
0
 62
7
  6
CONTINUOUS
 10
107.9714241631
 20
134.0036239645
  0
VERTEX
  8
0
 62
7
  6
CONTINUOUS
 10
107.8599592627
 20
134.0361320792
  0
VERTEX
  8
0
 62
7
  6
CONTINUOUS
 10
107.734094717
 20
134.0674806917
  0
VERTEX
  8
0
 62
7
  6
CONTINUOUS
 10
107.5904331943
 20
134.0983771929
  0
VERTEX
  8
0
 62
7
  6
CONTINUOUS
 10
107.4256106109
 20
134.1292348444
  0
VERTEX
  8
0
 62
7
  6
CONTINUOUS
 10
107.2583454936
 20
134.1568533039
  0
SEQEND
  0
POLYLINE
  8
0
 62
7
  6
CONTINUOUS
 66
1
 70
0
  0
VERTEX
  8
0
 62
7
  6
CONTINUOUS
 10
108.6239223064
 20
166.8703944532
  0
VERTEX
  8
0
 62
7
  6
CONTINUOUS
 10
108.6198723696
 20
166.9452688519
  0
VERTEX
  8
0
 62
7
  6
CONTINUOUS
 10
108.5869628975
 20
167.0926261364
  0
VERTEX
  8
0
 62
7
  6
CONTINUOUS
 10
108.5235492396
 20
167.2268474054
  0
VERTEX
  8
0
 62
7
  6
CONTINUOUS
 10
108.4399760592
 20
167.3366637792
  0
VERTEX
  8
0
 62
7
  6
CONTINUOUS
 10
108.3488494091
 20
167.4197355707
  0
VERTEX
  8
0
 62
7
  6
CONTINUOUS
 10
108.2574731475
 20
167.4814146191
  0
VERTEX
  8
0
 62
7
  6
CONTINUOUS
 10
108.1662073355
 20
167.5291831244
  0
VERTEX
  8
0
 62
7
  6
CONTINUOUS
 10
108.0721523831
 20
167.5687111112
  0
VERTEX
  8
0
 62
7
  6
CONTINUOUS
 10
107.9714241631
 20
167.6036239645
  0
VERTEX
  8
0
 62
7
  6
CONTINUOUS
 10
107.8599592627
 20
167.6361320792
  0
VERTEX
  8
0
 62
7
  6
CONTINUOUS
 10
107.734094717
 20
167.6674806917
  0
VERTEX
  8
0
 62
7
  6
CONTINUOUS
 10
107.5904331943
 20
167.6983771929
  0
VERTEX
  8
0
 62
7
  6
CONTINUOUS
 10
107.4256106109
 20
167.7292348444
  0
VERTEX
  8
0
 62
7
  6
CONTINUOUS
 10
107.2583454936
 20
167.7568533039
  0
SEQEND
  0
POLYLINE
  8
0
 62
7
  6
CONTINUOUS
 66
1
 70
0
  0
VERTEX
  8
0
 62
7
  6
CONTINUOUS
 10
108.6239223064
 20
183.6703944532
  0
VERTEX
  8
0
 62
7
  6
CONTINUOUS
 10
108.6198723696
 20
183.7452688519
  0
VERTEX
  8
0
 62
7
  6
CONTINUOUS
 10
108.5869628975
 20
183.8926261364
  0
VERTEX
  8
0
 62
7
  6
CONTINUOUS
 10
108.5235492396
 20
184.0268474054
  0
VERTEX
  8
0
 62
7
  6
CONTINUOUS
 10
108.4399760592
 20
184.1366637792
  0
VERTEX
  8
0
 62
7
  6
CONTINUOUS
 10
108.3488494091
 20
184.2197355707
  0
VERTEX
  8
0
 62
7
  6
CONTINUOUS
 10
108.2574731475
 20
184.2814146191
  0
VERTEX
  8
0
 62
7
  6
CONTINUOUS
 10
108.1662073355
 20
184.3291831244
  0
VERTEX
  8
0
 62
7
  6
CONTINUOUS
 10
108.0721523831
 20
184.3687111112
  0
VERTEX
  8
0
 62
7
  6
CONTINUOUS
 10
107.9714241631
 20
184.4036239645
  0
VERTEX
  8
0
 62
7
  6
CONTINUOUS
 10
107.8599592627
 20
184.4361320792
  0
VERTEX
  8
0
 62
7
  6
CONTINUOUS
 10
107.734094717
 20
184.4674806917
  0
VERTEX
  8
0
 62
7
  6
CONTINUOUS
 10
107.5904331943
 20
184.4983771929
  0
VERTEX
  8
0
 62
7
  6
CONTINUOUS
 10
107.4256106109
 20
184.5292348444
  0
VERTEX
  8
0
 62
7
  6
CONTINUOUS
 10
107.2583454936
 20
184.5568533039
  0
SEQEND
  0
POLYLINE
  8
0
 62
7
  6
CONTINUOUS
 66
1
 70
0
  0
VERTEX
  8
0
 62
7
  6
CONTINUOUS
 10
108.6239223064
 20
200.4703944538
  0
VERTEX
  8
0
 62
7
  6
CONTINUOUS
 10
108.6198723911
 20
200.5452686547
  0
VERTEX
  8
0
 62
7
  6
CONTINUOUS
 10
108.5869629862
 20
200.6926258787
  0
VERTEX
  8
0
 62
7
  6
CONTINUOUS
 10
108.5235493646
 20
200.8268472019
  0
VERTEX
  8
0
 62
7
  6
CONTINUOUS
 10
108.4399761368
 20
200.9366636956
  0
VERTEX
  8
0
 62
7
  6
CONTINUOUS
 10
108.3488494112
 20
201.019735569
  0
VERTEX
  8
0
 62
7
  6
CONTINUOUS
 10
108.257473047
 20
201.0814146782
  0
VERTEX
  8
0
 62
7
  6
CONTINUOUS
 10
108.1662071381
 20
201.1291832164
  0
VERTEX
  8
0
 62
7
  6
CONTINUOUS
 10
108.0721521203
 20
201.1687112111
  0
VERTEX
  8
0
 62
7
  6
CONTINUOUS
 10
107.9714238459
 20
201.2036240651
  0
VERTEX
  8
0
 62
7
  6
CONTINUOUS
 10
107.8599589072
 20
201.2361321749
  0
VERTEX
  8
0
 62
7
  6
CONTINUOUS
 10
107.7340943548
 20
201.2674807754
  0
VERTEX
  8
0
 62
7
  6
CONTINUOUS
 10
107.5904328765
 20
201.2983772567
  0
VERTEX
  8
0
 62
7
  6
CONTINUOUS
 10
107.4256104103
 20
201.3292348796
  0
VERTEX
  8
0
 62
7
  6
CONTINUOUS
 10
107.2583454936
 20
201.3568533039
  0
SEQEND
  0
LINE
  8
0
 62
7
  6
CONTINUOUS
 10
108.6239224138
 20
60.0142228463
 11
108.6239224138
 21
66.0705202287
  0
LINE
  8
0
 62
7
  6
CONTINUOUS
 10
108.6239224138
 20
78.5579250075
 11
108.6239224138
 21
82.8705131926
  0
LINE
  8
0
 62
7
  6
CONTINUOUS
 10
108.6239224138
 20
95.3579250075
 11
108.6239224138
 21
99.6705131926
  0
LINE
  8
0
 62
7
  6
CONTINUOUS
 10
108.6239224138
 20
112.1579259506
 11
108.6239224138
 21
116.4705223254
  0
LINE
  8
0
 62
7
  6
CONTINUOUS
 10
108.6239224138
 20
128.9579250075
 11
108.6239224138
 21
133.2705131926
  0
LINE
  8
0
 62
7
  6
CONTINUOUS
 10
108.6239224138
 20
145.7579259506
 11
108.6239224138
 21
150.0705223254
  0
LINE
  8
0
 62
7
  6
CONTINUOUS
 10
108.6239224138
 20
162.5579250075
 11
108.6239224138
 21
166.8705131926
  0
LINE
  8
0
 62
7
  6
CONTINUOUS
 10
108.6239224138
 20
179.3579250075
 11
108.6239224138
 21
183.6705131926
  0
LINE
  8
0
 62
7
  6
CONTINUOUS
 10
108.6239224138
 20
196.1579250075
 11
108.6239224138
 21
200.4705171335
  0
LINE
  8
0
 62
7
  6
CONTINUOUS
 10
108.6239224138
 20
200.4705236437
 11
108.6239223367
 21
200.4703950176
  0
LINE
  8
0
 62
7
  6
CONTINUOUS
 10
108.6239224138
 20
183.6705232684
 11
108.6239223367
 21
183.6703944
  0
LINE
  8
0
 62
7
  6
CONTINUOUS
 10
108.6239224138
 20
166.8705232684
 11
108.6239223367
 21
166.8703944
  0
LINE
  8
0
 62
7
  6
CONTINUOUS
 10
108.6239224138
 20
133.2705232684
 11
108.6239223367
 21
133.2703944
  0
LINE
  8
0
 62
7
  6
CONTINUOUS
 10
108.6239224138
 20
99.6705232684
 11
108.6239223367
 21
99.6703944
  0
LINE
  8
0
 62
7
  6
CONTINUOUS
 10
108.6239224138
 20
82.8705232684
 11
108.6239223367
 21
82.8703944
  0
LINE
  8
0
 62
7
  6
CONTINUOUS
 10
106.7594403869
 20
111.0790272377
 11
107.1626870195
 21
111.2597539209
  0
POLYLINE
  8
0
 62
7
  6
CONTINUOUS
 66
1
 70
0
  0
VERTEX
  8
0
 62
7
  6
CONTINUOUS
 10
107.258345438
 20
178.4715949633
  0
VERTEX
  8
0
 62
7
  6
CONTINUOUS
 10
107.4258580072
 20
178.499256775
  0
VERTEX
  8
0
 62
7
  6
CONTINUOUS
 10
107.5908842254
 20
178.5301615729
  0
VERTEX
  8
0
 62
7
  6
CONTINUOUS
 10
107.7347119266
 20
178.5611103595
  0
VERTEX
  8
0
 62
7
  6
CONTINUOUS
 10
107.8607145497
 20
178.5925195467
  0
VERTEX
  8
0
 62
7
  6
CONTINUOUS
 10
107.9723013888
 20
178.6251026878
  0
VERTEX
  8
0
 62
7
  6
CONTINUOUS
 10
108.0731527076
 20
178.6601176965
  0
VERTEX
  8
0
 62
7
  6
CONTINUOUS
 10
108.1673561741
 20
178.6998011949
  0
VERTEX
  8
0
 62
7
  6
CONTINUOUS
 10
108.2588200999
 20
178.7478283127
  0
VERTEX
  8
0
 62
7
  6
CONTINUOUS
 10
108.3504273226
 20
178.8099379634
  0
VERTEX
  8
0
 62
7
  6
CONTINUOUS
 10
108.4417181902
 20
178.8936668883
  0
VERTEX
  8
0
 62
7
  6
CONTINUOUS
 10
108.5252060978
 20
179.0043122994
  0
VERTEX
  8
0
 62
7
  6
CONTINUOUS
 10
108.5881498212
 20
179.1393019649
  0
VERTEX
  8
0
 62
7
  6
CONTINUOUS
 10
108.6202919771
 20
179.2871367542
  0
VERTEX
  8
0
 62
7
  6
CONTINUOUS
 10
108.6239223099
 20
179.3580508967
  0
SEQEND
  0
LINE
  8
0
 62
7
  6
CONTINUOUS
 10
107.1536279808
 20
178.4556938498
 11
107.2583535255
 21
178.4715962241
  0
POLYLINE
  8
0
 62
7
  6
CONTINUOUS
 66
1
 70
0
  0
VERTEX
  8
0
 62
7
  6
CONTINUOUS
 10
52.3094961821
 20
169.0023438615
  0
VERTEX
  8
0
 62
7
  6
CONTINUOUS
 10
52.602818301
 20
169.0063168385
  0
VERTEX
  8
0
 62
7
  6
CONTINUOUS
 10
52.6824118441
 20
169.0064431619
  0
VERTEX
  8
0
 62
7
  6
CONTINUOUS
 10
52.7614745053
 20
169.0051644825
  0
VERTEX
  8
0
 62
7
  6
CONTINUOUS
 10
52.8397262295
 20
169.0022780057
  0
VERTEX
  8
0
 62
7
  6
CONTINUOUS
 10
52.9169444735
 20
168.9975626037
  0
VERTEX
  8
0
 62
7
  6
CONTINUOUS
 10
52.9929095224
 20
168.9908196831
  0
VERTEX
  8
0
 62
7
  6
CONTINUOUS
 10
53.0671886671
 20
168.981873337
  0
VERTEX
  8
0
 62
7
  6
CONTINUOUS
 10
53.1392736654
 20
168.9705538197
  0
VERTEX
  8
0
 62
7
  6
CONTINUOUS
 10
53.2093783343
 20
168.9566624205
  0
VERTEX
  8
0
 62
7
  6
CONTINUOUS
 10
53.2770284864
 20
168.9399625447
  0
VERTEX
  8
0
 62
7
  6
CONTINUOUS
 10
53.3410966707
 20
168.9202480028
  0
VERTEX
  8
0
 62
7
  6
CONTINUOUS
 10
53.4005864958
 20
168.8969013252
  0
VERTEX
  8
0
 62
7
  6
CONTINUOUS
 10
53.4558554446
 20
168.869432902
  0
VERTEX
  8
0
 62
7
  6
CONTINUOUS
 10
53.5052999739
 20
168.8384180255
  0
VERTEX
  8
0
 62
7
  6
CONTINUOUS
 10
53.5474789468
 20
168.8049753395
  0
VERTEX
  8
0
 62
7
  6
CONTINUOUS
 10
53.5827532386
 20
168.7691054481
  0
VERTEX
  8
0
 62
7
  6
CONTINUOUS
 10
53.6110490501
 20
168.7307852728
  0
VERTEX
  8
0
 62
7
  6
CONTINUOUS
 10
53.6317591557
 20
168.6899542722
  0
VERTEX
  8
0
 62
7
  6
CONTINUOUS
 10
53.6433474177
 20
168.6471574496
  0
VERTEX
  8
0
 62
7
  6
CONTINUOUS
 10
53.6451139279
 20
168.6237876512
  0
SEQEND
  0
POLYLINE
  8
0
 62
7
  6
CONTINUOUS
 66
1
 70
0
  0
VERTEX
  8
0
 62
7
  6
CONTINUOUS
 10
97.1343809155
 20
168.8260575496
  0
VERTEX
  8
0
 62
7
  6
CONTINUOUS
 10
96.8403491445
 20
168.8220878286
  0
VERTEX
  8
0
 62
7
  6
CONTINUOUS
 10
96.7604799715
 20
168.8220411622
  0
VERTEX
  8
0
 62
7
  6
CONTINUOUS
 10
96.6813045083
 20
168.8234179269
  0
VERTEX
  8
0
 62
7
  6
CONTINUOUS
 10
96.6030825345
 20
168.8264170363
  0
VERTEX
  8
0
 62
7
  6
CONTINUOUS
 10
96.526011415
 20
168.8312526061
  0
VERTEX
  8
0
 62
7
  6
CONTINUOUS
 10
96.4502982424
 20
168.8381137358
  0
VERTEX
  8
0
 62
7
  6
CONTINUOUS
 10
96.3763709736
 20
168.8471696342
  0
VERTEX
  8
0
 62
7
  6
CONTINUOUS
 10
96.3046757973
 20
168.85858529
  0
VERTEX
  8
0
 62
7
  6
CONTINUOUS
 10
96.2350767752
 20
168.8725412661
  0
VERTEX
  8
0
 62
7
  6
CONTINUOUS
 10
96.1678411892
 20
168.8893090206
  0
VERTEX
  8
0
 62
7
  6
CONTINUOUS
 10
96.1044121482
 20
168.9090111726
  0
VERTEX
  8
0
 62
7
  6
CONTINUOUS
 10
96.0454172558
 20
168.9323625705
  0
VERTEX
  8
0
 62
7
  6
CONTINUOUS
 10
95.9906472508
 20
168.9597654542
  0
VERTEX
  8
0
 62
7
  6
CONTINUOUS
 10
95.9417159834
 20
168.9906145879
  0
VERTEX
  8
0
 62
7
  6
CONTINUOUS
 10
95.8996896206
 20
169.0240785908
  0
VERTEX
  8
0
 62
7
  6
CONTINUOUS
 10
95.8643459459
 20
169.0602137928
  0
VERTEX
  8
0
 62
7
  6
CONTINUOUS
 10
95.8359808025
 20
169.0989770345
  0
VERTEX
  8
0
 62
7
  6
CONTINUOUS
 10
95.8154045048
 20
169.1402506342
  0
VERTEX
  8
0
 62
7
  6
CONTINUOUS
 10
95.8042214777
 20
169.1832479703
  0
VERTEX
  8
0
 62
7
  6
CONTINUOUS
 10
95.8027314654
 20
169.2044868735
  0
SEQEND
  0
LINE
  8
0
 62
7
  6
CONTINUOUS
 10
97.4173950845
 20
168.8284996042
 11
97.1343809155
 21
168.8260575496
  0
LINE
  8
0
 62
7
  6
CONTINUOUS
 10
52.0264744454
 20
168.9999278871
 11
52.3094961821
 21
169.0023438615
  0
LINE
  8
0
 62
7
  6
CONTINUOUS
 10
97.4173950845
 20
168.8284996042
 11
102.9654960251
 21
168.8290559811
  0
LINE
  8
0
 62
7
  6
CONTINUOUS
 10
46.4823863198
 20
168.9993922948
 11
52.0264744454
 21
168.9999278871
  0
LINE
  8
0
 62
7
  6
CONTINUOUS
 10
46.4813043685
 20
168.999451603
 11
46.4823243083
 21
168.9993922977
  0
LINE
  8
0
 62
7
  6
CONTINUOUS
 10
102.9655281381
 20
168.829055981
 11
102.9665361752
 21
168.828996655
  0
LINE
  8
0
 62
7
  6
CONTINUOUS
 10
107.2583535255
 20
167.7568520517
 11
107.1536279805
 21
167.7727544261
  0
POLYLINE
  8
0
 62
7
  6
CONTINUOUS
 66
1
 70
0
  0
VERTEX
  8
0
 62
7
  6
CONTINUOUS
 10
42.285155682
 20
186.8597549641
  0
VERTEX
  8
0
 62
7
  6
CONTINUOUS
 10
42.6861049038
 20
186.6799716889
  0
VERTEX
  8
0
 62
7
  6
CONTINUOUS
 10
43.1517179446
 20
186.5049071507
  0
VERTEX
  8
0
 62
7
  6
CONTINUOUS
 10
43.653342425
 20
186.3461387488
  0
VERTEX
  8
0
 62
7
  6
CONTINUOUS
 10
44.1866786272
 20
186.203434003
  0
VERTEX
  8
0
 62
7
  6
CONTINUOUS
 10
44.747069649
 20
186.0767457695
  0
VERTEX
  8
0
 62
7
  6
CONTINUOUS
 10
45.3296804545
 20
185.9660582385
  0
VERTEX
  8
0
 62
7
  6
CONTINUOUS
 10
45.9295053814
 20
185.8713293871
  0
VERTEX
  8
0
 62
7
  6
CONTINUOUS
 10
46.4812985028
 20
185.7994515734
  0
SEQEND
  0
LINE
  8
0
 62
7
  6
CONTINUOUS
 10
42.6861049038
 20
75.548476587
 11
42.285155682
 21
75.3686933118
  0
POLYLINE
  8
0
 62
7
  6
CONTINUOUS
 66
1
 70
0
  0
VERTEX
  8
0
 62
7
  6
CONTINUOUS
 10
102.9665462966
 20
177.3994515701
  0
VERTEX
  8
0
 62
7
  6
CONTINUOUS
 10
103.514837679
 20
177.4708288251
  0
VERTEX
  8
0
 62
7
  6
CONTINUOUS
 10
104.1148190944
 20
177.5654782865
  0
VERTEX
  8
0
 62
7
  6
CONTINUOUS
 10
104.6976060589
 20
177.6760888913
  0
VERTEX
  8
0
 62
7
  6
CONTINUOUS
 10
105.2581917252
 20
177.8027027775
  0
VERTEX
  8
0
 62
7
  6
CONTINUOUS
 10
105.7917394035
 20
177.9453355319
  0
VERTEX
  8
0
 62
7
  6
CONTINUOUS
 10
106.2935897816
 20
178.1040334561
  0
VERTEX
  8
0
 62
7
  6
CONTINUOUS
 10
106.7594403869
 20
178.2790272377
  0
SEQEND
  0
LINE
  8
0
 62
7
  6
CONTINUOUS
 10
102.9665404309
 20
177.3994515996
 11
102.9655205193
 21
177.3993922977
  0
LINE
  8
0
 62
7
  6
CONTINUOUS
 10
46.4813043685
 20
177.2289966729
 11
46.4823243083
 21
177.2290559781
  0
POLYLINE
  8
0
 62
7
  6
CONTINUOUS
 66
1
 70
0
  0
VERTEX
  8
0
 62
7
  6
CONTINUOUS
 10
52.6069240544
 20
177.2220934761
  0
VERTEX
  8
0
 62
7
  6
CONTINUOUS
 10
52.3134600686
 20
177.2260579526
  0
VERTEX
  8
0
 62
7
  6
CONTINUOUS
 10
52.0304478671
 20
177.2284996964
  0
VERTEX
  8
0
 62
7
  6
CONTINUOUS
 10
46.4823863198
 20
177.2290559811
  0
SEQEND
  0
POLYLINE
  8
0
 62
7
  6
CONTINUOUS
 66
1
 70
0
  0
VERTEX
  8
0
 62
7
  6
CONTINUOUS
 10
96.8445495989
 20
177.4063214169
  0
VERTEX
  8
0
 62
7
  6
CONTINUOUS
 10
97.1383486961
 20
177.4023438618
  0
VERTEX
  8
0
 62
7
  6
CONTINUOUS
 10
97.4213703566
 20
177.3999278873
  0
VERTEX
  8
0
 62
7
  6
CONTINUOUS
 10
102.9654585078
 20
177.3993922948
  0
SEQEND
  0
POLYLINE
  8
0
 62
7
  6
CONTINUOUS
 66
1
 70
0
  0
VERTEX
  8
0
 62
7
  6
CONTINUOUS
 10
107.1626870195
 20
167.7686943549
  0
VERTEX
  8
0
 62
7
  6
CONTINUOUS
 10
106.75944028
 20
167.9494210821
  0
VERTEX
  8
0
 62
7
  6
CONTINUOUS
 10
106.2935895488
 20
168.1244148999
  0
VERTEX
  8
0
 62
7
  6
CONTINUOUS
 10
105.7917390287
 20
168.2831128529
  0
VERTEX
  8
0
 62
7
  6
CONTINUOUS
 10
105.2581911953
 20
168.4257456286
  0
VERTEX
  8
0
 62
7
  6
CONTINUOUS
 10
104.6976053644
 20
168.5523595284
  0
VERTEX
  8
0
 62
7
  6
CONTINUOUS
 10
104.1148182295
 20
168.6629701393
  0
VERTEX
  8
0
 62
7
  6
CONTINUOUS
 10
103.5148366411
 20
168.757619599
  0
VERTEX
  8
0
 62
7
  6
CONTINUOUS
 10
102.9665462966
 20
168.8289967058
  0
SEQEND
  0
POLYLINE
  8
0
 62
7
  6
CONTINUOUS
 66
1
 70
0
  0
VERTEX
  8
0
 62
7
  6
CONTINUOUS
 10
102.9665361752
 20
168.828996655
  0
VERTEX
  8
0
 62
7
  6
CONTINUOUS
 10
102.9751330732
 20
168.8231849546
  0
VERTEX
  8
0
 62
7
  6
CONTINUOUS
 10
102.9839263916
 20
168.8040982016
  0
VERTEX
  8
0
 62
7
  6
CONTINUOUS
 10
102.9906548344
 20
168.7728969545
  0
VERTEX
  8
0
 62
7
  6
CONTINUOUS
 10
102.9949745378
 20
168.7315784087
  0
VERTEX
  8
0
 62
7
  6
CONTINUOUS
 10
102.9967634244
 20
168.6828820625
  0
VERTEX
  8
0
 62
7
  6
CONTINUOUS
 10
102.9962037371
 20
168.6290559811
  0
SEQEND
  0
POLYLINE
  8
0
 62
7
  6
CONTINUOUS
 66
1
 70
0
  0
VERTEX
  8
0
 62
7
  6
CONTINUOUS
 10
42.1894986375
 20
176.1568531953
  0
VERTEX
  8
0
 62
7
  6
CONTINUOUS
 10
42.0207035841
 20
176.1289665496
  0
VERTEX
  8
0
 62
7
  6
CONTINUOUS
 10
41.8561433678
 20
176.0981226481
  0
VERTEX
  8
0
 62
7
  6
CONTINUOUS
 10
41.7127050912
 20
176.0672388973
  0
VERTEX
  8
0
 62
7
  6
CONTINUOUS
 10
41.5870267907
 20
176.0359008508
  0
VERTEX
  8
0
 62
7
  6
CONTINUOUS
 10
41.4757131204
 20
176.0033994654
  0
VERTEX
  8
0
 62
7
  6
CONTINUOUS
 10
41.3751034989
 20
175.9684871626
  0
VERTEX
  8
0
 62
7
  6
CONTINUOUS
 10
41.2811386278
 20
175.9289505354
  0
VERTEX
  8
0
 62
7
  6
CONTINUOUS
 10
41.1899428468
 20
175.8811619441
  0
VERTEX
  8
0
 62
7
  6
CONTINUOUS
 10
41.0986306704
 20
175.8194529009
  0
VERTEX
  8
0
 62
7
  6
CONTINUOUS
 10
41.0075829165
 20
175.7363558335
  0
VERTEX
  8
0
 62
7
  6
CONTINUOUS
 10
40.9241133574
 20
175.6265505684
  0
VERTEX
  8
0
 62
7
  6
CONTINUOUS
 10
40.8608030502
 20
175.4923967863
  0
VERTEX
  8
0
 62
7
  6
CONTINUOUS
 10
40.8279595748
 20
175.345150531
  0
VERTEX
  8
0
 62
7
  6
CONTINUOUS
 10
40.8239225208
 20
175.2703948254
  0
SEQEND
  0
LINE
  8
0
 62
7
  6
CONTINUOUS
 10
42.2942177742
 20
176.1727567007
 11
42.1894904322
 21
176.1568519161
  0
POLYLINE
  8
0
 62
7
  6
CONTINUOUS
 66
1
 70
0
  0
VERTEX
  8
0
 62
7
  6
CONTINUOUS
 10
46.4812985028
 20
177.2289967025
  0
VERTEX
  8
0
 62
7
  6
CONTINUOUS
 10
45.9295053814
 20
177.1571188887
  0
VERTEX
  8
0
 62
7
  6
CONTINUOUS
 10
45.3296804545
 20
177.0623900374
  0
VERTEX
  8
0
 62
7
  6
CONTINUOUS
 10
44.747069649
 20
176.9517025064
  0
VERTEX
  8
0
 62
7
  6
CONTINUOUS
 10
44.1866786272
 20
176.8250142728
  0
VERTEX
  8
0
 62
7
  6
CONTINUOUS
 10
43.653342425
 20
176.682309527
  0
VERTEX
  8
0
 62
7
  6
CONTINUOUS
 10
43.1517179446
 20
176.5235411251
  0
VERTEX
  8
0
 62
7
  6
CONTINUOUS
 10
42.6861049038
 20
176.348476587
  0
SEQEND
  0
POLYLINE
  8
0
 62
7
  6
CONTINUOUS
 66
1
 70
0
  0
VERTEX
  8
0
 62
7
  6
CONTINUOUS
 10
97.1343809155
 20
185.6260575496
  0
VERTEX
  8
0
 62
7
  6
CONTINUOUS
 10
96.8403491445
 20
185.6220878286
  0
VERTEX
  8
0
 62
7
  6
CONTINUOUS
 10
96.7604799715
 20
185.6220411622
  0
VERTEX
  8
0
 62
7
  6
CONTINUOUS
 10
96.6813045083
 20
185.6234179269
  0
VERTEX
  8
0
 62
7
  6
CONTINUOUS
 10
96.6030825345
 20
185.6264170363
  0
VERTEX
  8
0
 62
7
  6
CONTINUOUS
 10
96.526011415
 20
185.6312526061
  0
VERTEX
  8
0
 62
7
  6
CONTINUOUS
 10
96.4502982424
 20
185.6381137358
  0
VERTEX
  8
0
 62
7
  6
CONTINUOUS
 10
96.3763709736
 20
185.6471696342
  0
VERTEX
  8
0
 62
7
  6
CONTINUOUS
 10
96.3046757973
 20
185.65858529
  0
VERTEX
  8
0
 62
7
  6
CONTINUOUS
 10
96.2350767752
 20
185.6725412661
  0
VERTEX
  8
0
 62
7
  6
CONTINUOUS
 10
96.1678411892
 20
185.6893090206
  0
VERTEX
  8
0
 62
7
  6
CONTINUOUS
 10
96.1044121482
 20
185.7090111726
  0
VERTEX
  8
0
 62
7
  6
CONTINUOUS
 10
96.0454172558
 20
185.7323625705
  0
VERTEX
  8
0
 62
7
  6
CONTINUOUS
 10
95.9906472508
 20
185.7597654542
  0
VERTEX
  8
0
 62
7
  6
CONTINUOUS
 10
95.9417159834
 20
185.7906145879
  0
VERTEX
  8
0
 62
7
  6
CONTINUOUS
 10
95.8996896206
 20
185.8240785908
  0
VERTEX
  8
0
 62
7
  6
CONTINUOUS
 10
95.8643459459
 20
185.8602137928
  0
VERTEX
  8
0
 62
7
  6
CONTINUOUS
 10
95.8359808025
 20
185.8989770345
  0
VERTEX
  8
0
 62
7
  6
CONTINUOUS
 10
95.8154045048
 20
185.9402506342
  0
VERTEX
  8
0
 62
7
  6
CONTINUOUS
 10
95.8042214777
 20
185.9832479703
  0
VERTEX
  8
0
 62
7
  6
CONTINUOUS
 10
95.8027314654
 20
186.0044868735
  0
SEQEND
  0
LINE
  8
0
 62
7
  6
CONTINUOUS
 10
97.4173950845
 20
185.6284996042
 11
97.1343809155
 21
185.6260575496
  0
LINE
  8
0
 62
7
  6
CONTINUOUS
 10
97.4173950845
 20
185.6284996042
 11
102.9654960251
 21
185.6290559811
  0
LINE
  8
0
 62
7
  6
CONTINUOUS
 10
46.4813043685
 20
185.799451603
 11
46.4823243083
 21
185.7993922977
  0
LINE
  8
0
 62
7
  6
CONTINUOUS
 10
42.1894904322
 20
186.8715963597
 11
42.2942177742
 21
186.8556915752
  0
POLYLINE
  8
0
 62
7
  6
CONTINUOUS
 66
1
 70
0
  0
VERTEX
  8
0
 62
7
  6
CONTINUOUS
 10
42.285155682
 20
203.6597549641
  0
VERTEX
  8
0
 62
7
  6
CONTINUOUS
 10
42.6861049038
 20
203.4799716889
  0
VERTEX
  8
0
 62
7
  6
CONTINUOUS
 10
43.1517179446
 20
203.3049071507
  0
VERTEX
  8
0
 62
7
  6
CONTINUOUS
 10
43.653342425
 20
203.1461387488
  0
VERTEX
  8
0
 62
7
  6
CONTINUOUS
 10
44.1866786272
 20
203.003434003
  0
VERTEX
  8
0
 62
7
  6
CONTINUOUS
 10
44.747069649
 20
202.8767457695
  0
VERTEX
  8
0
 62
7
  6
CONTINUOUS
 10
45.3296804545
 20
202.7660582385
  0
VERTEX
  8
0
 62
7
  6
CONTINUOUS
 10
45.9295053814
 20
202.6713293871
  0
VERTEX
  8
0
 62
7
  6
CONTINUOUS
 10
46.4812985028
 20
202.5994515734
  0
SEQEND
  0
LINE
  8
0
 62
7
  6
CONTINUOUS
 10
106.7594403869
 20
94.2790272377
 11
107.1626870195
 21
94.4597539209
  0
POLYLINE
  8
0
 62
7
  6
CONTINUOUS
 66
1
 70
0
  0
VERTEX
  8
0
 62
7
  6
CONTINUOUS
 10
107.258345438
 20
195.2715949633
  0
VERTEX
  8
0
 62
7
  6
CONTINUOUS
 10
107.4258580072
 20
195.299256775
  0
VERTEX
  8
0
 62
7
  6
CONTINUOUS
 10
107.5908842254
 20
195.3301615729
  0
VERTEX
  8
0
 62
7
  6
CONTINUOUS
 10
107.7347119266
 20
195.3611103595
  0
VERTEX
  8
0
 62
7
  6
CONTINUOUS
 10
107.8607145497
 20
195.3925195467
  0
VERTEX
  8
0
 62
7
  6
CONTINUOUS
 10
107.9723013888
 20
195.4251026878
  0
VERTEX
  8
0
 62
7
  6
CONTINUOUS
 10
108.0731527076
 20
195.4601176965
  0
VERTEX
  8
0
 62
7
  6
CONTINUOUS
 10
108.1673561741
 20
195.4998011949
  0
VERTEX
  8
0
 62
7
  6
CONTINUOUS
 10
108.2588200999
 20
195.5478283127
  0
VERTEX
  8
0
 62
7
  6
CONTINUOUS
 10
108.3504273226
 20
195.6099379634
  0
VERTEX
  8
0
 62
7
  6
CONTINUOUS
 10
108.4417181902
 20
195.6936668883
  0
VERTEX
  8
0
 62
7
  6
CONTINUOUS
 10
108.5252060978
 20
195.8043122994
  0
VERTEX
  8
0
 62
7
  6
CONTINUOUS
 10
108.5881498212
 20
195.9393019649
  0
VERTEX
  8
0
 62
7
  6
CONTINUOUS
 10
108.6202919771
 20
196.0871367542
  0
VERTEX
  8
0
 62
7
  6
CONTINUOUS
 10
108.6239223099
 20
196.1580508967
  0
SEQEND
  0
LINE
  8
0
 62
7
  6
CONTINUOUS
 10
107.1536279808
 20
195.2556938498
 11
107.2583535255
 21
195.2715962241
  0
POLYLINE
  8
0
 62
7
  6
CONTINUOUS
 66
1
 70
0
  0
VERTEX
  8
0
 62
7
  6
CONTINUOUS
 10
102.9665462966
 20
194.1994515701
  0
VERTEX
  8
0
 62
7
  6
CONTINUOUS
 10
103.514837679
 20
194.2708288251
  0
VERTEX
  8
0
 62
7
  6
CONTINUOUS
 10
104.1148190944
 20
194.3654782865
  0
VERTEX
  8
0
 62
7
  6
CONTINUOUS
 10
104.6976060589
 20
194.4760888913
  0
VERTEX
  8
0
 62
7
  6
CONTINUOUS
 10
105.2581917252
 20
194.6027027775
  0
VERTEX
  8
0
 62
7
  6
CONTINUOUS
 10
105.7917394035
 20
194.7453355319
  0
VERTEX
  8
0
 62
7
  6
CONTINUOUS
 10
106.2935897816
 20
194.9040334561
  0
VERTEX
  8
0
 62
7
  6
CONTINUOUS
 10
106.7594403869
 20
195.0790272377
  0
SEQEND
  0
POLYLINE
  8
0
 62
7
  6
CONTINUOUS
 66
1
 70
0
  0
VERTEX
  8
0
 62
7
  6
CONTINUOUS
 10
52.3094961821
 20
185.8023438615
  0
VERTEX
  8
0
 62
7
  6
CONTINUOUS
 10
52.602818301
 20
185.8063168385
  0
VERTEX
  8
0
 62
7
  6
CONTINUOUS
 10
52.6824118441
 20
185.8064431619
  0
VERTEX
  8
0
 62
7
  6
CONTINUOUS
 10
52.7614745053
 20
185.8051644825
  0
VERTEX
  8
0
 62
7
  6
CONTINUOUS
 10
52.8397262295
 20
185.8022780057
  0
VERTEX
  8
0
 62
7
  6
CONTINUOUS
 10
52.9169444735
 20
185.7975626037
  0
VERTEX
  8
0
 62
7
  6
CONTINUOUS
 10
52.9929095224
 20
185.7908196831
  0
VERTEX
  8
0
 62
7
  6
CONTINUOUS
 10
53.0671886671
 20
185.781873337
  0
VERTEX
  8
0
 62
7
  6
CONTINUOUS
 10
53.1392736654
 20
185.7705538197
  0
VERTEX
  8
0
 62
7
  6
CONTINUOUS
 10
53.2093783343
 20
185.7566624205
  0
VERTEX
  8
0
 62
7
  6
CONTINUOUS
 10
53.2770284864
 20
185.7399625447
  0
VERTEX
  8
0
 62
7
  6
CONTINUOUS
 10
53.3410966707
 20
185.7202480028
  0
VERTEX
  8
0
 62
7
  6
CONTINUOUS
 10
53.4005864958
 20
185.6969013252
  0
VERTEX
  8
0
 62
7
  6
CONTINUOUS
 10
53.4558554446
 20
185.669432902
  0
VERTEX
  8
0
 62
7
  6
CONTINUOUS
 10
53.5052999739
 20
185.6384180255
  0
VERTEX
  8
0
 62
7
  6
CONTINUOUS
 10
53.5474789468
 20
185.6049753395
  0
VERTEX
  8
0
 62
7
  6
CONTINUOUS
 10
53.5827532386
 20
185.5691054481
  0
VERTEX
  8
0
 62
7
  6
CONTINUOUS
 10
53.6110490501
 20
185.5307852728
  0
VERTEX
  8
0
 62
7
  6
CONTINUOUS
 10
53.6317591557
 20
185.4899542722
  0
VERTEX
  8
0
 62
7
  6
CONTINUOUS
 10
53.6433474177
 20
185.4471574496
  0
VERTEX
  8
0
 62
7
  6
CONTINUOUS
 10
53.6451139279
 20
185.4237876512
  0
SEQEND
  0
LINE
  8
0
 62
7
  6
CONTINUOUS
 10
52.0264744454
 20
185.7999278871
 11
52.3094961821
 21
185.8023438615
  0
LINE
  8
0
 62
7
  6
CONTINUOUS
 10
46.4823863198
 20
185.7993922948
 11
52.0264744454
 21
185.7999278871
  0
LINE
  8
0
 62
7
  6
CONTINUOUS
 10
102.9655281381
 20
185.629055981
 11
102.9665361752
 21
185.628996655
  0
LINE
  8
0
 62
7
  6
CONTINUOUS
 10
107.2583535255
 20
184.5568520517
 11
107.1536279805
 21
184.5727544261
  0
POLYLINE
  8
0
 62
7
  6
CONTINUOUS
 66
1
 70
0
  0
VERTEX
  8
0
 62
7
  6
CONTINUOUS
 10
42.1894986375
 20
192.9568531953
  0
VERTEX
  8
0
 62
7
  6
CONTINUOUS
 10
42.0207035841
 20
192.9289665496
  0
VERTEX
  8
0
 62
7
  6
CONTINUOUS
 10
41.8561433678
 20
192.8981226481
  0
VERTEX
  8
0
 62
7
  6
CONTINUOUS
 10
41.7127050912
 20
192.8672388973
  0
VERTEX
  8
0
 62
7
  6
CONTINUOUS
 10
41.5870267907
 20
192.8359008508
  0
VERTEX
  8
0
 62
7
  6
CONTINUOUS
 10
41.4757131204
 20
192.8033994654
  0
VERTEX
  8
0
 62
7
  6
CONTINUOUS
 10
41.3751034989
 20
192.7684871626
  0
VERTEX
  8
0
 62
7
  6
CONTINUOUS
 10
41.2811386278
 20
192.7289505354
  0
VERTEX
  8
0
 62
7
  6
CONTINUOUS
 10
41.1899428468
 20
192.6811619441
  0
VERTEX
  8
0
 62
7
  6
CONTINUOUS
 10
41.0986306704
 20
192.6194529009
  0
VERTEX
  8
0
 62
7
  6
CONTINUOUS
 10
41.0075829165
 20
192.5363558335
  0
VERTEX
  8
0
 62
7
  6
CONTINUOUS
 10
40.9241133574
 20
192.4265505684
  0
VERTEX
  8
0
 62
7
  6
CONTINUOUS
 10
40.8608030502
 20
192.2923967863
  0
VERTEX
  8
0
 62
7
  6
CONTINUOUS
 10
40.8279595748
 20
192.145150531
  0
VERTEX
  8
0
 62
7
  6
CONTINUOUS
 10
40.8239225208
 20
192.0703948254
  0
SEQEND
  0
LINE
  8
0
 62
7
  6
CONTINUOUS
 10
42.2942177742
 20
192.9727567007
 11
42.1894904322
 21
192.9568519161
  0
POLYLINE
  8
0
 62
7
  6
CONTINUOUS
 66
1
 70
0
  0
VERTEX
  8
0
 62
7
  6
CONTINUOUS
 10
46.4812985028
 20
194.0289967025
  0
VERTEX
  8
0
 62
7
  6
CONTINUOUS
 10
45.9295053814
 20
193.9571188887
  0
VERTEX
  8
0
 62
7
  6
CONTINUOUS
 10
45.3296804545
 20
193.8623900374
  0
VERTEX
  8
0
 62
7
  6
CONTINUOUS
 10
44.747069649
 20
193.7517025064
  0
VERTEX
  8
0
 62
7
  6
CONTINUOUS
 10
44.1866786272
 20
193.6250142728
  0
VERTEX
  8
0
 62
7
  6
CONTINUOUS
 10
43.653342425
 20
193.482309527
  0
VERTEX
  8
0
 62
7
  6
CONTINUOUS
 10
43.1517179446
 20
193.3235411251
  0
VERTEX
  8
0
 62
7
  6
CONTINUOUS
 10
42.6861049038
 20
193.148476587
  0
SEQEND
  0
LINE
  8
0
 62
7
  6
CONTINUOUS
 10
102.9665404309
 20
194.1994515996
 11
102.9655205193
 21
194.1993922977
  0
LINE
  8
0
 62
7
  6
CONTINUOUS
 10
46.4813043685
 20
194.0289966729
 11
46.4823243083
 21
194.0290559781
  0
POLYLINE
  8
0
 62
7
  6
CONTINUOUS
 66
1
 70
0
  0
VERTEX
  8
0
 62
7
  6
CONTINUOUS
 10
52.6069240544
 20
194.0220934761
  0
VERTEX
  8
0
 62
7
  6
CONTINUOUS
 10
52.3134600686
 20
194.0260579526
  0
VERTEX
  8
0
 62
7
  6
CONTINUOUS
 10
52.0304478671
 20
194.0284996964
  0
VERTEX
  8
0
 62
7
  6
CONTINUOUS
 10
46.4823863198
 20
194.0290559811
  0
SEQEND
  0
POLYLINE
  8
0
 62
7
  6
CONTINUOUS
 66
1
 70
0
  0
VERTEX
  8
0
 62
7
  6
CONTINUOUS
 10
96.8445495989
 20
194.2063214169
  0
VERTEX
  8
0
 62
7
  6
CONTINUOUS
 10
97.1383486961
 20
194.2023438618
  0
VERTEX
  8
0
 62
7
  6
CONTINUOUS
 10
97.4213703566
 20
194.1999278873
  0
VERTEX
  8
0
 62
7
  6
CONTINUOUS
 10
102.9654585078
 20
194.1993922948
  0
SEQEND
  0
LINE
  8
0
 62
7
  6
CONTINUOUS
 10
42.1894904322
 20
203.6715963597
 11
42.2942177742
 21
203.6556915752
  0
POLYLINE
  8
0
 62
7
  6
CONTINUOUS
 66
1
 70
0
  0
VERTEX
  8
0
 62
7
  6
CONTINUOUS
 10
107.1626870195
 20
184.5686943549
  0
VERTEX
  8
0
 62
7
  6
CONTINUOUS
 10
106.75944028
 20
184.7494210821
  0
VERTEX
  8
0
 62
7
  6
CONTINUOUS
 10
106.2935895488
 20
184.9244148999
  0
VERTEX
  8
0
 62
7
  6
CONTINUOUS
 10
105.7917390287
 20
185.0831128529
  0
VERTEX
  8
0
 62
7
  6
CONTINUOUS
 10
105.2581911953
 20
185.2257456286
  0
VERTEX
  8
0
 62
7
  6
CONTINUOUS
 10
104.6976053644
 20
185.3523595284
  0
VERTEX
  8
0
 62
7
  6
CONTINUOUS
 10
104.1148182295
 20
185.4629701393
  0
VERTEX
  8
0
 62
7
  6
CONTINUOUS
 10
103.5148366411
 20
185.557619599
  0
VERTEX
  8
0
 62
7
  6
CONTINUOUS
 10
102.9665462966
 20
185.6289967058
  0
SEQEND
  0
POLYLINE
  8
0
 62
7
  6
CONTINUOUS
 66
1
 70
0
  0
VERTEX
  8
0
 62
7
  6
CONTINUOUS
 10
102.9665361752
 20
185.628996655
  0
VERTEX
  8
0
 62
7
  6
CONTINUOUS
 10
102.9751330732
 20
185.6231849546
  0
VERTEX
  8
0
 62
7
  6
CONTINUOUS
 10
102.9839263916
 20
185.6040982016
  0
VERTEX
  8
0
 62
7
  6
CONTINUOUS
 10
102.9906548344
 20
185.5728969545
  0
VERTEX
  8
0
 62
7
  6
CONTINUOUS
 10
102.9949745378
 20
185.5315784087
  0
VERTEX
  8
0
 62
7
  6
CONTINUOUS
 10
102.9967634244
 20
185.4828820625
  0
VERTEX
  8
0
 62
7
  6
CONTINUOUS
 10
102.9962037371
 20
185.4290559811
  0
SEQEND
  0
LINE
  8
0
 62
7
  6
CONTINUOUS
 10
106.7594403869
 20
77.4790272377
 11
107.1626870195
 21
77.6597539209
  0
POLYLINE
  8
0
 62
7
  6
CONTINUOUS
 66
1
 70
0
  0
VERTEX
  8
0
 62
7
  6
CONTINUOUS
 10
52.3094961821
 20
202.6023438615
  0
VERTEX
  8
0
 62
7
  6
CONTINUOUS
 10
52.602818301
 20
202.6063168385
  0
VERTEX
  8
0
 62
7
  6
CONTINUOUS
 10
52.6824118441
 20
202.6064431619
  0
VERTEX
  8
0
 62
7
  6
CONTINUOUS
 10
52.7614745053
 20
202.6051644825
  0
VERTEX
  8
0
 62
7
  6
CONTINUOUS
 10
52.8397262295
 20
202.6022780057
  0
VERTEX
  8
0
 62
7
  6
CONTINUOUS
 10
52.9169444735
 20
202.5975626037
  0
VERTEX
  8
0
 62
7
  6
CONTINUOUS
 10
52.9929095224
 20
202.5908196831
  0
VERTEX
  8
0
 62
7
  6
CONTINUOUS
 10
53.0671886671
 20
202.581873337
  0
VERTEX
  8
0
 62
7
  6
CONTINUOUS
 10
53.1392736654
 20
202.5705538197
  0
VERTEX
  8
0
 62
7
  6
CONTINUOUS
 10
53.2093783343
 20
202.5566624205
  0
VERTEX
  8
0
 62
7
  6
CONTINUOUS
 10
53.2770284864
 20
202.5399625447
  0
VERTEX
  8
0
 62
7
  6
CONTINUOUS
 10
53.3410966707
 20
202.5202480028
  0
VERTEX
  8
0
 62
7
  6
CONTINUOUS
 10
53.4005864958
 20
202.4969013252
  0
VERTEX
  8
0
 62
7
  6
CONTINUOUS
 10
53.4558554446
 20
202.469432902
  0
VERTEX
  8
0
 62
7
  6
CONTINUOUS
 10
53.5052999739
 20
202.4384180255
  0
VERTEX
  8
0
 62
7
  6
CONTINUOUS
 10
53.5474789468
 20
202.4049753395
  0
VERTEX
  8
0
 62
7
  6
CONTINUOUS
 10
53.5827532386
 20
202.3691054481
  0
VERTEX
  8
0
 62
7
  6
CONTINUOUS
 10
53.6110490501
 20
202.3307852728
  0
VERTEX
  8
0
 62
7
  6
CONTINUOUS
 10
53.6317591557
 20
202.2899542722
  0
VERTEX
  8
0
 62
7
  6
CONTINUOUS
 10
53.6433474177
 20
202.2471574496
  0
VERTEX
  8
0
 62
7
  6
CONTINUOUS
 10
53.6451139279
 20
202.2237876512
  0
SEQEND
  0
POLYLINE
  8
0
 62
7
  6
CONTINUOUS
 66
1
 70
0
  0
VERTEX
  8
0
 62
7
  6
CONTINUOUS
 10
97.1343809155
 20
202.4260575496
  0
VERTEX
  8
0
 62
7
  6
CONTINUOUS
 10
96.8403491445
 20
202.4220878286
  0
VERTEX
  8
0
 62
7
  6
CONTINUOUS
 10
96.7604799715
 20
202.4220411622
  0
VERTEX
  8
0
 62
7
  6
CONTINUOUS
 10
96.6813045083
 20
202.4234179269
  0
VERTEX
  8
0
 62
7
  6
CONTINUOUS
 10
96.6030825345
 20
202.4264170363
  0
VERTEX
  8
0
 62
7
  6
CONTINUOUS
 10
96.526011415
 20
202.4312526061
  0
VERTEX
  8
0
 62
7
  6
CONTINUOUS
 10
96.4502982424
 20
202.4381137358
  0
VERTEX
  8
0
 62
7
  6
CONTINUOUS
 10
96.3763709736
 20
202.4471696342
  0
VERTEX
  8
0
 62
7
  6
CONTINUOUS
 10
96.3046757973
 20
202.45858529
  0
VERTEX
  8
0
 62
7
  6
CONTINUOUS
 10
96.2350767752
 20
202.4725412661
  0
VERTEX
  8
0
 62
7
  6
CONTINUOUS
 10
96.1678411892
 20
202.4893090206
  0
VERTEX
  8
0
 62
7
  6
CONTINUOUS
 10
96.1044121482
 20
202.5090111726
  0
VERTEX
  8
0
 62
7
  6
CONTINUOUS
 10
96.0454172558
 20
202.5323625705
  0
VERTEX
  8
0
 62
7
  6
CONTINUOUS
 10
95.9906472508
 20
202.5597654542
  0
VERTEX
  8
0
 62
7
  6
CONTINUOUS
 10
95.9417159834
 20
202.5906145879
  0
VERTEX
  8
0
 62
7
  6
CONTINUOUS
 10
95.8996896206
 20
202.6240785908
  0
VERTEX
  8
0
 62
7
  6
CONTINUOUS
 10
95.8643459459
 20
202.6602137928
  0
VERTEX
  8
0
 62
7
  6
CONTINUOUS
 10
95.8359808025
 20
202.6989770345
  0
VERTEX
  8
0
 62
7
  6
CONTINUOUS
 10
95.8154045048
 20
202.7402506342
  0
VERTEX
  8
0
 62
7
  6
CONTINUOUS
 10
95.8042214777
 20
202.7832479703
  0
VERTEX
  8
0
 62
7
  6
CONTINUOUS
 10
95.8027314654
 20
202.8044868735
  0
SEQEND
  0
LINE
  8
0
 62
7
  6
CONTINUOUS
 10
97.4173950845
 20
202.4284996042
 11
97.1343809155
 21
202.4260575496
  0
LINE
  8
0
 62
7
  6
CONTINUOUS
 10
52.0264744454
 20
202.5999278871
 11
52.3094961821
 21
202.6023438615
  0
LINE
  8
0
 62
7
  6
CONTINUOUS
 10
97.4173950845
 20
202.4284996042
 11
102.9654960251
 21
202.4290559811
  0
LINE
  8
0
 62
7
  6
CONTINUOUS
 10
46.4823863198
 20
202.5993922948
 11
52.0264744454
 21
202.5999278871
  0
LINE
  8
0
 62
7
  6
CONTINUOUS
 10
46.4813043685
 20
202.599451603
 11
46.4823243083
 21
202.5993922977
  0
LINE
  8
0
 62
7
  6
CONTINUOUS
 10
102.9655281381
 20
202.429055981
 11
102.9665361752
 21
202.428996655
  0
LINE
  8
0
 62
7
  6
CONTINUOUS
 10
107.2583535255
 20
201.3568520517
 11
107.1536279805
 21
201.3727544261
  0
POLYLINE
  8
0
 62
7
  6
CONTINUOUS
 66
1
 70
0
  0
VERTEX
  8
0
 62
7
  6
CONTINUOUS
 10
107.1626870195
 20
201.3686943549
  0
VERTEX
  8
0
 62
7
  6
CONTINUOUS
 10
106.75944028
 20
201.5494210821
  0
VERTEX
  8
0
 62
7
  6
CONTINUOUS
 10
106.2935895488
 20
201.7244148999
  0
VERTEX
  8
0
 62
7
  6
CONTINUOUS
 10
105.7917390287
 20
201.8831128529
  0
VERTEX
  8
0
 62
7
  6
CONTINUOUS
 10
105.2581911953
 20
202.0257456286
  0
VERTEX
  8
0
 62
7
  6
CONTINUOUS
 10
104.6976053644
 20
202.1523595284
  0
VERTEX
  8
0
 62
7
  6
CONTINUOUS
 10
104.1148182295
 20
202.2629701393
  0
VERTEX
  8
0
 62
7
  6
CONTINUOUS
 10
103.5148366411
 20
202.357619599
  0
VERTEX
  8
0
 62
7
  6
CONTINUOUS
 10
102.9665462966
 20
202.4289967058
  0
SEQEND
  0
POLYLINE
  8
0
 62
7
  6
CONTINUOUS
 66
1
 70
0
  0
VERTEX
  8
0
 62
7
  6
CONTINUOUS
 10
102.9665361752
 20
202.428996655
  0
VERTEX
  8
0
 62
7
  6
CONTINUOUS
 10
102.9751330732
 20
202.4231849546
  0
VERTEX
  8
0
 62
7
  6
CONTINUOUS
 10
102.9839263916
 20
202.4040982016
  0
VERTEX
  8
0
 62
7
  6
CONTINUOUS
 10
102.9906548344
 20
202.3728969545
  0
VERTEX
  8
0
 62
7
  6
CONTINUOUS
 10
102.9949745378
 20
202.3315784087
  0
VERTEX
  8
0
 62
7
  6
CONTINUOUS
 10
102.9967634244
 20
202.2828820625
  0
VERTEX
  8
0
 62
7
  6
CONTINUOUS
 10
102.9962037371
 20
202.2290559811
  0
SEQEND
  0
POLYLINE
  8
0
 62
7
  6
CONTINUOUS
 66
1
 70
0
  0
VERTEX
  8
0
 62
7
  6
CONTINUOUS
 10
102.9611745971
 20
59.8142241379
  0
VERTEX
  8
0
 62
7
  6
CONTINUOUS
 10
102.9689373373
 20
59.8191490088
  0
VERTEX
  8
0
 62
7
  6
CONTINUOUS
 10
102.9763174647
 20
59.8337335236
  0
VERTEX
  8
0
 62
7
  6
CONTINUOUS
 10
102.9829516578
 20
59.857341985
  0
VERTEX
  8
0
 62
7
  6
CONTINUOUS
 10
102.9885077268
 20
59.8888804345
  0
VERTEX
  8
0
 62
7
  6
CONTINUOUS
 10
102.9927019101
 20
59.9268316189
  0
VERTEX
  8
0
 62
7
  6
CONTINUOUS
 10
102.9953148208
 20
59.9693227436
  0
VERTEX
  8
0
 62
7
  6
CONTINUOUS
 10
102.9962037371
 20
60.0142241379
  0
SEQEND
  0
POLYLINE
  8
0
 62
7
  6
CONTINUOUS
 66
1
 70
0
  0
VERTEX
  8
0
 62
7
  6
CONTINUOUS
 10
41.0237336166
 20
210.8142238221
  0
VERTEX
  8
0
 62
7
  6
CONTINUOUS
 10
40.9793173605
 20
210.8091847619
  0
VERTEX
  8
0
 62
7
  6
CONTINUOUS
 10
40.9371347457
 20
210.7944093074
  0
VERTEX
  8
0
 62
7
  6
CONTINUOUS
 10
40.8992845848
 20
210.7706337498
  0
VERTEX
  8
0
 62
7
  6
CONTINUOUS
 10
40.8676590721
 20
210.7390452976
  0
VERTEX
  8
0
 62
7
  6
CONTINUOUS
 10
40.8438382818
 20
210.7012212777
  0
VERTEX
  8
0
 62
7
  6
CONTINUOUS
 10
40.8290127181
 20
210.6590514821
  0
VERTEX
  8
0
 62
7
  6
CONTINUOUS
 10
40.8239224148
 20
210.6142149591
  0
SEQEND
  0
LINE
  8
0
 62
7
  6
CONTINUOUS
 10
41.0238552346
 20
210.8142241379
 11
95.6025281817
 21
210.8142241379
  0
LINE
  8
0
 62
7
  6
CONTINUOUS
 10
148.1315517241
 20
59.8142241379
 11
162.9315517241
 21
59.8142241379
  0
POLYLINE
  8
0
 62
7
  6
CONTINUOUS
 66
1
 70
0
  0
VERTEX
  8
0
 62
7
  6
CONTINUOUS
 10
156.1318546466
 20
59.8142241379
  0
VERTEX
  8
0
 62
7
  6
CONTINUOUS
 10
155.9753727666
 20
59.8265395344
  0
VERTEX
  8
0
 62
7
  6
CONTINUOUS
 10
155.8227439908
 20
59.8631824761
  0
VERTEX
  8
0
 62
7
  6
CONTINUOUS
 10
155.6777265652
 20
59.9232506806
  0
VERTEX
  8
0
 62
7
  6
CONTINUOUS
 10
155.5438913157
 20
60.0052650454
  0
VERTEX
  8
0
 62
7
  6
CONTINUOUS
 10
155.4245336858
 20
60.1072060996
  0
VERTEX
  8
0
 62
7
  6
CONTINUOUS
 10
155.3225926316
 20
60.2265637295
  0
VERTEX
  8
0
 62
7
  6
CONTINUOUS
 10
155.2405782668
 20
60.360398979
  0
VERTEX
  8
0
 62
7
  6
CONTINUOUS
 10
155.1805100623
 20
60.5054164046
  0
VERTEX
  8
0
 62
7
  6
CONTINUOUS
 10
155.1438671207
 20
60.6580451804
  0
VERTEX
  8
0
 62
7
  6
CONTINUOUS
 10
155.1315517241
 20
60.8145300097
  0
SEQEND
  0
LINE
  8
0
 62
7
  6
CONTINUOUS
 10
147.1815517241
 20
64.4527304737
 11
147.1315517241
 21
64.4492341331
  0
LINE
  8
0
 62
7
  6
CONTINUOUS
 10
147.141642656
 20
70.9957783738
 11
149.2784477227
 21
70.9211594966
  0
LINE
  8
0
 62
7
  6
CONTINUOUS
 10
148.3871132184
 20
70.1138656971
 11
159.1905926806
 21
69.2503314463
  0
LINE
  8
0
 62
7
  6
CONTINUOUS
 10
149.8962285128
 20
70.6248135322
 11
151.0542036385
 21
70.5283318747
  0
LINE
  8
0
 62
7
  6
CONTINUOUS
 10
151.0542036385
 20
70.5283318747
 11
152.3221679504
 21
70.4210338825
  0
POLYLINE
  8
0
 62
7
  6
CONTINUOUS
 66
1
 70
0
  0
VERTEX
  8
0
 62
7
  6
CONTINUOUS
 10
152.3221679504
 20
70.4210338825
  0
VERTEX
  8
0
 62
7
  6
CONTINUOUS
 10
153.6658945223
 20
70.3053019192
  0
VERTEX
  8
0
 62
7
  6
CONTINUOUS
 10
154.3548518396
 20
70.2451782458
  0
SEQEND
  0
POLYLINE
  8
0
 62
7
  6
CONTINUOUS
 66
1
 70
0
  0
VERTEX
  8
0
 62
7
  6
CONTINUOUS
 10
155.8500511179
 20
69.5173446918
  0
VERTEX
  8
0
 62
7
  6
CONTINUOUS
 10
155.8892613458
 20
69.5123565976
  0
VERTEX
  8
0
 62
7
  6
CONTINUOUS
 10
155.9369420969
 20
69.5012258263
  0
VERTEX
  8
0
 62
7
  6
CONTINUOUS
 10
155.9678024705
 20
69.4910216028
  0
SEQEND
  0
POLYLINE
  8
0
 62
7
  6
CONTINUOUS
 66
1
 70
0
  0
VERTEX
  8
0
 62
7
  6
CONTINUOUS
 10
149.2784431282
 20
70.9211596686
  0
VERTEX
  8
0
 62
7
  6
CONTINUOUS
 10
149.3664914943
 20
70.9086629678
  0
VERTEX
  8
0
 62
7
  6
CONTINUOUS
 10
149.4254356918
 20
70.8903575655
  0
SEQEND
  0
LINE
  8
0
 62
7
  6
CONTINUOUS
 10
162.8765920458
 20
68.207091921
 11
159.288153376
 21
69.2326720138
  0
POLYLINE
  8
0
 62
7
  6
CONTINUOUS
 66
1
 70
0
  0
VERTEX
  8
0
 62
7
  6
CONTINUOUS
 10
149.4254356918
 20
70.8903575655
  0
VERTEX
  8
0
 62
7
  6
CONTINUOUS
 10
149.4503107848
 20
70.8805616564
  0
VERTEX
  8
0
 62
7
  6
CONTINUOUS
 10
149.5268940422
 20
70.8425484174
  0
VERTEX
  8
0
 62
7
  6
CONTINUOUS
 10
149.595493781
 20
70.799947106
  0
VERTEX
  8
0
 62
7
  6
CONTINUOUS
 10
149.6563001513
 20
70.7572156546
  0
VERTEX
  8
0
 62
7
  6
CONTINUOUS
 10
149.7112091211
 20
70.7169220556
  0
VERTEX
  8
0
 62
7
  6
CONTINUOUS
 10
149.7614037437
 20
70.6815513633
  0
VERTEX
  8
0
 62
7
  6
CONTINUOUS
 10
149.807830329
 20
70.6533967109
  0
VERTEX
  8
0
 62
7
  6
CONTINUOUS
 10
149.8521949045
 20
70.634003067
  0
VERTEX
  8
0
 62
7
  6
CONTINUOUS
 10
149.8962285128
 20
70.6248135322
  0
SEQEND
  0
LINE
  8
0
 62
7
  6
CONTINUOUS
 10
148.051874723
 20
74.4877865892
 11
159.1905926806
 21
75.3781168296
  0
LINE
  8
0
 62
7
  6
CONTINUOUS
 10
157.3209754088
 20
78.1348491379
 11
157.6691185011
 21
78.1348491379
  0
LINE
  8
0
 62
7
  6
CONTINUOUS
 10
156.8905593684
 20
78.2923489877
 11
157.2387024607
 21
78.2923489877
  0
LINE
  8
0
 62
7
  6
CONTINUOUS
 10
156.6931312792
 20
78.4442241379
 11
156.4809090217
 21
78.4442241379
  0
LINE
  8
0
 62
7
  6
CONTINUOUS
 10
155.9677773546
 20
69.4910308735
 11
156.0248652263
 21
69.4658618369
  0
POLYLINE
  8
0
 62
7
  6
CONTINUOUS
 66
1
 70
0
  0
VERTEX
  8
0
 62
7
  6
CONTINUOUS
 10
149.4254531089
 20
70.8904424057
  0
VERTEX
  8
0
 62
7
  6
CONTINUOUS
 10
149.5080601467
 20
70.8507566158
  0
VERTEX
  8
0
 62
7
  6
CONTINUOUS
 10
149.5760723051
 20
70.8018411576
  0
VERTEX
  8
0
 62
7
  6
CONTINUOUS
 10
149.6349627833
 20
70.7422567851
  0
VERTEX
  8
0
 62
7
  6
CONTINUOUS
 10
149.683078273
 20
70.673676258
  0
VERTEX
  8
0
 62
7
  6
CONTINUOUS
 10
149.7190679775
 20
70.59802491
  0
SEQEND
  0
LINE
  8
0
 62
7
  6
CONTINUOUS
 10
156.0248652267
 20
192.7625864392
 11
155.9677773547
 21
192.7374174024
  0
LINE
  8
0
 62
7
  6
CONTINUOUS
 10
159.288153376
 20
192.9957762621
 11
162.8765920458
 21
194.0213563548
  0
LINE
  8
0
 62
7
  6
CONTINUOUS
 10
156.6931312792
 20
78.9842241379
 11
156.4809090217
 21
78.9842241379
  0
LINE
  8
0
 62
7
  6
CONTINUOUS
 10
156.3921829106
 20
79.3160991379
 11
156.8905593684
 21
79.3160991379
  0
LINE
  8
0
 62
7
  6
CONTINUOUS
 10
157.0264802032
 20
79.3160991379
 11
157.3209754088
 21
79.3160991379
  0
LINE
  8
0
 62
7
  6
CONTINUOUS
 10
157.6691185011
 20
79.5523491379
 11
156.3921829106
 21
79.5523491379
  0
LINE
  8
0
 62
7
  6
CONTINUOUS
 10
156.6413711395
 20
79.8673490628
 11
156.9668607594
 21
79.8673490628
  0
LINE
  8
0
 62
7
  6
CONTINUOUS
 10
157.057474681
 20
79.946099213
 11
156.8452524235
 21
79.946099213
  0
LINE
  8
0
 62
7
  6
CONTINUOUS
 10
157.419930304
 20
79.9854740628
 11
157.2077080464
 21
79.9854740628
  0
LINE
  8
0
 62
7
  6
CONTINUOUS
 10
157.4878907214
 20
80.0248491379
 11
157.2756684638
 21
80.0248491379
  0
LINE
  8
0
 62
7
  6
CONTINUOUS
 10
157.1480885709
 20
80.1035990628
 11
156.9358663133
 21
80.1035990628
  0
LINE
  8
0
 62
7
  6
CONTINUOUS
 10
156.7319850294
 20
80.1035990628
 11
156.664024612
 21
80.1035990628
  0
LINE
  8
0
 62
7
  6
CONTINUOUS
 10
157.5785046112
 20
80.1429741379
 11
157.3662823537
 21
80.1429741379
  0
LINE
  8
0
 62
7
  6
CONTINUOUS
 10
156.7999454785
 20
80.182349213
 11
156.5960641946
 21
80.182349213
  0
LINE
  8
0
 62
7
  6
CONTINUOUS
 10
157.1933955158
 20
80.2610991379
 11
156.9811732583
 21
80.2610991379
  0
LINE
  8
0
 62
7
  6
CONTINUOUS
 10
157.6464650287
 20
80.300474213
 11
157.4342427711
 21
80.300474213
  0
LINE
  8
0
 62
7
  6
CONTINUOUS
 10
156.7629794913
 20
80.300474213
 11
156.5507572338
 21
80.300474213
  0
LINE
  8
0
 62
7
  6
CONTINUOUS
 10
157.2160489883
 20
80.4579740628
 11
157.0038267308
 21
80.4579740628
  0
LINE
  8
0
 62
7
  6
CONTINUOUS
 10
156.7403260188
 20
80.4579740628
 11
156.5281037613
 21
80.4579740628
  0
LINE
  8
0
 62
7
  6
CONTINUOUS
 10
157.6691185011
 20
80.4973491379
 11
157.4568962436
 21
80.4973491379
  0
LINE
  8
0
 62
7
  6
CONTINUOUS
 10
157.6691185011
 20
80.6942240628
 11
157.4568962436
 21
80.6942240628
  0
LINE
  8
0
 62
7
  6
CONTINUOUS
 10
157.2160489883
 20
80.6942240628
 11
157.0038267308
 21
80.6942240628
  0
LINE
  8
0
 62
7
  6
CONTINUOUS
 10
156.7403260188
 20
80.772974213
 11
156.5281037613
 21
80.772974213
  0
LINE
  8
0
 62
7
  6
CONTINUOUS
 10
157.2387024607
 20
80.8123490628
 11
157.0264802032
 21
80.8123490628
  0
LINE
  8
0
 62
7
  6
CONTINUOUS
 10
157.6464650287
 20
80.8517241379
 11
157.4342427711
 21
80.8517241379
  0
LINE
  8
0
 62
7
  6
CONTINUOUS
 10
157.2530149914
 20
80.9304740628
 11
157.0717871482
 21
80.9304740628
  0
LINE
  8
0
 62
7
  6
CONTINUOUS
 10
156.7629794913
 20
80.9304740628
 11
156.5507572338
 21
80.9304740628
  0
LINE
  8
0
 62
7
  6
CONTINUOUS
 10
157.1397475656
 20
80.9698491379
 11
157.1850545105
 21
80.9698491379
  0
LINE
  8
0
 62
7
  6
CONTINUOUS
 10
157.6011580837
 20
81.009224213
 11
157.3889358262
 21
81.009224213
  0
LINE
  8
0
 62
7
  6
CONTINUOUS
 10
156.8309399245
 20
81.0485990628
 11
156.618717667
 21
81.0485990628
  0
LINE
  8
0
 62
7
  6
CONTINUOUS
 10
156.898900342
 20
81.0879741379
 11
156.6866780844
 21
81.0879741379
  0
LINE
  8
0
 62
7
  6
CONTINUOUS
 10
157.5105441938
 20
81.1667240628
 11
157.2983219363
 21
81.1667240628
  0
LINE
  8
0
 62
7
  6
CONTINUOUS
 10
157.419930304
 20
81.2060991379
 11
157.1170940931
 21
81.2060991379
  0
LINE
  8
0
 62
7
  6
CONTINUOUS
 10
156.898900342
 20
81.3242241379
 11
156.6866780844
 21
81.3242241379
  0
LINE
  8
0
 62
7
  6
CONTINUOUS
 10
156.3921829106
 20
81.6392241755
 11
157.6691185011
 21
81.6392241755
  0
LINE
  8
0
 62
7
  6
CONTINUOUS
 10
157.6691185011
 20
81.8754741755
 11
156.5507572338
 21
81.8754741755
  0
LINE
  8
0
 62
7
  6
CONTINUOUS
 10
157.6691185011
 20
82.8598491379
 11
157.4568962436
 21
82.8598491379
  0
LINE
  8
0
 62
7
  6
CONTINUOUS
 10
156.3921829106
 20
82.9779741379
 11
157.3209754088
 21
82.9779741379
  0
LINE
  8
0
 62
7
  6
CONTINUOUS
 10
157.6691185011
 20
83.2142241379
 11
156.3921829106
 21
83.2142241379
  0
POLYLINE
  8
0
 62
7
  6
CONTINUOUS
 66
1
 70
0
  0
VERTEX
  8
0
 62
7
  6
CONTINUOUS
 10
156.0248652263
 20
69.4658618369
  0
VERTEX
  8
0
 62
7
  6
CONTINUOUS
 10
156.0953402715
 20
69.4232314877
  0
VERTEX
  8
0
 62
7
  6
CONTINUOUS
 10
156.165561626
 20
69.3672834665
  0
VERTEX
  8
0
 62
7
  6
CONTINUOUS
 10
156.2168999274
 20
69.3170163849
  0
SEQEND
  0
LINE
  8
0
 62
7
  6
CONTINUOUS
 10
156.0953402715
 20
192.8052167882
 11
156.0248652267
 21
192.7625864392
  0
LINE
  8
0
 62
7
  6
CONTINUOUS
 10
148.051874723
 20
86.9406616867
 11
159.1905926806
 21
86.0503314463
  0
LINE
  8
0
 62
7
  6
CONTINUOUS
 10
157.2983219363
 20
81.1667240628
 11
157.2077080464
 21
81.2060991379
  0
LINE
  8
0
 62
7
  6
CONTINUOUS
 10
157.5105441938
 20
81.1667240628
 11
157.419930304
 21
81.2060991379
  0
POLYLINE
  8
0
 62
7
  6
CONTINUOUS
 66
1
 70
0
  0
VERTEX
  8
0
 62
7
  6
CONTINUOUS
 10
147.4581669081
 20
70.8128522166
  0
VERTEX
  8
0
 62
7
  6
CONTINUOUS
 10
147.4196461368
 20
70.8603321712
  0
VERTEX
  8
0
 62
7
  6
CONTINUOUS
 10
147.3708653093
 20
70.9182098406
  0
VERTEX
  8
0
 62
7
  6
CONTINUOUS
 10
147.3312089948
 20
70.9590751842
  0
VERTEX
  8
0
 62
7
  6
CONTINUOUS
 10
147.2991325244
 20
70.9829906274
  0
VERTEX
  8
0
 62
7
  6
CONTINUOUS
 10
147.2732721897
 20
70.9911792396
  0
SEQEND
  0
LINE
  8
0
 62
7
  6
CONTINUOUS
 10
148.051874723
 20
91.2877865892
 11
159.1905926806
 21
92.1781168296
  0
LINE
  8
0
 62
7
  6
CONTINUOUS
 10
159.288153376
 20
86.0326720138
 11
162.8765920458
 21
85.007091921
  0
LINE
  8
0
 62
7
  6
CONTINUOUS
 10
155.9677773546
 20
86.2910308735
 11
156.0248652263
 21
86.2658618369
  0
LINE
  8
0
 62
7
  6
CONTINUOUS
 10
157.1850545105
 20
80.9698491379
 11
157.2530149914
 21
80.9304740628
  0
POLYLINE
  8
0
 62
7
  6
CONTINUOUS
 66
1
 70
0
  0
VERTEX
  8
0
 62
7
  6
CONTINUOUS
 10
156.0248652263
 20
86.2658618369
  0
VERTEX
  8
0
 62
7
  6
CONTINUOUS
 10
156.0953402715
 20
86.2232314877
  0
VERTEX
  8
0
 62
7
  6
CONTINUOUS
 10
156.165561626
 20
86.1672834665
  0
VERTEX
  8
0
 62
7
  6
CONTINUOUS
 10
156.2168999274
 20
86.1170163849
  0
SEQEND
  0
LINE
  8
0
 62
7
  6
CONTINUOUS
 10
156.2168016037
 20
69.3171209504
 11
156.2168999274
 21
69.3170163849
  0
POLYLINE
  8
0
 62
7
  6
CONTINUOUS
 66
1
 70
0
  0
VERTEX
  8
0
 62
7
  6
CONTINUOUS
 10
147.4581717266
 20
70.8128462726
  0
VERTEX
  8
0
 62
7
  6
CONTINUOUS
 10
147.5072294387
 20
70.7401053365
  0
VERTEX
  8
0
 62
7
  6
CONTINUOUS
 10
147.5241056882
 20
70.7067239432
  0
SEQEND
  0
LINE
  8
0
 62
7
  6
CONTINUOUS
 10
156.2168016048
 20
192.9113273266
 11
156.2168999265
 21
192.91143189
  0
POLYLINE
  8
0
 62
7
  6
CONTINUOUS
 66
1
 70
0
  0
VERTEX
  8
0
 62
7
  6
CONTINUOUS
 10
156.2168999265
 20
192.91143189
  0
VERTEX
  8
0
 62
7
  6
CONTINUOUS
 10
156.1655616261
 20
192.8611648094
  0
VERTEX
  8
0
 62
7
  6
CONTINUOUS
 10
156.0953402715
 20
192.8052167882
  0
SEQEND
  0
LINE
  8
0
 62
7
  6
CONTINUOUS
 10
156.0248652267
 20
175.9625864392
 11
155.9677773547
 21
175.9374174024
  0
LINE
  8
0
 62
7
  6
CONTINUOUS
 10
159.288153376
 20
176.1957762621
 11
162.8765920458
 21
177.2213563548
  0
LINE
  8
0
 62
7
  6
CONTINUOUS
 10
165.6489526364
 20
96.6408760725
 11
163.1315517241
 21
96.0142241379
  0
LINE
  8
0
 62
7
  6
CONTINUOUS
 10
156.9245395771
 20
97.1892241379
 11
158.0240229455
 21
97.1892241379
  0
LINE
  8
0
 62
7
  6
CONTINUOUS
 10
158.0240229455
 20
97.5017241379
 11
157.8118006879
 21
97.5017241379
  0
LINE
  8
0
 62
7
  6
CONTINUOUS
 10
157.6607775381
 20
97.5017241379
 11
156.9245395771
 21
97.5017241379
  0
LINE
  8
0
 62
7
  6
CONTINUOUS
 10
157.8918776894
 20
97.8142241379
 11
157.5286322292
 21
97.8142241379
  0
LINE
  8
0
 62
7
  6
CONTINUOUS
 10
156.5507572338
 20
79.946099213
 11
156.6413711395
 21
79.8673490628
  0
LINE
  8
0
 62
7
  6
CONTINUOUS
 10
156.2168016064
 20
69.3171209529
 11
156.2607841788
 21
69.2626301526
  0
POLYLINE
  8
0
 62
7
  6
CONTINUOUS
 66
1
 70
0
  0
VERTEX
  8
0
 62
7
  6
CONTINUOUS
 10
147.5241056192
 20
70.7067239113
  0
VERTEX
  8
0
 62
7
  6
CONTINUOUS
 10
147.5661257783
 20
70.6253758237
  0
VERTEX
  8
0
 62
7
  6
CONTINUOUS
 10
147.6484409198
 20
70.5040734429
  0
VERTEX
  8
0
 62
7
  6
CONTINUOUS
 10
147.7483400956
 20
70.3951645875
  0
VERTEX
  8
0
 62
7
  6
CONTINUOUS
 10
147.863907842
 20
70.3010968034
  0
VERTEX
  8
0
 62
7
  6
CONTINUOUS
 10
147.9929327661
 20
70.2239957275
  0
VERTEX
  8
0
 62
7
  6
CONTINUOUS
 10
148.1328192156
 20
70.165720716
  0
VERTEX
  8
0
 62
7
  6
CONTINUOUS
 10
148.2807665632
 20
70.1277385757
  0
VERTEX
  8
0
 62
7
  6
CONTINUOUS
 10
148.3872788059
 20
70.1138538844
  0
SEQEND
  0
LINE
  8
0
 62
7
  6
CONTINUOUS
 10
156.0953402715
 20
176.0052167882
 11
156.0248652267
 21
175.9625864392
  0
LINE
  8
0
 62
7
  6
CONTINUOUS
 10
165.6489526364
 20
105.0408760725
 11
163.1315517241
 21
104.4142241379
  0
LINE
  8
0
 62
7
  6
CONTINUOUS
 10
148.051874723
 20
103.7406616867
 11
159.1905926806
 21
102.8503314463
  0
LINE
  8
0
 62
7
  6
CONTINUOUS
 10
165.6489526364
 20
98.3875722033
 11
163.1315517241
 21
99.0142241379
  0
LINE
  8
0
 62
7
  6
CONTINUOUS
 10
156.2168016037
 20
86.1171209504
 11
156.2168999274
 21
86.1170163849
  0
LINE
  8
0
 62
7
  6
CONTINUOUS
 10
156.664024612
 20
80.1035990628
 11
156.5960641946
 21
80.182349213
  0
LINE
  8
0
 62
7
  6
CONTINUOUS
 10
156.2607841788
 20
69.2626301526
 11
156.3057693539
 21
69.1814011166
  0
POLYLINE
  8
0
 62
7
  6
CONTINUOUS
 66
1
 70
0
  0
VERTEX
  8
0
 62
7
  6
CONTINUOUS
 10
156.3057693551
 20
193.0470471621
  0
VERTEX
  8
0
 62
7
  6
CONTINUOUS
 10
156.2607841802
 20
192.9658181254
  0
VERTEX
  8
0
 62
7
  6
CONTINUOUS
 10
156.2168016074
 20
192.911327324
  0
SEQEND
  0
LINE
  8
0
 62
7
  6
CONTINUOUS
 10
156.2168016048
 20
176.1113273266
 11
156.2168999265
 21
176.11143189
  0
POLYLINE
  8
0
 62
7
  6
CONTINUOUS
 66
1
 70
0
  0
VERTEX
  8
0
 62
7
  6
CONTINUOUS
 10
156.2168999265
 20
176.11143189
  0
VERTEX
  8
0
 62
7
  6
CONTINUOUS
 10
156.1655616261
 20
176.0611648094
  0
VERTEX
  8
0
 62
7
  6
CONTINUOUS
 10
156.0953402715
 20
176.0052167882
  0
SEQEND
  0
LINE
  8
0
 62
7
  6
CONTINUOUS
 10
148.051874723
 20
108.0877865892
 11
159.1905926806
 21
108.9781168296
  0
LINE
  8
0
 62
7
  6
CONTINUOUS
 10
159.288153376
 20
102.8326720138
 11
162.8765920458
 21
101.807091921
  0
LINE
  8
0
 62
7
  6
CONTINUOUS
 10
155.9677773546
 20
103.0910308735
 11
156.0248652263
 21
103.0658618369
  0
POLYLINE
  8
0
 62
7
  6
CONTINUOUS
 66
1
 70
0
  0
VERTEX
  8
0
 62
7
  6
CONTINUOUS
 10
156.0248652263
 20
103.0658618369
  0
VERTEX
  8
0
 62
7
  6
CONTINUOUS
 10
156.0953402715
 20
103.0232314877
  0
VERTEX
  8
0
 62
7
  6
CONTINUOUS
 10
156.165561626
 20
102.9672834665
  0
VERTEX
  8
0
 62
7
  6
CONTINUOUS
 10
156.2168999274
 20
102.9170163849
  0
SEQEND
  0
LINE
  8
0
 62
7
  6
CONTINUOUS
 10
156.2168016064
 20
86.1171209529
 11
156.2607841788
 21
86.0626301526
  0
LINE
  8
0
 62
7
  6
CONTINUOUS
 10
156.4601433359
 20
80.1035990628
 11
156.5507572338
 21
79.946099213
  0
POLYLINE
  8
0
 62
7
  6
CONTINUOUS
 66
1
 70
0
  0
VERTEX
  8
0
 62
7
  6
CONTINUOUS
 10
149.7190679775
 20
70.59802491
  0
VERTEX
  8
0
 62
7
  6
CONTINUOUS
 10
149.7457140084
 20
70.5185206682
  0
VERTEX
  8
0
 62
7
  6
CONTINUOUS
 10
149.7970116156
 20
70.4087096981
  0
VERTEX
  8
0
 62
7
  6
CONTINUOUS
 10
149.868877638
 20
70.3033579831
  0
VERTEX
  8
0
 62
7
  6
CONTINUOUS
 10
149.9611549192
 20
70.2057557796
  0
VERTEX
  8
0
 62
7
  6
CONTINUOUS
 10
150.0723948128
 20
70.1193602429
  0
VERTEX
  8
0
 62
7
  6
CONTINUOUS
 10
150.2009902725
 20
70.0466513164
  0
VERTEX
  8
0
 62
7
  6
CONTINUOUS
 10
150.3449447317
 20
69.9898168528
  0
VERTEX
  8
0
 62
7
  6
CONTINUOUS
 10
150.5020612514
 20
69.9509064336
  0
VERTEX
  8
0
 62
7
  6
CONTINUOUS
 10
150.6256853312
 20
69.9349319987
  0
SEQEND
  0
LINE
  8
0
 62
7
  6
CONTINUOUS
 10
156.0248652267
 20
159.1625864392
 11
155.9677773547
 21
159.1374174024
  0
LINE
  8
0
 62
7
  6
CONTINUOUS
 10
159.288153376
 20
159.3957762621
 11
162.8765920458
 21
160.4213563548
  0
LINE
  8
0
 62
7
  6
CONTINUOUS
 10
165.6489526364
 20
113.4408760725
 11
163.1315517241
 21
112.8142241379
  0
LINE
  8
0
 62
7
  6
CONTINUOUS
 10
165.6489526364
 20
106.7875722033
 11
163.1315517241
 21
107.4142241379
  0
LINE
  8
0
 62
7
  6
CONTINUOUS
 10
156.2168016037
 20
102.9171209504
 11
156.2168999274
 21
102.9170163849
  0
LINE
  8
0
 62
7
  6
CONTINUOUS
 10
157.3889358262
 20
81.009224213
 11
157.2983219363
 21
81.1667240628
  0
LINE
  8
0
 62
7
  6
CONTINUOUS
 10
157.6011580837
 20
81.009224213
 11
157.5105441938
 21
81.1667240628
  0
LINE
  8
0
 62
7
  6
CONTINUOUS
 10
156.2607841788
 20
86.0626301526
 11
156.3057693539
 21
85.9814011166
  0
LINE
  8
0
 62
7
  6
CONTINUOUS
 10
156.3057693539
 20
69.1814011166
 11
156.3344043664
 21
69.0998173674
  0
LINE
  8
0
 62
7
  6
CONTINUOUS
 10
156.3344043572
 20
193.1286308747
 11
156.3057693551
 21
193.0470471621
  0
POLYLINE
  8
0
 62
7
  6
CONTINUOUS
 66
1
 70
0
  0
VERTEX
  8
0
 62
7
  6
CONTINUOUS
 10
156.3057693551
 20
176.2470471621
  0
VERTEX
  8
0
 62
7
  6
CONTINUOUS
 10
156.2607841802
 20
176.1658181254
  0
VERTEX
  8
0
 62
7
  6
CONTINUOUS
 10
156.2168016074
 20
176.111327324
  0
SEQEND
  0
LINE
  8
0
 62
7
  6
CONTINUOUS
 10
156.2168016048
 20
159.3113273266
 11
156.2168999265
 21
159.31143189
  0
POLYLINE
  8
0
 62
7
  6
CONTINUOUS
 66
1
 70
0
  0
VERTEX
  8
0
 62
7
  6
CONTINUOUS
 10
156.2168999265
 20
159.31143189
  0
VERTEX
  8
0
 62
7
  6
CONTINUOUS
 10
156.1655616261
 20
159.2611648094
  0
VERTEX
  8
0
 62
7
  6
CONTINUOUS
 10
156.0953402715
 20
159.2052167882
  0
SEQEND
  0
LINE
  8
0
 62
7
  6
CONTINUOUS
 10
156.0953402715
 20
159.2052167882
 11
156.0248652267
 21
159.1625864392
  0
LINE
  8
0
 62
7
  6
CONTINUOUS
 10
165.6489526364
 20
121.8408760725
 11
163.1315517241
 21
121.2142241379
  0
LINE
  8
0
 62
7
  6
CONTINUOUS
 10
148.051874723
 20
120.5406616867
 11
159.1905926806
 21
119.6503314463
  0
LINE
  8
0
 62
7
  6
CONTINUOUS
 10
165.6489526364
 20
115.1875722033
 11
163.1315517241
 21
115.8142241379
  0
LINE
  8
0
 62
7
  6
CONTINUOUS
 10
156.2168016064
 20
102.9171209529
 11
156.2607841788
 21
102.8626301526
  0
LINE
  8
0
 62
7
  6
CONTINUOUS
 10
156.5960641946
 20
80.182349213
 11
156.5507572338
 21
80.300474213
  0
LINE
  8
0
 62
7
  6
CONTINUOUS
 10
156.8041159646
 20
80.1932225717
 11
156.7629794913
 21
80.300474213
  0
LINE
  8
0
 62
7
  6
CONTINUOUS
 10
157.2530149914
 20
80.9304740628
 11
157.2983219363
 21
80.8123490628
  0
LINE
  8
0
 62
7
  6
CONTINUOUS
 10
156.3057693539
 20
85.9814011166
 11
156.3344043664
 21
85.8998173674
  0
LINE
  8
0
 62
7
  6
CONTINUOUS
 10
156.3344043572
 20
176.3286308747
 11
156.3057693551
 21
176.2470471621
  0
POLYLINE
  8
0
 62
7
  6
CONTINUOUS
 66
1
 70
0
  0
VERTEX
  8
0
 62
7
  6
CONTINUOUS
 10
156.3057693551
 20
159.4470471621
  0
VERTEX
  8
0
 62
7
  6
CONTINUOUS
 10
156.2607841802
 20
159.3658181254
  0
VERTEX
  8
0
 62
7
  6
CONTINUOUS
 10
156.2168016074
 20
159.311327324
  0
SEQEND
  0
LINE
  8
0
 62
7
  6
CONTINUOUS
 10
148.051874723
 20
124.8877865892
 11
159.1905926806
 21
125.7781168296
  0
LINE
  8
0
 62
7
  6
CONTINUOUS
 10
159.288153376
 20
119.6326720138
 11
162.8765920458
 21
118.607091921
  0
LINE
  8
0
 62
7
  6
CONTINUOUS
 10
155.9677773546
 20
119.8910308735
 11
156.0248652263
 21
119.8658618369
  0
POLYLINE
  8
0
 62
7
  6
CONTINUOUS
 66
1
 70
0
  0
VERTEX
  8
0
 62
7
  6
CONTINUOUS
 10
156.0248652263
 20
119.8658618369
  0
VERTEX
  8
0
 62
7
  6
CONTINUOUS
 10
156.0953402715
 20
119.8232314877
  0
VERTEX
  8
0
 62
7
  6
CONTINUOUS
 10
156.165561626
 20
119.7672834665
  0
VERTEX
  8
0
 62
7
  6
CONTINUOUS
 10
156.2168999274
 20
119.7170163849
  0
SEQEND
  0
LINE
  8
0
 62
7
  6
CONTINUOUS
 10
156.2168016037
 20
119.7171209504
 11
156.2168999274
 21
119.7170163849
  0
LINE
  8
0
 62
7
  6
CONTINUOUS
 10
156.2607841788
 20
102.8626301526
 11
156.3057693539
 21
102.7814011166
  0
LINE
  8
0
 62
7
  6
CONTINUOUS
 10
157.5286322292
 20
97.8142241379
 11
157.6607775381
 21
97.5017241379
  0
LINE
  8
0
 62
7
  6
CONTINUOUS
 10
157.8118006879
 20
97.5017241379
 11
157.6796554319
 21
97.8142241379
  0
LINE
  8
0
 62
7
  6
CONTINUOUS
 10
158.0240229455
 20
97.5017241379
 11
157.8918776894
 21
97.8142241379
  0
LINE
  8
0
 62
7
  6
CONTINUOUS
 10
156.4148363851
 20
80.2610991379
 11
156.4601433359
 21
80.1035990628
  0
LINE
  8
0
 62
7
  6
CONTINUOUS
 10
157.4342427711
 20
80.8517241379
 11
157.3889358262
 21
81.009224213
  0
LINE
  8
0
 62
7
  6
CONTINUOUS
 10
157.6464650287
 20
80.8517241379
 11
157.6011580837
 21
81.009224213
  0
POLYLINE
  8
0
 62
7
  6
CONTINUOUS
 66
1
 70
0
  0
VERTEX
  8
0
 62
7
  6
CONTINUOUS
 10
156.3344045507
 20
69.0998166935
  0
VERTEX
  8
0
 62
7
  6
CONTINUOUS
 10
156.3556783092
 20
68.9862500168
  0
VERTEX
  8
0
 62
7
  6
CONTINUOUS
 10
156.3611610211
 20
68.883795149
  0
SEQEND
  0
POLYLINE
  8
0
 62
7
  6
CONTINUOUS
 66
1
 70
0
  0
VERTEX
  8
0
 62
7
  6
CONTINUOUS
 10
147.4344409941
 20
205.5154733677
  0
VERTEX
  8
0
 62
7
  6
CONTINUOUS
 10
147.4383759666
 20
205.4280020254
  0
VERTEX
  8
0
 62
7
  6
CONTINUOUS
 10
147.4615720653
 20
205.2871379066
  0
VERTEX
  8
0
 62
7
  6
CONTINUOUS
 10
147.5052674887
 20
205.150476904
  0
VERTEX
  8
0
 62
7
  6
CONTINUOUS
 10
147.5688054422
 20
205.0207551128
  0
VERTEX
  8
0
 62
7
  6
CONTINUOUS
 10
147.6511435993
 20
204.900671746
  0
VERTEX
  8
0
 62
7
  6
CONTINUOUS
 10
147.750922643
 20
204.7927387314
  0
VERTEX
  8
0
 62
7
  6
CONTINUOUS
 10
147.8663877725
 20
204.699365503
  0
VERTEX
  8
0
 62
7
  6
CONTINUOUS
 10
147.9952158433
 20
204.6228489697
  0
VERTEX
  8
0
 62
7
  6
CONTINUOUS
 10
148.1347768858
 20
204.565067368
  0
VERTEX
  8
0
 62
7
  6
CONTINUOUS
 10
148.2821466331
 20
204.5274887832
  0
VERTEX
  8
0
 62
7
  6
CONTINUOUS
 10
148.3873013239
 20
204.5138520575
  0
SEQEND
  0
LINE
  8
0
 62
7
  6
CONTINUOUS
 10
147.1315517241
 20
199.4909658553
 11
147.1315517241
 21
197.1374824206
  0
LINE
  8
0
 62
7
  6
CONTINUOUS
 10
147.1315517241
 20
182.6909658553
 11
147.1315517241
 21
180.3374824206
  0
LINE
  8
0
 62
7
  6
CONTINUOUS
 10
147.1315517241
 20
165.8909658553
 11
147.1315517241
 21
163.5374824206
  0
LINE
  8
0
 62
7
  6
CONTINUOUS
 10
147.1315517241
 20
149.0909658553
 11
147.1315517241
 21
146.7374824206
  0
LINE
  8
0
 62
7
  6
CONTINUOUS
 10
147.1315517241
 20
132.2909658553
 11
147.1315517241
 21
129.9374824206
  0
LINE
  8
0
 62
7
  6
CONTINUOUS
 10
147.1315517241
 20
115.4909658553
 11
147.1315517241
 21
113.1374824206
  0
LINE
  8
0
 62
7
  6
CONTINUOUS
 10
147.1315517241
 20
98.6909658553
 11
147.1315517241
 21
96.3374824206
  0
LINE
  8
0
 62
7
  6
CONTINUOUS
 10
147.1315517241
 20
81.8909658553
 11
147.1315517241
 21
79.5374824206
  0
LINE
  8
0
 62
7
  6
CONTINUOUS
 10
147.1315517241
 20
64.4492341331
 11
147.1315517241
 21
60.8142241379
  0
LINE
  8
0
 62
7
  6
CONTINUOUS
 10
147.1315517241
 20
71.1374824206
 11
147.1315517241
 21
73.4909658553
  0
LINE
  8
0
 62
7
  6
CONTINUOUS
 10
147.1315517241
 20
87.9374824206
 11
147.1315517241
 21
90.2909658553
  0
LINE
  8
0
 62
7
  6
CONTINUOUS
 10
147.1315517241
 20
104.7374824206
 11
147.1315517241
 21
107.0909658553
  0
LINE
  8
0
 62
7
  6
CONTINUOUS
 10
147.1315517241
 20
121.5374824206
 11
147.1315517241
 21
123.8909658553
  0
LINE
  8
0
 62
7
  6
CONTINUOUS
 10
147.1315517241
 20
138.3374824206
 11
147.1315517241
 21
140.6909658553
  0
LINE
  8
0
 62
7
  6
CONTINUOUS
 10
147.1315517241
 20
155.1374824206
 11
147.1315517241
 21
157.4909658553
  0
LINE
  8
0
 62
7
  6
CONTINUOUS
 10
147.1315517241
 20
171.9374824206
 11
147.1315517241
 21
174.2909658553
  0
LINE
  8
0
 62
7
  6
CONTINUOUS
 10
147.1315517241
 20
188.7374824206
 11
147.1315517241
 21
191.0909658553
  0
LINE
  8
0
 62
7
  6
CONTINUOUS
 10
147.1315517241
 20
206.1792141428
 11
147.1315517241
 21
209.8142241379
  0
LINE
  8
0
 62
7
  6
CONTINUOUS
 10
147.1815517241
 20
206.1757178022
 11
147.1815517241
 21
191.3901063449
  0
LINE
  8
0
 62
7
  6
CONTINUOUS
 10
147.1815517241
 20
188.4387620376
 11
147.1815517241
 21
174.5901063449
  0
LINE
  8
0
 62
7
  6
CONTINUOUS
 10
147.1815517241
 20
171.6387620376
 11
147.1815517241
 21
157.7901063449
  0
LINE
  8
0
 62
7
  6
CONTINUOUS
 10
147.1815517241
 20
154.8387620376
 11
147.1815517241
 21
140.9901063449
  0
LINE
  8
0
 62
7
  6
CONTINUOUS
 10
147.1815517241
 20
138.0387620376
 11
147.1815517241
 21
124.1901063449
  0
LINE
  8
0
 62
7
  6
CONTINUOUS
 10
147.1815517241
 20
121.2387620376
 11
147.1815517241
 21
107.3901063449
  0
LINE
  8
0
 62
7
  6
CONTINUOUS
 10
147.1815517241
 20
104.4387620376
 11
147.1815517241
 21
90.5901063449
  0
LINE
  8
0
 62
7
  6
CONTINUOUS
 10
147.1815517241
 20
87.6387620376
 11
147.1815517241
 21
73.7901063449
  0
LINE
  8
0
 62
7
  6
CONTINUOUS
 10
147.1815517241
 20
70.9943847184
 11
147.1815517241
 21
60.8142241379
  0
LINE
  8
0
 62
7
  6
CONTINUOUS
 10
147.4344371401
 20
205.6916138835
 11
147.4344371401
 21
205.5154733675
  0
LINE
  8
0
 62
7
  6
CONTINUOUS
 10
149.7010345099
 20
205.1648308488
 11
149.7010345099
 21
205.5331514787
  0
LINE
  8
0
 62
7
  6
CONTINUOUS
 10
156.3344043572
 20
159.5286308747
 11
156.3057693551
 21
159.4470471621
  0
LINE
  8
0
 62
7
  6
CONTINUOUS
 10
156.0953402715
 20
142.4052167882
 11
156.0248652267
 21
142.3625864392
  0
LINE
  8
0
 62
7
  6
CONTINUOUS
 10
156.0248652267
 20
142.3625864392
 11
155.9677773547
 21
142.3374174024
  0
LINE
  8
0
 62
7
  6
CONTINUOUS
 10
159.288153376
 20
142.5957762621
 11
162.8765920458
 21
143.6213563548
  0
LINE
  8
0
 62
7
  6
CONTINUOUS
 10
165.6489526364
 20
130.2408760725
 11
163.1315517241
 21
129.6142241379
  0
LINE
  8
0
 62
7
  6
CONTINUOUS
 10
165.6489526364
 20
123.5875722033
 11
163.1315517241
 21
124.2142241379
  0
LINE
  8
0
 62
7
  6
CONTINUOUS
 10
156.2168016064
 20
119.7171209529
 11
156.2607841788
 21
119.6626301526
  0
LINE
  8
0
 62
7
  6
CONTINUOUS
 10
156.2607841788
 20
119.6626301526
 11
156.3057693539
 21
119.5814011166
  0
LINE
  8
0
 62
7
  6
CONTINUOUS
 10
156.3057693539
 20
102.7814011166
 11
156.3344043664
 21
102.6998173674
  0
LINE
  8
0
 62
7
  6
CONTINUOUS
 10
157.2983219363
 20
80.8123490628
 11
157.3209754088
 21
80.6942240628
  0
POLYLINE
  8
0
 62
7
  6
CONTINUOUS
 66
1
 70
0
  0
VERTEX
  8
0
 62
7
  6
CONTINUOUS
 10
156.3344045507
 20
85.8998166935
  0
VERTEX
  8
0
 62
7
  6
CONTINUOUS
 10
156.3556783092
 20
85.7862500168
  0
VERTEX
  8
0
 62
7
  6
CONTINUOUS
 10
156.3611610211
 20
85.683795149
  0
SEQEND
  0
POLYLINE
  8
0
 62
7
  6
CONTINUOUS
 66
1
 70
0
  0
VERTEX
  8
0
 62
7
  6
CONTINUOUS
 10
156.3344045507
 20
102.6998166935
  0
VERTEX
  8
0
 62
7
  6
CONTINUOUS
 10
156.3556783092
 20
102.5862500168
  0
VERTEX
  8
0
 62
7
  6
CONTINUOUS
 10
156.3611610211
 20
102.483795149
  0
SEQEND
  0
LINE
  8
0
 62
7
  6
CONTINUOUS
 10
156.5507572338
 20
80.300474213
 11
156.5281037613
 21
80.4579740628
  0
LINE
  8
0
 62
7
  6
CONTINUOUS
 10
156.7629794913
 20
80.300474213
 11
156.7403260188
 21
80.4579740628
  0
LINE
  8
0
 62
7
  6
CONTINUOUS
 10
157.4568962436
 20
80.6942240628
 11
157.4342427711
 21
80.8517241379
  0
LINE
  8
0
 62
7
  6
CONTINUOUS
 10
157.6691185011
 20
80.6942240628
 11
157.6464650287
 21
80.8517241379
  0
LINE
  8
0
 62
7
  6
CONTINUOUS
 10
156.3921829106
 20
80.4579740628
 11
156.4148363851
 21
80.2610991379
  0
POLYLINE
  8
0
 62
7
  6
CONTINUOUS
 66
1
 70
0
  0
VERTEX
  8
0
 62
7
  6
CONTINUOUS
 10
149.7010383946
 20
205.1648308494
  0
VERTEX
  8
0
 62
7
  6
CONTINUOUS
 10
149.7024459862
 20
205.1209853366
  0
VERTEX
  8
0
 62
7
  6
CONTINUOUS
 10
149.7187178682
 20
205.0088011776
  0
VERTEX
  8
0
 62
7
  6
CONTINUOUS
 10
149.7534796906
 20
204.8985049673
  0
VERTEX
  8
0
 62
7
  6
CONTINUOUS
 10
149.8069664827
 20
204.7917304245
  0
VERTEX
  8
0
 62
7
  6
CONTINUOUS
 10
149.8793515251
 20
204.690609951
  0
VERTEX
  8
0
 62
7
  6
CONTINUOUS
 10
149.9708551714
 20
204.5970863086
  0
VERTEX
  8
0
 62
7
  6
CONTINUOUS
 10
150.0805828745
 20
204.5139722523
  0
VERTEX
  8
0
 62
7
  6
CONTINUOUS
 10
150.2068818262
 20
204.4438643323
  0
VERTEX
  8
0
 62
7
  6
CONTINUOUS
 10
150.3483289164
 20
204.3887410602
  0
VERTEX
  8
0
 62
7
  6
CONTINUOUS
 10
150.5030030179
 20
204.3507376084
  0
VERTEX
  8
0
 62
7
  6
CONTINUOUS
 10
150.6257319779
 20
204.3349283566
  0
SEQEND
  0
LINE
  8
0
 62
7
  6
CONTINUOUS
 10
155.1316439361
 20
60.8005268081
 11
155.1315517241
 21
60.814105968
  0
LINE
  8
0
 62
40
  6
CONTINUOUS
 10
155.1315517241
 20
211.0142241379
 11
155.1315517241
 21
210.8145073511
  0
LINE
  8
0
 62
7
  6
CONTINUOUS
 10
155.1315517241
 20
203.9747751502
 11
155.1315517241
 21
192.6536731257
  0
LINE
  8
DEFAULT_1
 62
2
  6
CENTER
 10
155.1315517241
 20
192.6536731257
 11
155.1315517241
 21
187.1747751502
  0
LINE
  8
DEFAULT_1
 62
2
  6
CENTER
 10
155.1315517241
 20
175.8536731257
 11
155.1315517241
 21
170.3747751502
  0
LINE
  8
DEFAULT_1
 62
2
  6
CENTER
 10
155.1315517241
 20
159.0536731257
 11
155.1315517241
 21
153.5747751502
  0
LINE
  8
DEFAULT_1
 62
2
  6
CENTER
 10
155.1315517241
 20
142.2536731257
 11
155.1315517241
 21
136.7747751502
  0
LINE
  8
DEFAULT_1
 62
2
  6
CENTER
 10
155.1315517241
 20
125.4536731257
 11
155.1315517241
 21
119.9747751502
  0
LINE
  8
DEFAULT_1
 62
2
  6
CENTER
 10
155.1315517241
 20
108.6536731257
 11
155.1315517241
 21
103.1747751502
  0
LINE
  8
DEFAULT_1
 62
2
  6
CENTER
 10
155.1315517241
 20
91.8536731257
 11
155.1315517241
 21
86.3747751502
  0
LINE
  8
DEFAULT_1
 62
2
  6
CENTER
 10
155.1315517241
 20
75.0536731257
 11
155.1315517241
 21
69.5747751502
  0
LINE
  8
DEFAULT_1
 62
2
  6
CENTER
 10
155.1315517241
 20
60.8145271122
 11
155.1315517241
 21
57.8142241379
  0
LINE
  8
0
 62
7
  6
CONTINUOUS
 10
155.1315517241
 20
187.1747751502
 11
155.1315517241
 21
175.8536731257
  0
LINE
  8
0
 62
7
  6
CONTINUOUS
 10
155.1315517241
 20
170.3747751502
 11
155.1315517241
 21
159.0536731257
  0
LINE
  8
0
 62
7
  6
CONTINUOUS
 10
155.1315517241
 20
153.5747751502
 11
155.1315517241
 21
142.2536731257
  0
LINE
  8
0
 62
7
  6
CONTINUOUS
 10
155.1315517241
 20
136.7747751502
 11
155.1315517241
 21
125.4536731257
  0
LINE
  8
0
 62
7
  6
CONTINUOUS
 10
155.1315517241
 20
119.9747751502
 11
155.1315517241
 21
108.6536731257
  0
LINE
  8
0
 62
7
  6
CONTINUOUS
 10
155.1315517241
 20
103.1747751502
 11
155.1315517241
 21
91.8536731257
  0
LINE
  8
0
 62
7
  6
CONTINUOUS
 10
155.1315517241
 20
86.3747751502
 11
155.1315517241
 21
75.0536731257
  0
LINE
  8
0
 62
7
  6
CONTINUOUS
 10
155.1315517241
 20
69.5747751502
 11
155.1315517241
 21
60.8145271122
  0
POLYLINE
  8
0
 62
7
  6
CONTINUOUS
 66
1
 70
0
  0
VERTEX
  8
0
 62
7
  6
CONTINUOUS
 10
156.3611610207
 20
193.3446971773
  0
VERTEX
  8
0
 62
7
  6
CONTINUOUS
 10
156.3554894444
 20
193.2405116526
  0
VERTEX
  8
0
 62
7
  6
CONTINUOUS
 10
156.3343940776
 20
193.1285932903
  0
SEQEND
  0
POLYLINE
  8
0
 62
7
  6
CONTINUOUS
 66
1
 70
0
  0
VERTEX
  8
0
 62
7
  6
CONTINUOUS
 10
156.3611610207
 20
176.5446971773
  0
VERTEX
  8
0
 62
7
  6
CONTINUOUS
 10
156.3554894444
 20
176.4405116526
  0
VERTEX
  8
0
 62
7
  6
CONTINUOUS
 10
156.3343940776
 20
176.3285932903
  0
SEQEND
  0
POLYLINE
  8
0
 62
7
  6
CONTINUOUS
 66
1
 70
0
  0
VERTEX
  8
0
 62
7
  6
CONTINUOUS
 10
156.3611610207
 20
159.7446971773
  0
VERTEX
  8
0
 62
7
  6
CONTINUOUS
 10
156.3554894444
 20
159.6405116526
  0
VERTEX
  8
0
 62
7
  6
CONTINUOUS
 10
156.3343940776
 20
159.5285932903
  0
SEQEND
  0
LINE
  8
0
 62
7
  6
CONTINUOUS
 10
156.3344043572
 20
142.7286308747
 11
156.3057693551
 21
142.6470471621
  0
POLYLINE
  8
0
 62
7
  6
CONTINUOUS
 66
1
 70
0
  0
VERTEX
  8
0
 62
7
  6
CONTINUOUS
 10
156.3057693551
 20
142.6470471621
  0
VERTEX
  8
0
 62
7
  6
CONTINUOUS
 10
156.2607841802
 20
142.5658181254
  0
VERTEX
  8
0
 62
7
  6
CONTINUOUS
 10
156.2168016074
 20
142.511327324
  0
SEQEND
  0
LINE
  8
0
 62
7
  6
CONTINUOUS
 10
156.2168016048
 20
142.5113273266
 11
156.2168999265
 21
142.51143189
  0
POLYLINE
  8
0
 62
7
  6
CONTINUOUS
 66
1
 70
0
  0
VERTEX
  8
0
 62
7
  6
CONTINUOUS
 10
156.2168999265
 20
142.51143189
  0
VERTEX
  8
0
 62
7
  6
CONTINUOUS
 10
156.1655616261
 20
142.4611648094
  0
VERTEX
  8
0
 62
7
  6
CONTINUOUS
 10
156.0953402715
 20
142.4052167882
  0
SEQEND
  0
LINE
  8
0
 62
7
  6
CONTINUOUS
 10
165.6489526364
 20
138.6408760725
 11
163.1315517241
 21
138.0142241379
  0
LINE
  8
0
 62
7
  6
CONTINUOUS
 10
165.6489526364
 20
131.9875722033
 11
163.1315517241
 21
132.6142241379
  0
LINE
  8
0
 62
7
  6
CONTINUOUS
 10
156.3057693539
 20
119.5814011166
 11
156.3344043664
 21
119.4998173674
  0
POLYLINE
  8
0
 62
7
  6
CONTINUOUS
 66
1
 70
0
  0
VERTEX
  8
0
 62
7
  6
CONTINUOUS
 10
156.3344045507
 20
119.4998166935
  0
VERTEX
  8
0
 62
7
  6
CONTINUOUS
 10
156.3556783092
 20
119.3862500168
  0
VERTEX
  8
0
 62
7
  6
CONTINUOUS
 10
156.3611610211
 20
119.283795149
  0
SEQEND
  0
LINE
  8
0
 62
7
  6
CONTINUOUS
 10
156.3611610207
 20
75.7446971491
 11
156.3611610211
 21
75.7446254327
  0
LINE
  8
0
 62
7
  6
CONTINUOUS
 10
156.3611610207
 20
92.5446971491
 11
156.3611610211
 21
92.5446254327
  0
LINE
  8
0
 62
7
  6
CONTINUOUS
 10
156.3611610207
 20
109.3446971491
 11
156.3611610211
 21
109.3446254327
  0
LINE
  8
0
 62
7
  6
CONTINUOUS
 10
156.3611610207
 20
126.1446971491
 11
156.3611610211
 21
126.1446254327
  0
LINE
  8
0
 62
7
  6
CONTINUOUS
 10
156.3611610207
 20
142.9446971491
 11
156.3611610211
 21
142.9446254327
  0
LINE
  8
0
 62
7
  6
CONTINUOUS
 10
156.3611610207
 20
159.7446971491
 11
156.3611610211
 21
159.7446254327
  0
LINE
  8
0
 62
7
  6
CONTINUOUS
 10
156.3611610207
 20
176.5446971491
 11
156.3611610211
 21
176.5446254327
  0
LINE
  8
0
 62
7
  6
CONTINUOUS
 10
156.3611610207
 20
193.3446971491
 11
156.3611610211
 21
193.3446254327
  0
LINE
  8
0
 62
7
  6
CONTINUOUS
 10
156.3921829106
 20
83.2142241379
 11
156.3921829106
 21
82.9779741379
  0
LINE
  8
0
 62
7
  6
CONTINUOUS
 10
156.3921829106
 20
81.9935991755
 11
156.3921829106
 21
81.6392241755
  0
LINE
  8
0
 62
7
  6
CONTINUOUS
 10
156.3921829106
 20
80.772974213
 11
156.3921829106
 21
80.4579740628
  0
LINE
  8
0
 62
7
  6
CONTINUOUS
 10
156.3921829106
 20
79.5523491379
 11
156.3921829106
 21
79.3160991379
  0
LINE
  8
0
 62
7
  6
CONTINUOUS
 10
156.5281037613
 20
80.4579740628
 11
156.5281037613
 21
80.772974213
  0
LINE
  8
0
 62
7
  6
CONTINUOUS
 10
156.6866780844
 20
81.0879741379
 11
156.6866780844
 21
81.3242241379
  0
LINE
  8
0
 62
7
  6
CONTINUOUS
 10
156.7403260188
 20
80.4579740628
 11
156.7403260188
 21
80.772974213
  0
LINE
  8
0
 62
7
  6
CONTINUOUS
 10
156.8679058959
 20
80.6942240628
 11
156.8679058959
 21
80.4579740628
  0
LINE
  8
0
 62
7
  6
CONTINUOUS
 10
156.8905593684
 20
79.3160991379
 11
156.8905593684
 21
78.2923489877
  0
LINE
  8
0
 62
7
  6
CONTINUOUS
 10
156.898900342
 20
81.0879741379
 11
156.898900342
 21
81.3242241379
  0
LINE
  8
0
 62
7
  6
CONTINUOUS
 10
156.9245395771
 20
97.5017241379
 11
156.9245395771
 21
97.1892241379
  0
LINE
  8
0
 62
7
  6
CONTINUOUS
 10
157.0038267308
 20
80.4579740628
 11
157.0038267308
 21
80.6942240628
  0
LINE
  8
0
 62
7
  6
CONTINUOUS
 10
157.0264802032
 20
78.2923489877
 11
157.0264802032
 21
79.3160991379
  0
LINE
  8
0
 62
7
  6
CONTINUOUS
 10
157.2077080464
 20
80.2217240628
 11
157.2077080464
 21
79.9854740628
  0
LINE
  8
0
 62
7
  6
CONTINUOUS
 10
157.2160489883
 20
80.4579740628
 11
157.2160489883
 21
80.6942240628
  0
LINE
  8
0
 62
7
  6
CONTINUOUS
 10
157.2387024607
 20
78.2923489877
 11
157.2387024607
 21
79.3160991379
  0
LINE
  8
0
 62
7
  6
CONTINUOUS
 10
157.3209754088
 20
80.6942240628
 11
157.3209754088
 21
80.4579740628
  0
LINE
  8
0
 62
7
  6
CONTINUOUS
 10
157.3209754088
 20
79.3160991379
 11
157.3209754088
 21
78.1348491379
  0
LINE
  8
0
 62
7
  6
CONTINUOUS
 10
157.4568962436
 20
78.1348491379
 11
157.4568962436
 21
79.5523491379
  0
LINE
  8
0
 62
7
  6
CONTINUOUS
 10
157.4568962436
 20
80.4973491379
 11
157.4568962436
 21
80.6942240628
  0
LINE
  8
0
 62
7
  6
CONTINUOUS
 10
157.4568962436
 20
81.6392241755
 11
157.4568962436
 21
81.8754741755
  0
LINE
  8
0
 62
7
  6
CONTINUOUS
 10
157.4568962436
 20
82.8598491379
 11
157.4568962436
 21
83.2142241379
  0
LINE
  8
0
 62
7
  6
CONTINUOUS
 10
157.6691185011
 20
78.1348491379
 11
157.6691185011
 21
79.5523491379
  0
LINE
  8
0
 62
7
  6
CONTINUOUS
 10
157.6691185011
 20
80.4973491379
 11
157.6691185011
 21
80.6942240628
  0
LINE
  8
0
 62
7
  6
CONTINUOUS
 10
157.6691185011
 20
81.6392241755
 11
157.6691185011
 21
81.8754741755
  0
LINE
  8
0
 62
7
  6
CONTINUOUS
 10
157.6691185011
 20
82.8598491379
 11
157.6691185011
 21
83.2142241379
  0
LINE
  8
0
 62
7
  6
CONTINUOUS
 10
157.8118006879
 20
97.1892241379
 11
157.8118006879
 21
97.5017241379
  0
LINE
  8
0
 62
7
  6
CONTINUOUS
 10
158.0240229455
 20
97.1892241379
 11
158.0240229455
 21
97.5017241379
  0
POLYLINE
  8
0
 62
7
  6
CONTINUOUS
 66
1
 70
0
  0
VERTEX
  8
0
 62
7
  6
CONTINUOUS
 10
156.3611610207
 20
142.9446971773
  0
VERTEX
  8
0
 62
7
  6
CONTINUOUS
 10
156.3554894444
 20
142.8405116526
  0
VERTEX
  8
0
 62
7
  6
CONTINUOUS
 10
156.3343940776
 20
142.7285932903
  0
SEQEND
  0
POLYLINE
  8
0
 62
7
  6
CONTINUOUS
 66
1
 70
0
  0
VERTEX
  8
0
 62
7
  6
CONTINUOUS
 10
156.3611610207
 20
126.1446971773
  0
VERTEX
  8
0
 62
7
  6
CONTINUOUS
 10
156.3554894444
 20
126.0405116526
  0
VERTEX
  8
0
 62
7
  6
CONTINUOUS
 10
156.3343940776
 20
125.9285932903
  0
SEQEND
  0
POLYLINE
  8
0
 62
7
  6
CONTINUOUS
 66
1
 70
0
  0
VERTEX
  8
0
 62
7
  6
CONTINUOUS
 10
156.3611610207
 20
109.3446971773
  0
VERTEX
  8
0
 62
7
  6
CONTINUOUS
 10
156.3554894444
 20
109.2405116526
  0
VERTEX
  8
0
 62
7
  6
CONTINUOUS
 10
156.3343940776
 20
109.1285932903
  0
SEQEND
  0
POLYLINE
  8
0
 62
7
  6
CONTINUOUS
 66
1
 70
0
  0
VERTEX
  8
0
 62
7
  6
CONTINUOUS
 10
156.3611610207
 20
92.5446971773
  0
VERTEX
  8
0
 62
7
  6
CONTINUOUS
 10
156.3554894444
 20
92.4405116526
  0
VERTEX
  8
0
 62
7
  6
CONTINUOUS
 10
156.3343940776
 20
92.3285932903
  0
SEQEND
  0
POLYLINE
  8
0
 62
7
  6
CONTINUOUS
 66
1
 70
0
  0
VERTEX
  8
0
 62
7
  6
CONTINUOUS
 10
156.3611610207
 20
75.7446971773
  0
VERTEX
  8
0
 62
7
  6
CONTINUOUS
 10
156.3554894444
 20
75.6405116526
  0
VERTEX
  8
0
 62
7
  6
CONTINUOUS
 10
156.3343940776
 20
75.5285932903
  0
SEQEND
  0
LINE
  8
0
 62
7
  6
CONTINUOUS
 10
156.3344043572
 20
125.9286308747
 11
156.3057693551
 21
125.8470471621
  0
POLYLINE
  8
0
 62
7
  6
CONTINUOUS
 66
1
 70
0
  0
VERTEX
  8
0
 62
7
  6
CONTINUOUS
 10
156.3057693551
 20
125.8470471621
  0
VERTEX
  8
0
 62
7
  6
CONTINUOUS
 10
156.2607841802
 20
125.7658181254
  0
VERTEX
  8
0
 62
7
  6
CONTINUOUS
 10
156.2168016074
 20
125.711327324
  0
SEQEND
  0
LINE
  8
0
 62
7
  6
CONTINUOUS
 10
148.051874723
 20
137.3406616867
 11
159.1905926806
 21
136.4503314463
  0
LINE
  8
0
 62
7
  6
CONTINUOUS
 10
159.288153376
 20
136.4326720138
 11
162.8765920458
 21
135.407091921
  0
LINE
  8
0
 62
7
  6
CONTINUOUS
 10
155.9677773546
 20
136.6910308735
 11
156.0248652263
 21
136.6658618369
  0
POLYLINE
  8
0
 62
7
  6
CONTINUOUS
 66
1
 70
0
  0
VERTEX
  8
0
 62
7
  6
CONTINUOUS
 10
156.0248652263
 20
136.6658618369
  0
VERTEX
  8
0
 62
7
  6
CONTINUOUS
 10
156.0953402715
 20
136.6232314877
  0
VERTEX
  8
0
 62
7
  6
CONTINUOUS
 10
156.165561626
 20
136.5672834665
  0
VERTEX
  8
0
 62
7
  6
CONTINUOUS
 10
156.2168999274
 20
136.5170163849
  0
SEQEND
  0
LINE
  8
0
 62
7
  6
CONTINUOUS
 10
156.2168016037
 20
136.5171209504
 11
156.2168999274
 21
136.5170163849
  0
LINE
  8
0
 62
7
  6
CONTINUOUS
 10
156.2168016064
 20
136.5171209529
 11
156.2607841788
 21
136.4626301526
  0
LINE
  8
0
 62
7
  6
CONTINUOUS
 10
156.2607841788
 20
136.4626301526
 11
156.3057693539
 21
136.3814011166
  0
LINE
  8
0
 62
7
  6
CONTINUOUS
 10
156.3057693539
 20
136.3814011166
 11
156.3344043664
 21
136.2998173674
  0
POLYLINE
  8
0
 62
7
  6
CONTINUOUS
 66
1
 70
0
  0
VERTEX
  8
0
 62
7
  6
CONTINUOUS
 10
156.3344045507
 20
136.2998166935
  0
VERTEX
  8
0
 62
7
  6
CONTINUOUS
 10
156.3556783092
 20
136.1862500168
  0
VERTEX
  8
0
 62
7
  6
CONTINUOUS
 10
156.3611610211
 20
136.083795149
  0
SEQEND
  0
POLYLINE
  8
0
 62
7
  6
CONTINUOUS
 66
1
 70
0
  0
VERTEX
  8
0
 62
7
  6
CONTINUOUS
 10
156.3344045507
 20
153.0998166935
  0
VERTEX
  8
0
 62
7
  6
CONTINUOUS
 10
156.3556783092
 20
152.9862500168
  0
VERTEX
  8
0
 62
7
  6
CONTINUOUS
 10
156.3611610211
 20
152.883795149
  0
SEQEND
  0
LINE
  8
0
 62
7
  6
CONTINUOUS
 10
163.1315517241
 20
193.8290559811
 11
163.1315517241
 21
185.9993922948
  0
LINE
  8
0
 62
7
  6
CONTINUOUS
 10
163.1315517241
 20
202.7809011789
 11
163.1315517241
 21
193.8542520149
  0
LINE
  8
0
 62
7
  6
CONTINUOUS
 10
163.1315517241
 20
185.9809011789
 11
163.1315517241
 21
177.0542520149
  0
LINE
  8
0
 62
7
  6
CONTINUOUS
 10
163.1315517241
 20
177.0290559811
 11
163.1315517241
 21
169.1993922948
  0
LINE
  8
0
 62
7
  6
CONTINUOUS
 10
163.1315517241
 20
160.2290559811
 11
163.1315517241
 21
152.3993922948
  0
LINE
  8
0
 62
7
  6
CONTINUOUS
 10
163.1315517241
 20
169.1809011789
 11
163.1315517241
 21
160.2542520149
  0
LINE
  8
0
 62
7
  6
CONTINUOUS
 10
163.1315517241
 20
143.4290559811
 11
163.1315517241
 21
135.5993922948
  0
LINE
  8
0
 62
7
  6
CONTINUOUS
 10
163.1315517241
 20
152.3809011789
 11
163.1315517241
 21
143.4542520149
  0
LINE
  8
0
 62
7
  6
CONTINUOUS
 10
163.1315517241
 20
126.6290559811
 11
163.1315517241
 21
118.7993922948
  0
LINE
  8
0
 62
7
  6
CONTINUOUS
 10
163.1315517241
 20
135.5809011789
 11
163.1315517241
 21
126.6542520149
  0
LINE
  8
0
 62
7
  6
CONTINUOUS
 10
163.1315517241
 20
109.8290559811
 11
163.1315517241
 21
101.9993922948
  0
LINE
  8
0
 62
7
  6
CONTINUOUS
 10
163.1315517241
 20
118.7809011789
 11
163.1315517241
 21
109.8542520149
  0
LINE
  8
0
 62
7
  6
CONTINUOUS
 10
163.1315517241
 20
93.0290559811
 11
163.1315517241
 21
85.1993922948
  0
LINE
  8
0
 62
7
  6
CONTINUOUS
 10
163.1315517241
 20
101.9809011789
 11
163.1315517241
 21
93.0542520149
  0
LINE
  8
0
 62
7
  6
CONTINUOUS
 10
163.1315517241
 20
76.2290559811
 11
163.1315517241
 21
68.3993922948
  0
LINE
  8
0
 62
7
  6
CONTINUOUS
 10
163.1315517241
 20
85.1809011789
 11
163.1315517241
 21
76.2542520149
  0
LINE
  8
0
 62
7
  6
CONTINUOUS
 10
163.1315517241
 20
68.3809011789
 11
163.1315517241
 21
60.0142241379
  0
LINE
  8
0
 62
7
  6
CONTINUOUS
 10
163.1315517241
 20
202.7993922948
 11
163.1315517241
 21
210.6142241379
  0
LINE
  8
0
 62
7
  6
CONTINUOUS
 10
162.6663853623
 20
202.2249662401
 11
162.666314117
 21
202.144856371
  0
LINE
  8
0
 62
7
  6
CONTINUOUS
 10
162.6663853623
 20
185.4249662401
 11
162.666314117
 21
185.344856371
  0
LINE
  8
0
 62
7
  6
CONTINUOUS
 10
162.6663853623
 20
168.6249662401
 11
162.666314117
 21
168.544856371
  0
LINE
  8
0
 62
7
  6
CONTINUOUS
 10
162.6663853623
 20
151.8249662401
 11
162.666314117
 21
151.744856371
  0
LINE
  8
0
 62
7
  6
CONTINUOUS
 10
162.6663853623
 20
135.0249662401
 11
162.666314117
 21
134.944856371
  0
LINE
  8
0
 62
7
  6
CONTINUOUS
 10
162.6663853623
 20
118.2249662401
 11
162.666314117
 21
118.144856371
  0
LINE
  8
0
 62
7
  6
CONTINUOUS
 10
162.6663853623
 20
101.4249662401
 11
162.666314117
 21
101.344856371
  0
LINE
  8
0
 62
7
  6
CONTINUOUS
 10
162.6663853623
 20
84.6249662401
 11
162.666314117
 21
84.544856371
  0
LINE
  8
0
 62
7
  6
CONTINUOUS
 10
162.6663853623
 20
67.8249662401
 11
162.666314117
 21
67.744856371
  0
LINE
  8
0
 62
7
  6
CONTINUOUS
 10
156.4148363851
 20
80.9698491379
 11
156.3921829106
 21
80.772974213
  0
LINE
  8
0
 62
7
  6
CONTINUOUS
 10
156.9811732583
 20
80.2610991379
 11
157.0038267308
 21
80.4579740628
  0
LINE
  8
0
 62
7
  6
CONTINUOUS
 10
157.1933955158
 20
80.2610991379
 11
157.2160489883
 21
80.4579740628
  0
LINE
  8
0
 62
7
  6
CONTINUOUS
 10
157.4342427711
 20
80.300474213
 11
157.4568962436
 21
80.4973491379
  0
LINE
  8
0
 62
7
  6
CONTINUOUS
 10
157.6464650287
 20
80.300474213
 11
157.6691185011
 21
80.4973491379
  0
LINE
  8
0
 62
7
  6
CONTINUOUS
 10
156.5281037613
 20
80.772974213
 11
156.5507572338
 21
80.9304740628
  0
LINE
  8
0
 62
7
  6
CONTINUOUS
 10
156.7403260188
 20
80.772974213
 11
156.7629794913
 21
80.9304740628
  0
LINE
  8
0
 62
7
  6
CONTINUOUS
 10
156.8905593684
 20
80.8517241379
 11
156.8679058959
 21
80.6942240628
  0
LINE
  8
0
 62
7
  6
CONTINUOUS
 10
156.8679058959
 20
80.4579740628
 11
156.8452524235
 21
80.300474213
  0
LINE
  8
0
 62
7
  6
CONTINUOUS
 10
156.3344043572
 20
109.1286308747
 11
156.3057693551
 21
109.0470471621
  0
LINE
  8
0
 62
7
  6
CONTINUOUS
 10
156.2168016048
 20
125.7113273266
 11
156.2168999265
 21
125.71143189
  0
POLYLINE
  8
0
 62
7
  6
CONTINUOUS
 66
1
 70
0
  0
VERTEX
  8
0
 62
7
  6
CONTINUOUS
 10
156.2168999265
 20
125.71143189
  0
VERTEX
  8
0
 62
7
  6
CONTINUOUS
 10
156.1655616261
 20
125.6611648094
  0
VERTEX
  8
0
 62
7
  6
CONTINUOUS
 10
156.0953402715
 20
125.6052167882
  0
SEQEND
  0
LINE
  8
0
 62
7
  6
CONTINUOUS
 10
156.0953402715
 20
125.6052167882
 11
156.0248652267
 21
125.5625864392
  0
LINE
  8
0
 62
7
  6
CONTINUOUS
 10
156.0248652267
 20
125.5625864392
 11
155.9677773547
 21
125.5374174024
  0
LINE
  8
0
 62
7
  6
CONTINUOUS
 10
159.288153376
 20
125.7957762621
 11
162.8765920458
 21
126.8213563548
  0
LINE
  8
0
 62
7
  6
CONTINUOUS
 10
165.6489526364
 20
147.0408760725
 11
163.1315517241
 21
146.4142241379
  0
LINE
  8
0
 62
7
  6
CONTINUOUS
 10
148.051874723
 20
141.6877865892
 11
159.1905926806
 21
142.5781168296
  0
LINE
  8
0
 62
7
  6
CONTINUOUS
 10
165.6489526364
 20
140.3875722033
 11
163.1315517241
 21
141.0142241379
  0
LINE
  8
0
 62
7
  6
CONTINUOUS
 10
156.2607841788
 20
153.2626301526
 11
156.3057693539
 21
153.1814011166
  0
LINE
  8
0
 62
7
  6
CONTINUOUS
 10
156.3057693539
 20
153.1814011166
 11
156.3344043664
 21
153.0998173674
  0
POLYLINE
  8
0
 62
7
  6
CONTINUOUS
 66
1
 70
0
  0
VERTEX
  8
0
 62
7
  6
CONTINUOUS
 10
156.3344045507
 20
169.8998166935
  0
VERTEX
  8
0
 62
7
  6
CONTINUOUS
 10
156.3556783092
 20
169.7862500168
  0
VERTEX
  8
0
 62
7
  6
CONTINUOUS
 10
156.3611610211
 20
169.683795149
  0
SEQEND
  0
POLYLINE
  8
0
 62
7
  6
CONTINUOUS
 66
1
 70
0
  0
VERTEX
  8
0
 62
7
  6
CONTINUOUS
 10
156.3344045507
 20
186.6998166935
  0
VERTEX
  8
0
 62
7
  6
CONTINUOUS
 10
156.3556783092
 20
186.5862500168
  0
VERTEX
  8
0
 62
7
  6
CONTINUOUS
 10
156.3611610211
 20
186.483795149
  0
SEQEND
  0
LINE
  8
0
 62
7
  6
CONTINUOUS
 10
157.0038267308
 20
80.6942240628
 11
157.0264802032
 21
80.8123490628
  0
LINE
  8
0
 62
7
  6
CONTINUOUS
 10
157.2160489883
 20
80.6942240628
 11
157.2387024607
 21
80.8123490628
  0
LINE
  8
0
 62
7
  6
CONTINUOUS
 10
157.3209754088
 20
80.4579740628
 11
157.2983219363
 21
80.3398490628
  0
LINE
  8
0
 62
7
  6
CONTINUOUS
 10
156.3344043572
 20
92.3286308747
 11
156.3057693551
 21
92.2470471621
  0
POLYLINE
  8
0
 62
7
  6
CONTINUOUS
 66
1
 70
0
  0
VERTEX
  8
0
 62
7
  6
CONTINUOUS
 10
156.3057693551
 20
109.0470471621
  0
VERTEX
  8
0
 62
7
  6
CONTINUOUS
 10
156.2607841802
 20
108.9658181254
  0
VERTEX
  8
0
 62
7
  6
CONTINUOUS
 10
156.2168016074
 20
108.911327324
  0
SEQEND
  0
LINE
  8
0
 62
7
  6
CONTINUOUS
 10
165.6489526364
 20
148.7875722033
 11
163.1315517241
 21
149.4142241379
  0
POLYLINE
  8
0
 62
7
  6
CONTINUOUS
 66
1
 70
0
  0
VERTEX
  8
0
 62
7
  6
CONTINUOUS
 10
156.0248652263
 20
153.4658618369
  0
VERTEX
  8
0
 62
7
  6
CONTINUOUS
 10
156.0953402715
 20
153.4232314877
  0
VERTEX
  8
0
 62
7
  6
CONTINUOUS
 10
156.165561626
 20
153.3672834665
  0
VERTEX
  8
0
 62
7
  6
CONTINUOUS
 10
156.2168999274
 20
153.3170163849
  0
SEQEND
  0
LINE
  8
0
 62
7
  6
CONTINUOUS
 10
156.2168016037
 20
153.3171209504
 11
156.2168999274
 21
153.3170163849
  0
LINE
  8
0
 62
7
  6
CONTINUOUS
 10
156.2168016064
 20
153.3171209529
 11
156.2607841788
 21
153.2626301526
  0
POLYLINE
  8
0
 62
7
  6
CONTINUOUS
 66
1
 70
0
  0
VERTEX
  8
0
 62
7
  6
CONTINUOUS
 10
147.4078883407
 20
205.8523752121
  0
VERTEX
  8
0
 62
7
  6
CONTINUOUS
 10
147.3784978311
 20
205.9359405786
  0
VERTEX
  8
0
 62
7
  6
CONTINUOUS
 10
147.3426832112
 20
206.0261150596
  0
VERTEX
  8
0
 62
7
  6
CONTINUOUS
 10
147.3107586025
 20
206.0924642646
  0
VERTEX
  8
0
 62
7
  6
CONTINUOUS
 10
147.2827386656
 20
206.1370102353
  0
VERTEX
  8
0
 62
7
  6
CONTINUOUS
 10
147.2583024741
 20
206.1626630767
  0
VERTEX
  8
0
 62
7
  6
CONTINUOUS
 10
147.2368575083
 20
206.1718504682
  0
SEQEND
  0
LINE
  8
0
 62
7
  6
CONTINUOUS
 10
156.3057693539
 20
169.9814011166
 11
156.3344043664
 21
169.8998173674
  0
POLYLINE
  8
0
 62
7
  6
CONTINUOUS
 66
1
 70
0
  0
VERTEX
  8
0
 62
7
  6
CONTINUOUS
 10
147.4079125282
 20
205.8524665864
  0
VERTEX
  8
0
 62
7
  6
CONTINUOUS
 10
147.4178643891
 20
205.8194414559
  0
VERTEX
  8
0
 62
7
  6
CONTINUOUS
 10
147.4328085636
 20
205.7321020458
  0
VERTEX
  8
0
 62
7
  6
CONTINUOUS
 10
147.4344373473
 20
205.6917767593
  0
SEQEND
  0
POLYLINE
  8
0
 62
7
  6
CONTINUOUS
 66
1
 70
0
  0
VERTEX
  8
0
 62
7
  6
CONTINUOUS
 10
156.3344045507
 20
203.4998166935
  0
VERTEX
  8
0
 62
7
  6
CONTINUOUS
 10
156.3556783092
 20
203.3862500168
  0
VERTEX
  8
0
 62
7
  6
CONTINUOUS
 10
156.3611610211
 20
203.283795149
  0
SEQEND
  0
LINE
  8
0
 62
7
  6
CONTINUOUS
 10
156.9358663133
 20
81.009224213
 11
156.8905593684
 21
80.8517241379
  0
LINE
  8
0
 62
7
  6
CONTINUOUS
 10
156.9358663133
 20
80.1035990628
 11
156.9811732583
 21
80.2610991379
  0
LINE
  8
0
 62
7
  6
CONTINUOUS
 10
157.1480885709
 20
80.1035990628
 11
157.1933955158
 21
80.2610991379
  0
LINE
  8
0
 62
7
  6
CONTINUOUS
 10
156.4827968084
 20
81.1667240628
 11
156.4148363851
 21
80.9698491379
  0
LINE
  8
0
 62
7
  6
CONTINUOUS
 10
156.3344043572
 20
75.5286308747
 11
156.3057693551
 21
75.4470471621
  0
LINE
  8
0
 62
7
  6
CONTINUOUS
 10
157.0264802032
 20
80.8123490628
 11
157.0717871482
 21
80.9304740628
  0
LINE
  8
0
 62
7
  6
CONTINUOUS
 10
156.8452524235
 20
80.300474213
 11
156.7999454785
 21
80.182349213
  0
LINE
  8
0
 62
7
  6
CONTINUOUS
 10
157.2387024607
 20
80.8123490628
 11
157.2685121985
 21
80.8900694936
  0
LINE
  8
0
 62
7
  6
CONTINUOUS
 10
156.2168016048
 20
108.9113273266
 11
156.2168999265
 21
108.91143189
  0
POLYLINE
  8
0
 62
7
  6
CONTINUOUS
 66
1
 70
0
  0
VERTEX
  8
0
 62
7
  6
CONTINUOUS
 10
156.2168999265
 20
108.91143189
  0
VERTEX
  8
0
 62
7
  6
CONTINUOUS
 10
156.1655616261
 20
108.8611648094
  0
VERTEX
  8
0
 62
7
  6
CONTINUOUS
 10
156.0953402715
 20
108.8052167882
  0
SEQEND
  0
LINE
  8
0
 62
7
  6
CONTINUOUS
 10
165.6489526364
 20
155.4408760725
 11
163.1315517241
 21
154.8142241379
  0
LINE
  8
0
 62
7
  6
CONTINUOUS
 10
148.051874723
 20
154.1406616867
 11
159.1905926806
 21
153.2503314463
  0
LINE
  8
0
 62
7
  6
CONTINUOUS
 10
159.288153376
 20
153.2326720138
 11
162.8765920458
 21
152.207091921
  0
LINE
  8
0
 62
7
  6
CONTINUOUS
 10
155.9677773546
 20
153.4910308735
 11
156.0248652263
 21
153.4658618369
  0
LINE
  8
0
 62
7
  6
CONTINUOUS
 10
156.2607841788
 20
170.0626301526
 11
156.3057693539
 21
169.9814011166
  0
LINE
  8
0
 62
7
  6
CONTINUOUS
 10
156.3057693539
 20
186.7814011166
 11
156.3344043664
 21
186.6998173674
  0
LINE
  8
0
 62
7
  6
CONTINUOUS
 10
157.3662823537
 20
80.1429741379
 11
157.4342427711
 21
80.300474213
  0
LINE
  8
0
 62
7
  6
CONTINUOUS
 10
157.5785046112
 20
80.1429741379
 11
157.6464650287
 21
80.300474213
  0
POLYLINE
  8
0
 62
7
  6
CONTINUOUS
 66
1
 70
0
  0
VERTEX
  8
0
 62
7
  6
CONTINUOUS
 10
156.3057693551
 20
92.2470471621
  0
VERTEX
  8
0
 62
7
  6
CONTINUOUS
 10
156.2607841802
 20
92.1658181254
  0
VERTEX
  8
0
 62
7
  6
CONTINUOUS
 10
156.2168016074
 20
92.111327324
  0
SEQEND
  0
LINE
  8
0
 62
7
  6
CONTINUOUS
 10
156.0953402715
 20
108.8052167882
 11
156.0248652267
 21
108.7625864392
  0
LINE
  8
0
 62
7
  6
CONTINUOUS
 10
156.0248652267
 20
108.7625864392
 11
155.9677773547
 21
108.7374174024
  0
LINE
  8
0
 62
7
  6
CONTINUOUS
 10
159.288153376
 20
108.9957762621
 11
162.8765920458
 21
110.0213563548
  0
LINE
  8
0
 62
7
  6
CONTINUOUS
 10
165.6489526364
 20
163.8408760725
 11
163.1315517241
 21
163.2142241379
  0
LINE
  8
0
 62
7
  6
CONTINUOUS
 10
148.051874723
 20
158.4877865892
 11
159.1905926806
 21
159.3781168296
  0
LINE
  8
0
 62
7
  6
CONTINUOUS
 10
165.6489526364
 20
157.1875722033
 11
163.1315517241
 21
157.8142241379
  0
LINE
  8
0
 62
7
  6
CONTINUOUS
 10
156.2168016037
 20
170.1171209504
 11
156.2168999274
 21
170.1170163849
  0
LINE
  8
0
 62
7
  6
CONTINUOUS
 10
156.2168016064
 20
170.1171209529
 11
156.2607841788
 21
170.0626301526
  0
LINE
  8
0
 62
7
  6
CONTINUOUS
 10
156.2607841788
 20
186.8626301526
 11
156.3057693539
 21
186.7814011166
  0
LINE
  8
0
 62
7
  6
CONTINUOUS
 10
156.3057693539
 20
203.5814011166
 11
156.3344043664
 21
203.4998173674
  0
POLYLINE
  8
0
 62
7
  6
CONTINUOUS
 66
1
 70
0
  0
VERTEX
  8
0
 62
7
  6
CONTINUOUS
 10
156.3057693551
 20
75.4470471621
  0
VERTEX
  8
0
 62
7
  6
CONTINUOUS
 10
156.2607841802
 20
75.3658181254
  0
VERTEX
  8
0
 62
7
  6
CONTINUOUS
 10
156.2168016074
 20
75.311327324
  0
SEQEND
  0
LINE
  8
0
 62
7
  6
CONTINUOUS
 10
156.5507572338
 20
80.9304740628
 11
156.618717667
 21
81.0485990628
  0
LINE
  8
0
 62
7
  6
CONTINUOUS
 10
156.7629794913
 20
80.9304740628
 11
156.8309399245
 21
81.0485990628
  0
LINE
  8
0
 62
7
  6
CONTINUOUS
 10
157.0264802032
 20
81.1667240628
 11
156.9358663133
 21
81.009224213
  0
LINE
  8
0
 62
7
  6
CONTINUOUS
 10
156.8452524235
 20
79.946099213
 11
156.9358663133
 21
80.1035990628
  0
LINE
  8
0
 62
7
  6
CONTINUOUS
 10
157.057474681
 20
79.946099213
 11
157.1480885709
 21
80.1035990628
  0
LINE
  8
0
 62
7
  6
CONTINUOUS
 10
157.2983219363
 20
80.3398490628
 11
157.2530149914
 21
80.2610991379
  0
LINE
  8
0
 62
7
  6
CONTINUOUS
 10
156.2168016048
 20
92.1113273266
 11
156.2168999265
 21
92.11143189
  0
POLYLINE
  8
0
 62
7
  6
CONTINUOUS
 66
1
 70
0
  0
VERTEX
  8
0
 62
7
  6
CONTINUOUS
 10
156.2168999265
 20
92.11143189
  0
VERTEX
  8
0
 62
7
  6
CONTINUOUS
 10
156.1655616261
 20
92.0611648094
  0
VERTEX
  8
0
 62
7
  6
CONTINUOUS
 10
156.0953402715
 20
92.0052167882
  0
SEQEND
  0
LINE
  8
0
 62
7
  6
CONTINUOUS
 10
165.6489526364
 20
165.5875722033
 11
163.1315517241
 21
166.2142241379
  0
POLYLINE
  8
0
 62
7
  6
CONTINUOUS
 66
1
 70
0
  0
VERTEX
  8
0
 62
7
  6
CONTINUOUS
 10
156.0248652263
 20
170.2658618369
  0
VERTEX
  8
0
 62
7
  6
CONTINUOUS
 10
156.0953402715
 20
170.2232314877
  0
VERTEX
  8
0
 62
7
  6
CONTINUOUS
 10
156.165561626
 20
170.1672834665
  0
VERTEX
  8
0
 62
7
  6
CONTINUOUS
 10
156.2168999274
 20
170.1170163849
  0
SEQEND
  0
LINE
  8
0
 62
7
  6
CONTINUOUS
 10
157.2756684638
 20
80.0248491379
 11
157.3662823537
 21
80.1429741379
  0
LINE
  8
0
 62
7
  6
CONTINUOUS
 10
157.4878907214
 20
80.0248491379
 11
157.5785046112
 21
80.1429741379
  0
LINE
  8
0
 62
7
  6
CONTINUOUS
 10
156.5507572338
 20
81.8754741755
 11
157.4568962436
 21
82.8598491379
  0
LINE
  8
0
 62
7
  6
CONTINUOUS
 10
165.6489526364
 20
172.2408760725
 11
163.1315517241
 21
171.6142241379
  0
LINE
  8
0
 62
7
  6
CONTINUOUS
 10
148.051874723
 20
170.9406616867
 11
159.1905926806
 21
170.0503314463
  0
LINE
  8
0
 62
7
  6
CONTINUOUS
 10
159.288153376
 20
170.0326720138
 11
162.8765920458
 21
169.007091921
  0
LINE
  8
0
 62
7
  6
CONTINUOUS
 10
155.9677773546
 20
170.2910308735
 11
156.0248652263
 21
170.2658618369
  0
LINE
  8
0
 62
7
  6
CONTINUOUS
 10
156.2168016037
 20
186.9171209504
 11
156.2168999274
 21
186.9170163849
  0
LINE
  8
0
 62
7
  6
CONTINUOUS
 10
156.2168016064
 20
186.9171209529
 11
156.2607841788
 21
186.8626301526
  0
LINE
  8
0
 62
7
  6
CONTINUOUS
 10
156.2607841788
 20
203.6626301526
 11
156.3057693539
 21
203.5814011166
  0
LINE
  8
0
 62
7
  6
CONTINUOUS
 10
156.7999454785
 20
80.182349213
 11
156.7319850294
 21
80.1035990628
  0
LINE
  8
0
 62
7
  6
CONTINUOUS
 10
156.7629794913
 20
81.8754741755
 11
157.6691185011
 21
82.8598491379
  0
LINE
  8
0
 62
7
  6
CONTINUOUS
 10
156.2168016048
 20
75.3113273266
 11
156.2168999265
 21
75.31143189
  0
LINE
  8
0
 62
7
  6
CONTINUOUS
 10
157.3209754088
 20
82.9779741379
 11
156.3921829106
 21
81.9935991755
  0
LINE
  8
0
 62
7
  6
CONTINUOUS
 10
156.5960641946
 20
81.2848490628
 11
156.4827968084
 21
81.1667240628
  0
LINE
  8
0
 62
7
  6
CONTINUOUS
 10
156.0953402715
 20
92.0052167882
 11
156.0248652267
 21
91.9625864392
  0
LINE
  8
0
 62
7
  6
CONTINUOUS
 10
156.0248652267
 20
91.9625864392
 11
155.9677773547
 21
91.9374174024
  0
LINE
  8
0
 62
7
  6
CONTINUOUS
 10
165.6489526364
 20
180.6408760725
 11
163.1315517241
 21
180.0142241379
  0
LINE
  8
0
 62
7
  6
CONTINUOUS
 10
148.051874723
 20
175.2877865892
 11
159.1905926806
 21
176.1781168296
  0
LINE
  8
0
 62
7
  6
CONTINUOUS
 10
165.6489526364
 20
173.9875722033
 11
163.1315517241
 21
174.6142241379
  0
POLYLINE
  8
0
 62
7
  6
CONTINUOUS
 66
1
 70
0
  0
VERTEX
  8
0
 62
7
  6
CONTINUOUS
 10
156.2168999265
 20
75.31143189
  0
VERTEX
  8
0
 62
7
  6
CONTINUOUS
 10
156.1655616261
 20
75.2611648094
  0
VERTEX
  8
0
 62
7
  6
CONTINUOUS
 10
156.0953402715
 20
75.2052167882
  0
SEQEND
  0
LINE
  8
0
 62
7
  6
CONTINUOUS
 10
156.7546385019
 20
79.8673490628
 11
156.8452524235
 21
79.946099213
  0
LINE
  8
0
 62
7
  6
CONTINUOUS
 10
157.2530149914
 20
80.2610991379
 11
157.2077080464
 21
80.2217240628
  0
LINE
  8
0
 62
7
  6
CONTINUOUS
 10
156.9668607594
 20
79.8673490628
 11
157.057474681
 21
79.946099213
  0
LINE
  8
0
 62
7
  6
CONTINUOUS
 10
159.288153376
 20
92.1957762621
 11
162.8765920458
 21
93.2213563548
  0
POLYLINE
  8
0
 62
7
  6
CONTINUOUS
 66
1
 70
0
  0
VERTEX
  8
0
 62
7
  6
CONTINUOUS
 10
156.0248652263
 20
187.0658618369
  0
VERTEX
  8
0
 62
7
  6
CONTINUOUS
 10
156.0953402715
 20
187.0232314877
  0
VERTEX
  8
0
 62
7
  6
CONTINUOUS
 10
156.165561626
 20
186.9672834665
  0
VERTEX
  8
0
 62
7
  6
CONTINUOUS
 10
156.2168999274
 20
186.9170163849
  0
SEQEND
  0
LINE
  8
0
 62
7
  6
CONTINUOUS
 10
156.2168016037
 20
203.7171209504
 11
156.2168999274
 21
203.7170163849
  0
LINE
  8
0
 62
7
  6
CONTINUOUS
 10
156.2168016064
 20
203.7171209529
 11
156.2607841788
 21
203.6626301526
  0
LINE
  8
0
 62
7
  6
CONTINUOUS
 10
156.0953402715
 20
75.2052167882
 11
156.0248652267
 21
75.1625864392
  0
LINE
  8
0
 62
7
  6
CONTINUOUS
 10
156.618717667
 20
81.0485990628
 11
156.6866780844
 21
81.0879741379
  0
LINE
  8
0
 62
7
  6
CONTINUOUS
 10
156.8309399245
 20
81.0485990628
 11
156.898900342
 21
81.0879741379
  0
LINE
  8
0
 62
7
  6
CONTINUOUS
 10
157.0717871482
 20
80.9304740628
 11
157.1397475656
 21
80.9698491379
  0
LINE
  8
0
 62
7
  6
CONTINUOUS
 10
157.2077080464
 20
79.9854740628
 11
157.2756684638
 21
80.0248491379
  0
LINE
  8
0
 62
7
  6
CONTINUOUS
 10
157.419930304
 20
79.9854740628
 11
157.4878907214
 21
80.0248491379
  0
LINE
  8
0
 62
7
  6
CONTINUOUS
 10
156.6866780844
 20
81.3242241379
 11
156.5960641946
 21
81.2848490628
  0
LINE
  8
0
 62
7
  6
CONTINUOUS
 10
157.1170940931
 20
81.2060991379
 11
157.0264802032
 21
81.1667240628
  0
LINE
  8
0
 62
7
  6
CONTINUOUS
 10
165.6489526364
 20
189.0408760725
 11
163.1315517241
 21
188.4142241379
  0
LINE
  8
0
 62
7
  6
CONTINUOUS
 10
148.051874723
 20
187.7406616867
 11
159.1905926806
 21
186.8503314463
  0
LINE
  8
0
 62
7
  6
CONTINUOUS
 10
165.6489526364
 20
182.3875722033
 11
163.1315517241
 21
183.0142241379
  0
LINE
  8
0
 62
7
  6
CONTINUOUS
 10
159.288153376
 20
186.8326720138
 11
162.8765920458
 21
185.807091921
  0
LINE
  8
0
 62
7
  6
CONTINUOUS
 10
155.9677773546
 20
187.0910308735
 11
156.0248652263
 21
187.0658618369
  0
POLYLINE
  8
0
 62
7
  6
CONTINUOUS
 66
1
 70
0
  0
VERTEX
  8
0
 62
7
  6
CONTINUOUS
 10
149.4841016088
 20
205.9454368069
  0
VERTEX
  8
0
 62
7
  6
CONTINUOUS
 10
149.5524700536
 20
205.8889392627
  0
VERTEX
  8
0
 62
7
  6
CONTINUOUS
 10
149.6097806179
 20
205.8212509368
  0
VERTEX
  8
0
 62
7
  6
CONTINUOUS
 10
149.6542300312
 20
205.7445016456
  0
VERTEX
  8
0
 62
7
  6
CONTINUOUS
 10
149.6844196998
 20
205.6611063073
  0
VERTEX
  8
0
 62
7
  6
CONTINUOUS
 10
149.6993997131
 20
205.573688958
  0
VERTEX
  8
0
 62
7
  6
CONTINUOUS
 10
149.7010352175
 20
205.5332807612
  0
SEQEND
  0
LINE
  8
0
 62
7
  6
CONTINUOUS
 10
156.0248652267
 20
75.1625864392
 11
155.9677773547
 21
75.1374174024
  0
POLYLINE
  8
0
 62
7
  6
CONTINUOUS
 66
1
 70
0
  0
VERTEX
  8
0
 62
7
  6
CONTINUOUS
 10
156.6931312792
 20
78.4442241379
  0
VERTEX
  8
0
 62
7
  6
CONTINUOUS
 10
156.7137486644
 20
78.450547766
  0
VERTEX
  8
0
 62
7
  6
CONTINUOUS
 10
156.7332849284
 20
78.4690721581
  0
VERTEX
  8
0
 62
7
  6
CONTINUOUS
 10
156.7507801907
 20
78.4985510905
  0
VERTEX
  8
0
 62
7
  6
CONTINUOUS
 10
156.7654783302
 20
78.5371777309
  0
VERTEX
  8
0
 62
7
  6
CONTINUOUS
 10
156.7768504009
 20
78.5828659977
  0
VERTEX
  8
0
 62
7
  6
CONTINUOUS
 10
156.7845714797
 20
78.6334910763
  0
VERTEX
  8
0
 62
7
  6
CONTINUOUS
 10
156.7884673238
 20
78.6870054995
  0
VERTEX
  8
0
 62
7
  6
CONTINUOUS
 10
156.7884664001
 20
78.7414684511
  0
VERTEX
  8
0
 62
7
  6
CONTINUOUS
 10
156.7845690648
 20
78.7949789113
  0
VERTEX
  8
0
 62
7
  6
CONTINUOUS
 10
156.7768473117
 20
78.8455979078
  0
VERTEX
  8
0
 62
7
  6
CONTINUOUS
 10
156.7654755153
 20
78.8912796767
  0
VERTEX
  8
0
 62
7
  6
CONTINUOUS
 10
156.7507782439
 20
78.9299013167
  0
VERTEX
  8
0
 62
7
  6
CONTINUOUS
 10
156.7332839441
 20
78.9593773977
  0
VERTEX
  8
0
 62
7
  6
CONTINUOUS
 10
156.7137484038
 20
78.9779006716
  0
VERTEX
  8
0
 62
7
  6
CONTINUOUS
 10
156.6931312792
 20
78.9842241379
  0
SEQEND
  0
POLYLINE
  8
0
 62
7
  6
CONTINUOUS
 66
1
 70
0
  0
VERTEX
  8
0
 62
7
  6
CONTINUOUS
 10
156.4809090217
 20
78.9842241379
  0
VERTEX
  8
0
 62
7
  6
CONTINUOUS
 10
156.4603457501
 20
78.9779340564
  0
VERTEX
  8
0
 62
7
  6
CONTINUOUS
 10
156.4409224613
 20
78.959592847
  0
VERTEX
  8
0
 62
7
  6
CONTINUOUS
 10
156.4234616448
 20
78.9303236991
  0
VERTEX
  8
0
 62
7
  6
CONTINUOUS
 10
156.4087308938
 20
78.891817086
  0
VERTEX
  8
0
 62
7
  6
CONTINUOUS
 10
156.397312455
 20
78.8462004894
  0
VERTEX
  8
0
 62
7
  6
CONTINUOUS
 10
156.3895090565
 20
78.795318114
  0
VERTEX
  8
0
 62
7
  6
CONTINUOUS
 10
156.3855840668
 20
78.7417494131
  0
VERTEX
  8
0
 62
7
  6
CONTINUOUS
 10
156.3855840668
 20
78.6866988628
  0
VERTEX
  8
0
 62
7
  6
CONTINUOUS
 10
156.3895090565
 20
78.6331301619
  0
VERTEX
  8
0
 62
7
  6
CONTINUOUS
 10
156.397312455
 20
78.5822477865
  0
VERTEX
  8
0
 62
7
  6
CONTINUOUS
 10
156.4087308938
 20
78.5366311899
  0
VERTEX
  8
0
 62
7
  6
CONTINUOUS
 10
156.4234616448
 20
78.4981245767
  0
VERTEX
  8
0
 62
7
  6
CONTINUOUS
 10
156.4409224613
 20
78.4688554289
  0
VERTEX
  8
0
 62
7
  6
CONTINUOUS
 10
156.4603457501
 20
78.4505142195
  0
VERTEX
  8
0
 62
7
  6
CONTINUOUS
 10
156.4809090217
 20
78.4442241379
  0
SEQEND
  0
POLYLINE
  8
0
 62
7
  6
CONTINUOUS
 66
1
 70
0
  0
VERTEX
  8
0
 62
7
  6
CONTINUOUS
 10
156.4809090217
 20
78.4442241379
  0
VERTEX
  8
0
 62
7
  6
CONTINUOUS
 10
156.5014722933
 20
78.4505142195
  0
VERTEX
  8
0
 62
7
  6
CONTINUOUS
 10
156.5208955821
 20
78.4688554289
  0
VERTEX
  8
0
 62
7
  6
CONTINUOUS
 10
156.5383563985
 20
78.4981245767
  0
VERTEX
  8
0
 62
7
  6
CONTINUOUS
 10
156.5530871495
 20
78.5366311899
  0
VERTEX
  8
0
 62
7
  6
CONTINUOUS
 10
156.5645055884
 20
78.5822477865
  0
VERTEX
  8
0
 62
7
  6
CONTINUOUS
 10
156.5723089869
 20
78.6331301619
  0
VERTEX
  8
0
 62
7
  6
CONTINUOUS
 10
156.5762339765
 20
78.6866988628
  0
VERTEX
  8
0
 62
7
  6
CONTINUOUS
 10
156.5762339765
 20
78.7417494131
  0
VERTEX
  8
0
 62
7
  6
CONTINUOUS
 10
156.5723089869
 20
78.795318114
  0
VERTEX
  8
0
 62
7
  6
CONTINUOUS
 10
156.5645055884
 20
78.8462004894
  0
VERTEX
  8
0
 62
7
  6
CONTINUOUS
 10
156.5530871495
 20
78.891817086
  0
VERTEX
  8
0
 62
7
  6
CONTINUOUS
 10
156.5383563985
 20
78.9303236991
  0
VERTEX
  8
0
 62
7
  6
CONTINUOUS
 10
156.5208955821
 20
78.959592847
  0
VERTEX
  8
0
 62
7
  6
CONTINUOUS
 10
156.5014722933
 20
78.9779340564
  0
VERTEX
  8
0
 62
7
  6
CONTINUOUS
 10
156.4809090217
 20
78.9842241379
  0
SEQEND
  0
LINE
  8
0
 62
7
  6
CONTINUOUS
 10
165.6489526364
 20
197.4408760725
 11
163.1315517241
 21
196.8142241379
  0
LINE
  8
0
 62
7
  6
CONTINUOUS
 10
148.051874723
 20
192.0877865892
 11
159.1905926806
 21
192.9781168296
  0
LINE
  8
0
 62
7
  6
CONTINUOUS
 10
165.6489526364
 20
190.7875722033
 11
163.1315517241
 21
191.4142241379
  0
POLYLINE
  8
0
 62
7
  6
CONTINUOUS
 66
1
 70
0
  0
VERTEX
  8
0
 62
7
  6
CONTINUOUS
 10
149.4253769753
 20
205.9800906127
  0
VERTEX
  8
0
 62
7
  6
CONTINUOUS
 10
149.500529162
 20
205.9357390445
  0
VERTEX
  8
0
 62
7
  6
CONTINUOUS
 10
149.5931929475
 20
205.8627615703
  0
VERTEX
  8
0
 62
7
  6
CONTINUOUS
 10
149.6898902896
 20
205.7655771251
  0
VERTEX
  8
0
 62
7
  6
CONTINUOUS
 10
149.7894843169
 20
205.6454269123
  0
VERTEX
  8
0
 62
7
  6
CONTINUOUS
 10
149.892877184
 20
205.5064509669
  0
SEQEND
  0
LINE
  8
0
 62
7
  6
CONTINUOUS
 10
159.288153376
 20
75.3957762621
 11
162.8765920458
 21
76.4213563548
  0
LINE
  8
0
 62
7
  6
CONTINUOUS
 10
155.9677773546
 20
203.8910308735
 11
156.0248652263
 21
203.8658618369
  0
POLYLINE
  8
0
 62
7
  6
CONTINUOUS
 66
1
 70
0
  0
VERTEX
  8
0
 62
7
  6
CONTINUOUS
 10
156.0248652263
 20
203.8658618369
  0
VERTEX
  8
0
 62
7
  6
CONTINUOUS
 10
156.0953402715
 20
203.8232314877
  0
VERTEX
  8
0
 62
7
  6
CONTINUOUS
 10
156.165561626
 20
203.7672834665
  0
VERTEX
  8
0
 62
7
  6
CONTINUOUS
 10
156.2168999274
 20
203.7170163849
  0
SEQEND
  0
LINE
  8
0
 62
7
  6
CONTINUOUS
 10
165.6489526364
 20
205.8408760725
 11
163.1315517241
 21
205.2142241379
  0
LINE
  8
0
 62
7
  6
CONTINUOUS
 10
147.1815517241
 20
199.6340635574
 11
147.141642656
 21
199.6326699021
  0
LINE
  8
0
 62
7
  6
CONTINUOUS
 10
148.3871132184
 20
204.5138656971
 11
159.1905926806
 21
203.6503314463
  0
POLYLINE
  8
0
 62
7
  6
CONTINUOUS
 66
1
 70
0
  0
VERTEX
  8
0
 62
7
  6
CONTINUOUS
 10
155.8500511179
 20
203.9173446918
  0
VERTEX
  8
0
 62
7
  6
CONTINUOUS
 10
155.8892613458
 20
203.9123565976
  0
VERTEX
  8
0
 62
7
  6
CONTINUOUS
 10
155.9369420969
 20
203.9012258263
  0
VERTEX
  8
0
 62
7
  6
CONTINUOUS
 10
155.9678024705
 20
203.8910216028
  0
SEQEND
  0
LINE
  8
0
 62
7
  6
CONTINUOUS
 10
165.6489526364
 20
199.1875722033
 11
163.1315517241
 21
199.8142241379
  0
LINE
  8
0
 62
7
  6
CONTINUOUS
 10
159.288153376
 20
203.6326720138
 11
162.8765920458
 21
202.607091921
  0
LINE
  8
0
 62
7
  6
CONTINUOUS
 10
148.1315517241
 20
210.8142241379
 11
162.9315517241
 21
210.8142241379
  0
LINE
  8
0
 62
7
  6
CONTINUOUS
 10
147.1315517241
 20
206.1792141428
 11
149.2494518548
 21
206.0311161386
  0
POLYLINE
  8
0
 62
7
  6
CONTINUOUS
 66
1
 70
0
  0
VERTEX
  8
0
 62
7
  6
CONTINUOUS
 10
149.2494477646
 20
206.0311164076
  0
VERTEX
  8
0
 62
7
  6
CONTINUOUS
 10
149.3284685798
 20
206.0175951815
  0
VERTEX
  8
0
 62
7
  6
CONTINUOUS
 10
149.4123193032
 20
205.9864791964
  0
VERTEX
  8
0
 62
7
  6
CONTINUOUS
 10
149.4253769753
 20
205.9800906127
  0
SEQEND
  0
LINE
  8
0
 62
7
  6
CONTINUOUS
 10
165.6489526364
 20
207.5875722033
 11
163.1315517241
 21
208.2142241379
  0
ARC
  8
0
 62
7
  6
CONTINUOUS
 10
50.4126812935
 20
217.6614634255
 40
50.0
 50
36.1628008448
 51
46.2787379139
  0
ARC
  8
0
 62
7
  6
CONTINUOUS
 10
49.3195606941
 20
252.7060344828
 40
8.75
 50
29.0322772227
 51
59.4415682141
  0
ARC
  8
0
 62
7
  6
CONTINUOUS
 10
49.3239224138
 20
252.7060344828
 40
8.5
 50
109.7499227956
 51
231.9951143277
  0
ARC
  8
0
 62
7
  6
CONTINUOUS
 10
49.3239224138
 20
252.7060344828
 40
8.5
 50
232.4345865675
 51
250.2500772044
  0
ARC
  8
0
 62
7
  6
CONTINUOUS
 10
49.3239224138
 20
252.7060344828
 40
5.8
 50
0.0
 51
180.0
  0
CIRCLE
  8
0
 62
7
  6
CONTINUOUS
 10
49.3239224138
 20
252.7060344828
 40
4.15
  0
ARC
  8
0
 62
7
  6
CONTINUOUS
 10
53.8239224138
 20
250.7060344828
 40
6.0
 50
270.0
 51
323.8371991552
  0
ARC
  8
0
 62
7
  6
CONTINUOUS
 10
56.5939224138
 20
263.0060344828
 40
0.9
 50
13.9784285535
 51
166.0215714465
  0
ARC
  8
0
 62
7
  6
CONTINUOUS
 10
57.6258520059
 20
257.3164059042
 40
0.75
 50
209.0322772227
 51
250.46
  0
ARC
  8
0
 62
7
  6
CONTINUOUS
 10
53.8953119985
 20
260.4560344828
 40
0.25
 50
90.0
 51
239.4415682141
  0
ARC
  8
0
 62
7
  6
CONTINUOUS
 10
73.971099053
 20
245.7560344828
 40
1.0
 50
196.467546793
 51
270.0
  0
ARC
  8
0
 62
7
  6
CONTINUOUS
 10
68.5461132346
 20
253.7060344828
 40
1.0
 50
250.46
 51
270.0
  0
ARC
  8
0
 62
7
  6
CONTINUOUS
 10
70.2388222704
 20
251.8560344828
 40
0.85
 50
16.467546793
 51
90.0
  0
ARC
  8
0
 62
7
  6
CONTINUOUS
 10
64.8232062679
 20
253.4356437797
 40
0.5
 50
70.46
 51
133.7212620861
  0
ARC
  8
0
 62
7
  6
CONTINUOUS
 10
63.8539224138
 20
263.0060344828
 40
0.9
 50
13.9784285535
 51
166.0215714465
  0
ARC
  8
0
 62
7
  6
CONTINUOUS
 10
71.0939224138
 20
263.0060344828
 40
0.9
 50
13.9784285535
 51
166.0215714465
  0
ARC
  8
0
 62
7
  6
CONTINUOUS
 10
99.0351635341
 20
217.6614634255
 40
50.0
 50
133.7212620861
 51
143.8371991552
  0
ARC
  8
0
 62
7
  6
CONTINUOUS
 10
75.4767457745
 20
245.7560344828
 40
1.0
 50
270.0
 51
343.532453207
  0
ARC
  8
0
 62
7
  6
CONTINUOUS
 10
80.901731593
 20
253.7060344828
 40
1.0
 50
270.0
 51
289.54
  0
ARC
  8
0
 62
7
  6
CONTINUOUS
 10
79.2090225572
 20
251.8560344828
 40
0.85
 50
90.0
 51
163.532453207
  0
ARC
  8
0
 62
7
  6
CONTINUOUS
 10
84.6246385596
 20
253.4356437797
 40
0.5
 50
46.2787379139
 51
109.54
  0
ARC
  8
0
 62
7
  6
CONTINUOUS
 10
78.3539224138
 20
263.0060344828
 40
0.9
 50
13.9784285535
 51
166.0215714465
  0
ARC
  8
0
 62
7
  6
CONTINUOUS
 10
85.5939224138
 20
263.0060344828
 40
0.9
 50
13.9784285535
 51
166.0215714465
  0
ARC
  8
0
 62
7
  6
CONTINUOUS
 10
100.1239224138
 20
252.7060344828
 40
8.5
 50
289.7499227956
 51
70.2500772044
  0
ARC
  8
0
 62
7
  6
CONTINUOUS
 10
95.6239224138
 20
250.7060344828
 40
6.0
 50
216.1628008448
 51
270.0
  0
CIRCLE
  8
0
 62
7
  6
CONTINUOUS
 10
100.1239224138
 20
252.7060344828
 40
4.15
  0
ARC
  8
0
 62
7
  6
CONTINUOUS
 10
92.8539224138
 20
263.0060344828
 40
0.9
 50
13.9784285535
 51
166.0215714465
  0
CIRCLE
  8
0
 62
7
  6
CONTINUOUS
 10
63.8539224138
 20
131.1142241379
 40
1.5
  0
CIRCLE
  8
0
 62
7
  6
CONTINUOUS
 10
56.5939224138
 20
122.7142241379
 40
1.5
  0
CIRCLE
  8
0
 62
7
  6
CONTINUOUS
 10
71.0939224138
 20
122.7142241379
 40
1.5
  0
CIRCLE
  8
0
 62
7
  6
CONTINUOUS
 10
63.8539224138
 20
114.3142241379
 40
1.5
  0
CIRCLE
  8
0
 62
7
  6
CONTINUOUS
 10
56.5939224138
 20
105.9142241379
 40
1.5
  0
CIRCLE
  8
0
 62
7
  6
CONTINUOUS
 10
71.0939224138
 20
105.9142241379
 40
1.5
  0
CIRCLE
  8
0
 62
7
  6
CONTINUOUS
 10
63.8539224138
 20
97.5142241379
 40
1.5
  0
ARC
  8
0
 62
7
  6
CONTINUOUS
 10
53.8453119985
 20
60.0142241379
 40
0.2
 50
180.0
 51
270.0
  0
CIRCLE
  8
0
 62
7
  6
CONTINUOUS
 10
56.5939224138
 20
206.7142241379
 40
1.5
  0
CIRCLE
  8
0
 62
7
  6
CONTINUOUS
 10
71.0939224138
 20
206.7142241379
 40
1.5
  0
CIRCLE
  8
0
 62
7
  6
CONTINUOUS
 10
63.8539224138
 20
198.3142241379
 40
1.5
  0
CIRCLE
  8
0
 62
7
  6
CONTINUOUS
 10
56.5939224138
 20
189.9142241379
 40
1.5
  0
CIRCLE
  8
0
 62
7
  6
CONTINUOUS
 10
71.0939224138
 20
189.9142241379
 40
1.5
  0
CIRCLE
  8
0
 62
7
  6
CONTINUOUS
 10
63.8539224138
 20
181.5142241379
 40
1.5
  0
CIRCLE
  8
0
 62
7
  6
CONTINUOUS
 10
56.5939224138
 20
173.1142241379
 40
1.5
  0
CIRCLE
  8
0
 62
7
  6
CONTINUOUS
 10
71.0939224138
 20
173.1142241379
 40
1.5
  0
CIRCLE
  8
0
 62
7
  6
CONTINUOUS
 10
63.8539224138
 20
164.7142241379
 40
1.5
  0
CIRCLE
  8
0
 62
7
  6
CONTINUOUS
 10
56.5939224138
 20
156.3142241379
 40
1.5
  0
CIRCLE
  8
0
 62
7
  6
CONTINUOUS
 10
71.0939224138
 20
156.3142241379
 40
1.5
  0
CIRCLE
  8
0
 62
7
  6
CONTINUOUS
 10
63.8539224138
 20
147.9142241379
 40
1.5
  0
CIRCLE
  8
0
 62
7
  6
CONTINUOUS
 10
56.5939224138
 20
139.5142241379
 40
1.5
  0
CIRCLE
  8
0
 62
7
  6
CONTINUOUS
 10
71.0939224138
 20
139.5142241379
 40
1.5
  0
ARC
  8
0
 62
40
  6
CONTINUOUS
 10
49.2039224138
 20
209.5142241379
 40
1.5
 50
60.095255074
 51
119.904744926
  0
CIRCLE
  8
0
 62
7
  6
CONTINUOUS
 10
78.3539224138
 20
131.1142241379
 40
1.5
  0
CIRCLE
  8
0
 62
7
  6
CONTINUOUS
 10
92.8539224138
 20
131.1142241379
 40
1.5
  0
CIRCLE
  8
0
 62
7
  6
CONTINUOUS
 10
85.5939224138
 20
122.7142241379
 40
1.5
  0
CIRCLE
  8
0
 62
7
  6
CONTINUOUS
 10
78.3539224138
 20
114.3142241379
 40
1.5
  0
CIRCLE
  8
0
 62
7
  6
CONTINUOUS
 10
92.8539224138
 20
114.3142241379
 40
1.5
  0
CIRCLE
  8
0
 62
7
  6
CONTINUOUS
 10
85.5939224138
 20
105.9142241379
 40
1.5
  0
CIRCLE
  8
0
 62
7
  6
CONTINUOUS
 10
78.3539224138
 20
97.5142241379
 40
1.5
  0
CIRCLE
  8
0
 62
7
  6
CONTINUOUS
 10
92.8539224138
 20
97.5142241379
 40
1.5
  0
ARC
  8
0
 62
40
  6
CONTINUOUS
 10
100.2439224138
 20
61.1142241379
 40
1.5
 50
240.095255074
 51
299.904744926
  0
CIRCLE
  8
0
 62
7
  6
CONTINUOUS
 10
85.5939224138
 20
206.7142241379
 40
1.5
  0
CIRCLE
  8
0
 62
7
  6
CONTINUOUS
 10
78.3539224138
 20
198.3142241379
 40
1.5
  0
CIRCLE
  8
0
 62
7
  6
CONTINUOUS
 10
92.8539224138
 20
198.3142241379
 40
1.5
  0
CIRCLE
  8
0
 62
7
  6
CONTINUOUS
 10
85.5939224138
 20
189.9142241379
 40
1.5
  0
CIRCLE
  8
0
 62
7
  6
CONTINUOUS
 10
78.3539224138
 20
181.5142241379
 40
1.5
  0
CIRCLE
  8
0
 62
7
  6
CONTINUOUS
 10
92.8539224138
 20
181.5142241379
 40
1.5
  0
CIRCLE
  8
0
 62
7
  6
CONTINUOUS
 10
85.5939224138
 20
173.1142241379
 40
1.5
  0
CIRCLE
  8
0
 62
7
  6
CONTINUOUS
 10
78.3539224138
 20
164.7142241379
 40
1.5
  0
CIRCLE
  8
0
 62
7
  6
CONTINUOUS
 10
92.8539224138
 20
164.7142241379
 40
1.5
  0
CIRCLE
  8
0
 62
7
  6
CONTINUOUS
 10
85.5939224138
 20
156.3142241379
 40
1.5
  0
CIRCLE
  8
0
 62
7
  6
CONTINUOUS
 10
78.3539224138
 20
147.9142241379
 40
1.5
  0
CIRCLE
  8
0
 62
7
  6
CONTINUOUS
 10
92.8539224138
 20
147.9142241379
 40
1.5
  0
CIRCLE
  8
0
 62
7
  6
CONTINUOUS
 10
85.5939224138
 20
139.5142241379
 40
1.5
  0
ARC
  8
0
 62
7
  6
CONTINUOUS
 10
95.6025328291
 20
210.6142241379
 40
0.2
 50
0.0
 51
90.0
  0
ARC
  8
0
 62
7
  6
CONTINUOUS
 10
148.1315517241
 20
60.8142241379
 40
1.0
 50
180.0
 51
270.0
  0
ARC
  8
0
 62
7
  6
CONTINUOUS
 10
148.1315517241
 20
129.9374824206
 40
1.0
 50
180.0
 51
197.4745042926
  0
ARC
  8
0
 62
7
  6
CONTINUOUS
 10
148.1315517241
 20
132.2909658553
 40
1.0
 50
162.5254957074
 51
180.0
  0
ARC
  8
0
 62
7
  6
CONTINUOUS
 10
148.1315517241
 20
123.8909658553
 40
1.0
 50
94.57
 51
180.0
  0
ARC
  8
0
 62
7
  6
CONTINUOUS
 10
148.1315517241
 20
113.1374824206
 40
1.0
 50
180.0
 51
197.4745042926
  0
ARC
  8
0
 62
7
  6
CONTINUOUS
 10
148.1315517241
 20
115.4909658553
 40
1.0
 50
162.5254957074
 51
180.0
  0
ARC
  8
0
 62
7
  6
CONTINUOUS
 10
148.1315517241
 20
121.5374824206
 40
1.0
 50
180.0
 51
265.43
  0
ARC
  8
0
 62
7
  6
CONTINUOUS
 10
148.1315517241
 20
107.0909658553
 40
1.0
 50
94.57
 51
180.0
  0
ARC
  8
0
 62
7
  6
CONTINUOUS
 10
148.1315517241
 20
96.3374824206
 40
1.0
 50
180.0
 51
197.4745042926
  0
ARC
  8
0
 62
7
  6
CONTINUOUS
 10
148.1315517241
 20
98.6909658553
 40
1.0
 50
162.5254957074
 51
180.0
  0
ARC
  8
0
 62
7
  6
CONTINUOUS
 10
148.1315517241
 20
104.7374824206
 40
1.0
 50
180.0
 51
265.43
  0
ARC
  8
0
 62
7
  6
CONTINUOUS
 10
148.1315517241
 20
90.2909658553
 40
1.0
 50
94.57
 51
180.0
  0
ARC
  8
0
 62
7
  6
CONTINUOUS
 10
148.1315517241
 20
79.5374824206
 40
1.0
 50
180.0
 51
197.4745042926
  0
ARC
  8
0
 62
7
  6
CONTINUOUS
 10
148.1315517241
 20
81.8909658553
 40
1.0
 50
162.5254957074
 51
180.0
  0
ARC
  8
0
 62
7
  6
CONTINUOUS
 10
148.1315517241
 20
87.9374824206
 40
1.0
 50
180.0
 51
265.43
  0
ARC
  8
0
 62
7
  6
CONTINUOUS
 10
148.1315517241
 20
73.4909658553
 40
1.0
 50
94.57
 51
180.0
  0
ARC
  8
0
 62
7
  6
CONTINUOUS
 10
148.1315517241
 20
71.1374824206
 40
1.0
 50
180.0
 51
188.1464641015
  0
ARC
  8
0
 62
7
  6
CONTINUOUS
 10
148.1815517241
 20
60.8142241379
 40
1.0
 50
180.0
 51
270.0
  0
ARC
  8
0
 62
7
  6
CONTINUOUS
 10
156.1314335542
 20
60.814105968
 40
0.9998818301
 50
180.7781444247
 51
268.0049485052
  0
ARC
  8
0
 62
7
  6
CONTINUOUS
 10
148.1315517241
 20
199.4909658553
 40
1.0
 50
171.8535358985
 51
180.0
  0
ARC
  8
0
 62
7
  6
CONTINUOUS
 10
148.1315517241
 20
197.1374824206
 40
1.0
 50
180.0
 51
197.4745042926
  0
ARC
  8
0
 62
7
  6
CONTINUOUS
 10
148.1315517241
 20
191.0909658553
 40
1.0
 50
94.57
 51
180.0
  0
ARC
  8
0
 62
7
  6
CONTINUOUS
 10
148.1315517241
 20
180.3374824206
 40
1.0
 50
180.0
 51
197.4745042926
  0
ARC
  8
0
 62
7
  6
CONTINUOUS
 10
148.1315517241
 20
182.6909658553
 40
1.0
 50
162.5254957074
 51
180.0
  0
ARC
  8
0
 62
7
  6
CONTINUOUS
 10
148.1315517241
 20
188.7374824206
 40
1.0
 50
180.0
 51
265.43
  0
ARC
  8
0
 62
7
  6
CONTINUOUS
 10
148.1315517241
 20
174.2909658553
 40
1.0
 50
94.57
 51
180.0
  0
ARC
  8
0
 62
7
  6
CONTINUOUS
 10
148.1315517241
 20
163.5374824206
 40
1.0
 50
180.0
 51
197.4745042926
  0
ARC
  8
0
 62
7
  6
CONTINUOUS
 10
148.1315517241
 20
165.8909658553
 40
1.0
 50
162.5254957074
 51
180.0
  0
ARC
  8
0
 62
7
  6
CONTINUOUS
 10
148.1315517241
 20
171.9374824206
 40
1.0
 50
180.0
 51
265.43
  0
ARC
  8
0
 62
7
  6
CONTINUOUS
 10
148.1315517241
 20
157.4909658553
 40
1.0
 50
94.57
 51
180.0
  0
ARC
  8
0
 62
7
  6
CONTINUOUS
 10
148.1315517241
 20
146.7374824206
 40
1.0
 50
180.0
 51
197.4745042926
  0
ARC
  8
0
 62
7
  6
CONTINUOUS
 10
148.1315517241
 20
149.0909658553
 40
1.0
 50
162.5254957074
 51
180.0
  0
ARC
  8
0
 62
7
  6
CONTINUOUS
 10
148.1315517241
 20
155.1374824206
 40
1.0
 50
180.0
 51
265.43
  0
ARC
  8
0
 62
7
  6
CONTINUOUS
 10
148.1315517241
 20
140.6909658553
 40
1.0
 50
94.57
 51
180.0
  0
ARC
  8
0
 62
7
  6
CONTINUOUS
 10
148.1315517241
 20
138.3374824206
 40
1.0
 50
180.0
 51
265.43
  0
ARC
  8
0
 62
7
  6
CONTINUOUS
 10
148.1315517241
 20
209.8142241379
 40
1.0
 50
90.0
 51
180.0
  0
ARC
  8
0
 62
7
  6
CONTINUOUS
 10
165.4315517241
 20
97.5142241379
 40
0.9
 50
283.9784285535
 51
76.0215714465
  0
ARC
  8
0
 62
7
  6
CONTINUOUS
 10
165.4315517241
 20
105.9142241379
 40
0.9
 50
283.9784285535
 51
76.0215714465
  0
ARC
  8
0
 62
7
  6
CONTINUOUS
 10
165.4315517241
 20
114.3142241379
 40
0.9
 50
283.9784285535
 51
76.0215714465
  0
ARC
  8
0
 62
7
  6
CONTINUOUS
 10
165.4315517241
 20
122.7142241379
 40
0.9
 50
283.9784285535
 51
76.0215714465
  0
ARC
  8
0
 62
7
  6
CONTINUOUS
 10
165.4315517241
 20
131.1142241379
 40
0.9
 50
283.9784285535
 51
76.0215714465
  0
ARC
  8
0
 62
7
  6
CONTINUOUS
 10
159.15075418
 20
126.2765271965
 40
0.5
 50
274.57
 51
285.95
  0
ARC
  8
0
 62
7
  6
CONTINUOUS
 10
159.15075418
 20
109.4765271965
 40
0.5
 50
274.57
 51
285.95
  0
ARC
  8
0
 62
7
  6
CONTINUOUS
 10
159.15075418
 20
119.1519210793
 40
0.5
 50
74.05
 51
85.43
  0
ARC
  8
0
 62
7
  6
CONTINUOUS
 10
159.15075418
 20
92.6765271965
 40
0.5
 50
274.57
 51
285.95
  0
ARC
  8
0
 62
7
  6
CONTINUOUS
 10
159.15075418
 20
102.3519210793
 40
0.5
 50
74.05
 51
85.43
  0
ARC
  8
0
 62
7
  6
CONTINUOUS
 10
159.15075418
 20
75.8765271965
 40
0.5
 50
274.57
 51
285.95
  0
ARC
  8
0
 62
7
  6
CONTINUOUS
 10
159.15075418
 20
85.5519210793
 40
0.5
 50
74.05
 51
85.43
  0
ARC
  8
0
 62
7
  6
CONTINUOUS
 10
159.15075418
 20
68.7519210793
 40
0.5
 50
74.05
 51
85.43
  0
ARC
  8
0
 62
7
  6
CONTINUOUS
 10
162.9315517241
 20
126.6290559811
 40
0.2
 50
0.0
 51
105.95
  0
ARC
  8
0
 62
7
  6
CONTINUOUS
 10
162.9315517241
 20
118.7993922948
 40
0.2
 50
254.05
 51
360.0
  0
ARC
  8
0
 62
7
  6
CONTINUOUS
 10
162.9315517241
 20
109.8290559811
 40
0.2
 50
0.0
 51
105.95
  0
ARC
  8
0
 62
7
  6
CONTINUOUS
 10
162.9315517241
 20
101.9993922948
 40
0.2
 50
254.05
 51
360.0
  0
ARC
  8
0
 62
7
  6
CONTINUOUS
 10
162.9315517241
 20
93.0290559811
 40
0.2
 50
0.0
 51
105.95
  0
ARC
  8
0
 62
7
  6
CONTINUOUS
 10
162.9315517241
 20
85.1993922948
 40
0.2
 50
254.05
 51
360.0
  0
ARC
  8
0
 62
7
  6
CONTINUOUS
 10
162.9315517241
 20
76.2290559811
 40
0.2
 50
0.0
 51
105.95
  0
ARC
  8
0
 62
7
  6
CONTINUOUS
 10
162.9315517241
 20
68.3993922948
 40
0.2
 50
254.05
 51
360.0
  0
ARC
  8
0
 62
7
  6
CONTINUOUS
 10
162.9315517241
 20
60.0142241379
 40
0.2
 50
270.0
 51
360.0
  0
ARC
  8
0
 62
7
  6
CONTINUOUS
 10
159.15075418
 20
159.8765271965
 40
0.5
 50
274.57
 51
285.95
  0
ARC
  8
0
 62
7
  6
CONTINUOUS
 10
159.15075418
 20
169.5519210793
 40
0.5
 50
74.05
 51
85.43
  0
ARC
  8
0
 62
7
  6
CONTINUOUS
 10
159.15075418
 20
143.0765271965
 40
0.5
 50
274.57
 51
285.95
  0
ARC
  8
0
 62
7
  6
CONTINUOUS
 10
159.15075418
 20
152.7519210793
 40
0.5
 50
74.05
 51
85.43
  0
ARC
  8
0
 62
7
  6
CONTINUOUS
 10
159.15075418
 20
135.9519210793
 40
0.5
 50
74.05
 51
85.43
  0
ARC
  8
0
 62
7
  6
CONTINUOUS
 10
159.15075418
 20
193.4765271965
 40
0.5
 50
274.57
 51
285.95
  0
ARC
  8
0
 62
7
  6
CONTINUOUS
 10
159.15075418
 20
203.1519210793
 40
0.5
 50
74.05
 51
85.43
  0
ARC
  8
0
 62
7
  6
CONTINUOUS
 10
159.15075418
 20
176.6765271965
 40
0.5
 50
274.57
 51
285.95
  0
ARC
  8
0
 62
7
  6
CONTINUOUS
 10
159.15075418
 20
186.3519210793
 40
0.5
 50
74.05
 51
85.43
  0
ARC
  8
0
 62
7
  6
CONTINUOUS
 10
165.4315517241
 20
139.5142241379
 40
0.9
 50
283.9784285535
 51
76.0215714465
  0
ARC
  8
0
 62
7
  6
CONTINUOUS
 10
165.4315517241
 20
147.9142241379
 40
0.9
 50
283.9784285535
 51
76.0215714465
  0
ARC
  8
0
 62
7
  6
CONTINUOUS
 10
165.4315517241
 20
156.3142241379
 40
0.9
 50
283.9784285535
 51
76.0215714465
  0
ARC
  8
0
 62
7
  6
CONTINUOUS
 10
165.4315517241
 20
164.7142241379
 40
0.9
 50
283.9784285535
 51
76.0215714465
  0
ARC
  8
0
 62
7
  6
CONTINUOUS
 10
162.9315517241
 20
169.1993922948
 40
0.2
 50
254.05
 51
360.0
  0
ARC
  8
0
 62
7
  6
CONTINUOUS
 10
162.9315517241
 20
160.2290559811
 40
0.2
 50
0.0
 51
105.95
  0
ARC
  8
0
 62
7
  6
CONTINUOUS
 10
162.9315517241
 20
152.3993922948
 40
0.2
 50
254.05
 51
360.0
  0
ARC
  8
0
 62
7
  6
CONTINUOUS
 10
162.9315517241
 20
143.4290559811
 40
0.2
 50
0.0
 51
105.95
  0
ARC
  8
0
 62
7
  6
CONTINUOUS
 10
162.9315517241
 20
135.5993922948
 40
0.2
 50
254.05
 51
360.0
  0
ARC
  8
0
 62
7
  6
CONTINUOUS
 10
165.4315517241
 20
173.1142241379
 40
0.9
 50
283.9784285535
 51
76.0215714465
  0
ARC
  8
0
 62
7
  6
CONTINUOUS
 10
165.4315517241
 20
181.5142241379
 40
0.9
 50
283.9784285535
 51
76.0215714465
  0
ARC
  8
0
 62
7
  6
CONTINUOUS
 10
165.4315517241
 20
189.9142241379
 40
0.9
 50
283.9784285535
 51
76.0215714465
  0
ARC
  8
0
 62
7
  6
CONTINUOUS
 10
165.4315517241
 20
198.3142241379
 40
0.9
 50
283.9784285535
 51
76.0215714465
  0
ARC
  8
0
 62
7
  6
CONTINUOUS
 10
165.4315517241
 20
206.7142241379
 40
0.9
 50
283.9784285535
 51
76.0215714465
  0
ARC
  8
0
 62
7
  6
CONTINUOUS
 10
162.9315517241
 20
202.7993922948
 40
0.2
 50
254.05
 51
360.0
  0
ARC
  8
0
 62
7
  6
CONTINUOUS
 10
162.9315517241
 20
193.8290559811
 40
0.2
 50
0.0
 51
105.95
  0
ARC
  8
0
 62
7
  6
CONTINUOUS
 10
162.9315517241
 20
185.9993922948
 40
0.2
 50
254.05
 51
360.0
  0
ARC
  8
0
 62
7
  6
CONTINUOUS
 10
162.9315517241
 20
177.0290559811
 40
0.2
 50
0.0
 51
105.95
  0
ARC
  8
0
 62
7
  6
CONTINUOUS
 10
162.9315517241
 20
210.6142241379
 40
0.2
 50
0.0
 51
90.0
  0
ENDSEC
  0
EOF
