  0
SECTION
  2
HEADER
  9
$EXTMAX
 10
210.0
 20
297.0
 30
0.0
  9
$EXTMIN
 10
0.0
 20
0.0
 30
0.0
  9
$LIMMIN
 10
0.0
 20
0.0
  9
$LIMMAX
 10
210.0
 20
297.0
  9
$VIEWCTR
 10
105.0
 20
148.5
  9
$VIEWSIZE
 40
297.0
  9
$CLAYER
  8
0
  9
$LTSCALE
 40
19.36
  9
$CELTYPE
  6
BYLAYER
  9
$DIMSCALE
 40
1.0
  9
$DIMASZ
 40
3.5
  9
$DIMEXO
 40
2.2
  9
$DIMDLI
 40
13.376
  9
$DIMEXE
 40
6.336
  9
$DIMCEN
 40
3.168
  9
$DIMLFAC
 40
1.0
  9
$DIMBLK
  1
_FILLED
  9
$DIMTXT
 40
3.5
  9
$PDMODE
 70
3
  9
$PDSIZE
 40
0.3125
  9
$TILEMODE
 70
1
  0
ENDSEC
  0
SECTION
  2
TABLES
  0
TABLE
  2
LTYPE
 70
6
  0
LTYPE
  2
BYBLOCK
 70
0
  3

 72
65
 73
0
 40
0.0
  0
LTYPE
  2
BYLAYER
 70
0
  3

 72
65
 73
0
 40
0.0
  0
LTYPE
  2
CONTINUOUS
 70
64
  3
Solid line
 72
65
 73
0
 40
0.0
  0
LTYPE
  2
CENTER
 70
64
  3
____ _ ____ _ ____ _ ____ _ ____ _ ____ _ ____
 72
65
 73
4
 40
0.6
 49
0.375
 49
-0.075
 49
0.075
 49
-0.075
  0
LTYPE
  2
HIDDEN
 70
64
  3
- - - - - - - - - - - - - - - - - - - -
 72
65
 73
2
 40
0.2
 49
0.1
 49
-0.1
  0
LTYPE
  2
PHANTOM
 70
64
  3
_____ _ _ _____ _ _ _____ _ _ _____
 72
65
 73
6
 40
0.8
 49
0.45
 49
-0.05
 49
0.1
 49
-0.05
 49
0.1
 49
-0.05
  0
LTYPE
  2
DOT
 70
64
  3
. . . . . . . . . . . . . . . . . . . .
 72
65
 73
2
 40
0.2
 49
0.1
 49
-0.1
  0
LTYPE
  2
DASHED
 70
64
  3
- - - - - - - - - - - - - - - - - - - -
 72
65
 73
2
 40
0.2
 49
0.1
 49
-0.1
  0
ENDTAB
  0
TABLE
  2
LAYER
 70
36
  0
LAYER
  2
0
 70
0
 62
7
  6
CONTINUOUS
  0
LAYER
  2
DEFAULT_1
 70
0
 62
7
  6
CENTER
  0
LAYER
  2
DEFAULT_2
 70
0
 62
8
  6
HIDDEN
  0
LAYER
  2
DEFAULT_3
 70
0
 62
7
  6
PHANTOM
  0
LAYER
  2
3_ALL_SYMBOLS
 70
0
 62
7
  6
CONTINUOUS
  0
LAYER
  2
AXES
 70
0
 62
7
  6
CONTINUOUS
  0
LAYER
  2
BLANK_PLAN
 70
0
 62
7
  6
CONTINUOUS
  0
LAYER
  2
NOTES
 70
0
 62
7
  6
CONTINUOUS
  0
ENDTAB
  0
TABLE
  2
STYLE
 70
1
  0
STYLE
  2
STANDARD
 70
0
 40
0.0
 41
0.8
 50
0.0
 71
0
 42
0.2
  3
txt
  4

  0
STYLE
  2
TEXTSTYLE_1
 70
0
 40
0.0
 41
0.8
 50
0.0
 71
0
 42
0.2
  3
gdt
  4

  0
STYLE
  2
TEXTSTYLE_2
 70
0
 40
0.0
 41
0.6
 50
0.0
 71
0
 42
0.2
  3
txt
  4

  0
STYLE
  2
TEXTSTYLE_3
 70
0
 40
0.0
 41
1.0
 50
0.0
 71
0
 42
0.2
  3
ftb_____.ttf
  4

  0
STYLE
  2
TEXTSTYLE_4
 70
0
 40
0.0
 41
1.0
 50
0.0
 71
0
 42
0.2
  3
fti_____.ttf
  4

  0
STYLE
  2
TEXTSTYLE_5
 70
0
 40
0.0
 41
1.0
 50
0.0
 71
0
 42
0.2
  3
frutiger light.ttf
  4

  0
STYLE
  2
TEXTSTYLE_6
 70
0
 40
0.0
 41
0.7
 50
0.0
 71
0
 42
0.2
  3
txt
  4

  0
STYLE
  2
TEXTSTYLE_7
 70
0
 40
0.0
 41
0.8
 50
0.0
 71
0
 42
0.2
  3
txt
  4

  0
ENDTAB
  0
ENDSEC
  0
SECTION
  2
BLOCKS
  0
BLOCK
  8
0
 62
2
  6
CONTINUOUS
  2
SYMBOL_8_BL1
 70
64
 10
173.5956734183
 20
35.5937998301
  0
TEXT
  8
0
 62
7
  6
CONTINUOUS
 10
164.6539584268
 20
30.6865562072
  7
TEXTSTYLE_4
 40
1.0655737705
  1
The brand for plastic modular belts and chains
 41
1.0
 72
0
  0
LINE
  8
0
 62
7
  6
CONTINUOUS
 10
149.5737418074
 20
36.1675703219
 11
149.5737418074
 21
34.0364227809
  0
LINE
  8
0
 62
7
  6
CONTINUOUS
 10
149.8628043005
 20
31.0454914852
 11
149.8628043005
 21
31.1422825445
  0
LINE
  8
0
 62
7
  6
CONTINUOUS
 10
149.5737418074
 20
31.1100188581
 11
149.6315543091
 21
30.9164367395
  0
LINE
  8
0
 62
7
  6
CONTINUOUS
 10
150.9671844304
 20
33.9544555678
 11
150.9671844304
 21
36.1675703219
  0
LINE
  8
0
 62
7
  6
CONTINUOUS
 10
151.8862417523
 20
32.1101932727
 11
151.8862417523
 21
30.5937998301
  0
LINE
  8
0
 62
7
  6
CONTINUOUS
 10
152.1753043074
 20
30.5937998301
 11
152.1753043074
 21
31.3358647082
  0
LINE
  8
0
 62
7
  6
CONTINUOUS
 10
152.1753043074
 20
31.4649194539
 11
152.1753043074
 21
32.1101932727
  0
LINE
  8
0
 62
7
  6
CONTINUOUS
 10
149.6315543091
 20
31.3036010218
 11
149.5737418074
 21
31.1100188581
  0
LINE
  8
0
 62
7
  6
CONTINUOUS
 10
149.9784292936
 20
30.8841730531
 11
149.8628043005
 21
31.0454914852
  0
LINE
  8
0
 62
7
  6
CONTINUOUS
 10
151.0768668626
 20
31.400392081
 11
151.1346793074
 21
31.3036010218
  0
LINE
  8
0
 62
7
  6
CONTINUOUS
 10
151.4237418626
 20
31.3036010218
 11
151.3659292523
 21
31.4326557675
  0
LINE
  8
0
 62
7
  6
CONTINUOUS
 10
152.852430332
 20
36.1675703219
 11
152.852430332
 21
34.3642916334
  0
LINE
  8
0
 62
7
  6
CONTINUOUS
 10
152.852430332
 20
33.0528162235
 11
152.852430332
 21
32.3970785186
  0
LINE
  8
0
 62
7
  6
CONTINUOUS
 10
153.2159293074
 20
31.2390736489
 11
153.2159293074
 21
30.5937998301
  0
LINE
  8
0
 62
7
  6
CONTINUOUS
 10
153.5049916972
 20
30.5937998301
 11
153.5049916972
 21
31.2390736489
  0
LINE
  8
0
 62
7
  6
CONTINUOUS
 10
149.8628043005
 20
31.1422825445
 11
149.9206168074
 21
31.2713373354
  0
LINE
  8
0
 62
7
  6
CONTINUOUS
 10
149.6315543091
 20
30.9164367395
 11
149.7471793074
 21
30.7873819712
  0
LINE
  8
0
 62
7
  6
CONTINUOUS
 10
153.1581166972
 20
31.3681283946
 11
153.2159293074
 21
31.2390736489
  0
LINE
  8
0
 62
7
  6
CONTINUOUS
 10
153.9674919177
 20
30.8841730531
 11
154.0253041972
 21
30.7551182848
  0
LINE
  8
0
 62
7
  6
CONTINUOUS
 10
153.5049916972
 20
31.2390736489
 11
153.4471794177
 21
31.400392081
  0
LINE
  8
0
 62
7
  6
CONTINUOUS
 10
153.9674919177
 20
31.4326557675
 11
153.9674919177
 21
31.3681283946
  0
LINE
  8
0
 62
7
  6
CONTINUOUS
 10
153.9674919177
 20
30.9809641124
 11
153.9674919177
 21
30.8841730531
  0
LINE
  8
0
 62
7
  6
CONTINUOUS
 10
154.245872955
 20
32.3970785186
 11
154.245872955
 21
36.1675703219
  0
LINE
  8
0
 62
7
  6
CONTINUOUS
 10
154.2565543074
 20
30.8519093441
 11
154.2565543074
 21
30.9164367395
  0
LINE
  8
0
 62
7
  6
CONTINUOUS
 10
154.5737418074
 20
36.1675703219
 11
154.5737418074
 21
32.3970785186
  0
LINE
  8
0
 62
7
  6
CONTINUOUS
 10
151.3659292523
 20
30.7873819712
 11
151.4237418626
 21
30.9164367395
  0
LINE
  8
0
 62
7
  6
CONTINUOUS
 10
155.759679528
 20
30.6905909007
 11
155.7018665869
 21
30.8519093441
  0
LINE
  8
0
 62
7
  6
CONTINUOUS
 10
155.412804528
 20
31.3681283946
 11
155.412804528
 21
31.2713373354
  0
LINE
  8
0
 62
7
  6
CONTINUOUS
 10
155.412804528
 20
31.1422825445
 11
155.412804528
 21
30.9487004259
  0
LINE
  8
0
 62
7
  6
CONTINUOUS
 10
155.7018665869
 20
30.8519093441
 11
155.7018665869
 21
31.3681283946
  0
LINE
  8
0
 62
7
  6
CONTINUOUS
 10
155.9671844304
 20
32.3970785186
 11
155.9671844304
 21
34.2003572071
  0
LINE
  8
0
 62
7
  6
CONTINUOUS
 10
155.9671844304
 20
35.511832617
 11
155.9671844304
 21
36.1675703219
  0
LINE
  8
0
 62
7
  6
CONTINUOUS
 10
156.279992028
 20
32.1101932727
 11
156.279992028
 21
31.9488748406
  0
LINE
  8
0
 62
7
  6
CONTINUOUS
 10
156.279992028
 20
31.626237886
 11
156.279992028
 21
30.5937998301
  0
LINE
  8
0
 62
7
  6
CONTINUOUS
 10
156.5690540869
 20
30.5937998301
 11
156.5690540869
 21
31.626237886
  0
LINE
  8
0
 62
7
  6
CONTINUOUS
 10
156.5690540869
 20
31.9488748406
 11
156.5690540869
 21
32.1101932727
  0
LINE
  8
0
 62
7
  6
CONTINUOUS
 10
151.1346793074
 20
30.9164367395
 11
151.0768668626
 21
30.8196456577
  0
LINE
  8
0
 62
7
  6
CONTINUOUS
 10
153.4471794177
 20
31.400392081
 11
153.3893668074
 21
31.4649194539
  0
LINE
  8
0
 62
7
  6
CONTINUOUS
 10
154.3143669177
 20
30.7873819712
 11
154.2565543074
 21
30.8519093441
  0
LINE
  8
0
 62
7
  6
CONTINUOUS
 10
155.4706168074
 20
30.6583272086
 11
155.5284290869
 21
30.5937998301
  0
LINE
  8
0
 62
7
  6
CONTINUOUS
 10
155.412804528
 20
30.7551182848
 11
155.4706168074
 21
30.6583272086
  0
LINE
  8
0
 62
7
  6
CONTINUOUS
 10
155.8174918074
 20
30.5937998301
 11
155.759679528
 21
30.6905909007
  0
LINE
  8
0
 62
7
  6
CONTINUOUS
 10
155.7018665869
 20
31.3681283946
 11
155.6440543074
 21
31.4649194539
  0
LINE
  8
0
 62
7
  6
CONTINUOUS
 10
157.0315543074
 20
31.626237886
 11
157.0315543074
 21
30.5937998301
  0
LINE
  8
0
 62
7
  6
CONTINUOUS
 10
157.320617028
 20
30.5937998301
 11
157.320617028
 21
31.3358647082
  0
LINE
  8
0
 62
7
  6
CONTINUOUS
 10
157.320617028
 20
31.4649194539
 11
157.320617028
 21
31.626237886
  0
LINE
  8
0
 62
7
  6
CONTINUOUS
 10
157.852430332
 20
34.6101932727
 11
157.852430332
 21
32.3970785186
  0
LINE
  8
0
 62
7
  6
CONTINUOUS
 10
149.7471793074
 20
31.4326557675
 11
149.6315543091
 21
31.3036010218
  0
LINE
  8
0
 62
7
  6
CONTINUOUS
 10
149.9206168074
 20
31.2713373354
 11
149.9784292936
 21
31.3358647082
  0
LINE
  8
0
 62
7
  6
CONTINUOUS
 10
149.7471793074
 20
30.7873819712
 11
149.8628043005
 21
30.7228545871
  0
LINE
  8
0
 62
7
  6
CONTINUOUS
 10
150.1518667936
 20
30.7873819712
 11
149.9784292936
 21
30.8841730531
  0
LINE
  8
0
 62
7
  6
CONTINUOUS
 10
155.3549915869
 20
31.4326557675
 11
155.412804528
 21
31.3681283946
  0
LINE
  8
0
 62
7
  6
CONTINUOUS
 10
158.3034290869
 20
31.3681283946
 11
158.361242028
 21
31.2068099625
  0
LINE
  8
0
 62
7
  6
CONTINUOUS
 10
158.6503040869
 20
31.2068099625
 11
158.5924918074
 21
31.3681283946
  0
LINE
  8
0
 62
7
  6
CONTINUOUS
 10
158.361242028
 20
31.2068099625
 11
158.361242028
 21
30.5937998301
  0
LINE
  8
0
 62
7
  6
CONTINUOUS
 10
158.6503040869
 20
30.5937998301
 11
158.6503040869
 21
31.2068099625
  0
LINE
  8
0
 62
7
  6
CONTINUOUS
 10
159.1128043074
 20
31.4326557675
 11
159.1128043074
 21
31.3681283946
  0
LINE
  8
0
 62
7
  6
CONTINUOUS
 10
159.245872955
 20
32.3970785186
 11
159.245872955
 21
34.5282260596
  0
LINE
  8
0
 62
7
  6
CONTINUOUS
 10
159.5737418074
 20
36.1675703219
 11
159.5737418074
 21
32.3970785186
  0
LINE
  8
0
 62
7
  6
CONTINUOUS
 10
154.2565543074
 20
30.9164367395
 11
154.3143669177
 21
31.0132277988
  0
LINE
  8
0
 62
7
  6
CONTINUOUS
 10
149.8628043005
 20
30.7228545871
 11
150.0362418212
 21
30.6583272086
  0
LINE
  8
0
 62
7
  6
CONTINUOUS
 10
151.3659292523
 20
31.4326557675
 11
151.1924917523
 21
31.5294468267
  0
LINE
  8
0
 62
7
  6
CONTINUOUS
 10
154.0253041972
 20
30.7551182848
 11
154.1987416972
 21
30.6583272086
  0
LINE
  8
0
 62
7
  6
CONTINUOUS
 10
153.0424918074
 20
31.4326557675
 11
153.1581166972
 21
31.3681283946
  0
LINE
  8
0
 62
7
  6
CONTINUOUS
 10
153.3893668074
 20
31.4649194539
 11
153.2737419177
 21
31.5294468267
  0
LINE
  8
0
 62
7
  6
CONTINUOUS
 10
159.1128043074
 20
30.8519093441
 11
159.228429528
 21
30.7228545871
  0
LINE
  8
0
 62
7
  6
CONTINUOUS
 10
159.4596793074
 20
30.7873819712
 11
159.401867028
 21
30.8519093441
  0
LINE
  8
0
 62
7
  6
CONTINUOUS
 10
159.1128043074
 20
31.3681283946
 11
159.228429528
 21
31.2390736489
  0
LINE
  8
0
 62
7
  6
CONTINUOUS
 10
158.5924918074
 20
31.3681283946
 11
158.534679528
 21
31.4649194539
  0
LINE
  8
0
 62
7
  6
CONTINUOUS
 10
160.9628038663
 20
30.7873819712
 11
160.9628038663
 21
30.8519093441
  0
LINE
  8
0
 62
7
  6
CONTINUOUS
 10
160.9671844304
 20
32.3970785186
 11
160.9671844304
 21
36.1675703219
  0
LINE
  8
0
 62
7
  6
CONTINUOUS
 10
154.0253041972
 20
31.4971831403
 11
153.9674919177
 21
31.4326557675
  0
LINE
  8
0
 62
7
  6
CONTINUOUS
 10
150.9034292799
 20
31.4649194539
 11
151.0768668626
 21
31.400392081
  0
LINE
  8
0
 62
7
  6
CONTINUOUS
 10
155.6440543074
 20
31.4649194539
 11
155.5284290869
 21
31.5294468267
  0
LINE
  8
0
 62
7
  6
CONTINUOUS
 10
159.4596793074
 20
31.3036010218
 11
159.401867028
 21
31.3681283946
  0
LINE
  8
0
 62
7
  6
CONTINUOUS
 10
160.615929528
 20
30.9164367395
 11
160.6737418074
 21
30.8519093441
  0
LINE
  8
0
 62
7
  6
CONTINUOUS
 10
160.9628038663
 20
30.8519093441
 11
160.8471793074
 21
30.9809641124
  0
LINE
  8
0
 62
7
  6
CONTINUOUS
 10
160.615929528
 20
31.4326557675
 11
160.6737418074
 21
31.3681283946
  0
LINE
  8
0
 62
7
  6
CONTINUOUS
 10
160.9628038663
 20
31.3681283946
 11
160.8471793074
 21
31.4971831403
  0
LINE
  8
0
 62
7
  6
CONTINUOUS
 10
154.2565543074
 20
31.3681283946
 11
154.3143669177
 21
31.4326557675
  0
LINE
  8
0
 62
7
  6
CONTINUOUS
 10
154.0831168074
 20
31.1100188581
 11
153.9674919177
 21
30.9809641124
  0
LINE
  8
0
 62
7
  6
CONTINUOUS
 10
155.412804528
 20
30.9487004259
 11
155.3549915869
 21
30.8841730531
  0
LINE
  8
0
 62
7
  6
CONTINUOUS
 10
155.3549915869
 20
30.6905909007
 11
155.412804528
 21
30.7551182848
  0
LINE
  8
0
 62
7
  6
CONTINUOUS
 10
154.1987416972
 20
30.6583272086
 11
154.3143669177
 21
30.6260635193
  0
LINE
  8
0
 62
7
  6
CONTINUOUS
 10
151.1924917523
 20
31.5294468267
 11
150.9612418074
 21
31.5939741996
  0
LINE
  8
0
 62
7
  6
CONTINUOUS
 10
154.5456166972
 20
30.7228545871
 11
154.3143669177
 21
30.7873819712
  0
LINE
  8
0
 62
7
  6
CONTINUOUS
 10
153.2737419177
 20
31.5294468267
 11
153.1003044177
 21
31.5939741996
  0
LINE
  8
0
 62
7
  6
CONTINUOUS
 10
155.5284290869
 20
31.5294468267
 11
155.3549915869
 21
31.5939741996
  0
LINE
  8
0
 62
7
  6
CONTINUOUS
 10
158.187804528
 20
31.4326557675
 11
158.3034290869
 21
31.3681283946
  0
LINE
  8
0
 62
7
  6
CONTINUOUS
 10
158.534679528
 20
31.4649194539
 11
158.4190543074
 21
31.5294468267
  0
LINE
  8
0
 62
7
  6
CONTINUOUS
 10
150.0362418212
 20
30.6583272086
 11
150.2096793212
 21
30.6260635193
  0
LINE
  8
0
 62
7
  6
CONTINUOUS
 10
150.498741835
 20
30.7228545871
 11
150.1518667936
 21
30.7873819712
  0
LINE
  8
0
 62
7
  6
CONTINUOUS
 10
152.9268669177
 20
31.4649194539
 11
153.0424918074
 21
31.4326557675
  0
LINE
  8
0
 62
7
  6
CONTINUOUS
 10
155.239367028
 20
31.4649194539
 11
155.3549915869
 21
31.4326557675
  0
LINE
  8
0
 62
7
  6
CONTINUOUS
 10
159.575304528
 20
30.7551182848
 11
159.4596793074
 21
30.7873819712
  0
LINE
  8
0
 62
7
  6
CONTINUOUS
 10
158.0721793074
 20
31.4649194539
 11
158.187804528
 21
31.4326557675
  0
LINE
  8
0
 62
7
  6
CONTINUOUS
 10
159.228429528
 20
30.7228545871
 11
159.401867028
 21
30.6583272086
  0
LINE
  8
0
 62
7
  6
CONTINUOUS
 10
158.4190543074
 20
31.5294468267
 11
158.2456168074
 21
31.5939741996
  0
LINE
  8
0
 62
7
  6
CONTINUOUS
 10
159.6331168074
 20
31.2390736489
 11
159.4596793074
 21
31.3036010218
  0
LINE
  8
0
 62
7
  6
CONTINUOUS
 10
160.442492028
 20
30.9809641124
 11
160.615929528
 21
30.9164367395
  0
LINE
  8
0
 62
7
  6
CONTINUOUS
 10
160.8471793074
 20
31.4971831403
 11
160.6737418074
 21
31.5617105132
  0
LINE
  8
0
 62
7
  6
CONTINUOUS
 10
159.228429528
 20
31.2390736489
 11
159.4596793074
 21
31.1422825445
  0
LINE
  8
0
 62
7
  6
CONTINUOUS
 10
160.8471793074
 20
30.9809641124
 11
160.615929528
 21
31.0777551716
  0
LINE
  8
0
 62
7
  6
CONTINUOUS
 10
159.401867028
 20
31.3681283946
 11
159.4596793074
 21
31.4326557675
  0
LINE
  8
0
 62
7
  6
CONTINUOUS
 10
149.8628043005
 20
31.4971831403
 11
149.7471793074
 21
31.4326557675
  0
LINE
  8
0
 62
7
  6
CONTINUOUS
 10
149.9784292936
 20
31.3358647082
 11
150.1518667936
 21
31.4326557675
  0
LINE
  8
0
 62
7
  6
CONTINUOUS
 10
152.2909293626
 20
31.5294468267
 11
152.1753043074
 21
31.4649194539
  0
LINE
  8
0
 62
7
  6
CONTINUOUS
 10
152.1753043074
 20
31.3358647082
 11
152.2909293626
 21
31.400392081
  0
LINE
  8
0
 62
7
  6
CONTINUOUS
 10
151.1924917523
 20
30.6905909007
 11
151.3659292523
 21
30.7873819712
  0
LINE
  8
0
 62
7
  6
CONTINUOUS
 10
150.2096793212
 20
30.6260635193
 11
150.5565542799
 21
30.5937998301
  0
LINE
  8
0
 62
7
  6
CONTINUOUS
 10
154.3143669177
 20
30.6260635193
 11
154.5456166972
 21
30.5937998301
  0
LINE
  8
0
 62
7
  6
CONTINUOUS
 10
152.6956168074
 20
31.4971831403
 11
152.9268669177
 21
31.4649194539
  0
LINE
  8
0
 62
7
  6
CONTINUOUS
 10
155.0081169177
 20
31.4971831403
 11
155.239367028
 21
31.4649194539
  0
LINE
  8
0
 62
7
  6
CONTINUOUS
 10
159.4596793074
 20
31.1422825445
 11
160.442492028
 21
30.9809641124
  0
LINE
  8
0
 62
7
  6
CONTINUOUS
 10
160.615929528
 20
31.0777551716
 11
159.6331168074
 21
31.2390736489
  0
LINE
  8
0
 62
7
  6
CONTINUOUS
 10
153.1003044177
 20
31.5939741996
 11
152.9268669177
 21
31.626237886
  0
LINE
  8
0
 62
7
  6
CONTINUOUS
 10
159.401867028
 20
30.6583272086
 11
159.575304528
 21
30.6260635193
  0
LINE
  8
0
 62
7
  6
CONTINUOUS
 10
158.2456168074
 20
31.5939741996
 11
158.0721793074
 21
31.626237886
  0
LINE
  8
0
 62
7
  6
CONTINUOUS
 10
160.5003043074
 20
31.4649194539
 11
160.615929528
 21
31.4326557675
  0
LINE
  8
0
 62
7
  6
CONTINUOUS
 10
160.6737418074
 20
30.8519093441
 11
160.615929528
 21
30.7873819712
  0
LINE
  8
0
 62
7
  6
CONTINUOUS
 10
159.228429528
 20
31.5294468267
 11
159.1128043074
 21
31.4326557675
  0
LINE
  8
0
 62
7
  6
CONTINUOUS
 10
154.1409294177
 20
31.5617105132
 11
154.0253041972
 21
31.4971831403
  0
LINE
  8
0
 62
7
  6
CONTINUOUS
 10
154.1987416972
 20
31.1745462761
 11
154.0831168074
 21
31.1100188581
  0
LINE
  8
0
 62
7
  6
CONTINUOUS
 10
154.3143669177
 20
31.0132277988
 11
154.4299918074
 21
31.0777551716
  0
LINE
  8
0
 62
7
  6
CONTINUOUS
 10
151.8862417523
 20
30.5937998301
 11
152.1753043074
 21
30.5937998301
  0
LINE
  8
0
 62
7
  6
CONTINUOUS
 10
153.2159293074
 20
30.5937998301
 11
153.5049916972
 21
30.5937998301
  0
LINE
  8
0
 62
7
  6
CONTINUOUS
 10
154.5456166972
 20
30.5937998301
 11
154.8924916972
 21
30.5937998301
  0
LINE
  8
0
 62
7
  6
CONTINUOUS
 10
155.5284290869
 20
30.5937998301
 11
155.8174918074
 21
30.5937998301
  0
LINE
  8
0
 62
7
  6
CONTINUOUS
 10
156.279992028
 20
30.5937998301
 11
156.5690540869
 21
30.5937998301
  0
LINE
  8
0
 62
7
  6
CONTINUOUS
 10
157.0315543074
 20
30.5937998301
 11
157.320617028
 21
30.5937998301
  0
LINE
  8
0
 62
7
  6
CONTINUOUS
 10
158.361242028
 20
30.5937998301
 11
158.6503040869
 21
30.5937998301
  0
LINE
  8
0
 62
7
  6
CONTINUOUS
 10
159.922179528
 20
30.5937998301
 11
160.269054528
 21
30.5937998301
  0
LINE
  8
0
 62
7
  6
CONTINUOUS
 10
160.269054528
 20
30.7228545871
 11
159.922179528
 21
30.7228545871
  0
LINE
  8
0
 62
7
  6
CONTINUOUS
 10
154.8924916972
 20
30.7228545871
 11
154.5456166972
 21
30.7228545871
  0
LINE
  8
0
 62
7
  6
CONTINUOUS
 10
159.401867028
 20
30.8519093441
 11
159.1128043074
 21
30.8519093441
  0
LINE
  8
0
 62
7
  6
CONTINUOUS
 10
151.4237418626
 20
30.9164367395
 11
151.1346793074
 21
30.9164367395
  0
LINE
  8
0
 62
7
  6
CONTINUOUS
 10
150.498741835
 20
31.4971831403
 11
150.9034292799
 21
31.4649194539
  0
LINE
  8
0
 62
7
  6
CONTINUOUS
 10
150.9612418074
 20
31.5939741996
 11
150.5565542799
 21
31.626237886
  0
LINE
  8
0
 62
7
  6
CONTINUOUS
 10
159.575304528
 20
30.6260635193
 11
159.922179528
 21
30.5937998301
  0
LINE
  8
0
 62
7
  6
CONTINUOUS
 10
159.922179528
 20
30.7228545871
 11
159.575304528
 21
30.7551182848
  0
LINE
  8
0
 62
7
  6
CONTINUOUS
 10
155.3549915869
 20
31.5939741996
 11
155.0081169177
 21
31.626237886
  0
LINE
  8
0
 62
7
  6
CONTINUOUS
 10
160.1534293074
 20
31.4971831403
 11
160.5003043074
 21
31.4649194539
  0
LINE
  8
0
 62
7
  6
CONTINUOUS
 10
160.5003043074
 20
31.5939741996
 11
160.1534293074
 21
31.626237886
  0
LINE
  8
0
 62
7
  6
CONTINUOUS
 10
157.840929528
 20
31.4971831403
 11
158.0721793074
 21
31.4649194539
  0
LINE
  8
0
 62
7
  6
CONTINUOUS
 10
160.6737418074
 20
31.5617105132
 11
160.5003043074
 21
31.5939741996
  0
LINE
  8
0
 62
7
  6
CONTINUOUS
 10
160.8471793074
 20
30.6905909007
 11
160.9628038663
 21
30.7873819712
  0
LINE
  8
0
 62
7
  6
CONTINUOUS
 10
155.3549915869
 20
30.8841730531
 11
155.1815540869
 21
30.7873819712
  0
LINE
  8
0
 62
7
  6
CONTINUOUS
 10
157.4362415869
 20
31.5294468267
 11
157.320617028
 21
31.4649194539
  0
LINE
  8
0
 62
7
  6
CONTINUOUS
 10
157.320617028
 20
31.3358647082
 11
157.4362415869
 21
31.400392081
  0
LINE
  8
0
 62
7
  6
CONTINUOUS
 10
150.0362418212
 20
31.5617105132
 11
149.8628043005
 21
31.4971831403
  0
LINE
  8
0
 62
7
  6
CONTINUOUS
 10
152.4643666972
 20
31.5939741996
 11
152.2909293626
 21
31.5294468267
  0
LINE
  8
0
 62
7
  6
CONTINUOUS
 10
152.2909293626
 20
31.400392081
 11
152.4643666972
 21
31.4649194539
  0
LINE
  8
0
 62
7
  6
CONTINUOUS
 10
151.0768668626
 20
30.8196456577
 11
150.9034292799
 21
30.7551182848
  0
LINE
  8
0
 62
7
  6
CONTINUOUS
 10
160.5003043074
 20
30.7551182848
 11
160.269054528
 21
30.7228545871
  0
LINE
  8
0
 62
7
  6
CONTINUOUS
 10
154.8924916972
 20
30.5937998301
 11
155.1815540869
 21
30.6260635193
  0
LINE
  8
0
 62
7
  6
CONTINUOUS
 10
160.269054528
 20
30.5937998301
 11
160.615929528
 21
30.6260635193
  0
LINE
  8
0
 62
7
  6
CONTINUOUS
 10
150.5565542799
 20
30.5937998301
 11
150.9612418074
 21
30.6260635193
  0
LINE
  8
0
 62
7
  6
CONTINUOUS
 10
150.9034292799
 20
30.7551182848
 11
150.498741835
 21
30.7228545871
  0
LINE
  8
0
 62
7
  6
CONTINUOUS
 10
154.7768668074
 20
31.1422825445
 11
155.412804528
 21
31.1422825445
  0
LINE
  8
0
 62
7
  6
CONTINUOUS
 10
155.412804528
 20
31.2713373354
 11
154.7768668074
 21
31.2713373354
  0
LINE
  8
0
 62
7
  6
CONTINUOUS
 10
151.1346793074
 20
31.3036010218
 11
151.4237418626
 21
31.3036010218
  0
LINE
  8
0
 62
7
  6
CONTINUOUS
 10
153.9674919177
 20
31.3681283946
 11
154.2565543074
 21
31.3681283946
  0
LINE
  8
0
 62
7
  6
CONTINUOUS
 10
160.6737418074
 20
31.3681283946
 11
160.9628038663
 21
31.3681283946
  0
LINE
  8
0
 62
7
  6
CONTINUOUS
 10
154.6612419177
 20
31.4971831403
 11
155.0081169177
 21
31.4971831403
  0
LINE
  8
0
 62
7
  6
CONTINUOUS
 10
159.8065543074
 20
31.4971831403
 11
160.1534293074
 21
31.4971831403
  0
LINE
  8
0
 62
7
  6
CONTINUOUS
 10
160.1534293074
 20
31.626237886
 11
159.8065543074
 21
31.626237886
  0
LINE
  8
0
 62
7
  6
CONTINUOUS
 10
158.0721793074
 20
31.626237886
 11
157.840929528
 21
31.626237886
  0
LINE
  8
0
 62
7
  6
CONTINUOUS
 10
157.320617028
 20
31.626237886
 11
157.0315543074
 21
31.626237886
  0
LINE
  8
0
 62
7
  6
CONTINUOUS
 10
156.5690540869
 20
31.626237886
 11
156.279992028
 21
31.626237886
  0
LINE
  8
0
 62
7
  6
CONTINUOUS
 10
155.0081169177
 20
31.626237886
 11
154.6612419177
 21
31.626237886
  0
LINE
  8
0
 62
7
  6
CONTINUOUS
 10
152.9268669177
 20
31.626237886
 11
152.6956168074
 21
31.626237886
  0
LINE
  8
0
 62
7
  6
CONTINUOUS
 10
156.279992028
 20
31.9488748406
 11
156.5690540869
 21
31.9488748406
  0
LINE
  8
0
 62
7
  6
CONTINUOUS
 10
156.5690540869
 20
32.1101932727
 11
156.279992028
 21
32.1101932727
  0
LINE
  8
0
 62
7
  6
CONTINUOUS
 10
152.1753043074
 20
32.1101932727
 11
151.8862417523
 21
32.1101932727
  0
LINE
  8
0
 62
7
  6
CONTINUOUS
 10
151.2130860697
 20
32.3970785186
 11
151.6256574183
 21
32.3970785186
  0
LINE
  8
0
 62
7
  6
CONTINUOUS
 10
152.852430332
 20
32.3970785186
 11
154.245872955
 21
32.3970785186
  0
LINE
  8
0
 62
7
  6
CONTINUOUS
 10
154.5737418074
 20
32.3970785186
 11
155.9671844304
 21
32.3970785186
  0
LINE
  8
0
 62
7
  6
CONTINUOUS
 10
157.852430332
 20
32.3970785186
 11
159.245872955
 21
32.3970785186
  0
LINE
  8
0
 62
7
  6
CONTINUOUS
 10
159.5737418074
 20
32.3970785186
 11
160.9671844304
 21
32.3970785186
  0
LINE
  8
0
 62
7
  6
CONTINUOUS
 10
157.6096790869
 20
31.5939741996
 11
157.4362415869
 21
31.5294468267
  0
LINE
  8
0
 62
7
  6
CONTINUOUS
 10
155.1815540869
 20
30.6260635193
 11
155.3549915869
 21
30.6905909007
  0
LINE
  8
0
 62
7
  6
CONTINUOUS
 10
160.615929528
 20
30.6260635193
 11
160.8471793074
 21
30.6905909007
  0
LINE
  8
0
 62
7
  6
CONTINUOUS
 10
160.615929528
 20
30.7873819712
 11
160.5003043074
 21
30.7551182848
  0
LINE
  8
0
 62
7
  6
CONTINUOUS
 10
159.575304528
 20
31.4649194539
 11
159.8065543074
 21
31.4971831403
  0
LINE
  8
0
 62
7
  6
CONTINUOUS
 10
157.6096790869
 20
31.4649194539
 11
157.840929528
 21
31.4971831403
  0
LINE
  8
0
 62
7
  6
CONTINUOUS
 10
154.5456166972
 20
31.1100188581
 11
154.7768668074
 21
31.1422825445
  0
LINE
  8
0
 62
7
  6
CONTINUOUS
 10
157.840929528
 20
31.626237886
 11
157.6096790869
 21
31.5939741996
  0
LINE
  8
0
 62
7
  6
CONTINUOUS
 10
154.4299918074
 20
31.4649194539
 11
154.6612419177
 21
31.4971831403
  0
LINE
  8
0
 62
7
  6
CONTINUOUS
 10
159.8065543074
 20
31.626237886
 11
159.4596793074
 21
31.5939741996
  0
LINE
  8
0
 62
7
  6
CONTINUOUS
 10
154.7768668074
 20
31.2713373354
 11
154.4299918074
 21
31.2390736489
  0
LINE
  8
0
 62
7
  6
CONTINUOUS
 10
150.5565542799
 20
31.626237886
 11
150.2096793212
 21
31.5939741996
  0
LINE
  8
0
 62
7
  6
CONTINUOUS
 10
154.6612419177
 20
31.626237886
 11
154.2565543074
 21
31.5939741996
  0
LINE
  8
0
 62
7
  6
CONTINUOUS
 10
152.0327582009
 20
33.5446195022
 11
151.3770204959
 21
33.5446195022
  0
LINE
  8
0
 62
7
  6
CONTINUOUS
 10
157.4362415869
 20
31.400392081
 11
157.6096790869
 21
31.4649194539
  0
LINE
  8
0
 62
7
  6
CONTINUOUS
 10
159.4596793074
 20
31.4326557675
 11
159.575304528
 21
31.4649194539
  0
LINE
  8
0
 62
7
  6
CONTINUOUS
 10
159.4596793074
 20
31.5939741996
 11
159.228429528
 21
31.5294468267
  0
LINE
  8
0
 62
7
  6
CONTINUOUS
 10
155.1815540869
 20
30.7873819712
 11
154.8924916972
 21
30.7228545871
  0
LINE
  8
0
 62
7
  6
CONTINUOUS
 10
152.4643666972
 20
31.4649194539
 11
152.6956168074
 21
31.4971831403
  0
LINE
  8
0
 62
7
  6
CONTINUOUS
 10
152.6956168074
 20
31.626237886
 11
152.4643666972
 21
31.5939741996
  0
LINE
  8
0
 62
7
  6
CONTINUOUS
 10
150.2674918074
 20
31.4649194539
 11
150.498741835
 21
31.4971831403
  0
LINE
  8
0
 62
7
  6
CONTINUOUS
 10
156.7868565615
 20
35.0200293383
 11
157.4425942664
 21
35.0200293383
  0
LINE
  8
0
 62
7
  6
CONTINUOUS
 10
154.4299918074
 20
31.0777551716
 11
154.5456166972
 21
31.1100188581
  0
LINE
  8
0
 62
7
  6
CONTINUOUS
 10
154.4299918074
 20
31.2390736489
 11
154.1987416972
 21
31.1745462761
  0
LINE
  8
0
 62
7
  6
CONTINUOUS
 10
154.3143669177
 20
31.4326557675
 11
154.4299918074
 21
31.4649194539
  0
LINE
  8
0
 62
7
  6
CONTINUOUS
 10
150.9612418074
 20
30.6260635193
 11
151.1924917523
 21
30.6905909007
  0
LINE
  8
0
 62
7
  6
CONTINUOUS
 10
154.2565543074
 20
31.5939741996
 11
154.1409294177
 21
31.5617105132
  0
LINE
  8
0
 62
7
  6
CONTINUOUS
 10
150.2096793212
 20
31.5939741996
 11
150.0362418212
 21
31.5617105132
  0
LINE
  8
0
 62
7
  6
CONTINUOUS
 10
160.9671844304
 20
36.1675703219
 11
159.5737418074
 21
36.1675703219
  0
LINE
  8
0
 62
7
  6
CONTINUOUS
 10
157.6065286927
 20
36.1675703219
 11
157.1939573441
 21
36.1675703219
  0
LINE
  8
0
 62
7
  6
CONTINUOUS
 10
155.9671844304
 20
36.1675703219
 11
154.5737418074
 21
36.1675703219
  0
LINE
  8
0
 62
7
  6
CONTINUOUS
 10
154.245872955
 20
36.1675703219
 11
152.852430332
 21
36.1675703219
  0
LINE
  8
0
 62
7
  6
CONTINUOUS
 10
150.9671844304
 20
36.1675703219
 11
149.5737418074
 21
36.1675703219
  0
LINE
  8
0
 62
7
  6
CONTINUOUS
 10
150.1518667936
 20
31.4326557675
 11
150.2674918074
 21
31.4649194539
  0
CIRCLE
  8
0
 62
7
  6
CONTINUOUS
 10
160.2704631189
 20
38.5036358957
 40
2.0901639344
  0
ARC
  8
0
 62
7
  6
CONTINUOUS
 10
151.2130860697
 20
34.0364227809
 40
1.6393442623
 50
180.0
 51
270.0
  0
ARC
  8
0
 62
7
  6
CONTINUOUS
 10
157.6065286927
 20
34.5282260596
 40
1.6393442623
 50
0.0
 51
90.0
  0
ARC
  8
0
 62
7
  6
CONTINUOUS
 10
151.6256574183
 20
33.8724883547
 40
1.4754098361
 50
270.0
 51
326.2510114041
  0
ARC
  8
0
 62
7
  6
CONTINUOUS
 10
157.1939573441
 20
34.6921604858
 40
1.4754098361
 50
90.0
 51
146.2510114041
  0
ARC
  8
0
 62
7
  6
CONTINUOUS
 10
152.0327582009
 20
34.3642916334
 40
0.8196721311
 50
270.0
 51
360.0
  0
ARC
  8
0
 62
7
  6
CONTINUOUS
 10
156.7868565615
 20
34.2003572071
 40
0.8196721311
 50
90.0
 51
180.0
  0
ARC
  8
0
 62
7
  6
CONTINUOUS
 10
151.3770204959
 20
33.9544555678
 40
0.4098360656
 50
180.0
 51
270.0
  0
ARC
  8
0
 62
7
  6
CONTINUOUS
 10
157.4425942664
 20
34.6101932727
 40
0.4098360656
 50
0.0
 51
90.0
  0
SOLID
  8
0
 62
7
  6
CONTINUOUS
 10
156.279992028
 20
31.9488752009
 11
156.279992028
 21
32.1101936845
 12
156.5690540869
 22
31.9488752009
 13
156.5690540869
 23
32.1101936845
  0
SOLID
  8
0
 62
7
  6
CONTINUOUS
 10
150.5565542799
 20
31.6262382337
 11
150.9612418074
 21
31.5939740028
 12
150.2096793212
 22
31.5939740028
 13
150.2096793212
 23
31.5939740028
  0
SOLID
  8
0
 62
7
  6
CONTINUOUS
 10
150.0362418212
 20
31.5617111435
 11
150.2096793212
 21
31.5939740028
 12
150.9612418074
 22
31.5939740028
 13
150.9612418074
 23
31.5939740028
  0
SOLID
  8
0
 62
7
  6
CONTINUOUS
 10
150.9612418074
 20
31.5939740028
 11
151.1924917523
 21
31.5294468402
 12
150.0362418212
 22
31.5617111435
 13
150.0362418212
 23
31.5617111435
  0
SOLID
  8
0
 62
7
  6
CONTINUOUS
 10
149.8628043005
 20
31.49718259
 11
150.0362418212
 21
31.5617111435
 12
151.1924917523
 22
31.5294468402
 13
151.1924917523
 23
31.5294468402
  0
SOLID
  8
0
 62
7
  6
CONTINUOUS
 10
149.8628043005
 20
31.49718259
 11
151.1924917523
 21
31.5294468402
 12
150.498741835
 22
31.49718259
 13
150.498741835
 23
31.49718259
  0
SOLID
  8
0
 62
7
  6
CONTINUOUS
 10
150.498741835
 20
31.49718259
 11
151.1924917523
 21
31.5294468402
 12
150.9034292799
 22
31.4649197501
 13
150.9034292799
 23
31.4649197501
  0
SOLID
  8
0
 62
7
  6
CONTINUOUS
 10
151.1924917523
 20
31.5294468402
 11
151.3659292523
 21
31.4326554468
 12
150.9034292799
 22
31.4649197501
 13
150.9034292799
 23
31.4649197501
  0
SOLID
  8
0
 62
7
  6
CONTINUOUS
 10
151.0768668626
 20
31.4003926599
 11
150.9034292799
 21
31.4649197501
 12
151.3659292523
 22
31.4326554468
 13
151.3659292523
 23
31.4326554468
  0
SOLID
  8
0
 62
7
  6
CONTINUOUS
 10
151.0768668626
 20
31.4003926599
 11
151.3659292523
 21
31.4326554468
 12
151.1346793074
 22
31.3036013776
 13
151.1346793074
 23
31.3036013776
  0
SOLID
  8
0
 62
7
  6
CONTINUOUS
 10
151.3659292523
 20
31.4326554468
 11
151.4237418626
 21
31.3036013776
 12
151.1346793074
 22
31.3036013776
 13
151.1346793074
 23
31.3036013776
  0
SOLID
  8
0
 62
7
  6
CONTINUOUS
 10
152.4643666972
 20
31.5939739754
 11
152.6956168074
 21
31.6262382787
 12
152.9268669177
 22
31.6262382787
 13
152.9268669177
 23
31.6262382787
  0
SOLID
  8
0
 62
7
  6
CONTINUOUS
 10
152.9268669177
 20
31.6262382787
 11
153.1003044177
 21
31.5939739754
 12
152.4643666972
 22
31.5939739754
 13
152.4643666972
 23
31.5939739754
  0
SOLID
  8
0
 62
7
  6
CONTINUOUS
 10
152.2909293626
 20
31.5294468852
 11
152.4643666972
 21
31.5939739754
 12
153.1003044177
 22
31.5939739754
 13
153.1003044177
 23
31.5939739754
  0
SOLID
  8
0
 62
7
  6
CONTINUOUS
 10
153.1003044177
 20
31.5939739754
 11
153.2737419177
 21
31.5294468852
 12
152.2909293626
 22
31.5294468852
 13
152.2909293626
 23
31.5294468852
  0
SOLID
  8
0
 62
7
  6
CONTINUOUS
 10
153.2737419177
 20
31.5294468852
 11
152.6956168074
 21
31.4971825369
 12
152.2909293626
 22
31.5294468852
 13
152.2909293626
 23
31.5294468852
  0
SOLID
  8
0
 62
7
  6
CONTINUOUS
 10
152.1753043074
 20
31.4649197951
 11
152.2909293626
 21
31.5294468852
 12
152.6956168074
 22
31.4971825369
 13
152.6956168074
 23
31.4971825369
  0
SOLID
  8
0
 62
7
  6
CONTINUOUS
 10
152.6956168074
 20
31.4971825369
 11
152.4643666972
 21
31.4649197951
 12
152.1753043074
 22
31.4649197951
 13
152.1753043074
 23
31.4649197951
  0
SOLID
  8
0
 62
7
  6
CONTINUOUS
 10
152.6956168074
 20
31.4971825369
 11
153.2737419177
 21
31.5294468852
 12
152.9268669177
 22
31.4649197951
 13
152.9268669177
 23
31.4649197951
  0
SOLID
  8
0
 62
7
  6
CONTINUOUS
 10
153.2737419177
 20
31.5294468852
 11
153.3893668074
 21
31.4649197951
 12
152.9268669177
 22
31.4649197951
 13
152.9268669177
 23
31.4649197951
  0
SOLID
  8
0
 62
7
  6
CONTINUOUS
 10
153.0424918074
 20
31.4326554468
 11
152.9268669177
 21
31.4649197951
 12
153.3893668074
 22
31.4649197951
 13
153.3893668074
 23
31.4649197951
  0
SOLID
  8
0
 62
7
  6
CONTINUOUS
 10
153.3893668074
 20
31.4649197951
 11
153.4471794177
 21
31.4003927049
 12
153.0424918074
 22
31.4326554468
 13
153.0424918074
 23
31.4326554468
  0
SOLID
  8
0
 62
7
  6
CONTINUOUS
 10
153.1581166972
 20
31.3681283566
 11
153.0424918074
 21
31.4326554468
 12
153.4471794177
 22
31.4003927049
 13
153.4471794177
 23
31.4003927049
  0
SOLID
  8
0
 62
7
  6
CONTINUOUS
 10
153.1581166972
 20
31.3681283566
 11
153.4471794177
 21
31.4003927049
 12
153.2159293074
 22
31.2390742213
 13
153.2159293074
 23
31.2390742213
  0
SOLID
  8
0
 62
7
  6
CONTINUOUS
 10
153.4471794177
 20
31.4003927049
 11
153.5049916972
 21
31.2390742213
 12
153.2159293074
 22
31.2390742213
 13
153.2159293074
 23
31.2390742213
  0
SOLID
  8
0
 62
7
  6
CONTINUOUS
 10
152.4643666972
 20
31.4649197951
 11
152.2909293626
 21
31.4003927049
 12
152.1753043074
 22
31.4649197951
 13
152.1753043074
 23
31.4649197951
  0
SOLID
  8
0
 62
7
  6
CONTINUOUS
 10
152.2909293626
 20
31.4003927049
 11
152.1753043074
 21
31.3358640533
 12
152.1753043074
 22
31.4649197951
 13
152.1753043074
 23
31.4649197951
  0
SOLID
  8
0
 62
7
  6
CONTINUOUS
 10
152.1753043074
 20
31.3358640533
 11
151.8862417523
 21
30.5938002869
 12
152.1753043074
 22
31.4649197951
 13
152.1753043074
 23
31.4649197951
  0
SOLID
  8
0
 62
7
  6
CONTINUOUS
 10
152.1753043074
 20
31.4649197951
 11
151.8862417523
 21
30.5938002869
 12
152.1753043074
 22
32.1101937295
 13
152.1753043074
 23
32.1101937295
  0
SOLID
  8
0
 62
7
  6
CONTINUOUS
 10
151.8862417523
 20
30.5938002869
 11
151.8862417523
 21
32.1101937295
 12
152.1753043074
 22
32.1101937295
 13
152.1753043074
 23
32.1101937295
  0
SOLID
  8
0
 62
7
  6
CONTINUOUS
 10
152.1753043074
 20
31.3358640533
 11
152.1753043074
 21
30.5938002869
 12
151.8862417523
 22
30.5938002869
 13
151.8862417523
 23
30.5938002869
  0
SOLID
  8
0
 62
7
  6
CONTINUOUS
 10
153.2159293074
 20
30.5938002869
 11
153.2159293074
 21
31.2390742213
 12
153.5049916972
 22
31.2390742213
 13
153.5049916972
 23
31.2390742213
  0
SOLID
  8
0
 62
7
  6
CONTINUOUS
 10
153.5049916972
 20
31.2390742213
 11
153.5049916972
 21
30.5938002869
 12
153.2159293074
 22
30.5938002869
 13
153.2159293074
 23
30.5938002869
  0
SOLID
  8
0
 62
7
  6
CONTINUOUS
 10
154.2565543074
 20
31.5939738288
 11
154.6612419177
 21
31.6262385959
 12
155.0081169177
 22
31.6262385959
 13
155.0081169177
 23
31.6262385959
  0
SOLID
  8
0
 62
7
  6
CONTINUOUS
 10
155.0081169177
 20
31.6262385959
 11
155.3549915869
 21
31.5939738288
 12
154.2565543074
 22
31.5939738288
 13
154.2565543074
 23
31.5939738288
  0
SOLID
  8
0
 62
7
  6
CONTINUOUS
 10
154.1409294177
 20
31.5617111435
 11
154.2565543074
 21
31.5939738288
 12
155.3549915869
 22
31.5939738288
 13
155.3549915869
 23
31.5939738288
  0
SOLID
  8
0
 62
7
  6
CONTINUOUS
 10
155.3549915869
 20
31.5939738288
 11
155.5284290869
 21
31.5294468402
 12
154.1409294177
 22
31.5617111435
 13
154.1409294177
 23
31.5617111435
  0
SOLID
  8
0
 62
7
  6
CONTINUOUS
 10
154.0253041972
 20
31.4971826249
 11
154.1409294177
 21
31.5617111435
 12
155.5284290869
 22
31.5294468402
 13
155.5284290869
 23
31.5294468402
  0
SOLID
  8
0
 62
7
  6
CONTINUOUS
 10
154.0253041972
 20
31.4971826249
 11
155.5284290869
 21
31.5294468402
 12
154.6612419177
 22
31.4971826249
 13
154.6612419177
 23
31.4971826249
  0
SOLID
  8
0
 62
7
  6
CONTINUOUS
 10
154.6612419177
 20
31.4971826249
 11
155.5284290869
 21
31.5294468402
 12
155.0081169177
 22
31.4971826249
 13
155.0081169177
 23
31.4971826249
  0
SOLID
  8
0
 62
7
  6
CONTINUOUS
 10
155.0081169177
 20
31.4971826249
 11
155.5284290869
 21
31.5294468402
 12
155.239367028
 22
31.4649194065
 13
155.239367028
 23
31.4649194065
  0
SOLID
  8
0
 62
7
  6
CONTINUOUS
 10
155.5284290869
 20
31.5294468402
 11
155.6440543074
 21
31.4649194065
 12
155.239367028
 22
31.4649194065
 13
155.239367028
 23
31.4649194065
  0
SOLID
  8
0
 62
7
  6
CONTINUOUS
 10
153.9674919177
 20
31.4326554138
 11
154.0253041972
 21
31.4971826249
 12
154.6612419177
 22
31.4971826249
 13
154.6612419177
 23
31.4971826249
  0
SOLID
  8
0
 62
7
  6
CONTINUOUS
 10
155.3549915869
 20
31.4326554138
 11
155.239367028
 21
31.4649194065
 12
155.6440543074
 22
31.4649194065
 13
155.6440543074
 23
31.4649194065
  0
SOLID
  8
0
 62
7
  6
CONTINUOUS
 10
155.3549915869
 20
31.4326554138
 11
155.6440543074
 21
31.4649194065
 12
155.412804528
 22
31.3681282026
 13
155.412804528
 23
31.3681282026
  0
SOLID
  8
0
 62
7
  6
CONTINUOUS
 10
155.6440543074
 20
31.4649194065
 11
155.7018665869
 21
31.3681282026
 12
155.412804528
 22
31.3681282026
 13
155.412804528
 23
31.3681282026
  0
SOLID
  8
0
 62
7
  6
CONTINUOUS
 10
155.412804528
 20
31.2713369632
 11
155.412804528
 21
31.3681282026
 12
155.7018665869
 22
31.3681282026
 13
155.7018665869
 23
31.3681282026
  0
SOLID
  8
0
 62
7
  6
CONTINUOUS
 10
155.412804528
 20
31.2713369632
 11
155.7018665869
 21
31.3681282026
 12
155.412804528
 22
31.1422827828
 13
155.412804528
 23
31.1422827828
  0
SOLID
  8
0
 62
7
  6
CONTINUOUS
 10
155.412804528
 20
31.1422827828
 11
155.7018665869
 21
31.3681282026
 12
155.412804528
 22
30.9487004259
 13
155.412804528
 23
30.9487004259
  0
SOLID
  8
0
 62
7
  6
CONTINUOUS
 10
155.7018665869
 20
31.3681282026
 11
155.7018665869
 21
30.8519086025
 12
155.412804528
 22
30.9487004259
 13
155.412804528
 23
30.9487004259
  0
SOLID
  8
0
 62
7
  6
CONTINUOUS
 10
157.6096790869
 20
31.5939736268
 11
157.840929528
 21
31.6262383465
 12
158.0721793074
 22
31.6262383465
 13
158.0721793074
 23
31.6262383465
  0
SOLID
  8
0
 62
7
  6
CONTINUOUS
 10
158.0721793074
 20
31.6262383465
 11
158.2456168074
 21
31.5939736268
 12
157.6096790869
 22
31.5939736268
 13
157.6096790869
 23
31.5939736268
  0
SOLID
  8
0
 62
7
  6
CONTINUOUS
 10
157.4362415869
 20
31.5294472848
 11
157.6096790869
 21
31.5939736268
 12
158.2456168074
 22
31.5939736268
 13
158.2456168074
 23
31.5939736268
  0
SOLID
  8
0
 62
7
  6
CONTINUOUS
 10
158.2456168074
 20
31.5939736268
 11
158.4190543074
 21
31.5294472848
 12
157.4362415869
 22
31.5294472848
 13
157.4362415869
 23
31.5294472848
  0
SOLID
  8
0
 62
7
  6
CONTINUOUS
 10
158.4190543074
 20
31.5294472848
 11
157.840929528
 21
31.4971825369
 12
157.4362415869
 22
31.5294472848
 13
157.4362415869
 23
31.5294472848
  0
SOLID
  8
0
 62
7
  6
CONTINUOUS
 10
157.320617028
 20
31.4649199103
 11
157.4362415869
 21
31.5294472848
 12
157.840929528
 22
31.4971825369
 13
157.840929528
 23
31.4971825369
  0
SOLID
  8
0
 62
7
  6
CONTINUOUS
 10
157.840929528
 20
31.4971825369
 11
157.6096790869
 21
31.4649199103
 12
157.320617028
 22
31.4649199103
 13
157.320617028
 23
31.4649199103
  0
SOLID
  8
0
 62
7
  6
CONTINUOUS
 10
157.840929528
 20
31.4971825369
 11
158.4190543074
 21
31.5294472848
 12
158.0721793074
 22
31.4649199103
 13
158.0721793074
 23
31.4649199103
  0
SOLID
  8
0
 62
7
  6
CONTINUOUS
 10
158.4190543074
 20
31.5294472848
 11
158.534679528
 21
31.4649199103
 12
158.0721793074
 22
31.4649199103
 13
158.0721793074
 23
31.4649199103
  0
SOLID
  8
0
 62
7
  6
CONTINUOUS
 10
158.187804528
 20
31.4326554468
 11
158.0721793074
 21
31.4649199103
 12
158.534679528
 22
31.4649199103
 13
158.534679528
 23
31.4649199103
  0
SOLID
  8
0
 62
7
  6
CONTINUOUS
 10
158.187804528
 20
31.4326554468
 11
158.534679528
 21
31.4649199103
 12
158.3034290869
 22
31.3681288486
 13
158.3034290869
 23
31.3681288486
  0
SOLID
  8
0
 62
7
  6
CONTINUOUS
 10
158.534679528
 20
31.4649199103
 11
158.5924918074
 21
31.3681288486
 12
158.3034290869
 22
31.3681288486
 13
158.3034290869
 23
31.3681288486
  0
SOLID
  8
0
 62
7
  6
CONTINUOUS
 10
158.361242028
 20
31.2068093799
 11
158.3034290869
 21
31.3681288486
 12
158.5924918074
 22
31.3681288486
 13
158.5924918074
 23
31.3681288486
  0
SOLID
  8
0
 62
7
  6
CONTINUOUS
 10
158.5924918074
 20
31.3681288486
 11
158.6503040869
 21
31.2068093799
 12
158.361242028
 22
31.2068093799
 13
158.361242028
 23
31.2068093799
  0
SOLID
  8
0
 62
7
  6
CONTINUOUS
 10
157.6096790869
 20
31.4649199103
 11
157.4362415869
 21
31.4003926599
 12
157.320617028
 22
31.4649199103
 13
157.320617028
 23
31.4649199103
  0
SOLID
  8
0
 62
7
  6
CONTINUOUS
 10
157.4362415869
 20
31.4003926599
 11
157.320617028
 21
31.3358640533
 12
157.320617028
 22
31.4649199103
 13
157.320617028
 23
31.4649199103
  0
SOLID
  8
0
 62
7
  6
CONTINUOUS
 10
157.320617028
 20
31.3358640533
 11
157.0315543074
 21
30.5938003547
 12
157.320617028
 22
31.4649199103
 13
157.320617028
 23
31.4649199103
  0
SOLID
  8
0
 62
7
  6
CONTINUOUS
 10
157.320617028
 20
31.4649199103
 11
157.0315543074
 21
30.5938003547
 12
157.320617028
 22
31.6262383465
 13
157.320617028
 23
31.6262383465
  0
SOLID
  8
0
 62
7
  6
CONTINUOUS
 10
157.0315543074
 20
30.5938003547
 11
157.0315543074
 21
31.6262383465
 12
157.320617028
 22
31.6262383465
 13
157.320617028
 23
31.6262383465
  0
SOLID
  8
0
 62
7
  6
CONTINUOUS
 10
157.320617028
 20
31.3358640533
 11
157.320617028
 21
30.5938003547
 12
157.0315543074
 22
30.5938003547
 13
157.0315543074
 23
30.5938003547
  0
SOLID
  8
0
 62
7
  6
CONTINUOUS
 10
158.361242028
 20
30.5938003547
 11
158.361242028
 21
31.2068093799
 12
158.6503040869
 22
31.2068093799
 13
158.6503040869
 23
31.2068093799
  0
SOLID
  8
0
 62
7
  6
CONTINUOUS
 10
158.6503040869
 20
31.2068093799
 11
158.6503040869
 21
30.5938003547
 12
158.361242028
 22
30.5938003547
 13
158.361242028
 23
30.5938003547
  0
SOLID
  8
0
 62
7
  6
CONTINUOUS
 10
159.4596793074
 20
31.5939739474
 11
159.8065543074
 21
31.6262381969
 12
160.1534293074
 22
31.6262381969
 13
160.1534293074
 23
31.6262381969
  0
SOLID
  8
0
 62
7
  6
CONTINUOUS
 10
160.1534293074
 20
31.6262381969
 11
160.5003043074
 21
31.5939739474
 12
159.4596793074
 22
31.5939739474
 13
159.4596793074
 23
31.5939739474
  0
SOLID
  8
0
 62
7
  6
CONTINUOUS
 10
159.228429528
 20
31.5294468402
 11
159.4596793074
 21
31.5939739474
 12
160.5003043074
 22
31.5939739474
 13
160.5003043074
 23
31.5939739474
  0
SOLID
  8
0
 62
7
  6
CONTINUOUS
 10
159.228429528
 20
31.5294468402
 11
160.5003043074
 21
31.5939739304
 12
160.6737418074
 22
31.5617111435
 13
160.6737418074
 23
31.5617111435
  0
SOLID
  8
0
 62
7
  6
CONTINUOUS
 10
159.228429528
 20
31.5294468402
 11
160.6737418074
 21
31.5617111435
 12
159.8065543074
 22
31.4971825592
 13
159.8065543074
 23
31.4971825592
  0
SOLID
  8
0
 62
7
  6
CONTINUOUS
 10
159.8065543074
 20
31.4971825592
 11
160.6737418074
 21
31.5617111435
 12
160.1534293074
 22
31.4971825592
 13
160.1534293074
 23
31.4971825592
  0
SOLID
  8
0
 62
7
  6
CONTINUOUS
 10
160.6737418074
 20
31.5617111435
 11
160.8471793074
 21
31.4971825592
 12
160.1534293074
 22
31.4971825592
 13
160.1534293074
 23
31.4971825592
  0
SOLID
  8
0
 62
7
  6
CONTINUOUS
 10
160.5003043074
 20
31.4649197501
 11
160.1534293074
 21
31.4971825592
 12
160.8471793074
 22
31.4971825592
 13
160.8471793074
 23
31.4971825592
  0
SOLID
  8
0
 62
7
  6
CONTINUOUS
 10
159.1128043074
 20
31.4326555427
 11
159.228429528
 21
31.5294468402
 12
159.8065543074
 22
31.4971825592
 13
159.8065543074
 23
31.4971825592
  0
SOLID
  8
0
 62
7
  6
CONTINUOUS
 10
160.5003043074
 20
31.4649197501
 11
160.8471793074
 21
31.4971825592
 12
160.615929528
 22
31.4326555427
 13
160.615929528
 23
31.4326555427
  0
SOLID
  8
0
 62
7
  6
CONTINUOUS
 10
160.615929528
 20
31.4326555427
 11
160.8471793074
 21
31.4971825592
 12
160.6737418074
 22
31.3681283005
 13
160.6737418074
 23
31.3681283005
  0
SOLID
  8
0
 62
7
  6
CONTINUOUS
 10
160.8471793074
 20
31.4971825592
 11
160.9628038663
 21
31.3681283005
 12
160.6737418074
 22
31.3681283005
 13
160.6737418074
 23
31.3681283005
  0
SOLID
  8
0
 62
7
  6
CONTINUOUS
 10
150.2674918074
 20
31.4649197501
 11
149.7471793074
 21
31.4326554237
 12
150.498741835
 22
31.4971824493
 13
150.498741835
 23
31.4971824493
  0
SOLID
  8
0
 62
7
  6
CONTINUOUS
 10
149.7471793074
 20
31.4326554237
 11
149.8628043005
 21
31.4971824493
 12
150.498741835
 22
31.4971824493
 13
150.498741835
 23
31.4971824493
  0
SOLID
  8
0
 62
7
  6
CONTINUOUS
 10
150.2674918074
 20
31.4649197501
 11
150.1518667936
 21
31.4326554237
 12
149.7471793074
 22
31.4326554237
 13
149.7471793074
 23
31.4326554237
  0
SOLID
  8
0
 62
7
  6
CONTINUOUS
 10
149.6315543091
 20
31.3036012664
 11
149.7471793074
 21
31.4326554237
 12
150.1518667936
 22
31.4326554237
 13
150.1518667936
 23
31.4326554237
  0
SOLID
  8
0
 62
7
  6
CONTINUOUS
 10
153.9674919177
 20
31.4326554237
 11
154.6612419177
 21
31.4971825369
 12
154.4299918074
 22
31.4649197501
 13
154.4299918074
 23
31.4649197501
  0
SOLID
  8
0
 62
7
  6
CONTINUOUS
 10
154.4299918074
 20
31.4649197501
 11
154.3143669177
 21
31.4326554237
 12
153.9674919177
 22
31.4326554237
 13
153.9674919177
 23
31.4326554237
  0
SOLID
  8
0
 62
7
  6
CONTINUOUS
 10
153.9674919177
 20
31.3681283335
 11
153.9674919177
 21
31.4326554237
 12
154.3143669177
 22
31.4326554237
 13
154.3143669177
 23
31.4326554237
  0
SOLID
  8
0
 62
7
  6
CONTINUOUS
 10
154.3143669177
 20
31.4326554237
 11
154.2565543074
 21
31.3681283335
 12
153.9674919177
 22
31.3681283335
 13
153.9674919177
 23
31.3681283335
  0
SOLID
  8
0
 62
7
  6
CONTINUOUS
 10
159.1128043074
 20
31.4326555528
 11
159.8065543074
 21
31.4971825369
 12
159.575304528
 22
31.4649197501
 13
159.575304528
 23
31.4649197501
  0
SOLID
  8
0
 62
7
  6
CONTINUOUS
 10
159.575304528
 20
31.4649197501
 11
159.4596793074
 21
31.4326555528
 12
159.1128043074
 22
31.4326555528
 13
159.1128043074
 23
31.4326555528
  0
SOLID
  8
0
 62
7
  6
CONTINUOUS
 10
159.1128043074
 20
31.3681284626
 11
159.1128043074
 21
31.4326555528
 12
159.4596793074
 22
31.4326555528
 13
159.4596793074
 23
31.4326555528
  0
SOLID
  8
0
 62
7
  6
CONTINUOUS
 10
159.4596793074
 20
31.4326555528
 11
159.401867028
 21
31.3681284626
 12
159.1128043074
 22
31.3681284626
 13
159.1128043074
 23
31.3681284626
  0
SOLID
  8
0
 62
7
  6
CONTINUOUS
 10
159.228429528
 20
31.2390741763
 11
159.1128043074
 21
31.3681284626
 12
159.401867028
 22
31.3681284626
 13
159.401867028
 23
31.3681284626
  0
SOLID
  8
0
 62
7
  6
CONTINUOUS
 10
149.6315543091
 20
31.3036012664
 11
150.1518667936
 21
31.4326554468
 12
149.9784292936
 22
31.3358640533
 13
149.9784292936
 23
31.3358640533
  0
SOLID
  8
0
 62
7
  6
CONTINUOUS
 10
149.9784292936
 20
31.3358640533
 11
149.9206168074
 21
31.2713369632
 12
149.6315543091
 22
31.3036012664
 13
149.6315543091
 23
31.3036012664
  0
SOLID
  8
0
 62
7
  6
CONTINUOUS
 10
149.5737418074
 20
31.1100184796
 11
149.6315543091
 21
31.3036012664
 12
149.9206168074
 22
31.2713369632
 13
149.9206168074
 23
31.2713369632
  0
SOLID
  8
0
 62
7
  6
CONTINUOUS
 10
154.4299918074
 20
31.2390741763
 11
154.7768668074
 21
31.271336924
 12
155.412804528
 22
31.271336924
 13
155.412804528
 23
31.271336924
  0
SOLID
  8
0
 62
7
  6
CONTINUOUS
 10
154.4299918074
 20
31.2390741763
 11
155.412804528
 21
31.271336924
 12
154.1987416972
 22
31.1745462761
 13
154.1987416972
 23
31.1745462761
  0
SOLID
  8
0
 62
7
  6
CONTINUOUS
 10
154.1987416972
 20
31.1745462761
 11
155.412804528
 21
31.271336924
 12
154.7768668074
 22
31.1422827436
 13
154.7768668074
 23
31.1422827436
  0
SOLID
  8
0
 62
7
  6
CONTINUOUS
 10
155.412804528
 20
31.271336924
 11
155.412804528
 21
31.1422827436
 12
154.7768668074
 22
31.1422827436
 13
154.7768668074
 23
31.1422827436
  0
SOLID
  8
0
 62
7
  6
CONTINUOUS
 10
159.228429528
 20
31.2390745501
 11
159.401867028
 21
31.3681283566
 12
159.4596793074
 22
31.3036012664
 13
159.4596793074
 23
31.3036012664
  0
SOLID
  8
0
 62
7
  6
CONTINUOUS
 10
159.4596793074
 20
31.3036012664
 11
159.6331168074
 21
31.2390745501
 12
159.228429528
 22
31.2390745501
 13
159.228429528
 23
31.2390745501
  0
SOLID
  8
0
 62
7
  6
CONTINUOUS
 10
159.4596793074
 20
31.1422827828
 11
159.228429528
 21
31.2390745501
 12
159.6331168074
 22
31.2390745501
 13
159.6331168074
 23
31.2390745501
  0
SOLID
  8
0
 62
7
  6
CONTINUOUS
 10
159.6331168074
 20
31.2390745501
 11
160.615929528
 21
31.0777556927
 12
159.4596793074
 22
31.1422827828
 13
159.4596793074
 23
31.1422827828
  0
SOLID
  8
0
 62
7
  6
CONTINUOUS
 10
160.442492028
 20
30.9809646623
 11
159.4596793074
 21
31.1422827828
 12
160.615929528
 22
31.0777556927
 13
160.615929528
 23
31.0777556927
  0
SOLID
  8
0
 62
7
  6
CONTINUOUS
 10
160.615929528
 20
31.0777556927
 11
160.8471793074
 21
30.9809646623
 12
160.442492028
 22
30.9809646623
 13
160.442492028
 23
30.9809646623
  0
SOLID
  8
0
 62
7
  6
CONTINUOUS
 10
160.615929528
 20
30.9164372091
 11
160.442492028
 21
30.9809646623
 12
160.8471793074
 22
30.9809646623
 13
160.8471793074
 23
30.9809646623
  0
SOLID
  8
0
 62
7
  6
CONTINUOUS
 10
160.615929528
 20
30.9164372091
 11
160.8471793074
 21
30.9809646623
 12
160.6737418074
 22
30.8519089441
 13
160.6737418074
 23
30.8519089441
  0
SOLID
  8
0
 62
7
  6
CONTINUOUS
 10
160.8471793074
 20
30.9809646623
 11
160.9628038663
 21
30.8519089441
 12
160.6737418074
 22
30.8519089441
 13
160.6737418074
 23
30.8519089441
  0
SOLID
  8
0
 62
7
  6
CONTINUOUS
 10
160.615929528
 20
30.7873818593
 11
160.6737418074
 21
30.8519089441
 12
160.9628038663
 22
30.8519089441
 13
160.9628038663
 23
30.8519089441
  0
SOLID
  8
0
 62
7
  6
CONTINUOUS
 10
160.9628038663
 20
30.8519089441
 11
160.9628038663
 21
30.7873818593
 12
160.615929528
 22
30.7873818593
 13
160.615929528
 23
30.7873818593
  0
SOLID
  8
0
 62
7
  6
CONTINUOUS
 10
160.5003043074
 20
30.7551187255
 11
160.615929528
 21
30.7873818593
 12
160.9628038663
 22
30.7873818593
 13
160.9628038663
 23
30.7873818593
  0
SOLID
  8
0
 62
7
  6
CONTINUOUS
 10
160.5003043074
 20
30.7551187255
 11
160.9628038663
 21
30.7873818593
 12
160.269054528
 22
30.7228547745
 13
160.269054528
 23
30.7228547745
  0
SOLID
  8
0
 62
7
  6
CONTINUOUS
 10
160.9628038663
 20
30.7873818593
 11
160.8471793074
 21
30.6905916353
 12
160.269054528
 22
30.7228547745
 13
160.269054528
 23
30.7228547745
  0
SOLID
  8
0
 62
7
  6
CONTINUOUS
 10
160.8471793074
 20
30.6905916353
 11
159.401867028
 21
30.658327332
 12
160.269054528
 22
30.7228547745
 13
160.269054528
 23
30.7228547745
  0
SOLID
  8
0
 62
7
  6
CONTINUOUS
 10
160.269054528
 20
30.7228547745
 11
159.401867028
 21
30.658327332
 12
159.922179528
 22
30.7228547745
 13
159.922179528
 23
30.7228547745
  0
SOLID
  8
0
 62
7
  6
CONTINUOUS
 10
159.401867028
 20
30.658327332
 11
159.228429528
 21
30.7228547745
 12
159.922179528
 22
30.7228547745
 13
159.922179528
 23
30.7228547745
  0
SOLID
  8
0
 62
7
  6
CONTINUOUS
 10
159.401867028
 20
30.658327332
 11
160.8471793074
 21
30.6905916353
 12
159.575304528
 22
30.6260629858
 13
159.575304528
 23
30.6260629858
  0
SOLID
  8
0
 62
7
  6
CONTINUOUS
 10
160.8471793074
 20
30.6905916353
 11
160.615929528
 21
30.6260629858
 12
159.575304528
 22
30.6260629858
 13
159.575304528
 23
30.6260629858
  0
SOLID
  8
0
 62
7
  6
CONTINUOUS
 10
159.922179528
 20
30.5938006049
 11
159.575304528
 21
30.6260629858
 12
160.615929528
 22
30.6260629858
 13
160.615929528
 23
30.6260629858
  0
SOLID
  8
0
 62
7
  6
CONTINUOUS
 10
160.615929528
 20
30.6260629858
 11
160.269054528
 21
30.5938006049
 12
159.922179528
 22
30.5938006049
 13
159.922179528
 23
30.5938006049
  0
SOLID
  8
0
 62
7
  6
CONTINUOUS
 10
149.5737418074
 20
31.1100184796
 11
149.9206168074
 21
31.2713369632
 12
149.8628043005
 22
31.1422827828
 13
149.8628043005
 23
31.1422827828
  0
SOLID
  8
0
 62
7
  6
CONTINUOUS
 10
149.8628043005
 20
31.1422827828
 11
149.8628043005
 21
31.0454914852
 12
149.5737418074
 22
31.1100184796
 13
149.5737418074
 23
31.1100184796
  0
SOLID
  8
0
 62
7
  6
CONTINUOUS
 10
149.6315543091
 20
30.9164372091
 11
149.5737418074
 21
31.1100184796
 12
149.8628043005
 22
31.0454914852
 13
149.8628043005
 23
31.0454914852
  0
SOLID
  8
0
 62
7
  6
CONTINUOUS
 10
149.8628043005
 20
31.0454914852
 11
149.9784292936
 21
30.8841729058
 12
149.6315543091
 22
30.9164372091
 13
149.6315543091
 23
30.9164372091
  0
SOLID
  8
0
 62
7
  6
CONTINUOUS
 10
149.7471793074
 20
30.7873813202
 11
149.6315543091
 21
30.9164372091
 12
149.9784292936
 22
30.8841729058
 13
149.9784292936
 23
30.8841729058
  0
SOLID
  8
0
 62
7
  6
CONTINUOUS
 10
149.9784292936
 20
30.8841729058
 11
150.1518667936
 21
30.7873813202
 12
149.7471793074
 22
30.7873813202
 13
149.7471793074
 23
30.7873813202
  0
SOLID
  8
0
 62
7
  6
CONTINUOUS
 10
149.8628043005
 20
30.7228547004
 11
149.7471793074
 21
30.7873813202
 12
150.1518667936
 22
30.7873813202
 13
150.1518667936
 23
30.7873813202
  0
SOLID
  8
0
 62
7
  6
CONTINUOUS
 10
150.1518667936
 20
30.7873813202
 11
150.498741835
 21
30.7228547004
 12
149.8628043005
 22
30.7228547004
 13
149.8628043005
 23
30.7228547004
  0
SOLID
  8
0
 62
7
  6
CONTINUOUS
 10
150.0362418212
 20
30.658327332
 11
149.8628043005
 21
30.7228547004
 12
150.498741835
 22
30.7228547004
 13
150.498741835
 23
30.7228547004
  0
SOLID
  8
0
 62
7
  6
CONTINUOUS
 10
154.0831168074
 20
31.1100184386
 11
154.1987416972
 21
31.1745462761
 12
154.7768668074
 22
31.1422827828
 13
154.7768668074
 23
31.1422827828
  0
SOLID
  8
0
 62
7
  6
CONTINUOUS
 10
154.7768668074
 20
31.1422827828
 11
154.5456166972
 21
31.1100184386
 12
154.0831168074
 22
31.1100184386
 13
154.0831168074
 23
31.1100184386
  0
SOLID
  8
0
 62
7
  6
CONTINUOUS
 10
153.9674919177
 20
30.9809642992
 11
154.0831168074
 21
31.1100184386
 12
154.5456166972
 22
31.1100184386
 13
154.5456166972
 23
31.1100184386
  0
SOLID
  8
0
 62
7
  6
CONTINUOUS
 10
154.3143669177
 20
31.0132277988
 11
153.9674919177
 21
30.9809642992
 12
154.4299918074
 22
31.0777556927
 13
154.4299918074
 23
31.0777556927
  0
SOLID
  8
0
 62
7
  6
CONTINUOUS
 10
153.9674919177
 20
30.9809642992
 11
154.5456166972
 21
31.1100184796
 12
154.4299918074
 22
31.0777556927
 13
154.4299918074
 23
31.0777556927
  0
SOLID
  8
0
 62
7
  6
CONTINUOUS
 10
154.3143669177
 20
31.0132277988
 11
154.2565543074
 21
30.9164372091
 12
153.9674919177
 22
30.9809642992
 13
153.9674919177
 23
30.9809642992
  0
SOLID
  8
0
 62
7
  6
CONTINUOUS
 10
153.9674919177
 20
30.8841729058
 11
153.9674919177
 21
30.9809642992
 12
154.2565543074
 22
30.9164372091
 13
154.2565543074
 23
30.9164372091
  0
SOLID
  8
0
 62
7
  6
CONTINUOUS
 10
154.2565543074
 20
30.9164372091
 11
154.2565543074
 21
30.8519086025
 12
153.9674919177
 22
30.8841729058
 13
153.9674919177
 23
30.8841729058
  0
SOLID
  8
0
 62
7
  6
CONTINUOUS
 10
154.0253041972
 20
30.7551187255
 11
153.9674919177
 21
30.8841729058
 12
154.2565543074
 22
30.8519086025
 13
154.2565543074
 23
30.8519086025
  0
SOLID
  8
0
 62
7
  6
CONTINUOUS
 10
155.412804528
 20
30.9487004259
 11
155.7018665869
 21
30.8519086025
 12
155.3549915869
 22
30.8841729058
 13
155.3549915869
 23
30.8841729058
  0
SOLID
  8
0
 62
7
  6
CONTINUOUS
 10
155.1815540869
 20
30.7873815123
 11
155.3549915869
 21
30.8841729058
 12
155.7018665869
 22
30.8519086025
 13
155.7018665869
 23
30.8519086025
  0
SOLID
  8
0
 62
7
  6
CONTINUOUS
 10
155.1815540869
 20
30.7873815123
 11
155.7018665869
 21
30.8519086025
 12
155.412804528
 22
30.7551187255
 13
155.412804528
 23
30.7551187255
  0
SOLID
  8
0
 62
7
  6
CONTINUOUS
 10
155.7018665869
 20
30.8519086025
 11
155.759679528
 21
30.6905916353
 12
155.412804528
 22
30.7551187255
 13
155.412804528
 23
30.7551187255
  0
SOLID
  8
0
 62
7
  6
CONTINUOUS
 10
155.4706168074
 20
30.658327332
 11
155.412804528
 21
30.7551187255
 12
155.759679528
 22
30.6905916353
 13
155.759679528
 23
30.6905916353
  0
SOLID
  8
0
 62
7
  6
CONTINUOUS
 10
155.4706168074
 20
30.658327332
 11
155.759679528
 21
30.6905916353
 12
155.5284290869
 22
30.5938002079
 13
155.5284290869
 23
30.5938002079
  0
SOLID
  8
0
 62
7
  6
CONTINUOUS
 10
155.759679528
 20
30.6905916353
 11
155.8174918074
 21
30.5938002079
 12
155.5284290869
 22
30.5938002079
 13
155.5284290869
 23
30.5938002079
  0
SOLID
  8
0
 62
7
  6
CONTINUOUS
 10
151.0768668626
 20
30.8196456577
 11
151.1346793074
 21
30.9164373395
 12
151.4237418626
 22
30.9164373395
 13
151.4237418626
 23
30.9164373395
  0
SOLID
  8
0
 62
7
  6
CONTINUOUS
 10
151.4237418626
 20
30.9164373395
 11
151.3659292523
 21
30.7873815123
 12
151.0768668626
 22
30.8196456577
 13
151.0768668626
 23
30.8196456577
  0
SOLID
  8
0
 62
7
  6
CONTINUOUS
 10
150.9034292799
 20
30.7551187255
 11
151.0768668626
 21
30.8196456577
 12
151.3659292523
 22
30.7873815123
 13
151.3659292523
 23
30.7873815123
  0
SOLID
  8
0
 62
7
  6
CONTINUOUS
 10
150.9034292799
 20
30.7551187255
 11
151.3659292523
 21
30.7873815123
 12
150.498741835
 22
30.7228544222
 13
150.498741835
 23
30.7228544222
  0
SOLID
  8
0
 62
7
  6
CONTINUOUS
 10
151.3659292523
 20
30.7873815123
 11
151.1924917523
 21
30.6905916353
 12
150.498741835
 22
30.7228544222
 13
150.498741835
 23
30.7228544222
  0
SOLID
  8
0
 62
7
  6
CONTINUOUS
 10
150.0362418212
 20
30.658327332
 11
150.498741835
 21
30.7228544222
 12
151.1924917523
 22
30.6905916353
 13
151.1924917523
 23
30.6905916353
  0
SOLID
  8
0
 62
7
  6
CONTINUOUS
 10
150.0362418212
 20
30.658327332
 11
151.1924917523
 21
30.6905916353
 12
150.2096793212
 22
30.6260631011
 13
150.2096793212
 23
30.6260631011
  0
SOLID
  8
0
 62
7
  6
CONTINUOUS
 10
151.1924917523
 20
30.6905916353
 11
150.9612418074
 21
30.6260631011
 12
150.2096793212
 22
30.6260631011
 13
150.2096793212
 23
30.6260631011
  0
SOLID
  8
0
 62
7
  6
CONTINUOUS
 10
150.5565542799
 20
30.5938002419
 11
150.2096793212
 21
30.6260631011
 12
150.9612418074
 22
30.6260631011
 13
150.9612418074
 23
30.6260631011
  0
SOLID
  8
0
 62
7
  6
CONTINUOUS
 10
154.0253041972
 20
30.7551187255
 11
154.2565543074
 21
30.8519086025
 12
154.3143669177
 22
30.7873815123
 13
154.3143669177
 23
30.7873815123
  0
SOLID
  8
0
 62
7
  6
CONTINUOUS
 10
154.3143669177
 20
30.7873815123
 11
154.5456166972
 21
30.7228544222
 12
154.0253041972
 22
30.7551187255
 13
154.0253041972
 23
30.7551187255
  0
SOLID
  8
0
 62
7
  6
CONTINUOUS
 10
154.1987416972
 20
30.658327332
 11
154.0253041972
 21
30.7551187255
 12
154.5456166972
 22
30.7228544222
 13
154.5456166972
 23
30.7228544222
  0
SOLID
  8
0
 62
7
  6
CONTINUOUS
 10
154.8924916972
 20
30.7228544637
 11
155.1815540869
 21
30.7873815123
 12
155.412804528
 22
30.7551187255
 13
155.412804528
 23
30.7551187255
  0
SOLID
  8
0
 62
7
  6
CONTINUOUS
 10
155.412804528
 20
30.7551187255
 11
155.3549915869
 21
30.6905916353
 12
154.8924916972
 22
30.7228544637
 13
154.8924916972
 23
30.7228544637
  0
SOLID
  8
0
 62
7
  6
CONTINUOUS
 10
155.3549915869
 20
30.6905916353
 11
154.1987416972
 21
30.658327332
 12
154.8924916972
 22
30.7228544637
 13
154.8924916972
 23
30.7228544637
  0
SOLID
  8
0
 62
7
  6
CONTINUOUS
 10
154.1987416972
 20
30.658327332
 11
154.5456166972
 21
30.7228544637
 12
154.8924916972
 22
30.7228544637
 13
154.8924916972
 23
30.7228544637
  0
SOLID
  8
0
 62
7
  6
CONTINUOUS
 10
154.1987416972
 20
30.658327332
 11
155.3549915869
 21
30.6905916353
 12
154.3143669177
 22
30.6260630541
 13
154.3143669177
 23
30.6260630541
  0
SOLID
  8
0
 62
7
  6
CONTINUOUS
 10
155.3549915869
 20
30.6905916353
 11
155.1815540869
 21
30.6260630541
 12
154.3143669177
 22
30.6260630541
 13
154.3143669177
 23
30.6260630541
  0
SOLID
  8
0
 62
7
  6
CONTINUOUS
 10
154.5456166972
 20
30.5938002188
 11
154.3143669177
 21
30.6260630541
 12
155.1815540869
 22
30.6260630541
 13
155.1815540869
 23
30.6260630541
  0
SOLID
  8
0
 62
7
  6
CONTINUOUS
 10
155.1815540869
 20
30.6260630541
 11
154.8924916972
 21
30.5938002188
 12
154.5456166972
 22
30.5938002188
 13
154.5456166972
 23
30.5938002188
  0
SOLID
  8
0
 62
7
  6
CONTINUOUS
 10
159.575304528
 20
30.7551187255
 11
159.228429528
 21
30.7228544637
 12
159.4596793074
 22
30.7873815123
 13
159.4596793074
 23
30.7873815123
  0
SOLID
  8
0
 62
7
  6
CONTINUOUS
 10
159.4596793074
 20
30.7873815123
 11
159.228429528
 21
30.7228544637
 12
159.401867028
 22
30.851908644
 13
159.401867028
 23
30.851908644
  0
SOLID
  8
0
 62
7
  6
CONTINUOUS
 10
159.228429528
 20
30.7228544637
 11
159.1128043074
 21
30.851908644
 12
159.401867028
 22
30.851908644
 13
159.401867028
 23
30.851908644
  0
SOLID
  8
0
 62
7
  6
CONTINUOUS
 10
159.575304528
 20
30.7551187255
 11
159.922179528
 21
30.7228544637
 12
159.228429528
 22
30.7228544637
 13
159.228429528
 23
30.7228544637
  0
SOLID
  8
0
 62
7
  6
CONTINUOUS
 10
156.279992028
 20
30.5938002419
 11
156.279992028
 21
31.6262382337
 12
156.5690540869
 22
30.5938002419
 13
156.5690540869
 23
31.6262382337
  0
ENDBLK
  8
0
  6
BYBLOCK
 62
0
  0
BLOCK
  8
0
 62
2
  6
CONTINUOUS
  2
SYMBOL_3_BL0
 70
64
 10
32.1213064866
 20
19.8534310916
  0
TEXT
  8
0
 62
7
  6
CONTINUOUS
 10
18.3860103289
 20
19.2268451992
  7
TEXTSTYLE_3
 40
2.7338706658
  1
Ammeraal Beltech
 41
1.0
 51
15.0
 72
0
  0
TEXT
  8
0
 62
7
  6
CONTINUOUS
 10
29.1868111546
 20
16.9533085264
  7
TEXTSTYLE_4
 40
1.0935482663
  1
Innovation & Service in Belting
 41
1.0
 72
0
  0
LINE
  8
0
 62
7
  6
CONTINUOUS
 10
12.3614696776
 20
19.9934385078
 11
13.1396216709
 21
23.6543558055
  0
LINE
  8
0
 62
7
  6
CONTINUOUS
 10
23.2347899607
 20
27.3177497171
 11
13.6274394139
 21
24.1961322958
  0
LINE
  8
0
 62
7
  6
CONTINUOUS
 10
12.5867530099
 20
19.3000877048
 11
20.093828271
 21
12.5406867788
  0
LINE
  8
0
 62
7
  6
CONTINUOUS
 10
12.8492874206
 20
20.5352149982
 11
23.6575567857
 21
24.0470345971
  0
LINE
  8
0
 62
7
  6
CONTINUOUS
 10
23.6533516486
 20
13.6972460334
 11
15.2078919798
 21
21.3015720751
  0
LINE
  8
0
 62
7
  6
CONTINUOUS
 10
24.1731743684
 20
26.4728246013
 11
23.1966148312
 21
21.8784731989
  0
LINE
  8
0
 62
7
  6
CONTINUOUS
 10
22.4968128835
 20
18.5861638851
 11
21.810364672
 21
15.3566789607
  0
LINE
  8
0
 62
7
  6
CONTINUOUS
 10
24.8542704669
 20
14.087448211
 11
25.8105020025
 21
18.5861638851
  0
LINE
  8
0
 62
7
  6
CONTINUOUS
 10
26.5103039502
 20
21.8784731989
 11
26.9545457526
 21
23.9684665583
  0
LINE
  8
0
 62
7
  6
CONTINUOUS
 10
20.8069293463
 20
12.3891124661
 11
24.3664527239
 21
13.5456717207
  0
LINE
  8
0
 62
7
  6
CONTINUOUS
 10
23.9478910361
 20
27.1661754044
 11
26.7292624203
 21
24.6618173613
  0
ARC
  8
0
 62
7
  6
CONTINUOUS
 10
13.8527227462
 20
23.5027814928
 40
0.7290321776
 50
108.0
 51
168.0
  0
ARC
  8
0
 62
7
  6
CONTINUOUS
 10
23.4600732931
 20
26.624398914
 40
0.7290321776
 50
348.0
 51
108.0
  0
ARC
  8
0
 62
7
  6
CONTINUOUS
 10
26.2414446773
 20
24.120040871
 40
0.7290321776
 50
348.0
 51
48.0
  0
ARC
  8
0
 62
7
  6
CONTINUOUS
 10
20.581646014
 20
13.0824632691
 40
0.7290321776
 50
228.0
 51
288.0
  0
ARC
  8
0
 62
7
  6
CONTINUOUS
 10
13.0745707529
 20
19.8418641951
 40
0.7290321776
 50
108.0
 51
228.0
  0
ARC
  8
0
 62
7
  6
CONTINUOUS
 10
24.1411693916
 20
14.2390225237
 40
0.7290321776
 50
228.0
 51
348.0
  0
ENDBLK
  8
0
  6
BYBLOCK
 62
0
  0
ENDSEC
  0
SECTION
  2
ENTITIES
  0
TEXT
  8
0
 62
5
  6
CONTINUOUS
 10
96.0
 20
25.636
  7
TEXTSTYLE_2
 40
2.8
  1
Scale :
 41
0.6
 51
0.000019
 72
0
  0
TEXT
  8
0
 62
5
  6
CONTINUOUS
 10
116.0
 20
25.636
  7
TEXTSTYLE_2
 40
2.8
  1
Belt type:
 41
0.6
 51
0.000019
 72
0
  0
INSERT
  8
0
 62
2
  6
CONTINUOUS
  2
SYMBOL_3_BL0
 10
32.1213064866
 20
19.8534310916
  0
INSERT
  8
0
 62
2
  6
CONTINUOUS
  2
SYMBOL_8_BL1
 10
173.5956734183
 20
35.5937998301
  0
LINE
  8
0
 62
2
  6
CONTINUOUS
 10
10.0
 20
30.0
 11
200.0
 21
30.0
  0
LINE
  8
0
 62
2
  6
CONTINUOUS
 10
10.0
 20
30.0
 11
10.0
 21
10.0
  0
LINE
  8
0
 62
2
  6
CONTINUOUS
 10
10.0
 20
10.0
 11
200.0
 21
10.0
  0
LINE
  8
0
 62
2
  6
CONTINUOUS
 10
95.0
 20
30.0
 11
95.0
 21
10.0
  0
LINE
  8
0
 62
2
  6
CONTINUOUS
 10
115.0
 20
30.0
 11
115.0
 21
10.0
  0
LINE
  8
0
 62
2
  6
CONTINUOUS
 10
200.0
 20
30.0
 11
200.0
 21
10.0
  0
TEXT
  8
0
 62
5
  6
CONTINUOUS
 10
13.0
 20
23.303
  7
TEXTSTYLE_5
 40
1.52
  1
                                                                     Ammeraal Beltech Modular A/S
 41
1.0
 72
0
  0
TEXT
  8
0
 62
5
  6
CONTINUOUS
 10
13.0
 20
20.595
  7
TEXTSTYLE_5
 40
1.5
  1
                                                                      Hjulmagervej 21,  7100 Vejle,  DK
 41
1.0
 72
0
  0
TEXT
  8
0
 62
5
  6
CONTINUOUS
 10
13.0
 20
17.881
  7
TEXTSTYLE_5
 40
1.495
  1
                                                                      tel: 
 41
1.0
 72
0
  0
TEXT
  8
0
 62
5
  6
CONTINUOUS
 10
57.9869465649
 20
17.881
  7
TEXTSTYLE_5
 40
1.51
  1
+45 75723100     fax: +45 75723348
 41
1.0
 72
0
  0
TEXT
  8
0
 62
5
  6
CONTINUOUS
 10
13.0
 20
15.177
  7
TEXTSTYLE_5
 40
1.5
  1
                                                                      admin@unichains.dk  www.unichains.com
 41
1.0
 72
0
  0
TEXT
  8
0
 62
5
  6
CONTINUOUS
 10
99.75
 20
13.75
  7
TEXTSTYLE_6
 40
5.0
  1
1:1
 41
0.7
 72
1
 11
105.0
 21
13.75
  0
TEXT
  8
0
 62
5
  6
CONTINUOUS
 10
118.0
 20
13.75
  7
TEXTSTYLE_7
 40
7.5
  1
uni MPB G K600
 41
0.7154761905
 72
0
  0
LINE
  8
0
 62
7
  6
CONTINUOUS
 10
210.0
 20
0.0
 11
0.0
 21
0.0
  0
LINE
  8
0
 62
7
  6
CONTINUOUS
 10
10.0
 20
10.0
 11
200.0
 21
10.0
  0
LINE
  8
0
 62
7
  6
CONTINUOUS
 10
10.0
 20
30.0
 11
200.0
 21
30.0
  0
LINE
  8
0
 62
7
  6
CONTINUOUS
 10
0.0
 20
0.0
 11
0.0
 21
297.0
  0
LINE
  8
0
 62
7
  6
CONTINUOUS
 10
10.0
 20
10.0
 11
10.0
 21
287.0
  0
LINE
  8
0
 62
7
  6
CONTINUOUS
 10
200.0
 20
287.0
 11
200.0
 21
10.0
  0
LINE
  8
0
 62
7
  6
CONTINUOUS
 10
210.0
 20
0.0
 11
210.0
 21
297.0
  0
LINE
  8
0
 62
7
  6
CONTINUOUS
 10
10.0
 20
287.0
 11
200.0
 21
287.0
  0
LINE
  8
0
 62
7
  6
CONTINUOUS
 10
0.0
 20
297.0
 11
210.0
 21
297.0
  0
POLYLINE
  8
0
 62
7
  6
CONTINUOUS
 66
1
 70
0
  0
VERTEX
  8
0
 62
7
  6
CONTINUOUS
 10
50.089277408
 20
207.8889217763
  0
VERTEX
  8
0
 62
7
  6
CONTINUOUS
 10
50.0815146409
 20
207.8839969061
  0
VERTEX
  8
0
 62
7
  6
CONTINUOUS
 10
50.0741345158
 20
207.8694123913
  0
VERTEX
  8
0
 62
7
  6
CONTINUOUS
 10
50.0675003184
 20
207.8458039296
  0
VERTEX
  8
0
 62
7
  6
CONTINUOUS
 10
50.0619442442
 20
207.8142654798
  0
VERTEX
  8
0
 62
7
  6
CONTINUOUS
 10
50.0577500565
 20
207.7763142952
  0
VERTEX
  8
0
 62
7
  6
CONTINUOUS
 10
50.0551371429
 20
207.7338231704
  0
VERTEX
  8
0
 62
7
  6
CONTINUOUS
 10
50.0542481882
 20
207.6889217763
  0
SEQEND
  0
POLYLINE
  8
0
 62
7
  6
CONTINUOUS
 66
1
 70
0
  0
VERTEX
  8
0
 62
7
  6
CONTINUOUS
 10
112.0265384164
 20
56.8889214074
  0
VERTEX
  8
0
 62
7
  6
CONTINUOUS
 10
112.0708401566
 20
56.8938899685
  0
VERTEX
  8
0
 62
7
  6
CONTINUOUS
 10
112.1130857935
 20
56.9086183782
  0
VERTEX
  8
0
 62
7
  6
CONTINUOUS
 10
112.1510002335
 20
56.9323696667
  0
VERTEX
  8
0
 62
7
  6
CONTINUOUS
 10
112.1826859908
 20
56.9639552106
  0
VERTEX
  8
0
 62
7
  6
CONTINUOUS
 10
112.2065572724
 20
57.0017942072
  0
VERTEX
  8
0
 62
7
  6
CONTINUOUS
 10
112.2214194594
 20
57.0439928246
  0
VERTEX
  8
0
 62
7
  6
CONTINUOUS
 10
112.2265295025
 20
57.0889130582
  0
SEQEND
  0
LINE
  8
0
 62
7
  6
CONTINUOUS
 10
112.0265967168
 20
56.8889217763
 11
57.4479237436
 21
56.8889217763
  0
POLYLINE
  8
0
 62
7
  6
CONTINUOUS
 66
1
 70
0
  0
VERTEX
  8
0
 62
7
  6
CONTINUOUS
 10
45.8877627797
 20
66.3344526024
  0
VERTEX
  8
0
 62
7
  6
CONTINUOUS
 10
46.2887120014
 20
66.1546693272
  0
VERTEX
  8
0
 62
7
  6
CONTINUOUS
 10
46.7543250423
 20
65.9796047891
  0
VERTEX
  8
0
 62
7
  6
CONTINUOUS
 10
47.2559495227
 20
65.8208363872
  0
VERTEX
  8
0
 62
7
  6
CONTINUOUS
 10
47.7892857249
 20
65.6781316414
  0
VERTEX
  8
0
 62
7
  6
CONTINUOUS
 10
48.3496767467
 20
65.5514434078
  0
VERTEX
  8
0
 62
7
  6
CONTINUOUS
 10
48.9322875522
 20
65.4407558768
  0
VERTEX
  8
0
 62
7
  6
CONTINUOUS
 10
49.5321124791
 20
65.3460270255
  0
VERTEX
  8
0
 62
7
  6
CONTINUOUS
 10
50.0839056005
 20
65.2741492117
  0
SEQEND
  0
POLYLINE
  8
0
 62
7
  6
CONTINUOUS
 66
1
 70
0
  0
VERTEX
  8
0
 62
7
  6
CONTINUOUS
 10
100.7369880132
 20
65.100755188
  0
VERTEX
  8
0
 62
7
  6
CONTINUOUS
 10
100.4429562422
 20
65.096785467
  0
VERTEX
  8
0
 62
7
  6
CONTINUOUS
 10
100.3630870692
 20
65.0967388006
  0
VERTEX
  8
0
 62
7
  6
CONTINUOUS
 10
100.283911606
 20
65.0981155652
  0
VERTEX
  8
0
 62
7
  6
CONTINUOUS
 10
100.2056896322
 20
65.1011146747
  0
VERTEX
  8
0
 62
7
  6
CONTINUOUS
 10
100.1286185127
 20
65.1059502445
  0
VERTEX
  8
0
 62
7
  6
CONTINUOUS
 10
100.0529053401
 20
65.1128113742
  0
VERTEX
  8
0
 62
7
  6
CONTINUOUS
 10
99.9789780712
 20
65.1218672726
  0
VERTEX
  8
0
 62
7
  6
CONTINUOUS
 10
99.907282895
 20
65.1332829284
  0
VERTEX
  8
0
 62
7
  6
CONTINUOUS
 10
99.8376838729
 20
65.1472389045
  0
VERTEX
  8
0
 62
7
  6
CONTINUOUS
 10
99.7704482868
 20
65.164006659
  0
VERTEX
  8
0
 62
7
  6
CONTINUOUS
 10
99.7070192459
 20
65.1837088109
  0
VERTEX
  8
0
 62
7
  6
CONTINUOUS
 10
99.6480243535
 20
65.2070602089
  0
VERTEX
  8
0
 62
7
  6
CONTINUOUS
 10
99.5932543485
 20
65.2344630925
  0
VERTEX
  8
0
 62
7
  6
CONTINUOUS
 10
99.5443230811
 20
65.2653122263
  0
VERTEX
  8
0
 62
7
  6
CONTINUOUS
 10
99.5022967183
 20
65.2987762292
  0
VERTEX
  8
0
 62
7
  6
CONTINUOUS
 10
99.4669530436
 20
65.3349114312
  0
VERTEX
  8
0
 62
7
  6
CONTINUOUS
 10
99.4385879002
 20
65.3736746728
  0
VERTEX
  8
0
 62
7
  6
CONTINUOUS
 10
99.4180116025
 20
65.4149482725
  0
VERTEX
  8
0
 62
7
  6
CONTINUOUS
 10
99.4068285754
 20
65.4579456087
  0
VERTEX
  8
0
 62
7
  6
CONTINUOUS
 10
99.4053385631
 20
65.4791845119
  0
SEQEND
  0
LINE
  8
0
 62
7
  6
CONTINUOUS
 10
101.0200021822
 20
65.1031972426
 11
100.7369880132
 21
65.100755188
  0
LINE
  8
0
 62
7
  6
CONTINUOUS
 10
101.0200021822
 20
65.1031972426
 11
106.5681031228
 21
65.1037536194
  0
LINE
  8
0
 62
7
  6
CONTINUOUS
 10
50.0839114662
 20
65.2741492413
 11
50.084931406
 21
65.2740899361
  0
LINE
  8
0
 62
7
  6
CONTINUOUS
 10
45.7920975299
 20
66.3462939981
 11
45.8968248719
 21
66.3303892136
  0
LINE
  8
0
 62
7
  6
CONTINUOUS
 10
46.2887120014
 20
190.2231742253
 11
45.8877627797
 21
190.0433909501
  0
POLYLINE
  8
0
 62
7
  6
CONTINUOUS
 66
1
 70
0
  0
VERTEX
  8
0
 62
7
  6
CONTINUOUS
 10
110.8609525357
 20
74.7462926017
  0
VERTEX
  8
0
 62
7
  6
CONTINUOUS
 10
111.0284651049
 20
74.7739544134
  0
VERTEX
  8
0
 62
7
  6
CONTINUOUS
 10
111.193491323
 20
74.8048592113
  0
VERTEX
  8
0
 62
7
  6
CONTINUOUS
 10
111.3373190243
 20
74.8358079978
  0
VERTEX
  8
0
 62
7
  6
CONTINUOUS
 10
111.4633216474
 20
74.8672171851
  0
VERTEX
  8
0
 62
7
  6
CONTINUOUS
 10
111.5749084865
 20
74.8998003261
  0
VERTEX
  8
0
 62
7
  6
CONTINUOUS
 10
111.6757598053
 20
74.9348153349
  0
VERTEX
  8
0
 62
7
  6
CONTINUOUS
 10
111.7699632718
 20
74.9744988332
  0
VERTEX
  8
0
 62
7
  6
CONTINUOUS
 10
111.8614271976
 20
75.0225259511
  0
VERTEX
  8
0
 62
7
  6
CONTINUOUS
 10
111.9530344203
 20
75.0846356018
  0
VERTEX
  8
0
 62
7
  6
CONTINUOUS
 10
112.0443252879
 20
75.1683645266
  0
VERTEX
  8
0
 62
7
  6
CONTINUOUS
 10
112.1278131955
 20
75.2790099378
  0
VERTEX
  8
0
 62
7
  6
CONTINUOUS
 10
112.1907569189
 20
75.4139996033
  0
VERTEX
  8
0
 62
7
  6
CONTINUOUS
 10
112.2228990748
 20
75.5618343926
  0
VERTEX
  8
0
 62
7
  6
CONTINUOUS
 10
112.2265294075
 20
75.6327485351
  0
SEQEND
  0
LINE
  8
0
 62
7
  6
CONTINUOUS
 10
110.7562350785
 20
74.7303914882
 11
110.8609606232
 21
74.7462938625
  0
POLYLINE
  8
0
 62
7
  6
CONTINUOUS
 66
1
 70
0
  0
VERTEX
  8
0
 62
7
  6
CONTINUOUS
 10
106.5691533943
 20
73.6741492084
  0
VERTEX
  8
0
 62
7
  6
CONTINUOUS
 10
107.1174447767
 20
73.7455264634
  0
VERTEX
  8
0
 62
7
  6
CONTINUOUS
 10
107.7174261921
 20
73.8401759248
  0
VERTEX
  8
0
 62
7
  6
CONTINUOUS
 10
108.3002131566
 20
73.9507865297
  0
VERTEX
  8
0
 62
7
  6
CONTINUOUS
 10
108.8607988229
 20
74.0774004158
  0
VERTEX
  8
0
 62
7
  6
CONTINUOUS
 10
109.3943465012
 20
74.2200331702
  0
VERTEX
  8
0
 62
7
  6
CONTINUOUS
 10
109.8961968792
 20
74.3787310945
  0
VERTEX
  8
0
 62
7
  6
CONTINUOUS
 10
110.3620474846
 20
74.5537248761
  0
SEQEND
  0
POLYLINE
  8
0
 62
7
  6
CONTINUOUS
 66
1
 70
0
  0
VERTEX
  8
0
 62
7
  6
CONTINUOUS
 10
55.9121032798
 20
65.2770414999
  0
VERTEX
  8
0
 62
7
  6
CONTINUOUS
 10
56.2054253987
 20
65.2810144768
  0
VERTEX
  8
0
 62
7
  6
CONTINUOUS
 10
56.2850189418
 20
65.2811408003
  0
VERTEX
  8
0
 62
7
  6
CONTINUOUS
 10
56.364081603
 20
65.2798621209
  0
VERTEX
  8
0
 62
7
  6
CONTINUOUS
 10
56.4423333272
 20
65.276975644
  0
VERTEX
  8
0
 62
7
  6
CONTINUOUS
 10
56.5195515712
 20
65.272260242
  0
VERTEX
  8
0
 62
7
  6
CONTINUOUS
 10
56.5955166201
 20
65.2655173215
  0
VERTEX
  8
0
 62
7
  6
CONTINUOUS
 10
56.6697957648
 20
65.2565709753
  0
VERTEX
  8
0
 62
7
  6
CONTINUOUS
 10
56.7418807631
 20
65.2452514581
  0
VERTEX
  8
0
 62
7
  6
CONTINUOUS
 10
56.811985432
 20
65.2313600589
  0
VERTEX
  8
0
 62
7
  6
CONTINUOUS
 10
56.8796355841
 20
65.214660183
  0
VERTEX
  8
0
 62
7
  6
CONTINUOUS
 10
56.9437037684
 20
65.1949456411
  0
VERTEX
  8
0
 62
7
  6
CONTINUOUS
 10
57.0031935934
 20
65.1715989636
  0
VERTEX
  8
0
 62
7
  6
CONTINUOUS
 10
57.0584625423
 20
65.1441305404
  0
VERTEX
  8
0
 62
7
  6
CONTINUOUS
 10
57.1079070716
 20
65.1131156638
  0
VERTEX
  8
0
 62
7
  6
CONTINUOUS
 10
57.1500860445
 20
65.0796729778
  0
VERTEX
  8
0
 62
7
  6
CONTINUOUS
 10
57.1853603363
 20
65.0438030865
  0
VERTEX
  8
0
 62
7
  6
CONTINUOUS
 10
57.2136561478
 20
65.0054829111
  0
VERTEX
  8
0
 62
7
  6
CONTINUOUS
 10
57.2343662534
 20
64.9646519106
  0
VERTEX
  8
0
 62
7
  6
CONTINUOUS
 10
57.2459545154
 20
64.9218550879
  0
VERTEX
  8
0
 62
7
  6
CONTINUOUS
 10
57.2477210256
 20
64.8984852896
  0
SEQEND
  0
LINE
  8
0
 62
7
  6
CONTINUOUS
 10
55.6290815431
 20
65.2746255255
 11
55.9121032798
 21
65.2770414999
  0
LINE
  8
0
 62
7
  6
CONTINUOUS
 10
50.0849934175
 20
65.2740899331
 11
55.6290815431
 21
65.2746255255
  0
LINE
  8
0
 62
7
  6
CONTINUOUS
 10
106.5681352358
 20
65.1037536194
 11
106.5691432729
 21
65.1036942933
  0
LINE
  8
0
 62
7
  6
CONTINUOUS
 10
110.8609606232
 20
64.0315496901
 11
110.7562350782
 21
64.0474520645
  0
LINE
  8
0
 62
7
  6
CONTINUOUS
 10
106.5691475286
 20
73.674149238
 11
106.5681276169
 21
73.6740899361
  0
LINE
  8
0
 62
7
  6
CONTINUOUS
 10
50.0839114662
 20
73.5036943113
 11
50.084931406
 21
73.5037536165
  0
POLYLINE
  8
0
 62
7
  6
CONTINUOUS
 66
1
 70
0
  0
VERTEX
  8
0
 62
7
  6
CONTINUOUS
 10
56.2095311521
 20
73.4967911144
  0
VERTEX
  8
0
 62
7
  6
CONTINUOUS
 10
55.9160671663
 20
73.5007555909
  0
VERTEX
  8
0
 62
7
  6
CONTINUOUS
 10
55.6330549648
 20
73.5031973348
  0
VERTEX
  8
0
 62
7
  6
CONTINUOUS
 10
50.0849934175
 20
73.5037536194
  0
SEQEND
  0
POLYLINE
  8
0
 62
7
  6
CONTINUOUS
 66
1
 70
0
  0
VERTEX
  8
0
 62
7
  6
CONTINUOUS
 10
100.4471566966
 20
73.6810190553
  0
VERTEX
  8
0
 62
7
  6
CONTINUOUS
 10
100.7409557938
 20
73.6770415001
  0
VERTEX
  8
0
 62
7
  6
CONTINUOUS
 10
101.0239774543
 20
73.6746255257
  0
VERTEX
  8
0
 62
7
  6
CONTINUOUS
 10
106.5680656055
 20
73.6740899331
  0
SEQEND
  0
POLYLINE
  8
0
 62
7
  6
CONTINUOUS
 66
1
 70
0
  0
VERTEX
  8
0
 62
7
  6
CONTINUOUS
 10
45.8877627797
 20
83.1344526024
  0
VERTEX
  8
0
 62
7
  6
CONTINUOUS
 10
46.2887120014
 20
82.9546693272
  0
VERTEX
  8
0
 62
7
  6
CONTINUOUS
 10
46.7543250423
 20
82.7796047891
  0
VERTEX
  8
0
 62
7
  6
CONTINUOUS
 10
47.2559495227
 20
82.6208363872
  0
VERTEX
  8
0
 62
7
  6
CONTINUOUS
 10
47.7892857249
 20
82.4781316414
  0
VERTEX
  8
0
 62
7
  6
CONTINUOUS
 10
48.3496767467
 20
82.3514434078
  0
VERTEX
  8
0
 62
7
  6
CONTINUOUS
 10
48.9322875522
 20
82.2407558768
  0
VERTEX
  8
0
 62
7
  6
CONTINUOUS
 10
49.5321124791
 20
82.1460270255
  0
VERTEX
  8
0
 62
7
  6
CONTINUOUS
 10
50.0839056005
 20
82.0741492117
  0
SEQEND
  0
LINE
  8
0
 62
7
  6
CONTINUOUS
 10
46.2887120014
 20
173.4231742253
 11
45.8877627797
 21
173.2433909501
  0
POLYLINE
  8
0
 62
7
  6
CONTINUOUS
 66
1
 70
0
  0
VERTEX
  8
0
 62
7
  6
CONTINUOUS
 10
45.7921057352
 20
72.4315508337
  0
VERTEX
  8
0
 62
7
  6
CONTINUOUS
 10
45.6233106818
 20
72.4036641879
  0
VERTEX
  8
0
 62
7
  6
CONTINUOUS
 10
45.4587504654
 20
72.3728202865
  0
VERTEX
  8
0
 62
7
  6
CONTINUOUS
 10
45.3153121889
 20
72.3419365357
  0
VERTEX
  8
0
 62
7
  6
CONTINUOUS
 10
45.1896338884
 20
72.3105984891
  0
VERTEX
  8
0
 62
7
  6
CONTINUOUS
 10
45.0783202181
 20
72.2780971038
  0
VERTEX
  8
0
 62
7
  6
CONTINUOUS
 10
44.9777105966
 20
72.243184801
  0
VERTEX
  8
0
 62
7
  6
CONTINUOUS
 10
44.8837457255
 20
72.2036481737
  0
VERTEX
  8
0
 62
7
  6
CONTINUOUS
 10
44.7925499445
 20
72.1558595825
  0
VERTEX
  8
0
 62
7
  6
CONTINUOUS
 10
44.7012377681
 20
72.0941505392
  0
VERTEX
  8
0
 62
7
  6
CONTINUOUS
 10
44.6101900142
 20
72.0110534719
  0
VERTEX
  8
0
 62
7
  6
CONTINUOUS
 10
44.5267204551
 20
71.9012482068
  0
VERTEX
  8
0
 62
7
  6
CONTINUOUS
 10
44.4634101479
 20
71.7670944247
  0
VERTEX
  8
0
 62
7
  6
CONTINUOUS
 10
44.4305666725
 20
71.6198481694
  0
VERTEX
  8
0
 62
7
  6
CONTINUOUS
 10
44.4265296184
 20
71.5450924637
  0
SEQEND
  0
LINE
  8
0
 62
7
  6
CONTINUOUS
 10
45.8968248719
 20
72.447454339
 11
45.7920975299
 21
72.4315495545
  0
POLYLINE
  8
0
 62
7
  6
CONTINUOUS
 66
1
 70
0
  0
VERTEX
  8
0
 62
7
  6
CONTINUOUS
 10
50.0839056005
 20
73.5036943408
  0
VERTEX
  8
0
 62
7
  6
CONTINUOUS
 10
49.5321124791
 20
73.4318165271
  0
VERTEX
  8
0
 62
7
  6
CONTINUOUS
 10
48.9322875522
 20
73.3370876758
  0
VERTEX
  8
0
 62
7
  6
CONTINUOUS
 10
48.3496767467
 20
73.2264001448
  0
VERTEX
  8
0
 62
7
  6
CONTINUOUS
 10
47.7892857249
 20
73.0997119112
  0
VERTEX
  8
0
 62
7
  6
CONTINUOUS
 10
47.2559495227
 20
72.9570071654
  0
VERTEX
  8
0
 62
7
  6
CONTINUOUS
 10
46.7543250423
 20
72.7982387635
  0
VERTEX
  8
0
 62
7
  6
CONTINUOUS
 10
46.2887120014
 20
72.6231742253
  0
SEQEND
  0
POLYLINE
  8
0
 62
7
  6
CONTINUOUS
 66
1
 70
0
  0
VERTEX
  8
0
 62
7
  6
CONTINUOUS
 10
55.9121032798
 20
82.0770414999
  0
VERTEX
  8
0
 62
7
  6
CONTINUOUS
 10
56.2054253987
 20
82.0810144768
  0
VERTEX
  8
0
 62
7
  6
CONTINUOUS
 10
56.2850189418
 20
82.0811408003
  0
VERTEX
  8
0
 62
7
  6
CONTINUOUS
 10
56.364081603
 20
82.0798621209
  0
VERTEX
  8
0
 62
7
  6
CONTINUOUS
 10
56.4423333272
 20
82.076975644
  0
VERTEX
  8
0
 62
7
  6
CONTINUOUS
 10
56.5195515712
 20
82.072260242
  0
VERTEX
  8
0
 62
7
  6
CONTINUOUS
 10
56.5955166201
 20
82.0655173215
  0
VERTEX
  8
0
 62
7
  6
CONTINUOUS
 10
56.6697957648
 20
82.0565709753
  0
VERTEX
  8
0
 62
7
  6
CONTINUOUS
 10
56.7418807631
 20
82.0452514581
  0
VERTEX
  8
0
 62
7
  6
CONTINUOUS
 10
56.811985432
 20
82.0313600589
  0
VERTEX
  8
0
 62
7
  6
CONTINUOUS
 10
56.8796355841
 20
82.014660183
  0
VERTEX
  8
0
 62
7
  6
CONTINUOUS
 10
56.9437037684
 20
81.9949456411
  0
VERTEX
  8
0
 62
7
  6
CONTINUOUS
 10
57.0031935934
 20
81.9715989636
  0
VERTEX
  8
0
 62
7
  6
CONTINUOUS
 10
57.0584625423
 20
81.9441305404
  0
VERTEX
  8
0
 62
7
  6
CONTINUOUS
 10
57.1079070716
 20
81.9131156638
  0
VERTEX
  8
0
 62
7
  6
CONTINUOUS
 10
57.1500860445
 20
81.8796729778
  0
VERTEX
  8
0
 62
7
  6
CONTINUOUS
 10
57.1853603363
 20
81.8438030865
  0
VERTEX
  8
0
 62
7
  6
CONTINUOUS
 10
57.2136561478
 20
81.8054829111
  0
VERTEX
  8
0
 62
7
  6
CONTINUOUS
 10
57.2343662534
 20
81.7646519106
  0
VERTEX
  8
0
 62
7
  6
CONTINUOUS
 10
57.2459545154
 20
81.7218550879
  0
VERTEX
  8
0
 62
7
  6
CONTINUOUS
 10
57.2477210256
 20
81.6984852896
  0
SEQEND
  0
POLYLINE
  8
0
 62
7
  6
CONTINUOUS
 66
1
 70
0
  0
VERTEX
  8
0
 62
7
  6
CONTINUOUS
 10
100.7369880132
 20
81.900755188
  0
VERTEX
  8
0
 62
7
  6
CONTINUOUS
 10
100.4429562422
 20
81.896785467
  0
VERTEX
  8
0
 62
7
  6
CONTINUOUS
 10
100.3630870692
 20
81.8967388006
  0
VERTEX
  8
0
 62
7
  6
CONTINUOUS
 10
100.283911606
 20
81.8981155652
  0
VERTEX
  8
0
 62
7
  6
CONTINUOUS
 10
100.2056896322
 20
81.9011146747
  0
VERTEX
  8
0
 62
7
  6
CONTINUOUS
 10
100.1286185127
 20
81.9059502445
  0
VERTEX
  8
0
 62
7
  6
CONTINUOUS
 10
100.0529053401
 20
81.9128113742
  0
VERTEX
  8
0
 62
7
  6
CONTINUOUS
 10
99.9789780712
 20
81.9218672726
  0
VERTEX
  8
0
 62
7
  6
CONTINUOUS
 10
99.907282895
 20
81.9332829284
  0
VERTEX
  8
0
 62
7
  6
CONTINUOUS
 10
99.8376838729
 20
81.9472389045
  0
VERTEX
  8
0
 62
7
  6
CONTINUOUS
 10
99.7704482868
 20
81.964006659
  0
VERTEX
  8
0
 62
7
  6
CONTINUOUS
 10
99.7070192459
 20
81.9837088109
  0
VERTEX
  8
0
 62
7
  6
CONTINUOUS
 10
99.6480243535
 20
82.0070602089
  0
VERTEX
  8
0
 62
7
  6
CONTINUOUS
 10
99.5932543485
 20
82.0344630925
  0
VERTEX
  8
0
 62
7
  6
CONTINUOUS
 10
99.5443230811
 20
82.0653122263
  0
VERTEX
  8
0
 62
7
  6
CONTINUOUS
 10
99.5022967183
 20
82.0987762292
  0
VERTEX
  8
0
 62
7
  6
CONTINUOUS
 10
99.4669530436
 20
82.1349114312
  0
VERTEX
  8
0
 62
7
  6
CONTINUOUS
 10
99.4385879002
 20
82.1736746728
  0
VERTEX
  8
0
 62
7
  6
CONTINUOUS
 10
99.4180116025
 20
82.2149482725
  0
VERTEX
  8
0
 62
7
  6
CONTINUOUS
 10
99.4068285754
 20
82.2579456087
  0
VERTEX
  8
0
 62
7
  6
CONTINUOUS
 10
99.4053385631
 20
82.2791845119
  0
SEQEND
  0
LINE
  8
0
 62
7
  6
CONTINUOUS
 10
101.0200021822
 20
81.9031972426
 11
100.7369880132
 21
81.900755188
  0
LINE
  8
0
 62
7
  6
CONTINUOUS
 10
55.6290815431
 20
82.0746255255
 11
55.9121032798
 21
82.0770414999
  0
LINE
  8
0
 62
7
  6
CONTINUOUS
 10
101.0200021822
 20
81.9031972426
 11
106.5681031228
 21
81.9037536194
  0
LINE
  8
0
 62
7
  6
CONTINUOUS
 10
50.0849934175
 20
82.0740899331
 11
55.6290815431
 21
82.0746255255
  0
LINE
  8
0
 62
7
  6
CONTINUOUS
 10
50.0839114662
 20
82.0741492413
 11
50.084931406
 21
82.0740899361
  0
LINE
  8
0
 62
7
  6
CONTINUOUS
 10
106.5681352358
 20
81.9037536194
 11
106.5691432729
 21
81.9036942933
  0
LINE
  8
0
 62
7
  6
CONTINUOUS
 10
45.7920975299
 20
83.1462939981
 11
45.8968248719
 21
83.1303892136
  0
POLYLINE
  8
0
 62
7
  6
CONTINUOUS
 66
1
 70
0
  0
VERTEX
  8
0
 62
7
  6
CONTINUOUS
 10
110.7652941172
 20
64.0433919933
  0
VERTEX
  8
0
 62
7
  6
CONTINUOUS
 10
110.3620473777
 20
64.2241187204
  0
VERTEX
  8
0
 62
7
  6
CONTINUOUS
 10
109.8961966465
 20
64.3991125382
  0
VERTEX
  8
0
 62
7
  6
CONTINUOUS
 10
109.3943461264
 20
64.5578104913
  0
VERTEX
  8
0
 62
7
  6
CONTINUOUS
 10
108.860798293
 20
64.7004432669
  0
VERTEX
  8
0
 62
7
  6
CONTINUOUS
 10
108.3002124621
 20
64.8270571668
  0
VERTEX
  8
0
 62
7
  6
CONTINUOUS
 10
107.7174253271
 20
64.9376677776
  0
VERTEX
  8
0
 62
7
  6
CONTINUOUS
 10
107.1174437388
 20
65.0323172374
  0
VERTEX
  8
0
 62
7
  6
CONTINUOUS
 10
106.5691533943
 20
65.1036943442
  0
SEQEND
  0
POLYLINE
  8
0
 62
7
  6
CONTINUOUS
 66
1
 70
0
  0
VERTEX
  8
0
 62
7
  6
CONTINUOUS
 10
110.8609525357
 20
91.5462926017
  0
VERTEX
  8
0
 62
7
  6
CONTINUOUS
 10
111.0284651049
 20
91.5739544134
  0
VERTEX
  8
0
 62
7
  6
CONTINUOUS
 10
111.193491323
 20
91.6048592113
  0
VERTEX
  8
0
 62
7
  6
CONTINUOUS
 10
111.3373190243
 20
91.6358079978
  0
VERTEX
  8
0
 62
7
  6
CONTINUOUS
 10
111.4633216474
 20
91.6672171851
  0
VERTEX
  8
0
 62
7
  6
CONTINUOUS
 10
111.5749084865
 20
91.6998003261
  0
VERTEX
  8
0
 62
7
  6
CONTINUOUS
 10
111.6757598053
 20
91.7348153349
  0
VERTEX
  8
0
 62
7
  6
CONTINUOUS
 10
111.7699632718
 20
91.7744988332
  0
VERTEX
  8
0
 62
7
  6
CONTINUOUS
 10
111.8614271976
 20
91.8225259511
  0
VERTEX
  8
0
 62
7
  6
CONTINUOUS
 10
111.9530344203
 20
91.8846356018
  0
VERTEX
  8
0
 62
7
  6
CONTINUOUS
 10
112.0443252879
 20
91.9683645266
  0
VERTEX
  8
0
 62
7
  6
CONTINUOUS
 10
112.1278131955
 20
92.0790099378
  0
VERTEX
  8
0
 62
7
  6
CONTINUOUS
 10
112.1907569189
 20
92.2139996033
  0
VERTEX
  8
0
 62
7
  6
CONTINUOUS
 10
112.2228990748
 20
92.3618343926
  0
VERTEX
  8
0
 62
7
  6
CONTINUOUS
 10
112.2265294075
 20
92.4327485351
  0
SEQEND
  0
LINE
  8
0
 62
7
  6
CONTINUOUS
 10
110.7562350785
 20
91.5303914882
 11
110.8609606232
 21
91.5462938625
  0
POLYLINE
  8
0
 62
7
  6
CONTINUOUS
 66
1
 70
0
  0
VERTEX
  8
0
 62
7
  6
CONTINUOUS
 10
106.5691533943
 20
90.4741492084
  0
VERTEX
  8
0
 62
7
  6
CONTINUOUS
 10
107.1174447767
 20
90.5455264634
  0
VERTEX
  8
0
 62
7
  6
CONTINUOUS
 10
107.7174261921
 20
90.6401759248
  0
VERTEX
  8
0
 62
7
  6
CONTINUOUS
 10
108.3002131566
 20
90.7507865297
  0
VERTEX
  8
0
 62
7
  6
CONTINUOUS
 10
108.8607988229
 20
90.8774004158
  0
VERTEX
  8
0
 62
7
  6
CONTINUOUS
 10
109.3943465012
 20
91.0200331702
  0
VERTEX
  8
0
 62
7
  6
CONTINUOUS
 10
109.8961968792
 20
91.1787310945
  0
VERTEX
  8
0
 62
7
  6
CONTINUOUS
 10
110.3620474846
 20
91.3537248761
  0
SEQEND
  0
LINE
  8
0
 62
7
  6
CONTINUOUS
 10
106.5691475286
 20
90.474149238
 11
106.5681276169
 21
90.4740899361
  0
LINE
  8
0
 62
7
  6
CONTINUOUS
 10
110.8609606232
 20
80.8315496901
 11
110.7562350782
 21
80.8474520645
  0
POLYLINE
  8
0
 62
7
  6
CONTINUOUS
 66
1
 70
0
  0
VERTEX
  8
0
 62
7
  6
CONTINUOUS
 10
45.8877627797
 20
99.9344526024
  0
VERTEX
  8
0
 62
7
  6
CONTINUOUS
 10
46.2887120014
 20
99.7546693272
  0
VERTEX
  8
0
 62
7
  6
CONTINUOUS
 10
46.7543250423
 20
99.5796047891
  0
VERTEX
  8
0
 62
7
  6
CONTINUOUS
 10
47.2559495227
 20
99.4208363872
  0
VERTEX
  8
0
 62
7
  6
CONTINUOUS
 10
47.7892857249
 20
99.2781316414
  0
VERTEX
  8
0
 62
7
  6
CONTINUOUS
 10
48.3496767467
 20
99.1514434078
  0
VERTEX
  8
0
 62
7
  6
CONTINUOUS
 10
48.9322875522
 20
99.0407558768
  0
VERTEX
  8
0
 62
7
  6
CONTINUOUS
 10
49.5321124791
 20
98.9460270255
  0
VERTEX
  8
0
 62
7
  6
CONTINUOUS
 10
50.0839056005
 20
98.8741492117
  0
SEQEND
  0
POLYLINE
  8
0
 62
7
  6
CONTINUOUS
 66
1
 70
0
  0
VERTEX
  8
0
 62
7
  6
CONTINUOUS
 10
44.426529615
 20
67.2327481564
  0
VERTEX
  8
0
 62
7
  6
CONTINUOUS
 10
44.4301477299
 20
67.1619530053
  0
VERTEX
  8
0
 62
7
  6
CONTINUOUS
 10
44.4622242754
 20
67.0142299674
  0
VERTEX
  8
0
 62
7
  6
CONTINUOUS
 10
44.5250643809
 20
66.879308601
  0
VERTEX
  8
0
 62
7
  6
CONTINUOUS
 10
44.60844796
 20
66.7686745966
  0
VERTEX
  8
0
 62
7
  6
CONTINUOUS
 10
44.699659522
 20
66.6849199876
  0
VERTEX
  8
0
 62
7
  6
CONTINUOUS
 10
44.7912027148
 20
66.6227797363
  0
VERTEX
  8
0
 62
7
  6
CONTINUOUS
 10
44.8825969251
 20
66.5747320378
  0
VERTEX
  8
0
 62
7
  6
CONTINUOUS
 10
44.9767106312
 20
66.5350395909
  0
VERTEX
  8
0
 62
7
  6
CONTINUOUS
 10
45.0774435801
 20
66.5000249598
  0
VERTEX
  8
0
 62
7
  6
CONTINUOUS
 10
45.1888793104
 20
66.4674484554
  0
VERTEX
  8
0
 62
7
  6
CONTINUOUS
 10
45.314695698
 20
66.4360497888
  0
VERTEX
  8
0
 62
7
  6
CONTINUOUS
 10
45.4583000433
 20
66.4051137373
  0
VERTEX
  8
0
 62
7
  6
CONTINUOUS
 10
45.6230636563
 20
66.3742226932
  0
VERTEX
  8
0
 62
7
  6
CONTINUOUS
 10
45.7921057868
 20
66.3462927109
  0
SEQEND
  0
POLYLINE
  8
0
 62
7
  6
CONTINUOUS
 66
1
 70
0
  0
VERTEX
  8
0
 62
7
  6
CONTINUOUS
 10
44.426529615
 20
84.032748157
  0
VERTEX
  8
0
 62
7
  6
CONTINUOUS
 10
44.4301477481
 20
83.9619528293
  0
VERTEX
  8
0
 62
7
  6
CONTINUOUS
 10
44.4622243532
 20
83.814229737
  0
VERTEX
  8
0
 62
7
  6
CONTINUOUS
 10
44.5250644911
 20
83.6793084194
  0
VERTEX
  8
0
 62
7
  6
CONTINUOUS
 10
44.6084480274
 20
83.5686745234
  0
VERTEX
  8
0
 62
7
  6
CONTINUOUS
 10
44.6996595222
 20
83.4849199874
  0
VERTEX
  8
0
 62
7
  6
CONTINUOUS
 10
44.7912026227
 20
83.4227797907
  0
VERTEX
  8
0
 62
7
  6
CONTINUOUS
 10
44.8825967465
 20
83.3747321214
  0
VERTEX
  8
0
 62
7
  6
CONTINUOUS
 10
44.9767103946
 20
83.3350396811
  0
VERTEX
  8
0
 62
7
  6
CONTINUOUS
 10
45.077443295
 20
83.3000250504
  0
VERTEX
  8
0
 62
7
  6
CONTINUOUS
 10
45.1888789912
 20
83.2674485415
  0
VERTEX
  8
0
 62
7
  6
CONTINUOUS
 10
45.3146953731
 20
83.2360498641
  0
VERTEX
  8
0
 62
7
  6
CONTINUOUS
 10
45.4582997582
 20
83.2051137946
  0
VERTEX
  8
0
 62
7
  6
CONTINUOUS
 10
45.6230634759
 20
83.1742227248
  0
VERTEX
  8
0
 62
7
  6
CONTINUOUS
 10
45.7921057868
 20
83.1462927109
  0
SEQEND
  0
LINE
  8
0
 62
7
  6
CONTINUOUS
 10
110.3620474846
 20
192.1537248761
 11
110.7652941172
 21
192.3344515593
  0
POLYLINE
  8
0
 62
7
  6
CONTINUOUS
 66
1
 70
0
  0
VERTEX
  8
0
 62
7
  6
CONTINUOUS
 10
45.7921057352
 20
89.2315508337
  0
VERTEX
  8
0
 62
7
  6
CONTINUOUS
 10
45.6233106818
 20
89.2036641879
  0
VERTEX
  8
0
 62
7
  6
CONTINUOUS
 10
45.4587504654
 20
89.1728202865
  0
VERTEX
  8
0
 62
7
  6
CONTINUOUS
 10
45.3153121889
 20
89.1419365357
  0
VERTEX
  8
0
 62
7
  6
CONTINUOUS
 10
45.1896338884
 20
89.1105984891
  0
VERTEX
  8
0
 62
7
  6
CONTINUOUS
 10
45.0783202181
 20
89.0780971038
  0
VERTEX
  8
0
 62
7
  6
CONTINUOUS
 10
44.9777105966
 20
89.043184801
  0
VERTEX
  8
0
 62
7
  6
CONTINUOUS
 10
44.8837457255
 20
89.0036481737
  0
VERTEX
  8
0
 62
7
  6
CONTINUOUS
 10
44.7925499445
 20
88.9558595825
  0
VERTEX
  8
0
 62
7
  6
CONTINUOUS
 10
44.7012377681
 20
88.8941505392
  0
VERTEX
  8
0
 62
7
  6
CONTINUOUS
 10
44.6101900142
 20
88.8110534719
  0
VERTEX
  8
0
 62
7
  6
CONTINUOUS
 10
44.5267204551
 20
88.7012482068
  0
VERTEX
  8
0
 62
7
  6
CONTINUOUS
 10
44.4634101479
 20
88.5670944247
  0
VERTEX
  8
0
 62
7
  6
CONTINUOUS
 10
44.4305666725
 20
88.4198481694
  0
VERTEX
  8
0
 62
7
  6
CONTINUOUS
 10
44.4265296184
 20
88.3450924637
  0
SEQEND
  0
LINE
  8
0
 62
7
  6
CONTINUOUS
 10
45.8968248719
 20
89.247454339
 11
45.7920975299
 21
89.2315495545
  0
POLYLINE
  8
0
 62
7
  6
CONTINUOUS
 66
1
 70
0
  0
VERTEX
  8
0
 62
7
  6
CONTINUOUS
 10
50.0839056005
 20
90.3036943408
  0
VERTEX
  8
0
 62
7
  6
CONTINUOUS
 10
49.5321124791
 20
90.2318165271
  0
VERTEX
  8
0
 62
7
  6
CONTINUOUS
 10
48.9322875522
 20
90.1370876758
  0
VERTEX
  8
0
 62
7
  6
CONTINUOUS
 10
48.3496767467
 20
90.0264001448
  0
VERTEX
  8
0
 62
7
  6
CONTINUOUS
 10
47.7892857249
 20
89.8997119112
  0
VERTEX
  8
0
 62
7
  6
CONTINUOUS
 10
47.2559495227
 20
89.7570071654
  0
VERTEX
  8
0
 62
7
  6
CONTINUOUS
 10
46.7543250423
 20
89.5982387635
  0
VERTEX
  8
0
 62
7
  6
CONTINUOUS
 10
46.2887120014
 20
89.4231742253
  0
SEQEND
  0
LINE
  8
0
 62
7
  6
CONTINUOUS
 10
50.0839114662
 20
90.3036943113
 11
50.084931406
 21
90.3037536165
  0
POLYLINE
  8
0
 62
7
  6
CONTINUOUS
 66
1
 70
0
  0
VERTEX
  8
0
 62
7
  6
CONTINUOUS
 10
56.2095311521
 20
90.2967911144
  0
VERTEX
  8
0
 62
7
  6
CONTINUOUS
 10
55.9160671663
 20
90.3007555909
  0
VERTEX
  8
0
 62
7
  6
CONTINUOUS
 10
55.6330549648
 20
90.3031973348
  0
VERTEX
  8
0
 62
7
  6
CONTINUOUS
 10
50.0849934175
 20
90.3037536194
  0
SEQEND
  0
POLYLINE
  8
0
 62
7
  6
CONTINUOUS
 66
1
 70
0
  0
VERTEX
  8
0
 62
7
  6
CONTINUOUS
 10
100.4471566966
 20
90.4810190553
  0
VERTEX
  8
0
 62
7
  6
CONTINUOUS
 10
100.7409557938
 20
90.4770415001
  0
VERTEX
  8
0
 62
7
  6
CONTINUOUS
 10
101.0239774543
 20
90.4746255257
  0
VERTEX
  8
0
 62
7
  6
CONTINUOUS
 10
106.5680656055
 20
90.4740899331
  0
SEQEND
  0
LINE
  8
0
 62
7
  6
CONTINUOUS
 10
45.7920975299
 20
99.9462939981
 11
45.8968248719
 21
99.9303892136
  0
POLYLINE
  8
0
 62
7
  6
CONTINUOUS
 66
1
 70
0
  0
VERTEX
  8
0
 62
7
  6
CONTINUOUS
 10
106.5691432729
 20
65.1036942933
  0
VERTEX
  8
0
 62
7
  6
CONTINUOUS
 10
106.5777401709
 20
65.097882593
  0
VERTEX
  8
0
 62
7
  6
CONTINUOUS
 10
106.5865334893
 20
65.07879584
  0
VERTEX
  8
0
 62
7
  6
CONTINUOUS
 10
106.5932619321
 20
65.0475945929
  0
VERTEX
  8
0
 62
7
  6
CONTINUOUS
 10
106.5975816354
 20
65.006276047
  0
VERTEX
  8
0
 62
7
  6
CONTINUOUS
 10
106.5993705221
 20
64.9575797009
  0
VERTEX
  8
0
 62
7
  6
CONTINUOUS
 10
106.5988108347
 20
64.9037536194
  0
SEQEND
  0
POLYLINE
  8
0
 62
7
  6
CONTINUOUS
 66
1
 70
0
  0
VERTEX
  8
0
 62
7
  6
CONTINUOUS
 10
44.426529615
 20
100.832748157
  0
VERTEX
  8
0
 62
7
  6
CONTINUOUS
 10
44.4301477481
 20
100.7619528293
  0
VERTEX
  8
0
 62
7
  6
CONTINUOUS
 10
44.4622243532
 20
100.614229737
  0
VERTEX
  8
0
 62
7
  6
CONTINUOUS
 10
44.5250644911
 20
100.4793084194
  0
VERTEX
  8
0
 62
7
  6
CONTINUOUS
 10
44.6084480274
 20
100.3686745234
  0
VERTEX
  8
0
 62
7
  6
CONTINUOUS
 10
44.6996595222
 20
100.2849199874
  0
VERTEX
  8
0
 62
7
  6
CONTINUOUS
 10
44.7912026227
 20
100.2227797907
  0
VERTEX
  8
0
 62
7
  6
CONTINUOUS
 10
44.8825967465
 20
100.1747321214
  0
VERTEX
  8
0
 62
7
  6
CONTINUOUS
 10
44.9767103946
 20
100.1350396811
  0
VERTEX
  8
0
 62
7
  6
CONTINUOUS
 10
45.077443295
 20
100.1000250504
  0
VERTEX
  8
0
 62
7
  6
CONTINUOUS
 10
45.1888789912
 20
100.0674485415
  0
VERTEX
  8
0
 62
7
  6
CONTINUOUS
 10
45.3146953731
 20
100.0360498641
  0
VERTEX
  8
0
 62
7
  6
CONTINUOUS
 10
45.4582997582
 20
100.0051137946
  0
VERTEX
  8
0
 62
7
  6
CONTINUOUS
 10
45.6230634759
 20
99.9742227248
  0
VERTEX
  8
0
 62
7
  6
CONTINUOUS
 10
45.7921057868
 20
99.9462927109
  0
SEQEND
  0
POLYLINE
  8
0
 62
7
  6
CONTINUOUS
 66
1
 70
0
  0
VERTEX
  8
0
 62
7
  6
CONTINUOUS
 10
44.426529615
 20
117.632748157
  0
VERTEX
  8
0
 62
7
  6
CONTINUOUS
 10
44.4301477481
 20
117.5619528293
  0
VERTEX
  8
0
 62
7
  6
CONTINUOUS
 10
44.4622243532
 20
117.414229737
  0
VERTEX
  8
0
 62
7
  6
CONTINUOUS
 10
44.5250644911
 20
117.2793084194
  0
VERTEX
  8
0
 62
7
  6
CONTINUOUS
 10
44.6084480274
 20
117.1686745234
  0
VERTEX
  8
0
 62
7
  6
CONTINUOUS
 10
44.6996595222
 20
117.0849199874
  0
VERTEX
  8
0
 62
7
  6
CONTINUOUS
 10
44.7912026227
 20
117.0227797907
  0
VERTEX
  8
0
 62
7
  6
CONTINUOUS
 10
44.8825967465
 20
116.9747321214
  0
VERTEX
  8
0
 62
7
  6
CONTINUOUS
 10
44.9767103946
 20
116.9350396811
  0
VERTEX
  8
0
 62
7
  6
CONTINUOUS
 10
45.077443295
 20
116.9000250504
  0
VERTEX
  8
0
 62
7
  6
CONTINUOUS
 10
45.1888789912
 20
116.8674485415
  0
VERTEX
  8
0
 62
7
  6
CONTINUOUS
 10
45.3146953731
 20
116.8360498641
  0
VERTEX
  8
0
 62
7
  6
CONTINUOUS
 10
45.4582997582
 20
116.8051137946
  0
VERTEX
  8
0
 62
7
  6
CONTINUOUS
 10
45.6230634759
 20
116.7742227248
  0
VERTEX
  8
0
 62
7
  6
CONTINUOUS
 10
45.7921057868
 20
116.7462927109
  0
SEQEND
  0
POLYLINE
  8
0
 62
7
  6
CONTINUOUS
 66
1
 70
0
  0
VERTEX
  8
0
 62
7
  6
CONTINUOUS
 10
44.426529615
 20
134.432748157
  0
VERTEX
  8
0
 62
7
  6
CONTINUOUS
 10
44.4301477481
 20
134.3619528293
  0
VERTEX
  8
0
 62
7
  6
CONTINUOUS
 10
44.4622243532
 20
134.214229737
  0
VERTEX
  8
0
 62
7
  6
CONTINUOUS
 10
44.5250644911
 20
134.0793084194
  0
VERTEX
  8
0
 62
7
  6
CONTINUOUS
 10
44.6084480274
 20
133.9686745234
  0
VERTEX
  8
0
 62
7
  6
CONTINUOUS
 10
44.6996595222
 20
133.8849199874
  0
VERTEX
  8
0
 62
7
  6
CONTINUOUS
 10
44.7912026227
 20
133.8227797907
  0
VERTEX
  8
0
 62
7
  6
CONTINUOUS
 10
44.8825967465
 20
133.7747321214
  0
VERTEX
  8
0
 62
7
  6
CONTINUOUS
 10
44.9767103946
 20
133.7350396811
  0
VERTEX
  8
0
 62
7
  6
CONTINUOUS
 10
45.077443295
 20
133.7000250504
  0
VERTEX
  8
0
 62
7
  6
CONTINUOUS
 10
45.1888789912
 20
133.6674485415
  0
VERTEX
  8
0
 62
7
  6
CONTINUOUS
 10
45.3146953731
 20
133.6360498641
  0
VERTEX
  8
0
 62
7
  6
CONTINUOUS
 10
45.4582997582
 20
133.6051137946
  0
VERTEX
  8
0
 62
7
  6
CONTINUOUS
 10
45.6230634759
 20
133.5742227248
  0
VERTEX
  8
0
 62
7
  6
CONTINUOUS
 10
45.7921057868
 20
133.5462927109
  0
SEQEND
  0
POLYLINE
  8
0
 62
7
  6
CONTINUOUS
 66
1
 70
0
  0
VERTEX
  8
0
 62
7
  6
CONTINUOUS
 10
44.426529615
 20
151.232748157
  0
VERTEX
  8
0
 62
7
  6
CONTINUOUS
 10
44.4301477481
 20
151.1619528293
  0
VERTEX
  8
0
 62
7
  6
CONTINUOUS
 10
44.4622243532
 20
151.014229737
  0
VERTEX
  8
0
 62
7
  6
CONTINUOUS
 10
44.5250644911
 20
150.8793084194
  0
VERTEX
  8
0
 62
7
  6
CONTINUOUS
 10
44.6084480274
 20
150.7686745234
  0
VERTEX
  8
0
 62
7
  6
CONTINUOUS
 10
44.6996595222
 20
150.6849199874
  0
VERTEX
  8
0
 62
7
  6
CONTINUOUS
 10
44.7912026227
 20
150.6227797907
  0
VERTEX
  8
0
 62
7
  6
CONTINUOUS
 10
44.8825967465
 20
150.5747321214
  0
VERTEX
  8
0
 62
7
  6
CONTINUOUS
 10
44.9767103946
 20
150.5350396811
  0
VERTEX
  8
0
 62
7
  6
CONTINUOUS
 10
45.077443295
 20
150.5000250504
  0
VERTEX
  8
0
 62
7
  6
CONTINUOUS
 10
45.1888789912
 20
150.4674485415
  0
VERTEX
  8
0
 62
7
  6
CONTINUOUS
 10
45.3146953731
 20
150.4360498641
  0
VERTEX
  8
0
 62
7
  6
CONTINUOUS
 10
45.4582997582
 20
150.4051137946
  0
VERTEX
  8
0
 62
7
  6
CONTINUOUS
 10
45.6230634759
 20
150.3742227248
  0
VERTEX
  8
0
 62
7
  6
CONTINUOUS
 10
45.7921057868
 20
150.3462927109
  0
SEQEND
  0
POLYLINE
  8
0
 62
7
  6
CONTINUOUS
 66
1
 70
0
  0
VERTEX
  8
0
 62
7
  6
CONTINUOUS
 10
44.426529615
 20
168.032748157
  0
VERTEX
  8
0
 62
7
  6
CONTINUOUS
 10
44.4301477481
 20
167.9619528293
  0
VERTEX
  8
0
 62
7
  6
CONTINUOUS
 10
44.4622243532
 20
167.814229737
  0
VERTEX
  8
0
 62
7
  6
CONTINUOUS
 10
44.5250644911
 20
167.6793084194
  0
VERTEX
  8
0
 62
7
  6
CONTINUOUS
 10
44.6084480274
 20
167.5686745234
  0
VERTEX
  8
0
 62
7
  6
CONTINUOUS
 10
44.6996595222
 20
167.4849199874
  0
VERTEX
  8
0
 62
7
  6
CONTINUOUS
 10
44.7912026227
 20
167.4227797907
  0
VERTEX
  8
0
 62
7
  6
CONTINUOUS
 10
44.8825967465
 20
167.3747321214
  0
VERTEX
  8
0
 62
7
  6
CONTINUOUS
 10
44.9767103946
 20
167.3350396811
  0
VERTEX
  8
0
 62
7
  6
CONTINUOUS
 10
45.077443295
 20
167.3000250504
  0
VERTEX
  8
0
 62
7
  6
CONTINUOUS
 10
45.1888789912
 20
167.2674485415
  0
VERTEX
  8
0
 62
7
  6
CONTINUOUS
 10
45.3146953731
 20
167.2360498641
  0
VERTEX
  8
0
 62
7
  6
CONTINUOUS
 10
45.4582997582
 20
167.2051137946
  0
VERTEX
  8
0
 62
7
  6
CONTINUOUS
 10
45.6230634759
 20
167.1742227248
  0
VERTEX
  8
0
 62
7
  6
CONTINUOUS
 10
45.7921057868
 20
167.1462927109
  0
SEQEND
  0
POLYLINE
  8
0
 62
7
  6
CONTINUOUS
 66
1
 70
0
  0
VERTEX
  8
0
 62
7
  6
CONTINUOUS
 10
44.426529615
 20
184.832748157
  0
VERTEX
  8
0
 62
7
  6
CONTINUOUS
 10
44.4301477481
 20
184.7619528293
  0
VERTEX
  8
0
 62
7
  6
CONTINUOUS
 10
44.4622243532
 20
184.614229737
  0
VERTEX
  8
0
 62
7
  6
CONTINUOUS
 10
44.5250644911
 20
184.4793084194
  0
VERTEX
  8
0
 62
7
  6
CONTINUOUS
 10
44.6084480274
 20
184.3686745234
  0
VERTEX
  8
0
 62
7
  6
CONTINUOUS
 10
44.6996595222
 20
184.2849199874
  0
VERTEX
  8
0
 62
7
  6
CONTINUOUS
 10
44.7912026227
 20
184.2227797907
  0
VERTEX
  8
0
 62
7
  6
CONTINUOUS
 10
44.8825967465
 20
184.1747321214
  0
VERTEX
  8
0
 62
7
  6
CONTINUOUS
 10
44.9767103946
 20
184.1350396811
  0
VERTEX
  8
0
 62
7
  6
CONTINUOUS
 10
45.077443295
 20
184.1000250504
  0
VERTEX
  8
0
 62
7
  6
CONTINUOUS
 10
45.1888789912
 20
184.0674485415
  0
VERTEX
  8
0
 62
7
  6
CONTINUOUS
 10
45.3146953731
 20
184.0360498641
  0
VERTEX
  8
0
 62
7
  6
CONTINUOUS
 10
45.4582997582
 20
184.0051137946
  0
VERTEX
  8
0
 62
7
  6
CONTINUOUS
 10
45.6230634759
 20
183.9742227248
  0
VERTEX
  8
0
 62
7
  6
CONTINUOUS
 10
45.7921057868
 20
183.9462927109
  0
SEQEND
  0
POLYLINE
  8
0
 62
7
  6
CONTINUOUS
 66
1
 70
0
  0
VERTEX
  8
0
 62
7
  6
CONTINUOUS
 10
44.4265296021
 20
201.6327366566
  0
VERTEX
  8
0
 62
7
  6
CONTINUOUS
 10
44.4293576357
 20
201.5701076541
  0
VERTEX
  8
0
 62
7
  6
CONTINUOUS
 10
44.4606626057
 20
201.4189114351
  0
VERTEX
  8
0
 62
7
  6
CONTINUOUS
 10
44.5261946418
 20
201.2774537525
  0
VERTEX
  8
0
 62
7
  6
CONTINUOUS
 10
44.6164768731
 20
201.160099146
  0
VERTEX
  8
0
 62
7
  6
CONTINUOUS
 10
44.7175494077
 20
201.0713709125
  0
VERTEX
  8
0
 62
7
  6
CONTINUOUS
 10
44.8202877465
 20
201.0062346457
  0
VERTEX
  8
0
 62
7
  6
CONTINUOUS
 10
44.9248424971
 20
200.9559043894
  0
VERTEX
  8
0
 62
7
  6
CONTINUOUS
 10
45.0356992675
 20
200.91377264
  0
VERTEX
  8
0
 62
7
  6
CONTINUOUS
 10
45.1574269503
 20
200.8761145655
  0
VERTEX
  8
0
 62
7
  6
CONTINUOUS
 10
45.2935835619
 20
200.840998269
  0
VERTEX
  8
0
 62
7
  6
CONTINUOUS
 10
45.447120628
 20
200.8073710992
  0
VERTEX
  8
0
 62
7
  6
CONTINUOUS
 10
45.6197845469
 20
200.7747986176
  0
VERTEX
  8
0
 62
7
  6
CONTINUOUS
 10
45.7921120571
 20
200.7462917335
  0
SEQEND
  0
LINE
  8
0
 62
7
  6
CONTINUOUS
 10
44.4265295115
 20
67.2326287808
 11
44.4265295115
 21
71.5452108309
  0
LINE
  8
0
 62
7
  6
CONTINUOUS
 10
44.4265295115
 20
84.0326327216
 11
44.4265295115
 21
88.3452108309
  0
LINE
  8
0
 62
7
  6
CONTINUOUS
 10
44.4265295115
 20
100.8326327216
 11
44.4265295115
 21
105.1452108309
  0
LINE
  8
0
 62
7
  6
CONTINUOUS
 10
44.4265295115
 20
117.6326327216
 11
44.4265295115
 21
121.9452108309
  0
LINE
  8
0
 62
7
  6
CONTINUOUS
 10
44.4265295115
 20
134.4326327216
 11
44.4265295115
 21
138.7452108309
  0
LINE
  8
0
 62
7
  6
CONTINUOUS
 10
44.4265295115
 20
151.2326327216
 11
44.4265295115
 21
155.5452108309
  0
LINE
  8
0
 62
7
  6
CONTINUOUS
 10
44.4265295115
 20
168.0326327216
 11
44.4265295115
 21
172.3452108309
  0
LINE
  8
0
 62
7
  6
CONTINUOUS
 10
44.4265295115
 20
184.8326327216
 11
44.4265295115
 21
189.1452108309
  0
LINE
  8
0
 62
7
  6
CONTINUOUS
 10
44.4265295115
 20
201.632625685
 11
44.4265295115
 21
207.6889028642
  0
LINE
  8
0
 62
7
  6
CONTINUOUS
 10
46.2887120014
 20
156.6231742253
 11
45.8877627797
 21
156.4433909501
  0
POLYLINE
  8
0
 62
7
  6
CONTINUOUS
 66
1
 70
0
  0
VERTEX
  8
0
 62
7
  6
CONTINUOUS
 10
55.9121032798
 20
98.8770414999
  0
VERTEX
  8
0
 62
7
  6
CONTINUOUS
 10
56.2054253987
 20
98.8810144768
  0
VERTEX
  8
0
 62
7
  6
CONTINUOUS
 10
56.2850189418
 20
98.8811408003
  0
VERTEX
  8
0
 62
7
  6
CONTINUOUS
 10
56.364081603
 20
98.8798621209
  0
VERTEX
  8
0
 62
7
  6
CONTINUOUS
 10
56.4423333272
 20
98.876975644
  0
VERTEX
  8
0
 62
7
  6
CONTINUOUS
 10
56.5195515712
 20
98.872260242
  0
VERTEX
  8
0
 62
7
  6
CONTINUOUS
 10
56.5955166201
 20
98.8655173215
  0
VERTEX
  8
0
 62
7
  6
CONTINUOUS
 10
56.6697957648
 20
98.8565709753
  0
VERTEX
  8
0
 62
7
  6
CONTINUOUS
 10
56.7418807631
 20
98.8452514581
  0
VERTEX
  8
0
 62
7
  6
CONTINUOUS
 10
56.811985432
 20
98.8313600589
  0
VERTEX
  8
0
 62
7
  6
CONTINUOUS
 10
56.8796355841
 20
98.814660183
  0
VERTEX
  8
0
 62
7
  6
CONTINUOUS
 10
56.9437037684
 20
98.7949456411
  0
VERTEX
  8
0
 62
7
  6
CONTINUOUS
 10
57.0031935934
 20
98.7715989636
  0
VERTEX
  8
0
 62
7
  6
CONTINUOUS
 10
57.0584625423
 20
98.7441305404
  0
VERTEX
  8
0
 62
7
  6
CONTINUOUS
 10
57.1079070716
 20
98.7131156638
  0
VERTEX
  8
0
 62
7
  6
CONTINUOUS
 10
57.1500860445
 20
98.6796729778
  0
VERTEX
  8
0
 62
7
  6
CONTINUOUS
 10
57.1853603363
 20
98.6438030865
  0
VERTEX
  8
0
 62
7
  6
CONTINUOUS
 10
57.2136561478
 20
98.6054829111
  0
VERTEX
  8
0
 62
7
  6
CONTINUOUS
 10
57.2343662534
 20
98.5646519106
  0
VERTEX
  8
0
 62
7
  6
CONTINUOUS
 10
57.2459545154
 20
98.5218550879
  0
VERTEX
  8
0
 62
7
  6
CONTINUOUS
 10
57.2477210256
 20
98.4984852896
  0
SEQEND
  0
POLYLINE
  8
0
 62
7
  6
CONTINUOUS
 66
1
 70
0
  0
VERTEX
  8
0
 62
7
  6
CONTINUOUS
 10
100.7369880132
 20
98.700755188
  0
VERTEX
  8
0
 62
7
  6
CONTINUOUS
 10
100.4429562422
 20
98.696785467
  0
VERTEX
  8
0
 62
7
  6
CONTINUOUS
 10
100.3630870692
 20
98.6967388006
  0
VERTEX
  8
0
 62
7
  6
CONTINUOUS
 10
100.283911606
 20
98.6981155652
  0
VERTEX
  8
0
 62
7
  6
CONTINUOUS
 10
100.2056896322
 20
98.7011146747
  0
VERTEX
  8
0
 62
7
  6
CONTINUOUS
 10
100.1286185127
 20
98.7059502445
  0
VERTEX
  8
0
 62
7
  6
CONTINUOUS
 10
100.0529053401
 20
98.7128113742
  0
VERTEX
  8
0
 62
7
  6
CONTINUOUS
 10
99.9789780712
 20
98.7218672726
  0
VERTEX
  8
0
 62
7
  6
CONTINUOUS
 10
99.907282895
 20
98.7332829284
  0
VERTEX
  8
0
 62
7
  6
CONTINUOUS
 10
99.8376838729
 20
98.7472389045
  0
VERTEX
  8
0
 62
7
  6
CONTINUOUS
 10
99.7704482868
 20
98.764006659
  0
VERTEX
  8
0
 62
7
  6
CONTINUOUS
 10
99.7070192459
 20
98.7837088109
  0
VERTEX
  8
0
 62
7
  6
CONTINUOUS
 10
99.6480243535
 20
98.8070602089
  0
VERTEX
  8
0
 62
7
  6
CONTINUOUS
 10
99.5932543485
 20
98.8344630925
  0
VERTEX
  8
0
 62
7
  6
CONTINUOUS
 10
99.5443230811
 20
98.8653122263
  0
VERTEX
  8
0
 62
7
  6
CONTINUOUS
 10
99.5022967183
 20
98.8987762292
  0
VERTEX
  8
0
 62
7
  6
CONTINUOUS
 10
99.4669530436
 20
98.9349114312
  0
VERTEX
  8
0
 62
7
  6
CONTINUOUS
 10
99.4385879002
 20
98.9736746728
  0
VERTEX
  8
0
 62
7
  6
CONTINUOUS
 10
99.4180116025
 20
99.0149482725
  0
VERTEX
  8
0
 62
7
  6
CONTINUOUS
 10
99.4068285754
 20
99.0579456087
  0
VERTEX
  8
0
 62
7
  6
CONTINUOUS
 10
99.4053385631
 20
99.0791845119
  0
SEQEND
  0
LINE
  8
0
 62
7
  6
CONTINUOUS
 10
101.0200021822
 20
98.7031972426
 11
100.7369880132
 21
98.700755188
  0
LINE
  8
0
 62
7
  6
CONTINUOUS
 10
55.6290815431
 20
98.8746255255
 11
55.9121032798
 21
98.8770414999
  0
LINE
  8
0
 62
7
  6
CONTINUOUS
 10
101.0200021822
 20
98.7031972426
 11
106.5681031228
 21
98.7037536194
  0
LINE
  8
0
 62
7
  6
CONTINUOUS
 10
50.0849934175
 20
98.8740899331
 11
55.6290815431
 21
98.8746255255
  0
LINE
  8
0
 62
7
  6
CONTINUOUS
 10
50.0839114662
 20
98.8741492413
 11
50.084931406
 21
98.8740899361
  0
LINE
  8
0
 62
7
  6
CONTINUOUS
 10
106.5681352358
 20
98.7037536194
 11
106.5691432729
 21
98.7036942933
  0
POLYLINE
  8
0
 62
7
  6
CONTINUOUS
 66
1
 70
0
  0
VERTEX
  8
0
 62
7
  6
CONTINUOUS
 10
110.7652941172
 20
80.8433919933
  0
VERTEX
  8
0
 62
7
  6
CONTINUOUS
 10
110.3620473777
 20
81.0241187204
  0
VERTEX
  8
0
 62
7
  6
CONTINUOUS
 10
109.8961966465
 20
81.1991125382
  0
VERTEX
  8
0
 62
7
  6
CONTINUOUS
 10
109.3943461264
 20
81.3578104913
  0
VERTEX
  8
0
 62
7
  6
CONTINUOUS
 10
108.860798293
 20
81.5004432669
  0
VERTEX
  8
0
 62
7
  6
CONTINUOUS
 10
108.3002124621
 20
81.6270571668
  0
VERTEX
  8
0
 62
7
  6
CONTINUOUS
 10
107.7174253271
 20
81.7376677776
  0
VERTEX
  8
0
 62
7
  6
CONTINUOUS
 10
107.1174437388
 20
81.8323172374
  0
VERTEX
  8
0
 62
7
  6
CONTINUOUS
 10
106.5691533943
 20
81.9036943442
  0
SEQEND
  0
POLYLINE
  8
0
 62
7
  6
CONTINUOUS
 66
1
 70
0
  0
VERTEX
  8
0
 62
7
  6
CONTINUOUS
 10
50.0542481882
 20
73.3037536194
  0
VERTEX
  8
0
 62
7
  6
CONTINUOUS
 10
50.0536362355
 20
73.3507822914
  0
VERTEX
  8
0
 62
7
  6
CONTINUOUS
 10
50.0547752564
 20
73.3943046324
  0
VERTEX
  8
0
 62
7
  6
CONTINUOUS
 10
50.0578602291
 20
73.4329560811
  0
VERTEX
  8
0
 62
7
  6
CONTINUOUS
 10
50.0628773635
 20
73.4646045046
  0
VERTEX
  8
0
 62
7
  6
CONTINUOUS
 10
50.0696473793
 20
73.4875550188
  0
VERTEX
  8
0
 62
7
  6
CONTINUOUS
 10
50.077862053
 20
73.5006807006
  0
VERTEX
  8
0
 62
7
  6
CONTINUOUS
 10
50.0839114662
 20
73.5036943113
  0
SEQEND
  0
POLYLINE
  8
0
 62
7
  6
CONTINUOUS
 66
1
 70
0
  0
VERTEX
  8
0
 62
7
  6
CONTINUOUS
 10
50.0542481882
 20
90.1037536194
  0
VERTEX
  8
0
 62
7
  6
CONTINUOUS
 10
50.0536362355
 20
90.1507822914
  0
VERTEX
  8
0
 62
7
  6
CONTINUOUS
 10
50.0547752564
 20
90.1943046324
  0
VERTEX
  8
0
 62
7
  6
CONTINUOUS
 10
50.0578602291
 20
90.2329560811
  0
VERTEX
  8
0
 62
7
  6
CONTINUOUS
 10
50.0628773635
 20
90.2646045046
  0
VERTEX
  8
0
 62
7
  6
CONTINUOUS
 10
50.0696473793
 20
90.2875550188
  0
VERTEX
  8
0
 62
7
  6
CONTINUOUS
 10
50.077862053
 20
90.3006807006
  0
VERTEX
  8
0
 62
7
  6
CONTINUOUS
 10
50.0839114662
 20
90.3036943113
  0
SEQEND
  0
POLYLINE
  8
0
 62
7
  6
CONTINUOUS
 66
1
 70
0
  0
VERTEX
  8
0
 62
7
  6
CONTINUOUS
 10
50.0542481882
 20
106.9037536194
  0
VERTEX
  8
0
 62
7
  6
CONTINUOUS
 10
50.0536362355
 20
106.9507822914
  0
VERTEX
  8
0
 62
7
  6
CONTINUOUS
 10
50.0547752564
 20
106.9943046324
  0
VERTEX
  8
0
 62
7
  6
CONTINUOUS
 10
50.0578602291
 20
107.0329560811
  0
VERTEX
  8
0
 62
7
  6
CONTINUOUS
 10
50.0628773635
 20
107.0646045046
  0
VERTEX
  8
0
 62
7
  6
CONTINUOUS
 10
50.0696473793
 20
107.0875550188
  0
VERTEX
  8
0
 62
7
  6
CONTINUOUS
 10
50.077862053
 20
107.1006807006
  0
VERTEX
  8
0
 62
7
  6
CONTINUOUS
 10
50.0839114662
 20
107.1036943113
  0
SEQEND
  0
POLYLINE
  8
0
 62
7
  6
CONTINUOUS
 66
1
 70
0
  0
VERTEX
  8
0
 62
7
  6
CONTINUOUS
 10
50.0542481882
 20
123.7037536194
  0
VERTEX
  8
0
 62
7
  6
CONTINUOUS
 10
50.0536362355
 20
123.7507822914
  0
VERTEX
  8
0
 62
7
  6
CONTINUOUS
 10
50.0547752564
 20
123.7943046324
  0
VERTEX
  8
0
 62
7
  6
CONTINUOUS
 10
50.0578602291
 20
123.8329560811
  0
VERTEX
  8
0
 62
7
  6
CONTINUOUS
 10
50.0628773635
 20
123.8646045046
  0
VERTEX
  8
0
 62
7
  6
CONTINUOUS
 10
50.0696473793
 20
123.8875550188
  0
VERTEX
  8
0
 62
7
  6
CONTINUOUS
 10
50.077862053
 20
123.9006807006
  0
VERTEX
  8
0
 62
7
  6
CONTINUOUS
 10
50.0839114662
 20
123.9036943113
  0
SEQEND
  0
POLYLINE
  8
0
 62
7
  6
CONTINUOUS
 66
1
 70
0
  0
VERTEX
  8
0
 62
7
  6
CONTINUOUS
 10
50.0542481882
 20
140.5037536194
  0
VERTEX
  8
0
 62
7
  6
CONTINUOUS
 10
50.0536362355
 20
140.5507822914
  0
VERTEX
  8
0
 62
7
  6
CONTINUOUS
 10
50.0547752564
 20
140.5943046324
  0
VERTEX
  8
0
 62
7
  6
CONTINUOUS
 10
50.0578602291
 20
140.6329560811
  0
VERTEX
  8
0
 62
7
  6
CONTINUOUS
 10
50.0628773635
 20
140.6646045046
  0
VERTEX
  8
0
 62
7
  6
CONTINUOUS
 10
50.0696473793
 20
140.6875550188
  0
VERTEX
  8
0
 62
7
  6
CONTINUOUS
 10
50.077862053
 20
140.7006807006
  0
VERTEX
  8
0
 62
7
  6
CONTINUOUS
 10
50.0839114662
 20
140.7036943113
  0
SEQEND
  0
POLYLINE
  8
0
 62
7
  6
CONTINUOUS
 66
1
 70
0
  0
VERTEX
  8
0
 62
7
  6
CONTINUOUS
 10
50.0542481882
 20
157.3037536194
  0
VERTEX
  8
0
 62
7
  6
CONTINUOUS
 10
50.0536362355
 20
157.3507822914
  0
VERTEX
  8
0
 62
7
  6
CONTINUOUS
 10
50.0547752564
 20
157.3943046324
  0
VERTEX
  8
0
 62
7
  6
CONTINUOUS
 10
50.0578602291
 20
157.4329560811
  0
VERTEX
  8
0
 62
7
  6
CONTINUOUS
 10
50.0628773635
 20
157.4646045046
  0
VERTEX
  8
0
 62
7
  6
CONTINUOUS
 10
50.0696473793
 20
157.4875550188
  0
VERTEX
  8
0
 62
7
  6
CONTINUOUS
 10
50.077862053
 20
157.5006807006
  0
VERTEX
  8
0
 62
7
  6
CONTINUOUS
 10
50.0839114662
 20
157.5036943113
  0
SEQEND
  0
POLYLINE
  8
0
 62
7
  6
CONTINUOUS
 66
1
 70
0
  0
VERTEX
  8
0
 62
7
  6
CONTINUOUS
 10
50.0542481882
 20
174.1037536194
  0
VERTEX
  8
0
 62
7
  6
CONTINUOUS
 10
50.0536362355
 20
174.1507822914
  0
VERTEX
  8
0
 62
7
  6
CONTINUOUS
 10
50.0547752564
 20
174.1943046324
  0
VERTEX
  8
0
 62
7
  6
CONTINUOUS
 10
50.0578602291
 20
174.2329560811
  0
VERTEX
  8
0
 62
7
  6
CONTINUOUS
 10
50.0628773635
 20
174.2646045046
  0
VERTEX
  8
0
 62
7
  6
CONTINUOUS
 10
50.0696473793
 20
174.2875550188
  0
VERTEX
  8
0
 62
7
  6
CONTINUOUS
 10
50.077862053
 20
174.3006807006
  0
VERTEX
  8
0
 62
7
  6
CONTINUOUS
 10
50.0839114662
 20
174.3036943113
  0
SEQEND
  0
POLYLINE
  8
0
 62
7
  6
CONTINUOUS
 66
1
 70
0
  0
VERTEX
  8
0
 62
7
  6
CONTINUOUS
 10
50.0542481882
 20
190.9037536194
  0
VERTEX
  8
0
 62
7
  6
CONTINUOUS
 10
50.0536362355
 20
190.9507822914
  0
VERTEX
  8
0
 62
7
  6
CONTINUOUS
 10
50.0547752564
 20
190.9943046324
  0
VERTEX
  8
0
 62
7
  6
CONTINUOUS
 10
50.0578602291
 20
191.0329560811
  0
VERTEX
  8
0
 62
7
  6
CONTINUOUS
 10
50.0628773635
 20
191.0646045046
  0
VERTEX
  8
0
 62
7
  6
CONTINUOUS
 10
50.0696473793
 20
191.0875550188
  0
VERTEX
  8
0
 62
7
  6
CONTINUOUS
 10
50.077862053
 20
191.1006807006
  0
VERTEX
  8
0
 62
7
  6
CONTINUOUS
 10
50.0839114662
 20
191.1036943113
  0
SEQEND
  0
LINE
  8
0
 62
7
  6
CONTINUOUS
 10
50.0542481882
 20
190.9037536194
 11
50.0542481882
 21
183.0740899331
  0
LINE
  8
0
 62
7
  6
CONTINUOUS
 10
50.0542481882
 20
174.1037536194
 11
50.0542481882
 21
166.2740899331
  0
LINE
  8
0
 62
7
  6
CONTINUOUS
 10
50.0542481882
 20
157.3037536194
 11
50.0542481882
 21
149.4740899331
  0
LINE
  8
0
 62
7
  6
CONTINUOUS
 10
50.0542481882
 20
140.5037536194
 11
50.0542481882
 21
132.6740899331
  0
LINE
  8
0
 62
7
  6
CONTINUOUS
 10
50.0542481882
 20
123.7037536194
 11
50.0542481882
 21
115.8740899331
  0
LINE
  8
0
 62
7
  6
CONTINUOUS
 10
50.0542481882
 20
106.9037536194
 11
50.0542481882
 21
99.0740899331
  0
LINE
  8
0
 62
7
  6
CONTINUOUS
 10
50.0542481882
 20
90.1037536194
 11
50.0542481882
 21
82.2740899331
  0
LINE
  8
0
 62
7
  6
CONTINUOUS
 10
50.0542481882
 20
73.3037536194
 11
50.0542481882
 21
65.4740899331
  0
LINE
  8
0
 62
7
  6
CONTINUOUS
 10
50.0542481882
 20
199.8740899331
 11
50.0542481882
 21
207.6889217763
  0
LINE
  8
DEFAULT_1
 62
2
  6
CENTER
 10
52.9265295115
 20
65.646541046
 11
52.9265295115
 21
209.8889217763
  0
POLYLINE
  8
0
 62
7
  6
CONTINUOUS
 66
1
 70
0
  0
VERTEX
  8
0
 62
7
  6
CONTINUOUS
 10
50.0542481882
 20
199.8740899331
  0
VERTEX
  8
0
 62
7
  6
CONTINUOUS
 10
50.0536362355
 20
199.8270612612
  0
VERTEX
  8
0
 62
7
  6
CONTINUOUS
 10
50.0547752564
 20
199.7835389202
  0
VERTEX
  8
0
 62
7
  6
CONTINUOUS
 10
50.0578602291
 20
199.7448874715
  0
VERTEX
  8
0
 62
7
  6
CONTINUOUS
 10
50.0628773635
 20
199.713239048
  0
VERTEX
  8
0
 62
7
  6
CONTINUOUS
 10
50.0696473793
 20
199.6902885338
  0
VERTEX
  8
0
 62
7
  6
CONTINUOUS
 10
50.077862053
 20
199.6771628519
  0
VERTEX
  8
0
 62
7
  6
CONTINUOUS
 10
50.0839114662
 20
199.6741492413
  0
SEQEND
  0
POLYLINE
  8
0
 62
7
  6
CONTINUOUS
 66
1
 70
0
  0
VERTEX
  8
0
 62
7
  6
CONTINUOUS
 10
50.0542481882
 20
183.0740899331
  0
VERTEX
  8
0
 62
7
  6
CONTINUOUS
 10
50.0536362355
 20
183.0270612612
  0
VERTEX
  8
0
 62
7
  6
CONTINUOUS
 10
50.0547752564
 20
182.9835389202
  0
VERTEX
  8
0
 62
7
  6
CONTINUOUS
 10
50.0578602291
 20
182.9448874715
  0
VERTEX
  8
0
 62
7
  6
CONTINUOUS
 10
50.0628773635
 20
182.913239048
  0
VERTEX
  8
0
 62
7
  6
CONTINUOUS
 10
50.0696473793
 20
182.8902885338
  0
VERTEX
  8
0
 62
7
  6
CONTINUOUS
 10
50.077862053
 20
182.8771628519
  0
VERTEX
  8
0
 62
7
  6
CONTINUOUS
 10
50.0839114662
 20
182.8741492413
  0
SEQEND
  0
POLYLINE
  8
0
 62
7
  6
CONTINUOUS
 66
1
 70
0
  0
VERTEX
  8
0
 62
7
  6
CONTINUOUS
 10
50.0542481882
 20
166.2740899331
  0
VERTEX
  8
0
 62
7
  6
CONTINUOUS
 10
50.0536362355
 20
166.2270612612
  0
VERTEX
  8
0
 62
7
  6
CONTINUOUS
 10
50.0547752564
 20
166.1835389202
  0
VERTEX
  8
0
 62
7
  6
CONTINUOUS
 10
50.0578602291
 20
166.1448874715
  0
VERTEX
  8
0
 62
7
  6
CONTINUOUS
 10
50.0628773635
 20
166.113239048
  0
VERTEX
  8
0
 62
7
  6
CONTINUOUS
 10
50.0696473793
 20
166.0902885338
  0
VERTEX
  8
0
 62
7
  6
CONTINUOUS
 10
50.077862053
 20
166.0771628519
  0
VERTEX
  8
0
 62
7
  6
CONTINUOUS
 10
50.0839114662
 20
166.0741492413
  0
SEQEND
  0
POLYLINE
  8
0
 62
7
  6
CONTINUOUS
 66
1
 70
0
  0
VERTEX
  8
0
 62
7
  6
CONTINUOUS
 10
50.0542481882
 20
149.4740899331
  0
VERTEX
  8
0
 62
7
  6
CONTINUOUS
 10
50.0536362355
 20
149.4270612612
  0
VERTEX
  8
0
 62
7
  6
CONTINUOUS
 10
50.0547752564
 20
149.3835389202
  0
VERTEX
  8
0
 62
7
  6
CONTINUOUS
 10
50.0578602291
 20
149.3448874715
  0
VERTEX
  8
0
 62
7
  6
CONTINUOUS
 10
50.0628773635
 20
149.313239048
  0
VERTEX
  8
0
 62
7
  6
CONTINUOUS
 10
50.0696473793
 20
149.2902885338
  0
VERTEX
  8
0
 62
7
  6
CONTINUOUS
 10
50.077862053
 20
149.2771628519
  0
VERTEX
  8
0
 62
7
  6
CONTINUOUS
 10
50.0839114662
 20
149.2741492413
  0
SEQEND
  0
POLYLINE
  8
0
 62
7
  6
CONTINUOUS
 66
1
 70
0
  0
VERTEX
  8
0
 62
7
  6
CONTINUOUS
 10
50.0542481882
 20
132.6740899331
  0
VERTEX
  8
0
 62
7
  6
CONTINUOUS
 10
50.0536362355
 20
132.6270612612
  0
VERTEX
  8
0
 62
7
  6
CONTINUOUS
 10
50.0547752564
 20
132.5835389202
  0
VERTEX
  8
0
 62
7
  6
CONTINUOUS
 10
50.0578602291
 20
132.5448874715
  0
VERTEX
  8
0
 62
7
  6
CONTINUOUS
 10
50.0628773635
 20
132.513239048
  0
VERTEX
  8
0
 62
7
  6
CONTINUOUS
 10
50.0696473793
 20
132.4902885338
  0
VERTEX
  8
0
 62
7
  6
CONTINUOUS
 10
50.077862053
 20
132.4771628519
  0
VERTEX
  8
0
 62
7
  6
CONTINUOUS
 10
50.0839114662
 20
132.4741492413
  0
SEQEND
  0
POLYLINE
  8
0
 62
7
  6
CONTINUOUS
 66
1
 70
0
  0
VERTEX
  8
0
 62
7
  6
CONTINUOUS
 10
50.0542481882
 20
115.8740899331
  0
VERTEX
  8
0
 62
7
  6
CONTINUOUS
 10
50.0536362355
 20
115.8270612612
  0
VERTEX
  8
0
 62
7
  6
CONTINUOUS
 10
50.0547752564
 20
115.7835389202
  0
VERTEX
  8
0
 62
7
  6
CONTINUOUS
 10
50.0578602291
 20
115.7448874715
  0
VERTEX
  8
0
 62
7
  6
CONTINUOUS
 10
50.0628773635
 20
115.713239048
  0
VERTEX
  8
0
 62
7
  6
CONTINUOUS
 10
50.0696473793
 20
115.6902885338
  0
VERTEX
  8
0
 62
7
  6
CONTINUOUS
 10
50.077862053
 20
115.6771628519
  0
VERTEX
  8
0
 62
7
  6
CONTINUOUS
 10
50.0839114662
 20
115.6741492413
  0
SEQEND
  0
POLYLINE
  8
0
 62
7
  6
CONTINUOUS
 66
1
 70
0
  0
VERTEX
  8
0
 62
7
  6
CONTINUOUS
 10
50.0542481882
 20
99.0740899331
  0
VERTEX
  8
0
 62
7
  6
CONTINUOUS
 10
50.0536362355
 20
99.0270612612
  0
VERTEX
  8
0
 62
7
  6
CONTINUOUS
 10
50.0547752564
 20
98.9835389202
  0
VERTEX
  8
0
 62
7
  6
CONTINUOUS
 10
50.0578602291
 20
98.9448874715
  0
VERTEX
  8
0
 62
7
  6
CONTINUOUS
 10
50.0628773635
 20
98.913239048
  0
VERTEX
  8
0
 62
7
  6
CONTINUOUS
 10
50.0696473793
 20
98.8902885338
  0
VERTEX
  8
0
 62
7
  6
CONTINUOUS
 10
50.077862053
 20
98.8771628519
  0
VERTEX
  8
0
 62
7
  6
CONTINUOUS
 10
50.0839114662
 20
98.8741492413
  0
SEQEND
  0
POLYLINE
  8
0
 62
7
  6
CONTINUOUS
 66
1
 70
0
  0
VERTEX
  8
0
 62
7
  6
CONTINUOUS
 10
50.0542481882
 20
82.2740899331
  0
VERTEX
  8
0
 62
7
  6
CONTINUOUS
 10
50.0536362355
 20
82.2270612612
  0
VERTEX
  8
0
 62
7
  6
CONTINUOUS
 10
50.0547752564
 20
82.1835389202
  0
VERTEX
  8
0
 62
7
  6
CONTINUOUS
 10
50.0578602291
 20
82.1448874715
  0
VERTEX
  8
0
 62
7
  6
CONTINUOUS
 10
50.0628773635
 20
82.113239048
  0
VERTEX
  8
0
 62
7
  6
CONTINUOUS
 10
50.0696473793
 20
82.0902885338
  0
VERTEX
  8
0
 62
7
  6
CONTINUOUS
 10
50.077862053
 20
82.0771628519
  0
VERTEX
  8
0
 62
7
  6
CONTINUOUS
 10
50.0839114662
 20
82.0741492413
  0
SEQEND
  0
POLYLINE
  8
0
 62
7
  6
CONTINUOUS
 66
1
 70
0
  0
VERTEX
  8
0
 62
7
  6
CONTINUOUS
 10
50.0542481882
 20
65.4740899331
  0
VERTEX
  8
0
 62
7
  6
CONTINUOUS
 10
50.0536362355
 20
65.4270612612
  0
VERTEX
  8
0
 62
7
  6
CONTINUOUS
 10
50.0547752564
 20
65.3835389202
  0
VERTEX
  8
0
 62
7
  6
CONTINUOUS
 10
50.0578602291
 20
65.3448874715
  0
VERTEX
  8
0
 62
7
  6
CONTINUOUS
 10
50.0628773635
 20
65.313239048
  0
VERTEX
  8
0
 62
7
  6
CONTINUOUS
 10
50.0696473793
 20
65.2902885338
  0
VERTEX
  8
0
 62
7
  6
CONTINUOUS
 10
50.077862053
 20
65.2771628519
  0
VERTEX
  8
0
 62
7
  6
CONTINUOUS
 10
50.0839114662
 20
65.2741492413
  0
SEQEND
  0
POLYLINE
  8
0
 62
7
  6
CONTINUOUS
 66
1
 70
0
  0
VERTEX
  8
0
 62
7
  6
CONTINUOUS
 10
57.2477204202
 20
191.479185467
  0
VERTEX
  8
0
 62
7
  6
CONTINUOUS
 10
57.2462056738
 20
191.457764439
  0
VERTEX
  8
0
 62
7
  6
CONTINUOUS
 10
57.235043534
 20
191.4149398307
  0
VERTEX
  8
0
 62
7
  6
CONTINUOUS
 10
57.2146617345
 20
191.3739858173
  0
VERTEX
  8
0
 62
7
  6
CONTINUOUS
 10
57.1866079367
 20
191.3355020957
  0
VERTEX
  8
0
 62
7
  6
CONTINUOUS
 10
57.1515409515
 20
191.2994792075
  0
VERTEX
  8
0
 62
7
  6
CONTINUOUS
 10
57.1095752941
 20
191.2659092842
  0
VERTEX
  8
0
 62
7
  6
CONTINUOUS
 10
57.0603584292
 20
191.2347757319
  0
VERTEX
  8
0
 62
7
  6
CONTINUOUS
 10
57.005311103
 20
191.2071831165
  0
VERTEX
  8
0
 62
7
  6
CONTINUOUS
 10
56.9460080756
 20
191.1837027617
  0
VERTEX
  8
0
 62
7
  6
CONTINUOUS
 10
56.882230832
 20
191.1639047117
  0
VERTEX
  8
0
 62
7
  6
CONTINUOUS
 10
56.8147307891
 20
191.1470926197
  0
VERTEX
  8
0
 62
7
  6
CONTINUOUS
 10
56.7448520852
 20
191.1331195304
  0
VERTEX
  8
0
 62
7
  6
CONTINUOUS
 10
56.6729423631
 20
191.1217092098
  0
VERTEX
  8
0
 62
7
  6
CONTINUOUS
 10
56.598849927
 20
191.1126748877
  0
VERTEX
  8
0
 62
7
  6
CONTINUOUS
 10
56.5230620058
 20
191.1058464412
  0
VERTEX
  8
0
 62
7
  6
CONTINUOUS
 10
56.4460118582
 20
191.1010481581
  0
VERTEX
  8
0
 62
7
  6
CONTINUOUS
 10
56.3679193307
 20
191.0980831494
  0
VERTEX
  8
0
 62
7
  6
CONTINUOUS
 10
56.2890012018
 20
191.0967318392
  0
VERTEX
  8
0
 62
7
  6
CONTINUOUS
 10
56.2095311521
 20
191.0967911144
  0
SEQEND
  0
POLYLINE
  8
0
 62
7
  6
CONTINUOUS
 66
1
 70
0
  0
VERTEX
  8
0
 62
7
  6
CONTINUOUS
 10
57.2477204202
 20
174.679185467
  0
VERTEX
  8
0
 62
7
  6
CONTINUOUS
 10
57.2462056738
 20
174.657764439
  0
VERTEX
  8
0
 62
7
  6
CONTINUOUS
 10
57.235043534
 20
174.6149398307
  0
VERTEX
  8
0
 62
7
  6
CONTINUOUS
 10
57.2146617345
 20
174.5739858173
  0
VERTEX
  8
0
 62
7
  6
CONTINUOUS
 10
57.1866079367
 20
174.5355020957
  0
VERTEX
  8
0
 62
7
  6
CONTINUOUS
 10
57.1515409515
 20
174.4994792075
  0
VERTEX
  8
0
 62
7
  6
CONTINUOUS
 10
57.1095752941
 20
174.4659092842
  0
VERTEX
  8
0
 62
7
  6
CONTINUOUS
 10
57.0603584292
 20
174.4347757319
  0
VERTEX
  8
0
 62
7
  6
CONTINUOUS
 10
57.005311103
 20
174.4071831165
  0
VERTEX
  8
0
 62
7
  6
CONTINUOUS
 10
56.9460080756
 20
174.3837027617
  0
VERTEX
  8
0
 62
7
  6
CONTINUOUS
 10
56.882230832
 20
174.3639047117
  0
VERTEX
  8
0
 62
7
  6
CONTINUOUS
 10
56.8147307891
 20
174.3470926197
  0
VERTEX
  8
0
 62
7
  6
CONTINUOUS
 10
56.7448520852
 20
174.3331195304
  0
VERTEX
  8
0
 62
7
  6
CONTINUOUS
 10
56.6729423631
 20
174.3217092098
  0
VERTEX
  8
0
 62
7
  6
CONTINUOUS
 10
56.598849927
 20
174.3126748877
  0
VERTEX
  8
0
 62
7
  6
CONTINUOUS
 10
56.5230620058
 20
174.3058464412
  0
VERTEX
  8
0
 62
7
  6
CONTINUOUS
 10
56.4460118582
 20
174.3010481581
  0
VERTEX
  8
0
 62
7
  6
CONTINUOUS
 10
56.3679193307
 20
174.2980831494
  0
VERTEX
  8
0
 62
7
  6
CONTINUOUS
 10
56.2890012018
 20
174.2967318392
  0
VERTEX
  8
0
 62
7
  6
CONTINUOUS
 10
56.2095311521
 20
174.2967911144
  0
SEQEND
  0
LINE
  8
0
 62
7
  6
CONTINUOUS
 10
110.3620474846
 20
175.3537248761
 11
110.7652941172
 21
175.5344515593
  0
POLYLINE
  8
0
 62
7
  6
CONTINUOUS
 66
1
 70
0
  0
VERTEX
  8
0
 62
7
  6
CONTINUOUS
 10
110.8609525357
 20
108.3462926017
  0
VERTEX
  8
0
 62
7
  6
CONTINUOUS
 10
111.0284651049
 20
108.3739544134
  0
VERTEX
  8
0
 62
7
  6
CONTINUOUS
 10
111.193491323
 20
108.4048592113
  0
VERTEX
  8
0
 62
7
  6
CONTINUOUS
 10
111.3373190243
 20
108.4358079978
  0
VERTEX
  8
0
 62
7
  6
CONTINUOUS
 10
111.4633216474
 20
108.4672171851
  0
VERTEX
  8
0
 62
7
  6
CONTINUOUS
 10
111.5749084865
 20
108.4998003261
  0
VERTEX
  8
0
 62
7
  6
CONTINUOUS
 10
111.6757598053
 20
108.5348153349
  0
VERTEX
  8
0
 62
7
  6
CONTINUOUS
 10
111.7699632718
 20
108.5744988332
  0
VERTEX
  8
0
 62
7
  6
CONTINUOUS
 10
111.8614271976
 20
108.6225259511
  0
VERTEX
  8
0
 62
7
  6
CONTINUOUS
 10
111.9530344203
 20
108.6846356018
  0
VERTEX
  8
0
 62
7
  6
CONTINUOUS
 10
112.0443252879
 20
108.7683645266
  0
VERTEX
  8
0
 62
7
  6
CONTINUOUS
 10
112.1278131955
 20
108.8790099378
  0
VERTEX
  8
0
 62
7
  6
CONTINUOUS
 10
112.1907569189
 20
109.0139996033
  0
VERTEX
  8
0
 62
7
  6
CONTINUOUS
 10
112.2228990748
 20
109.1618343926
  0
VERTEX
  8
0
 62
7
  6
CONTINUOUS
 10
112.2265290776
 20
109.2319337736
  0
SEQEND
  0
LINE
  8
0
 62
7
  6
CONTINUOUS
 10
110.7562350785
 20
108.3303914882
 11
110.8609606232
 21
108.3462938625
  0
POLYLINE
  8
0
 62
7
  6
CONTINUOUS
 66
1
 70
0
  0
VERTEX
  8
0
 62
7
  6
CONTINUOUS
 10
106.5691533943
 20
107.2741492084
  0
VERTEX
  8
0
 62
7
  6
CONTINUOUS
 10
107.1174447767
 20
107.3455264635
  0
VERTEX
  8
0
 62
7
  6
CONTINUOUS
 10
107.7174261921
 20
107.4401759248
  0
VERTEX
  8
0
 62
7
  6
CONTINUOUS
 10
108.3002131566
 20
107.5507865297
  0
VERTEX
  8
0
 62
7
  6
CONTINUOUS
 10
108.8607988229
 20
107.6774004158
  0
VERTEX
  8
0
 62
7
  6
CONTINUOUS
 10
109.3943465012
 20
107.8200331702
  0
VERTEX
  8
0
 62
7
  6
CONTINUOUS
 10
109.8961968792
 20
107.9787310945
  0
VERTEX
  8
0
 62
7
  6
CONTINUOUS
 10
110.3620474846
 20
108.1537248761
  0
SEQEND
  0
LINE
  8
0
 62
7
  6
CONTINUOUS
 10
106.5691475286
 20
107.274149238
 11
106.5681276169
 21
107.2740899361
  0
POLYLINE
  8
0
 62
7
  6
CONTINUOUS
 66
1
 70
0
  0
VERTEX
  8
0
 62
7
  6
CONTINUOUS
 10
56.2095311521
 20
107.0967911144
  0
VERTEX
  8
0
 62
7
  6
CONTINUOUS
 10
55.9160671663
 20
107.1007555909
  0
VERTEX
  8
0
 62
7
  6
CONTINUOUS
 10
55.6330549648
 20
107.1031973348
  0
VERTEX
  8
0
 62
7
  6
CONTINUOUS
 10
50.0849934175
 20
107.1037536194
  0
SEQEND
  0
POLYLINE
  8
0
 62
7
  6
CONTINUOUS
 66
1
 70
0
  0
VERTEX
  8
0
 62
7
  6
CONTINUOUS
 10
100.4471566966
 20
107.2810190553
  0
VERTEX
  8
0
 62
7
  6
CONTINUOUS
 10
100.7409557938
 20
107.2770415001
  0
VERTEX
  8
0
 62
7
  6
CONTINUOUS
 10
101.0239774543
 20
107.2746255257
  0
VERTEX
  8
0
 62
7
  6
CONTINUOUS
 10
106.5680656055
 20
107.2740899331
  0
SEQEND
  0
LINE
  8
0
 62
7
  6
CONTINUOUS
 10
110.8609606232
 20
97.6315496901
 11
110.7562350782
 21
97.6474520645
  0
POLYLINE
  8
0
 62
7
  6
CONTINUOUS
 66
1
 70
0
  0
VERTEX
  8
0
 62
7
  6
CONTINUOUS
 10
45.8877627797
 20
116.7344526024
  0
VERTEX
  8
0
 62
7
  6
CONTINUOUS
 10
46.2887120014
 20
116.5546693272
  0
VERTEX
  8
0
 62
7
  6
CONTINUOUS
 10
46.7543250423
 20
116.3796047891
  0
VERTEX
  8
0
 62
7
  6
CONTINUOUS
 10
47.2559495227
 20
116.2208363872
  0
VERTEX
  8
0
 62
7
  6
CONTINUOUS
 10
47.7892857249
 20
116.0781316414
  0
VERTEX
  8
0
 62
7
  6
CONTINUOUS
 10
48.3496767467
 20
115.9514434078
  0
VERTEX
  8
0
 62
7
  6
CONTINUOUS
 10
48.9322875522
 20
115.8407558768
  0
VERTEX
  8
0
 62
7
  6
CONTINUOUS
 10
49.5321124791
 20
115.7460270255
  0
VERTEX
  8
0
 62
7
  6
CONTINUOUS
 10
50.0839056005
 20
115.6741492117
  0
SEQEND
  0
POLYLINE
  8
0
 62
7
  6
CONTINUOUS
 66
1
 70
0
  0
VERTEX
  8
0
 62
7
  6
CONTINUOUS
 10
106.5691432729
 20
81.9036942933
  0
VERTEX
  8
0
 62
7
  6
CONTINUOUS
 10
106.5777401709
 20
81.897882593
  0
VERTEX
  8
0
 62
7
  6
CONTINUOUS
 10
106.5865334893
 20
81.87879584
  0
VERTEX
  8
0
 62
7
  6
CONTINUOUS
 10
106.5932619321
 20
81.8475945929
  0
VERTEX
  8
0
 62
7
  6
CONTINUOUS
 10
106.5975816354
 20
81.806276047
  0
VERTEX
  8
0
 62
7
  6
CONTINUOUS
 10
106.5993705221
 20
81.7575797009
  0
VERTEX
  8
0
 62
7
  6
CONTINUOUS
 10
106.5988108347
 20
81.7037536194
  0
SEQEND
  0
LINE
  8
0
 62
7
  6
CONTINUOUS
 10
57.4976428677
 20
64.899663904
 11
57.4979190962
 21
64.8195539652
  0
LINE
  8
0
 62
7
  6
CONTINUOUS
 10
57.4976428677
 20
81.699663904
 11
57.4979190962
 21
81.6195539652
  0
LINE
  8
0
 62
7
  6
CONTINUOUS
 10
57.4976428677
 20
98.499663904
 11
57.4979190962
 21
98.4195539652
  0
LINE
  8
0
 62
7
  6
CONTINUOUS
 10
57.4976428677
 20
115.299663904
 11
57.4979190962
 21
115.2195539652
  0
LINE
  8
0
 62
7
  6
CONTINUOUS
 10
57.4976428677
 20
132.099663904
 11
57.4979190962
 21
132.0195539652
  0
LINE
  8
0
 62
7
  6
CONTINUOUS
 10
57.4976428677
 20
148.899663904
 11
57.4979190962
 21
148.8195539652
  0
LINE
  8
0
 62
7
  6
CONTINUOUS
 10
57.4976428677
 20
165.699663904
 11
57.4979190962
 21
165.6195539652
  0
LINE
  8
0
 62
7
  6
CONTINUOUS
 10
57.4976428677
 20
182.499663904
 11
57.4979190962
 21
182.4195539652
  0
LINE
  8
0
 62
7
  6
CONTINUOUS
 10
57.4976428677
 20
199.299663904
 11
57.4979190962
 21
199.2195539652
  0
LINE
  8
0
 62
7
  6
CONTINUOUS
 10
57.247690846
 20
199.2984853347
 11
57.2479190962
 21
191.5582901337
  0
LINE
  8
0
 62
7
  6
CONTINUOUS
 10
57.247690846
 20
182.4984853347
 11
57.2479190962
 21
174.7582901337
  0
LINE
  8
0
 62
7
  6
CONTINUOUS
 10
57.247690846
 20
165.6984853347
 11
57.2479190962
 21
157.9582901337
  0
LINE
  8
0
 62
7
  6
CONTINUOUS
 10
57.247690846
 20
148.8984853347
 11
57.2479190962
 21
141.1582901337
  0
LINE
  8
0
 62
7
  6
CONTINUOUS
 10
57.247690846
 20
132.0984853347
 11
57.2479190962
 21
124.3582901337
  0
LINE
  8
0
 62
7
  6
CONTINUOUS
 10
57.247690846
 20
115.2984853347
 11
57.2479190962
 21
107.5582901337
  0
LINE
  8
0
 62
7
  6
CONTINUOUS
 10
57.247690846
 20
98.4984853347
 11
57.2479190962
 21
90.7582901337
  0
LINE
  8
0
 62
7
  6
CONTINUOUS
 10
57.247690846
 20
81.6984853347
 11
57.2479190962
 21
73.9582901337
  0
LINE
  8
0
 62
7
  6
CONTINUOUS
 10
57.247690846
 20
64.8984853347
 11
57.2479190962
 21
57.0889217763
  0
LINE
  8
0
 62
7
  6
CONTINUOUS
 10
57.2479190962
 20
191.5582901342
 11
57.2477206148
 21
191.4791857543
  0
LINE
  8
0
 62
7
  6
CONTINUOUS
 10
57.2479190962
 20
174.7582901342
 11
57.2477206148
 21
174.6791857543
  0
LINE
  8
0
 62
7
  6
CONTINUOUS
 10
57.2479190962
 20
157.9582901342
 11
57.2477206148
 21
157.8791857543
  0
LINE
  8
0
 62
7
  6
CONTINUOUS
 10
57.2479190962
 20
141.1582901342
 11
57.2477206148
 21
141.0791857543
  0
LINE
  8
0
 62
7
  6
CONTINUOUS
 10
57.2479190962
 20
124.3582901342
 11
57.2477206148
 21
124.2791857543
  0
LINE
  8
0
 62
7
  6
CONTINUOUS
 10
57.2479190962
 20
107.5582901342
 11
57.2477206148
 21
107.4791857543
  0
LINE
  8
0
 62
7
  6
CONTINUOUS
 10
57.2479190962
 20
90.7582901342
 11
57.2477206148
 21
90.6791857543
  0
LINE
  8
0
 62
7
  6
CONTINUOUS
 10
57.2479190962
 20
73.9582901342
 11
57.2477206148
 21
73.8791857543
  0
POLYLINE
  8
0
 62
7
  6
CONTINUOUS
 66
1
 70
0
  0
VERTEX
  8
0
 62
7
  6
CONTINUOUS
 10
57.2477204202
 20
157.879185467
  0
VERTEX
  8
0
 62
7
  6
CONTINUOUS
 10
57.2462056738
 20
157.857764439
  0
VERTEX
  8
0
 62
7
  6
CONTINUOUS
 10
57.235043534
 20
157.8149398307
  0
VERTEX
  8
0
 62
7
  6
CONTINUOUS
 10
57.2146617345
 20
157.7739858173
  0
VERTEX
  8
0
 62
7
  6
CONTINUOUS
 10
57.1866079367
 20
157.7355020957
  0
VERTEX
  8
0
 62
7
  6
CONTINUOUS
 10
57.1515409515
 20
157.6994792075
  0
VERTEX
  8
0
 62
7
  6
CONTINUOUS
 10
57.1095752941
 20
157.6659092842
  0
VERTEX
  8
0
 62
7
  6
CONTINUOUS
 10
57.0603584292
 20
157.6347757319
  0
VERTEX
  8
0
 62
7
  6
CONTINUOUS
 10
57.005311103
 20
157.6071831165
  0
VERTEX
  8
0
 62
7
  6
CONTINUOUS
 10
56.9460080756
 20
157.5837027617
  0
VERTEX
  8
0
 62
7
  6
CONTINUOUS
 10
56.882230832
 20
157.5639047117
  0
VERTEX
  8
0
 62
7
  6
CONTINUOUS
 10
56.8147307891
 20
157.5470926197
  0
VERTEX
  8
0
 62
7
  6
CONTINUOUS
 10
56.7448520852
 20
157.5331195304
  0
VERTEX
  8
0
 62
7
  6
CONTINUOUS
 10
56.6729423631
 20
157.5217092098
  0
VERTEX
  8
0
 62
7
  6
CONTINUOUS
 10
56.598849927
 20
157.5126748877
  0
VERTEX
  8
0
 62
7
  6
CONTINUOUS
 10
56.5230620058
 20
157.5058464412
  0
VERTEX
  8
0
 62
7
  6
CONTINUOUS
 10
56.4460118582
 20
157.5010481581
  0
VERTEX
  8
0
 62
7
  6
CONTINUOUS
 10
56.3679193307
 20
157.4980831494
  0
VERTEX
  8
0
 62
7
  6
CONTINUOUS
 10
56.2890012018
 20
157.4967318392
  0
VERTEX
  8
0
 62
7
  6
CONTINUOUS
 10
56.2095311521
 20
157.4967911144
  0
SEQEND
  0
POLYLINE
  8
0
 62
7
  6
CONTINUOUS
 66
1
 70
0
  0
VERTEX
  8
0
 62
7
  6
CONTINUOUS
 10
57.2477204202
 20
141.079185467
  0
VERTEX
  8
0
 62
7
  6
CONTINUOUS
 10
57.2462056738
 20
141.057764439
  0
VERTEX
  8
0
 62
7
  6
CONTINUOUS
 10
57.235043534
 20
141.0149398307
  0
VERTEX
  8
0
 62
7
  6
CONTINUOUS
 10
57.2146617345
 20
140.9739858173
  0
VERTEX
  8
0
 62
7
  6
CONTINUOUS
 10
57.1866079367
 20
140.9355020957
  0
VERTEX
  8
0
 62
7
  6
CONTINUOUS
 10
57.1515409515
 20
140.8994792075
  0
VERTEX
  8
0
 62
7
  6
CONTINUOUS
 10
57.1095752941
 20
140.8659092842
  0
VERTEX
  8
0
 62
7
  6
CONTINUOUS
 10
57.0603584292
 20
140.8347757319
  0
VERTEX
  8
0
 62
7
  6
CONTINUOUS
 10
57.005311103
 20
140.8071831165
  0
VERTEX
  8
0
 62
7
  6
CONTINUOUS
 10
56.9460080756
 20
140.7837027617
  0
VERTEX
  8
0
 62
7
  6
CONTINUOUS
 10
56.882230832
 20
140.7639047117
  0
VERTEX
  8
0
 62
7
  6
CONTINUOUS
 10
56.8147307891
 20
140.7470926197
  0
VERTEX
  8
0
 62
7
  6
CONTINUOUS
 10
56.7448520852
 20
140.7331195304
  0
VERTEX
  8
0
 62
7
  6
CONTINUOUS
 10
56.6729423631
 20
140.7217092098
  0
VERTEX
  8
0
 62
7
  6
CONTINUOUS
 10
56.598849927
 20
140.7126748877
  0
VERTEX
  8
0
 62
7
  6
CONTINUOUS
 10
56.5230620058
 20
140.7058464412
  0
VERTEX
  8
0
 62
7
  6
CONTINUOUS
 10
56.4460118582
 20
140.7010481581
  0
VERTEX
  8
0
 62
7
  6
CONTINUOUS
 10
56.3679193307
 20
140.6980831494
  0
VERTEX
  8
0
 62
7
  6
CONTINUOUS
 10
56.2890012018
 20
140.6967318392
  0
VERTEX
  8
0
 62
7
  6
CONTINUOUS
 10
56.2095311521
 20
140.6967911144
  0
SEQEND
  0
POLYLINE
  8
0
 62
7
  6
CONTINUOUS
 66
1
 70
0
  0
VERTEX
  8
0
 62
7
  6
CONTINUOUS
 10
57.2477204202
 20
124.279185467
  0
VERTEX
  8
0
 62
7
  6
CONTINUOUS
 10
57.2462056738
 20
124.257764439
  0
VERTEX
  8
0
 62
7
  6
CONTINUOUS
 10
57.235043534
 20
124.2149398307
  0
VERTEX
  8
0
 62
7
  6
CONTINUOUS
 10
57.2146617345
 20
124.1739858173
  0
VERTEX
  8
0
 62
7
  6
CONTINUOUS
 10
57.1866079367
 20
124.1355020957
  0
VERTEX
  8
0
 62
7
  6
CONTINUOUS
 10
57.1515409515
 20
124.0994792075
  0
VERTEX
  8
0
 62
7
  6
CONTINUOUS
 10
57.1095752941
 20
124.0659092842
  0
VERTEX
  8
0
 62
7
  6
CONTINUOUS
 10
57.0603584292
 20
124.0347757319
  0
VERTEX
  8
0
 62
7
  6
CONTINUOUS
 10
57.005311103
 20
124.0071831165
  0
VERTEX
  8
0
 62
7
  6
CONTINUOUS
 10
56.9460080756
 20
123.9837027617
  0
VERTEX
  8
0
 62
7
  6
CONTINUOUS
 10
56.882230832
 20
123.9639047117
  0
VERTEX
  8
0
 62
7
  6
CONTINUOUS
 10
56.8147307891
 20
123.9470926197
  0
VERTEX
  8
0
 62
7
  6
CONTINUOUS
 10
56.7448520852
 20
123.9331195304
  0
VERTEX
  8
0
 62
7
  6
CONTINUOUS
 10
56.6729423631
 20
123.9217092098
  0
VERTEX
  8
0
 62
7
  6
CONTINUOUS
 10
56.598849927
 20
123.9126748877
  0
VERTEX
  8
0
 62
7
  6
CONTINUOUS
 10
56.5230620058
 20
123.9058464412
  0
VERTEX
  8
0
 62
7
  6
CONTINUOUS
 10
56.4460118582
 20
123.9010481581
  0
VERTEX
  8
0
 62
7
  6
CONTINUOUS
 10
56.3679193307
 20
123.8980831494
  0
VERTEX
  8
0
 62
7
  6
CONTINUOUS
 10
56.2890012018
 20
123.8967318392
  0
VERTEX
  8
0
 62
7
  6
CONTINUOUS
 10
56.2095311521
 20
123.8967911144
  0
SEQEND
  0
POLYLINE
  8
0
 62
7
  6
CONTINUOUS
 66
1
 70
0
  0
VERTEX
  8
0
 62
7
  6
CONTINUOUS
 10
57.2477204202
 20
107.479185467
  0
VERTEX
  8
0
 62
7
  6
CONTINUOUS
 10
57.2462056738
 20
107.457764439
  0
VERTEX
  8
0
 62
7
  6
CONTINUOUS
 10
57.235043534
 20
107.4149398307
  0
VERTEX
  8
0
 62
7
  6
CONTINUOUS
 10
57.2146617345
 20
107.3739858173
  0
VERTEX
  8
0
 62
7
  6
CONTINUOUS
 10
57.1866079367
 20
107.3355020957
  0
VERTEX
  8
0
 62
7
  6
CONTINUOUS
 10
57.1515409515
 20
107.2994792075
  0
VERTEX
  8
0
 62
7
  6
CONTINUOUS
 10
57.1095752941
 20
107.2659092842
  0
VERTEX
  8
0
 62
7
  6
CONTINUOUS
 10
57.0603584292
 20
107.2347757319
  0
VERTEX
  8
0
 62
7
  6
CONTINUOUS
 10
57.005311103
 20
107.2071831165
  0
VERTEX
  8
0
 62
7
  6
CONTINUOUS
 10
56.9460080756
 20
107.1837027617
  0
VERTEX
  8
0
 62
7
  6
CONTINUOUS
 10
56.882230832
 20
107.1639047117
  0
VERTEX
  8
0
 62
7
  6
CONTINUOUS
 10
56.8147307891
 20
107.1470926197
  0
VERTEX
  8
0
 62
7
  6
CONTINUOUS
 10
56.7448520852
 20
107.1331195304
  0
VERTEX
  8
0
 62
7
  6
CONTINUOUS
 10
56.6729423631
 20
107.1217092098
  0
VERTEX
  8
0
 62
7
  6
CONTINUOUS
 10
56.598849927
 20
107.1126748877
  0
VERTEX
  8
0
 62
7
  6
CONTINUOUS
 10
56.5230620058
 20
107.1058464412
  0
VERTEX
  8
0
 62
7
  6
CONTINUOUS
 10
56.4460118582
 20
107.1010481581
  0
VERTEX
  8
0
 62
7
  6
CONTINUOUS
 10
56.3679193307
 20
107.0980831494
  0
VERTEX
  8
0
 62
7
  6
CONTINUOUS
 10
56.2890012018
 20
107.0967318392
  0
VERTEX
  8
0
 62
7
  6
CONTINUOUS
 10
56.2095311521
 20
107.0967911144
  0
SEQEND
  0
POLYLINE
  8
0
 62
7
  6
CONTINUOUS
 66
1
 70
0
  0
VERTEX
  8
0
 62
7
  6
CONTINUOUS
 10
57.2477204202
 20
90.679185467
  0
VERTEX
  8
0
 62
7
  6
CONTINUOUS
 10
57.2462056738
 20
90.657764439
  0
VERTEX
  8
0
 62
7
  6
CONTINUOUS
 10
57.235043534
 20
90.6149398307
  0
VERTEX
  8
0
 62
7
  6
CONTINUOUS
 10
57.2146617345
 20
90.5739858173
  0
VERTEX
  8
0
 62
7
  6
CONTINUOUS
 10
57.1866079367
 20
90.5355020957
  0
VERTEX
  8
0
 62
7
  6
CONTINUOUS
 10
57.1515409515
 20
90.4994792075
  0
VERTEX
  8
0
 62
7
  6
CONTINUOUS
 10
57.1095752941
 20
90.4659092842
  0
VERTEX
  8
0
 62
7
  6
CONTINUOUS
 10
57.0603584292
 20
90.4347757319
  0
VERTEX
  8
0
 62
7
  6
CONTINUOUS
 10
57.005311103
 20
90.4071831165
  0
VERTEX
  8
0
 62
7
  6
CONTINUOUS
 10
56.9460080756
 20
90.3837027617
  0
VERTEX
  8
0
 62
7
  6
CONTINUOUS
 10
56.882230832
 20
90.3639047117
  0
VERTEX
  8
0
 62
7
  6
CONTINUOUS
 10
56.8147307891
 20
90.3470926197
  0
VERTEX
  8
0
 62
7
  6
CONTINUOUS
 10
56.7448520852
 20
90.3331195304
  0
VERTEX
  8
0
 62
7
  6
CONTINUOUS
 10
56.6729423631
 20
90.3217092098
  0
VERTEX
  8
0
 62
7
  6
CONTINUOUS
 10
56.598849927
 20
90.3126748877
  0
VERTEX
  8
0
 62
7
  6
CONTINUOUS
 10
56.5230620058
 20
90.3058464412
  0
VERTEX
  8
0
 62
7
  6
CONTINUOUS
 10
56.4460118582
 20
90.3010481581
  0
VERTEX
  8
0
 62
7
  6
CONTINUOUS
 10
56.3679193307
 20
90.2980831494
  0
VERTEX
  8
0
 62
7
  6
CONTINUOUS
 10
56.2890012018
 20
90.2967318392
  0
VERTEX
  8
0
 62
7
  6
CONTINUOUS
 10
56.2095311521
 20
90.2967911144
  0
SEQEND
  0
LINE
  8
0
 62
7
  6
CONTINUOUS
 10
46.2887120014
 20
139.8231742253
 11
45.8877627797
 21
139.6433909501
  0
POLYLINE
  8
0
 62
7
  6
CONTINUOUS
 66
1
 70
0
  0
VERTEX
  8
0
 62
7
  6
CONTINUOUS
 10
45.7921057352
 20
106.0315508337
  0
VERTEX
  8
0
 62
7
  6
CONTINUOUS
 10
45.6233106818
 20
106.0036641879
  0
VERTEX
  8
0
 62
7
  6
CONTINUOUS
 10
45.4587504654
 20
105.9728202865
  0
VERTEX
  8
0
 62
7
  6
CONTINUOUS
 10
45.3153121889
 20
105.9419365357
  0
VERTEX
  8
0
 62
7
  6
CONTINUOUS
 10
45.1896338884
 20
105.9105984891
  0
VERTEX
  8
0
 62
7
  6
CONTINUOUS
 10
45.0783202181
 20
105.8780971038
  0
VERTEX
  8
0
 62
7
  6
CONTINUOUS
 10
44.9777105966
 20
105.843184801
  0
VERTEX
  8
0
 62
7
  6
CONTINUOUS
 10
44.8837457255
 20
105.8036481737
  0
VERTEX
  8
0
 62
7
  6
CONTINUOUS
 10
44.7925499445
 20
105.7558595825
  0
VERTEX
  8
0
 62
7
  6
CONTINUOUS
 10
44.7012377681
 20
105.6941505392
  0
VERTEX
  8
0
 62
7
  6
CONTINUOUS
 10
44.6101900142
 20
105.6110534719
  0
VERTEX
  8
0
 62
7
  6
CONTINUOUS
 10
44.5267204551
 20
105.5012482068
  0
VERTEX
  8
0
 62
7
  6
CONTINUOUS
 10
44.4634101479
 20
105.3670944247
  0
VERTEX
  8
0
 62
7
  6
CONTINUOUS
 10
44.4305666725
 20
105.2198481694
  0
VERTEX
  8
0
 62
7
  6
CONTINUOUS
 10
44.4265296184
 20
105.1450924637
  0
SEQEND
  0
LINE
  8
0
 62
7
  6
CONTINUOUS
 10
45.8968248719
 20
106.047454339
 11
45.7920975299
 21
106.0315495545
  0
POLYLINE
  8
0
 62
7
  6
CONTINUOUS
 66
1
 70
0
  0
VERTEX
  8
0
 62
7
  6
CONTINUOUS
 10
50.0839056005
 20
107.1036943408
  0
VERTEX
  8
0
 62
7
  6
CONTINUOUS
 10
49.5321124791
 20
107.0318165271
  0
VERTEX
  8
0
 62
7
  6
CONTINUOUS
 10
48.9322875522
 20
106.9370876758
  0
VERTEX
  8
0
 62
7
  6
CONTINUOUS
 10
48.3496767467
 20
106.8264001448
  0
VERTEX
  8
0
 62
7
  6
CONTINUOUS
 10
47.7892857249
 20
106.6997119112
  0
VERTEX
  8
0
 62
7
  6
CONTINUOUS
 10
47.2559495227
 20
106.5570071654
  0
VERTEX
  8
0
 62
7
  6
CONTINUOUS
 10
46.7543250423
 20
106.3982387635
  0
VERTEX
  8
0
 62
7
  6
CONTINUOUS
 10
46.2887120014
 20
106.2231742253
  0
SEQEND
  0
LINE
  8
0
 62
7
  6
CONTINUOUS
 10
50.0839114662
 20
107.1036943113
 11
50.084931406
 21
107.1037536165
  0
LINE
  8
0
 62
7
  6
CONTINUOUS
 10
50.0839114662
 20
115.6741492413
 11
50.084931406
 21
115.6740899361
  0
LINE
  8
0
 62
7
  6
CONTINUOUS
 10
45.7920975299
 20
116.7462939981
 11
45.8968248719
 21
116.7303892136
  0
POLYLINE
  8
0
 62
7
  6
CONTINUOUS
 66
1
 70
0
  0
VERTEX
  8
0
 62
7
  6
CONTINUOUS
 10
110.7652941172
 20
97.6433919933
  0
VERTEX
  8
0
 62
7
  6
CONTINUOUS
 10
110.3620473777
 20
97.8241187204
  0
VERTEX
  8
0
 62
7
  6
CONTINUOUS
 10
109.8961966465
 20
97.9991125382
  0
VERTEX
  8
0
 62
7
  6
CONTINUOUS
 10
109.3943461264
 20
98.1578104913
  0
VERTEX
  8
0
 62
7
  6
CONTINUOUS
 10
108.860798293
 20
98.3004432669
  0
VERTEX
  8
0
 62
7
  6
CONTINUOUS
 10
108.3002124621
 20
98.4270571668
  0
VERTEX
  8
0
 62
7
  6
CONTINUOUS
 10
107.7174253271
 20
98.5376677776
  0
VERTEX
  8
0
 62
7
  6
CONTINUOUS
 10
107.1174437388
 20
98.6323172374
  0
VERTEX
  8
0
 62
7
  6
CONTINUOUS
 10
106.5691533943
 20
98.7036943442
  0
SEQEND
  0
POLYLINE
  8
0
 62
7
  6
CONTINUOUS
 66
1
 70
0
  0
VERTEX
  8
0
 62
7
  6
CONTINUOUS
 10
57.2477204202
 20
73.879185467
  0
VERTEX
  8
0
 62
7
  6
CONTINUOUS
 10
57.2462056738
 20
73.857764439
  0
VERTEX
  8
0
 62
7
  6
CONTINUOUS
 10
57.235043534
 20
73.8149398307
  0
VERTEX
  8
0
 62
7
  6
CONTINUOUS
 10
57.2146617345
 20
73.7739858173
  0
VERTEX
  8
0
 62
7
  6
CONTINUOUS
 10
57.1866079367
 20
73.7355020957
  0
VERTEX
  8
0
 62
7
  6
CONTINUOUS
 10
57.1515409515
 20
73.6994792075
  0
VERTEX
  8
0
 62
7
  6
CONTINUOUS
 10
57.1095752941
 20
73.6659092842
  0
VERTEX
  8
0
 62
7
  6
CONTINUOUS
 10
57.0603584292
 20
73.6347757319
  0
VERTEX
  8
0
 62
7
  6
CONTINUOUS
 10
57.005311103
 20
73.6071831165
  0
VERTEX
  8
0
 62
7
  6
CONTINUOUS
 10
56.9460080756
 20
73.5837027617
  0
VERTEX
  8
0
 62
7
  6
CONTINUOUS
 10
56.882230832
 20
73.5639047117
  0
VERTEX
  8
0
 62
7
  6
CONTINUOUS
 10
56.8147307891
 20
73.5470926197
  0
VERTEX
  8
0
 62
7
  6
CONTINUOUS
 10
56.7448520852
 20
73.5331195304
  0
VERTEX
  8
0
 62
7
  6
CONTINUOUS
 10
56.6729423631
 20
73.5217092098
  0
VERTEX
  8
0
 62
7
  6
CONTINUOUS
 10
56.598849927
 20
73.5126748877
  0
VERTEX
  8
0
 62
7
  6
CONTINUOUS
 10
56.5230620058
 20
73.5058464412
  0
VERTEX
  8
0
 62
7
  6
CONTINUOUS
 10
56.4460118582
 20
73.5010481581
  0
VERTEX
  8
0
 62
7
  6
CONTINUOUS
 10
56.3679193307
 20
73.4980831494
  0
VERTEX
  8
0
 62
7
  6
CONTINUOUS
 10
56.2890012018
 20
73.4967318392
  0
VERTEX
  8
0
 62
7
  6
CONTINUOUS
 10
56.2095311521
 20
73.4967911144
  0
SEQEND
  0
POLYLINE
  8
0
 62
7
  6
CONTINUOUS
 66
1
 70
0
  0
VERTEX
  8
0
 62
7
  6
CONTINUOUS
 10
110.8609525357
 20
125.1462926017
  0
VERTEX
  8
0
 62
7
  6
CONTINUOUS
 10
111.0284651049
 20
125.1739544134
  0
VERTEX
  8
0
 62
7
  6
CONTINUOUS
 10
111.193491323
 20
125.2048592113
  0
VERTEX
  8
0
 62
7
  6
CONTINUOUS
 10
111.3373190243
 20
125.2358079978
  0
VERTEX
  8
0
 62
7
  6
CONTINUOUS
 10
111.4633216474
 20
125.2672171851
  0
VERTEX
  8
0
 62
7
  6
CONTINUOUS
 10
111.5749084865
 20
125.2998003261
  0
VERTEX
  8
0
 62
7
  6
CONTINUOUS
 10
111.6757598053
 20
125.3348153349
  0
VERTEX
  8
0
 62
7
  6
CONTINUOUS
 10
111.7699632718
 20
125.3744988332
  0
VERTEX
  8
0
 62
7
  6
CONTINUOUS
 10
111.8614271976
 20
125.4225259511
  0
VERTEX
  8
0
 62
7
  6
CONTINUOUS
 10
111.9530344203
 20
125.4846356018
  0
VERTEX
  8
0
 62
7
  6
CONTINUOUS
 10
112.0443252879
 20
125.5683645266
  0
VERTEX
  8
0
 62
7
  6
CONTINUOUS
 10
112.1278131955
 20
125.6790099378
  0
VERTEX
  8
0
 62
7
  6
CONTINUOUS
 10
112.1907569189
 20
125.8139996033
  0
VERTEX
  8
0
 62
7
  6
CONTINUOUS
 10
112.2228990748
 20
125.9618343926
  0
VERTEX
  8
0
 62
7
  6
CONTINUOUS
 10
112.2265294075
 20
126.0327485351
  0
SEQEND
  0
LINE
  8
0
 62
7
  6
CONTINUOUS
 10
110.7562350785
 20
125.1303914882
 11
110.8609606232
 21
125.1462938625
  0
POLYLINE
  8
0
 62
7
  6
CONTINUOUS
 66
1
 70
0
  0
VERTEX
  8
0
 62
7
  6
CONTINUOUS
 10
106.5691533943
 20
124.0741492084
  0
VERTEX
  8
0
 62
7
  6
CONTINUOUS
 10
107.1174447767
 20
124.1455264635
  0
VERTEX
  8
0
 62
7
  6
CONTINUOUS
 10
107.7174261921
 20
124.2401759248
  0
VERTEX
  8
0
 62
7
  6
CONTINUOUS
 10
108.3002131566
 20
124.3507865297
  0
VERTEX
  8
0
 62
7
  6
CONTINUOUS
 10
108.8607988229
 20
124.4774004158
  0
VERTEX
  8
0
 62
7
  6
CONTINUOUS
 10
109.3943465012
 20
124.6200331702
  0
VERTEX
  8
0
 62
7
  6
CONTINUOUS
 10
109.8961968792
 20
124.7787310945
  0
VERTEX
  8
0
 62
7
  6
CONTINUOUS
 10
110.3620474846
 20
124.9537248761
  0
SEQEND
  0
POLYLINE
  8
0
 62
7
  6
CONTINUOUS
 66
1
 70
0
  0
VERTEX
  8
0
 62
7
  6
CONTINUOUS
 10
55.9121032798
 20
115.6770414999
  0
VERTEX
  8
0
 62
7
  6
CONTINUOUS
 10
56.2054253987
 20
115.6810144768
  0
VERTEX
  8
0
 62
7
  6
CONTINUOUS
 10
56.2850189418
 20
115.6811408003
  0
VERTEX
  8
0
 62
7
  6
CONTINUOUS
 10
56.364081603
 20
115.6798621209
  0
VERTEX
  8
0
 62
7
  6
CONTINUOUS
 10
56.4423333272
 20
115.676975644
  0
VERTEX
  8
0
 62
7
  6
CONTINUOUS
 10
56.5195515712
 20
115.672260242
  0
VERTEX
  8
0
 62
7
  6
CONTINUOUS
 10
56.5955166201
 20
115.6655173215
  0
VERTEX
  8
0
 62
7
  6
CONTINUOUS
 10
56.6697957648
 20
115.6565709753
  0
VERTEX
  8
0
 62
7
  6
CONTINUOUS
 10
56.7418807631
 20
115.6452514581
  0
VERTEX
  8
0
 62
7
  6
CONTINUOUS
 10
56.811985432
 20
115.6313600589
  0
VERTEX
  8
0
 62
7
  6
CONTINUOUS
 10
56.8796355841
 20
115.614660183
  0
VERTEX
  8
0
 62
7
  6
CONTINUOUS
 10
56.9437037684
 20
115.5949456411
  0
VERTEX
  8
0
 62
7
  6
CONTINUOUS
 10
57.0031935934
 20
115.5715989636
  0
VERTEX
  8
0
 62
7
  6
CONTINUOUS
 10
57.0584625423
 20
115.5441305404
  0
VERTEX
  8
0
 62
7
  6
CONTINUOUS
 10
57.1079070716
 20
115.5131156638
  0
VERTEX
  8
0
 62
7
  6
CONTINUOUS
 10
57.1500860445
 20
115.4796729778
  0
VERTEX
  8
0
 62
7
  6
CONTINUOUS
 10
57.1853603363
 20
115.4438030865
  0
VERTEX
  8
0
 62
7
  6
CONTINUOUS
 10
57.2136561478
 20
115.4054829111
  0
VERTEX
  8
0
 62
7
  6
CONTINUOUS
 10
57.2343662534
 20
115.3646519106
  0
VERTEX
  8
0
 62
7
  6
CONTINUOUS
 10
57.2459545154
 20
115.3218550879
  0
VERTEX
  8
0
 62
7
  6
CONTINUOUS
 10
57.2477210256
 20
115.2984852896
  0
SEQEND
  0
POLYLINE
  8
0
 62
7
  6
CONTINUOUS
 66
1
 70
0
  0
VERTEX
  8
0
 62
7
  6
CONTINUOUS
 10
100.7369880132
 20
115.500755188
  0
VERTEX
  8
0
 62
7
  6
CONTINUOUS
 10
100.4429562422
 20
115.496785467
  0
VERTEX
  8
0
 62
7
  6
CONTINUOUS
 10
100.3630870692
 20
115.4967388006
  0
VERTEX
  8
0
 62
7
  6
CONTINUOUS
 10
100.283911606
 20
115.4981155652
  0
VERTEX
  8
0
 62
7
  6
CONTINUOUS
 10
100.2056896322
 20
115.5011146747
  0
VERTEX
  8
0
 62
7
  6
CONTINUOUS
 10
100.1286185127
 20
115.5059502445
  0
VERTEX
  8
0
 62
7
  6
CONTINUOUS
 10
100.0529053401
 20
115.5128113742
  0
VERTEX
  8
0
 62
7
  6
CONTINUOUS
 10
99.9789780712
 20
115.5218672726
  0
VERTEX
  8
0
 62
7
  6
CONTINUOUS
 10
99.907282895
 20
115.5332829284
  0
VERTEX
  8
0
 62
7
  6
CONTINUOUS
 10
99.8376838729
 20
115.5472389045
  0
VERTEX
  8
0
 62
7
  6
CONTINUOUS
 10
99.7704482868
 20
115.564006659
  0
VERTEX
  8
0
 62
7
  6
CONTINUOUS
 10
99.7070192459
 20
115.5837088109
  0
VERTEX
  8
0
 62
7
  6
CONTINUOUS
 10
99.6480243535
 20
115.6070602089
  0
VERTEX
  8
0
 62
7
  6
CONTINUOUS
 10
99.5932543485
 20
115.6344630925
  0
VERTEX
  8
0
 62
7
  6
CONTINUOUS
 10
99.5443230811
 20
115.6653122263
  0
VERTEX
  8
0
 62
7
  6
CONTINUOUS
 10
99.5022967183
 20
115.6987762292
  0
VERTEX
  8
0
 62
7
  6
CONTINUOUS
 10
99.4669530436
 20
115.7349114312
  0
VERTEX
  8
0
 62
7
  6
CONTINUOUS
 10
99.4385879002
 20
115.7736746728
  0
VERTEX
  8
0
 62
7
  6
CONTINUOUS
 10
99.4180116025
 20
115.8149482725
  0
VERTEX
  8
0
 62
7
  6
CONTINUOUS
 10
99.4068285754
 20
115.8579456087
  0
VERTEX
  8
0
 62
7
  6
CONTINUOUS
 10
99.4053385631
 20
115.8791845119
  0
SEQEND
  0
LINE
  8
0
 62
7
  6
CONTINUOUS
 10
101.0200021822
 20
115.5031972426
 11
100.7369880132
 21
115.500755188
  0
LINE
  8
0
 62
7
  6
CONTINUOUS
 10
55.6290815431
 20
115.6746255255
 11
55.9121032798
 21
115.6770414999
  0
LINE
  8
0
 62
7
  6
CONTINUOUS
 10
101.0200021822
 20
115.5031972426
 11
106.5681031228
 21
115.5037536194
  0
LINE
  8
0
 62
7
  6
CONTINUOUS
 10
50.0849934175
 20
115.6740899331
 11
55.6290815431
 21
115.6746255255
  0
LINE
  8
0
 62
7
  6
CONTINUOUS
 10
106.5681352358
 20
115.5037536194
 11
106.5691432729
 21
115.5036942933
  0
LINE
  8
0
 62
7
  6
CONTINUOUS
 10
110.8609606232
 20
114.4315496901
 11
110.7562350782
 21
114.4474520645
  0
POLYLINE
  8
0
 62
7
  6
CONTINUOUS
 66
1
 70
0
  0
VERTEX
  8
0
 62
7
  6
CONTINUOUS
 10
45.8877627797
 20
133.5344526024
  0
VERTEX
  8
0
 62
7
  6
CONTINUOUS
 10
46.2887120014
 20
133.3546693272
  0
VERTEX
  8
0
 62
7
  6
CONTINUOUS
 10
46.7543250423
 20
133.1796047891
  0
VERTEX
  8
0
 62
7
  6
CONTINUOUS
 10
47.2559495227
 20
133.0208363872
  0
VERTEX
  8
0
 62
7
  6
CONTINUOUS
 10
47.7892857249
 20
132.8781316414
  0
VERTEX
  8
0
 62
7
  6
CONTINUOUS
 10
48.3496767467
 20
132.7514434078
  0
VERTEX
  8
0
 62
7
  6
CONTINUOUS
 10
48.9322875522
 20
132.6407558768
  0
VERTEX
  8
0
 62
7
  6
CONTINUOUS
 10
49.5321124791
 20
132.5460270255
  0
VERTEX
  8
0
 62
7
  6
CONTINUOUS
 10
50.0839056005
 20
132.4741492117
  0
SEQEND
  0
POLYLINE
  8
0
 62
7
  6
CONTINUOUS
 66
1
 70
0
  0
VERTEX
  8
0
 62
7
  6
CONTINUOUS
 10
106.5691432729
 20
98.7036942933
  0
VERTEX
  8
0
 62
7
  6
CONTINUOUS
 10
106.5777401709
 20
98.697882593
  0
VERTEX
  8
0
 62
7
  6
CONTINUOUS
 10
106.5865334893
 20
98.67879584
  0
VERTEX
  8
0
 62
7
  6
CONTINUOUS
 10
106.5932619321
 20
98.6475945929
  0
VERTEX
  8
0
 62
7
  6
CONTINUOUS
 10
106.5975816354
 20
98.606276047
  0
VERTEX
  8
0
 62
7
  6
CONTINUOUS
 10
106.5993705221
 20
98.5575797009
  0
VERTEX
  8
0
 62
7
  6
CONTINUOUS
 10
106.5988108347
 20
98.5037536194
  0
SEQEND
  0
LINE
  8
0
 62
7
  6
CONTINUOUS
 10
110.3620474846
 20
158.5537248761
 11
110.7652941172
 21
158.7344515593
  0
LINE
  8
0
 62
7
  6
CONTINUOUS
 10
106.5691475286
 20
124.074149238
 11
106.5681276169
 21
124.0740899361
  0
LINE
  8
0
 62
7
  6
CONTINUOUS
 10
50.0839114662
 20
123.9036943113
 11
50.084931406
 21
123.9037536165
  0
POLYLINE
  8
0
 62
7
  6
CONTINUOUS
 66
1
 70
0
  0
VERTEX
  8
0
 62
7
  6
CONTINUOUS
 10
56.2095311521
 20
123.8967911144
  0
VERTEX
  8
0
 62
7
  6
CONTINUOUS
 10
55.9160671663
 20
123.9007555909
  0
VERTEX
  8
0
 62
7
  6
CONTINUOUS
 10
55.6330549648
 20
123.9031973348
  0
VERTEX
  8
0
 62
7
  6
CONTINUOUS
 10
50.0849934175
 20
123.9037536194
  0
SEQEND
  0
POLYLINE
  8
0
 62
7
  6
CONTINUOUS
 66
1
 70
0
  0
VERTEX
  8
0
 62
7
  6
CONTINUOUS
 10
100.4471566966
 20
124.0810190553
  0
VERTEX
  8
0
 62
7
  6
CONTINUOUS
 10
100.7409557938
 20
124.0770415001
  0
VERTEX
  8
0
 62
7
  6
CONTINUOUS
 10
101.0239774543
 20
124.0746255257
  0
VERTEX
  8
0
 62
7
  6
CONTINUOUS
 10
106.5680656055
 20
124.0740899331
  0
SEQEND
  0
LINE
  8
0
 62
7
  6
CONTINUOUS
 10
46.2887120014
 20
123.0231742253
 11
45.8877627797
 21
122.8433909501
  0
POLYLINE
  8
0
 62
7
  6
CONTINUOUS
 66
1
 70
0
  0
VERTEX
  8
0
 62
7
  6
CONTINUOUS
 10
45.7921057352
 20
122.8315508337
  0
VERTEX
  8
0
 62
7
  6
CONTINUOUS
 10
45.6233106818
 20
122.8036641879
  0
VERTEX
  8
0
 62
7
  6
CONTINUOUS
 10
45.4587504654
 20
122.7728202865
  0
VERTEX
  8
0
 62
7
  6
CONTINUOUS
 10
45.3153121889
 20
122.7419365357
  0
VERTEX
  8
0
 62
7
  6
CONTINUOUS
 10
45.1896338884
 20
122.7105984891
  0
VERTEX
  8
0
 62
7
  6
CONTINUOUS
 10
45.0783202181
 20
122.6780971038
  0
VERTEX
  8
0
 62
7
  6
CONTINUOUS
 10
44.9777105966
 20
122.643184801
  0
VERTEX
  8
0
 62
7
  6
CONTINUOUS
 10
44.8837457255
 20
122.6036481737
  0
VERTEX
  8
0
 62
7
  6
CONTINUOUS
 10
44.7925499445
 20
122.5558595825
  0
VERTEX
  8
0
 62
7
  6
CONTINUOUS
 10
44.7012377681
 20
122.4941505392
  0
VERTEX
  8
0
 62
7
  6
CONTINUOUS
 10
44.6101900142
 20
122.4110534719
  0
VERTEX
  8
0
 62
7
  6
CONTINUOUS
 10
44.5267204551
 20
122.3012482068
  0
VERTEX
  8
0
 62
7
  6
CONTINUOUS
 10
44.4634101479
 20
122.1670944247
  0
VERTEX
  8
0
 62
7
  6
CONTINUOUS
 10
44.4305666725
 20
122.0198481694
  0
VERTEX
  8
0
 62
7
  6
CONTINUOUS
 10
44.4265296184
 20
121.9450924637
  0
SEQEND
  0
LINE
  8
0
 62
7
  6
CONTINUOUS
 10
45.8968248719
 20
122.847454339
 11
45.7920975299
 21
122.8315495545
  0
POLYLINE
  8
0
 62
7
  6
CONTINUOUS
 66
1
 70
0
  0
VERTEX
  8
0
 62
7
  6
CONTINUOUS
 10
50.0839056005
 20
123.9036943408
  0
VERTEX
  8
0
 62
7
  6
CONTINUOUS
 10
49.5321124791
 20
123.8318165271
  0
VERTEX
  8
0
 62
7
  6
CONTINUOUS
 10
48.9322875522
 20
123.7370876758
  0
VERTEX
  8
0
 62
7
  6
CONTINUOUS
 10
48.3496767467
 20
123.6264001448
  0
VERTEX
  8
0
 62
7
  6
CONTINUOUS
 10
47.7892857249
 20
123.4997119112
  0
VERTEX
  8
0
 62
7
  6
CONTINUOUS
 10
47.2559495227
 20
123.3570071654
  0
VERTEX
  8
0
 62
7
  6
CONTINUOUS
 10
46.7543250423
 20
123.1982387635
  0
VERTEX
  8
0
 62
7
  6
CONTINUOUS
 10
46.2887120014
 20
123.0231742253
  0
SEQEND
  0
POLYLINE
  8
0
 62
7
  6
CONTINUOUS
 66
1
 70
0
  0
VERTEX
  8
0
 62
7
  6
CONTINUOUS
 10
55.9121032798
 20
132.4770414999
  0
VERTEX
  8
0
 62
7
  6
CONTINUOUS
 10
56.2054253987
 20
132.4810144768
  0
VERTEX
  8
0
 62
7
  6
CONTINUOUS
 10
56.2850189418
 20
132.4811408003
  0
VERTEX
  8
0
 62
7
  6
CONTINUOUS
 10
56.364081603
 20
132.4798621209
  0
VERTEX
  8
0
 62
7
  6
CONTINUOUS
 10
56.4423333272
 20
132.476975644
  0
VERTEX
  8
0
 62
7
  6
CONTINUOUS
 10
56.5195515712
 20
132.472260242
  0
VERTEX
  8
0
 62
7
  6
CONTINUOUS
 10
56.5955166201
 20
132.4655173215
  0
VERTEX
  8
0
 62
7
  6
CONTINUOUS
 10
56.6697957648
 20
132.4565709753
  0
VERTEX
  8
0
 62
7
  6
CONTINUOUS
 10
56.7418807631
 20
132.4452514581
  0
VERTEX
  8
0
 62
7
  6
CONTINUOUS
 10
56.811985432
 20
132.4313600589
  0
VERTEX
  8
0
 62
7
  6
CONTINUOUS
 10
56.8796355841
 20
132.414660183
  0
VERTEX
  8
0
 62
7
  6
CONTINUOUS
 10
56.9437037684
 20
132.3949456411
  0
VERTEX
  8
0
 62
7
  6
CONTINUOUS
 10
57.0031935934
 20
132.3715989636
  0
VERTEX
  8
0
 62
7
  6
CONTINUOUS
 10
57.0584625423
 20
132.3441305404
  0
VERTEX
  8
0
 62
7
  6
CONTINUOUS
 10
57.1079070716
 20
132.3131156638
  0
VERTEX
  8
0
 62
7
  6
CONTINUOUS
 10
57.1500860445
 20
132.2796729778
  0
VERTEX
  8
0
 62
7
  6
CONTINUOUS
 10
57.1853603363
 20
132.2438030865
  0
VERTEX
  8
0
 62
7
  6
CONTINUOUS
 10
57.2136561478
 20
132.2054829111
  0
VERTEX
  8
0
 62
7
  6
CONTINUOUS
 10
57.2343662534
 20
132.1646519106
  0
VERTEX
  8
0
 62
7
  6
CONTINUOUS
 10
57.2459545154
 20
132.1218550879
  0
VERTEX
  8
0
 62
7
  6
CONTINUOUS
 10
57.2477210256
 20
132.0984852896
  0
SEQEND
  0
POLYLINE
  8
0
 62
7
  6
CONTINUOUS
 66
1
 70
0
  0
VERTEX
  8
0
 62
7
  6
CONTINUOUS
 10
100.7369880132
 20
132.300755188
  0
VERTEX
  8
0
 62
7
  6
CONTINUOUS
 10
100.4429562422
 20
132.296785467
  0
VERTEX
  8
0
 62
7
  6
CONTINUOUS
 10
100.3630870692
 20
132.2967388006
  0
VERTEX
  8
0
 62
7
  6
CONTINUOUS
 10
100.283911606
 20
132.2981155652
  0
VERTEX
  8
0
 62
7
  6
CONTINUOUS
 10
100.2056896322
 20
132.3011146747
  0
VERTEX
  8
0
 62
7
  6
CONTINUOUS
 10
100.1286185127
 20
132.3059502445
  0
VERTEX
  8
0
 62
7
  6
CONTINUOUS
 10
100.0529053401
 20
132.3128113742
  0
VERTEX
  8
0
 62
7
  6
CONTINUOUS
 10
99.9789780712
 20
132.3218672726
  0
VERTEX
  8
0
 62
7
  6
CONTINUOUS
 10
99.907282895
 20
132.3332829284
  0
VERTEX
  8
0
 62
7
  6
CONTINUOUS
 10
99.8376838729
 20
132.3472389045
  0
VERTEX
  8
0
 62
7
  6
CONTINUOUS
 10
99.7704482868
 20
132.364006659
  0
VERTEX
  8
0
 62
7
  6
CONTINUOUS
 10
99.7070192459
 20
132.3837088109
  0
VERTEX
  8
0
 62
7
  6
CONTINUOUS
 10
99.6480243535
 20
132.4070602089
  0
VERTEX
  8
0
 62
7
  6
CONTINUOUS
 10
99.5932543485
 20
132.4344630925
  0
VERTEX
  8
0
 62
7
  6
CONTINUOUS
 10
99.5443230811
 20
132.4653122263
  0
VERTEX
  8
0
 62
7
  6
CONTINUOUS
 10
99.5022967183
 20
132.4987762292
  0
VERTEX
  8
0
 62
7
  6
CONTINUOUS
 10
99.4669530436
 20
132.5349114312
  0
VERTEX
  8
0
 62
7
  6
CONTINUOUS
 10
99.4385879002
 20
132.5736746728
  0
VERTEX
  8
0
 62
7
  6
CONTINUOUS
 10
99.4180116025
 20
132.6149482725
  0
VERTEX
  8
0
 62
7
  6
CONTINUOUS
 10
99.4068285754
 20
132.6579456087
  0
VERTEX
  8
0
 62
7
  6
CONTINUOUS
 10
99.4053385631
 20
132.6791845119
  0
SEQEND
  0
LINE
  8
0
 62
7
  6
CONTINUOUS
 10
101.0200021822
 20
132.3031972426
 11
100.7369880132
 21
132.300755188
  0
LINE
  8
0
 62
7
  6
CONTINUOUS
 10
55.6290815431
 20
132.4746255255
 11
55.9121032798
 21
132.4770414999
  0
LINE
  8
0
 62
7
  6
CONTINUOUS
 10
101.0200021822
 20
132.3031972426
 11
106.5681031228
 21
132.3037536194
  0
LINE
  8
0
 62
7
  6
CONTINUOUS
 10
50.0849934175
 20
132.4740899331
 11
55.6290815431
 21
132.4746255255
  0
LINE
  8
0
 62
7
  6
CONTINUOUS
 10
50.0839114662
 20
132.4741492413
 11
50.084931406
 21
132.4740899361
  0
LINE
  8
0
 62
7
  6
CONTINUOUS
 10
45.7920975299
 20
133.5462939981
 11
45.8968248719
 21
133.5303892136
  0
POLYLINE
  8
0
 62
7
  6
CONTINUOUS
 66
1
 70
0
  0
VERTEX
  8
0
 62
7
  6
CONTINUOUS
 10
110.7652941172
 20
114.4433919933
  0
VERTEX
  8
0
 62
7
  6
CONTINUOUS
 10
110.3620473777
 20
114.6241187204
  0
VERTEX
  8
0
 62
7
  6
CONTINUOUS
 10
109.8961966465
 20
114.7991125382
  0
VERTEX
  8
0
 62
7
  6
CONTINUOUS
 10
109.3943461264
 20
114.9578104913
  0
VERTEX
  8
0
 62
7
  6
CONTINUOUS
 10
108.860798293
 20
115.1004432669
  0
VERTEX
  8
0
 62
7
  6
CONTINUOUS
 10
108.3002124621
 20
115.2270571668
  0
VERTEX
  8
0
 62
7
  6
CONTINUOUS
 10
107.7174253271
 20
115.3376677776
  0
VERTEX
  8
0
 62
7
  6
CONTINUOUS
 10
107.1174437388
 20
115.4323172374
  0
VERTEX
  8
0
 62
7
  6
CONTINUOUS
 10
106.5691533943
 20
115.5036943442
  0
SEQEND
  0
LINE
  8
0
 62
7
  6
CONTINUOUS
 10
110.3620474846
 20
141.7537248761
 11
110.7652941172
 21
141.9344515593
  0
POLYLINE
  8
0
 62
7
  6
CONTINUOUS
 66
1
 70
0
  0
VERTEX
  8
0
 62
7
  6
CONTINUOUS
 10
110.8609525357
 20
141.9462926017
  0
VERTEX
  8
0
 62
7
  6
CONTINUOUS
 10
111.0284651049
 20
141.9739544134
  0
VERTEX
  8
0
 62
7
  6
CONTINUOUS
 10
111.193491323
 20
142.0048592113
  0
VERTEX
  8
0
 62
7
  6
CONTINUOUS
 10
111.3373190243
 20
142.0358079978
  0
VERTEX
  8
0
 62
7
  6
CONTINUOUS
 10
111.4633216474
 20
142.0672171851
  0
VERTEX
  8
0
 62
7
  6
CONTINUOUS
 10
111.5749084865
 20
142.0998003261
  0
VERTEX
  8
0
 62
7
  6
CONTINUOUS
 10
111.6757598053
 20
142.1348153349
  0
VERTEX
  8
0
 62
7
  6
CONTINUOUS
 10
111.7699632718
 20
142.1744988332
  0
VERTEX
  8
0
 62
7
  6
CONTINUOUS
 10
111.8614271976
 20
142.2225259511
  0
VERTEX
  8
0
 62
7
  6
CONTINUOUS
 10
111.9530344203
 20
142.2846356018
  0
VERTEX
  8
0
 62
7
  6
CONTINUOUS
 10
112.0443252879
 20
142.3683645266
  0
VERTEX
  8
0
 62
7
  6
CONTINUOUS
 10
112.1278131955
 20
142.4790099378
  0
VERTEX
  8
0
 62
7
  6
CONTINUOUS
 10
112.1907569189
 20
142.6139996033
  0
VERTEX
  8
0
 62
7
  6
CONTINUOUS
 10
112.2228990748
 20
142.7618343926
  0
VERTEX
  8
0
 62
7
  6
CONTINUOUS
 10
112.2265290776
 20
142.8319337736
  0
SEQEND
  0
LINE
  8
0
 62
7
  6
CONTINUOUS
 10
110.7562350785
 20
141.9303914882
 11
110.8609606232
 21
141.9462938625
  0
POLYLINE
  8
0
 62
7
  6
CONTINUOUS
 66
1
 70
0
  0
VERTEX
  8
0
 62
7
  6
CONTINUOUS
 10
106.5691533943
 20
140.8741492084
  0
VERTEX
  8
0
 62
7
  6
CONTINUOUS
 10
107.1174447767
 20
140.9455264635
  0
VERTEX
  8
0
 62
7
  6
CONTINUOUS
 10
107.7174261921
 20
141.0401759248
  0
VERTEX
  8
0
 62
7
  6
CONTINUOUS
 10
108.3002131566
 20
141.1507865297
  0
VERTEX
  8
0
 62
7
  6
CONTINUOUS
 10
108.8607988229
 20
141.2774004158
  0
VERTEX
  8
0
 62
7
  6
CONTINUOUS
 10
109.3943465012
 20
141.4200331702
  0
VERTEX
  8
0
 62
7
  6
CONTINUOUS
 10
109.8961968792
 20
141.5787310945
  0
VERTEX
  8
0
 62
7
  6
CONTINUOUS
 10
110.3620474846
 20
141.7537248761
  0
SEQEND
  0
LINE
  8
0
 62
7
  6
CONTINUOUS
 10
106.5691475286
 20
140.874149238
 11
106.5681276169
 21
140.8740899361
  0
LINE
  8
0
 62
7
  6
CONTINUOUS
 10
106.5681352358
 20
132.3037536194
 11
106.5691432729
 21
132.3036942933
  0
LINE
  8
0
 62
7
  6
CONTINUOUS
 10
110.8609606232
 20
131.2315496901
 11
110.7562350782
 21
131.2474520645
  0
POLYLINE
  8
0
 62
7
  6
CONTINUOUS
 66
1
 70
0
  0
VERTEX
  8
0
 62
7
  6
CONTINUOUS
 10
45.8877627797
 20
150.3344526024
  0
VERTEX
  8
0
 62
7
  6
CONTINUOUS
 10
46.2887120014
 20
150.1546693272
  0
VERTEX
  8
0
 62
7
  6
CONTINUOUS
 10
46.7543250423
 20
149.9796047891
  0
VERTEX
  8
0
 62
7
  6
CONTINUOUS
 10
47.2559495227
 20
149.8208363872
  0
VERTEX
  8
0
 62
7
  6
CONTINUOUS
 10
47.7892857249
 20
149.6781316414
  0
VERTEX
  8
0
 62
7
  6
CONTINUOUS
 10
48.3496767467
 20
149.5514434078
  0
VERTEX
  8
0
 62
7
  6
CONTINUOUS
 10
48.9322875522
 20
149.4407558768
  0
VERTEX
  8
0
 62
7
  6
CONTINUOUS
 10
49.5321124791
 20
149.3460270255
  0
VERTEX
  8
0
 62
7
  6
CONTINUOUS
 10
50.0839056005
 20
149.2741492117
  0
SEQEND
  0
POLYLINE
  8
0
 62
7
  6
CONTINUOUS
 66
1
 70
0
  0
VERTEX
  8
0
 62
7
  6
CONTINUOUS
 10
106.5691432729
 20
115.5036942933
  0
VERTEX
  8
0
 62
7
  6
CONTINUOUS
 10
106.5777401709
 20
115.497882593
  0
VERTEX
  8
0
 62
7
  6
CONTINUOUS
 10
106.5865334893
 20
115.47879584
  0
VERTEX
  8
0
 62
7
  6
CONTINUOUS
 10
106.5932619321
 20
115.4475945929
  0
VERTEX
  8
0
 62
7
  6
CONTINUOUS
 10
106.5975816354
 20
115.406276047
  0
VERTEX
  8
0
 62
7
  6
CONTINUOUS
 10
106.5993705221
 20
115.3575797009
  0
VERTEX
  8
0
 62
7
  6
CONTINUOUS
 10
106.5988108347
 20
115.3037536194
  0
SEQEND
  0
LINE
  8
0
 62
7
  6
CONTINUOUS
 10
46.2887120014
 20
106.2231742253
 11
45.8877627797
 21
106.0433909501
  0
POLYLINE
  8
0
 62
7
  6
CONTINUOUS
 66
1
 70
0
  0
VERTEX
  8
0
 62
7
  6
CONTINUOUS
 10
45.7921057352
 20
139.6315508337
  0
VERTEX
  8
0
 62
7
  6
CONTINUOUS
 10
45.6233106818
 20
139.6036641879
  0
VERTEX
  8
0
 62
7
  6
CONTINUOUS
 10
45.4587504654
 20
139.5728202865
  0
VERTEX
  8
0
 62
7
  6
CONTINUOUS
 10
45.3153121889
 20
139.5419365357
  0
VERTEX
  8
0
 62
7
  6
CONTINUOUS
 10
45.1896338884
 20
139.5105984891
  0
VERTEX
  8
0
 62
7
  6
CONTINUOUS
 10
45.0783202181
 20
139.4780971038
  0
VERTEX
  8
0
 62
7
  6
CONTINUOUS
 10
44.9777105966
 20
139.443184801
  0
VERTEX
  8
0
 62
7
  6
CONTINUOUS
 10
44.8837457255
 20
139.4036481737
  0
VERTEX
  8
0
 62
7
  6
CONTINUOUS
 10
44.7925499445
 20
139.3558595825
  0
VERTEX
  8
0
 62
7
  6
CONTINUOUS
 10
44.7012377681
 20
139.2941505392
  0
VERTEX
  8
0
 62
7
  6
CONTINUOUS
 10
44.6101900142
 20
139.2110534719
  0
VERTEX
  8
0
 62
7
  6
CONTINUOUS
 10
44.5267204551
 20
139.1012482068
  0
VERTEX
  8
0
 62
7
  6
CONTINUOUS
 10
44.4634101479
 20
138.9670944247
  0
VERTEX
  8
0
 62
7
  6
CONTINUOUS
 10
44.4305666725
 20
138.8198481694
  0
VERTEX
  8
0
 62
7
  6
CONTINUOUS
 10
44.4265296184
 20
138.7450924637
  0
SEQEND
  0
LINE
  8
0
 62
7
  6
CONTINUOUS
 10
45.8968248719
 20
139.647454339
 11
45.7920975299
 21
139.6315495545
  0
POLYLINE
  8
0
 62
7
  6
CONTINUOUS
 66
1
 70
0
  0
VERTEX
  8
0
 62
7
  6
CONTINUOUS
 10
50.0839056005
 20
140.7036943408
  0
VERTEX
  8
0
 62
7
  6
CONTINUOUS
 10
49.5321124791
 20
140.6318165271
  0
VERTEX
  8
0
 62
7
  6
CONTINUOUS
 10
48.9322875522
 20
140.5370876758
  0
VERTEX
  8
0
 62
7
  6
CONTINUOUS
 10
48.3496767467
 20
140.4264001448
  0
VERTEX
  8
0
 62
7
  6
CONTINUOUS
 10
47.7892857249
 20
140.2997119112
  0
VERTEX
  8
0
 62
7
  6
CONTINUOUS
 10
47.2559495227
 20
140.1570071654
  0
VERTEX
  8
0
 62
7
  6
CONTINUOUS
 10
46.7543250423
 20
139.9982387635
  0
VERTEX
  8
0
 62
7
  6
CONTINUOUS
 10
46.2887120014
 20
139.8231742253
  0
SEQEND
  0
LINE
  8
0
 62
7
  6
CONTINUOUS
 10
50.0839114662
 20
140.7036943113
 11
50.084931406
 21
140.7037536165
  0
POLYLINE
  8
0
 62
7
  6
CONTINUOUS
 66
1
 70
0
  0
VERTEX
  8
0
 62
7
  6
CONTINUOUS
 10
56.2095311521
 20
140.6967911144
  0
VERTEX
  8
0
 62
7
  6
CONTINUOUS
 10
55.9160671663
 20
140.7007555909
  0
VERTEX
  8
0
 62
7
  6
CONTINUOUS
 10
55.6330549648
 20
140.7031973348
  0
VERTEX
  8
0
 62
7
  6
CONTINUOUS
 10
50.0849934175
 20
140.7037536194
  0
SEQEND
  0
POLYLINE
  8
0
 62
7
  6
CONTINUOUS
 66
1
 70
0
  0
VERTEX
  8
0
 62
7
  6
CONTINUOUS
 10
100.4471566966
 20
140.8810190553
  0
VERTEX
  8
0
 62
7
  6
CONTINUOUS
 10
100.7409557938
 20
140.8770415001
  0
VERTEX
  8
0
 62
7
  6
CONTINUOUS
 10
101.0239774543
 20
140.8746255257
  0
VERTEX
  8
0
 62
7
  6
CONTINUOUS
 10
106.5680656055
 20
140.8740899331
  0
SEQEND
  0
LINE
  8
0
 62
7
  6
CONTINUOUS
 10
45.7920975299
 20
150.3462939981
 11
45.8968248719
 21
150.3303892136
  0
POLYLINE
  8
0
 62
7
  6
CONTINUOUS
 66
1
 70
0
  0
VERTEX
  8
0
 62
7
  6
CONTINUOUS
 10
110.7652941172
 20
131.2433919933
  0
VERTEX
  8
0
 62
7
  6
CONTINUOUS
 10
110.3620473777
 20
131.4241187204
  0
VERTEX
  8
0
 62
7
  6
CONTINUOUS
 10
109.8961966465
 20
131.5991125382
  0
VERTEX
  8
0
 62
7
  6
CONTINUOUS
 10
109.3943461264
 20
131.7578104913
  0
VERTEX
  8
0
 62
7
  6
CONTINUOUS
 10
108.860798293
 20
131.9004432669
  0
VERTEX
  8
0
 62
7
  6
CONTINUOUS
 10
108.3002124621
 20
132.0270571668
  0
VERTEX
  8
0
 62
7
  6
CONTINUOUS
 10
107.7174253271
 20
132.1376677776
  0
VERTEX
  8
0
 62
7
  6
CONTINUOUS
 10
107.1174437388
 20
132.2323172374
  0
VERTEX
  8
0
 62
7
  6
CONTINUOUS
 10
106.5691533943
 20
132.3036943442
  0
SEQEND
  0
POLYLINE
  8
0
 62
7
  6
CONTINUOUS
 66
1
 70
0
  0
VERTEX
  8
0
 62
7
  6
CONTINUOUS
 10
99.4053380075
 20
190.8984859896
  0
VERTEX
  8
0
 62
7
  6
CONTINUOUS
 10
99.4070724152
 20
190.9216362064
  0
VERTEX
  8
0
 62
7
  6
CONTINUOUS
 10
99.4186762415
 20
190.9646107713
  0
VERTEX
  8
0
 62
7
  6
CONTINUOUS
 10
99.4395824916
 20
191.0057710676
  0
VERTEX
  8
0
 62
7
  6
CONTINUOUS
 10
99.4681991701
 20
191.0443849493
  0
VERTEX
  8
0
 62
7
  6
CONTINUOUS
 10
99.5037605745
 20
191.0803766371
  0
VERTEX
  8
0
 62
7
  6
CONTINUOUS
 10
99.5460035339
 20
191.1137153065
  0
VERTEX
  8
0
 62
7
  6
CONTINUOUS
 10
99.5951672646
 20
191.1444496362
  0
VERTEX
  8
0
 62
7
  6
CONTINUOUS
 10
99.6501610904
 20
191.1717298235
  0
VERTEX
  8
0
 62
7
  6
CONTINUOUS
 10
99.7093775061
 20
191.1949534511
  0
VERTEX
  8
0
 62
7
  6
CONTINUOUS
 10
99.7730899514
 20
191.2145618288
  0
VERTEX
  8
0
 62
7
  6
CONTINUOUS
 10
99.8405095292
 20
191.2312346475
  0
VERTEX
  8
0
 62
7
  6
CONTINUOUS
 10
99.9103067911
 20
191.2450982735
  0
VERTEX
  8
0
 62
7
  6
CONTINUOUS
 10
99.9821786673
 20
191.2564210851
  0
VERTEX
  8
0
 62
7
  6
CONTINUOUS
 10
100.0562961035
 20
191.2653876714
  0
VERTEX
  8
0
 62
7
  6
CONTINUOUS
 10
100.1321883861
 20
191.2721618177
  0
VERTEX
  8
0
 62
7
  6
CONTINUOUS
 10
100.2094311556
 20
191.2769127424
  0
VERTEX
  8
0
 62
7
  6
CONTINUOUS
 10
100.287820498
 20
191.2798319057
  0
VERTEX
  8
0
 62
7
  6
CONTINUOUS
 10
100.3671502648
 20
191.2811345493
  0
VERTEX
  8
0
 62
7
  6
CONTINUOUS
 10
100.4471566966
 20
191.2810190553
  0
SEQEND
  0
POLYLINE
  8
0
 62
7
  6
CONTINUOUS
 66
1
 70
0
  0
VERTEX
  8
0
 62
7
  6
CONTINUOUS
 10
99.4053380075
 20
174.0984859896
  0
VERTEX
  8
0
 62
7
  6
CONTINUOUS
 10
99.4070724152
 20
174.1216362064
  0
VERTEX
  8
0
 62
7
  6
CONTINUOUS
 10
99.4186762415
 20
174.1646107713
  0
VERTEX
  8
0
 62
7
  6
CONTINUOUS
 10
99.4395824916
 20
174.2057710676
  0
VERTEX
  8
0
 62
7
  6
CONTINUOUS
 10
99.4681991701
 20
174.2443849493
  0
VERTEX
  8
0
 62
7
  6
CONTINUOUS
 10
99.5037605745
 20
174.2803766371
  0
VERTEX
  8
0
 62
7
  6
CONTINUOUS
 10
99.5460035339
 20
174.3137153065
  0
VERTEX
  8
0
 62
7
  6
CONTINUOUS
 10
99.5951672646
 20
174.3444496362
  0
VERTEX
  8
0
 62
7
  6
CONTINUOUS
 10
99.6501610904
 20
174.3717298235
  0
VERTEX
  8
0
 62
7
  6
CONTINUOUS
 10
99.7093775061
 20
174.3949534511
  0
VERTEX
  8
0
 62
7
  6
CONTINUOUS
 10
99.7730899514
 20
174.4145618288
  0
VERTEX
  8
0
 62
7
  6
CONTINUOUS
 10
99.8405095292
 20
174.4312346475
  0
VERTEX
  8
0
 62
7
  6
CONTINUOUS
 10
99.9103067911
 20
174.4450982735
  0
VERTEX
  8
0
 62
7
  6
CONTINUOUS
 10
99.9821786673
 20
174.4564210851
  0
VERTEX
  8
0
 62
7
  6
CONTINUOUS
 10
100.0562961035
 20
174.4653876714
  0
VERTEX
  8
0
 62
7
  6
CONTINUOUS
 10
100.1321883861
 20
174.4721618177
  0
VERTEX
  8
0
 62
7
  6
CONTINUOUS
 10
100.2094311556
 20
174.4769127424
  0
VERTEX
  8
0
 62
7
  6
CONTINUOUS
 10
100.287820498
 20
174.4798319057
  0
VERTEX
  8
0
 62
7
  6
CONTINUOUS
 10
100.3671502648
 20
174.4811345493
  0
VERTEX
  8
0
 62
7
  6
CONTINUOUS
 10
100.4471566966
 20
174.4810190553
  0
SEQEND
  0
POLYLINE
  8
0
 62
7
  6
CONTINUOUS
 66
1
 70
0
  0
VERTEX
  8
0
 62
7
  6
CONTINUOUS
 10
99.4053380075
 20
157.2984859896
  0
VERTEX
  8
0
 62
7
  6
CONTINUOUS
 10
99.4070724152
 20
157.3216362064
  0
VERTEX
  8
0
 62
7
  6
CONTINUOUS
 10
99.4186762415
 20
157.3646107713
  0
VERTEX
  8
0
 62
7
  6
CONTINUOUS
 10
99.4395824916
 20
157.4057710676
  0
VERTEX
  8
0
 62
7
  6
CONTINUOUS
 10
99.4681991701
 20
157.4443849493
  0
VERTEX
  8
0
 62
7
  6
CONTINUOUS
 10
99.5037605745
 20
157.4803766371
  0
VERTEX
  8
0
 62
7
  6
CONTINUOUS
 10
99.5460035339
 20
157.5137153065
  0
VERTEX
  8
0
 62
7
  6
CONTINUOUS
 10
99.5951672646
 20
157.5444496362
  0
VERTEX
  8
0
 62
7
  6
CONTINUOUS
 10
99.6501610904
 20
157.5717298235
  0
VERTEX
  8
0
 62
7
  6
CONTINUOUS
 10
99.7093775061
 20
157.5949534511
  0
VERTEX
  8
0
 62
7
  6
CONTINUOUS
 10
99.7730899514
 20
157.6145618288
  0
VERTEX
  8
0
 62
7
  6
CONTINUOUS
 10
99.8405095292
 20
157.6312346475
  0
VERTEX
  8
0
 62
7
  6
CONTINUOUS
 10
99.9103067911
 20
157.6450982735
  0
VERTEX
  8
0
 62
7
  6
CONTINUOUS
 10
99.9821786673
 20
157.6564210851
  0
VERTEX
  8
0
 62
7
  6
CONTINUOUS
 10
100.0562961035
 20
157.6653876714
  0
VERTEX
  8
0
 62
7
  6
CONTINUOUS
 10
100.1321883861
 20
157.6721618177
  0
VERTEX
  8
0
 62
7
  6
CONTINUOUS
 10
100.2094311556
 20
157.6769127424
  0
VERTEX
  8
0
 62
7
  6
CONTINUOUS
 10
100.287820498
 20
157.6798319057
  0
VERTEX
  8
0
 62
7
  6
CONTINUOUS
 10
100.3671502648
 20
157.6811345493
  0
VERTEX
  8
0
 62
7
  6
CONTINUOUS
 10
100.4471566966
 20
157.6810190553
  0
SEQEND
  0
POLYLINE
  8
0
 62
7
  6
CONTINUOUS
 66
1
 70
0
  0
VERTEX
  8
0
 62
7
  6
CONTINUOUS
 10
55.9121032798
 20
149.2770414999
  0
VERTEX
  8
0
 62
7
  6
CONTINUOUS
 10
56.2054253987
 20
149.2810144768
  0
VERTEX
  8
0
 62
7
  6
CONTINUOUS
 10
56.2850189418
 20
149.2811408003
  0
VERTEX
  8
0
 62
7
  6
CONTINUOUS
 10
56.364081603
 20
149.2798621209
  0
VERTEX
  8
0
 62
7
  6
CONTINUOUS
 10
56.4423333272
 20
149.276975644
  0
VERTEX
  8
0
 62
7
  6
CONTINUOUS
 10
56.5195515712
 20
149.272260242
  0
VERTEX
  8
0
 62
7
  6
CONTINUOUS
 10
56.5955166201
 20
149.2655173215
  0
VERTEX
  8
0
 62
7
  6
CONTINUOUS
 10
56.6697957648
 20
149.2565709753
  0
VERTEX
  8
0
 62
7
  6
CONTINUOUS
 10
56.7418807631
 20
149.2452514581
  0
VERTEX
  8
0
 62
7
  6
CONTINUOUS
 10
56.811985432
 20
149.2313600589
  0
VERTEX
  8
0
 62
7
  6
CONTINUOUS
 10
56.8796355841
 20
149.214660183
  0
VERTEX
  8
0
 62
7
  6
CONTINUOUS
 10
56.9437037684
 20
149.1949456411
  0
VERTEX
  8
0
 62
7
  6
CONTINUOUS
 10
57.0031935934
 20
149.1715989636
  0
VERTEX
  8
0
 62
7
  6
CONTINUOUS
 10
57.0584625423
 20
149.1441305404
  0
VERTEX
  8
0
 62
7
  6
CONTINUOUS
 10
57.1079070716
 20
149.1131156638
  0
VERTEX
  8
0
 62
7
  6
CONTINUOUS
 10
57.1500860445
 20
149.0796729778
  0
VERTEX
  8
0
 62
7
  6
CONTINUOUS
 10
57.1853603363
 20
149.0438030865
  0
VERTEX
  8
0
 62
7
  6
CONTINUOUS
 10
57.2136561478
 20
149.0054829111
  0
VERTEX
  8
0
 62
7
  6
CONTINUOUS
 10
57.2343662534
 20
148.9646519106
  0
VERTEX
  8
0
 62
7
  6
CONTINUOUS
 10
57.2459545154
 20
148.9218550879
  0
VERTEX
  8
0
 62
7
  6
CONTINUOUS
 10
57.2477210256
 20
148.8984852896
  0
SEQEND
  0
POLYLINE
  8
0
 62
7
  6
CONTINUOUS
 66
1
 70
0
  0
VERTEX
  8
0
 62
7
  6
CONTINUOUS
 10
100.7369880132
 20
149.100755188
  0
VERTEX
  8
0
 62
7
  6
CONTINUOUS
 10
100.4429562422
 20
149.096785467
  0
VERTEX
  8
0
 62
7
  6
CONTINUOUS
 10
100.3630870692
 20
149.0967388006
  0
VERTEX
  8
0
 62
7
  6
CONTINUOUS
 10
100.283911606
 20
149.0981155652
  0
VERTEX
  8
0
 62
7
  6
CONTINUOUS
 10
100.2056896322
 20
149.1011146747
  0
VERTEX
  8
0
 62
7
  6
CONTINUOUS
 10
100.1286185127
 20
149.1059502445
  0
VERTEX
  8
0
 62
7
  6
CONTINUOUS
 10
100.0529053401
 20
149.1128113742
  0
VERTEX
  8
0
 62
7
  6
CONTINUOUS
 10
99.9789780712
 20
149.1218672726
  0
VERTEX
  8
0
 62
7
  6
CONTINUOUS
 10
99.907282895
 20
149.1332829284
  0
VERTEX
  8
0
 62
7
  6
CONTINUOUS
 10
99.8376838729
 20
149.1472389045
  0
VERTEX
  8
0
 62
7
  6
CONTINUOUS
 10
99.7704482868
 20
149.164006659
  0
VERTEX
  8
0
 62
7
  6
CONTINUOUS
 10
99.7070192459
 20
149.1837088109
  0
VERTEX
  8
0
 62
7
  6
CONTINUOUS
 10
99.6480243535
 20
149.2070602089
  0
VERTEX
  8
0
 62
7
  6
CONTINUOUS
 10
99.5932543485
 20
149.2344630925
  0
VERTEX
  8
0
 62
7
  6
CONTINUOUS
 10
99.5443230811
 20
149.2653122263
  0
VERTEX
  8
0
 62
7
  6
CONTINUOUS
 10
99.5022967183
 20
149.2987762292
  0
VERTEX
  8
0
 62
7
  6
CONTINUOUS
 10
99.4669530436
 20
149.3349114312
  0
VERTEX
  8
0
 62
7
  6
CONTINUOUS
 10
99.4385879002
 20
149.3736746728
  0
VERTEX
  8
0
 62
7
  6
CONTINUOUS
 10
99.4180116025
 20
149.4149482725
  0
VERTEX
  8
0
 62
7
  6
CONTINUOUS
 10
99.4068285754
 20
149.4579456087
  0
VERTEX
  8
0
 62
7
  6
CONTINUOUS
 10
99.4053385631
 20
149.4791845119
  0
SEQEND
  0
LINE
  8
0
 62
7
  6
CONTINUOUS
 10
101.0200021822
 20
149.1031972426
 11
100.7369880132
 21
149.100755188
  0
LINE
  8
0
 62
7
  6
CONTINUOUS
 10
55.6290815431
 20
149.2746255255
 11
55.9121032798
 21
149.2770414999
  0
LINE
  8
0
 62
7
  6
CONTINUOUS
 10
101.0200021822
 20
149.1031972426
 11
106.5681031228
 21
149.1037536194
  0
LINE
  8
0
 62
7
  6
CONTINUOUS
 10
50.0849934175
 20
149.2740899331
 11
55.6290815431
 21
149.2746255255
  0
LINE
  8
0
 62
7
  6
CONTINUOUS
 10
50.0839114662
 20
149.2741492413
 11
50.084931406
 21
149.2740899361
  0
LINE
  8
0
 62
7
  6
CONTINUOUS
 10
106.5681352358
 20
149.1037536194
 11
106.5691432729
 21
149.1036942933
  0
POLYLINE
  8
0
 62
7
  6
CONTINUOUS
 66
1
 70
0
  0
VERTEX
  8
0
 62
7
  6
CONTINUOUS
 10
45.8877627797
 20
167.1344526024
  0
VERTEX
  8
0
 62
7
  6
CONTINUOUS
 10
46.2887120014
 20
166.9546693272
  0
VERTEX
  8
0
 62
7
  6
CONTINUOUS
 10
46.7543250423
 20
166.7796047891
  0
VERTEX
  8
0
 62
7
  6
CONTINUOUS
 10
47.2559495227
 20
166.6208363872
  0
VERTEX
  8
0
 62
7
  6
CONTINUOUS
 10
47.7892857249
 20
166.4781316414
  0
VERTEX
  8
0
 62
7
  6
CONTINUOUS
 10
48.3496767467
 20
166.3514434078
  0
VERTEX
  8
0
 62
7
  6
CONTINUOUS
 10
48.9322875522
 20
166.2407558768
  0
VERTEX
  8
0
 62
7
  6
CONTINUOUS
 10
49.5321124791
 20
166.1460270255
  0
VERTEX
  8
0
 62
7
  6
CONTINUOUS
 10
50.0839056005
 20
166.0741492117
  0
SEQEND
  0
POLYLINE
  8
0
 62
7
  6
CONTINUOUS
 66
1
 70
0
  0
VERTEX
  8
0
 62
7
  6
CONTINUOUS
 10
106.5691432729
 20
132.3036942933
  0
VERTEX
  8
0
 62
7
  6
CONTINUOUS
 10
106.5777401709
 20
132.297882593
  0
VERTEX
  8
0
 62
7
  6
CONTINUOUS
 10
106.5865334893
 20
132.27879584
  0
VERTEX
  8
0
 62
7
  6
CONTINUOUS
 10
106.5932619321
 20
132.2475945929
  0
VERTEX
  8
0
 62
7
  6
CONTINUOUS
 10
106.5975816354
 20
132.206276047
  0
VERTEX
  8
0
 62
7
  6
CONTINUOUS
 10
106.5993705221
 20
132.1575797009
  0
VERTEX
  8
0
 62
7
  6
CONTINUOUS
 10
106.5988108347
 20
132.1037536194
  0
SEQEND
  0
LINE
  8
0
 62
7
  6
CONTINUOUS
 10
99.4051399267
 20
207.6889217763
 11
99.4053383286
 21
199.8791847863
  0
LINE
  8
0
 62
7
  6
CONTINUOUS
 10
99.4051399267
 20
190.8195540436
 11
99.4053383286
 21
183.0791847863
  0
LINE
  8
0
 62
7
  6
CONTINUOUS
 10
99.4051399267
 20
174.0195540436
 11
99.4053383286
 21
166.2791847863
  0
LINE
  8
0
 62
7
  6
CONTINUOUS
 10
99.4051399267
 20
157.2195540436
 11
99.4053383286
 21
149.4791847863
  0
LINE
  8
0
 62
7
  6
CONTINUOUS
 10
99.4051399267
 20
140.4195540436
 11
99.4053383286
 21
132.6791847863
  0
LINE
  8
0
 62
7
  6
CONTINUOUS
 10
99.4051399267
 20
123.6195540436
 11
99.4053383286
 21
115.8791847863
  0
LINE
  8
0
 62
7
  6
CONTINUOUS
 10
99.4051399267
 20
106.8195540436
 11
99.4053383286
 21
99.0791847863
  0
LINE
  8
0
 62
7
  6
CONTINUOUS
 10
99.4051399267
 20
90.0195540436
 11
99.4053383286
 21
82.2791847863
  0
LINE
  8
0
 62
7
  6
CONTINUOUS
 10
99.4051399267
 20
73.2195540436
 11
99.4053383286
 21
65.4791847863
  0
LINE
  8
DEFAULT_1
 62
2
  6
CENTER
 10
103.7265295115
 20
54.8889217763
 11
103.7265295115
 21
199.1313025066
  0
LINE
  8
0
 62
7
  6
CONTINUOUS
 10
99.1554161605
 20
190.8996646272
 11
99.1551399267
 21
190.8195539652
  0
LINE
  8
0
 62
7
  6
CONTINUOUS
 10
99.1554161605
 20
174.0996646272
 11
99.1551399267
 21
174.0195539652
  0
LINE
  8
0
 62
7
  6
CONTINUOUS
 10
99.1554161605
 20
157.2996646272
 11
99.1551399267
 21
157.2195539652
  0
LINE
  8
0
 62
7
  6
CONTINUOUS
 10
99.1554161605
 20
140.4996646272
 11
99.1551399267
 21
140.4195539652
  0
LINE
  8
0
 62
7
  6
CONTINUOUS
 10
99.1554161605
 20
123.6996646272
 11
99.1551399267
 21
123.6195539652
  0
LINE
  8
0
 62
7
  6
CONTINUOUS
 10
99.4053681812
 20
190.8984860482
 11
99.4050946632
 21
190.8195534946
  0
LINE
  8
0
 62
7
  6
CONTINUOUS
 10
99.1554161605
 20
106.8996646272
 11
99.1551399267
 21
106.8195539652
  0
LINE
  8
0
 62
7
  6
CONTINUOUS
 10
99.4053681812
 20
174.0984860482
 11
99.4050946632
 21
174.0195534946
  0
LINE
  8
0
 62
7
  6
CONTINUOUS
 10
99.1554161605
 20
90.0996646272
 11
99.1551399267
 21
90.0195539652
  0
LINE
  8
0
 62
7
  6
CONTINUOUS
 10
99.4053681812
 20
157.2984860482
 11
99.4050946632
 21
157.2195534946
  0
LINE
  8
0
 62
7
  6
CONTINUOUS
 10
99.1554161605
 20
73.2996646272
 11
99.1551399267
 21
73.2195539652
  0
LINE
  8
0
 62
7
  6
CONTINUOUS
 10
99.4053681812
 20
140.4984860482
 11
99.4050946632
 21
140.4195534946
  0
LINE
  8
0
 62
7
  6
CONTINUOUS
 10
99.4053681812
 20
123.6984860482
 11
99.4050946632
 21
123.6195534946
  0
LINE
  8
0
 62
7
  6
CONTINUOUS
 10
99.4053681812
 20
106.8984860482
 11
99.4050946632
 21
106.8195534946
  0
LINE
  8
0
 62
7
  6
CONTINUOUS
 10
99.4053681812
 20
90.0984860482
 11
99.4050946632
 21
90.0195534946
  0
LINE
  8
0
 62
7
  6
CONTINUOUS
 10
99.4053681812
 20
73.2984860482
 11
99.4050946632
 21
73.2195534946
  0
POLYLINE
  8
0
 62
7
  6
CONTINUOUS
 66
1
 70
0
  0
VERTEX
  8
0
 62
7
  6
CONTINUOUS
 10
99.4053380075
 20
140.4984859896
  0
VERTEX
  8
0
 62
7
  6
CONTINUOUS
 10
99.4070724152
 20
140.5216362064
  0
VERTEX
  8
0
 62
7
  6
CONTINUOUS
 10
99.4186762415
 20
140.5646107713
  0
VERTEX
  8
0
 62
7
  6
CONTINUOUS
 10
99.4395824916
 20
140.6057710676
  0
VERTEX
  8
0
 62
7
  6
CONTINUOUS
 10
99.4681991701
 20
140.6443849493
  0
VERTEX
  8
0
 62
7
  6
CONTINUOUS
 10
99.5037605745
 20
140.6803766371
  0
VERTEX
  8
0
 62
7
  6
CONTINUOUS
 10
99.5460035339
 20
140.7137153065
  0
VERTEX
  8
0
 62
7
  6
CONTINUOUS
 10
99.5951672646
 20
140.7444496362
  0
VERTEX
  8
0
 62
7
  6
CONTINUOUS
 10
99.6501610904
 20
140.7717298235
  0
VERTEX
  8
0
 62
7
  6
CONTINUOUS
 10
99.7093775061
 20
140.7949534511
  0
VERTEX
  8
0
 62
7
  6
CONTINUOUS
 10
99.7730899514
 20
140.8145618288
  0
VERTEX
  8
0
 62
7
  6
CONTINUOUS
 10
99.8405095292
 20
140.8312346475
  0
VERTEX
  8
0
 62
7
  6
CONTINUOUS
 10
99.9103067911
 20
140.8450982735
  0
VERTEX
  8
0
 62
7
  6
CONTINUOUS
 10
99.9821786673
 20
140.8564210851
  0
VERTEX
  8
0
 62
7
  6
CONTINUOUS
 10
100.0562961035
 20
140.8653876714
  0
VERTEX
  8
0
 62
7
  6
CONTINUOUS
 10
100.1321883861
 20
140.8721618177
  0
VERTEX
  8
0
 62
7
  6
CONTINUOUS
 10
100.2094311556
 20
140.8769127424
  0
VERTEX
  8
0
 62
7
  6
CONTINUOUS
 10
100.287820498
 20
140.8798319057
  0
VERTEX
  8
0
 62
7
  6
CONTINUOUS
 10
100.3671502648
 20
140.8811345493
  0
VERTEX
  8
0
 62
7
  6
CONTINUOUS
 10
100.4471566966
 20
140.8810190553
  0
SEQEND
  0
POLYLINE
  8
0
 62
7
  6
CONTINUOUS
 66
1
 70
0
  0
VERTEX
  8
0
 62
7
  6
CONTINUOUS
 10
99.4053380075
 20
123.6984859896
  0
VERTEX
  8
0
 62
7
  6
CONTINUOUS
 10
99.4070724152
 20
123.7216362064
  0
VERTEX
  8
0
 62
7
  6
CONTINUOUS
 10
99.4186762415
 20
123.7646107713
  0
VERTEX
  8
0
 62
7
  6
CONTINUOUS
 10
99.4395824916
 20
123.8057710676
  0
VERTEX
  8
0
 62
7
  6
CONTINUOUS
 10
99.4681991701
 20
123.8443849493
  0
VERTEX
  8
0
 62
7
  6
CONTINUOUS
 10
99.5037605745
 20
123.8803766371
  0
VERTEX
  8
0
 62
7
  6
CONTINUOUS
 10
99.5460035339
 20
123.9137153065
  0
VERTEX
  8
0
 62
7
  6
CONTINUOUS
 10
99.5951672646
 20
123.9444496362
  0
VERTEX
  8
0
 62
7
  6
CONTINUOUS
 10
99.6501610904
 20
123.9717298235
  0
VERTEX
  8
0
 62
7
  6
CONTINUOUS
 10
99.7093775061
 20
123.9949534511
  0
VERTEX
  8
0
 62
7
  6
CONTINUOUS
 10
99.7730899514
 20
124.0145618288
  0
VERTEX
  8
0
 62
7
  6
CONTINUOUS
 10
99.8405095292
 20
124.0312346475
  0
VERTEX
  8
0
 62
7
  6
CONTINUOUS
 10
99.9103067911
 20
124.0450982735
  0
VERTEX
  8
0
 62
7
  6
CONTINUOUS
 10
99.9821786673
 20
124.0564210851
  0
VERTEX
  8
0
 62
7
  6
CONTINUOUS
 10
100.0562961035
 20
124.0653876714
  0
VERTEX
  8
0
 62
7
  6
CONTINUOUS
 10
100.1321883861
 20
124.0721618177
  0
VERTEX
  8
0
 62
7
  6
CONTINUOUS
 10
100.2094311556
 20
124.0769127424
  0
VERTEX
  8
0
 62
7
  6
CONTINUOUS
 10
100.287820498
 20
124.0798319057
  0
VERTEX
  8
0
 62
7
  6
CONTINUOUS
 10
100.3671502648
 20
124.0811345493
  0
VERTEX
  8
0
 62
7
  6
CONTINUOUS
 10
100.4471566966
 20
124.0810190553
  0
SEQEND
  0
POLYLINE
  8
0
 62
7
  6
CONTINUOUS
 66
1
 70
0
  0
VERTEX
  8
0
 62
7
  6
CONTINUOUS
 10
99.4053380075
 20
106.8984859896
  0
VERTEX
  8
0
 62
7
  6
CONTINUOUS
 10
99.4070724152
 20
106.9216362064
  0
VERTEX
  8
0
 62
7
  6
CONTINUOUS
 10
99.4186762415
 20
106.9646107713
  0
VERTEX
  8
0
 62
7
  6
CONTINUOUS
 10
99.4395824916
 20
107.0057710676
  0
VERTEX
  8
0
 62
7
  6
CONTINUOUS
 10
99.4681991701
 20
107.0443849493
  0
VERTEX
  8
0
 62
7
  6
CONTINUOUS
 10
99.5037605745
 20
107.0803766371
  0
VERTEX
  8
0
 62
7
  6
CONTINUOUS
 10
99.5460035339
 20
107.1137153065
  0
VERTEX
  8
0
 62
7
  6
CONTINUOUS
 10
99.5951672646
 20
107.1444496362
  0
VERTEX
  8
0
 62
7
  6
CONTINUOUS
 10
99.6501610904
 20
107.1717298235
  0
VERTEX
  8
0
 62
7
  6
CONTINUOUS
 10
99.7093775061
 20
107.1949534511
  0
VERTEX
  8
0
 62
7
  6
CONTINUOUS
 10
99.7730899514
 20
107.2145618288
  0
VERTEX
  8
0
 62
7
  6
CONTINUOUS
 10
99.8405095292
 20
107.2312346475
  0
VERTEX
  8
0
 62
7
  6
CONTINUOUS
 10
99.9103067911
 20
107.2450982735
  0
VERTEX
  8
0
 62
7
  6
CONTINUOUS
 10
99.9821786673
 20
107.2564210851
  0
VERTEX
  8
0
 62
7
  6
CONTINUOUS
 10
100.0562961035
 20
107.2653876714
  0
VERTEX
  8
0
 62
7
  6
CONTINUOUS
 10
100.1321883861
 20
107.2721618177
  0
VERTEX
  8
0
 62
7
  6
CONTINUOUS
 10
100.2094311556
 20
107.2769127424
  0
VERTEX
  8
0
 62
7
  6
CONTINUOUS
 10
100.287820498
 20
107.2798319057
  0
VERTEX
  8
0
 62
7
  6
CONTINUOUS
 10
100.3671502648
 20
107.2811345493
  0
VERTEX
  8
0
 62
7
  6
CONTINUOUS
 10
100.4471566966
 20
107.2810190553
  0
SEQEND
  0
POLYLINE
  8
0
 62
7
  6
CONTINUOUS
 66
1
 70
0
  0
VERTEX
  8
0
 62
7
  6
CONTINUOUS
 10
99.4053380075
 20
90.0984859896
  0
VERTEX
  8
0
 62
7
  6
CONTINUOUS
 10
99.4070724152
 20
90.1216362064
  0
VERTEX
  8
0
 62
7
  6
CONTINUOUS
 10
99.4186762415
 20
90.1646107713
  0
VERTEX
  8
0
 62
7
  6
CONTINUOUS
 10
99.4395824916
 20
90.2057710676
  0
VERTEX
  8
0
 62
7
  6
CONTINUOUS
 10
99.4681991701
 20
90.2443849493
  0
VERTEX
  8
0
 62
7
  6
CONTINUOUS
 10
99.5037605745
 20
90.2803766371
  0
VERTEX
  8
0
 62
7
  6
CONTINUOUS
 10
99.5460035339
 20
90.3137153065
  0
VERTEX
  8
0
 62
7
  6
CONTINUOUS
 10
99.5951672646
 20
90.3444496362
  0
VERTEX
  8
0
 62
7
  6
CONTINUOUS
 10
99.6501610904
 20
90.3717298235
  0
VERTEX
  8
0
 62
7
  6
CONTINUOUS
 10
99.7093775061
 20
90.3949534511
  0
VERTEX
  8
0
 62
7
  6
CONTINUOUS
 10
99.7730899514
 20
90.4145618288
  0
VERTEX
  8
0
 62
7
  6
CONTINUOUS
 10
99.8405095292
 20
90.4312346475
  0
VERTEX
  8
0
 62
7
  6
CONTINUOUS
 10
99.9103067911
 20
90.4450982735
  0
VERTEX
  8
0
 62
7
  6
CONTINUOUS
 10
99.9821786673
 20
90.4564210851
  0
VERTEX
  8
0
 62
7
  6
CONTINUOUS
 10
100.0562961035
 20
90.4653876714
  0
VERTEX
  8
0
 62
7
  6
CONTINUOUS
 10
100.1321883861
 20
90.4721618177
  0
VERTEX
  8
0
 62
7
  6
CONTINUOUS
 10
100.2094311556
 20
90.4769127424
  0
VERTEX
  8
0
 62
7
  6
CONTINUOUS
 10
100.287820498
 20
90.4798319057
  0
VERTEX
  8
0
 62
7
  6
CONTINUOUS
 10
100.3671502648
 20
90.4811345493
  0
VERTEX
  8
0
 62
7
  6
CONTINUOUS
 10
100.4471566966
 20
90.4810190553
  0
SEQEND
  0
POLYLINE
  8
0
 62
7
  6
CONTINUOUS
 66
1
 70
0
  0
VERTEX
  8
0
 62
7
  6
CONTINUOUS
 10
99.4053380075
 20
73.2984859896
  0
VERTEX
  8
0
 62
7
  6
CONTINUOUS
 10
99.4070724152
 20
73.3216362064
  0
VERTEX
  8
0
 62
7
  6
CONTINUOUS
 10
99.4186762415
 20
73.3646107713
  0
VERTEX
  8
0
 62
7
  6
CONTINUOUS
 10
99.4395824916
 20
73.4057710676
  0
VERTEX
  8
0
 62
7
  6
CONTINUOUS
 10
99.4681991701
 20
73.4443849493
  0
VERTEX
  8
0
 62
7
  6
CONTINUOUS
 10
99.5037605745
 20
73.4803766371
  0
VERTEX
  8
0
 62
7
  6
CONTINUOUS
 10
99.5460035339
 20
73.5137153065
  0
VERTEX
  8
0
 62
7
  6
CONTINUOUS
 10
99.5951672646
 20
73.5444496362
  0
VERTEX
  8
0
 62
7
  6
CONTINUOUS
 10
99.6501610904
 20
73.5717298235
  0
VERTEX
  8
0
 62
7
  6
CONTINUOUS
 10
99.7093775061
 20
73.5949534511
  0
VERTEX
  8
0
 62
7
  6
CONTINUOUS
 10
99.7730899514
 20
73.6145618288
  0
VERTEX
  8
0
 62
7
  6
CONTINUOUS
 10
99.8405095292
 20
73.6312346475
  0
VERTEX
  8
0
 62
7
  6
CONTINUOUS
 10
99.9103067911
 20
73.6450982735
  0
VERTEX
  8
0
 62
7
  6
CONTINUOUS
 10
99.9821786673
 20
73.6564210851
  0
VERTEX
  8
0
 62
7
  6
CONTINUOUS
 10
100.0562961035
 20
73.6653876714
  0
VERTEX
  8
0
 62
7
  6
CONTINUOUS
 10
100.1321883861
 20
73.6721618177
  0
VERTEX
  8
0
 62
7
  6
CONTINUOUS
 10
100.2094311556
 20
73.6769127424
  0
VERTEX
  8
0
 62
7
  6
CONTINUOUS
 10
100.287820498
 20
73.6798319057
  0
VERTEX
  8
0
 62
7
  6
CONTINUOUS
 10
100.3671502648
 20
73.6811345493
  0
VERTEX
  8
0
 62
7
  6
CONTINUOUS
 10
100.4471566966
 20
73.6810190553
  0
SEQEND
  0
LINE
  8
0
 62
7
  6
CONTINUOUS
 10
110.3620474846
 20
124.9537248761
 11
110.7652941172
 21
125.1344515593
  0
POLYLINE
  8
0
 62
7
  6
CONTINUOUS
 66
1
 70
0
  0
VERTEX
  8
0
 62
7
  6
CONTINUOUS
 10
110.8609525357
 20
158.7462926017
  0
VERTEX
  8
0
 62
7
  6
CONTINUOUS
 10
111.0284651049
 20
158.7739544134
  0
VERTEX
  8
0
 62
7
  6
CONTINUOUS
 10
111.193491323
 20
158.8048592113
  0
VERTEX
  8
0
 62
7
  6
CONTINUOUS
 10
111.3373190243
 20
158.8358079978
  0
VERTEX
  8
0
 62
7
  6
CONTINUOUS
 10
111.4633216474
 20
158.8672171851
  0
VERTEX
  8
0
 62
7
  6
CONTINUOUS
 10
111.5749084865
 20
158.8998003261
  0
VERTEX
  8
0
 62
7
  6
CONTINUOUS
 10
111.6757598053
 20
158.9348153349
  0
VERTEX
  8
0
 62
7
  6
CONTINUOUS
 10
111.7699632718
 20
158.9744988332
  0
VERTEX
  8
0
 62
7
  6
CONTINUOUS
 10
111.8614271976
 20
159.0225259511
  0
VERTEX
  8
0
 62
7
  6
CONTINUOUS
 10
111.9530344203
 20
159.0846356018
  0
VERTEX
  8
0
 62
7
  6
CONTINUOUS
 10
112.0443252879
 20
159.1683645266
  0
VERTEX
  8
0
 62
7
  6
CONTINUOUS
 10
112.1278131955
 20
159.2790099378
  0
VERTEX
  8
0
 62
7
  6
CONTINUOUS
 10
112.1907569189
 20
159.4139996033
  0
VERTEX
  8
0
 62
7
  6
CONTINUOUS
 10
112.2228990748
 20
159.5618343926
  0
VERTEX
  8
0
 62
7
  6
CONTINUOUS
 10
112.2265294075
 20
159.6327485351
  0
SEQEND
  0
LINE
  8
0
 62
7
  6
CONTINUOUS
 10
110.7562350785
 20
158.7303914882
 11
110.8609606232
 21
158.7462938625
  0
POLYLINE
  8
0
 62
7
  6
CONTINUOUS
 66
1
 70
0
  0
VERTEX
  8
0
 62
7
  6
CONTINUOUS
 10
106.5691533943
 20
157.6741492084
  0
VERTEX
  8
0
 62
7
  6
CONTINUOUS
 10
107.1174447767
 20
157.7455264635
  0
VERTEX
  8
0
 62
7
  6
CONTINUOUS
 10
107.7174261921
 20
157.8401759248
  0
VERTEX
  8
0
 62
7
  6
CONTINUOUS
 10
108.3002131566
 20
157.9507865297
  0
VERTEX
  8
0
 62
7
  6
CONTINUOUS
 10
108.8607988229
 20
158.0774004158
  0
VERTEX
  8
0
 62
7
  6
CONTINUOUS
 10
109.3943465012
 20
158.2200331702
  0
VERTEX
  8
0
 62
7
  6
CONTINUOUS
 10
109.8961968792
 20
158.3787310945
  0
VERTEX
  8
0
 62
7
  6
CONTINUOUS
 10
110.3620474846
 20
158.5537248761
  0
SEQEND
  0
LINE
  8
0
 62
7
  6
CONTINUOUS
 10
106.5691475286
 20
157.674149238
 11
106.5681276169
 21
157.6740899361
  0
POLYLINE
  8
0
 62
7
  6
CONTINUOUS
 66
1
 70
0
  0
VERTEX
  8
0
 62
7
  6
CONTINUOUS
 10
56.2095311521
 20
157.4967911144
  0
VERTEX
  8
0
 62
7
  6
CONTINUOUS
 10
55.9160671663
 20
157.5007555909
  0
VERTEX
  8
0
 62
7
  6
CONTINUOUS
 10
55.6330549648
 20
157.5031973348
  0
VERTEX
  8
0
 62
7
  6
CONTINUOUS
 10
50.0849934175
 20
157.5037536194
  0
SEQEND
  0
LINE
  8
0
 62
7
  6
CONTINUOUS
 10
110.8609606232
 20
148.0315496901
 11
110.7562350782
 21
148.0474520645
  0
POLYLINE
  8
0
 62
7
  6
CONTINUOUS
 66
1
 70
0
  0
VERTEX
  8
0
 62
7
  6
CONTINUOUS
 10
112.2265294041
 20
79.9450920915
  0
VERTEX
  8
0
 62
7
  6
CONTINUOUS
 10
112.2224794673
 20
80.0199664903
  0
VERTEX
  8
0
 62
7
  6
CONTINUOUS
 10
112.1895699952
 20
80.1673237748
  0
VERTEX
  8
0
 62
7
  6
CONTINUOUS
 10
112.1261563373
 20
80.3015450438
  0
VERTEX
  8
0
 62
7
  6
CONTINUOUS
 10
112.0425831569
 20
80.4113614176
  0
VERTEX
  8
0
 62
7
  6
CONTINUOUS
 10
111.9514565068
 20
80.494433209
  0
VERTEX
  8
0
 62
7
  6
CONTINUOUS
 10
111.8600802452
 20
80.5561122574
  0
VERTEX
  8
0
 62
7
  6
CONTINUOUS
 10
111.7688144332
 20
80.6038807628
  0
VERTEX
  8
0
 62
7
  6
CONTINUOUS
 10
111.6747594807
 20
80.6434087496
  0
VERTEX
  8
0
 62
7
  6
CONTINUOUS
 10
111.5740312608
 20
80.6783216028
  0
VERTEX
  8
0
 62
7
  6
CONTINUOUS
 10
111.4625663604
 20
80.7108297176
  0
VERTEX
  8
0
 62
7
  6
CONTINUOUS
 10
111.3367018147
 20
80.74217833
  0
VERTEX
  8
0
 62
7
  6
CONTINUOUS
 10
111.1930402919
 20
80.7730748313
  0
VERTEX
  8
0
 62
7
  6
CONTINUOUS
 10
111.0282177086
 20
80.8039324828
  0
VERTEX
  8
0
 62
7
  6
CONTINUOUS
 10
110.8609525913
 20
80.8315509422
  0
SEQEND
  0
POLYLINE
  8
0
 62
7
  6
CONTINUOUS
 66
1
 70
0
  0
VERTEX
  8
0
 62
7
  6
CONTINUOUS
 10
112.2265294151
 20
63.1451015916
  0
VERTEX
  8
0
 62
7
  6
CONTINUOUS
 10
112.2232628035
 20
63.2123869097
  0
VERTEX
  8
0
 62
7
  6
CONTINUOUS
 10
112.1910138795
 20
63.363082333
  0
VERTEX
  8
0
 62
7
  6
CONTINUOUS
 10
112.1248627614
 20
63.5036424817
  0
VERTEX
  8
0
 62
7
  6
CONTINUOUS
 10
112.0344294795
 20
63.6199967998
  0
VERTEX
  8
0
 62
7
  6
CONTINUOUS
 10
111.9335029116
 20
63.7079448132
  0
VERTEX
  8
0
 62
7
  6
CONTINUOUS
 10
111.8309466806
 20
63.7726043548
  0
VERTEX
  8
0
 62
7
  6
CONTINUOUS
 10
111.7264879672
 20
63.8226720872
  0
VERTEX
  8
0
 62
7
  6
CONTINUOUS
 10
111.6156394145
 20
63.8646572054
  0
VERTEX
  8
0
 62
7
  6
CONTINUOUS
 10
111.493865983
 20
63.9022256588
  0
VERTEX
  8
0
 62
7
  6
CONTINUOUS
 10
111.3576415212
 20
63.9372797801
  0
VERTEX
  8
0
 62
7
  6
CONTINUOUS
 10
111.2040489665
 20
63.9708555841
  0
VERTEX
  8
0
 62
7
  6
CONTINUOUS
 10
111.0313725013
 20
64.0033791607
  0
VERTEX
  8
0
 62
7
  6
CONTINUOUS
 10
110.8609458559
 20
64.0315519921
  0
SEQEND
  0
POLYLINE
  8
0
 62
7
  6
CONTINUOUS
 66
1
 70
0
  0
VERTEX
  8
0
 62
7
  6
CONTINUOUS
 10
106.5988108347
 20
73.8740899331
  0
VERTEX
  8
0
 62
7
  6
CONTINUOUS
 10
106.5994227874
 20
73.827061258
  0
VERTEX
  8
0
 62
7
  6
CONTINUOUS
 10
106.5982837665
 20
73.7835389179
  0
VERTEX
  8
0
 62
7
  6
CONTINUOUS
 10
106.5951987937
 20
73.7448874697
  0
VERTEX
  8
0
 62
7
  6
CONTINUOUS
 10
106.5901816592
 20
73.7132390466
  0
VERTEX
  8
0
 62
7
  6
CONTINUOUS
 10
106.5834116433
 20
73.6902885328
  0
VERTEX
  8
0
 62
7
  6
CONTINUOUS
 10
106.5751969695
 20
73.6771628516
  0
VERTEX
  8
0
 62
7
  6
CONTINUOUS
 10
106.5691475286
 20
73.674149238
  0
SEQEND
  0
POLYLINE
  8
0
 62
7
  6
CONTINUOUS
 66
1
 70
0
  0
VERTEX
  8
0
 62
7
  6
CONTINUOUS
 10
106.5988108347
 20
90.6740899331
  0
VERTEX
  8
0
 62
7
  6
CONTINUOUS
 10
106.5994227874
 20
90.627061258
  0
VERTEX
  8
0
 62
7
  6
CONTINUOUS
 10
106.5982837665
 20
90.5835389179
  0
VERTEX
  8
0
 62
7
  6
CONTINUOUS
 10
106.5951987937
 20
90.5448874697
  0
VERTEX
  8
0
 62
7
  6
CONTINUOUS
 10
106.5901816592
 20
90.5132390466
  0
VERTEX
  8
0
 62
7
  6
CONTINUOUS
 10
106.5834116433
 20
90.4902885328
  0
VERTEX
  8
0
 62
7
  6
CONTINUOUS
 10
106.5751969695
 20
90.4771628516
  0
VERTEX
  8
0
 62
7
  6
CONTINUOUS
 10
106.5691475286
 20
90.474149238
  0
SEQEND
  0
POLYLINE
  8
0
 62
7
  6
CONTINUOUS
 66
1
 70
0
  0
VERTEX
  8
0
 62
7
  6
CONTINUOUS
 10
106.5988108347
 20
107.4740899331
  0
VERTEX
  8
0
 62
7
  6
CONTINUOUS
 10
106.5994227874
 20
107.427061258
  0
VERTEX
  8
0
 62
7
  6
CONTINUOUS
 10
106.5982837665
 20
107.3835389179
  0
VERTEX
  8
0
 62
7
  6
CONTINUOUS
 10
106.5951987937
 20
107.3448874697
  0
VERTEX
  8
0
 62
7
  6
CONTINUOUS
 10
106.5901816592
 20
107.3132390466
  0
VERTEX
  8
0
 62
7
  6
CONTINUOUS
 10
106.5834116433
 20
107.2902885328
  0
VERTEX
  8
0
 62
7
  6
CONTINUOUS
 10
106.5751969695
 20
107.2771628516
  0
VERTEX
  8
0
 62
7
  6
CONTINUOUS
 10
106.5691475286
 20
107.274149238
  0
SEQEND
  0
POLYLINE
  8
0
 62
7
  6
CONTINUOUS
 66
1
 70
0
  0
VERTEX
  8
0
 62
7
  6
CONTINUOUS
 10
106.5988108347
 20
124.2740899331
  0
VERTEX
  8
0
 62
7
  6
CONTINUOUS
 10
106.5994227874
 20
124.227061258
  0
VERTEX
  8
0
 62
7
  6
CONTINUOUS
 10
106.5982837665
 20
124.1835389179
  0
VERTEX
  8
0
 62
7
  6
CONTINUOUS
 10
106.5951987937
 20
124.1448874697
  0
VERTEX
  8
0
 62
7
  6
CONTINUOUS
 10
106.5901816592
 20
124.1132390466
  0
VERTEX
  8
0
 62
7
  6
CONTINUOUS
 10
106.5834116433
 20
124.0902885328
  0
VERTEX
  8
0
 62
7
  6
CONTINUOUS
 10
106.5751969695
 20
124.0771628516
  0
VERTEX
  8
0
 62
7
  6
CONTINUOUS
 10
106.5691475286
 20
124.074149238
  0
SEQEND
  0
POLYLINE
  8
0
 62
7
  6
CONTINUOUS
 66
1
 70
0
  0
VERTEX
  8
0
 62
7
  6
CONTINUOUS
 10
106.5988108347
 20
141.0740899331
  0
VERTEX
  8
0
 62
7
  6
CONTINUOUS
 10
106.5994227874
 20
141.027061258
  0
VERTEX
  8
0
 62
7
  6
CONTINUOUS
 10
106.5982837665
 20
140.9835389179
  0
VERTEX
  8
0
 62
7
  6
CONTINUOUS
 10
106.5951987937
 20
140.9448874697
  0
VERTEX
  8
0
 62
7
  6
CONTINUOUS
 10
106.5901816592
 20
140.9132390466
  0
VERTEX
  8
0
 62
7
  6
CONTINUOUS
 10
106.5834116433
 20
140.8902885328
  0
VERTEX
  8
0
 62
7
  6
CONTINUOUS
 10
106.5751969695
 20
140.8771628516
  0
VERTEX
  8
0
 62
7
  6
CONTINUOUS
 10
106.5691475286
 20
140.874149238
  0
SEQEND
  0
POLYLINE
  8
0
 62
7
  6
CONTINUOUS
 66
1
 70
0
  0
VERTEX
  8
0
 62
7
  6
CONTINUOUS
 10
106.5988108347
 20
157.8740899331
  0
VERTEX
  8
0
 62
7
  6
CONTINUOUS
 10
106.5994227874
 20
157.827061258
  0
VERTEX
  8
0
 62
7
  6
CONTINUOUS
 10
106.5982837665
 20
157.7835389179
  0
VERTEX
  8
0
 62
7
  6
CONTINUOUS
 10
106.5951987937
 20
157.7448874697
  0
VERTEX
  8
0
 62
7
  6
CONTINUOUS
 10
106.5901816592
 20
157.7132390466
  0
VERTEX
  8
0
 62
7
  6
CONTINUOUS
 10
106.5834116433
 20
157.6902885328
  0
VERTEX
  8
0
 62
7
  6
CONTINUOUS
 10
106.5751969695
 20
157.6771628516
  0
VERTEX
  8
0
 62
7
  6
CONTINUOUS
 10
106.5691475286
 20
157.674149238
  0
SEQEND
  0
POLYLINE
  8
0
 62
7
  6
CONTINUOUS
 66
1
 70
0
  0
VERTEX
  8
0
 62
7
  6
CONTINUOUS
 10
106.5988108347
 20
174.6740899331
  0
VERTEX
  8
0
 62
7
  6
CONTINUOUS
 10
106.5994227874
 20
174.627061258
  0
VERTEX
  8
0
 62
7
  6
CONTINUOUS
 10
106.5982837665
 20
174.5835389179
  0
VERTEX
  8
0
 62
7
  6
CONTINUOUS
 10
106.5951987937
 20
174.5448874697
  0
VERTEX
  8
0
 62
7
  6
CONTINUOUS
 10
106.5901816592
 20
174.5132390466
  0
VERTEX
  8
0
 62
7
  6
CONTINUOUS
 10
106.5834116433
 20
174.4902885328
  0
VERTEX
  8
0
 62
7
  6
CONTINUOUS
 10
106.5751969695
 20
174.4771628516
  0
VERTEX
  8
0
 62
7
  6
CONTINUOUS
 10
106.5691475286
 20
174.474149238
  0
SEQEND
  0
POLYLINE
  8
0
 62
7
  6
CONTINUOUS
 66
1
 70
0
  0
VERTEX
  8
0
 62
7
  6
CONTINUOUS
 10
106.5988108347
 20
191.4740899331
  0
VERTEX
  8
0
 62
7
  6
CONTINUOUS
 10
106.5994227874
 20
191.427061258
  0
VERTEX
  8
0
 62
7
  6
CONTINUOUS
 10
106.5982837665
 20
191.3835389179
  0
VERTEX
  8
0
 62
7
  6
CONTINUOUS
 10
106.5951987937
 20
191.3448874697
  0
VERTEX
  8
0
 62
7
  6
CONTINUOUS
 10
106.5901816592
 20
191.3132390466
  0
VERTEX
  8
0
 62
7
  6
CONTINUOUS
 10
106.5834116433
 20
191.2902885328
  0
VERTEX
  8
0
 62
7
  6
CONTINUOUS
 10
106.5751969695
 20
191.2771628516
  0
VERTEX
  8
0
 62
7
  6
CONTINUOUS
 10
106.5691475286
 20
191.274149238
  0
SEQEND
  0
LINE
  8
0
 62
7
  6
CONTINUOUS
 10
106.5988108347
 20
64.9037536194
 11
106.5988108347
 21
57.0889217763
  0
LINE
  8
0
 62
7
  6
CONTINUOUS
 10
106.5988108347
 20
73.8740899331
 11
106.5988108347
 21
81.7037536194
  0
LINE
  8
0
 62
7
  6
CONTINUOUS
 10
106.5988108347
 20
90.6740899331
 11
106.5988108347
 21
98.5037536194
  0
LINE
  8
0
 62
7
  6
CONTINUOUS
 10
106.5988108347
 20
107.4740899331
 11
106.5988108347
 21
115.3037536194
  0
LINE
  8
0
 62
7
  6
CONTINUOUS
 10
106.5988108347
 20
124.2740899331
 11
106.5988108347
 21
132.1037536194
  0
LINE
  8
0
 62
7
  6
CONTINUOUS
 10
106.5988108347
 20
141.0740899331
 11
106.5988108347
 21
148.9037536194
  0
LINE
  8
0
 62
7
  6
CONTINUOUS
 10
106.5988108347
 20
157.8740899331
 11
106.5988108347
 21
165.7037536194
  0
LINE
  8
0
 62
7
  6
CONTINUOUS
 10
106.5988108347
 20
174.6740899331
 11
106.5988108347
 21
182.5037536194
  0
LINE
  8
0
 62
7
  6
CONTINUOUS
 10
106.5988108347
 20
191.4740899331
 11
106.5988108347
 21
199.3037536194
  0
LINE
  8
0
 62
7
  6
CONTINUOUS
 10
46.2887120014
 20
89.4231742253
 11
45.8877627797
 21
89.2433909501
  0
POLYLINE
  8
0
 62
7
  6
CONTINUOUS
 66
1
 70
0
  0
VERTEX
  8
0
 62
7
  6
CONTINUOUS
 10
45.7921057352
 20
156.4315508337
  0
VERTEX
  8
0
 62
7
  6
CONTINUOUS
 10
45.6233106818
 20
156.4036641879
  0
VERTEX
  8
0
 62
7
  6
CONTINUOUS
 10
45.4587504654
 20
156.3728202865
  0
VERTEX
  8
0
 62
7
  6
CONTINUOUS
 10
45.3153121889
 20
156.3419365357
  0
VERTEX
  8
0
 62
7
  6
CONTINUOUS
 10
45.1896338884
 20
156.3105984891
  0
VERTEX
  8
0
 62
7
  6
CONTINUOUS
 10
45.0783202181
 20
156.2780971038
  0
VERTEX
  8
0
 62
7
  6
CONTINUOUS
 10
44.9777105966
 20
156.243184801
  0
VERTEX
  8
0
 62
7
  6
CONTINUOUS
 10
44.8837457255
 20
156.2036481737
  0
VERTEX
  8
0
 62
7
  6
CONTINUOUS
 10
44.7925499445
 20
156.1558595825
  0
VERTEX
  8
0
 62
7
  6
CONTINUOUS
 10
44.7012377681
 20
156.0941505392
  0
VERTEX
  8
0
 62
7
  6
CONTINUOUS
 10
44.6101900142
 20
156.0110534719
  0
VERTEX
  8
0
 62
7
  6
CONTINUOUS
 10
44.5267204551
 20
155.9012482068
  0
VERTEX
  8
0
 62
7
  6
CONTINUOUS
 10
44.4634101479
 20
155.7670944247
  0
VERTEX
  8
0
 62
7
  6
CONTINUOUS
 10
44.4305666725
 20
155.6198481694
  0
VERTEX
  8
0
 62
7
  6
CONTINUOUS
 10
44.4265296184
 20
155.5450924637
  0
SEQEND
  0
LINE
  8
0
 62
7
  6
CONTINUOUS
 10
45.8968248719
 20
156.447454339
 11
45.7920975299
 21
156.4315495545
  0
POLYLINE
  8
0
 62
7
  6
CONTINUOUS
 66
1
 70
0
  0
VERTEX
  8
0
 62
7
  6
CONTINUOUS
 10
50.0839056005
 20
157.5036943408
  0
VERTEX
  8
0
 62
7
  6
CONTINUOUS
 10
49.5321124791
 20
157.4318165271
  0
VERTEX
  8
0
 62
7
  6
CONTINUOUS
 10
48.9322875522
 20
157.3370876758
  0
VERTEX
  8
0
 62
7
  6
CONTINUOUS
 10
48.3496767467
 20
157.2264001448
  0
VERTEX
  8
0
 62
7
  6
CONTINUOUS
 10
47.7892857249
 20
157.0997119112
  0
VERTEX
  8
0
 62
7
  6
CONTINUOUS
 10
47.2559495227
 20
156.9570071654
  0
VERTEX
  8
0
 62
7
  6
CONTINUOUS
 10
46.7543250423
 20
156.7982387635
  0
VERTEX
  8
0
 62
7
  6
CONTINUOUS
 10
46.2887120014
 20
156.6231742253
  0
SEQEND
  0
LINE
  8
0
 62
7
  6
CONTINUOUS
 10
50.0839114662
 20
157.5036943113
 11
50.084931406
 21
157.5037536165
  0
POLYLINE
  8
0
 62
7
  6
CONTINUOUS
 66
1
 70
0
  0
VERTEX
  8
0
 62
7
  6
CONTINUOUS
 10
100.4471566966
 20
157.6810190553
  0
VERTEX
  8
0
 62
7
  6
CONTINUOUS
 10
100.7409557938
 20
157.6770415001
  0
VERTEX
  8
0
 62
7
  6
CONTINUOUS
 10
101.0239774543
 20
157.6746255257
  0
VERTEX
  8
0
 62
7
  6
CONTINUOUS
 10
106.5680656055
 20
157.6740899331
  0
SEQEND
  0
LINE
  8
0
 62
7
  6
CONTINUOUS
 10
45.7920975299
 20
167.1462939981
 11
45.8968248719
 21
167.1303892136
  0
POLYLINE
  8
0
 62
7
  6
CONTINUOUS
 66
1
 70
0
  0
VERTEX
  8
0
 62
7
  6
CONTINUOUS
 10
110.7652941172
 20
148.0433919933
  0
VERTEX
  8
0
 62
7
  6
CONTINUOUS
 10
110.3620473777
 20
148.2241187204
  0
VERTEX
  8
0
 62
7
  6
CONTINUOUS
 10
109.8961966465
 20
148.3991125382
  0
VERTEX
  8
0
 62
7
  6
CONTINUOUS
 10
109.3943461264
 20
148.5578104913
  0
VERTEX
  8
0
 62
7
  6
CONTINUOUS
 10
108.860798293
 20
148.7004432669
  0
VERTEX
  8
0
 62
7
  6
CONTINUOUS
 10
108.3002124621
 20
148.8270571668
  0
VERTEX
  8
0
 62
7
  6
CONTINUOUS
 10
107.7174253271
 20
148.9376677776
  0
VERTEX
  8
0
 62
7
  6
CONTINUOUS
 10
107.1174437388
 20
149.0323172374
  0
VERTEX
  8
0
 62
7
  6
CONTINUOUS
 10
106.5691533943
 20
149.1036943442
  0
SEQEND
  0
POLYLINE
  8
0
 62
7
  6
CONTINUOUS
 66
1
 70
0
  0
VERTEX
  8
0
 62
7
  6
CONTINUOUS
 10
106.5691432729
 20
149.1036942933
  0
VERTEX
  8
0
 62
7
  6
CONTINUOUS
 10
106.5777401709
 20
149.097882593
  0
VERTEX
  8
0
 62
7
  6
CONTINUOUS
 10
106.5865334893
 20
149.07879584
  0
VERTEX
  8
0
 62
7
  6
CONTINUOUS
 10
106.5932619321
 20
149.0475945929
  0
VERTEX
  8
0
 62
7
  6
CONTINUOUS
 10
106.5975816354
 20
149.006276047
  0
VERTEX
  8
0
 62
7
  6
CONTINUOUS
 10
106.5993705221
 20
148.9575797009
  0
VERTEX
  8
0
 62
7
  6
CONTINUOUS
 10
106.5988108347
 20
148.9037536194
  0
SEQEND
  0
POLYLINE
  8
0
 62
7
  6
CONTINUOUS
 66
1
 70
0
  0
VERTEX
  8
0
 62
7
  6
CONTINUOUS
 10
112.2265290575
 20
113.5459267474
  0
VERTEX
  8
0
 62
7
  6
CONTINUOUS
 10
112.2224794673
 20
113.6199664903
  0
VERTEX
  8
0
 62
7
  6
CONTINUOUS
 10
112.1895699952
 20
113.7673237748
  0
VERTEX
  8
0
 62
7
  6
CONTINUOUS
 10
112.1261563373
 20
113.9015450438
  0
VERTEX
  8
0
 62
7
  6
CONTINUOUS
 10
112.0425831569
 20
114.0113614176
  0
VERTEX
  8
0
 62
7
  6
CONTINUOUS
 10
111.9514565068
 20
114.094433209
  0
VERTEX
  8
0
 62
7
  6
CONTINUOUS
 10
111.8600802452
 20
114.1561122574
  0
VERTEX
  8
0
 62
7
  6
CONTINUOUS
 10
111.7688144332
 20
114.2038807628
  0
VERTEX
  8
0
 62
7
  6
CONTINUOUS
 10
111.6747594807
 20
114.2434087496
  0
VERTEX
  8
0
 62
7
  6
CONTINUOUS
 10
111.5740312608
 20
114.2783216028
  0
VERTEX
  8
0
 62
7
  6
CONTINUOUS
 10
111.4625663604
 20
114.3108297176
  0
VERTEX
  8
0
 62
7
  6
CONTINUOUS
 10
111.3367018147
 20
114.34217833
  0
VERTEX
  8
0
 62
7
  6
CONTINUOUS
 10
111.1930402919
 20
114.3730748313
  0
VERTEX
  8
0
 62
7
  6
CONTINUOUS
 10
111.0282177086
 20
114.4039324828
  0
VERTEX
  8
0
 62
7
  6
CONTINUOUS
 10
110.8609525913
 20
114.4315509422
  0
SEQEND
  0
POLYLINE
  8
0
 62
7
  6
CONTINUOUS
 66
1
 70
0
  0
VERTEX
  8
0
 62
7
  6
CONTINUOUS
 10
112.2265290575
 20
147.1459267474
  0
VERTEX
  8
0
 62
7
  6
CONTINUOUS
 10
112.2224794673
 20
147.2199664903
  0
VERTEX
  8
0
 62
7
  6
CONTINUOUS
 10
112.1895699952
 20
147.3673237748
  0
VERTEX
  8
0
 62
7
  6
CONTINUOUS
 10
112.1261563373
 20
147.5015450438
  0
VERTEX
  8
0
 62
7
  6
CONTINUOUS
 10
112.0425831569
 20
147.6113614176
  0
VERTEX
  8
0
 62
7
  6
CONTINUOUS
 10
111.9514565068
 20
147.694433209
  0
VERTEX
  8
0
 62
7
  6
CONTINUOUS
 10
111.8600802452
 20
147.7561122574
  0
VERTEX
  8
0
 62
7
  6
CONTINUOUS
 10
111.7688144332
 20
147.8038807628
  0
VERTEX
  8
0
 62
7
  6
CONTINUOUS
 10
111.6747594807
 20
147.8434087496
  0
VERTEX
  8
0
 62
7
  6
CONTINUOUS
 10
111.5740312608
 20
147.8783216028
  0
VERTEX
  8
0
 62
7
  6
CONTINUOUS
 10
111.4625663604
 20
147.9108297176
  0
VERTEX
  8
0
 62
7
  6
CONTINUOUS
 10
111.3367018147
 20
147.94217833
  0
VERTEX
  8
0
 62
7
  6
CONTINUOUS
 10
111.1930402919
 20
147.9730748313
  0
VERTEX
  8
0
 62
7
  6
CONTINUOUS
 10
111.0282177086
 20
148.0039324828
  0
VERTEX
  8
0
 62
7
  6
CONTINUOUS
 10
110.8609525913
 20
148.0315509422
  0
SEQEND
  0
POLYLINE
  8
0
 62
7
  6
CONTINUOUS
 66
1
 70
0
  0
VERTEX
  8
0
 62
7
  6
CONTINUOUS
 10
112.2265294041
 20
96.7450920915
  0
VERTEX
  8
0
 62
7
  6
CONTINUOUS
 10
112.2224794673
 20
96.8199664903
  0
VERTEX
  8
0
 62
7
  6
CONTINUOUS
 10
112.1895699952
 20
96.9673237748
  0
VERTEX
  8
0
 62
7
  6
CONTINUOUS
 10
112.1261563373
 20
97.1015450438
  0
VERTEX
  8
0
 62
7
  6
CONTINUOUS
 10
112.0425831569
 20
97.2113614176
  0
VERTEX
  8
0
 62
7
  6
CONTINUOUS
 10
111.9514565068
 20
97.294433209
  0
VERTEX
  8
0
 62
7
  6
CONTINUOUS
 10
111.8600802452
 20
97.3561122574
  0
VERTEX
  8
0
 62
7
  6
CONTINUOUS
 10
111.7688144332
 20
97.4038807628
  0
VERTEX
  8
0
 62
7
  6
CONTINUOUS
 10
111.6747594807
 20
97.4434087496
  0
VERTEX
  8
0
 62
7
  6
CONTINUOUS
 10
111.5740312608
 20
97.4783216028
  0
VERTEX
  8
0
 62
7
  6
CONTINUOUS
 10
111.4625663604
 20
97.5108297176
  0
VERTEX
  8
0
 62
7
  6
CONTINUOUS
 10
111.3367018147
 20
97.54217833
  0
VERTEX
  8
0
 62
7
  6
CONTINUOUS
 10
111.1930402919
 20
97.5730748313
  0
VERTEX
  8
0
 62
7
  6
CONTINUOUS
 10
111.0282177086
 20
97.6039324828
  0
VERTEX
  8
0
 62
7
  6
CONTINUOUS
 10
110.8609525913
 20
97.6315509422
  0
SEQEND
  0
POLYLINE
  8
0
 62
7
  6
CONTINUOUS
 66
1
 70
0
  0
VERTEX
  8
0
 62
7
  6
CONTINUOUS
 10
112.2265294041
 20
130.3450920915
  0
VERTEX
  8
0
 62
7
  6
CONTINUOUS
 10
112.2224794673
 20
130.4199664903
  0
VERTEX
  8
0
 62
7
  6
CONTINUOUS
 10
112.1895699952
 20
130.5673237748
  0
VERTEX
  8
0
 62
7
  6
CONTINUOUS
 10
112.1261563373
 20
130.7015450438
  0
VERTEX
  8
0
 62
7
  6
CONTINUOUS
 10
112.0425831569
 20
130.8113614176
  0
VERTEX
  8
0
 62
7
  6
CONTINUOUS
 10
111.9514565068
 20
130.894433209
  0
VERTEX
  8
0
 62
7
  6
CONTINUOUS
 10
111.8600802452
 20
130.9561122574
  0
VERTEX
  8
0
 62
7
  6
CONTINUOUS
 10
111.7688144332
 20
131.0038807628
  0
VERTEX
  8
0
 62
7
  6
CONTINUOUS
 10
111.6747594807
 20
131.0434087496
  0
VERTEX
  8
0
 62
7
  6
CONTINUOUS
 10
111.5740312608
 20
131.0783216028
  0
VERTEX
  8
0
 62
7
  6
CONTINUOUS
 10
111.4625663604
 20
131.1108297176
  0
VERTEX
  8
0
 62
7
  6
CONTINUOUS
 10
111.3367018147
 20
131.14217833
  0
VERTEX
  8
0
 62
7
  6
CONTINUOUS
 10
111.1930402919
 20
131.1730748313
  0
VERTEX
  8
0
 62
7
  6
CONTINUOUS
 10
111.0282177086
 20
131.2039324828
  0
VERTEX
  8
0
 62
7
  6
CONTINUOUS
 10
110.8609525913
 20
131.2315509422
  0
SEQEND
  0
POLYLINE
  8
0
 62
7
  6
CONTINUOUS
 66
1
 70
0
  0
VERTEX
  8
0
 62
7
  6
CONTINUOUS
 10
112.2265294041
 20
163.9450920915
  0
VERTEX
  8
0
 62
7
  6
CONTINUOUS
 10
112.2224794673
 20
164.0199664903
  0
VERTEX
  8
0
 62
7
  6
CONTINUOUS
 10
112.1895699952
 20
164.1673237748
  0
VERTEX
  8
0
 62
7
  6
CONTINUOUS
 10
112.1261563373
 20
164.3015450438
  0
VERTEX
  8
0
 62
7
  6
CONTINUOUS
 10
112.0425831569
 20
164.4113614176
  0
VERTEX
  8
0
 62
7
  6
CONTINUOUS
 10
111.9514565068
 20
164.494433209
  0
VERTEX
  8
0
 62
7
  6
CONTINUOUS
 10
111.8600802452
 20
164.5561122574
  0
VERTEX
  8
0
 62
7
  6
CONTINUOUS
 10
111.7688144332
 20
164.6038807628
  0
VERTEX
  8
0
 62
7
  6
CONTINUOUS
 10
111.6747594807
 20
164.6434087496
  0
VERTEX
  8
0
 62
7
  6
CONTINUOUS
 10
111.5740312608
 20
164.6783216028
  0
VERTEX
  8
0
 62
7
  6
CONTINUOUS
 10
111.4625663604
 20
164.7108297176
  0
VERTEX
  8
0
 62
7
  6
CONTINUOUS
 10
111.3367018147
 20
164.74217833
  0
VERTEX
  8
0
 62
7
  6
CONTINUOUS
 10
111.1930402919
 20
164.7730748313
  0
VERTEX
  8
0
 62
7
  6
CONTINUOUS
 10
111.0282177086
 20
164.8039324828
  0
VERTEX
  8
0
 62
7
  6
CONTINUOUS
 10
110.8609525913
 20
164.8315509422
  0
SEQEND
  0
POLYLINE
  8
0
 62
7
  6
CONTINUOUS
 66
1
 70
0
  0
VERTEX
  8
0
 62
7
  6
CONTINUOUS
 10
112.2265294041
 20
180.7450920915
  0
VERTEX
  8
0
 62
7
  6
CONTINUOUS
 10
112.2224794673
 20
180.8199664903
  0
VERTEX
  8
0
 62
7
  6
CONTINUOUS
 10
112.1895699952
 20
180.9673237748
  0
VERTEX
  8
0
 62
7
  6
CONTINUOUS
 10
112.1261563373
 20
181.1015450438
  0
VERTEX
  8
0
 62
7
  6
CONTINUOUS
 10
112.0425831569
 20
181.2113614176
  0
VERTEX
  8
0
 62
7
  6
CONTINUOUS
 10
111.9514565068
 20
181.294433209
  0
VERTEX
  8
0
 62
7
  6
CONTINUOUS
 10
111.8600802452
 20
181.3561122574
  0
VERTEX
  8
0
 62
7
  6
CONTINUOUS
 10
111.7688144332
 20
181.4038807628
  0
VERTEX
  8
0
 62
7
  6
CONTINUOUS
 10
111.6747594807
 20
181.4434087496
  0
VERTEX
  8
0
 62
7
  6
CONTINUOUS
 10
111.5740312608
 20
181.4783216028
  0
VERTEX
  8
0
 62
7
  6
CONTINUOUS
 10
111.4625663604
 20
181.5108297176
  0
VERTEX
  8
0
 62
7
  6
CONTINUOUS
 10
111.3367018147
 20
181.54217833
  0
VERTEX
  8
0
 62
7
  6
CONTINUOUS
 10
111.1930402919
 20
181.5730748313
  0
VERTEX
  8
0
 62
7
  6
CONTINUOUS
 10
111.0282177086
 20
181.6039324828
  0
VERTEX
  8
0
 62
7
  6
CONTINUOUS
 10
110.8609525913
 20
181.6315509422
  0
SEQEND
  0
POLYLINE
  8
0
 62
7
  6
CONTINUOUS
 66
1
 70
0
  0
VERTEX
  8
0
 62
7
  6
CONTINUOUS
 10
112.2265294041
 20
197.5450920922
  0
VERTEX
  8
0
 62
7
  6
CONTINUOUS
 10
112.2224794888
 20
197.619966293
  0
VERTEX
  8
0
 62
7
  6
CONTINUOUS
 10
112.1895700839
 20
197.7673235171
  0
VERTEX
  8
0
 62
7
  6
CONTINUOUS
 10
112.1261564623
 20
197.9015448402
  0
VERTEX
  8
0
 62
7
  6
CONTINUOUS
 10
112.0425832345
 20
198.011361334
  0
VERTEX
  8
0
 62
7
  6
CONTINUOUS
 10
111.9514565089
 20
198.0944332074
  0
VERTEX
  8
0
 62
7
  6
CONTINUOUS
 10
111.8600801447
 20
198.1561123166
  0
VERTEX
  8
0
 62
7
  6
CONTINUOUS
 10
111.7688142358
 20
198.2038808548
  0
VERTEX
  8
0
 62
7
  6
CONTINUOUS
 10
111.674759218
 20
198.2434088495
  0
VERTEX
  8
0
 62
7
  6
CONTINUOUS
 10
111.5740309435
 20
198.2783217035
  0
VERTEX
  8
0
 62
7
  6
CONTINUOUS
 10
111.4625660048
 20
198.3108298133
  0
VERTEX
  8
0
 62
7
  6
CONTINUOUS
 10
111.3367014525
 20
198.3421784138
  0
VERTEX
  8
0
 62
7
  6
CONTINUOUS
 10
111.1930399742
 20
198.373074895
  0
VERTEX
  8
0
 62
7
  6
CONTINUOUS
 10
111.028217508
 20
198.4039325179
  0
VERTEX
  8
0
 62
7
  6
CONTINUOUS
 10
110.8609525912
 20
198.4315509422
  0
SEQEND
  0
LINE
  8
0
 62
7
  6
CONTINUOUS
 10
112.2265295115
 20
57.0889204847
 11
112.2265295115
 21
63.145217867
  0
LINE
  8
0
 62
7
  6
CONTINUOUS
 10
112.2265295115
 20
75.6326226458
 11
112.2265295115
 21
79.9452108309
  0
LINE
  8
0
 62
7
  6
CONTINUOUS
 10
112.2265295115
 20
92.4326226458
 11
112.2265295115
 21
96.7452108309
  0
LINE
  8
0
 62
7
  6
CONTINUOUS
 10
112.2265295115
 20
109.2326235889
 11
112.2265295115
 21
113.5452199638
  0
LINE
  8
0
 62
7
  6
CONTINUOUS
 10
112.2265295115
 20
126.0326226458
 11
112.2265295115
 21
130.3452108309
  0
LINE
  8
0
 62
7
  6
CONTINUOUS
 10
112.2265295115
 20
142.8326235889
 11
112.2265295115
 21
147.1452199638
  0
LINE
  8
0
 62
7
  6
CONTINUOUS
 10
112.2265295115
 20
159.6326226458
 11
112.2265295115
 21
163.9452108309
  0
LINE
  8
0
 62
7
  6
CONTINUOUS
 10
112.2265295115
 20
176.4326226458
 11
112.2265295115
 21
180.7452108309
  0
LINE
  8
0
 62
7
  6
CONTINUOUS
 10
112.2265295115
 20
193.2326226458
 11
112.2265295115
 21
197.5452147718
  0
LINE
  8
0
 62
7
  6
CONTINUOUS
 10
112.2265295115
 20
197.5452212821
 11
112.2265294344
 21
197.5450926559
  0
LINE
  8
0
 62
7
  6
CONTINUOUS
 10
112.2265295115
 20
180.7452209067
 11
112.2265294344
 21
180.7450920384
  0
LINE
  8
0
 62
7
  6
CONTINUOUS
 10
112.2265295115
 20
163.9452209067
 11
112.2265294344
 21
163.9450920384
  0
LINE
  8
0
 62
7
  6
CONTINUOUS
 10
112.2265295115
 20
130.3452209067
 11
112.2265294344
 21
130.3450920384
  0
LINE
  8
0
 62
7
  6
CONTINUOUS
 10
112.2265295115
 20
96.7452209067
 11
112.2265294344
 21
96.7450920384
  0
LINE
  8
0
 62
7
  6
CONTINUOUS
 10
112.2265295115
 20
79.9452209067
 11
112.2265294344
 21
79.9450920384
  0
LINE
  8
0
 62
7
  6
CONTINUOUS
 10
110.3620474846
 20
108.1537248761
 11
110.7652941172
 21
108.3344515593
  0
POLYLINE
  8
0
 62
7
  6
CONTINUOUS
 66
1
 70
0
  0
VERTEX
  8
0
 62
7
  6
CONTINUOUS
 10
110.8609525357
 20
175.5462926017
  0
VERTEX
  8
0
 62
7
  6
CONTINUOUS
 10
111.0284651049
 20
175.5739544134
  0
VERTEX
  8
0
 62
7
  6
CONTINUOUS
 10
111.193491323
 20
175.6048592113
  0
VERTEX
  8
0
 62
7
  6
CONTINUOUS
 10
111.3373190243
 20
175.6358079978
  0
VERTEX
  8
0
 62
7
  6
CONTINUOUS
 10
111.4633216474
 20
175.6672171851
  0
VERTEX
  8
0
 62
7
  6
CONTINUOUS
 10
111.5749084865
 20
175.6998003261
  0
VERTEX
  8
0
 62
7
  6
CONTINUOUS
 10
111.6757598053
 20
175.7348153349
  0
VERTEX
  8
0
 62
7
  6
CONTINUOUS
 10
111.7699632718
 20
175.7744988332
  0
VERTEX
  8
0
 62
7
  6
CONTINUOUS
 10
111.8614271976
 20
175.8225259511
  0
VERTEX
  8
0
 62
7
  6
CONTINUOUS
 10
111.9530344203
 20
175.8846356018
  0
VERTEX
  8
0
 62
7
  6
CONTINUOUS
 10
112.0443252879
 20
175.9683645266
  0
VERTEX
  8
0
 62
7
  6
CONTINUOUS
 10
112.1278131955
 20
176.0790099378
  0
VERTEX
  8
0
 62
7
  6
CONTINUOUS
 10
112.1907569189
 20
176.2139996033
  0
VERTEX
  8
0
 62
7
  6
CONTINUOUS
 10
112.2228990748
 20
176.3618343926
  0
VERTEX
  8
0
 62
7
  6
CONTINUOUS
 10
112.2265294075
 20
176.4327485351
  0
SEQEND
  0
LINE
  8
0
 62
7
  6
CONTINUOUS
 10
110.7562350785
 20
175.5303914882
 11
110.8609606232
 21
175.5462938625
  0
POLYLINE
  8
0
 62
7
  6
CONTINUOUS
 66
1
 70
0
  0
VERTEX
  8
0
 62
7
  6
CONTINUOUS
 10
55.9121032798
 20
166.0770414999
  0
VERTEX
  8
0
 62
7
  6
CONTINUOUS
 10
56.2054253987
 20
166.0810144768
  0
VERTEX
  8
0
 62
7
  6
CONTINUOUS
 10
56.2850189418
 20
166.0811408003
  0
VERTEX
  8
0
 62
7
  6
CONTINUOUS
 10
56.364081603
 20
166.0798621209
  0
VERTEX
  8
0
 62
7
  6
CONTINUOUS
 10
56.4423333272
 20
166.076975644
  0
VERTEX
  8
0
 62
7
  6
CONTINUOUS
 10
56.5195515712
 20
166.072260242
  0
VERTEX
  8
0
 62
7
  6
CONTINUOUS
 10
56.5955166201
 20
166.0655173215
  0
VERTEX
  8
0
 62
7
  6
CONTINUOUS
 10
56.6697957648
 20
166.0565709753
  0
VERTEX
  8
0
 62
7
  6
CONTINUOUS
 10
56.7418807631
 20
166.0452514581
  0
VERTEX
  8
0
 62
7
  6
CONTINUOUS
 10
56.811985432
 20
166.0313600589
  0
VERTEX
  8
0
 62
7
  6
CONTINUOUS
 10
56.8796355841
 20
166.014660183
  0
VERTEX
  8
0
 62
7
  6
CONTINUOUS
 10
56.9437037684
 20
165.9949456411
  0
VERTEX
  8
0
 62
7
  6
CONTINUOUS
 10
57.0031935934
 20
165.9715989636
  0
VERTEX
  8
0
 62
7
  6
CONTINUOUS
 10
57.0584625423
 20
165.9441305404
  0
VERTEX
  8
0
 62
7
  6
CONTINUOUS
 10
57.1079070716
 20
165.9131156638
  0
VERTEX
  8
0
 62
7
  6
CONTINUOUS
 10
57.1500860445
 20
165.8796729778
  0
VERTEX
  8
0
 62
7
  6
CONTINUOUS
 10
57.1853603363
 20
165.8438030865
  0
VERTEX
  8
0
 62
7
  6
CONTINUOUS
 10
57.2136561478
 20
165.8054829111
  0
VERTEX
  8
0
 62
7
  6
CONTINUOUS
 10
57.2343662534
 20
165.7646519106
  0
VERTEX
  8
0
 62
7
  6
CONTINUOUS
 10
57.2459545154
 20
165.7218550879
  0
VERTEX
  8
0
 62
7
  6
CONTINUOUS
 10
57.2477210256
 20
165.6984852896
  0
SEQEND
  0
POLYLINE
  8
0
 62
7
  6
CONTINUOUS
 66
1
 70
0
  0
VERTEX
  8
0
 62
7
  6
CONTINUOUS
 10
100.7369880132
 20
165.900755188
  0
VERTEX
  8
0
 62
7
  6
CONTINUOUS
 10
100.4429562422
 20
165.896785467
  0
VERTEX
  8
0
 62
7
  6
CONTINUOUS
 10
100.3630870692
 20
165.8967388006
  0
VERTEX
  8
0
 62
7
  6
CONTINUOUS
 10
100.283911606
 20
165.8981155652
  0
VERTEX
  8
0
 62
7
  6
CONTINUOUS
 10
100.2056896322
 20
165.9011146747
  0
VERTEX
  8
0
 62
7
  6
CONTINUOUS
 10
100.1286185127
 20
165.9059502445
  0
VERTEX
  8
0
 62
7
  6
CONTINUOUS
 10
100.0529053401
 20
165.9128113742
  0
VERTEX
  8
0
 62
7
  6
CONTINUOUS
 10
99.9789780712
 20
165.9218672726
  0
VERTEX
  8
0
 62
7
  6
CONTINUOUS
 10
99.907282895
 20
165.9332829284
  0
VERTEX
  8
0
 62
7
  6
CONTINUOUS
 10
99.8376838729
 20
165.9472389045
  0
VERTEX
  8
0
 62
7
  6
CONTINUOUS
 10
99.7704482868
 20
165.964006659
  0
VERTEX
  8
0
 62
7
  6
CONTINUOUS
 10
99.7070192459
 20
165.9837088109
  0
VERTEX
  8
0
 62
7
  6
CONTINUOUS
 10
99.6480243535
 20
166.0070602089
  0
VERTEX
  8
0
 62
7
  6
CONTINUOUS
 10
99.5932543485
 20
166.0344630925
  0
VERTEX
  8
0
 62
7
  6
CONTINUOUS
 10
99.5443230811
 20
166.0653122263
  0
VERTEX
  8
0
 62
7
  6
CONTINUOUS
 10
99.5022967183
 20
166.0987762292
  0
VERTEX
  8
0
 62
7
  6
CONTINUOUS
 10
99.4669530436
 20
166.1349114312
  0
VERTEX
  8
0
 62
7
  6
CONTINUOUS
 10
99.4385879002
 20
166.1736746728
  0
VERTEX
  8
0
 62
7
  6
CONTINUOUS
 10
99.4180116025
 20
166.2149482725
  0
VERTEX
  8
0
 62
7
  6
CONTINUOUS
 10
99.4068285754
 20
166.2579456087
  0
VERTEX
  8
0
 62
7
  6
CONTINUOUS
 10
99.4053385631
 20
166.2791845119
  0
SEQEND
  0
LINE
  8
0
 62
7
  6
CONTINUOUS
 10
101.0200021822
 20
165.9031972426
 11
100.7369880132
 21
165.900755188
  0
LINE
  8
0
 62
7
  6
CONTINUOUS
 10
55.6290815431
 20
166.0746255255
 11
55.9121032798
 21
166.0770414999
  0
LINE
  8
0
 62
7
  6
CONTINUOUS
 10
101.0200021822
 20
165.9031972426
 11
106.5681031228
 21
165.9037536194
  0
LINE
  8
0
 62
7
  6
CONTINUOUS
 10
50.0849934175
 20
166.0740899331
 11
55.6290815431
 21
166.0746255255
  0
LINE
  8
0
 62
7
  6
CONTINUOUS
 10
50.0839114662
 20
166.0741492413
 11
50.084931406
 21
166.0740899361
  0
LINE
  8
0
 62
7
  6
CONTINUOUS
 10
106.5681352358
 20
165.9037536194
 11
106.5691432729
 21
165.9036942933
  0
LINE
  8
0
 62
7
  6
CONTINUOUS
 10
110.8609606232
 20
164.8315496901
 11
110.7562350782
 21
164.8474520645
  0
POLYLINE
  8
0
 62
7
  6
CONTINUOUS
 66
1
 70
0
  0
VERTEX
  8
0
 62
7
  6
CONTINUOUS
 10
45.8877627797
 20
183.9344526024
  0
VERTEX
  8
0
 62
7
  6
CONTINUOUS
 10
46.2887120014
 20
183.7546693272
  0
VERTEX
  8
0
 62
7
  6
CONTINUOUS
 10
46.7543250423
 20
183.5796047891
  0
VERTEX
  8
0
 62
7
  6
CONTINUOUS
 10
47.2559495227
 20
183.4208363872
  0
VERTEX
  8
0
 62
7
  6
CONTINUOUS
 10
47.7892857249
 20
183.2781316414
  0
VERTEX
  8
0
 62
7
  6
CONTINUOUS
 10
48.3496767467
 20
183.1514434078
  0
VERTEX
  8
0
 62
7
  6
CONTINUOUS
 10
48.9322875522
 20
183.0407558768
  0
VERTEX
  8
0
 62
7
  6
CONTINUOUS
 10
49.5321124791
 20
182.9460270255
  0
VERTEX
  8
0
 62
7
  6
CONTINUOUS
 10
50.0839056005
 20
182.8741492117
  0
SEQEND
  0
LINE
  8
0
 62
7
  6
CONTINUOUS
 10
46.2887120014
 20
72.6231742253
 11
45.8877627797
 21
72.4433909501
  0
POLYLINE
  8
0
 62
7
  6
CONTINUOUS
 66
1
 70
0
  0
VERTEX
  8
0
 62
7
  6
CONTINUOUS
 10
106.5691533943
 20
174.4741492084
  0
VERTEX
  8
0
 62
7
  6
CONTINUOUS
 10
107.1174447767
 20
174.5455264635
  0
VERTEX
  8
0
 62
7
  6
CONTINUOUS
 10
107.7174261921
 20
174.6401759248
  0
VERTEX
  8
0
 62
7
  6
CONTINUOUS
 10
108.3002131566
 20
174.7507865297
  0
VERTEX
  8
0
 62
7
  6
CONTINUOUS
 10
108.8607988229
 20
174.8774004158
  0
VERTEX
  8
0
 62
7
  6
CONTINUOUS
 10
109.3943465012
 20
175.0200331702
  0
VERTEX
  8
0
 62
7
  6
CONTINUOUS
 10
109.8961968792
 20
175.1787310945
  0
VERTEX
  8
0
 62
7
  6
CONTINUOUS
 10
110.3620474846
 20
175.3537248761
  0
SEQEND
  0
LINE
  8
0
 62
7
  6
CONTINUOUS
 10
106.5691475286
 20
174.474149238
 11
106.5681276169
 21
174.4740899361
  0
LINE
  8
0
 62
7
  6
CONTINUOUS
 10
50.0839114662
 20
174.3036943113
 11
50.084931406
 21
174.3037536165
  0
POLYLINE
  8
0
 62
7
  6
CONTINUOUS
 66
1
 70
0
  0
VERTEX
  8
0
 62
7
  6
CONTINUOUS
 10
56.2095311521
 20
174.2967911144
  0
VERTEX
  8
0
 62
7
  6
CONTINUOUS
 10
55.9160671663
 20
174.3007555909
  0
VERTEX
  8
0
 62
7
  6
CONTINUOUS
 10
55.6330549648
 20
174.3031973348
  0
VERTEX
  8
0
 62
7
  6
CONTINUOUS
 10
50.0849934175
 20
174.3037536194
  0
SEQEND
  0
POLYLINE
  8
0
 62
7
  6
CONTINUOUS
 66
1
 70
0
  0
VERTEX
  8
0
 62
7
  6
CONTINUOUS
 10
100.4471566966
 20
174.4810190553
  0
VERTEX
  8
0
 62
7
  6
CONTINUOUS
 10
100.7409557938
 20
174.4770415001
  0
VERTEX
  8
0
 62
7
  6
CONTINUOUS
 10
101.0239774543
 20
174.4746255257
  0
VERTEX
  8
0
 62
7
  6
CONTINUOUS
 10
106.5680656055
 20
174.4740899331
  0
SEQEND
  0
POLYLINE
  8
0
 62
7
  6
CONTINUOUS
 66
1
 70
0
  0
VERTEX
  8
0
 62
7
  6
CONTINUOUS
 10
110.7652941172
 20
164.8433919933
  0
VERTEX
  8
0
 62
7
  6
CONTINUOUS
 10
110.3620473777
 20
165.0241187204
  0
VERTEX
  8
0
 62
7
  6
CONTINUOUS
 10
109.8961966465
 20
165.1991125382
  0
VERTEX
  8
0
 62
7
  6
CONTINUOUS
 10
109.3943461264
 20
165.3578104913
  0
VERTEX
  8
0
 62
7
  6
CONTINUOUS
 10
108.860798293
 20
165.5004432669
  0
VERTEX
  8
0
 62
7
  6
CONTINUOUS
 10
108.3002124621
 20
165.6270571668
  0
VERTEX
  8
0
 62
7
  6
CONTINUOUS
 10
107.7174253271
 20
165.7376677776
  0
VERTEX
  8
0
 62
7
  6
CONTINUOUS
 10
107.1174437388
 20
165.8323172374
  0
VERTEX
  8
0
 62
7
  6
CONTINUOUS
 10
106.5691533943
 20
165.9036943442
  0
SEQEND
  0
POLYLINE
  8
0
 62
7
  6
CONTINUOUS
 66
1
 70
0
  0
VERTEX
  8
0
 62
7
  6
CONTINUOUS
 10
106.5691432729
 20
165.9036942933
  0
VERTEX
  8
0
 62
7
  6
CONTINUOUS
 10
106.5777401709
 20
165.897882593
  0
VERTEX
  8
0
 62
7
  6
CONTINUOUS
 10
106.5865334893
 20
165.87879584
  0
VERTEX
  8
0
 62
7
  6
CONTINUOUS
 10
106.5932619321
 20
165.8475945929
  0
VERTEX
  8
0
 62
7
  6
CONTINUOUS
 10
106.5975816354
 20
165.806276047
  0
VERTEX
  8
0
 62
7
  6
CONTINUOUS
 10
106.5993705221
 20
165.7575797009
  0
VERTEX
  8
0
 62
7
  6
CONTINUOUS
 10
106.5988108347
 20
165.7037536194
  0
SEQEND
  0
POLYLINE
  8
0
 62
7
  6
CONTINUOUS
 66
1
 70
0
  0
VERTEX
  8
0
 62
7
  6
CONTINUOUS
 10
45.7921057352
 20
173.2315508337
  0
VERTEX
  8
0
 62
7
  6
CONTINUOUS
 10
45.6233106818
 20
173.2036641879
  0
VERTEX
  8
0
 62
7
  6
CONTINUOUS
 10
45.4587504654
 20
173.1728202865
  0
VERTEX
  8
0
 62
7
  6
CONTINUOUS
 10
45.3153121889
 20
173.1419365357
  0
VERTEX
  8
0
 62
7
  6
CONTINUOUS
 10
45.1896338884
 20
173.1105984891
  0
VERTEX
  8
0
 62
7
  6
CONTINUOUS
 10
45.0783202181
 20
173.0780971038
  0
VERTEX
  8
0
 62
7
  6
CONTINUOUS
 10
44.9777105966
 20
173.043184801
  0
VERTEX
  8
0
 62
7
  6
CONTINUOUS
 10
44.8837457255
 20
173.0036481737
  0
VERTEX
  8
0
 62
7
  6
CONTINUOUS
 10
44.7925499445
 20
172.9558595825
  0
VERTEX
  8
0
 62
7
  6
CONTINUOUS
 10
44.7012377681
 20
172.8941505392
  0
VERTEX
  8
0
 62
7
  6
CONTINUOUS
 10
44.6101900142
 20
172.8110534719
  0
VERTEX
  8
0
 62
7
  6
CONTINUOUS
 10
44.5267204551
 20
172.7012482068
  0
VERTEX
  8
0
 62
7
  6
CONTINUOUS
 10
44.4634101479
 20
172.5670944247
  0
VERTEX
  8
0
 62
7
  6
CONTINUOUS
 10
44.4305666725
 20
172.4198481694
  0
VERTEX
  8
0
 62
7
  6
CONTINUOUS
 10
44.4265296184
 20
172.3450924637
  0
SEQEND
  0
LINE
  8
0
 62
7
  6
CONTINUOUS
 10
45.8968248719
 20
173.247454339
 11
45.7920975299
 21
173.2315495545
  0
POLYLINE
  8
0
 62
7
  6
CONTINUOUS
 66
1
 70
0
  0
VERTEX
  8
0
 62
7
  6
CONTINUOUS
 10
50.0839056005
 20
174.3036943408
  0
VERTEX
  8
0
 62
7
  6
CONTINUOUS
 10
49.5321124791
 20
174.2318165271
  0
VERTEX
  8
0
 62
7
  6
CONTINUOUS
 10
48.9322875522
 20
174.1370876758
  0
VERTEX
  8
0
 62
7
  6
CONTINUOUS
 10
48.3496767467
 20
174.0264001448
  0
VERTEX
  8
0
 62
7
  6
CONTINUOUS
 10
47.7892857249
 20
173.8997119112
  0
VERTEX
  8
0
 62
7
  6
CONTINUOUS
 10
47.2559495227
 20
173.7570071654
  0
VERTEX
  8
0
 62
7
  6
CONTINUOUS
 10
46.7543250423
 20
173.5982387635
  0
VERTEX
  8
0
 62
7
  6
CONTINUOUS
 10
46.2887120014
 20
173.4231742253
  0
SEQEND
  0
POLYLINE
  8
0
 62
7
  6
CONTINUOUS
 66
1
 70
0
  0
VERTEX
  8
0
 62
7
  6
CONTINUOUS
 10
100.7369880132
 20
182.700755188
  0
VERTEX
  8
0
 62
7
  6
CONTINUOUS
 10
100.4429562422
 20
182.696785467
  0
VERTEX
  8
0
 62
7
  6
CONTINUOUS
 10
100.3630870692
 20
182.6967388006
  0
VERTEX
  8
0
 62
7
  6
CONTINUOUS
 10
100.283911606
 20
182.6981155652
  0
VERTEX
  8
0
 62
7
  6
CONTINUOUS
 10
100.2056896322
 20
182.7011146747
  0
VERTEX
  8
0
 62
7
  6
CONTINUOUS
 10
100.1286185127
 20
182.7059502445
  0
VERTEX
  8
0
 62
7
  6
CONTINUOUS
 10
100.0529053401
 20
182.7128113742
  0
VERTEX
  8
0
 62
7
  6
CONTINUOUS
 10
99.9789780712
 20
182.7218672726
  0
VERTEX
  8
0
 62
7
  6
CONTINUOUS
 10
99.907282895
 20
182.7332829284
  0
VERTEX
  8
0
 62
7
  6
CONTINUOUS
 10
99.8376838729
 20
182.7472389045
  0
VERTEX
  8
0
 62
7
  6
CONTINUOUS
 10
99.7704482868
 20
182.764006659
  0
VERTEX
  8
0
 62
7
  6
CONTINUOUS
 10
99.7070192459
 20
182.7837088109
  0
VERTEX
  8
0
 62
7
  6
CONTINUOUS
 10
99.6480243535
 20
182.8070602089
  0
VERTEX
  8
0
 62
7
  6
CONTINUOUS
 10
99.5932543485
 20
182.8344630925
  0
VERTEX
  8
0
 62
7
  6
CONTINUOUS
 10
99.5443230811
 20
182.8653122263
  0
VERTEX
  8
0
 62
7
  6
CONTINUOUS
 10
99.5022967183
 20
182.8987762292
  0
VERTEX
  8
0
 62
7
  6
CONTINUOUS
 10
99.4669530436
 20
182.9349114312
  0
VERTEX
  8
0
 62
7
  6
CONTINUOUS
 10
99.4385879002
 20
182.9736746728
  0
VERTEX
  8
0
 62
7
  6
CONTINUOUS
 10
99.4180116025
 20
183.0149482725
  0
VERTEX
  8
0
 62
7
  6
CONTINUOUS
 10
99.4068285754
 20
183.0579456087
  0
VERTEX
  8
0
 62
7
  6
CONTINUOUS
 10
99.4053385631
 20
183.0791845119
  0
SEQEND
  0
POLYLINE
  8
0
 62
7
  6
CONTINUOUS
 66
1
 70
0
  0
VERTEX
  8
0
 62
7
  6
CONTINUOUS
 10
101.2324903755
 20
182.7037536194
  0
VERTEX
  8
0
 62
7
  6
CONTINUOUS
 10
101.0200021822
 20
182.7031972426
  0
VERTEX
  8
0
 62
7
  6
CONTINUOUS
 10
100.7369880132
 20
182.700755188
  0
SEQEND
  0
LINE
  8
0
 62
7
  6
CONTINUOUS
 10
50.0839114662
 20
182.8741492413
 11
50.084931406
 21
182.8740899361
  0
LINE
  8
0
 62
7
  6
CONTINUOUS
 10
45.7920975299
 20
183.9462939981
 11
45.8968248719
 21
183.9303892136
  0
POLYLINE
  8
0
 62
7
  6
CONTINUOUS
 66
1
 70
0
  0
VERTEX
  8
0
 62
7
  6
CONTINUOUS
 10
45.8877627797
 20
200.7344526024
  0
VERTEX
  8
0
 62
7
  6
CONTINUOUS
 10
46.2887120014
 20
200.5546693272
  0
VERTEX
  8
0
 62
7
  6
CONTINUOUS
 10
46.7543250423
 20
200.3796047891
  0
VERTEX
  8
0
 62
7
  6
CONTINUOUS
 10
47.2559495227
 20
200.2208363872
  0
VERTEX
  8
0
 62
7
  6
CONTINUOUS
 10
47.7892857249
 20
200.0781316414
  0
VERTEX
  8
0
 62
7
  6
CONTINUOUS
 10
48.3496767467
 20
199.9514434078
  0
VERTEX
  8
0
 62
7
  6
CONTINUOUS
 10
48.9322875522
 20
199.8407558768
  0
VERTEX
  8
0
 62
7
  6
CONTINUOUS
 10
49.5321124791
 20
199.7460270255
  0
VERTEX
  8
0
 62
7
  6
CONTINUOUS
 10
50.0839056005
 20
199.6741492117
  0
SEQEND
  0
LINE
  8
0
 62
7
  6
CONTINUOUS
 10
110.3620474846
 20
91.3537248761
 11
110.7652941172
 21
91.5344515593
  0
POLYLINE
  8
0
 62
7
  6
CONTINUOUS
 66
1
 70
0
  0
VERTEX
  8
0
 62
7
  6
CONTINUOUS
 10
110.8609525357
 20
192.3462926017
  0
VERTEX
  8
0
 62
7
  6
CONTINUOUS
 10
111.0284651049
 20
192.3739544134
  0
VERTEX
  8
0
 62
7
  6
CONTINUOUS
 10
111.193491323
 20
192.4048592113
  0
VERTEX
  8
0
 62
7
  6
CONTINUOUS
 10
111.3373190243
 20
192.4358079978
  0
VERTEX
  8
0
 62
7
  6
CONTINUOUS
 10
111.4633216474
 20
192.4672171851
  0
VERTEX
  8
0
 62
7
  6
CONTINUOUS
 10
111.5749084865
 20
192.4998003261
  0
VERTEX
  8
0
 62
7
  6
CONTINUOUS
 10
111.6757598053
 20
192.5348153349
  0
VERTEX
  8
0
 62
7
  6
CONTINUOUS
 10
111.7699632718
 20
192.5744988332
  0
VERTEX
  8
0
 62
7
  6
CONTINUOUS
 10
111.8614271976
 20
192.6225259511
  0
VERTEX
  8
0
 62
7
  6
CONTINUOUS
 10
111.9530344203
 20
192.6846356018
  0
VERTEX
  8
0
 62
7
  6
CONTINUOUS
 10
112.0443252879
 20
192.7683645266
  0
VERTEX
  8
0
 62
7
  6
CONTINUOUS
 10
112.1278131955
 20
192.8790099378
  0
VERTEX
  8
0
 62
7
  6
CONTINUOUS
 10
112.1907569189
 20
193.0139996033
  0
VERTEX
  8
0
 62
7
  6
CONTINUOUS
 10
112.2228990748
 20
193.1618343926
  0
VERTEX
  8
0
 62
7
  6
CONTINUOUS
 10
112.2265294075
 20
193.2327485351
  0
SEQEND
  0
LINE
  8
0
 62
7
  6
CONTINUOUS
 10
110.7562350785
 20
192.3303914882
 11
110.8609606232
 21
192.3462938625
  0
POLYLINE
  8
0
 62
7
  6
CONTINUOUS
 66
1
 70
0
  0
VERTEX
  8
0
 62
7
  6
CONTINUOUS
 10
106.5691533943
 20
191.2741492084
  0
VERTEX
  8
0
 62
7
  6
CONTINUOUS
 10
107.1174447767
 20
191.3455264635
  0
VERTEX
  8
0
 62
7
  6
CONTINUOUS
 10
107.7174261921
 20
191.4401759248
  0
VERTEX
  8
0
 62
7
  6
CONTINUOUS
 10
108.3002131566
 20
191.5507865297
  0
VERTEX
  8
0
 62
7
  6
CONTINUOUS
 10
108.8607988229
 20
191.6774004158
  0
VERTEX
  8
0
 62
7
  6
CONTINUOUS
 10
109.3943465012
 20
191.8200331702
  0
VERTEX
  8
0
 62
7
  6
CONTINUOUS
 10
109.8961968792
 20
191.9787310945
  0
VERTEX
  8
0
 62
7
  6
CONTINUOUS
 10
110.3620474846
 20
192.1537248761
  0
SEQEND
  0
POLYLINE
  8
0
 62
7
  6
CONTINUOUS
 66
1
 70
0
  0
VERTEX
  8
0
 62
7
  6
CONTINUOUS
 10
55.9121032798
 20
182.8770414999
  0
VERTEX
  8
0
 62
7
  6
CONTINUOUS
 10
56.2054253987
 20
182.8810144768
  0
VERTEX
  8
0
 62
7
  6
CONTINUOUS
 10
56.2850189418
 20
182.8811408003
  0
VERTEX
  8
0
 62
7
  6
CONTINUOUS
 10
56.364081603
 20
182.8798621209
  0
VERTEX
  8
0
 62
7
  6
CONTINUOUS
 10
56.4423333272
 20
182.876975644
  0
VERTEX
  8
0
 62
7
  6
CONTINUOUS
 10
56.5195515712
 20
182.872260242
  0
VERTEX
  8
0
 62
7
  6
CONTINUOUS
 10
56.5955166201
 20
182.8655173215
  0
VERTEX
  8
0
 62
7
  6
CONTINUOUS
 10
56.6697957648
 20
182.8565709753
  0
VERTEX
  8
0
 62
7
  6
CONTINUOUS
 10
56.7418807631
 20
182.8452514581
  0
VERTEX
  8
0
 62
7
  6
CONTINUOUS
 10
56.811985432
 20
182.8313600589
  0
VERTEX
  8
0
 62
7
  6
CONTINUOUS
 10
56.8796355841
 20
182.814660183
  0
VERTEX
  8
0
 62
7
  6
CONTINUOUS
 10
56.9437037684
 20
182.7949456411
  0
VERTEX
  8
0
 62
7
  6
CONTINUOUS
 10
57.0031935934
 20
182.7715989636
  0
VERTEX
  8
0
 62
7
  6
CONTINUOUS
 10
57.0584625423
 20
182.7441305404
  0
VERTEX
  8
0
 62
7
  6
CONTINUOUS
 10
57.1079070716
 20
182.7131156638
  0
VERTEX
  8
0
 62
7
  6
CONTINUOUS
 10
57.1500860445
 20
182.6796729778
  0
VERTEX
  8
0
 62
7
  6
CONTINUOUS
 10
57.1853603363
 20
182.6438030865
  0
VERTEX
  8
0
 62
7
  6
CONTINUOUS
 10
57.2136561478
 20
182.6054829111
  0
VERTEX
  8
0
 62
7
  6
CONTINUOUS
 10
57.2343662534
 20
182.5646519106
  0
VERTEX
  8
0
 62
7
  6
CONTINUOUS
 10
57.2459545154
 20
182.5218550879
  0
VERTEX
  8
0
 62
7
  6
CONTINUOUS
 10
57.2477210256
 20
182.4984852896
  0
SEQEND
  0
LINE
  8
0
 62
7
  6
CONTINUOUS
 10
55.6290815431
 20
182.8746255255
 11
55.9121032798
 21
182.8770414999
  0
LINE
  8
0
 62
7
  6
CONTINUOUS
 10
101.2324903755
 20
182.7037536194
 11
106.5681031228
 21
182.7037536194
  0
LINE
  8
0
 62
7
  6
CONTINUOUS
 10
50.0849934175
 20
182.8740899331
 11
55.6290815431
 21
182.8746255255
  0
LINE
  8
0
 62
7
  6
CONTINUOUS
 10
106.5681352358
 20
182.7037536194
 11
106.5691432729
 21
182.7036942933
  0
LINE
  8
0
 62
7
  6
CONTINUOUS
 10
110.8609606232
 20
181.6315496901
 11
110.7562350782
 21
181.6474520645
  0
POLYLINE
  8
0
 62
7
  6
CONTINUOUS
 66
1
 70
0
  0
VERTEX
  8
0
 62
7
  6
CONTINUOUS
 10
45.7921057352
 20
190.0315508337
  0
VERTEX
  8
0
 62
7
  6
CONTINUOUS
 10
45.6233106818
 20
190.0036641879
  0
VERTEX
  8
0
 62
7
  6
CONTINUOUS
 10
45.4587504654
 20
189.9728202865
  0
VERTEX
  8
0
 62
7
  6
CONTINUOUS
 10
45.3153121889
 20
189.9419365357
  0
VERTEX
  8
0
 62
7
  6
CONTINUOUS
 10
45.1896338884
 20
189.9105984891
  0
VERTEX
  8
0
 62
7
  6
CONTINUOUS
 10
45.0783202181
 20
189.8780971038
  0
VERTEX
  8
0
 62
7
  6
CONTINUOUS
 10
44.9777105966
 20
189.843184801
  0
VERTEX
  8
0
 62
7
  6
CONTINUOUS
 10
44.8837457255
 20
189.8036481737
  0
VERTEX
  8
0
 62
7
  6
CONTINUOUS
 10
44.7925499445
 20
189.7558595825
  0
VERTEX
  8
0
 62
7
  6
CONTINUOUS
 10
44.7012377681
 20
189.6941505392
  0
VERTEX
  8
0
 62
7
  6
CONTINUOUS
 10
44.6101900142
 20
189.6110534719
  0
VERTEX
  8
0
 62
7
  6
CONTINUOUS
 10
44.5267204551
 20
189.5012482068
  0
VERTEX
  8
0
 62
7
  6
CONTINUOUS
 10
44.4634101479
 20
189.3670944247
  0
VERTEX
  8
0
 62
7
  6
CONTINUOUS
 10
44.4305666725
 20
189.2198481694
  0
VERTEX
  8
0
 62
7
  6
CONTINUOUS
 10
44.4265296184
 20
189.1450924637
  0
SEQEND
  0
LINE
  8
0
 62
7
  6
CONTINUOUS
 10
45.8968248719
 20
190.047454339
 11
45.7920975299
 21
190.0315495545
  0
POLYLINE
  8
0
 62
7
  6
CONTINUOUS
 66
1
 70
0
  0
VERTEX
  8
0
 62
7
  6
CONTINUOUS
 10
50.0839056005
 20
191.1036943408
  0
VERTEX
  8
0
 62
7
  6
CONTINUOUS
 10
49.5321124791
 20
191.0318165271
  0
VERTEX
  8
0
 62
7
  6
CONTINUOUS
 10
48.9322875522
 20
190.9370876758
  0
VERTEX
  8
0
 62
7
  6
CONTINUOUS
 10
48.3496767467
 20
190.8264001448
  0
VERTEX
  8
0
 62
7
  6
CONTINUOUS
 10
47.7892857249
 20
190.6997119112
  0
VERTEX
  8
0
 62
7
  6
CONTINUOUS
 10
47.2559495227
 20
190.5570071654
  0
VERTEX
  8
0
 62
7
  6
CONTINUOUS
 10
46.7543250423
 20
190.3982387635
  0
VERTEX
  8
0
 62
7
  6
CONTINUOUS
 10
46.2887120014
 20
190.2231742253
  0
SEQEND
  0
LINE
  8
0
 62
7
  6
CONTINUOUS
 10
106.5691475286
 20
191.274149238
 11
106.5681276169
 21
191.2740899361
  0
LINE
  8
0
 62
7
  6
CONTINUOUS
 10
50.0839114662
 20
191.1036943113
 11
50.084931406
 21
191.1037536165
  0
POLYLINE
  8
0
 62
7
  6
CONTINUOUS
 66
1
 70
0
  0
VERTEX
  8
0
 62
7
  6
CONTINUOUS
 10
56.2095311521
 20
191.0967911144
  0
VERTEX
  8
0
 62
7
  6
CONTINUOUS
 10
55.9160671663
 20
191.1007555909
  0
VERTEX
  8
0
 62
7
  6
CONTINUOUS
 10
55.6330549648
 20
191.1031973348
  0
VERTEX
  8
0
 62
7
  6
CONTINUOUS
 10
50.0849934175
 20
191.1037536194
  0
SEQEND
  0
POLYLINE
  8
0
 62
7
  6
CONTINUOUS
 66
1
 70
0
  0
VERTEX
  8
0
 62
7
  6
CONTINUOUS
 10
100.4471566966
 20
191.2810190553
  0
VERTEX
  8
0
 62
7
  6
CONTINUOUS
 10
100.7409557938
 20
191.2770415001
  0
VERTEX
  8
0
 62
7
  6
CONTINUOUS
 10
101.0239774543
 20
191.2746255257
  0
VERTEX
  8
0
 62
7
  6
CONTINUOUS
 10
106.5680656055
 20
191.2740899331
  0
SEQEND
  0
POLYLINE
  8
0
 62
7
  6
CONTINUOUS
 66
1
 70
0
  0
VERTEX
  8
0
 62
7
  6
CONTINUOUS
 10
110.7652941172
 20
181.6433919933
  0
VERTEX
  8
0
 62
7
  6
CONTINUOUS
 10
110.3620473777
 20
181.8241187204
  0
VERTEX
  8
0
 62
7
  6
CONTINUOUS
 10
109.8961966465
 20
181.9991125382
  0
VERTEX
  8
0
 62
7
  6
CONTINUOUS
 10
109.3943461264
 20
182.1578104913
  0
VERTEX
  8
0
 62
7
  6
CONTINUOUS
 10
108.860798293
 20
182.3004432669
  0
VERTEX
  8
0
 62
7
  6
CONTINUOUS
 10
108.3002124621
 20
182.4270571668
  0
VERTEX
  8
0
 62
7
  6
CONTINUOUS
 10
107.7174253271
 20
182.5376677776
  0
VERTEX
  8
0
 62
7
  6
CONTINUOUS
 10
107.1174437388
 20
182.6323172374
  0
VERTEX
  8
0
 62
7
  6
CONTINUOUS
 10
106.5691533943
 20
182.7036943442
  0
SEQEND
  0
POLYLINE
  8
0
 62
7
  6
CONTINUOUS
 66
1
 70
0
  0
VERTEX
  8
0
 62
7
  6
CONTINUOUS
 10
106.5691432729
 20
182.7036942933
  0
VERTEX
  8
0
 62
7
  6
CONTINUOUS
 10
106.5777401709
 20
182.697882593
  0
VERTEX
  8
0
 62
7
  6
CONTINUOUS
 10
106.5865334893
 20
182.67879584
  0
VERTEX
  8
0
 62
7
  6
CONTINUOUS
 10
106.5932619321
 20
182.6475945929
  0
VERTEX
  8
0
 62
7
  6
CONTINUOUS
 10
106.5975816354
 20
182.606276047
  0
VERTEX
  8
0
 62
7
  6
CONTINUOUS
 10
106.5993705221
 20
182.5575797009
  0
VERTEX
  8
0
 62
7
  6
CONTINUOUS
 10
106.5988108347
 20
182.5037536194
  0
SEQEND
  0
LINE
  8
0
 62
7
  6
CONTINUOUS
 10
110.3620474846
 20
74.5537248761
 11
110.7652941172
 21
74.7344515593
  0
POLYLINE
  8
0
 62
7
  6
CONTINUOUS
 66
1
 70
0
  0
VERTEX
  8
0
 62
7
  6
CONTINUOUS
 10
55.9121032798
 20
199.6770414999
  0
VERTEX
  8
0
 62
7
  6
CONTINUOUS
 10
56.2054253987
 20
199.6810144768
  0
VERTEX
  8
0
 62
7
  6
CONTINUOUS
 10
56.2850189418
 20
199.6811408003
  0
VERTEX
  8
0
 62
7
  6
CONTINUOUS
 10
56.364081603
 20
199.6798621209
  0
VERTEX
  8
0
 62
7
  6
CONTINUOUS
 10
56.4423333272
 20
199.676975644
  0
VERTEX
  8
0
 62
7
  6
CONTINUOUS
 10
56.5195515712
 20
199.672260242
  0
VERTEX
  8
0
 62
7
  6
CONTINUOUS
 10
56.5955166201
 20
199.6655173215
  0
VERTEX
  8
0
 62
7
  6
CONTINUOUS
 10
56.6697957648
 20
199.6565709753
  0
VERTEX
  8
0
 62
7
  6
CONTINUOUS
 10
56.7418807631
 20
199.6452514581
  0
VERTEX
  8
0
 62
7
  6
CONTINUOUS
 10
56.811985432
 20
199.6313600589
  0
VERTEX
  8
0
 62
7
  6
CONTINUOUS
 10
56.8796355841
 20
199.614660183
  0
VERTEX
  8
0
 62
7
  6
CONTINUOUS
 10
56.9437037684
 20
199.5949456411
  0
VERTEX
  8
0
 62
7
  6
CONTINUOUS
 10
57.0031935934
 20
199.5715989636
  0
VERTEX
  8
0
 62
7
  6
CONTINUOUS
 10
57.0584625423
 20
199.5441305404
  0
VERTEX
  8
0
 62
7
  6
CONTINUOUS
 10
57.1079070716
 20
199.5131156638
  0
VERTEX
  8
0
 62
7
  6
CONTINUOUS
 10
57.1500860445
 20
199.4796729778
  0
VERTEX
  8
0
 62
7
  6
CONTINUOUS
 10
57.1853603363
 20
199.4438030865
  0
VERTEX
  8
0
 62
7
  6
CONTINUOUS
 10
57.2136561478
 20
199.4054829111
  0
VERTEX
  8
0
 62
7
  6
CONTINUOUS
 10
57.2343662534
 20
199.3646519106
  0
VERTEX
  8
0
 62
7
  6
CONTINUOUS
 10
57.2459545154
 20
199.3218550879
  0
VERTEX
  8
0
 62
7
  6
CONTINUOUS
 10
57.2477210256
 20
199.2984852896
  0
SEQEND
  0
POLYLINE
  8
0
 62
7
  6
CONTINUOUS
 66
1
 70
0
  0
VERTEX
  8
0
 62
7
  6
CONTINUOUS
 10
100.7369880132
 20
199.500755188
  0
VERTEX
  8
0
 62
7
  6
CONTINUOUS
 10
100.4429562422
 20
199.496785467
  0
VERTEX
  8
0
 62
7
  6
CONTINUOUS
 10
100.3630870692
 20
199.4967388006
  0
VERTEX
  8
0
 62
7
  6
CONTINUOUS
 10
100.283911606
 20
199.4981155652
  0
VERTEX
  8
0
 62
7
  6
CONTINUOUS
 10
100.2056896322
 20
199.5011146747
  0
VERTEX
  8
0
 62
7
  6
CONTINUOUS
 10
100.1286185127
 20
199.5059502445
  0
VERTEX
  8
0
 62
7
  6
CONTINUOUS
 10
100.0529053401
 20
199.5128113742
  0
VERTEX
  8
0
 62
7
  6
CONTINUOUS
 10
99.9789780712
 20
199.5218672726
  0
VERTEX
  8
0
 62
7
  6
CONTINUOUS
 10
99.907282895
 20
199.5332829284
  0
VERTEX
  8
0
 62
7
  6
CONTINUOUS
 10
99.8376838729
 20
199.5472389045
  0
VERTEX
  8
0
 62
7
  6
CONTINUOUS
 10
99.7704482868
 20
199.564006659
  0
VERTEX
  8
0
 62
7
  6
CONTINUOUS
 10
99.7070192459
 20
199.5837088109
  0
VERTEX
  8
0
 62
7
  6
CONTINUOUS
 10
99.6480243535
 20
199.6070602089
  0
VERTEX
  8
0
 62
7
  6
CONTINUOUS
 10
99.5932543485
 20
199.6344630925
  0
VERTEX
  8
0
 62
7
  6
CONTINUOUS
 10
99.5443230811
 20
199.6653122263
  0
VERTEX
  8
0
 62
7
  6
CONTINUOUS
 10
99.5022967183
 20
199.6987762292
  0
VERTEX
  8
0
 62
7
  6
CONTINUOUS
 10
99.4669530436
 20
199.7349114312
  0
VERTEX
  8
0
 62
7
  6
CONTINUOUS
 10
99.4385879002
 20
199.7736746728
  0
VERTEX
  8
0
 62
7
  6
CONTINUOUS
 10
99.4180116025
 20
199.8149482725
  0
VERTEX
  8
0
 62
7
  6
CONTINUOUS
 10
99.4068285754
 20
199.8579456087
  0
VERTEX
  8
0
 62
7
  6
CONTINUOUS
 10
99.4053385631
 20
199.8791845119
  0
SEQEND
  0
LINE
  8
0
 62
7
  6
CONTINUOUS
 10
101.0200021822
 20
199.5031972426
 11
100.7369880132
 21
199.500755188
  0
LINE
  8
0
 62
7
  6
CONTINUOUS
 10
55.6290815431
 20
199.6746255255
 11
55.9121032798
 21
199.6770414999
  0
LINE
  8
0
 62
7
  6
CONTINUOUS
 10
101.0200021822
 20
199.5031972426
 11
106.5681031228
 21
199.5037536194
  0
LINE
  8
0
 62
7
  6
CONTINUOUS
 10
50.0849934175
 20
199.6740899331
 11
55.6290815431
 21
199.6746255255
  0
LINE
  8
0
 62
7
  6
CONTINUOUS
 10
50.0839114662
 20
199.6741492413
 11
50.084931406
 21
199.6740899361
  0
LINE
  8
0
 62
7
  6
CONTINUOUS
 10
106.5681352358
 20
199.5037536194
 11
106.5691432729
 21
199.5036942933
  0
LINE
  8
0
 62
7
  6
CONTINUOUS
 10
45.7920975299
 20
200.7462939981
 11
45.8968248719
 21
200.7303892136
  0
LINE
  8
0
 62
7
  6
CONTINUOUS
 10
110.8609606232
 20
198.4315496901
 11
110.7562350782
 21
198.4474520645
  0
POLYLINE
  8
0
 62
7
  6
CONTINUOUS
 66
1
 70
0
  0
VERTEX
  8
0
 62
7
  6
CONTINUOUS
 10
110.7652941172
 20
198.4433919933
  0
VERTEX
  8
0
 62
7
  6
CONTINUOUS
 10
110.3620473777
 20
198.6241187204
  0
VERTEX
  8
0
 62
7
  6
CONTINUOUS
 10
109.8961966465
 20
198.7991125382
  0
VERTEX
  8
0
 62
7
  6
CONTINUOUS
 10
109.3943461264
 20
198.9578104913
  0
VERTEX
  8
0
 62
7
  6
CONTINUOUS
 10
108.860798293
 20
199.1004432669
  0
VERTEX
  8
0
 62
7
  6
CONTINUOUS
 10
108.3002124621
 20
199.2270571668
  0
VERTEX
  8
0
 62
7
  6
CONTINUOUS
 10
107.7174253271
 20
199.3376677776
  0
VERTEX
  8
0
 62
7
  6
CONTINUOUS
 10
107.1174437388
 20
199.4323172374
  0
VERTEX
  8
0
 62
7
  6
CONTINUOUS
 10
106.5691533943
 20
199.5036943442
  0
SEQEND
  0
POLYLINE
  8
0
 62
7
  6
CONTINUOUS
 66
1
 70
0
  0
VERTEX
  8
0
 62
7
  6
CONTINUOUS
 10
106.5691432729
 20
199.5036942933
  0
VERTEX
  8
0
 62
7
  6
CONTINUOUS
 10
106.5777401709
 20
199.497882593
  0
VERTEX
  8
0
 62
7
  6
CONTINUOUS
 10
106.5865334893
 20
199.47879584
  0
VERTEX
  8
0
 62
7
  6
CONTINUOUS
 10
106.5932619321
 20
199.4475945929
  0
VERTEX
  8
0
 62
7
  6
CONTINUOUS
 10
106.5975816354
 20
199.406276047
  0
VERTEX
  8
0
 62
7
  6
CONTINUOUS
 10
106.5993705221
 20
199.3575797009
  0
VERTEX
  8
0
 62
7
  6
CONTINUOUS
 10
106.5988108347
 20
199.3037536194
  0
SEQEND
  0
POLYLINE
  8
0
 62
7
  6
CONTINUOUS
 66
1
 70
0
  0
VERTEX
  8
0
 62
7
  6
CONTINUOUS
 10
106.5637816948
 20
56.8889217763
  0
VERTEX
  8
0
 62
7
  6
CONTINUOUS
 10
106.571544435
 20
56.8938466472
  0
VERTEX
  8
0
 62
7
  6
CONTINUOUS
 10
106.5789245624
 20
56.9084311619
  0
VERTEX
  8
0
 62
7
  6
CONTINUOUS
 10
106.5855587555
 20
56.9320396233
  0
VERTEX
  8
0
 62
7
  6
CONTINUOUS
 10
106.5911148245
 20
56.9635780728
  0
VERTEX
  8
0
 62
7
  6
CONTINUOUS
 10
106.5953090078
 20
57.0015292573
  0
VERTEX
  8
0
 62
7
  6
CONTINUOUS
 10
106.5979219185
 20
57.044020382
  0
VERTEX
  8
0
 62
7
  6
CONTINUOUS
 10
106.5988108347
 20
57.0889217763
  0
SEQEND
  0
POLYLINE
  8
0
 62
7
  6
CONTINUOUS
 66
1
 70
0
  0
VERTEX
  8
0
 62
7
  6
CONTINUOUS
 10
44.6263407143
 20
207.8889214604
  0
VERTEX
  8
0
 62
7
  6
CONTINUOUS
 10
44.5819244581
 20
207.8838824003
  0
VERTEX
  8
0
 62
7
  6
CONTINUOUS
 10
44.5397418433
 20
207.8691069457
  0
VERTEX
  8
0
 62
7
  6
CONTINUOUS
 10
44.5018916825
 20
207.8453313881
  0
VERTEX
  8
0
 62
7
  6
CONTINUOUS
 10
44.4702661698
 20
207.8137429359
  0
VERTEX
  8
0
 62
7
  6
CONTINUOUS
 10
44.4464453795
 20
207.775918916
  0
VERTEX
  8
0
 62
7
  6
CONTINUOUS
 10
44.4316198158
 20
207.7337491204
  0
VERTEX
  8
0
 62
7
  6
CONTINUOUS
 10
44.4265295125
 20
207.6889125975
  0
SEQEND
  0
LINE
  8
0
 62
7
  6
CONTINUOUS
 10
44.6264623323
 20
207.8889217763
 11
99.2051352793
 21
207.8889217763
  0
LINE
  8
0
 62
7
  6
CONTINUOUS
 10
170.0959723408
 20
60.1155737109
 11
167.5785714286
 21
59.4889217763
  0
LINE
  8
0
 62
7
  6
CONTINUOUS
 10
152.5785714286
 20
56.8889217763
 11
167.3785714286
 21
56.8889217763
  0
POLYLINE
  8
0
 62
7
  6
CONTINUOUS
 66
1
 70
0
  0
VERTEX
  8
0
 62
7
  6
CONTINUOUS
 10
160.5788743511
 20
56.8889217763
  0
VERTEX
  8
0
 62
7
  6
CONTINUOUS
 10
160.4223924711
 20
56.9012371728
  0
VERTEX
  8
0
 62
7
  6
CONTINUOUS
 10
160.2697636952
 20
56.9378801145
  0
VERTEX
  8
0
 62
7
  6
CONTINUOUS
 10
160.1247462696
 20
56.997948319
  0
VERTEX
  8
0
 62
7
  6
CONTINUOUS
 10
159.9909110201
 20
57.0799626837
  0
VERTEX
  8
0
 62
7
  6
CONTINUOUS
 10
159.8715533903
 20
57.181903738
  0
VERTEX
  8
0
 62
7
  6
CONTINUOUS
 10
159.769612336
 20
57.3012613678
  0
VERTEX
  8
0
 62
7
  6
CONTINUOUS
 10
159.6875979713
 20
57.4350966173
  0
VERTEX
  8
0
 62
7
  6
CONTINUOUS
 10
159.6275297668
 20
57.580114043
  0
VERTEX
  8
0
 62
7
  6
CONTINUOUS
 10
159.5908868251
 20
57.7327428188
  0
VERTEX
  8
0
 62
7
  6
CONTINUOUS
 10
159.5785714286
 20
57.8892276481
  0
SEQEND
  0
LINE
  8
0
 62
7
  6
CONTINUOUS
 10
170.0959723408
 20
68.5155737109
 11
167.5785714286
 21
67.8889217763
  0
LINE
  8
0
 62
7
  6
CONTINUOUS
 10
151.5886623605
 20
68.0704760122
 11
153.7254674271
 21
67.995857135
  0
LINE
  8
0
 62
7
  6
CONTINUOUS
 10
152.8341329228
 20
67.1885633355
 11
163.6376123851
 21
66.3250290846
  0
LINE
  8
0
 62
7
  6
CONTINUOUS
 10
154.3432482172
 20
67.6995111706
 11
155.5012233429
 21
67.6030295131
  0
LINE
  8
0
 62
7
  6
CONTINUOUS
 10
155.5012233429
 20
67.6030295131
 11
156.7691876549
 21
67.4957315208
  0
POLYLINE
  8
0
 62
7
  6
CONTINUOUS
 66
1
 70
0
  0
VERTEX
  8
0
 62
7
  6
CONTINUOUS
 10
156.7691876549
 20
67.4957315208
  0
VERTEX
  8
0
 62
7
  6
CONTINUOUS
 10
158.1129142268
 20
67.3799995575
  0
VERTEX
  8
0
 62
7
  6
CONTINUOUS
 10
158.801871544
 20
67.3198758842
  0
SEQEND
  0
POLYLINE
  8
0
 62
7
  6
CONTINUOUS
 66
1
 70
0
  0
VERTEX
  8
0
 62
7
  6
CONTINUOUS
 10
160.2970708223
 20
66.5920423301
  0
VERTEX
  8
0
 62
7
  6
CONTINUOUS
 10
160.3362810502
 20
66.5870542359
  0
VERTEX
  8
0
 62
7
  6
CONTINUOUS
 10
160.3839618013
 20
66.5759234647
  0
VERTEX
  8
0
 62
7
  6
CONTINUOUS
 10
160.414822175
 20
66.5657192411
  0
SEQEND
  0
POLYLINE
  8
0
 62
7
  6
CONTINUOUS
 66
1
 70
0
  0
VERTEX
  8
0
 62
7
  6
CONTINUOUS
 10
153.7254628327
 20
67.995857307
  0
VERTEX
  8
0
 62
7
  6
CONTINUOUS
 10
153.8135111987
 20
67.9833606062
  0
VERTEX
  8
0
 62
7
  6
CONTINUOUS
 10
153.8724553962
 20
67.9650552039
  0
SEQEND
  0
LINE
  8
0
 62
7
  6
CONTINUOUS
 10
170.0959723408
 20
61.8622698417
 11
167.5785714286
 21
62.4889217763
  0
LINE
  8
0
 62
7
  6
CONTINUOUS
 10
163.7351730804
 20
66.3073696521
 11
167.3236117502
 21
65.2817895594
  0
POLYLINE
  8
0
 62
7
  6
CONTINUOUS
 66
1
 70
0
  0
VERTEX
  8
0
 62
7
  6
CONTINUOUS
 10
153.8724553962
 20
67.9650552039
  0
VERTEX
  8
0
 62
7
  6
CONTINUOUS
 10
153.8973304893
 20
67.9552592947
  0
VERTEX
  8
0
 62
7
  6
CONTINUOUS
 10
153.9739137466
 20
67.9172460558
  0
VERTEX
  8
0
 62
7
  6
CONTINUOUS
 10
154.0425134854
 20
67.8746447443
  0
VERTEX
  8
0
 62
7
  6
CONTINUOUS
 10
154.1033198557
 20
67.831913293
  0
VERTEX
  8
0
 62
7
  6
CONTINUOUS
 10
154.1582288256
 20
67.7916196939
  0
VERTEX
  8
0
 62
7
  6
CONTINUOUS
 10
154.2084234481
 20
67.7562490016
  0
VERTEX
  8
0
 62
7
  6
CONTINUOUS
 10
154.2548500335
 20
67.7280943493
  0
VERTEX
  8
0
 62
7
  6
CONTINUOUS
 10
154.2992146089
 20
67.7087007053
  0
VERTEX
  8
0
 62
7
  6
CONTINUOUS
 10
154.3432482172
 20
67.6995111706
  0
SEQEND
  0
LINE
  8
0
 62
7
  6
CONTINUOUS
 10
152.4988944274
 20
71.5624842275
 11
163.6376123851
 21
72.4528144679
  0
LINE
  8
0
 62
7
  6
CONTINUOUS
 10
161.7679951132
 20
75.2095467763
 11
162.1161382056
 21
75.2095467763
  0
LINE
  8
0
 62
7
  6
CONTINUOUS
 10
161.3375790728
 20
75.3670466261
 11
161.6857221652
 21
75.3670466261
  0
LINE
  8
0
 62
7
  6
CONTINUOUS
 10
161.1401509836
 20
75.5189217763
 11
160.9279287261
 21
75.5189217763
  0
LINE
  8
0
 62
7
  6
CONTINUOUS
 10
170.0959723408
 20
70.2622698417
 11
167.5785714286
 21
70.8889217763
  0
LINE
  8
0
 62
7
  6
CONTINUOUS
 10
160.414797059
 20
66.5657285119
 11
160.4718849308
 21
66.5405594752
  0
POLYLINE
  8
0
 62
7
  6
CONTINUOUS
 66
1
 70
0
  0
VERTEX
  8
0
 62
7
  6
CONTINUOUS
 10
153.8724728134
 20
67.9651400441
  0
VERTEX
  8
0
 62
7
  6
CONTINUOUS
 10
153.9550798512
 20
67.9254542541
  0
VERTEX
  8
0
 62
7
  6
CONTINUOUS
 10
154.0230920095
 20
67.8765387959
  0
VERTEX
  8
0
 62
7
  6
CONTINUOUS
 10
154.0819824877
 20
67.8169544235
  0
VERTEX
  8
0
 62
7
  6
CONTINUOUS
 10
154.1300979774
 20
67.7483738964
  0
VERTEX
  8
0
 62
7
  6
CONTINUOUS
 10
154.1660876819
 20
67.6727225484
  0
SEQEND
  0
LINE
  8
0
 62
7
  6
CONTINUOUS
 10
160.4718849311
 20
189.8372840775
 11
160.4147970591
 21
189.8121150408
  0
LINE
  8
0
 62
7
  6
CONTINUOUS
 10
163.7351730804
 20
190.0704739004
 11
167.3236117502
 21
191.0960539932
  0
LINE
  8
0
 62
7
  6
CONTINUOUS
 10
170.0959723408
 20
76.9155737109
 11
167.5785714286
 21
76.2889217763
  0
LINE
  8
0
 62
7
  6
CONTINUOUS
 10
161.1401509836
 20
76.0589217763
 11
160.9279287261
 21
76.0589217763
  0
LINE
  8
0
 62
7
  6
CONTINUOUS
 10
160.839202615
 20
76.3907967763
 11
161.3375790728
 21
76.3907967763
  0
LINE
  8
0
 62
7
  6
CONTINUOUS
 10
161.4734999077
 20
76.3907967763
 11
161.7679951132
 21
76.3907967763
  0
LINE
  8
0
 62
7
  6
CONTINUOUS
 10
162.1161382056
 20
76.6270467763
 11
160.839202615
 21
76.6270467763
  0
LINE
  8
0
 62
7
  6
CONTINUOUS
 10
161.0883908439
 20
76.9420467012
 11
161.4138804638
 21
76.9420467012
  0
LINE
  8
0
 62
7
  6
CONTINUOUS
 10
161.5044943854
 20
77.0207968514
 11
161.2922721279
 21
77.0207968514
  0
LINE
  8
0
 62
7
  6
CONTINUOUS
 10
161.8669500084
 20
77.0601717012
 11
161.6547277509
 21
77.0601717012
  0
LINE
  8
0
 62
7
  6
CONTINUOUS
 10
161.9349104258
 20
77.0995467763
 11
161.7226881683
 21
77.0995467763
  0
LINE
  8
0
 62
7
  6
CONTINUOUS
 10
161.5951082753
 20
77.1782967012
 11
161.3828860178
 21
77.1782967012
  0
LINE
  8
0
 62
7
  6
CONTINUOUS
 10
161.1790047338
 20
77.1782967012
 11
161.1110443164
 21
77.1782967012
  0
LINE
  8
0
 62
7
  6
CONTINUOUS
 10
162.0255243157
 20
77.2176717763
 11
161.8133020582
 21
77.2176717763
  0
LINE
  8
0
 62
7
  6
CONTINUOUS
 10
161.246965183
 20
77.2570468514
 11
161.043083899
 21
77.2570468514
  0
LINE
  8
0
 62
7
  6
CONTINUOUS
 10
161.6404152202
 20
77.3357967763
 11
161.4281929627
 21
77.3357967763
  0
LINE
  8
0
 62
7
  6
CONTINUOUS
 10
162.0934847331
 20
77.3751718514
 11
161.8812624756
 21
77.3751718514
  0
LINE
  8
0
 62
7
  6
CONTINUOUS
 10
161.2099991957
 20
77.3751718514
 11
160.9977769382
 21
77.3751718514
  0
LINE
  8
0
 62
7
  6
CONTINUOUS
 10
161.6630686927
 20
77.5326717012
 11
161.4508464352
 21
77.5326717012
  0
LINE
  8
0
 62
7
  6
CONTINUOUS
 10
161.1873457232
 20
77.5326717012
 11
160.9751234657
 21
77.5326717012
  0
LINE
  8
0
 62
7
  6
CONTINUOUS
 10
162.1161382056
 20
77.5720467763
 11
161.903915948
 21
77.5720467763
  0
LINE
  8
0
 62
7
  6
CONTINUOUS
 10
162.1161382056
 20
77.7689217012
 11
161.903915948
 21
77.7689217012
  0
LINE
  8
0
 62
7
  6
CONTINUOUS
 10
161.6630686927
 20
77.7689217012
 11
161.4508464352
 21
77.7689217012
  0
LINE
  8
0
 62
7
  6
CONTINUOUS
 10
161.1873457232
 20
77.8476718514
 11
160.9751234657
 21
77.8476718514
  0
LINE
  8
0
 62
7
  6
CONTINUOUS
 10
161.6857221652
 20
77.8870467012
 11
161.4734999077
 21
77.8870467012
  0
LINE
  8
0
 62
7
  6
CONTINUOUS
 10
162.0934847331
 20
77.9264217763
 11
161.8812624756
 21
77.9264217763
  0
LINE
  8
0
 62
7
  6
CONTINUOUS
 10
161.7000346958
 20
78.0051717012
 11
161.5188068526
 21
78.0051717012
  0
LINE
  8
0
 62
7
  6
CONTINUOUS
 10
161.2099991957
 20
78.0051717012
 11
160.9977769382
 21
78.0051717012
  0
LINE
  8
0
 62
7
  6
CONTINUOUS
 10
161.58676727
 20
78.0445467763
 11
161.6320742149
 21
78.0445467763
  0
LINE
  8
0
 62
7
  6
CONTINUOUS
 10
162.0481777881
 20
78.0839218514
 11
161.8359555306
 21
78.0839218514
  0
LINE
  8
0
 62
7
  6
CONTINUOUS
 10
161.277959629
 20
78.1232967012
 11
161.0657373715
 21
78.1232967012
  0
LINE
  8
0
 62
7
  6
CONTINUOUS
 10
161.3459200464
 20
78.1626717763
 11
161.1336977889
 21
78.1626717763
  0
LINE
  8
0
 62
7
  6
CONTINUOUS
 10
161.9575638983
 20
78.2414217012
 11
161.7453416408
 21
78.2414217012
  0
LINE
  8
0
 62
7
  6
CONTINUOUS
 10
161.8669500084
 20
78.2807967763
 11
161.5641137975
 21
78.2807967763
  0
LINE
  8
0
 62
7
  6
CONTINUOUS
 10
161.3459200464
 20
78.3989217763
 11
161.1336977889
 21
78.3989217763
  0
LINE
  8
0
 62
7
  6
CONTINUOUS
 10
160.839202615
 20
78.7139218138
 11
162.1161382056
 21
78.7139218138
  0
LINE
  8
0
 62
7
  6
CONTINUOUS
 10
162.1161382056
 20
78.9501718138
 11
160.9977769382
 21
78.9501718138
  0
LINE
  8
0
 62
7
  6
CONTINUOUS
 10
162.1161382056
 20
79.9345467763
 11
161.903915948
 21
79.9345467763
  0
LINE
  8
0
 62
7
  6
CONTINUOUS
 10
160.839202615
 20
80.0526717763
 11
161.7679951132
 21
80.0526717763
  0
LINE
  8
0
 62
7
  6
CONTINUOUS
 10
162.1161382056
 20
80.2889217763
 11
160.839202615
 21
80.2889217763
  0
POLYLINE
  8
0
 62
7
  6
CONTINUOUS
 66
1
 70
0
  0
VERTEX
  8
0
 62
7
  6
CONTINUOUS
 10
160.4718849308
 20
66.5405594752
  0
VERTEX
  8
0
 62
7
  6
CONTINUOUS
 10
160.542359976
 20
66.497929126
  0
VERTEX
  8
0
 62
7
  6
CONTINUOUS
 10
160.6125813305
 20
66.4419811049
  0
VERTEX
  8
0
 62
7
  6
CONTINUOUS
 10
160.6639196318
 20
66.3917140233
  0
SEQEND
  0
LINE
  8
0
 62
7
  6
CONTINUOUS
 10
160.5423599759
 20
189.8799144265
 11
160.4718849311
 21
189.8372840775
  0
LINE
  8
0
 62
7
  6
CONTINUOUS
 10
170.0959723408
 20
85.3155737109
 11
167.5785714286
 21
84.6889217763
  0
LINE
  8
0
 62
7
  6
CONTINUOUS
 10
152.4988944274
 20
84.015359325
 11
163.6376123851
 21
83.1250290846
  0
LINE
  8
0
 62
7
  6
CONTINUOUS
 10
170.0959723408
 20
78.6622698417
 11
167.5785714286
 21
79.2889217763
  0
LINE
  8
0
 62
7
  6
CONTINUOUS
 10
163.7351730804
 20
83.1073696521
 11
167.3236117502
 21
82.0817895594
  0
LINE
  8
0
 62
7
  6
CONTINUOUS
 10
161.7453416408
 20
78.2414217012
 11
161.6547277509
 21
78.2807967763
  0
LINE
  8
0
 62
7
  6
CONTINUOUS
 10
161.9575638983
 20
78.2414217012
 11
161.8669500084
 21
78.2807967763
  0
POLYLINE
  8
0
 62
7
  6
CONTINUOUS
 66
1
 70
0
  0
VERTEX
  8
0
 62
7
  6
CONTINUOUS
 10
151.9051866126
 20
67.8875498549
  0
VERTEX
  8
0
 62
7
  6
CONTINUOUS
 10
151.8666658412
 20
67.9350298096
  0
VERTEX
  8
0
 62
7
  6
CONTINUOUS
 10
151.8178850137
 20
67.9929074789
  0
VERTEX
  8
0
 62
7
  6
CONTINUOUS
 10
151.7782286992
 20
68.0337728225
  0
VERTEX
  8
0
 62
7
  6
CONTINUOUS
 10
151.7461522288
 20
68.0576882658
  0
VERTEX
  8
0
 62
7
  6
CONTINUOUS
 10
151.7202918942
 20
68.065876878
  0
SEQEND
  0
LINE
  8
0
 62
7
  6
CONTINUOUS
 10
152.4988944274
 20
88.3624842275
 11
163.6376123851
 21
89.2528144679
  0
LINE
  8
0
 62
7
  6
CONTINUOUS
 10
170.0959723408
 20
87.0622698417
 11
167.5785714286
 21
87.6889217763
  0
LINE
  8
0
 62
7
  6
CONTINUOUS
 10
160.414797059
 20
83.3657285119
 11
160.4718849308
 21
83.3405594752
  0
LINE
  8
0
 62
7
  6
CONTINUOUS
 10
161.6320742149
 20
78.0445467763
 11
161.7000346958
 21
78.0051717012
  0
POLYLINE
  8
0
 62
7
  6
CONTINUOUS
 66
1
 70
0
  0
VERTEX
  8
0
 62
7
  6
CONTINUOUS
 10
160.4718849308
 20
83.3405594752
  0
VERTEX
  8
0
 62
7
  6
CONTINUOUS
 10
160.542359976
 20
83.297929126
  0
VERTEX
  8
0
 62
7
  6
CONTINUOUS
 10
160.6125813305
 20
83.2419811049
  0
VERTEX
  8
0
 62
7
  6
CONTINUOUS
 10
160.6639196318
 20
83.1917140233
  0
SEQEND
  0
LINE
  8
0
 62
7
  6
CONTINUOUS
 10
160.6638213082
 20
66.3918185888
 11
160.6639196318
 21
66.3917140233
  0
POLYLINE
  8
0
 62
7
  6
CONTINUOUS
 66
1
 70
0
  0
VERTEX
  8
0
 62
7
  6
CONTINUOUS
 10
151.905191431
 20
67.887543911
  0
VERTEX
  8
0
 62
7
  6
CONTINUOUS
 10
151.9542491431
 20
67.8148029749
  0
VERTEX
  8
0
 62
7
  6
CONTINUOUS
 10
151.9711253926
 20
67.7814215816
  0
SEQEND
  0
LINE
  8
0
 62
7
  6
CONTINUOUS
 10
160.6638213092
 20
189.9860249649
 11
160.6639196309
 21
189.9861295284
  0
POLYLINE
  8
0
 62
7
  6
CONTINUOUS
 66
1
 70
0
  0
VERTEX
  8
0
 62
7
  6
CONTINUOUS
 10
160.6639196309
 20
189.9861295284
  0
VERTEX
  8
0
 62
7
  6
CONTINUOUS
 10
160.6125813306
 20
189.9358624478
  0
VERTEX
  8
0
 62
7
  6
CONTINUOUS
 10
160.5423599759
 20
189.8799144265
  0
SEQEND
  0
LINE
  8
0
 62
7
  6
CONTINUOUS
 10
160.4718849311
 20
173.0372840775
 11
160.4147970591
 21
173.0121150408
  0
LINE
  8
0
 62
7
  6
CONTINUOUS
 10
163.7351730804
 20
173.2704739004
 11
167.3236117502
 21
174.2960539932
  0
LINE
  8
0
 62
7
  6
CONTINUOUS
 10
170.0959723408
 20
93.7155737109
 11
167.5785714286
 21
93.0889217763
  0
LINE
  8
0
 62
7
  6
CONTINUOUS
 10
160.9977769382
 20
77.0207968514
 11
161.0883908439
 21
76.9420467012
  0
LINE
  8
0
 62
7
  6
CONTINUOUS
 10
160.6638213108
 20
66.3918185913
 11
160.7078038832
 21
66.3373277909
  0
POLYLINE
  8
0
 62
7
  6
CONTINUOUS
 66
1
 70
0
  0
VERTEX
  8
0
 62
7
  6
CONTINUOUS
 10
151.9711253236
 20
67.7814215497
  0
VERTEX
  8
0
 62
7
  6
CONTINUOUS
 10
152.0131454828
 20
67.7000734621
  0
VERTEX
  8
0
 62
7
  6
CONTINUOUS
 10
152.0954606242
 20
67.5787710813
  0
VERTEX
  8
0
 62
7
  6
CONTINUOUS
 10
152.1953598
 20
67.4698622258
  0
VERTEX
  8
0
 62
7
  6
CONTINUOUS
 10
152.3109275464
 20
67.3757944418
  0
VERTEX
  8
0
 62
7
  6
CONTINUOUS
 10
152.4399524705
 20
67.2986933658
  0
VERTEX
  8
0
 62
7
  6
CONTINUOUS
 10
152.5798389201
 20
67.2404183543
  0
VERTEX
  8
0
 62
7
  6
CONTINUOUS
 10
152.7277862676
 20
67.2024362141
  0
VERTEX
  8
0
 62
7
  6
CONTINUOUS
 10
152.8342985103
 20
67.1885515227
  0
SEQEND
  0
LINE
  8
0
 62
7
  6
CONTINUOUS
 10
160.5423599759
 20
173.0799144265
 11
160.4718849311
 21
173.0372840775
  0
LINE
  8
0
 62
7
  6
CONTINUOUS
 10
170.0959723408
 20
102.1155737109
 11
167.5785714286
 21
101.4889217763
  0
LINE
  8
0
 62
7
  6
CONTINUOUS
 10
152.4988944274
 20
100.815359325
 11
163.6376123851
 21
99.9250290846
  0
LINE
  8
0
 62
7
  6
CONTINUOUS
 10
170.0959723408
 20
95.4622698417
 11
167.5785714286
 21
96.0889217763
  0
LINE
  8
0
 62
7
  6
CONTINUOUS
 10
160.6638213082
 20
83.1918185888
 11
160.6639196318
 21
83.1917140233
  0
LINE
  8
0
 62
7
  6
CONTINUOUS
 10
161.1110443164
 20
77.1782967012
 11
161.043083899
 21
77.2570468514
  0
LINE
  8
0
 62
7
  6
CONTINUOUS
 10
160.7078038832
 20
66.3373277909
 11
160.7527890584
 21
66.256098755
  0
POLYLINE
  8
0
 62
7
  6
CONTINUOUS
 66
1
 70
0
  0
VERTEX
  8
0
 62
7
  6
CONTINUOUS
 10
160.7527890595
 20
190.1217448004
  0
VERTEX
  8
0
 62
7
  6
CONTINUOUS
 10
160.7078038846
 20
190.0405157637
  0
VERTEX
  8
0
 62
7
  6
CONTINUOUS
 10
160.6638213119
 20
189.9860249624
  0
SEQEND
  0
LINE
  8
0
 62
7
  6
CONTINUOUS
 10
160.6638213092
 20
173.1860249649
 11
160.6639196309
 21
173.1861295284
  0
POLYLINE
  8
0
 62
7
  6
CONTINUOUS
 66
1
 70
0
  0
VERTEX
  8
0
 62
7
  6
CONTINUOUS
 10
160.6639196309
 20
173.1861295284
  0
VERTEX
  8
0
 62
7
  6
CONTINUOUS
 10
160.6125813306
 20
173.1358624478
  0
VERTEX
  8
0
 62
7
  6
CONTINUOUS
 10
160.5423599759
 20
173.0799144265
  0
SEQEND
  0
LINE
  8
0
 62
7
  6
CONTINUOUS
 10
152.4988944274
 20
105.1624842275
 11
163.6376123851
 21
106.0528144679
  0
LINE
  8
0
 62
7
  6
CONTINUOUS
 10
163.7351730804
 20
99.9073696521
 11
167.3236117502
 21
98.8817895594
  0
LINE
  8
0
 62
7
  6
CONTINUOUS
 10
160.414797059
 20
100.1657285119
 11
160.4718849308
 21
100.1405594752
  0
POLYLINE
  8
0
 62
7
  6
CONTINUOUS
 66
1
 70
0
  0
VERTEX
  8
0
 62
7
  6
CONTINUOUS
 10
160.4718849308
 20
100.1405594752
  0
VERTEX
  8
0
 62
7
  6
CONTINUOUS
 10
160.542359976
 20
100.097929126
  0
VERTEX
  8
0
 62
7
  6
CONTINUOUS
 10
160.6125813305
 20
100.0419811049
  0
VERTEX
  8
0
 62
7
  6
CONTINUOUS
 10
160.6639196318
 20
99.9917140233
  0
SEQEND
  0
LINE
  8
0
 62
7
  6
CONTINUOUS
 10
160.6638213108
 20
83.1918185913
 11
160.7078038832
 21
83.1373277909
  0
LINE
  8
0
 62
7
  6
CONTINUOUS
 10
160.9071630404
 20
77.1782967012
 11
160.9977769382
 21
77.0207968514
  0
POLYLINE
  8
0
 62
7
  6
CONTINUOUS
 66
1
 70
0
  0
VERTEX
  8
0
 62
7
  6
CONTINUOUS
 10
154.1660876819
 20
67.6727225484
  0
VERTEX
  8
0
 62
7
  6
CONTINUOUS
 10
154.1927337128
 20
67.5932183066
  0
VERTEX
  8
0
 62
7
  6
CONTINUOUS
 10
154.2440313201
 20
67.4834073364
  0
VERTEX
  8
0
 62
7
  6
CONTINUOUS
 10
154.3158973424
 20
67.3780556215
  0
VERTEX
  8
0
 62
7
  6
CONTINUOUS
 10
154.4081746237
 20
67.2804534179
  0
VERTEX
  8
0
 62
7
  6
CONTINUOUS
 10
154.5194145173
 20
67.1940578813
  0
VERTEX
  8
0
 62
7
  6
CONTINUOUS
 10
154.6480099769
 20
67.1213489548
  0
VERTEX
  8
0
 62
7
  6
CONTINUOUS
 10
154.7919644361
 20
67.0645144911
  0
VERTEX
  8
0
 62
7
  6
CONTINUOUS
 10
154.9490809559
 20
67.0256040719
  0
VERTEX
  8
0
 62
7
  6
CONTINUOUS
 10
155.0727050356
 20
67.0096296371
  0
SEQEND
  0
LINE
  8
0
 62
7
  6
CONTINUOUS
 10
160.4718849311
 20
156.2372840775
 11
160.4147970591
 21
156.2121150408
  0
LINE
  8
0
 62
7
  6
CONTINUOUS
 10
163.7351730804
 20
156.4704739004
 11
167.3236117502
 21
157.4960539932
  0
LINE
  8
0
 62
7
  6
CONTINUOUS
 10
170.0959723408
 20
110.5155737109
 11
167.5785714286
 21
109.8889217763
  0
LINE
  8
0
 62
7
  6
CONTINUOUS
 10
170.0959723408
 20
103.8622698417
 11
167.5785714286
 21
104.4889217763
  0
LINE
  8
0
 62
7
  6
CONTINUOUS
 10
160.6638213082
 20
99.9918185888
 11
160.6639196318
 21
99.9917140233
  0
LINE
  8
0
 62
7
  6
CONTINUOUS
 10
161.8359555306
 20
78.0839218514
 11
161.7453416408
 21
78.2414217012
  0
LINE
  8
0
 62
7
  6
CONTINUOUS
 10
162.0481777881
 20
78.0839218514
 11
161.9575638983
 21
78.2414217012
  0
LINE
  8
0
 62
7
  6
CONTINUOUS
 10
160.7078038832
 20
83.1373277909
 11
160.7527890584
 21
83.056098755
  0
LINE
  8
0
 62
7
  6
CONTINUOUS
 10
160.7527890584
 20
66.256098755
 11
160.7814240708
 21
66.1745150057
  0
LINE
  8
0
 62
7
  6
CONTINUOUS
 10
160.7814240616
 20
190.2033285131
 11
160.7527890595
 21
190.1217448004
  0
POLYLINE
  8
0
 62
7
  6
CONTINUOUS
 66
1
 70
0
  0
VERTEX
  8
0
 62
7
  6
CONTINUOUS
 10
160.7527890595
 20
173.3217448004
  0
VERTEX
  8
0
 62
7
  6
CONTINUOUS
 10
160.7078038846
 20
173.2405157637
  0
VERTEX
  8
0
 62
7
  6
CONTINUOUS
 10
160.6638213119
 20
173.1860249624
  0
SEQEND
  0
LINE
  8
0
 62
7
  6
CONTINUOUS
 10
160.6638213092
 20
156.3860249649
 11
160.6639196309
 21
156.3861295284
  0
POLYLINE
  8
0
 62
7
  6
CONTINUOUS
 66
1
 70
0
  0
VERTEX
  8
0
 62
7
  6
CONTINUOUS
 10
160.6639196309
 20
156.3861295284
  0
VERTEX
  8
0
 62
7
  6
CONTINUOUS
 10
160.6125813306
 20
156.3358624478
  0
VERTEX
  8
0
 62
7
  6
CONTINUOUS
 10
160.5423599759
 20
156.2799144265
  0
SEQEND
  0
LINE
  8
0
 62
7
  6
CONTINUOUS
 10
160.5423599759
 20
156.2799144265
 11
160.4718849311
 21
156.2372840775
  0
LINE
  8
0
 62
7
  6
CONTINUOUS
 10
170.0959723408
 20
118.9155737109
 11
167.5785714286
 21
118.2889217763
  0
LINE
  8
0
 62
7
  6
CONTINUOUS
 10
152.4988944274
 20
117.615359325
 11
163.6376123851
 21
116.7250290846
  0
LINE
  8
0
 62
7
  6
CONTINUOUS
 10
170.0959723408
 20
112.2622698417
 11
167.5785714286
 21
112.8889217763
  0
LINE
  8
0
 62
7
  6
CONTINUOUS
 10
160.6638213108
 20
99.9918185913
 11
160.7078038832
 21
99.9373277909
  0
LINE
  8
0
 62
7
  6
CONTINUOUS
 10
161.043083899
 20
77.2570468514
 11
160.9977769382
 21
77.3751718514
  0
LINE
  8
0
 62
7
  6
CONTINUOUS
 10
161.251135669
 20
77.2679202101
 11
161.2099991957
 21
77.3751718514
  0
LINE
  8
0
 62
7
  6
CONTINUOUS
 10
161.7000346958
 20
78.0051717012
 11
161.7453416408
 21
77.8870467012
  0
LINE
  8
0
 62
7
  6
CONTINUOUS
 10
160.7527890584
 20
83.056098755
 11
160.7814240708
 21
82.9745150057
  0
LINE
  8
0
 62
7
  6
CONTINUOUS
 10
160.7814240616
 20
173.4033285131
 11
160.7527890595
 21
173.3217448004
  0
POLYLINE
  8
0
 62
7
  6
CONTINUOUS
 66
1
 70
0
  0
VERTEX
  8
0
 62
7
  6
CONTINUOUS
 10
160.7527890595
 20
156.5217448004
  0
VERTEX
  8
0
 62
7
  6
CONTINUOUS
 10
160.7078038846
 20
156.4405157637
  0
VERTEX
  8
0
 62
7
  6
CONTINUOUS
 10
160.6638213119
 20
156.3860249624
  0
SEQEND
  0
LINE
  8
0
 62
7
  6
CONTINUOUS
 10
152.4988944274
 20
121.9624842275
 11
163.6376123851
 21
122.8528144679
  0
LINE
  8
0
 62
7
  6
CONTINUOUS
 10
163.7351730804
 20
116.7073696521
 11
167.3236117502
 21
115.6817895594
  0
LINE
  8
0
 62
7
  6
CONTINUOUS
 10
160.414797059
 20
116.9657285119
 11
160.4718849308
 21
116.9405594752
  0
POLYLINE
  8
0
 62
7
  6
CONTINUOUS
 66
1
 70
0
  0
VERTEX
  8
0
 62
7
  6
CONTINUOUS
 10
160.4718849308
 20
116.9405594752
  0
VERTEX
  8
0
 62
7
  6
CONTINUOUS
 10
160.542359976
 20
116.897929126
  0
VERTEX
  8
0
 62
7
  6
CONTINUOUS
 10
160.6125813305
 20
116.8419811049
  0
VERTEX
  8
0
 62
7
  6
CONTINUOUS
 10
160.6639196318
 20
116.7917140233
  0
SEQEND
  0
LINE
  8
0
 62
7
  6
CONTINUOUS
 10
160.6638213082
 20
116.7918185888
 11
160.6639196318
 21
116.7917140233
  0
LINE
  8
0
 62
7
  6
CONTINUOUS
 10
160.7078038832
 20
99.9373277909
 11
160.7527890584
 21
99.856098755
  0
LINE
  8
0
 62
7
  6
CONTINUOUS
 10
160.8618560895
 20
77.3357967763
 11
160.9071630404
 21
77.1782967012
  0
LINE
  8
0
 62
7
  6
CONTINUOUS
 10
161.8812624756
 20
77.9264217763
 11
161.8359555306
 21
78.0839218514
  0
LINE
  8
0
 62
7
  6
CONTINUOUS
 10
162.0934847331
 20
77.9264217763
 11
162.0481777881
 21
78.0839218514
  0
POLYLINE
  8
0
 62
7
  6
CONTINUOUS
 66
1
 70
0
  0
VERTEX
  8
0
 62
7
  6
CONTINUOUS
 10
160.7814242552
 20
66.1745143319
  0
VERTEX
  8
0
 62
7
  6
CONTINUOUS
 10
160.8026980137
 20
66.0609476552
  0
VERTEX
  8
0
 62
7
  6
CONTINUOUS
 10
160.8081807255
 20
65.9584927873
  0
SEQEND
  0
POLYLINE
  8
0
 62
7
  6
CONTINUOUS
 66
1
 70
0
  0
VERTEX
  8
0
 62
7
  6
CONTINUOUS
 10
151.8814606986
 20
202.590171006
  0
VERTEX
  8
0
 62
7
  6
CONTINUOUS
 10
151.885395671
 20
202.5026996637
  0
VERTEX
  8
0
 62
7
  6
CONTINUOUS
 10
151.9085917697
 20
202.361835545
  0
VERTEX
  8
0
 62
7
  6
CONTINUOUS
 10
151.9522871931
 20
202.2251745423
  0
VERTEX
  8
0
 62
7
  6
CONTINUOUS
 10
152.0158251467
 20
202.0954527511
  0
VERTEX
  8
0
 62
7
  6
CONTINUOUS
 10
152.0981633038
 20
201.9753693843
  0
VERTEX
  8
0
 62
7
  6
CONTINUOUS
 10
152.1979423474
 20
201.8674363698
  0
VERTEX
  8
0
 62
7
  6
CONTINUOUS
 10
152.313407477
 20
201.7740631413
  0
VERTEX
  8
0
 62
7
  6
CONTINUOUS
 10
152.4422355477
 20
201.6975466081
  0
VERTEX
  8
0
 62
7
  6
CONTINUOUS
 10
152.5817965902
 20
201.6397650064
  0
VERTEX
  8
0
 62
7
  6
CONTINUOUS
 10
152.7291663375
 20
201.6021864216
  0
VERTEX
  8
0
 62
7
  6
CONTINUOUS
 10
152.8343210283
 20
201.5885496959
  0
SEQEND
  0
LINE
  8
0
 62
7
  6
CONTINUOUS
 10
151.5785714286
 20
196.5656634937
 11
151.5785714286
 21
194.2121800589
  0
LINE
  8
0
 62
7
  6
CONTINUOUS
 10
151.5785714286
 20
179.7656634937
 11
151.5785714286
 21
177.4121800589
  0
LINE
  8
0
 62
7
  6
CONTINUOUS
 10
151.5785714286
 20
162.9656634937
 11
151.5785714286
 21
160.6121800589
  0
LINE
  8
0
 62
7
  6
CONTINUOUS
 10
151.5785714286
 20
146.1656634937
 11
151.5785714286
 21
143.8121800589
  0
LINE
  8
0
 62
7
  6
CONTINUOUS
 10
151.5785714286
 20
129.3656634937
 11
151.5785714286
 21
127.0121800589
  0
LINE
  8
0
 62
7
  6
CONTINUOUS
 10
151.5785714286
 20
112.5656634937
 11
151.5785714286
 21
110.2121800589
  0
LINE
  8
0
 62
7
  6
CONTINUOUS
 10
151.5785714286
 20
95.7656634937
 11
151.5785714286
 21
93.4121800589
  0
LINE
  8
0
 62
7
  6
CONTINUOUS
 10
151.5785714286
 20
78.9656634937
 11
151.5785714286
 21
76.6121800589
  0
LINE
  8
0
 62
7
  6
CONTINUOUS
 10
151.5785714286
 20
61.5239317715
 11
151.5785714286
 21
57.8889217763
  0
LINE
  8
0
 62
7
  6
CONTINUOUS
 10
151.5785714286
 20
68.2121800589
 11
151.5785714286
 21
70.5656634937
  0
LINE
  8
0
 62
7
  6
CONTINUOUS
 10
151.5785714286
 20
85.0121800589
 11
151.5785714286
 21
87.3656634937
  0
LINE
  8
0
 62
7
  6
CONTINUOUS
 10
151.5785714286
 20
101.8121800589
 11
151.5785714286
 21
104.1656634937
  0
LINE
  8
0
 62
7
  6
CONTINUOUS
 10
151.5785714286
 20
118.6121800589
 11
151.5785714286
 21
120.9656634937
  0
LINE
  8
0
 62
7
  6
CONTINUOUS
 10
151.5785714286
 20
135.4121800589
 11
151.5785714286
 21
137.7656634937
  0
LINE
  8
0
 62
7
  6
CONTINUOUS
 10
151.5785714286
 20
152.2121800589
 11
151.5785714286
 21
154.5656634937
  0
LINE
  8
0
 62
7
  6
CONTINUOUS
 10
151.5785714286
 20
169.0121800589
 11
151.5785714286
 21
171.3656634937
  0
LINE
  8
0
 62
7
  6
CONTINUOUS
 10
151.5785714286
 20
185.8121800589
 11
151.5785714286
 21
188.1656634937
  0
LINE
  8
0
 62
7
  6
CONTINUOUS
 10
151.5785714286
 20
203.2539117811
 11
151.5785714286
 21
206.8889217763
  0
LINE
  8
0
 62
7
  6
CONTINUOUS
 10
151.6285714286
 20
203.2504154405
 11
151.6285714286
 21
188.4648039832
  0
LINE
  8
0
 62
7
  6
CONTINUOUS
 10
151.6285714286
 20
185.5134596759
 11
151.6285714286
 21
171.6648039832
  0
LINE
  8
0
 62
7
  6
CONTINUOUS
 10
151.6285714286
 20
168.7134596759
 11
151.6285714286
 21
154.8648039832
  0
LINE
  8
0
 62
7
  6
CONTINUOUS
 10
151.6285714286
 20
151.9134596759
 11
151.6285714286
 21
138.0648039832
  0
LINE
  8
0
 62
7
  6
CONTINUOUS
 10
151.6285714286
 20
135.1134596759
 11
151.6285714286
 21
121.2648039832
  0
LINE
  8
0
 62
7
  6
CONTINUOUS
 10
151.6285714286
 20
118.3134596759
 11
151.6285714286
 21
104.4648039832
  0
LINE
  8
0
 62
7
  6
CONTINUOUS
 10
151.6285714286
 20
101.5134596759
 11
151.6285714286
 21
87.6648039832
  0
LINE
  8
0
 62
7
  6
CONTINUOUS
 10
151.6285714286
 20
84.7134596759
 11
151.6285714286
 21
70.8648039832
  0
LINE
  8
0
 62
7
  6
CONTINUOUS
 10
151.6285714286
 20
68.0690823568
 11
151.6285714286
 21
57.8889217763
  0
LINE
  8
0
 62
7
  6
CONTINUOUS
 10
151.8814568445
 20
202.7663115219
 11
151.8814568445
 21
202.5901710059
  0
LINE
  8
0
 62
7
  6
CONTINUOUS
 10
154.1480542143
 20
202.2395284871
 11
154.1480542143
 21
202.6078491171
  0
LINE
  8
0
 62
7
  6
CONTINUOUS
 10
160.7814240616
 20
156.6033285131
 11
160.7527890595
 21
156.5217448004
  0
LINE
  8
0
 62
7
  6
CONTINUOUS
 10
160.5423599759
 20
139.4799144265
 11
160.4718849311
 21
139.4372840775
  0
LINE
  8
0
 62
7
  6
CONTINUOUS
 10
160.4718849311
 20
139.4372840775
 11
160.4147970591
 21
139.4121150408
  0
LINE
  8
0
 62
7
  6
CONTINUOUS
 10
163.7351730804
 20
139.6704739004
 11
167.3236117502
 21
140.6960539932
  0
LINE
  8
0
 62
7
  6
CONTINUOUS
 10
170.0959723408
 20
127.3155737109
 11
167.5785714286
 21
126.6889217763
  0
LINE
  8
0
 62
7
  6
CONTINUOUS
 10
170.0959723408
 20
120.6622698417
 11
167.5785714286
 21
121.2889217763
  0
LINE
  8
0
 62
7
  6
CONTINUOUS
 10
160.6638213108
 20
116.7918185913
 11
160.7078038832
 21
116.7373277909
  0
LINE
  8
0
 62
7
  6
CONTINUOUS
 10
160.7078038832
 20
116.7373277909
 11
160.7527890584
 21
116.656098755
  0
LINE
  8
0
 62
7
  6
CONTINUOUS
 10
160.7527890584
 20
99.856098755
 11
160.7814240708
 21
99.7745150057
  0
LINE
  8
0
 62
7
  6
CONTINUOUS
 10
161.7453416408
 20
77.8870467012
 11
161.7679951132
 21
77.7689217012
  0
POLYLINE
  8
0
 62
7
  6
CONTINUOUS
 66
1
 70
0
  0
VERTEX
  8
0
 62
7
  6
CONTINUOUS
 10
160.7814242552
 20
82.9745143319
  0
VERTEX
  8
0
 62
7
  6
CONTINUOUS
 10
160.8026980137
 20
82.8609476552
  0
VERTEX
  8
0
 62
7
  6
CONTINUOUS
 10
160.8081807255
 20
82.7584927873
  0
SEQEND
  0
POLYLINE
  8
0
 62
7
  6
CONTINUOUS
 66
1
 70
0
  0
VERTEX
  8
0
 62
7
  6
CONTINUOUS
 10
160.7814242552
 20
99.7745143319
  0
VERTEX
  8
0
 62
7
  6
CONTINUOUS
 10
160.8026980137
 20
99.6609476552
  0
VERTEX
  8
0
 62
7
  6
CONTINUOUS
 10
160.8081807255
 20
99.5584927873
  0
SEQEND
  0
LINE
  8
0
 62
7
  6
CONTINUOUS
 10
160.9977769382
 20
77.3751718514
 11
160.9751234657
 21
77.5326717012
  0
LINE
  8
0
 62
7
  6
CONTINUOUS
 10
161.2099991957
 20
77.3751718514
 11
161.1873457232
 21
77.5326717012
  0
LINE
  8
0
 62
7
  6
CONTINUOUS
 10
161.903915948
 20
77.7689217012
 11
161.8812624756
 21
77.9264217763
  0
LINE
  8
0
 62
7
  6
CONTINUOUS
 10
162.1161382056
 20
77.7689217012
 11
162.0934847331
 21
77.9264217763
  0
LINE
  8
0
 62
7
  6
CONTINUOUS
 10
160.839202615
 20
77.5326717012
 11
160.8618560895
 21
77.3357967763
  0
POLYLINE
  8
0
 62
7
  6
CONTINUOUS
 66
1
 70
0
  0
VERTEX
  8
0
 62
7
  6
CONTINUOUS
 10
154.1480580991
 20
202.2395284877
  0
VERTEX
  8
0
 62
7
  6
CONTINUOUS
 10
154.1494656907
 20
202.195682975
  0
VERTEX
  8
0
 62
7
  6
CONTINUOUS
 10
154.1657375727
 20
202.0834988159
  0
VERTEX
  8
0
 62
7
  6
CONTINUOUS
 10
154.2004993951
 20
201.9732026056
  0
VERTEX
  8
0
 62
7
  6
CONTINUOUS
 10
154.2539861871
 20
201.8664280628
  0
VERTEX
  8
0
 62
7
  6
CONTINUOUS
 10
154.3263712296
 20
201.7653075893
  0
VERTEX
  8
0
 62
7
  6
CONTINUOUS
 10
154.4178748758
 20
201.671783947
  0
VERTEX
  8
0
 62
7
  6
CONTINUOUS
 10
154.5276025789
 20
201.5886698907
  0
VERTEX
  8
0
 62
7
  6
CONTINUOUS
 10
154.6539015306
 20
201.5185619707
  0
VERTEX
  8
0
 62
7
  6
CONTINUOUS
 10
154.7953486208
 20
201.4634386985
  0
VERTEX
  8
0
 62
7
  6
CONTINUOUS
 10
154.9500227223
 20
201.4254352467
  0
VERTEX
  8
0
 62
7
  6
CONTINUOUS
 10
155.0727516823
 20
201.409625995
  0
SEQEND
  0
LINE
  8
0
 62
7
  6
CONTINUOUS
 10
159.5786636405
 20
57.8752244464
 11
159.5785714286
 21
57.8888036064
  0
LINE
  8
DEFAULT_1
 62
2
  6
CENTER
 10
159.5785714286
 20
189.7283707641
 11
159.5785714286
 21
184.2494727885
  0
LINE
  8
DEFAULT_1
 62
2
  6
CENTER
 10
159.5785714286
 20
172.9283707641
 11
159.5785714286
 21
167.4494727885
  0
LINE
  8
DEFAULT_1
 62
2
  6
CENTER
 10
159.5785714286
 20
156.1283707641
 11
159.5785714286
 21
150.6494727885
  0
LINE
  8
DEFAULT_1
 62
2
  6
CENTER
 10
159.5785714286
 20
139.3283707641
 11
159.5785714286
 21
133.8494727885
  0
LINE
  8
DEFAULT_1
 62
2
  6
CENTER
 10
159.5785714286
 20
122.5283707641
 11
159.5785714286
 21
117.0494727885
  0
LINE
  8
DEFAULT_1
 62
2
  6
CENTER
 10
159.5785714286
 20
105.7283707641
 11
159.5785714286
 21
100.2494727885
  0
LINE
  8
DEFAULT_1
 62
2
  6
CENTER
 10
159.5785714286
 20
88.9283707641
 11
159.5785714286
 21
83.4494727885
  0
LINE
  8
DEFAULT_1
 62
2
  6
CENTER
 10
159.5785714286
 20
72.1283707641
 11
159.5785714286
 21
66.6494727885
  0
LINE
  8
0
 62
7
  6
CONTINUOUS
 10
159.5785714286
 20
201.0494727885
 11
159.5785714286
 21
189.7283707641
  0
LINE
  8
0
 62
7
  6
CONTINUOUS
 10
159.5785714286
 20
184.2494727885
 11
159.5785714286
 21
172.9283707641
  0
LINE
  8
0
 62
7
  6
CONTINUOUS
 10
159.5785714286
 20
167.4494727885
 11
159.5785714286
 21
156.1283707641
  0
LINE
  8
0
 62
7
  6
CONTINUOUS
 10
159.5785714286
 20
150.6494727885
 11
159.5785714286
 21
139.3283707641
  0
LINE
  8
0
 62
7
  6
CONTINUOUS
 10
159.5785714286
 20
133.8494727885
 11
159.5785714286
 21
122.5283707641
  0
LINE
  8
0
 62
7
  6
CONTINUOUS
 10
159.5785714286
 20
117.0494727885
 11
159.5785714286
 21
105.7283707641
  0
LINE
  8
0
 62
7
  6
CONTINUOUS
 10
159.5785714286
 20
100.2494727885
 11
159.5785714286
 21
88.9283707641
  0
LINE
  8
0
 62
7
  6
CONTINUOUS
 10
159.5785714286
 20
83.4494727885
 11
159.5785714286
 21
72.1283707641
  0
LINE
  8
0
 62
7
  6
CONTINUOUS
 10
159.5785714286
 20
66.6494727885
 11
159.5785714286
 21
57.8892247506
  0
LINE
  8
DEFAULT_1
 62
2
  6
CENTER
 10
159.5785714286
 20
201.0494727885
 11
159.5785714286
 21
209.8889217763
  0
POLYLINE
  8
0
 62
7
  6
CONTINUOUS
 66
1
 70
0
  0
VERTEX
  8
0
 62
7
  6
CONTINUOUS
 10
160.8081807252
 20
190.4193948157
  0
VERTEX
  8
0
 62
7
  6
CONTINUOUS
 10
160.8025091488
 20
190.3152092909
  0
VERTEX
  8
0
 62
7
  6
CONTINUOUS
 10
160.781413782
 20
190.2032909287
  0
SEQEND
  0
POLYLINE
  8
0
 62
7
  6
CONTINUOUS
 66
1
 70
0
  0
VERTEX
  8
0
 62
7
  6
CONTINUOUS
 10
160.8081807252
 20
173.6193948157
  0
VERTEX
  8
0
 62
7
  6
CONTINUOUS
 10
160.8025091488
 20
173.5152092909
  0
VERTEX
  8
0
 62
7
  6
CONTINUOUS
 10
160.781413782
 20
173.4032909287
  0
SEQEND
  0
POLYLINE
  8
0
 62
7
  6
CONTINUOUS
 66
1
 70
0
  0
VERTEX
  8
0
 62
7
  6
CONTINUOUS
 10
160.8081807252
 20
156.8193948157
  0
VERTEX
  8
0
 62
7
  6
CONTINUOUS
 10
160.8025091488
 20
156.7152092909
  0
VERTEX
  8
0
 62
7
  6
CONTINUOUS
 10
160.781413782
 20
156.6032909287
  0
SEQEND
  0
LINE
  8
0
 62
7
  6
CONTINUOUS
 10
160.7814240616
 20
139.8033285131
 11
160.7527890595
 21
139.7217448004
  0
POLYLINE
  8
0
 62
7
  6
CONTINUOUS
 66
1
 70
0
  0
VERTEX
  8
0
 62
7
  6
CONTINUOUS
 10
160.7527890595
 20
139.7217448004
  0
VERTEX
  8
0
 62
7
  6
CONTINUOUS
 10
160.7078038846
 20
139.6405157637
  0
VERTEX
  8
0
 62
7
  6
CONTINUOUS
 10
160.6638213119
 20
139.5860249624
  0
SEQEND
  0
LINE
  8
0
 62
7
  6
CONTINUOUS
 10
160.6638213092
 20
139.5860249649
 11
160.6639196309
 21
139.5861295284
  0
POLYLINE
  8
0
 62
7
  6
CONTINUOUS
 66
1
 70
0
  0
VERTEX
  8
0
 62
7
  6
CONTINUOUS
 10
160.6639196309
 20
139.5861295284
  0
VERTEX
  8
0
 62
7
  6
CONTINUOUS
 10
160.6125813306
 20
139.5358624478
  0
VERTEX
  8
0
 62
7
  6
CONTINUOUS
 10
160.5423599759
 20
139.4799144265
  0
SEQEND
  0
LINE
  8
0
 62
7
  6
CONTINUOUS
 10
170.0959723408
 20
135.7155737109
 11
167.5785714286
 21
135.0889217763
  0
LINE
  8
0
 62
7
  6
CONTINUOUS
 10
170.0959723408
 20
129.0622698417
 11
167.5785714286
 21
129.6889217763
  0
LINE
  8
0
 62
7
  6
CONTINUOUS
 10
160.7527890584
 20
116.656098755
 11
160.7814240708
 21
116.5745150057
  0
POLYLINE
  8
0
 62
7
  6
CONTINUOUS
 66
1
 70
0
  0
VERTEX
  8
0
 62
7
  6
CONTINUOUS
 10
160.7814242552
 20
116.5745143319
  0
VERTEX
  8
0
 62
7
  6
CONTINUOUS
 10
160.8026980137
 20
116.4609476552
  0
VERTEX
  8
0
 62
7
  6
CONTINUOUS
 10
160.8081807255
 20
116.3584927873
  0
SEQEND
  0
LINE
  8
0
 62
7
  6
CONTINUOUS
 10
160.8081807251
 20
72.8193947875
 11
160.8081807255
 21
72.8193230711
  0
LINE
  8
0
 62
7
  6
CONTINUOUS
 10
160.8081807251
 20
89.6193947875
 11
160.8081807255
 21
89.6193230711
  0
LINE
  8
0
 62
7
  6
CONTINUOUS
 10
160.8081807251
 20
106.4193947875
 11
160.8081807255
 21
106.4193230711
  0
LINE
  8
0
 62
7
  6
CONTINUOUS
 10
160.8081807251
 20
123.2193947875
 11
160.8081807255
 21
123.2193230711
  0
LINE
  8
0
 62
7
  6
CONTINUOUS
 10
160.8081807251
 20
140.0193947875
 11
160.8081807255
 21
140.0193230711
  0
LINE
  8
0
 62
7
  6
CONTINUOUS
 10
160.8081807251
 20
156.8193947875
 11
160.8081807255
 21
156.8193230711
  0
LINE
  8
0
 62
7
  6
CONTINUOUS
 10
160.8081807251
 20
173.6193947875
 11
160.8081807255
 21
173.6193230711
  0
LINE
  8
0
 62
7
  6
CONTINUOUS
 10
160.8081807251
 20
190.4193947875
 11
160.8081807255
 21
190.4193230711
  0
LINE
  8
0
 62
7
  6
CONTINUOUS
 10
160.839202615
 20
80.2889217763
 11
160.839202615
 21
80.0526717763
  0
LINE
  8
0
 62
7
  6
CONTINUOUS
 10
160.839202615
 20
79.0682968138
 11
160.839202615
 21
78.7139218138
  0
LINE
  8
0
 62
7
  6
CONTINUOUS
 10
160.839202615
 20
77.8476718514
 11
160.839202615
 21
77.5326717012
  0
LINE
  8
0
 62
7
  6
CONTINUOUS
 10
160.839202615
 20
76.6270467763
 11
160.839202615
 21
76.3907967763
  0
LINE
  8
0
 62
7
  6
CONTINUOUS
 10
160.9751234657
 20
77.5326717012
 11
160.9751234657
 21
77.8476718514
  0
LINE
  8
0
 62
7
  6
CONTINUOUS
 10
161.1336977889
 20
78.1626717763
 11
161.1336977889
 21
78.3989217763
  0
LINE
  8
0
 62
7
  6
CONTINUOUS
 10
161.1873457232
 20
77.5326717012
 11
161.1873457232
 21
77.8476718514
  0
LINE
  8
0
 62
7
  6
CONTINUOUS
 10
161.3149256004
 20
77.7689217012
 11
161.3149256004
 21
77.5326717012
  0
LINE
  8
0
 62
7
  6
CONTINUOUS
 10
161.3375790728
 20
76.3907967763
 11
161.3375790728
 21
75.3670466261
  0
LINE
  8
0
 62
7
  6
CONTINUOUS
 10
161.3459200464
 20
78.1626717763
 11
161.3459200464
 21
78.3989217763
  0
LINE
  8
0
 62
7
  6
CONTINUOUS
 10
161.4508464352
 20
77.5326717012
 11
161.4508464352
 21
77.7689217012
  0
LINE
  8
0
 62
7
  6
CONTINUOUS
 10
161.4734999077
 20
75.3670466261
 11
161.4734999077
 21
76.3907967763
  0
LINE
  8
0
 62
7
  6
CONTINUOUS
 10
161.6547277509
 20
77.2964217012
 11
161.6547277509
 21
77.0601717012
  0
LINE
  8
0
 62
7
  6
CONTINUOUS
 10
161.6630686927
 20
77.5326717012
 11
161.6630686927
 21
77.7689217012
  0
LINE
  8
0
 62
7
  6
CONTINUOUS
 10
161.6857221652
 20
75.3670466261
 11
161.6857221652
 21
76.3907967763
  0
LINE
  8
0
 62
7
  6
CONTINUOUS
 10
161.7679951132
 20
77.7689217012
 11
161.7679951132
 21
77.5326717012
  0
LINE
  8
0
 62
7
  6
CONTINUOUS
 10
161.7679951132
 20
76.3907967763
 11
161.7679951132
 21
75.2095467763
  0
LINE
  8
0
 62
7
  6
CONTINUOUS
 10
161.903915948
 20
75.2095467763
 11
161.903915948
 21
76.6270467763
  0
LINE
  8
0
 62
7
  6
CONTINUOUS
 10
161.903915948
 20
77.5720467763
 11
161.903915948
 21
77.7689217012
  0
LINE
  8
0
 62
7
  6
CONTINUOUS
 10
161.903915948
 20
78.7139218138
 11
161.903915948
 21
78.9501718138
  0
LINE
  8
0
 62
7
  6
CONTINUOUS
 10
161.903915948
 20
79.9345467763
 11
161.903915948
 21
80.2889217763
  0
LINE
  8
0
 62
7
  6
CONTINUOUS
 10
162.1161382056
 20
75.2095467763
 11
162.1161382056
 21
76.6270467763
  0
LINE
  8
0
 62
7
  6
CONTINUOUS
 10
162.1161382056
 20
77.5720467763
 11
162.1161382056
 21
77.7689217012
  0
LINE
  8
0
 62
7
  6
CONTINUOUS
 10
162.1161382056
 20
78.7139218138
 11
162.1161382056
 21
78.9501718138
  0
LINE
  8
0
 62
7
  6
CONTINUOUS
 10
162.1161382056
 20
79.9345467763
 11
162.1161382056
 21
80.2889217763
  0
POLYLINE
  8
0
 62
7
  6
CONTINUOUS
 66
1
 70
0
  0
VERTEX
  8
0
 62
7
  6
CONTINUOUS
 10
160.8081807252
 20
140.0193948157
  0
VERTEX
  8
0
 62
7
  6
CONTINUOUS
 10
160.8025091488
 20
139.9152092909
  0
VERTEX
  8
0
 62
7
  6
CONTINUOUS
 10
160.781413782
 20
139.8032909287
  0
SEQEND
  0
POLYLINE
  8
0
 62
7
  6
CONTINUOUS
 66
1
 70
0
  0
VERTEX
  8
0
 62
7
  6
CONTINUOUS
 10
160.8081807252
 20
123.2193948157
  0
VERTEX
  8
0
 62
7
  6
CONTINUOUS
 10
160.8025091488
 20
123.1152092909
  0
VERTEX
  8
0
 62
7
  6
CONTINUOUS
 10
160.781413782
 20
123.0032909287
  0
SEQEND
  0
POLYLINE
  8
0
 62
7
  6
CONTINUOUS
 66
1
 70
0
  0
VERTEX
  8
0
 62
7
  6
CONTINUOUS
 10
160.8081807252
 20
106.4193948157
  0
VERTEX
  8
0
 62
7
  6
CONTINUOUS
 10
160.8025091488
 20
106.315209291
  0
VERTEX
  8
0
 62
7
  6
CONTINUOUS
 10
160.781413782
 20
106.2032909287
  0
SEQEND
  0
POLYLINE
  8
0
 62
7
  6
CONTINUOUS
 66
1
 70
0
  0
VERTEX
  8
0
 62
7
  6
CONTINUOUS
 10
160.8081807252
 20
89.6193948157
  0
VERTEX
  8
0
 62
7
  6
CONTINUOUS
 10
160.8025091488
 20
89.5152092909
  0
VERTEX
  8
0
 62
7
  6
CONTINUOUS
 10
160.781413782
 20
89.4032909287
  0
SEQEND
  0
POLYLINE
  8
0
 62
7
  6
CONTINUOUS
 66
1
 70
0
  0
VERTEX
  8
0
 62
7
  6
CONTINUOUS
 10
160.8081807252
 20
72.8193948157
  0
VERTEX
  8
0
 62
7
  6
CONTINUOUS
 10
160.8025091488
 20
72.7152092909
  0
VERTEX
  8
0
 62
7
  6
CONTINUOUS
 10
160.781413782
 20
72.6032909287
  0
SEQEND
  0
LINE
  8
0
 62
7
  6
CONTINUOUS
 10
160.7814240616
 20
123.0033285131
 11
160.7527890595
 21
122.9217448004
  0
POLYLINE
  8
0
 62
7
  6
CONTINUOUS
 66
1
 70
0
  0
VERTEX
  8
0
 62
7
  6
CONTINUOUS
 10
160.7527890595
 20
122.9217448004
  0
VERTEX
  8
0
 62
7
  6
CONTINUOUS
 10
160.7078038846
 20
122.8405157637
  0
VERTEX
  8
0
 62
7
  6
CONTINUOUS
 10
160.6638213119
 20
122.7860249624
  0
SEQEND
  0
LINE
  8
0
 62
7
  6
CONTINUOUS
 10
152.4988944274
 20
134.415359325
 11
163.6376123851
 21
133.5250290846
  0
LINE
  8
0
 62
7
  6
CONTINUOUS
 10
163.7351730804
 20
133.5073696521
 11
167.3236117502
 21
132.4817895594
  0
LINE
  8
0
 62
7
  6
CONTINUOUS
 10
160.414797059
 20
133.7657285119
 11
160.4718849308
 21
133.7405594752
  0
POLYLINE
  8
0
 62
7
  6
CONTINUOUS
 66
1
 70
0
  0
VERTEX
  8
0
 62
7
  6
CONTINUOUS
 10
160.4718849308
 20
133.7405594752
  0
VERTEX
  8
0
 62
7
  6
CONTINUOUS
 10
160.542359976
 20
133.697929126
  0
VERTEX
  8
0
 62
7
  6
CONTINUOUS
 10
160.6125813305
 20
133.6419811049
  0
VERTEX
  8
0
 62
7
  6
CONTINUOUS
 10
160.6639196318
 20
133.5917140233
  0
SEQEND
  0
LINE
  8
0
 62
7
  6
CONTINUOUS
 10
160.6638213082
 20
133.5918185888
 11
160.6639196318
 21
133.5917140233
  0
LINE
  8
0
 62
7
  6
CONTINUOUS
 10
160.6638213108
 20
133.5918185913
 11
160.7078038832
 21
133.5373277909
  0
LINE
  8
0
 62
7
  6
CONTINUOUS
 10
160.7078038832
 20
133.5373277909
 11
160.7527890584
 21
133.456098755
  0
LINE
  8
0
 62
7
  6
CONTINUOUS
 10
160.7527890584
 20
133.456098755
 11
160.7814240708
 21
133.3745150057
  0
POLYLINE
  8
0
 62
7
  6
CONTINUOUS
 66
1
 70
0
  0
VERTEX
  8
0
 62
7
  6
CONTINUOUS
 10
160.7814242552
 20
133.3745143319
  0
VERTEX
  8
0
 62
7
  6
CONTINUOUS
 10
160.8026980137
 20
133.2609476552
  0
VERTEX
  8
0
 62
7
  6
CONTINUOUS
 10
160.8081807255
 20
133.1584927873
  0
SEQEND
  0
POLYLINE
  8
0
 62
7
  6
CONTINUOUS
 66
1
 70
0
  0
VERTEX
  8
0
 62
7
  6
CONTINUOUS
 10
160.7814242552
 20
150.1745143319
  0
VERTEX
  8
0
 62
7
  6
CONTINUOUS
 10
160.8026980137
 20
150.0609476552
  0
VERTEX
  8
0
 62
7
  6
CONTINUOUS
 10
160.8081807255
 20
149.9584927873
  0
SEQEND
  0
LINE
  8
0
 62
7
  6
CONTINUOUS
 10
167.5785714286
 20
190.9037536194
 11
167.5785714286
 21
183.0740899331
  0
LINE
  8
0
 62
7
  6
CONTINUOUS
 10
167.5785714286
 20
199.8555988172
 11
167.5785714286
 21
190.9289496533
  0
LINE
  8
0
 62
7
  6
CONTINUOUS
 10
167.5785714286
 20
174.1037536194
 11
167.5785714286
 21
166.2740899331
  0
LINE
  8
0
 62
7
  6
CONTINUOUS
 10
167.5785714286
 20
183.0555988172
 11
167.5785714286
 21
174.1289496533
  0
LINE
  8
0
 62
7
  6
CONTINUOUS
 10
167.5785714286
 20
166.2555988172
 11
167.5785714286
 21
157.3289496533
  0
LINE
  8
0
 62
7
  6
CONTINUOUS
 10
167.5785714286
 20
157.3037536194
 11
167.5785714286
 21
149.4740899331
  0
LINE
  8
0
 62
7
  6
CONTINUOUS
 10
167.5785714286
 20
140.5037536194
 11
167.5785714286
 21
132.6740899331
  0
LINE
  8
0
 62
7
  6
CONTINUOUS
 10
167.5785714286
 20
149.4555988172
 11
167.5785714286
 21
140.5289496533
  0
LINE
  8
0
 62
7
  6
CONTINUOUS
 10
167.5785714286
 20
123.7037536194
 11
167.5785714286
 21
115.8740899331
  0
LINE
  8
0
 62
7
  6
CONTINUOUS
 10
167.5785714286
 20
132.6555988172
 11
167.5785714286
 21
123.7289496533
  0
LINE
  8
0
 62
7
  6
CONTINUOUS
 10
167.5785714286
 20
106.9037536194
 11
167.5785714286
 21
99.0740899331
  0
LINE
  8
0
 62
7
  6
CONTINUOUS
 10
167.5785714286
 20
115.8555988172
 11
167.5785714286
 21
106.9289496533
  0
LINE
  8
0
 62
7
  6
CONTINUOUS
 10
167.5785714286
 20
99.0555988172
 11
167.5785714286
 21
90.1289496533
  0
LINE
  8
0
 62
7
  6
CONTINUOUS
 10
167.5785714286
 20
90.1037536194
 11
167.5785714286
 21
82.2740899331
  0
LINE
  8
0
 62
7
  6
CONTINUOUS
 10
167.5785714286
 20
73.3037536194
 11
167.5785714286
 21
65.4740899331
  0
LINE
  8
0
 62
7
  6
CONTINUOUS
 10
167.5785714286
 20
82.2555988172
 11
167.5785714286
 21
73.3289496533
  0
LINE
  8
0
 62
7
  6
CONTINUOUS
 10
167.5785714286
 20
65.4555988172
 11
167.5785714286
 21
57.0889217763
  0
LINE
  8
0
 62
7
  6
CONTINUOUS
 10
167.5785714286
 20
199.8740899331
 11
167.5785714286
 21
207.6889217763
  0
LINE
  8
0
 62
7
  6
CONTINUOUS
 10
167.1134050667
 20
199.2996638785
 11
167.1133338214
 21
199.2195540094
  0
LINE
  8
0
 62
7
  6
CONTINUOUS
 10
167.1134050667
 20
182.4996638785
 11
167.1133338214
 21
182.4195540094
  0
LINE
  8
0
 62
7
  6
CONTINUOUS
 10
167.1134050667
 20
165.6996638785
 11
167.1133338214
 21
165.6195540094
  0
LINE
  8
0
 62
7
  6
CONTINUOUS
 10
167.1134050667
 20
148.8996638785
 11
167.1133338214
 21
148.8195540094
  0
LINE
  8
0
 62
7
  6
CONTINUOUS
 10
167.1134050667
 20
132.0996638785
 11
167.1133338214
 21
132.0195540094
  0
LINE
  8
0
 62
7
  6
CONTINUOUS
 10
167.1134050667
 20
115.2996638785
 11
167.1133338214
 21
115.2195540094
  0
LINE
  8
0
 62
7
  6
CONTINUOUS
 10
167.1134050667
 20
98.4996638785
 11
167.1133338214
 21
98.4195540094
  0
LINE
  8
0
 62
7
  6
CONTINUOUS
 10
167.1134050667
 20
81.6996638785
 11
167.1133338214
 21
81.6195540094
  0
LINE
  8
0
 62
7
  6
CONTINUOUS
 10
167.1134050667
 20
64.8996638785
 11
167.1133338214
 21
64.8195540094
  0
LINE
  8
0
 62
7
  6
CONTINUOUS
 10
160.8618560895
 20
78.0445467763
 11
160.839202615
 21
77.8476718514
  0
LINE
  8
0
 62
7
  6
CONTINUOUS
 10
161.4281929627
 20
77.3357967763
 11
161.4508464352
 21
77.5326717012
  0
LINE
  8
0
 62
7
  6
CONTINUOUS
 10
161.6404152202
 20
77.3357967763
 11
161.6630686927
 21
77.5326717012
  0
LINE
  8
0
 62
7
  6
CONTINUOUS
 10
161.8812624756
 20
77.3751718514
 11
161.903915948
 21
77.5720467763
  0
LINE
  8
0
 62
7
  6
CONTINUOUS
 10
162.0934847331
 20
77.3751718514
 11
162.1161382056
 21
77.5720467763
  0
LINE
  8
0
 62
7
  6
CONTINUOUS
 10
160.9751234657
 20
77.8476718514
 11
160.9977769382
 21
78.0051717012
  0
LINE
  8
0
 62
7
  6
CONTINUOUS
 10
161.1873457232
 20
77.8476718514
 11
161.2099991957
 21
78.0051717012
  0
LINE
  8
0
 62
7
  6
CONTINUOUS
 10
161.3375790728
 20
77.9264217763
 11
161.3149256004
 21
77.7689217012
  0
LINE
  8
0
 62
7
  6
CONTINUOUS
 10
161.3149256004
 20
77.5326717012
 11
161.2922721279
 21
77.3751718514
  0
LINE
  8
0
 62
7
  6
CONTINUOUS
 10
160.7814240616
 20
106.2033285131
 11
160.7527890595
 21
106.1217448004
  0
LINE
  8
0
 62
7
  6
CONTINUOUS
 10
160.6638213092
 20
122.7860249649
 11
160.6639196309
 21
122.7861295284
  0
POLYLINE
  8
0
 62
7
  6
CONTINUOUS
 66
1
 70
0
  0
VERTEX
  8
0
 62
7
  6
CONTINUOUS
 10
160.6639196309
 20
122.7861295284
  0
VERTEX
  8
0
 62
7
  6
CONTINUOUS
 10
160.6125813306
 20
122.7358624478
  0
VERTEX
  8
0
 62
7
  6
CONTINUOUS
 10
160.5423599759
 20
122.6799144265
  0
SEQEND
  0
LINE
  8
0
 62
7
  6
CONTINUOUS
 10
160.5423599759
 20
122.6799144265
 11
160.4718849311
 21
122.6372840775
  0
LINE
  8
0
 62
7
  6
CONTINUOUS
 10
160.4718849311
 20
122.6372840775
 11
160.4147970591
 21
122.6121150408
  0
LINE
  8
0
 62
7
  6
CONTINUOUS
 10
163.7351730804
 20
122.8704739004
 11
167.3236117502
 21
123.8960539932
  0
LINE
  8
0
 62
7
  6
CONTINUOUS
 10
170.0959723408
 20
144.1155737109
 11
167.5785714286
 21
143.4889217763
  0
LINE
  8
0
 62
7
  6
CONTINUOUS
 10
152.4988944274
 20
138.7624842275
 11
163.6376123851
 21
139.6528144679
  0
LINE
  8
0
 62
7
  6
CONTINUOUS
 10
170.0959723408
 20
137.4622698417
 11
167.5785714286
 21
138.0889217763
  0
LINE
  8
0
 62
7
  6
CONTINUOUS
 10
160.7078038832
 20
150.3373277909
 11
160.7527890584
 21
150.256098755
  0
LINE
  8
0
 62
7
  6
CONTINUOUS
 10
160.7527890584
 20
150.256098755
 11
160.7814240708
 21
150.1745150057
  0
POLYLINE
  8
0
 62
7
  6
CONTINUOUS
 66
1
 70
0
  0
VERTEX
  8
0
 62
7
  6
CONTINUOUS
 10
160.7814242552
 20
166.9745143319
  0
VERTEX
  8
0
 62
7
  6
CONTINUOUS
 10
160.8026980137
 20
166.8609476552
  0
VERTEX
  8
0
 62
7
  6
CONTINUOUS
 10
160.8081807255
 20
166.7584927873
  0
SEQEND
  0
POLYLINE
  8
0
 62
7
  6
CONTINUOUS
 66
1
 70
0
  0
VERTEX
  8
0
 62
7
  6
CONTINUOUS
 10
160.7814242552
 20
183.7745143319
  0
VERTEX
  8
0
 62
7
  6
CONTINUOUS
 10
160.8026980137
 20
183.6609476552
  0
VERTEX
  8
0
 62
7
  6
CONTINUOUS
 10
160.8081807255
 20
183.5584927873
  0
SEQEND
  0
LINE
  8
0
 62
7
  6
CONTINUOUS
 10
161.4508464352
 20
77.7689217012
 11
161.4734999077
 21
77.8870467012
  0
LINE
  8
0
 62
7
  6
CONTINUOUS
 10
161.6630686927
 20
77.7689217012
 11
161.6857221652
 21
77.8870467012
  0
LINE
  8
0
 62
7
  6
CONTINUOUS
 10
161.7679951132
 20
77.5326717012
 11
161.7453416408
 21
77.4145467012
  0
LINE
  8
0
 62
7
  6
CONTINUOUS
 10
160.7814240616
 20
89.4033285131
 11
160.7527890595
 21
89.3217448004
  0
POLYLINE
  8
0
 62
7
  6
CONTINUOUS
 66
1
 70
0
  0
VERTEX
  8
0
 62
7
  6
CONTINUOUS
 10
160.7527890595
 20
106.1217448004
  0
VERTEX
  8
0
 62
7
  6
CONTINUOUS
 10
160.7078038846
 20
106.0405157637
  0
VERTEX
  8
0
 62
7
  6
CONTINUOUS
 10
160.6638213119
 20
105.9860249624
  0
SEQEND
  0
LINE
  8
0
 62
7
  6
CONTINUOUS
 10
170.0959723408
 20
145.8622698417
 11
167.5785714286
 21
146.4889217763
  0
POLYLINE
  8
0
 62
7
  6
CONTINUOUS
 66
1
 70
0
  0
VERTEX
  8
0
 62
7
  6
CONTINUOUS
 10
160.4718849308
 20
150.5405594752
  0
VERTEX
  8
0
 62
7
  6
CONTINUOUS
 10
160.542359976
 20
150.497929126
  0
VERTEX
  8
0
 62
7
  6
CONTINUOUS
 10
160.6125813305
 20
150.4419811049
  0
VERTEX
  8
0
 62
7
  6
CONTINUOUS
 10
160.6639196318
 20
150.3917140233
  0
SEQEND
  0
LINE
  8
0
 62
7
  6
CONTINUOUS
 10
160.6638213082
 20
150.3918185888
 11
160.6639196318
 21
150.3917140233
  0
LINE
  8
0
 62
7
  6
CONTINUOUS
 10
160.6638213108
 20
150.3918185913
 11
160.7078038832
 21
150.3373277909
  0
POLYLINE
  8
0
 62
7
  6
CONTINUOUS
 66
1
 70
0
  0
VERTEX
  8
0
 62
7
  6
CONTINUOUS
 10
151.8549080451
 20
202.9270728505
  0
VERTEX
  8
0
 62
7
  6
CONTINUOUS
 10
151.8255175355
 20
203.0106382169
  0
VERTEX
  8
0
 62
7
  6
CONTINUOUS
 10
151.7897029157
 20
203.100812698
  0
VERTEX
  8
0
 62
7
  6
CONTINUOUS
 10
151.757778307
 20
203.167161903
  0
VERTEX
  8
0
 62
7
  6
CONTINUOUS
 10
151.7297583701
 20
203.2117078737
  0
VERTEX
  8
0
 62
7
  6
CONTINUOUS
 10
151.7053221785
 20
203.237360715
  0
VERTEX
  8
0
 62
7
  6
CONTINUOUS
 10
151.6838772128
 20
203.2465481066
  0
SEQEND
  0
LINE
  8
0
 62
7
  6
CONTINUOUS
 10
160.7527890584
 20
167.056098755
 11
160.7814240708
 21
166.9745150057
  0
POLYLINE
  8
0
 62
7
  6
CONTINUOUS
 66
1
 70
0
  0
VERTEX
  8
0
 62
7
  6
CONTINUOUS
 10
151.8549322326
 20
202.9271642247
  0
VERTEX
  8
0
 62
7
  6
CONTINUOUS
 10
151.8648840935
 20
202.8941390942
  0
VERTEX
  8
0
 62
7
  6
CONTINUOUS
 10
151.879828268
 20
202.8067996842
  0
VERTEX
  8
0
 62
7
  6
CONTINUOUS
 10
151.8814570517
 20
202.7664743976
  0
SEQEND
  0
POLYLINE
  8
0
 62
7
  6
CONTINUOUS
 66
1
 70
0
  0
VERTEX
  8
0
 62
7
  6
CONTINUOUS
 10
160.7814242552
 20
200.5745143319
  0
VERTEX
  8
0
 62
7
  6
CONTINUOUS
 10
160.8026980137
 20
200.4609476552
  0
VERTEX
  8
0
 62
7
  6
CONTINUOUS
 10
160.8081807255
 20
200.3584927873
  0
SEQEND
  0
LINE
  8
0
 62
7
  6
CONTINUOUS
 10
161.3828860178
 20
78.0839218514
 11
161.3375790728
 21
77.9264217763
  0
LINE
  8
0
 62
7
  6
CONTINUOUS
 10
161.3828860178
 20
77.1782967012
 11
161.4281929627
 21
77.3357967763
  0
LINE
  8
0
 62
7
  6
CONTINUOUS
 10
161.5951082753
 20
77.1782967012
 11
161.6404152202
 21
77.3357967763
  0
LINE
  8
0
 62
7
  6
CONTINUOUS
 10
160.9298165129
 20
78.2414217012
 11
160.8618560895
 21
78.0445467763
  0
LINE
  8
0
 62
7
  6
CONTINUOUS
 10
160.7814240616
 20
72.6033285131
 11
160.7527890595
 21
72.5217448004
  0
LINE
  8
0
 62
7
  6
CONTINUOUS
 10
161.4734999077
 20
77.8870467012
 11
161.5188068526
 21
78.0051717012
  0
LINE
  8
0
 62
7
  6
CONTINUOUS
 10
161.2922721279
 20
77.3751718514
 11
161.246965183
 21
77.2570468514
  0
LINE
  8
0
 62
7
  6
CONTINUOUS
 10
161.6857221652
 20
77.8870467012
 11
161.715531903
 21
77.9647671319
  0
LINE
  8
0
 62
7
  6
CONTINUOUS
 10
160.6638213092
 20
105.9860249649
 11
160.6639196309
 21
105.9861295284
  0
POLYLINE
  8
0
 62
7
  6
CONTINUOUS
 66
1
 70
0
  0
VERTEX
  8
0
 62
7
  6
CONTINUOUS
 10
160.6639196309
 20
105.9861295284
  0
VERTEX
  8
0
 62
7
  6
CONTINUOUS
 10
160.6125813306
 20
105.9358624478
  0
VERTEX
  8
0
 62
7
  6
CONTINUOUS
 10
160.5423599759
 20
105.8799144265
  0
SEQEND
  0
LINE
  8
0
 62
7
  6
CONTINUOUS
 10
170.0959723408
 20
152.5155737109
 11
167.5785714286
 21
151.8889217763
  0
LINE
  8
0
 62
7
  6
CONTINUOUS
 10
152.4988944274
 20
151.215359325
 11
163.6376123851
 21
150.3250290846
  0
LINE
  8
0
 62
7
  6
CONTINUOUS
 10
163.7351730804
 20
150.3073696521
 11
167.3236117502
 21
149.2817895594
  0
LINE
  8
0
 62
7
  6
CONTINUOUS
 10
160.414797059
 20
150.5657285119
 11
160.4718849308
 21
150.5405594752
  0
LINE
  8
0
 62
7
  6
CONTINUOUS
 10
160.7078038832
 20
167.1373277909
 11
160.7527890584
 21
167.056098755
  0
LINE
  8
0
 62
7
  6
CONTINUOUS
 10
160.7527890584
 20
183.856098755
 11
160.7814240708
 21
183.7745150057
  0
LINE
  8
0
 62
7
  6
CONTINUOUS
 10
161.8133020582
 20
77.2176717763
 11
161.8812624756
 21
77.3751718514
  0
LINE
  8
0
 62
7
  6
CONTINUOUS
 10
162.0255243157
 20
77.2176717763
 11
162.0934847331
 21
77.3751718514
  0
POLYLINE
  8
0
 62
7
  6
CONTINUOUS
 66
1
 70
0
  0
VERTEX
  8
0
 62
7
  6
CONTINUOUS
 10
160.7527890595
 20
89.3217448004
  0
VERTEX
  8
0
 62
7
  6
CONTINUOUS
 10
160.7078038846
 20
89.2405157637
  0
VERTEX
  8
0
 62
7
  6
CONTINUOUS
 10
160.6638213119
 20
89.1860249624
  0
SEQEND
  0
LINE
  8
0
 62
7
  6
CONTINUOUS
 10
160.5423599759
 20
105.8799144265
 11
160.4718849311
 21
105.8372840775
  0
LINE
  8
0
 62
7
  6
CONTINUOUS
 10
160.4718849311
 20
105.8372840775
 11
160.4147970591
 21
105.8121150408
  0
LINE
  8
0
 62
7
  6
CONTINUOUS
 10
163.7351730804
 20
106.0704739004
 11
167.3236117502
 21
107.0960539932
  0
LINE
  8
0
 62
7
  6
CONTINUOUS
 10
170.0959723408
 20
160.9155737109
 11
167.5785714286
 21
160.2889217763
  0
LINE
  8
0
 62
7
  6
CONTINUOUS
 10
152.4988944274
 20
155.5624842275
 11
163.6376123851
 21
156.4528144679
  0
LINE
  8
0
 62
7
  6
CONTINUOUS
 10
170.0959723408
 20
154.2622698417
 11
167.5785714286
 21
154.8889217763
  0
LINE
  8
0
 62
7
  6
CONTINUOUS
 10
160.6638213082
 20
167.1918185888
 11
160.6639196318
 21
167.1917140233
  0
LINE
  8
0
 62
7
  6
CONTINUOUS
 10
160.6638213108
 20
167.1918185913
 11
160.7078038832
 21
167.1373277909
  0
LINE
  8
0
 62
7
  6
CONTINUOUS
 10
160.7078038832
 20
183.9373277909
 11
160.7527890584
 21
183.856098755
  0
LINE
  8
0
 62
7
  6
CONTINUOUS
 10
160.7527890584
 20
200.656098755
 11
160.7814240708
 21
200.5745150057
  0
POLYLINE
  8
0
 62
7
  6
CONTINUOUS
 66
1
 70
0
  0
VERTEX
  8
0
 62
7
  6
CONTINUOUS
 10
160.7527890595
 20
72.5217448004
  0
VERTEX
  8
0
 62
7
  6
CONTINUOUS
 10
160.7078038846
 20
72.4405157637
  0
VERTEX
  8
0
 62
7
  6
CONTINUOUS
 10
160.6638213119
 20
72.3860249624
  0
SEQEND
  0
LINE
  8
0
 62
7
  6
CONTINUOUS
 10
160.9977769382
 20
78.0051717012
 11
161.0657373715
 21
78.1232967012
  0
LINE
  8
0
 62
7
  6
CONTINUOUS
 10
161.2099991957
 20
78.0051717012
 11
161.277959629
 21
78.1232967012
  0
LINE
  8
0
 62
7
  6
CONTINUOUS
 10
161.4734999077
 20
78.2414217012
 11
161.3828860178
 21
78.0839218514
  0
LINE
  8
0
 62
7
  6
CONTINUOUS
 10
161.2922721279
 20
77.0207968514
 11
161.3828860178
 21
77.1782967012
  0
LINE
  8
0
 62
7
  6
CONTINUOUS
 10
161.5044943854
 20
77.0207968514
 11
161.5951082753
 21
77.1782967012
  0
LINE
  8
0
 62
7
  6
CONTINUOUS
 10
161.7453416408
 20
77.4145467012
 11
161.7000346958
 21
77.3357967763
  0
LINE
  8
0
 62
7
  6
CONTINUOUS
 10
160.6638213092
 20
89.1860249649
 11
160.6639196309
 21
89.1861295284
  0
POLYLINE
  8
0
 62
7
  6
CONTINUOUS
 66
1
 70
0
  0
VERTEX
  8
0
 62
7
  6
CONTINUOUS
 10
160.6639196309
 20
89.1861295284
  0
VERTEX
  8
0
 62
7
  6
CONTINUOUS
 10
160.6125813306
 20
89.1358624478
  0
VERTEX
  8
0
 62
7
  6
CONTINUOUS
 10
160.5423599759
 20
89.0799144265
  0
SEQEND
  0
LINE
  8
0
 62
7
  6
CONTINUOUS
 10
170.0959723408
 20
162.6622698417
 11
167.5785714286
 21
163.2889217763
  0
POLYLINE
  8
0
 62
7
  6
CONTINUOUS
 66
1
 70
0
  0
VERTEX
  8
0
 62
7
  6
CONTINUOUS
 10
160.4718849308
 20
167.3405594752
  0
VERTEX
  8
0
 62
7
  6
CONTINUOUS
 10
160.542359976
 20
167.297929126
  0
VERTEX
  8
0
 62
7
  6
CONTINUOUS
 10
160.6125813305
 20
167.2419811049
  0
VERTEX
  8
0
 62
7
  6
CONTINUOUS
 10
160.6639196318
 20
167.1917140233
  0
SEQEND
  0
LINE
  8
0
 62
7
  6
CONTINUOUS
 10
161.7226881683
 20
77.0995467763
 11
161.8133020582
 21
77.2176717763
  0
LINE
  8
0
 62
7
  6
CONTINUOUS
 10
161.9349104258
 20
77.0995467763
 11
162.0255243157
 21
77.2176717763
  0
LINE
  8
0
 62
7
  6
CONTINUOUS
 10
170.0959723408
 20
169.3155737109
 11
167.5785714286
 21
168.6889217763
  0
LINE
  8
0
 62
7
  6
CONTINUOUS
 10
152.4988944274
 20
168.015359325
 11
163.6376123851
 21
167.1250290846
  0
LINE
  8
0
 62
7
  6
CONTINUOUS
 10
163.7351730804
 20
167.1073696521
 11
167.3236117502
 21
166.0817895594
  0
LINE
  8
0
 62
7
  6
CONTINUOUS
 10
160.414797059
 20
167.3657285119
 11
160.4718849308
 21
167.3405594752
  0
LINE
  8
0
 62
7
  6
CONTINUOUS
 10
160.6638213082
 20
183.9918185888
 11
160.6639196318
 21
183.9917140233
  0
LINE
  8
0
 62
7
  6
CONTINUOUS
 10
160.6638213108
 20
183.9918185913
 11
160.7078038832
 21
183.9373277909
  0
LINE
  8
0
 62
7
  6
CONTINUOUS
 10
160.7078038832
 20
200.7373277909
 11
160.7527890584
 21
200.656098755
  0
LINE
  8
0
 62
7
  6
CONTINUOUS
 10
161.246965183
 20
77.2570468514
 11
161.1790047338
 21
77.1782967012
  0
LINE
  8
0
 62
7
  6
CONTINUOUS
 10
160.9977769382
 20
78.9501718138
 11
161.903915948
 21
79.9345467763
  0
LINE
  8
0
 62
7
  6
CONTINUOUS
 10
161.2099991957
 20
78.9501718138
 11
162.1161382056
 21
79.9345467763
  0
LINE
  8
0
 62
7
  6
CONTINUOUS
 10
160.6638213092
 20
72.3860249649
 11
160.6639196309
 21
72.3861295284
  0
LINE
  8
0
 62
7
  6
CONTINUOUS
 10
161.7679951132
 20
80.0526717763
 11
160.839202615
 21
79.0682968138
  0
LINE
  8
0
 62
7
  6
CONTINUOUS
 10
161.043083899
 20
78.3595467012
 11
160.9298165129
 21
78.2414217012
  0
LINE
  8
0
 62
7
  6
CONTINUOUS
 10
160.5423599759
 20
89.0799144265
 11
160.4718849311
 21
89.0372840775
  0
LINE
  8
0
 62
7
  6
CONTINUOUS
 10
160.4718849311
 20
89.0372840775
 11
160.4147970591
 21
89.0121150408
  0
LINE
  8
0
 62
7
  6
CONTINUOUS
 10
170.0959723408
 20
177.7155737109
 11
167.5785714286
 21
177.0889217763
  0
LINE
  8
0
 62
7
  6
CONTINUOUS
 10
152.4988944274
 20
172.3624842275
 11
163.6376123851
 21
173.2528144679
  0
LINE
  8
0
 62
7
  6
CONTINUOUS
 10
170.0959723408
 20
171.0622698417
 11
167.5785714286
 21
171.6889217763
  0
POLYLINE
  8
0
 62
7
  6
CONTINUOUS
 66
1
 70
0
  0
VERTEX
  8
0
 62
7
  6
CONTINUOUS
 10
160.6639196309
 20
72.3861295284
  0
VERTEX
  8
0
 62
7
  6
CONTINUOUS
 10
160.6125813306
 20
72.3358624478
  0
VERTEX
  8
0
 62
7
  6
CONTINUOUS
 10
160.5423599759
 20
72.2799144265
  0
SEQEND
  0
LINE
  8
0
 62
7
  6
CONTINUOUS
 10
161.2016582063
 20
76.9420467012
 11
161.2922721279
 21
77.0207968514
  0
LINE
  8
0
 62
7
  6
CONTINUOUS
 10
161.7000346958
 20
77.3357967763
 11
161.6547277509
 21
77.2964217012
  0
LINE
  8
0
 62
7
  6
CONTINUOUS
 10
161.4138804638
 20
76.9420467012
 11
161.5044943854
 21
77.0207968514
  0
LINE
  8
0
 62
7
  6
CONTINUOUS
 10
163.7351730804
 20
89.2704739004
 11
167.3236117502
 21
90.2960539932
  0
POLYLINE
  8
0
 62
7
  6
CONTINUOUS
 66
1
 70
0
  0
VERTEX
  8
0
 62
7
  6
CONTINUOUS
 10
160.4718849308
 20
184.1405594752
  0
VERTEX
  8
0
 62
7
  6
CONTINUOUS
 10
160.542359976
 20
184.097929126
  0
VERTEX
  8
0
 62
7
  6
CONTINUOUS
 10
160.6125813305
 20
184.0419811049
  0
VERTEX
  8
0
 62
7
  6
CONTINUOUS
 10
160.6639196318
 20
183.9917140233
  0
SEQEND
  0
LINE
  8
0
 62
7
  6
CONTINUOUS
 10
160.6638213108
 20
200.7918185913
 11
160.7078038832
 21
200.7373277909
  0
LINE
  8
0
 62
7
  6
CONTINUOUS
 10
160.5423599759
 20
72.2799144265
 11
160.4718849311
 21
72.2372840775
  0
LINE
  8
0
 62
7
  6
CONTINUOUS
 10
161.0657373715
 20
78.1232967012
 11
161.1336977889
 21
78.1626717763
  0
LINE
  8
0
 62
7
  6
CONTINUOUS
 10
161.277959629
 20
78.1232967012
 11
161.3459200464
 21
78.1626717763
  0
LINE
  8
0
 62
7
  6
CONTINUOUS
 10
161.5188068526
 20
78.0051717012
 11
161.58676727
 21
78.0445467763
  0
LINE
  8
0
 62
7
  6
CONTINUOUS
 10
161.6547277509
 20
77.0601717012
 11
161.7226881683
 21
77.0995467763
  0
LINE
  8
0
 62
7
  6
CONTINUOUS
 10
161.8669500084
 20
77.0601717012
 11
161.9349104258
 21
77.0995467763
  0
LINE
  8
0
 62
7
  6
CONTINUOUS
 10
161.1336977889
 20
78.3989217763
 11
161.043083899
 21
78.3595467012
  0
LINE
  8
0
 62
7
  6
CONTINUOUS
 10
161.5641137975
 20
78.2807967763
 11
161.4734999077
 21
78.2414217012
  0
LINE
  8
0
 62
7
  6
CONTINUOUS
 10
170.0959723408
 20
186.1155737109
 11
167.5785714286
 21
185.4889217763
  0
LINE
  8
0
 62
7
  6
CONTINUOUS
 10
152.4988944274
 20
184.815359325
 11
163.6376123851
 21
183.9250290846
  0
LINE
  8
0
 62
7
  6
CONTINUOUS
 10
170.0959723408
 20
179.4622698417
 11
167.5785714286
 21
180.0889217763
  0
LINE
  8
0
 62
7
  6
CONTINUOUS
 10
163.7351730804
 20
183.9073696521
 11
167.3236117502
 21
182.8817895594
  0
LINE
  8
0
 62
7
  6
CONTINUOUS
 10
160.414797059
 20
184.1657285119
 11
160.4718849308
 21
184.1405594752
  0
POLYLINE
  8
0
 62
7
  6
CONTINUOUS
 66
1
 70
0
  0
VERTEX
  8
0
 62
7
  6
CONTINUOUS
 10
153.9311213132
 20
203.0201344453
  0
VERTEX
  8
0
 62
7
  6
CONTINUOUS
 10
153.999489758
 20
202.9636369011
  0
VERTEX
  8
0
 62
7
  6
CONTINUOUS
 10
154.0568003223
 20
202.8959485751
  0
VERTEX
  8
0
 62
7
  6
CONTINUOUS
 10
154.1012497356
 20
202.819199284
  0
VERTEX
  8
0
 62
7
  6
CONTINUOUS
 10
154.1314394042
 20
202.7358039456
  0
VERTEX
  8
0
 62
7
  6
CONTINUOUS
 10
154.1464194176
 20
202.6483865964
  0
VERTEX
  8
0
 62
7
  6
CONTINUOUS
 10
154.148054922
 20
202.6079783996
  0
SEQEND
  0
LINE
  8
0
 62
7
  6
CONTINUOUS
 10
160.6638213082
 20
200.7918185888
 11
160.6639196318
 21
200.7917140233
  0
LINE
  8
0
 62
7
  6
CONTINUOUS
 10
160.4718849311
 20
72.2372840775
 11
160.4147970591
 21
72.2121150408
  0
POLYLINE
  8
0
 62
7
  6
CONTINUOUS
 66
1
 70
0
  0
VERTEX
  8
0
 62
7
  6
CONTINUOUS
 10
161.1401509836
 20
75.5189217763
  0
VERTEX
  8
0
 62
7
  6
CONTINUOUS
 10
161.1607683688
 20
75.5252454044
  0
VERTEX
  8
0
 62
7
  6
CONTINUOUS
 10
161.1803046328
 20
75.5437697965
  0
VERTEX
  8
0
 62
7
  6
CONTINUOUS
 10
161.1977998951
 20
75.5732487289
  0
VERTEX
  8
0
 62
7
  6
CONTINUOUS
 10
161.2124980346
 20
75.6118753693
  0
VERTEX
  8
0
 62
7
  6
CONTINUOUS
 10
161.2238701053
 20
75.6575636361
  0
VERTEX
  8
0
 62
7
  6
CONTINUOUS
 10
161.2315911841
 20
75.7081887147
  0
VERTEX
  8
0
 62
7
  6
CONTINUOUS
 10
161.2354870282
 20
75.7617031379
  0
VERTEX
  8
0
 62
7
  6
CONTINUOUS
 10
161.2354861045
 20
75.8161660895
  0
VERTEX
  8
0
 62
7
  6
CONTINUOUS
 10
161.2315887692
 20
75.8696765497
  0
VERTEX
  8
0
 62
7
  6
CONTINUOUS
 10
161.2238670162
 20
75.9202955462
  0
VERTEX
  8
0
 62
7
  6
CONTINUOUS
 10
161.2124952197
 20
75.965977315
  0
VERTEX
  8
0
 62
7
  6
CONTINUOUS
 10
161.1977979483
 20
76.0045989551
  0
VERTEX
  8
0
 62
7
  6
CONTINUOUS
 10
161.1803036485
 20
76.034075036
  0
VERTEX
  8
0
 62
7
  6
CONTINUOUS
 10
161.1607681082
 20
76.05259831
  0
VERTEX
  8
0
 62
7
  6
CONTINUOUS
 10
161.1401509836
 20
76.0589217763
  0
SEQEND
  0
POLYLINE
  8
0
 62
7
  6
CONTINUOUS
 66
1
 70
0
  0
VERTEX
  8
0
 62
7
  6
CONTINUOUS
 10
160.9279287261
 20
76.0589217763
  0
VERTEX
  8
0
 62
7
  6
CONTINUOUS
 10
160.9073654545
 20
76.0526316948
  0
VERTEX
  8
0
 62
7
  6
CONTINUOUS
 10
160.8879421657
 20
76.0342904853
  0
VERTEX
  8
0
 62
7
  6
CONTINUOUS
 10
160.8704813493
 20
76.0050213375
  0
VERTEX
  8
0
 62
7
  6
CONTINUOUS
 10
160.8557505983
 20
75.9665147244
  0
VERTEX
  8
0
 62
7
  6
CONTINUOUS
 10
160.8443321594
 20
75.9208981278
  0
VERTEX
  8
0
 62
7
  6
CONTINUOUS
 10
160.8365287609
 20
75.8700157523
  0
VERTEX
  8
0
 62
7
  6
CONTINUOUS
 10
160.8326037713
 20
75.8164470514
  0
VERTEX
  8
0
 62
7
  6
CONTINUOUS
 10
160.8326037713
 20
75.7613965012
  0
VERTEX
  8
0
 62
7
  6
CONTINUOUS
 10
160.8365287609
 20
75.7078278003
  0
VERTEX
  8
0
 62
7
  6
CONTINUOUS
 10
160.8443321594
 20
75.6569454248
  0
VERTEX
  8
0
 62
7
  6
CONTINUOUS
 10
160.8557505983
 20
75.6113288282
  0
VERTEX
  8
0
 62
7
  6
CONTINUOUS
 10
160.8704813493
 20
75.5728222151
  0
VERTEX
  8
0
 62
7
  6
CONTINUOUS
 10
160.8879421657
 20
75.5435530672
  0
VERTEX
  8
0
 62
7
  6
CONTINUOUS
 10
160.9073654545
 20
75.5252118578
  0
VERTEX
  8
0
 62
7
  6
CONTINUOUS
 10
160.9279287261
 20
75.5189217763
  0
SEQEND
  0
POLYLINE
  8
0
 62
7
  6
CONTINUOUS
 66
1
 70
0
  0
VERTEX
  8
0
 62
7
  6
CONTINUOUS
 10
160.9279287261
 20
75.5189217763
  0
VERTEX
  8
0
 62
7
  6
CONTINUOUS
 10
160.9484919978
 20
75.5252118578
  0
VERTEX
  8
0
 62
7
  6
CONTINUOUS
 10
160.9679152865
 20
75.5435530672
  0
VERTEX
  8
0
 62
7
  6
CONTINUOUS
 10
160.985376103
 20
75.5728222151
  0
VERTEX
  8
0
 62
7
  6
CONTINUOUS
 10
161.000106854
 20
75.6113288282
  0
VERTEX
  8
0
 62
7
  6
CONTINUOUS
 10
161.0115252929
 20
75.6569454248
  0
VERTEX
  8
0
 62
7
  6
CONTINUOUS
 10
161.0193286914
 20
75.7078278003
  0
VERTEX
  8
0
 62
7
  6
CONTINUOUS
 10
161.023253681
 20
75.7613965012
  0
VERTEX
  8
0
 62
7
  6
CONTINUOUS
 10
161.023253681
 20
75.8164470514
  0
VERTEX
  8
0
 62
7
  6
CONTINUOUS
 10
161.0193286914
 20
75.8700157523
  0
VERTEX
  8
0
 62
7
  6
CONTINUOUS
 10
161.0115252929
 20
75.9208981278
  0
VERTEX
  8
0
 62
7
  6
CONTINUOUS
 10
161.000106854
 20
75.9665147244
  0
VERTEX
  8
0
 62
7
  6
CONTINUOUS
 10
160.985376103
 20
76.0050213375
  0
VERTEX
  8
0
 62
7
  6
CONTINUOUS
 10
160.9679152865
 20
76.0342904853
  0
VERTEX
  8
0
 62
7
  6
CONTINUOUS
 10
160.9484919978
 20
76.0526316948
  0
VERTEX
  8
0
 62
7
  6
CONTINUOUS
 10
160.9279287261
 20
76.0589217763
  0
SEQEND
  0
LINE
  8
0
 62
7
  6
CONTINUOUS
 10
170.0959723408
 20
194.5155737109
 11
167.5785714286
 21
193.8889217763
  0
LINE
  8
0
 62
7
  6
CONTINUOUS
 10
152.4988944274
 20
189.1624842275
 11
163.6376123851
 21
190.0528144679
  0
LINE
  8
0
 62
7
  6
CONTINUOUS
 10
170.0959723408
 20
187.8622698417
 11
167.5785714286
 21
188.4889217763
  0
POLYLINE
  8
0
 62
7
  6
CONTINUOUS
 66
1
 70
0
  0
VERTEX
  8
0
 62
7
  6
CONTINUOUS
 10
153.8723966797
 20
203.0547882511
  0
VERTEX
  8
0
 62
7
  6
CONTINUOUS
 10
153.9475488664
 20
203.0104366828
  0
VERTEX
  8
0
 62
7
  6
CONTINUOUS
 10
154.040212652
 20
202.9374592086
  0
VERTEX
  8
0
 62
7
  6
CONTINUOUS
 10
154.136909994
 20
202.8402747635
  0
VERTEX
  8
0
 62
7
  6
CONTINUOUS
 10
154.2365040213
 20
202.7201245506
  0
VERTEX
  8
0
 62
7
  6
CONTINUOUS
 10
154.3398968884
 20
202.5811486053
  0
SEQEND
  0
LINE
  8
0
 62
7
  6
CONTINUOUS
 10
163.7351730804
 20
72.4704739004
 11
167.3236117502
 21
73.4960539932
  0
LINE
  8
0
 62
7
  6
CONTINUOUS
 10
160.414797059
 20
200.9657285119
 11
160.4718849308
 21
200.9405594752
  0
POLYLINE
  8
0
 62
7
  6
CONTINUOUS
 66
1
 70
0
  0
VERTEX
  8
0
 62
7
  6
CONTINUOUS
 10
160.4718849308
 20
200.9405594752
  0
VERTEX
  8
0
 62
7
  6
CONTINUOUS
 10
160.542359976
 20
200.897929126
  0
VERTEX
  8
0
 62
7
  6
CONTINUOUS
 10
160.6125813305
 20
200.8419811049
  0
VERTEX
  8
0
 62
7
  6
CONTINUOUS
 10
160.6639196318
 20
200.7917140233
  0
SEQEND
  0
LINE
  8
0
 62
7
  6
CONTINUOUS
 10
170.0959723408
 20
202.9155737109
 11
167.5785714286
 21
202.2889217763
  0
LINE
  8
0
 62
7
  6
CONTINUOUS
 10
151.6285714286
 20
196.7087611958
 11
151.5886623605
 21
196.7073675404
  0
POLYLINE
  8
0
 62
7
  6
CONTINUOUS
 66
1
 70
0
  0
VERTEX
  8
0
 62
7
  6
CONTINUOUS
 10
160.2970708223
 20
200.9920423301
  0
VERTEX
  8
0
 62
7
  6
CONTINUOUS
 10
160.3362810502
 20
200.9870542359
  0
VERTEX
  8
0
 62
7
  6
CONTINUOUS
 10
160.3839618013
 20
200.9759234647
  0
VERTEX
  8
0
 62
7
  6
CONTINUOUS
 10
160.414822175
 20
200.9657192411
  0
SEQEND
  0
LINE
  8
0
 62
7
  6
CONTINUOUS
 10
170.0959723408
 20
196.2622698417
 11
167.5785714286
 21
196.8889217763
  0
LINE
  8
0
 62
7
  6
CONTINUOUS
 10
163.7351730804
 20
200.7073696521
 11
167.3236117502
 21
199.6817895594
  0
LINE
  8
0
 62
7
  6
CONTINUOUS
 10
152.5785714286
 20
207.8889217763
 11
167.3785714286
 21
207.8889217763
  0
LINE
  8
0
 62
7
  6
CONTINUOUS
 10
151.5785714286
 20
203.2539117811
 11
153.6964715592
 21
203.105813777
  0
LINE
  8
0
 62
7
  6
CONTINUOUS
 10
152.8341329228
 20
201.5885633355
 11
163.6376123851
 21
200.7250290846
  0
POLYLINE
  8
0
 62
7
  6
CONTINUOUS
 66
1
 70
0
  0
VERTEX
  8
0
 62
7
  6
CONTINUOUS
 10
153.6964674691
 20
203.105814046
  0
VERTEX
  8
0
 62
7
  6
CONTINUOUS
 10
153.7754882842
 20
203.0922928199
  0
VERTEX
  8
0
 62
7
  6
CONTINUOUS
 10
153.8593390076
 20
203.0611768348
  0
VERTEX
  8
0
 62
7
  6
CONTINUOUS
 10
153.8723966797
 20
203.0547882511
  0
SEQEND
  0
LINE
  8
0
 62
7
  6
CONTINUOUS
 10
170.0959723408
 20
204.6622698417
 11
167.5785714286
 21
205.2889217763
  0
LINE
  8
0
 62
7
  6
CONTINUOUS
 10
47.1265295115
 20
244.1571428571
 11
47.1265295115
 21
241.0447484136
  0
LINE
  8
DEFAULT_1
 62
2
  6
CENTER
 10
52.9265295115
 20
248.5571428571
 11
52.9265295115
 21
246.1572428571
  0
LINE
  8
0
 62
2
  6
CONTINUOUS
 10
52.9265295115
 20
245.0371428571
 11
52.9265295115
 21
243.2771428571
  0
LINE
  8
DEFAULT_1
 62
2
  6
CENTER
 10
52.9265295115
 20
239.7571428571
 11
52.9265295115
 21
242.1570428571
  0
LINE
  8
0
 62
7
  6
CONTINUOUS
 10
58.7265295115
 20
241.0447484136
 11
58.7265295115
 21
244.1571428571
  0
LINE
  8
0
 62
7
  6
CONTINUOUS
 10
59.3231814461
 20
254.6745437694
 11
58.6965295115
 21
252.1571428571
  0
POLYLINE
  8
0
 62
7
  6
CONTINUOUS
 66
1
 70
0
  0
VERTEX
  8
0
 62
7
  6
CONTINUOUS
 10
50.054295055
 20
236.1571428571
  0
VERTEX
  8
0
 62
7
  6
CONTINUOUS
 10
50.0558923162
 20
236.1596715813
  0
VERTEX
  8
0
 62
7
  6
CONTINUOUS
 10
50.0583029133
 20
236.167233789
  0
SEQEND
  0
POLYLINE
  8
0
 62
7
  6
CONTINUOUS
 66
1
 70
0
  0
VERTEX
  8
0
 62
7
  6
CONTINUOUS
 10
50.0583029133
 20
236.167233789
  0
VERTEX
  8
0
 62
7
  6
CONTINUOUS
 10
49.4311059083
 20
236.4164230778
  0
VERTEX
  8
0
 62
7
  6
CONTINUOUS
 10
48.8235417251
 20
236.716657255
  0
VERTEX
  8
0
 62
7
  6
CONTINUOUS
 10
48.242401567
 20
237.0653056576
  0
VERTEX
  8
0
 62
7
  6
CONTINUOUS
 10
47.6928356618
 20
237.4594978529
  0
SEQEND
  0
LINE
  8
0
 62
7
  6
CONTINUOUS
 10
66.5831814461
 20
254.6745437694
 11
65.9565295115
 21
252.1571428571
  0
LINE
  8
0
 62
7
  6
CONTINUOUS
 10
61.0698775769
 20
254.6745437694
 11
61.6965295115
 21
252.1571428571
  0
LINE
  8
0
 62
7
  6
CONTINUOUS
 10
57.4265295115
 20
236.1571428571
 11
50.054295055
 21
236.1571428571
  0
LINE
  8
0
 62
7
  6
CONTINUOUS
 10
99.2265295115
 20
236.1571428571
 11
106.5988108347
 21
236.1571428571
  0
LINE
  8
0
 62
7
  6
CONTINUOUS
 10
77.5737061507
 20
236.2071428571
 11
79.0793528722
 21
236.2071428571
  0
LINE
  8
0
 62
7
  6
CONTINUOUS
 10
68.3298775769
 20
254.6745437694
 11
68.9565295115
 21
252.1571428571
  0
LINE
  8
0
 62
7
  6
CONTINUOUS
 10
73.8231814461
 20
254.6745437694
 11
73.1965295115
 21
252.1571428571
  0
LINE
  8
0
 62
7
  6
CONTINUOUS
 10
74.6565627521
 20
243.5480942348
 11
76.614725699
 21
236.9236706482
  0
LINE
  8
0
 62
7
  6
CONTINUOUS
 10
81.0831814461
 20
254.6745437694
 11
80.4565295115
 21
252.1571428571
  0
LINE
  8
DEFAULT_1
 62
2
  6
CENTER
 10
108.1265295115
 20
244.1571428571
 11
105.7266295115
 21
244.1571428571
  0
LINE
  8
0
 62
2
  6
CONTINUOUS
 10
104.6065295115
 20
244.1571428571
 11
102.8465295115
 21
244.1571428571
  0
LINE
  8
0
 62
7
  6
CONTINUOUS
 10
73.8414293681
 20
244.1571428571
 11
72.1487203323
 21
244.1571428571
  0
LINE
  8
DEFAULT_1
 62
2
  6
CENTER
 10
57.3265295115
 20
244.1571428571
 11
54.9266295115
 21
244.1571428571
  0
LINE
  8
0
 62
2
  6
CONTINUOUS
 10
53.8065295115
 20
244.1571428571
 11
52.0465295115
 21
244.1571428571
  0
LINE
  8
DEFAULT_1
 62
2
  6
CENTER
 10
48.5265295115
 20
244.1571428571
 11
50.9264295115
 21
244.1571428571
  0
LINE
  8
0
 62
7
  6
CONTINUOUS
 10
82.8116296548
 20
244.1571428571
 11
84.5043386907
 21
244.1571428571
  0
LINE
  8
DEFAULT_1
 62
2
  6
CENTER
 10
99.3265295115
 20
244.1571428571
 11
101.7264295115
 21
244.1571428571
  0
LINE
  8
0
 62
7
  6
CONTINUOUS
 10
60.9776104543
 20
248.0607081134
 11
71.8142554665
 21
244.2147346369
  0
LINE
  8
0
 62
7
  6
CONTINUOUS
 10
75.5698775769
 20
254.6745437694
 11
76.1965295115
 21
252.1571428571
  0
LINE
  8
0
 62
7
  6
CONTINUOUS
 10
80.0383333239
 20
236.9236706482
 11
81.9964962709
 21
243.5480942348
  0
LINE
  8
0
 62
7
  6
CONTINUOUS
 10
84.8388035564
 20
244.2147346369
 11
88.0600132245
 21
245.3579562642
  0
LINE
  8
0
 62
7
  6
CONTINUOUS
 10
88.3231814461
 20
254.6745437694
 11
87.6965295115
 21
252.1571428571
  0
LINE
  8
0
 62
7
  6
CONTINUOUS
 10
50.0542481882
 20
252.1571428571
 11
106.5988108347
 21
252.1571428571
  0
LINE
  8
0
 62
7
  6
CONTINUOUS
 10
82.8298775769
 20
254.6745437694
 11
83.4565295115
 21
252.1571428571
  0
POLYLINE
  8
0
 62
7
  6
CONTINUOUS
 66
1
 70
0
  0
VERTEX
  8
0
 62
7
  6
CONTINUOUS
 10
57.4976428679
 20
252.1571720373
  0
VERTEX
  8
0
 62
7
  6
CONTINUOUS
 10
57.4331857154
 20
252.1487179657
  0
VERTEX
  8
0
 62
7
  6
CONTINUOUS
 10
57.3730883813
 20
252.123927187
  0
VERTEX
  8
0
 62
7
  6
CONTINUOUS
 10
57.3214164048
 20
252.0844765448
  0
VERTEX
  8
0
 62
7
  6
CONTINUOUS
 10
57.281665456
 20
252.0330347013
  0
VERTEX
  8
0
 62
7
  6
CONTINUOUS
 10
57.2565247603
 20
251.9730816274
  0
VERTEX
  8
0
 62
7
  6
CONTINUOUS
 10
57.2476950894
 20
251.9086731498
  0
VERTEX
  8
0
 62
7
  6
CONTINUOUS
 10
57.25577366
 20
251.8441665082
  0
VERTEX
  8
0
 62
7
  6
CONTINUOUS
 10
57.2802137348
 20
251.7839255128
  0
VERTEX
  8
0
 62
7
  6
CONTINUOUS
 10
57.3193616541
 20
251.732025275
  0
VERTEX
  8
0
 62
7
  6
CONTINUOUS
 10
57.3705687809
 20
251.6919764953
  0
SEQEND
  0
LINE
  8
0
 62
7
  6
CONTINUOUS
 10
95.5831814461
 20
254.6745437694
 11
94.9565295115
 21
252.1571428571
  0
LINE
  8
0
 62
7
  6
CONTINUOUS
 10
90.0698775769
 20
254.6745437694
 11
90.6965295115
 21
252.1571428571
  0
LINE
  8
0
 62
7
  6
CONTINUOUS
 10
97.3298775769
 20
254.6745437694
 11
97.9565295115
 21
252.1571428571
  0
LINE
  8
DEFAULT_1
 62
2
  6
CENTER
 10
103.7265295115
 20
248.5571428571
 11
103.7265295115
 21
246.1572428571
  0
LINE
  8
0
 62
2
  6
CONTINUOUS
 10
103.7265295115
 20
245.0371428571
 11
103.7265295115
 21
243.2771428571
  0
LINE
  8
DEFAULT_1
 62
2
  6
CENTER
 10
103.7265295115
 20
239.7571428571
 11
103.7265295115
 21
242.1570428571
  0
CIRCLE
  8
0
 62
7
  6
CONTINUOUS
 10
67.4565295115
 20
128.1889217763
 40
1.5
  0
CIRCLE
  8
0
 62
7
  6
CONTINUOUS
 10
60.1965295115
 20
119.7889217763
 40
1.5
  0
CIRCLE
  8
0
 62
7
  6
CONTINUOUS
 10
74.6965295115
 20
119.7889217763
 40
1.5
  0
CIRCLE
  8
0
 62
7
  6
CONTINUOUS
 10
67.4565295115
 20
111.3889217763
 40
1.5
  0
CIRCLE
  8
0
 62
7
  6
CONTINUOUS
 10
60.1965295115
 20
102.9889217763
 40
1.5
  0
CIRCLE
  8
0
 62
7
  6
CONTINUOUS
 10
74.6965295115
 20
102.9889217763
 40
1.5
  0
CIRCLE
  8
0
 62
7
  6
CONTINUOUS
 10
67.4565295115
 20
94.5889217763
 40
1.5
  0
CIRCLE
  8
0
 62
7
  6
CONTINUOUS
 10
60.1965295115
 20
86.1889217763
 40
1.5
  0
CIRCLE
  8
0
 62
7
  6
CONTINUOUS
 10
74.6965295115
 20
86.1889217763
 40
1.5
  0
CIRCLE
  8
0
 62
7
  6
CONTINUOUS
 10
67.4565295115
 20
77.7889217763
 40
1.5
  0
CIRCLE
  8
0
 62
7
  6
CONTINUOUS
 10
60.1965295115
 20
69.3889217763
 40
1.5
  0
CIRCLE
  8
0
 62
7
  6
CONTINUOUS
 10
74.6965295115
 20
69.3889217763
 40
1.5
  0
CIRCLE
  8
0
 62
7
  6
CONTINUOUS
 10
67.4565295115
 20
60.9889217763
 40
1.5
  0
ARC
  8
0
 62
7
  6
CONTINUOUS
 10
57.4479190962
 20
57.0889217763
 40
0.2
 50
180.0
 51
270.0
  0
CIRCLE
  8
0
 62
7
  6
CONTINUOUS
 10
60.1965295115
 20
203.7889217763
 40
1.5
  0
CIRCLE
  8
0
 62
7
  6
CONTINUOUS
 10
74.6965295115
 20
203.7889217763
 40
1.5
  0
CIRCLE
  8
0
 62
7
  6
CONTINUOUS
 10
67.4565295115
 20
195.3889217763
 40
1.5
  0
CIRCLE
  8
0
 62
7
  6
CONTINUOUS
 10
60.1965295115
 20
186.9889217763
 40
1.5
  0
CIRCLE
  8
0
 62
7
  6
CONTINUOUS
 10
74.6965295115
 20
186.9889217763
 40
1.5
  0
CIRCLE
  8
0
 62
7
  6
CONTINUOUS
 10
67.4565295115
 20
178.5889217763
 40
1.5
  0
CIRCLE
  8
0
 62
7
  6
CONTINUOUS
 10
60.1965295115
 20
170.1889217763
 40
1.5
  0
CIRCLE
  8
0
 62
7
  6
CONTINUOUS
 10
74.6965295115
 20
170.1889217763
 40
1.5
  0
CIRCLE
  8
0
 62
7
  6
CONTINUOUS
 10
67.4565295115
 20
161.7889217763
 40
1.5
  0
CIRCLE
  8
0
 62
7
  6
CONTINUOUS
 10
60.1965295115
 20
153.3889217763
 40
1.5
  0
CIRCLE
  8
0
 62
7
  6
CONTINUOUS
 10
74.6965295115
 20
153.3889217763
 40
1.5
  0
CIRCLE
  8
0
 62
7
  6
CONTINUOUS
 10
67.4565295115
 20
144.9889217763
 40
1.5
  0
CIRCLE
  8
0
 62
7
  6
CONTINUOUS
 10
60.1965295115
 20
136.5889217763
 40
1.5
  0
CIRCLE
  8
0
 62
7
  6
CONTINUOUS
 10
74.6965295115
 20
136.5889217763
 40
1.5
  0
CIRCLE
  8
0
 62
7
  6
CONTINUOUS
 10
81.9565295115
 20
128.1889217763
 40
1.5
  0
CIRCLE
  8
0
 62
7
  6
CONTINUOUS
 10
96.4565295115
 20
128.1889217763
 40
1.5
  0
CIRCLE
  8
0
 62
7
  6
CONTINUOUS
 10
89.1965295115
 20
119.7889217763
 40
1.5
  0
CIRCLE
  8
0
 62
7
  6
CONTINUOUS
 10
81.9565295115
 20
111.3889217763
 40
1.5
  0
CIRCLE
  8
0
 62
7
  6
CONTINUOUS
 10
96.4565295115
 20
111.3889217763
 40
1.5
  0
CIRCLE
  8
0
 62
7
  6
CONTINUOUS
 10
89.1965295115
 20
102.9889217763
 40
1.5
  0
CIRCLE
  8
0
 62
7
  6
CONTINUOUS
 10
81.9565295115
 20
94.5889217763
 40
1.5
  0
CIRCLE
  8
0
 62
7
  6
CONTINUOUS
 10
96.4565295115
 20
94.5889217763
 40
1.5
  0
CIRCLE
  8
0
 62
7
  6
CONTINUOUS
 10
89.1965295115
 20
86.1889217763
 40
1.5
  0
CIRCLE
  8
0
 62
7
  6
CONTINUOUS
 10
81.9565295115
 20
77.7889217763
 40
1.5
  0
CIRCLE
  8
0
 62
7
  6
CONTINUOUS
 10
96.4565295115
 20
77.7889217763
 40
1.5
  0
CIRCLE
  8
0
 62
7
  6
CONTINUOUS
 10
89.1965295115
 20
69.3889217763
 40
1.5
  0
CIRCLE
  8
0
 62
7
  6
CONTINUOUS
 10
81.9565295115
 20
60.9889217763
 40
1.5
  0
CIRCLE
  8
0
 62
7
  6
CONTINUOUS
 10
96.4565295115
 20
60.9889217763
 40
1.5
  0
CIRCLE
  8
0
 62
7
  6
CONTINUOUS
 10
89.1965295115
 20
203.7889217763
 40
1.5
  0
CIRCLE
  8
0
 62
7
  6
CONTINUOUS
 10
81.9565295115
 20
195.3889217763
 40
1.5
  0
CIRCLE
  8
0
 62
7
  6
CONTINUOUS
 10
96.4565295115
 20
195.3889217763
 40
1.5
  0
CIRCLE
  8
0
 62
7
  6
CONTINUOUS
 10
89.1965295115
 20
186.9889217763
 40
1.5
  0
CIRCLE
  8
0
 62
7
  6
CONTINUOUS
 10
81.9565295115
 20
178.5889217763
 40
1.5
  0
CIRCLE
  8
0
 62
7
  6
CONTINUOUS
 10
96.4565295115
 20
178.5889217763
 40
1.5
  0
CIRCLE
  8
0
 62
7
  6
CONTINUOUS
 10
89.1965295115
 20
170.1889217763
 40
1.5
  0
CIRCLE
  8
0
 62
7
  6
CONTINUOUS
 10
81.9565295115
 20
161.7889217763
 40
1.5
  0
CIRCLE
  8
0
 62
7
  6
CONTINUOUS
 10
96.4565295115
 20
161.7889217763
 40
1.5
  0
CIRCLE
  8
0
 62
7
  6
CONTINUOUS
 10
89.1965295115
 20
153.3889217763
 40
1.5
  0
CIRCLE
  8
0
 62
7
  6
CONTINUOUS
 10
81.9565295115
 20
144.9889217763
 40
1.5
  0
CIRCLE
  8
0
 62
7
  6
CONTINUOUS
 10
96.4565295115
 20
144.9889217763
 40
1.5
  0
CIRCLE
  8
0
 62
7
  6
CONTINUOUS
 10
89.1965295115
 20
136.5889217763
 40
1.5
  0
ARC
  8
0
 62
7
  6
CONTINUOUS
 10
99.2051399268
 20
207.6889217763
 40
0.2
 50
0.0
 51
90.0
  0
ARC
  8
0
 62
7
  6
CONTINUOUS
 10
152.5785714286
 20
87.3656634937
 40
1.0
 50
94.57
 51
180.0
  0
ARC
  8
0
 62
7
  6
CONTINUOUS
 10
152.5785714286
 20
76.6121800589
 40
1.0
 50
180.0
 51
197.4745042926
  0
ARC
  8
0
 62
7
  6
CONTINUOUS
 10
152.5785714286
 20
78.9656634937
 40
1.0
 50
162.5254957074
 51
180.0
  0
ARC
  8
0
 62
7
  6
CONTINUOUS
 10
152.5785714286
 20
85.0121800589
 40
1.0
 50
180.0
 51
265.43
  0
ARC
  8
0
 62
7
  6
CONTINUOUS
 10
152.5785714286
 20
70.5656634937
 40
1.0
 50
94.57
 51
180.0
  0
ARC
  8
0
 62
7
  6
CONTINUOUS
 10
152.5785714286
 20
68.2121800589
 40
1.0
 50
180.0
 51
188.1464641015
  0
ARC
  8
0
 62
7
  6
CONTINUOUS
 10
152.5785714286
 20
127.0121800589
 40
1.0
 50
180.0
 51
197.4745042926
  0
ARC
  8
0
 62
7
  6
CONTINUOUS
 10
152.5785714286
 20
129.3656634937
 40
1.0
 50
162.5254957074
 51
180.0
  0
ARC
  8
0
 62
7
  6
CONTINUOUS
 10
152.5785714286
 20
120.9656634937
 40
1.0
 50
94.57
 51
180.0
  0
ARC
  8
0
 62
7
  6
CONTINUOUS
 10
152.5785714286
 20
110.2121800589
 40
1.0
 50
180.0
 51
197.4745042926
  0
ARC
  8
0
 62
7
  6
CONTINUOUS
 10
152.6285714286
 20
57.8889217763
 40
1.0
 50
180.0
 51
270.0
  0
ARC
  8
0
 62
7
  6
CONTINUOUS
 10
152.5785714286
 20
112.5656634937
 40
1.0
 50
162.5254957074
 51
180.0
  0
ARC
  8
0
 62
7
  6
CONTINUOUS
 10
152.5785714286
 20
57.8889217763
 40
1.0
 50
180.0
 51
270.0
  0
ARC
  8
0
 62
7
  6
CONTINUOUS
 10
152.5785714286
 20
118.6121800589
 40
1.0
 50
180.0
 51
265.43
  0
ARC
  8
0
 62
7
  6
CONTINUOUS
 10
152.5785714286
 20
104.1656634937
 40
1.0
 50
94.57
 51
180.0
  0
ARC
  8
0
 62
7
  6
CONTINUOUS
 10
152.5785714286
 20
93.4121800589
 40
1.0
 50
180.0
 51
197.4745042926
  0
ARC
  8
0
 62
7
  6
CONTINUOUS
 10
152.5785714286
 20
95.7656634937
 40
1.0
 50
162.5254957074
 51
180.0
  0
ARC
  8
0
 62
7
  6
CONTINUOUS
 10
152.5785714286
 20
101.8121800589
 40
1.0
 50
180.0
 51
265.43
  0
ARC
  8
0
 62
7
  6
CONTINUOUS
 10
160.5784532586
 20
57.8888036064
 40
0.9998818301
 50
180.7781444247
 51
268.0049485052
  0
ARC
  8
0
 62
7
  6
CONTINUOUS
 10
152.5785714286
 20
194.2121800589
 40
1.0
 50
180.0
 51
197.4745042926
  0
ARC
  8
0
 62
7
  6
CONTINUOUS
 10
152.5785714286
 20
196.5656634937
 40
1.0
 50
171.8535358985
 51
180.0
  0
ARC
  8
0
 62
7
  6
CONTINUOUS
 10
152.5785714286
 20
188.1656634937
 40
1.0
 50
94.57
 51
180.0
  0
ARC
  8
0
 62
7
  6
CONTINUOUS
 10
152.5785714286
 20
177.4121800589
 40
1.0
 50
180.0
 51
197.4745042926
  0
ARC
  8
0
 62
7
  6
CONTINUOUS
 10
152.5785714286
 20
179.7656634937
 40
1.0
 50
162.5254957074
 51
180.0
  0
ARC
  8
0
 62
7
  6
CONTINUOUS
 10
152.5785714286
 20
185.8121800589
 40
1.0
 50
180.0
 51
265.43
  0
ARC
  8
0
 62
7
  6
CONTINUOUS
 10
152.5785714286
 20
171.3656634937
 40
1.0
 50
94.57
 51
180.0
  0
ARC
  8
0
 62
7
  6
CONTINUOUS
 10
152.5785714286
 20
160.6121800589
 40
1.0
 50
180.0
 51
197.4745042926
  0
ARC
  8
0
 62
7
  6
CONTINUOUS
 10
152.5785714286
 20
162.9656634937
 40
1.0
 50
162.5254957074
 51
180.0
  0
ARC
  8
0
 62
7
  6
CONTINUOUS
 10
152.5785714286
 20
169.0121800589
 40
1.0
 50
180.0
 51
265.43
  0
ARC
  8
0
 62
7
  6
CONTINUOUS
 10
152.5785714286
 20
154.5656634937
 40
1.0
 50
94.57
 51
180.0
  0
ARC
  8
0
 62
7
  6
CONTINUOUS
 10
152.5785714286
 20
143.8121800589
 40
1.0
 50
180.0
 51
197.4745042926
  0
ARC
  8
0
 62
7
  6
CONTINUOUS
 10
152.5785714286
 20
146.1656634937
 40
1.0
 50
162.5254957074
 51
180.0
  0
ARC
  8
0
 62
7
  6
CONTINUOUS
 10
152.5785714286
 20
152.2121800589
 40
1.0
 50
180.0
 51
265.43
  0
ARC
  8
0
 62
7
  6
CONTINUOUS
 10
152.5785714286
 20
137.7656634937
 40
1.0
 50
94.57
 51
180.0
  0
ARC
  8
0
 62
7
  6
CONTINUOUS
 10
152.5785714286
 20
135.4121800589
 40
1.0
 50
180.0
 51
265.43
  0
ARC
  8
0
 62
7
  6
CONTINUOUS
 10
152.5785714286
 20
206.8889217763
 40
1.0
 50
90.0
 51
180.0
  0
ARC
  8
0
 62
7
  6
CONTINUOUS
 10
163.5977738845
 20
89.7512248349
 40
0.5
 50
274.57
 51
285.95
  0
ARC
  8
0
 62
7
  6
CONTINUOUS
 10
163.5977738845
 20
72.9512248349
 40
0.5
 50
274.57
 51
285.95
  0
ARC
  8
0
 62
7
  6
CONTINUOUS
 10
163.5977738845
 20
82.6266187177
 40
0.5
 50
74.05
 51
85.43
  0
ARC
  8
0
 62
7
  6
CONTINUOUS
 10
163.5977738845
 20
65.8266187177
 40
0.5
 50
74.05
 51
85.43
  0
ARC
  8
0
 62
7
  6
CONTINUOUS
 10
163.5977738845
 20
99.4266187177
 40
0.5
 50
74.05
 51
85.43
  0
ARC
  8
0
 62
7
  6
CONTINUOUS
 10
163.5977738845
 20
116.2266187177
 40
0.5
 50
74.05
 51
85.43
  0
ARC
  8
0
 62
7
  6
CONTINUOUS
 10
163.5977738845
 20
106.5512248349
 40
0.5
 50
274.57
 51
285.95
  0
ARC
  8
0
 62
7
  6
CONTINUOUS
 10
163.5977738845
 20
123.3512248349
 40
0.5
 50
274.57
 51
285.95
  0
ARC
  8
0
 62
7
  6
CONTINUOUS
 10
169.8785714286
 20
60.9889217763
 40
0.9
 50
283.9784285535
 51
76.0215714465
  0
ARC
  8
0
 62
7
  6
CONTINUOUS
 10
169.8785714286
 20
69.3889217763
 40
0.9
 50
283.9784285535
 51
76.0215714465
  0
ARC
  8
0
 62
7
  6
CONTINUOUS
 10
169.8785714286
 20
77.7889217763
 40
0.9
 50
283.9784285535
 51
76.0215714465
  0
ARC
  8
0
 62
7
  6
CONTINUOUS
 10
169.8785714286
 20
86.1889217763
 40
0.9
 50
283.9784285535
 51
76.0215714465
  0
ARC
  8
0
 62
7
  6
CONTINUOUS
 10
167.3785714286
 20
90.1037536194
 40
0.2
 50
0.0
 51
105.95
  0
ARC
  8
0
 62
7
  6
CONTINUOUS
 10
167.3785714286
 20
82.2740899331
 40
0.2
 50
254.05
 51
360.0
  0
ARC
  8
0
 62
7
  6
CONTINUOUS
 10
167.3785714286
 20
73.3037536194
 40
0.2
 50
0.0
 51
105.95
  0
ARC
  8
0
 62
7
  6
CONTINUOUS
 10
167.3785714286
 20
65.4740899331
 40
0.2
 50
254.05
 51
360.0
  0
ARC
  8
0
 62
7
  6
CONTINUOUS
 10
167.3785714286
 20
57.0889217763
 40
0.2
 50
270.0
 51
360.0
  0
ARC
  8
0
 62
7
  6
CONTINUOUS
 10
169.8785714286
 20
94.5889217763
 40
0.9
 50
283.9784285535
 51
76.0215714465
  0
ARC
  8
0
 62
7
  6
CONTINUOUS
 10
169.8785714286
 20
102.9889217763
 40
0.9
 50
283.9784285535
 51
76.0215714465
  0
ARC
  8
0
 62
7
  6
CONTINUOUS
 10
169.8785714286
 20
111.3889217763
 40
0.9
 50
283.9784285535
 51
76.0215714465
  0
ARC
  8
0
 62
7
  6
CONTINUOUS
 10
169.8785714286
 20
119.7889217763
 40
0.9
 50
283.9784285535
 51
76.0215714465
  0
ARC
  8
0
 62
7
  6
CONTINUOUS
 10
169.8785714286
 20
128.1889217763
 40
0.9
 50
283.9784285535
 51
76.0215714465
  0
ARC
  8
0
 62
7
  6
CONTINUOUS
 10
167.3785714286
 20
115.8740899331
 40
0.2
 50
254.05
 51
360.0
  0
ARC
  8
0
 62
7
  6
CONTINUOUS
 10
167.3785714286
 20
99.0740899331
 40
0.2
 50
254.05
 51
360.0
  0
ARC
  8
0
 62
7
  6
CONTINUOUS
 10
167.3785714286
 20
106.9037536194
 40
0.2
 50
0.0
 51
105.95
  0
ARC
  8
0
 62
7
  6
CONTINUOUS
 10
167.3785714286
 20
123.7037536194
 40
0.2
 50
0.0
 51
105.95
  0
ARC
  8
0
 62
7
  6
CONTINUOUS
 10
163.5977738845
 20
133.0266187177
 40
0.5
 50
74.05
 51
85.43
  0
ARC
  8
0
 62
7
  6
CONTINUOUS
 10
163.5977738845
 20
149.8266187177
 40
0.5
 50
74.05
 51
85.43
  0
ARC
  8
0
 62
7
  6
CONTINUOUS
 10
163.5977738845
 20
140.1512248349
 40
0.5
 50
274.57
 51
285.95
  0
ARC
  8
0
 62
7
  6
CONTINUOUS
 10
163.5977738845
 20
166.6266187177
 40
0.5
 50
74.05
 51
85.43
  0
ARC
  8
0
 62
7
  6
CONTINUOUS
 10
163.5977738845
 20
156.9512248349
 40
0.5
 50
274.57
 51
285.95
  0
ARC
  8
0
 62
7
  6
CONTINUOUS
 10
163.5977738845
 20
183.4266187177
 40
0.5
 50
74.05
 51
85.43
  0
ARC
  8
0
 62
7
  6
CONTINUOUS
 10
163.5977738845
 20
173.7512248349
 40
0.5
 50
274.57
 51
285.95
  0
ARC
  8
0
 62
7
  6
CONTINUOUS
 10
163.5977738845
 20
200.2266187177
 40
0.5
 50
74.05
 51
85.43
  0
ARC
  8
0
 62
7
  6
CONTINUOUS
 10
163.5977738845
 20
190.5512248349
 40
0.5
 50
274.57
 51
285.95
  0
ARC
  8
0
 62
7
  6
CONTINUOUS
 10
169.8785714286
 20
136.5889217763
 40
0.9
 50
283.9784285535
 51
76.0215714465
  0
ARC
  8
0
 62
7
  6
CONTINUOUS
 10
169.8785714286
 20
144.9889217763
 40
0.9
 50
283.9784285535
 51
76.0215714465
  0
ARC
  8
0
 62
7
  6
CONTINUOUS
 10
169.8785714286
 20
153.3889217763
 40
0.9
 50
283.9784285535
 51
76.0215714465
  0
ARC
  8
0
 62
7
  6
CONTINUOUS
 10
169.8785714286
 20
161.7889217763
 40
0.9
 50
283.9784285535
 51
76.0215714465
  0
ARC
  8
0
 62
7
  6
CONTINUOUS
 10
167.3785714286
 20
166.2740899331
 40
0.2
 50
254.05
 51
360.0
  0
ARC
  8
0
 62
7
  6
CONTINUOUS
 10
167.3785714286
 20
149.4740899331
 40
0.2
 50
254.05
 51
360.0
  0
ARC
  8
0
 62
7
  6
CONTINUOUS
 10
167.3785714286
 20
132.6740899331
 40
0.2
 50
254.05
 51
360.0
  0
ARC
  8
0
 62
7
  6
CONTINUOUS
 10
167.3785714286
 20
140.5037536194
 40
0.2
 50
0.0
 51
105.95
  0
ARC
  8
0
 62
7
  6
CONTINUOUS
 10
167.3785714286
 20
157.3037536194
 40
0.2
 50
0.0
 51
105.95
  0
ARC
  8
0
 62
7
  6
CONTINUOUS
 10
169.8785714286
 20
170.1889217763
 40
0.9
 50
283.9784285535
 51
76.0215714465
  0
ARC
  8
0
 62
7
  6
CONTINUOUS
 10
169.8785714286
 20
178.5889217763
 40
0.9
 50
283.9784285535
 51
76.0215714465
  0
ARC
  8
0
 62
7
  6
CONTINUOUS
 10
169.8785714286
 20
186.9889217763
 40
0.9
 50
283.9784285535
 51
76.0215714465
  0
ARC
  8
0
 62
7
  6
CONTINUOUS
 10
169.8785714286
 20
195.3889217763
 40
0.9
 50
283.9784285535
 51
76.0215714465
  0
ARC
  8
0
 62
7
  6
CONTINUOUS
 10
169.8785714286
 20
203.7889217763
 40
0.9
 50
283.9784285535
 51
76.0215714465
  0
ARC
  8
0
 62
7
  6
CONTINUOUS
 10
167.3785714286
 20
199.8740899331
 40
0.2
 50
254.05
 51
360.0
  0
ARC
  8
0
 62
7
  6
CONTINUOUS
 10
167.3785714286
 20
190.9037536194
 40
0.2
 50
0.0
 51
105.95
  0
ARC
  8
0
 62
7
  6
CONTINUOUS
 10
167.3785714286
 20
183.0740899331
 40
0.2
 50
254.05
 51
360.0
  0
ARC
  8
0
 62
7
  6
CONTINUOUS
 10
167.3785714286
 20
207.6889217763
 40
0.2
 50
0.0
 51
90.0
  0
ARC
  8
0
 62
7
  6
CONTINUOUS
 10
167.3785714286
 20
174.1037536194
 40
0.2
 50
0.0
 51
105.95
  0
ARC
  8
0
 62
7
  6
CONTINUOUS
 10
54.0152883912
 20
209.1125717998
 40
50.0
 50
36.1628008448
 51
46.2787379139
  0
ARC
  8
0
 62
7
  6
CONTINUOUS
 10
52.9221677918
 20
244.1571428571
 40
8.75
 50
29.0322772227
 51
59.4415682141
  0
ARC
  8
0
 62
7
  6
CONTINUOUS
 10
52.9265295115
 20
244.1571428571
 40
8.5
 50
232.4345865675
 51
250.2500772044
  0
ARC
  8
0
 62
7
  6
CONTINUOUS
 10
52.9265295115
 20
244.1571428571
 40
8.5
 50
109.7499227956
 51
231.9951143277
  0
ARC
  8
0
 62
7
  6
CONTINUOUS
 10
57.4265295115
 20
242.1571428571
 40
6.0
 50
270.0
 51
323.8371991552
  0
ARC
  8
0
 62
7
  6
CONTINUOUS
 10
52.9265295115
 20
244.1571428571
 40
5.8
 50
0.0
 51
180.0
  0
CIRCLE
  8
0
 62
7
  6
CONTINUOUS
 10
52.9265295115
 20
244.1571428571
 40
4.15
  0
ARC
  8
0
 62
7
  6
CONTINUOUS
 10
60.1965295115
 20
254.4571428571
 40
0.9
 50
13.9784285535
 51
166.0215714465
  0
ARC
  8
0
 62
7
  6
CONTINUOUS
 10
61.2284591036
 20
248.7675142786
 40
0.75
 50
209.0322772227
 51
250.46
  0
ARC
  8
0
 62
7
  6
CONTINUOUS
 10
57.4979190962
 20
251.9071428571
 40
0.25
 50
90.0
 51
239.4415682143
  0
ARC
  8
0
 62
7
  6
CONTINUOUS
 10
77.5737061507
 20
237.2071428571
 40
1.0
 50
196.467546793
 51
270.0
  0
ARC
  8
0
 62
7
  6
CONTINUOUS
 10
72.1487203323
 20
245.1571428571
 40
1.0
 50
250.46
 51
270.0
  0
ARC
  8
0
 62
7
  6
CONTINUOUS
 10
73.8414293681
 20
243.3071428571
 40
0.85
 50
16.467546793
 51
90.0
  0
ARC
  8
0
 62
7
  6
CONTINUOUS
 10
68.4258133656
 20
244.8867521541
 40
0.5
 50
70.46
 51
133.7212620861
  0
ARC
  8
0
 62
7
  6
CONTINUOUS
 10
67.4565295115
 20
254.4571428571
 40
0.9
 50
13.9784285535
 51
166.0215714465
  0
ARC
  8
0
 62
7
  6
CONTINUOUS
 10
74.6965295115
 20
254.4571428571
 40
0.9
 50
13.9784285535
 51
166.0215714465
  0
ARC
  8
0
 62
7
  6
CONTINUOUS
 10
102.6377706318
 20
209.1125717998
 40
50.0
 50
133.7212620861
 51
143.8371991552
  0
ARC
  8
0
 62
7
  6
CONTINUOUS
 10
79.0793528722
 20
237.2071428571
 40
1.0
 50
270.0
 51
343.532453207
  0
ARC
  8
0
 62
7
  6
CONTINUOUS
 10
84.5043386907
 20
245.1571428571
 40
1.0
 50
270.0
 51
289.54
  0
ARC
  8
0
 62
7
  6
CONTINUOUS
 10
82.8116296548
 20
243.3071428571
 40
0.85
 50
90.0
 51
163.532453207
  0
ARC
  8
0
 62
7
  6
CONTINUOUS
 10
88.2272456573
 20
244.8867521541
 40
0.5
 50
46.2787379139
 51
109.54
  0
ARC
  8
0
 62
7
  6
CONTINUOUS
 10
81.9565295115
 20
254.4571428571
 40
0.9
 50
13.9784285535
 51
166.0215714465
  0
ARC
  8
0
 62
7
  6
CONTINUOUS
 10
89.1965295115
 20
254.4571428571
 40
0.9
 50
13.9784285535
 51
166.0215714465
  0
ARC
  8
0
 62
7
  6
CONTINUOUS
 10
103.7265295115
 20
244.1571428571
 40
8.5
 50
289.7499227956
 51
70.2500772044
  0
ARC
  8
0
 62
7
  6
CONTINUOUS
 10
99.2265295115
 20
242.1571428571
 40
6.0
 50
216.1628008448
 51
270.0
  0
CIRCLE
  8
0
 62
7
  6
CONTINUOUS
 10
103.7265295115
 20
244.1571428571
 40
4.15
  0
ARC
  8
0
 62
7
  6
CONTINUOUS
 10
96.4565295115
 20
254.4571428571
 40
0.9
 50
13.9784285535
 51
166.0215714465
  0
ENDSEC
  0
EOF
