  0
SECTION
  2
HEADER
  9
$EXTMAX
 10
210.0
 20
297.0
 30
0.0
  9
$EXTMIN
 10
0.0
 20
0.0
 30
0.0
  9
$LIMMIN
 10
0.0
 20
0.0
  9
$LIMMAX
 10
210.0
 20
297.0
  9
$VIEWCTR
 10
105.0
 20
148.5
  9
$VIEWSIZE
 40
297.0
  9
$CLAYER
  8
0
  9
$LTSCALE
 40
19.36
  9
$CELTYPE
  6
BYLAYER
  9
$DIMSCALE
 40
1.0
  9
$DIMASZ
 40
3.5
  9
$DIMEXO
 40
2.2
  9
$DIMDLI
 40
13.376
  9
$DIMEXE
 40
6.336
  9
$DIMCEN
 40
3.168
  9
$DIMLFAC
 40
1.0
  9
$DIMBLK
  1
_FILLED
  9
$DIMTXT
 40
3.5
  9
$PDMODE
 70
3
  9
$PDSIZE
 40
0.3125
  9
$TILEMODE
 70
1
  0
ENDSEC
  0
SECTION
  2
TABLES
  0
TABLE
  2
LTYPE
 70
6
  0
LTYPE
  2
BYBLOCK
 70
0
  3

 72
65
 73
0
 40
0.0
  0
LTYPE
  2
BYLAYER
 70
0
  3

 72
65
 73
0
 40
0.0
  0
LTYPE
  2
CONTINUOUS
 70
64
  3
Solid line
 72
65
 73
0
 40
0.0
  0
LTYPE
  2
CENTER
 70
64
  3
____ _ ____ _ ____ _ ____ _ ____ _ ____ _ ____
 72
65
 73
4
 40
0.6
 49
0.375
 49
-0.075
 49
0.075
 49
-0.075
  0
LTYPE
  2
HIDDEN
 70
64
  3
- - - - - - - - - - - - - - - - - - - -
 72
65
 73
2
 40
0.2
 49
0.1
 49
-0.1
  0
LTYPE
  2
PHANTOM
 70
64
  3
_____ _ _ _____ _ _ _____ _ _ _____
 72
65
 73
6
 40
0.8
 49
0.45
 49
-0.05
 49
0.1
 49
-0.05
 49
0.1
 49
-0.05
  0
LTYPE
  2
DOT
 70
64
  3
. . . . . . . . . . . . . . . . . . . .
 72
65
 73
2
 40
0.2
 49
0.1
 49
-0.1
  0
LTYPE
  2
DASHED
 70
64
  3
- - - - - - - - - - - - - - - - - - - -
 72
65
 73
2
 40
0.2
 49
0.1
 49
-0.1
  0
ENDTAB
  0
TABLE
  2
LAYER
 70
36
  0
LAYER
  2
0
 70
0
 62
7
  6
CONTINUOUS
  0
LAYER
  2
DEFAULT_1
 70
0
 62
7
  6
CENTER
  0
LAYER
  2
DEFAULT_2
 70
0
 62
8
  6
HIDDEN
  0
LAYER
  2
DEFAULT_3
 70
0
 62
7
  6
PHANTOM
  0
LAYER
  2
1_AXIS
 70
0
 62
7
  6
CONTINUOUS
  0
LAYER
  2
1_DATUM_PLANE
 70
0
 62
7
  6
CONTINUOUS
  0
LAYER
  2
2_FEATURE
 70
0
 62
7
  6
CONTINUOUS
  0
LAYER
  2
3_ALL_SYMBOLS
 70
0
 62
7
  6
CONTINUOUS
  0
LAYER
  2
6_DIM
 70
0
 62
7
  6
CONTINUOUS
  0
LAYER
  2
6_NOTE
 70
0
 62
7
  6
CONTINUOUS
  0
LAYER
  2
AXES
 70
0
 62
7
  6
CONTINUOUS
  0
LAYER
  2
CSYS
 70
0
 62
7
  6
CONTINUOUS
  0
LAYER
  2
PLANES
 70
0
 62
7
  6
CONTINUOUS
  0
ENDTAB
  0
TABLE
  2
STYLE
 70
1
  0
STYLE
  2
STANDARD
 70
0
 40
0.0
 41
0.8
 50
0.0
 71
0
 42
0.2
  3
txt
  4

  0
STYLE
  2
TEXTSTYLE_1
 70
0
 40
0.0
 41
0.8
 50
0.0
 71
0
 42
0.2
  3
gdt
  4

  0
STYLE
  2
TEXTSTYLE_2
 70
0
 40
0.0
 41
0.6
 50
0.0
 71
0
 42
0.2
  3
txt
  4

  0
STYLE
  2
TEXTSTYLE_3
 70
0
 40
0.0
 41
1.0
 50
0.0
 71
0
 42
0.2
  3
ftb_____.ttf
  4

  0
STYLE
  2
TEXTSTYLE_4
 70
0
 40
0.0
 41
1.0
 50
0.0
 71
0
 42
0.2
  3
fti_____.ttf
  4

  0
STYLE
  2
TEXTSTYLE_5
 70
0
 40
0.0
 41
1.0
 50
0.0
 71
0
 42
0.2
  3
frutiger light.ttf
  4

  0
STYLE
  2
TEXTSTYLE_6
 70
0
 40
0.0
 41
0.7
 50
0.0
 71
0
 42
0.2
  3
txt
  4

  0
STYLE
  2
TEXTSTYLE_7
 70
0
 40
0.0
 41
0.7
 50
0.0
 71
0
 42
0.2
  3
txt
  4

  0
ENDTAB
  0
ENDSEC
  0
SECTION
  2
BLOCKS
  0
BLOCK
  8
0
 62
2
  6
CONTINUOUS
  2
SYMBOL_8_BL1
 70
64
 10
173.5956734183
 20
35.5937998301
  0
TEXT
  8
0
 62
7
  6
CONTINUOUS
 10
164.6539584268
 20
30.6865562072
  7
TEXTSTYLE_4
 40
1.0655737705
  1
The brand for plastic modular belts and chains
 41
1.0
 72
0
  0
LINE
  8
0
 62
7
  6
CONTINUOUS
 10
149.5737418074
 20
36.1675703219
 11
149.5737418074
 21
34.0364227809
  0
LINE
  8
0
 62
7
  6
CONTINUOUS
 10
149.8628043005
 20
31.0454914852
 11
149.8628043005
 21
31.1422825445
  0
LINE
  8
0
 62
7
  6
CONTINUOUS
 10
149.5737418074
 20
31.1100188581
 11
149.6315543091
 21
30.9164367395
  0
LINE
  8
0
 62
7
  6
CONTINUOUS
 10
150.9671844304
 20
33.9544555678
 11
150.9671844304
 21
36.1675703219
  0
LINE
  8
0
 62
7
  6
CONTINUOUS
 10
151.8862417523
 20
32.1101932727
 11
151.8862417523
 21
30.5937998301
  0
LINE
  8
0
 62
7
  6
CONTINUOUS
 10
152.1753043074
 20
30.5937998301
 11
152.1753043074
 21
31.3358647082
  0
LINE
  8
0
 62
7
  6
CONTINUOUS
 10
152.1753043074
 20
31.4649194539
 11
152.1753043074
 21
32.1101932727
  0
LINE
  8
0
 62
7
  6
CONTINUOUS
 10
149.6315543091
 20
31.3036010218
 11
149.5737418074
 21
31.1100188581
  0
LINE
  8
0
 62
7
  6
CONTINUOUS
 10
149.9784292936
 20
30.8841730531
 11
149.8628043005
 21
31.0454914852
  0
LINE
  8
0
 62
7
  6
CONTINUOUS
 10
151.0768668626
 20
31.400392081
 11
151.1346793074
 21
31.3036010218
  0
LINE
  8
0
 62
7
  6
CONTINUOUS
 10
151.4237418626
 20
31.3036010218
 11
151.3659292523
 21
31.4326557675
  0
LINE
  8
0
 62
7
  6
CONTINUOUS
 10
152.852430332
 20
36.1675703219
 11
152.852430332
 21
34.3642916334
  0
LINE
  8
0
 62
7
  6
CONTINUOUS
 10
152.852430332
 20
33.0528162235
 11
152.852430332
 21
32.3970785186
  0
LINE
  8
0
 62
7
  6
CONTINUOUS
 10
153.2159293074
 20
31.2390736489
 11
153.2159293074
 21
30.5937998301
  0
LINE
  8
0
 62
7
  6
CONTINUOUS
 10
153.5049916972
 20
30.5937998301
 11
153.5049916972
 21
31.2390736489
  0
LINE
  8
0
 62
7
  6
CONTINUOUS
 10
149.8628043005
 20
31.1422825445
 11
149.9206168074
 21
31.2713373354
  0
LINE
  8
0
 62
7
  6
CONTINUOUS
 10
149.6315543091
 20
30.9164367395
 11
149.7471793074
 21
30.7873819712
  0
LINE
  8
0
 62
7
  6
CONTINUOUS
 10
153.1581166972
 20
31.3681283946
 11
153.2159293074
 21
31.2390736489
  0
LINE
  8
0
 62
7
  6
CONTINUOUS
 10
153.9674919177
 20
30.8841730531
 11
154.0253041972
 21
30.7551182848
  0
LINE
  8
0
 62
7
  6
CONTINUOUS
 10
153.5049916972
 20
31.2390736489
 11
153.4471794177
 21
31.400392081
  0
LINE
  8
0
 62
7
  6
CONTINUOUS
 10
153.9674919177
 20
31.4326557675
 11
153.9674919177
 21
31.3681283946
  0
LINE
  8
0
 62
7
  6
CONTINUOUS
 10
153.9674919177
 20
30.9809641124
 11
153.9674919177
 21
30.8841730531
  0
LINE
  8
0
 62
7
  6
CONTINUOUS
 10
154.245872955
 20
32.3970785186
 11
154.245872955
 21
36.1675703219
  0
LINE
  8
0
 62
7
  6
CONTINUOUS
 10
154.2565543074
 20
30.8519093441
 11
154.2565543074
 21
30.9164367395
  0
LINE
  8
0
 62
7
  6
CONTINUOUS
 10
154.5737418074
 20
36.1675703219
 11
154.5737418074
 21
32.3970785186
  0
LINE
  8
0
 62
7
  6
CONTINUOUS
 10
151.3659292523
 20
30.7873819712
 11
151.4237418626
 21
30.9164367395
  0
LINE
  8
0
 62
7
  6
CONTINUOUS
 10
155.759679528
 20
30.6905909007
 11
155.7018665869
 21
30.8519093441
  0
LINE
  8
0
 62
7
  6
CONTINUOUS
 10
155.412804528
 20
31.3681283946
 11
155.412804528
 21
31.2713373354
  0
LINE
  8
0
 62
7
  6
CONTINUOUS
 10
155.412804528
 20
31.1422825445
 11
155.412804528
 21
30.9487004259
  0
LINE
  8
0
 62
7
  6
CONTINUOUS
 10
155.7018665869
 20
30.8519093441
 11
155.7018665869
 21
31.3681283946
  0
LINE
  8
0
 62
7
  6
CONTINUOUS
 10
155.9671844304
 20
32.3970785186
 11
155.9671844304
 21
34.2003572071
  0
LINE
  8
0
 62
7
  6
CONTINUOUS
 10
155.9671844304
 20
35.511832617
 11
155.9671844304
 21
36.1675703219
  0
LINE
  8
0
 62
7
  6
CONTINUOUS
 10
156.279992028
 20
32.1101932727
 11
156.279992028
 21
31.9488748406
  0
LINE
  8
0
 62
7
  6
CONTINUOUS
 10
156.279992028
 20
31.626237886
 11
156.279992028
 21
30.5937998301
  0
LINE
  8
0
 62
7
  6
CONTINUOUS
 10
156.5690540869
 20
30.5937998301
 11
156.5690540869
 21
31.626237886
  0
LINE
  8
0
 62
7
  6
CONTINUOUS
 10
156.5690540869
 20
31.9488748406
 11
156.5690540869
 21
32.1101932727
  0
LINE
  8
0
 62
7
  6
CONTINUOUS
 10
151.1346793074
 20
30.9164367395
 11
151.0768668626
 21
30.8196456577
  0
LINE
  8
0
 62
7
  6
CONTINUOUS
 10
153.4471794177
 20
31.400392081
 11
153.3893668074
 21
31.4649194539
  0
LINE
  8
0
 62
7
  6
CONTINUOUS
 10
154.3143669177
 20
30.7873819712
 11
154.2565543074
 21
30.8519093441
  0
LINE
  8
0
 62
7
  6
CONTINUOUS
 10
155.4706168074
 20
30.6583272086
 11
155.5284290869
 21
30.5937998301
  0
LINE
  8
0
 62
7
  6
CONTINUOUS
 10
155.412804528
 20
30.7551182848
 11
155.4706168074
 21
30.6583272086
  0
LINE
  8
0
 62
7
  6
CONTINUOUS
 10
155.8174918074
 20
30.5937998301
 11
155.759679528
 21
30.6905909007
  0
LINE
  8
0
 62
7
  6
CONTINUOUS
 10
155.7018665869
 20
31.3681283946
 11
155.6440543074
 21
31.4649194539
  0
LINE
  8
0
 62
7
  6
CONTINUOUS
 10
157.0315543074
 20
31.626237886
 11
157.0315543074
 21
30.5937998301
  0
LINE
  8
0
 62
7
  6
CONTINUOUS
 10
157.320617028
 20
30.5937998301
 11
157.320617028
 21
31.3358647082
  0
LINE
  8
0
 62
7
  6
CONTINUOUS
 10
157.320617028
 20
31.4649194539
 11
157.320617028
 21
31.626237886
  0
LINE
  8
0
 62
7
  6
CONTINUOUS
 10
157.852430332
 20
34.6101932727
 11
157.852430332
 21
32.3970785186
  0
LINE
  8
0
 62
7
  6
CONTINUOUS
 10
149.7471793074
 20
31.4326557675
 11
149.6315543091
 21
31.3036010218
  0
LINE
  8
0
 62
7
  6
CONTINUOUS
 10
149.9206168074
 20
31.2713373354
 11
149.9784292936
 21
31.3358647082
  0
LINE
  8
0
 62
7
  6
CONTINUOUS
 10
149.7471793074
 20
30.7873819712
 11
149.8628043005
 21
30.7228545871
  0
LINE
  8
0
 62
7
  6
CONTINUOUS
 10
150.1518667936
 20
30.7873819712
 11
149.9784292936
 21
30.8841730531
  0
LINE
  8
0
 62
7
  6
CONTINUOUS
 10
155.3549915869
 20
31.4326557675
 11
155.412804528
 21
31.3681283946
  0
LINE
  8
0
 62
7
  6
CONTINUOUS
 10
158.3034290869
 20
31.3681283946
 11
158.361242028
 21
31.2068099625
  0
LINE
  8
0
 62
7
  6
CONTINUOUS
 10
158.6503040869
 20
31.2068099625
 11
158.5924918074
 21
31.3681283946
  0
LINE
  8
0
 62
7
  6
CONTINUOUS
 10
158.361242028
 20
31.2068099625
 11
158.361242028
 21
30.5937998301
  0
LINE
  8
0
 62
7
  6
CONTINUOUS
 10
158.6503040869
 20
30.5937998301
 11
158.6503040869
 21
31.2068099625
  0
LINE
  8
0
 62
7
  6
CONTINUOUS
 10
159.1128043074
 20
31.4326557675
 11
159.1128043074
 21
31.3681283946
  0
LINE
  8
0
 62
7
  6
CONTINUOUS
 10
159.245872955
 20
32.3970785186
 11
159.245872955
 21
34.5282260596
  0
LINE
  8
0
 62
7
  6
CONTINUOUS
 10
159.5737418074
 20
36.1675703219
 11
159.5737418074
 21
32.3970785186
  0
LINE
  8
0
 62
7
  6
CONTINUOUS
 10
154.2565543074
 20
30.9164367395
 11
154.3143669177
 21
31.0132277988
  0
LINE
  8
0
 62
7
  6
CONTINUOUS
 10
149.8628043005
 20
30.7228545871
 11
150.0362418212
 21
30.6583272086
  0
LINE
  8
0
 62
7
  6
CONTINUOUS
 10
151.3659292523
 20
31.4326557675
 11
151.1924917523
 21
31.5294468267
  0
LINE
  8
0
 62
7
  6
CONTINUOUS
 10
154.0253041972
 20
30.7551182848
 11
154.1987416972
 21
30.6583272086
  0
LINE
  8
0
 62
7
  6
CONTINUOUS
 10
153.0424918074
 20
31.4326557675
 11
153.1581166972
 21
31.3681283946
  0
LINE
  8
0
 62
7
  6
CONTINUOUS
 10
153.3893668074
 20
31.4649194539
 11
153.2737419177
 21
31.5294468267
  0
LINE
  8
0
 62
7
  6
CONTINUOUS
 10
159.1128043074
 20
30.8519093441
 11
159.228429528
 21
30.7228545871
  0
LINE
  8
0
 62
7
  6
CONTINUOUS
 10
159.4596793074
 20
30.7873819712
 11
159.401867028
 21
30.8519093441
  0
LINE
  8
0
 62
7
  6
CONTINUOUS
 10
159.1128043074
 20
31.3681283946
 11
159.228429528
 21
31.2390736489
  0
LINE
  8
0
 62
7
  6
CONTINUOUS
 10
158.5924918074
 20
31.3681283946
 11
158.534679528
 21
31.4649194539
  0
LINE
  8
0
 62
7
  6
CONTINUOUS
 10
160.9628038663
 20
30.7873819712
 11
160.9628038663
 21
30.8519093441
  0
LINE
  8
0
 62
7
  6
CONTINUOUS
 10
160.9671844304
 20
32.3970785186
 11
160.9671844304
 21
36.1675703219
  0
LINE
  8
0
 62
7
  6
CONTINUOUS
 10
154.0253041972
 20
31.4971831403
 11
153.9674919177
 21
31.4326557675
  0
LINE
  8
0
 62
7
  6
CONTINUOUS
 10
150.9034292799
 20
31.4649194539
 11
151.0768668626
 21
31.400392081
  0
LINE
  8
0
 62
7
  6
CONTINUOUS
 10
155.6440543074
 20
31.4649194539
 11
155.5284290869
 21
31.5294468267
  0
LINE
  8
0
 62
7
  6
CONTINUOUS
 10
159.4596793074
 20
31.3036010218
 11
159.401867028
 21
31.3681283946
  0
LINE
  8
0
 62
7
  6
CONTINUOUS
 10
160.615929528
 20
30.9164367395
 11
160.6737418074
 21
30.8519093441
  0
LINE
  8
0
 62
7
  6
CONTINUOUS
 10
160.9628038663
 20
30.8519093441
 11
160.8471793074
 21
30.9809641124
  0
LINE
  8
0
 62
7
  6
CONTINUOUS
 10
160.615929528
 20
31.4326557675
 11
160.6737418074
 21
31.3681283946
  0
LINE
  8
0
 62
7
  6
CONTINUOUS
 10
160.9628038663
 20
31.3681283946
 11
160.8471793074
 21
31.4971831403
  0
LINE
  8
0
 62
7
  6
CONTINUOUS
 10
154.2565543074
 20
31.3681283946
 11
154.3143669177
 21
31.4326557675
  0
LINE
  8
0
 62
7
  6
CONTINUOUS
 10
154.0831168074
 20
31.1100188581
 11
153.9674919177
 21
30.9809641124
  0
LINE
  8
0
 62
7
  6
CONTINUOUS
 10
155.412804528
 20
30.9487004259
 11
155.3549915869
 21
30.8841730531
  0
LINE
  8
0
 62
7
  6
CONTINUOUS
 10
155.3549915869
 20
30.6905909007
 11
155.412804528
 21
30.7551182848
  0
LINE
  8
0
 62
7
  6
CONTINUOUS
 10
154.1987416972
 20
30.6583272086
 11
154.3143669177
 21
30.6260635193
  0
LINE
  8
0
 62
7
  6
CONTINUOUS
 10
151.1924917523
 20
31.5294468267
 11
150.9612418074
 21
31.5939741996
  0
LINE
  8
0
 62
7
  6
CONTINUOUS
 10
154.5456166972
 20
30.7228545871
 11
154.3143669177
 21
30.7873819712
  0
LINE
  8
0
 62
7
  6
CONTINUOUS
 10
153.2737419177
 20
31.5294468267
 11
153.1003044177
 21
31.5939741996
  0
LINE
  8
0
 62
7
  6
CONTINUOUS
 10
155.5284290869
 20
31.5294468267
 11
155.3549915869
 21
31.5939741996
  0
LINE
  8
0
 62
7
  6
CONTINUOUS
 10
158.187804528
 20
31.4326557675
 11
158.3034290869
 21
31.3681283946
  0
LINE
  8
0
 62
7
  6
CONTINUOUS
 10
158.534679528
 20
31.4649194539
 11
158.4190543074
 21
31.5294468267
  0
LINE
  8
0
 62
7
  6
CONTINUOUS
 10
150.0362418212
 20
30.6583272086
 11
150.2096793212
 21
30.6260635193
  0
LINE
  8
0
 62
7
  6
CONTINUOUS
 10
150.498741835
 20
30.7228545871
 11
150.1518667936
 21
30.7873819712
  0
LINE
  8
0
 62
7
  6
CONTINUOUS
 10
152.9268669177
 20
31.4649194539
 11
153.0424918074
 21
31.4326557675
  0
LINE
  8
0
 62
7
  6
CONTINUOUS
 10
155.239367028
 20
31.4649194539
 11
155.3549915869
 21
31.4326557675
  0
LINE
  8
0
 62
7
  6
CONTINUOUS
 10
159.575304528
 20
30.7551182848
 11
159.4596793074
 21
30.7873819712
  0
LINE
  8
0
 62
7
  6
CONTINUOUS
 10
158.0721793074
 20
31.4649194539
 11
158.187804528
 21
31.4326557675
  0
LINE
  8
0
 62
7
  6
CONTINUOUS
 10
159.228429528
 20
30.7228545871
 11
159.401867028
 21
30.6583272086
  0
LINE
  8
0
 62
7
  6
CONTINUOUS
 10
158.4190543074
 20
31.5294468267
 11
158.2456168074
 21
31.5939741996
  0
LINE
  8
0
 62
7
  6
CONTINUOUS
 10
159.6331168074
 20
31.2390736489
 11
159.4596793074
 21
31.3036010218
  0
LINE
  8
0
 62
7
  6
CONTINUOUS
 10
160.442492028
 20
30.9809641124
 11
160.615929528
 21
30.9164367395
  0
LINE
  8
0
 62
7
  6
CONTINUOUS
 10
160.8471793074
 20
31.4971831403
 11
160.6737418074
 21
31.5617105132
  0
LINE
  8
0
 62
7
  6
CONTINUOUS
 10
159.228429528
 20
31.2390736489
 11
159.4596793074
 21
31.1422825445
  0
LINE
  8
0
 62
7
  6
CONTINUOUS
 10
160.8471793074
 20
30.9809641124
 11
160.615929528
 21
31.0777551716
  0
LINE
  8
0
 62
7
  6
CONTINUOUS
 10
159.401867028
 20
31.3681283946
 11
159.4596793074
 21
31.4326557675
  0
LINE
  8
0
 62
7
  6
CONTINUOUS
 10
149.8628043005
 20
31.4971831403
 11
149.7471793074
 21
31.4326557675
  0
LINE
  8
0
 62
7
  6
CONTINUOUS
 10
149.9784292936
 20
31.3358647082
 11
150.1518667936
 21
31.4326557675
  0
LINE
  8
0
 62
7
  6
CONTINUOUS
 10
152.2909293626
 20
31.5294468267
 11
152.1753043074
 21
31.4649194539
  0
LINE
  8
0
 62
7
  6
CONTINUOUS
 10
152.1753043074
 20
31.3358647082
 11
152.2909293626
 21
31.400392081
  0
LINE
  8
0
 62
7
  6
CONTINUOUS
 10
151.1924917523
 20
30.6905909007
 11
151.3659292523
 21
30.7873819712
  0
LINE
  8
0
 62
7
  6
CONTINUOUS
 10
150.2096793212
 20
30.6260635193
 11
150.5565542799
 21
30.5937998301
  0
LINE
  8
0
 62
7
  6
CONTINUOUS
 10
154.3143669177
 20
30.6260635193
 11
154.5456166972
 21
30.5937998301
  0
LINE
  8
0
 62
7
  6
CONTINUOUS
 10
152.6956168074
 20
31.4971831403
 11
152.9268669177
 21
31.4649194539
  0
LINE
  8
0
 62
7
  6
CONTINUOUS
 10
155.0081169177
 20
31.4971831403
 11
155.239367028
 21
31.4649194539
  0
LINE
  8
0
 62
7
  6
CONTINUOUS
 10
159.4596793074
 20
31.1422825445
 11
160.442492028
 21
30.9809641124
  0
LINE
  8
0
 62
7
  6
CONTINUOUS
 10
160.615929528
 20
31.0777551716
 11
159.6331168074
 21
31.2390736489
  0
LINE
  8
0
 62
7
  6
CONTINUOUS
 10
153.1003044177
 20
31.5939741996
 11
152.9268669177
 21
31.626237886
  0
LINE
  8
0
 62
7
  6
CONTINUOUS
 10
159.401867028
 20
30.6583272086
 11
159.575304528
 21
30.6260635193
  0
LINE
  8
0
 62
7
  6
CONTINUOUS
 10
158.2456168074
 20
31.5939741996
 11
158.0721793074
 21
31.626237886
  0
LINE
  8
0
 62
7
  6
CONTINUOUS
 10
160.5003043074
 20
31.4649194539
 11
160.615929528
 21
31.4326557675
  0
LINE
  8
0
 62
7
  6
CONTINUOUS
 10
160.6737418074
 20
30.8519093441
 11
160.615929528
 21
30.7873819712
  0
LINE
  8
0
 62
7
  6
CONTINUOUS
 10
159.228429528
 20
31.5294468267
 11
159.1128043074
 21
31.4326557675
  0
LINE
  8
0
 62
7
  6
CONTINUOUS
 10
154.1409294177
 20
31.5617105132
 11
154.0253041972
 21
31.4971831403
  0
LINE
  8
0
 62
7
  6
CONTINUOUS
 10
154.1987416972
 20
31.1745462761
 11
154.0831168074
 21
31.1100188581
  0
LINE
  8
0
 62
7
  6
CONTINUOUS
 10
154.3143669177
 20
31.0132277988
 11
154.4299918074
 21
31.0777551716
  0
LINE
  8
0
 62
7
  6
CONTINUOUS
 10
151.8862417523
 20
30.5937998301
 11
152.1753043074
 21
30.5937998301
  0
LINE
  8
0
 62
7
  6
CONTINUOUS
 10
153.2159293074
 20
30.5937998301
 11
153.5049916972
 21
30.5937998301
  0
LINE
  8
0
 62
7
  6
CONTINUOUS
 10
154.5456166972
 20
30.5937998301
 11
154.8924916972
 21
30.5937998301
  0
LINE
  8
0
 62
7
  6
CONTINUOUS
 10
155.5284290869
 20
30.5937998301
 11
155.8174918074
 21
30.5937998301
  0
LINE
  8
0
 62
7
  6
CONTINUOUS
 10
156.279992028
 20
30.5937998301
 11
156.5690540869
 21
30.5937998301
  0
LINE
  8
0
 62
7
  6
CONTINUOUS
 10
157.0315543074
 20
30.5937998301
 11
157.320617028
 21
30.5937998301
  0
LINE
  8
0
 62
7
  6
CONTINUOUS
 10
158.361242028
 20
30.5937998301
 11
158.6503040869
 21
30.5937998301
  0
LINE
  8
0
 62
7
  6
CONTINUOUS
 10
159.922179528
 20
30.5937998301
 11
160.269054528
 21
30.5937998301
  0
LINE
  8
0
 62
7
  6
CONTINUOUS
 10
160.269054528
 20
30.7228545871
 11
159.922179528
 21
30.7228545871
  0
LINE
  8
0
 62
7
  6
CONTINUOUS
 10
154.8924916972
 20
30.7228545871
 11
154.5456166972
 21
30.7228545871
  0
LINE
  8
0
 62
7
  6
CONTINUOUS
 10
159.401867028
 20
30.8519093441
 11
159.1128043074
 21
30.8519093441
  0
LINE
  8
0
 62
7
  6
CONTINUOUS
 10
151.4237418626
 20
30.9164367395
 11
151.1346793074
 21
30.9164367395
  0
LINE
  8
0
 62
7
  6
CONTINUOUS
 10
150.498741835
 20
31.4971831403
 11
150.9034292799
 21
31.4649194539
  0
LINE
  8
0
 62
7
  6
CONTINUOUS
 10
150.9612418074
 20
31.5939741996
 11
150.5565542799
 21
31.626237886
  0
LINE
  8
0
 62
7
  6
CONTINUOUS
 10
159.575304528
 20
30.6260635193
 11
159.922179528
 21
30.5937998301
  0
LINE
  8
0
 62
7
  6
CONTINUOUS
 10
159.922179528
 20
30.7228545871
 11
159.575304528
 21
30.7551182848
  0
LINE
  8
0
 62
7
  6
CONTINUOUS
 10
155.3549915869
 20
31.5939741996
 11
155.0081169177
 21
31.626237886
  0
LINE
  8
0
 62
7
  6
CONTINUOUS
 10
160.1534293074
 20
31.4971831403
 11
160.5003043074
 21
31.4649194539
  0
LINE
  8
0
 62
7
  6
CONTINUOUS
 10
160.5003043074
 20
31.5939741996
 11
160.1534293074
 21
31.626237886
  0
LINE
  8
0
 62
7
  6
CONTINUOUS
 10
157.840929528
 20
31.4971831403
 11
158.0721793074
 21
31.4649194539
  0
LINE
  8
0
 62
7
  6
CONTINUOUS
 10
160.6737418074
 20
31.5617105132
 11
160.5003043074
 21
31.5939741996
  0
LINE
  8
0
 62
7
  6
CONTINUOUS
 10
160.8471793074
 20
30.6905909007
 11
160.9628038663
 21
30.7873819712
  0
LINE
  8
0
 62
7
  6
CONTINUOUS
 10
155.3549915869
 20
30.8841730531
 11
155.1815540869
 21
30.7873819712
  0
LINE
  8
0
 62
7
  6
CONTINUOUS
 10
157.4362415869
 20
31.5294468267
 11
157.320617028
 21
31.4649194539
  0
LINE
  8
0
 62
7
  6
CONTINUOUS
 10
157.320617028
 20
31.3358647082
 11
157.4362415869
 21
31.400392081
  0
LINE
  8
0
 62
7
  6
CONTINUOUS
 10
150.0362418212
 20
31.5617105132
 11
149.8628043005
 21
31.4971831403
  0
LINE
  8
0
 62
7
  6
CONTINUOUS
 10
152.4643666972
 20
31.5939741996
 11
152.2909293626
 21
31.5294468267
  0
LINE
  8
0
 62
7
  6
CONTINUOUS
 10
152.2909293626
 20
31.400392081
 11
152.4643666972
 21
31.4649194539
  0
LINE
  8
0
 62
7
  6
CONTINUOUS
 10
151.0768668626
 20
30.8196456577
 11
150.9034292799
 21
30.7551182848
  0
LINE
  8
0
 62
7
  6
CONTINUOUS
 10
160.5003043074
 20
30.7551182848
 11
160.269054528
 21
30.7228545871
  0
LINE
  8
0
 62
7
  6
CONTINUOUS
 10
154.8924916972
 20
30.5937998301
 11
155.1815540869
 21
30.6260635193
  0
LINE
  8
0
 62
7
  6
CONTINUOUS
 10
160.269054528
 20
30.5937998301
 11
160.615929528
 21
30.6260635193
  0
LINE
  8
0
 62
7
  6
CONTINUOUS
 10
150.5565542799
 20
30.5937998301
 11
150.9612418074
 21
30.6260635193
  0
LINE
  8
0
 62
7
  6
CONTINUOUS
 10
150.9034292799
 20
30.7551182848
 11
150.498741835
 21
30.7228545871
  0
LINE
  8
0
 62
7
  6
CONTINUOUS
 10
154.7768668074
 20
31.1422825445
 11
155.412804528
 21
31.1422825445
  0
LINE
  8
0
 62
7
  6
CONTINUOUS
 10
155.412804528
 20
31.2713373354
 11
154.7768668074
 21
31.2713373354
  0
LINE
  8
0
 62
7
  6
CONTINUOUS
 10
151.1346793074
 20
31.3036010218
 11
151.4237418626
 21
31.3036010218
  0
LINE
  8
0
 62
7
  6
CONTINUOUS
 10
153.9674919177
 20
31.3681283946
 11
154.2565543074
 21
31.3681283946
  0
LINE
  8
0
 62
7
  6
CONTINUOUS
 10
160.6737418074
 20
31.3681283946
 11
160.9628038663
 21
31.3681283946
  0
LINE
  8
0
 62
7
  6
CONTINUOUS
 10
154.6612419177
 20
31.4971831403
 11
155.0081169177
 21
31.4971831403
  0
LINE
  8
0
 62
7
  6
CONTINUOUS
 10
159.8065543074
 20
31.4971831403
 11
160.1534293074
 21
31.4971831403
  0
LINE
  8
0
 62
7
  6
CONTINUOUS
 10
160.1534293074
 20
31.626237886
 11
159.8065543074
 21
31.626237886
  0
LINE
  8
0
 62
7
  6
CONTINUOUS
 10
158.0721793074
 20
31.626237886
 11
157.840929528
 21
31.626237886
  0
LINE
  8
0
 62
7
  6
CONTINUOUS
 10
157.320617028
 20
31.626237886
 11
157.0315543074
 21
31.626237886
  0
LINE
  8
0
 62
7
  6
CONTINUOUS
 10
156.5690540869
 20
31.626237886
 11
156.279992028
 21
31.626237886
  0
LINE
  8
0
 62
7
  6
CONTINUOUS
 10
155.0081169177
 20
31.626237886
 11
154.6612419177
 21
31.626237886
  0
LINE
  8
0
 62
7
  6
CONTINUOUS
 10
152.9268669177
 20
31.626237886
 11
152.6956168074
 21
31.626237886
  0
LINE
  8
0
 62
7
  6
CONTINUOUS
 10
156.279992028
 20
31.9488748406
 11
156.5690540869
 21
31.9488748406
  0
LINE
  8
0
 62
7
  6
CONTINUOUS
 10
156.5690540869
 20
32.1101932727
 11
156.279992028
 21
32.1101932727
  0
LINE
  8
0
 62
7
  6
CONTINUOUS
 10
152.1753043074
 20
32.1101932727
 11
151.8862417523
 21
32.1101932727
  0
LINE
  8
0
 62
7
  6
CONTINUOUS
 10
151.2130860697
 20
32.3970785186
 11
151.6256574183
 21
32.3970785186
  0
LINE
  8
0
 62
7
  6
CONTINUOUS
 10
152.852430332
 20
32.3970785186
 11
154.245872955
 21
32.3970785186
  0
LINE
  8
0
 62
7
  6
CONTINUOUS
 10
154.5737418074
 20
32.3970785186
 11
155.9671844304
 21
32.3970785186
  0
LINE
  8
0
 62
7
  6
CONTINUOUS
 10
157.852430332
 20
32.3970785186
 11
159.245872955
 21
32.3970785186
  0
LINE
  8
0
 62
7
  6
CONTINUOUS
 10
159.5737418074
 20
32.3970785186
 11
160.9671844304
 21
32.3970785186
  0
LINE
  8
0
 62
7
  6
CONTINUOUS
 10
157.6096790869
 20
31.5939741996
 11
157.4362415869
 21
31.5294468267
  0
LINE
  8
0
 62
7
  6
CONTINUOUS
 10
155.1815540869
 20
30.6260635193
 11
155.3549915869
 21
30.6905909007
  0
LINE
  8
0
 62
7
  6
CONTINUOUS
 10
160.615929528
 20
30.6260635193
 11
160.8471793074
 21
30.6905909007
  0
LINE
  8
0
 62
7
  6
CONTINUOUS
 10
160.615929528
 20
30.7873819712
 11
160.5003043074
 21
30.7551182848
  0
LINE
  8
0
 62
7
  6
CONTINUOUS
 10
159.575304528
 20
31.4649194539
 11
159.8065543074
 21
31.4971831403
  0
LINE
  8
0
 62
7
  6
CONTINUOUS
 10
157.6096790869
 20
31.4649194539
 11
157.840929528
 21
31.4971831403
  0
LINE
  8
0
 62
7
  6
CONTINUOUS
 10
154.5456166972
 20
31.1100188581
 11
154.7768668074
 21
31.1422825445
  0
LINE
  8
0
 62
7
  6
CONTINUOUS
 10
157.840929528
 20
31.626237886
 11
157.6096790869
 21
31.5939741996
  0
LINE
  8
0
 62
7
  6
CONTINUOUS
 10
154.4299918074
 20
31.4649194539
 11
154.6612419177
 21
31.4971831403
  0
LINE
  8
0
 62
7
  6
CONTINUOUS
 10
159.8065543074
 20
31.626237886
 11
159.4596793074
 21
31.5939741996
  0
LINE
  8
0
 62
7
  6
CONTINUOUS
 10
154.7768668074
 20
31.2713373354
 11
154.4299918074
 21
31.2390736489
  0
LINE
  8
0
 62
7
  6
CONTINUOUS
 10
150.5565542799
 20
31.626237886
 11
150.2096793212
 21
31.5939741996
  0
LINE
  8
0
 62
7
  6
CONTINUOUS
 10
154.6612419177
 20
31.626237886
 11
154.2565543074
 21
31.5939741996
  0
LINE
  8
0
 62
7
  6
CONTINUOUS
 10
152.0327582009
 20
33.5446195022
 11
151.3770204959
 21
33.5446195022
  0
LINE
  8
0
 62
7
  6
CONTINUOUS
 10
157.4362415869
 20
31.400392081
 11
157.6096790869
 21
31.4649194539
  0
LINE
  8
0
 62
7
  6
CONTINUOUS
 10
159.4596793074
 20
31.4326557675
 11
159.575304528
 21
31.4649194539
  0
LINE
  8
0
 62
7
  6
CONTINUOUS
 10
159.4596793074
 20
31.5939741996
 11
159.228429528
 21
31.5294468267
  0
LINE
  8
0
 62
7
  6
CONTINUOUS
 10
155.1815540869
 20
30.7873819712
 11
154.8924916972
 21
30.7228545871
  0
LINE
  8
0
 62
7
  6
CONTINUOUS
 10
152.4643666972
 20
31.4649194539
 11
152.6956168074
 21
31.4971831403
  0
LINE
  8
0
 62
7
  6
CONTINUOUS
 10
152.6956168074
 20
31.626237886
 11
152.4643666972
 21
31.5939741996
  0
LINE
  8
0
 62
7
  6
CONTINUOUS
 10
150.2674918074
 20
31.4649194539
 11
150.498741835
 21
31.4971831403
  0
LINE
  8
0
 62
7
  6
CONTINUOUS
 10
156.7868565615
 20
35.0200293383
 11
157.4425942664
 21
35.0200293383
  0
LINE
  8
0
 62
7
  6
CONTINUOUS
 10
154.4299918074
 20
31.0777551716
 11
154.5456166972
 21
31.1100188581
  0
LINE
  8
0
 62
7
  6
CONTINUOUS
 10
154.4299918074
 20
31.2390736489
 11
154.1987416972
 21
31.1745462761
  0
LINE
  8
0
 62
7
  6
CONTINUOUS
 10
154.3143669177
 20
31.4326557675
 11
154.4299918074
 21
31.4649194539
  0
LINE
  8
0
 62
7
  6
CONTINUOUS
 10
150.9612418074
 20
30.6260635193
 11
151.1924917523
 21
30.6905909007
  0
LINE
  8
0
 62
7
  6
CONTINUOUS
 10
154.2565543074
 20
31.5939741996
 11
154.1409294177
 21
31.5617105132
  0
LINE
  8
0
 62
7
  6
CONTINUOUS
 10
150.2096793212
 20
31.5939741996
 11
150.0362418212
 21
31.5617105132
  0
LINE
  8
0
 62
7
  6
CONTINUOUS
 10
160.9671844304
 20
36.1675703219
 11
159.5737418074
 21
36.1675703219
  0
LINE
  8
0
 62
7
  6
CONTINUOUS
 10
157.6065286927
 20
36.1675703219
 11
157.1939573441
 21
36.1675703219
  0
LINE
  8
0
 62
7
  6
CONTINUOUS
 10
155.9671844304
 20
36.1675703219
 11
154.5737418074
 21
36.1675703219
  0
LINE
  8
0
 62
7
  6
CONTINUOUS
 10
154.245872955
 20
36.1675703219
 11
152.852430332
 21
36.1675703219
  0
LINE
  8
0
 62
7
  6
CONTINUOUS
 10
150.9671844304
 20
36.1675703219
 11
149.5737418074
 21
36.1675703219
  0
LINE
  8
0
 62
7
  6
CONTINUOUS
 10
150.1518667936
 20
31.4326557675
 11
150.2674918074
 21
31.4649194539
  0
CIRCLE
  8
0
 62
7
  6
CONTINUOUS
 10
160.2704631189
 20
38.5036358957
 40
2.0901639344
  0
ARC
  8
0
 62
7
  6
CONTINUOUS
 10
151.2130860697
 20
34.0364227809
 40
1.6393442623
 50
180.0
 51
270.0
  0
ARC
  8
0
 62
7
  6
CONTINUOUS
 10
157.6065286927
 20
34.5282260596
 40
1.6393442623
 50
0.0
 51
90.0
  0
ARC
  8
0
 62
7
  6
CONTINUOUS
 10
151.6256574183
 20
33.8724883547
 40
1.4754098361
 50
270.0
 51
326.2510114041
  0
ARC
  8
0
 62
7
  6
CONTINUOUS
 10
157.1939573441
 20
34.6921604858
 40
1.4754098361
 50
90.0
 51
146.2510114041
  0
ARC
  8
0
 62
7
  6
CONTINUOUS
 10
152.0327582009
 20
34.3642916334
 40
0.8196721311
 50
270.0
 51
360.0
  0
ARC
  8
0
 62
7
  6
CONTINUOUS
 10
156.7868565615
 20
34.2003572071
 40
0.8196721311
 50
90.0
 51
180.0
  0
ARC
  8
0
 62
7
  6
CONTINUOUS
 10
151.3770204959
 20
33.9544555678
 40
0.4098360656
 50
180.0
 51
270.0
  0
ARC
  8
0
 62
7
  6
CONTINUOUS
 10
157.4425942664
 20
34.6101932727
 40
0.4098360656
 50
0.0
 51
90.0
  0
SOLID
  8
0
 62
7
  6
CONTINUOUS
 10
156.279992028
 20
31.9488752009
 11
156.279992028
 21
32.1101936845
 12
156.5690540869
 22
31.9488752009
 13
156.5690540869
 23
32.1101936845
  0
SOLID
  8
0
 62
7
  6
CONTINUOUS
 10
150.5565542799
 20
31.6262382337
 11
150.9612418074
 21
31.5939740028
 12
150.2096793212
 22
31.5939740028
 13
150.2096793212
 23
31.5939740028
  0
SOLID
  8
0
 62
7
  6
CONTINUOUS
 10
150.0362418212
 20
31.5617111435
 11
150.2096793212
 21
31.5939740028
 12
150.9612418074
 22
31.5939740028
 13
150.9612418074
 23
31.5939740028
  0
SOLID
  8
0
 62
7
  6
CONTINUOUS
 10
150.9612418074
 20
31.5939740028
 11
151.1924917523
 21
31.5294468402
 12
150.0362418212
 22
31.5617111435
 13
150.0362418212
 23
31.5617111435
  0
SOLID
  8
0
 62
7
  6
CONTINUOUS
 10
149.8628043005
 20
31.49718259
 11
150.0362418212
 21
31.5617111435
 12
151.1924917523
 22
31.5294468402
 13
151.1924917523
 23
31.5294468402
  0
SOLID
  8
0
 62
7
  6
CONTINUOUS
 10
149.8628043005
 20
31.49718259
 11
151.1924917523
 21
31.5294468402
 12
150.498741835
 22
31.49718259
 13
150.498741835
 23
31.49718259
  0
SOLID
  8
0
 62
7
  6
CONTINUOUS
 10
150.498741835
 20
31.49718259
 11
151.1924917523
 21
31.5294468402
 12
150.9034292799
 22
31.4649197501
 13
150.9034292799
 23
31.4649197501
  0
SOLID
  8
0
 62
7
  6
CONTINUOUS
 10
151.1924917523
 20
31.5294468402
 11
151.3659292523
 21
31.4326554468
 12
150.9034292799
 22
31.4649197501
 13
150.9034292799
 23
31.4649197501
  0
SOLID
  8
0
 62
7
  6
CONTINUOUS
 10
151.0768668626
 20
31.4003926599
 11
150.9034292799
 21
31.4649197501
 12
151.3659292523
 22
31.4326554468
 13
151.3659292523
 23
31.4326554468
  0
SOLID
  8
0
 62
7
  6
CONTINUOUS
 10
151.0768668626
 20
31.4003926599
 11
151.3659292523
 21
31.4326554468
 12
151.1346793074
 22
31.3036013776
 13
151.1346793074
 23
31.3036013776
  0
SOLID
  8
0
 62
7
  6
CONTINUOUS
 10
151.3659292523
 20
31.4326554468
 11
151.4237418626
 21
31.3036013776
 12
151.1346793074
 22
31.3036013776
 13
151.1346793074
 23
31.3036013776
  0
SOLID
  8
0
 62
7
  6
CONTINUOUS
 10
152.4643666972
 20
31.5939739754
 11
152.6956168074
 21
31.6262382787
 12
152.9268669177
 22
31.6262382787
 13
152.9268669177
 23
31.6262382787
  0
SOLID
  8
0
 62
7
  6
CONTINUOUS
 10
152.9268669177
 20
31.6262382787
 11
153.1003044177
 21
31.5939739754
 12
152.4643666972
 22
31.5939739754
 13
152.4643666972
 23
31.5939739754
  0
SOLID
  8
0
 62
7
  6
CONTINUOUS
 10
152.2909293626
 20
31.5294468852
 11
152.4643666972
 21
31.5939739754
 12
153.1003044177
 22
31.5939739754
 13
153.1003044177
 23
31.5939739754
  0
SOLID
  8
0
 62
7
  6
CONTINUOUS
 10
153.1003044177
 20
31.5939739754
 11
153.2737419177
 21
31.5294468852
 12
152.2909293626
 22
31.5294468852
 13
152.2909293626
 23
31.5294468852
  0
SOLID
  8
0
 62
7
  6
CONTINUOUS
 10
153.2737419177
 20
31.5294468852
 11
152.6956168074
 21
31.4971825369
 12
152.2909293626
 22
31.5294468852
 13
152.2909293626
 23
31.5294468852
  0
SOLID
  8
0
 62
7
  6
CONTINUOUS
 10
152.1753043074
 20
31.4649197951
 11
152.2909293626
 21
31.5294468852
 12
152.6956168074
 22
31.4971825369
 13
152.6956168074
 23
31.4971825369
  0
SOLID
  8
0
 62
7
  6
CONTINUOUS
 10
152.6956168074
 20
31.4971825369
 11
152.4643666972
 21
31.4649197951
 12
152.1753043074
 22
31.4649197951
 13
152.1753043074
 23
31.4649197951
  0
SOLID
  8
0
 62
7
  6
CONTINUOUS
 10
152.6956168074
 20
31.4971825369
 11
153.2737419177
 21
31.5294468852
 12
152.9268669177
 22
31.4649197951
 13
152.9268669177
 23
31.4649197951
  0
SOLID
  8
0
 62
7
  6
CONTINUOUS
 10
153.2737419177
 20
31.5294468852
 11
153.3893668074
 21
31.4649197951
 12
152.9268669177
 22
31.4649197951
 13
152.9268669177
 23
31.4649197951
  0
SOLID
  8
0
 62
7
  6
CONTINUOUS
 10
153.0424918074
 20
31.4326554468
 11
152.9268669177
 21
31.4649197951
 12
153.3893668074
 22
31.4649197951
 13
153.3893668074
 23
31.4649197951
  0
SOLID
  8
0
 62
7
  6
CONTINUOUS
 10
153.3893668074
 20
31.4649197951
 11
153.4471794177
 21
31.4003927049
 12
153.0424918074
 22
31.4326554468
 13
153.0424918074
 23
31.4326554468
  0
SOLID
  8
0
 62
7
  6
CONTINUOUS
 10
153.1581166972
 20
31.3681283566
 11
153.0424918074
 21
31.4326554468
 12
153.4471794177
 22
31.4003927049
 13
153.4471794177
 23
31.4003927049
  0
SOLID
  8
0
 62
7
  6
CONTINUOUS
 10
153.1581166972
 20
31.3681283566
 11
153.4471794177
 21
31.4003927049
 12
153.2159293074
 22
31.2390742213
 13
153.2159293074
 23
31.2390742213
  0
SOLID
  8
0
 62
7
  6
CONTINUOUS
 10
153.4471794177
 20
31.4003927049
 11
153.5049916972
 21
31.2390742213
 12
153.2159293074
 22
31.2390742213
 13
153.2159293074
 23
31.2390742213
  0
SOLID
  8
0
 62
7
  6
CONTINUOUS
 10
152.4643666972
 20
31.4649197951
 11
152.2909293626
 21
31.4003927049
 12
152.1753043074
 22
31.4649197951
 13
152.1753043074
 23
31.4649197951
  0
SOLID
  8
0
 62
7
  6
CONTINUOUS
 10
152.2909293626
 20
31.4003927049
 11
152.1753043074
 21
31.3358640533
 12
152.1753043074
 22
31.4649197951
 13
152.1753043074
 23
31.4649197951
  0
SOLID
  8
0
 62
7
  6
CONTINUOUS
 10
152.1753043074
 20
31.3358640533
 11
151.8862417523
 21
30.5938002869
 12
152.1753043074
 22
31.4649197951
 13
152.1753043074
 23
31.4649197951
  0
SOLID
  8
0
 62
7
  6
CONTINUOUS
 10
152.1753043074
 20
31.4649197951
 11
151.8862417523
 21
30.5938002869
 12
152.1753043074
 22
32.1101937295
 13
152.1753043074
 23
32.1101937295
  0
SOLID
  8
0
 62
7
  6
CONTINUOUS
 10
151.8862417523
 20
30.5938002869
 11
151.8862417523
 21
32.1101937295
 12
152.1753043074
 22
32.1101937295
 13
152.1753043074
 23
32.1101937295
  0
SOLID
  8
0
 62
7
  6
CONTINUOUS
 10
152.1753043074
 20
31.3358640533
 11
152.1753043074
 21
30.5938002869
 12
151.8862417523
 22
30.5938002869
 13
151.8862417523
 23
30.5938002869
  0
SOLID
  8
0
 62
7
  6
CONTINUOUS
 10
153.2159293074
 20
30.5938002869
 11
153.2159293074
 21
31.2390742213
 12
153.5049916972
 22
31.2390742213
 13
153.5049916972
 23
31.2390742213
  0
SOLID
  8
0
 62
7
  6
CONTINUOUS
 10
153.5049916972
 20
31.2390742213
 11
153.5049916972
 21
30.5938002869
 12
153.2159293074
 22
30.5938002869
 13
153.2159293074
 23
30.5938002869
  0
SOLID
  8
0
 62
7
  6
CONTINUOUS
 10
154.2565543074
 20
31.5939738288
 11
154.6612419177
 21
31.6262385959
 12
155.0081169177
 22
31.6262385959
 13
155.0081169177
 23
31.6262385959
  0
SOLID
  8
0
 62
7
  6
CONTINUOUS
 10
155.0081169177
 20
31.6262385959
 11
155.3549915869
 21
31.5939738288
 12
154.2565543074
 22
31.5939738288
 13
154.2565543074
 23
31.5939738288
  0
SOLID
  8
0
 62
7
  6
CONTINUOUS
 10
154.1409294177
 20
31.5617111435
 11
154.2565543074
 21
31.5939738288
 12
155.3549915869
 22
31.5939738288
 13
155.3549915869
 23
31.5939738288
  0
SOLID
  8
0
 62
7
  6
CONTINUOUS
 10
155.3549915869
 20
31.5939738288
 11
155.5284290869
 21
31.5294468402
 12
154.1409294177
 22
31.5617111435
 13
154.1409294177
 23
31.5617111435
  0
SOLID
  8
0
 62
7
  6
CONTINUOUS
 10
154.0253041972
 20
31.4971826249
 11
154.1409294177
 21
31.5617111435
 12
155.5284290869
 22
31.5294468402
 13
155.5284290869
 23
31.5294468402
  0
SOLID
  8
0
 62
7
  6
CONTINUOUS
 10
154.0253041972
 20
31.4971826249
 11
155.5284290869
 21
31.5294468402
 12
154.6612419177
 22
31.4971826249
 13
154.6612419177
 23
31.4971826249
  0
SOLID
  8
0
 62
7
  6
CONTINUOUS
 10
154.6612419177
 20
31.4971826249
 11
155.5284290869
 21
31.5294468402
 12
155.0081169177
 22
31.4971826249
 13
155.0081169177
 23
31.4971826249
  0
SOLID
  8
0
 62
7
  6
CONTINUOUS
 10
155.0081169177
 20
31.4971826249
 11
155.5284290869
 21
31.5294468402
 12
155.239367028
 22
31.4649194065
 13
155.239367028
 23
31.4649194065
  0
SOLID
  8
0
 62
7
  6
CONTINUOUS
 10
155.5284290869
 20
31.5294468402
 11
155.6440543074
 21
31.4649194065
 12
155.239367028
 22
31.4649194065
 13
155.239367028
 23
31.4649194065
  0
SOLID
  8
0
 62
7
  6
CONTINUOUS
 10
153.9674919177
 20
31.4326554138
 11
154.0253041972
 21
31.4971826249
 12
154.6612419177
 22
31.4971826249
 13
154.6612419177
 23
31.4971826249
  0
SOLID
  8
0
 62
7
  6
CONTINUOUS
 10
155.3549915869
 20
31.4326554138
 11
155.239367028
 21
31.4649194065
 12
155.6440543074
 22
31.4649194065
 13
155.6440543074
 23
31.4649194065
  0
SOLID
  8
0
 62
7
  6
CONTINUOUS
 10
155.3549915869
 20
31.4326554138
 11
155.6440543074
 21
31.4649194065
 12
155.412804528
 22
31.3681282026
 13
155.412804528
 23
31.3681282026
  0
SOLID
  8
0
 62
7
  6
CONTINUOUS
 10
155.6440543074
 20
31.4649194065
 11
155.7018665869
 21
31.3681282026
 12
155.412804528
 22
31.3681282026
 13
155.412804528
 23
31.3681282026
  0
SOLID
  8
0
 62
7
  6
CONTINUOUS
 10
155.412804528
 20
31.2713369632
 11
155.412804528
 21
31.3681282026
 12
155.7018665869
 22
31.3681282026
 13
155.7018665869
 23
31.3681282026
  0
SOLID
  8
0
 62
7
  6
CONTINUOUS
 10
155.412804528
 20
31.2713369632
 11
155.7018665869
 21
31.3681282026
 12
155.412804528
 22
31.1422827828
 13
155.412804528
 23
31.1422827828
  0
SOLID
  8
0
 62
7
  6
CONTINUOUS
 10
155.412804528
 20
31.1422827828
 11
155.7018665869
 21
31.3681282026
 12
155.412804528
 22
30.9487004259
 13
155.412804528
 23
30.9487004259
  0
SOLID
  8
0
 62
7
  6
CONTINUOUS
 10
155.7018665869
 20
31.3681282026
 11
155.7018665869
 21
30.8519086025
 12
155.412804528
 22
30.9487004259
 13
155.412804528
 23
30.9487004259
  0
SOLID
  8
0
 62
7
  6
CONTINUOUS
 10
157.6096790869
 20
31.5939736268
 11
157.840929528
 21
31.6262383465
 12
158.0721793074
 22
31.6262383465
 13
158.0721793074
 23
31.6262383465
  0
SOLID
  8
0
 62
7
  6
CONTINUOUS
 10
158.0721793074
 20
31.6262383465
 11
158.2456168074
 21
31.5939736268
 12
157.6096790869
 22
31.5939736268
 13
157.6096790869
 23
31.5939736268
  0
SOLID
  8
0
 62
7
  6
CONTINUOUS
 10
157.4362415869
 20
31.5294472848
 11
157.6096790869
 21
31.5939736268
 12
158.2456168074
 22
31.5939736268
 13
158.2456168074
 23
31.5939736268
  0
SOLID
  8
0
 62
7
  6
CONTINUOUS
 10
158.2456168074
 20
31.5939736268
 11
158.4190543074
 21
31.5294472848
 12
157.4362415869
 22
31.5294472848
 13
157.4362415869
 23
31.5294472848
  0
SOLID
  8
0
 62
7
  6
CONTINUOUS
 10
158.4190543074
 20
31.5294472848
 11
157.840929528
 21
31.4971825369
 12
157.4362415869
 22
31.5294472848
 13
157.4362415869
 23
31.5294472848
  0
SOLID
  8
0
 62
7
  6
CONTINUOUS
 10
157.320617028
 20
31.4649199103
 11
157.4362415869
 21
31.5294472848
 12
157.840929528
 22
31.4971825369
 13
157.840929528
 23
31.4971825369
  0
SOLID
  8
0
 62
7
  6
CONTINUOUS
 10
157.840929528
 20
31.4971825369
 11
157.6096790869
 21
31.4649199103
 12
157.320617028
 22
31.4649199103
 13
157.320617028
 23
31.4649199103
  0
SOLID
  8
0
 62
7
  6
CONTINUOUS
 10
157.840929528
 20
31.4971825369
 11
158.4190543074
 21
31.5294472848
 12
158.0721793074
 22
31.4649199103
 13
158.0721793074
 23
31.4649199103
  0
SOLID
  8
0
 62
7
  6
CONTINUOUS
 10
158.4190543074
 20
31.5294472848
 11
158.534679528
 21
31.4649199103
 12
158.0721793074
 22
31.4649199103
 13
158.0721793074
 23
31.4649199103
  0
SOLID
  8
0
 62
7
  6
CONTINUOUS
 10
158.187804528
 20
31.4326554468
 11
158.0721793074
 21
31.4649199103
 12
158.534679528
 22
31.4649199103
 13
158.534679528
 23
31.4649199103
  0
SOLID
  8
0
 62
7
  6
CONTINUOUS
 10
158.187804528
 20
31.4326554468
 11
158.534679528
 21
31.4649199103
 12
158.3034290869
 22
31.3681288486
 13
158.3034290869
 23
31.3681288486
  0
SOLID
  8
0
 62
7
  6
CONTINUOUS
 10
158.534679528
 20
31.4649199103
 11
158.5924918074
 21
31.3681288486
 12
158.3034290869
 22
31.3681288486
 13
158.3034290869
 23
31.3681288486
  0
SOLID
  8
0
 62
7
  6
CONTINUOUS
 10
158.361242028
 20
31.2068093799
 11
158.3034290869
 21
31.3681288486
 12
158.5924918074
 22
31.3681288486
 13
158.5924918074
 23
31.3681288486
  0
SOLID
  8
0
 62
7
  6
CONTINUOUS
 10
158.5924918074
 20
31.3681288486
 11
158.6503040869
 21
31.2068093799
 12
158.361242028
 22
31.2068093799
 13
158.361242028
 23
31.2068093799
  0
SOLID
  8
0
 62
7
  6
CONTINUOUS
 10
157.6096790869
 20
31.4649199103
 11
157.4362415869
 21
31.4003926599
 12
157.320617028
 22
31.4649199103
 13
157.320617028
 23
31.4649199103
  0
SOLID
  8
0
 62
7
  6
CONTINUOUS
 10
157.4362415869
 20
31.4003926599
 11
157.320617028
 21
31.3358640533
 12
157.320617028
 22
31.4649199103
 13
157.320617028
 23
31.4649199103
  0
SOLID
  8
0
 62
7
  6
CONTINUOUS
 10
157.320617028
 20
31.3358640533
 11
157.0315543074
 21
30.5938003547
 12
157.320617028
 22
31.4649199103
 13
157.320617028
 23
31.4649199103
  0
SOLID
  8
0
 62
7
  6
CONTINUOUS
 10
157.320617028
 20
31.4649199103
 11
157.0315543074
 21
30.5938003547
 12
157.320617028
 22
31.6262383465
 13
157.320617028
 23
31.6262383465
  0
SOLID
  8
0
 62
7
  6
CONTINUOUS
 10
157.0315543074
 20
30.5938003547
 11
157.0315543074
 21
31.6262383465
 12
157.320617028
 22
31.6262383465
 13
157.320617028
 23
31.6262383465
  0
SOLID
  8
0
 62
7
  6
CONTINUOUS
 10
157.320617028
 20
31.3358640533
 11
157.320617028
 21
30.5938003547
 12
157.0315543074
 22
30.5938003547
 13
157.0315543074
 23
30.5938003547
  0
SOLID
  8
0
 62
7
  6
CONTINUOUS
 10
158.361242028
 20
30.5938003547
 11
158.361242028
 21
31.2068093799
 12
158.6503040869
 22
31.2068093799
 13
158.6503040869
 23
31.2068093799
  0
SOLID
  8
0
 62
7
  6
CONTINUOUS
 10
158.6503040869
 20
31.2068093799
 11
158.6503040869
 21
30.5938003547
 12
158.361242028
 22
30.5938003547
 13
158.361242028
 23
30.5938003547
  0
SOLID
  8
0
 62
7
  6
CONTINUOUS
 10
159.4596793074
 20
31.5939739474
 11
159.8065543074
 21
31.6262381969
 12
160.1534293074
 22
31.6262381969
 13
160.1534293074
 23
31.6262381969
  0
SOLID
  8
0
 62
7
  6
CONTINUOUS
 10
160.1534293074
 20
31.6262381969
 11
160.5003043074
 21
31.5939739474
 12
159.4596793074
 22
31.5939739474
 13
159.4596793074
 23
31.5939739474
  0
SOLID
  8
0
 62
7
  6
CONTINUOUS
 10
159.228429528
 20
31.5294468402
 11
159.4596793074
 21
31.5939739474
 12
160.5003043074
 22
31.5939739474
 13
160.5003043074
 23
31.5939739474
  0
SOLID
  8
0
 62
7
  6
CONTINUOUS
 10
159.228429528
 20
31.5294468402
 11
160.5003043074
 21
31.5939739304
 12
160.6737418074
 22
31.5617111435
 13
160.6737418074
 23
31.5617111435
  0
SOLID
  8
0
 62
7
  6
CONTINUOUS
 10
159.228429528
 20
31.5294468402
 11
160.6737418074
 21
31.5617111435
 12
159.8065543074
 22
31.4971825592
 13
159.8065543074
 23
31.4971825592
  0
SOLID
  8
0
 62
7
  6
CONTINUOUS
 10
159.8065543074
 20
31.4971825592
 11
160.6737418074
 21
31.5617111435
 12
160.1534293074
 22
31.4971825592
 13
160.1534293074
 23
31.4971825592
  0
SOLID
  8
0
 62
7
  6
CONTINUOUS
 10
160.6737418074
 20
31.5617111435
 11
160.8471793074
 21
31.4971825592
 12
160.1534293074
 22
31.4971825592
 13
160.1534293074
 23
31.4971825592
  0
SOLID
  8
0
 62
7
  6
CONTINUOUS
 10
160.5003043074
 20
31.4649197501
 11
160.1534293074
 21
31.4971825592
 12
160.8471793074
 22
31.4971825592
 13
160.8471793074
 23
31.4971825592
  0
SOLID
  8
0
 62
7
  6
CONTINUOUS
 10
159.1128043074
 20
31.4326555427
 11
159.228429528
 21
31.5294468402
 12
159.8065543074
 22
31.4971825592
 13
159.8065543074
 23
31.4971825592
  0
SOLID
  8
0
 62
7
  6
CONTINUOUS
 10
160.5003043074
 20
31.4649197501
 11
160.8471793074
 21
31.4971825592
 12
160.615929528
 22
31.4326555427
 13
160.615929528
 23
31.4326555427
  0
SOLID
  8
0
 62
7
  6
CONTINUOUS
 10
160.615929528
 20
31.4326555427
 11
160.8471793074
 21
31.4971825592
 12
160.6737418074
 22
31.3681283005
 13
160.6737418074
 23
31.3681283005
  0
SOLID
  8
0
 62
7
  6
CONTINUOUS
 10
160.8471793074
 20
31.4971825592
 11
160.9628038663
 21
31.3681283005
 12
160.6737418074
 22
31.3681283005
 13
160.6737418074
 23
31.3681283005
  0
SOLID
  8
0
 62
7
  6
CONTINUOUS
 10
150.2674918074
 20
31.4649197501
 11
149.7471793074
 21
31.4326554237
 12
150.498741835
 22
31.4971824493
 13
150.498741835
 23
31.4971824493
  0
SOLID
  8
0
 62
7
  6
CONTINUOUS
 10
149.7471793074
 20
31.4326554237
 11
149.8628043005
 21
31.4971824493
 12
150.498741835
 22
31.4971824493
 13
150.498741835
 23
31.4971824493
  0
SOLID
  8
0
 62
7
  6
CONTINUOUS
 10
150.2674918074
 20
31.4649197501
 11
150.1518667936
 21
31.4326554237
 12
149.7471793074
 22
31.4326554237
 13
149.7471793074
 23
31.4326554237
  0
SOLID
  8
0
 62
7
  6
CONTINUOUS
 10
149.6315543091
 20
31.3036012664
 11
149.7471793074
 21
31.4326554237
 12
150.1518667936
 22
31.4326554237
 13
150.1518667936
 23
31.4326554237
  0
SOLID
  8
0
 62
7
  6
CONTINUOUS
 10
153.9674919177
 20
31.4326554237
 11
154.6612419177
 21
31.4971825369
 12
154.4299918074
 22
31.4649197501
 13
154.4299918074
 23
31.4649197501
  0
SOLID
  8
0
 62
7
  6
CONTINUOUS
 10
154.4299918074
 20
31.4649197501
 11
154.3143669177
 21
31.4326554237
 12
153.9674919177
 22
31.4326554237
 13
153.9674919177
 23
31.4326554237
  0
SOLID
  8
0
 62
7
  6
CONTINUOUS
 10
153.9674919177
 20
31.3681283335
 11
153.9674919177
 21
31.4326554237
 12
154.3143669177
 22
31.4326554237
 13
154.3143669177
 23
31.4326554237
  0
SOLID
  8
0
 62
7
  6
CONTINUOUS
 10
154.3143669177
 20
31.4326554237
 11
154.2565543074
 21
31.3681283335
 12
153.9674919177
 22
31.3681283335
 13
153.9674919177
 23
31.3681283335
  0
SOLID
  8
0
 62
7
  6
CONTINUOUS
 10
159.1128043074
 20
31.4326555528
 11
159.8065543074
 21
31.4971825369
 12
159.575304528
 22
31.4649197501
 13
159.575304528
 23
31.4649197501
  0
SOLID
  8
0
 62
7
  6
CONTINUOUS
 10
159.575304528
 20
31.4649197501
 11
159.4596793074
 21
31.4326555528
 12
159.1128043074
 22
31.4326555528
 13
159.1128043074
 23
31.4326555528
  0
SOLID
  8
0
 62
7
  6
CONTINUOUS
 10
159.1128043074
 20
31.3681284626
 11
159.1128043074
 21
31.4326555528
 12
159.4596793074
 22
31.4326555528
 13
159.4596793074
 23
31.4326555528
  0
SOLID
  8
0
 62
7
  6
CONTINUOUS
 10
159.4596793074
 20
31.4326555528
 11
159.401867028
 21
31.3681284626
 12
159.1128043074
 22
31.3681284626
 13
159.1128043074
 23
31.3681284626
  0
SOLID
  8
0
 62
7
  6
CONTINUOUS
 10
159.228429528
 20
31.2390741763
 11
159.1128043074
 21
31.3681284626
 12
159.401867028
 22
31.3681284626
 13
159.401867028
 23
31.3681284626
  0
SOLID
  8
0
 62
7
  6
CONTINUOUS
 10
149.6315543091
 20
31.3036012664
 11
150.1518667936
 21
31.4326554468
 12
149.9784292936
 22
31.3358640533
 13
149.9784292936
 23
31.3358640533
  0
SOLID
  8
0
 62
7
  6
CONTINUOUS
 10
149.9784292936
 20
31.3358640533
 11
149.9206168074
 21
31.2713369632
 12
149.6315543091
 22
31.3036012664
 13
149.6315543091
 23
31.3036012664
  0
SOLID
  8
0
 62
7
  6
CONTINUOUS
 10
149.5737418074
 20
31.1100184796
 11
149.6315543091
 21
31.3036012664
 12
149.9206168074
 22
31.2713369632
 13
149.9206168074
 23
31.2713369632
  0
SOLID
  8
0
 62
7
  6
CONTINUOUS
 10
154.4299918074
 20
31.2390741763
 11
154.7768668074
 21
31.271336924
 12
155.412804528
 22
31.271336924
 13
155.412804528
 23
31.271336924
  0
SOLID
  8
0
 62
7
  6
CONTINUOUS
 10
154.4299918074
 20
31.2390741763
 11
155.412804528
 21
31.271336924
 12
154.1987416972
 22
31.1745462761
 13
154.1987416972
 23
31.1745462761
  0
SOLID
  8
0
 62
7
  6
CONTINUOUS
 10
154.1987416972
 20
31.1745462761
 11
155.412804528
 21
31.271336924
 12
154.7768668074
 22
31.1422827436
 13
154.7768668074
 23
31.1422827436
  0
SOLID
  8
0
 62
7
  6
CONTINUOUS
 10
155.412804528
 20
31.271336924
 11
155.412804528
 21
31.1422827436
 12
154.7768668074
 22
31.1422827436
 13
154.7768668074
 23
31.1422827436
  0
SOLID
  8
0
 62
7
  6
CONTINUOUS
 10
159.228429528
 20
31.2390745501
 11
159.401867028
 21
31.3681283566
 12
159.4596793074
 22
31.3036012664
 13
159.4596793074
 23
31.3036012664
  0
SOLID
  8
0
 62
7
  6
CONTINUOUS
 10
159.4596793074
 20
31.3036012664
 11
159.6331168074
 21
31.2390745501
 12
159.228429528
 22
31.2390745501
 13
159.228429528
 23
31.2390745501
  0
SOLID
  8
0
 62
7
  6
CONTINUOUS
 10
159.4596793074
 20
31.1422827828
 11
159.228429528
 21
31.2390745501
 12
159.6331168074
 22
31.2390745501
 13
159.6331168074
 23
31.2390745501
  0
SOLID
  8
0
 62
7
  6
CONTINUOUS
 10
159.6331168074
 20
31.2390745501
 11
160.615929528
 21
31.0777556927
 12
159.4596793074
 22
31.1422827828
 13
159.4596793074
 23
31.1422827828
  0
SOLID
  8
0
 62
7
  6
CONTINUOUS
 10
160.442492028
 20
30.9809646623
 11
159.4596793074
 21
31.1422827828
 12
160.615929528
 22
31.0777556927
 13
160.615929528
 23
31.0777556927
  0
SOLID
  8
0
 62
7
  6
CONTINUOUS
 10
160.615929528
 20
31.0777556927
 11
160.8471793074
 21
30.9809646623
 12
160.442492028
 22
30.9809646623
 13
160.442492028
 23
30.9809646623
  0
SOLID
  8
0
 62
7
  6
CONTINUOUS
 10
160.615929528
 20
30.9164372091
 11
160.442492028
 21
30.9809646623
 12
160.8471793074
 22
30.9809646623
 13
160.8471793074
 23
30.9809646623
  0
SOLID
  8
0
 62
7
  6
CONTINUOUS
 10
160.615929528
 20
30.9164372091
 11
160.8471793074
 21
30.9809646623
 12
160.6737418074
 22
30.8519089441
 13
160.6737418074
 23
30.8519089441
  0
SOLID
  8
0
 62
7
  6
CONTINUOUS
 10
160.8471793074
 20
30.9809646623
 11
160.9628038663
 21
30.8519089441
 12
160.6737418074
 22
30.8519089441
 13
160.6737418074
 23
30.8519089441
  0
SOLID
  8
0
 62
7
  6
CONTINUOUS
 10
160.615929528
 20
30.7873818593
 11
160.6737418074
 21
30.8519089441
 12
160.9628038663
 22
30.8519089441
 13
160.9628038663
 23
30.8519089441
  0
SOLID
  8
0
 62
7
  6
CONTINUOUS
 10
160.9628038663
 20
30.8519089441
 11
160.9628038663
 21
30.7873818593
 12
160.615929528
 22
30.7873818593
 13
160.615929528
 23
30.7873818593
  0
SOLID
  8
0
 62
7
  6
CONTINUOUS
 10
160.5003043074
 20
30.7551187255
 11
160.615929528
 21
30.7873818593
 12
160.9628038663
 22
30.7873818593
 13
160.9628038663
 23
30.7873818593
  0
SOLID
  8
0
 62
7
  6
CONTINUOUS
 10
160.5003043074
 20
30.7551187255
 11
160.9628038663
 21
30.7873818593
 12
160.269054528
 22
30.7228547745
 13
160.269054528
 23
30.7228547745
  0
SOLID
  8
0
 62
7
  6
CONTINUOUS
 10
160.9628038663
 20
30.7873818593
 11
160.8471793074
 21
30.6905916353
 12
160.269054528
 22
30.7228547745
 13
160.269054528
 23
30.7228547745
  0
SOLID
  8
0
 62
7
  6
CONTINUOUS
 10
160.8471793074
 20
30.6905916353
 11
159.401867028
 21
30.658327332
 12
160.269054528
 22
30.7228547745
 13
160.269054528
 23
30.7228547745
  0
SOLID
  8
0
 62
7
  6
CONTINUOUS
 10
160.269054528
 20
30.7228547745
 11
159.401867028
 21
30.658327332
 12
159.922179528
 22
30.7228547745
 13
159.922179528
 23
30.7228547745
  0
SOLID
  8
0
 62
7
  6
CONTINUOUS
 10
159.401867028
 20
30.658327332
 11
159.228429528
 21
30.7228547745
 12
159.922179528
 22
30.7228547745
 13
159.922179528
 23
30.7228547745
  0
SOLID
  8
0
 62
7
  6
CONTINUOUS
 10
159.401867028
 20
30.658327332
 11
160.8471793074
 21
30.6905916353
 12
159.575304528
 22
30.6260629858
 13
159.575304528
 23
30.6260629858
  0
SOLID
  8
0
 62
7
  6
CONTINUOUS
 10
160.8471793074
 20
30.6905916353
 11
160.615929528
 21
30.6260629858
 12
159.575304528
 22
30.6260629858
 13
159.575304528
 23
30.6260629858
  0
SOLID
  8
0
 62
7
  6
CONTINUOUS
 10
159.922179528
 20
30.5938006049
 11
159.575304528
 21
30.6260629858
 12
160.615929528
 22
30.6260629858
 13
160.615929528
 23
30.6260629858
  0
SOLID
  8
0
 62
7
  6
CONTINUOUS
 10
160.615929528
 20
30.6260629858
 11
160.269054528
 21
30.5938006049
 12
159.922179528
 22
30.5938006049
 13
159.922179528
 23
30.5938006049
  0
SOLID
  8
0
 62
7
  6
CONTINUOUS
 10
149.5737418074
 20
31.1100184796
 11
149.9206168074
 21
31.2713369632
 12
149.8628043005
 22
31.1422827828
 13
149.8628043005
 23
31.1422827828
  0
SOLID
  8
0
 62
7
  6
CONTINUOUS
 10
149.8628043005
 20
31.1422827828
 11
149.8628043005
 21
31.0454914852
 12
149.5737418074
 22
31.1100184796
 13
149.5737418074
 23
31.1100184796
  0
SOLID
  8
0
 62
7
  6
CONTINUOUS
 10
149.6315543091
 20
30.9164372091
 11
149.5737418074
 21
31.1100184796
 12
149.8628043005
 22
31.0454914852
 13
149.8628043005
 23
31.0454914852
  0
SOLID
  8
0
 62
7
  6
CONTINUOUS
 10
149.8628043005
 20
31.0454914852
 11
149.9784292936
 21
30.8841729058
 12
149.6315543091
 22
30.9164372091
 13
149.6315543091
 23
30.9164372091
  0
SOLID
  8
0
 62
7
  6
CONTINUOUS
 10
149.7471793074
 20
30.7873813202
 11
149.6315543091
 21
30.9164372091
 12
149.9784292936
 22
30.8841729058
 13
149.9784292936
 23
30.8841729058
  0
SOLID
  8
0
 62
7
  6
CONTINUOUS
 10
149.9784292936
 20
30.8841729058
 11
150.1518667936
 21
30.7873813202
 12
149.7471793074
 22
30.7873813202
 13
149.7471793074
 23
30.7873813202
  0
SOLID
  8
0
 62
7
  6
CONTINUOUS
 10
149.8628043005
 20
30.7228547004
 11
149.7471793074
 21
30.7873813202
 12
150.1518667936
 22
30.7873813202
 13
150.1518667936
 23
30.7873813202
  0
SOLID
  8
0
 62
7
  6
CONTINUOUS
 10
150.1518667936
 20
30.7873813202
 11
150.498741835
 21
30.7228547004
 12
149.8628043005
 22
30.7228547004
 13
149.8628043005
 23
30.7228547004
  0
SOLID
  8
0
 62
7
  6
CONTINUOUS
 10
150.0362418212
 20
30.658327332
 11
149.8628043005
 21
30.7228547004
 12
150.498741835
 22
30.7228547004
 13
150.498741835
 23
30.7228547004
  0
SOLID
  8
0
 62
7
  6
CONTINUOUS
 10
154.0831168074
 20
31.1100184386
 11
154.1987416972
 21
31.1745462761
 12
154.7768668074
 22
31.1422827828
 13
154.7768668074
 23
31.1422827828
  0
SOLID
  8
0
 62
7
  6
CONTINUOUS
 10
154.7768668074
 20
31.1422827828
 11
154.5456166972
 21
31.1100184386
 12
154.0831168074
 22
31.1100184386
 13
154.0831168074
 23
31.1100184386
  0
SOLID
  8
0
 62
7
  6
CONTINUOUS
 10
153.9674919177
 20
30.9809642992
 11
154.0831168074
 21
31.1100184386
 12
154.5456166972
 22
31.1100184386
 13
154.5456166972
 23
31.1100184386
  0
SOLID
  8
0
 62
7
  6
CONTINUOUS
 10
154.3143669177
 20
31.0132277988
 11
153.9674919177
 21
30.9809642992
 12
154.4299918074
 22
31.0777556927
 13
154.4299918074
 23
31.0777556927
  0
SOLID
  8
0
 62
7
  6
CONTINUOUS
 10
153.9674919177
 20
30.9809642992
 11
154.5456166972
 21
31.1100184796
 12
154.4299918074
 22
31.0777556927
 13
154.4299918074
 23
31.0777556927
  0
SOLID
  8
0
 62
7
  6
CONTINUOUS
 10
154.3143669177
 20
31.0132277988
 11
154.2565543074
 21
30.9164372091
 12
153.9674919177
 22
30.9809642992
 13
153.9674919177
 23
30.9809642992
  0
SOLID
  8
0
 62
7
  6
CONTINUOUS
 10
153.9674919177
 20
30.8841729058
 11
153.9674919177
 21
30.9809642992
 12
154.2565543074
 22
30.9164372091
 13
154.2565543074
 23
30.9164372091
  0
SOLID
  8
0
 62
7
  6
CONTINUOUS
 10
154.2565543074
 20
30.9164372091
 11
154.2565543074
 21
30.8519086025
 12
153.9674919177
 22
30.8841729058
 13
153.9674919177
 23
30.8841729058
  0
SOLID
  8
0
 62
7
  6
CONTINUOUS
 10
154.0253041972
 20
30.7551187255
 11
153.9674919177
 21
30.8841729058
 12
154.2565543074
 22
30.8519086025
 13
154.2565543074
 23
30.8519086025
  0
SOLID
  8
0
 62
7
  6
CONTINUOUS
 10
155.412804528
 20
30.9487004259
 11
155.7018665869
 21
30.8519086025
 12
155.3549915869
 22
30.8841729058
 13
155.3549915869
 23
30.8841729058
  0
SOLID
  8
0
 62
7
  6
CONTINUOUS
 10
155.1815540869
 20
30.7873815123
 11
155.3549915869
 21
30.8841729058
 12
155.7018665869
 22
30.8519086025
 13
155.7018665869
 23
30.8519086025
  0
SOLID
  8
0
 62
7
  6
CONTINUOUS
 10
155.1815540869
 20
30.7873815123
 11
155.7018665869
 21
30.8519086025
 12
155.412804528
 22
30.7551187255
 13
155.412804528
 23
30.7551187255
  0
SOLID
  8
0
 62
7
  6
CONTINUOUS
 10
155.7018665869
 20
30.8519086025
 11
155.759679528
 21
30.6905916353
 12
155.412804528
 22
30.7551187255
 13
155.412804528
 23
30.7551187255
  0
SOLID
  8
0
 62
7
  6
CONTINUOUS
 10
155.4706168074
 20
30.658327332
 11
155.412804528
 21
30.7551187255
 12
155.759679528
 22
30.6905916353
 13
155.759679528
 23
30.6905916353
  0
SOLID
  8
0
 62
7
  6
CONTINUOUS
 10
155.4706168074
 20
30.658327332
 11
155.759679528
 21
30.6905916353
 12
155.5284290869
 22
30.5938002079
 13
155.5284290869
 23
30.5938002079
  0
SOLID
  8
0
 62
7
  6
CONTINUOUS
 10
155.759679528
 20
30.6905916353
 11
155.8174918074
 21
30.5938002079
 12
155.5284290869
 22
30.5938002079
 13
155.5284290869
 23
30.5938002079
  0
SOLID
  8
0
 62
7
  6
CONTINUOUS
 10
151.0768668626
 20
30.8196456577
 11
151.1346793074
 21
30.9164373395
 12
151.4237418626
 22
30.9164373395
 13
151.4237418626
 23
30.9164373395
  0
SOLID
  8
0
 62
7
  6
CONTINUOUS
 10
151.4237418626
 20
30.9164373395
 11
151.3659292523
 21
30.7873815123
 12
151.0768668626
 22
30.8196456577
 13
151.0768668626
 23
30.8196456577
  0
SOLID
  8
0
 62
7
  6
CONTINUOUS
 10
150.9034292799
 20
30.7551187255
 11
151.0768668626
 21
30.8196456577
 12
151.3659292523
 22
30.7873815123
 13
151.3659292523
 23
30.7873815123
  0
SOLID
  8
0
 62
7
  6
CONTINUOUS
 10
150.9034292799
 20
30.7551187255
 11
151.3659292523
 21
30.7873815123
 12
150.498741835
 22
30.7228544222
 13
150.498741835
 23
30.7228544222
  0
SOLID
  8
0
 62
7
  6
CONTINUOUS
 10
151.3659292523
 20
30.7873815123
 11
151.1924917523
 21
30.6905916353
 12
150.498741835
 22
30.7228544222
 13
150.498741835
 23
30.7228544222
  0
SOLID
  8
0
 62
7
  6
CONTINUOUS
 10
150.0362418212
 20
30.658327332
 11
150.498741835
 21
30.7228544222
 12
151.1924917523
 22
30.6905916353
 13
151.1924917523
 23
30.6905916353
  0
SOLID
  8
0
 62
7
  6
CONTINUOUS
 10
150.0362418212
 20
30.658327332
 11
151.1924917523
 21
30.6905916353
 12
150.2096793212
 22
30.6260631011
 13
150.2096793212
 23
30.6260631011
  0
SOLID
  8
0
 62
7
  6
CONTINUOUS
 10
151.1924917523
 20
30.6905916353
 11
150.9612418074
 21
30.6260631011
 12
150.2096793212
 22
30.6260631011
 13
150.2096793212
 23
30.6260631011
  0
SOLID
  8
0
 62
7
  6
CONTINUOUS
 10
150.5565542799
 20
30.5938002419
 11
150.2096793212
 21
30.6260631011
 12
150.9612418074
 22
30.6260631011
 13
150.9612418074
 23
30.6260631011
  0
SOLID
  8
0
 62
7
  6
CONTINUOUS
 10
154.0253041972
 20
30.7551187255
 11
154.2565543074
 21
30.8519086025
 12
154.3143669177
 22
30.7873815123
 13
154.3143669177
 23
30.7873815123
  0
SOLID
  8
0
 62
7
  6
CONTINUOUS
 10
154.3143669177
 20
30.7873815123
 11
154.5456166972
 21
30.7228544222
 12
154.0253041972
 22
30.7551187255
 13
154.0253041972
 23
30.7551187255
  0
SOLID
  8
0
 62
7
  6
CONTINUOUS
 10
154.1987416972
 20
30.658327332
 11
154.0253041972
 21
30.7551187255
 12
154.5456166972
 22
30.7228544222
 13
154.5456166972
 23
30.7228544222
  0
SOLID
  8
0
 62
7
  6
CONTINUOUS
 10
154.8924916972
 20
30.7228544637
 11
155.1815540869
 21
30.7873815123
 12
155.412804528
 22
30.7551187255
 13
155.412804528
 23
30.7551187255
  0
SOLID
  8
0
 62
7
  6
CONTINUOUS
 10
155.412804528
 20
30.7551187255
 11
155.3549915869
 21
30.6905916353
 12
154.8924916972
 22
30.7228544637
 13
154.8924916972
 23
30.7228544637
  0
SOLID
  8
0
 62
7
  6
CONTINUOUS
 10
155.3549915869
 20
30.6905916353
 11
154.1987416972
 21
30.658327332
 12
154.8924916972
 22
30.7228544637
 13
154.8924916972
 23
30.7228544637
  0
SOLID
  8
0
 62
7
  6
CONTINUOUS
 10
154.1987416972
 20
30.658327332
 11
154.5456166972
 21
30.7228544637
 12
154.8924916972
 22
30.7228544637
 13
154.8924916972
 23
30.7228544637
  0
SOLID
  8
0
 62
7
  6
CONTINUOUS
 10
154.1987416972
 20
30.658327332
 11
155.3549915869
 21
30.6905916353
 12
154.3143669177
 22
30.6260630541
 13
154.3143669177
 23
30.6260630541
  0
SOLID
  8
0
 62
7
  6
CONTINUOUS
 10
155.3549915869
 20
30.6905916353
 11
155.1815540869
 21
30.6260630541
 12
154.3143669177
 22
30.6260630541
 13
154.3143669177
 23
30.6260630541
  0
SOLID
  8
0
 62
7
  6
CONTINUOUS
 10
154.5456166972
 20
30.5938002188
 11
154.3143669177
 21
30.6260630541
 12
155.1815540869
 22
30.6260630541
 13
155.1815540869
 23
30.6260630541
  0
SOLID
  8
0
 62
7
  6
CONTINUOUS
 10
155.1815540869
 20
30.6260630541
 11
154.8924916972
 21
30.5938002188
 12
154.5456166972
 22
30.5938002188
 13
154.5456166972
 23
30.5938002188
  0
SOLID
  8
0
 62
7
  6
CONTINUOUS
 10
159.575304528
 20
30.7551187255
 11
159.228429528
 21
30.7228544637
 12
159.4596793074
 22
30.7873815123
 13
159.4596793074
 23
30.7873815123
  0
SOLID
  8
0
 62
7
  6
CONTINUOUS
 10
159.4596793074
 20
30.7873815123
 11
159.228429528
 21
30.7228544637
 12
159.401867028
 22
30.851908644
 13
159.401867028
 23
30.851908644
  0
SOLID
  8
0
 62
7
  6
CONTINUOUS
 10
159.228429528
 20
30.7228544637
 11
159.1128043074
 21
30.851908644
 12
159.401867028
 22
30.851908644
 13
159.401867028
 23
30.851908644
  0
SOLID
  8
0
 62
7
  6
CONTINUOUS
 10
159.575304528
 20
30.7551187255
 11
159.922179528
 21
30.7228544637
 12
159.228429528
 22
30.7228544637
 13
159.228429528
 23
30.7228544637
  0
SOLID
  8
0
 62
7
  6
CONTINUOUS
 10
156.279992028
 20
30.5938002419
 11
156.279992028
 21
31.6262382337
 12
156.5690540869
 22
30.5938002419
 13
156.5690540869
 23
31.6262382337
  0
ENDBLK
  8
0
  6
BYBLOCK
 62
0
  0
BLOCK
  8
0
 62
2
  6
CONTINUOUS
  2
SYMBOL_3_BL0
 70
64
 10
32.1213064866
 20
19.8534310916
  0
TEXT
  8
0
 62
7
  6
CONTINUOUS
 10
18.3860103289
 20
19.2268451992
  7
TEXTSTYLE_3
 40
2.7338706658
  1
Ammeraal Beltech
 41
1.0
 51
15.0
 72
0
  0
TEXT
  8
0
 62
7
  6
CONTINUOUS
 10
29.1868111546
 20
16.9533085264
  7
TEXTSTYLE_4
 40
1.0935482663
  1
Innovation & Service in Belting
 41
1.0
 72
0
  0
LINE
  8
0
 62
7
  6
CONTINUOUS
 10
12.3614696776
 20
19.9934385078
 11
13.1396216709
 21
23.6543558055
  0
LINE
  8
0
 62
7
  6
CONTINUOUS
 10
23.2347899607
 20
27.3177497171
 11
13.6274394139
 21
24.1961322958
  0
LINE
  8
0
 62
7
  6
CONTINUOUS
 10
12.5867530099
 20
19.3000877048
 11
20.093828271
 21
12.5406867788
  0
LINE
  8
0
 62
7
  6
CONTINUOUS
 10
12.8492874206
 20
20.5352149982
 11
23.6575567857
 21
24.0470345971
  0
LINE
  8
0
 62
7
  6
CONTINUOUS
 10
23.6533516486
 20
13.6972460334
 11
15.2078919798
 21
21.3015720751
  0
LINE
  8
0
 62
7
  6
CONTINUOUS
 10
24.1731743684
 20
26.4728246013
 11
23.1966148312
 21
21.8784731989
  0
LINE
  8
0
 62
7
  6
CONTINUOUS
 10
22.4968128835
 20
18.5861638851
 11
21.810364672
 21
15.3566789607
  0
LINE
  8
0
 62
7
  6
CONTINUOUS
 10
24.8542704669
 20
14.087448211
 11
25.8105020025
 21
18.5861638851
  0
LINE
  8
0
 62
7
  6
CONTINUOUS
 10
26.5103039502
 20
21.8784731989
 11
26.9545457526
 21
23.9684665583
  0
LINE
  8
0
 62
7
  6
CONTINUOUS
 10
20.8069293463
 20
12.3891124661
 11
24.3664527239
 21
13.5456717207
  0
LINE
  8
0
 62
7
  6
CONTINUOUS
 10
23.9478910361
 20
27.1661754044
 11
26.7292624203
 21
24.6618173613
  0
ARC
  8
0
 62
7
  6
CONTINUOUS
 10
13.8527227462
 20
23.5027814928
 40
0.7290321776
 50
108.0
 51
168.0
  0
ARC
  8
0
 62
7
  6
CONTINUOUS
 10
23.4600732931
 20
26.624398914
 40
0.7290321776
 50
348.0
 51
108.0
  0
ARC
  8
0
 62
7
  6
CONTINUOUS
 10
26.2414446773
 20
24.120040871
 40
0.7290321776
 50
348.0
 51
48.0
  0
ARC
  8
0
 62
7
  6
CONTINUOUS
 10
20.581646014
 20
13.0824632691
 40
0.7290321776
 50
228.0
 51
288.0
  0
ARC
  8
0
 62
7
  6
CONTINUOUS
 10
13.0745707529
 20
19.8418641951
 40
0.7290321776
 50
108.0
 51
228.0
  0
ARC
  8
0
 62
7
  6
CONTINUOUS
 10
24.1411693916
 20
14.2390225237
 40
0.7290321776
 50
228.0
 51
348.0
  0
ENDBLK
  8
0
  6
BYBLOCK
 62
0
  0
ENDSEC
  0
SECTION
  2
ENTITIES
  0
TEXT
  8
0
 62
5
  6
CONTINUOUS
 10
96.0
 20
25.636
  7
TEXTSTYLE_2
 40
2.8
  1
Scale :
 41
0.6
 51
0.000019
 72
0
  0
TEXT
  8
0
 62
5
  6
CONTINUOUS
 10
116.0
 20
25.636
  7
TEXTSTYLE_2
 40
2.8
  1
Belt type:
 41
0.6
 51
0.000019
 72
0
  0
INSERT
  8
0
 62
2
  6
CONTINUOUS
  2
SYMBOL_3_BL0
 10
32.1213064866
 20
19.8534310916
  0
INSERT
  8
0
 62
2
  6
CONTINUOUS
  2
SYMBOL_8_BL1
 10
173.5956734183
 20
35.5937998301
  0
LINE
  8
0
 62
2
  6
CONTINUOUS
 10
10.0
 20
30.0
 11
200.0
 21
30.0
  0
LINE
  8
0
 62
2
  6
CONTINUOUS
 10
10.0
 20
30.0
 11
10.0
 21
10.0
  0
LINE
  8
0
 62
2
  6
CONTINUOUS
 10
10.0
 20
10.0
 11
200.0
 21
10.0
  0
LINE
  8
0
 62
2
  6
CONTINUOUS
 10
95.0
 20
30.0
 11
95.0
 21
10.0
  0
LINE
  8
0
 62
2
  6
CONTINUOUS
 10
115.0
 20
30.0
 11
115.0
 21
10.0
  0
LINE
  8
0
 62
2
  6
CONTINUOUS
 10
200.0
 20
30.0
 11
200.0
 21
10.0
  0
TEXT
  8
0
 62
5
  6
CONTINUOUS
 10
13.0
 20
23.303
  7
TEXTSTYLE_5
 40
1.52
  1
                                                                     Ammeraal Beltech Modular A/S
 41
1.0
 72
0
  0
TEXT
  8
0
 62
5
  6
CONTINUOUS
 10
13.0
 20
20.595
  7
TEXTSTYLE_5
 40
1.5
  1
                                                                      Hjulmagervej 21,  7100 Vejle,  DK
 41
1.0
 72
0
  0
TEXT
  8
0
 62
5
  6
CONTINUOUS
 10
13.0
 20
17.881
  7
TEXTSTYLE_5
 40
1.495
  1
                                                                      tel: 
 41
1.0
 72
0
  0
TEXT
  8
0
 62
5
  6
CONTINUOUS
 10
57.9869465649
 20
17.881
  7
TEXTSTYLE_5
 40
1.51
  1
+45 75723100     fax: +45 75723348
 41
1.0
 72
0
  0
TEXT
  8
0
 62
5
  6
CONTINUOUS
 10
13.0
 20
15.177
  7
TEXTSTYLE_5
 40
1.5
  1
                                                                      admin@unichains.dk  www.unichains.com
 41
1.0
 72
0
  0
TEXT
  8
0
 62
5
  6
CONTINUOUS
 10
99.75
 20
13.75
  7
TEXTSTYLE_6
 40
5.0
  1
1:1
 41
0.7
 72
1
 11
105.0
 21
13.75
  0
TEXT
  8
0
 62
5
  6
CONTINUOUS
 10
118.0
 20
13.75
  7
TEXTSTYLE_7
 40
7.5
  1
uni MPB 22% K275
 41
0.6134114583
 72
0
  0
LINE
  8
0
 62
7
  6
CONTINUOUS
 10
210.0
 20
0.0
 11
0.0
 21
0.0
  0
LINE
  8
0
 62
7
  6
CONTINUOUS
 10
10.0
 20
10.0
 11
200.0
 21
10.0
  0
LINE
  8
0
 62
7
  6
CONTINUOUS
 10
10.0
 20
30.0
 11
200.0
 21
30.0
  0
LINE
  8
0
 62
7
  6
CONTINUOUS
 10
0.0
 20
0.0
 11
0.0
 21
297.0
  0
LINE
  8
0
 62
7
  6
CONTINUOUS
 10
10.0
 20
10.0
 11
10.0
 21
287.0
  0
LINE
  8
0
 62
7
  6
CONTINUOUS
 10
200.0
 20
287.0
 11
200.0
 21
10.0
  0
LINE
  8
0
 62
7
  6
CONTINUOUS
 10
210.0
 20
0.0
 11
210.0
 21
297.0
  0
LINE
  8
0
 62
7
  6
CONTINUOUS
 10
10.0
 20
287.0
 11
200.0
 21
287.0
  0
LINE
  8
0
 62
7
  6
CONTINUOUS
 10
0.0
 20
297.0
 11
210.0
 21
297.0
  0
POLYLINE
  8
0
 62
7
  6
CONTINUOUS
 66
1
 70
0
  0
VERTEX
  8
0
 62
7
  6
CONTINUOUS
 10
48.4043683123
 20
222.1088210351
  0
VERTEX
  8
0
 62
7
  6
CONTINUOUS
 10
48.4035675116
 20
222.0816304786
  0
VERTEX
  8
0
 62
7
  6
CONTINUOUS
 10
48.4121229366
 20
222.0073632079
  0
VERTEX
  8
0
 62
7
  6
CONTINUOUS
 10
48.4281914835
 20
221.9024631016
  0
VERTEX
  8
0
 62
7
  6
CONTINUOUS
 10
48.4482234593
 20
221.7901214371
  0
SEQEND
  0
LINE
  8
AXES
 62
2
  6
CONTINUOUS
 10
51.2766496355
 20
214.9888210351
 11
51.2766496355
 21
213.2288210351
  0
LINE
  8
AXES
 62
2
  6
CENTER
 10
51.2766496355
 20
209.7088210351
 11
51.2766496355
 21
207.9588210351
  0
LINE
  8
AXES
 62
2
  6
CENTER
 10
51.2766496355
 20
218.5088210351
 11
51.2766496355
 21
220.2588210351
  0
POLYLINE
  8
0
 62
7
  6
CONTINUOUS
 66
1
 70
0
  0
VERTEX
  8
0
 62
7
  6
CONTINUOUS
 10
45.2363120799
 20
208.1337751136
  0
VERTEX
  8
0
 62
7
  6
CONTINUOUS
 10
45.1292680575
 20
208.244548549
  0
VERTEX
  8
0
 62
7
  6
CONTINUOUS
 10
45.0410778186
 20
208.346964596
  0
VERTEX
  8
0
 62
7
  6
CONTINUOUS
 10
44.9701870199
 20
208.4427933872
  0
SEQEND
  0
POLYLINE
  8
0
 62
7
  6
CONTINUOUS
 66
1
 70
0
  0
VERTEX
  8
0
 62
7
  6
CONTINUOUS
 10
48.4044661892
 20
206.1088210351
  0
VERTEX
  8
0
 62
7
  6
CONTINUOUS
 10
48.4122727494
 20
206.1340702269
  0
VERTEX
  8
0
 62
7
  6
CONTINUOUS
 10
48.4241439963
 20
206.208143653
  0
VERTEX
  8
0
 62
7
  6
CONTINUOUS
 10
48.4387144455
 20
206.3268049782
  0
SEQEND
  0
LINE
  8
0
 62
7
  6
CONTINUOUS
 10
45.4331123206
 20
207.9391096346
 11
45.4118208742
 21
207.9562781801
  0
POLYLINE
  8
0
 62
7
  6
CONTINUOUS
 66
1
 70
0
  0
VERTEX
  8
0
 62
7
  6
CONTINUOUS
 10
55.8511073725
 20
221.9865823561
  0
VERTEX
  8
0
 62
7
  6
CONTINUOUS
 10
55.852409374
 20
222.0434795378
  0
VERTEX
  8
0
 62
7
  6
CONTINUOUS
 10
55.8518398498
 20
222.0702462793
  0
VERTEX
  8
0
 62
7
  6
CONTINUOUS
 10
55.8526311599
 20
222.0924031491
  0
VERTEX
  8
0
 62
7
  6
CONTINUOUS
 10
55.8542040872
 20
222.1053135144
  0
VERTEX
  8
0
 62
7
  6
CONTINUOUS
 10
55.85240094
 20
222.1088210351
  0
SEQEND
  0
POLYLINE
  8
0
 62
7
  6
CONTINUOUS
 66
1
 70
0
  0
VERTEX
  8
0
 62
7
  6
CONTINUOUS
 10
55.85240094
 20
221.8588210351
  0
VERTEX
  8
0
 62
7
  6
CONTINUOUS
 10
55.8565712919
 20
221.8792992461
  0
VERTEX
  8
0
 62
7
  6
CONTINUOUS
 10
55.8567324412
 20
221.9026855378
  0
VERTEX
  8
0
 62
7
  6
CONTINUOUS
 10
55.8546562644
 20
221.9287491536
  0
VERTEX
  8
0
 62
7
  6
CONTINUOUS
 10
55.8522170539
 20
221.9570897235
  0
VERTEX
  8
0
 62
7
  6
CONTINUOUS
 10
55.8511073725
 20
221.9865823561
  0
SEQEND
  0
POLYLINE
  8
0
 62
7
  6
CONTINUOUS
 66
1
 70
0
  0
VERTEX
  8
0
 62
7
  6
CONTINUOUS
 10
55.7257683679
 20
218.199547167
  0
VERTEX
  8
0
 62
7
  6
CONTINUOUS
 10
55.6517683625
 20
218.1372307912
  0
VERTEX
  8
0
 62
7
  6
CONTINUOUS
 10
55.588327168
 20
218.0902636985
  0
VERTEX
  8
0
 62
7
  6
CONTINUOUS
 10
55.5429000289
 20
218.0641634777
  0
VERTEX
  8
0
 62
7
  6
CONTINUOUS
 10
55.5208442266
 20
218.0618944613
  0
SEQEND
  0
POLYLINE
  8
0
 62
7
  6
CONTINUOUS
 66
1
 70
0
  0
VERTEX
  8
0
 62
7
  6
CONTINUOUS
 10
48.4387144455
 20
206.3268049782
  0
VERTEX
  8
0
 62
7
  6
CONTINUOUS
 10
47.5261022328
 20
206.6356302585
  0
VERTEX
  8
0
 62
7
  6
CONTINUOUS
 10
46.6804019566
 20
207.0478247403
  0
VERTEX
  8
0
 62
7
  6
CONTINUOUS
 10
45.9116801876
 20
207.5530781275
  0
VERTEX
  8
0
 62
7
  6
CONTINUOUS
 10
45.2363120799
 20
208.1337751136
  0
SEQEND
  0
POLYLINE
  8
0
 62
7
  6
CONTINUOUS
 66
1
 70
0
  0
VERTEX
  8
0
 62
7
  6
CONTINUOUS
 10
46.8275319518
 20
218.1995469669
  0
VERTEX
  8
0
 62
7
  6
CONTINUOUS
 10
46.9015305574
 20
218.1372293414
  0
VERTEX
  8
0
 62
7
  6
CONTINUOUS
 10
46.9649699251
 20
218.0902604925
  0
VERTEX
  8
0
 62
7
  6
CONTINUOUS
 10
47.0103931486
 20
218.0641562377
  0
VERTEX
  8
0
 62
7
  6
CONTINUOUS
 10
47.0324562083
 20
218.0618947406
  0
SEQEND
  0
POLYLINE
  8
0
 62
7
  6
CONTINUOUS
 66
1
 70
0
  0
VERTEX
  8
0
 62
7
  6
CONTINUOUS
 10
55.7257683679
 20
218.1995471179
  0
VERTEX
  8
0
 62
7
  6
CONTINUOUS
 10
55.7375161108
 20
218.2070435059
  0
VERTEX
  8
0
 62
7
  6
CONTINUOUS
 10
55.7519235745
 20
218.2113516618
  0
VERTEX
  8
0
 62
7
  6
CONTINUOUS
 10
55.7679305511
 20
218.2126646733
  0
SEQEND
  0
POLYLINE
  8
0
 62
7
  6
CONTINUOUS
 66
1
 70
0
  0
VERTEX
  8
0
 62
7
  6
CONTINUOUS
 10
44.1347660763
 20
218.2187922582
  0
VERTEX
  8
0
 62
7
  6
CONTINUOUS
 10
44.0505485763
 20
218.2706831528
  0
VERTEX
  8
0
 62
7
  6
CONTINUOUS
 10
43.9816697458
 20
218.3203864698
  0
VERTEX
  8
0
 62
7
  6
CONTINUOUS
 10
43.9390969177
 20
218.359958755
  0
VERTEX
  8
0
 62
7
  6
CONTINUOUS
 10
43.9295217188
 20
218.3831289481
  0
SEQEND
  0
POLYLINE
  8
0
 62
7
  6
CONTINUOUS
 66
1
 70
0
  0
VERTEX
  8
0
 62
7
  6
CONTINUOUS
 10
46.8275319518
 20
218.1995468996
  0
VERTEX
  8
0
 62
7
  6
CONTINUOUS
 10
46.8157839208
 20
218.207043201
  0
VERTEX
  8
0
 62
7
  6
CONTINUOUS
 10
46.8013762774
 20
218.2113515393
  0
VERTEX
  8
0
 62
7
  6
CONTINUOUS
 10
46.7853690516
 20
218.2126646733
  0
SEQEND
  0
LINE
  8
0
 62
7
  6
CONTINUOUS
 10
58.9097485087
 20
218.3864723269
 11
58.8953416955
 21
218.4100882845
  0
POLYLINE
  8
0
 62
7
  6
CONTINUOUS
 66
1
 70
0
  0
VERTEX
  8
0
 62
7
  6
CONTINUOUS
 10
44.1347660763
 20
218.2187922591
  0
VERTEX
  8
0
 62
7
  6
CONTINUOUS
 10
44.1423028657
 20
218.2153791443
  0
VERTEX
  8
0
 62
7
  6
CONTINUOUS
 10
44.1506696384
 20
218.2133279774
  0
VERTEX
  8
0
 62
7
  6
CONTINUOUS
 10
44.1596011853
 20
218.2126646733
  0
SEQEND
  0
POLYLINE
  8
0
 62
7
  6
CONTINUOUS
 66
1
 70
0
  0
VERTEX
  8
0
 62
7
  6
CONTINUOUS
 10
58.8953416955
 20
218.4100882845
  0
VERTEX
  8
0
 62
7
  6
CONTINUOUS
 10
58.8811749725
 20
218.4278805061
  0
VERTEX
  8
0
 62
7
  6
CONTINUOUS
 10
58.8645810058
 20
218.4425783736
  0
VERTEX
  8
0
 62
7
  6
CONTINUOUS
 10
58.8445633921
 20
218.4544341189
  0
VERTEX
  8
0
 62
7
  6
CONTINUOUS
 10
58.8198868482
 20
218.4636960656
  0
VERTEX
  8
0
 62
7
  6
CONTINUOUS
 10
58.7891268422
 20
218.4703172994
  0
SEQEND
  0
LINE
  8
0
 62
7
  6
CONTINUOUS
 10
48.4043683123
 20
206.1088210351
 11
55.7766496355
 21
206.1088210351
  0
LINE
  8
0
 62
7
  6
CONTINUOUS
 10
97.5766496355
 20
206.1088210351
 11
104.9489309588
 21
206.1088210351
  0
LINE
  8
0
 62
7
  6
CONTINUOUS
 10
75.4755202912
 20
206.1588210351
 11
77.8777789798
 21
206.1588210351
  0
LINE
  8
0
 62
7
  6
CONTINUOUS
 10
48.4387144455
 20
206.3268049782
 11
55.776649967
 21
206.3268049782
  0
POLYLINE
  8
0
 62
7
  6
CONTINUOUS
 66
1
 70
0
  0
VERTEX
  8
0
 62
7
  6
CONTINUOUS
 10
57.4370446378
 20
206.6129562866
  0
VERTEX
  8
0
 62
7
  6
CONTINUOUS
 10
57.3679189847
 20
206.5642499968
  0
VERTEX
  8
0
 62
7
  6
CONTINUOUS
 10
57.2843412373
 20
206.5226676463
  0
VERTEX
  8
0
 62
7
  6
CONTINUOUS
 10
57.1871663978
 20
206.4917013772
  0
SEQEND
  0
POLYLINE
  8
0
 62
7
  6
CONTINUOUS
 66
1
 70
0
  0
VERTEX
  8
0
 62
7
  6
CONTINUOUS
 10
57.1872019624
 20
206.4916840802
  0
VERTEX
  8
0
 62
7
  6
CONTINUOUS
 10
56.7228070062
 20
206.4003921385
  0
VERTEX
  8
0
 62
7
  6
CONTINUOUS
 10
56.2514651691
 20
206.3452473385
  0
VERTEX
  8
0
 62
7
  6
CONTINUOUS
 10
55.776649967
 20
206.3268049782
  0
SEQEND
  0
LINE
  8
0
 62
7
  6
CONTINUOUS
 10
59.3331619146
 20
218.010458686
 11
70.1643755906
 21
214.1664128148
  0
LINE
  8
0
 62
7
  6
CONTINUOUS
 10
73.0066828761
 20
213.4997724127
 11
75.0919281105
 21
206.4454321515
  0
LINE
  8
AXES
 62
2
  6
CENTER
 10
76.6766496355
 20
203.7405920175
 11
76.6766496355
 21
224.609055204
  0
LINE
  8
AXES
 62
2
  6
CONTINUOUS
 10
102.9566496355
 20
214.1088210351
 11
101.1966496355
 21
214.1088210351
  0
LINE
  8
AXES
 62
2
  6
CENTER
 10
97.6766496355
 20
214.1088210351
 11
95.9266496355
 21
214.1088210351
  0
LINE
  8
AXES
 62
2
  6
CONTINUOUS
 10
52.1566496355
 20
214.1088210351
 11
50.3966496355
 21
214.1088210351
  0
LINE
  8
AXES
 62
2
  6
CENTER
 10
46.8766496355
 20
214.1088210351
 11
45.1266496355
 21
214.1088210351
  0
LINE
  8
AXES
 62
2
  6
CENTER
 10
55.6766496355
 20
214.1088210351
 11
57.4266496355
 21
214.1088210351
  0
LINE
  8
0
 62
7
  6
CONTINUOUS
 10
70.4988404563
 20
214.1088210351
 11
72.1915494922
 21
214.1088210351
  0
LINE
  8
0
 62
7
  6
CONTINUOUS
 10
81.1617497789
 20
214.1088210351
 11
82.8544588147
 21
214.1088210351
  0
LINE
  8
AXES
 62
2
  6
CENTER
 10
106.4766496355
 20
214.1088210351
 11
108.2266496355
 21
214.1088210351
  0
LINE
  8
0
 62
7
  6
CONTINUOUS
 10
83.1889236805
 20
214.1664128148
 11
86.4115404482
 21
215.3101338281
  0
LINE
  8
0
 62
7
  6
CONTINUOUS
 10
78.2613711605
 20
206.4454321515
 11
80.3466163949
 21
213.4997724127
  0
LINE
  8
0
 62
7
  6
CONTINUOUS
 10
57.626306141
 20
218.2126646733
 11
55.7679305511
 21
218.2126646733
  0
LINE
  8
0
 62
7
  6
CONTINUOUS
 10
46.7853690516
 20
218.2126646733
 11
44.1596011853
 21
218.2126646733
  0
POLYLINE
  8
0
 62
7
  6
CONTINUOUS
 66
1
 70
0
  0
VERTEX
  8
0
 62
7
  6
CONTINUOUS
 10
58.7891268422
 20
218.4703172994
  0
VERTEX
  8
0
 62
7
  6
CONTINUOUS
 10
58.751019597
 20
218.4739577045
  0
VERTEX
  8
0
 62
7
  6
CONTINUOUS
 10
58.7037680288
 20
218.4741499267
  0
VERTEX
  8
0
 62
7
  6
CONTINUOUS
 10
58.6452727374
 20
218.4701836638
  0
VERTEX
  8
0
 62
7
  6
CONTINUOUS
 10
58.5733626708
 20
218.4611380023
  0
VERTEX
  8
0
 62
7
  6
CONTINUOUS
 10
58.4858973418
 20
218.4459448034
  0
VERTEX
  8
0
 62
7
  6
CONTINUOUS
 10
58.3794667498
 20
218.4231262755
  0
VERTEX
  8
0
 62
7
  6
CONTINUOUS
 10
58.2507670235
 20
218.3909798562
  0
VERTEX
  8
0
 62
7
  6
CONTINUOUS
 10
58.097788858
 20
218.3480639382
  0
VERTEX
  8
0
 62
7
  6
CONTINUOUS
 10
57.9171012862
 20
218.2927491786
  0
VERTEX
  8
0
 62
7
  6
CONTINUOUS
 10
57.7085875623
 20
218.2254039588
  0
SEQEND
  0
POLYLINE
  8
0
 62
7
  6
CONTINUOUS
 66
1
 70
0
  0
VERTEX
  8
0
 62
7
  6
CONTINUOUS
 10
57.7085875623
 20
218.2254039595
  0
VERTEX
  8
0
 62
7
  6
CONTINUOUS
 10
57.6825566413
 20
218.2184272519
  0
VERTEX
  8
0
 62
7
  6
CONTINUOUS
 10
57.6551100639
 20
218.2141274295
  0
VERTEX
  8
0
 62
7
  6
CONTINUOUS
 10
57.626306141
 20
218.2126646733
  0
SEQEND
  0
LINE
  8
0
 62
7
  6
CONTINUOUS
 10
104.9489309588
 20
222.1088210351
 11
48.4043683123
 21
222.1088210351
  0
LINE
  8
AXES
 62
2
  6
CONTINUOUS
 10
102.0766496355
 20
214.9888210351
 11
102.0766496355
 21
213.2288210351
  0
LINE
  8
AXES
 62
2
  6
CENTER
 10
102.0766496355
 20
209.7088210351
 11
102.0766496355
 21
207.9588210351
  0
LINE
  8
AXES
 62
2
  6
CENTER
 10
102.0766496355
 20
218.5088210351
 11
102.0766496355
 21
220.2588210351
  0
POLYLINE
  8
0
 62
7
  6
CONTINUOUS
 66
1
 70
0
  0
VERTEX
  8
0
 62
7
  6
CONTINUOUS
 10
104.894026745
 20
207.1088210351
  0
VERTEX
  8
0
 62
7
  6
CONTINUOUS
 10
104.9003685721
 20
206.8522881084
  0
VERTEX
  8
0
 62
7
  6
CONTINUOUS
 10
104.911511289
 20
206.6122131421
  0
VERTEX
  8
0
 62
7
  6
CONTINUOUS
 10
104.9244926596
 20
206.4049387504
  0
VERTEX
  8
0
 62
7
  6
CONTINUOUS
 10
104.9366389905
 20
206.2448898166
  0
VERTEX
  8
0
 62
7
  6
CONTINUOUS
 10
104.9455187874
 20
206.1435934045
  0
VERTEX
  8
0
 62
7
  6
CONTINUOUS
 10
104.9489309588
 20
206.1088210351
  0
SEQEND
  0
LINE
  8
0
 62
7
  6
CONTINUOUS
 10
104.9050760193
 20
221.8588210351
 11
104.9489309588
 21
222.1088210351
  0
POLYLINE
  8
2_FEATURE
 62
7
  6
CONTINUOUS
 66
1
 70
0
  0
VERTEX
  8
2_FEATURE
 62
7
  6
CONTINUOUS
 10
48.4482232517
 20
151.5959051724
  0
VERTEX
  8
2_FEATURE
 62
7
  6
CONTINUOUS
 10
48.43148962
 20
151.5771768636
  0
VERTEX
  8
2_FEATURE
 62
7
  6
CONTINUOUS
 10
48.4172759266
 20
151.5234339907
  0
VERTEX
  8
2_FEATURE
 62
7
  6
CONTINUOUS
 10
48.4077362418
 20
151.442303455
  0
VERTEX
  8
2_FEATURE
 62
7
  6
CONTINUOUS
 10
48.4043683123
 20
151.3459051724
  0
SEQEND
  0
POLYLINE
  8
0
 62
7
  6
CONTINUOUS
 66
1
 70
0
  0
VERTEX
  8
0
 62
7
  6
CONTINUOUS
 10
110.3266935536
 20
84.5959054069
  0
VERTEX
  8
0
 62
7
  6
CONTINUOUS
 10
110.4232807776
 20
84.6153396759
  0
VERTEX
  8
0
 62
7
  6
CONTINUOUS
 10
110.5048625261
 20
84.6705839218
  0
VERTEX
  8
0
 62
7
  6
CONTINUOUS
 10
110.5587649289
 20
84.7530581831
  0
VERTEX
  8
0
 62
7
  6
CONTINUOUS
 10
110.5766495623
 20
84.8459179796
  0
SEQEND
  0
LINE
  8
0
 62
7
  6
CONTINUOUS
 10
44.0454438526
 20
94.0463361889
 11
43.9816697458
 21
94.0970572815
  0
POLYLINE
  8
0
 62
7
  6
CONTINUOUS
 66
1
 70
0
  0
VERTEX
  8
0
 62
7
  6
CONTINUOUS
 10
43.9816697458
 20
94.0970572815
  0
VERTEX
  8
0
 62
7
  6
CONTINUOUS
 10
43.9390969177
 20
94.1786698266
  0
VERTEX
  8
0
 62
7
  6
CONTINUOUS
 10
43.9295217188
 20
94.2756518376
  0
SEQEND
  0
POLYLINE
  8
0
 62
7
  6
CONTINUOUS
 66
1
 70
0
  0
VERTEX
  8
0
 62
7
  6
CONTINUOUS
 10
43.9816697458
 20
133.6947530633
  0
VERTEX
  8
0
 62
7
  6
CONTINUOUS
 10
43.9390969177
 20
133.6131405182
  0
VERTEX
  8
0
 62
7
  6
CONTINUOUS
 10
43.9295217188
 20
133.5161585072
  0
SEQEND
  0
POLYLINE
  8
0
 62
7
  6
CONTINUOUS
 66
1
 70
0
  0
VERTEX
  8
0
 62
7
  6
CONTINUOUS
 10
55.85240094
 20
84.5959051724
  0
VERTEX
  8
0
 62
7
  6
CONTINUOUS
 10
55.767906893
 20
84.6106165071
  0
VERTEX
  8
0
 62
7
  6
CONTINUOUS
 10
55.6948297108
 20
84.6518141944
  0
VERTEX
  8
0
 62
7
  6
CONTINUOUS
 10
55.6372049575
 20
84.7186625336
  0
VERTEX
  8
0
 62
7
  6
CONTINUOUS
 10
55.6055698239
 20
84.8062264608
  0
VERTEX
  8
0
 62
7
  6
CONTINUOUS
 10
55.60240094
 20
84.8459051724
  0
SEQEND
  0
POLYLINE
  8
0
 62
7
  6
CONTINUOUS
 66
1
 70
0
  0
VERTEX
  8
0
 62
7
  6
CONTINUOUS
 10
44.045441437
 20
94.0463373692
  0
VERTEX
  8
0
 62
7
  6
CONTINUOUS
 10
44.6885471864
 20
93.7753096853
  0
VERTEX
  8
0
 62
7
  6
CONTINUOUS
 10
45.5200079711
 20
93.5130466122
  0
VERTEX
  8
0
 62
7
  6
CONTINUOUS
 10
46.4591178943
 20
93.2920790689
  0
VERTEX
  8
0
 62
7
  6
CONTINUOUS
 10
47.4835556535
 20
93.1147647765
  0
VERTEX
  8
0
 62
7
  6
CONTINUOUS
 10
48.4348615789
 20
92.9964060596
  0
SEQEND
  0
POLYLINE
  8
0
 62
7
  6
CONTINUOUS
 66
1
 70
0
  0
VERTEX
  8
0
 62
7
  6
CONTINUOUS
 10
42.7766695382
 20
94.6087254252
  0
VERTEX
  8
0
 62
7
  6
CONTINUOUS
 10
42.7850393752
 20
94.5363915459
  0
VERTEX
  8
0
 62
7
  6
CONTINUOUS
 10
42.865377097
 20
94.3890927856
  0
VERTEX
  8
0
 62
7
  6
CONTINUOUS
 10
42.9843062491
 20
94.2976193548
  0
VERTEX
  8
0
 62
7
  6
CONTINUOUS
 10
43.1354790735
 20
94.2300447296
  0
VERTEX
  8
0
 62
7
  6
CONTINUOUS
 10
43.3334977824
 20
94.1700909917
  0
VERTEX
  8
0
 62
7
  6
CONTINUOUS
 10
43.5819463882
 20
94.1143704209
  0
VERTEX
  8
0
 62
7
  6
CONTINUOUS
 10
43.8686442077
 20
94.0638111297
  0
SEQEND
  0
LINE
  8
0
 62
7
  6
CONTINUOUS
 10
42.7766496823
 20
99.5844106424
 11
42.7766673332
 21
99.5831240341
  0
LINE
  8
0
 62
7
  6
CONTINUOUS
 10
42.7766496823
 20
116.3844106424
 11
42.7766673332
 21
116.3831240341
  0
LINE
  8
0
 62
7
  6
CONTINUOUS
 10
42.7766496355
 20
151.3457744562
 11
42.7766496355
 21
145.0073853204
  0
LINE
  8
0
 62
7
  6
CONTINUOUS
 10
42.7766496355
 20
133.1845099736
 11
42.7766496355
 21
128.2073003712
  0
LINE
  8
2_FEATURE
 62
7
  6
CONTINUOUS
 10
42.7766496355
 20
133.184507641
 11
42.7766496355
 21
128.2073027103
  0
LINE
  8
0
 62
7
  6
CONTINUOUS
 10
42.7766496355
 20
116.3843536509
 11
42.7766496355
 21
111.4074566939
  0
LINE
  8
AXES
 62
7
  6
CONTINUOUS
 10
42.7766496355
 20
99.5843536509
 11
42.7766496355
 21
94.6074566939
  0
LINE
  8
0
 62
7
  6
CONTINUOUS
 10
42.7766496728
 20
145.007319843
 11
42.7766691508
 21
145.0086846639
  0
LINE
  8
0
 62
7
  6
CONTINUOUS
 10
42.7766496823
 20
111.4073997024
 11
42.7766691393
 21
111.4087538699
  0
LINE
  8
0
 62
7
  6
CONTINUOUS
 10
42.7766496823
 20
94.6073997024
 11
42.7766691393
 21
94.6087538699
  0
LINE
  8
0
 62
7
  6
CONTINUOUS
 10
44.0454438526
 20
133.7454741559
 11
43.9816697458
 21
133.6947530633
  0
POLYLINE
  8
2_FEATURE
 62
7
  6
CONTINUOUS
 66
1
 70
0
  0
VERTEX
  8
2_FEATURE
 62
7
  6
CONTINUOUS
 10
55.7013691254
 20
142.5443555398
  0
VERTEX
  8
2_FEATURE
 62
7
  6
CONTINUOUS
 10
55.7401024481
 20
142.5656307202
  0
VERTEX
  8
2_FEATURE
 62
7
  6
CONTINUOUS
 10
55.7712009345
 20
142.6074231002
  0
VERTEX
  8
2_FEATURE
 62
7
  6
CONTINUOUS
 10
55.7993899453
 20
142.6601915148
  0
VERTEX
  8
2_FEATURE
 62
7
  6
CONTINUOUS
 10
55.8262557504
 20
142.7207573013
  0
VERTEX
  8
2_FEATURE
 62
7
  6
CONTINUOUS
 10
55.85240094
 20
142.7875885108
  0
SEQEND
  0
LINE
  8
0
 62
7
  6
CONTINUOUS
 10
110.326646466
 20
84.5959051724
 11
55.85240094
 21
84.5959051724
  0
POLYLINE
  8
0
 62
7
  6
CONTINUOUS
 66
1
 70
0
  0
VERTEX
  8
0
 62
7
  6
CONTINUOUS
 10
43.9816697458
 20
110.8970572815
  0
VERTEX
  8
0
 62
7
  6
CONTINUOUS
 10
43.9390969177
 20
110.9786698266
  0
VERTEX
  8
0
 62
7
  6
CONTINUOUS
 10
43.9295217188
 20
111.0756518376
  0
SEQEND
  0
POLYLINE
  8
0
 62
7
  6
CONTINUOUS
 66
1
 70
0
  0
VERTEX
  8
0
 62
7
  6
CONTINUOUS
 10
42.7767311655
 20
128.2009099849
  0
VERTEX
  8
0
 62
7
  6
CONTINUOUS
 10
42.7850393633
 20
128.1363915955
  0
VERTEX
  8
0
 62
7
  6
CONTINUOUS
 10
42.8653770723
 20
127.9890928123
  0
VERTEX
  8
0
 62
7
  6
CONTINUOUS
 10
42.9843062246
 20
127.8976193687
  0
VERTEX
  8
0
 62
7
  6
CONTINUOUS
 10
43.1354790505
 20
127.8300447379
  0
VERTEX
  8
0
 62
7
  6
CONTINUOUS
 10
43.3334977638
 20
127.7700909965
  0
VERTEX
  8
0
 62
7
  6
CONTINUOUS
 10
43.5819463777
 20
127.714370423
  0
VERTEX
  8
0
 62
7
  6
CONTINUOUS
 10
43.8686442055
 20
127.66381113
  0
SEQEND
  0
POLYLINE
  8
0
 62
7
  6
CONTINUOUS
 66
1
 70
0
  0
VERTEX
  8
0
 62
7
  6
CONTINUOUS
 10
42.7766695382
 20
111.4087254252
  0
VERTEX
  8
0
 62
7
  6
CONTINUOUS
 10
42.7850393752
 20
111.3363915459
  0
VERTEX
  8
0
 62
7
  6
CONTINUOUS
 10
42.865377097
 20
111.1890927856
  0
VERTEX
  8
0
 62
7
  6
CONTINUOUS
 10
42.9843062491
 20
111.0976193548
  0
VERTEX
  8
0
 62
7
  6
CONTINUOUS
 10
43.1354790735
 20
111.0300447296
  0
VERTEX
  8
0
 62
7
  6
CONTINUOUS
 10
43.3334977824
 20
110.9700909917
  0
VERTEX
  8
0
 62
7
  6
CONTINUOUS
 10
43.5819463882
 20
110.9143704209
  0
VERTEX
  8
0
 62
7
  6
CONTINUOUS
 10
43.8686442077
 20
110.8638111297
  0
SEQEND
  0
POLYLINE
  8
0
 62
7
  6
CONTINUOUS
 66
1
 70
0
  0
VERTEX
  8
0
 62
7
  6
CONTINUOUS
 10
48.4043683123
 20
100.9454449763
  0
VERTEX
  8
0
 62
7
  6
CONTINUOUS
 10
48.4035675116
 20
101.0588290663
  0
VERTEX
  8
0
 62
7
  6
CONTINUOUS
 10
48.4121229366
 20
101.1465300899
  0
VERTEX
  8
0
 62
7
  6
CONTINUOUS
 10
48.4281914835
 20
101.1916062447
  0
VERTEX
  8
0
 62
7
  6
CONTINUOUS
 10
48.4346632849
 20
101.1954048938
  0
SEQEND
  0
POLYLINE
  8
0
 62
7
  6
CONTINUOUS
 66
1
 70
0
  0
VERTEX
  8
0
 62
7
  6
CONTINUOUS
 10
48.4043683123
 20
117.7454449763
  0
VERTEX
  8
0
 62
7
  6
CONTINUOUS
 10
48.4035675116
 20
117.8588290663
  0
VERTEX
  8
0
 62
7
  6
CONTINUOUS
 10
48.4121229366
 20
117.9465300899
  0
VERTEX
  8
0
 62
7
  6
CONTINUOUS
 10
48.4281914835
 20
117.9916062447
  0
VERTEX
  8
0
 62
7
  6
CONTINUOUS
 10
48.4346632849
 20
117.9954048938
  0
SEQEND
  0
LINE
  8
0
 62
7
  6
CONTINUOUS
 10
48.4043683123
 20
134.5454449763
 11
48.4043683123
 21
126.8463653685
  0
LINE
  8
0
 62
7
  6
CONTINUOUS
 10
48.4043683123
 20
100.9454449763
 11
48.4043683123
 21
93.2463653685
  0
LINE
  8
0
 62
7
  6
CONTINUOUS
 10
48.4043683123
 20
110.0463653685
 11
48.4043683123
 21
117.7454449763
  0
LINE
  8
2_FEATURE
 62
7
  6
CONTINUOUS
 10
48.4043683123
 20
143.6463653685
 11
48.4043683123
 21
151.3459051724
  0
POLYLINE
  8
0
 62
7
  6
CONTINUOUS
 66
1
 70
0
  0
VERTEX
  8
0
 62
7
  6
CONTINUOUS
 10
48.4043683123
 20
143.6463653685
  0
VERTEX
  8
0
 62
7
  6
CONTINUOUS
 10
48.4035675116
 20
143.5329812785
  0
VERTEX
  8
0
 62
7
  6
CONTINUOUS
 10
48.4121229366
 20
143.4452802549
  0
VERTEX
  8
0
 62
7
  6
CONTINUOUS
 10
48.4281914835
 20
143.4002041001
  0
VERTEX
  8
0
 62
7
  6
CONTINUOUS
 10
48.4346632849
 20
143.396405451
  0
SEQEND
  0
POLYLINE
  8
0
 62
7
  6
CONTINUOUS
 66
1
 70
0
  0
VERTEX
  8
0
 62
7
  6
CONTINUOUS
 10
48.4043683123
 20
126.8463653685
  0
VERTEX
  8
0
 62
7
  6
CONTINUOUS
 10
48.4035675116
 20
126.7329812785
  0
VERTEX
  8
0
 62
7
  6
CONTINUOUS
 10
48.4121229366
 20
126.6452802549
  0
VERTEX
  8
0
 62
7
  6
CONTINUOUS
 10
48.4281914835
 20
126.6002041001
  0
VERTEX
  8
0
 62
7
  6
CONTINUOUS
 10
48.4346632849
 20
126.596405451
  0
SEQEND
  0
POLYLINE
  8
0
 62
7
  6
CONTINUOUS
 66
1
 70
0
  0
VERTEX
  8
0
 62
7
  6
CONTINUOUS
 10
48.4043683123
 20
110.0463653685
  0
VERTEX
  8
0
 62
7
  6
CONTINUOUS
 10
48.4035675116
 20
109.9329812785
  0
VERTEX
  8
0
 62
7
  6
CONTINUOUS
 10
48.4121229366
 20
109.8452802549
  0
VERTEX
  8
0
 62
7
  6
CONTINUOUS
 10
48.4281914835
 20
109.8002041001
  0
VERTEX
  8
0
 62
7
  6
CONTINUOUS
 10
48.4346632849
 20
109.796405451
  0
SEQEND
  0
POLYLINE
  8
0
 62
7
  6
CONTINUOUS
 66
1
 70
0
  0
VERTEX
  8
0
 62
7
  6
CONTINUOUS
 10
43.9816697458
 20
116.8947530633
  0
VERTEX
  8
0
 62
7
  6
CONTINUOUS
 10
43.9390969177
 20
116.8131405182
  0
VERTEX
  8
0
 62
7
  6
CONTINUOUS
 10
43.9295217188
 20
116.7161585072
  0
SEQEND
  0
LINE
  8
2_FEATURE
 62
7
  6
CONTINUOUS
 10
94.0201373565
 20
93.0907688376
 11
93.9545453694
 21
93.0721525225
  0
POLYLINE
  8
2_FEATURE
 62
7
  6
CONTINUOUS
 66
1
 70
0
  0
VERTEX
  8
2_FEATURE
 62
7
  6
CONTINUOUS
 10
94.0201373565
 20
93.0907688376
  0
VERTEX
  8
2_FEATURE
 62
7
  6
CONTINUOUS
 10
94.1834287371
 20
93.1362913535
  0
VERTEX
  8
2_FEATURE
 62
7
  6
CONTINUOUS
 10
94.3207283591
 20
93.1728775212
  0
VERTEX
  8
2_FEATURE
 62
7
  6
CONTINUOUS
 10
94.425132991
 20
93.1987568267
  0
SEQEND
  0
POLYLINE
  8
2_FEATURE
 62
7
  6
CONTINUOUS
 66
1
 70
0
  0
VERTEX
  8
2_FEATURE
 62
7
  6
CONTINUOUS
 10
96.0987539017
 20
93.6196007995
  0
VERTEX
  8
2_FEATURE
 62
7
  6
CONTINUOUS
 10
95.4655527267
 20
93.45500249
  0
VERTEX
  8
2_FEATURE
 62
7
  6
CONTINUOUS
 10
94.9061007128
 20
93.3143393269
  0
VERTEX
  8
2_FEATURE
 62
7
  6
CONTINUOUS
 10
94.425132991
 20
93.1987568267
  0
SEQEND
  0
POLYLINE
  8
2_FEATURE
 62
7
  6
CONTINUOUS
 66
1
 70
0
  0
VERTEX
  8
2_FEATURE
 62
7
  6
CONTINUOUS
 10
97.7508776803
 20
93.6544164527
  0
VERTEX
  8
2_FEATURE
 62
7
  6
CONTINUOUS
 10
97.7418731574
 20
93.6520872388
  0
VERTEX
  8
2_FEATURE
 62
7
  6
CONTINUOUS
 10
97.70782983
 20
93.6495130066
  0
VERTEX
  8
2_FEATURE
 62
7
  6
CONTINUOUS
 10
97.6519327201
 20
93.647454888
  0
SEQEND
  0
POLYLINE
  8
0
 62
7
  6
CONTINUOUS
 66
1
 70
0
  0
VERTEX
  8
0
 62
7
  6
CONTINUOUS
 10
55.85240094
 20
84.5959051724
  0
VERTEX
  8
0
 62
7
  6
CONTINUOUS
 10
55.8565712919
 20
84.5967452983
  0
VERTEX
  8
0
 62
7
  6
CONTINUOUS
 10
55.8567324412
 20
84.5997834436
  0
VERTEX
  8
0
 62
7
  6
CONTINUOUS
 10
55.8546562644
 20
84.6058842187
  0
VERTEX
  8
0
 62
7
  6
CONTINUOUS
 10
55.8522170539
 20
84.6160285427
  0
VERTEX
  8
0
 62
7
  6
CONTINUOUS
 10
55.8511073725
 20
84.631016725
  0
VERTEX
  8
0
 62
7
  6
CONTINUOUS
 10
55.8517681811
 20
84.6511748694
  0
VERTEX
  8
0
 62
7
  6
CONTINUOUS
 10
55.852409374
 20
84.6773785057
  0
VERTEX
  8
0
 62
7
  6
CONTINUOUS
 10
55.8518398498
 20
84.7124909074
  0
VERTEX
  8
0
 62
7
  6
CONTINUOUS
 10
55.8526311599
 20
84.7568018839
  0
VERTEX
  8
0
 62
7
  6
CONTINUOUS
 10
55.8542040872
 20
84.8041743971
  0
VERTEX
  8
0
 62
7
  6
CONTINUOUS
 10
55.85240094
 20
84.8459051724
  0
SEQEND
  0
LINE
  8
0
 62
7
  6
CONTINUOUS
 10
43.8686442077
 20
94.0638111297
 11
44.0771911678
 21
94.032956901
  0
POLYLINE
  8
0
 62
7
  6
CONTINUOUS
 66
1
 70
0
  0
VERTEX
  8
0
 62
7
  6
CONTINUOUS
 10
42.7766695381
 20
145.008725422
  0
VERTEX
  8
0
 62
7
  6
CONTINUOUS
 10
42.7850391963
 20
144.9363922928
  0
VERTEX
  8
0
 62
7
  6
CONTINUOUS
 10
42.8653767241
 20
144.7890931894
  0
VERTEX
  8
0
 62
7
  6
CONTINUOUS
 10
42.9843058791
 20
144.6976195645
  0
VERTEX
  8
0
 62
7
  6
CONTINUOUS
 10
43.1354787267
 20
144.6300448552
  0
VERTEX
  8
0
 62
7
  6
CONTINUOUS
 10
43.3334975017
 20
144.5700910641
  0
VERTEX
  8
0
 62
7
  6
CONTINUOUS
 10
43.5819462294
 20
144.5143704522
  0
VERTEX
  8
0
 62
7
  6
CONTINUOUS
 10
43.8686441756
 20
144.4638111347
  0
SEQEND
  0
POLYLINE
  8
0
 62
7
  6
CONTINUOUS
 66
1
 70
0
  0
VERTEX
  8
0
 62
7
  6
CONTINUOUS
 10
48.4043683123
 20
134.5454449763
  0
VERTEX
  8
0
 62
7
  6
CONTINUOUS
 10
48.4035675116
 20
134.6588290663
  0
VERTEX
  8
0
 62
7
  6
CONTINUOUS
 10
48.4121229366
 20
134.7465300899
  0
VERTEX
  8
0
 62
7
  6
CONTINUOUS
 10
48.4281914835
 20
134.7916062447
  0
VERTEX
  8
0
 62
7
  6
CONTINUOUS
 10
48.4346632849
 20
134.7954048938
  0
SEQEND
  0
LINE
  8
DEFAULT_1
 62
2
  6
CENTER
 10
51.2766496355
 20
87.1633260394
 11
51.2766496355
 21
153.5959051724
  0
POLYLINE
  8
0
 62
7
  6
CONTINUOUS
 66
1
 70
0
  0
VERTEX
  8
0
 62
7
  6
CONTINUOUS
 10
48.4043683123
 20
93.2463653685
  0
VERTEX
  8
0
 62
7
  6
CONTINUOUS
 10
48.4035675116
 20
93.1329812785
  0
VERTEX
  8
0
 62
7
  6
CONTINUOUS
 10
48.4121229366
 20
93.0452802549
  0
VERTEX
  8
0
 62
7
  6
CONTINUOUS
 10
48.4281914835
 20
93.0002041001
  0
VERTEX
  8
0
 62
7
  6
CONTINUOUS
 10
48.4346632849
 20
92.996405451
  0
SEQEND
  0
POLYLINE
  8
2_FEATURE
 62
7
  6
CONTINUOUS
 66
1
 70
0
  0
VERTEX
  8
2_FEATURE
 62
7
  6
CONTINUOUS
 10
55.6024215852
 20
135.6544164522
  0
VERTEX
  8
2_FEATURE
 62
7
  6
CONTINUOUS
 10
55.6028035261
 20
135.6549070499
  0
VERTEX
  8
2_FEATURE
 62
7
  6
CONTINUOUS
 10
55.6205369594
 20
135.6576763038
  0
VERTEX
  8
2_FEATURE
 62
7
  6
CONTINUOUS
 10
55.6627706069
 20
135.6601008154
  0
VERTEX
  8
2_FEATURE
 62
7
  6
CONTINUOUS
 10
55.7252967371
 20
135.6619294668
  0
SEQEND
  0
LINE
  8
0
 62
7
  6
CONTINUOUS
 10
44.6885471864
 20
134.0165006595
 11
44.045441437
 21
133.7454729757
  0
POLYLINE
  8
2_FEATURE
 62
7
  6
CONTINUOUS
 66
1
 70
0
  0
VERTEX
  8
2_FEATURE
 62
7
  6
CONTINUOUS
 10
96.0987539017
 20
93.6196007995
  0
VERTEX
  8
2_FEATURE
 62
7
  6
CONTINUOUS
 10
96.2884644272
 20
93.6598306382
  0
VERTEX
  8
2_FEATURE
 62
7
  6
CONTINUOUS
 10
96.478397649
 20
93.6813473033
  0
VERTEX
  8
2_FEATURE
 62
7
  6
CONTINUOUS
 10
96.666466451
 20
93.6848994384
  0
SEQEND
  0
POLYLINE
  8
2_FEATURE
 62
7
  6
CONTINUOUS
 66
1
 70
0
  0
VERTEX
  8
2_FEATURE
 62
7
  6
CONTINUOUS
 10
93.38683282
 20
92.9968720221
  0
VERTEX
  8
2_FEATURE
 62
7
  6
CONTINUOUS
 10
93.5789763811
 20
93.003747506
  0
VERTEX
  8
2_FEATURE
 62
7
  6
CONTINUOUS
 10
93.7688597934
 20
93.028984979
  0
VERTEX
  8
2_FEATURE
 62
7
  6
CONTINUOUS
 10
93.9545453694
 20
93.0721525225
  0
SEQEND
  0
LINE
  8
2_FEATURE
 62
7
  6
CONTINUOUS
 10
98.2502714378
 20
92.7954449763
 11
104.9173562984
 21
92.7954449763
  0
LINE
  8
0
 62
7
  6
CONTINUOUS
 10
55.1030128769
 20
92.9963653685
 11
48.4359362831
 21
92.9963653685
  0
LINE
  8
0
 62
7
  6
CONTINUOUS
 10
48.4346632849
 20
92.996405451
 11
48.4354663286
 21
92.9963654526
  0
LINE
  8
0
 62
7
  6
CONTINUOUS
 10
44.0454438526
 20
110.8463361889
 11
43.9816697458
 21
110.8970572815
  0
POLYLINE
  8
2_FEATURE
 62
7
  6
CONTINUOUS
 66
1
 70
0
  0
VERTEX
  8
2_FEATURE
 62
7
  6
CONTINUOUS
 10
55.8524009404
 20
101.8056886746
  0
VERTEX
  8
2_FEATURE
 62
7
  6
CONTINUOUS
 10
55.8259587864
 20
101.8720040282
  0
VERTEX
  8
2_FEATURE
 62
7
  6
CONTINUOUS
 10
55.7992771289
 20
101.9323072363
  0
VERTEX
  8
2_FEATURE
 62
7
  6
CONTINUOUS
 10
55.7711549283
 20
101.9848146095
  0
VERTEX
  8
2_FEATURE
 62
7
  6
CONTINUOUS
 10
55.7400648025
 20
102.0263502969
  0
VERTEX
  8
2_FEATURE
 62
7
  6
CONTINUOUS
 10
55.7013704647
 20
102.0474547672
  0
SEQEND
  0
LINE
  8
2_FEATURE
 62
7
  6
CONTINUOUS
 10
83.94343523
 20
93.1139091128
 11
93.38683282
 21
92.9968720221
  0
LINE
  8
2_FEATURE
 62
7
  6
CONTINUOUS
 10
97.628002534
 20
93.6619294668
 11
96.666466451
 21
93.6848994384
  0
POLYLINE
  8
2_FEATURE
 62
7
  6
CONTINUOUS
 66
1
 70
0
  0
VERTEX
  8
2_FEATURE
 62
7
  6
CONTINUOUS
 10
97.628002534
 20
93.6619294668
  0
VERTEX
  8
2_FEATURE
 62
7
  6
CONTINUOUS
 10
97.6905284437
 20
93.6601008244
  0
VERTEX
  8
2_FEATURE
 62
7
  6
CONTINUOUS
 10
97.7327620213
 20
93.657676329
  0
VERTEX
  8
2_FEATURE
 62
7
  6
CONTINUOUS
 10
97.750495683
 20
93.6549070879
  0
VERTEX
  8
2_FEATURE
 62
7
  6
CONTINUOUS
 10
97.7508776803
 20
93.6544164527
  0
SEQEND
  0
LINE
  8
2_FEATURE
 62
7
  6
CONTINUOUS
 10
104.9178611538
 20
92.7954449763
 11
104.9186307135
 21
92.7954048783
  0
POLYLINE
  8
2_FEATURE
 62
7
  6
CONTINUOUS
 66
1
 70
0
  0
VERTEX
  8
2_FEATURE
 62
7
  6
CONTINUOUS
 10
55.6024215864
 20
108.9373938926
  0
VERTEX
  8
2_FEATURE
 62
7
  6
CONTINUOUS
 10
55.6028035576
 20
108.9369032757
  0
VERTEX
  8
2_FEATURE
 62
7
  6
CONTINUOUS
 10
55.6205370967
 20
108.9341340291
  0
VERTEX
  8
2_FEATURE
 62
7
  6
CONTINUOUS
 10
55.6627707236
 20
108.9317095247
  0
VERTEX
  8
2_FEATURE
 62
7
  6
CONTINUOUS
 10
55.7252967371
 20
108.929880878
  0
SEQEND
  0
POLYLINE
  8
0
 62
7
  6
CONTINUOUS
 66
1
 70
0
  0
VERTEX
  8
0
 62
7
  6
CONTINUOUS
 10
43.9816697458
 20
127.6970572815
  0
VERTEX
  8
0
 62
7
  6
CONTINUOUS
 10
43.9390969177
 20
127.7786698266
  0
VERTEX
  8
0
 62
7
  6
CONTINUOUS
 10
43.9295217188
 20
127.8756518376
  0
SEQEND
  0
LINE
  8
0
 62
7
  6
CONTINUOUS
 10
55.60240094
 20
142.8969805123
 11
55.60240094
 21
142.5373938257
  0
LINE
  8
0
 62
7
  6
CONTINUOUS
 10
55.60240094
 20
135.6544165191
 11
55.60240094
 21
135.2948298325
  0
LINE
  8
0
 62
7
  6
CONTINUOUS
 10
55.60240094
 20
126.0969805123
 11
55.60240094
 21
125.7373938257
  0
LINE
  8
0
 62
7
  6
CONTINUOUS
 10
55.60240094
 20
118.8544165191
 11
55.60240094
 21
118.4948298325
  0
LINE
  8
0
 62
7
  6
CONTINUOUS
 10
55.60240094
 20
109.2969805123
 11
55.60240094
 21
108.9373938257
  0
LINE
  8
0
 62
7
  6
CONTINUOUS
 10
55.60240094
 20
102.0544165191
 11
55.60240094
 21
101.6948298325
  0
LINE
  8
0
 62
7
  6
CONTINUOUS
 10
55.60240094
 20
92.4969805123
 11
55.60240094
 21
84.8459051724
  0
POLYLINE
  8
0
 62
7
  6
CONTINUOUS
 66
1
 70
0
  0
VERTEX
  8
0
 62
7
  6
CONTINUOUS
 10
43.9816697458
 20
100.0947530633
  0
VERTEX
  8
0
 62
7
  6
CONTINUOUS
 10
43.9390969177
 20
100.0131405182
  0
VERTEX
  8
0
 62
7
  6
CONTINUOUS
 10
43.9295217188
 20
99.9161585072
  0
SEQEND
  0
LINE
  8
0
 62
7
  6
CONTINUOUS
 10
44.0454438526
 20
116.9454741559
 11
43.9816697458
 21
116.8947530633
  0
POLYLINE
  8
0
 62
7
  6
CONTINUOUS
 66
1
 70
0
  0
VERTEX
  8
0
 62
7
  6
CONTINUOUS
 10
109.2761042521
 20
102.4329552702
  0
VERTEX
  8
0
 62
7
  6
CONTINUOUS
 10
109.4836640274
 20
102.463653839
  0
VERTEX
  8
0
 62
7
  6
CONTINUOUS
 10
109.7719304739
 20
102.5144844052
  0
VERTEX
  8
0
 62
7
  6
CONTINUOUS
 10
110.0224578702
 20
102.5707777656
  0
VERTEX
  8
0
 62
7
  6
CONTINUOUS
 10
110.2218700668
 20
102.6315178568
  0
VERTEX
  8
0
 62
7
  6
CONTINUOUS
 10
110.373678788
 20
102.7002991486
  0
VERTEX
  8
0
 62
7
  6
CONTINUOUS
 10
110.4927354727
 20
102.7944037842
  0
VERTEX
  8
0
 62
7
  6
CONTINUOUS
 10
110.5704054368
 20
102.9460326487
  0
VERTEX
  8
0
 62
7
  6
CONTINUOUS
 10
110.5766315401
 20
103.0086577271
  0
SEQEND
  0
POLYLINE
  8
0
 62
7
  6
CONTINUOUS
 66
1
 70
0
  0
VERTEX
  8
0
 62
7
  6
CONTINUOUS
 10
104.9184376925
 20
101.3964060597
  0
VERTEX
  8
0
 62
7
  6
CONTINUOUS
 10
105.8697593905
 20
101.5147670823
  0
VERTEX
  8
0
 62
7
  6
CONTINUOUS
 10
106.8941923569
 20
101.6920812913
  0
VERTEX
  8
0
 62
7
  6
CONTINUOUS
 10
107.8332978833
 20
101.9130484049
  0
VERTEX
  8
0
 62
7
  6
CONTINUOUS
 10
108.6647549321
 20
102.1753107274
  0
SEQEND
  0
LINE
  8
2_FEATURE
 62
7
  6
CONTINUOUS
 10
109.4846550954
 20
91.7279992101
 11
109.276108132
 21
91.7588534395
  0
POLYLINE
  8
2_FEATURE
 62
7
  6
CONTINUOUS
 66
1
 70
0
  0
VERTEX
  8
2_FEATURE
 62
7
  6
CONTINUOUS
 10
59.3987539017
 20
101.4721525225
  0
VERTEX
  8
2_FEATURE
 62
7
  6
CONTINUOUS
 10
59.5844394777
 20
101.428984979
  0
VERTEX
  8
2_FEATURE
 62
7
  6
CONTINUOUS
 10
59.7743228899
 20
101.403747506
  0
VERTEX
  8
2_FEATURE
 62
7
  6
CONTINUOUS
 10
59.966466451
 20
101.3968720221
  0
SEQEND
  0
POLYLINE
  8
2_FEATURE
 62
7
  6
CONTINUOUS
 66
1
 70
0
  0
VERTEX
  8
2_FEATURE
 62
7
  6
CONTINUOUS
 10
58.9281662801
 20
101.5987568267
  0
VERTEX
  8
2_FEATURE
 62
7
  6
CONTINUOUS
 10
58.4471968961
 20
101.7143397363
  0
VERTEX
  8
2_FEATURE
 62
7
  6
CONTINUOUS
 10
57.8877453449
 20
101.855002797
  0
VERTEX
  8
2_FEATURE
 62
7
  6
CONTINUOUS
 10
57.2545453694
 20
102.0196007995
  0
SEQEND
  0
POLYLINE
  8
2_FEATURE
 62
7
  6
CONTINUOUS
 66
1
 70
0
  0
VERTEX
  8
2_FEATURE
 62
7
  6
CONTINUOUS
 10
58.9281662801
 20
101.5987568267
  0
VERTEX
  8
2_FEATURE
 62
7
  6
CONTINUOUS
 10
59.0325716741
 20
101.5728773243
  0
VERTEX
  8
2_FEATURE
 62
7
  6
CONTINUOUS
 10
59.1698698863
 20
101.5362915304
  0
VERTEX
  8
2_FEATURE
 62
7
  6
CONTINUOUS
 10
59.3331619146
 20
101.4907688376
  0
SEQEND
  0
LINE
  8
2_FEATURE
 62
7
  6
CONTINUOUS
 10
59.3331619146
 20
101.4907688376
 11
59.3987539017
 21
101.4721525225
  0
POLYLINE
  8
2_FEATURE
 62
7
  6
CONTINUOUS
 66
1
 70
0
  0
VERTEX
  8
2_FEATURE
 62
7
  6
CONTINUOUS
 10
83.1889236805
 20
93.2748553148
  0
VERTEX
  8
2_FEATURE
 62
7
  6
CONTINUOUS
 10
83.4327374232
 20
93.188202589
  0
VERTEX
  8
2_FEATURE
 62
7
  6
CONTINUOUS
 10
83.6858280061
 20
93.134171095
  0
VERTEX
  8
2_FEATURE
 62
7
  6
CONTINUOUS
 10
83.94343523
 20
93.1139091128
  0
SEQEND
  0
POLYLINE
  8
0
 62
7
  6
CONTINUOUS
 66
1
 70
0
  0
VERTEX
  8
0
 62
7
  6
CONTINUOUS
 10
44.045441437
 20
110.8463373692
  0
VERTEX
  8
0
 62
7
  6
CONTINUOUS
 10
44.6885471864
 20
110.5753096853
  0
VERTEX
  8
0
 62
7
  6
CONTINUOUS
 10
45.5200079711
 20
110.3130466122
  0
VERTEX
  8
0
 62
7
  6
CONTINUOUS
 10
46.4591178943
 20
110.0920790689
  0
VERTEX
  8
0
 62
7
  6
CONTINUOUS
 10
47.4835556535
 20
109.9147647765
  0
VERTEX
  8
0
 62
7
  6
CONTINUOUS
 10
48.4348615789
 20
109.7964060596
  0
SEQEND
  0
POLYLINE
  8
2_FEATURE
 62
7
  6
CONTINUOUS
 66
1
 70
0
  0
VERTEX
  8
2_FEATURE
 62
7
  6
CONTINUOUS
 10
55.8524009404
 20
118.6057191629
  0
VERTEX
  8
2_FEATURE
 62
7
  6
CONTINUOUS
 10
55.8259506167
 20
118.6720235931
  0
VERTEX
  8
2_FEATURE
 62
7
  6
CONTINUOUS
 10
55.7992709853
 20
118.7323204523
  0
VERTEX
  8
2_FEATURE
 62
7
  6
CONTINUOUS
 10
55.7711505731
 20
118.7848220457
  0
VERTEX
  8
2_FEATURE
 62
7
  6
CONTINUOUS
 10
55.74006229
 20
118.8263529344
  0
VERTEX
  8
2_FEATURE
 62
7
  6
CONTINUOUS
 10
55.7013704957
 20
118.8474547663
  0
SEQEND
  0
POLYLINE
  8
2_FEATURE
 62
7
  6
CONTINUOUS
 66
1
 70
0
  0
VERTEX
  8
2_FEATURE
 62
7
  6
CONTINUOUS
 10
55.6024215852
 20
118.8544164522
  0
VERTEX
  8
2_FEATURE
 62
7
  6
CONTINUOUS
 10
55.6028035258
 20
118.8549070496
  0
VERTEX
  8
2_FEATURE
 62
7
  6
CONTINUOUS
 10
55.620536958
 20
118.8576763037
  0
VERTEX
  8
2_FEATURE
 62
7
  6
CONTINUOUS
 10
55.6627706057
 20
118.8601008154
  0
VERTEX
  8
2_FEATURE
 62
7
  6
CONTINUOUS
 10
55.7252967371
 20
118.8619294668
  0
SEQEND
  0
POLYLINE
  8
2_FEATURE
 62
7
  6
CONTINUOUS
 66
1
 70
0
  0
VERTEX
  8
2_FEATURE
 62
7
  6
CONTINUOUS
 10
70.4988404563
 20
135.4551895833
  0
VERTEX
  8
2_FEATURE
 62
7
  6
CONTINUOUS
 10
70.6960300371
 20
135.6034066066
  0
VERTEX
  8
2_FEATURE
 62
7
  6
CONTINUOUS
 10
70.8734494685
 20
135.7747989774
  0
VERTEX
  8
2_FEATURE
 62
7
  6
CONTINUOUS
 10
71.0283911356
 20
135.9667522026
  0
VERTEX
  8
2_FEATURE
 62
7
  6
CONTINUOUS
 10
71.1584937697
 20
136.1763358094
  0
VERTEX
  8
2_FEATURE
 62
7
  6
CONTINUOUS
 10
71.2617791152
 20
136.4003495054
  0
VERTEX
  8
2_FEATURE
 62
7
  6
CONTINUOUS
 10
71.3366835229
 20
136.635378522
  0
VERTEX
  8
2_FEATURE
 62
7
  6
CONTINUOUS
 10
71.3820776881
 20
136.8778420687
  0
VERTEX
  8
2_FEATURE
 62
7
  6
CONTINUOUS
 10
71.3972834796
 20
137.1240529824
  0
SEQEND
  0
POLYLINE
  8
2_FEATURE
 62
7
  6
CONTINUOUS
 66
1
 70
0
  0
VERTEX
  8
2_FEATURE
 62
7
  6
CONTINUOUS
 10
55.7013691254
 20
125.7443555398
  0
VERTEX
  8
2_FEATURE
 62
7
  6
CONTINUOUS
 10
55.7401024481
 20
125.7656307202
  0
VERTEX
  8
2_FEATURE
 62
7
  6
CONTINUOUS
 10
55.7712009345
 20
125.8074231002
  0
VERTEX
  8
2_FEATURE
 62
7
  6
CONTINUOUS
 10
55.7993899453
 20
125.8601915148
  0
VERTEX
  8
2_FEATURE
 62
7
  6
CONTINUOUS
 10
55.8262557504
 20
125.9207573013
  0
VERTEX
  8
2_FEATURE
 62
7
  6
CONTINUOUS
 10
55.85240094
 20
125.9875885108
  0
SEQEND
  0
POLYLINE
  8
2_FEATURE
 62
7
  6
CONTINUOUS
 66
1
 70
0
  0
VERTEX
  8
2_FEATURE
 62
7
  6
CONTINUOUS
 10
70.1643755906
 20
135.2748553148
  0
VERTEX
  8
2_FEATURE
 62
7
  6
CONTINUOUS
 10
70.2723191191
 20
135.3248941777
  0
VERTEX
  8
2_FEATURE
 62
7
  6
CONTINUOUS
 10
70.3839880316
 20
135.3845573477
  0
VERTEX
  8
2_FEATURE
 62
7
  6
CONTINUOUS
 10
70.4988404563
 20
135.4551895833
  0
SEQEND
  0
POLYLINE
  8
2_FEATURE
 62
7
  6
CONTINUOUS
 66
1
 70
0
  0
VERTEX
  8
2_FEATURE
 62
7
  6
CONTINUOUS
 10
83.94343523
 20
101.077901232
  0
VERTEX
  8
2_FEATURE
 62
7
  6
CONTINUOUS
 10
83.6858280061
 20
101.0576392499
  0
VERTEX
  8
2_FEATURE
 62
7
  6
CONTINUOUS
 10
83.4327374232
 20
101.0036077559
  0
VERTEX
  8
2_FEATURE
 62
7
  6
CONTINUOUS
 10
83.1889236805
 20
100.91695503
  0
SEQEND
  0
POLYLINE
  8
2_FEATURE
 62
7
  6
CONTINUOUS
 66
1
 70
0
  0
VERTEX
  8
2_FEATURE
 62
7
  6
CONTINUOUS
 10
69.4098640411
 20
101.5139091128
  0
VERTEX
  8
2_FEATURE
 62
7
  6
CONTINUOUS
 10
69.6674712649
 20
101.534171095
  0
VERTEX
  8
2_FEATURE
 62
7
  6
CONTINUOUS
 10
69.9205618479
 20
101.588202589
  0
VERTEX
  8
2_FEATURE
 62
7
  6
CONTINUOUS
 10
70.1643755906
 20
101.6748553148
  0
SEQEND
  0
LINE
  8
0
 62
7
  6
CONTINUOUS
 10
104.9178611538
 20
101.3963653685
 11
104.9186307135
 21
101.3964054665
  0
LINE
  8
0
 62
7
  6
CONTINUOUS
 10
48.4346632849
 20
101.1954048938
 11
48.4354663286
 21
101.1954448923
  0
POLYLINE
  8
2_FEATURE
 62
7
  6
CONTINUOUS
 66
1
 70
0
  0
VERTEX
  8
2_FEATURE
 62
7
  6
CONTINUOUS
 10
97.628002534
 20
100.529880878
  0
VERTEX
  8
2_FEATURE
 62
7
  6
CONTINUOUS
 10
97.6905285603
 20
100.5317095252
  0
VERTEX
  8
2_FEATURE
 62
7
  6
CONTINUOUS
 10
97.7327621585
 20
100.5341340277
  0
VERTEX
  8
2_FEATURE
 62
7
  6
CONTINUOUS
 10
97.7504957144
 20
100.5369032762
  0
VERTEX
  8
2_FEATURE
 62
7
  6
CONTINUOUS
 10
97.7508776815
 20
100.5373938922
  0
SEQEND
  0
LINE
  8
2_FEATURE
 62
7
  6
CONTINUOUS
 10
97.628002534
 20
100.529880878
 11
96.666466451
 21
100.5069109064
  0
LINE
  8
2_FEATURE
 62
7
  6
CONTINUOUS
 10
56.68683282
 20
102.0848994384
 11
55.7252967371
 21
102.0619294668
  0
LINE
  8
2_FEATURE
 62
7
  6
CONTINUOUS
 10
83.94343523
 20
101.077901232
 11
93.38683282
 21
101.1949383228
  0
LINE
  8
2_FEATURE
 62
7
  6
CONTINUOUS
 10
69.4098640411
 20
101.5139091128
 11
59.966466451
 21
101.3968720221
  0
LINE
  8
0
 62
7
  6
CONTINUOUS
 10
48.4359362831
 20
101.1954449763
 11
55.1030128769
 21
101.1954449763
  0
LINE
  8
0
 62
7
  6
CONTINUOUS
 10
104.9173562984
 20
101.3963653685
 11
98.2502714378
 21
101.3963653685
  0
POLYLINE
  8
2_FEATURE
 62
7
  6
CONTINUOUS
 66
1
 70
0
  0
VERTEX
  8
2_FEATURE
 62
7
  6
CONTINUOUS
 10
96.666466451
 20
100.5069109064
  0
VERTEX
  8
2_FEATURE
 62
7
  6
CONTINUOUS
 10
96.478397649
 20
100.5104630416
  0
VERTEX
  8
2_FEATURE
 62
7
  6
CONTINUOUS
 10
96.2884644272
 20
100.5319797067
  0
VERTEX
  8
2_FEATURE
 62
7
  6
CONTINUOUS
 10
96.0987539017
 20
100.5722095453
  0
SEQEND
  0
POLYLINE
  8
2_FEATURE
 62
7
  6
CONTINUOUS
 66
1
 70
0
  0
VERTEX
  8
2_FEATURE
 62
7
  6
CONTINUOUS
 10
56.68683282
 20
102.0848994384
  0
VERTEX
  8
2_FEATURE
 62
7
  6
CONTINUOUS
 10
56.874901622
 20
102.0813473033
  0
VERTEX
  8
2_FEATURE
 62
7
  6
CONTINUOUS
 10
57.0648348438
 20
102.0598306382
  0
VERTEX
  8
2_FEATURE
 62
7
  6
CONTINUOUS
 10
57.2545453694
 20
102.0196007995
  0
SEQEND
  0
POLYLINE
  8
2_FEATURE
 62
7
  6
CONTINUOUS
 66
1
 70
0
  0
VERTEX
  8
2_FEATURE
 62
7
  6
CONTINUOUS
 10
55.7013666618
 20
102.047454893
  0
VERTEX
  8
2_FEATURE
 62
7
  6
CONTINUOUS
 10
55.645470115
 20
102.0495129718
  0
VERTEX
  8
2_FEATURE
 62
7
  6
CONTINUOUS
 10
55.6114264398
 20
102.0520871976
  0
VERTEX
  8
2_FEATURE
 62
7
  6
CONTINUOUS
 10
55.6024215852
 20
102.0544164522
  0
SEQEND
  0
POLYLINE
  8
2_FEATURE
 62
7
  6
CONTINUOUS
 66
1
 70
0
  0
VERTEX
  8
2_FEATURE
 62
7
  6
CONTINUOUS
 10
82.8544588147
 20
93.4551895833
  0
VERTEX
  8
2_FEATURE
 62
7
  6
CONTINUOUS
 10
82.9693112395
 20
93.3845573477
  0
VERTEX
  8
2_FEATURE
 62
7
  6
CONTINUOUS
 10
83.0809801519
 20
93.3248941777
  0
VERTEX
  8
2_FEATURE
 62
7
  6
CONTINUOUS
 10
83.1889236805
 20
93.2748553148
  0
SEQEND
  0
POLYLINE
  8
0
 62
7
  6
CONTINUOUS
 66
1
 70
0
  0
VERTEX
  8
0
 62
7
  6
CONTINUOUS
 10
43.9816697458
 20
144.4970572815
  0
VERTEX
  8
0
 62
7
  6
CONTINUOUS
 10
43.9390969177
 20
144.5786698266
  0
VERTEX
  8
0
 62
7
  6
CONTINUOUS
 10
43.9295217188
 20
144.6756518376
  0
SEQEND
  0
LINE
  8
2_FEATURE
 62
7
  6
CONTINUOUS
 10
94.0201373565
 20
109.8907688376
 11
93.9545453694
 21
109.8721525225
  0
POLYLINE
  8
2_FEATURE
 62
7
  6
CONTINUOUS
 66
1
 70
0
  0
VERTEX
  8
2_FEATURE
 62
7
  6
CONTINUOUS
 10
94.0201373565
 20
109.8907688376
  0
VERTEX
  8
2_FEATURE
 62
7
  6
CONTINUOUS
 10
94.1834287371
 20
109.9362913535
  0
VERTEX
  8
2_FEATURE
 62
7
  6
CONTINUOUS
 10
94.3207283591
 20
109.9728775212
  0
VERTEX
  8
2_FEATURE
 62
7
  6
CONTINUOUS
 10
94.425132991
 20
109.9987568267
  0
SEQEND
  0
POLYLINE
  8
2_FEATURE
 62
7
  6
CONTINUOUS
 66
1
 70
0
  0
VERTEX
  8
2_FEATURE
 62
7
  6
CONTINUOUS
 10
96.0987539017
 20
110.4196007995
  0
VERTEX
  8
2_FEATURE
 62
7
  6
CONTINUOUS
 10
95.4655527267
 20
110.25500249
  0
VERTEX
  8
2_FEATURE
 62
7
  6
CONTINUOUS
 10
94.9061007128
 20
110.1143393269
  0
VERTEX
  8
2_FEATURE
 62
7
  6
CONTINUOUS
 10
94.425132991
 20
109.9987568267
  0
SEQEND
  0
POLYLINE
  8
2_FEATURE
 62
7
  6
CONTINUOUS
 66
1
 70
0
  0
VERTEX
  8
2_FEATURE
 62
7
  6
CONTINUOUS
 10
97.7508776803
 20
110.4544164527
  0
VERTEX
  8
2_FEATURE
 62
7
  6
CONTINUOUS
 10
97.7418731574
 20
110.4520872388
  0
VERTEX
  8
2_FEATURE
 62
7
  6
CONTINUOUS
 10
97.70782983
 20
110.4495130066
  0
VERTEX
  8
2_FEATURE
 62
7
  6
CONTINUOUS
 10
97.6519327201
 20
110.447454888
  0
SEQEND
  0
POLYLINE
  8
0
 62
7
  6
CONTINUOUS
 66
1
 70
0
  0
VERTEX
  8
0
 62
7
  6
CONTINUOUS
 10
44.0771950476
 20
100.1588550789
  0
VERTEX
  8
0
 62
7
  6
CONTINUOUS
 10
43.8696352436
 20
100.1281565058
  0
VERTEX
  8
0
 62
7
  6
CONTINUOUS
 10
43.5813687971
 20
100.0773259396
  0
VERTEX
  8
0
 62
7
  6
CONTINUOUS
 10
43.3308414008
 20
100.0210325793
  0
VERTEX
  8
0
 62
7
  6
CONTINUOUS
 10
43.1314292043
 20
99.960292488
  0
VERTEX
  8
0
 62
7
  6
CONTINUOUS
 10
42.979620483
 20
99.8915111962
  0
VERTEX
  8
0
 62
7
  6
CONTINUOUS
 10
42.8605637984
 20
99.7974065607
  0
VERTEX
  8
0
 62
7
  6
CONTINUOUS
 10
42.7828938342
 20
99.6457776961
  0
VERTEX
  8
0
 62
7
  6
CONTINUOUS
 10
42.7766677309
 20
99.5831526178
  0
SEQEND
  0
POLYLINE
  8
0
 62
7
  6
CONTINUOUS
 66
1
 70
0
  0
VERTEX
  8
0
 62
7
  6
CONTINUOUS
 10
48.4348615789
 20
101.1954042852
  0
VERTEX
  8
0
 62
7
  6
CONTINUOUS
 10
47.4835556535
 20
101.0770455683
  0
VERTEX
  8
0
 62
7
  6
CONTINUOUS
 10
46.4591178943
 20
100.8997312759
  0
VERTEX
  8
0
 62
7
  6
CONTINUOUS
 10
45.5200079711
 20
100.6787637326
  0
VERTEX
  8
0
 62
7
  6
CONTINUOUS
 10
44.6885471864
 20
100.4165006595
  0
SEQEND
  0
POLYLINE
  8
2_FEATURE
 62
7
  6
CONTINUOUS
 66
1
 70
0
  0
VERTEX
  8
2_FEATURE
 62
7
  6
CONTINUOUS
 10
93.9545453694
 20
101.1196578223
  0
VERTEX
  8
2_FEATURE
 62
7
  6
CONTINUOUS
 10
93.7688597934
 20
101.1628253659
  0
VERTEX
  8
2_FEATURE
 62
7
  6
CONTINUOUS
 10
93.5789763811
 20
101.1880628388
  0
VERTEX
  8
2_FEATURE
 62
7
  6
CONTINUOUS
 10
93.38683282
 20
101.1949383228
  0
SEQEND
  0
LINE
  8
0
 62
7
  6
CONTINUOUS
 10
44.0454438526
 20
127.6463361889
 11
43.9816697458
 21
127.6970572815
  0
POLYLINE
  8
2_FEATURE
 62
7
  6
CONTINUOUS
 66
1
 70
0
  0
VERTEX
  8
2_FEATURE
 62
7
  6
CONTINUOUS
 10
55.8524009404
 20
135.4056886746
  0
VERTEX
  8
2_FEATURE
 62
7
  6
CONTINUOUS
 10
55.8259587864
 20
135.4720040282
  0
VERTEX
  8
2_FEATURE
 62
7
  6
CONTINUOUS
 10
55.7992771289
 20
135.5323072363
  0
VERTEX
  8
2_FEATURE
 62
7
  6
CONTINUOUS
 10
55.7711549283
 20
135.5848146095
  0
VERTEX
  8
2_FEATURE
 62
7
  6
CONTINUOUS
 10
55.7400648025
 20
135.6263502969
  0
VERTEX
  8
2_FEATURE
 62
7
  6
CONTINUOUS
 10
55.7013704647
 20
135.6474547672
  0
SEQEND
  0
POLYLINE
  8
2_FEATURE
 62
7
  6
CONTINUOUS
 66
1
 70
0
  0
VERTEX
  8
2_FEATURE
 62
7
  6
CONTINUOUS
 10
82.8544588147
 20
134.3366207615
  0
VERTEX
  8
2_FEATURE
 62
7
  6
CONTINUOUS
 10
82.657269234
 20
134.1884037382
  0
VERTEX
  8
2_FEATURE
 62
7
  6
CONTINUOUS
 10
82.4798498025
 20
134.0170113674
  0
VERTEX
  8
2_FEATURE
 62
7
  6
CONTINUOUS
 10
82.3249081354
 20
133.8250581422
  0
VERTEX
  8
2_FEATURE
 62
7
  6
CONTINUOUS
 10
82.1948055014
 20
133.6154745355
  0
VERTEX
  8
2_FEATURE
 62
7
  6
CONTINUOUS
 10
82.0915201559
 20
133.3914608395
  0
VERTEX
  8
2_FEATURE
 62
7
  6
CONTINUOUS
 10
82.0166157481
 20
133.1564318228
  0
VERTEX
  8
2_FEATURE
 62
7
  6
CONTINUOUS
 10
81.9712215829
 20
132.9139682761
  0
VERTEX
  8
2_FEATURE
 62
7
  6
CONTINUOUS
 10
81.9560157915
 20
132.6677573624
  0
SEQEND
  0
POLYLINE
  8
2_FEATURE
 62
7
  6
CONTINUOUS
 66
1
 70
0
  0
VERTEX
  8
2_FEATURE
 62
7
  6
CONTINUOUS
 10
83.1889236805
 20
134.51695503
  0
VERTEX
  8
2_FEATURE
 62
7
  6
CONTINUOUS
 10
83.0809801519
 20
134.4669161671
  0
VERTEX
  8
2_FEATURE
 62
7
  6
CONTINUOUS
 10
82.9693112395
 20
134.4072529971
  0
VERTEX
  8
2_FEATURE
 62
7
  6
CONTINUOUS
 10
82.8544588147
 20
134.3366207615
  0
SEQEND
  0
LINE
  8
0
 62
7
  6
CONTINUOUS
 10
44.6885471864
 20
117.2165006595
 11
44.045441437
 21
116.9454729757
  0
POLYLINE
  8
2_FEATURE
 62
7
  6
CONTINUOUS
 66
1
 70
0
  0
VERTEX
  8
2_FEATURE
 62
7
  6
CONTINUOUS
 10
96.0987539017
 20
110.4196007995
  0
VERTEX
  8
2_FEATURE
 62
7
  6
CONTINUOUS
 10
96.2884644272
 20
110.4598306382
  0
VERTEX
  8
2_FEATURE
 62
7
  6
CONTINUOUS
 10
96.478397649
 20
110.4813473033
  0
VERTEX
  8
2_FEATURE
 62
7
  6
CONTINUOUS
 10
96.666466451
 20
110.4848994384
  0
SEQEND
  0
LINE
  8
2_FEATURE
 62
7
  6
CONTINUOUS
 10
56.68683282
 20
108.9069109064
 11
55.7252967371
 21
108.929880878
  0
LINE
  8
0
 62
7
  6
CONTINUOUS
 10
48.4346632849
 20
109.796405451
 11
48.4354663286
 21
109.7963654526
  0
LINE
  8
0
 62
7
  6
CONTINUOUS
 10
43.8686442077
 20
110.8638111297
 11
44.0771911678
 21
110.832956901
  0
POLYLINE
  8
2_FEATURE
 62
7
  6
CONTINUOUS
 66
1
 70
0
  0
VERTEX
  8
2_FEATURE
 62
7
  6
CONTINUOUS
 10
97.7508776815
 20
100.5373938922
  0
VERTEX
  8
2_FEATURE
 62
7
  6
CONTINUOUS
 10
97.7418729602
 20
100.5397231309
  0
VERTEX
  8
2_FEATURE
 62
7
  6
CONTINUOUS
 10
97.7078293115
 20
100.542297365
  0
VERTEX
  8
2_FEATURE
 62
7
  6
CONTINUOUS
 10
97.6519326092
 20
100.5443554518
  0
SEQEND
  0
POLYLINE
  8
2_FEATURE
 62
7
  6
CONTINUOUS
 66
1
 70
0
  0
VERTEX
  8
2_FEATURE
 62
7
  6
CONTINUOUS
 10
96.0987539017
 20
100.5722095453
  0
VERTEX
  8
2_FEATURE
 62
7
  6
CONTINUOUS
 10
95.4655527267
 20
100.7368078548
  0
VERTEX
  8
2_FEATURE
 62
7
  6
CONTINUOUS
 10
94.9061007128
 20
100.8774710179
  0
VERTEX
  8
2_FEATURE
 62
7
  6
CONTINUOUS
 10
94.425132991
 20
100.9930535181
  0
SEQEND
  0
POLYLINE
  8
2_FEATURE
 62
7
  6
CONTINUOUS
 66
1
 70
0
  0
VERTEX
  8
2_FEATURE
 62
7
  6
CONTINUOUS
 10
94.0201373565
 20
101.1010415072
  0
VERTEX
  8
2_FEATURE
 62
7
  6
CONTINUOUS
 10
94.1834287371
 20
101.0555189913
  0
VERTEX
  8
2_FEATURE
 62
7
  6
CONTINUOUS
 10
94.3207283591
 20
101.0189328237
  0
VERTEX
  8
2_FEATURE
 62
7
  6
CONTINUOUS
 10
94.425132991
 20
100.9930535181
  0
SEQEND
  0
LINE
  8
2_FEATURE
 62
7
  6
CONTINUOUS
 10
94.0201373565
 20
101.1010415072
 11
93.9545453694
 21
101.1196578223
  0
POLYLINE
  8
2_FEATURE
 62
7
  6
CONTINUOUS
 66
1
 70
0
  0
VERTEX
  8
2_FEATURE
 62
7
  6
CONTINUOUS
 10
70.1643755906
 20
109.31695503
  0
VERTEX
  8
2_FEATURE
 62
7
  6
CONTINUOUS
 10
69.9205618479
 20
109.4036077559
  0
VERTEX
  8
2_FEATURE
 62
7
  6
CONTINUOUS
 10
69.6674712649
 20
109.4576392499
  0
VERTEX
  8
2_FEATURE
 62
7
  6
CONTINUOUS
 10
69.4098640411
 20
109.477901232
  0
SEQEND
  0
POLYLINE
  8
2_FEATURE
 62
7
  6
CONTINUOUS
 66
1
 70
0
  0
VERTEX
  8
2_FEATURE
 62
7
  6
CONTINUOUS
 10
109.3078578334
 20
91.745472976
  0
VERTEX
  8
2_FEATURE
 62
7
  6
CONTINUOUS
 10
108.6647549321
 20
92.0164996175
  0
VERTEX
  8
2_FEATURE
 62
7
  6
CONTINUOUS
 10
107.8332978833
 20
92.2787619399
  0
VERTEX
  8
2_FEATURE
 62
7
  6
CONTINUOUS
 10
106.8941923569
 20
92.4997290535
  0
VERTEX
  8
2_FEATURE
 62
7
  6
CONTINUOUS
 10
105.8697593905
 20
92.6770432625
  0
VERTEX
  8
2_FEATURE
 62
7
  6
CONTINUOUS
 10
104.9184376925
 20
92.7954042852
  0
SEQEND
  0
POLYLINE
  8
2_FEATURE
 62
7
  6
CONTINUOUS
 66
1
 70
0
  0
VERTEX
  8
2_FEATURE
 62
7
  6
CONTINUOUS
 10
70.4988404563
 20
109.1366207615
  0
VERTEX
  8
2_FEATURE
 62
7
  6
CONTINUOUS
 10
70.3839880316
 20
109.2072529971
  0
VERTEX
  8
2_FEATURE
 62
7
  6
CONTINUOUS
 10
70.2723191191
 20
109.2669161671
  0
VERTEX
  8
2_FEATURE
 62
7
  6
CONTINUOUS
 10
70.1643755906
 20
109.31695503
  0
SEQEND
  0
POLYLINE
  8
2_FEATURE
 62
7
  6
CONTINUOUS
 66
1
 70
0
  0
VERTEX
  8
2_FEATURE
 62
7
  6
CONTINUOUS
 10
55.6024215864
 20
125.7373938926
  0
VERTEX
  8
2_FEATURE
 62
7
  6
CONTINUOUS
 10
55.6028035576
 20
125.7369032757
  0
VERTEX
  8
2_FEATURE
 62
7
  6
CONTINUOUS
 10
55.6205370967
 20
125.7341340291
  0
VERTEX
  8
2_FEATURE
 62
7
  6
CONTINUOUS
 10
55.6627707236
 20
125.7317095247
  0
VERTEX
  8
2_FEATURE
 62
7
  6
CONTINUOUS
 10
55.7252967371
 20
125.729880878
  0
SEQEND
  0
POLYLINE
  8
2_FEATURE
 62
7
  6
CONTINUOUS
 66
1
 70
0
  0
VERTEX
  8
2_FEATURE
 62
7
  6
CONTINUOUS
 10
55.6024215852
 20
102.0544164522
  0
VERTEX
  8
2_FEATURE
 62
7
  6
CONTINUOUS
 10
55.6028035261
 20
102.0549070499
  0
VERTEX
  8
2_FEATURE
 62
7
  6
CONTINUOUS
 10
55.6205369594
 20
102.0576763038
  0
VERTEX
  8
2_FEATURE
 62
7
  6
CONTINUOUS
 10
55.6627706069
 20
102.0601008154
  0
VERTEX
  8
2_FEATURE
 62
7
  6
CONTINUOUS
 10
55.7252967371
 20
102.0619294668
  0
SEQEND
  0
LINE
  8
0
 62
7
  6
CONTINUOUS
 10
44.0454438526
 20
100.1454741559
 11
43.9816697458
 21
100.0947530633
  0
POLYLINE
  8
2_FEATURE
 62
7
  6
CONTINUOUS
 66
1
 70
0
  0
VERTEX
  8
2_FEATURE
 62
7
  6
CONTINUOUS
 10
55.7013665509
 20
108.9443554568
  0
VERTEX
  8
2_FEATURE
 62
7
  6
CONTINUOUS
 10
55.6454695965
 20
108.9422973463
  0
VERTEX
  8
2_FEATURE
 62
7
  6
CONTINUOUS
 10
55.6114262425
 20
108.9397231223
  0
VERTEX
  8
2_FEATURE
 62
7
  6
CONTINUOUS
 10
55.6024215864
 20
108.9373938926
  0
SEQEND
  0
POLYLINE
  8
2_FEATURE
 62
7
  6
CONTINUOUS
 66
1
 70
0
  0
VERTEX
  8
2_FEATURE
 62
7
  6
CONTINUOUS
 10
93.38683282
 20
109.7968720221
  0
VERTEX
  8
2_FEATURE
 62
7
  6
CONTINUOUS
 10
93.5789763811
 20
109.803747506
  0
VERTEX
  8
2_FEATURE
 62
7
  6
CONTINUOUS
 10
93.7688597934
 20
109.828984979
  0
VERTEX
  8
2_FEATURE
 62
7
  6
CONTINUOUS
 10
93.9545453694
 20
109.8721525225
  0
SEQEND
  0
POLYLINE
  8
2_FEATURE
 62
7
  6
CONTINUOUS
 66
1
 70
0
  0
VERTEX
  8
2_FEATURE
 62
7
  6
CONTINUOUS
 10
59.966466451
 20
109.5949383228
  0
VERTEX
  8
2_FEATURE
 62
7
  6
CONTINUOUS
 10
59.7743228899
 20
109.5880628388
  0
VERTEX
  8
2_FEATURE
 62
7
  6
CONTINUOUS
 10
59.5844394777
 20
109.5628253659
  0
VERTEX
  8
2_FEATURE
 62
7
  6
CONTINUOUS
 10
59.3987539017
 20
109.5196578223
  0
SEQEND
  0
LINE
  8
0
 62
7
  6
CONTINUOUS
 10
98.2502714378
 20
109.5954449763
 11
104.9173562984
 21
109.5954449763
  0
LINE
  8
0
 62
7
  6
CONTINUOUS
 10
55.1030128769
 20
109.7963653685
 11
48.4359362831
 21
109.7963653685
  0
LINE
  8
2_FEATURE
 62
7
  6
CONTINUOUS
 10
69.4098640411
 20
109.477901232
 11
59.966466451
 21
109.5949383228
  0
LINE
  8
2_FEATURE
 62
7
  6
CONTINUOUS
 10
83.94343523
 20
109.9139091128
 11
93.38683282
 21
109.7968720221
  0
LINE
  8
2_FEATURE
 62
7
  6
CONTINUOUS
 10
97.628002534
 20
110.4619294668
 11
96.666466451
 21
110.4848994384
  0
POLYLINE
  8
2_FEATURE
 62
7
  6
CONTINUOUS
 66
1
 70
0
  0
VERTEX
  8
2_FEATURE
 62
7
  6
CONTINUOUS
 10
97.628002534
 20
110.4619294668
  0
VERTEX
  8
2_FEATURE
 62
7
  6
CONTINUOUS
 10
97.6905284437
 20
110.4601008244
  0
VERTEX
  8
2_FEATURE
 62
7
  6
CONTINUOUS
 10
97.7327620213
 20
110.457676329
  0
VERTEX
  8
2_FEATURE
 62
7
  6
CONTINUOUS
 10
97.750495683
 20
110.4549070879
  0
VERTEX
  8
2_FEATURE
 62
7
  6
CONTINUOUS
 10
97.7508776803
 20
110.4544164527
  0
SEQEND
  0
LINE
  8
0
 62
7
  6
CONTINUOUS
 10
104.9178611538
 20
109.5954449763
 11
104.9186307135
 21
109.5954048783
  0
POLYLINE
  8
2_FEATURE
 62
7
  6
CONTINUOUS
 66
1
 70
0
  0
VERTEX
  8
2_FEATURE
 62
7
  6
CONTINUOUS
 10
104.9186307135
 20
92.7954048783
  0
VERTEX
  8
2_FEATURE
 62
7
  6
CONTINUOUS
 10
104.9252459675
 20
92.7914573485
  0
VERTEX
  8
2_FEATURE
 62
7
  6
CONTINUOUS
 10
104.9411763652
 20
92.7465299247
  0
VERTEX
  8
2_FEATURE
 62
7
  6
CONTINUOUS
 10
104.9497019835
 20
92.6595904566
  0
VERTEX
  8
2_FEATURE
 62
7
  6
CONTINUOUS
 10
104.9489309588
 20
92.5454449763
  0
SEQEND
  0
POLYLINE
  8
2_FEATURE
 62
7
  6
CONTINUOUS
 66
1
 70
0
  0
VERTEX
  8
2_FEATURE
 62
7
  6
CONTINUOUS
 10
71.3972834796
 20
107.4677573624
  0
VERTEX
  8
2_FEATURE
 62
7
  6
CONTINUOUS
 10
71.3820776342
 20
107.7139687108
  0
VERTEX
  8
2_FEATURE
 62
7
  6
CONTINUOUS
 10
71.3366831818
 20
107.9564331767
  0
VERTEX
  8
2_FEATURE
 62
7
  6
CONTINUOUS
 10
71.2617782593
 20
108.1914630442
  0
VERTEX
  8
2_FEATURE
 62
7
  6
CONTINUOUS
 10
71.1584924462
 20
108.4154769943
  0
VERTEX
  8
2_FEATURE
 62
7
  6
CONTINUOUS
 10
71.0283897666
 20
108.6250600708
  0
VERTEX
  8
2_FEATURE
 62
7
  6
CONTINUOUS
 10
70.8734485262
 20
108.8170123976
  0
VERTEX
  8
2_FEATURE
 62
7
  6
CONTINUOUS
 10
70.6960297039
 20
108.9884040225
  0
VERTEX
  8
2_FEATURE
 62
7
  6
CONTINUOUS
 10
70.4988404563
 20
109.1366207615
  0
SEQEND
  0
POLYLINE
  8
2_FEATURE
 62
7
  6
CONTINUOUS
 66
1
 70
0
  0
VERTEX
  8
2_FEATURE
 62
7
  6
CONTINUOUS
 10
71.3972834796
 20
124.2677573624
  0
VERTEX
  8
2_FEATURE
 62
7
  6
CONTINUOUS
 10
71.3820776342
 20
124.5139687108
  0
VERTEX
  8
2_FEATURE
 62
7
  6
CONTINUOUS
 10
71.3366831818
 20
124.7564331767
  0
VERTEX
  8
2_FEATURE
 62
7
  6
CONTINUOUS
 10
71.2617782593
 20
124.9914630442
  0
VERTEX
  8
2_FEATURE
 62
7
  6
CONTINUOUS
 10
71.1584924462
 20
125.2154769943
  0
VERTEX
  8
2_FEATURE
 62
7
  6
CONTINUOUS
 10
71.0283897666
 20
125.4250600708
  0
VERTEX
  8
2_FEATURE
 62
7
  6
CONTINUOUS
 10
70.8734485262
 20
125.6170123976
  0
VERTEX
  8
2_FEATURE
 62
7
  6
CONTINUOUS
 10
70.6960297039
 20
125.7884040225
  0
VERTEX
  8
2_FEATURE
 62
7
  6
CONTINUOUS
 10
70.4988404563
 20
125.9366207615
  0
SEQEND
  0
POLYLINE
  8
2_FEATURE
 62
7
  6
CONTINUOUS
 66
1
 70
0
  0
VERTEX
  8
2_FEATURE
 62
7
  6
CONTINUOUS
 10
71.3972834796
 20
141.0677573624
  0
VERTEX
  8
2_FEATURE
 62
7
  6
CONTINUOUS
 10
71.3820776342
 20
141.3139687108
  0
VERTEX
  8
2_FEATURE
 62
7
  6
CONTINUOUS
 10
71.3366831818
 20
141.5564331767
  0
VERTEX
  8
2_FEATURE
 62
7
  6
CONTINUOUS
 10
71.2617782593
 20
141.7914630442
  0
VERTEX
  8
2_FEATURE
 62
7
  6
CONTINUOUS
 10
71.1584924462
 20
142.0154769943
  0
VERTEX
  8
2_FEATURE
 62
7
  6
CONTINUOUS
 10
71.0283897666
 20
142.2250600708
  0
VERTEX
  8
2_FEATURE
 62
7
  6
CONTINUOUS
 10
70.8734485262
 20
142.4170123976
  0
VERTEX
  8
2_FEATURE
 62
7
  6
CONTINUOUS
 10
70.6960297039
 20
142.5884040225
  0
VERTEX
  8
2_FEATURE
 62
7
  6
CONTINUOUS
 10
70.4988404563
 20
142.7366207615
  0
SEQEND
  0
LINE
  8
2_FEATURE
 62
7
  6
CONTINUOUS
 10
71.3972834796
 20
103.5240529824
 11
71.3972834796
 21
107.4677573624
  0
LINE
  8
2_FEATURE
 62
7
  6
CONTINUOUS
 10
71.3972834796
 20
120.3240529824
 11
71.3972834796
 21
124.2677573624
  0
LINE
  8
2_FEATURE
 62
7
  6
CONTINUOUS
 10
71.3972834796
 20
137.1240529824
 11
71.3972834796
 21
141.0677573624
  0
POLYLINE
  8
2_FEATURE
 62
7
  6
CONTINUOUS
 66
1
 70
0
  0
VERTEX
  8
2_FEATURE
 62
7
  6
CONTINUOUS
 10
70.4988404563
 20
118.6551895833
  0
VERTEX
  8
2_FEATURE
 62
7
  6
CONTINUOUS
 10
70.6960300371
 20
118.8034066066
  0
VERTEX
  8
2_FEATURE
 62
7
  6
CONTINUOUS
 10
70.8734494685
 20
118.9747989774
  0
VERTEX
  8
2_FEATURE
 62
7
  6
CONTINUOUS
 10
71.0283911356
 20
119.1667522026
  0
VERTEX
  8
2_FEATURE
 62
7
  6
CONTINUOUS
 10
71.1584937697
 20
119.3763358094
  0
VERTEX
  8
2_FEATURE
 62
7
  6
CONTINUOUS
 10
71.2617791152
 20
119.6003495054
  0
VERTEX
  8
2_FEATURE
 62
7
  6
CONTINUOUS
 10
71.3366835229
 20
119.835378522
  0
VERTEX
  8
2_FEATURE
 62
7
  6
CONTINUOUS
 10
71.3820776881
 20
120.0778420687
  0
VERTEX
  8
2_FEATURE
 62
7
  6
CONTINUOUS
 10
71.3972834796
 20
120.3240529824
  0
SEQEND
  0
POLYLINE
  8
2_FEATURE
 62
7
  6
CONTINUOUS
 66
1
 70
0
  0
VERTEX
  8
2_FEATURE
 62
7
  6
CONTINUOUS
 10
70.1643755906
 20
118.4748553148
  0
VERTEX
  8
2_FEATURE
 62
7
  6
CONTINUOUS
 10
70.2723191191
 20
118.5248941777
  0
VERTEX
  8
2_FEATURE
 62
7
  6
CONTINUOUS
 10
70.3839880316
 20
118.5845573477
  0
VERTEX
  8
2_FEATURE
 62
7
  6
CONTINUOUS
 10
70.4988404563
 20
118.6551895833
  0
SEQEND
  0
LINE
  8
0
 62
7
  6
CONTINUOUS
 10
108.6647549321
 20
135.7753107274
 11
109.3078578334
 21
136.0463373689
  0
LINE
  8
2_FEATURE
 62
7
  6
CONTINUOUS
 10
59.3331619146
 20
109.5010415072
 11
59.3987539017
 21
109.5196578223
  0
POLYLINE
  8
2_FEATURE
 62
7
  6
CONTINUOUS
 66
1
 70
0
  0
VERTEX
  8
2_FEATURE
 62
7
  6
CONTINUOUS
 10
58.9281662801
 20
109.3930535181
  0
VERTEX
  8
2_FEATURE
 62
7
  6
CONTINUOUS
 10
59.0325716741
 20
109.4189330206
  0
VERTEX
  8
2_FEATURE
 62
7
  6
CONTINUOUS
 10
59.1698698863
 20
109.4555188144
  0
VERTEX
  8
2_FEATURE
 62
7
  6
CONTINUOUS
 10
59.3331619146
 20
109.5010415072
  0
SEQEND
  0
POLYLINE
  8
2_FEATURE
 62
7
  6
CONTINUOUS
 66
1
 70
0
  0
VERTEX
  8
2_FEATURE
 62
7
  6
CONTINUOUS
 10
58.9281662801
 20
109.3930535181
  0
VERTEX
  8
2_FEATURE
 62
7
  6
CONTINUOUS
 10
58.4471968961
 20
109.2774706085
  0
VERTEX
  8
2_FEATURE
 62
7
  6
CONTINUOUS
 10
57.8877453449
 20
109.1368075478
  0
VERTEX
  8
2_FEATURE
 62
7
  6
CONTINUOUS
 10
57.2545453694
 20
108.9722095453
  0
SEQEND
  0
POLYLINE
  8
2_FEATURE
 62
7
  6
CONTINUOUS
 66
1
 70
0
  0
VERTEX
  8
2_FEATURE
 62
7
  6
CONTINUOUS
 10
57.2545453694
 20
108.9722095453
  0
VERTEX
  8
2_FEATURE
 62
7
  6
CONTINUOUS
 10
57.0648348438
 20
108.9319797067
  0
VERTEX
  8
2_FEATURE
 62
7
  6
CONTINUOUS
 10
56.874901622
 20
108.9104630416
  0
VERTEX
  8
2_FEATURE
 62
7
  6
CONTINUOUS
 10
56.68683282
 20
108.9069109064
  0
SEQEND
  0
POLYLINE
  8
0
 62
7
  6
CONTINUOUS
 66
1
 70
0
  0
VERTEX
  8
0
 62
7
  6
CONTINUOUS
 10
109.2761042521
 20
119.2329552702
  0
VERTEX
  8
0
 62
7
  6
CONTINUOUS
 10
109.4836640274
 20
119.263653839
  0
VERTEX
  8
0
 62
7
  6
CONTINUOUS
 10
109.7719304739
 20
119.3144844052
  0
VERTEX
  8
0
 62
7
  6
CONTINUOUS
 10
110.0224578702
 20
119.3707777656
  0
VERTEX
  8
0
 62
7
  6
CONTINUOUS
 10
110.2218700668
 20
119.4315178568
  0
VERTEX
  8
0
 62
7
  6
CONTINUOUS
 10
110.373678788
 20
119.5002991486
  0
VERTEX
  8
0
 62
7
  6
CONTINUOUS
 10
110.4927354727
 20
119.5944037842
  0
VERTEX
  8
0
 62
7
  6
CONTINUOUS
 10
110.5704054368
 20
119.7460326487
  0
VERTEX
  8
0
 62
7
  6
CONTINUOUS
 10
110.5766315401
 20
119.8086577271
  0
SEQEND
  0
POLYLINE
  8
0
 62
7
  6
CONTINUOUS
 66
1
 70
0
  0
VERTEX
  8
0
 62
7
  6
CONTINUOUS
 10
104.9184376925
 20
118.1964060597
  0
VERTEX
  8
0
 62
7
  6
CONTINUOUS
 10
105.8697593905
 20
118.3147670823
  0
VERTEX
  8
0
 62
7
  6
CONTINUOUS
 10
106.8941923569
 20
118.4920812913
  0
VERTEX
  8
0
 62
7
  6
CONTINUOUS
 10
107.8332978833
 20
118.7130484049
  0
VERTEX
  8
0
 62
7
  6
CONTINUOUS
 10
108.6647549321
 20
118.9753107274
  0
SEQEND
  0
LINE
  8
0
 62
7
  6
CONTINUOUS
 10
109.4846550634
 20
108.5279992152
 11
109.2761081319
 21
108.5588534396
  0
POLYLINE
  8
2_FEATURE
 62
7
  6
CONTINUOUS
 66
1
 70
0
  0
VERTEX
  8
2_FEATURE
 62
7
  6
CONTINUOUS
 10
59.3987539017
 20
118.2721525225
  0
VERTEX
  8
2_FEATURE
 62
7
  6
CONTINUOUS
 10
59.5844394777
 20
118.228984979
  0
VERTEX
  8
2_FEATURE
 62
7
  6
CONTINUOUS
 10
59.7743228899
 20
118.203747506
  0
VERTEX
  8
2_FEATURE
 62
7
  6
CONTINUOUS
 10
59.966466451
 20
118.1968720221
  0
SEQEND
  0
POLYLINE
  8
2_FEATURE
 62
7
  6
CONTINUOUS
 66
1
 70
0
  0
VERTEX
  8
2_FEATURE
 62
7
  6
CONTINUOUS
 10
58.9281662801
 20
118.3987568267
  0
VERTEX
  8
2_FEATURE
 62
7
  6
CONTINUOUS
 10
58.4471968961
 20
118.5143397363
  0
VERTEX
  8
2_FEATURE
 62
7
  6
CONTINUOUS
 10
57.8877453449
 20
118.655002797
  0
VERTEX
  8
2_FEATURE
 62
7
  6
CONTINUOUS
 10
57.2545453694
 20
118.8196007995
  0
SEQEND
  0
POLYLINE
  8
2_FEATURE
 62
7
  6
CONTINUOUS
 66
1
 70
0
  0
VERTEX
  8
2_FEATURE
 62
7
  6
CONTINUOUS
 10
58.9281662801
 20
118.3987568267
  0
VERTEX
  8
2_FEATURE
 62
7
  6
CONTINUOUS
 10
59.0325716741
 20
118.3728773243
  0
VERTEX
  8
2_FEATURE
 62
7
  6
CONTINUOUS
 10
59.1698698863
 20
118.3362915304
  0
VERTEX
  8
2_FEATURE
 62
7
  6
CONTINUOUS
 10
59.3331619146
 20
118.2907688376
  0
SEQEND
  0
LINE
  8
2_FEATURE
 62
7
  6
CONTINUOUS
 10
59.3331619146
 20
118.2907688376
 11
59.3987539017
 21
118.2721525225
  0
POLYLINE
  8
2_FEATURE
 62
7
  6
CONTINUOUS
 66
1
 70
0
  0
VERTEX
  8
2_FEATURE
 62
7
  6
CONTINUOUS
 10
83.1889236805
 20
110.0748553148
  0
VERTEX
  8
2_FEATURE
 62
7
  6
CONTINUOUS
 10
83.4327374232
 20
109.988202589
  0
VERTEX
  8
2_FEATURE
 62
7
  6
CONTINUOUS
 10
83.6858280061
 20
109.934171095
  0
VERTEX
  8
2_FEATURE
 62
7
  6
CONTINUOUS
 10
83.94343523
 20
109.9139091128
  0
SEQEND
  0
POLYLINE
  8
0
 62
7
  6
CONTINUOUS
 66
1
 70
0
  0
VERTEX
  8
0
 62
7
  6
CONTINUOUS
 10
44.045441437
 20
127.6463373692
  0
VERTEX
  8
0
 62
7
  6
CONTINUOUS
 10
44.6885471864
 20
127.3753096853
  0
VERTEX
  8
0
 62
7
  6
CONTINUOUS
 10
45.5200079711
 20
127.1130466122
  0
VERTEX
  8
0
 62
7
  6
CONTINUOUS
 10
46.4591178943
 20
126.8920790689
  0
VERTEX
  8
0
 62
7
  6
CONTINUOUS
 10
47.4835556535
 20
126.7147647765
  0
VERTEX
  8
0
 62
7
  6
CONTINUOUS
 10
48.4348615789
 20
126.5964060596
  0
SEQEND
  0
POLYLINE
  8
2_FEATURE
 62
7
  6
CONTINUOUS
 66
1
 70
0
  0
VERTEX
  8
2_FEATURE
 62
7
  6
CONTINUOUS
 10
82.8544588147
 20
110.2551895833
  0
VERTEX
  8
2_FEATURE
 62
7
  6
CONTINUOUS
 10
82.9693112395
 20
110.1845573477
  0
VERTEX
  8
2_FEATURE
 62
7
  6
CONTINUOUS
 10
83.0809801519
 20
110.1248941777
  0
VERTEX
  8
2_FEATURE
 62
7
  6
CONTINUOUS
 10
83.1889236805
 20
110.0748553148
  0
SEQEND
  0
LINE
  8
AXES
 62
2
  6
CENTER
 10
76.6766496355
 20
122.4959051724
 11
76.6766496355
 21
120.0960051724
  0
LINE
  8
AXES
 62
2
  6
CONTINUOUS
 10
76.6766496355
 20
118.9759051724
 11
76.6766496355
 21
117.2159051724
  0
LINE
  8
AXES
 62
2
  6
CENTER
 10
76.6766496355
 20
113.6959051724
 11
76.6766496355
 21
116.0958051724
  0
POLYLINE
  8
0
 62
7
  6
CONTINUOUS
 66
1
 70
0
  0
VERTEX
  8
0
 62
7
  6
CONTINUOUS
 10
104.9186307135
 20
134.9964054665
  0
VERTEX
  8
0
 62
7
  6
CONTINUOUS
 10
104.9252459675
 20
135.0003529963
  0
VERTEX
  8
0
 62
7
  6
CONTINUOUS
 10
104.9411763652
 20
135.0452804201
  0
VERTEX
  8
0
 62
7
  6
CONTINUOUS
 10
104.9497019835
 20
135.1322198882
  0
VERTEX
  8
0
 62
7
  6
CONTINUOUS
 10
104.9489309588
 20
135.2463653685
  0
SEQEND
  0
POLYLINE
  8
2_FEATURE
 62
7
  6
CONTINUOUS
 66
1
 70
0
  0
VERTEX
  8
2_FEATURE
 62
7
  6
CONTINUOUS
 10
55.7013691254
 20
108.9443555398
  0
VERTEX
  8
2_FEATURE
 62
7
  6
CONTINUOUS
 10
55.7401024481
 20
108.9656307202
  0
VERTEX
  8
2_FEATURE
 62
7
  6
CONTINUOUS
 10
55.7712009345
 20
109.0074231002
  0
VERTEX
  8
2_FEATURE
 62
7
  6
CONTINUOUS
 10
55.7993899453
 20
109.0601915148
  0
VERTEX
  8
2_FEATURE
 62
7
  6
CONTINUOUS
 10
55.8262557504
 20
109.1207573013
  0
VERTEX
  8
2_FEATURE
 62
7
  6
CONTINUOUS
 10
55.85240094
 20
109.1875885108
  0
SEQEND
  0
POLYLINE
  8
2_FEATURE
 62
7
  6
CONTINUOUS
 66
1
 70
0
  0
VERTEX
  8
2_FEATURE
 62
7
  6
CONTINUOUS
 10
83.94343523
 20
117.877901232
  0
VERTEX
  8
2_FEATURE
 62
7
  6
CONTINUOUS
 10
83.6858280061
 20
117.8576392499
  0
VERTEX
  8
2_FEATURE
 62
7
  6
CONTINUOUS
 10
83.4327374232
 20
117.8036077559
  0
VERTEX
  8
2_FEATURE
 62
7
  6
CONTINUOUS
 10
83.1889236805
 20
117.71695503
  0
SEQEND
  0
LINE
  8
0
 62
7
  6
CONTINUOUS
 10
104.9178611538
 20
118.1963653685
 11
104.9186307135
 21
118.1964054665
  0
POLYLINE
  8
2_FEATURE
 62
7
  6
CONTINUOUS
 66
1
 70
0
  0
VERTEX
  8
2_FEATURE
 62
7
  6
CONTINUOUS
 10
97.628002534
 20
117.329880878
  0
VERTEX
  8
2_FEATURE
 62
7
  6
CONTINUOUS
 10
97.6905285616
 20
117.3317095252
  0
VERTEX
  8
2_FEATURE
 62
7
  6
CONTINUOUS
 10
97.73276216
 20
117.3341340279
  0
VERTEX
  8
2_FEATURE
 62
7
  6
CONTINUOUS
 10
97.7504957147
 20
117.3369032764
  0
VERTEX
  8
2_FEATURE
 62
7
  6
CONTINUOUS
 10
97.7508776815
 20
117.3373938922
  0
SEQEND
  0
LINE
  8
2_FEATURE
 62
7
  6
CONTINUOUS
 10
97.628002534
 20
117.329880878
 11
96.666466451
 21
117.3069109064
  0
LINE
  8
2_FEATURE
 62
7
  6
CONTINUOUS
 10
83.94343523
 20
117.877901232
 11
93.38683282
 21
117.9949383228
  0
LINE
  8
2_FEATURE
 62
7
  6
CONTINUOUS
 10
69.4098640411
 20
118.3139091128
 11
59.966466451
 21
118.1968720221
  0
LINE
  8
0
 62
7
  6
CONTINUOUS
 10
48.4359362831
 20
117.9954449763
 11
55.1030128769
 21
117.9954449763
  0
LINE
  8
AXES
 62
2
  6
CENTER
 10
81.0766496355
 20
118.0959051724
 11
78.6767496355
 21
118.0959051724
  0
LINE
  8
AXES
 62
2
  6
CONTINUOUS
 10
77.5566496355
 20
118.0959051724
 11
75.7966496355
 21
118.0959051724
  0
LINE
  8
AXES
 62
2
  6
CENTER
 10
72.2766496355
 20
118.0959051724
 11
74.6765496355
 21
118.0959051724
  0
LINE
  8
0
 62
7
  6
CONTINUOUS
 10
104.9173562984
 20
118.1963653685
 11
98.2502714378
 21
118.1963653685
  0
POLYLINE
  8
2_FEATURE
 62
7
  6
CONTINUOUS
 66
1
 70
0
  0
VERTEX
  8
2_FEATURE
 62
7
  6
CONTINUOUS
 10
96.666466451
 20
117.3069109064
  0
VERTEX
  8
2_FEATURE
 62
7
  6
CONTINUOUS
 10
96.478397649
 20
117.3104630416
  0
VERTEX
  8
2_FEATURE
 62
7
  6
CONTINUOUS
 10
96.2884644272
 20
117.3319797067
  0
VERTEX
  8
2_FEATURE
 62
7
  6
CONTINUOUS
 10
96.0987539017
 20
117.3722095453
  0
SEQEND
  0
POLYLINE
  8
2_FEATURE
 62
7
  6
CONTINUOUS
 66
1
 70
0
  0
VERTEX
  8
2_FEATURE
 62
7
  6
CONTINUOUS
 10
56.68683282
 20
118.8848994384
  0
VERTEX
  8
2_FEATURE
 62
7
  6
CONTINUOUS
 10
56.874901622
 20
118.8813473033
  0
VERTEX
  8
2_FEATURE
 62
7
  6
CONTINUOUS
 10
57.0648348438
 20
118.8598306382
  0
VERTEX
  8
2_FEATURE
 62
7
  6
CONTINUOUS
 10
57.2545453694
 20
118.8196007995
  0
SEQEND
  0
POLYLINE
  8
2_FEATURE
 62
7
  6
CONTINUOUS
 66
1
 70
0
  0
VERTEX
  8
2_FEATURE
 62
7
  6
CONTINUOUS
 10
55.701366663
 20
118.8474548931
  0
VERTEX
  8
2_FEATURE
 62
7
  6
CONTINUOUS
 10
55.6454701206
 20
118.8495129716
  0
VERTEX
  8
2_FEATURE
 62
7
  6
CONTINUOUS
 10
55.6114264419
 20
118.8520871973
  0
VERTEX
  8
2_FEATURE
 62
7
  6
CONTINUOUS
 10
55.6024215852
 20
118.8544164522
  0
SEQEND
  0
LINE
  8
2_FEATURE
 62
7
  6
CONTINUOUS
 10
109.3078554178
 20
91.7454741562
 11
109.3716295253
 21
91.6947530633
  0
LINE
  8
0
 62
7
  6
CONTINUOUS
 10
44.0454438526
 20
144.4463361889
 11
43.9816697458
 21
144.4970572815
  0
POLYLINE
  8
2_FEATURE
 62
7
  6
CONTINUOUS
 66
1
 70
0
  0
VERTEX
  8
2_FEATURE
 62
7
  6
CONTINUOUS
 10
55.6024215864
 20
142.5373938926
  0
VERTEX
  8
2_FEATURE
 62
7
  6
CONTINUOUS
 10
55.6028035576
 20
142.5369032757
  0
VERTEX
  8
2_FEATURE
 62
7
  6
CONTINUOUS
 10
55.6205370967
 20
142.5341340291
  0
VERTEX
  8
2_FEATURE
 62
7
  6
CONTINUOUS
 10
55.6627707236
 20
142.5317095247
  0
VERTEX
  8
2_FEATURE
 62
7
  6
CONTINUOUS
 10
55.7252967371
 20
142.529880878
  0
SEQEND
  0
POLYLINE
  8
2_FEATURE
 62
7
  6
CONTINUOUS
 66
1
 70
0
  0
VERTEX
  8
2_FEATURE
 62
7
  6
CONTINUOUS
 10
97.6519301457
 20
127.247454805
  0
VERTEX
  8
2_FEATURE
 62
7
  6
CONTINUOUS
 10
97.613196823
 20
127.2261796246
  0
VERTEX
  8
2_FEATURE
 62
7
  6
CONTINUOUS
 10
97.5820983365
 20
127.1843872446
  0
VERTEX
  8
2_FEATURE
 62
7
  6
CONTINUOUS
 10
97.5539093257
 20
127.1316188301
  0
VERTEX
  8
2_FEATURE
 62
7
  6
CONTINUOUS
 10
97.5270435207
 20
127.0710530436
  0
VERTEX
  8
2_FEATURE
 62
7
  6
CONTINUOUS
 10
97.5008983311
 20
127.004221834
  0
SEQEND
  0
POLYLINE
  8
2_FEATURE
 62
7
  6
CONTINUOUS
 66
1
 70
0
  0
VERTEX
  8
2_FEATURE
 62
7
  6
CONTINUOUS
 10
83.1889236805
 20
117.71695503
  0
VERTEX
  8
2_FEATURE
 62
7
  6
CONTINUOUS
 10
83.0809801519
 20
117.6669161671
  0
VERTEX
  8
2_FEATURE
 62
7
  6
CONTINUOUS
 10
82.9693112395
 20
117.6072529971
  0
VERTEX
  8
2_FEATURE
 62
7
  6
CONTINUOUS
 10
82.8544588147
 20
117.5366207615
  0
SEQEND
  0
LINE
  8
2_FEATURE
 62
7
  6
CONTINUOUS
 10
94.0201373565
 20
126.6907688376
 11
93.9545453694
 21
126.6721525225
  0
POLYLINE
  8
2_FEATURE
 62
7
  6
CONTINUOUS
 66
1
 70
0
  0
VERTEX
  8
2_FEATURE
 62
7
  6
CONTINUOUS
 10
97.7508776803
 20
127.2544164527
  0
VERTEX
  8
2_FEATURE
 62
7
  6
CONTINUOUS
 10
97.7418731574
 20
127.2520872388
  0
VERTEX
  8
2_FEATURE
 62
7
  6
CONTINUOUS
 10
97.70782983
 20
127.2495130066
  0
VERTEX
  8
2_FEATURE
 62
7
  6
CONTINUOUS
 10
97.6519327201
 20
127.247454888
  0
SEQEND
  0
POLYLINE
  8
0
 62
7
  6
CONTINUOUS
 66
1
 70
0
  0
VERTEX
  8
0
 62
7
  6
CONTINUOUS
 10
48.4348615789
 20
117.9954042852
  0
VERTEX
  8
0
 62
7
  6
CONTINUOUS
 10
47.4835556535
 20
117.8770455683
  0
VERTEX
  8
0
 62
7
  6
CONTINUOUS
 10
46.4591178943
 20
117.6997312759
  0
VERTEX
  8
0
 62
7
  6
CONTINUOUS
 10
45.5200079711
 20
117.4787637326
  0
VERTEX
  8
0
 62
7
  6
CONTINUOUS
 10
44.6885471864
 20
117.2165006595
  0
SEQEND
  0
POLYLINE
  8
2_FEATURE
 62
7
  6
CONTINUOUS
 66
1
 70
0
  0
VERTEX
  8
2_FEATURE
 62
7
  6
CONTINUOUS
 10
69.4098640411
 20
118.3139091128
  0
VERTEX
  8
2_FEATURE
 62
7
  6
CONTINUOUS
 10
69.6674712649
 20
118.334171095
  0
VERTEX
  8
2_FEATURE
 62
7
  6
CONTINUOUS
 10
69.9205618479
 20
118.388202589
  0
VERTEX
  8
2_FEATURE
 62
7
  6
CONTINUOUS
 10
70.1643755906
 20
118.4748553148
  0
SEQEND
  0
LINE
  8
0
 62
7
  6
CONTINUOUS
 10
48.4346632849
 20
117.9954048938
 11
48.4354663286
 21
117.9954448923
  0
LINE
  8
2_FEATURE
 62
7
  6
CONTINUOUS
 10
56.68683282
 20
118.8848994384
 11
55.7252967371
 21
118.8619294668
  0
POLYLINE
  8
2_FEATURE
 62
7
  6
CONTINUOUS
 66
1
 70
0
  0
VERTEX
  8
2_FEATURE
 62
7
  6
CONTINUOUS
 10
70.4988404563
 20
125.9366207615
  0
VERTEX
  8
2_FEATURE
 62
7
  6
CONTINUOUS
 10
70.3839880316
 20
126.0072529971
  0
VERTEX
  8
2_FEATURE
 62
7
  6
CONTINUOUS
 10
70.2723191191
 20
126.0669161671
  0
VERTEX
  8
2_FEATURE
 62
7
  6
CONTINUOUS
 10
70.1643755906
 20
126.11695503
  0
SEQEND
  0
POLYLINE
  8
2_FEATURE
 62
7
  6
CONTINUOUS
 66
1
 70
0
  0
VERTEX
  8
2_FEATURE
 62
7
  6
CONTINUOUS
 10
81.9560157915
 20
95.1240529824
  0
VERTEX
  8
2_FEATURE
 62
7
  6
CONTINUOUS
 10
81.9712216368
 20
94.877841634
  0
VERTEX
  8
2_FEATURE
 62
7
  6
CONTINUOUS
 10
82.0166160892
 20
94.6353771682
  0
VERTEX
  8
2_FEATURE
 62
7
  6
CONTINUOUS
 10
82.0915210117
 20
94.4003473006
  0
VERTEX
  8
2_FEATURE
 62
7
  6
CONTINUOUS
 10
82.1948068248
 20
94.1763333506
  0
VERTEX
  8
2_FEATURE
 62
7
  6
CONTINUOUS
 10
82.3249095045
 20
93.966750274
  0
VERTEX
  8
2_FEATURE
 62
7
  6
CONTINUOUS
 10
82.4798507449
 20
93.7747979472
  0
VERTEX
  8
2_FEATURE
 62
7
  6
CONTINUOUS
 10
82.6572695672
 20
93.6034063223
  0
VERTEX
  8
2_FEATURE
 62
7
  6
CONTINUOUS
 10
82.8544588147
 20
93.4551895833
  0
SEQEND
  0
POLYLINE
  8
2_FEATURE
 62
7
  6
CONTINUOUS
 66
1
 70
0
  0
VERTEX
  8
2_FEATURE
 62
7
  6
CONTINUOUS
 10
81.9560157915
 20
111.9240529824
  0
VERTEX
  8
2_FEATURE
 62
7
  6
CONTINUOUS
 10
81.9712216368
 20
111.677841634
  0
VERTEX
  8
2_FEATURE
 62
7
  6
CONTINUOUS
 10
82.0166160892
 20
111.4353771682
  0
VERTEX
  8
2_FEATURE
 62
7
  6
CONTINUOUS
 10
82.0915210117
 20
111.2003473006
  0
VERTEX
  8
2_FEATURE
 62
7
  6
CONTINUOUS
 10
82.1948068248
 20
110.9763333506
  0
VERTEX
  8
2_FEATURE
 62
7
  6
CONTINUOUS
 10
82.3249095045
 20
110.766750274
  0
VERTEX
  8
2_FEATURE
 62
7
  6
CONTINUOUS
 10
82.4798507449
 20
110.5747979472
  0
VERTEX
  8
2_FEATURE
 62
7
  6
CONTINUOUS
 10
82.6572695672
 20
110.4034063223
  0
VERTEX
  8
2_FEATURE
 62
7
  6
CONTINUOUS
 10
82.8544588147
 20
110.2551895833
  0
SEQEND
  0
POLYLINE
  8
2_FEATURE
 62
7
  6
CONTINUOUS
 66
1
 70
0
  0
VERTEX
  8
2_FEATURE
 62
7
  6
CONTINUOUS
 10
81.9560157915
 20
128.7240529824
  0
VERTEX
  8
2_FEATURE
 62
7
  6
CONTINUOUS
 10
81.9712216368
 20
128.477841634
  0
VERTEX
  8
2_FEATURE
 62
7
  6
CONTINUOUS
 10
82.0166160892
 20
128.2353771682
  0
VERTEX
  8
2_FEATURE
 62
7
  6
CONTINUOUS
 10
82.0915210117
 20
128.0003473006
  0
VERTEX
  8
2_FEATURE
 62
7
  6
CONTINUOUS
 10
82.1948068248
 20
127.7763333506
  0
VERTEX
  8
2_FEATURE
 62
7
  6
CONTINUOUS
 10
82.3249095045
 20
127.566750274
  0
VERTEX
  8
2_FEATURE
 62
7
  6
CONTINUOUS
 10
82.4798507449
 20
127.3747979472
  0
VERTEX
  8
2_FEATURE
 62
7
  6
CONTINUOUS
 10
82.6572695672
 20
127.2034063223
  0
VERTEX
  8
2_FEATURE
 62
7
  6
CONTINUOUS
 10
82.8544588147
 20
127.0551895833
  0
SEQEND
  0
LINE
  8
2_FEATURE
 62
7
  6
CONTINUOUS
 10
81.9560157915
 20
132.6677573624
 11
81.9560157915
 21
128.7240529824
  0
LINE
  8
2_FEATURE
 62
7
  6
CONTINUOUS
 10
81.9560157915
 20
115.8677573624
 11
81.9560157915
 21
111.9240529824
  0
LINE
  8
2_FEATURE
 62
7
  6
CONTINUOUS
 10
81.9560157915
 20
99.0677573624
 11
81.9560157915
 21
95.1240529824
  0
LINE
  8
0
 62
7
  6
CONTINUOUS
 10
109.3078554178
 20
136.0463361886
 11
109.3716295253
 21
136.0970572815
  0
POLYLINE
  8
2_FEATURE
 62
7
  6
CONTINUOUS
 66
1
 70
0
  0
VERTEX
  8
2_FEATURE
 62
7
  6
CONTINUOUS
 10
82.8544588147
 20
117.5366207615
  0
VERTEX
  8
2_FEATURE
 62
7
  6
CONTINUOUS
 10
82.657269234
 20
117.3884037382
  0
VERTEX
  8
2_FEATURE
 62
7
  6
CONTINUOUS
 10
82.4798498025
 20
117.2170113674
  0
VERTEX
  8
2_FEATURE
 62
7
  6
CONTINUOUS
 10
82.3249081354
 20
117.0250581422
  0
VERTEX
  8
2_FEATURE
 62
7
  6
CONTINUOUS
 10
82.1948055014
 20
116.8154745355
  0
VERTEX
  8
2_FEATURE
 62
7
  6
CONTINUOUS
 10
82.0915201559
 20
116.5914608395
  0
VERTEX
  8
2_FEATURE
 62
7
  6
CONTINUOUS
 10
82.0166157481
 20
116.3564318228
  0
VERTEX
  8
2_FEATURE
 62
7
  6
CONTINUOUS
 10
81.9712215829
 20
116.1139682761
  0
VERTEX
  8
2_FEATURE
 62
7
  6
CONTINUOUS
 10
81.9560157915
 20
115.8677573624
  0
SEQEND
  0
LINE
  8
0
 62
7
  6
CONTINUOUS
 10
44.6885471864
 20
100.4165006595
 11
44.045441437
 21
100.1454729757
  0
POLYLINE
  8
2_FEATURE
 62
7
  6
CONTINUOUS
 66
1
 70
0
  0
VERTEX
  8
2_FEATURE
 62
7
  6
CONTINUOUS
 10
94.0201373565
 20
126.6907688376
  0
VERTEX
  8
2_FEATURE
 62
7
  6
CONTINUOUS
 10
94.1834287371
 20
126.7362913535
  0
VERTEX
  8
2_FEATURE
 62
7
  6
CONTINUOUS
 10
94.3207283591
 20
126.7728775212
  0
VERTEX
  8
2_FEATURE
 62
7
  6
CONTINUOUS
 10
94.425132991
 20
126.7987568267
  0
SEQEND
  0
POLYLINE
  8
2_FEATURE
 62
7
  6
CONTINUOUS
 66
1
 70
0
  0
VERTEX
  8
2_FEATURE
 62
7
  6
CONTINUOUS
 10
96.0987539017
 20
127.2196007995
  0
VERTEX
  8
2_FEATURE
 62
7
  6
CONTINUOUS
 10
95.4655527267
 20
127.05500249
  0
VERTEX
  8
2_FEATURE
 62
7
  6
CONTINUOUS
 10
94.9061007128
 20
126.9143393269
  0
VERTEX
  8
2_FEATURE
 62
7
  6
CONTINUOUS
 10
94.425132991
 20
126.7987568267
  0
SEQEND
  0
POLYLINE
  8
2_FEATURE
 62
7
  6
CONTINUOUS
 66
1
 70
0
  0
VERTEX
  8
2_FEATURE
 62
7
  6
CONTINUOUS
 10
96.0987539017
 20
127.2196007995
  0
VERTEX
  8
2_FEATURE
 62
7
  6
CONTINUOUS
 10
96.2884644272
 20
127.2598306382
  0
VERTEX
  8
2_FEATURE
 62
7
  6
CONTINUOUS
 10
96.478397649
 20
127.2813473033
  0
VERTEX
  8
2_FEATURE
 62
7
  6
CONTINUOUS
 10
96.666466451
 20
127.2848994384
  0
SEQEND
  0
POLYLINE
  8
0
 62
7
  6
CONTINUOUS
 66
1
 70
0
  0
VERTEX
  8
0
 62
7
  6
CONTINUOUS
 10
44.0771950476
 20
116.9588550789
  0
VERTEX
  8
0
 62
7
  6
CONTINUOUS
 10
43.8696352436
 20
116.9281565058
  0
VERTEX
  8
0
 62
7
  6
CONTINUOUS
 10
43.5813687971
 20
116.8773259396
  0
VERTEX
  8
0
 62
7
  6
CONTINUOUS
 10
43.3308414008
 20
116.8210325793
  0
VERTEX
  8
0
 62
7
  6
CONTINUOUS
 10
43.1314292043
 20
116.760292488
  0
VERTEX
  8
0
 62
7
  6
CONTINUOUS
 10
42.979620483
 20
116.6915111962
  0
VERTEX
  8
0
 62
7
  6
CONTINUOUS
 10
42.8605637984
 20
116.5974065607
  0
VERTEX
  8
0
 62
7
  6
CONTINUOUS
 10
42.7828938342
 20
116.4457776961
  0
VERTEX
  8
0
 62
7
  6
CONTINUOUS
 10
42.7766677309
 20
116.3831526178
  0
SEQEND
  0
LINE
  8
0
 62
7
  6
CONTINUOUS
 10
43.8686442055
 20
127.66381113
 11
44.0771911678
 21
127.632956901
  0
POLYLINE
  8
2_FEATURE
 62
7
  6
CONTINUOUS
 66
1
 70
0
  0
VERTEX
  8
2_FEATURE
 62
7
  6
CONTINUOUS
 10
93.9545453694
 20
117.9196578223
  0
VERTEX
  8
2_FEATURE
 62
7
  6
CONTINUOUS
 10
93.7688597934
 20
117.9628253659
  0
VERTEX
  8
2_FEATURE
 62
7
  6
CONTINUOUS
 10
93.5789763811
 20
117.9880628388
  0
VERTEX
  8
2_FEATURE
 62
7
  6
CONTINUOUS
 10
93.38683282
 20
117.9949383228
  0
SEQEND
  0
POLYLINE
  8
2_FEATURE
 62
7
  6
CONTINUOUS
 66
1
 70
0
  0
VERTEX
  8
2_FEATURE
 62
7
  6
CONTINUOUS
 10
97.7508776815
 20
117.3373938922
  0
VERTEX
  8
2_FEATURE
 62
7
  6
CONTINUOUS
 10
97.7418729581
 20
117.3397231312
  0
VERTEX
  8
2_FEATURE
 62
7
  6
CONTINUOUS
 10
97.7078293059
 20
117.3422973653
  0
VERTEX
  8
2_FEATURE
 62
7
  6
CONTINUOUS
 10
97.651932608
 20
117.3443554518
  0
SEQEND
  0
POLYLINE
  8
2_FEATURE
 62
7
  6
CONTINUOUS
 66
1
 70
0
  0
VERTEX
  8
2_FEATURE
 62
7
  6
CONTINUOUS
 10
96.0987539017
 20
117.3722095453
  0
VERTEX
  8
2_FEATURE
 62
7
  6
CONTINUOUS
 10
95.4655527267
 20
117.5368078548
  0
VERTEX
  8
2_FEATURE
 62
7
  6
CONTINUOUS
 10
94.9061007128
 20
117.6774710179
  0
VERTEX
  8
2_FEATURE
 62
7
  6
CONTINUOUS
 10
94.425132991
 20
117.7930535181
  0
SEQEND
  0
POLYLINE
  8
2_FEATURE
 62
7
  6
CONTINUOUS
 66
1
 70
0
  0
VERTEX
  8
2_FEATURE
 62
7
  6
CONTINUOUS
 10
94.0201373565
 20
117.9010415072
  0
VERTEX
  8
2_FEATURE
 62
7
  6
CONTINUOUS
 10
94.1834287371
 20
117.8555189913
  0
VERTEX
  8
2_FEATURE
 62
7
  6
CONTINUOUS
 10
94.3207283591
 20
117.8189328237
  0
VERTEX
  8
2_FEATURE
 62
7
  6
CONTINUOUS
 10
94.425132991
 20
117.7930535181
  0
SEQEND
  0
LINE
  8
2_FEATURE
 62
7
  6
CONTINUOUS
 10
94.0201373565
 20
117.9010415072
 11
93.9545453694
 21
117.9196578223
  0
POLYLINE
  8
2_FEATURE
 62
7
  6
CONTINUOUS
 66
1
 70
0
  0
VERTEX
  8
2_FEATURE
 62
7
  6
CONTINUOUS
 10
70.1643755906
 20
126.11695503
  0
VERTEX
  8
2_FEATURE
 62
7
  6
CONTINUOUS
 10
69.9205618479
 20
126.2036077559
  0
VERTEX
  8
2_FEATURE
 62
7
  6
CONTINUOUS
 10
69.6674712649
 20
126.2576392499
  0
VERTEX
  8
2_FEATURE
 62
7
  6
CONTINUOUS
 10
69.4098640411
 20
126.277901232
  0
SEQEND
  0
POLYLINE
  8
0
 62
7
  6
CONTINUOUS
 66
1
 70
0
  0
VERTEX
  8
0
 62
7
  6
CONTINUOUS
 10
109.3078578334
 20
108.545472976
  0
VERTEX
  8
0
 62
7
  6
CONTINUOUS
 10
108.6647549321
 20
108.8164996175
  0
VERTEX
  8
0
 62
7
  6
CONTINUOUS
 10
107.8332978833
 20
109.0787619399
  0
VERTEX
  8
0
 62
7
  6
CONTINUOUS
 10
106.8941923569
 20
109.2997290535
  0
VERTEX
  8
0
 62
7
  6
CONTINUOUS
 10
105.8697593905
 20
109.4770432625
  0
VERTEX
  8
0
 62
7
  6
CONTINUOUS
 10
104.9184376925
 20
109.5954042852
  0
SEQEND
  0
POLYLINE
  8
2_FEATURE
 62
7
  6
CONTINUOUS
 66
1
 70
0
  0
VERTEX
  8
2_FEATURE
 62
7
  6
CONTINUOUS
 10
70.4988404563
 20
101.8551895833
  0
VERTEX
  8
2_FEATURE
 62
7
  6
CONTINUOUS
 10
70.6960300371
 20
102.0034066066
  0
VERTEX
  8
2_FEATURE
 62
7
  6
CONTINUOUS
 10
70.8734494685
 20
102.1747989774
  0
VERTEX
  8
2_FEATURE
 62
7
  6
CONTINUOUS
 10
71.0283911356
 20
102.3667522026
  0
VERTEX
  8
2_FEATURE
 62
7
  6
CONTINUOUS
 10
71.1584937697
 20
102.5763358094
  0
VERTEX
  8
2_FEATURE
 62
7
  6
CONTINUOUS
 10
71.2617791152
 20
102.8003495054
  0
VERTEX
  8
2_FEATURE
 62
7
  6
CONTINUOUS
 10
71.3366835229
 20
103.035378522
  0
VERTEX
  8
2_FEATURE
 62
7
  6
CONTINUOUS
 10
71.3820776881
 20
103.2778420687
  0
VERTEX
  8
2_FEATURE
 62
7
  6
CONTINUOUS
 10
71.3972834796
 20
103.5240529824
  0
SEQEND
  0
POLYLINE
  8
2_FEATURE
 62
7
  6
CONTINUOUS
 66
1
 70
0
  0
VERTEX
  8
2_FEATURE
 62
7
  6
CONTINUOUS
 10
55.7013665509
 20
125.7443554568
  0
VERTEX
  8
2_FEATURE
 62
7
  6
CONTINUOUS
 10
55.6454695965
 20
125.7422973463
  0
VERTEX
  8
2_FEATURE
 62
7
  6
CONTINUOUS
 10
55.6114262425
 20
125.7397231223
  0
VERTEX
  8
2_FEATURE
 62
7
  6
CONTINUOUS
 10
55.6024215864
 20
125.7373938926
  0
SEQEND
  0
POLYLINE
  8
2_FEATURE
 62
7
  6
CONTINUOUS
 66
1
 70
0
  0
VERTEX
  8
2_FEATURE
 62
7
  6
CONTINUOUS
 10
93.38683282
 20
126.5968720221
  0
VERTEX
  8
2_FEATURE
 62
7
  6
CONTINUOUS
 10
93.5789763811
 20
126.603747506
  0
VERTEX
  8
2_FEATURE
 62
7
  6
CONTINUOUS
 10
93.7688597934
 20
126.628984979
  0
VERTEX
  8
2_FEATURE
 62
7
  6
CONTINUOUS
 10
93.9545453694
 20
126.6721525225
  0
SEQEND
  0
POLYLINE
  8
2_FEATURE
 62
7
  6
CONTINUOUS
 66
1
 70
0
  0
VERTEX
  8
2_FEATURE
 62
7
  6
CONTINUOUS
 10
59.966466451
 20
126.3949383228
  0
VERTEX
  8
2_FEATURE
 62
7
  6
CONTINUOUS
 10
59.7743228899
 20
126.3880628388
  0
VERTEX
  8
2_FEATURE
 62
7
  6
CONTINUOUS
 10
59.5844394777
 20
126.3628253659
  0
VERTEX
  8
2_FEATURE
 62
7
  6
CONTINUOUS
 10
59.3987539017
 20
126.3196578223
  0
SEQEND
  0
LINE
  8
0
 62
7
  6
CONTINUOUS
 10
98.2502714378
 20
126.3954449763
 11
104.9173562984
 21
126.3954449763
  0
LINE
  8
0
 62
7
  6
CONTINUOUS
 10
55.1030128769
 20
126.5963653685
 11
48.4359362831
 21
126.5963653685
  0
LINE
  8
2_FEATURE
 62
7
  6
CONTINUOUS
 10
69.4098640411
 20
126.277901232
 11
59.966466451
 21
126.3949383228
  0
LINE
  8
2_FEATURE
 62
7
  6
CONTINUOUS
 10
83.94343523
 20
126.7139091128
 11
93.38683282
 21
126.5968720221
  0
LINE
  8
2_FEATURE
 62
7
  6
CONTINUOUS
 10
56.68683282
 20
125.7069109064
 11
55.7252967371
 21
125.729880878
  0
LINE
  8
2_FEATURE
 62
7
  6
CONTINUOUS
 10
97.628002534
 20
127.2619294668
 11
96.666466451
 21
127.2848994384
  0
POLYLINE
  8
2_FEATURE
 62
7
  6
CONTINUOUS
 66
1
 70
0
  0
VERTEX
  8
2_FEATURE
 62
7
  6
CONTINUOUS
 10
97.628002534
 20
127.2619294668
  0
VERTEX
  8
2_FEATURE
 62
7
  6
CONTINUOUS
 10
97.6905284437
 20
127.2601008244
  0
VERTEX
  8
2_FEATURE
 62
7
  6
CONTINUOUS
 10
97.7327620213
 20
127.257676329
  0
VERTEX
  8
2_FEATURE
 62
7
  6
CONTINUOUS
 10
97.750495683
 20
127.2549070879
  0
VERTEX
  8
2_FEATURE
 62
7
  6
CONTINUOUS
 10
97.7508776803
 20
127.2544164527
  0
SEQEND
  0
LINE
  8
0
 62
7
  6
CONTINUOUS
 10
48.4346632849
 20
126.596405451
 11
48.4354663286
 21
126.5963654526
  0
LINE
  8
0
 62
7
  6
CONTINUOUS
 10
104.9178611538
 20
126.3954449763
 11
104.9186307135
 21
126.3954048783
  0
POLYLINE
  8
0
 62
7
  6
CONTINUOUS
 66
1
 70
0
  0
VERTEX
  8
0
 62
7
  6
CONTINUOUS
 10
104.9186307135
 20
109.5954048783
  0
VERTEX
  8
0
 62
7
  6
CONTINUOUS
 10
104.9252459675
 20
109.5914573485
  0
VERTEX
  8
0
 62
7
  6
CONTINUOUS
 10
104.9411763652
 20
109.5465299247
  0
VERTEX
  8
0
 62
7
  6
CONTINUOUS
 10
104.9497019835
 20
109.4595904566
  0
VERTEX
  8
0
 62
7
  6
CONTINUOUS
 10
104.9489309588
 20
109.3454449763
  0
SEQEND
  0
POLYLINE
  8
2_FEATURE
 62
7
  6
CONTINUOUS
 66
1
 70
0
  0
VERTEX
  8
2_FEATURE
 62
7
  6
CONTINUOUS
 10
70.1643755906
 20
101.6748553148
  0
VERTEX
  8
2_FEATURE
 62
7
  6
CONTINUOUS
 10
70.2723191191
 20
101.7248941777
  0
VERTEX
  8
2_FEATURE
 62
7
  6
CONTINUOUS
 10
70.3839880316
 20
101.7845573477
  0
VERTEX
  8
2_FEATURE
 62
7
  6
CONTINUOUS
 10
70.4988404563
 20
101.8551895833
  0
SEQEND
  0
LINE
  8
0
 62
7
  6
CONTINUOUS
 10
108.6647549321
 20
118.9753107274
 11
109.3078578334
 21
119.2463373689
  0
LINE
  8
2_FEATURE
 62
7
  6
CONTINUOUS
 10
59.3331619146
 20
126.3010415072
 11
59.3987539017
 21
126.3196578223
  0
POLYLINE
  8
2_FEATURE
 62
7
  6
CONTINUOUS
 66
1
 70
0
  0
VERTEX
  8
2_FEATURE
 62
7
  6
CONTINUOUS
 10
58.9281662801
 20
126.1930535181
  0
VERTEX
  8
2_FEATURE
 62
7
  6
CONTINUOUS
 10
59.0325716741
 20
126.2189330206
  0
VERTEX
  8
2_FEATURE
 62
7
  6
CONTINUOUS
 10
59.1698698863
 20
126.2555188144
  0
VERTEX
  8
2_FEATURE
 62
7
  6
CONTINUOUS
 10
59.3331619146
 20
126.3010415072
  0
SEQEND
  0
POLYLINE
  8
2_FEATURE
 62
7
  6
CONTINUOUS
 66
1
 70
0
  0
VERTEX
  8
2_FEATURE
 62
7
  6
CONTINUOUS
 10
58.9281662801
 20
126.1930535181
  0
VERTEX
  8
2_FEATURE
 62
7
  6
CONTINUOUS
 10
58.4471968961
 20
126.0774706085
  0
VERTEX
  8
2_FEATURE
 62
7
  6
CONTINUOUS
 10
57.8877453449
 20
125.9368075478
  0
VERTEX
  8
2_FEATURE
 62
7
  6
CONTINUOUS
 10
57.2545453694
 20
125.7722095453
  0
SEQEND
  0
POLYLINE
  8
2_FEATURE
 62
7
  6
CONTINUOUS
 66
1
 70
0
  0
VERTEX
  8
2_FEATURE
 62
7
  6
CONTINUOUS
 10
57.2545453694
 20
125.7722095453
  0
VERTEX
  8
2_FEATURE
 62
7
  6
CONTINUOUS
 10
57.0648348438
 20
125.7319797067
  0
VERTEX
  8
2_FEATURE
 62
7
  6
CONTINUOUS
 10
56.874901622
 20
125.7104630416
  0
VERTEX
  8
2_FEATURE
 62
7
  6
CONTINUOUS
 10
56.68683282
 20
125.7069109064
  0
SEQEND
  0
POLYLINE
  8
0
 62
7
  6
CONTINUOUS
 66
1
 70
0
  0
VERTEX
  8
0
 62
7
  6
CONTINUOUS
 10
109.2761042521
 20
136.0329552702
  0
VERTEX
  8
0
 62
7
  6
CONTINUOUS
 10
109.4836640274
 20
136.063653839
  0
VERTEX
  8
0
 62
7
  6
CONTINUOUS
 10
109.7719304739
 20
136.1144844052
  0
VERTEX
  8
0
 62
7
  6
CONTINUOUS
 10
110.0224578702
 20
136.1707777656
  0
VERTEX
  8
0
 62
7
  6
CONTINUOUS
 10
110.2218700668
 20
136.2315178568
  0
VERTEX
  8
0
 62
7
  6
CONTINUOUS
 10
110.373678788
 20
136.3002991486
  0
VERTEX
  8
0
 62
7
  6
CONTINUOUS
 10
110.4927354727
 20
136.3944037842
  0
VERTEX
  8
0
 62
7
  6
CONTINUOUS
 10
110.5704054368
 20
136.5460326487
  0
VERTEX
  8
0
 62
7
  6
CONTINUOUS
 10
110.5766315401
 20
136.6086577271
  0
SEQEND
  0
LINE
  8
0
 62
7
  6
CONTINUOUS
 10
109.4846550634
 20
125.3279992152
 11
109.2761081319
 21
125.3588534396
  0
POLYLINE
  8
2_FEATURE
 62
7
  6
CONTINUOUS
 66
1
 70
0
  0
VERTEX
  8
2_FEATURE
 62
7
  6
CONTINUOUS
 10
59.3987539017
 20
135.0721525225
  0
VERTEX
  8
2_FEATURE
 62
7
  6
CONTINUOUS
 10
59.5844394777
 20
135.028984979
  0
VERTEX
  8
2_FEATURE
 62
7
  6
CONTINUOUS
 10
59.7743228899
 20
135.003747506
  0
VERTEX
  8
2_FEATURE
 62
7
  6
CONTINUOUS
 10
59.966466451
 20
134.9968720221
  0
SEQEND
  0
POLYLINE
  8
2_FEATURE
 62
7
  6
CONTINUOUS
 66
1
 70
0
  0
VERTEX
  8
2_FEATURE
 62
7
  6
CONTINUOUS
 10
58.9281662801
 20
135.1987568267
  0
VERTEX
  8
2_FEATURE
 62
7
  6
CONTINUOUS
 10
58.4471968961
 20
135.3143397363
  0
VERTEX
  8
2_FEATURE
 62
7
  6
CONTINUOUS
 10
57.8877453449
 20
135.455002797
  0
VERTEX
  8
2_FEATURE
 62
7
  6
CONTINUOUS
 10
57.2545453694
 20
135.6196007995
  0
SEQEND
  0
POLYLINE
  8
2_FEATURE
 62
7
  6
CONTINUOUS
 66
1
 70
0
  0
VERTEX
  8
2_FEATURE
 62
7
  6
CONTINUOUS
 10
58.9281662801
 20
135.1987568267
  0
VERTEX
  8
2_FEATURE
 62
7
  6
CONTINUOUS
 10
59.0325716741
 20
135.1728773243
  0
VERTEX
  8
2_FEATURE
 62
7
  6
CONTINUOUS
 10
59.1698698863
 20
135.1362915304
  0
VERTEX
  8
2_FEATURE
 62
7
  6
CONTINUOUS
 10
59.3331619146
 20
135.0907688376
  0
SEQEND
  0
LINE
  8
2_FEATURE
 62
7
  6
CONTINUOUS
 10
59.3331619146
 20
135.0907688376
 11
59.3987539017
 21
135.0721525225
  0
POLYLINE
  8
2_FEATURE
 62
7
  6
CONTINUOUS
 66
1
 70
0
  0
VERTEX
  8
2_FEATURE
 62
7
  6
CONTINUOUS
 10
83.1889236805
 20
126.8748553148
  0
VERTEX
  8
2_FEATURE
 62
7
  6
CONTINUOUS
 10
83.4327374232
 20
126.788202589
  0
VERTEX
  8
2_FEATURE
 62
7
  6
CONTINUOUS
 10
83.6858280061
 20
126.734171095
  0
VERTEX
  8
2_FEATURE
 62
7
  6
CONTINUOUS
 10
83.94343523
 20
126.7139091128
  0
SEQEND
  0
POLYLINE
  8
0
 62
7
  6
CONTINUOUS
 66
1
 70
0
  0
VERTEX
  8
0
 62
7
  6
CONTINUOUS
 10
44.045441437
 20
144.4463373692
  0
VERTEX
  8
0
 62
7
  6
CONTINUOUS
 10
44.6885471864
 20
144.1753096853
  0
VERTEX
  8
0
 62
7
  6
CONTINUOUS
 10
45.5200079711
 20
143.9130466122
  0
VERTEX
  8
0
 62
7
  6
CONTINUOUS
 10
46.4591178943
 20
143.6920790689
  0
VERTEX
  8
0
 62
7
  6
CONTINUOUS
 10
47.4835556534
 20
143.5147647765
  0
VERTEX
  8
0
 62
7
  6
CONTINUOUS
 10
48.4348615789
 20
143.3964060596
  0
SEQEND
  0
POLYLINE
  8
2_FEATURE
 62
7
  6
CONTINUOUS
 66
1
 70
0
  0
VERTEX
  8
2_FEATURE
 62
7
  6
CONTINUOUS
 10
82.8544588147
 20
127.0551895833
  0
VERTEX
  8
2_FEATURE
 62
7
  6
CONTINUOUS
 10
82.9693112395
 20
126.9845573477
  0
VERTEX
  8
2_FEATURE
 62
7
  6
CONTINUOUS
 10
83.0809801519
 20
126.9248941777
  0
VERTEX
  8
2_FEATURE
 62
7
  6
CONTINUOUS
 10
83.1889236805
 20
126.8748553148
  0
SEQEND
  0
LINE
  8
0
 62
7
  6
CONTINUOUS
 10
109.3078554178
 20
108.5454741562
 11
109.3716295253
 21
108.4947530633
  0
POLYLINE
  8
2_FEATURE
 62
7
  6
CONTINUOUS
 66
1
 70
0
  0
VERTEX
  8
2_FEATURE
 62
7
  6
CONTINUOUS
 10
97.5008983311
 20
100.7861216691
  0
VERTEX
  8
2_FEATURE
 62
7
  6
CONTINUOUS
 10
97.5273404846
 20
100.7198063167
  0
VERTEX
  8
2_FEATURE
 62
7
  6
CONTINUOUS
 10
97.5540221422
 20
100.6595031086
  0
VERTEX
  8
2_FEATURE
 62
7
  6
CONTINUOUS
 10
97.5821443428
 20
100.6069957353
  0
VERTEX
  8
2_FEATURE
 62
7
  6
CONTINUOUS
 10
97.6132344686
 20
100.5654600479
  0
VERTEX
  8
2_FEATURE
 62
7
  6
CONTINUOUS
 10
97.6519288064
 20
100.5443555776
  0
SEQEND
  0
POLYLINE
  8
0
 62
7
  6
CONTINUOUS
 66
1
 70
0
  0
VERTEX
  8
0
 62
7
  6
CONTINUOUS
 10
104.9186307135
 20
118.1964054665
  0
VERTEX
  8
0
 62
7
  6
CONTINUOUS
 10
104.9252459675
 20
118.2003529963
  0
VERTEX
  8
0
 62
7
  6
CONTINUOUS
 10
104.9411763652
 20
118.2452804201
  0
VERTEX
  8
0
 62
7
  6
CONTINUOUS
 10
104.9497019835
 20
118.3322198882
  0
VERTEX
  8
0
 62
7
  6
CONTINUOUS
 10
104.9489309588
 20
118.4463653685
  0
SEQEND
  0
POLYLINE
  8
0
 62
7
  6
CONTINUOUS
 66
1
 70
0
  0
VERTEX
  8
0
 62
7
  6
CONTINUOUS
 10
104.9184376925
 20
134.9964060597
  0
VERTEX
  8
0
 62
7
  6
CONTINUOUS
 10
105.8697593905
 20
135.1147670823
  0
VERTEX
  8
0
 62
7
  6
CONTINUOUS
 10
106.8941923569
 20
135.2920812913
  0
VERTEX
  8
0
 62
7
  6
CONTINUOUS
 10
107.8332978833
 20
135.5130484049
  0
VERTEX
  8
0
 62
7
  6
CONTINUOUS
 10
108.6647549321
 20
135.7753107274
  0
SEQEND
  0
POLYLINE
  8
2_FEATURE
 62
7
  6
CONTINUOUS
 66
1
 70
0
  0
VERTEX
  8
2_FEATURE
 62
7
  6
CONTINUOUS
 10
83.94343523
 20
134.677901232
  0
VERTEX
  8
2_FEATURE
 62
7
  6
CONTINUOUS
 10
83.6858280061
 20
134.6576392499
  0
VERTEX
  8
2_FEATURE
 62
7
  6
CONTINUOUS
 10
83.4327374232
 20
134.6036077559
  0
VERTEX
  8
2_FEATURE
 62
7
  6
CONTINUOUS
 10
83.1889236805
 20
134.51695503
  0
SEQEND
  0
LINE
  8
0
 62
7
  6
CONTINUOUS
 10
104.9178611538
 20
134.9963653685
 11
104.9186307135
 21
134.9964054665
  0
POLYLINE
  8
2_FEATURE
 62
7
  6
CONTINUOUS
 66
1
 70
0
  0
VERTEX
  8
2_FEATURE
 62
7
  6
CONTINUOUS
 10
97.628002534
 20
134.129880878
  0
VERTEX
  8
2_FEATURE
 62
7
  6
CONTINUOUS
 10
97.6905285603
 20
134.1317095252
  0
VERTEX
  8
2_FEATURE
 62
7
  6
CONTINUOUS
 10
97.7327621585
 20
134.1341340277
  0
VERTEX
  8
2_FEATURE
 62
7
  6
CONTINUOUS
 10
97.7504957144
 20
134.1369032762
  0
VERTEX
  8
2_FEATURE
 62
7
  6
CONTINUOUS
 10
97.7508776815
 20
134.1373938922
  0
SEQEND
  0
LINE
  8
2_FEATURE
 62
7
  6
CONTINUOUS
 10
97.628002534
 20
134.129880878
 11
96.666466451
 21
134.1069109064
  0
LINE
  8
0
 62
7
  6
CONTINUOUS
 10
109.3078554178
 20
119.2463361886
 11
109.3716295253
 21
119.2970572815
  0
POLYLINE
  8
2_FEATURE
 62
7
  6
CONTINUOUS
 66
1
 70
0
  0
VERTEX
  8
2_FEATURE
 62
7
  6
CONTINUOUS
 10
82.8544588147
 20
100.7366207615
  0
VERTEX
  8
2_FEATURE
 62
7
  6
CONTINUOUS
 10
82.657269234
 20
100.5884037382
  0
VERTEX
  8
2_FEATURE
 62
7
  6
CONTINUOUS
 10
82.4798498025
 20
100.4170113674
  0
VERTEX
  8
2_FEATURE
 62
7
  6
CONTINUOUS
 10
82.3249081354
 20
100.2250581422
  0
VERTEX
  8
2_FEATURE
 62
7
  6
CONTINUOUS
 10
82.1948055014
 20
100.0154745355
  0
VERTEX
  8
2_FEATURE
 62
7
  6
CONTINUOUS
 10
82.0915201559
 20
99.7914608395
  0
VERTEX
  8
2_FEATURE
 62
7
  6
CONTINUOUS
 10
82.0166157481
 20
99.5564318228
  0
VERTEX
  8
2_FEATURE
 62
7
  6
CONTINUOUS
 10
81.9712215829
 20
99.3139682761
  0
VERTEX
  8
2_FEATURE
 62
7
  6
CONTINUOUS
 10
81.9560157915
 20
99.0677573624
  0
SEQEND
  0
POLYLINE
  8
2_FEATURE
 62
7
  6
CONTINUOUS
 66
1
 70
0
  0
VERTEX
  8
2_FEATURE
 62
7
  6
CONTINUOUS
 10
97.6519301457
 20
110.447454805
  0
VERTEX
  8
2_FEATURE
 62
7
  6
CONTINUOUS
 10
97.613196823
 20
110.4261796246
  0
VERTEX
  8
2_FEATURE
 62
7
  6
CONTINUOUS
 10
97.5820983365
 20
110.3843872446
  0
VERTEX
  8
2_FEATURE
 62
7
  6
CONTINUOUS
 10
97.5539093257
 20
110.3316188301
  0
VERTEX
  8
2_FEATURE
 62
7
  6
CONTINUOUS
 10
97.5270435207
 20
110.2710530436
  0
VERTEX
  8
2_FEATURE
 62
7
  6
CONTINUOUS
 10
97.5008983311
 20
110.204221834
  0
SEQEND
  0
POLYLINE
  8
2_FEATURE
 62
7
  6
CONTINUOUS
 66
1
 70
0
  0
VERTEX
  8
2_FEATURE
 62
7
  6
CONTINUOUS
 10
83.1889236805
 20
100.91695503
  0
VERTEX
  8
2_FEATURE
 62
7
  6
CONTINUOUS
 10
83.0809801519
 20
100.8669161671
  0
VERTEX
  8
2_FEATURE
 62
7
  6
CONTINUOUS
 10
82.9693112395
 20
100.8072529971
  0
VERTEX
  8
2_FEATURE
 62
7
  6
CONTINUOUS
 10
82.8544588147
 20
100.7366207615
  0
SEQEND
  0
POLYLINE
  8
2_FEATURE
 62
7
  6
CONTINUOUS
 66
1
 70
0
  0
VERTEX
  8
2_FEATURE
 62
7
  6
CONTINUOUS
 10
69.4098640411
 20
135.1139091128
  0
VERTEX
  8
2_FEATURE
 62
7
  6
CONTINUOUS
 10
69.6674712649
 20
135.134171095
  0
VERTEX
  8
2_FEATURE
 62
7
  6
CONTINUOUS
 10
69.9205618479
 20
135.188202589
  0
VERTEX
  8
2_FEATURE
 62
7
  6
CONTINUOUS
 10
70.1643755906
 20
135.2748553148
  0
SEQEND
  0
LINE
  8
0
 62
7
  6
CONTINUOUS
 10
48.4346632849
 20
134.7954048938
 11
48.4354663286
 21
134.7954448923
  0
LINE
  8
2_FEATURE
 62
7
  6
CONTINUOUS
 10
56.68683282
 20
135.6848994384
 11
55.7252967371
 21
135.6619294668
  0
LINE
  8
2_FEATURE
 62
7
  6
CONTINUOUS
 10
83.94343523
 20
134.677901232
 11
93.38683282
 21
134.7949383228
  0
LINE
  8
2_FEATURE
 62
7
  6
CONTINUOUS
 10
69.4098640411
 20
135.1139091128
 11
59.966466451
 21
134.9968720221
  0
LINE
  8
0
 62
7
  6
CONTINUOUS
 10
48.4359362831
 20
134.7954449763
 11
55.1030128769
 21
134.7954449763
  0
LINE
  8
0
 62
7
  6
CONTINUOUS
 10
104.9173562984
 20
134.9963653685
 11
98.2502714378
 21
134.9963653685
  0
POLYLINE
  8
2_FEATURE
 62
7
  6
CONTINUOUS
 66
1
 70
0
  0
VERTEX
  8
2_FEATURE
 62
7
  6
CONTINUOUS
 10
96.666466451
 20
134.1069109064
  0
VERTEX
  8
2_FEATURE
 62
7
  6
CONTINUOUS
 10
96.478397649
 20
134.1104630416
  0
VERTEX
  8
2_FEATURE
 62
7
  6
CONTINUOUS
 10
96.2884644272
 20
134.1319797067
  0
VERTEX
  8
2_FEATURE
 62
7
  6
CONTINUOUS
 10
96.0987539017
 20
134.1722095453
  0
SEQEND
  0
POLYLINE
  8
2_FEATURE
 62
7
  6
CONTINUOUS
 66
1
 70
0
  0
VERTEX
  8
2_FEATURE
 62
7
  6
CONTINUOUS
 10
56.68683282
 20
135.6848994384
  0
VERTEX
  8
2_FEATURE
 62
7
  6
CONTINUOUS
 10
56.874901622
 20
135.6813473033
  0
VERTEX
  8
2_FEATURE
 62
7
  6
CONTINUOUS
 10
57.0648348438
 20
135.6598306382
  0
VERTEX
  8
2_FEATURE
 62
7
  6
CONTINUOUS
 10
57.2545453694
 20
135.6196007995
  0
SEQEND
  0
POLYLINE
  8
2_FEATURE
 62
7
  6
CONTINUOUS
 66
1
 70
0
  0
VERTEX
  8
2_FEATURE
 62
7
  6
CONTINUOUS
 10
55.7013666618
 20
135.647454893
  0
VERTEX
  8
2_FEATURE
 62
7
  6
CONTINUOUS
 10
55.645470115
 20
135.6495129718
  0
VERTEX
  8
2_FEATURE
 62
7
  6
CONTINUOUS
 10
55.6114264398
 20
135.6520871976
  0
VERTEX
  8
2_FEATURE
 62
7
  6
CONTINUOUS
 10
55.6024215852
 20
135.6544164522
  0
SEQEND
  0
POLYLINE
  8
0
 62
7
  6
CONTINUOUS
 66
1
 70
0
  0
VERTEX
  8
0
 62
7
  6
CONTINUOUS
 10
109.3078578334
 20
125.345472976
  0
VERTEX
  8
0
 62
7
  6
CONTINUOUS
 10
108.6647549321
 20
125.6164996175
  0
VERTEX
  8
0
 62
7
  6
CONTINUOUS
 10
107.8332978833
 20
125.8787619399
  0
VERTEX
  8
0
 62
7
  6
CONTINUOUS
 10
106.8941923569
 20
126.0997290535
  0
VERTEX
  8
0
 62
7
  6
CONTINUOUS
 10
105.8697593905
 20
126.2770432625
  0
VERTEX
  8
0
 62
7
  6
CONTINUOUS
 10
104.9184376925
 20
126.3954042852
  0
SEQEND
  0
POLYLINE
  8
2_FEATURE
 62
7
  6
CONTINUOUS
 66
1
 70
0
  0
VERTEX
  8
2_FEATURE
 62
7
  6
CONTINUOUS
 10
70.4988404563
 20
142.7366207615
  0
VERTEX
  8
2_FEATURE
 62
7
  6
CONTINUOUS
 10
70.3839880316
 20
142.8072529971
  0
VERTEX
  8
2_FEATURE
 62
7
  6
CONTINUOUS
 10
70.2723191191
 20
142.8669161671
  0
VERTEX
  8
2_FEATURE
 62
7
  6
CONTINUOUS
 10
70.1643755906
 20
142.91695503
  0
SEQEND
  0
POLYLINE
  8
2_FEATURE
 62
7
  6
CONTINUOUS
 66
1
 70
0
  0
VERTEX
  8
2_FEATURE
 62
7
  6
CONTINUOUS
 10
109.3716295253
 20
91.6947530633
  0
VERTEX
  8
2_FEATURE
 62
7
  6
CONTINUOUS
 10
109.4142023534
 20
91.6131405182
  0
VERTEX
  8
2_FEATURE
 62
7
  6
CONTINUOUS
 10
109.4237775523
 20
91.5161585072
  0
SEQEND
  0
POLYLINE
  8
2_FEATURE
 62
7
  6
CONTINUOUS
 66
1
 70
0
  0
VERTEX
  8
2_FEATURE
 62
7
  6
CONTINUOUS
 10
97.5008983311
 20
117.5860911808
  0
VERTEX
  8
2_FEATURE
 62
7
  6
CONTINUOUS
 10
97.5273486543
 20
117.5197867517
  0
VERTEX
  8
2_FEATURE
 62
7
  6
CONTINUOUS
 10
97.5540282858
 20
117.4594898926
  0
VERTEX
  8
2_FEATURE
 62
7
  6
CONTINUOUS
 10
97.5821486979
 20
117.4069882992
  0
VERTEX
  8
2_FEATURE
 62
7
  6
CONTINUOUS
 10
97.6132369811
 20
117.3654574104
  0
VERTEX
  8
2_FEATURE
 62
7
  6
CONTINUOUS
 10
97.6519287753
 20
117.3443555786
  0
SEQEND
  0
LINE
  8
0
 62
7
  6
CONTINUOUS
 10
97.7508983311
 20
151.3459051724
 11
97.7508983311
 21
143.6948147191
  0
LINE
  8
0
 62
7
  6
CONTINUOUS
 10
97.7508983311
 20
134.4969956258
 11
97.7508983311
 21
134.1373938256
  0
LINE
  8
0
 62
7
  6
CONTINUOUS
 10
97.7508983311
 20
127.2544165192
 11
97.7508983311
 21
126.8948147191
  0
LINE
  8
0
 62
7
  6
CONTINUOUS
 10
97.7508983311
 20
117.6969956258
 11
97.7508983311
 21
117.3373938256
  0
LINE
  8
0
 62
7
  6
CONTINUOUS
 10
97.7508983311
 20
110.4544165192
 11
97.7508983311
 21
110.0948147191
  0
LINE
  8
2_FEATURE
 62
7
  6
CONTINUOUS
 10
97.7508983311
 20
100.8969956258
 11
97.7508983311
 21
100.5373938256
  0
LINE
  8
2_FEATURE
 62
7
  6
CONTINUOUS
 10
97.7508983311
 20
93.6544165192
 11
97.7508983311
 21
93.2948147191
  0
POLYLINE
  8
0
 62
7
  6
CONTINUOUS
 66
1
 70
0
  0
VERTEX
  8
0
 62
7
  6
CONTINUOUS
 10
109.3716295253
 20
136.0970572815
  0
VERTEX
  8
0
 62
7
  6
CONTINUOUS
 10
109.4142023534
 20
136.1786698266
  0
VERTEX
  8
0
 62
7
  6
CONTINUOUS
 10
109.4237775523
 20
136.2756518376
  0
SEQEND
  0
POLYLINE
  8
0
 62
7
  6
CONTINUOUS
 66
1
 70
0
  0
VERTEX
  8
0
 62
7
  6
CONTINUOUS
 10
44.0771950476
 20
133.7588550789
  0
VERTEX
  8
0
 62
7
  6
CONTINUOUS
 10
43.8696352403
 20
133.7281565053
  0
VERTEX
  8
0
 62
7
  6
CONTINUOUS
 10
43.581368781
 20
133.6773259365
  0
VERTEX
  8
0
 62
7
  6
CONTINUOUS
 10
43.3308413726
 20
133.621032572
  0
VERTEX
  8
0
 62
7
  6
CONTINUOUS
 10
43.1314291697
 20
133.5602924753
  0
VERTEX
  8
0
 62
7
  6
CONTINUOUS
 10
42.9796204463
 20
133.491511175
  0
VERTEX
  8
0
 62
7
  6
CONTINUOUS
 10
42.8605637617
 20
133.3974065194
  0
VERTEX
  8
0
 62
7
  6
CONTINUOUS
 10
42.7828938188
 20
133.245777621
  0
VERTEX
  8
0
 62
7
  6
CONTINUOUS
 10
42.7767208411
 20
133.1904801441
  0
SEQEND
  0
POLYLINE
  8
0
 62
7
  6
CONTINUOUS
 66
1
 70
0
  0
VERTEX
  8
0
 62
7
  6
CONTINUOUS
 10
48.4348615789
 20
134.7954042852
  0
VERTEX
  8
0
 62
7
  6
CONTINUOUS
 10
47.4835556534
 20
134.6770455683
  0
VERTEX
  8
0
 62
7
  6
CONTINUOUS
 10
46.4591178943
 20
134.4997312759
  0
VERTEX
  8
0
 62
7
  6
CONTINUOUS
 10
45.5200079711
 20
134.2787637326
  0
VERTEX
  8
0
 62
7
  6
CONTINUOUS
 10
44.6885471864
 20
134.0165006595
  0
SEQEND
  0
LINE
  8
0
 62
7
  6
CONTINUOUS
 10
43.8686441756
 20
144.4638111347
 11
44.0771911677
 21
144.4329569011
  0
POLYLINE
  8
2_FEATURE
 62
7
  6
CONTINUOUS
 66
1
 70
0
  0
VERTEX
  8
2_FEATURE
 62
7
  6
CONTINUOUS
 10
93.9545453694
 20
134.7196578223
  0
VERTEX
  8
2_FEATURE
 62
7
  6
CONTINUOUS
 10
93.7688597934
 20
134.7628253659
  0
VERTEX
  8
2_FEATURE
 62
7
  6
CONTINUOUS
 10
93.5789763811
 20
134.7880628388
  0
VERTEX
  8
2_FEATURE
 62
7
  6
CONTINUOUS
 10
93.38683282
 20
134.7949383228
  0
SEQEND
  0
POLYLINE
  8
2_FEATURE
 62
7
  6
CONTINUOUS
 66
1
 70
0
  0
VERTEX
  8
2_FEATURE
 62
7
  6
CONTINUOUS
 10
97.7508776815
 20
134.1373938922
  0
VERTEX
  8
2_FEATURE
 62
7
  6
CONTINUOUS
 10
97.7418729602
 20
134.1397231309
  0
VERTEX
  8
2_FEATURE
 62
7
  6
CONTINUOUS
 10
97.7078293115
 20
134.142297365
  0
VERTEX
  8
2_FEATURE
 62
7
  6
CONTINUOUS
 10
97.6519326092
 20
134.1443554518
  0
SEQEND
  0
POLYLINE
  8
2_FEATURE
 62
7
  6
CONTINUOUS
 66
1
 70
0
  0
VERTEX
  8
2_FEATURE
 62
7
  6
CONTINUOUS
 10
96.0987539017
 20
134.1722095453
  0
VERTEX
  8
2_FEATURE
 62
7
  6
CONTINUOUS
 10
95.4655527267
 20
134.3368078548
  0
VERTEX
  8
2_FEATURE
 62
7
  6
CONTINUOUS
 10
94.9061007128
 20
134.4774710179
  0
VERTEX
  8
2_FEATURE
 62
7
  6
CONTINUOUS
 10
94.425132991
 20
134.5930535181
  0
SEQEND
  0
POLYLINE
  8
2_FEATURE
 62
7
  6
CONTINUOUS
 66
1
 70
0
  0
VERTEX
  8
2_FEATURE
 62
7
  6
CONTINUOUS
 10
94.0201373565
 20
134.7010415072
  0
VERTEX
  8
2_FEATURE
 62
7
  6
CONTINUOUS
 10
94.1834287371
 20
134.6555189913
  0
VERTEX
  8
2_FEATURE
 62
7
  6
CONTINUOUS
 10
94.3207283591
 20
134.6189328237
  0
VERTEX
  8
2_FEATURE
 62
7
  6
CONTINUOUS
 10
94.425132991
 20
134.5930535181
  0
SEQEND
  0
LINE
  8
2_FEATURE
 62
7
  6
CONTINUOUS
 10
94.0201373565
 20
134.7010415072
 11
93.9545453694
 21
134.7196578223
  0
POLYLINE
  8
2_FEATURE
 62
7
  6
CONTINUOUS
 66
1
 70
0
  0
VERTEX
  8
2_FEATURE
 62
7
  6
CONTINUOUS
 10
70.1643755906
 20
142.91695503
  0
VERTEX
  8
2_FEATURE
 62
7
  6
CONTINUOUS
 10
69.9205618479
 20
143.0036077559
  0
VERTEX
  8
2_FEATURE
 62
7
  6
CONTINUOUS
 10
69.6674712649
 20
143.0576392499
  0
VERTEX
  8
2_FEATURE
 62
7
  6
CONTINUOUS
 10
69.4098640411
 20
143.077901232
  0
SEQEND
  0
POLYLINE
  8
0
 62
7
  6
CONTINUOUS
 66
1
 70
0
  0
VERTEX
  8
0
 62
7
  6
CONTINUOUS
 10
104.9186307135
 20
126.3954048783
  0
VERTEX
  8
0
 62
7
  6
CONTINUOUS
 10
104.9252459675
 20
126.3914573485
  0
VERTEX
  8
0
 62
7
  6
CONTINUOUS
 10
104.9411763652
 20
126.3465299247
  0
VERTEX
  8
0
 62
7
  6
CONTINUOUS
 10
104.9497019835
 20
126.2595904566
  0
VERTEX
  8
0
 62
7
  6
CONTINUOUS
 10
104.9489309588
 20
126.1454449763
  0
SEQEND
  0
LINE
  8
DEFAULT_1
 62
2
  6
CENTER
 10
102.0766496355
 20
80.9243763676
 11
102.0766496355
 21
142.8959051724
  0
POLYLINE
  8
2_FEATURE
 62
7
  6
CONTINUOUS
 66
1
 70
0
  0
VERTEX
  8
2_FEATURE
 62
7
  6
CONTINUOUS
 10
55.7013665509
 20
142.5443554568
  0
VERTEX
  8
2_FEATURE
 62
7
  6
CONTINUOUS
 10
55.6454695965
 20
142.5422973463
  0
VERTEX
  8
2_FEATURE
 62
7
  6
CONTINUOUS
 10
55.6114262425
 20
142.5397231223
  0
VERTEX
  8
2_FEATURE
 62
7
  6
CONTINUOUS
 10
55.6024215864
 20
142.5373938926
  0
SEQEND
  0
POLYLINE
  8
2_FEATURE
 62
7
  6
CONTINUOUS
 66
1
 70
0
  0
VERTEX
  8
2_FEATURE
 62
7
  6
CONTINUOUS
 10
59.966466451
 20
143.1949383228
  0
VERTEX
  8
2_FEATURE
 62
7
  6
CONTINUOUS
 10
59.7743228899
 20
143.1880628388
  0
VERTEX
  8
2_FEATURE
 62
7
  6
CONTINUOUS
 10
59.5844394777
 20
143.1628253659
  0
VERTEX
  8
2_FEATURE
 62
7
  6
CONTINUOUS
 10
59.3987539017
 20
143.1196578223
  0
SEQEND
  0
LINE
  8
0
 62
7
  6
CONTINUOUS
 10
98.2502714378
 20
143.1954449763
 11
104.9173562984
 21
143.1954449763
  0
LINE
  8
0
 62
7
  6
CONTINUOUS
 10
55.1030128769
 20
143.3963653685
 11
48.4359362831
 21
143.3963653685
  0
LINE
  8
2_FEATURE
 62
7
  6
CONTINUOUS
 10
69.4098640411
 20
143.077901232
 11
59.966466451
 21
143.1949383228
  0
LINE
  8
2_FEATURE
 62
7
  6
CONTINUOUS
 10
56.68683282
 20
142.5069109064
 11
55.7252967371
 21
142.529880878
  0
LINE
  8
0
 62
7
  6
CONTINUOUS
 10
48.4346632849
 20
143.396405451
 11
48.4354663286
 21
143.3963654526
  0
POLYLINE
  8
0
 62
7
  6
CONTINUOUS
 66
1
 70
0
  0
VERTEX
  8
0
 62
7
  6
CONTINUOUS
 10
109.3716295253
 20
108.4947530633
  0
VERTEX
  8
0
 62
7
  6
CONTINUOUS
 10
109.4142023534
 20
108.4131405182
  0
VERTEX
  8
0
 62
7
  6
CONTINUOUS
 10
109.4237775523
 20
108.3161585072
  0
SEQEND
  0
POLYLINE
  8
2_FEATURE
 62
7
  6
CONTINUOUS
 66
1
 70
0
  0
VERTEX
  8
2_FEATURE
 62
7
  6
CONTINUOUS
 10
97.5008983311
 20
134.3861216691
  0
VERTEX
  8
2_FEATURE
 62
7
  6
CONTINUOUS
 10
97.5273404846
 20
134.3198063167
  0
VERTEX
  8
2_FEATURE
 62
7
  6
CONTINUOUS
 10
97.5540221422
 20
134.2595031086
  0
VERTEX
  8
2_FEATURE
 62
7
  6
CONTINUOUS
 10
97.5821443428
 20
134.2069957353
  0
VERTEX
  8
2_FEATURE
 62
7
  6
CONTINUOUS
 10
97.6132344686
 20
134.1654600479
  0
VERTEX
  8
2_FEATURE
 62
7
  6
CONTINUOUS
 10
97.6519288064
 20
134.1443555776
  0
SEQEND
  0
LINE
  8
0
 62
7
  6
CONTINUOUS
 10
104.9489309588
 20
142.9454449763
 11
104.9489309588
 21
135.2463653685
  0
LINE
  8
0
 62
7
  6
CONTINUOUS
 10
104.9489309588
 20
92.5454449763
 11
104.9489309588
 21
84.8459051724
  0
LINE
  8
0
 62
7
  6
CONTINUOUS
 10
104.9489309588
 20
101.6463653685
 11
104.9489309588
 21
109.3454449763
  0
LINE
  8
0
 62
7
  6
CONTINUOUS
 10
104.9489309588
 20
118.4463653685
 11
104.9489309588
 21
126.1454449763
  0
POLYLINE
  8
0
 62
7
  6
CONTINUOUS
 66
1
 70
0
  0
VERTEX
  8
0
 62
7
  6
CONTINUOUS
 10
109.3716295253
 20
119.2970572815
  0
VERTEX
  8
0
 62
7
  6
CONTINUOUS
 10
109.4142023534
 20
119.3786698266
  0
VERTEX
  8
0
 62
7
  6
CONTINUOUS
 10
109.4237775523
 20
119.4756518376
  0
SEQEND
  0
POLYLINE
  8
0
 62
7
  6
CONTINUOUS
 66
1
 70
0
  0
VERTEX
  8
0
 62
7
  6
CONTINUOUS
 10
104.9186307135
 20
101.3964054665
  0
VERTEX
  8
0
 62
7
  6
CONTINUOUS
 10
104.9252459675
 20
101.4003529963
  0
VERTEX
  8
0
 62
7
  6
CONTINUOUS
 10
104.9411763652
 20
101.4452804201
  0
VERTEX
  8
0
 62
7
  6
CONTINUOUS
 10
104.9497019835
 20
101.5322198882
  0
VERTEX
  8
0
 62
7
  6
CONTINUOUS
 10
104.9489309588
 20
101.6463653685
  0
SEQEND
  0
LINE
  8
0
 62
7
  6
CONTINUOUS
 10
108.6647549321
 20
102.1753107274
 11
109.3078578334
 21
102.4463373689
  0
LINE
  8
2_FEATURE
 62
7
  6
CONTINUOUS
 10
59.3331619146
 20
143.1010415072
 11
59.3987539017
 21
143.1196578223
  0
POLYLINE
  8
2_FEATURE
 62
7
  6
CONTINUOUS
 66
1
 70
0
  0
VERTEX
  8
2_FEATURE
 62
7
  6
CONTINUOUS
 10
58.9281662801
 20
142.9930535181
  0
VERTEX
  8
2_FEATURE
 62
7
  6
CONTINUOUS
 10
59.0325716741
 20
143.0189330206
  0
VERTEX
  8
2_FEATURE
 62
7
  6
CONTINUOUS
 10
59.1698698863
 20
143.0555188144
  0
VERTEX
  8
2_FEATURE
 62
7
  6
CONTINUOUS
 10
59.3331619146
 20
143.1010415072
  0
SEQEND
  0
POLYLINE
  8
2_FEATURE
 62
7
  6
CONTINUOUS
 66
1
 70
0
  0
VERTEX
  8
2_FEATURE
 62
7
  6
CONTINUOUS
 10
58.9281662801
 20
142.9930535181
  0
VERTEX
  8
2_FEATURE
 62
7
  6
CONTINUOUS
 10
58.4471969094
 20
142.8774706118
  0
VERTEX
  8
2_FEATURE
 62
7
  6
CONTINUOUS
 10
57.8877453755
 20
142.7368075557
  0
VERTEX
  8
2_FEATURE
 62
7
  6
CONTINUOUS
 10
57.2545453694
 20
142.5722095455
  0
SEQEND
  0
POLYLINE
  8
2_FEATURE
 62
7
  6
CONTINUOUS
 66
1
 70
0
  0
VERTEX
  8
2_FEATURE
 62
7
  6
CONTINUOUS
 10
57.2545453694
 20
142.5722095453
  0
VERTEX
  8
2_FEATURE
 62
7
  6
CONTINUOUS
 10
57.0648348438
 20
142.5319797067
  0
VERTEX
  8
2_FEATURE
 62
7
  6
CONTINUOUS
 10
56.874901622
 20
142.5104630416
  0
VERTEX
  8
2_FEATURE
 62
7
  6
CONTINUOUS
 10
56.68683282
 20
142.5069109064
  0
SEQEND
  0
POLYLINE
  8
2_FEATURE
 62
7
  6
CONTINUOUS
 66
1
 70
0
  0
VERTEX
  8
2_FEATURE
 62
7
  6
CONTINUOUS
 10
97.5008983311
 20
151.5959051724
  0
VERTEX
  8
2_FEATURE
 62
7
  6
CONTINUOUS
 10
97.4967279792
 20
151.5950650465
  0
VERTEX
  8
2_FEATURE
 62
7
  6
CONTINUOUS
 10
97.4965668298
 20
151.5920269012
  0
VERTEX
  8
2_FEATURE
 62
7
  6
CONTINUOUS
 10
97.4986430067
 20
151.5859261262
  0
VERTEX
  8
2_FEATURE
 62
7
  6
CONTINUOUS
 10
97.5010822171
 20
151.5757818021
  0
VERTEX
  8
2_FEATURE
 62
7
  6
CONTINUOUS
 10
97.5021918986
 20
151.5607936199
  0
VERTEX
  8
2_FEATURE
 62
7
  6
CONTINUOUS
 10
97.5015310899
 20
151.5406354754
  0
VERTEX
  8
2_FEATURE
 62
7
  6
CONTINUOUS
 10
97.5008898971
 20
151.5144318391
  0
VERTEX
  8
2_FEATURE
 62
7
  6
CONTINUOUS
 10
97.5014594213
 20
151.4793194374
  0
VERTEX
  8
2_FEATURE
 62
7
  6
CONTINUOUS
 10
97.5006681111
 20
151.4350084609
  0
VERTEX
  8
2_FEATURE
 62
7
  6
CONTINUOUS
 10
97.4990951838
 20
151.3876359478
  0
VERTEX
  8
2_FEATURE
 62
7
  6
CONTINUOUS
 10
97.5008983311
 20
151.3459051724
  0
SEQEND
  0
LINE
  8
0
 62
7
  6
CONTINUOUS
 10
104.9178611538
 20
143.1954449763
 11
104.9186307135
 21
143.1954048783
  0
LINE
  8
0
 62
7
  6
CONTINUOUS
 10
109.4846550634
 20
142.1279992152
 11
109.2761081319
 21
142.1588534396
  0
LINE
  8
0
 62
7
  6
CONTINUOUS
 10
109.3078554178
 20
125.3454741562
 11
109.3716295253
 21
125.2947530633
  0
POLYLINE
  8
2_FEATURE
 62
7
  6
CONTINUOUS
 66
1
 70
0
  0
VERTEX
  8
2_FEATURE
 62
7
  6
CONTINUOUS
 10
97.6519301457
 20
93.647454805
  0
VERTEX
  8
2_FEATURE
 62
7
  6
CONTINUOUS
 10
97.613196823
 20
93.6261796246
  0
VERTEX
  8
2_FEATURE
 62
7
  6
CONTINUOUS
 10
97.5820983365
 20
93.5843872446
  0
VERTEX
  8
2_FEATURE
 62
7
  6
CONTINUOUS
 10
97.5539093257
 20
93.5316188301
  0
VERTEX
  8
2_FEATURE
 62
7
  6
CONTINUOUS
 10
97.5270435207
 20
93.4710530436
  0
VERTEX
  8
2_FEATURE
 62
7
  6
CONTINUOUS
 10
97.5008983311
 20
93.404221834
  0
SEQEND
  0
POLYLINE
  8
2_FEATURE
 62
7
  6
CONTINUOUS
 66
1
 70
0
  0
VERTEX
  8
2_FEATURE
 62
7
  6
CONTINUOUS
 10
110.5766297329
 20
91.1830849228
  0
VERTEX
  8
2_FEATURE
 62
7
  6
CONTINUOUS
 10
110.5682600747
 20
91.255418052
  0
VERTEX
  8
2_FEATURE
 62
7
  6
CONTINUOUS
 10
110.487922547
 20
91.4027171555
  0
VERTEX
  8
2_FEATURE
 62
7
  6
CONTINUOUS
 10
110.368993392
 20
91.4941907804
  0
VERTEX
  8
2_FEATURE
 62
7
  6
CONTINUOUS
 10
110.2178205443
 20
91.5617654896
  0
VERTEX
  8
2_FEATURE
 62
7
  6
CONTINUOUS
 10
110.0198017693
 20
91.6217192807
  0
VERTEX
  8
2_FEATURE
 62
7
  6
CONTINUOUS
 10
109.7713530416
 20
91.6774398926
  0
VERTEX
  8
2_FEATURE
 62
7
  6
CONTINUOUS
 10
109.4846550954
 20
91.7279992101
  0
SEQEND
  0
LINE
  8
0
 62
7
  6
CONTINUOUS
 10
110.5766495887
 20
103.0073997024
 11
110.5766319378
 21
103.0086863107
  0
LINE
  8
0
 62
7
  6
CONTINUOUS
 10
110.5766495887
 20
119.8073997024
 11
110.5766319378
 21
119.8086863107
  0
LINE
  8
0
 62
7
  6
CONTINUOUS
 10
110.5766495887
 20
136.6073997024
 11
110.5766319378
 21
136.6086863107
  0
LINE
  8
0
 62
7
  6
CONTINUOUS
 10
110.5766496355
 20
84.8460358886
 11
110.5766496355
 21
91.1844250245
  0
LINE
  8
0
 62
7
  6
CONTINUOUS
 10
110.5766496355
 20
103.0074566939
 11
110.5766496355
 21
107.9843536509
  0
LINE
  8
0
 62
7
  6
CONTINUOUS
 10
110.5766496355
 20
119.8074566939
 11
110.5766496355
 21
124.7843536509
  0
LINE
  8
0
 62
7
  6
CONTINUOUS
 10
110.5766496355
 20
136.6074566939
 11
110.5766496355
 21
141.5843536509
  0
LINE
  8
0
 62
7
  6
CONTINUOUS
 10
110.5766495982
 20
91.1844905019
 11
110.5766301202
 21
91.1831256809
  0
LINE
  8
0
 62
7
  6
CONTINUOUS
 10
110.5766495887
 20
141.5844106424
 11
110.5766301317
 21
141.5830564749
  0
LINE
  8
0
 62
7
  6
CONTINUOUS
 10
110.5766495887
 20
124.7844106424
 11
110.5766301317
 21
124.7830564749
  0
LINE
  8
0
 62
7
  6
CONTINUOUS
 10
110.5766495887
 20
107.9844106424
 11
110.5766301317
 21
107.9830564749
  0
LINE
  8
0
 62
7
  6
CONTINUOUS
 10
109.3078554178
 20
102.4463361886
 11
109.3716295253
 21
102.4970572815
  0
LINE
  8
2_FEATURE
 62
7
  6
CONTINUOUS
 10
43.0266528051
 20
151.5959051724
 11
97.5008983311
 21
151.5959051724
  0
POLYLINE
  8
0
 62
7
  6
CONTINUOUS
 66
1
 70
0
  0
VERTEX
  8
0
 62
7
  6
CONTINUOUS
 10
109.3078578334
 20
142.145472976
  0
VERTEX
  8
0
 62
7
  6
CONTINUOUS
 10
108.6647549321
 20
142.4164996175
  0
VERTEX
  8
0
 62
7
  6
CONTINUOUS
 10
107.8332978833
 20
142.6787619399
  0
VERTEX
  8
0
 62
7
  6
CONTINUOUS
 10
106.8941923569
 20
142.8997290535
  0
VERTEX
  8
0
 62
7
  6
CONTINUOUS
 10
105.8697593905
 20
143.0770432625
  0
VERTEX
  8
0
 62
7
  6
CONTINUOUS
 10
104.9184376925
 20
143.1954042852
  0
SEQEND
  0
POLYLINE
  8
0
 62
7
  6
CONTINUOUS
 66
1
 70
0
  0
VERTEX
  8
0
 62
7
  6
CONTINUOUS
 10
109.3716295253
 20
125.2947530633
  0
VERTEX
  8
0
 62
7
  6
CONTINUOUS
 10
109.4142023534
 20
125.2131405182
  0
VERTEX
  8
0
 62
7
  6
CONTINUOUS
 10
109.4237775523
 20
125.1161585072
  0
SEQEND
  0
POLYLINE
  8
0
 62
7
  6
CONTINUOUS
 66
1
 70
0
  0
VERTEX
  8
0
 62
7
  6
CONTINUOUS
 10
110.5766297328
 20
107.9830849196
  0
VERTEX
  8
0
 62
7
  6
CONTINUOUS
 10
110.5682598958
 20
108.0554187989
  0
VERTEX
  8
0
 62
7
  6
CONTINUOUS
 10
110.487922174
 20
108.2027175593
  0
VERTEX
  8
0
 62
7
  6
CONTINUOUS
 10
110.3689930219
 20
108.29419099
  0
VERTEX
  8
0
 62
7
  6
CONTINUOUS
 10
110.2178201975
 20
108.3617656152
  0
VERTEX
  8
0
 62
7
  6
CONTINUOUS
 10
110.0198014886
 20
108.4217193531
  0
VERTEX
  8
0
 62
7
  6
CONTINUOUS
 10
109.7713528828
 20
108.4774399239
  0
VERTEX
  8
0
 62
7
  6
CONTINUOUS
 10
109.4846550634
 20
108.5279992152
  0
SEQEND
  0
POLYLINE
  8
0
 62
7
  6
CONTINUOUS
 66
1
 70
0
  0
VERTEX
  8
0
 62
7
  6
CONTINUOUS
 10
110.5766297328
 20
124.7830849196
  0
VERTEX
  8
0
 62
7
  6
CONTINUOUS
 10
110.5682598958
 20
124.8554187989
  0
VERTEX
  8
0
 62
7
  6
CONTINUOUS
 10
110.487922174
 20
125.0027175593
  0
VERTEX
  8
0
 62
7
  6
CONTINUOUS
 10
110.3689930219
 20
125.09419099
  0
VERTEX
  8
0
 62
7
  6
CONTINUOUS
 10
110.2178201975
 20
125.1617656152
  0
VERTEX
  8
0
 62
7
  6
CONTINUOUS
 10
110.0198014886
 20
125.2217193531
  0
VERTEX
  8
0
 62
7
  6
CONTINUOUS
 10
109.7713528828
 20
125.2774399239
  0
VERTEX
  8
0
 62
7
  6
CONTINUOUS
 10
109.4846550634
 20
125.3279992152
  0
SEQEND
  0
POLYLINE
  8
0
 62
7
  6
CONTINUOUS
 66
1
 70
0
  0
VERTEX
  8
0
 62
7
  6
CONTINUOUS
 10
109.3716295253
 20
102.4970572815
  0
VERTEX
  8
0
 62
7
  6
CONTINUOUS
 10
109.4142023534
 20
102.5786698266
  0
VERTEX
  8
0
 62
7
  6
CONTINUOUS
 10
109.4237775523
 20
102.6756518376
  0
SEQEND
  0
POLYLINE
  8
2_FEATURE
 62
7
  6
CONTINUOUS
 66
1
 70
0
  0
VERTEX
  8
2_FEATURE
 62
7
  6
CONTINUOUS
 10
97.5008983311
 20
151.5959051724
  0
VERTEX
  8
2_FEATURE
 62
7
  6
CONTINUOUS
 10
97.5853923781
 20
151.5811938377
  0
VERTEX
  8
2_FEATURE
 62
7
  6
CONTINUOUS
 10
97.6584695602
 20
151.5399961504
  0
VERTEX
  8
2_FEATURE
 62
7
  6
CONTINUOUS
 10
97.7160943135
 20
151.4731478112
  0
VERTEX
  8
2_FEATURE
 62
7
  6
CONTINUOUS
 10
97.7477294471
 20
151.385583884
  0
VERTEX
  8
2_FEATURE
 62
7
  6
CONTINUOUS
 10
97.7508983311
 20
151.3459051724
  0
SEQEND
  0
POLYLINE
  8
0
 62
7
  6
CONTINUOUS
 66
1
 70
0
  0
VERTEX
  8
0
 62
7
  6
CONTINUOUS
 10
104.9186307135
 20
143.1954048783
  0
VERTEX
  8
0
 62
7
  6
CONTINUOUS
 10
104.9252459675
 20
143.1914573485
  0
VERTEX
  8
0
 62
7
  6
CONTINUOUS
 10
104.9411763652
 20
143.1465299247
  0
VERTEX
  8
0
 62
7
  6
CONTINUOUS
 10
104.9497019835
 20
143.0595904566
  0
VERTEX
  8
0
 62
7
  6
CONTINUOUS
 10
104.9489309588
 20
142.9454449763
  0
SEQEND
  0
POLYLINE
  8
0
 62
7
  6
CONTINUOUS
 66
1
 70
0
  0
VERTEX
  8
0
 62
7
  6
CONTINUOUS
 10
110.5766297328
 20
141.5830849196
  0
VERTEX
  8
0
 62
7
  6
CONTINUOUS
 10
110.5682598958
 20
141.6554187989
  0
VERTEX
  8
0
 62
7
  6
CONTINUOUS
 10
110.487922174
 20
141.8027175593
  0
VERTEX
  8
0
 62
7
  6
CONTINUOUS
 10
110.3689930219
 20
141.89419099
  0
VERTEX
  8
0
 62
7
  6
CONTINUOUS
 10
110.2178201975
 20
141.9617656152
  0
VERTEX
  8
0
 62
7
  6
CONTINUOUS
 10
110.0198014886
 20
142.0217193531
  0
VERTEX
  8
0
 62
7
  6
CONTINUOUS
 10
109.7713528828
 20
142.0774399239
  0
VERTEX
  8
0
 62
7
  6
CONTINUOUS
 10
109.4846550634
 20
142.1279992152
  0
SEQEND
  0
POLYLINE
  8
2_FEATURE
 62
7
  6
CONTINUOUS
 66
1
 70
0
  0
VERTEX
  8
2_FEATURE
 62
7
  6
CONTINUOUS
 10
43.0266057174
 20
151.5959049379
  0
VERTEX
  8
2_FEATURE
 62
7
  6
CONTINUOUS
 10
42.9300184934
 20
151.5764706689
  0
VERTEX
  8
2_FEATURE
 62
7
  6
CONTINUOUS
 10
42.848436745
 20
151.5212264231
  0
VERTEX
  8
2_FEATURE
 62
7
  6
CONTINUOUS
 10
42.7945343421
 20
151.4387521617
  0
VERTEX
  8
2_FEATURE
 62
7
  6
CONTINUOUS
 10
42.7766497087
 20
151.3458923653
  0
SEQEND
  0
LINE
  8
0
 62
7
  6
CONTINUOUS
 10
109.3078554178
 20
142.1454741562
 11
109.3716295253
 21
142.0947530633
  0
POLYLINE
  8
0
 62
7
  6
CONTINUOUS
 66
1
 70
0
  0
VERTEX
  8
0
 62
7
  6
CONTINUOUS
 10
109.3716295253
 20
142.0947530633
  0
VERTEX
  8
0
 62
7
  6
CONTINUOUS
 10
109.4142023534
 20
142.0131405182
  0
VERTEX
  8
0
 62
7
  6
CONTINUOUS
 10
109.4237775523
 20
141.9161585072
  0
SEQEND
  0
POLYLINE
  8
0
 62
7
  6
CONTINUOUS
 66
1
 70
0
  0
VERTEX
  8
0
 62
7
  6
CONTINUOUS
 10
104.9050760193
 20
84.5959051724
  0
VERTEX
  8
0
 62
7
  6
CONTINUOUS
 10
104.9218096495
 20
84.6146334777
  0
VERTEX
  8
0
 62
7
  6
CONTINUOUS
 10
104.9360233444
 20
84.6683763541
  0
VERTEX
  8
0
 62
7
  6
CONTINUOUS
 10
104.9455630298
 20
84.7495068986
  0
VERTEX
  8
0
 62
7
  6
CONTINUOUS
 10
104.9489309588
 20
84.8459051724
  0
SEQEND
  0
LINE
  8
0
 62
7
  6
CONTINUOUS
 10
159.6362994833
 20
84.5959051724
 11
144.1862994833
 21
84.5959051724
  0
POLYLINE
  8
0
 62
7
  6
CONTINUOUS
 66
1
 70
0
  0
VERTEX
  8
0
 62
7
  6
CONTINUOUS
 10
155.9962707065
 20
144.427941556
  0
VERTEX
  8
0
 62
7
  6
CONTINUOUS
 10
156.0481616011
 20
144.443934554
  0
VERTEX
  8
0
 62
7
  6
CONTINUOUS
 10
156.097864918
 20
144.4970572815
  0
VERTEX
  8
0
 62
7
  6
CONTINUOUS
 10
156.1374372033
 20
144.5786698266
  0
VERTEX
  8
0
 62
7
  6
CONTINUOUS
 10
156.1606073964
 20
144.6756518376
  0
SEQEND
  0
LINE
  8
0
 62
7
  6
CONTINUOUS
 10
144.1042834265
 20
95.2959051724
 11
145.9112535619
 21
95.2959051724
  0
LINE
  8
0
 62
7
  6
CONTINUOUS
 10
145.9112535619
 20
95.295904457
 11
145.9413329371
 21
95.2939449708
  0
LINE
  8
0
 62
7
  6
CONTINUOUS
 10
145.0695348116
 20
94.9013278433
 11
155.9962707074
 21
94.0279415673
  0
POLYLINE
  8
0
 62
7
  6
CONTINUOUS
 66
1
 70
0
  0
VERTEX
  8
0
 62
7
  6
CONTINUOUS
 10
145.9415227713
 20
95.29392064
  0
VERTEX
  8
0
 62
7
  6
CONTINUOUS
 10
145.9521231521
 20
95.2923196943
  0
VERTEX
  8
0
 62
7
  6
CONTINUOUS
 10
145.9620172719
 20
95.2903890356
  0
VERTEX
  8
0
 62
7
  6
CONTINUOUS
 10
145.9719940274
 20
95.2880046088
  0
SEQEND
  0
POLYLINE
  8
0
 62
7
  6
CONTINUOUS
 66
1
 70
0
  0
VERTEX
  8
0
 62
7
  6
CONTINUOUS
 10
152.606977298
 20
94.2988502886
  0
VERTEX
  8
0
 62
7
  6
CONTINUOUS
 10
152.7727174887
 20
94.2708374973
  0
VERTEX
  8
0
 62
7
  6
CONTINUOUS
 10
152.9751498497
 20
94.1923459933
  0
VERTEX
  8
0
 62
7
  6
CONTINUOUS
 10
153.108772794
 20
94.1036288264
  0
VERTEX
  8
0
 62
7
  6
CONTINUOUS
 10
153.1432326952
 20
94.0732206528
  0
SEQEND
  0
LINE
  8
0
 62
7
  6
CONTINUOUS
 10
145.9413329371
 20
95.2939449708
 11
146.0220269973
 21
95.2718082249
  0
POLYLINE
  8
0
 62
7
  6
CONTINUOUS
 66
1
 70
0
  0
VERTEX
  8
0
 62
7
  6
CONTINUOUS
 10
144.6929278837
 20
95.0025067756
  0
VERTEX
  8
0
 62
7
  6
CONTINUOUS
 10
144.9310679034
 20
94.9215071762
  0
VERTEX
  8
0
 62
7
  6
CONTINUOUS
 10
145.0695363976
 20
94.9013476428
  0
SEQEND
  0
LINE
  8
0
 62
7
  6
CONTINUOUS
 10
146.0220269973
 20
95.2718082249
 11
146.1244430443
 21
95.2173399841
  0
POLYLINE
  8
0
 62
7
  6
CONTINUOUS
 66
1
 70
0
  0
VERTEX
  8
0
 62
7
  6
CONTINUOUS
 10
144.3433625673
 20
95.2625025449
  0
VERTEX
  8
0
 62
7
  6
CONTINUOUS
 10
144.3001460946
 20
95.2870628643
  0
VERTEX
  8
0
 62
7
  6
CONTINUOUS
 10
144.2691798255
 20
95.2959051706
  0
SEQEND
  0
POLYLINE
  8
0
 62
7
  6
CONTINUOUS
 66
1
 70
0
  0
VERTEX
  8
0
 62
7
  6
CONTINUOUS
 10
144.3433609464
 20
95.2625035836
  0
VERTEX
  8
0
 62
7
  6
CONTINUOUS
 10
144.354740297
 20
95.2546733314
  0
VERTEX
  8
0
 62
7
  6
CONTINUOUS
 10
144.3835310821
 20
95.2290399584
  0
SEQEND
  0
LINE
  8
0
 62
7
  6
CONTINUOUS
 10
159.5675998854
 20
93.0059899013
 11
155.9901431216
 21
94.0284313521
  0
LINE
  8
0
 62
7
  6
CONTINUOUS
 10
146.1244430443
 20
95.2173399841
 11
146.2202718354
 21
95.1528670824
  0
POLYLINE
  8
0
 62
7
  6
CONTINUOUS
 66
1
 70
0
  0
VERTEX
  8
0
 62
7
  6
CONTINUOUS
 10
146.0507934034
 20
95.2512769375
  0
VERTEX
  8
0
 62
7
  6
CONTINUOUS
 10
146.0599963199
 20
95.2444151319
  0
VERTEX
  8
0
 62
7
  6
CONTINUOUS
 10
146.0689535265
 20
95.237044388
  0
VERTEX
  8
0
 62
7
  6
CONTINUOUS
 10
146.077637846
 20
95.2291633165
  0
VERTEX
  8
0
 62
7
  6
CONTINUOUS
 10
146.0860204878
 20
95.2207716165
  0
VERTEX
  8
0
 62
7
  6
CONTINUOUS
 10
146.0940710099
 20
95.211870289
  0
VERTEX
  8
0
 62
7
  6
CONTINUOUS
 10
146.1017572968
 20
95.2024618709
  0
VERTEX
  8
0
 62
7
  6
CONTINUOUS
 10
146.1090455557
 20
95.1925506892
  0
VERTEX
  8
0
 62
7
  6
CONTINUOUS
 10
146.1159003343
 20
95.1821431374
  0
VERTEX
  8
0
 62
7
  6
CONTINUOUS
 10
146.1222845647
 20
95.1712479751
  0
VERTEX
  8
0
 62
7
  6
CONTINUOUS
 10
146.1281596385
 20
95.1598766516
  0
VERTEX
  8
0
 62
7
  6
CONTINUOUS
 10
146.1334855832
 20
95.1480434993
  0
VERTEX
  8
0
 62
7
  6
CONTINUOUS
 10
146.136520608
 20
95.140411832
  0
SEQEND
  0
POLYLINE
  8
0
 62
7
  6
CONTINUOUS
 66
1
 70
0
  0
VERTEX
  8
0
 62
7
  6
CONTINUOUS
 10
144.3835309119
 20
95.2290399636
  0
VERTEX
  8
0
 62
7
  6
CONTINUOUS
 10
144.4833620065
 20
95.1355789993
  0
VERTEX
  8
0
 62
7
  6
CONTINUOUS
 10
144.6929278837
 20
95.0025067756
  0
SEQEND
  0
LINE
  8
0
 62
7
  6
CONTINUOUS
 10
144.8066224822
 20
99.2694676237
 11
155.9962707074
 21
100.1638687776
  0
LINE
  8
0
 62
7
  6
CONTINUOUS
 10
156.0702276268
 20
93.9862609167
 11
156.0028824071
 21
94.0247904463
  0
POLYLINE
  8
2_FEATURE
 62
7
  6
CONTINUOUS
 66
1
 70
0
  0
VERTEX
  8
2_FEATURE
 62
7
  6
CONTINUOUS
 10
151.9438912631
 20
142.91695503
  0
VERTEX
  8
2_FEATURE
 62
7
  6
CONTINUOUS
 10
152.030421844
 20
143.0036077559
  0
VERTEX
  8
2_FEATURE
 62
7
  6
CONTINUOUS
 10
152.1202448167
 20
143.0576392499
  0
VERTEX
  8
2_FEATURE
 62
7
  6
CONTINUOUS
 10
152.2116707653
 20
143.077901232
  0
SEQEND
  0
POLYLINE
  8
2_FEATURE
 62
7
  6
CONTINUOUS
 66
1
 70
0
  0
VERTEX
  8
2_FEATURE
 62
7
  6
CONTINUOUS
 10
156.1309187876
 20
101.5987568267
  0
VERTEX
  8
2_FEATURE
 62
7
  6
CONTINUOUS
 10
155.986397796
 20
101.5728773243
  0
VERTEX
  8
2_FEATURE
 62
7
  6
CONTINUOUS
 10
155.8694533673
 20
101.5362915304
  0
VERTEX
  8
2_FEATURE
 62
7
  6
CONTINUOUS
 10
155.7879371342
 20
101.4907688376
  0
SEQEND
  0
POLYLINE
  8
2_FEATURE
 62
7
  6
CONTINUOUS
 66
1
 70
0
  0
VERTEX
  8
2_FEATURE
 62
7
  6
CONTINUOUS
 10
156.1309187876
 20
101.5987568267
  0
VERTEX
  8
2_FEATURE
 62
7
  6
CONTINUOUS
 10
156.9008534999
 20
101.7143397363
  0
VERTEX
  8
2_FEATURE
 62
7
  6
CONTINUOUS
 10
157.6183072922
 20
101.855002797
  0
VERTEX
  8
2_FEATURE
 62
7
  6
CONTINUOUS
 10
158.2759209585
 20
102.0196007995
  0
SEQEND
  0
POLYLINE
  8
2_FEATURE
 62
7
  6
CONTINUOUS
 66
1
 70
0
  0
VERTEX
  8
2_FEATURE
 62
7
  6
CONTINUOUS
 10
158.7632477826
 20
102.0848994384
  0
VERTEX
  8
2_FEATURE
 62
7
  6
CONTINUOUS
 10
158.611035515
 20
102.0813473033
  0
VERTEX
  8
2_FEATURE
 62
7
  6
CONTINUOUS
 10
158.448266566
 20
102.0598306382
  0
VERTEX
  8
2_FEATURE
 62
7
  6
CONTINUOUS
 10
158.2759209585
 20
102.0196007995
  0
SEQEND
  0
LINE
  8
2_FEATURE
 62
7
  6
CONTINUOUS
 10
152.2116707653
 20
101.5139091128
 11
155.5631745396
 21
101.3968720221
  0
POLYLINE
  8
2_FEATURE
 62
7
  6
CONTINUOUS
 66
1
 70
0
  0
VERTEX
  8
2_FEATURE
 62
7
  6
CONTINUOUS
 10
152.2116707653
 20
101.5139091128
  0
VERTEX
  8
2_FEATURE
 62
7
  6
CONTINUOUS
 10
152.1202448167
 20
101.534171095
  0
VERTEX
  8
2_FEATURE
 62
7
  6
CONTINUOUS
 10
152.030421844
 20
101.588202589
  0
VERTEX
  8
2_FEATURE
 62
7
  6
CONTINUOUS
 10
151.9438912631
 20
101.6748553148
  0
SEQEND
  0
POLYLINE
  8
0
 62
7
  6
CONTINUOUS
 66
1
 70
0
  0
VERTEX
  8
0
 62
7
  6
CONTINUOUS
 10
155.9962707065
 20
100.1638687889
  0
VERTEX
  8
0
 62
7
  6
CONTINUOUS
 10
156.0481616011
 20
100.1478757908
  0
VERTEX
  8
0
 62
7
  6
CONTINUOUS
 10
156.097864918
 20
100.0947530633
  0
VERTEX
  8
0
 62
7
  6
CONTINUOUS
 10
156.1374372033
 20
100.0131405182
  0
VERTEX
  8
0
 62
7
  6
CONTINUOUS
 10
156.1606073964
 20
99.9161585072
  0
SEQEND
  0
POLYLINE
  8
2_FEATURE
 62
7
  6
CONTINUOUS
 66
1
 70
0
  0
VERTEX
  8
2_FEATURE
 62
7
  6
CONTINUOUS
 10
155.6987576103
 20
135.028984979
  0
VERTEX
  8
2_FEATURE
 62
7
  6
CONTINUOUS
 10
155.6313671434
 20
135.003747506
  0
VERTEX
  8
2_FEATURE
 62
7
  6
CONTINUOUS
 10
155.5631745396
 20
134.9968720221
  0
SEQEND
  0
LINE
  8
0
 62
7
  6
CONTINUOUS
 10
159.5675998854
 20
134.7858204436
 11
155.9901431216
 21
133.7633789927
  0
LINE
  8
2_FEATURE
 62
7
  6
CONTINUOUS
 10
158.7632477826
 20
102.0848994384
 11
159.835519268
 21
102.047454893
  0
POLYLINE
  8
0
 62
7
  6
CONTINUOUS
 66
1
 70
0
  0
VERTEX
  8
0
 62
7
  6
CONTINUOUS
 10
153.1427782708
 20
94.0736504061
  0
VERTEX
  8
0
 62
7
  6
CONTINUOUS
 10
153.2236134974
 20
93.9843753021
  0
VERTEX
  8
0
 62
7
  6
CONTINUOUS
 10
153.2606719178
 20
93.929316123
  0
VERTEX
  8
0
 62
7
  6
CONTINUOUS
 10
153.2665543862
 20
93.9183968168
  0
SEQEND
  0
POLYLINE
  8
0
 62
7
  6
CONTINUOUS
 66
1
 70
0
  0
VERTEX
  8
0
 62
7
  6
CONTINUOUS
 10
146.1365206677
 20
95.1404115632
  0
VERTEX
  8
0
 62
7
  6
CONTINUOUS
 10
146.1911833406
 20
95.0357189546
  0
VERTEX
  8
0
 62
7
  6
CONTINUOUS
 10
146.2942879981
 20
94.9226610682
  0
VERTEX
  8
0
 62
7
  6
CONTINUOUS
 10
146.4312915864
 20
94.8359883751
  0
VERTEX
  8
0
 62
7
  6
CONTINUOUS
 10
146.5930015423
 20
94.7837985454
  0
VERTEX
  8
0
 62
7
  6
CONTINUOUS
 10
146.6691030787
 20
94.7734585426
  0
SEQEND
  0
LINE
  8
0
 62
7
  6
CONTINUOUS
 10
156.1639508036
 20
143.2083426532
 11
156.1309187876
 21
143.1634399457
  0
POLYLINE
  8
2_FEATURE
 62
7
  6
CONTINUOUS
 66
1
 70
0
  0
VERTEX
  8
2_FEATURE
 62
7
  6
CONTINUOUS
 10
159.8355214475
 20
142.5443555398
  0
VERTEX
  8
2_FEATURE
 62
7
  6
CONTINUOUS
 10
159.8596580487
 20
142.5656307202
  0
VERTEX
  8
2_FEATURE
 62
7
  6
CONTINUOUS
 10
159.8727451624
 20
142.6074231002
  0
VERTEX
  8
2_FEATURE
 62
7
  6
CONTINUOUS
 10
159.8806145145
 20
142.6601915148
  0
VERTEX
  8
2_FEATURE
 62
7
  6
CONTINUOUS
 10
159.8849285827
 20
142.7207573013
  0
VERTEX
  8
2_FEATURE
 62
7
  6
CONTINUOUS
 10
159.8862994833
 20
142.7875885108
  0
SEQEND
  0
LINE
  8
2_FEATURE
 62
7
  6
CONTINUOUS
 10
155.7646582465
 20
135.0721525225
 11
155.6987576103
 21
135.028984979
  0
LINE
  8
0
 62
7
  6
CONTINUOUS
 10
156.1255423864
 20
93.9202503831
 11
156.0702276268
 21
93.9862609167
  0
POLYLINE
  8
0
 62
7
  6
CONTINUOUS
 66
1
 70
0
  0
VERTEX
  8
0
 62
7
  6
CONTINUOUS
 10
153.1432235078
 20
133.7185809983
  0
VERTEX
  8
0
 62
7
  6
CONTINUOUS
 10
153.1094619009
 20
133.6887503863
  0
VERTEX
  8
0
 62
7
  6
CONTINUOUS
 10
152.9776175024
 20
133.6007837874
  0
VERTEX
  8
0
 62
7
  6
CONTINUOUS
 10
152.7777789157
 20
133.5223017372
  0
VERTEX
  8
0
 62
7
  6
CONTINUOUS
 10
152.606887297
 20
133.4929527297
  0
SEQEND
  0
LINE
  8
2_FEATURE
 62
7
  6
CONTINUOUS
 10
155.7879371342
 20
135.0907688376
 11
155.7646582465
 21
135.0721525225
  0
LINE
  8
2_FEATURE
 62
7
  6
CONTINUOUS
 10
158.7632477826
 20
108.9069109064
 11
159.8355194112
 21
108.9443554568
  0
LINE
  8
0
 62
7
  6
CONTINUOUS
 10
143.8862994833
 20
140.2726468898
 11
143.8862994833
 21
137.919163455
  0
LINE
  8
0
 62
7
  6
CONTINUOUS
 10
143.8862994833
 20
89.8726468898
 11
143.8862994833
 21
85.5959051724
  0
LINE
  8
0
 62
7
  6
CONTINUOUS
 10
143.8862994833
 20
95.919163455
 11
143.8862994833
 21
98.2726468898
  0
LINE
  8
0
 62
7
  6
CONTINUOUS
 10
143.8862994833
 20
104.319163455
 11
143.8862994833
 21
106.6726468898
  0
LINE
  8
0
 62
7
  6
CONTINUOUS
 10
143.8862994833
 20
112.719163455
 11
143.8862994833
 21
115.0726468898
  0
LINE
  8
0
 62
7
  6
CONTINUOUS
 10
143.8862994833
 20
121.119163455
 11
143.8862994833
 21
123.4726468898
  0
LINE
  8
0
 62
7
  6
CONTINUOUS
 10
143.8862994833
 20
129.519163455
 11
143.8862994833
 21
131.8726468898
  0
LINE
  8
0
 62
7
  6
CONTINUOUS
 10
143.8862994833
 20
146.319163455
 11
143.8862994833
 21
146.3273809858
  0
LINE
  8
2_FEATURE
 62
7
  6
CONTINUOUS
 10
143.8862994833
 20
146.3273809858
 11
143.8862994833
 21
150.5959051724
  0
LINE
  8
2_FEATURE
 62
7
  6
CONTINUOUS
 10
143.9362994833
 20
151.3459051724
 11
143.9362994833
 21
150.8931725633
  0
LINE
  8
2_FEATURE
 62
7
  6
CONTINUOUS
 10
143.9362994833
 20
146.0189412037
 11
143.9362994833
 21
132.1795312797
  0
LINE
  8
2_FEATURE
 62
7
  6
CONTINUOUS
 10
143.9362994833
 20
129.2122790652
 11
143.9362994833
 21
115.3795312797
  0
LINE
  8
2_FEATURE
 62
7
  6
CONTINUOUS
 10
143.9362994833
 20
112.4122790652
 11
143.9362994833
 21
98.5795312797
  0
LINE
  8
2_FEATURE
 62
7
  6
CONTINUOUS
 10
143.9362994833
 20
95.625300201
 11
143.9362994833
 21
84.8459051724
  0
LINE
  8
0
 62
7
  6
CONTINUOUS
 10
143.9362994833
 20
84.8459051724
 11
143.9362994833
 21
95.625300201
  0
LINE
  8
0
 62
7
  6
CONTINUOUS
 10
143.9362994833
 20
98.5795312797
 11
143.9362994833
 21
112.4122790652
  0
LINE
  8
0
 62
7
  6
CONTINUOUS
 10
143.9362994833
 20
115.3795312797
 11
143.9362994833
 21
129.2122790652
  0
LINE
  8
0
 62
7
  6
CONTINUOUS
 10
143.9362994833
 20
132.1795312797
 11
143.9362994833
 21
146.0189412037
  0
LINE
  8
0
 62
7
  6
CONTINUOUS
 10
143.9362994833
 20
150.8931725633
 11
143.9362994833
 21
151.3459051724
  0
POLYLINE
  8
2_FEATURE
 62
7
  6
CONTINUOUS
 66
1
 70
0
  0
VERTEX
  8
2_FEATURE
 62
7
  6
CONTINUOUS
 10
147.2743151368
 20
132.6677979406
  0
VERTEX
  8
2_FEATURE
 62
7
  6
CONTINUOUS
 10
147.2916227458
 20
132.7580396392
  0
VERTEX
  8
2_FEATURE
 62
7
  6
CONTINUOUS
 10
147.3387793156
 20
132.8416562002
  0
VERTEX
  8
2_FEATURE
 62
7
  6
CONTINUOUS
 10
147.4085378784
 20
132.9153686068
  0
VERTEX
  8
2_FEATURE
 62
7
  6
CONTINUOUS
 10
147.4973203122
 20
132.9795045887
  0
VERTEX
  8
2_FEATURE
 62
7
  6
CONTINUOUS
 10
147.6022380659
 20
133.0333413649
  0
VERTEX
  8
2_FEATURE
 62
7
  6
CONTINUOUS
 10
147.719481257
 20
133.0756233218
  0
VERTEX
  8
2_FEATURE
 62
7
  6
CONTINUOUS
 10
147.8454694619
 20
133.1056123267
  0
VERTEX
  8
2_FEATURE
 62
7
  6
CONTINUOUS
 10
147.978305022
 20
133.1229837724
  0
SEQEND
  0
POLYLINE
  8
0
 62
7
  6
CONTINUOUS
 66
1
 70
0
  0
VERTEX
  8
0
 62
7
  6
CONTINUOUS
 10
156.1639507752
 20
143.2083426532
  0
VERTEX
  8
0
 62
7
  6
CONTINUOUS
 10
156.1875667328
 20
143.2542336767
  0
VERTEX
  8
0
 62
7
  6
CONTINUOUS
 10
156.2053589544
 20
143.3090883988
  0
VERTEX
  8
0
 62
7
  6
CONTINUOUS
 10
156.2200568219
 20
143.3717058495
  0
VERTEX
  8
0
 62
7
  6
CONTINUOUS
 10
156.2319125672
 20
143.4396596213
  0
VERTEX
  8
0
 62
7
  6
CONTINUOUS
 10
156.2411745139
 20
143.5127186196
  0
VERTEX
  8
0
 62
7
  6
CONTINUOUS
 10
156.2477957477
 20
143.5911396346
  0
VERTEX
  8
0
 62
7
  6
CONTINUOUS
 10
156.2514361527
 20
143.6743251217
  0
VERTEX
  8
0
 62
7
  6
CONTINUOUS
 10
156.251628375
 20
143.7623212539
  0
VERTEX
  8
0
 62
7
  6
CONTINUOUS
 10
156.2476621121
 20
143.8548074706
  0
VERTEX
  8
0
 62
7
  6
CONTINUOUS
 10
156.2386164505
 20
143.9506335959
  0
VERTEX
  8
0
 62
7
  6
CONTINUOUS
 10
156.2234232517
 20
144.0477922515
  0
VERTEX
  8
0
 62
7
  6
CONTINUOUS
 10
156.2006047237
 20
144.1445547264
  0
VERTEX
  8
0
 62
7
  6
CONTINUOUS
 10
156.1684583045
 20
144.2373635166
  0
VERTEX
  8
0
 62
7
  6
CONTINUOUS
 10
156.1255423864
 20
144.3202503831
  0
SEQEND
  0
POLYLINE
  8
0
 62
7
  6
CONTINUOUS
 66
1
 70
0
  0
VERTEX
  8
0
 62
7
  6
CONTINUOUS
 10
156.1255423864
 20
133.8715599618
  0
VERTEX
  8
0
 62
7
  6
CONTINUOUS
 10
156.0702276268
 20
133.8055494282
  0
VERTEX
  8
0
 62
7
  6
CONTINUOUS
 10
156.0321753851
 20
133.7837789895
  0
SEQEND
  0
POLYLINE
  8
0
 62
7
  6
CONTINUOUS
 66
1
 70
0
  0
VERTEX
  8
0
 62
7
  6
CONTINUOUS
 10
155.9962707065
 20
127.627941556
  0
VERTEX
  8
0
 62
7
  6
CONTINUOUS
 10
156.0481616011
 20
127.643934554
  0
VERTEX
  8
0
 62
7
  6
CONTINUOUS
 10
156.097864918
 20
127.6970572815
  0
VERTEX
  8
0
 62
7
  6
CONTINUOUS
 10
156.1374372033
 20
127.7786698266
  0
VERTEX
  8
0
 62
7
  6
CONTINUOUS
 10
156.1606073964
 20
127.8756518376
  0
SEQEND
  0
LINE
  8
2_FEATURE
 62
7
  6
CONTINUOUS
 10
152.2116707653
 20
109.477901232
 11
155.5631745396
 21
109.5949383228
  0
LINE
  8
0
 62
7
  6
CONTINUOUS
 10
144.8066224822
 20
111.7223427212
 11
155.9962707074
 21
110.8279415673
  0
POLYLINE
  8
2_FEATURE
 62
7
  6
CONTINUOUS
 66
1
 70
0
  0
VERTEX
  8
2_FEATURE
 62
7
  6
CONTINUOUS
 10
155.5631745396
 20
109.5949383228
  0
VERTEX
  8
2_FEATURE
 62
7
  6
CONTINUOUS
 10
155.6313671434
 20
109.5880628388
  0
VERTEX
  8
2_FEATURE
 62
7
  6
CONTINUOUS
 10
155.6987576103
 20
109.5628253659
  0
SEQEND
  0
POLYLINE
  8
2_FEATURE
 62
7
  6
CONTINUOUS
 66
1
 70
0
  0
VERTEX
  8
2_FEATURE
 62
7
  6
CONTINUOUS
 10
156.1309187876
 20
109.3930535181
  0
VERTEX
  8
2_FEATURE
 62
7
  6
CONTINUOUS
 10
156.9008534999
 20
109.2774706085
  0
VERTEX
  8
2_FEATURE
 62
7
  6
CONTINUOUS
 10
157.6183072922
 20
109.1368075478
  0
VERTEX
  8
2_FEATURE
 62
7
  6
CONTINUOUS
 10
158.2759209585
 20
108.9722095453
  0
SEQEND
  0
POLYLINE
  8
0
 62
7
  6
CONTINUOUS
 66
1
 70
0
  0
VERTEX
  8
0
 62
7
  6
CONTINUOUS
 10
152.606977298
 20
111.0988502886
  0
VERTEX
  8
0
 62
7
  6
CONTINUOUS
 10
152.7727174887
 20
111.0708374973
  0
VERTEX
  8
0
 62
7
  6
CONTINUOUS
 10
152.9751498497
 20
110.9923459932
  0
VERTEX
  8
0
 62
7
  6
CONTINUOUS
 10
153.108772794
 20
110.9036288264
  0
VERTEX
  8
0
 62
7
  6
CONTINUOUS
 10
153.1432326952
 20
110.8732206528
  0
SEQEND
  0
POLYLINE
  8
2_FEATURE
 62
7
  6
CONTINUOUS
 66
1
 70
0
  0
VERTEX
  8
2_FEATURE
 62
7
  6
CONTINUOUS
 10
156.1309187876
 20
109.3930535181
  0
VERTEX
  8
2_FEATURE
 62
7
  6
CONTINUOUS
 10
155.986397796
 20
109.4189330206
  0
VERTEX
  8
2_FEATURE
 62
7
  6
CONTINUOUS
 10
155.8694533673
 20
109.4555188144
  0
VERTEX
  8
2_FEATURE
 62
7
  6
CONTINUOUS
 10
155.7879371342
 20
109.5010415072
  0
SEQEND
  0
POLYLINE
  8
2_FEATURE
 62
7
  6
CONTINUOUS
 66
1
 70
0
  0
VERTEX
  8
2_FEATURE
 62
7
  6
CONTINUOUS
 10
158.2759209585
 20
108.9722095453
  0
VERTEX
  8
2_FEATURE
 62
7
  6
CONTINUOUS
 10
158.448266566
 20
108.9319797067
  0
VERTEX
  8
2_FEATURE
 62
7
  6
CONTINUOUS
 10
158.611035515
 20
108.9104630416
  0
VERTEX
  8
2_FEATURE
 62
7
  6
CONTINUOUS
 10
158.7632477826
 20
108.9069109064
  0
SEQEND
  0
POLYLINE
  8
2_FEATURE
 62
7
  6
CONTINUOUS
 66
1
 70
0
  0
VERTEX
  8
2_FEATURE
 62
7
  6
CONTINUOUS
 10
151.9438912631
 20
101.6748553148
  0
VERTEX
  8
2_FEATURE
 62
7
  6
CONTINUOUS
 10
151.9122932802
 20
101.7248941777
  0
VERTEX
  8
2_FEATURE
 62
7
  6
CONTINUOUS
 10
151.8929169183
 20
101.7845573477
  0
VERTEX
  8
2_FEATURE
 62
7
  6
CONTINUOUS
 10
151.8862994833
 20
101.8551895833
  0
SEQEND
  0
LINE
  8
2_FEATURE
 62
7
  6
CONTINUOUS
 10
147.2743151368
 20
132.6677979406
 11
147.2743151368
 21
128.7240124053
  0
POLYLINE
  8
0
 62
7
  6
CONTINUOUS
 66
1
 70
0
  0
VERTEX
  8
0
 62
7
  6
CONTINUOUS
 10
153.2561018819
 20
133.8472001035
  0
VERTEX
  8
0
 62
7
  6
CONTINUOUS
 10
153.2650515578
 20
133.8700344974
  0
VERTEX
  8
0
 62
7
  6
CONTINUOUS
 10
153.2608305194
 20
133.8627722705
  0
VERTEX
  8
0
 62
7
  6
CONTINUOUS
 10
153.2239996671
 20
133.8079417788
  0
VERTEX
  8
0
 62
7
  6
CONTINUOUS
 10
153.1427590128
 20
133.7181417376
  0
SEQEND
  0
POLYLINE
  8
2_FEATURE
 62
7
  6
CONTINUOUS
 66
1
 70
0
  0
VERTEX
  8
2_FEATURE
 62
7
  6
CONTINUOUS
 10
151.9438912631
 20
126.11695503
  0
VERTEX
  8
2_FEATURE
 62
7
  6
CONTINUOUS
 10
152.030421844
 20
126.2036077559
  0
VERTEX
  8
2_FEATURE
 62
7
  6
CONTINUOUS
 10
152.1202448167
 20
126.2576392499
  0
VERTEX
  8
2_FEATURE
 62
7
  6
CONTINUOUS
 10
152.2116707653
 20
126.277901232
  0
SEQEND
  0
LINE
  8
0
 62
7
  6
CONTINUOUS
 10
159.5675998854
 20
109.8059899013
 11
155.9901431216
 21
110.8284313521
  0
LINE
  8
2_FEATURE
 62
7
  6
CONTINUOUS
 10
155.6987576103
 20
109.5628253659
 11
155.7646582465
 21
109.5196578223
  0
LINE
  8
0
 62
7
  6
CONTINUOUS
 10
156.1639508036
 20
101.3834676916
 11
156.1309187876
 21
101.4283703991
  0
POLYLINE
  8
2_FEATURE
 62
7
  6
CONTINUOUS
 66
1
 70
0
  0
VERTEX
  8
2_FEATURE
 62
7
  6
CONTINUOUS
 10
151.8862994833
 20
142.7366207615
  0
VERTEX
  8
2_FEATURE
 62
7
  6
CONTINUOUS
 10
151.8929169183
 20
142.8072529971
  0
VERTEX
  8
2_FEATURE
 62
7
  6
CONTINUOUS
 10
151.9122932802
 20
142.8669161671
  0
VERTEX
  8
2_FEATURE
 62
7
  6
CONTINUOUS
 10
151.9438912631
 20
142.91695503
  0
SEQEND
  0
LINE
  8
2_FEATURE
 62
7
  6
CONTINUOUS
 10
155.7879371342
 20
109.5010415072
 11
155.7646582465
 21
109.5196578223
  0
POLYLINE
  8
0
 62
7
  6
CONTINUOUS
 66
1
 70
0
  0
VERTEX
  8
0
 62
7
  6
CONTINUOUS
 10
153.1427782708
 20
110.8736504061
  0
VERTEX
  8
0
 62
7
  6
CONTINUOUS
 10
153.2236134974
 20
110.7843753021
  0
VERTEX
  8
0
 62
7
  6
CONTINUOUS
 10
153.2606719178
 20
110.729316123
  0
VERTEX
  8
0
 62
7
  6
CONTINUOUS
 10
153.2665543862
 20
110.7183968168
  0
SEQEND
  0
POLYLINE
  8
0
 62
7
  6
CONTINUOUS
 66
1
 70
0
  0
VERTEX
  8
0
 62
7
  6
CONTINUOUS
 10
156.1639507752
 20
101.3834676916
  0
VERTEX
  8
0
 62
7
  6
CONTINUOUS
 10
156.1875667328
 20
101.3375766682
  0
VERTEX
  8
0
 62
7
  6
CONTINUOUS
 10
156.2053589544
 20
101.2827219461
  0
VERTEX
  8
0
 62
7
  6
CONTINUOUS
 10
156.2200568219
 20
101.2201044953
  0
VERTEX
  8
0
 62
7
  6
CONTINUOUS
 10
156.2319125672
 20
101.1521507236
  0
VERTEX
  8
0
 62
7
  6
CONTINUOUS
 10
156.2411745139
 20
101.0790917253
  0
VERTEX
  8
0
 62
7
  6
CONTINUOUS
 10
156.2477957477
 20
101.0006707102
  0
VERTEX
  8
0
 62
7
  6
CONTINUOUS
 10
156.2514361527
 20
100.9174852232
  0
VERTEX
  8
0
 62
7
  6
CONTINUOUS
 10
156.251628375
 20
100.829489091
  0
VERTEX
  8
0
 62
7
  6
CONTINUOUS
 10
156.2476621121
 20
100.7370028742
  0
VERTEX
  8
0
 62
7
  6
CONTINUOUS
 10
156.2386164505
 20
100.6411767489
  0
VERTEX
  8
0
 62
7
  6
CONTINUOUS
 10
156.2234232517
 20
100.5440180933
  0
VERTEX
  8
0
 62
7
  6
CONTINUOUS
 10
156.2006047237
 20
100.4472556184
  0
VERTEX
  8
0
 62
7
  6
CONTINUOUS
 10
156.1684583045
 20
100.3544468282
  0
VERTEX
  8
0
 62
7
  6
CONTINUOUS
 10
156.1255423864
 20
100.2715599618
  0
SEQEND
  0
LINE
  8
2_FEATURE
 62
7
  6
CONTINUOUS
 10
151.8862994833
 20
144.7564561846
 11
151.8862994833
 21
142.91695503
  0
LINE
  8
2_FEATURE
 62
7
  6
CONTINUOUS
 10
151.8862994833
 20
111.1564561846
 11
151.8862994833
 21
109.31695503
  0
LINE
  8
2_FEATURE
 62
7
  6
CONTINUOUS
 10
151.8862994833
 20
94.3564561846
 11
151.8862994833
 21
84.8459051724
  0
LINE
  8
0
 62
7
  6
CONTINUOUS
 10
151.8862994833
 20
84.8459051724
 11
151.8862994833
 21
94.3564561846
  0
LINE
  8
0
 62
7
  6
CONTINUOUS
 10
151.8862994833
 20
99.8353541602
 11
151.8862994833
 21
101.6748553148
  0
LINE
  8
2_FEATURE
 62
7
  6
CONTINUOUS
 10
151.8862994833
 20
99.8353541602
 11
151.8862994833
 21
109.1366207615
  0
LINE
  8
0
 62
7
  6
CONTINUOUS
 10
151.8862994833
 20
109.1366207615
 11
151.8862994833
 21
111.1564561846
  0
LINE
  8
0
 62
7
  6
CONTINUOUS
 10
151.8862994833
 20
116.6353541602
 11
151.8862994833
 21
118.4748553148
  0
LINE
  8
2_FEATURE
 62
7
  6
CONTINUOUS
 10
151.8862994833
 20
116.6353541602
 11
151.8862994833
 21
125.9366207615
  0
LINE
  8
0
 62
7
  6
CONTINUOUS
 10
151.8862994833
 20
125.9366207615
 11
151.8862994833
 21
127.9564561846
  0
LINE
  8
0
 62
7
  6
CONTINUOUS
 10
151.8862994833
 20
133.4353541602
 11
151.8862994833
 21
135.2748553148
  0
LINE
  8
2_FEATURE
 62
7
  6
CONTINUOUS
 10
151.8862994833
 20
126.11695503
 11
151.8862994833
 21
142.7366207615
  0
LINE
  8
0
 62
7
  6
CONTINUOUS
 10
151.8862994833
 20
142.7366207615
 11
151.8862994833
 21
144.7564561846
  0
LINE
  8
AXES
 62
2
  6
CENTER
 10
151.8862994833
 20
82.5959040879
 11
151.8862994833
 21
153.595906257
  0
POLYLINE
  8
2_FEATURE
 62
7
  6
CONTINUOUS
 66
1
 70
0
  0
VERTEX
  8
2_FEATURE
 62
7
  6
CONTINUOUS
 10
151.8862994833
 20
125.9366207615
  0
VERTEX
  8
2_FEATURE
 62
7
  6
CONTINUOUS
 10
151.8929169183
 20
126.0072529971
  0
VERTEX
  8
2_FEATURE
 62
7
  6
CONTINUOUS
 10
151.9122932802
 20
126.0669161671
  0
VERTEX
  8
2_FEATURE
 62
7
  6
CONTINUOUS
 10
151.9438912631
 20
126.11695503
  0
SEQEND
  0
POLYLINE
  8
0
 62
7
  6
CONTINUOUS
 66
1
 70
0
  0
VERTEX
  8
0
 62
7
  6
CONTINUOUS
 10
156.1639507752
 20
126.4083426532
  0
VERTEX
  8
0
 62
7
  6
CONTINUOUS
 10
156.1875667328
 20
126.4542336767
  0
VERTEX
  8
0
 62
7
  6
CONTINUOUS
 10
156.2053589544
 20
126.5090883988
  0
VERTEX
  8
0
 62
7
  6
CONTINUOUS
 10
156.2200568219
 20
126.5717058495
  0
VERTEX
  8
0
 62
7
  6
CONTINUOUS
 10
156.2319125672
 20
126.6396596213
  0
VERTEX
  8
0
 62
7
  6
CONTINUOUS
 10
156.2411745139
 20
126.7127186196
  0
VERTEX
  8
0
 62
7
  6
CONTINUOUS
 10
156.2477957477
 20
126.7911396346
  0
VERTEX
  8
0
 62
7
  6
CONTINUOUS
 10
156.2514361527
 20
126.8743251217
  0
VERTEX
  8
0
 62
7
  6
CONTINUOUS
 10
156.251628375
 20
126.9623212539
  0
VERTEX
  8
0
 62
7
  6
CONTINUOUS
 10
156.2476621121
 20
127.0548074706
  0
VERTEX
  8
0
 62
7
  6
CONTINUOUS
 10
156.2386164505
 20
127.1506335959
  0
VERTEX
  8
0
 62
7
  6
CONTINUOUS
 10
156.2234232517
 20
127.2477922515
  0
VERTEX
  8
0
 62
7
  6
CONTINUOUS
 10
156.2006047237
 20
127.3445547264
  0
VERTEX
  8
0
 62
7
  6
CONTINUOUS
 10
156.1684583045
 20
127.4373635166
  0
VERTEX
  8
0
 62
7
  6
CONTINUOUS
 10
156.1255423864
 20
127.5202503831
  0
SEQEND
  0
LINE
  8
0
 62
7
  6
CONTINUOUS
 10
156.1639508036
 20
126.4083426532
 11
156.1309187876
 21
126.3634399457
  0
POLYLINE
  8
2_FEATURE
 62
7
  6
CONTINUOUS
 66
1
 70
0
  0
VERTEX
  8
2_FEATURE
 62
7
  6
CONTINUOUS
 10
159.8355214475
 20
125.7443555398
  0
VERTEX
  8
2_FEATURE
 62
7
  6
CONTINUOUS
 10
159.8596580487
 20
125.7656307202
  0
VERTEX
  8
2_FEATURE
 62
7
  6
CONTINUOUS
 10
159.8727451624
 20
125.8074231002
  0
VERTEX
  8
2_FEATURE
 62
7
  6
CONTINUOUS
 10
159.8806145145
 20
125.8601915148
  0
VERTEX
  8
2_FEATURE
 62
7
  6
CONTINUOUS
 10
159.8849285827
 20
125.9207573013
  0
VERTEX
  8
2_FEATURE
 62
7
  6
CONTINUOUS
 10
159.8862994833
 20
125.9875885108
  0
SEQEND
  0
POLYLINE
  8
2_FEATURE
 62
7
  6
CONTINUOUS
 66
1
 70
0
  0
VERTEX
  8
2_FEATURE
 62
7
  6
CONTINUOUS
 10
156.1309187876
 20
118.3987568267
  0
VERTEX
  8
2_FEATURE
 62
7
  6
CONTINUOUS
 10
155.986397796
 20
118.3728773243
  0
VERTEX
  8
2_FEATURE
 62
7
  6
CONTINUOUS
 10
155.8694533673
 20
118.3362915304
  0
VERTEX
  8
2_FEATURE
 62
7
  6
CONTINUOUS
 10
155.7879371342
 20
118.2907688376
  0
SEQEND
  0
POLYLINE
  8
2_FEATURE
 62
7
  6
CONTINUOUS
 66
1
 70
0
  0
VERTEX
  8
2_FEATURE
 62
7
  6
CONTINUOUS
 10
156.1309187876
 20
118.3987568267
  0
VERTEX
  8
2_FEATURE
 62
7
  6
CONTINUOUS
 10
156.9008534999
 20
118.5143397363
  0
VERTEX
  8
2_FEATURE
 62
7
  6
CONTINUOUS
 10
157.6183072922
 20
118.655002797
  0
VERTEX
  8
2_FEATURE
 62
7
  6
CONTINUOUS
 10
158.2759209585
 20
118.8196007995
  0
SEQEND
  0
LINE
  8
0
 62
7
  6
CONTINUOUS
 10
144.8066224822
 20
116.0694676237
 11
155.9962707074
 21
116.9638687776
  0
LINE
  8
2_FEATURE
 62
7
  6
CONTINUOUS
 10
152.2116707653
 20
118.3139091128
 11
155.5631745396
 21
118.1968720221
  0
POLYLINE
  8
2_FEATURE
 62
7
  6
CONTINUOUS
 66
1
 70
0
  0
VERTEX
  8
2_FEATURE
 62
7
  6
CONTINUOUS
 10
152.2116707653
 20
118.3139091128
  0
VERTEX
  8
2_FEATURE
 62
7
  6
CONTINUOUS
 10
152.1202448167
 20
118.334171095
  0
VERTEX
  8
2_FEATURE
 62
7
  6
CONTINUOUS
 10
152.030421844
 20
118.388202589
  0
VERTEX
  8
2_FEATURE
 62
7
  6
CONTINUOUS
 10
151.9438912631
 20
118.4748553148
  0
SEQEND
  0
POLYLINE
  8
0
 62
7
  6
CONTINUOUS
 66
1
 70
0
  0
VERTEX
  8
0
 62
7
  6
CONTINUOUS
 10
155.9962707065
 20
116.9638687889
  0
VERTEX
  8
0
 62
7
  6
CONTINUOUS
 10
156.0481616011
 20
116.9478757908
  0
VERTEX
  8
0
 62
7
  6
CONTINUOUS
 10
156.097864918
 20
116.8947530633
  0
VERTEX
  8
0
 62
7
  6
CONTINUOUS
 10
156.1374372033
 20
116.8131405182
  0
VERTEX
  8
0
 62
7
  6
CONTINUOUS
 10
156.1606073964
 20
116.7161585072
  0
SEQEND
  0
POLYLINE
  8
0
 62
7
  6
CONTINUOUS
 66
1
 70
0
  0
VERTEX
  8
0
 62
7
  6
CONTINUOUS
 10
156.1255423864
 20
110.7202503831
  0
VERTEX
  8
0
 62
7
  6
CONTINUOUS
 10
156.0702276268
 20
110.7862609167
  0
VERTEX
  8
0
 62
7
  6
CONTINUOUS
 10
156.0321753851
 20
110.8080313553
  0
SEQEND
  0
POLYLINE
  8
2_FEATURE
 62
7
  6
CONTINUOUS
 66
1
 70
0
  0
VERTEX
  8
2_FEATURE
 62
7
  6
CONTINUOUS
 10
151.9438912631
 20
118.4748553148
  0
VERTEX
  8
2_FEATURE
 62
7
  6
CONTINUOUS
 10
151.9122932802
 20
118.5248941777
  0
VERTEX
  8
2_FEATURE
 62
7
  6
CONTINUOUS
 10
151.8929169183
 20
118.5845573477
  0
VERTEX
  8
2_FEATURE
 62
7
  6
CONTINUOUS
 10
151.8862994833
 20
118.6551895833
  0
SEQEND
  0
POLYLINE
  8
2_FEATURE
 62
7
  6
CONTINUOUS
 66
1
 70
0
  0
VERTEX
  8
2_FEATURE
 62
7
  6
CONTINUOUS
 10
151.8862994833
 20
109.1366207615
  0
VERTEX
  8
2_FEATURE
 62
7
  6
CONTINUOUS
 10
151.8929169183
 20
109.2072529971
  0
VERTEX
  8
2_FEATURE
 62
7
  6
CONTINUOUS
 10
151.9122932802
 20
109.2669161671
  0
VERTEX
  8
2_FEATURE
 62
7
  6
CONTINUOUS
 10
151.9438912631
 20
109.31695503
  0
SEQEND
  0
POLYLINE
  8
0
 62
7
  6
CONTINUOUS
 66
1
 70
0
  0
VERTEX
  8
0
 62
7
  6
CONTINUOUS
 10
153.2561018819
 20
117.0472001035
  0
VERTEX
  8
0
 62
7
  6
CONTINUOUS
 10
153.2650515578
 20
117.0700344974
  0
VERTEX
  8
0
 62
7
  6
CONTINUOUS
 10
153.2608305194
 20
117.0627722705
  0
VERTEX
  8
0
 62
7
  6
CONTINUOUS
 10
153.2239996671
 20
117.0079417788
  0
VERTEX
  8
0
 62
7
  6
CONTINUOUS
 10
153.1427590128
 20
116.9181417376
  0
SEQEND
  0
POLYLINE
  8
0
 62
7
  6
CONTINUOUS
 66
1
 70
0
  0
VERTEX
  8
0
 62
7
  6
CONTINUOUS
 10
153.1432235078
 20
116.9185809983
  0
VERTEX
  8
0
 62
7
  6
CONTINUOUS
 10
153.1094619009
 20
116.8887503863
  0
VERTEX
  8
0
 62
7
  6
CONTINUOUS
 10
152.9776175024
 20
116.8007837873
  0
VERTEX
  8
0
 62
7
  6
CONTINUOUS
 10
152.7777789156
 20
116.7223017371
  0
VERTEX
  8
0
 62
7
  6
CONTINUOUS
 10
152.606887297
 20
116.6929527297
  0
SEQEND
  0
LINE
  8
2_FEATURE
 62
7
  6
CONTINUOUS
 10
155.7879371342
 20
118.2907688376
 11
155.7646582465
 21
118.2721525225
  0
LINE
  8
2_FEATURE
 62
7
  6
CONTINUOUS
 10
155.7646582465
 20
118.2721525225
 11
155.6987576103
 21
118.228984979
  0
POLYLINE
  8
2_FEATURE
 62
7
  6
CONTINUOUS
 66
1
 70
0
  0
VERTEX
  8
2_FEATURE
 62
7
  6
CONTINUOUS
 10
155.6987576103
 20
118.228984979
  0
VERTEX
  8
2_FEATURE
 62
7
  6
CONTINUOUS
 10
155.6313671434
 20
118.203747506
  0
VERTEX
  8
2_FEATURE
 62
7
  6
CONTINUOUS
 10
155.5631745396
 20
118.1968720221
  0
SEQEND
  0
LINE
  8
0
 62
7
  6
CONTINUOUS
 10
159.5675998854
 20
117.9858204436
 11
155.9901431216
 21
116.9633789927
  0
POLYLINE
  8
2_FEATURE
 62
7
  6
CONTINUOUS
 66
1
 70
0
  0
VERTEX
  8
2_FEATURE
 62
7
  6
CONTINUOUS
 10
158.7632477826
 20
118.8848994384
  0
VERTEX
  8
2_FEATURE
 62
7
  6
CONTINUOUS
 10
158.611035515
 20
118.8813473033
  0
VERTEX
  8
2_FEATURE
 62
7
  6
CONTINUOUS
 10
158.448266566
 20
118.8598306382
  0
VERTEX
  8
2_FEATURE
 62
7
  6
CONTINUOUS
 10
158.2759209585
 20
118.8196007995
  0
SEQEND
  0
LINE
  8
2_FEATURE
 62
7
  6
CONTINUOUS
 10
158.7632477826
 20
118.8848994384
 11
159.8355192665
 21
118.8474548931
  0
POLYLINE
  8
0
 62
7
  6
CONTINUOUS
 66
1
 70
0
  0
VERTEX
  8
0
 62
7
  6
CONTINUOUS
 10
146.1115884087
 20
145.635153332
  0
VERTEX
  8
0
 62
7
  6
CONTINUOUS
 10
146.1517462732
 20
145.5045400596
  0
VERTEX
  8
0
 62
7
  6
CONTINUOUS
 10
146.2468411545
 20
145.3670224557
  0
VERTEX
  8
0
 62
7
  6
CONTINUOUS
 10
146.3882987019
 20
145.2580466814
  0
VERTEX
  8
0
 62
7
  6
CONTINUOUS
 10
146.5658413916
 20
145.1895669147
  0
VERTEX
  8
0
 62
7
  6
CONTINUOUS
 10
146.6691030787
 20
145.1734585426
  0
SEQEND
  0
POLYLINE
  8
0
 62
7
  6
CONTINUOUS
 66
1
 70
0
  0
VERTEX
  8
0
 62
7
  6
CONTINUOUS
 10
156.1255423864
 20
117.0715599618
  0
VERTEX
  8
0
 62
7
  6
CONTINUOUS
 10
156.0702276268
 20
117.0055494282
  0
VERTEX
  8
0
 62
7
  6
CONTINUOUS
 10
156.0321753851
 20
116.9837789895
  0
SEQEND
  0
LINE
  8
0
 62
7
  6
CONTINUOUS
 10
156.1639508036
 20
118.1834676916
 11
156.1309187876
 21
118.2283703991
  0
POLYLINE
  8
0
 62
7
  6
CONTINUOUS
 66
1
 70
0
  0
VERTEX
  8
0
 62
7
  6
CONTINUOUS
 10
156.1639507752
 20
118.1834676916
  0
VERTEX
  8
0
 62
7
  6
CONTINUOUS
 10
156.1875667328
 20
118.1375766682
  0
VERTEX
  8
0
 62
7
  6
CONTINUOUS
 10
156.2053589544
 20
118.0827219461
  0
VERTEX
  8
0
 62
7
  6
CONTINUOUS
 10
156.2200568219
 20
118.0201044953
  0
VERTEX
  8
0
 62
7
  6
CONTINUOUS
 10
156.2319125672
 20
117.9521507236
  0
VERTEX
  8
0
 62
7
  6
CONTINUOUS
 10
156.2411745139
 20
117.8790917253
  0
VERTEX
  8
0
 62
7
  6
CONTINUOUS
 10
156.2477957477
 20
117.8006707102
  0
VERTEX
  8
0
 62
7
  6
CONTINUOUS
 10
156.2514361527
 20
117.7174852232
  0
VERTEX
  8
0
 62
7
  6
CONTINUOUS
 10
156.251628375
 20
117.629489091
  0
VERTEX
  8
0
 62
7
  6
CONTINUOUS
 10
156.2476621121
 20
117.5370028742
  0
VERTEX
  8
0
 62
7
  6
CONTINUOUS
 10
156.2386164505
 20
117.4411767489
  0
VERTEX
  8
0
 62
7
  6
CONTINUOUS
 10
156.2234232517
 20
117.3440180933
  0
VERTEX
  8
0
 62
7
  6
CONTINUOUS
 10
156.2006047237
 20
117.2472556184
  0
VERTEX
  8
0
 62
7
  6
CONTINUOUS
 10
156.1684583045
 20
117.1544468282
  0
VERTEX
  8
0
 62
7
  6
CONTINUOUS
 10
156.1255423864
 20
117.0715599618
  0
SEQEND
  0
POLYLINE
  8
2_FEATURE
 62
7
  6
CONTINUOUS
 66
1
 70
0
  0
VERTEX
  8
2_FEATURE
 62
7
  6
CONTINUOUS
 10
151.9438912631
 20
109.31695503
  0
VERTEX
  8
2_FEATURE
 62
7
  6
CONTINUOUS
 10
152.030421844
 20
109.4036077559
  0
VERTEX
  8
2_FEATURE
 62
7
  6
CONTINUOUS
 10
152.1202448167
 20
109.4576392499
  0
VERTEX
  8
2_FEATURE
 62
7
  6
CONTINUOUS
 10
152.2116707653
 20
109.477901232
  0
SEQEND
  0
POLYLINE
  8
2_FEATURE
 62
7
  6
CONTINUOUS
 66
1
 70
0
  0
VERTEX
  8
2_FEATURE
 62
7
  6
CONTINUOUS
 10
159.8862994833
 20
101.8056886746
  0
VERTEX
  8
2_FEATURE
 62
7
  6
CONTINUOUS
 10
159.8848971754
 20
101.8720040282
  0
VERTEX
  8
2_FEATURE
 62
7
  6
CONTINUOUS
 10
159.8805900085
 20
101.9323072363
  0
VERTEX
  8
2_FEATURE
 62
7
  6
CONTINUOUS
 10
159.8727293579
 20
101.9848146095
  0
VERTEX
  8
2_FEATURE
 62
7
  6
CONTINUOUS
 10
159.8596391176
 20
102.0263502969
  0
VERTEX
  8
2_FEATURE
 62
7
  6
CONTINUOUS
 10
159.8355224628
 20
102.0474547672
  0
SEQEND
  0
POLYLINE
  8
2_FEATURE
 62
7
  6
CONTINUOUS
 66
1
 70
0
  0
VERTEX
  8
2_FEATURE
 62
7
  6
CONTINUOUS
 10
159.8862994833
 20
118.6057191629
  0
VERTEX
  8
2_FEATURE
 62
7
  6
CONTINUOUS
 10
159.8848963063
 20
118.6720235931
  0
VERTEX
  8
2_FEATURE
 62
7
  6
CONTINUOUS
 10
159.8805886725
 20
118.7323204523
  0
VERTEX
  8
2_FEATURE
 62
7
  6
CONTINUOUS
 10
159.8727278613
 20
118.7848220457
  0
VERTEX
  8
2_FEATURE
 62
7
  6
CONTINUOUS
 10
159.8596378538
 20
118.8263529344
  0
VERTEX
  8
2_FEATURE
 62
7
  6
CONTINUOUS
 10
159.8355224863
 20
118.8474547663
  0
SEQEND
  0
POLYLINE
  8
2_FEATURE
 62
7
  6
CONTINUOUS
 66
1
 70
0
  0
VERTEX
  8
2_FEATURE
 62
7
  6
CONTINUOUS
 10
159.8862994833
 20
135.4056886746
  0
VERTEX
  8
2_FEATURE
 62
7
  6
CONTINUOUS
 10
159.8848971754
 20
135.4720040282
  0
VERTEX
  8
2_FEATURE
 62
7
  6
CONTINUOUS
 10
159.8805900085
 20
135.5323072363
  0
VERTEX
  8
2_FEATURE
 62
7
  6
CONTINUOUS
 10
159.8727293579
 20
135.5848146095
  0
VERTEX
  8
2_FEATURE
 62
7
  6
CONTINUOUS
 10
159.8596391176
 20
135.6263502969
  0
VERTEX
  8
2_FEATURE
 62
7
  6
CONTINUOUS
 10
159.8355224628
 20
135.6474547672
  0
SEQEND
  0
LINE
  8
0
 62
7
  6
CONTINUOUS
 10
159.8862994833
 20
134.5454449763
 11
159.8862994833
 21
126.8463653685
  0
LINE
  8
2_FEATURE
 62
7
  6
CONTINUOUS
 10
159.8862994833
 20
126.8463653685
 11
159.8862994833
 21
117.7454449763
  0
LINE
  8
2_FEATURE
 62
7
  6
CONTINUOUS
 10
159.8862994833
 20
110.0463653685
 11
159.8862994833
 21
100.9454449763
  0
LINE
  8
0
 62
7
  6
CONTINUOUS
 10
159.8862994833
 20
84.8459051724
 11
159.8862994833
 21
100.9454449763
  0
LINE
  8
0
 62
7
  6
CONTINUOUS
 10
159.8862994833
 20
110.0463653685
 11
159.8862994833
 21
117.7454449763
  0
LINE
  8
2_FEATURE
 62
7
  6
CONTINUOUS
 10
159.8862994833
 20
134.5454449763
 11
159.8862994833
 21
151.3459051724
  0
POLYLINE
  8
0
 62
7
  6
CONTINUOUS
 66
1
 70
0
  0
VERTEX
  8
0
 62
7
  6
CONTINUOUS
 10
153.2561018819
 20
100.2472001035
  0
VERTEX
  8
0
 62
7
  6
CONTINUOUS
 10
153.2650515578
 20
100.2700344974
  0
VERTEX
  8
0
 62
7
  6
CONTINUOUS
 10
153.2608305194
 20
100.2627722705
  0
VERTEX
  8
0
 62
7
  6
CONTINUOUS
 10
153.2239996671
 20
100.2079417788
  0
VERTEX
  8
0
 62
7
  6
CONTINUOUS
 10
153.1427590128
 20
100.1181417376
  0
SEQEND
  0
POLYLINE
  8
0
 62
7
  6
CONTINUOUS
 66
1
 70
0
  0
VERTEX
  8
0
 62
7
  6
CONTINUOUS
 10
156.1639507752
 20
109.6083426532
  0
VERTEX
  8
0
 62
7
  6
CONTINUOUS
 10
156.1875667328
 20
109.6542336767
  0
VERTEX
  8
0
 62
7
  6
CONTINUOUS
 10
156.2053589544
 20
109.7090883988
  0
VERTEX
  8
0
 62
7
  6
CONTINUOUS
 10
156.2200568219
 20
109.7717058495
  0
VERTEX
  8
0
 62
7
  6
CONTINUOUS
 10
156.2319125672
 20
109.8396596213
  0
VERTEX
  8
0
 62
7
  6
CONTINUOUS
 10
156.2411745139
 20
109.9127186196
  0
VERTEX
  8
0
 62
7
  6
CONTINUOUS
 10
156.2477957477
 20
109.9911396346
  0
VERTEX
  8
0
 62
7
  6
CONTINUOUS
 10
156.2514361527
 20
110.0743251217
  0
VERTEX
  8
0
 62
7
  6
CONTINUOUS
 10
156.251628375
 20
110.1623212539
  0
VERTEX
  8
0
 62
7
  6
CONTINUOUS
 10
156.2476621121
 20
110.2548074706
  0
VERTEX
  8
0
 62
7
  6
CONTINUOUS
 10
156.2386164505
 20
110.3506335959
  0
VERTEX
  8
0
 62
7
  6
CONTINUOUS
 10
156.2234232517
 20
110.4477922515
  0
VERTEX
  8
0
 62
7
  6
CONTINUOUS
 10
156.2006047237
 20
110.5445547264
  0
VERTEX
  8
0
 62
7
  6
CONTINUOUS
 10
156.1684583045
 20
110.6373635166
  0
VERTEX
  8
0
 62
7
  6
CONTINUOUS
 10
156.1255423864
 20
110.7202503831
  0
SEQEND
  0
LINE
  8
0
 62
7
  6
CONTINUOUS
 10
156.1639508036
 20
109.6083426532
 11
156.1309187876
 21
109.5634399457
  0
POLYLINE
  8
0
 62
7
  6
CONTINUOUS
 66
1
 70
0
  0
VERTEX
  8
0
 62
7
  6
CONTINUOUS
 10
155.9962707065
 20
110.827941556
  0
VERTEX
  8
0
 62
7
  6
CONTINUOUS
 10
156.0481616011
 20
110.843934554
  0
VERTEX
  8
0
 62
7
  6
CONTINUOUS
 10
156.097864918
 20
110.8970572815
  0
VERTEX
  8
0
 62
7
  6
CONTINUOUS
 10
156.1374372033
 20
110.9786698266
  0
VERTEX
  8
0
 62
7
  6
CONTINUOUS
 10
156.1606073964
 20
111.0756518376
  0
SEQEND
  0
LINE
  8
2_FEATURE
 62
7
  6
CONTINUOUS
 10
158.7632477826
 20
125.7069109064
 11
159.8355194112
 21
125.7443554568
  0
LINE
  8
2_FEATURE
 62
7
  6
CONTINUOUS
 10
152.2116707653
 20
126.277901232
 11
155.5631745396
 21
126.3949383228
  0
POLYLINE
  8
2_FEATURE
 62
7
  6
CONTINUOUS
 66
1
 70
0
  0
VERTEX
  8
2_FEATURE
 62
7
  6
CONTINUOUS
 10
155.5631745396
 20
126.3949383228
  0
VERTEX
  8
2_FEATURE
 62
7
  6
CONTINUOUS
 10
155.6313671434
 20
126.3880628388
  0
VERTEX
  8
2_FEATURE
 62
7
  6
CONTINUOUS
 10
155.6987576103
 20
126.3628253659
  0
SEQEND
  0
POLYLINE
  8
2_FEATURE
 62
7
  6
CONTINUOUS
 66
1
 70
0
  0
VERTEX
  8
2_FEATURE
 62
7
  6
CONTINUOUS
 10
156.1309187876
 20
126.1930535181
  0
VERTEX
  8
2_FEATURE
 62
7
  6
CONTINUOUS
 10
156.9008534999
 20
126.0774706085
  0
VERTEX
  8
2_FEATURE
 62
7
  6
CONTINUOUS
 10
157.6183072922
 20
125.9368075478
  0
VERTEX
  8
2_FEATURE
 62
7
  6
CONTINUOUS
 10
158.2759209585
 20
125.7722095453
  0
SEQEND
  0
POLYLINE
  8
2_FEATURE
 62
7
  6
CONTINUOUS
 66
1
 70
0
  0
VERTEX
  8
2_FEATURE
 62
7
  6
CONTINUOUS
 10
156.1309187876
 20
126.1930535181
  0
VERTEX
  8
2_FEATURE
 62
7
  6
CONTINUOUS
 10
155.986397796
 20
126.2189330206
  0
VERTEX
  8
2_FEATURE
 62
7
  6
CONTINUOUS
 10
155.8694533673
 20
126.2555188144
  0
VERTEX
  8
2_FEATURE
 62
7
  6
CONTINUOUS
 10
155.7879371342
 20
126.3010415072
  0
SEQEND
  0
POLYLINE
  8
2_FEATURE
 62
7
  6
CONTINUOUS
 66
1
 70
0
  0
VERTEX
  8
2_FEATURE
 62
7
  6
CONTINUOUS
 10
158.2759209585
 20
125.7722095453
  0
VERTEX
  8
2_FEATURE
 62
7
  6
CONTINUOUS
 10
158.448266566
 20
125.7319797067
  0
VERTEX
  8
2_FEATURE
 62
7
  6
CONTINUOUS
 10
158.611035515
 20
125.7104630416
  0
VERTEX
  8
2_FEATURE
 62
7
  6
CONTINUOUS
 10
158.7632477826
 20
125.7069109064
  0
SEQEND
  0
LINE
  8
2_FEATURE
 62
7
  6
CONTINUOUS
 10
155.6987576103
 20
126.3628253659
 11
155.7646582465
 21
126.3196578223
  0
LINE
  8
2_FEATURE
 62
7
  6
CONTINUOUS
 10
155.7879371342
 20
126.3010415072
 11
155.7646582465
 21
126.3196578223
  0
POLYLINE
  8
0
 62
7
  6
CONTINUOUS
 66
1
 70
0
  0
VERTEX
  8
0
 62
7
  6
CONTINUOUS
 10
153.1427782708
 20
127.6736504061
  0
VERTEX
  8
0
 62
7
  6
CONTINUOUS
 10
153.2236134974
 20
127.5843753021
  0
VERTEX
  8
0
 62
7
  6
CONTINUOUS
 10
153.2606719178
 20
127.529316123
  0
VERTEX
  8
0
 62
7
  6
CONTINUOUS
 10
153.2665543862
 20
127.5183968168
  0
SEQEND
  0
POLYLINE
  8
0
 62
7
  6
CONTINUOUS
 66
1
 70
0
  0
VERTEX
  8
0
 62
7
  6
CONTINUOUS
 10
156.1255423864
 20
127.5202503831
  0
VERTEX
  8
0
 62
7
  6
CONTINUOUS
 10
156.0702276268
 20
127.5862609167
  0
VERTEX
  8
0
 62
7
  6
CONTINUOUS
 10
156.0321753851
 20
127.6080313553
  0
SEQEND
  0
POLYLINE
  8
2_FEATURE
 62
7
  6
CONTINUOUS
 66
1
 70
0
  0
VERTEX
  8
2_FEATURE
 62
7
  6
CONTINUOUS
 10
151.9438912631
 20
135.2748553148
  0
VERTEX
  8
2_FEATURE
 62
7
  6
CONTINUOUS
 10
151.9122932802
 20
135.3248941777
  0
VERTEX
  8
2_FEATURE
 62
7
  6
CONTINUOUS
 10
151.8929169183
 20
135.3845573477
  0
VERTEX
  8
2_FEATURE
 62
7
  6
CONTINUOUS
 10
151.8862994833
 20
135.4551895833
  0
SEQEND
  0
LINE
  8
2_FEATURE
 62
7
  6
CONTINUOUS
 10
144.8066224822
 20
128.5223427212
 11
155.9962707074
 21
127.6279415673
  0
POLYLINE
  8
2_FEATURE
 62
7
  6
CONTINUOUS
 66
1
 70
0
  0
VERTEX
  8
2_FEATURE
 62
7
  6
CONTINUOUS
 10
147.9783050104
 20
128.2688265734
  0
VERTEX
  8
2_FEATURE
 62
7
  6
CONTINUOUS
 10
147.8461778115
 20
128.2860684224
  0
VERTEX
  8
2_FEATURE
 62
7
  6
CONTINUOUS
 10
147.7209445916
 20
128.3157542445
  0
VERTEX
  8
2_FEATURE
 62
7
  6
CONTINUOUS
 10
147.6042468018
 20
128.3576045853
  0
VERTEX
  8
2_FEATURE
 62
7
  6
CONTINUOUS
 10
147.4996253467
 20
128.4109105855
  0
VERTEX
  8
2_FEATURE
 62
7
  6
CONTINUOUS
 10
147.4106583707
 20
128.4746167163
  0
VERTEX
  8
2_FEATURE
 62
7
  6
CONTINUOUS
 10
147.3400950402
 20
128.5484198098
  0
VERTEX
  8
2_FEATURE
 62
7
  6
CONTINUOUS
 10
147.29192647
 20
128.6329783731
  0
VERTEX
  8
2_FEATURE
 62
7
  6
CONTINUOUS
 10
147.2743151368
 20
128.7240124053
  0
SEQEND
  0
POLYLINE
  8
0
 62
7
  6
CONTINUOUS
 66
1
 70
0
  0
VERTEX
  8
0
 62
7
  6
CONTINUOUS
 10
152.606977298
 20
127.8988502886
  0
VERTEX
  8
0
 62
7
  6
CONTINUOUS
 10
152.7727174887
 20
127.8708374973
  0
VERTEX
  8
0
 62
7
  6
CONTINUOUS
 10
152.9751498497
 20
127.7923459932
  0
VERTEX
  8
0
 62
7
  6
CONTINUOUS
 10
153.108772794
 20
127.7036288264
  0
VERTEX
  8
0
 62
7
  6
CONTINUOUS
 10
153.1432326952
 20
127.6732206528
  0
SEQEND
  0
LINE
  8
0
 62
7
  6
CONTINUOUS
 10
159.5675998854
 20
126.6059899013
 11
155.9901431216
 21
127.6284313521
  0
POLYLINE
  8
0
 62
7
  6
CONTINUOUS
 66
1
 70
0
  0
VERTEX
  8
0
 62
7
  6
CONTINUOUS
 10
146.0595952838
 20
145.7387591207
  0
VERTEX
  8
0
 62
7
  6
CONTINUOUS
 10
146.1001546231
 20
145.6768491964
  0
VERTEX
  8
0
 62
7
  6
CONTINUOUS
 10
146.1115892637
 20
145.6351481851
  0
SEQEND
  0
POLYLINE
  8
0
 62
7
  6
CONTINUOUS
 66
1
 70
0
  0
VERTEX
  8
0
 62
7
  6
CONTINUOUS
 10
156.1639507752
 20
134.9834676916
  0
VERTEX
  8
0
 62
7
  6
CONTINUOUS
 10
156.1875667328
 20
134.9375766682
  0
VERTEX
  8
0
 62
7
  6
CONTINUOUS
 10
156.2053589544
 20
134.8827219461
  0
VERTEX
  8
0
 62
7
  6
CONTINUOUS
 10
156.2200568219
 20
134.8201044953
  0
VERTEX
  8
0
 62
7
  6
CONTINUOUS
 10
156.2319125672
 20
134.7521507236
  0
VERTEX
  8
0
 62
7
  6
CONTINUOUS
 10
156.2411745139
 20
134.6790917253
  0
VERTEX
  8
0
 62
7
  6
CONTINUOUS
 10
156.2477957477
 20
134.6006707102
  0
VERTEX
  8
0
 62
7
  6
CONTINUOUS
 10
156.2514361527
 20
134.5174852232
  0
VERTEX
  8
0
 62
7
  6
CONTINUOUS
 10
156.251628375
 20
134.429489091
  0
VERTEX
  8
0
 62
7
  6
CONTINUOUS
 10
156.2476621121
 20
134.3370028742
  0
VERTEX
  8
0
 62
7
  6
CONTINUOUS
 10
156.2386164505
 20
134.2411767489
  0
VERTEX
  8
0
 62
7
  6
CONTINUOUS
 10
156.2234232517
 20
134.1440180933
  0
VERTEX
  8
0
 62
7
  6
CONTINUOUS
 10
156.2006047237
 20
134.0472556184
  0
VERTEX
  8
0
 62
7
  6
CONTINUOUS
 10
156.1684583045
 20
133.9544468282
  0
VERTEX
  8
0
 62
7
  6
CONTINUOUS
 10
156.1255423864
 20
133.8715599618
  0
SEQEND
  0
POLYLINE
  8
2_FEATURE
 62
7
  6
CONTINUOUS
 66
1
 70
0
  0
VERTEX
  8
2_FEATURE
 62
7
  6
CONTINUOUS
 10
159.8355214475
 20
108.9443555398
  0
VERTEX
  8
2_FEATURE
 62
7
  6
CONTINUOUS
 10
159.8596580487
 20
108.9656307202
  0
VERTEX
  8
2_FEATURE
 62
7
  6
CONTINUOUS
 10
159.8727451624
 20
109.0074231002
  0
VERTEX
  8
2_FEATURE
 62
7
  6
CONTINUOUS
 10
159.8806145145
 20
109.0601915148
  0
VERTEX
  8
2_FEATURE
 62
7
  6
CONTINUOUS
 10
159.8849285827
 20
109.1207573013
  0
VERTEX
  8
2_FEATURE
 62
7
  6
CONTINUOUS
 10
159.8862994833
 20
109.1875885108
  0
SEQEND
  0
LINE
  8
0
 62
7
  6
CONTINUOUS
 10
144.2829250276
 20
145.7505531535
 11
144.3012895219
 21
145.7292481182
  0
LINE
  8
0
 62
7
  6
CONTINUOUS
 10
144.3012890716
 20
145.7292484836
 11
144.4093450901
 21
145.6023923008
  0
LINE
  8
0
 62
7
  6
CONTINUOUS
 10
156.1639508036
 20
134.9834676916
 11
156.1309187876
 21
135.0283703991
  0
POLYLINE
  8
0
 62
7
  6
CONTINUOUS
 66
1
 70
0
  0
VERTEX
  8
0
 62
7
  6
CONTINUOUS
 10
156.1639507752
 20
92.8083426532
  0
VERTEX
  8
0
 62
7
  6
CONTINUOUS
 10
156.1875667328
 20
92.8542336767
  0
VERTEX
  8
0
 62
7
  6
CONTINUOUS
 10
156.2053589544
 20
92.9090883988
  0
VERTEX
  8
0
 62
7
  6
CONTINUOUS
 10
156.2200568219
 20
92.9717058495
  0
VERTEX
  8
0
 62
7
  6
CONTINUOUS
 10
156.2319125672
 20
93.0396596213
  0
VERTEX
  8
0
 62
7
  6
CONTINUOUS
 10
156.2411745139
 20
93.1127186196
  0
VERTEX
  8
0
 62
7
  6
CONTINUOUS
 10
156.2477957477
 20
93.1911396346
  0
VERTEX
  8
0
 62
7
  6
CONTINUOUS
 10
156.2514361527
 20
93.2743251217
  0
VERTEX
  8
0
 62
7
  6
CONTINUOUS
 10
156.251628375
 20
93.3623212539
  0
VERTEX
  8
0
 62
7
  6
CONTINUOUS
 10
156.2476621121
 20
93.4548074706
  0
VERTEX
  8
0
 62
7
  6
CONTINUOUS
 10
156.2386164505
 20
93.5506335959
  0
VERTEX
  8
0
 62
7
  6
CONTINUOUS
 10
156.2234232517
 20
93.6477922515
  0
VERTEX
  8
0
 62
7
  6
CONTINUOUS
 10
156.2006047237
 20
93.7445547264
  0
VERTEX
  8
0
 62
7
  6
CONTINUOUS
 10
156.1684583045
 20
93.8373635166
  0
VERTEX
  8
0
 62
7
  6
CONTINUOUS
 10
156.1255423864
 20
93.9202503831
  0
SEQEND
  0
POLYLINE
  8
0
 62
7
  6
CONTINUOUS
 66
1
 70
0
  0
VERTEX
  8
0
 62
7
  6
CONTINUOUS
 10
156.1255423864
 20
100.2715599618
  0
VERTEX
  8
0
 62
7
  6
CONTINUOUS
 10
156.0702276268
 20
100.2055494282
  0
VERTEX
  8
0
 62
7
  6
CONTINUOUS
 10
156.0321753851
 20
100.1837789895
  0
SEQEND
  0
POLYLINE
  8
0
 62
7
  6
CONTINUOUS
 66
1
 70
0
  0
VERTEX
  8
0
 62
7
  6
CONTINUOUS
 10
153.1432235078
 20
100.1185809983
  0
VERTEX
  8
0
 62
7
  6
CONTINUOUS
 10
153.1094619009
 20
100.0887503863
  0
VERTEX
  8
0
 62
7
  6
CONTINUOUS
 10
152.9776175024
 20
100.0007837873
  0
VERTEX
  8
0
 62
7
  6
CONTINUOUS
 10
152.7777789156
 20
99.9223017371
  0
VERTEX
  8
0
 62
7
  6
CONTINUOUS
 10
152.606887297
 20
99.8929527297
  0
SEQEND
  0
LINE
  8
2_FEATURE
 62
7
  6
CONTINUOUS
 10
155.7879371342
 20
101.4907688376
 11
155.7646582465
 21
101.4721525225
  0
LINE
  8
2_FEATURE
 62
7
  6
CONTINUOUS
 10
155.7646582465
 20
101.4721525225
 11
155.6987576103
 21
101.428984979
  0
POLYLINE
  8
2_FEATURE
 62
7
  6
CONTINUOUS
 66
1
 70
0
  0
VERTEX
  8
2_FEATURE
 62
7
  6
CONTINUOUS
 10
156.1309187876
 20
135.1987568267
  0
VERTEX
  8
2_FEATURE
 62
7
  6
CONTINUOUS
 10
155.986397796
 20
135.1728773243
  0
VERTEX
  8
2_FEATURE
 62
7
  6
CONTINUOUS
 10
155.8694533673
 20
135.1362915304
  0
VERTEX
  8
2_FEATURE
 62
7
  6
CONTINUOUS
 10
155.7879371342
 20
135.0907688376
  0
SEQEND
  0
POLYLINE
  8
2_FEATURE
 62
7
  6
CONTINUOUS
 66
1
 70
0
  0
VERTEX
  8
2_FEATURE
 62
7
  6
CONTINUOUS
 10
156.1309187876
 20
135.1987568267
  0
VERTEX
  8
2_FEATURE
 62
7
  6
CONTINUOUS
 10
156.9008534999
 20
135.3143397363
  0
VERTEX
  8
2_FEATURE
 62
7
  6
CONTINUOUS
 10
157.6183072922
 20
135.455002797
  0
VERTEX
  8
2_FEATURE
 62
7
  6
CONTINUOUS
 10
158.2759209585
 20
135.6196007995
  0
SEQEND
  0
LINE
  8
2_FEATURE
 62
7
  6
CONTINUOUS
 10
144.8066224822
 20
132.8694676237
 11
155.9962707074
 21
133.7638687776
  0
POLYLINE
  8
0
 62
7
  6
CONTINUOUS
 66
1
 70
0
  0
VERTEX
  8
0
 62
7
  6
CONTINUOUS
 10
155.9962707065
 20
133.7638687889
  0
VERTEX
  8
0
 62
7
  6
CONTINUOUS
 10
156.0481616011
 20
133.7478757908
  0
VERTEX
  8
0
 62
7
  6
CONTINUOUS
 10
156.097864918
 20
133.6947530633
  0
VERTEX
  8
0
 62
7
  6
CONTINUOUS
 10
156.1374372033
 20
133.6131405182
  0
VERTEX
  8
0
 62
7
  6
CONTINUOUS
 10
156.1606073964
 20
133.5161585072
  0
SEQEND
  0
LINE
  8
0
 62
7
  6
CONTINUOUS
 10
144.2646325986
 20
145.7658422451
 11
144.2829250276
 21
145.7505531535
  0
LINE
  8
0
 62
7
  6
CONTINUOUS
 10
156.1639508036
 20
92.8083426532
 11
156.1309187876
 21
92.7634399457
  0
POLYLINE
  8
2_FEATURE
 62
7
  6
CONTINUOUS
 66
1
 70
0
  0
VERTEX
  8
2_FEATURE
 62
7
  6
CONTINUOUS
 10
155.6987576103
 20
101.428984979
  0
VERTEX
  8
2_FEATURE
 62
7
  6
CONTINUOUS
 10
155.6313671434
 20
101.403747506
  0
VERTEX
  8
2_FEATURE
 62
7
  6
CONTINUOUS
 10
155.5631745396
 20
101.3968720221
  0
SEQEND
  0
LINE
  8
0
 62
7
  6
CONTINUOUS
 10
159.5675998854
 20
101.1858204436
 11
155.9901431216
 21
100.1633789927
  0
POLYLINE
  8
2_FEATURE
 62
7
  6
CONTINUOUS
 66
1
 70
0
  0
VERTEX
  8
2_FEATURE
 62
7
  6
CONTINUOUS
 10
158.7632477826
 20
135.6848994384
  0
VERTEX
  8
2_FEATURE
 62
7
  6
CONTINUOUS
 10
158.611035515
 20
135.6813473033
  0
VERTEX
  8
2_FEATURE
 62
7
  6
CONTINUOUS
 10
158.448266566
 20
135.6598306382
  0
VERTEX
  8
2_FEATURE
 62
7
  6
CONTINUOUS
 10
158.2759209585
 20
135.6196007995
  0
SEQEND
  0
LINE
  8
2_FEATURE
 62
7
  6
CONTINUOUS
 10
152.2116707653
 20
135.1139091128
 11
155.5631745396
 21
134.9968720221
  0
LINE
  8
2_FEATURE
 62
7
  6
CONTINUOUS
 10
158.7632477826
 20
135.6848994384
 11
159.835519268
 21
135.647454893
  0
POLYLINE
  8
2_FEATURE
 62
7
  6
CONTINUOUS
 66
1
 70
0
  0
VERTEX
  8
2_FEATURE
 62
7
  6
CONTINUOUS
 10
152.2116707653
 20
135.1139091128
  0
VERTEX
  8
2_FEATURE
 62
7
  6
CONTINUOUS
 10
152.1202448167
 20
135.134171095
  0
VERTEX
  8
2_FEATURE
 62
7
  6
CONTINUOUS
 10
152.030421844
 20
135.188202589
  0
VERTEX
  8
2_FEATURE
 62
7
  6
CONTINUOUS
 10
151.9438912631
 20
135.2748553148
  0
SEQEND
  0
POLYLINE
  8
0
 62
7
  6
CONTINUOUS
 66
1
 70
0
  0
VERTEX
  8
0
 62
7
  6
CONTINUOUS
 10
144.4093450901
 20
145.6023923008
  0
VERTEX
  8
0
 62
7
  6
CONTINUOUS
 10
144.6337203806
 20
145.4332199068
  0
VERTEX
  8
0
 62
7
  6
CONTINUOUS
 10
144.8989973467
 20
145.3288459297
  0
VERTEX
  8
0
 62
7
  6
CONTINUOUS
 10
145.0695363962
 20
145.3013476429
  0
SEQEND
  0
POLYLINE
  8
0
 62
7
  6
CONTINUOUS
 66
1
 70
0
  0
VERTEX
  8
0
 62
7
  6
CONTINUOUS
 10
153.1427782708
 20
144.4736504061
  0
VERTEX
  8
0
 62
7
  6
CONTINUOUS
 10
153.2236134974
 20
144.3843753021
  0
VERTEX
  8
0
 62
7
  6
CONTINUOUS
 10
153.2606719178
 20
144.329316123
  0
VERTEX
  8
0
 62
7
  6
CONTINUOUS
 10
153.2665543862
 20
144.3183968168
  0
SEQEND
  0
POLYLINE
  8
0
 62
7
  6
CONTINUOUS
 66
1
 70
0
  0
VERTEX
  8
0
 62
7
  6
CONTINUOUS
 10
144.2646157312
 20
145.7658543248
  0
VERTEX
  8
0
 62
7
  6
CONTINUOUS
 10
144.2314546159
 20
145.7868930645
  0
VERTEX
  8
0
 62
7
  6
CONTINUOUS
 10
144.2031744436
 20
145.7959048361
  0
SEQEND
  0
LINE
  8
0
 62
7
  6
CONTINUOUS
 10
156.1255423864
 20
144.3202503831
 11
156.0702276268
 21
144.3862609167
  0
LINE
  8
0
 62
7
  6
CONTINUOUS
 10
146.1605604853
 20
145.6900200417
 11
146.1822750932
 21
145.6782494599
  0
POLYLINE
  8
0
 62
7
  6
CONTINUOUS
 66
1
 70
0
  0
VERTEX
  8
0
 62
7
  6
CONTINUOUS
 10
146.0442710846
 20
145.7623545946
  0
VERTEX
  8
0
 62
7
  6
CONTINUOUS
 10
146.0775562139
 20
145.7437314395
  0
VERTEX
  8
0
 62
7
  6
CONTINUOUS
 10
146.1083567598
 20
145.7242430682
  0
VERTEX
  8
0
 62
7
  6
CONTINUOUS
 10
146.1362229125
 20
145.7057157958
  0
VERTEX
  8
0
 62
7
  6
CONTINUOUS
 10
146.1605604853
 20
145.6900200417
  0
SEQEND
  0
LINE
  8
2_FEATURE
 62
7
  6
CONTINUOUS
 10
155.6987576103
 20
143.1628253659
 11
155.7646582465
 21
143.1196578223
  0
LINE
  8
2_FEATURE
 62
7
  6
CONTINUOUS
 10
155.7879371342
 20
143.1010415072
 11
155.7646582465
 21
143.1196578223
  0
POLYLINE
  8
0
 62
7
  6
CONTINUOUS
 66
1
 70
0
  0
VERTEX
  8
0
 62
7
  6
CONTINUOUS
 10
155.9962707065
 20
94.027941556
  0
VERTEX
  8
0
 62
7
  6
CONTINUOUS
 10
156.0481616011
 20
94.043934554
  0
VERTEX
  8
0
 62
7
  6
CONTINUOUS
 10
156.097864918
 20
94.0970572815
  0
VERTEX
  8
0
 62
7
  6
CONTINUOUS
 10
156.1374372033
 20
94.1786698266
  0
VERTEX
  8
0
 62
7
  6
CONTINUOUS
 10
156.1606073964
 20
94.2756518376
  0
SEQEND
  0
LINE
  8
2_FEATURE
 62
7
  6
CONTINUOUS
 10
158.7632477826
 20
142.5069109064
 11
159.8355194112
 21
142.5443554568
  0
LINE
  8
2_FEATURE
 62
7
  6
CONTINUOUS
 10
152.2116707653
 20
143.077901232
 11
155.5631745396
 21
143.1949383228
  0
POLYLINE
  8
2_FEATURE
 62
7
  6
CONTINUOUS
 66
1
 70
0
  0
VERTEX
  8
2_FEATURE
 62
7
  6
CONTINUOUS
 10
155.5631745396
 20
143.1949383228
  0
VERTEX
  8
2_FEATURE
 62
7
  6
CONTINUOUS
 10
155.6313671434
 20
143.1880628388
  0
VERTEX
  8
2_FEATURE
 62
7
  6
CONTINUOUS
 10
155.6987576103
 20
143.1628253659
  0
SEQEND
  0
POLYLINE
  8
2_FEATURE
 62
7
  6
CONTINUOUS
 66
1
 70
0
  0
VERTEX
  8
2_FEATURE
 62
7
  6
CONTINUOUS
 10
156.1309187876
 20
142.9930535181
  0
VERTEX
  8
2_FEATURE
 62
7
  6
CONTINUOUS
 10
156.9008534808
 20
142.8774706118
  0
VERTEX
  8
2_FEATURE
 62
7
  6
CONTINUOUS
 10
157.6183072569
 20
142.7368075557
  0
VERTEX
  8
2_FEATURE
 62
7
  6
CONTINUOUS
 10
158.2759209638
 20
142.5722095455
  0
SEQEND
  0
POLYLINE
  8
2_FEATURE
 62
7
  6
CONTINUOUS
 66
1
 70
0
  0
VERTEX
  8
2_FEATURE
 62
7
  6
CONTINUOUS
 10
156.1309187876
 20
142.9930535181
  0
VERTEX
  8
2_FEATURE
 62
7
  6
CONTINUOUS
 10
155.986397796
 20
143.0189330206
  0
VERTEX
  8
2_FEATURE
 62
7
  6
CONTINUOUS
 10
155.8694533673
 20
143.0555188144
  0
VERTEX
  8
2_FEATURE
 62
7
  6
CONTINUOUS
 10
155.7879371342
 20
143.1010415072
  0
SEQEND
  0
POLYLINE
  8
2_FEATURE
 62
7
  6
CONTINUOUS
 66
1
 70
0
  0
VERTEX
  8
2_FEATURE
 62
7
  6
CONTINUOUS
 10
158.2759209585
 20
142.5722095453
  0
VERTEX
  8
2_FEATURE
 62
7
  6
CONTINUOUS
 10
158.448266566
 20
142.5319797067
  0
VERTEX
  8
2_FEATURE
 62
7
  6
CONTINUOUS
 10
158.611035515
 20
142.5104630416
  0
VERTEX
  8
2_FEATURE
 62
7
  6
CONTINUOUS
 10
158.7632477826
 20
142.5069109064
  0
SEQEND
  0
LINE
  8
0
 62
7
  6
CONTINUOUS
 10
146.1822750932
 20
145.6782494599
 11
146.2026843859
 21
145.673062026
  0
POLYLINE
  8
0
 62
7
  6
CONTINUOUS
 66
1
 70
0
  0
VERTEX
  8
0
 62
7
  6
CONTINUOUS
 10
145.9664545604
 20
145.7911778251
  0
VERTEX
  8
0
 62
7
  6
CONTINUOUS
 10
146.0072291069
 20
145.7789778612
  0
VERTEX
  8
0
 62
7
  6
CONTINUOUS
 10
146.0442710846
 20
145.7623545946
  0
SEQEND
  0
LINE
  8
0
 62
7
  6
CONTINUOUS
 10
156.0702276268
 20
144.3862609167
 11
156.0028824071
 21
144.4247904463
  0
LINE
  8
0
 62
7
  6
CONTINUOUS
 10
146.2026843859
 20
145.673062026
 11
146.3733282027
 21
145.673300879
  0
LINE
  8
0
 62
7
  6
CONTINUOUS
 10
144.0341253405
 20
145.7959051724
 11
145.9224545293
 21
145.7959051724
  0
LINE
  8
0
 62
7
  6
CONTINUOUS
 10
145.9224545248
 20
145.7959051724
 11
145.9322484158
 21
145.7955155952
  0
LINE
  8
0
 62
7
  6
CONTINUOUS
 10
145.0695348116
 20
145.3013278433
 11
155.9962707074
 21
144.4279415673
  0
LINE
  8
0
 62
7
  6
CONTINUOUS
 10
145.9322484158
 20
145.7955155952
 11
145.9664545604
 21
145.7911778251
  0
POLYLINE
  8
0
 62
7
  6
CONTINUOUS
 66
1
 70
0
  0
VERTEX
  8
0
 62
7
  6
CONTINUOUS
 10
152.606977298
 20
144.6988502886
  0
VERTEX
  8
0
 62
7
  6
CONTINUOUS
 10
152.7727174886
 20
144.6708374973
  0
VERTEX
  8
0
 62
7
  6
CONTINUOUS
 10
152.9751498497
 20
144.5923459933
  0
VERTEX
  8
0
 62
7
  6
CONTINUOUS
 10
153.108772794
 20
144.5036288264
  0
VERTEX
  8
0
 62
7
  6
CONTINUOUS
 10
153.1432326952
 20
144.4732206528
  0
SEQEND
  0
LINE
  8
0
 62
7
  6
CONTINUOUS
 10
159.5675998854
 20
143.4059899013
 11
155.9901431216
 21
144.4284313521
  0
LINE
  8
2_FEATURE
 62
7
  6
CONTINUOUS
 10
144.1862994833
 20
151.5959051724
 11
159.6362994833
 21
151.5959051724
  0
ARC
  8
2_FEATURE
 62
7
  6
CONTINUOUS
 10
52.3609285947
 20
179.0703802311
 40
50.0
 50
39.6892883661
 51
41.1762960962
  0
ARC
  8
2_FEATURE
 62
7
  6
CONTINUOUS
 10
52.3609285947
 20
179.0703802311
 40
50.0
 50
41.269082496
 51
43.0997679948
  0
ARC
  8
0
 62
7
  6
CONTINUOUS
 10
52.3609285947
 20
179.0703802311
 40
50.0
 50
36.1550324174
 51
46.2693085446
  0
ARC
  8
0
 62
7
  6
CONTINUOUS
 10
51.2766496355
 20
214.1088210351
 40
8.75
 50
29.0189816931
 51
59.4415682141
  0
ARC
  8
0
 62
7
  6
CONTINUOUS
 10
51.2766496355
 20
214.1088210351
 40
8.5
 50
109.7499227956
 51
250.2500772044
  0
ARC
  8
2_FEATURE
 62
7
  6
CONTINUOUS
 10
51.2766496355
 20
214.1088210351
 40
8.5
 50
247.5133051198
 51
250.2500772044
  0
ARC
  8
2_FEATURE
 62
7
  6
CONTINUOUS
 10
51.2766496355
 20
214.1088210351
 40
8.5
 50
213.6423293698
 51
219.6299962516
  0
ARC
  8
2_FEATURE
 62
7
  6
CONTINUOUS
 10
51.2766496355
 20
214.1088210351
 40
8.5
 50
149.1946841255
 51
212.8598491478
  0
ARC
  8
2_FEATURE
 62
7
  6
CONTINUOUS
 10
51.2766496355
 20
214.1088210351
 40
8.5
 50
109.7499227956
 51
112.5432149783
  0
ARC
  8
0
 62
7
  6
CONTINUOUS
 10
55.7766496355
 20
212.1088210351
 40
6.0
 50
270.0
 51
323.8449675826
  0
ARC
  8
2_FEATURE
 62
7
  6
CONTINUOUS
 10
55.7766496355
 20
212.1088210351
 40
6.0
 50
270.0
 51
323.8449675826
  0
ARC
  8
0
 62
7
  6
CONTINUOUS
 10
51.2766496355
 20
214.1088210351
 40
5.8
 50
13.2203423897
 51
166.7796635675
  0
CIRCLE
  8
0
 62
7
  6
CONTINUOUS
 10
51.2766496355
 20
214.1088210351
 40
4.15
  0
ARC
  8
0
 62
7
  6
CONTINUOUS
 10
59.5840105639
 20
218.7172648511
 40
0.75
 50
209.0189816931
 51
250.46
  0
ARC
  8
0
 62
7
  6
CONTINUOUS
 10
55.85240094
 20
221.8588210351
 40
0.25
 50
90.0
 51
239.4415682141
  0
ARC
  8
0
 62
7
  6
CONTINUOUS
 10
72.1915494922
 20
213.2588210351
 40
0.85
 50
16.467546793
 51
90.0
  0
ARC
  8
2_FEATURE
 62
7
  6
CONTINUOUS
 10
75.4755202912
 20
206.5588210351
 40
0.4000000001
 50
196.467546793
 51
270.0
  0
ARC
  8
0
 62
7
  6
CONTINUOUS
 10
75.4755202912
 20
206.5588210351
 40
0.4000000001
 50
196.467546793
 51
270.0
  0
ARC
  8
0
 62
7
  6
CONTINUOUS
 10
70.4988404563
 20
215.1088210351
 40
1.0
 50
250.46
 51
270.0
  0
ARC
  8
0
 62
7
  6
CONTINUOUS
 10
66.774526487
 20
214.8389296835
 40
0.500000023
 50
70.46
 51
133.7307002401
  0
ARC
  8
2_FEATURE
 62
7
  6
CONTINUOUS
 10
66.7745265838
 20
214.8389296492
 40
0.5000000123
 50
86.5994979589
 51
102.096865773
  0
ARC
  8
2_FEATURE
 62
7
  6
CONTINUOUS
 10
66.7745265838
 20
214.8389296492
 40
0.5000000123
 50
118.2378317248
 51
133.7306913483
  0
ARC
  8
0
 62
7
  6
CONTINUOUS
 10
100.9923706764
 20
179.0703802311
 40
50.0
 50
133.7306914902
 51
143.8449675826
  0
ARC
  8
2_FEATURE
 62
7
  6
CONTINUOUS
 10
77.8777789798
 20
206.5588210351
 40
0.4000000001
 50
324.2682946492
 51
343.532453207
  0
ARC
  8
2_FEATURE
 62
7
  6
CONTINUOUS
 10
77.8777789798
 20
206.5588210351
 40
0.4000000001
 50
270.0
 51
307.6815027364
  0
ARC
  8
0
 62
7
  6
CONTINUOUS
 10
77.8777789798
 20
206.5588210351
 40
0.4000000001
 50
270.0
 51
343.532453207
  0
ARC
  8
0
 62
7
  6
CONTINUOUS
 10
82.8544588147
 20
215.1088210351
 40
1.0
 50
270.0
 51
289.54
  0
ARC
  8
0
 62
7
  6
CONTINUOUS
 10
81.1617497789
 20
213.2588210351
 40
0.85
 50
90.0
 51
163.532453207
  0
ARC
  8
0
 62
7
  6
CONTINUOUS
 10
86.5787728811
 20
214.838929718
 40
0.5
 50
46.2693085446
 51
109.54
  0
ARC
  8
2_FEATURE
 62
7
  6
CONTINUOUS
 10
102.0766496355
 20
214.1088210351
 40
8.5
 50
30.1893818765
 51
70.2500772044
  0
ARC
  8
0
 62
7
  6
CONTINUOUS
 10
102.0766496355
 20
214.1088210351
 40
8.5
 50
289.7499227956
 51
70.2500772044
  0
ARC
  8
0
 62
7
  6
CONTINUOUS
 10
97.5766496355
 20
212.1088210351
 40
6.0
 50
216.1550324174
 51
270.0
  0
CIRCLE
  8
0
 62
7
  6
CONTINUOUS
 10
102.0766496355
 20
214.1088210351
 40
4.15
  0
ARC
  8
0
 62
7
  6
CONTINUOUS
 10
55.1024020506
 20
135.2954438657
 40
0.4999992149
 50
270.0000000184
 51
360.0
  0
ARC
  8
0
 62
7
  6
CONTINUOUS
 10
55.1024020505
 20
126.0963664791
 40
0.4999992149
 50
0.0000000123
 51
90.0000000055
  0
ARC
  8
0
 62
7
  6
CONTINUOUS
 10
55.1024020505
 20
142.8963664791
 40
0.4999992149
 50
0.0000000123
 51
90.0000000055
  0
ARC
  8
0
 62
7
  6
CONTINUOUS
 10
55.1024020505
 20
109.2963664791
 40
0.4999992149
 50
0.0000000123
 51
90.0000000055
  0
ARC
  8
0
 62
7
  6
CONTINUOUS
 10
55.1024020506
 20
118.4954438657
 40
0.4999992149
 50
270.0000000184
 51
360.0
  0
ARC
  8
0
 62
7
  6
CONTINUOUS
 10
55.1024020506
 20
101.6954438657
 40
0.4999992149
 50
270.0000000184
 51
360.0
  0
ARC
  8
0
 62
7
  6
CONTINUOUS
 10
55.1024020505
 20
92.4963664791
 40
0.4999992149
 50
0.0000000123
 51
90.0000000055
  0
ARC
  8
0
 62
7
  6
CONTINUOUS
 10
98.2508971665
 20
134.4963665331
 40
0.4999991796
 50
90.0000002288
 51
180.0000000792
  0
ARC
  8
0
 62
7
  6
CONTINUOUS
 10
98.2508971665
 20
126.8954438118
 40
0.4999991796
 50
179.9999999967
 51
269.9999998456
  0
ARC
  8
0
 62
7
  6
CONTINUOUS
 10
98.2508971665
 20
143.6954438118
 40
0.4999991796
 50
179.9999999967
 51
269.9999998456
  0
ARC
  8
0
 62
7
  6
CONTINUOUS
 10
98.2508971665
 20
110.0954438118
 40
0.4999991796
 50
179.9999999967
 51
269.9999998456
  0
ARC
  8
0
 62
7
  6
CONTINUOUS
 10
98.2508971665
 20
117.6963665331
 40
0.4999991796
 50
90.0000002288
 51
180.0000000792
  0
ARC
  8
0
 62
7
  6
CONTINUOUS
 10
98.2508971665
 20
100.8963665331
 40
0.4999991796
 50
90.0000002288
 51
180.0000000792
  0
ARC
  8
2_FEATURE
 62
7
  6
CONTINUOUS
 10
98.2508971665
 20
93.2954438118
 40
0.4999991796
 50
179.9999999967
 51
269.9999998456
  0
ARC
  8
0
 62
7
  6
CONTINUOUS
 10
144.8862994833
 20
89.8726468898
 40
1.0
 50
162.4581439197
 51
180.0
  0
ARC
  8
0
 62
7
  6
CONTINUOUS
 10
144.8862994833
 20
95.919163455
 40
1.0
 50
180.0
 51
218.5544639061
  0
ARC
  8
0
 62
7
  6
CONTINUOUS
 10
144.8862994833
 20
104.319163455
 40
1.0
 50
180.0
 51
197.8657588265
  0
ARC
  8
0
 62
7
  6
CONTINUOUS
 10
144.8862994833
 20
98.2726468898
 40
1.0
 50
94.57
 51
180.0
  0
ARC
  8
0
 62
7
  6
CONTINUOUS
 10
144.8862994833
 20
115.0726468898
 40
1.0
 50
94.57
 51
180.0
  0
ARC
  8
0
 62
7
  6
CONTINUOUS
 10
144.8862994833
 20
85.5959051724
 40
1.0
 50
180.0
 51
197.3912550953
  0
ARC
  8
0
 62
7
  6
CONTINUOUS
 10
144.8862994833
 20
106.6726468898
 40
1.0
 50
162.1342411735
 51
180.0
  0
ARC
  8
0
 62
7
  6
CONTINUOUS
 10
144.8862994833
 20
112.719163455
 40
1.0
 50
180.0
 51
265.43
  0
ARC
  8
0
 62
7
  6
CONTINUOUS
 10
144.1862994833
 20
84.8459051724
 40
0.25
 50
180.0
 51
269.9999999859
  0
ARC
  8
0
 62
7
  6
CONTINUOUS
 10
144.8862994833
 20
121.119163455
 40
1.0
 50
180.0
 51
197.8657588265
  0
ARC
  8
0
 62
7
  6
CONTINUOUS
 10
144.8862994833
 20
140.2726468898
 40
1.0
 50
162.8093642381
 51
180.0
  0
ARC
  8
0
 62
7
  6
CONTINUOUS
 10
144.8862994833
 20
146.319163455
 40
1.0
 50
180.0
 51
211.5510655343
  0
ARC
  8
0
 62
7
  6
CONTINUOUS
 10
144.8862994833
 20
123.4726468898
 40
1.0
 50
162.1342411735
 51
180.0
  0
ARC
  8
0
 62
7
  6
CONTINUOUS
 10
144.8862994833
 20
129.519163455
 40
1.0
 50
180.0
 51
265.43
  0
ARC
  8
0
 62
7
  6
CONTINUOUS
 10
144.8862994833
 20
137.919163455
 40
1.0
 50
180.0
 51
197.8657588265
  0
ARC
  8
0
 62
7
  6
CONTINUOUS
 10
144.8862994833
 20
131.8726468898
 40
1.0
 50
94.57
 51
180.0
  0
ARC
  8
2_FEATURE
 62
7
  6
CONTINUOUS
 10
144.8862994833
 20
150.5959051724
 40
1.0
 50
90.0
 51
180.0
  0
ARC
  8
2_FEATURE
 62
7
  6
CONTINUOUS
 10
144.1862994833
 20
151.3459051724
 40
0.25
 50
89.9999999996
 51
180.0
  0
ARC
  8
2_FEATURE
 62
7
  6
CONTINUOUS
 10
159.1362994833
 20
108.9216385913
 40
0.75
 50
0.0
 51
7.3245621856
  0
ARC
  8
2_FEATURE
 62
7
  6
CONTINUOUS
 10
159.1362994833
 20
102.0701717535
 40
0.75
 50
352.6902479994
 51
360.0
  0
ARC
  8
0
 62
7
  6
CONTINUOUS
 10
159.6362994833
 20
93.2463653685
 40
0.25
 50
254.05
 51
360.0
  0
ARC
  8
0
 62
7
  6
CONTINUOUS
 10
159.6362994833
 20
100.9454449763
 40
0.25
 50
0.0
 51
105.95
  0
ARC
  8
0
 62
7
  6
CONTINUOUS
 10
159.6362994833
 20
117.7454449763
 40
0.25
 50
0.0
 51
105.95
  0
ARC
  8
0
 62
7
  6
CONTINUOUS
 10
152.1362994833
 20
84.8459051724
 40
0.25
 50
180.0
 51
269.9999999999
  0
ARC
  8
0
 62
7
  6
CONTINUOUS
 10
159.6362994833
 20
110.0463653685
 40
0.25
 50
254.05
 51
360.0
  0
ARC
  8
0
 62
7
  6
CONTINUOUS
 10
159.6362994833
 20
84.8459051724
 40
0.25
 50
270.0
 51
360.0
  0
ARC
  8
2_FEATURE
 62
7
  6
CONTINUOUS
 10
159.1362994833
 20
135.6701717535
 40
0.75
 50
352.6902479995
 51
360.0
  0
ARC
  8
2_FEATURE
 62
7
  6
CONTINUOUS
 10
159.1362994833
 20
125.7216385913
 40
0.75
 50
0.0
 51
7.3245621856
  0
ARC
  8
2_FEATURE
 62
7
  6
CONTINUOUS
 10
159.1362994833
 20
118.8701717535
 40
0.75
 50
352.6901920107
 51
360.0
  0
ARC
  8
0
 62
7
  6
CONTINUOUS
 10
159.6362994833
 20
143.6463653685
 40
0.25
 50
254.05
 51
360.0
  0
ARC
  8
0
 62
7
  6
CONTINUOUS
 10
159.6362994833
 20
126.8463653685
 40
0.25
 50
254.05
 51
360.0
  0
ARC
  8
0
 62
7
  6
CONTINUOUS
 10
159.6362994833
 20
134.5454449763
 40
0.25
 50
0.0
 51
105.95
  0
ARC
  8
2_FEATURE
 62
7
  6
CONTINUOUS
 10
159.6362994833
 20
151.3459051724
 40
0.25
 50
0.0
 51
90.0
  0
ENDSEC
  0
EOF
