  0
SECTION
  2
HEADER
  9
$EXTMAX
 10
210.0
 20
297.0
 30
0.0
  9
$EXTMIN
 10
0.0
 20
0.0
 30
0.0
  9
$LIMMIN
 10
0.0
 20
0.0
  9
$LIMMAX
 10
210.0
 20
297.0
  9
$VIEWCTR
 10
105.0
 20
148.5
  9
$VIEWSIZE
 40
297.0
  9
$CLAYER
  8
0
  9
$LTSCALE
 40
19.36
  9
$CELTYPE
  6
BYLAYER
  9
$DIMSCALE
 40
1.0
  9
$DIMASZ
 40
3.5
  9
$DIMEXO
 40
2.2
  9
$DIMDLI
 40
13.376
  9
$DIMEXE
 40
6.336
  9
$DIMCEN
 40
3.168
  9
$DIMLFAC
 40
1.0
  9
$DIMBLK
  1
_FILLED
  9
$DIMTXT
 40
3.5
  9
$PDMODE
 70
3
  9
$PDSIZE
 40
0.3125
  9
$TILEMODE
 70
1
  0
ENDSEC
  0
SECTION
  2
TABLES
  0
TABLE
  2
LTYPE
 70
6
  0
LTYPE
  2
BYBLOCK
 70
0
  3

 72
65
 73
0
 40
0.0
  0
LTYPE
  2
BYLAYER
 70
0
  3

 72
65
 73
0
 40
0.0
  0
LTYPE
  2
CONTINUOUS
 70
64
  3
Solid line
 72
65
 73
0
 40
0.0
  0
LTYPE
  2
CENTER
 70
64
  3
____ _ ____ _ ____ _ ____ _ ____ _ ____ _ ____
 72
65
 73
4
 40
0.6
 49
0.375
 49
-0.075
 49
0.075
 49
-0.075
  0
LTYPE
  2
HIDDEN
 70
64
  3
- - - - - - - - - - - - - - - - - - - -
 72
65
 73
2
 40
0.2
 49
0.1
 49
-0.1
  0
LTYPE
  2
PHANTOM
 70
64
  3
_____ _ _ _____ _ _ _____ _ _ _____
 72
65
 73
6
 40
0.8
 49
0.45
 49
-0.05
 49
0.1
 49
-0.05
 49
0.1
 49
-0.05
  0
LTYPE
  2
DOT
 70
64
  3
. . . . . . . . . . . . . . . . . . . .
 72
65
 73
2
 40
0.2
 49
0.1
 49
-0.1
  0
LTYPE
  2
DASHED
 70
64
  3
- - - - - - - - - - - - - - - - - - - -
 72
65
 73
2
 40
0.2
 49
0.1
 49
-0.1
  0
ENDTAB
  0
TABLE
  2
LAYER
 70
36
  0
LAYER
  2
0
 70
0
 62
7
  6
CONTINUOUS
  0
LAYER
  2
DEFAULT_1
 70
0
 62
7
  6
CENTER
  0
LAYER
  2
DEFAULT_2
 70
0
 62
8
  6
HIDDEN
  0
LAYER
  2
DEFAULT_3
 70
0
 62
7
  6
PHANTOM
  0
LAYER
  2
1_AXIS
 70
0
 62
7
  6
CONTINUOUS
  0
LAYER
  2
1_DATUM_PLANE
 70
0
 62
7
  6
CONTINUOUS
  0
LAYER
  2
2_FEATURE
 70
0
 62
7
  6
CONTINUOUS
  0
LAYER
  2
3_ALL_SYMBOLS
 70
0
 62
7
  6
CONTINUOUS
  0
LAYER
  2
6_DIM
 70
0
 62
7
  6
CONTINUOUS
  0
LAYER
  2
6_NOTE
 70
0
 62
7
  6
CONTINUOUS
  0
LAYER
  2
AXES
 70
0
 62
7
  6
CONTINUOUS
  0
LAYER
  2
CSYS
 70
0
 62
7
  6
CONTINUOUS
  0
LAYER
  2
PLANES
 70
0
 62
7
  6
CONTINUOUS
  0
ENDTAB
  0
TABLE
  2
STYLE
 70
1
  0
STYLE
  2
STANDARD
 70
0
 40
0.0
 41
0.8
 50
0.0
 71
0
 42
0.2
  3
txt
  4

  0
STYLE
  2
TEXTSTYLE_1
 70
0
 40
0.0
 41
0.8
 50
0.0
 71
0
 42
0.2
  3
gdt
  4

  0
STYLE
  2
TEXTSTYLE_2
 70
0
 40
0.0
 41
0.6
 50
0.0
 71
0
 42
0.2
  3
txt
  4

  0
STYLE
  2
TEXTSTYLE_3
 70
0
 40
0.0
 41
1.0
 50
0.0
 71
0
 42
0.2
  3
ftb_____.ttf
  4

  0
STYLE
  2
TEXTSTYLE_4
 70
0
 40
0.0
 41
1.0
 50
0.0
 71
0
 42
0.2
  3
fti_____.ttf
  4

  0
STYLE
  2
TEXTSTYLE_5
 70
0
 40
0.0
 41
1.0
 50
0.0
 71
0
 42
0.2
  3
frutiger light.ttf
  4

  0
STYLE
  2
TEXTSTYLE_6
 70
0
 40
0.0
 41
0.7
 50
0.0
 71
0
 42
0.2
  3
txt
  4

  0
STYLE
  2
TEXTSTYLE_7
 70
0
 40
0.0
 41
0.7
 50
0.0
 71
0
 42
0.2
  3
txt
  4

  0
ENDTAB
  0
ENDSEC
  0
SECTION
  2
BLOCKS
  0
BLOCK
  8
0
 62
2
  6
CONTINUOUS
  2
SYMBOL_8_BL1
 70
64
 10
173.5956734183
 20
35.5937998301
  0
TEXT
  8
0
 62
7
  6
CONTINUOUS
 10
164.6539584268
 20
30.6865562072
  7
TEXTSTYLE_4
 40
1.0655737705
  1
The brand for plastic modular belts and chains
 41
1.0
 72
0
  0
LINE
  8
0
 62
7
  6
CONTINUOUS
 10
149.5737418074
 20
36.1675703219
 11
149.5737418074
 21
34.0364227809
  0
LINE
  8
0
 62
7
  6
CONTINUOUS
 10
149.8628043005
 20
31.0454914852
 11
149.8628043005
 21
31.1422825445
  0
LINE
  8
0
 62
7
  6
CONTINUOUS
 10
149.5737418074
 20
31.1100188581
 11
149.6315543091
 21
30.9164367395
  0
LINE
  8
0
 62
7
  6
CONTINUOUS
 10
150.9671844304
 20
33.9544555678
 11
150.9671844304
 21
36.1675703219
  0
LINE
  8
0
 62
7
  6
CONTINUOUS
 10
151.8862417523
 20
32.1101932727
 11
151.8862417523
 21
30.5937998301
  0
LINE
  8
0
 62
7
  6
CONTINUOUS
 10
152.1753043074
 20
30.5937998301
 11
152.1753043074
 21
31.3358647082
  0
LINE
  8
0
 62
7
  6
CONTINUOUS
 10
152.1753043074
 20
31.4649194539
 11
152.1753043074
 21
32.1101932727
  0
LINE
  8
0
 62
7
  6
CONTINUOUS
 10
149.6315543091
 20
31.3036010218
 11
149.5737418074
 21
31.1100188581
  0
LINE
  8
0
 62
7
  6
CONTINUOUS
 10
149.9784292936
 20
30.8841730531
 11
149.8628043005
 21
31.0454914852
  0
LINE
  8
0
 62
7
  6
CONTINUOUS
 10
151.0768668626
 20
31.400392081
 11
151.1346793074
 21
31.3036010218
  0
LINE
  8
0
 62
7
  6
CONTINUOUS
 10
151.4237418626
 20
31.3036010218
 11
151.3659292523
 21
31.4326557675
  0
LINE
  8
0
 62
7
  6
CONTINUOUS
 10
152.852430332
 20
36.1675703219
 11
152.852430332
 21
34.3642916334
  0
LINE
  8
0
 62
7
  6
CONTINUOUS
 10
152.852430332
 20
33.0528162235
 11
152.852430332
 21
32.3970785186
  0
LINE
  8
0
 62
7
  6
CONTINUOUS
 10
153.2159293074
 20
31.2390736489
 11
153.2159293074
 21
30.5937998301
  0
LINE
  8
0
 62
7
  6
CONTINUOUS
 10
153.5049916972
 20
30.5937998301
 11
153.5049916972
 21
31.2390736489
  0
LINE
  8
0
 62
7
  6
CONTINUOUS
 10
149.8628043005
 20
31.1422825445
 11
149.9206168074
 21
31.2713373354
  0
LINE
  8
0
 62
7
  6
CONTINUOUS
 10
149.6315543091
 20
30.9164367395
 11
149.7471793074
 21
30.7873819712
  0
LINE
  8
0
 62
7
  6
CONTINUOUS
 10
153.1581166972
 20
31.3681283946
 11
153.2159293074
 21
31.2390736489
  0
LINE
  8
0
 62
7
  6
CONTINUOUS
 10
153.9674919177
 20
30.8841730531
 11
154.0253041972
 21
30.7551182848
  0
LINE
  8
0
 62
7
  6
CONTINUOUS
 10
153.5049916972
 20
31.2390736489
 11
153.4471794177
 21
31.400392081
  0
LINE
  8
0
 62
7
  6
CONTINUOUS
 10
153.9674919177
 20
31.4326557675
 11
153.9674919177
 21
31.3681283946
  0
LINE
  8
0
 62
7
  6
CONTINUOUS
 10
153.9674919177
 20
30.9809641124
 11
153.9674919177
 21
30.8841730531
  0
LINE
  8
0
 62
7
  6
CONTINUOUS
 10
154.245872955
 20
32.3970785186
 11
154.245872955
 21
36.1675703219
  0
LINE
  8
0
 62
7
  6
CONTINUOUS
 10
154.2565543074
 20
30.8519093441
 11
154.2565543074
 21
30.9164367395
  0
LINE
  8
0
 62
7
  6
CONTINUOUS
 10
154.5737418074
 20
36.1675703219
 11
154.5737418074
 21
32.3970785186
  0
LINE
  8
0
 62
7
  6
CONTINUOUS
 10
151.3659292523
 20
30.7873819712
 11
151.4237418626
 21
30.9164367395
  0
LINE
  8
0
 62
7
  6
CONTINUOUS
 10
155.759679528
 20
30.6905909007
 11
155.7018665869
 21
30.8519093441
  0
LINE
  8
0
 62
7
  6
CONTINUOUS
 10
155.412804528
 20
31.3681283946
 11
155.412804528
 21
31.2713373354
  0
LINE
  8
0
 62
7
  6
CONTINUOUS
 10
155.412804528
 20
31.1422825445
 11
155.412804528
 21
30.9487004259
  0
LINE
  8
0
 62
7
  6
CONTINUOUS
 10
155.7018665869
 20
30.8519093441
 11
155.7018665869
 21
31.3681283946
  0
LINE
  8
0
 62
7
  6
CONTINUOUS
 10
155.9671844304
 20
32.3970785186
 11
155.9671844304
 21
34.2003572071
  0
LINE
  8
0
 62
7
  6
CONTINUOUS
 10
155.9671844304
 20
35.511832617
 11
155.9671844304
 21
36.1675703219
  0
LINE
  8
0
 62
7
  6
CONTINUOUS
 10
156.279992028
 20
32.1101932727
 11
156.279992028
 21
31.9488748406
  0
LINE
  8
0
 62
7
  6
CONTINUOUS
 10
156.279992028
 20
31.626237886
 11
156.279992028
 21
30.5937998301
  0
LINE
  8
0
 62
7
  6
CONTINUOUS
 10
156.5690540869
 20
30.5937998301
 11
156.5690540869
 21
31.626237886
  0
LINE
  8
0
 62
7
  6
CONTINUOUS
 10
156.5690540869
 20
31.9488748406
 11
156.5690540869
 21
32.1101932727
  0
LINE
  8
0
 62
7
  6
CONTINUOUS
 10
151.1346793074
 20
30.9164367395
 11
151.0768668626
 21
30.8196456577
  0
LINE
  8
0
 62
7
  6
CONTINUOUS
 10
153.4471794177
 20
31.400392081
 11
153.3893668074
 21
31.4649194539
  0
LINE
  8
0
 62
7
  6
CONTINUOUS
 10
154.3143669177
 20
30.7873819712
 11
154.2565543074
 21
30.8519093441
  0
LINE
  8
0
 62
7
  6
CONTINUOUS
 10
155.4706168074
 20
30.6583272086
 11
155.5284290869
 21
30.5937998301
  0
LINE
  8
0
 62
7
  6
CONTINUOUS
 10
155.412804528
 20
30.7551182848
 11
155.4706168074
 21
30.6583272086
  0
LINE
  8
0
 62
7
  6
CONTINUOUS
 10
155.8174918074
 20
30.5937998301
 11
155.759679528
 21
30.6905909007
  0
LINE
  8
0
 62
7
  6
CONTINUOUS
 10
155.7018665869
 20
31.3681283946
 11
155.6440543074
 21
31.4649194539
  0
LINE
  8
0
 62
7
  6
CONTINUOUS
 10
157.0315543074
 20
31.626237886
 11
157.0315543074
 21
30.5937998301
  0
LINE
  8
0
 62
7
  6
CONTINUOUS
 10
157.320617028
 20
30.5937998301
 11
157.320617028
 21
31.3358647082
  0
LINE
  8
0
 62
7
  6
CONTINUOUS
 10
157.320617028
 20
31.4649194539
 11
157.320617028
 21
31.626237886
  0
LINE
  8
0
 62
7
  6
CONTINUOUS
 10
157.852430332
 20
34.6101932727
 11
157.852430332
 21
32.3970785186
  0
LINE
  8
0
 62
7
  6
CONTINUOUS
 10
149.7471793074
 20
31.4326557675
 11
149.6315543091
 21
31.3036010218
  0
LINE
  8
0
 62
7
  6
CONTINUOUS
 10
149.9206168074
 20
31.2713373354
 11
149.9784292936
 21
31.3358647082
  0
LINE
  8
0
 62
7
  6
CONTINUOUS
 10
149.7471793074
 20
30.7873819712
 11
149.8628043005
 21
30.7228545871
  0
LINE
  8
0
 62
7
  6
CONTINUOUS
 10
150.1518667936
 20
30.7873819712
 11
149.9784292936
 21
30.8841730531
  0
LINE
  8
0
 62
7
  6
CONTINUOUS
 10
155.3549915869
 20
31.4326557675
 11
155.412804528
 21
31.3681283946
  0
LINE
  8
0
 62
7
  6
CONTINUOUS
 10
158.3034290869
 20
31.3681283946
 11
158.361242028
 21
31.2068099625
  0
LINE
  8
0
 62
7
  6
CONTINUOUS
 10
158.6503040869
 20
31.2068099625
 11
158.5924918074
 21
31.3681283946
  0
LINE
  8
0
 62
7
  6
CONTINUOUS
 10
158.361242028
 20
31.2068099625
 11
158.361242028
 21
30.5937998301
  0
LINE
  8
0
 62
7
  6
CONTINUOUS
 10
158.6503040869
 20
30.5937998301
 11
158.6503040869
 21
31.2068099625
  0
LINE
  8
0
 62
7
  6
CONTINUOUS
 10
159.1128043074
 20
31.4326557675
 11
159.1128043074
 21
31.3681283946
  0
LINE
  8
0
 62
7
  6
CONTINUOUS
 10
159.245872955
 20
32.3970785186
 11
159.245872955
 21
34.5282260596
  0
LINE
  8
0
 62
7
  6
CONTINUOUS
 10
159.5737418074
 20
36.1675703219
 11
159.5737418074
 21
32.3970785186
  0
LINE
  8
0
 62
7
  6
CONTINUOUS
 10
154.2565543074
 20
30.9164367395
 11
154.3143669177
 21
31.0132277988
  0
LINE
  8
0
 62
7
  6
CONTINUOUS
 10
149.8628043005
 20
30.7228545871
 11
150.0362418212
 21
30.6583272086
  0
LINE
  8
0
 62
7
  6
CONTINUOUS
 10
151.3659292523
 20
31.4326557675
 11
151.1924917523
 21
31.5294468267
  0
LINE
  8
0
 62
7
  6
CONTINUOUS
 10
154.0253041972
 20
30.7551182848
 11
154.1987416972
 21
30.6583272086
  0
LINE
  8
0
 62
7
  6
CONTINUOUS
 10
153.0424918074
 20
31.4326557675
 11
153.1581166972
 21
31.3681283946
  0
LINE
  8
0
 62
7
  6
CONTINUOUS
 10
153.3893668074
 20
31.4649194539
 11
153.2737419177
 21
31.5294468267
  0
LINE
  8
0
 62
7
  6
CONTINUOUS
 10
159.1128043074
 20
30.8519093441
 11
159.228429528
 21
30.7228545871
  0
LINE
  8
0
 62
7
  6
CONTINUOUS
 10
159.4596793074
 20
30.7873819712
 11
159.401867028
 21
30.8519093441
  0
LINE
  8
0
 62
7
  6
CONTINUOUS
 10
159.1128043074
 20
31.3681283946
 11
159.228429528
 21
31.2390736489
  0
LINE
  8
0
 62
7
  6
CONTINUOUS
 10
158.5924918074
 20
31.3681283946
 11
158.534679528
 21
31.4649194539
  0
LINE
  8
0
 62
7
  6
CONTINUOUS
 10
160.9628038663
 20
30.7873819712
 11
160.9628038663
 21
30.8519093441
  0
LINE
  8
0
 62
7
  6
CONTINUOUS
 10
160.9671844304
 20
32.3970785186
 11
160.9671844304
 21
36.1675703219
  0
LINE
  8
0
 62
7
  6
CONTINUOUS
 10
154.0253041972
 20
31.4971831403
 11
153.9674919177
 21
31.4326557675
  0
LINE
  8
0
 62
7
  6
CONTINUOUS
 10
150.9034292799
 20
31.4649194539
 11
151.0768668626
 21
31.400392081
  0
LINE
  8
0
 62
7
  6
CONTINUOUS
 10
155.6440543074
 20
31.4649194539
 11
155.5284290869
 21
31.5294468267
  0
LINE
  8
0
 62
7
  6
CONTINUOUS
 10
159.4596793074
 20
31.3036010218
 11
159.401867028
 21
31.3681283946
  0
LINE
  8
0
 62
7
  6
CONTINUOUS
 10
160.615929528
 20
30.9164367395
 11
160.6737418074
 21
30.8519093441
  0
LINE
  8
0
 62
7
  6
CONTINUOUS
 10
160.9628038663
 20
30.8519093441
 11
160.8471793074
 21
30.9809641124
  0
LINE
  8
0
 62
7
  6
CONTINUOUS
 10
160.615929528
 20
31.4326557675
 11
160.6737418074
 21
31.3681283946
  0
LINE
  8
0
 62
7
  6
CONTINUOUS
 10
160.9628038663
 20
31.3681283946
 11
160.8471793074
 21
31.4971831403
  0
LINE
  8
0
 62
7
  6
CONTINUOUS
 10
154.2565543074
 20
31.3681283946
 11
154.3143669177
 21
31.4326557675
  0
LINE
  8
0
 62
7
  6
CONTINUOUS
 10
154.0831168074
 20
31.1100188581
 11
153.9674919177
 21
30.9809641124
  0
LINE
  8
0
 62
7
  6
CONTINUOUS
 10
155.412804528
 20
30.9487004259
 11
155.3549915869
 21
30.8841730531
  0
LINE
  8
0
 62
7
  6
CONTINUOUS
 10
155.3549915869
 20
30.6905909007
 11
155.412804528
 21
30.7551182848
  0
LINE
  8
0
 62
7
  6
CONTINUOUS
 10
154.1987416972
 20
30.6583272086
 11
154.3143669177
 21
30.6260635193
  0
LINE
  8
0
 62
7
  6
CONTINUOUS
 10
151.1924917523
 20
31.5294468267
 11
150.9612418074
 21
31.5939741996
  0
LINE
  8
0
 62
7
  6
CONTINUOUS
 10
154.5456166972
 20
30.7228545871
 11
154.3143669177
 21
30.7873819712
  0
LINE
  8
0
 62
7
  6
CONTINUOUS
 10
153.2737419177
 20
31.5294468267
 11
153.1003044177
 21
31.5939741996
  0
LINE
  8
0
 62
7
  6
CONTINUOUS
 10
155.5284290869
 20
31.5294468267
 11
155.3549915869
 21
31.5939741996
  0
LINE
  8
0
 62
7
  6
CONTINUOUS
 10
158.187804528
 20
31.4326557675
 11
158.3034290869
 21
31.3681283946
  0
LINE
  8
0
 62
7
  6
CONTINUOUS
 10
158.534679528
 20
31.4649194539
 11
158.4190543074
 21
31.5294468267
  0
LINE
  8
0
 62
7
  6
CONTINUOUS
 10
150.0362418212
 20
30.6583272086
 11
150.2096793212
 21
30.6260635193
  0
LINE
  8
0
 62
7
  6
CONTINUOUS
 10
150.498741835
 20
30.7228545871
 11
150.1518667936
 21
30.7873819712
  0
LINE
  8
0
 62
7
  6
CONTINUOUS
 10
152.9268669177
 20
31.4649194539
 11
153.0424918074
 21
31.4326557675
  0
LINE
  8
0
 62
7
  6
CONTINUOUS
 10
155.239367028
 20
31.4649194539
 11
155.3549915869
 21
31.4326557675
  0
LINE
  8
0
 62
7
  6
CONTINUOUS
 10
159.575304528
 20
30.7551182848
 11
159.4596793074
 21
30.7873819712
  0
LINE
  8
0
 62
7
  6
CONTINUOUS
 10
158.0721793074
 20
31.4649194539
 11
158.187804528
 21
31.4326557675
  0
LINE
  8
0
 62
7
  6
CONTINUOUS
 10
159.228429528
 20
30.7228545871
 11
159.401867028
 21
30.6583272086
  0
LINE
  8
0
 62
7
  6
CONTINUOUS
 10
158.4190543074
 20
31.5294468267
 11
158.2456168074
 21
31.5939741996
  0
LINE
  8
0
 62
7
  6
CONTINUOUS
 10
159.6331168074
 20
31.2390736489
 11
159.4596793074
 21
31.3036010218
  0
LINE
  8
0
 62
7
  6
CONTINUOUS
 10
160.442492028
 20
30.9809641124
 11
160.615929528
 21
30.9164367395
  0
LINE
  8
0
 62
7
  6
CONTINUOUS
 10
160.8471793074
 20
31.4971831403
 11
160.6737418074
 21
31.5617105132
  0
LINE
  8
0
 62
7
  6
CONTINUOUS
 10
159.228429528
 20
31.2390736489
 11
159.4596793074
 21
31.1422825445
  0
LINE
  8
0
 62
7
  6
CONTINUOUS
 10
160.8471793074
 20
30.9809641124
 11
160.615929528
 21
31.0777551716
  0
LINE
  8
0
 62
7
  6
CONTINUOUS
 10
159.401867028
 20
31.3681283946
 11
159.4596793074
 21
31.4326557675
  0
LINE
  8
0
 62
7
  6
CONTINUOUS
 10
149.8628043005
 20
31.4971831403
 11
149.7471793074
 21
31.4326557675
  0
LINE
  8
0
 62
7
  6
CONTINUOUS
 10
149.9784292936
 20
31.3358647082
 11
150.1518667936
 21
31.4326557675
  0
LINE
  8
0
 62
7
  6
CONTINUOUS
 10
152.2909293626
 20
31.5294468267
 11
152.1753043074
 21
31.4649194539
  0
LINE
  8
0
 62
7
  6
CONTINUOUS
 10
152.1753043074
 20
31.3358647082
 11
152.2909293626
 21
31.400392081
  0
LINE
  8
0
 62
7
  6
CONTINUOUS
 10
151.1924917523
 20
30.6905909007
 11
151.3659292523
 21
30.7873819712
  0
LINE
  8
0
 62
7
  6
CONTINUOUS
 10
150.2096793212
 20
30.6260635193
 11
150.5565542799
 21
30.5937998301
  0
LINE
  8
0
 62
7
  6
CONTINUOUS
 10
154.3143669177
 20
30.6260635193
 11
154.5456166972
 21
30.5937998301
  0
LINE
  8
0
 62
7
  6
CONTINUOUS
 10
152.6956168074
 20
31.4971831403
 11
152.9268669177
 21
31.4649194539
  0
LINE
  8
0
 62
7
  6
CONTINUOUS
 10
155.0081169177
 20
31.4971831403
 11
155.239367028
 21
31.4649194539
  0
LINE
  8
0
 62
7
  6
CONTINUOUS
 10
159.4596793074
 20
31.1422825445
 11
160.442492028
 21
30.9809641124
  0
LINE
  8
0
 62
7
  6
CONTINUOUS
 10
160.615929528
 20
31.0777551716
 11
159.6331168074
 21
31.2390736489
  0
LINE
  8
0
 62
7
  6
CONTINUOUS
 10
153.1003044177
 20
31.5939741996
 11
152.9268669177
 21
31.626237886
  0
LINE
  8
0
 62
7
  6
CONTINUOUS
 10
159.401867028
 20
30.6583272086
 11
159.575304528
 21
30.6260635193
  0
LINE
  8
0
 62
7
  6
CONTINUOUS
 10
158.2456168074
 20
31.5939741996
 11
158.0721793074
 21
31.626237886
  0
LINE
  8
0
 62
7
  6
CONTINUOUS
 10
160.5003043074
 20
31.4649194539
 11
160.615929528
 21
31.4326557675
  0
LINE
  8
0
 62
7
  6
CONTINUOUS
 10
160.6737418074
 20
30.8519093441
 11
160.615929528
 21
30.7873819712
  0
LINE
  8
0
 62
7
  6
CONTINUOUS
 10
159.228429528
 20
31.5294468267
 11
159.1128043074
 21
31.4326557675
  0
LINE
  8
0
 62
7
  6
CONTINUOUS
 10
154.1409294177
 20
31.5617105132
 11
154.0253041972
 21
31.4971831403
  0
LINE
  8
0
 62
7
  6
CONTINUOUS
 10
154.1987416972
 20
31.1745462761
 11
154.0831168074
 21
31.1100188581
  0
LINE
  8
0
 62
7
  6
CONTINUOUS
 10
154.3143669177
 20
31.0132277988
 11
154.4299918074
 21
31.0777551716
  0
LINE
  8
0
 62
7
  6
CONTINUOUS
 10
151.8862417523
 20
30.5937998301
 11
152.1753043074
 21
30.5937998301
  0
LINE
  8
0
 62
7
  6
CONTINUOUS
 10
153.2159293074
 20
30.5937998301
 11
153.5049916972
 21
30.5937998301
  0
LINE
  8
0
 62
7
  6
CONTINUOUS
 10
154.5456166972
 20
30.5937998301
 11
154.8924916972
 21
30.5937998301
  0
LINE
  8
0
 62
7
  6
CONTINUOUS
 10
155.5284290869
 20
30.5937998301
 11
155.8174918074
 21
30.5937998301
  0
LINE
  8
0
 62
7
  6
CONTINUOUS
 10
156.279992028
 20
30.5937998301
 11
156.5690540869
 21
30.5937998301
  0
LINE
  8
0
 62
7
  6
CONTINUOUS
 10
157.0315543074
 20
30.5937998301
 11
157.320617028
 21
30.5937998301
  0
LINE
  8
0
 62
7
  6
CONTINUOUS
 10
158.361242028
 20
30.5937998301
 11
158.6503040869
 21
30.5937998301
  0
LINE
  8
0
 62
7
  6
CONTINUOUS
 10
159.922179528
 20
30.5937998301
 11
160.269054528
 21
30.5937998301
  0
LINE
  8
0
 62
7
  6
CONTINUOUS
 10
160.269054528
 20
30.7228545871
 11
159.922179528
 21
30.7228545871
  0
LINE
  8
0
 62
7
  6
CONTINUOUS
 10
154.8924916972
 20
30.7228545871
 11
154.5456166972
 21
30.7228545871
  0
LINE
  8
0
 62
7
  6
CONTINUOUS
 10
159.401867028
 20
30.8519093441
 11
159.1128043074
 21
30.8519093441
  0
LINE
  8
0
 62
7
  6
CONTINUOUS
 10
151.4237418626
 20
30.9164367395
 11
151.1346793074
 21
30.9164367395
  0
LINE
  8
0
 62
7
  6
CONTINUOUS
 10
150.498741835
 20
31.4971831403
 11
150.9034292799
 21
31.4649194539
  0
LINE
  8
0
 62
7
  6
CONTINUOUS
 10
150.9612418074
 20
31.5939741996
 11
150.5565542799
 21
31.626237886
  0
LINE
  8
0
 62
7
  6
CONTINUOUS
 10
159.575304528
 20
30.6260635193
 11
159.922179528
 21
30.5937998301
  0
LINE
  8
0
 62
7
  6
CONTINUOUS
 10
159.922179528
 20
30.7228545871
 11
159.575304528
 21
30.7551182848
  0
LINE
  8
0
 62
7
  6
CONTINUOUS
 10
155.3549915869
 20
31.5939741996
 11
155.0081169177
 21
31.626237886
  0
LINE
  8
0
 62
7
  6
CONTINUOUS
 10
160.1534293074
 20
31.4971831403
 11
160.5003043074
 21
31.4649194539
  0
LINE
  8
0
 62
7
  6
CONTINUOUS
 10
160.5003043074
 20
31.5939741996
 11
160.1534293074
 21
31.626237886
  0
LINE
  8
0
 62
7
  6
CONTINUOUS
 10
157.840929528
 20
31.4971831403
 11
158.0721793074
 21
31.4649194539
  0
LINE
  8
0
 62
7
  6
CONTINUOUS
 10
160.6737418074
 20
31.5617105132
 11
160.5003043074
 21
31.5939741996
  0
LINE
  8
0
 62
7
  6
CONTINUOUS
 10
160.8471793074
 20
30.6905909007
 11
160.9628038663
 21
30.7873819712
  0
LINE
  8
0
 62
7
  6
CONTINUOUS
 10
155.3549915869
 20
30.8841730531
 11
155.1815540869
 21
30.7873819712
  0
LINE
  8
0
 62
7
  6
CONTINUOUS
 10
157.4362415869
 20
31.5294468267
 11
157.320617028
 21
31.4649194539
  0
LINE
  8
0
 62
7
  6
CONTINUOUS
 10
157.320617028
 20
31.3358647082
 11
157.4362415869
 21
31.400392081
  0
LINE
  8
0
 62
7
  6
CONTINUOUS
 10
150.0362418212
 20
31.5617105132
 11
149.8628043005
 21
31.4971831403
  0
LINE
  8
0
 62
7
  6
CONTINUOUS
 10
152.4643666972
 20
31.5939741996
 11
152.2909293626
 21
31.5294468267
  0
LINE
  8
0
 62
7
  6
CONTINUOUS
 10
152.2909293626
 20
31.400392081
 11
152.4643666972
 21
31.4649194539
  0
LINE
  8
0
 62
7
  6
CONTINUOUS
 10
151.0768668626
 20
30.8196456577
 11
150.9034292799
 21
30.7551182848
  0
LINE
  8
0
 62
7
  6
CONTINUOUS
 10
160.5003043074
 20
30.7551182848
 11
160.269054528
 21
30.7228545871
  0
LINE
  8
0
 62
7
  6
CONTINUOUS
 10
154.8924916972
 20
30.5937998301
 11
155.1815540869
 21
30.6260635193
  0
LINE
  8
0
 62
7
  6
CONTINUOUS
 10
160.269054528
 20
30.5937998301
 11
160.615929528
 21
30.6260635193
  0
LINE
  8
0
 62
7
  6
CONTINUOUS
 10
150.5565542799
 20
30.5937998301
 11
150.9612418074
 21
30.6260635193
  0
LINE
  8
0
 62
7
  6
CONTINUOUS
 10
150.9034292799
 20
30.7551182848
 11
150.498741835
 21
30.7228545871
  0
LINE
  8
0
 62
7
  6
CONTINUOUS
 10
154.7768668074
 20
31.1422825445
 11
155.412804528
 21
31.1422825445
  0
LINE
  8
0
 62
7
  6
CONTINUOUS
 10
155.412804528
 20
31.2713373354
 11
154.7768668074
 21
31.2713373354
  0
LINE
  8
0
 62
7
  6
CONTINUOUS
 10
151.1346793074
 20
31.3036010218
 11
151.4237418626
 21
31.3036010218
  0
LINE
  8
0
 62
7
  6
CONTINUOUS
 10
153.9674919177
 20
31.3681283946
 11
154.2565543074
 21
31.3681283946
  0
LINE
  8
0
 62
7
  6
CONTINUOUS
 10
160.6737418074
 20
31.3681283946
 11
160.9628038663
 21
31.3681283946
  0
LINE
  8
0
 62
7
  6
CONTINUOUS
 10
154.6612419177
 20
31.4971831403
 11
155.0081169177
 21
31.4971831403
  0
LINE
  8
0
 62
7
  6
CONTINUOUS
 10
159.8065543074
 20
31.4971831403
 11
160.1534293074
 21
31.4971831403
  0
LINE
  8
0
 62
7
  6
CONTINUOUS
 10
160.1534293074
 20
31.626237886
 11
159.8065543074
 21
31.626237886
  0
LINE
  8
0
 62
7
  6
CONTINUOUS
 10
158.0721793074
 20
31.626237886
 11
157.840929528
 21
31.626237886
  0
LINE
  8
0
 62
7
  6
CONTINUOUS
 10
157.320617028
 20
31.626237886
 11
157.0315543074
 21
31.626237886
  0
LINE
  8
0
 62
7
  6
CONTINUOUS
 10
156.5690540869
 20
31.626237886
 11
156.279992028
 21
31.626237886
  0
LINE
  8
0
 62
7
  6
CONTINUOUS
 10
155.0081169177
 20
31.626237886
 11
154.6612419177
 21
31.626237886
  0
LINE
  8
0
 62
7
  6
CONTINUOUS
 10
152.9268669177
 20
31.626237886
 11
152.6956168074
 21
31.626237886
  0
LINE
  8
0
 62
7
  6
CONTINUOUS
 10
156.279992028
 20
31.9488748406
 11
156.5690540869
 21
31.9488748406
  0
LINE
  8
0
 62
7
  6
CONTINUOUS
 10
156.5690540869
 20
32.1101932727
 11
156.279992028
 21
32.1101932727
  0
LINE
  8
0
 62
7
  6
CONTINUOUS
 10
152.1753043074
 20
32.1101932727
 11
151.8862417523
 21
32.1101932727
  0
LINE
  8
0
 62
7
  6
CONTINUOUS
 10
151.2130860697
 20
32.3970785186
 11
151.6256574183
 21
32.3970785186
  0
LINE
  8
0
 62
7
  6
CONTINUOUS
 10
152.852430332
 20
32.3970785186
 11
154.245872955
 21
32.3970785186
  0
LINE
  8
0
 62
7
  6
CONTINUOUS
 10
154.5737418074
 20
32.3970785186
 11
155.9671844304
 21
32.3970785186
  0
LINE
  8
0
 62
7
  6
CONTINUOUS
 10
157.852430332
 20
32.3970785186
 11
159.245872955
 21
32.3970785186
  0
LINE
  8
0
 62
7
  6
CONTINUOUS
 10
159.5737418074
 20
32.3970785186
 11
160.9671844304
 21
32.3970785186
  0
LINE
  8
0
 62
7
  6
CONTINUOUS
 10
157.6096790869
 20
31.5939741996
 11
157.4362415869
 21
31.5294468267
  0
LINE
  8
0
 62
7
  6
CONTINUOUS
 10
155.1815540869
 20
30.6260635193
 11
155.3549915869
 21
30.6905909007
  0
LINE
  8
0
 62
7
  6
CONTINUOUS
 10
160.615929528
 20
30.6260635193
 11
160.8471793074
 21
30.6905909007
  0
LINE
  8
0
 62
7
  6
CONTINUOUS
 10
160.615929528
 20
30.7873819712
 11
160.5003043074
 21
30.7551182848
  0
LINE
  8
0
 62
7
  6
CONTINUOUS
 10
159.575304528
 20
31.4649194539
 11
159.8065543074
 21
31.4971831403
  0
LINE
  8
0
 62
7
  6
CONTINUOUS
 10
157.6096790869
 20
31.4649194539
 11
157.840929528
 21
31.4971831403
  0
LINE
  8
0
 62
7
  6
CONTINUOUS
 10
154.5456166972
 20
31.1100188581
 11
154.7768668074
 21
31.1422825445
  0
LINE
  8
0
 62
7
  6
CONTINUOUS
 10
157.840929528
 20
31.626237886
 11
157.6096790869
 21
31.5939741996
  0
LINE
  8
0
 62
7
  6
CONTINUOUS
 10
154.4299918074
 20
31.4649194539
 11
154.6612419177
 21
31.4971831403
  0
LINE
  8
0
 62
7
  6
CONTINUOUS
 10
159.8065543074
 20
31.626237886
 11
159.4596793074
 21
31.5939741996
  0
LINE
  8
0
 62
7
  6
CONTINUOUS
 10
154.7768668074
 20
31.2713373354
 11
154.4299918074
 21
31.2390736489
  0
LINE
  8
0
 62
7
  6
CONTINUOUS
 10
150.5565542799
 20
31.626237886
 11
150.2096793212
 21
31.5939741996
  0
LINE
  8
0
 62
7
  6
CONTINUOUS
 10
154.6612419177
 20
31.626237886
 11
154.2565543074
 21
31.5939741996
  0
LINE
  8
0
 62
7
  6
CONTINUOUS
 10
152.0327582009
 20
33.5446195022
 11
151.3770204959
 21
33.5446195022
  0
LINE
  8
0
 62
7
  6
CONTINUOUS
 10
157.4362415869
 20
31.400392081
 11
157.6096790869
 21
31.4649194539
  0
LINE
  8
0
 62
7
  6
CONTINUOUS
 10
159.4596793074
 20
31.4326557675
 11
159.575304528
 21
31.4649194539
  0
LINE
  8
0
 62
7
  6
CONTINUOUS
 10
159.4596793074
 20
31.5939741996
 11
159.228429528
 21
31.5294468267
  0
LINE
  8
0
 62
7
  6
CONTINUOUS
 10
155.1815540869
 20
30.7873819712
 11
154.8924916972
 21
30.7228545871
  0
LINE
  8
0
 62
7
  6
CONTINUOUS
 10
152.4643666972
 20
31.4649194539
 11
152.6956168074
 21
31.4971831403
  0
LINE
  8
0
 62
7
  6
CONTINUOUS
 10
152.6956168074
 20
31.626237886
 11
152.4643666972
 21
31.5939741996
  0
LINE
  8
0
 62
7
  6
CONTINUOUS
 10
150.2674918074
 20
31.4649194539
 11
150.498741835
 21
31.4971831403
  0
LINE
  8
0
 62
7
  6
CONTINUOUS
 10
156.7868565615
 20
35.0200293383
 11
157.4425942664
 21
35.0200293383
  0
LINE
  8
0
 62
7
  6
CONTINUOUS
 10
154.4299918074
 20
31.0777551716
 11
154.5456166972
 21
31.1100188581
  0
LINE
  8
0
 62
7
  6
CONTINUOUS
 10
154.4299918074
 20
31.2390736489
 11
154.1987416972
 21
31.1745462761
  0
LINE
  8
0
 62
7
  6
CONTINUOUS
 10
154.3143669177
 20
31.4326557675
 11
154.4299918074
 21
31.4649194539
  0
LINE
  8
0
 62
7
  6
CONTINUOUS
 10
150.9612418074
 20
30.6260635193
 11
151.1924917523
 21
30.6905909007
  0
LINE
  8
0
 62
7
  6
CONTINUOUS
 10
154.2565543074
 20
31.5939741996
 11
154.1409294177
 21
31.5617105132
  0
LINE
  8
0
 62
7
  6
CONTINUOUS
 10
150.2096793212
 20
31.5939741996
 11
150.0362418212
 21
31.5617105132
  0
LINE
  8
0
 62
7
  6
CONTINUOUS
 10
160.9671844304
 20
36.1675703219
 11
159.5737418074
 21
36.1675703219
  0
LINE
  8
0
 62
7
  6
CONTINUOUS
 10
157.6065286927
 20
36.1675703219
 11
157.1939573441
 21
36.1675703219
  0
LINE
  8
0
 62
7
  6
CONTINUOUS
 10
155.9671844304
 20
36.1675703219
 11
154.5737418074
 21
36.1675703219
  0
LINE
  8
0
 62
7
  6
CONTINUOUS
 10
154.245872955
 20
36.1675703219
 11
152.852430332
 21
36.1675703219
  0
LINE
  8
0
 62
7
  6
CONTINUOUS
 10
150.9671844304
 20
36.1675703219
 11
149.5737418074
 21
36.1675703219
  0
LINE
  8
0
 62
7
  6
CONTINUOUS
 10
150.1518667936
 20
31.4326557675
 11
150.2674918074
 21
31.4649194539
  0
CIRCLE
  8
0
 62
7
  6
CONTINUOUS
 10
160.2704631189
 20
38.5036358957
 40
2.0901639344
  0
ARC
  8
0
 62
7
  6
CONTINUOUS
 10
151.2130860697
 20
34.0364227809
 40
1.6393442623
 50
180.0
 51
270.0
  0
ARC
  8
0
 62
7
  6
CONTINUOUS
 10
157.6065286927
 20
34.5282260596
 40
1.6393442623
 50
0.0
 51
90.0
  0
ARC
  8
0
 62
7
  6
CONTINUOUS
 10
151.6256574183
 20
33.8724883547
 40
1.4754098361
 50
270.0
 51
326.2510114041
  0
ARC
  8
0
 62
7
  6
CONTINUOUS
 10
157.1939573441
 20
34.6921604858
 40
1.4754098361
 50
90.0
 51
146.2510114041
  0
ARC
  8
0
 62
7
  6
CONTINUOUS
 10
152.0327582009
 20
34.3642916334
 40
0.8196721311
 50
270.0
 51
360.0
  0
ARC
  8
0
 62
7
  6
CONTINUOUS
 10
156.7868565615
 20
34.2003572071
 40
0.8196721311
 50
90.0
 51
180.0
  0
ARC
  8
0
 62
7
  6
CONTINUOUS
 10
151.3770204959
 20
33.9544555678
 40
0.4098360656
 50
180.0
 51
270.0
  0
ARC
  8
0
 62
7
  6
CONTINUOUS
 10
157.4425942664
 20
34.6101932727
 40
0.4098360656
 50
0.0
 51
90.0
  0
SOLID
  8
0
 62
7
  6
CONTINUOUS
 10
156.279992028
 20
31.9488752009
 11
156.279992028
 21
32.1101936845
 12
156.5690540869
 22
31.9488752009
 13
156.5690540869
 23
32.1101936845
  0
SOLID
  8
0
 62
7
  6
CONTINUOUS
 10
150.5565542799
 20
31.6262382337
 11
150.9612418074
 21
31.5939740028
 12
150.2096793212
 22
31.5939740028
 13
150.2096793212
 23
31.5939740028
  0
SOLID
  8
0
 62
7
  6
CONTINUOUS
 10
150.0362418212
 20
31.5617111435
 11
150.2096793212
 21
31.5939740028
 12
150.9612418074
 22
31.5939740028
 13
150.9612418074
 23
31.5939740028
  0
SOLID
  8
0
 62
7
  6
CONTINUOUS
 10
150.9612418074
 20
31.5939740028
 11
151.1924917523
 21
31.5294468402
 12
150.0362418212
 22
31.5617111435
 13
150.0362418212
 23
31.5617111435
  0
SOLID
  8
0
 62
7
  6
CONTINUOUS
 10
149.8628043005
 20
31.49718259
 11
150.0362418212
 21
31.5617111435
 12
151.1924917523
 22
31.5294468402
 13
151.1924917523
 23
31.5294468402
  0
SOLID
  8
0
 62
7
  6
CONTINUOUS
 10
149.8628043005
 20
31.49718259
 11
151.1924917523
 21
31.5294468402
 12
150.498741835
 22
31.49718259
 13
150.498741835
 23
31.49718259
  0
SOLID
  8
0
 62
7
  6
CONTINUOUS
 10
150.498741835
 20
31.49718259
 11
151.1924917523
 21
31.5294468402
 12
150.9034292799
 22
31.4649197501
 13
150.9034292799
 23
31.4649197501
  0
SOLID
  8
0
 62
7
  6
CONTINUOUS
 10
151.1924917523
 20
31.5294468402
 11
151.3659292523
 21
31.4326554468
 12
150.9034292799
 22
31.4649197501
 13
150.9034292799
 23
31.4649197501
  0
SOLID
  8
0
 62
7
  6
CONTINUOUS
 10
151.0768668626
 20
31.4003926599
 11
150.9034292799
 21
31.4649197501
 12
151.3659292523
 22
31.4326554468
 13
151.3659292523
 23
31.4326554468
  0
SOLID
  8
0
 62
7
  6
CONTINUOUS
 10
151.0768668626
 20
31.4003926599
 11
151.3659292523
 21
31.4326554468
 12
151.1346793074
 22
31.3036013776
 13
151.1346793074
 23
31.3036013776
  0
SOLID
  8
0
 62
7
  6
CONTINUOUS
 10
151.3659292523
 20
31.4326554468
 11
151.4237418626
 21
31.3036013776
 12
151.1346793074
 22
31.3036013776
 13
151.1346793074
 23
31.3036013776
  0
SOLID
  8
0
 62
7
  6
CONTINUOUS
 10
152.4643666972
 20
31.5939739754
 11
152.6956168074
 21
31.6262382787
 12
152.9268669177
 22
31.6262382787
 13
152.9268669177
 23
31.6262382787
  0
SOLID
  8
0
 62
7
  6
CONTINUOUS
 10
152.9268669177
 20
31.6262382787
 11
153.1003044177
 21
31.5939739754
 12
152.4643666972
 22
31.5939739754
 13
152.4643666972
 23
31.5939739754
  0
SOLID
  8
0
 62
7
  6
CONTINUOUS
 10
152.2909293626
 20
31.5294468852
 11
152.4643666972
 21
31.5939739754
 12
153.1003044177
 22
31.5939739754
 13
153.1003044177
 23
31.5939739754
  0
SOLID
  8
0
 62
7
  6
CONTINUOUS
 10
153.1003044177
 20
31.5939739754
 11
153.2737419177
 21
31.5294468852
 12
152.2909293626
 22
31.5294468852
 13
152.2909293626
 23
31.5294468852
  0
SOLID
  8
0
 62
7
  6
CONTINUOUS
 10
153.2737419177
 20
31.5294468852
 11
152.6956168074
 21
31.4971825369
 12
152.2909293626
 22
31.5294468852
 13
152.2909293626
 23
31.5294468852
  0
SOLID
  8
0
 62
7
  6
CONTINUOUS
 10
152.1753043074
 20
31.4649197951
 11
152.2909293626
 21
31.5294468852
 12
152.6956168074
 22
31.4971825369
 13
152.6956168074
 23
31.4971825369
  0
SOLID
  8
0
 62
7
  6
CONTINUOUS
 10
152.6956168074
 20
31.4971825369
 11
152.4643666972
 21
31.4649197951
 12
152.1753043074
 22
31.4649197951
 13
152.1753043074
 23
31.4649197951
  0
SOLID
  8
0
 62
7
  6
CONTINUOUS
 10
152.6956168074
 20
31.4971825369
 11
153.2737419177
 21
31.5294468852
 12
152.9268669177
 22
31.4649197951
 13
152.9268669177
 23
31.4649197951
  0
SOLID
  8
0
 62
7
  6
CONTINUOUS
 10
153.2737419177
 20
31.5294468852
 11
153.3893668074
 21
31.4649197951
 12
152.9268669177
 22
31.4649197951
 13
152.9268669177
 23
31.4649197951
  0
SOLID
  8
0
 62
7
  6
CONTINUOUS
 10
153.0424918074
 20
31.4326554468
 11
152.9268669177
 21
31.4649197951
 12
153.3893668074
 22
31.4649197951
 13
153.3893668074
 23
31.4649197951
  0
SOLID
  8
0
 62
7
  6
CONTINUOUS
 10
153.3893668074
 20
31.4649197951
 11
153.4471794177
 21
31.4003927049
 12
153.0424918074
 22
31.4326554468
 13
153.0424918074
 23
31.4326554468
  0
SOLID
  8
0
 62
7
  6
CONTINUOUS
 10
153.1581166972
 20
31.3681283566
 11
153.0424918074
 21
31.4326554468
 12
153.4471794177
 22
31.4003927049
 13
153.4471794177
 23
31.4003927049
  0
SOLID
  8
0
 62
7
  6
CONTINUOUS
 10
153.1581166972
 20
31.3681283566
 11
153.4471794177
 21
31.4003927049
 12
153.2159293074
 22
31.2390742213
 13
153.2159293074
 23
31.2390742213
  0
SOLID
  8
0
 62
7
  6
CONTINUOUS
 10
153.4471794177
 20
31.4003927049
 11
153.5049916972
 21
31.2390742213
 12
153.2159293074
 22
31.2390742213
 13
153.2159293074
 23
31.2390742213
  0
SOLID
  8
0
 62
7
  6
CONTINUOUS
 10
152.4643666972
 20
31.4649197951
 11
152.2909293626
 21
31.4003927049
 12
152.1753043074
 22
31.4649197951
 13
152.1753043074
 23
31.4649197951
  0
SOLID
  8
0
 62
7
  6
CONTINUOUS
 10
152.2909293626
 20
31.4003927049
 11
152.1753043074
 21
31.3358640533
 12
152.1753043074
 22
31.4649197951
 13
152.1753043074
 23
31.4649197951
  0
SOLID
  8
0
 62
7
  6
CONTINUOUS
 10
152.1753043074
 20
31.3358640533
 11
151.8862417523
 21
30.5938002869
 12
152.1753043074
 22
31.4649197951
 13
152.1753043074
 23
31.4649197951
  0
SOLID
  8
0
 62
7
  6
CONTINUOUS
 10
152.1753043074
 20
31.4649197951
 11
151.8862417523
 21
30.5938002869
 12
152.1753043074
 22
32.1101937295
 13
152.1753043074
 23
32.1101937295
  0
SOLID
  8
0
 62
7
  6
CONTINUOUS
 10
151.8862417523
 20
30.5938002869
 11
151.8862417523
 21
32.1101937295
 12
152.1753043074
 22
32.1101937295
 13
152.1753043074
 23
32.1101937295
  0
SOLID
  8
0
 62
7
  6
CONTINUOUS
 10
152.1753043074
 20
31.3358640533
 11
152.1753043074
 21
30.5938002869
 12
151.8862417523
 22
30.5938002869
 13
151.8862417523
 23
30.5938002869
  0
SOLID
  8
0
 62
7
  6
CONTINUOUS
 10
153.2159293074
 20
30.5938002869
 11
153.2159293074
 21
31.2390742213
 12
153.5049916972
 22
31.2390742213
 13
153.5049916972
 23
31.2390742213
  0
SOLID
  8
0
 62
7
  6
CONTINUOUS
 10
153.5049916972
 20
31.2390742213
 11
153.5049916972
 21
30.5938002869
 12
153.2159293074
 22
30.5938002869
 13
153.2159293074
 23
30.5938002869
  0
SOLID
  8
0
 62
7
  6
CONTINUOUS
 10
154.2565543074
 20
31.5939738288
 11
154.6612419177
 21
31.6262385959
 12
155.0081169177
 22
31.6262385959
 13
155.0081169177
 23
31.6262385959
  0
SOLID
  8
0
 62
7
  6
CONTINUOUS
 10
155.0081169177
 20
31.6262385959
 11
155.3549915869
 21
31.5939738288
 12
154.2565543074
 22
31.5939738288
 13
154.2565543074
 23
31.5939738288
  0
SOLID
  8
0
 62
7
  6
CONTINUOUS
 10
154.1409294177
 20
31.5617111435
 11
154.2565543074
 21
31.5939738288
 12
155.3549915869
 22
31.5939738288
 13
155.3549915869
 23
31.5939738288
  0
SOLID
  8
0
 62
7
  6
CONTINUOUS
 10
155.3549915869
 20
31.5939738288
 11
155.5284290869
 21
31.5294468402
 12
154.1409294177
 22
31.5617111435
 13
154.1409294177
 23
31.5617111435
  0
SOLID
  8
0
 62
7
  6
CONTINUOUS
 10
154.0253041972
 20
31.4971826249
 11
154.1409294177
 21
31.5617111435
 12
155.5284290869
 22
31.5294468402
 13
155.5284290869
 23
31.5294468402
  0
SOLID
  8
0
 62
7
  6
CONTINUOUS
 10
154.0253041972
 20
31.4971826249
 11
155.5284290869
 21
31.5294468402
 12
154.6612419177
 22
31.4971826249
 13
154.6612419177
 23
31.4971826249
  0
SOLID
  8
0
 62
7
  6
CONTINUOUS
 10
154.6612419177
 20
31.4971826249
 11
155.5284290869
 21
31.5294468402
 12
155.0081169177
 22
31.4971826249
 13
155.0081169177
 23
31.4971826249
  0
SOLID
  8
0
 62
7
  6
CONTINUOUS
 10
155.0081169177
 20
31.4971826249
 11
155.5284290869
 21
31.5294468402
 12
155.239367028
 22
31.4649194065
 13
155.239367028
 23
31.4649194065
  0
SOLID
  8
0
 62
7
  6
CONTINUOUS
 10
155.5284290869
 20
31.5294468402
 11
155.6440543074
 21
31.4649194065
 12
155.239367028
 22
31.4649194065
 13
155.239367028
 23
31.4649194065
  0
SOLID
  8
0
 62
7
  6
CONTINUOUS
 10
153.9674919177
 20
31.4326554138
 11
154.0253041972
 21
31.4971826249
 12
154.6612419177
 22
31.4971826249
 13
154.6612419177
 23
31.4971826249
  0
SOLID
  8
0
 62
7
  6
CONTINUOUS
 10
155.3549915869
 20
31.4326554138
 11
155.239367028
 21
31.4649194065
 12
155.6440543074
 22
31.4649194065
 13
155.6440543074
 23
31.4649194065
  0
SOLID
  8
0
 62
7
  6
CONTINUOUS
 10
155.3549915869
 20
31.4326554138
 11
155.6440543074
 21
31.4649194065
 12
155.412804528
 22
31.3681282026
 13
155.412804528
 23
31.3681282026
  0
SOLID
  8
0
 62
7
  6
CONTINUOUS
 10
155.6440543074
 20
31.4649194065
 11
155.7018665869
 21
31.3681282026
 12
155.412804528
 22
31.3681282026
 13
155.412804528
 23
31.3681282026
  0
SOLID
  8
0
 62
7
  6
CONTINUOUS
 10
155.412804528
 20
31.2713369632
 11
155.412804528
 21
31.3681282026
 12
155.7018665869
 22
31.3681282026
 13
155.7018665869
 23
31.3681282026
  0
SOLID
  8
0
 62
7
  6
CONTINUOUS
 10
155.412804528
 20
31.2713369632
 11
155.7018665869
 21
31.3681282026
 12
155.412804528
 22
31.1422827828
 13
155.412804528
 23
31.1422827828
  0
SOLID
  8
0
 62
7
  6
CONTINUOUS
 10
155.412804528
 20
31.1422827828
 11
155.7018665869
 21
31.3681282026
 12
155.412804528
 22
30.9487004259
 13
155.412804528
 23
30.9487004259
  0
SOLID
  8
0
 62
7
  6
CONTINUOUS
 10
155.7018665869
 20
31.3681282026
 11
155.7018665869
 21
30.8519086025
 12
155.412804528
 22
30.9487004259
 13
155.412804528
 23
30.9487004259
  0
SOLID
  8
0
 62
7
  6
CONTINUOUS
 10
157.6096790869
 20
31.5939736268
 11
157.840929528
 21
31.6262383465
 12
158.0721793074
 22
31.6262383465
 13
158.0721793074
 23
31.6262383465
  0
SOLID
  8
0
 62
7
  6
CONTINUOUS
 10
158.0721793074
 20
31.6262383465
 11
158.2456168074
 21
31.5939736268
 12
157.6096790869
 22
31.5939736268
 13
157.6096790869
 23
31.5939736268
  0
SOLID
  8
0
 62
7
  6
CONTINUOUS
 10
157.4362415869
 20
31.5294472848
 11
157.6096790869
 21
31.5939736268
 12
158.2456168074
 22
31.5939736268
 13
158.2456168074
 23
31.5939736268
  0
SOLID
  8
0
 62
7
  6
CONTINUOUS
 10
158.2456168074
 20
31.5939736268
 11
158.4190543074
 21
31.5294472848
 12
157.4362415869
 22
31.5294472848
 13
157.4362415869
 23
31.5294472848
  0
SOLID
  8
0
 62
7
  6
CONTINUOUS
 10
158.4190543074
 20
31.5294472848
 11
157.840929528
 21
31.4971825369
 12
157.4362415869
 22
31.5294472848
 13
157.4362415869
 23
31.5294472848
  0
SOLID
  8
0
 62
7
  6
CONTINUOUS
 10
157.320617028
 20
31.4649199103
 11
157.4362415869
 21
31.5294472848
 12
157.840929528
 22
31.4971825369
 13
157.840929528
 23
31.4971825369
  0
SOLID
  8
0
 62
7
  6
CONTINUOUS
 10
157.840929528
 20
31.4971825369
 11
157.6096790869
 21
31.4649199103
 12
157.320617028
 22
31.4649199103
 13
157.320617028
 23
31.4649199103
  0
SOLID
  8
0
 62
7
  6
CONTINUOUS
 10
157.840929528
 20
31.4971825369
 11
158.4190543074
 21
31.5294472848
 12
158.0721793074
 22
31.4649199103
 13
158.0721793074
 23
31.4649199103
  0
SOLID
  8
0
 62
7
  6
CONTINUOUS
 10
158.4190543074
 20
31.5294472848
 11
158.534679528
 21
31.4649199103
 12
158.0721793074
 22
31.4649199103
 13
158.0721793074
 23
31.4649199103
  0
SOLID
  8
0
 62
7
  6
CONTINUOUS
 10
158.187804528
 20
31.4326554468
 11
158.0721793074
 21
31.4649199103
 12
158.534679528
 22
31.4649199103
 13
158.534679528
 23
31.4649199103
  0
SOLID
  8
0
 62
7
  6
CONTINUOUS
 10
158.187804528
 20
31.4326554468
 11
158.534679528
 21
31.4649199103
 12
158.3034290869
 22
31.3681288486
 13
158.3034290869
 23
31.3681288486
  0
SOLID
  8
0
 62
7
  6
CONTINUOUS
 10
158.534679528
 20
31.4649199103
 11
158.5924918074
 21
31.3681288486
 12
158.3034290869
 22
31.3681288486
 13
158.3034290869
 23
31.3681288486
  0
SOLID
  8
0
 62
7
  6
CONTINUOUS
 10
158.361242028
 20
31.2068093799
 11
158.3034290869
 21
31.3681288486
 12
158.5924918074
 22
31.3681288486
 13
158.5924918074
 23
31.3681288486
  0
SOLID
  8
0
 62
7
  6
CONTINUOUS
 10
158.5924918074
 20
31.3681288486
 11
158.6503040869
 21
31.2068093799
 12
158.361242028
 22
31.2068093799
 13
158.361242028
 23
31.2068093799
  0
SOLID
  8
0
 62
7
  6
CONTINUOUS
 10
157.6096790869
 20
31.4649199103
 11
157.4362415869
 21
31.4003926599
 12
157.320617028
 22
31.4649199103
 13
157.320617028
 23
31.4649199103
  0
SOLID
  8
0
 62
7
  6
CONTINUOUS
 10
157.4362415869
 20
31.4003926599
 11
157.320617028
 21
31.3358640533
 12
157.320617028
 22
31.4649199103
 13
157.320617028
 23
31.4649199103
  0
SOLID
  8
0
 62
7
  6
CONTINUOUS
 10
157.320617028
 20
31.3358640533
 11
157.0315543074
 21
30.5938003547
 12
157.320617028
 22
31.4649199103
 13
157.320617028
 23
31.4649199103
  0
SOLID
  8
0
 62
7
  6
CONTINUOUS
 10
157.320617028
 20
31.4649199103
 11
157.0315543074
 21
30.5938003547
 12
157.320617028
 22
31.6262383465
 13
157.320617028
 23
31.6262383465
  0
SOLID
  8
0
 62
7
  6
CONTINUOUS
 10
157.0315543074
 20
30.5938003547
 11
157.0315543074
 21
31.6262383465
 12
157.320617028
 22
31.6262383465
 13
157.320617028
 23
31.6262383465
  0
SOLID
  8
0
 62
7
  6
CONTINUOUS
 10
157.320617028
 20
31.3358640533
 11
157.320617028
 21
30.5938003547
 12
157.0315543074
 22
30.5938003547
 13
157.0315543074
 23
30.5938003547
  0
SOLID
  8
0
 62
7
  6
CONTINUOUS
 10
158.361242028
 20
30.5938003547
 11
158.361242028
 21
31.2068093799
 12
158.6503040869
 22
31.2068093799
 13
158.6503040869
 23
31.2068093799
  0
SOLID
  8
0
 62
7
  6
CONTINUOUS
 10
158.6503040869
 20
31.2068093799
 11
158.6503040869
 21
30.5938003547
 12
158.361242028
 22
30.5938003547
 13
158.361242028
 23
30.5938003547
  0
SOLID
  8
0
 62
7
  6
CONTINUOUS
 10
159.4596793074
 20
31.5939739474
 11
159.8065543074
 21
31.6262381969
 12
160.1534293074
 22
31.6262381969
 13
160.1534293074
 23
31.6262381969
  0
SOLID
  8
0
 62
7
  6
CONTINUOUS
 10
160.1534293074
 20
31.6262381969
 11
160.5003043074
 21
31.5939739474
 12
159.4596793074
 22
31.5939739474
 13
159.4596793074
 23
31.5939739474
  0
SOLID
  8
0
 62
7
  6
CONTINUOUS
 10
159.228429528
 20
31.5294468402
 11
159.4596793074
 21
31.5939739474
 12
160.5003043074
 22
31.5939739474
 13
160.5003043074
 23
31.5939739474
  0
SOLID
  8
0
 62
7
  6
CONTINUOUS
 10
159.228429528
 20
31.5294468402
 11
160.5003043074
 21
31.5939739304
 12
160.6737418074
 22
31.5617111435
 13
160.6737418074
 23
31.5617111435
  0
SOLID
  8
0
 62
7
  6
CONTINUOUS
 10
159.228429528
 20
31.5294468402
 11
160.6737418074
 21
31.5617111435
 12
159.8065543074
 22
31.4971825592
 13
159.8065543074
 23
31.4971825592
  0
SOLID
  8
0
 62
7
  6
CONTINUOUS
 10
159.8065543074
 20
31.4971825592
 11
160.6737418074
 21
31.5617111435
 12
160.1534293074
 22
31.4971825592
 13
160.1534293074
 23
31.4971825592
  0
SOLID
  8
0
 62
7
  6
CONTINUOUS
 10
160.6737418074
 20
31.5617111435
 11
160.8471793074
 21
31.4971825592
 12
160.1534293074
 22
31.4971825592
 13
160.1534293074
 23
31.4971825592
  0
SOLID
  8
0
 62
7
  6
CONTINUOUS
 10
160.5003043074
 20
31.4649197501
 11
160.1534293074
 21
31.4971825592
 12
160.8471793074
 22
31.4971825592
 13
160.8471793074
 23
31.4971825592
  0
SOLID
  8
0
 62
7
  6
CONTINUOUS
 10
159.1128043074
 20
31.4326555427
 11
159.228429528
 21
31.5294468402
 12
159.8065543074
 22
31.4971825592
 13
159.8065543074
 23
31.4971825592
  0
SOLID
  8
0
 62
7
  6
CONTINUOUS
 10
160.5003043074
 20
31.4649197501
 11
160.8471793074
 21
31.4971825592
 12
160.615929528
 22
31.4326555427
 13
160.615929528
 23
31.4326555427
  0
SOLID
  8
0
 62
7
  6
CONTINUOUS
 10
160.615929528
 20
31.4326555427
 11
160.8471793074
 21
31.4971825592
 12
160.6737418074
 22
31.3681283005
 13
160.6737418074
 23
31.3681283005
  0
SOLID
  8
0
 62
7
  6
CONTINUOUS
 10
160.8471793074
 20
31.4971825592
 11
160.9628038663
 21
31.3681283005
 12
160.6737418074
 22
31.3681283005
 13
160.6737418074
 23
31.3681283005
  0
SOLID
  8
0
 62
7
  6
CONTINUOUS
 10
150.2674918074
 20
31.4649197501
 11
149.7471793074
 21
31.4326554237
 12
150.498741835
 22
31.4971824493
 13
150.498741835
 23
31.4971824493
  0
SOLID
  8
0
 62
7
  6
CONTINUOUS
 10
149.7471793074
 20
31.4326554237
 11
149.8628043005
 21
31.4971824493
 12
150.498741835
 22
31.4971824493
 13
150.498741835
 23
31.4971824493
  0
SOLID
  8
0
 62
7
  6
CONTINUOUS
 10
150.2674918074
 20
31.4649197501
 11
150.1518667936
 21
31.4326554237
 12
149.7471793074
 22
31.4326554237
 13
149.7471793074
 23
31.4326554237
  0
SOLID
  8
0
 62
7
  6
CONTINUOUS
 10
149.6315543091
 20
31.3036012664
 11
149.7471793074
 21
31.4326554237
 12
150.1518667936
 22
31.4326554237
 13
150.1518667936
 23
31.4326554237
  0
SOLID
  8
0
 62
7
  6
CONTINUOUS
 10
153.9674919177
 20
31.4326554237
 11
154.6612419177
 21
31.4971825369
 12
154.4299918074
 22
31.4649197501
 13
154.4299918074
 23
31.4649197501
  0
SOLID
  8
0
 62
7
  6
CONTINUOUS
 10
154.4299918074
 20
31.4649197501
 11
154.3143669177
 21
31.4326554237
 12
153.9674919177
 22
31.4326554237
 13
153.9674919177
 23
31.4326554237
  0
SOLID
  8
0
 62
7
  6
CONTINUOUS
 10
153.9674919177
 20
31.3681283335
 11
153.9674919177
 21
31.4326554237
 12
154.3143669177
 22
31.4326554237
 13
154.3143669177
 23
31.4326554237
  0
SOLID
  8
0
 62
7
  6
CONTINUOUS
 10
154.3143669177
 20
31.4326554237
 11
154.2565543074
 21
31.3681283335
 12
153.9674919177
 22
31.3681283335
 13
153.9674919177
 23
31.3681283335
  0
SOLID
  8
0
 62
7
  6
CONTINUOUS
 10
159.1128043074
 20
31.4326555528
 11
159.8065543074
 21
31.4971825369
 12
159.575304528
 22
31.4649197501
 13
159.575304528
 23
31.4649197501
  0
SOLID
  8
0
 62
7
  6
CONTINUOUS
 10
159.575304528
 20
31.4649197501
 11
159.4596793074
 21
31.4326555528
 12
159.1128043074
 22
31.4326555528
 13
159.1128043074
 23
31.4326555528
  0
SOLID
  8
0
 62
7
  6
CONTINUOUS
 10
159.1128043074
 20
31.3681284626
 11
159.1128043074
 21
31.4326555528
 12
159.4596793074
 22
31.4326555528
 13
159.4596793074
 23
31.4326555528
  0
SOLID
  8
0
 62
7
  6
CONTINUOUS
 10
159.4596793074
 20
31.4326555528
 11
159.401867028
 21
31.3681284626
 12
159.1128043074
 22
31.3681284626
 13
159.1128043074
 23
31.3681284626
  0
SOLID
  8
0
 62
7
  6
CONTINUOUS
 10
159.228429528
 20
31.2390741763
 11
159.1128043074
 21
31.3681284626
 12
159.401867028
 22
31.3681284626
 13
159.401867028
 23
31.3681284626
  0
SOLID
  8
0
 62
7
  6
CONTINUOUS
 10
149.6315543091
 20
31.3036012664
 11
150.1518667936
 21
31.4326554468
 12
149.9784292936
 22
31.3358640533
 13
149.9784292936
 23
31.3358640533
  0
SOLID
  8
0
 62
7
  6
CONTINUOUS
 10
149.9784292936
 20
31.3358640533
 11
149.9206168074
 21
31.2713369632
 12
149.6315543091
 22
31.3036012664
 13
149.6315543091
 23
31.3036012664
  0
SOLID
  8
0
 62
7
  6
CONTINUOUS
 10
149.5737418074
 20
31.1100184796
 11
149.6315543091
 21
31.3036012664
 12
149.9206168074
 22
31.2713369632
 13
149.9206168074
 23
31.2713369632
  0
SOLID
  8
0
 62
7
  6
CONTINUOUS
 10
154.4299918074
 20
31.2390741763
 11
154.7768668074
 21
31.271336924
 12
155.412804528
 22
31.271336924
 13
155.412804528
 23
31.271336924
  0
SOLID
  8
0
 62
7
  6
CONTINUOUS
 10
154.4299918074
 20
31.2390741763
 11
155.412804528
 21
31.271336924
 12
154.1987416972
 22
31.1745462761
 13
154.1987416972
 23
31.1745462761
  0
SOLID
  8
0
 62
7
  6
CONTINUOUS
 10
154.1987416972
 20
31.1745462761
 11
155.412804528
 21
31.271336924
 12
154.7768668074
 22
31.1422827436
 13
154.7768668074
 23
31.1422827436
  0
SOLID
  8
0
 62
7
  6
CONTINUOUS
 10
155.412804528
 20
31.271336924
 11
155.412804528
 21
31.1422827436
 12
154.7768668074
 22
31.1422827436
 13
154.7768668074
 23
31.1422827436
  0
SOLID
  8
0
 62
7
  6
CONTINUOUS
 10
159.228429528
 20
31.2390745501
 11
159.401867028
 21
31.3681283566
 12
159.4596793074
 22
31.3036012664
 13
159.4596793074
 23
31.3036012664
  0
SOLID
  8
0
 62
7
  6
CONTINUOUS
 10
159.4596793074
 20
31.3036012664
 11
159.6331168074
 21
31.2390745501
 12
159.228429528
 22
31.2390745501
 13
159.228429528
 23
31.2390745501
  0
SOLID
  8
0
 62
7
  6
CONTINUOUS
 10
159.4596793074
 20
31.1422827828
 11
159.228429528
 21
31.2390745501
 12
159.6331168074
 22
31.2390745501
 13
159.6331168074
 23
31.2390745501
  0
SOLID
  8
0
 62
7
  6
CONTINUOUS
 10
159.6331168074
 20
31.2390745501
 11
160.615929528
 21
31.0777556927
 12
159.4596793074
 22
31.1422827828
 13
159.4596793074
 23
31.1422827828
  0
SOLID
  8
0
 62
7
  6
CONTINUOUS
 10
160.442492028
 20
30.9809646623
 11
159.4596793074
 21
31.1422827828
 12
160.615929528
 22
31.0777556927
 13
160.615929528
 23
31.0777556927
  0
SOLID
  8
0
 62
7
  6
CONTINUOUS
 10
160.615929528
 20
31.0777556927
 11
160.8471793074
 21
30.9809646623
 12
160.442492028
 22
30.9809646623
 13
160.442492028
 23
30.9809646623
  0
SOLID
  8
0
 62
7
  6
CONTINUOUS
 10
160.615929528
 20
30.9164372091
 11
160.442492028
 21
30.9809646623
 12
160.8471793074
 22
30.9809646623
 13
160.8471793074
 23
30.9809646623
  0
SOLID
  8
0
 62
7
  6
CONTINUOUS
 10
160.615929528
 20
30.9164372091
 11
160.8471793074
 21
30.9809646623
 12
160.6737418074
 22
30.8519089441
 13
160.6737418074
 23
30.8519089441
  0
SOLID
  8
0
 62
7
  6
CONTINUOUS
 10
160.8471793074
 20
30.9809646623
 11
160.9628038663
 21
30.8519089441
 12
160.6737418074
 22
30.8519089441
 13
160.6737418074
 23
30.8519089441
  0
SOLID
  8
0
 62
7
  6
CONTINUOUS
 10
160.615929528
 20
30.7873818593
 11
160.6737418074
 21
30.8519089441
 12
160.9628038663
 22
30.8519089441
 13
160.9628038663
 23
30.8519089441
  0
SOLID
  8
0
 62
7
  6
CONTINUOUS
 10
160.9628038663
 20
30.8519089441
 11
160.9628038663
 21
30.7873818593
 12
160.615929528
 22
30.7873818593
 13
160.615929528
 23
30.7873818593
  0
SOLID
  8
0
 62
7
  6
CONTINUOUS
 10
160.5003043074
 20
30.7551187255
 11
160.615929528
 21
30.7873818593
 12
160.9628038663
 22
30.7873818593
 13
160.9628038663
 23
30.7873818593
  0
SOLID
  8
0
 62
7
  6
CONTINUOUS
 10
160.5003043074
 20
30.7551187255
 11
160.9628038663
 21
30.7873818593
 12
160.269054528
 22
30.7228547745
 13
160.269054528
 23
30.7228547745
  0
SOLID
  8
0
 62
7
  6
CONTINUOUS
 10
160.9628038663
 20
30.7873818593
 11
160.8471793074
 21
30.6905916353
 12
160.269054528
 22
30.7228547745
 13
160.269054528
 23
30.7228547745
  0
SOLID
  8
0
 62
7
  6
CONTINUOUS
 10
160.8471793074
 20
30.6905916353
 11
159.401867028
 21
30.658327332
 12
160.269054528
 22
30.7228547745
 13
160.269054528
 23
30.7228547745
  0
SOLID
  8
0
 62
7
  6
CONTINUOUS
 10
160.269054528
 20
30.7228547745
 11
159.401867028
 21
30.658327332
 12
159.922179528
 22
30.7228547745
 13
159.922179528
 23
30.7228547745
  0
SOLID
  8
0
 62
7
  6
CONTINUOUS
 10
159.401867028
 20
30.658327332
 11
159.228429528
 21
30.7228547745
 12
159.922179528
 22
30.7228547745
 13
159.922179528
 23
30.7228547745
  0
SOLID
  8
0
 62
7
  6
CONTINUOUS
 10
159.401867028
 20
30.658327332
 11
160.8471793074
 21
30.6905916353
 12
159.575304528
 22
30.6260629858
 13
159.575304528
 23
30.6260629858
  0
SOLID
  8
0
 62
7
  6
CONTINUOUS
 10
160.8471793074
 20
30.6905916353
 11
160.615929528
 21
30.6260629858
 12
159.575304528
 22
30.6260629858
 13
159.575304528
 23
30.6260629858
  0
SOLID
  8
0
 62
7
  6
CONTINUOUS
 10
159.922179528
 20
30.5938006049
 11
159.575304528
 21
30.6260629858
 12
160.615929528
 22
30.6260629858
 13
160.615929528
 23
30.6260629858
  0
SOLID
  8
0
 62
7
  6
CONTINUOUS
 10
160.615929528
 20
30.6260629858
 11
160.269054528
 21
30.5938006049
 12
159.922179528
 22
30.5938006049
 13
159.922179528
 23
30.5938006049
  0
SOLID
  8
0
 62
7
  6
CONTINUOUS
 10
149.5737418074
 20
31.1100184796
 11
149.9206168074
 21
31.2713369632
 12
149.8628043005
 22
31.1422827828
 13
149.8628043005
 23
31.1422827828
  0
SOLID
  8
0
 62
7
  6
CONTINUOUS
 10
149.8628043005
 20
31.1422827828
 11
149.8628043005
 21
31.0454914852
 12
149.5737418074
 22
31.1100184796
 13
149.5737418074
 23
31.1100184796
  0
SOLID
  8
0
 62
7
  6
CONTINUOUS
 10
149.6315543091
 20
30.9164372091
 11
149.5737418074
 21
31.1100184796
 12
149.8628043005
 22
31.0454914852
 13
149.8628043005
 23
31.0454914852
  0
SOLID
  8
0
 62
7
  6
CONTINUOUS
 10
149.8628043005
 20
31.0454914852
 11
149.9784292936
 21
30.8841729058
 12
149.6315543091
 22
30.9164372091
 13
149.6315543091
 23
30.9164372091
  0
SOLID
  8
0
 62
7
  6
CONTINUOUS
 10
149.7471793074
 20
30.7873813202
 11
149.6315543091
 21
30.9164372091
 12
149.9784292936
 22
30.8841729058
 13
149.9784292936
 23
30.8841729058
  0
SOLID
  8
0
 62
7
  6
CONTINUOUS
 10
149.9784292936
 20
30.8841729058
 11
150.1518667936
 21
30.7873813202
 12
149.7471793074
 22
30.7873813202
 13
149.7471793074
 23
30.7873813202
  0
SOLID
  8
0
 62
7
  6
CONTINUOUS
 10
149.8628043005
 20
30.7228547004
 11
149.7471793074
 21
30.7873813202
 12
150.1518667936
 22
30.7873813202
 13
150.1518667936
 23
30.7873813202
  0
SOLID
  8
0
 62
7
  6
CONTINUOUS
 10
150.1518667936
 20
30.7873813202
 11
150.498741835
 21
30.7228547004
 12
149.8628043005
 22
30.7228547004
 13
149.8628043005
 23
30.7228547004
  0
SOLID
  8
0
 62
7
  6
CONTINUOUS
 10
150.0362418212
 20
30.658327332
 11
149.8628043005
 21
30.7228547004
 12
150.498741835
 22
30.7228547004
 13
150.498741835
 23
30.7228547004
  0
SOLID
  8
0
 62
7
  6
CONTINUOUS
 10
154.0831168074
 20
31.1100184386
 11
154.1987416972
 21
31.1745462761
 12
154.7768668074
 22
31.1422827828
 13
154.7768668074
 23
31.1422827828
  0
SOLID
  8
0
 62
7
  6
CONTINUOUS
 10
154.7768668074
 20
31.1422827828
 11
154.5456166972
 21
31.1100184386
 12
154.0831168074
 22
31.1100184386
 13
154.0831168074
 23
31.1100184386
  0
SOLID
  8
0
 62
7
  6
CONTINUOUS
 10
153.9674919177
 20
30.9809642992
 11
154.0831168074
 21
31.1100184386
 12
154.5456166972
 22
31.1100184386
 13
154.5456166972
 23
31.1100184386
  0
SOLID
  8
0
 62
7
  6
CONTINUOUS
 10
154.3143669177
 20
31.0132277988
 11
153.9674919177
 21
30.9809642992
 12
154.4299918074
 22
31.0777556927
 13
154.4299918074
 23
31.0777556927
  0
SOLID
  8
0
 62
7
  6
CONTINUOUS
 10
153.9674919177
 20
30.9809642992
 11
154.5456166972
 21
31.1100184796
 12
154.4299918074
 22
31.0777556927
 13
154.4299918074
 23
31.0777556927
  0
SOLID
  8
0
 62
7
  6
CONTINUOUS
 10
154.3143669177
 20
31.0132277988
 11
154.2565543074
 21
30.9164372091
 12
153.9674919177
 22
30.9809642992
 13
153.9674919177
 23
30.9809642992
  0
SOLID
  8
0
 62
7
  6
CONTINUOUS
 10
153.9674919177
 20
30.8841729058
 11
153.9674919177
 21
30.9809642992
 12
154.2565543074
 22
30.9164372091
 13
154.2565543074
 23
30.9164372091
  0
SOLID
  8
0
 62
7
  6
CONTINUOUS
 10
154.2565543074
 20
30.9164372091
 11
154.2565543074
 21
30.8519086025
 12
153.9674919177
 22
30.8841729058
 13
153.9674919177
 23
30.8841729058
  0
SOLID
  8
0
 62
7
  6
CONTINUOUS
 10
154.0253041972
 20
30.7551187255
 11
153.9674919177
 21
30.8841729058
 12
154.2565543074
 22
30.8519086025
 13
154.2565543074
 23
30.8519086025
  0
SOLID
  8
0
 62
7
  6
CONTINUOUS
 10
155.412804528
 20
30.9487004259
 11
155.7018665869
 21
30.8519086025
 12
155.3549915869
 22
30.8841729058
 13
155.3549915869
 23
30.8841729058
  0
SOLID
  8
0
 62
7
  6
CONTINUOUS
 10
155.1815540869
 20
30.7873815123
 11
155.3549915869
 21
30.8841729058
 12
155.7018665869
 22
30.8519086025
 13
155.7018665869
 23
30.8519086025
  0
SOLID
  8
0
 62
7
  6
CONTINUOUS
 10
155.1815540869
 20
30.7873815123
 11
155.7018665869
 21
30.8519086025
 12
155.412804528
 22
30.7551187255
 13
155.412804528
 23
30.7551187255
  0
SOLID
  8
0
 62
7
  6
CONTINUOUS
 10
155.7018665869
 20
30.8519086025
 11
155.759679528
 21
30.6905916353
 12
155.412804528
 22
30.7551187255
 13
155.412804528
 23
30.7551187255
  0
SOLID
  8
0
 62
7
  6
CONTINUOUS
 10
155.4706168074
 20
30.658327332
 11
155.412804528
 21
30.7551187255
 12
155.759679528
 22
30.6905916353
 13
155.759679528
 23
30.6905916353
  0
SOLID
  8
0
 62
7
  6
CONTINUOUS
 10
155.4706168074
 20
30.658327332
 11
155.759679528
 21
30.6905916353
 12
155.5284290869
 22
30.5938002079
 13
155.5284290869
 23
30.5938002079
  0
SOLID
  8
0
 62
7
  6
CONTINUOUS
 10
155.759679528
 20
30.6905916353
 11
155.8174918074
 21
30.5938002079
 12
155.5284290869
 22
30.5938002079
 13
155.5284290869
 23
30.5938002079
  0
SOLID
  8
0
 62
7
  6
CONTINUOUS
 10
151.0768668626
 20
30.8196456577
 11
151.1346793074
 21
30.9164373395
 12
151.4237418626
 22
30.9164373395
 13
151.4237418626
 23
30.9164373395
  0
SOLID
  8
0
 62
7
  6
CONTINUOUS
 10
151.4237418626
 20
30.9164373395
 11
151.3659292523
 21
30.7873815123
 12
151.0768668626
 22
30.8196456577
 13
151.0768668626
 23
30.8196456577
  0
SOLID
  8
0
 62
7
  6
CONTINUOUS
 10
150.9034292799
 20
30.7551187255
 11
151.0768668626
 21
30.8196456577
 12
151.3659292523
 22
30.7873815123
 13
151.3659292523
 23
30.7873815123
  0
SOLID
  8
0
 62
7
  6
CONTINUOUS
 10
150.9034292799
 20
30.7551187255
 11
151.3659292523
 21
30.7873815123
 12
150.498741835
 22
30.7228544222
 13
150.498741835
 23
30.7228544222
  0
SOLID
  8
0
 62
7
  6
CONTINUOUS
 10
151.3659292523
 20
30.7873815123
 11
151.1924917523
 21
30.6905916353
 12
150.498741835
 22
30.7228544222
 13
150.498741835
 23
30.7228544222
  0
SOLID
  8
0
 62
7
  6
CONTINUOUS
 10
150.0362418212
 20
30.658327332
 11
150.498741835
 21
30.7228544222
 12
151.1924917523
 22
30.6905916353
 13
151.1924917523
 23
30.6905916353
  0
SOLID
  8
0
 62
7
  6
CONTINUOUS
 10
150.0362418212
 20
30.658327332
 11
151.1924917523
 21
30.6905916353
 12
150.2096793212
 22
30.6260631011
 13
150.2096793212
 23
30.6260631011
  0
SOLID
  8
0
 62
7
  6
CONTINUOUS
 10
151.1924917523
 20
30.6905916353
 11
150.9612418074
 21
30.6260631011
 12
150.2096793212
 22
30.6260631011
 13
150.2096793212
 23
30.6260631011
  0
SOLID
  8
0
 62
7
  6
CONTINUOUS
 10
150.5565542799
 20
30.5938002419
 11
150.2096793212
 21
30.6260631011
 12
150.9612418074
 22
30.6260631011
 13
150.9612418074
 23
30.6260631011
  0
SOLID
  8
0
 62
7
  6
CONTINUOUS
 10
154.0253041972
 20
30.7551187255
 11
154.2565543074
 21
30.8519086025
 12
154.3143669177
 22
30.7873815123
 13
154.3143669177
 23
30.7873815123
  0
SOLID
  8
0
 62
7
  6
CONTINUOUS
 10
154.3143669177
 20
30.7873815123
 11
154.5456166972
 21
30.7228544222
 12
154.0253041972
 22
30.7551187255
 13
154.0253041972
 23
30.7551187255
  0
SOLID
  8
0
 62
7
  6
CONTINUOUS
 10
154.1987416972
 20
30.658327332
 11
154.0253041972
 21
30.7551187255
 12
154.5456166972
 22
30.7228544222
 13
154.5456166972
 23
30.7228544222
  0
SOLID
  8
0
 62
7
  6
CONTINUOUS
 10
154.8924916972
 20
30.7228544637
 11
155.1815540869
 21
30.7873815123
 12
155.412804528
 22
30.7551187255
 13
155.412804528
 23
30.7551187255
  0
SOLID
  8
0
 62
7
  6
CONTINUOUS
 10
155.412804528
 20
30.7551187255
 11
155.3549915869
 21
30.6905916353
 12
154.8924916972
 22
30.7228544637
 13
154.8924916972
 23
30.7228544637
  0
SOLID
  8
0
 62
7
  6
CONTINUOUS
 10
155.3549915869
 20
30.6905916353
 11
154.1987416972
 21
30.658327332
 12
154.8924916972
 22
30.7228544637
 13
154.8924916972
 23
30.7228544637
  0
SOLID
  8
0
 62
7
  6
CONTINUOUS
 10
154.1987416972
 20
30.658327332
 11
154.5456166972
 21
30.7228544637
 12
154.8924916972
 22
30.7228544637
 13
154.8924916972
 23
30.7228544637
  0
SOLID
  8
0
 62
7
  6
CONTINUOUS
 10
154.1987416972
 20
30.658327332
 11
155.3549915869
 21
30.6905916353
 12
154.3143669177
 22
30.6260630541
 13
154.3143669177
 23
30.6260630541
  0
SOLID
  8
0
 62
7
  6
CONTINUOUS
 10
155.3549915869
 20
30.6905916353
 11
155.1815540869
 21
30.6260630541
 12
154.3143669177
 22
30.6260630541
 13
154.3143669177
 23
30.6260630541
  0
SOLID
  8
0
 62
7
  6
CONTINUOUS
 10
154.5456166972
 20
30.5938002188
 11
154.3143669177
 21
30.6260630541
 12
155.1815540869
 22
30.6260630541
 13
155.1815540869
 23
30.6260630541
  0
SOLID
  8
0
 62
7
  6
CONTINUOUS
 10
155.1815540869
 20
30.6260630541
 11
154.8924916972
 21
30.5938002188
 12
154.5456166972
 22
30.5938002188
 13
154.5456166972
 23
30.5938002188
  0
SOLID
  8
0
 62
7
  6
CONTINUOUS
 10
159.575304528
 20
30.7551187255
 11
159.228429528
 21
30.7228544637
 12
159.4596793074
 22
30.7873815123
 13
159.4596793074
 23
30.7873815123
  0
SOLID
  8
0
 62
7
  6
CONTINUOUS
 10
159.4596793074
 20
30.7873815123
 11
159.228429528
 21
30.7228544637
 12
159.401867028
 22
30.851908644
 13
159.401867028
 23
30.851908644
  0
SOLID
  8
0
 62
7
  6
CONTINUOUS
 10
159.228429528
 20
30.7228544637
 11
159.1128043074
 21
30.851908644
 12
159.401867028
 22
30.851908644
 13
159.401867028
 23
30.851908644
  0
SOLID
  8
0
 62
7
  6
CONTINUOUS
 10
159.575304528
 20
30.7551187255
 11
159.922179528
 21
30.7228544637
 12
159.228429528
 22
30.7228544637
 13
159.228429528
 23
30.7228544637
  0
SOLID
  8
0
 62
7
  6
CONTINUOUS
 10
156.279992028
 20
30.5938002419
 11
156.279992028
 21
31.6262382337
 12
156.5690540869
 22
30.5938002419
 13
156.5690540869
 23
31.6262382337
  0
ENDBLK
  8
0
  6
BYBLOCK
 62
0
  0
BLOCK
  8
0
 62
2
  6
CONTINUOUS
  2
SYMBOL_3_BL0
 70
64
 10
32.1213064866
 20
19.8534310916
  0
TEXT
  8
0
 62
7
  6
CONTINUOUS
 10
18.3860103289
 20
19.2268451992
  7
TEXTSTYLE_3
 40
2.7338706658
  1
Ammeraal Beltech
 41
1.0
 51
15.0
 72
0
  0
TEXT
  8
0
 62
7
  6
CONTINUOUS
 10
29.1868111546
 20
16.9533085264
  7
TEXTSTYLE_4
 40
1.0935482663
  1
Innovation & Service in Belting
 41
1.0
 72
0
  0
LINE
  8
0
 62
7
  6
CONTINUOUS
 10
12.3614696776
 20
19.9934385078
 11
13.1396216709
 21
23.6543558055
  0
LINE
  8
0
 62
7
  6
CONTINUOUS
 10
23.2347899607
 20
27.3177497171
 11
13.6274394139
 21
24.1961322958
  0
LINE
  8
0
 62
7
  6
CONTINUOUS
 10
12.5867530099
 20
19.3000877048
 11
20.093828271
 21
12.5406867788
  0
LINE
  8
0
 62
7
  6
CONTINUOUS
 10
12.8492874206
 20
20.5352149982
 11
23.6575567857
 21
24.0470345971
  0
LINE
  8
0
 62
7
  6
CONTINUOUS
 10
23.6533516486
 20
13.6972460334
 11
15.2078919798
 21
21.3015720751
  0
LINE
  8
0
 62
7
  6
CONTINUOUS
 10
24.1731743684
 20
26.4728246013
 11
23.1966148312
 21
21.8784731989
  0
LINE
  8
0
 62
7
  6
CONTINUOUS
 10
22.4968128835
 20
18.5861638851
 11
21.810364672
 21
15.3566789607
  0
LINE
  8
0
 62
7
  6
CONTINUOUS
 10
24.8542704669
 20
14.087448211
 11
25.8105020025
 21
18.5861638851
  0
LINE
  8
0
 62
7
  6
CONTINUOUS
 10
26.5103039502
 20
21.8784731989
 11
26.9545457526
 21
23.9684665583
  0
LINE
  8
0
 62
7
  6
CONTINUOUS
 10
20.8069293463
 20
12.3891124661
 11
24.3664527239
 21
13.5456717207
  0
LINE
  8
0
 62
7
  6
CONTINUOUS
 10
23.9478910361
 20
27.1661754044
 11
26.7292624203
 21
24.6618173613
  0
ARC
  8
0
 62
7
  6
CONTINUOUS
 10
13.8527227462
 20
23.5027814928
 40
0.7290321776
 50
108.0
 51
168.0
  0
ARC
  8
0
 62
7
  6
CONTINUOUS
 10
23.4600732931
 20
26.624398914
 40
0.7290321776
 50
348.0
 51
108.0
  0
ARC
  8
0
 62
7
  6
CONTINUOUS
 10
26.2414446773
 20
24.120040871
 40
0.7290321776
 50
348.0
 51
48.0
  0
ARC
  8
0
 62
7
  6
CONTINUOUS
 10
20.581646014
 20
13.0824632691
 40
0.7290321776
 50
228.0
 51
288.0
  0
ARC
  8
0
 62
7
  6
CONTINUOUS
 10
13.0745707529
 20
19.8418641951
 40
0.7290321776
 50
108.0
 51
228.0
  0
ARC
  8
0
 62
7
  6
CONTINUOUS
 10
24.1411693916
 20
14.2390225237
 40
0.7290321776
 50
228.0
 51
348.0
  0
ENDBLK
  8
0
  6
BYBLOCK
 62
0
  0
ENDSEC
  0
SECTION
  2
ENTITIES
  0
TEXT
  8
0
 62
5
  6
CONTINUOUS
 10
96.0
 20
25.636
  7
TEXTSTYLE_2
 40
2.8
  1
Scale :
 41
0.6
 51
0.000019
 72
0
  0
TEXT
  8
0
 62
5
  6
CONTINUOUS
 10
116.0
 20
25.636
  7
TEXTSTYLE_2
 40
2.8
  1
Belt type:
 41
0.6
 51
0.000019
 72
0
  0
INSERT
  8
0
 62
2
  6
CONTINUOUS
  2
SYMBOL_3_BL0
 10
32.1213064866
 20
19.8534310916
  0
INSERT
  8
0
 62
2
  6
CONTINUOUS
  2
SYMBOL_8_BL1
 10
173.5956734183
 20
35.5937998301
  0
LINE
  8
0
 62
2
  6
CONTINUOUS
 10
10.0
 20
30.0
 11
200.0
 21
30.0
  0
LINE
  8
0
 62
2
  6
CONTINUOUS
 10
10.0
 20
30.0
 11
10.0
 21
10.0
  0
LINE
  8
0
 62
2
  6
CONTINUOUS
 10
10.0
 20
10.0
 11
200.0
 21
10.0
  0
LINE
  8
0
 62
2
  6
CONTINUOUS
 10
95.0
 20
30.0
 11
95.0
 21
10.0
  0
LINE
  8
0
 62
2
  6
CONTINUOUS
 10
115.0
 20
30.0
 11
115.0
 21
10.0
  0
LINE
  8
0
 62
2
  6
CONTINUOUS
 10
200.0
 20
30.0
 11
200.0
 21
10.0
  0
TEXT
  8
0
 62
5
  6
CONTINUOUS
 10
13.0
 20
23.303
  7
TEXTSTYLE_5
 40
1.52
  1
                                                                     Ammeraal Beltech Modular A/S
 41
1.0
 72
0
  0
TEXT
  8
0
 62
5
  6
CONTINUOUS
 10
13.0
 20
20.595
  7
TEXTSTYLE_5
 40
1.5
  1
                                                                      Hjulmagervej 21,  7100 Vejle,  DK
 41
1.0
 72
0
  0
TEXT
  8
0
 62
5
  6
CONTINUOUS
 10
13.0
 20
17.881
  7
TEXTSTYLE_5
 40
1.495
  1
                                                                      tel: 
 41
1.0
 72
0
  0
TEXT
  8
0
 62
5
  6
CONTINUOUS
 10
57.9869465649
 20
17.881
  7
TEXTSTYLE_5
 40
1.51
  1
+45 75723100     fax: +45 75723348
 41
1.0
 72
0
  0
TEXT
  8
0
 62
5
  6
CONTINUOUS
 10
13.0
 20
15.177
  7
TEXTSTYLE_5
 40
1.5
  1
                                                                      admin@unichains.dk  www.unichains.com
 41
1.0
 72
0
  0
TEXT
  8
0
 62
5
  6
CONTINUOUS
 10
99.75
 20
13.75
  7
TEXTSTYLE_6
 40
5.0
  1
1:1
 41
0.7
 72
1
 11
105.0
 21
13.75
  0
TEXT
  8
0
 62
5
  6
CONTINUOUS
 10
118.0
 20
13.75
  7
TEXTSTYLE_7
 40
7.5
  1
uni MPB 20% K275
 41
0.6134114583
 72
0
  0
LINE
  8
0
 62
7
  6
CONTINUOUS
 10
210.0
 20
0.0
 11
0.0
 21
0.0
  0
LINE
  8
0
 62
7
  6
CONTINUOUS
 10
10.0
 20
10.0
 11
200.0
 21
10.0
  0
LINE
  8
0
 62
7
  6
CONTINUOUS
 10
10.0
 20
30.0
 11
200.0
 21
30.0
  0
LINE
  8
0
 62
7
  6
CONTINUOUS
 10
0.0
 20
0.0
 11
0.0
 21
297.0
  0
LINE
  8
0
 62
7
  6
CONTINUOUS
 10
10.0
 20
10.0
 11
10.0
 21
287.0
  0
LINE
  8
0
 62
7
  6
CONTINUOUS
 10
200.0
 20
287.0
 11
200.0
 21
10.0
  0
LINE
  8
0
 62
7
  6
CONTINUOUS
 10
210.0
 20
0.0
 11
210.0
 21
297.0
  0
LINE
  8
0
 62
7
  6
CONTINUOUS
 10
10.0
 20
287.0
 11
200.0
 21
287.0
  0
LINE
  8
0
 62
7
  6
CONTINUOUS
 10
0.0
 20
297.0
 11
210.0
 21
297.0
  0
POLYLINE
  8
0
 62
7
  6
CONTINUOUS
 66
1
 70
0
  0
VERTEX
  8
0
 62
7
  6
CONTINUOUS
 10
48.862187645
 20
154.2508090615
  0
VERTEX
  8
0
 62
7
  6
CONTINUOUS
 10
48.8564800464
 20
154.248711145
  0
VERTEX
  8
0
 62
7
  6
CONTINUOUS
 10
48.8508711772
 20
154.2424401682
  0
VERTEX
  8
0
 62
7
  6
CONTINUOUS
 10
48.845454248
 20
154.2320809904
  0
VERTEX
  8
0
 62
7
  6
CONTINUOUS
 10
48.8403199421
 20
154.2177864419
  0
VERTEX
  8
0
 62
7
  6
CONTINUOUS
 10
48.8355549087
 20
154.1997766415
  0
VERTEX
  8
0
 62
7
  6
CONTINUOUS
 10
48.8312403913
 20
154.1783374409
  0
VERTEX
  8
0
 62
7
  6
CONTINUOUS
 10
48.8274507506
 20
154.1538171765
  0
VERTEX
  8
0
 62
7
  6
CONTINUOUS
 10
48.8242520626
 20
154.1266217182
  0
VERTEX
  8
0
 62
7
  6
CONTINUOUS
 10
48.8217008561
 20
154.0972079016
  0
VERTEX
  8
0
 62
7
  6
CONTINUOUS
 10
48.8198430423
 20
154.0660754727
  0
VERTEX
  8
0
 62
7
  6
CONTINUOUS
 10
48.8187130687
 20
154.0337571938
  0
VERTEX
  8
0
 62
7
  6
CONTINUOUS
 10
48.8183334359
 20
154.0008090615
  0
SEQEND
  0
POLYLINE
  8
0
 62
7
  6
CONTINUOUS
 66
1
 70
0
  0
VERTEX
  8
0
 62
7
  6
CONTINUOUS
 10
43.1906147949
 20
97.2622141535
  0
VERTEX
  8
0
 62
7
  6
CONTINUOUS
 10
43.1942916643
 20
97.2150930851
  0
VERTEX
  8
0
 62
7
  6
CONTINUOUS
 10
43.2089413675
 20
97.1581364675
  0
VERTEX
  8
0
 62
7
  6
CONTINUOUS
 10
43.2330914404
 20
97.10639104
  0
VERTEX
  8
0
 62
7
  6
CONTINUOUS
 10
43.2639338635
 20
97.061767823
  0
VERTEX
  8
0
 62
7
  6
CONTINUOUS
 10
43.2991503983
 20
97.0240369214
  0
VERTEX
  8
0
 62
7
  6
CONTINUOUS
 10
43.3375735655
 20
96.9918986277
  0
VERTEX
  8
0
 62
7
  6
CONTINUOUS
 10
43.3787857567
 20
96.9640143433
  0
VERTEX
  8
0
 62
7
  6
CONTINUOUS
 10
43.4227930585
 20
96.9392615232
  0
VERTEX
  8
0
 62
7
  6
CONTINUOUS
 10
43.4700153796
 20
96.9166855125
  0
VERTEX
  8
0
 62
7
  6
CONTINUOUS
 10
43.5212695806
 20
96.8954873978
  0
VERTEX
  8
0
 62
7
  6
CONTINUOUS
 10
43.5773741744
 20
96.8751342948
  0
VERTEX
  8
0
 62
7
  6
CONTINUOUS
 10
43.6390621354
 20
96.8552886936
  0
VERTEX
  8
0
 62
7
  6
CONTINUOUS
 10
43.706979728
 20
96.8357389214
  0
VERTEX
  8
0
 62
7
  6
CONTINUOUS
 10
43.7816940109
 20
96.8163550854
  0
VERTEX
  8
0
 62
7
  6
CONTINUOUS
 10
43.8637012466
 20
96.7970613366
  0
VERTEX
  8
0
 62
7
  6
CONTINUOUS
 10
43.9534622812
 20
96.7778124584
  0
VERTEX
  8
0
 62
7
  6
CONTINUOUS
 10
44.0514048315
 20
96.7585854622
  0
VERTEX
  8
0
 62
7
  6
CONTINUOUS
 10
44.1579073118
 20
96.7393768777
  0
VERTEX
  8
0
 62
7
  6
CONTINUOUS
 10
44.2733097805
 20
96.7201959387
  0
VERTEX
  8
0
 62
7
  6
CONTINUOUS
 10
44.3979153417
 20
96.7010613578
  0
SEQEND
  0
POLYLINE
  8
2_FEATURE
 62
7
  6
CONTINUOUS
 66
1
 70
0
  0
VERTEX
  8
2_FEATURE
 62
7
  6
CONTINUOUS
 10
110.7406152375
 20
87.2508090381
  0
VERTEX
  8
2_FEATURE
 62
7
  6
CONTINUOUS
 10
110.7741426219
 20
87.2530674217
  0
VERTEX
  8
2_FEATURE
 62
7
  6
CONTINUOUS
 10
110.8071431839
 20
87.2598235349
  0
VERTEX
  8
2_FEATURE
 62
7
  6
CONTINUOUS
 10
110.8389401993
 20
87.2709565549
  0
VERTEX
  8
2_FEATURE
 62
7
  6
CONTINUOUS
 10
110.8689533007
 20
87.2862646805
  0
VERTEX
  8
2_FEATURE
 62
7
  6
CONTINUOUS
 10
110.8966365609
 20
87.3054702015
  0
VERTEX
  8
2_FEATURE
 62
7
  6
CONTINUOUS
 10
110.9214865601
 20
87.3282244161
  0
VERTEX
  8
2_FEATURE
 62
7
  6
CONTINUOUS
 10
110.9430514705
 20
87.3541140125
  0
VERTEX
  8
2_FEATURE
 62
7
  6
CONTINUOUS
 10
110.9609392307
 20
87.382668573
  0
VERTEX
  8
2_FEATURE
 62
7
  6
CONTINUOUS
 10
110.9748247018
 20
87.4133691569
  0
VERTEX
  8
2_FEATURE
 62
7
  6
CONTINUOUS
 10
110.9844555897
 20
87.4456577303
  0
VERTEX
  8
2_FEATURE
 62
7
  6
CONTINUOUS
 10
110.9896570707
 20
87.4789473599
  0
VERTEX
  8
2_FEATURE
 62
7
  6
CONTINUOUS
 10
110.9906147591
 20
87.5008089222
  0
SEQEND
  0
POLYLINE
  8
2_FEATURE
 62
7
  6
CONTINUOUS
 66
1
 70
0
  0
VERTEX
  8
2_FEATURE
 62
7
  6
CONTINUOUS
 10
56.2663660636
 20
87.2508090615
  0
VERTEX
  8
2_FEATURE
 62
7
  6
CONTINUOUS
 10
56.2351817149
 20
87.2527616136
  0
VERTEX
  8
2_FEATURE
 62
7
  6
CONTINUOUS
 10
56.205975678
 20
87.2582126861
  0
VERTEX
  8
2_FEATURE
 62
7
  6
CONTINUOUS
 10
56.1771204775
 20
87.2672812786
  0
VERTEX
  8
2_FEATURE
 62
7
  6
CONTINUOUS
 10
56.1504042182
 20
87.2793302805
  0
VERTEX
  8
2_FEATURE
 62
7
  6
CONTINUOUS
 10
56.1243407186
 20
87.2950694168
  0
VERTEX
  8
2_FEATURE
 62
7
  6
CONTINUOUS
 10
56.1007588427
 20
87.3135278601
  0
VERTEX
  8
2_FEATURE
 62
7
  6
CONTINUOUS
 10
56.0786316921
 20
87.335715737
  0
VERTEX
  8
2_FEATURE
 62
7
  6
CONTINUOUS
 10
56.0596878683
 20
87.3601530144
  0
VERTEX
  8
2_FEATURE
 62
7
  6
CONTINUOUS
 10
56.0433469071
 20
87.3878380216
  0
VERTEX
  8
2_FEATURE
 62
7
  6
CONTINUOUS
 10
56.0304668523
 20
87.4180348982
  0
VERTEX
  8
2_FEATURE
 62
7
  6
CONTINUOUS
 10
56.0216497295
 20
87.4496825923
  0
VERTEX
  8
2_FEATURE
 62
7
  6
CONTINUOUS
 10
56.0169199666
 20
87.4841764222
  0
VERTEX
  8
2_FEATURE
 62
7
  6
CONTINUOUS
 10
56.0163660648
 20
87.5008090615
  0
SEQEND
  0
POLYLINE
  8
0
 62
7
  6
CONTINUOUS
 66
1
 70
0
  0
VERTEX
  8
0
 62
7
  6
CONTINUOUS
 10
44.4595030739
 20
96.7011939376
  0
VERTEX
  8
0
 62
7
  6
CONTINUOUS
 10
44.6958164314
 20
96.5923142868
  0
VERTEX
  8
0
 62
7
  6
CONTINUOUS
 10
44.9665556731
 20
96.4813472256
  0
VERTEX
  8
0
 62
7
  6
CONTINUOUS
 10
45.2547586041
 20
96.3761084574
  0
VERTEX
  8
0
 62
7
  6
CONTINUOUS
 10
45.5595169341
 20
96.2765858957
  0
VERTEX
  8
0
 62
7
  6
CONTINUOUS
 10
45.8799121856
 20
96.1828036038
  0
VERTEX
  8
0
 62
7
  6
CONTINUOUS
 10
46.2150131921
 20
96.094809832
  0
VERTEX
  8
0
 62
7
  6
CONTINUOUS
 10
46.5638761441
 20
96.0126680692
  0
VERTEX
  8
0
 62
7
  6
CONTINUOUS
 10
46.9255307868
 20
95.9364535014
  0
VERTEX
  8
0
 62
7
  6
CONTINUOUS
 10
47.2989824217
 20
95.8662466042
  0
VERTEX
  8
0
 62
7
  6
CONTINUOUS
 10
47.6832252403
 20
95.802126691
  0
VERTEX
  8
0
 62
7
  6
CONTINUOUS
 10
48.0772464505
 20
95.7441692242
  0
VERTEX
  8
0
 62
7
  6
CONTINUOUS
 10
48.4800273654
 20
95.6924443854
  0
VERTEX
  8
0
 62
7
  6
CONTINUOUS
 10
48.8488226665
 20
95.6513102882
  0
SEQEND
  0
POLYLINE
  8
0
 62
7
  6
CONTINUOUS
 66
1
 70
0
  0
VERTEX
  8
0
 62
7
  6
CONTINUOUS
 10
43.1906147949
 20
114.0622141535
  0
VERTEX
  8
0
 62
7
  6
CONTINUOUS
 10
43.1942916643
 20
114.0150930851
  0
VERTEX
  8
0
 62
7
  6
CONTINUOUS
 10
43.2089413675
 20
113.9581364675
  0
VERTEX
  8
0
 62
7
  6
CONTINUOUS
 10
43.2330914404
 20
113.90639104
  0
VERTEX
  8
0
 62
7
  6
CONTINUOUS
 10
43.2639338635
 20
113.861767823
  0
VERTEX
  8
0
 62
7
  6
CONTINUOUS
 10
43.2991503983
 20
113.8240369214
  0
VERTEX
  8
0
 62
7
  6
CONTINUOUS
 10
43.3375735655
 20
113.7918986277
  0
VERTEX
  8
0
 62
7
  6
CONTINUOUS
 10
43.3787857567
 20
113.7640143433
  0
VERTEX
  8
0
 62
7
  6
CONTINUOUS
 10
43.4227930585
 20
113.7392615232
  0
VERTEX
  8
0
 62
7
  6
CONTINUOUS
 10
43.4700153796
 20
113.7166855125
  0
VERTEX
  8
0
 62
7
  6
CONTINUOUS
 10
43.5212695806
 20
113.6954873978
  0
VERTEX
  8
0
 62
7
  6
CONTINUOUS
 10
43.5773741744
 20
113.6751342948
  0
VERTEX
  8
0
 62
7
  6
CONTINUOUS
 10
43.6390621354
 20
113.6552886936
  0
VERTEX
  8
0
 62
7
  6
CONTINUOUS
 10
43.706979728
 20
113.6357389214
  0
VERTEX
  8
0
 62
7
  6
CONTINUOUS
 10
43.7816940109
 20
113.6163550854
  0
VERTEX
  8
0
 62
7
  6
CONTINUOUS
 10
43.8637012466
 20
113.5970613366
  0
VERTEX
  8
0
 62
7
  6
CONTINUOUS
 10
43.9534622812
 20
113.5778124584
  0
VERTEX
  8
0
 62
7
  6
CONTINUOUS
 10
44.0514048315
 20
113.5585854622
  0
VERTEX
  8
0
 62
7
  6
CONTINUOUS
 10
44.1579073118
 20
113.5393768777
  0
VERTEX
  8
0
 62
7
  6
CONTINUOUS
 10
44.2733097805
 20
113.5201959387
  0
VERTEX
  8
0
 62
7
  6
CONTINUOUS
 10
44.3979153417
 20
113.5010613578
  0
SEQEND
  0
POLYLINE
  8
0
 62
7
  6
CONTINUOUS
 66
1
 70
0
  0
VERTEX
  8
0
 62
7
  6
CONTINUOUS
 10
43.1906147949
 20
130.8622141535
  0
VERTEX
  8
0
 62
7
  6
CONTINUOUS
 10
43.1942916643
 20
130.8150930851
  0
VERTEX
  8
0
 62
7
  6
CONTINUOUS
 10
43.2089413675
 20
130.7581364675
  0
VERTEX
  8
0
 62
7
  6
CONTINUOUS
 10
43.2330914404
 20
130.70639104
  0
VERTEX
  8
0
 62
7
  6
CONTINUOUS
 10
43.2639338635
 20
130.661767823
  0
VERTEX
  8
0
 62
7
  6
CONTINUOUS
 10
43.2991503983
 20
130.6240369214
  0
VERTEX
  8
0
 62
7
  6
CONTINUOUS
 10
43.3375735655
 20
130.5918986277
  0
VERTEX
  8
0
 62
7
  6
CONTINUOUS
 10
43.3787857567
 20
130.5640143433
  0
VERTEX
  8
0
 62
7
  6
CONTINUOUS
 10
43.4227930585
 20
130.5392615232
  0
VERTEX
  8
0
 62
7
  6
CONTINUOUS
 10
43.4700153796
 20
130.5166855125
  0
VERTEX
  8
0
 62
7
  6
CONTINUOUS
 10
43.5212695806
 20
130.4954873978
  0
VERTEX
  8
0
 62
7
  6
CONTINUOUS
 10
43.5773741744
 20
130.4751342948
  0
VERTEX
  8
0
 62
7
  6
CONTINUOUS
 10
43.6390621354
 20
130.4552886936
  0
VERTEX
  8
0
 62
7
  6
CONTINUOUS
 10
43.706979728
 20
130.4357389214
  0
VERTEX
  8
0
 62
7
  6
CONTINUOUS
 10
43.7816940109
 20
130.4163550854
  0
VERTEX
  8
0
 62
7
  6
CONTINUOUS
 10
43.8637012466
 20
130.3970613366
  0
VERTEX
  8
0
 62
7
  6
CONTINUOUS
 10
43.9534622812
 20
130.3778124584
  0
VERTEX
  8
0
 62
7
  6
CONTINUOUS
 10
44.0514048315
 20
130.3585854622
  0
VERTEX
  8
0
 62
7
  6
CONTINUOUS
 10
44.1579073118
 20
130.3393768777
  0
VERTEX
  8
0
 62
7
  6
CONTINUOUS
 10
44.2733097805
 20
130.3201959387
  0
VERTEX
  8
0
 62
7
  6
CONTINUOUS
 10
44.3979153417
 20
130.3010613578
  0
SEQEND
  0
POLYLINE
  8
2_FEATURE
 62
7
  6
CONTINUOUS
 66
1
 70
0
  0
VERTEX
  8
2_FEATURE
 62
7
  6
CONTINUOUS
 10
43.1906147949
 20
147.6622141535
  0
VERTEX
  8
2_FEATURE
 62
7
  6
CONTINUOUS
 10
43.1942916622
 20
147.6150930986
  0
VERTEX
  8
2_FEATURE
 62
7
  6
CONTINUOUS
 10
43.2089413633
 20
147.5581364791
  0
VERTEX
  8
2_FEATURE
 62
7
  6
CONTINUOUS
 10
43.2330914348
 20
147.5063910496
  0
VERTEX
  8
2_FEATURE
 62
7
  6
CONTINUOUS
 10
43.2639338574
 20
147.4617678306
  0
VERTEX
  8
2_FEATURE
 62
7
  6
CONTINUOUS
 10
43.2991503919
 20
147.4240369274
  0
VERTEX
  8
2_FEATURE
 62
7
  6
CONTINUOUS
 10
43.3375735592
 20
147.3918986324
  0
VERTEX
  8
2_FEATURE
 62
7
  6
CONTINUOUS
 10
43.3787857505
 20
147.3640143472
  0
VERTEX
  8
2_FEATURE
 62
7
  6
CONTINUOUS
 10
43.4227930524
 20
147.3392615264
  0
VERTEX
  8
2_FEATURE
 62
7
  6
CONTINUOUS
 10
43.4700153735
 20
147.3166855152
  0
VERTEX
  8
2_FEATURE
 62
7
  6
CONTINUOUS
 10
43.5212695746
 20
147.2954874001
  0
VERTEX
  8
2_FEATURE
 62
7
  6
CONTINUOUS
 10
43.5773741686
 20
147.2751342968
  0
VERTEX
  8
2_FEATURE
 62
7
  6
CONTINUOUS
 10
43.6390621298
 20
147.2552886953
  0
VERTEX
  8
2_FEATURE
 62
7
  6
CONTINUOUS
 10
43.7069797226
 20
147.2357389228
  0
VERTEX
  8
2_FEATURE
 62
7
  6
CONTINUOUS
 10
43.7816940059
 20
147.2163550866
  0
VERTEX
  8
2_FEATURE
 62
7
  6
CONTINUOUS
 10
43.8637012421
 20
147.1970613376
  0
VERTEX
  8
2_FEATURE
 62
7
  6
CONTINUOUS
 10
43.9534622773
 20
147.1778124592
  0
VERTEX
  8
2_FEATURE
 62
7
  6
CONTINUOUS
 10
44.0514048283
 20
147.1585854628
  0
VERTEX
  8
2_FEATURE
 62
7
  6
CONTINUOUS
 10
44.1579073094
 20
147.1393768781
  0
VERTEX
  8
2_FEATURE
 62
7
  6
CONTINUOUS
 10
44.2733097789
 20
147.120195939
  0
VERTEX
  8
2_FEATURE
 62
7
  6
CONTINUOUS
 10
44.3979153409
 20
147.101061358
  0
SEQEND
  0
LINE
  8
0
 62
7
  6
CONTINUOUS
 10
43.1906147592
 20
154.0008078651
 11
43.1906147592
 21
147.6621642809
  0
LINE
  8
0
 62
7
  6
CONTINUOUS
 10
43.1906147592
 20
135.839432718
 11
43.1906147592
 21
130.862185405
  0
LINE
  8
0
 62
7
  6
CONTINUOUS
 10
43.1906147592
 20
119.039432718
 11
43.1906147592
 21
114.062185405
  0
LINE
  8
0
 62
7
  6
CONTINUOUS
 10
43.1906147592
 20
102.239432718
 11
43.1906147592
 21
97.262185405
  0
LINE
  8
2_FEATURE
 62
7
  6
CONTINUOUS
 10
110.7406155145
 20
87.2508090615
 11
56.2663660636
 21
87.2508090615
  0
POLYLINE
  8
2_FEATURE
 62
7
  6
CONTINUOUS
 66
1
 70
0
  0
VERTEX
  8
2_FEATURE
 62
7
  6
CONTINUOUS
 10
59.3421314037
 20
93.4437628058
  0
VERTEX
  8
2_FEATURE
 62
7
  6
CONTINUOUS
 10
59.3784214761
 20
93.4269607293
  0
VERTEX
  8
2_FEATURE
 62
7
  6
CONTINUOUS
 10
59.4205088012
 20
93.4091017193
  0
VERTEX
  8
2_FEATURE
 62
7
  6
CONTINUOUS
 10
59.4676927744
 20
93.3911810272
  0
VERTEX
  8
2_FEATURE
 62
7
  6
CONTINUOUS
 10
59.5189696701
 20
93.3741876309
  0
VERTEX
  8
2_FEATURE
 62
7
  6
CONTINUOUS
 10
59.5733313508
 20
93.3589259071
  0
VERTEX
  8
2_FEATURE
 62
7
  6
CONTINUOUS
 10
59.6299488528
 20
93.3459645197
  0
VERTEX
  8
2_FEATURE
 62
7
  6
CONTINUOUS
 10
59.6881617379
 20
93.3356838291
  0
VERTEX
  8
2_FEATURE
 62
7
  6
CONTINUOUS
 10
59.7471270382
 20
93.3283584096
  0
SEQEND
  0
POLYLINE
  8
0
 62
7
  6
CONTINUOUS
 66
1
 70
0
  0
VERTEX
  8
0
 62
7
  6
CONTINUOUS
 10
48.8182354925
 20
103.604542069
  0
VERTEX
  8
0
 62
7
  6
CONTINUOUS
 10
48.8170201877
 20
103.6399577391
  0
VERTEX
  8
0
 62
7
  6
CONTINUOUS
 10
48.8167113452
 20
103.6745318458
  0
VERTEX
  8
0
 62
7
  6
CONTINUOUS
 10
48.8173117409
 20
103.7075730697
  0
VERTEX
  8
0
 62
7
  6
CONTINUOUS
 10
48.8188066445
 20
103.7384200018
  0
VERTEX
  8
0
 62
7
  6
CONTINUOUS
 10
48.8211636826
 20
103.766457124
  0
VERTEX
  8
0
 62
7
  6
CONTINUOUS
 10
48.824333281
 20
103.7911299674
  0
VERTEX
  8
0
 62
7
  6
CONTINUOUS
 10
48.8282497256
 20
103.8119586688
  0
VERTEX
  8
0
 62
7
  6
CONTINUOUS
 10
48.8328327536
 20
103.8285485973
  0
VERTEX
  8
0
 62
7
  6
CONTINUOUS
 10
48.8379895565
 20
103.8405977119
  0
VERTEX
  8
0
 62
7
  6
CONTINUOUS
 10
48.8436170481
 20
103.8479005163
  0
VERTEX
  8
0
 62
7
  6
CONTINUOUS
 10
48.8488242856
 20
103.8503078296
  0
SEQEND
  0
POLYLINE
  8
0
 62
7
  6
CONTINUOUS
 66
1
 70
0
  0
VERTEX
  8
0
 62
7
  6
CONTINUOUS
 10
48.8182354925
 20
120.404542069
  0
VERTEX
  8
0
 62
7
  6
CONTINUOUS
 10
48.8170201877
 20
120.4399577391
  0
VERTEX
  8
0
 62
7
  6
CONTINUOUS
 10
48.8167113452
 20
120.4745318458
  0
VERTEX
  8
0
 62
7
  6
CONTINUOUS
 10
48.8173117409
 20
120.5075730697
  0
VERTEX
  8
0
 62
7
  6
CONTINUOUS
 10
48.8188066445
 20
120.5384200018
  0
VERTEX
  8
0
 62
7
  6
CONTINUOUS
 10
48.8211636826
 20
120.566457124
  0
VERTEX
  8
0
 62
7
  6
CONTINUOUS
 10
48.824333281
 20
120.5911299674
  0
VERTEX
  8
0
 62
7
  6
CONTINUOUS
 10
48.8282497256
 20
120.6119586688
  0
VERTEX
  8
0
 62
7
  6
CONTINUOUS
 10
48.8328327536
 20
120.6285485973
  0
VERTEX
  8
0
 62
7
  6
CONTINUOUS
 10
48.8379895565
 20
120.6405977119
  0
VERTEX
  8
0
 62
7
  6
CONTINUOUS
 10
48.8436170481
 20
120.6479005163
  0
VERTEX
  8
0
 62
7
  6
CONTINUOUS
 10
48.8488242856
 20
120.6503078296
  0
SEQEND
  0
LINE
  8
0
 62
7
  6
CONTINUOUS
 10
48.8182354917
 20
103.604542069
 11
48.8183334359
 21
103.6003488654
  0
LINE
  8
0
 62
7
  6
CONTINUOUS
 10
48.8182354917
 20
120.404542069
 11
48.8183334359
 21
120.4003488654
  0
LINE
  8
0
 62
7
  6
CONTINUOUS
 10
48.8183334359
 20
137.2003488654
 11
48.8183334359
 21
129.5012692576
  0
LINE
  8
0
 62
7
  6
CONTINUOUS
 10
48.8183334359
 20
120.4003488654
 11
48.8183334359
 21
112.7012692576
  0
LINE
  8
0
 62
7
  6
CONTINUOUS
 10
48.8183334359
 20
95.9012692576
 11
48.8183334359
 21
103.6003488654
  0
LINE
  8
0
 62
7
  6
CONTINUOUS
 10
48.8183334359
 20
146.3012692576
 11
48.8183334359
 21
154.0008090615
  0
LINE
  8
2_FEATURE
 62
7
  6
CONTINUOUS
 10
48.8182354917
 20
146.297076054
 11
48.8183334359
 21
146.3012692576
  0
LINE
  8
0
 62
7
  6
CONTINUOUS
 10
48.8182354917
 20
129.497076054
 11
48.8183334359
 21
129.5012692576
  0
POLYLINE
  8
2_FEATURE
 62
7
  6
CONTINUOUS
 66
1
 70
0
  0
VERTEX
  8
2_FEATURE
 62
7
  6
CONTINUOUS
 10
48.8182354925
 20
146.297076054
  0
VERTEX
  8
2_FEATURE
 62
7
  6
CONTINUOUS
 10
48.8170201877
 20
146.2616603839
  0
VERTEX
  8
2_FEATURE
 62
7
  6
CONTINUOUS
 10
48.8167113452
 20
146.2270862772
  0
VERTEX
  8
2_FEATURE
 62
7
  6
CONTINUOUS
 10
48.8173117409
 20
146.1940450533
  0
VERTEX
  8
2_FEATURE
 62
7
  6
CONTINUOUS
 10
48.8188066445
 20
146.1631981212
  0
VERTEX
  8
2_FEATURE
 62
7
  6
CONTINUOUS
 10
48.8211636826
 20
146.135160999
  0
VERTEX
  8
2_FEATURE
 62
7
  6
CONTINUOUS
 10
48.824333281
 20
146.1104881556
  0
VERTEX
  8
2_FEATURE
 62
7
  6
CONTINUOUS
 10
48.8282497256
 20
146.0896594542
  0
VERTEX
  8
2_FEATURE
 62
7
  6
CONTINUOUS
 10
48.8328327536
 20
146.0730695257
  0
VERTEX
  8
2_FEATURE
 62
7
  6
CONTINUOUS
 10
48.8379895565
 20
146.0610204111
  0
VERTEX
  8
2_FEATURE
 62
7
  6
CONTINUOUS
 10
48.8436170481
 20
146.0537176067
  0
VERTEX
  8
2_FEATURE
 62
7
  6
CONTINUOUS
 10
48.8488242856
 20
146.0513102933
  0
SEQEND
  0
POLYLINE
  8
0
 62
7
  6
CONTINUOUS
 66
1
 70
0
  0
VERTEX
  8
0
 62
7
  6
CONTINUOUS
 10
48.8182354925
 20
129.497076054
  0
VERTEX
  8
0
 62
7
  6
CONTINUOUS
 10
48.8170201877
 20
129.4616603839
  0
VERTEX
  8
0
 62
7
  6
CONTINUOUS
 10
48.8167113452
 20
129.4270862772
  0
VERTEX
  8
0
 62
7
  6
CONTINUOUS
 10
48.8173117409
 20
129.3940450533
  0
VERTEX
  8
0
 62
7
  6
CONTINUOUS
 10
48.8188066445
 20
129.3631981212
  0
VERTEX
  8
0
 62
7
  6
CONTINUOUS
 10
48.8211636826
 20
129.335160999
  0
VERTEX
  8
0
 62
7
  6
CONTINUOUS
 10
48.824333281
 20
129.3104881556
  0
VERTEX
  8
0
 62
7
  6
CONTINUOUS
 10
48.8282497256
 20
129.2896594542
  0
VERTEX
  8
0
 62
7
  6
CONTINUOUS
 10
48.8328327536
 20
129.2730695257
  0
VERTEX
  8
0
 62
7
  6
CONTINUOUS
 10
48.8379895565
 20
129.2610204111
  0
VERTEX
  8
0
 62
7
  6
CONTINUOUS
 10
48.8436170481
 20
129.2537176067
  0
VERTEX
  8
0
 62
7
  6
CONTINUOUS
 10
48.8488242856
 20
129.2513102933
  0
SEQEND
  0
POLYLINE
  8
2_FEATURE
 62
7
  6
CONTINUOUS
 66
1
 70
0
  0
VERTEX
  8
2_FEATURE
 62
7
  6
CONTINUOUS
 10
58.8846449958
 20
145.9553467268
  0
VERTEX
  8
2_FEATURE
 62
7
  6
CONTINUOUS
 10
58.8487494248
 20
145.8920795898
  0
VERTEX
  8
2_FEATURE
 62
7
  6
CONTINUOUS
 10
58.8186894525
 20
145.8281084163
  0
VERTEX
  8
2_FEATURE
 62
7
  6
CONTINUOUS
 10
58.7939642637
 20
145.76355833
  0
VERTEX
  8
2_FEATURE
 62
7
  6
CONTINUOUS
 10
58.7742141702
 20
145.6986092764
  0
VERTEX
  8
2_FEATURE
 62
7
  6
CONTINUOUS
 10
58.7590623014
 20
145.6329945897
  0
VERTEX
  8
2_FEATURE
 62
7
  6
CONTINUOUS
 10
58.7483498016
 20
145.566848495
  0
VERTEX
  8
2_FEATURE
 62
7
  6
CONTINUOUS
 10
58.7419232549
 20
145.4998453483
  0
VERTEX
  8
2_FEATURE
 62
7
  6
CONTINUOUS
 10
58.739771534
 20
145.4319021397
  0
SEQEND
  0
POLYLINE
  8
2_FEATURE
 62
7
  6
CONTINUOUS
 66
1
 70
0
  0
VERTEX
  8
2_FEATURE
 62
7
  6
CONTINUOUS
 10
59.2831691714
 20
146.2987208013
  0
VERTEX
  8
2_FEATURE
 62
7
  6
CONTINUOUS
 10
59.2087719447
 20
146.2621047026
  0
VERTEX
  8
2_FEATURE
 62
7
  6
CONTINUOUS
 10
59.142853055
 20
146.222065721
  0
VERTEX
  8
2_FEATURE
 62
7
  6
CONTINUOUS
 10
59.0846751601
 20
146.1796997269
  0
VERTEX
  8
2_FEATURE
 62
7
  6
CONTINUOUS
 10
59.0334066084
 20
146.1357692412
  0
VERTEX
  8
2_FEATURE
 62
7
  6
CONTINUOUS
 10
58.9883860141
 20
146.0909356793
  0
VERTEX
  8
2_FEATURE
 62
7
  6
CONTINUOUS
 10
58.9489810021
 20
146.0457035048
  0
VERTEX
  8
2_FEATURE
 62
7
  6
CONTINUOUS
 10
58.9145610146
 20
146.0003922465
  0
VERTEX
  8
2_FEATURE
 62
7
  6
CONTINUOUS
 10
58.8846449958
 20
145.9553467268
  0
SEQEND
  0
POLYLINE
  8
2_FEATURE
 62
7
  6
CONTINUOUS
 66
1
 70
0
  0
VERTEX
  8
2_FEATURE
 62
7
  6
CONTINUOUS
 10
59.7471270382
 20
93.3283584096
  0
VERTEX
  8
2_FEATURE
 62
7
  6
CONTINUOUS
 10
59.785551385
 20
93.3252592015
  0
VERTEX
  8
2_FEATURE
 62
7
  6
CONTINUOUS
 10
59.8240937636
 20
93.3234922692
  0
VERTEX
  8
2_FEATURE
 62
7
  6
CONTINUOUS
 10
59.8627003676
 20
93.3230622053
  0
SEQEND
  0
LINE
  8
0
 62
7
  6
CONTINUOUS
 10
44.3979153417
 20
96.7010613578
 11
44.4875990097
 21
96.6882489407
  0
POLYLINE
  8
0
 62
7
  6
CONTINUOUS
 66
1
 70
0
  0
VERTEX
  8
0
 62
7
  6
CONTINUOUS
 10
48.8182354925
 20
137.204542069
  0
VERTEX
  8
0
 62
7
  6
CONTINUOUS
 10
48.8170201877
 20
137.2399577391
  0
VERTEX
  8
0
 62
7
  6
CONTINUOUS
 10
48.8167113452
 20
137.2745318458
  0
VERTEX
  8
0
 62
7
  6
CONTINUOUS
 10
48.8173117409
 20
137.3075730697
  0
VERTEX
  8
0
 62
7
  6
CONTINUOUS
 10
48.8188066445
 20
137.3384200018
  0
VERTEX
  8
0
 62
7
  6
CONTINUOUS
 10
48.8211636826
 20
137.366457124
  0
VERTEX
  8
0
 62
7
  6
CONTINUOUS
 10
48.824333281
 20
137.3911299674
  0
VERTEX
  8
0
 62
7
  6
CONTINUOUS
 10
48.8282497256
 20
137.4119586688
  0
VERTEX
  8
0
 62
7
  6
CONTINUOUS
 10
48.8328327536
 20
137.4285485973
  0
VERTEX
  8
0
 62
7
  6
CONTINUOUS
 10
48.8379895565
 20
137.4405977119
  0
VERTEX
  8
0
 62
7
  6
CONTINUOUS
 10
48.8436170481
 20
137.4479005163
  0
VERTEX
  8
0
 62
7
  6
CONTINUOUS
 10
48.8488242856
 20
137.4503078296
  0
SEQEND
  0
LINE
  8
0
 62
7
  6
CONTINUOUS
 10
48.8182354917
 20
137.204542069
 11
48.8183334359
 21
137.2003488654
  0
LINE
  8
DEFAULT_1
 62
2
  6
CENTER
 10
51.6906147592
 20
90.7423120879
 11
51.6906147592
 21
156.2508090615
  0
LINE
  8
0
 62
7
  6
CONTINUOUS
 10
48.8182354917
 20
112.697076054
 11
48.8183334359
 21
112.7012692576
  0
LINE
  8
0
 62
7
  6
CONTINUOUS
 10
48.8182354917
 20
95.897076054
 11
48.8183334359
 21
95.9012692576
  0
POLYLINE
  8
0
 62
7
  6
CONTINUOUS
 66
1
 70
0
  0
VERTEX
  8
0
 62
7
  6
CONTINUOUS
 10
48.8182354925
 20
112.697076054
  0
VERTEX
  8
0
 62
7
  6
CONTINUOUS
 10
48.8170201877
 20
112.6616603839
  0
VERTEX
  8
0
 62
7
  6
CONTINUOUS
 10
48.8167113452
 20
112.6270862772
  0
VERTEX
  8
0
 62
7
  6
CONTINUOUS
 10
48.8173117409
 20
112.5940450533
  0
VERTEX
  8
0
 62
7
  6
CONTINUOUS
 10
48.8188066445
 20
112.5631981212
  0
VERTEX
  8
0
 62
7
  6
CONTINUOUS
 10
48.8211636826
 20
112.535160999
  0
VERTEX
  8
0
 62
7
  6
CONTINUOUS
 10
48.824333281
 20
112.5104881556
  0
VERTEX
  8
0
 62
7
  6
CONTINUOUS
 10
48.8282497256
 20
112.4896594542
  0
VERTEX
  8
0
 62
7
  6
CONTINUOUS
 10
48.8328327536
 20
112.4730695257
  0
VERTEX
  8
0
 62
7
  6
CONTINUOUS
 10
48.8379895565
 20
112.4610204111
  0
VERTEX
  8
0
 62
7
  6
CONTINUOUS
 10
48.8436170481
 20
112.4537176067
  0
VERTEX
  8
0
 62
7
  6
CONTINUOUS
 10
48.8488242856
 20
112.4513102933
  0
SEQEND
  0
POLYLINE
  8
0
 62
7
  6
CONTINUOUS
 66
1
 70
0
  0
VERTEX
  8
0
 62
7
  6
CONTINUOUS
 10
48.8182354925
 20
95.897076054
  0
VERTEX
  8
0
 62
7
  6
CONTINUOUS
 10
48.8170201877
 20
95.8616603839
  0
VERTEX
  8
0
 62
7
  6
CONTINUOUS
 10
48.8167113452
 20
95.8270862772
  0
VERTEX
  8
0
 62
7
  6
CONTINUOUS
 10
48.8173117409
 20
95.7940450533
  0
VERTEX
  8
0
 62
7
  6
CONTINUOUS
 10
48.8188066445
 20
95.7631981212
  0
VERTEX
  8
0
 62
7
  6
CONTINUOUS
 10
48.8211636826
 20
95.735160999
  0
VERTEX
  8
0
 62
7
  6
CONTINUOUS
 10
48.824333281
 20
95.7104881556
  0
VERTEX
  8
0
 62
7
  6
CONTINUOUS
 10
48.8282497256
 20
95.6896594542
  0
VERTEX
  8
0
 62
7
  6
CONTINUOUS
 10
48.8328327536
 20
95.6730695257
  0
VERTEX
  8
0
 62
7
  6
CONTINUOUS
 10
48.8379895565
 20
95.6610204111
  0
VERTEX
  8
0
 62
7
  6
CONTINUOUS
 10
48.8436170481
 20
95.6537176067
  0
VERTEX
  8
0
 62
7
  6
CONTINUOUS
 10
48.8488242856
 20
95.6513102933
  0
SEQEND
  0
POLYLINE
  8
2_FEATURE
 62
7
  6
CONTINUOUS
 66
1
 70
0
  0
VERTEX
  8
2_FEATURE
 62
7
  6
CONTINUOUS
 10
59.3421314037
 20
139.6578553172
  0
VERTEX
  8
2_FEATURE
 62
7
  6
CONTINUOUS
 10
59.2492818999
 20
139.6075308825
  0
VERTEX
  8
2_FEATURE
 62
7
  6
CONTINUOUS
 10
59.1661720703
 20
139.5515796332
  0
VERTEX
  8
2_FEATURE
 62
7
  6
CONTINUOUS
 10
59.0924710067
 20
139.4914800238
  0
VERTEX
  8
2_FEATURE
 62
7
  6
CONTINUOUS
 10
59.0276852454
 20
139.4284699502
  0
VERTEX
  8
2_FEATURE
 62
7
  6
CONTINUOUS
 10
58.9712137249
 20
139.3635393739
  0
VERTEX
  8
2_FEATURE
 62
7
  6
CONTINUOUS
 10
58.9224264082
 20
139.2974736478
  0
VERTEX
  8
2_FEATURE
 62
7
  6
CONTINUOUS
 10
58.8806947503
 20
139.2308749795
  0
VERTEX
  8
2_FEATURE
 62
7
  6
CONTINUOUS
 10
58.8453725065
 20
139.1640967611
  0
VERTEX
  8
2_FEATURE
 62
7
  6
CONTINUOUS
 10
58.8159283559
 20
139.0974620599
  0
VERTEX
  8
2_FEATURE
 62
7
  6
CONTINUOUS
 10
58.7918326809
 20
139.0310430325
  0
VERTEX
  8
2_FEATURE
 62
7
  6
CONTINUOUS
 10
58.7726807527
 20
138.9649348816
  0
VERTEX
  8
2_FEATURE
 62
7
  6
CONTINUOUS
 10
58.7581047033
 20
138.8990079889
  0
VERTEX
  8
2_FEATURE
 62
7
  6
CONTINUOUS
 10
58.7478839072
 20
138.833392649
  0
VERTEX
  8
2_FEATURE
 62
7
  6
CONTINUOUS
 10
58.7417938177
 20
138.767650953
  0
VERTEX
  8
2_FEATURE
 62
7
  6
CONTINUOUS
 10
58.739771534
 20
138.701819822
  0
SEQEND
  0
POLYLINE
  8
2_FEATURE
 62
7
  6
CONTINUOUS
 66
1
 70
0
  0
VERTEX
  8
2_FEATURE
 62
7
  6
CONTINUOUS
 10
94.4816125737
 20
95.099661585
  0
VERTEX
  8
2_FEATURE
 62
7
  6
CONTINUOUS
 10
94.5419711179
 20
95.108005538
  0
VERTEX
  8
2_FEATURE
 62
7
  6
CONTINUOUS
 10
94.6022601658
 20
95.1192094366
  0
VERTEX
  8
2_FEATURE
 62
7
  6
CONTINUOUS
 10
94.66160615
 20
95.1330799055
  0
VERTEX
  8
2_FEATURE
 62
7
  6
CONTINUOUS
 10
94.7194331213
 20
95.1493485927
  0
VERTEX
  8
2_FEATURE
 62
7
  6
CONTINUOUS
 10
94.7748575893
 20
95.1675162626
  0
VERTEX
  8
2_FEATURE
 62
7
  6
CONTINUOUS
 10
94.826820536
 20
95.1868199739
  0
VERTEX
  8
2_FEATURE
 62
7
  6
CONTINUOUS
 10
94.8739941792
 20
95.2061526655
  0
VERTEX
  8
2_FEATURE
 62
7
  6
CONTINUOUS
 10
94.9154939043
 20
95.2243739064
  0
VERTEX
  8
2_FEATURE
 62
7
  6
CONTINUOUS
 10
94.9506571287
 20
95.240342414
  0
VERTEX
  8
2_FEATURE
 62
7
  6
CONTINUOUS
 10
94.9791830974
 20
95.2531089779
  0
SEQEND
  0
POLYLINE
  8
2_FEATURE
 62
7
  6
CONTINUOUS
 66
1
 70
0
  0
VERTEX
  8
2_FEATURE
 62
7
  6
CONTINUOUS
 10
71.4191668376
 20
93.3904495809
  0
VERTEX
  8
2_FEATURE
 62
7
  6
CONTINUOUS
 10
71.5248117883
 20
93.3952791654
  0
VERTEX
  8
2_FEATURE
 62
7
  6
CONTINUOUS
 10
71.6293903594
 20
93.409707033
  0
VERTEX
  8
2_FEATURE
 62
7
  6
CONTINUOUS
 10
71.7319188822
 20
93.4335591632
  0
VERTEX
  8
2_FEATURE
 62
7
  6
CONTINUOUS
 10
71.8315284803
 20
93.4665862966
  0
VERTEX
  8
2_FEATURE
 62
7
  6
CONTINUOUS
 10
71.9272486376
 20
93.5084016257
  0
VERTEX
  8
2_FEATURE
 62
7
  6
CONTINUOUS
 10
72.0183587013
 20
93.5586164874
  0
VERTEX
  8
2_FEATURE
 62
7
  6
CONTINUOUS
 10
72.1039652222
 20
93.6166483474
  0
VERTEX
  8
2_FEATURE
 62
7
  6
CONTINUOUS
 10
72.1835215359
 20
93.6820316572
  0
VERTEX
  8
2_FEATURE
 62
7
  6
CONTINUOUS
 10
72.2562405126
 20
93.7540102038
  0
VERTEX
  8
2_FEATURE
 62
7
  6
CONTINUOUS
 10
72.3217391882
 20
93.8320929426
  0
VERTEX
  8
2_FEATURE
 62
7
  6
CONTINUOUS
 10
72.3793742561
 20
93.9153912543
  0
VERTEX
  8
2_FEATURE
 62
7
  6
CONTINUOUS
 10
72.4288885515
 20
94.0034099675
  0
VERTEX
  8
2_FEATURE
 62
7
  6
CONTINUOUS
 10
72.4698105706
 20
94.0951859592
  0
VERTEX
  8
2_FEATURE
 62
7
  6
CONTINUOUS
 10
72.5019680132
 20
94.1902047257
  0
VERTEX
  8
2_FEATURE
 62
7
  6
CONTINUOUS
 10
72.5250722696
 20
94.2875028217
  0
VERTEX
  8
2_FEATURE
 62
7
  6
CONTINUOUS
 10
72.5390129917
 20
94.3864985531
  0
VERTEX
  8
2_FEATURE
 62
7
  6
CONTINUOUS
 10
72.5436692301
 20
94.486297953
  0
SEQEND
  0
LINE
  8
2_FEATURE
 62
7
  6
CONTINUOUS
 10
59.8627003676
 20
93.3230622053
 11
70.6598081707
 21
93.3898817145
  0
LINE
  8
2_FEATURE
 62
7
  6
CONTINUOUS
 10
70.6598081707
 20
93.3898817145
 11
70.8276500732
 21
93.3903861784
  0
LINE
  8
2_FEATURE
 62
7
  6
CONTINUOUS
 10
71.4191668376
 20
93.3904495809
 11
70.8276500732
 21
93.3903861784
  0
LINE
  8
2_FEATURE
 62
7
  6
CONTINUOUS
 10
83.2684239384
 20
95.4207183697
 11
82.7443611692
 21
95.4207183697
  0
LINE
  8
0
 62
7
  6
CONTINUOUS
 10
98.6648321461
 20
95.4503488654
 11
105.3316136328
 21
95.4503488654
  0
LINE
  8
0
 62
7
  6
CONTINUOUS
 10
55.5163976034
 20
95.6512692576
 11
48.8496158855
 21
95.6512692576
  0
LINE
  8
2_FEATURE
 62
7
  6
CONTINUOUS
 10
71.4368683491
 20
95.6808997533
 11
70.9128055799
 21
95.6808997533
  0
POLYLINE
  8
2_FEATURE
 62
7
  6
CONTINUOUS
 66
1
 70
0
  0
VERTEX
  8
2_FEATURE
 62
7
  6
CONTINUOUS
 10
83.2684239384
 20
95.4207183697
  0
VERTEX
  8
2_FEATURE
 62
7
  6
CONTINUOUS
 10
83.3535656838
 20
95.4204006851
  0
VERTEX
  8
2_FEATURE
 62
7
  6
CONTINUOUS
 10
83.438094873
 20
95.4194498517
  0
VERTEX
  8
2_FEATURE
 62
7
  6
CONTINUOUS
 10
83.521402857
 20
95.4178725202
  0
VERTEX
  8
2_FEATURE
 62
7
  6
CONTINUOUS
 10
83.6028888041
 20
95.4156797419
  0
SEQEND
  0
POLYLINE
  8
2_FEATURE
 62
7
  6
CONTINUOUS
 66
1
 70
0
  0
VERTEX
  8
2_FEATURE
 62
7
  6
CONTINUOUS
 10
94.3179242278
 20
95.092697956
  0
VERTEX
  8
2_FEATURE
 62
7
  6
CONTINUOUS
 10
94.3722812027
 20
95.0924151721
  0
VERTEX
  8
2_FEATURE
 62
7
  6
CONTINUOUS
 10
94.4268656547
 20
95.0947190413
  0
VERTEX
  8
2_FEATURE
 62
7
  6
CONTINUOUS
 10
94.4816125737
 20
95.099661585
  0
SEQEND
  0
POLYLINE
  8
2_FEATURE
 62
7
  6
CONTINUOUS
 66
1
 70
0
  0
VERTEX
  8
2_FEATURE
 62
7
  6
CONTINUOUS
 10
70.5783407142
 20
95.6859383811
  0
VERTEX
  8
2_FEATURE
 62
7
  6
CONTINUOUS
 10
70.659826662
 20
95.6837456028
  0
VERTEX
  8
2_FEATURE
 62
7
  6
CONTINUOUS
 10
70.7431346493
 20
95.6821682712
  0
VERTEX
  8
2_FEATURE
 62
7
  6
CONTINUOUS
 10
70.8276638382
 20
95.6812174378
  0
VERTEX
  8
2_FEATURE
 62
7
  6
CONTINUOUS
 10
70.9128055799
 20
95.6808997533
  0
SEQEND
  0
POLYLINE
  8
2_FEATURE
 62
7
  6
CONTINUOUS
 66
1
 70
0
  0
VERTEX
  8
2_FEATURE
 62
7
  6
CONTINUOUS
 10
94.3179242278
 20
95.092697956
  0
VERTEX
  8
2_FEATURE
 62
7
  6
CONTINUOUS
 10
92.4723533126
 20
95.1463068997
  0
VERTEX
  8
2_FEATURE
 62
7
  6
CONTINUOUS
 10
90.5708876249
 20
95.202488941
  0
SEQEND
  0
LINE
  8
2_FEATURE
 62
7
  6
CONTINUOUS
 10
88.5485979359
 20
95.2632306252
 11
90.5708876249
 21
95.202488941
  0
LINE
  8
2_FEATURE
 62
7
  6
CONTINUOUS
 10
87.8282668541
 20
95.2844812653
 11
88.5485979359
 21
95.2632306252
  0
POLYLINE
  8
2_FEATURE
 62
7
  6
CONTINUOUS
 66
1
 70
0
  0
VERTEX
  8
2_FEATURE
 62
7
  6
CONTINUOUS
 10
63.9649157662
 20
95.8912859897
  0
VERTEX
  8
2_FEATURE
 62
7
  6
CONTINUOUS
 10
62.5951249303
 20
95.9335129185
  0
VERTEX
  8
2_FEATURE
 62
7
  6
CONTINUOUS
 10
61.2227547044
 20
95.9752112419
  0
VERTEX
  8
2_FEATURE
 62
7
  6
CONTINUOUS
 10
59.8619016176
 20
96.0159556874
  0
SEQEND
  0
LINE
  8
2_FEATURE
 62
7
  6
CONTINUOUS
 10
70.5783407142
 20
95.6859383811
 11
63.9649157662
 21
95.8912859897
  0
LINE
  8
2_FEATURE
 62
7
  6
CONTINUOUS
 10
87.8282668541
 20
95.2844812653
 11
83.6028888041
 21
95.4156797419
  0
LINE
  8
0
 62
7
  6
CONTINUOUS
 10
48.8488242856
 20
95.6513102933
 11
48.8496156583
 21
95.6512692576
  0
POLYLINE
  8
2_FEATURE
 62
7
  6
CONTINUOUS
 66
1
 70
0
  0
VERTEX
  8
2_FEATURE
 62
7
  6
CONTINUOUS
 10
59.7312270662
 20
96.0122909401
  0
VERTEX
  8
2_FEATURE
 62
7
  6
CONTINUOUS
 10
59.6712223303
 20
96.0057328738
  0
VERTEX
  8
2_FEATURE
 62
7
  6
CONTINUOUS
 10
59.6115306735
 20
95.9964529135
  0
VERTEX
  8
2_FEATURE
 62
7
  6
CONTINUOUS
 10
59.5533213163
 20
95.9847464215
  0
VERTEX
  8
2_FEATURE
 62
7
  6
CONTINUOUS
 10
59.4973061445
 20
95.9710034251
  0
VERTEX
  8
2_FEATURE
 62
7
  6
CONTINUOUS
 10
59.4444885722
 20
95.9558457214
  0
VERTEX
  8
2_FEATURE
 62
7
  6
CONTINUOUS
 10
59.3956939912
 20
95.9400250414
  0
VERTEX
  8
2_FEATURE
 62
7
  6
CONTINUOUS
 10
59.3520785277
 20
95.9245674042
  0
VERTEX
  8
2_FEATURE
 62
7
  6
CONTINUOUS
 10
59.2831691714
 20
95.8987208013
  0
SEQEND
  0
POLYLINE
  8
2_FEATURE
 62
7
  6
CONTINUOUS
 66
1
 70
0
  0
VERTEX
  8
2_FEATURE
 62
7
  6
CONTINUOUS
 10
82.7620626807
 20
97.7111685421
  0
VERTEX
  8
2_FEATURE
 62
7
  6
CONTINUOUS
 10
82.65641773
 20
97.7063389576
  0
VERTEX
  8
2_FEATURE
 62
7
  6
CONTINUOUS
 10
82.5518391589
 20
97.69191109
  0
VERTEX
  8
2_FEATURE
 62
7
  6
CONTINUOUS
 10
82.4493106361
 20
97.6680589598
  0
VERTEX
  8
2_FEATURE
 62
7
  6
CONTINUOUS
 10
82.349701038
 20
97.6350318264
  0
VERTEX
  8
2_FEATURE
 62
7
  6
CONTINUOUS
 10
82.2539808807
 20
97.5932164973
  0
VERTEX
  8
2_FEATURE
 62
7
  6
CONTINUOUS
 10
82.162870817
 20
97.5430016356
  0
VERTEX
  8
2_FEATURE
 62
7
  6
CONTINUOUS
 10
82.0772642961
 20
97.4849697755
  0
VERTEX
  8
2_FEATURE
 62
7
  6
CONTINUOUS
 10
81.9977079824
 20
97.4195864658
  0
VERTEX
  8
2_FEATURE
 62
7
  6
CONTINUOUS
 10
81.9249890057
 20
97.3476079192
  0
VERTEX
  8
2_FEATURE
 62
7
  6
CONTINUOUS
 10
81.8594903301
 20
97.2695251804
  0
VERTEX
  8
2_FEATURE
 62
7
  6
CONTINUOUS
 10
81.8018552622
 20
97.1862268687
  0
VERTEX
  8
2_FEATURE
 62
7
  6
CONTINUOUS
 10
81.7523409668
 20
97.0982081555
  0
VERTEX
  8
2_FEATURE
 62
7
  6
CONTINUOUS
 10
81.7114189477
 20
97.0064321638
  0
VERTEX
  8
2_FEATURE
 62
7
  6
CONTINUOUS
 10
81.6792615051
 20
96.9114133973
  0
VERTEX
  8
2_FEATURE
 62
7
  6
CONTINUOUS
 10
81.6561572487
 20
96.8141153012
  0
VERTEX
  8
2_FEATURE
 62
7
  6
CONTINUOUS
 10
81.6422165266
 20
96.7151195699
  0
VERTEX
  8
2_FEATURE
 62
7
  6
CONTINUOUS
 10
81.6375602882
 20
96.61532017
  0
SEQEND
  0
LINE
  8
2_FEATURE
 62
7
  6
CONTINUOUS
 10
83.4381165565
 20
97.7114216922
 11
94.3185291507
 21
97.7785559177
  0
LINE
  8
2_FEATURE
 62
7
  6
CONTINUOUS
 10
83.4381165565
 20
97.7114216922
 11
82.7620626807
 21
97.7111685421
  0
POLYLINE
  8
2_FEATURE
 62
7
  6
CONTINUOUS
 66
1
 70
0
  0
VERTEX
  8
2_FEATURE
 62
7
  6
CONTINUOUS
 10
59.8619016176
 20
96.0159556874
  0
VERTEX
  8
2_FEATURE
 62
7
  6
CONTINUOUS
 10
59.8183591363
 20
96.0164138303
  0
VERTEX
  8
2_FEATURE
 62
7
  6
CONTINUOUS
 10
59.7747832152
 20
96.0151957405
  0
VERTEX
  8
2_FEATURE
 62
7
  6
CONTINUOUS
 10
59.7312270662
 20
96.0122909401
  0
SEQEND
  0
LINE
  8
0
 62
7
  6
CONTINUOUS
 10
105.3324052327
 20
95.4503078296
 11
105.3316138601
 21
95.4503488654
  0
POLYLINE
  8
2_FEATURE
 62
7
  6
CONTINUOUS
 66
1
 70
0
  0
VERTEX
  8
2_FEATURE
 62
7
  6
CONTINUOUS
 10
59.3520785277
 20
103.5770507188
  0
VERTEX
  8
2_FEATURE
 62
7
  6
CONTINUOUS
 10
59.3956939912
 20
103.5615930816
  0
VERTEX
  8
2_FEATURE
 62
7
  6
CONTINUOUS
 10
59.4444885722
 20
103.5457724015
  0
VERTEX
  8
2_FEATURE
 62
7
  6
CONTINUOUS
 10
59.4973061445
 20
103.5306146979
  0
VERTEX
  8
2_FEATURE
 62
7
  6
CONTINUOUS
 10
59.5533213163
 20
103.5168717015
  0
VERTEX
  8
2_FEATURE
 62
7
  6
CONTINUOUS
 10
59.6115306735
 20
103.5051652095
  0
VERTEX
  8
2_FEATURE
 62
7
  6
CONTINUOUS
 10
59.6712223303
 20
103.4958852492
  0
VERTEX
  8
2_FEATURE
 62
7
  6
CONTINUOUS
 10
59.7312270662
 20
103.4893271829
  0
SEQEND
  0
LINE
  8
2_FEATURE
 62
7
  6
CONTINUOUS
 10
59.2831691714
 20
103.6028973217
 11
59.3520785277
 21
103.5770507188
  0
POLYLINE
  8
2_FEATURE
 62
7
  6
CONTINUOUS
 66
1
 70
0
  0
VERTEX
  8
2_FEATURE
 62
7
  6
CONTINUOUS
 10
58.8846449958
 20
103.9462713962
  0
VERTEX
  8
2_FEATURE
 62
7
  6
CONTINUOUS
 10
58.9145610146
 20
103.9012258765
  0
VERTEX
  8
2_FEATURE
 62
7
  6
CONTINUOUS
 10
58.9489810021
 20
103.8559146182
  0
VERTEX
  8
2_FEATURE
 62
7
  6
CONTINUOUS
 10
58.9883860141
 20
103.8106824437
  0
VERTEX
  8
2_FEATURE
 62
7
  6
CONTINUOUS
 10
59.0334066084
 20
103.7658488818
  0
VERTEX
  8
2_FEATURE
 62
7
  6
CONTINUOUS
 10
59.0846751601
 20
103.721918396
  0
VERTEX
  8
2_FEATURE
 62
7
  6
CONTINUOUS
 10
59.142853055
 20
103.679552402
  0
VERTEX
  8
2_FEATURE
 62
7
  6
CONTINUOUS
 10
59.2087719447
 20
103.6395134203
  0
VERTEX
  8
2_FEATURE
 62
7
  6
CONTINUOUS
 10
59.2831691714
 20
103.6028973217
  0
SEQEND
  0
POLYLINE
  8
2_FEATURE
 62
7
  6
CONTINUOUS
 66
1
 70
0
  0
VERTEX
  8
2_FEATURE
 62
7
  6
CONTINUOUS
 10
58.739771534
 20
104.4697159833
  0
VERTEX
  8
2_FEATURE
 62
7
  6
CONTINUOUS
 10
58.7419232549
 20
104.4017727746
  0
VERTEX
  8
2_FEATURE
 62
7
  6
CONTINUOUS
 10
58.7483498016
 20
104.334769628
  0
VERTEX
  8
2_FEATURE
 62
7
  6
CONTINUOUS
 10
58.7590623014
 20
104.2686235333
  0
VERTEX
  8
2_FEATURE
 62
7
  6
CONTINUOUS
 10
58.7742141702
 20
104.2030088466
  0
VERTEX
  8
2_FEATURE
 62
7
  6
CONTINUOUS
 10
58.7939642637
 20
104.138059793
  0
VERTEX
  8
2_FEATURE
 62
7
  6
CONTINUOUS
 10
58.8186894525
 20
104.0735097067
  0
VERTEX
  8
2_FEATURE
 62
7
  6
CONTINUOUS
 10
58.8487494248
 20
104.0095385332
  0
VERTEX
  8
2_FEATURE
 62
7
  6
CONTINUOUS
 10
58.8846449958
 20
103.9462713962
  0
SEQEND
  0
POLYLINE
  8
2_FEATURE
 62
7
  6
CONTINUOUS
 66
1
 70
0
  0
VERTEX
  8
2_FEATURE
 62
7
  6
CONTINUOUS
 10
58.739771534
 20
94.399798301
  0
VERTEX
  8
2_FEATURE
 62
7
  6
CONTINUOUS
 10
58.7417938177
 20
94.33396717
  0
VERTEX
  8
2_FEATURE
 62
7
  6
CONTINUOUS
 10
58.7478839072
 20
94.268225474
  0
VERTEX
  8
2_FEATURE
 62
7
  6
CONTINUOUS
 10
58.7581047033
 20
94.2026101341
  0
VERTEX
  8
2_FEATURE
 62
7
  6
CONTINUOUS
 10
58.7726807527
 20
94.1366832414
  0
VERTEX
  8
2_FEATURE
 62
7
  6
CONTINUOUS
 10
58.7918326809
 20
94.0705750905
  0
VERTEX
  8
2_FEATURE
 62
7
  6
CONTINUOUS
 10
58.8159283559
 20
94.0041560631
  0
VERTEX
  8
2_FEATURE
 62
7
  6
CONTINUOUS
 10
58.8453725065
 20
93.9375213619
  0
VERTEX
  8
2_FEATURE
 62
7
  6
CONTINUOUS
 10
58.8806947503
 20
93.8707431435
  0
VERTEX
  8
2_FEATURE
 62
7
  6
CONTINUOUS
 10
58.9224264082
 20
93.8041444752
  0
VERTEX
  8
2_FEATURE
 62
7
  6
CONTINUOUS
 10
58.9712137249
 20
93.7380787491
  0
VERTEX
  8
2_FEATURE
 62
7
  6
CONTINUOUS
 10
59.0276852454
 20
93.6731481727
  0
VERTEX
  8
2_FEATURE
 62
7
  6
CONTINUOUS
 10
59.0924710067
 20
93.6101380992
  0
VERTEX
  8
2_FEATURE
 62
7
  6
CONTINUOUS
 10
59.1661720703
 20
93.5500384898
  0
VERTEX
  8
2_FEATURE
 62
7
  6
CONTINUOUS
 10
59.2492818999
 20
93.4940872405
  0
VERTEX
  8
2_FEATURE
 62
7
  6
CONTINUOUS
 10
59.3421314037
 20
93.4437628058
  0
SEQEND
  0
LINE
  8
0
 62
7
  6
CONTINUOUS
 10
56.0163660636
 20
87.5008090615
 11
56.0163660636
 21
95.1513007976
  0
LINE
  8
0
 62
7
  6
CONTINUOUS
 10
56.0163660636
 20
104.3503173254
 11
56.0163660636
 21
111.9513007976
  0
LINE
  8
0
 62
7
  6
CONTINUOUS
 10
56.0163660636
 20
121.1503173254
 11
56.0163660636
 21
128.7513007976
  0
LINE
  8
2_FEATURE
 62
7
  6
CONTINUOUS
 10
56.0163660636
 20
137.9503173254
 11
56.0163660636
 21
145.5513007976
  0
POLYLINE
  8
2_FEATURE
 62
7
  6
CONTINUOUS
 66
1
 70
0
  0
VERTEX
  8
2_FEATURE
 62
7
  6
CONTINUOUS
 10
58.8846449958
 20
129.1553467268
  0
VERTEX
  8
2_FEATURE
 62
7
  6
CONTINUOUS
 10
58.8487494248
 20
129.0920795898
  0
VERTEX
  8
2_FEATURE
 62
7
  6
CONTINUOUS
 10
58.8186894525
 20
129.0281084163
  0
VERTEX
  8
2_FEATURE
 62
7
  6
CONTINUOUS
 10
58.7939642637
 20
128.96355833
  0
VERTEX
  8
2_FEATURE
 62
7
  6
CONTINUOUS
 10
58.7742141702
 20
128.8986092764
  0
VERTEX
  8
2_FEATURE
 62
7
  6
CONTINUOUS
 10
58.7590623014
 20
128.8329945897
  0
VERTEX
  8
2_FEATURE
 62
7
  6
CONTINUOUS
 10
58.7483498016
 20
128.766848495
  0
VERTEX
  8
2_FEATURE
 62
7
  6
CONTINUOUS
 10
58.7419232549
 20
128.6998453483
  0
VERTEX
  8
2_FEATURE
 62
7
  6
CONTINUOUS
 10
58.739771534
 20
128.6319021397
  0
SEQEND
  0
POLYLINE
  8
0
 62
7
  6
CONTINUOUS
 66
1
 70
0
  0
VERTEX
  8
0
 62
7
  6
CONTINUOUS
 10
109.6936304638
 20
105.0882489201
  0
VERTEX
  8
0
 62
7
  6
CONTINUOUS
 10
109.783301575
 20
105.101059496
  0
VERTEX
  8
0
 62
7
  6
CONTINUOUS
 10
109.9079236525
 20
105.120196564
  0
VERTEX
  8
0
 62
7
  6
CONTINUOUS
 10
110.0233633207
 20
105.1393839949
  0
VERTEX
  8
0
 62
7
  6
CONTINUOUS
 10
110.1299162639
 20
105.1586026899
  0
VERTEX
  8
0
 62
7
  6
CONTINUOUS
 10
110.2279161734
 20
105.1778430085
  0
VERTEX
  8
0
 62
7
  6
CONTINUOUS
 10
110.3177361769
 20
105.1971080201
  0
VERTEX
  8
0
 62
7
  6
CONTINUOUS
 10
110.3997997489
 20
105.2164203422
  0
VERTEX
  8
0
 62
7
  6
CONTINUOUS
 10
110.4745653601
 20
105.235825115
  0
VERTEX
  8
0
 62
7
  6
CONTINUOUS
 10
110.5425267608
 20
105.2553979836
  0
VERTEX
  8
0
 62
7
  6
CONTINUOUS
 10
110.6042498188
 20
105.2752689381
  0
VERTEX
  8
0
 62
7
  6
CONTINUOUS
 10
110.6603809409
 20
105.2956502694
  0
VERTEX
  8
0
 62
7
  6
CONTINUOUS
 10
110.7116544702
 20
105.316880958
  0
VERTEX
  8
0
 62
7
  6
CONTINUOUS
 10
110.7588911208
 20
105.3394966685
  0
VERTEX
  8
0
 62
7
  6
CONTINUOUS
 10
110.8029157553
 20
105.3643045053
  0
VERTEX
  8
0
 62
7
  6
CONTINUOUS
 10
110.8441501366
 20
105.3922687646
  0
VERTEX
  8
0
 62
7
  6
CONTINUOUS
 10
110.8825798728
 20
105.4245081109
  0
VERTEX
  8
0
 62
7
  6
CONTINUOUS
 10
110.9177757777
 20
105.462359995
  0
VERTEX
  8
0
 62
7
  6
CONTINUOUS
 10
110.948558606
 20
105.5071193867
  0
VERTEX
  8
0
 62
7
  6
CONTINUOUS
 10
110.972598872
 20
105.5590001757
  0
VERTEX
  8
0
 62
7
  6
CONTINUOUS
 10
110.9870896722
 20
105.6160698898
  0
VERTEX
  8
0
 62
7
  6
CONTINUOUS
 10
110.9906145828
 20
105.6618661595
  0
SEQEND
  0
POLYLINE
  8
2_FEATURE
 62
7
  6
CONTINUOUS
 66
1
 70
0
  0
VERTEX
  8
2_FEATURE
 62
7
  6
CONTINUOUS
 10
94.4341024801
 20
101.7283584096
  0
VERTEX
  8
2_FEATURE
 62
7
  6
CONTINUOUS
 10
94.4930677804
 20
101.7356838291
  0
VERTEX
  8
2_FEATURE
 62
7
  6
CONTINUOUS
 10
94.5512806656
 20
101.7459645197
  0
VERTEX
  8
2_FEATURE
 62
7
  6
CONTINUOUS
 10
94.6078981675
 20
101.7589259071
  0
VERTEX
  8
2_FEATURE
 62
7
  6
CONTINUOUS
 10
94.6622598482
 20
101.7741876309
  0
VERTEX
  8
2_FEATURE
 62
7
  6
CONTINUOUS
 10
94.713536744
 20
101.7911810272
  0
VERTEX
  8
2_FEATURE
 62
7
  6
CONTINUOUS
 10
94.7607207171
 20
101.8091017193
  0
VERTEX
  8
2_FEATURE
 62
7
  6
CONTINUOUS
 10
94.8028080422
 20
101.8269607293
  0
VERTEX
  8
2_FEATURE
 62
7
  6
CONTINUOUS
 10
94.8390981146
 20
101.8437628058
  0
SEQEND
  0
POLYLINE
  8
0
 62
7
  6
CONTINUOUS
 66
1
 70
0
  0
VERTEX
  8
0
 62
7
  6
CONTINUOUS
 10
105.3324068518
 20
104.0513102882
  0
VERTEX
  8
0
 62
7
  6
CONTINUOUS
 10
105.7012021529
 20
104.0924443854
  0
VERTEX
  8
0
 62
7
  6
CONTINUOUS
 10
106.1039830678
 20
104.1441692242
  0
VERTEX
  8
0
 62
7
  6
CONTINUOUS
 10
106.498004278
 20
104.202126691
  0
VERTEX
  8
0
 62
7
  6
CONTINUOUS
 10
106.8822470966
 20
104.2662466042
  0
VERTEX
  8
0
 62
7
  6
CONTINUOUS
 10
107.2556987315
 20
104.3364535014
  0
VERTEX
  8
0
 62
7
  6
CONTINUOUS
 10
107.6173533742
 20
104.4126680692
  0
VERTEX
  8
0
 62
7
  6
CONTINUOUS
 10
107.9662163262
 20
104.494809832
  0
VERTEX
  8
0
 62
7
  6
CONTINUOUS
 10
108.3013173327
 20
104.5828036038
  0
VERTEX
  8
0
 62
7
  6
CONTINUOUS
 10
108.6217125842
 20
104.6765858957
  0
VERTEX
  8
0
 62
7
  6
CONTINUOUS
 10
108.9264709142
 20
104.7761084574
  0
VERTEX
  8
0
 62
7
  6
CONTINUOUS
 10
109.2146738452
 20
104.8813472256
  0
VERTEX
  8
0
 62
7
  6
CONTINUOUS
 10
109.4854130869
 20
104.9923142868
  0
VERTEX
  8
0
 62
7
  6
CONTINUOUS
 10
109.7217264444
 20
105.1011939376
  0
SEQEND
  0
POLYLINE
  8
2_FEATURE
 62
7
  6
CONTINUOUS
 66
1
 70
0
  0
VERTEX
  8
2_FEATURE
 62
7
  6
CONTINUOUS
 10
94.3185291507
 20
101.7230622053
  0
VERTEX
  8
2_FEATURE
 62
7
  6
CONTINUOUS
 10
94.3571357547
 20
101.7234922692
  0
VERTEX
  8
2_FEATURE
 62
7
  6
CONTINUOUS
 10
94.3956781333
 20
101.7252592015
  0
VERTEX
  8
2_FEATURE
 62
7
  6
CONTINUOUS
 10
94.4341024801
 20
101.7283584096
  0
SEQEND
  0
LINE
  8
2_FEATURE
 62
7
  6
CONTINUOUS
 10
82.7620626807
 20
101.7904495809
 11
83.4381165565
 21
101.7901964308
  0
LINE
  8
2_FEATURE
 62
7
  6
CONTINUOUS
 10
83.4381165565
 20
101.7901964308
 11
83.6028888041
 21
101.7894443127
  0
LINE
  8
2_FEATURE
 62
7
  6
CONTINUOUS
 10
94.3185291507
 20
101.7230622053
 11
83.6028888041
 21
101.7894443127
  0
POLYLINE
  8
2_FEATURE
 62
7
  6
CONTINUOUS
 66
1
 70
0
  0
VERTEX
  8
2_FEATURE
 62
7
  6
CONTINUOUS
 10
94.4341024801
 20
97.7732597134
  0
VERTEX
  8
2_FEATURE
 62
7
  6
CONTINUOUS
 10
94.3956781333
 20
97.7763589215
  0
VERTEX
  8
2_FEATURE
 62
7
  6
CONTINUOUS
 10
94.3571357547
 20
97.7781258537
  0
VERTEX
  8
2_FEATURE
 62
7
  6
CONTINUOUS
 10
94.3185291507
 20
97.7785559177
  0
SEQEND
  0
LINE
  8
0
 62
7
  6
CONTINUOUS
 10
109.7833141772
 20
94.400556765
 11
109.6936305086
 21
94.4133691823
  0
POLYLINE
  8
0
 62
7
  6
CONTINUOUS
 66
1
 70
0
  0
VERTEX
  8
0
 62
7
  6
CONTINUOUS
 10
44.4595030739
 20
113.5011939376
  0
VERTEX
  8
0
 62
7
  6
CONTINUOUS
 10
44.6958164314
 20
113.3923142868
  0
VERTEX
  8
0
 62
7
  6
CONTINUOUS
 10
44.9665556731
 20
113.2813472256
  0
VERTEX
  8
0
 62
7
  6
CONTINUOUS
 10
45.2547586041
 20
113.1761084574
  0
VERTEX
  8
0
 62
7
  6
CONTINUOUS
 10
45.5595169341
 20
113.0765858957
  0
VERTEX
  8
0
 62
7
  6
CONTINUOUS
 10
45.8799121856
 20
112.9828036038
  0
VERTEX
  8
0
 62
7
  6
CONTINUOUS
 10
46.2150131921
 20
112.894809832
  0
VERTEX
  8
0
 62
7
  6
CONTINUOUS
 10
46.5638761441
 20
112.8126680692
  0
VERTEX
  8
0
 62
7
  6
CONTINUOUS
 10
46.9255307868
 20
112.7364535014
  0
VERTEX
  8
0
 62
7
  6
CONTINUOUS
 10
47.2989824217
 20
112.6662466042
  0
VERTEX
  8
0
 62
7
  6
CONTINUOUS
 10
47.6832252403
 20
112.602126691
  0
VERTEX
  8
0
 62
7
  6
CONTINUOUS
 10
48.0772464505
 20
112.5441692242
  0
VERTEX
  8
0
 62
7
  6
CONTINUOUS
 10
48.4800273654
 20
112.4924443854
  0
VERTEX
  8
0
 62
7
  6
CONTINUOUS
 10
48.8488226665
 20
112.4513102882
  0
SEQEND
  0
POLYLINE
  8
2_FEATURE
 62
7
  6
CONTINUOUS
 66
1
 70
0
  0
VERTEX
  8
2_FEATURE
 62
7
  6
CONTINUOUS
 10
58.739771534
 20
121.2697159833
  0
VERTEX
  8
2_FEATURE
 62
7
  6
CONTINUOUS
 10
58.7419232549
 20
121.2017727746
  0
VERTEX
  8
2_FEATURE
 62
7
  6
CONTINUOUS
 10
58.7483498016
 20
121.134769628
  0
VERTEX
  8
2_FEATURE
 62
7
  6
CONTINUOUS
 10
58.7590623014
 20
121.0686235333
  0
VERTEX
  8
2_FEATURE
 62
7
  6
CONTINUOUS
 10
58.7742141702
 20
121.0030088466
  0
VERTEX
  8
2_FEATURE
 62
7
  6
CONTINUOUS
 10
58.7939642637
 20
120.938059793
  0
VERTEX
  8
2_FEATURE
 62
7
  6
CONTINUOUS
 10
58.8186894525
 20
120.8735097067
  0
VERTEX
  8
2_FEATURE
 62
7
  6
CONTINUOUS
 10
58.8487494248
 20
120.8095385332
  0
VERTEX
  8
2_FEATURE
 62
7
  6
CONTINUOUS
 10
58.8846449958
 20
120.7462713962
  0
SEQEND
  0
POLYLINE
  8
2_FEATURE
 62
7
  6
CONTINUOUS
 66
1
 70
0
  0
VERTEX
  8
2_FEATURE
 62
7
  6
CONTINUOUS
 10
58.739771534
 20
138.0697159833
  0
VERTEX
  8
2_FEATURE
 62
7
  6
CONTINUOUS
 10
58.7419232549
 20
138.0017727746
  0
VERTEX
  8
2_FEATURE
 62
7
  6
CONTINUOUS
 10
58.7483498016
 20
137.934769628
  0
VERTEX
  8
2_FEATURE
 62
7
  6
CONTINUOUS
 10
58.7590623014
 20
137.8686235333
  0
VERTEX
  8
2_FEATURE
 62
7
  6
CONTINUOUS
 10
58.7742141702
 20
137.8030088466
  0
VERTEX
  8
2_FEATURE
 62
7
  6
CONTINUOUS
 10
58.7939642637
 20
137.738059793
  0
VERTEX
  8
2_FEATURE
 62
7
  6
CONTINUOUS
 10
58.8186894525
 20
137.6735097067
  0
VERTEX
  8
2_FEATURE
 62
7
  6
CONTINUOUS
 10
58.8487494248
 20
137.6095385332
  0
VERTEX
  8
2_FEATURE
 62
7
  6
CONTINUOUS
 10
58.8846449958
 20
137.5462713962
  0
SEQEND
  0
POLYLINE
  8
2_FEATURE
 62
7
  6
CONTINUOUS
 66
1
 70
0
  0
VERTEX
  8
2_FEATURE
 62
7
  6
CONTINUOUS
 10
58.739771534
 20
111.199798301
  0
VERTEX
  8
2_FEATURE
 62
7
  6
CONTINUOUS
 10
58.7417938177
 20
111.13396717
  0
VERTEX
  8
2_FEATURE
 62
7
  6
CONTINUOUS
 10
58.7478839072
 20
111.068225474
  0
VERTEX
  8
2_FEATURE
 62
7
  6
CONTINUOUS
 10
58.7581047033
 20
111.0026101341
  0
VERTEX
  8
2_FEATURE
 62
7
  6
CONTINUOUS
 10
58.7726807527
 20
110.9366832414
  0
VERTEX
  8
2_FEATURE
 62
7
  6
CONTINUOUS
 10
58.7918326809
 20
110.8705750905
  0
VERTEX
  8
2_FEATURE
 62
7
  6
CONTINUOUS
 10
58.8159283559
 20
110.8041560631
  0
VERTEX
  8
2_FEATURE
 62
7
  6
CONTINUOUS
 10
58.8453725065
 20
110.7375213619
  0
VERTEX
  8
2_FEATURE
 62
7
  6
CONTINUOUS
 10
58.8806947503
 20
110.6707431435
  0
VERTEX
  8
2_FEATURE
 62
7
  6
CONTINUOUS
 10
58.9224264082
 20
110.6041444752
  0
VERTEX
  8
2_FEATURE
 62
7
  6
CONTINUOUS
 10
58.9712137249
 20
110.5380787491
  0
VERTEX
  8
2_FEATURE
 62
7
  6
CONTINUOUS
 10
59.0276852454
 20
110.4731481727
  0
VERTEX
  8
2_FEATURE
 62
7
  6
CONTINUOUS
 10
59.0924710067
 20
110.4101380992
  0
VERTEX
  8
2_FEATURE
 62
7
  6
CONTINUOUS
 10
59.1661720703
 20
110.3500384898
  0
VERTEX
  8
2_FEATURE
 62
7
  6
CONTINUOUS
 10
59.2492818999
 20
110.2940872405
  0
VERTEX
  8
2_FEATURE
 62
7
  6
CONTINUOUS
 10
59.3421314037
 20
110.2437628058
  0
SEQEND
  0
POLYLINE
  8
2_FEATURE
 62
7
  6
CONTINUOUS
 66
1
 70
0
  0
VERTEX
  8
2_FEATURE
 62
7
  6
CONTINUOUS
 10
58.739771534
 20
127.999798301
  0
VERTEX
  8
2_FEATURE
 62
7
  6
CONTINUOUS
 10
58.7417938177
 20
127.93396717
  0
VERTEX
  8
2_FEATURE
 62
7
  6
CONTINUOUS
 10
58.7478839072
 20
127.868225474
  0
VERTEX
  8
2_FEATURE
 62
7
  6
CONTINUOUS
 10
58.7581047033
 20
127.8026101341
  0
VERTEX
  8
2_FEATURE
 62
7
  6
CONTINUOUS
 10
58.7726807527
 20
127.7366832414
  0
VERTEX
  8
2_FEATURE
 62
7
  6
CONTINUOUS
 10
58.7918326809
 20
127.6705750905
  0
VERTEX
  8
2_FEATURE
 62
7
  6
CONTINUOUS
 10
58.8159283559
 20
127.6041560631
  0
VERTEX
  8
2_FEATURE
 62
7
  6
CONTINUOUS
 10
58.8453725065
 20
127.5375213619
  0
VERTEX
  8
2_FEATURE
 62
7
  6
CONTINUOUS
 10
58.8806947503
 20
127.4707431435
  0
VERTEX
  8
2_FEATURE
 62
7
  6
CONTINUOUS
 10
58.9224264082
 20
127.4041444752
  0
VERTEX
  8
2_FEATURE
 62
7
  6
CONTINUOUS
 10
58.9712137249
 20
127.3380787491
  0
VERTEX
  8
2_FEATURE
 62
7
  6
CONTINUOUS
 10
59.0276852454
 20
127.2731481727
  0
VERTEX
  8
2_FEATURE
 62
7
  6
CONTINUOUS
 10
59.0924710067
 20
127.2101380992
  0
VERTEX
  8
2_FEATURE
 62
7
  6
CONTINUOUS
 10
59.1661720703
 20
127.1500384898
  0
VERTEX
  8
2_FEATURE
 62
7
  6
CONTINUOUS
 10
59.2492818999
 20
127.0940872405
  0
VERTEX
  8
2_FEATURE
 62
7
  6
CONTINUOUS
 10
59.3421314037
 20
127.0437628058
  0
SEQEND
  0
POLYLINE
  8
2_FEATURE
 62
7
  6
CONTINUOUS
 66
1
 70
0
  0
VERTEX
  8
2_FEATURE
 62
7
  6
CONTINUOUS
 10
58.739771534
 20
144.799798301
  0
VERTEX
  8
2_FEATURE
 62
7
  6
CONTINUOUS
 10
58.7417938177
 20
144.73396717
  0
VERTEX
  8
2_FEATURE
 62
7
  6
CONTINUOUS
 10
58.7478839072
 20
144.668225474
  0
VERTEX
  8
2_FEATURE
 62
7
  6
CONTINUOUS
 10
58.7581047033
 20
144.6026101341
  0
VERTEX
  8
2_FEATURE
 62
7
  6
CONTINUOUS
 10
58.7726807527
 20
144.5366832414
  0
VERTEX
  8
2_FEATURE
 62
7
  6
CONTINUOUS
 10
58.7918326809
 20
144.4705750905
  0
VERTEX
  8
2_FEATURE
 62
7
  6
CONTINUOUS
 10
58.8159283559
 20
144.4041560631
  0
VERTEX
  8
2_FEATURE
 62
7
  6
CONTINUOUS
 10
58.8453725065
 20
144.3375213619
  0
VERTEX
  8
2_FEATURE
 62
7
  6
CONTINUOUS
 10
58.8806947503
 20
144.2707431435
  0
VERTEX
  8
2_FEATURE
 62
7
  6
CONTINUOUS
 10
58.9224264082
 20
144.2041444752
  0
VERTEX
  8
2_FEATURE
 62
7
  6
CONTINUOUS
 10
58.9712137249
 20
144.1380787491
  0
VERTEX
  8
2_FEATURE
 62
7
  6
CONTINUOUS
 10
59.0276852454
 20
144.0731481727
  0
VERTEX
  8
2_FEATURE
 62
7
  6
CONTINUOUS
 10
59.0924710067
 20
144.0101380992
  0
VERTEX
  8
2_FEATURE
 62
7
  6
CONTINUOUS
 10
59.1661720703
 20
143.9500384898
  0
VERTEX
  8
2_FEATURE
 62
7
  6
CONTINUOUS
 10
59.2492818999
 20
143.8940872405
  0
VERTEX
  8
2_FEATURE
 62
7
  6
CONTINUOUS
 10
59.3421314037
 20
143.8437628058
  0
SEQEND
  0
LINE
  8
2_FEATURE
 62
7
  6
CONTINUOUS
 10
58.739771534
 20
94.399798301
 11
58.739771534
 21
95.0319021397
  0
LINE
  8
2_FEATURE
 62
7
  6
CONTINUOUS
 10
58.739771534
 20
104.4697159833
 11
58.739771534
 21
105.101819822
  0
LINE
  8
2_FEATURE
 62
7
  6
CONTINUOUS
 10
58.739771534
 20
111.199798301
 11
58.739771534
 21
111.8319021397
  0
LINE
  8
2_FEATURE
 62
7
  6
CONTINUOUS
 10
58.739771534
 20
121.2697159833
 11
58.739771534
 21
121.901819822
  0
LINE
  8
2_FEATURE
 62
7
  6
CONTINUOUS
 10
58.739771534
 20
127.999798301
 11
58.739771534
 21
128.6319021397
  0
LINE
  8
2_FEATURE
 62
7
  6
CONTINUOUS
 10
58.739771534
 20
138.0697159833
 11
58.739771534
 21
138.701819822
  0
LINE
  8
2_FEATURE
 62
7
  6
CONTINUOUS
 10
58.739771534
 20
144.799798301
 11
58.739771534
 21
145.4319021397
  0
POLYLINE
  8
2_FEATURE
 62
7
  6
CONTINUOUS
 66
1
 70
0
  0
VERTEX
  8
2_FEATURE
 62
7
  6
CONTINUOUS
 10
59.2831691714
 20
129.4987208013
  0
VERTEX
  8
2_FEATURE
 62
7
  6
CONTINUOUS
 10
59.2087719447
 20
129.4621047026
  0
VERTEX
  8
2_FEATURE
 62
7
  6
CONTINUOUS
 10
59.142853055
 20
129.422065721
  0
VERTEX
  8
2_FEATURE
 62
7
  6
CONTINUOUS
 10
59.0846751601
 20
129.3796997269
  0
VERTEX
  8
2_FEATURE
 62
7
  6
CONTINUOUS
 10
59.0334066084
 20
129.3357692412
  0
VERTEX
  8
2_FEATURE
 62
7
  6
CONTINUOUS
 10
58.9883860141
 20
129.2909356793
  0
VERTEX
  8
2_FEATURE
 62
7
  6
CONTINUOUS
 10
58.9489810021
 20
129.2457035048
  0
VERTEX
  8
2_FEATURE
 62
7
  6
CONTINUOUS
 10
58.9145610146
 20
129.2003922465
  0
VERTEX
  8
2_FEATURE
 62
7
  6
CONTINUOUS
 10
58.8846449958
 20
129.1553467268
  0
SEQEND
  0
LINE
  8
0
 62
7
  6
CONTINUOUS
 10
105.3324052327
 20
104.0513102933
 11
105.3316138601
 21
104.0512692576
  0
POLYLINE
  8
2_FEATURE
 62
7
  6
CONTINUOUS
 66
1
 70
0
  0
VERTEX
  8
2_FEATURE
 62
7
  6
CONTINUOUS
 10
82.7443611692
 20
104.0808997533
  0
VERTEX
  8
2_FEATURE
 62
7
  6
CONTINUOUS
 10
82.6395576219
 20
104.0761207836
  0
VERTEX
  8
2_FEATURE
 62
7
  6
CONTINUOUS
 10
82.5361338467
 20
104.061877167
  0
VERTEX
  8
2_FEATURE
 62
7
  6
CONTINUOUS
 10
82.4350018657
 20
104.0383783361
  0
VERTEX
  8
2_FEATURE
 62
7
  6
CONTINUOUS
 10
82.336974291
 20
104.0058987449
  0
VERTEX
  8
2_FEATURE
 62
7
  6
CONTINUOUS
 10
82.2429479836
 20
103.9648331851
  0
VERTEX
  8
2_FEATURE
 62
7
  6
CONTINUOUS
 10
82.1535728056
 20
103.9155641785
  0
VERTEX
  8
2_FEATURE
 62
7
  6
CONTINUOUS
 10
82.0696707865
 20
103.8586513584
  0
VERTEX
  8
2_FEATURE
 62
7
  6
CONTINUOUS
 10
81.9917205775
 20
103.794519813
  0
VERTEX
  8
2_FEATURE
 62
7
  6
CONTINUOUS
 10
81.9204605815
 20
103.7238807266
  0
VERTEX
  8
2_FEATURE
 62
7
  6
CONTINUOUS
 10
81.8562287473
 20
103.6471625752
  0
VERTEX
  8
2_FEATURE
 62
7
  6
CONTINUOUS
 10
81.7996454984
 20
103.5651942545
  0
VERTEX
  8
2_FEATURE
 62
7
  6
CONTINUOUS
 10
81.7509585558
 20
103.478407967
  0
VERTEX
  8
2_FEATURE
 62
7
  6
CONTINUOUS
 10
81.7106408158
 20
103.3876977513
  0
VERTEX
  8
2_FEATURE
 62
7
  6
CONTINUOUS
 10
81.6788908765
 20
103.2935390648
  0
VERTEX
  8
2_FEATURE
 62
7
  6
CONTINUOUS
 10
81.6560228514
 20
103.1968348807
  0
VERTEX
  8
2_FEATURE
 62
7
  6
CONTINUOUS
 10
81.642191814
 20
103.0981569915
  0
VERTEX
  8
2_FEATURE
 62
7
  6
CONTINUOUS
 10
81.6375602882
 20
102.9983466658
  0
SEQEND
  0
POLYLINE
  8
2_FEATURE
 62
7
  6
CONTINUOUS
 66
1
 70
0
  0
VERTEX
  8
2_FEATURE
 62
7
  6
CONTINUOUS
 10
71.4368683491
 20
103.8207183697
  0
VERTEX
  8
2_FEATURE
 62
7
  6
CONTINUOUS
 10
71.5416718964
 20
103.8254973394
  0
VERTEX
  8
2_FEATURE
 62
7
  6
CONTINUOUS
 10
71.6450956716
 20
103.839740956
  0
VERTEX
  8
2_FEATURE
 62
7
  6
CONTINUOUS
 10
71.7462276526
 20
103.8632397868
  0
VERTEX
  8
2_FEATURE
 62
7
  6
CONTINUOUS
 10
71.8442552273
 20
103.8957193781
  0
VERTEX
  8
2_FEATURE
 62
7
  6
CONTINUOUS
 10
71.9382815347
 20
103.9367849378
  0
VERTEX
  8
2_FEATURE
 62
7
  6
CONTINUOUS
 10
72.0276567128
 20
103.9860539444
  0
VERTEX
  8
2_FEATURE
 62
7
  6
CONTINUOUS
 10
72.1115587318
 20
104.0429667646
  0
VERTEX
  8
2_FEATURE
 62
7
  6
CONTINUOUS
 10
72.1895089408
 20
104.1070983099
  0
VERTEX
  8
2_FEATURE
 62
7
  6
CONTINUOUS
 10
72.2607689368
 20
104.1777373964
  0
VERTEX
  8
2_FEATURE
 62
7
  6
CONTINUOUS
 10
72.325000771
 20
104.2544555478
  0
VERTEX
  8
2_FEATURE
 62
7
  6
CONTINUOUS
 10
72.3815840199
 20
104.3364238685
  0
VERTEX
  8
2_FEATURE
 62
7
  6
CONTINUOUS
 10
72.4302709625
 20
104.423210156
  0
VERTEX
  8
2_FEATURE
 62
7
  6
CONTINUOUS
 10
72.4705887025
 20
104.5139203717
  0
VERTEX
  8
2_FEATURE
 62
7
  6
CONTINUOUS
 10
72.5023386418
 20
104.6080790582
  0
VERTEX
  8
2_FEATURE
 62
7
  6
CONTINUOUS
 10
72.5252066669
 20
104.7047832423
  0
VERTEX
  8
2_FEATURE
 62
7
  6
CONTINUOUS
 10
72.5390377043
 20
104.8034611315
  0
VERTEX
  8
2_FEATURE
 62
7
  6
CONTINUOUS
 10
72.5436692301
 20
104.9032714572
  0
SEQEND
  0
LINE
  8
2_FEATURE
 62
7
  6
CONTINUOUS
 10
70.5783407142
 20
103.8156797419
 11
63.9649157662
 21
103.6103321333
  0
POLYLINE
  8
2_FEATURE
 62
7
  6
CONTINUOUS
 66
1
 70
0
  0
VERTEX
  8
2_FEATURE
 62
7
  6
CONTINUOUS
 10
63.9649157662
 20
103.6103321333
  0
VERTEX
  8
2_FEATURE
 62
7
  6
CONTINUOUS
 10
62.5951249303
 20
103.5681052045
  0
VERTEX
  8
2_FEATURE
 62
7
  6
CONTINUOUS
 10
61.2227547044
 20
103.5264068811
  0
VERTEX
  8
2_FEATURE
 62
7
  6
CONTINUOUS
 10
59.8619016176
 20
103.4856624356
  0
SEQEND
  0
POLYLINE
  8
2_FEATURE
 62
7
  6
CONTINUOUS
 66
1
 70
0
  0
VERTEX
  8
2_FEATURE
 62
7
  6
CONTINUOUS
 10
90.5708876249
 20
104.299129182
  0
VERTEX
  8
2_FEATURE
 62
7
  6
CONTINUOUS
 10
88.2853366595
 20
104.2306577978
  0
VERTEX
  8
2_FEATURE
 62
7
  6
CONTINUOUS
 10
83.6028888041
 20
104.0859383811
  0
SEQEND
  0
POLYLINE
  8
2_FEATURE
 62
7
  6
CONTINUOUS
 66
1
 70
0
  0
VERTEX
  8
2_FEATURE
 62
7
  6
CONTINUOUS
 10
94.3179242278
 20
104.4089201669
  0
VERTEX
  8
2_FEATURE
 62
7
  6
CONTINUOUS
 10
92.4723533126
 20
104.3553112232
  0
VERTEX
  8
2_FEATURE
 62
7
  6
CONTINUOUS
 10
90.5708876249
 20
104.299129182
  0
SEQEND
  0
POLYLINE
  8
2_FEATURE
 62
7
  6
CONTINUOUS
 66
1
 70
0
  0
VERTEX
  8
2_FEATURE
 62
7
  6
CONTINUOUS
 10
70.5783407142
 20
103.8156797419
  0
VERTEX
  8
2_FEATURE
 62
7
  6
CONTINUOUS
 10
70.659826662
 20
103.8178725202
  0
VERTEX
  8
2_FEATURE
 62
7
  6
CONTINUOUS
 10
70.7431346493
 20
103.8194498518
  0
VERTEX
  8
2_FEATURE
 62
7
  6
CONTINUOUS
 10
70.8276638382
 20
103.8204006852
  0
VERTEX
  8
2_FEATURE
 62
7
  6
CONTINUOUS
 10
70.9128055799
 20
103.8207183697
  0
SEQEND
  0
POLYLINE
  8
2_FEATURE
 62
7
  6
CONTINUOUS
 66
1
 70
0
  0
VERTEX
  8
2_FEATURE
 62
7
  6
CONTINUOUS
 10
83.2684239384
 20
104.0808997533
  0
VERTEX
  8
2_FEATURE
 62
7
  6
CONTINUOUS
 10
83.3535656838
 20
104.0812174378
  0
VERTEX
  8
2_FEATURE
 62
7
  6
CONTINUOUS
 10
83.438094873
 20
104.0821682713
  0
VERTEX
  8
2_FEATURE
 62
7
  6
CONTINUOUS
 10
83.521402857
 20
104.0837456028
  0
VERTEX
  8
2_FEATURE
 62
7
  6
CONTINUOUS
 10
83.6028888041
 20
104.0859383811
  0
SEQEND
  0
LINE
  8
2_FEATURE
 62
7
  6
CONTINUOUS
 10
71.4368683491
 20
103.8207183697
 11
70.9128055799
 21
103.8207183697
  0
LINE
  8
0
 62
7
  6
CONTINUOUS
 10
48.8496158855
 20
103.8503488654
 11
55.5163976034
 21
103.8503488654
  0
LINE
  8
0
 62
7
  6
CONTINUOUS
 10
105.3316136328
 20
104.0512692576
 11
98.6648321461
 21
104.0512692576
  0
LINE
  8
2_FEATURE
 62
7
  6
CONTINUOUS
 10
83.2684239384
 20
104.0808997533
 11
82.7443611692
 21
104.0808997533
  0
POLYLINE
  8
2_FEATURE
 62
7
  6
CONTINUOUS
 66
1
 70
0
  0
VERTEX
  8
2_FEATURE
 62
7
  6
CONTINUOUS
 10
59.7312270662
 20
103.4893271829
  0
VERTEX
  8
2_FEATURE
 62
7
  6
CONTINUOUS
 10
59.7747832152
 20
103.4864223825
  0
VERTEX
  8
2_FEATURE
 62
7
  6
CONTINUOUS
 10
59.8183591363
 20
103.4852042927
  0
VERTEX
  8
2_FEATURE
 62
7
  6
CONTINUOUS
 10
59.8619016176
 20
103.4856624356
  0
SEQEND
  0
POLYLINE
  8
2_FEATURE
 62
7
  6
CONTINUOUS
 66
1
 70
0
  0
VERTEX
  8
2_FEATURE
 62
7
  6
CONTINUOUS
 10
59.3421314037
 20
110.2437628058
  0
VERTEX
  8
2_FEATURE
 62
7
  6
CONTINUOUS
 10
59.3784214761
 20
110.2269607293
  0
VERTEX
  8
2_FEATURE
 62
7
  6
CONTINUOUS
 10
59.4205088012
 20
110.2091017193
  0
VERTEX
  8
2_FEATURE
 62
7
  6
CONTINUOUS
 10
59.4676927744
 20
110.1911810272
  0
VERTEX
  8
2_FEATURE
 62
7
  6
CONTINUOUS
 10
59.5189696701
 20
110.1741876309
  0
VERTEX
  8
2_FEATURE
 62
7
  6
CONTINUOUS
 10
59.5733313508
 20
110.1589259071
  0
VERTEX
  8
2_FEATURE
 62
7
  6
CONTINUOUS
 10
59.6299488528
 20
110.1459645197
  0
VERTEX
  8
2_FEATURE
 62
7
  6
CONTINUOUS
 10
59.6881617379
 20
110.1356838291
  0
VERTEX
  8
2_FEATURE
 62
7
  6
CONTINUOUS
 10
59.7471270382
 20
110.1283584096
  0
SEQEND
  0
POLYLINE
  8
0
 62
7
  6
CONTINUOUS
 66
1
 70
0
  0
VERTEX
  8
0
 62
7
  6
CONTINUOUS
 10
44.4875990545
 20
102.8133692029
  0
VERTEX
  8
0
 62
7
  6
CONTINUOUS
 10
44.3979279428
 20
102.8005586269
  0
VERTEX
  8
0
 62
7
  6
CONTINUOUS
 10
44.2733058648
 20
102.7814215588
  0
VERTEX
  8
0
 62
7
  6
CONTINUOUS
 10
44.1578661961
 20
102.7622341279
  0
VERTEX
  8
0
 62
7
  6
CONTINUOUS
 10
44.0513132525
 20
102.7430154327
  0
VERTEX
  8
0
 62
7
  6
CONTINUOUS
 10
43.9533133427
 20
102.723775114
  0
VERTEX
  8
0
 62
7
  6
CONTINUOUS
 10
43.8634933389
 20
102.7045101023
  0
VERTEX
  8
0
 62
7
  6
CONTINUOUS
 10
43.7814297666
 20
102.68519778
  0
VERTEX
  8
0
 62
7
  6
CONTINUOUS
 10
43.7066641552
 20
102.6657930072
  0
VERTEX
  8
0
 62
7
  6
CONTINUOUS
 10
43.6387027543
 20
102.6462201384
  0
VERTEX
  8
0
 62
7
  6
CONTINUOUS
 10
43.5769796963
 20
102.6263491837
  0
VERTEX
  8
0
 62
7
  6
CONTINUOUS
 10
43.5208485741
 20
102.6059678523
  0
VERTEX
  8
0
 62
7
  6
CONTINUOUS
 10
43.4695750448
 20
102.5847371636
  0
VERTEX
  8
0
 62
7
  6
CONTINUOUS
 10
43.4223383942
 20
102.5621214528
  0
VERTEX
  8
0
 62
7
  6
CONTINUOUS
 10
43.3783137597
 20
102.5373136156
  0
VERTEX
  8
0
 62
7
  6
CONTINUOUS
 10
43.3370793783
 20
102.5093493559
  0
VERTEX
  8
0
 62
7
  6
CONTINUOUS
 10
43.2986496421
 20
102.4771100089
  0
VERTEX
  8
0
 62
7
  6
CONTINUOUS
 10
43.2634537372
 20
102.4392581238
  0
VERTEX
  8
0
 62
7
  6
CONTINUOUS
 10
43.2326709096
 20
102.3944987316
  0
VERTEX
  8
0
 62
7
  6
CONTINUOUS
 10
43.2086306436
 20
102.3426179398
  0
VERTEX
  8
0
 62
7
  6
CONTINUOUS
 10
43.1941398455
 20
102.2855482296
  0
VERTEX
  8
0
 62
7
  6
CONTINUOUS
 10
43.1906147992
 20
102.239400095
  0
SEQEND
  0
POLYLINE
  8
2_FEATURE
 62
7
  6
CONTINUOUS
 66
1
 70
0
  0
VERTEX
  8
2_FEATURE
 62
7
  6
CONTINUOUS
 10
59.7471270382
 20
106.1732597134
  0
VERTEX
  8
2_FEATURE
 62
7
  6
CONTINUOUS
 10
59.6881617379
 20
106.1659342939
  0
VERTEX
  8
2_FEATURE
 62
7
  6
CONTINUOUS
 10
59.6299488528
 20
106.1556536033
  0
VERTEX
  8
2_FEATURE
 62
7
  6
CONTINUOUS
 10
59.5733313508
 20
106.1426922159
  0
VERTEX
  8
2_FEATURE
 62
7
  6
CONTINUOUS
 10
59.5189696701
 20
106.1274304921
  0
VERTEX
  8
2_FEATURE
 62
7
  6
CONTINUOUS
 10
59.4676927744
 20
106.1104370958
  0
VERTEX
  8
2_FEATURE
 62
7
  6
CONTINUOUS
 10
59.4205088012
 20
106.0925164037
  0
VERTEX
  8
2_FEATURE
 62
7
  6
CONTINUOUS
 10
59.3784214761
 20
106.0746573937
  0
VERTEX
  8
2_FEATURE
 62
7
  6
CONTINUOUS
 10
59.3421314037
 20
106.0578553172
  0
SEQEND
  0
POLYLINE
  8
0
 62
7
  6
CONTINUOUS
 66
1
 70
0
  0
VERTEX
  8
0
 62
7
  6
CONTINUOUS
 10
48.8488226665
 20
103.8503078347
  0
VERTEX
  8
0
 62
7
  6
CONTINUOUS
 10
48.4800273654
 20
103.8091737376
  0
VERTEX
  8
0
 62
7
  6
CONTINUOUS
 10
48.0772464505
 20
103.7574488988
  0
VERTEX
  8
0
 62
7
  6
CONTINUOUS
 10
47.6832252403
 20
103.699491432
  0
VERTEX
  8
0
 62
7
  6
CONTINUOUS
 10
47.2989824217
 20
103.6353715187
  0
VERTEX
  8
0
 62
7
  6
CONTINUOUS
 10
46.9255307868
 20
103.5651646215
  0
VERTEX
  8
0
 62
7
  6
CONTINUOUS
 10
46.5638761441
 20
103.4889500538
  0
VERTEX
  8
0
 62
7
  6
CONTINUOUS
 10
46.2150131921
 20
103.406808291
  0
VERTEX
  8
0
 62
7
  6
CONTINUOUS
 10
45.8799121856
 20
103.3188145192
  0
VERTEX
  8
0
 62
7
  6
CONTINUOUS
 10
45.5595169341
 20
103.2250322272
  0
VERTEX
  8
0
 62
7
  6
CONTINUOUS
 10
45.2547586041
 20
103.1255096656
  0
VERTEX
  8
0
 62
7
  6
CONTINUOUS
 10
44.9665556731
 20
103.0202708974
  0
VERTEX
  8
0
 62
7
  6
CONTINUOUS
 10
44.6958164314
 20
102.9093038362
  0
VERTEX
  8
0
 62
7
  6
CONTINUOUS
 10
44.4595030739
 20
102.8004241853
  0
SEQEND
  0
LINE
  8
0
 62
7
  6
CONTINUOUS
 10
48.8488242856
 20
103.8503078296
 11
48.8496156583
 21
103.8503488654
  0
POLYLINE
  8
2_FEATURE
 62
7
  6
CONTINUOUS
 66
1
 70
0
  0
VERTEX
  8
2_FEATURE
 62
7
  6
CONTINUOUS
 10
59.8627003676
 20
106.1785559177
  0
VERTEX
  8
2_FEATURE
 62
7
  6
CONTINUOUS
 10
59.8240937636
 20
106.1781258537
  0
VERTEX
  8
2_FEATURE
 62
7
  6
CONTINUOUS
 10
59.785551385
 20
106.1763589215
  0
VERTEX
  8
2_FEATURE
 62
7
  6
CONTINUOUS
 10
59.7471270382
 20
106.1732597134
  0
SEQEND
  0
LINE
  8
2_FEATURE
 62
7
  6
CONTINUOUS
 10
70.7431129619
 20
106.1114216922
 11
71.4191668376
 21
106.1111685421
  0
LINE
  8
2_FEATURE
 62
7
  6
CONTINUOUS
 10
70.5783407142
 20
106.1121738103
 11
70.7431129619
 21
106.1114216922
  0
LINE
  8
2_FEATURE
 62
7
  6
CONTINUOUS
 10
70.5783407142
 20
106.1121738103
 11
59.8627003676
 21
106.1785559177
  0
POLYLINE
  8
2_FEATURE
 62
7
  6
CONTINUOUS
 66
1
 70
0
  0
VERTEX
  8
2_FEATURE
 62
7
  6
CONTINUOUS
 10
94.4816125737
 20
104.401956538
  0
VERTEX
  8
2_FEATURE
 62
7
  6
CONTINUOUS
 10
94.4268656547
 20
104.4068990817
  0
VERTEX
  8
2_FEATURE
 62
7
  6
CONTINUOUS
 10
94.3722812027
 20
104.4092029509
  0
VERTEX
  8
2_FEATURE
 62
7
  6
CONTINUOUS
 10
94.3179242278
 20
104.4089201669
  0
SEQEND
  0
POLYLINE
  8
2_FEATURE
 62
7
  6
CONTINUOUS
 66
1
 70
0
  0
VERTEX
  8
2_FEATURE
 62
7
  6
CONTINUOUS
 10
94.8390981146
 20
97.6578553172
  0
VERTEX
  8
2_FEATURE
 62
7
  6
CONTINUOUS
 10
94.8028080422
 20
97.6746573937
  0
VERTEX
  8
2_FEATURE
 62
7
  6
CONTINUOUS
 10
94.7607207171
 20
97.6925164037
  0
VERTEX
  8
2_FEATURE
 62
7
  6
CONTINUOUS
 10
94.713536744
 20
97.7104370958
  0
VERTEX
  8
2_FEATURE
 62
7
  6
CONTINUOUS
 10
94.6622598482
 20
97.7274304921
  0
VERTEX
  8
2_FEATURE
 62
7
  6
CONTINUOUS
 10
94.6078981675
 20
97.7426922159
  0
VERTEX
  8
2_FEATURE
 62
7
  6
CONTINUOUS
 10
94.5512806656
 20
97.7556536033
  0
VERTEX
  8
2_FEATURE
 62
7
  6
CONTINUOUS
 10
94.4930677804
 20
97.7659342939
  0
VERTEX
  8
2_FEATURE
 62
7
  6
CONTINUOUS
 10
94.4341024801
 20
97.7732597134
  0
SEQEND
  0
POLYLINE
  8
2_FEATURE
 62
7
  6
CONTINUOUS
 66
1
 70
0
  0
VERTEX
  8
2_FEATURE
 62
7
  6
CONTINUOUS
 10
58.8846449958
 20
120.7462713962
  0
VERTEX
  8
2_FEATURE
 62
7
  6
CONTINUOUS
 10
58.9145610146
 20
120.7012258765
  0
VERTEX
  8
2_FEATURE
 62
7
  6
CONTINUOUS
 10
58.9489810021
 20
120.6559146182
  0
VERTEX
  8
2_FEATURE
 62
7
  6
CONTINUOUS
 10
58.9883860141
 20
120.6106824437
  0
VERTEX
  8
2_FEATURE
 62
7
  6
CONTINUOUS
 10
59.0334066084
 20
120.5658488818
  0
VERTEX
  8
2_FEATURE
 62
7
  6
CONTINUOUS
 10
59.0846751601
 20
120.521918396
  0
VERTEX
  8
2_FEATURE
 62
7
  6
CONTINUOUS
 10
59.142853055
 20
120.479552402
  0
VERTEX
  8
2_FEATURE
 62
7
  6
CONTINUOUS
 10
59.2087719447
 20
120.4395134203
  0
VERTEX
  8
2_FEATURE
 62
7
  6
CONTINUOUS
 10
59.2831691714
 20
120.4028973217
  0
SEQEND
  0
POLYLINE
  8
2_FEATURE
 62
7
  6
CONTINUOUS
 66
1
 70
0
  0
VERTEX
  8
2_FEATURE
 62
7
  6
CONTINUOUS
 10
58.8846449958
 20
112.3553467268
  0
VERTEX
  8
2_FEATURE
 62
7
  6
CONTINUOUS
 10
58.8487494248
 20
112.2920795898
  0
VERTEX
  8
2_FEATURE
 62
7
  6
CONTINUOUS
 10
58.8186894525
 20
112.2281084163
  0
VERTEX
  8
2_FEATURE
 62
7
  6
CONTINUOUS
 10
58.7939642637
 20
112.16355833
  0
VERTEX
  8
2_FEATURE
 62
7
  6
CONTINUOUS
 10
58.7742141702
 20
112.0986092764
  0
VERTEX
  8
2_FEATURE
 62
7
  6
CONTINUOUS
 10
58.7590623014
 20
112.0329945897
  0
VERTEX
  8
2_FEATURE
 62
7
  6
CONTINUOUS
 10
58.7483498016
 20
111.966848495
  0
VERTEX
  8
2_FEATURE
 62
7
  6
CONTINUOUS
 10
58.7419232549
 20
111.8998453483
  0
VERTEX
  8
2_FEATURE
 62
7
  6
CONTINUOUS
 10
58.739771534
 20
111.8319021397
  0
SEQEND
  0
POLYLINE
  8
2_FEATURE
 62
7
  6
CONTINUOUS
 66
1
 70
0
  0
VERTEX
  8
2_FEATURE
 62
7
  6
CONTINUOUS
 10
94.9791830974
 20
145.6531089779
  0
VERTEX
  8
2_FEATURE
 62
7
  6
CONTINUOUS
 10
95.063080392
 20
145.706012224
  0
VERTEX
  8
2_FEATURE
 62
7
  6
CONTINUOUS
 10
95.1342375068
 20
145.7621606557
  0
VERTEX
  8
2_FEATURE
 62
7
  6
CONTINUOUS
 10
95.1943685521
 20
145.820034636
  0
VERTEX
  8
2_FEATURE
 62
7
  6
CONTINUOUS
 10
95.2449530978
 20
145.878533538
  0
VERTEX
  8
2_FEATURE
 62
7
  6
CONTINUOUS
 10
95.2872471856
 20
145.9368210175
  0
VERTEX
  8
2_FEATURE
 62
7
  6
CONTINUOUS
 10
95.3223191511
 20
145.9942235674
  0
VERTEX
  8
2_FEATURE
 62
7
  6
CONTINUOUS
 10
95.3510574518
 20
146.0500974638
  0
VERTEX
  8
2_FEATURE
 62
7
  6
CONTINUOUS
 10
95.3742862165
 20
146.1039241142
  0
VERTEX
  8
2_FEATURE
 62
7
  6
CONTINUOUS
 10
95.3927769648
 20
146.1553230075
  0
VERTEX
  8
2_FEATURE
 62
7
  6
CONTINUOUS
 10
95.4073491121
 20
146.2044442969
  0
VERTEX
  8
2_FEATURE
 62
7
  6
CONTINUOUS
 10
95.418612067
 20
146.2512807931
  0
SEQEND
  0
POLYLINE
  8
2_FEATURE
 62
7
  6
CONTINUOUS
 66
1
 70
0
  0
VERTEX
  8
2_FEATURE
 62
7
  6
CONTINUOUS
 10
59.3421314037
 20
122.8578553172
  0
VERTEX
  8
2_FEATURE
 62
7
  6
CONTINUOUS
 10
59.2492818999
 20
122.8075308825
  0
VERTEX
  8
2_FEATURE
 62
7
  6
CONTINUOUS
 10
59.1661720703
 20
122.7515796332
  0
VERTEX
  8
2_FEATURE
 62
7
  6
CONTINUOUS
 10
59.0924710067
 20
122.6914800238
  0
VERTEX
  8
2_FEATURE
 62
7
  6
CONTINUOUS
 10
59.0276852454
 20
122.6284699502
  0
VERTEX
  8
2_FEATURE
 62
7
  6
CONTINUOUS
 10
58.9712137249
 20
122.5635393739
  0
VERTEX
  8
2_FEATURE
 62
7
  6
CONTINUOUS
 10
58.9224264082
 20
122.4974736478
  0
VERTEX
  8
2_FEATURE
 62
7
  6
CONTINUOUS
 10
58.8806947503
 20
122.4308749795
  0
VERTEX
  8
2_FEATURE
 62
7
  6
CONTINUOUS
 10
58.8453725065
 20
122.3640967611
  0
VERTEX
  8
2_FEATURE
 62
7
  6
CONTINUOUS
 10
58.8159283559
 20
122.2974620599
  0
VERTEX
  8
2_FEATURE
 62
7
  6
CONTINUOUS
 10
58.7918326809
 20
122.2310430325
  0
VERTEX
  8
2_FEATURE
 62
7
  6
CONTINUOUS
 10
58.7726807527
 20
122.1649348816
  0
VERTEX
  8
2_FEATURE
 62
7
  6
CONTINUOUS
 10
58.7581047033
 20
122.0990079889
  0
VERTEX
  8
2_FEATURE
 62
7
  6
CONTINUOUS
 10
58.7478839072
 20
122.033392649
  0
VERTEX
  8
2_FEATURE
 62
7
  6
CONTINUOUS
 10
58.7417938177
 20
121.967650953
  0
VERTEX
  8
2_FEATURE
 62
7
  6
CONTINUOUS
 10
58.739771534
 20
121.901819822
  0
SEQEND
  0
POLYLINE
  8
2_FEATURE
 62
7
  6
CONTINUOUS
 66
1
 70
0
  0
VERTEX
  8
2_FEATURE
 62
7
  6
CONTINUOUS
 10
94.4816125737
 20
111.899661585
  0
VERTEX
  8
2_FEATURE
 62
7
  6
CONTINUOUS
 10
94.5419711179
 20
111.908005538
  0
VERTEX
  8
2_FEATURE
 62
7
  6
CONTINUOUS
 10
94.6022601658
 20
111.9192094366
  0
VERTEX
  8
2_FEATURE
 62
7
  6
CONTINUOUS
 10
94.66160615
 20
111.9330799055
  0
VERTEX
  8
2_FEATURE
 62
7
  6
CONTINUOUS
 10
94.7194331213
 20
111.9493485927
  0
VERTEX
  8
2_FEATURE
 62
7
  6
CONTINUOUS
 10
94.7748575893
 20
111.9675162626
  0
VERTEX
  8
2_FEATURE
 62
7
  6
CONTINUOUS
 10
94.826820536
 20
111.9868199739
  0
VERTEX
  8
2_FEATURE
 62
7
  6
CONTINUOUS
 10
94.8739941792
 20
112.0061526655
  0
VERTEX
  8
2_FEATURE
 62
7
  6
CONTINUOUS
 10
94.9154939043
 20
112.0243739064
  0
VERTEX
  8
2_FEATURE
 62
7
  6
CONTINUOUS
 10
94.9506571287
 20
112.040342414
  0
VERTEX
  8
2_FEATURE
 62
7
  6
CONTINUOUS
 10
94.9791830974
 20
112.0531089779
  0
SEQEND
  0
POLYLINE
  8
2_FEATURE
 62
7
  6
CONTINUOUS
 66
1
 70
0
  0
VERTEX
  8
2_FEATURE
 62
7
  6
CONTINUOUS
 10
71.4191668376
 20
110.1904495809
  0
VERTEX
  8
2_FEATURE
 62
7
  6
CONTINUOUS
 10
71.5248117883
 20
110.1952791654
  0
VERTEX
  8
2_FEATURE
 62
7
  6
CONTINUOUS
 10
71.6293903594
 20
110.209707033
  0
VERTEX
  8
2_FEATURE
 62
7
  6
CONTINUOUS
 10
71.7319188822
 20
110.2335591632
  0
VERTEX
  8
2_FEATURE
 62
7
  6
CONTINUOUS
 10
71.8315284803
 20
110.2665862966
  0
VERTEX
  8
2_FEATURE
 62
7
  6
CONTINUOUS
 10
71.9272486376
 20
110.3084016257
  0
VERTEX
  8
2_FEATURE
 62
7
  6
CONTINUOUS
 10
72.0183587013
 20
110.3586164874
  0
VERTEX
  8
2_FEATURE
 62
7
  6
CONTINUOUS
 10
72.1039652222
 20
110.4166483474
  0
VERTEX
  8
2_FEATURE
 62
7
  6
CONTINUOUS
 10
72.1835215359
 20
110.4820316572
  0
VERTEX
  8
2_FEATURE
 62
7
  6
CONTINUOUS
 10
72.2562405126
 20
110.5540102038
  0
VERTEX
  8
2_FEATURE
 62
7
  6
CONTINUOUS
 10
72.3217391882
 20
110.6320929426
  0
VERTEX
  8
2_FEATURE
 62
7
  6
CONTINUOUS
 10
72.3793742561
 20
110.7153912543
  0
VERTEX
  8
2_FEATURE
 62
7
  6
CONTINUOUS
 10
72.4288885515
 20
110.8034099675
  0
VERTEX
  8
2_FEATURE
 62
7
  6
CONTINUOUS
 10
72.4698105706
 20
110.8951859592
  0
VERTEX
  8
2_FEATURE
 62
7
  6
CONTINUOUS
 10
72.5019680132
 20
110.9902047257
  0
VERTEX
  8
2_FEATURE
 62
7
  6
CONTINUOUS
 10
72.5250722696
 20
111.0875028217
  0
VERTEX
  8
2_FEATURE
 62
7
  6
CONTINUOUS
 10
72.5390129917
 20
111.1864985531
  0
VERTEX
  8
2_FEATURE
 62
7
  6
CONTINUOUS
 10
72.5436692301
 20
111.286297953
  0
SEQEND
  0
LINE
  8
2_FEATURE
 62
7
  6
CONTINUOUS
 10
59.8627003676
 20
110.1230622053
 11
70.6598081707
 21
110.1898817145
  0
LINE
  8
2_FEATURE
 62
7
  6
CONTINUOUS
 10
70.6598081707
 20
110.1898817145
 11
70.8276500732
 21
110.1903861784
  0
LINE
  8
2_FEATURE
 62
7
  6
CONTINUOUS
 10
71.4191668376
 20
110.1904495809
 11
70.8276500732
 21
110.1903861784
  0
LINE
  8
0
 62
7
  6
CONTINUOUS
 10
48.8488242856
 20
112.4513102933
 11
48.8496156583
 21
112.4512692576
  0
POLYLINE
  8
2_FEATURE
 62
7
  6
CONTINUOUS
 66
1
 70
0
  0
VERTEX
  8
2_FEATURE
 62
7
  6
CONTINUOUS
 10
59.7471270382
 20
110.1283584096
  0
VERTEX
  8
2_FEATURE
 62
7
  6
CONTINUOUS
 10
59.785551385
 20
110.1252592015
  0
VERTEX
  8
2_FEATURE
 62
7
  6
CONTINUOUS
 10
59.8240937636
 20
110.1234922692
  0
VERTEX
  8
2_FEATURE
 62
7
  6
CONTINUOUS
 10
59.8627003676
 20
110.1230622053
  0
SEQEND
  0
LINE
  8
0
 62
7
  6
CONTINUOUS
 10
44.3979153417
 20
113.5010613578
 11
44.4875990097
 21
113.4882489407
  0
POLYLINE
  8
0
 62
7
  6
CONTINUOUS
 66
1
 70
0
  0
VERTEX
  8
0
 62
7
  6
CONTINUOUS
 10
109.7217264444
 20
94.4004241853
  0
VERTEX
  8
0
 62
7
  6
CONTINUOUS
 10
109.4854130869
 20
94.5093038362
  0
VERTEX
  8
0
 62
7
  6
CONTINUOUS
 10
109.2146738452
 20
94.6202708974
  0
VERTEX
  8
0
 62
7
  6
CONTINUOUS
 10
108.9264709142
 20
94.7255096656
  0
VERTEX
  8
0
 62
7
  6
CONTINUOUS
 10
108.6217125842
 20
94.8250322272
  0
VERTEX
  8
0
 62
7
  6
CONTINUOUS
 10
108.3013173327
 20
94.9188145191
  0
VERTEX
  8
0
 62
7
  6
CONTINUOUS
 10
107.9662163262
 20
95.006808291
  0
VERTEX
  8
0
 62
7
  6
CONTINUOUS
 10
107.6173533742
 20
95.0889500538
  0
VERTEX
  8
0
 62
7
  6
CONTINUOUS
 10
107.2556987315
 20
95.1651646215
  0
VERTEX
  8
0
 62
7
  6
CONTINUOUS
 10
106.8822470966
 20
95.2353715187
  0
VERTEX
  8
0
 62
7
  6
CONTINUOUS
 10
106.498004278
 20
95.299491432
  0
VERTEX
  8
0
 62
7
  6
CONTINUOUS
 10
106.1039830678
 20
95.3574488988
  0
VERTEX
  8
0
 62
7
  6
CONTINUOUS
 10
105.7012021529
 20
95.4091737376
  0
VERTEX
  8
0
 62
7
  6
CONTINUOUS
 10
105.3324068518
 20
95.4503078347
  0
SEQEND
  0
POLYLINE
  8
2_FEATURE
 62
7
  6
CONTINUOUS
 66
1
 70
0
  0
VERTEX
  8
2_FEATURE
 62
7
  6
CONTINUOUS
 10
59.7312270662
 20
112.8122909401
  0
VERTEX
  8
2_FEATURE
 62
7
  6
CONTINUOUS
 10
59.6712223303
 20
112.8057328738
  0
VERTEX
  8
2_FEATURE
 62
7
  6
CONTINUOUS
 10
59.6115306735
 20
112.7964529135
  0
VERTEX
  8
2_FEATURE
 62
7
  6
CONTINUOUS
 10
59.5533213163
 20
112.7847464215
  0
VERTEX
  8
2_FEATURE
 62
7
  6
CONTINUOUS
 10
59.4973061445
 20
112.7710034251
  0
VERTEX
  8
2_FEATURE
 62
7
  6
CONTINUOUS
 10
59.4444885722
 20
112.7558457214
  0
VERTEX
  8
2_FEATURE
 62
7
  6
CONTINUOUS
 10
59.3956939912
 20
112.7400250414
  0
VERTEX
  8
2_FEATURE
 62
7
  6
CONTINUOUS
 10
59.3520785277
 20
112.7245674042
  0
VERTEX
  8
2_FEATURE
 62
7
  6
CONTINUOUS
 10
59.2831691714
 20
112.6987208013
  0
SEQEND
  0
POLYLINE
  8
2_FEATURE
 62
7
  6
CONTINUOUS
 66
1
 70
0
  0
VERTEX
  8
2_FEATURE
 62
7
  6
CONTINUOUS
 10
82.7620626807
 20
114.5111685421
  0
VERTEX
  8
2_FEATURE
 62
7
  6
CONTINUOUS
 10
82.65641773
 20
114.5063389576
  0
VERTEX
  8
2_FEATURE
 62
7
  6
CONTINUOUS
 10
82.5518391589
 20
114.49191109
  0
VERTEX
  8
2_FEATURE
 62
7
  6
CONTINUOUS
 10
82.4493106361
 20
114.4680589598
  0
VERTEX
  8
2_FEATURE
 62
7
  6
CONTINUOUS
 10
82.349701038
 20
114.4350318264
  0
VERTEX
  8
2_FEATURE
 62
7
  6
CONTINUOUS
 10
82.2539808807
 20
114.3932164973
  0
VERTEX
  8
2_FEATURE
 62
7
  6
CONTINUOUS
 10
82.162870817
 20
114.3430016356
  0
VERTEX
  8
2_FEATURE
 62
7
  6
CONTINUOUS
 10
82.0772642961
 20
114.2849697755
  0
VERTEX
  8
2_FEATURE
 62
7
  6
CONTINUOUS
 10
81.9977079824
 20
114.2195864658
  0
VERTEX
  8
2_FEATURE
 62
7
  6
CONTINUOUS
 10
81.9249890057
 20
114.1476079192
  0
VERTEX
  8
2_FEATURE
 62
7
  6
CONTINUOUS
 10
81.8594903301
 20
114.0695251804
  0
VERTEX
  8
2_FEATURE
 62
7
  6
CONTINUOUS
 10
81.8018552622
 20
113.9862268687
  0
VERTEX
  8
2_FEATURE
 62
7
  6
CONTINUOUS
 10
81.7523409668
 20
113.8982081555
  0
VERTEX
  8
2_FEATURE
 62
7
  6
CONTINUOUS
 10
81.7114189477
 20
113.8064321638
  0
VERTEX
  8
2_FEATURE
 62
7
  6
CONTINUOUS
 10
81.6792615051
 20
113.7114133973
  0
VERTEX
  8
2_FEATURE
 62
7
  6
CONTINUOUS
 10
81.6561572487
 20
113.6141153012
  0
VERTEX
  8
2_FEATURE
 62
7
  6
CONTINUOUS
 10
81.6422165266
 20
113.5151195699
  0
VERTEX
  8
2_FEATURE
 62
7
  6
CONTINUOUS
 10
81.6375602882
 20
113.41532017
  0
SEQEND
  0
LINE
  8
2_FEATURE
 62
7
  6
CONTINUOUS
 10
83.4381165565
 20
114.5114216922
 11
94.3185291507
 21
114.5785559177
  0
LINE
  8
2_FEATURE
 62
7
  6
CONTINUOUS
 10
83.2684239384
 20
112.2207183697
 11
82.7443611692
 21
112.2207183697
  0
LINE
  8
0
 62
7
  6
CONTINUOUS
 10
98.6648321461
 20
112.2503488654
 11
105.3316136328
 21
112.2503488654
  0
LINE
  8
0
 62
7
  6
CONTINUOUS
 10
55.5163976034
 20
112.4512692576
 11
48.8496158855
 21
112.4512692576
  0
LINE
  8
2_FEATURE
 62
7
  6
CONTINUOUS
 10
71.4368683491
 20
112.4808997533
 11
70.9128055799
 21
112.4808997533
  0
LINE
  8
2_FEATURE
 62
7
  6
CONTINUOUS
 10
83.4381165565
 20
114.5114216922
 11
82.7620626807
 21
114.5111685421
  0
POLYLINE
  8
2_FEATURE
 62
7
  6
CONTINUOUS
 66
1
 70
0
  0
VERTEX
  8
2_FEATURE
 62
7
  6
CONTINUOUS
 10
83.2684239384
 20
112.2207183697
  0
VERTEX
  8
2_FEATURE
 62
7
  6
CONTINUOUS
 10
83.3535656838
 20
112.2204006851
  0
VERTEX
  8
2_FEATURE
 62
7
  6
CONTINUOUS
 10
83.438094873
 20
112.2194498517
  0
VERTEX
  8
2_FEATURE
 62
7
  6
CONTINUOUS
 10
83.521402857
 20
112.2178725202
  0
VERTEX
  8
2_FEATURE
 62
7
  6
CONTINUOUS
 10
83.6028888041
 20
112.2156797419
  0
SEQEND
  0
POLYLINE
  8
2_FEATURE
 62
7
  6
CONTINUOUS
 66
1
 70
0
  0
VERTEX
  8
2_FEATURE
 62
7
  6
CONTINUOUS
 10
94.3179242278
 20
111.892697956
  0
VERTEX
  8
2_FEATURE
 62
7
  6
CONTINUOUS
 10
94.3722812027
 20
111.8924151721
  0
VERTEX
  8
2_FEATURE
 62
7
  6
CONTINUOUS
 10
94.4268656547
 20
111.8947190413
  0
VERTEX
  8
2_FEATURE
 62
7
  6
CONTINUOUS
 10
94.4816125737
 20
111.899661585
  0
SEQEND
  0
POLYLINE
  8
2_FEATURE
 62
7
  6
CONTINUOUS
 66
1
 70
0
  0
VERTEX
  8
2_FEATURE
 62
7
  6
CONTINUOUS
 10
59.8619016176
 20
112.8159556874
  0
VERTEX
  8
2_FEATURE
 62
7
  6
CONTINUOUS
 10
59.8183591363
 20
112.8164138303
  0
VERTEX
  8
2_FEATURE
 62
7
  6
CONTINUOUS
 10
59.7747832152
 20
112.8151957405
  0
VERTEX
  8
2_FEATURE
 62
7
  6
CONTINUOUS
 10
59.7312270662
 20
112.8122909401
  0
SEQEND
  0
POLYLINE
  8
2_FEATURE
 62
7
  6
CONTINUOUS
 66
1
 70
0
  0
VERTEX
  8
2_FEATURE
 62
7
  6
CONTINUOUS
 10
70.5783407142
 20
112.4859383811
  0
VERTEX
  8
2_FEATURE
 62
7
  6
CONTINUOUS
 10
70.659826662
 20
112.4837456028
  0
VERTEX
  8
2_FEATURE
 62
7
  6
CONTINUOUS
 10
70.7431346493
 20
112.4821682712
  0
VERTEX
  8
2_FEATURE
 62
7
  6
CONTINUOUS
 10
70.8276638382
 20
112.4812174378
  0
VERTEX
  8
2_FEATURE
 62
7
  6
CONTINUOUS
 10
70.9128055799
 20
112.4808997533
  0
SEQEND
  0
POLYLINE
  8
2_FEATURE
 62
7
  6
CONTINUOUS
 66
1
 70
0
  0
VERTEX
  8
2_FEATURE
 62
7
  6
CONTINUOUS
 10
94.3179242278
 20
111.892697956
  0
VERTEX
  8
2_FEATURE
 62
7
  6
CONTINUOUS
 10
92.4723533126
 20
111.9463068997
  0
VERTEX
  8
2_FEATURE
 62
7
  6
CONTINUOUS
 10
90.5708876249
 20
112.002488941
  0
SEQEND
  0
LINE
  8
2_FEATURE
 62
7
  6
CONTINUOUS
 10
88.5485979359
 20
112.0632306252
 11
90.5708876249
 21
112.002488941
  0
LINE
  8
2_FEATURE
 62
7
  6
CONTINUOUS
 10
87.8282668541
 20
112.0844812653
 11
88.5485979359
 21
112.0632306252
  0
POLYLINE
  8
2_FEATURE
 62
7
  6
CONTINUOUS
 66
1
 70
0
  0
VERTEX
  8
2_FEATURE
 62
7
  6
CONTINUOUS
 10
63.9649157662
 20
112.6912859897
  0
VERTEX
  8
2_FEATURE
 62
7
  6
CONTINUOUS
 10
62.5951249303
 20
112.7335129185
  0
VERTEX
  8
2_FEATURE
 62
7
  6
CONTINUOUS
 10
61.2227547044
 20
112.7752112419
  0
VERTEX
  8
2_FEATURE
 62
7
  6
CONTINUOUS
 10
59.8619016176
 20
112.8159556874
  0
SEQEND
  0
LINE
  8
2_FEATURE
 62
7
  6
CONTINUOUS
 10
70.5783407142
 20
112.4859383811
 11
63.9649157662
 21
112.6912859897
  0
LINE
  8
2_FEATURE
 62
7
  6
CONTINUOUS
 10
87.8282668541
 20
112.0844812653
 11
83.6028888041
 21
112.2156797419
  0
LINE
  8
0
 62
7
  6
CONTINUOUS
 10
105.3324052327
 20
112.2503078296
 11
105.3316138601
 21
112.2503488654
  0
POLYLINE
  8
2_FEATURE
 62
7
  6
CONTINUOUS
 66
1
 70
0
  0
VERTEX
  8
2_FEATURE
 62
7
  6
CONTINUOUS
 10
59.3520785277
 20
120.3770507188
  0
VERTEX
  8
2_FEATURE
 62
7
  6
CONTINUOUS
 10
59.3956939912
 20
120.3615930816
  0
VERTEX
  8
2_FEATURE
 62
7
  6
CONTINUOUS
 10
59.4444885722
 20
120.3457724015
  0
VERTEX
  8
2_FEATURE
 62
7
  6
CONTINUOUS
 10
59.4973061445
 20
120.3306146979
  0
VERTEX
  8
2_FEATURE
 62
7
  6
CONTINUOUS
 10
59.5533213163
 20
120.3168717015
  0
VERTEX
  8
2_FEATURE
 62
7
  6
CONTINUOUS
 10
59.6115306735
 20
120.3051652095
  0
VERTEX
  8
2_FEATURE
 62
7
  6
CONTINUOUS
 10
59.6712223303
 20
120.2958852492
  0
VERTEX
  8
2_FEATURE
 62
7
  6
CONTINUOUS
 10
59.7312270662
 20
120.2893271829
  0
SEQEND
  0
LINE
  8
2_FEATURE
 62
7
  6
CONTINUOUS
 10
59.2831691714
 20
120.4028973217
 11
59.3520785277
 21
120.3770507188
  0
POLYLINE
  8
2_FEATURE
 62
7
  6
CONTINUOUS
 66
1
 70
0
  0
VERTEX
  8
2_FEATURE
 62
7
  6
CONTINUOUS
 10
94.9791830974
 20
104.2485091451
  0
VERTEX
  8
2_FEATURE
 62
7
  6
CONTINUOUS
 10
94.9506571287
 20
104.2612757089
  0
VERTEX
  8
2_FEATURE
 62
7
  6
CONTINUOUS
 10
94.9154939043
 20
104.2772442165
  0
VERTEX
  8
2_FEATURE
 62
7
  6
CONTINUOUS
 10
94.8739941792
 20
104.2954654575
  0
VERTEX
  8
2_FEATURE
 62
7
  6
CONTINUOUS
 10
94.826820536
 20
104.3147981491
  0
VERTEX
  8
2_FEATURE
 62
7
  6
CONTINUOUS
 10
94.7748575893
 20
104.3341018604
  0
VERTEX
  8
2_FEATURE
 62
7
  6
CONTINUOUS
 10
94.7194331213
 20
104.3522695303
  0
VERTEX
  8
2_FEATURE
 62
7
  6
CONTINUOUS
 10
94.66160615
 20
104.3685382175
  0
VERTEX
  8
2_FEATURE
 62
7
  6
CONTINUOUS
 10
94.6022601658
 20
104.3824086864
  0
VERTEX
  8
2_FEATURE
 62
7
  6
CONTINUOUS
 10
94.5419711179
 20
104.393612585
  0
VERTEX
  8
2_FEATURE
 62
7
  6
CONTINUOUS
 10
94.4816125737
 20
104.401956538
  0
SEQEND
  0
POLYLINE
  8
2_FEATURE
 62
7
  6
CONTINUOUS
 66
1
 70
0
  0
VERTEX
  8
2_FEATURE
 62
7
  6
CONTINUOUS
 10
72.5436692301
 20
105.01532017
  0
VERTEX
  8
2_FEATURE
 62
7
  6
CONTINUOUS
 10
72.5390129917
 20
105.1151195699
  0
VERTEX
  8
2_FEATURE
 62
7
  6
CONTINUOUS
 10
72.5250722696
 20
105.2141153012
  0
VERTEX
  8
2_FEATURE
 62
7
  6
CONTINUOUS
 10
72.5019680132
 20
105.3114133973
  0
VERTEX
  8
2_FEATURE
 62
7
  6
CONTINUOUS
 10
72.4698105706
 20
105.4064321638
  0
VERTEX
  8
2_FEATURE
 62
7
  6
CONTINUOUS
 10
72.4288885515
 20
105.4982081555
  0
VERTEX
  8
2_FEATURE
 62
7
  6
CONTINUOUS
 10
72.3793742561
 20
105.5862268687
  0
VERTEX
  8
2_FEATURE
 62
7
  6
CONTINUOUS
 10
72.3217391882
 20
105.6695251804
  0
VERTEX
  8
2_FEATURE
 62
7
  6
CONTINUOUS
 10
72.2562405126
 20
105.7476079192
  0
VERTEX
  8
2_FEATURE
 62
7
  6
CONTINUOUS
 10
72.1835215359
 20
105.8195864658
  0
VERTEX
  8
2_FEATURE
 62
7
  6
CONTINUOUS
 10
72.1039652222
 20
105.8849697755
  0
VERTEX
  8
2_FEATURE
 62
7
  6
CONTINUOUS
 10
72.0183587013
 20
105.9430016356
  0
VERTEX
  8
2_FEATURE
 62
7
  6
CONTINUOUS
 10
71.9272486376
 20
105.9932164973
  0
VERTEX
  8
2_FEATURE
 62
7
  6
CONTINUOUS
 10
71.8315284803
 20
106.0350318264
  0
VERTEX
  8
2_FEATURE
 62
7
  6
CONTINUOUS
 10
71.7319188822
 20
106.0680589598
  0
VERTEX
  8
2_FEATURE
 62
7
  6
CONTINUOUS
 10
71.6293903594
 20
106.09191109
  0
VERTEX
  8
2_FEATURE
 62
7
  6
CONTINUOUS
 10
71.5248117883
 20
106.1063389576
  0
VERTEX
  8
2_FEATURE
 62
7
  6
CONTINUOUS
 10
71.4191668376
 20
106.1111685421
  0
SEQEND
  0
POLYLINE
  8
2_FEATURE
 62
7
  6
CONTINUOUS
 66
1
 70
0
  0
VERTEX
  8
2_FEATURE
 62
7
  6
CONTINUOUS
 10
72.5436692301
 20
121.81532017
  0
VERTEX
  8
2_FEATURE
 62
7
  6
CONTINUOUS
 10
72.5390129917
 20
121.9151195699
  0
VERTEX
  8
2_FEATURE
 62
7
  6
CONTINUOUS
 10
72.5250722696
 20
122.0141153012
  0
VERTEX
  8
2_FEATURE
 62
7
  6
CONTINUOUS
 10
72.5019680132
 20
122.1114133973
  0
VERTEX
  8
2_FEATURE
 62
7
  6
CONTINUOUS
 10
72.4698105706
 20
122.2064321638
  0
VERTEX
  8
2_FEATURE
 62
7
  6
CONTINUOUS
 10
72.4288885515
 20
122.2982081555
  0
VERTEX
  8
2_FEATURE
 62
7
  6
CONTINUOUS
 10
72.3793742561
 20
122.3862268687
  0
VERTEX
  8
2_FEATURE
 62
7
  6
CONTINUOUS
 10
72.3217391882
 20
122.4695251804
  0
VERTEX
  8
2_FEATURE
 62
7
  6
CONTINUOUS
 10
72.2562405126
 20
122.5476079192
  0
VERTEX
  8
2_FEATURE
 62
7
  6
CONTINUOUS
 10
72.1835215359
 20
122.6195864658
  0
VERTEX
  8
2_FEATURE
 62
7
  6
CONTINUOUS
 10
72.1039652222
 20
122.6849697755
  0
VERTEX
  8
2_FEATURE
 62
7
  6
CONTINUOUS
 10
72.0183587013
 20
122.7430016356
  0
VERTEX
  8
2_FEATURE
 62
7
  6
CONTINUOUS
 10
71.9272486376
 20
122.7932164973
  0
VERTEX
  8
2_FEATURE
 62
7
  6
CONTINUOUS
 10
71.8315284803
 20
122.8350318264
  0
VERTEX
  8
2_FEATURE
 62
7
  6
CONTINUOUS
 10
71.7319188822
 20
122.8680589598
  0
VERTEX
  8
2_FEATURE
 62
7
  6
CONTINUOUS
 10
71.6293903594
 20
122.89191109
  0
VERTEX
  8
2_FEATURE
 62
7
  6
CONTINUOUS
 10
71.5248117883
 20
122.9063389576
  0
VERTEX
  8
2_FEATURE
 62
7
  6
CONTINUOUS
 10
71.4191668376
 20
122.9111685421
  0
SEQEND
  0
POLYLINE
  8
2_FEATURE
 62
7
  6
CONTINUOUS
 66
1
 70
0
  0
VERTEX
  8
2_FEATURE
 62
7
  6
CONTINUOUS
 10
72.5436692301
 20
138.61532017
  0
VERTEX
  8
2_FEATURE
 62
7
  6
CONTINUOUS
 10
72.5390129917
 20
138.7151195699
  0
VERTEX
  8
2_FEATURE
 62
7
  6
CONTINUOUS
 10
72.5250722696
 20
138.8141153012
  0
VERTEX
  8
2_FEATURE
 62
7
  6
CONTINUOUS
 10
72.5019680132
 20
138.9114133973
  0
VERTEX
  8
2_FEATURE
 62
7
  6
CONTINUOUS
 10
72.4698105706
 20
139.0064321638
  0
VERTEX
  8
2_FEATURE
 62
7
  6
CONTINUOUS
 10
72.4288885515
 20
139.0982081555
  0
VERTEX
  8
2_FEATURE
 62
7
  6
CONTINUOUS
 10
72.3793742561
 20
139.1862268687
  0
VERTEX
  8
2_FEATURE
 62
7
  6
CONTINUOUS
 10
72.3217391882
 20
139.2695251804
  0
VERTEX
  8
2_FEATURE
 62
7
  6
CONTINUOUS
 10
72.2562405126
 20
139.3476079192
  0
VERTEX
  8
2_FEATURE
 62
7
  6
CONTINUOUS
 10
72.1835215359
 20
139.4195864658
  0
VERTEX
  8
2_FEATURE
 62
7
  6
CONTINUOUS
 10
72.1039652222
 20
139.4849697755
  0
VERTEX
  8
2_FEATURE
 62
7
  6
CONTINUOUS
 10
72.0183587013
 20
139.5430016356
  0
VERTEX
  8
2_FEATURE
 62
7
  6
CONTINUOUS
 10
71.9272486376
 20
139.5932164973
  0
VERTEX
  8
2_FEATURE
 62
7
  6
CONTINUOUS
 10
71.8315284803
 20
139.6350318264
  0
VERTEX
  8
2_FEATURE
 62
7
  6
CONTINUOUS
 10
71.7319188822
 20
139.6680589598
  0
VERTEX
  8
2_FEATURE
 62
7
  6
CONTINUOUS
 10
71.6293903594
 20
139.69191109
  0
VERTEX
  8
2_FEATURE
 62
7
  6
CONTINUOUS
 10
71.5248117883
 20
139.7063389576
  0
VERTEX
  8
2_FEATURE
 62
7
  6
CONTINUOUS
 10
71.4191668376
 20
139.7111685421
  0
SEQEND
  0
POLYLINE
  8
2_FEATURE
 62
7
  6
CONTINUOUS
 66
1
 70
0
  0
VERTEX
  8
2_FEATURE
 62
7
  6
CONTINUOUS
 10
72.5436692301
 20
94.5983466658
  0
VERTEX
  8
2_FEATURE
 62
7
  6
CONTINUOUS
 10
72.5390377043
 20
94.6981569915
  0
VERTEX
  8
2_FEATURE
 62
7
  6
CONTINUOUS
 10
72.5252066669
 20
94.7968348807
  0
VERTEX
  8
2_FEATURE
 62
7
  6
CONTINUOUS
 10
72.5023386418
 20
94.8935390648
  0
VERTEX
  8
2_FEATURE
 62
7
  6
CONTINUOUS
 10
72.4705887025
 20
94.9876977513
  0
VERTEX
  8
2_FEATURE
 62
7
  6
CONTINUOUS
 10
72.4302709625
 20
95.078407967
  0
VERTEX
  8
2_FEATURE
 62
7
  6
CONTINUOUS
 10
72.3815840199
 20
95.1651942545
  0
VERTEX
  8
2_FEATURE
 62
7
  6
CONTINUOUS
 10
72.325000771
 20
95.2471625752
  0
VERTEX
  8
2_FEATURE
 62
7
  6
CONTINUOUS
 10
72.2607689368
 20
95.3238807266
  0
VERTEX
  8
2_FEATURE
 62
7
  6
CONTINUOUS
 10
72.1895089408
 20
95.394519813
  0
VERTEX
  8
2_FEATURE
 62
7
  6
CONTINUOUS
 10
72.1115587318
 20
95.4586513584
  0
VERTEX
  8
2_FEATURE
 62
7
  6
CONTINUOUS
 10
72.0276567128
 20
95.5155641785
  0
VERTEX
  8
2_FEATURE
 62
7
  6
CONTINUOUS
 10
71.9382815347
 20
95.5648331851
  0
VERTEX
  8
2_FEATURE
 62
7
  6
CONTINUOUS
 10
71.8442552273
 20
95.6058987449
  0
VERTEX
  8
2_FEATURE
 62
7
  6
CONTINUOUS
 10
71.7462276526
 20
95.6383783361
  0
VERTEX
  8
2_FEATURE
 62
7
  6
CONTINUOUS
 10
71.6450956716
 20
95.661877167
  0
VERTEX
  8
2_FEATURE
 62
7
  6
CONTINUOUS
 10
71.5416718964
 20
95.6761207836
  0
VERTEX
  8
2_FEATURE
 62
7
  6
CONTINUOUS
 10
71.4368683491
 20
95.6808997533
  0
SEQEND
  0
POLYLINE
  8
2_FEATURE
 62
7
  6
CONTINUOUS
 66
1
 70
0
  0
VERTEX
  8
2_FEATURE
 62
7
  6
CONTINUOUS
 10
72.5436692301
 20
111.3983466658
  0
VERTEX
  8
2_FEATURE
 62
7
  6
CONTINUOUS
 10
72.5390377043
 20
111.4981569915
  0
VERTEX
  8
2_FEATURE
 62
7
  6
CONTINUOUS
 10
72.5252066669
 20
111.5968348807
  0
VERTEX
  8
2_FEATURE
 62
7
  6
CONTINUOUS
 10
72.5023386418
 20
111.6935390648
  0
VERTEX
  8
2_FEATURE
 62
7
  6
CONTINUOUS
 10
72.4705887025
 20
111.7876977513
  0
VERTEX
  8
2_FEATURE
 62
7
  6
CONTINUOUS
 10
72.4302709625
 20
111.878407967
  0
VERTEX
  8
2_FEATURE
 62
7
  6
CONTINUOUS
 10
72.3815840199
 20
111.9651942545
  0
VERTEX
  8
2_FEATURE
 62
7
  6
CONTINUOUS
 10
72.325000771
 20
112.0471625752
  0
VERTEX
  8
2_FEATURE
 62
7
  6
CONTINUOUS
 10
72.2607689368
 20
112.1238807266
  0
VERTEX
  8
2_FEATURE
 62
7
  6
CONTINUOUS
 10
72.1895089408
 20
112.194519813
  0
VERTEX
  8
2_FEATURE
 62
7
  6
CONTINUOUS
 10
72.1115587318
 20
112.2586513584
  0
VERTEX
  8
2_FEATURE
 62
7
  6
CONTINUOUS
 10
72.0276567128
 20
112.3155641785
  0
VERTEX
  8
2_FEATURE
 62
7
  6
CONTINUOUS
 10
71.9382815347
 20
112.3648331851
  0
VERTEX
  8
2_FEATURE
 62
7
  6
CONTINUOUS
 10
71.8442552273
 20
112.4058987449
  0
VERTEX
  8
2_FEATURE
 62
7
  6
CONTINUOUS
 10
71.7462276526
 20
112.4383783361
  0
VERTEX
  8
2_FEATURE
 62
7
  6
CONTINUOUS
 10
71.6450956716
 20
112.461877167
  0
VERTEX
  8
2_FEATURE
 62
7
  6
CONTINUOUS
 10
71.5416718964
 20
112.4761207836
  0
VERTEX
  8
2_FEATURE
 62
7
  6
CONTINUOUS
 10
71.4368683491
 20
112.4808997533
  0
SEQEND
  0
POLYLINE
  8
2_FEATURE
 62
7
  6
CONTINUOUS
 66
1
 70
0
  0
VERTEX
  8
2_FEATURE
 62
7
  6
CONTINUOUS
 10
72.5436692301
 20
128.1983466658
  0
VERTEX
  8
2_FEATURE
 62
7
  6
CONTINUOUS
 10
72.5390377043
 20
128.2981569915
  0
VERTEX
  8
2_FEATURE
 62
7
  6
CONTINUOUS
 10
72.5252066669
 20
128.3968348807
  0
VERTEX
  8
2_FEATURE
 62
7
  6
CONTINUOUS
 10
72.5023386418
 20
128.4935390648
  0
VERTEX
  8
2_FEATURE
 62
7
  6
CONTINUOUS
 10
72.4705887025
 20
128.5876977513
  0
VERTEX
  8
2_FEATURE
 62
7
  6
CONTINUOUS
 10
72.4302709625
 20
128.678407967
  0
VERTEX
  8
2_FEATURE
 62
7
  6
CONTINUOUS
 10
72.3815840199
 20
128.7651942545
  0
VERTEX
  8
2_FEATURE
 62
7
  6
CONTINUOUS
 10
72.325000771
 20
128.8471625752
  0
VERTEX
  8
2_FEATURE
 62
7
  6
CONTINUOUS
 10
72.2607689368
 20
128.9238807266
  0
VERTEX
  8
2_FEATURE
 62
7
  6
CONTINUOUS
 10
72.1895089408
 20
128.994519813
  0
VERTEX
  8
2_FEATURE
 62
7
  6
CONTINUOUS
 10
72.1115587318
 20
129.0586513584
  0
VERTEX
  8
2_FEATURE
 62
7
  6
CONTINUOUS
 10
72.0276567128
 20
129.1155641785
  0
VERTEX
  8
2_FEATURE
 62
7
  6
CONTINUOUS
 10
71.9382815347
 20
129.1648331851
  0
VERTEX
  8
2_FEATURE
 62
7
  6
CONTINUOUS
 10
71.8442552273
 20
129.2058987449
  0
VERTEX
  8
2_FEATURE
 62
7
  6
CONTINUOUS
 10
71.7462276526
 20
129.2383783361
  0
VERTEX
  8
2_FEATURE
 62
7
  6
CONTINUOUS
 10
71.6450956716
 20
129.261877167
  0
VERTEX
  8
2_FEATURE
 62
7
  6
CONTINUOUS
 10
71.5416718964
 20
129.2761207836
  0
VERTEX
  8
2_FEATURE
 62
7
  6
CONTINUOUS
 10
71.4368683491
 20
129.2808997533
  0
SEQEND
  0
POLYLINE
  8
2_FEATURE
 62
7
  6
CONTINUOUS
 66
1
 70
0
  0
VERTEX
  8
2_FEATURE
 62
7
  6
CONTINUOUS
 10
72.5436692301
 20
144.9983466658
  0
VERTEX
  8
2_FEATURE
 62
7
  6
CONTINUOUS
 10
72.5390377043
 20
145.0981569915
  0
VERTEX
  8
2_FEATURE
 62
7
  6
CONTINUOUS
 10
72.5252066669
 20
145.1968348807
  0
VERTEX
  8
2_FEATURE
 62
7
  6
CONTINUOUS
 10
72.5023386418
 20
145.2935390648
  0
VERTEX
  8
2_FEATURE
 62
7
  6
CONTINUOUS
 10
72.4705887025
 20
145.3876977513
  0
VERTEX
  8
2_FEATURE
 62
7
  6
CONTINUOUS
 10
72.4302709625
 20
145.478407967
  0
VERTEX
  8
2_FEATURE
 62
7
  6
CONTINUOUS
 10
72.3815840199
 20
145.5651942545
  0
VERTEX
  8
2_FEATURE
 62
7
  6
CONTINUOUS
 10
72.325000771
 20
145.6471625752
  0
VERTEX
  8
2_FEATURE
 62
7
  6
CONTINUOUS
 10
72.2607689368
 20
145.7238807266
  0
VERTEX
  8
2_FEATURE
 62
7
  6
CONTINUOUS
 10
72.1895089408
 20
145.794519813
  0
VERTEX
  8
2_FEATURE
 62
7
  6
CONTINUOUS
 10
72.1115587318
 20
145.8586513584
  0
VERTEX
  8
2_FEATURE
 62
7
  6
CONTINUOUS
 10
72.0276567128
 20
145.9155641785
  0
VERTEX
  8
2_FEATURE
 62
7
  6
CONTINUOUS
 10
71.9382815347
 20
145.9648331851
  0
VERTEX
  8
2_FEATURE
 62
7
  6
CONTINUOUS
 10
71.8442552273
 20
146.0058987449
  0
VERTEX
  8
2_FEATURE
 62
7
  6
CONTINUOUS
 10
71.7462276526
 20
146.0383783361
  0
VERTEX
  8
2_FEATURE
 62
7
  6
CONTINUOUS
 10
71.6450956716
 20
146.061877167
  0
VERTEX
  8
2_FEATURE
 62
7
  6
CONTINUOUS
 10
71.5416718964
 20
146.0761207836
  0
VERTEX
  8
2_FEATURE
 62
7
  6
CONTINUOUS
 10
71.4368683491
 20
146.0808997533
  0
SEQEND
  0
LINE
  8
2_FEATURE
 62
7
  6
CONTINUOUS
 10
72.5436692301
 20
138.61532017
 11
72.5436692301
 21
138.5032714572
  0
LINE
  8
2_FEATURE
 62
7
  6
CONTINUOUS
 10
72.5436692301
 20
121.81532017
 11
72.5436692301
 21
121.7032714572
  0
LINE
  8
2_FEATURE
 62
7
  6
CONTINUOUS
 10
72.5436692301
 20
105.01532017
 11
72.5436692301
 21
104.9032714572
  0
LINE
  8
2_FEATURE
 62
7
  6
CONTINUOUS
 10
72.5436692301
 20
94.486297953
 11
72.5436692301
 21
94.5983466658
  0
LINE
  8
2_FEATURE
 62
7
  6
CONTINUOUS
 10
72.5436692301
 20
111.286297953
 11
72.5436692301
 21
111.3983466658
  0
LINE
  8
2_FEATURE
 62
7
  6
CONTINUOUS
 10
72.5436692301
 20
128.086297953
 11
72.5436692301
 21
128.1983466658
  0
LINE
  8
2_FEATURE
 62
7
  6
CONTINUOUS
 10
72.5436692301
 20
144.886297953
 11
72.5436692301
 21
144.9983466658
  0
POLYLINE
  8
2_FEATURE
 62
7
  6
CONTINUOUS
 66
1
 70
0
  0
VERTEX
  8
2_FEATURE
 62
7
  6
CONTINUOUS
 10
58.8846449958
 20
95.5553467268
  0
VERTEX
  8
2_FEATURE
 62
7
  6
CONTINUOUS
 10
58.8487494248
 20
95.4920795898
  0
VERTEX
  8
2_FEATURE
 62
7
  6
CONTINUOUS
 10
58.8186894525
 20
95.4281084163
  0
VERTEX
  8
2_FEATURE
 62
7
  6
CONTINUOUS
 10
58.7939642637
 20
95.36355833
  0
VERTEX
  8
2_FEATURE
 62
7
  6
CONTINUOUS
 10
58.7742141702
 20
95.2986092764
  0
VERTEX
  8
2_FEATURE
 62
7
  6
CONTINUOUS
 10
58.7590623014
 20
95.2329945897
  0
VERTEX
  8
2_FEATURE
 62
7
  6
CONTINUOUS
 10
58.7483498016
 20
95.166848495
  0
VERTEX
  8
2_FEATURE
 62
7
  6
CONTINUOUS
 10
58.7419232549
 20
95.0998453483
  0
VERTEX
  8
2_FEATURE
 62
7
  6
CONTINUOUS
 10
58.739771534
 20
95.0319021397
  0
SEQEND
  0
POLYLINE
  8
2_FEATURE
 62
7
  6
CONTINUOUS
 66
1
 70
0
  0
VERTEX
  8
2_FEATURE
 62
7
  6
CONTINUOUS
 10
94.8390981146
 20
135.4437628058
  0
VERTEX
  8
2_FEATURE
 62
7
  6
CONTINUOUS
 10
94.9319476184
 20
135.4940872405
  0
VERTEX
  8
2_FEATURE
 62
7
  6
CONTINUOUS
 10
95.015057448
 20
135.5500384898
  0
VERTEX
  8
2_FEATURE
 62
7
  6
CONTINUOUS
 10
95.0887585116
 20
135.6101380992
  0
VERTEX
  8
2_FEATURE
 62
7
  6
CONTINUOUS
 10
95.1535442729
 20
135.6731481727
  0
VERTEX
  8
2_FEATURE
 62
7
  6
CONTINUOUS
 10
95.2100157934
 20
135.7380787491
  0
VERTEX
  8
2_FEATURE
 62
7
  6
CONTINUOUS
 10
95.2588031101
 20
135.8041444752
  0
VERTEX
  8
2_FEATURE
 62
7
  6
CONTINUOUS
 10
95.3005347681
 20
135.8707431435
  0
VERTEX
  8
2_FEATURE
 62
7
  6
CONTINUOUS
 10
95.3358570118
 20
135.9375213619
  0
VERTEX
  8
2_FEATURE
 62
7
  6
CONTINUOUS
 10
95.3653011624
 20
136.0041560631
  0
VERTEX
  8
2_FEATURE
 62
7
  6
CONTINUOUS
 10
95.3893968374
 20
136.0705750905
  0
VERTEX
  8
2_FEATURE
 62
7
  6
CONTINUOUS
 10
95.4085487656
 20
136.1366832414
  0
VERTEX
  8
2_FEATURE
 62
7
  6
CONTINUOUS
 10
95.423124815
 20
136.2026101341
  0
VERTEX
  8
2_FEATURE
 62
7
  6
CONTINUOUS
 10
95.4333456111
 20
136.268225474
  0
VERTEX
  8
2_FEATURE
 62
7
  6
CONTINUOUS
 10
95.4394357006
 20
136.33396717
  0
VERTEX
  8
2_FEATURE
 62
7
  6
CONTINUOUS
 10
95.4414579843
 20
136.399798301
  0
SEQEND
  0
POLYLINE
  8
0
 62
7
  6
CONTINUOUS
 66
1
 70
0
  0
VERTEX
  8
0
 62
7
  6
CONTINUOUS
 10
109.6936304638
 20
121.8882489201
  0
VERTEX
  8
0
 62
7
  6
CONTINUOUS
 10
109.7833015753
 20
121.9010594961
  0
VERTEX
  8
0
 62
7
  6
CONTINUOUS
 10
109.9079236531
 20
121.9201965641
  0
VERTEX
  8
0
 62
7
  6
CONTINUOUS
 10
110.0233633216
 20
121.939383995
  0
VERTEX
  8
0
 62
7
  6
CONTINUOUS
 10
110.1299162651
 20
121.9586026901
  0
VERTEX
  8
0
 62
7
  6
CONTINUOUS
 10
110.2279161748
 20
121.9778430088
  0
VERTEX
  8
0
 62
7
  6
CONTINUOUS
 10
110.3177361786
 20
121.9971080205
  0
VERTEX
  8
0
 62
7
  6
CONTINUOUS
 10
110.3997997508
 20
122.0164203427
  0
VERTEX
  8
0
 62
7
  6
CONTINUOUS
 10
110.4745653621
 20
122.0358251155
  0
VERTEX
  8
0
 62
7
  6
CONTINUOUS
 10
110.542526763
 20
122.0553979843
  0
VERTEX
  8
0
 62
7
  6
CONTINUOUS
 10
110.604249821
 20
122.0752689389
  0
VERTEX
  8
0
 62
7
  6
CONTINUOUS
 10
110.6603809432
 20
122.0956502703
  0
VERTEX
  8
0
 62
7
  6
CONTINUOUS
 10
110.7116544725
 20
122.116880959
  0
VERTEX
  8
0
 62
7
  6
CONTINUOUS
 10
110.7588911231
 20
122.1394966697
  0
VERTEX
  8
0
 62
7
  6
CONTINUOUS
 10
110.8029157576
 20
122.1643045068
  0
VERTEX
  8
0
 62
7
  6
CONTINUOUS
 10
110.844150139
 20
122.1922687664
  0
VERTEX
  8
0
 62
7
  6
CONTINUOUS
 10
110.8825798752
 20
122.2245081131
  0
VERTEX
  8
0
 62
7
  6
CONTINUOUS
 10
110.9177757801
 20
122.2623599979
  0
VERTEX
  8
0
 62
7
  6
CONTINUOUS
 10
110.9485586081
 20
122.3071193903
  0
VERTEX
  8
0
 62
7
  6
CONTINUOUS
 10
110.9725988736
 20
122.3590001801
  0
VERTEX
  8
0
 62
7
  6
CONTINUOUS
 10
110.987089673
 20
122.4160698949
  0
VERTEX
  8
0
 62
7
  6
CONTINUOUS
 10
110.9906147191
 20
122.4622180275
  0
SEQEND
  0
POLYLINE
  8
2_FEATURE
 62
7
  6
CONTINUOUS
 66
1
 70
0
  0
VERTEX
  8
2_FEATURE
 62
7
  6
CONTINUOUS
 10
94.4341024801
 20
118.5283584096
  0
VERTEX
  8
2_FEATURE
 62
7
  6
CONTINUOUS
 10
94.4930677804
 20
118.5356838291
  0
VERTEX
  8
2_FEATURE
 62
7
  6
CONTINUOUS
 10
94.5512806656
 20
118.5459645197
  0
VERTEX
  8
2_FEATURE
 62
7
  6
CONTINUOUS
 10
94.6078981675
 20
118.5589259071
  0
VERTEX
  8
2_FEATURE
 62
7
  6
CONTINUOUS
 10
94.6622598482
 20
118.5741876309
  0
VERTEX
  8
2_FEATURE
 62
7
  6
CONTINUOUS
 10
94.713536744
 20
118.5911810272
  0
VERTEX
  8
2_FEATURE
 62
7
  6
CONTINUOUS
 10
94.7607207171
 20
118.6091017193
  0
VERTEX
  8
2_FEATURE
 62
7
  6
CONTINUOUS
 10
94.8028080422
 20
118.6269607293
  0
VERTEX
  8
2_FEATURE
 62
7
  6
CONTINUOUS
 10
94.8390981146
 20
118.6437628058
  0
SEQEND
  0
POLYLINE
  8
0
 62
7
  6
CONTINUOUS
 66
1
 70
0
  0
VERTEX
  8
0
 62
7
  6
CONTINUOUS
 10
105.3324068518
 20
120.8513102882
  0
VERTEX
  8
0
 62
7
  6
CONTINUOUS
 10
105.7012021529
 20
120.8924443854
  0
VERTEX
  8
0
 62
7
  6
CONTINUOUS
 10
106.1039830678
 20
120.9441692242
  0
VERTEX
  8
0
 62
7
  6
CONTINUOUS
 10
106.498004278
 20
121.002126691
  0
VERTEX
  8
0
 62
7
  6
CONTINUOUS
 10
106.8822470966
 20
121.0662466042
  0
VERTEX
  8
0
 62
7
  6
CONTINUOUS
 10
107.2556987315
 20
121.1364535014
  0
VERTEX
  8
0
 62
7
  6
CONTINUOUS
 10
107.6173533742
 20
121.2126680692
  0
VERTEX
  8
0
 62
7
  6
CONTINUOUS
 10
107.9662163262
 20
121.294809832
  0
VERTEX
  8
0
 62
7
  6
CONTINUOUS
 10
108.3013173327
 20
121.3828036038
  0
VERTEX
  8
0
 62
7
  6
CONTINUOUS
 10
108.6217125842
 20
121.4765858957
  0
VERTEX
  8
0
 62
7
  6
CONTINUOUS
 10
108.9264709142
 20
121.5761084574
  0
VERTEX
  8
0
 62
7
  6
CONTINUOUS
 10
109.2146738452
 20
121.6813472256
  0
VERTEX
  8
0
 62
7
  6
CONTINUOUS
 10
109.4854130869
 20
121.7923142868
  0
VERTEX
  8
0
 62
7
  6
CONTINUOUS
 10
109.7217264444
 20
121.9011939376
  0
SEQEND
  0
POLYLINE
  8
2_FEATURE
 62
7
  6
CONTINUOUS
 66
1
 70
0
  0
VERTEX
  8
2_FEATURE
 62
7
  6
CONTINUOUS
 10
94.4341024801
 20
114.5732597134
  0
VERTEX
  8
2_FEATURE
 62
7
  6
CONTINUOUS
 10
94.3956781333
 20
114.5763589215
  0
VERTEX
  8
2_FEATURE
 62
7
  6
CONTINUOUS
 10
94.3571357547
 20
114.5781258537
  0
VERTEX
  8
2_FEATURE
 62
7
  6
CONTINUOUS
 10
94.3185291507
 20
114.5785559177
  0
SEQEND
  0
LINE
  8
0
 62
7
  6
CONTINUOUS
 10
109.7833141761
 20
111.2005567652
 11
109.6936305086
 21
111.2133691823
  0
POLYLINE
  8
0
 62
7
  6
CONTINUOUS
 66
1
 70
0
  0
VERTEX
  8
0
 62
7
  6
CONTINUOUS
 10
44.4595030739
 20
130.3011939376
  0
VERTEX
  8
0
 62
7
  6
CONTINUOUS
 10
44.6958164314
 20
130.1923142868
  0
VERTEX
  8
0
 62
7
  6
CONTINUOUS
 10
44.9665556731
 20
130.0813472256
  0
VERTEX
  8
0
 62
7
  6
CONTINUOUS
 10
45.2547586041
 20
129.9761084574
  0
VERTEX
  8
0
 62
7
  6
CONTINUOUS
 10
45.5595169341
 20
129.8765858957
  0
VERTEX
  8
0
 62
7
  6
CONTINUOUS
 10
45.8799121856
 20
129.7828036038
  0
VERTEX
  8
0
 62
7
  6
CONTINUOUS
 10
46.2150131921
 20
129.694809832
  0
VERTEX
  8
0
 62
7
  6
CONTINUOUS
 10
46.5638761441
 20
129.6126680692
  0
VERTEX
  8
0
 62
7
  6
CONTINUOUS
 10
46.9255307868
 20
129.5364535014
  0
VERTEX
  8
0
 62
7
  6
CONTINUOUS
 10
47.2989824217
 20
129.4662466042
  0
VERTEX
  8
0
 62
7
  6
CONTINUOUS
 10
47.6832252403
 20
129.402126691
  0
VERTEX
  8
0
 62
7
  6
CONTINUOUS
 10
48.0772464505
 20
129.3441692242
  0
VERTEX
  8
0
 62
7
  6
CONTINUOUS
 10
48.4800273654
 20
129.2924443854
  0
VERTEX
  8
0
 62
7
  6
CONTINUOUS
 10
48.8488226665
 20
129.2513102882
  0
SEQEND
  0
POLYLINE
  8
2_FEATURE
 62
7
  6
CONTINUOUS
 66
1
 70
0
  0
VERTEX
  8
2_FEATURE
 62
7
  6
CONTINUOUS
 10
58.8846449958
 20
137.5462713962
  0
VERTEX
  8
2_FEATURE
 62
7
  6
CONTINUOUS
 10
58.9145610146
 20
137.5012258765
  0
VERTEX
  8
2_FEATURE
 62
7
  6
CONTINUOUS
 10
58.9489810021
 20
137.4559146182
  0
VERTEX
  8
2_FEATURE
 62
7
  6
CONTINUOUS
 10
58.9883860141
 20
137.4106824437
  0
VERTEX
  8
2_FEATURE
 62
7
  6
CONTINUOUS
 10
59.0334066084
 20
137.3658488818
  0
VERTEX
  8
2_FEATURE
 62
7
  6
CONTINUOUS
 10
59.0846751601
 20
137.321918396
  0
VERTEX
  8
2_FEATURE
 62
7
  6
CONTINUOUS
 10
59.142853055
 20
137.279552402
  0
VERTEX
  8
2_FEATURE
 62
7
  6
CONTINUOUS
 10
59.2087719447
 20
137.2395134203
  0
VERTEX
  8
2_FEATURE
 62
7
  6
CONTINUOUS
 10
59.2831691714
 20
137.2028973217
  0
SEQEND
  0
POLYLINE
  8
2_FEATURE
 62
7
  6
CONTINUOUS
 66
1
 70
0
  0
VERTEX
  8
2_FEATURE
 62
7
  6
CONTINUOUS
 10
59.2831691714
 20
112.6987208013
  0
VERTEX
  8
2_FEATURE
 62
7
  6
CONTINUOUS
 10
59.2087719447
 20
112.6621047026
  0
VERTEX
  8
2_FEATURE
 62
7
  6
CONTINUOUS
 10
59.142853055
 20
112.622065721
  0
VERTEX
  8
2_FEATURE
 62
7
  6
CONTINUOUS
 10
59.0846751601
 20
112.5796997269
  0
VERTEX
  8
2_FEATURE
 62
7
  6
CONTINUOUS
 10
59.0334066084
 20
112.5357692412
  0
VERTEX
  8
2_FEATURE
 62
7
  6
CONTINUOUS
 10
58.9883860141
 20
112.4909356793
  0
VERTEX
  8
2_FEATURE
 62
7
  6
CONTINUOUS
 10
58.9489810021
 20
112.4457035048
  0
VERTEX
  8
2_FEATURE
 62
7
  6
CONTINUOUS
 10
58.9145610146
 20
112.4003922465
  0
VERTEX
  8
2_FEATURE
 62
7
  6
CONTINUOUS
 10
58.8846449958
 20
112.3553467268
  0
SEQEND
  0
LINE
  8
0
 62
7
  6
CONTINUOUS
 10
105.3324052327
 20
120.8513102933
 11
105.3316138601
 21
120.8512692576
  0
POLYLINE
  8
2_FEATURE
 62
7
  6
CONTINUOUS
 66
1
 70
0
  0
VERTEX
  8
2_FEATURE
 62
7
  6
CONTINUOUS
 10
82.7443611692
 20
120.8808997533
  0
VERTEX
  8
2_FEATURE
 62
7
  6
CONTINUOUS
 10
82.6395576219
 20
120.8761207836
  0
VERTEX
  8
2_FEATURE
 62
7
  6
CONTINUOUS
 10
82.5361338467
 20
120.861877167
  0
VERTEX
  8
2_FEATURE
 62
7
  6
CONTINUOUS
 10
82.4350018657
 20
120.8383783361
  0
VERTEX
  8
2_FEATURE
 62
7
  6
CONTINUOUS
 10
82.336974291
 20
120.8058987449
  0
VERTEX
  8
2_FEATURE
 62
7
  6
CONTINUOUS
 10
82.2429479836
 20
120.7648331851
  0
VERTEX
  8
2_FEATURE
 62
7
  6
CONTINUOUS
 10
82.1535728056
 20
120.7155641785
  0
VERTEX
  8
2_FEATURE
 62
7
  6
CONTINUOUS
 10
82.0696707865
 20
120.6586513584
  0
VERTEX
  8
2_FEATURE
 62
7
  6
CONTINUOUS
 10
81.9917205775
 20
120.594519813
  0
VERTEX
  8
2_FEATURE
 62
7
  6
CONTINUOUS
 10
81.9204605815
 20
120.5238807266
  0
VERTEX
  8
2_FEATURE
 62
7
  6
CONTINUOUS
 10
81.8562287473
 20
120.4471625752
  0
VERTEX
  8
2_FEATURE
 62
7
  6
CONTINUOUS
 10
81.7996454984
 20
120.3651942545
  0
VERTEX
  8
2_FEATURE
 62
7
  6
CONTINUOUS
 10
81.7509585558
 20
120.278407967
  0
VERTEX
  8
2_FEATURE
 62
7
  6
CONTINUOUS
 10
81.7106408158
 20
120.1876977513
  0
VERTEX
  8
2_FEATURE
 62
7
  6
CONTINUOUS
 10
81.6788908765
 20
120.0935390648
  0
VERTEX
  8
2_FEATURE
 62
7
  6
CONTINUOUS
 10
81.6560228514
 20
119.9968348807
  0
VERTEX
  8
2_FEATURE
 62
7
  6
CONTINUOUS
 10
81.642191814
 20
119.8981569915
  0
VERTEX
  8
2_FEATURE
 62
7
  6
CONTINUOUS
 10
81.6375602882
 20
119.7983466658
  0
SEQEND
  0
POLYLINE
  8
2_FEATURE
 62
7
  6
CONTINUOUS
 66
1
 70
0
  0
VERTEX
  8
2_FEATURE
 62
7
  6
CONTINUOUS
 10
71.4368683491
 20
120.6207183697
  0
VERTEX
  8
2_FEATURE
 62
7
  6
CONTINUOUS
 10
71.5416718964
 20
120.6254973394
  0
VERTEX
  8
2_FEATURE
 62
7
  6
CONTINUOUS
 10
71.6450956716
 20
120.639740956
  0
VERTEX
  8
2_FEATURE
 62
7
  6
CONTINUOUS
 10
71.7462276526
 20
120.6632397868
  0
VERTEX
  8
2_FEATURE
 62
7
  6
CONTINUOUS
 10
71.8442552273
 20
120.6957193781
  0
VERTEX
  8
2_FEATURE
 62
7
  6
CONTINUOUS
 10
71.9382815347
 20
120.7367849378
  0
VERTEX
  8
2_FEATURE
 62
7
  6
CONTINUOUS
 10
72.0276567128
 20
120.7860539444
  0
VERTEX
  8
2_FEATURE
 62
7
  6
CONTINUOUS
 10
72.1115587318
 20
120.8429667646
  0
VERTEX
  8
2_FEATURE
 62
7
  6
CONTINUOUS
 10
72.1895089408
 20
120.9070983099
  0
VERTEX
  8
2_FEATURE
 62
7
  6
CONTINUOUS
 10
72.2607689368
 20
120.9777373964
  0
VERTEX
  8
2_FEATURE
 62
7
  6
CONTINUOUS
 10
72.325000771
 20
121.0544555478
  0
VERTEX
  8
2_FEATURE
 62
7
  6
CONTINUOUS
 10
72.3815840199
 20
121.1364238685
  0
VERTEX
  8
2_FEATURE
 62
7
  6
CONTINUOUS
 10
72.4302709625
 20
121.223210156
  0
VERTEX
  8
2_FEATURE
 62
7
  6
CONTINUOUS
 10
72.4705887025
 20
121.3139203717
  0
VERTEX
  8
2_FEATURE
 62
7
  6
CONTINUOUS
 10
72.5023386418
 20
121.4080790582
  0
VERTEX
  8
2_FEATURE
 62
7
  6
CONTINUOUS
 10
72.5252066669
 20
121.5047832423
  0
VERTEX
  8
2_FEATURE
 62
7
  6
CONTINUOUS
 10
72.5390377043
 20
121.6034611315
  0
VERTEX
  8
2_FEATURE
 62
7
  6
CONTINUOUS
 10
72.5436692301
 20
121.7032714572
  0
SEQEND
  0
LINE
  8
2_FEATURE
 62
7
  6
CONTINUOUS
 10
70.5783407142
 20
120.6156797419
 11
63.9649157662
 21
120.4103321333
  0
POLYLINE
  8
2_FEATURE
 62
7
  6
CONTINUOUS
 66
1
 70
0
  0
VERTEX
  8
2_FEATURE
 62
7
  6
CONTINUOUS
 10
63.9649157662
 20
120.4103321333
  0
VERTEX
  8
2_FEATURE
 62
7
  6
CONTINUOUS
 10
62.5951249303
 20
120.3681052045
  0
VERTEX
  8
2_FEATURE
 62
7
  6
CONTINUOUS
 10
61.2227547044
 20
120.3264068811
  0
VERTEX
  8
2_FEATURE
 62
7
  6
CONTINUOUS
 10
59.8619016176
 20
120.2856624356
  0
SEQEND
  0
POLYLINE
  8
2_FEATURE
 62
7
  6
CONTINUOUS
 66
1
 70
0
  0
VERTEX
  8
2_FEATURE
 62
7
  6
CONTINUOUS
 10
90.5708876249
 20
121.099129182
  0
VERTEX
  8
2_FEATURE
 62
7
  6
CONTINUOUS
 10
88.2853366595
 20
121.0306577978
  0
VERTEX
  8
2_FEATURE
 62
7
  6
CONTINUOUS
 10
83.6028888041
 20
120.8859383811
  0
SEQEND
  0
POLYLINE
  8
2_FEATURE
 62
7
  6
CONTINUOUS
 66
1
 70
0
  0
VERTEX
  8
2_FEATURE
 62
7
  6
CONTINUOUS
 10
94.3179242278
 20
121.2089201669
  0
VERTEX
  8
2_FEATURE
 62
7
  6
CONTINUOUS
 10
92.4723533126
 20
121.1553112232
  0
VERTEX
  8
2_FEATURE
 62
7
  6
CONTINUOUS
 10
90.5708876249
 20
121.099129182
  0
SEQEND
  0
POLYLINE
  8
2_FEATURE
 62
7
  6
CONTINUOUS
 66
1
 70
0
  0
VERTEX
  8
2_FEATURE
 62
7
  6
CONTINUOUS
 10
70.5783407142
 20
120.6156797419
  0
VERTEX
  8
2_FEATURE
 62
7
  6
CONTINUOUS
 10
70.659826662
 20
120.6178725202
  0
VERTEX
  8
2_FEATURE
 62
7
  6
CONTINUOUS
 10
70.7431346493
 20
120.6194498518
  0
VERTEX
  8
2_FEATURE
 62
7
  6
CONTINUOUS
 10
70.8276638382
 20
120.6204006852
  0
VERTEX
  8
2_FEATURE
 62
7
  6
CONTINUOUS
 10
70.9128055799
 20
120.6207183697
  0
SEQEND
  0
POLYLINE
  8
2_FEATURE
 62
7
  6
CONTINUOUS
 66
1
 70
0
  0
VERTEX
  8
2_FEATURE
 62
7
  6
CONTINUOUS
 10
94.3185291507
 20
118.5230622053
  0
VERTEX
  8
2_FEATURE
 62
7
  6
CONTINUOUS
 10
94.3571357547
 20
118.5234922692
  0
VERTEX
  8
2_FEATURE
 62
7
  6
CONTINUOUS
 10
94.3956781333
 20
118.5252592015
  0
VERTEX
  8
2_FEATURE
 62
7
  6
CONTINUOUS
 10
94.4341024801
 20
118.5283584096
  0
SEQEND
  0
POLYLINE
  8
2_FEATURE
 62
7
  6
CONTINUOUS
 66
1
 70
0
  0
VERTEX
  8
2_FEATURE
 62
7
  6
CONTINUOUS
 10
83.2684239384
 20
120.8808997533
  0
VERTEX
  8
2_FEATURE
 62
7
  6
CONTINUOUS
 10
83.3535656838
 20
120.8812174378
  0
VERTEX
  8
2_FEATURE
 62
7
  6
CONTINUOUS
 10
83.438094873
 20
120.8821682713
  0
VERTEX
  8
2_FEATURE
 62
7
  6
CONTINUOUS
 10
83.521402857
 20
120.8837456028
  0
VERTEX
  8
2_FEATURE
 62
7
  6
CONTINUOUS
 10
83.6028888041
 20
120.8859383811
  0
SEQEND
  0
LINE
  8
2_FEATURE
 62
7
  6
CONTINUOUS
 10
71.4368683491
 20
120.6207183697
 11
70.9128055799
 21
120.6207183697
  0
LINE
  8
0
 62
7
  6
CONTINUOUS
 10
48.8496158855
 20
120.6503488654
 11
55.5163976034
 21
120.6503488654
  0
LINE
  8
0
 62
7
  6
CONTINUOUS
 10
105.3316136328
 20
120.8512692576
 11
98.6648321461
 21
120.8512692576
  0
LINE
  8
2_FEATURE
 62
7
  6
CONTINUOUS
 10
83.2684239384
 20
120.8808997533
 11
82.7443611692
 21
120.8808997533
  0
LINE
  8
2_FEATURE
 62
7
  6
CONTINUOUS
 10
82.7620626807
 20
118.5904495809
 11
83.4381165565
 21
118.5901964308
  0
LINE
  8
2_FEATURE
 62
7
  6
CONTINUOUS
 10
83.4381165565
 20
118.5901964308
 11
83.6028888041
 21
118.5894443127
  0
LINE
  8
2_FEATURE
 62
7
  6
CONTINUOUS
 10
94.3185291507
 20
118.5230622053
 11
83.6028888041
 21
118.5894443127
  0
POLYLINE
  8
2_FEATURE
 62
7
  6
CONTINUOUS
 66
1
 70
0
  0
VERTEX
  8
2_FEATURE
 62
7
  6
CONTINUOUS
 10
59.7312270662
 20
120.2893271829
  0
VERTEX
  8
2_FEATURE
 62
7
  6
CONTINUOUS
 10
59.7747832152
 20
120.2864223825
  0
VERTEX
  8
2_FEATURE
 62
7
  6
CONTINUOUS
 10
59.8183591363
 20
120.2852042927
  0
VERTEX
  8
2_FEATURE
 62
7
  6
CONTINUOUS
 10
59.8619016176
 20
120.2856624356
  0
SEQEND
  0
POLYLINE
  8
2_FEATURE
 62
7
  6
CONTINUOUS
 66
1
 70
0
  0
VERTEX
  8
2_FEATURE
 62
7
  6
CONTINUOUS
 10
59.3421314037
 20
127.0437628058
  0
VERTEX
  8
2_FEATURE
 62
7
  6
CONTINUOUS
 10
59.3784214761
 20
127.0269607293
  0
VERTEX
  8
2_FEATURE
 62
7
  6
CONTINUOUS
 10
59.4205088012
 20
127.0091017193
  0
VERTEX
  8
2_FEATURE
 62
7
  6
CONTINUOUS
 10
59.4676927744
 20
126.9911810272
  0
VERTEX
  8
2_FEATURE
 62
7
  6
CONTINUOUS
 10
59.5189696701
 20
126.9741876309
  0
VERTEX
  8
2_FEATURE
 62
7
  6
CONTINUOUS
 10
59.5733313508
 20
126.9589259071
  0
VERTEX
  8
2_FEATURE
 62
7
  6
CONTINUOUS
 10
59.6299488528
 20
126.9459645197
  0
VERTEX
  8
2_FEATURE
 62
7
  6
CONTINUOUS
 10
59.6881617379
 20
126.9356838291
  0
VERTEX
  8
2_FEATURE
 62
7
  6
CONTINUOUS
 10
59.7471270382
 20
126.9283584096
  0
SEQEND
  0
POLYLINE
  8
2_FEATURE
 62
7
  6
CONTINUOUS
 66
1
 70
0
  0
VERTEX
  8
2_FEATURE
 62
7
  6
CONTINUOUS
 10
81.6375602882
 20
96.5032714572
  0
VERTEX
  8
2_FEATURE
 62
7
  6
CONTINUOUS
 10
81.642191814
 20
96.4034611315
  0
VERTEX
  8
2_FEATURE
 62
7
  6
CONTINUOUS
 10
81.6560228514
 20
96.3047832423
  0
VERTEX
  8
2_FEATURE
 62
7
  6
CONTINUOUS
 10
81.6788908765
 20
96.2080790582
  0
VERTEX
  8
2_FEATURE
 62
7
  6
CONTINUOUS
 10
81.7106408158
 20
96.1139203717
  0
VERTEX
  8
2_FEATURE
 62
7
  6
CONTINUOUS
 10
81.7509585558
 20
96.023210156
  0
VERTEX
  8
2_FEATURE
 62
7
  6
CONTINUOUS
 10
81.7996454984
 20
95.9364238685
  0
VERTEX
  8
2_FEATURE
 62
7
  6
CONTINUOUS
 10
81.8562287473
 20
95.8544555478
  0
VERTEX
  8
2_FEATURE
 62
7
  6
CONTINUOUS
 10
81.9204605815
 20
95.7777373964
  0
VERTEX
  8
2_FEATURE
 62
7
  6
CONTINUOUS
 10
81.9917205775
 20
95.7070983099
  0
VERTEX
  8
2_FEATURE
 62
7
  6
CONTINUOUS
 10
82.0696707865
 20
95.6429667646
  0
VERTEX
  8
2_FEATURE
 62
7
  6
CONTINUOUS
 10
82.1535728056
 20
95.5860539444
  0
VERTEX
  8
2_FEATURE
 62
7
  6
CONTINUOUS
 10
82.2429479836
 20
95.5367849378
  0
VERTEX
  8
2_FEATURE
 62
7
  6
CONTINUOUS
 10
82.336974291
 20
95.4957193781
  0
VERTEX
  8
2_FEATURE
 62
7
  6
CONTINUOUS
 10
82.4350018657
 20
95.4632397868
  0
VERTEX
  8
2_FEATURE
 62
7
  6
CONTINUOUS
 10
82.5361338467
 20
95.439740956
  0
VERTEX
  8
2_FEATURE
 62
7
  6
CONTINUOUS
 10
82.6395576219
 20
95.4254973394
  0
VERTEX
  8
2_FEATURE
 62
7
  6
CONTINUOUS
 10
82.7443611692
 20
95.4207183697
  0
SEQEND
  0
POLYLINE
  8
2_FEATURE
 62
7
  6
CONTINUOUS
 66
1
 70
0
  0
VERTEX
  8
2_FEATURE
 62
7
  6
CONTINUOUS
 10
94.9791830974
 20
128.8531089779
  0
VERTEX
  8
2_FEATURE
 62
7
  6
CONTINUOUS
 10
95.063080392
 20
128.906012224
  0
VERTEX
  8
2_FEATURE
 62
7
  6
CONTINUOUS
 10
95.1342375068
 20
128.9621606557
  0
VERTEX
  8
2_FEATURE
 62
7
  6
CONTINUOUS
 10
95.1943685521
 20
129.020034636
  0
VERTEX
  8
2_FEATURE
 62
7
  6
CONTINUOUS
 10
95.2449530978
 20
129.078533538
  0
VERTEX
  8
2_FEATURE
 62
7
  6
CONTINUOUS
 10
95.2872471856
 20
129.1368210175
  0
VERTEX
  8
2_FEATURE
 62
7
  6
CONTINUOUS
 10
95.3223191511
 20
129.1942235674
  0
VERTEX
  8
2_FEATURE
 62
7
  6
CONTINUOUS
 10
95.3510574518
 20
129.2500974638
  0
VERTEX
  8
2_FEATURE
 62
7
  6
CONTINUOUS
 10
95.3742862165
 20
129.3039241142
  0
VERTEX
  8
2_FEATURE
 62
7
  6
CONTINUOUS
 10
95.3927769648
 20
129.3553230075
  0
VERTEX
  8
2_FEATURE
 62
7
  6
CONTINUOUS
 10
95.4073491121
 20
129.4044442969
  0
VERTEX
  8
2_FEATURE
 62
7
  6
CONTINUOUS
 10
95.418612067
 20
129.4512807931
  0
SEQEND
  0
POLYLINE
  8
0
 62
7
  6
CONTINUOUS
 66
1
 70
0
  0
VERTEX
  8
0
 62
7
  6
CONTINUOUS
 10
44.4875990545
 20
119.6133692029
  0
VERTEX
  8
0
 62
7
  6
CONTINUOUS
 10
44.3979279428
 20
119.6005586269
  0
VERTEX
  8
0
 62
7
  6
CONTINUOUS
 10
44.2733058648
 20
119.5814215588
  0
VERTEX
  8
0
 62
7
  6
CONTINUOUS
 10
44.1578661961
 20
119.5622341279
  0
VERTEX
  8
0
 62
7
  6
CONTINUOUS
 10
44.0513132525
 20
119.5430154327
  0
VERTEX
  8
0
 62
7
  6
CONTINUOUS
 10
43.9533133427
 20
119.523775114
  0
VERTEX
  8
0
 62
7
  6
CONTINUOUS
 10
43.8634933389
 20
119.5045101023
  0
VERTEX
  8
0
 62
7
  6
CONTINUOUS
 10
43.7814297666
 20
119.48519778
  0
VERTEX
  8
0
 62
7
  6
CONTINUOUS
 10
43.7066641552
 20
119.4657930072
  0
VERTEX
  8
0
 62
7
  6
CONTINUOUS
 10
43.6387027543
 20
119.4462201384
  0
VERTEX
  8
0
 62
7
  6
CONTINUOUS
 10
43.5769796963
 20
119.4263491837
  0
VERTEX
  8
0
 62
7
  6
CONTINUOUS
 10
43.5208485741
 20
119.4059678523
  0
VERTEX
  8
0
 62
7
  6
CONTINUOUS
 10
43.4695750448
 20
119.3847371636
  0
VERTEX
  8
0
 62
7
  6
CONTINUOUS
 10
43.4223383942
 20
119.3621214528
  0
VERTEX
  8
0
 62
7
  6
CONTINUOUS
 10
43.3783137597
 20
119.3373136156
  0
VERTEX
  8
0
 62
7
  6
CONTINUOUS
 10
43.3370793783
 20
119.3093493559
  0
VERTEX
  8
0
 62
7
  6
CONTINUOUS
 10
43.2986496421
 20
119.2771100089
  0
VERTEX
  8
0
 62
7
  6
CONTINUOUS
 10
43.2634537372
 20
119.2392581238
  0
VERTEX
  8
0
 62
7
  6
CONTINUOUS
 10
43.2326709096
 20
119.1944987316
  0
VERTEX
  8
0
 62
7
  6
CONTINUOUS
 10
43.2086306436
 20
119.1426179398
  0
VERTEX
  8
0
 62
7
  6
CONTINUOUS
 10
43.1941398455
 20
119.0855482296
  0
VERTEX
  8
0
 62
7
  6
CONTINUOUS
 10
43.1906147992
 20
119.039400095
  0
SEQEND
  0
POLYLINE
  8
0
 62
7
  6
CONTINUOUS
 66
1
 70
0
  0
VERTEX
  8
0
 62
7
  6
CONTINUOUS
 10
48.8488226665
 20
120.6503078347
  0
VERTEX
  8
0
 62
7
  6
CONTINUOUS
 10
48.4800273654
 20
120.6091737376
  0
VERTEX
  8
0
 62
7
  6
CONTINUOUS
 10
48.0772464505
 20
120.5574488988
  0
VERTEX
  8
0
 62
7
  6
CONTINUOUS
 10
47.6832252403
 20
120.499491432
  0
VERTEX
  8
0
 62
7
  6
CONTINUOUS
 10
47.2989824217
 20
120.4353715187
  0
VERTEX
  8
0
 62
7
  6
CONTINUOUS
 10
46.9255307868
 20
120.3651646215
  0
VERTEX
  8
0
 62
7
  6
CONTINUOUS
 10
46.5638761441
 20
120.2889500538
  0
VERTEX
  8
0
 62
7
  6
CONTINUOUS
 10
46.2150131921
 20
120.206808291
  0
VERTEX
  8
0
 62
7
  6
CONTINUOUS
 10
45.8799121856
 20
120.1188145191
  0
VERTEX
  8
0
 62
7
  6
CONTINUOUS
 10
45.5595169341
 20
120.0250322272
  0
VERTEX
  8
0
 62
7
  6
CONTINUOUS
 10
45.2547586041
 20
119.9255096656
  0
VERTEX
  8
0
 62
7
  6
CONTINUOUS
 10
44.9665556731
 20
119.8202708974
  0
VERTEX
  8
0
 62
7
  6
CONTINUOUS
 10
44.6958164314
 20
119.7093038362
  0
VERTEX
  8
0
 62
7
  6
CONTINUOUS
 10
44.4595030739
 20
119.6004241853
  0
SEQEND
  0
LINE
  8
0
 62
7
  6
CONTINUOUS
 10
48.8488242856
 20
120.6503078296
 11
48.8496156583
 21
120.6503488654
  0
POLYLINE
  8
2_FEATURE
 62
7
  6
CONTINUOUS
 66
1
 70
0
  0
VERTEX
  8
2_FEATURE
 62
7
  6
CONTINUOUS
 10
59.8627003676
 20
122.9785559177
  0
VERTEX
  8
2_FEATURE
 62
7
  6
CONTINUOUS
 10
59.8240937636
 20
122.9781258537
  0
VERTEX
  8
2_FEATURE
 62
7
  6
CONTINUOUS
 10
59.785551385
 20
122.9763589215
  0
VERTEX
  8
2_FEATURE
 62
7
  6
CONTINUOUS
 10
59.7471270382
 20
122.9732597134
  0
SEQEND
  0
LINE
  8
2_FEATURE
 62
7
  6
CONTINUOUS
 10
70.7431129619
 20
122.9114216922
 11
71.4191668376
 21
122.9111685421
  0
LINE
  8
2_FEATURE
 62
7
  6
CONTINUOUS
 10
70.5783407142
 20
122.9121738103
 11
70.7431129619
 21
122.9114216922
  0
LINE
  8
2_FEATURE
 62
7
  6
CONTINUOUS
 10
70.5783407142
 20
122.9121738103
 11
59.8627003676
 21
122.9785559177
  0
POLYLINE
  8
2_FEATURE
 62
7
  6
CONTINUOUS
 66
1
 70
0
  0
VERTEX
  8
2_FEATURE
 62
7
  6
CONTINUOUS
 10
94.4816125737
 20
121.201956538
  0
VERTEX
  8
2_FEATURE
 62
7
  6
CONTINUOUS
 10
94.4268656547
 20
121.2068990817
  0
VERTEX
  8
2_FEATURE
 62
7
  6
CONTINUOUS
 10
94.3722812027
 20
121.2092029509
  0
VERTEX
  8
2_FEATURE
 62
7
  6
CONTINUOUS
 10
94.3179242278
 20
121.2089201669
  0
SEQEND
  0
POLYLINE
  8
2_FEATURE
 62
7
  6
CONTINUOUS
 66
1
 70
0
  0
VERTEX
  8
2_FEATURE
 62
7
  6
CONTINUOUS
 10
94.8390981146
 20
114.4578553172
  0
VERTEX
  8
2_FEATURE
 62
7
  6
CONTINUOUS
 10
94.8028080422
 20
114.4746573937
  0
VERTEX
  8
2_FEATURE
 62
7
  6
CONTINUOUS
 10
94.7607207171
 20
114.4925164037
  0
VERTEX
  8
2_FEATURE
 62
7
  6
CONTINUOUS
 10
94.713536744
 20
114.5104370958
  0
VERTEX
  8
2_FEATURE
 62
7
  6
CONTINUOUS
 10
94.6622598482
 20
114.5274304921
  0
VERTEX
  8
2_FEATURE
 62
7
  6
CONTINUOUS
 10
94.6078981675
 20
114.5426922159
  0
VERTEX
  8
2_FEATURE
 62
7
  6
CONTINUOUS
 10
94.5512806656
 20
114.5556536033
  0
VERTEX
  8
2_FEATURE
 62
7
  6
CONTINUOUS
 10
94.4930677804
 20
114.5659342939
  0
VERTEX
  8
2_FEATURE
 62
7
  6
CONTINUOUS
 10
94.4341024801
 20
114.5732597134
  0
SEQEND
  0
POLYLINE
  8
2_FEATURE
 62
7
  6
CONTINUOUS
 66
1
 70
0
  0
VERTEX
  8
2_FEATURE
 62
7
  6
CONTINUOUS
 10
81.6375602882
 20
102.886297953
  0
VERTEX
  8
2_FEATURE
 62
7
  6
CONTINUOUS
 10
81.6422165266
 20
102.7864985531
  0
VERTEX
  8
2_FEATURE
 62
7
  6
CONTINUOUS
 10
81.6561572487
 20
102.6875028217
  0
VERTEX
  8
2_FEATURE
 62
7
  6
CONTINUOUS
 10
81.6792615051
 20
102.5902047257
  0
VERTEX
  8
2_FEATURE
 62
7
  6
CONTINUOUS
 10
81.7114189477
 20
102.4951859592
  0
VERTEX
  8
2_FEATURE
 62
7
  6
CONTINUOUS
 10
81.7523409668
 20
102.4034099675
  0
VERTEX
  8
2_FEATURE
 62
7
  6
CONTINUOUS
 10
81.8018552622
 20
102.3153912543
  0
VERTEX
  8
2_FEATURE
 62
7
  6
CONTINUOUS
 10
81.8594903301
 20
102.2320929426
  0
VERTEX
  8
2_FEATURE
 62
7
  6
CONTINUOUS
 10
81.9249890057
 20
102.1540102038
  0
VERTEX
  8
2_FEATURE
 62
7
  6
CONTINUOUS
 10
81.9977079824
 20
102.0820316572
  0
VERTEX
  8
2_FEATURE
 62
7
  6
CONTINUOUS
 10
82.0772642961
 20
102.0166483474
  0
VERTEX
  8
2_FEATURE
 62
7
  6
CONTINUOUS
 10
82.162870817
 20
101.9586164874
  0
VERTEX
  8
2_FEATURE
 62
7
  6
CONTINUOUS
 10
82.2539808807
 20
101.9084016257
  0
VERTEX
  8
2_FEATURE
 62
7
  6
CONTINUOUS
 10
82.349701038
 20
101.8665862966
  0
VERTEX
  8
2_FEATURE
 62
7
  6
CONTINUOUS
 10
82.4493106361
 20
101.8335591632
  0
VERTEX
  8
2_FEATURE
 62
7
  6
CONTINUOUS
 10
82.5518391589
 20
101.809707033
  0
VERTEX
  8
2_FEATURE
 62
7
  6
CONTINUOUS
 10
82.65641773
 20
101.7952791654
  0
VERTEX
  8
2_FEATURE
 62
7
  6
CONTINUOUS
 10
82.7620626807
 20
101.7904495809
  0
SEQEND
  0
POLYLINE
  8
2_FEATURE
 62
7
  6
CONTINUOUS
 66
1
 70
0
  0
VERTEX
  8
2_FEATURE
 62
7
  6
CONTINUOUS
 10
81.6375602882
 20
119.686297953
  0
VERTEX
  8
2_FEATURE
 62
7
  6
CONTINUOUS
 10
81.6422165266
 20
119.5864985531
  0
VERTEX
  8
2_FEATURE
 62
7
  6
CONTINUOUS
 10
81.6561572487
 20
119.4875028217
  0
VERTEX
  8
2_FEATURE
 62
7
  6
CONTINUOUS
 10
81.6792615051
 20
119.3902047257
  0
VERTEX
  8
2_FEATURE
 62
7
  6
CONTINUOUS
 10
81.7114189477
 20
119.2951859592
  0
VERTEX
  8
2_FEATURE
 62
7
  6
CONTINUOUS
 10
81.7523409668
 20
119.2034099675
  0
VERTEX
  8
2_FEATURE
 62
7
  6
CONTINUOUS
 10
81.8018552622
 20
119.1153912543
  0
VERTEX
  8
2_FEATURE
 62
7
  6
CONTINUOUS
 10
81.8594903301
 20
119.0320929426
  0
VERTEX
  8
2_FEATURE
 62
7
  6
CONTINUOUS
 10
81.9249890057
 20
118.9540102038
  0
VERTEX
  8
2_FEATURE
 62
7
  6
CONTINUOUS
 10
81.9977079824
 20
118.8820316572
  0
VERTEX
  8
2_FEATURE
 62
7
  6
CONTINUOUS
 10
82.0772642961
 20
118.8166483474
  0
VERTEX
  8
2_FEATURE
 62
7
  6
CONTINUOUS
 10
82.162870817
 20
118.7586164874
  0
VERTEX
  8
2_FEATURE
 62
7
  6
CONTINUOUS
 10
82.2539808807
 20
118.7084016257
  0
VERTEX
  8
2_FEATURE
 62
7
  6
CONTINUOUS
 10
82.349701038
 20
118.6665862966
  0
VERTEX
  8
2_FEATURE
 62
7
  6
CONTINUOUS
 10
82.4493106361
 20
118.6335591632
  0
VERTEX
  8
2_FEATURE
 62
7
  6
CONTINUOUS
 10
82.5518391589
 20
118.609707033
  0
VERTEX
  8
2_FEATURE
 62
7
  6
CONTINUOUS
 10
82.65641773
 20
118.5952791654
  0
VERTEX
  8
2_FEATURE
 62
7
  6
CONTINUOUS
 10
82.7620626807
 20
118.5904495809
  0
SEQEND
  0
POLYLINE
  8
2_FEATURE
 62
7
  6
CONTINUOUS
 66
1
 70
0
  0
VERTEX
  8
2_FEATURE
 62
7
  6
CONTINUOUS
 10
81.6375602882
 20
136.486297953
  0
VERTEX
  8
2_FEATURE
 62
7
  6
CONTINUOUS
 10
81.6422165266
 20
136.3864985531
  0
VERTEX
  8
2_FEATURE
 62
7
  6
CONTINUOUS
 10
81.6561572487
 20
136.2875028217
  0
VERTEX
  8
2_FEATURE
 62
7
  6
CONTINUOUS
 10
81.6792615051
 20
136.1902047257
  0
VERTEX
  8
2_FEATURE
 62
7
  6
CONTINUOUS
 10
81.7114189477
 20
136.0951859592
  0
VERTEX
  8
2_FEATURE
 62
7
  6
CONTINUOUS
 10
81.7523409668
 20
136.0034099675
  0
VERTEX
  8
2_FEATURE
 62
7
  6
CONTINUOUS
 10
81.8018552622
 20
135.9153912543
  0
VERTEX
  8
2_FEATURE
 62
7
  6
CONTINUOUS
 10
81.8594903301
 20
135.8320929426
  0
VERTEX
  8
2_FEATURE
 62
7
  6
CONTINUOUS
 10
81.9249890057
 20
135.7540102038
  0
VERTEX
  8
2_FEATURE
 62
7
  6
CONTINUOUS
 10
81.9977079824
 20
135.6820316572
  0
VERTEX
  8
2_FEATURE
 62
7
  6
CONTINUOUS
 10
82.0772642961
 20
135.6166483474
  0
VERTEX
  8
2_FEATURE
 62
7
  6
CONTINUOUS
 10
82.162870817
 20
135.5586164874
  0
VERTEX
  8
2_FEATURE
 62
7
  6
CONTINUOUS
 10
82.2539808807
 20
135.5084016257
  0
VERTEX
  8
2_FEATURE
 62
7
  6
CONTINUOUS
 10
82.349701038
 20
135.4665862966
  0
VERTEX
  8
2_FEATURE
 62
7
  6
CONTINUOUS
 10
82.4493106361
 20
135.4335591632
  0
VERTEX
  8
2_FEATURE
 62
7
  6
CONTINUOUS
 10
82.5518391589
 20
135.409707033
  0
VERTEX
  8
2_FEATURE
 62
7
  6
CONTINUOUS
 10
82.65641773
 20
135.3952791654
  0
VERTEX
  8
2_FEATURE
 62
7
  6
CONTINUOUS
 10
82.7620626807
 20
135.3904495809
  0
SEQEND
  0
POLYLINE
  8
2_FEATURE
 62
7
  6
CONTINUOUS
 66
1
 70
0
  0
VERTEX
  8
2_FEATURE
 62
7
  6
CONTINUOUS
 10
81.6375602882
 20
113.3032714572
  0
VERTEX
  8
2_FEATURE
 62
7
  6
CONTINUOUS
 10
81.642191814
 20
113.2034611315
  0
VERTEX
  8
2_FEATURE
 62
7
  6
CONTINUOUS
 10
81.6560228514
 20
113.1047832423
  0
VERTEX
  8
2_FEATURE
 62
7
  6
CONTINUOUS
 10
81.6788908765
 20
113.0080790582
  0
VERTEX
  8
2_FEATURE
 62
7
  6
CONTINUOUS
 10
81.7106408158
 20
112.9139203717
  0
VERTEX
  8
2_FEATURE
 62
7
  6
CONTINUOUS
 10
81.7509585558
 20
112.823210156
  0
VERTEX
  8
2_FEATURE
 62
7
  6
CONTINUOUS
 10
81.7996454984
 20
112.7364238685
  0
VERTEX
  8
2_FEATURE
 62
7
  6
CONTINUOUS
 10
81.8562287473
 20
112.6544555478
  0
VERTEX
  8
2_FEATURE
 62
7
  6
CONTINUOUS
 10
81.9204605815
 20
112.5777373964
  0
VERTEX
  8
2_FEATURE
 62
7
  6
CONTINUOUS
 10
81.9917205775
 20
112.5070983099
  0
VERTEX
  8
2_FEATURE
 62
7
  6
CONTINUOUS
 10
82.0696707865
 20
112.4429667646
  0
VERTEX
  8
2_FEATURE
 62
7
  6
CONTINUOUS
 10
82.1535728056
 20
112.3860539444
  0
VERTEX
  8
2_FEATURE
 62
7
  6
CONTINUOUS
 10
82.2429479836
 20
112.3367849378
  0
VERTEX
  8
2_FEATURE
 62
7
  6
CONTINUOUS
 10
82.336974291
 20
112.2957193781
  0
VERTEX
  8
2_FEATURE
 62
7
  6
CONTINUOUS
 10
82.4350018657
 20
112.2632397868
  0
VERTEX
  8
2_FEATURE
 62
7
  6
CONTINUOUS
 10
82.5361338467
 20
112.239740956
  0
VERTEX
  8
2_FEATURE
 62
7
  6
CONTINUOUS
 10
82.6395576219
 20
112.2254973394
  0
VERTEX
  8
2_FEATURE
 62
7
  6
CONTINUOUS
 10
82.7443611692
 20
112.2207183697
  0
SEQEND
  0
POLYLINE
  8
2_FEATURE
 62
7
  6
CONTINUOUS
 66
1
 70
0
  0
VERTEX
  8
2_FEATURE
 62
7
  6
CONTINUOUS
 10
81.6375602882
 20
130.1032714572
  0
VERTEX
  8
2_FEATURE
 62
7
  6
CONTINUOUS
 10
81.642191814
 20
130.0034611315
  0
VERTEX
  8
2_FEATURE
 62
7
  6
CONTINUOUS
 10
81.6560228514
 20
129.9047832423
  0
VERTEX
  8
2_FEATURE
 62
7
  6
CONTINUOUS
 10
81.6788908765
 20
129.8080790582
  0
VERTEX
  8
2_FEATURE
 62
7
  6
CONTINUOUS
 10
81.7106408158
 20
129.7139203717
  0
VERTEX
  8
2_FEATURE
 62
7
  6
CONTINUOUS
 10
81.7509585558
 20
129.623210156
  0
VERTEX
  8
2_FEATURE
 62
7
  6
CONTINUOUS
 10
81.7996454984
 20
129.5364238685
  0
VERTEX
  8
2_FEATURE
 62
7
  6
CONTINUOUS
 10
81.8562287473
 20
129.4544555478
  0
VERTEX
  8
2_FEATURE
 62
7
  6
CONTINUOUS
 10
81.9204605815
 20
129.3777373964
  0
VERTEX
  8
2_FEATURE
 62
7
  6
CONTINUOUS
 10
81.9917205775
 20
129.3070983099
  0
VERTEX
  8
2_FEATURE
 62
7
  6
CONTINUOUS
 10
82.0696707865
 20
129.2429667646
  0
VERTEX
  8
2_FEATURE
 62
7
  6
CONTINUOUS
 10
82.1535728056
 20
129.1860539444
  0
VERTEX
  8
2_FEATURE
 62
7
  6
CONTINUOUS
 10
82.2429479836
 20
129.1367849378
  0
VERTEX
  8
2_FEATURE
 62
7
  6
CONTINUOUS
 10
82.336974291
 20
129.0957193781
  0
VERTEX
  8
2_FEATURE
 62
7
  6
CONTINUOUS
 10
82.4350018657
 20
129.0632397868
  0
VERTEX
  8
2_FEATURE
 62
7
  6
CONTINUOUS
 10
82.5361338467
 20
129.039740956
  0
VERTEX
  8
2_FEATURE
 62
7
  6
CONTINUOUS
 10
82.6395576219
 20
129.0254973394
  0
VERTEX
  8
2_FEATURE
 62
7
  6
CONTINUOUS
 10
82.7443611692
 20
129.0207183697
  0
SEQEND
  0
POLYLINE
  8
2_FEATURE
 62
7
  6
CONTINUOUS
 66
1
 70
0
  0
VERTEX
  8
2_FEATURE
 62
7
  6
CONTINUOUS
 10
81.6375602882
 20
146.9032714572
  0
VERTEX
  8
2_FEATURE
 62
7
  6
CONTINUOUS
 10
81.642191814
 20
146.8034611315
  0
VERTEX
  8
2_FEATURE
 62
7
  6
CONTINUOUS
 10
81.6560228514
 20
146.7047832423
  0
VERTEX
  8
2_FEATURE
 62
7
  6
CONTINUOUS
 10
81.6788908765
 20
146.6080790582
  0
VERTEX
  8
2_FEATURE
 62
7
  6
CONTINUOUS
 10
81.7106408158
 20
146.5139203717
  0
VERTEX
  8
2_FEATURE
 62
7
  6
CONTINUOUS
 10
81.7509585558
 20
146.423210156
  0
VERTEX
  8
2_FEATURE
 62
7
  6
CONTINUOUS
 10
81.7996454984
 20
146.3364238685
  0
VERTEX
  8
2_FEATURE
 62
7
  6
CONTINUOUS
 10
81.8562287473
 20
146.2544555478
  0
VERTEX
  8
2_FEATURE
 62
7
  6
CONTINUOUS
 10
81.9204605815
 20
146.1777373964
  0
VERTEX
  8
2_FEATURE
 62
7
  6
CONTINUOUS
 10
81.9917205775
 20
146.1070983099
  0
VERTEX
  8
2_FEATURE
 62
7
  6
CONTINUOUS
 10
82.0696707865
 20
146.0429667646
  0
VERTEX
  8
2_FEATURE
 62
7
  6
CONTINUOUS
 10
82.1535728056
 20
145.9860539444
  0
VERTEX
  8
2_FEATURE
 62
7
  6
CONTINUOUS
 10
82.2429479836
 20
145.9367849378
  0
VERTEX
  8
2_FEATURE
 62
7
  6
CONTINUOUS
 10
82.336974291
 20
145.8957193781
  0
VERTEX
  8
2_FEATURE
 62
7
  6
CONTINUOUS
 10
82.4350018657
 20
145.8632397868
  0
VERTEX
  8
2_FEATURE
 62
7
  6
CONTINUOUS
 10
82.5361338467
 20
145.839740956
  0
VERTEX
  8
2_FEATURE
 62
7
  6
CONTINUOUS
 10
82.6395576219
 20
145.8254973394
  0
VERTEX
  8
2_FEATURE
 62
7
  6
CONTINUOUS
 10
82.7443611692
 20
145.8207183697
  0
SEQEND
  0
LINE
  8
2_FEATURE
 62
7
  6
CONTINUOUS
 10
81.6375602882
 20
147.01532017
 11
81.6375602882
 21
146.9032714572
  0
LINE
  8
2_FEATURE
 62
7
  6
CONTINUOUS
 10
81.6375602882
 20
130.21532017
 11
81.6375602882
 21
130.1032714572
  0
LINE
  8
2_FEATURE
 62
7
  6
CONTINUOUS
 10
81.6375602882
 20
113.41532017
 11
81.6375602882
 21
113.3032714572
  0
LINE
  8
2_FEATURE
 62
7
  6
CONTINUOUS
 10
81.6375602882
 20
96.61532017
 11
81.6375602882
 21
96.5032714572
  0
LINE
  8
2_FEATURE
 62
7
  6
CONTINUOUS
 10
81.6375602882
 20
102.886297953
 11
81.6375602882
 21
102.9983466658
  0
LINE
  8
2_FEATURE
 62
7
  6
CONTINUOUS
 10
81.6375602882
 20
119.686297953
 11
81.6375602882
 21
119.7983466658
  0
LINE
  8
2_FEATURE
 62
7
  6
CONTINUOUS
 10
81.6375602882
 20
136.486297953
 11
81.6375602882
 21
136.5983466658
  0
POLYLINE
  8
2_FEATURE
 62
7
  6
CONTINUOUS
 66
1
 70
0
  0
VERTEX
  8
2_FEATURE
 62
7
  6
CONTINUOUS
 10
59.3421314037
 20
106.0578553172
  0
VERTEX
  8
2_FEATURE
 62
7
  6
CONTINUOUS
 10
59.2492818999
 20
106.0075308825
  0
VERTEX
  8
2_FEATURE
 62
7
  6
CONTINUOUS
 10
59.1661720703
 20
105.9515796332
  0
VERTEX
  8
2_FEATURE
 62
7
  6
CONTINUOUS
 10
59.0924710067
 20
105.8914800238
  0
VERTEX
  8
2_FEATURE
 62
7
  6
CONTINUOUS
 10
59.0276852454
 20
105.8284699502
  0
VERTEX
  8
2_FEATURE
 62
7
  6
CONTINUOUS
 10
58.9712137249
 20
105.7635393739
  0
VERTEX
  8
2_FEATURE
 62
7
  6
CONTINUOUS
 10
58.9224264082
 20
105.6974736478
  0
VERTEX
  8
2_FEATURE
 62
7
  6
CONTINUOUS
 10
58.8806947503
 20
105.6308749795
  0
VERTEX
  8
2_FEATURE
 62
7
  6
CONTINUOUS
 10
58.8453725065
 20
105.5640967611
  0
VERTEX
  8
2_FEATURE
 62
7
  6
CONTINUOUS
 10
58.8159283559
 20
105.4974620599
  0
VERTEX
  8
2_FEATURE
 62
7
  6
CONTINUOUS
 10
58.7918326809
 20
105.4310430325
  0
VERTEX
  8
2_FEATURE
 62
7
  6
CONTINUOUS
 10
58.7726807527
 20
105.3649348816
  0
VERTEX
  8
2_FEATURE
 62
7
  6
CONTINUOUS
 10
58.7581047033
 20
105.2990079889
  0
VERTEX
  8
2_FEATURE
 62
7
  6
CONTINUOUS
 10
58.7478839072
 20
105.233392649
  0
VERTEX
  8
2_FEATURE
 62
7
  6
CONTINUOUS
 10
58.7417938177
 20
105.167650953
  0
VERTEX
  8
2_FEATURE
 62
7
  6
CONTINUOUS
 10
58.739771534
 20
105.101819822
  0
SEQEND
  0
POLYLINE
  8
2_FEATURE
 62
7
  6
CONTINUOUS
 66
1
 70
0
  0
VERTEX
  8
2_FEATURE
 62
7
  6
CONTINUOUS
 10
94.4816125737
 20
128.699661585
  0
VERTEX
  8
2_FEATURE
 62
7
  6
CONTINUOUS
 10
94.5419711179
 20
128.708005538
  0
VERTEX
  8
2_FEATURE
 62
7
  6
CONTINUOUS
 10
94.6022601658
 20
128.7192094366
  0
VERTEX
  8
2_FEATURE
 62
7
  6
CONTINUOUS
 10
94.66160615
 20
128.7330799055
  0
VERTEX
  8
2_FEATURE
 62
7
  6
CONTINUOUS
 10
94.7194331213
 20
128.7493485927
  0
VERTEX
  8
2_FEATURE
 62
7
  6
CONTINUOUS
 10
94.7748575893
 20
128.7675162626
  0
VERTEX
  8
2_FEATURE
 62
7
  6
CONTINUOUS
 10
94.826820536
 20
128.7868199739
  0
VERTEX
  8
2_FEATURE
 62
7
  6
CONTINUOUS
 10
94.8739941792
 20
128.8061526655
  0
VERTEX
  8
2_FEATURE
 62
7
  6
CONTINUOUS
 10
94.9154939043
 20
128.8243739064
  0
VERTEX
  8
2_FEATURE
 62
7
  6
CONTINUOUS
 10
94.9506571287
 20
128.840342414
  0
VERTEX
  8
2_FEATURE
 62
7
  6
CONTINUOUS
 10
94.9791830974
 20
128.8531089779
  0
SEQEND
  0
POLYLINE
  8
2_FEATURE
 62
7
  6
CONTINUOUS
 66
1
 70
0
  0
VERTEX
  8
2_FEATURE
 62
7
  6
CONTINUOUS
 10
59.7471270382
 20
122.9732597134
  0
VERTEX
  8
2_FEATURE
 62
7
  6
CONTINUOUS
 10
59.6881617379
 20
122.9659342939
  0
VERTEX
  8
2_FEATURE
 62
7
  6
CONTINUOUS
 10
59.6299488528
 20
122.9556536033
  0
VERTEX
  8
2_FEATURE
 62
7
  6
CONTINUOUS
 10
59.5733313508
 20
122.9426922159
  0
VERTEX
  8
2_FEATURE
 62
7
  6
CONTINUOUS
 10
59.5189696701
 20
122.9274304921
  0
VERTEX
  8
2_FEATURE
 62
7
  6
CONTINUOUS
 10
59.4676927744
 20
122.9104370958
  0
VERTEX
  8
2_FEATURE
 62
7
  6
CONTINUOUS
 10
59.4205088012
 20
122.8925164037
  0
VERTEX
  8
2_FEATURE
 62
7
  6
CONTINUOUS
 10
59.3784214761
 20
122.8746573937
  0
VERTEX
  8
2_FEATURE
 62
7
  6
CONTINUOUS
 10
59.3421314037
 20
122.8578553172
  0
SEQEND
  0
POLYLINE
  8
2_FEATURE
 62
7
  6
CONTINUOUS
 66
1
 70
0
  0
VERTEX
  8
2_FEATURE
 62
7
  6
CONTINUOUS
 10
71.4191668376
 20
126.9904495809
  0
VERTEX
  8
2_FEATURE
 62
7
  6
CONTINUOUS
 10
71.5248117883
 20
126.9952791654
  0
VERTEX
  8
2_FEATURE
 62
7
  6
CONTINUOUS
 10
71.6293903594
 20
127.009707033
  0
VERTEX
  8
2_FEATURE
 62
7
  6
CONTINUOUS
 10
71.7319188822
 20
127.0335591632
  0
VERTEX
  8
2_FEATURE
 62
7
  6
CONTINUOUS
 10
71.8315284803
 20
127.0665862966
  0
VERTEX
  8
2_FEATURE
 62
7
  6
CONTINUOUS
 10
71.9272486376
 20
127.1084016257
  0
VERTEX
  8
2_FEATURE
 62
7
  6
CONTINUOUS
 10
72.0183587013
 20
127.1586164874
  0
VERTEX
  8
2_FEATURE
 62
7
  6
CONTINUOUS
 10
72.1039652222
 20
127.2166483474
  0
VERTEX
  8
2_FEATURE
 62
7
  6
CONTINUOUS
 10
72.1835215359
 20
127.2820316572
  0
VERTEX
  8
2_FEATURE
 62
7
  6
CONTINUOUS
 10
72.2562405126
 20
127.3540102038
  0
VERTEX
  8
2_FEATURE
 62
7
  6
CONTINUOUS
 10
72.3217391882
 20
127.4320929426
  0
VERTEX
  8
2_FEATURE
 62
7
  6
CONTINUOUS
 10
72.3793742561
 20
127.5153912543
  0
VERTEX
  8
2_FEATURE
 62
7
  6
CONTINUOUS
 10
72.4288885515
 20
127.6034099675
  0
VERTEX
  8
2_FEATURE
 62
7
  6
CONTINUOUS
 10
72.4698105706
 20
127.6951859592
  0
VERTEX
  8
2_FEATURE
 62
7
  6
CONTINUOUS
 10
72.5019680132
 20
127.7902047257
  0
VERTEX
  8
2_FEATURE
 62
7
  6
CONTINUOUS
 10
72.5250722696
 20
127.8875028217
  0
VERTEX
  8
2_FEATURE
 62
7
  6
CONTINUOUS
 10
72.5390129917
 20
127.9864985531
  0
VERTEX
  8
2_FEATURE
 62
7
  6
CONTINUOUS
 10
72.5436692301
 20
128.086297953
  0
SEQEND
  0
LINE
  8
2_FEATURE
 62
7
  6
CONTINUOUS
 10
59.8627003676
 20
126.9230622053
 11
70.6598081707
 21
126.9898817145
  0
LINE
  8
2_FEATURE
 62
7
  6
CONTINUOUS
 10
70.6598081707
 20
126.9898817145
 11
70.8276500732
 21
126.9903861784
  0
LINE
  8
2_FEATURE
 62
7
  6
CONTINUOUS
 10
71.4191668376
 20
126.9904495809
 11
70.8276500732
 21
126.9903861784
  0
POLYLINE
  8
2_FEATURE
 62
7
  6
CONTINUOUS
 66
1
 70
0
  0
VERTEX
  8
2_FEATURE
 62
7
  6
CONTINUOUS
 10
59.7471270382
 20
126.9283584096
  0
VERTEX
  8
2_FEATURE
 62
7
  6
CONTINUOUS
 10
59.785551385
 20
126.9252592015
  0
VERTEX
  8
2_FEATURE
 62
7
  6
CONTINUOUS
 10
59.8240937636
 20
126.9234922692
  0
VERTEX
  8
2_FEATURE
 62
7
  6
CONTINUOUS
 10
59.8627003676
 20
126.9230622053
  0
SEQEND
  0
LINE
  8
0
 62
7
  6
CONTINUOUS
 10
44.3979153417
 20
130.3010613578
 11
44.4875990097
 21
130.2882489407
  0
POLYLINE
  8
0
 62
7
  6
CONTINUOUS
 66
1
 70
0
  0
VERTEX
  8
0
 62
7
  6
CONTINUOUS
 10
109.7217264444
 20
111.2004241853
  0
VERTEX
  8
0
 62
7
  6
CONTINUOUS
 10
109.4854130869
 20
111.3093038362
  0
VERTEX
  8
0
 62
7
  6
CONTINUOUS
 10
109.2146738452
 20
111.4202708974
  0
VERTEX
  8
0
 62
7
  6
CONTINUOUS
 10
108.9264709142
 20
111.5255096656
  0
VERTEX
  8
0
 62
7
  6
CONTINUOUS
 10
108.6217125842
 20
111.6250322272
  0
VERTEX
  8
0
 62
7
  6
CONTINUOUS
 10
108.3013173327
 20
111.7188145192
  0
VERTEX
  8
0
 62
7
  6
CONTINUOUS
 10
107.9662163262
 20
111.806808291
  0
VERTEX
  8
0
 62
7
  6
CONTINUOUS
 10
107.6173533742
 20
111.8889500538
  0
VERTEX
  8
0
 62
7
  6
CONTINUOUS
 10
107.2556987315
 20
111.9651646215
  0
VERTEX
  8
0
 62
7
  6
CONTINUOUS
 10
106.8822470966
 20
112.0353715187
  0
VERTEX
  8
0
 62
7
  6
CONTINUOUS
 10
106.498004278
 20
112.099491432
  0
VERTEX
  8
0
 62
7
  6
CONTINUOUS
 10
106.1039830678
 20
112.1574488988
  0
VERTEX
  8
0
 62
7
  6
CONTINUOUS
 10
105.7012021529
 20
112.2091737376
  0
VERTEX
  8
0
 62
7
  6
CONTINUOUS
 10
105.3324068518
 20
112.2503078347
  0
SEQEND
  0
LINE
  8
2_FEATURE
 62
7
  6
CONTINUOUS
 10
83.2684239384
 20
129.0207183697
 11
82.7443611692
 21
129.0207183697
  0
LINE
  8
0
 62
7
  6
CONTINUOUS
 10
98.6648321461
 20
129.0503488654
 11
105.3316136328
 21
129.0503488654
  0
LINE
  8
0
 62
7
  6
CONTINUOUS
 10
55.5163976034
 20
129.2512692576
 11
48.8496158855
 21
129.2512692576
  0
LINE
  8
2_FEATURE
 62
7
  6
CONTINUOUS
 10
71.4368683491
 20
129.2808997533
 11
70.9128055799
 21
129.2808997533
  0
POLYLINE
  8
2_FEATURE
 62
7
  6
CONTINUOUS
 66
1
 70
0
  0
VERTEX
  8
2_FEATURE
 62
7
  6
CONTINUOUS
 10
83.2684239384
 20
129.0207183697
  0
VERTEX
  8
2_FEATURE
 62
7
  6
CONTINUOUS
 10
83.3535656838
 20
129.0204006851
  0
VERTEX
  8
2_FEATURE
 62
7
  6
CONTINUOUS
 10
83.438094873
 20
129.0194498517
  0
VERTEX
  8
2_FEATURE
 62
7
  6
CONTINUOUS
 10
83.521402857
 20
129.0178725202
  0
VERTEX
  8
2_FEATURE
 62
7
  6
CONTINUOUS
 10
83.6028888041
 20
129.0156797419
  0
SEQEND
  0
POLYLINE
  8
2_FEATURE
 62
7
  6
CONTINUOUS
 66
1
 70
0
  0
VERTEX
  8
2_FEATURE
 62
7
  6
CONTINUOUS
 10
94.3179242278
 20
128.692697956
  0
VERTEX
  8
2_FEATURE
 62
7
  6
CONTINUOUS
 10
94.3722812027
 20
128.6924151721
  0
VERTEX
  8
2_FEATURE
 62
7
  6
CONTINUOUS
 10
94.4268656547
 20
128.6947190413
  0
VERTEX
  8
2_FEATURE
 62
7
  6
CONTINUOUS
 10
94.4816125737
 20
128.699661585
  0
SEQEND
  0
POLYLINE
  8
2_FEATURE
 62
7
  6
CONTINUOUS
 66
1
 70
0
  0
VERTEX
  8
2_FEATURE
 62
7
  6
CONTINUOUS
 10
59.8619016176
 20
129.6159556874
  0
VERTEX
  8
2_FEATURE
 62
7
  6
CONTINUOUS
 10
59.8183591363
 20
129.6164138303
  0
VERTEX
  8
2_FEATURE
 62
7
  6
CONTINUOUS
 10
59.7747832152
 20
129.6151957405
  0
VERTEX
  8
2_FEATURE
 62
7
  6
CONTINUOUS
 10
59.7312270662
 20
129.6122909401
  0
SEQEND
  0
POLYLINE
  8
2_FEATURE
 62
7
  6
CONTINUOUS
 66
1
 70
0
  0
VERTEX
  8
2_FEATURE
 62
7
  6
CONTINUOUS
 10
70.5783407142
 20
129.2859383811
  0
VERTEX
  8
2_FEATURE
 62
7
  6
CONTINUOUS
 10
70.659826662
 20
129.2837456028
  0
VERTEX
  8
2_FEATURE
 62
7
  6
CONTINUOUS
 10
70.7431346493
 20
129.2821682712
  0
VERTEX
  8
2_FEATURE
 62
7
  6
CONTINUOUS
 10
70.8276638382
 20
129.2812174378
  0
VERTEX
  8
2_FEATURE
 62
7
  6
CONTINUOUS
 10
70.9128055799
 20
129.2808997533
  0
SEQEND
  0
POLYLINE
  8
2_FEATURE
 62
7
  6
CONTINUOUS
 66
1
 70
0
  0
VERTEX
  8
2_FEATURE
 62
7
  6
CONTINUOUS
 10
94.3179242278
 20
128.692697956
  0
VERTEX
  8
2_FEATURE
 62
7
  6
CONTINUOUS
 10
92.4723533126
 20
128.7463068997
  0
VERTEX
  8
2_FEATURE
 62
7
  6
CONTINUOUS
 10
90.5708876249
 20
128.802488941
  0
SEQEND
  0
LINE
  8
2_FEATURE
 62
7
  6
CONTINUOUS
 10
88.5485979359
 20
128.8632306252
 11
90.5708876249
 21
128.802488941
  0
LINE
  8
2_FEATURE
 62
7
  6
CONTINUOUS
 10
87.8282668541
 20
128.8844812653
 11
88.5485979359
 21
128.8632306252
  0
POLYLINE
  8
2_FEATURE
 62
7
  6
CONTINUOUS
 66
1
 70
0
  0
VERTEX
  8
2_FEATURE
 62
7
  6
CONTINUOUS
 10
63.9649157662
 20
129.4912859897
  0
VERTEX
  8
2_FEATURE
 62
7
  6
CONTINUOUS
 10
62.5951249303
 20
129.5335129185
  0
VERTEX
  8
2_FEATURE
 62
7
  6
CONTINUOUS
 10
61.2227547044
 20
129.5752112419
  0
VERTEX
  8
2_FEATURE
 62
7
  6
CONTINUOUS
 10
59.8619016176
 20
129.6159556874
  0
SEQEND
  0
LINE
  8
2_FEATURE
 62
7
  6
CONTINUOUS
 10
70.5783407142
 20
129.2859383811
 11
63.9649157662
 21
129.4912859897
  0
LINE
  8
2_FEATURE
 62
7
  6
CONTINUOUS
 10
87.8282668541
 20
128.8844812653
 11
83.6028888041
 21
129.0156797419
  0
LINE
  8
0
 62
7
  6
CONTINUOUS
 10
48.8488242856
 20
129.2513102933
 11
48.8496156583
 21
129.2512692576
  0
LINE
  8
0
 62
7
  6
CONTINUOUS
 10
105.3324052327
 20
129.0503078296
 11
105.3316138601
 21
129.0503488654
  0
POLYLINE
  8
2_FEATURE
 62
7
  6
CONTINUOUS
 66
1
 70
0
  0
VERTEX
  8
2_FEATURE
 62
7
  6
CONTINUOUS
 10
59.3520785277
 20
137.1770507188
  0
VERTEX
  8
2_FEATURE
 62
7
  6
CONTINUOUS
 10
59.3956939912
 20
137.1615930816
  0
VERTEX
  8
2_FEATURE
 62
7
  6
CONTINUOUS
 10
59.4444885722
 20
137.1457724015
  0
VERTEX
  8
2_FEATURE
 62
7
  6
CONTINUOUS
 10
59.4973061445
 20
137.1306146979
  0
VERTEX
  8
2_FEATURE
 62
7
  6
CONTINUOUS
 10
59.5533213163
 20
137.1168717015
  0
VERTEX
  8
2_FEATURE
 62
7
  6
CONTINUOUS
 10
59.6115306735
 20
137.1051652095
  0
VERTEX
  8
2_FEATURE
 62
7
  6
CONTINUOUS
 10
59.6712223303
 20
137.0958852492
  0
VERTEX
  8
2_FEATURE
 62
7
  6
CONTINUOUS
 10
59.7312270662
 20
137.0893271829
  0
SEQEND
  0
LINE
  8
2_FEATURE
 62
7
  6
CONTINUOUS
 10
59.2831691714
 20
137.2028973217
 11
59.3520785277
 21
137.1770507188
  0
POLYLINE
  8
2_FEATURE
 62
7
  6
CONTINUOUS
 66
1
 70
0
  0
VERTEX
  8
2_FEATURE
 62
7
  6
CONTINUOUS
 10
94.9791830974
 20
121.0485091451
  0
VERTEX
  8
2_FEATURE
 62
7
  6
CONTINUOUS
 10
94.9506571287
 20
121.0612757089
  0
VERTEX
  8
2_FEATURE
 62
7
  6
CONTINUOUS
 10
94.9154939043
 20
121.0772442165
  0
VERTEX
  8
2_FEATURE
 62
7
  6
CONTINUOUS
 10
94.8739941792
 20
121.0954654575
  0
VERTEX
  8
2_FEATURE
 62
7
  6
CONTINUOUS
 10
94.826820536
 20
121.1147981491
  0
VERTEX
  8
2_FEATURE
 62
7
  6
CONTINUOUS
 10
94.7748575893
 20
121.1341018604
  0
VERTEX
  8
2_FEATURE
 62
7
  6
CONTINUOUS
 10
94.7194331213
 20
121.1522695303
  0
VERTEX
  8
2_FEATURE
 62
7
  6
CONTINUOUS
 10
94.66160615
 20
121.1685382175
  0
VERTEX
  8
2_FEATURE
 62
7
  6
CONTINUOUS
 10
94.6022601658
 20
121.1824086864
  0
VERTEX
  8
2_FEATURE
 62
7
  6
CONTINUOUS
 10
94.5419711179
 20
121.193612585
  0
VERTEX
  8
2_FEATURE
 62
7
  6
CONTINUOUS
 10
94.4816125737
 20
121.201956538
  0
SEQEND
  0
POLYLINE
  8
2_FEATURE
 62
7
  6
CONTINUOUS
 66
1
 70
0
  0
VERTEX
  8
2_FEATURE
 62
7
  6
CONTINUOUS
 10
94.8390981146
 20
118.6437628058
  0
VERTEX
  8
2_FEATURE
 62
7
  6
CONTINUOUS
 10
94.9319476184
 20
118.6940872405
  0
VERTEX
  8
2_FEATURE
 62
7
  6
CONTINUOUS
 10
95.015057448
 20
118.7500384898
  0
VERTEX
  8
2_FEATURE
 62
7
  6
CONTINUOUS
 10
95.0887585116
 20
118.8101380992
  0
VERTEX
  8
2_FEATURE
 62
7
  6
CONTINUOUS
 10
95.1535442729
 20
118.8731481727
  0
VERTEX
  8
2_FEATURE
 62
7
  6
CONTINUOUS
 10
95.2100157934
 20
118.9380787491
  0
VERTEX
  8
2_FEATURE
 62
7
  6
CONTINUOUS
 10
95.2588031101
 20
119.0041444752
  0
VERTEX
  8
2_FEATURE
 62
7
  6
CONTINUOUS
 10
95.3005347681
 20
119.0707431435
  0
VERTEX
  8
2_FEATURE
 62
7
  6
CONTINUOUS
 10
95.3358570118
 20
119.1375213619
  0
VERTEX
  8
2_FEATURE
 62
7
  6
CONTINUOUS
 10
95.3653011624
 20
119.2041560631
  0
VERTEX
  8
2_FEATURE
 62
7
  6
CONTINUOUS
 10
95.3893968374
 20
119.2705750905
  0
VERTEX
  8
2_FEATURE
 62
7
  6
CONTINUOUS
 10
95.4085487656
 20
119.3366832414
  0
VERTEX
  8
2_FEATURE
 62
7
  6
CONTINUOUS
 10
95.423124815
 20
119.4026101341
  0
VERTEX
  8
2_FEATURE
 62
7
  6
CONTINUOUS
 10
95.4333456111
 20
119.468225474
  0
VERTEX
  8
2_FEATURE
 62
7
  6
CONTINUOUS
 10
95.4394357006
 20
119.53396717
  0
VERTEX
  8
2_FEATURE
 62
7
  6
CONTINUOUS
 10
95.4414579843
 20
119.599798301
  0
SEQEND
  0
POLYLINE
  8
2_FEATURE
 62
7
  6
CONTINUOUS
 66
1
 70
0
  0
VERTEX
  8
2_FEATURE
 62
7
  6
CONTINUOUS
 10
94.4341024801
 20
135.3283584096
  0
VERTEX
  8
2_FEATURE
 62
7
  6
CONTINUOUS
 10
94.4930677804
 20
135.3356838291
  0
VERTEX
  8
2_FEATURE
 62
7
  6
CONTINUOUS
 10
94.5512806656
 20
135.3459645197
  0
VERTEX
  8
2_FEATURE
 62
7
  6
CONTINUOUS
 10
94.6078981675
 20
135.3589259071
  0
VERTEX
  8
2_FEATURE
 62
7
  6
CONTINUOUS
 10
94.6622598482
 20
135.3741876309
  0
VERTEX
  8
2_FEATURE
 62
7
  6
CONTINUOUS
 10
94.713536744
 20
135.3911810272
  0
VERTEX
  8
2_FEATURE
 62
7
  6
CONTINUOUS
 10
94.7607207171
 20
135.4091017193
  0
VERTEX
  8
2_FEATURE
 62
7
  6
CONTINUOUS
 10
94.8028080422
 20
135.4269607293
  0
VERTEX
  8
2_FEATURE
 62
7
  6
CONTINUOUS
 10
94.8390981146
 20
135.4437628058
  0
SEQEND
  0
POLYLINE
  8
2_FEATURE
 62
7
  6
CONTINUOUS
 66
1
 70
0
  0
VERTEX
  8
2_FEATURE
 62
7
  6
CONTINUOUS
 10
59.7312270662
 20
129.6122909401
  0
VERTEX
  8
2_FEATURE
 62
7
  6
CONTINUOUS
 10
59.6712223303
 20
129.6057328738
  0
VERTEX
  8
2_FEATURE
 62
7
  6
CONTINUOUS
 10
59.6115306735
 20
129.5964529135
  0
VERTEX
  8
2_FEATURE
 62
7
  6
CONTINUOUS
 10
59.5533213163
 20
129.5847464215
  0
VERTEX
  8
2_FEATURE
 62
7
  6
CONTINUOUS
 10
59.4973061445
 20
129.5710034251
  0
VERTEX
  8
2_FEATURE
 62
7
  6
CONTINUOUS
 10
59.4444885722
 20
129.5558457214
  0
VERTEX
  8
2_FEATURE
 62
7
  6
CONTINUOUS
 10
59.3956939912
 20
129.5400250414
  0
VERTEX
  8
2_FEATURE
 62
7
  6
CONTINUOUS
 10
59.3520785277
 20
129.5245674042
  0
VERTEX
  8
2_FEATURE
 62
7
  6
CONTINUOUS
 10
59.2831691714
 20
129.4987208013
  0
SEQEND
  0
POLYLINE
  8
2_FEATURE
 62
7
  6
CONTINUOUS
 66
1
 70
0
  0
VERTEX
  8
2_FEATURE
 62
7
  6
CONTINUOUS
 10
82.7620626807
 20
131.3111685421
  0
VERTEX
  8
2_FEATURE
 62
7
  6
CONTINUOUS
 10
82.65641773
 20
131.3063389576
  0
VERTEX
  8
2_FEATURE
 62
7
  6
CONTINUOUS
 10
82.5518391589
 20
131.29191109
  0
VERTEX
  8
2_FEATURE
 62
7
  6
CONTINUOUS
 10
82.4493106361
 20
131.2680589598
  0
VERTEX
  8
2_FEATURE
 62
7
  6
CONTINUOUS
 10
82.349701038
 20
131.2350318264
  0
VERTEX
  8
2_FEATURE
 62
7
  6
CONTINUOUS
 10
82.2539808807
 20
131.1932164973
  0
VERTEX
  8
2_FEATURE
 62
7
  6
CONTINUOUS
 10
82.162870817
 20
131.1430016356
  0
VERTEX
  8
2_FEATURE
 62
7
  6
CONTINUOUS
 10
82.0772642961
 20
131.0849697755
  0
VERTEX
  8
2_FEATURE
 62
7
  6
CONTINUOUS
 10
81.9977079824
 20
131.0195864658
  0
VERTEX
  8
2_FEATURE
 62
7
  6
CONTINUOUS
 10
81.9249890057
 20
130.9476079192
  0
VERTEX
  8
2_FEATURE
 62
7
  6
CONTINUOUS
 10
81.8594903301
 20
130.8695251804
  0
VERTEX
  8
2_FEATURE
 62
7
  6
CONTINUOUS
 10
81.8018552622
 20
130.7862268687
  0
VERTEX
  8
2_FEATURE
 62
7
  6
CONTINUOUS
 10
81.7523409668
 20
130.6982081555
  0
VERTEX
  8
2_FEATURE
 62
7
  6
CONTINUOUS
 10
81.7114189477
 20
130.6064321638
  0
VERTEX
  8
2_FEATURE
 62
7
  6
CONTINUOUS
 10
81.6792615051
 20
130.5114133973
  0
VERTEX
  8
2_FEATURE
 62
7
  6
CONTINUOUS
 10
81.6561572487
 20
130.4141153012
  0
VERTEX
  8
2_FEATURE
 62
7
  6
CONTINUOUS
 10
81.6422165266
 20
130.3151195699
  0
VERTEX
  8
2_FEATURE
 62
7
  6
CONTINUOUS
 10
81.6375602882
 20
130.21532017
  0
SEQEND
  0
LINE
  8
2_FEATURE
 62
7
  6
CONTINUOUS
 10
83.4381165565
 20
131.3114216922
 11
94.3185291507
 21
131.3785559177
  0
LINE
  8
2_FEATURE
 62
7
  6
CONTINUOUS
 10
83.4381165565
 20
131.3114216922
 11
82.7620626807
 21
131.3111685421
  0
POLYLINE
  8
2_FEATURE
 62
7
  6
CONTINUOUS
 66
1
 70
0
  0
VERTEX
  8
2_FEATURE
 62
7
  6
CONTINUOUS
 10
94.4341024801
 20
131.3732597134
  0
VERTEX
  8
2_FEATURE
 62
7
  6
CONTINUOUS
 10
94.3956781333
 20
131.3763589215
  0
VERTEX
  8
2_FEATURE
 62
7
  6
CONTINUOUS
 10
94.3571357547
 20
131.3781258537
  0
VERTEX
  8
2_FEATURE
 62
7
  6
CONTINUOUS
 10
94.3185291507
 20
131.3785559177
  0
SEQEND
  0
LINE
  8
0
 62
7
  6
CONTINUOUS
 10
109.7833141764
 20
128.0005567652
 11
109.6936305086
 21
128.0133691823
  0
POLYLINE
  8
2_FEATURE
 62
7
  6
CONTINUOUS
 66
1
 70
0
  0
VERTEX
  8
2_FEATURE
 62
7
  6
CONTINUOUS
 10
44.4595030739
 20
147.1011939376
  0
VERTEX
  8
2_FEATURE
 62
7
  6
CONTINUOUS
 10
44.6958164314
 20
146.9923142868
  0
VERTEX
  8
2_FEATURE
 62
7
  6
CONTINUOUS
 10
44.9665556731
 20
146.8813472256
  0
VERTEX
  8
2_FEATURE
 62
7
  6
CONTINUOUS
 10
45.2547586041
 20
146.7761084574
  0
VERTEX
  8
2_FEATURE
 62
7
  6
CONTINUOUS
 10
45.5595169341
 20
146.6765858957
  0
VERTEX
  8
2_FEATURE
 62
7
  6
CONTINUOUS
 10
45.8799121856
 20
146.5828036038
  0
VERTEX
  8
2_FEATURE
 62
7
  6
CONTINUOUS
 10
46.2150131921
 20
146.494809832
  0
VERTEX
  8
2_FEATURE
 62
7
  6
CONTINUOUS
 10
46.5638761441
 20
146.4126680692
  0
VERTEX
  8
2_FEATURE
 62
7
  6
CONTINUOUS
 10
46.9255307868
 20
146.3364535014
  0
VERTEX
  8
2_FEATURE
 62
7
  6
CONTINUOUS
 10
47.2989824217
 20
146.2662466042
  0
VERTEX
  8
2_FEATURE
 62
7
  6
CONTINUOUS
 10
47.6832252403
 20
146.202126691
  0
VERTEX
  8
2_FEATURE
 62
7
  6
CONTINUOUS
 10
48.0772464505
 20
146.1441692242
  0
VERTEX
  8
2_FEATURE
 62
7
  6
CONTINUOUS
 10
48.4800273654
 20
146.0924443854
  0
VERTEX
  8
2_FEATURE
 62
7
  6
CONTINUOUS
 10
48.8488226665
 20
146.0513102882
  0
SEQEND
  0
POLYLINE
  8
2_FEATURE
 62
7
  6
CONTINUOUS
 66
1
 70
0
  0
VERTEX
  8
2_FEATURE
 62
7
  6
CONTINUOUS
 10
95.418612067
 20
146.2512807931
  0
VERTEX
  8
2_FEATURE
 62
7
  6
CONTINUOUS
 10
95.4286271014
 20
146.3051187575
  0
VERTEX
  8
2_FEATURE
 62
7
  6
CONTINUOUS
 10
95.435748923
 20
146.3593994534
  0
VERTEX
  8
2_FEATURE
 62
7
  6
CONTINUOUS
 10
95.4400251329
 20
146.4142241614
  0
VERTEX
  8
2_FEATURE
 62
7
  6
CONTINUOUS
 10
95.4414579843
 20
146.4697159833
  0
SEQEND
  0
POLYLINE
  8
2_FEATURE
 62
7
  6
CONTINUOUS
 66
1
 70
0
  0
VERTEX
  8
2_FEATURE
 62
7
  6
CONTINUOUS
 10
59.2831691714
 20
95.8987208013
  0
VERTEX
  8
2_FEATURE
 62
7
  6
CONTINUOUS
 10
59.2087719447
 20
95.8621047026
  0
VERTEX
  8
2_FEATURE
 62
7
  6
CONTINUOUS
 10
59.142853055
 20
95.822065721
  0
VERTEX
  8
2_FEATURE
 62
7
  6
CONTINUOUS
 10
59.0846751601
 20
95.7796997269
  0
VERTEX
  8
2_FEATURE
 62
7
  6
CONTINUOUS
 10
59.0334066084
 20
95.7357692412
  0
VERTEX
  8
2_FEATURE
 62
7
  6
CONTINUOUS
 10
58.9883860141
 20
95.6909356793
  0
VERTEX
  8
2_FEATURE
 62
7
  6
CONTINUOUS
 10
58.9489810021
 20
95.6457035048
  0
VERTEX
  8
2_FEATURE
 62
7
  6
CONTINUOUS
 10
58.9145610146
 20
95.6003922465
  0
VERTEX
  8
2_FEATURE
 62
7
  6
CONTINUOUS
 10
58.8846449958
 20
95.5553467268
  0
SEQEND
  0
POLYLINE
  8
0
 62
7
  6
CONTINUOUS
 66
1
 70
0
  0
VERTEX
  8
0
 62
7
  6
CONTINUOUS
 10
109.6936304638
 20
138.6882489201
  0
VERTEX
  8
0
 62
7
  6
CONTINUOUS
 10
109.7833015753
 20
138.7010594961
  0
VERTEX
  8
0
 62
7
  6
CONTINUOUS
 10
109.9079236531
 20
138.7201965641
  0
VERTEX
  8
0
 62
7
  6
CONTINUOUS
 10
110.0233633216
 20
138.739383995
  0
VERTEX
  8
0
 62
7
  6
CONTINUOUS
 10
110.1299162651
 20
138.7586026901
  0
VERTEX
  8
0
 62
7
  6
CONTINUOUS
 10
110.2279161748
 20
138.7778430088
  0
VERTEX
  8
0
 62
7
  6
CONTINUOUS
 10
110.3177361786
 20
138.7971080205
  0
VERTEX
  8
0
 62
7
  6
CONTINUOUS
 10
110.3997997508
 20
138.8164203427
  0
VERTEX
  8
0
 62
7
  6
CONTINUOUS
 10
110.4745653621
 20
138.8358251155
  0
VERTEX
  8
0
 62
7
  6
CONTINUOUS
 10
110.542526763
 20
138.8553979843
  0
VERTEX
  8
0
 62
7
  6
CONTINUOUS
 10
110.604249821
 20
138.8752689389
  0
VERTEX
  8
0
 62
7
  6
CONTINUOUS
 10
110.6603809432
 20
138.8956502703
  0
VERTEX
  8
0
 62
7
  6
CONTINUOUS
 10
110.7116544725
 20
138.916880959
  0
VERTEX
  8
0
 62
7
  6
CONTINUOUS
 10
110.7588911231
 20
138.9394966697
  0
VERTEX
  8
0
 62
7
  6
CONTINUOUS
 10
110.8029157576
 20
138.9643045068
  0
VERTEX
  8
0
 62
7
  6
CONTINUOUS
 10
110.844150139
 20
138.9922687664
  0
VERTEX
  8
0
 62
7
  6
CONTINUOUS
 10
110.8825798752
 20
139.0245081131
  0
VERTEX
  8
0
 62
7
  6
CONTINUOUS
 10
110.9177757801
 20
139.0623599979
  0
VERTEX
  8
0
 62
7
  6
CONTINUOUS
 10
110.9485586081
 20
139.1071193903
  0
VERTEX
  8
0
 62
7
  6
CONTINUOUS
 10
110.9725988736
 20
139.1590001801
  0
VERTEX
  8
0
 62
7
  6
CONTINUOUS
 10
110.987089673
 20
139.2160698949
  0
VERTEX
  8
0
 62
7
  6
CONTINUOUS
 10
110.9906147191
 20
139.2622180275
  0
SEQEND
  0
POLYLINE
  8
0
 62
7
  6
CONTINUOUS
 66
1
 70
0
  0
VERTEX
  8
0
 62
7
  6
CONTINUOUS
 10
105.3324068518
 20
137.6513102882
  0
VERTEX
  8
0
 62
7
  6
CONTINUOUS
 10
105.7012021529
 20
137.6924443854
  0
VERTEX
  8
0
 62
7
  6
CONTINUOUS
 10
106.1039830678
 20
137.7441692242
  0
VERTEX
  8
0
 62
7
  6
CONTINUOUS
 10
106.498004278
 20
137.802126691
  0
VERTEX
  8
0
 62
7
  6
CONTINUOUS
 10
106.8822470966
 20
137.8662466042
  0
VERTEX
  8
0
 62
7
  6
CONTINUOUS
 10
107.2556987315
 20
137.9364535014
  0
VERTEX
  8
0
 62
7
  6
CONTINUOUS
 10
107.6173533742
 20
138.0126680692
  0
VERTEX
  8
0
 62
7
  6
CONTINUOUS
 10
107.9662163262
 20
138.094809832
  0
VERTEX
  8
0
 62
7
  6
CONTINUOUS
 10
108.3013173327
 20
138.1828036038
  0
VERTEX
  8
0
 62
7
  6
CONTINUOUS
 10
108.6217125842
 20
138.2765858957
  0
VERTEX
  8
0
 62
7
  6
CONTINUOUS
 10
108.9264709142
 20
138.3761084574
  0
VERTEX
  8
0
 62
7
  6
CONTINUOUS
 10
109.2146738452
 20
138.4813472256
  0
VERTEX
  8
0
 62
7
  6
CONTINUOUS
 10
109.4854130869
 20
138.5923142868
  0
VERTEX
  8
0
 62
7
  6
CONTINUOUS
 10
109.7217264444
 20
138.7011939376
  0
SEQEND
  0
LINE
  8
0
 62
7
  6
CONTINUOUS
 10
105.3324052327
 20
137.6513102933
 11
105.3316138601
 21
137.6512692576
  0
POLYLINE
  8
2_FEATURE
 62
7
  6
CONTINUOUS
 66
1
 70
0
  0
VERTEX
  8
2_FEATURE
 62
7
  6
CONTINUOUS
 10
94.3185291507
 20
135.3230622053
  0
VERTEX
  8
2_FEATURE
 62
7
  6
CONTINUOUS
 10
94.3571357547
 20
135.3234922692
  0
VERTEX
  8
2_FEATURE
 62
7
  6
CONTINUOUS
 10
94.3956781333
 20
135.3252592015
  0
VERTEX
  8
2_FEATURE
 62
7
  6
CONTINUOUS
 10
94.4341024801
 20
135.3283584096
  0
SEQEND
  0
LINE
  8
2_FEATURE
 62
7
  6
CONTINUOUS
 10
82.7620626807
 20
135.3904495809
 11
83.4381165565
 21
135.3901964308
  0
LINE
  8
2_FEATURE
 62
7
  6
CONTINUOUS
 10
83.4381165565
 20
135.3901964308
 11
83.6028888041
 21
135.3894443127
  0
LINE
  8
2_FEATURE
 62
7
  6
CONTINUOUS
 10
94.3185291507
 20
135.3230622053
 11
83.6028888041
 21
135.3894443127
  0
POLYLINE
  8
2_FEATURE
 62
7
  6
CONTINUOUS
 66
1
 70
0
  0
VERTEX
  8
2_FEATURE
 62
7
  6
CONTINUOUS
 10
59.7312270662
 20
137.0893271829
  0
VERTEX
  8
2_FEATURE
 62
7
  6
CONTINUOUS
 10
59.7747832152
 20
137.0864223825
  0
VERTEX
  8
2_FEATURE
 62
7
  6
CONTINUOUS
 10
59.8183591363
 20
137.0852042927
  0
VERTEX
  8
2_FEATURE
 62
7
  6
CONTINUOUS
 10
59.8619016176
 20
137.0856624356
  0
SEQEND
  0
POLYLINE
  8
2_FEATURE
 62
7
  6
CONTINUOUS
 66
1
 70
0
  0
VERTEX
  8
2_FEATURE
 62
7
  6
CONTINUOUS
 10
59.3421314037
 20
143.8437628058
  0
VERTEX
  8
2_FEATURE
 62
7
  6
CONTINUOUS
 10
59.3784214761
 20
143.8269607293
  0
VERTEX
  8
2_FEATURE
 62
7
  6
CONTINUOUS
 10
59.4205088012
 20
143.8091017193
  0
VERTEX
  8
2_FEATURE
 62
7
  6
CONTINUOUS
 10
59.4676927744
 20
143.7911810272
  0
VERTEX
  8
2_FEATURE
 62
7
  6
CONTINUOUS
 10
59.5189696701
 20
143.7741876309
  0
VERTEX
  8
2_FEATURE
 62
7
  6
CONTINUOUS
 10
59.5733313508
 20
143.7589259071
  0
VERTEX
  8
2_FEATURE
 62
7
  6
CONTINUOUS
 10
59.6299488528
 20
143.7459645197
  0
VERTEX
  8
2_FEATURE
 62
7
  6
CONTINUOUS
 10
59.6881617379
 20
143.7356838291
  0
VERTEX
  8
2_FEATURE
 62
7
  6
CONTINUOUS
 10
59.7471270382
 20
143.7283584096
  0
SEQEND
  0
POLYLINE
  8
2_FEATURE
 62
7
  6
CONTINUOUS
 66
1
 70
0
  0
VERTEX
  8
2_FEATURE
 62
7
  6
CONTINUOUS
 10
95.418612067
 20
103.6503373299
  0
VERTEX
  8
2_FEATURE
 62
7
  6
CONTINUOUS
 10
95.407349691
 20
103.6971716603
  0
VERTEX
  8
2_FEATURE
 62
7
  6
CONTINUOUS
 10
95.3927784078
 20
103.7462906984
  0
VERTEX
  8
2_FEATURE
 62
7
  6
CONTINUOUS
 10
95.3742889228
 20
103.7976871354
  0
VERTEX
  8
2_FEATURE
 62
7
  6
CONTINUOUS
 10
95.3510619643
 20
103.8515110711
  0
VERTEX
  8
2_FEATURE
 62
7
  6
CONTINUOUS
 10
95.3223261383
 20
103.9073820748
  0
VERTEX
  8
2_FEATURE
 62
7
  6
CONTINUOUS
 10
95.2872571709
 20
103.9647820833
  0
VERTEX
  8
2_FEATURE
 62
7
  6
CONTINUOUS
 10
95.2449659647
 20
104.0230683041
  0
VERTEX
  8
2_FEATURE
 62
7
  6
CONTINUOUS
 10
95.1943830776
 20
104.0815681146
  0
VERTEX
  8
2_FEATURE
 62
7
  6
CONTINUOUS
 10
95.1342514785
 20
104.1394452379
  0
VERTEX
  8
2_FEATURE
 62
7
  6
CONTINUOUS
 10
95.0630901578
 20
104.1955989657
  0
VERTEX
  8
2_FEATURE
 62
7
  6
CONTINUOUS
 10
94.9791830974
 20
104.2485091451
  0
SEQEND
  0
POLYLINE
  8
2_FEATURE
 62
7
  6
CONTINUOUS
 66
1
 70
0
  0
VERTEX
  8
2_FEATURE
 62
7
  6
CONTINUOUS
 10
95.4414579843
 20
96.701819822
  0
VERTEX
  8
2_FEATURE
 62
7
  6
CONTINUOUS
 10
95.4394357006
 20
96.767650953
  0
VERTEX
  8
2_FEATURE
 62
7
  6
CONTINUOUS
 10
95.4333456111
 20
96.833392649
  0
VERTEX
  8
2_FEATURE
 62
7
  6
CONTINUOUS
 10
95.423124815
 20
96.8990079889
  0
VERTEX
  8
2_FEATURE
 62
7
  6
CONTINUOUS
 10
95.4085487656
 20
96.9649348816
  0
VERTEX
  8
2_FEATURE
 62
7
  6
CONTINUOUS
 10
95.3893968374
 20
97.0310430325
  0
VERTEX
  8
2_FEATURE
 62
7
  6
CONTINUOUS
 10
95.3653011624
 20
97.0974620599
  0
VERTEX
  8
2_FEATURE
 62
7
  6
CONTINUOUS
 10
95.3358570118
 20
97.1640967611
  0
VERTEX
  8
2_FEATURE
 62
7
  6
CONTINUOUS
 10
95.3005347681
 20
97.2308749795
  0
VERTEX
  8
2_FEATURE
 62
7
  6
CONTINUOUS
 10
95.2588031101
 20
97.2974736478
  0
VERTEX
  8
2_FEATURE
 62
7
  6
CONTINUOUS
 10
95.2100157934
 20
97.3635393739
  0
VERTEX
  8
2_FEATURE
 62
7
  6
CONTINUOUS
 10
95.1535442729
 20
97.4284699502
  0
VERTEX
  8
2_FEATURE
 62
7
  6
CONTINUOUS
 10
95.0887585116
 20
97.4914800238
  0
VERTEX
  8
2_FEATURE
 62
7
  6
CONTINUOUS
 10
95.015057448
 20
97.5515796332
  0
VERTEX
  8
2_FEATURE
 62
7
  6
CONTINUOUS
 10
94.9319476184
 20
97.6075308825
  0
VERTEX
  8
2_FEATURE
 62
7
  6
CONTINUOUS
 10
94.8390981146
 20
97.6578553172
  0
SEQEND
  0
POLYLINE
  8
2_FEATURE
 62
7
  6
CONTINUOUS
 66
1
 70
0
  0
VERTEX
  8
2_FEATURE
 62
7
  6
CONTINUOUS
 10
95.4414579843
 20
113.501819822
  0
VERTEX
  8
2_FEATURE
 62
7
  6
CONTINUOUS
 10
95.4394357006
 20
113.567650953
  0
VERTEX
  8
2_FEATURE
 62
7
  6
CONTINUOUS
 10
95.4333456111
 20
113.633392649
  0
VERTEX
  8
2_FEATURE
 62
7
  6
CONTINUOUS
 10
95.423124815
 20
113.6990079889
  0
VERTEX
  8
2_FEATURE
 62
7
  6
CONTINUOUS
 10
95.4085487656
 20
113.7649348816
  0
VERTEX
  8
2_FEATURE
 62
7
  6
CONTINUOUS
 10
95.3893968374
 20
113.8310430325
  0
VERTEX
  8
2_FEATURE
 62
7
  6
CONTINUOUS
 10
95.3653011624
 20
113.8974620599
  0
VERTEX
  8
2_FEATURE
 62
7
  6
CONTINUOUS
 10
95.3358570118
 20
113.9640967611
  0
VERTEX
  8
2_FEATURE
 62
7
  6
CONTINUOUS
 10
95.3005347681
 20
114.0308749795
  0
VERTEX
  8
2_FEATURE
 62
7
  6
CONTINUOUS
 10
95.2588031101
 20
114.0974736478
  0
VERTEX
  8
2_FEATURE
 62
7
  6
CONTINUOUS
 10
95.2100157934
 20
114.1635393739
  0
VERTEX
  8
2_FEATURE
 62
7
  6
CONTINUOUS
 10
95.1535442729
 20
114.2284699502
  0
VERTEX
  8
2_FEATURE
 62
7
  6
CONTINUOUS
 10
95.0887585116
 20
114.2914800238
  0
VERTEX
  8
2_FEATURE
 62
7
  6
CONTINUOUS
 10
95.015057448
 20
114.3515796332
  0
VERTEX
  8
2_FEATURE
 62
7
  6
CONTINUOUS
 10
94.9319476184
 20
114.4075308825
  0
VERTEX
  8
2_FEATURE
 62
7
  6
CONTINUOUS
 10
94.8390981146
 20
114.4578553172
  0
SEQEND
  0
POLYLINE
  8
2_FEATURE
 62
7
  6
CONTINUOUS
 66
1
 70
0
  0
VERTEX
  8
2_FEATURE
 62
7
  6
CONTINUOUS
 10
95.4414579843
 20
130.301819822
  0
VERTEX
  8
2_FEATURE
 62
7
  6
CONTINUOUS
 10
95.4394357006
 20
130.367650953
  0
VERTEX
  8
2_FEATURE
 62
7
  6
CONTINUOUS
 10
95.4333456111
 20
130.433392649
  0
VERTEX
  8
2_FEATURE
 62
7
  6
CONTINUOUS
 10
95.423124815
 20
130.4990079889
  0
VERTEX
  8
2_FEATURE
 62
7
  6
CONTINUOUS
 10
95.4085487656
 20
130.5649348816
  0
VERTEX
  8
2_FEATURE
 62
7
  6
CONTINUOUS
 10
95.3893968374
 20
130.6310430325
  0
VERTEX
  8
2_FEATURE
 62
7
  6
CONTINUOUS
 10
95.3653011624
 20
130.6974620599
  0
VERTEX
  8
2_FEATURE
 62
7
  6
CONTINUOUS
 10
95.3358570118
 20
130.7640967611
  0
VERTEX
  8
2_FEATURE
 62
7
  6
CONTINUOUS
 10
95.3005347681
 20
130.8308749795
  0
VERTEX
  8
2_FEATURE
 62
7
  6
CONTINUOUS
 10
95.2588031101
 20
130.8974736478
  0
VERTEX
  8
2_FEATURE
 62
7
  6
CONTINUOUS
 10
95.2100157934
 20
130.9635393739
  0
VERTEX
  8
2_FEATURE
 62
7
  6
CONTINUOUS
 10
95.1535442729
 20
131.0284699502
  0
VERTEX
  8
2_FEATURE
 62
7
  6
CONTINUOUS
 10
95.0887585116
 20
131.0914800238
  0
VERTEX
  8
2_FEATURE
 62
7
  6
CONTINUOUS
 10
95.015057448
 20
131.1515796332
  0
VERTEX
  8
2_FEATURE
 62
7
  6
CONTINUOUS
 10
94.9319476184
 20
131.2075308825
  0
VERTEX
  8
2_FEATURE
 62
7
  6
CONTINUOUS
 10
94.8390981146
 20
131.2578553172
  0
SEQEND
  0
POLYLINE
  8
2_FEATURE
 62
7
  6
CONTINUOUS
 66
1
 70
0
  0
VERTEX
  8
2_FEATURE
 62
7
  6
CONTINUOUS
 10
95.4414579843
 20
147.101819822
  0
VERTEX
  8
2_FEATURE
 62
7
  6
CONTINUOUS
 10
95.4394357006
 20
147.167650953
  0
VERTEX
  8
2_FEATURE
 62
7
  6
CONTINUOUS
 10
95.4333456111
 20
147.233392649
  0
VERTEX
  8
2_FEATURE
 62
7
  6
CONTINUOUS
 10
95.423124815
 20
147.2990079889
  0
VERTEX
  8
2_FEATURE
 62
7
  6
CONTINUOUS
 10
95.4085487656
 20
147.3649348816
  0
VERTEX
  8
2_FEATURE
 62
7
  6
CONTINUOUS
 10
95.3893968374
 20
147.4310430325
  0
VERTEX
  8
2_FEATURE
 62
7
  6
CONTINUOUS
 10
95.3653011624
 20
147.4974620599
  0
VERTEX
  8
2_FEATURE
 62
7
  6
CONTINUOUS
 10
95.3358570118
 20
147.5640967611
  0
VERTEX
  8
2_FEATURE
 62
7
  6
CONTINUOUS
 10
95.3005347681
 20
147.6308749795
  0
VERTEX
  8
2_FEATURE
 62
7
  6
CONTINUOUS
 10
95.2588031101
 20
147.6974736478
  0
VERTEX
  8
2_FEATURE
 62
7
  6
CONTINUOUS
 10
95.2100157934
 20
147.7635393739
  0
VERTEX
  8
2_FEATURE
 62
7
  6
CONTINUOUS
 10
95.1535442729
 20
147.8284699502
  0
VERTEX
  8
2_FEATURE
 62
7
  6
CONTINUOUS
 10
95.0887585116
 20
147.8914800238
  0
VERTEX
  8
2_FEATURE
 62
7
  6
CONTINUOUS
 10
95.015057448
 20
147.9515796332
  0
VERTEX
  8
2_FEATURE
 62
7
  6
CONTINUOUS
 10
94.9319476184
 20
148.0075308825
  0
VERTEX
  8
2_FEATURE
 62
7
  6
CONTINUOUS
 10
94.8390981146
 20
148.0578553172
  0
SEQEND
  0
POLYLINE
  8
2_FEATURE
 62
7
  6
CONTINUOUS
 66
1
 70
0
  0
VERTEX
  8
2_FEATURE
 62
7
  6
CONTINUOUS
 10
95.4414579843
 20
103.4319021397
  0
VERTEX
  8
2_FEATURE
 62
7
  6
CONTINUOUS
 10
95.4400251329
 20
103.4873939615
  0
VERTEX
  8
2_FEATURE
 62
7
  6
CONTINUOUS
 10
95.435748923
 20
103.5422186696
  0
VERTEX
  8
2_FEATURE
 62
7
  6
CONTINUOUS
 10
95.4286271014
 20
103.5964993655
  0
VERTEX
  8
2_FEATURE
 62
7
  6
CONTINUOUS
 10
95.418612067
 20
103.6503373299
  0
SEQEND
  0
POLYLINE
  8
2_FEATURE
 62
7
  6
CONTINUOUS
 66
1
 70
0
  0
VERTEX
  8
2_FEATURE
 62
7
  6
CONTINUOUS
 10
95.4414579843
 20
120.2319021397
  0
VERTEX
  8
2_FEATURE
 62
7
  6
CONTINUOUS
 10
95.4400251329
 20
120.2873939615
  0
VERTEX
  8
2_FEATURE
 62
7
  6
CONTINUOUS
 10
95.435748923
 20
120.3422186696
  0
VERTEX
  8
2_FEATURE
 62
7
  6
CONTINUOUS
 10
95.4286271014
 20
120.3964993655
  0
VERTEX
  8
2_FEATURE
 62
7
  6
CONTINUOUS
 10
95.418612067
 20
120.4503373299
  0
SEQEND
  0
POLYLINE
  8
2_FEATURE
 62
7
  6
CONTINUOUS
 66
1
 70
0
  0
VERTEX
  8
2_FEATURE
 62
7
  6
CONTINUOUS
 10
95.4414579843
 20
137.0319021397
  0
VERTEX
  8
2_FEATURE
 62
7
  6
CONTINUOUS
 10
95.4400251329
 20
137.0873939615
  0
VERTEX
  8
2_FEATURE
 62
7
  6
CONTINUOUS
 10
95.435748923
 20
137.1422186696
  0
VERTEX
  8
2_FEATURE
 62
7
  6
CONTINUOUS
 10
95.4286271014
 20
137.1964993655
  0
VERTEX
  8
2_FEATURE
 62
7
  6
CONTINUOUS
 10
95.418612067
 20
137.2503373299
  0
SEQEND
  0
LINE
  8
2_FEATURE
 62
7
  6
CONTINUOUS
 10
95.4414579843
 20
96.0697159833
 11
95.4414579843
 21
96.701819822
  0
LINE
  8
2_FEATURE
 62
7
  6
CONTINUOUS
 10
95.4414579843
 20
102.799798301
 11
95.4414579843
 21
103.4319021397
  0
LINE
  8
2_FEATURE
 62
7
  6
CONTINUOUS
 10
95.4414579843
 20
112.8697159833
 11
95.4414579843
 21
113.501819822
  0
LINE
  8
2_FEATURE
 62
7
  6
CONTINUOUS
 10
95.4414579843
 20
119.599798301
 11
95.4414579843
 21
120.2319021397
  0
LINE
  8
2_FEATURE
 62
7
  6
CONTINUOUS
 10
95.4414579843
 20
129.6697159833
 11
95.4414579843
 21
130.301819822
  0
LINE
  8
2_FEATURE
 62
7
  6
CONTINUOUS
 10
95.4414579843
 20
136.399798301
 11
95.4414579843
 21
137.0319021397
  0
LINE
  8
2_FEATURE
 62
7
  6
CONTINUOUS
 10
95.4414579843
 20
146.4697159833
 11
95.4414579843
 21
147.101819822
  0
POLYLINE
  8
2_FEATURE
 62
7
  6
CONTINUOUS
 66
1
 70
0
  0
VERTEX
  8
2_FEATURE
 62
7
  6
CONTINUOUS
 10
95.418612067
 20
129.4512807931
  0
VERTEX
  8
2_FEATURE
 62
7
  6
CONTINUOUS
 10
95.4286271014
 20
129.5051187575
  0
VERTEX
  8
2_FEATURE
 62
7
  6
CONTINUOUS
 10
95.435748923
 20
129.5593994534
  0
VERTEX
  8
2_FEATURE
 62
7
  6
CONTINUOUS
 10
95.4400251329
 20
129.6142241614
  0
VERTEX
  8
2_FEATURE
 62
7
  6
CONTINUOUS
 10
95.4414579843
 20
129.6697159833
  0
SEQEND
  0
POLYLINE
  8
2_FEATURE
 62
7
  6
CONTINUOUS
 66
1
 70
0
  0
VERTEX
  8
2_FEATURE
 62
7
  6
CONTINUOUS
 10
94.9791830974
 20
112.0531089779
  0
VERTEX
  8
2_FEATURE
 62
7
  6
CONTINUOUS
 10
95.063080392
 20
112.106012224
  0
VERTEX
  8
2_FEATURE
 62
7
  6
CONTINUOUS
 10
95.1342375068
 20
112.1621606557
  0
VERTEX
  8
2_FEATURE
 62
7
  6
CONTINUOUS
 10
95.1943685521
 20
112.220034636
  0
VERTEX
  8
2_FEATURE
 62
7
  6
CONTINUOUS
 10
95.2449530978
 20
112.278533538
  0
VERTEX
  8
2_FEATURE
 62
7
  6
CONTINUOUS
 10
95.2872471856
 20
112.3368210175
  0
VERTEX
  8
2_FEATURE
 62
7
  6
CONTINUOUS
 10
95.3223191511
 20
112.3942235674
  0
VERTEX
  8
2_FEATURE
 62
7
  6
CONTINUOUS
 10
95.3510574518
 20
112.4500974638
  0
VERTEX
  8
2_FEATURE
 62
7
  6
CONTINUOUS
 10
95.3742862165
 20
112.5039241142
  0
VERTEX
  8
2_FEATURE
 62
7
  6
CONTINUOUS
 10
95.3927769648
 20
112.5553230075
  0
VERTEX
  8
2_FEATURE
 62
7
  6
CONTINUOUS
 10
95.4073491121
 20
112.6044442969
  0
VERTEX
  8
2_FEATURE
 62
7
  6
CONTINUOUS
 10
95.418612067
 20
112.6512807931
  0
SEQEND
  0
LINE
  8
0
 62
7
  6
CONTINUOUS
 10
48.8488242856
 20
137.4503078296
 11
48.8496156583
 21
137.4503488654
  0
POLYLINE
  8
2_FEATURE
 62
7
  6
CONTINUOUS
 66
1
 70
0
  0
VERTEX
  8
2_FEATURE
 62
7
  6
CONTINUOUS
 10
82.7443611692
 20
137.6808997533
  0
VERTEX
  8
2_FEATURE
 62
7
  6
CONTINUOUS
 10
82.6395576219
 20
137.6761207836
  0
VERTEX
  8
2_FEATURE
 62
7
  6
CONTINUOUS
 10
82.5361338467
 20
137.661877167
  0
VERTEX
  8
2_FEATURE
 62
7
  6
CONTINUOUS
 10
82.4350018657
 20
137.6383783361
  0
VERTEX
  8
2_FEATURE
 62
7
  6
CONTINUOUS
 10
82.336974291
 20
137.6058987449
  0
VERTEX
  8
2_FEATURE
 62
7
  6
CONTINUOUS
 10
82.2429479836
 20
137.5648331851
  0
VERTEX
  8
2_FEATURE
 62
7
  6
CONTINUOUS
 10
82.1535728056
 20
137.5155641785
  0
VERTEX
  8
2_FEATURE
 62
7
  6
CONTINUOUS
 10
82.0696707865
 20
137.4586513584
  0
VERTEX
  8
2_FEATURE
 62
7
  6
CONTINUOUS
 10
81.9917205775
 20
137.394519813
  0
VERTEX
  8
2_FEATURE
 62
7
  6
CONTINUOUS
 10
81.9204605815
 20
137.3238807266
  0
VERTEX
  8
2_FEATURE
 62
7
  6
CONTINUOUS
 10
81.8562287473
 20
137.2471625752
  0
VERTEX
  8
2_FEATURE
 62
7
  6
CONTINUOUS
 10
81.7996454984
 20
137.1651942545
  0
VERTEX
  8
2_FEATURE
 62
7
  6
CONTINUOUS
 10
81.7509585558
 20
137.078407967
  0
VERTEX
  8
2_FEATURE
 62
7
  6
CONTINUOUS
 10
81.7106408158
 20
136.9876977513
  0
VERTEX
  8
2_FEATURE
 62
7
  6
CONTINUOUS
 10
81.6788908765
 20
136.8935390648
  0
VERTEX
  8
2_FEATURE
 62
7
  6
CONTINUOUS
 10
81.6560228514
 20
136.7968348807
  0
VERTEX
  8
2_FEATURE
 62
7
  6
CONTINUOUS
 10
81.642191814
 20
136.6981569915
  0
VERTEX
  8
2_FEATURE
 62
7
  6
CONTINUOUS
 10
81.6375602882
 20
136.5983466658
  0
SEQEND
  0
POLYLINE
  8
2_FEATURE
 62
7
  6
CONTINUOUS
 66
1
 70
0
  0
VERTEX
  8
2_FEATURE
 62
7
  6
CONTINUOUS
 10
71.4368683491
 20
137.4207183697
  0
VERTEX
  8
2_FEATURE
 62
7
  6
CONTINUOUS
 10
71.5416718964
 20
137.4254973394
  0
VERTEX
  8
2_FEATURE
 62
7
  6
CONTINUOUS
 10
71.6450956716
 20
137.439740956
  0
VERTEX
  8
2_FEATURE
 62
7
  6
CONTINUOUS
 10
71.7462276526
 20
137.4632397868
  0
VERTEX
  8
2_FEATURE
 62
7
  6
CONTINUOUS
 10
71.8442552273
 20
137.4957193781
  0
VERTEX
  8
2_FEATURE
 62
7
  6
CONTINUOUS
 10
71.9382815347
 20
137.5367849378
  0
VERTEX
  8
2_FEATURE
 62
7
  6
CONTINUOUS
 10
72.0276567128
 20
137.5860539444
  0
VERTEX
  8
2_FEATURE
 62
7
  6
CONTINUOUS
 10
72.1115587318
 20
137.6429667646
  0
VERTEX
  8
2_FEATURE
 62
7
  6
CONTINUOUS
 10
72.1895089408
 20
137.7070983099
  0
VERTEX
  8
2_FEATURE
 62
7
  6
CONTINUOUS
 10
72.2607689368
 20
137.7777373964
  0
VERTEX
  8
2_FEATURE
 62
7
  6
CONTINUOUS
 10
72.325000771
 20
137.8544555478
  0
VERTEX
  8
2_FEATURE
 62
7
  6
CONTINUOUS
 10
72.3815840199
 20
137.9364238685
  0
VERTEX
  8
2_FEATURE
 62
7
  6
CONTINUOUS
 10
72.4302709625
 20
138.023210156
  0
VERTEX
  8
2_FEATURE
 62
7
  6
CONTINUOUS
 10
72.4705887025
 20
138.1139203717
  0
VERTEX
  8
2_FEATURE
 62
7
  6
CONTINUOUS
 10
72.5023386418
 20
138.2080790582
  0
VERTEX
  8
2_FEATURE
 62
7
  6
CONTINUOUS
 10
72.5252066669
 20
138.3047832423
  0
VERTEX
  8
2_FEATURE
 62
7
  6
CONTINUOUS
 10
72.5390377043
 20
138.4034611315
  0
VERTEX
  8
2_FEATURE
 62
7
  6
CONTINUOUS
 10
72.5436692301
 20
138.5032714572
  0
SEQEND
  0
LINE
  8
2_FEATURE
 62
7
  6
CONTINUOUS
 10
70.5783407142
 20
137.4156797419
 11
63.9649157662
 21
137.2103321333
  0
POLYLINE
  8
2_FEATURE
 62
7
  6
CONTINUOUS
 66
1
 70
0
  0
VERTEX
  8
2_FEATURE
 62
7
  6
CONTINUOUS
 10
63.9649157662
 20
137.2103321333
  0
VERTEX
  8
2_FEATURE
 62
7
  6
CONTINUOUS
 10
62.5951249303
 20
137.1681052045
  0
VERTEX
  8
2_FEATURE
 62
7
  6
CONTINUOUS
 10
61.2227547044
 20
137.1264068811
  0
VERTEX
  8
2_FEATURE
 62
7
  6
CONTINUOUS
 10
59.8619016176
 20
137.0856624356
  0
SEQEND
  0
POLYLINE
  8
2_FEATURE
 62
7
  6
CONTINUOUS
 66
1
 70
0
  0
VERTEX
  8
2_FEATURE
 62
7
  6
CONTINUOUS
 10
90.5708876249
 20
137.899129182
  0
VERTEX
  8
2_FEATURE
 62
7
  6
CONTINUOUS
 10
88.2853366595
 20
137.8306577978
  0
VERTEX
  8
2_FEATURE
 62
7
  6
CONTINUOUS
 10
83.6028888041
 20
137.6859383811
  0
SEQEND
  0
POLYLINE
  8
2_FEATURE
 62
7
  6
CONTINUOUS
 66
1
 70
0
  0
VERTEX
  8
2_FEATURE
 62
7
  6
CONTINUOUS
 10
94.3179242278
 20
138.0089201669
  0
VERTEX
  8
2_FEATURE
 62
7
  6
CONTINUOUS
 10
92.4723533126
 20
137.9553112232
  0
VERTEX
  8
2_FEATURE
 62
7
  6
CONTINUOUS
 10
90.5708876249
 20
137.899129182
  0
SEQEND
  0
POLYLINE
  8
2_FEATURE
 62
7
  6
CONTINUOUS
 66
1
 70
0
  0
VERTEX
  8
2_FEATURE
 62
7
  6
CONTINUOUS
 10
70.5783407142
 20
137.4156797419
  0
VERTEX
  8
2_FEATURE
 62
7
  6
CONTINUOUS
 10
70.659826662
 20
137.4178725202
  0
VERTEX
  8
2_FEATURE
 62
7
  6
CONTINUOUS
 10
70.7431346493
 20
137.4194498518
  0
VERTEX
  8
2_FEATURE
 62
7
  6
CONTINUOUS
 10
70.8276638382
 20
137.4204006852
  0
VERTEX
  8
2_FEATURE
 62
7
  6
CONTINUOUS
 10
70.9128055799
 20
137.4207183697
  0
SEQEND
  0
POLYLINE
  8
2_FEATURE
 62
7
  6
CONTINUOUS
 66
1
 70
0
  0
VERTEX
  8
2_FEATURE
 62
7
  6
CONTINUOUS
 10
59.8627003676
 20
139.7785559177
  0
VERTEX
  8
2_FEATURE
 62
7
  6
CONTINUOUS
 10
59.8240937636
 20
139.7781258537
  0
VERTEX
  8
2_FEATURE
 62
7
  6
CONTINUOUS
 10
59.785551385
 20
139.7763589215
  0
VERTEX
  8
2_FEATURE
 62
7
  6
CONTINUOUS
 10
59.7471270382
 20
139.7732597134
  0
SEQEND
  0
POLYLINE
  8
2_FEATURE
 62
7
  6
CONTINUOUS
 66
1
 70
0
  0
VERTEX
  8
2_FEATURE
 62
7
  6
CONTINUOUS
 10
83.2684239384
 20
137.6808997533
  0
VERTEX
  8
2_FEATURE
 62
7
  6
CONTINUOUS
 10
83.3535656838
 20
137.6812174378
  0
VERTEX
  8
2_FEATURE
 62
7
  6
CONTINUOUS
 10
83.438094873
 20
137.6821682713
  0
VERTEX
  8
2_FEATURE
 62
7
  6
CONTINUOUS
 10
83.521402857
 20
137.6837456028
  0
VERTEX
  8
2_FEATURE
 62
7
  6
CONTINUOUS
 10
83.6028888041
 20
137.6859383811
  0
SEQEND
  0
LINE
  8
2_FEATURE
 62
7
  6
CONTINUOUS
 10
71.4368683491
 20
137.4207183697
 11
70.9128055799
 21
137.4207183697
  0
LINE
  8
0
 62
7
  6
CONTINUOUS
 10
48.8496158855
 20
137.4503488654
 11
55.5163976034
 21
137.4503488654
  0
LINE
  8
0
 62
7
  6
CONTINUOUS
 10
105.3316136328
 20
137.6512692576
 11
98.6648321461
 21
137.6512692576
  0
LINE
  8
2_FEATURE
 62
7
  6
CONTINUOUS
 10
83.2684239384
 20
137.6808997533
 11
82.7443611692
 21
137.6808997533
  0
LINE
  8
2_FEATURE
 62
7
  6
CONTINUOUS
 10
70.7431129619
 20
139.7114216922
 11
71.4191668376
 21
139.7111685421
  0
LINE
  8
2_FEATURE
 62
7
  6
CONTINUOUS
 10
70.5783407142
 20
139.7121738103
 11
70.7431129619
 21
139.7114216922
  0
LINE
  8
2_FEATURE
 62
7
  6
CONTINUOUS
 10
70.5783407142
 20
139.7121738103
 11
59.8627003676
 21
139.7785559177
  0
POLYLINE
  8
2_FEATURE
 62
7
  6
CONTINUOUS
 66
1
 70
0
  0
VERTEX
  8
2_FEATURE
 62
7
  6
CONTINUOUS
 10
94.4816125737
 20
138.001956538
  0
VERTEX
  8
2_FEATURE
 62
7
  6
CONTINUOUS
 10
94.4268656547
 20
138.0068990817
  0
VERTEX
  8
2_FEATURE
 62
7
  6
CONTINUOUS
 10
94.3722812027
 20
138.0092029509
  0
VERTEX
  8
2_FEATURE
 62
7
  6
CONTINUOUS
 10
94.3179242278
 20
138.0089201669
  0
SEQEND
  0
POLYLINE
  8
2_FEATURE
 62
7
  6
CONTINUOUS
 66
1
 70
0
  0
VERTEX
  8
2_FEATURE
 62
7
  6
CONTINUOUS
 10
94.8390981146
 20
131.2578553172
  0
VERTEX
  8
2_FEATURE
 62
7
  6
CONTINUOUS
 10
94.8028080422
 20
131.2746573937
  0
VERTEX
  8
2_FEATURE
 62
7
  6
CONTINUOUS
 10
94.7607207171
 20
131.2925164037
  0
VERTEX
  8
2_FEATURE
 62
7
  6
CONTINUOUS
 10
94.713536744
 20
131.3104370958
  0
VERTEX
  8
2_FEATURE
 62
7
  6
CONTINUOUS
 10
94.6622598482
 20
131.3274304921
  0
VERTEX
  8
2_FEATURE
 62
7
  6
CONTINUOUS
 10
94.6078981675
 20
131.3426922159
  0
VERTEX
  8
2_FEATURE
 62
7
  6
CONTINUOUS
 10
94.5512806656
 20
131.3556536033
  0
VERTEX
  8
2_FEATURE
 62
7
  6
CONTINUOUS
 10
94.4930677804
 20
131.3659342939
  0
VERTEX
  8
2_FEATURE
 62
7
  6
CONTINUOUS
 10
94.4341024801
 20
131.3732597134
  0
SEQEND
  0
POLYLINE
  8
2_FEATURE
 62
7
  6
CONTINUOUS
 66
1
 70
0
  0
VERTEX
  8
2_FEATURE
 62
7
  6
CONTINUOUS
 10
95.418612067
 20
120.4503373299
  0
VERTEX
  8
2_FEATURE
 62
7
  6
CONTINUOUS
 10
95.407349691
 20
120.4971716603
  0
VERTEX
  8
2_FEATURE
 62
7
  6
CONTINUOUS
 10
95.3927784078
 20
120.5462906984
  0
VERTEX
  8
2_FEATURE
 62
7
  6
CONTINUOUS
 10
95.3742889228
 20
120.5976871354
  0
VERTEX
  8
2_FEATURE
 62
7
  6
CONTINUOUS
 10
95.3510619643
 20
120.6515110711
  0
VERTEX
  8
2_FEATURE
 62
7
  6
CONTINUOUS
 10
95.3223261383
 20
120.7073820748
  0
VERTEX
  8
2_FEATURE
 62
7
  6
CONTINUOUS
 10
95.2872571709
 20
120.7647820833
  0
VERTEX
  8
2_FEATURE
 62
7
  6
CONTINUOUS
 10
95.2449659647
 20
120.8230683041
  0
VERTEX
  8
2_FEATURE
 62
7
  6
CONTINUOUS
 10
95.1943830776
 20
120.8815681146
  0
VERTEX
  8
2_FEATURE
 62
7
  6
CONTINUOUS
 10
95.1342514785
 20
120.9394452379
  0
VERTEX
  8
2_FEATURE
 62
7
  6
CONTINUOUS
 10
95.0630901578
 20
120.9955989657
  0
VERTEX
  8
2_FEATURE
 62
7
  6
CONTINUOUS
 10
94.9791830974
 20
121.0485091451
  0
SEQEND
  0
LINE
  8
0
 62
7
  6
CONTINUOUS
 10
98.1648634547
 20
95.9503175566
 11
98.1648634547
 21
103.5513005664
  0
LINE
  8
0
 62
7
  6
CONTINUOUS
 10
98.1648634547
 20
112.7503175566
 11
98.1648634547
 21
120.3513005664
  0
LINE
  8
0
 62
7
  6
CONTINUOUS
 10
98.1648634547
 20
129.5503175566
 11
98.1648634547
 21
137.1513005664
  0
LINE
  8
0
 62
7
  6
CONTINUOUS
 10
98.1648634547
 20
146.3503175566
 11
98.1648634547
 21
154.0008090615
  0
POLYLINE
  8
2_FEATURE
 62
7
  6
CONTINUOUS
 66
1
 70
0
  0
VERTEX
  8
2_FEATURE
 62
7
  6
CONTINUOUS
 10
95.418612067
 20
112.6512807931
  0
VERTEX
  8
2_FEATURE
 62
7
  6
CONTINUOUS
 10
95.4286271014
 20
112.7051187575
  0
VERTEX
  8
2_FEATURE
 62
7
  6
CONTINUOUS
 10
95.435748923
 20
112.7593994534
  0
VERTEX
  8
2_FEATURE
 62
7
  6
CONTINUOUS
 10
95.4400251329
 20
112.8142241614
  0
VERTEX
  8
2_FEATURE
 62
7
  6
CONTINUOUS
 10
95.4414579843
 20
112.8697159833
  0
SEQEND
  0
POLYLINE
  8
2_FEATURE
 62
7
  6
CONTINUOUS
 66
1
 70
0
  0
VERTEX
  8
2_FEATURE
 62
7
  6
CONTINUOUS
 10
95.418612067
 20
95.8512807931
  0
VERTEX
  8
2_FEATURE
 62
7
  6
CONTINUOUS
 10
95.4286271014
 20
95.9051187575
  0
VERTEX
  8
2_FEATURE
 62
7
  6
CONTINUOUS
 10
95.435748923
 20
95.9593994534
  0
VERTEX
  8
2_FEATURE
 62
7
  6
CONTINUOUS
 10
95.4400251329
 20
96.0142241614
  0
VERTEX
  8
2_FEATURE
 62
7
  6
CONTINUOUS
 10
95.4414579843
 20
96.0697159833
  0
SEQEND
  0
POLYLINE
  8
0
 62
7
  6
CONTINUOUS
 66
1
 70
0
  0
VERTEX
  8
0
 62
7
  6
CONTINUOUS
 10
44.4875990545
 20
136.4133692029
  0
VERTEX
  8
0
 62
7
  6
CONTINUOUS
 10
44.3979279428
 20
136.4005586269
  0
VERTEX
  8
0
 62
7
  6
CONTINUOUS
 10
44.2733058648
 20
136.3814215588
  0
VERTEX
  8
0
 62
7
  6
CONTINUOUS
 10
44.1578661961
 20
136.3622341279
  0
VERTEX
  8
0
 62
7
  6
CONTINUOUS
 10
44.0513132525
 20
136.3430154327
  0
VERTEX
  8
0
 62
7
  6
CONTINUOUS
 10
43.9533133427
 20
136.323775114
  0
VERTEX
  8
0
 62
7
  6
CONTINUOUS
 10
43.8634933389
 20
136.3045101023
  0
VERTEX
  8
0
 62
7
  6
CONTINUOUS
 10
43.7814297666
 20
136.28519778
  0
VERTEX
  8
0
 62
7
  6
CONTINUOUS
 10
43.7066641552
 20
136.2657930072
  0
VERTEX
  8
0
 62
7
  6
CONTINUOUS
 10
43.6387027543
 20
136.2462201384
  0
VERTEX
  8
0
 62
7
  6
CONTINUOUS
 10
43.5769796963
 20
136.2263491837
  0
VERTEX
  8
0
 62
7
  6
CONTINUOUS
 10
43.5208485741
 20
136.2059678523
  0
VERTEX
  8
0
 62
7
  6
CONTINUOUS
 10
43.4695750448
 20
136.1847371636
  0
VERTEX
  8
0
 62
7
  6
CONTINUOUS
 10
43.4223383942
 20
136.1621214528
  0
VERTEX
  8
0
 62
7
  6
CONTINUOUS
 10
43.3783137597
 20
136.1373136156
  0
VERTEX
  8
0
 62
7
  6
CONTINUOUS
 10
43.3370793783
 20
136.1093493559
  0
VERTEX
  8
0
 62
7
  6
CONTINUOUS
 10
43.2986496421
 20
136.0771100089
  0
VERTEX
  8
0
 62
7
  6
CONTINUOUS
 10
43.2634537372
 20
136.0392581238
  0
VERTEX
  8
0
 62
7
  6
CONTINUOUS
 10
43.2326709096
 20
135.9944987316
  0
VERTEX
  8
0
 62
7
  6
CONTINUOUS
 10
43.2086306436
 20
135.9426179398
  0
VERTEX
  8
0
 62
7
  6
CONTINUOUS
 10
43.1941398455
 20
135.8855482296
  0
VERTEX
  8
0
 62
7
  6
CONTINUOUS
 10
43.1906147992
 20
135.839400095
  0
SEQEND
  0
POLYLINE
  8
2_FEATURE
 62
7
  6
CONTINUOUS
 66
1
 70
0
  0
VERTEX
  8
2_FEATURE
 62
7
  6
CONTINUOUS
 10
94.4816125737
 20
145.499661585
  0
VERTEX
  8
2_FEATURE
 62
7
  6
CONTINUOUS
 10
94.5419711179
 20
145.508005538
  0
VERTEX
  8
2_FEATURE
 62
7
  6
CONTINUOUS
 10
94.6022601658
 20
145.5192094366
  0
VERTEX
  8
2_FEATURE
 62
7
  6
CONTINUOUS
 10
94.66160615
 20
145.5330799055
  0
VERTEX
  8
2_FEATURE
 62
7
  6
CONTINUOUS
 10
94.7194331213
 20
145.5493485927
  0
VERTEX
  8
2_FEATURE
 62
7
  6
CONTINUOUS
 10
94.7748575893
 20
145.5675162626
  0
VERTEX
  8
2_FEATURE
 62
7
  6
CONTINUOUS
 10
94.826820536
 20
145.5868199739
  0
VERTEX
  8
2_FEATURE
 62
7
  6
CONTINUOUS
 10
94.8739941792
 20
145.6061526655
  0
VERTEX
  8
2_FEATURE
 62
7
  6
CONTINUOUS
 10
94.9154939043
 20
145.6243739064
  0
VERTEX
  8
2_FEATURE
 62
7
  6
CONTINUOUS
 10
94.9506571287
 20
145.640342414
  0
VERTEX
  8
2_FEATURE
 62
7
  6
CONTINUOUS
 10
94.9791830974
 20
145.6531089779
  0
SEQEND
  0
POLYLINE
  8
2_FEATURE
 62
7
  6
CONTINUOUS
 66
1
 70
0
  0
VERTEX
  8
2_FEATURE
 62
7
  6
CONTINUOUS
 10
59.7471270382
 20
139.7732597134
  0
VERTEX
  8
2_FEATURE
 62
7
  6
CONTINUOUS
 10
59.6881617379
 20
139.7659342939
  0
VERTEX
  8
2_FEATURE
 62
7
  6
CONTINUOUS
 10
59.6299488528
 20
139.7556536033
  0
VERTEX
  8
2_FEATURE
 62
7
  6
CONTINUOUS
 10
59.5733313508
 20
139.7426922159
  0
VERTEX
  8
2_FEATURE
 62
7
  6
CONTINUOUS
 10
59.5189696701
 20
139.7274304921
  0
VERTEX
  8
2_FEATURE
 62
7
  6
CONTINUOUS
 10
59.4676927744
 20
139.7104370958
  0
VERTEX
  8
2_FEATURE
 62
7
  6
CONTINUOUS
 10
59.4205088012
 20
139.6925164037
  0
VERTEX
  8
2_FEATURE
 62
7
  6
CONTINUOUS
 10
59.3784214761
 20
139.6746573937
  0
VERTEX
  8
2_FEATURE
 62
7
  6
CONTINUOUS
 10
59.3421314037
 20
139.6578553172
  0
SEQEND
  0
POLYLINE
  8
0
 62
7
  6
CONTINUOUS
 66
1
 70
0
  0
VERTEX
  8
0
 62
7
  6
CONTINUOUS
 10
48.8488226665
 20
137.4503078347
  0
VERTEX
  8
0
 62
7
  6
CONTINUOUS
 10
48.4800273654
 20
137.4091737376
  0
VERTEX
  8
0
 62
7
  6
CONTINUOUS
 10
48.0772464505
 20
137.3574488988
  0
VERTEX
  8
0
 62
7
  6
CONTINUOUS
 10
47.6832252403
 20
137.299491432
  0
VERTEX
  8
0
 62
7
  6
CONTINUOUS
 10
47.2989824217
 20
137.2353715187
  0
VERTEX
  8
0
 62
7
  6
CONTINUOUS
 10
46.9255307868
 20
137.1651646215
  0
VERTEX
  8
0
 62
7
  6
CONTINUOUS
 10
46.5638761441
 20
137.0889500538
  0
VERTEX
  8
0
 62
7
  6
CONTINUOUS
 10
46.2150131921
 20
137.006808291
  0
VERTEX
  8
0
 62
7
  6
CONTINUOUS
 10
45.8799121856
 20
136.9188145191
  0
VERTEX
  8
0
 62
7
  6
CONTINUOUS
 10
45.5595169341
 20
136.8250322272
  0
VERTEX
  8
0
 62
7
  6
CONTINUOUS
 10
45.2547586041
 20
136.7255096656
  0
VERTEX
  8
0
 62
7
  6
CONTINUOUS
 10
44.9665556731
 20
136.6202708974
  0
VERTEX
  8
0
 62
7
  6
CONTINUOUS
 10
44.6958164314
 20
136.5093038362
  0
VERTEX
  8
0
 62
7
  6
CONTINUOUS
 10
44.4595030739
 20
136.4004241853
  0
SEQEND
  0
POLYLINE
  8
2_FEATURE
 62
7
  6
CONTINUOUS
 66
1
 70
0
  0
VERTEX
  8
2_FEATURE
 62
7
  6
CONTINUOUS
 10
59.7471270382
 20
143.7283584096
  0
VERTEX
  8
2_FEATURE
 62
7
  6
CONTINUOUS
 10
59.785551385
 20
143.7252592015
  0
VERTEX
  8
2_FEATURE
 62
7
  6
CONTINUOUS
 10
59.8240937636
 20
143.7234922692
  0
VERTEX
  8
2_FEATURE
 62
7
  6
CONTINUOUS
 10
59.8627003676
 20
143.7230622053
  0
SEQEND
  0
LINE
  8
2_FEATURE
 62
7
  6
CONTINUOUS
 10
44.3979153409
 20
147.101061358
 11
44.4875990097
 21
147.0882489407
  0
POLYLINE
  8
0
 62
7
  6
CONTINUOUS
 66
1
 70
0
  0
VERTEX
  8
0
 62
7
  6
CONTINUOUS
 10
109.7217264444
 20
128.0004241853
  0
VERTEX
  8
0
 62
7
  6
CONTINUOUS
 10
109.4854130869
 20
128.1093038362
  0
VERTEX
  8
0
 62
7
  6
CONTINUOUS
 10
109.2146738452
 20
128.2202708974
  0
VERTEX
  8
0
 62
7
  6
CONTINUOUS
 10
108.9264709142
 20
128.3255096656
  0
VERTEX
  8
0
 62
7
  6
CONTINUOUS
 10
108.6217125842
 20
128.4250322272
  0
VERTEX
  8
0
 62
7
  6
CONTINUOUS
 10
108.3013173327
 20
128.5188145192
  0
VERTEX
  8
0
 62
7
  6
CONTINUOUS
 10
107.9662163262
 20
128.606808291
  0
VERTEX
  8
0
 62
7
  6
CONTINUOUS
 10
107.6173533742
 20
128.6889500538
  0
VERTEX
  8
0
 62
7
  6
CONTINUOUS
 10
107.2556987315
 20
128.7651646215
  0
VERTEX
  8
0
 62
7
  6
CONTINUOUS
 10
106.8822470966
 20
128.8353715187
  0
VERTEX
  8
0
 62
7
  6
CONTINUOUS
 10
106.498004278
 20
128.899491432
  0
VERTEX
  8
0
 62
7
  6
CONTINUOUS
 10
106.1039830678
 20
128.9574488988
  0
VERTEX
  8
0
 62
7
  6
CONTINUOUS
 10
105.7012021529
 20
129.0091737376
  0
VERTEX
  8
0
 62
7
  6
CONTINUOUS
 10
105.3324068518
 20
129.0503078347
  0
SEQEND
  0
POLYLINE
  8
2_FEATURE
 62
7
  6
CONTINUOUS
 66
1
 70
0
  0
VERTEX
  8
2_FEATURE
 62
7
  6
CONTINUOUS
 10
95.418612067
 20
137.2503373299
  0
VERTEX
  8
2_FEATURE
 62
7
  6
CONTINUOUS
 10
95.407349691
 20
137.2971716603
  0
VERTEX
  8
2_FEATURE
 62
7
  6
CONTINUOUS
 10
95.3927784078
 20
137.3462906984
  0
VERTEX
  8
2_FEATURE
 62
7
  6
CONTINUOUS
 10
95.3742889228
 20
137.3976871354
  0
VERTEX
  8
2_FEATURE
 62
7
  6
CONTINUOUS
 10
95.3510619643
 20
137.4515110711
  0
VERTEX
  8
2_FEATURE
 62
7
  6
CONTINUOUS
 10
95.3223261383
 20
137.5073820748
  0
VERTEX
  8
2_FEATURE
 62
7
  6
CONTINUOUS
 10
95.2872571709
 20
137.5647820833
  0
VERTEX
  8
2_FEATURE
 62
7
  6
CONTINUOUS
 10
95.2449659647
 20
137.6230683041
  0
VERTEX
  8
2_FEATURE
 62
7
  6
CONTINUOUS
 10
95.1943830776
 20
137.6815681146
  0
VERTEX
  8
2_FEATURE
 62
7
  6
CONTINUOUS
 10
95.1342514785
 20
137.7394452379
  0
VERTEX
  8
2_FEATURE
 62
7
  6
CONTINUOUS
 10
95.0630901578
 20
137.7955989657
  0
VERTEX
  8
2_FEATURE
 62
7
  6
CONTINUOUS
 10
94.9791830974
 20
137.8485091451
  0
SEQEND
  0
LINE
  8
DEFAULT_1
 62
2
  6
CENTER
 10
102.4906147592
 20
85.0608
 11
102.4906147592
 21
145.5508090615
  0
POLYLINE
  8
2_FEATURE
 62
7
  6
CONTINUOUS
 66
1
 70
0
  0
VERTEX
  8
2_FEATURE
 62
7
  6
CONTINUOUS
 10
94.8390981146
 20
101.8437628058
  0
VERTEX
  8
2_FEATURE
 62
7
  6
CONTINUOUS
 10
94.9319476184
 20
101.8940872405
  0
VERTEX
  8
2_FEATURE
 62
7
  6
CONTINUOUS
 10
95.015057448
 20
101.9500384898
  0
VERTEX
  8
2_FEATURE
 62
7
  6
CONTINUOUS
 10
95.0887585116
 20
102.0101380992
  0
VERTEX
  8
2_FEATURE
 62
7
  6
CONTINUOUS
 10
95.1535442729
 20
102.0731481727
  0
VERTEX
  8
2_FEATURE
 62
7
  6
CONTINUOUS
 10
95.2100157934
 20
102.1380787491
  0
VERTEX
  8
2_FEATURE
 62
7
  6
CONTINUOUS
 10
95.2588031101
 20
102.2041444752
  0
VERTEX
  8
2_FEATURE
 62
7
  6
CONTINUOUS
 10
95.3005347681
 20
102.2707431435
  0
VERTEX
  8
2_FEATURE
 62
7
  6
CONTINUOUS
 10
95.3358570118
 20
102.3375213619
  0
VERTEX
  8
2_FEATURE
 62
7
  6
CONTINUOUS
 10
95.3653011624
 20
102.4041560631
  0
VERTEX
  8
2_FEATURE
 62
7
  6
CONTINUOUS
 10
95.3893968374
 20
102.4705750905
  0
VERTEX
  8
2_FEATURE
 62
7
  6
CONTINUOUS
 10
95.4085487656
 20
102.5366832414
  0
VERTEX
  8
2_FEATURE
 62
7
  6
CONTINUOUS
 10
95.423124815
 20
102.6026101341
  0
VERTEX
  8
2_FEATURE
 62
7
  6
CONTINUOUS
 10
95.4333456111
 20
102.668225474
  0
VERTEX
  8
2_FEATURE
 62
7
  6
CONTINUOUS
 10
95.4394357006
 20
102.73396717
  0
VERTEX
  8
2_FEATURE
 62
7
  6
CONTINUOUS
 10
95.4414579843
 20
102.799798301
  0
SEQEND
  0
POLYLINE
  8
2_FEATURE
 62
7
  6
CONTINUOUS
 66
1
 70
0
  0
VERTEX
  8
2_FEATURE
 62
7
  6
CONTINUOUS
 10
71.4191668376
 20
143.7904495809
  0
VERTEX
  8
2_FEATURE
 62
7
  6
CONTINUOUS
 10
71.5248117883
 20
143.7952791654
  0
VERTEX
  8
2_FEATURE
 62
7
  6
CONTINUOUS
 10
71.6293903594
 20
143.809707033
  0
VERTEX
  8
2_FEATURE
 62
7
  6
CONTINUOUS
 10
71.7319188822
 20
143.8335591632
  0
VERTEX
  8
2_FEATURE
 62
7
  6
CONTINUOUS
 10
71.8315284803
 20
143.8665862966
  0
VERTEX
  8
2_FEATURE
 62
7
  6
CONTINUOUS
 10
71.9272486376
 20
143.9084016257
  0
VERTEX
  8
2_FEATURE
 62
7
  6
CONTINUOUS
 10
72.0183587013
 20
143.9586164874
  0
VERTEX
  8
2_FEATURE
 62
7
  6
CONTINUOUS
 10
72.1039652222
 20
144.0166483474
  0
VERTEX
  8
2_FEATURE
 62
7
  6
CONTINUOUS
 10
72.1835215359
 20
144.0820316572
  0
VERTEX
  8
2_FEATURE
 62
7
  6
CONTINUOUS
 10
72.2562405126
 20
144.1540102038
  0
VERTEX
  8
2_FEATURE
 62
7
  6
CONTINUOUS
 10
72.3217391882
 20
144.2320929426
  0
VERTEX
  8
2_FEATURE
 62
7
  6
CONTINUOUS
 10
72.3793742561
 20
144.3153912543
  0
VERTEX
  8
2_FEATURE
 62
7
  6
CONTINUOUS
 10
72.4288885515
 20
144.4034099675
  0
VERTEX
  8
2_FEATURE
 62
7
  6
CONTINUOUS
 10
72.4698105706
 20
144.4951859592
  0
VERTEX
  8
2_FEATURE
 62
7
  6
CONTINUOUS
 10
72.5019680132
 20
144.5902047257
  0
VERTEX
  8
2_FEATURE
 62
7
  6
CONTINUOUS
 10
72.5250722696
 20
144.6875028217
  0
VERTEX
  8
2_FEATURE
 62
7
  6
CONTINUOUS
 10
72.5390129917
 20
144.7864985531
  0
VERTEX
  8
2_FEATURE
 62
7
  6
CONTINUOUS
 10
72.5436692301
 20
144.886297953
  0
SEQEND
  0
LINE
  8
2_FEATURE
 62
7
  6
CONTINUOUS
 10
59.8627003676
 20
143.7230622053
 11
70.6598081707
 21
143.7898817145
  0
LINE
  8
2_FEATURE
 62
7
  6
CONTINUOUS
 10
70.6598081707
 20
143.7898817145
 11
70.8276500732
 21
143.7903861784
  0
LINE
  8
2_FEATURE
 62
7
  6
CONTINUOUS
 10
71.4191668376
 20
143.7904495809
 11
70.8276500732
 21
143.7903861784
  0
LINE
  8
2_FEATURE
 62
7
  6
CONTINUOUS
 10
83.2684239384
 20
145.8207183697
 11
82.7443611692
 21
145.8207183697
  0
LINE
  8
0
 62
7
  6
CONTINUOUS
 10
98.6648321461
 20
145.8503488654
 11
105.3316136328
 21
145.8503488654
  0
LINE
  8
2_FEATURE
 62
7
  6
CONTINUOUS
 10
55.5163976034
 20
146.0512692576
 11
48.8496158855
 21
146.0512692576
  0
LINE
  8
2_FEATURE
 62
7
  6
CONTINUOUS
 10
71.4368683491
 20
146.0808997533
 11
70.9128055799
 21
146.0808997533
  0
POLYLINE
  8
2_FEATURE
 62
7
  6
CONTINUOUS
 66
1
 70
0
  0
VERTEX
  8
2_FEATURE
 62
7
  6
CONTINUOUS
 10
83.2684239384
 20
145.8207183697
  0
VERTEX
  8
2_FEATURE
 62
7
  6
CONTINUOUS
 10
83.3535656838
 20
145.8204006851
  0
VERTEX
  8
2_FEATURE
 62
7
  6
CONTINUOUS
 10
83.438094873
 20
145.8194498517
  0
VERTEX
  8
2_FEATURE
 62
7
  6
CONTINUOUS
 10
83.521402857
 20
145.8178725202
  0
VERTEX
  8
2_FEATURE
 62
7
  6
CONTINUOUS
 10
83.6028888041
 20
145.8156797419
  0
SEQEND
  0
POLYLINE
  8
2_FEATURE
 62
7
  6
CONTINUOUS
 66
1
 70
0
  0
VERTEX
  8
2_FEATURE
 62
7
  6
CONTINUOUS
 10
94.3179242278
 20
145.492697956
  0
VERTEX
  8
2_FEATURE
 62
7
  6
CONTINUOUS
 10
94.3722812027
 20
145.4924151721
  0
VERTEX
  8
2_FEATURE
 62
7
  6
CONTINUOUS
 10
94.4268656547
 20
145.4947190413
  0
VERTEX
  8
2_FEATURE
 62
7
  6
CONTINUOUS
 10
94.4816125737
 20
145.499661585
  0
SEQEND
  0
POLYLINE
  8
2_FEATURE
 62
7
  6
CONTINUOUS
 66
1
 70
0
  0
VERTEX
  8
2_FEATURE
 62
7
  6
CONTINUOUS
 10
59.8619016176
 20
146.4159556874
  0
VERTEX
  8
2_FEATURE
 62
7
  6
CONTINUOUS
 10
59.8183591363
 20
146.4164138303
  0
VERTEX
  8
2_FEATURE
 62
7
  6
CONTINUOUS
 10
59.7747832152
 20
146.4151957405
  0
VERTEX
  8
2_FEATURE
 62
7
  6
CONTINUOUS
 10
59.7312270662
 20
146.4122909401
  0
SEQEND
  0
POLYLINE
  8
2_FEATURE
 62
7
  6
CONTINUOUS
 66
1
 70
0
  0
VERTEX
  8
2_FEATURE
 62
7
  6
CONTINUOUS
 10
70.5783407142
 20
146.0859383811
  0
VERTEX
  8
2_FEATURE
 62
7
  6
CONTINUOUS
 10
70.659826662
 20
146.0837456028
  0
VERTEX
  8
2_FEATURE
 62
7
  6
CONTINUOUS
 10
70.7431346493
 20
146.0821682712
  0
VERTEX
  8
2_FEATURE
 62
7
  6
CONTINUOUS
 10
70.8276638382
 20
146.0812174378
  0
VERTEX
  8
2_FEATURE
 62
7
  6
CONTINUOUS
 10
70.9128055799
 20
146.0808997533
  0
SEQEND
  0
POLYLINE
  8
2_FEATURE
 62
7
  6
CONTINUOUS
 66
1
 70
0
  0
VERTEX
  8
2_FEATURE
 62
7
  6
CONTINUOUS
 10
94.3179242278
 20
145.492697956
  0
VERTEX
  8
2_FEATURE
 62
7
  6
CONTINUOUS
 10
92.4723533126
 20
145.5463068997
  0
VERTEX
  8
2_FEATURE
 62
7
  6
CONTINUOUS
 10
90.5708876249
 20
145.602488941
  0
SEQEND
  0
LINE
  8
2_FEATURE
 62
7
  6
CONTINUOUS
 10
88.5485979359
 20
145.6632306252
 11
90.5708876249
 21
145.602488941
  0
LINE
  8
2_FEATURE
 62
7
  6
CONTINUOUS
 10
87.8282668541
 20
145.6844812653
 11
88.5485979359
 21
145.6632306252
  0
POLYLINE
  8
2_FEATURE
 62
7
  6
CONTINUOUS
 66
1
 70
0
  0
VERTEX
  8
2_FEATURE
 62
7
  6
CONTINUOUS
 10
63.9649157662
 20
146.2912859897
  0
VERTEX
  8
2_FEATURE
 62
7
  6
CONTINUOUS
 10
62.5951249303
 20
146.3335129185
  0
VERTEX
  8
2_FEATURE
 62
7
  6
CONTINUOUS
 10
61.2227547044
 20
146.3752112419
  0
VERTEX
  8
2_FEATURE
 62
7
  6
CONTINUOUS
 10
59.8619016176
 20
146.4159556874
  0
SEQEND
  0
LINE
  8
2_FEATURE
 62
7
  6
CONTINUOUS
 10
70.5783407142
 20
146.0859383811
 11
63.9649157662
 21
146.2912859897
  0
LINE
  8
2_FEATURE
 62
7
  6
CONTINUOUS
 10
87.8282668541
 20
145.6844812653
 11
83.6028888041
 21
145.8156797419
  0
LINE
  8
2_FEATURE
 62
7
  6
CONTINUOUS
 10
48.8488242856
 20
146.0513102933
 11
48.8496156583
 21
146.0512692576
  0
POLYLINE
  8
2_FEATURE
 62
7
  6
CONTINUOUS
 66
1
 70
0
  0
VERTEX
  8
2_FEATURE
 62
7
  6
CONTINUOUS
 10
94.9791830974
 20
137.8485091451
  0
VERTEX
  8
2_FEATURE
 62
7
  6
CONTINUOUS
 10
94.9506571287
 20
137.8612757089
  0
VERTEX
  8
2_FEATURE
 62
7
  6
CONTINUOUS
 10
94.9154939043
 20
137.8772442165
  0
VERTEX
  8
2_FEATURE
 62
7
  6
CONTINUOUS
 10
94.8739941792
 20
137.8954654575
  0
VERTEX
  8
2_FEATURE
 62
7
  6
CONTINUOUS
 10
94.826820536
 20
137.9147981491
  0
VERTEX
  8
2_FEATURE
 62
7
  6
CONTINUOUS
 10
94.7748575893
 20
137.9341018604
  0
VERTEX
  8
2_FEATURE
 62
7
  6
CONTINUOUS
 10
94.7194331213
 20
137.9522695303
  0
VERTEX
  8
2_FEATURE
 62
7
  6
CONTINUOUS
 10
94.66160615
 20
137.9685382175
  0
VERTEX
  8
2_FEATURE
 62
7
  6
CONTINUOUS
 10
94.6022601658
 20
137.9824086864
  0
VERTEX
  8
2_FEATURE
 62
7
  6
CONTINUOUS
 10
94.5419711179
 20
137.993612585
  0
VERTEX
  8
2_FEATURE
 62
7
  6
CONTINUOUS
 10
94.4816125737
 20
138.001956538
  0
SEQEND
  0
POLYLINE
  8
0
 62
7
  6
CONTINUOUS
 66
1
 70
0
  0
VERTEX
  8
0
 62
7
  6
CONTINUOUS
 10
105.3629940258
 20
104.297076054
  0
VERTEX
  8
0
 62
7
  6
CONTINUOUS
 10
105.3642093306
 20
104.2616603839
  0
VERTEX
  8
0
 62
7
  6
CONTINUOUS
 10
105.3645181731
 20
104.2270862772
  0
VERTEX
  8
0
 62
7
  6
CONTINUOUS
 10
105.3639177775
 20
104.1940450533
  0
VERTEX
  8
0
 62
7
  6
CONTINUOUS
 10
105.3624228739
 20
104.1631981212
  0
VERTEX
  8
0
 62
7
  6
CONTINUOUS
 10
105.3600658357
 20
104.135160999
  0
VERTEX
  8
0
 62
7
  6
CONTINUOUS
 10
105.3568962373
 20
104.1104881556
  0
VERTEX
  8
0
 62
7
  6
CONTINUOUS
 10
105.3529797927
 20
104.0896594542
  0
VERTEX
  8
0
 62
7
  6
CONTINUOUS
 10
105.3483967647
 20
104.0730695257
  0
VERTEX
  8
0
 62
7
  6
CONTINUOUS
 10
105.3432399618
 20
104.0610204111
  0
VERTEX
  8
0
 62
7
  6
CONTINUOUS
 10
105.3376124702
 20
104.0537176067
  0
VERTEX
  8
0
 62
7
  6
CONTINUOUS
 10
105.3324052327
 20
104.0513102933
  0
SEQEND
  0
POLYLINE
  8
0
 62
7
  6
CONTINUOUS
 66
1
 70
0
  0
VERTEX
  8
0
 62
7
  6
CONTINUOUS
 10
105.3629940258
 20
121.097076054
  0
VERTEX
  8
0
 62
7
  6
CONTINUOUS
 10
105.3642093306
 20
121.0616603839
  0
VERTEX
  8
0
 62
7
  6
CONTINUOUS
 10
105.3645181731
 20
121.0270862772
  0
VERTEX
  8
0
 62
7
  6
CONTINUOUS
 10
105.3639177775
 20
120.9940450533
  0
VERTEX
  8
0
 62
7
  6
CONTINUOUS
 10
105.3624228739
 20
120.9631981212
  0
VERTEX
  8
0
 62
7
  6
CONTINUOUS
 10
105.3600658357
 20
120.935160999
  0
VERTEX
  8
0
 62
7
  6
CONTINUOUS
 10
105.3568962373
 20
120.9104881556
  0
VERTEX
  8
0
 62
7
  6
CONTINUOUS
 10
105.3529797927
 20
120.8896594542
  0
VERTEX
  8
0
 62
7
  6
CONTINUOUS
 10
105.3483967647
 20
120.8730695257
  0
VERTEX
  8
0
 62
7
  6
CONTINUOUS
 10
105.3432399618
 20
120.8610204111
  0
VERTEX
  8
0
 62
7
  6
CONTINUOUS
 10
105.3376124702
 20
120.8537176067
  0
VERTEX
  8
0
 62
7
  6
CONTINUOUS
 10
105.3324052327
 20
120.8513102933
  0
SEQEND
  0
POLYLINE
  8
0
 62
7
  6
CONTINUOUS
 66
1
 70
0
  0
VERTEX
  8
0
 62
7
  6
CONTINUOUS
 10
105.3629940258
 20
137.897076054
  0
VERTEX
  8
0
 62
7
  6
CONTINUOUS
 10
105.3642093306
 20
137.8616603839
  0
VERTEX
  8
0
 62
7
  6
CONTINUOUS
 10
105.3645181731
 20
137.8270862772
  0
VERTEX
  8
0
 62
7
  6
CONTINUOUS
 10
105.3639177775
 20
137.7940450533
  0
VERTEX
  8
0
 62
7
  6
CONTINUOUS
 10
105.3624228739
 20
137.7631981212
  0
VERTEX
  8
0
 62
7
  6
CONTINUOUS
 10
105.3600658357
 20
137.735160999
  0
VERTEX
  8
0
 62
7
  6
CONTINUOUS
 10
105.3568962373
 20
137.7104881556
  0
VERTEX
  8
0
 62
7
  6
CONTINUOUS
 10
105.3529797927
 20
137.6896594542
  0
VERTEX
  8
0
 62
7
  6
CONTINUOUS
 10
105.3483967647
 20
137.6730695257
  0
VERTEX
  8
0
 62
7
  6
CONTINUOUS
 10
105.3432399618
 20
137.6610204111
  0
VERTEX
  8
0
 62
7
  6
CONTINUOUS
 10
105.3376124702
 20
137.6537176067
  0
VERTEX
  8
0
 62
7
  6
CONTINUOUS
 10
105.3324052327
 20
137.6513102933
  0
SEQEND
  0
LINE
  8
0
 62
7
  6
CONTINUOUS
 10
105.3629940266
 20
104.297076054
 11
105.3628960824
 21
104.3012692576
  0
LINE
  8
0
 62
7
  6
CONTINUOUS
 10
105.3629940266
 20
121.097076054
 11
105.3628960824
 21
121.1012692576
  0
LINE
  8
0
 62
7
  6
CONTINUOUS
 10
105.3629940266
 20
137.897076054
 11
105.3628960824
 21
137.9012692576
  0
LINE
  8
0
 62
7
  6
CONTINUOUS
 10
105.3628960824
 20
128.8003488654
 11
105.3628960824
 21
121.1012692576
  0
LINE
  8
2_FEATURE
 62
7
  6
CONTINUOUS
 10
105.3628960824
 20
95.2003488654
 11
105.3628960824
 21
87.5008090615
  0
LINE
  8
0
 62
7
  6
CONTINUOUS
 10
105.3628960824
 20
104.3012692576
 11
105.3628960824
 21
112.0003488654
  0
LINE
  8
0
 62
7
  6
CONTINUOUS
 10
105.3628960824
 20
137.9012692576
 11
105.3628960824
 21
145.6003488654
  0
LINE
  8
0
 62
7
  6
CONTINUOUS
 10
105.3629940266
 20
145.604542069
 11
105.3628960824
 21
145.6003488654
  0
LINE
  8
0
 62
7
  6
CONTINUOUS
 10
105.3629940266
 20
128.804542069
 11
105.3628960824
 21
128.8003488654
  0
LINE
  8
0
 62
7
  6
CONTINUOUS
 10
105.3629940266
 20
112.004542069
 11
105.3628960824
 21
112.0003488654
  0
LINE
  8
0
 62
7
  6
CONTINUOUS
 10
105.3629940266
 20
95.204542069
 11
105.3628960824
 21
95.2003488654
  0
POLYLINE
  8
0
 62
7
  6
CONTINUOUS
 66
1
 70
0
  0
VERTEX
  8
0
 62
7
  6
CONTINUOUS
 10
105.3629940258
 20
145.604542069
  0
VERTEX
  8
0
 62
7
  6
CONTINUOUS
 10
105.3642093306
 20
145.6399577391
  0
VERTEX
  8
0
 62
7
  6
CONTINUOUS
 10
105.3645181731
 20
145.6745318458
  0
VERTEX
  8
0
 62
7
  6
CONTINUOUS
 10
105.3639177775
 20
145.7075730697
  0
VERTEX
  8
0
 62
7
  6
CONTINUOUS
 10
105.3624228739
 20
145.7384200018
  0
VERTEX
  8
0
 62
7
  6
CONTINUOUS
 10
105.3600658357
 20
145.766457124
  0
VERTEX
  8
0
 62
7
  6
CONTINUOUS
 10
105.3568962373
 20
145.7911299674
  0
VERTEX
  8
0
 62
7
  6
CONTINUOUS
 10
105.3529797927
 20
145.8119586688
  0
VERTEX
  8
0
 62
7
  6
CONTINUOUS
 10
105.3483967647
 20
145.8285485973
  0
VERTEX
  8
0
 62
7
  6
CONTINUOUS
 10
105.3432399618
 20
145.8405977119
  0
VERTEX
  8
0
 62
7
  6
CONTINUOUS
 10
105.3376124702
 20
145.8479005163
  0
VERTEX
  8
0
 62
7
  6
CONTINUOUS
 10
105.3324052327
 20
145.8503078296
  0
SEQEND
  0
POLYLINE
  8
0
 62
7
  6
CONTINUOUS
 66
1
 70
0
  0
VERTEX
  8
0
 62
7
  6
CONTINUOUS
 10
105.3629940258
 20
128.804542069
  0
VERTEX
  8
0
 62
7
  6
CONTINUOUS
 10
105.3642093306
 20
128.8399577391
  0
VERTEX
  8
0
 62
7
  6
CONTINUOUS
 10
105.3645181731
 20
128.8745318458
  0
VERTEX
  8
0
 62
7
  6
CONTINUOUS
 10
105.3639177775
 20
128.9075730697
  0
VERTEX
  8
0
 62
7
  6
CONTINUOUS
 10
105.3624228739
 20
128.9384200018
  0
VERTEX
  8
0
 62
7
  6
CONTINUOUS
 10
105.3600658357
 20
128.966457124
  0
VERTEX
  8
0
 62
7
  6
CONTINUOUS
 10
105.3568962373
 20
128.9911299674
  0
VERTEX
  8
0
 62
7
  6
CONTINUOUS
 10
105.3529797927
 20
129.0119586688
  0
VERTEX
  8
0
 62
7
  6
CONTINUOUS
 10
105.3483967647
 20
129.0285485973
  0
VERTEX
  8
0
 62
7
  6
CONTINUOUS
 10
105.3432399618
 20
129.0405977119
  0
VERTEX
  8
0
 62
7
  6
CONTINUOUS
 10
105.3376124702
 20
129.0479005163
  0
VERTEX
  8
0
 62
7
  6
CONTINUOUS
 10
105.3324052327
 20
129.0503078296
  0
SEQEND
  0
POLYLINE
  8
0
 62
7
  6
CONTINUOUS
 66
1
 70
0
  0
VERTEX
  8
0
 62
7
  6
CONTINUOUS
 10
105.3629940258
 20
112.004542069
  0
VERTEX
  8
0
 62
7
  6
CONTINUOUS
 10
105.3642093306
 20
112.0399577391
  0
VERTEX
  8
0
 62
7
  6
CONTINUOUS
 10
105.3645181731
 20
112.0745318458
  0
VERTEX
  8
0
 62
7
  6
CONTINUOUS
 10
105.3639177775
 20
112.1075730697
  0
VERTEX
  8
0
 62
7
  6
CONTINUOUS
 10
105.3624228739
 20
112.1384200018
  0
VERTEX
  8
0
 62
7
  6
CONTINUOUS
 10
105.3600658357
 20
112.166457124
  0
VERTEX
  8
0
 62
7
  6
CONTINUOUS
 10
105.3568962373
 20
112.1911299674
  0
VERTEX
  8
0
 62
7
  6
CONTINUOUS
 10
105.3529797927
 20
112.2119586688
  0
VERTEX
  8
0
 62
7
  6
CONTINUOUS
 10
105.3483967647
 20
112.2285485973
  0
VERTEX
  8
0
 62
7
  6
CONTINUOUS
 10
105.3432399618
 20
112.2405977119
  0
VERTEX
  8
0
 62
7
  6
CONTINUOUS
 10
105.3376124702
 20
112.2479005163
  0
VERTEX
  8
0
 62
7
  6
CONTINUOUS
 10
105.3324052327
 20
112.2503078296
  0
SEQEND
  0
POLYLINE
  8
2_FEATURE
 62
7
  6
CONTINUOUS
 66
1
 70
0
  0
VERTEX
  8
2_FEATURE
 62
7
  6
CONTINUOUS
 10
59.7312270662
 20
146.4122909401
  0
VERTEX
  8
2_FEATURE
 62
7
  6
CONTINUOUS
 10
59.6712223303
 20
146.4057328738
  0
VERTEX
  8
2_FEATURE
 62
7
  6
CONTINUOUS
 10
59.6115306735
 20
146.3964529135
  0
VERTEX
  8
2_FEATURE
 62
7
  6
CONTINUOUS
 10
59.5533213163
 20
146.3847464215
  0
VERTEX
  8
2_FEATURE
 62
7
  6
CONTINUOUS
 10
59.4973061445
 20
146.3710034251
  0
VERTEX
  8
2_FEATURE
 62
7
  6
CONTINUOUS
 10
59.4444885722
 20
146.3558457214
  0
VERTEX
  8
2_FEATURE
 62
7
  6
CONTINUOUS
 10
59.3956939912
 20
146.3400250414
  0
VERTEX
  8
2_FEATURE
 62
7
  6
CONTINUOUS
 10
59.3520785277
 20
146.3245674042
  0
VERTEX
  8
2_FEATURE
 62
7
  6
CONTINUOUS
 10
59.2831691714
 20
146.2987208013
  0
SEQEND
  0
POLYLINE
  8
2_FEATURE
 62
7
  6
CONTINUOUS
 66
1
 70
0
  0
VERTEX
  8
2_FEATURE
 62
7
  6
CONTINUOUS
 10
82.7620626807
 20
148.1111685421
  0
VERTEX
  8
2_FEATURE
 62
7
  6
CONTINUOUS
 10
82.65641773
 20
148.1063389576
  0
VERTEX
  8
2_FEATURE
 62
7
  6
CONTINUOUS
 10
82.5518391589
 20
148.09191109
  0
VERTEX
  8
2_FEATURE
 62
7
  6
CONTINUOUS
 10
82.4493106361
 20
148.0680589598
  0
VERTEX
  8
2_FEATURE
 62
7
  6
CONTINUOUS
 10
82.349701038
 20
148.0350318264
  0
VERTEX
  8
2_FEATURE
 62
7
  6
CONTINUOUS
 10
82.2539808807
 20
147.9932164973
  0
VERTEX
  8
2_FEATURE
 62
7
  6
CONTINUOUS
 10
82.162870817
 20
147.9430016356
  0
VERTEX
  8
2_FEATURE
 62
7
  6
CONTINUOUS
 10
82.0772642961
 20
147.8849697755
  0
VERTEX
  8
2_FEATURE
 62
7
  6
CONTINUOUS
 10
81.9977079824
 20
147.8195864658
  0
VERTEX
  8
2_FEATURE
 62
7
  6
CONTINUOUS
 10
81.9249890057
 20
147.7476079192
  0
VERTEX
  8
2_FEATURE
 62
7
  6
CONTINUOUS
 10
81.8594903301
 20
147.6695251804
  0
VERTEX
  8
2_FEATURE
 62
7
  6
CONTINUOUS
 10
81.8018552622
 20
147.5862268687
  0
VERTEX
  8
2_FEATURE
 62
7
  6
CONTINUOUS
 10
81.7523409668
 20
147.4982081555
  0
VERTEX
  8
2_FEATURE
 62
7
  6
CONTINUOUS
 10
81.7114189477
 20
147.4064321638
  0
VERTEX
  8
2_FEATURE
 62
7
  6
CONTINUOUS
 10
81.6792615051
 20
147.3114133973
  0
VERTEX
  8
2_FEATURE
 62
7
  6
CONTINUOUS
 10
81.6561572487
 20
147.2141153012
  0
VERTEX
  8
2_FEATURE
 62
7
  6
CONTINUOUS
 10
81.6422165266
 20
147.1151195699
  0
VERTEX
  8
2_FEATURE
 62
7
  6
CONTINUOUS
 10
81.6375602882
 20
147.01532017
  0
SEQEND
  0
LINE
  8
2_FEATURE
 62
7
  6
CONTINUOUS
 10
83.4381165565
 20
148.1114216922
 11
94.3185291507
 21
148.1785559177
  0
LINE
  8
2_FEATURE
 62
7
  6
CONTINUOUS
 10
83.4381165565
 20
148.1114216922
 11
82.7620626807
 21
148.1111685421
  0
LINE
  8
0
 62
7
  6
CONTINUOUS
 10
105.3324052327
 20
145.8503078296
 11
105.3316138601
 21
145.8503488654
  0
POLYLINE
  8
2_FEATURE
 62
7
  6
CONTINUOUS
 66
1
 70
0
  0
VERTEX
  8
2_FEATURE
 62
7
  6
CONTINUOUS
 10
94.4341024801
 20
148.1732597134
  0
VERTEX
  8
2_FEATURE
 62
7
  6
CONTINUOUS
 10
94.3956781333
 20
148.1763589215
  0
VERTEX
  8
2_FEATURE
 62
7
  6
CONTINUOUS
 10
94.3571357547
 20
148.1781258537
  0
VERTEX
  8
2_FEATURE
 62
7
  6
CONTINUOUS
 10
94.3185291507
 20
148.1785559177
  0
SEQEND
  0
LINE
  8
0
 62
7
  6
CONTINUOUS
 10
109.7833141764
 20
144.8005567652
 11
109.6936305086
 21
144.8133691823
  0
POLYLINE
  8
0
 62
7
  6
CONTINUOUS
 66
1
 70
0
  0
VERTEX
  8
0
 62
7
  6
CONTINUOUS
 10
110.9906147234
 20
93.8394039699
  0
VERTEX
  8
0
 62
7
  6
CONTINUOUS
 10
110.9869378563
 20
93.8865250227
  0
VERTEX
  8
0
 62
7
  6
CONTINUOUS
 10
110.972288154
 20
93.943481647
  0
VERTEX
  8
0
 62
7
  6
CONTINUOUS
 10
110.9481380828
 20
93.9952270745
  0
VERTEX
  8
0
 62
7
  6
CONTINUOUS
 10
110.9172956599
 20
94.0398502936
  0
VERTEX
  8
0
 62
7
  6
CONTINUOUS
 10
110.8820791254
 20
94.0775811965
  0
VERTEX
  8
0
 62
7
  6
CONTINUOUS
 10
110.8436559581
 20
94.1097194913
  0
VERTEX
  8
0
 62
7
  6
CONTINUOUS
 10
110.8024437668
 20
94.1376037764
  0
VERTEX
  8
0
 62
7
  6
CONTINUOUS
 10
110.7584364649
 20
94.1623565971
  0
VERTEX
  8
0
 62
7
  6
CONTINUOUS
 10
110.7112141438
 20
94.1849326083
  0
VERTEX
  8
0
 62
7
  6
CONTINUOUS
 10
110.6599599427
 20
94.2061307233
  0
VERTEX
  8
0
 62
7
  6
CONTINUOUS
 10
110.6038553487
 20
94.2264838265
  0
VERTEX
  8
0
 62
7
  6
CONTINUOUS
 10
110.5421673876
 20
94.2463294279
  0
VERTEX
  8
0
 62
7
  6
CONTINUOUS
 10
110.4742497947
 20
94.2658792004
  0
VERTEX
  8
0
 62
7
  6
CONTINUOUS
 10
110.3995355115
 20
94.2852630366
  0
VERTEX
  8
0
 62
7
  6
CONTINUOUS
 10
110.3175282754
 20
94.3045567856
  0
VERTEX
  8
0
 62
7
  6
CONTINUOUS
 10
110.2277672402
 20
94.3238056639
  0
VERTEX
  8
0
 62
7
  6
CONTINUOUS
 10
110.1298246893
 20
94.3430326603
  0
VERTEX
  8
0
 62
7
  6
CONTINUOUS
 10
110.0233222084
 20
94.362241245
  0
VERTEX
  8
0
 62
7
  6
CONTINUOUS
 10
109.907919739
 20
94.3814221841
  0
VERTEX
  8
0
 62
7
  6
CONTINUOUS
 10
109.7833141772
 20
94.400556765
  0
SEQEND
  0
POLYLINE
  8
0
 62
7
  6
CONTINUOUS
 66
1
 70
0
  0
VERTEX
  8
0
 62
7
  6
CONTINUOUS
 10
105.3629940258
 20
95.204542069
  0
VERTEX
  8
0
 62
7
  6
CONTINUOUS
 10
105.3642093306
 20
95.2399577391
  0
VERTEX
  8
0
 62
7
  6
CONTINUOUS
 10
105.3645181731
 20
95.2745318458
  0
VERTEX
  8
0
 62
7
  6
CONTINUOUS
 10
105.3639177775
 20
95.3075730697
  0
VERTEX
  8
0
 62
7
  6
CONTINUOUS
 10
105.3624228739
 20
95.3384200018
  0
VERTEX
  8
0
 62
7
  6
CONTINUOUS
 10
105.3600658357
 20
95.366457124
  0
VERTEX
  8
0
 62
7
  6
CONTINUOUS
 10
105.3568962373
 20
95.3911299674
  0
VERTEX
  8
0
 62
7
  6
CONTINUOUS
 10
105.3529797927
 20
95.4119586688
  0
VERTEX
  8
0
 62
7
  6
CONTINUOUS
 10
105.3483967647
 20
95.4285485973
  0
VERTEX
  8
0
 62
7
  6
CONTINUOUS
 10
105.3432399618
 20
95.4405977119
  0
VERTEX
  8
0
 62
7
  6
CONTINUOUS
 10
105.3376124702
 20
95.4479005163
  0
VERTEX
  8
0
 62
7
  6
CONTINUOUS
 10
105.3324052327
 20
95.4503078296
  0
SEQEND
  0
POLYLINE
  8
2_FEATURE
 62
7
  6
CONTINUOUS
 66
1
 70
0
  0
VERTEX
  8
2_FEATURE
 62
7
  6
CONTINUOUS
 10
94.9791830974
 20
95.2531089779
  0
VERTEX
  8
2_FEATURE
 62
7
  6
CONTINUOUS
 10
95.063080392
 20
95.306012224
  0
VERTEX
  8
2_FEATURE
 62
7
  6
CONTINUOUS
 10
95.1342375068
 20
95.3621606557
  0
VERTEX
  8
2_FEATURE
 62
7
  6
CONTINUOUS
 10
95.1943685521
 20
95.420034636
  0
VERTEX
  8
2_FEATURE
 62
7
  6
CONTINUOUS
 10
95.2449530978
 20
95.478533538
  0
VERTEX
  8
2_FEATURE
 62
7
  6
CONTINUOUS
 10
95.2872471856
 20
95.5368210175
  0
VERTEX
  8
2_FEATURE
 62
7
  6
CONTINUOUS
 10
95.3223191511
 20
95.5942235674
  0
VERTEX
  8
2_FEATURE
 62
7
  6
CONTINUOUS
 10
95.3510574518
 20
95.6500974638
  0
VERTEX
  8
2_FEATURE
 62
7
  6
CONTINUOUS
 10
95.3742862165
 20
95.7039241142
  0
VERTEX
  8
2_FEATURE
 62
7
  6
CONTINUOUS
 10
95.3927769648
 20
95.7553230075
  0
VERTEX
  8
2_FEATURE
 62
7
  6
CONTINUOUS
 10
95.4073491121
 20
95.8044442969
  0
VERTEX
  8
2_FEATURE
 62
7
  6
CONTINUOUS
 10
95.418612067
 20
95.8512807931
  0
SEQEND
  0
POLYLINE
  8
0
 62
7
  6
CONTINUOUS
 66
1
 70
0
  0
VERTEX
  8
0
 62
7
  6
CONTINUOUS
 10
110.9906146039
 20
110.6397331989
  0
VERTEX
  8
0
 62
7
  6
CONTINUOUS
 10
110.9869378534
 20
110.6865250412
  0
VERTEX
  8
0
 62
7
  6
CONTINUOUS
 10
110.9722881481
 20
110.743481663
  0
VERTEX
  8
0
 62
7
  6
CONTINUOUS
 10
110.9481380752
 20
110.7952270876
  0
VERTEX
  8
0
 62
7
  6
CONTINUOUS
 10
110.9172956514
 20
110.8398503041
  0
VERTEX
  8
0
 62
7
  6
CONTINUOUS
 10
110.8820791167
 20
110.8775812047
  0
VERTEX
  8
0
 62
7
  6
CONTINUOUS
 10
110.8436559494
 20
110.9097194978
  0
VERTEX
  8
0
 62
7
  6
CONTINUOUS
 10
110.8024437583
 20
110.9376037817
  0
VERTEX
  8
0
 62
7
  6
CONTINUOUS
 10
110.7584364565
 20
110.9623566014
  0
VERTEX
  8
0
 62
7
  6
CONTINUOUS
 10
110.7112141355
 20
110.984932612
  0
VERTEX
  8
0
 62
7
  6
CONTINUOUS
 10
110.6599599345
 20
111.0061307265
  0
VERTEX
  8
0
 62
7
  6
CONTINUOUS
 10
110.6038553407
 20
111.0264838292
  0
VERTEX
  8
0
 62
7
  6
CONTINUOUS
 10
110.5421673798
 20
111.0463294303
  0
VERTEX
  8
0
 62
7
  6
CONTINUOUS
 10
110.4742497874
 20
111.0658792024
  0
VERTEX
  8
0
 62
7
  6
CONTINUOUS
 10
110.3995355046
 20
111.0852630383
  0
VERTEX
  8
0
 62
7
  6
CONTINUOUS
 10
110.3175282692
 20
111.104556787
  0
VERTEX
  8
0
 62
7
  6
CONTINUOUS
 10
110.2277672349
 20
111.123805665
  0
VERTEX
  8
0
 62
7
  6
CONTINUOUS
 10
110.1298246849
 20
111.1430326612
  0
VERTEX
  8
0
 62
7
  6
CONTINUOUS
 10
110.023322205
 20
111.1622412456
  0
VERTEX
  8
0
 62
7
  6
CONTINUOUS
 10
109.9079197368
 20
111.1814221844
  0
VERTEX
  8
0
 62
7
  6
CONTINUOUS
 10
109.7833141761
 20
111.2005567652
  0
SEQEND
  0
POLYLINE
  8
0
 62
7
  6
CONTINUOUS
 66
1
 70
0
  0
VERTEX
  8
0
 62
7
  6
CONTINUOUS
 10
110.9906147234
 20
127.43940397
  0
VERTEX
  8
0
 62
7
  6
CONTINUOUS
 10
110.9869378542
 20
127.4865250361
  0
VERTEX
  8
0
 62
7
  6
CONTINUOUS
 10
110.9722881497
 20
127.5434816586
  0
VERTEX
  8
0
 62
7
  6
CONTINUOUS
 10
110.9481380773
 20
127.595227084
  0
VERTEX
  8
0
 62
7
  6
CONTINUOUS
 10
110.9172956537
 20
127.6398503012
  0
VERTEX
  8
0
 62
7
  6
CONTINUOUS
 10
110.8820791191
 20
127.6775812024
  0
VERTEX
  8
0
 62
7
  6
CONTINUOUS
 10
110.8436559518
 20
127.709719496
  0
VERTEX
  8
0
 62
7
  6
CONTINUOUS
 10
110.8024437606
 20
127.7376037802
  0
VERTEX
  8
0
 62
7
  6
CONTINUOUS
 10
110.7584364588
 20
127.7623566003
  0
VERTEX
  8
0
 62
7
  6
CONTINUOUS
 10
110.7112141378
 20
127.7849326109
  0
VERTEX
  8
0
 62
7
  6
CONTINUOUS
 10
110.6599599367
 20
127.8061307256
  0
VERTEX
  8
0
 62
7
  6
CONTINUOUS
 10
110.6038553429
 20
127.8264838285
  0
VERTEX
  8
0
 62
7
  6
CONTINUOUS
 10
110.5421673819
 20
127.8463294297
  0
VERTEX
  8
0
 62
7
  6
CONTINUOUS
 10
110.4742497894
 20
127.8658792019
  0
VERTEX
  8
0
 62
7
  6
CONTINUOUS
 10
110.3995355065
 20
127.8852630378
  0
VERTEX
  8
0
 62
7
  6
CONTINUOUS
 10
110.3175282709
 20
127.9045567866
  0
VERTEX
  8
0
 62
7
  6
CONTINUOUS
 10
110.2277672363
 20
127.9238056647
  0
VERTEX
  8
0
 62
7
  6
CONTINUOUS
 10
110.1298246861
 20
127.9430326609
  0
VERTEX
  8
0
 62
7
  6
CONTINUOUS
 10
110.023322206
 20
127.9622412454
  0
VERTEX
  8
0
 62
7
  6
CONTINUOUS
 10
109.9079197374
 20
127.9814221843
  0
VERTEX
  8
0
 62
7
  6
CONTINUOUS
 10
109.7833141764
 20
128.0005567652
  0
SEQEND
  0
LINE
  8
0
 62
7
  6
CONTINUOUS
 10
110.9906147592
 20
87.5008102579
 11
110.9906147592
 21
93.8394538397
  0
LINE
  8
0
 62
7
  6
CONTINUOUS
 10
110.9906147592
 20
122.4621854058
 11
110.9906147592
 21
127.4394327172
  0
LINE
  8
AXES
 62
7
  6
CONTINUOUS
 10
110.9906147592
 20
139.2621854058
 11
110.9906147592
 21
144.2394327172
  0
LINE
  8
2_FEATURE
 62
7
  6
CONTINUOUS
 10
110.9906145466
 20
105.6618661595
 11
110.9906145769
 21
110.6397331989
  0
LINE
  8
0
 62
7
  6
CONTINUOUS
 10
43.4406140038
 20
154.2508090615
 11
97.9148634547
 21
154.2508090615
  0
POLYLINE
  8
0
 62
7
  6
CONTINUOUS
 66
1
 70
0
  0
VERTEX
  8
0
 62
7
  6
CONTINUOUS
 10
97.9148634547
 20
154.2508090615
  0
VERTEX
  8
0
 62
7
  6
CONTINUOUS
 10
97.9460478034
 20
154.2488565094
  0
VERTEX
  8
0
 62
7
  6
CONTINUOUS
 10
97.9752538403
 20
154.2434054368
  0
VERTEX
  8
0
 62
7
  6
CONTINUOUS
 10
98.0041090408
 20
154.2343368443
  0
VERTEX
  8
0
 62
7
  6
CONTINUOUS
 10
98.0308253001
 20
154.2222878425
  0
VERTEX
  8
0
 62
7
  6
CONTINUOUS
 10
98.0568887997
 20
154.2065487061
  0
VERTEX
  8
0
 62
7
  6
CONTINUOUS
 10
98.0804706756
 20
154.1880902628
  0
VERTEX
  8
0
 62
7
  6
CONTINUOUS
 10
98.1025978262
 20
154.1659023859
  0
VERTEX
  8
0
 62
7
  6
CONTINUOUS
 10
98.12154165
 20
154.1414651086
  0
VERTEX
  8
0
 62
7
  6
CONTINUOUS
 10
98.1378826112
 20
154.1137801014
  0
VERTEX
  8
0
 62
7
  6
CONTINUOUS
 10
98.150762666
 20
154.0835832248
  0
VERTEX
  8
0
 62
7
  6
CONTINUOUS
 10
98.1595797888
 20
154.0519355306
  0
VERTEX
  8
0
 62
7
  6
CONTINUOUS
 10
98.1643095517
 20
154.0174417008
  0
VERTEX
  8
0
 62
7
  6
CONTINUOUS
 10
98.1648634535
 20
154.0008090615
  0
SEQEND
  0
POLYLINE
  8
2_FEATURE
 62
7
  6
CONTINUOUS
 66
1
 70
0
  0
VERTEX
  8
2_FEATURE
 62
7
  6
CONTINUOUS
 10
94.8390981146
 20
148.0578553172
  0
VERTEX
  8
2_FEATURE
 62
7
  6
CONTINUOUS
 10
94.8028080422
 20
148.0746573937
  0
VERTEX
  8
2_FEATURE
 62
7
  6
CONTINUOUS
 10
94.7607207171
 20
148.0925164037
  0
VERTEX
  8
2_FEATURE
 62
7
  6
CONTINUOUS
 10
94.713536744
 20
148.1104370958
  0
VERTEX
  8
2_FEATURE
 62
7
  6
CONTINUOUS
 10
94.6622598482
 20
148.1274304921
  0
VERTEX
  8
2_FEATURE
 62
7
  6
CONTINUOUS
 10
94.6078981675
 20
148.1426922159
  0
VERTEX
  8
2_FEATURE
 62
7
  6
CONTINUOUS
 10
94.5512806656
 20
148.1556536033
  0
VERTEX
  8
2_FEATURE
 62
7
  6
CONTINUOUS
 10
94.4930677804
 20
148.1659342939
  0
VERTEX
  8
2_FEATURE
 62
7
  6
CONTINUOUS
 10
94.4341024801
 20
148.1732597134
  0
SEQEND
  0
POLYLINE
  8
0
 62
7
  6
CONTINUOUS
 66
1
 70
0
  0
VERTEX
  8
0
 62
7
  6
CONTINUOUS
 10
110.9906147234
 20
144.23940397
  0
VERTEX
  8
0
 62
7
  6
CONTINUOUS
 10
110.9869378542
 20
144.2865250361
  0
VERTEX
  8
0
 62
7
  6
CONTINUOUS
 10
110.9722881497
 20
144.3434816586
  0
VERTEX
  8
0
 62
7
  6
CONTINUOUS
 10
110.9481380773
 20
144.395227084
  0
VERTEX
  8
0
 62
7
  6
CONTINUOUS
 10
110.9172956537
 20
144.4398503012
  0
VERTEX
  8
0
 62
7
  6
CONTINUOUS
 10
110.8820791191
 20
144.4775812024
  0
VERTEX
  8
0
 62
7
  6
CONTINUOUS
 10
110.8436559518
 20
144.509719496
  0
VERTEX
  8
0
 62
7
  6
CONTINUOUS
 10
110.8024437606
 20
144.5376037802
  0
VERTEX
  8
0
 62
7
  6
CONTINUOUS
 10
110.7584364588
 20
144.5623566003
  0
VERTEX
  8
0
 62
7
  6
CONTINUOUS
 10
110.7112141378
 20
144.5849326109
  0
VERTEX
  8
0
 62
7
  6
CONTINUOUS
 10
110.6599599367
 20
144.6061307256
  0
VERTEX
  8
0
 62
7
  6
CONTINUOUS
 10
110.6038553429
 20
144.6264838285
  0
VERTEX
  8
0
 62
7
  6
CONTINUOUS
 10
110.5421673819
 20
144.6463294297
  0
VERTEX
  8
0
 62
7
  6
CONTINUOUS
 10
110.4742497894
 20
144.6658792019
  0
VERTEX
  8
0
 62
7
  6
CONTINUOUS
 10
110.3995355065
 20
144.6852630378
  0
VERTEX
  8
0
 62
7
  6
CONTINUOUS
 10
110.3175282709
 20
144.7045567866
  0
VERTEX
  8
0
 62
7
  6
CONTINUOUS
 10
110.2277672363
 20
144.7238056647
  0
VERTEX
  8
0
 62
7
  6
CONTINUOUS
 10
110.1298246861
 20
144.7430326609
  0
VERTEX
  8
0
 62
7
  6
CONTINUOUS
 10
110.023322206
 20
144.7622412454
  0
VERTEX
  8
0
 62
7
  6
CONTINUOUS
 10
109.9079197374
 20
144.7814221843
  0
VERTEX
  8
0
 62
7
  6
CONTINUOUS
 10
109.7833141764
 20
144.8005567652
  0
SEQEND
  0
POLYLINE
  8
0
 62
7
  6
CONTINUOUS
 66
1
 70
0
  0
VERTEX
  8
0
 62
7
  6
CONTINUOUS
 10
43.4406142808
 20
154.2508090848
  0
VERTEX
  8
0
 62
7
  6
CONTINUOUS
 10
43.4070868964
 20
154.2485507012
  0
VERTEX
  8
0
 62
7
  6
CONTINUOUS
 10
43.3740863344
 20
154.2417945881
  0
VERTEX
  8
0
 62
7
  6
CONTINUOUS
 10
43.342289319
 20
154.2306615681
  0
VERTEX
  8
0
 62
7
  6
CONTINUOUS
 10
43.3122762176
 20
154.2153534425
  0
VERTEX
  8
0
 62
7
  6
CONTINUOUS
 10
43.2845929574
 20
154.1961479215
  0
VERTEX
  8
0
 62
7
  6
CONTINUOUS
 10
43.2597429582
 20
154.1733937068
  0
VERTEX
  8
0
 62
7
  6
CONTINUOUS
 10
43.2381780478
 20
154.1475041105
  0
VERTEX
  8
0
 62
7
  6
CONTINUOUS
 10
43.2202902876
 20
154.11894955
  0
VERTEX
  8
0
 62
7
  6
CONTINUOUS
 10
43.2064048165
 20
154.0882489661
  0
VERTEX
  8
0
 62
7
  6
CONTINUOUS
 10
43.1967739286
 20
154.0559603927
  0
VERTEX
  8
0
 62
7
  6
CONTINUOUS
 10
43.1915724476
 20
154.0226707631
  0
VERTEX
  8
0
 62
7
  6
CONTINUOUS
 10
43.1906147592
 20
154.0008092008
  0
SEQEND
  0
POLYLINE
  8
0
 62
7
  6
CONTINUOUS
 66
1
 70
0
  0
VERTEX
  8
0
 62
7
  6
CONTINUOUS
 10
109.7217264444
 20
144.8004241853
  0
VERTEX
  8
0
 62
7
  6
CONTINUOUS
 10
109.4854130869
 20
144.9093038362
  0
VERTEX
  8
0
 62
7
  6
CONTINUOUS
 10
109.2146738452
 20
145.0202708974
  0
VERTEX
  8
0
 62
7
  6
CONTINUOUS
 10
108.9264709142
 20
145.1255096656
  0
VERTEX
  8
0
 62
7
  6
CONTINUOUS
 10
108.6217125842
 20
145.2250322272
  0
VERTEX
  8
0
 62
7
  6
CONTINUOUS
 10
108.3013173327
 20
145.3188145192
  0
VERTEX
  8
0
 62
7
  6
CONTINUOUS
 10
107.9662163262
 20
145.406808291
  0
VERTEX
  8
0
 62
7
  6
CONTINUOUS
 10
107.6173533742
 20
145.4889500538
  0
VERTEX
  8
0
 62
7
  6
CONTINUOUS
 10
107.2556987315
 20
145.5651646215
  0
VERTEX
  8
0
 62
7
  6
CONTINUOUS
 10
106.8822470966
 20
145.6353715187
  0
VERTEX
  8
0
 62
7
  6
CONTINUOUS
 10
106.498004278
 20
145.699491432
  0
VERTEX
  8
0
 62
7
  6
CONTINUOUS
 10
106.1039830678
 20
145.7574488988
  0
VERTEX
  8
0
 62
7
  6
CONTINUOUS
 10
105.7012021529
 20
145.8091737376
  0
VERTEX
  8
0
 62
7
  6
CONTINUOUS
 10
105.3324068518
 20
145.8503078347
  0
SEQEND
  0
POLYLINE
  8
2_FEATURE
 62
7
  6
CONTINUOUS
 66
1
 70
0
  0
VERTEX
  8
2_FEATURE
 62
7
  6
CONTINUOUS
 10
105.3190418733
 20
87.2508090615
  0
VERTEX
  8
2_FEATURE
 62
7
  6
CONTINUOUS
 10
105.3247494719
 20
87.2529069779
  0
VERTEX
  8
2_FEATURE
 62
7
  6
CONTINUOUS
 10
105.3303583411
 20
87.2591779548
  0
VERTEX
  8
2_FEATURE
 62
7
  6
CONTINUOUS
 10
105.3357752703
 20
87.2695371326
  0
VERTEX
  8
2_FEATURE
 62
7
  6
CONTINUOUS
 10
105.3409095762
 20
87.283831681
  0
VERTEX
  8
2_FEATURE
 62
7
  6
CONTINUOUS
 10
105.3456746096
 20
87.3018414815
  0
VERTEX
  8
2_FEATURE
 62
7
  6
CONTINUOUS
 10
105.349989127
 20
87.3232806821
  0
VERTEX
  8
2_FEATURE
 62
7
  6
CONTINUOUS
 10
105.3537787677
 20
87.3478009465
  0
VERTEX
  8
2_FEATURE
 62
7
  6
CONTINUOUS
 10
105.3569774557
 20
87.3749964048
  0
VERTEX
  8
2_FEATURE
 62
7
  6
CONTINUOUS
 10
105.3595286622
 20
87.4044102213
  0
VERTEX
  8
2_FEATURE
 62
7
  6
CONTINUOUS
 10
105.361386476
 20
87.4355426502
  0
VERTEX
  8
2_FEATURE
 62
7
  6
CONTINUOUS
 10
105.3625164496
 20
87.4678609291
  0
VERTEX
  8
2_FEATURE
 62
7
  6
CONTINUOUS
 10
105.3628960824
 20
87.5008090615
  0
SEQEND
  0
LINE
  8
2_FEATURE
 62
7
  6
CONTINUOUS
 10
163.0628371036
 20
87.2508090615
 11
147.6128371036
 21
87.2508090615
  0
POLYLINE
  8
2_FEATURE
 62
7
  6
CONTINUOUS
 66
1
 70
0
  0
VERTEX
  8
2_FEATURE
 62
7
  6
CONTINUOUS
 10
159.2144747545
 20
93.3283584096
  0
VERTEX
  8
2_FEATURE
 62
7
  6
CONTINUOUS
 10
159.2008377831
 20
93.3252592015
  0
VERTEX
  8
2_FEATURE
 62
7
  6
CONTINUOUS
 10
159.1871589216
 20
93.3234922692
  0
VERTEX
  8
2_FEATURE
 62
7
  6
CONTINUOUS
 10
159.1734572662
 20
93.3230622053
  0
SEQEND
  0
LINE
  8
2_FEATURE
 62
7
  6
CONTINUOUS
 10
155.3128371036
 20
93.3904495809
 11
159.1734572662
 21
93.3230622053
  0
LINE
  8
2_FEATURE
 62
7
  6
CONTINUOUS
 10
155.3128371036
 20
95.6808997533
 11
159.1425439551
 21
96.0159556874
  0
POLYLINE
  8
2_FEATURE
 62
7
  6
CONTINUOUS
 66
1
 70
0
  0
VERTEX
  8
2_FEATURE
 62
7
  6
CONTINUOUS
 10
159.1425439551
 20
96.0159556874
  0
VERTEX
  8
2_FEATURE
 62
7
  6
CONTINUOUS
 10
159.1575513316
 20
96.0164138303
  0
VERTEX
  8
2_FEATURE
 62
7
  6
CONTINUOUS
 10
159.1730118425
 20
96.0151957405
  0
SEQEND
  0
LINE
  8
0
 62
7
  6
CONTINUOUS
 10
147.5308210468
 20
97.9508090615
 11
149.3377641224
 21
97.9508090615
  0
LINE
  8
0
 62
7
  6
CONTINUOUS
 10
149.3377641224
 20
97.9508090588
 11
149.3681768131
 21
97.9488058249
  0
LINE
  8
0
 62
7
  6
CONTINUOUS
 10
148.4960723914
 20
97.5562317356
 11
159.4228083254
 21
96.6828454565
  0
POLYLINE
  8
0
 62
7
  6
CONTINUOUS
 66
1
 70
0
  0
VERTEX
  8
0
 62
7
  6
CONTINUOUS
 10
156.2494599462
 20
96.9364947592
  0
VERTEX
  8
0
 62
7
  6
CONTINUOUS
 10
156.3137431651
 20
96.9284433467
  0
VERTEX
  8
0
 62
7
  6
CONTINUOUS
 10
156.3833619932
 20
96.9128986992
  0
VERTEX
  8
0
 62
7
  6
CONTINUOUS
 10
156.4460592954
 20
96.8922784587
  0
VERTEX
  8
0
 62
7
  6
CONTINUOUS
 10
156.5009541442
 20
96.8683642482
  0
VERTEX
  8
0
 62
7
  6
CONTINUOUS
 10
156.5475307153
 20
96.8430015594
  0
VERTEX
  8
0
 62
7
  6
CONTINUOUS
 10
156.5856342948
 20
96.8179969112
  0
VERTEX
  8
0
 62
7
  6
CONTINUOUS
 10
156.610287845
 20
96.7992487989
  0
SEQEND
  0
POLYLINE
  8
0
 62
7
  6
CONTINUOUS
 66
1
 70
0
  0
VERTEX
  8
0
 62
7
  6
CONTINUOUS
 10
149.3681768131
 20
97.9488058249
  0
VERTEX
  8
0
 62
7
  6
CONTINUOUS
 10
149.380093528
 20
97.9469870427
  0
VERTEX
  8
0
 62
7
  6
CONTINUOUS
 10
149.4215654533
 20
97.936567406
  0
VERTEX
  8
0
 62
7
  6
CONTINUOUS
 10
149.4618211346
 20
97.9210521827
  0
VERTEX
  8
0
 62
7
  6
CONTINUOUS
 10
149.5007972938
 20
97.9017859139
  0
VERTEX
  8
0
 62
7
  6
CONTINUOUS
 10
149.5385985539
 20
97.8799222448
  0
VERTEX
  8
0
 62
7
  6
CONTINUOUS
 10
149.5754036431
 20
97.8564343249
  0
VERTEX
  8
0
 62
7
  6
CONTINUOUS
 10
149.6114099338
 20
97.8321456171
  0
VERTEX
  8
0
 62
7
  6
CONTINUOUS
 10
149.6467987022
 20
97.8077605427
  0
SEQEND
  0
LINE
  8
2_FEATURE
 62
7
  6
CONTINUOUS
 10
159.1730118425
 20
96.0151957405
 11
159.1889098541
 21
96.0122909401
  0
POLYLINE
  8
0
 62
7
  6
CONTINUOUS
 66
1
 70
0
  0
VERTEX
  8
0
 62
7
  6
CONTINUOUS
 10
149.3681755598
 20
97.9488059868
  0
VERTEX
  8
0
 62
7
  6
CONTINUOUS
 10
149.3975029437
 20
97.9431680116
  0
VERTEX
  8
0
 62
7
  6
CONTINUOUS
 10
149.4264886112
 20
97.9337445191
  0
VERTEX
  8
0
 62
7
  6
CONTINUOUS
 10
149.4540264734
 20
97.9207755274
  0
VERTEX
  8
0
 62
7
  6
CONTINUOUS
 10
149.4796825474
 20
97.9044748089
  0
VERTEX
  8
0
 62
7
  6
CONTINUOUS
 10
149.5030515768
 20
97.8851109469
  0
VERTEX
  8
0
 62
7
  6
CONTINUOUS
 10
149.5237645353
 20
97.8630040767
  0
VERTEX
  8
0
 62
7
  6
CONTINUOUS
 10
149.5414959132
 20
97.8385213255
  0
VERTEX
  8
0
 62
7
  6
CONTINUOUS
 10
149.5559708187
 20
97.8120701024
  0
SEQEND
  0
POLYLINE
  8
2_FEATURE
 62
7
  6
CONTINUOUS
 66
1
 70
0
  0
VERTEX
  8
2_FEATURE
 62
7
  6
CONTINUOUS
 10
159.1889098541
 20
96.0122909401
  0
VERTEX
  8
2_FEATURE
 62
7
  6
CONTINUOUS
 10
159.2142387694
 20
96.0057328738
  0
VERTEX
  8
2_FEATURE
 62
7
  6
CONTINUOUS
 10
159.2460860756
 20
95.9964529135
  0
SEQEND
  0
POLYLINE
  8
2_FEATURE
 62
7
  6
CONTINUOUS
 66
1
 70
0
  0
VERTEX
  8
2_FEATURE
 62
7
  6
CONTINUOUS
 10
159.631632261
 20
95.8987208013
  0
VERTEX
  8
2_FEATURE
 62
7
  6
CONTINUOUS
 10
159.7611323825
 20
95.8621047026
  0
VERTEX
  8
2_FEATURE
 62
7
  6
CONTINUOUS
 10
159.8742742855
 20
95.822065721
  0
VERTEX
  8
2_FEATURE
 62
7
  6
CONTINUOUS
 10
159.9728717943
 20
95.7796997269
  0
VERTEX
  8
2_FEATURE
 62
7
  6
CONTINUOUS
 10
160.0585564488
 20
95.7357692412
  0
VERTEX
  8
2_FEATURE
 62
7
  6
CONTINUOUS
 10
160.1324925507
 20
95.6909356793
  0
VERTEX
  8
2_FEATURE
 62
7
  6
CONTINUOUS
 10
160.1957090129
 20
95.6457035048
  0
VERTEX
  8
2_FEATURE
 62
7
  6
CONTINUOUS
 10
160.2491852166
 20
95.6003922465
  0
VERTEX
  8
2_FEATURE
 62
7
  6
CONTINUOUS
 10
160.293643156
 20
95.5553467268
  0
SEQEND
  0
POLYLINE
  8
0
 62
7
  6
CONTINUOUS
 66
1
 70
0
  0
VERTEX
  8
0
 62
7
  6
CONTINUOUS
 10
147.7698904913
 20
97.9173373471
  0
VERTEX
  8
0
 62
7
  6
CONTINUOUS
 10
147.7463033817
 20
97.9316756778
  0
VERTEX
  8
0
 62
7
  6
CONTINUOUS
 10
147.7265625066
 20
97.9419371365
  0
VERTEX
  8
0
 62
7
  6
CONTINUOUS
 10
147.7094962105
 20
97.9485079981
  0
VERTEX
  8
0
 62
7
  6
CONTINUOUS
 10
147.6956035676
 20
97.9508090556
  0
SEQEND
  0
POLYLINE
  8
0
 62
7
  6
CONTINUOUS
 66
1
 70
0
  0
VERTEX
  8
0
 62
7
  6
CONTINUOUS
 10
147.769891078
 20
97.9173369715
  0
VERTEX
  8
0
 62
7
  6
CONTINUOUS
 10
147.7790429215
 20
97.9111355537
  0
VERTEX
  8
0
 62
7
  6
CONTINUOUS
 10
147.7993873856
 20
97.8945487966
  0
VERTEX
  8
0
 62
7
  6
CONTINUOUS
 10
147.8629039033
 20
97.8313665964
  0
SEQEND
  0
POLYLINE
  8
2_FEATURE
 62
7
  6
CONTINUOUS
 66
1
 70
0
  0
VERTEX
  8
2_FEATURE
 62
7
  6
CONTINUOUS
 10
159.5574564079
 20
143.8437628058
  0
VERTEX
  8
2_FEATURE
 62
7
  6
CONTINUOUS
 10
159.4986077846
 20
143.8269607293
  0
VERTEX
  8
2_FEATURE
 62
7
  6
CONTINUOUS
 10
159.4427080462
 20
143.8091017193
  0
VERTEX
  8
2_FEATURE
 62
7
  6
CONTINUOUS
 10
159.3909036653
 20
143.7911810272
  0
VERTEX
  8
2_FEATURE
 62
7
  6
CONTINUOUS
 10
159.3441732735
 20
143.7741876309
  0
SEQEND
  0
LINE
  8
0
 62
7
  6
CONTINUOUS
 10
162.9941375056
 20
95.6608937903
 11
159.4166807418
 21
96.6833352412
  0
POLYLINE
  8
2_FEATURE
 62
7
  6
CONTINUOUS
 66
1
 70
0
  0
VERTEX
  8
2_FEATURE
 62
7
  6
CONTINUOUS
 10
159.2460860756
 20
95.9964529135
  0
VERTEX
  8
2_FEATURE
 62
7
  6
CONTINUOUS
 10
159.3292557397
 20
95.9710034251
  0
VERTEX
  8
2_FEATURE
 62
7
  6
CONTINUOUS
 10
159.3803322397
 20
95.9558457214
  0
VERTEX
  8
2_FEATURE
 62
7
  6
CONTINUOUS
 10
159.437276998
 20
95.9400250414
  0
VERTEX
  8
2_FEATURE
 62
7
  6
CONTINUOUS
 10
159.4989884786
 20
95.9245674042
  0
VERTEX
  8
2_FEATURE
 62
7
  6
CONTINUOUS
 10
159.5642946802
 20
95.910482295
  0
VERTEX
  8
2_FEATURE
 62
7
  6
CONTINUOUS
 10
159.631632261
 20
95.8987208013
  0
SEQEND
  0
POLYLINE
  8
0
 62
7
  6
CONTINUOUS
 66
1
 70
0
  0
VERTEX
  8
0
 62
7
  6
CONTINUOUS
 10
147.8629039033
 20
97.8313665964
  0
VERTEX
  8
0
 62
7
  6
CONTINUOUS
 10
147.9299068415
 20
97.774523795
  0
VERTEX
  8
0
 62
7
  6
CONTINUOUS
 10
148.0019684587
 20
97.7232853157
  0
VERTEX
  8
0
 62
7
  6
CONTINUOUS
 10
148.0785759059
 20
97.6781062983
  0
VERTEX
  8
0
 62
7
  6
CONTINUOUS
 10
148.1591745344
 20
97.6393893025
  0
VERTEX
  8
0
 62
7
  6
CONTINUOUS
 10
148.2431732419
 20
97.6074825926
  0
VERTEX
  8
0
 62
7
  6
CONTINUOUS
 10
148.3299527871
 20
97.5826776708
  0
VERTEX
  8
0
 62
7
  6
CONTINUOUS
 10
148.4188770203
 20
97.5652089391
  0
VERTEX
  8
0
 62
7
  6
CONTINUOUS
 10
148.4960723988
 20
97.556231828
  0
SEQEND
  0
POLYLINE
  8
2_FEATURE
 62
7
  6
CONTINUOUS
 66
1
 70
0
  0
VERTEX
  8
2_FEATURE
 62
7
  6
CONTINUOUS
 10
159.3441732735
 20
143.7741876309
  0
VERTEX
  8
2_FEATURE
 62
7
  6
CONTINUOUS
 10
159.2677855112
 20
143.7459645197
  0
VERTEX
  8
2_FEATURE
 62
7
  6
CONTINUOUS
 10
159.2382616545
 20
143.7356838291
  0
VERTEX
  8
2_FEATURE
 62
7
  6
CONTINUOUS
 10
159.2144747545
 20
143.7283584096
  0
SEQEND
  0
LINE
  8
0
 62
7
  6
CONTINUOUS
 10
148.2331601024
 20
101.9243715127
 11
159.4228083254
 21
102.8187726665
  0
LINE
  8
2_FEATURE
 62
7
  6
CONTINUOUS
 10
159.1889098541
 20
103.4893271829
 11
159.1730118425
 21
103.4864223825
  0
POLYLINE
  8
2_FEATURE
 62
7
  6
CONTINUOUS
 66
1
 70
0
  0
VERTEX
  8
2_FEATURE
 62
7
  6
CONTINUOUS
 10
159.631632261
 20
103.6028973217
  0
VERTEX
  8
2_FEATURE
 62
7
  6
CONTINUOUS
 10
159.5642946802
 20
103.591135828
  0
VERTEX
  8
2_FEATURE
 62
7
  6
CONTINUOUS
 10
159.4989884786
 20
103.5770507188
  0
VERTEX
  8
2_FEATURE
 62
7
  6
CONTINUOUS
 10
159.437276998
 20
103.5615930816
  0
VERTEX
  8
2_FEATURE
 62
7
  6
CONTINUOUS
 10
159.3803322398
 20
103.5457724015
  0
VERTEX
  8
2_FEATURE
 62
7
  6
CONTINUOUS
 10
159.3292557397
 20
103.5306146979
  0
SEQEND
  0
POLYLINE
  8
2_FEATURE
 62
7
  6
CONTINUOUS
 66
1
 70
0
  0
VERTEX
  8
2_FEATURE
 62
7
  6
CONTINUOUS
 10
159.1730118425
 20
103.4864223825
  0
VERTEX
  8
2_FEATURE
 62
7
  6
CONTINUOUS
 10
159.1575513316
 20
103.4852042927
  0
VERTEX
  8
2_FEATURE
 62
7
  6
CONTINUOUS
 10
159.1425439551
 20
103.4856624356
  0
SEQEND
  0
LINE
  8
2_FEATURE
 62
7
  6
CONTINUOUS
 10
155.3128371036
 20
103.8207183697
 11
159.1425439551
 21
103.4856624356
  0
POLYLINE
  8
0
 62
7
  6
CONTINUOUS
 66
1
 70
0
  0
VERTEX
  8
0
 62
7
  6
CONTINUOUS
 10
156.6102863476
 20
96.7992500105
  0
VERTEX
  8
0
 62
7
  6
CONTINUOUS
 10
156.6373860626
 20
96.7759086722
  0
VERTEX
  8
0
 62
7
  6
CONTINUOUS
 10
156.6638265018
 20
96.7499108195
  0
VERTEX
  8
0
 62
7
  6
CONTINUOUS
 10
156.6831228801
 20
96.7282202061
  0
VERTEX
  8
0
 62
7
  6
CONTINUOUS
 10
156.6962460271
 20
96.7115433931
  0
VERTEX
  8
0
 62
7
  6
CONTINUOUS
 10
156.7040965949
 20
96.7003624567
  0
VERTEX
  8
0
 62
7
  6
CONTINUOUS
 10
156.7070614221
 20
96.6957075187
  0
SEQEND
  0
POLYLINE
  8
2_FEATURE
 62
7
  6
CONTINUOUS
 66
1
 70
0
  0
VERTEX
  8
2_FEATURE
 62
7
  6
CONTINUOUS
 10
159.3292557397
 20
137.1306146979
  0
VERTEX
  8
2_FEATURE
 62
7
  6
CONTINUOUS
 10
159.2460860756
 20
137.1051652095
  0
VERTEX
  8
2_FEATURE
 62
7
  6
CONTINUOUS
 10
159.2142387694
 20
137.0958852492
  0
VERTEX
  8
2_FEATURE
 62
7
  6
CONTINUOUS
 10
159.1889098541
 20
137.0893271829
  0
SEQEND
  0
LINE
  8
0
 62
7
  6
CONTINUOUS
 10
162.9941375056
 20
137.4407243326
 11
159.4166807418
 21
136.4182828818
  0
LINE
  8
2_FEATURE
 62
7
  6
CONTINUOUS
 10
155.3128371036
 20
106.1111685421
 11
159.1734572662
 21
106.1785559177
  0
POLYLINE
  8
2_FEATURE
 62
7
  6
CONTINUOUS
 66
1
 70
0
  0
VERTEX
  8
2_FEATURE
 62
7
  6
CONTINUOUS
 10
159.1734572662
 20
106.1785559177
  0
VERTEX
  8
2_FEATURE
 62
7
  6
CONTINUOUS
 10
159.1871589216
 20
106.1781258537
  0
VERTEX
  8
2_FEATURE
 62
7
  6
CONTINUOUS
 10
159.2008377831
 20
106.1763589215
  0
VERTEX
  8
2_FEATURE
 62
7
  6
CONTINUOUS
 10
159.2144747545
 20
106.1732597134
  0
SEQEND
  0
POLYLINE
  8
0
 62
7
  6
CONTINUOUS
 66
1
 70
0
  0
VERTEX
  8
0
 62
7
  6
CONTINUOUS
 10
149.5559708187
 20
97.8120701024
  0
VERTEX
  8
0
 62
7
  6
CONTINUOUS
 10
149.5771027751
 20
97.7619263728
  0
VERTEX
  8
0
 62
7
  6
CONTINUOUS
 10
149.6039402877
 20
97.7119306088
  0
VERTEX
  8
0
 62
7
  6
CONTINUOUS
 10
149.6372305907
 20
97.6638169851
  0
VERTEX
  8
0
 62
7
  6
CONTINUOUS
 10
149.6769811807
 20
97.6181700842
  0
VERTEX
  8
0
 62
7
  6
CONTINUOUS
 10
149.7230788782
 20
97.5756715118
  0
VERTEX
  8
0
 62
7
  6
CONTINUOUS
 10
149.7753387005
 20
97.537005088
  0
VERTEX
  8
0
 62
7
  6
CONTINUOUS
 10
149.8335645437
 20
97.5028357167
  0
VERTEX
  8
0
 62
7
  6
CONTINUOUS
 10
149.8970509107
 20
97.474057135
  0
VERTEX
  8
0
 62
7
  6
CONTINUOUS
 10
149.9646571687
 20
97.4515310749
  0
VERTEX
  8
0
 62
7
  6
CONTINUOUS
 10
150.0351214204
 20
97.435889833
  0
VERTEX
  8
0
 62
7
  6
CONTINUOUS
 10
150.0957515199
 20
97.4283675357
  0
SEQEND
  0
POLYLINE
  8
0
 62
7
  6
CONTINUOUS
 66
1
 70
0
  0
VERTEX
  8
0
 62
7
  6
CONTINUOUS
 10
156.6102877981
 20
136.3023692862
  0
VERTEX
  8
0
 62
7
  6
CONTINUOUS
 10
156.5855649686
 20
136.2835716229
  0
VERTEX
  8
0
 62
7
  6
CONTINUOUS
 10
156.5473615736
 20
136.2585148195
  0
VERTEX
  8
0
 62
7
  6
CONTINUOUS
 10
156.5006560313
 20
136.233107551
  0
VERTEX
  8
0
 62
7
  6
CONTINUOUS
 10
156.4456075026
 20
136.2091667415
  0
VERTEX
  8
0
 62
7
  6
CONTINUOUS
 10
156.3827379805
 20
136.1885469361
  0
VERTEX
  8
0
 62
7
  6
CONTINUOUS
 10
156.3129374364
 20
136.1730372759
  0
VERTEX
  8
0
 62
7
  6
CONTINUOUS
 10
156.2494600247
 20
136.16512337
  0
SEQEND
  0
POLYLINE
  8
2_FEATURE
 62
7
  6
CONTINUOUS
 66
1
 70
0
  0
VERTEX
  8
2_FEATURE
 62
7
  6
CONTINUOUS
 10
159.2144747545
 20
110.1283584096
  0
VERTEX
  8
2_FEATURE
 62
7
  6
CONTINUOUS
 10
159.2008377831
 20
110.1252592015
  0
VERTEX
  8
2_FEATURE
 62
7
  6
CONTINUOUS
 10
159.1871589216
 20
110.1234922692
  0
VERTEX
  8
2_FEATURE
 62
7
  6
CONTINUOUS
 10
159.1734572662
 20
110.1230622053
  0
SEQEND
  0
POLYLINE
  8
2_FEATURE
 62
7
  6
CONTINUOUS
 66
1
 70
0
  0
VERTEX
  8
2_FEATURE
 62
7
  6
CONTINUOUS
 10
159.2144747545
 20
106.1732597134
  0
VERTEX
  8
2_FEATURE
 62
7
  6
CONTINUOUS
 10
159.2382616545
 20
106.1659342939
  0
VERTEX
  8
2_FEATURE
 62
7
  6
CONTINUOUS
 10
159.2677855112
 20
106.1556536033
  0
SEQEND
  0
POLYLINE
  8
2_FEATURE
 62
7
  6
CONTINUOUS
 66
1
 70
0
  0
VERTEX
  8
2_FEATURE
 62
7
  6
CONTINUOUS
 10
159.5574564079
 20
106.0578553172
  0
VERTEX
  8
2_FEATURE
 62
7
  6
CONTINUOUS
 10
159.7206768302
 20
106.0075308825
  0
VERTEX
  8
2_FEATURE
 62
7
  6
CONTINUOUS
 10
159.8602036919
 20
105.9515796332
  0
VERTEX
  8
2_FEATURE
 62
7
  6
CONTINUOUS
 10
159.979208723
 20
105.8914800238
  0
VERTEX
  8
2_FEATURE
 62
7
  6
CONTINUOUS
 10
160.0804252444
 20
105.8284699502
  0
VERTEX
  8
2_FEATURE
 62
7
  6
CONTINUOUS
 10
160.1662254766
 20
105.7635393739
  0
VERTEX
  8
2_FEATURE
 62
7
  6
CONTINUOUS
 10
160.2386264081
 20
105.6974736478
  0
VERTEX
  8
2_FEATURE
 62
7
  6
CONTINUOUS
 10
160.299343869
 20
105.6308749795
  0
VERTEX
  8
2_FEATURE
 62
7
  6
CONTINUOUS
 10
160.3498939404
 20
105.5640967611
  0
VERTEX
  8
2_FEATURE
 62
7
  6
CONTINUOUS
 10
160.3914595691
 20
105.4974620599
  0
VERTEX
  8
2_FEATURE
 62
7
  6
CONTINUOUS
 10
160.4250972719
 20
105.4310430325
  0
VERTEX
  8
2_FEATURE
 62
7
  6
CONTINUOUS
 10
160.4515958315
 20
105.3649348816
  0
VERTEX
  8
2_FEATURE
 62
7
  6
CONTINUOUS
 10
160.4716243535
 20
105.2990079889
  0
VERTEX
  8
2_FEATURE
 62
7
  6
CONTINUOUS
 10
160.4855976985
 20
105.233392649
  0
VERTEX
  8
2_FEATURE
 62
7
  6
CONTINUOUS
 10
160.4938962506
 20
105.167650953
  0
VERTEX
  8
2_FEATURE
 62
7
  6
CONTINUOUS
 10
160.496647359
 20
105.101819822
  0
SEQEND
  0
POLYLINE
  8
2_FEATURE
 62
7
  6
CONTINUOUS
 66
1
 70
0
  0
VERTEX
  8
2_FEATURE
 62
7
  6
CONTINUOUS
 10
159.2677855112
 20
106.1556536033
  0
VERTEX
  8
2_FEATURE
 62
7
  6
CONTINUOUS
 10
159.3441732735
 20
106.1274304921
  0
VERTEX
  8
2_FEATURE
 62
7
  6
CONTINUOUS
 10
159.3909036653
 20
106.1104370958
  0
VERTEX
  8
2_FEATURE
 62
7
  6
CONTINUOUS
 10
159.4427080462
 20
106.0925164037
  0
VERTEX
  8
2_FEATURE
 62
7
  6
CONTINUOUS
 10
159.4986077846
 20
106.0746573937
  0
VERTEX
  8
2_FEATURE
 62
7
  6
CONTINUOUS
 10
159.5574564079
 20
106.0578553172
  0
SEQEND
  0
POLYLINE
  8
2_FEATURE
 62
7
  6
CONTINUOUS
 66
1
 70
0
  0
VERTEX
  8
2_FEATURE
 62
7
  6
CONTINUOUS
 10
160.293643156
 20
95.5553467268
  0
VERTEX
  8
2_FEATURE
 62
7
  6
CONTINUOUS
 10
160.3450938645
 20
95.4920795898
  0
VERTEX
  8
2_FEATURE
 62
7
  6
CONTINUOUS
 10
160.3875835175
 20
95.4281084163
  0
VERTEX
  8
2_FEATURE
 62
7
  6
CONTINUOUS
 10
160.4221350804
 20
95.36355833
  0
VERTEX
  8
2_FEATURE
 62
7
  6
CONTINUOUS
 10
160.449481863
 20
95.2986092764
  0
VERTEX
  8
2_FEATURE
 62
7
  6
CONTINUOUS
 10
160.4703121974
 20
95.2329945897
  0
VERTEX
  8
2_FEATURE
 62
7
  6
CONTINUOUS
 10
160.4849620123
 20
95.166848495
  0
VERTEX
  8
2_FEATURE
 62
7
  6
CONTINUOUS
 10
160.493720088
 20
95.0998453483
  0
VERTEX
  8
2_FEATURE
 62
7
  6
CONTINUOUS
 10
160.496647359
 20
95.0319021397
  0
SEQEND
  0
POLYLINE
  8
0
 62
7
  6
CONTINUOUS
 66
1
 70
0
  0
VERTEX
  8
0
 62
7
  6
CONTINUOUS
 10
156.7075501116
 20
136.4067051892
  0
VERTEX
  8
0
 62
7
  6
CONTINUOUS
 10
156.7075256561
 20
136.406683643
  0
VERTEX
  8
0
 62
7
  6
CONTINUOUS
 10
156.7041407386
 20
136.4013225297
  0
VERTEX
  8
0
 62
7
  6
CONTINUOUS
 10
156.6963120796
 20
136.3901641266
  0
VERTEX
  8
0
 62
7
  6
CONTINUOUS
 10
156.6831965411
 20
136.3734864125
  0
VERTEX
  8
0
 62
7
  6
CONTINUOUS
 10
156.6638906225
 20
136.3517750583
  0
VERTEX
  8
0
 62
7
  6
CONTINUOUS
 10
156.6374248469
 20
136.3257450414
  0
VERTEX
  8
0
 62
7
  6
CONTINUOUS
 10
156.6102865091
 20
136.3023682431
  0
SEQEND
  0
LINE
  8
2_FEATURE
 62
7
  6
CONTINUOUS
 10
155.3128371036
 20
110.1904495809
 11
159.1734572662
 21
110.1230622053
  0
LINE
  8
0
 62
7
  6
CONTINUOUS
 10
147.3128371036
 20
126.1275507789
 11
147.3128371036
 21
123.7740673441
  0
LINE
  8
2_FEATURE
 62
7
  6
CONTINUOUS
 10
147.3128371036
 20
92.5275507789
 11
147.3128371036
 21
88.2508090615
  0
LINE
  8
0
 62
7
  6
CONTINUOUS
 10
147.3128371036
 20
88.2508090615
 11
147.3128371036
 21
92.5275507789
  0
LINE
  8
0
 62
7
  6
CONTINUOUS
 10
147.3128371036
 20
98.5740673441
 11
147.3128371036
 21
100.9275507789
  0
LINE
  8
0
 62
7
  6
CONTINUOUS
 10
147.3128371036
 20
106.9740673441
 11
147.3128371036
 21
109.3275507789
  0
LINE
  8
0
 62
7
  6
CONTINUOUS
 10
147.3128371036
 20
115.3740673441
 11
147.3128371036
 21
117.7275507789
  0
LINE
  8
0
 62
7
  6
CONTINUOUS
 10
147.3128371036
 20
132.1740673441
 11
147.3128371036
 21
134.5275507789
  0
LINE
  8
0
 62
7
  6
CONTINUOUS
 10
147.3128371036
 20
140.5740673441
 11
147.3128371036
 21
142.9275507789
  0
LINE
  8
AXES
 62
7
  6
CONTINUOUS
 10
147.3128371036
 20
140.5740673441
 11
147.3128371036
 21
142.9275507789
  0
LINE
  8
2_FEATURE
 62
7
  6
CONTINUOUS
 10
147.3128371036
 20
148.9740673441
 11
147.3128371036
 21
148.9823134793
  0
LINE
  8
0
 62
7
  6
CONTINUOUS
 10
147.3128371036
 20
148.9823134793
 11
147.3128371036
 21
153.2508090615
  0
LINE
  8
2_FEATURE
 62
7
  6
CONTINUOUS
 10
147.3628371036
 20
87.5008090615
 11
147.3628371036
 21
98.2640123463
  0
LINE
  8
2_FEATURE
 62
7
  6
CONTINUOUS
 10
147.3628371036
 20
101.2375292795
 11
147.3628371036
 21
115.0640888435
  0
LINE
  8
2_FEATURE
 62
7
  6
CONTINUOUS
 10
147.3628371036
 20
118.0375292795
 11
147.3628371036
 21
131.8640888435
  0
LINE
  8
2_FEATURE
 62
7
  6
CONTINUOUS
 10
147.3628371036
 20
134.8375292795
 11
147.3628371036
 21
148.6620624699
  0
LINE
  8
2_FEATURE
 62
7
  6
CONTINUOUS
 10
147.3628371036
 20
153.5597549724
 11
147.3628371036
 21
154.0008090615
  0
POLYLINE
  8
2_FEATURE
 62
7
  6
CONTINUOUS
 66
1
 70
0
  0
VERTEX
  8
2_FEATURE
 62
7
  6
CONTINUOUS
 10
160.293643156
 20
137.5462713962
  0
VERTEX
  8
2_FEATURE
 62
7
  6
CONTINUOUS
 10
160.2491852166
 20
137.5012258765
  0
VERTEX
  8
2_FEATURE
 62
7
  6
CONTINUOUS
 10
160.1957090129
 20
137.4559146182
  0
VERTEX
  8
2_FEATURE
 62
7
  6
CONTINUOUS
 10
160.1324925507
 20
137.4106824437
  0
VERTEX
  8
2_FEATURE
 62
7
  6
CONTINUOUS
 10
160.0585564488
 20
137.3658488818
  0
VERTEX
  8
2_FEATURE
 62
7
  6
CONTINUOUS
 10
159.9728717943
 20
137.321918396
  0
VERTEX
  8
2_FEATURE
 62
7
  6
CONTINUOUS
 10
159.8742742855
 20
137.279552402
  0
VERTEX
  8
2_FEATURE
 62
7
  6
CONTINUOUS
 10
159.7611323825
 20
137.2395134203
  0
VERTEX
  8
2_FEATURE
 62
7
  6
CONTINUOUS
 10
159.631632261
 20
137.2028973217
  0
SEQEND
  0
LINE
  8
2_FEATURE
 62
7
  6
CONTINUOUS
 10
155.3128371036
 20
112.4808997533
 11
159.1425439551
 21
112.8159556874
  0
POLYLINE
  8
2_FEATURE
 62
7
  6
CONTINUOUS
 66
1
 70
0
  0
VERTEX
  8
2_FEATURE
 62
7
  6
CONTINUOUS
 10
159.1425439551
 20
112.8159556874
  0
VERTEX
  8
2_FEATURE
 62
7
  6
CONTINUOUS
 10
159.1575513316
 20
112.8164138303
  0
VERTEX
  8
2_FEATURE
 62
7
  6
CONTINUOUS
 10
159.1730118425
 20
112.8151957405
  0
SEQEND
  0
LINE
  8
0
 62
7
  6
CONTINUOUS
 10
148.2331601024
 20
114.3772466102
 11
159.4228083254
 21
113.4828454565
  0
POLYLINE
  8
0
 62
7
  6
CONTINUOUS
 66
1
 70
0
  0
VERTEX
  8
0
 62
7
  6
CONTINUOUS
 10
156.2494599462
 20
113.7364947592
  0
VERTEX
  8
0
 62
7
  6
CONTINUOUS
 10
156.3137431651
 20
113.7284433467
  0
VERTEX
  8
0
 62
7
  6
CONTINUOUS
 10
156.3833619932
 20
113.7128986992
  0
VERTEX
  8
0
 62
7
  6
CONTINUOUS
 10
156.4460592954
 20
113.6922784587
  0
VERTEX
  8
0
 62
7
  6
CONTINUOUS
 10
156.5009541442
 20
113.6683642482
  0
VERTEX
  8
0
 62
7
  6
CONTINUOUS
 10
156.5475307153
 20
113.6430015594
  0
VERTEX
  8
0
 62
7
  6
CONTINUOUS
 10
156.5856342948
 20
113.6179969112
  0
VERTEX
  8
0
 62
7
  6
CONTINUOUS
 10
156.610287845
 20
113.5992487989
  0
SEQEND
  0
LINE
  8
2_FEATURE
 62
7
  6
CONTINUOUS
 10
159.1730118425
 20
112.8151957405
 11
159.1889098541
 21
112.8122909401
  0
POLYLINE
  8
2_FEATURE
 62
7
  6
CONTINUOUS
 66
1
 70
0
  0
VERTEX
  8
2_FEATURE
 62
7
  6
CONTINUOUS
 10
159.1889098541
 20
112.8122909401
  0
VERTEX
  8
2_FEATURE
 62
7
  6
CONTINUOUS
 10
159.2142387694
 20
112.8057328738
  0
VERTEX
  8
2_FEATURE
 62
7
  6
CONTINUOUS
 10
159.2460860756
 20
112.7964529135
  0
SEQEND
  0
POLYLINE
  8
2_FEATURE
 62
7
  6
CONTINUOUS
 66
1
 70
0
  0
VERTEX
  8
2_FEATURE
 62
7
  6
CONTINUOUS
 10
159.3441732735
 20
126.9741876309
  0
VERTEX
  8
2_FEATURE
 62
7
  6
CONTINUOUS
 10
159.2677855112
 20
126.9459645197
  0
VERTEX
  8
2_FEATURE
 62
7
  6
CONTINUOUS
 10
159.2382616545
 20
126.9356838291
  0
VERTEX
  8
2_FEATURE
 62
7
  6
CONTINUOUS
 10
159.2144747545
 20
126.9283584096
  0
SEQEND
  0
POLYLINE
  8
2_FEATURE
 62
7
  6
CONTINUOUS
 66
1
 70
0
  0
VERTEX
  8
2_FEATURE
 62
7
  6
CONTINUOUS
 10
159.5574564079
 20
127.0437628058
  0
VERTEX
  8
2_FEATURE
 62
7
  6
CONTINUOUS
 10
159.4986077846
 20
127.0269607293
  0
VERTEX
  8
2_FEATURE
 62
7
  6
CONTINUOUS
 10
159.4427080462
 20
127.0091017193
  0
VERTEX
  8
2_FEATURE
 62
7
  6
CONTINUOUS
 10
159.3909036653
 20
126.9911810272
  0
VERTEX
  8
2_FEATURE
 62
7
  6
CONTINUOUS
 10
159.3441732735
 20
126.9741876309
  0
SEQEND
  0
POLYLINE
  8
2_FEATURE
 62
7
  6
CONTINUOUS
 66
1
 70
0
  0
VERTEX
  8
2_FEATURE
 62
7
  6
CONTINUOUS
 10
159.631632261
 20
112.6987208013
  0
VERTEX
  8
2_FEATURE
 62
7
  6
CONTINUOUS
 10
159.7611323825
 20
112.6621047026
  0
VERTEX
  8
2_FEATURE
 62
7
  6
CONTINUOUS
 10
159.8742742855
 20
112.622065721
  0
VERTEX
  8
2_FEATURE
 62
7
  6
CONTINUOUS
 10
159.9728717943
 20
112.5796997269
  0
VERTEX
  8
2_FEATURE
 62
7
  6
CONTINUOUS
 10
160.0585564488
 20
112.5357692412
  0
VERTEX
  8
2_FEATURE
 62
7
  6
CONTINUOUS
 10
160.1324925507
 20
112.4909356793
  0
VERTEX
  8
2_FEATURE
 62
7
  6
CONTINUOUS
 10
160.1957090129
 20
112.4457035048
  0
VERTEX
  8
2_FEATURE
 62
7
  6
CONTINUOUS
 10
160.2491852166
 20
112.4003922465
  0
VERTEX
  8
2_FEATURE
 62
7
  6
CONTINUOUS
 10
160.293643156
 20
112.3553467268
  0
SEQEND
  0
LINE
  8
0
 62
7
  6
CONTINUOUS
 10
162.9941375056
 20
112.4608937903
 11
159.4166807418
 21
113.4833352412
  0
POLYLINE
  8
2_FEATURE
 62
7
  6
CONTINUOUS
 66
1
 70
0
  0
VERTEX
  8
2_FEATURE
 62
7
  6
CONTINUOUS
 10
159.2460860756
 20
112.7964529135
  0
VERTEX
  8
2_FEATURE
 62
7
  6
CONTINUOUS
 10
159.3292557397
 20
112.7710034251
  0
VERTEX
  8
2_FEATURE
 62
7
  6
CONTINUOUS
 10
159.3803322397
 20
112.7558457214
  0
VERTEX
  8
2_FEATURE
 62
7
  6
CONTINUOUS
 10
159.437276998
 20
112.7400250414
  0
VERTEX
  8
2_FEATURE
 62
7
  6
CONTINUOUS
 10
159.4989884786
 20
112.7245674042
  0
VERTEX
  8
2_FEATURE
 62
7
  6
CONTINUOUS
 10
159.5642946802
 20
112.710482295
  0
VERTEX
  8
2_FEATURE
 62
7
  6
CONTINUOUS
 10
159.631632261
 20
112.6987208013
  0
SEQEND
  0
POLYLINE
  8
0
 62
7
  6
CONTINUOUS
 66
1
 70
0
  0
VERTEX
  8
0
 62
7
  6
CONTINUOUS
 10
156.6102863476
 20
113.5992500105
  0
VERTEX
  8
0
 62
7
  6
CONTINUOUS
 10
156.6373860626
 20
113.5759086722
  0
VERTEX
  8
0
 62
7
  6
CONTINUOUS
 10
156.6638265018
 20
113.5499108195
  0
VERTEX
  8
0
 62
7
  6
CONTINUOUS
 10
156.6831228801
 20
113.5282202061
  0
VERTEX
  8
0
 62
7
  6
CONTINUOUS
 10
156.6962460271
 20
113.5115433931
  0
VERTEX
  8
0
 62
7
  6
CONTINUOUS
 10
156.7040965949
 20
113.5003624567
  0
VERTEX
  8
0
 62
7
  6
CONTINUOUS
 10
156.7070614221
 20
113.4957075187
  0
SEQEND
  0
LINE
  8
2_FEATURE
 62
7
  6
CONTINUOUS
 10
155.3128371036
 20
87.5008090615
 11
155.3128371036
 21
97.0113600737
  0
LINE
  8
2_FEATURE
 62
7
  6
CONTINUOUS
 10
155.3128371036
 20
102.4902580493
 11
155.3128371036
 21
113.8113600737
  0
LINE
  8
2_FEATURE
 62
7
  6
CONTINUOUS
 10
155.3128371036
 20
119.2902580493
 11
155.3128371036
 21
130.6113600737
  0
LINE
  8
2_FEATURE
 62
7
  6
CONTINUOUS
 10
155.3128371036
 20
136.0902580493
 11
155.3128371036
 21
147.4113600737
  0
LINE
  8
DEFAULT_1
 62
2
  6
CENTER
 10
155.3128371036
 20
83.8910769231
 11
155.3128371036
 21
156.2508090615
  0
LINE
  8
2_FEATURE
 62
7
  6
CONTINUOUS
 10
159.1889098541
 20
120.2893271829
 11
159.1730118425
 21
120.2864223825
  0
POLYLINE
  8
2_FEATURE
 62
7
  6
CONTINUOUS
 66
1
 70
0
  0
VERTEX
  8
2_FEATURE
 62
7
  6
CONTINUOUS
 10
159.631632261
 20
120.4028973217
  0
VERTEX
  8
2_FEATURE
 62
7
  6
CONTINUOUS
 10
159.5642946802
 20
120.391135828
  0
VERTEX
  8
2_FEATURE
 62
7
  6
CONTINUOUS
 10
159.4989884786
 20
120.3770507188
  0
VERTEX
  8
2_FEATURE
 62
7
  6
CONTINUOUS
 10
159.437276998
 20
120.3615930816
  0
VERTEX
  8
2_FEATURE
 62
7
  6
CONTINUOUS
 10
159.3803322397
 20
120.3457724015
  0
VERTEX
  8
2_FEATURE
 62
7
  6
CONTINUOUS
 10
159.3292557397
 20
120.3306146979
  0
SEQEND
  0
LINE
  8
0
 62
7
  6
CONTINUOUS
 10
148.2331601024
 20
118.7243715127
 11
159.4228083254
 21
119.6187726665
  0
POLYLINE
  8
2_FEATURE
 62
7
  6
CONTINUOUS
 66
1
 70
0
  0
VERTEX
  8
2_FEATURE
 62
7
  6
CONTINUOUS
 10
159.1730118425
 20
120.2864223825
  0
VERTEX
  8
2_FEATURE
 62
7
  6
CONTINUOUS
 10
159.1575513316
 20
120.2852042927
  0
VERTEX
  8
2_FEATURE
 62
7
  6
CONTINUOUS
 10
159.1425439551
 20
120.2856624356
  0
SEQEND
  0
LINE
  8
2_FEATURE
 62
7
  6
CONTINUOUS
 10
155.3128371036
 20
120.6207183697
 11
159.1425439551
 21
120.2856624356
  0
POLYLINE
  8
2_FEATURE
 62
7
  6
CONTINUOUS
 66
1
 70
0
  0
VERTEX
  8
2_FEATURE
 62
7
  6
CONTINUOUS
 10
160.293643156
 20
112.3553467268
  0
VERTEX
  8
2_FEATURE
 62
7
  6
CONTINUOUS
 10
160.3450938645
 20
112.2920795898
  0
VERTEX
  8
2_FEATURE
 62
7
  6
CONTINUOUS
 10
160.3875835175
 20
112.2281084163
  0
VERTEX
  8
2_FEATURE
 62
7
  6
CONTINUOUS
 10
160.4221350804
 20
112.16355833
  0
VERTEX
  8
2_FEATURE
 62
7
  6
CONTINUOUS
 10
160.449481863
 20
112.0986092764
  0
VERTEX
  8
2_FEATURE
 62
7
  6
CONTINUOUS
 10
160.4703121974
 20
112.0329945897
  0
VERTEX
  8
2_FEATURE
 62
7
  6
CONTINUOUS
 10
160.4849620123
 20
111.966848495
  0
VERTEX
  8
2_FEATURE
 62
7
  6
CONTINUOUS
 10
160.493720088
 20
111.8998453483
  0
VERTEX
  8
2_FEATURE
 62
7
  6
CONTINUOUS
 10
160.496647359
 20
111.8319021397
  0
SEQEND
  0
POLYLINE
  8
0
 62
7
  6
CONTINUOUS
 66
1
 70
0
  0
VERTEX
  8
0
 62
7
  6
CONTINUOUS
 10
149.5381179718
 20
148.2900364087
  0
VERTEX
  8
0
 62
7
  6
CONTINUOUS
 10
149.5424010893
 20
148.2662467392
  0
VERTEX
  8
0
 62
7
  6
CONTINUOUS
 10
149.556428948
 20
148.2139917874
  0
VERTEX
  8
0
 62
7
  6
CONTINUOUS
 10
149.5767988786
 20
148.1625812771
  0
VERTEX
  8
0
 62
7
  6
CONTINUOUS
 10
149.6036242738
 20
148.1124476627
  0
VERTEX
  8
0
 62
7
  6
CONTINUOUS
 10
149.6369778198
 20
148.0641415937
  0
VERTEX
  8
0
 62
7
  6
CONTINUOUS
 10
149.6769524458
 20
148.0181988739
  0
VERTEX
  8
0
 62
7
  6
CONTINUOUS
 10
149.7234742713
 20
147.9753442933
  0
VERTEX
  8
0
 62
7
  6
CONTINUOUS
 10
149.7760586199
 20
147.9365299064
  0
VERTEX
  8
0
 62
7
  6
CONTINUOUS
 10
149.8341164664
 20
147.9025502481
  0
VERTEX
  8
0
 62
7
  6
CONTINUOUS
 10
149.8970239063
 20
147.8740679971
  0
VERTEX
  8
0
 62
7
  6
CONTINUOUS
 10
149.9640325243
 20
147.8517043316
  0
VERTEX
  8
0
 62
7
  6
CONTINUOUS
 10
150.0343122665
 20
147.8360266126
  0
VERTEX
  8
0
 62
7
  6
CONTINUOUS
 10
150.0957485469
 20
147.8283677347
  0
SEQEND
  0
POLYLINE
  8
0
 62
7
  6
CONTINUOUS
 66
1
 70
0
  0
VERTEX
  8
0
 62
7
  6
CONTINUOUS
 10
156.7075501116
 20
119.6067051892
  0
VERTEX
  8
0
 62
7
  6
CONTINUOUS
 10
156.7075256561
 20
119.606683643
  0
VERTEX
  8
0
 62
7
  6
CONTINUOUS
 10
156.7041407386
 20
119.6013225297
  0
VERTEX
  8
0
 62
7
  6
CONTINUOUS
 10
156.6963120796
 20
119.5901641266
  0
VERTEX
  8
0
 62
7
  6
CONTINUOUS
 10
156.6831965411
 20
119.5734864125
  0
VERTEX
  8
0
 62
7
  6
CONTINUOUS
 10
156.6638906225
 20
119.5517750583
  0
VERTEX
  8
0
 62
7
  6
CONTINUOUS
 10
156.6374248469
 20
119.5257450414
  0
VERTEX
  8
0
 62
7
  6
CONTINUOUS
 10
156.6102865091
 20
119.5023682431
  0
SEQEND
  0
POLYLINE
  8
0
 62
7
  6
CONTINUOUS
 66
1
 70
0
  0
VERTEX
  8
0
 62
7
  6
CONTINUOUS
 10
156.6102877981
 20
119.5023692862
  0
VERTEX
  8
0
 62
7
  6
CONTINUOUS
 10
156.5855649686
 20
119.4835716229
  0
VERTEX
  8
0
 62
7
  6
CONTINUOUS
 10
156.5473615736
 20
119.4585148195
  0
VERTEX
  8
0
 62
7
  6
CONTINUOUS
 10
156.5006560313
 20
119.433107551
  0
VERTEX
  8
0
 62
7
  6
CONTINUOUS
 10
156.4456075026
 20
119.4091667415
  0
VERTEX
  8
0
 62
7
  6
CONTINUOUS
 10
156.3827379805
 20
119.3885469361
  0
VERTEX
  8
0
 62
7
  6
CONTINUOUS
 10
156.3129374364
 20
119.3730372759
  0
VERTEX
  8
0
 62
7
  6
CONTINUOUS
 10
156.2494600247
 20
119.36512337
  0
SEQEND
  0
POLYLINE
  8
2_FEATURE
 62
7
  6
CONTINUOUS
 66
1
 70
0
  0
VERTEX
  8
2_FEATURE
 62
7
  6
CONTINUOUS
 10
159.3292557397
 20
120.3306146979
  0
VERTEX
  8
2_FEATURE
 62
7
  6
CONTINUOUS
 10
159.2460860756
 20
120.3051652095
  0
VERTEX
  8
2_FEATURE
 62
7
  6
CONTINUOUS
 10
159.2142387694
 20
120.2958852492
  0
VERTEX
  8
2_FEATURE
 62
7
  6
CONTINUOUS
 10
159.1889098541
 20
120.2893271829
  0
SEQEND
  0
LINE
  8
0
 62
7
  6
CONTINUOUS
 10
162.9941375056
 20
120.6407243326
 11
159.4166807418
 21
119.6182828818
  0
LINE
  8
2_FEATURE
 62
7
  6
CONTINUOUS
 10
155.3128371036
 20
122.9111685421
 11
159.1734572662
 21
122.9785559177
  0
POLYLINE
  8
2_FEATURE
 62
7
  6
CONTINUOUS
 66
1
 70
0
  0
VERTEX
  8
2_FEATURE
 62
7
  6
CONTINUOUS
 10
159.1734572662
 20
122.9785559177
  0
VERTEX
  8
2_FEATURE
 62
7
  6
CONTINUOUS
 10
159.1871589216
 20
122.9781258537
  0
VERTEX
  8
2_FEATURE
 62
7
  6
CONTINUOUS
 10
159.2008377831
 20
122.9763589215
  0
VERTEX
  8
2_FEATURE
 62
7
  6
CONTINUOUS
 10
159.2144747545
 20
122.9732597134
  0
SEQEND
  0
POLYLINE
  8
2_FEATURE
 62
7
  6
CONTINUOUS
 66
1
 70
0
  0
VERTEX
  8
2_FEATURE
 62
7
  6
CONTINUOUS
 10
160.496647359
 20
144.799798301
  0
VERTEX
  8
2_FEATURE
 62
7
  6
CONTINUOUS
 10
160.4938962506
 20
144.73396717
  0
VERTEX
  8
2_FEATURE
 62
7
  6
CONTINUOUS
 10
160.4855976985
 20
144.668225474
  0
VERTEX
  8
2_FEATURE
 62
7
  6
CONTINUOUS
 10
160.4716243535
 20
144.6026101341
  0
VERTEX
  8
2_FEATURE
 62
7
  6
CONTINUOUS
 10
160.4515958315
 20
144.5366832414
  0
VERTEX
  8
2_FEATURE
 62
7
  6
CONTINUOUS
 10
160.4250972719
 20
144.4705750905
  0
VERTEX
  8
2_FEATURE
 62
7
  6
CONTINUOUS
 10
160.3914595691
 20
144.4041560631
  0
VERTEX
  8
2_FEATURE
 62
7
  6
CONTINUOUS
 10
160.3498939404
 20
144.3375213619
  0
VERTEX
  8
2_FEATURE
 62
7
  6
CONTINUOUS
 10
160.299343869
 20
144.2707431435
  0
VERTEX
  8
2_FEATURE
 62
7
  6
CONTINUOUS
 10
160.2386264081
 20
144.2041444752
  0
VERTEX
  8
2_FEATURE
 62
7
  6
CONTINUOUS
 10
160.1662254766
 20
144.1380787491
  0
VERTEX
  8
2_FEATURE
 62
7
  6
CONTINUOUS
 10
160.0804252444
 20
144.0731481727
  0
VERTEX
  8
2_FEATURE
 62
7
  6
CONTINUOUS
 10
159.979208723
 20
144.0101380992
  0
VERTEX
  8
2_FEATURE
 62
7
  6
CONTINUOUS
 10
159.8602036919
 20
143.9500384898
  0
VERTEX
  8
2_FEATURE
 62
7
  6
CONTINUOUS
 10
159.7206768302
 20
143.8940872405
  0
VERTEX
  8
2_FEATURE
 62
7
  6
CONTINUOUS
 10
159.5574564079
 20
143.8437628058
  0
SEQEND
  0
POLYLINE
  8
2_FEATURE
 62
7
  6
CONTINUOUS
 66
1
 70
0
  0
VERTEX
  8
2_FEATURE
 62
7
  6
CONTINUOUS
 10
160.496647359
 20
127.999798301
  0
VERTEX
  8
2_FEATURE
 62
7
  6
CONTINUOUS
 10
160.4938962506
 20
127.93396717
  0
VERTEX
  8
2_FEATURE
 62
7
  6
CONTINUOUS
 10
160.4855976985
 20
127.868225474
  0
VERTEX
  8
2_FEATURE
 62
7
  6
CONTINUOUS
 10
160.4716243535
 20
127.8026101341
  0
VERTEX
  8
2_FEATURE
 62
7
  6
CONTINUOUS
 10
160.4515958315
 20
127.7366832414
  0
VERTEX
  8
2_FEATURE
 62
7
  6
CONTINUOUS
 10
160.4250972719
 20
127.6705750905
  0
VERTEX
  8
2_FEATURE
 62
7
  6
CONTINUOUS
 10
160.3914595691
 20
127.6041560631
  0
VERTEX
  8
2_FEATURE
 62
7
  6
CONTINUOUS
 10
160.3498939404
 20
127.5375213619
  0
VERTEX
  8
2_FEATURE
 62
7
  6
CONTINUOUS
 10
160.299343869
 20
127.4707431435
  0
VERTEX
  8
2_FEATURE
 62
7
  6
CONTINUOUS
 10
160.2386264081
 20
127.4041444752
  0
VERTEX
  8
2_FEATURE
 62
7
  6
CONTINUOUS
 10
160.1662254766
 20
127.3380787491
  0
VERTEX
  8
2_FEATURE
 62
7
  6
CONTINUOUS
 10
160.0804252444
 20
127.2731481727
  0
VERTEX
  8
2_FEATURE
 62
7
  6
CONTINUOUS
 10
159.979208723
 20
127.2101380992
  0
VERTEX
  8
2_FEATURE
 62
7
  6
CONTINUOUS
 10
159.8602036919
 20
127.1500384898
  0
VERTEX
  8
2_FEATURE
 62
7
  6
CONTINUOUS
 10
159.7206768302
 20
127.0940872405
  0
VERTEX
  8
2_FEATURE
 62
7
  6
CONTINUOUS
 10
159.5574564079
 20
127.0437628058
  0
SEQEND
  0
POLYLINE
  8
2_FEATURE
 62
7
  6
CONTINUOUS
 66
1
 70
0
  0
VERTEX
  8
2_FEATURE
 62
7
  6
CONTINUOUS
 10
160.496647359
 20
138.0697159833
  0
VERTEX
  8
2_FEATURE
 62
7
  6
CONTINUOUS
 10
160.493720088
 20
138.0017727746
  0
VERTEX
  8
2_FEATURE
 62
7
  6
CONTINUOUS
 10
160.4849620123
 20
137.934769628
  0
VERTEX
  8
2_FEATURE
 62
7
  6
CONTINUOUS
 10
160.4703121974
 20
137.8686235333
  0
VERTEX
  8
2_FEATURE
 62
7
  6
CONTINUOUS
 10
160.449481863
 20
137.8030088466
  0
VERTEX
  8
2_FEATURE
 62
7
  6
CONTINUOUS
 10
160.4221350804
 20
137.738059793
  0
VERTEX
  8
2_FEATURE
 62
7
  6
CONTINUOUS
 10
160.3875835175
 20
137.6735097067
  0
VERTEX
  8
2_FEATURE
 62
7
  6
CONTINUOUS
 10
160.3450938645
 20
137.6095385332
  0
VERTEX
  8
2_FEATURE
 62
7
  6
CONTINUOUS
 10
160.293643156
 20
137.5462713962
  0
SEQEND
  0
POLYLINE
  8
2_FEATURE
 62
7
  6
CONTINUOUS
 66
1
 70
0
  0
VERTEX
  8
2_FEATURE
 62
7
  6
CONTINUOUS
 10
160.293643156
 20
120.7462713962
  0
VERTEX
  8
2_FEATURE
 62
7
  6
CONTINUOUS
 10
160.2491852166
 20
120.7012258765
  0
VERTEX
  8
2_FEATURE
 62
7
  6
CONTINUOUS
 10
160.1957090129
 20
120.6559146182
  0
VERTEX
  8
2_FEATURE
 62
7
  6
CONTINUOUS
 10
160.1324925507
 20
120.6106824437
  0
VERTEX
  8
2_FEATURE
 62
7
  6
CONTINUOUS
 10
160.0585564488
 20
120.5658488818
  0
VERTEX
  8
2_FEATURE
 62
7
  6
CONTINUOUS
 10
159.9728717943
 20
120.521918396
  0
VERTEX
  8
2_FEATURE
 62
7
  6
CONTINUOUS
 10
159.8742742855
 20
120.479552402
  0
VERTEX
  8
2_FEATURE
 62
7
  6
CONTINUOUS
 10
159.7611323825
 20
120.4395134203
  0
VERTEX
  8
2_FEATURE
 62
7
  6
CONTINUOUS
 10
159.631632261
 20
120.4028973217
  0
SEQEND
  0
POLYLINE
  8
2_FEATURE
 62
7
  6
CONTINUOUS
 66
1
 70
0
  0
VERTEX
  8
2_FEATURE
 62
7
  6
CONTINUOUS
 10
159.2144747545
 20
122.9732597134
  0
VERTEX
  8
2_FEATURE
 62
7
  6
CONTINUOUS
 10
159.2382616545
 20
122.9659342939
  0
VERTEX
  8
2_FEATURE
 62
7
  6
CONTINUOUS
 10
159.2677855112
 20
122.9556536033
  0
SEQEND
  0
POLYLINE
  8
2_FEATURE
 62
7
  6
CONTINUOUS
 66
1
 70
0
  0
VERTEX
  8
2_FEATURE
 62
7
  6
CONTINUOUS
 10
159.5574564079
 20
122.8578553172
  0
VERTEX
  8
2_FEATURE
 62
7
  6
CONTINUOUS
 10
159.7206768302
 20
122.8075308825
  0
VERTEX
  8
2_FEATURE
 62
7
  6
CONTINUOUS
 10
159.8602036919
 20
122.7515796332
  0
VERTEX
  8
2_FEATURE
 62
7
  6
CONTINUOUS
 10
159.979208723
 20
122.6914800238
  0
VERTEX
  8
2_FEATURE
 62
7
  6
CONTINUOUS
 10
160.0804252444
 20
122.6284699502
  0
VERTEX
  8
2_FEATURE
 62
7
  6
CONTINUOUS
 10
160.1662254766
 20
122.5635393739
  0
VERTEX
  8
2_FEATURE
 62
7
  6
CONTINUOUS
 10
160.2386264081
 20
122.4974736478
  0
VERTEX
  8
2_FEATURE
 62
7
  6
CONTINUOUS
 10
160.299343869
 20
122.4308749795
  0
VERTEX
  8
2_FEATURE
 62
7
  6
CONTINUOUS
 10
160.3498939404
 20
122.3640967611
  0
VERTEX
  8
2_FEATURE
 62
7
  6
CONTINUOUS
 10
160.3914595691
 20
122.2974620599
  0
VERTEX
  8
2_FEATURE
 62
7
  6
CONTINUOUS
 10
160.4250972719
 20
122.2310430325
  0
VERTEX
  8
2_FEATURE
 62
7
  6
CONTINUOUS
 10
160.4515958315
 20
122.1649348816
  0
VERTEX
  8
2_FEATURE
 62
7
  6
CONTINUOUS
 10
160.4716243535
 20
122.0990079889
  0
VERTEX
  8
2_FEATURE
 62
7
  6
CONTINUOUS
 10
160.4855976985
 20
122.033392649
  0
VERTEX
  8
2_FEATURE
 62
7
  6
CONTINUOUS
 10
160.4938962506
 20
121.967650953
  0
VERTEX
  8
2_FEATURE
 62
7
  6
CONTINUOUS
 10
160.496647359
 20
121.901819822
  0
SEQEND
  0
POLYLINE
  8
2_FEATURE
 62
7
  6
CONTINUOUS
 66
1
 70
0
  0
VERTEX
  8
2_FEATURE
 62
7
  6
CONTINUOUS
 10
159.2677855112
 20
122.9556536033
  0
VERTEX
  8
2_FEATURE
 62
7
  6
CONTINUOUS
 10
159.3441732735
 20
122.9274304921
  0
VERTEX
  8
2_FEATURE
 62
7
  6
CONTINUOUS
 10
159.3909036653
 20
122.9104370958
  0
VERTEX
  8
2_FEATURE
 62
7
  6
CONTINUOUS
 10
159.4427080462
 20
122.8925164037
  0
VERTEX
  8
2_FEATURE
 62
7
  6
CONTINUOUS
 10
159.4986077846
 20
122.8746573937
  0
VERTEX
  8
2_FEATURE
 62
7
  6
CONTINUOUS
 10
159.5574564079
 20
122.8578553172
  0
SEQEND
  0
LINE
  8
2_FEATURE
 62
7
  6
CONTINUOUS
 10
160.496647359
 20
94.399798301
 11
160.496647359
 21
95.0319021397
  0
LINE
  8
2_FEATURE
 62
7
  6
CONTINUOUS
 10
160.496647359
 20
104.4697159833
 11
160.496647359
 21
105.101819822
  0
LINE
  8
2_FEATURE
 62
7
  6
CONTINUOUS
 10
160.496647359
 20
111.199798301
 11
160.496647359
 21
111.8319021397
  0
LINE
  8
2_FEATURE
 62
7
  6
CONTINUOUS
 10
160.496647359
 20
121.2697159833
 11
160.496647359
 21
121.901819822
  0
LINE
  8
2_FEATURE
 62
7
  6
CONTINUOUS
 10
160.496647359
 20
127.999798301
 11
160.496647359
 21
128.6319021397
  0
LINE
  8
2_FEATURE
 62
7
  6
CONTINUOUS
 10
160.496647359
 20
138.0697159833
 11
160.496647359
 21
138.701819822
  0
LINE
  8
2_FEATURE
 62
7
  6
CONTINUOUS
 10
160.496647359
 20
144.799798301
 11
160.496647359
 21
145.4319021397
  0
POLYLINE
  8
2_FEATURE
 62
7
  6
CONTINUOUS
 66
1
 70
0
  0
VERTEX
  8
2_FEATURE
 62
7
  6
CONTINUOUS
 10
160.496647359
 20
111.199798301
  0
VERTEX
  8
2_FEATURE
 62
7
  6
CONTINUOUS
 10
160.4938962506
 20
111.13396717
  0
VERTEX
  8
2_FEATURE
 62
7
  6
CONTINUOUS
 10
160.4855976985
 20
111.068225474
  0
VERTEX
  8
2_FEATURE
 62
7
  6
CONTINUOUS
 10
160.4716243535
 20
111.0026101341
  0
VERTEX
  8
2_FEATURE
 62
7
  6
CONTINUOUS
 10
160.4515958315
 20
110.9366832414
  0
VERTEX
  8
2_FEATURE
 62
7
  6
CONTINUOUS
 10
160.4250972719
 20
110.8705750905
  0
VERTEX
  8
2_FEATURE
 62
7
  6
CONTINUOUS
 10
160.3914595691
 20
110.8041560631
  0
VERTEX
  8
2_FEATURE
 62
7
  6
CONTINUOUS
 10
160.3498939404
 20
110.7375213619
  0
VERTEX
  8
2_FEATURE
 62
7
  6
CONTINUOUS
 10
160.299343869
 20
110.6707431435
  0
VERTEX
  8
2_FEATURE
 62
7
  6
CONTINUOUS
 10
160.2386264081
 20
110.6041444752
  0
VERTEX
  8
2_FEATURE
 62
7
  6
CONTINUOUS
 10
160.1662254766
 20
110.5380787491
  0
VERTEX
  8
2_FEATURE
 62
7
  6
CONTINUOUS
 10
160.0804252444
 20
110.4731481727
  0
VERTEX
  8
2_FEATURE
 62
7
  6
CONTINUOUS
 10
159.979208723
 20
110.4101380992
  0
VERTEX
  8
2_FEATURE
 62
7
  6
CONTINUOUS
 10
159.8602036919
 20
110.3500384898
  0
VERTEX
  8
2_FEATURE
 62
7
  6
CONTINUOUS
 10
159.7206768302
 20
110.2940872405
  0
VERTEX
  8
2_FEATURE
 62
7
  6
CONTINUOUS
 10
159.5574564079
 20
110.2437628058
  0
SEQEND
  0
POLYLINE
  8
2_FEATURE
 62
7
  6
CONTINUOUS
 66
1
 70
0
  0
VERTEX
  8
2_FEATURE
 62
7
  6
CONTINUOUS
 10
160.496647359
 20
94.399798301
  0
VERTEX
  8
2_FEATURE
 62
7
  6
CONTINUOUS
 10
160.4938962506
 20
94.33396717
  0
VERTEX
  8
2_FEATURE
 62
7
  6
CONTINUOUS
 10
160.4855976985
 20
94.268225474
  0
VERTEX
  8
2_FEATURE
 62
7
  6
CONTINUOUS
 10
160.4716243535
 20
94.2026101341
  0
VERTEX
  8
2_FEATURE
 62
7
  6
CONTINUOUS
 10
160.4515958315
 20
94.1366832414
  0
VERTEX
  8
2_FEATURE
 62
7
  6
CONTINUOUS
 10
160.4250972719
 20
94.0705750905
  0
VERTEX
  8
2_FEATURE
 62
7
  6
CONTINUOUS
 10
160.3914595691
 20
94.0041560631
  0
VERTEX
  8
2_FEATURE
 62
7
  6
CONTINUOUS
 10
160.3498939404
 20
93.9375213619
  0
VERTEX
  8
2_FEATURE
 62
7
  6
CONTINUOUS
 10
160.299343869
 20
93.8707431435
  0
VERTEX
  8
2_FEATURE
 62
7
  6
CONTINUOUS
 10
160.2386264081
 20
93.8041444752
  0
VERTEX
  8
2_FEATURE
 62
7
  6
CONTINUOUS
 10
160.1662254766
 20
93.7380787491
  0
VERTEX
  8
2_FEATURE
 62
7
  6
CONTINUOUS
 10
160.0804252444
 20
93.6731481727
  0
VERTEX
  8
2_FEATURE
 62
7
  6
CONTINUOUS
 10
159.979208723
 20
93.6101380992
  0
VERTEX
  8
2_FEATURE
 62
7
  6
CONTINUOUS
 10
159.8602036919
 20
93.5500384898
  0
VERTEX
  8
2_FEATURE
 62
7
  6
CONTINUOUS
 10
159.7206768302
 20
93.4940872405
  0
VERTEX
  8
2_FEATURE
 62
7
  6
CONTINUOUS
 10
159.5574564079
 20
93.4437628058
  0
SEQEND
  0
POLYLINE
  8
2_FEATURE
 62
7
  6
CONTINUOUS
 66
1
 70
0
  0
VERTEX
  8
2_FEATURE
 62
7
  6
CONTINUOUS
 10
160.496647359
 20
121.2697159833
  0
VERTEX
  8
2_FEATURE
 62
7
  6
CONTINUOUS
 10
160.493720088
 20
121.2017727746
  0
VERTEX
  8
2_FEATURE
 62
7
  6
CONTINUOUS
 10
160.4849620123
 20
121.134769628
  0
VERTEX
  8
2_FEATURE
 62
7
  6
CONTINUOUS
 10
160.4703121974
 20
121.0686235333
  0
VERTEX
  8
2_FEATURE
 62
7
  6
CONTINUOUS
 10
160.449481863
 20
121.0030088466
  0
VERTEX
  8
2_FEATURE
 62
7
  6
CONTINUOUS
 10
160.4221350804
 20
120.938059793
  0
VERTEX
  8
2_FEATURE
 62
7
  6
CONTINUOUS
 10
160.3875835175
 20
120.8735097067
  0
VERTEX
  8
2_FEATURE
 62
7
  6
CONTINUOUS
 10
160.3450938645
 20
120.8095385332
  0
VERTEX
  8
2_FEATURE
 62
7
  6
CONTINUOUS
 10
160.293643156
 20
120.7462713962
  0
SEQEND
  0
POLYLINE
  8
2_FEATURE
 62
7
  6
CONTINUOUS
 66
1
 70
0
  0
VERTEX
  8
2_FEATURE
 62
7
  6
CONTINUOUS
 10
160.496647359
 20
104.4697159833
  0
VERTEX
  8
2_FEATURE
 62
7
  6
CONTINUOUS
 10
160.493720088
 20
104.4017727746
  0
VERTEX
  8
2_FEATURE
 62
7
  6
CONTINUOUS
 10
160.4849620123
 20
104.334769628
  0
VERTEX
  8
2_FEATURE
 62
7
  6
CONTINUOUS
 10
160.4703121974
 20
104.2686235333
  0
VERTEX
  8
2_FEATURE
 62
7
  6
CONTINUOUS
 10
160.449481863
 20
104.2030088466
  0
VERTEX
  8
2_FEATURE
 62
7
  6
CONTINUOUS
 10
160.4221350804
 20
104.138059793
  0
VERTEX
  8
2_FEATURE
 62
7
  6
CONTINUOUS
 10
160.3875835175
 20
104.0735097067
  0
VERTEX
  8
2_FEATURE
 62
7
  6
CONTINUOUS
 10
160.3450938645
 20
104.0095385332
  0
VERTEX
  8
2_FEATURE
 62
7
  6
CONTINUOUS
 10
160.293643156
 20
103.9462713962
  0
SEQEND
  0
POLYLINE
  8
2_FEATURE
 62
7
  6
CONTINUOUS
 66
1
 70
0
  0
VERTEX
  8
2_FEATURE
 62
7
  6
CONTINUOUS
 10
159.2144747545
 20
126.9283584096
  0
VERTEX
  8
2_FEATURE
 62
7
  6
CONTINUOUS
 10
159.2008377831
 20
126.9252592015
  0
VERTEX
  8
2_FEATURE
 62
7
  6
CONTINUOUS
 10
159.1871589216
 20
126.9234922692
  0
VERTEX
  8
2_FEATURE
 62
7
  6
CONTINUOUS
 10
159.1734572662
 20
126.9230622053
  0
SEQEND
  0
LINE
  8
2_FEATURE
 62
7
  6
CONTINUOUS
 10
155.3128371036
 20
126.9904495809
 11
159.1734572662
 21
126.9230622053
  0
LINE
  8
0
 62
7
  6
CONTINUOUS
 10
163.3128371036
 20
146.297076054
 11
163.3128371036
 21
137.204542069
  0
LINE
  8
0
 62
7
  6
CONTINUOUS
 10
163.3128371036
 20
137.2003488654
 11
163.3128371036
 21
129.5012692576
  0
LINE
  8
0
 62
7
  6
CONTINUOUS
 10
163.3128371036
 20
120.4003488654
 11
163.3128371036
 21
112.7012692576
  0
LINE
  8
0
 62
7
  6
CONTINUOUS
 10
163.3128371036
 20
112.697076054
 11
163.3128371036
 21
103.604542069
  0
LINE
  8
2_FEATURE
 62
7
  6
CONTINUOUS
 10
163.3128371036
 20
95.897076054
 11
163.3128371036
 21
87.5008090615
  0
LINE
  8
0
 62
7
  6
CONTINUOUS
 10
163.3128371036
 20
95.9012692576
 11
163.3128371036
 21
103.6003488654
  0
LINE
  8
0
 62
7
  6
CONTINUOUS
 10
163.3128371036
 20
120.404542069
 11
163.3128371036
 21
129.497076054
  0
LINE
  8
0
 62
7
  6
CONTINUOUS
 10
163.3128371036
 20
146.3012692576
 11
163.3128371036
 21
154.0008090615
  0
LINE
  8
2_FEATURE
 62
7
  6
CONTINUOUS
 10
155.3128371036
 20
129.2808997533
 11
159.1425439551
 21
129.6159556874
  0
POLYLINE
  8
2_FEATURE
 62
7
  6
CONTINUOUS
 66
1
 70
0
  0
VERTEX
  8
2_FEATURE
 62
7
  6
CONTINUOUS
 10
159.1425439551
 20
129.6159556874
  0
VERTEX
  8
2_FEATURE
 62
7
  6
CONTINUOUS
 10
159.1575513316
 20
129.6164138303
  0
VERTEX
  8
2_FEATURE
 62
7
  6
CONTINUOUS
 10
159.1730118425
 20
129.6151957405
  0
SEQEND
  0
LINE
  8
2_FEATURE
 62
7
  6
CONTINUOUS
 10
159.1730118425
 20
129.6151957405
 11
159.1889098541
 21
129.6122909401
  0
POLYLINE
  8
0
 62
7
  6
CONTINUOUS
 66
1
 70
0
  0
VERTEX
  8
0
 62
7
  6
CONTINUOUS
 10
156.6102863476
 20
130.3992500105
  0
VERTEX
  8
0
 62
7
  6
CONTINUOUS
 10
156.6373860626
 20
130.3759086722
  0
VERTEX
  8
0
 62
7
  6
CONTINUOUS
 10
156.6638265018
 20
130.3499108195
  0
VERTEX
  8
0
 62
7
  6
CONTINUOUS
 10
156.6831228801
 20
130.3282202061
  0
VERTEX
  8
0
 62
7
  6
CONTINUOUS
 10
156.6962460271
 20
130.3115433931
  0
VERTEX
  8
0
 62
7
  6
CONTINUOUS
 10
156.7040965949
 20
130.3003624567
  0
VERTEX
  8
0
 62
7
  6
CONTINUOUS
 10
156.7070614221
 20
130.2957075187
  0
SEQEND
  0
POLYLINE
  8
2_FEATURE
 62
7
  6
CONTINUOUS
 66
1
 70
0
  0
VERTEX
  8
2_FEATURE
 62
7
  6
CONTINUOUS
 10
160.293643156
 20
129.1553467268
  0
VERTEX
  8
2_FEATURE
 62
7
  6
CONTINUOUS
 10
160.3450938645
 20
129.0920795898
  0
VERTEX
  8
2_FEATURE
 62
7
  6
CONTINUOUS
 10
160.3875835175
 20
129.0281084163
  0
VERTEX
  8
2_FEATURE
 62
7
  6
CONTINUOUS
 10
160.4221350804
 20
128.96355833
  0
VERTEX
  8
2_FEATURE
 62
7
  6
CONTINUOUS
 10
160.449481863
 20
128.8986092764
  0
VERTEX
  8
2_FEATURE
 62
7
  6
CONTINUOUS
 10
160.4703121974
 20
128.8329945897
  0
VERTEX
  8
2_FEATURE
 62
7
  6
CONTINUOUS
 10
160.4849620123
 20
128.766848495
  0
VERTEX
  8
2_FEATURE
 62
7
  6
CONTINUOUS
 10
160.493720088
 20
128.6998453483
  0
VERTEX
  8
2_FEATURE
 62
7
  6
CONTINUOUS
 10
160.496647359
 20
128.6319021397
  0
SEQEND
  0
POLYLINE
  8
2_FEATURE
 62
7
  6
CONTINUOUS
 66
1
 70
0
  0
VERTEX
  8
2_FEATURE
 62
7
  6
CONTINUOUS
 10
159.3441732735
 20
110.1741876309
  0
VERTEX
  8
2_FEATURE
 62
7
  6
CONTINUOUS
 10
159.2677855112
 20
110.1459645197
  0
VERTEX
  8
2_FEATURE
 62
7
  6
CONTINUOUS
 10
159.2382616545
 20
110.1356838291
  0
VERTEX
  8
2_FEATURE
 62
7
  6
CONTINUOUS
 10
159.2144747545
 20
110.1283584096
  0
SEQEND
  0
POLYLINE
  8
2_FEATURE
 62
7
  6
CONTINUOUS
 66
1
 70
0
  0
VERTEX
  8
2_FEATURE
 62
7
  6
CONTINUOUS
 10
159.5574564079
 20
110.2437628058
  0
VERTEX
  8
2_FEATURE
 62
7
  6
CONTINUOUS
 10
159.4986077846
 20
110.2269607293
  0
VERTEX
  8
2_FEATURE
 62
7
  6
CONTINUOUS
 10
159.4427080462
 20
110.2091017193
  0
VERTEX
  8
2_FEATURE
 62
7
  6
CONTINUOUS
 10
159.3909036653
 20
110.1911810272
  0
VERTEX
  8
2_FEATURE
 62
7
  6
CONTINUOUS
 10
159.3441732735
 20
110.1741876309
  0
SEQEND
  0
LINE
  8
0
 62
7
  6
CONTINUOUS
 10
148.2331601024
 20
131.1772466102
 11
159.4228083254
 21
130.2828454565
  0
POLYLINE
  8
0
 62
7
  6
CONTINUOUS
 66
1
 70
0
  0
VERTEX
  8
0
 62
7
  6
CONTINUOUS
 10
156.2494599462
 20
130.5364947592
  0
VERTEX
  8
0
 62
7
  6
CONTINUOUS
 10
156.3137431651
 20
130.5284433467
  0
VERTEX
  8
0
 62
7
  6
CONTINUOUS
 10
156.3833619932
 20
130.5128986992
  0
VERTEX
  8
0
 62
7
  6
CONTINUOUS
 10
156.4460592954
 20
130.4922784587
  0
VERTEX
  8
0
 62
7
  6
CONTINUOUS
 10
156.5009541442
 20
130.4683642482
  0
VERTEX
  8
0
 62
7
  6
CONTINUOUS
 10
156.5475307153
 20
130.4430015594
  0
VERTEX
  8
0
 62
7
  6
CONTINUOUS
 10
156.5856342948
 20
130.4179969112
  0
VERTEX
  8
0
 62
7
  6
CONTINUOUS
 10
156.610287845
 20
130.3992487989
  0
SEQEND
  0
POLYLINE
  8
2_FEATURE
 62
7
  6
CONTINUOUS
 66
1
 70
0
  0
VERTEX
  8
2_FEATURE
 62
7
  6
CONTINUOUS
 10
159.1889098541
 20
129.6122909401
  0
VERTEX
  8
2_FEATURE
 62
7
  6
CONTINUOUS
 10
159.2142387694
 20
129.6057328738
  0
VERTEX
  8
2_FEATURE
 62
7
  6
CONTINUOUS
 10
159.2460860756
 20
129.5964529135
  0
SEQEND
  0
POLYLINE
  8
2_FEATURE
 62
7
  6
CONTINUOUS
 66
1
 70
0
  0
VERTEX
  8
2_FEATURE
 62
7
  6
CONTINUOUS
 10
159.631632261
 20
129.4987208013
  0
VERTEX
  8
2_FEATURE
 62
7
  6
CONTINUOUS
 10
159.7611323825
 20
129.4621047026
  0
VERTEX
  8
2_FEATURE
 62
7
  6
CONTINUOUS
 10
159.8742742855
 20
129.422065721
  0
VERTEX
  8
2_FEATURE
 62
7
  6
CONTINUOUS
 10
159.9728717943
 20
129.3796997269
  0
VERTEX
  8
2_FEATURE
 62
7
  6
CONTINUOUS
 10
160.0585564488
 20
129.3357692412
  0
VERTEX
  8
2_FEATURE
 62
7
  6
CONTINUOUS
 10
160.1324925507
 20
129.2909356793
  0
VERTEX
  8
2_FEATURE
 62
7
  6
CONTINUOUS
 10
160.1957090129
 20
129.2457035048
  0
VERTEX
  8
2_FEATURE
 62
7
  6
CONTINUOUS
 10
160.2491852166
 20
129.2003922465
  0
VERTEX
  8
2_FEATURE
 62
7
  6
CONTINUOUS
 10
160.293643156
 20
129.1553467268
  0
SEQEND
  0
LINE
  8
0
 62
7
  6
CONTINUOUS
 10
162.9941375056
 20
129.2608937903
 11
159.4166807418
 21
130.2833352412
  0
POLYLINE
  8
2_FEATURE
 62
7
  6
CONTINUOUS
 66
1
 70
0
  0
VERTEX
  8
2_FEATURE
 62
7
  6
CONTINUOUS
 10
159.2460860756
 20
129.5964529135
  0
VERTEX
  8
2_FEATURE
 62
7
  6
CONTINUOUS
 10
159.3292557397
 20
129.5710034251
  0
VERTEX
  8
2_FEATURE
 62
7
  6
CONTINUOUS
 10
159.3803322398
 20
129.5558457214
  0
VERTEX
  8
2_FEATURE
 62
7
  6
CONTINUOUS
 10
159.437276998
 20
129.5400250414
  0
VERTEX
  8
2_FEATURE
 62
7
  6
CONTINUOUS
 10
159.4989884786
 20
129.5245674042
  0
VERTEX
  8
2_FEATURE
 62
7
  6
CONTINUOUS
 10
159.5642946802
 20
129.510482295
  0
VERTEX
  8
2_FEATURE
 62
7
  6
CONTINUOUS
 10
159.631632261
 20
129.4987208013
  0
SEQEND
  0
POLYLINE
  8
0
 62
7
  6
CONTINUOUS
 66
1
 70
0
  0
VERTEX
  8
0
 62
7
  6
CONTINUOUS
 10
147.7203235534
 20
148.3937834344
  0
VERTEX
  8
0
 62
7
  6
CONTINUOUS
 10
147.7754385888
 20
148.3229789224
  0
VERTEX
  8
0
 62
7
  6
CONTINUOUS
 10
147.8374210681
 20
148.2557633103
  0
VERTEX
  8
0
 62
7
  6
CONTINUOUS
 10
147.9056321451
 20
148.1939906342
  0
VERTEX
  8
0
 62
7
  6
CONTINUOUS
 10
147.9795836557
 20
148.1382218601
  0
VERTEX
  8
0
 62
7
  6
CONTINUOUS
 10
148.0587362149
 20
148.0889736051
  0
VERTEX
  8
0
 62
7
  6
CONTINUOUS
 10
148.142501529
 20
148.0467159385
  0
VERTEX
  8
0
 62
7
  6
CONTINUOUS
 10
148.2302043846
 20
148.0118834084
  0
VERTEX
  8
0
 62
7
  6
CONTINUOUS
 10
148.3211161113
 20
147.9848443765
  0
VERTEX
  8
0
 62
7
  6
CONTINUOUS
 10
148.414471817
 20
147.9658922336
  0
VERTEX
  8
0
 62
7
  6
CONTINUOUS
 10
148.4960723988
 20
147.956231828
  0
SEQEND
  0
POLYLINE
  8
2_FEATURE
 62
7
  6
CONTINUOUS
 66
1
 70
0
  0
VERTEX
  8
2_FEATURE
 62
7
  6
CONTINUOUS
 10
160.293643156
 20
103.9462713962
  0
VERTEX
  8
2_FEATURE
 62
7
  6
CONTINUOUS
 10
160.2491852166
 20
103.9012258765
  0
VERTEX
  8
2_FEATURE
 62
7
  6
CONTINUOUS
 10
160.1957090129
 20
103.8559146182
  0
VERTEX
  8
2_FEATURE
 62
7
  6
CONTINUOUS
 10
160.1324925507
 20
103.8106824437
  0
VERTEX
  8
2_FEATURE
 62
7
  6
CONTINUOUS
 10
160.0585564488
 20
103.7658488818
  0
VERTEX
  8
2_FEATURE
 62
7
  6
CONTINUOUS
 10
159.9728717943
 20
103.721918396
  0
VERTEX
  8
2_FEATURE
 62
7
  6
CONTINUOUS
 10
159.8742742855
 20
103.679552402
  0
VERTEX
  8
2_FEATURE
 62
7
  6
CONTINUOUS
 10
159.7611323825
 20
103.6395134203
  0
VERTEX
  8
2_FEATURE
 62
7
  6
CONTINUOUS
 10
159.631632261
 20
103.6028973217
  0
SEQEND
  0
POLYLINE
  8
0
 62
7
  6
CONTINUOUS
 66
1
 70
0
  0
VERTEX
  8
0
 62
7
  6
CONTINUOUS
 10
156.7075501116
 20
102.8067051892
  0
VERTEX
  8
0
 62
7
  6
CONTINUOUS
 10
156.7075256561
 20
102.806683643
  0
VERTEX
  8
0
 62
7
  6
CONTINUOUS
 10
156.7041407386
 20
102.8013225297
  0
VERTEX
  8
0
 62
7
  6
CONTINUOUS
 10
156.6963120796
 20
102.7901641266
  0
VERTEX
  8
0
 62
7
  6
CONTINUOUS
 10
156.6831965411
 20
102.7734864125
  0
VERTEX
  8
0
 62
7
  6
CONTINUOUS
 10
156.6638906225
 20
102.7517750583
  0
VERTEX
  8
0
 62
7
  6
CONTINUOUS
 10
156.6374248469
 20
102.7257450414
  0
VERTEX
  8
0
 62
7
  6
CONTINUOUS
 10
156.6102865091
 20
102.7023682431
  0
SEQEND
  0
POLYLINE
  8
0
 62
7
  6
CONTINUOUS
 66
1
 70
0
  0
VERTEX
  8
0
 62
7
  6
CONTINUOUS
 10
156.6102877981
 20
102.7023692862
  0
VERTEX
  8
0
 62
7
  6
CONTINUOUS
 10
156.5855649686
 20
102.6835716229
  0
VERTEX
  8
0
 62
7
  6
CONTINUOUS
 10
156.5473615736
 20
102.6585148195
  0
VERTEX
  8
0
 62
7
  6
CONTINUOUS
 10
156.5006560313
 20
102.633107551
  0
VERTEX
  8
0
 62
7
  6
CONTINUOUS
 10
156.4456075026
 20
102.6091667415
  0
VERTEX
  8
0
 62
7
  6
CONTINUOUS
 10
156.3827379805
 20
102.5885469361
  0
VERTEX
  8
0
 62
7
  6
CONTINUOUS
 10
156.3129374364
 20
102.5730372759
  0
VERTEX
  8
0
 62
7
  6
CONTINUOUS
 10
156.2494600247
 20
102.56512337
  0
SEQEND
  0
LINE
  8
2_FEATURE
 62
7
  6
CONTINUOUS
 10
159.1889098541
 20
137.0893271829
 11
159.1730118425
 21
137.0864223825
  0
POLYLINE
  8
2_FEATURE
 62
7
  6
CONTINUOUS
 66
1
 70
0
  0
VERTEX
  8
2_FEATURE
 62
7
  6
CONTINUOUS
 10
159.631632261
 20
137.2028973217
  0
VERTEX
  8
2_FEATURE
 62
7
  6
CONTINUOUS
 10
159.5642946802
 20
137.191135828
  0
VERTEX
  8
2_FEATURE
 62
7
  6
CONTINUOUS
 10
159.4989884786
 20
137.1770507188
  0
VERTEX
  8
2_FEATURE
 62
7
  6
CONTINUOUS
 10
159.437276998
 20
137.1615930816
  0
VERTEX
  8
2_FEATURE
 62
7
  6
CONTINUOUS
 10
159.3803322398
 20
137.1457724015
  0
VERTEX
  8
2_FEATURE
 62
7
  6
CONTINUOUS
 10
159.3292557397
 20
137.1306146979
  0
SEQEND
  0
LINE
  8
0
 62
7
  6
CONTINUOUS
 10
148.2331601024
 20
135.5243715127
 11
159.4228083254
 21
136.4187726665
  0
POLYLINE
  8
2_FEATURE
 62
7
  6
CONTINUOUS
 66
1
 70
0
  0
VERTEX
  8
2_FEATURE
 62
7
  6
CONTINUOUS
 10
159.1730118425
 20
137.0864223825
  0
VERTEX
  8
2_FEATURE
 62
7
  6
CONTINUOUS
 10
159.1575513316
 20
137.0852042927
  0
VERTEX
  8
2_FEATURE
 62
7
  6
CONTINUOUS
 10
159.1425439551
 20
137.0856624356
  0
SEQEND
  0
POLYLINE
  8
2_FEATURE
 62
7
  6
CONTINUOUS
 66
1
 70
0
  0
VERTEX
  8
2_FEATURE
 62
7
  6
CONTINUOUS
 10
159.3292557397
 20
103.5306146979
  0
VERTEX
  8
2_FEATURE
 62
7
  6
CONTINUOUS
 10
159.2460860756
 20
103.5051652095
  0
VERTEX
  8
2_FEATURE
 62
7
  6
CONTINUOUS
 10
159.2142387694
 20
103.4958852492
  0
VERTEX
  8
2_FEATURE
 62
7
  6
CONTINUOUS
 10
159.1889098541
 20
103.4893271829
  0
SEQEND
  0
LINE
  8
0
 62
7
  6
CONTINUOUS
 10
162.9941375056
 20
103.8407243326
 11
159.4166807418
 21
102.8182828818
  0
LINE
  8
2_FEATURE
 62
7
  6
CONTINUOUS
 10
155.3128371036
 20
137.4207183697
 11
159.1425439551
 21
137.0856624356
  0
POLYLINE
  8
0
 62
7
  6
CONTINUOUS
 66
1
 70
0
  0
VERTEX
  8
0
 62
7
  6
CONTINUOUS
 10
147.6913026611
 20
148.4206290309
  0
VERTEX
  8
0
 62
7
  6
CONTINUOUS
 10
147.6753947699
 20
148.4315343074
  0
VERTEX
  8
0
 62
7
  6
CONTINUOUS
 10
147.6580648139
 20
148.4417732012
  0
VERTEX
  8
0
 62
7
  6
CONTINUOUS
 10
147.6427105167
 20
148.448437302
  0
VERTEX
  8
0
 62
7
  6
CONTINUOUS
 10
147.6297806304
 20
148.4508090615
  0
SEQEND
  0
POLYLINE
  8
0
 62
7
  6
CONTINUOUS
 66
1
 70
0
  0
VERTEX
  8
0
 62
7
  6
CONTINUOUS
 10
147.6913056262
 20
148.4206269026
  0
VERTEX
  8
0
 62
7
  6
CONTINUOUS
 10
147.7041462508
 20
148.4103717938
  0
VERTEX
  8
0
 62
7
  6
CONTINUOUS
 10
147.7203235534
 20
148.3937834344
  0
SEQEND
  0
LINE
  8
2_FEATURE
 62
7
  6
CONTINUOUS
 10
155.3128371036
 20
139.7111685421
 11
159.1734572662
 21
139.7785559177
  0
POLYLINE
  8
2_FEATURE
 62
7
  6
CONTINUOUS
 66
1
 70
0
  0
VERTEX
  8
2_FEATURE
 62
7
  6
CONTINUOUS
 10
159.1734572662
 20
139.7785559177
  0
VERTEX
  8
2_FEATURE
 62
7
  6
CONTINUOUS
 10
159.1871589216
 20
139.7781258537
  0
VERTEX
  8
2_FEATURE
 62
7
  6
CONTINUOUS
 10
159.2008377831
 20
139.7763589215
  0
VERTEX
  8
2_FEATURE
 62
7
  6
CONTINUOUS
 10
159.2144747545
 20
139.7732597134
  0
SEQEND
  0
POLYLINE
  8
2_FEATURE
 62
7
  6
CONTINUOUS
 66
1
 70
0
  0
VERTEX
  8
2_FEATURE
 62
7
  6
CONTINUOUS
 10
159.2144747545
 20
139.7732597134
  0
VERTEX
  8
2_FEATURE
 62
7
  6
CONTINUOUS
 10
159.2382616545
 20
139.7659342939
  0
VERTEX
  8
2_FEATURE
 62
7
  6
CONTINUOUS
 10
159.2677855112
 20
139.7556536033
  0
SEQEND
  0
POLYLINE
  8
2_FEATURE
 62
7
  6
CONTINUOUS
 66
1
 70
0
  0
VERTEX
  8
2_FEATURE
 62
7
  6
CONTINUOUS
 10
159.5574564079
 20
139.6578553172
  0
VERTEX
  8
2_FEATURE
 62
7
  6
CONTINUOUS
 10
159.7206768302
 20
139.6075308825
  0
VERTEX
  8
2_FEATURE
 62
7
  6
CONTINUOUS
 10
159.8602036919
 20
139.5515796332
  0
VERTEX
  8
2_FEATURE
 62
7
  6
CONTINUOUS
 10
159.979208723
 20
139.4914800238
  0
VERTEX
  8
2_FEATURE
 62
7
  6
CONTINUOUS
 10
160.0804252444
 20
139.4284699502
  0
VERTEX
  8
2_FEATURE
 62
7
  6
CONTINUOUS
 10
160.1662254766
 20
139.3635393739
  0
VERTEX
  8
2_FEATURE
 62
7
  6
CONTINUOUS
 10
160.2386264081
 20
139.2974736478
  0
VERTEX
  8
2_FEATURE
 62
7
  6
CONTINUOUS
 10
160.299343869
 20
139.2308749795
  0
VERTEX
  8
2_FEATURE
 62
7
  6
CONTINUOUS
 10
160.3498939404
 20
139.1640967611
  0
VERTEX
  8
2_FEATURE
 62
7
  6
CONTINUOUS
 10
160.3914595691
 20
139.0974620599
  0
VERTEX
  8
2_FEATURE
 62
7
  6
CONTINUOUS
 10
160.4250972719
 20
139.0310430325
  0
VERTEX
  8
2_FEATURE
 62
7
  6
CONTINUOUS
 10
160.4515958315
 20
138.9649348816
  0
VERTEX
  8
2_FEATURE
 62
7
  6
CONTINUOUS
 10
160.4716243535
 20
138.8990079889
  0
VERTEX
  8
2_FEATURE
 62
7
  6
CONTINUOUS
 10
160.4855976985
 20
138.833392649
  0
VERTEX
  8
2_FEATURE
 62
7
  6
CONTINUOUS
 10
160.4938962506
 20
138.767650953
  0
VERTEX
  8
2_FEATURE
 62
7
  6
CONTINUOUS
 10
160.496647359
 20
138.701819822
  0
SEQEND
  0
POLYLINE
  8
2_FEATURE
 62
7
  6
CONTINUOUS
 66
1
 70
0
  0
VERTEX
  8
2_FEATURE
 62
7
  6
CONTINUOUS
 10
159.2677855112
 20
139.7556536033
  0
VERTEX
  8
2_FEATURE
 62
7
  6
CONTINUOUS
 10
159.3441732735
 20
139.7274304921
  0
VERTEX
  8
2_FEATURE
 62
7
  6
CONTINUOUS
 10
159.3909036653
 20
139.7104370958
  0
VERTEX
  8
2_FEATURE
 62
7
  6
CONTINUOUS
 10
159.4427080462
 20
139.6925164037
  0
VERTEX
  8
2_FEATURE
 62
7
  6
CONTINUOUS
 10
159.4986077846
 20
139.6746573937
  0
VERTEX
  8
2_FEATURE
 62
7
  6
CONTINUOUS
 10
159.5574564079
 20
139.6578553172
  0
SEQEND
  0
POLYLINE
  8
0
 62
7
  6
CONTINUOUS
 66
1
 70
0
  0
VERTEX
  8
0
 62
7
  6
CONTINUOUS
 10
149.5674774385
 20
148.3574778262
  0
VERTEX
  8
0
 62
7
  6
CONTINUOUS
 10
149.5396185902
 20
148.3760208242
  0
VERTEX
  8
0
 62
7
  6
CONTINUOUS
 10
149.5237876395
 20
148.3863494527
  0
VERTEX
  8
0
 62
7
  6
CONTINUOUS
 10
149.5063979913
 20
148.3972305241
  0
VERTEX
  8
0
 62
7
  6
CONTINUOUS
 10
149.4871325041
 20
148.4084979424
  0
VERTEX
  8
0
 62
7
  6
CONTINUOUS
 10
149.4655943596
 20
148.4198754406
  0
VERTEX
  8
0
 62
7
  6
CONTINUOUS
 10
149.4412660088
 20
148.4309065086
  0
VERTEX
  8
0
 62
7
  6
CONTINUOUS
 10
149.4135458586
 20
148.44079286
  0
VERTEX
  8
0
 62
7
  6
CONTINUOUS
 10
149.3816255804
 20
148.4481963968
  0
VERTEX
  8
0
 62
7
  6
CONTINUOUS
 10
149.3588162004
 20
148.4505299741
  0
SEQEND
  0
POLYLINE
  8
2_FEATURE
 62
7
  6
CONTINUOUS
 66
1
 70
0
  0
VERTEX
  8
2_FEATURE
 62
7
  6
CONTINUOUS
 10
156.6102863476
 20
147.1992500105
  0
VERTEX
  8
2_FEATURE
 62
7
  6
CONTINUOUS
 10
156.6373860626
 20
147.1759086722
  0
VERTEX
  8
2_FEATURE
 62
7
  6
CONTINUOUS
 10
156.6638265018
 20
147.1499108195
  0
VERTEX
  8
2_FEATURE
 62
7
  6
CONTINUOUS
 10
156.6831228801
 20
147.1282202061
  0
VERTEX
  8
2_FEATURE
 62
7
  6
CONTINUOUS
 10
156.6962460271
 20
147.1115433931
  0
VERTEX
  8
2_FEATURE
 62
7
  6
CONTINUOUS
 10
156.7040965949
 20
147.1003624567
  0
VERTEX
  8
2_FEATURE
 62
7
  6
CONTINUOUS
 10
156.7070614221
 20
147.0957075187
  0
SEQEND
  0
POLYLINE
  8
2_FEATURE
 62
7
  6
CONTINUOUS
 66
1
 70
0
  0
VERTEX
  8
2_FEATURE
 62
7
  6
CONTINUOUS
 10
160.293643156
 20
145.9553467268
  0
VERTEX
  8
2_FEATURE
 62
7
  6
CONTINUOUS
 10
160.3450938645
 20
145.8920795898
  0
VERTEX
  8
2_FEATURE
 62
7
  6
CONTINUOUS
 10
160.3875835175
 20
145.8281084163
  0
VERTEX
  8
2_FEATURE
 62
7
  6
CONTINUOUS
 10
160.4221350804
 20
145.76355833
  0
VERTEX
  8
2_FEATURE
 62
7
  6
CONTINUOUS
 10
160.449481863
 20
145.6986092764
  0
VERTEX
  8
2_FEATURE
 62
7
  6
CONTINUOUS
 10
160.4703121974
 20
145.6329945897
  0
VERTEX
  8
2_FEATURE
 62
7
  6
CONTINUOUS
 10
160.4849620123
 20
145.566848495
  0
VERTEX
  8
2_FEATURE
 62
7
  6
CONTINUOUS
 10
160.493720088
 20
145.4998453483
  0
VERTEX
  8
2_FEATURE
 62
7
  6
CONTINUOUS
 10
160.496647359
 20
145.4319021397
  0
SEQEND
  0
POLYLINE
  8
2_FEATURE
 62
7
  6
CONTINUOUS
 66
1
 70
0
  0
VERTEX
  8
2_FEATURE
 62
7
  6
CONTINUOUS
 10
159.2144747545
 20
143.7283584096
  0
VERTEX
  8
2_FEATURE
 62
7
  6
CONTINUOUS
 10
159.2008377831
 20
143.7252592015
  0
VERTEX
  8
2_FEATURE
 62
7
  6
CONTINUOUS
 10
159.1871589216
 20
143.7234922692
  0
VERTEX
  8
2_FEATURE
 62
7
  6
CONTINUOUS
 10
159.1734572662
 20
143.7230622053
  0
SEQEND
  0
LINE
  8
2_FEATURE
 62
7
  6
CONTINUOUS
 10
155.3128371036
 20
143.7904495809
 11
159.1734572662
 21
143.7230622053
  0
LINE
  8
2_FEATURE
 62
7
  6
CONTINUOUS
 10
155.3128371036
 20
146.0808997533
 11
159.1425439551
 21
146.4159556874
  0
POLYLINE
  8
2_FEATURE
 62
7
  6
CONTINUOUS
 66
1
 70
0
  0
VERTEX
  8
2_FEATURE
 62
7
  6
CONTINUOUS
 10
159.1425439551
 20
146.4159556874
  0
VERTEX
  8
2_FEATURE
 62
7
  6
CONTINUOUS
 10
159.1575513316
 20
146.4164138303
  0
VERTEX
  8
2_FEATURE
 62
7
  6
CONTINUOUS
 10
159.1730118425
 20
146.4151957405
  0
SEQEND
  0
POLYLINE
  8
2_FEATURE
 62
7
  6
CONTINUOUS
 66
1
 70
0
  0
VERTEX
  8
2_FEATURE
 62
7
  6
CONTINUOUS
 10
159.3441732735
 20
93.3741876309
  0
VERTEX
  8
2_FEATURE
 62
7
  6
CONTINUOUS
 10
159.2677855112
 20
93.3459645197
  0
VERTEX
  8
2_FEATURE
 62
7
  6
CONTINUOUS
 10
159.2382616545
 20
93.3356838291
  0
VERTEX
  8
2_FEATURE
 62
7
  6
CONTINUOUS
 10
159.2144747545
 20
93.3283584096
  0
SEQEND
  0
POLYLINE
  8
2_FEATURE
 62
7
  6
CONTINUOUS
 66
1
 70
0
  0
VERTEX
  8
2_FEATURE
 62
7
  6
CONTINUOUS
 10
159.5574564079
 20
93.4437628058
  0
VERTEX
  8
2_FEATURE
 62
7
  6
CONTINUOUS
 10
159.4986077846
 20
93.4269607293
  0
VERTEX
  8
2_FEATURE
 62
7
  6
CONTINUOUS
 10
159.4427080462
 20
93.4091017193
  0
VERTEX
  8
2_FEATURE
 62
7
  6
CONTINUOUS
 10
159.3909036653
 20
93.3911810272
  0
VERTEX
  8
2_FEATURE
 62
7
  6
CONTINUOUS
 10
159.3441732735
 20
93.3741876309
  0
SEQEND
  0
LINE
  8
0
 62
7
  6
CONTINUOUS
 10
147.4606629608
 20
148.4508090615
 11
149.3489806834
 21
148.4508090615
  0
LINE
  8
0
 62
7
  6
CONTINUOUS
 10
149.6292233661
 20
148.3279369306
 11
149.7997521858
 21
148.3281890649
  0
LINE
  8
0
 62
7
  6
CONTINUOUS
 10
149.3588162004
 20
148.4505299741
 11
149.3489806792
 21
148.4508090615
  0
LINE
  8
0
 62
7
  6
CONTINUOUS
 10
148.4960723914
 20
147.9562317356
 11
159.4228083254
 21
147.0828454565
  0
POLYLINE
  8
0
 62
7
  6
CONTINUOUS
 66
1
 70
0
  0
VERTEX
  8
0
 62
7
  6
CONTINUOUS
 10
149.358817682
 20
148.4505877928
  0
VERTEX
  8
0
 62
7
  6
CONTINUOUS
 10
149.3753587843
 20
148.4490748868
  0
VERTEX
  8
0
 62
7
  6
CONTINUOUS
 10
149.4006167262
 20
148.4439107678
  0
VERTEX
  8
0
 62
7
  6
CONTINUOUS
 10
149.4249204029
 20
148.4354178946
  0
VERTEX
  8
0
 62
7
  6
CONTINUOUS
 10
149.4478319395
 20
148.4237578871
  0
VERTEX
  8
0
 62
7
  6
CONTINUOUS
 10
149.468939046
 20
148.4091499448
  0
VERTEX
  8
0
 62
7
  6
CONTINUOUS
 10
149.4878612475
 20
148.3918682801
  0
VERTEX
  8
0
 62
7
  6
CONTINUOUS
 10
149.5042551425
 20
148.3722415874
  0
VERTEX
  8
0
 62
7
  6
CONTINUOUS
 10
149.5178249652
 20
148.3506479621
  0
VERTEX
  8
0
 62
7
  6
CONTINUOUS
 10
149.528331766
 20
148.3275073434
  0
VERTEX
  8
0
 62
7
  6
CONTINUOUS
 10
149.5356002246
 20
148.3032739715
  0
VERTEX
  8
0
 62
7
  6
CONTINUOUS
 10
149.5381179049
 20
148.2900368468
  0
SEQEND
  0
POLYLINE
  8
0
 62
7
  6
CONTINUOUS
 66
1
 70
0
  0
VERTEX
  8
0
 62
7
  6
CONTINUOUS
 10
149.6292233661
 20
148.3279369306
  0
VERTEX
  8
0
 62
7
  6
CONTINUOUS
 10
149.6209351298
 20
148.3289437074
  0
VERTEX
  8
0
 62
7
  6
CONTINUOUS
 10
149.6118031581
 20
148.3318673079
  0
VERTEX
  8
0
 62
7
  6
CONTINUOUS
 10
149.6019190872
 20
148.3364509453
  0
VERTEX
  8
0
 62
7
  6
CONTINUOUS
 10
149.591276883
 20
148.3423890559
  0
VERTEX
  8
0
 62
7
  6
CONTINUOUS
 10
149.5798242997
 20
148.3494499774
  0
VERTEX
  8
0
 62
7
  6
CONTINUOUS
 10
149.5674774385
 20
148.3574778262
  0
SEQEND
  0
POLYLINE
  8
2_FEATURE
 62
7
  6
CONTINUOUS
 66
1
 70
0
  0
VERTEX
  8
2_FEATURE
 62
7
  6
CONTINUOUS
 10
156.2494599462
 20
147.3364947592
  0
VERTEX
  8
2_FEATURE
 62
7
  6
CONTINUOUS
 10
156.3137431651
 20
147.3284433467
  0
VERTEX
  8
2_FEATURE
 62
7
  6
CONTINUOUS
 10
156.3833619932
 20
147.3128986992
  0
VERTEX
  8
2_FEATURE
 62
7
  6
CONTINUOUS
 10
156.4460592954
 20
147.2922784587
  0
VERTEX
  8
2_FEATURE
 62
7
  6
CONTINUOUS
 10
156.5009541442
 20
147.2683642482
  0
VERTEX
  8
2_FEATURE
 62
7
  6
CONTINUOUS
 10
156.5475307153
 20
147.2430015594
  0
VERTEX
  8
2_FEATURE
 62
7
  6
CONTINUOUS
 10
156.5856342948
 20
147.2179969112
  0
VERTEX
  8
2_FEATURE
 62
7
  6
CONTINUOUS
 10
156.610287845
 20
147.1992487989
  0
SEQEND
  0
LINE
  8
2_FEATURE
 62
7
  6
CONTINUOUS
 10
159.1730118425
 20
146.4151957405
 11
159.1889098541
 21
146.4122909401
  0
POLYLINE
  8
2_FEATURE
 62
7
  6
CONTINUOUS
 66
1
 70
0
  0
VERTEX
  8
2_FEATURE
 62
7
  6
CONTINUOUS
 10
159.1889098541
 20
146.4122909401
  0
VERTEX
  8
2_FEATURE
 62
7
  6
CONTINUOUS
 10
159.2142387694
 20
146.4057328738
  0
VERTEX
  8
2_FEATURE
 62
7
  6
CONTINUOUS
 10
159.2460860756
 20
146.3964529135
  0
SEQEND
  0
POLYLINE
  8
2_FEATURE
 62
7
  6
CONTINUOUS
 66
1
 70
0
  0
VERTEX
  8
2_FEATURE
 62
7
  6
CONTINUOUS
 10
159.631632261
 20
146.2987208013
  0
VERTEX
  8
2_FEATURE
 62
7
  6
CONTINUOUS
 10
159.7611323825
 20
146.2621047026
  0
VERTEX
  8
2_FEATURE
 62
7
  6
CONTINUOUS
 10
159.8742742855
 20
146.222065721
  0
VERTEX
  8
2_FEATURE
 62
7
  6
CONTINUOUS
 10
159.9728717943
 20
146.1796997269
  0
VERTEX
  8
2_FEATURE
 62
7
  6
CONTINUOUS
 10
160.0585564488
 20
146.1357692412
  0
VERTEX
  8
2_FEATURE
 62
7
  6
CONTINUOUS
 10
160.1324925507
 20
146.0909356793
  0
VERTEX
  8
2_FEATURE
 62
7
  6
CONTINUOUS
 10
160.1957090129
 20
146.0457035048
  0
VERTEX
  8
2_FEATURE
 62
7
  6
CONTINUOUS
 10
160.2491852166
 20
146.0003922465
  0
VERTEX
  8
2_FEATURE
 62
7
  6
CONTINUOUS
 10
160.293643156
 20
145.9553467268
  0
SEQEND
  0
LINE
  8
2_FEATURE
 62
7
  6
CONTINUOUS
 10
162.9941375056
 20
146.0608937903
 11
159.4166807418
 21
147.0833352412
  0
POLYLINE
  8
2_FEATURE
 62
7
  6
CONTINUOUS
 66
1
 70
0
  0
VERTEX
  8
2_FEATURE
 62
7
  6
CONTINUOUS
 10
159.2460860756
 20
146.3964529135
  0
VERTEX
  8
2_FEATURE
 62
7
  6
CONTINUOUS
 10
159.3292557397
 20
146.3710034251
  0
VERTEX
  8
2_FEATURE
 62
7
  6
CONTINUOUS
 10
159.3803322398
 20
146.3558457214
  0
VERTEX
  8
2_FEATURE
 62
7
  6
CONTINUOUS
 10
159.437276998
 20
146.3400250414
  0
VERTEX
  8
2_FEATURE
 62
7
  6
CONTINUOUS
 10
159.4989884786
 20
146.3245674042
  0
VERTEX
  8
2_FEATURE
 62
7
  6
CONTINUOUS
 10
159.5642946802
 20
146.310482295
  0
VERTEX
  8
2_FEATURE
 62
7
  6
CONTINUOUS
 10
159.631632261
 20
146.2987208013
  0
SEQEND
  0
LINE
  8
0
 62
7
  6
CONTINUOUS
 10
147.6128371036
 20
154.2508090615
 11
163.0628371036
 21
154.2508090615
  0
POLYLINE
  8
0
 62
7
  6
CONTINUOUS
 66
1
 70
0
  0
VERTEX
  8
0
 62
7
  6
CONTINUOUS
 10
48.8182354925
 20
216.5507852788
  0
VERTEX
  8
0
 62
7
  6
CONTINUOUS
 10
48.8170201877
 20
216.5476627798
  0
VERTEX
  8
0
 62
7
  6
CONTINUOUS
 10
48.8167113452
 20
216.5395606521
  0
VERTEX
  8
0
 62
7
  6
CONTINUOUS
 10
48.8173117409
 20
216.5266588187
  0
VERTEX
  8
0
 62
7
  6
CONTINUOUS
 10
48.8188066445
 20
216.5092343654
  0
VERTEX
  8
0
 62
7
  6
CONTINUOUS
 10
48.8211636826
 20
216.4876573987
  0
VERTEX
  8
0
 62
7
  6
CONTINUOUS
 10
48.824333281
 20
216.4623833487
  0
VERTEX
  8
0
 62
7
  6
CONTINUOUS
 10
48.8282497256
 20
216.4339417871
  0
VERTEX
  8
0
 62
7
  6
CONTINUOUS
 10
48.8328327536
 20
216.4029227605
  0
VERTEX
  8
0
 62
7
  6
CONTINUOUS
 10
48.8379895565
 20
216.3699615477
  0
VERTEX
  8
0
 62
7
  6
CONTINUOUS
 10
48.8436170481
 20
216.3357228851
  0
VERTEX
  8
0
 62
7
  6
CONTINUOUS
 10
48.8496042
 20
216.3008858479
  0
VERTEX
  8
0
 62
7
  6
CONTINUOUS
 10
48.8558343975
 20
216.2661295918
  0
VERTEX
  8
0
 62
7
  6
CONTINUOUS
 10
48.8621876388
 20
216.2321208493
  0
SEQEND
  0
LINE
  8
AXES
 62
2
  6
CONTINUOUS
 10
51.6906147592
 20
209.4308204472
 11
51.6906147592
 21
207.6708204472
  0
LINE
  8
AXES
 62
2
  6
CENTER
 10
51.6906147592
 20
204.1508204472
 11
51.6906147592
 21
202.4008204472
  0
LINE
  8
AXES
 62
2
  6
CENTER
 10
51.6906147592
 20
212.9508204472
 11
51.6906147592
 21
214.7008204472
  0
LINE
  8
0
 62
7
  6
CONTINUOUS
 10
45.8274940812
 20
202.3967231337
 11
45.8260606637
 21
202.3980157813
  0
POLYLINE
  8
0
 62
7
  6
CONTINUOUS
 66
1
 70
0
  0
VERTEX
  8
0
 62
7
  6
CONTINUOUS
 10
45.6502975542
 20
202.5757474661
  0
VERTEX
  8
0
 62
7
  6
CONTINUOUS
 10
45.6080548029
 20
202.6180768716
  0
VERTEX
  8
0
 62
7
  6
CONTINUOUS
 10
45.5682900688
 20
202.659548797
  0
VERTEX
  8
0
 62
7
  6
CONTINUOUS
 10
45.5311751424
 20
202.6998044782
  0
VERTEX
  8
0
 62
7
  6
CONTINUOUS
 10
45.4967759526
 20
202.7387806375
  0
VERTEX
  8
0
 62
7
  6
CONTINUOUS
 10
45.4650509912
 20
202.7765818975
  0
VERTEX
  8
0
 62
7
  6
CONTINUOUS
 10
45.4358644198
 20
202.8133869868
  0
VERTEX
  8
0
 62
7
  6
CONTINUOUS
 10
45.4089957117
 20
202.8493932774
  0
VERTEX
  8
0
 62
7
  6
CONTINUOUS
 10
45.3841512765
 20
202.8847820458
  0
SEQEND
  0
POLYLINE
  8
0
 62
7
  6
CONTINUOUS
 66
1
 70
0
  0
VERTEX
  8
0
 62
7
  6
CONTINUOUS
 10
48.8184313026
 20
200.5508204472
  0
VERTEX
  8
0
 62
7
  6
CONTINUOUS
 10
48.8208037385
 20
200.5543935951
  0
VERTEX
  8
0
 62
7
  6
CONTINUOUS
 10
48.8238532266
 20
200.5650645751
  0
VERTEX
  8
0
 62
7
  6
CONTINUOUS
 10
48.8275139615
 20
200.5827242223
  0
VERTEX
  8
0
 62
7
  6
CONTINUOUS
 10
48.8317176907
 20
200.6072158531
  0
VERTEX
  8
0
 62
7
  6
CONTINUOUS
 10
48.8363937386
 20
200.6383368946
  0
VERTEX
  8
0
 62
7
  6
CONTINUOUS
 10
48.8414690413
 20
200.6758408062
  0
VERTEX
  8
0
 62
7
  6
CONTINUOUS
 10
48.8468681814
 20
200.7194392275
  0
VERTEX
  8
0
 62
7
  6
CONTINUOUS
 10
48.8525134271
 20
200.7688043904
  0
SEQEND
  0
POLYLINE
  8
0
 62
7
  6
CONTINUOUS
 66
1
 70
0
  0
VERTEX
  8
0
 62
7
  6
CONTINUOUS
 10
56.1397378332
 20
212.6415455779
  0
VERTEX
  8
0
 62
7
  6
CONTINUOUS
 10
56.1121446804
 20
212.6175407151
  0
VERTEX
  8
0
 62
7
  6
CONTINUOUS
 10
56.0852293309
 20
212.594980756
  0
VERTEX
  8
0
 62
7
  6
CONTINUOUS
 10
56.0594160912
 20
212.5742205377
  0
VERTEX
  8
0
 62
7
  6
CONTINUOUS
 10
56.0351113502
 20
212.5555861221
  0
VERTEX
  8
0
 62
7
  6
CONTINUOUS
 10
56.0126970606
 20
212.5393695552
  0
VERTEX
  8
0
 62
7
  6
CONTINUOUS
 10
55.9925245817
 20
212.5258241764
  0
VERTEX
  8
0
 62
7
  6
CONTINUOUS
 10
55.9749091727
 20
212.515160697
  0
VERTEX
  8
0
 62
7
  6
CONTINUOUS
 10
55.960125164
 20
212.5075440562
  0
VERTEX
  8
0
 62
7
  6
CONTINUOUS
 10
55.9484018777
 20
212.5030911039
  0
VERTEX
  8
0
 62
7
  6
CONTINUOUS
 10
55.939920288
 20
212.501869201
  0
VERTEX
  8
0
 62
7
  6
CONTINUOUS
 10
55.9348119368
 20
212.5038939645
  0
SEQEND
  0
POLYLINE
  8
0
 62
7
  6
CONTINUOUS
 66
1
 70
0
  0
VERTEX
  8
0
 62
7
  6
CONTINUOUS
 10
47.2414916853
 20
212.641545578
  0
VERTEX
  8
0
 62
7
  6
CONTINUOUS
 10
47.2690848383
 20
212.6175407153
  0
VERTEX
  8
0
 62
7
  6
CONTINUOUS
 10
47.2960001879
 20
212.5949807564
  0
VERTEX
  8
0
 62
7
  6
CONTINUOUS
 10
47.3218134278
 20
212.5742205383
  0
VERTEX
  8
0
 62
7
  6
CONTINUOUS
 10
47.346118169
 20
212.5555861229
  0
VERTEX
  8
0
 62
7
  6
CONTINUOUS
 10
47.3685324587
 20
212.5393695561
  0
VERTEX
  8
0
 62
7
  6
CONTINUOUS
 10
47.3887049377
 20
212.5258241775
  0
VERTEX
  8
0
 62
7
  6
CONTINUOUS
 10
47.406320347
 20
212.5151606984
  0
VERTEX
  8
0
 62
7
  6
CONTINUOUS
 10
47.421104356
 20
212.5075440579
  0
VERTEX
  8
0
 62
7
  6
CONTINUOUS
 10
47.432827643
 20
212.5030911063
  0
VERTEX
  8
0
 62
7
  6
CONTINUOUS
 10
47.4413092345
 20
212.5018692054
  0
VERTEX
  8
0
 62
7
  6
CONTINUOUS
 10
47.4464175816
 20
212.5038939646
  0
SEQEND
  0
POLYLINE
  8
0
 62
7
  6
CONTINUOUS
 66
1
 70
0
  0
VERTEX
  8
0
 62
7
  6
CONTINUOUS
 10
56.1397378332
 20
212.641545577
  0
VERTEX
  8
0
 62
7
  6
CONTINUOUS
 10
56.1472076241
 20
212.6468770112
  0
VERTEX
  8
0
 62
7
  6
CONTINUOUS
 10
56.1569594922
 20
212.6511454822
  0
VERTEX
  8
0
 62
7
  6
CONTINUOUS
 10
56.1686017306
 20
212.6537834155
  0
VERTEX
  8
0
 62
7
  6
CONTINUOUS
 10
56.1819067996
 20
212.6546640854
  0
SEQEND
  0
POLYLINE
  8
0
 62
7
  6
CONTINUOUS
 66
1
 70
0
  0
VERTEX
  8
0
 62
7
  6
CONTINUOUS
 10
48.8525134271
 20
200.7688043904
  0
VERTEX
  8
0
 62
7
  6
CONTINUOUS
 10
48.4414028025
 20
200.8919498054
  0
VERTEX
  8
0
 62
7
  6
CONTINUOUS
 10
48.0414883141
 20
201.0367285595
  0
VERTEX
  8
0
 62
7
  6
CONTINUOUS
 10
47.6535038014
 20
201.2024911153
  0
VERTEX
  8
0
 62
7
  6
CONTINUOUS
 10
47.2789297972
 20
201.3882397273
  0
VERTEX
  8
0
 62
7
  6
CONTINUOUS
 10
46.9189813033
 20
201.5929589589
  0
VERTEX
  8
0
 62
7
  6
CONTINUOUS
 10
46.5749018366
 20
201.8154863748
  0
VERTEX
  8
0
 62
7
  6
CONTINUOUS
 10
46.2479269941
 20
202.0545073649
  0
VERTEX
  8
0
 62
7
  6
CONTINUOUS
 10
45.9393034238
 20
202.3085122694
  0
VERTEX
  8
0
 62
7
  6
CONTINUOUS
 10
45.6502975542
 20
202.5757474661
  0
SEQEND
  0
POLYLINE
  8
0
 62
7
  6
CONTINUOUS
 66
1
 70
0
  0
VERTEX
  8
0
 62
7
  6
CONTINUOUS
 10
47.2414916853
 20
212.6415455771
  0
VERTEX
  8
0
 62
7
  6
CONTINUOUS
 10
47.2340218945
 20
212.6468770112
  0
VERTEX
  8
0
 62
7
  6
CONTINUOUS
 10
47.2242700265
 20
212.6511454821
  0
VERTEX
  8
0
 62
7
  6
CONTINUOUS
 10
47.2126277884
 20
212.6537834153
  0
VERTEX
  8
0
 62
7
  6
CONTINUOUS
 10
47.1993227198
 20
212.6546640854
  0
SEQEND
  0
POLYLINE
  8
0
 62
7
  6
CONTINUOUS
 66
1
 70
0
  0
VERTEX
  8
0
 62
7
  6
CONTINUOUS
 10
44.5487309278
 20
212.660791669
  0
VERTEX
  8
0
 62
7
  6
CONTINUOUS
 10
44.5219671477
 20
212.676483506
  0
VERTEX
  8
0
 62
7
  6
CONTINUOUS
 10
44.4957924535
 20
212.6925223993
  0
VERTEX
  8
0
 62
7
  6
CONTINUOUS
 10
44.4706087403
 20
212.7086613577
  0
VERTEX
  8
0
 62
7
  6
CONTINUOUS
 10
44.4468022551
 20
212.7246521278
  0
VERTEX
  8
0
 62
7
  6
CONTINUOUS
 10
44.4247375162
 20
212.740249091
  0
VERTEX
  8
0
 62
7
  6
CONTINUOUS
 10
44.4047516099
 20
212.7552131119
  0
VERTEX
  8
0
 62
7
  6
CONTINUOUS
 10
44.3871489544
 20
212.7693152764
  0
VERTEX
  8
0
 62
7
  6
CONTINUOUS
 10
44.3721966595
 20
212.7823404251
  0
VERTEX
  8
0
 62
7
  6
CONTINUOUS
 10
44.3601205419
 20
212.7940904284
  0
VERTEX
  8
0
 62
7
  6
CONTINUOUS
 10
44.351101852
 20
212.8043871497
  0
VERTEX
  8
0
 62
7
  6
CONTINUOUS
 10
44.3452747467
 20
212.8130750495
  0
VERTEX
  8
0
 62
7
  6
CONTINUOUS
 10
44.3427245027
 20
212.8200234062
  0
VERTEX
  8
0
 62
7
  6
CONTINUOUS
 10
44.3434866048
 20
212.8251283304
  0
SEQEND
  0
POLYLINE
  8
2_FEATURE
 62
7
  6
CONTINUOUS
 66
1
 70
0
  0
VERTEX
  8
2_FEATURE
 62
7
  6
CONTINUOUS
 10
59.3520785277
 20
212.7369718222
  0
VERTEX
  8
2_FEATURE
 62
7
  6
CONTINUOUS
 10
59.3143867729
 20
212.8022780238
  0
VERTEX
  8
2_FEATURE
 62
7
  6
CONTINUOUS
 10
59.2831691714
 20
212.8696156046
  0
SEQEND
  0
POLYLINE
  8
2_FEATURE
 62
7
  6
CONTINUOUS
 66
1
 70
0
  0
VERTEX
  8
2_FEATURE
 62
7
  6
CONTINUOUS
 10
59.2831691714
 20
212.8696156046
  0
VERTEX
  8
2_FEATURE
 62
7
  6
CONTINUOUS
 10
59.2087719447
 20
212.9991157262
  0
VERTEX
  8
2_FEATURE
 62
7
  6
CONTINUOUS
 10
59.142853055
 20
213.1122576291
  0
VERTEX
  8
2_FEATURE
 62
7
  6
CONTINUOUS
 10
59.0846751601
 20
213.2108551379
  0
VERTEX
  8
2_FEATURE
 62
7
  6
CONTINUOUS
 10
59.0334066084
 20
213.2965397924
  0
VERTEX
  8
2_FEATURE
 62
7
  6
CONTINUOUS
 10
58.9883860141
 20
213.3704758944
  0
VERTEX
  8
2_FEATURE
 62
7
  6
CONTINUOUS
 10
58.9647305995
 20
213.4084256766
  0
SEQEND
  0
POLYLINE
  8
0
 62
7
  6
CONTINUOUS
 66
1
 70
0
  0
VERTEX
  8
0
 62
7
  6
CONTINUOUS
 10
58.4212196568
 20
212.6676830905
  0
VERTEX
  8
0
 62
7
  6
CONTINUOUS
 10
58.398626301
 20
212.6606006668
  0
VERTEX
  8
0
 62
7
  6
CONTINUOUS
 10
58.3744706809
 20
212.656198729
  0
VERTEX
  8
0
 62
7
  6
CONTINUOUS
 10
58.348393869
 20
212.6546640854
  0
SEQEND
  0
POLYLINE
  8
0
 62
7
  6
CONTINUOUS
 66
1
 70
0
  0
VERTEX
  8
0
 62
7
  6
CONTINUOUS
 10
44.5487309278
 20
212.660791669
  0
VERTEX
  8
0
 62
7
  6
CONTINUOUS
 10
44.5559184892
 20
212.6575004218
  0
VERTEX
  8
0
 62
7
  6
CONTINUOUS
 10
44.5641356628
 20
212.6554072179
  0
VERTEX
  8
0
 62
7
  6
CONTINUOUS
 10
44.5735660081
 20
212.6546640854
  0
SEQEND
  0
LINE
  8
0
 62
7
  6
CONTINUOUS
 10
48.8184313026
 20
200.5508204472
 11
56.1906147592
 21
200.5508204472
  0
LINE
  8
2_FEATURE
 62
7
  6
CONTINUOUS
 10
97.9906147592
 20
200.5508204472
 11
105.3628960824
 21
200.5508204472
  0
LINE
  8
2_FEATURE
 62
7
  6
CONTINUOUS
 10
75.8894854149
 20
200.6008204472
 11
78.2917441034
 21
200.6008204472
  0
LINE
  8
0
 62
7
  6
CONTINUOUS
 10
48.8525134271
 20
200.7688043904
 11
56.1906147733
 21
200.7688043904
  0
POLYLINE
  8
0
 62
7
  6
CONTINUOUS
 66
1
 70
0
  0
VERTEX
  8
0
 62
7
  6
CONTINUOUS
 10
57.8510141739
 20
201.0548966881
  0
VERTEX
  8
0
 62
7
  6
CONTINUOUS
 10
57.8180309629
 20
201.029888879
  0
VERTEX
  8
0
 62
7
  6
CONTINUOUS
 10
57.7815855086
 20
201.0062170426
  0
VERTEX
  8
0
 62
7
  6
CONTINUOUS
 10
57.7414690698
 20
200.9842867254
  0
VERTEX
  8
0
 62
7
  6
CONTINUOUS
 10
57.6977362076
 20
200.9645458502
  0
VERTEX
  8
0
 62
7
  6
CONTINUOUS
 10
57.6506781442
 20
200.9474795541
  0
VERTEX
  8
0
 62
7
  6
CONTINUOUS
 10
57.6007605493
 20
200.9335869112
  0
SEQEND
  0
POLYLINE
  8
0
 62
7
  6
CONTINUOUS
 66
1
 70
0
  0
VERTEX
  8
0
 62
7
  6
CONTINUOUS
 10
57.6007605493
 20
200.9335869112
  0
VERTEX
  8
0
 62
7
  6
CONTINUOUS
 10
57.3230136625
 20
200.8745121732
  0
VERTEX
  8
0
 62
7
  6
CONTINUOUS
 10
57.0424220636
 20
200.828373469
  0
VERTEX
  8
0
 62
7
  6
CONTINUOUS
 10
56.759693924
 20
200.7953149592
  0
VERTEX
  8
0
 62
7
  6
CONTINUOUS
 10
56.4755350819
 20
200.7754381829
  0
VERTEX
  8
0
 62
7
  6
CONTINUOUS
 10
56.1906147733
 20
200.7688043904
  0
SEQEND
  0
POLYLINE
  8
2_FEATURE
 62
7
  6
CONTINUOUS
 66
1
 70
0
  0
VERTEX
  8
2_FEATURE
 62
7
  6
CONTINUOUS
 10
63.9649157662
 20
210.9555461333
  0
VERTEX
  8
2_FEATURE
 62
7
  6
CONTINUOUS
 10
62.5951249303
 20
211.4382021382
  0
VERTEX
  8
2_FEATURE
 62
7
  6
CONTINUOUS
 10
61.2227547044
 20
211.9148161557
  0
SEQEND
  0
LINE
  8
2_FEATURE
 62
7
  6
CONTINUOUS
 10
59.7471270382
 20
212.4524580981
 11
70.5783407142
 21
208.608412227
  0
POLYLINE
  8
2_FEATURE
 62
7
  6
CONTINUOUS
 66
1
 70
0
  0
VERTEX
  8
2_FEATURE
 62
7
  6
CONTINUOUS
 10
59.7312270662
 20
212.4268931977
  0
VERTEX
  8
2_FEATURE
 62
7
  6
CONTINUOUS
 10
59.6712223303
 20
212.452222113
  0
VERTEX
  8
2_FEATURE
 62
7
  6
CONTINUOUS
 10
59.6115306735
 20
212.4840694193
  0
VERTEX
  8
2_FEATURE
 62
7
  6
CONTINUOUS
 10
59.5533213163
 20
212.5223895654
  0
VERTEX
  8
2_FEATURE
 62
7
  6
CONTINUOUS
 10
59.4973061445
 20
212.5672390833
  0
VERTEX
  8
2_FEATURE
 62
7
  6
CONTINUOUS
 10
59.4444885722
 20
212.6183155834
  0
VERTEX
  8
2_FEATURE
 62
7
  6
CONTINUOUS
 10
59.3956939912
 20
212.6752603416
  0
VERTEX
  8
2_FEATURE
 62
7
  6
CONTINUOUS
 10
59.3520785277
 20
212.7369718222
  0
SEQEND
  0
LINE
  8
2_FEATURE
 62
7
  6
CONTINUOUS
 10
73.4206479997
 20
207.9417718249
 11
75.5058932342
 21
200.8874315636
  0
LINE
  8
AXES
 62
2
  6
CENTER
 10
77.0906147592
 20
198.1825912183
 11
77.0906147592
 21
220.7831068244
  0
LINE
  8
AXES
 62
2
  6
CONTINUOUS
 10
103.3706147592
 20
208.5508204472
 11
101.6106147592
 21
208.5508204472
  0
LINE
  8
AXES
 62
2
  6
CENTER
 10
98.0906147592
 20
208.5508204472
 11
96.3406147592
 21
208.5508204472
  0
LINE
  8
AXES
 62
2
  6
CONTINUOUS
 10
52.5706147592
 20
208.5508204472
 11
50.8106147592
 21
208.5508204472
  0
LINE
  8
AXES
 62
2
  6
CENTER
 10
47.2906147592
 20
208.5508204472
 11
45.5406147592
 21
208.5508204472
  0
LINE
  8
AXES
 62
2
  6
CENTER
 10
56.0906147592
 20
208.5508204472
 11
57.8406147592
 21
208.5508204472
  0
LINE
  8
2_FEATURE
 62
7
  6
CONTINUOUS
 10
70.9128055799
 20
208.5508204472
 11
72.6055146158
 21
208.5508204472
  0
LINE
  8
2_FEATURE
 62
7
  6
CONTINUOUS
 10
81.5757149025
 20
208.5508204472
 11
83.2684239384
 21
208.5508204472
  0
LINE
  8
AXES
 62
2
  6
CENTER
 10
106.8906147592
 20
208.5508204472
 11
108.6406147592
 21
208.5508204472
  0
POLYLINE
  8
2_FEATURE
 62
7
  6
CONTINUOUS
 66
1
 70
0
  0
VERTEX
  8
2_FEATURE
 62
7
  6
CONTINUOUS
 10
61.2227547044
 20
211.9148161557
  0
VERTEX
  8
2_FEATURE
 62
7
  6
CONTINUOUS
 10
59.8183591363
 20
212.3955346752
  0
VERTEX
  8
2_FEATURE
 62
7
  6
CONTINUOUS
 10
59.7747832152
 20
212.4109951862
  0
VERTEX
  8
2_FEATURE
 62
7
  6
CONTINUOUS
 10
59.7312270662
 20
212.4268931977
  0
SEQEND
  0
POLYLINE
  8
2_FEATURE
 62
7
  6
CONTINUOUS
 66
1
 70
0
  0
VERTEX
  8
2_FEATURE
 62
7
  6
CONTINUOUS
 10
59.2831691714
 20
212.8696156046
  0
VERTEX
  8
2_FEATURE
 62
7
  6
CONTINUOUS
 10
59.2558075486
 20
212.8795056944
  0
VERTEX
  8
2_FEATURE
 62
7
  6
CONTINUOUS
 10
59.2217755666
 20
212.8843041298
  0
VERTEX
  8
2_FEATURE
 62
7
  6
CONTINUOUS
 10
59.1814027122
 20
212.8844974325
  0
VERTEX
  8
2_FEATURE
 62
7
  6
CONTINUOUS
 10
59.1349088891
 20
212.8805360423
  0
VERTEX
  8
2_FEATURE
 62
7
  6
CONTINUOUS
 10
59.0825652633
 20
212.8727409255
  0
VERTEX
  8
2_FEATURE
 62
7
  6
CONTINUOUS
 10
59.0247140805
 20
212.8613576425
  0
VERTEX
  8
2_FEATURE
 62
7
  6
CONTINUOUS
 10
58.9617555571
 20
212.8465960164
  0
VERTEX
  8
2_FEATURE
 62
7
  6
CONTINUOUS
 10
58.8941466873
 20
212.8286568407
  0
VERTEX
  8
2_FEATURE
 62
7
  6
CONTINUOUS
 10
58.8223911527
 20
212.8077480331
  0
VERTEX
  8
2_FEATURE
 62
7
  6
CONTINUOUS
 10
58.7470274932
 20
212.784094673
  0
VERTEX
  8
2_FEATURE
 62
7
  6
CONTINUOUS
 10
58.6686249848
 20
212.7579487191
  0
VERTEX
  8
2_FEATURE
 62
7
  6
CONTINUOUS
 10
58.5877770075
 20
212.7295977554
  0
VERTEX
  8
2_FEATURE
 62
7
  6
CONTINUOUS
 10
58.5050985079
 20
212.6993767887
  0
VERTEX
  8
2_FEATURE
 62
7
  6
CONTINUOUS
 10
58.4212196568
 20
212.6676830907
  0
SEQEND
  0
LINE
  8
2_FEATURE
 62
7
  6
CONTINUOUS
 10
83.6028888041
 20
208.608412227
 11
86.8255055687
 21
209.7521332391
  0
LINE
  8
2_FEATURE
 62
7
  6
CONTINUOUS
 10
78.6753362841
 20
200.8874315636
 11
80.7605815186
 21
207.9417718249
  0
LINE
  8
0
 62
7
  6
CONTINUOUS
 10
58.348393869
 20
212.6546640854
 11
56.1819067996
 21
212.6546640854
  0
LINE
  8
0
 62
7
  6
CONTINUOUS
 10
47.1993227198
 20
212.6546640854
 11
44.5735660081
 21
212.6546640854
  0
LINE
  8
2_FEATURE
 62
7
  6
CONTINUOUS
 10
105.3628960824
 20
216.5508204472
 11
56.2663660636
 21
216.5508204472
  0
LINE
  8
0
 62
7
  6
CONTINUOUS
 10
56.2663660636
 20
216.5508204472
 11
48.8183334359
 21
216.5508204472
  0
LINE
  8
AXES
 62
2
  6
CONTINUOUS
 10
102.4906147592
 20
209.4308204472
 11
102.4906147592
 21
207.6708204472
  0
LINE
  8
AXES
 62
2
  6
CENTER
 10
102.4906147592
 20
204.1508204472
 11
102.4906147592
 21
202.4008204472
  0
LINE
  8
AXES
 62
2
  6
CENTER
 10
102.4906147592
 20
212.9508204472
 11
102.4906147592
 21
214.7008204472
  0
LINE
  8
2_FEATURE
 62
7
  6
CONTINUOUS
 10
105.3611483306
 20
200.5682211671
 11
105.3628960824
 21
200.5508204472
  0
LINE
  8
2_FEATURE
 62
7
  6
CONTINUOUS
 10
105.3563700714
 20
200.6195954213
 11
105.3611483306
 21
200.5682211671
  0
LINE
  8
2_FEATURE
 62
7
  6
CONTINUOUS
 10
105.3493003829
 20
200.7028594668
 11
105.3563700714
 21
200.6195954213
  0
POLYLINE
  8
2_FEATURE
 62
7
  6
CONTINUOUS
 66
1
 70
0
  0
VERTEX
  8
2_FEATURE
 62
7
  6
CONTINUOUS
 10
105.3079912688
 20
201.5508204472
  0
VERTEX
  8
2_FEATURE
 62
7
  6
CONTINUOUS
 10
105.3094829095
 20
201.459474604
  0
VERTEX
  8
2_FEATURE
 62
7
  6
CONTINUOUS
 10
105.3118302366
 20
201.3687950736
  0
VERTEX
  8
2_FEATURE
 62
7
  6
CONTINUOUS
 10
105.3148881227
 20
201.2795446009
  0
VERTEX
  8
2_FEATURE
 62
7
  6
CONTINUOUS
 10
105.3185175623
 20
201.1924766943
  0
VERTEX
  8
2_FEATURE
 62
7
  6
CONTINUOUS
 10
105.3225851723
 20
201.1083299621
  0
VERTEX
  8
2_FEATURE
 62
7
  6
CONTINUOUS
 10
105.3269625403
 20
201.0278224669
  0
VERTEX
  8
2_FEATURE
 62
7
  6
CONTINUOUS
 10
105.3315257602
 20
200.9516460056
  0
VERTEX
  8
2_FEATURE
 62
7
  6
CONTINUOUS
 10
105.336155091
 20
200.8804605945
  0
VERTEX
  8
2_FEATURE
 62
7
  6
CONTINUOUS
 10
105.3407347215
 20
200.814888956
  0
VERTEX
  8
2_FEATURE
 62
7
  6
CONTINUOUS
 10
105.3493003829
 20
200.7028594668
  0
SEQEND
  0
LINE
  8
2_FEATURE
 62
7
  6
CONTINUOUS
 10
105.3190418733
 20
216.3008204472
 11
105.3628960824
 21
216.5508204472
  0
LINE
  8
2_FEATURE
 62
7
  6
CONTINUOUS
 10
109.6306147592
 20
203.9388360591
 11
109.6306147592
 21
203.938960127
  0
ARC
  8
0
 62
7
  6
CONTINUOUS
 10
98.6648634524
 20
103.5512692599
 40
0.4999999984
 50
90.0
 51
180.0
  0
ARC
  8
0
 62
7
  6
CONTINUOUS
 10
55.516366066
 20
104.350348863
 40
0.4999999984
 50
270.0
 51
360.0
  0
ARC
  8
0
 62
7
  6
CONTINUOUS
 10
98.6648634524
 20
112.7503488631
 40
0.4999999984
 50
180.0
 51
270.0
  0
ARC
  8
0
 62
7
  6
CONTINUOUS
 10
55.516366066
 20
111.95126926
 40
0.4999999984
 50
0.0
 51
90.0
  0
ARC
  8
0
 62
7
  6
CONTINUOUS
 10
98.6648634524
 20
95.9503488631
 40
0.4999999984
 50
180.0
 51
270.0
  0
ARC
  8
0
 62
7
  6
CONTINUOUS
 10
55.516366066
 20
95.15126926
 40
0.4999999984
 50
0.0
 51
90.0
  0
ARC
  8
0
 62
7
  6
CONTINUOUS
 10
98.6648634524
 20
129.5503488631
 40
0.4999999984
 50
180.0
 51
270.0
  0
ARC
  8
0
 62
7
  6
CONTINUOUS
 10
55.516366066
 20
128.75126926
 40
0.4999999984
 50
0.0
 51
90.0
  0
ARC
  8
0
 62
7
  6
CONTINUOUS
 10
98.6648634524
 20
120.3512692599
 40
0.4999999984
 50
90.0
 51
180.0
  0
ARC
  8
0
 62
7
  6
CONTINUOUS
 10
55.516366066
 20
121.150348863
 40
0.4999999984
 50
270.0
 51
360.0
  0
ARC
  8
0
 62
7
  6
CONTINUOUS
 10
98.6648634524
 20
137.1512692599
 40
0.4999999984
 50
90.0
 51
180.0
  0
ARC
  8
0
 62
7
  6
CONTINUOUS
 10
55.516366066
 20
137.950348863
 40
0.4999999984
 50
270.0
 51
360.0
  0
ARC
  8
0
 62
7
  6
CONTINUOUS
 10
98.6648634524
 20
146.3503488631
 40
0.4999999984
 50
180.0
 51
270.0
  0
ARC
  8
2_FEATURE
 62
7
  6
CONTINUOUS
 10
55.516366066
 20
145.55126926
 40
0.4999999984
 50
0.0
 51
90.0
  0
ARC
  8
0
 62
7
  6
CONTINUOUS
 10
148.3128371036
 20
148.9740673441
 40
1.0
 50
180.0
 51
211.5510655343
  0
ARC
  8
2_FEATURE
 62
7
  6
CONTINUOUS
 10
148.3128371036
 20
88.2508090615
 40
1.0
 50
180.0
 51
198.0152001358
  0
ARC
  8
0
 62
7
  6
CONTINUOUS
 10
148.3128371036
 20
142.9275507789
 40
1.0
 50
161.9655032869
 51
180.0
  0
ARC
  8
0
 62
7
  6
CONTINUOUS
 10
148.3128371036
 20
134.5275507789
 40
1.0
 50
94.57
 51
180.0
  0
ARC
  8
0
 62
7
  6
CONTINUOUS
 10
148.3128371036
 20
140.5740673441
 40
1.0
 50
180.0
 51
198.0720283366
  0
ARC
  8
0
 62
7
  6
CONTINUOUS
 10
148.3128371036
 20
117.7275507789
 40
1.0
 50
94.57
 51
180.0
  0
ARC
  8
0
 62
7
  6
CONTINUOUS
 10
148.3128371036
 20
123.7740673441
 40
1.0
 50
180.0
 51
198.0720283366
  0
ARC
  8
0
 62
7
  6
CONTINUOUS
 10
148.3128371036
 20
132.1740673441
 40
1.0
 50
180.0
 51
265.43
  0
ARC
  8
0
 62
7
  6
CONTINUOUS
 10
148.3128371036
 20
126.1275507789
 40
1.0
 50
161.9279716634
 51
180.0
  0
ARC
  8
0
 62
7
  6
CONTINUOUS
 10
148.3128371036
 20
98.5740673441
 40
1.0
 50
180.0
 51
218.5544639061
  0
ARC
  8
0
 62
7
  6
CONTINUOUS
 10
148.3128371036
 20
92.5275507789
 40
1.0
 50
161.9853762339
 51
180.0
  0
ARC
  8
0
 62
7
  6
CONTINUOUS
 10
148.3128371036
 20
115.3740673441
 40
1.0
 50
180.0
 51
265.43
  0
ARC
  8
0
 62
7
  6
CONTINUOUS
 10
148.3128371036
 20
109.3275507789
 40
1.0
 50
161.9279716634
 51
180.0
  0
ARC
  8
0
 62
7
  6
CONTINUOUS
 10
148.3128371036
 20
100.9275507789
 40
1.0
 50
94.57
 51
180.0
  0
ARC
  8
0
 62
7
  6
CONTINUOUS
 10
148.3128371036
 20
106.9740673441
 40
1.0
 50
180.0
 51
198.0720283366
  0
ARC
  8
0
 62
7
  6
CONTINUOUS
 10
148.3128371036
 20
153.2508090615
 40
1.0
 50
90.0
 51
180.0
  0
ARC
  8
2_FEATURE
 62
7
  6
CONTINUOUS
 10
163.0628371036
 20
146.3012692576
 40
0.25
 50
254.05
 51
360.0
  0
ARC
  8
2_FEATURE
 62
7
  6
CONTINUOUS
 10
147.6128371036
 20
87.5008090615
 40
0.25
 50
180.0
 51
270.0
  0
ARC
  8
2_FEATURE
 62
7
  6
CONTINUOUS
 10
155.5628371036
 20
87.5008090615
 40
0.25
 50
180.0
 51
270.0
  0
ARC
  8
0
 62
7
  6
CONTINUOUS
 10
147.6128371036
 20
154.0008090615
 40
0.25
 50
90.0
 51
180.0
  0
ARC
  8
0
 62
7
  6
CONTINUOUS
 10
163.0628371036
 20
137.2003488654
 40
0.25
 50
0.0
 51
105.95
  0
ARC
  8
0
 62
7
  6
CONTINUOUS
 10
163.0628371036
 20
120.4003488654
 40
0.25
 50
0.0
 51
105.95
  0
ARC
  8
0
 62
7
  6
CONTINUOUS
 10
163.0628371036
 20
129.5012692576
 40
0.25
 50
254.05
 51
360.0
  0
ARC
  8
0
 62
7
  6
CONTINUOUS
 10
163.0628371036
 20
95.9012692576
 40
0.25
 50
254.05
 51
360.0
  0
ARC
  8
0
 62
7
  6
CONTINUOUS
 10
163.0628371036
 20
112.7012692576
 40
0.25
 50
254.05
 51
360.0
  0
ARC
  8
0
 62
7
  6
CONTINUOUS
 10
163.0628371036
 20
103.6003488654
 40
0.25
 50
0.0
 51
105.95
  0
ARC
  8
0
 62
7
  6
CONTINUOUS
 10
163.0628371036
 20
154.0008090615
 40
0.25
 50
0.0
 51
90.0
  0
ARC
  8
2_FEATURE
 62
7
  6
CONTINUOUS
 10
163.0628371036
 20
87.5008090615
 40
0.25
 50
270.0
 51
360.0
  0
ARC
  8
2_FEATURE
 62
7
  6
CONTINUOUS
 10
52.7748937183
 20
173.5123796433
 40
50.0
 50
36.1550324174
 51
46.2693085463
  0
ARC
  8
2_FEATURE
 62
7
  6
CONTINUOUS
 10
51.6906147592
 20
208.5508204472
 40
8.75
 50
29.0189816931
 51
59.4415682141
  0
ARC
  8
0
 62
7
  6
CONTINUOUS
 10
51.6906147592
 20
208.5508204472
 40
8.5
 50
109.750624271
 51
250.2500772044
  0
ARC
  8
0
 62
7
  6
CONTINUOUS
 10
56.1906147592
 20
206.5508204472
 40
6.0
 50
270.0
 51
323.8449675826
  0
ARC
  8
0
 62
7
  6
CONTINUOUS
 10
51.6906147592
 20
208.5508204472
 40
5.8
 50
13.2203469686
 51
166.7796527093
  0
CIRCLE
  8
0
 62
7
  6
CONTINUOUS
 10
51.6906147592
 20
208.5508204472
 40
4.15
  0
ARC
  8
2_FEATURE
 62
7
  6
CONTINUOUS
 10
59.9979756875
 20
213.1592642633
 40
0.75
 50
209.0189816931
 51
250.46
  0
ARC
  8
0
 62
7
  6
CONTINUOUS
 10
56.2663660636
 20
216.3008204472
 40
0.25
 50
231.6583608333
 51
239.4415682141
  0
ARC
  8
0
 62
7
  6
CONTINUOUS
 10
56.2663660636
 20
216.3008204472
 40
0.25
 50
90.0
 51
195.95
  0
ARC
  8
2_FEATURE
 62
7
  6
CONTINUOUS
 10
56.2663660636
 20
216.3008204472
 40
0.25
 50
90.0
 51
239.4415682141
  0
ARC
  8
2_FEATURE
 62
7
  6
CONTINUOUS
 10
72.6055146158
 20
207.7008204472
 40
0.85
 50
16.467546793
 51
90.0
  0
ARC
  8
2_FEATURE
 62
7
  6
CONTINUOUS
 10
75.8894854149
 20
201.0008204472
 40
0.4
 50
196.467546793
 51
270.0
  0
ARC
  8
0
 62
7
  6
CONTINUOUS
 10
75.8894854149
 20
201.0008204472
 40
0.4
 50
203.0437580482
 51
263.4237889048
  0
ARC
  8
2_FEATURE
 62
7
  6
CONTINUOUS
 10
70.9128055799
 20
209.5508204472
 40
1.0
 50
250.46
 51
270.0
  0
ARC
  8
0
 62
7
  6
CONTINUOUS
 10
67.1884915151
 20
209.2809291296
 40
0.4999999985
 50
70.46
 51
133.7306912581
  0
ARC
  8
0
 62
7
  6
CONTINUOUS
 10
101.4063358
 20
173.5123796433
 40
50.0
 50
133.7306914526
 51
143.8449675826
  0
ARC
  8
2_FEATURE
 62
7
  6
CONTINUOUS
 10
78.2917441034
 20
201.0008204472
 40
0.4
 50
270.0
 51
343.532453207
  0
ARC
  8
2_FEATURE
 62
7
  6
CONTINUOUS
 10
83.2684239384
 20
209.5508204472
 40
1.0
 50
270.0
 51
289.54
  0
ARC
  8
2_FEATURE
 62
7
  6
CONTINUOUS
 10
81.5757149025
 20
207.7008204472
 40
0.85
 50
90.0
 51
163.532453207
  0
ARC
  8
2_FEATURE
 62
7
  6
CONTINUOUS
 10
86.9927380016
 20
209.280929129
 40
0.5000000002
 50
46.2693085463
 51
109.54
  0
ARC
  8
0
 62
7
  6
CONTINUOUS
 10
102.4906147592
 20
208.5508204472
 40
8.5
 50
30.2677090841
 51
70.2305695278
  0
ARC
  8
0
 62
7
  6
CONTINUOUS
 10
102.4906147592
 20
208.5508204472
 40
8.5
 50
290.6711714695
 51
313.6259563118
  0
ARC
  8
0
 62
7
  6
CONTINUOUS
 10
102.4906147592
 20
208.5508204472
 40
8.5
 50
319.5721520823
 51
29.8575825706
  0
ARC
  8
2_FEATURE
 62
7
  6
CONTINUOUS
 10
102.4906147592
 20
208.5508204472
 40
8.5
 50
289.7499227956
 51
70.2500772044
  0
ARC
  8
0
 62
7
  6
CONTINUOUS
 10
97.9906147592
 20
206.5508204472
 40
6.0
 50
217.2364900938
 51
268.9194510187
  0
ARC
  8
2_FEATURE
 62
7
  6
CONTINUOUS
 10
97.9906147592
 20
206.5508204472
 40
6.0
 50
216.1550324174
 51
270.0
  0
CIRCLE
  8
2_FEATURE
 62
7
  6
CONTINUOUS
 10
102.4906147592
 20
208.5508204472
 40
4.15
  0
ENDSEC
  0
EOF
