  0
SECTION
  2
HEADER
  9
$EXTMAX
 10
210.0
 20
297.0
 30
0.0
  9
$EXTMIN
 10
0.0
 20
0.0
 30
0.0
  9
$LIMMIN
 10
0.0
 20
0.0
  9
$LIMMAX
 10
210.0
 20
297.0
  9
$VIEWCTR
 10
105.0
 20
148.5
  9
$VIEWSIZE
 40
297.0
  9
$CLAYER
  8
0
  9
$LTSCALE
 40
19.36
  9
$CELTYPE
  6
BYLAYER
  9
$DIMSCALE
 40
1.0
  9
$DIMASZ
 40
3.5
  9
$DIMEXO
 40
2.2
  9
$DIMDLI
 40
13.376
  9
$DIMEXE
 40
6.336
  9
$DIMCEN
 40
3.168
  9
$DIMLFAC
 40
1.0
  9
$DIMBLK
  1
_FILLED
  9
$DIMTXT
 40
3.5
  9
$PDMODE
 70
3
  9
$PDSIZE
 40
0.3125
  9
$TILEMODE
 70
1
  0
ENDSEC
  0
SECTION
  2
TABLES
  0
TABLE
  2
LTYPE
 70
6
  0
LTYPE
  2
BYBLOCK
 70
0
  3

 72
65
 73
0
 40
0.0
  0
LTYPE
  2
BYLAYER
 70
0
  3

 72
65
 73
0
 40
0.0
  0
LTYPE
  2
CONTINUOUS
 70
64
  3
Solid line
 72
65
 73
0
 40
0.0
  0
LTYPE
  2
CENTER
 70
64
  3
____ _ ____ _ ____ _ ____ _ ____ _ ____ _ ____
 72
65
 73
4
 40
0.6
 49
0.375
 49
-0.075
 49
0.075
 49
-0.075
  0
LTYPE
  2
HIDDEN
 70
64
  3
- - - - - - - - - - - - - - - - - - - -
 72
65
 73
2
 40
0.2
 49
0.1
 49
-0.1
  0
LTYPE
  2
PHANTOM
 70
64
  3
_____ _ _ _____ _ _ _____ _ _ _____
 72
65
 73
6
 40
0.8
 49
0.45
 49
-0.05
 49
0.1
 49
-0.05
 49
0.1
 49
-0.05
  0
LTYPE
  2
DOT
 70
64
  3
. . . . . . . . . . . . . . . . . . . .
 72
65
 73
2
 40
0.2
 49
0.1
 49
-0.1
  0
LTYPE
  2
DASHED
 70
64
  3
- - - - - - - - - - - - - - - - - - - -
 72
65
 73
2
 40
0.2
 49
0.1
 49
-0.1
  0
ENDTAB
  0
TABLE
  2
LAYER
 70
36
  0
LAYER
  2
0
 70
0
 62
7
  6
CONTINUOUS
  0
LAYER
  2
DEFAULT_1
 70
0
 62
7
  6
CENTER
  0
LAYER
  2
DEFAULT_2
 70
0
 62
8
  6
HIDDEN
  0
LAYER
  2
DEFAULT_3
 70
0
 62
7
  6
PHANTOM
  0
LAYER
  2
BLANK_PLAN
 70
0
 62
7
  6
CONTINUOUS
  0
ENDTAB
  0
TABLE
  2
STYLE
 70
1
  0
STYLE
  2
STANDARD
 70
0
 40
0.0
 41
0.8
 50
0.0
 71
0
 42
0.2
  3
txt
  4

  0
STYLE
  2
TEXTSTYLE_1
 70
0
 40
0.0
 41
0.8
 50
0.0
 71
0
 42
0.2
  3
gdt
  4

  0
STYLE
  2
TEXTSTYLE_2
 70
0
 40
0.0
 41
0.6
 50
0.0
 71
0
 42
0.2
  3
txt
  4

  0
STYLE
  2
TEXTSTYLE_3
 70
0
 40
0.0
 41
1.0
 50
0.0
 71
0
 42
0.2
  3
ftb_____.ttf
  4

  0
STYLE
  2
TEXTSTYLE_4
 70
0
 40
0.0
 41
1.0
 50
0.0
 71
0
 42
0.2
  3
fti_____.ttf
  4

  0
STYLE
  2
TEXTSTYLE_5
 70
0
 40
0.0
 41
1.0
 50
0.0
 71
0
 42
0.2
  3
frutiger light.ttf
  4

  0
STYLE
  2
TEXTSTYLE_6
 70
0
 40
0.0
 41
0.7
 50
0.0
 71
0
 42
0.2
  3
txt
  4

  0
STYLE
  2
TEXTSTYLE_7
 70
0
 40
0.0
 41
0.7
 50
0.0
 71
0
 42
0.2
  3
txt
  4

  0
ENDTAB
  0
ENDSEC
  0
SECTION
  2
BLOCKS
  0
BLOCK
  8
0
 62
2
  6
CONTINUOUS
  2
SYMBOL_8_BL1
 70
64
 10
173.5956734183
 20
35.5937998301
  0
TEXT
  8
0
 62
7
  6
CONTINUOUS
 10
164.6539584268
 20
30.6865562072
  7
TEXTSTYLE_4
 40
1.0655737705
  1
The brand for plastic modular belts and chains
 41
1.0
 72
0
  0
LINE
  8
0
 62
7
  6
CONTINUOUS
 10
149.5737418074
 20
36.1675703219
 11
149.5737418074
 21
34.0364227809
  0
LINE
  8
0
 62
7
  6
CONTINUOUS
 10
149.8628043005
 20
31.0454914852
 11
149.8628043005
 21
31.1422825445
  0
LINE
  8
0
 62
7
  6
CONTINUOUS
 10
149.5737418074
 20
31.1100188581
 11
149.6315543091
 21
30.9164367395
  0
LINE
  8
0
 62
7
  6
CONTINUOUS
 10
150.9671844304
 20
33.9544555678
 11
150.9671844304
 21
36.1675703219
  0
LINE
  8
0
 62
7
  6
CONTINUOUS
 10
151.8862417523
 20
32.1101932727
 11
151.8862417523
 21
30.5937998301
  0
LINE
  8
0
 62
7
  6
CONTINUOUS
 10
152.1753043074
 20
30.5937998301
 11
152.1753043074
 21
31.3358647082
  0
LINE
  8
0
 62
7
  6
CONTINUOUS
 10
152.1753043074
 20
31.4649194539
 11
152.1753043074
 21
32.1101932727
  0
LINE
  8
0
 62
7
  6
CONTINUOUS
 10
149.6315543091
 20
31.3036010218
 11
149.5737418074
 21
31.1100188581
  0
LINE
  8
0
 62
7
  6
CONTINUOUS
 10
149.9784292936
 20
30.8841730531
 11
149.8628043005
 21
31.0454914852
  0
LINE
  8
0
 62
7
  6
CONTINUOUS
 10
151.0768668626
 20
31.400392081
 11
151.1346793074
 21
31.3036010218
  0
LINE
  8
0
 62
7
  6
CONTINUOUS
 10
151.4237418626
 20
31.3036010218
 11
151.3659292523
 21
31.4326557675
  0
LINE
  8
0
 62
7
  6
CONTINUOUS
 10
152.852430332
 20
36.1675703219
 11
152.852430332
 21
34.3642916334
  0
LINE
  8
0
 62
7
  6
CONTINUOUS
 10
152.852430332
 20
33.0528162235
 11
152.852430332
 21
32.3970785186
  0
LINE
  8
0
 62
7
  6
CONTINUOUS
 10
153.2159293074
 20
31.2390736489
 11
153.2159293074
 21
30.5937998301
  0
LINE
  8
0
 62
7
  6
CONTINUOUS
 10
153.5049916972
 20
30.5937998301
 11
153.5049916972
 21
31.2390736489
  0
LINE
  8
0
 62
7
  6
CONTINUOUS
 10
149.8628043005
 20
31.1422825445
 11
149.9206168074
 21
31.2713373354
  0
LINE
  8
0
 62
7
  6
CONTINUOUS
 10
149.6315543091
 20
30.9164367395
 11
149.7471793074
 21
30.7873819712
  0
LINE
  8
0
 62
7
  6
CONTINUOUS
 10
153.1581166972
 20
31.3681283946
 11
153.2159293074
 21
31.2390736489
  0
LINE
  8
0
 62
7
  6
CONTINUOUS
 10
153.9674919177
 20
30.8841730531
 11
154.0253041972
 21
30.7551182848
  0
LINE
  8
0
 62
7
  6
CONTINUOUS
 10
153.5049916972
 20
31.2390736489
 11
153.4471794177
 21
31.400392081
  0
LINE
  8
0
 62
7
  6
CONTINUOUS
 10
153.9674919177
 20
31.4326557675
 11
153.9674919177
 21
31.3681283946
  0
LINE
  8
0
 62
7
  6
CONTINUOUS
 10
153.9674919177
 20
30.9809641124
 11
153.9674919177
 21
30.8841730531
  0
LINE
  8
0
 62
7
  6
CONTINUOUS
 10
154.245872955
 20
32.3970785186
 11
154.245872955
 21
36.1675703219
  0
LINE
  8
0
 62
7
  6
CONTINUOUS
 10
154.2565543074
 20
30.8519093441
 11
154.2565543074
 21
30.9164367395
  0
LINE
  8
0
 62
7
  6
CONTINUOUS
 10
154.5737418074
 20
36.1675703219
 11
154.5737418074
 21
32.3970785186
  0
LINE
  8
0
 62
7
  6
CONTINUOUS
 10
151.3659292523
 20
30.7873819712
 11
151.4237418626
 21
30.9164367395
  0
LINE
  8
0
 62
7
  6
CONTINUOUS
 10
155.759679528
 20
30.6905909007
 11
155.7018665869
 21
30.8519093441
  0
LINE
  8
0
 62
7
  6
CONTINUOUS
 10
155.412804528
 20
31.3681283946
 11
155.412804528
 21
31.2713373354
  0
LINE
  8
0
 62
7
  6
CONTINUOUS
 10
155.412804528
 20
31.1422825445
 11
155.412804528
 21
30.9487004259
  0
LINE
  8
0
 62
7
  6
CONTINUOUS
 10
155.7018665869
 20
30.8519093441
 11
155.7018665869
 21
31.3681283946
  0
LINE
  8
0
 62
7
  6
CONTINUOUS
 10
155.9671844304
 20
32.3970785186
 11
155.9671844304
 21
34.2003572071
  0
LINE
  8
0
 62
7
  6
CONTINUOUS
 10
155.9671844304
 20
35.511832617
 11
155.9671844304
 21
36.1675703219
  0
LINE
  8
0
 62
7
  6
CONTINUOUS
 10
156.279992028
 20
32.1101932727
 11
156.279992028
 21
31.9488748406
  0
LINE
  8
0
 62
7
  6
CONTINUOUS
 10
156.279992028
 20
31.626237886
 11
156.279992028
 21
30.5937998301
  0
LINE
  8
0
 62
7
  6
CONTINUOUS
 10
156.5690540869
 20
30.5937998301
 11
156.5690540869
 21
31.626237886
  0
LINE
  8
0
 62
7
  6
CONTINUOUS
 10
156.5690540869
 20
31.9488748406
 11
156.5690540869
 21
32.1101932727
  0
LINE
  8
0
 62
7
  6
CONTINUOUS
 10
151.1346793074
 20
30.9164367395
 11
151.0768668626
 21
30.8196456577
  0
LINE
  8
0
 62
7
  6
CONTINUOUS
 10
153.4471794177
 20
31.400392081
 11
153.3893668074
 21
31.4649194539
  0
LINE
  8
0
 62
7
  6
CONTINUOUS
 10
154.3143669177
 20
30.7873819712
 11
154.2565543074
 21
30.8519093441
  0
LINE
  8
0
 62
7
  6
CONTINUOUS
 10
155.4706168074
 20
30.6583272086
 11
155.5284290869
 21
30.5937998301
  0
LINE
  8
0
 62
7
  6
CONTINUOUS
 10
155.412804528
 20
30.7551182848
 11
155.4706168074
 21
30.6583272086
  0
LINE
  8
0
 62
7
  6
CONTINUOUS
 10
155.8174918074
 20
30.5937998301
 11
155.759679528
 21
30.6905909007
  0
LINE
  8
0
 62
7
  6
CONTINUOUS
 10
155.7018665869
 20
31.3681283946
 11
155.6440543074
 21
31.4649194539
  0
LINE
  8
0
 62
7
  6
CONTINUOUS
 10
157.0315543074
 20
31.626237886
 11
157.0315543074
 21
30.5937998301
  0
LINE
  8
0
 62
7
  6
CONTINUOUS
 10
157.320617028
 20
30.5937998301
 11
157.320617028
 21
31.3358647082
  0
LINE
  8
0
 62
7
  6
CONTINUOUS
 10
157.320617028
 20
31.4649194539
 11
157.320617028
 21
31.626237886
  0
LINE
  8
0
 62
7
  6
CONTINUOUS
 10
157.852430332
 20
34.6101932727
 11
157.852430332
 21
32.3970785186
  0
LINE
  8
0
 62
7
  6
CONTINUOUS
 10
149.7471793074
 20
31.4326557675
 11
149.6315543091
 21
31.3036010218
  0
LINE
  8
0
 62
7
  6
CONTINUOUS
 10
149.9206168074
 20
31.2713373354
 11
149.9784292936
 21
31.3358647082
  0
LINE
  8
0
 62
7
  6
CONTINUOUS
 10
149.7471793074
 20
30.7873819712
 11
149.8628043005
 21
30.7228545871
  0
LINE
  8
0
 62
7
  6
CONTINUOUS
 10
150.1518667936
 20
30.7873819712
 11
149.9784292936
 21
30.8841730531
  0
LINE
  8
0
 62
7
  6
CONTINUOUS
 10
155.3549915869
 20
31.4326557675
 11
155.412804528
 21
31.3681283946
  0
LINE
  8
0
 62
7
  6
CONTINUOUS
 10
158.3034290869
 20
31.3681283946
 11
158.361242028
 21
31.2068099625
  0
LINE
  8
0
 62
7
  6
CONTINUOUS
 10
158.6503040869
 20
31.2068099625
 11
158.5924918074
 21
31.3681283946
  0
LINE
  8
0
 62
7
  6
CONTINUOUS
 10
158.361242028
 20
31.2068099625
 11
158.361242028
 21
30.5937998301
  0
LINE
  8
0
 62
7
  6
CONTINUOUS
 10
158.6503040869
 20
30.5937998301
 11
158.6503040869
 21
31.2068099625
  0
LINE
  8
0
 62
7
  6
CONTINUOUS
 10
159.1128043074
 20
31.4326557675
 11
159.1128043074
 21
31.3681283946
  0
LINE
  8
0
 62
7
  6
CONTINUOUS
 10
159.245872955
 20
32.3970785186
 11
159.245872955
 21
34.5282260596
  0
LINE
  8
0
 62
7
  6
CONTINUOUS
 10
159.5737418074
 20
36.1675703219
 11
159.5737418074
 21
32.3970785186
  0
LINE
  8
0
 62
7
  6
CONTINUOUS
 10
154.2565543074
 20
30.9164367395
 11
154.3143669177
 21
31.0132277988
  0
LINE
  8
0
 62
7
  6
CONTINUOUS
 10
149.8628043005
 20
30.7228545871
 11
150.0362418212
 21
30.6583272086
  0
LINE
  8
0
 62
7
  6
CONTINUOUS
 10
151.3659292523
 20
31.4326557675
 11
151.1924917523
 21
31.5294468267
  0
LINE
  8
0
 62
7
  6
CONTINUOUS
 10
154.0253041972
 20
30.7551182848
 11
154.1987416972
 21
30.6583272086
  0
LINE
  8
0
 62
7
  6
CONTINUOUS
 10
153.0424918074
 20
31.4326557675
 11
153.1581166972
 21
31.3681283946
  0
LINE
  8
0
 62
7
  6
CONTINUOUS
 10
153.3893668074
 20
31.4649194539
 11
153.2737419177
 21
31.5294468267
  0
LINE
  8
0
 62
7
  6
CONTINUOUS
 10
159.1128043074
 20
30.8519093441
 11
159.228429528
 21
30.7228545871
  0
LINE
  8
0
 62
7
  6
CONTINUOUS
 10
159.4596793074
 20
30.7873819712
 11
159.401867028
 21
30.8519093441
  0
LINE
  8
0
 62
7
  6
CONTINUOUS
 10
159.1128043074
 20
31.3681283946
 11
159.228429528
 21
31.2390736489
  0
LINE
  8
0
 62
7
  6
CONTINUOUS
 10
158.5924918074
 20
31.3681283946
 11
158.534679528
 21
31.4649194539
  0
LINE
  8
0
 62
7
  6
CONTINUOUS
 10
160.9628038663
 20
30.7873819712
 11
160.9628038663
 21
30.8519093441
  0
LINE
  8
0
 62
7
  6
CONTINUOUS
 10
160.9671844304
 20
32.3970785186
 11
160.9671844304
 21
36.1675703219
  0
LINE
  8
0
 62
7
  6
CONTINUOUS
 10
154.0253041972
 20
31.4971831403
 11
153.9674919177
 21
31.4326557675
  0
LINE
  8
0
 62
7
  6
CONTINUOUS
 10
150.9034292799
 20
31.4649194539
 11
151.0768668626
 21
31.400392081
  0
LINE
  8
0
 62
7
  6
CONTINUOUS
 10
155.6440543074
 20
31.4649194539
 11
155.5284290869
 21
31.5294468267
  0
LINE
  8
0
 62
7
  6
CONTINUOUS
 10
159.4596793074
 20
31.3036010218
 11
159.401867028
 21
31.3681283946
  0
LINE
  8
0
 62
7
  6
CONTINUOUS
 10
160.615929528
 20
30.9164367395
 11
160.6737418074
 21
30.8519093441
  0
LINE
  8
0
 62
7
  6
CONTINUOUS
 10
160.9628038663
 20
30.8519093441
 11
160.8471793074
 21
30.9809641124
  0
LINE
  8
0
 62
7
  6
CONTINUOUS
 10
160.615929528
 20
31.4326557675
 11
160.6737418074
 21
31.3681283946
  0
LINE
  8
0
 62
7
  6
CONTINUOUS
 10
160.9628038663
 20
31.3681283946
 11
160.8471793074
 21
31.4971831403
  0
LINE
  8
0
 62
7
  6
CONTINUOUS
 10
154.2565543074
 20
31.3681283946
 11
154.3143669177
 21
31.4326557675
  0
LINE
  8
0
 62
7
  6
CONTINUOUS
 10
154.0831168074
 20
31.1100188581
 11
153.9674919177
 21
30.9809641124
  0
LINE
  8
0
 62
7
  6
CONTINUOUS
 10
155.412804528
 20
30.9487004259
 11
155.3549915869
 21
30.8841730531
  0
LINE
  8
0
 62
7
  6
CONTINUOUS
 10
155.3549915869
 20
30.6905909007
 11
155.412804528
 21
30.7551182848
  0
LINE
  8
0
 62
7
  6
CONTINUOUS
 10
154.1987416972
 20
30.6583272086
 11
154.3143669177
 21
30.6260635193
  0
LINE
  8
0
 62
7
  6
CONTINUOUS
 10
151.1924917523
 20
31.5294468267
 11
150.9612418074
 21
31.5939741996
  0
LINE
  8
0
 62
7
  6
CONTINUOUS
 10
154.5456166972
 20
30.7228545871
 11
154.3143669177
 21
30.7873819712
  0
LINE
  8
0
 62
7
  6
CONTINUOUS
 10
153.2737419177
 20
31.5294468267
 11
153.1003044177
 21
31.5939741996
  0
LINE
  8
0
 62
7
  6
CONTINUOUS
 10
155.5284290869
 20
31.5294468267
 11
155.3549915869
 21
31.5939741996
  0
LINE
  8
0
 62
7
  6
CONTINUOUS
 10
158.187804528
 20
31.4326557675
 11
158.3034290869
 21
31.3681283946
  0
LINE
  8
0
 62
7
  6
CONTINUOUS
 10
158.534679528
 20
31.4649194539
 11
158.4190543074
 21
31.5294468267
  0
LINE
  8
0
 62
7
  6
CONTINUOUS
 10
150.0362418212
 20
30.6583272086
 11
150.2096793212
 21
30.6260635193
  0
LINE
  8
0
 62
7
  6
CONTINUOUS
 10
150.498741835
 20
30.7228545871
 11
150.1518667936
 21
30.7873819712
  0
LINE
  8
0
 62
7
  6
CONTINUOUS
 10
152.9268669177
 20
31.4649194539
 11
153.0424918074
 21
31.4326557675
  0
LINE
  8
0
 62
7
  6
CONTINUOUS
 10
155.239367028
 20
31.4649194539
 11
155.3549915869
 21
31.4326557675
  0
LINE
  8
0
 62
7
  6
CONTINUOUS
 10
159.575304528
 20
30.7551182848
 11
159.4596793074
 21
30.7873819712
  0
LINE
  8
0
 62
7
  6
CONTINUOUS
 10
158.0721793074
 20
31.4649194539
 11
158.187804528
 21
31.4326557675
  0
LINE
  8
0
 62
7
  6
CONTINUOUS
 10
159.228429528
 20
30.7228545871
 11
159.401867028
 21
30.6583272086
  0
LINE
  8
0
 62
7
  6
CONTINUOUS
 10
158.4190543074
 20
31.5294468267
 11
158.2456168074
 21
31.5939741996
  0
LINE
  8
0
 62
7
  6
CONTINUOUS
 10
159.6331168074
 20
31.2390736489
 11
159.4596793074
 21
31.3036010218
  0
LINE
  8
0
 62
7
  6
CONTINUOUS
 10
160.442492028
 20
30.9809641124
 11
160.615929528
 21
30.9164367395
  0
LINE
  8
0
 62
7
  6
CONTINUOUS
 10
160.8471793074
 20
31.4971831403
 11
160.6737418074
 21
31.5617105132
  0
LINE
  8
0
 62
7
  6
CONTINUOUS
 10
159.228429528
 20
31.2390736489
 11
159.4596793074
 21
31.1422825445
  0
LINE
  8
0
 62
7
  6
CONTINUOUS
 10
160.8471793074
 20
30.9809641124
 11
160.615929528
 21
31.0777551716
  0
LINE
  8
0
 62
7
  6
CONTINUOUS
 10
159.401867028
 20
31.3681283946
 11
159.4596793074
 21
31.4326557675
  0
LINE
  8
0
 62
7
  6
CONTINUOUS
 10
149.8628043005
 20
31.4971831403
 11
149.7471793074
 21
31.4326557675
  0
LINE
  8
0
 62
7
  6
CONTINUOUS
 10
149.9784292936
 20
31.3358647082
 11
150.1518667936
 21
31.4326557675
  0
LINE
  8
0
 62
7
  6
CONTINUOUS
 10
152.2909293626
 20
31.5294468267
 11
152.1753043074
 21
31.4649194539
  0
LINE
  8
0
 62
7
  6
CONTINUOUS
 10
152.1753043074
 20
31.3358647082
 11
152.2909293626
 21
31.400392081
  0
LINE
  8
0
 62
7
  6
CONTINUOUS
 10
151.1924917523
 20
30.6905909007
 11
151.3659292523
 21
30.7873819712
  0
LINE
  8
0
 62
7
  6
CONTINUOUS
 10
150.2096793212
 20
30.6260635193
 11
150.5565542799
 21
30.5937998301
  0
LINE
  8
0
 62
7
  6
CONTINUOUS
 10
154.3143669177
 20
30.6260635193
 11
154.5456166972
 21
30.5937998301
  0
LINE
  8
0
 62
7
  6
CONTINUOUS
 10
152.6956168074
 20
31.4971831403
 11
152.9268669177
 21
31.4649194539
  0
LINE
  8
0
 62
7
  6
CONTINUOUS
 10
155.0081169177
 20
31.4971831403
 11
155.239367028
 21
31.4649194539
  0
LINE
  8
0
 62
7
  6
CONTINUOUS
 10
159.4596793074
 20
31.1422825445
 11
160.442492028
 21
30.9809641124
  0
LINE
  8
0
 62
7
  6
CONTINUOUS
 10
160.615929528
 20
31.0777551716
 11
159.6331168074
 21
31.2390736489
  0
LINE
  8
0
 62
7
  6
CONTINUOUS
 10
153.1003044177
 20
31.5939741996
 11
152.9268669177
 21
31.626237886
  0
LINE
  8
0
 62
7
  6
CONTINUOUS
 10
159.401867028
 20
30.6583272086
 11
159.575304528
 21
30.6260635193
  0
LINE
  8
0
 62
7
  6
CONTINUOUS
 10
158.2456168074
 20
31.5939741996
 11
158.0721793074
 21
31.626237886
  0
LINE
  8
0
 62
7
  6
CONTINUOUS
 10
160.5003043074
 20
31.4649194539
 11
160.615929528
 21
31.4326557675
  0
LINE
  8
0
 62
7
  6
CONTINUOUS
 10
160.6737418074
 20
30.8519093441
 11
160.615929528
 21
30.7873819712
  0
LINE
  8
0
 62
7
  6
CONTINUOUS
 10
159.228429528
 20
31.5294468267
 11
159.1128043074
 21
31.4326557675
  0
LINE
  8
0
 62
7
  6
CONTINUOUS
 10
154.1409294177
 20
31.5617105132
 11
154.0253041972
 21
31.4971831403
  0
LINE
  8
0
 62
7
  6
CONTINUOUS
 10
154.1987416972
 20
31.1745462761
 11
154.0831168074
 21
31.1100188581
  0
LINE
  8
0
 62
7
  6
CONTINUOUS
 10
154.3143669177
 20
31.0132277988
 11
154.4299918074
 21
31.0777551716
  0
LINE
  8
0
 62
7
  6
CONTINUOUS
 10
151.8862417523
 20
30.5937998301
 11
152.1753043074
 21
30.5937998301
  0
LINE
  8
0
 62
7
  6
CONTINUOUS
 10
153.2159293074
 20
30.5937998301
 11
153.5049916972
 21
30.5937998301
  0
LINE
  8
0
 62
7
  6
CONTINUOUS
 10
154.5456166972
 20
30.5937998301
 11
154.8924916972
 21
30.5937998301
  0
LINE
  8
0
 62
7
  6
CONTINUOUS
 10
155.5284290869
 20
30.5937998301
 11
155.8174918074
 21
30.5937998301
  0
LINE
  8
0
 62
7
  6
CONTINUOUS
 10
156.279992028
 20
30.5937998301
 11
156.5690540869
 21
30.5937998301
  0
LINE
  8
0
 62
7
  6
CONTINUOUS
 10
157.0315543074
 20
30.5937998301
 11
157.320617028
 21
30.5937998301
  0
LINE
  8
0
 62
7
  6
CONTINUOUS
 10
158.361242028
 20
30.5937998301
 11
158.6503040869
 21
30.5937998301
  0
LINE
  8
0
 62
7
  6
CONTINUOUS
 10
159.922179528
 20
30.5937998301
 11
160.269054528
 21
30.5937998301
  0
LINE
  8
0
 62
7
  6
CONTINUOUS
 10
160.269054528
 20
30.7228545871
 11
159.922179528
 21
30.7228545871
  0
LINE
  8
0
 62
7
  6
CONTINUOUS
 10
154.8924916972
 20
30.7228545871
 11
154.5456166972
 21
30.7228545871
  0
LINE
  8
0
 62
7
  6
CONTINUOUS
 10
159.401867028
 20
30.8519093441
 11
159.1128043074
 21
30.8519093441
  0
LINE
  8
0
 62
7
  6
CONTINUOUS
 10
151.4237418626
 20
30.9164367395
 11
151.1346793074
 21
30.9164367395
  0
LINE
  8
0
 62
7
  6
CONTINUOUS
 10
150.498741835
 20
31.4971831403
 11
150.9034292799
 21
31.4649194539
  0
LINE
  8
0
 62
7
  6
CONTINUOUS
 10
150.9612418074
 20
31.5939741996
 11
150.5565542799
 21
31.626237886
  0
LINE
  8
0
 62
7
  6
CONTINUOUS
 10
159.575304528
 20
30.6260635193
 11
159.922179528
 21
30.5937998301
  0
LINE
  8
0
 62
7
  6
CONTINUOUS
 10
159.922179528
 20
30.7228545871
 11
159.575304528
 21
30.7551182848
  0
LINE
  8
0
 62
7
  6
CONTINUOUS
 10
155.3549915869
 20
31.5939741996
 11
155.0081169177
 21
31.626237886
  0
LINE
  8
0
 62
7
  6
CONTINUOUS
 10
160.1534293074
 20
31.4971831403
 11
160.5003043074
 21
31.4649194539
  0
LINE
  8
0
 62
7
  6
CONTINUOUS
 10
160.5003043074
 20
31.5939741996
 11
160.1534293074
 21
31.626237886
  0
LINE
  8
0
 62
7
  6
CONTINUOUS
 10
157.840929528
 20
31.4971831403
 11
158.0721793074
 21
31.4649194539
  0
LINE
  8
0
 62
7
  6
CONTINUOUS
 10
160.6737418074
 20
31.5617105132
 11
160.5003043074
 21
31.5939741996
  0
LINE
  8
0
 62
7
  6
CONTINUOUS
 10
160.8471793074
 20
30.6905909007
 11
160.9628038663
 21
30.7873819712
  0
LINE
  8
0
 62
7
  6
CONTINUOUS
 10
155.3549915869
 20
30.8841730531
 11
155.1815540869
 21
30.7873819712
  0
LINE
  8
0
 62
7
  6
CONTINUOUS
 10
157.4362415869
 20
31.5294468267
 11
157.320617028
 21
31.4649194539
  0
LINE
  8
0
 62
7
  6
CONTINUOUS
 10
157.320617028
 20
31.3358647082
 11
157.4362415869
 21
31.400392081
  0
LINE
  8
0
 62
7
  6
CONTINUOUS
 10
150.0362418212
 20
31.5617105132
 11
149.8628043005
 21
31.4971831403
  0
LINE
  8
0
 62
7
  6
CONTINUOUS
 10
152.4643666972
 20
31.5939741996
 11
152.2909293626
 21
31.5294468267
  0
LINE
  8
0
 62
7
  6
CONTINUOUS
 10
152.2909293626
 20
31.400392081
 11
152.4643666972
 21
31.4649194539
  0
LINE
  8
0
 62
7
  6
CONTINUOUS
 10
151.0768668626
 20
30.8196456577
 11
150.9034292799
 21
30.7551182848
  0
LINE
  8
0
 62
7
  6
CONTINUOUS
 10
160.5003043074
 20
30.7551182848
 11
160.269054528
 21
30.7228545871
  0
LINE
  8
0
 62
7
  6
CONTINUOUS
 10
154.8924916972
 20
30.5937998301
 11
155.1815540869
 21
30.6260635193
  0
LINE
  8
0
 62
7
  6
CONTINUOUS
 10
160.269054528
 20
30.5937998301
 11
160.615929528
 21
30.6260635193
  0
LINE
  8
0
 62
7
  6
CONTINUOUS
 10
150.5565542799
 20
30.5937998301
 11
150.9612418074
 21
30.6260635193
  0
LINE
  8
0
 62
7
  6
CONTINUOUS
 10
150.9034292799
 20
30.7551182848
 11
150.498741835
 21
30.7228545871
  0
LINE
  8
0
 62
7
  6
CONTINUOUS
 10
154.7768668074
 20
31.1422825445
 11
155.412804528
 21
31.1422825445
  0
LINE
  8
0
 62
7
  6
CONTINUOUS
 10
155.412804528
 20
31.2713373354
 11
154.7768668074
 21
31.2713373354
  0
LINE
  8
0
 62
7
  6
CONTINUOUS
 10
151.1346793074
 20
31.3036010218
 11
151.4237418626
 21
31.3036010218
  0
LINE
  8
0
 62
7
  6
CONTINUOUS
 10
153.9674919177
 20
31.3681283946
 11
154.2565543074
 21
31.3681283946
  0
LINE
  8
0
 62
7
  6
CONTINUOUS
 10
160.6737418074
 20
31.3681283946
 11
160.9628038663
 21
31.3681283946
  0
LINE
  8
0
 62
7
  6
CONTINUOUS
 10
154.6612419177
 20
31.4971831403
 11
155.0081169177
 21
31.4971831403
  0
LINE
  8
0
 62
7
  6
CONTINUOUS
 10
159.8065543074
 20
31.4971831403
 11
160.1534293074
 21
31.4971831403
  0
LINE
  8
0
 62
7
  6
CONTINUOUS
 10
160.1534293074
 20
31.626237886
 11
159.8065543074
 21
31.626237886
  0
LINE
  8
0
 62
7
  6
CONTINUOUS
 10
158.0721793074
 20
31.626237886
 11
157.840929528
 21
31.626237886
  0
LINE
  8
0
 62
7
  6
CONTINUOUS
 10
157.320617028
 20
31.626237886
 11
157.0315543074
 21
31.626237886
  0
LINE
  8
0
 62
7
  6
CONTINUOUS
 10
156.5690540869
 20
31.626237886
 11
156.279992028
 21
31.626237886
  0
LINE
  8
0
 62
7
  6
CONTINUOUS
 10
155.0081169177
 20
31.626237886
 11
154.6612419177
 21
31.626237886
  0
LINE
  8
0
 62
7
  6
CONTINUOUS
 10
152.9268669177
 20
31.626237886
 11
152.6956168074
 21
31.626237886
  0
LINE
  8
0
 62
7
  6
CONTINUOUS
 10
156.279992028
 20
31.9488748406
 11
156.5690540869
 21
31.9488748406
  0
LINE
  8
0
 62
7
  6
CONTINUOUS
 10
156.5690540869
 20
32.1101932727
 11
156.279992028
 21
32.1101932727
  0
LINE
  8
0
 62
7
  6
CONTINUOUS
 10
152.1753043074
 20
32.1101932727
 11
151.8862417523
 21
32.1101932727
  0
LINE
  8
0
 62
7
  6
CONTINUOUS
 10
151.2130860697
 20
32.3970785186
 11
151.6256574183
 21
32.3970785186
  0
LINE
  8
0
 62
7
  6
CONTINUOUS
 10
152.852430332
 20
32.3970785186
 11
154.245872955
 21
32.3970785186
  0
LINE
  8
0
 62
7
  6
CONTINUOUS
 10
154.5737418074
 20
32.3970785186
 11
155.9671844304
 21
32.3970785186
  0
LINE
  8
0
 62
7
  6
CONTINUOUS
 10
157.852430332
 20
32.3970785186
 11
159.245872955
 21
32.3970785186
  0
LINE
  8
0
 62
7
  6
CONTINUOUS
 10
159.5737418074
 20
32.3970785186
 11
160.9671844304
 21
32.3970785186
  0
LINE
  8
0
 62
7
  6
CONTINUOUS
 10
157.6096790869
 20
31.5939741996
 11
157.4362415869
 21
31.5294468267
  0
LINE
  8
0
 62
7
  6
CONTINUOUS
 10
155.1815540869
 20
30.6260635193
 11
155.3549915869
 21
30.6905909007
  0
LINE
  8
0
 62
7
  6
CONTINUOUS
 10
160.615929528
 20
30.6260635193
 11
160.8471793074
 21
30.6905909007
  0
LINE
  8
0
 62
7
  6
CONTINUOUS
 10
160.615929528
 20
30.7873819712
 11
160.5003043074
 21
30.7551182848
  0
LINE
  8
0
 62
7
  6
CONTINUOUS
 10
159.575304528
 20
31.4649194539
 11
159.8065543074
 21
31.4971831403
  0
LINE
  8
0
 62
7
  6
CONTINUOUS
 10
157.6096790869
 20
31.4649194539
 11
157.840929528
 21
31.4971831403
  0
LINE
  8
0
 62
7
  6
CONTINUOUS
 10
154.5456166972
 20
31.1100188581
 11
154.7768668074
 21
31.1422825445
  0
LINE
  8
0
 62
7
  6
CONTINUOUS
 10
157.840929528
 20
31.626237886
 11
157.6096790869
 21
31.5939741996
  0
LINE
  8
0
 62
7
  6
CONTINUOUS
 10
154.4299918074
 20
31.4649194539
 11
154.6612419177
 21
31.4971831403
  0
LINE
  8
0
 62
7
  6
CONTINUOUS
 10
159.8065543074
 20
31.626237886
 11
159.4596793074
 21
31.5939741996
  0
LINE
  8
0
 62
7
  6
CONTINUOUS
 10
154.7768668074
 20
31.2713373354
 11
154.4299918074
 21
31.2390736489
  0
LINE
  8
0
 62
7
  6
CONTINUOUS
 10
150.5565542799
 20
31.626237886
 11
150.2096793212
 21
31.5939741996
  0
LINE
  8
0
 62
7
  6
CONTINUOUS
 10
154.6612419177
 20
31.626237886
 11
154.2565543074
 21
31.5939741996
  0
LINE
  8
0
 62
7
  6
CONTINUOUS
 10
152.0327582009
 20
33.5446195022
 11
151.3770204959
 21
33.5446195022
  0
LINE
  8
0
 62
7
  6
CONTINUOUS
 10
157.4362415869
 20
31.400392081
 11
157.6096790869
 21
31.4649194539
  0
LINE
  8
0
 62
7
  6
CONTINUOUS
 10
159.4596793074
 20
31.4326557675
 11
159.575304528
 21
31.4649194539
  0
LINE
  8
0
 62
7
  6
CONTINUOUS
 10
159.4596793074
 20
31.5939741996
 11
159.228429528
 21
31.5294468267
  0
LINE
  8
0
 62
7
  6
CONTINUOUS
 10
155.1815540869
 20
30.7873819712
 11
154.8924916972
 21
30.7228545871
  0
LINE
  8
0
 62
7
  6
CONTINUOUS
 10
152.4643666972
 20
31.4649194539
 11
152.6956168074
 21
31.4971831403
  0
LINE
  8
0
 62
7
  6
CONTINUOUS
 10
152.6956168074
 20
31.626237886
 11
152.4643666972
 21
31.5939741996
  0
LINE
  8
0
 62
7
  6
CONTINUOUS
 10
150.2674918074
 20
31.4649194539
 11
150.498741835
 21
31.4971831403
  0
LINE
  8
0
 62
7
  6
CONTINUOUS
 10
156.7868565615
 20
35.0200293383
 11
157.4425942664
 21
35.0200293383
  0
LINE
  8
0
 62
7
  6
CONTINUOUS
 10
154.4299918074
 20
31.0777551716
 11
154.5456166972
 21
31.1100188581
  0
LINE
  8
0
 62
7
  6
CONTINUOUS
 10
154.4299918074
 20
31.2390736489
 11
154.1987416972
 21
31.1745462761
  0
LINE
  8
0
 62
7
  6
CONTINUOUS
 10
154.3143669177
 20
31.4326557675
 11
154.4299918074
 21
31.4649194539
  0
LINE
  8
0
 62
7
  6
CONTINUOUS
 10
150.9612418074
 20
30.6260635193
 11
151.1924917523
 21
30.6905909007
  0
LINE
  8
0
 62
7
  6
CONTINUOUS
 10
154.2565543074
 20
31.5939741996
 11
154.1409294177
 21
31.5617105132
  0
LINE
  8
0
 62
7
  6
CONTINUOUS
 10
150.2096793212
 20
31.5939741996
 11
150.0362418212
 21
31.5617105132
  0
LINE
  8
0
 62
7
  6
CONTINUOUS
 10
160.9671844304
 20
36.1675703219
 11
159.5737418074
 21
36.1675703219
  0
LINE
  8
0
 62
7
  6
CONTINUOUS
 10
157.6065286927
 20
36.1675703219
 11
157.1939573441
 21
36.1675703219
  0
LINE
  8
0
 62
7
  6
CONTINUOUS
 10
155.9671844304
 20
36.1675703219
 11
154.5737418074
 21
36.1675703219
  0
LINE
  8
0
 62
7
  6
CONTINUOUS
 10
154.245872955
 20
36.1675703219
 11
152.852430332
 21
36.1675703219
  0
LINE
  8
0
 62
7
  6
CONTINUOUS
 10
150.9671844304
 20
36.1675703219
 11
149.5737418074
 21
36.1675703219
  0
LINE
  8
0
 62
7
  6
CONTINUOUS
 10
150.1518667936
 20
31.4326557675
 11
150.2674918074
 21
31.4649194539
  0
CIRCLE
  8
0
 62
7
  6
CONTINUOUS
 10
160.2704631189
 20
38.5036358957
 40
2.0901639344
  0
ARC
  8
0
 62
7
  6
CONTINUOUS
 10
151.2130860697
 20
34.0364227809
 40
1.6393442623
 50
180.0
 51
270.0
  0
ARC
  8
0
 62
7
  6
CONTINUOUS
 10
157.6065286927
 20
34.5282260596
 40
1.6393442623
 50
0.0
 51
90.0
  0
ARC
  8
0
 62
7
  6
CONTINUOUS
 10
151.6256574183
 20
33.8724883547
 40
1.4754098361
 50
270.0
 51
326.2510114041
  0
ARC
  8
0
 62
7
  6
CONTINUOUS
 10
157.1939573441
 20
34.6921604858
 40
1.4754098361
 50
90.0
 51
146.2510114041
  0
ARC
  8
0
 62
7
  6
CONTINUOUS
 10
152.0327582009
 20
34.3642916334
 40
0.8196721311
 50
270.0
 51
360.0
  0
ARC
  8
0
 62
7
  6
CONTINUOUS
 10
156.7868565615
 20
34.2003572071
 40
0.8196721311
 50
90.0
 51
180.0
  0
ARC
  8
0
 62
7
  6
CONTINUOUS
 10
151.3770204959
 20
33.9544555678
 40
0.4098360656
 50
180.0
 51
270.0
  0
ARC
  8
0
 62
7
  6
CONTINUOUS
 10
157.4425942664
 20
34.6101932727
 40
0.4098360656
 50
0.0
 51
90.0
  0
SOLID
  8
0
 62
7
  6
CONTINUOUS
 10
156.279992028
 20
31.9488752009
 11
156.279992028
 21
32.1101936845
 12
156.5690540869
 22
31.9488752009
 13
156.5690540869
 23
32.1101936845
  0
SOLID
  8
0
 62
7
  6
CONTINUOUS
 10
150.5565542799
 20
31.6262382337
 11
150.9612418074
 21
31.5939740028
 12
150.2096793212
 22
31.5939740028
 13
150.2096793212
 23
31.5939740028
  0
SOLID
  8
0
 62
7
  6
CONTINUOUS
 10
150.0362418212
 20
31.5617111435
 11
150.2096793212
 21
31.5939740028
 12
150.9612418074
 22
31.5939740028
 13
150.9612418074
 23
31.5939740028
  0
SOLID
  8
0
 62
7
  6
CONTINUOUS
 10
150.9612418074
 20
31.5939740028
 11
151.1924917523
 21
31.5294468402
 12
150.0362418212
 22
31.5617111435
 13
150.0362418212
 23
31.5617111435
  0
SOLID
  8
0
 62
7
  6
CONTINUOUS
 10
149.8628043005
 20
31.49718259
 11
150.0362418212
 21
31.5617111435
 12
151.1924917523
 22
31.5294468402
 13
151.1924917523
 23
31.5294468402
  0
SOLID
  8
0
 62
7
  6
CONTINUOUS
 10
149.8628043005
 20
31.49718259
 11
151.1924917523
 21
31.5294468402
 12
150.498741835
 22
31.49718259
 13
150.498741835
 23
31.49718259
  0
SOLID
  8
0
 62
7
  6
CONTINUOUS
 10
150.498741835
 20
31.49718259
 11
151.1924917523
 21
31.5294468402
 12
150.9034292799
 22
31.4649197501
 13
150.9034292799
 23
31.4649197501
  0
SOLID
  8
0
 62
7
  6
CONTINUOUS
 10
151.1924917523
 20
31.5294468402
 11
151.3659292523
 21
31.4326554468
 12
150.9034292799
 22
31.4649197501
 13
150.9034292799
 23
31.4649197501
  0
SOLID
  8
0
 62
7
  6
CONTINUOUS
 10
151.0768668626
 20
31.4003926599
 11
150.9034292799
 21
31.4649197501
 12
151.3659292523
 22
31.4326554468
 13
151.3659292523
 23
31.4326554468
  0
SOLID
  8
0
 62
7
  6
CONTINUOUS
 10
151.0768668626
 20
31.4003926599
 11
151.3659292523
 21
31.4326554468
 12
151.1346793074
 22
31.3036013776
 13
151.1346793074
 23
31.3036013776
  0
SOLID
  8
0
 62
7
  6
CONTINUOUS
 10
151.3659292523
 20
31.4326554468
 11
151.4237418626
 21
31.3036013776
 12
151.1346793074
 22
31.3036013776
 13
151.1346793074
 23
31.3036013776
  0
SOLID
  8
0
 62
7
  6
CONTINUOUS
 10
152.4643666972
 20
31.5939739754
 11
152.6956168074
 21
31.6262382787
 12
152.9268669177
 22
31.6262382787
 13
152.9268669177
 23
31.6262382787
  0
SOLID
  8
0
 62
7
  6
CONTINUOUS
 10
152.9268669177
 20
31.6262382787
 11
153.1003044177
 21
31.5939739754
 12
152.4643666972
 22
31.5939739754
 13
152.4643666972
 23
31.5939739754
  0
SOLID
  8
0
 62
7
  6
CONTINUOUS
 10
152.2909293626
 20
31.5294468852
 11
152.4643666972
 21
31.5939739754
 12
153.1003044177
 22
31.5939739754
 13
153.1003044177
 23
31.5939739754
  0
SOLID
  8
0
 62
7
  6
CONTINUOUS
 10
153.1003044177
 20
31.5939739754
 11
153.2737419177
 21
31.5294468852
 12
152.2909293626
 22
31.5294468852
 13
152.2909293626
 23
31.5294468852
  0
SOLID
  8
0
 62
7
  6
CONTINUOUS
 10
153.2737419177
 20
31.5294468852
 11
152.6956168074
 21
31.4971825369
 12
152.2909293626
 22
31.5294468852
 13
152.2909293626
 23
31.5294468852
  0
SOLID
  8
0
 62
7
  6
CONTINUOUS
 10
152.1753043074
 20
31.4649197951
 11
152.2909293626
 21
31.5294468852
 12
152.6956168074
 22
31.4971825369
 13
152.6956168074
 23
31.4971825369
  0
SOLID
  8
0
 62
7
  6
CONTINUOUS
 10
152.6956168074
 20
31.4971825369
 11
152.4643666972
 21
31.4649197951
 12
152.1753043074
 22
31.4649197951
 13
152.1753043074
 23
31.4649197951
  0
SOLID
  8
0
 62
7
  6
CONTINUOUS
 10
152.6956168074
 20
31.4971825369
 11
153.2737419177
 21
31.5294468852
 12
152.9268669177
 22
31.4649197951
 13
152.9268669177
 23
31.4649197951
  0
SOLID
  8
0
 62
7
  6
CONTINUOUS
 10
153.2737419177
 20
31.5294468852
 11
153.3893668074
 21
31.4649197951
 12
152.9268669177
 22
31.4649197951
 13
152.9268669177
 23
31.4649197951
  0
SOLID
  8
0
 62
7
  6
CONTINUOUS
 10
153.0424918074
 20
31.4326554468
 11
152.9268669177
 21
31.4649197951
 12
153.3893668074
 22
31.4649197951
 13
153.3893668074
 23
31.4649197951
  0
SOLID
  8
0
 62
7
  6
CONTINUOUS
 10
153.3893668074
 20
31.4649197951
 11
153.4471794177
 21
31.4003927049
 12
153.0424918074
 22
31.4326554468
 13
153.0424918074
 23
31.4326554468
  0
SOLID
  8
0
 62
7
  6
CONTINUOUS
 10
153.1581166972
 20
31.3681283566
 11
153.0424918074
 21
31.4326554468
 12
153.4471794177
 22
31.4003927049
 13
153.4471794177
 23
31.4003927049
  0
SOLID
  8
0
 62
7
  6
CONTINUOUS
 10
153.1581166972
 20
31.3681283566
 11
153.4471794177
 21
31.4003927049
 12
153.2159293074
 22
31.2390742213
 13
153.2159293074
 23
31.2390742213
  0
SOLID
  8
0
 62
7
  6
CONTINUOUS
 10
153.4471794177
 20
31.4003927049
 11
153.5049916972
 21
31.2390742213
 12
153.2159293074
 22
31.2390742213
 13
153.2159293074
 23
31.2390742213
  0
SOLID
  8
0
 62
7
  6
CONTINUOUS
 10
152.4643666972
 20
31.4649197951
 11
152.2909293626
 21
31.4003927049
 12
152.1753043074
 22
31.4649197951
 13
152.1753043074
 23
31.4649197951
  0
SOLID
  8
0
 62
7
  6
CONTINUOUS
 10
152.2909293626
 20
31.4003927049
 11
152.1753043074
 21
31.3358640533
 12
152.1753043074
 22
31.4649197951
 13
152.1753043074
 23
31.4649197951
  0
SOLID
  8
0
 62
7
  6
CONTINUOUS
 10
152.1753043074
 20
31.3358640533
 11
151.8862417523
 21
30.5938002869
 12
152.1753043074
 22
31.4649197951
 13
152.1753043074
 23
31.4649197951
  0
SOLID
  8
0
 62
7
  6
CONTINUOUS
 10
152.1753043074
 20
31.4649197951
 11
151.8862417523
 21
30.5938002869
 12
152.1753043074
 22
32.1101937295
 13
152.1753043074
 23
32.1101937295
  0
SOLID
  8
0
 62
7
  6
CONTINUOUS
 10
151.8862417523
 20
30.5938002869
 11
151.8862417523
 21
32.1101937295
 12
152.1753043074
 22
32.1101937295
 13
152.1753043074
 23
32.1101937295
  0
SOLID
  8
0
 62
7
  6
CONTINUOUS
 10
152.1753043074
 20
31.3358640533
 11
152.1753043074
 21
30.5938002869
 12
151.8862417523
 22
30.5938002869
 13
151.8862417523
 23
30.5938002869
  0
SOLID
  8
0
 62
7
  6
CONTINUOUS
 10
153.2159293074
 20
30.5938002869
 11
153.2159293074
 21
31.2390742213
 12
153.5049916972
 22
31.2390742213
 13
153.5049916972
 23
31.2390742213
  0
SOLID
  8
0
 62
7
  6
CONTINUOUS
 10
153.5049916972
 20
31.2390742213
 11
153.5049916972
 21
30.5938002869
 12
153.2159293074
 22
30.5938002869
 13
153.2159293074
 23
30.5938002869
  0
SOLID
  8
0
 62
7
  6
CONTINUOUS
 10
154.2565543074
 20
31.5939738288
 11
154.6612419177
 21
31.6262385959
 12
155.0081169177
 22
31.6262385959
 13
155.0081169177
 23
31.6262385959
  0
SOLID
  8
0
 62
7
  6
CONTINUOUS
 10
155.0081169177
 20
31.6262385959
 11
155.3549915869
 21
31.5939738288
 12
154.2565543074
 22
31.5939738288
 13
154.2565543074
 23
31.5939738288
  0
SOLID
  8
0
 62
7
  6
CONTINUOUS
 10
154.1409294177
 20
31.5617111435
 11
154.2565543074
 21
31.5939738288
 12
155.3549915869
 22
31.5939738288
 13
155.3549915869
 23
31.5939738288
  0
SOLID
  8
0
 62
7
  6
CONTINUOUS
 10
155.3549915869
 20
31.5939738288
 11
155.5284290869
 21
31.5294468402
 12
154.1409294177
 22
31.5617111435
 13
154.1409294177
 23
31.5617111435
  0
SOLID
  8
0
 62
7
  6
CONTINUOUS
 10
154.0253041972
 20
31.4971826249
 11
154.1409294177
 21
31.5617111435
 12
155.5284290869
 22
31.5294468402
 13
155.5284290869
 23
31.5294468402
  0
SOLID
  8
0
 62
7
  6
CONTINUOUS
 10
154.0253041972
 20
31.4971826249
 11
155.5284290869
 21
31.5294468402
 12
154.6612419177
 22
31.4971826249
 13
154.6612419177
 23
31.4971826249
  0
SOLID
  8
0
 62
7
  6
CONTINUOUS
 10
154.6612419177
 20
31.4971826249
 11
155.5284290869
 21
31.5294468402
 12
155.0081169177
 22
31.4971826249
 13
155.0081169177
 23
31.4971826249
  0
SOLID
  8
0
 62
7
  6
CONTINUOUS
 10
155.0081169177
 20
31.4971826249
 11
155.5284290869
 21
31.5294468402
 12
155.239367028
 22
31.4649194065
 13
155.239367028
 23
31.4649194065
  0
SOLID
  8
0
 62
7
  6
CONTINUOUS
 10
155.5284290869
 20
31.5294468402
 11
155.6440543074
 21
31.4649194065
 12
155.239367028
 22
31.4649194065
 13
155.239367028
 23
31.4649194065
  0
SOLID
  8
0
 62
7
  6
CONTINUOUS
 10
153.9674919177
 20
31.4326554138
 11
154.0253041972
 21
31.4971826249
 12
154.6612419177
 22
31.4971826249
 13
154.6612419177
 23
31.4971826249
  0
SOLID
  8
0
 62
7
  6
CONTINUOUS
 10
155.3549915869
 20
31.4326554138
 11
155.239367028
 21
31.4649194065
 12
155.6440543074
 22
31.4649194065
 13
155.6440543074
 23
31.4649194065
  0
SOLID
  8
0
 62
7
  6
CONTINUOUS
 10
155.3549915869
 20
31.4326554138
 11
155.6440543074
 21
31.4649194065
 12
155.412804528
 22
31.3681282026
 13
155.412804528
 23
31.3681282026
  0
SOLID
  8
0
 62
7
  6
CONTINUOUS
 10
155.6440543074
 20
31.4649194065
 11
155.7018665869
 21
31.3681282026
 12
155.412804528
 22
31.3681282026
 13
155.412804528
 23
31.3681282026
  0
SOLID
  8
0
 62
7
  6
CONTINUOUS
 10
155.412804528
 20
31.2713369632
 11
155.412804528
 21
31.3681282026
 12
155.7018665869
 22
31.3681282026
 13
155.7018665869
 23
31.3681282026
  0
SOLID
  8
0
 62
7
  6
CONTINUOUS
 10
155.412804528
 20
31.2713369632
 11
155.7018665869
 21
31.3681282026
 12
155.412804528
 22
31.1422827828
 13
155.412804528
 23
31.1422827828
  0
SOLID
  8
0
 62
7
  6
CONTINUOUS
 10
155.412804528
 20
31.1422827828
 11
155.7018665869
 21
31.3681282026
 12
155.412804528
 22
30.9487004259
 13
155.412804528
 23
30.9487004259
  0
SOLID
  8
0
 62
7
  6
CONTINUOUS
 10
155.7018665869
 20
31.3681282026
 11
155.7018665869
 21
30.8519086025
 12
155.412804528
 22
30.9487004259
 13
155.412804528
 23
30.9487004259
  0
SOLID
  8
0
 62
7
  6
CONTINUOUS
 10
157.6096790869
 20
31.5939736268
 11
157.840929528
 21
31.6262383465
 12
158.0721793074
 22
31.6262383465
 13
158.0721793074
 23
31.6262383465
  0
SOLID
  8
0
 62
7
  6
CONTINUOUS
 10
158.0721793074
 20
31.6262383465
 11
158.2456168074
 21
31.5939736268
 12
157.6096790869
 22
31.5939736268
 13
157.6096790869
 23
31.5939736268
  0
SOLID
  8
0
 62
7
  6
CONTINUOUS
 10
157.4362415869
 20
31.5294472848
 11
157.6096790869
 21
31.5939736268
 12
158.2456168074
 22
31.5939736268
 13
158.2456168074
 23
31.5939736268
  0
SOLID
  8
0
 62
7
  6
CONTINUOUS
 10
158.2456168074
 20
31.5939736268
 11
158.4190543074
 21
31.5294472848
 12
157.4362415869
 22
31.5294472848
 13
157.4362415869
 23
31.5294472848
  0
SOLID
  8
0
 62
7
  6
CONTINUOUS
 10
158.4190543074
 20
31.5294472848
 11
157.840929528
 21
31.4971825369
 12
157.4362415869
 22
31.5294472848
 13
157.4362415869
 23
31.5294472848
  0
SOLID
  8
0
 62
7
  6
CONTINUOUS
 10
157.320617028
 20
31.4649199103
 11
157.4362415869
 21
31.5294472848
 12
157.840929528
 22
31.4971825369
 13
157.840929528
 23
31.4971825369
  0
SOLID
  8
0
 62
7
  6
CONTINUOUS
 10
157.840929528
 20
31.4971825369
 11
157.6096790869
 21
31.4649199103
 12
157.320617028
 22
31.4649199103
 13
157.320617028
 23
31.4649199103
  0
SOLID
  8
0
 62
7
  6
CONTINUOUS
 10
157.840929528
 20
31.4971825369
 11
158.4190543074
 21
31.5294472848
 12
158.0721793074
 22
31.4649199103
 13
158.0721793074
 23
31.4649199103
  0
SOLID
  8
0
 62
7
  6
CONTINUOUS
 10
158.4190543074
 20
31.5294472848
 11
158.534679528
 21
31.4649199103
 12
158.0721793074
 22
31.4649199103
 13
158.0721793074
 23
31.4649199103
  0
SOLID
  8
0
 62
7
  6
CONTINUOUS
 10
158.187804528
 20
31.4326554468
 11
158.0721793074
 21
31.4649199103
 12
158.534679528
 22
31.4649199103
 13
158.534679528
 23
31.4649199103
  0
SOLID
  8
0
 62
7
  6
CONTINUOUS
 10
158.187804528
 20
31.4326554468
 11
158.534679528
 21
31.4649199103
 12
158.3034290869
 22
31.3681288486
 13
158.3034290869
 23
31.3681288486
  0
SOLID
  8
0
 62
7
  6
CONTINUOUS
 10
158.534679528
 20
31.4649199103
 11
158.5924918074
 21
31.3681288486
 12
158.3034290869
 22
31.3681288486
 13
158.3034290869
 23
31.3681288486
  0
SOLID
  8
0
 62
7
  6
CONTINUOUS
 10
158.361242028
 20
31.2068093799
 11
158.3034290869
 21
31.3681288486
 12
158.5924918074
 22
31.3681288486
 13
158.5924918074
 23
31.3681288486
  0
SOLID
  8
0
 62
7
  6
CONTINUOUS
 10
158.5924918074
 20
31.3681288486
 11
158.6503040869
 21
31.2068093799
 12
158.361242028
 22
31.2068093799
 13
158.361242028
 23
31.2068093799
  0
SOLID
  8
0
 62
7
  6
CONTINUOUS
 10
157.6096790869
 20
31.4649199103
 11
157.4362415869
 21
31.4003926599
 12
157.320617028
 22
31.4649199103
 13
157.320617028
 23
31.4649199103
  0
SOLID
  8
0
 62
7
  6
CONTINUOUS
 10
157.4362415869
 20
31.4003926599
 11
157.320617028
 21
31.3358640533
 12
157.320617028
 22
31.4649199103
 13
157.320617028
 23
31.4649199103
  0
SOLID
  8
0
 62
7
  6
CONTINUOUS
 10
157.320617028
 20
31.3358640533
 11
157.0315543074
 21
30.5938003547
 12
157.320617028
 22
31.4649199103
 13
157.320617028
 23
31.4649199103
  0
SOLID
  8
0
 62
7
  6
CONTINUOUS
 10
157.320617028
 20
31.4649199103
 11
157.0315543074
 21
30.5938003547
 12
157.320617028
 22
31.6262383465
 13
157.320617028
 23
31.6262383465
  0
SOLID
  8
0
 62
7
  6
CONTINUOUS
 10
157.0315543074
 20
30.5938003547
 11
157.0315543074
 21
31.6262383465
 12
157.320617028
 22
31.6262383465
 13
157.320617028
 23
31.6262383465
  0
SOLID
  8
0
 62
7
  6
CONTINUOUS
 10
157.320617028
 20
31.3358640533
 11
157.320617028
 21
30.5938003547
 12
157.0315543074
 22
30.5938003547
 13
157.0315543074
 23
30.5938003547
  0
SOLID
  8
0
 62
7
  6
CONTINUOUS
 10
158.361242028
 20
30.5938003547
 11
158.361242028
 21
31.2068093799
 12
158.6503040869
 22
31.2068093799
 13
158.6503040869
 23
31.2068093799
  0
SOLID
  8
0
 62
7
  6
CONTINUOUS
 10
158.6503040869
 20
31.2068093799
 11
158.6503040869
 21
30.5938003547
 12
158.361242028
 22
30.5938003547
 13
158.361242028
 23
30.5938003547
  0
SOLID
  8
0
 62
7
  6
CONTINUOUS
 10
159.4596793074
 20
31.5939739474
 11
159.8065543074
 21
31.6262381969
 12
160.1534293074
 22
31.6262381969
 13
160.1534293074
 23
31.6262381969
  0
SOLID
  8
0
 62
7
  6
CONTINUOUS
 10
160.1534293074
 20
31.6262381969
 11
160.5003043074
 21
31.5939739474
 12
159.4596793074
 22
31.5939739474
 13
159.4596793074
 23
31.5939739474
  0
SOLID
  8
0
 62
7
  6
CONTINUOUS
 10
159.228429528
 20
31.5294468402
 11
159.4596793074
 21
31.5939739474
 12
160.5003043074
 22
31.5939739474
 13
160.5003043074
 23
31.5939739474
  0
SOLID
  8
0
 62
7
  6
CONTINUOUS
 10
159.228429528
 20
31.5294468402
 11
160.5003043074
 21
31.5939739304
 12
160.6737418074
 22
31.5617111435
 13
160.6737418074
 23
31.5617111435
  0
SOLID
  8
0
 62
7
  6
CONTINUOUS
 10
159.228429528
 20
31.5294468402
 11
160.6737418074
 21
31.5617111435
 12
159.8065543074
 22
31.4971825592
 13
159.8065543074
 23
31.4971825592
  0
SOLID
  8
0
 62
7
  6
CONTINUOUS
 10
159.8065543074
 20
31.4971825592
 11
160.6737418074
 21
31.5617111435
 12
160.1534293074
 22
31.4971825592
 13
160.1534293074
 23
31.4971825592
  0
SOLID
  8
0
 62
7
  6
CONTINUOUS
 10
160.6737418074
 20
31.5617111435
 11
160.8471793074
 21
31.4971825592
 12
160.1534293074
 22
31.4971825592
 13
160.1534293074
 23
31.4971825592
  0
SOLID
  8
0
 62
7
  6
CONTINUOUS
 10
160.5003043074
 20
31.4649197501
 11
160.1534293074
 21
31.4971825592
 12
160.8471793074
 22
31.4971825592
 13
160.8471793074
 23
31.4971825592
  0
SOLID
  8
0
 62
7
  6
CONTINUOUS
 10
159.1128043074
 20
31.4326555427
 11
159.228429528
 21
31.5294468402
 12
159.8065543074
 22
31.4971825592
 13
159.8065543074
 23
31.4971825592
  0
SOLID
  8
0
 62
7
  6
CONTINUOUS
 10
160.5003043074
 20
31.4649197501
 11
160.8471793074
 21
31.4971825592
 12
160.615929528
 22
31.4326555427
 13
160.615929528
 23
31.4326555427
  0
SOLID
  8
0
 62
7
  6
CONTINUOUS
 10
160.615929528
 20
31.4326555427
 11
160.8471793074
 21
31.4971825592
 12
160.6737418074
 22
31.3681283005
 13
160.6737418074
 23
31.3681283005
  0
SOLID
  8
0
 62
7
  6
CONTINUOUS
 10
160.8471793074
 20
31.4971825592
 11
160.9628038663
 21
31.3681283005
 12
160.6737418074
 22
31.3681283005
 13
160.6737418074
 23
31.3681283005
  0
SOLID
  8
0
 62
7
  6
CONTINUOUS
 10
150.2674918074
 20
31.4649197501
 11
149.7471793074
 21
31.4326554237
 12
150.498741835
 22
31.4971824493
 13
150.498741835
 23
31.4971824493
  0
SOLID
  8
0
 62
7
  6
CONTINUOUS
 10
149.7471793074
 20
31.4326554237
 11
149.8628043005
 21
31.4971824493
 12
150.498741835
 22
31.4971824493
 13
150.498741835
 23
31.4971824493
  0
SOLID
  8
0
 62
7
  6
CONTINUOUS
 10
150.2674918074
 20
31.4649197501
 11
150.1518667936
 21
31.4326554237
 12
149.7471793074
 22
31.4326554237
 13
149.7471793074
 23
31.4326554237
  0
SOLID
  8
0
 62
7
  6
CONTINUOUS
 10
149.6315543091
 20
31.3036012664
 11
149.7471793074
 21
31.4326554237
 12
150.1518667936
 22
31.4326554237
 13
150.1518667936
 23
31.4326554237
  0
SOLID
  8
0
 62
7
  6
CONTINUOUS
 10
153.9674919177
 20
31.4326554237
 11
154.6612419177
 21
31.4971825369
 12
154.4299918074
 22
31.4649197501
 13
154.4299918074
 23
31.4649197501
  0
SOLID
  8
0
 62
7
  6
CONTINUOUS
 10
154.4299918074
 20
31.4649197501
 11
154.3143669177
 21
31.4326554237
 12
153.9674919177
 22
31.4326554237
 13
153.9674919177
 23
31.4326554237
  0
SOLID
  8
0
 62
7
  6
CONTINUOUS
 10
153.9674919177
 20
31.3681283335
 11
153.9674919177
 21
31.4326554237
 12
154.3143669177
 22
31.4326554237
 13
154.3143669177
 23
31.4326554237
  0
SOLID
  8
0
 62
7
  6
CONTINUOUS
 10
154.3143669177
 20
31.4326554237
 11
154.2565543074
 21
31.3681283335
 12
153.9674919177
 22
31.3681283335
 13
153.9674919177
 23
31.3681283335
  0
SOLID
  8
0
 62
7
  6
CONTINUOUS
 10
159.1128043074
 20
31.4326555528
 11
159.8065543074
 21
31.4971825369
 12
159.575304528
 22
31.4649197501
 13
159.575304528
 23
31.4649197501
  0
SOLID
  8
0
 62
7
  6
CONTINUOUS
 10
159.575304528
 20
31.4649197501
 11
159.4596793074
 21
31.4326555528
 12
159.1128043074
 22
31.4326555528
 13
159.1128043074
 23
31.4326555528
  0
SOLID
  8
0
 62
7
  6
CONTINUOUS
 10
159.1128043074
 20
31.3681284626
 11
159.1128043074
 21
31.4326555528
 12
159.4596793074
 22
31.4326555528
 13
159.4596793074
 23
31.4326555528
  0
SOLID
  8
0
 62
7
  6
CONTINUOUS
 10
159.4596793074
 20
31.4326555528
 11
159.401867028
 21
31.3681284626
 12
159.1128043074
 22
31.3681284626
 13
159.1128043074
 23
31.3681284626
  0
SOLID
  8
0
 62
7
  6
CONTINUOUS
 10
159.228429528
 20
31.2390741763
 11
159.1128043074
 21
31.3681284626
 12
159.401867028
 22
31.3681284626
 13
159.401867028
 23
31.3681284626
  0
SOLID
  8
0
 62
7
  6
CONTINUOUS
 10
149.6315543091
 20
31.3036012664
 11
150.1518667936
 21
31.4326554468
 12
149.9784292936
 22
31.3358640533
 13
149.9784292936
 23
31.3358640533
  0
SOLID
  8
0
 62
7
  6
CONTINUOUS
 10
149.9784292936
 20
31.3358640533
 11
149.9206168074
 21
31.2713369632
 12
149.6315543091
 22
31.3036012664
 13
149.6315543091
 23
31.3036012664
  0
SOLID
  8
0
 62
7
  6
CONTINUOUS
 10
149.5737418074
 20
31.1100184796
 11
149.6315543091
 21
31.3036012664
 12
149.9206168074
 22
31.2713369632
 13
149.9206168074
 23
31.2713369632
  0
SOLID
  8
0
 62
7
  6
CONTINUOUS
 10
154.4299918074
 20
31.2390741763
 11
154.7768668074
 21
31.271336924
 12
155.412804528
 22
31.271336924
 13
155.412804528
 23
31.271336924
  0
SOLID
  8
0
 62
7
  6
CONTINUOUS
 10
154.4299918074
 20
31.2390741763
 11
155.412804528
 21
31.271336924
 12
154.1987416972
 22
31.1745462761
 13
154.1987416972
 23
31.1745462761
  0
SOLID
  8
0
 62
7
  6
CONTINUOUS
 10
154.1987416972
 20
31.1745462761
 11
155.412804528
 21
31.271336924
 12
154.7768668074
 22
31.1422827436
 13
154.7768668074
 23
31.1422827436
  0
SOLID
  8
0
 62
7
  6
CONTINUOUS
 10
155.412804528
 20
31.271336924
 11
155.412804528
 21
31.1422827436
 12
154.7768668074
 22
31.1422827436
 13
154.7768668074
 23
31.1422827436
  0
SOLID
  8
0
 62
7
  6
CONTINUOUS
 10
159.228429528
 20
31.2390745501
 11
159.401867028
 21
31.3681283566
 12
159.4596793074
 22
31.3036012664
 13
159.4596793074
 23
31.3036012664
  0
SOLID
  8
0
 62
7
  6
CONTINUOUS
 10
159.4596793074
 20
31.3036012664
 11
159.6331168074
 21
31.2390745501
 12
159.228429528
 22
31.2390745501
 13
159.228429528
 23
31.2390745501
  0
SOLID
  8
0
 62
7
  6
CONTINUOUS
 10
159.4596793074
 20
31.1422827828
 11
159.228429528
 21
31.2390745501
 12
159.6331168074
 22
31.2390745501
 13
159.6331168074
 23
31.2390745501
  0
SOLID
  8
0
 62
7
  6
CONTINUOUS
 10
159.6331168074
 20
31.2390745501
 11
160.615929528
 21
31.0777556927
 12
159.4596793074
 22
31.1422827828
 13
159.4596793074
 23
31.1422827828
  0
SOLID
  8
0
 62
7
  6
CONTINUOUS
 10
160.442492028
 20
30.9809646623
 11
159.4596793074
 21
31.1422827828
 12
160.615929528
 22
31.0777556927
 13
160.615929528
 23
31.0777556927
  0
SOLID
  8
0
 62
7
  6
CONTINUOUS
 10
160.615929528
 20
31.0777556927
 11
160.8471793074
 21
30.9809646623
 12
160.442492028
 22
30.9809646623
 13
160.442492028
 23
30.9809646623
  0
SOLID
  8
0
 62
7
  6
CONTINUOUS
 10
160.615929528
 20
30.9164372091
 11
160.442492028
 21
30.9809646623
 12
160.8471793074
 22
30.9809646623
 13
160.8471793074
 23
30.9809646623
  0
SOLID
  8
0
 62
7
  6
CONTINUOUS
 10
160.615929528
 20
30.9164372091
 11
160.8471793074
 21
30.9809646623
 12
160.6737418074
 22
30.8519089441
 13
160.6737418074
 23
30.8519089441
  0
SOLID
  8
0
 62
7
  6
CONTINUOUS
 10
160.8471793074
 20
30.9809646623
 11
160.9628038663
 21
30.8519089441
 12
160.6737418074
 22
30.8519089441
 13
160.6737418074
 23
30.8519089441
  0
SOLID
  8
0
 62
7
  6
CONTINUOUS
 10
160.615929528
 20
30.7873818593
 11
160.6737418074
 21
30.8519089441
 12
160.9628038663
 22
30.8519089441
 13
160.9628038663
 23
30.8519089441
  0
SOLID
  8
0
 62
7
  6
CONTINUOUS
 10
160.9628038663
 20
30.8519089441
 11
160.9628038663
 21
30.7873818593
 12
160.615929528
 22
30.7873818593
 13
160.615929528
 23
30.7873818593
  0
SOLID
  8
0
 62
7
  6
CONTINUOUS
 10
160.5003043074
 20
30.7551187255
 11
160.615929528
 21
30.7873818593
 12
160.9628038663
 22
30.7873818593
 13
160.9628038663
 23
30.7873818593
  0
SOLID
  8
0
 62
7
  6
CONTINUOUS
 10
160.5003043074
 20
30.7551187255
 11
160.9628038663
 21
30.7873818593
 12
160.269054528
 22
30.7228547745
 13
160.269054528
 23
30.7228547745
  0
SOLID
  8
0
 62
7
  6
CONTINUOUS
 10
160.9628038663
 20
30.7873818593
 11
160.8471793074
 21
30.6905916353
 12
160.269054528
 22
30.7228547745
 13
160.269054528
 23
30.7228547745
  0
SOLID
  8
0
 62
7
  6
CONTINUOUS
 10
160.8471793074
 20
30.6905916353
 11
159.401867028
 21
30.658327332
 12
160.269054528
 22
30.7228547745
 13
160.269054528
 23
30.7228547745
  0
SOLID
  8
0
 62
7
  6
CONTINUOUS
 10
160.269054528
 20
30.7228547745
 11
159.401867028
 21
30.658327332
 12
159.922179528
 22
30.7228547745
 13
159.922179528
 23
30.7228547745
  0
SOLID
  8
0
 62
7
  6
CONTINUOUS
 10
159.401867028
 20
30.658327332
 11
159.228429528
 21
30.7228547745
 12
159.922179528
 22
30.7228547745
 13
159.922179528
 23
30.7228547745
  0
SOLID
  8
0
 62
7
  6
CONTINUOUS
 10
159.401867028
 20
30.658327332
 11
160.8471793074
 21
30.6905916353
 12
159.575304528
 22
30.6260629858
 13
159.575304528
 23
30.6260629858
  0
SOLID
  8
0
 62
7
  6
CONTINUOUS
 10
160.8471793074
 20
30.6905916353
 11
160.615929528
 21
30.6260629858
 12
159.575304528
 22
30.6260629858
 13
159.575304528
 23
30.6260629858
  0
SOLID
  8
0
 62
7
  6
CONTINUOUS
 10
159.922179528
 20
30.5938006049
 11
159.575304528
 21
30.6260629858
 12
160.615929528
 22
30.6260629858
 13
160.615929528
 23
30.6260629858
  0
SOLID
  8
0
 62
7
  6
CONTINUOUS
 10
160.615929528
 20
30.6260629858
 11
160.269054528
 21
30.5938006049
 12
159.922179528
 22
30.5938006049
 13
159.922179528
 23
30.5938006049
  0
SOLID
  8
0
 62
7
  6
CONTINUOUS
 10
149.5737418074
 20
31.1100184796
 11
149.9206168074
 21
31.2713369632
 12
149.8628043005
 22
31.1422827828
 13
149.8628043005
 23
31.1422827828
  0
SOLID
  8
0
 62
7
  6
CONTINUOUS
 10
149.8628043005
 20
31.1422827828
 11
149.8628043005
 21
31.0454914852
 12
149.5737418074
 22
31.1100184796
 13
149.5737418074
 23
31.1100184796
  0
SOLID
  8
0
 62
7
  6
CONTINUOUS
 10
149.6315543091
 20
30.9164372091
 11
149.5737418074
 21
31.1100184796
 12
149.8628043005
 22
31.0454914852
 13
149.8628043005
 23
31.0454914852
  0
SOLID
  8
0
 62
7
  6
CONTINUOUS
 10
149.8628043005
 20
31.0454914852
 11
149.9784292936
 21
30.8841729058
 12
149.6315543091
 22
30.9164372091
 13
149.6315543091
 23
30.9164372091
  0
SOLID
  8
0
 62
7
  6
CONTINUOUS
 10
149.7471793074
 20
30.7873813202
 11
149.6315543091
 21
30.9164372091
 12
149.9784292936
 22
30.8841729058
 13
149.9784292936
 23
30.8841729058
  0
SOLID
  8
0
 62
7
  6
CONTINUOUS
 10
149.9784292936
 20
30.8841729058
 11
150.1518667936
 21
30.7873813202
 12
149.7471793074
 22
30.7873813202
 13
149.7471793074
 23
30.7873813202
  0
SOLID
  8
0
 62
7
  6
CONTINUOUS
 10
149.8628043005
 20
30.7228547004
 11
149.7471793074
 21
30.7873813202
 12
150.1518667936
 22
30.7873813202
 13
150.1518667936
 23
30.7873813202
  0
SOLID
  8
0
 62
7
  6
CONTINUOUS
 10
150.1518667936
 20
30.7873813202
 11
150.498741835
 21
30.7228547004
 12
149.8628043005
 22
30.7228547004
 13
149.8628043005
 23
30.7228547004
  0
SOLID
  8
0
 62
7
  6
CONTINUOUS
 10
150.0362418212
 20
30.658327332
 11
149.8628043005
 21
30.7228547004
 12
150.498741835
 22
30.7228547004
 13
150.498741835
 23
30.7228547004
  0
SOLID
  8
0
 62
7
  6
CONTINUOUS
 10
154.0831168074
 20
31.1100184386
 11
154.1987416972
 21
31.1745462761
 12
154.7768668074
 22
31.1422827828
 13
154.7768668074
 23
31.1422827828
  0
SOLID
  8
0
 62
7
  6
CONTINUOUS
 10
154.7768668074
 20
31.1422827828
 11
154.5456166972
 21
31.1100184386
 12
154.0831168074
 22
31.1100184386
 13
154.0831168074
 23
31.1100184386
  0
SOLID
  8
0
 62
7
  6
CONTINUOUS
 10
153.9674919177
 20
30.9809642992
 11
154.0831168074
 21
31.1100184386
 12
154.5456166972
 22
31.1100184386
 13
154.5456166972
 23
31.1100184386
  0
SOLID
  8
0
 62
7
  6
CONTINUOUS
 10
154.3143669177
 20
31.0132277988
 11
153.9674919177
 21
30.9809642992
 12
154.4299918074
 22
31.0777556927
 13
154.4299918074
 23
31.0777556927
  0
SOLID
  8
0
 62
7
  6
CONTINUOUS
 10
153.9674919177
 20
30.9809642992
 11
154.5456166972
 21
31.1100184796
 12
154.4299918074
 22
31.0777556927
 13
154.4299918074
 23
31.0777556927
  0
SOLID
  8
0
 62
7
  6
CONTINUOUS
 10
154.3143669177
 20
31.0132277988
 11
154.2565543074
 21
30.9164372091
 12
153.9674919177
 22
30.9809642992
 13
153.9674919177
 23
30.9809642992
  0
SOLID
  8
0
 62
7
  6
CONTINUOUS
 10
153.9674919177
 20
30.8841729058
 11
153.9674919177
 21
30.9809642992
 12
154.2565543074
 22
30.9164372091
 13
154.2565543074
 23
30.9164372091
  0
SOLID
  8
0
 62
7
  6
CONTINUOUS
 10
154.2565543074
 20
30.9164372091
 11
154.2565543074
 21
30.8519086025
 12
153.9674919177
 22
30.8841729058
 13
153.9674919177
 23
30.8841729058
  0
SOLID
  8
0
 62
7
  6
CONTINUOUS
 10
154.0253041972
 20
30.7551187255
 11
153.9674919177
 21
30.8841729058
 12
154.2565543074
 22
30.8519086025
 13
154.2565543074
 23
30.8519086025
  0
SOLID
  8
0
 62
7
  6
CONTINUOUS
 10
155.412804528
 20
30.9487004259
 11
155.7018665869
 21
30.8519086025
 12
155.3549915869
 22
30.8841729058
 13
155.3549915869
 23
30.8841729058
  0
SOLID
  8
0
 62
7
  6
CONTINUOUS
 10
155.1815540869
 20
30.7873815123
 11
155.3549915869
 21
30.8841729058
 12
155.7018665869
 22
30.8519086025
 13
155.7018665869
 23
30.8519086025
  0
SOLID
  8
0
 62
7
  6
CONTINUOUS
 10
155.1815540869
 20
30.7873815123
 11
155.7018665869
 21
30.8519086025
 12
155.412804528
 22
30.7551187255
 13
155.412804528
 23
30.7551187255
  0
SOLID
  8
0
 62
7
  6
CONTINUOUS
 10
155.7018665869
 20
30.8519086025
 11
155.759679528
 21
30.6905916353
 12
155.412804528
 22
30.7551187255
 13
155.412804528
 23
30.7551187255
  0
SOLID
  8
0
 62
7
  6
CONTINUOUS
 10
155.4706168074
 20
30.658327332
 11
155.412804528
 21
30.7551187255
 12
155.759679528
 22
30.6905916353
 13
155.759679528
 23
30.6905916353
  0
SOLID
  8
0
 62
7
  6
CONTINUOUS
 10
155.4706168074
 20
30.658327332
 11
155.759679528
 21
30.6905916353
 12
155.5284290869
 22
30.5938002079
 13
155.5284290869
 23
30.5938002079
  0
SOLID
  8
0
 62
7
  6
CONTINUOUS
 10
155.759679528
 20
30.6905916353
 11
155.8174918074
 21
30.5938002079
 12
155.5284290869
 22
30.5938002079
 13
155.5284290869
 23
30.5938002079
  0
SOLID
  8
0
 62
7
  6
CONTINUOUS
 10
151.0768668626
 20
30.8196456577
 11
151.1346793074
 21
30.9164373395
 12
151.4237418626
 22
30.9164373395
 13
151.4237418626
 23
30.9164373395
  0
SOLID
  8
0
 62
7
  6
CONTINUOUS
 10
151.4237418626
 20
30.9164373395
 11
151.3659292523
 21
30.7873815123
 12
151.0768668626
 22
30.8196456577
 13
151.0768668626
 23
30.8196456577
  0
SOLID
  8
0
 62
7
  6
CONTINUOUS
 10
150.9034292799
 20
30.7551187255
 11
151.0768668626
 21
30.8196456577
 12
151.3659292523
 22
30.7873815123
 13
151.3659292523
 23
30.7873815123
  0
SOLID
  8
0
 62
7
  6
CONTINUOUS
 10
150.9034292799
 20
30.7551187255
 11
151.3659292523
 21
30.7873815123
 12
150.498741835
 22
30.7228544222
 13
150.498741835
 23
30.7228544222
  0
SOLID
  8
0
 62
7
  6
CONTINUOUS
 10
151.3659292523
 20
30.7873815123
 11
151.1924917523
 21
30.6905916353
 12
150.498741835
 22
30.7228544222
 13
150.498741835
 23
30.7228544222
  0
SOLID
  8
0
 62
7
  6
CONTINUOUS
 10
150.0362418212
 20
30.658327332
 11
150.498741835
 21
30.7228544222
 12
151.1924917523
 22
30.6905916353
 13
151.1924917523
 23
30.6905916353
  0
SOLID
  8
0
 62
7
  6
CONTINUOUS
 10
150.0362418212
 20
30.658327332
 11
151.1924917523
 21
30.6905916353
 12
150.2096793212
 22
30.6260631011
 13
150.2096793212
 23
30.6260631011
  0
SOLID
  8
0
 62
7
  6
CONTINUOUS
 10
151.1924917523
 20
30.6905916353
 11
150.9612418074
 21
30.6260631011
 12
150.2096793212
 22
30.6260631011
 13
150.2096793212
 23
30.6260631011
  0
SOLID
  8
0
 62
7
  6
CONTINUOUS
 10
150.5565542799
 20
30.5938002419
 11
150.2096793212
 21
30.6260631011
 12
150.9612418074
 22
30.6260631011
 13
150.9612418074
 23
30.6260631011
  0
SOLID
  8
0
 62
7
  6
CONTINUOUS
 10
154.0253041972
 20
30.7551187255
 11
154.2565543074
 21
30.8519086025
 12
154.3143669177
 22
30.7873815123
 13
154.3143669177
 23
30.7873815123
  0
SOLID
  8
0
 62
7
  6
CONTINUOUS
 10
154.3143669177
 20
30.7873815123
 11
154.5456166972
 21
30.7228544222
 12
154.0253041972
 22
30.7551187255
 13
154.0253041972
 23
30.7551187255
  0
SOLID
  8
0
 62
7
  6
CONTINUOUS
 10
154.1987416972
 20
30.658327332
 11
154.0253041972
 21
30.7551187255
 12
154.5456166972
 22
30.7228544222
 13
154.5456166972
 23
30.7228544222
  0
SOLID
  8
0
 62
7
  6
CONTINUOUS
 10
154.8924916972
 20
30.7228544637
 11
155.1815540869
 21
30.7873815123
 12
155.412804528
 22
30.7551187255
 13
155.412804528
 23
30.7551187255
  0
SOLID
  8
0
 62
7
  6
CONTINUOUS
 10
155.412804528
 20
30.7551187255
 11
155.3549915869
 21
30.6905916353
 12
154.8924916972
 22
30.7228544637
 13
154.8924916972
 23
30.7228544637
  0
SOLID
  8
0
 62
7
  6
CONTINUOUS
 10
155.3549915869
 20
30.6905916353
 11
154.1987416972
 21
30.658327332
 12
154.8924916972
 22
30.7228544637
 13
154.8924916972
 23
30.7228544637
  0
SOLID
  8
0
 62
7
  6
CONTINUOUS
 10
154.1987416972
 20
30.658327332
 11
154.5456166972
 21
30.7228544637
 12
154.8924916972
 22
30.7228544637
 13
154.8924916972
 23
30.7228544637
  0
SOLID
  8
0
 62
7
  6
CONTINUOUS
 10
154.1987416972
 20
30.658327332
 11
155.3549915869
 21
30.6905916353
 12
154.3143669177
 22
30.6260630541
 13
154.3143669177
 23
30.6260630541
  0
SOLID
  8
0
 62
7
  6
CONTINUOUS
 10
155.3549915869
 20
30.6905916353
 11
155.1815540869
 21
30.6260630541
 12
154.3143669177
 22
30.6260630541
 13
154.3143669177
 23
30.6260630541
  0
SOLID
  8
0
 62
7
  6
CONTINUOUS
 10
154.5456166972
 20
30.5938002188
 11
154.3143669177
 21
30.6260630541
 12
155.1815540869
 22
30.6260630541
 13
155.1815540869
 23
30.6260630541
  0
SOLID
  8
0
 62
7
  6
CONTINUOUS
 10
155.1815540869
 20
30.6260630541
 11
154.8924916972
 21
30.5938002188
 12
154.5456166972
 22
30.5938002188
 13
154.5456166972
 23
30.5938002188
  0
SOLID
  8
0
 62
7
  6
CONTINUOUS
 10
159.575304528
 20
30.7551187255
 11
159.228429528
 21
30.7228544637
 12
159.4596793074
 22
30.7873815123
 13
159.4596793074
 23
30.7873815123
  0
SOLID
  8
0
 62
7
  6
CONTINUOUS
 10
159.4596793074
 20
30.7873815123
 11
159.228429528
 21
30.7228544637
 12
159.401867028
 22
30.851908644
 13
159.401867028
 23
30.851908644
  0
SOLID
  8
0
 62
7
  6
CONTINUOUS
 10
159.228429528
 20
30.7228544637
 11
159.1128043074
 21
30.851908644
 12
159.401867028
 22
30.851908644
 13
159.401867028
 23
30.851908644
  0
SOLID
  8
0
 62
7
  6
CONTINUOUS
 10
159.575304528
 20
30.7551187255
 11
159.922179528
 21
30.7228544637
 12
159.228429528
 22
30.7228544637
 13
159.228429528
 23
30.7228544637
  0
SOLID
  8
0
 62
7
  6
CONTINUOUS
 10
156.279992028
 20
30.5938002419
 11
156.279992028
 21
31.6262382337
 12
156.5690540869
 22
30.5938002419
 13
156.5690540869
 23
31.6262382337
  0
ENDBLK
  8
0
  6
BYBLOCK
 62
0
  0
BLOCK
  8
0
 62
2
  6
CONTINUOUS
  2
SYMBOL_3_BL0
 70
64
 10
32.1213064866
 20
19.8534310916
  0
TEXT
  8
0
 62
7
  6
CONTINUOUS
 10
18.3860103289
 20
19.2268451992
  7
TEXTSTYLE_3
 40
2.7338706658
  1
Ammeraal Beltech
 41
1.0
 51
15.0
 72
0
  0
TEXT
  8
0
 62
7
  6
CONTINUOUS
 10
29.1868111546
 20
16.9533085264
  7
TEXTSTYLE_4
 40
1.0935482663
  1
Innovation & Service in Belting
 41
1.0
 72
0
  0
LINE
  8
0
 62
7
  6
CONTINUOUS
 10
12.3614696776
 20
19.9934385078
 11
13.1396216709
 21
23.6543558055
  0
LINE
  8
0
 62
7
  6
CONTINUOUS
 10
23.2347899607
 20
27.3177497171
 11
13.6274394139
 21
24.1961322958
  0
LINE
  8
0
 62
7
  6
CONTINUOUS
 10
12.5867530099
 20
19.3000877048
 11
20.093828271
 21
12.5406867788
  0
LINE
  8
0
 62
7
  6
CONTINUOUS
 10
12.8492874206
 20
20.5352149982
 11
23.6575567857
 21
24.0470345971
  0
LINE
  8
0
 62
7
  6
CONTINUOUS
 10
23.6533516486
 20
13.6972460334
 11
15.2078919798
 21
21.3015720751
  0
LINE
  8
0
 62
7
  6
CONTINUOUS
 10
24.1731743684
 20
26.4728246013
 11
23.1966148312
 21
21.8784731989
  0
LINE
  8
0
 62
7
  6
CONTINUOUS
 10
22.4968128835
 20
18.5861638851
 11
21.810364672
 21
15.3566789607
  0
LINE
  8
0
 62
7
  6
CONTINUOUS
 10
24.8542704669
 20
14.087448211
 11
25.8105020025
 21
18.5861638851
  0
LINE
  8
0
 62
7
  6
CONTINUOUS
 10
26.5103039502
 20
21.8784731989
 11
26.9545457526
 21
23.9684665583
  0
LINE
  8
0
 62
7
  6
CONTINUOUS
 10
20.8069293463
 20
12.3891124661
 11
24.3664527239
 21
13.5456717207
  0
LINE
  8
0
 62
7
  6
CONTINUOUS
 10
23.9478910361
 20
27.1661754044
 11
26.7292624203
 21
24.6618173613
  0
ARC
  8
0
 62
7
  6
CONTINUOUS
 10
13.8527227462
 20
23.5027814928
 40
0.7290321776
 50
108.0
 51
168.0
  0
ARC
  8
0
 62
7
  6
CONTINUOUS
 10
23.4600732931
 20
26.624398914
 40
0.7290321776
 50
348.0
 51
108.0
  0
ARC
  8
0
 62
7
  6
CONTINUOUS
 10
26.2414446773
 20
24.120040871
 40
0.7290321776
 50
348.0
 51
48.0
  0
ARC
  8
0
 62
7
  6
CONTINUOUS
 10
20.581646014
 20
13.0824632691
 40
0.7290321776
 50
228.0
 51
288.0
  0
ARC
  8
0
 62
7
  6
CONTINUOUS
 10
13.0745707529
 20
19.8418641951
 40
0.7290321776
 50
108.0
 51
228.0
  0
ARC
  8
0
 62
7
  6
CONTINUOUS
 10
24.1411693916
 20
14.2390225237
 40
0.7290321776
 50
228.0
 51
348.0
  0
ENDBLK
  8
0
  6
BYBLOCK
 62
0
  0
ENDSEC
  0
SECTION
  2
ENTITIES
  0
TEXT
  8
0
 62
5
  6
CONTINUOUS
 10
96.0
 20
25.636
  7
TEXTSTYLE_2
 40
2.8
  1
Scale :
 41
0.6
 51
0.000019
 72
0
  0
TEXT
  8
0
 62
5
  6
CONTINUOUS
 10
116.0
 20
25.636
  7
TEXTSTYLE_2
 40
2.8
  1
Belt type:
 41
0.6
 51
0.000019
 72
0
  0
INSERT
  8
0
 62
2
  6
CONTINUOUS
  2
SYMBOL_3_BL0
 10
32.1213064866
 20
19.8534310916
  0
INSERT
  8
0
 62
2
  6
CONTINUOUS
  2
SYMBOL_8_BL1
 10
173.5956734183
 20
35.5937998301
  0
LINE
  8
0
 62
2
  6
CONTINUOUS
 10
10.0
 20
30.0
 11
200.0
 21
30.0
  0
LINE
  8
0
 62
2
  6
CONTINUOUS
 10
10.0
 20
30.0
 11
10.0
 21
10.0
  0
LINE
  8
0
 62
2
  6
CONTINUOUS
 10
10.0
 20
10.0
 11
200.0
 21
10.0
  0
LINE
  8
0
 62
2
  6
CONTINUOUS
 10
95.0
 20
30.0
 11
95.0
 21
10.0
  0
LINE
  8
0
 62
2
  6
CONTINUOUS
 10
115.0
 20
30.0
 11
115.0
 21
10.0
  0
LINE
  8
0
 62
2
  6
CONTINUOUS
 10
200.0
 20
30.0
 11
200.0
 21
10.0
  0
TEXT
  8
0
 62
5
  6
CONTINUOUS
 10
13.0
 20
23.303
  7
TEXTSTYLE_5
 40
1.52
  1
                                                                     Ammeraal Beltech Modular A/S
 41
1.0
 72
0
  0
TEXT
  8
0
 62
5
  6
CONTINUOUS
 10
13.0
 20
20.595
  7
TEXTSTYLE_5
 40
1.5
  1
                                                                      Hjulmagervej 21,  7100 Vejle,  DK
 41
1.0
 72
0
  0
TEXT
  8
0
 62
5
  6
CONTINUOUS
 10
13.0
 20
17.881
  7
TEXTSTYLE_5
 40
1.495
  1
                                                                      tel: 
 41
1.0
 72
0
  0
TEXT
  8
0
 62
5
  6
CONTINUOUS
 10
57.9869465649
 20
17.881
  7
TEXTSTYLE_5
 40
1.51
  1
+45 75723100     fax: +45 75723348
 41
1.0
 72
0
  0
TEXT
  8
0
 62
5
  6
CONTINUOUS
 10
13.0
 20
15.177
  7
TEXTSTYLE_5
 40
1.5
  1
                                                                      admin@unichains.dk  www.unichains.com
 41
1.0
 72
0
  0
TEXT
  8
0
 62
5
  6
CONTINUOUS
 10
99.75
 20
13.75
  7
TEXTSTYLE_6
 40
5.0
  1
1:1
 41
0.7
 72
1
 11
105.0
 21
13.75
  0
TEXT
  8
0
 62
5
  6
CONTINUOUS
 10
118.0
 20
13.75
  7
TEXTSTYLE_7
 40
7.5
  1
uni MPB PRR K600
 41
0.6279947917
 72
0
  0
LINE
  8
0
 62
7
  6
CONTINUOUS
 10
210.0
 20
0.0
 11
0.0
 21
0.0
  0
LINE
  8
0
 62
7
  6
CONTINUOUS
 10
10.0
 20
10.0
 11
200.0
 21
10.0
  0
LINE
  8
0
 62
7
  6
CONTINUOUS
 10
10.0
 20
30.0
 11
200.0
 21
30.0
  0
LINE
  8
0
 62
7
  6
CONTINUOUS
 10
0.0
 20
0.0
 11
0.0
 21
297.0
  0
LINE
  8
0
 62
7
  6
CONTINUOUS
 10
10.0
 20
10.0
 11
10.0
 21
287.0
  0
LINE
  8
0
 62
7
  6
CONTINUOUS
 10
200.0
 20
287.0
 11
200.0
 21
10.0
  0
LINE
  8
0
 62
7
  6
CONTINUOUS
 10
210.0
 20
0.0
 11
210.0
 21
297.0
  0
LINE
  8
0
 62
7
  6
CONTINUOUS
 10
10.0
 20
287.0
 11
200.0
 21
287.0
  0
LINE
  8
0
 62
7
  6
CONTINUOUS
 10
0.0
 20
297.0
 11
210.0
 21
297.0
  0
LINE
  8
0
 62
7
  6
CONTINUOUS
 10
16.2182112069
 20
91.1167431395
 11
16.2182112069
 21
145.6953327007
  0
POLYLINE
  8
0
 62
7
  6
CONTINUOUS
 66
1
 70
0
  0
VERTEX
  8
0
 62
7
  6
CONTINUOUS
 10
25.6637420331
 20
157.2555770766
  0
VERTEX
  8
0
 62
7
  6
CONTINUOUS
 10
25.4839587578
 20
156.8546278549
  0
VERTEX
  8
0
 62
7
  6
CONTINUOUS
 10
25.3088942197
 20
156.389014814
  0
VERTEX
  8
0
 62
7
  6
CONTINUOUS
 10
25.1501258178
 20
155.8873903336
  0
VERTEX
  8
0
 62
7
  6
CONTINUOUS
 10
25.007421072
 20
155.3540541314
  0
VERTEX
  8
0
 62
7
  6
CONTINUOUS
 10
24.8807328384
 20
154.7936631096
  0
VERTEX
  8
0
 62
7
  6
CONTINUOUS
 10
24.7700453074
 20
154.2110523041
  0
VERTEX
  8
0
 62
7
  6
CONTINUOUS
 10
24.6753164561
 20
153.6112273772
  0
VERTEX
  8
0
 62
7
  6
CONTINUOUS
 10
24.6034386423
 20
153.0594342558
  0
SEQEND
  0
POLYLINE
  8
0
 62
7
  6
CONTINUOUS
 66
1
 70
0
  0
VERTEX
  8
0
 62
7
  6
CONTINUOUS
 10
16.2182112069
 20
96.5795581615
  0
VERTEX
  8
0
 62
7
  6
CONTINUOUS
 10
16.2231360778
 20
96.5717954213
  0
VERTEX
  8
0
 62
7
  6
CONTINUOUS
 10
16.2377205925
 20
96.5644152939
  0
VERTEX
  8
0
 62
7
  6
CONTINUOUS
 10
16.2613290539
 20
96.5577811008
  0
VERTEX
  8
0
 62
7
  6
CONTINUOUS
 10
16.2928675034
 20
96.5522250318
  0
VERTEX
  8
0
 62
7
  6
CONTINUOUS
 10
16.3308186879
 20
96.5480308485
  0
VERTEX
  8
0
 62
7
  6
CONTINUOUS
 10
16.3733098126
 20
96.5454179378
  0
VERTEX
  8
0
 62
7
  6
CONTINUOUS
 10
16.4182112069
 20
96.5445290216
  0
SEQEND
  0
POLYLINE
  8
0
 62
7
  6
CONTINUOUS
 66
1
 70
0
  0
VERTEX
  8
0
 62
7
  6
CONTINUOUS
 10
16.218210838
 20
91.1168014399
  0
VERTEX
  8
0
 62
7
  6
CONTINUOUS
 10
16.2231793991
 20
91.0724996997
  0
VERTEX
  8
0
 62
7
  6
CONTINUOUS
 10
16.2379078088
 20
91.0302540628
  0
VERTEX
  8
0
 62
7
  6
CONTINUOUS
 10
16.2616590973
 20
90.9923396228
  0
VERTEX
  8
0
 62
7
  6
CONTINUOUS
 10
16.2932446412
 20
90.9606538655
  0
VERTEX
  8
0
 62
7
  6
CONTINUOUS
 10
16.3310836378
 20
90.9367825839
  0
VERTEX
  8
0
 62
7
  6
CONTINUOUS
 10
16.3732822552
 20
90.921920397
  0
VERTEX
  8
0
 62
7
  6
CONTINUOUS
 10
16.4182024888
 20
90.9168103538
  0
SEQEND
  0
POLYLINE
  8
0
 62
7
  6
CONTINUOUS
 66
1
 70
0
  0
VERTEX
  8
0
 62
7
  6
CONTINUOUS
 10
24.4300446186
 20
102.4063518431
  0
VERTEX
  8
0
 62
7
  6
CONTINUOUS
 10
24.4260748976
 20
102.7003836141
  0
VERTEX
  8
0
 62
7
  6
CONTINUOUS
 10
24.4260282312
 20
102.7802527871
  0
VERTEX
  8
0
 62
7
  6
CONTINUOUS
 10
24.4274049959
 20
102.8594282503
  0
VERTEX
  8
0
 62
7
  6
CONTINUOUS
 10
24.4304041053
 20
102.9376502241
  0
VERTEX
  8
0
 62
7
  6
CONTINUOUS
 10
24.4352396751
 20
103.0147213436
  0
VERTEX
  8
0
 62
7
  6
CONTINUOUS
 10
24.4421008048
 20
103.0904345162
  0
VERTEX
  8
0
 62
7
  6
CONTINUOUS
 10
24.4511567032
 20
103.1643617851
  0
VERTEX
  8
0
 62
7
  6
CONTINUOUS
 10
24.462572359
 20
103.2360569613
  0
VERTEX
  8
0
 62
7
  6
CONTINUOUS
 10
24.4765283351
 20
103.3056559835
  0
VERTEX
  8
0
 62
7
  6
CONTINUOUS
 10
24.4932960896
 20
103.3728915695
  0
VERTEX
  8
0
 62
7
  6
CONTINUOUS
 10
24.5129982416
 20
103.4363206104
  0
VERTEX
  8
0
 62
7
  6
CONTINUOUS
 10
24.5363496395
 20
103.4953155028
  0
VERTEX
  8
0
 62
7
  6
CONTINUOUS
 10
24.5637525231
 20
103.5500855078
  0
VERTEX
  8
0
 62
7
  6
CONTINUOUS
 10
24.5946016569
 20
103.5990167752
  0
VERTEX
  8
0
 62
7
  6
CONTINUOUS
 10
24.6280656598
 20
103.641043138
  0
VERTEX
  8
0
 62
7
  6
CONTINUOUS
 10
24.6642008618
 20
103.6763868127
  0
VERTEX
  8
0
 62
7
  6
CONTINUOUS
 10
24.7029641035
 20
103.7047519561
  0
VERTEX
  8
0
 62
7
  6
CONTINUOUS
 10
24.7442377031
 20
103.7253282538
  0
VERTEX
  8
0
 62
7
  6
CONTINUOUS
 10
24.7872350393
 20
103.736511281
  0
VERTEX
  8
0
 62
7
  6
CONTINUOUS
 10
24.8084739425
 20
103.7380012932
  0
SEQEND
  0
LINE
  8
0
 62
7
  6
CONTINUOUS
 10
24.4324866732
 20
102.1233376741
 11
24.4300446186
 21
102.4063518431
  0
LINE
  8
0
 62
7
  6
CONTINUOUS
 10
23.6682112069
 20
119.8168103448
 11
23.6682112069
 21
129.8168103448
  0
LINE
  8
0
 62
7
  6
CONTINUOUS
 10
24.4324866732
 20
102.1233376741
 11
24.43304305
 21
96.5752367336
  0
LINE
  8
0
 62
7
  6
CONTINUOUS
 10
24.6034386719
 20
153.0594283902
 11
24.6033793667
 21
153.0584084503
  0
LINE
  8
0
 62
7
  6
CONTINUOUS
 10
25.6755834287
 20
157.3512423265
 11
25.6596786442
 21
157.2465149844
  0
POLYLINE
  8
0
 62
7
  6
CONTINUOUS
 66
1
 70
0
  0
VERTEX
  8
0
 62
7
  6
CONTINUOUS
 10
24.6063309305
 20
147.2312365765
  0
VERTEX
  8
0
 62
7
  6
CONTINUOUS
 10
24.6103039074
 20
146.9379144576
  0
VERTEX
  8
0
 62
7
  6
CONTINUOUS
 10
24.6104302309
 20
146.8583209146
  0
VERTEX
  8
0
 62
7
  6
CONTINUOUS
 10
24.6091515515
 20
146.7792582534
  0
VERTEX
  8
0
 62
7
  6
CONTINUOUS
 10
24.6062650746
 20
146.7010065291
  0
VERTEX
  8
0
 62
7
  6
CONTINUOUS
 10
24.6015496726
 20
146.6237882851
  0
VERTEX
  8
0
 62
7
  6
CONTINUOUS
 10
24.5948067521
 20
146.5478232362
  0
VERTEX
  8
0
 62
7
  6
CONTINUOUS
 10
24.5858604059
 20
146.4735440915
  0
VERTEX
  8
0
 62
7
  6
CONTINUOUS
 10
24.5745408887
 20
146.4014590932
  0
VERTEX
  8
0
 62
7
  6
CONTINUOUS
 10
24.5606494895
 20
146.3313544243
  0
VERTEX
  8
0
 62
7
  6
CONTINUOUS
 10
24.5439496136
 20
146.2637042722
  0
VERTEX
  8
0
 62
7
  6
CONTINUOUS
 10
24.5242350718
 20
146.1996360879
  0
VERTEX
  8
0
 62
7
  6
CONTINUOUS
 10
24.5008883942
 20
146.1401462629
  0
VERTEX
  8
0
 62
7
  6
CONTINUOUS
 10
24.473419971
 20
146.084877314
  0
VERTEX
  8
0
 62
7
  6
CONTINUOUS
 10
24.4424050944
 20
146.0354327847
  0
VERTEX
  8
0
 62
7
  6
CONTINUOUS
 10
24.4089624084
 20
145.9932538118
  0
VERTEX
  8
0
 62
7
  6
CONTINUOUS
 10
24.3730925171
 20
145.95797952
  0
VERTEX
  8
0
 62
7
  6
CONTINUOUS
 10
24.3347723417
 20
145.9296837085
  0
VERTEX
  8
0
 62
7
  6
CONTINUOUS
 10
24.2939413412
 20
145.9089736029
  0
VERTEX
  8
0
 62
7
  6
CONTINUOUS
 10
24.2511445185
 20
145.8973853409
  0
VERTEX
  8
0
 62
7
  6
CONTINUOUS
 10
24.2277747202
 20
145.8956188307
  0
SEQEND
  0
LINE
  8
0
 62
7
  6
CONTINUOUS
 10
24.6039149561
 20
147.5142583132
 11
24.6063309305
 21
147.2312365765
  0
LINE
  8
0
 62
7
  6
CONTINUOUS
 10
24.6033793638
 20
153.0583464388
 11
24.6039149561
 21
147.5142583132
  0
LINE
  8
0
 62
7
  6
CONTINUOUS
 10
24.43304305
 20
96.5752046205
 11
24.432983724
 21
96.5741965834
  0
LINE
  8
0
 62
7
  6
CONTINUOUS
 10
23.3608391207
 20
92.2823792331
 11
23.3767414951
 21
92.3871047781
  0
LINE
  8
0
 62
7
  6
CONTINUOUS
 10
33.8830143067
 20
92.7812923717
 11
34.0637409899
 21
92.3780457392
  0
POLYLINE
  8
0
 62
7
  6
CONTINUOUS
 66
1
 70
0
  0
VERTEX
  8
0
 62
7
  6
CONTINUOUS
 10
34.0755820323
 20
92.2823873206
  0
VERTEX
  8
0
 62
7
  6
CONTINUOUS
 10
34.103243844
 20
92.1148747514
  0
VERTEX
  8
0
 62
7
  6
CONTINUOUS
 10
34.1341486419
 20
91.9498485333
  0
VERTEX
  8
0
 62
7
  6
CONTINUOUS
 10
34.1650974284
 20
91.806020832
  0
VERTEX
  8
0
 62
7
  6
CONTINUOUS
 10
34.1965066157
 20
91.6800182089
  0
VERTEX
  8
0
 62
7
  6
CONTINUOUS
 10
34.2290897568
 20
91.5684313698
  0
VERTEX
  8
0
 62
7
  6
CONTINUOUS
 10
34.2641047655
 20
91.467580051
  0
VERTEX
  8
0
 62
7
  6
CONTINUOUS
 10
34.3037882638
 20
91.3733765845
  0
VERTEX
  8
0
 62
7
  6
CONTINUOUS
 10
34.3518153817
 20
91.2819126587
  0
VERTEX
  8
0
 62
7
  6
CONTINUOUS
 10
34.4139250324
 20
91.190305436
  0
VERTEX
  8
0
 62
7
  6
CONTINUOUS
 10
34.4976539572
 20
91.0990145684
  0
VERTEX
  8
0
 62
7
  6
CONTINUOUS
 10
34.6082993684
 20
91.0155266608
  0
VERTEX
  8
0
 62
7
  6
CONTINUOUS
 10
34.7432890339
 20
90.9525829374
  0
VERTEX
  8
0
 62
7
  6
CONTINUOUS
 10
34.8911238232
 20
90.9204407816
  0
VERTEX
  8
0
 62
7
  6
CONTINUOUS
 10
34.9620379657
 20
90.9168104488
  0
SEQEND
  0
LINE
  8
0
 62
7
  6
CONTINUOUS
 10
34.0596809188
 20
92.3871047778
 11
34.0755832931
 21
92.2823792331
  0
POLYLINE
  8
0
 62
7
  6
CONTINUOUS
 66
1
 70
0
  0
VERTEX
  8
0
 62
7
  6
CONTINUOUS
 10
33.003438639
 20
96.574186462
  0
VERTEX
  8
0
 62
7
  6
CONTINUOUS
 10
33.0748158941
 20
96.0258950796
  0
VERTEX
  8
0
 62
7
  6
CONTINUOUS
 10
33.1694653554
 20
95.4259136642
  0
VERTEX
  8
0
 62
7
  6
CONTINUOUS
 10
33.2800759603
 20
94.8431266997
  0
VERTEX
  8
0
 62
7
  6
CONTINUOUS
 10
33.4066898465
 20
94.2825410334
  0
VERTEX
  8
0
 62
7
  6
CONTINUOUS
 10
33.5493226008
 20
93.7489933551
  0
VERTEX
  8
0
 62
7
  6
CONTINUOUS
 10
33.7080205251
 20
93.2471429771
  0
VERTEX
  8
0
 62
7
  6
CONTINUOUS
 10
33.8830143067
 20
92.7812923717
  0
SEQEND
  0
LINE
  8
0
 62
7
  6
CONTINUOUS
 10
33.0034386686
 20
96.5741923277
 11
33.0033793667
 21
96.5752122394
  0
LINE
  8
0
 62
7
  6
CONTINUOUS
 10
32.8329837419
 20
153.0594283902
 11
32.8330430471
 21
153.0584084503
  0
POLYLINE
  8
0
 62
7
  6
CONTINUOUS
 66
1
 70
0
  0
VERTEX
  8
0
 62
7
  6
CONTINUOUS
 10
32.826080545
 20
146.9338087042
  0
VERTEX
  8
0
 62
7
  6
CONTINUOUS
 10
32.8300450215
 20
147.22727269
  0
VERTEX
  8
0
 62
7
  6
CONTINUOUS
 10
32.8324867654
 20
147.5102848915
  0
VERTEX
  8
0
 62
7
  6
CONTINUOUS
 10
32.83304305
 20
153.0583464388
  0
SEQEND
  0
POLYLINE
  8
0
 62
7
  6
CONTINUOUS
 66
1
 70
0
  0
VERTEX
  8
0
 62
7
  6
CONTINUOUS
 10
33.0103084859
 20
102.6961831597
  0
VERTEX
  8
0
 62
7
  6
CONTINUOUS
 10
33.0063309307
 20
102.4023840625
  0
VERTEX
  8
0
 62
7
  6
CONTINUOUS
 10
33.0039149563
 20
102.119362402
  0
VERTEX
  8
0
 62
7
  6
CONTINUOUS
 10
33.0033793638
 20
96.5752742509
  0
SEQEND
  0
POLYLINE
  8
0
 62
7
  6
CONTINUOUS
 66
1
 70
0
  0
VERTEX
  8
0
 62
7
  6
CONTINUOUS
 10
42.4637420331
 20
157.2555770766
  0
VERTEX
  8
0
 62
7
  6
CONTINUOUS
 10
42.2839587578
 20
156.8546278549
  0
VERTEX
  8
0
 62
7
  6
CONTINUOUS
 10
42.1088942197
 20
156.389014814
  0
VERTEX
  8
0
 62
7
  6
CONTINUOUS
 10
41.9501258178
 20
155.8873903336
  0
VERTEX
  8
0
 62
7
  6
CONTINUOUS
 10
41.807421072
 20
155.3540541314
  0
VERTEX
  8
0
 62
7
  6
CONTINUOUS
 10
41.6807328384
 20
154.7936631096
  0
VERTEX
  8
0
 62
7
  6
CONTINUOUS
 10
41.5700453074
 20
154.2110523041
  0
VERTEX
  8
0
 62
7
  6
CONTINUOUS
 10
41.4753164561
 20
153.6112273772
  0
VERTEX
  8
0
 62
7
  6
CONTINUOUS
 10
41.4034386423
 20
153.0594342558
  0
SEQEND
  0
POLYLINE
  8
0
 62
7
  6
CONTINUOUS
 66
1
 70
0
  0
VERTEX
  8
0
 62
7
  6
CONTINUOUS
 10
41.4063309305
 20
147.2312365765
  0
VERTEX
  8
0
 62
7
  6
CONTINUOUS
 10
41.4103039074
 20
146.9379144576
  0
VERTEX
  8
0
 62
7
  6
CONTINUOUS
 10
41.4104302309
 20
146.8583209146
  0
VERTEX
  8
0
 62
7
  6
CONTINUOUS
 10
41.4091515515
 20
146.7792582534
  0
VERTEX
  8
0
 62
7
  6
CONTINUOUS
 10
41.4062650746
 20
146.7010065291
  0
VERTEX
  8
0
 62
7
  6
CONTINUOUS
 10
41.4015496726
 20
146.6237882851
  0
VERTEX
  8
0
 62
7
  6
CONTINUOUS
 10
41.3948067521
 20
146.5478232362
  0
VERTEX
  8
0
 62
7
  6
CONTINUOUS
 10
41.3858604059
 20
146.4735440915
  0
VERTEX
  8
0
 62
7
  6
CONTINUOUS
 10
41.3745408887
 20
146.4014590932
  0
VERTEX
  8
0
 62
7
  6
CONTINUOUS
 10
41.3606494895
 20
146.3313544243
  0
VERTEX
  8
0
 62
7
  6
CONTINUOUS
 10
41.3439496136
 20
146.2637042722
  0
VERTEX
  8
0
 62
7
  6
CONTINUOUS
 10
41.3242350718
 20
146.1996360879
  0
VERTEX
  8
0
 62
7
  6
CONTINUOUS
 10
41.3008883942
 20
146.1401462629
  0
VERTEX
  8
0
 62
7
  6
CONTINUOUS
 10
41.273419971
 20
146.084877314
  0
VERTEX
  8
0
 62
7
  6
CONTINUOUS
 10
41.2424050944
 20
146.0354327847
  0
VERTEX
  8
0
 62
7
  6
CONTINUOUS
 10
41.2089624084
 20
145.9932538118
  0
VERTEX
  8
0
 62
7
  6
CONTINUOUS
 10
41.1730925171
 20
145.95797952
  0
VERTEX
  8
0
 62
7
  6
CONTINUOUS
 10
41.1347723417
 20
145.9296837085
  0
VERTEX
  8
0
 62
7
  6
CONTINUOUS
 10
41.0939413412
 20
145.9089736029
  0
VERTEX
  8
0
 62
7
  6
CONTINUOUS
 10
41.0511445185
 20
145.8973853409
  0
VERTEX
  8
0
 62
7
  6
CONTINUOUS
 10
41.0277747202
 20
145.8956188307
  0
SEQEND
  0
POLYLINE
  8
0
 62
7
  6
CONTINUOUS
 66
1
 70
0
  0
VERTEX
  8
0
 62
7
  6
CONTINUOUS
 10
41.2300446186
 20
102.4063518431
  0
VERTEX
  8
0
 62
7
  6
CONTINUOUS
 10
41.2260748976
 20
102.7003836141
  0
VERTEX
  8
0
 62
7
  6
CONTINUOUS
 10
41.2260282312
 20
102.7802527871
  0
VERTEX
  8
0
 62
7
  6
CONTINUOUS
 10
41.2274049959
 20
102.8594282503
  0
VERTEX
  8
0
 62
7
  6
CONTINUOUS
 10
41.2304041053
 20
102.9376502241
  0
VERTEX
  8
0
 62
7
  6
CONTINUOUS
 10
41.2352396751
 20
103.0147213436
  0
VERTEX
  8
0
 62
7
  6
CONTINUOUS
 10
41.2421008048
 20
103.0904345162
  0
VERTEX
  8
0
 62
7
  6
CONTINUOUS
 10
41.2511567032
 20
103.1643617851
  0
VERTEX
  8
0
 62
7
  6
CONTINUOUS
 10
41.262572359
 20
103.2360569613
  0
VERTEX
  8
0
 62
7
  6
CONTINUOUS
 10
41.2765283351
 20
103.3056559835
  0
VERTEX
  8
0
 62
7
  6
CONTINUOUS
 10
41.2932960896
 20
103.3728915695
  0
VERTEX
  8
0
 62
7
  6
CONTINUOUS
 10
41.3129982416
 20
103.4363206104
  0
VERTEX
  8
0
 62
7
  6
CONTINUOUS
 10
41.3363496395
 20
103.4953155028
  0
VERTEX
  8
0
 62
7
  6
CONTINUOUS
 10
41.3637525231
 20
103.5500855078
  0
VERTEX
  8
0
 62
7
  6
CONTINUOUS
 10
41.3946016569
 20
103.5990167752
  0
VERTEX
  8
0
 62
7
  6
CONTINUOUS
 10
41.4280656598
 20
103.641043138
  0
VERTEX
  8
0
 62
7
  6
CONTINUOUS
 10
41.4642008618
 20
103.6763868127
  0
VERTEX
  8
0
 62
7
  6
CONTINUOUS
 10
41.5029641035
 20
103.7047519561
  0
VERTEX
  8
0
 62
7
  6
CONTINUOUS
 10
41.5442377031
 20
103.7253282538
  0
VERTEX
  8
0
 62
7
  6
CONTINUOUS
 10
41.5872350393
 20
103.736511281
  0
VERTEX
  8
0
 62
7
  6
CONTINUOUS
 10
41.6084739425
 20
103.7380012932
  0
SEQEND
  0
LINE
  8
0
 62
7
  6
CONTINUOUS
 10
41.2324866732
 20
102.1233376741
 11
41.2300446186
 21
102.4063518431
  0
LINE
  8
0
 62
7
  6
CONTINUOUS
 10
41.4039149561
 20
147.5142583132
 11
41.4063309305
 21
147.2312365765
  0
LINE
  8
0
 62
7
  6
CONTINUOUS
 10
38.2682112069
 20
129.8168103448
 11
38.2682112069
 21
119.8168103448
  0
LINE
  8
0
 62
7
  6
CONTINUOUS
 10
41.2324866732
 20
102.1233376741
 11
41.23304305
 21
96.5752367336
  0
LINE
  8
0
 62
7
  6
CONTINUOUS
 10
41.4033793638
 20
153.0583464388
 11
41.4039149561
 21
147.5142583132
  0
LINE
  8
0
 62
7
  6
CONTINUOUS
 10
41.4034386719
 20
153.0594283902
 11
41.4033793667
 21
153.0584084503
  0
LINE
  8
0
 62
7
  6
CONTINUOUS
 10
41.23304305
 20
96.5752046205
 11
41.232983724
 21
96.5741965834
  0
LINE
  8
0
 62
7
  6
CONTINUOUS
 10
42.4755834287
 20
157.3512423265
 11
42.4596786442
 21
157.2465149844
  0
POLYLINE
  8
0
 62
7
  6
CONTINUOUS
 66
1
 70
0
  0
VERTEX
  8
0
 62
7
  6
CONTINUOUS
 10
23.3726814239
 20
92.3780457391
  0
VERTEX
  8
0
 62
7
  6
CONTINUOUS
 10
23.553408151
 20
92.7812924786
  0
VERTEX
  8
0
 62
7
  6
CONTINUOUS
 10
23.7284019688
 20
93.2471432098
  0
VERTEX
  8
0
 62
7
  6
CONTINUOUS
 10
23.8870999219
 20
93.7489937299
  0
VERTEX
  8
0
 62
7
  6
CONTINUOUS
 10
24.0297326975
 20
94.2825415633
  0
VERTEX
  8
0
 62
7
  6
CONTINUOUS
 10
24.1563465974
 20
94.8431273942
  0
VERTEX
  8
0
 62
7
  6
CONTINUOUS
 10
24.2669572082
 20
95.4259145292
  0
VERTEX
  8
0
 62
7
  6
CONTINUOUS
 10
24.361606668
 20
96.0258961176
  0
VERTEX
  8
0
 62
7
  6
CONTINUOUS
 10
24.4329837748
 20
96.574186462
  0
SEQEND
  0
LINE
  8
0
 62
7
  6
CONTINUOUS
 10
50.6830143067
 20
92.7812923717
 11
50.8637409899
 21
92.3780457392
  0
POLYLINE
  8
0
 62
7
  6
CONTINUOUS
 66
1
 70
0
  0
VERTEX
  8
0
 62
7
  6
CONTINUOUS
 10
31.7608402643
 20
157.3512341211
  0
VERTEX
  8
0
 62
7
  6
CONTINUOUS
 10
31.7329536185
 20
157.5200291745
  0
VERTEX
  8
0
 62
7
  6
CONTINUOUS
 10
31.7021097171
 20
157.6845893909
  0
VERTEX
  8
0
 62
7
  6
CONTINUOUS
 10
31.6712259663
 20
157.8280276674
  0
VERTEX
  8
0
 62
7
  6
CONTINUOUS
 10
31.6398879197
 20
157.9537059679
  0
VERTEX
  8
0
 62
7
  6
CONTINUOUS
 10
31.6073865344
 20
158.0650196382
  0
VERTEX
  8
0
 62
7
  6
CONTINUOUS
 10
31.5724742316
 20
158.1656292597
  0
VERTEX
  8
0
 62
7
  6
CONTINUOUS
 10
31.5329376044
 20
158.2595941308
  0
VERTEX
  8
0
 62
7
  6
CONTINUOUS
 10
31.4851490131
 20
158.3507899118
  0
VERTEX
  8
0
 62
7
  6
CONTINUOUS
 10
31.4234399699
 20
158.4421020882
  0
VERTEX
  8
0
 62
7
  6
CONTINUOUS
 10
31.3403429025
 20
158.5331498421
  0
VERTEX
  8
0
 62
7
  6
CONTINUOUS
 10
31.2305376374
 20
158.6166194012
  0
VERTEX
  8
0
 62
7
  6
CONTINUOUS
 10
31.0963838553
 20
158.6799297084
  0
VERTEX
  8
0
 62
7
  6
CONTINUOUS
 10
30.9491376
 20
158.7127731838
  0
VERTEX
  8
0
 62
7
  6
CONTINUOUS
 10
30.8743818943
 20
158.7168102379
  0
SEQEND
  0
LINE
  8
0
 62
7
  6
CONTINUOUS
 10
31.7767437696
 20
157.2465149844
 11
31.7608389851
 21
157.3512423265
  0
POLYLINE
  8
0
 62
7
  6
CONTINUOUS
 66
1
 70
0
  0
VERTEX
  8
0
 62
7
  6
CONTINUOUS
 10
32.8329837715
 20
153.0594342558
  0
VERTEX
  8
0
 62
7
  6
CONTINUOUS
 10
32.7611059577
 20
153.6112273772
  0
VERTEX
  8
0
 62
7
  6
CONTINUOUS
 10
32.6663771064
 20
154.2110523041
  0
VERTEX
  8
0
 62
7
  6
CONTINUOUS
 10
32.5556895754
 20
154.7936631096
  0
VERTEX
  8
0
 62
7
  6
CONTINUOUS
 10
32.4290013418
 20
155.3540541314
  0
VERTEX
  8
0
 62
7
  6
CONTINUOUS
 10
32.286296596
 20
155.8873903336
  0
VERTEX
  8
0
 62
7
  6
CONTINUOUS
 10
32.1275281941
 20
156.389014814
  0
VERTEX
  8
0
 62
7
  6
CONTINUOUS
 10
31.9524636559
 20
156.8546278549
  0
SEQEND
  0
LINE
  8
0
 62
7
  6
CONTINUOUS
 10
49.8034386686
 20
96.5741923277
 11
49.8033793667
 21
96.5752122394
  0
LINE
  8
0
 62
7
  6
CONTINUOUS
 10
47.9682112069
 20
119.8168103448
 11
47.9682112069
 21
129.8168103448
  0
LINE
  8
0
 62
7
  6
CONTINUOUS
 10
40.1608391207
 20
92.2823792331
 11
40.1767414951
 21
92.3871047781
  0
POLYLINE
  8
0
 62
7
  6
CONTINUOUS
 66
1
 70
0
  0
VERTEX
  8
0
 62
7
  6
CONTINUOUS
 10
59.2637420331
 20
157.2555770766
  0
VERTEX
  8
0
 62
7
  6
CONTINUOUS
 10
59.0839587578
 20
156.8546278549
  0
VERTEX
  8
0
 62
7
  6
CONTINUOUS
 10
58.9088942197
 20
156.389014814
  0
VERTEX
  8
0
 62
7
  6
CONTINUOUS
 10
58.7501258178
 20
155.8873903336
  0
VERTEX
  8
0
 62
7
  6
CONTINUOUS
 10
58.607421072
 20
155.3540541314
  0
VERTEX
  8
0
 62
7
  6
CONTINUOUS
 10
58.4807328384
 20
154.7936631096
  0
VERTEX
  8
0
 62
7
  6
CONTINUOUS
 10
58.3700453074
 20
154.2110523041
  0
VERTEX
  8
0
 62
7
  6
CONTINUOUS
 10
58.2753164561
 20
153.6112273772
  0
VERTEX
  8
0
 62
7
  6
CONTINUOUS
 10
58.2034386423
 20
153.0594342558
  0
SEQEND
  0
POLYLINE
  8
0
 62
7
  6
CONTINUOUS
 66
1
 70
0
  0
VERTEX
  8
0
 62
7
  6
CONTINUOUS
 10
50.8755820323
 20
92.2823873206
  0
VERTEX
  8
0
 62
7
  6
CONTINUOUS
 10
50.903243844
 20
92.1148747514
  0
VERTEX
  8
0
 62
7
  6
CONTINUOUS
 10
50.9341486419
 20
91.9498485333
  0
VERTEX
  8
0
 62
7
  6
CONTINUOUS
 10
50.9650974284
 20
91.806020832
  0
VERTEX
  8
0
 62
7
  6
CONTINUOUS
 10
50.9965066157
 20
91.6800182089
  0
VERTEX
  8
0
 62
7
  6
CONTINUOUS
 10
51.0290897568
 20
91.5684313698
  0
VERTEX
  8
0
 62
7
  6
CONTINUOUS
 10
51.0641047655
 20
91.467580051
  0
VERTEX
  8
0
 62
7
  6
CONTINUOUS
 10
51.1037882638
 20
91.3733765845
  0
VERTEX
  8
0
 62
7
  6
CONTINUOUS
 10
51.1518153817
 20
91.2819126587
  0
VERTEX
  8
0
 62
7
  6
CONTINUOUS
 10
51.2139250324
 20
91.190305436
  0
VERTEX
  8
0
 62
7
  6
CONTINUOUS
 10
51.2976539572
 20
91.0990145684
  0
VERTEX
  8
0
 62
7
  6
CONTINUOUS
 10
51.4082993684
 20
91.0155266608
  0
VERTEX
  8
0
 62
7
  6
CONTINUOUS
 10
51.5432890339
 20
90.9525829374
  0
VERTEX
  8
0
 62
7
  6
CONTINUOUS
 10
51.6911238232
 20
90.9204407816
  0
VERTEX
  8
0
 62
7
  6
CONTINUOUS
 10
51.7620379657
 20
90.9168104488
  0
SEQEND
  0
LINE
  8
0
 62
7
  6
CONTINUOUS
 10
50.8596809188
 20
92.3871047778
 11
50.8755832931
 21
92.2823792331
  0
POLYLINE
  8
0
 62
7
  6
CONTINUOUS
 66
1
 70
0
  0
VERTEX
  8
0
 62
7
  6
CONTINUOUS
 10
49.803438639
 20
96.574186462
  0
VERTEX
  8
0
 62
7
  6
CONTINUOUS
 10
49.8748158941
 20
96.0258950796
  0
VERTEX
  8
0
 62
7
  6
CONTINUOUS
 10
49.9694653554
 20
95.4259136642
  0
VERTEX
  8
0
 62
7
  6
CONTINUOUS
 10
50.0800759603
 20
94.8431266997
  0
VERTEX
  8
0
 62
7
  6
CONTINUOUS
 10
50.2066898465
 20
94.2825410334
  0
VERTEX
  8
0
 62
7
  6
CONTINUOUS
 10
50.3493226008
 20
93.7489933551
  0
VERTEX
  8
0
 62
7
  6
CONTINUOUS
 10
50.5080205251
 20
93.2471429771
  0
VERTEX
  8
0
 62
7
  6
CONTINUOUS
 10
50.6830143067
 20
92.7812923717
  0
SEQEND
  0
LINE
  8
0
 62
7
  6
CONTINUOUS
 10
49.6329837419
 20
153.0594283902
 11
49.6330430471
 21
153.0584084503
  0
POLYLINE
  8
0
 62
7
  6
CONTINUOUS
 66
1
 70
0
  0
VERTEX
  8
0
 62
7
  6
CONTINUOUS
 10
49.626080545
 20
146.9338087042
  0
VERTEX
  8
0
 62
7
  6
CONTINUOUS
 10
49.6300450215
 20
147.22727269
  0
VERTEX
  8
0
 62
7
  6
CONTINUOUS
 10
49.6324867654
 20
147.5102848915
  0
VERTEX
  8
0
 62
7
  6
CONTINUOUS
 10
49.63304305
 20
153.0583464388
  0
SEQEND
  0
POLYLINE
  8
0
 62
7
  6
CONTINUOUS
 66
1
 70
0
  0
VERTEX
  8
0
 62
7
  6
CONTINUOUS
 10
49.8103084859
 20
102.6961831597
  0
VERTEX
  8
0
 62
7
  6
CONTINUOUS
 10
49.8063309307
 20
102.4023840625
  0
VERTEX
  8
0
 62
7
  6
CONTINUOUS
 10
49.8039149563
 20
102.119362402
  0
VERTEX
  8
0
 62
7
  6
CONTINUOUS
 10
49.8033793638
 20
96.5752742509
  0
SEQEND
  0
LINE
  8
0
 62
7
  6
CONTINUOUS
 10
59.2755834287
 20
157.3512423265
 11
59.2596786442
 21
157.2465149844
  0
POLYLINE
  8
0
 62
7
  6
CONTINUOUS
 66
1
 70
0
  0
VERTEX
  8
0
 62
7
  6
CONTINUOUS
 10
24.432983724
 20
96.5741965834
  0
VERTEX
  8
0
 62
7
  6
CONTINUOUS
 10
24.4271720236
 20
96.5655996854
  0
VERTEX
  8
0
 62
7
  6
CONTINUOUS
 10
24.4080852706
 20
96.556806367
  0
VERTEX
  8
0
 62
7
  6
CONTINUOUS
 10
24.3768840235
 20
96.5500779242
  0
VERTEX
  8
0
 62
7
  6
CONTINUOUS
 10
24.3355654776
 20
96.5457582209
  0
VERTEX
  8
0
 62
7
  6
CONTINUOUS
 10
24.2868691315
 20
96.5439693342
  0
VERTEX
  8
0
 62
7
  6
CONTINUOUS
 10
24.23304305
 20
96.5445290216
  0
SEQEND
  0
POLYLINE
  8
0
 62
7
  6
CONTINUOUS
 66
1
 70
0
  0
VERTEX
  8
0
 62
7
  6
CONTINUOUS
 10
156.8743815228
 20
90.9168104522
  0
VERTEX
  8
0
 62
7
  6
CONTINUOUS
 10
156.9492557236
 20
90.9208603675
  0
VERTEX
  8
0
 62
7
  6
CONTINUOUS
 10
157.0966129477
 20
90.9537697725
  0
VERTEX
  8
0
 62
7
  6
CONTINUOUS
 10
157.2308342708
 20
91.017183394
  0
VERTEX
  8
0
 62
7
  6
CONTINUOUS
 10
157.3406507646
 20
91.1007566218
  0
VERTEX
  8
0
 62
7
  6
CONTINUOUS
 10
157.423722638
 20
91.1918833474
  0
VERTEX
  8
0
 62
7
  6
CONTINUOUS
 10
157.4854017472
 20
91.2832597116
  0
VERTEX
  8
0
 62
7
  6
CONTINUOUS
 10
157.5331702854
 20
91.3745256205
  0
VERTEX
  8
0
 62
7
  6
CONTINUOUS
 10
157.5726982801
 20
91.4685806384
  0
VERTEX
  8
0
 62
7
  6
CONTINUOUS
 10
157.6076111341
 20
91.5693089128
  0
VERTEX
  8
0
 62
7
  6
CONTINUOUS
 10
157.6401192439
 20
91.6807738515
  0
VERTEX
  8
0
 62
7
  6
CONTINUOUS
 10
157.6714678444
 20
91.8066384038
  0
VERTEX
  8
0
 62
7
  6
CONTINUOUS
 10
157.7023643257
 20
91.9502998821
  0
VERTEX
  8
0
 62
7
  6
CONTINUOUS
 10
157.7332219485
 20
92.1151223483
  0
VERTEX
  8
0
 62
7
  6
CONTINUOUS
 10
157.7608403728
 20
92.2823872651
  0
SEQEND
  0
POLYLINE
  8
0
 62
7
  6
CONTINUOUS
 66
1
 70
0
  0
VERTEX
  8
0
 62
7
  6
CONTINUOUS
 10
140.0743815221
 20
90.9168104522
  0
VERTEX
  8
0
 62
7
  6
CONTINUOUS
 10
140.1492559209
 20
90.920860389
  0
VERTEX
  8
0
 62
7
  6
CONTINUOUS
 10
140.2966132054
 20
90.9537698611
  0
VERTEX
  8
0
 62
7
  6
CONTINUOUS
 10
140.4308344744
 20
91.017183519
  0
VERTEX
  8
0
 62
7
  6
CONTINUOUS
 10
140.5406508482
 20
91.1007566994
  0
VERTEX
  8
0
 62
7
  6
CONTINUOUS
 10
140.6237226396
 20
91.1918833495
  0
VERTEX
  8
0
 62
7
  6
CONTINUOUS
 10
140.685401688
 20
91.2832596111
  0
VERTEX
  8
0
 62
7
  6
CONTINUOUS
 10
140.7331701934
 20
91.3745254231
  0
VERTEX
  8
0
 62
7
  6
CONTINUOUS
 10
140.7726981802
 20
91.4685803756
  0
VERTEX
  8
0
 62
7
  6
CONTINUOUS
 10
140.8076110335
 20
91.5693085955
  0
VERTEX
  8
0
 62
7
  6
CONTINUOUS
 10
140.8401191482
 20
91.6807734959
  0
VERTEX
  8
0
 62
7
  6
CONTINUOUS
 10
140.8714677607
 20
91.8066380417
  0
VERTEX
  8
0
 62
7
  6
CONTINUOUS
 10
140.9023642619
 20
91.9502995644
  0
VERTEX
  8
0
 62
7
  6
CONTINUOUS
 10
140.9332219134
 20
92.1151221477
  0
VERTEX
  8
0
 62
7
  6
CONTINUOUS
 10
140.9608403728
 20
92.2823872651
  0
SEQEND
  0
LINE
  8
0
 62
7
  6
CONTINUOUS
 10
31.9524636559
 20
156.8546278549
 11
31.7726803807
 21
157.2555770766
  0
POLYLINE
  8
0
 62
7
  6
CONTINUOUS
 66
1
 70
0
  0
VERTEX
  8
0
 62
7
  6
CONTINUOUS
 10
48.5608402643
 20
157.3512341211
  0
VERTEX
  8
0
 62
7
  6
CONTINUOUS
 10
48.5329536185
 20
157.5200291745
  0
VERTEX
  8
0
 62
7
  6
CONTINUOUS
 10
48.5021097171
 20
157.6845893909
  0
VERTEX
  8
0
 62
7
  6
CONTINUOUS
 10
48.4712259663
 20
157.8280276674
  0
VERTEX
  8
0
 62
7
  6
CONTINUOUS
 10
48.4398879197
 20
157.9537059679
  0
VERTEX
  8
0
 62
7
  6
CONTINUOUS
 10
48.4073865344
 20
158.0650196382
  0
VERTEX
  8
0
 62
7
  6
CONTINUOUS
 10
48.3724742316
 20
158.1656292597
  0
VERTEX
  8
0
 62
7
  6
CONTINUOUS
 10
48.3329376044
 20
158.2595941308
  0
VERTEX
  8
0
 62
7
  6
CONTINUOUS
 10
48.2851490131
 20
158.3507899118
  0
VERTEX
  8
0
 62
7
  6
CONTINUOUS
 10
48.2234399699
 20
158.4421020882
  0
VERTEX
  8
0
 62
7
  6
CONTINUOUS
 10
48.1403429025
 20
158.5331498421
  0
VERTEX
  8
0
 62
7
  6
CONTINUOUS
 10
48.0305376374
 20
158.6166194012
  0
VERTEX
  8
0
 62
7
  6
CONTINUOUS
 10
47.8963838553
 20
158.6799297084
  0
VERTEX
  8
0
 62
7
  6
CONTINUOUS
 10
47.7491376
 20
158.7127731838
  0
VERTEX
  8
0
 62
7
  6
CONTINUOUS
 10
47.6743818943
 20
158.7168102379
  0
SEQEND
  0
LINE
  8
0
 62
7
  6
CONTINUOUS
 10
48.5767437696
 20
157.2465149844
 11
48.5608389851
 21
157.3512423265
  0
POLYLINE
  8
0
 62
7
  6
CONTINUOUS
 66
1
 70
0
  0
VERTEX
  8
0
 62
7
  6
CONTINUOUS
 10
49.6329837715
 20
153.0594342558
  0
VERTEX
  8
0
 62
7
  6
CONTINUOUS
 10
49.5611059577
 20
153.6112273772
  0
VERTEX
  8
0
 62
7
  6
CONTINUOUS
 10
49.4663771064
 20
154.2110523041
  0
VERTEX
  8
0
 62
7
  6
CONTINUOUS
 10
49.3556895754
 20
154.7936631096
  0
VERTEX
  8
0
 62
7
  6
CONTINUOUS
 10
49.2290013418
 20
155.3540541314
  0
VERTEX
  8
0
 62
7
  6
CONTINUOUS
 10
49.086296596
 20
155.8873903336
  0
VERTEX
  8
0
 62
7
  6
CONTINUOUS
 10
48.9275281941
 20
156.389014814
  0
VERTEX
  8
0
 62
7
  6
CONTINUOUS
 10
48.7524636559
 20
156.8546278549
  0
SEQEND
  0
POLYLINE
  8
0
 62
7
  6
CONTINUOUS
 66
1
 70
0
  0
VERTEX
  8
0
 62
7
  6
CONTINUOUS
 10
58.2063309305
 20
147.2312365765
  0
VERTEX
  8
0
 62
7
  6
CONTINUOUS
 10
58.2103039074
 20
146.9379144576
  0
VERTEX
  8
0
 62
7
  6
CONTINUOUS
 10
58.2104302309
 20
146.8583209146
  0
VERTEX
  8
0
 62
7
  6
CONTINUOUS
 10
58.2091515515
 20
146.7792582534
  0
VERTEX
  8
0
 62
7
  6
CONTINUOUS
 10
58.2062650746
 20
146.7010065291
  0
VERTEX
  8
0
 62
7
  6
CONTINUOUS
 10
58.2015496726
 20
146.6237882851
  0
VERTEX
  8
0
 62
7
  6
CONTINUOUS
 10
58.1948067521
 20
146.5478232362
  0
VERTEX
  8
0
 62
7
  6
CONTINUOUS
 10
58.1858604059
 20
146.4735440915
  0
VERTEX
  8
0
 62
7
  6
CONTINUOUS
 10
58.1745408887
 20
146.4014590932
  0
VERTEX
  8
0
 62
7
  6
CONTINUOUS
 10
58.1606494895
 20
146.3313544243
  0
VERTEX
  8
0
 62
7
  6
CONTINUOUS
 10
58.1439496136
 20
146.2637042722
  0
VERTEX
  8
0
 62
7
  6
CONTINUOUS
 10
58.1242350718
 20
146.1996360879
  0
VERTEX
  8
0
 62
7
  6
CONTINUOUS
 10
58.1008883942
 20
146.1401462629
  0
VERTEX
  8
0
 62
7
  6
CONTINUOUS
 10
58.073419971
 20
146.084877314
  0
VERTEX
  8
0
 62
7
  6
CONTINUOUS
 10
58.0424050944
 20
146.0354327847
  0
VERTEX
  8
0
 62
7
  6
CONTINUOUS
 10
58.0089624084
 20
145.9932538118
  0
VERTEX
  8
0
 62
7
  6
CONTINUOUS
 10
57.9730925171
 20
145.95797952
  0
VERTEX
  8
0
 62
7
  6
CONTINUOUS
 10
57.9347723417
 20
145.9296837085
  0
VERTEX
  8
0
 62
7
  6
CONTINUOUS
 10
57.8939413412
 20
145.9089736029
  0
VERTEX
  8
0
 62
7
  6
CONTINUOUS
 10
57.8511445185
 20
145.8973853409
  0
VERTEX
  8
0
 62
7
  6
CONTINUOUS
 10
57.8277747202
 20
145.8956188307
  0
SEQEND
  0
POLYLINE
  8
0
 62
7
  6
CONTINUOUS
 66
1
 70
0
  0
VERTEX
  8
0
 62
7
  6
CONTINUOUS
 10
58.0300446186
 20
102.4063518431
  0
VERTEX
  8
0
 62
7
  6
CONTINUOUS
 10
58.0260748976
 20
102.7003836141
  0
VERTEX
  8
0
 62
7
  6
CONTINUOUS
 10
58.0260282312
 20
102.7802527871
  0
VERTEX
  8
0
 62
7
  6
CONTINUOUS
 10
58.0274049959
 20
102.8594282503
  0
VERTEX
  8
0
 62
7
  6
CONTINUOUS
 10
58.0304041053
 20
102.9376502241
  0
VERTEX
  8
0
 62
7
  6
CONTINUOUS
 10
58.0352396751
 20
103.0147213436
  0
VERTEX
  8
0
 62
7
  6
CONTINUOUS
 10
58.0421008048
 20
103.0904345162
  0
VERTEX
  8
0
 62
7
  6
CONTINUOUS
 10
58.0511567032
 20
103.1643617851
  0
VERTEX
  8
0
 62
7
  6
CONTINUOUS
 10
58.062572359
 20
103.2360569613
  0
VERTEX
  8
0
 62
7
  6
CONTINUOUS
 10
58.0765283351
 20
103.3056559835
  0
VERTEX
  8
0
 62
7
  6
CONTINUOUS
 10
58.0932960896
 20
103.3728915695
  0
VERTEX
  8
0
 62
7
  6
CONTINUOUS
 10
58.1129982416
 20
103.4363206104
  0
VERTEX
  8
0
 62
7
  6
CONTINUOUS
 10
58.1363496395
 20
103.4953155028
  0
VERTEX
  8
0
 62
7
  6
CONTINUOUS
 10
58.1637525231
 20
103.5500855078
  0
VERTEX
  8
0
 62
7
  6
CONTINUOUS
 10
58.1946016569
 20
103.5990167752
  0
VERTEX
  8
0
 62
7
  6
CONTINUOUS
 10
58.2280656598
 20
103.641043138
  0
VERTEX
  8
0
 62
7
  6
CONTINUOUS
 10
58.2642008618
 20
103.6763868127
  0
VERTEX
  8
0
 62
7
  6
CONTINUOUS
 10
58.3029641035
 20
103.7047519561
  0
VERTEX
  8
0
 62
7
  6
CONTINUOUS
 10
58.3442377031
 20
103.7253282538
  0
VERTEX
  8
0
 62
7
  6
CONTINUOUS
 10
58.3872350393
 20
103.736511281
  0
VERTEX
  8
0
 62
7
  6
CONTINUOUS
 10
58.4084739425
 20
103.7380012932
  0
SEQEND
  0
LINE
  8
0
 62
7
  6
CONTINUOUS
 10
58.0324866732
 20
102.1233376741
 11
58.0300446186
 21
102.4063518431
  0
LINE
  8
0
 62
7
  6
CONTINUOUS
 10
58.2039149561
 20
147.5142583132
 11
58.2063309305
 21
147.2312365765
  0
LINE
  8
0
 62
7
  6
CONTINUOUS
 10
58.0324866732
 20
102.1233376741
 11
58.03304305
 21
96.5752367336
  0
LINE
  8
0
 62
7
  6
CONTINUOUS
 10
58.2033793638
 20
153.0583464388
 11
58.2039149561
 21
147.5142583132
  0
LINE
  8
0
 62
7
  6
CONTINUOUS
 10
58.2034386719
 20
153.0594283902
 11
58.2033793667
 21
153.0584084503
  0
LINE
  8
0
 62
7
  6
CONTINUOUS
 10
58.03304305
 20
96.5752046205
 11
58.032983724
 21
96.5741965834
  0
POLYLINE
  8
0
 62
7
  6
CONTINUOUS
 66
1
 70
0
  0
VERTEX
  8
0
 62
7
  6
CONTINUOUS
 10
40.1726814239
 20
92.3780457391
  0
VERTEX
  8
0
 62
7
  6
CONTINUOUS
 10
40.353408151
 20
92.7812924786
  0
VERTEX
  8
0
 62
7
  6
CONTINUOUS
 10
40.5284019688
 20
93.2471432098
  0
VERTEX
  8
0
 62
7
  6
CONTINUOUS
 10
40.6870999219
 20
93.7489937299
  0
VERTEX
  8
0
 62
7
  6
CONTINUOUS
 10
40.8297326975
 20
94.2825415633
  0
VERTEX
  8
0
 62
7
  6
CONTINUOUS
 10
40.9563465974
 20
94.8431273942
  0
VERTEX
  8
0
 62
7
  6
CONTINUOUS
 10
41.0669572082
 20
95.4259145292
  0
VERTEX
  8
0
 62
7
  6
CONTINUOUS
 10
41.161606668
 20
96.0258961176
  0
VERTEX
  8
0
 62
7
  6
CONTINUOUS
 10
41.2329837748
 20
96.574186462
  0
SEQEND
  0
POLYLINE
  8
0
 62
7
  6
CONTINUOUS
 66
1
 70
0
  0
VERTEX
  8
0
 62
7
  6
CONTINUOUS
 10
106.4752161781
 20
90.9168107988
  0
VERTEX
  8
0
 62
7
  6
CONTINUOUS
 10
106.5492559209
 20
90.920860389
  0
VERTEX
  8
0
 62
7
  6
CONTINUOUS
 10
106.6966132054
 20
90.9537698611
  0
VERTEX
  8
0
 62
7
  6
CONTINUOUS
 10
106.8308344744
 20
91.017183519
  0
VERTEX
  8
0
 62
7
  6
CONTINUOUS
 10
106.9406508482
 20
91.1007566994
  0
VERTEX
  8
0
 62
7
  6
CONTINUOUS
 10
107.0237226396
 20
91.1918833495
  0
VERTEX
  8
0
 62
7
  6
CONTINUOUS
 10
107.085401688
 20
91.2832596111
  0
VERTEX
  8
0
 62
7
  6
CONTINUOUS
 10
107.1331701934
 20
91.3745254231
  0
VERTEX
  8
0
 62
7
  6
CONTINUOUS
 10
107.1726981802
 20
91.4685803756
  0
VERTEX
  8
0
 62
7
  6
CONTINUOUS
 10
107.2076110335
 20
91.5693085955
  0
VERTEX
  8
0
 62
7
  6
CONTINUOUS
 10
107.2401191482
 20
91.6807734959
  0
VERTEX
  8
0
 62
7
  6
CONTINUOUS
 10
107.2714677607
 20
91.8066380417
  0
VERTEX
  8
0
 62
7
  6
CONTINUOUS
 10
107.3023642619
 20
91.9502995644
  0
VERTEX
  8
0
 62
7
  6
CONTINUOUS
 10
107.3332219134
 20
92.1151221477
  0
VERTEX
  8
0
 62
7
  6
CONTINUOUS
 10
107.3608403728
 20
92.2823872651
  0
SEQEND
  0
POLYLINE
  8
0
 62
7
  6
CONTINUOUS
 66
1
 70
0
  0
VERTEX
  8
0
 62
7
  6
CONTINUOUS
 10
72.8752161781
 20
90.9168107988
  0
VERTEX
  8
0
 62
7
  6
CONTINUOUS
 10
72.9492559209
 20
90.920860389
  0
VERTEX
  8
0
 62
7
  6
CONTINUOUS
 10
73.0966132054
 20
90.9537698611
  0
VERTEX
  8
0
 62
7
  6
CONTINUOUS
 10
73.2308344744
 20
91.017183519
  0
VERTEX
  8
0
 62
7
  6
CONTINUOUS
 10
73.3406508482
 20
91.1007566994
  0
VERTEX
  8
0
 62
7
  6
CONTINUOUS
 10
73.4237226396
 20
91.1918833495
  0
VERTEX
  8
0
 62
7
  6
CONTINUOUS
 10
73.485401688
 20
91.2832596111
  0
VERTEX
  8
0
 62
7
  6
CONTINUOUS
 10
73.5331701934
 20
91.3745254231
  0
VERTEX
  8
0
 62
7
  6
CONTINUOUS
 10
73.5726981802
 20
91.4685803756
  0
VERTEX
  8
0
 62
7
  6
CONTINUOUS
 10
73.6076110335
 20
91.5693085955
  0
VERTEX
  8
0
 62
7
  6
CONTINUOUS
 10
73.6401191482
 20
91.6807734959
  0
VERTEX
  8
0
 62
7
  6
CONTINUOUS
 10
73.6714677607
 20
91.8066380417
  0
VERTEX
  8
0
 62
7
  6
CONTINUOUS
 10
73.7023642619
 20
91.9502995644
  0
VERTEX
  8
0
 62
7
  6
CONTINUOUS
 10
73.7332219134
 20
92.1151221477
  0
VERTEX
  8
0
 62
7
  6
CONTINUOUS
 10
73.7608403728
 20
92.2823872651
  0
SEQEND
  0
POLYLINE
  8
0
 62
7
  6
CONTINUOUS
 66
1
 70
0
  0
VERTEX
  8
0
 62
7
  6
CONTINUOUS
 10
123.2743815221
 20
90.9168104522
  0
VERTEX
  8
0
 62
7
  6
CONTINUOUS
 10
123.3492559209
 20
90.920860389
  0
VERTEX
  8
0
 62
7
  6
CONTINUOUS
 10
123.4966132054
 20
90.9537698611
  0
VERTEX
  8
0
 62
7
  6
CONTINUOUS
 10
123.6308344744
 20
91.017183519
  0
VERTEX
  8
0
 62
7
  6
CONTINUOUS
 10
123.7406508482
 20
91.1007566994
  0
VERTEX
  8
0
 62
7
  6
CONTINUOUS
 10
123.8237226396
 20
91.1918833495
  0
VERTEX
  8
0
 62
7
  6
CONTINUOUS
 10
123.885401688
 20
91.2832596111
  0
VERTEX
  8
0
 62
7
  6
CONTINUOUS
 10
123.9331701934
 20
91.3745254231
  0
VERTEX
  8
0
 62
7
  6
CONTINUOUS
 10
123.9726981802
 20
91.4685803756
  0
VERTEX
  8
0
 62
7
  6
CONTINUOUS
 10
124.0076110335
 20
91.5693085955
  0
VERTEX
  8
0
 62
7
  6
CONTINUOUS
 10
124.0401191482
 20
91.6807734959
  0
VERTEX
  8
0
 62
7
  6
CONTINUOUS
 10
124.0714677607
 20
91.8066380417
  0
VERTEX
  8
0
 62
7
  6
CONTINUOUS
 10
124.1023642619
 20
91.9502995644
  0
VERTEX
  8
0
 62
7
  6
CONTINUOUS
 10
124.1332219134
 20
92.1151221477
  0
VERTEX
  8
0
 62
7
  6
CONTINUOUS
 10
124.1608403728
 20
92.2823872651
  0
SEQEND
  0
POLYLINE
  8
0
 62
7
  6
CONTINUOUS
 66
1
 70
0
  0
VERTEX
  8
0
 62
7
  6
CONTINUOUS
 10
89.6743815221
 20
90.9168104522
  0
VERTEX
  8
0
 62
7
  6
CONTINUOUS
 10
89.7492559209
 20
90.920860389
  0
VERTEX
  8
0
 62
7
  6
CONTINUOUS
 10
89.8966132054
 20
90.9537698611
  0
VERTEX
  8
0
 62
7
  6
CONTINUOUS
 10
90.0308344744
 20
91.017183519
  0
VERTEX
  8
0
 62
7
  6
CONTINUOUS
 10
90.1406508482
 20
91.1007566994
  0
VERTEX
  8
0
 62
7
  6
CONTINUOUS
 10
90.2237226396
 20
91.1918833495
  0
VERTEX
  8
0
 62
7
  6
CONTINUOUS
 10
90.285401688
 20
91.2832596111
  0
VERTEX
  8
0
 62
7
  6
CONTINUOUS
 10
90.3331701934
 20
91.3745254231
  0
VERTEX
  8
0
 62
7
  6
CONTINUOUS
 10
90.3726981802
 20
91.4685803756
  0
VERTEX
  8
0
 62
7
  6
CONTINUOUS
 10
90.4076110335
 20
91.5693085955
  0
VERTEX
  8
0
 62
7
  6
CONTINUOUS
 10
90.4401191482
 20
91.6807734959
  0
VERTEX
  8
0
 62
7
  6
CONTINUOUS
 10
90.4714677607
 20
91.8066380417
  0
VERTEX
  8
0
 62
7
  6
CONTINUOUS
 10
90.5023642619
 20
91.9502995644
  0
VERTEX
  8
0
 62
7
  6
CONTINUOUS
 10
90.5332219134
 20
92.1151221477
  0
VERTEX
  8
0
 62
7
  6
CONTINUOUS
 10
90.5608403728
 20
92.2823872651
  0
SEQEND
  0
POLYLINE
  8
0
 62
7
  6
CONTINUOUS
 66
1
 70
0
  0
VERTEX
  8
0
 62
7
  6
CONTINUOUS
 10
56.0743815221
 20
90.9168104522
  0
VERTEX
  8
0
 62
7
  6
CONTINUOUS
 10
56.1492559209
 20
90.920860389
  0
VERTEX
  8
0
 62
7
  6
CONTINUOUS
 10
56.2966132054
 20
90.9537698611
  0
VERTEX
  8
0
 62
7
  6
CONTINUOUS
 10
56.4308344744
 20
91.017183519
  0
VERTEX
  8
0
 62
7
  6
CONTINUOUS
 10
56.5406508482
 20
91.1007566994
  0
VERTEX
  8
0
 62
7
  6
CONTINUOUS
 10
56.6237226396
 20
91.1918833495
  0
VERTEX
  8
0
 62
7
  6
CONTINUOUS
 10
56.685401688
 20
91.2832596111
  0
VERTEX
  8
0
 62
7
  6
CONTINUOUS
 10
56.7331701934
 20
91.3745254231
  0
VERTEX
  8
0
 62
7
  6
CONTINUOUS
 10
56.7726981802
 20
91.4685803756
  0
VERTEX
  8
0
 62
7
  6
CONTINUOUS
 10
56.8076110335
 20
91.5693085955
  0
VERTEX
  8
0
 62
7
  6
CONTINUOUS
 10
56.8401191482
 20
91.6807734959
  0
VERTEX
  8
0
 62
7
  6
CONTINUOUS
 10
56.8714677607
 20
91.8066380417
  0
VERTEX
  8
0
 62
7
  6
CONTINUOUS
 10
56.9023642619
 20
91.9502995644
  0
VERTEX
  8
0
 62
7
  6
CONTINUOUS
 10
56.9332219134
 20
92.1151221477
  0
VERTEX
  8
0
 62
7
  6
CONTINUOUS
 10
56.9608403728
 20
92.2823872651
  0
SEQEND
  0
POLYLINE
  8
0
 62
7
  6
CONTINUOUS
 66
1
 70
0
  0
VERTEX
  8
0
 62
7
  6
CONTINUOUS
 10
39.2743815221
 20
90.9168104522
  0
VERTEX
  8
0
 62
7
  6
CONTINUOUS
 10
39.3492559209
 20
90.920860389
  0
VERTEX
  8
0
 62
7
  6
CONTINUOUS
 10
39.4966132054
 20
90.9537698611
  0
VERTEX
  8
0
 62
7
  6
CONTINUOUS
 10
39.6308344744
 20
91.017183519
  0
VERTEX
  8
0
 62
7
  6
CONTINUOUS
 10
39.7406508482
 20
91.1007566994
  0
VERTEX
  8
0
 62
7
  6
CONTINUOUS
 10
39.8237226396
 20
91.1918833495
  0
VERTEX
  8
0
 62
7
  6
CONTINUOUS
 10
39.885401688
 20
91.2832596111
  0
VERTEX
  8
0
 62
7
  6
CONTINUOUS
 10
39.9331701934
 20
91.3745254231
  0
VERTEX
  8
0
 62
7
  6
CONTINUOUS
 10
39.9726981802
 20
91.4685803756
  0
VERTEX
  8
0
 62
7
  6
CONTINUOUS
 10
40.0076110335
 20
91.5693085955
  0
VERTEX
  8
0
 62
7
  6
CONTINUOUS
 10
40.0401191482
 20
91.6807734959
  0
VERTEX
  8
0
 62
7
  6
CONTINUOUS
 10
40.0714677607
 20
91.8066380417
  0
VERTEX
  8
0
 62
7
  6
CONTINUOUS
 10
40.1023642619
 20
91.9502995644
  0
VERTEX
  8
0
 62
7
  6
CONTINUOUS
 10
40.1332219134
 20
92.1151221477
  0
VERTEX
  8
0
 62
7
  6
CONTINUOUS
 10
40.1608403728
 20
92.2823872651
  0
SEQEND
  0
POLYLINE
  8
0
 62
7
  6
CONTINUOUS
 66
1
 70
0
  0
VERTEX
  8
0
 62
7
  6
CONTINUOUS
 10
22.4743910222
 20
90.9168104412
  0
VERTEX
  8
0
 62
7
  6
CONTINUOUS
 10
22.5416763404
 20
90.9200770528
  0
VERTEX
  8
0
 62
7
  6
CONTINUOUS
 10
22.6923717636
 20
90.9523259769
  0
VERTEX
  8
0
 62
7
  6
CONTINUOUS
 10
22.8329319123
 20
91.0184770949
  0
VERTEX
  8
0
 62
7
  6
CONTINUOUS
 10
22.9492862304
 20
91.1089103768
  0
VERTEX
  8
0
 62
7
  6
CONTINUOUS
 10
23.0372342438
 20
91.2098369447
  0
VERTEX
  8
0
 62
7
  6
CONTINUOUS
 10
23.1018937854
 20
91.3123931757
  0
VERTEX
  8
0
 62
7
  6
CONTINUOUS
 10
23.1519615178
 20
91.4168518891
  0
VERTEX
  8
0
 62
7
  6
CONTINUOUS
 10
23.193946636
 20
91.5277004418
  0
VERTEX
  8
0
 62
7
  6
CONTINUOUS
 10
23.2315150894
 20
91.6494738733
  0
VERTEX
  8
0
 62
7
  6
CONTINUOUS
 10
23.2665692107
 20
91.7856983351
  0
VERTEX
  8
0
 62
7
  6
CONTINUOUS
 10
23.3001450147
 20
91.9392908898
  0
VERTEX
  8
0
 62
7
  6
CONTINUOUS
 10
23.3326685913
 20
92.111967355
  0
VERTEX
  8
0
 62
7
  6
CONTINUOUS
 10
23.3608414227
 20
92.2823940004
  0
SEQEND
  0
POLYLINE
  8
0
 62
6
  6
CONTINUOUS
 66
1
 70
0
  0
VERTEX
  8
0
 62
6
  6
CONTINUOUS
 10
155.8949529243
 20
96.5445758883
  0
VERTEX
  8
0
 62
6
  6
CONTINUOUS
 10
156.0820197776
 20
96.5505688313
  0
VERTEX
  8
0
 62
6
  6
CONTINUOUS
 10
156.2619744302
 20
96.5619772581
  0
VERTEX
  8
0
 62
6
  6
CONTINUOUS
 10
156.4285949203
 20
96.5782600836
  0
VERTEX
  8
0
 62
6
  6
CONTINUOUS
 10
156.5762033288
 20
96.598760666
  0
VERTEX
  8
0
 62
6
  6
CONTINUOUS
 10
156.6998626176
 20
96.6227130409
  0
VERTEX
  8
0
 62
6
  6
CONTINUOUS
 10
156.7955293547
 20
96.6492540269
  0
VERTEX
  8
0
 62
6
  6
CONTINUOUS
 10
156.8601607886
 20
96.6774395608
  0
VERTEX
  8
0
 62
6
  6
CONTINUOUS
 10
156.8917736582
 20
96.7062627461
  0
SEQEND
  0
LINE
  8
0
 62
7
  6
CONTINUOUS
 10
16.4182099153
 20
90.9168103448
 11
22.4745072977
 21
90.9168103448
  0
LINE
  8
0
 62
7
  6
CONTINUOUS
 10
34.9619120765
 20
90.9168103448
 11
39.2745002616
 21
90.9168103448
  0
LINE
  8
0
 62
7
  6
CONTINUOUS
 10
51.7619120765
 20
90.9168103448
 11
56.0745002616
 21
90.9168103448
  0
LINE
  8
0
 62
7
  6
CONTINUOUS
 10
68.5619130195
 20
90.9168103448
 11
72.8745093944
 21
90.9168103448
  0
LINE
  8
0
 62
7
  6
CONTINUOUS
 10
85.3619120765
 20
90.9168103448
 11
89.6745002616
 21
90.9168103448
  0
LINE
  8
0
 62
7
  6
CONTINUOUS
 10
102.1619130195
 20
90.9168103448
 11
106.4745093944
 21
90.9168103448
  0
LINE
  8
0
 62
7
  6
CONTINUOUS
 10
118.9619120765
 20
90.9168103448
 11
123.2745002616
 21
90.9168103448
  0
LINE
  8
0
 62
7
  6
CONTINUOUS
 10
135.7619120765
 20
90.9168103448
 11
140.0745002616
 21
90.9168103448
  0
LINE
  8
0
 62
7
  6
CONTINUOUS
 10
152.5619120765
 20
90.9168103448
 11
156.8745042024
 21
90.9168103448
  0
LINE
  8
0
 62
7
  6
CONTINUOUS
 10
39.2745103373
 20
90.9168103448
 11
39.274381469
 21
90.9168104219
  0
LINE
  8
0
 62
7
  6
CONTINUOUS
 10
56.0745103373
 20
90.9168103448
 11
56.074381469
 21
90.9168104219
  0
LINE
  8
0
 62
7
  6
CONTINUOUS
 10
89.6745103373
 20
90.9168103448
 11
89.674381469
 21
90.9168104219
  0
LINE
  8
0
 62
7
  6
CONTINUOUS
 10
123.2745103373
 20
90.9168103448
 11
123.274381469
 21
90.9168104219
  0
LINE
  8
0
 62
7
  6
CONTINUOUS
 10
140.0745103373
 20
90.9168103448
 11
140.074381469
 21
90.9168104219
  0
LINE
  8
0
 62
7
  6
CONTINUOUS
 10
156.8745107127
 20
90.9168103448
 11
156.8743820866
 21
90.9168104219
  0
LINE
  8
0
 62
7
  6
CONTINUOUS
 10
67.4830143067
 20
92.7812923717
 11
67.6637409899
 21
92.3780457392
  0
LINE
  8
0
 62
7
  6
CONTINUOUS
 10
66.6034386686
 20
96.5741923277
 11
66.6033793667
 21
96.5752122394
  0
LINE
  8
0
 62
7
  6
CONTINUOUS
 10
62.5682112069
 20
129.8168103448
 11
62.5682112069
 21
119.8168103448
  0
POLYLINE
  8
0
 62
7
  6
CONTINUOUS
 66
1
 70
0
  0
VERTEX
  8
0
 62
7
  6
CONTINUOUS
 10
66.426080545
 20
146.9338087042
  0
VERTEX
  8
0
 62
7
  6
CONTINUOUS
 10
66.4300450215
 20
147.22727269
  0
VERTEX
  8
0
 62
7
  6
CONTINUOUS
 10
66.4324867654
 20
147.5102848915
  0
VERTEX
  8
0
 62
7
  6
CONTINUOUS
 10
66.43304305
 20
153.0583464388
  0
SEQEND
  0
POLYLINE
  8
0
 62
7
  6
CONTINUOUS
 66
1
 70
0
  0
VERTEX
  8
0
 62
7
  6
CONTINUOUS
 10
66.6103084859
 20
102.6961831597
  0
VERTEX
  8
0
 62
7
  6
CONTINUOUS
 10
66.6063309307
 20
102.4023840625
  0
VERTEX
  8
0
 62
7
  6
CONTINUOUS
 10
66.6039149563
 20
102.119362402
  0
VERTEX
  8
0
 62
7
  6
CONTINUOUS
 10
66.6033793638
 20
96.5752742509
  0
SEQEND
  0
LINE
  8
0
 62
7
  6
CONTINUOUS
 10
56.9608391207
 20
92.2823792331
 11
56.9767414951
 21
92.3871047781
  0
POLYLINE
  8
0
 62
7
  6
CONTINUOUS
 66
1
 70
0
  0
VERTEX
  8
0
 62
7
  6
CONTINUOUS
 10
76.0637420331
 20
157.2555770766
  0
VERTEX
  8
0
 62
7
  6
CONTINUOUS
 10
75.8839587578
 20
156.8546278549
  0
VERTEX
  8
0
 62
7
  6
CONTINUOUS
 10
75.7088942197
 20
156.389014814
  0
VERTEX
  8
0
 62
7
  6
CONTINUOUS
 10
75.5501258178
 20
155.8873903336
  0
VERTEX
  8
0
 62
7
  6
CONTINUOUS
 10
75.407421072
 20
155.3540541314
  0
VERTEX
  8
0
 62
7
  6
CONTINUOUS
 10
75.2807328384
 20
154.7936631096
  0
VERTEX
  8
0
 62
7
  6
CONTINUOUS
 10
75.1700453074
 20
154.2110523041
  0
VERTEX
  8
0
 62
7
  6
CONTINUOUS
 10
75.0753164561
 20
153.6112273772
  0
VERTEX
  8
0
 62
7
  6
CONTINUOUS
 10
75.0034386423
 20
153.0594342558
  0
SEQEND
  0
POLYLINE
  8
0
 62
7
  6
CONTINUOUS
 66
1
 70
0
  0
VERTEX
  8
0
 62
7
  6
CONTINUOUS
 10
41.232983724
 20
96.5741965834
  0
VERTEX
  8
0
 62
7
  6
CONTINUOUS
 10
41.2271720236
 20
96.5655996854
  0
VERTEX
  8
0
 62
7
  6
CONTINUOUS
 10
41.2080852706
 20
96.556806367
  0
VERTEX
  8
0
 62
7
  6
CONTINUOUS
 10
41.1768840235
 20
96.5500779242
  0
VERTEX
  8
0
 62
7
  6
CONTINUOUS
 10
41.1355654776
 20
96.5457582209
  0
VERTEX
  8
0
 62
7
  6
CONTINUOUS
 10
41.0868691315
 20
96.5439693342
  0
VERTEX
  8
0
 62
7
  6
CONTINUOUS
 10
41.03304305
 20
96.5445290216
  0
SEQEND
  0
POLYLINE
  8
0
 62
7
  6
CONTINUOUS
 66
1
 70
0
  0
VERTEX
  8
0
 62
7
  6
CONTINUOUS
 10
150.8033793638
 20
96.5445290216
  0
VERTEX
  8
0
 62
7
  6
CONTINUOUS
 10
150.7563506886
 20
96.5439170689
  0
VERTEX
  8
0
 62
7
  6
CONTINUOUS
 10
150.7128283485
 20
96.5450560898
  0
VERTEX
  8
0
 62
7
  6
CONTINUOUS
 10
150.6741769003
 20
96.5481410626
  0
VERTEX
  8
0
 62
7
  6
CONTINUOUS
 10
150.6425284772
 20
96.5531581971
  0
VERTEX
  8
0
 62
7
  6
CONTINUOUS
 10
150.6195779634
 20
96.559928213
  0
VERTEX
  8
0
 62
7
  6
CONTINUOUS
 10
150.6064522822
 20
96.5681428868
  0
VERTEX
  8
0
 62
7
  6
CONTINUOUS
 10
150.6034386686
 20
96.5741923277
  0
SEQEND
  0
POLYLINE
  8
0
 62
7
  6
CONTINUOUS
 66
1
 70
0
  0
VERTEX
  8
0
 62
7
  6
CONTINUOUS
 10
134.0033793638
 20
96.5445290216
  0
VERTEX
  8
0
 62
7
  6
CONTINUOUS
 10
133.9563506886
 20
96.5439170689
  0
VERTEX
  8
0
 62
7
  6
CONTINUOUS
 10
133.9128283485
 20
96.5450560898
  0
VERTEX
  8
0
 62
7
  6
CONTINUOUS
 10
133.8741769003
 20
96.5481410626
  0
VERTEX
  8
0
 62
7
  6
CONTINUOUS
 10
133.8425284772
 20
96.5531581971
  0
VERTEX
  8
0
 62
7
  6
CONTINUOUS
 10
133.8195779634
 20
96.559928213
  0
VERTEX
  8
0
 62
7
  6
CONTINUOUS
 10
133.8064522822
 20
96.5681428868
  0
VERTEX
  8
0
 62
7
  6
CONTINUOUS
 10
133.8034386686
 20
96.5741923277
  0
SEQEND
  0
POLYLINE
  8
0
 62
7
  6
CONTINUOUS
 66
1
 70
0
  0
VERTEX
  8
0
 62
7
  6
CONTINUOUS
 10
117.2033793638
 20
96.5445290216
  0
VERTEX
  8
0
 62
7
  6
CONTINUOUS
 10
117.1563506886
 20
96.5439170689
  0
VERTEX
  8
0
 62
7
  6
CONTINUOUS
 10
117.1128283485
 20
96.5450560898
  0
VERTEX
  8
0
 62
7
  6
CONTINUOUS
 10
117.0741769003
 20
96.5481410626
  0
VERTEX
  8
0
 62
7
  6
CONTINUOUS
 10
117.0425284772
 20
96.5531581971
  0
VERTEX
  8
0
 62
7
  6
CONTINUOUS
 10
117.0195779634
 20
96.559928213
  0
VERTEX
  8
0
 62
7
  6
CONTINUOUS
 10
117.0064522822
 20
96.5681428868
  0
VERTEX
  8
0
 62
7
  6
CONTINUOUS
 10
117.0034386686
 20
96.5741923277
  0
SEQEND
  0
POLYLINE
  8
0
 62
7
  6
CONTINUOUS
 66
1
 70
0
  0
VERTEX
  8
0
 62
7
  6
CONTINUOUS
 10
100.4033793638
 20
96.5445290216
  0
VERTEX
  8
0
 62
7
  6
CONTINUOUS
 10
100.3563506886
 20
96.5439170689
  0
VERTEX
  8
0
 62
7
  6
CONTINUOUS
 10
100.3128283485
 20
96.5450560898
  0
VERTEX
  8
0
 62
7
  6
CONTINUOUS
 10
100.2741769003
 20
96.5481410626
  0
VERTEX
  8
0
 62
7
  6
CONTINUOUS
 10
100.2425284772
 20
96.5531581971
  0
VERTEX
  8
0
 62
7
  6
CONTINUOUS
 10
100.2195779634
 20
96.559928213
  0
VERTEX
  8
0
 62
7
  6
CONTINUOUS
 10
100.2064522822
 20
96.5681428868
  0
VERTEX
  8
0
 62
7
  6
CONTINUOUS
 10
100.2034386686
 20
96.5741923277
  0
SEQEND
  0
POLYLINE
  8
0
 62
7
  6
CONTINUOUS
 66
1
 70
0
  0
VERTEX
  8
0
 62
7
  6
CONTINUOUS
 10
83.6033793638
 20
96.5445290216
  0
VERTEX
  8
0
 62
7
  6
CONTINUOUS
 10
83.5563506886
 20
96.5439170689
  0
VERTEX
  8
0
 62
7
  6
CONTINUOUS
 10
83.5128283485
 20
96.5450560898
  0
VERTEX
  8
0
 62
7
  6
CONTINUOUS
 10
83.4741769003
 20
96.5481410626
  0
VERTEX
  8
0
 62
7
  6
CONTINUOUS
 10
83.4425284772
 20
96.5531581971
  0
VERTEX
  8
0
 62
7
  6
CONTINUOUS
 10
83.4195779634
 20
96.559928213
  0
VERTEX
  8
0
 62
7
  6
CONTINUOUS
 10
83.4064522822
 20
96.5681428868
  0
VERTEX
  8
0
 62
7
  6
CONTINUOUS
 10
83.4034386686
 20
96.5741923277
  0
SEQEND
  0
POLYLINE
  8
0
 62
7
  6
CONTINUOUS
 66
1
 70
0
  0
VERTEX
  8
0
 62
7
  6
CONTINUOUS
 10
66.8033793638
 20
96.5445290216
  0
VERTEX
  8
0
 62
7
  6
CONTINUOUS
 10
66.7563506886
 20
96.5439170689
  0
VERTEX
  8
0
 62
7
  6
CONTINUOUS
 10
66.7128283485
 20
96.5450560898
  0
VERTEX
  8
0
 62
7
  6
CONTINUOUS
 10
66.6741769003
 20
96.5481410626
  0
VERTEX
  8
0
 62
7
  6
CONTINUOUS
 10
66.6425284772
 20
96.5531581971
  0
VERTEX
  8
0
 62
7
  6
CONTINUOUS
 10
66.6195779634
 20
96.559928213
  0
VERTEX
  8
0
 62
7
  6
CONTINUOUS
 10
66.6064522822
 20
96.5681428868
  0
VERTEX
  8
0
 62
7
  6
CONTINUOUS
 10
66.6034386686
 20
96.5741923277
  0
SEQEND
  0
POLYLINE
  8
0
 62
7
  6
CONTINUOUS
 66
1
 70
0
  0
VERTEX
  8
0
 62
7
  6
CONTINUOUS
 10
50.0033793638
 20
96.5445290216
  0
VERTEX
  8
0
 62
7
  6
CONTINUOUS
 10
49.9563506886
 20
96.5439170689
  0
VERTEX
  8
0
 62
7
  6
CONTINUOUS
 10
49.9128283485
 20
96.5450560898
  0
VERTEX
  8
0
 62
7
  6
CONTINUOUS
 10
49.8741769003
 20
96.5481410626
  0
VERTEX
  8
0
 62
7
  6
CONTINUOUS
 10
49.8425284772
 20
96.5531581971
  0
VERTEX
  8
0
 62
7
  6
CONTINUOUS
 10
49.8195779634
 20
96.559928213
  0
VERTEX
  8
0
 62
7
  6
CONTINUOUS
 10
49.8064522822
 20
96.5681428868
  0
VERTEX
  8
0
 62
7
  6
CONTINUOUS
 10
49.8034386686
 20
96.5741923277
  0
SEQEND
  0
POLYLINE
  8
0
 62
7
  6
CONTINUOUS
 66
1
 70
0
  0
VERTEX
  8
0
 62
7
  6
CONTINUOUS
 10
33.2033793638
 20
96.5445290216
  0
VERTEX
  8
0
 62
7
  6
CONTINUOUS
 10
33.1563506886
 20
96.5439170689
  0
VERTEX
  8
0
 62
7
  6
CONTINUOUS
 10
33.1128283485
 20
96.5450560898
  0
VERTEX
  8
0
 62
7
  6
CONTINUOUS
 10
33.0741769003
 20
96.5481410626
  0
VERTEX
  8
0
 62
7
  6
CONTINUOUS
 10
33.0425284772
 20
96.5531581971
  0
VERTEX
  8
0
 62
7
  6
CONTINUOUS
 10
33.0195779634
 20
96.559928213
  0
VERTEX
  8
0
 62
7
  6
CONTINUOUS
 10
33.0064522822
 20
96.5681428868
  0
VERTEX
  8
0
 62
7
  6
CONTINUOUS
 10
33.0034386686
 20
96.5741923277
  0
SEQEND
  0
LINE
  8
0
 62
6
  6
CONTINUOUS
 10
155.8949529243
 20
96.5445758883
 11
155.8893146201
 21
96.5445290233
  0
LINE
  8
0
 62
7
  6
CONTINUOUS
 10
24.23304305
 20
96.5445290216
 11
16.4182112069
 21
96.5445290216
  0
LINE
  8
0
 62
7
  6
CONTINUOUS
 10
33.2033793638
 20
96.5445290216
 11
41.03304305
 21
96.5445290216
  0
LINE
  8
0
 62
7
  6
CONTINUOUS
 10
50.0033793638
 20
96.5445290216
 11
57.83304305
 21
96.5445290216
  0
LINE
  8
0
 62
7
  6
CONTINUOUS
 10
66.8033793638
 20
96.5445290216
 11
74.63304305
 21
96.5445290216
  0
LINE
  8
0
 62
7
  6
CONTINUOUS
 10
83.6033793638
 20
96.5445290216
 11
91.43304305
 21
96.5445290216
  0
LINE
  8
0
 62
7
  6
CONTINUOUS
 10
100.4033793638
 20
96.5445290216
 11
108.23304305
 21
96.5445290216
  0
LINE
  8
0
 62
7
  6
CONTINUOUS
 10
117.2033793638
 20
96.5445290216
 11
125.03304305
 21
96.5445290216
  0
LINE
  8
0
 62
7
  6
CONTINUOUS
 10
134.0033793638
 20
96.5445290216
 11
141.83304305
 21
96.5445290216
  0
LINE
  8
0
 62
7
  6
CONTINUOUS
 10
150.8033793638
 20
96.5445290216
 11
158.63304305
 21
96.5445290216
  0
LINE
  8
0
 62
6
  6
CONTINUOUS
 10
150.8013433801
 20
96.5445290216
 11
150.8033793638
 21
96.5445290216
  0
LINE
  8
0
 62
6
  6
CONTINUOUS
 10
158.63304305
 20
96.5445290216
 11
158.6350790337
 21
96.5445290216
  0
LINE
  8
DEFAULT_1
 62
2
  6
CENTER
 10
14.2182112069
 20
99.4168103448
 11
158.4605919372
 21
99.4168103448
  0
LINE
  8
0
 62
6
  6
CONTINUOUS
 10
153.5414694895
 20
96.5445758883
 11
153.5471077937
 21
96.5445290233
  0
POLYLINE
  8
0
 62
6
  6
CONTINUOUS
 66
1
 70
0
  0
VERTEX
  8
0
 62
6
  6
CONTINUOUS
 10
153.5414694895
 20
96.5445758883
  0
VERTEX
  8
0
 62
6
  6
CONTINUOUS
 10
153.3544026362
 20
96.5505688313
  0
VERTEX
  8
0
 62
6
  6
CONTINUOUS
 10
153.1744479836
 20
96.5619772581
  0
VERTEX
  8
0
 62
6
  6
CONTINUOUS
 10
153.0078274935
 20
96.5782600836
  0
VERTEX
  8
0
 62
6
  6
CONTINUOUS
 10
152.860219085
 20
96.598760666
  0
VERTEX
  8
0
 62
6
  6
CONTINUOUS
 10
152.7365597962
 20
96.6227130409
  0
VERTEX
  8
0
 62
6
  6
CONTINUOUS
 10
152.6408930591
 20
96.6492540269
  0
VERTEX
  8
0
 62
6
  6
CONTINUOUS
 10
152.5762616252
 20
96.6774395608
  0
VERTEX
  8
0
 62
6
  6
CONTINUOUS
 10
152.5446487556
 20
96.7062627461
  0
SEQEND
  0
POLYLINE
  8
0
 62
7
  6
CONTINUOUS
 66
1
 70
0
  0
VERTEX
  8
0
 62
7
  6
CONTINUOUS
 10
32.6277754202
 20
103.7380018488
  0
VERTEX
  8
0
 62
7
  6
CONTINUOUS
 10
32.650925637
 20
103.7362674411
  0
VERTEX
  8
0
 62
7
  6
CONTINUOUS
 10
32.6939002019
 20
103.7246636148
  0
VERTEX
  8
0
 62
7
  6
CONTINUOUS
 10
32.7350604982
 20
103.7037573647
  0
VERTEX
  8
0
 62
7
  6
CONTINUOUS
 10
32.7736743799
 20
103.6751406862
  0
VERTEX
  8
0
 62
7
  6
CONTINUOUS
 10
32.8096660677
 20
103.6395792819
  0
VERTEX
  8
0
 62
7
  6
CONTINUOUS
 10
32.8430047371
 20
103.5973363224
  0
VERTEX
  8
0
 62
7
  6
CONTINUOUS
 10
32.8737390668
 20
103.5481725917
  0
VERTEX
  8
0
 62
7
  6
CONTINUOUS
 10
32.9010192541
 20
103.4931787659
  0
VERTEX
  8
0
 62
7
  6
CONTINUOUS
 10
32.9242428817
 20
103.4339623502
  0
VERTEX
  8
0
 62
7
  6
CONTINUOUS
 10
32.9438512594
 20
103.3702499049
  0
VERTEX
  8
0
 62
7
  6
CONTINUOUS
 10
32.9605240781
 20
103.3028303271
  0
VERTEX
  8
0
 62
7
  6
CONTINUOUS
 10
32.9743877041
 20
103.2330330652
  0
VERTEX
  8
0
 62
7
  6
CONTINUOUS
 10
32.9857105157
 20
103.161161189
  0
VERTEX
  8
0
 62
7
  6
CONTINUOUS
 10
32.994677102
 20
103.0870437528
  0
VERTEX
  8
0
 62
7
  6
CONTINUOUS
 10
33.0014512483
 20
103.0111514702
  0
VERTEX
  8
0
 62
7
  6
CONTINUOUS
 10
33.006202173
 20
102.9339087007
  0
VERTEX
  8
0
 62
7
  6
CONTINUOUS
 10
33.0091213363
 20
102.8555193583
  0
VERTEX
  8
0
 62
7
  6
CONTINUOUS
 10
33.0104239799
 20
102.7761895915
  0
VERTEX
  8
0
 62
7
  6
CONTINUOUS
 10
33.0103084859
 20
102.6961831597
  0
SEQEND
  0
POLYLINE
  8
0
 62
7
  6
CONTINUOUS
 66
1
 70
0
  0
VERTEX
  8
0
 62
7
  6
CONTINUOUS
 10
49.4277754202
 20
103.7380018488
  0
VERTEX
  8
0
 62
7
  6
CONTINUOUS
 10
49.450925637
 20
103.7362674411
  0
VERTEX
  8
0
 62
7
  6
CONTINUOUS
 10
49.4939002019
 20
103.7246636148
  0
VERTEX
  8
0
 62
7
  6
CONTINUOUS
 10
49.5350604982
 20
103.7037573647
  0
VERTEX
  8
0
 62
7
  6
CONTINUOUS
 10
49.5736743799
 20
103.6751406862
  0
VERTEX
  8
0
 62
7
  6
CONTINUOUS
 10
49.6096660677
 20
103.6395792819
  0
VERTEX
  8
0
 62
7
  6
CONTINUOUS
 10
49.6430047371
 20
103.5973363224
  0
VERTEX
  8
0
 62
7
  6
CONTINUOUS
 10
49.6737390668
 20
103.5481725917
  0
VERTEX
  8
0
 62
7
  6
CONTINUOUS
 10
49.7010192541
 20
103.4931787659
  0
VERTEX
  8
0
 62
7
  6
CONTINUOUS
 10
49.7242428817
 20
103.4339623502
  0
VERTEX
  8
0
 62
7
  6
CONTINUOUS
 10
49.7438512594
 20
103.3702499049
  0
VERTEX
  8
0
 62
7
  6
CONTINUOUS
 10
49.7605240781
 20
103.3028303271
  0
VERTEX
  8
0
 62
7
  6
CONTINUOUS
 10
49.7743877041
 20
103.2330330652
  0
VERTEX
  8
0
 62
7
  6
CONTINUOUS
 10
49.7857105157
 20
103.161161189
  0
VERTEX
  8
0
 62
7
  6
CONTINUOUS
 10
49.794677102
 20
103.0870437528
  0
VERTEX
  8
0
 62
7
  6
CONTINUOUS
 10
49.8014512483
 20
103.0111514702
  0
VERTEX
  8
0
 62
7
  6
CONTINUOUS
 10
49.806202173
 20
102.9339087007
  0
VERTEX
  8
0
 62
7
  6
CONTINUOUS
 10
49.8091213363
 20
102.8555193583
  0
VERTEX
  8
0
 62
7
  6
CONTINUOUS
 10
49.8104239799
 20
102.7761895915
  0
VERTEX
  8
0
 62
7
  6
CONTINUOUS
 10
49.8103084859
 20
102.6961831597
  0
SEQEND
  0
LINE
  8
0
 62
7
  6
CONTINUOUS
 10
48.7524636559
 20
156.8546278549
 11
48.5726803807
 21
157.2555770766
  0
POLYLINE
  8
0
 62
7
  6
CONTINUOUS
 66
1
 70
0
  0
VERTEX
  8
0
 62
7
  6
CONTINUOUS
 10
67.6755820323
 20
92.2823873206
  0
VERTEX
  8
0
 62
7
  6
CONTINUOUS
 10
67.703243844
 20
92.1148747514
  0
VERTEX
  8
0
 62
7
  6
CONTINUOUS
 10
67.7341486419
 20
91.9498485333
  0
VERTEX
  8
0
 62
7
  6
CONTINUOUS
 10
67.7650974284
 20
91.806020832
  0
VERTEX
  8
0
 62
7
  6
CONTINUOUS
 10
67.7965066157
 20
91.6800182089
  0
VERTEX
  8
0
 62
7
  6
CONTINUOUS
 10
67.8290897568
 20
91.5684313698
  0
VERTEX
  8
0
 62
7
  6
CONTINUOUS
 10
67.8641047655
 20
91.467580051
  0
VERTEX
  8
0
 62
7
  6
CONTINUOUS
 10
67.9037882638
 20
91.3733765845
  0
VERTEX
  8
0
 62
7
  6
CONTINUOUS
 10
67.9518153817
 20
91.2819126587
  0
VERTEX
  8
0
 62
7
  6
CONTINUOUS
 10
68.0139250324
 20
91.190305436
  0
VERTEX
  8
0
 62
7
  6
CONTINUOUS
 10
68.0976539572
 20
91.0990145684
  0
VERTEX
  8
0
 62
7
  6
CONTINUOUS
 10
68.2082993684
 20
91.0155266608
  0
VERTEX
  8
0
 62
7
  6
CONTINUOUS
 10
68.3432890339
 20
90.9525829374
  0
VERTEX
  8
0
 62
7
  6
CONTINUOUS
 10
68.4911238232
 20
90.9204407816
  0
VERTEX
  8
0
 62
7
  6
CONTINUOUS
 10
68.5612232042
 20
90.9168107787
  0
SEQEND
  0
LINE
  8
0
 62
7
  6
CONTINUOUS
 10
67.6596809188
 20
92.3871047778
 11
67.6755832931
 21
92.2823792331
  0
POLYLINE
  8
0
 62
7
  6
CONTINUOUS
 66
1
 70
0
  0
VERTEX
  8
0
 62
7
  6
CONTINUOUS
 10
66.603438639
 20
96.574186462
  0
VERTEX
  8
0
 62
7
  6
CONTINUOUS
 10
66.6748158941
 20
96.0258950796
  0
VERTEX
  8
0
 62
7
  6
CONTINUOUS
 10
66.7694653554
 20
95.4259136642
  0
VERTEX
  8
0
 62
7
  6
CONTINUOUS
 10
66.8800759603
 20
94.8431266997
  0
VERTEX
  8
0
 62
7
  6
CONTINUOUS
 10
67.0066898465
 20
94.2825410334
  0
VERTEX
  8
0
 62
7
  6
CONTINUOUS
 10
67.1493226008
 20
93.7489933551
  0
VERTEX
  8
0
 62
7
  6
CONTINUOUS
 10
67.3080205251
 20
93.2471429771
  0
VERTEX
  8
0
 62
7
  6
CONTINUOUS
 10
67.4830143067
 20
92.7812923717
  0
SEQEND
  0
LINE
  8
0
 62
7
  6
CONTINUOUS
 10
66.4329837419
 20
153.0594283902
 11
66.4330430471
 21
153.0584084503
  0
LINE
  8
0
 62
7
  6
CONTINUOUS
 10
72.2682112069
 20
119.8168103448
 11
72.2682112069
 21
129.8168103448
  0
LINE
  8
0
 62
7
  6
CONTINUOUS
 10
75.0034386719
 20
153.0594283902
 11
75.0033793667
 21
153.0584084503
  0
LINE
  8
0
 62
7
  6
CONTINUOUS
 10
76.0755834287
 20
157.3512423265
 11
76.0596786442
 21
157.2465149844
  0
POLYLINE
  8
0
 62
7
  6
CONTINUOUS
 66
1
 70
0
  0
VERTEX
  8
0
 62
7
  6
CONTINUOUS
 10
56.9726814239
 20
92.3780457391
  0
VERTEX
  8
0
 62
7
  6
CONTINUOUS
 10
57.153408151
 20
92.7812924786
  0
VERTEX
  8
0
 62
7
  6
CONTINUOUS
 10
57.3284019688
 20
93.2471432098
  0
VERTEX
  8
0
 62
7
  6
CONTINUOUS
 10
57.4870999219
 20
93.7489937299
  0
VERTEX
  8
0
 62
7
  6
CONTINUOUS
 10
57.6297326975
 20
94.2825415633
  0
VERTEX
  8
0
 62
7
  6
CONTINUOUS
 10
57.7563465974
 20
94.8431273942
  0
VERTEX
  8
0
 62
7
  6
CONTINUOUS
 10
57.8669572082
 20
95.4259145292
  0
VERTEX
  8
0
 62
7
  6
CONTINUOUS
 10
57.961606668
 20
96.0258961176
  0
VERTEX
  8
0
 62
7
  6
CONTINUOUS
 10
58.0329837748
 20
96.574186462
  0
SEQEND
  0
LINE
  8
0
 62
7
  6
CONTINUOUS
 10
167.0182112069
 20
103.7381999296
 11
159.2084742169
 21
103.7380015277
  0
LINE
  8
0
 62
7
  6
CONTINUOUS
 10
150.1488434742
 20
103.7381999296
 11
142.4084742169
 21
103.7380015277
  0
LINE
  8
0
 62
7
  6
CONTINUOUS
 10
133.3488434742
 20
103.7381999296
 11
125.6084742169
 21
103.7380015277
  0
LINE
  8
0
 62
7
  6
CONTINUOUS
 10
116.5488434742
 20
103.7381999296
 11
108.8084742169
 21
103.7380015277
  0
LINE
  8
0
 62
7
  6
CONTINUOUS
 10
99.7488434742
 20
103.7381999296
 11
92.0084742169
 21
103.7380015277
  0
LINE
  8
0
 62
7
  6
CONTINUOUS
 10
82.9488434742
 20
103.7381999296
 11
75.2084742169
 21
103.7380015277
  0
LINE
  8
0
 62
7
  6
CONTINUOUS
 10
66.1488434742
 20
103.7381999296
 11
58.4084742169
 21
103.7380015277
  0
LINE
  8
0
 62
7
  6
CONTINUOUS
 10
49.3488434742
 20
103.7381999296
 11
41.6084742169
 21
103.7380015277
  0
LINE
  8
0
 62
7
  6
CONTINUOUS
 10
32.5488434742
 20
103.7381999296
 11
24.8084742169
 21
103.7380015277
  0
LINE
  8
0
 62
7
  6
CONTINUOUS
 10
32.6277754788
 20
103.7379716751
 11
32.5488429252
 21
103.7382451931
  0
LINE
  8
0
 62
7
  6
CONTINUOUS
 10
49.4277754788
 20
103.7379716751
 11
49.3488429252
 21
103.7382451931
  0
LINE
  8
0
 62
7
  6
CONTINUOUS
 10
66.2277754788
 20
103.7379716751
 11
66.1488429252
 21
103.7382451931
  0
LINE
  8
0
 62
7
  6
CONTINUOUS
 10
83.0277754788
 20
103.7379716751
 11
82.9488429252
 21
103.7382451931
  0
LINE
  8
0
 62
7
  6
CONTINUOUS
 10
99.8277754788
 20
103.7379716751
 11
99.7488429252
 21
103.7382451931
  0
LINE
  8
0
 62
7
  6
CONTINUOUS
 10
32.6289540578
 20
103.9879236958
 11
32.5488433958
 21
103.9881999296
  0
LINE
  8
0
 62
7
  6
CONTINUOUS
 10
116.6277754788
 20
103.7379716751
 11
116.5488429252
 21
103.7382451931
  0
LINE
  8
0
 62
7
  6
CONTINUOUS
 10
49.4289540578
 20
103.9879236958
 11
49.3488433958
 21
103.9881999296
  0
LINE
  8
0
 62
7
  6
CONTINUOUS
 10
133.4277754788
 20
103.7379716751
 11
133.3488429252
 21
103.7382451931
  0
LINE
  8
0
 62
7
  6
CONTINUOUS
 10
66.2289540578
 20
103.9879236958
 11
66.1488433958
 21
103.9881999296
  0
LINE
  8
0
 62
7
  6
CONTINUOUS
 10
150.2277754788
 20
103.7379716751
 11
150.1488429252
 21
103.7382451931
  0
LINE
  8
0
 62
7
  6
CONTINUOUS
 10
83.0289540578
 20
103.9879236958
 11
82.9488433958
 21
103.9881999296
  0
LINE
  8
0
 62
7
  6
CONTINUOUS
 10
99.8289540578
 20
103.9879236958
 11
99.7488433958
 21
103.9881999296
  0
LINE
  8
0
 62
7
  6
CONTINUOUS
 10
116.6289540578
 20
103.9879236958
 11
116.5488433958
 21
103.9881999296
  0
LINE
  8
0
 62
7
  6
CONTINUOUS
 10
133.4289540578
 20
103.9879236958
 11
133.3488433958
 21
103.9881999296
  0
LINE
  8
0
 62
7
  6
CONTINUOUS
 10
150.2289540578
 20
103.9879236958
 11
150.1488433958
 21
103.9881999296
  0
LINE
  8
0
 62
6
  6
CONTINUOUS
 10
150.2289540322
 20
103.8608496096
 11
150.14884344
 21
103.8611194444
  0
POLYLINE
  8
0
 62
7
  6
CONTINUOUS
 66
1
 70
0
  0
VERTEX
  8
0
 62
7
  6
CONTINUOUS
 10
66.2277754202
 20
103.7380018488
  0
VERTEX
  8
0
 62
7
  6
CONTINUOUS
 10
66.250925637
 20
103.7362674411
  0
VERTEX
  8
0
 62
7
  6
CONTINUOUS
 10
66.2939002019
 20
103.7246636148
  0
VERTEX
  8
0
 62
7
  6
CONTINUOUS
 10
66.3350604982
 20
103.7037573647
  0
VERTEX
  8
0
 62
7
  6
CONTINUOUS
 10
66.3736743799
 20
103.6751406862
  0
VERTEX
  8
0
 62
7
  6
CONTINUOUS
 10
66.4096660677
 20
103.6395792819
  0
VERTEX
  8
0
 62
7
  6
CONTINUOUS
 10
66.4430047371
 20
103.5973363224
  0
VERTEX
  8
0
 62
7
  6
CONTINUOUS
 10
66.4737390668
 20
103.5481725917
  0
VERTEX
  8
0
 62
7
  6
CONTINUOUS
 10
66.5010192541
 20
103.4931787659
  0
VERTEX
  8
0
 62
7
  6
CONTINUOUS
 10
66.5242428817
 20
103.4339623502
  0
VERTEX
  8
0
 62
7
  6
CONTINUOUS
 10
66.5438512594
 20
103.3702499049
  0
VERTEX
  8
0
 62
7
  6
CONTINUOUS
 10
66.5605240781
 20
103.3028303271
  0
VERTEX
  8
0
 62
7
  6
CONTINUOUS
 10
66.5743877041
 20
103.2330330652
  0
VERTEX
  8
0
 62
7
  6
CONTINUOUS
 10
66.5857105157
 20
103.161161189
  0
VERTEX
  8
0
 62
7
  6
CONTINUOUS
 10
66.594677102
 20
103.0870437528
  0
VERTEX
  8
0
 62
7
  6
CONTINUOUS
 10
66.6014512483
 20
103.0111514702
  0
VERTEX
  8
0
 62
7
  6
CONTINUOUS
 10
66.606202173
 20
102.9339087007
  0
VERTEX
  8
0
 62
7
  6
CONTINUOUS
 10
66.6091213363
 20
102.8555193583
  0
VERTEX
  8
0
 62
7
  6
CONTINUOUS
 10
66.6104239799
 20
102.7761895915
  0
VERTEX
  8
0
 62
7
  6
CONTINUOUS
 10
66.6103084859
 20
102.6961831597
  0
SEQEND
  0
POLYLINE
  8
0
 62
7
  6
CONTINUOUS
 66
1
 70
0
  0
VERTEX
  8
0
 62
7
  6
CONTINUOUS
 10
83.0277754202
 20
103.7380018488
  0
VERTEX
  8
0
 62
7
  6
CONTINUOUS
 10
83.050925637
 20
103.7362674411
  0
VERTEX
  8
0
 62
7
  6
CONTINUOUS
 10
83.0939002019
 20
103.7246636148
  0
VERTEX
  8
0
 62
7
  6
CONTINUOUS
 10
83.1350604982
 20
103.7037573647
  0
VERTEX
  8
0
 62
7
  6
CONTINUOUS
 10
83.1736743799
 20
103.6751406862
  0
VERTEX
  8
0
 62
7
  6
CONTINUOUS
 10
83.2096660677
 20
103.6395792819
  0
VERTEX
  8
0
 62
7
  6
CONTINUOUS
 10
83.2430047371
 20
103.5973363224
  0
VERTEX
  8
0
 62
7
  6
CONTINUOUS
 10
83.2737390668
 20
103.5481725917
  0
VERTEX
  8
0
 62
7
  6
CONTINUOUS
 10
83.3010192541
 20
103.4931787659
  0
VERTEX
  8
0
 62
7
  6
CONTINUOUS
 10
83.3242428817
 20
103.4339623502
  0
VERTEX
  8
0
 62
7
  6
CONTINUOUS
 10
83.3438512594
 20
103.3702499049
  0
VERTEX
  8
0
 62
7
  6
CONTINUOUS
 10
83.3605240781
 20
103.3028303271
  0
VERTEX
  8
0
 62
7
  6
CONTINUOUS
 10
83.3743877041
 20
103.2330330652
  0
VERTEX
  8
0
 62
7
  6
CONTINUOUS
 10
83.3857105157
 20
103.161161189
  0
VERTEX
  8
0
 62
7
  6
CONTINUOUS
 10
83.394677102
 20
103.0870437528
  0
VERTEX
  8
0
 62
7
  6
CONTINUOUS
 10
83.4014512483
 20
103.0111514702
  0
VERTEX
  8
0
 62
7
  6
CONTINUOUS
 10
83.406202173
 20
102.9339087007
  0
VERTEX
  8
0
 62
7
  6
CONTINUOUS
 10
83.4091213363
 20
102.8555193583
  0
VERTEX
  8
0
 62
7
  6
CONTINUOUS
 10
83.4104239799
 20
102.7761895915
  0
VERTEX
  8
0
 62
7
  6
CONTINUOUS
 10
83.4103084859
 20
102.6961831597
  0
SEQEND
  0
POLYLINE
  8
0
 62
7
  6
CONTINUOUS
 66
1
 70
0
  0
VERTEX
  8
0
 62
7
  6
CONTINUOUS
 10
99.8277754202
 20
103.7380018488
  0
VERTEX
  8
0
 62
7
  6
CONTINUOUS
 10
99.850925637
 20
103.7362674411
  0
VERTEX
  8
0
 62
7
  6
CONTINUOUS
 10
99.8939002019
 20
103.7246636148
  0
VERTEX
  8
0
 62
7
  6
CONTINUOUS
 10
99.9350604982
 20
103.7037573647
  0
VERTEX
  8
0
 62
7
  6
CONTINUOUS
 10
99.9736743799
 20
103.6751406862
  0
VERTEX
  8
0
 62
7
  6
CONTINUOUS
 10
100.0096660677
 20
103.6395792819
  0
VERTEX
  8
0
 62
7
  6
CONTINUOUS
 10
100.0430047371
 20
103.5973363224
  0
VERTEX
  8
0
 62
7
  6
CONTINUOUS
 10
100.0737390668
 20
103.5481725917
  0
VERTEX
  8
0
 62
7
  6
CONTINUOUS
 10
100.1010192541
 20
103.4931787659
  0
VERTEX
  8
0
 62
7
  6
CONTINUOUS
 10
100.1242428817
 20
103.4339623502
  0
VERTEX
  8
0
 62
7
  6
CONTINUOUS
 10
100.1438512594
 20
103.3702499049
  0
VERTEX
  8
0
 62
7
  6
CONTINUOUS
 10
100.1605240781
 20
103.3028303271
  0
VERTEX
  8
0
 62
7
  6
CONTINUOUS
 10
100.1743877041
 20
103.2330330652
  0
VERTEX
  8
0
 62
7
  6
CONTINUOUS
 10
100.1857105157
 20
103.161161189
  0
VERTEX
  8
0
 62
7
  6
CONTINUOUS
 10
100.194677102
 20
103.0870437528
  0
VERTEX
  8
0
 62
7
  6
CONTINUOUS
 10
100.2014512483
 20
103.0111514702
  0
VERTEX
  8
0
 62
7
  6
CONTINUOUS
 10
100.206202173
 20
102.9339087007
  0
VERTEX
  8
0
 62
7
  6
CONTINUOUS
 10
100.2091213363
 20
102.8555193583
  0
VERTEX
  8
0
 62
7
  6
CONTINUOUS
 10
100.2104239799
 20
102.7761895915
  0
VERTEX
  8
0
 62
7
  6
CONTINUOUS
 10
100.2103084859
 20
102.6961831597
  0
SEQEND
  0
POLYLINE
  8
0
 62
7
  6
CONTINUOUS
 66
1
 70
0
  0
VERTEX
  8
0
 62
7
  6
CONTINUOUS
 10
116.6277754202
 20
103.7380018488
  0
VERTEX
  8
0
 62
7
  6
CONTINUOUS
 10
116.650925637
 20
103.7362674411
  0
VERTEX
  8
0
 62
7
  6
CONTINUOUS
 10
116.6939002019
 20
103.7246636148
  0
VERTEX
  8
0
 62
7
  6
CONTINUOUS
 10
116.7350604982
 20
103.7037573647
  0
VERTEX
  8
0
 62
7
  6
CONTINUOUS
 10
116.7736743799
 20
103.6751406862
  0
VERTEX
  8
0
 62
7
  6
CONTINUOUS
 10
116.8096660677
 20
103.6395792819
  0
VERTEX
  8
0
 62
7
  6
CONTINUOUS
 10
116.8430047371
 20
103.5973363224
  0
VERTEX
  8
0
 62
7
  6
CONTINUOUS
 10
116.8737390668
 20
103.5481725917
  0
VERTEX
  8
0
 62
7
  6
CONTINUOUS
 10
116.9010192541
 20
103.4931787659
  0
VERTEX
  8
0
 62
7
  6
CONTINUOUS
 10
116.9242428817
 20
103.4339623502
  0
VERTEX
  8
0
 62
7
  6
CONTINUOUS
 10
116.9438512594
 20
103.3702499049
  0
VERTEX
  8
0
 62
7
  6
CONTINUOUS
 10
116.9605240781
 20
103.3028303271
  0
VERTEX
  8
0
 62
7
  6
CONTINUOUS
 10
116.9743877041
 20
103.2330330652
  0
VERTEX
  8
0
 62
7
  6
CONTINUOUS
 10
116.9857105157
 20
103.161161189
  0
VERTEX
  8
0
 62
7
  6
CONTINUOUS
 10
116.994677102
 20
103.0870437528
  0
VERTEX
  8
0
 62
7
  6
CONTINUOUS
 10
117.0014512483
 20
103.0111514702
  0
VERTEX
  8
0
 62
7
  6
CONTINUOUS
 10
117.006202173
 20
102.9339087007
  0
VERTEX
  8
0
 62
7
  6
CONTINUOUS
 10
117.0091213363
 20
102.8555193583
  0
VERTEX
  8
0
 62
7
  6
CONTINUOUS
 10
117.0104239799
 20
102.7761895915
  0
VERTEX
  8
0
 62
7
  6
CONTINUOUS
 10
117.0103084859
 20
102.6961831597
  0
SEQEND
  0
POLYLINE
  8
0
 62
7
  6
CONTINUOUS
 66
1
 70
0
  0
VERTEX
  8
0
 62
7
  6
CONTINUOUS
 10
133.4277754202
 20
103.7380018488
  0
VERTEX
  8
0
 62
7
  6
CONTINUOUS
 10
133.450925637
 20
103.7362674411
  0
VERTEX
  8
0
 62
7
  6
CONTINUOUS
 10
133.4939002019
 20
103.7246636148
  0
VERTEX
  8
0
 62
7
  6
CONTINUOUS
 10
133.5350604982
 20
103.7037573647
  0
VERTEX
  8
0
 62
7
  6
CONTINUOUS
 10
133.5736743799
 20
103.6751406862
  0
VERTEX
  8
0
 62
7
  6
CONTINUOUS
 10
133.6096660677
 20
103.6395792819
  0
VERTEX
  8
0
 62
7
  6
CONTINUOUS
 10
133.6430047371
 20
103.5973363224
  0
VERTEX
  8
0
 62
7
  6
CONTINUOUS
 10
133.6737390668
 20
103.5481725917
  0
VERTEX
  8
0
 62
7
  6
CONTINUOUS
 10
133.7010192541
 20
103.4931787659
  0
VERTEX
  8
0
 62
7
  6
CONTINUOUS
 10
133.7242428817
 20
103.4339623502
  0
VERTEX
  8
0
 62
7
  6
CONTINUOUS
 10
133.7438512594
 20
103.3702499049
  0
VERTEX
  8
0
 62
7
  6
CONTINUOUS
 10
133.7605240781
 20
103.3028303271
  0
VERTEX
  8
0
 62
7
  6
CONTINUOUS
 10
133.7743877041
 20
103.2330330652
  0
VERTEX
  8
0
 62
7
  6
CONTINUOUS
 10
133.7857105157
 20
103.161161189
  0
VERTEX
  8
0
 62
7
  6
CONTINUOUS
 10
133.794677102
 20
103.0870437528
  0
VERTEX
  8
0
 62
7
  6
CONTINUOUS
 10
133.8014512483
 20
103.0111514702
  0
VERTEX
  8
0
 62
7
  6
CONTINUOUS
 10
133.806202173
 20
102.9339087007
  0
VERTEX
  8
0
 62
7
  6
CONTINUOUS
 10
133.8091213363
 20
102.8555193583
  0
VERTEX
  8
0
 62
7
  6
CONTINUOUS
 10
133.8104239799
 20
102.7761895915
  0
VERTEX
  8
0
 62
7
  6
CONTINUOUS
 10
133.8103084859
 20
102.6961831597
  0
SEQEND
  0
LINE
  8
0
 62
7
  6
CONTINUOUS
 10
84.2830143067
 20
92.7812923717
 11
84.4637409899
 21
92.3780457392
  0
POLYLINE
  8
0
 62
7
  6
CONTINUOUS
 66
1
 70
0
  0
VERTEX
  8
0
 62
7
  6
CONTINUOUS
 10
65.3608402643
 20
157.3512341211
  0
VERTEX
  8
0
 62
7
  6
CONTINUOUS
 10
65.3329536185
 20
157.5200291745
  0
VERTEX
  8
0
 62
7
  6
CONTINUOUS
 10
65.3021097171
 20
157.6845893909
  0
VERTEX
  8
0
 62
7
  6
CONTINUOUS
 10
65.2712259663
 20
157.8280276674
  0
VERTEX
  8
0
 62
7
  6
CONTINUOUS
 10
65.2398879197
 20
157.9537059679
  0
VERTEX
  8
0
 62
7
  6
CONTINUOUS
 10
65.2073865344
 20
158.0650196382
  0
VERTEX
  8
0
 62
7
  6
CONTINUOUS
 10
65.1724742316
 20
158.1656292597
  0
VERTEX
  8
0
 62
7
  6
CONTINUOUS
 10
65.1329376044
 20
158.2595941308
  0
VERTEX
  8
0
 62
7
  6
CONTINUOUS
 10
65.0851490131
 20
158.3507899118
  0
VERTEX
  8
0
 62
7
  6
CONTINUOUS
 10
65.0234399699
 20
158.4421020882
  0
VERTEX
  8
0
 62
7
  6
CONTINUOUS
 10
64.9403429025
 20
158.5331498421
  0
VERTEX
  8
0
 62
7
  6
CONTINUOUS
 10
64.8305376374
 20
158.6166194012
  0
VERTEX
  8
0
 62
7
  6
CONTINUOUS
 10
64.6963838553
 20
158.6799297084
  0
VERTEX
  8
0
 62
7
  6
CONTINUOUS
 10
64.5491376
 20
158.7127731838
  0
VERTEX
  8
0
 62
7
  6
CONTINUOUS
 10
64.4743818943
 20
158.7168102379
  0
SEQEND
  0
LINE
  8
0
 62
7
  6
CONTINUOUS
 10
65.3767437696
 20
157.2465149844
 11
65.3608389851
 21
157.3512423265
  0
POLYLINE
  8
0
 62
7
  6
CONTINUOUS
 66
1
 70
0
  0
VERTEX
  8
0
 62
7
  6
CONTINUOUS
 10
66.4329837715
 20
153.0594342558
  0
VERTEX
  8
0
 62
7
  6
CONTINUOUS
 10
66.3611059577
 20
153.6112273772
  0
VERTEX
  8
0
 62
7
  6
CONTINUOUS
 10
66.2663771064
 20
154.2110523041
  0
VERTEX
  8
0
 62
7
  6
CONTINUOUS
 10
66.1556895754
 20
154.7936631096
  0
VERTEX
  8
0
 62
7
  6
CONTINUOUS
 10
66.0290013418
 20
155.3540541314
  0
VERTEX
  8
0
 62
7
  6
CONTINUOUS
 10
65.886296596
 20
155.8873903336
  0
VERTEX
  8
0
 62
7
  6
CONTINUOUS
 10
65.7275281941
 20
156.389014814
  0
VERTEX
  8
0
 62
7
  6
CONTINUOUS
 10
65.5524636559
 20
156.8546278549
  0
SEQEND
  0
POLYLINE
  8
0
 62
7
  6
CONTINUOUS
 66
1
 70
0
  0
VERTEX
  8
0
 62
7
  6
CONTINUOUS
 10
75.0063309305
 20
147.2312365765
  0
VERTEX
  8
0
 62
7
  6
CONTINUOUS
 10
75.0103039074
 20
146.9379144576
  0
VERTEX
  8
0
 62
7
  6
CONTINUOUS
 10
75.0104302309
 20
146.8583209146
  0
VERTEX
  8
0
 62
7
  6
CONTINUOUS
 10
75.0091515515
 20
146.7792582534
  0
VERTEX
  8
0
 62
7
  6
CONTINUOUS
 10
75.0062650746
 20
146.7010065291
  0
VERTEX
  8
0
 62
7
  6
CONTINUOUS
 10
75.0015496726
 20
146.6237882851
  0
VERTEX
  8
0
 62
7
  6
CONTINUOUS
 10
74.9948067521
 20
146.5478232362
  0
VERTEX
  8
0
 62
7
  6
CONTINUOUS
 10
74.9858604059
 20
146.4735440915
  0
VERTEX
  8
0
 62
7
  6
CONTINUOUS
 10
74.9745408887
 20
146.4014590932
  0
VERTEX
  8
0
 62
7
  6
CONTINUOUS
 10
74.9606494895
 20
146.3313544243
  0
VERTEX
  8
0
 62
7
  6
CONTINUOUS
 10
74.9439496136
 20
146.2637042722
  0
VERTEX
  8
0
 62
7
  6
CONTINUOUS
 10
74.9242350718
 20
146.1996360879
  0
VERTEX
  8
0
 62
7
  6
CONTINUOUS
 10
74.9008883942
 20
146.1401462629
  0
VERTEX
  8
0
 62
7
  6
CONTINUOUS
 10
74.873419971
 20
146.084877314
  0
VERTEX
  8
0
 62
7
  6
CONTINUOUS
 10
74.8424050944
 20
146.0354327847
  0
VERTEX
  8
0
 62
7
  6
CONTINUOUS
 10
74.8089624084
 20
145.9932538118
  0
VERTEX
  8
0
 62
7
  6
CONTINUOUS
 10
74.7730925171
 20
145.95797952
  0
VERTEX
  8
0
 62
7
  6
CONTINUOUS
 10
74.7347723417
 20
145.9296837085
  0
VERTEX
  8
0
 62
7
  6
CONTINUOUS
 10
74.6939413412
 20
145.9089736029
  0
VERTEX
  8
0
 62
7
  6
CONTINUOUS
 10
74.6511445185
 20
145.8973853409
  0
VERTEX
  8
0
 62
7
  6
CONTINUOUS
 10
74.6277747202
 20
145.8956188307
  0
SEQEND
  0
POLYLINE
  8
0
 62
7
  6
CONTINUOUS
 66
1
 70
0
  0
VERTEX
  8
0
 62
7
  6
CONTINUOUS
 10
74.8300446186
 20
102.4063518431
  0
VERTEX
  8
0
 62
7
  6
CONTINUOUS
 10
74.8260748976
 20
102.7003836141
  0
VERTEX
  8
0
 62
7
  6
CONTINUOUS
 10
74.8260282312
 20
102.7802527871
  0
VERTEX
  8
0
 62
7
  6
CONTINUOUS
 10
74.8274049959
 20
102.8594282503
  0
VERTEX
  8
0
 62
7
  6
CONTINUOUS
 10
74.8304041053
 20
102.9376502241
  0
VERTEX
  8
0
 62
7
  6
CONTINUOUS
 10
74.8352396751
 20
103.0147213436
  0
VERTEX
  8
0
 62
7
  6
CONTINUOUS
 10
74.8421008048
 20
103.0904345162
  0
VERTEX
  8
0
 62
7
  6
CONTINUOUS
 10
74.8511567032
 20
103.1643617851
  0
VERTEX
  8
0
 62
7
  6
CONTINUOUS
 10
74.862572359
 20
103.2360569613
  0
VERTEX
  8
0
 62
7
  6
CONTINUOUS
 10
74.8765283351
 20
103.3056559835
  0
VERTEX
  8
0
 62
7
  6
CONTINUOUS
 10
74.8932960896
 20
103.3728915695
  0
VERTEX
  8
0
 62
7
  6
CONTINUOUS
 10
74.9129982416
 20
103.4363206104
  0
VERTEX
  8
0
 62
7
  6
CONTINUOUS
 10
74.9363496395
 20
103.4953155028
  0
VERTEX
  8
0
 62
7
  6
CONTINUOUS
 10
74.9637525231
 20
103.5500855078
  0
VERTEX
  8
0
 62
7
  6
CONTINUOUS
 10
74.9946016569
 20
103.5990167752
  0
VERTEX
  8
0
 62
7
  6
CONTINUOUS
 10
75.0280656598
 20
103.641043138
  0
VERTEX
  8
0
 62
7
  6
CONTINUOUS
 10
75.0642008618
 20
103.6763868127
  0
VERTEX
  8
0
 62
7
  6
CONTINUOUS
 10
75.1029641035
 20
103.7047519561
  0
VERTEX
  8
0
 62
7
  6
CONTINUOUS
 10
75.1442377031
 20
103.7253282538
  0
VERTEX
  8
0
 62
7
  6
CONTINUOUS
 10
75.1872350393
 20
103.736511281
  0
VERTEX
  8
0
 62
7
  6
CONTINUOUS
 10
75.2084739425
 20
103.7380012932
  0
SEQEND
  0
LINE
  8
0
 62
7
  6
CONTINUOUS
 10
74.8324866732
 20
102.1233376741
 11
74.8300446186
 21
102.4063518431
  0
LINE
  8
0
 62
7
  6
CONTINUOUS
 10
75.0039149561
 20
147.5142583132
 11
75.0063309305
 21
147.2312365765
  0
LINE
  8
0
 62
7
  6
CONTINUOUS
 10
74.8324866732
 20
102.1233376741
 11
74.83304305
 21
96.5752367336
  0
LINE
  8
0
 62
7
  6
CONTINUOUS
 10
75.0033793638
 20
153.0583464388
 11
75.0039149561
 21
147.5142583132
  0
LINE
  8
0
 62
2
  6
CONTINUOUS
 10
79.2182112069
 20
84.8168103448
 11
79.2182112069
 21
124.8168103448
  0
LINE
  8
0
 62
7
  6
CONTINUOUS
 10
74.83304305
 20
96.5752046205
 11
74.832983724
 21
96.5741965834
  0
LINE
  8
0
 62
7
  6
CONTINUOUS
 10
73.7608391207
 20
92.2823792331
 11
73.7767414951
 21
92.3871047781
  0
POLYLINE
  8
0
 62
7
  6
CONTINUOUS
 66
1
 70
0
  0
VERTEX
  8
0
 62
7
  6
CONTINUOUS
 10
92.8637420331
 20
157.2555770766
  0
VERTEX
  8
0
 62
7
  6
CONTINUOUS
 10
92.6839587578
 20
156.8546278549
  0
VERTEX
  8
0
 62
7
  6
CONTINUOUS
 10
92.5088942197
 20
156.389014814
  0
VERTEX
  8
0
 62
7
  6
CONTINUOUS
 10
92.3501258178
 20
155.8873903336
  0
VERTEX
  8
0
 62
7
  6
CONTINUOUS
 10
92.207421072
 20
155.3540541314
  0
VERTEX
  8
0
 62
7
  6
CONTINUOUS
 10
92.0807328384
 20
154.7936631096
  0
VERTEX
  8
0
 62
7
  6
CONTINUOUS
 10
91.9700453074
 20
154.2110523041
  0
VERTEX
  8
0
 62
7
  6
CONTINUOUS
 10
91.8753164561
 20
153.6112273772
  0
VERTEX
  8
0
 62
7
  6
CONTINUOUS
 10
91.8034386423
 20
153.0594342558
  0
SEQEND
  0
POLYLINE
  8
0
 62
7
  6
CONTINUOUS
 66
1
 70
0
  0
VERTEX
  8
0
 62
7
  6
CONTINUOUS
 10
58.032983724
 20
96.5741965834
  0
VERTEX
  8
0
 62
7
  6
CONTINUOUS
 10
58.0271720236
 20
96.5655996854
  0
VERTEX
  8
0
 62
7
  6
CONTINUOUS
 10
58.0080852706
 20
96.556806367
  0
VERTEX
  8
0
 62
7
  6
CONTINUOUS
 10
57.9768840235
 20
96.5500779242
  0
VERTEX
  8
0
 62
7
  6
CONTINUOUS
 10
57.9355654776
 20
96.5457582209
  0
VERTEX
  8
0
 62
7
  6
CONTINUOUS
 10
57.8868691315
 20
96.5439693342
  0
VERTEX
  8
0
 62
7
  6
CONTINUOUS
 10
57.83304305
 20
96.5445290216
  0
SEQEND
  0
POLYLINE
  8
0
 62
7
  6
CONTINUOUS
 66
1
 70
0
  0
VERTEX
  8
0
 62
7
  6
CONTINUOUS
 10
150.2277754202
 20
103.7380018488
  0
VERTEX
  8
0
 62
7
  6
CONTINUOUS
 10
150.250925637
 20
103.7362674411
  0
VERTEX
  8
0
 62
7
  6
CONTINUOUS
 10
150.2939002019
 20
103.7246636148
  0
VERTEX
  8
0
 62
7
  6
CONTINUOUS
 10
150.3350604982
 20
103.7037573647
  0
VERTEX
  8
0
 62
7
  6
CONTINUOUS
 10
150.3736743799
 20
103.6751406862
  0
VERTEX
  8
0
 62
7
  6
CONTINUOUS
 10
150.4096660677
 20
103.6395792819
  0
VERTEX
  8
0
 62
7
  6
CONTINUOUS
 10
150.4430047371
 20
103.5973363224
  0
VERTEX
  8
0
 62
7
  6
CONTINUOUS
 10
150.4737390668
 20
103.5481725917
  0
VERTEX
  8
0
 62
7
  6
CONTINUOUS
 10
150.5010192541
 20
103.4931787659
  0
VERTEX
  8
0
 62
7
  6
CONTINUOUS
 10
150.5242428817
 20
103.4339623502
  0
VERTEX
  8
0
 62
7
  6
CONTINUOUS
 10
150.5438512594
 20
103.3702499049
  0
VERTEX
  8
0
 62
7
  6
CONTINUOUS
 10
150.5605240781
 20
103.3028303271
  0
VERTEX
  8
0
 62
7
  6
CONTINUOUS
 10
150.5743877041
 20
103.2330330652
  0
VERTEX
  8
0
 62
7
  6
CONTINUOUS
 10
150.5857105157
 20
103.161161189
  0
VERTEX
  8
0
 62
7
  6
CONTINUOUS
 10
150.594677102
 20
103.0870437528
  0
VERTEX
  8
0
 62
7
  6
CONTINUOUS
 10
150.6014512483
 20
103.0111514702
  0
VERTEX
  8
0
 62
7
  6
CONTINUOUS
 10
150.606202173
 20
102.9339087007
  0
VERTEX
  8
0
 62
7
  6
CONTINUOUS
 10
150.6091213363
 20
102.8555193583
  0
VERTEX
  8
0
 62
7
  6
CONTINUOUS
 10
150.6104239799
 20
102.7761895915
  0
VERTEX
  8
0
 62
7
  6
CONTINUOUS
 10
150.6103084859
 20
102.6961831597
  0
SEQEND
  0
POLYLINE
  8
0
 62
7
  6
CONTINUOUS
 66
1
 70
0
  0
VERTEX
  8
0
 62
7
  6
CONTINUOUS
 10
84.4755820323
 20
92.2823873206
  0
VERTEX
  8
0
 62
7
  6
CONTINUOUS
 10
84.503243844
 20
92.1148747514
  0
VERTEX
  8
0
 62
7
  6
CONTINUOUS
 10
84.5341486419
 20
91.9498485333
  0
VERTEX
  8
0
 62
7
  6
CONTINUOUS
 10
84.5650974284
 20
91.806020832
  0
VERTEX
  8
0
 62
7
  6
CONTINUOUS
 10
84.5965066157
 20
91.6800182089
  0
VERTEX
  8
0
 62
7
  6
CONTINUOUS
 10
84.6290897568
 20
91.5684313698
  0
VERTEX
  8
0
 62
7
  6
CONTINUOUS
 10
84.6641047655
 20
91.467580051
  0
VERTEX
  8
0
 62
7
  6
CONTINUOUS
 10
84.7037882638
 20
91.3733765845
  0
VERTEX
  8
0
 62
7
  6
CONTINUOUS
 10
84.7518153817
 20
91.2819126587
  0
VERTEX
  8
0
 62
7
  6
CONTINUOUS
 10
84.8139250324
 20
91.190305436
  0
VERTEX
  8
0
 62
7
  6
CONTINUOUS
 10
84.8976539572
 20
91.0990145684
  0
VERTEX
  8
0
 62
7
  6
CONTINUOUS
 10
85.0082993684
 20
91.0155266608
  0
VERTEX
  8
0
 62
7
  6
CONTINUOUS
 10
85.1432890339
 20
90.9525829374
  0
VERTEX
  8
0
 62
7
  6
CONTINUOUS
 10
85.2911238232
 20
90.9204407816
  0
VERTEX
  8
0
 62
7
  6
CONTINUOUS
 10
85.3620379657
 20
90.9168104488
  0
SEQEND
  0
LINE
  8
0
 62
7
  6
CONTINUOUS
 10
84.4596809188
 20
92.3871047778
 11
84.4755832931
 21
92.2823792331
  0
POLYLINE
  8
0
 62
7
  6
CONTINUOUS
 66
1
 70
0
  0
VERTEX
  8
0
 62
7
  6
CONTINUOUS
 10
83.403438639
 20
96.574186462
  0
VERTEX
  8
0
 62
7
  6
CONTINUOUS
 10
83.4748158941
 20
96.0258950796
  0
VERTEX
  8
0
 62
7
  6
CONTINUOUS
 10
83.5694653554
 20
95.4259136642
  0
VERTEX
  8
0
 62
7
  6
CONTINUOUS
 10
83.6800759603
 20
94.8431266997
  0
VERTEX
  8
0
 62
7
  6
CONTINUOUS
 10
83.8066898465
 20
94.2825410334
  0
VERTEX
  8
0
 62
7
  6
CONTINUOUS
 10
83.9493226008
 20
93.7489933551
  0
VERTEX
  8
0
 62
7
  6
CONTINUOUS
 10
84.1080205251
 20
93.2471429771
  0
VERTEX
  8
0
 62
7
  6
CONTINUOUS
 10
84.2830143067
 20
92.7812923717
  0
SEQEND
  0
LINE
  8
0
 62
7
  6
CONTINUOUS
 10
83.4034386686
 20
96.5741923277
 11
83.4033793667
 21
96.5752122394
  0
LINE
  8
0
 62
7
  6
CONTINUOUS
 10
83.2329837419
 20
153.0594283902
 11
83.2330430471
 21
153.0584084503
  0
POLYLINE
  8
0
 62
7
  6
CONTINUOUS
 66
1
 70
0
  0
VERTEX
  8
0
 62
7
  6
CONTINUOUS
 10
83.226080545
 20
146.9338087042
  0
VERTEX
  8
0
 62
7
  6
CONTINUOUS
 10
83.2300450215
 20
147.22727269
  0
VERTEX
  8
0
 62
7
  6
CONTINUOUS
 10
83.2324867654
 20
147.5102848915
  0
VERTEX
  8
0
 62
7
  6
CONTINUOUS
 10
83.23304305
 20
153.0583464388
  0
SEQEND
  0
POLYLINE
  8
0
 62
7
  6
CONTINUOUS
 66
1
 70
0
  0
VERTEX
  8
0
 62
7
  6
CONTINUOUS
 10
83.4103084859
 20
102.6961831597
  0
VERTEX
  8
0
 62
7
  6
CONTINUOUS
 10
83.4063309307
 20
102.4023840625
  0
VERTEX
  8
0
 62
7
  6
CONTINUOUS
 10
83.4039149563
 20
102.119362402
  0
VERTEX
  8
0
 62
7
  6
CONTINUOUS
 10
83.4033793638
 20
96.5752742509
  0
SEQEND
  0
LINE
  8
0
 62
7
  6
CONTINUOUS
 10
157.7682112069
 20
117.8168103448
 11
147.1682112069
 21
117.8168103448
  0
LINE
  8
0
 62
7
  6
CONTINUOUS
 10
133.4682112069
 20
117.8168103448
 11
122.8682112069
 21
117.8168103448
  0
LINE
  8
0
 62
7
  6
CONTINUOUS
 10
109.1682112069
 20
117.8168103448
 11
98.5682112069
 21
117.8168103448
  0
LINE
  8
0
 62
7
  6
CONTINUOUS
 10
84.8682112069
 20
117.8168103448
 11
74.2682112069
 21
117.8168103448
  0
LINE
  8
0
 62
7
  6
CONTINUOUS
 10
60.5682112069
 20
117.8168103448
 11
49.9682112069
 21
117.8168103448
  0
LINE
  8
0
 62
7
  6
CONTINUOUS
 10
36.2682112069
 20
117.8168103448
 11
25.6682112069
 21
117.8168103448
  0
LINE
  8
0
 62
7
  6
CONTINUOUS
 10
65.5524636559
 20
156.8546278549
 11
65.3726803807
 21
157.2555770766
  0
POLYLINE
  8
0
 62
7
  6
CONTINUOUS
 66
1
 70
0
  0
VERTEX
  8
0
 62
7
  6
CONTINUOUS
 10
91.8063309305
 20
147.2312365765
  0
VERTEX
  8
0
 62
7
  6
CONTINUOUS
 10
91.8103039074
 20
146.9379144576
  0
VERTEX
  8
0
 62
7
  6
CONTINUOUS
 10
91.8104302309
 20
146.8583209146
  0
VERTEX
  8
0
 62
7
  6
CONTINUOUS
 10
91.8091515515
 20
146.7792582534
  0
VERTEX
  8
0
 62
7
  6
CONTINUOUS
 10
91.8062650746
 20
146.7010065291
  0
VERTEX
  8
0
 62
7
  6
CONTINUOUS
 10
91.8015496726
 20
146.6237882851
  0
VERTEX
  8
0
 62
7
  6
CONTINUOUS
 10
91.7948067521
 20
146.5478232362
  0
VERTEX
  8
0
 62
7
  6
CONTINUOUS
 10
91.7858604059
 20
146.4735440915
  0
VERTEX
  8
0
 62
7
  6
CONTINUOUS
 10
91.7745408887
 20
146.4014590932
  0
VERTEX
  8
0
 62
7
  6
CONTINUOUS
 10
91.7606494895
 20
146.3313544243
  0
VERTEX
  8
0
 62
7
  6
CONTINUOUS
 10
91.7439496136
 20
146.2637042722
  0
VERTEX
  8
0
 62
7
  6
CONTINUOUS
 10
91.7242350718
 20
146.1996360879
  0
VERTEX
  8
0
 62
7
  6
CONTINUOUS
 10
91.7008883942
 20
146.1401462629
  0
VERTEX
  8
0
 62
7
  6
CONTINUOUS
 10
91.673419971
 20
146.084877314
  0
VERTEX
  8
0
 62
7
  6
CONTINUOUS
 10
91.6424050944
 20
146.0354327847
  0
VERTEX
  8
0
 62
7
  6
CONTINUOUS
 10
91.6089624084
 20
145.9932538118
  0
VERTEX
  8
0
 62
7
  6
CONTINUOUS
 10
91.5730925171
 20
145.95797952
  0
VERTEX
  8
0
 62
7
  6
CONTINUOUS
 10
91.5347723417
 20
145.9296837085
  0
VERTEX
  8
0
 62
7
  6
CONTINUOUS
 10
91.4939413412
 20
145.9089736029
  0
VERTEX
  8
0
 62
7
  6
CONTINUOUS
 10
91.4511445185
 20
145.8973853409
  0
VERTEX
  8
0
 62
7
  6
CONTINUOUS
 10
91.4277747202
 20
145.8956188307
  0
SEQEND
  0
POLYLINE
  8
0
 62
7
  6
CONTINUOUS
 66
1
 70
0
  0
VERTEX
  8
0
 62
7
  6
CONTINUOUS
 10
91.6300446186
 20
102.4063518431
  0
VERTEX
  8
0
 62
7
  6
CONTINUOUS
 10
91.6260748976
 20
102.7003836141
  0
VERTEX
  8
0
 62
7
  6
CONTINUOUS
 10
91.6260282312
 20
102.7802527871
  0
VERTEX
  8
0
 62
7
  6
CONTINUOUS
 10
91.6274049959
 20
102.8594282503
  0
VERTEX
  8
0
 62
7
  6
CONTINUOUS
 10
91.6304041053
 20
102.9376502241
  0
VERTEX
  8
0
 62
7
  6
CONTINUOUS
 10
91.6352396751
 20
103.0147213436
  0
VERTEX
  8
0
 62
7
  6
CONTINUOUS
 10
91.6421008048
 20
103.0904345162
  0
VERTEX
  8
0
 62
7
  6
CONTINUOUS
 10
91.6511567032
 20
103.1643617851
  0
VERTEX
  8
0
 62
7
  6
CONTINUOUS
 10
91.662572359
 20
103.2360569613
  0
VERTEX
  8
0
 62
7
  6
CONTINUOUS
 10
91.6765283351
 20
103.3056559835
  0
VERTEX
  8
0
 62
7
  6
CONTINUOUS
 10
91.6932960896
 20
103.3728915695
  0
VERTEX
  8
0
 62
7
  6
CONTINUOUS
 10
91.7129982416
 20
103.4363206104
  0
VERTEX
  8
0
 62
7
  6
CONTINUOUS
 10
91.7363496395
 20
103.4953155028
  0
VERTEX
  8
0
 62
7
  6
CONTINUOUS
 10
91.7637525231
 20
103.5500855078
  0
VERTEX
  8
0
 62
7
  6
CONTINUOUS
 10
91.7946016569
 20
103.5990167752
  0
VERTEX
  8
0
 62
7
  6
CONTINUOUS
 10
91.8280656598
 20
103.641043138
  0
VERTEX
  8
0
 62
7
  6
CONTINUOUS
 10
91.8642008618
 20
103.6763868127
  0
VERTEX
  8
0
 62
7
  6
CONTINUOUS
 10
91.9029641035
 20
103.7047519561
  0
VERTEX
  8
0
 62
7
  6
CONTINUOUS
 10
91.9442377031
 20
103.7253282538
  0
VERTEX
  8
0
 62
7
  6
CONTINUOUS
 10
91.9872350393
 20
103.736511281
  0
VERTEX
  8
0
 62
7
  6
CONTINUOUS
 10
92.0084739425
 20
103.7380012932
  0
SEQEND
  0
LINE
  8
0
 62
7
  6
CONTINUOUS
 10
91.6324866732
 20
102.1233376741
 11
91.6300446186
 21
102.4063518431
  0
LINE
  8
0
 62
7
  6
CONTINUOUS
 10
91.8039149561
 20
147.5142583132
 11
91.8063309305
 21
147.2312365765
  0
LINE
  8
0
 62
7
  6
CONTINUOUS
 10
86.8682112069
 20
129.8168103448
 11
86.8682112069
 21
119.8168103448
  0
LINE
  8
0
 62
2
  6
CONTINUOUS
 10
87.6182112069
 20
124.8168103448
 11
87.6182112069
 21
164.8168103448
  0
LINE
  8
0
 62
7
  6
CONTINUOUS
 10
91.6324866732
 20
102.1233376741
 11
91.63304305
 21
96.5752367336
  0
LINE
  8
DEFAULT_1
 62
2
  6
CENTER
 10
91.7182112069
 20
129.2168103448
 11
91.7182112069
 21
126.8169103448
  0
LINE
  8
0
 62
2
  6
CONTINUOUS
 10
91.7182112069
 20
125.6968103448
 11
91.7182112069
 21
123.9368103448
  0
LINE
  8
0
 62
40
  6
CONTINUOUS
 10
91.7182112069
 20
96.5487826445
 11
91.7182112069
 21
70.9935103448
  0
LINE
  8
DEFAULT_1
 62
2
  6
CENTER
 10
91.7182112069
 20
120.4168103448
 11
91.7182112069
 21
122.8167103448
  0
LINE
  8
0
 62
40
  6
CONTINUOUS
 10
91.7182112069
 20
153.0848376243
 11
91.7182112069
 21
178.6401103448
  0
LINE
  8
0
 62
7
  6
CONTINUOUS
 10
91.8033793638
 20
153.0583464388
 11
91.8039149561
 21
147.5142583132
  0
LINE
  8
0
 62
7
  6
CONTINUOUS
 10
91.8034386719
 20
153.0594283902
 11
91.8033793667
 21
153.0584084503
  0
LINE
  8
0
 62
7
  6
CONTINUOUS
 10
92.8755834287
 20
157.3512423265
 11
92.8596786442
 21
157.2465149844
  0
POLYLINE
  8
0
 62
7
  6
CONTINUOUS
 66
1
 70
0
  0
VERTEX
  8
0
 62
7
  6
CONTINUOUS
 10
73.7726814239
 20
92.3780457391
  0
VERTEX
  8
0
 62
7
  6
CONTINUOUS
 10
73.953408151
 20
92.7812924786
  0
VERTEX
  8
0
 62
7
  6
CONTINUOUS
 10
74.1284019688
 20
93.2471432098
  0
VERTEX
  8
0
 62
7
  6
CONTINUOUS
 10
74.2870999219
 20
93.7489937299
  0
VERTEX
  8
0
 62
7
  6
CONTINUOUS
 10
74.4297326975
 20
94.2825415633
  0
VERTEX
  8
0
 62
7
  6
CONTINUOUS
 10
74.5563465974
 20
94.8431273942
  0
VERTEX
  8
0
 62
7
  6
CONTINUOUS
 10
74.6669572082
 20
95.4259145292
  0
VERTEX
  8
0
 62
7
  6
CONTINUOUS
 10
74.761606668
 20
96.0258961176
  0
VERTEX
  8
0
 62
7
  6
CONTINUOUS
 10
74.8329837748
 20
96.574186462
  0
SEQEND
  0
LINE
  8
DEFAULT_1
 62
2
  6
CENTER
 10
96.1182112069
 20
124.8168103448
 11
93.7183112069
 21
124.8168103448
  0
LINE
  8
0
 62
2
  6
CONTINUOUS
 10
92.5982112069
 20
124.8168103448
 11
90.8382112069
 21
124.8168103448
  0
LINE
  8
0
 62
2
  6
CONTINUOUS
 10
79.2182112069
 20
124.8168103448
 11
87.3182112069
 21
124.8168103448
  0
LINE
  8
DEFAULT_1
 62
2
  6
CENTER
 10
87.3182112069
 20
124.8168103448
 11
89.7181112069
 21
124.8168103448
  0
LINE
  8
0
 62
7
  6
CONTINUOUS
 10
101.0830143067
 20
92.7812923717
 11
101.2637409899
 21
92.3780457392
  0
POLYLINE
  8
0
 62
7
  6
CONTINUOUS
 66
1
 70
0
  0
VERTEX
  8
0
 62
7
  6
CONTINUOUS
 10
82.1608402643
 20
157.3512341211
  0
VERTEX
  8
0
 62
7
  6
CONTINUOUS
 10
82.1329536185
 20
157.5200291745
  0
VERTEX
  8
0
 62
7
  6
CONTINUOUS
 10
82.1021097171
 20
157.6845893909
  0
VERTEX
  8
0
 62
7
  6
CONTINUOUS
 10
82.0712259663
 20
157.8280276674
  0
VERTEX
  8
0
 62
7
  6
CONTINUOUS
 10
82.0398879197
 20
157.9537059679
  0
VERTEX
  8
0
 62
7
  6
CONTINUOUS
 10
82.0073865344
 20
158.0650196382
  0
VERTEX
  8
0
 62
7
  6
CONTINUOUS
 10
81.9724742316
 20
158.1656292597
  0
VERTEX
  8
0
 62
7
  6
CONTINUOUS
 10
81.9329376044
 20
158.2595941308
  0
VERTEX
  8
0
 62
7
  6
CONTINUOUS
 10
81.8851490131
 20
158.3507899118
  0
VERTEX
  8
0
 62
7
  6
CONTINUOUS
 10
81.8234399699
 20
158.4421020882
  0
VERTEX
  8
0
 62
7
  6
CONTINUOUS
 10
81.7403429025
 20
158.5331498421
  0
VERTEX
  8
0
 62
7
  6
CONTINUOUS
 10
81.6305376374
 20
158.6166194012
  0
VERTEX
  8
0
 62
7
  6
CONTINUOUS
 10
81.4963838553
 20
158.6799297084
  0
VERTEX
  8
0
 62
7
  6
CONTINUOUS
 10
81.3491376
 20
158.7127731838
  0
VERTEX
  8
0
 62
7
  6
CONTINUOUS
 10
81.2743818943
 20
158.7168102379
  0
SEQEND
  0
LINE
  8
0
 62
7
  6
CONTINUOUS
 10
82.1767437696
 20
157.2465149844
 11
82.1608389851
 21
157.3512423265
  0
POLYLINE
  8
0
 62
7
  6
CONTINUOUS
 66
1
 70
0
  0
VERTEX
  8
0
 62
7
  6
CONTINUOUS
 10
83.2329837715
 20
153.0594342558
  0
VERTEX
  8
0
 62
7
  6
CONTINUOUS
 10
83.1611059577
 20
153.6112273772
  0
VERTEX
  8
0
 62
7
  6
CONTINUOUS
 10
83.0663771064
 20
154.2110523041
  0
VERTEX
  8
0
 62
7
  6
CONTINUOUS
 10
82.9556895754
 20
154.7936631096
  0
VERTEX
  8
0
 62
7
  6
CONTINUOUS
 10
82.8290013418
 20
155.3540541314
  0
VERTEX
  8
0
 62
7
  6
CONTINUOUS
 10
82.686296596
 20
155.8873903336
  0
VERTEX
  8
0
 62
7
  6
CONTINUOUS
 10
82.5275281941
 20
156.389014814
  0
VERTEX
  8
0
 62
7
  6
CONTINUOUS
 10
82.3524636559
 20
156.8546278549
  0
SEQEND
  0
LINE
  8
0
 62
7
  6
CONTINUOUS
 10
100.2034386686
 20
96.5741923277
 11
100.2033793667
 21
96.5752122394
  0
LINE
  8
0
 62
7
  6
CONTINUOUS
 10
96.5682112069
 20
119.8168103448
 11
96.5682112069
 21
129.8168103448
  0
LINE
  8
0
 62
7
  6
CONTINUOUS
 10
91.63304305
 20
96.5752046205
 11
91.632983724
 21
96.5741965834
  0
LINE
  8
0
 62
7
  6
CONTINUOUS
 10
90.5608391207
 20
92.2823792331
 11
90.5767414951
 21
92.3871047781
  0
POLYLINE
  8
0
 62
7
  6
CONTINUOUS
 66
1
 70
0
  0
VERTEX
  8
0
 62
7
  6
CONTINUOUS
 10
109.6637420331
 20
157.2555770766
  0
VERTEX
  8
0
 62
7
  6
CONTINUOUS
 10
109.4839587578
 20
156.8546278549
  0
VERTEX
  8
0
 62
7
  6
CONTINUOUS
 10
109.3088942197
 20
156.389014814
  0
VERTEX
  8
0
 62
7
  6
CONTINUOUS
 10
109.1501258178
 20
155.8873903336
  0
VERTEX
  8
0
 62
7
  6
CONTINUOUS
 10
109.007421072
 20
155.3540541314
  0
VERTEX
  8
0
 62
7
  6
CONTINUOUS
 10
108.8807328384
 20
154.7936631096
  0
VERTEX
  8
0
 62
7
  6
CONTINUOUS
 10
108.7700453074
 20
154.2110523041
  0
VERTEX
  8
0
 62
7
  6
CONTINUOUS
 10
108.6753164561
 20
153.6112273772
  0
VERTEX
  8
0
 62
7
  6
CONTINUOUS
 10
108.6034386423
 20
153.0594342558
  0
SEQEND
  0
POLYLINE
  8
0
 62
7
  6
CONTINUOUS
 66
1
 70
0
  0
VERTEX
  8
0
 62
7
  6
CONTINUOUS
 10
74.832983724
 20
96.5741965834
  0
VERTEX
  8
0
 62
7
  6
CONTINUOUS
 10
74.8271720236
 20
96.5655996854
  0
VERTEX
  8
0
 62
7
  6
CONTINUOUS
 10
74.8080852706
 20
96.556806367
  0
VERTEX
  8
0
 62
7
  6
CONTINUOUS
 10
74.7768840235
 20
96.5500779242
  0
VERTEX
  8
0
 62
7
  6
CONTINUOUS
 10
74.7355654776
 20
96.5457582209
  0
VERTEX
  8
0
 62
7
  6
CONTINUOUS
 10
74.6868691315
 20
96.5439693342
  0
VERTEX
  8
0
 62
7
  6
CONTINUOUS
 10
74.63304305
 20
96.5445290216
  0
SEQEND
  0
LINE
  8
0
 62
7
  6
CONTINUOUS
 10
25.6682112069
 20
131.8168103448
 11
36.2682112069
 21
131.8168103448
  0
LINE
  8
0
 62
7
  6
CONTINUOUS
 10
49.9682112069
 20
131.8168103448
 11
60.5682112069
 21
131.8168103448
  0
LINE
  8
0
 62
7
  6
CONTINUOUS
 10
74.2682112069
 20
131.8168103448
 11
84.8682112069
 21
131.8168103448
  0
LINE
  8
0
 62
7
  6
CONTINUOUS
 10
98.5682112069
 20
131.8168103448
 11
109.1682112069
 21
131.8168103448
  0
LINE
  8
0
 62
7
  6
CONTINUOUS
 10
122.8682112069
 20
131.8168103448
 11
133.4682112069
 21
131.8168103448
  0
LINE
  8
0
 62
7
  6
CONTINUOUS
 10
147.1682112069
 20
131.8168103448
 11
157.7682112069
 21
131.8168103448
  0
LINE
  8
0
 62
7
  6
CONTINUOUS
 10
82.3524636559
 20
156.8546278549
 11
82.1726803807
 21
157.2555770766
  0
POLYLINE
  8
0
 62
7
  6
CONTINUOUS
 66
1
 70
0
  0
VERTEX
  8
0
 62
7
  6
CONTINUOUS
 10
101.2755820323
 20
92.2823873206
  0
VERTEX
  8
0
 62
7
  6
CONTINUOUS
 10
101.303243844
 20
92.1148747514
  0
VERTEX
  8
0
 62
7
  6
CONTINUOUS
 10
101.3341486419
 20
91.9498485333
  0
VERTEX
  8
0
 62
7
  6
CONTINUOUS
 10
101.3650974284
 20
91.806020832
  0
VERTEX
  8
0
 62
7
  6
CONTINUOUS
 10
101.3965066157
 20
91.6800182089
  0
VERTEX
  8
0
 62
7
  6
CONTINUOUS
 10
101.4290897568
 20
91.5684313698
  0
VERTEX
  8
0
 62
7
  6
CONTINUOUS
 10
101.4641047655
 20
91.467580051
  0
VERTEX
  8
0
 62
7
  6
CONTINUOUS
 10
101.5037882638
 20
91.3733765845
  0
VERTEX
  8
0
 62
7
  6
CONTINUOUS
 10
101.5518153817
 20
91.2819126587
  0
VERTEX
  8
0
 62
7
  6
CONTINUOUS
 10
101.6139250324
 20
91.190305436
  0
VERTEX
  8
0
 62
7
  6
CONTINUOUS
 10
101.6976539572
 20
91.0990145684
  0
VERTEX
  8
0
 62
7
  6
CONTINUOUS
 10
101.8082993684
 20
91.0155266608
  0
VERTEX
  8
0
 62
7
  6
CONTINUOUS
 10
101.9432890339
 20
90.9525829374
  0
VERTEX
  8
0
 62
7
  6
CONTINUOUS
 10
102.0911238232
 20
90.9204407816
  0
VERTEX
  8
0
 62
7
  6
CONTINUOUS
 10
102.1612232042
 20
90.9168107787
  0
SEQEND
  0
LINE
  8
0
 62
7
  6
CONTINUOUS
 10
101.2596809188
 20
92.3871047778
 11
101.2755832931
 21
92.2823792331
  0
POLYLINE
  8
0
 62
7
  6
CONTINUOUS
 66
1
 70
0
  0
VERTEX
  8
0
 62
7
  6
CONTINUOUS
 10
100.203438639
 20
96.574186462
  0
VERTEX
  8
0
 62
7
  6
CONTINUOUS
 10
100.2748158941
 20
96.0258950796
  0
VERTEX
  8
0
 62
7
  6
CONTINUOUS
 10
100.3694653554
 20
95.4259136642
  0
VERTEX
  8
0
 62
7
  6
CONTINUOUS
 10
100.4800759603
 20
94.8431266997
  0
VERTEX
  8
0
 62
7
  6
CONTINUOUS
 10
100.6066898465
 20
94.2825410334
  0
VERTEX
  8
0
 62
7
  6
CONTINUOUS
 10
100.7493226008
 20
93.7489933551
  0
VERTEX
  8
0
 62
7
  6
CONTINUOUS
 10
100.9080205251
 20
93.2471429771
  0
VERTEX
  8
0
 62
7
  6
CONTINUOUS
 10
101.0830143067
 20
92.7812923717
  0
SEQEND
  0
LINE
  8
0
 62
7
  6
CONTINUOUS
 10
100.0329837419
 20
153.0594283902
 11
100.0330430471
 21
153.0584084503
  0
POLYLINE
  8
0
 62
7
  6
CONTINUOUS
 66
1
 70
0
  0
VERTEX
  8
0
 62
7
  6
CONTINUOUS
 10
100.026080545
 20
146.9338087042
  0
VERTEX
  8
0
 62
7
  6
CONTINUOUS
 10
100.0300450215
 20
147.22727269
  0
VERTEX
  8
0
 62
7
  6
CONTINUOUS
 10
100.0324867654
 20
147.5102848915
  0
VERTEX
  8
0
 62
7
  6
CONTINUOUS
 10
100.03304305
 20
153.0583464388
  0
SEQEND
  0
POLYLINE
  8
0
 62
7
  6
CONTINUOUS
 66
1
 70
0
  0
VERTEX
  8
0
 62
7
  6
CONTINUOUS
 10
100.2103084859
 20
102.6961831597
  0
VERTEX
  8
0
 62
7
  6
CONTINUOUS
 10
100.2063309307
 20
102.4023840625
  0
VERTEX
  8
0
 62
7
  6
CONTINUOUS
 10
100.2039149563
 20
102.119362402
  0
VERTEX
  8
0
 62
7
  6
CONTINUOUS
 10
100.2033793638
 20
96.5752742509
  0
SEQEND
  0
LINE
  8
0
 62
7
  6
CONTINUOUS
 10
109.6755834287
 20
157.3512423265
 11
109.6596786442
 21
157.2465149844
  0
POLYLINE
  8
0
 62
7
  6
CONTINUOUS
 66
1
 70
0
  0
VERTEX
  8
0
 62
7
  6
CONTINUOUS
 10
90.5726814239
 20
92.3780457391
  0
VERTEX
  8
0
 62
7
  6
CONTINUOUS
 10
90.753408151
 20
92.7812924786
  0
VERTEX
  8
0
 62
7
  6
CONTINUOUS
 10
90.9284019688
 20
93.2471432098
  0
VERTEX
  8
0
 62
7
  6
CONTINUOUS
 10
91.0870999219
 20
93.7489937299
  0
VERTEX
  8
0
 62
7
  6
CONTINUOUS
 10
91.2297326975
 20
94.2825415633
  0
VERTEX
  8
0
 62
7
  6
CONTINUOUS
 10
91.3563465974
 20
94.8431273942
  0
VERTEX
  8
0
 62
7
  6
CONTINUOUS
 10
91.4669572082
 20
95.4259145292
  0
VERTEX
  8
0
 62
7
  6
CONTINUOUS
 10
91.561606668
 20
96.0258961176
  0
VERTEX
  8
0
 62
7
  6
CONTINUOUS
 10
91.6329837748
 20
96.574186462
  0
SEQEND
  0
LINE
  8
0
 62
7
  6
CONTINUOUS
 10
117.8830143067
 20
92.7812923717
 11
118.0637409899
 21
92.3780457392
  0
POLYLINE
  8
0
 62
7
  6
CONTINUOUS
 66
1
 70
0
  0
VERTEX
  8
0
 62
7
  6
CONTINUOUS
 10
98.9608402643
 20
157.3512341211
  0
VERTEX
  8
0
 62
7
  6
CONTINUOUS
 10
98.9329536185
 20
157.5200291745
  0
VERTEX
  8
0
 62
7
  6
CONTINUOUS
 10
98.9021097171
 20
157.6845893909
  0
VERTEX
  8
0
 62
7
  6
CONTINUOUS
 10
98.8712259663
 20
157.8280276674
  0
VERTEX
  8
0
 62
7
  6
CONTINUOUS
 10
98.8398879197
 20
157.9537059679
  0
VERTEX
  8
0
 62
7
  6
CONTINUOUS
 10
98.8073865344
 20
158.0650196382
  0
VERTEX
  8
0
 62
7
  6
CONTINUOUS
 10
98.7724742316
 20
158.1656292597
  0
VERTEX
  8
0
 62
7
  6
CONTINUOUS
 10
98.7329376044
 20
158.2595941308
  0
VERTEX
  8
0
 62
7
  6
CONTINUOUS
 10
98.6851490131
 20
158.3507899118
  0
VERTEX
  8
0
 62
7
  6
CONTINUOUS
 10
98.6234399699
 20
158.4421020882
  0
VERTEX
  8
0
 62
7
  6
CONTINUOUS
 10
98.5403429025
 20
158.5331498421
  0
VERTEX
  8
0
 62
7
  6
CONTINUOUS
 10
98.4305376374
 20
158.6166194012
  0
VERTEX
  8
0
 62
7
  6
CONTINUOUS
 10
98.2963838553
 20
158.6799297084
  0
VERTEX
  8
0
 62
7
  6
CONTINUOUS
 10
98.1491376
 20
158.7127731838
  0
VERTEX
  8
0
 62
7
  6
CONTINUOUS
 10
98.0743818943
 20
158.7168102379
  0
SEQEND
  0
LINE
  8
0
 62
7
  6
CONTINUOUS
 10
98.9767437696
 20
157.2465149844
 11
98.9608389851
 21
157.3512423265
  0
POLYLINE
  8
0
 62
7
  6
CONTINUOUS
 66
1
 70
0
  0
VERTEX
  8
0
 62
7
  6
CONTINUOUS
 10
100.0329837715
 20
153.0594342558
  0
VERTEX
  8
0
 62
7
  6
CONTINUOUS
 10
99.9611059577
 20
153.6112273772
  0
VERTEX
  8
0
 62
7
  6
CONTINUOUS
 10
99.8663771064
 20
154.2110523041
  0
VERTEX
  8
0
 62
7
  6
CONTINUOUS
 10
99.7556895754
 20
154.7936631096
  0
VERTEX
  8
0
 62
7
  6
CONTINUOUS
 10
99.6290013418
 20
155.3540541314
  0
VERTEX
  8
0
 62
7
  6
CONTINUOUS
 10
99.486296596
 20
155.8873903336
  0
VERTEX
  8
0
 62
7
  6
CONTINUOUS
 10
99.3275281941
 20
156.389014814
  0
VERTEX
  8
0
 62
7
  6
CONTINUOUS
 10
99.1524636559
 20
156.8546278549
  0
SEQEND
  0
POLYLINE
  8
0
 62
7
  6
CONTINUOUS
 66
1
 70
0
  0
VERTEX
  8
0
 62
7
  6
CONTINUOUS
 10
108.6063309305
 20
147.2312365765
  0
VERTEX
  8
0
 62
7
  6
CONTINUOUS
 10
108.6103039074
 20
146.9379144576
  0
VERTEX
  8
0
 62
7
  6
CONTINUOUS
 10
108.6104302309
 20
146.8583209146
  0
VERTEX
  8
0
 62
7
  6
CONTINUOUS
 10
108.6091515515
 20
146.7792582534
  0
VERTEX
  8
0
 62
7
  6
CONTINUOUS
 10
108.6062650746
 20
146.7010065291
  0
VERTEX
  8
0
 62
7
  6
CONTINUOUS
 10
108.6015496726
 20
146.6237882851
  0
VERTEX
  8
0
 62
7
  6
CONTINUOUS
 10
108.5948067521
 20
146.5478232362
  0
VERTEX
  8
0
 62
7
  6
CONTINUOUS
 10
108.5858604059
 20
146.4735440915
  0
VERTEX
  8
0
 62
7
  6
CONTINUOUS
 10
108.5745408887
 20
146.4014590932
  0
VERTEX
  8
0
 62
7
  6
CONTINUOUS
 10
108.5606494895
 20
146.3313544243
  0
VERTEX
  8
0
 62
7
  6
CONTINUOUS
 10
108.5439496136
 20
146.2637042722
  0
VERTEX
  8
0
 62
7
  6
CONTINUOUS
 10
108.5242350718
 20
146.1996360879
  0
VERTEX
  8
0
 62
7
  6
CONTINUOUS
 10
108.5008883942
 20
146.1401462629
  0
VERTEX
  8
0
 62
7
  6
CONTINUOUS
 10
108.473419971
 20
146.084877314
  0
VERTEX
  8
0
 62
7
  6
CONTINUOUS
 10
108.4424050944
 20
146.0354327847
  0
VERTEX
  8
0
 62
7
  6
CONTINUOUS
 10
108.4089624084
 20
145.9932538118
  0
VERTEX
  8
0
 62
7
  6
CONTINUOUS
 10
108.3730925171
 20
145.95797952
  0
VERTEX
  8
0
 62
7
  6
CONTINUOUS
 10
108.3347723417
 20
145.9296837085
  0
VERTEX
  8
0
 62
7
  6
CONTINUOUS
 10
108.2939413412
 20
145.9089736029
  0
VERTEX
  8
0
 62
7
  6
CONTINUOUS
 10
108.2511445185
 20
145.8973853409
  0
VERTEX
  8
0
 62
7
  6
CONTINUOUS
 10
108.2277747202
 20
145.8956188307
  0
SEQEND
  0
POLYLINE
  8
0
 62
7
  6
CONTINUOUS
 66
1
 70
0
  0
VERTEX
  8
0
 62
7
  6
CONTINUOUS
 10
108.4300446186
 20
102.4063518431
  0
VERTEX
  8
0
 62
7
  6
CONTINUOUS
 10
108.4260748976
 20
102.7003836141
  0
VERTEX
  8
0
 62
7
  6
CONTINUOUS
 10
108.4260282312
 20
102.7802527871
  0
VERTEX
  8
0
 62
7
  6
CONTINUOUS
 10
108.4274049959
 20
102.8594282503
  0
VERTEX
  8
0
 62
7
  6
CONTINUOUS
 10
108.4304041053
 20
102.9376502241
  0
VERTEX
  8
0
 62
7
  6
CONTINUOUS
 10
108.4352396751
 20
103.0147213436
  0
VERTEX
  8
0
 62
7
  6
CONTINUOUS
 10
108.4421008048
 20
103.0904345162
  0
VERTEX
  8
0
 62
7
  6
CONTINUOUS
 10
108.4511567032
 20
103.1643617851
  0
VERTEX
  8
0
 62
7
  6
CONTINUOUS
 10
108.462572359
 20
103.2360569613
  0
VERTEX
  8
0
 62
7
  6
CONTINUOUS
 10
108.4765283351
 20
103.3056559835
  0
VERTEX
  8
0
 62
7
  6
CONTINUOUS
 10
108.4932960896
 20
103.3728915695
  0
VERTEX
  8
0
 62
7
  6
CONTINUOUS
 10
108.5129982416
 20
103.4363206104
  0
VERTEX
  8
0
 62
7
  6
CONTINUOUS
 10
108.5363496395
 20
103.4953155028
  0
VERTEX
  8
0
 62
7
  6
CONTINUOUS
 10
108.5637525231
 20
103.5500855078
  0
VERTEX
  8
0
 62
7
  6
CONTINUOUS
 10
108.5946016569
 20
103.5990167752
  0
VERTEX
  8
0
 62
7
  6
CONTINUOUS
 10
108.6280656598
 20
103.641043138
  0
VERTEX
  8
0
 62
7
  6
CONTINUOUS
 10
108.6642008618
 20
103.6763868127
  0
VERTEX
  8
0
 62
7
  6
CONTINUOUS
 10
108.7029641035
 20
103.7047519561
  0
VERTEX
  8
0
 62
7
  6
CONTINUOUS
 10
108.7442377031
 20
103.7253282538
  0
VERTEX
  8
0
 62
7
  6
CONTINUOUS
 10
108.7872350393
 20
103.736511281
  0
VERTEX
  8
0
 62
7
  6
CONTINUOUS
 10
108.8084739425
 20
103.7380012932
  0
SEQEND
  0
LINE
  8
0
 62
7
  6
CONTINUOUS
 10
108.4324866732
 20
102.1233376741
 11
108.4300446186
 21
102.4063518431
  0
LINE
  8
0
 62
7
  6
CONTINUOUS
 10
108.6039149561
 20
147.5142583132
 11
108.6063309305
 21
147.2312365765
  0
LINE
  8
0
 62
7
  6
CONTINUOUS
 10
108.4324866732
 20
102.1233376741
 11
108.43304305
 21
96.5752367336
  0
LINE
  8
0
 62
7
  6
CONTINUOUS
 10
108.6033793638
 20
153.0583464388
 11
108.6039149561
 21
147.5142583132
  0
LINE
  8
0
 62
7
  6
CONTINUOUS
 10
108.6034386719
 20
153.0594283902
 11
108.6033793667
 21
153.0584084503
  0
LINE
  8
0
 62
7
  6
CONTINUOUS
 10
108.43304305
 20
96.5752046205
 11
108.432983724
 21
96.5741965834
  0
POLYLINE
  8
0
 62
7
  6
CONTINUOUS
 66
1
 70
0
  0
VERTEX
  8
0
 62
7
  6
CONTINUOUS
 10
126.4637420331
 20
157.2555770766
  0
VERTEX
  8
0
 62
7
  6
CONTINUOUS
 10
126.2839587578
 20
156.8546278549
  0
VERTEX
  8
0
 62
7
  6
CONTINUOUS
 10
126.1088942197
 20
156.389014814
  0
VERTEX
  8
0
 62
7
  6
CONTINUOUS
 10
125.9501258178
 20
155.8873903336
  0
VERTEX
  8
0
 62
7
  6
CONTINUOUS
 10
125.807421072
 20
155.3540541314
  0
VERTEX
  8
0
 62
7
  6
CONTINUOUS
 10
125.6807328384
 20
154.7936631096
  0
VERTEX
  8
0
 62
7
  6
CONTINUOUS
 10
125.5700453074
 20
154.2110523041
  0
VERTEX
  8
0
 62
7
  6
CONTINUOUS
 10
125.4753164561
 20
153.6112273772
  0
VERTEX
  8
0
 62
7
  6
CONTINUOUS
 10
125.4034386423
 20
153.0594342558
  0
SEQEND
  0
POLYLINE
  8
0
 62
7
  6
CONTINUOUS
 66
1
 70
0
  0
VERTEX
  8
0
 62
7
  6
CONTINUOUS
 10
91.632983724
 20
96.5741965834
  0
VERTEX
  8
0
 62
7
  6
CONTINUOUS
 10
91.6271720236
 20
96.5655996854
  0
VERTEX
  8
0
 62
7
  6
CONTINUOUS
 10
91.6080852706
 20
96.556806367
  0
VERTEX
  8
0
 62
7
  6
CONTINUOUS
 10
91.5768840235
 20
96.5500779242
  0
VERTEX
  8
0
 62
7
  6
CONTINUOUS
 10
91.5355654776
 20
96.5457582209
  0
VERTEX
  8
0
 62
7
  6
CONTINUOUS
 10
91.4868691315
 20
96.5439693342
  0
VERTEX
  8
0
 62
7
  6
CONTINUOUS
 10
91.43304305
 20
96.5445290216
  0
SEQEND
  0
POLYLINE
  8
0
 62
7
  6
CONTINUOUS
 66
1
 70
0
  0
VERTEX
  8
0
 62
7
  6
CONTINUOUS
 10
33.2084748976
 20
145.8956194361
  0
VERTEX
  8
0
 62
7
  6
CONTINUOUS
 10
33.1870538696
 20
145.8971341825
  0
VERTEX
  8
0
 62
7
  6
CONTINUOUS
 10
33.1442292613
 20
145.9082963223
  0
VERTEX
  8
0
 62
7
  6
CONTINUOUS
 10
33.1032752479
 20
145.9286781218
  0
VERTEX
  8
0
 62
7
  6
CONTINUOUS
 10
33.0647915263
 20
145.9567319196
  0
VERTEX
  8
0
 62
7
  6
CONTINUOUS
 10
33.0287686381
 20
145.9917989048
  0
VERTEX
  8
0
 62
7
  6
CONTINUOUS
 10
32.9951987148
 20
146.0337645622
  0
VERTEX
  8
0
 62
7
  6
CONTINUOUS
 10
32.9640651625
 20
146.0829814271
  0
VERTEX
  8
0
 62
7
  6
CONTINUOUS
 10
32.9364725471
 20
146.1380287533
  0
VERTEX
  8
0
 62
7
  6
CONTINUOUS
 10
32.9129921923
 20
146.1973317807
  0
VERTEX
  8
0
 62
7
  6
CONTINUOUS
 10
32.8931941423
 20
146.2611090243
  0
VERTEX
  8
0
 62
7
  6
CONTINUOUS
 10
32.8763820503
 20
146.3286090673
  0
VERTEX
  8
0
 62
7
  6
CONTINUOUS
 10
32.862408961
 20
146.3984877711
  0
VERTEX
  8
0
 62
7
  6
CONTINUOUS
 10
32.8509986404
 20
146.4703974932
  0
VERTEX
  8
0
 62
7
  6
CONTINUOUS
 10
32.8419643183
 20
146.5444899293
  0
VERTEX
  8
0
 62
7
  6
CONTINUOUS
 10
32.8351358718
 20
146.6202778505
  0
VERTEX
  8
0
 62
7
  6
CONTINUOUS
 10
32.8303375887
 20
146.6973279982
  0
VERTEX
  8
0
 62
7
  6
CONTINUOUS
 10
32.82737258
 20
146.7754205256
  0
VERTEX
  8
0
 62
7
  6
CONTINUOUS
 10
32.8260212698
 20
146.8543386545
  0
VERTEX
  8
0
 62
7
  6
CONTINUOUS
 10
32.826080545
 20
146.9338087042
  0
SEQEND
  0
POLYLINE
  8
0
 62
7
  6
CONTINUOUS
 66
1
 70
0
  0
VERTEX
  8
0
 62
7
  6
CONTINUOUS
 10
50.0084748976
 20
145.8956194361
  0
VERTEX
  8
0
 62
7
  6
CONTINUOUS
 10
49.9870538696
 20
145.8971341825
  0
VERTEX
  8
0
 62
7
  6
CONTINUOUS
 10
49.9442292613
 20
145.9082963223
  0
VERTEX
  8
0
 62
7
  6
CONTINUOUS
 10
49.9032752479
 20
145.9286781218
  0
VERTEX
  8
0
 62
7
  6
CONTINUOUS
 10
49.8647915263
 20
145.9567319196
  0
VERTEX
  8
0
 62
7
  6
CONTINUOUS
 10
49.8287686381
 20
145.9917989048
  0
VERTEX
  8
0
 62
7
  6
CONTINUOUS
 10
49.7951987148
 20
146.0337645622
  0
VERTEX
  8
0
 62
7
  6
CONTINUOUS
 10
49.7640651625
 20
146.0829814271
  0
VERTEX
  8
0
 62
7
  6
CONTINUOUS
 10
49.7364725471
 20
146.1380287533
  0
VERTEX
  8
0
 62
7
  6
CONTINUOUS
 10
49.7129921923
 20
146.1973317807
  0
VERTEX
  8
0
 62
7
  6
CONTINUOUS
 10
49.6931941423
 20
146.2611090243
  0
VERTEX
  8
0
 62
7
  6
CONTINUOUS
 10
49.6763820503
 20
146.3286090673
  0
VERTEX
  8
0
 62
7
  6
CONTINUOUS
 10
49.662408961
 20
146.3984877711
  0
VERTEX
  8
0
 62
7
  6
CONTINUOUS
 10
49.6509986404
 20
146.4703974932
  0
VERTEX
  8
0
 62
7
  6
CONTINUOUS
 10
49.6419643183
 20
146.5444899293
  0
VERTEX
  8
0
 62
7
  6
CONTINUOUS
 10
49.6351358718
 20
146.6202778505
  0
VERTEX
  8
0
 62
7
  6
CONTINUOUS
 10
49.6303375887
 20
146.6973279982
  0
VERTEX
  8
0
 62
7
  6
CONTINUOUS
 10
49.62737258
 20
146.7754205256
  0
VERTEX
  8
0
 62
7
  6
CONTINUOUS
 10
49.6260212698
 20
146.8543386545
  0
VERTEX
  8
0
 62
7
  6
CONTINUOUS
 10
49.626080545
 20
146.9338087042
  0
SEQEND
  0
POLYLINE
  8
0
 62
7
  6
CONTINUOUS
 66
1
 70
0
  0
VERTEX
  8
0
 62
7
  6
CONTINUOUS
 10
66.8084748976
 20
145.8956194361
  0
VERTEX
  8
0
 62
7
  6
CONTINUOUS
 10
66.7870538696
 20
145.8971341825
  0
VERTEX
  8
0
 62
7
  6
CONTINUOUS
 10
66.7442292613
 20
145.9082963223
  0
VERTEX
  8
0
 62
7
  6
CONTINUOUS
 10
66.7032752479
 20
145.9286781218
  0
VERTEX
  8
0
 62
7
  6
CONTINUOUS
 10
66.6647915263
 20
145.9567319196
  0
VERTEX
  8
0
 62
7
  6
CONTINUOUS
 10
66.6287686381
 20
145.9917989048
  0
VERTEX
  8
0
 62
7
  6
CONTINUOUS
 10
66.5951987148
 20
146.0337645622
  0
VERTEX
  8
0
 62
7
  6
CONTINUOUS
 10
66.5640651625
 20
146.0829814271
  0
VERTEX
  8
0
 62
7
  6
CONTINUOUS
 10
66.5364725471
 20
146.1380287533
  0
VERTEX
  8
0
 62
7
  6
CONTINUOUS
 10
66.5129921923
 20
146.1973317807
  0
VERTEX
  8
0
 62
7
  6
CONTINUOUS
 10
66.4931941423
 20
146.2611090243
  0
VERTEX
  8
0
 62
7
  6
CONTINUOUS
 10
66.4763820503
 20
146.3286090673
  0
VERTEX
  8
0
 62
7
  6
CONTINUOUS
 10
66.462408961
 20
146.3984877711
  0
VERTEX
  8
0
 62
7
  6
CONTINUOUS
 10
66.4509986404
 20
146.4703974932
  0
VERTEX
  8
0
 62
7
  6
CONTINUOUS
 10
66.4419643183
 20
146.5444899293
  0
VERTEX
  8
0
 62
7
  6
CONTINUOUS
 10
66.4351358718
 20
146.6202778505
  0
VERTEX
  8
0
 62
7
  6
CONTINUOUS
 10
66.4303375887
 20
146.6973279982
  0
VERTEX
  8
0
 62
7
  6
CONTINUOUS
 10
66.42737258
 20
146.7754205256
  0
VERTEX
  8
0
 62
7
  6
CONTINUOUS
 10
66.4260212698
 20
146.8543386545
  0
VERTEX
  8
0
 62
7
  6
CONTINUOUS
 10
66.426080545
 20
146.9338087042
  0
SEQEND
  0
LINE
  8
0
 62
7
  6
CONTINUOUS
 10
117.0034386686
 20
96.5741923277
 11
117.0033793667
 21
96.5752122394
  0
LINE
  8
0
 62
7
  6
CONTINUOUS
 10
111.1682112069
 20
129.8168103448
 11
111.1682112069
 21
119.8168103448
  0
POLYLINE
  8
0
 62
7
  6
CONTINUOUS
 66
1
 70
0
  0
VERTEX
  8
0
 62
7
  6
CONTINUOUS
 10
116.826080545
 20
146.9338087042
  0
VERTEX
  8
0
 62
7
  6
CONTINUOUS
 10
116.8300450215
 20
147.22727269
  0
VERTEX
  8
0
 62
7
  6
CONTINUOUS
 10
116.8324867654
 20
147.5102848915
  0
VERTEX
  8
0
 62
7
  6
CONTINUOUS
 10
116.83304305
 20
153.0583464388
  0
SEQEND
  0
POLYLINE
  8
0
 62
7
  6
CONTINUOUS
 66
1
 70
0
  0
VERTEX
  8
0
 62
7
  6
CONTINUOUS
 10
117.0103084859
 20
102.6961831597
  0
VERTEX
  8
0
 62
7
  6
CONTINUOUS
 10
117.0063309307
 20
102.4023840625
  0
VERTEX
  8
0
 62
7
  6
CONTINUOUS
 10
117.0039149563
 20
102.119362402
  0
VERTEX
  8
0
 62
7
  6
CONTINUOUS
 10
117.0033793638
 20
96.5752742509
  0
SEQEND
  0
LINE
  8
0
 62
7
  6
CONTINUOUS
 10
107.3608391207
 20
92.2823792331
 11
107.3767414951
 21
92.3871047781
  0
LINE
  8
0
 62
7
  6
CONTINUOUS
 10
158.6289533346
 20
145.6456969887
 11
158.5488433959
 21
145.6454207601
  0
LINE
  8
0
 62
7
  6
CONTINUOUS
 10
141.8289533346
 20
145.6456969887
 11
141.7488433959
 21
145.6454207601
  0
LINE
  8
0
 62
7
  6
CONTINUOUS
 10
125.0289533346
 20
145.6456969887
 11
124.9488433959
 21
145.6454207601
  0
LINE
  8
0
 62
7
  6
CONTINUOUS
 10
108.2289533346
 20
145.6456969887
 11
108.1488433959
 21
145.6454207601
  0
LINE
  8
0
 62
7
  6
CONTINUOUS
 10
91.4289533346
 20
145.6456969887
 11
91.3488433959
 21
145.6454207601
  0
LINE
  8
0
 62
7
  6
CONTINUOUS
 10
74.6289533346
 20
145.6456969887
 11
74.5488433959
 21
145.6454207601
  0
LINE
  8
0
 62
7
  6
CONTINUOUS
 10
57.8289533346
 20
145.6456969887
 11
57.7488433959
 21
145.6454207601
  0
LINE
  8
0
 62
7
  6
CONTINUOUS
 10
41.0289533346
 20
145.6456969887
 11
40.9488433959
 21
145.6454207601
  0
LINE
  8
0
 62
7
  6
CONTINUOUS
 10
24.2289533346
 20
145.6456969887
 11
24.1488433959
 21
145.6454207601
  0
LINE
  8
0
 62
6
  6
CONTINUOUS
 10
158.6289533091
 20
145.7727710754
 11
158.54884344
 21
145.7725012456
  0
LINE
  8
0
 62
7
  6
CONTINUOUS
 10
158.6277747653
 20
145.8956490103
 11
150.8875795643
 21
145.8954207601
  0
LINE
  8
0
 62
7
  6
CONTINUOUS
 10
141.8277747653
 20
145.8956490103
 11
134.0875795643
 21
145.8954207601
  0
LINE
  8
0
 62
7
  6
CONTINUOUS
 10
125.0277747653
 20
145.8956490103
 11
117.2875795643
 21
145.8954207601
  0
LINE
  8
0
 62
7
  6
CONTINUOUS
 10
108.2277747653
 20
145.8956490103
 11
100.4875795643
 21
145.8954207601
  0
LINE
  8
0
 62
7
  6
CONTINUOUS
 10
91.4277747653
 20
145.8956490103
 11
83.6875795643
 21
145.8954207601
  0
LINE
  8
0
 62
7
  6
CONTINUOUS
 10
74.6277747653
 20
145.8956490103
 11
66.8875795643
 21
145.8954207601
  0
LINE
  8
0
 62
7
  6
CONTINUOUS
 10
57.8277747653
 20
145.8956490103
 11
50.0875795643
 21
145.8954207601
  0
LINE
  8
0
 62
7
  6
CONTINUOUS
 10
41.0277747653
 20
145.8956490103
 11
33.2875795643
 21
145.8954207601
  0
LINE
  8
0
 62
7
  6
CONTINUOUS
 10
24.2277747653
 20
145.8956490103
 11
16.4182112069
 21
145.8954207601
  0
LINE
  8
DEFAULT_1
 62
2
  6
CENTER
 10
24.9758304766
 20
150.2168103448
 11
169.2182112069
 21
150.2168103448
  0
LINE
  8
0
 62
7
  6
CONTINUOUS
 10
33.2875795648
 20
145.8954207601
 11
33.208475185
 21
145.8956192416
  0
LINE
  8
0
 62
7
  6
CONTINUOUS
 10
50.0875795648
 20
145.8954207601
 11
50.008475185
 21
145.8956192416
  0
LINE
  8
0
 62
7
  6
CONTINUOUS
 10
66.8875795648
 20
145.8954207601
 11
66.808475185
 21
145.8956192416
  0
LINE
  8
0
 62
7
  6
CONTINUOUS
 10
83.6875795648
 20
145.8954207601
 11
83.608475185
 21
145.8956192416
  0
LINE
  8
0
 62
7
  6
CONTINUOUS
 10
100.4875795648
 20
145.8954207601
 11
100.408475185
 21
145.8956192416
  0
LINE
  8
0
 62
7
  6
CONTINUOUS
 10
117.2875795648
 20
145.8954207601
 11
117.208475185
 21
145.8956192416
  0
LINE
  8
0
 62
7
  6
CONTINUOUS
 10
134.0875795648
 20
145.8954207601
 11
134.008475185
 21
145.8956192416
  0
LINE
  8
0
 62
7
  6
CONTINUOUS
 10
150.8875795648
 20
145.8954207601
 11
150.808475185
 21
145.8956192416
  0
POLYLINE
  8
0
 62
7
  6
CONTINUOUS
 66
1
 70
0
  0
VERTEX
  8
0
 62
7
  6
CONTINUOUS
 10
83.6084748976
 20
145.8956194361
  0
VERTEX
  8
0
 62
7
  6
CONTINUOUS
 10
83.5870538696
 20
145.8971341825
  0
VERTEX
  8
0
 62
7
  6
CONTINUOUS
 10
83.5442292613
 20
145.9082963223
  0
VERTEX
  8
0
 62
7
  6
CONTINUOUS
 10
83.5032752479
 20
145.9286781218
  0
VERTEX
  8
0
 62
7
  6
CONTINUOUS
 10
83.4647915263
 20
145.9567319196
  0
VERTEX
  8
0
 62
7
  6
CONTINUOUS
 10
83.4287686381
 20
145.9917989048
  0
VERTEX
  8
0
 62
7
  6
CONTINUOUS
 10
83.3951987148
 20
146.0337645622
  0
VERTEX
  8
0
 62
7
  6
CONTINUOUS
 10
83.3640651625
 20
146.0829814271
  0
VERTEX
  8
0
 62
7
  6
CONTINUOUS
 10
83.3364725471
 20
146.1380287533
  0
VERTEX
  8
0
 62
7
  6
CONTINUOUS
 10
83.3129921923
 20
146.1973317807
  0
VERTEX
  8
0
 62
7
  6
CONTINUOUS
 10
83.2931941423
 20
146.2611090243
  0
VERTEX
  8
0
 62
7
  6
CONTINUOUS
 10
83.2763820503
 20
146.3286090673
  0
VERTEX
  8
0
 62
7
  6
CONTINUOUS
 10
83.262408961
 20
146.3984877711
  0
VERTEX
  8
0
 62
7
  6
CONTINUOUS
 10
83.2509986404
 20
146.4703974932
  0
VERTEX
  8
0
 62
7
  6
CONTINUOUS
 10
83.2419643183
 20
146.5444899293
  0
VERTEX
  8
0
 62
7
  6
CONTINUOUS
 10
83.2351358718
 20
146.6202778505
  0
VERTEX
  8
0
 62
7
  6
CONTINUOUS
 10
83.2303375887
 20
146.6973279982
  0
VERTEX
  8
0
 62
7
  6
CONTINUOUS
 10
83.22737258
 20
146.7754205256
  0
VERTEX
  8
0
 62
7
  6
CONTINUOUS
 10
83.2260212698
 20
146.8543386545
  0
VERTEX
  8
0
 62
7
  6
CONTINUOUS
 10
83.226080545
 20
146.9338087042
  0
SEQEND
  0
POLYLINE
  8
0
 62
7
  6
CONTINUOUS
 66
1
 70
0
  0
VERTEX
  8
0
 62
7
  6
CONTINUOUS
 10
100.4084748976
 20
145.8956194361
  0
VERTEX
  8
0
 62
7
  6
CONTINUOUS
 10
100.3870538696
 20
145.8971341825
  0
VERTEX
  8
0
 62
7
  6
CONTINUOUS
 10
100.3442292613
 20
145.9082963223
  0
VERTEX
  8
0
 62
7
  6
CONTINUOUS
 10
100.3032752479
 20
145.9286781218
  0
VERTEX
  8
0
 62
7
  6
CONTINUOUS
 10
100.2647915263
 20
145.9567319196
  0
VERTEX
  8
0
 62
7
  6
CONTINUOUS
 10
100.2287686381
 20
145.9917989048
  0
VERTEX
  8
0
 62
7
  6
CONTINUOUS
 10
100.1951987148
 20
146.0337645622
  0
VERTEX
  8
0
 62
7
  6
CONTINUOUS
 10
100.1640651625
 20
146.0829814271
  0
VERTEX
  8
0
 62
7
  6
CONTINUOUS
 10
100.1364725471
 20
146.1380287533
  0
VERTEX
  8
0
 62
7
  6
CONTINUOUS
 10
100.1129921923
 20
146.1973317807
  0
VERTEX
  8
0
 62
7
  6
CONTINUOUS
 10
100.0931941423
 20
146.2611090243
  0
VERTEX
  8
0
 62
7
  6
CONTINUOUS
 10
100.0763820503
 20
146.3286090673
  0
VERTEX
  8
0
 62
7
  6
CONTINUOUS
 10
100.062408961
 20
146.3984877711
  0
VERTEX
  8
0
 62
7
  6
CONTINUOUS
 10
100.0509986404
 20
146.4703974932
  0
VERTEX
  8
0
 62
7
  6
CONTINUOUS
 10
100.0419643183
 20
146.5444899293
  0
VERTEX
  8
0
 62
7
  6
CONTINUOUS
 10
100.0351358718
 20
146.6202778505
  0
VERTEX
  8
0
 62
7
  6
CONTINUOUS
 10
100.0303375887
 20
146.6973279982
  0
VERTEX
  8
0
 62
7
  6
CONTINUOUS
 10
100.02737258
 20
146.7754205256
  0
VERTEX
  8
0
 62
7
  6
CONTINUOUS
 10
100.0260212698
 20
146.8543386545
  0
VERTEX
  8
0
 62
7
  6
CONTINUOUS
 10
100.026080545
 20
146.9338087042
  0
SEQEND
  0
POLYLINE
  8
0
 62
7
  6
CONTINUOUS
 66
1
 70
0
  0
VERTEX
  8
0
 62
7
  6
CONTINUOUS
 10
117.2084748976
 20
145.8956194361
  0
VERTEX
  8
0
 62
7
  6
CONTINUOUS
 10
117.1870538696
 20
145.8971341825
  0
VERTEX
  8
0
 62
7
  6
CONTINUOUS
 10
117.1442292613
 20
145.9082963223
  0
VERTEX
  8
0
 62
7
  6
CONTINUOUS
 10
117.1032752479
 20
145.9286781218
  0
VERTEX
  8
0
 62
7
  6
CONTINUOUS
 10
117.0647915263
 20
145.9567319196
  0
VERTEX
  8
0
 62
7
  6
CONTINUOUS
 10
117.0287686381
 20
145.9917989048
  0
VERTEX
  8
0
 62
7
  6
CONTINUOUS
 10
116.9951987148
 20
146.0337645622
  0
VERTEX
  8
0
 62
7
  6
CONTINUOUS
 10
116.9640651625
 20
146.0829814271
  0
VERTEX
  8
0
 62
7
  6
CONTINUOUS
 10
116.9364725471
 20
146.1380287533
  0
VERTEX
  8
0
 62
7
  6
CONTINUOUS
 10
116.9129921923
 20
146.1973317807
  0
VERTEX
  8
0
 62
7
  6
CONTINUOUS
 10
116.8931941423
 20
146.2611090243
  0
VERTEX
  8
0
 62
7
  6
CONTINUOUS
 10
116.8763820503
 20
146.3286090673
  0
VERTEX
  8
0
 62
7
  6
CONTINUOUS
 10
116.862408961
 20
146.3984877711
  0
VERTEX
  8
0
 62
7
  6
CONTINUOUS
 10
116.8509986404
 20
146.4703974932
  0
VERTEX
  8
0
 62
7
  6
CONTINUOUS
 10
116.8419643183
 20
146.5444899293
  0
VERTEX
  8
0
 62
7
  6
CONTINUOUS
 10
116.8351358718
 20
146.6202778505
  0
VERTEX
  8
0
 62
7
  6
CONTINUOUS
 10
116.8303375887
 20
146.6973279982
  0
VERTEX
  8
0
 62
7
  6
CONTINUOUS
 10
116.82737258
 20
146.7754205256
  0
VERTEX
  8
0
 62
7
  6
CONTINUOUS
 10
116.8260212698
 20
146.8543386545
  0
VERTEX
  8
0
 62
7
  6
CONTINUOUS
 10
116.826080545
 20
146.9338087042
  0
SEQEND
  0
POLYLINE
  8
0
 62
7
  6
CONTINUOUS
 66
1
 70
0
  0
VERTEX
  8
0
 62
7
  6
CONTINUOUS
 10
134.0084748976
 20
145.8956194361
  0
VERTEX
  8
0
 62
7
  6
CONTINUOUS
 10
133.9870538696
 20
145.8971341825
  0
VERTEX
  8
0
 62
7
  6
CONTINUOUS
 10
133.9442292613
 20
145.9082963223
  0
VERTEX
  8
0
 62
7
  6
CONTINUOUS
 10
133.9032752479
 20
145.9286781218
  0
VERTEX
  8
0
 62
7
  6
CONTINUOUS
 10
133.8647915263
 20
145.9567319196
  0
VERTEX
  8
0
 62
7
  6
CONTINUOUS
 10
133.8287686381
 20
145.9917989048
  0
VERTEX
  8
0
 62
7
  6
CONTINUOUS
 10
133.7951987148
 20
146.0337645622
  0
VERTEX
  8
0
 62
7
  6
CONTINUOUS
 10
133.7640651625
 20
146.0829814271
  0
VERTEX
  8
0
 62
7
  6
CONTINUOUS
 10
133.7364725471
 20
146.1380287533
  0
VERTEX
  8
0
 62
7
  6
CONTINUOUS
 10
133.7129921923
 20
146.1973317807
  0
VERTEX
  8
0
 62
7
  6
CONTINUOUS
 10
133.6931941423
 20
146.2611090243
  0
VERTEX
  8
0
 62
7
  6
CONTINUOUS
 10
133.6763820503
 20
146.3286090673
  0
VERTEX
  8
0
 62
7
  6
CONTINUOUS
 10
133.662408961
 20
146.3984877711
  0
VERTEX
  8
0
 62
7
  6
CONTINUOUS
 10
133.6509986404
 20
146.4703974932
  0
VERTEX
  8
0
 62
7
  6
CONTINUOUS
 10
133.6419643183
 20
146.5444899293
  0
VERTEX
  8
0
 62
7
  6
CONTINUOUS
 10
133.6351358718
 20
146.6202778505
  0
VERTEX
  8
0
 62
7
  6
CONTINUOUS
 10
133.6303375887
 20
146.6973279982
  0
VERTEX
  8
0
 62
7
  6
CONTINUOUS
 10
133.62737258
 20
146.7754205256
  0
VERTEX
  8
0
 62
7
  6
CONTINUOUS
 10
133.6260212698
 20
146.8543386545
  0
VERTEX
  8
0
 62
7
  6
CONTINUOUS
 10
133.626080545
 20
146.9338087042
  0
SEQEND
  0
POLYLINE
  8
0
 62
7
  6
CONTINUOUS
 66
1
 70
0
  0
VERTEX
  8
0
 62
7
  6
CONTINUOUS
 10
150.8084748976
 20
145.8956194361
  0
VERTEX
  8
0
 62
7
  6
CONTINUOUS
 10
150.7870538696
 20
145.8971341825
  0
VERTEX
  8
0
 62
7
  6
CONTINUOUS
 10
150.7442292613
 20
145.9082963223
  0
VERTEX
  8
0
 62
7
  6
CONTINUOUS
 10
150.7032752479
 20
145.9286781218
  0
VERTEX
  8
0
 62
7
  6
CONTINUOUS
 10
150.6647915263
 20
145.9567319196
  0
VERTEX
  8
0
 62
7
  6
CONTINUOUS
 10
150.6287686381
 20
145.9917989048
  0
VERTEX
  8
0
 62
7
  6
CONTINUOUS
 10
150.5951987148
 20
146.0337645622
  0
VERTEX
  8
0
 62
7
  6
CONTINUOUS
 10
150.5640651625
 20
146.0829814271
  0
VERTEX
  8
0
 62
7
  6
CONTINUOUS
 10
150.5364725471
 20
146.1380287533
  0
VERTEX
  8
0
 62
7
  6
CONTINUOUS
 10
150.5129921923
 20
146.1973317807
  0
VERTEX
  8
0
 62
7
  6
CONTINUOUS
 10
150.4931941423
 20
146.2611090243
  0
VERTEX
  8
0
 62
7
  6
CONTINUOUS
 10
150.4763820503
 20
146.3286090673
  0
VERTEX
  8
0
 62
7
  6
CONTINUOUS
 10
150.462408961
 20
146.3984877711
  0
VERTEX
  8
0
 62
7
  6
CONTINUOUS
 10
150.4509986404
 20
146.4703974932
  0
VERTEX
  8
0
 62
7
  6
CONTINUOUS
 10
150.4419643183
 20
146.5444899293
  0
VERTEX
  8
0
 62
7
  6
CONTINUOUS
 10
150.4351358718
 20
146.6202778505
  0
VERTEX
  8
0
 62
7
  6
CONTINUOUS
 10
150.4303375887
 20
146.6973279982
  0
VERTEX
  8
0
 62
7
  6
CONTINUOUS
 10
150.42737258
 20
146.7754205256
  0
VERTEX
  8
0
 62
7
  6
CONTINUOUS
 10
150.4260212698
 20
146.8543386545
  0
VERTEX
  8
0
 62
7
  6
CONTINUOUS
 10
150.426080545
 20
146.9338087042
  0
SEQEND
  0
LINE
  8
0
 62
7
  6
CONTINUOUS
 10
99.1524636559
 20
156.8546278549
 11
98.9726803807
 21
157.2555770766
  0
POLYLINE
  8
0
 62
7
  6
CONTINUOUS
 66
1
 70
0
  0
VERTEX
  8
0
 62
7
  6
CONTINUOUS
 10
118.0755820323
 20
92.2823873206
  0
VERTEX
  8
0
 62
7
  6
CONTINUOUS
 10
118.103243844
 20
92.1148747514
  0
VERTEX
  8
0
 62
7
  6
CONTINUOUS
 10
118.1341486419
 20
91.9498485333
  0
VERTEX
  8
0
 62
7
  6
CONTINUOUS
 10
118.1650974284
 20
91.806020832
  0
VERTEX
  8
0
 62
7
  6
CONTINUOUS
 10
118.1965066157
 20
91.6800182089
  0
VERTEX
  8
0
 62
7
  6
CONTINUOUS
 10
118.2290897568
 20
91.5684313698
  0
VERTEX
  8
0
 62
7
  6
CONTINUOUS
 10
118.2641047655
 20
91.467580051
  0
VERTEX
  8
0
 62
7
  6
CONTINUOUS
 10
118.3037882638
 20
91.3733765845
  0
VERTEX
  8
0
 62
7
  6
CONTINUOUS
 10
118.3518153817
 20
91.2819126587
  0
VERTEX
  8
0
 62
7
  6
CONTINUOUS
 10
118.4139250324
 20
91.190305436
  0
VERTEX
  8
0
 62
7
  6
CONTINUOUS
 10
118.4976539572
 20
91.0990145684
  0
VERTEX
  8
0
 62
7
  6
CONTINUOUS
 10
118.6082993684
 20
91.0155266608
  0
VERTEX
  8
0
 62
7
  6
CONTINUOUS
 10
118.7432890339
 20
90.9525829374
  0
VERTEX
  8
0
 62
7
  6
CONTINUOUS
 10
118.8911238232
 20
90.9204407816
  0
VERTEX
  8
0
 62
7
  6
CONTINUOUS
 10
118.9620379657
 20
90.9168104488
  0
SEQEND
  0
LINE
  8
0
 62
7
  6
CONTINUOUS
 10
118.0596809188
 20
92.3871047778
 11
118.0755832931
 21
92.2823792331
  0
POLYLINE
  8
0
 62
7
  6
CONTINUOUS
 66
1
 70
0
  0
VERTEX
  8
0
 62
7
  6
CONTINUOUS
 10
117.003438639
 20
96.574186462
  0
VERTEX
  8
0
 62
7
  6
CONTINUOUS
 10
117.0748158941
 20
96.0258950796
  0
VERTEX
  8
0
 62
7
  6
CONTINUOUS
 10
117.1694653554
 20
95.4259136642
  0
VERTEX
  8
0
 62
7
  6
CONTINUOUS
 10
117.2800759603
 20
94.8431266997
  0
VERTEX
  8
0
 62
7
  6
CONTINUOUS
 10
117.4066898465
 20
94.2825410334
  0
VERTEX
  8
0
 62
7
  6
CONTINUOUS
 10
117.5493226008
 20
93.7489933551
  0
VERTEX
  8
0
 62
7
  6
CONTINUOUS
 10
117.7080205251
 20
93.2471429771
  0
VERTEX
  8
0
 62
7
  6
CONTINUOUS
 10
117.8830143067
 20
92.7812923717
  0
SEQEND
  0
LINE
  8
0
 62
7
  6
CONTINUOUS
 10
116.8329837419
 20
153.0594283902
 11
116.8330430471
 21
153.0584084503
  0
LINE
  8
0
 62
7
  6
CONTINUOUS
 10
120.8682112069
 20
119.8168103448
 11
120.8682112069
 21
129.8168103448
  0
LINE
  8
0
 62
7
  6
CONTINUOUS
 10
126.4755834287
 20
157.3512423265
 11
126.4596786442
 21
157.2465149844
  0
POLYLINE
  8
0
 62
7
  6
CONTINUOUS
 66
1
 70
0
  0
VERTEX
  8
0
 62
7
  6
CONTINUOUS
 10
107.3726814239
 20
92.3780457391
  0
VERTEX
  8
0
 62
7
  6
CONTINUOUS
 10
107.553408151
 20
92.7812924786
  0
VERTEX
  8
0
 62
7
  6
CONTINUOUS
 10
107.7284019688
 20
93.2471432098
  0
VERTEX
  8
0
 62
7
  6
CONTINUOUS
 10
107.8870999219
 20
93.7489937299
  0
VERTEX
  8
0
 62
7
  6
CONTINUOUS
 10
108.0297326975
 20
94.2825415633
  0
VERTEX
  8
0
 62
7
  6
CONTINUOUS
 10
108.1563465974
 20
94.8431273942
  0
VERTEX
  8
0
 62
7
  6
CONTINUOUS
 10
108.2669572082
 20
95.4259145292
  0
VERTEX
  8
0
 62
7
  6
CONTINUOUS
 10
108.361606668
 20
96.0258961176
  0
VERTEX
  8
0
 62
7
  6
CONTINUOUS
 10
108.4329837748
 20
96.574186462
  0
SEQEND
  0
POLYLINE
  8
0
 62
7
  6
CONTINUOUS
 66
1
 70
0
  0
VERTEX
  8
0
 62
7
  6
CONTINUOUS
 10
108.432983724
 20
96.5741965834
  0
VERTEX
  8
0
 62
7
  6
CONTINUOUS
 10
108.4271720236
 20
96.5655996854
  0
VERTEX
  8
0
 62
7
  6
CONTINUOUS
 10
108.4080852706
 20
96.556806367
  0
VERTEX
  8
0
 62
7
  6
CONTINUOUS
 10
108.3768840235
 20
96.5500779242
  0
VERTEX
  8
0
 62
7
  6
CONTINUOUS
 10
108.3355654776
 20
96.5457582209
  0
VERTEX
  8
0
 62
7
  6
CONTINUOUS
 10
108.2868691315
 20
96.5439693342
  0
VERTEX
  8
0
 62
7
  6
CONTINUOUS
 10
108.23304305
 20
96.5445290216
  0
SEQEND
  0
POLYLINE
  8
0
 62
7
  6
CONTINUOUS
 66
1
 70
0
  0
VERTEX
  8
0
 62
7
  6
CONTINUOUS
 10
144.1620375876
 20
158.7168102413
  0
VERTEX
  8
0
 62
7
  6
CONTINUOUS
 10
144.0912422599
 20
158.7131921083
  0
VERTEX
  8
0
 62
7
  6
CONTINUOUS
 10
143.9435191676
 20
158.6811155032
  0
VERTEX
  8
0
 62
7
  6
CONTINUOUS
 10
143.80859785
 20
158.6182753652
  0
VERTEX
  8
0
 62
7
  6
CONTINUOUS
 10
143.697963954
 20
158.5348918289
  0
VERTEX
  8
0
 62
7
  6
CONTINUOUS
 10
143.614209418
 20
158.4436803341
  0
VERTEX
  8
0
 62
7
  6
CONTINUOUS
 10
143.5520692214
 20
158.3521372336
  0
VERTEX
  8
0
 62
7
  6
CONTINUOUS
 10
143.504021552
 20
158.2607431098
  0
VERTEX
  8
0
 62
7
  6
CONTINUOUS
 10
143.4643291117
 20
158.1666294617
  0
VERTEX
  8
0
 62
7
  6
CONTINUOUS
 10
143.4293144811
 20
158.0658965613
  0
VERTEX
  8
0
 62
7
  6
CONTINUOUS
 10
143.3967379721
 20
157.9544608651
  0
VERTEX
  8
0
 62
7
  6
CONTINUOUS
 10
143.3653392947
 20
157.8286444832
  0
VERTEX
  8
0
 62
7
  6
CONTINUOUS
 10
143.3344032252
 20
157.6850400981
  0
VERTEX
  8
0
 62
7
  6
CONTINUOUS
 10
143.3035121554
 20
157.5202763804
  0
VERTEX
  8
0
 62
7
  6
CONTINUOUS
 10
143.2755821415
 20
157.3512340695
  0
SEQEND
  0
POLYLINE
  8
0
 62
7
  6
CONTINUOUS
 66
1
 70
0
  0
VERTEX
  8
0
 62
7
  6
CONTINUOUS
 10
160.9620260872
 20
158.7168102542
  0
VERTEX
  8
0
 62
7
  6
CONTINUOUS
 10
160.8993970847
 20
158.7139822206
  0
VERTEX
  8
0
 62
7
  6
CONTINUOUS
 10
160.7482008657
 20
158.6826772506
  0
VERTEX
  8
0
 62
7
  6
CONTINUOUS
 10
160.6067431831
 20
158.6171452145
  0
VERTEX
  8
0
 62
7
  6
CONTINUOUS
 10
160.4893885766
 20
158.5268629832
  0
VERTEX
  8
0
 62
7
  6
CONTINUOUS
 10
160.4006603431
 20
158.4257904486
  0
VERTEX
  8
0
 62
7
  6
CONTINUOUS
 10
160.3355240763
 20
158.3230521098
  0
VERTEX
  8
0
 62
7
  6
CONTINUOUS
 10
160.28519382
 20
158.2184973592
  0
VERTEX
  8
0
 62
7
  6
CONTINUOUS
 10
160.2430620706
 20
158.1076405888
  0
VERTEX
  8
0
 62
7
  6
CONTINUOUS
 10
160.2054039961
 20
157.985912906
  0
VERTEX
  8
0
 62
7
  6
CONTINUOUS
 10
160.1702876996
 20
157.8497562944
  0
VERTEX
  8
0
 62
7
  6
CONTINUOUS
 10
160.1366605298
 20
157.6962192283
  0
VERTEX
  8
0
 62
7
  6
CONTINUOUS
 10
160.1040880482
 20
157.5235553094
  0
VERTEX
  8
0
 62
7
  6
CONTINUOUS
 10
160.0755811641
 20
157.3512277992
  0
SEQEND
  0
POLYLINE
  8
0
 62
6
  6
CONTINUOUS
 66
1
 70
0
  0
VERTEX
  8
0
 62
6
  6
CONTINUOUS
 10
161.9414694895
 20
153.0890448013
  0
VERTEX
  8
0
 62
6
  6
CONTINUOUS
 10
161.7544026362
 20
153.0830518583
  0
VERTEX
  8
0
 62
6
  6
CONTINUOUS
 10
161.5744479836
 20
153.0716434316
  0
VERTEX
  8
0
 62
6
  6
CONTINUOUS
 10
161.4078274935
 20
153.055360606
  0
VERTEX
  8
0
 62
6
  6
CONTINUOUS
 10
161.2602190851
 20
153.0348600237
  0
VERTEX
  8
0
 62
6
  6
CONTINUOUS
 10
161.1365597962
 20
153.0109076487
  0
VERTEX
  8
0
 62
6
  6
CONTINUOUS
 10
161.0408930591
 20
152.9843666627
  0
VERTEX
  8
0
 62
6
  6
CONTINUOUS
 10
160.9762616252
 20
152.9561811289
  0
VERTEX
  8
0
 62
6
  6
CONTINUOUS
 10
160.9446487556
 20
152.9273579435
  0
SEQEND
  0
POLYLINE
  8
0
 62
7
  6
CONTINUOUS
 66
1
 70
0
  0
VERTEX
  8
0
 62
7
  6
CONTINUOUS
 10
150.23304305
 20
153.0890916681
  0
VERTEX
  8
0
 62
7
  6
CONTINUOUS
 10
150.280071722
 20
153.0897036208
  0
VERTEX
  8
0
 62
7
  6
CONTINUOUS
 10
150.323594063
 20
153.0885645999
  0
VERTEX
  8
0
 62
7
  6
CONTINUOUS
 10
150.3622455117
 20
153.0854796272
  0
VERTEX
  8
0
 62
7
  6
CONTINUOUS
 10
150.3938939352
 20
153.0804624928
  0
VERTEX
  8
0
 62
7
  6
CONTINUOUS
 10
150.4168444494
 20
153.073692477
  0
VERTEX
  8
0
 62
7
  6
CONTINUOUS
 10
150.4299701312
 20
153.0654778033
  0
VERTEX
  8
0
 62
7
  6
CONTINUOUS
 10
150.4329837419
 20
153.0594283902
  0
SEQEND
  0
POLYLINE
  8
0
 62
7
  6
CONTINUOUS
 66
1
 70
0
  0
VERTEX
  8
0
 62
7
  6
CONTINUOUS
 10
133.43304305
 20
153.0890916681
  0
VERTEX
  8
0
 62
7
  6
CONTINUOUS
 10
133.480071722
 20
153.0897036208
  0
VERTEX
  8
0
 62
7
  6
CONTINUOUS
 10
133.523594063
 20
153.0885645999
  0
VERTEX
  8
0
 62
7
  6
CONTINUOUS
 10
133.5622455117
 20
153.0854796272
  0
VERTEX
  8
0
 62
7
  6
CONTINUOUS
 10
133.5938939352
 20
153.0804624928
  0
VERTEX
  8
0
 62
7
  6
CONTINUOUS
 10
133.6168444494
 20
153.073692477
  0
VERTEX
  8
0
 62
7
  6
CONTINUOUS
 10
133.6299701312
 20
153.0654778033
  0
VERTEX
  8
0
 62
7
  6
CONTINUOUS
 10
133.6329837419
 20
153.0594283902
  0
SEQEND
  0
POLYLINE
  8
0
 62
7
  6
CONTINUOUS
 66
1
 70
0
  0
VERTEX
  8
0
 62
7
  6
CONTINUOUS
 10
116.63304305
 20
153.0890916681
  0
VERTEX
  8
0
 62
7
  6
CONTINUOUS
 10
116.680071722
 20
153.0897036208
  0
VERTEX
  8
0
 62
7
  6
CONTINUOUS
 10
116.723594063
 20
153.0885645999
  0
VERTEX
  8
0
 62
7
  6
CONTINUOUS
 10
116.7622455117
 20
153.0854796272
  0
VERTEX
  8
0
 62
7
  6
CONTINUOUS
 10
116.7938939352
 20
153.0804624928
  0
VERTEX
  8
0
 62
7
  6
CONTINUOUS
 10
116.8168444494
 20
153.073692477
  0
VERTEX
  8
0
 62
7
  6
CONTINUOUS
 10
116.8299701312
 20
153.0654778033
  0
VERTEX
  8
0
 62
7
  6
CONTINUOUS
 10
116.8329837419
 20
153.0594283902
  0
SEQEND
  0
POLYLINE
  8
0
 62
7
  6
CONTINUOUS
 66
1
 70
0
  0
VERTEX
  8
0
 62
7
  6
CONTINUOUS
 10
99.83304305
 20
153.0890916681
  0
VERTEX
  8
0
 62
7
  6
CONTINUOUS
 10
99.880071722
 20
153.0897036208
  0
VERTEX
  8
0
 62
7
  6
CONTINUOUS
 10
99.923594063
 20
153.0885645999
  0
VERTEX
  8
0
 62
7
  6
CONTINUOUS
 10
99.9622455117
 20
153.0854796272
  0
VERTEX
  8
0
 62
7
  6
CONTINUOUS
 10
99.9938939352
 20
153.0804624928
  0
VERTEX
  8
0
 62
7
  6
CONTINUOUS
 10
100.0168444494
 20
153.073692477
  0
VERTEX
  8
0
 62
7
  6
CONTINUOUS
 10
100.0299701312
 20
153.0654778033
  0
VERTEX
  8
0
 62
7
  6
CONTINUOUS
 10
100.0329837419
 20
153.0594283902
  0
SEQEND
  0
POLYLINE
  8
0
 62
7
  6
CONTINUOUS
 66
1
 70
0
  0
VERTEX
  8
0
 62
7
  6
CONTINUOUS
 10
83.03304305
 20
153.0890916681
  0
VERTEX
  8
0
 62
7
  6
CONTINUOUS
 10
83.080071722
 20
153.0897036208
  0
VERTEX
  8
0
 62
7
  6
CONTINUOUS
 10
83.123594063
 20
153.0885645999
  0
VERTEX
  8
0
 62
7
  6
CONTINUOUS
 10
83.1622455117
 20
153.0854796272
  0
VERTEX
  8
0
 62
7
  6
CONTINUOUS
 10
83.1938939352
 20
153.0804624928
  0
VERTEX
  8
0
 62
7
  6
CONTINUOUS
 10
83.2168444494
 20
153.073692477
  0
VERTEX
  8
0
 62
7
  6
CONTINUOUS
 10
83.2299701312
 20
153.0654778033
  0
VERTEX
  8
0
 62
7
  6
CONTINUOUS
 10
83.2329837419
 20
153.0594283902
  0
SEQEND
  0
POLYLINE
  8
0
 62
7
  6
CONTINUOUS
 66
1
 70
0
  0
VERTEX
  8
0
 62
7
  6
CONTINUOUS
 10
66.23304305
 20
153.0890916681
  0
VERTEX
  8
0
 62
7
  6
CONTINUOUS
 10
66.280071722
 20
153.0897036208
  0
VERTEX
  8
0
 62
7
  6
CONTINUOUS
 10
66.323594063
 20
153.0885645999
  0
VERTEX
  8
0
 62
7
  6
CONTINUOUS
 10
66.3622455117
 20
153.0854796272
  0
VERTEX
  8
0
 62
7
  6
CONTINUOUS
 10
66.3938939352
 20
153.0804624928
  0
VERTEX
  8
0
 62
7
  6
CONTINUOUS
 10
66.4168444494
 20
153.073692477
  0
VERTEX
  8
0
 62
7
  6
CONTINUOUS
 10
66.4299701312
 20
153.0654778033
  0
VERTEX
  8
0
 62
7
  6
CONTINUOUS
 10
66.4329837419
 20
153.0594283902
  0
SEQEND
  0
POLYLINE
  8
0
 62
7
  6
CONTINUOUS
 66
1
 70
0
  0
VERTEX
  8
0
 62
7
  6
CONTINUOUS
 10
49.43304305
 20
153.0890916681
  0
VERTEX
  8
0
 62
7
  6
CONTINUOUS
 10
49.480071722
 20
153.0897036208
  0
VERTEX
  8
0
 62
7
  6
CONTINUOUS
 10
49.523594063
 20
153.0885645999
  0
VERTEX
  8
0
 62
7
  6
CONTINUOUS
 10
49.5622455117
 20
153.0854796272
  0
VERTEX
  8
0
 62
7
  6
CONTINUOUS
 10
49.5938939352
 20
153.0804624928
  0
VERTEX
  8
0
 62
7
  6
CONTINUOUS
 10
49.6168444494
 20
153.073692477
  0
VERTEX
  8
0
 62
7
  6
CONTINUOUS
 10
49.6299701312
 20
153.0654778033
  0
VERTEX
  8
0
 62
7
  6
CONTINUOUS
 10
49.6329837419
 20
153.0594283902
  0
SEQEND
  0
POLYLINE
  8
0
 62
7
  6
CONTINUOUS
 66
1
 70
0
  0
VERTEX
  8
0
 62
7
  6
CONTINUOUS
 10
32.63304305
 20
153.0890916681
  0
VERTEX
  8
0
 62
7
  6
CONTINUOUS
 10
32.680071722
 20
153.0897036208
  0
VERTEX
  8
0
 62
7
  6
CONTINUOUS
 10
32.723594063
 20
153.0885645999
  0
VERTEX
  8
0
 62
7
  6
CONTINUOUS
 10
32.7622455117
 20
153.0854796272
  0
VERTEX
  8
0
 62
7
  6
CONTINUOUS
 10
32.7938939352
 20
153.0804624928
  0
VERTEX
  8
0
 62
7
  6
CONTINUOUS
 10
32.8168444494
 20
153.073692477
  0
VERTEX
  8
0
 62
7
  6
CONTINUOUS
 10
32.8299701312
 20
153.0654778033
  0
VERTEX
  8
0
 62
7
  6
CONTINUOUS
 10
32.8329837419
 20
153.0594283902
  0
SEQEND
  0
LINE
  8
0
 62
6
  6
CONTINUOUS
 10
161.9414694895
 20
153.0890448013
 11
161.9471077937
 21
153.0890916663
  0
LINE
  8
0
 62
6
  6
CONTINUOUS
 10
150.2350790242
 20
153.0890916681
 11
150.23304305
 21
153.0890916681
  0
LINE
  8
0
 62
7
  6
CONTINUOUS
 10
150.23304305
 20
153.0890916681
 11
142.4033793638
 21
153.0890916681
  0
LINE
  8
0
 62
7
  6
CONTINUOUS
 10
133.43304305
 20
153.0890916681
 11
125.6033793638
 21
153.0890916681
  0
LINE
  8
0
 62
7
  6
CONTINUOUS
 10
116.63304305
 20
153.0890916681
 11
108.8033793638
 21
153.0890916681
  0
LINE
  8
0
 62
7
  6
CONTINUOUS
 10
99.83304305
 20
153.0890916681
 11
92.0033793638
 21
153.0890916681
  0
LINE
  8
0
 62
7
  6
CONTINUOUS
 10
83.03304305
 20
153.0890916681
 11
75.2033793638
 21
153.0890916681
  0
LINE
  8
0
 62
7
  6
CONTINUOUS
 10
66.23304305
 20
153.0890916681
 11
58.4033793638
 21
153.0890916681
  0
LINE
  8
0
 62
7
  6
CONTINUOUS
 10
49.43304305
 20
153.0890916681
 11
41.6033793638
 21
153.0890916681
  0
LINE
  8
0
 62
7
  6
CONTINUOUS
 10
32.63304305
 20
153.0890916681
 11
24.8033793638
 21
153.0890916681
  0
LINE
  8
0
 62
7
  6
CONTINUOUS
 10
159.2033793638
 20
153.0890916681
 11
167.0182112069
 21
153.0890916681
  0
LINE
  8
0
 62
6
  6
CONTINUOUS
 10
159.2013433896
 20
153.0890916681
 11
159.2033793638
 21
153.0890916681
  0
LINE
  8
0
 62
6
  6
CONTINUOUS
 10
147.4949529243
 20
153.0890448013
 11
147.4893146201
 21
153.0890916663
  0
POLYLINE
  8
0
 62
7
  6
CONTINUOUS
 66
1
 70
0
  0
VERTEX
  8
0
 62
7
  6
CONTINUOUS
 10
24.8033793638
 20
153.0890916681
  0
VERTEX
  8
0
 62
7
  6
CONTINUOUS
 10
24.7563506918
 20
153.0897036208
  0
VERTEX
  8
0
 62
7
  6
CONTINUOUS
 10
24.7128283508
 20
153.0885645999
  0
VERTEX
  8
0
 62
7
  6
CONTINUOUS
 10
24.6741769021
 20
153.0854796272
  0
VERTEX
  8
0
 62
7
  6
CONTINUOUS
 10
24.6425284786
 20
153.0804624928
  0
VERTEX
  8
0
 62
7
  6
CONTINUOUS
 10
24.6195779644
 20
153.073692477
  0
VERTEX
  8
0
 62
7
  6
CONTINUOUS
 10
24.6064522825
 20
153.0654778033
  0
VERTEX
  8
0
 62
7
  6
CONTINUOUS
 10
24.6034386719
 20
153.0594283902
  0
SEQEND
  0
POLYLINE
  8
0
 62
7
  6
CONTINUOUS
 66
1
 70
0
  0
VERTEX
  8
0
 62
7
  6
CONTINUOUS
 10
41.6033793638
 20
153.0890916681
  0
VERTEX
  8
0
 62
7
  6
CONTINUOUS
 10
41.5563506918
 20
153.0897036208
  0
VERTEX
  8
0
 62
7
  6
CONTINUOUS
 10
41.5128283508
 20
153.0885645999
  0
VERTEX
  8
0
 62
7
  6
CONTINUOUS
 10
41.4741769021
 20
153.0854796272
  0
VERTEX
  8
0
 62
7
  6
CONTINUOUS
 10
41.4425284786
 20
153.0804624928
  0
VERTEX
  8
0
 62
7
  6
CONTINUOUS
 10
41.4195779644
 20
153.073692477
  0
VERTEX
  8
0
 62
7
  6
CONTINUOUS
 10
41.4064522825
 20
153.0654778033
  0
VERTEX
  8
0
 62
7
  6
CONTINUOUS
 10
41.4034386719
 20
153.0594283902
  0
SEQEND
  0
POLYLINE
  8
0
 62
7
  6
CONTINUOUS
 66
1
 70
0
  0
VERTEX
  8
0
 62
7
  6
CONTINUOUS
 10
58.4033793638
 20
153.0890916681
  0
VERTEX
  8
0
 62
7
  6
CONTINUOUS
 10
58.3563506918
 20
153.0897036208
  0
VERTEX
  8
0
 62
7
  6
CONTINUOUS
 10
58.3128283508
 20
153.0885645999
  0
VERTEX
  8
0
 62
7
  6
CONTINUOUS
 10
58.2741769021
 20
153.0854796272
  0
VERTEX
  8
0
 62
7
  6
CONTINUOUS
 10
58.2425284786
 20
153.0804624928
  0
VERTEX
  8
0
 62
7
  6
CONTINUOUS
 10
58.2195779644
 20
153.073692477
  0
VERTEX
  8
0
 62
7
  6
CONTINUOUS
 10
58.2064522825
 20
153.0654778033
  0
VERTEX
  8
0
 62
7
  6
CONTINUOUS
 10
58.2034386719
 20
153.0594283902
  0
SEQEND
  0
POLYLINE
  8
0
 62
7
  6
CONTINUOUS
 66
1
 70
0
  0
VERTEX
  8
0
 62
7
  6
CONTINUOUS
 10
75.2033793638
 20
153.0890916681
  0
VERTEX
  8
0
 62
7
  6
CONTINUOUS
 10
75.1563506918
 20
153.0897036208
  0
VERTEX
  8
0
 62
7
  6
CONTINUOUS
 10
75.1128283508
 20
153.0885645999
  0
VERTEX
  8
0
 62
7
  6
CONTINUOUS
 10
75.0741769021
 20
153.0854796272
  0
VERTEX
  8
0
 62
7
  6
CONTINUOUS
 10
75.0425284786
 20
153.0804624928
  0
VERTEX
  8
0
 62
7
  6
CONTINUOUS
 10
75.0195779644
 20
153.073692477
  0
VERTEX
  8
0
 62
7
  6
CONTINUOUS
 10
75.0064522825
 20
153.0654778033
  0
VERTEX
  8
0
 62
7
  6
CONTINUOUS
 10
75.0034386719
 20
153.0594283902
  0
SEQEND
  0
POLYLINE
  8
0
 62
7
  6
CONTINUOUS
 66
1
 70
0
  0
VERTEX
  8
0
 62
7
  6
CONTINUOUS
 10
92.0033793638
 20
153.0890916681
  0
VERTEX
  8
0
 62
7
  6
CONTINUOUS
 10
91.9563506918
 20
153.0897036208
  0
VERTEX
  8
0
 62
7
  6
CONTINUOUS
 10
91.9128283508
 20
153.0885645999
  0
VERTEX
  8
0
 62
7
  6
CONTINUOUS
 10
91.8741769021
 20
153.0854796272
  0
VERTEX
  8
0
 62
7
  6
CONTINUOUS
 10
91.8425284786
 20
153.0804624928
  0
VERTEX
  8
0
 62
7
  6
CONTINUOUS
 10
91.8195779644
 20
153.073692477
  0
VERTEX
  8
0
 62
7
  6
CONTINUOUS
 10
91.8064522825
 20
153.0654778033
  0
VERTEX
  8
0
 62
7
  6
CONTINUOUS
 10
91.8034386719
 20
153.0594283902
  0
SEQEND
  0
POLYLINE
  8
0
 62
7
  6
CONTINUOUS
 66
1
 70
0
  0
VERTEX
  8
0
 62
7
  6
CONTINUOUS
 10
108.8033793638
 20
153.0890916681
  0
VERTEX
  8
0
 62
7
  6
CONTINUOUS
 10
108.7563506918
 20
153.0897036208
  0
VERTEX
  8
0
 62
7
  6
CONTINUOUS
 10
108.7128283508
 20
153.0885645999
  0
VERTEX
  8
0
 62
7
  6
CONTINUOUS
 10
108.6741769021
 20
153.0854796272
  0
VERTEX
  8
0
 62
7
  6
CONTINUOUS
 10
108.6425284786
 20
153.0804624928
  0
VERTEX
  8
0
 62
7
  6
CONTINUOUS
 10
108.6195779644
 20
153.073692477
  0
VERTEX
  8
0
 62
7
  6
CONTINUOUS
 10
108.6064522825
 20
153.0654778033
  0
VERTEX
  8
0
 62
7
  6
CONTINUOUS
 10
108.6034386719
 20
153.0594283902
  0
SEQEND
  0
POLYLINE
  8
0
 62
7
  6
CONTINUOUS
 66
1
 70
0
  0
VERTEX
  8
0
 62
7
  6
CONTINUOUS
 10
125.6033793638
 20
153.0890916681
  0
VERTEX
  8
0
 62
7
  6
CONTINUOUS
 10
125.5563506918
 20
153.0897036208
  0
VERTEX
  8
0
 62
7
  6
CONTINUOUS
 10
125.5128283508
 20
153.0885645999
  0
VERTEX
  8
0
 62
7
  6
CONTINUOUS
 10
125.4741769021
 20
153.0854796272
  0
VERTEX
  8
0
 62
7
  6
CONTINUOUS
 10
125.4425284786
 20
153.0804624928
  0
VERTEX
  8
0
 62
7
  6
CONTINUOUS
 10
125.4195779644
 20
153.073692477
  0
VERTEX
  8
0
 62
7
  6
CONTINUOUS
 10
125.4064522825
 20
153.0654778033
  0
VERTEX
  8
0
 62
7
  6
CONTINUOUS
 10
125.4034386719
 20
153.0594283902
  0
SEQEND
  0
POLYLINE
  8
0
 62
7
  6
CONTINUOUS
 66
1
 70
0
  0
VERTEX
  8
0
 62
7
  6
CONTINUOUS
 10
142.4033793638
 20
153.0890916681
  0
VERTEX
  8
0
 62
7
  6
CONTINUOUS
 10
142.3563506918
 20
153.0897036208
  0
VERTEX
  8
0
 62
7
  6
CONTINUOUS
 10
142.3128283508
 20
153.0885645999
  0
VERTEX
  8
0
 62
7
  6
CONTINUOUS
 10
142.2741769021
 20
153.0854796272
  0
VERTEX
  8
0
 62
7
  6
CONTINUOUS
 10
142.2425284786
 20
153.0804624928
  0
VERTEX
  8
0
 62
7
  6
CONTINUOUS
 10
142.2195779644
 20
153.073692477
  0
VERTEX
  8
0
 62
7
  6
CONTINUOUS
 10
142.2064522825
 20
153.0654778033
  0
VERTEX
  8
0
 62
7
  6
CONTINUOUS
 10
142.2034386719
 20
153.0594283902
  0
SEQEND
  0
POLYLINE
  8
0
 62
7
  6
CONTINUOUS
 66
1
 70
0
  0
VERTEX
  8
0
 62
7
  6
CONTINUOUS
 10
159.2033793638
 20
153.0890916681
  0
VERTEX
  8
0
 62
7
  6
CONTINUOUS
 10
159.1563506918
 20
153.0897036208
  0
VERTEX
  8
0
 62
7
  6
CONTINUOUS
 10
159.1128283508
 20
153.0885645999
  0
VERTEX
  8
0
 62
7
  6
CONTINUOUS
 10
159.0741769021
 20
153.0854796272
  0
VERTEX
  8
0
 62
7
  6
CONTINUOUS
 10
159.0425284786
 20
153.0804624928
  0
VERTEX
  8
0
 62
7
  6
CONTINUOUS
 10
159.0195779644
 20
153.073692477
  0
VERTEX
  8
0
 62
7
  6
CONTINUOUS
 10
159.0064522825
 20
153.0654778033
  0
VERTEX
  8
0
 62
7
  6
CONTINUOUS
 10
159.0034386719
 20
153.0594283902
  0
SEQEND
  0
POLYLINE
  8
0
 62
6
  6
CONTINUOUS
 66
1
 70
0
  0
VERTEX
  8
0
 62
6
  6
CONTINUOUS
 10
147.4949529243
 20
153.0890448013
  0
VERTEX
  8
0
 62
6
  6
CONTINUOUS
 10
147.6820197776
 20
153.0830518583
  0
VERTEX
  8
0
 62
6
  6
CONTINUOUS
 10
147.8619744302
 20
153.0716434316
  0
VERTEX
  8
0
 62
6
  6
CONTINUOUS
 10
148.0285949203
 20
153.055360606
  0
VERTEX
  8
0
 62
6
  6
CONTINUOUS
 10
148.1762033287
 20
153.0348600237
  0
VERTEX
  8
0
 62
6
  6
CONTINUOUS
 10
148.2998626176
 20
153.0109076487
  0
VERTEX
  8
0
 62
6
  6
CONTINUOUS
 10
148.3955293547
 20
152.9843666627
  0
VERTEX
  8
0
 62
6
  6
CONTINUOUS
 10
148.4601607886
 20
152.9561811289
  0
VERTEX
  8
0
 62
6
  6
CONTINUOUS
 10
148.4917736582
 20
152.9273579435
  0
SEQEND
  0
LINE
  8
0
 62
7
  6
CONTINUOUS
 10
134.6830143067
 20
92.7812923717
 11
134.8637409899
 21
92.3780457392
  0
POLYLINE
  8
0
 62
7
  6
CONTINUOUS
 66
1
 70
0
  0
VERTEX
  8
0
 62
7
  6
CONTINUOUS
 10
115.7608402643
 20
157.3512341211
  0
VERTEX
  8
0
 62
7
  6
CONTINUOUS
 10
115.7329536185
 20
157.5200291745
  0
VERTEX
  8
0
 62
7
  6
CONTINUOUS
 10
115.7021097171
 20
157.6845893909
  0
VERTEX
  8
0
 62
7
  6
CONTINUOUS
 10
115.6712259663
 20
157.8280276674
  0
VERTEX
  8
0
 62
7
  6
CONTINUOUS
 10
115.6398879197
 20
157.9537059679
  0
VERTEX
  8
0
 62
7
  6
CONTINUOUS
 10
115.6073865344
 20
158.0650196382
  0
VERTEX
  8
0
 62
7
  6
CONTINUOUS
 10
115.5724742316
 20
158.1656292597
  0
VERTEX
  8
0
 62
7
  6
CONTINUOUS
 10
115.5329376044
 20
158.2595941308
  0
VERTEX
  8
0
 62
7
  6
CONTINUOUS
 10
115.4851490131
 20
158.3507899118
  0
VERTEX
  8
0
 62
7
  6
CONTINUOUS
 10
115.4234399699
 20
158.4421020882
  0
VERTEX
  8
0
 62
7
  6
CONTINUOUS
 10
115.3403429025
 20
158.5331498421
  0
VERTEX
  8
0
 62
7
  6
CONTINUOUS
 10
115.2305376374
 20
158.6166194012
  0
VERTEX
  8
0
 62
7
  6
CONTINUOUS
 10
115.0963838553
 20
158.6799297084
  0
VERTEX
  8
0
 62
7
  6
CONTINUOUS
 10
114.9491376
 20
158.7127731838
  0
VERTEX
  8
0
 62
7
  6
CONTINUOUS
 10
114.8743818943
 20
158.7168102379
  0
SEQEND
  0
LINE
  8
0
 62
7
  6
CONTINUOUS
 10
115.7767437696
 20
157.2465149844
 11
115.7608389851
 21
157.3512423265
  0
POLYLINE
  8
0
 62
7
  6
CONTINUOUS
 66
1
 70
0
  0
VERTEX
  8
0
 62
7
  6
CONTINUOUS
 10
116.8329837715
 20
153.0594342558
  0
VERTEX
  8
0
 62
7
  6
CONTINUOUS
 10
116.7611059577
 20
153.6112273772
  0
VERTEX
  8
0
 62
7
  6
CONTINUOUS
 10
116.6663771064
 20
154.2110523041
  0
VERTEX
  8
0
 62
7
  6
CONTINUOUS
 10
116.5556895754
 20
154.7936631096
  0
VERTEX
  8
0
 62
7
  6
CONTINUOUS
 10
116.4290013418
 20
155.3540541314
  0
VERTEX
  8
0
 62
7
  6
CONTINUOUS
 10
116.286296596
 20
155.8873903336
  0
VERTEX
  8
0
 62
7
  6
CONTINUOUS
 10
116.1275281941
 20
156.389014814
  0
VERTEX
  8
0
 62
7
  6
CONTINUOUS
 10
115.9524636559
 20
156.8546278549
  0
SEQEND
  0
POLYLINE
  8
0
 62
7
  6
CONTINUOUS
 66
1
 70
0
  0
VERTEX
  8
0
 62
7
  6
CONTINUOUS
 10
125.4063309305
 20
147.2312365765
  0
VERTEX
  8
0
 62
7
  6
CONTINUOUS
 10
125.4103039074
 20
146.9379144576
  0
VERTEX
  8
0
 62
7
  6
CONTINUOUS
 10
125.4104302309
 20
146.8583209146
  0
VERTEX
  8
0
 62
7
  6
CONTINUOUS
 10
125.4091515515
 20
146.7792582534
  0
VERTEX
  8
0
 62
7
  6
CONTINUOUS
 10
125.4062650746
 20
146.7010065291
  0
VERTEX
  8
0
 62
7
  6
CONTINUOUS
 10
125.4015496726
 20
146.6237882851
  0
VERTEX
  8
0
 62
7
  6
CONTINUOUS
 10
125.3948067521
 20
146.5478232362
  0
VERTEX
  8
0
 62
7
  6
CONTINUOUS
 10
125.3858604059
 20
146.4735440915
  0
VERTEX
  8
0
 62
7
  6
CONTINUOUS
 10
125.3745408887
 20
146.4014590932
  0
VERTEX
  8
0
 62
7
  6
CONTINUOUS
 10
125.3606494895
 20
146.3313544243
  0
VERTEX
  8
0
 62
7
  6
CONTINUOUS
 10
125.3439496136
 20
146.2637042722
  0
VERTEX
  8
0
 62
7
  6
CONTINUOUS
 10
125.3242350718
 20
146.1996360879
  0
VERTEX
  8
0
 62
7
  6
CONTINUOUS
 10
125.3008883942
 20
146.1401462629
  0
VERTEX
  8
0
 62
7
  6
CONTINUOUS
 10
125.273419971
 20
146.084877314
  0
VERTEX
  8
0
 62
7
  6
CONTINUOUS
 10
125.2424050944
 20
146.0354327847
  0
VERTEX
  8
0
 62
7
  6
CONTINUOUS
 10
125.2089624084
 20
145.9932538118
  0
VERTEX
  8
0
 62
7
  6
CONTINUOUS
 10
125.1730925171
 20
145.95797952
  0
VERTEX
  8
0
 62
7
  6
CONTINUOUS
 10
125.1347723417
 20
145.9296837085
  0
VERTEX
  8
0
 62
7
  6
CONTINUOUS
 10
125.0939413412
 20
145.9089736029
  0
VERTEX
  8
0
 62
7
  6
CONTINUOUS
 10
125.0511445185
 20
145.8973853409
  0
VERTEX
  8
0
 62
7
  6
CONTINUOUS
 10
125.0277747202
 20
145.8956188307
  0
SEQEND
  0
POLYLINE
  8
0
 62
7
  6
CONTINUOUS
 66
1
 70
0
  0
VERTEX
  8
0
 62
7
  6
CONTINUOUS
 10
125.2300446186
 20
102.4063518431
  0
VERTEX
  8
0
 62
7
  6
CONTINUOUS
 10
125.2260748976
 20
102.7003836141
  0
VERTEX
  8
0
 62
7
  6
CONTINUOUS
 10
125.2260282312
 20
102.7802527871
  0
VERTEX
  8
0
 62
7
  6
CONTINUOUS
 10
125.2274049959
 20
102.8594282503
  0
VERTEX
  8
0
 62
7
  6
CONTINUOUS
 10
125.2304041053
 20
102.9376502241
  0
VERTEX
  8
0
 62
7
  6
CONTINUOUS
 10
125.2352396751
 20
103.0147213436
  0
VERTEX
  8
0
 62
7
  6
CONTINUOUS
 10
125.2421008048
 20
103.0904345162
  0
VERTEX
  8
0
 62
7
  6
CONTINUOUS
 10
125.2511567032
 20
103.1643617851
  0
VERTEX
  8
0
 62
7
  6
CONTINUOUS
 10
125.262572359
 20
103.2360569613
  0
VERTEX
  8
0
 62
7
  6
CONTINUOUS
 10
125.2765283351
 20
103.3056559835
  0
VERTEX
  8
0
 62
7
  6
CONTINUOUS
 10
125.2932960896
 20
103.3728915695
  0
VERTEX
  8
0
 62
7
  6
CONTINUOUS
 10
125.3129982416
 20
103.4363206104
  0
VERTEX
  8
0
 62
7
  6
CONTINUOUS
 10
125.3363496395
 20
103.4953155028
  0
VERTEX
  8
0
 62
7
  6
CONTINUOUS
 10
125.3637525231
 20
103.5500855078
  0
VERTEX
  8
0
 62
7
  6
CONTINUOUS
 10
125.3946016569
 20
103.5990167752
  0
VERTEX
  8
0
 62
7
  6
CONTINUOUS
 10
125.4280656598
 20
103.641043138
  0
VERTEX
  8
0
 62
7
  6
CONTINUOUS
 10
125.4642008618
 20
103.6763868127
  0
VERTEX
  8
0
 62
7
  6
CONTINUOUS
 10
125.5029641035
 20
103.7047519561
  0
VERTEX
  8
0
 62
7
  6
CONTINUOUS
 10
125.5442377031
 20
103.7253282538
  0
VERTEX
  8
0
 62
7
  6
CONTINUOUS
 10
125.5872350393
 20
103.736511281
  0
VERTEX
  8
0
 62
7
  6
CONTINUOUS
 10
125.6084739425
 20
103.7380012932
  0
SEQEND
  0
LINE
  8
0
 62
7
  6
CONTINUOUS
 10
125.2324866732
 20
102.1233376741
 11
125.2300446186
 21
102.4063518431
  0
LINE
  8
0
 62
7
  6
CONTINUOUS
 10
125.4039149561
 20
147.5142583132
 11
125.4063309305
 21
147.2312365765
  0
LINE
  8
0
 62
7
  6
CONTINUOUS
 10
125.2324866732
 20
102.1233376741
 11
125.23304305
 21
96.5752367336
  0
LINE
  8
0
 62
7
  6
CONTINUOUS
 10
125.4033793638
 20
153.0583464388
 11
125.4039149561
 21
147.5142583132
  0
LINE
  8
0
 62
7
  6
CONTINUOUS
 10
125.4034386719
 20
153.0594283902
 11
125.4033793667
 21
153.0584084503
  0
LINE
  8
0
 62
7
  6
CONTINUOUS
 10
125.23304305
 20
96.5752046205
 11
125.232983724
 21
96.5741965834
  0
LINE
  8
0
 62
7
  6
CONTINUOUS
 10
124.1608391207
 20
92.2823792331
 11
124.1767414951
 21
92.3871047781
  0
POLYLINE
  8
0
 62
7
  6
CONTINUOUS
 66
1
 70
0
  0
VERTEX
  8
0
 62
7
  6
CONTINUOUS
 10
143.2637420331
 20
157.2555770766
  0
VERTEX
  8
0
 62
7
  6
CONTINUOUS
 10
143.0839587578
 20
156.8546278549
  0
VERTEX
  8
0
 62
7
  6
CONTINUOUS
 10
142.9088942197
 20
156.389014814
  0
VERTEX
  8
0
 62
7
  6
CONTINUOUS
 10
142.7501258178
 20
155.8873903336
  0
VERTEX
  8
0
 62
7
  6
CONTINUOUS
 10
142.607421072
 20
155.3540541314
  0
VERTEX
  8
0
 62
7
  6
CONTINUOUS
 10
142.4807328384
 20
154.7936631096
  0
VERTEX
  8
0
 62
7
  6
CONTINUOUS
 10
142.3700453074
 20
154.2110523041
  0
VERTEX
  8
0
 62
7
  6
CONTINUOUS
 10
142.2753164561
 20
153.6112273772
  0
VERTEX
  8
0
 62
7
  6
CONTINUOUS
 10
142.2034386423
 20
153.0594342558
  0
SEQEND
  0
POLYLINE
  8
0
 62
7
  6
CONTINUOUS
 66
1
 70
0
  0
VERTEX
  8
0
 62
7
  6
CONTINUOUS
 10
127.3620375876
 20
158.7168102413
  0
VERTEX
  8
0
 62
7
  6
CONTINUOUS
 10
127.2912422599
 20
158.7131921083
  0
VERTEX
  8
0
 62
7
  6
CONTINUOUS
 10
127.1435191676
 20
158.6811155032
  0
VERTEX
  8
0
 62
7
  6
CONTINUOUS
 10
127.00859785
 20
158.6182753652
  0
VERTEX
  8
0
 62
7
  6
CONTINUOUS
 10
126.897963954
 20
158.5348918289
  0
VERTEX
  8
0
 62
7
  6
CONTINUOUS
 10
126.814209418
 20
158.4436803341
  0
VERTEX
  8
0
 62
7
  6
CONTINUOUS
 10
126.7520692214
 20
158.3521372336
  0
VERTEX
  8
0
 62
7
  6
CONTINUOUS
 10
126.704021552
 20
158.2607431098
  0
VERTEX
  8
0
 62
7
  6
CONTINUOUS
 10
126.6643291117
 20
158.1666294617
  0
VERTEX
  8
0
 62
7
  6
CONTINUOUS
 10
126.6293144811
 20
158.0658965613
  0
VERTEX
  8
0
 62
7
  6
CONTINUOUS
 10
126.5967379721
 20
157.9544608651
  0
VERTEX
  8
0
 62
7
  6
CONTINUOUS
 10
126.5653392947
 20
157.8286444832
  0
VERTEX
  8
0
 62
7
  6
CONTINUOUS
 10
126.5344032252
 20
157.6850400981
  0
VERTEX
  8
0
 62
7
  6
CONTINUOUS
 10
126.5035121554
 20
157.5202763804
  0
VERTEX
  8
0
 62
7
  6
CONTINUOUS
 10
126.4755821415
 20
157.3512340695
  0
SEQEND
  0
POLYLINE
  8
0
 62
7
  6
CONTINUOUS
 66
1
 70
0
  0
VERTEX
  8
0
 62
7
  6
CONTINUOUS
 10
110.5620375876
 20
158.7168102413
  0
VERTEX
  8
0
 62
7
  6
CONTINUOUS
 10
110.4912422599
 20
158.7131921083
  0
VERTEX
  8
0
 62
7
  6
CONTINUOUS
 10
110.3435191676
 20
158.6811155032
  0
VERTEX
  8
0
 62
7
  6
CONTINUOUS
 10
110.20859785
 20
158.6182753652
  0
VERTEX
  8
0
 62
7
  6
CONTINUOUS
 10
110.097963954
 20
158.5348918289
  0
VERTEX
  8
0
 62
7
  6
CONTINUOUS
 10
110.014209418
 20
158.4436803341
  0
VERTEX
  8
0
 62
7
  6
CONTINUOUS
 10
109.9520692214
 20
158.3521372336
  0
VERTEX
  8
0
 62
7
  6
CONTINUOUS
 10
109.904021552
 20
158.2607431098
  0
VERTEX
  8
0
 62
7
  6
CONTINUOUS
 10
109.8643291117
 20
158.1666294617
  0
VERTEX
  8
0
 62
7
  6
CONTINUOUS
 10
109.8293144811
 20
158.0658965613
  0
VERTEX
  8
0
 62
7
  6
CONTINUOUS
 10
109.7967379721
 20
157.9544608651
  0
VERTEX
  8
0
 62
7
  6
CONTINUOUS
 10
109.7653392947
 20
157.8286444832
  0
VERTEX
  8
0
 62
7
  6
CONTINUOUS
 10
109.7344032252
 20
157.6850400981
  0
VERTEX
  8
0
 62
7
  6
CONTINUOUS
 10
109.7035121554
 20
157.5202763804
  0
VERTEX
  8
0
 62
7
  6
CONTINUOUS
 10
109.6755821415
 20
157.3512340695
  0
SEQEND
  0
POLYLINE
  8
0
 62
7
  6
CONTINUOUS
 66
1
 70
0
  0
VERTEX
  8
0
 62
7
  6
CONTINUOUS
 10
93.7620375876
 20
158.7168102413
  0
VERTEX
  8
0
 62
7
  6
CONTINUOUS
 10
93.6912422599
 20
158.7131921083
  0
VERTEX
  8
0
 62
7
  6
CONTINUOUS
 10
93.5435191676
 20
158.6811155032
  0
VERTEX
  8
0
 62
7
  6
CONTINUOUS
 10
93.40859785
 20
158.6182753652
  0
VERTEX
  8
0
 62
7
  6
CONTINUOUS
 10
93.297963954
 20
158.5348918289
  0
VERTEX
  8
0
 62
7
  6
CONTINUOUS
 10
93.214209418
 20
158.4436803341
  0
VERTEX
  8
0
 62
7
  6
CONTINUOUS
 10
93.1520692214
 20
158.3521372336
  0
VERTEX
  8
0
 62
7
  6
CONTINUOUS
 10
93.104021552
 20
158.2607431098
  0
VERTEX
  8
0
 62
7
  6
CONTINUOUS
 10
93.0643291117
 20
158.1666294617
  0
VERTEX
  8
0
 62
7
  6
CONTINUOUS
 10
93.0293144811
 20
158.0658965613
  0
VERTEX
  8
0
 62
7
  6
CONTINUOUS
 10
92.9967379721
 20
157.9544608651
  0
VERTEX
  8
0
 62
7
  6
CONTINUOUS
 10
92.9653392947
 20
157.8286444832
  0
VERTEX
  8
0
 62
7
  6
CONTINUOUS
 10
92.9344032252
 20
157.6850400981
  0
VERTEX
  8
0
 62
7
  6
CONTINUOUS
 10
92.9035121554
 20
157.5202763804
  0
VERTEX
  8
0
 62
7
  6
CONTINUOUS
 10
92.8755821415
 20
157.3512340695
  0
SEQEND
  0
POLYLINE
  8
0
 62
7
  6
CONTINUOUS
 66
1
 70
0
  0
VERTEX
  8
0
 62
7
  6
CONTINUOUS
 10
76.9620375876
 20
158.7168102413
  0
VERTEX
  8
0
 62
7
  6
CONTINUOUS
 10
76.8912422599
 20
158.7131921083
  0
VERTEX
  8
0
 62
7
  6
CONTINUOUS
 10
76.7435191676
 20
158.6811155032
  0
VERTEX
  8
0
 62
7
  6
CONTINUOUS
 10
76.60859785
 20
158.6182753652
  0
VERTEX
  8
0
 62
7
  6
CONTINUOUS
 10
76.497963954
 20
158.5348918289
  0
VERTEX
  8
0
 62
7
  6
CONTINUOUS
 10
76.414209418
 20
158.4436803341
  0
VERTEX
  8
0
 62
7
  6
CONTINUOUS
 10
76.3520692214
 20
158.3521372336
  0
VERTEX
  8
0
 62
7
  6
CONTINUOUS
 10
76.304021552
 20
158.2607431098
  0
VERTEX
  8
0
 62
7
  6
CONTINUOUS
 10
76.2643291117
 20
158.1666294617
  0
VERTEX
  8
0
 62
7
  6
CONTINUOUS
 10
76.2293144811
 20
158.0658965613
  0
VERTEX
  8
0
 62
7
  6
CONTINUOUS
 10
76.1967379721
 20
157.9544608651
  0
VERTEX
  8
0
 62
7
  6
CONTINUOUS
 10
76.1653392947
 20
157.8286444832
  0
VERTEX
  8
0
 62
7
  6
CONTINUOUS
 10
76.1344032252
 20
157.6850400981
  0
VERTEX
  8
0
 62
7
  6
CONTINUOUS
 10
76.1035121554
 20
157.5202763804
  0
VERTEX
  8
0
 62
7
  6
CONTINUOUS
 10
76.0755821415
 20
157.3512340695
  0
SEQEND
  0
POLYLINE
  8
0
 62
7
  6
CONTINUOUS
 66
1
 70
0
  0
VERTEX
  8
0
 62
7
  6
CONTINUOUS
 10
60.1620375876
 20
158.7168102413
  0
VERTEX
  8
0
 62
7
  6
CONTINUOUS
 10
60.0912422599
 20
158.7131921083
  0
VERTEX
  8
0
 62
7
  6
CONTINUOUS
 10
59.9435191676
 20
158.6811155032
  0
VERTEX
  8
0
 62
7
  6
CONTINUOUS
 10
59.80859785
 20
158.6182753652
  0
VERTEX
  8
0
 62
7
  6
CONTINUOUS
 10
59.697963954
 20
158.5348918289
  0
VERTEX
  8
0
 62
7
  6
CONTINUOUS
 10
59.614209418
 20
158.4436803341
  0
VERTEX
  8
0
 62
7
  6
CONTINUOUS
 10
59.5520692214
 20
158.3521372336
  0
VERTEX
  8
0
 62
7
  6
CONTINUOUS
 10
59.504021552
 20
158.2607431098
  0
VERTEX
  8
0
 62
7
  6
CONTINUOUS
 10
59.4643291117
 20
158.1666294617
  0
VERTEX
  8
0
 62
7
  6
CONTINUOUS
 10
59.4293144811
 20
158.0658965613
  0
VERTEX
  8
0
 62
7
  6
CONTINUOUS
 10
59.3967379721
 20
157.9544608651
  0
VERTEX
  8
0
 62
7
  6
CONTINUOUS
 10
59.3653392947
 20
157.8286444832
  0
VERTEX
  8
0
 62
7
  6
CONTINUOUS
 10
59.3344032252
 20
157.6850400981
  0
VERTEX
  8
0
 62
7
  6
CONTINUOUS
 10
59.3035121554
 20
157.5202763804
  0
VERTEX
  8
0
 62
7
  6
CONTINUOUS
 10
59.2755821415
 20
157.3512340695
  0
SEQEND
  0
POLYLINE
  8
0
 62
7
  6
CONTINUOUS
 66
1
 70
0
  0
VERTEX
  8
0
 62
7
  6
CONTINUOUS
 10
43.3620375876
 20
158.7168102413
  0
VERTEX
  8
0
 62
7
  6
CONTINUOUS
 10
43.2912422599
 20
158.7131921083
  0
VERTEX
  8
0
 62
7
  6
CONTINUOUS
 10
43.1435191676
 20
158.6811155032
  0
VERTEX
  8
0
 62
7
  6
CONTINUOUS
 10
43.00859785
 20
158.6182753652
  0
VERTEX
  8
0
 62
7
  6
CONTINUOUS
 10
42.897963954
 20
158.5348918289
  0
VERTEX
  8
0
 62
7
  6
CONTINUOUS
 10
42.814209418
 20
158.4436803341
  0
VERTEX
  8
0
 62
7
  6
CONTINUOUS
 10
42.7520692214
 20
158.3521372336
  0
VERTEX
  8
0
 62
7
  6
CONTINUOUS
 10
42.704021552
 20
158.2607431098
  0
VERTEX
  8
0
 62
7
  6
CONTINUOUS
 10
42.6643291117
 20
158.1666294617
  0
VERTEX
  8
0
 62
7
  6
CONTINUOUS
 10
42.6293144811
 20
158.0658965613
  0
VERTEX
  8
0
 62
7
  6
CONTINUOUS
 10
42.5967379721
 20
157.9544608651
  0
VERTEX
  8
0
 62
7
  6
CONTINUOUS
 10
42.5653392947
 20
157.8286444832
  0
VERTEX
  8
0
 62
7
  6
CONTINUOUS
 10
42.5344032252
 20
157.6850400981
  0
VERTEX
  8
0
 62
7
  6
CONTINUOUS
 10
42.5035121554
 20
157.5202763804
  0
VERTEX
  8
0
 62
7
  6
CONTINUOUS
 10
42.4755821415
 20
157.3512340695
  0
SEQEND
  0
POLYLINE
  8
0
 62
7
  6
CONTINUOUS
 66
1
 70
0
  0
VERTEX
  8
0
 62
7
  6
CONTINUOUS
 10
26.562037587
 20
158.7168102413
  0
VERTEX
  8
0
 62
7
  6
CONTINUOUS
 10
26.4912424359
 20
158.7131921264
  0
VERTEX
  8
0
 62
7
  6
CONTINUOUS
 10
26.343519398
 20
158.6811155809
  0
VERTEX
  8
0
 62
7
  6
CONTINUOUS
 10
26.2085980316
 20
158.6182754754
  0
VERTEX
  8
0
 62
7
  6
CONTINUOUS
 10
26.0979640272
 20
158.5348918963
  0
VERTEX
  8
0
 62
7
  6
CONTINUOUS
 10
26.0142094182
 20
158.4436803343
  0
VERTEX
  8
0
 62
7
  6
CONTINUOUS
 10
25.9520691669
 20
158.3521371415
  0
VERTEX
  8
0
 62
7
  6
CONTINUOUS
 10
25.9040214685
 20
158.2607429312
  0
VERTEX
  8
0
 62
7
  6
CONTINUOUS
 10
25.8643290215
 20
158.1666292251
  0
VERTEX
  8
0
 62
7
  6
CONTINUOUS
 10
25.8293143904
 20
158.0658962762
  0
VERTEX
  8
0
 62
7
  6
CONTINUOUS
 10
25.796737886
 20
157.9544605459
  0
VERTEX
  8
0
 62
7
  6
CONTINUOUS
 10
25.7653392194
 20
157.8286441583
  0
VERTEX
  8
0
 62
7
  6
CONTINUOUS
 10
25.7344031679
 20
157.685039813
  0
VERTEX
  8
0
 62
7
  6
CONTINUOUS
 10
25.7035121238
 20
157.5202762
  0
VERTEX
  8
0
 62
7
  6
CONTINUOUS
 10
25.6755821415
 20
157.3512340695
  0
SEQEND
  0
LINE
  8
0
 62
7
  6
CONTINUOUS
 10
26.5619182114
 20
158.7168103448
 11
30.8745002616
 21
158.7168103448
  0
LINE
  8
0
 62
7
  6
CONTINUOUS
 10
43.3619221522
 20
158.7168103448
 11
47.6745002616
 21
158.7168103448
  0
LINE
  8
0
 62
7
  6
CONTINUOUS
 10
60.1619221522
 20
158.7168103448
 11
64.4745002616
 21
158.7168103448
  0
LINE
  8
0
 62
7
  6
CONTINUOUS
 10
76.9619221522
 20
158.7168103448
 11
81.2745002616
 21
158.7168103448
  0
LINE
  8
0
 62
7
  6
CONTINUOUS
 10
93.7619221522
 20
158.7168103448
 11
98.0745002616
 21
158.7168103448
  0
LINE
  8
0
 62
7
  6
CONTINUOUS
 10
110.5619221522
 20
158.7168103448
 11
114.8745002616
 21
158.7168103448
  0
LINE
  8
0
 62
7
  6
CONTINUOUS
 10
127.3619221522
 20
158.7168103448
 11
131.6745002616
 21
158.7168103448
  0
LINE
  8
0
 62
7
  6
CONTINUOUS
 10
144.1619221522
 20
158.7168103448
 11
148.4745002616
 21
158.7168103448
  0
LINE
  8
0
 62
7
  6
CONTINUOUS
 10
160.9619151156
 20
158.7168103448
 11
167.0181922948
 21
158.7168103448
  0
LINE
  8
0
 62
7
  6
CONTINUOUS
 10
115.9524636559
 20
156.8546278549
 11
115.7726803807
 21
157.2555770766
  0
POLYLINE
  8
0
 62
7
  6
CONTINUOUS
 66
1
 70
0
  0
VERTEX
  8
0
 62
7
  6
CONTINUOUS
 10
134.8755820323
 20
92.2823873206
  0
VERTEX
  8
0
 62
7
  6
CONTINUOUS
 10
134.903243844
 20
92.1148747514
  0
VERTEX
  8
0
 62
7
  6
CONTINUOUS
 10
134.9341486419
 20
91.9498485333
  0
VERTEX
  8
0
 62
7
  6
CONTINUOUS
 10
134.9650974284
 20
91.806020832
  0
VERTEX
  8
0
 62
7
  6
CONTINUOUS
 10
134.9965066157
 20
91.6800182089
  0
VERTEX
  8
0
 62
7
  6
CONTINUOUS
 10
135.0290897568
 20
91.5684313698
  0
VERTEX
  8
0
 62
7
  6
CONTINUOUS
 10
135.0641047655
 20
91.467580051
  0
VERTEX
  8
0
 62
7
  6
CONTINUOUS
 10
135.1037882638
 20
91.3733765845
  0
VERTEX
  8
0
 62
7
  6
CONTINUOUS
 10
135.1518153817
 20
91.2819126587
  0
VERTEX
  8
0
 62
7
  6
CONTINUOUS
 10
135.2139250324
 20
91.190305436
  0
VERTEX
  8
0
 62
7
  6
CONTINUOUS
 10
135.2976539572
 20
91.0990145684
  0
VERTEX
  8
0
 62
7
  6
CONTINUOUS
 10
135.4082993684
 20
91.0155266608
  0
VERTEX
  8
0
 62
7
  6
CONTINUOUS
 10
135.5432890339
 20
90.9525829374
  0
VERTEX
  8
0
 62
7
  6
CONTINUOUS
 10
135.6911238232
 20
90.9204407816
  0
VERTEX
  8
0
 62
7
  6
CONTINUOUS
 10
135.7620379657
 20
90.9168104488
  0
SEQEND
  0
LINE
  8
0
 62
7
  6
CONTINUOUS
 10
134.8596809188
 20
92.3871047778
 11
134.8755832931
 21
92.2823792331
  0
LINE
  8
0
 62
7
  6
CONTINUOUS
 10
133.8034386686
 20
96.5741923277
 11
133.8033793667
 21
96.5752122394
  0
LINE
  8
0
 62
7
  6
CONTINUOUS
 10
133.6329837419
 20
153.0594283902
 11
133.6330430471
 21
153.0584084503
  0
LINE
  8
0
 62
7
  6
CONTINUOUS
 10
135.4682112069
 20
129.8168103448
 11
135.4682112069
 21
119.8168103448
  0
POLYLINE
  8
0
 62
7
  6
CONTINUOUS
 66
1
 70
0
  0
VERTEX
  8
0
 62
7
  6
CONTINUOUS
 10
133.626080545
 20
146.9338087042
  0
VERTEX
  8
0
 62
7
  6
CONTINUOUS
 10
133.6300450215
 20
147.22727269
  0
VERTEX
  8
0
 62
7
  6
CONTINUOUS
 10
133.6324867654
 20
147.5102848915
  0
VERTEX
  8
0
 62
7
  6
CONTINUOUS
 10
133.63304305
 20
153.0583464388
  0
SEQEND
  0
POLYLINE
  8
0
 62
7
  6
CONTINUOUS
 66
1
 70
0
  0
VERTEX
  8
0
 62
7
  6
CONTINUOUS
 10
133.8103084859
 20
102.6961831597
  0
VERTEX
  8
0
 62
7
  6
CONTINUOUS
 10
133.8063309307
 20
102.4023840625
  0
VERTEX
  8
0
 62
7
  6
CONTINUOUS
 10
133.8039149563
 20
102.119362402
  0
VERTEX
  8
0
 62
7
  6
CONTINUOUS
 10
133.8033793638
 20
96.5752742509
  0
SEQEND
  0
POLYLINE
  8
0
 62
7
  6
CONTINUOUS
 66
1
 70
0
  0
VERTEX
  8
0
 62
7
  6
CONTINUOUS
 10
124.1726814239
 20
92.3780457391
  0
VERTEX
  8
0
 62
7
  6
CONTINUOUS
 10
124.353408151
 20
92.7812924786
  0
VERTEX
  8
0
 62
7
  6
CONTINUOUS
 10
124.5284019688
 20
93.2471432098
  0
VERTEX
  8
0
 62
7
  6
CONTINUOUS
 10
124.6870999219
 20
93.7489937299
  0
VERTEX
  8
0
 62
7
  6
CONTINUOUS
 10
124.8297326975
 20
94.2825415633
  0
VERTEX
  8
0
 62
7
  6
CONTINUOUS
 10
124.9563465974
 20
94.8431273942
  0
VERTEX
  8
0
 62
7
  6
CONTINUOUS
 10
125.0669572082
 20
95.4259145292
  0
VERTEX
  8
0
 62
7
  6
CONTINUOUS
 10
125.161606668
 20
96.0258961176
  0
VERTEX
  8
0
 62
7
  6
CONTINUOUS
 10
125.2329837748
 20
96.574186462
  0
SEQEND
  0
POLYLINE
  8
0
 62
7
  6
CONTINUOUS
 66
1
 70
0
  0
VERTEX
  8
0
 62
7
  6
CONTINUOUS
 10
125.232983724
 20
96.5741965834
  0
VERTEX
  8
0
 62
7
  6
CONTINUOUS
 10
125.2271720236
 20
96.5655996854
  0
VERTEX
  8
0
 62
7
  6
CONTINUOUS
 10
125.2080852706
 20
96.556806367
  0
VERTEX
  8
0
 62
7
  6
CONTINUOUS
 10
125.1768840235
 20
96.5500779242
  0
VERTEX
  8
0
 62
7
  6
CONTINUOUS
 10
125.1355654776
 20
96.5457582209
  0
VERTEX
  8
0
 62
7
  6
CONTINUOUS
 10
125.0868691315
 20
96.5439693342
  0
VERTEX
  8
0
 62
7
  6
CONTINUOUS
 10
125.03304305
 20
96.5445290216
  0
SEQEND
  0
POLYLINE
  8
0
 62
6
  6
CONTINUOUS
 66
1
 70
0
  0
VERTEX
  8
0
 62
6
  6
CONTINUOUS
 10
158.8253437365
 20
96.5872623094
  0
VERTEX
  8
0
 62
6
  6
CONTINUOUS
 10
158.8330103467
 20
96.5759542315
  0
VERTEX
  8
0
 62
6
  6
CONTINUOUS
 10
158.8271720236
 20
96.5655996854
  0
SEQEND
  0
LINE
  8
0
 62
7
  6
CONTINUOUS
 10
151.4830143067
 20
92.7812923717
 11
151.6637409899
 21
92.3780457392
  0
POLYLINE
  8
0
 62
7
  6
CONTINUOUS
 66
1
 70
0
  0
VERTEX
  8
0
 62
7
  6
CONTINUOUS
 10
133.803438639
 20
96.574186462
  0
VERTEX
  8
0
 62
7
  6
CONTINUOUS
 10
133.8748158941
 20
96.0258950796
  0
VERTEX
  8
0
 62
7
  6
CONTINUOUS
 10
133.9694653554
 20
95.4259136642
  0
VERTEX
  8
0
 62
7
  6
CONTINUOUS
 10
134.0800759603
 20
94.8431266997
  0
VERTEX
  8
0
 62
7
  6
CONTINUOUS
 10
134.2066898465
 20
94.2825410334
  0
VERTEX
  8
0
 62
7
  6
CONTINUOUS
 10
134.3493226008
 20
93.7489933551
  0
VERTEX
  8
0
 62
7
  6
CONTINUOUS
 10
134.5080205251
 20
93.2471429771
  0
VERTEX
  8
0
 62
7
  6
CONTINUOUS
 10
134.6830143067
 20
92.7812923717
  0
SEQEND
  0
POLYLINE
  8
0
 62
7
  6
CONTINUOUS
 66
1
 70
0
  0
VERTEX
  8
0
 62
7
  6
CONTINUOUS
 10
142.0300446186
 20
102.4063518431
  0
VERTEX
  8
0
 62
7
  6
CONTINUOUS
 10
142.0260748976
 20
102.7003836141
  0
VERTEX
  8
0
 62
7
  6
CONTINUOUS
 10
142.0260282312
 20
102.7802527871
  0
VERTEX
  8
0
 62
7
  6
CONTINUOUS
 10
142.0274049959
 20
102.8594282503
  0
VERTEX
  8
0
 62
7
  6
CONTINUOUS
 10
142.0304041053
 20
102.9376502241
  0
VERTEX
  8
0
 62
7
  6
CONTINUOUS
 10
142.0352396751
 20
103.0147213436
  0
VERTEX
  8
0
 62
7
  6
CONTINUOUS
 10
142.0421008048
 20
103.0904345162
  0
VERTEX
  8
0
 62
7
  6
CONTINUOUS
 10
142.0511567032
 20
103.1643617851
  0
VERTEX
  8
0
 62
7
  6
CONTINUOUS
 10
142.062572359
 20
103.2360569613
  0
VERTEX
  8
0
 62
7
  6
CONTINUOUS
 10
142.0765283351
 20
103.3056559835
  0
VERTEX
  8
0
 62
7
  6
CONTINUOUS
 10
142.0932960896
 20
103.3728915695
  0
VERTEX
  8
0
 62
7
  6
CONTINUOUS
 10
142.1129982416
 20
103.4363206104
  0
VERTEX
  8
0
 62
7
  6
CONTINUOUS
 10
142.1363496395
 20
103.4953155028
  0
VERTEX
  8
0
 62
7
  6
CONTINUOUS
 10
142.1637525231
 20
103.5500855078
  0
VERTEX
  8
0
 62
7
  6
CONTINUOUS
 10
142.1946016569
 20
103.5990167752
  0
VERTEX
  8
0
 62
7
  6
CONTINUOUS
 10
142.2280656598
 20
103.641043138
  0
VERTEX
  8
0
 62
7
  6
CONTINUOUS
 10
142.2642008618
 20
103.6763868127
  0
VERTEX
  8
0
 62
7
  6
CONTINUOUS
 10
142.3029641035
 20
103.7047519561
  0
VERTEX
  8
0
 62
7
  6
CONTINUOUS
 10
142.3442377031
 20
103.7253282538
  0
VERTEX
  8
0
 62
7
  6
CONTINUOUS
 10
142.3872350393
 20
103.736511281
  0
VERTEX
  8
0
 62
7
  6
CONTINUOUS
 10
142.4084739425
 20
103.7380012932
  0
SEQEND
  0
LINE
  8
0
 62
7
  6
CONTINUOUS
 10
142.0324866732
 20
102.1233376741
 11
142.0300446186
 21
102.4063518431
  0
LINE
  8
0
 62
7
  6
CONTINUOUS
 10
142.0324866732
 20
102.1233376741
 11
142.03304305
 21
96.5752367336
  0
LINE
  8
0
 62
7
  6
CONTINUOUS
 10
142.2034386719
 20
153.0594283902
 11
142.2033793667
 21
153.0584084503
  0
LINE
  8
0
 62
7
  6
CONTINUOUS
 10
143.2755834287
 20
157.3512423265
 11
143.2596786442
 21
157.2465149844
  0
POLYLINE
  8
0
 62
7
  6
CONTINUOUS
 66
1
 70
0
  0
VERTEX
  8
0
 62
7
  6
CONTINUOUS
 10
160.0637420331
 20
157.2555770766
  0
VERTEX
  8
0
 62
7
  6
CONTINUOUS
 10
159.8839587578
 20
156.8546278549
  0
VERTEX
  8
0
 62
7
  6
CONTINUOUS
 10
159.7088942197
 20
156.389014814
  0
VERTEX
  8
0
 62
7
  6
CONTINUOUS
 10
159.5501258178
 20
155.8873903336
  0
VERTEX
  8
0
 62
7
  6
CONTINUOUS
 10
159.407421072
 20
155.3540541314
  0
VERTEX
  8
0
 62
7
  6
CONTINUOUS
 10
159.2807328384
 20
154.7936631096
  0
VERTEX
  8
0
 62
7
  6
CONTINUOUS
 10
159.1700453074
 20
154.2110523041
  0
VERTEX
  8
0
 62
7
  6
CONTINUOUS
 10
159.0753164561
 20
153.6112273772
  0
VERTEX
  8
0
 62
7
  6
CONTINUOUS
 10
159.0034386423
 20
153.0594342558
  0
SEQEND
  0
POLYLINE
  8
0
 62
6
  6
CONTINUOUS
 66
1
 70
0
  0
VERTEX
  8
0
 62
6
  6
CONTINUOUS
 10
150.6064522822
 20
96.5681428868
  0
VERTEX
  8
0
 62
6
  6
CONTINUOUS
 10
150.6036541559
 20
96.5774043084
  0
VERTEX
  8
0
 62
6
  6
CONTINUOUS
 10
150.61107899
 20
96.5872625697
  0
SEQEND
  0
POLYLINE
  8
0
 62
7
  6
CONTINUOUS
 66
1
 70
0
  0
VERTEX
  8
0
 62
7
  6
CONTINUOUS
 10
132.5608402643
 20
157.3512341211
  0
VERTEX
  8
0
 62
7
  6
CONTINUOUS
 10
132.5329536185
 20
157.5200291745
  0
VERTEX
  8
0
 62
7
  6
CONTINUOUS
 10
132.5021097171
 20
157.6845893909
  0
VERTEX
  8
0
 62
7
  6
CONTINUOUS
 10
132.4712259663
 20
157.8280276674
  0
VERTEX
  8
0
 62
7
  6
CONTINUOUS
 10
132.4398879197
 20
157.9537059679
  0
VERTEX
  8
0
 62
7
  6
CONTINUOUS
 10
132.4073865344
 20
158.0650196382
  0
VERTEX
  8
0
 62
7
  6
CONTINUOUS
 10
132.3724742316
 20
158.1656292597
  0
VERTEX
  8
0
 62
7
  6
CONTINUOUS
 10
132.3329376044
 20
158.2595941308
  0
VERTEX
  8
0
 62
7
  6
CONTINUOUS
 10
132.2851490131
 20
158.3507899118
  0
VERTEX
  8
0
 62
7
  6
CONTINUOUS
 10
132.2234399699
 20
158.4421020882
  0
VERTEX
  8
0
 62
7
  6
CONTINUOUS
 10
132.1403429025
 20
158.5331498421
  0
VERTEX
  8
0
 62
7
  6
CONTINUOUS
 10
132.0305376374
 20
158.6166194012
  0
VERTEX
  8
0
 62
7
  6
CONTINUOUS
 10
131.8963838553
 20
158.6799297084
  0
VERTEX
  8
0
 62
7
  6
CONTINUOUS
 10
131.7491376
 20
158.7127731838
  0
VERTEX
  8
0
 62
7
  6
CONTINUOUS
 10
131.6743818943
 20
158.7168102379
  0
SEQEND
  0
LINE
  8
0
 62
7
  6
CONTINUOUS
 10
132.5767437696
 20
157.2465149844
 11
132.5608389851
 21
157.3512423265
  0
POLYLINE
  8
0
 62
7
  6
CONTINUOUS
 66
1
 70
0
  0
VERTEX
  8
0
 62
7
  6
CONTINUOUS
 10
133.6329837715
 20
153.0594342558
  0
VERTEX
  8
0
 62
7
  6
CONTINUOUS
 10
133.5611059577
 20
153.6112273772
  0
VERTEX
  8
0
 62
7
  6
CONTINUOUS
 10
133.4663771064
 20
154.2110523041
  0
VERTEX
  8
0
 62
7
  6
CONTINUOUS
 10
133.3556895754
 20
154.7936631096
  0
VERTEX
  8
0
 62
7
  6
CONTINUOUS
 10
133.2290013418
 20
155.3540541314
  0
VERTEX
  8
0
 62
7
  6
CONTINUOUS
 10
133.086296596
 20
155.8873903336
  0
VERTEX
  8
0
 62
7
  6
CONTINUOUS
 10
132.9275281941
 20
156.389014814
  0
VERTEX
  8
0
 62
7
  6
CONTINUOUS
 10
132.7524636559
 20
156.8546278549
  0
SEQEND
  0
POLYLINE
  8
0
 62
7
  6
CONTINUOUS
 66
1
 70
0
  0
VERTEX
  8
0
 62
7
  6
CONTINUOUS
 10
142.2063309305
 20
147.2312365765
  0
VERTEX
  8
0
 62
7
  6
CONTINUOUS
 10
142.2103039074
 20
146.9379144576
  0
VERTEX
  8
0
 62
7
  6
CONTINUOUS
 10
142.2104302309
 20
146.8583209146
  0
VERTEX
  8
0
 62
7
  6
CONTINUOUS
 10
142.2091515515
 20
146.7792582534
  0
VERTEX
  8
0
 62
7
  6
CONTINUOUS
 10
142.2062650746
 20
146.7010065291
  0
VERTEX
  8
0
 62
7
  6
CONTINUOUS
 10
142.2015496726
 20
146.6237882851
  0
VERTEX
  8
0
 62
7
  6
CONTINUOUS
 10
142.1948067521
 20
146.5478232362
  0
VERTEX
  8
0
 62
7
  6
CONTINUOUS
 10
142.1858604059
 20
146.4735440915
  0
VERTEX
  8
0
 62
7
  6
CONTINUOUS
 10
142.1745408887
 20
146.4014590932
  0
VERTEX
  8
0
 62
7
  6
CONTINUOUS
 10
142.1606494895
 20
146.3313544243
  0
VERTEX
  8
0
 62
7
  6
CONTINUOUS
 10
142.1439496136
 20
146.2637042722
  0
VERTEX
  8
0
 62
7
  6
CONTINUOUS
 10
142.1242350718
 20
146.1996360879
  0
VERTEX
  8
0
 62
7
  6
CONTINUOUS
 10
142.1008883942
 20
146.1401462629
  0
VERTEX
  8
0
 62
7
  6
CONTINUOUS
 10
142.073419971
 20
146.084877314
  0
VERTEX
  8
0
 62
7
  6
CONTINUOUS
 10
142.0424050944
 20
146.0354327847
  0
VERTEX
  8
0
 62
7
  6
CONTINUOUS
 10
142.0089624084
 20
145.9932538118
  0
VERTEX
  8
0
 62
7
  6
CONTINUOUS
 10
141.9730925171
 20
145.95797952
  0
VERTEX
  8
0
 62
7
  6
CONTINUOUS
 10
141.9347723417
 20
145.9296837085
  0
VERTEX
  8
0
 62
7
  6
CONTINUOUS
 10
141.8939413412
 20
145.9089736029
  0
VERTEX
  8
0
 62
7
  6
CONTINUOUS
 10
141.8511445185
 20
145.8973853409
  0
VERTEX
  8
0
 62
7
  6
CONTINUOUS
 10
141.8277747202
 20
145.8956188307
  0
SEQEND
  0
LINE
  8
0
 62
7
  6
CONTINUOUS
 10
142.2039149561
 20
147.5142583132
 11
142.2063309305
 21
147.2312365765
  0
LINE
  8
0
 62
7
  6
CONTINUOUS
 10
142.2033793638
 20
153.0583464388
 11
142.2039149561
 21
147.5142583132
  0
LINE
  8
0
 62
7
  6
CONTINUOUS
 10
145.1682112069
 20
119.8168103448
 11
145.1682112069
 21
129.8168103448
  0
LINE
  8
0
 62
6
  6
CONTINUOUS
 10
146.3182112069
 20
103.7383586185
 11
146.3182112069
 21
158.7168070983
  0
LINE
  8
0
 62
7
  6
CONTINUOUS
 10
142.03304305
 20
96.5752046205
 11
142.032983724
 21
96.5741965834
  0
LINE
  8
0
 62
7
  6
CONTINUOUS
 10
140.9608391207
 20
92.2823792331
 11
140.9767414951
 21
92.3871047781
  0
POLYLINE
  8
0
 62
6
  6
CONTINUOUS
 66
1
 70
0
  0
VERTEX
  8
0
 62
6
  6
CONTINUOUS
 10
159.0064522825
 20
153.0654778033
  0
VERTEX
  8
0
 62
6
  6
CONTINUOUS
 10
159.0036541558
 20
153.0562163815
  0
VERTEX
  8
0
 62
6
  6
CONTINUOUS
 10
159.01107899
 20
153.0463581199
  0
SEQEND
  0
LINE
  8
0
 62
7
  6
CONTINUOUS
 10
132.7524636559
 20
156.8546278549
 11
132.5726803807
 21
157.2555770766
  0
POLYLINE
  8
0
 62
7
  6
CONTINUOUS
 66
1
 70
0
  0
VERTEX
  8
0
 62
7
  6
CONTINUOUS
 10
151.6755820323
 20
92.2823873206
  0
VERTEX
  8
0
 62
7
  6
CONTINUOUS
 10
151.703243844
 20
92.1148747514
  0
VERTEX
  8
0
 62
7
  6
CONTINUOUS
 10
151.7341486419
 20
91.9498485333
  0
VERTEX
  8
0
 62
7
  6
CONTINUOUS
 10
151.7650974284
 20
91.806020832
  0
VERTEX
  8
0
 62
7
  6
CONTINUOUS
 10
151.7965066157
 20
91.6800182089
  0
VERTEX
  8
0
 62
7
  6
CONTINUOUS
 10
151.8290897568
 20
91.5684313698
  0
VERTEX
  8
0
 62
7
  6
CONTINUOUS
 10
151.8641047655
 20
91.467580051
  0
VERTEX
  8
0
 62
7
  6
CONTINUOUS
 10
151.9037882638
 20
91.3733765845
  0
VERTEX
  8
0
 62
7
  6
CONTINUOUS
 10
151.9518153817
 20
91.2819126587
  0
VERTEX
  8
0
 62
7
  6
CONTINUOUS
 10
152.0139250324
 20
91.190305436
  0
VERTEX
  8
0
 62
7
  6
CONTINUOUS
 10
152.0976539572
 20
91.0990145684
  0
VERTEX
  8
0
 62
7
  6
CONTINUOUS
 10
152.2082993684
 20
91.0155266608
  0
VERTEX
  8
0
 62
7
  6
CONTINUOUS
 10
152.3432890339
 20
90.9525829374
  0
VERTEX
  8
0
 62
7
  6
CONTINUOUS
 10
152.4911238232
 20
90.9204407816
  0
VERTEX
  8
0
 62
7
  6
CONTINUOUS
 10
152.5620379657
 20
90.9168104488
  0
SEQEND
  0
LINE
  8
0
 62
7
  6
CONTINUOUS
 10
151.6596809188
 20
92.3871047778
 11
151.6755832931
 21
92.2823792331
  0
POLYLINE
  8
0
 62
7
  6
CONTINUOUS
 66
1
 70
0
  0
VERTEX
  8
0
 62
7
  6
CONTINUOUS
 10
150.603438639
 20
96.574186462
  0
VERTEX
  8
0
 62
7
  6
CONTINUOUS
 10
150.6748158941
 20
96.0258950796
  0
VERTEX
  8
0
 62
7
  6
CONTINUOUS
 10
150.7694653554
 20
95.4259136642
  0
VERTEX
  8
0
 62
7
  6
CONTINUOUS
 10
150.8800759603
 20
94.8431266997
  0
VERTEX
  8
0
 62
7
  6
CONTINUOUS
 10
151.0066898465
 20
94.2825410334
  0
VERTEX
  8
0
 62
7
  6
CONTINUOUS
 10
151.1493226008
 20
93.7489933551
  0
VERTEX
  8
0
 62
7
  6
CONTINUOUS
 10
151.3080205251
 20
93.2471429771
  0
VERTEX
  8
0
 62
7
  6
CONTINUOUS
 10
151.4830143067
 20
92.7812923717
  0
SEQEND
  0
LINE
  8
0
 62
7
  6
CONTINUOUS
 10
150.6034386686
 20
96.5741923277
 11
150.6033793667
 21
96.5752122394
  0
LINE
  8
0
 62
7
  6
CONTINUOUS
 10
150.4329837419
 20
153.0594283902
 11
150.4330430471
 21
153.0584084503
  0
POLYLINE
  8
0
 62
7
  6
CONTINUOUS
 66
1
 70
0
  0
VERTEX
  8
0
 62
7
  6
CONTINUOUS
 10
150.426080545
 20
146.9338087042
  0
VERTEX
  8
0
 62
7
  6
CONTINUOUS
 10
150.4300450215
 20
147.22727269
  0
VERTEX
  8
0
 62
7
  6
CONTINUOUS
 10
150.4324867654
 20
147.5102848915
  0
VERTEX
  8
0
 62
7
  6
CONTINUOUS
 10
150.43304305
 20
153.0583464388
  0
SEQEND
  0
POLYLINE
  8
0
 62
7
  6
CONTINUOUS
 66
1
 70
0
  0
VERTEX
  8
0
 62
7
  6
CONTINUOUS
 10
150.6103084859
 20
102.6961831597
  0
VERTEX
  8
0
 62
7
  6
CONTINUOUS
 10
150.6063309307
 20
102.4023840625
  0
VERTEX
  8
0
 62
7
  6
CONTINUOUS
 10
150.6039149563
 20
102.119362402
  0
VERTEX
  8
0
 62
7
  6
CONTINUOUS
 10
150.6033793638
 20
96.5752742509
  0
SEQEND
  0
LINE
  8
0
 62
7
  6
CONTINUOUS
 10
160.0755834287
 20
157.3512423265
 11
160.0596786442
 21
157.2465149844
  0
POLYLINE
  8
0
 62
7
  6
CONTINUOUS
 66
1
 70
0
  0
VERTEX
  8
0
 62
7
  6
CONTINUOUS
 10
140.9726814239
 20
92.3780457391
  0
VERTEX
  8
0
 62
7
  6
CONTINUOUS
 10
141.153408151
 20
92.7812924786
  0
VERTEX
  8
0
 62
7
  6
CONTINUOUS
 10
141.3284019688
 20
93.2471432098
  0
VERTEX
  8
0
 62
7
  6
CONTINUOUS
 10
141.4870999219
 20
93.7489937299
  0
VERTEX
  8
0
 62
7
  6
CONTINUOUS
 10
141.6297326975
 20
94.2825415633
  0
VERTEX
  8
0
 62
7
  6
CONTINUOUS
 10
141.7563465974
 20
94.8431273942
  0
VERTEX
  8
0
 62
7
  6
CONTINUOUS
 10
141.8669572082
 20
95.4259145292
  0
VERTEX
  8
0
 62
7
  6
CONTINUOUS
 10
141.961606668
 20
96.0258961176
  0
VERTEX
  8
0
 62
7
  6
CONTINUOUS
 10
142.0329837748
 20
96.574186462
  0
SEQEND
  0
POLYLINE
  8
0
 62
7
  6
CONTINUOUS
 66
1
 70
0
  0
VERTEX
  8
0
 62
7
  6
CONTINUOUS
 10
142.032983724
 20
96.5741965834
  0
VERTEX
  8
0
 62
7
  6
CONTINUOUS
 10
142.0271720236
 20
96.5655996854
  0
VERTEX
  8
0
 62
7
  6
CONTINUOUS
 10
142.0080852706
 20
96.556806367
  0
VERTEX
  8
0
 62
7
  6
CONTINUOUS
 10
141.9768840235
 20
96.5500779242
  0
VERTEX
  8
0
 62
7
  6
CONTINUOUS
 10
141.9355654776
 20
96.5457582209
  0
VERTEX
  8
0
 62
7
  6
CONTINUOUS
 10
141.8868691315
 20
96.5439693342
  0
VERTEX
  8
0
 62
7
  6
CONTINUOUS
 10
141.83304305
 20
96.5445290216
  0
SEQEND
  0
POLYLINE
  8
0
 62
7
  6
CONTINUOUS
 66
1
 70
0
  0
VERTEX
  8
0
 62
7
  6
CONTINUOUS
 10
149.3608402643
 20
157.3512341211
  0
VERTEX
  8
0
 62
7
  6
CONTINUOUS
 10
149.3329536185
 20
157.5200291745
  0
VERTEX
  8
0
 62
7
  6
CONTINUOUS
 10
149.3021097171
 20
157.6845893909
  0
VERTEX
  8
0
 62
7
  6
CONTINUOUS
 10
149.2712259663
 20
157.8280276674
  0
VERTEX
  8
0
 62
7
  6
CONTINUOUS
 10
149.2398879197
 20
157.9537059679
  0
VERTEX
  8
0
 62
7
  6
CONTINUOUS
 10
149.2073865344
 20
158.0650196382
  0
VERTEX
  8
0
 62
7
  6
CONTINUOUS
 10
149.1724742316
 20
158.1656292597
  0
VERTEX
  8
0
 62
7
  6
CONTINUOUS
 10
149.1329376044
 20
158.2595941308
  0
VERTEX
  8
0
 62
7
  6
CONTINUOUS
 10
149.0851490131
 20
158.3507899118
  0
VERTEX
  8
0
 62
7
  6
CONTINUOUS
 10
149.0234399699
 20
158.4421020882
  0
VERTEX
  8
0
 62
7
  6
CONTINUOUS
 10
148.9403429025
 20
158.5331498421
  0
VERTEX
  8
0
 62
7
  6
CONTINUOUS
 10
148.8305376374
 20
158.6166194012
  0
VERTEX
  8
0
 62
7
  6
CONTINUOUS
 10
148.6963838553
 20
158.6799297084
  0
VERTEX
  8
0
 62
7
  6
CONTINUOUS
 10
148.5491376
 20
158.7127731838
  0
VERTEX
  8
0
 62
7
  6
CONTINUOUS
 10
148.4743818943
 20
158.7168102379
  0
SEQEND
  0
LINE
  8
0
 62
7
  6
CONTINUOUS
 10
149.3767437696
 20
157.2465149844
 11
149.3608389851
 21
157.3512423265
  0
POLYLINE
  8
0
 62
7
  6
CONTINUOUS
 66
1
 70
0
  0
VERTEX
  8
0
 62
7
  6
CONTINUOUS
 10
150.4329837715
 20
153.0594342558
  0
VERTEX
  8
0
 62
7
  6
CONTINUOUS
 10
150.3611059577
 20
153.6112273772
  0
VERTEX
  8
0
 62
7
  6
CONTINUOUS
 10
150.2663771064
 20
154.2110523041
  0
VERTEX
  8
0
 62
7
  6
CONTINUOUS
 10
150.1556895754
 20
154.7936631096
  0
VERTEX
  8
0
 62
7
  6
CONTINUOUS
 10
150.0290013418
 20
155.3540541314
  0
VERTEX
  8
0
 62
7
  6
CONTINUOUS
 10
149.886296596
 20
155.8873903336
  0
VERTEX
  8
0
 62
7
  6
CONTINUOUS
 10
149.7275281941
 20
156.389014814
  0
VERTEX
  8
0
 62
7
  6
CONTINUOUS
 10
149.5524636559
 20
156.8546278549
  0
SEQEND
  0
POLYLINE
  8
0
 62
7
  6
CONTINUOUS
 66
1
 70
0
  0
VERTEX
  8
0
 62
7
  6
CONTINUOUS
 10
159.0063309305
 20
147.2312365765
  0
VERTEX
  8
0
 62
7
  6
CONTINUOUS
 10
159.0103039074
 20
146.9379144576
  0
VERTEX
  8
0
 62
7
  6
CONTINUOUS
 10
159.0104302309
 20
146.8583209146
  0
VERTEX
  8
0
 62
7
  6
CONTINUOUS
 10
159.0091515515
 20
146.7792582534
  0
VERTEX
  8
0
 62
7
  6
CONTINUOUS
 10
159.0062650746
 20
146.7010065291
  0
VERTEX
  8
0
 62
7
  6
CONTINUOUS
 10
159.0015496726
 20
146.6237882851
  0
VERTEX
  8
0
 62
7
  6
CONTINUOUS
 10
158.9948067521
 20
146.5478232362
  0
VERTEX
  8
0
 62
7
  6
CONTINUOUS
 10
158.9858604059
 20
146.4735440915
  0
VERTEX
  8
0
 62
7
  6
CONTINUOUS
 10
158.9745408887
 20
146.4014590932
  0
VERTEX
  8
0
 62
7
  6
CONTINUOUS
 10
158.9606494895
 20
146.3313544243
  0
VERTEX
  8
0
 62
7
  6
CONTINUOUS
 10
158.9439496136
 20
146.2637042722
  0
VERTEX
  8
0
 62
7
  6
CONTINUOUS
 10
158.9242350718
 20
146.1996360879
  0
VERTEX
  8
0
 62
7
  6
CONTINUOUS
 10
158.9008883942
 20
146.1401462629
  0
VERTEX
  8
0
 62
7
  6
CONTINUOUS
 10
158.873419971
 20
146.084877314
  0
VERTEX
  8
0
 62
7
  6
CONTINUOUS
 10
158.8424050944
 20
146.0354327847
  0
VERTEX
  8
0
 62
7
  6
CONTINUOUS
 10
158.8089624084
 20
145.9932538118
  0
VERTEX
  8
0
 62
7
  6
CONTINUOUS
 10
158.7730925171
 20
145.95797952
  0
VERTEX
  8
0
 62
7
  6
CONTINUOUS
 10
158.7347723417
 20
145.9296837085
  0
VERTEX
  8
0
 62
7
  6
CONTINUOUS
 10
158.6939413412
 20
145.9089736029
  0
VERTEX
  8
0
 62
7
  6
CONTINUOUS
 10
158.6511445185
 20
145.8973853409
  0
VERTEX
  8
0
 62
7
  6
CONTINUOUS
 10
158.6277747202
 20
145.8956188307
  0
SEQEND
  0
POLYLINE
  8
0
 62
7
  6
CONTINUOUS
 66
1
 70
0
  0
VERTEX
  8
0
 62
7
  6
CONTINUOUS
 10
158.8300446186
 20
102.4063518431
  0
VERTEX
  8
0
 62
7
  6
CONTINUOUS
 10
158.8260748976
 20
102.7003836141
  0
VERTEX
  8
0
 62
7
  6
CONTINUOUS
 10
158.8260282312
 20
102.7802527871
  0
VERTEX
  8
0
 62
7
  6
CONTINUOUS
 10
158.8274049959
 20
102.8594282503
  0
VERTEX
  8
0
 62
7
  6
CONTINUOUS
 10
158.8304041053
 20
102.9376502241
  0
VERTEX
  8
0
 62
7
  6
CONTINUOUS
 10
158.8352396751
 20
103.0147213436
  0
VERTEX
  8
0
 62
7
  6
CONTINUOUS
 10
158.8421008048
 20
103.0904345162
  0
VERTEX
  8
0
 62
7
  6
CONTINUOUS
 10
158.8511567032
 20
103.1643617851
  0
VERTEX
  8
0
 62
7
  6
CONTINUOUS
 10
158.862572359
 20
103.2360569613
  0
VERTEX
  8
0
 62
7
  6
CONTINUOUS
 10
158.8765283351
 20
103.3056559835
  0
VERTEX
  8
0
 62
7
  6
CONTINUOUS
 10
158.8932960896
 20
103.3728915695
  0
VERTEX
  8
0
 62
7
  6
CONTINUOUS
 10
158.9129982416
 20
103.4363206104
  0
VERTEX
  8
0
 62
7
  6
CONTINUOUS
 10
158.9363496395
 20
103.4953155028
  0
VERTEX
  8
0
 62
7
  6
CONTINUOUS
 10
158.9637525231
 20
103.5500855078
  0
VERTEX
  8
0
 62
7
  6
CONTINUOUS
 10
158.9946016569
 20
103.5990167752
  0
VERTEX
  8
0
 62
7
  6
CONTINUOUS
 10
159.0280656598
 20
103.641043138
  0
VERTEX
  8
0
 62
7
  6
CONTINUOUS
 10
159.0642008618
 20
103.6763868127
  0
VERTEX
  8
0
 62
7
  6
CONTINUOUS
 10
159.1029641035
 20
103.7047519561
  0
VERTEX
  8
0
 62
7
  6
CONTINUOUS
 10
159.1442377031
 20
103.7253282538
  0
VERTEX
  8
0
 62
7
  6
CONTINUOUS
 10
159.1872350393
 20
103.736511281
  0
VERTEX
  8
0
 62
7
  6
CONTINUOUS
 10
159.2084739425
 20
103.7380012932
  0
SEQEND
  0
LINE
  8
0
 62
7
  6
CONTINUOUS
 10
158.8324866732
 20
102.1233376741
 11
158.8300446186
 21
102.4063518431
  0
LINE
  8
0
 62
7
  6
CONTINUOUS
 10
159.0039149561
 20
147.5142583132
 11
159.0063309305
 21
147.2312365765
  0
LINE
  8
0
 62
7
  6
CONTINUOUS
 10
158.8324866732
 20
102.1233376741
 11
158.83304305
 21
96.5752367336
  0
LINE
  8
0
 62
7
  6
CONTINUOUS
 10
159.0033793638
 20
153.0583464388
 11
159.0039149561
 21
147.5142583132
  0
LINE
  8
0
 62
7
  6
CONTINUOUS
 10
159.7682112069
 20
129.8168103448
 11
159.7682112069
 21
119.8168103448
  0
LINE
  8
0
 62
7
  6
CONTINUOUS
 10
159.0034386719
 20
153.0594283902
 11
159.0033793667
 21
153.0584084503
  0
LINE
  8
0
 62
7
  6
CONTINUOUS
 10
158.83304305
 20
96.5752046205
 11
158.832983724
 21
96.5741965834
  0
LINE
  8
0
 62
7
  6
CONTINUOUS
 10
149.5524636559
 20
156.8546278549
 11
149.3726803807
 21
157.2555770766
  0
POLYLINE
  8
0
 62
6
  6
CONTINUOUS
 66
1
 70
0
  0
VERTEX
  8
0
 62
6
  6
CONTINUOUS
 10
150.4299701312
 20
153.0654778033
  0
VERTEX
  8
0
 62
6
  6
CONTINUOUS
 10
150.432768258
 20
153.0562163815
  0
VERTEX
  8
0
 62
6
  6
CONTINUOUS
 10
150.4253434238
 20
153.0463581199
  0
SEQEND
  0
LINE
  8
0
 62
6
  6
CONTINUOUS
 10
163.1182112069
 20
103.7383232895
 11
163.1182112069
 21
158.7168070983
  0
LINE
  8
0
 62
7
  6
CONTINUOUS
 10
157.7608391207
 20
92.2823792331
 11
157.7767414951
 21
92.3871047781
  0
POLYLINE
  8
0
 62
7
  6
CONTINUOUS
 66
1
 70
0
  0
VERTEX
  8
0
 62
7
  6
CONTINUOUS
 10
157.7726814239
 20
92.3780457391
  0
VERTEX
  8
0
 62
7
  6
CONTINUOUS
 10
157.953408151
 20
92.7812924786
  0
VERTEX
  8
0
 62
7
  6
CONTINUOUS
 10
158.1284019688
 20
93.2471432098
  0
VERTEX
  8
0
 62
7
  6
CONTINUOUS
 10
158.2870999219
 20
93.7489937299
  0
VERTEX
  8
0
 62
7
  6
CONTINUOUS
 10
158.4297326975
 20
94.2825415633
  0
VERTEX
  8
0
 62
7
  6
CONTINUOUS
 10
158.5563465974
 20
94.8431273942
  0
VERTEX
  8
0
 62
7
  6
CONTINUOUS
 10
158.6669572082
 20
95.4259145292
  0
VERTEX
  8
0
 62
7
  6
CONTINUOUS
 10
158.761606668
 20
96.0258961176
  0
VERTEX
  8
0
 62
7
  6
CONTINUOUS
 10
158.8329837748
 20
96.574186462
  0
SEQEND
  0
POLYLINE
  8
0
 62
7
  6
CONTINUOUS
 66
1
 70
0
  0
VERTEX
  8
0
 62
7
  6
CONTINUOUS
 10
158.832983724
 20
96.5741965834
  0
VERTEX
  8
0
 62
7
  6
CONTINUOUS
 10
158.8271720236
 20
96.5655996854
  0
VERTEX
  8
0
 62
7
  6
CONTINUOUS
 10
158.8080852706
 20
96.556806367
  0
VERTEX
  8
0
 62
7
  6
CONTINUOUS
 10
158.7768840235
 20
96.5500779242
  0
VERTEX
  8
0
 62
7
  6
CONTINUOUS
 10
158.7355654776
 20
96.5457582209
  0
VERTEX
  8
0
 62
7
  6
CONTINUOUS
 10
158.6868691315
 20
96.5439693342
  0
VERTEX
  8
0
 62
7
  6
CONTINUOUS
 10
158.63304305
 20
96.5445290216
  0
SEQEND
  0
LINE
  8
0
 62
7
  6
CONTINUOUS
 10
167.2182112069
 20
103.938904168
 11
167.2182112069
 21
158.516877524
  0
POLYLINE
  8
0
 62
7
  6
CONTINUOUS
 66
1
 70
0
  0
VERTEX
  8
0
 62
7
  6
CONTINUOUS
 10
167.2182112069
 20
153.0540624483
  0
VERTEX
  8
0
 62
7
  6
CONTINUOUS
 10
167.2132863368
 20
153.0618252154
  0
VERTEX
  8
0
 62
7
  6
CONTINUOUS
 10
167.1987018219
 20
153.0692053405
  0
VERTEX
  8
0
 62
7
  6
CONTINUOUS
 10
167.1750933602
 20
153.0758395379
  0
VERTEX
  8
0
 62
7
  6
CONTINUOUS
 10
167.1435549104
 20
153.0813956121
  0
VERTEX
  8
0
 62
7
  6
CONTINUOUS
 10
167.1056037258
 20
153.0855897998
  0
VERTEX
  8
0
 62
7
  6
CONTINUOUS
 10
167.063112601
 20
153.0882027134
  0
VERTEX
  8
0
 62
7
  6
CONTINUOUS
 10
167.0182112069
 20
153.0890916681
  0
SEQEND
  0
POLYLINE
  8
0
 62
7
  6
CONTINUOUS
 66
1
 70
0
  0
VERTEX
  8
0
 62
7
  6
CONTINUOUS
 10
167.218210891
 20
158.516999142
  0
VERTEX
  8
0
 62
7
  6
CONTINUOUS
 10
167.2131718309
 20
158.5614153982
  0
VERTEX
  8
0
 62
7
  6
CONTINUOUS
 10
167.1983963763
 20
158.603598013
  0
VERTEX
  8
0
 62
7
  6
CONTINUOUS
 10
167.1746208187
 20
158.6414481738
  0
VERTEX
  8
0
 62
7
  6
CONTINUOUS
 10
167.1430323665
 20
158.6730736865
  0
VERTEX
  8
0
 62
7
  6
CONTINUOUS
 10
167.1052083466
 20
158.6968944768
  0
VERTEX
  8
0
 62
7
  6
CONTINUOUS
 10
167.063038551
 20
158.7117200406
  0
VERTEX
  8
0
 62
7
  6
CONTINUOUS
 10
167.0182020281
 20
158.7168103438
  0
SEQEND
  0
LINE
  8
0
 62
7
  6
CONTINUOUS
 10
16.2182112069
 20
198.6315344828
 11
16.2182112069
 21
213.4315344828
  0
LINE
  8
0
 62
7
  6
CONTINUOUS
 10
23.6682112069
 20
210.6315344828
 11
23.6682112069
 21
210.727417957
  0
LINE
  8
0
 62
7
  6
CONTINUOUS
 10
20.8532212021
 20
197.6315344828
 11
21.0013192062
 21
199.7494346134
  0
LINE
  8
0
 62
7
  6
CONTINUOUS
 10
22.5185696472
 20
198.8870959699
 11
23.3821038985
 21
209.6905754392
  0
POLYLINE
  8
0
 62
7
  6
CONTINUOUS
 66
1
 70
0
  0
VERTEX
  8
0
 62
7
  6
CONTINUOUS
 10
23.1150906499
 20
206.3500337854
  0
VERTEX
  8
0
 62
7
  6
CONTINUOUS
 10
23.1198891919
 20
206.3881518277
  0
VERTEX
  8
0
 62
7
  6
CONTINUOUS
 10
23.1308831174
 20
206.4358028467
  0
VERTEX
  8
0
 62
7
  6
CONTINUOUS
 10
23.1414137263
 20
206.4677851866
  0
SEQEND
  0
POLYLINE
  8
0
 62
7
  6
CONTINUOUS
 66
1
 70
0
  0
VERTEX
  8
0
 62
7
  6
CONTINUOUS
 10
21.0013189372
 20
199.7494305236
  0
VERTEX
  8
0
 62
7
  6
CONTINUOUS
 10
21.0147930367
 20
199.8282765651
  0
VERTEX
  8
0
 62
7
  6
CONTINUOUS
 10
21.045945449
 20
199.9122793526
  0
VERTEX
  8
0
 62
7
  6
CONTINUOUS
 10
21.0523493418
 20
199.9253584524
  0
SEQEND
  0
LINE
  8
0
 62
7
  6
CONTINUOUS
 10
26.5178527661
 20
198.887095977
 11
25.9173599765
 21
206.3997238927
  0
LINE
  8
0
 62
7
  6
CONTINUOUS
 10
27.3951686456
 20
197.7732604626
 11
27.3997654428
 21
197.6416254146
  0
LINE
  8
0
 62
7
  6
CONTINUOUS
 10
24.4253434238
 20
213.3765748044
 11
23.3997633311
 21
209.7881361346
  0
LINE
  8
0
 62
7
  6
CONTINUOUS
 10
23.1414040829
 20
206.467759061
 11
23.1659603189
 21
206.5236497112
  0
POLYLINE
  8
0
 62
7
  6
CONTINUOUS
 66
1
 70
0
  0
VERTEX
  8
0
 62
7
  6
CONTINUOUS
 10
25.9138972259
 20
206.3997238927
  0
VERTEX
  8
0
 62
7
  6
CONTINUOUS
 10
25.9163436666
 20
206.3892441044
  0
VERTEX
  8
0
 62
7
  6
CONTINUOUS
 10
25.9213317608
 20
206.3500338765
  0
SEQEND
  0
POLYLINE
  8
0
 62
7
  6
CONTINUOUS
 66
1
 70
0
  0
VERTEX
  8
0
 62
7
  6
CONTINUOUS
 10
26.5178409533
 20
198.8872615645
  0
VERTEX
  8
0
 62
7
  6
CONTINUOUS
 10
26.5317256447
 20
198.7807493218
  0
VERTEX
  8
0
 62
7
  6
CONTINUOUS
 10
26.5697077849
 20
198.6328019743
  0
VERTEX
  8
0
 62
7
  6
CONTINUOUS
 10
26.6279827964
 20
198.4929155247
  0
VERTEX
  8
0
 62
7
  6
CONTINUOUS
 10
26.7050838724
 20
198.3638906006
  0
VERTEX
  8
0
 62
7
  6
CONTINUOUS
 10
26.7991516564
 20
198.2483228542
  0
VERTEX
  8
0
 62
7
  6
CONTINUOUS
 10
26.9080605119
 20
198.1484236784
  0
VERTEX
  8
0
 62
7
  6
CONTINUOUS
 10
27.0293628927
 20
198.066108537
  0
SEQEND
  0
LINE
  8
0
 62
7
  6
CONTINUOUS
 10
34.0543185153
 20
209.6905754392
 11
34.9446487556
 21
198.5518574816
  0
LINE
  8
0
 62
7
  6
CONTINUOUS
 10
31.5190624372
 20
206.3997238927
 11
30.8917736582
 21
198.5518574816
  0
POLYLINE
  8
0
 62
7
  6
CONTINUOUS
 66
1
 70
0
  0
VERTEX
  8
0
 62
7
  6
CONTINUOUS
 10
31.5150906316
 20
206.3500334944
  0
VERTEX
  8
0
 62
7
  6
CONTINUOUS
 10
31.5200787776
 20
206.3892442738
  0
VERTEX
  8
0
 62
7
  6
CONTINUOUS
 10
31.522525183
 20
206.3997238927
  0
SEQEND
  0
POLYLINE
  8
0
 62
7
  6
CONTINUOUS
 66
1
 70
0
  0
VERTEX
  8
0
 62
7
  6
CONTINUOUS
 10
21.0523493418
 20
199.9253584524
  0
VERTEX
  8
0
 62
7
  6
CONTINUOUS
 10
21.0969753139
 20
200.0009225362
  0
VERTEX
  8
0
 62
7
  6
CONTINUOUS
 10
21.1700895694
 20
200.0936397
  0
VERTEX
  8
0
 62
7
  6
CONTINUOUS
 10
21.2668220695
 20
200.1898405086
  0
VERTEX
  8
0
 62
7
  6
CONTINUOUS
 10
21.3866552514
 20
200.2891934081
  0
VERTEX
  8
0
 62
7
  6
CONTINUOUS
 10
21.5259843779
 20
200.3928599426
  0
SEQEND
  0
POLYLINE
  8
0
 62
7
  6
CONTINUOUS
 66
1
 70
0
  0
VERTEX
  8
0
 62
7
  6
CONTINUOUS
 10
21.0523145159
 20
199.9253680818
  0
VERTEX
  8
0
 62
7
  6
CONTINUOUS
 10
21.0869985379
 20
199.9840843674
  0
VERTEX
  8
0
 62
7
  6
CONTINUOUS
 10
21.1434960821
 20
200.0524528122
  0
VERTEX
  8
0
 62
7
  6
CONTINUOUS
 10
21.211184408
 20
200.1097633765
  0
VERTEX
  8
0
 62
7
  6
CONTINUOUS
 10
21.2879336992
 20
200.1542127898
  0
VERTEX
  8
0
 62
7
  6
CONTINUOUS
 10
21.3713290375
 20
200.1844024584
  0
VERTEX
  8
0
 62
7
  6
CONTINUOUS
 10
21.4587463868
 20
200.1993824717
  0
VERTEX
  8
0
 62
7
  6
CONTINUOUS
 10
21.4991545836
 20
200.2010179762
  0
SEQEND
  0
POLYLINE
  8
0
 62
7
  6
CONTINUOUS
 66
1
 70
0
  0
VERTEX
  8
0
 62
7
  6
CONTINUOUS
 10
23.1659603189
 20
206.5236497112
  0
VERTEX
  8
0
 62
7
  6
CONTINUOUS
 10
23.208311894
 20
206.5940426247
  0
VERTEX
  8
0
 62
7
  6
CONTINUOUS
 10
23.2639495023
 20
206.6642034304
  0
VERTEX
  8
0
 62
7
  6
CONTINUOUS
 10
23.3154221439
 20
206.716885642
  0
SEQEND
  0
LINE
  8
0
 62
7
  6
CONTINUOUS
 10
40.1821038985
 20
209.6905754392
 11
39.2917736582
 21
198.5518574816
  0
LINE
  8
0
 62
7
  6
CONTINUOUS
 10
34.2704620949
 20
206.5236497112
 11
34.2950183309
 21
206.467759061
  0
LINE
  8
0
 62
7
  6
CONTINUOUS
 10
33.01107899
 20
213.3765748044
 11
34.0366590827
 21
209.7881361346
  0
LINE
  8
0
 62
7
  6
CONTINUOUS
 10
42.7787622191
 20
205.6315344828
 11
43.3446487556
 21
198.5518574816
  0
LINE
  8
0
 62
7
  6
CONTINUOUS
 10
41.2253434238
 20
213.3765748044
 11
40.1997633311
 21
209.7881361346
  0
LINE
  8
0
 62
7
  6
CONTINUOUS
 10
39.9414040829
 20
206.467759061
 11
39.9659603189
 21
206.5236497112
  0
LINE
  8
0
 62
7
  6
CONTINUOUS
 10
23.3152947646
 20
206.7167659135
 11
23.3154221243
 21
206.7168856628
  0
POLYLINE
  8
0
 62
7
  6
CONTINUOUS
 66
1
 70
0
  0
VERTEX
  8
0
 62
7
  6
CONTINUOUS
 10
27.1065075393
 20
198.0499728417
  0
VERTEX
  8
0
 62
7
  6
CONTINUOUS
 10
27.1913240133
 20
197.9789013336
  0
VERTEX
  8
0
 62
7
  6
CONTINUOUS
 10
27.2643192402
 20
197.9196288954
  0
SEQEND
  0
POLYLINE
  8
0
 62
7
  6
CONTINUOUS
 66
1
 70
0
  0
VERTEX
  8
0
 62
7
  6
CONTINUOUS
 10
27.2643192402
 20
197.9196288954
  0
VERTEX
  8
0
 62
7
  6
CONTINUOUS
 10
27.3221969096
 20
197.8708480679
  0
VERTEX
  8
0
 62
7
  6
CONTINUOUS
 10
27.3630622531
 20
197.8311917534
  0
VERTEX
  8
0
 62
7
  6
CONTINUOUS
 10
27.3869776964
 20
197.799115283
  0
VERTEX
  8
0
 62
7
  6
CONTINUOUS
 10
27.3951663086
 20
197.7732549483
  0
SEQEND
  0
LINE
  8
0
 62
7
  6
CONTINUOUS
 10
34.2281105198
 20
206.5940426247
 11
34.2704620949
 21
206.5236497112
  0
LINE
  8
0
 62
7
  6
CONTINUOUS
 10
48.3186672854
 20
206.3947802381
 11
47.6917736582
 21
198.5518574816
  0
LINE
  8
0
 62
7
  6
CONTINUOUS
 10
46.9707997172
 20
206.0891003702
 11
46.9706996513
 21
206.0879566114
  0
POLYLINE
  8
0
 62
7
  6
CONTINUOUS
 66
1
 70
0
  0
VERTEX
  8
0
 62
7
  6
CONTINUOUS
 10
48.3150906316
 20
206.3500334944
  0
VERTEX
  8
0
 62
7
  6
CONTINUOUS
 10
48.3200787776
 20
206.3892442738
  0
VERTEX
  8
0
 62
7
  6
CONTINUOUS
 10
48.3214060063
 20
206.3949296975
  0
SEQEND
  0
POLYLINE
  8
0
 62
7
  6
CONTINUOUS
 66
1
 70
0
  0
VERTEX
  8
0
 62
7
  6
CONTINUOUS
 10
39.9659603189
 20
206.5236497112
  0
VERTEX
  8
0
 62
7
  6
CONTINUOUS
 10
40.008311894
 20
206.5940426247
  0
VERTEX
  8
0
 62
7
  6
CONTINUOUS
 10
40.0639495023
 20
206.6642034304
  0
VERTEX
  8
0
 62
7
  6
CONTINUOUS
 10
40.1154221439
 20
206.716885642
  0
SEQEND
  0
LINE
  8
0
 62
7
  6
CONTINUOUS
 10
23.3152947646
 20
206.7167659135
 11
23.3685025046
 21
206.7598672699
  0
LINE
  8
0
 62
7
  6
CONTINUOUS
 10
50.8543185153
 20
209.6905754392
 11
51.7446487556
 21
198.5518574816
  0
LINE
  8
0
 62
7
  6
CONTINUOUS
 10
40.1152947646
 20
206.7167659135
 11
40.1154221243
 21
206.7168856628
  0
POLYLINE
  8
0
 62
7
  6
CONTINUOUS
 66
1
 70
0
  0
VERTEX
  8
0
 62
7
  6
CONTINUOUS
 10
27.1107110122
 20
198.0240884468
  0
VERTEX
  8
0
 62
7
  6
CONTINUOUS
 10
27.1440924055
 20
198.0072121973
  0
VERTEX
  8
0
 62
7
  6
CONTINUOUS
 10
27.2168333416
 20
197.9581544852
  0
SEQEND
  0
LINE
  8
0
 62
7
  6
CONTINUOUS
 10
27.0293628927
 20
198.066108537
 11
27.1107109803
 21
198.0240883778
  0
LINE
  8
0
 62
7
  6
CONTINUOUS
 10
34.1211276492
 20
206.7167659135
 11
34.1210002895
 21
206.7168856628
  0
POLYLINE
  8
0
 62
7
  6
CONTINUOUS
 66
1
 70
0
  0
VERTEX
  8
0
 62
7
  6
CONTINUOUS
 10
34.1210002699
 20
206.716885642
  0
VERTEX
  8
0
 62
7
  6
CONTINUOUS
 10
34.1724729115
 20
206.6642034304
  0
VERTEX
  8
0
 62
7
  6
CONTINUOUS
 10
34.2281105198
 20
206.5940426247
  0
SEQEND
  0
LINE
  8
0
 62
7
  6
CONTINUOUS
 10
51.0704620949
 20
206.5236497112
 11
51.0950183309
 21
206.467759061
  0
LINE
  8
0
 62
7
  6
CONTINUOUS
 10
49.81107899
 20
213.3765748044
 11
50.8366590827
 21
209.7881361346
  0
LINE
  8
0
 62
7
  6
CONTINUOUS
 10
60.1446487556
 20
198.5518574816
 11
59.5173599765
 21
206.3997238927
  0
LINE
  8
0
 62
7
  6
CONTINUOUS
 10
56.9821038985
 20
209.6905754392
 11
56.0917736582
 21
198.5518574816
  0
LINE
  8
0
 62
7
  6
CONTINUOUS
 10
58.0253434238
 20
213.3765748044
 11
56.9997633311
 21
209.7881361346
  0
LINE
  8
0
 62
7
  6
CONTINUOUS
 10
56.7414040829
 20
206.467759061
 11
56.7659603189
 21
206.5236497112
  0
POLYLINE
  8
0
 62
7
  6
CONTINUOUS
 66
1
 70
0
  0
VERTEX
  8
0
 62
7
  6
CONTINUOUS
 10
46.9426898714
 20
206.0663674386
  0
VERTEX
  8
0
 62
7
  6
CONTINUOUS
 10
46.9418162001
 20
206.0652709561
  0
VERTEX
  8
0
 62
7
  6
CONTINUOUS
 10
46.9473439922
 20
206.0706085929
  0
VERTEX
  8
0
 62
7
  6
CONTINUOUS
 10
46.9732386294
 20
206.0910231341
  0
VERTEX
  8
0
 62
7
  6
CONTINUOUS
 10
47.024792537
 20
206.1233420167
  0
SEQEND
  0
LINE
  8
0
 62
7
  6
CONTINUOUS
 10
40.1152947646
 20
206.7167659135
 11
40.1685025046
 21
206.7598672699
  0
LINE
  8
0
 62
7
  6
CONTINUOUS
 10
23.3685025046
 20
206.7598672699
 11
23.449522562
 21
206.8050860406
  0
LINE
  8
0
 62
7
  6
CONTINUOUS
 10
51.0281105198
 20
206.5940426247
 11
51.0704620949
 21
206.5236497112
  0
POLYLINE
  8
0
 62
7
  6
CONTINUOUS
 66
1
 70
0
  0
VERTEX
  8
0
 62
7
  6
CONTINUOUS
 10
59.5138972259
 20
206.3997238927
  0
VERTEX
  8
0
 62
7
  6
CONTINUOUS
 10
59.5163436666
 20
206.3892441044
  0
VERTEX
  8
0
 62
7
  6
CONTINUOUS
 10
59.5213317608
 20
206.3500338765
  0
SEQEND
  0
LINE
  8
0
 62
7
  6
CONTINUOUS
 10
63.5656283622
 20
206.0890356118
 11
63.5657227625
 21
206.0879566114
  0
LINE
  8
0
 62
7
  6
CONTINUOUS
 10
65.0576601947
 20
205.6315344828
 11
64.4917736582
 21
198.5518574816
  0
POLYLINE
  8
0
 62
7
  6
CONTINUOUS
 66
1
 70
0
  0
VERTEX
  8
0
 62
7
  6
CONTINUOUS
 10
56.7659603189
 20
206.5236497112
  0
VERTEX
  8
0
 62
7
  6
CONTINUOUS
 10
56.808311894
 20
206.5940426247
  0
VERTEX
  8
0
 62
7
  6
CONTINUOUS
 10
56.8639495023
 20
206.6642034304
  0
VERTEX
  8
0
 62
7
  6
CONTINUOUS
 10
56.9154221439
 20
206.716885642
  0
SEQEND
  0
LINE
  8
0
 62
7
  6
CONTINUOUS
 10
40.1685025046
 20
206.7598672699
 11
40.249522562
 21
206.8050860406
  0
POLYLINE
  8
0
 62
7
  6
CONTINUOUS
 66
1
 70
0
  0
VERTEX
  8
0
 62
7
  6
CONTINUOUS
 10
33.9868998518
 20
206.8050860406
  0
VERTEX
  8
0
 62
7
  6
CONTINUOUS
 10
34.0679199092
 20
206.7598672699
  0
VERTEX
  8
0
 62
7
  6
CONTINUOUS
 10
34.1211276492
 20
206.7167659135
  0
SEQEND
  0
LINE
  8
0
 62
7
  6
CONTINUOUS
 10
50.9211276492
 20
206.7167659135
 11
50.9210002895
 21
206.7168856628
  0
POLYLINE
  8
0
 62
7
  6
CONTINUOUS
 66
1
 70
0
  0
VERTEX
  8
0
 62
7
  6
CONTINUOUS
 10
50.9210002699
 20
206.716885642
  0
VERTEX
  8
0
 62
7
  6
CONTINUOUS
 10
50.9724729115
 20
206.6642034304
  0
VERTEX
  8
0
 62
7
  6
CONTINUOUS
 10
51.0281105198
 20
206.5940426247
  0
SEQEND
  0
LINE
  8
0
 62
7
  6
CONTINUOUS
 10
68.5446487556
 20
198.5518574816
 11
67.6543185153
 21
209.6905754392
  0
POLYLINE
  8
0
 62
7
  6
CONTINUOUS
 66
1
 70
0
  0
VERTEX
  8
0
 62
7
  6
CONTINUOUS
 10
67.9821037712
 20
205.5897290893
  0
VERTEX
  8
0
 62
7
  6
CONTINUOUS
 10
67.9851212341
 20
205.6085479815
  0
VERTEX
  8
0
 62
7
  6
CONTINUOUS
 10
67.9979465492
 20
205.6216522453
  0
VERTEX
  8
0
 62
7
  6
CONTINUOUS
 10
68.0208836407
 20
205.6291810227
  0
VERTEX
  8
0
 62
7
  6
CONTINUOUS
 10
68.0537322733
 20
205.6315344828
  0
SEQEND
  0
LINE
  8
0
 62
7
  6
CONTINUOUS
 10
56.9152947646
 20
206.7167659135
 11
56.9154221243
 21
206.7168856628
  0
LINE
  8
0
 62
7
  6
CONTINUOUS
 10
56.9152947646
 20
206.7167659135
 11
56.9685025046
 21
206.7598672699
  0
LINE
  8
0
 62
7
  6
CONTINUOUS
 10
47.024792537
 20
206.1233420167
 11
47.1080646032
 21
206.1650252787
  0
LINE
  8
0
 62
7
  6
CONTINUOUS
 10
23.449522562
 20
206.8050860406
 11
23.5326105826
 21
206.8343851022
  0
LINE
  8
0
 62
7
  6
CONTINUOUS
 10
67.8704620949
 20
206.5236497112
 11
67.8950183309
 21
206.467759061
  0
LINE
  8
0
 62
7
  6
CONTINUOUS
 10
66.61107899
 20
213.3765748044
 11
67.6366590827
 21
209.7881361346
  0
LINE
  8
0
 62
7
  6
CONTINUOUS
 10
76.9446487556
 20
198.5518574816
 11
76.3173599765
 21
206.3997238927
  0
LINE
  8
0
 62
7
  6
CONTINUOUS
 10
72.8917736582
 20
198.5518574816
 11
73.7821038985
 21
209.6905754392
  0
POLYLINE
  8
0
 62
7
  6
CONTINUOUS
 66
1
 70
0
  0
VERTEX
  8
0
 62
7
  6
CONTINUOUS
 10
73.2167903934
 20
202.6180675028
  0
VERTEX
  8
0
 62
7
  6
CONTINUOUS
 10
73.1935786487
 20
202.4030443634
  0
VERTEX
  8
0
 62
7
  6
CONTINUOUS
 10
73.1568844512
 20
202.1879874179
  0
VERTEX
  8
0
 62
7
  6
CONTINUOUS
 10
73.1070356507
 20
201.9842847551
  0
VERTEX
  8
0
 62
7
  6
CONTINUOUS
 10
73.0466983243
 20
201.8020063036
  0
VERTEX
  8
0
 62
7
  6
CONTINUOUS
 10
72.9798352261
 20
201.6466369357
  0
VERTEX
  8
0
 62
7
  6
CONTINUOUS
 10
72.9083764342
 20
201.515742732
  0
VERTEX
  8
0
 62
7
  6
CONTINUOUS
 10
72.8328193567
 20
201.4056544857
  0
VERTEX
  8
0
 62
7
  6
CONTINUOUS
 10
72.7525899051
 20
201.3133252103
  0
VERTEX
  8
0
 62
7
  6
CONTINUOUS
 10
72.6704164633
 20
201.2402292962
  0
VERTEX
  8
0
 62
7
  6
CONTINUOUS
 10
72.5886620384
 20
201.1861167042
  0
VERTEX
  8
0
 62
7
  6
CONTINUOUS
 10
72.5090725691
 20
201.1496095962
  0
VERTEX
  8
0
 62
7
  6
CONTINUOUS
 10
72.4319459769
 20
201.128670722
  0
VERTEX
  8
0
 62
7
  6
CONTINUOUS
 10
72.3559024362
 20
201.1217701038
  0
SEQEND
  0
LINE
  8
0
 62
7
  6
CONTINUOUS
 10
74.8253434238
 20
213.3765748044
 11
73.7997633311
 21
209.7881361346
  0
LINE
  8
0
 62
7
  6
CONTINUOUS
 10
73.5414040829
 20
206.467759061
 11
73.5659603189
 21
206.5236497112
  0
POLYLINE
  8
0
 62
7
  6
CONTINUOUS
 66
1
 70
0
  0
VERTEX
  8
0
 62
7
  6
CONTINUOUS
 10
73.5659603189
 20
206.5236497112
  0
VERTEX
  8
0
 62
7
  6
CONTINUOUS
 10
73.608311894
 20
206.5940426247
  0
VERTEX
  8
0
 62
7
  6
CONTINUOUS
 10
73.6639495023
 20
206.6642034304
  0
VERTEX
  8
0
 62
7
  6
CONTINUOUS
 10
73.7154221439
 20
206.716885642
  0
SEQEND
  0
LINE
  8
0
 62
7
  6
CONTINUOUS
 10
56.9685025046
 20
206.7598672699
 11
57.049522562
 21
206.8050860406
  0
LINE
  8
0
 62
7
  6
CONTINUOUS
 10
47.1058082008
 20
206.1640093308
 11
47.2200144158
 21
206.2099115984
  0
LINE
  8
0
 62
7
  6
CONTINUOUS
 10
40.249522562
 20
206.8050860406
 11
40.3326105826
 21
206.8343851022
  0
POLYLINE
  8
0
 62
7
  6
CONTINUOUS
 66
1
 70
0
  0
VERTEX
  8
0
 62
7
  6
CONTINUOUS
 10
21.1800600679
 20
197.9078711162
  0
VERTEX
  8
0
 62
7
  6
CONTINUOUS
 10
21.0965412651
 20
197.8784977354
  0
VERTEX
  8
0
 62
7
  6
CONTINUOUS
 10
21.0063661948
 20
197.8426859003
  0
VERTEX
  8
0
 62
7
  6
CONTINUOUS
 10
20.9400108255
 20
197.8107630063
  0
VERTEX
  8
0
 62
7
  6
CONTINUOUS
 10
20.8954461746
 20
197.7827373339
  0
VERTEX
  8
0
 62
7
  6
CONTINUOUS
 10
20.8697869323
 20
197.7583047852
  0
VERTEX
  8
0
 62
7
  6
CONTINUOUS
 10
20.8605848766
 20
197.736840267
  0
SEQEND
  0
LINE
  8
0
 62
2
  6
CONTINUOUS
 10
79.2182112069
 20
185.6315344828
 11
87.6182112069
 21
185.6315344828
  0
LINE
  8
0
 62
7
  6
CONTINUOUS
 10
33.9038118312
 20
206.8343851022
 11
33.9868998518
 21
206.8050860406
  0
POLYLINE
  8
0
 62
7
  6
CONTINUOUS
 66
1
 70
0
  0
VERTEX
  8
0
 62
7
  6
CONTINUOUS
 10
50.7868998518
 20
206.8050860406
  0
VERTEX
  8
0
 62
7
  6
CONTINUOUS
 10
50.8679199092
 20
206.7598672699
  0
VERTEX
  8
0
 62
7
  6
CONTINUOUS
 10
50.9211276492
 20
206.7167659135
  0
SEQEND
  0
LINE
  8
0
 62
7
  6
CONTINUOUS
 10
67.7211276492
 20
206.7167659135
 11
67.7210002895
 21
206.7168856628
  0
POLYLINE
  8
0
 62
7
  6
CONTINUOUS
 66
1
 70
0
  0
VERTEX
  8
0
 62
7
  6
CONTINUOUS
 10
67.7210002699
 20
206.716885642
  0
VERTEX
  8
0
 62
7
  6
CONTINUOUS
 10
67.7724729115
 20
206.6642034304
  0
VERTEX
  8
0
 62
7
  6
CONTINUOUS
 10
67.8281105198
 20
206.5940426247
  0
SEQEND
  0
LINE
  8
0
 62
7
  6
CONTINUOUS
 10
67.8281105198
 20
206.5940426247
 11
67.8704620949
 21
206.5236497112
  0
LINE
  8
0
 62
2
  6
CONTINUOUS
 10
79.2182112069
 20
225.6315344828
 11
79.2182112069
 21
185.6315344828
  0
LINE
  8
0
 62
7
  6
CONTINUOUS
 10
81.9190624372
 20
206.3997238927
 11
81.2917736582
 21
198.5518574816
  0
POLYLINE
  8
0
 62
7
  6
CONTINUOUS
 66
1
 70
0
  0
VERTEX
  8
0
 62
7
  6
CONTINUOUS
 10
81.9150906316
 20
206.3500334944
  0
VERTEX
  8
0
 62
7
  6
CONTINUOUS
 10
81.9200787776
 20
206.3892442738
  0
VERTEX
  8
0
 62
7
  6
CONTINUOUS
 10
81.922525183
 20
206.3997238927
  0
SEQEND
  0
LINE
  8
0
 62
7
  6
CONTINUOUS
 10
73.7152947646
 20
206.7167659135
 11
73.7154221243
 21
206.7168856628
  0
LINE
  8
0
 62
7
  6
CONTINUOUS
 10
73.7152947646
 20
206.7167659135
 11
73.7685025046
 21
206.7598672699
  0
LINE
  8
0
 62
7
  6
CONTINUOUS
 10
57.049522562
 20
206.8050860406
 11
57.1326105826
 21
206.8343851022
  0
LINE
  8
0
 62
7
  6
CONTINUOUS
 10
47.217065839
 20
206.2088477958
 11
47.3607362241
 21
206.2550622283
  0
POLYLINE
  8
0
 62
7
  6
CONTINUOUS
 66
1
 70
0
  0
VERTEX
  8
0
 62
7
  6
CONTINUOUS
 10
21.1799687585
 20
197.9078952868
  0
VERTEX
  8
0
 62
7
  6
CONTINUOUS
 10
21.2129938904
 20
197.9178471481
  0
VERTEX
  8
0
 62
7
  6
CONTINUOUS
 10
21.3003332997
 20
197.9327913222
  0
VERTEX
  8
0
 62
7
  6
CONTINUOUS
 10
21.3406585856
 20
197.9344201059
  0
SEQEND
  0
LINE
  8
0
 62
7
  6
CONTINUOUS
 10
144.5571687718
 20
206.2540376184
 11
144.7272143424
 21
206.2973091943
  0
POLYLINE
  8
0
 62
7
  6
CONTINUOUS
 66
1
 70
0
  0
VERTEX
  8
0
 62
7
  6
CONTINUOUS
 10
157.9325859883
 20
206.8343783756
  0
VERTEX
  8
0
 62
7
  6
CONTINUOUS
 10
158.0427504737
 20
206.8552727892
  0
VERTEX
  8
0
 62
7
  6
CONTINUOUS
 10
158.1486872137
 20
206.8611437793
  0
SEQEND
  0
LINE
  8
0
 62
7
  6
CONTINUOUS
 10
50.7038118312
 20
206.8343851022
 11
50.7868998518
 21
206.8050860406
  0
LINE
  8
0
 62
7
  6
CONTINUOUS
 10
63.316407998
 20
206.2099115984
 11
63.430614213
 21
206.1640093308
  0
LINE
  8
0
 62
7
  6
CONTINUOUS
 10
63.4283578105
 20
206.1650252787
 11
63.5116298768
 21
206.1233420167
  0
POLYLINE
  8
0
 62
7
  6
CONTINUOUS
 66
1
 70
0
  0
VERTEX
  8
0
 62
7
  6
CONTINUOUS
 10
67.5868998518
 20
206.8050860406
  0
VERTEX
  8
0
 62
7
  6
CONTINUOUS
 10
67.6679199092
 20
206.7598672699
  0
VERTEX
  8
0
 62
7
  6
CONTINUOUS
 10
67.7211276492
 20
206.7167659135
  0
SEQEND
  0
POLYLINE
  8
0
 62
7
  6
CONTINUOUS
 66
1
 70
0
  0
VERTEX
  8
0
 62
7
  6
CONTINUOUS
 10
63.5100599942
 20
206.124225041
  0
VERTEX
  8
0
 62
7
  6
CONTINUOUS
 10
63.5622455037
 20
206.0916871279
  0
VERTEX
  8
0
 62
7
  6
CONTINUOUS
 10
63.5886942972
 20
206.0709563159
  0
VERTEX
  8
0
 62
7
  6
CONTINUOUS
 10
63.5919256092
 20
206.0679499227
  0
SEQEND
  0
POLYLINE
  8
0
 62
7
  6
CONTINUOUS
 66
1
 70
0
  0
VERTEX
  8
0
 62
7
  6
CONTINUOUS
 10
76.3138972259
 20
206.3997238927
  0
VERTEX
  8
0
 62
7
  6
CONTINUOUS
 10
76.3163436666
 20
206.3892441044
  0
VERTEX
  8
0
 62
7
  6
CONTINUOUS
 10
76.3213317608
 20
206.3500338765
  0
SEQEND
  0
LINE
  8
0
 62
7
  6
CONTINUOUS
 10
84.4543185153
 20
209.6905754392
 11
85.3446487556
 21
198.5518574816
  0
LINE
  8
0
 62
7
  6
CONTINUOUS
 10
73.7685025046
 20
206.7598672699
 11
73.849522562
 21
206.8050860406
  0
LINE
  8
0
 62
7
  6
CONTINUOUS
 10
73.849522562
 20
206.8050860406
 11
73.9326105826
 21
206.8343851022
  0
LINE
  8
0
 62
7
  6
CONTINUOUS
 10
144.7231503588
 20
206.2963955542
 11
144.9152340469
 21
206.3341491807
  0
POLYLINE
  8
0
 62
7
  6
CONTINUOUS
 66
1
 70
0
  0
VERTEX
  8
0
 62
7
  6
CONTINUOUS
 10
141.1325859883
 20
206.8343783756
  0
VERTEX
  8
0
 62
7
  6
CONTINUOUS
 10
141.2427504737
 20
206.8552727892
  0
VERTEX
  8
0
 62
7
  6
CONTINUOUS
 10
141.3486872137
 20
206.8611437793
  0
SEQEND
  0
POLYLINE
  8
0
 62
7
  6
CONTINUOUS
 66
1
 70
0
  0
VERTEX
  8
0
 62
7
  6
CONTINUOUS
 10
124.3325859883
 20
206.8343783756
  0
VERTEX
  8
0
 62
7
  6
CONTINUOUS
 10
124.4427504737
 20
206.8552727892
  0
VERTEX
  8
0
 62
7
  6
CONTINUOUS
 10
124.5486872137
 20
206.8611437793
  0
SEQEND
  0
LINE
  8
0
 62
7
  6
CONTINUOUS
 10
144.9108066502
 20
206.3333950944
 11
145.1200566384
 21
206.3637705115
  0
POLYLINE
  8
0
 62
7
  6
CONTINUOUS
 66
1
 70
0
  0
VERTEX
  8
0
 62
7
  6
CONTINUOUS
 10
21.5169619959
 20
197.9344233674
  0
VERTEX
  8
0
 62
7
  6
CONTINUOUS
 10
21.6045753798
 20
197.9383719325
  0
VERTEX
  8
0
 62
7
  6
CONTINUOUS
 10
21.7454662772
 20
197.9615963201
  0
VERTEX
  8
0
 62
7
  6
CONTINUOUS
 10
21.8820735452
 20
198.0052966428
  0
VERTEX
  8
0
 62
7
  6
CONTINUOUS
 10
22.0117029153
 20
198.0688013649
  0
VERTEX
  8
0
 62
7
  6
CONTINUOUS
 10
22.1317093314
 20
198.1510826695
  0
VERTEX
  8
0
 62
7
  6
CONTINUOUS
 10
22.2396162914
 20
198.2508191388
  0
VERTEX
  8
0
 62
7
  6
CONTINUOUS
 10
22.333014254
 20
198.3662900784
  0
VERTEX
  8
0
 62
7
  6
CONTINUOUS
 10
22.4095684104
 20
198.4951623352
  0
VERTEX
  8
0
 62
7
  6
CONTINUOUS
 10
22.467372377
 20
198.6347716407
  0
VERTEX
  8
0
 62
7
  6
CONTINUOUS
 10
22.5049519614
 20
198.7821610765
  0
VERTEX
  8
0
 62
7
  6
CONTINUOUS
 10
22.5185686075
 20
198.8870960531
  0
SEQEND
  0
LINE
  8
0
 62
7
  6
CONTINUOUS
 10
20.8532212021
 20
197.6315344828
 11
17.2182112069
 21
197.6315344828
  0
LINE
  8
0
 62
7
  6
CONTINUOUS
 10
27.5414694895
 20
197.6315344828
 11
29.8949529243
 21
197.6315344828
  0
LINE
  8
0
 62
7
  6
CONTINUOUS
 10
35.9414694895
 20
197.6315344828
 11
38.2949529243
 21
197.6315344828
  0
LINE
  8
0
 62
7
  6
CONTINUOUS
 10
44.3414694895
 20
197.6315344828
 11
46.6949529243
 21
197.6315344828
  0
LINE
  8
0
 62
7
  6
CONTINUOUS
 10
52.7414694895
 20
197.6315344828
 11
55.0949529243
 21
197.6315344828
  0
LINE
  8
0
 62
7
  6
CONTINUOUS
 10
61.1414694895
 20
197.6315344828
 11
63.4949529243
 21
197.6315344828
  0
LINE
  8
0
 62
7
  6
CONTINUOUS
 10
69.5414694895
 20
197.6315344828
 11
71.8949529243
 21
197.6315344828
  0
LINE
  8
0
 62
7
  6
CONTINUOUS
 10
77.9414694895
 20
197.6315344828
 11
80.2949529243
 21
197.6315344828
  0
LINE
  8
0
 62
7
  6
CONTINUOUS
 10
86.3414694895
 20
197.6315344828
 11
88.6949529243
 21
197.6315344828
  0
LINE
  8
0
 62
7
  6
CONTINUOUS
 10
94.7414694895
 20
197.6315344828
 11
97.0949529243
 21
197.6315344828
  0
LINE
  8
0
 62
7
  6
CONTINUOUS
 10
103.1414694895
 20
197.6315344828
 11
105.4949529243
 21
197.6315344828
  0
LINE
  8
0
 62
7
  6
CONTINUOUS
 10
111.5414694895
 20
197.6315344828
 11
113.8949529243
 21
197.6315344828
  0
LINE
  8
0
 62
7
  6
CONTINUOUS
 10
119.9414694895
 20
197.6315344828
 11
122.2949529243
 21
197.6315344828
  0
LINE
  8
0
 62
7
  6
CONTINUOUS
 10
128.3414694895
 20
197.6315344828
 11
130.6949529243
 21
197.6315344828
  0
LINE
  8
0
 62
7
  6
CONTINUOUS
 10
136.7414694895
 20
197.6315344828
 11
139.0949529243
 21
197.6315344828
  0
LINE
  8
0
 62
7
  6
CONTINUOUS
 10
145.1414694895
 20
197.6315344828
 11
147.4949529243
 21
197.6315344828
  0
LINE
  8
0
 62
7
  6
CONTINUOUS
 10
153.5414694895
 20
197.6315344828
 11
155.8949529243
 21
197.6315344828
  0
LINE
  8
0
 62
6
  6
CONTINUOUS
 10
161.9414694895
 20
197.6315344828
 11
162.5832012117
 21
197.6315344828
  0
LINE
  8
0
 62
7
  6
CONTINUOUS
 10
162.5832012117
 20
197.6315344828
 11
166.2182112069
 21
197.6315344828
  0
LINE
  8
0
 62
40
  6
CONTINUOUS
 10
79.2182112069
 20
197.6815344828
 11
86.0427491065
 21
197.6815344828
  0
LINE
  8
0
 62
7
  6
CONTINUOUS
 10
162.0956009525
 20
197.9344198987
 11
161.9194604365
 21
197.9344198987
  0
LINE
  8
0
 62
7
  6
CONTINUOUS
 10
21.3408214613
 20
197.9344198987
 11
21.5169619958
 21
197.9344198987
  0
LINE
  8
0
 62
7
  6
CONTINUOUS
 10
21.8676044818
 20
200.2010172685
 11
21.4992838661
 21
200.2010172685
  0
POLYLINE
  8
0
 62
7
  6
CONTINUOUS
 66
1
 70
0
  0
VERTEX
  8
0
 62
7
  6
CONTINUOUS
 10
162.0957638282
 20
197.9344201059
  0
VERTEX
  8
0
 62
7
  6
CONTINUOUS
 10
162.1360891148
 20
197.9327913222
  0
VERTEX
  8
0
 62
7
  6
CONTINUOUS
 10
162.2234285249
 20
197.9178471477
  0
VERTEX
  8
0
 62
7
  6
CONTINUOUS
 10
162.2564536553
 20
197.9078952868
  0
SEQEND
  0
POLYLINE
  8
0
 62
7
  6
CONTINUOUS
 66
1
 70
0
  0
VERTEX
  8
0
 62
7
  6
CONTINUOUS
 10
69.0805199781
 20
201.1217701038
  0
VERTEX
  8
0
 62
7
  6
CONTINUOUS
 10
69.0042690702
 20
201.1287082429
  0
VERTEX
  8
0
 62
7
  6
CONTINUOUS
 10
68.9265332604
 20
201.149906512
  0
VERTEX
  8
0
 62
7
  6
CONTINUOUS
 10
68.8465765062
 20
201.186777198
  0
VERTEX
  8
0
 62
7
  6
CONTINUOUS
 10
68.7645006514
 20
201.2413927423
  0
VERTEX
  8
0
 62
7
  6
CONTINUOUS
 10
68.6821042671
 20
201.3150827758
  0
VERTEX
  8
0
 62
7
  6
CONTINUOUS
 10
68.6015859542
 20
201.4082784022
  0
VERTEX
  8
0
 62
7
  6
CONTINUOUS
 10
68.5256049847
 20
201.5197402043
  0
VERTEX
  8
0
 62
7
  6
CONTINUOUS
 10
68.4538697618
 20
201.6522478648
  0
VERTEX
  8
0
 62
7
  6
CONTINUOUS
 10
68.3871471131
 20
201.8088281542
  0
VERTEX
  8
0
 62
7
  6
CONTINUOUS
 10
68.3274319124
 20
201.9911425162
  0
VERTEX
  8
0
 62
7
  6
CONTINUOUS
 10
68.2784468906
 20
202.1933075018
  0
VERTEX
  8
0
 62
7
  6
CONTINUOUS
 10
68.2424649112
 20
202.4058084688
  0
VERTEX
  8
0
 62
7
  6
CONTINUOUS
 10
68.2196320204
 20
202.6180675028
  0
SEQEND
  0
LINE
  8
0
 62
7
  6
CONTINUOUS
 10
62.8211883669
 20
206.3341491807
 11
63.013272055
 21
206.2963955542
  0
LINE
  8
0
 62
7
  6
CONTINUOUS
 10
63.0092080714
 20
206.2973091943
 11
63.179253642
 21
206.2540376184
  0
LINE
  8
0
 62
7
  6
CONTINUOUS
 10
63.1756861897
 20
206.2550622283
 11
63.3193565748
 21
206.2088477958
  0
LINE
  8
0
 62
7
  6
CONTINUOUS
 10
67.5038118312
 20
206.8343851022
 11
67.5868998518
 21
206.8050860406
  0
LINE
  8
0
 62
7
  6
CONTINUOUS
 10
84.6281105198
 20
206.5940426247
 11
84.6704620949
 21
206.5236497112
  0
LINE
  8
0
 62
7
  6
CONTINUOUS
 10
84.6704620949
 20
206.5236497112
 11
84.6950183309
 21
206.467759061
  0
LINE
  8
0
 62
7
  6
CONTINUOUS
 10
83.41107899
 20
213.3765748044
 11
84.4366590827
 21
209.7881361346
  0
LINE
  8
0
 62
2
  6
CONTINUOUS
 10
87.5321112069
 20
226.0515344828
 11
87.5321112069
 21
186.0515344828
  0
LINE
  8
0
 62
6
  6
CONTINUOUS
 10
87.6182112069
 20
225.6315344828
 11
87.6182112069
 21
185.6315344828
  0
LINE
  8
0
 62
40
  6
CONTINUOUS
 10
91.7182112069
 20
213.5515344828
 11
91.7182112069
 21
205.6315340351
  0
LINE
  8
0
 62
7
  6
CONTINUOUS
 10
90.5821038985
 20
209.6905754392
 11
89.6917736582
 21
198.5518574816
  0
LINE
  8
0
 62
7
  6
CONTINUOUS
 10
91.6253434238
 20
213.3765748044
 11
90.5997633311
 21
209.7881361346
  0
LINE
  8
0
 62
7
  6
CONTINUOUS
 10
90.3414040829
 20
206.467759061
 11
90.3659603189
 21
206.5236497112
  0
POLYLINE
  8
0
 62
7
  6
CONTINUOUS
 66
1
 70
0
  0
VERTEX
  8
0
 62
7
  6
CONTINUOUS
 10
90.3659603189
 20
206.5236497112
  0
VERTEX
  8
0
 62
7
  6
CONTINUOUS
 10
90.408311894
 20
206.5940426247
  0
VERTEX
  8
0
 62
7
  6
CONTINUOUS
 10
90.4639495023
 20
206.6642034304
  0
VERTEX
  8
0
 62
7
  6
CONTINUOUS
 10
90.5154221439
 20
206.716885642
  0
SEQEND
  0
LINE
  8
0
 62
7
  6
CONTINUOUS
 10
90.5152947646
 20
206.7167659135
 11
90.5154221243
 21
206.7168856628
  0
LINE
  8
0
 62
7
  6
CONTINUOUS
 10
90.5152947646
 20
206.7167659135
 11
90.5685025046
 21
206.7598672699
  0
LINE
  8
0
 62
7
  6
CONTINUOUS
 10
90.5685025046
 20
206.7598672699
 11
90.649522562
 21
206.8050860406
  0
LINE
  8
0
 62
7
  6
CONTINUOUS
 10
90.649522562
 20
206.8050860406
 11
90.7326105826
 21
206.8343851022
  0
LINE
  8
0
 62
7
  6
CONTINUOUS
 10
95.9571687718
 20
206.2540376184
 11
96.1272143424
 21
206.2973091943
  0
LINE
  8
0
 62
7
  6
CONTINUOUS
 10
96.1231503588
 20
206.2963955542
 11
96.3152340469
 21
206.3341491807
  0
POLYLINE
  8
0
 62
7
  6
CONTINUOUS
 66
1
 70
0
  0
VERTEX
  8
0
 62
7
  6
CONTINUOUS
 10
107.5325859883
 20
206.8343783756
  0
VERTEX
  8
0
 62
7
  6
CONTINUOUS
 10
107.6427504737
 20
206.8552727892
  0
VERTEX
  8
0
 62
7
  6
CONTINUOUS
 10
107.7486872137
 20
206.8611437793
  0
SEQEND
  0
LINE
  8
0
 62
7
  6
CONTINUOUS
 10
96.3108066502
 20
206.3333950944
 11
96.5200566384
 21
206.3637705115
  0
LINE
  8
0
 62
7
  6
CONTINUOUS
 10
145.1154049695
 20
206.3632061713
 11
145.3368520821
 21
206.3849588829
  0
LINE
  8
0
 62
7
  6
CONTINUOUS
 10
96.5154049695
 20
206.3632061713
 11
96.7368520821
 21
206.3849588829
  0
LINE
  8
0
 62
7
  6
CONTINUOUS
 10
145.3321286572
 20
206.3846003191
 11
145.5603836821
 21
206.3969555141
  0
LINE
  8
0
 62
7
  6
CONTINUOUS
 10
96.7321286572
 20
206.3846003191
 11
96.9603836821
 21
206.3969555141
  0
POLYLINE
  8
0
 62
7
  6
CONTINUOUS
 66
1
 70
0
  0
VERTEX
  8
0
 62
7
  6
CONTINUOUS
 10
21.8676044764
 20
200.2010412017
  0
VERTEX
  8
0
 62
7
  6
CONTINUOUS
 10
21.9100863346
 20
200.2023509041
  0
VERTEX
  8
0
 62
7
  6
CONTINUOUS
 10
22.0215874327
 20
200.2182423783
  0
VERTEX
  8
0
 62
7
  6
CONTINUOUS
 10
22.1318213188
 20
200.2526044073
  0
VERTEX
  8
0
 62
7
  6
CONTINUOUS
 10
22.2388786006
 20
200.3058576651
  0
VERTEX
  8
0
 62
7
  6
CONTINUOUS
 10
22.3404248785
 20
200.378162329
  0
VERTEX
  8
0
 62
7
  6
CONTINUOUS
 10
22.434322033
 20
200.4696680735
  0
VERTEX
  8
0
 62
7
  6
CONTINUOUS
 10
22.5177603134
 20
200.5794806932
  0
VERTEX
  8
0
 62
7
  6
CONTINUOUS
 10
22.588134775
 20
200.7059304552
  0
VERTEX
  8
0
 62
7
  6
CONTINUOUS
 10
22.6434662202
 20
200.8475883649
  0
VERTEX
  8
0
 62
7
  6
CONTINUOUS
 10
22.6816199934
 20
201.0025549615
  0
VERTEX
  8
0
 62
7
  6
CONTINUOUS
 10
22.6974948114
 20
201.1255614227
  0
SEQEND
  0
LINE
  8
0
 62
7
  6
CONTINUOUS
 10
145.5557530157
 20
206.396804107
 11
145.7321995633
 21
206.399724262
  0
LINE
  8
0
 62
7
  6
CONTINUOUS
 10
96.9557530157
 20
206.396804107
 11
97.1321995633
 21
206.399724262
  0
LINE
  8
0
 62
7
  6
CONTINUOUS
 10
69.0805199781
 20
201.1217701038
 11
72.3559024362
 21
201.1217701038
  0
LINE
  8
0
 62
7
  6
CONTINUOUS
 10
102.6805199781
 20
201.1217701038
 11
105.9559024362
 21
201.1217701038
  0
LINE
  8
0
 62
40
  6
CONTINUOUS
 10
167.4182112069
 20
205.6315344828
 11
167.21849442
 21
205.6315344828
  0
LINE
  8
0
 62
7
  6
CONTINUOUS
 10
166.2182112069
 20
205.6315344828
 11
161.2638201115
 21
205.6315344828
  0
LINE
  8
0
 62
7
  6
CONTINUOUS
 10
143.6726023023
 20
205.6315344828
 11
140.6576601947
 21
205.6315344828
  0
LINE
  8
0
 62
7
  6
CONTINUOUS
 10
118.3787622191
 20
205.6315344828
 11
112.6638201115
 21
205.6315344828
  0
LINE
  8
0
 62
7
  6
CONTINUOUS
 10
95.0726023023
 20
205.6315344828
 11
90.2576601947
 21
205.6315344828
  0
LINE
  8
0
 62
7
  6
CONTINUOUS
 10
67.9787622191
 20
205.6315344828
 11
64.0638201115
 21
205.6315344828
  0
LINE
  8
0
 62
7
  6
CONTINUOUS
 10
46.4726023023
 20
205.6315344828
 11
39.8576601947
 21
205.6315344828
  0
LINE
  8
DEFAULT_1
 62
2
  6
CENTER
 10
140.6576601947
 20
205.6315344828
 11
118.3787622191
 21
205.6315344828
  0
LINE
  8
DEFAULT_1
 62
2
  6
CENTER
 10
112.6638201115
 20
205.6315344828
 11
106.9826901405
 21
205.6315344828
  0
LINE
  8
DEFAULT_1
 62
2
  6
CENTER
 10
90.2576601947
 20
205.6315344828
 11
73.3826901405
 21
205.6315344828
  0
LINE
  8
DEFAULT_1
 62
2
  6
CENTER
 10
64.0638201115
 20
205.6315344828
 11
46.4726023023
 21
205.6315344828
  0
LINE
  8
DEFAULT_1
 62
2
  6
CENTER
 10
39.8576601947
 20
205.6315344828
 11
14.2182112069
 21
205.6315344828
  0
LINE
  8
DEFAULT_1
 62
2
  6
CENTER
 10
101.6537322733
 20
205.6315344828
 11
95.0726023023
 21
205.6315344828
  0
LINE
  8
DEFAULT_1
 62
2
  6
CENTER
 10
68.0537322733
 20
205.6315344828
 11
67.9787622191
 21
205.6315344828
  0
LINE
  8
0
 62
7
  6
CONTINUOUS
 10
68.0537322733
 20
205.6315344828
 11
73.3826901405
 21
205.6315344828
  0
LINE
  8
0
 62
7
  6
CONTINUOUS
 10
101.6537322733
 20
205.6315344828
 11
106.9826901405
 21
205.6315344828
  0
LINE
  8
DEFAULT_1
 62
2
  6
CENTER
 10
143.6726023023
 20
205.6315344828
 11
158.4605919372
 21
205.6315344828
  0
LINE
  8
0
 62
7
  6
CONTINUOUS
 10
62.0042228579
 20
206.3997241098
 11
62.1806693981
 21
206.396804107
  0
POLYLINE
  8
0
 62
7
  6
CONTINUOUS
 66
1
 70
0
  0
VERTEX
  8
0
 62
7
  6
CONTINUOUS
 10
33.6877779584
 20
206.8611437797
  0
VERTEX
  8
0
 62
7
  6
CONTINUOUS
 10
33.7919493866
 20
206.8554692992
  0
VERTEX
  8
0
 62
7
  6
CONTINUOUS
 10
33.9037943883
 20
206.8343898739
  0
SEQEND
  0
POLYLINE
  8
0
 62
7
  6
CONTINUOUS
 66
1
 70
0
  0
VERTEX
  8
0
 62
7
  6
CONTINUOUS
 10
50.4877779584
 20
206.8611437797
  0
VERTEX
  8
0
 62
7
  6
CONTINUOUS
 10
50.5919493866
 20
206.8554692992
  0
VERTEX
  8
0
 62
7
  6
CONTINUOUS
 10
50.7037943883
 20
206.8343898739
  0
SEQEND
  0
POLYLINE
  8
0
 62
7
  6
CONTINUOUS
 66
1
 70
0
  0
VERTEX
  8
0
 62
7
  6
CONTINUOUS
 10
67.2877779584
 20
206.8611437797
  0
VERTEX
  8
0
 62
7
  6
CONTINUOUS
 10
67.3919493866
 20
206.8554692992
  0
VERTEX
  8
0
 62
7
  6
CONTINUOUS
 10
67.5037943883
 20
206.8343898739
  0
SEQEND
  0
LINE
  8
0
 62
7
  6
CONTINUOUS
 10
62.1760387317
 20
206.3969555141
 11
62.4042937566
 21
206.3846003191
  0
POLYLINE
  8
0
 62
7
  6
CONTINUOUS
 66
1
 70
0
  0
VERTEX
  8
0
 62
7
  6
CONTINUOUS
 10
73.3826901405
 20
205.6315344828
  0
VERTEX
  8
0
 62
7
  6
CONTINUOUS
 10
73.4155598517
 20
205.6291773732
  0
VERTEX
  8
0
 62
7
  6
CONTINUOUS
 10
73.4384540257
 20
205.6216648052
  0
VERTEX
  8
0
 62
7
  6
CONTINUOUS
 10
73.4512741024
 20
205.60860286
  0
VERTEX
  8
0
 62
7
  6
CONTINUOUS
 10
73.4543186426
 20
205.5897290893
  0
SEQEND
  0
POLYLINE
  8
0
 62
7
  6
CONTINUOUS
 66
1
 70
0
  0
VERTEX
  8
0
 62
7
  6
CONTINUOUS
 10
102.6805199781
 20
201.1217701038
  0
VERTEX
  8
0
 62
7
  6
CONTINUOUS
 10
102.6042690702
 20
201.1287082429
  0
VERTEX
  8
0
 62
7
  6
CONTINUOUS
 10
102.5265332604
 20
201.149906512
  0
VERTEX
  8
0
 62
7
  6
CONTINUOUS
 10
102.4465765062
 20
201.186777198
  0
VERTEX
  8
0
 62
7
  6
CONTINUOUS
 10
102.3645006514
 20
201.2413927423
  0
VERTEX
  8
0
 62
7
  6
CONTINUOUS
 10
102.2821042671
 20
201.3150827758
  0
VERTEX
  8
0
 62
7
  6
CONTINUOUS
 10
102.2015859542
 20
201.4082784022
  0
VERTEX
  8
0
 62
7
  6
CONTINUOUS
 10
102.1256049847
 20
201.5197402043
  0
VERTEX
  8
0
 62
7
  6
CONTINUOUS
 10
102.0538697618
 20
201.6522478648
  0
VERTEX
  8
0
 62
7
  6
CONTINUOUS
 10
101.9871471131
 20
201.8088281542
  0
VERTEX
  8
0
 62
7
  6
CONTINUOUS
 10
101.9274319124
 20
201.9911425162
  0
VERTEX
  8
0
 62
7
  6
CONTINUOUS
 10
101.8784468906
 20
202.1933075018
  0
VERTEX
  8
0
 62
7
  6
CONTINUOUS
 10
101.8424649112
 20
202.4058084688
  0
VERTEX
  8
0
 62
7
  6
CONTINUOUS
 10
101.8196320204
 20
202.6180675028
  0
SEQEND
  0
LINE
  8
0
 62
7
  6
CONTINUOUS
 10
62.3995703317
 20
206.3849588829
 11
62.6210174443
 21
206.3632061713
  0
LINE
  8
0
 62
7
  6
CONTINUOUS
 10
62.6163657754
 20
206.3637705115
 11
62.8256157636
 21
206.3333950944
  0
LINE
  8
0
 62
7
  6
CONTINUOUS
 10
84.3038118312
 20
206.8343851022
 11
84.3868998518
 21
206.8050860406
  0
POLYLINE
  8
0
 62
7
  6
CONTINUOUS
 66
1
 70
0
  0
VERTEX
  8
0
 62
7
  6
CONTINUOUS
 10
84.3868998518
 20
206.8050860406
  0
VERTEX
  8
0
 62
7
  6
CONTINUOUS
 10
84.4679199092
 20
206.7598672699
  0
VERTEX
  8
0
 62
7
  6
CONTINUOUS
 10
84.5211276492
 20
206.7167659135
  0
SEQEND
  0
LINE
  8
0
 62
7
  6
CONTINUOUS
 10
84.5211276492
 20
206.7167659135
 11
84.5210002895
 21
206.7168856628
  0
POLYLINE
  8
0
 62
7
  6
CONTINUOUS
 66
1
 70
0
  0
VERTEX
  8
0
 62
7
  6
CONTINUOUS
 10
84.5210002699
 20
206.716885642
  0
VERTEX
  8
0
 62
7
  6
CONTINUOUS
 10
84.5724729115
 20
206.6642034304
  0
VERTEX
  8
0
 62
7
  6
CONTINUOUS
 10
84.6281105198
 20
206.5940426247
  0
SEQEND
  0
LINE
  8
0
 62
7
  6
CONTINUOUS
 10
93.1787622191
 20
205.6315344828
 11
93.7446487556
 21
198.5518574816
  0
LINE
  8
0
 62
7
  6
CONTINUOUS
 10
95.5707997172
 20
206.0891003702
 11
95.5706996513
 21
206.0879566114
  0
POLYLINE
  8
0
 62
7
  6
CONTINUOUS
 66
1
 70
0
  0
VERTEX
  8
0
 62
7
  6
CONTINUOUS
 10
95.5426898714
 20
206.0663674386
  0
VERTEX
  8
0
 62
7
  6
CONTINUOUS
 10
95.5418162001
 20
206.0652709561
  0
VERTEX
  8
0
 62
7
  6
CONTINUOUS
 10
95.5473439922
 20
206.0706085929
  0
VERTEX
  8
0
 62
7
  6
CONTINUOUS
 10
95.5732386294
 20
206.0910231341
  0
VERTEX
  8
0
 62
7
  6
CONTINUOUS
 10
95.624792537
 20
206.1233420167
  0
SEQEND
  0
LINE
  8
0
 62
7
  6
CONTINUOUS
 10
95.624792537
 20
206.1233420167
 11
95.7080646033
 21
206.1650252787
  0
LINE
  8
0
 62
7
  6
CONTINUOUS
 10
95.7058082008
 20
206.1640093308
 11
95.8200144158
 21
206.2099115984
  0
LINE
  8
0
 62
7
  6
CONTINUOUS
 10
107.449522562
 20
206.8050860406
 11
107.5326105826
 21
206.8343851022
  0
LINE
  8
0
 62
7
  6
CONTINUOUS
 10
95.817065839
 20
206.2088477958
 11
95.9607362241
 21
206.2550622283
  0
POLYLINE
  8
0
 62
7
  6
CONTINUOUS
 66
1
 70
0
  0
VERTEX
  8
0
 62
7
  6
CONTINUOUS
 10
90.7325859883
 20
206.8343783756
  0
VERTEX
  8
0
 62
7
  6
CONTINUOUS
 10
90.8427504737
 20
206.8552727892
  0
VERTEX
  8
0
 62
7
  6
CONTINUOUS
 10
90.9486872137
 20
206.8611437793
  0
SEQEND
  0
POLYLINE
  8
0
 62
7
  6
CONTINUOUS
 66
1
 70
0
  0
VERTEX
  8
0
 62
7
  6
CONTINUOUS
 10
73.9325859883
 20
206.8343783756
  0
VERTEX
  8
0
 62
7
  6
CONTINUOUS
 10
74.0427504737
 20
206.8552727892
  0
VERTEX
  8
0
 62
7
  6
CONTINUOUS
 10
74.1486872137
 20
206.8611437793
  0
SEQEND
  0
LINE
  8
0
 62
7
  6
CONTINUOUS
 10
47.9154049695
 20
206.3632061713
 11
48.1368520821
 21
206.3849588829
  0
LINE
  8
0
 62
7
  6
CONTINUOUS
 10
48.1321286572
 20
206.3846003191
 11
48.3603836821
 21
206.3969555141
  0
LINE
  8
0
 62
7
  6
CONTINUOUS
 10
23.8321286572
 20
206.3846003191
 11
24.0603836821
 21
206.3969555141
  0
LINE
  8
0
 62
7
  6
CONTINUOUS
 10
48.3557530157
 20
206.396804107
 11
48.5321995633
 21
206.399724262
  0
LINE
  8
0
 62
7
  6
CONTINUOUS
 10
24.0557530157
 20
206.396804107
 11
24.2321995633
 21
206.399724262
  0
LINE
  8
0
 62
7
  6
CONTINUOUS
 10
24.2321995633
 20
206.3997238927
 11
34.3138633436
 21
206.3997238927
  0
LINE
  8
0
 62
7
  6
CONTINUOUS
 10
48.5321995633
 20
206.3997238927
 11
51.1138633436
 21
206.3997238927
  0
LINE
  8
0
 62
7
  6
CONTINUOUS
 10
56.7225590702
 20
206.3997238927
 11
62.0042228578
 21
206.3997238927
  0
LINE
  8
0
 62
7
  6
CONTINUOUS
 10
73.5225590702
 20
206.3997238927
 11
84.7138633436
 21
206.3997238927
  0
LINE
  8
0
 62
7
  6
CONTINUOUS
 10
97.1321995633
 20
206.3997238927
 11
101.5138633436
 21
206.3997238927
  0
LINE
  8
0
 62
7
  6
CONTINUOUS
 10
107.1225590702
 20
206.3997238927
 11
110.6042228578
 21
206.3997238927
  0
LINE
  8
0
 62
7
  6
CONTINUOUS
 10
123.9225590702
 20
206.3997238927
 11
134.9042228578
 21
206.3997238927
  0
LINE
  8
0
 62
7
  6
CONTINUOUS
 10
145.7321995633
 20
206.3997238927
 11
151.9138633436
 21
206.3997238927
  0
LINE
  8
0
 62
7
  6
CONTINUOUS
 10
157.5225590702
 20
206.3997238927
 11
159.2042228578
 21
206.3997238927
  0
LINE
  8
0
 62
7
  6
CONTINUOUS
 10
23.7486133285
 20
206.8611437797
 11
23.7486871867
 21
206.8611437793
  0
LINE
  8
0
 62
7
  6
CONTINUOUS
 10
40.5486133285
 20
206.8611437797
 11
40.5486871867
 21
206.8611437793
  0
LINE
  8
0
 62
7
  6
CONTINUOUS
 10
57.3486133285
 20
206.8611437797
 11
57.3486871867
 21
206.8611437793
  0
LINE
  8
0
 62
7
  6
CONTINUOUS
 10
74.1486133285
 20
206.8611437797
 11
74.1486871867
 21
206.8611437793
  0
LINE
  8
0
 62
7
  6
CONTINUOUS
 10
90.9486133285
 20
206.8611437797
 11
90.9486871867
 21
206.8611437793
  0
LINE
  8
0
 62
7
  6
CONTINUOUS
 10
107.7486133285
 20
206.8611437797
 11
107.7486871867
 21
206.8611437793
  0
LINE
  8
0
 62
7
  6
CONTINUOUS
 10
124.5486133285
 20
206.8611437797
 11
124.5486871867
 21
206.8611437793
  0
LINE
  8
0
 62
7
  6
CONTINUOUS
 10
141.3486133285
 20
206.8611437797
 11
141.3486871867
 21
206.8611437793
  0
LINE
  8
0
 62
7
  6
CONTINUOUS
 10
158.1486133285
 20
206.8611437797
 11
158.1486871867
 21
206.8611437793
  0
LINE
  8
0
 62
7
  6
CONTINUOUS
 10
110.6042228579
 20
206.3997241098
 11
110.7806693981
 21
206.396804107
  0
LINE
  8
0
 62
7
  6
CONTINUOUS
 10
134.9042228579
 20
206.3997241098
 11
135.0806693981
 21
206.396804107
  0
LINE
  8
0
 62
7
  6
CONTINUOUS
 10
159.2042228579
 20
206.3997241098
 11
159.3806693981
 21
206.396804107
  0
LINE
  8
0
 62
7
  6
CONTINUOUS
 10
135.0760387317
 20
206.3969555141
 11
135.1177602327
 21
206.3947163789
  0
POLYLINE
  8
0
 62
7
  6
CONTINUOUS
 66
1
 70
0
  0
VERTEX
  8
0
 62
7
  6
CONTINUOUS
 10
84.0877779584
 20
206.8611437797
  0
VERTEX
  8
0
 62
7
  6
CONTINUOUS
 10
84.1919493866
 20
206.8554692992
  0
VERTEX
  8
0
 62
7
  6
CONTINUOUS
 10
84.3037943883
 20
206.8343898739
  0
SEQEND
  0
POLYLINE
  8
0
 62
7
  6
CONTINUOUS
 66
1
 70
0
  0
VERTEX
  8
0
 62
7
  6
CONTINUOUS
 10
100.8877779584
 20
206.8611437797
  0
VERTEX
  8
0
 62
7
  6
CONTINUOUS
 10
100.9919493866
 20
206.8554692992
  0
VERTEX
  8
0
 62
7
  6
CONTINUOUS
 10
101.1037943883
 20
206.8343898739
  0
SEQEND
  0
POLYLINE
  8
0
 62
7
  6
CONTINUOUS
 66
1
 70
0
  0
VERTEX
  8
0
 62
7
  6
CONTINUOUS
 10
117.6877779584
 20
206.8611437797
  0
VERTEX
  8
0
 62
7
  6
CONTINUOUS
 10
117.7919493866
 20
206.8554692992
  0
VERTEX
  8
0
 62
7
  6
CONTINUOUS
 10
117.9037943883
 20
206.8343898739
  0
SEQEND
  0
POLYLINE
  8
0
 62
7
  6
CONTINUOUS
 66
1
 70
0
  0
VERTEX
  8
0
 62
7
  6
CONTINUOUS
 10
134.4877779584
 20
206.8611437797
  0
VERTEX
  8
0
 62
7
  6
CONTINUOUS
 10
134.5919493866
 20
206.8554692992
  0
VERTEX
  8
0
 62
7
  6
CONTINUOUS
 10
134.7037943883
 20
206.8343898739
  0
SEQEND
  0
POLYLINE
  8
0
 62
7
  6
CONTINUOUS
 66
1
 70
0
  0
VERTEX
  8
0
 62
7
  6
CONTINUOUS
 10
151.2877779584
 20
206.8611437797
  0
VERTEX
  8
0
 62
7
  6
CONTINUOUS
 10
151.3919493866
 20
206.8554692992
  0
VERTEX
  8
0
 62
7
  6
CONTINUOUS
 10
151.5037943883
 20
206.8343898739
  0
SEQEND
  0
LINE
  8
0
 62
7
  6
CONTINUOUS
 10
110.7760387317
 20
206.3969555141
 11
111.0042937566
 21
206.3846003191
  0
LINE
  8
0
 62
7
  6
CONTINUOUS
 10
159.3760387317
 20
206.3969555141
 11
159.6042937566
 21
206.3846003191
  0
POLYLINE
  8
0
 62
7
  6
CONTINUOUS
 66
1
 70
0
  0
VERTEX
  8
0
 62
7
  6
CONTINUOUS
 10
106.9826901405
 20
205.6315344828
  0
VERTEX
  8
0
 62
7
  6
CONTINUOUS
 10
107.0155659104
 20
205.6291763235
  0
VERTEX
  8
0
 62
7
  6
CONTINUOUS
 10
107.0384592313
 20
205.6216618129
  0
VERTEX
  8
0
 62
7
  6
CONTINUOUS
 10
107.0512738605
 20
205.6086033488
  0
VERTEX
  8
0
 62
7
  6
CONTINUOUS
 10
107.0543186426
 20
205.5897290893
  0
SEQEND
  0
LINE
  8
0
 62
7
  6
CONTINUOUS
 10
110.9995703317
 20
206.3849588829
 11
111.2210174443
 21
206.3632061713
  0
LINE
  8
0
 62
7
  6
CONTINUOUS
 10
111.2163657754
 20
206.3637705115
 11
111.4256157636
 21
206.3333950944
  0
LINE
  8
0
 62
7
  6
CONTINUOUS
 10
111.4211883669
 20
206.3341491807
 11
111.613272055
 21
206.2963955542
  0
LINE
  8
0
 62
7
  6
CONTINUOUS
 10
111.6092080714
 20
206.2973091943
 11
111.779253642
 21
206.2540376184
  0
LINE
  8
0
 62
7
  6
CONTINUOUS
 10
101.1038118312
 20
206.8343851022
 11
101.1868998518
 21
206.8050860406
  0
POLYLINE
  8
0
 62
7
  6
CONTINUOUS
 66
1
 70
0
  0
VERTEX
  8
0
 62
7
  6
CONTINUOUS
 10
101.1868998518
 20
206.8050860406
  0
VERTEX
  8
0
 62
7
  6
CONTINUOUS
 10
101.2679199092
 20
206.7598672699
  0
VERTEX
  8
0
 62
7
  6
CONTINUOUS
 10
101.3211276492
 20
206.7167659135
  0
SEQEND
  0
LINE
  8
0
 62
7
  6
CONTINUOUS
 10
102.1446487556
 20
198.5518574816
 11
101.2543185153
 21
209.6905754392
  0
LINE
  8
0
 62
7
  6
CONTINUOUS
 10
98.7190624372
 20
206.3997238927
 11
98.0917736582
 21
198.5518574816
  0
POLYLINE
  8
0
 62
7
  6
CONTINUOUS
 66
1
 70
0
  0
VERTEX
  8
0
 62
7
  6
CONTINUOUS
 10
98.7150906316
 20
206.3500334944
  0
VERTEX
  8
0
 62
7
  6
CONTINUOUS
 10
98.7200787776
 20
206.3892442738
  0
VERTEX
  8
0
 62
7
  6
CONTINUOUS
 10
98.722525183
 20
206.3997238927
  0
SEQEND
  0
POLYLINE
  8
0
 62
7
  6
CONTINUOUS
 66
1
 70
0
  0
VERTEX
  8
0
 62
7
  6
CONTINUOUS
 10
101.5821037712
 20
205.5897290893
  0
VERTEX
  8
0
 62
7
  6
CONTINUOUS
 10
101.5851162165
 20
205.6085377786
  0
VERTEX
  8
0
 62
7
  6
CONTINUOUS
 10
101.5979454289
 20
205.6216516005
  0
VERTEX
  8
0
 62
7
  6
CONTINUOUS
 10
101.6208912868
 20
205.6291823456
  0
VERTEX
  8
0
 62
7
  6
CONTINUOUS
 10
101.6537322733
 20
205.6315344828
  0
SEQEND
  0
LINE
  8
0
 62
7
  6
CONTINUOUS
 10
107.3152947646
 20
206.7167659135
 11
107.3154221243
 21
206.7168856628
  0
LINE
  8
0
 62
7
  6
CONTINUOUS
 10
107.3152947646
 20
206.7167659135
 11
107.3685025046
 21
206.7598672699
  0
LINE
  8
0
 62
7
  6
CONTINUOUS
 10
107.3685025046
 20
206.7598672699
 11
107.449522562
 21
206.8050860406
  0
LINE
  8
0
 62
7
  6
CONTINUOUS
 10
124.249522562
 20
206.8050860406
 11
124.3326105826
 21
206.8343851022
  0
LINE
  8
0
 62
7
  6
CONTINUOUS
 10
47.5231503588
 20
206.2963955542
 11
47.7152340469
 21
206.3341491807
  0
POLYLINE
  8
0
 62
7
  6
CONTINUOUS
 66
1
 70
0
  0
VERTEX
  8
0
 62
7
  6
CONTINUOUS
 10
57.1325859883
 20
206.8343783756
  0
VERTEX
  8
0
 62
7
  6
CONTINUOUS
 10
57.2427504737
 20
206.8552727892
  0
VERTEX
  8
0
 62
7
  6
CONTINUOUS
 10
57.3486872137
 20
206.8611437793
  0
SEQEND
  0
POLYLINE
  8
0
 62
7
  6
CONTINUOUS
 66
1
 70
0
  0
VERTEX
  8
0
 62
7
  6
CONTINUOUS
 10
40.3325859883
 20
206.8343783756
  0
VERTEX
  8
0
 62
7
  6
CONTINUOUS
 10
40.4427504737
 20
206.8552727892
  0
VERTEX
  8
0
 62
7
  6
CONTINUOUS
 10
40.5486872137
 20
206.8611437793
  0
SEQEND
  0
LINE
  8
0
 62
7
  6
CONTINUOUS
 10
47.7108066502
 20
206.3333950944
 11
47.9200566384
 21
206.3637705115
  0
LINE
  8
0
 62
7
  6
CONTINUOUS
 10
23.4108066502
 20
206.3333950944
 11
23.6200566384
 21
206.3637705115
  0
LINE
  8
0
 62
7
  6
CONTINUOUS
 10
23.6154049695
 20
206.3632061713
 11
23.8368520821
 21
206.3849588829
  0
LINE
  8
0
 62
6
  6
CONTINUOUS
 10
158.6289533091
 20
213.1663681209
 11
158.54884344
 21
213.1662968756
  0
LINE
  8
0
 62
7
  6
CONTINUOUS
 10
150.2289540322
 20
213.1663681229
 11
150.14884344
 21
213.1662968763
  0
LINE
  8
0
 62
7
  6
CONTINUOUS
 10
133.4289540322
 20
213.1663681229
 11
133.34884344
 21
213.1662968763
  0
LINE
  8
0
 62
7
  6
CONTINUOUS
 10
116.6289540322
 20
213.1663681229
 11
116.54884344
 21
213.1662968763
  0
LINE
  8
0
 62
7
  6
CONTINUOUS
 10
99.8289540322
 20
213.1663681229
 11
99.74884344
 21
213.1662968763
  0
LINE
  8
0
 62
7
  6
CONTINUOUS
 10
83.0289540322
 20
213.1663681229
 11
82.94884344
 21
213.1662968763
  0
LINE
  8
0
 62
7
  6
CONTINUOUS
 10
66.2289540322
 20
213.1663681229
 11
66.14884344
 21
213.1662968763
  0
LINE
  8
0
 62
7
  6
CONTINUOUS
 10
49.4289540322
 20
213.1663681229
 11
49.34884344
 21
213.1662968763
  0
LINE
  8
0
 62
7
  6
CONTINUOUS
 10
32.6289540322
 20
213.1663681229
 11
32.54884344
 21
213.1662968763
  0
LINE
  8
0
 62
7
  6
CONTINUOUS
 10
167.0182112069
 20
213.6315344828
 11
158.660566613
 21
213.6315344828
  0
LINE
  8
0
 62
7
  6
CONTINUOUS
 10
150.7789646474
 20
213.6315344828
 11
141.860566613
 21
213.6315344828
  0
LINE
  8
0
 62
7
  6
CONTINUOUS
 10
133.9789646474
 20
213.6315344828
 11
125.060566613
 21
213.6315344828
  0
LINE
  8
0
 62
7
  6
CONTINUOUS
 10
117.1793739663
 20
213.6315344828
 11
108.260566613
 21
213.6315344828
  0
LINE
  8
0
 62
7
  6
CONTINUOUS
 10
100.3789646474
 20
213.6315344828
 11
91.460566613
 21
213.6315344828
  0
LINE
  8
0
 62
7
  6
CONTINUOUS
 10
83.5789646474
 20
213.6315344828
 11
74.660566613
 21
213.6315344828
  0
LINE
  8
0
 62
7
  6
CONTINUOUS
 10
66.7789646474
 20
213.6315344828
 11
57.860566613
 21
213.6315344828
  0
LINE
  8
0
 62
7
  6
CONTINUOUS
 10
49.9789646474
 20
213.6315344828
 11
41.060566613
 21
213.6315344828
  0
LINE
  8
0
 62
7
  6
CONTINUOUS
 10
33.1789646474
 20
213.6315344828
 11
24.260566613
 21
213.6315344828
  0
LINE
  8
0
 62
7
  6
CONTINUOUS
 10
24.23304305
 20
213.6315344828
 11
16.4182112069
 21
213.6315344828
  0
LINE
  8
0
 62
7
  6
CONTINUOUS
 10
33.2033793638
 20
213.6315344828
 11
41.03304305
 21
213.6315344828
  0
LINE
  8
0
 62
7
  6
CONTINUOUS
 10
50.0033793638
 20
213.6315344828
 11
57.83304305
 21
213.6315344828
  0
LINE
  8
0
 62
7
  6
CONTINUOUS
 10
66.8033793638
 20
213.6315344828
 11
74.63304305
 21
213.6315344828
  0
LINE
  8
0
 62
7
  6
CONTINUOUS
 10
83.6033793638
 20
213.6315344828
 11
91.43304305
 21
213.6315344828
  0
LINE
  8
0
 62
7
  6
CONTINUOUS
 10
100.4033793638
 20
213.6315344828
 11
108.23304305
 21
213.6315344828
  0
LINE
  8
0
 62
7
  6
CONTINUOUS
 10
117.2033793638
 20
213.6315344828
 11
125.03304305
 21
213.6315344828
  0
LINE
  8
0
 62
7
  6
CONTINUOUS
 10
134.0033793638
 20
213.6315344828
 11
141.83304305
 21
213.6315344828
  0
LINE
  8
0
 62
7
  6
CONTINUOUS
 10
150.8033793638
 20
213.6315344828
 11
158.63304305
 21
213.6315344828
  0
LINE
  8
0
 62
6
  6
CONTINUOUS
 10
150.8013433801
 20
213.6315344828
 11
150.8033793638
 21
213.6315344828
  0
LINE
  8
0
 62
6
  6
CONTINUOUS
 10
158.63304305
 20
213.6315344828
 11
158.6350790337
 21
213.6315344828
  0
LINE
  8
0
 62
7
  6
CONTINUOUS
 10
159.5995703317
 20
206.3849588829
 11
159.8210174443
 21
206.3632061713
  0
LINE
  8
0
 62
7
  6
CONTINUOUS
 10
159.8163657754
 20
206.3637705115
 11
160.0256157636
 21
206.3333950944
  0
LINE
  8
0
 62
7
  6
CONTINUOUS
 10
111.7756861897
 20
206.2550622283
 11
111.9193565748
 21
206.2088477958
  0
LINE
  8
0
 62
7
  6
CONTINUOUS
 10
117.9038118312
 20
206.8343851022
 11
117.9868998518
 21
206.8050860406
  0
LINE
  8
0
 62
7
  6
CONTINUOUS
 10
111.916407998
 20
206.2099115984
 11
112.030614213
 21
206.1640093308
  0
LINE
  8
0
 62
7
  6
CONTINUOUS
 10
112.0283578105
 20
206.1650252787
 11
112.1116298768
 21
206.1233420167
  0
LINE
  8
0
 62
7
  6
CONTINUOUS
 10
101.3211276492
 20
206.7167659135
 11
101.3210002895
 21
206.7168856628
  0
POLYLINE
  8
0
 62
7
  6
CONTINUOUS
 66
1
 70
0
  0
VERTEX
  8
0
 62
7
  6
CONTINUOUS
 10
101.3210002699
 20
206.716885642
  0
VERTEX
  8
0
 62
7
  6
CONTINUOUS
 10
101.3724729115
 20
206.6642034304
  0
VERTEX
  8
0
 62
7
  6
CONTINUOUS
 10
101.4281105198
 20
206.5940426247
  0
SEQEND
  0
LINE
  8
0
 62
7
  6
CONTINUOUS
 10
101.4281105198
 20
206.5940426247
 11
101.4704620949
 21
206.5236497112
  0
LINE
  8
0
 62
7
  6
CONTINUOUS
 10
101.4704620949
 20
206.5236497112
 11
101.4950183309
 21
206.467759061
  0
LINE
  8
0
 62
7
  6
CONTINUOUS
 10
100.21107899
 20
213.3765748044
 11
101.2366590827
 21
209.7881361346
  0
LINE
  8
0
 62
7
  6
CONTINUOUS
 10
106.4917736582
 20
198.5518574816
 11
107.3821038985
 21
209.6905754392
  0
POLYLINE
  8
0
 62
7
  6
CONTINUOUS
 66
1
 70
0
  0
VERTEX
  8
0
 62
7
  6
CONTINUOUS
 10
106.8167903934
 20
202.6180675028
  0
VERTEX
  8
0
 62
7
  6
CONTINUOUS
 10
106.7935786487
 20
202.4030443634
  0
VERTEX
  8
0
 62
7
  6
CONTINUOUS
 10
106.7568844512
 20
202.1879874179
  0
VERTEX
  8
0
 62
7
  6
CONTINUOUS
 10
106.7070356507
 20
201.9842847551
  0
VERTEX
  8
0
 62
7
  6
CONTINUOUS
 10
106.6466983243
 20
201.8020063036
  0
VERTEX
  8
0
 62
7
  6
CONTINUOUS
 10
106.5798352261
 20
201.6466369357
  0
VERTEX
  8
0
 62
7
  6
CONTINUOUS
 10
106.5083764342
 20
201.515742732
  0
VERTEX
  8
0
 62
7
  6
CONTINUOUS
 10
106.4328193567
 20
201.4056544857
  0
VERTEX
  8
0
 62
7
  6
CONTINUOUS
 10
106.3525899051
 20
201.3133252103
  0
VERTEX
  8
0
 62
7
  6
CONTINUOUS
 10
106.2704164633
 20
201.2402292962
  0
VERTEX
  8
0
 62
7
  6
CONTINUOUS
 10
106.1886620384
 20
201.1861167042
  0
VERTEX
  8
0
 62
7
  6
CONTINUOUS
 10
106.1090725691
 20
201.1496095962
  0
VERTEX
  8
0
 62
7
  6
CONTINUOUS
 10
106.0319459769
 20
201.128670722
  0
VERTEX
  8
0
 62
7
  6
CONTINUOUS
 10
105.9559024362
 20
201.1217701038
  0
SEQEND
  0
LINE
  8
0
 62
7
  6
CONTINUOUS
 10
108.4253434238
 20
213.3765748044
 11
107.3997633311
 21
209.7881361346
  0
LINE
  8
0
 62
7
  6
CONTINUOUS
 10
107.1414040829
 20
206.467759061
 11
107.1659603189
 21
206.5236497112
  0
POLYLINE
  8
0
 62
7
  6
CONTINUOUS
 66
1
 70
0
  0
VERTEX
  8
0
 62
7
  6
CONTINUOUS
 10
107.1659603189
 20
206.5236497112
  0
VERTEX
  8
0
 62
7
  6
CONTINUOUS
 10
107.208311894
 20
206.5940426247
  0
VERTEX
  8
0
 62
7
  6
CONTINUOUS
 10
107.2639495023
 20
206.6642034304
  0
VERTEX
  8
0
 62
7
  6
CONTINUOUS
 10
107.3154221439
 20
206.716885642
  0
SEQEND
  0
LINE
  8
0
 62
7
  6
CONTINUOUS
 10
124.1685025046
 20
206.7598672699
 11
124.249522562
 21
206.8050860406
  0
LINE
  8
0
 62
7
  6
CONTINUOUS
 10
141.049522562
 20
206.8050860406
 11
141.1326105826
 21
206.8343851022
  0
LINE
  8
0
 62
7
  6
CONTINUOUS
 10
144.417065839
 20
206.2088477958
 11
144.5607362241
 21
206.2550622283
  0
LINE
  8
0
 62
7
  6
CONTINUOUS
 10
47.3571687718
 20
206.2540376184
 11
47.5272143424
 21
206.2973091943
  0
LINE
  8
0
 62
7
  6
CONTINUOUS
 10
23.2231503588
 20
206.2963955542
 11
23.4152340469
 21
206.3341491807
  0
POLYLINE
  8
0
 62
7
  6
CONTINUOUS
 66
1
 70
0
  0
VERTEX
  8
0
 62
7
  6
CONTINUOUS
 10
23.5325859883
 20
206.8343783756
  0
VERTEX
  8
0
 62
7
  6
CONTINUOUS
 10
23.6427504737
 20
206.8552727892
  0
VERTEX
  8
0
 62
7
  6
CONTINUOUS
 10
23.7486872137
 20
206.8611437793
  0
SEQEND
  0
LINE
  8
0
 62
7
  6
CONTINUOUS
 10
160.0211883669
 20
206.3341491807
 11
160.213272055
 21
206.2963955542
  0
POLYLINE
  8
0
 62
7
  6
CONTINUOUS
 66
1
 70
0
  0
VERTEX
  8
0
 62
7
  6
CONTINUOUS
 10
162.0919129823
 20
197.9619549365
  0
VERTEX
  8
0
 62
7
  6
CONTINUOUS
 10
162.2261451748
 20
197.9180808725
  0
VERTEX
  8
0
 62
7
  6
CONTINUOUS
 10
162.2563622811
 20
197.9078710993
  0
SEQEND
  0
POLYLINE
  8
0
 62
7
  6
CONTINUOUS
 66
1
 70
0
  0
VERTEX
  8
0
 62
7
  6
CONTINUOUS
 10
162.2563622811
 20
197.9078710993
  0
VERTEX
  8
0
 62
7
  6
CONTINUOUS
 10
162.3399276475
 20
197.8784805897
  0
VERTEX
  8
0
 62
7
  6
CONTINUOUS
 10
162.4301021286
 20
197.8426659698
  0
VERTEX
  8
0
 62
7
  6
CONTINUOUS
 10
162.4964513336
 20
197.8107413611
  0
VERTEX
  8
0
 62
7
  6
CONTINUOUS
 10
162.5409973043
 20
197.7827214243
  0
VERTEX
  8
0
 62
7
  6
CONTINUOUS
 10
162.5666501456
 20
197.7582852327
  0
VERTEX
  8
0
 62
7
  6
CONTINUOUS
 10
162.5758375372
 20
197.736840267
  0
SEQEND
  0
LINE
  8
0
 62
7
  6
CONTINUOUS
 10
134.7038118312
 20
206.8343851022
 11
134.7868998518
 21
206.8050860406
  0
POLYLINE
  8
0
 62
7
  6
CONTINUOUS
 66
1
 70
0
  0
VERTEX
  8
0
 62
7
  6
CONTINUOUS
 10
117.9868998518
 20
206.8050860406
  0
VERTEX
  8
0
 62
7
  6
CONTINUOUS
 10
118.0679199092
 20
206.7598672699
  0
VERTEX
  8
0
 62
7
  6
CONTINUOUS
 10
118.1211276492
 20
206.7167659135
  0
SEQEND
  0
POLYLINE
  8
0
 62
7
  6
CONTINUOUS
 66
1
 70
0
  0
VERTEX
  8
0
 62
7
  6
CONTINUOUS
 10
112.1100599942
 20
206.124225041
  0
VERTEX
  8
0
 62
7
  6
CONTINUOUS
 10
112.1622455037
 20
206.0916871279
  0
VERTEX
  8
0
 62
7
  6
CONTINUOUS
 10
112.1886942972
 20
206.0709563159
  0
VERTEX
  8
0
 62
7
  6
CONTINUOUS
 10
112.1919256092
 20
206.0679499227
  0
SEQEND
  0
LINE
  8
0
 62
7
  6
CONTINUOUS
 10
112.1656283622
 20
206.0890356118
 11
112.1657227625
 21
206.0879566114
  0
LINE
  8
0
 62
7
  6
CONTINUOUS
 10
110.5446487556
 20
198.5518574816
 11
109.9173599765
 21
206.3997238927
  0
LINE
  8
0
 62
7
  6
CONTINUOUS
 10
124.1152947646
 20
206.7167659135
 11
124.1154221243
 21
206.7168856628
  0
LINE
  8
0
 62
7
  6
CONTINUOUS
 10
124.1152947646
 20
206.7167659135
 11
124.1685025046
 21
206.7598672699
  0
LINE
  8
0
 62
7
  6
CONTINUOUS
 10
144.3058082008
 20
206.1640093308
 11
144.4200144158
 21
206.2099115984
  0
LINE
  8
0
 62
7
  6
CONTINUOUS
 10
157.849522562
 20
206.8050860406
 11
157.9326105826
 21
206.8343851022
  0
LINE
  8
0
 62
7
  6
CONTINUOUS
 10
23.1084638953
 20
206.2671279592
 11
23.2272143424
 21
206.2973091943
  0
LINE
  8
0
 62
2
  6
CONTINUOUS
 10
79.2182112069
 20
225.6315344828
 11
87.6182112069
 21
225.6315344828
  0
POLYLINE
  8
0
 62
7
  6
CONTINUOUS
 66
1
 70
0
  0
VERTEX
  8
0
 62
7
  6
CONTINUOUS
 10
160.2092080714
 20
206.2973091943
  0
VERTEX
  8
0
 62
7
  6
CONTINUOUS
 10
160.379253642
 20
206.2540376184
  0
VERTEX
  8
0
 62
7
  6
CONTINUOUS
 10
160.5193565748
 20
206.2088477958
  0
SEQEND
  0
LINE
  8
0
 62
7
  6
CONTINUOUS
 10
160.3756861897
 20
206.2550622283
 11
160.516407998
 21
206.2099115984
  0
LINE
  8
0
 62
7
  6
CONTINUOUS
 10
151.5038118312
 20
206.8343851022
 11
151.5868998518
 21
206.8050860406
  0
LINE
  8
0
 62
7
  6
CONTINUOUS
 10
118.1211276492
 20
206.7167659135
 11
118.1210002895
 21
206.7168856628
  0
POLYLINE
  8
0
 62
7
  6
CONTINUOUS
 66
1
 70
0
  0
VERTEX
  8
0
 62
7
  6
CONTINUOUS
 10
118.1210002699
 20
206.716885642
  0
VERTEX
  8
0
 62
7
  6
CONTINUOUS
 10
118.1724729115
 20
206.6642034304
  0
VERTEX
  8
0
 62
7
  6
CONTINUOUS
 10
118.2281105198
 20
206.5940426247
  0
SEQEND
  0
POLYLINE
  8
0
 62
7
  6
CONTINUOUS
 66
1
 70
0
  0
VERTEX
  8
0
 62
7
  6
CONTINUOUS
 10
109.9138972259
 20
206.3997238927
  0
VERTEX
  8
0
 62
7
  6
CONTINUOUS
 10
109.9163436666
 20
206.3892441044
  0
VERTEX
  8
0
 62
7
  6
CONTINUOUS
 10
109.9213317608
 20
206.3500338765
  0
SEQEND
  0
LINE
  8
0
 62
7
  6
CONTINUOUS
 10
118.0543185153
 20
209.6905754392
 11
118.9446487556
 21
198.5518574816
  0
LINE
  8
0
 62
7
  6
CONTINUOUS
 10
115.4576601947
 20
205.6315344828
 11
114.8917736582
 21
198.5518574816
  0
LINE
  8
0
 62
7
  6
CONTINUOUS
 10
140.9685025046
 20
206.7598672699
 11
141.049522562
 21
206.8050860406
  0
LINE
  8
0
 62
7
  6
CONTINUOUS
 10
144.224792537
 20
206.1233420167
 11
144.3080646032
 21
206.1650252787
  0
POLYLINE
  8
0
 62
7
  6
CONTINUOUS
 66
1
 70
0
  0
VERTEX
  8
0
 62
7
  6
CONTINUOUS
 10
156.4344279182
 20
200.2190673087
  0
VERTEX
  8
0
 62
7
  6
CONTINUOUS
 10
156.5139909317
 20
200.2457241407
  0
VERTEX
  8
0
 62
7
  6
CONTINUOUS
 10
156.6237605818
 20
200.2970190394
  0
VERTEX
  8
0
 62
7
  6
CONTINUOUS
 10
156.729090417
 20
200.3688667125
  0
VERTEX
  8
0
 62
7
  6
CONTINUOUS
 10
156.8266884531
 20
200.4611403856
  0
VERTEX
  8
0
 62
7
  6
CONTINUOUS
 10
156.9130812512
 20
200.5723798725
  0
VERTEX
  8
0
 62
7
  6
CONTINUOUS
 10
156.9857855146
 20
200.7009703065
  0
VERTEX
  8
0
 62
7
  6
CONTINUOUS
 10
157.042614081
 20
200.8449110916
  0
VERTEX
  8
0
 62
7
  6
CONTINUOUS
 10
157.0815237339
 20
201.0020199897
  0
VERTEX
  8
0
 62
7
  6
CONTINUOUS
 10
157.0974923569
 20
201.1255330616
  0
SEQEND
  0
LINE
  8
0
 62
7
  6
CONTINUOUS
 10
160.516407998
 20
206.2099115984
 11
160.630614213
 21
206.1640093308
  0
POLYLINE
  8
0
 62
7
  6
CONTINUOUS
 66
1
 70
0
  0
VERTEX
  8
0
 62
7
  6
CONTINUOUS
 10
134.7868998518
 20
206.8050860406
  0
VERTEX
  8
0
 62
7
  6
CONTINUOUS
 10
134.8679199092
 20
206.7598672699
  0
VERTEX
  8
0
 62
7
  6
CONTINUOUS
 10
134.9211276492
 20
206.7167659135
  0
SEQEND
  0
LINE
  8
0
 62
7
  6
CONTINUOUS
 10
118.2281105198
 20
206.5940426247
 11
118.2704620949
 21
206.5236497112
  0
LINE
  8
0
 62
7
  6
CONTINUOUS
 10
118.2704620949
 20
206.5236497112
 11
118.2950183309
 21
206.467759061
  0
LINE
  8
0
 62
7
  6
CONTINUOUS
 10
117.01107899
 20
213.3765748044
 11
118.0366590827
 21
209.7881361346
  0
LINE
  8
0
 62
7
  6
CONTINUOUS
 10
125.2253434238
 20
213.3765748044
 11
124.1997633311
 21
209.7881361346
  0
LINE
  8
0
 62
7
  6
CONTINUOUS
 10
123.9414040829
 20
206.467759061
 11
123.9659603189
 21
206.5236497112
  0
POLYLINE
  8
0
 62
7
  6
CONTINUOUS
 66
1
 70
0
  0
VERTEX
  8
0
 62
7
  6
CONTINUOUS
 10
123.9659603189
 20
206.5236497112
  0
VERTEX
  8
0
 62
7
  6
CONTINUOUS
 10
124.008311894
 20
206.5940426247
  0
VERTEX
  8
0
 62
7
  6
CONTINUOUS
 10
124.0639495023
 20
206.6642034304
  0
VERTEX
  8
0
 62
7
  6
CONTINUOUS
 10
124.1154221439
 20
206.716885642
  0
SEQEND
  0
LINE
  8
0
 62
7
  6
CONTINUOUS
 10
140.9152947646
 20
206.7167659135
 11
140.9685025046
 21
206.7598672699
  0
LINE
  8
0
 62
7
  6
CONTINUOUS
 10
157.7685025046
 20
206.7598672699
 11
157.849522562
 21
206.8050860406
  0
LINE
  8
0
 62
7
  6
CONTINUOUS
 10
160.6283578105
 20
206.1650252787
 11
160.7116298768
 21
206.1233420167
  0
POLYLINE
  8
0
 62
7
  6
CONTINUOUS
 66
1
 70
0
  0
VERTEX
  8
0
 62
7
  6
CONTINUOUS
 10
151.5868998518
 20
206.8050860406
  0
VERTEX
  8
0
 62
7
  6
CONTINUOUS
 10
151.6679199092
 20
206.7598672699
  0
VERTEX
  8
0
 62
7
  6
CONTINUOUS
 10
151.7211276492
 20
206.7167659135
  0
SEQEND
  0
LINE
  8
0
 62
7
  6
CONTINUOUS
 10
134.9211276492
 20
206.7167659135
 11
134.9210002895
 21
206.7168856628
  0
POLYLINE
  8
0
 62
7
  6
CONTINUOUS
 66
1
 70
0
  0
VERTEX
  8
0
 62
7
  6
CONTINUOUS
 10
134.9210002699
 20
206.716885642
  0
VERTEX
  8
0
 62
7
  6
CONTINUOUS
 10
134.9724729115
 20
206.6642034304
  0
VERTEX
  8
0
 62
7
  6
CONTINUOUS
 10
135.0281105198
 20
206.5940426247
  0
SEQEND
  0
LINE
  8
0
 62
7
  6
CONTINUOUS
 10
127.3446487556
 20
198.5518574816
 11
126.7173599765
 21
206.3997238927
  0
LINE
  8
0
 62
7
  6
CONTINUOUS
 10
124.1821038985
 20
209.6905754392
 11
123.2917736582
 21
198.5518574816
  0
LINE
  8
0
 62
7
  6
CONTINUOUS
 10
140.9152947646
 20
206.7167659135
 11
140.9154221243
 21
206.7168856628
  0
POLYLINE
  8
0
 62
7
  6
CONTINUOUS
 66
1
 70
0
  0
VERTEX
  8
0
 62
7
  6
CONTINUOUS
 10
156.3257161444
 20
198.024091184
  0
VERTEX
  8
0
 62
7
  6
CONTINUOUS
 10
156.4071046728
 20
198.0661342795
  0
VERTEX
  8
0
 62
7
  6
CONTINUOUS
 10
156.5284291363
 20
198.1484763317
  0
VERTEX
  8
0
 62
7
  6
CONTINUOUS
 10
156.6373425059
 20
198.2483984171
  0
VERTEX
  8
0
 62
7
  6
CONTINUOUS
 10
156.7314024616
 20
198.3639812284
  0
VERTEX
  8
0
 62
7
  6
CONTINUOUS
 10
156.8084846446
 20
198.4930044448
  0
VERTEX
  8
0
 62
7
  6
CONTINUOUS
 10
156.8667360128
 20
198.6328645823
  0
VERTEX
  8
0
 62
7
  6
CONTINUOUS
 10
156.9047019883
 20
198.7807796724
  0
VERTEX
  8
0
 62
7
  6
CONTINUOUS
 10
156.9185685677
 20
198.8870960562
  0
SEQEND
  0
POLYLINE
  8
0
 62
7
  6
CONTINUOUS
 66
1
 70
0
  0
VERTEX
  8
0
 62
7
  6
CONTINUOUS
 10
160.7100599942
 20
206.124225041
  0
VERTEX
  8
0
 62
7
  6
CONTINUOUS
 10
160.7622455037
 20
206.0916871279
  0
VERTEX
  8
0
 62
7
  6
CONTINUOUS
 10
160.7886942972
 20
206.0709563159
  0
VERTEX
  8
0
 62
7
  6
CONTINUOUS
 10
160.7919256092
 20
206.0679499227
  0
SEQEND
  0
POLYLINE
  8
0
 62
7
  6
CONTINUOUS
 66
1
 70
0
  0
VERTEX
  8
0
 62
7
  6
CONTINUOUS
 10
126.7138972259
 20
206.3997238927
  0
VERTEX
  8
0
 62
7
  6
CONTINUOUS
 10
126.7163436666
 20
206.3892441044
  0
VERTEX
  8
0
 62
7
  6
CONTINUOUS
 10
126.7213317608
 20
206.3500338765
  0
SEQEND
  0
LINE
  8
0
 62
7
  6
CONTINUOUS
 10
132.3190624372
 20
206.3997238927
 11
131.6917736582
 21
198.5518574816
  0
POLYLINE
  8
0
 62
7
  6
CONTINUOUS
 66
1
 70
0
  0
VERTEX
  8
0
 62
7
  6
CONTINUOUS
 10
132.3150906316
 20
206.3500334944
  0
VERTEX
  8
0
 62
7
  6
CONTINUOUS
 10
132.3200787776
 20
206.3892442738
  0
VERTEX
  8
0
 62
7
  6
CONTINUOUS
 10
132.322525183
 20
206.3997238927
  0
SEQEND
  0
POLYLINE
  8
0
 62
7
  6
CONTINUOUS
 66
1
 70
0
  0
VERTEX
  8
0
 62
7
  6
CONTINUOUS
 10
140.7659603189
 20
206.5236497112
  0
VERTEX
  8
0
 62
7
  6
CONTINUOUS
 10
140.808311894
 20
206.5940426247
  0
VERTEX
  8
0
 62
7
  6
CONTINUOUS
 10
140.8639495023
 20
206.6642034304
  0
VERTEX
  8
0
 62
7
  6
CONTINUOUS
 10
140.9154221439
 20
206.716885642
  0
SEQEND
  0
POLYLINE
  8
0
 62
7
  6
CONTINUOUS
 66
1
 70
0
  0
VERTEX
  8
0
 62
7
  6
CONTINUOUS
 10
144.1426898714
 20
206.0663674386
  0
VERTEX
  8
0
 62
7
  6
CONTINUOUS
 10
144.1418162001
 20
206.0652709561
  0
VERTEX
  8
0
 62
7
  6
CONTINUOUS
 10
144.1473439922
 20
206.0706085929
  0
VERTEX
  8
0
 62
7
  6
CONTINUOUS
 10
144.1732386294
 20
206.0910231341
  0
VERTEX
  8
0
 62
7
  6
CONTINUOUS
 10
144.224792537
 20
206.1233420167
  0
SEQEND
  0
LINE
  8
0
 62
7
  6
CONTINUOUS
 10
157.7152947646
 20
206.7167659135
 11
157.7685025046
 21
206.7598672699
  0
POLYLINE
  8
0
 62
7
  6
CONTINUOUS
 66
1
 70
0
  0
VERTEX
  8
0
 62
7
  6
CONTINUOUS
 10
156.2195875174
 20
197.9581538494
  0
VERTEX
  8
0
 62
7
  6
CONTINUOUS
 10
156.2923428577
 20
198.0072199347
  0
VERTEX
  8
0
 62
7
  6
CONTINUOUS
 10
156.3257161181
 20
198.0240912409
  0
SEQEND
  0
LINE
  8
0
 62
7
  6
CONTINUOUS
 10
151.7211276492
 20
206.7167659135
 11
151.7210002895
 21
206.7168856628
  0
LINE
  8
0
 62
7
  6
CONTINUOUS
 10
135.0281105198
 20
206.5940426247
 11
135.0704620949
 21
206.5236497112
  0
LINE
  8
0
 62
7
  6
CONTINUOUS
 10
135.0704620949
 20
206.5236497112
 11
135.0950183309
 21
206.467759061
  0
LINE
  8
0
 62
7
  6
CONTINUOUS
 10
134.8543185153
 20
209.6905754392
 11
135.7446487556
 21
198.5518574816
  0
LINE
  8
0
 62
7
  6
CONTINUOUS
 10
142.0253434238
 20
213.3765748044
 11
140.9997633311
 21
209.7881361346
  0
LINE
  8
0
 62
7
  6
CONTINUOUS
 10
140.7414040829
 20
206.467759061
 11
140.7659603189
 21
206.5236497112
  0
LINE
  8
0
 62
7
  6
CONTINUOUS
 10
157.7152947646
 20
206.7167659135
 11
157.7154221243
 21
206.7168856628
  0
POLYLINE
  8
0
 62
7
  6
CONTINUOUS
 66
1
 70
0
  0
VERTEX
  8
0
 62
7
  6
CONTINUOUS
 10
156.2195812026
 20
197.9581487302
  0
VERTEX
  8
0
 62
7
  6
CONTINUOUS
 10
156.17211395
 20
197.9196380865
  0
VERTEX
  8
0
 62
7
  6
CONTINUOUS
 10
156.114234291
 20
197.8708560358
  0
VERTEX
  8
0
 62
7
  6
CONTINUOUS
 10
156.0733629837
 20
197.8311949051
  0
VERTEX
  8
0
 62
7
  6
CONTINUOUS
 10
156.0494444936
 20
197.799114809
  0
VERTEX
  8
0
 62
7
  6
CONTINUOUS
 10
156.0412562682
 20
197.7732547609
  0
SEQEND
  0
POLYLINE
  8
0
 62
7
  6
CONTINUOUS
 66
1
 70
0
  0
VERTEX
  8
0
 62
7
  6
CONTINUOUS
 10
151.7210002699
 20
206.716885642
  0
VERTEX
  8
0
 62
7
  6
CONTINUOUS
 10
151.7724729115
 20
206.6642034304
  0
VERTEX
  8
0
 62
7
  6
CONTINUOUS
 10
151.8281105198
 20
206.5940426247
  0
SEQEND
  0
LINE
  8
0
 62
7
  6
CONTINUOUS
 10
133.81107899
 20
213.3765748044
 11
134.8366590827
 21
209.7881361346
  0
LINE
  8
0
 62
7
  6
CONTINUOUS
 10
143.5787622191
 20
205.6315344828
 11
144.1446487556
 21
198.5518574816
  0
LINE
  8
0
 62
7
  6
CONTINUOUS
 10
140.9821038985
 20
209.6905754392
 11
140.0917736582
 21
198.5518574816
  0
LINE
  8
0
 62
7
  6
CONTINUOUS
 10
144.1707997172
 20
206.0891003702
 11
144.1706996513
 21
206.0879566114
  0
LINE
  8
0
 62
7
  6
CONTINUOUS
 10
151.8281105198
 20
206.5940426247
 11
151.8704620949
 21
206.5236497112
  0
LINE
  8
0
 62
6
  6
CONTINUOUS
 10
146.3182112069
 20
197.6315344828
 11
146.3182112069
 21
213.6315347849
  0
LINE
  8
0
 62
7
  6
CONTINUOUS
 10
149.1190624372
 20
206.3997238927
 11
148.4917736582
 21
198.5518574816
  0
POLYLINE
  8
0
 62
7
  6
CONTINUOUS
 66
1
 70
0
  0
VERTEX
  8
0
 62
7
  6
CONTINUOUS
 10
149.1150906316
 20
206.3500334944
  0
VERTEX
  8
0
 62
7
  6
CONTINUOUS
 10
149.1200787776
 20
206.3892442738
  0
VERTEX
  8
0
 62
7
  6
CONTINUOUS
 10
149.122525183
 20
206.3997238927
  0
SEQEND
  0
POLYLINE
  8
0
 62
7
  6
CONTINUOUS
 66
1
 70
0
  0
VERTEX
  8
0
 62
7
  6
CONTINUOUS
 10
157.5659603189
 20
206.5236497112
  0
VERTEX
  8
0
 62
7
  6
CONTINUOUS
 10
157.608311894
 20
206.5940426247
  0
VERTEX
  8
0
 62
7
  6
CONTINUOUS
 10
157.6639495023
 20
206.6642034304
  0
VERTEX
  8
0
 62
7
  6
CONTINUOUS
 10
157.7154221439
 20
206.716885642
  0
SEQEND
  0
LINE
  8
0
 62
7
  6
CONTINUOUS
 10
151.8704620949
 20
206.5236497112
 11
151.8950183309
 21
206.467759061
  0
LINE
  8
0
 62
7
  6
CONTINUOUS
 10
151.6543185153
 20
209.6905754392
 11
152.5446487556
 21
198.5518574816
  0
LINE
  8
0
 62
7
  6
CONTINUOUS
 10
158.8253434238
 20
213.3765748044
 11
157.7997633311
 21
209.7881361346
  0
POLYLINE
  8
0
 62
7
  6
CONTINUOUS
 66
1
 70
0
  0
VERTEX
  8
0
 62
7
  6
CONTINUOUS
 10
156.1420749486
 20
199.9254199664
  0
VERTEX
  8
0
 62
7
  6
CONTINUOUS
 10
156.1518901944
 20
199.9503420849
  0
VERTEX
  8
0
 62
7
  6
CONTINUOUS
 10
156.1899102405
 20
200.0269284728
  0
VERTEX
  8
0
 62
7
  6
CONTINUOUS
 10
156.2325124719
 20
200.0955238532
  0
VERTEX
  8
0
 62
7
  6
CONTINUOUS
 10
156.2752399748
 20
200.1563220488
  0
VERTEX
  8
0
 62
7
  6
CONTINUOUS
 10
156.3155272612
 20
200.2112210499
  0
VERTEX
  8
0
 62
7
  6
CONTINUOUS
 10
156.3508927682
 20
200.2614059207
  0
VERTEX
  8
0
 62
7
  6
CONTINUOUS
 10
156.3790444841
 20
200.3078221492
  0
VERTEX
  8
0
 62
7
  6
CONTINUOUS
 10
156.3984381037
 20
200.3521751582
  0
VERTEX
  8
0
 62
7
  6
CONTINUOUS
 10
156.4076283181
 20
200.3962004781
  0
SEQEND
  0
LINE
  8
0
 62
7
  6
CONTINUOUS
 10
157.5414040829
 20
206.467759061
 11
157.5659603189
 21
206.5236497112
  0
POLYLINE
  8
0
 62
7
  6
CONTINUOUS
 66
1
 70
0
  0
VERTEX
  8
0
 62
7
  6
CONTINUOUS
 10
156.1419901008
 20
199.9254373849
  0
VERTEX
  8
0
 62
7
  6
CONTINUOUS
 10
156.1816766944
 20
200.0080490288
  0
VERTEX
  8
0
 62
7
  6
CONTINUOUS
 10
156.2305952452
 20
200.0760660037
  0
VERTEX
  8
0
 62
7
  6
CONTINUOUS
 10
156.2901841505
 20
200.1349600336
  0
VERTEX
  8
0
 62
7
  6
CONTINUOUS
 10
156.3587702939
 20
200.1830774813
  0
VERTEX
  8
0
 62
7
  6
CONTINUOUS
 10
156.4344279182
 20
200.2190673087
  0
SEQEND
  0
LINE
  8
0
 62
7
  6
CONTINUOUS
 10
150.61107899
 20
213.3765748044
 11
151.6366590827
 21
209.7881361346
  0
LINE
  8
0
 62
7
  6
CONTINUOUS
 10
160.3279547601
 20
206.2671749798
 11
160.9178527661
 21
198.887095977
  0
LINE
  8
0
 62
7
  6
CONTINUOUS
 10
156.036656971
 20
197.6416254146
 11
156.111276156
 21
199.7784392954
  0
LINE
  8
0
 62
7
  6
CONTINUOUS
 10
156.9185696472
 20
198.8870959699
 11
157.7821038985
 21
209.6905754392
  0
LINE
  8
0
 62
7
  6
CONTINUOUS
 10
156.4076283181
 20
200.3962004781
 11
156.504099406
 21
201.5541383703
  0
LINE
  8
0
 62
7
  6
CONTINUOUS
 10
156.504099406
 20
201.5541383703
 11
156.6113995459
 21
202.822128522
  0
POLYLINE
  8
0
 62
7
  6
CONTINUOUS
 66
1
 70
0
  0
VERTEX
  8
0
 62
7
  6
CONTINUOUS
 10
156.6113995459
 20
202.822128522
  0
VERTEX
  8
0
 62
7
  6
CONTINUOUS
 10
156.7271325994
 20
204.1658677295
  0
VERTEX
  8
0
 62
7
  6
CONTINUOUS
 10
156.787257099
 20
204.8548345982
  0
SEQEND
  0
POLYLINE
  8
0
 62
7
  6
CONTINUOUS
 66
1
 70
0
  0
VERTEX
  8
0
 62
7
  6
CONTINUOUS
 10
157.5150906499
 20
206.3500337854
  0
VERTEX
  8
0
 62
7
  6
CONTINUOUS
 10
157.5198891919
 20
206.3881518277
  0
VERTEX
  8
0
 62
7
  6
CONTINUOUS
 10
157.5308831174
 20
206.4358028467
  0
VERTEX
  8
0
 62
7
  6
CONTINUOUS
 10
157.5414137263
 20
206.4677851866
  0
SEQEND
  0
POLYLINE
  8
0
 62
7
  6
CONTINUOUS
 66
1
 70
0
  0
VERTEX
  8
0
 62
7
  6
CONTINUOUS
 10
156.1112759785
 20
199.7784345471
  0
VERTEX
  8
0
 62
7
  6
CONTINUOUS
 10
156.123778586
 20
199.8665078298
  0
VERTEX
  8
0
 62
7
  6
CONTINUOUS
 10
156.1420749486
 20
199.9254199664
  0
SEQEND
  0
POLYLINE
  8
0
 62
7
  6
CONTINUOUS
 66
1
 70
0
  0
VERTEX
  8
0
 62
7
  6
CONTINUOUS
 10
160.9178391265
 20
198.8872840825
  0
VERTEX
  8
0
 62
7
  6
CONTINUOUS
 10
160.9314758522
 20
198.7821293917
  0
VERTEX
  8
0
 62
7
  6
CONTINUOUS
 10
160.969054437
 20
198.6347596444
  0
VERTEX
  8
0
 62
7
  6
CONTINUOUS
 10
161.0268360387
 20
198.4951986019
  0
VERTEX
  8
0
 62
7
  6
CONTINUOUS
 10
161.103352572
 20
198.3663705312
  0
VERTEX
  8
0
 62
7
  6
CONTINUOUS
 10
161.1967258004
 20
198.2509054016
  0
VERTEX
  8
0
 62
7
  6
CONTINUOUS
 10
161.3046588149
 20
198.151126358
  0
VERTEX
  8
0
 62
7
  6
CONTINUOUS
 10
161.4247421818
 20
198.0687882008
  0
VERTEX
  8
0
 62
7
  6
CONTINUOUS
 10
161.5544639729
 20
198.0052502473
  0
VERTEX
  8
0
 62
7
  6
CONTINUOUS
 10
161.6911249756
 20
197.9615548239
  0
VERTEX
  8
0
 62
7
  6
CONTINUOUS
 10
161.8319890944
 20
197.9383587252
  0
VERTEX
  8
0
 62
7
  6
CONTINUOUS
 10
161.9194604366
 20
197.9344237528
  0
SEQEND
  0
LINE
  8
0
 62
7
  6
CONTINUOUS
 10
160.7656283622
 20
206.0890356118
 11
160.7657227625
 21
206.0879566114
  0
LINE
  8
0
 62
7
  6
CONTINUOUS
 10
162.5758374431
 20
197.7368412805
 11
162.5832012117
 21
197.6315344828
  0
LINE
  8
0
 62
6
  6
CONTINUOUS
 10
163.1182112069
 20
213.6315344828
 11
163.1182112069
 21
197.6315344828
  0
LINE
  8
0
 62
7
  6
CONTINUOUS
 10
167.2182112069
 20
198.6315344828
 11
167.2182112069
 21
213.4315344828
  0
LINE
  8
0
 62
2
  6
CONTINUOUS
 10
204.9435668103
 20
84.8168103448
 11
164.9435668103
 21
84.8168103448
  0
LINE
  8
0
 62
6
  6
CONTINUOUS
 10
177.5088691075
 20
96.6492540269
 11
177.8638898092
 21
96.7062627461
  0
POLYLINE
  8
0
 62
6
  6
CONTINUOUS
 66
1
 70
0
  0
VERTEX
  8
0
 62
6
  6
CONTINUOUS
 10
192.9435668103
 20
96.5445290216
  0
VERTEX
  8
0
 62
6
  6
CONTINUOUS
 10
192.9379589494
 20
96.5439170689
  0
VERTEX
  8
0
 62
6
  6
CONTINUOUS
 10
192.9218937955
 20
96.5450560898
  0
VERTEX
  8
0
 62
6
  6
CONTINUOUS
 10
192.8962322073
 20
96.5481410626
  0
VERTEX
  8
0
 62
6
  6
CONTINUOUS
 10
192.8624238349
 20
96.5531581971
  0
VERTEX
  8
0
 62
6
  6
CONTINUOUS
 10
192.8224150522
 20
96.559928213
  0
VERTEX
  8
0
 62
6
  6
CONTINUOUS
 10
192.7784913654
 20
96.5681428868
  0
SEQEND
  0
POLYLINE
  8
0
 62
7
  6
CONTINUOUS
 66
1
 70
0
  0
VERTEX
  8
0
 62
7
  6
CONTINUOUS
 10
177.9435668103
 20
96.5855164944
  0
VERTEX
  8
0
 62
7
  6
CONTINUOUS
 10
177.7887875625
 20
96.5853759608
  0
VERTEX
  8
0
 62
7
  6
CONTINUOUS
 10
177.6374069791
 20
96.5826414583
  0
VERTEX
  8
0
 62
7
  6
CONTINUOUS
 10
177.493131265
 20
96.578036096
  0
VERTEX
  8
0
 62
7
  6
CONTINUOUS
 10
177.3595224419
 20
96.5722273654
  0
VERTEX
  8
0
 62
7
  6
CONTINUOUS
 10
177.2399181465
 20
96.5658382102
  0
VERTEX
  8
0
 62
7
  6
CONTINUOUS
 10
177.1373533592
 20
96.5594538336
  0
VERTEX
  8
0
 62
7
  6
CONTINUOUS
 10
177.0544854283
 20
96.5536257365
  0
VERTEX
  8
0
 62
7
  6
CONTINUOUS
 10
176.9935245461
 20
96.5488739739
  0
VERTEX
  8
0
 62
7
  6
CONTINUOUS
 10
176.956171762
 20
96.5456883368
  0
VERTEX
  8
0
 62
7
  6
CONTINUOUS
 10
176.9435668103
 20
96.5445290216
  0
SEQEND
  0
LINE
  8
0
 62
7
  6
CONTINUOUS
 10
192.7435668103
 20
96.5795581615
 11
192.9435668103
 21
96.5445290216
  0
POLYLINE
  8
0
 62
6
  6
CONTINUOUS
 66
1
 70
0
  0
VERTEX
  8
0
 62
6
  6
CONTINUOUS
 10
192.7916702576
 20
96.5655996854
  0
VERTEX
  8
0
 62
6
  6
CONTINUOUS
 10
192.8403150456
 20
96.556806367
  0
VERTEX
  8
0
 62
6
  6
CONTINUOUS
 10
192.8825264245
 20
96.5500779242
  0
VERTEX
  8
0
 62
6
  6
CONTINUOUS
 10
192.9152908676
 20
96.5457582209
  0
VERTEX
  8
0
 62
6
  6
CONTINUOUS
 10
192.9361875594
 20
96.5439693342
  0
VERTEX
  8
0
 62
6
  6
CONTINUOUS
 10
192.9435668103
 20
96.5445290216
  0
SEQEND
  0
LINE
  8
DEFAULT_1
 62
2
  6
CENTER
 10
189.3435668103
 20
99.4168103448
 11
186.9436668103
 21
99.4168103448
  0
LINE
  8
0
 62
2
  6
CONTINUOUS
 10
185.8235668103
 20
99.4168103448
 11
184.0635668103
 21
99.4168103448
  0
LINE
  8
DEFAULT_1
 62
2
  6
CENTER
 10
180.5435668103
 20
99.4168103448
 11
182.9434668103
 21
99.4168103448
  0
LINE
  8
0
 62
6
  6
CONTINUOUS
 10
192.7916702576
 20
96.5655996854
 11
192.7330862882
 21
96.5774043084
  0
LINE
  8
0
 62
6
  6
CONTINUOUS
 10
192.6886082259
 20
96.5872623094
 11
192.7399501467
 21
96.5759542315
  0
LINE
  8
0
 62
2
  6
CONTINUOUS
 10
164.9435668103
 20
84.8168103448
 11
164.9435668103
 21
164.8168103448
  0
POLYLINE
  8
0
 62
7
  6
CONTINUOUS
 66
1
 70
0
  0
VERTEX
  8
0
 62
7
  6
CONTINUOUS
 10
176.9536577422
 20
153.085036943
  0
VERTEX
  8
0
 62
7
  6
CONTINUOUS
 10
177.202847031
 20
153.7122339481
  0
VERTEX
  8
0
 62
7
  6
CONTINUOUS
 10
177.5030812082
 20
154.3197981312
  0
VERTEX
  8
0
 62
7
  6
CONTINUOUS
 10
177.8517296108
 20
154.9009382893
  0
VERTEX
  8
0
 62
7
  6
CONTINUOUS
 10
178.2459218061
 20
155.4505041945
  0
SEQEND
  0
LINE
  8
0
 62
7
  6
CONTINUOUS
 10
176.9435668103
 20
103.9168103448
 11
176.9435668103
 21
96.5445290216
  0
LINE
  8
0
 62
6
  6
CONTINUOUS
 10
176.9435668103
 20
96.5445758883
 11
176.9435668103
 21
96.5445290216
  0
LINE
  8
0
 62
7
  6
CONTINUOUS
 10
176.9435668103
 20
145.7168103448
 11
176.9435668103
 21
153.0890448013
  0
LINE
  8
0
 62
6
  6
CONTINUOUS
 10
176.9435668103
 20
153.0890448013
 11
176.9435668103
 21
153.0890916681
  0
LINE
  8
0
 62
7
  6
CONTINUOUS
 10
176.9536577422
 20
145.7168103449
 11
176.9536577422
 21
153.085036943
  0
LINE
  8
0
 62
40
  6
CONTINUOUS
 10
176.9935668103
 20
124.0639869841
 11
176.9935668103
 21
125.5696337056
  0
LINE
  8
0
 62
40
  6
CONTINUOUS
 10
177.7100946014
 20
126.5286141573
 11
184.334518188
 21
128.4867771043
  0
LINE
  8
0
 62
40
  6
CONTINUOUS
 10
184.334518188
 20
121.1468435854
 11
177.7100946014
 21
123.1050065324
  0
POLYLINE
  8
0
 62
7
  6
CONTINUOUS
 66
1
 70
0
  0
VERTEX
  8
0
 62
7
  6
CONTINUOUS
 10
177.0852927902
 20
144.4650916063
  0
VERTEX
  8
0
 62
7
  6
CONTINUOUS
 10
177.0122893379
 20
144.8788506602
  0
VERTEX
  8
0
 62
7
  6
CONTINUOUS
 10
176.968337946
 20
145.2967380434
  0
VERTEX
  8
0
 62
7
  6
CONTINUOUS
 10
176.9536577422
 20
145.7168103449
  0
SEQEND
  0
LINE
  8
DEFAULT_1
 62
2
  6
CENTER
 10
184.9435668103
 20
154.6168103448
 11
184.9435668103
 21
152.2169103448
  0
LINE
  8
0
 62
2
  6
CONTINUOUS
 10
184.9435668103
 20
151.0968103448
 11
184.9435668103
 21
149.3368103448
  0
LINE
  8
0
 62
40
  6
CONTINUOUS
 10
184.9435668103
 20
149.3368103448
 11
184.9435668103
 21
148.8368103448
  0
LINE
  8
0
 62
7
  6
CONTINUOUS
 10
184.9435668103
 20
130.994619524
 11
184.9435668103
 21
118.6390011656
  0
LINE
  8
DEFAULT_1
 62
2
  6
CENTER
 10
184.9435668103
 20
103.8168103448
 11
184.9435668103
 21
101.4169103448
  0
LINE
  8
0
 62
2
  6
CONTINUOUS
 10
184.9435668103
 20
100.2968103448
 11
184.9435668103
 21
98.5368103448
  0
LINE
  8
0
 62
40
  6
CONTINUOUS
 10
184.9435668103
 20
98.5368103448
 11
184.9435668103
 21
97.7968103448
  0
LINE
  8
0
 62
40
  6
CONTINUOUS
 10
184.9435668103
 20
90.9177234607
 11
184.9435668103
 21
70.9935103448
  0
LINE
  8
DEFAULT_1
 62
2
  6
CENTER
 10
184.9435668103
 20
95.0168103448
 11
184.9435668103
 21
97.4167103448
  0
LINE
  8
0
 62
40
  6
CONTINUOUS
 10
184.9435668103
 20
100.2968103448
 11
184.9435668103
 21
100.7968103448
  0
LINE
  8
DEFAULT_1
 62
2
  6
CENTER
 10
184.9435668103
 20
145.8168103448
 11
184.9435668103
 21
148.2167103448
  0
LINE
  8
0
 62
40
  6
CONTINUOUS
 10
184.9435668103
 20
151.0968103448
 11
184.9435668103
 21
151.8368103448
  0
LINE
  8
0
 62
40
  6
CONTINUOUS
 10
184.9435668103
 20
158.7159983124
 11
184.9435668103
 21
178.6401103448
  0
LINE
  8
0
 62
7
  6
CONTINUOUS
 10
188.8471320666
 20
142.165729402
 11
185.0011585901
 21
131.3290843898
  0
LINE
  8
0
 62
6
  6
CONTINUOUS
 10
204.9435668103
 20
124.8168103448
 11
196.2721578937
 21
124.8168103448
  0
LINE
  8
0
 62
6
  6
CONTINUOUS
 10
179.347923758
 20
124.8168103448
 11
164.9435668103
 21
124.8168103448
  0
LINE
  8
DEFAULT_1
 62
2
  6
CENTER
 10
179.347923758
 20
124.8168103448
 11
196.2721578937
 21
124.8168103448
  0
LINE
  8
0
 62
7
  6
CONTINUOUS
 10
185.0011585901
 20
118.3045362999
 11
186.1443802174
 21
115.0833266318
  0
LINE
  8
0
 62
6
  6
CONTINUOUS
 10
188.8471320666
 20
107.4678912876
 11
186.1443802174
 21
115.0833266318
  0
LINE
  8
0
 62
6
  6
CONTINUOUS
 10
192.9435959905
 20
145.6456969884
 11
192.9435201607
 21
145.6454207602
  0
POLYLINE
  8
0
 62
7
  6
CONTINUOUS
 66
1
 70
0
  0
VERTEX
  8
0
 62
7
  6
CONTINUOUS
 10
177.3620051692
 20
143.7712542108
  0
VERTEX
  8
0
 62
7
  6
CONTINUOUS
 10
177.2909336612
 20
143.8792456156
  0
VERTEX
  8
0
 62
7
  6
CONTINUOUS
 10
177.231661223
 20
143.9956747667
  0
VERTEX
  8
0
 62
7
  6
CONTINUOUS
 10
177.1828803955
 20
144.1165105394
  0
VERTEX
  8
0
 62
7
  6
CONTINUOUS
 10
177.143224081
 20
144.2370221183
  0
VERTEX
  8
0
 62
7
  6
CONTINUOUS
 10
177.1111476106
 20
144.3537429588
  0
VERTEX
  8
0
 62
7
  6
CONTINUOUS
 10
177.0852872759
 20
144.4651168845
  0
SEQEND
  0
LINE
  8
0
 62
6
  6
CONTINUOUS
 10
192.9435959909
 20
103.9879236961
 11
192.9435201598
 21
103.9881999294
  0
LINE
  8
0
 62
7
  6
CONTINUOUS
 10
192.9435668103
 20
96.5445290216
 11
192.9435668103
 21
153.0890916681
  0
POLYLINE
  8
0
 62
7
  6
CONTINUOUS
 66
1
 70
0
  0
VERTEX
  8
0
 62
7
  6
CONTINUOUS
 10
192.9435959905
 20
145.6456969884
  0
VERTEX
  8
0
 62
7
  6
CONTINUOUS
 10
192.9351419189
 20
145.7101541409
  0
VERTEX
  8
0
 62
7
  6
CONTINUOUS
 10
192.9103511402
 20
145.770251475
  0
VERTEX
  8
0
 62
7
  6
CONTINUOUS
 10
192.870900498
 20
145.8219234515
  0
VERTEX
  8
0
 62
7
  6
CONTINUOUS
 10
192.8194586545
 20
145.8616744003
  0
VERTEX
  8
0
 62
7
  6
CONTINUOUS
 10
192.7595055806
 20
145.886815096
  0
VERTEX
  8
0
 62
7
  6
CONTINUOUS
 10
192.695097103
 20
145.8956447669
  0
VERTEX
  8
0
 62
7
  6
CONTINUOUS
 10
192.6305904614
 20
145.8875661963
  0
VERTEX
  8
0
 62
7
  6
CONTINUOUS
 10
192.570349466
 20
145.8631261215
  0
VERTEX
  8
0
 62
7
  6
CONTINUOUS
 10
192.5184492282
 20
145.8239782022
  0
VERTEX
  8
0
 62
7
  6
CONTINUOUS
 10
192.4784004485
 20
145.7727710754
  0
SEQEND
  0
LINE
  8
0
 62
7
  6
CONTINUOUS
 10
181.8311723668
 20
144.4168103448
 11
184.9435668103
 21
144.4168103448
  0
POLYLINE
  8
0
 62
7
  6
CONTINUOUS
 66
1
 70
0
  0
VERTEX
  8
0
 62
7
  6
CONTINUOUS
 10
176.9435668103
 20
153.0890448013
  0
VERTEX
  8
0
 62
7
  6
CONTINUOUS
 10
176.9460955345
 20
153.0874475401
  0
VERTEX
  8
0
 62
7
  6
CONTINUOUS
 10
176.9536577422
 20
153.085036943
  0
SEQEND
  0
LINE
  8
0
 62
2
  6
CONTINUOUS
 10
204.9435668103
 20
84.8168103448
 11
204.9435668103
 21
164.8168103448
  0
POLYLINE
  8
0
 62
6
  6
CONTINUOUS
 66
1
 70
0
  0
VERTEX
  8
0
 62
6
  6
CONTINUOUS
 10
176.9435668103
 20
96.5445758883
  0
VERTEX
  8
0
 62
6
  6
CONTINUOUS
 10
176.9612196251
 20
96.5505688313
  0
VERTEX
  8
0
 62
6
  6
CONTINUOUS
 10
177.0133543539
 20
96.5619772581
  0
VERTEX
  8
0
 62
6
  6
CONTINUOUS
 10
177.0978563279
 20
96.5782600836
  0
VERTEX
  8
0
 62
6
  6
CONTINUOUS
 10
177.2115163432
 20
96.598760666
  0
VERTEX
  8
0
 62
6
  6
CONTINUOUS
 10
177.3501694851
 20
96.6227130409
  0
VERTEX
  8
0
 62
6
  6
CONTINUOUS
 10
177.5088691075
 20
96.6492540269
  0
SEQEND
  0
LINE
  8
DEFAULT_1
 62
2
  6
CENTER
 10
189.3435668103
 20
150.2168103448
 11
186.9436668103
 21
150.2168103448
  0
LINE
  8
0
 62
2
  6
CONTINUOUS
 10
185.8235668103
 20
150.2168103448
 11
184.0635668103
 21
150.2168103448
  0
LINE
  8
DEFAULT_1
 62
2
  6
CENTER
 10
180.5435668103
 20
150.2168103448
 11
182.9434668103
 21
150.2168103448
  0
POLYLINE
  8
0
 62
6
  6
CONTINUOUS
 66
1
 70
0
  0
VERTEX
  8
0
 62
6
  6
CONTINUOUS
 10
176.9435668103
 20
153.0890448013
  0
VERTEX
  8
0
 62
6
  6
CONTINUOUS
 10
176.9612196251
 20
153.0830518583
  0
VERTEX
  8
0
 62
6
  6
CONTINUOUS
 10
177.0133543539
 20
153.0716434316
  0
VERTEX
  8
0
 62
6
  6
CONTINUOUS
 10
177.0978563279
 20
153.055360606
  0
VERTEX
  8
0
 62
6
  6
CONTINUOUS
 10
177.2115163432
 20
153.0348600237
  0
VERTEX
  8
0
 62
6
  6
CONTINUOUS
 10
177.3501694851
 20
153.0109076487
  0
VERTEX
  8
0
 62
6
  6
CONTINUOUS
 10
177.5088691074
 20
152.9843666627
  0
VERTEX
  8
0
 62
6
  6
CONTINUOUS
 10
177.8638898092
 20
152.9273579435
  0
SEQEND
  0
POLYLINE
  8
0
 62
7
  6
CONTINUOUS
 66
1
 70
0
  0
VERTEX
  8
0
 62
7
  6
CONTINUOUS
 10
192.9435668103
 20
153.0890916681
  0
VERTEX
  8
0
 62
7
  6
CONTINUOUS
 10
192.9379589501
 20
153.0897036208
  0
VERTEX
  8
0
 62
7
  6
CONTINUOUS
 10
192.9218937967
 20
153.0885645999
  0
VERTEX
  8
0
 62
7
  6
CONTINUOUS
 10
192.8962322089
 20
153.0854796272
  0
VERTEX
  8
0
 62
7
  6
CONTINUOUS
 10
192.8624238368
 20
153.0804624928
  0
VERTEX
  8
0
 62
7
  6
CONTINUOUS
 10
192.8224150544
 20
153.073692477
  0
VERTEX
  8
0
 62
7
  6
CONTINUOUS
 10
192.7784913674
 20
153.0654778033
  0
VERTEX
  8
0
 62
7
  6
CONTINUOUS
 10
192.7330862896
 20
153.0562163815
  0
VERTEX
  8
0
 62
7
  6
CONTINUOUS
 10
192.688607132
 20
153.0463581199
  0
SEQEND
  0
LINE
  8
0
 62
7
  6
CONTINUOUS
 10
184.9435668103
 20
156.0168103448
 11
181.8311723668
 21
156.0168103448
  0
LINE
  8
0
 62
2
  6
CONTINUOUS
 10
205.3635668103
 20
165.6568103448
 11
165.3635668103
 21
165.6568103448
  0
ARC
  8
0
 62
7
  6
CONTINUOUS
 10
157.7682112069
 20
129.8168103448
 40
2.0
 50
0.0
 51
90.0
  0
ARC
  8
0
 62
7
  6
CONTINUOUS
 10
157.7682112069
 20
119.8168103448
 40
2.0
 50
270.0
 51
360.0
  0
ARC
  8
0
 62
7
  6
CONTINUOUS
 10
147.1682112069
 20
119.8168103448
 40
2.0
 50
180.0
 51
270.0
  0
ARC
  8
0
 62
7
  6
CONTINUOUS
 10
147.1682112069
 20
129.8168103448
 40
2.0
 50
90.0
 51
180.0
  0
ARC
  8
0
 62
7
  6
CONTINUOUS
 10
133.4682112069
 20
129.8168103448
 40
2.0
 50
0.0
 51
90.0
  0
ARC
  8
0
 62
7
  6
CONTINUOUS
 10
133.4682112069
 20
119.8168103448
 40
2.0
 50
270.0
 51
360.0
  0
ARC
  8
0
 62
7
  6
CONTINUOUS
 10
122.8682112069
 20
119.8168103448
 40
2.0
 50
180.0
 51
270.0
  0
ARC
  8
0
 62
7
  6
CONTINUOUS
 10
122.8682112069
 20
129.8168103448
 40
2.0
 50
90.0
 51
180.0
  0
ARC
  8
0
 62
7
  6
CONTINUOUS
 10
109.1682112069
 20
129.8168103448
 40
2.0
 50
0.0
 51
90.0
  0
ARC
  8
0
 62
7
  6
CONTINUOUS
 10
109.1682112069
 20
119.8168103448
 40
2.0
 50
270.0
 51
360.0
  0
ARC
  8
0
 62
7
  6
CONTINUOUS
 10
98.5682112069
 20
119.8168103448
 40
2.0
 50
180.0
 51
270.0
  0
ARC
  8
0
 62
7
  6
CONTINUOUS
 10
98.5682112069
 20
129.8168103448
 40
2.0
 50
90.0
 51
180.0
  0
ARC
  8
0
 62
7
  6
CONTINUOUS
 10
84.8682112069
 20
129.8168103448
 40
2.0
 50
0.0
 51
90.0
  0
ARC
  8
0
 62
7
  6
CONTINUOUS
 10
84.8682112069
 20
119.8168103448
 40
2.0
 50
270.0
 51
360.0
  0
ARC
  8
0
 62
7
  6
CONTINUOUS
 10
74.2682112069
 20
119.8168103448
 40
2.0
 50
180.0
 51
270.0
  0
ARC
  8
0
 62
7
  6
CONTINUOUS
 10
74.2682112069
 20
129.8168103448
 40
2.0
 50
90.0
 51
180.0
  0
ARC
  8
0
 62
7
  6
CONTINUOUS
 10
60.5682112069
 20
129.8168103448
 40
2.0
 50
0.0
 51
90.0
  0
ARC
  8
0
 62
7
  6
CONTINUOUS
 10
60.5682112069
 20
119.8168103448
 40
2.0
 50
270.0
 51
360.0
  0
ARC
  8
0
 62
7
  6
CONTINUOUS
 10
49.9682112069
 20
119.8168103448
 40
2.0
 50
180.0
 51
270.0
  0
ARC
  8
0
 62
7
  6
CONTINUOUS
 10
49.9682112069
 20
129.8168103448
 40
2.0
 50
90.0
 51
180.0
  0
ARC
  8
0
 62
7
  6
CONTINUOUS
 10
36.2682112069
 20
129.8168103448
 40
2.0
 50
0.0
 51
90.0
  0
ARC
  8
0
 62
7
  6
CONTINUOUS
 10
36.2682112069
 20
119.8168103448
 40
2.0
 50
270.0
 51
360.0
  0
ARC
  8
0
 62
7
  6
CONTINUOUS
 10
25.6682112069
 20
119.8168103448
 40
2.0
 50
180.0
 51
270.0
  0
ARC
  8
0
 62
7
  6
CONTINUOUS
 10
25.6682112069
 20
129.8168103448
 40
2.0
 50
90.0
 51
180.0
  0
ARC
  8
0
 62
40
  6
CONTINUOUS
 10
17.5182112069
 20
99.2968103448
 40
1.5
 50
150.095255074
 51
209.904744926
  0
ARC
  8
0
 62
40
  6
CONTINUOUS
 10
165.9182112069
 20
150.3368103448
 40
1.5
 50
330.095255074
 51
29.904744926
  0
ARC
  8
0
 62
7
  6
CONTINUOUS
 10
16.4182112069
 20
145.6954207601
 40
0.2
 50
90.0
 51
180.0
  0
ARC
  8
0
 62
7
  6
CONTINUOUS
 10
167.0182112069
 20
103.9381999296
 40
0.2
 50
270.0
 51
360.0
  0
ARC
  8
0
 62
7
  6
CONTINUOUS
 10
86.3414694895
 20
198.6315344828
 40
1.0
 50
184.57
 51
270.0
  0
ARC
  8
0
 62
7
  6
CONTINUOUS
 10
88.6949529243
 20
198.6315344828
 40
1.0
 50
270.0
 51
355.43
  0
ARC
  8
0
 62
7
  6
CONTINUOUS
 10
80.2949529243
 20
198.6315344828
 40
1.0
 50
270.0
 51
355.43
  0
ARC
  8
0
 62
7
  6
CONTINUOUS
 10
69.5414694895
 20
198.6315344828
 40
1.0
 50
184.57
 51
270.0
  0
ARC
  8
0
 62
7
  6
CONTINUOUS
 10
71.8949529243
 20
198.6315344828
 40
1.0
 50
270.0
 51
355.43
  0
ARC
  8
0
 62
7
  6
CONTINUOUS
 10
77.9414694895
 20
198.6315344828
 40
1.0
 50
184.57
 51
270.0
  0
ARC
  8
0
 62
7
  6
CONTINUOUS
 10
63.4949529243
 20
198.6315344828
 40
1.0
 50
270.0
 51
355.43
  0
ARC
  8
0
 62
7
  6
CONTINUOUS
 10
52.7414694895
 20
198.6315344828
 40
1.0
 50
184.57
 51
270.0
  0
ARC
  8
0
 62
7
  6
CONTINUOUS
 10
55.0949529243
 20
198.6315344828
 40
1.0
 50
270.0
 51
355.43
  0
ARC
  8
0
 62
7
  6
CONTINUOUS
 10
61.1414694895
 20
198.6315344828
 40
1.0
 50
184.57
 51
270.0
  0
ARC
  8
0
 62
7
  6
CONTINUOUS
 10
46.6949529243
 20
198.6315344828
 40
1.0
 50
270.0
 51
355.43
  0
ARC
  8
0
 62
7
  6
CONTINUOUS
 10
35.9414694895
 20
198.6315344828
 40
1.0
 50
184.57
 51
270.0
  0
ARC
  8
0
 62
7
  6
CONTINUOUS
 10
38.2949529243
 20
198.6315344828
 40
1.0
 50
270.0
 51
355.43
  0
ARC
  8
0
 62
7
  6
CONTINUOUS
 10
44.3414694895
 20
198.6315344828
 40
1.0
 50
184.57
 51
270.0
  0
ARC
  8
0
 62
7
  6
CONTINUOUS
 10
29.8949529243
 20
198.6315344828
 40
1.0
 50
270.0
 51
355.43
  0
ARC
  8
0
 62
7
  6
CONTINUOUS
 10
27.5414694895
 20
198.6315344828
 40
1.0
 50
261.8535358985
 51
270.0
  0
ARC
  8
0
 62
7
  6
CONTINUOUS
 10
17.2182112069
 20
198.6315344828
 40
1.0
 50
180.0
 51
270.0
  0
ARC
  8
0
 62
7
  6
CONTINUOUS
 10
91.0805142655
 20
209.6507369387
 40
0.5
 50
164.05
 51
175.43
  0
ARC
  8
0
 62
7
  6
CONTINUOUS
 10
83.9559081483
 20
209.6507369387
 40
0.5
 50
4.57
 51
15.95
  0
ARC
  8
0
 62
7
  6
CONTINUOUS
 10
74.2805142655
 20
209.6507369387
 40
0.5
 50
164.05
 51
175.43
  0
ARC
  8
0
 62
7
  6
CONTINUOUS
 10
67.1559081483
 20
209.6507369387
 40
0.5
 50
4.57
 51
15.95
  0
ARC
  8
0
 62
7
  6
CONTINUOUS
 10
57.4805142655
 20
209.6507369387
 40
0.5
 50
164.05
 51
175.43
  0
ARC
  8
0
 62
7
  6
CONTINUOUS
 10
50.3559081483
 20
209.6507369387
 40
0.5
 50
4.57
 51
15.95
  0
ARC
  8
0
 62
7
  6
CONTINUOUS
 10
46.4726023023
 20
206.1315344828
 40
0.5
 50
270.0
 51
355.0
  0
ARC
  8
0
 62
7
  6
CONTINUOUS
 10
64.0638200297
 20
206.1315354183
 40
0.5
 50
185.0001076177
 51
270.0000093795
  0
ARC
  8
0
 62
7
  6
CONTINUOUS
 10
40.6805142655
 20
209.6507369387
 40
0.5
 50
164.05
 51
175.43
  0
ARC
  8
0
 62
7
  6
CONTINUOUS
 10
33.5559081483
 20
209.6507369387
 40
0.5
 50
4.57
 51
15.95
  0
ARC
  8
0
 62
7
  6
CONTINUOUS
 10
23.8805142655
 20
209.6507369387
 40
0.5
 50
164.05
 51
175.43
  0
ARC
  8
0
 62
7
  6
CONTINUOUS
 10
91.43304305
 20
213.4315344828
 40
0.2
 50
344.05
 51
90.0
  0
ARC
  8
0
 62
7
  6
CONTINUOUS
 10
83.6033793638
 20
213.4315344828
 40
0.2
 50
90.0
 51
195.95
  0
ARC
  8
0
 62
7
  6
CONTINUOUS
 10
74.63304305
 20
213.4315344828
 40
0.2
 50
344.05
 51
90.0
  0
ARC
  8
0
 62
7
  6
CONTINUOUS
 10
66.8033793638
 20
213.4315344828
 40
0.2
 50
90.0
 51
195.95
  0
ARC
  8
0
 62
7
  6
CONTINUOUS
 10
57.83304305
 20
213.4315344828
 40
0.2
 50
344.05
 51
90.0
  0
ARC
  8
0
 62
7
  6
CONTINUOUS
 10
50.0033793638
 20
213.4315344828
 40
0.2
 50
90.0
 51
195.95
  0
ARC
  8
0
 62
7
  6
CONTINUOUS
 10
41.03304305
 20
213.4315344828
 40
0.2
 50
344.05
 51
90.0
  0
ARC
  8
0
 62
7
  6
CONTINUOUS
 10
33.2033793638
 20
213.4315344828
 40
0.2
 50
90.0
 51
195.95
  0
ARC
  8
0
 62
7
  6
CONTINUOUS
 10
24.23304305
 20
213.4315344828
 40
0.2
 50
344.05
 51
90.0
  0
ARC
  8
0
 62
7
  6
CONTINUOUS
 10
16.4182112069
 20
213.4315344828
 40
0.2
 50
90.0
 51
180.0
  0
ARC
  8
0
 62
7
  6
CONTINUOUS
 10
155.8949529243
 20
198.6315344828
 40
1.0
 50
270.0
 51
278.1464641015
  0
ARC
  8
0
 62
7
  6
CONTINUOUS
 10
153.5414694895
 20
198.6315344828
 40
1.0
 50
184.57
 51
270.0
  0
ARC
  8
0
 62
7
  6
CONTINUOUS
 10
147.4949529243
 20
198.6315344828
 40
1.0
 50
270.0
 51
355.43
  0
ARC
  8
0
 62
7
  6
CONTINUOUS
 10
136.7414694895
 20
198.6315344828
 40
1.0
 50
184.57
 51
270.0
  0
ARC
  8
0
 62
7
  6
CONTINUOUS
 10
139.0949529243
 20
198.6315344828
 40
1.0
 50
270.0
 51
355.43
  0
ARC
  8
0
 62
7
  6
CONTINUOUS
 10
145.1414694895
 20
198.6315344828
 40
1.0
 50
184.57
 51
270.0
  0
ARC
  8
0
 62
7
  6
CONTINUOUS
 10
130.6949529243
 20
198.6315344828
 40
1.0
 50
270.0
 51
355.43
  0
ARC
  8
0
 62
7
  6
CONTINUOUS
 10
119.9414694895
 20
198.6315344828
 40
1.0
 50
184.57
 51
270.0
  0
ARC
  8
0
 62
7
  6
CONTINUOUS
 10
122.2949529243
 20
198.6315344828
 40
1.0
 50
270.0
 51
355.43
  0
ARC
  8
0
 62
7
  6
CONTINUOUS
 10
128.3414694895
 20
198.6315344828
 40
1.0
 50
184.57
 51
270.0
  0
ARC
  8
0
 62
7
  6
CONTINUOUS
 10
113.8949529243
 20
198.6315344828
 40
1.0
 50
270.0
 51
355.43
  0
ARC
  8
0
 62
7
  6
CONTINUOUS
 10
103.1414694895
 20
198.6315344828
 40
1.0
 50
184.57
 51
270.0
  0
ARC
  8
0
 62
7
  6
CONTINUOUS
 10
105.4949529243
 20
198.6315344828
 40
1.0
 50
270.0
 51
355.43
  0
ARC
  8
0
 62
7
  6
CONTINUOUS
 10
111.5414694895
 20
198.6315344828
 40
1.0
 50
184.57
 51
270.0
  0
ARC
  8
0
 62
7
  6
CONTINUOUS
 10
97.0949529243
 20
198.6315344828
 40
1.0
 50
270.0
 51
355.43
  0
ARC
  8
0
 62
7
  6
CONTINUOUS
 10
94.7414694895
 20
198.6315344828
 40
1.0
 50
184.57
 51
270.0
  0
ARC
  8
0
 62
7
  6
CONTINUOUS
 10
166.2182112069
 20
198.6315344828
 40
1.0
 50
270.0
 51
360.0
  0
ARC
  8
0
 62
6
  6
CONTINUOUS
 10
155.8949529243
 20
198.6315344828
 40
1.0
 50
278.1464641015
 51
355.43
  0
ARC
  8
0
 62
6
  6
CONTINUOUS
 10
161.9414694895
 20
198.6315344828
 40
1.0
 50
184.57
 51
270.0
  0
ARC
  8
0
 62
7
  6
CONTINUOUS
 10
124.6805142655
 20
209.6507369387
 40
0.5
 50
164.05
 51
175.43
  0
ARC
  8
0
 62
7
  6
CONTINUOUS
 10
117.5559081483
 20
209.6507369387
 40
0.5
 50
4.57
 51
15.95
  0
ARC
  8
0
 62
7
  6
CONTINUOUS
 10
107.8805142655
 20
209.6507369387
 40
0.5
 50
164.05
 51
175.43
  0
ARC
  8
0
 62
7
  6
CONTINUOUS
 10
100.7559081483
 20
209.6507369387
 40
0.5
 50
4.57
 51
15.95
  0
ARC
  8
0
 62
7
  6
CONTINUOUS
 10
95.0726023023
 20
206.1315344828
 40
0.5
 50
270.0
 51
355.0
  0
ARC
  8
0
 62
7
  6
CONTINUOUS
 10
112.6638200297
 20
206.1315354183
 40
0.5
 50
185.0001076177
 51
270.0000093795
  0
ARC
  8
0
 62
7
  6
CONTINUOUS
 10
125.03304305
 20
213.4315344828
 40
0.2
 50
344.05
 51
90.0
  0
ARC
  8
0
 62
7
  6
CONTINUOUS
 10
117.2033793638
 20
213.4315344828
 40
0.2
 50
90.0
 51
195.95
  0
ARC
  8
0
 62
7
  6
CONTINUOUS
 10
108.23304305
 20
213.4315344828
 40
0.2
 50
344.05
 51
90.0
  0
ARC
  8
0
 62
7
  6
CONTINUOUS
 10
100.4033793638
 20
213.4315344828
 40
0.2
 50
90.0
 51
195.95
  0
ARC
  8
0
 62
7
  6
CONTINUOUS
 10
166.2182112069
 20
206.6315344828
 40
1.0
 50
270.0
 51
360.0
  0
ARC
  8
0
 62
7
  6
CONTINUOUS
 10
158.2805142655
 20
209.6507369387
 40
0.5
 50
164.05
 51
175.43
  0
ARC
  8
0
 62
7
  6
CONTINUOUS
 10
151.1559081483
 20
209.6507369387
 40
0.5
 50
4.57
 51
15.95
  0
ARC
  8
0
 62
7
  6
CONTINUOUS
 10
141.4805142655
 20
209.6507369387
 40
0.5
 50
164.05
 51
175.43
  0
ARC
  8
0
 62
7
  6
CONTINUOUS
 10
134.3559081483
 20
209.6507369387
 40
0.5
 50
4.57
 51
15.95
  0
ARC
  8
0
 62
7
  6
CONTINUOUS
 10
143.6726023023
 20
206.1315344828
 40
0.5
 50
270.0
 51
355.0
  0
ARC
  8
0
 62
7
  6
CONTINUOUS
 10
161.2638200297
 20
206.1315354183
 40
0.5
 50
185.0001076177
 51
270.0000093795
  0
ARC
  8
0
 62
7
  6
CONTINUOUS
 10
158.63304305
 20
213.4315344828
 40
0.2
 50
344.05
 51
90.0
  0
ARC
  8
0
 62
7
  6
CONTINUOUS
 10
150.8033793638
 20
213.4315344828
 40
0.2
 50
90.0
 51
195.95
  0
ARC
  8
0
 62
7
  6
CONTINUOUS
 10
141.83304305
 20
213.4315344828
 40
0.2
 50
344.05
 51
90.0
  0
ARC
  8
0
 62
7
  6
CONTINUOUS
 10
134.0033793638
 20
213.4315344828
 40
0.2
 50
90.0
 51
195.95
  0
ARC
  8
0
 62
7
  6
CONTINUOUS
 10
167.0182112069
 20
213.4315344828
 40
0.2
 50
0.0
 51
90.0
  0
ARC
  8
0
 62
6
  6
CONTINUOUS
 10
159.2033793638
 20
213.4315344828
 40
0.2
 50
90.0
 51
195.95
  0
ARC
  8
0
 62
6
  6
CONTINUOUS
 10
150.23304305
 20
213.4315344828
 40
0.2
 50
344.05
 51
90.0
  0
ARC
  8
0
 62
7
  6
CONTINUOUS
 10
149.898995753
 20
100.5055692245
 40
50.0
 50
43.7212620861
 51
53.8371991552
  0
ARC
  8
0
 62
7
  6
CONTINUOUS
 10
149.898995753
 20
149.1280514651
 40
50.0
 50
306.1628008448
 51
316.2787379139
  0
ARC
  8
0
 62
6
  6
CONTINUOUS
 10
184.9435668103
 20
99.4124486251
 40
8.75
 50
30.5584317859
 51
60.9677227773
  0
ARC
  8
0
 62
7
  6
CONTINUOUS
 10
184.9435668103
 20
99.4168103448
 40
8.5
 50
199.7499227956
 51
340.2500772044
  0
ARC
  8
0
 62
7
  6
CONTINUOUS
 10
182.9435668103
 20
103.9168103448
 40
6.0
 50
126.1628008448
 51
180.0
  0
CIRCLE
  8
0
 62
7
  6
CONTINUOUS
 10
184.9435668103
 20
99.4168103448
 40
4.15
  0
ARC
  8
0
 62
40
  6
CONTINUOUS
 10
177.9935668103
 20
124.0639869841
 40
1.0
 50
180.0
 51
253.532453207
  0
ARC
  8
0
 62
40
  6
CONTINUOUS
 10
184.0935668103
 20
120.3317102015
 40
0.85
 50
0.0
 51
73.532453207
  0
ARC
  8
0
 62
6
  6
CONTINUOUS
 10
189.5539382318
 20
107.7187399369
 40
0.75
 50
199.54
 51
240.9677227773
  0
ARC
  8
0
 62
6
  6
CONTINUOUS
 10
192.6935668103
 20
103.9881999296
 40
0.25
 50
210.5584317859
 51
360.0
  0
ARC
  8
0
 62
7
  6
CONTINUOUS
 10
185.9435668103
 20
118.6390011656
 40
1.0
 50
180.0
 51
199.54
  0
ARC
  8
0
 62
7
  6
CONTINUOUS
 10
185.6731761073
 20
114.916094199
 40
0.5
 50
316.2787379139
 51
19.54
  0
ARC
  8
0
 62
40
  6
CONTINUOUS
 10
177.9935668103
 20
125.5696337056
 40
1.0
 50
106.467546793
 51
180.0
  0
ARC
  8
0
 62
40
  6
CONTINUOUS
 10
184.0935668103
 20
129.3019104882
 40
0.85
 50
286.467546793
 51
360.0
  0
ARC
  8
0
 62
7
  6
CONTINUOUS
 10
182.9435668103
 20
145.7168103448
 40
6.0
 50
180.0
 51
233.8371991552
  0
ARC
  8
0
 62
7
  6
CONTINUOUS
 10
184.9435668103
 20
150.2211720645
 40
8.75
 50
299.0322772227
 51
329.4415682141
  0
ARC
  8
0
 62
7
  6
CONTINUOUS
 10
184.9435668103
 20
150.2168103448
 40
8.5
 50
142.4345865675
 51
160.2500772044
  0
ARC
  8
0
 62
7
  6
CONTINUOUS
 10
184.9435668103
 20
150.2168103448
 40
8.5
 50
19.7499227956
 51
141.9951143277
  0
ARC
  8
0
 62
6
  6
CONTINUOUS
 10
184.9435668103
 20
150.2168103448
 40
8.5
 50
141.9951143277
 51
142.4345865675
  0
ARC
  8
0
 62
7
  6
CONTINUOUS
 10
184.9435668103
 20
150.2168103448
 40
5.8
 50
270.0
 51
90.0
  0
CIRCLE
  8
0
 62
7
  6
CONTINUOUS
 10
184.9435668103
 20
150.2168103448
 40
4.15
  0
ARC
  8
0
 62
7
  6
CONTINUOUS
 10
185.6731761073
 20
134.7175264907
 40
0.5
 50
340.46
 51
43.7212620861
  0
ARC
  8
0
 62
7
  6
CONTINUOUS
 10
185.9435668103
 20
130.994619524
 40
1.0
 50
160.46
 51
180.0
  0
ARC
  8
0
 62
7
  6
CONTINUOUS
 10
189.5539382318
 20
141.9148807527
 40
0.75
 50
119.0322772227
 51
160.46
  0
ARC
  8
0
 62
7
  6
CONTINUOUS
 10
192.6935668103
 20
145.6454207601
 40
0.25
 50
0.0
 51
149.4415682141
  0
ENDSEC
  0
EOF
