  0
SECTION
  2
HEADER
  9
$EXTMAX
 10
420.0
 20
297.0
 30
0.0
  9
$EXTMIN
 10
0.0
 20
0.0
 30
0.0
  9
$LIMMIN
 10
0.0
 20
0.0
  9
$LIMMAX
 10
420.0
 20
297.0
  9
$VIEWCTR
 10
210.0
 20
148.5
  9
$VIEWSIZE
 40
297.0
  9
$CLAYER
  8
0
  9
$LTSCALE
 40
23.1
  9
$CELTYPE
  6
BYLAYER
  9
$DIMSCALE
 40
1.0
  9
$DIMASZ
 40
3.5
  9
$DIMEXO
 40
2.625
  9
$DIMDLI
 40
15.96
  9
$DIMEXE
 40
7.56
  9
$DIMCEN
 40
3.78
  9
$DIMLFAC
 40
1.0
  9
$DIMBLK
  1
_FILLED
  9
$DIMTXT
 40
3.5
  9
$PDMODE
 70
3
  9
$PDSIZE
 40
0.3125
  9
$TILEMODE
 70
1
  0
ENDSEC
  0
SECTION
  2
TABLES
  0
TABLE
  2
LTYPE
 70
6
  0
LTYPE
  2
BYBLOCK
 70
0
  3

 72
65
 73
0
 40
0.0
  0
LTYPE
  2
BYLAYER
 70
0
  3

 72
65
 73
0
 40
0.0
  0
LTYPE
  2
CONTINUOUS
 70
64
  3
Solid line
 72
65
 73
0
 40
0.0
  0
LTYPE
  2
CENTER
 70
64
  3
____ _ ____ _ ____ _ ____ _ ____ _ ____ _ ____
 72
65
 73
4
 40
0.6
 49
0.375
 49
-0.075
 49
0.075
 49
-0.075
  0
LTYPE
  2
HIDDEN
 70
64
  3
- - - - - - - - - - - - - - - - - - - -
 72
65
 73
2
 40
0.2
 49
0.1
 49
-0.1
  0
LTYPE
  2
PHANTOM
 70
64
  3
_____ _ _ _____ _ _ _____ _ _ _____
 72
65
 73
6
 40
0.8
 49
0.45
 49
-0.05
 49
0.1
 49
-0.05
 49
0.1
 49
-0.05
  0
LTYPE
  2
DOT
 70
64
  3
. . . . . . . . . . . . . . . . . . . .
 72
65
 73
2
 40
0.2
 49
0.1
 49
-0.1
  0
LTYPE
  2
DASHED
 70
64
  3
- - - - - - - - - - - - - - - - - - - -
 72
65
 73
2
 40
0.2
 49
0.1
 49
-0.1
  0
ENDTAB
  0
TABLE
  2
LAYER
 70
36
  0
LAYER
  2
0
 70
0
 62
7
  6
CONTINUOUS
  0
LAYER
  2
DEFAULT_1
 70
0
 62
7
  6
CENTER
  0
LAYER
  2
DEFAULT_2
 70
0
 62
8
  6
HIDDEN
  0
LAYER
  2
DEFAULT_3
 70
0
 62
7
  6
PHANTOM
  0
LAYER
  2
1_AXIS
 70
0
 62
7
  6
CONTINUOUS
  0
LAYER
  2
1_DATUMPLANE
 70
0
 62
7
  6
CONTINUOUS
  0
LAYER
  2
3_CURVE
 70
0
 62
7
  6
CONTINUOUS
  0
LAYER
  2
6_DIM
 70
0
 62
7
  6
CONTINUOUS
  0
LAYER
  2
6_NOTE
 70
0
 62
7
  6
CONTINUOUS
  0
LAYER
  2
AXES
 70
0
 62
7
  6
CONTINUOUS
  0
LAYER
  2
CURVE
 70
0
 62
7
  6
CONTINUOUS
  0
LAYER
  2
CURVE_SPLIT
 70
0
 62
7
  6
CONTINUOUS
  0
LAYER
  2
NOTES
 70
0
 62
7
  6
CONTINUOUS
  0
LAYER
  2
PLANES
 70
0
 62
7
  6
CONTINUOUS
  0
LAYER
  2
QUILT
 70
0
 62
7
  6
CONTINUOUS
  0
LAYER
  2
SOLID
 70
0
 62
7
  6
CONTINUOUS
  0
LAYER
  2
SURFACE
 70
0
 62
7
  6
CONTINUOUS
  0
LAYER
  2
XSEC_DATUMS
 70
0
 62
7
  6
CONTINUOUS
  0
ENDTAB
  0
TABLE
  2
STYLE
 70
1
  0
STYLE
  2
STANDARD
 70
0
 40
0.0
 41
0.8
 50
0.0
 71
0
 42
0.2
  3
txt
  4

  0
STYLE
  2
TEXTSTYLE_1
 70
0
 40
0.0
 41
0.8
 50
0.0
 71
0
 42
0.2
  3
gdt
  4

  0
STYLE
  2
TEXTSTYLE_2
 70
0
 40
0.0
 41
0.6
 50
0.0
 71
0
 42
0.2
  3
txt
  4

  0
STYLE
  2
TEXTSTYLE_3
 70
0
 40
0.0
 41
1.0
 50
0.0
 71
0
 42
0.2
  3
ftb_____.ttf
  4

  0
STYLE
  2
TEXTSTYLE_4
 70
0
 40
0.0
 41
1.0
 50
0.0
 71
0
 42
0.2
  3
fti_____.ttf
  4

  0
STYLE
  2
TEXTSTYLE_5
 70
0
 40
0.0
 41
1.0
 50
0.0
 71
0
 42
0.2
  3
frutiger light.ttf
  4

  0
STYLE
  2
TEXTSTYLE_6
 70
0
 40
0.0
 41
0.7
 50
0.0
 71
0
 42
0.2
  3
txt
  4

  0
STYLE
  2
TEXTSTYLE_7
 70
0
 40
0.0
 41
0.8
 50
0.0
 71
0
 42
0.2
  3
txt
  4

  0
ENDTAB
  0
ENDSEC
  0
SECTION
  2
BLOCKS
  0
BLOCK
  8
0
 62
2
  6
CONTINUOUS
  2
SYMBOL_5_BL1
 70
64
 10
382.7840918555
 20
35.5067593403
  0
TEXT
  8
0
 62
7
  6
CONTINUOUS
 10
373.842376864
 20
30.5995157174
  7
TEXTSTYLE_4
 40
1.0655737705
  1
The brand for plastic modular belts and chains
 41
1.0
 72
0
  0
LINE
  8
0
 62
7
  6
CONTINUOUS
 10
358.7621602445
 20
36.0805298321
 11
358.7621602445
 21
33.9493822911
  0
LINE
  8
0
 62
7
  6
CONTINUOUS
 10
359.0512227376
 20
30.9584509954
 11
359.0512227376
 21
31.0552420547
  0
LINE
  8
0
 62
7
  6
CONTINUOUS
 10
358.7621602445
 20
31.0229783683
 11
358.8199727462
 21
30.8293962497
  0
LINE
  8
0
 62
7
  6
CONTINUOUS
 10
360.1556028675
 20
33.867415078
 11
360.1556028675
 21
36.0805298321
  0
LINE
  8
0
 62
7
  6
CONTINUOUS
 10
361.0746601894
 20
32.0231527829
 11
361.0746601894
 21
30.5067593403
  0
LINE
  8
0
 62
7
  6
CONTINUOUS
 10
361.3637227445
 20
30.5067593403
 11
361.3637227445
 21
31.2488242184
  0
LINE
  8
0
 62
7
  6
CONTINUOUS
 10
361.3637227445
 20
31.3778789641
 11
361.3637227445
 21
32.0231527829
  0
LINE
  8
0
 62
7
  6
CONTINUOUS
 10
358.8199727462
 20
31.216560532
 11
358.7621602445
 21
31.0229783683
  0
LINE
  8
0
 62
7
  6
CONTINUOUS
 10
359.1668477307
 20
30.7971325633
 11
359.0512227376
 21
30.9584509954
  0
LINE
  8
0
 62
7
  6
CONTINUOUS
 10
360.2652852997
 20
31.3133515913
 11
360.3230977445
 21
31.216560532
  0
LINE
  8
0
 62
7
  6
CONTINUOUS
 10
360.6121602997
 20
31.216560532
 11
360.5543476894
 21
31.3456152777
  0
LINE
  8
0
 62
7
  6
CONTINUOUS
 10
362.0408487691
 20
36.0805298321
 11
362.0408487691
 21
34.2772511436
  0
LINE
  8
0
 62
7
  6
CONTINUOUS
 10
362.0408487691
 20
32.9657757338
 11
362.0408487691
 21
32.3100380288
  0
LINE
  8
0
 62
7
  6
CONTINUOUS
 10
362.4043477445
 20
31.1520331591
 11
362.4043477445
 21
30.5067593403
  0
LINE
  8
0
 62
7
  6
CONTINUOUS
 10
362.6934101343
 20
30.5067593403
 11
362.6934101343
 21
31.1520331591
  0
LINE
  8
0
 62
7
  6
CONTINUOUS
 10
359.0512227376
 20
31.0552420547
 11
359.1090352445
 21
31.1842968456
  0
LINE
  8
0
 62
7
  6
CONTINUOUS
 10
358.8199727462
 20
30.8293962497
 11
358.9355977445
 21
30.7003414814
  0
LINE
  8
0
 62
7
  6
CONTINUOUS
 10
362.3465351343
 20
31.2810879048
 11
362.4043477445
 21
31.1520331591
  0
LINE
  8
0
 62
7
  6
CONTINUOUS
 10
363.1559103548
 20
30.7971325633
 11
363.2137226343
 21
30.668077795
  0
LINE
  8
0
 62
7
  6
CONTINUOUS
 10
362.6934101343
 20
31.1520331591
 11
362.6355978548
 21
31.3133515913
  0
LINE
  8
0
 62
7
  6
CONTINUOUS
 10
363.1559103548
 20
31.3456152777
 11
363.1559103548
 21
31.2810879048
  0
LINE
  8
0
 62
7
  6
CONTINUOUS
 10
363.1559103548
 20
30.8939236226
 11
363.1559103548
 21
30.7971325633
  0
LINE
  8
0
 62
7
  6
CONTINUOUS
 10
363.4342913921
 20
32.3100380288
 11
363.4342913921
 21
36.0805298321
  0
LINE
  8
0
 62
7
  6
CONTINUOUS
 10
363.4449727445
 20
30.7648688543
 11
363.4449727445
 21
30.8293962497
  0
LINE
  8
0
 62
7
  6
CONTINUOUS
 10
363.7621602445
 20
36.0805298321
 11
363.7621602445
 21
32.3100380288
  0
LINE
  8
0
 62
7
  6
CONTINUOUS
 10
360.5543476894
 20
30.7003414814
 11
360.6121602997
 21
30.8293962497
  0
LINE
  8
0
 62
7
  6
CONTINUOUS
 10
364.9480979651
 20
30.6035504109
 11
364.890285024
 21
30.7648688543
  0
LINE
  8
0
 62
7
  6
CONTINUOUS
 10
364.6012229651
 20
31.2810879048
 11
364.6012229651
 21
31.1842968456
  0
LINE
  8
0
 62
7
  6
CONTINUOUS
 10
364.6012229651
 20
31.0552420547
 11
364.6012229651
 21
30.8616599362
  0
LINE
  8
0
 62
7
  6
CONTINUOUS
 10
364.890285024
 20
30.7648688543
 11
364.890285024
 21
31.2810879048
  0
LINE
  8
0
 62
7
  6
CONTINUOUS
 10
365.1556028675
 20
32.3100380288
 11
365.1556028675
 21
34.1133167174
  0
LINE
  8
0
 62
7
  6
CONTINUOUS
 10
365.1556028675
 20
35.4247921272
 11
365.1556028675
 21
36.0805298321
  0
LINE
  8
0
 62
7
  6
CONTINUOUS
 10
365.4684104651
 20
32.0231527829
 11
365.4684104651
 21
31.8618343508
  0
LINE
  8
0
 62
7
  6
CONTINUOUS
 10
365.4684104651
 20
31.5391973962
 11
365.4684104651
 21
30.5067593403
  0
LINE
  8
0
 62
7
  6
CONTINUOUS
 10
365.757472524
 20
30.5067593403
 11
365.757472524
 21
31.5391973962
  0
LINE
  8
0
 62
7
  6
CONTINUOUS
 10
365.757472524
 20
31.8618343508
 11
365.757472524
 21
32.0231527829
  0
LINE
  8
0
 62
7
  6
CONTINUOUS
 10
360.3230977445
 20
30.8293962497
 11
360.2652852997
 21
30.7326051679
  0
LINE
  8
0
 62
7
  6
CONTINUOUS
 10
362.6355978548
 20
31.3133515913
 11
362.5777852445
 21
31.3778789641
  0
LINE
  8
0
 62
7
  6
CONTINUOUS
 10
363.5027853548
 20
30.7003414814
 11
363.4449727445
 21
30.7648688543
  0
LINE
  8
0
 62
7
  6
CONTINUOUS
 10
364.6590352445
 20
30.5712867188
 11
364.716847524
 21
30.5067593403
  0
LINE
  8
0
 62
7
  6
CONTINUOUS
 10
364.6012229651
 20
30.668077795
 11
364.6590352445
 21
30.5712867188
  0
LINE
  8
0
 62
7
  6
CONTINUOUS
 10
365.0059102445
 20
30.5067593403
 11
364.9480979651
 21
30.6035504109
  0
LINE
  8
0
 62
7
  6
CONTINUOUS
 10
364.890285024
 20
31.2810879048
 11
364.8324727445
 21
31.3778789641
  0
LINE
  8
0
 62
7
  6
CONTINUOUS
 10
366.2199727445
 20
31.5391973962
 11
366.2199727445
 21
30.5067593403
  0
LINE
  8
0
 62
7
  6
CONTINUOUS
 10
366.5090354651
 20
30.5067593403
 11
366.5090354651
 21
31.2488242184
  0
LINE
  8
0
 62
7
  6
CONTINUOUS
 10
366.5090354651
 20
31.3778789641
 11
366.5090354651
 21
31.5391973962
  0
LINE
  8
0
 62
7
  6
CONTINUOUS
 10
367.0408487691
 20
34.5231527829
 11
367.0408487691
 21
32.3100380288
  0
LINE
  8
0
 62
7
  6
CONTINUOUS
 10
358.9355977445
 20
31.3456152777
 11
358.8199727462
 21
31.216560532
  0
LINE
  8
0
 62
7
  6
CONTINUOUS
 10
359.1090352445
 20
31.1842968456
 11
359.1668477307
 21
31.2488242184
  0
LINE
  8
0
 62
7
  6
CONTINUOUS
 10
358.9355977445
 20
30.7003414814
 11
359.0512227376
 21
30.6358140973
  0
LINE
  8
0
 62
7
  6
CONTINUOUS
 10
359.3402852307
 20
30.7003414814
 11
359.1668477307
 21
30.7971325633
  0
LINE
  8
0
 62
7
  6
CONTINUOUS
 10
364.543410024
 20
31.3456152777
 11
364.6012229651
 21
31.2810879048
  0
LINE
  8
0
 62
7
  6
CONTINUOUS
 10
367.491847524
 20
31.2810879048
 11
367.5496604651
 21
31.1197694727
  0
LINE
  8
0
 62
7
  6
CONTINUOUS
 10
367.838722524
 20
31.1197694727
 11
367.7809102445
 21
31.2810879048
  0
LINE
  8
0
 62
7
  6
CONTINUOUS
 10
367.5496604651
 20
31.1197694727
 11
367.5496604651
 21
30.5067593403
  0
LINE
  8
0
 62
7
  6
CONTINUOUS
 10
367.838722524
 20
30.5067593403
 11
367.838722524
 21
31.1197694727
  0
LINE
  8
0
 62
7
  6
CONTINUOUS
 10
368.3012227445
 20
31.3456152777
 11
368.3012227445
 21
31.2810879048
  0
LINE
  8
0
 62
7
  6
CONTINUOUS
 10
368.4342913921
 20
32.3100380288
 11
368.4342913921
 21
34.4411855698
  0
LINE
  8
0
 62
7
  6
CONTINUOUS
 10
368.7621602445
 20
36.0805298321
 11
368.7621602445
 21
32.3100380288
  0
LINE
  8
0
 62
7
  6
CONTINUOUS
 10
363.4449727445
 20
30.8293962497
 11
363.5027853548
 21
30.926187309
  0
LINE
  8
0
 62
7
  6
CONTINUOUS
 10
359.0512227376
 20
30.6358140973
 11
359.2246602583
 21
30.5712867188
  0
LINE
  8
0
 62
7
  6
CONTINUOUS
 10
360.5543476894
 20
31.3456152777
 11
360.3809101894
 21
31.4424063369
  0
LINE
  8
0
 62
7
  6
CONTINUOUS
 10
363.2137226343
 20
30.668077795
 11
363.3871601343
 21
30.5712867188
  0
LINE
  8
0
 62
7
  6
CONTINUOUS
 10
362.2309102445
 20
31.3456152777
 11
362.3465351343
 21
31.2810879048
  0
LINE
  8
0
 62
7
  6
CONTINUOUS
 10
362.5777852445
 20
31.3778789641
 11
362.4621603548
 21
31.4424063369
  0
LINE
  8
0
 62
7
  6
CONTINUOUS
 10
368.3012227445
 20
30.7648688543
 11
368.4168479651
 21
30.6358140973
  0
LINE
  8
0
 62
7
  6
CONTINUOUS
 10
368.6480977445
 20
30.7003414814
 11
368.5902854651
 21
30.7648688543
  0
LINE
  8
0
 62
7
  6
CONTINUOUS
 10
368.3012227445
 20
31.2810879048
 11
368.4168479651
 21
31.1520331591
  0
LINE
  8
0
 62
7
  6
CONTINUOUS
 10
367.7809102445
 20
31.2810879048
 11
367.7230979651
 21
31.3778789641
  0
LINE
  8
0
 62
7
  6
CONTINUOUS
 10
370.1512223035
 20
30.7003414814
 11
370.1512223035
 21
30.7648688543
  0
LINE
  8
0
 62
7
  6
CONTINUOUS
 10
370.1556028675
 20
32.3100380288
 11
370.1556028675
 21
36.0805298321
  0
LINE
  8
0
 62
7
  6
CONTINUOUS
 10
363.2137226343
 20
31.4101426505
 11
363.1559103548
 21
31.3456152777
  0
LINE
  8
0
 62
7
  6
CONTINUOUS
 10
360.091847717
 20
31.3778789641
 11
360.2652852997
 21
31.3133515913
  0
LINE
  8
0
 62
7
  6
CONTINUOUS
 10
364.8324727445
 20
31.3778789641
 11
364.716847524
 21
31.4424063369
  0
LINE
  8
0
 62
7
  6
CONTINUOUS
 10
368.6480977445
 20
31.216560532
 11
368.5902854651
 21
31.2810879048
  0
LINE
  8
0
 62
7
  6
CONTINUOUS
 10
369.8043479651
 20
30.8293962497
 11
369.8621602445
 21
30.7648688543
  0
LINE
  8
0
 62
7
  6
CONTINUOUS
 10
370.1512223035
 20
30.7648688543
 11
370.0355977445
 21
30.8939236226
  0
LINE
  8
0
 62
7
  6
CONTINUOUS
 10
369.8043479651
 20
31.3456152777
 11
369.8621602445
 21
31.2810879048
  0
LINE
  8
0
 62
7
  6
CONTINUOUS
 10
370.1512223035
 20
31.2810879048
 11
370.0355977445
 21
31.4101426505
  0
LINE
  8
0
 62
7
  6
CONTINUOUS
 10
363.4449727445
 20
31.2810879048
 11
363.5027853548
 21
31.3456152777
  0
LINE
  8
0
 62
7
  6
CONTINUOUS
 10
363.2715352445
 20
31.0229783683
 11
363.1559103548
 21
30.8939236226
  0
LINE
  8
0
 62
7
  6
CONTINUOUS
 10
364.6012229651
 20
30.8616599362
 11
364.543410024
 21
30.7971325633
  0
LINE
  8
0
 62
7
  6
CONTINUOUS
 10
364.543410024
 20
30.6035504109
 11
364.6012229651
 21
30.668077795
  0
LINE
  8
0
 62
7
  6
CONTINUOUS
 10
363.3871601343
 20
30.5712867188
 11
363.5027853548
 21
30.5390230296
  0
LINE
  8
0
 62
7
  6
CONTINUOUS
 10
360.3809101894
 20
31.4424063369
 11
360.1496602445
 21
31.5069337098
  0
LINE
  8
0
 62
7
  6
CONTINUOUS
 10
363.7340351343
 20
30.6358140973
 11
363.5027853548
 21
30.7003414814
  0
LINE
  8
0
 62
7
  6
CONTINUOUS
 10
362.4621603548
 20
31.4424063369
 11
362.2887228548
 21
31.5069337098
  0
LINE
  8
0
 62
7
  6
CONTINUOUS
 10
364.716847524
 20
31.4424063369
 11
364.543410024
 21
31.5069337098
  0
LINE
  8
0
 62
7
  6
CONTINUOUS
 10
367.3762229651
 20
31.3456152777
 11
367.491847524
 21
31.2810879048
  0
LINE
  8
0
 62
7
  6
CONTINUOUS
 10
367.7230979651
 20
31.3778789641
 11
367.6074727445
 21
31.4424063369
  0
LINE
  8
0
 62
7
  6
CONTINUOUS
 10
359.2246602583
 20
30.5712867188
 11
359.3980977583
 21
30.5390230296
  0
LINE
  8
0
 62
7
  6
CONTINUOUS
 10
359.6871602721
 20
30.6358140973
 11
359.3402852307
 21
30.7003414814
  0
LINE
  8
0
 62
7
  6
CONTINUOUS
 10
362.1152853548
 20
31.3778789641
 11
362.2309102445
 21
31.3456152777
  0
LINE
  8
0
 62
7
  6
CONTINUOUS
 10
364.4277854651
 20
31.3778789641
 11
364.543410024
 21
31.3456152777
  0
LINE
  8
0
 62
7
  6
CONTINUOUS
 10
368.7637229651
 20
30.668077795
 11
368.6480977445
 21
30.7003414814
  0
LINE
  8
0
 62
7
  6
CONTINUOUS
 10
367.2605977445
 20
31.3778789641
 11
367.3762229651
 21
31.3456152777
  0
LINE
  8
0
 62
7
  6
CONTINUOUS
 10
368.4168479651
 20
30.6358140973
 11
368.5902854651
 21
30.5712867188
  0
LINE
  8
0
 62
7
  6
CONTINUOUS
 10
367.6074727445
 20
31.4424063369
 11
367.4340352445
 21
31.5069337098
  0
LINE
  8
0
 62
7
  6
CONTINUOUS
 10
368.8215352445
 20
31.1520331591
 11
368.6480977445
 21
31.216560532
  0
LINE
  8
0
 62
7
  6
CONTINUOUS
 10
369.6309104651
 20
30.8939236226
 11
369.8043479651
 21
30.8293962497
  0
LINE
  8
0
 62
7
  6
CONTINUOUS
 10
370.0355977445
 20
31.4101426505
 11
369.8621602445
 21
31.4746700234
  0
LINE
  8
0
 62
7
  6
CONTINUOUS
 10
368.4168479651
 20
31.1520331591
 11
368.6480977445
 21
31.0552420547
  0
LINE
  8
0
 62
7
  6
CONTINUOUS
 10
370.0355977445
 20
30.8939236226
 11
369.8043479651
 21
30.9907146818
  0
LINE
  8
0
 62
7
  6
CONTINUOUS
 10
368.5902854651
 20
31.2810879048
 11
368.6480977445
 21
31.3456152777
  0
LINE
  8
0
 62
7
  6
CONTINUOUS
 10
359.0512227376
 20
31.4101426505
 11
358.9355977445
 21
31.3456152777
  0
LINE
  8
0
 62
7
  6
CONTINUOUS
 10
359.1668477307
 20
31.2488242184
 11
359.3402852307
 21
31.3456152777
  0
LINE
  8
0
 62
7
  6
CONTINUOUS
 10
361.4793477997
 20
31.4424063369
 11
361.3637227445
 21
31.3778789641
  0
LINE
  8
0
 62
7
  6
CONTINUOUS
 10
361.3637227445
 20
31.2488242184
 11
361.4793477997
 21
31.3133515913
  0
LINE
  8
0
 62
7
  6
CONTINUOUS
 10
360.3809101894
 20
30.6035504109
 11
360.5543476894
 21
30.7003414814
  0
LINE
  8
0
 62
7
  6
CONTINUOUS
 10
359.3980977583
 20
30.5390230296
 11
359.744972717
 21
30.5067593403
  0
LINE
  8
0
 62
7
  6
CONTINUOUS
 10
363.5027853548
 20
30.5390230296
 11
363.7340351343
 21
30.5067593403
  0
LINE
  8
0
 62
7
  6
CONTINUOUS
 10
361.8840352445
 20
31.4101426505
 11
362.1152853548
 21
31.3778789641
  0
LINE
  8
0
 62
7
  6
CONTINUOUS
 10
364.1965353548
 20
31.4101426505
 11
364.4277854651
 21
31.3778789641
  0
LINE
  8
0
 62
7
  6
CONTINUOUS
 10
368.6480977445
 20
31.0552420547
 11
369.6309104651
 21
30.8939236226
  0
LINE
  8
0
 62
7
  6
CONTINUOUS
 10
369.8043479651
 20
30.9907146818
 11
368.8215352445
 21
31.1520331591
  0
LINE
  8
0
 62
7
  6
CONTINUOUS
 10
362.2887228548
 20
31.5069337098
 11
362.1152853548
 21
31.5391973962
  0
LINE
  8
0
 62
7
  6
CONTINUOUS
 10
368.5902854651
 20
30.5712867188
 11
368.7637229651
 21
30.5390230296
  0
LINE
  8
0
 62
7
  6
CONTINUOUS
 10
367.4340352445
 20
31.5069337098
 11
367.2605977445
 21
31.5391973962
  0
LINE
  8
0
 62
7
  6
CONTINUOUS
 10
369.6887227445
 20
31.3778789641
 11
369.8043479651
 21
31.3456152777
  0
LINE
  8
0
 62
7
  6
CONTINUOUS
 10
369.8621602445
 20
30.7648688543
 11
369.8043479651
 21
30.7003414814
  0
LINE
  8
0
 62
7
  6
CONTINUOUS
 10
368.4168479651
 20
31.4424063369
 11
368.3012227445
 21
31.3456152777
  0
LINE
  8
0
 62
7
  6
CONTINUOUS
 10
363.3293478548
 20
31.4746700234
 11
363.2137226343
 21
31.4101426505
  0
LINE
  8
0
 62
7
  6
CONTINUOUS
 10
363.3871601343
 20
31.0875057863
 11
363.2715352445
 21
31.0229783683
  0
LINE
  8
0
 62
7
  6
CONTINUOUS
 10
363.5027853548
 20
30.926187309
 11
363.6184102445
 21
30.9907146818
  0
LINE
  8
0
 62
7
  6
CONTINUOUS
 10
361.0746601894
 20
30.5067593403
 11
361.3637227445
 21
30.5067593403
  0
LINE
  8
0
 62
7
  6
CONTINUOUS
 10
362.4043477445
 20
30.5067593403
 11
362.6934101343
 21
30.5067593403
  0
LINE
  8
0
 62
7
  6
CONTINUOUS
 10
363.7340351343
 20
30.5067593403
 11
364.0809101343
 21
30.5067593403
  0
LINE
  8
0
 62
7
  6
CONTINUOUS
 10
364.716847524
 20
30.5067593403
 11
365.0059102445
 21
30.5067593403
  0
LINE
  8
0
 62
7
  6
CONTINUOUS
 10
365.4684104651
 20
30.5067593403
 11
365.757472524
 21
30.5067593403
  0
LINE
  8
0
 62
7
  6
CONTINUOUS
 10
366.2199727445
 20
30.5067593403
 11
366.5090354651
 21
30.5067593403
  0
LINE
  8
0
 62
7
  6
CONTINUOUS
 10
367.5496604651
 20
30.5067593403
 11
367.838722524
 21
30.5067593403
  0
LINE
  8
0
 62
7
  6
CONTINUOUS
 10
369.1105979651
 20
30.5067593403
 11
369.4574729651
 21
30.5067593403
  0
LINE
  8
0
 62
7
  6
CONTINUOUS
 10
369.4574729651
 20
30.6358140973
 11
369.1105979651
 21
30.6358140973
  0
LINE
  8
0
 62
7
  6
CONTINUOUS
 10
364.0809101343
 20
30.6358140973
 11
363.7340351343
 21
30.6358140973
  0
LINE
  8
0
 62
7
  6
CONTINUOUS
 10
368.5902854651
 20
30.7648688543
 11
368.3012227445
 21
30.7648688543
  0
LINE
  8
0
 62
7
  6
CONTINUOUS
 10
360.6121602997
 20
30.8293962497
 11
360.3230977445
 21
30.8293962497
  0
LINE
  8
0
 62
7
  6
CONTINUOUS
 10
359.6871602721
 20
31.4101426505
 11
360.091847717
 21
31.3778789641
  0
LINE
  8
0
 62
7
  6
CONTINUOUS
 10
360.1496602445
 20
31.5069337098
 11
359.744972717
 21
31.5391973962
  0
LINE
  8
0
 62
7
  6
CONTINUOUS
 10
368.7637229651
 20
30.5390230296
 11
369.1105979651
 21
30.5067593403
  0
LINE
  8
0
 62
7
  6
CONTINUOUS
 10
369.1105979651
 20
30.6358140973
 11
368.7637229651
 21
30.668077795
  0
LINE
  8
0
 62
7
  6
CONTINUOUS
 10
364.543410024
 20
31.5069337098
 11
364.1965353548
 21
31.5391973962
  0
LINE
  8
0
 62
7
  6
CONTINUOUS
 10
369.3418477445
 20
31.4101426505
 11
369.6887227445
 21
31.3778789641
  0
LINE
  8
0
 62
7
  6
CONTINUOUS
 10
369.6887227445
 20
31.5069337098
 11
369.3418477445
 21
31.5391973962
  0
LINE
  8
0
 62
7
  6
CONTINUOUS
 10
367.0293479651
 20
31.4101426505
 11
367.2605977445
 21
31.3778789641
  0
LINE
  8
0
 62
7
  6
CONTINUOUS
 10
369.8621602445
 20
31.4746700234
 11
369.6887227445
 21
31.5069337098
  0
LINE
  8
0
 62
7
  6
CONTINUOUS
 10
370.0355977445
 20
30.6035504109
 11
370.1512223035
 21
30.7003414814
  0
LINE
  8
0
 62
7
  6
CONTINUOUS
 10
364.543410024
 20
30.7971325633
 11
364.369972524
 21
30.7003414814
  0
LINE
  8
0
 62
7
  6
CONTINUOUS
 10
366.624660024
 20
31.4424063369
 11
366.5090354651
 21
31.3778789641
  0
LINE
  8
0
 62
7
  6
CONTINUOUS
 10
366.5090354651
 20
31.2488242184
 11
366.624660024
 21
31.3133515913
  0
LINE
  8
0
 62
7
  6
CONTINUOUS
 10
359.2246602583
 20
31.4746700234
 11
359.0512227376
 21
31.4101426505
  0
LINE
  8
0
 62
7
  6
CONTINUOUS
 10
361.6527851343
 20
31.5069337098
 11
361.4793477997
 21
31.4424063369
  0
LINE
  8
0
 62
7
  6
CONTINUOUS
 10
361.4793477997
 20
31.3133515913
 11
361.6527851343
 21
31.3778789641
  0
LINE
  8
0
 62
7
  6
CONTINUOUS
 10
360.2652852997
 20
30.7326051679
 11
360.091847717
 21
30.668077795
  0
LINE
  8
0
 62
7
  6
CONTINUOUS
 10
369.6887227445
 20
30.668077795
 11
369.4574729651
 21
30.6358140973
  0
LINE
  8
0
 62
7
  6
CONTINUOUS
 10
364.0809101343
 20
30.5067593403
 11
364.369972524
 21
30.5390230296
  0
LINE
  8
0
 62
7
  6
CONTINUOUS
 10
369.4574729651
 20
30.5067593403
 11
369.8043479651
 21
30.5390230296
  0
LINE
  8
0
 62
7
  6
CONTINUOUS
 10
359.744972717
 20
30.5067593403
 11
360.1496602445
 21
30.5390230296
  0
LINE
  8
0
 62
7
  6
CONTINUOUS
 10
360.091847717
 20
30.668077795
 11
359.6871602721
 21
30.6358140973
  0
LINE
  8
0
 62
7
  6
CONTINUOUS
 10
363.9652852445
 20
31.0552420547
 11
364.6012229651
 21
31.0552420547
  0
LINE
  8
0
 62
7
  6
CONTINUOUS
 10
364.6012229651
 20
31.1842968456
 11
363.9652852445
 21
31.1842968456
  0
LINE
  8
0
 62
7
  6
CONTINUOUS
 10
360.3230977445
 20
31.216560532
 11
360.6121602997
 21
31.216560532
  0
LINE
  8
0
 62
7
  6
CONTINUOUS
 10
363.1559103548
 20
31.2810879048
 11
363.4449727445
 21
31.2810879048
  0
LINE
  8
0
 62
7
  6
CONTINUOUS
 10
369.8621602445
 20
31.2810879048
 11
370.1512223035
 21
31.2810879048
  0
LINE
  8
0
 62
7
  6
CONTINUOUS
 10
363.8496603548
 20
31.4101426505
 11
364.1965353548
 21
31.4101426505
  0
LINE
  8
0
 62
7
  6
CONTINUOUS
 10
368.9949727445
 20
31.4101426505
 11
369.3418477445
 21
31.4101426505
  0
LINE
  8
0
 62
7
  6
CONTINUOUS
 10
369.3418477445
 20
31.5391973962
 11
368.9949727445
 21
31.5391973962
  0
LINE
  8
0
 62
7
  6
CONTINUOUS
 10
367.2605977445
 20
31.5391973962
 11
367.0293479651
 21
31.5391973962
  0
LINE
  8
0
 62
7
  6
CONTINUOUS
 10
366.5090354651
 20
31.5391973962
 11
366.2199727445
 21
31.5391973962
  0
LINE
  8
0
 62
7
  6
CONTINUOUS
 10
365.757472524
 20
31.5391973962
 11
365.4684104651
 21
31.5391973962
  0
LINE
  8
0
 62
7
  6
CONTINUOUS
 10
364.1965353548
 20
31.5391973962
 11
363.8496603548
 21
31.5391973962
  0
LINE
  8
0
 62
7
  6
CONTINUOUS
 10
362.1152853548
 20
31.5391973962
 11
361.8840352445
 21
31.5391973962
  0
LINE
  8
0
 62
7
  6
CONTINUOUS
 10
365.4684104651
 20
31.8618343508
 11
365.757472524
 21
31.8618343508
  0
LINE
  8
0
 62
7
  6
CONTINUOUS
 10
365.757472524
 20
32.0231527829
 11
365.4684104651
 21
32.0231527829
  0
LINE
  8
0
 62
7
  6
CONTINUOUS
 10
361.3637227445
 20
32.0231527829
 11
361.0746601894
 21
32.0231527829
  0
LINE
  8
0
 62
7
  6
CONTINUOUS
 10
360.4015045068
 20
32.3100380288
 11
360.8140758554
 21
32.3100380288
  0
LINE
  8
0
 62
7
  6
CONTINUOUS
 10
362.0408487691
 20
32.3100380288
 11
363.4342913921
 21
32.3100380288
  0
LINE
  8
0
 62
7
  6
CONTINUOUS
 10
363.7621602445
 20
32.3100380288
 11
365.1556028675
 21
32.3100380288
  0
LINE
  8
0
 62
7
  6
CONTINUOUS
 10
367.0408487691
 20
32.3100380288
 11
368.4342913921
 21
32.3100380288
  0
LINE
  8
0
 62
7
  6
CONTINUOUS
 10
368.7621602445
 20
32.3100380288
 11
370.1556028675
 21
32.3100380288
  0
LINE
  8
0
 62
7
  6
CONTINUOUS
 10
366.798097524
 20
31.5069337098
 11
366.624660024
 21
31.4424063369
  0
LINE
  8
0
 62
7
  6
CONTINUOUS
 10
364.369972524
 20
30.5390230296
 11
364.543410024
 21
30.6035504109
  0
LINE
  8
0
 62
7
  6
CONTINUOUS
 10
369.8043479651
 20
30.5390230296
 11
370.0355977445
 21
30.6035504109
  0
LINE
  8
0
 62
7
  6
CONTINUOUS
 10
369.8043479651
 20
30.7003414814
 11
369.6887227445
 21
30.668077795
  0
LINE
  8
0
 62
7
  6
CONTINUOUS
 10
368.7637229651
 20
31.3778789641
 11
368.9949727445
 21
31.4101426505
  0
LINE
  8
0
 62
7
  6
CONTINUOUS
 10
366.798097524
 20
31.3778789641
 11
367.0293479651
 21
31.4101426505
  0
LINE
  8
0
 62
7
  6
CONTINUOUS
 10
363.7340351343
 20
31.0229783683
 11
363.9652852445
 21
31.0552420547
  0
LINE
  8
0
 62
7
  6
CONTINUOUS
 10
367.0293479651
 20
31.5391973962
 11
366.798097524
 21
31.5069337098
  0
LINE
  8
0
 62
7
  6
CONTINUOUS
 10
363.6184102445
 20
31.3778789641
 11
363.8496603548
 21
31.4101426505
  0
LINE
  8
0
 62
7
  6
CONTINUOUS
 10
368.9949727445
 20
31.5391973962
 11
368.6480977445
 21
31.5069337098
  0
LINE
  8
0
 62
7
  6
CONTINUOUS
 10
363.9652852445
 20
31.1842968456
 11
363.6184102445
 21
31.1520331591
  0
LINE
  8
0
 62
7
  6
CONTINUOUS
 10
359.744972717
 20
31.5391973962
 11
359.3980977583
 21
31.5069337098
  0
LINE
  8
0
 62
7
  6
CONTINUOUS
 10
363.8496603548
 20
31.5391973962
 11
363.4449727445
 21
31.5069337098
  0
LINE
  8
0
 62
7
  6
CONTINUOUS
 10
361.221176638
 20
33.4575790124
 11
360.565438933
 21
33.4575790124
  0
LINE
  8
0
 62
7
  6
CONTINUOUS
 10
366.624660024
 20
31.3133515913
 11
366.798097524
 21
31.3778789641
  0
LINE
  8
0
 62
7
  6
CONTINUOUS
 10
368.6480977445
 20
31.3456152777
 11
368.7637229651
 21
31.3778789641
  0
LINE
  8
0
 62
7
  6
CONTINUOUS
 10
368.6480977445
 20
31.5069337098
 11
368.4168479651
 21
31.4424063369
  0
LINE
  8
0
 62
7
  6
CONTINUOUS
 10
364.369972524
 20
30.7003414814
 11
364.0809101343
 21
30.6358140973
  0
LINE
  8
0
 62
7
  6
CONTINUOUS
 10
361.6527851343
 20
31.3778789641
 11
361.8840352445
 21
31.4101426505
  0
LINE
  8
0
 62
7
  6
CONTINUOUS
 10
361.8840352445
 20
31.5391973962
 11
361.6527851343
 21
31.5069337098
  0
LINE
  8
0
 62
7
  6
CONTINUOUS
 10
359.4559102445
 20
31.3778789641
 11
359.6871602721
 21
31.4101426505
  0
LINE
  8
0
 62
7
  6
CONTINUOUS
 10
365.9752749986
 20
34.9329888485
 11
366.6310127035
 21
34.9329888485
  0
LINE
  8
0
 62
7
  6
CONTINUOUS
 10
363.6184102445
 20
30.9907146818
 11
363.7340351343
 21
31.0229783683
  0
LINE
  8
0
 62
7
  6
CONTINUOUS
 10
363.6184102445
 20
31.1520331591
 11
363.3871601343
 21
31.0875057863
  0
LINE
  8
0
 62
7
  6
CONTINUOUS
 10
363.5027853548
 20
31.3456152777
 11
363.6184102445
 21
31.3778789641
  0
LINE
  8
0
 62
7
  6
CONTINUOUS
 10
360.1496602445
 20
30.5390230296
 11
360.3809101894
 21
30.6035504109
  0
LINE
  8
0
 62
7
  6
CONTINUOUS
 10
363.4449727445
 20
31.5069337098
 11
363.3293478548
 21
31.4746700234
  0
LINE
  8
0
 62
7
  6
CONTINUOUS
 10
359.3980977583
 20
31.5069337098
 11
359.2246602583
 21
31.4746700234
  0
LINE
  8
0
 62
7
  6
CONTINUOUS
 10
370.1556028675
 20
36.0805298321
 11
368.7621602445
 21
36.0805298321
  0
LINE
  8
0
 62
7
  6
CONTINUOUS
 10
366.7949471298
 20
36.0805298321
 11
366.3823757812
 21
36.0805298321
  0
LINE
  8
0
 62
7
  6
CONTINUOUS
 10
365.1556028675
 20
36.0805298321
 11
363.7621602445
 21
36.0805298321
  0
LINE
  8
0
 62
7
  6
CONTINUOUS
 10
363.4342913921
 20
36.0805298321
 11
362.0408487691
 21
36.0805298321
  0
LINE
  8
0
 62
7
  6
CONTINUOUS
 10
360.1556028675
 20
36.0805298321
 11
358.7621602445
 21
36.0805298321
  0
LINE
  8
0
 62
7
  6
CONTINUOUS
 10
359.3402852307
 20
31.3456152777
 11
359.4559102445
 21
31.3778789641
  0
CIRCLE
  8
0
 62
7
  6
CONTINUOUS
 10
369.458881556
 20
38.4165954059
 40
2.0901639344
  0
ARC
  8
0
 62
7
  6
CONTINUOUS
 10
360.4015045068
 20
33.9493822911
 40
1.6393442623
 50
180.0
 51
270.0
  0
ARC
  8
0
 62
7
  6
CONTINUOUS
 10
366.7949471298
 20
34.4411855698
 40
1.6393442623
 50
0.0
 51
90.0
  0
ARC
  8
0
 62
7
  6
CONTINUOUS
 10
360.8140758554
 20
33.7854478649
 40
1.4754098361
 50
270.0
 51
326.2510114041
  0
ARC
  8
0
 62
7
  6
CONTINUOUS
 10
366.3823757812
 20
34.6051199961
 40
1.4754098361
 50
90.0
 51
146.2510114041
  0
ARC
  8
0
 62
7
  6
CONTINUOUS
 10
361.221176638
 20
34.2772511436
 40
0.8196721311
 50
270.0
 51
360.0
  0
ARC
  8
0
 62
7
  6
CONTINUOUS
 10
365.9752749986
 20
34.1133167174
 40
0.8196721311
 50
90.0
 51
180.0
  0
ARC
  8
0
 62
7
  6
CONTINUOUS
 10
360.565438933
 20
33.867415078
 40
0.4098360656
 50
180.0
 51
270.0
  0
ARC
  8
0
 62
7
  6
CONTINUOUS
 10
366.6310127035
 20
34.5231527829
 40
0.4098360656
 50
0.0
 51
90.0
  0
SOLID
  8
0
 62
7
  6
CONTINUOUS
 10
365.4684104651
 20
31.8618347111
 11
365.4684104651
 21
32.0231531947
 12
365.757472524
 22
31.8618347111
 13
365.757472524
 23
32.0231531947
  0
SOLID
  8
0
 62
7
  6
CONTINUOUS
 10
359.744972717
 20
31.5391977439
 11
360.1496602445
 21
31.5069333244
 12
359.3980977583
 22
31.5069333244
 13
359.3980977583
 23
31.5069333244
  0
SOLID
  8
0
 62
7
  6
CONTINUOUS
 10
359.2246602583
 20
31.4746706537
 11
359.3980977583
 21
31.5069333244
 12
360.1496602445
 22
31.5069333244
 13
360.1496602445
 23
31.5069333244
  0
SOLID
  8
0
 62
7
  6
CONTINUOUS
 10
360.1496602445
 20
31.5069333244
 11
360.3809101894
 21
31.4424063504
 12
359.2246602583
 22
31.4746706537
 13
359.2246602583
 23
31.4746706537
  0
SOLID
  8
0
 62
7
  6
CONTINUOUS
 10
359.0512227376
 20
31.4101419116
 11
359.2246602583
 21
31.4746706537
 12
360.3809101894
 22
31.4424063504
 13
360.3809101894
 23
31.4424063504
  0
SOLID
  8
0
 62
7
  6
CONTINUOUS
 10
359.0512227376
 20
31.4101419116
 11
360.3809101894
 21
31.4424063504
 12
359.6871602721
 22
31.4101419116
 13
359.6871602721
 23
31.4101419116
  0
SOLID
  8
0
 62
7
  6
CONTINUOUS
 10
359.6871602721
 20
31.4101419116
 11
360.3809101894
 21
31.4424063504
 12
360.091847717
 22
31.3778792603
 13
360.091847717
 23
31.3778792603
  0
SOLID
  8
0
 62
7
  6
CONTINUOUS
 10
360.3809101894
 20
31.4424063504
 11
360.5543476894
 21
31.345614957
 12
360.091847717
 22
31.3778792603
 13
360.091847717
 23
31.3778792603
  0
SOLID
  8
0
 62
7
  6
CONTINUOUS
 10
360.2652852997
 20
31.3133521701
 11
360.091847717
 21
31.3778792603
 12
360.5543476894
 22
31.345614957
 13
360.5543476894
 23
31.345614957
  0
SOLID
  8
0
 62
7
  6
CONTINUOUS
 10
360.2652852997
 20
31.3133521701
 11
360.5543476894
 21
31.345614957
 12
360.3230977445
 22
31.2165606992
 13
360.3230977445
 23
31.2165606992
  0
SOLID
  8
0
 62
7
  6
CONTINUOUS
 10
360.5543476894
 20
31.345614957
 11
360.6121602997
 21
31.2165606992
 12
360.3230977445
 22
31.2165606992
 13
360.3230977445
 23
31.2165606992
  0
SOLID
  8
0
 62
7
  6
CONTINUOUS
 10
361.6527851343
 20
31.5069329918
 11
361.8840352445
 21
31.5391972951
 12
362.1152853548
 22
31.5391972951
 13
362.1152853548
 23
31.5391972951
  0
SOLID
  8
0
 62
7
  6
CONTINUOUS
 10
362.1152853548
 20
31.5391972951
 11
362.2887228548
 21
31.5069329918
 12
361.6527851343
 22
31.5069329918
 13
361.6527851343
 23
31.5069329918
  0
SOLID
  8
0
 62
7
  6
CONTINUOUS
 10
361.4793477997
 20
31.4424059016
 11
361.6527851343
 21
31.5069329918
 12
362.2887228548
 22
31.5069329918
 13
362.2887228548
 23
31.5069329918
  0
SOLID
  8
0
 62
7
  6
CONTINUOUS
 10
362.2887228548
 20
31.5069329918
 11
362.4621603548
 21
31.4424059016
 12
361.4793477997
 22
31.4424059016
 13
361.4793477997
 23
31.4424059016
  0
SOLID
  8
0
 62
7
  6
CONTINUOUS
 10
362.4621603548
 20
31.4424059016
 11
361.8840352445
 21
31.4101420472
 12
361.4793477997
 22
31.4424059016
 13
361.4793477997
 23
31.4424059016
  0
SOLID
  8
0
 62
7
  6
CONTINUOUS
 10
361.3637227445
 20
31.3778788115
 11
361.4793477997
 21
31.4424059016
 12
361.8840352445
 22
31.4101420472
 13
361.8840352445
 23
31.4101420472
  0
SOLID
  8
0
 62
7
  6
CONTINUOUS
 10
361.8840352445
 20
31.4101420472
 11
361.6527851343
 21
31.3778788115
 12
361.3637227445
 22
31.3778788115
 13
361.3637227445
 23
31.3778788115
  0
SOLID
  8
0
 62
7
  6
CONTINUOUS
 10
361.8840352445
 20
31.4101420472
 11
362.4621603548
 21
31.4424059016
 12
362.1152853548
 22
31.3778788115
 13
362.1152853548
 23
31.3778788115
  0
SOLID
  8
0
 62
7
  6
CONTINUOUS
 10
362.4621603548
 20
31.4424059016
 11
362.5777852445
 21
31.3778788115
 12
362.1152853548
 22
31.3778788115
 13
362.1152853548
 23
31.3778788115
  0
SOLID
  8
0
 62
7
  6
CONTINUOUS
 10
362.2309102445
 20
31.345614957
 11
362.1152853548
 21
31.3778788115
 12
362.5777852445
 22
31.3778788115
 13
362.5777852445
 23
31.3778788115
  0
SOLID
  8
0
 62
7
  6
CONTINUOUS
 10
362.5777852445
 20
31.3778788115
 11
362.6355978548
 21
31.3133517213
 12
362.2309102445
 22
31.345614957
 13
362.2309102445
 23
31.345614957
  0
SOLID
  8
0
 62
7
  6
CONTINUOUS
 10
362.3465351343
 20
31.2810878668
 11
362.2309102445
 21
31.345614957
 12
362.6355978548
 22
31.3133517213
 13
362.6355978548
 23
31.3133517213
  0
SOLID
  8
0
 62
7
  6
CONTINUOUS
 10
362.3465351343
 20
31.2810878668
 11
362.6355978548
 21
31.3133517213
 12
362.4043477445
 22
31.1520332377
 13
362.4043477445
 23
31.1520332377
  0
SOLID
  8
0
 62
7
  6
CONTINUOUS
 10
362.6355978548
 20
31.3133517213
 11
362.6934101343
 21
31.1520332377
 12
362.4043477445
 22
31.1520332377
 13
362.4043477445
 23
31.1520332377
  0
SOLID
  8
0
 62
7
  6
CONTINUOUS
 10
361.6527851343
 20
31.3778788115
 11
361.4793477997
 21
31.3133517213
 12
361.3637227445
 22
31.3778788115
 13
361.3637227445
 23
31.3778788115
  0
SOLID
  8
0
 62
7
  6
CONTINUOUS
 10
361.4793477997
 20
31.3133517213
 11
361.3637227445
 21
31.2488235635
 12
361.3637227445
 22
31.3778788115
 13
361.3637227445
 23
31.3778788115
  0
SOLID
  8
0
 62
7
  6
CONTINUOUS
 10
361.3637227445
 20
31.2488235635
 11
361.0746601894
 21
30.5067593033
 12
361.3637227445
 22
31.3778788115
 13
361.3637227445
 23
31.3778788115
  0
SOLID
  8
0
 62
7
  6
CONTINUOUS
 10
361.3637227445
 20
31.3778788115
 11
361.0746601894
 21
30.5067593033
 12
361.3637227445
 22
32.0231527459
 13
361.3637227445
 23
32.0231527459
  0
SOLID
  8
0
 62
7
  6
CONTINUOUS
 10
361.0746601894
 20
30.5067593033
 11
361.0746601894
 21
32.0231527459
 12
361.3637227445
 22
32.0231527459
 13
361.3637227445
 23
32.0231527459
  0
SOLID
  8
0
 62
7
  6
CONTINUOUS
 10
361.3637227445
 20
31.2488235635
 11
361.3637227445
 21
30.5067593033
 12
361.0746601894
 22
30.5067593033
 13
361.0746601894
 23
30.5067593033
  0
SOLID
  8
0
 62
7
  6
CONTINUOUS
 10
362.4043477445
 20
30.5067593033
 11
362.4043477445
 21
31.1520332377
 12
362.6934101343
 22
31.1520332377
 13
362.6934101343
 23
31.1520332377
  0
SOLID
  8
0
 62
7
  6
CONTINUOUS
 10
362.6934101343
 20
31.1520332377
 11
362.6934101343
 21
30.5067593033
 12
362.4043477445
 22
30.5067593033
 13
362.4043477445
 23
30.5067593033
  0
SOLID
  8
0
 62
7
  6
CONTINUOUS
 10
363.4449727445
 20
31.506933758
 11
363.8496603548
 21
31.5391977507
 12
364.1965353548
 22
31.5391977507
 13
364.1965353548
 23
31.5391977507
  0
SOLID
  8
0
 62
7
  6
CONTINUOUS
 10
364.1965353548
 20
31.5391977507
 11
364.543410024
 21
31.506933758
 12
363.4449727445
 22
31.506933758
 13
363.4449727445
 23
31.506933758
  0
SOLID
  8
0
 62
7
  6
CONTINUOUS
 10
363.3293478548
 20
31.4746706537
 11
363.4449727445
 21
31.506933758
 12
364.543410024
 22
31.506933758
 13
364.543410024
 23
31.506933758
  0
SOLID
  8
0
 62
7
  6
CONTINUOUS
 10
364.543410024
 20
31.506933758
 11
364.716847524
 21
31.4424063504
 12
363.3293478548
 22
31.4746706537
 13
363.3293478548
 23
31.4746706537
  0
SOLID
  8
0
 62
7
  6
CONTINUOUS
 10
363.2137226343
 20
31.4101417797
 11
363.3293478548
 21
31.4746706537
 12
364.716847524
 22
31.4424063504
 13
364.716847524
 23
31.4424063504
  0
SOLID
  8
0
 62
7
  6
CONTINUOUS
 10
363.2137226343
 20
31.4101417797
 11
364.716847524
 21
31.4424063504
 12
363.8496603548
 22
31.4101417797
 13
363.8496603548
 23
31.4101417797
  0
SOLID
  8
0
 62
7
  6
CONTINUOUS
 10
363.8496603548
 20
31.4101417797
 11
364.716847524
 21
31.4424063504
 12
364.1965353548
 22
31.4101417797
 13
364.1965353548
 23
31.4101417797
  0
SOLID
  8
0
 62
7
  6
CONTINUOUS
 10
364.1965353548
 20
31.4101417797
 11
364.716847524
 21
31.4424063504
 12
364.4277854651
 22
31.3778793357
 13
364.4277854651
 23
31.3778793357
  0
SOLID
  8
0
 62
7
  6
CONTINUOUS
 10
364.716847524
 20
31.4424063504
 11
364.8324727445
 21
31.3778793357
 12
364.4277854651
 22
31.3778793357
 13
364.4277854651
 23
31.3778793357
  0
SOLID
  8
0
 62
7
  6
CONTINUOUS
 10
363.1559103548
 20
31.3456153429
 11
363.2137226343
 21
31.4101417797
 12
363.8496603548
 22
31.4101417797
 13
363.8496603548
 23
31.4101417797
  0
SOLID
  8
0
 62
7
  6
CONTINUOUS
 10
364.543410024
 20
31.3456153429
 11
364.4277854651
 21
31.3778793357
 12
364.8324727445
 22
31.3778793357
 13
364.8324727445
 23
31.3778793357
  0
SOLID
  8
0
 62
7
  6
CONTINUOUS
 10
364.543410024
 20
31.3456153429
 11
364.8324727445
 21
31.3778793357
 12
364.6012229651
 22
31.2810881318
 13
364.6012229651
 23
31.2810881318
  0
SOLID
  8
0
 62
7
  6
CONTINUOUS
 10
364.8324727445
 20
31.3778793357
 11
364.890285024
 21
31.2810881318
 12
364.6012229651
 22
31.2810881318
 13
364.6012229651
 23
31.2810881318
  0
SOLID
  8
0
 62
7
  6
CONTINUOUS
 10
364.6012229651
 20
31.1842964734
 11
364.6012229651
 21
31.2810881318
 12
364.890285024
 22
31.2810881318
 13
364.890285024
 23
31.2810881318
  0
SOLID
  8
0
 62
7
  6
CONTINUOUS
 10
364.6012229651
 20
31.1842964734
 11
364.890285024
 21
31.2810881318
 12
364.6012229651
 22
31.0552422931
 13
364.6012229651
 23
31.0552422931
  0
SOLID
  8
0
 62
7
  6
CONTINUOUS
 10
364.6012229651
 20
31.0552422931
 11
364.890285024
 21
31.2810881318
 12
364.6012229651
 22
30.8616599362
 13
364.6012229651
 23
30.8616599362
  0
SOLID
  8
0
 62
7
  6
CONTINUOUS
 10
364.890285024
 20
31.2810881318
 11
364.890285024
 21
30.7648681127
 12
364.6012229651
 22
30.8616599362
 13
364.6012229651
 23
30.8616599362
  0
SOLID
  8
0
 62
7
  6
CONTINUOUS
 10
366.798097524
 20
31.5069339419
 11
367.0293479651
 21
31.5391976292
 12
367.2605977445
 22
31.5391976292
 13
367.2605977445
 23
31.5391976292
  0
SOLID
  8
0
 62
7
  6
CONTINUOUS
 10
367.2605977445
 20
31.5391976292
 11
367.4340352445
 21
31.5069339419
 12
366.798097524
 22
31.5069339419
 13
366.798097524
 23
31.5069339419
  0
SOLID
  8
0
 62
7
  6
CONTINUOUS
 10
366.624660024
 20
31.4424065674
 11
366.798097524
 21
31.5069339419
 12
367.4340352445
 22
31.5069339419
 13
367.4340352445
 23
31.5069339419
  0
SOLID
  8
0
 62
7
  6
CONTINUOUS
 10
367.4340352445
 20
31.5069339419
 11
367.6074727445
 21
31.4424065674
 12
366.624660024
 22
31.4424065674
 13
366.624660024
 23
31.4424065674
  0
SOLID
  8
0
 62
7
  6
CONTINUOUS
 10
367.6074727445
 20
31.4424065674
 11
367.0293479651
 21
31.4101420472
 12
366.624660024
 22
31.4424065674
 13
366.624660024
 23
31.4424065674
  0
SOLID
  8
0
 62
7
  6
CONTINUOUS
 10
366.5090354651
 20
31.377879193
 11
366.624660024
 21
31.4424065674
 12
367.0293479651
 22
31.4101420472
 13
367.0293479651
 23
31.4101420472
  0
SOLID
  8
0
 62
7
  6
CONTINUOUS
 10
367.0293479651
 20
31.4101420472
 11
366.798097524
 21
31.377879193
 12
366.5090354651
 22
31.377879193
 13
366.5090354651
 23
31.377879193
  0
SOLID
  8
0
 62
7
  6
CONTINUOUS
 10
367.0293479651
 20
31.4101420472
 11
367.6074727445
 21
31.4424065674
 12
367.2605977445
 22
31.377879193
 13
367.2605977445
 23
31.377879193
  0
SOLID
  8
0
 62
7
  6
CONTINUOUS
 10
367.6074727445
 20
31.4424065674
 11
367.7230979651
 21
31.377879193
 12
367.2605977445
 22
31.377879193
 13
367.2605977445
 23
31.377879193
  0
SOLID
  8
0
 62
7
  6
CONTINUOUS
 10
367.3762229651
 20
31.345614957
 11
367.2605977445
 21
31.377879193
 12
367.7230979651
 22
31.377879193
 13
367.7230979651
 23
31.377879193
  0
SOLID
  8
0
 62
7
  6
CONTINUOUS
 10
367.3762229651
 20
31.345614957
 11
367.7230979651
 21
31.377879193
 12
367.491847524
 22
31.2810881312
 13
367.491847524
 23
31.2810881312
  0
SOLID
  8
0
 62
7
  6
CONTINUOUS
 10
367.7230979651
 20
31.377879193
 11
367.7809102445
 21
31.2810881312
 12
367.491847524
 22
31.2810881312
 13
367.491847524
 23
31.2810881312
  0
SOLID
  8
0
 62
7
  6
CONTINUOUS
 10
367.5496604651
 20
31.119769695
 11
367.491847524
 21
31.2810881312
 12
367.7809102445
 22
31.2810881312
 13
367.7809102445
 23
31.2810881312
  0
SOLID
  8
0
 62
7
  6
CONTINUOUS
 10
367.7809102445
 20
31.2810881312
 11
367.838722524
 21
31.119769695
 12
367.5496604651
 22
31.119769695
 13
367.5496604651
 23
31.119769695
  0
SOLID
  8
0
 62
7
  6
CONTINUOUS
 10
366.798097524
 20
31.377879193
 11
366.624660024
 21
31.3133521701
 12
366.5090354651
 22
31.377879193
 13
366.5090354651
 23
31.377879193
  0
SOLID
  8
0
 62
7
  6
CONTINUOUS
 10
366.624660024
 20
31.3133521701
 11
366.5090354651
 21
31.2488235635
 12
366.5090354651
 22
31.377879193
 13
366.5090354651
 23
31.377879193
  0
SOLID
  8
0
 62
7
  6
CONTINUOUS
 10
366.5090354651
 20
31.2488235635
 11
366.2199727445
 21
30.5067596374
 12
366.5090354651
 22
31.377879193
 13
366.5090354651
 23
31.377879193
  0
SOLID
  8
0
 62
7
  6
CONTINUOUS
 10
366.5090354651
 20
31.377879193
 11
366.2199727445
 21
30.5067596374
 12
366.5090354651
 22
31.5391976292
 13
366.5090354651
 23
31.5391976292
  0
SOLID
  8
0
 62
7
  6
CONTINUOUS
 10
366.2199727445
 20
30.5067596374
 11
366.2199727445
 21
31.5391976292
 12
366.5090354651
 22
31.5391976292
 13
366.5090354651
 23
31.5391976292
  0
SOLID
  8
0
 62
7
  6
CONTINUOUS
 10
366.5090354651
 20
31.2488235635
 11
366.5090354651
 21
30.5067596374
 12
366.2199727445
 22
30.5067596374
 13
366.2199727445
 23
30.5067596374
  0
SOLID
  8
0
 62
7
  6
CONTINUOUS
 10
367.5496604651
 20
30.5067596374
 11
367.5496604651
 21
31.119769695
 12
367.838722524
 22
31.119769695
 13
367.838722524
 23
31.119769695
  0
SOLID
  8
0
 62
7
  6
CONTINUOUS
 10
367.838722524
 20
31.119769695
 11
367.838722524
 21
30.5067596374
 12
367.5496604651
 22
30.5067596374
 13
367.5496604651
 23
30.5067596374
  0
SOLID
  8
0
 62
7
  6
CONTINUOUS
 10
368.6480977445
 20
31.5069334157
 11
368.9949727445
 21
31.539197762
 12
369.3418477445
 22
31.539197762
 13
369.3418477445
 23
31.539197762
  0
SOLID
  8
0
 62
7
  6
CONTINUOUS
 10
369.3418477445
 20
31.539197762
 11
369.6887227445
 21
31.5069334157
 12
368.6480977445
 22
31.5069334157
 13
368.6480977445
 23
31.5069334157
  0
SOLID
  8
0
 62
7
  6
CONTINUOUS
 10
368.4168479651
 20
31.4424063504
 11
368.6480977445
 21
31.5069334157
 12
369.6887227445
 22
31.5069334157
 13
369.6887227445
 23
31.5069334157
  0
SOLID
  8
0
 62
7
  6
CONTINUOUS
 10
368.4168479651
 20
31.4424063504
 11
369.6887227445
 21
31.5069334406
 12
369.8621602445
 22
31.4746706537
 13
369.8621602445
 23
31.4746706537
  0
SOLID
  8
0
 62
7
  6
CONTINUOUS
 10
368.4168479651
 20
31.4424063504
 11
369.8621602445
 21
31.4746706537
 12
368.9949727445
 22
31.4101421267
 13
368.9949727445
 23
31.4101421267
  0
SOLID
  8
0
 62
7
  6
CONTINUOUS
 10
368.9949727445
 20
31.4101421267
 11
369.8621602445
 21
31.4746706537
 12
369.3418477445
 22
31.4101421267
 13
369.3418477445
 23
31.4101421267
  0
SOLID
  8
0
 62
7
  6
CONTINUOUS
 10
369.8621602445
 20
31.4746706537
 11
370.0355977445
 21
31.4101421267
 12
369.3418477445
 22
31.4101421267
 13
369.3418477445
 23
31.4101421267
  0
SOLID
  8
0
 62
7
  6
CONTINUOUS
 10
369.6887227445
 20
31.3778792603
 11
369.3418477445
 21
31.4101421267
 12
370.0355977445
 22
31.4101421267
 13
370.0355977445
 23
31.4101421267
  0
SOLID
  8
0
 62
7
  6
CONTINUOUS
 10
368.3012227445
 20
31.3456148845
 11
368.4168479651
 21
31.4424063504
 12
368.9949727445
 22
31.4101421267
 13
368.9949727445
 23
31.4101421267
  0
SOLID
  8
0
 62
7
  6
CONTINUOUS
 10
369.6887227445
 20
31.3778792603
 11
370.0355977445
 21
31.4101421267
 12
369.8043479651
 22
31.3456148845
 13
369.8043479651
 23
31.3456148845
  0
SOLID
  8
0
 62
7
  6
CONTINUOUS
 10
369.8043479651
 20
31.3456148845
 11
370.0355977445
 21
31.4101421267
 12
369.8621602445
 22
31.281087868
 13
369.8621602445
 23
31.281087868
  0
SOLID
  8
0
 62
7
  6
CONTINUOUS
 10
370.0355977445
 20
31.4101421267
 11
370.1512223035
 21
31.281087868
 12
369.8621602445
 22
31.281087868
 13
369.8621602445
 23
31.281087868
  0
SOLID
  8
0
 62
7
  6
CONTINUOUS
 10
359.4559102445
 20
31.3778792603
 11
358.9355977445
 21
31.3456148963
 12
359.6871602721
 22
31.4101421155
 13
359.6871602721
 23
31.4101421155
  0
SOLID
  8
0
 62
7
  6
CONTINUOUS
 10
358.9355977445
 20
31.3456148963
 11
359.0512227376
 21
31.4101421155
 12
359.6871602721
 22
31.4101421155
 13
359.6871602721
 23
31.4101421155
  0
SOLID
  8
0
 62
7
  6
CONTINUOUS
 10
359.4559102445
 20
31.3778792603
 11
359.3402852307
 21
31.3456148963
 12
358.9355977445
 22
31.3456148963
 13
358.9355977445
 23
31.3456148963
  0
SOLID
  8
0
 62
7
  6
CONTINUOUS
 10
358.8199727462
 20
31.2165607767
 11
358.9355977445
 21
31.3456148963
 12
359.3402852307
 22
31.3456148963
 13
359.3402852307
 23
31.3456148963
  0
SOLID
  8
0
 62
7
  6
CONTINUOUS
 10
363.1559103548
 20
31.3456149608
 11
363.8496603548
 21
31.4101420472
 12
363.6184102445
 22
31.3778792603
 13
363.6184102445
 23
31.3778792603
  0
SOLID
  8
0
 62
7
  6
CONTINUOUS
 10
363.6184102445
 20
31.3778792603
 11
363.5027853548
 21
31.3456149608
 12
363.1559103548
 22
31.3456149608
 13
363.1559103548
 23
31.3456149608
  0
SOLID
  8
0
 62
7
  6
CONTINUOUS
 10
363.1559103548
 20
31.2810878707
 11
363.1559103548
 21
31.3456149608
 12
363.5027853548
 22
31.3456149608
 13
363.5027853548
 23
31.3456149608
  0
SOLID
  8
0
 62
7
  6
CONTINUOUS
 10
363.5027853548
 20
31.3456149608
 11
363.4449727445
 21
31.2810878707
 12
363.1559103548
 22
31.2810878707
 13
363.1559103548
 23
31.2810878707
  0
SOLID
  8
0
 62
7
  6
CONTINUOUS
 10
368.3012227445
 20
31.3456149608
 11
368.9949727445
 21
31.4101420472
 12
368.7637229651
 22
31.3778792603
 13
368.7637229651
 23
31.3778792603
  0
SOLID
  8
0
 62
7
  6
CONTINUOUS
 10
368.7637229651
 20
31.3778792603
 11
368.6480977445
 21
31.3456149608
 12
368.3012227445
 22
31.3456149608
 13
368.3012227445
 23
31.3456149608
  0
SOLID
  8
0
 62
7
  6
CONTINUOUS
 10
368.3012227445
 20
31.2810878707
 11
368.3012227445
 21
31.3456149608
 12
368.6480977445
 22
31.3456149608
 13
368.6480977445
 23
31.3456149608
  0
SOLID
  8
0
 62
7
  6
CONTINUOUS
 10
368.6480977445
 20
31.3456149608
 11
368.5902854651
 21
31.2810878707
 12
368.3012227445
 22
31.2810878707
 13
368.3012227445
 23
31.2810878707
  0
SOLID
  8
0
 62
7
  6
CONTINUOUS
 10
368.4168479651
 20
31.1520336865
 11
368.3012227445
 21
31.2810878707
 12
368.5902854651
 22
31.2810878707
 13
368.5902854651
 23
31.2810878707
  0
SOLID
  8
0
 62
7
  6
CONTINUOUS
 10
358.8199727462
 20
31.2165607767
 11
359.3402852307
 21
31.345614957
 12
359.1668477307
 22
31.2488235635
 13
359.1668477307
 23
31.2488235635
  0
SOLID
  8
0
 62
7
  6
CONTINUOUS
 10
359.1668477307
 20
31.2488235635
 11
359.1090352445
 21
31.1842964734
 12
358.8199727462
 22
31.2165607767
 13
358.8199727462
 23
31.2165607767
  0
SOLID
  8
0
 62
7
  6
CONTINUOUS
 10
358.7621602445
 20
31.0229779898
 11
358.8199727462
 21
31.2165607767
 12
359.1090352445
 22
31.1842964734
 13
359.1090352445
 23
31.1842964734
  0
SOLID
  8
0
 62
7
  6
CONTINUOUS
 10
363.6184102445
 20
31.1520336865
 11
363.9652852445
 21
31.1842964611
 12
364.6012229651
 22
31.1842964611
 13
364.6012229651
 23
31.1842964611
  0
SOLID
  8
0
 62
7
  6
CONTINUOUS
 10
363.6184102445
 20
31.1520336865
 11
364.6012229651
 21
31.1842964611
 12
363.3871601343
 22
31.0875057863
 13
363.3871601343
 23
31.0875057863
  0
SOLID
  8
0
 62
7
  6
CONTINUOUS
 10
363.3871601343
 20
31.0875057863
 11
364.6012229651
 21
31.1842964611
 12
363.9652852445
 22
31.0552422808
 13
363.9652852445
 23
31.0552422808
  0
SOLID
  8
0
 62
7
  6
CONTINUOUS
 10
364.6012229651
 20
31.1842964611
 11
364.6012229651
 21
31.0552422808
 12
363.9652852445
 22
31.0552422808
 13
363.9652852445
 23
31.0552422808
  0
SOLID
  8
0
 62
7
  6
CONTINUOUS
 10
368.4168479651
 20
31.1520338754
 11
368.5902854651
 21
31.2810878668
 12
368.6480977445
 22
31.2165607767
 13
368.6480977445
 23
31.2165607767
  0
SOLID
  8
0
 62
7
  6
CONTINUOUS
 10
368.6480977445
 20
31.2165607767
 11
368.8215352445
 21
31.1520338754
 12
368.4168479651
 22
31.1520338754
 13
368.4168479651
 23
31.1520338754
  0
SOLID
  8
0
 62
7
  6
CONTINUOUS
 10
368.6480977445
 20
31.0552422931
 11
368.4168479651
 21
31.1520338754
 12
368.8215352445
 22
31.1520338754
 13
368.8215352445
 23
31.1520338754
  0
SOLID
  8
0
 62
7
  6
CONTINUOUS
 10
368.8215352445
 20
31.1520338754
 11
369.8043479651
 21
30.9907152029
 12
368.6480977445
 22
31.0552422931
 13
368.6480977445
 23
31.0552422931
  0
SOLID
  8
0
 62
7
  6
CONTINUOUS
 10
369.6309104651
 20
30.8939239876
 11
368.6480977445
 21
31.0552422931
 12
369.8043479651
 22
30.9907152029
 13
369.8043479651
 23
30.9907152029
  0
SOLID
  8
0
 62
7
  6
CONTINUOUS
 10
369.8043479651
 20
30.9907152029
 11
370.0355977445
 21
30.8939239876
 12
369.6309104651
 22
30.8939239876
 13
369.6309104651
 23
30.8939239876
  0
SOLID
  8
0
 62
7
  6
CONTINUOUS
 10
369.8043479651
 20
30.8293967193
 11
369.6309104651
 21
30.8939239876
 12
370.0355977445
 22
30.8939239876
 13
370.0355977445
 23
30.8939239876
  0
SOLID
  8
0
 62
7
  6
CONTINUOUS
 10
369.8043479651
 20
30.8293967193
 11
370.0355977445
 21
30.8939239876
 12
369.8621602445
 22
30.7648682694
 13
369.8621602445
 23
30.7648682694
  0
SOLID
  8
0
 62
7
  6
CONTINUOUS
 10
370.0355977445
 20
30.8939239876
 11
370.1512223035
 21
30.7648682694
 12
369.8621602445
 22
30.7648682694
 13
369.8621602445
 23
30.7648682694
  0
SOLID
  8
0
 62
7
  6
CONTINUOUS
 10
369.8043479651
 20
30.7003411846
 11
369.8621602445
 21
30.7648682694
 12
370.1512223035
 22
30.7648682694
 13
370.1512223035
 23
30.7648682694
  0
SOLID
  8
0
 62
7
  6
CONTINUOUS
 10
370.1512223035
 20
30.7648682694
 11
370.1512223035
 21
30.7003411846
 12
369.8043479651
 22
30.7003411846
 13
369.8043479651
 23
30.7003411846
  0
SOLID
  8
0
 62
7
  6
CONTINUOUS
 10
369.6887227445
 20
30.6680782357
 11
369.8043479651
 21
30.7003411846
 12
370.1512223035
 22
30.7003411846
 13
370.1512223035
 23
30.7003411846
  0
SOLID
  8
0
 62
7
  6
CONTINUOUS
 10
369.6887227445
 20
30.6680782357
 11
370.1512223035
 21
30.7003411846
 12
369.4574729651
 22
30.6358140998
 13
369.4574729651
 23
30.6358140998
  0
SOLID
  8
0
 62
7
  6
CONTINUOUS
 10
370.1512223035
 20
30.7003411846
 11
370.0355977445
 21
30.6035511455
 12
369.4574729651
 22
30.6358140998
 13
369.4574729651
 23
30.6358140998
  0
SOLID
  8
0
 62
7
  6
CONTINUOUS
 10
370.0355977445
 20
30.6035511455
 11
368.5902854651
 21
30.5712868422
 12
369.4574729651
 22
30.6358140998
 13
369.4574729651
 23
30.6358140998
  0
SOLID
  8
0
 62
7
  6
CONTINUOUS
 10
369.4574729651
 20
30.6358140998
 11
368.5902854651
 21
30.5712868422
 12
369.1105979651
 22
30.6358140998
 13
369.1105979651
 23
30.6358140998
  0
SOLID
  8
0
 62
7
  6
CONTINUOUS
 10
368.5902854651
 20
30.5712868422
 11
368.4168479651
 21
30.6358140998
 12
369.1105979651
 22
30.6358140998
 13
369.1105979651
 23
30.6358140998
  0
SOLID
  8
0
 62
7
  6
CONTINUOUS
 10
368.5902854651
 20
30.5712868422
 11
370.0355977445
 21
30.6035511455
 12
368.7637229651
 22
30.5390223111
 13
368.7637229651
 23
30.5390223111
  0
SOLID
  8
0
 62
7
  6
CONTINUOUS
 10
370.0355977445
 20
30.6035511455
 11
369.8043479651
 21
30.5390223111
 12
368.7637229651
 22
30.5390223111
 13
368.7637229651
 23
30.5390223111
  0
SOLID
  8
0
 62
7
  6
CONTINUOUS
 10
369.1105979651
 20
30.5067599302
 11
368.7637229651
 21
30.5390223111
 12
369.8043479651
 22
30.5390223111
 13
369.8043479651
 23
30.5390223111
  0
SOLID
  8
0
 62
7
  6
CONTINUOUS
 10
369.8043479651
 20
30.5390223111
 11
369.4574729651
 21
30.5067599302
 12
369.1105979651
 22
30.5067599302
 13
369.1105979651
 23
30.5067599302
  0
SOLID
  8
0
 62
7
  6
CONTINUOUS
 10
358.7621602445
 20
31.0229779898
 11
359.1090352445
 21
31.1842964734
 12
359.0512227376
 22
31.0552422931
 13
359.0512227376
 23
31.0552422931
  0
SOLID
  8
0
 62
7
  6
CONTINUOUS
 10
359.0512227376
 20
31.0552422931
 11
359.0512227376
 21
30.9584509954
 12
358.7621602445
 22
31.0229779898
 13
358.7621602445
 23
31.0229779898
  0
SOLID
  8
0
 62
7
  6
CONTINUOUS
 10
358.8199727462
 20
30.8293967193
 11
358.7621602445
 21
31.0229779898
 12
359.0512227376
 22
30.9584509954
 13
359.0512227376
 23
30.9584509954
  0
SOLID
  8
0
 62
7
  6
CONTINUOUS
 10
359.0512227376
 20
30.9584509954
 11
359.1668477307
 21
30.797132416
 12
358.8199727462
 22
30.8293967193
 13
358.8199727462
 23
30.8293967193
  0
SOLID
  8
0
 62
7
  6
CONTINUOUS
 10
358.9355977445
 20
30.7003413087
 11
358.8199727462
 21
30.8293967193
 12
359.1668477307
 22
30.797132416
 13
359.1668477307
 23
30.797132416
  0
SOLID
  8
0
 62
7
  6
CONTINUOUS
 10
359.1668477307
 20
30.797132416
 11
359.3402852307
 21
30.7003413087
 12
358.9355977445
 22
30.7003413087
 13
358.9355977445
 23
30.7003413087
  0
SOLID
  8
0
 62
7
  6
CONTINUOUS
 10
359.0512227376
 20
30.6358140759
 11
358.9355977445
 21
30.7003413087
 12
359.3402852307
 22
30.7003413087
 13
359.3402852307
 23
30.7003413087
  0
SOLID
  8
0
 62
7
  6
CONTINUOUS
 10
359.3402852307
 20
30.7003413087
 11
359.6871602721
 21
30.6358140759
 12
359.0512227376
 22
30.6358140759
 13
359.0512227376
 23
30.6358140759
  0
SOLID
  8
0
 62
7
  6
CONTINUOUS
 10
359.2246602583
 20
30.5712868422
 11
359.0512227376
 21
30.6358140759
 12
359.6871602721
 22
30.6358140759
 13
359.6871602721
 23
30.6358140759
  0
SOLID
  8
0
 62
7
  6
CONTINUOUS
 10
363.2715352445
 20
31.0229779808
 11
363.3871601343
 21
31.0875057863
 12
363.9652852445
 22
31.0552422931
 13
363.9652852445
 23
31.0552422931
  0
SOLID
  8
0
 62
7
  6
CONTINUOUS
 10
363.9652852445
 20
31.0552422931
 11
363.7340351343
 21
31.0229779808
 12
363.2715352445
 22
31.0229779808
 13
363.2715352445
 23
31.0229779808
  0
SOLID
  8
0
 62
7
  6
CONTINUOUS
 10
363.1559103548
 20
30.8939238094
 11
363.2715352445
 21
31.0229779808
 12
363.7340351343
 22
31.0229779808
 13
363.7340351343
 23
31.0229779808
  0
SOLID
  8
0
 62
7
  6
CONTINUOUS
 10
363.5027853548
 20
30.926187309
 11
363.1559103548
 21
30.8939238094
 12
363.6184102445
 22
30.9907152029
 13
363.6184102445
 23
30.9907152029
  0
SOLID
  8
0
 62
7
  6
CONTINUOUS
 10
363.1559103548
 20
30.8939238094
 11
363.7340351343
 21
31.0229779898
 12
363.6184102445
 22
30.9907152029
 13
363.6184102445
 23
30.9907152029
  0
SOLID
  8
0
 62
7
  6
CONTINUOUS
 10
363.5027853548
 20
30.926187309
 11
363.4449727445
 21
30.8293967193
 12
363.1559103548
 22
30.8939238094
 13
363.1559103548
 23
30.8939238094
  0
SOLID
  8
0
 62
7
  6
CONTINUOUS
 10
363.1559103548
 20
30.797132416
 11
363.1559103548
 21
30.8939238094
 12
363.4449727445
 22
30.8293967193
 13
363.4449727445
 23
30.8293967193
  0
SOLID
  8
0
 62
7
  6
CONTINUOUS
 10
363.4449727445
 20
30.8293967193
 11
363.4449727445
 21
30.7648681127
 12
363.1559103548
 22
30.797132416
 13
363.1559103548
 23
30.797132416
  0
SOLID
  8
0
 62
7
  6
CONTINUOUS
 10
363.2137226343
 20
30.6680782357
 11
363.1559103548
 21
30.797132416
 12
363.4449727445
 22
30.7648681127
 13
363.4449727445
 23
30.7648681127
  0
SOLID
  8
0
 62
7
  6
CONTINUOUS
 10
364.6012229651
 20
30.8616599362
 11
364.890285024
 21
30.7648681127
 12
364.543410024
 22
30.797132416
 13
364.543410024
 23
30.797132416
  0
SOLID
  8
0
 62
7
  6
CONTINUOUS
 10
364.369972524
 20
30.7003410226
 11
364.543410024
 21
30.797132416
 12
364.890285024
 22
30.7648681127
 13
364.890285024
 23
30.7648681127
  0
SOLID
  8
0
 62
7
  6
CONTINUOUS
 10
364.369972524
 20
30.7003410226
 11
364.890285024
 21
30.7648681127
 12
364.6012229651
 22
30.6680782357
 13
364.6012229651
 23
30.6680782357
  0
SOLID
  8
0
 62
7
  6
CONTINUOUS
 10
364.890285024
 20
30.7648681127
 11
364.9480979651
 21
30.6035511455
 12
364.6012229651
 22
30.6680782357
 13
364.6012229651
 23
30.6680782357
  0
SOLID
  8
0
 62
7
  6
CONTINUOUS
 10
364.6590352445
 20
30.5712868422
 11
364.6012229651
 21
30.6680782357
 12
364.9480979651
 22
30.6035511455
 13
364.9480979651
 23
30.6035511455
  0
SOLID
  8
0
 62
7
  6
CONTINUOUS
 10
364.6590352445
 20
30.5712868422
 11
364.9480979651
 21
30.6035511455
 12
364.716847524
 22
30.5067598731
 13
364.716847524
 23
30.5067598731
  0
SOLID
  8
0
 62
7
  6
CONTINUOUS
 10
364.9480979651
 20
30.6035511455
 11
365.0059102445
 21
30.5067598731
 12
364.716847524
 22
30.5067598731
 13
364.716847524
 23
30.5067598731
  0
SOLID
  8
0
 62
7
  6
CONTINUOUS
 10
360.2652852997
 20
30.7326051679
 11
360.3230977445
 21
30.8293966612
 12
360.6121602997
 22
30.8293966612
 13
360.6121602997
 23
30.8293966612
  0
SOLID
  8
0
 62
7
  6
CONTINUOUS
 10
360.6121602997
 20
30.8293966612
 11
360.5543476894
 21
30.7003410226
 12
360.2652852997
 22
30.7326051679
 13
360.2652852997
 23
30.7326051679
  0
SOLID
  8
0
 62
7
  6
CONTINUOUS
 10
360.091847717
 20
30.6680782357
 11
360.2652852997
 21
30.7326051679
 12
360.5543476894
 22
30.7003410226
 13
360.5543476894
 23
30.7003410226
  0
SOLID
  8
0
 62
7
  6
CONTINUOUS
 10
360.091847717
 20
30.6680782357
 11
360.5543476894
 21
30.7003410226
 12
359.6871602721
 22
30.6358139324
 13
359.6871602721
 23
30.6358139324
  0
SOLID
  8
0
 62
7
  6
CONTINUOUS
 10
360.5543476894
 20
30.7003410226
 11
360.3809101894
 21
30.6035511455
 12
359.6871602721
 22
30.6358139324
 13
359.6871602721
 23
30.6358139324
  0
SOLID
  8
0
 62
7
  6
CONTINUOUS
 10
359.2246602583
 20
30.5712868422
 11
359.6871602721
 21
30.6358139324
 12
360.3809101894
 22
30.6035511455
 13
360.3809101894
 23
30.6035511455
  0
SOLID
  8
0
 62
7
  6
CONTINUOUS
 10
359.2246602583
 20
30.5712868422
 11
360.3809101894
 21
30.6035511455
 12
359.3980977583
 22
30.5390224228
 13
359.3980977583
 23
30.5390224228
  0
SOLID
  8
0
 62
7
  6
CONTINUOUS
 10
360.3809101894
 20
30.6035511455
 11
360.1496602445
 21
30.5390224228
 12
359.3980977583
 22
30.5390224228
 13
359.3980977583
 23
30.5390224228
  0
SOLID
  8
0
 62
7
  6
CONTINUOUS
 10
359.744972717
 20
30.5067597521
 11
359.3980977583
 21
30.5390224228
 12
360.1496602445
 22
30.5390224228
 13
360.1496602445
 23
30.5390224228
  0
SOLID
  8
0
 62
7
  6
CONTINUOUS
 10
363.2137226343
 20
30.6680782357
 11
363.4449727445
 21
30.7648681127
 12
363.5027853548
 22
30.7003410226
 13
363.5027853548
 23
30.7003410226
  0
SOLID
  8
0
 62
7
  6
CONTINUOUS
 10
363.5027853548
 20
30.7003410226
 11
363.7340351343
 21
30.6358139324
 12
363.2137226343
 22
30.6680782357
 13
363.2137226343
 23
30.6680782357
  0
SOLID
  8
0
 62
7
  6
CONTINUOUS
 10
363.3871601343
 20
30.5712868422
 11
363.2137226343
 21
30.6680782357
 12
363.7340351343
 22
30.6358139324
 13
363.7340351343
 23
30.6358139324
  0
SOLID
  8
0
 62
7
  6
CONTINUOUS
 10
364.0809101343
 20
30.6358139363
 11
364.369972524
 21
30.7003410226
 12
364.6012229651
 22
30.6680782357
 13
364.6012229651
 23
30.6680782357
  0
SOLID
  8
0
 62
7
  6
CONTINUOUS
 10
364.6012229651
 20
30.6680782357
 11
364.543410024
 21
30.6035511455
 12
364.0809101343
 22
30.6358139363
 13
364.0809101343
 23
30.6358139363
  0
SOLID
  8
0
 62
7
  6
CONTINUOUS
 10
364.543410024
 20
30.6035511455
 11
363.3871601343
 21
30.5712868422
 12
364.0809101343
 22
30.6358139363
 13
364.0809101343
 23
30.6358139363
  0
SOLID
  8
0
 62
7
  6
CONTINUOUS
 10
363.3871601343
 20
30.5712868422
 11
363.7340351343
 21
30.6358139363
 12
364.0809101343
 22
30.6358139363
 13
364.0809101343
 23
30.6358139363
  0
SOLID
  8
0
 62
7
  6
CONTINUOUS
 10
363.3871601343
 20
30.5712868422
 11
364.543410024
 21
30.6035511455
 12
363.5027853548
 22
30.5390225267
 13
363.5027853548
 23
30.5390225267
  0
SOLID
  8
0
 62
7
  6
CONTINUOUS
 10
364.543410024
 20
30.6035511455
 11
364.369972524
 21
30.5390225267
 12
363.5027853548
 22
30.5390225267
 13
363.5027853548
 23
30.5390225267
  0
SOLID
  8
0
 62
7
  6
CONTINUOUS
 10
363.7340351343
 20
30.5067596914
 11
363.5027853548
 21
30.5390225267
 12
364.369972524
 22
30.5390225267
 13
364.369972524
 23
30.5390225267
  0
SOLID
  8
0
 62
7
  6
CONTINUOUS
 10
364.369972524
 20
30.5390225267
 11
364.0809101343
 21
30.5067596914
 12
363.7340351343
 22
30.5067596914
 13
363.7340351343
 23
30.5067596914
  0
SOLID
  8
0
 62
7
  6
CONTINUOUS
 10
368.7637229651
 20
30.6680782357
 11
368.4168479651
 21
30.6358138717
 12
368.6480977445
 22
30.7003410226
 13
368.6480977445
 23
30.7003410226
  0
SOLID
  8
0
 62
7
  6
CONTINUOUS
 10
368.6480977445
 20
30.7003410226
 11
368.4168479651
 21
30.6358138717
 12
368.5902854651
 22
30.7648680521
 13
368.5902854651
 23
30.7648680521
  0
SOLID
  8
0
 62
7
  6
CONTINUOUS
 10
368.4168479651
 20
30.6358138717
 11
368.3012227445
 21
30.7648680521
 12
368.5902854651
 22
30.7648680521
 13
368.5902854651
 23
30.7648680521
  0
SOLID
  8
0
 62
7
  6
CONTINUOUS
 10
368.7637229651
 20
30.6680782357
 11
369.1105979651
 21
30.6358138717
 12
368.4168479651
 22
30.6358138717
 13
368.4168479651
 23
30.6358138717
  0
SOLID
  8
0
 62
7
  6
CONTINUOUS
 10
365.4684104651
 20
30.5067597521
 11
365.4684104651
 21
31.5391977439
 12
365.757472524
 22
30.5067597521
 13
365.757472524
 23
31.5391977439
  0
ENDBLK
  8
0
  6
BYBLOCK
 62
0
  0
BLOCK
  8
0
 62
2
  6
CONTINUOUS
  2
SYMBOL_0_BL0
 70
64
 10
240.8592468615
 20
19.762288695
  0
TEXT
  8
0
 62
7
  6
CONTINUOUS
 10
227.1239507038
 20
19.1357028027
  7
TEXTSTYLE_3
 40
2.7338706658
  1
Ammeraal Beltech
 41
1.0
 51
15.0
 72
0
  0
TEXT
  8
0
 62
7
  6
CONTINUOUS
 10
237.9247515296
 20
16.8621661299
  7
TEXTSTYLE_4
 40
1.0935482663
  1
Innovation & Service in Belting
 41
1.0
 72
0
  0
LINE
  8
0
 62
7
  6
CONTINUOUS
 10
221.0994100525
 20
19.9022961113
 11
221.8775620458
 21
23.5632134089
  0
LINE
  8
0
 62
7
  6
CONTINUOUS
 10
231.9727303357
 20
27.2266073205
 11
222.3653797889
 21
24.1049898993
  0
LINE
  8
0
 62
7
  6
CONTINUOUS
 10
221.3246933848
 20
19.2089453082
 11
228.8317686459
 21
12.4495443822
  0
LINE
  8
0
 62
7
  6
CONTINUOUS
 10
221.5872277955
 20
20.4440726016
 11
232.3954971607
 21
23.9558922005
  0
LINE
  8
0
 62
7
  6
CONTINUOUS
 10
232.3912920235
 20
13.6061036368
 11
223.9458323548
 21
21.2104296785
  0
LINE
  8
0
 62
7
  6
CONTINUOUS
 10
232.9111147433
 20
26.3816822048
 11
231.9345552061
 21
21.7873308023
  0
LINE
  8
0
 62
7
  6
CONTINUOUS
 10
231.2347532584
 20
18.4950214885
 11
230.5483050469
 21
15.2655365641
  0
LINE
  8
0
 62
7
  6
CONTINUOUS
 10
233.5922108419
 20
13.9963058145
 11
234.5484423775
 21
18.4950214885
  0
LINE
  8
0
 62
7
  6
CONTINUOUS
 10
235.2482443252
 20
21.7873308023
 11
235.6924861276
 21
23.8773241617
  0
LINE
  8
0
 62
7
  6
CONTINUOUS
 10
229.5448697213
 20
12.2979700695
 11
233.1043930989
 21
13.4545293241
  0
LINE
  8
0
 62
7
  6
CONTINUOUS
 10
232.685831411
 20
27.0750330078
 11
235.4672027953
 21
24.5706749648
  0
ARC
  8
0
 62
7
  6
CONTINUOUS
 10
222.5906631212
 20
23.4116390962
 40
0.7290321776
 50
108.0
 51
168.0
  0
ARC
  8
0
 62
7
  6
CONTINUOUS
 10
232.198013668
 20
26.5332565175
 40
0.7290321776
 50
348.0
 51
108.0
  0
ARC
  8
0
 62
7
  6
CONTINUOUS
 10
234.9793850522
 20
24.0288984744
 40
0.7290321776
 50
348.0
 51
48.0
  0
ARC
  8
0
 62
7
  6
CONTINUOUS
 10
229.319586389
 20
12.9913208726
 40
0.7290321776
 50
228.0
 51
288.0
  0
ARC
  8
0
 62
7
  6
CONTINUOUS
 10
221.8125111278
 20
19.7507217986
 40
0.7290321776
 50
108.0
 51
228.0
  0
ARC
  8
0
 62
7
  6
CONTINUOUS
 10
232.8791097665
 20
14.1478801272
 40
0.7290321776
 50
228.0
 51
348.0
  0
ENDBLK
  8
0
  6
BYBLOCK
 62
0
  0
ENDSEC
  0
SECTION
  2
ENTITIES
  0
TEXT
  8
0
 62
5
  6
CONTINUOUS
 10
304.937007874
 20
25.636
  7
TEXTSTYLE_2
 40
2.8
  1
Scale :
 41
0.6
 51
0.000019
 72
0
  0
TEXT
  8
0
 62
5
  6
CONTINUOUS
 10
324.937007874
 20
25.636
  7
TEXTSTYLE_2
 40
2.8
  1
Belt type:
 41
0.6
 51
0.000019
 72
0
  0
INSERT
  8
0
 62
2
  6
CONTINUOUS
  2
SYMBOL_0_BL0
 10
240.8592468615
 20
19.762288695
  0
INSERT
  8
0
 62
2
  6
CONTINUOUS
  2
SYMBOL_5_BL1
 10
382.7840918555
 20
35.5067593403
  0
LINE
  8
0
 62
2
  6
CONTINUOUS
 10
218.937007874
 20
30.0
 11
408.937007874
 21
30.0
  0
LINE
  8
0
 62
2
  6
CONTINUOUS
 10
218.937007874
 20
30.0
 11
218.937007874
 21
10.0
  0
LINE
  8
0
 62
2
  6
CONTINUOUS
 10
218.937007874
 20
10.0
 11
408.937007874
 21
10.0
  0
LINE
  8
0
 62
2
  6
CONTINUOUS
 10
303.937007874
 20
30.0
 11
303.937007874
 21
10.0
  0
LINE
  8
0
 62
2
  6
CONTINUOUS
 10
323.937007874
 20
30.0
 11
323.937007874
 21
10.0
  0
LINE
  8
0
 62
2
  6
CONTINUOUS
 10
408.937007874
 20
30.0
 11
408.937007874
 21
10.0
  0
TEXT
  8
0
 62
5
  6
CONTINUOUS
 10
221.937007874
 20
23.303
  7
TEXTSTYLE_5
 40
1.52
  1
                                                                     Ammeraal Beltech Modular A/S
 41
1.0
 72
0
  0
TEXT
  8
0
 62
5
  6
CONTINUOUS
 10
221.937007874
 20
20.595
  7
TEXTSTYLE_5
 40
1.5
  1
                                                                      Hjulmagervej 21, 7100 Vejle,  DK
 41
1.0
 72
0
  0
TEXT
  8
0
 62
5
  6
CONTINUOUS
 10
221.937007874
 20
17.881
  7
TEXTSTYLE_5
 40
1.495
  1
                                                                      tel: 
 41
1.0
 72
0
  0
TEXT
  8
0
 62
5
  6
CONTINUOUS
 10
266.9239544389
 20
17.881
  7
TEXTSTYLE_5
 40
1.51
  1
+45 75723100     fax: +45 75723348
 41
1.0
 72
0
  0
TEXT
  8
0
 62
5
  6
CONTINUOUS
 10
221.937007874
 20
15.177
  7
TEXTSTYLE_5
 40
1.5
  1
                                                                      admin@unichains.dk  www.unichains.com
 41
1.0
 72
0
  0
TEXT
  8
0
 62
5
  6
CONTINUOUS
 10
308.687007874
 20
13.75
  7
TEXTSTYLE_6
 40
5.0
  1
1:1
 41
0.7
 72
1
 11
313.937007874
 21
13.75
  0
TEXT
  8
0
 62
5
  6
CONTINUOUS
 10
326.937007874
 20
13.75
  7
TEXTSTYLE_7
 40
7.5
  1
uni MPB C K725
 41
0.7154761905
 72
0
  0
LINE
  8
0
 62
7
  6
CONTINUOUS
 10
0.0
 20
0.0
 11
0.0
 21
297.0
  0
LINE
  8
0
 62
7
  6
CONTINUOUS
 10
8.937007874
 20
10.0
 11
8.937007874
 21
287.0
  0
LINE
  8
0
 62
7
  6
CONTINUOUS
 10
0.0
 20
0.0
 11
420.0
 21
0.0
  0
LINE
  8
0
 62
7
  6
CONTINUOUS
 10
408.937007874
 20
10.0
 11
8.937007874
 21
10.0
  0
LINE
  8
0
 62
7
  6
CONTINUOUS
 10
218.937007874
 20
30.0
 11
408.937007874
 21
30.0
  0
LINE
  8
0
 62
7
  6
CONTINUOUS
 10
210.0
 20
297.0
 11
210.0
 21
292.0
  0
LINE
  8
0
 62
7
  6
CONTINUOUS
 10
210.0
 20
0.0
 11
210.0
 21
5.0
  0
LINE
  8
0
 62
7
  6
CONTINUOUS
 10
8.937007874
 20
287.0
 11
408.937007874
 21
287.0
  0
LINE
  8
0
 62
7
  6
CONTINUOUS
 10
0.0
 20
297.0
 11
420.0
 21
297.0
  0
LINE
  8
0
 62
7
  6
CONTINUOUS
 10
408.937007874
 20
287.0
 11
408.937007874
 21
10.0
  0
LINE
  8
0
 62
7
  6
CONTINUOUS
 10
420.0
 20
0.0
 11
420.0
 21
297.0
  0
POLYLINE
  8
SOLID
 62
7
  6
CONTINUOUS
 66
1
 70
0
  0
VERTEX
  8
SOLID
 62
7
  6
CONTINUOUS
 10
66.3038910005
 20
82.3116273778
  0
VERTEX
  8
SOLID
 62
7
  6
CONTINUOUS
 10
66.3068732665
 20
82.2774497665
  0
VERTEX
  8
SOLID
 62
7
  6
CONTINUOUS
 10
66.3156516838
 20
82.2442872431
  0
VERTEX
  8
SOLID
 62
7
  6
CONTINUOUS
 10
66.3299693864
 20
82.2131101924
  0
VERTEX
  8
SOLID
 62
7
  6
CONTINUOUS
 10
66.349405563
 20
82.1848375537
  0
VERTEX
  8
SOLID
 62
7
  6
CONTINUOUS
 10
66.3733884851
 20
82.1603020699
  0
VERTEX
  8
SOLID
 62
7
  6
CONTINUOUS
 10
66.4012123759
 20
82.1402262989
  0
VERTEX
  8
SOLID
 62
7
  6
CONTINUOUS
 10
66.432058206
 20
82.1252013863
  0
VERTEX
  8
SOLID
 62
7
  6
CONTINUOUS
 10
66.4650178291
 20
82.1156696225
  0
VERTEX
  8
SOLID
 62
7
  6
CONTINUOUS
 10
66.4991206036
 20
82.1119113571
  0
VERTEX
  8
SOLID
 62
7
  6
CONTINUOUS
 10
66.5038974587
 20
82.1118543053
  0
SEQEND
  0
POLYLINE
  8
SOLID
 62
7
  6
CONTINUOUS
 66
1
 70
0
  0
VERTEX
  8
SOLID
 62
7
  6
CONTINUOUS
 10
66.30389069
 20
87.7746021281
  0
VERTEX
  8
SOLID
 62
7
  6
CONTINUOUS
 10
66.3063071066
 20
87.7691451208
  0
VERTEX
  8
SOLID
 62
7
  6
CONTINUOUS
 10
66.3135152764
 20
87.7638206105
  0
VERTEX
  8
SOLID
 62
7
  6
CONTINUOUS
 10
66.3253693434
 20
87.758756491
  0
VERTEX
  8
SOLID
 62
7
  6
CONTINUOUS
 10
66.3416110828
 20
87.7540756729
  0
VERTEX
  8
SOLID
 62
7
  6
CONTINUOUS
 10
66.3618721558
 20
87.7498931661
  0
VERTEX
  8
SOLID
 62
7
  6
CONTINUOUS
 10
66.3856796299
 20
87.7463131476
  0
VERTEX
  8
SOLID
 62
7
  6
CONTINUOUS
 10
66.4124654232
 20
87.7434261162
  0
VERTEX
  8
SOLID
 62
7
  6
CONTINUOUS
 10
66.441579715
 20
87.7413063514
  0
VERTEX
  8
SOLID
 62
7
  6
CONTINUOUS
 10
66.472308027
 20
87.7400098596
  0
VERTEX
  8
SOLID
 62
7
  6
CONTINUOUS
 10
66.50389069
 20
87.7395729814
  0
SEQEND
  0
LINE
  8
SOLID
 62
7
  6
CONTINUOUS
 10
66.30389069
 20
82.3117451298
 11
66.30389069
 21
136.890463865
  0
POLYLINE
  8
SURFACE
 62
7
  6
CONTINUOUS
 66
1
 70
0
  0
VERTEX
  8
SURFACE
 62
7
  6
CONTINUOUS
 10
75.7506621602
 20
148.683880222
  0
VERTEX
  8
SURFACE
 62
7
  6
CONTINUOUS
 10
75.6101986398
 20
148.3768593094
  0
VERTEX
  8
SURFACE
 62
7
  6
CONTINUOUS
 10
75.4673449828
 20
148.0136755874
  0
VERTEX
  8
SURFACE
 62
7
  6
CONTINUOUS
 10
75.3340301085
 20
147.6203158783
  0
VERTEX
  8
SURFACE
 62
7
  6
CONTINUOUS
 10
75.2104011747
 20
147.1989197682
  0
VERTEX
  8
SURFACE
 62
7
  6
CONTINUOUS
 10
75.0966566011
 20
146.7516840007
  0
VERTEX
  8
SURFACE
 62
7
  6
CONTINUOUS
 10
74.9930174755
 20
146.2808610911
  0
VERTEX
  8
SURFACE
 62
7
  6
CONTINUOUS
 10
74.8997094679
 20
145.7887599372
  0
VERTEX
  8
SURFACE
 62
7
  6
CONTINUOUS
 10
74.8169487138
 20
145.2777343407
  0
VERTEX
  8
SURFACE
 62
7
  6
CONTINUOUS
 10
74.7449323652
 20
144.7501687604
  0
VERTEX
  8
SURFACE
 62
7
  6
CONTINUOUS
 10
74.689091372
 20
144.2597675285
  0
SEQEND
  0
POLYLINE
  8
SURFACE
 62
7
  6
CONTINUOUS
 66
1
 70
0
  0
VERTEX
  8
SURFACE
 62
7
  6
CONTINUOUS
 10
74.5161609239
 20
93.5921789486
  0
VERTEX
  8
SURFACE
 62
7
  6
CONTINUOUS
 10
74.5123788305
 20
93.8927358079
  0
VERTEX
  8
SURFACE
 62
7
  6
CONTINUOUS
 10
74.5123161784
 20
93.9607213248
  0
VERTEX
  8
SURFACE
 62
7
  6
CONTINUOUS
 10
74.5132248177
 20
94.0271748232
  0
VERTEX
  8
SURFACE
 62
7
  6
CONTINUOUS
 10
74.5151623316
 20
94.0920420164
  0
VERTEX
  8
SURFACE
 62
7
  6
CONTINUOUS
 10
74.518190913
 20
94.1552425486
  0
VERTEX
  8
SURFACE
 62
7
  6
CONTINUOUS
 10
74.5223751214
 20
94.2167132065
  0
VERTEX
  8
SURFACE
 62
7
  6
CONTINUOUS
 10
74.5277616292
 20
94.2764055665
  0
VERTEX
  8
SURFACE
 62
7
  6
CONTINUOUS
 10
74.5343829335
 20
94.3341819516
  0
VERTEX
  8
SURFACE
 62
7
  6
CONTINUOUS
 10
74.5422719374
 20
94.3899417591
  0
VERTEX
  8
SURFACE
 62
7
  6
CONTINUOUS
 10
74.5514227016
 20
94.4436568413
  0
VERTEX
  8
SURFACE
 62
7
  6
CONTINUOUS
 10
74.5618801666
 20
94.4953342888
  0
VERTEX
  8
SURFACE
 62
7
  6
CONTINUOUS
 10
74.5737769529
 20
94.545628915
  0
VERTEX
  8
SURFACE
 62
7
  6
CONTINUOUS
 10
74.5869236972
 20
94.5932171418
  0
VERTEX
  8
SURFACE
 62
7
  6
CONTINUOUS
 10
74.601846345
 20
94.6384807301
  0
VERTEX
  8
SURFACE
 62
7
  6
CONTINUOUS
 10
74.618791393
 20
94.6816964641
  0
VERTEX
  8
SURFACE
 62
7
  6
CONTINUOUS
 10
74.638001213
 20
94.7227967064
  0
VERTEX
  8
SURFACE
 62
7
  6
CONTINUOUS
 10
74.659716051
 20
94.7618901782
  0
VERTEX
  8
SURFACE
 62
7
  6
CONTINUOUS
 10
74.6838948808
 20
94.7984365816
  0
VERTEX
  8
SURFACE
 62
7
  6
CONTINUOUS
 10
74.7105743369
 20
94.8320098775
  0
VERTEX
  8
SURFACE
 62
7
  6
CONTINUOUS
 10
74.7398211627
 20
94.8621654799
  0
VERTEX
  8
SURFACE
 62
7
  6
CONTINUOUS
 10
74.7714376914
 20
94.8881283199
  0
VERTEX
  8
SURFACE
 62
7
  6
CONTINUOUS
 10
74.8050091545
 20
94.90900194
  0
VERTEX
  8
SURFACE
 62
7
  6
CONTINUOUS
 10
74.8401097468
 20
94.9239369657
  0
VERTEX
  8
SURFACE
 62
7
  6
CONTINUOUS
 10
74.8751850992
 20
94.9318379909
  0
VERTEX
  8
SURFACE
 62
7
  6
CONTINUOUS
 10
74.8941458236
 20
94.9330422568
  0
SEQEND
  0
POLYLINE
  8
SURFACE
 62
7
  6
CONTINUOUS
 66
1
 70
0
  0
VERTEX
  8
SURFACE
 62
7
  6
CONTINUOUS
 10
74.6915993941
 20
138.4334886435
  0
VERTEX
  8
SURFACE
 62
7
  6
CONTINUOUS
 10
74.695387388
 20
138.132752398
  0
VERTEX
  8
SURFACE
 62
7
  6
CONTINUOUS
 10
74.6954762282
 20
138.0650609683
  0
VERTEX
  8
SURFACE
 62
7
  6
CONTINUOUS
 10
74.6946035925
 20
137.9988154379
  0
VERTEX
  8
SURFACE
 62
7
  6
CONTINUOUS
 10
74.6927094768
 20
137.9340730589
  0
VERTEX
  8
SURFACE
 62
7
  6
CONTINUOUS
 10
74.6897293069
 20
137.8709175023
  0
VERTEX
  8
SURFACE
 62
7
  6
CONTINUOUS
 10
74.6855949373
 20
137.80942035
  0
VERTEX
  8
SURFACE
 62
7
  6
CONTINUOUS
 10
74.6802543104
 20
137.7496306792
  0
VERTEX
  8
SURFACE
 62
7
  6
CONTINUOUS
 10
74.6736714689
 20
137.6916860535
  0
VERTEX
  8
SURFACE
 62
7
  6
CONTINUOUS
 10
74.6658103662
 20
137.6357153203
  0
VERTEX
  8
SURFACE
 62
7
  6
CONTINUOUS
 10
74.6566622358
 20
137.5817011399
  0
VERTEX
  8
SURFACE
 62
7
  6
CONTINUOUS
 10
74.6461969079
 20
137.5297245575
  0
VERTEX
  8
SURFACE
 62
7
  6
CONTINUOUS
 10
74.6342778361
 20
137.4791739602
  0
VERTEX
  8
SURFACE
 62
7
  6
CONTINUOUS
 10
74.6211003379
 20
137.4312976875
  0
VERTEX
  8
SURFACE
 62
7
  6
CONTINUOUS
 10
74.6061686882
 20
137.3858805856
  0
VERTEX
  8
SURFACE
 62
7
  6
CONTINUOUS
 10
74.5891945764
 20
137.3424966332
  0
VERTEX
  8
SURFACE
 62
7
  6
CONTINUOUS
 10
74.569982826
 20
137.3013112803
  0
VERTEX
  8
SURFACE
 62
7
  6
CONTINUOUS
 10
74.5482786624
 20
137.2621732035
  0
VERTEX
  8
SURFACE
 62
7
  6
CONTINUOUS
 10
74.5241436579
 20
137.2256294473
  0
VERTEX
  8
SURFACE
 62
7
  6
CONTINUOUS
 10
74.4975422965
 20
137.192083915
  0
VERTEX
  8
SURFACE
 62
7
  6
CONTINUOUS
 10
74.4684108326
 20
137.1619617038
  0
VERTEX
  8
SURFACE
 62
7
  6
CONTINUOUS
 10
74.4369445008
 20
137.1360153752
  0
VERTEX
  8
SURFACE
 62
7
  6
CONTINUOUS
 10
74.4035393305
 20
137.1151112842
  0
VERTEX
  8
SURFACE
 62
7
  6
CONTINUOUS
 10
74.3685996789
 20
137.1000773827
  0
VERTEX
  8
SURFACE
 62
7
  6
CONTINUOUS
 10
74.3336282548
 20
137.0919997409
  0
VERTEX
  8
SURFACE
 62
7
  6
CONTINUOUS
 10
74.3134608807
 20
137.0906657573
  0
SEQEND
  0
LINE
  8
SURFACE
 62
7
  6
CONTINUOUS
 10
74.5182283189
 20
93.321714476
 11
74.5161609239
 21
93.5921789486
  0
LINE
  8
SURFACE
 62
7
  6
CONTINUOUS
 10
74.6895422351
 20
138.704317145
 11
74.6915993941
 21
138.4334886435
  0
LINE
  8
SURFACE
 62
7
  6
CONTINUOUS
 10
74.5182283189
 20
93.321714476
 11
74.5187225331
 21
87.7646251623
  0
LINE
  8
SURFACE
 62
7
  6
CONTINUOUS
 10
74.6890588468
 20
144.2590834352
 11
74.6895422351
 21
138.704317145
  0
LINE
  8
SURFACE
 62
7
  6
CONTINUOUS
 10
74.6890913902
 20
144.2597617362
 11
74.6890588474
 21
144.2591279339
  0
LINE
  8
SURFACE
 62
7
  6
CONTINUOUS
 10
74.5186899905
 20
87.7639468689
 11
74.5187225325
 21
87.7645806636
  0
LINE
  8
SURFACE
 62
7
  6
CONTINUOUS
 10
75.7586700436
 20
148.7887617997
 11
75.7400279173
 21
148.6606362158
  0
LINE
  8
SURFACE
 62
7
  6
CONTINUOUS
 10
84.0095756141
 20
83.6483162099
 11
84.1506619025
 21
83.3398289091
  0
LINE
  8
SURFACE
 62
7
  6
CONTINUOUS
 10
83.0890913894
 20
87.7639468689
 11
83.0890588474
 21
87.7645806636
  0
LINE
  8
SURFACE
 62
7
  6
CONTINUOUS
 10
82.9186899897
 20
144.2597617362
 11
82.9187225325
 21
144.2591279339
  0
POLYLINE
  8
SURFACE
 62
7
  6
CONTINUOUS
 66
1
 70
0
  0
VERTEX
  8
SURFACE
 62
7
  6
CONTINUOUS
 10
83.0953788084
 20
93.8898576164
  0
VERTEX
  8
SURFACE
 62
7
  6
CONTINUOUS
 10
83.091592001
 20
93.5895124503
  0
VERTEX
  8
SURFACE
 62
7
  6
CONTINUOUS
 10
83.0895407136
 20
93.3190547481
  0
VERTEX
  8
SURFACE
 62
7
  6
CONTINUOUS
 10
83.0890588468
 20
87.7646251623
  0
SEQEND
  0
POLYLINE
  8
SURFACE
 62
7
  6
CONTINUOUS
 66
1
 70
0
  0
VERTEX
  8
SURFACE
 62
7
  6
CONTINUOUS
 10
82.9123575584
 20
138.1279545161
  0
VERTEX
  8
SURFACE
 62
7
  6
CONTINUOUS
 10
82.9161540952
 20
138.4308433109
  0
VERTEX
  8
SURFACE
 62
7
  6
CONTINUOUS
 10
82.9182269081
 20
138.7016673834
  0
VERTEX
  8
SURFACE
 62
7
  6
CONTINUOUS
 10
82.9187225331
 20
144.2590834352
  0
SEQEND
  0
LINE
  8
SURFACE
 62
7
  6
CONTINUOUS
 10
73.4480919222
 20
83.2282567289
 11
73.4677458772
 21
83.3630636927
  0
POLYLINE
  8
SURFACE
 62
7
  6
CONTINUOUS
 66
1
 70
0
  0
VERTEX
  8
SURFACE
 62
7
  6
CONTINUOUS
 10
92.5506621602
 20
148.683880222
  0
VERTEX
  8
SURFACE
 62
7
  6
CONTINUOUS
 10
92.4101986398
 20
148.3768593094
  0
VERTEX
  8
SURFACE
 62
7
  6
CONTINUOUS
 10
92.2673449828
 20
148.0136755874
  0
VERTEX
  8
SURFACE
 62
7
  6
CONTINUOUS
 10
92.1340301085
 20
147.6203158783
  0
VERTEX
  8
SURFACE
 62
7
  6
CONTINUOUS
 10
92.0104011747
 20
147.1989197682
  0
VERTEX
  8
SURFACE
 62
7
  6
CONTINUOUS
 10
91.8966566011
 20
146.7516840007
  0
VERTEX
  8
SURFACE
 62
7
  6
CONTINUOUS
 10
91.7930174755
 20
146.2808610911
  0
VERTEX
  8
SURFACE
 62
7
  6
CONTINUOUS
 10
91.6997094679
 20
145.7887599372
  0
VERTEX
  8
SURFACE
 62
7
  6
CONTINUOUS
 10
91.6169487138
 20
145.2777343407
  0
VERTEX
  8
SURFACE
 62
7
  6
CONTINUOUS
 10
91.5449323652
 20
144.7501687604
  0
VERTEX
  8
SURFACE
 62
7
  6
CONTINUOUS
 10
91.489091372
 20
144.2597675285
  0
SEQEND
  0
POLYLINE
  8
SURFACE
 62
7
  6
CONTINUOUS
 66
1
 70
0
  0
VERTEX
  8
SURFACE
 62
7
  6
CONTINUOUS
 10
84.140024658
 20
83.3630874048
  0
VERTEX
  8
SURFACE
 62
7
  6
CONTINUOUS
 10
84.1584960285
 20
83.2360915832
  0
VERTEX
  8
SURFACE
 62
7
  6
CONTINUOUS
 10
84.1836684679
 20
83.0787053799
  0
VERTEX
  8
SURFACE
 62
7
  6
CONTINUOUS
 10
84.2089592251
 20
82.9365271223
  0
VERTEX
  8
SURFACE
 62
7
  6
CONTINUOUS
 10
84.2343452972
 20
82.8089238064
  0
VERTEX
  8
SURFACE
 62
7
  6
CONTINUOUS
 10
84.2598379147
 20
82.6951620967
  0
VERTEX
  8
SURFACE
 62
7
  6
CONTINUOUS
 10
84.285505345
 20
82.5943825029
  0
VERTEX
  8
SURFACE
 62
7
  6
CONTINUOUS
 10
84.3115133312
 20
82.5055668372
  0
VERTEX
  8
SURFACE
 62
7
  6
CONTINUOUS
 10
84.3381492645
 20
82.4276323759
  0
VERTEX
  8
SURFACE
 62
7
  6
CONTINUOUS
 10
84.3659884295
 20
82.3592156251
  0
VERTEX
  8
SURFACE
 62
7
  6
CONTINUOUS
 10
84.3961659515
 20
82.298608381
  0
VERTEX
  8
SURFACE
 62
7
  6
CONTINUOUS
 10
84.4308974259
 20
82.2438400002
  0
VERTEX
  8
SURFACE
 62
7
  6
CONTINUOUS
 10
84.474294816
 20
82.1933735177
  0
VERTEX
  8
SURFACE
 62
7
  6
CONTINUOUS
 10
84.5326286508
 20
82.1485608229
  0
VERTEX
  8
SURFACE
 62
7
  6
CONTINUOUS
 10
84.6097333714
 20
82.1179655127
  0
VERTEX
  8
SURFACE
 62
7
  6
CONTINUOUS
 10
84.6654093499
 20
82.1118553854
  0
SEQEND
  0
POLYLINE
  8
SURFACE
 62
7
  6
CONTINUOUS
 66
1
 70
0
  0
VERTEX
  8
SURFACE
 62
7
  6
CONTINUOUS
 10
83.0890913712
 20
87.7639410763
  0
VERTEX
  8
SURFACE
 62
7
  6
CONTINUOUS
 10
83.1446326444
 20
87.2759492789
  0
VERTEX
  8
SURFACE
 62
7
  6
CONTINUOUS
 10
83.2166021256
 20
86.7483016989
  0
VERTEX
  8
SURFACE
 62
7
  6
CONTINUOUS
 10
83.2993181546
 20
86.2371797878
  0
VERTEX
  8
SURFACE
 62
7
  6
CONTINUOUS
 10
83.3925835186
 20
85.7449708503
  0
VERTEX
  8
SURFACE
 62
7
  6
CONTINUOUS
 10
83.4961818024
 20
85.2740313836
  0
VERTEX
  8
SURFACE
 62
7
  6
CONTINUOUS
 10
83.6098869928
 20
84.8266720339
  0
VERTEX
  8
SURFACE
 62
7
  6
CONTINUOUS
 10
83.7334780076
 20
84.4051451002
  0
VERTEX
  8
SURFACE
 62
7
  6
CONTINUOUS
 10
83.8667565759
 20
84.0116467166
  0
VERTEX
  8
SURFACE
 62
7
  6
CONTINUOUS
 10
84.0095756141
 20
83.6483162099
  0
SEQEND
  0
POLYLINE
  8
SURFACE
 62
7
  6
CONTINUOUS
 66
1
 70
0
  0
VERTEX
  8
SURFACE
 62
7
  6
CONTINUOUS
 10
91.3161609239
 20
93.5921789486
  0
VERTEX
  8
SURFACE
 62
7
  6
CONTINUOUS
 10
91.3123788305
 20
93.8927358079
  0
VERTEX
  8
SURFACE
 62
7
  6
CONTINUOUS
 10
91.3123161784
 20
93.9607213248
  0
VERTEX
  8
SURFACE
 62
7
  6
CONTINUOUS
 10
91.3132248177
 20
94.0271748232
  0
VERTEX
  8
SURFACE
 62
7
  6
CONTINUOUS
 10
91.3151623316
 20
94.0920420164
  0
VERTEX
  8
SURFACE
 62
7
  6
CONTINUOUS
 10
91.318190913
 20
94.1552425486
  0
VERTEX
  8
SURFACE
 62
7
  6
CONTINUOUS
 10
91.3223751214
 20
94.2167132065
  0
VERTEX
  8
SURFACE
 62
7
  6
CONTINUOUS
 10
91.3277616292
 20
94.2764055665
  0
VERTEX
  8
SURFACE
 62
7
  6
CONTINUOUS
 10
91.3343829335
 20
94.3341819516
  0
VERTEX
  8
SURFACE
 62
7
  6
CONTINUOUS
 10
91.3422719374
 20
94.3899417591
  0
VERTEX
  8
SURFACE
 62
7
  6
CONTINUOUS
 10
91.3514227016
 20
94.4436568413
  0
VERTEX
  8
SURFACE
 62
7
  6
CONTINUOUS
 10
91.3618801666
 20
94.4953342888
  0
VERTEX
  8
SURFACE
 62
7
  6
CONTINUOUS
 10
91.3737769529
 20
94.545628915
  0
VERTEX
  8
SURFACE
 62
7
  6
CONTINUOUS
 10
91.3869236972
 20
94.5932171418
  0
VERTEX
  8
SURFACE
 62
7
  6
CONTINUOUS
 10
91.401846345
 20
94.6384807301
  0
VERTEX
  8
SURFACE
 62
7
  6
CONTINUOUS
 10
91.418791393
 20
94.6816964641
  0
VERTEX
  8
SURFACE
 62
7
  6
CONTINUOUS
 10
91.438001213
 20
94.7227967064
  0
VERTEX
  8
SURFACE
 62
7
  6
CONTINUOUS
 10
91.459716051
 20
94.7618901782
  0
VERTEX
  8
SURFACE
 62
7
  6
CONTINUOUS
 10
91.4838948808
 20
94.7984365816
  0
VERTEX
  8
SURFACE
 62
7
  6
CONTINUOUS
 10
91.5105743369
 20
94.8320098775
  0
VERTEX
  8
SURFACE
 62
7
  6
CONTINUOUS
 10
91.5398211627
 20
94.8621654799
  0
VERTEX
  8
SURFACE
 62
7
  6
CONTINUOUS
 10
91.5714376914
 20
94.8881283199
  0
VERTEX
  8
SURFACE
 62
7
  6
CONTINUOUS
 10
91.6050091545
 20
94.90900194
  0
VERTEX
  8
SURFACE
 62
7
  6
CONTINUOUS
 10
91.6401097468
 20
94.9239369657
  0
VERTEX
  8
SURFACE
 62
7
  6
CONTINUOUS
 10
91.6751850992
 20
94.9318379909
  0
VERTEX
  8
SURFACE
 62
7
  6
CONTINUOUS
 10
91.6941458236
 20
94.9330422568
  0
SEQEND
  0
POLYLINE
  8
SURFACE
 62
7
  6
CONTINUOUS
 66
1
 70
0
  0
VERTEX
  8
SURFACE
 62
7
  6
CONTINUOUS
 10
91.4915993941
 20
138.4334886435
  0
VERTEX
  8
SURFACE
 62
7
  6
CONTINUOUS
 10
91.495387388
 20
138.132752398
  0
VERTEX
  8
SURFACE
 62
7
  6
CONTINUOUS
 10
91.4954762282
 20
138.0650609683
  0
VERTEX
  8
SURFACE
 62
7
  6
CONTINUOUS
 10
91.4946035926
 20
137.9988154379
  0
VERTEX
  8
SURFACE
 62
7
  6
CONTINUOUS
 10
91.4927094768
 20
137.9340730589
  0
VERTEX
  8
SURFACE
 62
7
  6
CONTINUOUS
 10
91.4897293069
 20
137.8709175023
  0
VERTEX
  8
SURFACE
 62
7
  6
CONTINUOUS
 10
91.4855949373
 20
137.80942035
  0
VERTEX
  8
SURFACE
 62
7
  6
CONTINUOUS
 10
91.4802543104
 20
137.7496306792
  0
VERTEX
  8
SURFACE
 62
7
  6
CONTINUOUS
 10
91.4736714689
 20
137.6916860535
  0
VERTEX
  8
SURFACE
 62
7
  6
CONTINUOUS
 10
91.4658103662
 20
137.6357153203
  0
VERTEX
  8
SURFACE
 62
7
  6
CONTINUOUS
 10
91.4566622358
 20
137.5817011399
  0
VERTEX
  8
SURFACE
 62
7
  6
CONTINUOUS
 10
91.4461969079
 20
137.5297245575
  0
VERTEX
  8
SURFACE
 62
7
  6
CONTINUOUS
 10
91.4342778361
 20
137.4791739602
  0
VERTEX
  8
SURFACE
 62
7
  6
CONTINUOUS
 10
91.4211003379
 20
137.4312976875
  0
VERTEX
  8
SURFACE
 62
7
  6
CONTINUOUS
 10
91.4061686882
 20
137.3858805856
  0
VERTEX
  8
SURFACE
 62
7
  6
CONTINUOUS
 10
91.3891945764
 20
137.3424966332
  0
VERTEX
  8
SURFACE
 62
7
  6
CONTINUOUS
 10
91.369982826
 20
137.3013112803
  0
VERTEX
  8
SURFACE
 62
7
  6
CONTINUOUS
 10
91.3482786624
 20
137.2621732035
  0
VERTEX
  8
SURFACE
 62
7
  6
CONTINUOUS
 10
91.3241436579
 20
137.2256294473
  0
VERTEX
  8
SURFACE
 62
7
  6
CONTINUOUS
 10
91.2975422965
 20
137.192083915
  0
VERTEX
  8
SURFACE
 62
7
  6
CONTINUOUS
 10
91.2684108326
 20
137.1619617038
  0
VERTEX
  8
SURFACE
 62
7
  6
CONTINUOUS
 10
91.2369445008
 20
137.1360153752
  0
VERTEX
  8
SURFACE
 62
7
  6
CONTINUOUS
 10
91.2035393305
 20
137.1151112842
  0
VERTEX
  8
SURFACE
 62
7
  6
CONTINUOUS
 10
91.1685996789
 20
137.1000773827
  0
VERTEX
  8
SURFACE
 62
7
  6
CONTINUOUS
 10
91.1336282548
 20
137.0919997409
  0
VERTEX
  8
SURFACE
 62
7
  6
CONTINUOUS
 10
91.1134608807
 20
137.0906657573
  0
SEQEND
  0
LINE
  8
SURFACE
 62
7
  6
CONTINUOUS
 10
91.3182283189
 20
93.321714476
 11
91.3161609239
 21
93.5921789486
  0
LINE
  8
SURFACE
 62
7
  6
CONTINUOUS
 10
91.4895422351
 20
138.704317145
 11
91.4915993941
 21
138.4334886435
  0
LINE
  8
SURFACE
 62
7
  6
CONTINUOUS
 10
91.3182283189
 20
93.321714476
 11
91.3187225331
 21
87.7646251623
  0
LINE
  8
SURFACE
 62
7
  6
CONTINUOUS
 10
91.4890588468
 20
144.2590834352
 11
91.4895422351
 21
138.704317145
  0
LINE
  8
SURFACE
 62
7
  6
CONTINUOUS
 10
91.4890913902
 20
144.2597617362
 11
91.4890588474
 21
144.2591279339
  0
LINE
  8
SURFACE
 62
7
  6
CONTINUOUS
 10
92.5586700416
 20
148.7887617871
 11
92.5400279173
 21
148.6606362158
  0
POLYLINE
  8
SURFACE
 62
7
  6
CONTINUOUS
 66
1
 70
0
  0
VERTEX
  8
SURFACE
 62
7
  6
CONTINUOUS
 10
81.8677537241
 20
148.6606356441
  0
VERTEX
  8
SURFACE
 62
7
  6
CONTINUOUS
 10
81.8491401552
 20
148.7885722681
  0
VERTEX
  8
SURFACE
 62
7
  6
CONTINUOUS
 10
81.8240107266
 20
148.9456091623
  0
VERTEX
  8
SURFACE
 62
7
  6
CONTINUOUS
 10
81.7987678692
 20
149.0874701852
  0
VERTEX
  8
SURFACE
 62
7
  6
CONTINUOUS
 10
81.7734342396
 20
149.2147935393
  0
VERTEX
  8
SURFACE
 62
7
  6
CONTINUOUS
 10
81.7479984952
 20
149.3283158844
  0
VERTEX
  8
SURFACE
 62
7
  6
CONTINUOUS
 10
81.7223926893
 20
149.428898165
  0
VERTEX
  8
SURFACE
 62
7
  6
CONTINUOUS
 10
81.6964532966
 20
149.5175546289
  0
VERTEX
  8
SURFACE
 62
7
  6
CONTINUOUS
 10
81.669895978
 20
149.5953658193
  0
VERTEX
  8
SURFACE
 62
7
  6
CONTINUOUS
 10
81.6421526808
 20
149.6636887645
  0
VERTEX
  8
SURFACE
 62
7
  6
CONTINUOUS
 10
81.6121058835
 20
149.7242184067
  0
VERTEX
  8
SURFACE
 62
7
  6
CONTINUOUS
 10
81.5775796512
 20
149.7789097345
  0
VERTEX
  8
SURFACE
 62
7
  6
CONTINUOUS
 10
81.5345399815
 20
149.829306787
  0
VERTEX
  8
SURFACE
 62
7
  6
CONTINUOUS
 10
81.476797094
 20
149.8741740777
  0
VERTEX
  8
SURFACE
 62
7
  6
CONTINUOUS
 10
81.400389558
 20
149.9052094398
  0
VERTEX
  8
SURFACE
 62
7
  6
CONTINUOUS
 10
81.3423900697
 20
149.9118533308
  0
SEQEND
  0
POLYLINE
  8
SURFACE
 62
7
  6
CONTINUOUS
 66
1
 70
0
  0
VERTEX
  8
SURFACE
 62
7
  6
CONTINUOUS
 10
82.9186900079
 20
144.2597675285
  0
VERTEX
  8
SURFACE
 62
7
  6
CONTINUOUS
 10
82.8628490147
 20
144.7501687604
  0
VERTEX
  8
SURFACE
 62
7
  6
CONTINUOUS
 10
82.7908326661
 20
145.2777343407
  0
VERTEX
  8
SURFACE
 62
7
  6
CONTINUOUS
 10
82.708071912
 20
145.7887599372
  0
VERTEX
  8
SURFACE
 62
7
  6
CONTINUOUS
 10
82.6147639044
 20
146.2808610911
  0
VERTEX
  8
SURFACE
 62
7
  6
CONTINUOUS
 10
82.5111247788
 20
146.7516840007
  0
VERTEX
  8
SURFACE
 62
7
  6
CONTINUOUS
 10
82.3973802052
 20
147.1989197682
  0
VERTEX
  8
SURFACE
 62
7
  6
CONTINUOUS
 10
82.2737512714
 20
147.6203158783
  0
VERTEX
  8
SURFACE
 62
7
  6
CONTINUOUS
 10
82.1404363971
 20
148.0136755874
  0
VERTEX
  8
SURFACE
 62
7
  6
CONTINUOUS
 10
81.9975827401
 20
148.3768593094
  0
SEQEND
  0
LINE
  8
SOLID
 62
7
  6
CONTINUOUS
 10
99.8890913894
 20
87.7639468689
 11
99.8890588474
 21
87.7645806636
  0
LINE
  8
SURFACE
 62
7
  6
CONTINUOUS
 10
91.3186899905
 20
87.7639468689
 11
91.3187225325
 21
87.7645806636
  0
LINE
  8
SURFACE
 62
7
  6
CONTINUOUS
 10
90.2493141608
 20
83.2362811865
 11
90.2677569831
 21
83.3630879759
  0
POLYLINE
  8
SURFACE
 62
7
  6
CONTINUOUS
 66
1
 70
0
  0
VERTEX
  8
SURFACE
 62
7
  6
CONTINUOUS
 10
73.4571194774
 20
83.3398289091
  0
VERTEX
  8
SURFACE
 62
7
  6
CONTINUOUS
 10
73.5982057658
 20
83.6483162099
  0
VERTEX
  8
SURFACE
 62
7
  6
CONTINUOUS
 10
73.741024804
 20
84.0116467166
  0
VERTEX
  8
SURFACE
 62
7
  6
CONTINUOUS
 10
73.8743033723
 20
84.4051451002
  0
VERTEX
  8
SURFACE
 62
7
  6
CONTINUOUS
 10
73.9978943871
 20
84.826672034
  0
VERTEX
  8
SURFACE
 62
7
  6
CONTINUOUS
 10
74.1115995775
 20
85.2740313836
  0
VERTEX
  8
SURFACE
 62
7
  6
CONTINUOUS
 10
74.2151978613
 20
85.7449708504
  0
VERTEX
  8
SURFACE
 62
7
  6
CONTINUOUS
 10
74.3084632253
 20
86.2371797878
  0
VERTEX
  8
SURFACE
 62
7
  6
CONTINUOUS
 10
74.3911792543
 20
86.7483016989
  0
VERTEX
  8
SURFACE
 62
7
  6
CONTINUOUS
 10
74.4631487355
 20
87.2759492789
  0
VERTEX
  8
SURFACE
 62
7
  6
CONTINUOUS
 10
74.5186900087
 20
87.7639410763
  0
SEQEND
  0
LINE
  8
SOLID
 62
7
  6
CONTINUOUS
 10
100.8095756141
 20
83.6483162099
 11
100.9506619025
 21
83.3398289091
  0
POLYLINE
  8
SOLID
 62
7
  6
CONTINUOUS
 66
1
 70
0
  0
VERTEX
  8
SOLID
 62
7
  6
CONTINUOUS
 10
100.940024658
 20
83.3630874048
  0
VERTEX
  8
SOLID
 62
7
  6
CONTINUOUS
 10
100.9584960285
 20
83.2360915832
  0
VERTEX
  8
SOLID
 62
7
  6
CONTINUOUS
 10
100.9836684679
 20
83.0787053799
  0
VERTEX
  8
SOLID
 62
7
  6
CONTINUOUS
 10
101.0089592251
 20
82.9365271223
  0
VERTEX
  8
SOLID
 62
7
  6
CONTINUOUS
 10
101.0343452972
 20
82.8089238064
  0
VERTEX
  8
SOLID
 62
7
  6
CONTINUOUS
 10
101.0598379147
 20
82.6951620967
  0
VERTEX
  8
SOLID
 62
7
  6
CONTINUOUS
 10
101.085505345
 20
82.5943825029
  0
VERTEX
  8
SOLID
 62
7
  6
CONTINUOUS
 10
101.1115133312
 20
82.5055668372
  0
VERTEX
  8
SOLID
 62
7
  6
CONTINUOUS
 10
101.1381492645
 20
82.4276323759
  0
VERTEX
  8
SOLID
 62
7
  6
CONTINUOUS
 10
101.1659884295
 20
82.3592156251
  0
VERTEX
  8
SOLID
 62
7
  6
CONTINUOUS
 10
101.1961659515
 20
82.298608381
  0
VERTEX
  8
SOLID
 62
7
  6
CONTINUOUS
 10
101.2308974259
 20
82.2438400002
  0
VERTEX
  8
SOLID
 62
7
  6
CONTINUOUS
 10
101.274294816
 20
82.1933735177
  0
VERTEX
  8
SOLID
 62
7
  6
CONTINUOUS
 10
101.3326286508
 20
82.1485608229
  0
VERTEX
  8
SOLID
 62
7
  6
CONTINUOUS
 10
101.4097333714
 20
82.1179655127
  0
VERTEX
  8
SOLID
 62
7
  6
CONTINUOUS
 10
101.4654093499
 20
82.1118553854
  0
SEQEND
  0
POLYLINE
  8
SOLID
 62
7
  6
CONTINUOUS
 66
1
 70
0
  0
VERTEX
  8
SOLID
 62
7
  6
CONTINUOUS
 10
99.8890913712
 20
87.7639410763
  0
VERTEX
  8
SOLID
 62
7
  6
CONTINUOUS
 10
99.9446326444
 20
87.2759492789
  0
VERTEX
  8
SOLID
 62
7
  6
CONTINUOUS
 10
100.0166021256
 20
86.7483016989
  0
VERTEX
  8
SOLID
 62
7
  6
CONTINUOUS
 10
100.0993181546
 20
86.2371797878
  0
VERTEX
  8
SOLID
 62
7
  6
CONTINUOUS
 10
100.1925835186
 20
85.7449708504
  0
VERTEX
  8
SOLID
 62
7
  6
CONTINUOUS
 10
100.2961818024
 20
85.2740313836
  0
VERTEX
  8
SOLID
 62
7
  6
CONTINUOUS
 10
100.4098869928
 20
84.826672034
  0
VERTEX
  8
SOLID
 62
7
  6
CONTINUOUS
 10
100.5334780076
 20
84.4051451002
  0
VERTEX
  8
SOLID
 62
7
  6
CONTINUOUS
 10
100.6667565759
 20
84.0116467166
  0
VERTEX
  8
SOLID
 62
7
  6
CONTINUOUS
 10
100.8095756141
 20
83.6483162099
  0
SEQEND
  0
LINE
  8
SOLID
 62
7
  6
CONTINUOUS
 10
99.7186899897
 20
144.2597617362
 11
99.7187225325
 21
144.2591279339
  0
POLYLINE
  8
SOLID
 62
7
  6
CONTINUOUS
 66
1
 70
0
  0
VERTEX
  8
SOLID
 62
7
  6
CONTINUOUS
 10
99.8953788084
 20
93.8898576164
  0
VERTEX
  8
SOLID
 62
7
  6
CONTINUOUS
 10
99.891592001
 20
93.5895124503
  0
VERTEX
  8
SOLID
 62
7
  6
CONTINUOUS
 10
99.8895407136
 20
93.3190547481
  0
VERTEX
  8
SOLID
 62
7
  6
CONTINUOUS
 10
99.8890588468
 20
87.7646251623
  0
SEQEND
  0
POLYLINE
  8
SOLID
 62
7
  6
CONTINUOUS
 66
1
 70
0
  0
VERTEX
  8
SOLID
 62
7
  6
CONTINUOUS
 10
99.7123575584
 20
138.1279545161
  0
VERTEX
  8
SOLID
 62
7
  6
CONTINUOUS
 10
99.7161540952
 20
138.4308433109
  0
VERTEX
  8
SOLID
 62
7
  6
CONTINUOUS
 10
99.7182269081
 20
138.7016673834
  0
VERTEX
  8
SOLID
 62
7
  6
CONTINUOUS
 10
99.7187225331
 20
144.2590834352
  0
SEQEND
  0
LINE
  8
SOLID
 62
7
  6
CONTINUOUS
 10
109.3586700416
 20
148.7887617871
 11
109.3400279173
 21
148.6606362158
  0
POLYLINE
  8
SOLID
 62
7
  6
CONTINUOUS
 66
1
 70
0
  0
VERTEX
  8
SOLID
 62
7
  6
CONTINUOUS
 10
109.3506621602
 20
148.683880222
  0
VERTEX
  8
SOLID
 62
7
  6
CONTINUOUS
 10
109.2101986398
 20
148.3768593094
  0
VERTEX
  8
SOLID
 62
7
  6
CONTINUOUS
 10
109.0673449828
 20
148.0136755874
  0
VERTEX
  8
SOLID
 62
7
  6
CONTINUOUS
 10
108.9340301085
 20
147.6203158783
  0
VERTEX
  8
SOLID
 62
7
  6
CONTINUOUS
 10
108.8104011747
 20
147.1989197682
  0
VERTEX
  8
SOLID
 62
7
  6
CONTINUOUS
 10
108.6966566011
 20
146.7516840007
  0
VERTEX
  8
SOLID
 62
7
  6
CONTINUOUS
 10
108.5930174755
 20
146.2808610911
  0
VERTEX
  8
SOLID
 62
7
  6
CONTINUOUS
 10
108.4997094679
 20
145.7887599372
  0
VERTEX
  8
SOLID
 62
7
  6
CONTINUOUS
 10
108.4169487138
 20
145.2777343407
  0
VERTEX
  8
SOLID
 62
7
  6
CONTINUOUS
 10
108.3449323652
 20
144.7501687604
  0
VERTEX
  8
SOLID
 62
7
  6
CONTINUOUS
 10
108.289091372
 20
144.2597675285
  0
SEQEND
  0
LINE
  8
SURFACE
 62
7
  6
CONTINUOUS
 10
81.9975827401
 20
148.3768593094
 11
81.8571192197
 21
148.683880222
  0
POLYLINE
  8
SOLID
 62
7
  6
CONTINUOUS
 66
1
 70
0
  0
VERTEX
  8
SOLID
 62
7
  6
CONTINUOUS
 10
98.6677537241
 20
148.6606356441
  0
VERTEX
  8
SOLID
 62
7
  6
CONTINUOUS
 10
98.6491401552
 20
148.7885722681
  0
VERTEX
  8
SOLID
 62
7
  6
CONTINUOUS
 10
98.6240107266
 20
148.9456091623
  0
VERTEX
  8
SOLID
 62
7
  6
CONTINUOUS
 10
98.5987678692
 20
149.0874701852
  0
VERTEX
  8
SOLID
 62
7
  6
CONTINUOUS
 10
98.5734342396
 20
149.2147935393
  0
VERTEX
  8
SOLID
 62
7
  6
CONTINUOUS
 10
98.5479984952
 20
149.3283158844
  0
VERTEX
  8
SOLID
 62
7
  6
CONTINUOUS
 10
98.5223926893
 20
149.428898165
  0
VERTEX
  8
SOLID
 62
7
  6
CONTINUOUS
 10
98.4964532966
 20
149.5175546289
  0
VERTEX
  8
SOLID
 62
7
  6
CONTINUOUS
 10
98.469895978
 20
149.5953658193
  0
VERTEX
  8
SOLID
 62
7
  6
CONTINUOUS
 10
98.4421526808
 20
149.6636887645
  0
VERTEX
  8
SOLID
 62
7
  6
CONTINUOUS
 10
98.4121058835
 20
149.7242184067
  0
VERTEX
  8
SOLID
 62
7
  6
CONTINUOUS
 10
98.3775796512
 20
149.7789097345
  0
VERTEX
  8
SOLID
 62
7
  6
CONTINUOUS
 10
98.3345399815
 20
149.829306787
  0
VERTEX
  8
SOLID
 62
7
  6
CONTINUOUS
 10
98.276797094
 20
149.8741740777
  0
VERTEX
  8
SOLID
 62
7
  6
CONTINUOUS
 10
98.200389558
 20
149.9052094398
  0
VERTEX
  8
SOLID
 62
7
  6
CONTINUOUS
 10
98.1423900697
 20
149.9118533308
  0
SEQEND
  0
POLYLINE
  8
SOLID
 62
7
  6
CONTINUOUS
 66
1
 70
0
  0
VERTEX
  8
SOLID
 62
7
  6
CONTINUOUS
 10
99.7186900079
 20
144.2597675285
  0
VERTEX
  8
SOLID
 62
7
  6
CONTINUOUS
 10
99.6628490147
 20
144.7501687604
  0
VERTEX
  8
SOLID
 62
7
  6
CONTINUOUS
 10
99.5908326661
 20
145.2777343408
  0
VERTEX
  8
SOLID
 62
7
  6
CONTINUOUS
 10
99.508071912
 20
145.7887599373
  0
VERTEX
  8
SOLID
 62
7
  6
CONTINUOUS
 10
99.4147639044
 20
146.2808610911
  0
VERTEX
  8
SOLID
 62
7
  6
CONTINUOUS
 10
99.3111247788
 20
146.7516840007
  0
VERTEX
  8
SOLID
 62
7
  6
CONTINUOUS
 10
99.1973802052
 20
147.1989197682
  0
VERTEX
  8
SOLID
 62
7
  6
CONTINUOUS
 10
99.0737512714
 20
147.6203158783
  0
VERTEX
  8
SOLID
 62
7
  6
CONTINUOUS
 10
98.9404363971
 20
148.0136755874
  0
VERTEX
  8
SOLID
 62
7
  6
CONTINUOUS
 10
98.7975827401
 20
148.3768593094
  0
SEQEND
  0
POLYLINE
  8
SOLID
 62
7
  6
CONTINUOUS
 66
1
 70
0
  0
VERTEX
  8
SOLID
 62
7
  6
CONTINUOUS
 10
108.1161609239
 20
93.5921789486
  0
VERTEX
  8
SOLID
 62
7
  6
CONTINUOUS
 10
108.1123788305
 20
93.8927358079
  0
VERTEX
  8
SOLID
 62
7
  6
CONTINUOUS
 10
108.1123161784
 20
93.9607213248
  0
VERTEX
  8
SOLID
 62
7
  6
CONTINUOUS
 10
108.1132248177
 20
94.0271748232
  0
VERTEX
  8
SOLID
 62
7
  6
CONTINUOUS
 10
108.1151623316
 20
94.0920420164
  0
VERTEX
  8
SOLID
 62
7
  6
CONTINUOUS
 10
108.118190913
 20
94.1552425486
  0
VERTEX
  8
SOLID
 62
7
  6
CONTINUOUS
 10
108.1223751214
 20
94.2167132065
  0
VERTEX
  8
SOLID
 62
7
  6
CONTINUOUS
 10
108.1277616292
 20
94.2764055665
  0
VERTEX
  8
SOLID
 62
7
  6
CONTINUOUS
 10
108.1343829335
 20
94.3341819516
  0
VERTEX
  8
SOLID
 62
7
  6
CONTINUOUS
 10
108.1422719374
 20
94.3899417591
  0
VERTEX
  8
SOLID
 62
7
  6
CONTINUOUS
 10
108.1514227016
 20
94.4436568413
  0
VERTEX
  8
SOLID
 62
7
  6
CONTINUOUS
 10
108.1618801666
 20
94.4953342888
  0
VERTEX
  8
SOLID
 62
7
  6
CONTINUOUS
 10
108.1737769529
 20
94.545628915
  0
VERTEX
  8
SOLID
 62
7
  6
CONTINUOUS
 10
108.1869236972
 20
94.5932171418
  0
VERTEX
  8
SOLID
 62
7
  6
CONTINUOUS
 10
108.201846345
 20
94.6384807301
  0
VERTEX
  8
SOLID
 62
7
  6
CONTINUOUS
 10
108.218791393
 20
94.6816964641
  0
VERTEX
  8
SOLID
 62
7
  6
CONTINUOUS
 10
108.238001213
 20
94.7227967064
  0
VERTEX
  8
SOLID
 62
7
  6
CONTINUOUS
 10
108.259716051
 20
94.7618901782
  0
VERTEX
  8
SOLID
 62
7
  6
CONTINUOUS
 10
108.2838948808
 20
94.7984365816
  0
VERTEX
  8
SOLID
 62
7
  6
CONTINUOUS
 10
108.3105743369
 20
94.8320098775
  0
VERTEX
  8
SOLID
 62
7
  6
CONTINUOUS
 10
108.3398211627
 20
94.8621654799
  0
VERTEX
  8
SOLID
 62
7
  6
CONTINUOUS
 10
108.3714376914
 20
94.8881283199
  0
VERTEX
  8
SOLID
 62
7
  6
CONTINUOUS
 10
108.4050091545
 20
94.90900194
  0
VERTEX
  8
SOLID
 62
7
  6
CONTINUOUS
 10
108.4401097468
 20
94.9239369657
  0
VERTEX
  8
SOLID
 62
7
  6
CONTINUOUS
 10
108.4751850992
 20
94.9318379909
  0
VERTEX
  8
SOLID
 62
7
  6
CONTINUOUS
 10
108.4941458236
 20
94.9330422568
  0
SEQEND
  0
POLYLINE
  8
SOLID
 62
7
  6
CONTINUOUS
 66
1
 70
0
  0
VERTEX
  8
SOLID
 62
7
  6
CONTINUOUS
 10
108.2915993941
 20
138.4334886435
  0
VERTEX
  8
SOLID
 62
7
  6
CONTINUOUS
 10
108.295387388
 20
138.132752398
  0
VERTEX
  8
SOLID
 62
7
  6
CONTINUOUS
 10
108.2954762282
 20
138.0650609683
  0
VERTEX
  8
SOLID
 62
7
  6
CONTINUOUS
 10
108.2946035926
 20
137.9988154379
  0
VERTEX
  8
SOLID
 62
7
  6
CONTINUOUS
 10
108.2927094768
 20
137.9340730589
  0
VERTEX
  8
SOLID
 62
7
  6
CONTINUOUS
 10
108.2897293069
 20
137.8709175023
  0
VERTEX
  8
SOLID
 62
7
  6
CONTINUOUS
 10
108.2855949373
 20
137.80942035
  0
VERTEX
  8
SOLID
 62
7
  6
CONTINUOUS
 10
108.2802543104
 20
137.7496306792
  0
VERTEX
  8
SOLID
 62
7
  6
CONTINUOUS
 10
108.2736714689
 20
137.6916860535
  0
VERTEX
  8
SOLID
 62
7
  6
CONTINUOUS
 10
108.2658103662
 20
137.6357153203
  0
VERTEX
  8
SOLID
 62
7
  6
CONTINUOUS
 10
108.2566622358
 20
137.5817011399
  0
VERTEX
  8
SOLID
 62
7
  6
CONTINUOUS
 10
108.2461969079
 20
137.5297245575
  0
VERTEX
  8
SOLID
 62
7
  6
CONTINUOUS
 10
108.2342778361
 20
137.4791739602
  0
VERTEX
  8
SOLID
 62
7
  6
CONTINUOUS
 10
108.2211003379
 20
137.4312976875
  0
VERTEX
  8
SOLID
 62
7
  6
CONTINUOUS
 10
108.2061686882
 20
137.3858805856
  0
VERTEX
  8
SOLID
 62
7
  6
CONTINUOUS
 10
108.1891945764
 20
137.3424966332
  0
VERTEX
  8
SOLID
 62
7
  6
CONTINUOUS
 10
108.169982826
 20
137.3013112803
  0
VERTEX
  8
SOLID
 62
7
  6
CONTINUOUS
 10
108.1482786624
 20
137.2621732035
  0
VERTEX
  8
SOLID
 62
7
  6
CONTINUOUS
 10
108.1241436579
 20
137.2256294473
  0
VERTEX
  8
SOLID
 62
7
  6
CONTINUOUS
 10
108.0975422965
 20
137.192083915
  0
VERTEX
  8
SOLID
 62
7
  6
CONTINUOUS
 10
108.0684108326
 20
137.1619617038
  0
VERTEX
  8
SOLID
 62
7
  6
CONTINUOUS
 10
108.0369445008
 20
137.1360153752
  0
VERTEX
  8
SOLID
 62
7
  6
CONTINUOUS
 10
108.0035393305
 20
137.1151112842
  0
VERTEX
  8
SOLID
 62
7
  6
CONTINUOUS
 10
107.9685996789
 20
137.1000773827
  0
VERTEX
  8
SOLID
 62
7
  6
CONTINUOUS
 10
107.9336282548
 20
137.0919997409
  0
VERTEX
  8
SOLID
 62
7
  6
CONTINUOUS
 10
107.9134608807
 20
137.0906657573
  0
SEQEND
  0
LINE
  8
SOLID
 62
7
  6
CONTINUOUS
 10
108.1182283189
 20
93.321714476
 11
108.1161609239
 21
93.5921789486
  0
LINE
  8
SOLID
 62
7
  6
CONTINUOUS
 10
108.2895422351
 20
138.704317145
 11
108.2915993941
 21
138.4334886435
  0
LINE
  8
SOLID
 62
7
  6
CONTINUOUS
 10
108.1182283189
 20
93.321714476
 11
108.1187225331
 21
87.7646251623
  0
LINE
  8
SOLID
 62
7
  6
CONTINUOUS
 10
108.2890588468
 20
144.2590834352
 11
108.2895422351
 21
138.704317145
  0
LINE
  8
SOLID
 62
7
  6
CONTINUOUS
 10
108.2890913902
 20
144.2597617362
 11
108.2890588474
 21
144.2591279339
  0
LINE
  8
SOLID
 62
7
  6
CONTINUOUS
 10
108.1186899905
 20
87.7639468689
 11
108.1187225325
 21
87.7645806636
  0
POLYLINE
  8
SURFACE
 62
7
  6
CONTINUOUS
 66
1
 70
0
  0
VERTEX
  8
SURFACE
 62
7
  6
CONTINUOUS
 10
90.2571194774
 20
83.3398289091
  0
VERTEX
  8
SURFACE
 62
7
  6
CONTINUOUS
 10
90.3982057658
 20
83.6483162099
  0
VERTEX
  8
SURFACE
 62
7
  6
CONTINUOUS
 10
90.541024804
 20
84.0116467166
  0
VERTEX
  8
SURFACE
 62
7
  6
CONTINUOUS
 10
90.6743033723
 20
84.4051451002
  0
VERTEX
  8
SURFACE
 62
7
  6
CONTINUOUS
 10
90.7978943871
 20
84.8266720339
  0
VERTEX
  8
SURFACE
 62
7
  6
CONTINUOUS
 10
90.9115995775
 20
85.2740313836
  0
VERTEX
  8
SURFACE
 62
7
  6
CONTINUOUS
 10
91.0151978613
 20
85.7449708504
  0
VERTEX
  8
SURFACE
 62
7
  6
CONTINUOUS
 10
91.1084632253
 20
86.2371797878
  0
VERTEX
  8
SURFACE
 62
7
  6
CONTINUOUS
 10
91.1911792543
 20
86.7483016989
  0
VERTEX
  8
SURFACE
 62
7
  6
CONTINUOUS
 10
91.2631487355
 20
87.2759492789
  0
VERTEX
  8
SURFACE
 62
7
  6
CONTINUOUS
 10
91.3186900087
 20
87.7639410763
  0
SEQEND
  0
LINE
  8
SOLID
 62
7
  6
CONTINUOUS
 10
117.6095756141
 20
83.6483162099
 11
117.7506619025
 21
83.3398289091
  0
LINE
  8
SOLID
 62
7
  6
CONTINUOUS
 10
116.6890913894
 20
87.7639468689
 11
116.6890588474
 21
87.7645806636
  0
LINE
  8
SOLID
 62
7
  6
CONTINUOUS
 10
116.5186899897
 20
144.2597617362
 11
116.5187225325
 21
144.2591279339
  0
POLYLINE
  8
SOLID
 62
7
  6
CONTINUOUS
 66
1
 70
0
  0
VERTEX
  8
SOLID
 62
7
  6
CONTINUOUS
 10
116.6953788084
 20
93.8898576164
  0
VERTEX
  8
SOLID
 62
7
  6
CONTINUOUS
 10
116.691592001
 20
93.5895124503
  0
VERTEX
  8
SOLID
 62
7
  6
CONTINUOUS
 10
116.6895407136
 20
93.3190547481
  0
VERTEX
  8
SOLID
 62
7
  6
CONTINUOUS
 10
116.6890588468
 20
87.7646251623
  0
SEQEND
  0
POLYLINE
  8
SOLID
 62
7
  6
CONTINUOUS
 66
1
 70
0
  0
VERTEX
  8
SOLID
 62
7
  6
CONTINUOUS
 10
116.5123575584
 20
138.1279545161
  0
VERTEX
  8
SOLID
 62
7
  6
CONTINUOUS
 10
116.5161540952
 20
138.4308433109
  0
VERTEX
  8
SOLID
 62
7
  6
CONTINUOUS
 10
116.5182269081
 20
138.7016673834
  0
VERTEX
  8
SOLID
 62
7
  6
CONTINUOUS
 10
116.5187225331
 20
144.2590834352
  0
SEQEND
  0
LINE
  8
SOLID
 62
7
  6
CONTINUOUS
 10
107.0493141608
 20
83.2362811865
 11
107.0677569831
 21
83.3630879759
  0
POLYLINE
  8
SOLID
 62
7
  6
CONTINUOUS
 66
1
 70
0
  0
VERTEX
  8
SOLID
 62
7
  6
CONTINUOUS
 10
126.1506621602
 20
148.683880222
  0
VERTEX
  8
SOLID
 62
7
  6
CONTINUOUS
 10
126.0101986398
 20
148.3768593094
  0
VERTEX
  8
SOLID
 62
7
  6
CONTINUOUS
 10
125.8673449828
 20
148.0136755874
  0
VERTEX
  8
SOLID
 62
7
  6
CONTINUOUS
 10
125.7340301085
 20
147.6203158784
  0
VERTEX
  8
SOLID
 62
7
  6
CONTINUOUS
 10
125.6104011747
 20
147.1989197682
  0
VERTEX
  8
SOLID
 62
7
  6
CONTINUOUS
 10
125.4966566012
 20
146.7516840007
  0
VERTEX
  8
SOLID
 62
7
  6
CONTINUOUS
 10
125.3930174755
 20
146.2808610912
  0
VERTEX
  8
SOLID
 62
7
  6
CONTINUOUS
 10
125.2997094679
 20
145.7887599373
  0
VERTEX
  8
SOLID
 62
7
  6
CONTINUOUS
 10
125.2169487138
 20
145.2777343408
  0
VERTEX
  8
SOLID
 62
7
  6
CONTINUOUS
 10
125.1449323652
 20
144.7501687604
  0
VERTEX
  8
SOLID
 62
7
  6
CONTINUOUS
 10
125.089091372
 20
144.2597675285
  0
SEQEND
  0
POLYLINE
  8
SOLID
 62
7
  6
CONTINUOUS
 66
1
 70
0
  0
VERTEX
  8
SOLID
 62
7
  6
CONTINUOUS
 10
240.9423905619
 20
82.1118552728
  0
VERTEX
  8
SOLID
 62
7
  6
CONTINUOUS
 10
241.0004357371
 20
82.1185100154
  0
VERTEX
  8
SOLID
 62
7
  6
CONTINUOUS
 10
241.076877926
 20
82.1495827621
  0
VERTEX
  8
SOLID
 62
7
  6
CONTINUOUS
 10
241.1346242487
 20
82.1944844549
  0
VERTEX
  8
SOLID
 62
7
  6
CONTINUOUS
 10
241.1776647877
 20
82.2449165818
  0
VERTEX
  8
SOLID
 62
7
  6
CONTINUOUS
 10
241.2121938103
 20
82.2996486353
  0
VERTEX
  8
SOLID
 62
7
  6
CONTINUOUS
 10
241.2422463802
 20
82.3602296498
  0
VERTEX
  8
SOLID
 62
7
  6
CONTINUOUS
 10
241.2699977653
 20
82.4286171598
  0
VERTEX
  8
SOLID
 62
7
  6
CONTINUOUS
 10
241.2965646521
 20
82.5065072298
  0
VERTEX
  8
SOLID
 62
7
  6
CONTINUOUS
 10
241.3225144504
 20
82.5952574067
  0
VERTEX
  8
SOLID
 62
7
  6
CONTINUOUS
 10
241.3481310463
 20
82.6959484994
  0
VERTEX
  8
SOLID
 62
7
  6
CONTINUOUS
 10
241.3735776563
 20
82.8095950598
  0
VERTEX
  8
SOLID
 62
7
  6
CONTINUOUS
 10
241.3989219583
 20
82.937058072
  0
VERTEX
  8
SOLID
 62
7
  6
CONTINUOUS
 10
241.4241750755
 20
83.0790741204
  0
VERTEX
  8
SOLID
 62
7
  6
CONTINUOUS
 10
241.4493141585
 20
83.2362811718
  0
SEQEND
  0
POLYLINE
  8
SOLID
 62
7
  6
CONTINUOUS
 66
1
 70
0
  0
VERTEX
  8
SOLID
 62
7
  6
CONTINUOUS
 10
224.142390563
 20
82.1118552727
  0
VERTEX
  8
SOLID
 62
7
  6
CONTINUOUS
 10
224.2004358687
 20
82.1185100461
  0
VERTEX
  8
SOLID
 62
7
  6
CONTINUOUS
 10
224.2768780211
 20
82.1495828189
  0
VERTEX
  8
SOLID
 62
7
  6
CONTINUOUS
 10
224.3346243117
 20
82.1944845168
  0
VERTEX
  8
SOLID
 62
7
  6
CONTINUOUS
 10
224.3776648314
 20
82.2449166423
  0
VERTEX
  8
SOLID
 62
7
  6
CONTINUOUS
 10
224.4121938431
 20
82.2996486944
  0
VERTEX
  8
SOLID
 62
7
  6
CONTINUOUS
 10
224.4422464063
 20
82.3602297083
  0
VERTEX
  8
SOLID
 62
7
  6
CONTINUOUS
 10
224.4699977869
 20
82.4286172178
  0
VERTEX
  8
SOLID
 62
7
  6
CONTINUOUS
 10
224.49656467
 20
82.5065072866
  0
VERTEX
  8
SOLID
 62
7
  6
CONTINUOUS
 10
224.5225144652
 20
82.5952574612
  0
VERTEX
  8
SOLID
 62
7
  6
CONTINUOUS
 10
224.5481310584
 20
82.6959485499
  0
VERTEX
  8
SOLID
 62
7
  6
CONTINUOUS
 10
224.5735776657
 20
82.8095951046
  0
VERTEX
  8
SOLID
 62
7
  6
CONTINUOUS
 10
224.5989219652
 20
82.9370581089
  0
VERTEX
  8
SOLID
 62
7
  6
CONTINUOUS
 10
224.62417508
 20
83.0790741473
  0
VERTEX
  8
SOLID
 62
7
  6
CONTINUOUS
 10
224.6493141608
 20
83.2362811865
  0
SEQEND
  0
LINE
  8
SOLID
 62
7
  6
CONTINUOUS
 10
98.7975827401
 20
148.3768593094
 11
98.6571192197
 21
148.683880222
  0
POLYLINE
  8
SOLID
 62
7
  6
CONTINUOUS
 66
1
 70
0
  0
VERTEX
  8
SOLID
 62
7
  6
CONTINUOUS
 10
117.740024658
 20
83.3630874048
  0
VERTEX
  8
SOLID
 62
7
  6
CONTINUOUS
 10
117.7584960294
 20
83.2360915773
  0
VERTEX
  8
SOLID
 62
7
  6
CONTINUOUS
 10
117.7836684697
 20
83.078705369
  0
VERTEX
  8
SOLID
 62
7
  6
CONTINUOUS
 10
117.8089592279
 20
82.9365271074
  0
VERTEX
  8
SOLID
 62
7
  6
CONTINUOUS
 10
117.834345301
 20
82.8089237883
  0
VERTEX
  8
SOLID
 62
7
  6
CONTINUOUS
 10
117.8598379196
 20
82.6951620763
  0
VERTEX
  8
SOLID
 62
7
  6
CONTINUOUS
 10
117.885505351
 20
82.5943824809
  0
VERTEX
  8
SOLID
 62
7
  6
CONTINUOUS
 10
117.9115133384
 20
82.5055668142
  0
VERTEX
  8
SOLID
 62
7
  6
CONTINUOUS
 10
117.9381492732
 20
82.4276323525
  0
VERTEX
  8
SOLID
 62
7
  6
CONTINUOUS
 10
117.96598844
 20
82.3592156015
  0
VERTEX
  8
SOLID
 62
7
  6
CONTINUOUS
 10
117.9961659647
 20
82.2986083572
  0
VERTEX
  8
SOLID
 62
7
  6
CONTINUOUS
 10
118.0308974436
 20
82.2438399759
  0
VERTEX
  8
SOLID
 62
7
  6
CONTINUOUS
 10
118.0742948415
 20
82.1933734929
  0
VERTEX
  8
SOLID
 62
7
  6
CONTINUOUS
 10
118.1326286895
 20
82.1485608002
  0
VERTEX
  8
SOLID
 62
7
  6
CONTINUOUS
 10
118.2097334246
 20
82.1179655008
  0
VERTEX
  8
SOLID
 62
7
  6
CONTINUOUS
 10
118.2638120122
 20
82.11185836
  0
SEQEND
  0
POLYLINE
  8
SOLID
 62
7
  6
CONTINUOUS
 66
1
 70
0
  0
VERTEX
  8
SOLID
 62
7
  6
CONTINUOUS
 10
116.6890913712
 20
87.7639410763
  0
VERTEX
  8
SOLID
 62
7
  6
CONTINUOUS
 10
116.7446326444
 20
87.2759492789
  0
VERTEX
  8
SOLID
 62
7
  6
CONTINUOUS
 10
116.8166021256
 20
86.7483016989
  0
VERTEX
  8
SOLID
 62
7
  6
CONTINUOUS
 10
116.8993181546
 20
86.2371797878
  0
VERTEX
  8
SOLID
 62
7
  6
CONTINUOUS
 10
116.9925835186
 20
85.7449708504
  0
VERTEX
  8
SOLID
 62
7
  6
CONTINUOUS
 10
117.0961818024
 20
85.2740313836
  0
VERTEX
  8
SOLID
 62
7
  6
CONTINUOUS
 10
117.2098869928
 20
84.8266720339
  0
VERTEX
  8
SOLID
 62
7
  6
CONTINUOUS
 10
117.3334780076
 20
84.4051451002
  0
VERTEX
  8
SOLID
 62
7
  6
CONTINUOUS
 10
117.4667565759
 20
84.0116467166
  0
VERTEX
  8
SOLID
 62
7
  6
CONTINUOUS
 10
117.6095756141
 20
83.6483162099
  0
SEQEND
  0
POLYLINE
  8
SOLID
 62
7
  6
CONTINUOUS
 66
1
 70
0
  0
VERTEX
  8
SOLID
 62
7
  6
CONTINUOUS
 10
124.9161609239
 20
93.5921789486
  0
VERTEX
  8
SOLID
 62
7
  6
CONTINUOUS
 10
124.9123788305
 20
93.8927358079
  0
VERTEX
  8
SOLID
 62
7
  6
CONTINUOUS
 10
124.9123161784
 20
93.9607213248
  0
VERTEX
  8
SOLID
 62
7
  6
CONTINUOUS
 10
124.9132248177
 20
94.0271748232
  0
VERTEX
  8
SOLID
 62
7
  6
CONTINUOUS
 10
124.9151623316
 20
94.0920420164
  0
VERTEX
  8
SOLID
 62
7
  6
CONTINUOUS
 10
124.918190913
 20
94.1552425486
  0
VERTEX
  8
SOLID
 62
7
  6
CONTINUOUS
 10
124.9223751214
 20
94.2167132065
  0
VERTEX
  8
SOLID
 62
7
  6
CONTINUOUS
 10
124.9277616292
 20
94.2764055665
  0
VERTEX
  8
SOLID
 62
7
  6
CONTINUOUS
 10
124.9343829335
 20
94.3341819516
  0
VERTEX
  8
SOLID
 62
7
  6
CONTINUOUS
 10
124.9422719374
 20
94.3899417591
  0
VERTEX
  8
SOLID
 62
7
  6
CONTINUOUS
 10
124.9514227016
 20
94.4436568413
  0
VERTEX
  8
SOLID
 62
7
  6
CONTINUOUS
 10
124.9618801666
 20
94.4953342888
  0
VERTEX
  8
SOLID
 62
7
  6
CONTINUOUS
 10
124.9737769529
 20
94.545628915
  0
VERTEX
  8
SOLID
 62
7
  6
CONTINUOUS
 10
124.9869236972
 20
94.5932171418
  0
VERTEX
  8
SOLID
 62
7
  6
CONTINUOUS
 10
125.001846345
 20
94.6384807301
  0
VERTEX
  8
SOLID
 62
7
  6
CONTINUOUS
 10
125.018791393
 20
94.6816964641
  0
VERTEX
  8
SOLID
 62
7
  6
CONTINUOUS
 10
125.038001213
 20
94.7227967064
  0
VERTEX
  8
SOLID
 62
7
  6
CONTINUOUS
 10
125.059716051
 20
94.7618901782
  0
VERTEX
  8
SOLID
 62
7
  6
CONTINUOUS
 10
125.0838948808
 20
94.7984365816
  0
VERTEX
  8
SOLID
 62
7
  6
CONTINUOUS
 10
125.1105743369
 20
94.8320098775
  0
VERTEX
  8
SOLID
 62
7
  6
CONTINUOUS
 10
125.1398211627
 20
94.8621654799
  0
VERTEX
  8
SOLID
 62
7
  6
CONTINUOUS
 10
125.1714376914
 20
94.8881283199
  0
VERTEX
  8
SOLID
 62
7
  6
CONTINUOUS
 10
125.2050091545
 20
94.90900194
  0
VERTEX
  8
SOLID
 62
7
  6
CONTINUOUS
 10
125.2401097468
 20
94.9239369657
  0
VERTEX
  8
SOLID
 62
7
  6
CONTINUOUS
 10
125.2751850992
 20
94.9318379909
  0
VERTEX
  8
SOLID
 62
7
  6
CONTINUOUS
 10
125.2941458236
 20
94.9330422568
  0
SEQEND
  0
POLYLINE
  8
SOLID
 62
7
  6
CONTINUOUS
 66
1
 70
0
  0
VERTEX
  8
SOLID
 62
7
  6
CONTINUOUS
 10
125.0915993941
 20
138.4334886435
  0
VERTEX
  8
SOLID
 62
7
  6
CONTINUOUS
 10
125.095387388
 20
138.132752398
  0
VERTEX
  8
SOLID
 62
7
  6
CONTINUOUS
 10
125.0954762282
 20
138.0650609683
  0
VERTEX
  8
SOLID
 62
7
  6
CONTINUOUS
 10
125.0946035926
 20
137.9988154379
  0
VERTEX
  8
SOLID
 62
7
  6
CONTINUOUS
 10
125.0927094768
 20
137.9340730589
  0
VERTEX
  8
SOLID
 62
7
  6
CONTINUOUS
 10
125.0897293069
 20
137.8709175023
  0
VERTEX
  8
SOLID
 62
7
  6
CONTINUOUS
 10
125.0855949373
 20
137.80942035
  0
VERTEX
  8
SOLID
 62
7
  6
CONTINUOUS
 10
125.0802543104
 20
137.7496306792
  0
VERTEX
  8
SOLID
 62
7
  6
CONTINUOUS
 10
125.0736714689
 20
137.6916860535
  0
VERTEX
  8
SOLID
 62
7
  6
CONTINUOUS
 10
125.0658103662
 20
137.6357153203
  0
VERTEX
  8
SOLID
 62
7
  6
CONTINUOUS
 10
125.0566622358
 20
137.5817011399
  0
VERTEX
  8
SOLID
 62
7
  6
CONTINUOUS
 10
125.0461969079
 20
137.5297245575
  0
VERTEX
  8
SOLID
 62
7
  6
CONTINUOUS
 10
125.0342778361
 20
137.4791739602
  0
VERTEX
  8
SOLID
 62
7
  6
CONTINUOUS
 10
125.0211003379
 20
137.4312976875
  0
VERTEX
  8
SOLID
 62
7
  6
CONTINUOUS
 10
125.0061686882
 20
137.3858805856
  0
VERTEX
  8
SOLID
 62
7
  6
CONTINUOUS
 10
124.9891945764
 20
137.3424966332
  0
VERTEX
  8
SOLID
 62
7
  6
CONTINUOUS
 10
124.969982826
 20
137.3013112803
  0
VERTEX
  8
SOLID
 62
7
  6
CONTINUOUS
 10
124.9482786624
 20
137.2621732035
  0
VERTEX
  8
SOLID
 62
7
  6
CONTINUOUS
 10
124.9241436579
 20
137.2256294473
  0
VERTEX
  8
SOLID
 62
7
  6
CONTINUOUS
 10
124.8975422965
 20
137.192083915
  0
VERTEX
  8
SOLID
 62
7
  6
CONTINUOUS
 10
124.8684108326
 20
137.1619617038
  0
VERTEX
  8
SOLID
 62
7
  6
CONTINUOUS
 10
124.8369445008
 20
137.1360153752
  0
VERTEX
  8
SOLID
 62
7
  6
CONTINUOUS
 10
124.8035393305
 20
137.1151112842
  0
VERTEX
  8
SOLID
 62
7
  6
CONTINUOUS
 10
124.7685996789
 20
137.1000773827
  0
VERTEX
  8
SOLID
 62
7
  6
CONTINUOUS
 10
124.7336282548
 20
137.0919997409
  0
VERTEX
  8
SOLID
 62
7
  6
CONTINUOUS
 10
124.7134608807
 20
137.0906657573
  0
SEQEND
  0
LINE
  8
SOLID
 62
7
  6
CONTINUOUS
 10
124.9182283189
 20
93.321714476
 11
124.9161609239
 21
93.5921789486
  0
LINE
  8
SOLID
 62
7
  6
CONTINUOUS
 10
125.0895422351
 20
138.704317145
 11
125.0915993941
 21
138.4334886435
  0
LINE
  8
SOLID
 62
7
  6
CONTINUOUS
 10
124.9182283189
 20
93.321714476
 11
124.9187225331
 21
87.7646251623
  0
LINE
  8
SOLID
 62
7
  6
CONTINUOUS
 10
125.0890588468
 20
144.2590834352
 11
125.0895422351
 21
138.704317145
  0
LINE
  8
SOLID
 62
7
  6
CONTINUOUS
 10
125.0890913902
 20
144.2597617362
 11
125.0890588474
 21
144.2591279339
  0
LINE
  8
SOLID
 62
7
  6
CONTINUOUS
 10
126.1586700416
 20
148.7887617871
 11
126.1400279173
 21
148.6606362158
  0
POLYLINE
  8
SOLID
 62
7
  6
CONTINUOUS
 66
1
 70
0
  0
VERTEX
  8
SOLID
 62
7
  6
CONTINUOUS
 10
107.0571194774
 20
83.3398289091
  0
VERTEX
  8
SOLID
 62
7
  6
CONTINUOUS
 10
107.1982057658
 20
83.6483162099
  0
VERTEX
  8
SOLID
 62
7
  6
CONTINUOUS
 10
107.341024804
 20
84.0116467166
  0
VERTEX
  8
SOLID
 62
7
  6
CONTINUOUS
 10
107.4743033723
 20
84.4051451002
  0
VERTEX
  8
SOLID
 62
7
  6
CONTINUOUS
 10
107.5978943871
 20
84.826672034
  0
VERTEX
  8
SOLID
 62
7
  6
CONTINUOUS
 10
107.7115995775
 20
85.2740313836
  0
VERTEX
  8
SOLID
 62
7
  6
CONTINUOUS
 10
107.8151978613
 20
85.7449708504
  0
VERTEX
  8
SOLID
 62
7
  6
CONTINUOUS
 10
107.9084632253
 20
86.2371797878
  0
VERTEX
  8
SOLID
 62
7
  6
CONTINUOUS
 10
107.9911792543
 20
86.7483016989
  0
VERTEX
  8
SOLID
 62
7
  6
CONTINUOUS
 10
108.0631487355
 20
87.2759492789
  0
VERTEX
  8
SOLID
 62
7
  6
CONTINUOUS
 10
108.1186900087
 20
87.7639410763
  0
SEQEND
  0
POLYLINE
  8
SOLID
 62
7
  6
CONTINUOUS
 66
1
 70
0
  0
VERTEX
  8
SOLID
 62
7
  6
CONTINUOUS
 10
207.342390563
 20
82.1118552727
  0
VERTEX
  8
SOLID
 62
7
  6
CONTINUOUS
 10
207.4004358687
 20
82.1185100461
  0
VERTEX
  8
SOLID
 62
7
  6
CONTINUOUS
 10
207.4768780211
 20
82.1495828189
  0
VERTEX
  8
SOLID
 62
7
  6
CONTINUOUS
 10
207.5346243117
 20
82.1944845168
  0
VERTEX
  8
SOLID
 62
7
  6
CONTINUOUS
 10
207.5776648314
 20
82.2449166423
  0
VERTEX
  8
SOLID
 62
7
  6
CONTINUOUS
 10
207.6121938431
 20
82.2996486944
  0
VERTEX
  8
SOLID
 62
7
  6
CONTINUOUS
 10
207.6422464063
 20
82.3602297083
  0
VERTEX
  8
SOLID
 62
7
  6
CONTINUOUS
 10
207.6699977869
 20
82.4286172178
  0
VERTEX
  8
SOLID
 62
7
  6
CONTINUOUS
 10
207.69656467
 20
82.5065072866
  0
VERTEX
  8
SOLID
 62
7
  6
CONTINUOUS
 10
207.7225144652
 20
82.5952574612
  0
VERTEX
  8
SOLID
 62
7
  6
CONTINUOUS
 10
207.7481310584
 20
82.6959485499
  0
VERTEX
  8
SOLID
 62
7
  6
CONTINUOUS
 10
207.7735776657
 20
82.8095951046
  0
VERTEX
  8
SOLID
 62
7
  6
CONTINUOUS
 10
207.7989219652
 20
82.9370581089
  0
VERTEX
  8
SOLID
 62
7
  6
CONTINUOUS
 10
207.82417508
 20
83.0790741473
  0
VERTEX
  8
SOLID
 62
7
  6
CONTINUOUS
 10
207.8493141608
 20
83.2362811865
  0
SEQEND
  0
POLYLINE
  8
SOLID
 62
7
  6
CONTINUOUS
 66
1
 70
0
  0
VERTEX
  8
SOLID
 62
7
  6
CONTINUOUS
 10
190.542390563
 20
82.1118552727
  0
VERTEX
  8
SOLID
 62
7
  6
CONTINUOUS
 10
190.6004358687
 20
82.1185100461
  0
VERTEX
  8
SOLID
 62
7
  6
CONTINUOUS
 10
190.6768780211
 20
82.1495828189
  0
VERTEX
  8
SOLID
 62
7
  6
CONTINUOUS
 10
190.7346243117
 20
82.1944845168
  0
VERTEX
  8
SOLID
 62
7
  6
CONTINUOUS
 10
190.7776648314
 20
82.2449166423
  0
VERTEX
  8
SOLID
 62
7
  6
CONTINUOUS
 10
190.8121938431
 20
82.2996486944
  0
VERTEX
  8
SOLID
 62
7
  6
CONTINUOUS
 10
190.8422464063
 20
82.3602297083
  0
VERTEX
  8
SOLID
 62
7
  6
CONTINUOUS
 10
190.8699977869
 20
82.4286172178
  0
VERTEX
  8
SOLID
 62
7
  6
CONTINUOUS
 10
190.89656467
 20
82.5065072866
  0
VERTEX
  8
SOLID
 62
7
  6
CONTINUOUS
 10
190.9225144652
 20
82.5952574612
  0
VERTEX
  8
SOLID
 62
7
  6
CONTINUOUS
 10
190.9481310584
 20
82.6959485499
  0
VERTEX
  8
SOLID
 62
7
  6
CONTINUOUS
 10
190.9735776657
 20
82.8095951046
  0
VERTEX
  8
SOLID
 62
7
  6
CONTINUOUS
 10
190.9989219652
 20
82.9370581089
  0
VERTEX
  8
SOLID
 62
7
  6
CONTINUOUS
 10
191.02417508
 20
83.0790741473
  0
VERTEX
  8
SOLID
 62
7
  6
CONTINUOUS
 10
191.0493141608
 20
83.2362811865
  0
SEQEND
  0
POLYLINE
  8
SOLID
 62
7
  6
CONTINUOUS
 66
1
 70
0
  0
VERTEX
  8
SOLID
 62
7
  6
CONTINUOUS
 10
173.742390563
 20
82.1118552727
  0
VERTEX
  8
SOLID
 62
7
  6
CONTINUOUS
 10
173.8004358687
 20
82.1185100461
  0
VERTEX
  8
SOLID
 62
7
  6
CONTINUOUS
 10
173.8768780211
 20
82.1495828189
  0
VERTEX
  8
SOLID
 62
7
  6
CONTINUOUS
 10
173.9346243117
 20
82.1944845168
  0
VERTEX
  8
SOLID
 62
7
  6
CONTINUOUS
 10
173.9776648314
 20
82.2449166423
  0
VERTEX
  8
SOLID
 62
7
  6
CONTINUOUS
 10
174.0121938431
 20
82.2996486944
  0
VERTEX
  8
SOLID
 62
7
  6
CONTINUOUS
 10
174.0422464063
 20
82.3602297083
  0
VERTEX
  8
SOLID
 62
7
  6
CONTINUOUS
 10
174.0699977869
 20
82.4286172178
  0
VERTEX
  8
SOLID
 62
7
  6
CONTINUOUS
 10
174.09656467
 20
82.5065072866
  0
VERTEX
  8
SOLID
 62
7
  6
CONTINUOUS
 10
174.1225144652
 20
82.5952574612
  0
VERTEX
  8
SOLID
 62
7
  6
CONTINUOUS
 10
174.1481310584
 20
82.6959485499
  0
VERTEX
  8
SOLID
 62
7
  6
CONTINUOUS
 10
174.1735776657
 20
82.8095951046
  0
VERTEX
  8
SOLID
 62
7
  6
CONTINUOUS
 10
174.1989219652
 20
82.9370581089
  0
VERTEX
  8
SOLID
 62
7
  6
CONTINUOUS
 10
174.22417508
 20
83.0790741473
  0
VERTEX
  8
SOLID
 62
7
  6
CONTINUOUS
 10
174.2493141608
 20
83.2362811865
  0
SEQEND
  0
LINE
  8
SOLID
 62
7
  6
CONTINUOUS
 10
72.9426955215
 20
82.1118543046
 11
66.5039048455
 21
82.1118543046
  0
LINE
  8
SURFACE
 62
7
  6
CONTINUOUS
 10
84.6651170441
 20
82.1118543214
 11
89.7426583448
 21
82.1118543046
  0
LINE
  8
SOLID
 62
7
  6
CONTINUOUS
 10
101.4651170441
 20
82.1118543214
 11
106.5426583448
 21
82.1118543046
  0
LINE
  8
0
 62
7
  6
CONTINUOUS
 10
118.2650815296
 20
82.1118543046
 11
123.3426998501
 21
82.1118543046
  0
LINE
  8
SOLID
 62
7
  6
CONTINUOUS
 10
135.0651170441
 20
82.1118543214
 11
140.1426583448
 21
82.1118543046
  0
LINE
  8
0
 62
7
  6
CONTINUOUS
 10
151.8650815296
 20
82.1118543046
 11
156.9426998501
 21
82.1118543046
  0
LINE
  8
SOLID
 62
7
  6
CONTINUOUS
 10
168.6651170441
 20
82.1118543214
 11
173.7426583448
 21
82.1118543046
  0
LINE
  8
SOLID
 62
7
  6
CONTINUOUS
 10
185.4651170441
 20
82.1118543214
 11
190.5426583448
 21
82.1118543046
  0
LINE
  8
SOLID
 62
7
  6
CONTINUOUS
 10
202.2651170441
 20
82.1118543214
 11
207.3426583448
 21
82.1118543046
  0
LINE
  8
SOLID
 62
7
  6
CONTINUOUS
 10
219.0651170441
 20
82.1118543214
 11
224.1426583448
 21
82.1118543046
  0
LINE
  8
SOLID
 62
7
  6
CONTINUOUS
 10
235.8651170441
 20
82.1118543214
 11
240.9426955376
 21
82.1118543046
  0
LINE
  8
0
 62
7
  6
CONTINUOUS
 10
72.9426959025
 20
82.1118543047
 11
72.9424140682
 21
82.1118550693
  0
LINE
  8
0
 62
7
  6
CONTINUOUS
 10
240.9426959175
 20
82.1118543047
 11
240.9423874006
 21
82.1118552192
  0
LINE
  8
SURFACE
 62
7
  6
CONTINUOUS
 10
89.7426643358
 20
82.1118543214
 11
89.7423968492
 21
82.1118552196
  0
LINE
  8
SOLID
 62
7
  6
CONTINUOUS
 10
106.5426643358
 20
82.1118543214
 11
106.5423968492
 21
82.1118552196
  0
LINE
  8
SOLID
 62
7
  6
CONTINUOUS
 10
140.1426643358
 20
82.1118543214
 11
140.1423968492
 21
82.1118552196
  0
LINE
  8
SOLID
 62
7
  6
CONTINUOUS
 10
173.7426643358
 20
82.1118543214
 11
173.7423968492
 21
82.1118552196
  0
LINE
  8
SOLID
 62
7
  6
CONTINUOUS
 10
190.5426643358
 20
82.1118543214
 11
190.5423968492
 21
82.1118552196
  0
LINE
  8
SOLID
 62
7
  6
CONTINUOUS
 10
207.3426643358
 20
82.1118543214
 11
207.3423968492
 21
82.1118552196
  0
LINE
  8
SOLID
 62
7
  6
CONTINUOUS
 10
224.1426643358
 20
82.1118543214
 11
224.1423968492
 21
82.1118552196
  0
LINE
  8
0
 62
7
  6
CONTINUOUS
 10
118.2638120286
 20
82.1118604395
 11
118.2650815296
 21
82.1118543046
  0
LINE
  8
0
 62
7
  6
CONTINUOUS
 10
151.8638120286
 20
82.1118604395
 11
151.8650815296
 21
82.1118543046
  0
LINE
  8
SOLID
 62
7
  6
CONTINUOUS
 10
134.4095756141
 20
83.6483162099
 11
134.5506619025
 21
83.3398289091
  0
POLYLINE
  8
SOLID
 62
7
  6
CONTINUOUS
 66
1
 70
0
  0
VERTEX
  8
SOLID
 62
7
  6
CONTINUOUS
 10
115.4677537241
 20
148.6606356441
  0
VERTEX
  8
SOLID
 62
7
  6
CONTINUOUS
 10
115.4491401552
 20
148.7885722681
  0
VERTEX
  8
SOLID
 62
7
  6
CONTINUOUS
 10
115.4240107266
 20
148.9456091623
  0
VERTEX
  8
SOLID
 62
7
  6
CONTINUOUS
 10
115.3987678692
 20
149.0874701852
  0
VERTEX
  8
SOLID
 62
7
  6
CONTINUOUS
 10
115.3734342396
 20
149.2147935393
  0
VERTEX
  8
SOLID
 62
7
  6
CONTINUOUS
 10
115.3479984952
 20
149.3283158844
  0
VERTEX
  8
SOLID
 62
7
  6
CONTINUOUS
 10
115.3223926893
 20
149.428898165
  0
VERTEX
  8
SOLID
 62
7
  6
CONTINUOUS
 10
115.2964532966
 20
149.5175546289
  0
VERTEX
  8
SOLID
 62
7
  6
CONTINUOUS
 10
115.269895978
 20
149.5953658193
  0
VERTEX
  8
SOLID
 62
7
  6
CONTINUOUS
 10
115.2421526808
 20
149.6636887645
  0
VERTEX
  8
SOLID
 62
7
  6
CONTINUOUS
 10
115.2121058835
 20
149.7242184067
  0
VERTEX
  8
SOLID
 62
7
  6
CONTINUOUS
 10
115.1775796512
 20
149.7789097345
  0
VERTEX
  8
SOLID
 62
7
  6
CONTINUOUS
 10
115.1345399815
 20
149.829306787
  0
VERTEX
  8
SOLID
 62
7
  6
CONTINUOUS
 10
115.076797094
 20
149.8741740777
  0
VERTEX
  8
SOLID
 62
7
  6
CONTINUOUS
 10
115.000389558
 20
149.9052094398
  0
VERTEX
  8
SOLID
 62
7
  6
CONTINUOUS
 10
114.9423900697
 20
149.9118533308
  0
SEQEND
  0
POLYLINE
  8
SOLID
 62
7
  6
CONTINUOUS
 66
1
 70
0
  0
VERTEX
  8
SOLID
 62
7
  6
CONTINUOUS
 10
116.5186900079
 20
144.2597675285
  0
VERTEX
  8
SOLID
 62
7
  6
CONTINUOUS
 10
116.4628490147
 20
144.7501687604
  0
VERTEX
  8
SOLID
 62
7
  6
CONTINUOUS
 10
116.3908326661
 20
145.2777343408
  0
VERTEX
  8
SOLID
 62
7
  6
CONTINUOUS
 10
116.308071912
 20
145.7887599373
  0
VERTEX
  8
SOLID
 62
7
  6
CONTINUOUS
 10
116.2147639044
 20
146.2808610911
  0
VERTEX
  8
SOLID
 62
7
  6
CONTINUOUS
 10
116.1111247787
 20
146.7516840007
  0
VERTEX
  8
SOLID
 62
7
  6
CONTINUOUS
 10
115.9973802052
 20
147.1989197682
  0
VERTEX
  8
SOLID
 62
7
  6
CONTINUOUS
 10
115.8737512714
 20
147.6203158783
  0
VERTEX
  8
SOLID
 62
7
  6
CONTINUOUS
 10
115.7404363971
 20
148.0136755874
  0
VERTEX
  8
SOLID
 62
7
  6
CONTINUOUS
 10
115.5975827401
 20
148.3768593094
  0
SEQEND
  0
LINE
  8
SOLID
 62
7
  6
CONTINUOUS
 10
133.4890913894
 20
87.7639468689
 11
133.4890588474
 21
87.7645806636
  0
LINE
  8
SOLID
 62
7
  6
CONTINUOUS
 10
124.9186899905
 20
87.7639468689
 11
124.9187225325
 21
87.7645806636
  0
LINE
  8
SOLID
 62
7
  6
CONTINUOUS
 10
123.8493141599
 20
83.2362811806
 11
123.8677569831
 21
83.3630879759
  0
POLYLINE
  8
SOLID
 62
7
  6
CONTINUOUS
 66
1
 70
0
  0
VERTEX
  8
SOLID
 62
7
  6
CONTINUOUS
 10
142.9506621602
 20
148.683880222
  0
VERTEX
  8
SOLID
 62
7
  6
CONTINUOUS
 10
142.8101986398
 20
148.3768593094
  0
VERTEX
  8
SOLID
 62
7
  6
CONTINUOUS
 10
142.6673449828
 20
148.0136755874
  0
VERTEX
  8
SOLID
 62
7
  6
CONTINUOUS
 10
142.5340301085
 20
147.6203158783
  0
VERTEX
  8
SOLID
 62
7
  6
CONTINUOUS
 10
142.4104011747
 20
147.1989197682
  0
VERTEX
  8
SOLID
 62
7
  6
CONTINUOUS
 10
142.2966566012
 20
146.7516840007
  0
VERTEX
  8
SOLID
 62
7
  6
CONTINUOUS
 10
142.1930174755
 20
146.2808610912
  0
VERTEX
  8
SOLID
 62
7
  6
CONTINUOUS
 10
142.0997094679
 20
145.7887599373
  0
VERTEX
  8
SOLID
 62
7
  6
CONTINUOUS
 10
142.0169487138
 20
145.2777343408
  0
VERTEX
  8
SOLID
 62
7
  6
CONTINUOUS
 10
141.9449323652
 20
144.7501687604
  0
VERTEX
  8
SOLID
 62
7
  6
CONTINUOUS
 10
141.889091372
 20
144.2597675285
  0
SEQEND
  0
POLYLINE
  8
SOLID
 62
7
  6
CONTINUOUS
 66
1
 70
0
  0
VERTEX
  8
SOLID
 62
7
  6
CONTINUOUS
 10
156.9439038463
 20
82.1118579576
  0
VERTEX
  8
SOLID
 62
7
  6
CONTINUOUS
 10
157.000435816
 20
82.1185100338
  0
VERTEX
  8
SOLID
 62
7
  6
CONTINUOUS
 10
157.076877983
 20
82.1495827962
  0
VERTEX
  8
SOLID
 62
7
  6
CONTINUOUS
 10
157.1346242865
 20
82.194484492
  0
VERTEX
  8
SOLID
 62
7
  6
CONTINUOUS
 10
157.1776648139
 20
82.2449166181
  0
VERTEX
  8
SOLID
 62
7
  6
CONTINUOUS
 10
157.21219383
 20
82.2996486708
  0
VERTEX
  8
SOLID
 62
7
  6
CONTINUOUS
 10
157.2422463959
 20
82.3602296849
  0
VERTEX
  8
SOLID
 62
7
  6
CONTINUOUS
 10
157.2699977782
 20
82.4286171946
  0
VERTEX
  8
SOLID
 62
7
  6
CONTINUOUS
 10
157.2965646629
 20
82.5065072639
  0
VERTEX
  8
SOLID
 62
7
  6
CONTINUOUS
 10
157.3225144593
 20
82.5952574394
  0
VERTEX
  8
SOLID
 62
7
  6
CONTINUOUS
 10
157.3481310535
 20
82.6959485297
  0
VERTEX
  8
SOLID
 62
7
  6
CONTINUOUS
 10
157.3735776619
 20
82.8095950867
  0
VERTEX
  8
SOLID
 62
7
  6
CONTINUOUS
 10
157.3989219624
 20
82.9370580941
  0
VERTEX
  8
SOLID
 62
7
  6
CONTINUOUS
 10
157.4241750782
 20
83.0790741365
  0
VERTEX
  8
SOLID
 62
7
  6
CONTINUOUS
 10
157.4493141599
 20
83.2362811806
  0
SEQEND
  0
POLYLINE
  8
SOLID
 62
7
  6
CONTINUOUS
 66
1
 70
0
  0
VERTEX
  8
SOLID
 62
7
  6
CONTINUOUS
 10
123.3439038463
 20
82.1118579576
  0
VERTEX
  8
SOLID
 62
7
  6
CONTINUOUS
 10
123.400435816
 20
82.1185100338
  0
VERTEX
  8
SOLID
 62
7
  6
CONTINUOUS
 10
123.476877983
 20
82.1495827962
  0
VERTEX
  8
SOLID
 62
7
  6
CONTINUOUS
 10
123.5346242865
 20
82.194484492
  0
VERTEX
  8
SOLID
 62
7
  6
CONTINUOUS
 10
123.5776648139
 20
82.2449166181
  0
VERTEX
  8
SOLID
 62
7
  6
CONTINUOUS
 10
123.61219383
 20
82.2996486708
  0
VERTEX
  8
SOLID
 62
7
  6
CONTINUOUS
 10
123.6422463959
 20
82.3602296849
  0
VERTEX
  8
SOLID
 62
7
  6
CONTINUOUS
 10
123.6699977782
 20
82.4286171946
  0
VERTEX
  8
SOLID
 62
7
  6
CONTINUOUS
 10
123.6965646629
 20
82.5065072639
  0
VERTEX
  8
SOLID
 62
7
  6
CONTINUOUS
 10
123.7225144593
 20
82.5952574394
  0
VERTEX
  8
SOLID
 62
7
  6
CONTINUOUS
 10
123.7481310535
 20
82.6959485297
  0
VERTEX
  8
SOLID
 62
7
  6
CONTINUOUS
 10
123.7735776619
 20
82.8095950867
  0
VERTEX
  8
SOLID
 62
7
  6
CONTINUOUS
 10
123.7989219624
 20
82.9370580941
  0
VERTEX
  8
SOLID
 62
7
  6
CONTINUOUS
 10
123.8241750782
 20
83.0790741365
  0
VERTEX
  8
SOLID
 62
7
  6
CONTINUOUS
 10
123.8493141599
 20
83.2362811806
  0
SEQEND
  0
POLYLINE
  8
SOLID
 62
7
  6
CONTINUOUS
 66
1
 70
0
  0
VERTEX
  8
SOLID
 62
7
  6
CONTINUOUS
 10
140.142390563
 20
82.1118552727
  0
VERTEX
  8
SOLID
 62
7
  6
CONTINUOUS
 10
140.2004358687
 20
82.1185100461
  0
VERTEX
  8
SOLID
 62
7
  6
CONTINUOUS
 10
140.2768780211
 20
82.1495828189
  0
VERTEX
  8
SOLID
 62
7
  6
CONTINUOUS
 10
140.3346243117
 20
82.1944845168
  0
VERTEX
  8
SOLID
 62
7
  6
CONTINUOUS
 10
140.3776648314
 20
82.2449166423
  0
VERTEX
  8
SOLID
 62
7
  6
CONTINUOUS
 10
140.4121938431
 20
82.2996486944
  0
VERTEX
  8
SOLID
 62
7
  6
CONTINUOUS
 10
140.4422464063
 20
82.3602297083
  0
VERTEX
  8
SOLID
 62
7
  6
CONTINUOUS
 10
140.4699977869
 20
82.4286172178
  0
VERTEX
  8
SOLID
 62
7
  6
CONTINUOUS
 10
140.49656467
 20
82.5065072866
  0
VERTEX
  8
SOLID
 62
7
  6
CONTINUOUS
 10
140.5225144652
 20
82.5952574612
  0
VERTEX
  8
SOLID
 62
7
  6
CONTINUOUS
 10
140.5481310584
 20
82.6959485499
  0
VERTEX
  8
SOLID
 62
7
  6
CONTINUOUS
 10
140.5735776657
 20
82.8095951046
  0
VERTEX
  8
SOLID
 62
7
  6
CONTINUOUS
 10
140.5989219652
 20
82.9370581089
  0
VERTEX
  8
SOLID
 62
7
  6
CONTINUOUS
 10
140.62417508
 20
83.0790741473
  0
VERTEX
  8
SOLID
 62
7
  6
CONTINUOUS
 10
140.6493141608
 20
83.2362811865
  0
SEQEND
  0
POLYLINE
  8
SOLID
 62
7
  6
CONTINUOUS
 66
1
 70
0
  0
VERTEX
  8
SOLID
 62
7
  6
CONTINUOUS
 10
106.542390563
 20
82.1118552727
  0
VERTEX
  8
SOLID
 62
7
  6
CONTINUOUS
 10
106.6004358687
 20
82.1185100461
  0
VERTEX
  8
SOLID
 62
7
  6
CONTINUOUS
 10
106.6768780211
 20
82.1495828189
  0
VERTEX
  8
SOLID
 62
7
  6
CONTINUOUS
 10
106.7346243117
 20
82.1944845168
  0
VERTEX
  8
SOLID
 62
7
  6
CONTINUOUS
 10
106.7776648314
 20
82.2449166423
  0
VERTEX
  8
SOLID
 62
7
  6
CONTINUOUS
 10
106.8121938431
 20
82.2996486944
  0
VERTEX
  8
SOLID
 62
7
  6
CONTINUOUS
 10
106.8422464063
 20
82.3602297083
  0
VERTEX
  8
SOLID
 62
7
  6
CONTINUOUS
 10
106.8699977869
 20
82.4286172178
  0
VERTEX
  8
SOLID
 62
7
  6
CONTINUOUS
 10
106.89656467
 20
82.5065072866
  0
VERTEX
  8
SOLID
 62
7
  6
CONTINUOUS
 10
106.9225144652
 20
82.5952574612
  0
VERTEX
  8
SOLID
 62
7
  6
CONTINUOUS
 10
106.9481310584
 20
82.6959485499
  0
VERTEX
  8
SOLID
 62
7
  6
CONTINUOUS
 10
106.9735776657
 20
82.8095951046
  0
VERTEX
  8
SOLID
 62
7
  6
CONTINUOUS
 10
106.9989219652
 20
82.9370581089
  0
VERTEX
  8
SOLID
 62
7
  6
CONTINUOUS
 10
107.02417508
 20
83.0790741473
  0
VERTEX
  8
SOLID
 62
7
  6
CONTINUOUS
 10
107.0493141608
 20
83.2362811865
  0
SEQEND
  0
POLYLINE
  8
SURFACE
 62
7
  6
CONTINUOUS
 66
1
 70
0
  0
VERTEX
  8
SURFACE
 62
7
  6
CONTINUOUS
 10
72.9424170743
 20
82.111855123
  0
VERTEX
  8
SURFACE
 62
7
  6
CONTINUOUS
 10
72.9821397189
 20
82.1149417177
  0
VERTEX
  8
SURFACE
 62
7
  6
CONTINUOUS
 10
73.0565384497
 20
82.1385519113
  0
VERTEX
  8
SURFACE
 62
7
  6
CONTINUOUS
 10
73.1170445821
 20
82.1784230184
  0
VERTEX
  8
SURFACE
 62
7
  6
CONTINUOUS
 10
73.1633184813
 20
82.2261545409
  0
VERTEX
  8
SURFACE
 62
7
  6
CONTINUOUS
 10
73.2001808992
 20
82.278945832
  0
VERTEX
  8
SURFACE
 62
7
  6
CONTINUOUS
 10
73.2318027994
 20
82.3376750639
  0
VERTEX
  8
SURFACE
 62
7
  6
CONTINUOUS
 10
73.2607277915
 20
82.4043557423
  0
VERTEX
  8
SURFACE
 62
7
  6
CONTINUOUS
 10
73.2883304737
 20
82.4810042707
  0
VERTEX
  8
SURFACE
 62
7
  6
CONTINUOUS
 10
73.3153179347
 20
82.5693418515
  0
VERTEX
  8
SURFACE
 62
7
  6
CONTINUOUS
 10
73.3420380966
 20
82.6707803207
  0
VERTEX
  8
SURFACE
 62
7
  6
CONTINUOUS
 10
73.3686461568
 20
82.7864738188
  0
VERTEX
  8
SURFACE
 62
7
  6
CONTINUOUS
 10
73.3952034378
 20
82.9174332509
  0
VERTEX
  8
SURFACE
 62
7
  6
CONTINUOUS
 10
73.4217018313
 20
83.0644776699
  0
VERTEX
  8
SURFACE
 62
7
  6
CONTINUOUS
 10
73.4480919222
 20
83.2282567289
  0
SEQEND
  0
LINE
  8
SOLID
 62
7
  6
CONTINUOUS
 10
234.4399725032
 20
87.7382825129
 11
234.4890588468
 21
87.7395729814
  0
LINE
  8
SOLID
 62
7
  6
CONTINUOUS
 10
217.6399725032
 20
87.7382825129
 11
217.6890588468
 21
87.7395729814
  0
LINE
  8
SOLID
 62
7
  6
CONTINUOUS
 10
200.8399725032
 20
87.7382825129
 11
200.8890588468
 21
87.7395729814
  0
LINE
  8
SOLID
 62
7
  6
CONTINUOUS
 10
184.0399725032
 20
87.7382825129
 11
184.0890588468
 21
87.7395729814
  0
LINE
  8
SOLID
 62
7
  6
CONTINUOUS
 10
167.2399725032
 20
87.7382825129
 11
167.2890588468
 21
87.7395729814
  0
LINE
  8
SOLID
 62
7
  6
CONTINUOUS
 10
150.4399725032
 20
87.7382825129
 11
150.4890588468
 21
87.7395729814
  0
LINE
  8
SOLID
 62
7
  6
CONTINUOUS
 10
133.6399725032
 20
87.7382825129
 11
133.6890588468
 21
87.7395729814
  0
LINE
  8
SOLID
 62
7
  6
CONTINUOUS
 10
116.8399725032
 20
87.7382825129
 11
116.8890588468
 21
87.7395729814
  0
LINE
  8
SOLID
 62
7
  6
CONTINUOUS
 10
100.085704328
 20
87.7394946442
 11
100.0890588468
 21
87.7395729814
  0
LINE
  8
SOLID
 62
7
  6
CONTINUOUS
 10
66.50389069
 20
87.7395729814
 11
74.3187225331
 21
87.7395729814
  0
LINE
  8
SURFACE
 62
7
  6
CONTINUOUS
 10
83.2890588468
 20
87.7395729814
 11
91.1187225331
 21
87.7395729814
  0
LINE
  8
SOLID
 62
7
  6
CONTINUOUS
 10
100.0890588468
 20
87.7395729814
 11
107.9187225331
 21
87.7395729814
  0
LINE
  8
SOLID
 62
7
  6
CONTINUOUS
 10
116.8890588468
 20
87.7395729814
 11
124.7187225331
 21
87.7395729814
  0
LINE
  8
SOLID
 62
7
  6
CONTINUOUS
 10
133.6890588468
 20
87.7395729814
 11
141.5187225331
 21
87.7395729814
  0
LINE
  8
SOLID
 62
7
  6
CONTINUOUS
 10
150.4890588468
 20
87.7395729814
 11
158.3187225331
 21
87.7395729814
  0
LINE
  8
SOLID
 62
7
  6
CONTINUOUS
 10
167.2890588468
 20
87.7395729814
 11
175.1187225331
 21
87.7395729814
  0
LINE
  8
SOLID
 62
7
  6
CONTINUOUS
 10
184.0890588468
 20
87.7395729814
 11
191.9187225331
 21
87.7395729814
  0
LINE
  8
SOLID
 62
7
  6
CONTINUOUS
 10
200.8890588468
 20
87.7395729814
 11
208.7187225331
 21
87.7395729814
  0
LINE
  8
SOLID
 62
7
  6
CONTINUOUS
 10
217.6890588468
 20
87.7395729814
 11
225.5187225331
 21
87.7395729814
  0
LINE
  8
SOLID
 62
7
  6
CONTINUOUS
 10
234.4890588468
 20
87.7395729814
 11
242.3187225331
 21
87.7395729814
  0
POLYLINE
  8
SURFACE
 62
7
  6
CONTINUOUS
 66
1
 70
0
  0
VERTEX
  8
SURFACE
 62
7
  6
CONTINUOUS
 10
83.2399725032
 20
87.7382825129
  0
VERTEX
  8
SURFACE
 62
7
  6
CONTINUOUS
 10
83.1969288685
 20
87.7389881659
  0
VERTEX
  8
SURFACE
 62
7
  6
CONTINUOUS
 10
83.1588404658
 20
87.7415644915
  0
VERTEX
  8
SURFACE
 62
7
  6
CONTINUOUS
 10
83.1276995386
 20
87.7458661887
  0
VERTEX
  8
SURFACE
 62
7
  6
CONTINUOUS
 10
83.1050936083
 20
87.7516573547
  0
VERTEX
  8
SURFACE
 62
7
  6
CONTINUOUS
 10
83.092117154
 20
87.7586267849
  0
VERTEX
  8
SURFACE
 62
7
  6
CONTINUOUS
 10
83.0890913894
 20
87.7639468689
  0
SEQEND
  0
POLYLINE
  8
SOLID
 62
7
  6
CONTINUOUS
 66
1
 70
0
  0
VERTEX
  8
SOLID
 62
7
  6
CONTINUOUS
 10
116.8399725032
 20
87.7382825129
  0
VERTEX
  8
SOLID
 62
7
  6
CONTINUOUS
 10
116.7969288685
 20
87.7389881659
  0
VERTEX
  8
SOLID
 62
7
  6
CONTINUOUS
 10
116.7588404658
 20
87.7415644915
  0
VERTEX
  8
SOLID
 62
7
  6
CONTINUOUS
 10
116.7276995386
 20
87.7458661887
  0
VERTEX
  8
SOLID
 62
7
  6
CONTINUOUS
 10
116.7050936083
 20
87.7516573547
  0
VERTEX
  8
SOLID
 62
7
  6
CONTINUOUS
 10
116.692117154
 20
87.7586267849
  0
VERTEX
  8
SOLID
 62
7
  6
CONTINUOUS
 10
116.6890913894
 20
87.7639468689
  0
SEQEND
  0
POLYLINE
  8
SOLID
 62
7
  6
CONTINUOUS
 66
1
 70
0
  0
VERTEX
  8
SOLID
 62
7
  6
CONTINUOUS
 10
133.6399725032
 20
87.7382825129
  0
VERTEX
  8
SOLID
 62
7
  6
CONTINUOUS
 10
133.5969288685
 20
87.7389881659
  0
VERTEX
  8
SOLID
 62
7
  6
CONTINUOUS
 10
133.5588404658
 20
87.7415644915
  0
VERTEX
  8
SOLID
 62
7
  6
CONTINUOUS
 10
133.5276995386
 20
87.7458661887
  0
VERTEX
  8
SOLID
 62
7
  6
CONTINUOUS
 10
133.5050936083
 20
87.7516573547
  0
VERTEX
  8
SOLID
 62
7
  6
CONTINUOUS
 10
133.492117154
 20
87.7586267849
  0
VERTEX
  8
SOLID
 62
7
  6
CONTINUOUS
 10
133.4890913894
 20
87.7639468689
  0
SEQEND
  0
POLYLINE
  8
SOLID
 62
7
  6
CONTINUOUS
 66
1
 70
0
  0
VERTEX
  8
SOLID
 62
7
  6
CONTINUOUS
 10
150.4399725032
 20
87.7382825129
  0
VERTEX
  8
SOLID
 62
7
  6
CONTINUOUS
 10
150.3969288685
 20
87.7389881659
  0
VERTEX
  8
SOLID
 62
7
  6
CONTINUOUS
 10
150.3588404658
 20
87.7415644915
  0
VERTEX
  8
SOLID
 62
7
  6
CONTINUOUS
 10
150.3276995386
 20
87.7458661887
  0
VERTEX
  8
SOLID
 62
7
  6
CONTINUOUS
 10
150.3050936083
 20
87.7516573547
  0
VERTEX
  8
SOLID
 62
7
  6
CONTINUOUS
 10
150.292117154
 20
87.7586267849
  0
VERTEX
  8
SOLID
 62
7
  6
CONTINUOUS
 10
150.2890913894
 20
87.7639468689
  0
SEQEND
  0
POLYLINE
  8
SOLID
 62
7
  6
CONTINUOUS
 66
1
 70
0
  0
VERTEX
  8
SOLID
 62
7
  6
CONTINUOUS
 10
167.2399725032
 20
87.7382825129
  0
VERTEX
  8
SOLID
 62
7
  6
CONTINUOUS
 10
167.1969288685
 20
87.7389881659
  0
VERTEX
  8
SOLID
 62
7
  6
CONTINUOUS
 10
167.1588404658
 20
87.7415644915
  0
VERTEX
  8
SOLID
 62
7
  6
CONTINUOUS
 10
167.1276995386
 20
87.7458661887
  0
VERTEX
  8
SOLID
 62
7
  6
CONTINUOUS
 10
167.1050936083
 20
87.7516573547
  0
VERTEX
  8
SOLID
 62
7
  6
CONTINUOUS
 10
167.092117154
 20
87.7586267849
  0
VERTEX
  8
SOLID
 62
7
  6
CONTINUOUS
 10
167.0890913894
 20
87.7639468689
  0
SEQEND
  0
POLYLINE
  8
SOLID
 62
7
  6
CONTINUOUS
 66
1
 70
0
  0
VERTEX
  8
SOLID
 62
7
  6
CONTINUOUS
 10
184.0399725032
 20
87.7382825129
  0
VERTEX
  8
SOLID
 62
7
  6
CONTINUOUS
 10
183.9969288685
 20
87.7389881659
  0
VERTEX
  8
SOLID
 62
7
  6
CONTINUOUS
 10
183.9588404658
 20
87.7415644915
  0
VERTEX
  8
SOLID
 62
7
  6
CONTINUOUS
 10
183.9276995386
 20
87.7458661887
  0
VERTEX
  8
SOLID
 62
7
  6
CONTINUOUS
 10
183.9050936083
 20
87.7516573547
  0
VERTEX
  8
SOLID
 62
7
  6
CONTINUOUS
 10
183.892117154
 20
87.7586267849
  0
VERTEX
  8
SOLID
 62
7
  6
CONTINUOUS
 10
183.8890913894
 20
87.7639468689
  0
SEQEND
  0
POLYLINE
  8
SOLID
 62
7
  6
CONTINUOUS
 66
1
 70
0
  0
VERTEX
  8
SOLID
 62
7
  6
CONTINUOUS
 10
200.8399725032
 20
87.7382825129
  0
VERTEX
  8
SOLID
 62
7
  6
CONTINUOUS
 10
200.7969288685
 20
87.7389881659
  0
VERTEX
  8
SOLID
 62
7
  6
CONTINUOUS
 10
200.7588404658
 20
87.7415644915
  0
VERTEX
  8
SOLID
 62
7
  6
CONTINUOUS
 10
200.7276995386
 20
87.7458661887
  0
VERTEX
  8
SOLID
 62
7
  6
CONTINUOUS
 10
200.7050936083
 20
87.7516573547
  0
VERTEX
  8
SOLID
 62
7
  6
CONTINUOUS
 10
200.692117154
 20
87.7586267849
  0
VERTEX
  8
SOLID
 62
7
  6
CONTINUOUS
 10
200.6890913894
 20
87.7639468689
  0
SEQEND
  0
POLYLINE
  8
SOLID
 62
7
  6
CONTINUOUS
 66
1
 70
0
  0
VERTEX
  8
SOLID
 62
7
  6
CONTINUOUS
 10
217.6399725032
 20
87.7382825129
  0
VERTEX
  8
SOLID
 62
7
  6
CONTINUOUS
 10
217.5969288685
 20
87.7389881659
  0
VERTEX
  8
SOLID
 62
7
  6
CONTINUOUS
 10
217.5588404658
 20
87.7415644915
  0
VERTEX
  8
SOLID
 62
7
  6
CONTINUOUS
 10
217.5276995386
 20
87.7458661887
  0
VERTEX
  8
SOLID
 62
7
  6
CONTINUOUS
 10
217.5050936083
 20
87.7516573547
  0
VERTEX
  8
SOLID
 62
7
  6
CONTINUOUS
 10
217.492117154
 20
87.7586267849
  0
VERTEX
  8
SOLID
 62
7
  6
CONTINUOUS
 10
217.4890913894
 20
87.7639468689
  0
SEQEND
  0
POLYLINE
  8
SOLID
 62
7
  6
CONTINUOUS
 66
1
 70
0
  0
VERTEX
  8
SOLID
 62
7
  6
CONTINUOUS
 10
234.4399725032
 20
87.7382825129
  0
VERTEX
  8
SOLID
 62
7
  6
CONTINUOUS
 10
234.3969288685
 20
87.7389881659
  0
VERTEX
  8
SOLID
 62
7
  6
CONTINUOUS
 10
234.3588404658
 20
87.7415644915
  0
VERTEX
  8
SOLID
 62
7
  6
CONTINUOUS
 10
234.3276995386
 20
87.7458661887
  0
VERTEX
  8
SOLID
 62
7
  6
CONTINUOUS
 10
234.3050936083
 20
87.7516573547
  0
VERTEX
  8
SOLID
 62
7
  6
CONTINUOUS
 10
234.292117154
 20
87.7586267849
  0
VERTEX
  8
SOLID
 62
7
  6
CONTINUOUS
 10
234.2890913894
 20
87.7639468689
  0
SEQEND
  0
POLYLINE
  8
SURFACE
 62
7
  6
CONTINUOUS
 66
1
 70
0
  0
VERTEX
  8
SURFACE
 62
7
  6
CONTINUOUS
 10
74.3187225331
 20
87.7395729814
  0
VERTEX
  8
SURFACE
 62
7
  6
CONTINUOUS
 10
74.3678088767
 20
87.7382825129
  0
VERTEX
  8
SURFACE
 62
7
  6
CONTINUOUS
 10
74.4108525114
 20
87.7389881659
  0
VERTEX
  8
SURFACE
 62
7
  6
CONTINUOUS
 10
74.4489409141
 20
87.7415644915
  0
VERTEX
  8
SURFACE
 62
7
  6
CONTINUOUS
 10
74.4800818413
 20
87.7458661887
  0
VERTEX
  8
SURFACE
 62
7
  6
CONTINUOUS
 10
74.5026877716
 20
87.7516573547
  0
VERTEX
  8
SURFACE
 62
7
  6
CONTINUOUS
 10
74.5156642259
 20
87.7586267849
  0
VERTEX
  8
SURFACE
 62
7
  6
CONTINUOUS
 10
74.5186899905
 20
87.7639468689
  0
SEQEND
  0
POLYLINE
  8
SURFACE
 62
7
  6
CONTINUOUS
 66
1
 70
0
  0
VERTEX
  8
SURFACE
 62
7
  6
CONTINUOUS
 10
91.1187225331
 20
87.7395729814
  0
VERTEX
  8
SURFACE
 62
7
  6
CONTINUOUS
 10
91.1678088767
 20
87.7382825129
  0
VERTEX
  8
SURFACE
 62
7
  6
CONTINUOUS
 10
91.2108525114
 20
87.7389881659
  0
VERTEX
  8
SURFACE
 62
7
  6
CONTINUOUS
 10
91.2489409141
 20
87.7415644915
  0
VERTEX
  8
SURFACE
 62
7
  6
CONTINUOUS
 10
91.2800818413
 20
87.7458661887
  0
VERTEX
  8
SURFACE
 62
7
  6
CONTINUOUS
 10
91.3026877716
 20
87.7516573547
  0
VERTEX
  8
SURFACE
 62
7
  6
CONTINUOUS
 10
91.3156642259
 20
87.7586267849
  0
VERTEX
  8
SURFACE
 62
7
  6
CONTINUOUS
 10
91.3186899905
 20
87.7639468689
  0
SEQEND
  0
POLYLINE
  8
SOLID
 62
7
  6
CONTINUOUS
 66
1
 70
0
  0
VERTEX
  8
SOLID
 62
7
  6
CONTINUOUS
 10
107.9187225331
 20
87.7395729814
  0
VERTEX
  8
SOLID
 62
7
  6
CONTINUOUS
 10
107.9678088767
 20
87.7382825129
  0
VERTEX
  8
SOLID
 62
7
  6
CONTINUOUS
 10
108.0108525114
 20
87.7389881659
  0
VERTEX
  8
SOLID
 62
7
  6
CONTINUOUS
 10
108.0489409141
 20
87.7415644915
  0
VERTEX
  8
SOLID
 62
7
  6
CONTINUOUS
 10
108.0800818413
 20
87.7458661887
  0
VERTEX
  8
SOLID
 62
7
  6
CONTINUOUS
 10
108.1026877716
 20
87.7516573547
  0
VERTEX
  8
SOLID
 62
7
  6
CONTINUOUS
 10
108.1156642259
 20
87.7586267849
  0
VERTEX
  8
SOLID
 62
7
  6
CONTINUOUS
 10
108.1186899905
 20
87.7639468689
  0
SEQEND
  0
POLYLINE
  8
SOLID
 62
7
  6
CONTINUOUS
 66
1
 70
0
  0
VERTEX
  8
SOLID
 62
7
  6
CONTINUOUS
 10
124.7187225331
 20
87.7395729814
  0
VERTEX
  8
SOLID
 62
7
  6
CONTINUOUS
 10
124.7678088767
 20
87.7382825129
  0
VERTEX
  8
SOLID
 62
7
  6
CONTINUOUS
 10
124.8108525114
 20
87.7389881659
  0
VERTEX
  8
SOLID
 62
7
  6
CONTINUOUS
 10
124.8489409141
 20
87.7415644915
  0
VERTEX
  8
SOLID
 62
7
  6
CONTINUOUS
 10
124.8800818413
 20
87.7458661887
  0
VERTEX
  8
SOLID
 62
7
  6
CONTINUOUS
 10
124.9026877716
 20
87.7516573547
  0
VERTEX
  8
SOLID
 62
7
  6
CONTINUOUS
 10
124.9156642259
 20
87.7586267849
  0
VERTEX
  8
SOLID
 62
7
  6
CONTINUOUS
 10
124.9186899905
 20
87.7639468689
  0
SEQEND
  0
POLYLINE
  8
SOLID
 62
7
  6
CONTINUOUS
 66
1
 70
0
  0
VERTEX
  8
SOLID
 62
7
  6
CONTINUOUS
 10
141.5187225331
 20
87.7395729814
  0
VERTEX
  8
SOLID
 62
7
  6
CONTINUOUS
 10
141.5678088767
 20
87.7382825129
  0
VERTEX
  8
SOLID
 62
7
  6
CONTINUOUS
 10
141.6108525114
 20
87.7389881659
  0
VERTEX
  8
SOLID
 62
7
  6
CONTINUOUS
 10
141.6489409141
 20
87.7415644915
  0
VERTEX
  8
SOLID
 62
7
  6
CONTINUOUS
 10
141.6800818413
 20
87.7458661887
  0
VERTEX
  8
SOLID
 62
7
  6
CONTINUOUS
 10
141.7026877716
 20
87.7516573547
  0
VERTEX
  8
SOLID
 62
7
  6
CONTINUOUS
 10
141.7156642259
 20
87.7586267849
  0
VERTEX
  8
SOLID
 62
7
  6
CONTINUOUS
 10
141.7186899905
 20
87.7639468689
  0
SEQEND
  0
POLYLINE
  8
SOLID
 62
7
  6
CONTINUOUS
 66
1
 70
0
  0
VERTEX
  8
SOLID
 62
7
  6
CONTINUOUS
 10
158.3187225331
 20
87.7395729814
  0
VERTEX
  8
SOLID
 62
7
  6
CONTINUOUS
 10
158.3678088767
 20
87.7382825129
  0
VERTEX
  8
SOLID
 62
7
  6
CONTINUOUS
 10
158.4108525114
 20
87.7389881659
  0
VERTEX
  8
SOLID
 62
7
  6
CONTINUOUS
 10
158.4489409141
 20
87.7415644915
  0
VERTEX
  8
SOLID
 62
7
  6
CONTINUOUS
 10
158.4800818413
 20
87.7458661887
  0
VERTEX
  8
SOLID
 62
7
  6
CONTINUOUS
 10
158.5026877716
 20
87.7516573547
  0
VERTEX
  8
SOLID
 62
7
  6
CONTINUOUS
 10
158.5156642259
 20
87.7586267849
  0
VERTEX
  8
SOLID
 62
7
  6
CONTINUOUS
 10
158.5186899905
 20
87.7639468689
  0
SEQEND
  0
POLYLINE
  8
SOLID
 62
7
  6
CONTINUOUS
 66
1
 70
0
  0
VERTEX
  8
SOLID
 62
7
  6
CONTINUOUS
 10
175.1187225331
 20
87.7395729814
  0
VERTEX
  8
SOLID
 62
7
  6
CONTINUOUS
 10
175.1678088767
 20
87.7382825129
  0
VERTEX
  8
SOLID
 62
7
  6
CONTINUOUS
 10
175.2108525114
 20
87.7389881659
  0
VERTEX
  8
SOLID
 62
7
  6
CONTINUOUS
 10
175.2489409141
 20
87.7415644915
  0
VERTEX
  8
SOLID
 62
7
  6
CONTINUOUS
 10
175.2800818413
 20
87.7458661887
  0
VERTEX
  8
SOLID
 62
7
  6
CONTINUOUS
 10
175.3026877716
 20
87.7516573547
  0
VERTEX
  8
SOLID
 62
7
  6
CONTINUOUS
 10
175.3156642259
 20
87.7586267849
  0
VERTEX
  8
SOLID
 62
7
  6
CONTINUOUS
 10
175.3186899905
 20
87.7639468689
  0
SEQEND
  0
POLYLINE
  8
SOLID
 62
7
  6
CONTINUOUS
 66
1
 70
0
  0
VERTEX
  8
SOLID
 62
7
  6
CONTINUOUS
 10
191.9187225331
 20
87.7395729814
  0
VERTEX
  8
SOLID
 62
7
  6
CONTINUOUS
 10
191.9678088767
 20
87.7382825129
  0
VERTEX
  8
SOLID
 62
7
  6
CONTINUOUS
 10
192.0108525114
 20
87.7389881659
  0
VERTEX
  8
SOLID
 62
7
  6
CONTINUOUS
 10
192.0489409141
 20
87.7415644915
  0
VERTEX
  8
SOLID
 62
7
  6
CONTINUOUS
 10
192.0800818413
 20
87.7458661887
  0
VERTEX
  8
SOLID
 62
7
  6
CONTINUOUS
 10
192.1026877716
 20
87.7516573547
  0
VERTEX
  8
SOLID
 62
7
  6
CONTINUOUS
 10
192.1156642259
 20
87.7586267849
  0
VERTEX
  8
SOLID
 62
7
  6
CONTINUOUS
 10
192.1186899905
 20
87.7639468689
  0
SEQEND
  0
POLYLINE
  8
SOLID
 62
7
  6
CONTINUOUS
 66
1
 70
0
  0
VERTEX
  8
SOLID
 62
7
  6
CONTINUOUS
 10
208.7187225331
 20
87.7395729814
  0
VERTEX
  8
SOLID
 62
7
  6
CONTINUOUS
 10
208.7678088767
 20
87.7382825129
  0
VERTEX
  8
SOLID
 62
7
  6
CONTINUOUS
 10
208.8108525114
 20
87.7389881659
  0
VERTEX
  8
SOLID
 62
7
  6
CONTINUOUS
 10
208.8489409141
 20
87.7415644915
  0
VERTEX
  8
SOLID
 62
7
  6
CONTINUOUS
 10
208.8800818413
 20
87.7458661887
  0
VERTEX
  8
SOLID
 62
7
  6
CONTINUOUS
 10
208.9026877716
 20
87.7516573547
  0
VERTEX
  8
SOLID
 62
7
  6
CONTINUOUS
 10
208.9156642259
 20
87.7586267849
  0
VERTEX
  8
SOLID
 62
7
  6
CONTINUOUS
 10
208.9186899905
 20
87.7639468689
  0
SEQEND
  0
POLYLINE
  8
SOLID
 62
7
  6
CONTINUOUS
 66
1
 70
0
  0
VERTEX
  8
SOLID
 62
7
  6
CONTINUOUS
 10
134.540024658
 20
83.3630874048
  0
VERTEX
  8
SOLID
 62
7
  6
CONTINUOUS
 10
134.5584960285
 20
83.2360915832
  0
VERTEX
  8
SOLID
 62
7
  6
CONTINUOUS
 10
134.5836684679
 20
83.0787053799
  0
VERTEX
  8
SOLID
 62
7
  6
CONTINUOUS
 10
134.6089592251
 20
82.9365271223
  0
VERTEX
  8
SOLID
 62
7
  6
CONTINUOUS
 10
134.6343452972
 20
82.8089238064
  0
VERTEX
  8
SOLID
 62
7
  6
CONTINUOUS
 10
134.6598379147
 20
82.6951620967
  0
VERTEX
  8
SOLID
 62
7
  6
CONTINUOUS
 10
134.685505345
 20
82.5943825029
  0
VERTEX
  8
SOLID
 62
7
  6
CONTINUOUS
 10
134.7115133312
 20
82.5055668372
  0
VERTEX
  8
SOLID
 62
7
  6
CONTINUOUS
 10
134.7381492645
 20
82.4276323759
  0
VERTEX
  8
SOLID
 62
7
  6
CONTINUOUS
 10
134.7659884295
 20
82.3592156251
  0
VERTEX
  8
SOLID
 62
7
  6
CONTINUOUS
 10
134.7961659515
 20
82.298608381
  0
VERTEX
  8
SOLID
 62
7
  6
CONTINUOUS
 10
134.8308974259
 20
82.2438400002
  0
VERTEX
  8
SOLID
 62
7
  6
CONTINUOUS
 10
134.874294816
 20
82.1933735177
  0
VERTEX
  8
SOLID
 62
7
  6
CONTINUOUS
 10
134.9326286508
 20
82.1485608229
  0
VERTEX
  8
SOLID
 62
7
  6
CONTINUOUS
 10
135.0097333714
 20
82.1179655127
  0
VERTEX
  8
SOLID
 62
7
  6
CONTINUOUS
 10
135.0654093499
 20
82.1118553854
  0
SEQEND
  0
POLYLINE
  8
SOLID
 62
7
  6
CONTINUOUS
 66
1
 70
0
  0
VERTEX
  8
SOLID
 62
7
  6
CONTINUOUS
 10
133.4890913712
 20
87.7639410763
  0
VERTEX
  8
SOLID
 62
7
  6
CONTINUOUS
 10
133.5446326444
 20
87.2759492789
  0
VERTEX
  8
SOLID
 62
7
  6
CONTINUOUS
 10
133.6166021256
 20
86.7483016989
  0
VERTEX
  8
SOLID
 62
7
  6
CONTINUOUS
 10
133.6993181546
 20
86.2371797878
  0
VERTEX
  8
SOLID
 62
7
  6
CONTINUOUS
 10
133.7925835186
 20
85.7449708504
  0
VERTEX
  8
SOLID
 62
7
  6
CONTINUOUS
 10
133.8961818024
 20
85.2740313836
  0
VERTEX
  8
SOLID
 62
7
  6
CONTINUOUS
 10
134.0098869928
 20
84.8266720339
  0
VERTEX
  8
SOLID
 62
7
  6
CONTINUOUS
 10
134.1334780076
 20
84.4051451002
  0
VERTEX
  8
SOLID
 62
7
  6
CONTINUOUS
 10
134.2667565759
 20
84.0116467166
  0
VERTEX
  8
SOLID
 62
7
  6
CONTINUOUS
 10
134.4095756141
 20
83.6483162099
  0
SEQEND
  0
LINE
  8
SOLID
 62
7
  6
CONTINUOUS
 10
133.3186899897
 20
144.2597617362
 11
133.3187225325
 21
144.2591279339
  0
POLYLINE
  8
SOLID
 62
7
  6
CONTINUOUS
 66
1
 70
0
  0
VERTEX
  8
SOLID
 62
7
  6
CONTINUOUS
 10
133.4953788084
 20
93.8898576164
  0
VERTEX
  8
SOLID
 62
7
  6
CONTINUOUS
 10
133.491592001
 20
93.5895124503
  0
VERTEX
  8
SOLID
 62
7
  6
CONTINUOUS
 10
133.4895407136
 20
93.3190547481
  0
VERTEX
  8
SOLID
 62
7
  6
CONTINUOUS
 10
133.4890588468
 20
87.7646251623
  0
SEQEND
  0
POLYLINE
  8
SOLID
 62
7
  6
CONTINUOUS
 66
1
 70
0
  0
VERTEX
  8
SOLID
 62
7
  6
CONTINUOUS
 10
133.3123575584
 20
138.1279545161
  0
VERTEX
  8
SOLID
 62
7
  6
CONTINUOUS
 10
133.3161540952
 20
138.4308433109
  0
VERTEX
  8
SOLID
 62
7
  6
CONTINUOUS
 10
133.3182269081
 20
138.7016673834
  0
VERTEX
  8
SOLID
 62
7
  6
CONTINUOUS
 10
133.3187225331
 20
144.2590834352
  0
SEQEND
  0
LINE
  8
SOLID
 62
7
  6
CONTINUOUS
 10
142.9586700416
 20
148.7887617871
 11
142.9400279173
 21
148.6606362158
  0
POLYLINE
  8
SURFACE
 62
7
  6
CONTINUOUS
 66
1
 70
0
  0
VERTEX
  8
SURFACE
 62
7
  6
CONTINUOUS
 10
89.742390563
 20
82.1118552727
  0
VERTEX
  8
SURFACE
 62
7
  6
CONTINUOUS
 10
89.8004358687
 20
82.1185100461
  0
VERTEX
  8
SURFACE
 62
7
  6
CONTINUOUS
 10
89.8768780211
 20
82.1495828189
  0
VERTEX
  8
SURFACE
 62
7
  6
CONTINUOUS
 10
89.9346243117
 20
82.1944845168
  0
VERTEX
  8
SURFACE
 62
7
  6
CONTINUOUS
 10
89.9776648314
 20
82.2449166423
  0
VERTEX
  8
SURFACE
 62
7
  6
CONTINUOUS
 10
90.0121938431
 20
82.2996486944
  0
VERTEX
  8
SURFACE
 62
7
  6
CONTINUOUS
 10
90.0422464063
 20
82.3602297083
  0
VERTEX
  8
SURFACE
 62
7
  6
CONTINUOUS
 10
90.0699977869
 20
82.4286172178
  0
VERTEX
  8
SURFACE
 62
7
  6
CONTINUOUS
 10
90.09656467
 20
82.5065072866
  0
VERTEX
  8
SURFACE
 62
7
  6
CONTINUOUS
 10
90.1225144652
 20
82.5952574612
  0
VERTEX
  8
SURFACE
 62
7
  6
CONTINUOUS
 10
90.1481310584
 20
82.6959485499
  0
VERTEX
  8
SURFACE
 62
7
  6
CONTINUOUS
 10
90.1735776657
 20
82.8095951046
  0
VERTEX
  8
SURFACE
 62
7
  6
CONTINUOUS
 10
90.1989219652
 20
82.9370581089
  0
VERTEX
  8
SURFACE
 62
7
  6
CONTINUOUS
 10
90.22417508
 20
83.0790741473
  0
VERTEX
  8
SURFACE
 62
7
  6
CONTINUOUS
 10
90.2493141608
 20
83.2362811865
  0
SEQEND
  0
POLYLINE
  8
SOLID
 62
7
  6
CONTINUOUS
 66
1
 70
0
  0
VERTEX
  8
SOLID
 62
7
  6
CONTINUOUS
 10
100.085704328
 20
87.739494647
  0
VERTEX
  8
SOLID
 62
7
  6
CONTINUOUS
 10
100.0399725032
 20
87.7382825129
  0
VERTEX
  8
SOLID
 62
7
  6
CONTINUOUS
 10
99.9969288685
 20
87.7389881659
  0
VERTEX
  8
SOLID
 62
7
  6
CONTINUOUS
 10
99.9588404658
 20
87.7415644915
  0
VERTEX
  8
SOLID
 62
7
  6
CONTINUOUS
 10
99.9276995386
 20
87.7458661887
  0
VERTEX
  8
SOLID
 62
7
  6
CONTINUOUS
 10
99.9050936083
 20
87.7516573547
  0
VERTEX
  8
SOLID
 62
7
  6
CONTINUOUS
 10
99.892117154
 20
87.7586267849
  0
VERTEX
  8
SOLID
 62
7
  6
CONTINUOUS
 10
99.8890913894
 20
87.7639468689
  0
SEQEND
  0
LINE
  8
SURFACE
 62
7
  6
CONTINUOUS
 10
83.2399725032
 20
87.7382825129
 11
83.2890588468
 21
87.7395729814
  0
LINE
  8
SOLID
 62
7
  6
CONTINUOUS
 10
242.973268577
 20
94.933333896
 11
242.8941568884
 21
94.9324217441
  0
LINE
  8
SOLID
 62
7
  6
CONTINUOUS
 10
226.173268577
 20
94.933333896
 11
226.0941568884
 21
94.9324217441
  0
LINE
  8
SOLID
 62
7
  6
CONTINUOUS
 10
209.373268577
 20
94.933333896
 11
209.2941568884
 21
94.9324217441
  0
LINE
  8
SOLID
 62
7
  6
CONTINUOUS
 10
192.573268577
 20
94.933333896
 11
192.4941568884
 21
94.9324217441
  0
LINE
  8
SOLID
 62
7
  6
CONTINUOUS
 10
175.773268577
 20
94.933333896
 11
175.6941568884
 21
94.9324217441
  0
LINE
  8
SOLID
 62
7
  6
CONTINUOUS
 10
158.973268577
 20
94.933333896
 11
158.8941568884
 21
94.9324217441
  0
LINE
  8
SOLID
 62
7
  6
CONTINUOUS
 10
142.173268577
 20
94.933333896
 11
142.0941568884
 21
94.9324217441
  0
LINE
  8
SOLID
 62
7
  6
CONTINUOUS
 10
125.373268577
 20
94.933333896
 11
125.2941568884
 21
94.9324217441
  0
LINE
  8
SOLID
 62
7
  6
CONTINUOUS
 10
108.573268577
 20
94.933333896
 11
108.4941568884
 21
94.9324217441
  0
LINE
  8
SURFACE
 62
7
  6
CONTINUOUS
 10
91.773268577
 20
94.933333896
 11
91.6941568884
 21
94.9324217441
  0
LINE
  8
SURFACE
 62
7
  6
CONTINUOUS
 10
74.973268577
 20
94.933333896
 11
74.8941568884
 21
94.9324217441
  0
LINE
  8
DEFAULT_1
 62
7
  6
CENTER
 10
64.3038905229
 20
90.6118543046
 11
252.9038909226
 21
90.6118543046
  0
LINE
  8
SOLID
 62
7
  6
CONTINUOUS
 10
250.70389069
 20
94.9332438894
 11
242.9732573113
 21
94.9332438894
  0
LINE
  8
SURFACE
 62
7
  6
CONTINUOUS
 10
82.7134638161
 20
94.9330119103
 11
74.9732573113
 21
94.9332438894
  0
LINE
  8
SOLID
 62
7
  6
CONTINUOUS
 10
99.5134638161
 20
94.9330119103
 11
91.7732573113
 21
94.9332438894
  0
LINE
  8
SOLID
 62
7
  6
CONTINUOUS
 10
116.3134638161
 20
94.9330119103
 11
108.5732573113
 21
94.9332438894
  0
LINE
  8
SOLID
 62
7
  6
CONTINUOUS
 10
133.1134638161
 20
94.9330119103
 11
125.3732573113
 21
94.9332438894
  0
LINE
  8
SOLID
 62
7
  6
CONTINUOUS
 10
149.9134638161
 20
94.9330119103
 11
142.1732573113
 21
94.9332438894
  0
LINE
  8
SOLID
 62
7
  6
CONTINUOUS
 10
166.7134638161
 20
94.9330119103
 11
158.9732573113
 21
94.9332438894
  0
LINE
  8
SOLID
 62
7
  6
CONTINUOUS
 10
183.5134638161
 20
94.9330119103
 11
175.7732573113
 21
94.9332438894
  0
LINE
  8
SOLID
 62
7
  6
CONTINUOUS
 10
200.3134638161
 20
94.9330119103
 11
192.5732573113
 21
94.9332438894
  0
LINE
  8
SOLID
 62
7
  6
CONTINUOUS
 10
217.1134638161
 20
94.9330119103
 11
209.3732573113
 21
94.9332438894
  0
LINE
  8
SOLID
 62
7
  6
CONTINUOUS
 10
233.9134638161
 20
94.9330119103
 11
226.1732573113
 21
94.9332438894
  0
POLYLINE
  8
SOLID
 62
7
  6
CONTINUOUS
 66
1
 70
0
  0
VERTEX
  8
SOLID
 62
7
  6
CONTINUOUS
 10
225.5187225331
 20
87.7395729814
  0
VERTEX
  8
SOLID
 62
7
  6
CONTINUOUS
 10
225.5678088767
 20
87.7382825129
  0
VERTEX
  8
SOLID
 62
7
  6
CONTINUOUS
 10
225.6108525114
 20
87.7389881659
  0
VERTEX
  8
SOLID
 62
7
  6
CONTINUOUS
 10
225.6489409141
 20
87.7415644915
  0
VERTEX
  8
SOLID
 62
7
  6
CONTINUOUS
 10
225.6800818413
 20
87.7458661887
  0
VERTEX
  8
SOLID
 62
7
  6
CONTINUOUS
 10
225.7026877716
 20
87.7516573547
  0
VERTEX
  8
SOLID
 62
7
  6
CONTINUOUS
 10
225.7156642259
 20
87.7586267849
  0
VERTEX
  8
SOLID
 62
7
  6
CONTINUOUS
 10
225.7186899905
 20
87.7639468689
  0
SEQEND
  0
POLYLINE
  8
SOLID
 62
7
  6
CONTINUOUS
 66
1
 70
0
  0
VERTEX
  8
SOLID
 62
7
  6
CONTINUOUS
 10
242.3187225331
 20
87.7395729814
  0
VERTEX
  8
SOLID
 62
7
  6
CONTINUOUS
 10
242.3678088767
 20
87.7382825129
  0
VERTEX
  8
SOLID
 62
7
  6
CONTINUOUS
 10
242.4108525114
 20
87.7389881659
  0
VERTEX
  8
SOLID
 62
7
  6
CONTINUOUS
 10
242.4489409141
 20
87.7415644915
  0
VERTEX
  8
SOLID
 62
7
  6
CONTINUOUS
 10
242.4800818413
 20
87.7458661887
  0
VERTEX
  8
SOLID
 62
7
  6
CONTINUOUS
 10
242.5026877716
 20
87.7516573547
  0
VERTEX
  8
SOLID
 62
7
  6
CONTINUOUS
 10
242.5156642259
 20
87.7586267849
  0
VERTEX
  8
SOLID
 62
7
  6
CONTINUOUS
 10
242.5186899905
 20
87.7639468689
  0
SEQEND
  0
POLYLINE
  8
SURFACE
 62
7
  6
CONTINUOUS
 66
1
 70
0
  0
VERTEX
  8
SURFACE
 62
7
  6
CONTINUOUS
 10
82.7134613505
 20
94.9330428499
  0
VERTEX
  8
SURFACE
 62
7
  6
CONTINUOUS
 10
82.7336891826
 20
94.9317011144
  0
VERTEX
  8
SURFACE
 62
7
  6
CONTINUOUS
 10
82.7687651159
 20
94.9235764455
  0
VERTEX
  8
SURFACE
 62
7
  6
CONTINUOUS
 10
82.8038248488
 20
94.908446276
  0
VERTEX
  8
SURFACE
 62
7
  6
CONTINUOUS
 10
82.8373387001
 20
94.8874071061
  0
VERTEX
  8
SURFACE
 62
7
  6
CONTINUOUS
 10
82.8688910603
 20
94.8613006075
  0
VERTEX
  8
SURFACE
 62
7
  6
CONTINUOUS
 10
82.8980722626
 20
94.8310169972
  0
VERTEX
  8
SURFACE
 62
7
  6
CONTINUOUS
 10
82.9246870679
 20
94.7973258936
  0
VERTEX
  8
SURFACE
 62
7
  6
CONTINUOUS
 10
82.9488019917
 20
94.7606685304
  0
VERTEX
  8
SURFACE
 62
7
  6
CONTINUOUS
 10
82.9704534908
 20
94.7214694635
  0
VERTEX
  8
SURFACE
 62
7
  6
CONTINUOUS
 10
82.9895967049
 20
94.6802727912
  0
VERTEX
  8
SURFACE
 62
7
  6
CONTINUOUS
 10
83.0064876216
 20
94.6369331373
  0
VERTEX
  8
SURFACE
 62
7
  6
CONTINUOUS
 10
83.0213548023
 20
94.5915610994
  0
VERTEX
  8
SURFACE
 62
7
  6
CONTINUOUS
 10
83.0344643214
 20
94.5438153353
  0
VERTEX
  8
SURFACE
 62
7
  6
CONTINUOUS
 10
83.0463183912
 20
94.4934226611
  0
VERTEX
  8
SURFACE
 62
7
  6
CONTINUOUS
 10
83.0567312188
 20
94.4416383345
  0
VERTEX
  8
SURFACE
 62
7
  6
CONTINUOUS
 10
83.0658401733
 20
94.3878015601
  0
VERTEX
  8
SURFACE
 62
7
  6
CONTINUOUS
 10
83.0736836545
 20
94.3319300829
  0
VERTEX
  8
SURFACE
 62
7
  6
CONTINUOUS
 10
83.0802584826
 20
94.2740433169
  0
VERTEX
  8
SURFACE
 62
7
  6
CONTINUOUS
 10
83.0855983257
 20
94.2142488549
  0
VERTEX
  8
SURFACE
 62
7
  6
CONTINUOUS
 10
83.0897359152
 20
94.152682645
  0
VERTEX
  8
SURFACE
 62
7
  6
CONTINUOUS
 10
83.0927192729
 20
94.089391498
  0
VERTEX
  8
SURFACE
 62
7
  6
CONTINUOUS
 10
83.0946134805
 20
94.0244413441
  0
VERTEX
  8
SURFACE
 62
7
  6
CONTINUOUS
 10
83.0954807559
 20
93.957911993
  0
VERTEX
  8
SURFACE
 62
7
  6
CONTINUOUS
 10
83.0953788084
 20
93.8898576164
  0
SEQEND
  0
POLYLINE
  8
SOLID
 62
7
  6
CONTINUOUS
 66
1
 70
0
  0
VERTEX
  8
SOLID
 62
7
  6
CONTINUOUS
 10
99.5134613505
 20
94.9330428499
  0
VERTEX
  8
SOLID
 62
7
  6
CONTINUOUS
 10
99.5336891826
 20
94.9317011144
  0
VERTEX
  8
SOLID
 62
7
  6
CONTINUOUS
 10
99.5687651159
 20
94.9235764455
  0
VERTEX
  8
SOLID
 62
7
  6
CONTINUOUS
 10
99.6038248488
 20
94.908446276
  0
VERTEX
  8
SOLID
 62
7
  6
CONTINUOUS
 10
99.6373387001
 20
94.8874071061
  0
VERTEX
  8
SOLID
 62
7
  6
CONTINUOUS
 10
99.6688910603
 20
94.8613006075
  0
VERTEX
  8
SOLID
 62
7
  6
CONTINUOUS
 10
99.6980722626
 20
94.8310169972
  0
VERTEX
  8
SOLID
 62
7
  6
CONTINUOUS
 10
99.7246870679
 20
94.7973258936
  0
VERTEX
  8
SOLID
 62
7
  6
CONTINUOUS
 10
99.7488019917
 20
94.7606685304
  0
VERTEX
  8
SOLID
 62
7
  6
CONTINUOUS
 10
99.7704534908
 20
94.7214694635
  0
VERTEX
  8
SOLID
 62
7
  6
CONTINUOUS
 10
99.7895967049
 20
94.6802727912
  0
VERTEX
  8
SOLID
 62
7
  6
CONTINUOUS
 10
99.8064876216
 20
94.6369331373
  0
VERTEX
  8
SOLID
 62
7
  6
CONTINUOUS
 10
99.8213548023
 20
94.5915610994
  0
VERTEX
  8
SOLID
 62
7
  6
CONTINUOUS
 10
99.8344643214
 20
94.5438153353
  0
VERTEX
  8
SOLID
 62
7
  6
CONTINUOUS
 10
99.8463183912
 20
94.4934226611
  0
VERTEX
  8
SOLID
 62
7
  6
CONTINUOUS
 10
99.8567312188
 20
94.4416383345
  0
VERTEX
  8
SOLID
 62
7
  6
CONTINUOUS
 10
99.8658401733
 20
94.3878015601
  0
VERTEX
  8
SOLID
 62
7
  6
CONTINUOUS
 10
99.8736836545
 20
94.3319300829
  0
VERTEX
  8
SOLID
 62
7
  6
CONTINUOUS
 10
99.8802584826
 20
94.2740433169
  0
VERTEX
  8
SOLID
 62
7
  6
CONTINUOUS
 10
99.8855983257
 20
94.2142488549
  0
VERTEX
  8
SOLID
 62
7
  6
CONTINUOUS
 10
99.8897359152
 20
94.152682645
  0
VERTEX
  8
SOLID
 62
7
  6
CONTINUOUS
 10
99.8927192729
 20
94.089391498
  0
VERTEX
  8
SOLID
 62
7
  6
CONTINUOUS
 10
99.8946134805
 20
94.0244413441
  0
VERTEX
  8
SOLID
 62
7
  6
CONTINUOUS
 10
99.8954807559
 20
93.957911993
  0
VERTEX
  8
SOLID
 62
7
  6
CONTINUOUS
 10
99.8953788084
 20
93.8898576164
  0
SEQEND
  0
POLYLINE
  8
SOLID
 62
7
  6
CONTINUOUS
 66
1
 70
0
  0
VERTEX
  8
SOLID
 62
7
  6
CONTINUOUS
 10
116.3134613505
 20
94.9330428499
  0
VERTEX
  8
SOLID
 62
7
  6
CONTINUOUS
 10
116.3336891826
 20
94.9317011144
  0
VERTEX
  8
SOLID
 62
7
  6
CONTINUOUS
 10
116.3687651159
 20
94.9235764455
  0
VERTEX
  8
SOLID
 62
7
  6
CONTINUOUS
 10
116.4038248488
 20
94.908446276
  0
VERTEX
  8
SOLID
 62
7
  6
CONTINUOUS
 10
116.4373387001
 20
94.8874071061
  0
VERTEX
  8
SOLID
 62
7
  6
CONTINUOUS
 10
116.4688910603
 20
94.8613006075
  0
VERTEX
  8
SOLID
 62
7
  6
CONTINUOUS
 10
116.4980722626
 20
94.8310169972
  0
VERTEX
  8
SOLID
 62
7
  6
CONTINUOUS
 10
116.5246870679
 20
94.7973258936
  0
VERTEX
  8
SOLID
 62
7
  6
CONTINUOUS
 10
116.5488019917
 20
94.7606685304
  0
VERTEX
  8
SOLID
 62
7
  6
CONTINUOUS
 10
116.5704534908
 20
94.7214694635
  0
VERTEX
  8
SOLID
 62
7
  6
CONTINUOUS
 10
116.5895967049
 20
94.6802727912
  0
VERTEX
  8
SOLID
 62
7
  6
CONTINUOUS
 10
116.6064876216
 20
94.6369331373
  0
VERTEX
  8
SOLID
 62
7
  6
CONTINUOUS
 10
116.6213548023
 20
94.5915610994
  0
VERTEX
  8
SOLID
 62
7
  6
CONTINUOUS
 10
116.6344643214
 20
94.5438153353
  0
VERTEX
  8
SOLID
 62
7
  6
CONTINUOUS
 10
116.6463183912
 20
94.4934226611
  0
VERTEX
  8
SOLID
 62
7
  6
CONTINUOUS
 10
116.6567312188
 20
94.4416383345
  0
VERTEX
  8
SOLID
 62
7
  6
CONTINUOUS
 10
116.6658401733
 20
94.3878015601
  0
VERTEX
  8
SOLID
 62
7
  6
CONTINUOUS
 10
116.6736836545
 20
94.3319300829
  0
VERTEX
  8
SOLID
 62
7
  6
CONTINUOUS
 10
116.6802584826
 20
94.2740433169
  0
VERTEX
  8
SOLID
 62
7
  6
CONTINUOUS
 10
116.6855983257
 20
94.2142488549
  0
VERTEX
  8
SOLID
 62
7
  6
CONTINUOUS
 10
116.6897359152
 20
94.152682645
  0
VERTEX
  8
SOLID
 62
7
  6
CONTINUOUS
 10
116.6927192729
 20
94.089391498
  0
VERTEX
  8
SOLID
 62
7
  6
CONTINUOUS
 10
116.6946134805
 20
94.0244413441
  0
VERTEX
  8
SOLID
 62
7
  6
CONTINUOUS
 10
116.6954807559
 20
93.957911993
  0
VERTEX
  8
SOLID
 62
7
  6
CONTINUOUS
 10
116.6953788084
 20
93.8898576164
  0
SEQEND
  0
POLYLINE
  8
SOLID
 62
7
  6
CONTINUOUS
 66
1
 70
0
  0
VERTEX
  8
SOLID
 62
7
  6
CONTINUOUS
 10
133.1134613505
 20
94.9330428499
  0
VERTEX
  8
SOLID
 62
7
  6
CONTINUOUS
 10
133.1336891826
 20
94.9317011144
  0
VERTEX
  8
SOLID
 62
7
  6
CONTINUOUS
 10
133.1687651159
 20
94.9235764455
  0
VERTEX
  8
SOLID
 62
7
  6
CONTINUOUS
 10
133.2038248488
 20
94.908446276
  0
VERTEX
  8
SOLID
 62
7
  6
CONTINUOUS
 10
133.2373387001
 20
94.8874071061
  0
VERTEX
  8
SOLID
 62
7
  6
CONTINUOUS
 10
133.2688910603
 20
94.8613006075
  0
VERTEX
  8
SOLID
 62
7
  6
CONTINUOUS
 10
133.2980722626
 20
94.8310169972
  0
VERTEX
  8
SOLID
 62
7
  6
CONTINUOUS
 10
133.3246870679
 20
94.7973258936
  0
VERTEX
  8
SOLID
 62
7
  6
CONTINUOUS
 10
133.3488019917
 20
94.7606685304
  0
VERTEX
  8
SOLID
 62
7
  6
CONTINUOUS
 10
133.3704534908
 20
94.7214694635
  0
VERTEX
  8
SOLID
 62
7
  6
CONTINUOUS
 10
133.3895967049
 20
94.6802727912
  0
VERTEX
  8
SOLID
 62
7
  6
CONTINUOUS
 10
133.4064876216
 20
94.6369331373
  0
VERTEX
  8
SOLID
 62
7
  6
CONTINUOUS
 10
133.4213548023
 20
94.5915610994
  0
VERTEX
  8
SOLID
 62
7
  6
CONTINUOUS
 10
133.4344643214
 20
94.5438153353
  0
VERTEX
  8
SOLID
 62
7
  6
CONTINUOUS
 10
133.4463183912
 20
94.4934226611
  0
VERTEX
  8
SOLID
 62
7
  6
CONTINUOUS
 10
133.4567312188
 20
94.4416383345
  0
VERTEX
  8
SOLID
 62
7
  6
CONTINUOUS
 10
133.4658401733
 20
94.3878015601
  0
VERTEX
  8
SOLID
 62
7
  6
CONTINUOUS
 10
133.4736836545
 20
94.3319300829
  0
VERTEX
  8
SOLID
 62
7
  6
CONTINUOUS
 10
133.4802584826
 20
94.2740433169
  0
VERTEX
  8
SOLID
 62
7
  6
CONTINUOUS
 10
133.4855983257
 20
94.2142488549
  0
VERTEX
  8
SOLID
 62
7
  6
CONTINUOUS
 10
133.4897359152
 20
94.152682645
  0
VERTEX
  8
SOLID
 62
7
  6
CONTINUOUS
 10
133.4927192729
 20
94.089391498
  0
VERTEX
  8
SOLID
 62
7
  6
CONTINUOUS
 10
133.4946134805
 20
94.0244413441
  0
VERTEX
  8
SOLID
 62
7
  6
CONTINUOUS
 10
133.4954807559
 20
93.957911993
  0
VERTEX
  8
SOLID
 62
7
  6
CONTINUOUS
 10
133.4953788084
 20
93.8898576164
  0
SEQEND
  0
POLYLINE
  8
SOLID
 62
7
  6
CONTINUOUS
 66
1
 70
0
  0
VERTEX
  8
SOLID
 62
7
  6
CONTINUOUS
 10
149.9134613505
 20
94.9330428499
  0
VERTEX
  8
SOLID
 62
7
  6
CONTINUOUS
 10
149.9336891826
 20
94.9317011144
  0
VERTEX
  8
SOLID
 62
7
  6
CONTINUOUS
 10
149.9687651159
 20
94.9235764455
  0
VERTEX
  8
SOLID
 62
7
  6
CONTINUOUS
 10
150.0038248488
 20
94.908446276
  0
VERTEX
  8
SOLID
 62
7
  6
CONTINUOUS
 10
150.0373387001
 20
94.8874071061
  0
VERTEX
  8
SOLID
 62
7
  6
CONTINUOUS
 10
150.0688910603
 20
94.8613006075
  0
VERTEX
  8
SOLID
 62
7
  6
CONTINUOUS
 10
150.0980722626
 20
94.8310169972
  0
VERTEX
  8
SOLID
 62
7
  6
CONTINUOUS
 10
150.1246870679
 20
94.7973258936
  0
VERTEX
  8
SOLID
 62
7
  6
CONTINUOUS
 10
150.1488019917
 20
94.7606685304
  0
VERTEX
  8
SOLID
 62
7
  6
CONTINUOUS
 10
150.1704534908
 20
94.7214694635
  0
VERTEX
  8
SOLID
 62
7
  6
CONTINUOUS
 10
150.1895967049
 20
94.6802727912
  0
VERTEX
  8
SOLID
 62
7
  6
CONTINUOUS
 10
150.2064876216
 20
94.6369331373
  0
VERTEX
  8
SOLID
 62
7
  6
CONTINUOUS
 10
150.2213548023
 20
94.5915610994
  0
VERTEX
  8
SOLID
 62
7
  6
CONTINUOUS
 10
150.2344643214
 20
94.5438153353
  0
VERTEX
  8
SOLID
 62
7
  6
CONTINUOUS
 10
150.2463183912
 20
94.4934226611
  0
VERTEX
  8
SOLID
 62
7
  6
CONTINUOUS
 10
150.2567312188
 20
94.4416383345
  0
VERTEX
  8
SOLID
 62
7
  6
CONTINUOUS
 10
150.2658401733
 20
94.3878015601
  0
VERTEX
  8
SOLID
 62
7
  6
CONTINUOUS
 10
150.2736836545
 20
94.3319300829
  0
VERTEX
  8
SOLID
 62
7
  6
CONTINUOUS
 10
150.2802584826
 20
94.2740433169
  0
VERTEX
  8
SOLID
 62
7
  6
CONTINUOUS
 10
150.2855983257
 20
94.2142488549
  0
VERTEX
  8
SOLID
 62
7
  6
CONTINUOUS
 10
150.2897359152
 20
94.152682645
  0
VERTEX
  8
SOLID
 62
7
  6
CONTINUOUS
 10
150.2927192729
 20
94.089391498
  0
VERTEX
  8
SOLID
 62
7
  6
CONTINUOUS
 10
150.2946134805
 20
94.0244413441
  0
VERTEX
  8
SOLID
 62
7
  6
CONTINUOUS
 10
150.2954807559
 20
93.957911993
  0
VERTEX
  8
SOLID
 62
7
  6
CONTINUOUS
 10
150.2953788084
 20
93.8898576164
  0
SEQEND
  0
POLYLINE
  8
SOLID
 62
7
  6
CONTINUOUS
 66
1
 70
0
  0
VERTEX
  8
SOLID
 62
7
  6
CONTINUOUS
 10
166.7134613505
 20
94.9330428499
  0
VERTEX
  8
SOLID
 62
7
  6
CONTINUOUS
 10
166.7336891826
 20
94.9317011144
  0
VERTEX
  8
SOLID
 62
7
  6
CONTINUOUS
 10
166.7687651159
 20
94.9235764455
  0
VERTEX
  8
SOLID
 62
7
  6
CONTINUOUS
 10
166.8038248488
 20
94.908446276
  0
VERTEX
  8
SOLID
 62
7
  6
CONTINUOUS
 10
166.8373387001
 20
94.8874071061
  0
VERTEX
  8
SOLID
 62
7
  6
CONTINUOUS
 10
166.8688910603
 20
94.8613006075
  0
VERTEX
  8
SOLID
 62
7
  6
CONTINUOUS
 10
166.8980722626
 20
94.8310169972
  0
VERTEX
  8
SOLID
 62
7
  6
CONTINUOUS
 10
166.9246870679
 20
94.7973258936
  0
VERTEX
  8
SOLID
 62
7
  6
CONTINUOUS
 10
166.9488019917
 20
94.7606685304
  0
VERTEX
  8
SOLID
 62
7
  6
CONTINUOUS
 10
166.9704534908
 20
94.7214694635
  0
VERTEX
  8
SOLID
 62
7
  6
CONTINUOUS
 10
166.9895967049
 20
94.6802727912
  0
VERTEX
  8
SOLID
 62
7
  6
CONTINUOUS
 10
167.0064876216
 20
94.6369331373
  0
VERTEX
  8
SOLID
 62
7
  6
CONTINUOUS
 10
167.0213548023
 20
94.5915610994
  0
VERTEX
  8
SOLID
 62
7
  6
CONTINUOUS
 10
167.0344643214
 20
94.5438153353
  0
VERTEX
  8
SOLID
 62
7
  6
CONTINUOUS
 10
167.0463183912
 20
94.4934226611
  0
VERTEX
  8
SOLID
 62
7
  6
CONTINUOUS
 10
167.0567312188
 20
94.4416383345
  0
VERTEX
  8
SOLID
 62
7
  6
CONTINUOUS
 10
167.0658401733
 20
94.3878015601
  0
VERTEX
  8
SOLID
 62
7
  6
CONTINUOUS
 10
167.0736836545
 20
94.3319300829
  0
VERTEX
  8
SOLID
 62
7
  6
CONTINUOUS
 10
167.0802584826
 20
94.2740433169
  0
VERTEX
  8
SOLID
 62
7
  6
CONTINUOUS
 10
167.0855983257
 20
94.2142488549
  0
VERTEX
  8
SOLID
 62
7
  6
CONTINUOUS
 10
167.0897359152
 20
94.152682645
  0
VERTEX
  8
SOLID
 62
7
  6
CONTINUOUS
 10
167.0927192729
 20
94.089391498
  0
VERTEX
  8
SOLID
 62
7
  6
CONTINUOUS
 10
167.0946134805
 20
94.0244413441
  0
VERTEX
  8
SOLID
 62
7
  6
CONTINUOUS
 10
167.0954807559
 20
93.957911993
  0
VERTEX
  8
SOLID
 62
7
  6
CONTINUOUS
 10
167.0953788084
 20
93.8898576164
  0
SEQEND
  0
LINE
  8
SOLID
 62
7
  6
CONTINUOUS
 10
115.5975827401
 20
148.3768593094
 11
115.4571192197
 21
148.683880222
  0
LINE
  8
SOLID
 62
7
  6
CONTINUOUS
 10
151.2095756141
 20
83.6483162099
 11
151.3506619025
 21
83.3398289091
  0
POLYLINE
  8
SOLID
 62
7
  6
CONTINUOUS
 66
1
 70
0
  0
VERTEX
  8
SOLID
 62
7
  6
CONTINUOUS
 10
132.2677537241
 20
148.6606356441
  0
VERTEX
  8
SOLID
 62
7
  6
CONTINUOUS
 10
132.2491401552
 20
148.7885722681
  0
VERTEX
  8
SOLID
 62
7
  6
CONTINUOUS
 10
132.2240107266
 20
148.9456091623
  0
VERTEX
  8
SOLID
 62
7
  6
CONTINUOUS
 10
132.1987678692
 20
149.0874701852
  0
VERTEX
  8
SOLID
 62
7
  6
CONTINUOUS
 10
132.1734342396
 20
149.2147935393
  0
VERTEX
  8
SOLID
 62
7
  6
CONTINUOUS
 10
132.1479984952
 20
149.3283158844
  0
VERTEX
  8
SOLID
 62
7
  6
CONTINUOUS
 10
132.1223926893
 20
149.428898165
  0
VERTEX
  8
SOLID
 62
7
  6
CONTINUOUS
 10
132.0964532966
 20
149.5175546289
  0
VERTEX
  8
SOLID
 62
7
  6
CONTINUOUS
 10
132.069895978
 20
149.5953658193
  0
VERTEX
  8
SOLID
 62
7
  6
CONTINUOUS
 10
132.0421526808
 20
149.6636887645
  0
VERTEX
  8
SOLID
 62
7
  6
CONTINUOUS
 10
132.0121058835
 20
149.7242184067
  0
VERTEX
  8
SOLID
 62
7
  6
CONTINUOUS
 10
131.9775796512
 20
149.7789097345
  0
VERTEX
  8
SOLID
 62
7
  6
CONTINUOUS
 10
131.9345399815
 20
149.829306787
  0
VERTEX
  8
SOLID
 62
7
  6
CONTINUOUS
 10
131.876797094
 20
149.8741740777
  0
VERTEX
  8
SOLID
 62
7
  6
CONTINUOUS
 10
131.800389558
 20
149.9052094398
  0
VERTEX
  8
SOLID
 62
7
  6
CONTINUOUS
 10
131.7423900697
 20
149.9118533308
  0
SEQEND
  0
POLYLINE
  8
SOLID
 62
7
  6
CONTINUOUS
 66
1
 70
0
  0
VERTEX
  8
SOLID
 62
7
  6
CONTINUOUS
 10
133.3186900079
 20
144.2597675285
  0
VERTEX
  8
SOLID
 62
7
  6
CONTINUOUS
 10
133.2628490147
 20
144.7501687604
  0
VERTEX
  8
SOLID
 62
7
  6
CONTINUOUS
 10
133.1908326661
 20
145.2777343408
  0
VERTEX
  8
SOLID
 62
7
  6
CONTINUOUS
 10
133.108071912
 20
145.7887599373
  0
VERTEX
  8
SOLID
 62
7
  6
CONTINUOUS
 10
133.0147639044
 20
146.2808610911
  0
VERTEX
  8
SOLID
 62
7
  6
CONTINUOUS
 10
132.9111247788
 20
146.7516840007
  0
VERTEX
  8
SOLID
 62
7
  6
CONTINUOUS
 10
132.7973802052
 20
147.1989197682
  0
VERTEX
  8
SOLID
 62
7
  6
CONTINUOUS
 10
132.6737512714
 20
147.6203158783
  0
VERTEX
  8
SOLID
 62
7
  6
CONTINUOUS
 10
132.5404363971
 20
148.0136755874
  0
VERTEX
  8
SOLID
 62
7
  6
CONTINUOUS
 10
132.3975827401
 20
148.3768593094
  0
SEQEND
  0
POLYLINE
  8
SOLID
 62
7
  6
CONTINUOUS
 66
1
 70
0
  0
VERTEX
  8
SOLID
 62
7
  6
CONTINUOUS
 10
141.7161609239
 20
93.5921789486
  0
VERTEX
  8
SOLID
 62
7
  6
CONTINUOUS
 10
141.7123788305
 20
93.8927358079
  0
VERTEX
  8
SOLID
 62
7
  6
CONTINUOUS
 10
141.7123161784
 20
93.9607213248
  0
VERTEX
  8
SOLID
 62
7
  6
CONTINUOUS
 10
141.7132248177
 20
94.0271748232
  0
VERTEX
  8
SOLID
 62
7
  6
CONTINUOUS
 10
141.7151623316
 20
94.0920420164
  0
VERTEX
  8
SOLID
 62
7
  6
CONTINUOUS
 10
141.718190913
 20
94.1552425486
  0
VERTEX
  8
SOLID
 62
7
  6
CONTINUOUS
 10
141.7223751214
 20
94.2167132065
  0
VERTEX
  8
SOLID
 62
7
  6
CONTINUOUS
 10
141.7277616292
 20
94.2764055665
  0
VERTEX
  8
SOLID
 62
7
  6
CONTINUOUS
 10
141.7343829335
 20
94.3341819516
  0
VERTEX
  8
SOLID
 62
7
  6
CONTINUOUS
 10
141.7422719374
 20
94.3899417591
  0
VERTEX
  8
SOLID
 62
7
  6
CONTINUOUS
 10
141.7514227016
 20
94.4436568413
  0
VERTEX
  8
SOLID
 62
7
  6
CONTINUOUS
 10
141.7618801666
 20
94.4953342888
  0
VERTEX
  8
SOLID
 62
7
  6
CONTINUOUS
 10
141.7737769529
 20
94.545628915
  0
VERTEX
  8
SOLID
 62
7
  6
CONTINUOUS
 10
141.7869236972
 20
94.5932171418
  0
VERTEX
  8
SOLID
 62
7
  6
CONTINUOUS
 10
141.801846345
 20
94.6384807301
  0
VERTEX
  8
SOLID
 62
7
  6
CONTINUOUS
 10
141.818791393
 20
94.6816964641
  0
VERTEX
  8
SOLID
 62
7
  6
CONTINUOUS
 10
141.838001213
 20
94.7227967064
  0
VERTEX
  8
SOLID
 62
7
  6
CONTINUOUS
 10
141.859716051
 20
94.7618901782
  0
VERTEX
  8
SOLID
 62
7
  6
CONTINUOUS
 10
141.8838948808
 20
94.7984365816
  0
VERTEX
  8
SOLID
 62
7
  6
CONTINUOUS
 10
141.9105743369
 20
94.8320098775
  0
VERTEX
  8
SOLID
 62
7
  6
CONTINUOUS
 10
141.9398211627
 20
94.8621654799
  0
VERTEX
  8
SOLID
 62
7
  6
CONTINUOUS
 10
141.9714376914
 20
94.8881283199
  0
VERTEX
  8
SOLID
 62
7
  6
CONTINUOUS
 10
142.0050091545
 20
94.90900194
  0
VERTEX
  8
SOLID
 62
7
  6
CONTINUOUS
 10
142.0401097468
 20
94.9239369657
  0
VERTEX
  8
SOLID
 62
7
  6
CONTINUOUS
 10
142.0751850992
 20
94.9318379909
  0
VERTEX
  8
SOLID
 62
7
  6
CONTINUOUS
 10
142.0941458236
 20
94.9330422568
  0
SEQEND
  0
POLYLINE
  8
SOLID
 62
7
  6
CONTINUOUS
 66
1
 70
0
  0
VERTEX
  8
SOLID
 62
7
  6
CONTINUOUS
 10
141.8915993941
 20
138.4334886435
  0
VERTEX
  8
SOLID
 62
7
  6
CONTINUOUS
 10
141.895387388
 20
138.132752398
  0
VERTEX
  8
SOLID
 62
7
  6
CONTINUOUS
 10
141.8954762282
 20
138.0650609683
  0
VERTEX
  8
SOLID
 62
7
  6
CONTINUOUS
 10
141.8946035926
 20
137.9988154379
  0
VERTEX
  8
SOLID
 62
7
  6
CONTINUOUS
 10
141.8927094768
 20
137.9340730589
  0
VERTEX
  8
SOLID
 62
7
  6
CONTINUOUS
 10
141.8897293069
 20
137.8709175023
  0
VERTEX
  8
SOLID
 62
7
  6
CONTINUOUS
 10
141.8855949373
 20
137.80942035
  0
VERTEX
  8
SOLID
 62
7
  6
CONTINUOUS
 10
141.8802543104
 20
137.7496306792
  0
VERTEX
  8
SOLID
 62
7
  6
CONTINUOUS
 10
141.8736714689
 20
137.6916860535
  0
VERTEX
  8
SOLID
 62
7
  6
CONTINUOUS
 10
141.8658103662
 20
137.6357153203
  0
VERTEX
  8
SOLID
 62
7
  6
CONTINUOUS
 10
141.8566622358
 20
137.5817011399
  0
VERTEX
  8
SOLID
 62
7
  6
CONTINUOUS
 10
141.8461969079
 20
137.5297245575
  0
VERTEX
  8
SOLID
 62
7
  6
CONTINUOUS
 10
141.8342778361
 20
137.4791739602
  0
VERTEX
  8
SOLID
 62
7
  6
CONTINUOUS
 10
141.8211003379
 20
137.4312976875
  0
VERTEX
  8
SOLID
 62
7
  6
CONTINUOUS
 10
141.8061686882
 20
137.3858805856
  0
VERTEX
  8
SOLID
 62
7
  6
CONTINUOUS
 10
141.7891945764
 20
137.3424966332
  0
VERTEX
  8
SOLID
 62
7
  6
CONTINUOUS
 10
141.769982826
 20
137.3013112803
  0
VERTEX
  8
SOLID
 62
7
  6
CONTINUOUS
 10
141.7482786624
 20
137.2621732035
  0
VERTEX
  8
SOLID
 62
7
  6
CONTINUOUS
 10
141.7241436579
 20
137.2256294473
  0
VERTEX
  8
SOLID
 62
7
  6
CONTINUOUS
 10
141.6975422965
 20
137.192083915
  0
VERTEX
  8
SOLID
 62
7
  6
CONTINUOUS
 10
141.6684108326
 20
137.1619617038
  0
VERTEX
  8
SOLID
 62
7
  6
CONTINUOUS
 10
141.6369445008
 20
137.1360153752
  0
VERTEX
  8
SOLID
 62
7
  6
CONTINUOUS
 10
141.6035393305
 20
137.1151112842
  0
VERTEX
  8
SOLID
 62
7
  6
CONTINUOUS
 10
141.5685996789
 20
137.1000773827
  0
VERTEX
  8
SOLID
 62
7
  6
CONTINUOUS
 10
141.5336282548
 20
137.0919997409
  0
VERTEX
  8
SOLID
 62
7
  6
CONTINUOUS
 10
141.5134608807
 20
137.0906657573
  0
SEQEND
  0
LINE
  8
SOLID
 62
7
  6
CONTINUOUS
 10
141.7182283189
 20
93.321714476
 11
141.7161609239
 21
93.5921789486
  0
LINE
  8
SOLID
 62
7
  6
CONTINUOUS
 10
141.8895422351
 20
138.704317145
 11
141.8915993941
 21
138.4334886435
  0
LINE
  8
SOLID
 62
7
  6
CONTINUOUS
 10
141.7182283189
 20
93.321714476
 11
141.7187225331
 21
87.7646251623
  0
LINE
  8
SOLID
 62
7
  6
CONTINUOUS
 10
141.8890588468
 20
144.2590834352
 11
141.8895422351
 21
138.704317145
  0
LINE
  8
SOLID
 62
7
  6
CONTINUOUS
 10
141.8890913902
 20
144.2597617362
 11
141.8890588474
 21
144.2591279339
  0
LINE
  8
SOLID
 62
7
  6
CONTINUOUS
 10
141.7186899905
 20
87.7639468689
 11
141.7187225325
 21
87.7645806636
  0
LINE
  8
SOLID
 62
7
  6
CONTINUOUS
 10
140.6493141608
 20
83.2362811865
 11
140.6677569831
 21
83.3630879759
  0
POLYLINE
  8
SOLID
 62
7
  6
CONTINUOUS
 66
1
 70
0
  0
VERTEX
  8
SOLID
 62
7
  6
CONTINUOUS
 10
123.8571194774
 20
83.3398289091
  0
VERTEX
  8
SOLID
 62
7
  6
CONTINUOUS
 10
123.9982057658
 20
83.6483162099
  0
VERTEX
  8
SOLID
 62
7
  6
CONTINUOUS
 10
124.141024804
 20
84.0116467166
  0
VERTEX
  8
SOLID
 62
7
  6
CONTINUOUS
 10
124.2743033723
 20
84.4051451002
  0
VERTEX
  8
SOLID
 62
7
  6
CONTINUOUS
 10
124.3978943871
 20
84.8266720339
  0
VERTEX
  8
SOLID
 62
7
  6
CONTINUOUS
 10
124.5115995775
 20
85.2740313836
  0
VERTEX
  8
SOLID
 62
7
  6
CONTINUOUS
 10
124.6151978613
 20
85.7449708504
  0
VERTEX
  8
SOLID
 62
7
  6
CONTINUOUS
 10
124.7084632253
 20
86.2371797878
  0
VERTEX
  8
SOLID
 62
7
  6
CONTINUOUS
 10
124.7911792543
 20
86.7483016989
  0
VERTEX
  8
SOLID
 62
7
  6
CONTINUOUS
 10
124.8631487355
 20
87.2759492789
  0
VERTEX
  8
SOLID
 62
7
  6
CONTINUOUS
 10
124.9186900087
 20
87.7639410763
  0
SEQEND
  0
POLYLINE
  8
SOLID
 62
7
  6
CONTINUOUS
 66
1
 70
0
  0
VERTEX
  8
SOLID
 62
7
  6
CONTINUOUS
 10
159.7506621602
 20
148.683880222
  0
VERTEX
  8
SOLID
 62
7
  6
CONTINUOUS
 10
159.6101986398
 20
148.3768593094
  0
VERTEX
  8
SOLID
 62
7
  6
CONTINUOUS
 10
159.4673449828
 20
148.0136755874
  0
VERTEX
  8
SOLID
 62
7
  6
CONTINUOUS
 10
159.3340301085
 20
147.6203158783
  0
VERTEX
  8
SOLID
 62
7
  6
CONTINUOUS
 10
159.2104011747
 20
147.1989197682
  0
VERTEX
  8
SOLID
 62
7
  6
CONTINUOUS
 10
159.0966566012
 20
146.7516840007
  0
VERTEX
  8
SOLID
 62
7
  6
CONTINUOUS
 10
158.9930174755
 20
146.2808610912
  0
VERTEX
  8
SOLID
 62
7
  6
CONTINUOUS
 10
158.8997094679
 20
145.7887599373
  0
VERTEX
  8
SOLID
 62
7
  6
CONTINUOUS
 10
158.8169487138
 20
145.2777343408
  0
VERTEX
  8
SOLID
 62
7
  6
CONTINUOUS
 10
158.7449323652
 20
144.7501687604
  0
VERTEX
  8
SOLID
 62
7
  6
CONTINUOUS
 10
158.689091372
 20
144.2597675285
  0
SEQEND
  0
POLYLINE
  8
SOLID
 62
7
  6
CONTINUOUS
 66
1
 70
0
  0
VERTEX
  8
SOLID
 62
7
  6
CONTINUOUS
 10
183.5134613505
 20
94.9330428499
  0
VERTEX
  8
SOLID
 62
7
  6
CONTINUOUS
 10
183.5336891826
 20
94.9317011144
  0
VERTEX
  8
SOLID
 62
7
  6
CONTINUOUS
 10
183.5687651159
 20
94.9235764455
  0
VERTEX
  8
SOLID
 62
7
  6
CONTINUOUS
 10
183.6038248488
 20
94.908446276
  0
VERTEX
  8
SOLID
 62
7
  6
CONTINUOUS
 10
183.6373387001
 20
94.8874071061
  0
VERTEX
  8
SOLID
 62
7
  6
CONTINUOUS
 10
183.6688910603
 20
94.8613006075
  0
VERTEX
  8
SOLID
 62
7
  6
CONTINUOUS
 10
183.6980722626
 20
94.8310169972
  0
VERTEX
  8
SOLID
 62
7
  6
CONTINUOUS
 10
183.7246870679
 20
94.7973258936
  0
VERTEX
  8
SOLID
 62
7
  6
CONTINUOUS
 10
183.7488019917
 20
94.7606685304
  0
VERTEX
  8
SOLID
 62
7
  6
CONTINUOUS
 10
183.7704534908
 20
94.7214694635
  0
VERTEX
  8
SOLID
 62
7
  6
CONTINUOUS
 10
183.7895967049
 20
94.6802727912
  0
VERTEX
  8
SOLID
 62
7
  6
CONTINUOUS
 10
183.8064876216
 20
94.6369331373
  0
VERTEX
  8
SOLID
 62
7
  6
CONTINUOUS
 10
183.8213548023
 20
94.5915610994
  0
VERTEX
  8
SOLID
 62
7
  6
CONTINUOUS
 10
183.8344643214
 20
94.5438153353
  0
VERTEX
  8
SOLID
 62
7
  6
CONTINUOUS
 10
183.8463183912
 20
94.4934226611
  0
VERTEX
  8
SOLID
 62
7
  6
CONTINUOUS
 10
183.8567312188
 20
94.4416383345
  0
VERTEX
  8
SOLID
 62
7
  6
CONTINUOUS
 10
183.8658401733
 20
94.3878015601
  0
VERTEX
  8
SOLID
 62
7
  6
CONTINUOUS
 10
183.8736836545
 20
94.3319300829
  0
VERTEX
  8
SOLID
 62
7
  6
CONTINUOUS
 10
183.8802584826
 20
94.2740433169
  0
VERTEX
  8
SOLID
 62
7
  6
CONTINUOUS
 10
183.8855983257
 20
94.2142488549
  0
VERTEX
  8
SOLID
 62
7
  6
CONTINUOUS
 10
183.8897359152
 20
94.152682645
  0
VERTEX
  8
SOLID
 62
7
  6
CONTINUOUS
 10
183.8927192729
 20
94.089391498
  0
VERTEX
  8
SOLID
 62
7
  6
CONTINUOUS
 10
183.8946134805
 20
94.0244413441
  0
VERTEX
  8
SOLID
 62
7
  6
CONTINUOUS
 10
183.8954807559
 20
93.957911993
  0
VERTEX
  8
SOLID
 62
7
  6
CONTINUOUS
 10
183.8953788084
 20
93.8898576164
  0
SEQEND
  0
POLYLINE
  8
SOLID
 62
7
  6
CONTINUOUS
 66
1
 70
0
  0
VERTEX
  8
SOLID
 62
7
  6
CONTINUOUS
 10
200.3134613505
 20
94.9330428499
  0
VERTEX
  8
SOLID
 62
7
  6
CONTINUOUS
 10
200.3336891826
 20
94.9317011144
  0
VERTEX
  8
SOLID
 62
7
  6
CONTINUOUS
 10
200.3687651159
 20
94.9235764455
  0
VERTEX
  8
SOLID
 62
7
  6
CONTINUOUS
 10
200.4038248488
 20
94.908446276
  0
VERTEX
  8
SOLID
 62
7
  6
CONTINUOUS
 10
200.4373387001
 20
94.8874071061
  0
VERTEX
  8
SOLID
 62
7
  6
CONTINUOUS
 10
200.4688910603
 20
94.8613006075
  0
VERTEX
  8
SOLID
 62
7
  6
CONTINUOUS
 10
200.4980722626
 20
94.8310169972
  0
VERTEX
  8
SOLID
 62
7
  6
CONTINUOUS
 10
200.5246870679
 20
94.7973258936
  0
VERTEX
  8
SOLID
 62
7
  6
CONTINUOUS
 10
200.5488019917
 20
94.7606685304
  0
VERTEX
  8
SOLID
 62
7
  6
CONTINUOUS
 10
200.5704534908
 20
94.7214694635
  0
VERTEX
  8
SOLID
 62
7
  6
CONTINUOUS
 10
200.5895967049
 20
94.6802727912
  0
VERTEX
  8
SOLID
 62
7
  6
CONTINUOUS
 10
200.6064876216
 20
94.6369331373
  0
VERTEX
  8
SOLID
 62
7
  6
CONTINUOUS
 10
200.6213548023
 20
94.5915610994
  0
VERTEX
  8
SOLID
 62
7
  6
CONTINUOUS
 10
200.6344643214
 20
94.5438153353
  0
VERTEX
  8
SOLID
 62
7
  6
CONTINUOUS
 10
200.6463183912
 20
94.4934226611
  0
VERTEX
  8
SOLID
 62
7
  6
CONTINUOUS
 10
200.6567312188
 20
94.4416383345
  0
VERTEX
  8
SOLID
 62
7
  6
CONTINUOUS
 10
200.6658401733
 20
94.3878015601
  0
VERTEX
  8
SOLID
 62
7
  6
CONTINUOUS
 10
200.6736836545
 20
94.3319300829
  0
VERTEX
  8
SOLID
 62
7
  6
CONTINUOUS
 10
200.6802584826
 20
94.2740433169
  0
VERTEX
  8
SOLID
 62
7
  6
CONTINUOUS
 10
200.6855983257
 20
94.2142488549
  0
VERTEX
  8
SOLID
 62
7
  6
CONTINUOUS
 10
200.6897359152
 20
94.152682645
  0
VERTEX
  8
SOLID
 62
7
  6
CONTINUOUS
 10
200.6927192729
 20
94.089391498
  0
VERTEX
  8
SOLID
 62
7
  6
CONTINUOUS
 10
200.6946134805
 20
94.0244413441
  0
VERTEX
  8
SOLID
 62
7
  6
CONTINUOUS
 10
200.6954807559
 20
93.957911993
  0
VERTEX
  8
SOLID
 62
7
  6
CONTINUOUS
 10
200.6953788084
 20
93.8898576164
  0
SEQEND
  0
POLYLINE
  8
SOLID
 62
7
  6
CONTINUOUS
 66
1
 70
0
  0
VERTEX
  8
SOLID
 62
7
  6
CONTINUOUS
 10
217.1134613505
 20
94.9330428499
  0
VERTEX
  8
SOLID
 62
7
  6
CONTINUOUS
 10
217.1336891826
 20
94.9317011144
  0
VERTEX
  8
SOLID
 62
7
  6
CONTINUOUS
 10
217.1687651159
 20
94.9235764455
  0
VERTEX
  8
SOLID
 62
7
  6
CONTINUOUS
 10
217.2038248488
 20
94.908446276
  0
VERTEX
  8
SOLID
 62
7
  6
CONTINUOUS
 10
217.2373387001
 20
94.8874071061
  0
VERTEX
  8
SOLID
 62
7
  6
CONTINUOUS
 10
217.2688910603
 20
94.8613006075
  0
VERTEX
  8
SOLID
 62
7
  6
CONTINUOUS
 10
217.2980722626
 20
94.8310169972
  0
VERTEX
  8
SOLID
 62
7
  6
CONTINUOUS
 10
217.3246870679
 20
94.7973258936
  0
VERTEX
  8
SOLID
 62
7
  6
CONTINUOUS
 10
217.3488019917
 20
94.7606685304
  0
VERTEX
  8
SOLID
 62
7
  6
CONTINUOUS
 10
217.3704534908
 20
94.7214694635
  0
VERTEX
  8
SOLID
 62
7
  6
CONTINUOUS
 10
217.3895967049
 20
94.6802727912
  0
VERTEX
  8
SOLID
 62
7
  6
CONTINUOUS
 10
217.4064876216
 20
94.6369331373
  0
VERTEX
  8
SOLID
 62
7
  6
CONTINUOUS
 10
217.4213548023
 20
94.5915610994
  0
VERTEX
  8
SOLID
 62
7
  6
CONTINUOUS
 10
217.4344643214
 20
94.5438153353
  0
VERTEX
  8
SOLID
 62
7
  6
CONTINUOUS
 10
217.4463183912
 20
94.4934226611
  0
VERTEX
  8
SOLID
 62
7
  6
CONTINUOUS
 10
217.4567312188
 20
94.4416383345
  0
VERTEX
  8
SOLID
 62
7
  6
CONTINUOUS
 10
217.4658401733
 20
94.3878015601
  0
VERTEX
  8
SOLID
 62
7
  6
CONTINUOUS
 10
217.4736836545
 20
94.3319300829
  0
VERTEX
  8
SOLID
 62
7
  6
CONTINUOUS
 10
217.4802584826
 20
94.2740433169
  0
VERTEX
  8
SOLID
 62
7
  6
CONTINUOUS
 10
217.4855983257
 20
94.2142488549
  0
VERTEX
  8
SOLID
 62
7
  6
CONTINUOUS
 10
217.4897359152
 20
94.152682645
  0
VERTEX
  8
SOLID
 62
7
  6
CONTINUOUS
 10
217.4927192729
 20
94.089391498
  0
VERTEX
  8
SOLID
 62
7
  6
CONTINUOUS
 10
217.4946134805
 20
94.0244413441
  0
VERTEX
  8
SOLID
 62
7
  6
CONTINUOUS
 10
217.4954807559
 20
93.957911993
  0
VERTEX
  8
SOLID
 62
7
  6
CONTINUOUS
 10
217.4953788084
 20
93.8898576164
  0
SEQEND
  0
POLYLINE
  8
SOLID
 62
7
  6
CONTINUOUS
 66
1
 70
0
  0
VERTEX
  8
SOLID
 62
7
  6
CONTINUOUS
 10
233.9134613505
 20
94.9330428499
  0
VERTEX
  8
SOLID
 62
7
  6
CONTINUOUS
 10
233.9336891826
 20
94.9317011144
  0
VERTEX
  8
SOLID
 62
7
  6
CONTINUOUS
 10
233.9687651159
 20
94.9235764455
  0
VERTEX
  8
SOLID
 62
7
  6
CONTINUOUS
 10
234.0038248488
 20
94.908446276
  0
VERTEX
  8
SOLID
 62
7
  6
CONTINUOUS
 10
234.0373387001
 20
94.8874071061
  0
VERTEX
  8
SOLID
 62
7
  6
CONTINUOUS
 10
234.0688910603
 20
94.8613006075
  0
VERTEX
  8
SOLID
 62
7
  6
CONTINUOUS
 10
234.0980722626
 20
94.8310169972
  0
VERTEX
  8
SOLID
 62
7
  6
CONTINUOUS
 10
234.1246870679
 20
94.7973258936
  0
VERTEX
  8
SOLID
 62
7
  6
CONTINUOUS
 10
234.1488019917
 20
94.7606685304
  0
VERTEX
  8
SOLID
 62
7
  6
CONTINUOUS
 10
234.1704534908
 20
94.7214694635
  0
VERTEX
  8
SOLID
 62
7
  6
CONTINUOUS
 10
234.1895967049
 20
94.6802727912
  0
VERTEX
  8
SOLID
 62
7
  6
CONTINUOUS
 10
234.2064876216
 20
94.6369331373
  0
VERTEX
  8
SOLID
 62
7
  6
CONTINUOUS
 10
234.2213548023
 20
94.5915610994
  0
VERTEX
  8
SOLID
 62
7
  6
CONTINUOUS
 10
234.2344643214
 20
94.5438153353
  0
VERTEX
  8
SOLID
 62
7
  6
CONTINUOUS
 10
234.2463183912
 20
94.4934226611
  0
VERTEX
  8
SOLID
 62
7
  6
CONTINUOUS
 10
234.2567312188
 20
94.4416383345
  0
VERTEX
  8
SOLID
 62
7
  6
CONTINUOUS
 10
234.2658401733
 20
94.3878015601
  0
VERTEX
  8
SOLID
 62
7
  6
CONTINUOUS
 10
234.2736836545
 20
94.3319300829
  0
VERTEX
  8
SOLID
 62
7
  6
CONTINUOUS
 10
234.2802584826
 20
94.2740433169
  0
VERTEX
  8
SOLID
 62
7
  6
CONTINUOUS
 10
234.2855983257
 20
94.2142488549
  0
VERTEX
  8
SOLID
 62
7
  6
CONTINUOUS
 10
234.2897359152
 20
94.152682645
  0
VERTEX
  8
SOLID
 62
7
  6
CONTINUOUS
 10
234.2927192729
 20
94.089391498
  0
VERTEX
  8
SOLID
 62
7
  6
CONTINUOUS
 10
234.2946134805
 20
94.0244413441
  0
VERTEX
  8
SOLID
 62
7
  6
CONTINUOUS
 10
234.2954807559
 20
93.957911993
  0
VERTEX
  8
SOLID
 62
7
  6
CONTINUOUS
 10
234.2953788084
 20
93.8898576164
  0
SEQEND
  0
LINE
  8
SOLID
 62
7
  6
CONTINUOUS
 10
150.2890913894
 20
87.7639468689
 11
150.2890588474
 21
87.7645806636
  0
LINE
  8
SOLID
 62
7
  6
CONTINUOUS
 10
150.1186899897
 20
144.2597617362
 11
150.1187225325
 21
144.2591279339
  0
POLYLINE
  8
SOLID
 62
7
  6
CONTINUOUS
 66
1
 70
0
  0
VERTEX
  8
SOLID
 62
7
  6
CONTINUOUS
 10
150.2953788084
 20
93.8898576164
  0
VERTEX
  8
SOLID
 62
7
  6
CONTINUOUS
 10
150.291592001
 20
93.5895124503
  0
VERTEX
  8
SOLID
 62
7
  6
CONTINUOUS
 10
150.2895407136
 20
93.3190547481
  0
VERTEX
  8
SOLID
 62
7
  6
CONTINUOUS
 10
150.2890588468
 20
87.7646251623
  0
SEQEND
  0
POLYLINE
  8
SOLID
 62
7
  6
CONTINUOUS
 66
1
 70
0
  0
VERTEX
  8
SOLID
 62
7
  6
CONTINUOUS
 10
150.1123575584
 20
138.1279545161
  0
VERTEX
  8
SOLID
 62
7
  6
CONTINUOUS
 10
150.1161540952
 20
138.4308433109
  0
VERTEX
  8
SOLID
 62
7
  6
CONTINUOUS
 10
150.1182269081
 20
138.7016673834
  0
VERTEX
  8
SOLID
 62
7
  6
CONTINUOUS
 10
150.1187225331
 20
144.2590834352
  0
SEQEND
  0
LINE
  8
SOLID
 62
7
  6
CONTINUOUS
 10
132.3975827401
 20
148.3768593094
 11
132.2571192197
 21
148.683880222
  0
POLYLINE
  8
SOLID
 62
7
  6
CONTINUOUS
 66
1
 70
0
  0
VERTEX
  8
SOLID
 62
7
  6
CONTINUOUS
 10
151.340024658
 20
83.3630874048
  0
VERTEX
  8
SOLID
 62
7
  6
CONTINUOUS
 10
151.3584960294
 20
83.2360915773
  0
VERTEX
  8
SOLID
 62
7
  6
CONTINUOUS
 10
151.3836684697
 20
83.078705369
  0
VERTEX
  8
SOLID
 62
7
  6
CONTINUOUS
 10
151.4089592279
 20
82.9365271074
  0
VERTEX
  8
SOLID
 62
7
  6
CONTINUOUS
 10
151.434345301
 20
82.8089237883
  0
VERTEX
  8
SOLID
 62
7
  6
CONTINUOUS
 10
151.4598379196
 20
82.6951620763
  0
VERTEX
  8
SOLID
 62
7
  6
CONTINUOUS
 10
151.485505351
 20
82.5943824809
  0
VERTEX
  8
SOLID
 62
7
  6
CONTINUOUS
 10
151.5115133384
 20
82.5055668142
  0
VERTEX
  8
SOLID
 62
7
  6
CONTINUOUS
 10
151.5381492732
 20
82.4276323525
  0
VERTEX
  8
SOLID
 62
7
  6
CONTINUOUS
 10
151.56598844
 20
82.3592156015
  0
VERTEX
  8
SOLID
 62
7
  6
CONTINUOUS
 10
151.5961659647
 20
82.2986083572
  0
VERTEX
  8
SOLID
 62
7
  6
CONTINUOUS
 10
151.6308974436
 20
82.2438399759
  0
VERTEX
  8
SOLID
 62
7
  6
CONTINUOUS
 10
151.6742948415
 20
82.1933734929
  0
VERTEX
  8
SOLID
 62
7
  6
CONTINUOUS
 10
151.7326286895
 20
82.1485608002
  0
VERTEX
  8
SOLID
 62
7
  6
CONTINUOUS
 10
151.8097334246
 20
82.1179655008
  0
VERTEX
  8
SOLID
 62
7
  6
CONTINUOUS
 10
151.8638120122
 20
82.11185836
  0
SEQEND
  0
POLYLINE
  8
SOLID
 62
7
  6
CONTINUOUS
 66
1
 70
0
  0
VERTEX
  8
SOLID
 62
7
  6
CONTINUOUS
 10
150.2890913712
 20
87.7639410763
  0
VERTEX
  8
SOLID
 62
7
  6
CONTINUOUS
 10
150.3446326444
 20
87.2759492789
  0
VERTEX
  8
SOLID
 62
7
  6
CONTINUOUS
 10
150.4166021256
 20
86.7483016989
  0
VERTEX
  8
SOLID
 62
7
  6
CONTINUOUS
 10
150.4993181546
 20
86.2371797878
  0
VERTEX
  8
SOLID
 62
7
  6
CONTINUOUS
 10
150.5925835186
 20
85.7449708504
  0
VERTEX
  8
SOLID
 62
7
  6
CONTINUOUS
 10
150.6961818024
 20
85.2740313836
  0
VERTEX
  8
SOLID
 62
7
  6
CONTINUOUS
 10
150.8098869928
 20
84.8266720339
  0
VERTEX
  8
SOLID
 62
7
  6
CONTINUOUS
 10
150.9334780076
 20
84.4051451002
  0
VERTEX
  8
SOLID
 62
7
  6
CONTINUOUS
 10
151.0667565759
 20
84.0116467166
  0
VERTEX
  8
SOLID
 62
7
  6
CONTINUOUS
 10
151.2095756141
 20
83.6483162099
  0
SEQEND
  0
POLYLINE
  8
SOLID
 62
7
  6
CONTINUOUS
 66
1
 70
0
  0
VERTEX
  8
SOLID
 62
7
  6
CONTINUOUS
 10
158.5161609239
 20
93.5921789486
  0
VERTEX
  8
SOLID
 62
7
  6
CONTINUOUS
 10
158.5123788305
 20
93.8927358079
  0
VERTEX
  8
SOLID
 62
7
  6
CONTINUOUS
 10
158.5123161784
 20
93.9607213248
  0
VERTEX
  8
SOLID
 62
7
  6
CONTINUOUS
 10
158.5132248177
 20
94.0271748232
  0
VERTEX
  8
SOLID
 62
7
  6
CONTINUOUS
 10
158.5151623316
 20
94.0920420164
  0
VERTEX
  8
SOLID
 62
7
  6
CONTINUOUS
 10
158.518190913
 20
94.1552425486
  0
VERTEX
  8
SOLID
 62
7
  6
CONTINUOUS
 10
158.5223751214
 20
94.2167132065
  0
VERTEX
  8
SOLID
 62
7
  6
CONTINUOUS
 10
158.5277616292
 20
94.2764055665
  0
VERTEX
  8
SOLID
 62
7
  6
CONTINUOUS
 10
158.5343829335
 20
94.3341819516
  0
VERTEX
  8
SOLID
 62
7
  6
CONTINUOUS
 10
158.5422719374
 20
94.3899417591
  0
VERTEX
  8
SOLID
 62
7
  6
CONTINUOUS
 10
158.5514227016
 20
94.4436568413
  0
VERTEX
  8
SOLID
 62
7
  6
CONTINUOUS
 10
158.5618801666
 20
94.4953342888
  0
VERTEX
  8
SOLID
 62
7
  6
CONTINUOUS
 10
158.5737769529
 20
94.545628915
  0
VERTEX
  8
SOLID
 62
7
  6
CONTINUOUS
 10
158.5869236972
 20
94.5932171418
  0
VERTEX
  8
SOLID
 62
7
  6
CONTINUOUS
 10
158.601846345
 20
94.6384807301
  0
VERTEX
  8
SOLID
 62
7
  6
CONTINUOUS
 10
158.618791393
 20
94.6816964641
  0
VERTEX
  8
SOLID
 62
7
  6
CONTINUOUS
 10
158.638001213
 20
94.7227967064
  0
VERTEX
  8
SOLID
 62
7
  6
CONTINUOUS
 10
158.659716051
 20
94.7618901782
  0
VERTEX
  8
SOLID
 62
7
  6
CONTINUOUS
 10
158.6838948808
 20
94.7984365816
  0
VERTEX
  8
SOLID
 62
7
  6
CONTINUOUS
 10
158.7105743369
 20
94.8320098775
  0
VERTEX
  8
SOLID
 62
7
  6
CONTINUOUS
 10
158.7398211627
 20
94.8621654799
  0
VERTEX
  8
SOLID
 62
7
  6
CONTINUOUS
 10
158.7714376914
 20
94.8881283199
  0
VERTEX
  8
SOLID
 62
7
  6
CONTINUOUS
 10
158.8050091545
 20
94.90900194
  0
VERTEX
  8
SOLID
 62
7
  6
CONTINUOUS
 10
158.8401097468
 20
94.9239369657
  0
VERTEX
  8
SOLID
 62
7
  6
CONTINUOUS
 10
158.8751850992
 20
94.9318379909
  0
VERTEX
  8
SOLID
 62
7
  6
CONTINUOUS
 10
158.8941458236
 20
94.9330422568
  0
SEQEND
  0
POLYLINE
  8
SOLID
 62
7
  6
CONTINUOUS
 66
1
 70
0
  0
VERTEX
  8
SOLID
 62
7
  6
CONTINUOUS
 10
158.6915993941
 20
138.4334886435
  0
VERTEX
  8
SOLID
 62
7
  6
CONTINUOUS
 10
158.695387388
 20
138.132752398
  0
VERTEX
  8
SOLID
 62
7
  6
CONTINUOUS
 10
158.6954762282
 20
138.0650609683
  0
VERTEX
  8
SOLID
 62
7
  6
CONTINUOUS
 10
158.6946035926
 20
137.9988154379
  0
VERTEX
  8
SOLID
 62
7
  6
CONTINUOUS
 10
158.6927094768
 20
137.9340730589
  0
VERTEX
  8
SOLID
 62
7
  6
CONTINUOUS
 10
158.6897293069
 20
137.8709175023
  0
VERTEX
  8
SOLID
 62
7
  6
CONTINUOUS
 10
158.6855949373
 20
137.80942035
  0
VERTEX
  8
SOLID
 62
7
  6
CONTINUOUS
 10
158.6802543104
 20
137.7496306792
  0
VERTEX
  8
SOLID
 62
7
  6
CONTINUOUS
 10
158.6736714689
 20
137.6916860535
  0
VERTEX
  8
SOLID
 62
7
  6
CONTINUOUS
 10
158.6658103662
 20
137.6357153203
  0
VERTEX
  8
SOLID
 62
7
  6
CONTINUOUS
 10
158.6566622358
 20
137.5817011399
  0
VERTEX
  8
SOLID
 62
7
  6
CONTINUOUS
 10
158.6461969079
 20
137.5297245575
  0
VERTEX
  8
SOLID
 62
7
  6
CONTINUOUS
 10
158.6342778361
 20
137.4791739602
  0
VERTEX
  8
SOLID
 62
7
  6
CONTINUOUS
 10
158.6211003379
 20
137.4312976875
  0
VERTEX
  8
SOLID
 62
7
  6
CONTINUOUS
 10
158.6061686882
 20
137.3858805856
  0
VERTEX
  8
SOLID
 62
7
  6
CONTINUOUS
 10
158.5891945764
 20
137.3424966332
  0
VERTEX
  8
SOLID
 62
7
  6
CONTINUOUS
 10
158.569982826
 20
137.3013112803
  0
VERTEX
  8
SOLID
 62
7
  6
CONTINUOUS
 10
158.5482786624
 20
137.2621732035
  0
VERTEX
  8
SOLID
 62
7
  6
CONTINUOUS
 10
158.5241436579
 20
137.2256294473
  0
VERTEX
  8
SOLID
 62
7
  6
CONTINUOUS
 10
158.4975422965
 20
137.192083915
  0
VERTEX
  8
SOLID
 62
7
  6
CONTINUOUS
 10
158.4684108326
 20
137.1619617038
  0
VERTEX
  8
SOLID
 62
7
  6
CONTINUOUS
 10
158.4369445008
 20
137.1360153752
  0
VERTEX
  8
SOLID
 62
7
  6
CONTINUOUS
 10
158.4035393305
 20
137.1151112842
  0
VERTEX
  8
SOLID
 62
7
  6
CONTINUOUS
 10
158.3685996789
 20
137.1000773827
  0
VERTEX
  8
SOLID
 62
7
  6
CONTINUOUS
 10
158.3336282548
 20
137.0919997409
  0
VERTEX
  8
SOLID
 62
7
  6
CONTINUOUS
 10
158.3134608807
 20
137.0906657573
  0
SEQEND
  0
LINE
  8
SOLID
 62
7
  6
CONTINUOUS
 10
158.5182283189
 20
93.321714476
 11
158.5161609239
 21
93.5921789486
  0
LINE
  8
SOLID
 62
7
  6
CONTINUOUS
 10
158.6895422351
 20
138.704317145
 11
158.6915993941
 21
138.4334886435
  0
LINE
  8
SOLID
 62
7
  6
CONTINUOUS
 10
158.5182283189
 20
93.321714476
 11
158.5187225331
 21
87.7646251623
  0
LINE
  8
DEFAULT_1
 62
7
  6
CENTER
 10
158.60389069
 20
121.2618543046
 11
158.60389069
 21
118.0119543046
  0
LINE
  8
0
 62
2
  6
CONTINUOUS
 10
158.60389069
 20
117.0618543046
 11
158.60389069
 21
114.9618543046
  0
LINE
  8
DEFAULT_1
 62
7
  6
CENTER
 10
158.60389069
 20
110.7618543046
 11
158.60389069
 21
114.0117543046
  0
LINE
  8
SOLID
 62
7
  6
CONTINUOUS
 10
158.6890588468
 20
144.2590834352
 11
158.6895422351
 21
138.704317145
  0
LINE
  8
SOLID
 62
7
  6
CONTINUOUS
 10
158.6890913902
 20
144.2597617362
 11
158.6890588474
 21
144.2591279339
  0
LINE
  8
SOLID
 62
7
  6
CONTINUOUS
 10
159.7586700416
 20
148.7887617871
 11
159.7400279173
 21
148.6606362158
  0
POLYLINE
  8
SOLID
 62
7
  6
CONTINUOUS
 66
1
 70
0
  0
VERTEX
  8
SOLID
 62
7
  6
CONTINUOUS
 10
140.6571194774
 20
83.3398289091
  0
VERTEX
  8
SOLID
 62
7
  6
CONTINUOUS
 10
140.7982057658
 20
83.6483162099
  0
VERTEX
  8
SOLID
 62
7
  6
CONTINUOUS
 10
140.941024804
 20
84.0116467166
  0
VERTEX
  8
SOLID
 62
7
  6
CONTINUOUS
 10
141.0743033723
 20
84.4051451002
  0
VERTEX
  8
SOLID
 62
7
  6
CONTINUOUS
 10
141.1978943871
 20
84.8266720339
  0
VERTEX
  8
SOLID
 62
7
  6
CONTINUOUS
 10
141.3115995775
 20
85.2740313836
  0
VERTEX
  8
SOLID
 62
7
  6
CONTINUOUS
 10
141.4151978613
 20
85.7449708504
  0
VERTEX
  8
SOLID
 62
7
  6
CONTINUOUS
 10
141.5084632253
 20
86.2371797878
  0
VERTEX
  8
SOLID
 62
7
  6
CONTINUOUS
 10
141.5911792543
 20
86.7483016989
  0
VERTEX
  8
SOLID
 62
7
  6
CONTINUOUS
 10
141.6631487355
 20
87.2759492789
  0
VERTEX
  8
SOLID
 62
7
  6
CONTINUOUS
 10
141.7186900087
 20
87.7639410763
  0
SEQEND
  0
LINE
  8
DEFAULT_1
 62
7
  6
CENTER
 10
163.85389069
 20
116.0118543046
 11
160.60399069
 21
116.0118543046
  0
LINE
  8
0
 62
2
  6
CONTINUOUS
 10
159.65389069
 20
116.0118543046
 11
157.55389069
 21
116.0118543046
  0
LINE
  8
DEFAULT_1
 62
7
  6
CENTER
 10
153.35389069
 20
116.0118543046
 11
156.60379069
 21
116.0118543046
  0
LINE
  8
SOLID
 62
7
  6
CONTINUOUS
 10
168.0095756141
 20
83.6483162099
 11
168.1506619025
 21
83.3398289091
  0
POLYLINE
  8
SOLID
 62
7
  6
CONTINUOUS
 66
1
 70
0
  0
VERTEX
  8
SOLID
 62
7
  6
CONTINUOUS
 10
149.0677537241
 20
148.6606356441
  0
VERTEX
  8
SOLID
 62
7
  6
CONTINUOUS
 10
149.0491401552
 20
148.7885722681
  0
VERTEX
  8
SOLID
 62
7
  6
CONTINUOUS
 10
149.0240107266
 20
148.9456091623
  0
VERTEX
  8
SOLID
 62
7
  6
CONTINUOUS
 10
148.9987678692
 20
149.0874701852
  0
VERTEX
  8
SOLID
 62
7
  6
CONTINUOUS
 10
148.9734342396
 20
149.2147935393
  0
VERTEX
  8
SOLID
 62
7
  6
CONTINUOUS
 10
148.9479984952
 20
149.3283158844
  0
VERTEX
  8
SOLID
 62
7
  6
CONTINUOUS
 10
148.9223926893
 20
149.428898165
  0
VERTEX
  8
SOLID
 62
7
  6
CONTINUOUS
 10
148.8964532966
 20
149.5175546289
  0
VERTEX
  8
SOLID
 62
7
  6
CONTINUOUS
 10
148.869895978
 20
149.5953658193
  0
VERTEX
  8
SOLID
 62
7
  6
CONTINUOUS
 10
148.8421526808
 20
149.6636887645
  0
VERTEX
  8
SOLID
 62
7
  6
CONTINUOUS
 10
148.8121058835
 20
149.7242184067
  0
VERTEX
  8
SOLID
 62
7
  6
CONTINUOUS
 10
148.7775796512
 20
149.7789097345
  0
VERTEX
  8
SOLID
 62
7
  6
CONTINUOUS
 10
148.7345399815
 20
149.829306787
  0
VERTEX
  8
SOLID
 62
7
  6
CONTINUOUS
 10
148.676797094
 20
149.8741740777
  0
VERTEX
  8
SOLID
 62
7
  6
CONTINUOUS
 10
148.600389558
 20
149.9052094398
  0
VERTEX
  8
SOLID
 62
7
  6
CONTINUOUS
 10
148.5423900697
 20
149.9118533308
  0
SEQEND
  0
POLYLINE
  8
SOLID
 62
7
  6
CONTINUOUS
 66
1
 70
0
  0
VERTEX
  8
SOLID
 62
7
  6
CONTINUOUS
 10
150.1186900079
 20
144.2597675285
  0
VERTEX
  8
SOLID
 62
7
  6
CONTINUOUS
 10
150.0628490147
 20
144.7501687604
  0
VERTEX
  8
SOLID
 62
7
  6
CONTINUOUS
 10
149.9908326661
 20
145.2777343408
  0
VERTEX
  8
SOLID
 62
7
  6
CONTINUOUS
 10
149.908071912
 20
145.7887599373
  0
VERTEX
  8
SOLID
 62
7
  6
CONTINUOUS
 10
149.8147639044
 20
146.2808610911
  0
VERTEX
  8
SOLID
 62
7
  6
CONTINUOUS
 10
149.7111247787
 20
146.7516840007
  0
VERTEX
  8
SOLID
 62
7
  6
CONTINUOUS
 10
149.5973802052
 20
147.1989197682
  0
VERTEX
  8
SOLID
 62
7
  6
CONTINUOUS
 10
149.4737512714
 20
147.6203158783
  0
VERTEX
  8
SOLID
 62
7
  6
CONTINUOUS
 10
149.3404363971
 20
148.0136755874
  0
VERTEX
  8
SOLID
 62
7
  6
CONTINUOUS
 10
149.1975827401
 20
148.3768593094
  0
SEQEND
  0
LINE
  8
SOLID
 62
7
  6
CONTINUOUS
 10
167.0890913894
 20
87.7639468689
 11
167.0890588474
 21
87.7645806636
  0
LINE
  8
SOLID
 62
7
  6
CONTINUOUS
 10
158.5186899905
 20
87.7639468689
 11
158.5187225325
 21
87.7645806636
  0
LINE
  8
SOLID
 62
7
  6
CONTINUOUS
 10
157.4493141599
 20
83.2362811806
 11
157.4677569831
 21
83.3630879759
  0
POLYLINE
  8
SOLID
 62
7
  6
CONTINUOUS
 66
1
 70
0
  0
VERTEX
  8
SOLID
 62
7
  6
CONTINUOUS
 10
176.5506621602
 20
148.683880222
  0
VERTEX
  8
SOLID
 62
7
  6
CONTINUOUS
 10
176.4101986398
 20
148.3768593094
  0
VERTEX
  8
SOLID
 62
7
  6
CONTINUOUS
 10
176.2673449828
 20
148.0136755874
  0
VERTEX
  8
SOLID
 62
7
  6
CONTINUOUS
 10
176.1340301085
 20
147.6203158783
  0
VERTEX
  8
SOLID
 62
7
  6
CONTINUOUS
 10
176.0104011747
 20
147.1989197682
  0
VERTEX
  8
SOLID
 62
7
  6
CONTINUOUS
 10
175.8966566011
 20
146.7516840007
  0
VERTEX
  8
SOLID
 62
7
  6
CONTINUOUS
 10
175.7930174755
 20
146.2808610911
  0
VERTEX
  8
SOLID
 62
7
  6
CONTINUOUS
 10
175.6997094679
 20
145.7887599373
  0
VERTEX
  8
SOLID
 62
7
  6
CONTINUOUS
 10
175.6169487138
 20
145.2777343408
  0
VERTEX
  8
SOLID
 62
7
  6
CONTINUOUS
 10
175.5449323652
 20
144.7501687604
  0
VERTEX
  8
SOLID
 62
7
  6
CONTINUOUS
 10
175.489091372
 20
144.2597675285
  0
SEQEND
  0
LINE
  8
SOLID
 62
7
  6
CONTINUOUS
 10
149.1975827401
 20
148.3768593094
 11
149.0571192197
 21
148.683880222
  0
POLYLINE
  8
SOLID
 62
7
  6
CONTINUOUS
 66
1
 70
0
  0
VERTEX
  8
SOLID
 62
7
  6
CONTINUOUS
 10
168.140024658
 20
83.3630874048
  0
VERTEX
  8
SOLID
 62
7
  6
CONTINUOUS
 10
168.1584960285
 20
83.2360915832
  0
VERTEX
  8
SOLID
 62
7
  6
CONTINUOUS
 10
168.1836684679
 20
83.0787053799
  0
VERTEX
  8
SOLID
 62
7
  6
CONTINUOUS
 10
168.2089592251
 20
82.9365271223
  0
VERTEX
  8
SOLID
 62
7
  6
CONTINUOUS
 10
168.2343452972
 20
82.8089238064
  0
VERTEX
  8
SOLID
 62
7
  6
CONTINUOUS
 10
168.2598379147
 20
82.6951620967
  0
VERTEX
  8
SOLID
 62
7
  6
CONTINUOUS
 10
168.285505345
 20
82.5943825029
  0
VERTEX
  8
SOLID
 62
7
  6
CONTINUOUS
 10
168.3115133312
 20
82.5055668372
  0
VERTEX
  8
SOLID
 62
7
  6
CONTINUOUS
 10
168.3381492645
 20
82.4276323759
  0
VERTEX
  8
SOLID
 62
7
  6
CONTINUOUS
 10
168.3659884295
 20
82.3592156251
  0
VERTEX
  8
SOLID
 62
7
  6
CONTINUOUS
 10
168.3961659515
 20
82.298608381
  0
VERTEX
  8
SOLID
 62
7
  6
CONTINUOUS
 10
168.4308974259
 20
82.2438400002
  0
VERTEX
  8
SOLID
 62
7
  6
CONTINUOUS
 10
168.474294816
 20
82.1933735177
  0
VERTEX
  8
SOLID
 62
7
  6
CONTINUOUS
 10
168.5326286508
 20
82.1485608229
  0
VERTEX
  8
SOLID
 62
7
  6
CONTINUOUS
 10
168.6097333714
 20
82.1179655127
  0
VERTEX
  8
SOLID
 62
7
  6
CONTINUOUS
 10
168.6654093499
 20
82.1118553854
  0
SEQEND
  0
POLYLINE
  8
SOLID
 62
7
  6
CONTINUOUS
 66
1
 70
0
  0
VERTEX
  8
SOLID
 62
7
  6
CONTINUOUS
 10
167.0890913712
 20
87.7639410763
  0
VERTEX
  8
SOLID
 62
7
  6
CONTINUOUS
 10
167.1446326444
 20
87.2759492789
  0
VERTEX
  8
SOLID
 62
7
  6
CONTINUOUS
 10
167.2166021256
 20
86.7483016989
  0
VERTEX
  8
SOLID
 62
7
  6
CONTINUOUS
 10
167.2993181546
 20
86.2371797878
  0
VERTEX
  8
SOLID
 62
7
  6
CONTINUOUS
 10
167.3925835186
 20
85.7449708504
  0
VERTEX
  8
SOLID
 62
7
  6
CONTINUOUS
 10
167.4961818024
 20
85.2740313836
  0
VERTEX
  8
SOLID
 62
7
  6
CONTINUOUS
 10
167.6098869928
 20
84.8266720339
  0
VERTEX
  8
SOLID
 62
7
  6
CONTINUOUS
 10
167.7334780076
 20
84.4051451002
  0
VERTEX
  8
SOLID
 62
7
  6
CONTINUOUS
 10
167.8667565759
 20
84.0116467166
  0
VERTEX
  8
SOLID
 62
7
  6
CONTINUOUS
 10
168.0095756141
 20
83.6483162099
  0
SEQEND
  0
LINE
  8
SOLID
 62
7
  6
CONTINUOUS
 10
166.9186899897
 20
144.2597617362
 11
166.9187225325
 21
144.2591279339
  0
POLYLINE
  8
SOLID
 62
7
  6
CONTINUOUS
 66
1
 70
0
  0
VERTEX
  8
SOLID
 62
7
  6
CONTINUOUS
 10
167.0953788084
 20
93.8898576164
  0
VERTEX
  8
SOLID
 62
7
  6
CONTINUOUS
 10
167.091592001
 20
93.5895124503
  0
VERTEX
  8
SOLID
 62
7
  6
CONTINUOUS
 10
167.0895407136
 20
93.3190547481
  0
VERTEX
  8
SOLID
 62
7
  6
CONTINUOUS
 10
167.0890588468
 20
87.7646251623
  0
SEQEND
  0
POLYLINE
  8
SOLID
 62
7
  6
CONTINUOUS
 66
1
 70
0
  0
VERTEX
  8
SOLID
 62
7
  6
CONTINUOUS
 10
166.9123575584
 20
138.1279545161
  0
VERTEX
  8
SOLID
 62
7
  6
CONTINUOUS
 10
166.9161540952
 20
138.4308433109
  0
VERTEX
  8
SOLID
 62
7
  6
CONTINUOUS
 10
166.9182269081
 20
138.7016673834
  0
VERTEX
  8
SOLID
 62
7
  6
CONTINUOUS
 10
166.9187225331
 20
144.2590834352
  0
SEQEND
  0
LINE
  8
SOLID
 62
7
  6
CONTINUOUS
 10
176.5586700416
 20
148.7887617871
 11
176.5400279173
 21
148.6606362158
  0
POLYLINE
  8
SOLID
 62
7
  6
CONTINUOUS
 66
1
 70
0
  0
VERTEX
  8
SOLID
 62
7
  6
CONTINUOUS
 10
157.4571194774
 20
83.3398289091
  0
VERTEX
  8
SOLID
 62
7
  6
CONTINUOUS
 10
157.5982057658
 20
83.6483162099
  0
VERTEX
  8
SOLID
 62
7
  6
CONTINUOUS
 10
157.741024804
 20
84.0116467166
  0
VERTEX
  8
SOLID
 62
7
  6
CONTINUOUS
 10
157.8743033723
 20
84.4051451002
  0
VERTEX
  8
SOLID
 62
7
  6
CONTINUOUS
 10
157.9978943871
 20
84.8266720339
  0
VERTEX
  8
SOLID
 62
7
  6
CONTINUOUS
 10
158.1115995775
 20
85.2740313836
  0
VERTEX
  8
SOLID
 62
7
  6
CONTINUOUS
 10
158.2151978613
 20
85.7449708504
  0
VERTEX
  8
SOLID
 62
7
  6
CONTINUOUS
 10
158.3084632253
 20
86.2371797878
  0
VERTEX
  8
SOLID
 62
7
  6
CONTINUOUS
 10
158.3911792543
 20
86.7483016989
  0
VERTEX
  8
SOLID
 62
7
  6
CONTINUOUS
 10
158.4631487355
 20
87.2759492789
  0
VERTEX
  8
SOLID
 62
7
  6
CONTINUOUS
 10
158.5186900087
 20
87.7639410763
  0
SEQEND
  0
LINE
  8
SOLID
 62
7
  6
CONTINUOUS
 10
184.8095756141
 20
83.6483162099
 11
184.9506619025
 21
83.3398289091
  0
POLYLINE
  8
SOLID
 62
7
  6
CONTINUOUS
 66
1
 70
0
  0
VERTEX
  8
SOLID
 62
7
  6
CONTINUOUS
 10
165.8677537241
 20
148.6606356441
  0
VERTEX
  8
SOLID
 62
7
  6
CONTINUOUS
 10
165.8491401552
 20
148.7885722681
  0
VERTEX
  8
SOLID
 62
7
  6
CONTINUOUS
 10
165.8240107266
 20
148.9456091623
  0
VERTEX
  8
SOLID
 62
7
  6
CONTINUOUS
 10
165.7987678692
 20
149.0874701852
  0
VERTEX
  8
SOLID
 62
7
  6
CONTINUOUS
 10
165.7734342396
 20
149.2147935393
  0
VERTEX
  8
SOLID
 62
7
  6
CONTINUOUS
 10
165.7479984952
 20
149.3283158844
  0
VERTEX
  8
SOLID
 62
7
  6
CONTINUOUS
 10
165.7223926893
 20
149.428898165
  0
VERTEX
  8
SOLID
 62
7
  6
CONTINUOUS
 10
165.6964532966
 20
149.5175546289
  0
VERTEX
  8
SOLID
 62
7
  6
CONTINUOUS
 10
165.669895978
 20
149.5953658193
  0
VERTEX
  8
SOLID
 62
7
  6
CONTINUOUS
 10
165.6421526808
 20
149.6636887645
  0
VERTEX
  8
SOLID
 62
7
  6
CONTINUOUS
 10
165.6121058835
 20
149.7242184067
  0
VERTEX
  8
SOLID
 62
7
  6
CONTINUOUS
 10
165.5775796512
 20
149.7789097345
  0
VERTEX
  8
SOLID
 62
7
  6
CONTINUOUS
 10
165.5345399815
 20
149.829306787
  0
VERTEX
  8
SOLID
 62
7
  6
CONTINUOUS
 10
165.476797094
 20
149.8741740777
  0
VERTEX
  8
SOLID
 62
7
  6
CONTINUOUS
 10
165.400389558
 20
149.9052094398
  0
VERTEX
  8
SOLID
 62
7
  6
CONTINUOUS
 10
165.3423900697
 20
149.9118533308
  0
SEQEND
  0
POLYLINE
  8
SOLID
 62
7
  6
CONTINUOUS
 66
1
 70
0
  0
VERTEX
  8
SOLID
 62
7
  6
CONTINUOUS
 10
166.9186900079
 20
144.2597675285
  0
VERTEX
  8
SOLID
 62
7
  6
CONTINUOUS
 10
166.8628490147
 20
144.7501687604
  0
VERTEX
  8
SOLID
 62
7
  6
CONTINUOUS
 10
166.7908326661
 20
145.2777343408
  0
VERTEX
  8
SOLID
 62
7
  6
CONTINUOUS
 10
166.708071912
 20
145.7887599373
  0
VERTEX
  8
SOLID
 62
7
  6
CONTINUOUS
 10
166.6147639044
 20
146.2808610911
  0
VERTEX
  8
SOLID
 62
7
  6
CONTINUOUS
 10
166.5111247788
 20
146.7516840007
  0
VERTEX
  8
SOLID
 62
7
  6
CONTINUOUS
 10
166.3973802052
 20
147.1989197682
  0
VERTEX
  8
SOLID
 62
7
  6
CONTINUOUS
 10
166.2737512714
 20
147.6203158783
  0
VERTEX
  8
SOLID
 62
7
  6
CONTINUOUS
 10
166.1404363971
 20
148.0136755874
  0
VERTEX
  8
SOLID
 62
7
  6
CONTINUOUS
 10
165.9975827401
 20
148.3768593094
  0
SEQEND
  0
POLYLINE
  8
SOLID
 62
7
  6
CONTINUOUS
 66
1
 70
0
  0
VERTEX
  8
SOLID
 62
7
  6
CONTINUOUS
 10
175.3161609239
 20
93.5921789486
  0
VERTEX
  8
SOLID
 62
7
  6
CONTINUOUS
 10
175.3123788305
 20
93.8927358079
  0
VERTEX
  8
SOLID
 62
7
  6
CONTINUOUS
 10
175.3123161784
 20
93.9607213248
  0
VERTEX
  8
SOLID
 62
7
  6
CONTINUOUS
 10
175.3132248177
 20
94.0271748232
  0
VERTEX
  8
SOLID
 62
7
  6
CONTINUOUS
 10
175.3151623316
 20
94.0920420164
  0
VERTEX
  8
SOLID
 62
7
  6
CONTINUOUS
 10
175.318190913
 20
94.1552425486
  0
VERTEX
  8
SOLID
 62
7
  6
CONTINUOUS
 10
175.3223751214
 20
94.2167132065
  0
VERTEX
  8
SOLID
 62
7
  6
CONTINUOUS
 10
175.3277616292
 20
94.2764055665
  0
VERTEX
  8
SOLID
 62
7
  6
CONTINUOUS
 10
175.3343829335
 20
94.3341819516
  0
VERTEX
  8
SOLID
 62
7
  6
CONTINUOUS
 10
175.3422719374
 20
94.3899417591
  0
VERTEX
  8
SOLID
 62
7
  6
CONTINUOUS
 10
175.3514227016
 20
94.4436568413
  0
VERTEX
  8
SOLID
 62
7
  6
CONTINUOUS
 10
175.3618801666
 20
94.4953342888
  0
VERTEX
  8
SOLID
 62
7
  6
CONTINUOUS
 10
175.3737769529
 20
94.545628915
  0
VERTEX
  8
SOLID
 62
7
  6
CONTINUOUS
 10
175.3869236972
 20
94.5932171418
  0
VERTEX
  8
SOLID
 62
7
  6
CONTINUOUS
 10
175.401846345
 20
94.6384807301
  0
VERTEX
  8
SOLID
 62
7
  6
CONTINUOUS
 10
175.418791393
 20
94.6816964641
  0
VERTEX
  8
SOLID
 62
7
  6
CONTINUOUS
 10
175.438001213
 20
94.7227967064
  0
VERTEX
  8
SOLID
 62
7
  6
CONTINUOUS
 10
175.459716051
 20
94.7618901782
  0
VERTEX
  8
SOLID
 62
7
  6
CONTINUOUS
 10
175.4838948808
 20
94.7984365816
  0
VERTEX
  8
SOLID
 62
7
  6
CONTINUOUS
 10
175.5105743369
 20
94.8320098775
  0
VERTEX
  8
SOLID
 62
7
  6
CONTINUOUS
 10
175.5398211627
 20
94.8621654799
  0
VERTEX
  8
SOLID
 62
7
  6
CONTINUOUS
 10
175.5714376914
 20
94.8881283199
  0
VERTEX
  8
SOLID
 62
7
  6
CONTINUOUS
 10
175.6050091545
 20
94.90900194
  0
VERTEX
  8
SOLID
 62
7
  6
CONTINUOUS
 10
175.6401097468
 20
94.9239369657
  0
VERTEX
  8
SOLID
 62
7
  6
CONTINUOUS
 10
175.6751850992
 20
94.9318379909
  0
VERTEX
  8
SOLID
 62
7
  6
CONTINUOUS
 10
175.6941458236
 20
94.9330422568
  0
SEQEND
  0
POLYLINE
  8
SOLID
 62
7
  6
CONTINUOUS
 66
1
 70
0
  0
VERTEX
  8
SOLID
 62
7
  6
CONTINUOUS
 10
175.4915993941
 20
138.4334886435
  0
VERTEX
  8
SOLID
 62
7
  6
CONTINUOUS
 10
175.495387388
 20
138.132752398
  0
VERTEX
  8
SOLID
 62
7
  6
CONTINUOUS
 10
175.4954762282
 20
138.0650609683
  0
VERTEX
  8
SOLID
 62
7
  6
CONTINUOUS
 10
175.4946035926
 20
137.9988154379
  0
VERTEX
  8
SOLID
 62
7
  6
CONTINUOUS
 10
175.4927094768
 20
137.9340730589
  0
VERTEX
  8
SOLID
 62
7
  6
CONTINUOUS
 10
175.4897293069
 20
137.8709175023
  0
VERTEX
  8
SOLID
 62
7
  6
CONTINUOUS
 10
175.4855949373
 20
137.80942035
  0
VERTEX
  8
SOLID
 62
7
  6
CONTINUOUS
 10
175.4802543104
 20
137.7496306792
  0
VERTEX
  8
SOLID
 62
7
  6
CONTINUOUS
 10
175.4736714689
 20
137.6916860535
  0
VERTEX
  8
SOLID
 62
7
  6
CONTINUOUS
 10
175.4658103662
 20
137.6357153203
  0
VERTEX
  8
SOLID
 62
7
  6
CONTINUOUS
 10
175.4566622358
 20
137.5817011399
  0
VERTEX
  8
SOLID
 62
7
  6
CONTINUOUS
 10
175.4461969079
 20
137.5297245575
  0
VERTEX
  8
SOLID
 62
7
  6
CONTINUOUS
 10
175.4342778361
 20
137.4791739602
  0
VERTEX
  8
SOLID
 62
7
  6
CONTINUOUS
 10
175.4211003379
 20
137.4312976875
  0
VERTEX
  8
SOLID
 62
7
  6
CONTINUOUS
 10
175.4061686882
 20
137.3858805856
  0
VERTEX
  8
SOLID
 62
7
  6
CONTINUOUS
 10
175.3891945764
 20
137.3424966332
  0
VERTEX
  8
SOLID
 62
7
  6
CONTINUOUS
 10
175.369982826
 20
137.3013112803
  0
VERTEX
  8
SOLID
 62
7
  6
CONTINUOUS
 10
175.3482786624
 20
137.2621732035
  0
VERTEX
  8
SOLID
 62
7
  6
CONTINUOUS
 10
175.3241436579
 20
137.2256294473
  0
VERTEX
  8
SOLID
 62
7
  6
CONTINUOUS
 10
175.2975422965
 20
137.192083915
  0
VERTEX
  8
SOLID
 62
7
  6
CONTINUOUS
 10
175.2684108326
 20
137.1619617038
  0
VERTEX
  8
SOLID
 62
7
  6
CONTINUOUS
 10
175.2369445008
 20
137.1360153752
  0
VERTEX
  8
SOLID
 62
7
  6
CONTINUOUS
 10
175.2035393305
 20
137.1151112842
  0
VERTEX
  8
SOLID
 62
7
  6
CONTINUOUS
 10
175.1685996789
 20
137.1000773827
  0
VERTEX
  8
SOLID
 62
7
  6
CONTINUOUS
 10
175.1336282548
 20
137.0919997409
  0
VERTEX
  8
SOLID
 62
7
  6
CONTINUOUS
 10
175.1134608807
 20
137.0906657573
  0
SEQEND
  0
LINE
  8
SOLID
 62
7
  6
CONTINUOUS
 10
175.3182283189
 20
93.321714476
 11
175.3161609239
 21
93.5921789486
  0
LINE
  8
SOLID
 62
7
  6
CONTINUOUS
 10
175.4895422351
 20
138.704317145
 11
175.4915993941
 21
138.4334886435
  0
LINE
  8
SOLID
 62
7
  6
CONTINUOUS
 10
175.3182283189
 20
93.321714476
 11
175.3187225331
 21
87.7646251623
  0
LINE
  8
SOLID
 62
7
  6
CONTINUOUS
 10
175.4890588468
 20
144.2590834352
 11
175.4895422351
 21
138.704317145
  0
LINE
  8
SOLID
 62
7
  6
CONTINUOUS
 10
175.4890913902
 20
144.2597617362
 11
175.4890588474
 21
144.2591279339
  0
LINE
  8
SOLID
 62
7
  6
CONTINUOUS
 10
175.3186899905
 20
87.7639468689
 11
175.3187225325
 21
87.7645806636
  0
LINE
  8
SOLID
 62
7
  6
CONTINUOUS
 10
174.2493141608
 20
83.2362811865
 11
174.2677569831
 21
83.3630879759
  0
POLYLINE
  8
SOLID
 62
7
  6
CONTINUOUS
 66
1
 70
0
  0
VERTEX
  8
SOLID
 62
7
  6
CONTINUOUS
 10
193.3506621602
 20
148.683880222
  0
VERTEX
  8
SOLID
 62
7
  6
CONTINUOUS
 10
193.2101986398
 20
148.3768593094
  0
VERTEX
  8
SOLID
 62
7
  6
CONTINUOUS
 10
193.0673449828
 20
148.0136755874
  0
VERTEX
  8
SOLID
 62
7
  6
CONTINUOUS
 10
192.9340301085
 20
147.6203158783
  0
VERTEX
  8
SOLID
 62
7
  6
CONTINUOUS
 10
192.8104011747
 20
147.1989197682
  0
VERTEX
  8
SOLID
 62
7
  6
CONTINUOUS
 10
192.6966566012
 20
146.7516840007
  0
VERTEX
  8
SOLID
 62
7
  6
CONTINUOUS
 10
192.5930174755
 20
146.2808610911
  0
VERTEX
  8
SOLID
 62
7
  6
CONTINUOUS
 10
192.4997094679
 20
145.7887599373
  0
VERTEX
  8
SOLID
 62
7
  6
CONTINUOUS
 10
192.4169487138
 20
145.2777343408
  0
VERTEX
  8
SOLID
 62
7
  6
CONTINUOUS
 10
192.3449323652
 20
144.7501687604
  0
VERTEX
  8
SOLID
 62
7
  6
CONTINUOUS
 10
192.289091372
 20
144.2597675285
  0
SEQEND
  0
LINE
  8
SURFACE
 62
7
  6
CONTINUOUS
 10
83.3732685191
 20
137.0903765046
 11
83.2941572242
 21
137.091280605
  0
LINE
  8
SOLID
 62
7
  6
CONTINUOUS
 10
100.1732685191
 20
137.0903765046
 11
100.0941572242
 21
137.091280605
  0
POLYLINE
  8
SURFACE
 62
7
  6
CONTINUOUS
 66
1
 70
0
  0
VERTEX
  8
SURFACE
 62
7
  6
CONTINUOUS
 10
83.2941463813
 20
137.0906663849
  0
VERTEX
  8
SURFACE
 62
7
  6
CONTINUOUS
 10
83.2773922688
 20
137.0916164957
  0
VERTEX
  8
SURFACE
 62
7
  6
CONTINUOUS
 10
83.2440084187
 20
137.0985424542
  0
VERTEX
  8
SURFACE
 62
7
  6
CONTINUOUS
 10
83.2104199047
 20
137.1119517329
  0
VERTEX
  8
SURFACE
 62
7
  6
CONTINUOUS
 10
83.1778174155
 20
137.1311024994
  0
VERTEX
  8
SURFACE
 62
7
  6
CONTINUOUS
 10
83.1468960471
 20
137.1551687265
  0
VERTEX
  8
SURFACE
 62
7
  6
CONTINUOUS
 10
83.118033286
 20
137.1833969788
  0
VERTEX
  8
SURFACE
 62
7
  6
CONTINUOUS
 10
83.0912788907
 20
137.2153350431
  0
VERTEX
  8
SURFACE
 62
7
  6
CONTINUOUS
 10
83.066768668
 20
137.2504771813
  0
VERTEX
  8
SURFACE
 62
7
  6
CONTINUOUS
 10
83.0445767602
 20
137.288350989
  0
VERTEX
  8
SURFACE
 62
7
  6
CONTINUOUS
 10
83.0247593896
 20
137.3284638783
  0
VERTEX
  8
SURFACE
 62
7
  6
CONTINUOUS
 10
83.0072356032
 20
137.3706545995
  0
VERTEX
  8
SURFACE
 62
7
  6
CONTINUOUS
 10
82.9917018368
 20
137.4151162076
  0
VERTEX
  8
SURFACE
 62
7
  6
CONTINUOUS
 10
82.9780658754
 20
137.461682204
  0
VERTEX
  8
SURFACE
 62
7
  6
CONTINUOUS
 10
82.9658478104
 20
137.5107752442
  0
VERTEX
  8
SURFACE
 62
7
  6
CONTINUOUS
 10
82.954942725
 20
137.561674115
  0
VERTEX
  8
SURFACE
 62
7
  6
CONTINUOUS
 10
82.9451896938
 20
137.6155963597
  0
VERTEX
  8
SURFACE
 62
7
  6
CONTINUOUS
 10
82.9366534323
 20
137.6723210781
  0
VERTEX
  8
SURFACE
 62
7
  6
CONTINUOUS
 10
82.9294296931
 20
137.7314950374
  0
VERTEX
  8
SURFACE
 62
7
  6
CONTINUOUS
 10
82.9235145483
 20
137.7930270218
  0
VERTEX
  8
SURFACE
 62
7
  6
CONTINUOUS
 10
82.9188954434
 20
137.8566726008
  0
VERTEX
  8
SURFACE
 62
7
  6
CONTINUOUS
 10
82.9155422728
 20
137.922195884
  0
VERTEX
  8
SURFACE
 62
7
  6
CONTINUOUS
 10
82.9133862065
 20
137.9893961788
  0
VERTEX
  8
SURFACE
 62
7
  6
CONTINUOUS
 10
82.9123505007
 20
138.0580475242
  0
VERTEX
  8
SURFACE
 62
7
  6
CONTINUOUS
 10
82.9123575584
 20
138.1279545161
  0
SEQEND
  0
POLYLINE
  8
SOLID
 62
7
  6
CONTINUOUS
 66
1
 70
0
  0
VERTEX
  8
SOLID
 62
7
  6
CONTINUOUS
 10
100.0941463813
 20
137.0906663849
  0
VERTEX
  8
SOLID
 62
7
  6
CONTINUOUS
 10
100.0773922688
 20
137.0916164957
  0
VERTEX
  8
SOLID
 62
7
  6
CONTINUOUS
 10
100.0440084187
 20
137.0985424542
  0
VERTEX
  8
SOLID
 62
7
  6
CONTINUOUS
 10
100.0104199047
 20
137.1119517329
  0
VERTEX
  8
SOLID
 62
7
  6
CONTINUOUS
 10
99.9778174155
 20
137.1311024994
  0
VERTEX
  8
SOLID
 62
7
  6
CONTINUOUS
 10
99.9468960471
 20
137.1551687265
  0
VERTEX
  8
SOLID
 62
7
  6
CONTINUOUS
 10
99.918033286
 20
137.1833969788
  0
VERTEX
  8
SOLID
 62
7
  6
CONTINUOUS
 10
99.8912788907
 20
137.2153350431
  0
VERTEX
  8
SOLID
 62
7
  6
CONTINUOUS
 10
99.866768668
 20
137.2504771813
  0
VERTEX
  8
SOLID
 62
7
  6
CONTINUOUS
 10
99.8445767602
 20
137.288350989
  0
VERTEX
  8
SOLID
 62
7
  6
CONTINUOUS
 10
99.8247593896
 20
137.3284638783
  0
VERTEX
  8
SOLID
 62
7
  6
CONTINUOUS
 10
99.8072356032
 20
137.3706545995
  0
VERTEX
  8
SOLID
 62
7
  6
CONTINUOUS
 10
99.7917018368
 20
137.4151162076
  0
VERTEX
  8
SOLID
 62
7
  6
CONTINUOUS
 10
99.7780658754
 20
137.461682204
  0
VERTEX
  8
SOLID
 62
7
  6
CONTINUOUS
 10
99.7658478104
 20
137.5107752442
  0
VERTEX
  8
SOLID
 62
7
  6
CONTINUOUS
 10
99.754942725
 20
137.561674115
  0
VERTEX
  8
SOLID
 62
7
  6
CONTINUOUS
 10
99.7451896938
 20
137.6155963597
  0
VERTEX
  8
SOLID
 62
7
  6
CONTINUOUS
 10
99.7366534323
 20
137.6723210781
  0
VERTEX
  8
SOLID
 62
7
  6
CONTINUOUS
 10
99.7294296931
 20
137.7314950374
  0
VERTEX
  8
SOLID
 62
7
  6
CONTINUOUS
 10
99.7235145483
 20
137.7930270218
  0
VERTEX
  8
SOLID
 62
7
  6
CONTINUOUS
 10
99.7188954434
 20
137.8566726008
  0
VERTEX
  8
SOLID
 62
7
  6
CONTINUOUS
 10
99.7155422728
 20
137.922195884
  0
VERTEX
  8
SOLID
 62
7
  6
CONTINUOUS
 10
99.7133862065
 20
137.9893961788
  0
VERTEX
  8
SOLID
 62
7
  6
CONTINUOUS
 10
99.7123505007
 20
138.0580475242
  0
VERTEX
  8
SOLID
 62
7
  6
CONTINUOUS
 10
99.7123575584
 20
138.1279545161
  0
SEQEND
  0
POLYLINE
  8
SOLID
 62
7
  6
CONTINUOUS
 66
1
 70
0
  0
VERTEX
  8
SOLID
 62
7
  6
CONTINUOUS
 10
116.8941463813
 20
137.0906663849
  0
VERTEX
  8
SOLID
 62
7
  6
CONTINUOUS
 10
116.8773922688
 20
137.0916164957
  0
VERTEX
  8
SOLID
 62
7
  6
CONTINUOUS
 10
116.8440084187
 20
137.0985424542
  0
VERTEX
  8
SOLID
 62
7
  6
CONTINUOUS
 10
116.8104199047
 20
137.1119517329
  0
VERTEX
  8
SOLID
 62
7
  6
CONTINUOUS
 10
116.7778174155
 20
137.1311024994
  0
VERTEX
  8
SOLID
 62
7
  6
CONTINUOUS
 10
116.7468960471
 20
137.1551687265
  0
VERTEX
  8
SOLID
 62
7
  6
CONTINUOUS
 10
116.718033286
 20
137.1833969788
  0
VERTEX
  8
SOLID
 62
7
  6
CONTINUOUS
 10
116.6912788907
 20
137.2153350431
  0
VERTEX
  8
SOLID
 62
7
  6
CONTINUOUS
 10
116.666768668
 20
137.2504771813
  0
VERTEX
  8
SOLID
 62
7
  6
CONTINUOUS
 10
116.6445767602
 20
137.288350989
  0
VERTEX
  8
SOLID
 62
7
  6
CONTINUOUS
 10
116.6247593896
 20
137.3284638783
  0
VERTEX
  8
SOLID
 62
7
  6
CONTINUOUS
 10
116.6072356032
 20
137.3706545995
  0
VERTEX
  8
SOLID
 62
7
  6
CONTINUOUS
 10
116.5917018368
 20
137.4151162076
  0
VERTEX
  8
SOLID
 62
7
  6
CONTINUOUS
 10
116.5780658754
 20
137.461682204
  0
VERTEX
  8
SOLID
 62
7
  6
CONTINUOUS
 10
116.5658478104
 20
137.5107752442
  0
VERTEX
  8
SOLID
 62
7
  6
CONTINUOUS
 10
116.554942725
 20
137.561674115
  0
VERTEX
  8
SOLID
 62
7
  6
CONTINUOUS
 10
116.5451896938
 20
137.6155963597
  0
VERTEX
  8
SOLID
 62
7
  6
CONTINUOUS
 10
116.5366534323
 20
137.6723210781
  0
VERTEX
  8
SOLID
 62
7
  6
CONTINUOUS
 10
116.5294296931
 20
137.7314950374
  0
VERTEX
  8
SOLID
 62
7
  6
CONTINUOUS
 10
116.5235145483
 20
137.7930270218
  0
VERTEX
  8
SOLID
 62
7
  6
CONTINUOUS
 10
116.5188954434
 20
137.8566726008
  0
VERTEX
  8
SOLID
 62
7
  6
CONTINUOUS
 10
116.5155422728
 20
137.922195884
  0
VERTEX
  8
SOLID
 62
7
  6
CONTINUOUS
 10
116.5133862065
 20
137.9893961788
  0
VERTEX
  8
SOLID
 62
7
  6
CONTINUOUS
 10
116.5123505007
 20
138.0580475242
  0
VERTEX
  8
SOLID
 62
7
  6
CONTINUOUS
 10
116.5123575584
 20
138.1279545161
  0
SEQEND
  0
POLYLINE
  8
SOLID
 62
7
  6
CONTINUOUS
 66
1
 70
0
  0
VERTEX
  8
SOLID
 62
7
  6
CONTINUOUS
 10
133.6941463813
 20
137.0906663849
  0
VERTEX
  8
SOLID
 62
7
  6
CONTINUOUS
 10
133.6773922688
 20
137.0916164957
  0
VERTEX
  8
SOLID
 62
7
  6
CONTINUOUS
 10
133.6440084187
 20
137.0985424542
  0
VERTEX
  8
SOLID
 62
7
  6
CONTINUOUS
 10
133.6104199047
 20
137.1119517329
  0
VERTEX
  8
SOLID
 62
7
  6
CONTINUOUS
 10
133.5778174155
 20
137.1311024994
  0
VERTEX
  8
SOLID
 62
7
  6
CONTINUOUS
 10
133.5468960471
 20
137.1551687265
  0
VERTEX
  8
SOLID
 62
7
  6
CONTINUOUS
 10
133.518033286
 20
137.1833969788
  0
VERTEX
  8
SOLID
 62
7
  6
CONTINUOUS
 10
133.4912788907
 20
137.2153350431
  0
VERTEX
  8
SOLID
 62
7
  6
CONTINUOUS
 10
133.466768668
 20
137.2504771813
  0
VERTEX
  8
SOLID
 62
7
  6
CONTINUOUS
 10
133.4445767602
 20
137.288350989
  0
VERTEX
  8
SOLID
 62
7
  6
CONTINUOUS
 10
133.4247593896
 20
137.3284638783
  0
VERTEX
  8
SOLID
 62
7
  6
CONTINUOUS
 10
133.4072356032
 20
137.3706545995
  0
VERTEX
  8
SOLID
 62
7
  6
CONTINUOUS
 10
133.3917018368
 20
137.4151162076
  0
VERTEX
  8
SOLID
 62
7
  6
CONTINUOUS
 10
133.3780658754
 20
137.461682204
  0
VERTEX
  8
SOLID
 62
7
  6
CONTINUOUS
 10
133.3658478104
 20
137.5107752442
  0
VERTEX
  8
SOLID
 62
7
  6
CONTINUOUS
 10
133.354942725
 20
137.561674115
  0
VERTEX
  8
SOLID
 62
7
  6
CONTINUOUS
 10
133.3451896938
 20
137.6155963597
  0
VERTEX
  8
SOLID
 62
7
  6
CONTINUOUS
 10
133.3366534323
 20
137.6723210781
  0
VERTEX
  8
SOLID
 62
7
  6
CONTINUOUS
 10
133.3294296931
 20
137.7314950374
  0
VERTEX
  8
SOLID
 62
7
  6
CONTINUOUS
 10
133.3235145483
 20
137.7930270218
  0
VERTEX
  8
SOLID
 62
7
  6
CONTINUOUS
 10
133.3188954434
 20
137.8566726008
  0
VERTEX
  8
SOLID
 62
7
  6
CONTINUOUS
 10
133.3155422728
 20
137.922195884
  0
VERTEX
  8
SOLID
 62
7
  6
CONTINUOUS
 10
133.3133862065
 20
137.9893961788
  0
VERTEX
  8
SOLID
 62
7
  6
CONTINUOUS
 10
133.3123505007
 20
138.0580475242
  0
VERTEX
  8
SOLID
 62
7
  6
CONTINUOUS
 10
133.3123575584
 20
138.1279545161
  0
SEQEND
  0
POLYLINE
  8
SOLID
 62
7
  6
CONTINUOUS
 66
1
 70
0
  0
VERTEX
  8
SOLID
 62
7
  6
CONTINUOUS
 10
150.4941463813
 20
137.0906663849
  0
VERTEX
  8
SOLID
 62
7
  6
CONTINUOUS
 10
150.4773922688
 20
137.0916164957
  0
VERTEX
  8
SOLID
 62
7
  6
CONTINUOUS
 10
150.4440084187
 20
137.0985424542
  0
VERTEX
  8
SOLID
 62
7
  6
CONTINUOUS
 10
150.4104199047
 20
137.1119517329
  0
VERTEX
  8
SOLID
 62
7
  6
CONTINUOUS
 10
150.3778174155
 20
137.1311024994
  0
VERTEX
  8
SOLID
 62
7
  6
CONTINUOUS
 10
150.3468960471
 20
137.1551687265
  0
VERTEX
  8
SOLID
 62
7
  6
CONTINUOUS
 10
150.318033286
 20
137.1833969788
  0
VERTEX
  8
SOLID
 62
7
  6
CONTINUOUS
 10
150.2912788907
 20
137.2153350431
  0
VERTEX
  8
SOLID
 62
7
  6
CONTINUOUS
 10
150.266768668
 20
137.2504771813
  0
VERTEX
  8
SOLID
 62
7
  6
CONTINUOUS
 10
150.2445767602
 20
137.288350989
  0
VERTEX
  8
SOLID
 62
7
  6
CONTINUOUS
 10
150.2247593896
 20
137.3284638783
  0
VERTEX
  8
SOLID
 62
7
  6
CONTINUOUS
 10
150.2072356032
 20
137.3706545995
  0
VERTEX
  8
SOLID
 62
7
  6
CONTINUOUS
 10
150.1917018368
 20
137.4151162076
  0
VERTEX
  8
SOLID
 62
7
  6
CONTINUOUS
 10
150.1780658754
 20
137.461682204
  0
VERTEX
  8
SOLID
 62
7
  6
CONTINUOUS
 10
150.1658478104
 20
137.5107752442
  0
VERTEX
  8
SOLID
 62
7
  6
CONTINUOUS
 10
150.154942725
 20
137.561674115
  0
VERTEX
  8
SOLID
 62
7
  6
CONTINUOUS
 10
150.1451896938
 20
137.6155963597
  0
VERTEX
  8
SOLID
 62
7
  6
CONTINUOUS
 10
150.1366534323
 20
137.6723210781
  0
VERTEX
  8
SOLID
 62
7
  6
CONTINUOUS
 10
150.1294296931
 20
137.7314950374
  0
VERTEX
  8
SOLID
 62
7
  6
CONTINUOUS
 10
150.1235145483
 20
137.7930270218
  0
VERTEX
  8
SOLID
 62
7
  6
CONTINUOUS
 10
150.1188954434
 20
137.8566726008
  0
VERTEX
  8
SOLID
 62
7
  6
CONTINUOUS
 10
150.1155422728
 20
137.922195884
  0
VERTEX
  8
SOLID
 62
7
  6
CONTINUOUS
 10
150.1133862065
 20
137.9893961788
  0
VERTEX
  8
SOLID
 62
7
  6
CONTINUOUS
 10
150.1123505007
 20
138.0580475242
  0
VERTEX
  8
SOLID
 62
7
  6
CONTINUOUS
 10
150.1123575584
 20
138.1279545161
  0
SEQEND
  0
LINE
  8
SOLID
 62
7
  6
CONTINUOUS
 10
165.9975827401
 20
148.3768593094
 11
165.8571192197
 21
148.683880222
  0
LINE
  8
SOLID
 62
7
  6
CONTINUOUS
 10
183.8890913894
 20
87.7639468689
 11
183.8890588474
 21
87.7645806636
  0
LINE
  8
SOLID
 62
7
  6
CONTINUOUS
 10
183.7186899897
 20
144.2597617362
 11
183.7187225325
 21
144.2591279339
  0
POLYLINE
  8
SOLID
 62
7
  6
CONTINUOUS
 66
1
 70
0
  0
VERTEX
  8
SOLID
 62
7
  6
CONTINUOUS
 10
183.8953788084
 20
93.8898576164
  0
VERTEX
  8
SOLID
 62
7
  6
CONTINUOUS
 10
183.891592001
 20
93.5895124503
  0
VERTEX
  8
SOLID
 62
7
  6
CONTINUOUS
 10
183.8895407136
 20
93.3190547481
  0
VERTEX
  8
SOLID
 62
7
  6
CONTINUOUS
 10
183.8890588468
 20
87.7646251623
  0
SEQEND
  0
POLYLINE
  8
SOLID
 62
7
  6
CONTINUOUS
 66
1
 70
0
  0
VERTEX
  8
SOLID
 62
7
  6
CONTINUOUS
 10
183.7123575584
 20
138.1279545161
  0
VERTEX
  8
SOLID
 62
7
  6
CONTINUOUS
 10
183.7161540952
 20
138.4308433109
  0
VERTEX
  8
SOLID
 62
7
  6
CONTINUOUS
 10
183.7182269081
 20
138.7016673834
  0
VERTEX
  8
SOLID
 62
7
  6
CONTINUOUS
 10
183.7187225331
 20
144.2590834352
  0
SEQEND
  0
POLYLINE
  8
SOLID
 62
7
  6
CONTINUOUS
 66
1
 70
0
  0
VERTEX
  8
SOLID
 62
7
  6
CONTINUOUS
 10
174.2571194774
 20
83.3398289091
  0
VERTEX
  8
SOLID
 62
7
  6
CONTINUOUS
 10
174.3982057658
 20
83.6483162099
  0
VERTEX
  8
SOLID
 62
7
  6
CONTINUOUS
 10
174.541024804
 20
84.0116467166
  0
VERTEX
  8
SOLID
 62
7
  6
CONTINUOUS
 10
174.6743033723
 20
84.4051451002
  0
VERTEX
  8
SOLID
 62
7
  6
CONTINUOUS
 10
174.7978943871
 20
84.8266720339
  0
VERTEX
  8
SOLID
 62
7
  6
CONTINUOUS
 10
174.9115995775
 20
85.2740313836
  0
VERTEX
  8
SOLID
 62
7
  6
CONTINUOUS
 10
175.0151978613
 20
85.7449708504
  0
VERTEX
  8
SOLID
 62
7
  6
CONTINUOUS
 10
175.1084632253
 20
86.2371797878
  0
VERTEX
  8
SOLID
 62
7
  6
CONTINUOUS
 10
175.1911792543
 20
86.7483016989
  0
VERTEX
  8
SOLID
 62
7
  6
CONTINUOUS
 10
175.2631487355
 20
87.2759492789
  0
VERTEX
  8
SOLID
 62
7
  6
CONTINUOUS
 10
175.3186900087
 20
87.7639410763
  0
SEQEND
  0
POLYLINE
  8
SOLID
 62
7
  6
CONTINUOUS
 66
1
 70
0
  0
VERTEX
  8
SOLID
 62
7
  6
CONTINUOUS
 10
227.4654098339
 20
149.9118532177
  0
VERTEX
  8
SOLID
 62
7
  6
CONTINUOUS
 10
227.4097799259
 20
149.9057535798
  0
VERTEX
  8
SOLID
 62
7
  6
CONTINUOUS
 10
227.3327103946
 20
149.8751957693
  0
VERTEX
  8
SOLID
 62
7
  6
CONTINUOUS
 10
227.2743798028
 20
149.8304176629
  0
VERTEX
  8
SOLID
 62
7
  6
CONTINUOUS
 10
227.230983079
 20
149.7799863081
  0
VERTEX
  8
SOLID
 62
7
  6
CONTINUOUS
 10
227.1962542035
 20
149.7252585606
  0
VERTEX
  8
SOLID
 62
7
  6
CONTINUOUS
 10
227.1660823346
 20
149.6647025866
  0
VERTEX
  8
SOLID
 62
7
  6
CONTINUOUS
 10
227.138251189
 20
149.5963503301
  0
VERTEX
  8
SOLID
 62
7
  6
CONTINUOUS
 10
227.1116247833
 20
149.5184947127
  0
VERTEX
  8
SOLID
 62
7
  6
CONTINUOUS
 10
227.0856271763
 20
149.4297727514
  0
VERTEX
  8
SOLID
 62
7
  6
CONTINUOUS
 10
227.0599705187
 20
149.3291019872
  0
VERTEX
  8
SOLID
 62
7
  6
CONTINUOUS
 10
227.034488754
 20
149.2154645326
  0
VERTEX
  8
SOLID
 62
7
  6
CONTINUOUS
 10
227.0091133435
 20
149.0880009297
  0
VERTEX
  8
SOLID
 62
7
  6
CONTINUOUS
 10
226.9838328362
 20
148.945977763
  0
VERTEX
  8
SOLID
 62
7
  6
CONTINUOUS
 10
226.9586700416
 20
148.7887617871
  0
SEQEND
  0
LINE
  8
SOLID
 62
7
  6
CONTINUOUS
 10
233.967808877
 20
144.2854260821
 11
233.9187225331
 21
144.2841356279
  0
LINE
  8
SOLID
 62
7
  6
CONTINUOUS
 10
217.167808877
 20
144.2854260821
 11
217.1187225331
 21
144.2841356279
  0
LINE
  8
SOLID
 62
7
  6
CONTINUOUS
 10
200.367808877
 20
144.2854260821
 11
200.3187225331
 21
144.2841356279
  0
LINE
  8
SURFACE
 62
7
  6
CONTINUOUS
 10
74.3134633459
 20
137.0906966965
 11
74.2345194445
 21
137.0904190094
  0
LINE
  8
SOLID
 62
7
  6
CONTINUOUS
 10
242.3134633459
 20
137.0906966965
 11
234.5732573424
 21
137.0904647199
  0
LINE
  8
SOLID
 62
7
  6
CONTINUOUS
 10
225.5134633459
 20
137.0906966965
 11
217.7732573424
 21
137.0904647199
  0
LINE
  8
SOLID
 62
7
  6
CONTINUOUS
 10
208.7134633459
 20
137.0906966965
 11
200.9732573424
 21
137.0904647199
  0
LINE
  8
SOLID
 62
7
  6
CONTINUOUS
 10
191.9134633459
 20
137.0906966965
 11
184.1732573424
 21
137.0904647199
  0
LINE
  8
SOLID
 62
7
  6
CONTINUOUS
 10
175.1134633459
 20
137.0906966965
 11
167.3732573424
 21
137.0904647199
  0
LINE
  8
SOLID
 62
7
  6
CONTINUOUS
 10
158.3134633459
 20
137.0906966965
 11
150.5732573424
 21
137.0904647199
  0
LINE
  8
SOLID
 62
7
  6
CONTINUOUS
 10
141.5134633459
 20
137.0906966965
 11
133.7732573424
 21
137.0904647199
  0
LINE
  8
SOLID
 62
7
  6
CONTINUOUS
 10
124.7134633459
 20
137.0906966965
 11
116.9732573424
 21
137.0904647199
  0
LINE
  8
SOLID
 62
7
  6
CONTINUOUS
 10
107.9134633459
 20
137.0906966965
 11
100.1732573424
 21
137.0904647199
  0
LINE
  8
SURFACE
 62
7
  6
CONTINUOUS
 10
91.1134633459
 20
137.0906966965
 11
83.3732573424
 21
137.0904647199
  0
LINE
  8
SOLID
 62
7
  6
CONTINUOUS
 10
74.2345229613
 20
137.0904647199
 11
66.50389069
 21
137.0904647199
  0
LINE
  8
DEFAULT_1
 62
7
  6
CENTER
 10
64.3038905229
 20
141.4118543046
 11
252.9038909226
 21
141.4118543046
  0
LINE
  8
SOLID
 62
7
  6
CONTINUOUS
 10
116.9732685191
 20
137.0903765046
 11
116.8941572242
 21
137.091280605
  0
LINE
  8
SOLID
 62
7
  6
CONTINUOUS
 10
133.7732685191
 20
137.0903765046
 11
133.6941572242
 21
137.091280605
  0
LINE
  8
SOLID
 62
7
  6
CONTINUOUS
 10
150.5732685191
 20
137.0903765046
 11
150.4941572242
 21
137.091280605
  0
LINE
  8
SOLID
 62
7
  6
CONTINUOUS
 10
167.3732685191
 20
137.0903765046
 11
167.2941572242
 21
137.091280605
  0
LINE
  8
SOLID
 62
7
  6
CONTINUOUS
 10
184.1732685191
 20
137.0903765046
 11
184.0941572242
 21
137.091280605
  0
LINE
  8
SOLID
 62
7
  6
CONTINUOUS
 10
200.9732685191
 20
137.0903765046
 11
200.8941572242
 21
137.091280605
  0
LINE
  8
SOLID
 62
7
  6
CONTINUOUS
 10
217.7732685191
 20
137.0903765046
 11
217.6941572242
 21
137.091280605
  0
LINE
  8
SOLID
 62
7
  6
CONTINUOUS
 10
234.5732685191
 20
137.0903765046
 11
234.4941572242
 21
137.091280605
  0
POLYLINE
  8
SURFACE
 62
7
  6
CONTINUOUS
 66
1
 70
0
  0
VERTEX
  8
SURFACE
 62
7
  6
CONTINUOUS
 10
82.767808877
 20
144.2854260821
  0
VERTEX
  8
SURFACE
 62
7
  6
CONTINUOUS
 10
82.8108525117
 20
144.2847204291
  0
VERTEX
  8
SURFACE
 62
7
  6
CONTINUOUS
 10
82.8489409143
 20
144.2821441035
  0
VERTEX
  8
SURFACE
 62
7
  6
CONTINUOUS
 10
82.8800818414
 20
144.2778424063
  0
VERTEX
  8
SURFACE
 62
7
  6
CONTINUOUS
 10
82.9026877717
 20
144.2720512406
  0
VERTEX
  8
SURFACE
 62
7
  6
CONTINUOUS
 10
82.9156642259
 20
144.2650818112
  0
VERTEX
  8
SURFACE
 62
7
  6
CONTINUOUS
 10
82.9186899897
 20
144.2597617362
  0
SEQEND
  0
POLYLINE
  8
SOLID
 62
7
  6
CONTINUOUS
 66
1
 70
0
  0
VERTEX
  8
SOLID
 62
7
  6
CONTINUOUS
 10
99.567808877
 20
144.2854260821
  0
VERTEX
  8
SOLID
 62
7
  6
CONTINUOUS
 10
99.6108525117
 20
144.2847204291
  0
VERTEX
  8
SOLID
 62
7
  6
CONTINUOUS
 10
99.6489409143
 20
144.2821441035
  0
VERTEX
  8
SOLID
 62
7
  6
CONTINUOUS
 10
99.6800818414
 20
144.2778424063
  0
VERTEX
  8
SOLID
 62
7
  6
CONTINUOUS
 10
99.7026877717
 20
144.2720512406
  0
VERTEX
  8
SOLID
 62
7
  6
CONTINUOUS
 10
99.7156642259
 20
144.2650818112
  0
VERTEX
  8
SOLID
 62
7
  6
CONTINUOUS
 10
99.7186899897
 20
144.2597617362
  0
SEQEND
  0
POLYLINE
  8
SURFACE
 62
7
  6
CONTINUOUS
 66
1
 70
0
  0
VERTEX
  8
SURFACE
 62
7
  6
CONTINUOUS
 10
74.8890588468
 20
144.2841356279
  0
VERTEX
  8
SURFACE
 62
7
  6
CONTINUOUS
 10
74.8399725029
 20
144.2854260821
  0
VERTEX
  8
SURFACE
 62
7
  6
CONTINUOUS
 10
74.7969288682
 20
144.2847204291
  0
VERTEX
  8
SURFACE
 62
7
  6
CONTINUOUS
 10
74.7588404656
 20
144.2821441035
  0
VERTEX
  8
SURFACE
 62
7
  6
CONTINUOUS
 10
74.7276995385
 20
144.2778424063
  0
VERTEX
  8
SURFACE
 62
7
  6
CONTINUOUS
 10
74.7050936082
 20
144.2720512406
  0
VERTEX
  8
SURFACE
 62
7
  6
CONTINUOUS
 10
74.692117154
 20
144.2650818112
  0
VERTEX
  8
SURFACE
 62
7
  6
CONTINUOUS
 10
74.6890913902
 20
144.2597617362
  0
SEQEND
  0
POLYLINE
  8
SURFACE
 62
7
  6
CONTINUOUS
 66
1
 70
0
  0
VERTEX
  8
SURFACE
 62
7
  6
CONTINUOUS
 10
91.6890588468
 20
144.2841356279
  0
VERTEX
  8
SURFACE
 62
7
  6
CONTINUOUS
 10
91.6399725029
 20
144.2854260821
  0
VERTEX
  8
SURFACE
 62
7
  6
CONTINUOUS
 10
91.5969288682
 20
144.2847204291
  0
VERTEX
  8
SURFACE
 62
7
  6
CONTINUOUS
 10
91.5588404656
 20
144.2821441035
  0
VERTEX
  8
SURFACE
 62
7
  6
CONTINUOUS
 10
91.5276995385
 20
144.2778424063
  0
VERTEX
  8
SURFACE
 62
7
  6
CONTINUOUS
 10
91.5050936082
 20
144.2720512406
  0
VERTEX
  8
SURFACE
 62
7
  6
CONTINUOUS
 10
91.492117154
 20
144.2650818112
  0
VERTEX
  8
SURFACE
 62
7
  6
CONTINUOUS
 10
91.4890913902
 20
144.2597617362
  0
SEQEND
  0
POLYLINE
  8
SOLID
 62
7
  6
CONTINUOUS
 66
1
 70
0
  0
VERTEX
  8
SOLID
 62
7
  6
CONTINUOUS
 10
108.4890588468
 20
144.2841356279
  0
VERTEX
  8
SOLID
 62
7
  6
CONTINUOUS
 10
108.4399725029
 20
144.2854260821
  0
VERTEX
  8
SOLID
 62
7
  6
CONTINUOUS
 10
108.3969288682
 20
144.2847204291
  0
VERTEX
  8
SOLID
 62
7
  6
CONTINUOUS
 10
108.3588404656
 20
144.2821441035
  0
VERTEX
  8
SOLID
 62
7
  6
CONTINUOUS
 10
108.3276995385
 20
144.2778424063
  0
VERTEX
  8
SOLID
 62
7
  6
CONTINUOUS
 10
108.3050936082
 20
144.2720512406
  0
VERTEX
  8
SOLID
 62
7
  6
CONTINUOUS
 10
108.292117154
 20
144.2650818112
  0
VERTEX
  8
SOLID
 62
7
  6
CONTINUOUS
 10
108.2890913902
 20
144.2597617362
  0
SEQEND
  0
POLYLINE
  8
SOLID
 62
7
  6
CONTINUOUS
 66
1
 70
0
  0
VERTEX
  8
SOLID
 62
7
  6
CONTINUOUS
 10
167.2941463813
 20
137.0906663849
  0
VERTEX
  8
SOLID
 62
7
  6
CONTINUOUS
 10
167.2773922688
 20
137.0916164957
  0
VERTEX
  8
SOLID
 62
7
  6
CONTINUOUS
 10
167.2440084187
 20
137.0985424542
  0
VERTEX
  8
SOLID
 62
7
  6
CONTINUOUS
 10
167.2104199047
 20
137.1119517329
  0
VERTEX
  8
SOLID
 62
7
  6
CONTINUOUS
 10
167.1778174155
 20
137.1311024994
  0
VERTEX
  8
SOLID
 62
7
  6
CONTINUOUS
 10
167.1468960471
 20
137.1551687265
  0
VERTEX
  8
SOLID
 62
7
  6
CONTINUOUS
 10
167.118033286
 20
137.1833969788
  0
VERTEX
  8
SOLID
 62
7
  6
CONTINUOUS
 10
167.0912788907
 20
137.2153350431
  0
VERTEX
  8
SOLID
 62
7
  6
CONTINUOUS
 10
167.066768668
 20
137.2504771813
  0
VERTEX
  8
SOLID
 62
7
  6
CONTINUOUS
 10
167.0445767602
 20
137.288350989
  0
VERTEX
  8
SOLID
 62
7
  6
CONTINUOUS
 10
167.0247593896
 20
137.3284638783
  0
VERTEX
  8
SOLID
 62
7
  6
CONTINUOUS
 10
167.0072356032
 20
137.3706545995
  0
VERTEX
  8
SOLID
 62
7
  6
CONTINUOUS
 10
166.9917018368
 20
137.4151162076
  0
VERTEX
  8
SOLID
 62
7
  6
CONTINUOUS
 10
166.9780658754
 20
137.461682204
  0
VERTEX
  8
SOLID
 62
7
  6
CONTINUOUS
 10
166.9658478104
 20
137.5107752442
  0
VERTEX
  8
SOLID
 62
7
  6
CONTINUOUS
 10
166.954942725
 20
137.561674115
  0
VERTEX
  8
SOLID
 62
7
  6
CONTINUOUS
 10
166.9451896938
 20
137.6155963597
  0
VERTEX
  8
SOLID
 62
7
  6
CONTINUOUS
 10
166.9366534323
 20
137.6723210781
  0
VERTEX
  8
SOLID
 62
7
  6
CONTINUOUS
 10
166.9294296931
 20
137.7314950374
  0
VERTEX
  8
SOLID
 62
7
  6
CONTINUOUS
 10
166.9235145483
 20
137.7930270218
  0
VERTEX
  8
SOLID
 62
7
  6
CONTINUOUS
 10
166.9188954434
 20
137.8566726008
  0
VERTEX
  8
SOLID
 62
7
  6
CONTINUOUS
 10
166.9155422728
 20
137.922195884
  0
VERTEX
  8
SOLID
 62
7
  6
CONTINUOUS
 10
166.9133862065
 20
137.9893961788
  0
VERTEX
  8
SOLID
 62
7
  6
CONTINUOUS
 10
166.9123505007
 20
138.0580475242
  0
VERTEX
  8
SOLID
 62
7
  6
CONTINUOUS
 10
166.9123575584
 20
138.1279545161
  0
SEQEND
  0
POLYLINE
  8
SOLID
 62
7
  6
CONTINUOUS
 66
1
 70
0
  0
VERTEX
  8
SOLID
 62
7
  6
CONTINUOUS
 10
184.0941463813
 20
137.0906663849
  0
VERTEX
  8
SOLID
 62
7
  6
CONTINUOUS
 10
184.0773922688
 20
137.0916164957
  0
VERTEX
  8
SOLID
 62
7
  6
CONTINUOUS
 10
184.0440084187
 20
137.0985424542
  0
VERTEX
  8
SOLID
 62
7
  6
CONTINUOUS
 10
184.0104199047
 20
137.1119517329
  0
VERTEX
  8
SOLID
 62
7
  6
CONTINUOUS
 10
183.9778174155
 20
137.1311024994
  0
VERTEX
  8
SOLID
 62
7
  6
CONTINUOUS
 10
183.9468960471
 20
137.1551687265
  0
VERTEX
  8
SOLID
 62
7
  6
CONTINUOUS
 10
183.918033286
 20
137.1833969788
  0
VERTEX
  8
SOLID
 62
7
  6
CONTINUOUS
 10
183.8912788907
 20
137.2153350431
  0
VERTEX
  8
SOLID
 62
7
  6
CONTINUOUS
 10
183.866768668
 20
137.2504771813
  0
VERTEX
  8
SOLID
 62
7
  6
CONTINUOUS
 10
183.8445767602
 20
137.288350989
  0
VERTEX
  8
SOLID
 62
7
  6
CONTINUOUS
 10
183.8247593896
 20
137.3284638783
  0
VERTEX
  8
SOLID
 62
7
  6
CONTINUOUS
 10
183.8072356032
 20
137.3706545995
  0
VERTEX
  8
SOLID
 62
7
  6
CONTINUOUS
 10
183.7917018368
 20
137.4151162076
  0
VERTEX
  8
SOLID
 62
7
  6
CONTINUOUS
 10
183.7780658754
 20
137.461682204
  0
VERTEX
  8
SOLID
 62
7
  6
CONTINUOUS
 10
183.7658478104
 20
137.5107752442
  0
VERTEX
  8
SOLID
 62
7
  6
CONTINUOUS
 10
183.754942725
 20
137.561674115
  0
VERTEX
  8
SOLID
 62
7
  6
CONTINUOUS
 10
183.7451896938
 20
137.6155963597
  0
VERTEX
  8
SOLID
 62
7
  6
CONTINUOUS
 10
183.7366534323
 20
137.6723210781
  0
VERTEX
  8
SOLID
 62
7
  6
CONTINUOUS
 10
183.7294296931
 20
137.7314950374
  0
VERTEX
  8
SOLID
 62
7
  6
CONTINUOUS
 10
183.7235145483
 20
137.7930270218
  0
VERTEX
  8
SOLID
 62
7
  6
CONTINUOUS
 10
183.7188954434
 20
137.8566726008
  0
VERTEX
  8
SOLID
 62
7
  6
CONTINUOUS
 10
183.7155422728
 20
137.922195884
  0
VERTEX
  8
SOLID
 62
7
  6
CONTINUOUS
 10
183.7133862065
 20
137.9893961788
  0
VERTEX
  8
SOLID
 62
7
  6
CONTINUOUS
 10
183.7123505007
 20
138.0580475242
  0
VERTEX
  8
SOLID
 62
7
  6
CONTINUOUS
 10
183.7123575584
 20
138.1279545161
  0
SEQEND
  0
POLYLINE
  8
SOLID
 62
7
  6
CONTINUOUS
 66
1
 70
0
  0
VERTEX
  8
SOLID
 62
7
  6
CONTINUOUS
 10
200.8941463813
 20
137.0906663849
  0
VERTEX
  8
SOLID
 62
7
  6
CONTINUOUS
 10
200.8773922688
 20
137.0916164957
  0
VERTEX
  8
SOLID
 62
7
  6
CONTINUOUS
 10
200.8440084187
 20
137.0985424542
  0
VERTEX
  8
SOLID
 62
7
  6
CONTINUOUS
 10
200.8104199047
 20
137.1119517329
  0
VERTEX
  8
SOLID
 62
7
  6
CONTINUOUS
 10
200.7778174155
 20
137.1311024994
  0
VERTEX
  8
SOLID
 62
7
  6
CONTINUOUS
 10
200.7468960471
 20
137.1551687265
  0
VERTEX
  8
SOLID
 62
7
  6
CONTINUOUS
 10
200.718033286
 20
137.1833969788
  0
VERTEX
  8
SOLID
 62
7
  6
CONTINUOUS
 10
200.6912788907
 20
137.2153350431
  0
VERTEX
  8
SOLID
 62
7
  6
CONTINUOUS
 10
200.666768668
 20
137.2504771813
  0
VERTEX
  8
SOLID
 62
7
  6
CONTINUOUS
 10
200.6445767602
 20
137.288350989
  0
VERTEX
  8
SOLID
 62
7
  6
CONTINUOUS
 10
200.6247593896
 20
137.3284638783
  0
VERTEX
  8
SOLID
 62
7
  6
CONTINUOUS
 10
200.6072356032
 20
137.3706545995
  0
VERTEX
  8
SOLID
 62
7
  6
CONTINUOUS
 10
200.5917018368
 20
137.4151162076
  0
VERTEX
  8
SOLID
 62
7
  6
CONTINUOUS
 10
200.5780658754
 20
137.461682204
  0
VERTEX
  8
SOLID
 62
7
  6
CONTINUOUS
 10
200.5658478104
 20
137.5107752442
  0
VERTEX
  8
SOLID
 62
7
  6
CONTINUOUS
 10
200.554942725
 20
137.561674115
  0
VERTEX
  8
SOLID
 62
7
  6
CONTINUOUS
 10
200.5451896938
 20
137.6155963597
  0
VERTEX
  8
SOLID
 62
7
  6
CONTINUOUS
 10
200.5366534323
 20
137.6723210781
  0
VERTEX
  8
SOLID
 62
7
  6
CONTINUOUS
 10
200.5294296931
 20
137.7314950374
  0
VERTEX
  8
SOLID
 62
7
  6
CONTINUOUS
 10
200.5235145483
 20
137.7930270218
  0
VERTEX
  8
SOLID
 62
7
  6
CONTINUOUS
 10
200.5188954434
 20
137.8566726008
  0
VERTEX
  8
SOLID
 62
7
  6
CONTINUOUS
 10
200.5155422728
 20
137.922195884
  0
VERTEX
  8
SOLID
 62
7
  6
CONTINUOUS
 10
200.5133862065
 20
137.9893961788
  0
VERTEX
  8
SOLID
 62
7
  6
CONTINUOUS
 10
200.5123505007
 20
138.0580475242
  0
VERTEX
  8
SOLID
 62
7
  6
CONTINUOUS
 10
200.5123575584
 20
138.1279545161
  0
SEQEND
  0
POLYLINE
  8
SOLID
 62
7
  6
CONTINUOUS
 66
1
 70
0
  0
VERTEX
  8
SOLID
 62
7
  6
CONTINUOUS
 10
217.6941463813
 20
137.0906663849
  0
VERTEX
  8
SOLID
 62
7
  6
CONTINUOUS
 10
217.6773922688
 20
137.0916164957
  0
VERTEX
  8
SOLID
 62
7
  6
CONTINUOUS
 10
217.6440084187
 20
137.0985424542
  0
VERTEX
  8
SOLID
 62
7
  6
CONTINUOUS
 10
217.6104199047
 20
137.1119517329
  0
VERTEX
  8
SOLID
 62
7
  6
CONTINUOUS
 10
217.5778174155
 20
137.1311024994
  0
VERTEX
  8
SOLID
 62
7
  6
CONTINUOUS
 10
217.5468960471
 20
137.1551687265
  0
VERTEX
  8
SOLID
 62
7
  6
CONTINUOUS
 10
217.518033286
 20
137.1833969788
  0
VERTEX
  8
SOLID
 62
7
  6
CONTINUOUS
 10
217.4912788907
 20
137.2153350431
  0
VERTEX
  8
SOLID
 62
7
  6
CONTINUOUS
 10
217.466768668
 20
137.2504771813
  0
VERTEX
  8
SOLID
 62
7
  6
CONTINUOUS
 10
217.4445767602
 20
137.288350989
  0
VERTEX
  8
SOLID
 62
7
  6
CONTINUOUS
 10
217.4247593896
 20
137.3284638783
  0
VERTEX
  8
SOLID
 62
7
  6
CONTINUOUS
 10
217.4072356032
 20
137.3706545995
  0
VERTEX
  8
SOLID
 62
7
  6
CONTINUOUS
 10
217.3917018368
 20
137.4151162076
  0
VERTEX
  8
SOLID
 62
7
  6
CONTINUOUS
 10
217.3780658754
 20
137.461682204
  0
VERTEX
  8
SOLID
 62
7
  6
CONTINUOUS
 10
217.3658478104
 20
137.5107752442
  0
VERTEX
  8
SOLID
 62
7
  6
CONTINUOUS
 10
217.354942725
 20
137.561674115
  0
VERTEX
  8
SOLID
 62
7
  6
CONTINUOUS
 10
217.3451896938
 20
137.6155963597
  0
VERTEX
  8
SOLID
 62
7
  6
CONTINUOUS
 10
217.3366534323
 20
137.6723210781
  0
VERTEX
  8
SOLID
 62
7
  6
CONTINUOUS
 10
217.3294296931
 20
137.7314950374
  0
VERTEX
  8
SOLID
 62
7
  6
CONTINUOUS
 10
217.3235145483
 20
137.7930270218
  0
VERTEX
  8
SOLID
 62
7
  6
CONTINUOUS
 10
217.3188954434
 20
137.8566726008
  0
VERTEX
  8
SOLID
 62
7
  6
CONTINUOUS
 10
217.3155422728
 20
137.922195884
  0
VERTEX
  8
SOLID
 62
7
  6
CONTINUOUS
 10
217.3133862065
 20
137.9893961788
  0
VERTEX
  8
SOLID
 62
7
  6
CONTINUOUS
 10
217.3123505007
 20
138.0580475242
  0
VERTEX
  8
SOLID
 62
7
  6
CONTINUOUS
 10
217.3123575584
 20
138.1279545161
  0
SEQEND
  0
POLYLINE
  8
SOLID
 62
7
  6
CONTINUOUS
 66
1
 70
0
  0
VERTEX
  8
SOLID
 62
7
  6
CONTINUOUS
 10
234.4941463813
 20
137.0906663849
  0
VERTEX
  8
SOLID
 62
7
  6
CONTINUOUS
 10
234.4773922688
 20
137.0916164957
  0
VERTEX
  8
SOLID
 62
7
  6
CONTINUOUS
 10
234.4440084187
 20
137.0985424542
  0
VERTEX
  8
SOLID
 62
7
  6
CONTINUOUS
 10
234.4104199047
 20
137.1119517329
  0
VERTEX
  8
SOLID
 62
7
  6
CONTINUOUS
 10
234.3778174155
 20
137.1311024994
  0
VERTEX
  8
SOLID
 62
7
  6
CONTINUOUS
 10
234.3468960471
 20
137.1551687265
  0
VERTEX
  8
SOLID
 62
7
  6
CONTINUOUS
 10
234.318033286
 20
137.1833969788
  0
VERTEX
  8
SOLID
 62
7
  6
CONTINUOUS
 10
234.2912788907
 20
137.2153350431
  0
VERTEX
  8
SOLID
 62
7
  6
CONTINUOUS
 10
234.266768668
 20
137.2504771813
  0
VERTEX
  8
SOLID
 62
7
  6
CONTINUOUS
 10
234.2445767602
 20
137.288350989
  0
VERTEX
  8
SOLID
 62
7
  6
CONTINUOUS
 10
234.2247593896
 20
137.3284638783
  0
VERTEX
  8
SOLID
 62
7
  6
CONTINUOUS
 10
234.2072356032
 20
137.3706545995
  0
VERTEX
  8
SOLID
 62
7
  6
CONTINUOUS
 10
234.1917018368
 20
137.4151162076
  0
VERTEX
  8
SOLID
 62
7
  6
CONTINUOUS
 10
234.1780658754
 20
137.461682204
  0
VERTEX
  8
SOLID
 62
7
  6
CONTINUOUS
 10
234.1658478104
 20
137.5107752442
  0
VERTEX
  8
SOLID
 62
7
  6
CONTINUOUS
 10
234.154942725
 20
137.561674115
  0
VERTEX
  8
SOLID
 62
7
  6
CONTINUOUS
 10
234.1451896938
 20
137.6155963597
  0
VERTEX
  8
SOLID
 62
7
  6
CONTINUOUS
 10
234.1366534323
 20
137.6723210781
  0
VERTEX
  8
SOLID
 62
7
  6
CONTINUOUS
 10
234.1294296931
 20
137.7314950374
  0
VERTEX
  8
SOLID
 62
7
  6
CONTINUOUS
 10
234.1235145483
 20
137.7930270218
  0
VERTEX
  8
SOLID
 62
7
  6
CONTINUOUS
 10
234.1188954434
 20
137.8566726008
  0
VERTEX
  8
SOLID
 62
7
  6
CONTINUOUS
 10
234.1155422728
 20
137.922195884
  0
VERTEX
  8
SOLID
 62
7
  6
CONTINUOUS
 10
234.1133862065
 20
137.9893961788
  0
VERTEX
  8
SOLID
 62
7
  6
CONTINUOUS
 10
234.1123505007
 20
138.0580475242
  0
VERTEX
  8
SOLID
 62
7
  6
CONTINUOUS
 10
234.1123575584
 20
138.1279545161
  0
SEQEND
  0
LINE
  8
SOLID
 62
7
  6
CONTINUOUS
 10
201.6095756141
 20
83.6483162099
 11
201.7506619025
 21
83.3398289091
  0
POLYLINE
  8
SOLID
 62
7
  6
CONTINUOUS
 66
1
 70
0
  0
VERTEX
  8
SOLID
 62
7
  6
CONTINUOUS
 10
184.940024658
 20
83.3630874048
  0
VERTEX
  8
SOLID
 62
7
  6
CONTINUOUS
 10
184.9584960285
 20
83.2360915832
  0
VERTEX
  8
SOLID
 62
7
  6
CONTINUOUS
 10
184.9836684679
 20
83.0787053799
  0
VERTEX
  8
SOLID
 62
7
  6
CONTINUOUS
 10
185.0089592251
 20
82.9365271223
  0
VERTEX
  8
SOLID
 62
7
  6
CONTINUOUS
 10
185.0343452972
 20
82.8089238064
  0
VERTEX
  8
SOLID
 62
7
  6
CONTINUOUS
 10
185.0598379147
 20
82.6951620967
  0
VERTEX
  8
SOLID
 62
7
  6
CONTINUOUS
 10
185.085505345
 20
82.5943825029
  0
VERTEX
  8
SOLID
 62
7
  6
CONTINUOUS
 10
185.1115133312
 20
82.5055668372
  0
VERTEX
  8
SOLID
 62
7
  6
CONTINUOUS
 10
185.1381492645
 20
82.4276323759
  0
VERTEX
  8
SOLID
 62
7
  6
CONTINUOUS
 10
185.1659884295
 20
82.3592156251
  0
VERTEX
  8
SOLID
 62
7
  6
CONTINUOUS
 10
185.1961659515
 20
82.298608381
  0
VERTEX
  8
SOLID
 62
7
  6
CONTINUOUS
 10
185.2308974259
 20
82.2438400002
  0
VERTEX
  8
SOLID
 62
7
  6
CONTINUOUS
 10
185.274294816
 20
82.1933735177
  0
VERTEX
  8
SOLID
 62
7
  6
CONTINUOUS
 10
185.3326286508
 20
82.1485608229
  0
VERTEX
  8
SOLID
 62
7
  6
CONTINUOUS
 10
185.4097333714
 20
82.1179655127
  0
VERTEX
  8
SOLID
 62
7
  6
CONTINUOUS
 10
185.4654093499
 20
82.1118553854
  0
SEQEND
  0
POLYLINE
  8
SOLID
 62
7
  6
CONTINUOUS
 66
1
 70
0
  0
VERTEX
  8
SOLID
 62
7
  6
CONTINUOUS
 10
183.8890913712
 20
87.7639410763
  0
VERTEX
  8
SOLID
 62
7
  6
CONTINUOUS
 10
183.9446326444
 20
87.2759492789
  0
VERTEX
  8
SOLID
 62
7
  6
CONTINUOUS
 10
184.0166021256
 20
86.7483016989
  0
VERTEX
  8
SOLID
 62
7
  6
CONTINUOUS
 10
184.0993181546
 20
86.2371797878
  0
VERTEX
  8
SOLID
 62
7
  6
CONTINUOUS
 10
184.1925835186
 20
85.7449708504
  0
VERTEX
  8
SOLID
 62
7
  6
CONTINUOUS
 10
184.2961818024
 20
85.2740313836
  0
VERTEX
  8
SOLID
 62
7
  6
CONTINUOUS
 10
184.4098869928
 20
84.826672034
  0
VERTEX
  8
SOLID
 62
7
  6
CONTINUOUS
 10
184.5334780076
 20
84.4051451002
  0
VERTEX
  8
SOLID
 62
7
  6
CONTINUOUS
 10
184.6667565759
 20
84.0116467166
  0
VERTEX
  8
SOLID
 62
7
  6
CONTINUOUS
 10
184.8095756141
 20
83.6483162099
  0
SEQEND
  0
POLYLINE
  8
SOLID
 62
7
  6
CONTINUOUS
 66
1
 70
0
  0
VERTEX
  8
SOLID
 62
7
  6
CONTINUOUS
 10
192.1161609239
 20
93.5921789486
  0
VERTEX
  8
SOLID
 62
7
  6
CONTINUOUS
 10
192.1123788305
 20
93.8927358079
  0
VERTEX
  8
SOLID
 62
7
  6
CONTINUOUS
 10
192.1123161784
 20
93.9607213248
  0
VERTEX
  8
SOLID
 62
7
  6
CONTINUOUS
 10
192.1132248177
 20
94.0271748232
  0
VERTEX
  8
SOLID
 62
7
  6
CONTINUOUS
 10
192.1151623316
 20
94.0920420164
  0
VERTEX
  8
SOLID
 62
7
  6
CONTINUOUS
 10
192.118190913
 20
94.1552425486
  0
VERTEX
  8
SOLID
 62
7
  6
CONTINUOUS
 10
192.1223751214
 20
94.2167132065
  0
VERTEX
  8
SOLID
 62
7
  6
CONTINUOUS
 10
192.1277616292
 20
94.2764055665
  0
VERTEX
  8
SOLID
 62
7
  6
CONTINUOUS
 10
192.1343829335
 20
94.3341819516
  0
VERTEX
  8
SOLID
 62
7
  6
CONTINUOUS
 10
192.1422719374
 20
94.3899417591
  0
VERTEX
  8
SOLID
 62
7
  6
CONTINUOUS
 10
192.1514227016
 20
94.4436568413
  0
VERTEX
  8
SOLID
 62
7
  6
CONTINUOUS
 10
192.1618801666
 20
94.4953342888
  0
VERTEX
  8
SOLID
 62
7
  6
CONTINUOUS
 10
192.1737769529
 20
94.545628915
  0
VERTEX
  8
SOLID
 62
7
  6
CONTINUOUS
 10
192.1869236972
 20
94.5932171418
  0
VERTEX
  8
SOLID
 62
7
  6
CONTINUOUS
 10
192.201846345
 20
94.6384807301
  0
VERTEX
  8
SOLID
 62
7
  6
CONTINUOUS
 10
192.218791393
 20
94.6816964641
  0
VERTEX
  8
SOLID
 62
7
  6
CONTINUOUS
 10
192.238001213
 20
94.7227967064
  0
VERTEX
  8
SOLID
 62
7
  6
CONTINUOUS
 10
192.259716051
 20
94.7618901782
  0
VERTEX
  8
SOLID
 62
7
  6
CONTINUOUS
 10
192.2838948808
 20
94.7984365816
  0
VERTEX
  8
SOLID
 62
7
  6
CONTINUOUS
 10
192.3105743369
 20
94.8320098775
  0
VERTEX
  8
SOLID
 62
7
  6
CONTINUOUS
 10
192.3398211627
 20
94.8621654799
  0
VERTEX
  8
SOLID
 62
7
  6
CONTINUOUS
 10
192.3714376914
 20
94.8881283199
  0
VERTEX
  8
SOLID
 62
7
  6
CONTINUOUS
 10
192.4050091545
 20
94.90900194
  0
VERTEX
  8
SOLID
 62
7
  6
CONTINUOUS
 10
192.4401097468
 20
94.9239369657
  0
VERTEX
  8
SOLID
 62
7
  6
CONTINUOUS
 10
192.4751850992
 20
94.9318379909
  0
VERTEX
  8
SOLID
 62
7
  6
CONTINUOUS
 10
192.4941458236
 20
94.9330422568
  0
SEQEND
  0
POLYLINE
  8
SOLID
 62
7
  6
CONTINUOUS
 66
1
 70
0
  0
VERTEX
  8
SOLID
 62
7
  6
CONTINUOUS
 10
192.2915993941
 20
138.4334886435
  0
VERTEX
  8
SOLID
 62
7
  6
CONTINUOUS
 10
192.295387388
 20
138.132752398
  0
VERTEX
  8
SOLID
 62
7
  6
CONTINUOUS
 10
192.2954762282
 20
138.0650609683
  0
VERTEX
  8
SOLID
 62
7
  6
CONTINUOUS
 10
192.2946035926
 20
137.9988154379
  0
VERTEX
  8
SOLID
 62
7
  6
CONTINUOUS
 10
192.2927094768
 20
137.9340730589
  0
VERTEX
  8
SOLID
 62
7
  6
CONTINUOUS
 10
192.2897293069
 20
137.8709175023
  0
VERTEX
  8
SOLID
 62
7
  6
CONTINUOUS
 10
192.2855949373
 20
137.80942035
  0
VERTEX
  8
SOLID
 62
7
  6
CONTINUOUS
 10
192.2802543104
 20
137.7496306792
  0
VERTEX
  8
SOLID
 62
7
  6
CONTINUOUS
 10
192.2736714689
 20
137.6916860535
  0
VERTEX
  8
SOLID
 62
7
  6
CONTINUOUS
 10
192.2658103662
 20
137.6357153203
  0
VERTEX
  8
SOLID
 62
7
  6
CONTINUOUS
 10
192.2566622358
 20
137.5817011399
  0
VERTEX
  8
SOLID
 62
7
  6
CONTINUOUS
 10
192.2461969079
 20
137.5297245575
  0
VERTEX
  8
SOLID
 62
7
  6
CONTINUOUS
 10
192.2342778361
 20
137.4791739602
  0
VERTEX
  8
SOLID
 62
7
  6
CONTINUOUS
 10
192.2211003379
 20
137.4312976875
  0
VERTEX
  8
SOLID
 62
7
  6
CONTINUOUS
 10
192.2061686882
 20
137.3858805856
  0
VERTEX
  8
SOLID
 62
7
  6
CONTINUOUS
 10
192.1891945764
 20
137.3424966332
  0
VERTEX
  8
SOLID
 62
7
  6
CONTINUOUS
 10
192.169982826
 20
137.3013112803
  0
VERTEX
  8
SOLID
 62
7
  6
CONTINUOUS
 10
192.1482786624
 20
137.2621732035
  0
VERTEX
  8
SOLID
 62
7
  6
CONTINUOUS
 10
192.1241436579
 20
137.2256294473
  0
VERTEX
  8
SOLID
 62
7
  6
CONTINUOUS
 10
192.0975422965
 20
137.192083915
  0
VERTEX
  8
SOLID
 62
7
  6
CONTINUOUS
 10
192.0684108326
 20
137.1619617038
  0
VERTEX
  8
SOLID
 62
7
  6
CONTINUOUS
 10
192.0369445008
 20
137.1360153752
  0
VERTEX
  8
SOLID
 62
7
  6
CONTINUOUS
 10
192.0035393305
 20
137.1151112842
  0
VERTEX
  8
SOLID
 62
7
  6
CONTINUOUS
 10
191.9685996789
 20
137.1000773827
  0
VERTEX
  8
SOLID
 62
7
  6
CONTINUOUS
 10
191.9336282548
 20
137.0919997409
  0
VERTEX
  8
SOLID
 62
7
  6
CONTINUOUS
 10
191.9134608807
 20
137.0906657573
  0
SEQEND
  0
LINE
  8
SOLID
 62
7
  6
CONTINUOUS
 10
192.1182283189
 20
93.321714476
 11
192.1161609239
 21
93.5921789486
  0
LINE
  8
SOLID
 62
7
  6
CONTINUOUS
 10
192.2895422351
 20
138.704317145
 11
192.2915993941
 21
138.4334886435
  0
LINE
  8
SOLID
 62
7
  6
CONTINUOUS
 10
192.1182283189
 20
93.321714476
 11
192.1187225331
 21
87.7646251623
  0
LINE
  8
SOLID
 62
7
  6
CONTINUOUS
 10
192.2890588468
 20
144.2590834352
 11
192.2895422351
 21
138.704317145
  0
LINE
  8
SOLID
 62
7
  6
CONTINUOUS
 10
192.2890913902
 20
144.2597617362
 11
192.2890588474
 21
144.2591279339
  0
LINE
  8
SOLID
 62
7
  6
CONTINUOUS
 10
193.3586700416
 20
148.7887617871
 11
193.3400279173
 21
148.6606362158
  0
POLYLINE
  8
SOLID
 62
7
  6
CONTINUOUS
 66
1
 70
0
  0
VERTEX
  8
SOLID
 62
7
  6
CONTINUOUS
 10
210.1506621602
 20
148.683880222
  0
VERTEX
  8
SOLID
 62
7
  6
CONTINUOUS
 10
210.0101986398
 20
148.3768593094
  0
VERTEX
  8
SOLID
 62
7
  6
CONTINUOUS
 10
209.8673449828
 20
148.0136755874
  0
VERTEX
  8
SOLID
 62
7
  6
CONTINUOUS
 10
209.7340301085
 20
147.6203158783
  0
VERTEX
  8
SOLID
 62
7
  6
CONTINUOUS
 10
209.6104011747
 20
147.1989197682
  0
VERTEX
  8
SOLID
 62
7
  6
CONTINUOUS
 10
209.4966566012
 20
146.7516840007
  0
VERTEX
  8
SOLID
 62
7
  6
CONTINUOUS
 10
209.3930174755
 20
146.2808610911
  0
VERTEX
  8
SOLID
 62
7
  6
CONTINUOUS
 10
209.2997094679
 20
145.7887599373
  0
VERTEX
  8
SOLID
 62
7
  6
CONTINUOUS
 10
209.2169487138
 20
145.2777343408
  0
VERTEX
  8
SOLID
 62
7
  6
CONTINUOUS
 10
209.1449323652
 20
144.7501687604
  0
VERTEX
  8
SOLID
 62
7
  6
CONTINUOUS
 10
209.089091372
 20
144.2597675285
  0
SEQEND
  0
POLYLINE
  8
SOLID
 62
7
  6
CONTINUOUS
 66
1
 70
0
  0
VERTEX
  8
SOLID
 62
7
  6
CONTINUOUS
 10
210.6654098339
 20
149.9118532177
  0
VERTEX
  8
SOLID
 62
7
  6
CONTINUOUS
 10
210.6097799259
 20
149.9057535798
  0
VERTEX
  8
SOLID
 62
7
  6
CONTINUOUS
 10
210.5327103946
 20
149.8751957693
  0
VERTEX
  8
SOLID
 62
7
  6
CONTINUOUS
 10
210.4743798028
 20
149.8304176629
  0
VERTEX
  8
SOLID
 62
7
  6
CONTINUOUS
 10
210.430983079
 20
149.7799863081
  0
VERTEX
  8
SOLID
 62
7
  6
CONTINUOUS
 10
210.3962542035
 20
149.7252585606
  0
VERTEX
  8
SOLID
 62
7
  6
CONTINUOUS
 10
210.3660823346
 20
149.6647025866
  0
VERTEX
  8
SOLID
 62
7
  6
CONTINUOUS
 10
210.338251189
 20
149.5963503301
  0
VERTEX
  8
SOLID
 62
7
  6
CONTINUOUS
 10
210.3116247833
 20
149.5184947127
  0
VERTEX
  8
SOLID
 62
7
  6
CONTINUOUS
 10
210.2856271763
 20
149.4297727514
  0
VERTEX
  8
SOLID
 62
7
  6
CONTINUOUS
 10
210.2599705187
 20
149.3291019872
  0
VERTEX
  8
SOLID
 62
7
  6
CONTINUOUS
 10
210.234488754
 20
149.2154645326
  0
VERTEX
  8
SOLID
 62
7
  6
CONTINUOUS
 10
210.2091133435
 20
149.0880009297
  0
VERTEX
  8
SOLID
 62
7
  6
CONTINUOUS
 10
210.1838328362
 20
148.945977763
  0
VERTEX
  8
SOLID
 62
7
  6
CONTINUOUS
 10
210.1586700416
 20
148.7887617871
  0
SEQEND
  0
POLYLINE
  8
SOLID
 62
7
  6
CONTINUOUS
 66
1
 70
0
  0
VERTEX
  8
SOLID
 62
7
  6
CONTINUOUS
 10
193.8654098339
 20
149.9118532177
  0
VERTEX
  8
SOLID
 62
7
  6
CONTINUOUS
 10
193.8097799259
 20
149.9057535798
  0
VERTEX
  8
SOLID
 62
7
  6
CONTINUOUS
 10
193.7327103946
 20
149.8751957693
  0
VERTEX
  8
SOLID
 62
7
  6
CONTINUOUS
 10
193.6743798028
 20
149.8304176629
  0
VERTEX
  8
SOLID
 62
7
  6
CONTINUOUS
 10
193.630983079
 20
149.7799863081
  0
VERTEX
  8
SOLID
 62
7
  6
CONTINUOUS
 10
193.5962542035
 20
149.7252585606
  0
VERTEX
  8
SOLID
 62
7
  6
CONTINUOUS
 10
193.5660823346
 20
149.6647025866
  0
VERTEX
  8
SOLID
 62
7
  6
CONTINUOUS
 10
193.538251189
 20
149.5963503301
  0
VERTEX
  8
SOLID
 62
7
  6
CONTINUOUS
 10
193.5116247833
 20
149.5184947127
  0
VERTEX
  8
SOLID
 62
7
  6
CONTINUOUS
 10
193.4856271763
 20
149.4297727514
  0
VERTEX
  8
SOLID
 62
7
  6
CONTINUOUS
 10
193.4599705187
 20
149.3291019872
  0
VERTEX
  8
SOLID
 62
7
  6
CONTINUOUS
 10
193.434488754
 20
149.2154645326
  0
VERTEX
  8
SOLID
 62
7
  6
CONTINUOUS
 10
193.4091133435
 20
149.0880009297
  0
VERTEX
  8
SOLID
 62
7
  6
CONTINUOUS
 10
193.3838328362
 20
148.945977763
  0
VERTEX
  8
SOLID
 62
7
  6
CONTINUOUS
 10
193.3586700416
 20
148.7887617871
  0
SEQEND
  0
POLYLINE
  8
SOLID
 62
7
  6
CONTINUOUS
 66
1
 70
0
  0
VERTEX
  8
SOLID
 62
7
  6
CONTINUOUS
 10
177.0654098339
 20
149.9118532177
  0
VERTEX
  8
SOLID
 62
7
  6
CONTINUOUS
 10
177.0097799259
 20
149.9057535798
  0
VERTEX
  8
SOLID
 62
7
  6
CONTINUOUS
 10
176.9327103946
 20
149.8751957693
  0
VERTEX
  8
SOLID
 62
7
  6
CONTINUOUS
 10
176.8743798028
 20
149.8304176629
  0
VERTEX
  8
SOLID
 62
7
  6
CONTINUOUS
 10
176.830983079
 20
149.7799863081
  0
VERTEX
  8
SOLID
 62
7
  6
CONTINUOUS
 10
176.7962542035
 20
149.7252585606
  0
VERTEX
  8
SOLID
 62
7
  6
CONTINUOUS
 10
176.7660823346
 20
149.6647025866
  0
VERTEX
  8
SOLID
 62
7
  6
CONTINUOUS
 10
176.738251189
 20
149.5963503301
  0
VERTEX
  8
SOLID
 62
7
  6
CONTINUOUS
 10
176.7116247833
 20
149.5184947127
  0
VERTEX
  8
SOLID
 62
7
  6
CONTINUOUS
 10
176.6856271763
 20
149.4297727514
  0
VERTEX
  8
SOLID
 62
7
  6
CONTINUOUS
 10
176.6599705187
 20
149.3291019872
  0
VERTEX
  8
SOLID
 62
7
  6
CONTINUOUS
 10
176.634488754
 20
149.2154645326
  0
VERTEX
  8
SOLID
 62
7
  6
CONTINUOUS
 10
176.6091133435
 20
149.0880009297
  0
VERTEX
  8
SOLID
 62
7
  6
CONTINUOUS
 10
176.5838328362
 20
148.945977763
  0
VERTEX
  8
SOLID
 62
7
  6
CONTINUOUS
 10
176.5586700416
 20
148.7887617871
  0
SEQEND
  0
POLYLINE
  8
SOLID
 62
7
  6
CONTINUOUS
 66
1
 70
0
  0
VERTEX
  8
SOLID
 62
7
  6
CONTINUOUS
 10
160.2654098339
 20
149.9118532177
  0
VERTEX
  8
SOLID
 62
7
  6
CONTINUOUS
 10
160.2097799259
 20
149.9057535798
  0
VERTEX
  8
SOLID
 62
7
  6
CONTINUOUS
 10
160.1327103946
 20
149.8751957693
  0
VERTEX
  8
SOLID
 62
7
  6
CONTINUOUS
 10
160.0743798028
 20
149.8304176629
  0
VERTEX
  8
SOLID
 62
7
  6
CONTINUOUS
 10
160.030983079
 20
149.7799863081
  0
VERTEX
  8
SOLID
 62
7
  6
CONTINUOUS
 10
159.9962542035
 20
149.7252585606
  0
VERTEX
  8
SOLID
 62
7
  6
CONTINUOUS
 10
159.9660823346
 20
149.6647025866
  0
VERTEX
  8
SOLID
 62
7
  6
CONTINUOUS
 10
159.938251189
 20
149.5963503301
  0
VERTEX
  8
SOLID
 62
7
  6
CONTINUOUS
 10
159.9116247833
 20
149.5184947127
  0
VERTEX
  8
SOLID
 62
7
  6
CONTINUOUS
 10
159.8856271763
 20
149.4297727514
  0
VERTEX
  8
SOLID
 62
7
  6
CONTINUOUS
 10
159.8599705187
 20
149.3291019872
  0
VERTEX
  8
SOLID
 62
7
  6
CONTINUOUS
 10
159.834488754
 20
149.2154645326
  0
VERTEX
  8
SOLID
 62
7
  6
CONTINUOUS
 10
159.8091133435
 20
149.0880009297
  0
VERTEX
  8
SOLID
 62
7
  6
CONTINUOUS
 10
159.7838328362
 20
148.945977763
  0
VERTEX
  8
SOLID
 62
7
  6
CONTINUOUS
 10
159.7586700416
 20
148.7887617871
  0
SEQEND
  0
POLYLINE
  8
SOLID
 62
7
  6
CONTINUOUS
 66
1
 70
0
  0
VERTEX
  8
SOLID
 62
7
  6
CONTINUOUS
 10
244.2653629452
 20
149.9118534913
  0
VERTEX
  8
SOLID
 62
7
  6
CONTINUOUS
 10
244.2289377232
 20
149.909263781
  0
VERTEX
  8
SOLID
 62
7
  6
CONTINUOUS
 10
244.1538122869
 20
149.8863971168
  0
VERTEX
  8
SOLID
 62
7
  6
CONTINUOUS
 10
244.0925189542
 20
149.8467873043
  0
VERTEX
  8
SOLID
 62
7
  6
CONTINUOUS
 10
244.0457094152
 20
149.7990860427
  0
VERTEX
  8
SOLID
 62
7
  6
CONTINUOUS
 10
244.008537424
 20
149.7462996154
  0
VERTEX
  8
SOLID
 62
7
  6
CONTINUOUS
 10
243.9767375493
 20
149.687608426
  0
VERTEX
  8
SOLID
 62
7
  6
CONTINUOUS
 10
243.9477019141
 20
149.6209953371
  0
VERTEX
  8
SOLID
 62
7
  6
CONTINUOUS
 10
243.9200214096
 20
149.5444252473
  0
VERTEX
  8
SOLID
 62
7
  6
CONTINUOUS
 10
243.8929719007
 20
149.4561594027
  0
VERTEX
  8
SOLID
 62
7
  6
CONTINUOUS
 10
243.8661968568
 20
149.3547710227
  0
VERTEX
  8
SOLID
 62
7
  6
CONTINUOUS
 10
243.8395366785
 20
149.2390934535
  0
VERTEX
  8
SOLID
 62
7
  6
CONTINUOUS
 10
243.8129274818
 20
149.1081034906
  0
VERTEX
  8
SOLID
 62
7
  6
CONTINUOUS
 10
243.7863758834
 20
148.9609696262
  0
VERTEX
  8
SOLID
 62
7
  6
CONTINUOUS
 10
243.7599304927
 20
148.7970296676
  0
SEQEND
  0
LINE
  8
SOLID
 62
7
  6
CONTINUOUS
 10
183.567808877
 20
144.2854260821
 11
183.5187225331
 21
144.2841356279
  0
LINE
  8
SOLID
 62
7
  6
CONTINUOUS
 10
166.767808877
 20
144.2854260821
 11
166.7187225331
 21
144.2841356279
  0
LINE
  8
SOLID
 62
7
  6
CONTINUOUS
 10
149.967808877
 20
144.2854260821
 11
149.9187225331
 21
144.2841356279
  0
LINE
  8
SOLID
 62
7
  6
CONTINUOUS
 10
133.167808877
 20
144.2854260821
 11
133.1187225331
 21
144.2841356279
  0
LINE
  8
SOLID
 62
7
  6
CONTINUOUS
 10
116.367808877
 20
144.2854260821
 11
116.3187225331
 21
144.2841356279
  0
LINE
  8
SOLID
 62
7
  6
CONTINUOUS
 10
99.567808877
 20
144.2854260821
 11
99.5187225331
 21
144.2841356279
  0
LINE
  8
SURFACE
 62
7
  6
CONTINUOUS
 10
82.767808877
 20
144.2854260821
 11
82.7187225331
 21
144.2841356279
  0
LINE
  8
SOLID
 62
7
  6
CONTINUOUS
 10
233.9187225331
 20
144.2841356279
 11
226.0890588468
 21
144.2841356279
  0
LINE
  8
SOLID
 62
7
  6
CONTINUOUS
 10
217.1187225331
 20
144.2841356279
 11
209.2890588468
 21
144.2841356279
  0
LINE
  8
SOLID
 62
7
  6
CONTINUOUS
 10
200.3187225331
 20
144.2841356279
 11
192.4890588468
 21
144.2841356279
  0
LINE
  8
SOLID
 62
7
  6
CONTINUOUS
 10
183.5187225331
 20
144.2841356279
 11
175.6890588468
 21
144.2841356279
  0
LINE
  8
SOLID
 62
7
  6
CONTINUOUS
 10
166.7187225331
 20
144.2841356279
 11
158.8890588468
 21
144.2841356279
  0
LINE
  8
SOLID
 62
7
  6
CONTINUOUS
 10
149.9187225331
 20
144.2841356279
 11
142.0890588468
 21
144.2841356279
  0
LINE
  8
SOLID
 62
7
  6
CONTINUOUS
 10
133.1187225331
 20
144.2841356279
 11
125.2890588468
 21
144.2841356279
  0
LINE
  8
SOLID
 62
7
  6
CONTINUOUS
 10
116.3187225331
 20
144.2841356279
 11
108.4890588468
 21
144.2841356279
  0
LINE
  8
0
 62
7
  6
CONTINUOUS
 10
99.5187225331
 20
144.2841356279
 11
91.6890588468
 21
144.2841356279
  0
LINE
  8
0
 62
7
  6
CONTINUOUS
 10
82.7187225331
 20
144.2841356279
 11
74.8890588468
 21
144.2841356279
  0
LINE
  8
SOLID
 62
7
  6
CONTINUOUS
 10
242.8890588468
 20
144.2841356279
 11
250.70389069
 21
144.2841356279
  0
LINE
  8
SURFACE
 62
7
  6
CONTINUOUS
 10
76.2650849461
 20
149.9118543046
 11
81.3426586183
 21
149.9118543046
  0
LINE
  8
SOLID
 62
7
  6
CONTINUOUS
 10
93.0651227616
 20
149.9118543046
 11
98.1426586183
 21
149.9118543046
  0
LINE
  8
SOLID
 62
7
  6
CONTINUOUS
 10
109.8651227616
 20
149.9118543046
 11
114.9426586183
 21
149.9118543046
  0
LINE
  8
SOLID
 62
7
  6
CONTINUOUS
 10
126.6651227616
 20
149.9118543046
 11
131.7426586183
 21
149.9118543046
  0
LINE
  8
SOLID
 62
7
  6
CONTINUOUS
 10
143.4651227616
 20
149.9118543046
 11
148.5426586183
 21
149.9118543046
  0
LINE
  8
SOLID
 62
7
  6
CONTINUOUS
 10
160.2651227616
 20
149.9118543046
 11
165.3426586183
 21
149.9118543046
  0
LINE
  8
SOLID
 62
7
  6
CONTINUOUS
 10
177.0651227616
 20
149.9118543046
 11
182.1426586183
 21
149.9118543046
  0
LINE
  8
SOLID
 62
7
  6
CONTINUOUS
 10
193.8651227616
 20
149.9118543046
 11
198.9426586183
 21
149.9118543046
  0
LINE
  8
SOLID
 62
7
  6
CONTINUOUS
 10
210.6651227616
 20
149.9118543046
 11
215.7426586183
 21
149.9118543046
  0
LINE
  8
SOLID
 62
7
  6
CONTINUOUS
 10
227.4651227616
 20
149.9118543046
 11
232.5426586183
 21
149.9118543046
  0
LINE
  8
SOLID
 62
7
  6
CONTINUOUS
 10
244.2650849323
 20
149.9118543046
 11
250.703877958
 21
149.9118543046
  0
LINE
  8
0
 62
7
  6
CONTINUOUS
 10
76.2654130618
 20
149.9118532685
 11
76.2650845375
 21
149.9118543046
  0
LINE
  8
SURFACE
 62
7
  6
CONTINUOUS
 10
93.0654041563
 20
149.9118532682
 11
93.0651167062
 21
149.9118542879
  0
POLYLINE
  8
SOLID
 62
7
  6
CONTINUOUS
 66
1
 70
0
  0
VERTEX
  8
SOLID
 62
7
  6
CONTINUOUS
 10
116.367808877
 20
144.2854260821
  0
VERTEX
  8
SOLID
 62
7
  6
CONTINUOUS
 10
116.4108525117
 20
144.2847204291
  0
VERTEX
  8
SOLID
 62
7
  6
CONTINUOUS
 10
116.4489409143
 20
144.2821441035
  0
VERTEX
  8
SOLID
 62
7
  6
CONTINUOUS
 10
116.4800818414
 20
144.2778424063
  0
VERTEX
  8
SOLID
 62
7
  6
CONTINUOUS
 10
116.5026877717
 20
144.2720512406
  0
VERTEX
  8
SOLID
 62
7
  6
CONTINUOUS
 10
116.5156642259
 20
144.2650818112
  0
VERTEX
  8
SOLID
 62
7
  6
CONTINUOUS
 10
116.5186899897
 20
144.2597617362
  0
SEQEND
  0
POLYLINE
  8
SOLID
 62
7
  6
CONTINUOUS
 66
1
 70
0
  0
VERTEX
  8
SOLID
 62
7
  6
CONTINUOUS
 10
133.167808877
 20
144.2854260821
  0
VERTEX
  8
SOLID
 62
7
  6
CONTINUOUS
 10
133.2108525117
 20
144.2847204291
  0
VERTEX
  8
SOLID
 62
7
  6
CONTINUOUS
 10
133.2489409143
 20
144.2821441035
  0
VERTEX
  8
SOLID
 62
7
  6
CONTINUOUS
 10
133.2800818414
 20
144.2778424063
  0
VERTEX
  8
SOLID
 62
7
  6
CONTINUOUS
 10
133.3026877717
 20
144.2720512406
  0
VERTEX
  8
SOLID
 62
7
  6
CONTINUOUS
 10
133.3156642259
 20
144.2650818112
  0
VERTEX
  8
SOLID
 62
7
  6
CONTINUOUS
 10
133.3186899897
 20
144.2597617362
  0
SEQEND
  0
POLYLINE
  8
SOLID
 62
7
  6
CONTINUOUS
 66
1
 70
0
  0
VERTEX
  8
SOLID
 62
7
  6
CONTINUOUS
 10
149.967808877
 20
144.2854260821
  0
VERTEX
  8
SOLID
 62
7
  6
CONTINUOUS
 10
150.0108525117
 20
144.2847204291
  0
VERTEX
  8
SOLID
 62
7
  6
CONTINUOUS
 10
150.0489409143
 20
144.2821441035
  0
VERTEX
  8
SOLID
 62
7
  6
CONTINUOUS
 10
150.0800818414
 20
144.2778424063
  0
VERTEX
  8
SOLID
 62
7
  6
CONTINUOUS
 10
150.1026877717
 20
144.2720512406
  0
VERTEX
  8
SOLID
 62
7
  6
CONTINUOUS
 10
150.1156642259
 20
144.2650818112
  0
VERTEX
  8
SOLID
 62
7
  6
CONTINUOUS
 10
150.1186899897
 20
144.2597617362
  0
SEQEND
  0
POLYLINE
  8
SOLID
 62
7
  6
CONTINUOUS
 66
1
 70
0
  0
VERTEX
  8
SOLID
 62
7
  6
CONTINUOUS
 10
166.767808877
 20
144.2854260821
  0
VERTEX
  8
SOLID
 62
7
  6
CONTINUOUS
 10
166.8108525117
 20
144.2847204291
  0
VERTEX
  8
SOLID
 62
7
  6
CONTINUOUS
 10
166.8489409143
 20
144.2821441035
  0
VERTEX
  8
SOLID
 62
7
  6
CONTINUOUS
 10
166.8800818414
 20
144.2778424063
  0
VERTEX
  8
SOLID
 62
7
  6
CONTINUOUS
 10
166.9026877717
 20
144.2720512406
  0
VERTEX
  8
SOLID
 62
7
  6
CONTINUOUS
 10
166.9156642259
 20
144.2650818112
  0
VERTEX
  8
SOLID
 62
7
  6
CONTINUOUS
 10
166.9186899897
 20
144.2597617362
  0
SEQEND
  0
POLYLINE
  8
SOLID
 62
7
  6
CONTINUOUS
 66
1
 70
0
  0
VERTEX
  8
SOLID
 62
7
  6
CONTINUOUS
 10
183.567808877
 20
144.2854260821
  0
VERTEX
  8
SOLID
 62
7
  6
CONTINUOUS
 10
183.6108525117
 20
144.2847204291
  0
VERTEX
  8
SOLID
 62
7
  6
CONTINUOUS
 10
183.6489409143
 20
144.2821441035
  0
VERTEX
  8
SOLID
 62
7
  6
CONTINUOUS
 10
183.6800818414
 20
144.2778424063
  0
VERTEX
  8
SOLID
 62
7
  6
CONTINUOUS
 10
183.7026877717
 20
144.2720512406
  0
VERTEX
  8
SOLID
 62
7
  6
CONTINUOUS
 10
183.7156642259
 20
144.2650818112
  0
VERTEX
  8
SOLID
 62
7
  6
CONTINUOUS
 10
183.7186899897
 20
144.2597617362
  0
SEQEND
  0
POLYLINE
  8
SOLID
 62
7
  6
CONTINUOUS
 66
1
 70
0
  0
VERTEX
  8
SOLID
 62
7
  6
CONTINUOUS
 10
200.367808877
 20
144.2854260821
  0
VERTEX
  8
SOLID
 62
7
  6
CONTINUOUS
 10
200.4108525117
 20
144.2847204291
  0
VERTEX
  8
SOLID
 62
7
  6
CONTINUOUS
 10
200.4489409143
 20
144.2821441035
  0
VERTEX
  8
SOLID
 62
7
  6
CONTINUOUS
 10
200.4800818414
 20
144.2778424063
  0
VERTEX
  8
SOLID
 62
7
  6
CONTINUOUS
 10
200.5026877717
 20
144.2720512406
  0
VERTEX
  8
SOLID
 62
7
  6
CONTINUOUS
 10
200.5156642259
 20
144.2650818112
  0
VERTEX
  8
SOLID
 62
7
  6
CONTINUOUS
 10
200.5186899897
 20
144.2597617362
  0
SEQEND
  0
POLYLINE
  8
SOLID
 62
7
  6
CONTINUOUS
 66
1
 70
0
  0
VERTEX
  8
SOLID
 62
7
  6
CONTINUOUS
 10
217.167808877
 20
144.2854260821
  0
VERTEX
  8
SOLID
 62
7
  6
CONTINUOUS
 10
217.2108525117
 20
144.2847204291
  0
VERTEX
  8
SOLID
 62
7
  6
CONTINUOUS
 10
217.2489409143
 20
144.2821441035
  0
VERTEX
  8
SOLID
 62
7
  6
CONTINUOUS
 10
217.2800818414
 20
144.2778424063
  0
VERTEX
  8
SOLID
 62
7
  6
CONTINUOUS
 10
217.3026877717
 20
144.2720512406
  0
VERTEX
  8
SOLID
 62
7
  6
CONTINUOUS
 10
217.3156642259
 20
144.2650818112
  0
VERTEX
  8
SOLID
 62
7
  6
CONTINUOUS
 10
217.3186899897
 20
144.2597617362
  0
SEQEND
  0
POLYLINE
  8
SOLID
 62
7
  6
CONTINUOUS
 66
1
 70
0
  0
VERTEX
  8
SOLID
 62
7
  6
CONTINUOUS
 10
233.967808877
 20
144.2854260821
  0
VERTEX
  8
SOLID
 62
7
  6
CONTINUOUS
 10
234.0108525117
 20
144.2847204291
  0
VERTEX
  8
SOLID
 62
7
  6
CONTINUOUS
 10
234.0489409143
 20
144.2821441035
  0
VERTEX
  8
SOLID
 62
7
  6
CONTINUOUS
 10
234.0800818414
 20
144.2778424063
  0
VERTEX
  8
SOLID
 62
7
  6
CONTINUOUS
 10
234.1026877717
 20
144.2720512406
  0
VERTEX
  8
SOLID
 62
7
  6
CONTINUOUS
 10
234.1156642259
 20
144.2650818112
  0
VERTEX
  8
SOLID
 62
7
  6
CONTINUOUS
 10
234.1186899897
 20
144.2597617362
  0
SEQEND
  0
POLYLINE
  8
SOLID
 62
7
  6
CONTINUOUS
 66
1
 70
0
  0
VERTEX
  8
SOLID
 62
7
  6
CONTINUOUS
 10
125.2890588468
 20
144.2841356279
  0
VERTEX
  8
SOLID
 62
7
  6
CONTINUOUS
 10
125.2399725029
 20
144.2854260821
  0
VERTEX
  8
SOLID
 62
7
  6
CONTINUOUS
 10
125.1969288682
 20
144.2847204291
  0
VERTEX
  8
SOLID
 62
7
  6
CONTINUOUS
 10
125.1588404656
 20
144.2821441035
  0
VERTEX
  8
SOLID
 62
7
  6
CONTINUOUS
 10
125.1276995385
 20
144.2778424063
  0
VERTEX
  8
SOLID
 62
7
  6
CONTINUOUS
 10
125.1050936082
 20
144.2720512406
  0
VERTEX
  8
SOLID
 62
7
  6
CONTINUOUS
 10
125.092117154
 20
144.2650818112
  0
VERTEX
  8
SOLID
 62
7
  6
CONTINUOUS
 10
125.0890913902
 20
144.2597617362
  0
SEQEND
  0
POLYLINE
  8
SOLID
 62
7
  6
CONTINUOUS
 66
1
 70
0
  0
VERTEX
  8
SOLID
 62
7
  6
CONTINUOUS
 10
142.0890588468
 20
144.2841356279
  0
VERTEX
  8
SOLID
 62
7
  6
CONTINUOUS
 10
142.0399725029
 20
144.2854260821
  0
VERTEX
  8
SOLID
 62
7
  6
CONTINUOUS
 10
141.9969288682
 20
144.2847204291
  0
VERTEX
  8
SOLID
 62
7
  6
CONTINUOUS
 10
141.9588404656
 20
144.2821441035
  0
VERTEX
  8
SOLID
 62
7
  6
CONTINUOUS
 10
141.9276995385
 20
144.2778424063
  0
VERTEX
  8
SOLID
 62
7
  6
CONTINUOUS
 10
141.9050936082
 20
144.2720512406
  0
VERTEX
  8
SOLID
 62
7
  6
CONTINUOUS
 10
141.892117154
 20
144.2650818112
  0
VERTEX
  8
SOLID
 62
7
  6
CONTINUOUS
 10
141.8890913902
 20
144.2597617362
  0
SEQEND
  0
POLYLINE
  8
SOLID
 62
7
  6
CONTINUOUS
 66
1
 70
0
  0
VERTEX
  8
SOLID
 62
7
  6
CONTINUOUS
 10
158.8890588468
 20
144.2841356279
  0
VERTEX
  8
SOLID
 62
7
  6
CONTINUOUS
 10
158.8399725029
 20
144.2854260821
  0
VERTEX
  8
SOLID
 62
7
  6
CONTINUOUS
 10
158.7969288682
 20
144.2847204291
  0
VERTEX
  8
SOLID
 62
7
  6
CONTINUOUS
 10
158.7588404656
 20
144.2821441035
  0
VERTEX
  8
SOLID
 62
7
  6
CONTINUOUS
 10
158.7276995385
 20
144.2778424063
  0
VERTEX
  8
SOLID
 62
7
  6
CONTINUOUS
 10
158.7050936082
 20
144.2720512406
  0
VERTEX
  8
SOLID
 62
7
  6
CONTINUOUS
 10
158.692117154
 20
144.2650818112
  0
VERTEX
  8
SOLID
 62
7
  6
CONTINUOUS
 10
158.6890913902
 20
144.2597617362
  0
SEQEND
  0
POLYLINE
  8
SOLID
 62
7
  6
CONTINUOUS
 66
1
 70
0
  0
VERTEX
  8
SOLID
 62
7
  6
CONTINUOUS
 10
175.6890588468
 20
144.2841356279
  0
VERTEX
  8
SOLID
 62
7
  6
CONTINUOUS
 10
175.6399725029
 20
144.2854260821
  0
VERTEX
  8
SOLID
 62
7
  6
CONTINUOUS
 10
175.5969288682
 20
144.2847204291
  0
VERTEX
  8
SOLID
 62
7
  6
CONTINUOUS
 10
175.5588404656
 20
144.2821441035
  0
VERTEX
  8
SOLID
 62
7
  6
CONTINUOUS
 10
175.5276995385
 20
144.2778424063
  0
VERTEX
  8
SOLID
 62
7
  6
CONTINUOUS
 10
175.5050936082
 20
144.2720512406
  0
VERTEX
  8
SOLID
 62
7
  6
CONTINUOUS
 10
175.492117154
 20
144.2650818112
  0
VERTEX
  8
SOLID
 62
7
  6
CONTINUOUS
 10
175.4890913902
 20
144.2597617362
  0
SEQEND
  0
POLYLINE
  8
SOLID
 62
7
  6
CONTINUOUS
 66
1
 70
0
  0
VERTEX
  8
SOLID
 62
7
  6
CONTINUOUS
 10
192.4890588468
 20
144.2841356279
  0
VERTEX
  8
SOLID
 62
7
  6
CONTINUOUS
 10
192.4399725029
 20
144.2854260821
  0
VERTEX
  8
SOLID
 62
7
  6
CONTINUOUS
 10
192.3969288682
 20
144.2847204291
  0
VERTEX
  8
SOLID
 62
7
  6
CONTINUOUS
 10
192.3588404656
 20
144.2821441035
  0
VERTEX
  8
SOLID
 62
7
  6
CONTINUOUS
 10
192.3276995385
 20
144.2778424063
  0
VERTEX
  8
SOLID
 62
7
  6
CONTINUOUS
 10
192.3050936082
 20
144.2720512406
  0
VERTEX
  8
SOLID
 62
7
  6
CONTINUOUS
 10
192.292117154
 20
144.2650818112
  0
VERTEX
  8
SOLID
 62
7
  6
CONTINUOUS
 10
192.2890913902
 20
144.2597617362
  0
SEQEND
  0
POLYLINE
  8
SOLID
 62
7
  6
CONTINUOUS
 66
1
 70
0
  0
VERTEX
  8
SOLID
 62
7
  6
CONTINUOUS
 10
209.2890588468
 20
144.2841356279
  0
VERTEX
  8
SOLID
 62
7
  6
CONTINUOUS
 10
209.2399725029
 20
144.2854260821
  0
VERTEX
  8
SOLID
 62
7
  6
CONTINUOUS
 10
209.1969288682
 20
144.2847204291
  0
VERTEX
  8
SOLID
 62
7
  6
CONTINUOUS
 10
209.1588404656
 20
144.2821441035
  0
VERTEX
  8
SOLID
 62
7
  6
CONTINUOUS
 10
209.1276995385
 20
144.2778424063
  0
VERTEX
  8
SOLID
 62
7
  6
CONTINUOUS
 10
209.1050936082
 20
144.2720512406
  0
VERTEX
  8
SOLID
 62
7
  6
CONTINUOUS
 10
209.092117154
 20
144.2650818112
  0
VERTEX
  8
SOLID
 62
7
  6
CONTINUOUS
 10
209.0890913902
 20
144.2597617362
  0
SEQEND
  0
POLYLINE
  8
SOLID
 62
7
  6
CONTINUOUS
 66
1
 70
0
  0
VERTEX
  8
SOLID
 62
7
  6
CONTINUOUS
 10
226.0890588468
 20
144.2841356279
  0
VERTEX
  8
SOLID
 62
7
  6
CONTINUOUS
 10
226.0399725029
 20
144.2854260821
  0
VERTEX
  8
SOLID
 62
7
  6
CONTINUOUS
 10
225.9969288682
 20
144.2847204291
  0
VERTEX
  8
SOLID
 62
7
  6
CONTINUOUS
 10
225.9588404656
 20
144.2821441035
  0
VERTEX
  8
SOLID
 62
7
  6
CONTINUOUS
 10
225.9276995385
 20
144.2778424063
  0
VERTEX
  8
SOLID
 62
7
  6
CONTINUOUS
 10
225.9050936082
 20
144.2720512406
  0
VERTEX
  8
SOLID
 62
7
  6
CONTINUOUS
 10
225.892117154
 20
144.2650818112
  0
VERTEX
  8
SOLID
 62
7
  6
CONTINUOUS
 10
225.8890913902
 20
144.2597617362
  0
SEQEND
  0
POLYLINE
  8
SOLID
 62
7
  6
CONTINUOUS
 66
1
 70
0
  0
VERTEX
  8
SOLID
 62
7
  6
CONTINUOUS
 10
242.8890588468
 20
144.2841356279
  0
VERTEX
  8
SOLID
 62
7
  6
CONTINUOUS
 10
242.8399725029
 20
144.2854260821
  0
VERTEX
  8
SOLID
 62
7
  6
CONTINUOUS
 10
242.7969288682
 20
144.2847204291
  0
VERTEX
  8
SOLID
 62
7
  6
CONTINUOUS
 10
242.7588404656
 20
144.2821441035
  0
VERTEX
  8
SOLID
 62
7
  6
CONTINUOUS
 10
242.7276995385
 20
144.2778424063
  0
VERTEX
  8
SOLID
 62
7
  6
CONTINUOUS
 10
242.7050936082
 20
144.2720512406
  0
VERTEX
  8
SOLID
 62
7
  6
CONTINUOUS
 10
242.692117154
 20
144.2650818112
  0
VERTEX
  8
SOLID
 62
7
  6
CONTINUOUS
 10
242.6890913902
 20
144.2597617362
  0
SEQEND
  0
POLYLINE
  8
SOLID
 62
7
  6
CONTINUOUS
 66
1
 70
0
  0
VERTEX
  8
SOLID
 62
7
  6
CONTINUOUS
 10
182.6677537241
 20
148.6606356441
  0
VERTEX
  8
SOLID
 62
7
  6
CONTINUOUS
 10
182.6491401552
 20
148.7885722681
  0
VERTEX
  8
SOLID
 62
7
  6
CONTINUOUS
 10
182.6240107266
 20
148.9456091623
  0
VERTEX
  8
SOLID
 62
7
  6
CONTINUOUS
 10
182.5987678692
 20
149.0874701852
  0
VERTEX
  8
SOLID
 62
7
  6
CONTINUOUS
 10
182.5734342396
 20
149.2147935393
  0
VERTEX
  8
SOLID
 62
7
  6
CONTINUOUS
 10
182.5479984952
 20
149.3283158844
  0
VERTEX
  8
SOLID
 62
7
  6
CONTINUOUS
 10
182.5223926893
 20
149.428898165
  0
VERTEX
  8
SOLID
 62
7
  6
CONTINUOUS
 10
182.4964532966
 20
149.5175546289
  0
VERTEX
  8
SOLID
 62
7
  6
CONTINUOUS
 10
182.469895978
 20
149.5953658193
  0
VERTEX
  8
SOLID
 62
7
  6
CONTINUOUS
 10
182.4421526808
 20
149.6636887645
  0
VERTEX
  8
SOLID
 62
7
  6
CONTINUOUS
 10
182.4121058835
 20
149.7242184067
  0
VERTEX
  8
SOLID
 62
7
  6
CONTINUOUS
 10
182.3775796512
 20
149.7789097345
  0
VERTEX
  8
SOLID
 62
7
  6
CONTINUOUS
 10
182.3345399815
 20
149.829306787
  0
VERTEX
  8
SOLID
 62
7
  6
CONTINUOUS
 10
182.276797094
 20
149.8741740777
  0
VERTEX
  8
SOLID
 62
7
  6
CONTINUOUS
 10
182.200389558
 20
149.9052094398
  0
VERTEX
  8
SOLID
 62
7
  6
CONTINUOUS
 10
182.1423900697
 20
149.9118533308
  0
SEQEND
  0
POLYLINE
  8
SOLID
 62
7
  6
CONTINUOUS
 66
1
 70
0
  0
VERTEX
  8
SOLID
 62
7
  6
CONTINUOUS
 10
183.7186900079
 20
144.2597675285
  0
VERTEX
  8
SOLID
 62
7
  6
CONTINUOUS
 10
183.6628490147
 20
144.7501687604
  0
VERTEX
  8
SOLID
 62
7
  6
CONTINUOUS
 10
183.5908326661
 20
145.2777343408
  0
VERTEX
  8
SOLID
 62
7
  6
CONTINUOUS
 10
183.508071912
 20
145.7887599373
  0
VERTEX
  8
SOLID
 62
7
  6
CONTINUOUS
 10
183.4147639044
 20
146.2808610911
  0
VERTEX
  8
SOLID
 62
7
  6
CONTINUOUS
 10
183.3111247788
 20
146.7516840007
  0
VERTEX
  8
SOLID
 62
7
  6
CONTINUOUS
 10
183.1973802052
 20
147.1989197682
  0
VERTEX
  8
SOLID
 62
7
  6
CONTINUOUS
 10
183.0737512714
 20
147.6203158783
  0
VERTEX
  8
SOLID
 62
7
  6
CONTINUOUS
 10
182.9404363971
 20
148.0136755874
  0
VERTEX
  8
SOLID
 62
7
  6
CONTINUOUS
 10
182.7975827401
 20
148.3768593094
  0
SEQEND
  0
LINE
  8
SOLID
 62
7
  6
CONTINUOUS
 10
200.6890913894
 20
87.7639468689
 11
200.6890588474
 21
87.7645806636
  0
LINE
  8
SOLID
 62
7
  6
CONTINUOUS
 10
192.1186899905
 20
87.7639468689
 11
192.1187225325
 21
87.7645806636
  0
LINE
  8
SOLID
 62
7
  6
CONTINUOUS
 10
191.0493141608
 20
83.2362811865
 11
191.0677569831
 21
83.3630879759
  0
POLYLINE
  8
SOLID
 62
7
  6
CONTINUOUS
 66
1
 70
0
  0
VERTEX
  8
SOLID
 62
7
  6
CONTINUOUS
 10
143.4654098339
 20
149.9118532177
  0
VERTEX
  8
SOLID
 62
7
  6
CONTINUOUS
 10
143.4097799259
 20
149.9057535798
  0
VERTEX
  8
SOLID
 62
7
  6
CONTINUOUS
 10
143.3327103946
 20
149.8751957693
  0
VERTEX
  8
SOLID
 62
7
  6
CONTINUOUS
 10
143.2743798028
 20
149.8304176629
  0
VERTEX
  8
SOLID
 62
7
  6
CONTINUOUS
 10
143.230983079
 20
149.7799863081
  0
VERTEX
  8
SOLID
 62
7
  6
CONTINUOUS
 10
143.1962542035
 20
149.7252585606
  0
VERTEX
  8
SOLID
 62
7
  6
CONTINUOUS
 10
143.1660823346
 20
149.6647025866
  0
VERTEX
  8
SOLID
 62
7
  6
CONTINUOUS
 10
143.138251189
 20
149.5963503301
  0
VERTEX
  8
SOLID
 62
7
  6
CONTINUOUS
 10
143.1116247833
 20
149.5184947127
  0
VERTEX
  8
SOLID
 62
7
  6
CONTINUOUS
 10
143.0856271763
 20
149.4297727514
  0
VERTEX
  8
SOLID
 62
7
  6
CONTINUOUS
 10
143.0599705187
 20
149.3291019872
  0
VERTEX
  8
SOLID
 62
7
  6
CONTINUOUS
 10
143.034488754
 20
149.2154645326
  0
VERTEX
  8
SOLID
 62
7
  6
CONTINUOUS
 10
143.0091133435
 20
149.0880009297
  0
VERTEX
  8
SOLID
 62
7
  6
CONTINUOUS
 10
142.9838328362
 20
148.945977763
  0
VERTEX
  8
SOLID
 62
7
  6
CONTINUOUS
 10
142.9586700416
 20
148.7887617871
  0
SEQEND
  0
POLYLINE
  8
SOLID
 62
7
  6
CONTINUOUS
 66
1
 70
0
  0
VERTEX
  8
SOLID
 62
7
  6
CONTINUOUS
 10
126.6654098339
 20
149.9118532177
  0
VERTEX
  8
SOLID
 62
7
  6
CONTINUOUS
 10
126.6097799259
 20
149.9057535798
  0
VERTEX
  8
SOLID
 62
7
  6
CONTINUOUS
 10
126.5327103946
 20
149.8751957693
  0
VERTEX
  8
SOLID
 62
7
  6
CONTINUOUS
 10
126.4743798028
 20
149.8304176629
  0
VERTEX
  8
SOLID
 62
7
  6
CONTINUOUS
 10
126.430983079
 20
149.7799863081
  0
VERTEX
  8
SOLID
 62
7
  6
CONTINUOUS
 10
126.3962542035
 20
149.7252585606
  0
VERTEX
  8
SOLID
 62
7
  6
CONTINUOUS
 10
126.3660823346
 20
149.6647025866
  0
VERTEX
  8
SOLID
 62
7
  6
CONTINUOUS
 10
126.338251189
 20
149.5963503301
  0
VERTEX
  8
SOLID
 62
7
  6
CONTINUOUS
 10
126.3116247833
 20
149.5184947127
  0
VERTEX
  8
SOLID
 62
7
  6
CONTINUOUS
 10
126.2856271763
 20
149.4297727514
  0
VERTEX
  8
SOLID
 62
7
  6
CONTINUOUS
 10
126.2599705187
 20
149.3291019872
  0
VERTEX
  8
SOLID
 62
7
  6
CONTINUOUS
 10
126.234488754
 20
149.2154645326
  0
VERTEX
  8
SOLID
 62
7
  6
CONTINUOUS
 10
126.2091133435
 20
149.0880009297
  0
VERTEX
  8
SOLID
 62
7
  6
CONTINUOUS
 10
126.1838328362
 20
148.945977763
  0
VERTEX
  8
SOLID
 62
7
  6
CONTINUOUS
 10
126.1586700416
 20
148.7887617871
  0
SEQEND
  0
POLYLINE
  8
SOLID
 62
7
  6
CONTINUOUS
 66
1
 70
0
  0
VERTEX
  8
SOLID
 62
7
  6
CONTINUOUS
 10
109.8654098339
 20
149.9118532177
  0
VERTEX
  8
SOLID
 62
7
  6
CONTINUOUS
 10
109.8097799259
 20
149.9057535798
  0
VERTEX
  8
SOLID
 62
7
  6
CONTINUOUS
 10
109.7327103946
 20
149.8751957693
  0
VERTEX
  8
SOLID
 62
7
  6
CONTINUOUS
 10
109.6743798028
 20
149.8304176629
  0
VERTEX
  8
SOLID
 62
7
  6
CONTINUOUS
 10
109.630983079
 20
149.7799863081
  0
VERTEX
  8
SOLID
 62
7
  6
CONTINUOUS
 10
109.5962542035
 20
149.7252585606
  0
VERTEX
  8
SOLID
 62
7
  6
CONTINUOUS
 10
109.5660823346
 20
149.6647025866
  0
VERTEX
  8
SOLID
 62
7
  6
CONTINUOUS
 10
109.538251189
 20
149.5963503301
  0
VERTEX
  8
SOLID
 62
7
  6
CONTINUOUS
 10
109.5116247833
 20
149.5184947127
  0
VERTEX
  8
SOLID
 62
7
  6
CONTINUOUS
 10
109.4856271763
 20
149.4297727514
  0
VERTEX
  8
SOLID
 62
7
  6
CONTINUOUS
 10
109.4599705187
 20
149.3291019872
  0
VERTEX
  8
SOLID
 62
7
  6
CONTINUOUS
 10
109.434488754
 20
149.2154645326
  0
VERTEX
  8
SOLID
 62
7
  6
CONTINUOUS
 10
109.4091133435
 20
149.0880009297
  0
VERTEX
  8
SOLID
 62
7
  6
CONTINUOUS
 10
109.3838328362
 20
148.945977763
  0
VERTEX
  8
SOLID
 62
7
  6
CONTINUOUS
 10
109.3586700416
 20
148.7887617871
  0
SEQEND
  0
POLYLINE
  8
SURFACE
 62
7
  6
CONTINUOUS
 66
1
 70
0
  0
VERTEX
  8
SURFACE
 62
7
  6
CONTINUOUS
 10
93.0654098339
 20
149.9118532177
  0
VERTEX
  8
SURFACE
 62
7
  6
CONTINUOUS
 10
93.0097799259
 20
149.9057535798
  0
VERTEX
  8
SURFACE
 62
7
  6
CONTINUOUS
 10
92.9327103946
 20
149.8751957693
  0
VERTEX
  8
SURFACE
 62
7
  6
CONTINUOUS
 10
92.8743798028
 20
149.8304176629
  0
VERTEX
  8
SURFACE
 62
7
  6
CONTINUOUS
 10
92.830983079
 20
149.7799863081
  0
VERTEX
  8
SURFACE
 62
7
  6
CONTINUOUS
 10
92.7962542035
 20
149.7252585606
  0
VERTEX
  8
SURFACE
 62
7
  6
CONTINUOUS
 10
92.7660823346
 20
149.6647025866
  0
VERTEX
  8
SURFACE
 62
7
  6
CONTINUOUS
 10
92.738251189
 20
149.5963503301
  0
VERTEX
  8
SURFACE
 62
7
  6
CONTINUOUS
 10
92.7116247833
 20
149.5184947127
  0
VERTEX
  8
SURFACE
 62
7
  6
CONTINUOUS
 10
92.6856271763
 20
149.4297727514
  0
VERTEX
  8
SURFACE
 62
7
  6
CONTINUOUS
 10
92.6599705187
 20
149.3291019872
  0
VERTEX
  8
SURFACE
 62
7
  6
CONTINUOUS
 10
92.634488754
 20
149.2154645326
  0
VERTEX
  8
SURFACE
 62
7
  6
CONTINUOUS
 10
92.6091133435
 20
149.0880009297
  0
VERTEX
  8
SURFACE
 62
7
  6
CONTINUOUS
 10
92.5838328362
 20
148.945977763
  0
VERTEX
  8
SURFACE
 62
7
  6
CONTINUOUS
 10
92.5586700416
 20
148.7887617871
  0
SEQEND
  0
LINE
  8
SURFACE
 62
7
  6
CONTINUOUS
 10
81.3423957263
 20
149.9118533813
 11
81.3426646737
 21
149.9118542879
  0
LINE
  8
0
 62
7
  6
CONTINUOUS
 10
244.2653658934
 20
149.9118535424
 11
244.2650845247
 21
149.9118543046
  0
LINE
  8
SOLID
 62
7
  6
CONTINUOUS
 10
227.4654041563
 20
149.9118532682
 11
227.4651167062
 21
149.9118542879
  0
LINE
  8
SOLID
 62
7
  6
CONTINUOUS
 10
182.7975827401
 20
148.3768593094
 11
182.6571192197
 21
148.683880222
  0
LINE
  8
SOLID
 62
7
  6
CONTINUOUS
 10
218.4095756141
 20
83.6483162099
 11
218.5506619025
 21
83.3398289091
  0
POLYLINE
  8
SOLID
 62
7
  6
CONTINUOUS
 66
1
 70
0
  0
VERTEX
  8
SOLID
 62
7
  6
CONTINUOUS
 10
201.740024658
 20
83.3630874048
  0
VERTEX
  8
SOLID
 62
7
  6
CONTINUOUS
 10
201.7584960285
 20
83.2360915832
  0
VERTEX
  8
SOLID
 62
7
  6
CONTINUOUS
 10
201.7836684679
 20
83.0787053799
  0
VERTEX
  8
SOLID
 62
7
  6
CONTINUOUS
 10
201.8089592251
 20
82.9365271223
  0
VERTEX
  8
SOLID
 62
7
  6
CONTINUOUS
 10
201.8343452972
 20
82.8089238064
  0
VERTEX
  8
SOLID
 62
7
  6
CONTINUOUS
 10
201.8598379147
 20
82.6951620967
  0
VERTEX
  8
SOLID
 62
7
  6
CONTINUOUS
 10
201.885505345
 20
82.5943825029
  0
VERTEX
  8
SOLID
 62
7
  6
CONTINUOUS
 10
201.9115133312
 20
82.5055668372
  0
VERTEX
  8
SOLID
 62
7
  6
CONTINUOUS
 10
201.9381492645
 20
82.4276323759
  0
VERTEX
  8
SOLID
 62
7
  6
CONTINUOUS
 10
201.9659884295
 20
82.3592156251
  0
VERTEX
  8
SOLID
 62
7
  6
CONTINUOUS
 10
201.9961659515
 20
82.298608381
  0
VERTEX
  8
SOLID
 62
7
  6
CONTINUOUS
 10
202.0308974259
 20
82.2438400002
  0
VERTEX
  8
SOLID
 62
7
  6
CONTINUOUS
 10
202.074294816
 20
82.1933735177
  0
VERTEX
  8
SOLID
 62
7
  6
CONTINUOUS
 10
202.1326286508
 20
82.1485608229
  0
VERTEX
  8
SOLID
 62
7
  6
CONTINUOUS
 10
202.2097333714
 20
82.1179655127
  0
VERTEX
  8
SOLID
 62
7
  6
CONTINUOUS
 10
202.2654093499
 20
82.1118553854
  0
SEQEND
  0
POLYLINE
  8
SOLID
 62
7
  6
CONTINUOUS
 66
1
 70
0
  0
VERTEX
  8
SOLID
 62
7
  6
CONTINUOUS
 10
200.6890913712
 20
87.7639410763
  0
VERTEX
  8
SOLID
 62
7
  6
CONTINUOUS
 10
200.7446326444
 20
87.2759492789
  0
VERTEX
  8
SOLID
 62
7
  6
CONTINUOUS
 10
200.8166021256
 20
86.7483016989
  0
VERTEX
  8
SOLID
 62
7
  6
CONTINUOUS
 10
200.8993181546
 20
86.2371797878
  0
VERTEX
  8
SOLID
 62
7
  6
CONTINUOUS
 10
200.9925835186
 20
85.7449708504
  0
VERTEX
  8
SOLID
 62
7
  6
CONTINUOUS
 10
201.0961818024
 20
85.2740313836
  0
VERTEX
  8
SOLID
 62
7
  6
CONTINUOUS
 10
201.2098869928
 20
84.8266720339
  0
VERTEX
  8
SOLID
 62
7
  6
CONTINUOUS
 10
201.3334780076
 20
84.4051451002
  0
VERTEX
  8
SOLID
 62
7
  6
CONTINUOUS
 10
201.4667565759
 20
84.0116467166
  0
VERTEX
  8
SOLID
 62
7
  6
CONTINUOUS
 10
201.6095756141
 20
83.6483162099
  0
SEQEND
  0
LINE
  8
SOLID
 62
7
  6
CONTINUOUS
 10
200.5186899897
 20
144.2597617362
 11
200.5187225325
 21
144.2591279339
  0
POLYLINE
  8
SOLID
 62
7
  6
CONTINUOUS
 66
1
 70
0
  0
VERTEX
  8
SOLID
 62
7
  6
CONTINUOUS
 10
200.6953788084
 20
93.8898576164
  0
VERTEX
  8
SOLID
 62
7
  6
CONTINUOUS
 10
200.691592001
 20
93.5895124503
  0
VERTEX
  8
SOLID
 62
7
  6
CONTINUOUS
 10
200.6895407136
 20
93.3190547481
  0
VERTEX
  8
SOLID
 62
7
  6
CONTINUOUS
 10
200.6890588468
 20
87.7646251623
  0
SEQEND
  0
POLYLINE
  8
SOLID
 62
7
  6
CONTINUOUS
 66
1
 70
0
  0
VERTEX
  8
SOLID
 62
7
  6
CONTINUOUS
 10
200.5123575584
 20
138.1279545161
  0
VERTEX
  8
SOLID
 62
7
  6
CONTINUOUS
 10
200.5161540952
 20
138.4308433109
  0
VERTEX
  8
SOLID
 62
7
  6
CONTINUOUS
 10
200.5182269081
 20
138.7016673834
  0
VERTEX
  8
SOLID
 62
7
  6
CONTINUOUS
 10
200.5187225331
 20
144.2590834352
  0
SEQEND
  0
LINE
  8
SOLID
 62
7
  6
CONTINUOUS
 10
210.1586700416
 20
148.7887617871
 11
210.1400279173
 21
148.6606362158
  0
POLYLINE
  8
SOLID
 62
7
  6
CONTINUOUS
 66
1
 70
0
  0
VERTEX
  8
SOLID
 62
7
  6
CONTINUOUS
 10
191.0571194774
 20
83.3398289091
  0
VERTEX
  8
SOLID
 62
7
  6
CONTINUOUS
 10
191.1982057658
 20
83.6483162099
  0
VERTEX
  8
SOLID
 62
7
  6
CONTINUOUS
 10
191.341024804
 20
84.0116467166
  0
VERTEX
  8
SOLID
 62
7
  6
CONTINUOUS
 10
191.4743033723
 20
84.4051451002
  0
VERTEX
  8
SOLID
 62
7
  6
CONTINUOUS
 10
191.5978943871
 20
84.8266720339
  0
VERTEX
  8
SOLID
 62
7
  6
CONTINUOUS
 10
191.7115995775
 20
85.2740313836
  0
VERTEX
  8
SOLID
 62
7
  6
CONTINUOUS
 10
191.8151978613
 20
85.7449708504
  0
VERTEX
  8
SOLID
 62
7
  6
CONTINUOUS
 10
191.9084632253
 20
86.2371797878
  0
VERTEX
  8
SOLID
 62
7
  6
CONTINUOUS
 10
191.9911792543
 20
86.7483016989
  0
VERTEX
  8
SOLID
 62
7
  6
CONTINUOUS
 10
192.0631487355
 20
87.2759492789
  0
VERTEX
  8
SOLID
 62
7
  6
CONTINUOUS
 10
192.1186900087
 20
87.7639410763
  0
SEQEND
  0
POLYLINE
  8
SURFACE
 62
7
  6
CONTINUOUS
 66
1
 70
0
  0
VERTEX
  8
SURFACE
 62
7
  6
CONTINUOUS
 10
76.2654098347
 20
149.9118532177
  0
VERTEX
  8
SURFACE
 62
7
  6
CONTINUOUS
 10
76.2097800391
 20
149.905753605
  0
VERTEX
  8
SURFACE
 62
7
  6
CONTINUOUS
 10
76.1327104768
 20
149.8751958176
  0
VERTEX
  8
SURFACE
 62
7
  6
CONTINUOUS
 10
76.0743798573
 20
149.8304177158
  0
VERTEX
  8
SURFACE
 62
7
  6
CONTINUOUS
 10
76.0309831167
 20
149.7799863599
  0
VERTEX
  8
SURFACE
 62
7
  6
CONTINUOUS
 10
75.9962542317
 20
149.7252586112
  0
VERTEX
  8
SURFACE
 62
7
  6
CONTINUOUS
 10
75.9660823571
 20
149.6647026367
  0
VERTEX
  8
SURFACE
 62
7
  6
CONTINUOUS
 10
75.9382512075
 20
149.5963503798
  0
VERTEX
  8
SURFACE
 62
7
  6
CONTINUOUS
 10
75.9116247987
 20
149.5184947614
  0
VERTEX
  8
SURFACE
 62
7
  6
CONTINUOUS
 10
75.8856271891
 20
149.4297727981
  0
VERTEX
  8
SURFACE
 62
7
  6
CONTINUOUS
 10
75.859970529
 20
149.3291020306
  0
VERTEX
  8
SURFACE
 62
7
  6
CONTINUOUS
 10
75.8344887621
 20
149.2154645711
  0
VERTEX
  8
SURFACE
 62
7
  6
CONTINUOUS
 10
75.8091133495
 20
149.0880009615
  0
VERTEX
  8
SURFACE
 62
7
  6
CONTINUOUS
 10
75.7838328401
 20
148.9459777862
  0
VERTEX
  8
SURFACE
 62
7
  6
CONTINUOUS
 10
75.7586700436
 20
148.7887617997
  0
SEQEND
  0
POLYLINE
  8
SOLID
 62
7
  6
CONTINUOUS
 66
1
 70
0
  0
VERTEX
  8
SOLID
 62
7
  6
CONTINUOUS
 10
199.4677537241
 20
148.6606356441
  0
VERTEX
  8
SOLID
 62
7
  6
CONTINUOUS
 10
199.4491401552
 20
148.7885722681
  0
VERTEX
  8
SOLID
 62
7
  6
CONTINUOUS
 10
199.4240107266
 20
148.9456091623
  0
VERTEX
  8
SOLID
 62
7
  6
CONTINUOUS
 10
199.3987678692
 20
149.0874701852
  0
VERTEX
  8
SOLID
 62
7
  6
CONTINUOUS
 10
199.3734342396
 20
149.2147935393
  0
VERTEX
  8
SOLID
 62
7
  6
CONTINUOUS
 10
199.3479984952
 20
149.3283158844
  0
VERTEX
  8
SOLID
 62
7
  6
CONTINUOUS
 10
199.3223926893
 20
149.428898165
  0
VERTEX
  8
SOLID
 62
7
  6
CONTINUOUS
 10
199.2964532966
 20
149.5175546289
  0
VERTEX
  8
SOLID
 62
7
  6
CONTINUOUS
 10
199.269895978
 20
149.5953658193
  0
VERTEX
  8
SOLID
 62
7
  6
CONTINUOUS
 10
199.2421526808
 20
149.6636887645
  0
VERTEX
  8
SOLID
 62
7
  6
CONTINUOUS
 10
199.2121058835
 20
149.7242184067
  0
VERTEX
  8
SOLID
 62
7
  6
CONTINUOUS
 10
199.1775796512
 20
149.7789097345
  0
VERTEX
  8
SOLID
 62
7
  6
CONTINUOUS
 10
199.1345399815
 20
149.829306787
  0
VERTEX
  8
SOLID
 62
7
  6
CONTINUOUS
 10
199.076797094
 20
149.8741740777
  0
VERTEX
  8
SOLID
 62
7
  6
CONTINUOUS
 10
199.000389558
 20
149.9052094398
  0
VERTEX
  8
SOLID
 62
7
  6
CONTINUOUS
 10
198.9423900697
 20
149.9118533308
  0
SEQEND
  0
POLYLINE
  8
SOLID
 62
7
  6
CONTINUOUS
 66
1
 70
0
  0
VERTEX
  8
SOLID
 62
7
  6
CONTINUOUS
 10
200.5186900079
 20
144.2597675285
  0
VERTEX
  8
SOLID
 62
7
  6
CONTINUOUS
 10
200.4628490147
 20
144.7501687604
  0
VERTEX
  8
SOLID
 62
7
  6
CONTINUOUS
 10
200.3908326661
 20
145.2777343408
  0
VERTEX
  8
SOLID
 62
7
  6
CONTINUOUS
 10
200.308071912
 20
145.7887599373
  0
VERTEX
  8
SOLID
 62
7
  6
CONTINUOUS
 10
200.2147639044
 20
146.2808610911
  0
VERTEX
  8
SOLID
 62
7
  6
CONTINUOUS
 10
200.1111247787
 20
146.7516840007
  0
VERTEX
  8
SOLID
 62
7
  6
CONTINUOUS
 10
199.9973802052
 20
147.1989197682
  0
VERTEX
  8
SOLID
 62
7
  6
CONTINUOUS
 10
199.8737512714
 20
147.6203158783
  0
VERTEX
  8
SOLID
 62
7
  6
CONTINUOUS
 10
199.7404363971
 20
148.0136755874
  0
VERTEX
  8
SOLID
 62
7
  6
CONTINUOUS
 10
199.5975827401
 20
148.3768593094
  0
SEQEND
  0
POLYLINE
  8
SOLID
 62
7
  6
CONTINUOUS
 66
1
 70
0
  0
VERTEX
  8
SOLID
 62
7
  6
CONTINUOUS
 10
208.9161609239
 20
93.5921789486
  0
VERTEX
  8
SOLID
 62
7
  6
CONTINUOUS
 10
208.9123788305
 20
93.8927358079
  0
VERTEX
  8
SOLID
 62
7
  6
CONTINUOUS
 10
208.9123161784
 20
93.9607213248
  0
VERTEX
  8
SOLID
 62
7
  6
CONTINUOUS
 10
208.9132248177
 20
94.0271748232
  0
VERTEX
  8
SOLID
 62
7
  6
CONTINUOUS
 10
208.9151623316
 20
94.0920420164
  0
VERTEX
  8
SOLID
 62
7
  6
CONTINUOUS
 10
208.918190913
 20
94.1552425486
  0
VERTEX
  8
SOLID
 62
7
  6
CONTINUOUS
 10
208.9223751214
 20
94.2167132065
  0
VERTEX
  8
SOLID
 62
7
  6
CONTINUOUS
 10
208.9277616292
 20
94.2764055665
  0
VERTEX
  8
SOLID
 62
7
  6
CONTINUOUS
 10
208.9343829335
 20
94.3341819516
  0
VERTEX
  8
SOLID
 62
7
  6
CONTINUOUS
 10
208.9422719374
 20
94.3899417591
  0
VERTEX
  8
SOLID
 62
7
  6
CONTINUOUS
 10
208.9514227016
 20
94.4436568413
  0
VERTEX
  8
SOLID
 62
7
  6
CONTINUOUS
 10
208.9618801666
 20
94.4953342888
  0
VERTEX
  8
SOLID
 62
7
  6
CONTINUOUS
 10
208.9737769529
 20
94.545628915
  0
VERTEX
  8
SOLID
 62
7
  6
CONTINUOUS
 10
208.9869236972
 20
94.5932171418
  0
VERTEX
  8
SOLID
 62
7
  6
CONTINUOUS
 10
209.001846345
 20
94.6384807301
  0
VERTEX
  8
SOLID
 62
7
  6
CONTINUOUS
 10
209.018791393
 20
94.6816964641
  0
VERTEX
  8
SOLID
 62
7
  6
CONTINUOUS
 10
209.038001213
 20
94.7227967064
  0
VERTEX
  8
SOLID
 62
7
  6
CONTINUOUS
 10
209.059716051
 20
94.7618901782
  0
VERTEX
  8
SOLID
 62
7
  6
CONTINUOUS
 10
209.0838948808
 20
94.7984365816
  0
VERTEX
  8
SOLID
 62
7
  6
CONTINUOUS
 10
209.1105743369
 20
94.8320098775
  0
VERTEX
  8
SOLID
 62
7
  6
CONTINUOUS
 10
209.1398211627
 20
94.8621654799
  0
VERTEX
  8
SOLID
 62
7
  6
CONTINUOUS
 10
209.1714376914
 20
94.8881283199
  0
VERTEX
  8
SOLID
 62
7
  6
CONTINUOUS
 10
209.2050091545
 20
94.90900194
  0
VERTEX
  8
SOLID
 62
7
  6
CONTINUOUS
 10
209.2401097468
 20
94.9239369657
  0
VERTEX
  8
SOLID
 62
7
  6
CONTINUOUS
 10
209.2751850992
 20
94.9318379909
  0
VERTEX
  8
SOLID
 62
7
  6
CONTINUOUS
 10
209.2941458236
 20
94.9330422568
  0
SEQEND
  0
POLYLINE
  8
SOLID
 62
7
  6
CONTINUOUS
 66
1
 70
0
  0
VERTEX
  8
SOLID
 62
7
  6
CONTINUOUS
 10
209.0915993941
 20
138.4334886435
  0
VERTEX
  8
SOLID
 62
7
  6
CONTINUOUS
 10
209.095387388
 20
138.132752398
  0
VERTEX
  8
SOLID
 62
7
  6
CONTINUOUS
 10
209.0954762282
 20
138.0650609683
  0
VERTEX
  8
SOLID
 62
7
  6
CONTINUOUS
 10
209.0946035926
 20
137.9988154379
  0
VERTEX
  8
SOLID
 62
7
  6
CONTINUOUS
 10
209.0927094768
 20
137.9340730589
  0
VERTEX
  8
SOLID
 62
7
  6
CONTINUOUS
 10
209.0897293069
 20
137.8709175023
  0
VERTEX
  8
SOLID
 62
7
  6
CONTINUOUS
 10
209.0855949373
 20
137.80942035
  0
VERTEX
  8
SOLID
 62
7
  6
CONTINUOUS
 10
209.0802543104
 20
137.7496306792
  0
VERTEX
  8
SOLID
 62
7
  6
CONTINUOUS
 10
209.0736714689
 20
137.6916860535
  0
VERTEX
  8
SOLID
 62
7
  6
CONTINUOUS
 10
209.0658103662
 20
137.6357153203
  0
VERTEX
  8
SOLID
 62
7
  6
CONTINUOUS
 10
209.0566622358
 20
137.5817011399
  0
VERTEX
  8
SOLID
 62
7
  6
CONTINUOUS
 10
209.0461969079
 20
137.5297245575
  0
VERTEX
  8
SOLID
 62
7
  6
CONTINUOUS
 10
209.0342778361
 20
137.4791739602
  0
VERTEX
  8
SOLID
 62
7
  6
CONTINUOUS
 10
209.0211003379
 20
137.4312976875
  0
VERTEX
  8
SOLID
 62
7
  6
CONTINUOUS
 10
209.0061686882
 20
137.3858805856
  0
VERTEX
  8
SOLID
 62
7
  6
CONTINUOUS
 10
208.9891945764
 20
137.3424966332
  0
VERTEX
  8
SOLID
 62
7
  6
CONTINUOUS
 10
208.969982826
 20
137.3013112803
  0
VERTEX
  8
SOLID
 62
7
  6
CONTINUOUS
 10
208.9482786624
 20
137.2621732035
  0
VERTEX
  8
SOLID
 62
7
  6
CONTINUOUS
 10
208.9241436579
 20
137.2256294473
  0
VERTEX
  8
SOLID
 62
7
  6
CONTINUOUS
 10
208.8975422965
 20
137.192083915
  0
VERTEX
  8
SOLID
 62
7
  6
CONTINUOUS
 10
208.8684108326
 20
137.1619617038
  0
VERTEX
  8
SOLID
 62
7
  6
CONTINUOUS
 10
208.8369445008
 20
137.1360153752
  0
VERTEX
  8
SOLID
 62
7
  6
CONTINUOUS
 10
208.8035393305
 20
137.1151112842
  0
VERTEX
  8
SOLID
 62
7
  6
CONTINUOUS
 10
208.7685996789
 20
137.1000773827
  0
VERTEX
  8
SOLID
 62
7
  6
CONTINUOUS
 10
208.7336282548
 20
137.0919997409
  0
VERTEX
  8
SOLID
 62
7
  6
CONTINUOUS
 10
208.7134608807
 20
137.0906657573
  0
SEQEND
  0
LINE
  8
SOLID
 62
7
  6
CONTINUOUS
 10
208.9182283189
 20
93.321714476
 11
208.9161609239
 21
93.5921789486
  0
LINE
  8
SOLID
 62
7
  6
CONTINUOUS
 10
209.0895422351
 20
138.704317145
 11
209.0915993941
 21
138.4334886435
  0
LINE
  8
SOLID
 62
7
  6
CONTINUOUS
 10
208.9182283189
 20
93.321714476
 11
208.9187225331
 21
87.7646251623
  0
LINE
  8
SOLID
 62
7
  6
CONTINUOUS
 10
209.0890588468
 20
144.2590834352
 11
209.0895422351
 21
138.704317145
  0
LINE
  8
SOLID
 62
7
  6
CONTINUOUS
 10
209.0890913902
 20
144.2597617362
 11
209.0890588474
 21
144.2591279339
  0
LINE
  8
SOLID
 62
7
  6
CONTINUOUS
 10
208.9186899905
 20
87.7639468689
 11
208.9187225325
 21
87.7645806636
  0
LINE
  8
SOLID
 62
7
  6
CONTINUOUS
 10
207.8493141608
 20
83.2362811865
 11
207.8677569831
 21
83.3630879759
  0
POLYLINE
  8
SOLID
 62
7
  6
CONTINUOUS
 66
1
 70
0
  0
VERTEX
  8
SOLID
 62
7
  6
CONTINUOUS
 10
226.9506621602
 20
148.683880222
  0
VERTEX
  8
SOLID
 62
7
  6
CONTINUOUS
 10
226.8101986398
 20
148.3768593094
  0
VERTEX
  8
SOLID
 62
7
  6
CONTINUOUS
 10
226.6673449828
 20
148.0136755874
  0
VERTEX
  8
SOLID
 62
7
  6
CONTINUOUS
 10
226.5340301085
 20
147.6203158783
  0
VERTEX
  8
SOLID
 62
7
  6
CONTINUOUS
 10
226.4104011747
 20
147.1989197682
  0
VERTEX
  8
SOLID
 62
7
  6
CONTINUOUS
 10
226.2966566012
 20
146.7516840007
  0
VERTEX
  8
SOLID
 62
7
  6
CONTINUOUS
 10
226.1930174755
 20
146.2808610911
  0
VERTEX
  8
SOLID
 62
7
  6
CONTINUOUS
 10
226.0997094679
 20
145.7887599373
  0
VERTEX
  8
SOLID
 62
7
  6
CONTINUOUS
 10
226.0169487138
 20
145.2777343408
  0
VERTEX
  8
SOLID
 62
7
  6
CONTINUOUS
 10
225.9449323652
 20
144.7501687604
  0
VERTEX
  8
SOLID
 62
7
  6
CONTINUOUS
 10
225.889091372
 20
144.2597675285
  0
SEQEND
  0
LINE
  8
SOLID
 62
7
  6
CONTINUOUS
 10
199.5975827401
 20
148.3768593094
 11
199.4571192197
 21
148.683880222
  0
POLYLINE
  8
SOLID
 62
7
  6
CONTINUOUS
 66
1
 70
0
  0
VERTEX
  8
SOLID
 62
7
  6
CONTINUOUS
 10
218.540024658
 20
83.3630874048
  0
VERTEX
  8
SOLID
 62
7
  6
CONTINUOUS
 10
218.5584960285
 20
83.2360915832
  0
VERTEX
  8
SOLID
 62
7
  6
CONTINUOUS
 10
218.5836684679
 20
83.0787053799
  0
VERTEX
  8
SOLID
 62
7
  6
CONTINUOUS
 10
218.6089592251
 20
82.9365271223
  0
VERTEX
  8
SOLID
 62
7
  6
CONTINUOUS
 10
218.6343452972
 20
82.8089238064
  0
VERTEX
  8
SOLID
 62
7
  6
CONTINUOUS
 10
218.6598379147
 20
82.6951620967
  0
VERTEX
  8
SOLID
 62
7
  6
CONTINUOUS
 10
218.685505345
 20
82.5943825029
  0
VERTEX
  8
SOLID
 62
7
  6
CONTINUOUS
 10
218.7115133312
 20
82.5055668372
  0
VERTEX
  8
SOLID
 62
7
  6
CONTINUOUS
 10
218.7381492645
 20
82.4276323759
  0
VERTEX
  8
SOLID
 62
7
  6
CONTINUOUS
 10
218.7659884295
 20
82.3592156251
  0
VERTEX
  8
SOLID
 62
7
  6
CONTINUOUS
 10
218.7961659515
 20
82.298608381
  0
VERTEX
  8
SOLID
 62
7
  6
CONTINUOUS
 10
218.8308974259
 20
82.2438400002
  0
VERTEX
  8
SOLID
 62
7
  6
CONTINUOUS
 10
218.874294816
 20
82.1933735177
  0
VERTEX
  8
SOLID
 62
7
  6
CONTINUOUS
 10
218.9326286508
 20
82.1485608229
  0
VERTEX
  8
SOLID
 62
7
  6
CONTINUOUS
 10
219.0097333714
 20
82.1179655127
  0
VERTEX
  8
SOLID
 62
7
  6
CONTINUOUS
 10
219.0654093499
 20
82.1118553854
  0
SEQEND
  0
LINE
  8
SOLID
 62
7
  6
CONTINUOUS
 10
217.4890913894
 20
87.7639468689
 11
217.4890588474
 21
87.7645806636
  0
LINE
  8
SOLID
 62
7
  6
CONTINUOUS
 10
217.3186899897
 20
144.2597617362
 11
217.3187225325
 21
144.2591279339
  0
POLYLINE
  8
SOLID
 62
7
  6
CONTINUOUS
 66
1
 70
0
  0
VERTEX
  8
SOLID
 62
7
  6
CONTINUOUS
 10
217.4953788084
 20
93.8898576164
  0
VERTEX
  8
SOLID
 62
7
  6
CONTINUOUS
 10
217.491592001
 20
93.5895124503
  0
VERTEX
  8
SOLID
 62
7
  6
CONTINUOUS
 10
217.4895407136
 20
93.3190547481
  0
VERTEX
  8
SOLID
 62
7
  6
CONTINUOUS
 10
217.4890588468
 20
87.7646251623
  0
SEQEND
  0
POLYLINE
  8
SOLID
 62
7
  6
CONTINUOUS
 66
1
 70
0
  0
VERTEX
  8
SOLID
 62
7
  6
CONTINUOUS
 10
217.3123575584
 20
138.1279545161
  0
VERTEX
  8
SOLID
 62
7
  6
CONTINUOUS
 10
217.3161540952
 20
138.4308433109
  0
VERTEX
  8
SOLID
 62
7
  6
CONTINUOUS
 10
217.3182269081
 20
138.7016673834
  0
VERTEX
  8
SOLID
 62
7
  6
CONTINUOUS
 10
217.3187225331
 20
144.2590834352
  0
SEQEND
  0
POLYLINE
  8
SOLID
 62
7
  6
CONTINUOUS
 66
1
 70
0
  0
VERTEX
  8
SOLID
 62
7
  6
CONTINUOUS
 10
207.8571194774
 20
83.3398289091
  0
VERTEX
  8
SOLID
 62
7
  6
CONTINUOUS
 10
207.9982057658
 20
83.6483162099
  0
VERTEX
  8
SOLID
 62
7
  6
CONTINUOUS
 10
208.141024804
 20
84.0116467166
  0
VERTEX
  8
SOLID
 62
7
  6
CONTINUOUS
 10
208.2743033723
 20
84.4051451002
  0
VERTEX
  8
SOLID
 62
7
  6
CONTINUOUS
 10
208.3978943871
 20
84.8266720339
  0
VERTEX
  8
SOLID
 62
7
  6
CONTINUOUS
 10
208.5115995775
 20
85.2740313836
  0
VERTEX
  8
SOLID
 62
7
  6
CONTINUOUS
 10
208.6151978613
 20
85.7449708504
  0
VERTEX
  8
SOLID
 62
7
  6
CONTINUOUS
 10
208.7084632253
 20
86.2371797878
  0
VERTEX
  8
SOLID
 62
7
  6
CONTINUOUS
 10
208.7911792543
 20
86.7483016989
  0
VERTEX
  8
SOLID
 62
7
  6
CONTINUOUS
 10
208.8631487355
 20
87.2759492789
  0
VERTEX
  8
SOLID
 62
7
  6
CONTINUOUS
 10
208.9186900087
 20
87.7639410763
  0
SEQEND
  0
LINE
  8
SOLID
 62
7
  6
CONTINUOUS
 10
235.2095756141
 20
83.6483162099
 11
235.3506619025
 21
83.3398289091
  0
POLYLINE
  8
SOLID
 62
7
  6
CONTINUOUS
 66
1
 70
0
  0
VERTEX
  8
SOLID
 62
7
  6
CONTINUOUS
 10
217.4890913712
 20
87.7639410763
  0
VERTEX
  8
SOLID
 62
7
  6
CONTINUOUS
 10
217.5446326444
 20
87.2759492789
  0
VERTEX
  8
SOLID
 62
7
  6
CONTINUOUS
 10
217.6166021256
 20
86.7483016989
  0
VERTEX
  8
SOLID
 62
7
  6
CONTINUOUS
 10
217.6993181546
 20
86.2371797878
  0
VERTEX
  8
SOLID
 62
7
  6
CONTINUOUS
 10
217.7925835186
 20
85.7449708504
  0
VERTEX
  8
SOLID
 62
7
  6
CONTINUOUS
 10
217.8961818024
 20
85.2740313836
  0
VERTEX
  8
SOLID
 62
7
  6
CONTINUOUS
 10
218.0098869928
 20
84.8266720339
  0
VERTEX
  8
SOLID
 62
7
  6
CONTINUOUS
 10
218.1334780076
 20
84.4051451002
  0
VERTEX
  8
SOLID
 62
7
  6
CONTINUOUS
 10
218.2667565759
 20
84.0116467166
  0
VERTEX
  8
SOLID
 62
7
  6
CONTINUOUS
 10
218.4095756141
 20
83.6483162099
  0
SEQEND
  0
POLYLINE
  8
SOLID
 62
7
  6
CONTINUOUS
 66
1
 70
0
  0
VERTEX
  8
SOLID
 62
7
  6
CONTINUOUS
 10
217.3186900079
 20
144.2597675285
  0
VERTEX
  8
SOLID
 62
7
  6
CONTINUOUS
 10
217.2628490147
 20
144.7501687604
  0
VERTEX
  8
SOLID
 62
7
  6
CONTINUOUS
 10
217.1908326661
 20
145.2777343408
  0
VERTEX
  8
SOLID
 62
7
  6
CONTINUOUS
 10
217.108071912
 20
145.7887599373
  0
VERTEX
  8
SOLID
 62
7
  6
CONTINUOUS
 10
217.0147639044
 20
146.2808610911
  0
VERTEX
  8
SOLID
 62
7
  6
CONTINUOUS
 10
216.9111247788
 20
146.7516840007
  0
VERTEX
  8
SOLID
 62
7
  6
CONTINUOUS
 10
216.7973802052
 20
147.1989197682
  0
VERTEX
  8
SOLID
 62
7
  6
CONTINUOUS
 10
216.6737512714
 20
147.6203158783
  0
VERTEX
  8
SOLID
 62
7
  6
CONTINUOUS
 10
216.5404363971
 20
148.0136755874
  0
VERTEX
  8
SOLID
 62
7
  6
CONTINUOUS
 10
216.3975827401
 20
148.3768593094
  0
SEQEND
  0
POLYLINE
  8
SOLID
 62
7
  6
CONTINUOUS
 66
1
 70
0
  0
VERTEX
  8
SOLID
 62
7
  6
CONTINUOUS
 10
225.7161609239
 20
93.5921789486
  0
VERTEX
  8
SOLID
 62
7
  6
CONTINUOUS
 10
225.7123788305
 20
93.8927358079
  0
VERTEX
  8
SOLID
 62
7
  6
CONTINUOUS
 10
225.7123161784
 20
93.9607213248
  0
VERTEX
  8
SOLID
 62
7
  6
CONTINUOUS
 10
225.7132248177
 20
94.0271748232
  0
VERTEX
  8
SOLID
 62
7
  6
CONTINUOUS
 10
225.7151623316
 20
94.0920420164
  0
VERTEX
  8
SOLID
 62
7
  6
CONTINUOUS
 10
225.718190913
 20
94.1552425486
  0
VERTEX
  8
SOLID
 62
7
  6
CONTINUOUS
 10
225.7223751214
 20
94.2167132065
  0
VERTEX
  8
SOLID
 62
7
  6
CONTINUOUS
 10
225.7277616292
 20
94.2764055665
  0
VERTEX
  8
SOLID
 62
7
  6
CONTINUOUS
 10
225.7343829335
 20
94.3341819516
  0
VERTEX
  8
SOLID
 62
7
  6
CONTINUOUS
 10
225.7422719374
 20
94.3899417591
  0
VERTEX
  8
SOLID
 62
7
  6
CONTINUOUS
 10
225.7514227016
 20
94.4436568413
  0
VERTEX
  8
SOLID
 62
7
  6
CONTINUOUS
 10
225.7618801666
 20
94.4953342888
  0
VERTEX
  8
SOLID
 62
7
  6
CONTINUOUS
 10
225.7737769529
 20
94.545628915
  0
VERTEX
  8
SOLID
 62
7
  6
CONTINUOUS
 10
225.7869236972
 20
94.5932171418
  0
VERTEX
  8
SOLID
 62
7
  6
CONTINUOUS
 10
225.801846345
 20
94.6384807301
  0
VERTEX
  8
SOLID
 62
7
  6
CONTINUOUS
 10
225.818791393
 20
94.6816964641
  0
VERTEX
  8
SOLID
 62
7
  6
CONTINUOUS
 10
225.838001213
 20
94.7227967064
  0
VERTEX
  8
SOLID
 62
7
  6
CONTINUOUS
 10
225.859716051
 20
94.7618901782
  0
VERTEX
  8
SOLID
 62
7
  6
CONTINUOUS
 10
225.8838948808
 20
94.7984365816
  0
VERTEX
  8
SOLID
 62
7
  6
CONTINUOUS
 10
225.9105743369
 20
94.8320098775
  0
VERTEX
  8
SOLID
 62
7
  6
CONTINUOUS
 10
225.9398211627
 20
94.8621654799
  0
VERTEX
  8
SOLID
 62
7
  6
CONTINUOUS
 10
225.9714376914
 20
94.8881283199
  0
VERTEX
  8
SOLID
 62
7
  6
CONTINUOUS
 10
226.0050091545
 20
94.90900194
  0
VERTEX
  8
SOLID
 62
7
  6
CONTINUOUS
 10
226.0401097468
 20
94.9239369657
  0
VERTEX
  8
SOLID
 62
7
  6
CONTINUOUS
 10
226.0751850992
 20
94.9318379909
  0
VERTEX
  8
SOLID
 62
7
  6
CONTINUOUS
 10
226.0941458236
 20
94.9330422568
  0
SEQEND
  0
POLYLINE
  8
SOLID
 62
7
  6
CONTINUOUS
 66
1
 70
0
  0
VERTEX
  8
SOLID
 62
7
  6
CONTINUOUS
 10
225.8915993941
 20
138.4334886435
  0
VERTEX
  8
SOLID
 62
7
  6
CONTINUOUS
 10
225.895387388
 20
138.132752398
  0
VERTEX
  8
SOLID
 62
7
  6
CONTINUOUS
 10
225.8954762282
 20
138.0650609683
  0
VERTEX
  8
SOLID
 62
7
  6
CONTINUOUS
 10
225.8946035925
 20
137.9988154379
  0
VERTEX
  8
SOLID
 62
7
  6
CONTINUOUS
 10
225.8927094768
 20
137.9340730589
  0
VERTEX
  8
SOLID
 62
7
  6
CONTINUOUS
 10
225.8897293069
 20
137.8709175023
  0
VERTEX
  8
SOLID
 62
7
  6
CONTINUOUS
 10
225.8855949373
 20
137.80942035
  0
VERTEX
  8
SOLID
 62
7
  6
CONTINUOUS
 10
225.8802543104
 20
137.7496306792
  0
VERTEX
  8
SOLID
 62
7
  6
CONTINUOUS
 10
225.8736714689
 20
137.6916860535
  0
VERTEX
  8
SOLID
 62
7
  6
CONTINUOUS
 10
225.8658103662
 20
137.6357153203
  0
VERTEX
  8
SOLID
 62
7
  6
CONTINUOUS
 10
225.8566622358
 20
137.5817011399
  0
VERTEX
  8
SOLID
 62
7
  6
CONTINUOUS
 10
225.8461969079
 20
137.5297245575
  0
VERTEX
  8
SOLID
 62
7
  6
CONTINUOUS
 10
225.8342778361
 20
137.4791739602
  0
VERTEX
  8
SOLID
 62
7
  6
CONTINUOUS
 10
225.8211003379
 20
137.4312976875
  0
VERTEX
  8
SOLID
 62
7
  6
CONTINUOUS
 10
225.8061686882
 20
137.3858805856
  0
VERTEX
  8
SOLID
 62
7
  6
CONTINUOUS
 10
225.7891945764
 20
137.3424966332
  0
VERTEX
  8
SOLID
 62
7
  6
CONTINUOUS
 10
225.769982826
 20
137.3013112803
  0
VERTEX
  8
SOLID
 62
7
  6
CONTINUOUS
 10
225.7482786624
 20
137.2621732035
  0
VERTEX
  8
SOLID
 62
7
  6
CONTINUOUS
 10
225.7241436579
 20
137.2256294473
  0
VERTEX
  8
SOLID
 62
7
  6
CONTINUOUS
 10
225.6975422965
 20
137.192083915
  0
VERTEX
  8
SOLID
 62
7
  6
CONTINUOUS
 10
225.6684108326
 20
137.1619617038
  0
VERTEX
  8
SOLID
 62
7
  6
CONTINUOUS
 10
225.6369445008
 20
137.1360153752
  0
VERTEX
  8
SOLID
 62
7
  6
CONTINUOUS
 10
225.6035393305
 20
137.1151112842
  0
VERTEX
  8
SOLID
 62
7
  6
CONTINUOUS
 10
225.5685996789
 20
137.1000773827
  0
VERTEX
  8
SOLID
 62
7
  6
CONTINUOUS
 10
225.5336282548
 20
137.0919997409
  0
VERTEX
  8
SOLID
 62
7
  6
CONTINUOUS
 10
225.5134608807
 20
137.0906657573
  0
SEQEND
  0
LINE
  8
SOLID
 62
7
  6
CONTINUOUS
 10
225.7182283189
 20
93.321714476
 11
225.7161609239
 21
93.5921789486
  0
LINE
  8
SOLID
 62
7
  6
CONTINUOUS
 10
225.8895422351
 20
138.704317145
 11
225.8915993941
 21
138.4334886435
  0
LINE
  8
SOLID
 62
7
  6
CONTINUOUS
 10
225.7182283189
 20
93.321714476
 11
225.7187225331
 21
87.7646251623
  0
LINE
  8
SOLID
 62
7
  6
CONTINUOUS
 10
225.8890588468
 20
144.2590834352
 11
225.8895422351
 21
138.704317145
  0
LINE
  8
SOLID
 62
7
  6
CONTINUOUS
 10
225.8890913902
 20
144.2597617362
 11
225.8890588474
 21
144.2591279339
  0
LINE
  8
SOLID
 62
7
  6
CONTINUOUS
 10
225.7186899905
 20
87.7639468689
 11
225.7187225325
 21
87.7645806636
  0
LINE
  8
SOLID
 62
7
  6
CONTINUOUS
 10
226.9586700416
 20
148.7887617871
 11
226.9400279173
 21
148.6606362158
  0
POLYLINE
  8
SOLID
 62
7
  6
CONTINUOUS
 66
1
 70
0
  0
VERTEX
  8
SOLID
 62
7
  6
CONTINUOUS
 10
243.7506621602
 20
148.683880222
  0
VERTEX
  8
SOLID
 62
7
  6
CONTINUOUS
 10
243.6101986398
 20
148.3768593094
  0
VERTEX
  8
SOLID
 62
7
  6
CONTINUOUS
 10
243.4673449828
 20
148.0136755874
  0
VERTEX
  8
SOLID
 62
7
  6
CONTINUOUS
 10
243.3340301085
 20
147.6203158783
  0
VERTEX
  8
SOLID
 62
7
  6
CONTINUOUS
 10
243.2104011747
 20
147.1989197682
  0
VERTEX
  8
SOLID
 62
7
  6
CONTINUOUS
 10
243.0966566012
 20
146.7516840007
  0
VERTEX
  8
SOLID
 62
7
  6
CONTINUOUS
 10
242.9930174755
 20
146.2808610911
  0
VERTEX
  8
SOLID
 62
7
  6
CONTINUOUS
 10
242.8997094679
 20
145.7887599373
  0
VERTEX
  8
SOLID
 62
7
  6
CONTINUOUS
 10
242.8169487138
 20
145.2777343408
  0
VERTEX
  8
SOLID
 62
7
  6
CONTINUOUS
 10
242.7449323652
 20
144.7501687604
  0
VERTEX
  8
SOLID
 62
7
  6
CONTINUOUS
 10
242.689091372
 20
144.2597675285
  0
SEQEND
  0
LINE
  8
SOLID
 62
7
  6
CONTINUOUS
 10
216.3975827401
 20
148.3768593094
 11
216.2571192197
 21
148.683880222
  0
POLYLINE
  8
SOLID
 62
7
  6
CONTINUOUS
 66
1
 70
0
  0
VERTEX
  8
SOLID
 62
7
  6
CONTINUOUS
 10
216.2677537241
 20
148.6606356441
  0
VERTEX
  8
SOLID
 62
7
  6
CONTINUOUS
 10
216.2491401552
 20
148.7885722681
  0
VERTEX
  8
SOLID
 62
7
  6
CONTINUOUS
 10
216.2240107266
 20
148.9456091623
  0
VERTEX
  8
SOLID
 62
7
  6
CONTINUOUS
 10
216.1987678692
 20
149.0874701852
  0
VERTEX
  8
SOLID
 62
7
  6
CONTINUOUS
 10
216.1734342396
 20
149.2147935393
  0
VERTEX
  8
SOLID
 62
7
  6
CONTINUOUS
 10
216.1479984952
 20
149.3283158844
  0
VERTEX
  8
SOLID
 62
7
  6
CONTINUOUS
 10
216.1223926893
 20
149.428898165
  0
VERTEX
  8
SOLID
 62
7
  6
CONTINUOUS
 10
216.0964532966
 20
149.5175546289
  0
VERTEX
  8
SOLID
 62
7
  6
CONTINUOUS
 10
216.069895978
 20
149.5953658193
  0
VERTEX
  8
SOLID
 62
7
  6
CONTINUOUS
 10
216.0421526808
 20
149.6636887645
  0
VERTEX
  8
SOLID
 62
7
  6
CONTINUOUS
 10
216.0121058835
 20
149.7242184067
  0
VERTEX
  8
SOLID
 62
7
  6
CONTINUOUS
 10
215.9775796512
 20
149.7789097345
  0
VERTEX
  8
SOLID
 62
7
  6
CONTINUOUS
 10
215.9345399815
 20
149.829306787
  0
VERTEX
  8
SOLID
 62
7
  6
CONTINUOUS
 10
215.876797094
 20
149.8741740777
  0
VERTEX
  8
SOLID
 62
7
  6
CONTINUOUS
 10
215.800389558
 20
149.9052094398
  0
VERTEX
  8
SOLID
 62
7
  6
CONTINUOUS
 10
215.7423900697
 20
149.9118533308
  0
SEQEND
  0
LINE
  8
SOLID
 62
7
  6
CONTINUOUS
 10
234.2890913894
 20
87.7639468689
 11
234.2890588474
 21
87.7645806636
  0
POLYLINE
  8
SOLID
 62
7
  6
CONTINUOUS
 66
1
 70
0
  0
VERTEX
  8
SOLID
 62
7
  6
CONTINUOUS
 10
234.1123575584
 20
138.1279545161
  0
VERTEX
  8
SOLID
 62
7
  6
CONTINUOUS
 10
234.1161540952
 20
138.4308433109
  0
VERTEX
  8
SOLID
 62
7
  6
CONTINUOUS
 10
234.1182269081
 20
138.7016673834
  0
VERTEX
  8
SOLID
 62
7
  6
CONTINUOUS
 10
234.1187225331
 20
144.2590834352
  0
SEQEND
  0
LINE
  8
SOLID
 62
7
  6
CONTINUOUS
 10
224.6493141608
 20
83.2362811865
 11
224.6677569831
 21
83.3630879759
  0
POLYLINE
  8
SOLID
 62
7
  6
CONTINUOUS
 66
1
 70
0
  0
VERTEX
  8
SOLID
 62
7
  6
CONTINUOUS
 10
224.6571194774
 20
83.3398289091
  0
VERTEX
  8
SOLID
 62
7
  6
CONTINUOUS
 10
224.7982057658
 20
83.6483162099
  0
VERTEX
  8
SOLID
 62
7
  6
CONTINUOUS
 10
224.941024804
 20
84.0116467166
  0
VERTEX
  8
SOLID
 62
7
  6
CONTINUOUS
 10
225.0743033723
 20
84.4051451002
  0
VERTEX
  8
SOLID
 62
7
  6
CONTINUOUS
 10
225.1978943871
 20
84.8266720339
  0
VERTEX
  8
SOLID
 62
7
  6
CONTINUOUS
 10
225.3115995775
 20
85.2740313836
  0
VERTEX
  8
SOLID
 62
7
  6
CONTINUOUS
 10
225.4151978613
 20
85.7449708504
  0
VERTEX
  8
SOLID
 62
7
  6
CONTINUOUS
 10
225.5084632253
 20
86.2371797878
  0
VERTEX
  8
SOLID
 62
7
  6
CONTINUOUS
 10
225.5911792543
 20
86.7483016989
  0
VERTEX
  8
SOLID
 62
7
  6
CONTINUOUS
 10
225.6631487355
 20
87.2759492789
  0
VERTEX
  8
SOLID
 62
7
  6
CONTINUOUS
 10
225.7186900087
 20
87.7639410763
  0
SEQEND
  0
POLYLINE
  8
SOLID
 62
7
  6
CONTINUOUS
 66
1
 70
0
  0
VERTEX
  8
SOLID
 62
7
  6
CONTINUOUS
 10
235.340024658
 20
83.3630874048
  0
VERTEX
  8
SOLID
 62
7
  6
CONTINUOUS
 10
235.3584960285
 20
83.2360915832
  0
VERTEX
  8
SOLID
 62
7
  6
CONTINUOUS
 10
235.3836684679
 20
83.0787053799
  0
VERTEX
  8
SOLID
 62
7
  6
CONTINUOUS
 10
235.4089592251
 20
82.9365271223
  0
VERTEX
  8
SOLID
 62
7
  6
CONTINUOUS
 10
235.4343452972
 20
82.8089238064
  0
VERTEX
  8
SOLID
 62
7
  6
CONTINUOUS
 10
235.4598379147
 20
82.6951620967
  0
VERTEX
  8
SOLID
 62
7
  6
CONTINUOUS
 10
235.485505345
 20
82.5943825029
  0
VERTEX
  8
SOLID
 62
7
  6
CONTINUOUS
 10
235.5115133312
 20
82.5055668372
  0
VERTEX
  8
SOLID
 62
7
  6
CONTINUOUS
 10
235.5381492645
 20
82.4276323759
  0
VERTEX
  8
SOLID
 62
7
  6
CONTINUOUS
 10
235.5659884295
 20
82.3592156251
  0
VERTEX
  8
SOLID
 62
7
  6
CONTINUOUS
 10
235.5961659515
 20
82.298608381
  0
VERTEX
  8
SOLID
 62
7
  6
CONTINUOUS
 10
235.6308974259
 20
82.2438400002
  0
VERTEX
  8
SOLID
 62
7
  6
CONTINUOUS
 10
235.674294816
 20
82.1933735177
  0
VERTEX
  8
SOLID
 62
7
  6
CONTINUOUS
 10
235.7326286508
 20
82.1485608229
  0
VERTEX
  8
SOLID
 62
7
  6
CONTINUOUS
 10
235.8097333714
 20
82.1179655127
  0
VERTEX
  8
SOLID
 62
7
  6
CONTINUOUS
 10
235.8654093499
 20
82.1118553854
  0
SEQEND
  0
POLYLINE
  8
SOLID
 62
7
  6
CONTINUOUS
 66
1
 70
0
  0
VERTEX
  8
SOLID
 62
7
  6
CONTINUOUS
 10
234.2890913712
 20
87.7639410763
  0
VERTEX
  8
SOLID
 62
7
  6
CONTINUOUS
 10
234.3446326444
 20
87.2759492789
  0
VERTEX
  8
SOLID
 62
7
  6
CONTINUOUS
 10
234.4166021256
 20
86.7483016989
  0
VERTEX
  8
SOLID
 62
7
  6
CONTINUOUS
 10
234.4993181546
 20
86.2371797878
  0
VERTEX
  8
SOLID
 62
7
  6
CONTINUOUS
 10
234.5925835186
 20
85.7449708504
  0
VERTEX
  8
SOLID
 62
7
  6
CONTINUOUS
 10
234.6961818024
 20
85.2740313836
  0
VERTEX
  8
SOLID
 62
7
  6
CONTINUOUS
 10
234.8098869928
 20
84.8266720339
  0
VERTEX
  8
SOLID
 62
7
  6
CONTINUOUS
 10
234.9334780076
 20
84.4051451002
  0
VERTEX
  8
SOLID
 62
7
  6
CONTINUOUS
 10
235.0667565759
 20
84.0116467166
  0
VERTEX
  8
SOLID
 62
7
  6
CONTINUOUS
 10
235.2095756141
 20
83.6483162099
  0
SEQEND
  0
LINE
  8
SOLID
 62
7
  6
CONTINUOUS
 10
234.1186899897
 20
144.2597617362
 11
234.1187225325
 21
144.2591279339
  0
POLYLINE
  8
SOLID
 62
7
  6
CONTINUOUS
 66
1
 70
0
  0
VERTEX
  8
SOLID
 62
7
  6
CONTINUOUS
 10
234.2953788084
 20
93.8898576164
  0
VERTEX
  8
SOLID
 62
7
  6
CONTINUOUS
 10
234.291592001
 20
93.5895124503
  0
VERTEX
  8
SOLID
 62
7
  6
CONTINUOUS
 10
234.2895407136
 20
93.3190547481
  0
VERTEX
  8
SOLID
 62
7
  6
CONTINUOUS
 10
234.2890588468
 20
87.7646251623
  0
SEQEND
  0
LINE
  8
SOLID
 62
7
  6
CONTINUOUS
 10
243.7599304927
 20
148.7970296676
 11
243.7400393845
 21
148.6606612804
  0
LINE
  8
SOLID
 62
7
  6
CONTINUOUS
 10
233.1975827401
 20
148.3768593094
 11
233.0571192197
 21
148.683880222
  0
POLYLINE
  8
SOLID
 62
7
  6
CONTINUOUS
 66
1
 70
0
  0
VERTEX
  8
SOLID
 62
7
  6
CONTINUOUS
 10
233.0677537241
 20
148.6606356441
  0
VERTEX
  8
SOLID
 62
7
  6
CONTINUOUS
 10
233.0491401552
 20
148.7885722681
  0
VERTEX
  8
SOLID
 62
7
  6
CONTINUOUS
 10
233.0240107266
 20
148.9456091623
  0
VERTEX
  8
SOLID
 62
7
  6
CONTINUOUS
 10
232.9987678692
 20
149.0874701852
  0
VERTEX
  8
SOLID
 62
7
  6
CONTINUOUS
 10
232.9734342396
 20
149.2147935393
  0
VERTEX
  8
SOLID
 62
7
  6
CONTINUOUS
 10
232.9479984952
 20
149.3283158844
  0
VERTEX
  8
SOLID
 62
7
  6
CONTINUOUS
 10
232.9223926893
 20
149.428898165
  0
VERTEX
  8
SOLID
 62
7
  6
CONTINUOUS
 10
232.8964532966
 20
149.5175546289
  0
VERTEX
  8
SOLID
 62
7
  6
CONTINUOUS
 10
232.869895978
 20
149.5953658193
  0
VERTEX
  8
SOLID
 62
7
  6
CONTINUOUS
 10
232.8421526808
 20
149.6636887645
  0
VERTEX
  8
SOLID
 62
7
  6
CONTINUOUS
 10
232.8121058835
 20
149.7242184067
  0
VERTEX
  8
SOLID
 62
7
  6
CONTINUOUS
 10
232.7775796512
 20
149.7789097345
  0
VERTEX
  8
SOLID
 62
7
  6
CONTINUOUS
 10
232.7345399815
 20
149.829306787
  0
VERTEX
  8
SOLID
 62
7
  6
CONTINUOUS
 10
232.676797094
 20
149.8741740777
  0
VERTEX
  8
SOLID
 62
7
  6
CONTINUOUS
 10
232.600389558
 20
149.9052094398
  0
VERTEX
  8
SOLID
 62
7
  6
CONTINUOUS
 10
232.5423900697
 20
149.9118533308
  0
SEQEND
  0
POLYLINE
  8
SOLID
 62
7
  6
CONTINUOUS
 66
1
 70
0
  0
VERTEX
  8
SOLID
 62
7
  6
CONTINUOUS
 10
234.1186900079
 20
144.2597675285
  0
VERTEX
  8
SOLID
 62
7
  6
CONTINUOUS
 10
234.0628490147
 20
144.7501687604
  0
VERTEX
  8
SOLID
 62
7
  6
CONTINUOUS
 10
233.9908326661
 20
145.2777343408
  0
VERTEX
  8
SOLID
 62
7
  6
CONTINUOUS
 10
233.908071912
 20
145.7887599373
  0
VERTEX
  8
SOLID
 62
7
  6
CONTINUOUS
 10
233.8147639044
 20
146.2808610911
  0
VERTEX
  8
SOLID
 62
7
  6
CONTINUOUS
 10
233.7111247788
 20
146.7516840007
  0
VERTEX
  8
SOLID
 62
7
  6
CONTINUOUS
 10
233.5973802052
 20
147.1989197682
  0
VERTEX
  8
SOLID
 62
7
  6
CONTINUOUS
 10
233.4737512714
 20
147.6203158783
  0
VERTEX
  8
SOLID
 62
7
  6
CONTINUOUS
 10
233.3404363971
 20
148.0136755874
  0
VERTEX
  8
SOLID
 62
7
  6
CONTINUOUS
 10
233.1975827401
 20
148.3768593094
  0
SEQEND
  0
POLYLINE
  8
SOLID
 62
7
  6
CONTINUOUS
 66
1
 70
0
  0
VERTEX
  8
SOLID
 62
7
  6
CONTINUOUS
 10
242.5161609239
 20
93.5921789486
  0
VERTEX
  8
SOLID
 62
7
  6
CONTINUOUS
 10
242.5123788305
 20
93.8927358079
  0
VERTEX
  8
SOLID
 62
7
  6
CONTINUOUS
 10
242.5123161784
 20
93.9607213248
  0
VERTEX
  8
SOLID
 62
7
  6
CONTINUOUS
 10
242.5132248177
 20
94.0271748232
  0
VERTEX
  8
SOLID
 62
7
  6
CONTINUOUS
 10
242.5151623316
 20
94.0920420164
  0
VERTEX
  8
SOLID
 62
7
  6
CONTINUOUS
 10
242.518190913
 20
94.1552425486
  0
VERTEX
  8
SOLID
 62
7
  6
CONTINUOUS
 10
242.5223751214
 20
94.2167132065
  0
VERTEX
  8
SOLID
 62
7
  6
CONTINUOUS
 10
242.5277616292
 20
94.2764055665
  0
VERTEX
  8
SOLID
 62
7
  6
CONTINUOUS
 10
242.5343829335
 20
94.3341819516
  0
VERTEX
  8
SOLID
 62
7
  6
CONTINUOUS
 10
242.5422719374
 20
94.3899417591
  0
VERTEX
  8
SOLID
 62
7
  6
CONTINUOUS
 10
242.5514227016
 20
94.4436568413
  0
VERTEX
  8
SOLID
 62
7
  6
CONTINUOUS
 10
242.5618801666
 20
94.4953342888
  0
VERTEX
  8
SOLID
 62
7
  6
CONTINUOUS
 10
242.5737769529
 20
94.545628915
  0
VERTEX
  8
SOLID
 62
7
  6
CONTINUOUS
 10
242.5869236972
 20
94.5932171418
  0
VERTEX
  8
SOLID
 62
7
  6
CONTINUOUS
 10
242.601846345
 20
94.6384807301
  0
VERTEX
  8
SOLID
 62
7
  6
CONTINUOUS
 10
242.618791393
 20
94.6816964641
  0
VERTEX
  8
SOLID
 62
7
  6
CONTINUOUS
 10
242.638001213
 20
94.7227967064
  0
VERTEX
  8
SOLID
 62
7
  6
CONTINUOUS
 10
242.659716051
 20
94.7618901782
  0
VERTEX
  8
SOLID
 62
7
  6
CONTINUOUS
 10
242.6838948808
 20
94.7984365816
  0
VERTEX
  8
SOLID
 62
7
  6
CONTINUOUS
 10
242.7105743369
 20
94.8320098775
  0
VERTEX
  8
SOLID
 62
7
  6
CONTINUOUS
 10
242.7398211627
 20
94.8621654799
  0
VERTEX
  8
SOLID
 62
7
  6
CONTINUOUS
 10
242.7714376914
 20
94.8881283199
  0
VERTEX
  8
SOLID
 62
7
  6
CONTINUOUS
 10
242.8050091545
 20
94.90900194
  0
VERTEX
  8
SOLID
 62
7
  6
CONTINUOUS
 10
242.8401097468
 20
94.9239369657
  0
VERTEX
  8
SOLID
 62
7
  6
CONTINUOUS
 10
242.8751850992
 20
94.9318379909
  0
VERTEX
  8
SOLID
 62
7
  6
CONTINUOUS
 10
242.8941458236
 20
94.9330422568
  0
SEQEND
  0
POLYLINE
  8
SOLID
 62
7
  6
CONTINUOUS
 66
1
 70
0
  0
VERTEX
  8
SOLID
 62
7
  6
CONTINUOUS
 10
242.6915993941
 20
138.4334886435
  0
VERTEX
  8
SOLID
 62
7
  6
CONTINUOUS
 10
242.695387388
 20
138.132752398
  0
VERTEX
  8
SOLID
 62
7
  6
CONTINUOUS
 10
242.6954762282
 20
138.0650609683
  0
VERTEX
  8
SOLID
 62
7
  6
CONTINUOUS
 10
242.6946035926
 20
137.9988154379
  0
VERTEX
  8
SOLID
 62
7
  6
CONTINUOUS
 10
242.6927094768
 20
137.9340730589
  0
VERTEX
  8
SOLID
 62
7
  6
CONTINUOUS
 10
242.6897293069
 20
137.8709175023
  0
VERTEX
  8
SOLID
 62
7
  6
CONTINUOUS
 10
242.6855949373
 20
137.80942035
  0
VERTEX
  8
SOLID
 62
7
  6
CONTINUOUS
 10
242.6802543104
 20
137.7496306792
  0
VERTEX
  8
SOLID
 62
7
  6
CONTINUOUS
 10
242.6736714689
 20
137.6916860535
  0
VERTEX
  8
SOLID
 62
7
  6
CONTINUOUS
 10
242.6658103662
 20
137.6357153203
  0
VERTEX
  8
SOLID
 62
7
  6
CONTINUOUS
 10
242.6566622358
 20
137.5817011399
  0
VERTEX
  8
SOLID
 62
7
  6
CONTINUOUS
 10
242.6461969079
 20
137.5297245575
  0
VERTEX
  8
SOLID
 62
7
  6
CONTINUOUS
 10
242.6342778361
 20
137.4791739602
  0
VERTEX
  8
SOLID
 62
7
  6
CONTINUOUS
 10
242.6211003379
 20
137.4312976875
  0
VERTEX
  8
SOLID
 62
7
  6
CONTINUOUS
 10
242.6061686882
 20
137.3858805856
  0
VERTEX
  8
SOLID
 62
7
  6
CONTINUOUS
 10
242.5891945764
 20
137.3424966332
  0
VERTEX
  8
SOLID
 62
7
  6
CONTINUOUS
 10
242.569982826
 20
137.3013112803
  0
VERTEX
  8
SOLID
 62
7
  6
CONTINUOUS
 10
242.5482786624
 20
137.2621732035
  0
VERTEX
  8
SOLID
 62
7
  6
CONTINUOUS
 10
242.5241436579
 20
137.2256294473
  0
VERTEX
  8
SOLID
 62
7
  6
CONTINUOUS
 10
242.4975422965
 20
137.192083915
  0
VERTEX
  8
SOLID
 62
7
  6
CONTINUOUS
 10
242.4684108326
 20
137.1619617038
  0
VERTEX
  8
SOLID
 62
7
  6
CONTINUOUS
 10
242.4369445008
 20
137.1360153752
  0
VERTEX
  8
SOLID
 62
7
  6
CONTINUOUS
 10
242.4035393305
 20
137.1151112842
  0
VERTEX
  8
SOLID
 62
7
  6
CONTINUOUS
 10
242.3685996789
 20
137.1000773827
  0
VERTEX
  8
SOLID
 62
7
  6
CONTINUOUS
 10
242.3336282548
 20
137.0919997409
  0
VERTEX
  8
SOLID
 62
7
  6
CONTINUOUS
 10
242.3134608807
 20
137.0906657573
  0
SEQEND
  0
LINE
  8
SOLID
 62
7
  6
CONTINUOUS
 10
242.5182283189
 20
93.321714476
 11
242.5161609239
 21
93.5921789486
  0
LINE
  8
SOLID
 62
7
  6
CONTINUOUS
 10
242.6895422351
 20
138.704317145
 11
242.6915993941
 21
138.4334886435
  0
LINE
  8
SOLID
 62
7
  6
CONTINUOUS
 10
242.5182283189
 20
93.321714476
 11
242.5187225331
 21
87.7646251623
  0
LINE
  8
SOLID
 62
7
  6
CONTINUOUS
 10
242.6890588468
 20
144.2590834352
 11
242.6895422351
 21
138.704317145
  0
LINE
  8
SOLID
 62
7
  6
CONTINUOUS
 10
242.6890913902
 20
144.2597617362
 11
242.6890588474
 21
144.2591279339
  0
LINE
  8
SOLID
 62
7
  6
CONTINUOUS
 10
242.5186899905
 20
87.7639468689
 11
242.5187225325
 21
87.7645806636
  0
LINE
  8
SOLID
 62
7
  6
CONTINUOUS
 10
241.4493141585
 20
83.2362811718
 11
241.4677569831
 21
83.3630879759
  0
POLYLINE
  8
SOLID
 62
7
  6
CONTINUOUS
 66
1
 70
0
  0
VERTEX
  8
SOLID
 62
7
  6
CONTINUOUS
 10
241.4571194774
 20
83.3398289091
  0
VERTEX
  8
SOLID
 62
7
  6
CONTINUOUS
 10
241.5982057658
 20
83.6483162099
  0
VERTEX
  8
SOLID
 62
7
  6
CONTINUOUS
 10
241.741024804
 20
84.0116467166
  0
VERTEX
  8
SOLID
 62
7
  6
CONTINUOUS
 10
241.8743033723
 20
84.4051451002
  0
VERTEX
  8
SOLID
 62
7
  6
CONTINUOUS
 10
241.9978943871
 20
84.8266720339
  0
VERTEX
  8
SOLID
 62
7
  6
CONTINUOUS
 10
242.1115995775
 20
85.2740313836
  0
VERTEX
  8
SOLID
 62
7
  6
CONTINUOUS
 10
242.2151978613
 20
85.7449708504
  0
VERTEX
  8
SOLID
 62
7
  6
CONTINUOUS
 10
242.3084632253
 20
86.2371797878
  0
VERTEX
  8
SOLID
 62
7
  6
CONTINUOUS
 10
242.3911792543
 20
86.7483016989
  0
VERTEX
  8
SOLID
 62
7
  6
CONTINUOUS
 10
242.4631487355
 20
87.2759492789
  0
VERTEX
  8
SOLID
 62
7
  6
CONTINUOUS
 10
242.5186900087
 20
87.7639410763
  0
SEQEND
  0
POLYLINE
  8
SOLID
 62
7
  6
CONTINUOUS
 66
1
 70
0
  0
VERTEX
  8
SOLID
 62
7
  6
CONTINUOUS
 10
250.9038904883
 20
149.7120359778
  0
VERTEX
  8
SOLID
 62
7
  6
CONTINUOUS
 10
250.9009200171
 20
149.7461926491
  0
VERTEX
  8
SOLID
 62
7
  6
CONTINUOUS
 10
250.8921556702
 20
149.7793506507
  0
VERTEX
  8
SOLID
 62
7
  6
CONTINUOUS
 10
250.8778476771
 20
149.8105369956
  0
VERTEX
  8
SOLID
 62
7
  6
CONTINUOUS
 10
250.8584146973
 20
149.8388249964
  0
VERTEX
  8
SOLID
 62
7
  6
CONTINUOUS
 10
250.834429821
 20
149.8633757694
  0
VERTEX
  8
SOLID
 62
7
  6
CONTINUOUS
 10
250.8066019985
 20
149.8834633853
  0
VERTEX
  8
SOLID
 62
7
  6
CONTINUOUS
 10
250.7757510927
 20
149.8984970628
  0
VERTEX
  8
SOLID
 62
7
  6
CONTINUOUS
 10
250.7427849865
 20
149.9080350698
  0
VERTEX
  8
SOLID
 62
7
  6
CONTINUOUS
 10
250.7086736706
 20
149.9117969876
  0
VERTEX
  8
SOLID
 62
7
  6
CONTINUOUS
 10
250.7038857587
 20
149.9118543044
  0
SEQEND
  0
LINE
  8
SOLID
 62
7
  6
CONTINUOUS
 10
250.90389069
 20
95.1334417727
 11
250.90389069
 21
149.7119679256
  0
POLYLINE
  8
SOLID
 62
7
  6
CONTINUOUS
 66
1
 70
0
  0
VERTEX
  8
SOLID
 62
7
  6
CONTINUOUS
 10
250.90389069
 20
144.2491064629
  0
VERTEX
  8
SOLID
 62
7
  6
CONTINUOUS
 10
250.9014742735
 20
144.2545634814
  0
VERTEX
  8
SOLID
 62
7
  6
CONTINUOUS
 10
250.8942661035
 20
144.2598879883
  0
VERTEX
  8
SOLID
 62
7
  6
CONTINUOUS
 10
250.8824120363
 20
144.2649521078
  0
VERTEX
  8
SOLID
 62
7
  6
CONTINUOUS
 10
250.8661702967
 20
144.2696329267
  0
VERTEX
  8
SOLID
 62
7
  6
CONTINUOUS
 10
250.8459092235
 20
144.2738154343
  0
VERTEX
  8
SOLID
 62
7
  6
CONTINUOUS
 10
250.8221017493
 20
144.2773954538
  0
VERTEX
  8
SOLID
 62
7
  6
CONTINUOUS
 10
250.7953159561
 20
144.280282486
  0
VERTEX
  8
SOLID
 62
7
  6
CONTINUOUS
 10
250.7662016643
 20
144.2824022514
  0
VERTEX
  8
SOLID
 62
7
  6
CONTINUOUS
 10
250.7354733525
 20
144.2836987435
  0
VERTEX
  8
SOLID
 62
7
  6
CONTINUOUS
 10
250.70389069
 20
144.2841356279
  0
SEQEND
  0
LINE
  8
0
 62
7
  6
CONTINUOUS
 10
326.4574121941
 20
148.1147375259
 11
326.4599923637
 21
148.1167487727
  0
LINE
  8
0
 62
7
  6
CONTINUOUS
 10
326.4441009896
 20
83.9193779129
 11
326.4661724235
 21
83.902148955
  0
LINE
  8
DEFAULT_1
 62
7
  6
CENTER
 10
336.9343956954
 20
90.6118543046
 11
333.6844956954
 21
90.6118543046
  0
LINE
  8
0
 62
2
  6
CONTINUOUS
 10
332.7343956954
 20
90.6118543046
 11
330.6343956954
 21
90.6118543046
  0
LINE
  8
DEFAULT_1
 62
7
  6
CENTER
 10
326.4343956954
 20
90.6118543046
 11
329.6842956954
 21
90.6118543046
  0
POLYLINE
  8
0
 62
7
  6
CONTINUOUS
 66
1
 70
0
  0
VERTEX
  8
0
 62
7
  6
CONTINUOUS
 10
323.6944866272
 20
144.2796445227
  0
VERTEX
  8
0
 62
7
  6
CONTINUOUS
 10
323.8088736643
 20
144.5964391725
  0
VERTEX
  8
0
 62
7
  6
CONTINUOUS
 10
323.9363174684
 20
144.904096676
  0
VERTEX
  8
0
 62
7
  6
CONTINUOUS
 10
324.0762324116
 20
145.2020853519
  0
SEQEND
  0
POLYLINE
  8
0
 62
7
  6
CONTINUOUS
 66
1
 70
0
  0
VERTEX
  8
0
 62
7
  6
CONTINUOUS
 10
335.7722108034
 20
146.0849219314
  0
VERTEX
  8
0
 62
7
  6
CONTINUOUS
 10
335.7329959282
 20
146.0379239889
  0
VERTEX
  8
0
 62
7
  6
CONTINUOUS
 10
335.6961760283
 20
145.9920794919
  0
VERTEX
  8
0
 62
7
  6
CONTINUOUS
 10
335.6623337997
 20
145.9481156113
  0
VERTEX
  8
0
 62
7
  6
CONTINUOUS
 10
335.6320041357
 20
145.906728799
  0
VERTEX
  8
0
 62
7
  6
CONTINUOUS
 10
335.6056653652
 20
145.8685734327
  0
VERTEX
  8
0
 62
7
  6
CONTINUOUS
 10
335.5837314064
 20
145.8342510619
  0
VERTEX
  8
0
 62
7
  6
CONTINUOUS
 10
335.5665452798
 20
145.8043008435
  0
VERTEX
  8
0
 62
7
  6
CONTINUOUS
 10
335.5543740027
 20
145.7791912103
  0
VERTEX
  8
0
 62
7
  6
CONTINUOUS
 10
335.5474050141
 20
145.7593128469
  0
VERTEX
  8
0
 62
7
  6
CONTINUOUS
 10
335.5457448415
 20
145.7449724484
  0
VERTEX
  8
0
 62
7
  6
CONTINUOUS
 10
335.549404723
 20
145.7364006613
  0
SEQEND
  0
POLYLINE
  8
SURFACE
 62
7
  6
CONTINUOUS
 66
1
 70
0
  0
VERTEX
  8
SURFACE
 62
7
  6
CONTINUOUS
 10
335.7979299696
 20
148.611679308
  0
VERTEX
  8
SURFACE
 62
7
  6
CONTINUOUS
 10
335.8213101875
 20
148.6511662703
  0
VERTEX
  8
SURFACE
 62
7
  6
CONTINUOUS
 10
335.8450755356
 20
148.6880814662
  0
VERTEX
  8
SURFACE
 62
7
  6
CONTINUOUS
 10
335.8679699514
 20
148.7204798516
  0
VERTEX
  8
SURFACE
 62
7
  6
CONTINUOUS
 10
335.8887872211
 20
148.746660985
  0
VERTEX
  8
SURFACE
 62
7
  6
CONTINUOUS
 10
335.9064356351
 20
148.7652595145
  0
VERTEX
  8
SURFACE
 62
7
  6
CONTINUOUS
 10
335.9199951265
 20
148.7753151648
  0
VERTEX
  8
SURFACE
 62
7
  6
CONTINUOUS
 10
335.928763696
 20
148.7763189986
  0
SEQEND
  0
POLYLINE
  8
0
 62
7
  6
CONTINUOUS
 66
1
 70
0
  0
VERTEX
  8
0
 62
7
  6
CONTINUOUS
 10
335.7722107948
 20
146.0849219314
  0
VERTEX
  8
0
 62
7
  6
CONTINUOUS
 10
335.7808142991
 20
146.0974322703
  0
VERTEX
  8
0
 62
7
  6
CONTINUOUS
 10
335.7875755363
 20
146.1133420089
  0
VERTEX
  8
0
 62
7
  6
CONTINUOUS
 10
335.79171946
 20
146.1320261679
  0
VERTEX
  8
0
 62
7
  6
CONTINUOUS
 10
335.793096766
 20
146.1531220071
  0
SEQEND
  0
POLYLINE
  8
SURFACE
 62
7
  6
CONTINUOUS
 66
1
 70
0
  0
VERTEX
  8
SURFACE
 62
7
  6
CONTINUOUS
 10
335.9642500919
 20
133.7843521699
  0
VERTEX
  8
SURFACE
 62
7
  6
CONTINUOUS
 10
335.9783447729
 20
133.7925880228
  0
VERTEX
  8
SURFACE
 62
7
  6
CONTINUOUS
 10
335.9905140882
 20
133.8006112723
  0
SEQEND
  0
POLYLINE
  8
SURFACE
 62
7
  6
CONTINUOUS
 66
1
 70
0
  0
VERTEX
  8
SURFACE
 62
7
  6
CONTINUOUS
 10
335.7979299696
 20
148.611679308
  0
VERTEX
  8
SURFACE
 62
7
  6
CONTINUOUS
 10
335.7952782567
 20
148.6058022301
  0
VERTEX
  8
SURFACE
 62
7
  6
CONTINUOUS
 10
335.7936456949
 20
148.5992063075
  0
VERTEX
  8
SURFACE
 62
7
  6
CONTINUOUS
 10
335.793096766
 20
148.5919607796
  0
SEQEND
  0
POLYLINE
  8
SURFACE
 62
7
  6
CONTINUOUS
 66
1
 70
0
  0
VERTEX
  8
SURFACE
 62
7
  6
CONTINUOUS
 10
335.9905140882
 20
133.8006112723
  0
VERTEX
  8
SURFACE
 62
7
  6
CONTINUOUS
 10
336.0015050366
 20
133.809173573
  0
VERTEX
  8
SURFACE
 62
7
  6
CONTINUOUS
 10
336.0114505443
 20
133.8186655351
  0
VERTEX
  8
SURFACE
 62
7
  6
CONTINUOUS
 10
336.0204380516
 20
133.8294725363
  0
VERTEX
  8
SURFACE
 62
7
  6
CONTINUOUS
 10
336.0285662493
 20
133.842111982
  0
VERTEX
  8
SURFACE
 62
7
  6
CONTINUOUS
 10
336.0357684677
 20
133.8570289812
  0
VERTEX
  8
SURFACE
 62
7
  6
CONTINUOUS
 10
336.0419566789
 20
133.8747769748
  0
VERTEX
  8
SURFACE
 62
7
  6
CONTINUOUS
 10
336.0470084773
 20
133.8961271362
  0
VERTEX
  8
SURFACE
 62
7
  6
CONTINUOUS
 10
336.050696844
 20
133.9219799224
  0
VERTEX
  8
SURFACE
 62
7
  6
CONTINUOUS
 10
336.0526925923
 20
133.9533681305
  0
VERTEX
  8
SURFACE
 62
7
  6
CONTINUOUS
 10
336.052563441
 20
133.9915696745
  0
VERTEX
  8
SURFACE
 62
7
  6
CONTINUOUS
 10
336.0497319982
 20
134.0382653361
  0
VERTEX
  8
SURFACE
 62
7
  6
CONTINUOUS
 10
336.0434588913
 20
134.0952451529
  0
VERTEX
  8
SURFACE
 62
7
  6
CONTINUOUS
 10
336.0328122978
 20
134.1647068294
  0
VERTEX
  8
SURFACE
 62
7
  6
CONTINUOUS
 10
336.0165543932
 20
134.2495902598
  0
VERTEX
  8
SURFACE
 62
7
  6
CONTINUOUS
 10
335.9932052988
 20
134.3529600978
  0
VERTEX
  8
SURFACE
 62
7
  6
CONTINUOUS
 10
335.9608255657
 20
134.4789680901
  0
VERTEX
  8
SURFACE
 62
7
  6
CONTINUOUS
 10
335.9176599451
 20
134.6305645353
  0
VERTEX
  8
SURFACE
 62
7
  6
CONTINUOUS
 10
335.8646305606
 20
134.8030569743
  0
VERTEX
  8
SURFACE
 62
7
  6
CONTINUOUS
 10
335.8056067558
 20
134.9869853747
  0
SEQEND
  0
LINE
  8
SOLID
 62
7
  6
CONTINUOUS
 10
323.6843956954
 20
95.1118543046
 11
323.6843956954
 21
87.7395729814
  0
LINE
  8
SURFACE
 62
7
  6
CONTINUOUS
 10
323.6843956954
 20
144.2840324307
 11
323.6843956954
 21
144.2841356279
  0
LINE
  8
SURFACE
 62
7
  6
CONTINUOUS
 10
323.6843956954
 20
136.9118543046
 11
323.6843956954
 21
144.2796445227
  0
LINE
  8
0
 62
7
  6
CONTINUOUS
 10
323.6944866272
 20
136.9118543047
 11
323.6944866272
 21
144.2796445227
  0
LINE
  8
SOLID
 62
7
  6
CONTINUOUS
 10
323.7343956954
 20
116.7646776654
 11
323.7343956954
 21
115.2590309439
  0
LINE
  8
SURFACE
 62
7
  6
CONTINUOUS
 10
339.2516973715
 20
137.0112442154
 11
339.2192307983
 21
136.9678189127
  0
LINE
  8
SOLID
 62
7
  6
CONTINUOUS
 10
331.075347073
 20
119.6818210641
 11
324.4509234864
 21
117.7236581171
  0
LINE
  8
SOLID
 62
7
  6
CONTINUOUS
 10
324.4509234864
 20
114.3000504922
 11
331.075347073
 21
112.3418875452
  0
POLYLINE
  8
0
 62
7
  6
CONTINUOUS
 66
1
 70
0
  0
VERTEX
  8
0
 62
7
  6
CONTINUOUS
 10
323.8261126705
 20
135.6601778482
  0
VERTEX
  8
0
 62
7
  6
CONTINUOUS
 10
323.76864984
 20
135.9700342701
  0
VERTEX
  8
0
 62
7
  6
CONTINUOUS
 10
323.7274891183
 20
136.2824961294
  0
VERTEX
  8
0
 62
7
  6
CONTINUOUS
 10
323.7027457262
 20
136.5966871202
  0
VERTEX
  8
0
 62
7
  6
CONTINUOUS
 10
323.6944866272
 20
136.9118543047
  0
SEQEND
  0
LINE
  8
DEFAULT_1
 62
7
  6
CENTER
 10
331.6843956954
 20
146.6618543046
 11
331.6843956954
 21
143.4119543046
  0
LINE
  8
0
 62
2
  6
CONTINUOUS
 10
331.6843956954
 20
142.4618543046
 11
331.6843956954
 21
140.3618543046
  0
LINE
  8
SOLID
 62
7
  6
CONTINUOUS
 10
331.6843956954
 20
122.1896634839
 11
331.6843956954
 21
120.496954448
  0
LINE
  8
SOLID
 62
7
  6
CONTINUOUS
 10
331.6843956954
 20
111.5267541613
 11
331.6843956954
 21
109.8340451254
  0
LINE
  8
DEFAULT_1
 62
7
  6
CENTER
 10
331.6843956954
 20
95.8618543046
 11
331.6843956954
 21
92.6119543046
  0
LINE
  8
0
 62
2
  6
CONTINUOUS
 10
331.6843956954
 20
91.6618543046
 11
331.6843956954
 21
89.5618543046
  0
LINE
  8
DEFAULT_1
 62
7
  6
CENTER
 10
331.6843956954
 20
85.3618543046
 11
331.6843956954
 21
88.6117543046
  0
LINE
  8
DEFAULT_1
 62
7
  6
CENTER
 10
331.6843956954
 20
136.1618543046
 11
331.6843956954
 21
139.4117543046
  0
LINE
  8
SOLID
 62
7
  6
CONTINUOUS
 10
335.5879609516
 20
133.3607733618
 11
331.7419874751
 21
122.5241283496
  0
LINE
  8
SOLID
 62
7
  6
CONTINUOUS
 10
331.7419874751
 20
109.4995802597
 11
332.8852091024
 21
106.2783705917
  0
LINE
  8
DEFAULT_1
 62
7
  6
CENTER
 10
309.6843956954
 20
116.0118543046
 11
353.6843956954
 21
116.0118543046
  0
LINE
  8
0
 62
7
  6
CONTINUOUS
 10
335.793096766
 20
135.0685393739
 11
335.793096766
 21
136.6705866022
  0
LINE
  8
0
 62
7
  6
CONTINUOUS
 10
335.793096766
 20
146.1531220071
 11
335.793096766
 21
148.5919607796
  0
POLYLINE
  8
0
 62
7
  6
CONTINUOUS
 66
1
 70
0
  0
VERTEX
  8
0
 62
7
  6
CONTINUOUS
 10
324.1028355983
 20
134.9662967685
  0
VERTEX
  8
0
 62
7
  6
CONTINUOUS
 10
324.0410830346
 20
135.0584044589
  0
VERTEX
  8
0
 62
7
  6
CONTINUOUS
 10
323.9882143055
 20
135.1569761029
  0
VERTEX
  8
0
 62
7
  6
CONTINUOUS
 10
323.9433843079
 20
135.259612727
  0
VERTEX
  8
0
 62
7
  6
CONTINUOUS
 10
323.9056842994
 20
135.3634928285
  0
VERTEX
  8
0
 62
7
  6
CONTINUOUS
 10
323.8741460319
 20
135.4660279989
  0
VERTEX
  8
0
 62
7
  6
CONTINUOUS
 10
323.8478724596
 20
135.5652663845
  0
VERTEX
  8
0
 62
7
  6
CONTINUOUS
 10
323.8261164113
 20
135.6601596875
  0
SEQEND
  0
LINE
  8
SURFACE
 62
7
  6
CONTINUOUS
 10
339.6843956954
 20
144.2841356279
 11
339.6843956954
 21
136.8407451824
  0
LINE
  8
SOLID
 62
7
  6
CONTINUOUS
 10
339.6843956954
 20
87.7395729814
 11
339.6843956954
 21
138.9178151117
  0
POLYLINE
  8
SURFACE
 62
7
  6
CONTINUOUS
 66
1
 70
0
  0
VERTEX
  8
SURFACE
 62
7
  6
CONTINUOUS
 10
335.8056067563
 20
134.9869853747
  0
VERTEX
  8
SURFACE
 62
7
  6
CONTINUOUS
 10
335.7987723304
 20
135.0127219828
  0
VERTEX
  8
SURFACE
 62
7
  6
CONTINUOUS
 10
335.7945524224
 20
135.0398229295
  0
VERTEX
  8
SURFACE
 62
7
  6
CONTINUOUS
 10
335.793096766
 20
135.0685393739
  0
SEQEND
  0
LINE
  8
SURFACE
 62
7
  6
CONTINUOUS
 10
339.6845418057
 20
136.8407448054
 11
339.6785445645
 21
136.8946464399
  0
POLYLINE
  8
0
 62
7
  6
CONTINUOUS
 66
1
 70
0
  0
VERTEX
  8
0
 62
7
  6
CONTINUOUS
 10
335.7722108039
 20
136.7387866861
  0
VERTEX
  8
0
 62
7
  6
CONTINUOUS
 10
335.7808143245
 20
136.7262763495
  0
VERTEX
  8
0
 62
7
  6
CONTINUOUS
 10
335.7875755767
 20
136.7103666111
  0
VERTEX
  8
0
 62
7
  6
CONTINUOUS
 10
335.7917195127
 20
136.6916824516
  0
VERTEX
  8
0
 62
7
  6
CONTINUOUS
 10
335.793096766
 20
136.6705866022
  0
SEQEND
  0
POLYLINE
  8
SURFACE
 62
7
  6
CONTINUOUS
 66
1
 70
0
  0
VERTEX
  8
SURFACE
 62
7
  6
CONTINUOUS
 10
339.6785445645
 20
136.8946464399
  0
VERTEX
  8
SURFACE
 62
7
  6
CONTINUOUS
 10
339.6611778703
 20
136.9460115743
  0
VERTEX
  8
SURFACE
 62
7
  6
CONTINUOUS
 10
339.6331426278
 20
136.9924233454
  0
VERTEX
  8
SURFACE
 62
7
  6
CONTINUOUS
 10
339.5957580651
 20
137.0316975518
  0
VERTEX
  8
SURFACE
 62
7
  6
CONTINUOUS
 10
339.5507834529
 20
137.0619858599
  0
VERTEX
  8
SURFACE
 62
7
  6
CONTINUOUS
 10
339.5003353103
 20
137.0818628309
  0
VERTEX
  8
SURFACE
 62
7
  6
CONTINUOUS
 10
339.4467877805
 20
137.0903930376
  0
VERTEX
  8
SURFACE
 62
7
  6
CONTINUOUS
 10
339.3926608691
 20
137.0871751037
  0
VERTEX
  8
SURFACE
 62
7
  6
CONTINUOUS
 10
339.3405018167
 20
137.0723605937
  0
VERTEX
  8
SURFACE
 62
7
  6
CONTINUOUS
 10
339.2927651944
 20
137.0466468637
  0
VERTEX
  8
SURFACE
 62
7
  6
CONTINUOUS
 10
339.2516973715
 20
137.0112442154
  0
SEQEND
  0
POLYLINE
  8
0
 62
7
  6
CONTINUOUS
 66
1
 70
0
  0
VERTEX
  8
0
 62
7
  6
CONTINUOUS
 10
323.6843956954
 20
144.2840324307
  0
VERTEX
  8
0
 62
7
  6
CONTINUOUS
 10
323.6869251058
 20
144.2820609998
  0
VERTEX
  8
0
 62
7
  6
CONTINUOUS
 10
323.6944866272
 20
144.2796445227
  0
SEQEND
  0
POLYLINE
  8
0
 62
7
  6
CONTINUOUS
 66
1
 70
0
  0
VERTEX
  8
0
 62
7
  6
CONTINUOUS
 10
335.7722108125
 20
136.7387866861
  0
VERTEX
  8
0
 62
7
  6
CONTINUOUS
 10
335.7329958932
 20
136.7857845788
  0
VERTEX
  8
0
 62
7
  6
CONTINUOUS
 10
335.6961759451
 20
136.8316290256
  0
VERTEX
  8
0
 62
7
  6
CONTINUOUS
 10
335.6623336628
 20
136.8755928537
  0
VERTEX
  8
0
 62
7
  6
CONTINUOUS
 10
335.6320039377
 20
136.9169796086
  0
VERTEX
  8
0
 62
7
  6
CONTINUOUS
 10
335.6056650952
 20
136.9551349083
  0
VERTEX
  8
0
 62
7
  6
CONTINUOUS
 10
335.5837310466
 20
136.9894571971
  0
VERTEX
  8
0
 62
7
  6
CONTINUOUS
 10
335.5665447989
 20
137.0194073052
  0
VERTEX
  8
0
 62
7
  6
CONTINUOUS
 10
335.5543733368
 20
137.0445167708
  0
VERTEX
  8
0
 62
7
  6
CONTINUOUS
 10
335.5474040015
 20
137.064394822
  0
VERTEX
  8
0
 62
7
  6
CONTINUOUS
 10
335.5457428306
 20
137.0787343269
  0
VERTEX
  8
0
 62
7
  6
CONTINUOUS
 10
335.5494046604
 20
137.0873080324
  0
SEQEND
  0
LINE
  8
0
 62
7
  6
CONTINUOUS
 10
331.6843956954
 20
135.6118543046
 11
328.5720012518
 21
135.6118543046
  0
LINE
  8
DEFAULT_1
 62
7
  6
CENTER
 10
336.9343956954
 20
141.4118543046
 11
333.6844956954
 21
141.4118543046
  0
LINE
  8
0
 62
2
  6
CONTINUOUS
 10
332.7343956954
 20
141.4118543046
 11
330.6343956954
 21
141.4118543046
  0
LINE
  8
DEFAULT_1
 62
7
  6
CENTER
 10
326.4343956954
 20
141.4118543046
 11
329.6842956954
 21
141.4118543046
  0
LINE
  8
0
 62
7
  6
CONTINUOUS
 10
328.5720012518
 20
147.2118543046
 11
331.6843956954
 21
147.2118543046
  0
LINE
  8
SOLID
 62
7
  6
CONTINUOUS
 10
66.30389069
 20
210.4975165563
 11
66.30389069
 21
225.2975165563
  0
LINE
  8
0
 62
7
  6
CONTINUOUS
 10
77.4840512705
 20
209.5475165563
 11
77.4854449258
 21
209.5076074882
  0
LINE
  8
0
 62
7
  6
CONTINUOUS
 10
70.9389006851
 20
209.4975165563
 11
71.0869986844
 21
211.6154166168
  0
LINE
  8
0
 62
7
  6
CONTINUOUS
 10
72.60424913
 20
210.7530780406
 11
73.4721390937
 21
221.6110508305
  0
LINE
  8
0
 62
7
  6
CONTINUOUS
 10
72.7413699986
 20
212.4792680264
 11
72.7443654777
 21
212.5060415981
  0
POLYLINE
  8
0
 62
7
  6
CONTINUOUS
 66
1
 70
0
  0
VERTEX
  8
0
 62
7
  6
CONTINUOUS
 10
71.0869984093
 20
211.6154125442
  0
VERTEX
  8
0
 62
7
  6
CONTINUOUS
 10
71.0972261175
 20
211.6814616603
  0
VERTEX
  8
0
 62
7
  6
CONTINUOUS
 10
71.1197941325
 20
211.7513243385
  0
VERTEX
  8
0
 62
7
  6
CONTINUOUS
 10
71.1380014267
 20
211.7914082708
  0
SEQEND
  0
LINE
  8
SURFACE
 62
7
  6
CONTINUOUS
 10
74.5110229069
 20
225.2425568779
 11
73.4717527703
 21
221.6062176269
  0
POLYLINE
  8
0
 62
7
  6
CONTINUOUS
 66
1
 70
0
  0
VERTEX
  8
0
 62
7
  6
CONTINUOUS
 10
71.1380199245
 20
211.7914031862
  0
VERTEX
  8
0
 62
7
  6
CONTINUOUS
 10
71.1452943957
 20
211.8053370208
  0
VERTEX
  8
0
 62
7
  6
CONTINUOUS
 10
71.1835381564
 20
211.8652636572
  0
VERTEX
  8
0
 62
7
  6
CONTINUOUS
 10
71.2298946006
 20
211.9191612648
  0
VERTEX
  8
0
 62
7
  6
CONTINUOUS
 10
71.2834261122
 20
211.9659395881
  0
VERTEX
  8
0
 62
7
  6
CONTINUOUS
 10
71.3430504009
 20
212.0046530388
  0
VERTEX
  8
0
 62
7
  6
CONTINUOUS
 10
71.4075622277
 20
212.0345191931
  0
VERTEX
  8
0
 62
7
  6
CONTINUOUS
 10
71.4756576102
 20
212.0549344048
  0
VERTEX
  8
0
 62
7
  6
CONTINUOUS
 10
71.545960157
 20
212.0654859935
  0
VERTEX
  8
0
 62
7
  6
CONTINUOUS
 10
71.5848339842
 20
212.0669994597
  0
SEQEND
  0
LINE
  8
SURFACE
 62
7
  6
CONTINUOUS
 10
84.1356422862
 20
221.6110508305
 11
85.0303282387
 21
210.4178395551
  0
LINE
  8
SURFACE
 62
7
  6
CONTINUOUS
 10
89.3774531412
 20
210.4178395551
 11
90.2721390937
 21
221.6110508305
  0
POLYLINE
  8
0
 62
7
  6
CONTINUOUS
 66
1
 70
0
  0
VERTEX
  8
0
 62
7
  6
CONTINUOUS
 10
71.1380014267
 20
211.7914082708
  0
VERTEX
  8
0
 62
7
  6
CONTINUOUS
 10
71.1560299404
 20
211.8246648324
  0
VERTEX
  8
0
 62
7
  6
CONTINUOUS
 10
71.2079035357
 20
211.9019205525
  0
VERTEX
  8
0
 62
7
  6
CONTINUOUS
 10
71.278252855
 20
211.9839374315
  0
VERTEX
  8
0
 62
7
  6
CONTINUOUS
 10
71.3694174607
 20
212.0708385351
  0
VERTEX
  8
0
 62
7
  6
CONTINUOUS
 10
71.4814974466
 20
212.1622484764
  0
VERTEX
  8
0
 62
7
  6
CONTINUOUS
 10
71.6116638609
 20
212.2588420162
  0
SEQEND
  0
LINE
  8
SURFACE
 62
7
  6
CONTINUOUS
 10
83.096758473
 20
225.2425568779
 11
84.1360286096
 21
221.6062176269
  0
LINE
  8
SURFACE
 62
7
  6
CONTINUOUS
 10
91.3110229069
 20
225.2425568779
 11
90.2717527703
 21
221.6062176269
  0
LINE
  8
SOLID
 62
7
  6
CONTINUOUS
 10
100.9356422862
 20
221.6110508305
 11
101.8303282387
 21
210.4178395551
  0
LINE
  8
SURFACE
 62
7
  6
CONTINUOUS
 10
73.4010227261
 20
218.5827935541
 11
73.4011072074
 21
218.5828730046
  0
LINE
  8
SOLID
 62
7
  6
CONTINUOUS
 10
106.1774531412
 20
210.4178395551
 11
107.0721390937
 21
221.6110508305
  0
LINE
  8
SOLID
 62
7
  6
CONTINUOUS
 10
108.1110229069
 20
225.2425568779
 11
107.0717527703
 21
221.6062176269
  0
LINE
  8
SURFACE
 62
7
  6
CONTINUOUS
 10
84.2067586538
 20
218.5827935541
 11
84.2066741725
 21
218.5828730046
  0
LINE
  8
SOLID
 62
7
  6
CONTINUOUS
 10
99.896758473
 20
225.2425568779
 11
100.9360286096
 21
221.6062176269
  0
LINE
  8
SURFACE
 62
7
  6
CONTINUOUS
 10
90.2010227261
 20
218.5827935541
 11
90.2011072074
 21
218.5828730046
  0
LINE
  8
0
 62
7
  6
CONTINUOUS
 10
118.6303282387
 20
210.4178395551
 11
117.7356422862
 21
221.6110508305
  0
POLYLINE
  8
0
 62
7
  6
CONTINUOUS
 66
1
 70
0
  0
VERTEX
  8
0
 62
7
  6
CONTINUOUS
 10
72.4989366997
 20
212.1347377918
  0
VERTEX
  8
0
 62
7
  6
CONTINUOUS
 10
72.5237504599
 20
212.1500944805
  0
VERTEX
  8
0
 62
7
  6
CONTINUOUS
 10
72.5586404106
 20
212.1750994979
  0
VERTEX
  8
0
 62
7
  6
CONTINUOUS
 10
72.5906729638
 20
212.202153826
  0
VERTEX
  8
0
 62
7
  6
CONTINUOUS
 10
72.619686597
 20
212.230870636
  0
VERTEX
  8
0
 62
7
  6
CONTINUOUS
 10
72.6457161082
 20
212.2610684629
  0
VERTEX
  8
0
 62
7
  6
CONTINUOUS
 10
72.668681758
 20
212.292394749
  0
VERTEX
  8
0
 62
7
  6
CONTINUOUS
 10
72.6884577706
 20
212.3243970055
  0
VERTEX
  8
0
 62
7
  6
CONTINUOUS
 10
72.7049996293
 20
212.3566890696
  0
VERTEX
  8
0
 62
7
  6
CONTINUOUS
 10
72.7184057501
 20
212.3889273693
  0
VERTEX
  8
0
 62
7
  6
CONTINUOUS
 10
72.7287972234
 20
212.4205746689
  0
VERTEX
  8
0
 62
7
  6
CONTINUOUS
 10
72.7363817067
 20
212.4510818447
  0
VERTEX
  8
0
 62
7
  6
CONTINUOUS
 10
72.7413699986
 20
212.4792680264
  0
SEQEND
  0
LINE
  8
SOLID
 62
7
  6
CONTINUOUS
 10
101.0067586538
 20
218.5827935541
 11
101.0066741725
 21
218.5828730046
  0
LINE
  8
SOLID
 62
7
  6
CONTINUOUS
 10
116.696758473
 20
225.2425568779
 11
117.7360286096
 21
221.6062176269
  0
LINE
  8
0
 62
7
  6
CONTINUOUS
 10
122.9774531412
 20
210.4178395551
 11
123.8721390937
 21
221.6110508305
  0
POLYLINE
  8
0
 62
7
  6
CONTINUOUS
 66
1
 70
0
  0
VERTEX
  8
0
 62
7
  6
CONTINUOUS
 10
123.2333224952
 20
213.6189625082
  0
VERTEX
  8
0
 62
7
  6
CONTINUOUS
 10
123.2193851557
 20
213.509111601
  0
VERTEX
  8
0
 62
7
  6
CONTINUOUS
 10
123.1977369128
 20
213.4112584304
  0
VERTEX
  8
0
 62
7
  6
CONTINUOUS
 10
123.1702096678
 20
213.324744398
  0
VERTEX
  8
0
 62
7
  6
CONTINUOUS
 10
123.1383495358
 20
213.249444613
  0
VERTEX
  8
0
 62
7
  6
CONTINUOUS
 10
123.1033318071
 20
213.1848361791
  0
VERTEX
  8
0
 62
7
  6
CONTINUOUS
 10
123.065851265
 20
213.1300390493
  0
VERTEX
  8
0
 62
7
  6
CONTINUOUS
 10
123.0266903431
 20
213.0847202579
  0
VERTEX
  8
0
 62
7
  6
CONTINUOUS
 10
122.9869536565
 20
213.0488601436
  0
VERTEX
  8
0
 62
7
  6
CONTINUOUS
 10
122.947086898
 20
213.0217393731
  0
VERTEX
  8
0
 62
7
  6
CONTINUOUS
 10
122.9066329835
 20
213.0024785785
  0
VERTEX
  8
0
 62
7
  6
CONTINUOUS
 10
122.8665485142
 20
212.9912290089
  0
VERTEX
  8
0
 62
7
  6
CONTINUOUS
 10
122.8290399912
 20
212.9877521515
  0
SEQEND
  0
LINE
  8
SOLID
 62
7
  6
CONTINUOUS
 10
124.9110229069
 20
225.2425568779
 11
123.8717527703
 21
221.6062176269
  0
LINE
  8
SOLID
 62
7
  6
CONTINUOUS
 10
107.0010227261
 20
218.5827935541
 11
107.0011072074
 21
218.5828730046
  0
POLYLINE
  8
0
 62
7
  6
CONTINUOUS
 66
1
 70
0
  0
VERTEX
  8
0
 62
7
  6
CONTINUOUS
 10
72.4995562305
 20
212.1350967813
  0
VERTEX
  8
0
 62
7
  6
CONTINUOUS
 10
72.4376701122
 20
212.104517158
  0
VERTEX
  8
0
 62
7
  6
CONTINUOUS
 10
72.3729180246
 20
212.0829474678
  0
VERTEX
  8
0
 62
7
  6
CONTINUOUS
 10
72.3023614199
 20
212.0700024449
  0
VERTEX
  8
0
 62
7
  6
CONTINUOUS
 10
72.2476431944
 20
212.0669993423
  0
SEQEND
  0
LINE
  8
SOLID
 62
7
  6
CONTINUOUS
 10
123.8010227261
 20
218.5827935541
 11
123.8011072074
 21
218.5828730046
  0
LINE
  8
SOLID
 62
7
  6
CONTINUOUS
 10
117.8067586538
 20
218.5827935541
 11
117.8066741725
 21
218.5828730046
  0
LINE
  8
SOLID
 62
7
  6
CONTINUOUS
 10
134.5356422862
 20
221.6110508305
 11
135.4303282387
 21
210.4178395551
  0
LINE
  8
SOLID
 62
7
  6
CONTINUOUS
 10
139.7774531412
 20
210.4178395551
 11
140.6721390937
 21
221.6110508305
  0
LINE
  8
SOLID
 62
7
  6
CONTINUOUS
 10
141.7110229069
 20
225.2425568779
 11
140.6717527703
 21
221.6062176269
  0
POLYLINE
  8
0
 62
7
  6
CONTINUOUS
 66
1
 70
0
  0
VERTEX
  8
0
 62
7
  6
CONTINUOUS
 10
71.265741365
 20
209.7738622611
  0
VERTEX
  8
0
 62
7
  6
CONTINUOUS
 10
71.1984270844
 20
209.7503946255
  0
VERTEX
  8
0
 62
7
  6
CONTINUOUS
 10
71.1132453498
 20
209.7176466417
  0
VERTEX
  8
0
 62
7
  6
CONTINUOUS
 10
71.0490254242
 20
209.6888217048
  0
VERTEX
  8
0
 62
7
  6
CONTINUOUS
 10
71.0027678367
 20
209.6634504472
  0
VERTEX
  8
0
 62
7
  6
CONTINUOUS
 10
70.9713839673
 20
209.6408713008
  0
VERTEX
  8
0
 62
7
  6
CONTINUOUS
 10
70.9529690641
 20
209.6207279798
  0
VERTEX
  8
0
 62
7
  6
CONTINUOUS
 10
70.9462643832
 20
209.6028223914
  0
SEQEND
  0
LINE
  8
SOLID
 62
7
  6
CONTINUOUS
 10
133.496758473
 20
225.2425568779
 11
134.5360286096
 21
221.6062176269
  0
LINE
  8
SOLID
 62
7
  6
CONTINUOUS
 10
140.6010227261
 20
218.5827935541
 11
140.6011072074
 21
218.5828730046
  0
POLYLINE
  8
0
 62
7
  6
CONTINUOUS
 66
1
 70
0
  0
VERTEX
  8
0
 62
7
  6
CONTINUOUS
 10
240.2711192427
 20
212.067550771
  0
VERTEX
  8
0
 62
7
  6
CONTINUOUS
 10
240.3425011971
 20
212.0760798381
  0
VERTEX
  8
0
 62
7
  6
CONTINUOUS
 10
240.4123496505
 20
212.0949063604
  0
VERTEX
  8
0
 62
7
  6
CONTINUOUS
 10
240.4785915575
 20
212.1235324846
  0
VERTEX
  8
0
 62
7
  6
CONTINUOUS
 10
240.4994631504
 20
212.1350425042
  0
SEQEND
  0
LINE
  8
SOLID
 62
7
  6
CONTINUOUS
 10
134.6067586538
 20
218.5827935541
 11
134.6066741725
 21
218.5828730046
  0
LINE
  8
0
 62
7
  6
CONTINUOUS
 10
152.2303282387
 20
210.4178395551
 11
151.3356422862
 21
221.6110508305
  0
LINE
  8
0
 62
7
  6
CONTINUOUS
 10
70.9389006851
 20
209.4975165563
 11
67.30389069
 21
209.4975165563
  0
LINE
  8
0
 62
7
  6
CONTINUOUS
 10
77.6271489726
 20
209.4975165563
 11
79.9806324073
 21
209.4975165563
  0
LINE
  8
SURFACE
 62
7
  6
CONTINUOUS
 10
86.0271489726
 20
209.4975165563
 11
88.3806324073
 21
209.4975165563
  0
LINE
  8
0
 62
7
  6
CONTINUOUS
 10
94.4271489726
 20
209.4975165563
 11
96.7806324073
 21
209.4975165563
  0
LINE
  8
SOLID
 62
7
  6
CONTINUOUS
 10
102.8271489726
 20
209.4975165563
 11
105.1806324073
 21
209.4975165563
  0
LINE
  8
SOLID
 62
7
  6
CONTINUOUS
 10
111.2271489726
 20
209.4975165563
 11
113.5806324073
 21
209.4975165563
  0
LINE
  8
SOLID
 62
7
  6
CONTINUOUS
 10
119.6271489726
 20
209.4975165563
 11
121.9806324073
 21
209.4975165563
  0
LINE
  8
SOLID
 62
7
  6
CONTINUOUS
 10
128.0271489726
 20
209.4975165563
 11
130.3806324073
 21
209.4975165563
  0
LINE
  8
SOLID
 62
7
  6
CONTINUOUS
 10
136.4271489726
 20
209.4975165563
 11
138.7806324073
 21
209.4975165563
  0
LINE
  8
SOLID
 62
7
  6
CONTINUOUS
 10
144.8271489726
 20
209.4975165563
 11
147.1806324073
 21
209.4975165563
  0
LINE
  8
SOLID
 62
7
  6
CONTINUOUS
 10
153.2271489726
 20
209.4975165563
 11
155.5806324073
 21
209.4975165563
  0
LINE
  8
SOLID
 62
7
  6
CONTINUOUS
 10
161.6271489726
 20
209.4975165563
 11
163.9806324073
 21
209.4975165563
  0
LINE
  8
SOLID
 62
7
  6
CONTINUOUS
 10
170.0271489726
 20
209.4975165563
 11
172.3806324073
 21
209.4975165563
  0
LINE
  8
SOLID
 62
7
  6
CONTINUOUS
 10
178.4271489726
 20
209.4975165563
 11
180.7806324073
 21
209.4975165563
  0
LINE
  8
SOLID
 62
7
  6
CONTINUOUS
 10
186.8271489726
 20
209.4975165563
 11
189.1806324073
 21
209.4975165563
  0
LINE
  8
SOLID
 62
7
  6
CONTINUOUS
 10
195.2271489726
 20
209.4975165563
 11
197.5806324073
 21
209.4975165563
  0
LINE
  8
SOLID
 62
7
  6
CONTINUOUS
 10
203.6271489726
 20
209.4975165563
 11
205.9806324073
 21
209.4975165563
  0
LINE
  8
SOLID
 62
7
  6
CONTINUOUS
 10
212.0271489726
 20
209.4975165563
 11
214.3806324073
 21
209.4975165563
  0
LINE
  8
SOLID
 62
7
  6
CONTINUOUS
 10
220.4271489726
 20
209.4975165563
 11
222.7806324073
 21
209.4975165563
  0
LINE
  8
SOLID
 62
7
  6
CONTINUOUS
 10
228.8271489726
 20
209.4975165563
 11
231.1806324073
 21
209.4975165563
  0
LINE
  8
SOLID
 62
7
  6
CONTINUOUS
 10
237.2271489726
 20
209.4975165563
 11
239.5806324073
 21
209.4975165563
  0
LINE
  8
0
 62
7
  6
CONTINUOUS
 10
246.2688806948
 20
209.4975165563
 11
249.90389069
 21
209.4975165563
  0
LINE
  8
SOLID
 62
7
  6
CONTINUOUS
 10
249.90389069
 20
209.5475165563
 11
239.7237301094
 21
209.5475165563
  0
LINE
  8
0
 62
7
  6
CONTINUOUS
 10
249.90389069
 20
209.5475165563
 11
239.7237301094
 21
209.5475165563
  0
LINE
  8
SOLID
 62
7
  6
CONTINUOUS
 10
236.9183441702
 20
209.5475165563
 11
223.0894372097
 21
209.5475165563
  0
LINE
  8
0
 62
7
  6
CONTINUOUS
 10
236.9183441702
 20
209.5475165563
 11
223.0894372097
 21
209.5475165563
  0
LINE
  8
SOLID
 62
7
  6
CONTINUOUS
 10
220.1183441702
 20
209.5475165563
 11
206.2894372097
 21
209.5475165563
  0
LINE
  8
0
 62
7
  6
CONTINUOUS
 10
220.1183441702
 20
209.5475165563
 11
206.2894372097
 21
209.5475165563
  0
LINE
  8
SOLID
 62
7
  6
CONTINUOUS
 10
203.3183441702
 20
209.5475165563
 11
189.4894372097
 21
209.5475165563
  0
LINE
  8
0
 62
7
  6
CONTINUOUS
 10
203.3183441702
 20
209.5475165563
 11
189.4894372097
 21
209.5475165563
  0
LINE
  8
SOLID
 62
7
  6
CONTINUOUS
 10
186.5183441702
 20
209.5475165563
 11
172.6894372097
 21
209.5475165563
  0
LINE
  8
0
 62
7
  6
CONTINUOUS
 10
186.5183441702
 20
209.5475165563
 11
172.6894372097
 21
209.5475165563
  0
LINE
  8
SOLID
 62
7
  6
CONTINUOUS
 10
169.7183441702
 20
209.5475165563
 11
155.8894372097
 21
209.5475165563
  0
LINE
  8
0
 62
7
  6
CONTINUOUS
 10
169.7183441702
 20
209.5475165563
 11
155.8894372097
 21
209.5475165563
  0
LINE
  8
SOLID
 62
7
  6
CONTINUOUS
 10
152.9183441702
 20
209.5475165563
 11
139.0894372097
 21
209.5475165563
  0
LINE
  8
0
 62
7
  6
CONTINUOUS
 10
152.9183441702
 20
209.5475165563
 11
139.0894372097
 21
209.5475165563
  0
LINE
  8
SOLID
 62
7
  6
CONTINUOUS
 10
136.1183441702
 20
209.5475165563
 11
122.2894372097
 21
209.5475165563
  0
LINE
  8
0
 62
7
  6
CONTINUOUS
 10
136.1183441702
 20
209.5475165563
 11
122.2894372097
 21
209.5475165563
  0
LINE
  8
SOLID
 62
7
  6
CONTINUOUS
 10
119.3183441702
 20
209.5475165563
 11
105.4894372097
 21
209.5475165563
  0
LINE
  8
0
 62
7
  6
CONTINUOUS
 10
119.3183441702
 20
209.5475165563
 11
105.4894372097
 21
209.5475165563
  0
LINE
  8
SOLID
 62
7
  6
CONTINUOUS
 10
102.5183441702
 20
209.5475165563
 11
88.6894372097
 21
209.5475165563
  0
LINE
  8
0
 62
7
  6
CONTINUOUS
 10
102.5183441702
 20
209.5475165563
 11
88.6894372097
 21
209.5475165563
  0
LINE
  8
SOLID
 62
7
  6
CONTINUOUS
 10
85.7183441702
 20
209.5475165563
 11
70.9423970257
 21
209.5475165563
  0
LINE
  8
0
 62
7
  6
CONTINUOUS
 10
85.7183441702
 20
209.5475165563
 11
70.9423970257
 21
209.5475165563
  0
LINE
  8
0
 62
7
  6
CONTINUOUS
 10
71.4263412182
 20
209.8004019722
 11
71.6026414694
 21
209.8004019722
  0
POLYLINE
  8
0
 62
7
  6
CONTINUOUS
 66
1
 70
0
  0
VERTEX
  8
0
 62
7
  6
CONTINUOUS
 10
118.7787413872
 20
212.9877521515
  0
VERTEX
  8
0
 62
7
  6
CONTINUOUS
 10
118.736049791
 20
212.9922483852
  0
VERTEX
  8
0
 62
7
  6
CONTINUOUS
 10
118.6935097796
 20
213.0055008996
  0
VERTEX
  8
0
 62
7
  6
CONTINUOUS
 10
118.6494412322
 20
213.0285508162
  0
VERTEX
  8
0
 62
7
  6
CONTINUOUS
 10
118.6061225679
 20
213.0610453221
  0
VERTEX
  8
0
 62
7
  6
CONTINUOUS
 10
118.5629833728
 20
213.1043322553
  0
VERTEX
  8
0
 62
7
  6
CONTINUOUS
 10
118.5211095468
 20
213.1589101252
  0
VERTEX
  8
0
 62
7
  6
CONTINUOUS
 10
118.4818772101
 20
213.2246987457
  0
VERTEX
  8
0
 62
7
  6
CONTINUOUS
 10
118.4459914297
 20
213.302851506
  0
VERTEX
  8
0
 62
7
  6
CONTINUOUS
 10
118.414759307
 20
213.394345173
  0
VERTEX
  8
0
 62
7
  6
CONTINUOUS
 10
118.390138068
 20
213.499403209
  0
VERTEX
  8
0
 62
7
  6
CONTINUOUS
 10
118.3744588834
 20
213.6189625242
  0
SEQEND
  0
LINE
  8
SOLID
 62
7
  6
CONTINUOUS
 10
150.296758473
 20
225.2425568779
 11
151.3360286096
 21
221.6062176269
  0
LINE
  8
DEFAULT_1
 62
7
  6
CENTER
 10
158.60389069
 20
195.4975165563
 11
158.60389069
 21
239.4975165563
  0
LINE
  8
0
 62
7
  6
CONTINUOUS
 10
156.5774531412
 20
210.4178395551
 11
157.4721390937
 21
221.6110508305
  0
POLYLINE
  8
0
 62
7
  6
CONTINUOUS
 66
1
 70
0
  0
VERTEX
  8
0
 62
7
  6
CONTINUOUS
 10
156.8333224952
 20
213.6189625082
  0
VERTEX
  8
0
 62
7
  6
CONTINUOUS
 10
156.8193851557
 20
213.509111601
  0
VERTEX
  8
0
 62
7
  6
CONTINUOUS
 10
156.7977369128
 20
213.4112584304
  0
VERTEX
  8
0
 62
7
  6
CONTINUOUS
 10
156.7702096678
 20
213.324744398
  0
VERTEX
  8
0
 62
7
  6
CONTINUOUS
 10
156.7383495358
 20
213.249444613
  0
VERTEX
  8
0
 62
7
  6
CONTINUOUS
 10
156.7033318071
 20
213.1848361791
  0
VERTEX
  8
0
 62
7
  6
CONTINUOUS
 10
156.665851265
 20
213.1300390493
  0
VERTEX
  8
0
 62
7
  6
CONTINUOUS
 10
156.6266903431
 20
213.0847202579
  0
VERTEX
  8
0
 62
7
  6
CONTINUOUS
 10
156.5869536565
 20
213.0488601436
  0
VERTEX
  8
0
 62
7
  6
CONTINUOUS
 10
156.547086898
 20
213.0217393731
  0
VERTEX
  8
0
 62
7
  6
CONTINUOUS
 10
156.5066329835
 20
213.0024785785
  0
VERTEX
  8
0
 62
7
  6
CONTINUOUS
 10
156.4665485142
 20
212.9912290089
  0
VERTEX
  8
0
 62
7
  6
CONTINUOUS
 10
156.4290399912
 20
212.9877521515
  0
SEQEND
  0
LINE
  8
SOLID
 62
7
  6
CONTINUOUS
 10
158.5110229069
 20
225.2425568779
 11
157.4717527703
 21
221.6062176269
  0
LINE
  8
SOLID
 62
7
  6
CONTINUOUS
 10
157.4010227261
 20
218.5827935541
 11
157.4011072074
 21
218.5828730046
  0
POLYLINE
  8
0
 62
7
  6
CONTINUOUS
 66
1
 70
0
  0
VERTEX
  8
0
 62
7
  6
CONTINUOUS
 10
71.6026414694
 20
209.8004036937
  0
VERTEX
  8
0
 62
7
  6
CONTINUOUS
 10
71.6841133764
 20
209.8038185268
  0
VERTEX
  8
0
 62
7
  6
CONTINUOUS
 10
71.8012352437
 20
209.820863602
  0
VERTEX
  8
0
 62
7
  6
CONTINUOUS
 10
71.9158459806
 20
209.8520673398
  0
VERTEX
  8
0
 62
7
  6
CONTINUOUS
 10
72.0263721448
 20
209.8971039149
  0
VERTEX
  8
0
 62
7
  6
CONTINUOUS
 10
72.1312662255
 20
209.9554716696
  0
VERTEX
  8
0
 62
7
  6
CONTINUOUS
 10
72.2290272569
 20
210.0264940122
  0
VERTEX
  8
0
 62
7
  6
CONTINUOUS
 10
72.3182568612
 20
210.1093579916
  0
VERTEX
  8
0
 62
7
  6
CONTINUOUS
 10
72.397601439
 20
210.2030666868
  0
VERTEX
  8
0
 62
7
  6
CONTINUOUS
 10
72.4657328888
 20
210.306335353
  0
VERTEX
  8
0
 62
7
  6
CONTINUOUS
 10
72.521515554
 20
210.4177285429
  0
VERTEX
  8
0
 62
7
  6
CONTINUOUS
 10
72.5640051147
 20
210.535682409
  0
VERTEX
  8
0
 62
7
  6
CONTINUOUS
 10
72.5924495742
 20
210.6585178828
  0
VERTEX
  8
0
 62
7
  6
CONTINUOUS
 10
72.6042487517
 20
210.7530780709
  0
SEQEND
  0
LINE
  8
0
 62
7
  6
CONTINUOUS
 10
72.2476431944
 20
212.066999342
 11
71.584937459
 21
212.066999342
  0
LINE
  8
0
 62
7
  6
CONTINUOUS
 10
118.7787413872
 20
212.9877521515
 11
122.8290399912
 21
212.9877521515
  0
LINE
  8
0
 62
7
  6
CONTINUOUS
 10
152.3787413872
 20
212.9877521515
 11
156.4290399912
 21
212.9877521515
  0
LINE
  8
SOLID
 62
7
  6
CONTINUOUS
 10
249.90389069
 20
217.4975165563
 11
241.1433396777
 21
217.4975165563
  0
LINE
  8
0
 62
7
  6
CONTINUOUS
 10
249.90389069
 20
217.4975165563
 11
241.1433396777
 21
217.4975165563
  0
LINE
  8
SOLID
 62
7
  6
CONTINUOUS
 10
235.6644417022
 20
217.4975165563
 11
224.3433396777
 21
217.4975165563
  0
LINE
  8
0
 62
7
  6
CONTINUOUS
 10
235.6644417022
 20
217.4975165563
 11
224.3433396777
 21
217.4975165563
  0
LINE
  8
SOLID
 62
7
  6
CONTINUOUS
 10
218.8644417022
 20
217.4975165563
 11
207.5433396777
 21
217.4975165563
  0
LINE
  8
0
 62
7
  6
CONTINUOUS
 10
218.8644417022
 20
217.4975165563
 11
207.5433396777
 21
217.4975165563
  0
LINE
  8
SOLID
 62
7
  6
CONTINUOUS
 10
202.0644417022
 20
217.4975165563
 11
190.7433396777
 21
217.4975165563
  0
LINE
  8
0
 62
7
  6
CONTINUOUS
 10
202.0644417022
 20
217.4975165563
 11
190.7433396777
 21
217.4975165563
  0
LINE
  8
SOLID
 62
7
  6
CONTINUOUS
 10
185.2644417022
 20
217.4975165563
 11
173.9433396777
 21
217.4975165563
  0
LINE
  8
0
 62
7
  6
CONTINUOUS
 10
185.2644417022
 20
217.4975165563
 11
173.9433396777
 21
217.4975165563
  0
LINE
  8
SOLID
 62
7
  6
CONTINUOUS
 10
168.4644417022
 20
217.4975165563
 11
157.1433396777
 21
217.4975165563
  0
LINE
  8
SOLID
 62
7
  6
CONTINUOUS
 10
151.6644417013
 20
217.4975165563
 11
140.3433396777
 21
217.4975165563
  0
LINE
  8
SOLID
 62
7
  6
CONTINUOUS
 10
134.8644417022
 20
217.4975165563
 11
123.5433396777
 21
217.4975165563
  0
LINE
  8
SOLID
 62
7
  6
CONTINUOUS
 10
118.0644417013
 20
217.4975165563
 11
106.7433396777
 21
217.4975165563
  0
LINE
  8
SOLID
 62
7
  6
CONTINUOUS
 10
101.2644417022
 20
217.4975165563
 11
89.9433396777
 21
217.4975165563
  0
LINE
  8
0
 62
7
  6
CONTINUOUS
 10
101.2644417022
 20
217.4975165563
 11
89.9433396777
 21
217.4975165563
  0
LINE
  8
SOLID
 62
7
  6
CONTINUOUS
 10
84.4644417022
 20
217.4975165563
 11
73.1433396777
 21
217.4975165563
  0
LINE
  8
0
 62
7
  6
CONTINUOUS
 10
84.4644417022
 20
217.4975165563
 11
73.1433396777
 21
217.4975165563
  0
LINE
  8
DEFAULT_1
 62
7
  6
CENTER
 10
64.3038905229
 20
217.4975165563
 11
73.1433396777
 21
217.4975165563
  0
LINE
  8
DEFAULT_1
 62
7
  6
CENTER
 10
249.90389069
 20
217.4975165563
 11
252.9038909226
 21
217.4975165563
  0
LINE
  8
DEFAULT_1
 62
7
  6
CENTER
 10
235.6644417022
 20
217.4975165563
 11
241.1433396777
 21
217.4975165563
  0
LINE
  8
DEFAULT_1
 62
7
  6
CENTER
 10
218.8644417022
 20
217.4975165563
 11
224.3433396777
 21
217.4975165563
  0
LINE
  8
DEFAULT_1
 62
7
  6
CENTER
 10
202.0644417022
 20
217.4975165563
 11
207.5433396777
 21
217.4975165563
  0
LINE
  8
DEFAULT_1
 62
7
  6
CENTER
 10
185.2644417022
 20
217.4975165563
 11
190.7433396777
 21
217.4975165563
  0
LINE
  8
DEFAULT_1
 62
7
  6
CENTER
 10
168.4644417022
 20
217.4975165563
 11
173.9433396777
 21
217.4975165563
  0
LINE
  8
DEFAULT_1
 62
7
  6
CENTER
 10
134.8644417022
 20
217.4975165563
 11
140.3433396777
 21
217.4975165563
  0
LINE
  8
DEFAULT_1
 62
7
  6
CENTER
 10
101.2644417022
 20
217.4975165563
 11
106.7433396777
 21
217.4975165563
  0
LINE
  8
DEFAULT_1
 62
7
  6
CENTER
 10
84.4644417022
 20
217.4975165563
 11
89.9433396777
 21
217.4975165563
  0
LINE
  8
0
 62
7
  6
CONTINUOUS
 10
106.7433396777
 20
217.4975165563
 11
134.8644417022
 21
217.4975165563
  0
LINE
  8
0
 62
7
  6
CONTINUOUS
 10
140.3433396777
 20
217.4975165563
 11
168.4644417022
 21
217.4975165563
  0
POLYLINE
  8
0
 62
7
  6
CONTINUOUS
 66
1
 70
0
  0
VERTEX
  8
0
 62
7
  6
CONTINUOUS
 10
152.3787413872
 20
212.9877521515
  0
VERTEX
  8
0
 62
7
  6
CONTINUOUS
 10
152.336049791
 20
212.9922483852
  0
VERTEX
  8
0
 62
7
  6
CONTINUOUS
 10
152.2935097796
 20
213.0055008996
  0
VERTEX
  8
0
 62
7
  6
CONTINUOUS
 10
152.2494412322
 20
213.0285508162
  0
VERTEX
  8
0
 62
7
  6
CONTINUOUS
 10
152.2061225679
 20
213.0610453221
  0
VERTEX
  8
0
 62
7
  6
CONTINUOUS
 10
152.1629833728
 20
213.1043322553
  0
VERTEX
  8
0
 62
7
  6
CONTINUOUS
 10
152.1211095468
 20
213.1589101252
  0
VERTEX
  8
0
 62
7
  6
CONTINUOUS
 10
152.0818772101
 20
213.2246987457
  0
VERTEX
  8
0
 62
7
  6
CONTINUOUS
 10
152.0459914297
 20
213.302851506
  0
VERTEX
  8
0
 62
7
  6
CONTINUOUS
 10
152.014759307
 20
213.394345173
  0
VERTEX
  8
0
 62
7
  6
CONTINUOUS
 10
151.990138068
 20
213.499403209
  0
VERTEX
  8
0
 62
7
  6
CONTINUOUS
 10
151.9744588834
 20
213.6189625242
  0
SEQEND
  0
LINE
  8
SOLID
 62
7
  6
CONTINUOUS
 10
151.4067586538
 20
218.5827935541
 11
151.4066741725
 21
218.5828730046
  0
LINE
  8
SOLID
 62
7
  6
CONTINUOUS
 10
168.1356422862
 20
221.6110508305
 11
169.0303282387
 21
210.4178395551
  0
LINE
  8
SOLID
 62
7
  6
CONTINUOUS
 10
174.2010227261
 20
218.5827935541
 11
174.2011072074
 21
218.5828730046
  0
LINE
  8
SOLID
 62
7
  6
CONTINUOUS
 10
250.70389069
 20
225.4975165563
 11
242.3297309617
 21
225.4975165563
  0
LINE
  8
SOLID
 62
7
  6
CONTINUOUS
 10
100.0777771775
 20
225.4975165563
 11
99.4345229241
 21
225.4974694264
  0
LINE
  8
SURFACE
 62
7
  6
CONTINUOUS
 10
91.773258501
 20
225.4975165563
 11
91.1297309617
 21
225.4975165563
  0
LINE
  8
SURFACE
 62
7
  6
CONTINUOUS
 10
83.2777771775
 20
225.4975165563
 11
82.6345229241
 21
225.4974694264
  0
LINE
  8
SURFACE
 62
7
  6
CONTINUOUS
 10
74.973258501
 20
225.4975165563
 11
74.3297309617
 21
225.4975165563
  0
LINE
  8
SOLID
 62
7
  6
CONTINUOUS
 10
66.50389069
 20
225.4975165563
 11
74.3187225331
 21
225.4975165563
  0
LINE
  8
0
 62
7
  6
CONTINUOUS
 10
74.973258501
 20
225.4975165563
 11
82.6345228789
 21
225.4975165563
  0
LINE
  8
SURFACE
 62
7
  6
CONTINUOUS
 10
83.2890588468
 20
225.4975165563
 11
91.1187225331
 21
225.4975165563
  0
LINE
  8
0
 62
7
  6
CONTINUOUS
 10
91.773258501
 20
225.4975165563
 11
99.4345228789
 21
225.4975165563
  0
LINE
  8
SOLID
 62
7
  6
CONTINUOUS
 10
100.0890588468
 20
225.4975165563
 11
107.9187225331
 21
225.4975165563
  0
LINE
  8
SOLID
 62
7
  6
CONTINUOUS
 10
107.9297309617
 20
225.4975165563
 11
116.8777771775
 21
225.4975165563
  0
LINE
  8
SOLID
 62
7
  6
CONTINUOUS
 10
116.8890588468
 20
225.4975165563
 11
124.7187225331
 21
225.4975165563
  0
LINE
  8
SOLID
 62
7
  6
CONTINUOUS
 10
124.7297309617
 20
225.4975165563
 11
133.6777771775
 21
225.4975165563
  0
LINE
  8
SOLID
 62
7
  6
CONTINUOUS
 10
133.6890588468
 20
225.4975165563
 11
141.5187225331
 21
225.4975165563
  0
LINE
  8
SOLID
 62
7
  6
CONTINUOUS
 10
141.5297309617
 20
225.4975165563
 11
150.4777771775
 21
225.4975165563
  0
LINE
  8
SOLID
 62
7
  6
CONTINUOUS
 10
150.4890588468
 20
225.4975165563
 11
158.3187225331
 21
225.4975165563
  0
LINE
  8
SOLID
 62
7
  6
CONTINUOUS
 10
158.3297309617
 20
225.4975165563
 11
167.2777771775
 21
225.4975165563
  0
LINE
  8
SOLID
 62
7
  6
CONTINUOUS
 10
167.2890588468
 20
225.4975165563
 11
175.1187225331
 21
225.4975165563
  0
LINE
  8
SOLID
 62
7
  6
CONTINUOUS
 10
175.1297309617
 20
225.4975165563
 11
184.0777771775
 21
225.4975165563
  0
LINE
  8
SOLID
 62
7
  6
CONTINUOUS
 10
184.0890588468
 20
225.4975165563
 11
191.9187225331
 21
225.4975165563
  0
LINE
  8
SOLID
 62
7
  6
CONTINUOUS
 10
191.9297309617
 20
225.4975165563
 11
200.8777771775
 21
225.4975165563
  0
LINE
  8
SOLID
 62
7
  6
CONTINUOUS
 10
200.8890588468
 20
225.4975165563
 11
208.7187225331
 21
225.4975165563
  0
LINE
  8
SOLID
 62
7
  6
CONTINUOUS
 10
208.7297309617
 20
225.4975165563
 11
217.6777771775
 21
225.4975165563
  0
LINE
  8
SOLID
 62
7
  6
CONTINUOUS
 10
217.6890588468
 20
225.4975165563
 11
225.5187225331
 21
225.4975165563
  0
LINE
  8
SOLID
 62
7
  6
CONTINUOUS
 10
225.5297309617
 20
225.4975165563
 11
234.4777771775
 21
225.4975165563
  0
LINE
  8
SOLID
 62
7
  6
CONTINUOUS
 10
234.4890588468
 20
225.4975165563
 11
242.3187225331
 21
225.4975165563
  0
LINE
  8
SOLID
 62
7
  6
CONTINUOUS
 10
168.2067586538
 20
218.5827935541
 11
168.2066741725
 21
218.5828730046
  0
LINE
  8
SOLID
 62
7
  6
CONTINUOUS
 10
167.096758473
 20
225.2425568779
 11
168.1360286096
 21
221.6062176269
  0
LINE
  8
SOLID
 62
7
  6
CONTINUOUS
 10
173.3774531412
 20
210.4178395551
 11
174.2721390937
 21
221.6110508305
  0
LINE
  8
SOLID
 62
7
  6
CONTINUOUS
 10
175.3110229069
 20
225.2425568779
 11
174.2717527703
 21
221.6062176269
  0
POLYLINE
  8
0
 62
7
  6
CONTINUOUS
 66
1
 70
0
  0
VERTEX
  8
0
 62
7
  6
CONTINUOUS
 10
71.2656641487
 20
209.7738827399
  0
VERTEX
  8
0
 62
7
  6
CONTINUOUS
 10
71.3171223918
 20
209.7883283019
  0
VERTEX
  8
0
 62
7
  6
CONTINUOUS
 10
71.3874442326
 20
209.7988871299
  0
VERTEX
  8
0
 62
7
  6
CONTINUOUS
 10
71.4263380656
 20
209.8004021572
  0
SEQEND
  0
LINE
  8
SOLID
 62
7
  6
CONTINUOUS
 10
185.0067586538
 20
218.5827935541
 11
185.0066741725
 21
218.5828730046
  0
LINE
  8
SOLID
 62
7
  6
CONTINUOUS
 10
191.0010227261
 20
218.5827935541
 11
191.0011072074
 21
218.5828730046
  0
LINE
  8
SOLID
 62
7
  6
CONTINUOUS
 10
184.9356422862
 20
221.6110508305
 11
185.8303282387
 21
210.4178395551
  0
LINE
  8
SOLID
 62
7
  6
CONTINUOUS
 10
190.1774531412
 20
210.4178395551
 11
191.0721390937
 21
221.6110508305
  0
LINE
  8
SOLID
 62
7
  6
CONTINUOUS
 10
192.1110229069
 20
225.2425568779
 11
191.0717527703
 21
221.6062176269
  0
LINE
  8
SOLID
 62
7
  6
CONTINUOUS
 10
201.8067586538
 20
218.5827935541
 11
201.8066741725
 21
218.5828730046
  0
LINE
  8
SOLID
 62
7
  6
CONTINUOUS
 10
183.896758473
 20
225.2425568779
 11
184.9360286096
 21
221.6062176269
  0
LINE
  8
SOLID
 62
7
  6
CONTINUOUS
 10
207.8010227261
 20
218.5827935541
 11
207.8011072074
 21
218.5828730046
  0
LINE
  8
SOLID
 62
7
  6
CONTINUOUS
 10
201.7356422862
 20
221.6110508305
 11
202.6303282387
 21
210.4178395551
  0
LINE
  8
SOLID
 62
7
  6
CONTINUOUS
 10
224.6010227261
 20
218.5827935541
 11
224.6011072074
 21
218.5828730046
  0
POLYLINE
  8
0
 62
7
  6
CONTINUOUS
 66
1
 70
0
  0
VERTEX
  8
0
 62
7
  6
CONTINUOUS
 10
239.9749475471
 20
209.871484806
  0
VERTEX
  8
0
 62
7
  6
CONTINUOUS
 10
240.0826165806
 20
209.9263354159
  0
VERTEX
  8
0
 62
7
  6
CONTINUOUS
 10
240.1782955611
 20
209.9873996386
  0
VERTEX
  8
0
 62
7
  6
CONTINUOUS
 10
240.2670569128
 20
210.0593938156
  0
VERTEX
  8
0
 62
7
  6
CONTINUOUS
 10
240.3477231847
 20
210.1415541034
  0
VERTEX
  8
0
 62
7
  6
CONTINUOUS
 10
240.4191912267
 20
210.2329877509
  0
VERTEX
  8
0
 62
7
  6
CONTINUOUS
 10
240.480449725
 20
210.3326895856
  0
VERTEX
  8
0
 62
7
  6
CONTINUOUS
 10
240.5305245669
 20
210.4394051955
  0
VERTEX
  8
0
 62
7
  6
CONTINUOUS
 10
240.5685968755
 20
210.5517206629
  0
VERTEX
  8
0
 62
7
  6
CONTINUOUS
 10
240.5940393335
 20
210.6681233686
  0
VERTEX
  8
0
 62
7
  6
CONTINUOUS
 10
240.6042487093
 20
210.7530780743
  0
SEQEND
  0
LINE
  8
SOLID
 62
7
  6
CONTINUOUS
 10
218.6067586538
 20
218.5827935541
 11
218.6066741725
 21
218.5828730046
  0
LINE
  8
SOLID
 62
7
  6
CONTINUOUS
 10
200.696758473
 20
225.2425568779
 11
201.7360286096
 21
221.6062176269
  0
LINE
  8
SOLID
 62
7
  6
CONTINUOUS
 10
206.9774531412
 20
210.4178395551
 11
207.8721390937
 21
221.6110508305
  0
LINE
  8
SOLID
 62
7
  6
CONTINUOUS
 10
208.9110229069
 20
225.2425568779
 11
207.8717527703
 21
221.6062176269
  0
POLYLINE
  8
0
 62
7
  6
CONTINUOUS
 66
1
 70
0
  0
VERTEX
  8
0
 62
7
  6
CONTINUOUS
 10
240.498887234
 20
212.134708862
  0
VERTEX
  8
0
 62
7
  6
CONTINUOUS
 10
240.5238036765
 20
212.1501285198
  0
VERTEX
  8
0
 62
7
  6
CONTINUOUS
 10
240.5586812173
 20
212.175128022
  0
VERTEX
  8
0
 62
7
  6
CONTINUOUS
 10
240.5907084267
 20
212.202179755
  0
VERTEX
  8
0
 62
7
  6
CONTINUOUS
 10
240.6197243649
 20
212.2308991118
  0
VERTEX
  8
0
 62
7
  6
CONTINUOUS
 10
240.6457539994
 20
212.2610966404
  0
VERTEX
  8
0
 62
7
  6
CONTINUOUS
 10
240.668715465
 20
212.2924204828
  0
VERTEX
  8
0
 62
7
  6
CONTINUOUS
 10
240.6884828951
 20
212.3244185683
  0
VERTEX
  8
0
 62
7
  6
CONTINUOUS
 10
240.7050160657
 20
212.3567083179
  0
VERTEX
  8
0
 62
7
  6
CONTINUOUS
 10
240.7184194797
 20
212.3889477167
  0
VERTEX
  8
0
 62
7
  6
CONTINUOUS
 10
240.728813412
 20
212.4205984239
  0
VERTEX
  8
0
 62
7
  6
CONTINUOUS
 10
240.7363981696
 20
212.4511082634
  0
VERTEX
  8
0
 62
7
  6
CONTINUOUS
 10
240.7413746438
 20
212.4792673211
  0
SEQEND
  0
LINE
  8
SOLID
 62
7
  6
CONTINUOUS
 10
241.4010227261
 20
218.5827935541
 11
241.4011072074
 21
218.5828730046
  0
POLYLINE
  8
0
 62
7
  6
CONTINUOUS
 66
1
 70
0
  0
VERTEX
  8
0
 62
7
  6
CONTINUOUS
 10
239.9052464703
 20
209.8241178587
  0
VERTEX
  8
0
 62
7
  6
CONTINUOUS
 10
239.8771184212
 20
209.8013336059
  0
VERTEX
  8
0
 62
7
  6
CONTINUOUS
 10
239.8226281098
 20
209.756479688
  0
VERTEX
  8
0
 62
7
  6
CONTINUOUS
 10
239.7802482277
 20
209.7187834569
  0
VERTEX
  8
0
 62
7
  6
CONTINUOUS
 10
239.7504919321
 20
209.687268524
  0
VERTEX
  8
0
 62
7
  6
CONTINUOUS
 10
239.7330016272
 20
209.6610004516
  0
VERTEX
  8
0
 62
7
  6
CONTINUOUS
 10
239.726933608
 20
209.6392372675
  0
SEQEND
  0
POLYLINE
  8
0
 62
7
  6
CONTINUOUS
 66
1
 70
0
  0
VERTEX
  8
0
 62
7
  6
CONTINUOUS
 10
239.9052649121
 20
209.8241328091
  0
VERTEX
  8
0
 62
7
  6
CONTINUOUS
 10
239.9140224062
 20
209.8310714893
  0
VERTEX
  8
0
 62
7
  6
CONTINUOUS
 10
239.9749475471
 20
209.871484806
  0
SEQEND
  0
LINE
  8
SOLID
 62
7
  6
CONTINUOUS
 10
235.4067586538
 20
218.5827935541
 11
235.4066741725
 21
218.5828730046
  0
LINE
  8
SOLID
 62
7
  6
CONTINUOUS
 10
218.5356422862
 20
221.6110508305
 11
219.4303282387
 21
210.4178395551
  0
LINE
  8
SOLID
 62
7
  6
CONTINUOUS
 10
225.7110229069
 20
225.2425568779
 11
224.6717527703
 21
221.6062176269
  0
LINE
  8
SOLID
 62
7
  6
CONTINUOUS
 10
217.496758473
 20
225.2425568779
 11
218.5360286096
 21
221.6062176269
  0
LINE
  8
SOLID
 62
7
  6
CONTINUOUS
 10
223.7774531412
 20
210.4178395551
 11
224.6721390937
 21
221.6110508305
  0
POLYLINE
  8
0
 62
7
  6
CONTINUOUS
 66
1
 70
0
  0
VERTEX
  8
0
 62
7
  6
CONTINUOUS
 10
239.8472006817
 20
211.791401725
  0
VERTEX
  8
0
 62
7
  6
CONTINUOUS
 10
239.8543824363
 20
211.8052892337
  0
VERTEX
  8
0
 62
7
  6
CONTINUOUS
 10
239.9011329181
 20
211.8809943523
  0
VERTEX
  8
0
 62
7
  6
CONTINUOUS
 10
239.9652442724
 20
211.9618491145
  0
VERTEX
  8
0
 62
7
  6
CONTINUOUS
 10
240.0491959266
 20
212.0484331504
  0
VERTEX
  8
0
 62
7
  6
CONTINUOUS
 10
240.1530117068
 20
212.1409398455
  0
SEQEND
  0
POLYLINE
  8
0
 62
7
  6
CONTINUOUS
 66
1
 70
0
  0
VERTEX
  8
0
 62
7
  6
CONTINUOUS
 10
239.8472249184
 20
211.7913950741
  0
VERTEX
  8
0
 62
7
  6
CONTINUOUS
 10
239.881965798
 20
211.8504793892
  0
VERTEX
  8
0
 62
7
  6
CONTINUOUS
 10
239.9258003389
 20
211.9057266606
  0
VERTEX
  8
0
 62
7
  6
CONTINUOUS
 10
239.9769720159
 20
211.9542569156
  0
VERTEX
  8
0
 62
7
  6
CONTINUOUS
 10
240.0344627516
 20
211.9951046418
  0
VERTEX
  8
0
 62
7
  6
CONTINUOUS
 10
240.0971287796
 20
212.0274571953
  0
VERTEX
  8
0
 62
7
  6
CONTINUOUS
 10
240.163723378
 20
212.0506709365
  0
VERTEX
  8
0
 62
7
  6
CONTINUOUS
 10
240.2329216698
 20
212.0642840337
  0
VERTEX
  8
0
 62
7
  6
CONTINUOUS
 10
240.2711192425
 20
212.0675508196
  0
SEQEND
  0
LINE
  8
SOLID
 62
7
  6
CONTINUOUS
 10
234.296758473
 20
225.2425568779
 11
235.3360286096
 21
221.6062176269
  0
LINE
  8
SOLID
 62
7
  6
CONTINUOUS
 10
235.3356422862
 20
221.6110508305
 11
236.2303282387
 21
210.4178395551
  0
LINE
  8
0
 62
7
  6
CONTINUOUS
 10
239.7223364541
 20
209.5076074882
 11
239.7954552884
 21
211.6014569465
  0
LINE
  8
0
 62
7
  6
CONTINUOUS
 10
240.60424913
 20
210.7530780406
 11
241.4721390937
 21
221.6110508305
  0
LINE
  8
0
 62
7
  6
CONTINUOUS
 10
240.7413746438
 20
212.4792673211
 11
240.7443666621
 21
212.5060564164
  0
POLYLINE
  8
0
 62
7
  6
CONTINUOUS
 66
1
 70
0
  0
VERTEX
  8
0
 62
7
  6
CONTINUOUS
 10
239.7954552048
 20
211.6014544128
  0
VERTEX
  8
0
 62
7
  6
CONTINUOUS
 10
239.8030102504
 20
211.6654143787
  0
VERTEX
  8
0
 62
7
  6
CONTINUOUS
 10
239.8221942162
 20
211.7334086805
  0
VERTEX
  8
0
 62
7
  6
CONTINUOUS
 10
239.8472006817
 20
211.791401725
  0
SEQEND
  0
LINE
  8
SOLID
 62
7
  6
CONTINUOUS
 10
242.5110229069
 20
225.2425568779
 11
241.4717527703
 21
221.6062176269
  0
LINE
  8
0
 62
7
  6
CONTINUOUS
 10
246.2653843542
 20
209.5475165563
 11
246.2688806948
 21
209.4975165563
  0
LINE
  8
SOLID
 62
7
  6
CONTINUOUS
 10
250.90389069
 20
210.4975165563
 11
250.90389069
 21
225.2975165563
  0
ARC
  8
SOLID
 62
7
  6
CONTINUOUS
 10
66.50389069
 20
136.8904647199
 40
0.2
 50
90.0
 51
180.0
  0
ARC
  8
SOLID
 62
7
  6
CONTINUOUS
 10
250.70389069
 20
95.1332438894
 40
0.2
 50
270.0
 51
360.0
  0
ARC
  8
SURFACE
 62
7
  6
CONTINUOUS
 10
296.6398246381
 20
91.7006131843
 40
50.0
 50
43.7212620861
 51
53.8371991552
  0
ARC
  8
SOLID
 62
7
  6
CONTINUOUS
 10
296.6398246381
 20
140.3230954249
 40
50.0
 50
306.1628008448
 51
316.2787379139
  0
ARC
  8
SURFACE
 62
7
  6
CONTINUOUS
 10
331.6843956954
 20
90.6118543046
 40
8.5
 50
232.4278334841
 51
299.0026873427
  0
ARC
  8
SURFACE
 62
7
  6
CONTINUOUS
 10
331.6843956954
 20
90.6118543046
 40
8.5
 50
299.9561732047
 51
340.2495161548
  0
ARC
  8
0
 62
7
  6
CONTINUOUS
 10
331.6843956954
 20
90.6118543046
 40
8.5
 50
232.1273432899
 51
299.9561732047
  0
ARC
  8
SOLID
 62
7
  6
CONTINUOUS
 10
331.6843956954
 20
90.6118543046
 40
8.5
 50
199.7499227956
 51
340.2500772044
  0
ARC
  8
SURFACE
 62
7
  6
CONTINUOUS
 10
329.6843956954
 20
95.1118543046
 40
6.0
 50
160.9075909662
 51
180.0
  0
ARC
  8
0
 62
7
  6
CONTINUOUS
 10
329.6843956954
 20
95.1118543046
 40
6.0
 50
126.1628008448
 51
160.8966757146
  0
ARC
  8
SOLID
 62
7
  6
CONTINUOUS
 10
329.6843956954
 20
95.1118543046
 40
6.0
 50
126.1628008448
 51
180.0
  0
CIRCLE
  8
SOLID
 62
7
  6
CONTINUOUS
 10
331.6843956954
 20
90.6118543046
 40
4.15
  0
ARC
  8
SOLID
 62
7
  6
CONTINUOUS
 10
324.7343956954
 20
115.2590309439
 40
1.0
 50
180.0
 51
253.532453207
  0
ARC
  8
SOLID
 62
7
  6
CONTINUOUS
 10
332.6843956954
 20
109.8340451254
 40
1.0
 50
180.0
 51
199.54
  0
ARC
  8
SOLID
 62
7
  6
CONTINUOUS
 10
330.8343956954
 20
111.5267541613
 40
0.85
 50
0.0
 51
73.532453207
  0
ARC
  8
SOLID
 62
7
  6
CONTINUOUS
 10
332.4140049923
 20
106.1111381588
 40
0.5
 50
316.2787379139
 51
19.54
  0
ARC
  8
SOLID
 62
7
  6
CONTINUOUS
 10
324.7343956954
 20
116.7646776654
 40
1.0
 50
106.467546793
 51
180.0
  0
ARC
  8
SOLID
 62
7
  6
CONTINUOUS
 10
330.8343956954
 20
120.496954448
 40
0.85
 50
286.467546793
 51
360.0
  0
ARC
  8
SOLID
 62
7
  6
CONTINUOUS
 10
331.6843956954
 20
141.4162160243
 40
8.75
 50
299.0322772227
 51
329.4415682141
  0
ARC
  8
0
 62
7
  6
CONTINUOUS
 10
331.6843956954
 20
141.4118543046
 40
8.5
 50
127.9475051613
 51
153.5184553659
  0
ARC
  8
SURFACE
 62
7
  6
CONTINUOUS
 10
331.6843956954
 20
141.4118543046
 40
8.5
 50
155.9928524897
 51
160.2500772044
  0
ARC
  8
SURFACE
 62
7
  6
CONTINUOUS
 10
331.6843956954
 20
141.4118543046
 40
8.5
 50
19.7504837541
 51
127.5722549511
  0
ARC
  8
0
 62
7
  6
CONTINUOUS
 10
331.6843956954
 20
141.4118543046
 40
8.5
 50
60.0438267952
 51
127.9254533596
  0
ARC
  8
SURFACE
 62
7
  6
CONTINUOUS
 10
329.6843956954
 20
136.9118543046
 40
6.0
 50
180.0
 51
233.8371991552
  0
ARC
  8
0
 62
7
  6
CONTINUOUS
 10
331.6843956954
 20
141.4118543046
 40
5.8
 50
270.0
 51
90.0
  0
CIRCLE
  8
SOLID
 62
7
  6
CONTINUOUS
 10
331.6843956954
 20
141.4118543046
 40
4.15
  0
ARC
  8
SOLID
 62
7
  6
CONTINUOUS
 10
332.6843956954
 20
122.1896634839
 40
1.0
 50
160.46
 51
180.0
  0
ARC
  8
SOLID
 62
7
  6
CONTINUOUS
 10
332.4140049923
 20
125.9125704505
 40
0.5
 50
16.5511097805
 51
18.9012310239
  0
ARC
  8
SURFACE
 62
7
  6
CONTINUOUS
 10
332.4140049923
 20
125.9125704505
 40
0.5
 50
340.46
 51
43.7212620861
  0
ARC
  8
SOLID
 62
7
  6
CONTINUOUS
 10
336.2947671168
 20
133.1099247125
 40
0.75
 50
119.0322772227
 51
160.46
  0
ARC
  8
SOLID
 62
7
  6
CONTINUOUS
 10
339.4343956954
 20
136.8404647199
 40
0.25
 50
0.0
 51
149.4415682141
  0
ARC
  8
SOLID
 62
7
  6
CONTINUOUS
 10
153.2271489726
 20
210.4975165563
 40
1.0
 50
184.57
 51
270.0
  0
ARC
  8
SOLID
 62
7
  6
CONTINUOUS
 10
155.5806324073
 20
210.4975165563
 40
1.0
 50
270.0
 51
355.43
  0
ARC
  8
SOLID
 62
7
  6
CONTINUOUS
 10
130.3806324073
 20
210.4975165563
 40
1.0
 50
270.0
 51
288.0095435992
  0
ARC
  8
SOLID
 62
7
  6
CONTINUOUS
 10
119.6271489726
 20
210.4975165563
 40
1.0
 50
184.57
 51
270.0
  0
ARC
  8
SOLID
 62
7
  6
CONTINUOUS
 10
121.9806324073
 20
210.4975165563
 40
1.0
 50
270.0
 51
355.43
  0
ARC
  8
SOLID
 62
7
  6
CONTINUOUS
 10
128.0271489726
 20
210.4975165563
 40
1.0
 50
251.9904564008
 51
270.0
  0
ARC
  8
SOLID
 62
7
  6
CONTINUOUS
 10
96.7806324073
 20
210.4975165563
 40
1.0
 50
270.0
 51
288.0095435992
  0
ARC
  8
SURFACE
 62
7
  6
CONTINUOUS
 10
86.0271489726
 20
210.4975165563
 40
1.0
 50
184.57
 51
270.0
  0
ARC
  8
SURFACE
 62
7
  6
CONTINUOUS
 10
88.3806324073
 20
210.4975165563
 40
1.0
 50
270.0
 51
355.43
  0
ARC
  8
SURFACE
 62
7
  6
CONTINUOUS
 10
94.4271489726
 20
210.4975165563
 40
1.0
 50
251.9904564008
 51
270.0
  0
ARC
  8
SURFACE
 62
7
  6
CONTINUOUS
 10
79.9806324073
 20
210.4975165563
 40
1.0
 50
270.0
 51
288.0095435992
  0
ARC
  8
0
 62
7
  6
CONTINUOUS
 10
77.6271489726
 20
210.4975165563
 40
1.0
 50
261.8535358985
 51
270.0
  0
ARC
  8
SOLID
 62
7
  6
CONTINUOUS
 10
67.30389069
 20
210.4975165563
 40
1.0
 50
180.0
 51
270.0
  0
ARC
  8
SOLID
 62
7
  6
CONTINUOUS
 10
136.4271489726
 20
210.4975165563
 40
1.0
 50
184.57
 51
270.0
  0
ARC
  8
SOLID
 62
7
  6
CONTINUOUS
 10
138.7806324073
 20
210.4975165563
 40
1.0
 50
270.0
 51
355.43
  0
ARC
  8
SOLID
 62
7
  6
CONTINUOUS
 10
102.8271489726
 20
210.4975165563
 40
1.0
 50
184.57
 51
270.0
  0
ARC
  8
SOLID
 62
7
  6
CONTINUOUS
 10
105.1806324073
 20
210.4975165563
 40
1.0
 50
270.0
 51
355.43
  0
ARC
  8
SOLID
 62
7
  6
CONTINUOUS
 10
113.5806324073
 20
210.4975165563
 40
1.0
 50
270.0
 51
288.0095435992
  0
ARC
  8
SOLID
 62
7
  6
CONTINUOUS
 10
111.2271489726
 20
210.4975165563
 40
1.0
 50
251.9904564008
 51
270.0
  0
ARC
  8
SOLID
 62
7
  6
CONTINUOUS
 10
147.1806324073
 20
210.4975165563
 40
1.0
 50
270.0
 51
288.0095435992
  0
ARC
  8
SOLID
 62
7
  6
CONTINUOUS
 10
144.8271489726
 20
210.4975165563
 40
1.0
 50
251.9904564008
 51
270.0
  0
ARC
  8
SOLID
 62
7
  6
CONTINUOUS
 10
158.3187225331
 20
225.2975165563
 40
0.2
 50
344.05
 51
90.0
  0
ARC
  8
SOLID
 62
7
  6
CONTINUOUS
 10
150.4890588468
 20
225.2975165563
 40
0.2
 50
90.0
 51
195.95
  0
ARC
  8
SOLID
 62
7
  6
CONTINUOUS
 10
124.7187225331
 20
225.2975165563
 40
0.2
 50
344.05
 51
90.0
  0
ARC
  8
SOLID
 62
7
  6
CONTINUOUS
 10
116.8890588468
 20
225.2975165563
 40
0.2
 50
90.0
 51
195.95
  0
ARC
  8
SURFACE
 62
7
  6
CONTINUOUS
 10
91.1187225331
 20
225.2975165563
 40
0.2
 50
344.05
 51
90.0
  0
ARC
  8
SURFACE
 62
7
  6
CONTINUOUS
 10
83.2890588468
 20
225.2975165563
 40
0.2
 50
90.0
 51
195.95
  0
ARC
  8
SURFACE
 62
7
  6
CONTINUOUS
 10
74.3187225331
 20
225.2975165563
 40
0.2
 50
344.05
 51
90.0
  0
ARC
  8
SOLID
 62
7
  6
CONTINUOUS
 10
66.50389069
 20
225.2975165563
 40
0.2
 50
90.0
 51
180.0
  0
ARC
  8
SOLID
 62
7
  6
CONTINUOUS
 10
133.6890588468
 20
225.2975165563
 40
0.2
 50
90.0
 51
195.95
  0
ARC
  8
SOLID
 62
7
  6
CONTINUOUS
 10
141.5187225331
 20
225.2975165563
 40
0.2
 50
344.05
 51
90.0
  0
ARC
  8
SOLID
 62
7
  6
CONTINUOUS
 10
100.0890588468
 20
225.2975165563
 40
0.2
 50
90.0
 51
195.95
  0
ARC
  8
SOLID
 62
7
  6
CONTINUOUS
 10
107.9187225331
 20
225.2975165563
 40
0.2
 50
344.05
 51
90.0
  0
ARC
  8
0
 62
7
  6
CONTINUOUS
 10
239.5806324073
 20
210.4975165563
 40
1.0
 50
270.0
 51
278.1464641015
  0
ARC
  8
SOLID
 62
7
  6
CONTINUOUS
 10
237.2271489726
 20
210.4975165563
 40
1.0
 50
184.57
 51
270.0
  0
ARC
  8
SOLID
 62
7
  6
CONTINUOUS
 10
231.1806324073
 20
210.4975165563
 40
1.0
 50
270.0
 51
288.0095435992
  0
ARC
  8
SOLID
 62
7
  6
CONTINUOUS
 10
220.4271489726
 20
210.4975165563
 40
1.0
 50
184.57
 51
270.0
  0
ARC
  8
SOLID
 62
7
  6
CONTINUOUS
 10
222.7806324073
 20
210.4975165563
 40
1.0
 50
270.0
 51
355.43
  0
ARC
  8
SOLID
 62
7
  6
CONTINUOUS
 10
228.8271489726
 20
210.4975165563
 40
1.0
 50
251.9904564008
 51
270.0
  0
ARC
  8
SOLID
 62
7
  6
CONTINUOUS
 10
197.5806324073
 20
210.4975165563
 40
1.0
 50
270.0
 51
288.0095435992
  0
ARC
  8
SOLID
 62
7
  6
CONTINUOUS
 10
186.8271489726
 20
210.4975165563
 40
1.0
 50
184.57
 51
270.0
  0
ARC
  8
SOLID
 62
7
  6
CONTINUOUS
 10
189.1806324073
 20
210.4975165563
 40
1.0
 50
270.0
 51
355.43
  0
ARC
  8
SOLID
 62
7
  6
CONTINUOUS
 10
195.2271489726
 20
210.4975165563
 40
1.0
 50
251.9904564008
 51
270.0
  0
ARC
  8
SOLID
 62
7
  6
CONTINUOUS
 10
163.9806324073
 20
210.4975165563
 40
1.0
 50
270.0
 51
288.0095435992
  0
ARC
  8
SOLID
 62
7
  6
CONTINUOUS
 10
161.6271489726
 20
210.4975165563
 40
1.0
 50
251.9904564008
 51
270.0
  0
ARC
  8
SOLID
 62
7
  6
CONTINUOUS
 10
249.90389069
 20
210.5475165563
 40
1.0
 50
270.0
 51
360.0
  0
ARC
  8
SOLID
 62
7
  6
CONTINUOUS
 10
249.90389069
 20
210.4975165563
 40
1.0
 50
270.0
 51
360.0
  0
ARC
  8
SOLID
 62
7
  6
CONTINUOUS
 10
203.6271489726
 20
210.4975165563
 40
1.0
 50
184.57
 51
270.0
  0
ARC
  8
SOLID
 62
7
  6
CONTINUOUS
 10
205.9806324073
 20
210.4975165563
 40
1.0
 50
270.0
 51
355.43
  0
ARC
  8
SOLID
 62
7
  6
CONTINUOUS
 10
170.0271489726
 20
210.4975165563
 40
1.0
 50
184.57
 51
270.0
  0
ARC
  8
SOLID
 62
7
  6
CONTINUOUS
 10
172.3806324073
 20
210.4975165563
 40
1.0
 50
270.0
 51
355.43
  0
ARC
  8
SOLID
 62
7
  6
CONTINUOUS
 10
180.7806324073
 20
210.4975165563
 40
1.0
 50
270.0
 51
288.0095435992
  0
ARC
  8
SOLID
 62
7
  6
CONTINUOUS
 10
178.4271489726
 20
210.4975165563
 40
1.0
 50
251.9904564008
 51
270.0
  0
ARC
  8
SOLID
 62
7
  6
CONTINUOUS
 10
214.3806324073
 20
210.4975165563
 40
1.0
 50
270.0
 51
288.0095435992
  0
ARC
  8
SOLID
 62
7
  6
CONTINUOUS
 10
212.0271489726
 20
210.4975165563
 40
1.0
 50
251.9904564008
 51
270.0
  0
ARC
  8
SOLID
 62
7
  6
CONTINUOUS
 10
249.90389069
 20
218.4975165563
 40
1.0
 50
270.0
 51
360.0
  0
ARC
  8
SOLID
 62
7
  6
CONTINUOUS
 10
242.3187225331
 20
225.2975165563
 40
0.2
 50
344.05
 51
90.0
  0
ARC
  8
SOLID
 62
7
  6
CONTINUOUS
 10
234.4890588468
 20
225.2975165563
 40
0.2
 50
90.0
 51
195.95
  0
ARC
  8
SOLID
 62
7
  6
CONTINUOUS
 10
225.5187225331
 20
225.2975165563
 40
0.2
 50
344.05
 51
90.0
  0
ARC
  8
SOLID
 62
7
  6
CONTINUOUS
 10
217.6890588468
 20
225.2975165563
 40
0.2
 50
90.0
 51
195.95
  0
ARC
  8
SOLID
 62
7
  6
CONTINUOUS
 10
191.9187225331
 20
225.2975165563
 40
0.2
 50
344.05
 51
90.0
  0
ARC
  8
SOLID
 62
7
  6
CONTINUOUS
 10
184.0890588468
 20
225.2975165563
 40
0.2
 50
90.0
 51
195.95
  0
ARC
  8
SOLID
 62
7
  6
CONTINUOUS
 10
250.70389069
 20
225.2975165563
 40
0.2
 50
0.0
 51
90.0
  0
ARC
  8
SOLID
 62
7
  6
CONTINUOUS
 10
200.8890588468
 20
225.2975165563
 40
0.2
 50
90.0
 51
195.95
  0
ARC
  8
SOLID
 62
7
  6
CONTINUOUS
 10
208.7187225331
 20
225.2975165563
 40
0.2
 50
344.05
 51
90.0
  0
ARC
  8
SOLID
 62
7
  6
CONTINUOUS
 10
167.2890588468
 20
225.2975165563
 40
0.2
 50
90.0
 51
195.95
  0
ARC
  8
SOLID
 62
7
  6
CONTINUOUS
 10
175.1187225331
 20
225.2975165563
 40
0.2
 50
344.05
 51
90.0
  0
ENDSEC
  0
EOF
