  0
SECTION
  2
HEADER
  9
$EXTMAX
 10
210.0
 20
297.0
 30
0.0
  9
$EXTMIN
 10
0.0
 20
0.0
 30
0.0
  9
$LIMMIN
 10
0.0
 20
0.0
  9
$LIMMAX
 10
210.0
 20
297.0
  9
$VIEWCTR
 10
105.0
 20
148.5
  9
$VIEWSIZE
 40
297.0
  9
$CLAYER
  8
0
  9
$LTSCALE
 40
19.36
  9
$CELTYPE
  6
BYLAYER
  9
$DIMSCALE
 40
1.0
  9
$DIMASZ
 40
3.5
  9
$DIMEXO
 40
2.2
  9
$DIMDLI
 40
13.376
  9
$DIMEXE
 40
6.336
  9
$DIMCEN
 40
3.168
  9
$DIMLFAC
 40
1.0
  9
$DIMBLK
  1
_FILLED
  9
$DIMTXT
 40
3.5
  9
$PDMODE
 70
3
  9
$PDSIZE
 40
0.3125
  9
$TILEMODE
 70
1
  0
ENDSEC
  0
SECTION
  2
TABLES
  0
TABLE
  2
LTYPE
 70
6
  0
LTYPE
  2
BYBLOCK
 70
0
  3

 72
65
 73
0
 40
0.0
  0
LTYPE
  2
BYLAYER
 70
0
  3

 72
65
 73
0
 40
0.0
  0
LTYPE
  2
CONTINUOUS
 70
64
  3
Solid line
 72
65
 73
0
 40
0.0
  0
LTYPE
  2
CENTER
 70
64
  3
____ _ ____ _ ____ _ ____ _ ____ _ ____ _ ____
 72
65
 73
4
 40
0.6
 49
0.375
 49
-0.075
 49
0.075
 49
-0.075
  0
LTYPE
  2
HIDDEN
 70
64
  3
- - - - - - - - - - - - - - - - - - - -
 72
65
 73
2
 40
0.2
 49
0.1
 49
-0.1
  0
LTYPE
  2
PHANTOM
 70
64
  3
_____ _ _ _____ _ _ _____ _ _ _____
 72
65
 73
6
 40
0.8
 49
0.45
 49
-0.05
 49
0.1
 49
-0.05
 49
0.1
 49
-0.05
  0
LTYPE
  2
DOT
 70
64
  3
. . . . . . . . . . . . . . . . . . . .
 72
65
 73
2
 40
0.2
 49
0.1
 49
-0.1
  0
LTYPE
  2
DASHED
 70
64
  3
- - - - - - - - - - - - - - - - - - - -
 72
65
 73
2
 40
0.2
 49
0.1
 49
-0.1
  0
ENDTAB
  0
TABLE
  2
LAYER
 70
36
  0
LAYER
  2
0
 70
0
 62
7
  6
CONTINUOUS
  0
LAYER
  2
DEFAULT_1
 70
0
 62
7
  6
CENTER
  0
LAYER
  2
DEFAULT_2
 70
0
 62
8
  6
HIDDEN
  0
LAYER
  2
DEFAULT_3
 70
0
 62
7
  6
PHANTOM
  0
LAYER
  2
6_NOTE
 70
0
 62
7
  6
CONTINUOUS
  0
LAYER
  2
BLANK_PLAN
 70
0
 62
7
  6
CONTINUOUS
  0
LAYER
  2
NOTES
 70
0
 62
7
  6
CONTINUOUS
  0
ENDTAB
  0
TABLE
  2
STYLE
 70
1
  0
STYLE
  2
STANDARD
 70
0
 40
0.0
 41
0.8
 50
0.0
 71
0
 42
0.2
  3
txt
  4

  0
STYLE
  2
TEXTSTYLE_1
 70
0
 40
0.0
 41
0.8
 50
0.0
 71
0
 42
0.2
  3
gdt
  4

  0
STYLE
  2
TEXTSTYLE_2
 70
0
 40
0.0
 41
0.6
 50
0.0
 71
0
 42
0.2
  3
txt
  4

  0
STYLE
  2
TEXTSTYLE_3
 70
0
 40
0.0
 41
1.0
 50
0.0
 71
0
 42
0.2
  3
ftb_____.ttf
  4

  0
STYLE
  2
TEXTSTYLE_4
 70
0
 40
0.0
 41
1.0
 50
0.0
 71
0
 42
0.2
  3
fti_____.ttf
  4

  0
STYLE
  2
TEXTSTYLE_5
 70
0
 40
0.0
 41
1.0
 50
0.0
 71
0
 42
0.2
  3
frutiger light.ttf
  4

  0
STYLE
  2
TEXTSTYLE_6
 70
0
 40
0.0
 41
0.7
 50
0.0
 71
0
 42
0.2
  3
txt
  4

  0
STYLE
  2
TEXTSTYLE_7
 70
0
 40
0.0
 41
0.8
 50
0.0
 71
0
 42
0.2
  3
txt
  4

  0
ENDTAB
  0
ENDSEC
  0
SECTION
  2
BLOCKS
  0
BLOCK
  8
0
 62
2
  6
CONTINUOUS
  2
SYMBOL_8_BL1
 70
64
 10
173.5956734183
 20
35.5937998301
  0
TEXT
  8
0
 62
7
  6
CONTINUOUS
 10
164.6539584268
 20
30.6865562072
  7
TEXTSTYLE_4
 40
1.0655737705
  1
The brand for plastic modular belts and chains
 41
1.0
 72
0
  0
LINE
  8
0
 62
7
  6
CONTINUOUS
 10
149.5737418074
 20
36.1675703219
 11
149.5737418074
 21
34.0364227809
  0
LINE
  8
0
 62
7
  6
CONTINUOUS
 10
149.8628043005
 20
31.0454914852
 11
149.8628043005
 21
31.1422825445
  0
LINE
  8
0
 62
7
  6
CONTINUOUS
 10
149.5737418074
 20
31.1100188581
 11
149.6315543091
 21
30.9164367395
  0
LINE
  8
0
 62
7
  6
CONTINUOUS
 10
150.9671844304
 20
33.9544555678
 11
150.9671844304
 21
36.1675703219
  0
LINE
  8
0
 62
7
  6
CONTINUOUS
 10
151.8862417523
 20
32.1101932727
 11
151.8862417523
 21
30.5937998301
  0
LINE
  8
0
 62
7
  6
CONTINUOUS
 10
152.1753043074
 20
30.5937998301
 11
152.1753043074
 21
31.3358647082
  0
LINE
  8
0
 62
7
  6
CONTINUOUS
 10
152.1753043074
 20
31.4649194539
 11
152.1753043074
 21
32.1101932727
  0
LINE
  8
0
 62
7
  6
CONTINUOUS
 10
149.6315543091
 20
31.3036010218
 11
149.5737418074
 21
31.1100188581
  0
LINE
  8
0
 62
7
  6
CONTINUOUS
 10
149.9784292936
 20
30.8841730531
 11
149.8628043005
 21
31.0454914852
  0
LINE
  8
0
 62
7
  6
CONTINUOUS
 10
151.0768668626
 20
31.400392081
 11
151.1346793074
 21
31.3036010218
  0
LINE
  8
0
 62
7
  6
CONTINUOUS
 10
151.4237418626
 20
31.3036010218
 11
151.3659292523
 21
31.4326557675
  0
LINE
  8
0
 62
7
  6
CONTINUOUS
 10
152.852430332
 20
36.1675703219
 11
152.852430332
 21
34.3642916334
  0
LINE
  8
0
 62
7
  6
CONTINUOUS
 10
152.852430332
 20
33.0528162235
 11
152.852430332
 21
32.3970785186
  0
LINE
  8
0
 62
7
  6
CONTINUOUS
 10
153.2159293074
 20
31.2390736489
 11
153.2159293074
 21
30.5937998301
  0
LINE
  8
0
 62
7
  6
CONTINUOUS
 10
153.5049916972
 20
30.5937998301
 11
153.5049916972
 21
31.2390736489
  0
LINE
  8
0
 62
7
  6
CONTINUOUS
 10
149.8628043005
 20
31.1422825445
 11
149.9206168074
 21
31.2713373354
  0
LINE
  8
0
 62
7
  6
CONTINUOUS
 10
149.6315543091
 20
30.9164367395
 11
149.7471793074
 21
30.7873819712
  0
LINE
  8
0
 62
7
  6
CONTINUOUS
 10
153.1581166972
 20
31.3681283946
 11
153.2159293074
 21
31.2390736489
  0
LINE
  8
0
 62
7
  6
CONTINUOUS
 10
153.9674919177
 20
30.8841730531
 11
154.0253041972
 21
30.7551182848
  0
LINE
  8
0
 62
7
  6
CONTINUOUS
 10
153.5049916972
 20
31.2390736489
 11
153.4471794177
 21
31.400392081
  0
LINE
  8
0
 62
7
  6
CONTINUOUS
 10
153.9674919177
 20
31.4326557675
 11
153.9674919177
 21
31.3681283946
  0
LINE
  8
0
 62
7
  6
CONTINUOUS
 10
153.9674919177
 20
30.9809641124
 11
153.9674919177
 21
30.8841730531
  0
LINE
  8
0
 62
7
  6
CONTINUOUS
 10
154.245872955
 20
32.3970785186
 11
154.245872955
 21
36.1675703219
  0
LINE
  8
0
 62
7
  6
CONTINUOUS
 10
154.2565543074
 20
30.8519093441
 11
154.2565543074
 21
30.9164367395
  0
LINE
  8
0
 62
7
  6
CONTINUOUS
 10
154.5737418074
 20
36.1675703219
 11
154.5737418074
 21
32.3970785186
  0
LINE
  8
0
 62
7
  6
CONTINUOUS
 10
151.3659292523
 20
30.7873819712
 11
151.4237418626
 21
30.9164367395
  0
LINE
  8
0
 62
7
  6
CONTINUOUS
 10
155.759679528
 20
30.6905909007
 11
155.7018665869
 21
30.8519093441
  0
LINE
  8
0
 62
7
  6
CONTINUOUS
 10
155.412804528
 20
31.3681283946
 11
155.412804528
 21
31.2713373354
  0
LINE
  8
0
 62
7
  6
CONTINUOUS
 10
155.412804528
 20
31.1422825445
 11
155.412804528
 21
30.9487004259
  0
LINE
  8
0
 62
7
  6
CONTINUOUS
 10
155.7018665869
 20
30.8519093441
 11
155.7018665869
 21
31.3681283946
  0
LINE
  8
0
 62
7
  6
CONTINUOUS
 10
155.9671844304
 20
32.3970785186
 11
155.9671844304
 21
34.2003572071
  0
LINE
  8
0
 62
7
  6
CONTINUOUS
 10
155.9671844304
 20
35.511832617
 11
155.9671844304
 21
36.1675703219
  0
LINE
  8
0
 62
7
  6
CONTINUOUS
 10
156.279992028
 20
32.1101932727
 11
156.279992028
 21
31.9488748406
  0
LINE
  8
0
 62
7
  6
CONTINUOUS
 10
156.279992028
 20
31.626237886
 11
156.279992028
 21
30.5937998301
  0
LINE
  8
0
 62
7
  6
CONTINUOUS
 10
156.5690540869
 20
30.5937998301
 11
156.5690540869
 21
31.626237886
  0
LINE
  8
0
 62
7
  6
CONTINUOUS
 10
156.5690540869
 20
31.9488748406
 11
156.5690540869
 21
32.1101932727
  0
LINE
  8
0
 62
7
  6
CONTINUOUS
 10
151.1346793074
 20
30.9164367395
 11
151.0768668626
 21
30.8196456577
  0
LINE
  8
0
 62
7
  6
CONTINUOUS
 10
153.4471794177
 20
31.400392081
 11
153.3893668074
 21
31.4649194539
  0
LINE
  8
0
 62
7
  6
CONTINUOUS
 10
154.3143669177
 20
30.7873819712
 11
154.2565543074
 21
30.8519093441
  0
LINE
  8
0
 62
7
  6
CONTINUOUS
 10
155.4706168074
 20
30.6583272086
 11
155.5284290869
 21
30.5937998301
  0
LINE
  8
0
 62
7
  6
CONTINUOUS
 10
155.412804528
 20
30.7551182848
 11
155.4706168074
 21
30.6583272086
  0
LINE
  8
0
 62
7
  6
CONTINUOUS
 10
155.8174918074
 20
30.5937998301
 11
155.759679528
 21
30.6905909007
  0
LINE
  8
0
 62
7
  6
CONTINUOUS
 10
155.7018665869
 20
31.3681283946
 11
155.6440543074
 21
31.4649194539
  0
LINE
  8
0
 62
7
  6
CONTINUOUS
 10
157.0315543074
 20
31.626237886
 11
157.0315543074
 21
30.5937998301
  0
LINE
  8
0
 62
7
  6
CONTINUOUS
 10
157.320617028
 20
30.5937998301
 11
157.320617028
 21
31.3358647082
  0
LINE
  8
0
 62
7
  6
CONTINUOUS
 10
157.320617028
 20
31.4649194539
 11
157.320617028
 21
31.626237886
  0
LINE
  8
0
 62
7
  6
CONTINUOUS
 10
157.852430332
 20
34.6101932727
 11
157.852430332
 21
32.3970785186
  0
LINE
  8
0
 62
7
  6
CONTINUOUS
 10
149.7471793074
 20
31.4326557675
 11
149.6315543091
 21
31.3036010218
  0
LINE
  8
0
 62
7
  6
CONTINUOUS
 10
149.9206168074
 20
31.2713373354
 11
149.9784292936
 21
31.3358647082
  0
LINE
  8
0
 62
7
  6
CONTINUOUS
 10
149.7471793074
 20
30.7873819712
 11
149.8628043005
 21
30.7228545871
  0
LINE
  8
0
 62
7
  6
CONTINUOUS
 10
150.1518667936
 20
30.7873819712
 11
149.9784292936
 21
30.8841730531
  0
LINE
  8
0
 62
7
  6
CONTINUOUS
 10
155.3549915869
 20
31.4326557675
 11
155.412804528
 21
31.3681283946
  0
LINE
  8
0
 62
7
  6
CONTINUOUS
 10
158.3034290869
 20
31.3681283946
 11
158.361242028
 21
31.2068099625
  0
LINE
  8
0
 62
7
  6
CONTINUOUS
 10
158.6503040869
 20
31.2068099625
 11
158.5924918074
 21
31.3681283946
  0
LINE
  8
0
 62
7
  6
CONTINUOUS
 10
158.361242028
 20
31.2068099625
 11
158.361242028
 21
30.5937998301
  0
LINE
  8
0
 62
7
  6
CONTINUOUS
 10
158.6503040869
 20
30.5937998301
 11
158.6503040869
 21
31.2068099625
  0
LINE
  8
0
 62
7
  6
CONTINUOUS
 10
159.1128043074
 20
31.4326557675
 11
159.1128043074
 21
31.3681283946
  0
LINE
  8
0
 62
7
  6
CONTINUOUS
 10
159.245872955
 20
32.3970785186
 11
159.245872955
 21
34.5282260596
  0
LINE
  8
0
 62
7
  6
CONTINUOUS
 10
159.5737418074
 20
36.1675703219
 11
159.5737418074
 21
32.3970785186
  0
LINE
  8
0
 62
7
  6
CONTINUOUS
 10
154.2565543074
 20
30.9164367395
 11
154.3143669177
 21
31.0132277988
  0
LINE
  8
0
 62
7
  6
CONTINUOUS
 10
149.8628043005
 20
30.7228545871
 11
150.0362418212
 21
30.6583272086
  0
LINE
  8
0
 62
7
  6
CONTINUOUS
 10
151.3659292523
 20
31.4326557675
 11
151.1924917523
 21
31.5294468267
  0
LINE
  8
0
 62
7
  6
CONTINUOUS
 10
154.0253041972
 20
30.7551182848
 11
154.1987416972
 21
30.6583272086
  0
LINE
  8
0
 62
7
  6
CONTINUOUS
 10
153.0424918074
 20
31.4326557675
 11
153.1581166972
 21
31.3681283946
  0
LINE
  8
0
 62
7
  6
CONTINUOUS
 10
153.3893668074
 20
31.4649194539
 11
153.2737419177
 21
31.5294468267
  0
LINE
  8
0
 62
7
  6
CONTINUOUS
 10
159.1128043074
 20
30.8519093441
 11
159.228429528
 21
30.7228545871
  0
LINE
  8
0
 62
7
  6
CONTINUOUS
 10
159.4596793074
 20
30.7873819712
 11
159.401867028
 21
30.8519093441
  0
LINE
  8
0
 62
7
  6
CONTINUOUS
 10
159.1128043074
 20
31.3681283946
 11
159.228429528
 21
31.2390736489
  0
LINE
  8
0
 62
7
  6
CONTINUOUS
 10
158.5924918074
 20
31.3681283946
 11
158.534679528
 21
31.4649194539
  0
LINE
  8
0
 62
7
  6
CONTINUOUS
 10
160.9628038663
 20
30.7873819712
 11
160.9628038663
 21
30.8519093441
  0
LINE
  8
0
 62
7
  6
CONTINUOUS
 10
160.9671844304
 20
32.3970785186
 11
160.9671844304
 21
36.1675703219
  0
LINE
  8
0
 62
7
  6
CONTINUOUS
 10
154.0253041972
 20
31.4971831403
 11
153.9674919177
 21
31.4326557675
  0
LINE
  8
0
 62
7
  6
CONTINUOUS
 10
150.9034292799
 20
31.4649194539
 11
151.0768668626
 21
31.400392081
  0
LINE
  8
0
 62
7
  6
CONTINUOUS
 10
155.6440543074
 20
31.4649194539
 11
155.5284290869
 21
31.5294468267
  0
LINE
  8
0
 62
7
  6
CONTINUOUS
 10
159.4596793074
 20
31.3036010218
 11
159.401867028
 21
31.3681283946
  0
LINE
  8
0
 62
7
  6
CONTINUOUS
 10
160.615929528
 20
30.9164367395
 11
160.6737418074
 21
30.8519093441
  0
LINE
  8
0
 62
7
  6
CONTINUOUS
 10
160.9628038663
 20
30.8519093441
 11
160.8471793074
 21
30.9809641124
  0
LINE
  8
0
 62
7
  6
CONTINUOUS
 10
160.615929528
 20
31.4326557675
 11
160.6737418074
 21
31.3681283946
  0
LINE
  8
0
 62
7
  6
CONTINUOUS
 10
160.9628038663
 20
31.3681283946
 11
160.8471793074
 21
31.4971831403
  0
LINE
  8
0
 62
7
  6
CONTINUOUS
 10
154.2565543074
 20
31.3681283946
 11
154.3143669177
 21
31.4326557675
  0
LINE
  8
0
 62
7
  6
CONTINUOUS
 10
154.0831168074
 20
31.1100188581
 11
153.9674919177
 21
30.9809641124
  0
LINE
  8
0
 62
7
  6
CONTINUOUS
 10
155.412804528
 20
30.9487004259
 11
155.3549915869
 21
30.8841730531
  0
LINE
  8
0
 62
7
  6
CONTINUOUS
 10
155.3549915869
 20
30.6905909007
 11
155.412804528
 21
30.7551182848
  0
LINE
  8
0
 62
7
  6
CONTINUOUS
 10
154.1987416972
 20
30.6583272086
 11
154.3143669177
 21
30.6260635193
  0
LINE
  8
0
 62
7
  6
CONTINUOUS
 10
151.1924917523
 20
31.5294468267
 11
150.9612418074
 21
31.5939741996
  0
LINE
  8
0
 62
7
  6
CONTINUOUS
 10
154.5456166972
 20
30.7228545871
 11
154.3143669177
 21
30.7873819712
  0
LINE
  8
0
 62
7
  6
CONTINUOUS
 10
153.2737419177
 20
31.5294468267
 11
153.1003044177
 21
31.5939741996
  0
LINE
  8
0
 62
7
  6
CONTINUOUS
 10
155.5284290869
 20
31.5294468267
 11
155.3549915869
 21
31.5939741996
  0
LINE
  8
0
 62
7
  6
CONTINUOUS
 10
158.187804528
 20
31.4326557675
 11
158.3034290869
 21
31.3681283946
  0
LINE
  8
0
 62
7
  6
CONTINUOUS
 10
158.534679528
 20
31.4649194539
 11
158.4190543074
 21
31.5294468267
  0
LINE
  8
0
 62
7
  6
CONTINUOUS
 10
150.0362418212
 20
30.6583272086
 11
150.2096793212
 21
30.6260635193
  0
LINE
  8
0
 62
7
  6
CONTINUOUS
 10
150.498741835
 20
30.7228545871
 11
150.1518667936
 21
30.7873819712
  0
LINE
  8
0
 62
7
  6
CONTINUOUS
 10
152.9268669177
 20
31.4649194539
 11
153.0424918074
 21
31.4326557675
  0
LINE
  8
0
 62
7
  6
CONTINUOUS
 10
155.239367028
 20
31.4649194539
 11
155.3549915869
 21
31.4326557675
  0
LINE
  8
0
 62
7
  6
CONTINUOUS
 10
159.575304528
 20
30.7551182848
 11
159.4596793074
 21
30.7873819712
  0
LINE
  8
0
 62
7
  6
CONTINUOUS
 10
158.0721793074
 20
31.4649194539
 11
158.187804528
 21
31.4326557675
  0
LINE
  8
0
 62
7
  6
CONTINUOUS
 10
159.228429528
 20
30.7228545871
 11
159.401867028
 21
30.6583272086
  0
LINE
  8
0
 62
7
  6
CONTINUOUS
 10
158.4190543074
 20
31.5294468267
 11
158.2456168074
 21
31.5939741996
  0
LINE
  8
0
 62
7
  6
CONTINUOUS
 10
159.6331168074
 20
31.2390736489
 11
159.4596793074
 21
31.3036010218
  0
LINE
  8
0
 62
7
  6
CONTINUOUS
 10
160.442492028
 20
30.9809641124
 11
160.615929528
 21
30.9164367395
  0
LINE
  8
0
 62
7
  6
CONTINUOUS
 10
160.8471793074
 20
31.4971831403
 11
160.6737418074
 21
31.5617105132
  0
LINE
  8
0
 62
7
  6
CONTINUOUS
 10
159.228429528
 20
31.2390736489
 11
159.4596793074
 21
31.1422825445
  0
LINE
  8
0
 62
7
  6
CONTINUOUS
 10
160.8471793074
 20
30.9809641124
 11
160.615929528
 21
31.0777551716
  0
LINE
  8
0
 62
7
  6
CONTINUOUS
 10
159.401867028
 20
31.3681283946
 11
159.4596793074
 21
31.4326557675
  0
LINE
  8
0
 62
7
  6
CONTINUOUS
 10
149.8628043005
 20
31.4971831403
 11
149.7471793074
 21
31.4326557675
  0
LINE
  8
0
 62
7
  6
CONTINUOUS
 10
149.9784292936
 20
31.3358647082
 11
150.1518667936
 21
31.4326557675
  0
LINE
  8
0
 62
7
  6
CONTINUOUS
 10
152.2909293626
 20
31.5294468267
 11
152.1753043074
 21
31.4649194539
  0
LINE
  8
0
 62
7
  6
CONTINUOUS
 10
152.1753043074
 20
31.3358647082
 11
152.2909293626
 21
31.400392081
  0
LINE
  8
0
 62
7
  6
CONTINUOUS
 10
151.1924917523
 20
30.6905909007
 11
151.3659292523
 21
30.7873819712
  0
LINE
  8
0
 62
7
  6
CONTINUOUS
 10
150.2096793212
 20
30.6260635193
 11
150.5565542799
 21
30.5937998301
  0
LINE
  8
0
 62
7
  6
CONTINUOUS
 10
154.3143669177
 20
30.6260635193
 11
154.5456166972
 21
30.5937998301
  0
LINE
  8
0
 62
7
  6
CONTINUOUS
 10
152.6956168074
 20
31.4971831403
 11
152.9268669177
 21
31.4649194539
  0
LINE
  8
0
 62
7
  6
CONTINUOUS
 10
155.0081169177
 20
31.4971831403
 11
155.239367028
 21
31.4649194539
  0
LINE
  8
0
 62
7
  6
CONTINUOUS
 10
159.4596793074
 20
31.1422825445
 11
160.442492028
 21
30.9809641124
  0
LINE
  8
0
 62
7
  6
CONTINUOUS
 10
160.615929528
 20
31.0777551716
 11
159.6331168074
 21
31.2390736489
  0
LINE
  8
0
 62
7
  6
CONTINUOUS
 10
153.1003044177
 20
31.5939741996
 11
152.9268669177
 21
31.626237886
  0
LINE
  8
0
 62
7
  6
CONTINUOUS
 10
159.401867028
 20
30.6583272086
 11
159.575304528
 21
30.6260635193
  0
LINE
  8
0
 62
7
  6
CONTINUOUS
 10
158.2456168074
 20
31.5939741996
 11
158.0721793074
 21
31.626237886
  0
LINE
  8
0
 62
7
  6
CONTINUOUS
 10
160.5003043074
 20
31.4649194539
 11
160.615929528
 21
31.4326557675
  0
LINE
  8
0
 62
7
  6
CONTINUOUS
 10
160.6737418074
 20
30.8519093441
 11
160.615929528
 21
30.7873819712
  0
LINE
  8
0
 62
7
  6
CONTINUOUS
 10
159.228429528
 20
31.5294468267
 11
159.1128043074
 21
31.4326557675
  0
LINE
  8
0
 62
7
  6
CONTINUOUS
 10
154.1409294177
 20
31.5617105132
 11
154.0253041972
 21
31.4971831403
  0
LINE
  8
0
 62
7
  6
CONTINUOUS
 10
154.1987416972
 20
31.1745462761
 11
154.0831168074
 21
31.1100188581
  0
LINE
  8
0
 62
7
  6
CONTINUOUS
 10
154.3143669177
 20
31.0132277988
 11
154.4299918074
 21
31.0777551716
  0
LINE
  8
0
 62
7
  6
CONTINUOUS
 10
151.8862417523
 20
30.5937998301
 11
152.1753043074
 21
30.5937998301
  0
LINE
  8
0
 62
7
  6
CONTINUOUS
 10
153.2159293074
 20
30.5937998301
 11
153.5049916972
 21
30.5937998301
  0
LINE
  8
0
 62
7
  6
CONTINUOUS
 10
154.5456166972
 20
30.5937998301
 11
154.8924916972
 21
30.5937998301
  0
LINE
  8
0
 62
7
  6
CONTINUOUS
 10
155.5284290869
 20
30.5937998301
 11
155.8174918074
 21
30.5937998301
  0
LINE
  8
0
 62
7
  6
CONTINUOUS
 10
156.279992028
 20
30.5937998301
 11
156.5690540869
 21
30.5937998301
  0
LINE
  8
0
 62
7
  6
CONTINUOUS
 10
157.0315543074
 20
30.5937998301
 11
157.320617028
 21
30.5937998301
  0
LINE
  8
0
 62
7
  6
CONTINUOUS
 10
158.361242028
 20
30.5937998301
 11
158.6503040869
 21
30.5937998301
  0
LINE
  8
0
 62
7
  6
CONTINUOUS
 10
159.922179528
 20
30.5937998301
 11
160.269054528
 21
30.5937998301
  0
LINE
  8
0
 62
7
  6
CONTINUOUS
 10
160.269054528
 20
30.7228545871
 11
159.922179528
 21
30.7228545871
  0
LINE
  8
0
 62
7
  6
CONTINUOUS
 10
154.8924916972
 20
30.7228545871
 11
154.5456166972
 21
30.7228545871
  0
LINE
  8
0
 62
7
  6
CONTINUOUS
 10
159.401867028
 20
30.8519093441
 11
159.1128043074
 21
30.8519093441
  0
LINE
  8
0
 62
7
  6
CONTINUOUS
 10
151.4237418626
 20
30.9164367395
 11
151.1346793074
 21
30.9164367395
  0
LINE
  8
0
 62
7
  6
CONTINUOUS
 10
150.498741835
 20
31.4971831403
 11
150.9034292799
 21
31.4649194539
  0
LINE
  8
0
 62
7
  6
CONTINUOUS
 10
150.9612418074
 20
31.5939741996
 11
150.5565542799
 21
31.626237886
  0
LINE
  8
0
 62
7
  6
CONTINUOUS
 10
159.575304528
 20
30.6260635193
 11
159.922179528
 21
30.5937998301
  0
LINE
  8
0
 62
7
  6
CONTINUOUS
 10
159.922179528
 20
30.7228545871
 11
159.575304528
 21
30.7551182848
  0
LINE
  8
0
 62
7
  6
CONTINUOUS
 10
155.3549915869
 20
31.5939741996
 11
155.0081169177
 21
31.626237886
  0
LINE
  8
0
 62
7
  6
CONTINUOUS
 10
160.1534293074
 20
31.4971831403
 11
160.5003043074
 21
31.4649194539
  0
LINE
  8
0
 62
7
  6
CONTINUOUS
 10
160.5003043074
 20
31.5939741996
 11
160.1534293074
 21
31.626237886
  0
LINE
  8
0
 62
7
  6
CONTINUOUS
 10
157.840929528
 20
31.4971831403
 11
158.0721793074
 21
31.4649194539
  0
LINE
  8
0
 62
7
  6
CONTINUOUS
 10
160.6737418074
 20
31.5617105132
 11
160.5003043074
 21
31.5939741996
  0
LINE
  8
0
 62
7
  6
CONTINUOUS
 10
160.8471793074
 20
30.6905909007
 11
160.9628038663
 21
30.7873819712
  0
LINE
  8
0
 62
7
  6
CONTINUOUS
 10
155.3549915869
 20
30.8841730531
 11
155.1815540869
 21
30.7873819712
  0
LINE
  8
0
 62
7
  6
CONTINUOUS
 10
157.4362415869
 20
31.5294468267
 11
157.320617028
 21
31.4649194539
  0
LINE
  8
0
 62
7
  6
CONTINUOUS
 10
157.320617028
 20
31.3358647082
 11
157.4362415869
 21
31.400392081
  0
LINE
  8
0
 62
7
  6
CONTINUOUS
 10
150.0362418212
 20
31.5617105132
 11
149.8628043005
 21
31.4971831403
  0
LINE
  8
0
 62
7
  6
CONTINUOUS
 10
152.4643666972
 20
31.5939741996
 11
152.2909293626
 21
31.5294468267
  0
LINE
  8
0
 62
7
  6
CONTINUOUS
 10
152.2909293626
 20
31.400392081
 11
152.4643666972
 21
31.4649194539
  0
LINE
  8
0
 62
7
  6
CONTINUOUS
 10
151.0768668626
 20
30.8196456577
 11
150.9034292799
 21
30.7551182848
  0
LINE
  8
0
 62
7
  6
CONTINUOUS
 10
160.5003043074
 20
30.7551182848
 11
160.269054528
 21
30.7228545871
  0
LINE
  8
0
 62
7
  6
CONTINUOUS
 10
154.8924916972
 20
30.5937998301
 11
155.1815540869
 21
30.6260635193
  0
LINE
  8
0
 62
7
  6
CONTINUOUS
 10
160.269054528
 20
30.5937998301
 11
160.615929528
 21
30.6260635193
  0
LINE
  8
0
 62
7
  6
CONTINUOUS
 10
150.5565542799
 20
30.5937998301
 11
150.9612418074
 21
30.6260635193
  0
LINE
  8
0
 62
7
  6
CONTINUOUS
 10
150.9034292799
 20
30.7551182848
 11
150.498741835
 21
30.7228545871
  0
LINE
  8
0
 62
7
  6
CONTINUOUS
 10
154.7768668074
 20
31.1422825445
 11
155.412804528
 21
31.1422825445
  0
LINE
  8
0
 62
7
  6
CONTINUOUS
 10
155.412804528
 20
31.2713373354
 11
154.7768668074
 21
31.2713373354
  0
LINE
  8
0
 62
7
  6
CONTINUOUS
 10
151.1346793074
 20
31.3036010218
 11
151.4237418626
 21
31.3036010218
  0
LINE
  8
0
 62
7
  6
CONTINUOUS
 10
153.9674919177
 20
31.3681283946
 11
154.2565543074
 21
31.3681283946
  0
LINE
  8
0
 62
7
  6
CONTINUOUS
 10
160.6737418074
 20
31.3681283946
 11
160.9628038663
 21
31.3681283946
  0
LINE
  8
0
 62
7
  6
CONTINUOUS
 10
154.6612419177
 20
31.4971831403
 11
155.0081169177
 21
31.4971831403
  0
LINE
  8
0
 62
7
  6
CONTINUOUS
 10
159.8065543074
 20
31.4971831403
 11
160.1534293074
 21
31.4971831403
  0
LINE
  8
0
 62
7
  6
CONTINUOUS
 10
160.1534293074
 20
31.626237886
 11
159.8065543074
 21
31.626237886
  0
LINE
  8
0
 62
7
  6
CONTINUOUS
 10
158.0721793074
 20
31.626237886
 11
157.840929528
 21
31.626237886
  0
LINE
  8
0
 62
7
  6
CONTINUOUS
 10
157.320617028
 20
31.626237886
 11
157.0315543074
 21
31.626237886
  0
LINE
  8
0
 62
7
  6
CONTINUOUS
 10
156.5690540869
 20
31.626237886
 11
156.279992028
 21
31.626237886
  0
LINE
  8
0
 62
7
  6
CONTINUOUS
 10
155.0081169177
 20
31.626237886
 11
154.6612419177
 21
31.626237886
  0
LINE
  8
0
 62
7
  6
CONTINUOUS
 10
152.9268669177
 20
31.626237886
 11
152.6956168074
 21
31.626237886
  0
LINE
  8
0
 62
7
  6
CONTINUOUS
 10
156.279992028
 20
31.9488748406
 11
156.5690540869
 21
31.9488748406
  0
LINE
  8
0
 62
7
  6
CONTINUOUS
 10
156.5690540869
 20
32.1101932727
 11
156.279992028
 21
32.1101932727
  0
LINE
  8
0
 62
7
  6
CONTINUOUS
 10
152.1753043074
 20
32.1101932727
 11
151.8862417523
 21
32.1101932727
  0
LINE
  8
0
 62
7
  6
CONTINUOUS
 10
151.2130860697
 20
32.3970785186
 11
151.6256574183
 21
32.3970785186
  0
LINE
  8
0
 62
7
  6
CONTINUOUS
 10
152.852430332
 20
32.3970785186
 11
154.245872955
 21
32.3970785186
  0
LINE
  8
0
 62
7
  6
CONTINUOUS
 10
154.5737418074
 20
32.3970785186
 11
155.9671844304
 21
32.3970785186
  0
LINE
  8
0
 62
7
  6
CONTINUOUS
 10
157.852430332
 20
32.3970785186
 11
159.245872955
 21
32.3970785186
  0
LINE
  8
0
 62
7
  6
CONTINUOUS
 10
159.5737418074
 20
32.3970785186
 11
160.9671844304
 21
32.3970785186
  0
LINE
  8
0
 62
7
  6
CONTINUOUS
 10
157.6096790869
 20
31.5939741996
 11
157.4362415869
 21
31.5294468267
  0
LINE
  8
0
 62
7
  6
CONTINUOUS
 10
155.1815540869
 20
30.6260635193
 11
155.3549915869
 21
30.6905909007
  0
LINE
  8
0
 62
7
  6
CONTINUOUS
 10
160.615929528
 20
30.6260635193
 11
160.8471793074
 21
30.6905909007
  0
LINE
  8
0
 62
7
  6
CONTINUOUS
 10
160.615929528
 20
30.7873819712
 11
160.5003043074
 21
30.7551182848
  0
LINE
  8
0
 62
7
  6
CONTINUOUS
 10
159.575304528
 20
31.4649194539
 11
159.8065543074
 21
31.4971831403
  0
LINE
  8
0
 62
7
  6
CONTINUOUS
 10
157.6096790869
 20
31.4649194539
 11
157.840929528
 21
31.4971831403
  0
LINE
  8
0
 62
7
  6
CONTINUOUS
 10
154.5456166972
 20
31.1100188581
 11
154.7768668074
 21
31.1422825445
  0
LINE
  8
0
 62
7
  6
CONTINUOUS
 10
157.840929528
 20
31.626237886
 11
157.6096790869
 21
31.5939741996
  0
LINE
  8
0
 62
7
  6
CONTINUOUS
 10
154.4299918074
 20
31.4649194539
 11
154.6612419177
 21
31.4971831403
  0
LINE
  8
0
 62
7
  6
CONTINUOUS
 10
159.8065543074
 20
31.626237886
 11
159.4596793074
 21
31.5939741996
  0
LINE
  8
0
 62
7
  6
CONTINUOUS
 10
154.7768668074
 20
31.2713373354
 11
154.4299918074
 21
31.2390736489
  0
LINE
  8
0
 62
7
  6
CONTINUOUS
 10
150.5565542799
 20
31.626237886
 11
150.2096793212
 21
31.5939741996
  0
LINE
  8
0
 62
7
  6
CONTINUOUS
 10
154.6612419177
 20
31.626237886
 11
154.2565543074
 21
31.5939741996
  0
LINE
  8
0
 62
7
  6
CONTINUOUS
 10
152.0327582009
 20
33.5446195022
 11
151.3770204959
 21
33.5446195022
  0
LINE
  8
0
 62
7
  6
CONTINUOUS
 10
157.4362415869
 20
31.400392081
 11
157.6096790869
 21
31.4649194539
  0
LINE
  8
0
 62
7
  6
CONTINUOUS
 10
159.4596793074
 20
31.4326557675
 11
159.575304528
 21
31.4649194539
  0
LINE
  8
0
 62
7
  6
CONTINUOUS
 10
159.4596793074
 20
31.5939741996
 11
159.228429528
 21
31.5294468267
  0
LINE
  8
0
 62
7
  6
CONTINUOUS
 10
155.1815540869
 20
30.7873819712
 11
154.8924916972
 21
30.7228545871
  0
LINE
  8
0
 62
7
  6
CONTINUOUS
 10
152.4643666972
 20
31.4649194539
 11
152.6956168074
 21
31.4971831403
  0
LINE
  8
0
 62
7
  6
CONTINUOUS
 10
152.6956168074
 20
31.626237886
 11
152.4643666972
 21
31.5939741996
  0
LINE
  8
0
 62
7
  6
CONTINUOUS
 10
150.2674918074
 20
31.4649194539
 11
150.498741835
 21
31.4971831403
  0
LINE
  8
0
 62
7
  6
CONTINUOUS
 10
156.7868565615
 20
35.0200293383
 11
157.4425942664
 21
35.0200293383
  0
LINE
  8
0
 62
7
  6
CONTINUOUS
 10
154.4299918074
 20
31.0777551716
 11
154.5456166972
 21
31.1100188581
  0
LINE
  8
0
 62
7
  6
CONTINUOUS
 10
154.4299918074
 20
31.2390736489
 11
154.1987416972
 21
31.1745462761
  0
LINE
  8
0
 62
7
  6
CONTINUOUS
 10
154.3143669177
 20
31.4326557675
 11
154.4299918074
 21
31.4649194539
  0
LINE
  8
0
 62
7
  6
CONTINUOUS
 10
150.9612418074
 20
30.6260635193
 11
151.1924917523
 21
30.6905909007
  0
LINE
  8
0
 62
7
  6
CONTINUOUS
 10
154.2565543074
 20
31.5939741996
 11
154.1409294177
 21
31.5617105132
  0
LINE
  8
0
 62
7
  6
CONTINUOUS
 10
150.2096793212
 20
31.5939741996
 11
150.0362418212
 21
31.5617105132
  0
LINE
  8
0
 62
7
  6
CONTINUOUS
 10
160.9671844304
 20
36.1675703219
 11
159.5737418074
 21
36.1675703219
  0
LINE
  8
0
 62
7
  6
CONTINUOUS
 10
157.6065286927
 20
36.1675703219
 11
157.1939573441
 21
36.1675703219
  0
LINE
  8
0
 62
7
  6
CONTINUOUS
 10
155.9671844304
 20
36.1675703219
 11
154.5737418074
 21
36.1675703219
  0
LINE
  8
0
 62
7
  6
CONTINUOUS
 10
154.245872955
 20
36.1675703219
 11
152.852430332
 21
36.1675703219
  0
LINE
  8
0
 62
7
  6
CONTINUOUS
 10
150.9671844304
 20
36.1675703219
 11
149.5737418074
 21
36.1675703219
  0
LINE
  8
0
 62
7
  6
CONTINUOUS
 10
150.1518667936
 20
31.4326557675
 11
150.2674918074
 21
31.4649194539
  0
CIRCLE
  8
0
 62
7
  6
CONTINUOUS
 10
160.2704631189
 20
38.5036358957
 40
2.0901639344
  0
ARC
  8
0
 62
7
  6
CONTINUOUS
 10
151.2130860697
 20
34.0364227809
 40
1.6393442623
 50
180.0
 51
270.0
  0
ARC
  8
0
 62
7
  6
CONTINUOUS
 10
157.6065286927
 20
34.5282260596
 40
1.6393442623
 50
0.0
 51
90.0
  0
ARC
  8
0
 62
7
  6
CONTINUOUS
 10
151.6256574183
 20
33.8724883547
 40
1.4754098361
 50
270.0
 51
326.2510114041
  0
ARC
  8
0
 62
7
  6
CONTINUOUS
 10
157.1939573441
 20
34.6921604858
 40
1.4754098361
 50
90.0
 51
146.2510114041
  0
ARC
  8
0
 62
7
  6
CONTINUOUS
 10
152.0327582009
 20
34.3642916334
 40
0.8196721311
 50
270.0
 51
360.0
  0
ARC
  8
0
 62
7
  6
CONTINUOUS
 10
156.7868565615
 20
34.2003572071
 40
0.8196721311
 50
90.0
 51
180.0
  0
ARC
  8
0
 62
7
  6
CONTINUOUS
 10
151.3770204959
 20
33.9544555678
 40
0.4098360656
 50
180.0
 51
270.0
  0
ARC
  8
0
 62
7
  6
CONTINUOUS
 10
157.4425942664
 20
34.6101932727
 40
0.4098360656
 50
0.0
 51
90.0
  0
SOLID
  8
0
 62
7
  6
CONTINUOUS
 10
156.279992028
 20
31.9488752009
 11
156.279992028
 21
32.1101936845
 12
156.5690540869
 22
31.9488752009
 13
156.5690540869
 23
32.1101936845
  0
SOLID
  8
0
 62
7
  6
CONTINUOUS
 10
150.5565542799
 20
31.6262382337
 11
150.9612418074
 21
31.5939740028
 12
150.2096793212
 22
31.5939740028
 13
150.2096793212
 23
31.5939740028
  0
SOLID
  8
0
 62
7
  6
CONTINUOUS
 10
150.0362418212
 20
31.5617111435
 11
150.2096793212
 21
31.5939740028
 12
150.9612418074
 22
31.5939740028
 13
150.9612418074
 23
31.5939740028
  0
SOLID
  8
0
 62
7
  6
CONTINUOUS
 10
150.9612418074
 20
31.5939740028
 11
151.1924917523
 21
31.5294468402
 12
150.0362418212
 22
31.5617111435
 13
150.0362418212
 23
31.5617111435
  0
SOLID
  8
0
 62
7
  6
CONTINUOUS
 10
149.8628043005
 20
31.49718259
 11
150.0362418212
 21
31.5617111435
 12
151.1924917523
 22
31.5294468402
 13
151.1924917523
 23
31.5294468402
  0
SOLID
  8
0
 62
7
  6
CONTINUOUS
 10
149.8628043005
 20
31.49718259
 11
151.1924917523
 21
31.5294468402
 12
150.498741835
 22
31.49718259
 13
150.498741835
 23
31.49718259
  0
SOLID
  8
0
 62
7
  6
CONTINUOUS
 10
150.498741835
 20
31.49718259
 11
151.1924917523
 21
31.5294468402
 12
150.9034292799
 22
31.4649197501
 13
150.9034292799
 23
31.4649197501
  0
SOLID
  8
0
 62
7
  6
CONTINUOUS
 10
151.1924917523
 20
31.5294468402
 11
151.3659292523
 21
31.4326554468
 12
150.9034292799
 22
31.4649197501
 13
150.9034292799
 23
31.4649197501
  0
SOLID
  8
0
 62
7
  6
CONTINUOUS
 10
151.0768668626
 20
31.4003926599
 11
150.9034292799
 21
31.4649197501
 12
151.3659292523
 22
31.4326554468
 13
151.3659292523
 23
31.4326554468
  0
SOLID
  8
0
 62
7
  6
CONTINUOUS
 10
151.0768668626
 20
31.4003926599
 11
151.3659292523
 21
31.4326554468
 12
151.1346793074
 22
31.3036013776
 13
151.1346793074
 23
31.3036013776
  0
SOLID
  8
0
 62
7
  6
CONTINUOUS
 10
151.3659292523
 20
31.4326554468
 11
151.4237418626
 21
31.3036013776
 12
151.1346793074
 22
31.3036013776
 13
151.1346793074
 23
31.3036013776
  0
SOLID
  8
0
 62
7
  6
CONTINUOUS
 10
152.4643666972
 20
31.5939739754
 11
152.6956168074
 21
31.6262382787
 12
152.9268669177
 22
31.6262382787
 13
152.9268669177
 23
31.6262382787
  0
SOLID
  8
0
 62
7
  6
CONTINUOUS
 10
152.9268669177
 20
31.6262382787
 11
153.1003044177
 21
31.5939739754
 12
152.4643666972
 22
31.5939739754
 13
152.4643666972
 23
31.5939739754
  0
SOLID
  8
0
 62
7
  6
CONTINUOUS
 10
152.2909293626
 20
31.5294468852
 11
152.4643666972
 21
31.5939739754
 12
153.1003044177
 22
31.5939739754
 13
153.1003044177
 23
31.5939739754
  0
SOLID
  8
0
 62
7
  6
CONTINUOUS
 10
153.1003044177
 20
31.5939739754
 11
153.2737419177
 21
31.5294468852
 12
152.2909293626
 22
31.5294468852
 13
152.2909293626
 23
31.5294468852
  0
SOLID
  8
0
 62
7
  6
CONTINUOUS
 10
153.2737419177
 20
31.5294468852
 11
152.6956168074
 21
31.4971825369
 12
152.2909293626
 22
31.5294468852
 13
152.2909293626
 23
31.5294468852
  0
SOLID
  8
0
 62
7
  6
CONTINUOUS
 10
152.1753043074
 20
31.4649197951
 11
152.2909293626
 21
31.5294468852
 12
152.6956168074
 22
31.4971825369
 13
152.6956168074
 23
31.4971825369
  0
SOLID
  8
0
 62
7
  6
CONTINUOUS
 10
152.6956168074
 20
31.4971825369
 11
152.4643666972
 21
31.4649197951
 12
152.1753043074
 22
31.4649197951
 13
152.1753043074
 23
31.4649197951
  0
SOLID
  8
0
 62
7
  6
CONTINUOUS
 10
152.6956168074
 20
31.4971825369
 11
153.2737419177
 21
31.5294468852
 12
152.9268669177
 22
31.4649197951
 13
152.9268669177
 23
31.4649197951
  0
SOLID
  8
0
 62
7
  6
CONTINUOUS
 10
153.2737419177
 20
31.5294468852
 11
153.3893668074
 21
31.4649197951
 12
152.9268669177
 22
31.4649197951
 13
152.9268669177
 23
31.4649197951
  0
SOLID
  8
0
 62
7
  6
CONTINUOUS
 10
153.0424918074
 20
31.4326554468
 11
152.9268669177
 21
31.4649197951
 12
153.3893668074
 22
31.4649197951
 13
153.3893668074
 23
31.4649197951
  0
SOLID
  8
0
 62
7
  6
CONTINUOUS
 10
153.3893668074
 20
31.4649197951
 11
153.4471794177
 21
31.4003927049
 12
153.0424918074
 22
31.4326554468
 13
153.0424918074
 23
31.4326554468
  0
SOLID
  8
0
 62
7
  6
CONTINUOUS
 10
153.1581166972
 20
31.3681283566
 11
153.0424918074
 21
31.4326554468
 12
153.4471794177
 22
31.4003927049
 13
153.4471794177
 23
31.4003927049
  0
SOLID
  8
0
 62
7
  6
CONTINUOUS
 10
153.1581166972
 20
31.3681283566
 11
153.4471794177
 21
31.4003927049
 12
153.2159293074
 22
31.2390742213
 13
153.2159293074
 23
31.2390742213
  0
SOLID
  8
0
 62
7
  6
CONTINUOUS
 10
153.4471794177
 20
31.4003927049
 11
153.5049916972
 21
31.2390742213
 12
153.2159293074
 22
31.2390742213
 13
153.2159293074
 23
31.2390742213
  0
SOLID
  8
0
 62
7
  6
CONTINUOUS
 10
152.4643666972
 20
31.4649197951
 11
152.2909293626
 21
31.4003927049
 12
152.1753043074
 22
31.4649197951
 13
152.1753043074
 23
31.4649197951
  0
SOLID
  8
0
 62
7
  6
CONTINUOUS
 10
152.2909293626
 20
31.4003927049
 11
152.1753043074
 21
31.3358640533
 12
152.1753043074
 22
31.4649197951
 13
152.1753043074
 23
31.4649197951
  0
SOLID
  8
0
 62
7
  6
CONTINUOUS
 10
152.1753043074
 20
31.3358640533
 11
151.8862417523
 21
30.5938002869
 12
152.1753043074
 22
31.4649197951
 13
152.1753043074
 23
31.4649197951
  0
SOLID
  8
0
 62
7
  6
CONTINUOUS
 10
152.1753043074
 20
31.4649197951
 11
151.8862417523
 21
30.5938002869
 12
152.1753043074
 22
32.1101937295
 13
152.1753043074
 23
32.1101937295
  0
SOLID
  8
0
 62
7
  6
CONTINUOUS
 10
151.8862417523
 20
30.5938002869
 11
151.8862417523
 21
32.1101937295
 12
152.1753043074
 22
32.1101937295
 13
152.1753043074
 23
32.1101937295
  0
SOLID
  8
0
 62
7
  6
CONTINUOUS
 10
152.1753043074
 20
31.3358640533
 11
152.1753043074
 21
30.5938002869
 12
151.8862417523
 22
30.5938002869
 13
151.8862417523
 23
30.5938002869
  0
SOLID
  8
0
 62
7
  6
CONTINUOUS
 10
153.2159293074
 20
30.5938002869
 11
153.2159293074
 21
31.2390742213
 12
153.5049916972
 22
31.2390742213
 13
153.5049916972
 23
31.2390742213
  0
SOLID
  8
0
 62
7
  6
CONTINUOUS
 10
153.5049916972
 20
31.2390742213
 11
153.5049916972
 21
30.5938002869
 12
153.2159293074
 22
30.5938002869
 13
153.2159293074
 23
30.5938002869
  0
SOLID
  8
0
 62
7
  6
CONTINUOUS
 10
154.2565543074
 20
31.5939738288
 11
154.6612419177
 21
31.6262385959
 12
155.0081169177
 22
31.6262385959
 13
155.0081169177
 23
31.6262385959
  0
SOLID
  8
0
 62
7
  6
CONTINUOUS
 10
155.0081169177
 20
31.6262385959
 11
155.3549915869
 21
31.5939738288
 12
154.2565543074
 22
31.5939738288
 13
154.2565543074
 23
31.5939738288
  0
SOLID
  8
0
 62
7
  6
CONTINUOUS
 10
154.1409294177
 20
31.5617111435
 11
154.2565543074
 21
31.5939738288
 12
155.3549915869
 22
31.5939738288
 13
155.3549915869
 23
31.5939738288
  0
SOLID
  8
0
 62
7
  6
CONTINUOUS
 10
155.3549915869
 20
31.5939738288
 11
155.5284290869
 21
31.5294468402
 12
154.1409294177
 22
31.5617111435
 13
154.1409294177
 23
31.5617111435
  0
SOLID
  8
0
 62
7
  6
CONTINUOUS
 10
154.0253041972
 20
31.4971826249
 11
154.1409294177
 21
31.5617111435
 12
155.5284290869
 22
31.5294468402
 13
155.5284290869
 23
31.5294468402
  0
SOLID
  8
0
 62
7
  6
CONTINUOUS
 10
154.0253041972
 20
31.4971826249
 11
155.5284290869
 21
31.5294468402
 12
154.6612419177
 22
31.4971826249
 13
154.6612419177
 23
31.4971826249
  0
SOLID
  8
0
 62
7
  6
CONTINUOUS
 10
154.6612419177
 20
31.4971826249
 11
155.5284290869
 21
31.5294468402
 12
155.0081169177
 22
31.4971826249
 13
155.0081169177
 23
31.4971826249
  0
SOLID
  8
0
 62
7
  6
CONTINUOUS
 10
155.0081169177
 20
31.4971826249
 11
155.5284290869
 21
31.5294468402
 12
155.239367028
 22
31.4649194065
 13
155.239367028
 23
31.4649194065
  0
SOLID
  8
0
 62
7
  6
CONTINUOUS
 10
155.5284290869
 20
31.5294468402
 11
155.6440543074
 21
31.4649194065
 12
155.239367028
 22
31.4649194065
 13
155.239367028
 23
31.4649194065
  0
SOLID
  8
0
 62
7
  6
CONTINUOUS
 10
153.9674919177
 20
31.4326554138
 11
154.0253041972
 21
31.4971826249
 12
154.6612419177
 22
31.4971826249
 13
154.6612419177
 23
31.4971826249
  0
SOLID
  8
0
 62
7
  6
CONTINUOUS
 10
155.3549915869
 20
31.4326554138
 11
155.239367028
 21
31.4649194065
 12
155.6440543074
 22
31.4649194065
 13
155.6440543074
 23
31.4649194065
  0
SOLID
  8
0
 62
7
  6
CONTINUOUS
 10
155.3549915869
 20
31.4326554138
 11
155.6440543074
 21
31.4649194065
 12
155.412804528
 22
31.3681282026
 13
155.412804528
 23
31.3681282026
  0
SOLID
  8
0
 62
7
  6
CONTINUOUS
 10
155.6440543074
 20
31.4649194065
 11
155.7018665869
 21
31.3681282026
 12
155.412804528
 22
31.3681282026
 13
155.412804528
 23
31.3681282026
  0
SOLID
  8
0
 62
7
  6
CONTINUOUS
 10
155.412804528
 20
31.2713369632
 11
155.412804528
 21
31.3681282026
 12
155.7018665869
 22
31.3681282026
 13
155.7018665869
 23
31.3681282026
  0
SOLID
  8
0
 62
7
  6
CONTINUOUS
 10
155.412804528
 20
31.2713369632
 11
155.7018665869
 21
31.3681282026
 12
155.412804528
 22
31.1422827828
 13
155.412804528
 23
31.1422827828
  0
SOLID
  8
0
 62
7
  6
CONTINUOUS
 10
155.412804528
 20
31.1422827828
 11
155.7018665869
 21
31.3681282026
 12
155.412804528
 22
30.9487004259
 13
155.412804528
 23
30.9487004259
  0
SOLID
  8
0
 62
7
  6
CONTINUOUS
 10
155.7018665869
 20
31.3681282026
 11
155.7018665869
 21
30.8519086025
 12
155.412804528
 22
30.9487004259
 13
155.412804528
 23
30.9487004259
  0
SOLID
  8
0
 62
7
  6
CONTINUOUS
 10
157.6096790869
 20
31.5939736268
 11
157.840929528
 21
31.6262383465
 12
158.0721793074
 22
31.6262383465
 13
158.0721793074
 23
31.6262383465
  0
SOLID
  8
0
 62
7
  6
CONTINUOUS
 10
158.0721793074
 20
31.6262383465
 11
158.2456168074
 21
31.5939736268
 12
157.6096790869
 22
31.5939736268
 13
157.6096790869
 23
31.5939736268
  0
SOLID
  8
0
 62
7
  6
CONTINUOUS
 10
157.4362415869
 20
31.5294472848
 11
157.6096790869
 21
31.5939736268
 12
158.2456168074
 22
31.5939736268
 13
158.2456168074
 23
31.5939736268
  0
SOLID
  8
0
 62
7
  6
CONTINUOUS
 10
158.2456168074
 20
31.5939736268
 11
158.4190543074
 21
31.5294472848
 12
157.4362415869
 22
31.5294472848
 13
157.4362415869
 23
31.5294472848
  0
SOLID
  8
0
 62
7
  6
CONTINUOUS
 10
158.4190543074
 20
31.5294472848
 11
157.840929528
 21
31.4971825369
 12
157.4362415869
 22
31.5294472848
 13
157.4362415869
 23
31.5294472848
  0
SOLID
  8
0
 62
7
  6
CONTINUOUS
 10
157.320617028
 20
31.4649199103
 11
157.4362415869
 21
31.5294472848
 12
157.840929528
 22
31.4971825369
 13
157.840929528
 23
31.4971825369
  0
SOLID
  8
0
 62
7
  6
CONTINUOUS
 10
157.840929528
 20
31.4971825369
 11
157.6096790869
 21
31.4649199103
 12
157.320617028
 22
31.4649199103
 13
157.320617028
 23
31.4649199103
  0
SOLID
  8
0
 62
7
  6
CONTINUOUS
 10
157.840929528
 20
31.4971825369
 11
158.4190543074
 21
31.5294472848
 12
158.0721793074
 22
31.4649199103
 13
158.0721793074
 23
31.4649199103
  0
SOLID
  8
0
 62
7
  6
CONTINUOUS
 10
158.4190543074
 20
31.5294472848
 11
158.534679528
 21
31.4649199103
 12
158.0721793074
 22
31.4649199103
 13
158.0721793074
 23
31.4649199103
  0
SOLID
  8
0
 62
7
  6
CONTINUOUS
 10
158.187804528
 20
31.4326554468
 11
158.0721793074
 21
31.4649199103
 12
158.534679528
 22
31.4649199103
 13
158.534679528
 23
31.4649199103
  0
SOLID
  8
0
 62
7
  6
CONTINUOUS
 10
158.187804528
 20
31.4326554468
 11
158.534679528
 21
31.4649199103
 12
158.3034290869
 22
31.3681288486
 13
158.3034290869
 23
31.3681288486
  0
SOLID
  8
0
 62
7
  6
CONTINUOUS
 10
158.534679528
 20
31.4649199103
 11
158.5924918074
 21
31.3681288486
 12
158.3034290869
 22
31.3681288486
 13
158.3034290869
 23
31.3681288486
  0
SOLID
  8
0
 62
7
  6
CONTINUOUS
 10
158.361242028
 20
31.2068093799
 11
158.3034290869
 21
31.3681288486
 12
158.5924918074
 22
31.3681288486
 13
158.5924918074
 23
31.3681288486
  0
SOLID
  8
0
 62
7
  6
CONTINUOUS
 10
158.5924918074
 20
31.3681288486
 11
158.6503040869
 21
31.2068093799
 12
158.361242028
 22
31.2068093799
 13
158.361242028
 23
31.2068093799
  0
SOLID
  8
0
 62
7
  6
CONTINUOUS
 10
157.6096790869
 20
31.4649199103
 11
157.4362415869
 21
31.4003926599
 12
157.320617028
 22
31.4649199103
 13
157.320617028
 23
31.4649199103
  0
SOLID
  8
0
 62
7
  6
CONTINUOUS
 10
157.4362415869
 20
31.4003926599
 11
157.320617028
 21
31.3358640533
 12
157.320617028
 22
31.4649199103
 13
157.320617028
 23
31.4649199103
  0
SOLID
  8
0
 62
7
  6
CONTINUOUS
 10
157.320617028
 20
31.3358640533
 11
157.0315543074
 21
30.5938003547
 12
157.320617028
 22
31.4649199103
 13
157.320617028
 23
31.4649199103
  0
SOLID
  8
0
 62
7
  6
CONTINUOUS
 10
157.320617028
 20
31.4649199103
 11
157.0315543074
 21
30.5938003547
 12
157.320617028
 22
31.6262383465
 13
157.320617028
 23
31.6262383465
  0
SOLID
  8
0
 62
7
  6
CONTINUOUS
 10
157.0315543074
 20
30.5938003547
 11
157.0315543074
 21
31.6262383465
 12
157.320617028
 22
31.6262383465
 13
157.320617028
 23
31.6262383465
  0
SOLID
  8
0
 62
7
  6
CONTINUOUS
 10
157.320617028
 20
31.3358640533
 11
157.320617028
 21
30.5938003547
 12
157.0315543074
 22
30.5938003547
 13
157.0315543074
 23
30.5938003547
  0
SOLID
  8
0
 62
7
  6
CONTINUOUS
 10
158.361242028
 20
30.5938003547
 11
158.361242028
 21
31.2068093799
 12
158.6503040869
 22
31.2068093799
 13
158.6503040869
 23
31.2068093799
  0
SOLID
  8
0
 62
7
  6
CONTINUOUS
 10
158.6503040869
 20
31.2068093799
 11
158.6503040869
 21
30.5938003547
 12
158.361242028
 22
30.5938003547
 13
158.361242028
 23
30.5938003547
  0
SOLID
  8
0
 62
7
  6
CONTINUOUS
 10
159.4596793074
 20
31.5939739474
 11
159.8065543074
 21
31.6262381969
 12
160.1534293074
 22
31.6262381969
 13
160.1534293074
 23
31.6262381969
  0
SOLID
  8
0
 62
7
  6
CONTINUOUS
 10
160.1534293074
 20
31.6262381969
 11
160.5003043074
 21
31.5939739474
 12
159.4596793074
 22
31.5939739474
 13
159.4596793074
 23
31.5939739474
  0
SOLID
  8
0
 62
7
  6
CONTINUOUS
 10
159.228429528
 20
31.5294468402
 11
159.4596793074
 21
31.5939739474
 12
160.5003043074
 22
31.5939739474
 13
160.5003043074
 23
31.5939739474
  0
SOLID
  8
0
 62
7
  6
CONTINUOUS
 10
159.228429528
 20
31.5294468402
 11
160.5003043074
 21
31.5939739304
 12
160.6737418074
 22
31.5617111435
 13
160.6737418074
 23
31.5617111435
  0
SOLID
  8
0
 62
7
  6
CONTINUOUS
 10
159.228429528
 20
31.5294468402
 11
160.6737418074
 21
31.5617111435
 12
159.8065543074
 22
31.4971825592
 13
159.8065543074
 23
31.4971825592
  0
SOLID
  8
0
 62
7
  6
CONTINUOUS
 10
159.8065543074
 20
31.4971825592
 11
160.6737418074
 21
31.5617111435
 12
160.1534293074
 22
31.4971825592
 13
160.1534293074
 23
31.4971825592
  0
SOLID
  8
0
 62
7
  6
CONTINUOUS
 10
160.6737418074
 20
31.5617111435
 11
160.8471793074
 21
31.4971825592
 12
160.1534293074
 22
31.4971825592
 13
160.1534293074
 23
31.4971825592
  0
SOLID
  8
0
 62
7
  6
CONTINUOUS
 10
160.5003043074
 20
31.4649197501
 11
160.1534293074
 21
31.4971825592
 12
160.8471793074
 22
31.4971825592
 13
160.8471793074
 23
31.4971825592
  0
SOLID
  8
0
 62
7
  6
CONTINUOUS
 10
159.1128043074
 20
31.4326555427
 11
159.228429528
 21
31.5294468402
 12
159.8065543074
 22
31.4971825592
 13
159.8065543074
 23
31.4971825592
  0
SOLID
  8
0
 62
7
  6
CONTINUOUS
 10
160.5003043074
 20
31.4649197501
 11
160.8471793074
 21
31.4971825592
 12
160.615929528
 22
31.4326555427
 13
160.615929528
 23
31.4326555427
  0
SOLID
  8
0
 62
7
  6
CONTINUOUS
 10
160.615929528
 20
31.4326555427
 11
160.8471793074
 21
31.4971825592
 12
160.6737418074
 22
31.3681283005
 13
160.6737418074
 23
31.3681283005
  0
SOLID
  8
0
 62
7
  6
CONTINUOUS
 10
160.8471793074
 20
31.4971825592
 11
160.9628038663
 21
31.3681283005
 12
160.6737418074
 22
31.3681283005
 13
160.6737418074
 23
31.3681283005
  0
SOLID
  8
0
 62
7
  6
CONTINUOUS
 10
150.2674918074
 20
31.4649197501
 11
149.7471793074
 21
31.4326554237
 12
150.498741835
 22
31.4971824493
 13
150.498741835
 23
31.4971824493
  0
SOLID
  8
0
 62
7
  6
CONTINUOUS
 10
149.7471793074
 20
31.4326554237
 11
149.8628043005
 21
31.4971824493
 12
150.498741835
 22
31.4971824493
 13
150.498741835
 23
31.4971824493
  0
SOLID
  8
0
 62
7
  6
CONTINUOUS
 10
150.2674918074
 20
31.4649197501
 11
150.1518667936
 21
31.4326554237
 12
149.7471793074
 22
31.4326554237
 13
149.7471793074
 23
31.4326554237
  0
SOLID
  8
0
 62
7
  6
CONTINUOUS
 10
149.6315543091
 20
31.3036012664
 11
149.7471793074
 21
31.4326554237
 12
150.1518667936
 22
31.4326554237
 13
150.1518667936
 23
31.4326554237
  0
SOLID
  8
0
 62
7
  6
CONTINUOUS
 10
153.9674919177
 20
31.4326554237
 11
154.6612419177
 21
31.4971825369
 12
154.4299918074
 22
31.4649197501
 13
154.4299918074
 23
31.4649197501
  0
SOLID
  8
0
 62
7
  6
CONTINUOUS
 10
154.4299918074
 20
31.4649197501
 11
154.3143669177
 21
31.4326554237
 12
153.9674919177
 22
31.4326554237
 13
153.9674919177
 23
31.4326554237
  0
SOLID
  8
0
 62
7
  6
CONTINUOUS
 10
153.9674919177
 20
31.3681283335
 11
153.9674919177
 21
31.4326554237
 12
154.3143669177
 22
31.4326554237
 13
154.3143669177
 23
31.4326554237
  0
SOLID
  8
0
 62
7
  6
CONTINUOUS
 10
154.3143669177
 20
31.4326554237
 11
154.2565543074
 21
31.3681283335
 12
153.9674919177
 22
31.3681283335
 13
153.9674919177
 23
31.3681283335
  0
SOLID
  8
0
 62
7
  6
CONTINUOUS
 10
159.1128043074
 20
31.4326555528
 11
159.8065543074
 21
31.4971825369
 12
159.575304528
 22
31.4649197501
 13
159.575304528
 23
31.4649197501
  0
SOLID
  8
0
 62
7
  6
CONTINUOUS
 10
159.575304528
 20
31.4649197501
 11
159.4596793074
 21
31.4326555528
 12
159.1128043074
 22
31.4326555528
 13
159.1128043074
 23
31.4326555528
  0
SOLID
  8
0
 62
7
  6
CONTINUOUS
 10
159.1128043074
 20
31.3681284626
 11
159.1128043074
 21
31.4326555528
 12
159.4596793074
 22
31.4326555528
 13
159.4596793074
 23
31.4326555528
  0
SOLID
  8
0
 62
7
  6
CONTINUOUS
 10
159.4596793074
 20
31.4326555528
 11
159.401867028
 21
31.3681284626
 12
159.1128043074
 22
31.3681284626
 13
159.1128043074
 23
31.3681284626
  0
SOLID
  8
0
 62
7
  6
CONTINUOUS
 10
159.228429528
 20
31.2390741763
 11
159.1128043074
 21
31.3681284626
 12
159.401867028
 22
31.3681284626
 13
159.401867028
 23
31.3681284626
  0
SOLID
  8
0
 62
7
  6
CONTINUOUS
 10
149.6315543091
 20
31.3036012664
 11
150.1518667936
 21
31.4326554468
 12
149.9784292936
 22
31.3358640533
 13
149.9784292936
 23
31.3358640533
  0
SOLID
  8
0
 62
7
  6
CONTINUOUS
 10
149.9784292936
 20
31.3358640533
 11
149.9206168074
 21
31.2713369632
 12
149.6315543091
 22
31.3036012664
 13
149.6315543091
 23
31.3036012664
  0
SOLID
  8
0
 62
7
  6
CONTINUOUS
 10
149.5737418074
 20
31.1100184796
 11
149.6315543091
 21
31.3036012664
 12
149.9206168074
 22
31.2713369632
 13
149.9206168074
 23
31.2713369632
  0
SOLID
  8
0
 62
7
  6
CONTINUOUS
 10
154.4299918074
 20
31.2390741763
 11
154.7768668074
 21
31.271336924
 12
155.412804528
 22
31.271336924
 13
155.412804528
 23
31.271336924
  0
SOLID
  8
0
 62
7
  6
CONTINUOUS
 10
154.4299918074
 20
31.2390741763
 11
155.412804528
 21
31.271336924
 12
154.1987416972
 22
31.1745462761
 13
154.1987416972
 23
31.1745462761
  0
SOLID
  8
0
 62
7
  6
CONTINUOUS
 10
154.1987416972
 20
31.1745462761
 11
155.412804528
 21
31.271336924
 12
154.7768668074
 22
31.1422827436
 13
154.7768668074
 23
31.1422827436
  0
SOLID
  8
0
 62
7
  6
CONTINUOUS
 10
155.412804528
 20
31.271336924
 11
155.412804528
 21
31.1422827436
 12
154.7768668074
 22
31.1422827436
 13
154.7768668074
 23
31.1422827436
  0
SOLID
  8
0
 62
7
  6
CONTINUOUS
 10
159.228429528
 20
31.2390745501
 11
159.401867028
 21
31.3681283566
 12
159.4596793074
 22
31.3036012664
 13
159.4596793074
 23
31.3036012664
  0
SOLID
  8
0
 62
7
  6
CONTINUOUS
 10
159.4596793074
 20
31.3036012664
 11
159.6331168074
 21
31.2390745501
 12
159.228429528
 22
31.2390745501
 13
159.228429528
 23
31.2390745501
  0
SOLID
  8
0
 62
7
  6
CONTINUOUS
 10
159.4596793074
 20
31.1422827828
 11
159.228429528
 21
31.2390745501
 12
159.6331168074
 22
31.2390745501
 13
159.6331168074
 23
31.2390745501
  0
SOLID
  8
0
 62
7
  6
CONTINUOUS
 10
159.6331168074
 20
31.2390745501
 11
160.615929528
 21
31.0777556927
 12
159.4596793074
 22
31.1422827828
 13
159.4596793074
 23
31.1422827828
  0
SOLID
  8
0
 62
7
  6
CONTINUOUS
 10
160.442492028
 20
30.9809646623
 11
159.4596793074
 21
31.1422827828
 12
160.615929528
 22
31.0777556927
 13
160.615929528
 23
31.0777556927
  0
SOLID
  8
0
 62
7
  6
CONTINUOUS
 10
160.615929528
 20
31.0777556927
 11
160.8471793074
 21
30.9809646623
 12
160.442492028
 22
30.9809646623
 13
160.442492028
 23
30.9809646623
  0
SOLID
  8
0
 62
7
  6
CONTINUOUS
 10
160.615929528
 20
30.9164372091
 11
160.442492028
 21
30.9809646623
 12
160.8471793074
 22
30.9809646623
 13
160.8471793074
 23
30.9809646623
  0
SOLID
  8
0
 62
7
  6
CONTINUOUS
 10
160.615929528
 20
30.9164372091
 11
160.8471793074
 21
30.9809646623
 12
160.6737418074
 22
30.8519089441
 13
160.6737418074
 23
30.8519089441
  0
SOLID
  8
0
 62
7
  6
CONTINUOUS
 10
160.8471793074
 20
30.9809646623
 11
160.9628038663
 21
30.8519089441
 12
160.6737418074
 22
30.8519089441
 13
160.6737418074
 23
30.8519089441
  0
SOLID
  8
0
 62
7
  6
CONTINUOUS
 10
160.615929528
 20
30.7873818593
 11
160.6737418074
 21
30.8519089441
 12
160.9628038663
 22
30.8519089441
 13
160.9628038663
 23
30.8519089441
  0
SOLID
  8
0
 62
7
  6
CONTINUOUS
 10
160.9628038663
 20
30.8519089441
 11
160.9628038663
 21
30.7873818593
 12
160.615929528
 22
30.7873818593
 13
160.615929528
 23
30.7873818593
  0
SOLID
  8
0
 62
7
  6
CONTINUOUS
 10
160.5003043074
 20
30.7551187255
 11
160.615929528
 21
30.7873818593
 12
160.9628038663
 22
30.7873818593
 13
160.9628038663
 23
30.7873818593
  0
SOLID
  8
0
 62
7
  6
CONTINUOUS
 10
160.5003043074
 20
30.7551187255
 11
160.9628038663
 21
30.7873818593
 12
160.269054528
 22
30.7228547745
 13
160.269054528
 23
30.7228547745
  0
SOLID
  8
0
 62
7
  6
CONTINUOUS
 10
160.9628038663
 20
30.7873818593
 11
160.8471793074
 21
30.6905916353
 12
160.269054528
 22
30.7228547745
 13
160.269054528
 23
30.7228547745
  0
SOLID
  8
0
 62
7
  6
CONTINUOUS
 10
160.8471793074
 20
30.6905916353
 11
159.401867028
 21
30.658327332
 12
160.269054528
 22
30.7228547745
 13
160.269054528
 23
30.7228547745
  0
SOLID
  8
0
 62
7
  6
CONTINUOUS
 10
160.269054528
 20
30.7228547745
 11
159.401867028
 21
30.658327332
 12
159.922179528
 22
30.7228547745
 13
159.922179528
 23
30.7228547745
  0
SOLID
  8
0
 62
7
  6
CONTINUOUS
 10
159.401867028
 20
30.658327332
 11
159.228429528
 21
30.7228547745
 12
159.922179528
 22
30.7228547745
 13
159.922179528
 23
30.7228547745
  0
SOLID
  8
0
 62
7
  6
CONTINUOUS
 10
159.401867028
 20
30.658327332
 11
160.8471793074
 21
30.6905916353
 12
159.575304528
 22
30.6260629858
 13
159.575304528
 23
30.6260629858
  0
SOLID
  8
0
 62
7
  6
CONTINUOUS
 10
160.8471793074
 20
30.6905916353
 11
160.615929528
 21
30.6260629858
 12
159.575304528
 22
30.6260629858
 13
159.575304528
 23
30.6260629858
  0
SOLID
  8
0
 62
7
  6
CONTINUOUS
 10
159.922179528
 20
30.5938006049
 11
159.575304528
 21
30.6260629858
 12
160.615929528
 22
30.6260629858
 13
160.615929528
 23
30.6260629858
  0
SOLID
  8
0
 62
7
  6
CONTINUOUS
 10
160.615929528
 20
30.6260629858
 11
160.269054528
 21
30.5938006049
 12
159.922179528
 22
30.5938006049
 13
159.922179528
 23
30.5938006049
  0
SOLID
  8
0
 62
7
  6
CONTINUOUS
 10
149.5737418074
 20
31.1100184796
 11
149.9206168074
 21
31.2713369632
 12
149.8628043005
 22
31.1422827828
 13
149.8628043005
 23
31.1422827828
  0
SOLID
  8
0
 62
7
  6
CONTINUOUS
 10
149.8628043005
 20
31.1422827828
 11
149.8628043005
 21
31.0454914852
 12
149.5737418074
 22
31.1100184796
 13
149.5737418074
 23
31.1100184796
  0
SOLID
  8
0
 62
7
  6
CONTINUOUS
 10
149.6315543091
 20
30.9164372091
 11
149.5737418074
 21
31.1100184796
 12
149.8628043005
 22
31.0454914852
 13
149.8628043005
 23
31.0454914852
  0
SOLID
  8
0
 62
7
  6
CONTINUOUS
 10
149.8628043005
 20
31.0454914852
 11
149.9784292936
 21
30.8841729058
 12
149.6315543091
 22
30.9164372091
 13
149.6315543091
 23
30.9164372091
  0
SOLID
  8
0
 62
7
  6
CONTINUOUS
 10
149.7471793074
 20
30.7873813202
 11
149.6315543091
 21
30.9164372091
 12
149.9784292936
 22
30.8841729058
 13
149.9784292936
 23
30.8841729058
  0
SOLID
  8
0
 62
7
  6
CONTINUOUS
 10
149.9784292936
 20
30.8841729058
 11
150.1518667936
 21
30.7873813202
 12
149.7471793074
 22
30.7873813202
 13
149.7471793074
 23
30.7873813202
  0
SOLID
  8
0
 62
7
  6
CONTINUOUS
 10
149.8628043005
 20
30.7228547004
 11
149.7471793074
 21
30.7873813202
 12
150.1518667936
 22
30.7873813202
 13
150.1518667936
 23
30.7873813202
  0
SOLID
  8
0
 62
7
  6
CONTINUOUS
 10
150.1518667936
 20
30.7873813202
 11
150.498741835
 21
30.7228547004
 12
149.8628043005
 22
30.7228547004
 13
149.8628043005
 23
30.7228547004
  0
SOLID
  8
0
 62
7
  6
CONTINUOUS
 10
150.0362418212
 20
30.658327332
 11
149.8628043005
 21
30.7228547004
 12
150.498741835
 22
30.7228547004
 13
150.498741835
 23
30.7228547004
  0
SOLID
  8
0
 62
7
  6
CONTINUOUS
 10
154.0831168074
 20
31.1100184386
 11
154.1987416972
 21
31.1745462761
 12
154.7768668074
 22
31.1422827828
 13
154.7768668074
 23
31.1422827828
  0
SOLID
  8
0
 62
7
  6
CONTINUOUS
 10
154.7768668074
 20
31.1422827828
 11
154.5456166972
 21
31.1100184386
 12
154.0831168074
 22
31.1100184386
 13
154.0831168074
 23
31.1100184386
  0
SOLID
  8
0
 62
7
  6
CONTINUOUS
 10
153.9674919177
 20
30.9809642992
 11
154.0831168074
 21
31.1100184386
 12
154.5456166972
 22
31.1100184386
 13
154.5456166972
 23
31.1100184386
  0
SOLID
  8
0
 62
7
  6
CONTINUOUS
 10
154.3143669177
 20
31.0132277988
 11
153.9674919177
 21
30.9809642992
 12
154.4299918074
 22
31.0777556927
 13
154.4299918074
 23
31.0777556927
  0
SOLID
  8
0
 62
7
  6
CONTINUOUS
 10
153.9674919177
 20
30.9809642992
 11
154.5456166972
 21
31.1100184796
 12
154.4299918074
 22
31.0777556927
 13
154.4299918074
 23
31.0777556927
  0
SOLID
  8
0
 62
7
  6
CONTINUOUS
 10
154.3143669177
 20
31.0132277988
 11
154.2565543074
 21
30.9164372091
 12
153.9674919177
 22
30.9809642992
 13
153.9674919177
 23
30.9809642992
  0
SOLID
  8
0
 62
7
  6
CONTINUOUS
 10
153.9674919177
 20
30.8841729058
 11
153.9674919177
 21
30.9809642992
 12
154.2565543074
 22
30.9164372091
 13
154.2565543074
 23
30.9164372091
  0
SOLID
  8
0
 62
7
  6
CONTINUOUS
 10
154.2565543074
 20
30.9164372091
 11
154.2565543074
 21
30.8519086025
 12
153.9674919177
 22
30.8841729058
 13
153.9674919177
 23
30.8841729058
  0
SOLID
  8
0
 62
7
  6
CONTINUOUS
 10
154.0253041972
 20
30.7551187255
 11
153.9674919177
 21
30.8841729058
 12
154.2565543074
 22
30.8519086025
 13
154.2565543074
 23
30.8519086025
  0
SOLID
  8
0
 62
7
  6
CONTINUOUS
 10
155.412804528
 20
30.9487004259
 11
155.7018665869
 21
30.8519086025
 12
155.3549915869
 22
30.8841729058
 13
155.3549915869
 23
30.8841729058
  0
SOLID
  8
0
 62
7
  6
CONTINUOUS
 10
155.1815540869
 20
30.7873815123
 11
155.3549915869
 21
30.8841729058
 12
155.7018665869
 22
30.8519086025
 13
155.7018665869
 23
30.8519086025
  0
SOLID
  8
0
 62
7
  6
CONTINUOUS
 10
155.1815540869
 20
30.7873815123
 11
155.7018665869
 21
30.8519086025
 12
155.412804528
 22
30.7551187255
 13
155.412804528
 23
30.7551187255
  0
SOLID
  8
0
 62
7
  6
CONTINUOUS
 10
155.7018665869
 20
30.8519086025
 11
155.759679528
 21
30.6905916353
 12
155.412804528
 22
30.7551187255
 13
155.412804528
 23
30.7551187255
  0
SOLID
  8
0
 62
7
  6
CONTINUOUS
 10
155.4706168074
 20
30.658327332
 11
155.412804528
 21
30.7551187255
 12
155.759679528
 22
30.6905916353
 13
155.759679528
 23
30.6905916353
  0
SOLID
  8
0
 62
7
  6
CONTINUOUS
 10
155.4706168074
 20
30.658327332
 11
155.759679528
 21
30.6905916353
 12
155.5284290869
 22
30.5938002079
 13
155.5284290869
 23
30.5938002079
  0
SOLID
  8
0
 62
7
  6
CONTINUOUS
 10
155.759679528
 20
30.6905916353
 11
155.8174918074
 21
30.5938002079
 12
155.5284290869
 22
30.5938002079
 13
155.5284290869
 23
30.5938002079
  0
SOLID
  8
0
 62
7
  6
CONTINUOUS
 10
151.0768668626
 20
30.8196456577
 11
151.1346793074
 21
30.9164373395
 12
151.4237418626
 22
30.9164373395
 13
151.4237418626
 23
30.9164373395
  0
SOLID
  8
0
 62
7
  6
CONTINUOUS
 10
151.4237418626
 20
30.9164373395
 11
151.3659292523
 21
30.7873815123
 12
151.0768668626
 22
30.8196456577
 13
151.0768668626
 23
30.8196456577
  0
SOLID
  8
0
 62
7
  6
CONTINUOUS
 10
150.9034292799
 20
30.7551187255
 11
151.0768668626
 21
30.8196456577
 12
151.3659292523
 22
30.7873815123
 13
151.3659292523
 23
30.7873815123
  0
SOLID
  8
0
 62
7
  6
CONTINUOUS
 10
150.9034292799
 20
30.7551187255
 11
151.3659292523
 21
30.7873815123
 12
150.498741835
 22
30.7228544222
 13
150.498741835
 23
30.7228544222
  0
SOLID
  8
0
 62
7
  6
CONTINUOUS
 10
151.3659292523
 20
30.7873815123
 11
151.1924917523
 21
30.6905916353
 12
150.498741835
 22
30.7228544222
 13
150.498741835
 23
30.7228544222
  0
SOLID
  8
0
 62
7
  6
CONTINUOUS
 10
150.0362418212
 20
30.658327332
 11
150.498741835
 21
30.7228544222
 12
151.1924917523
 22
30.6905916353
 13
151.1924917523
 23
30.6905916353
  0
SOLID
  8
0
 62
7
  6
CONTINUOUS
 10
150.0362418212
 20
30.658327332
 11
151.1924917523
 21
30.6905916353
 12
150.2096793212
 22
30.6260631011
 13
150.2096793212
 23
30.6260631011
  0
SOLID
  8
0
 62
7
  6
CONTINUOUS
 10
151.1924917523
 20
30.6905916353
 11
150.9612418074
 21
30.6260631011
 12
150.2096793212
 22
30.6260631011
 13
150.2096793212
 23
30.6260631011
  0
SOLID
  8
0
 62
7
  6
CONTINUOUS
 10
150.5565542799
 20
30.5938002419
 11
150.2096793212
 21
30.6260631011
 12
150.9612418074
 22
30.6260631011
 13
150.9612418074
 23
30.6260631011
  0
SOLID
  8
0
 62
7
  6
CONTINUOUS
 10
154.0253041972
 20
30.7551187255
 11
154.2565543074
 21
30.8519086025
 12
154.3143669177
 22
30.7873815123
 13
154.3143669177
 23
30.7873815123
  0
SOLID
  8
0
 62
7
  6
CONTINUOUS
 10
154.3143669177
 20
30.7873815123
 11
154.5456166972
 21
30.7228544222
 12
154.0253041972
 22
30.7551187255
 13
154.0253041972
 23
30.7551187255
  0
SOLID
  8
0
 62
7
  6
CONTINUOUS
 10
154.1987416972
 20
30.658327332
 11
154.0253041972
 21
30.7551187255
 12
154.5456166972
 22
30.7228544222
 13
154.5456166972
 23
30.7228544222
  0
SOLID
  8
0
 62
7
  6
CONTINUOUS
 10
154.8924916972
 20
30.7228544637
 11
155.1815540869
 21
30.7873815123
 12
155.412804528
 22
30.7551187255
 13
155.412804528
 23
30.7551187255
  0
SOLID
  8
0
 62
7
  6
CONTINUOUS
 10
155.412804528
 20
30.7551187255
 11
155.3549915869
 21
30.6905916353
 12
154.8924916972
 22
30.7228544637
 13
154.8924916972
 23
30.7228544637
  0
SOLID
  8
0
 62
7
  6
CONTINUOUS
 10
155.3549915869
 20
30.6905916353
 11
154.1987416972
 21
30.658327332
 12
154.8924916972
 22
30.7228544637
 13
154.8924916972
 23
30.7228544637
  0
SOLID
  8
0
 62
7
  6
CONTINUOUS
 10
154.1987416972
 20
30.658327332
 11
154.5456166972
 21
30.7228544637
 12
154.8924916972
 22
30.7228544637
 13
154.8924916972
 23
30.7228544637
  0
SOLID
  8
0
 62
7
  6
CONTINUOUS
 10
154.1987416972
 20
30.658327332
 11
155.3549915869
 21
30.6905916353
 12
154.3143669177
 22
30.6260630541
 13
154.3143669177
 23
30.6260630541
  0
SOLID
  8
0
 62
7
  6
CONTINUOUS
 10
155.3549915869
 20
30.6905916353
 11
155.1815540869
 21
30.6260630541
 12
154.3143669177
 22
30.6260630541
 13
154.3143669177
 23
30.6260630541
  0
SOLID
  8
0
 62
7
  6
CONTINUOUS
 10
154.5456166972
 20
30.5938002188
 11
154.3143669177
 21
30.6260630541
 12
155.1815540869
 22
30.6260630541
 13
155.1815540869
 23
30.6260630541
  0
SOLID
  8
0
 62
7
  6
CONTINUOUS
 10
155.1815540869
 20
30.6260630541
 11
154.8924916972
 21
30.5938002188
 12
154.5456166972
 22
30.5938002188
 13
154.5456166972
 23
30.5938002188
  0
SOLID
  8
0
 62
7
  6
CONTINUOUS
 10
159.575304528
 20
30.7551187255
 11
159.228429528
 21
30.7228544637
 12
159.4596793074
 22
30.7873815123
 13
159.4596793074
 23
30.7873815123
  0
SOLID
  8
0
 62
7
  6
CONTINUOUS
 10
159.4596793074
 20
30.7873815123
 11
159.228429528
 21
30.7228544637
 12
159.401867028
 22
30.851908644
 13
159.401867028
 23
30.851908644
  0
SOLID
  8
0
 62
7
  6
CONTINUOUS
 10
159.228429528
 20
30.7228544637
 11
159.1128043074
 21
30.851908644
 12
159.401867028
 22
30.851908644
 13
159.401867028
 23
30.851908644
  0
SOLID
  8
0
 62
7
  6
CONTINUOUS
 10
159.575304528
 20
30.7551187255
 11
159.922179528
 21
30.7228544637
 12
159.228429528
 22
30.7228544637
 13
159.228429528
 23
30.7228544637
  0
SOLID
  8
0
 62
7
  6
CONTINUOUS
 10
156.279992028
 20
30.5938002419
 11
156.279992028
 21
31.6262382337
 12
156.5690540869
 22
30.5938002419
 13
156.5690540869
 23
31.6262382337
  0
ENDBLK
  8
0
  6
BYBLOCK
 62
0
  0
BLOCK
  8
0
 62
2
  6
CONTINUOUS
  2
SYMBOL_3_BL0
 70
64
 10
32.1213064866
 20
19.8534310916
  0
TEXT
  8
0
 62
7
  6
CONTINUOUS
 10
18.3860103289
 20
19.2268451992
  7
TEXTSTYLE_3
 40
2.7338706658
  1
Ammeraal Beltech
 41
1.0
 51
15.0
 72
0
  0
TEXT
  8
0
 62
7
  6
CONTINUOUS
 10
29.1868111546
 20
16.9533085264
  7
TEXTSTYLE_4
 40
1.0935482663
  1
Innovation & Service in Belting
 41
1.0
 72
0
  0
LINE
  8
0
 62
7
  6
CONTINUOUS
 10
12.3614696776
 20
19.9934385078
 11
13.1396216709
 21
23.6543558055
  0
LINE
  8
0
 62
7
  6
CONTINUOUS
 10
23.2347899607
 20
27.3177497171
 11
13.6274394139
 21
24.1961322958
  0
LINE
  8
0
 62
7
  6
CONTINUOUS
 10
12.5867530099
 20
19.3000877048
 11
20.093828271
 21
12.5406867788
  0
LINE
  8
0
 62
7
  6
CONTINUOUS
 10
12.8492874206
 20
20.5352149982
 11
23.6575567857
 21
24.0470345971
  0
LINE
  8
0
 62
7
  6
CONTINUOUS
 10
23.6533516486
 20
13.6972460334
 11
15.2078919798
 21
21.3015720751
  0
LINE
  8
0
 62
7
  6
CONTINUOUS
 10
24.1731743684
 20
26.4728246013
 11
23.1966148312
 21
21.8784731989
  0
LINE
  8
0
 62
7
  6
CONTINUOUS
 10
22.4968128835
 20
18.5861638851
 11
21.810364672
 21
15.3566789607
  0
LINE
  8
0
 62
7
  6
CONTINUOUS
 10
24.8542704669
 20
14.087448211
 11
25.8105020025
 21
18.5861638851
  0
LINE
  8
0
 62
7
  6
CONTINUOUS
 10
26.5103039502
 20
21.8784731989
 11
26.9545457526
 21
23.9684665583
  0
LINE
  8
0
 62
7
  6
CONTINUOUS
 10
20.8069293463
 20
12.3891124661
 11
24.3664527239
 21
13.5456717207
  0
LINE
  8
0
 62
7
  6
CONTINUOUS
 10
23.9478910361
 20
27.1661754044
 11
26.7292624203
 21
24.6618173613
  0
ARC
  8
0
 62
7
  6
CONTINUOUS
 10
13.8527227462
 20
23.5027814928
 40
0.7290321776
 50
108.0
 51
168.0
  0
ARC
  8
0
 62
7
  6
CONTINUOUS
 10
23.4600732931
 20
26.624398914
 40
0.7290321776
 50
348.0
 51
108.0
  0
ARC
  8
0
 62
7
  6
CONTINUOUS
 10
26.2414446773
 20
24.120040871
 40
0.7290321776
 50
348.0
 51
48.0
  0
ARC
  8
0
 62
7
  6
CONTINUOUS
 10
20.581646014
 20
13.0824632691
 40
0.7290321776
 50
228.0
 51
288.0
  0
ARC
  8
0
 62
7
  6
CONTINUOUS
 10
13.0745707529
 20
19.8418641951
 40
0.7290321776
 50
108.0
 51
228.0
  0
ARC
  8
0
 62
7
  6
CONTINUOUS
 10
24.1411693916
 20
14.2390225237
 40
0.7290321776
 50
228.0
 51
348.0
  0
ENDBLK
  8
0
  6
BYBLOCK
 62
0
  0
ENDSEC
  0
SECTION
  2
ENTITIES
  0
TEXT
  8
0
 62
5
  6
CONTINUOUS
 10
96.0
 20
25.636
  7
TEXTSTYLE_2
 40
2.8
  1
Scale :
 41
0.6
 51
0.000019
 72
0
  0
TEXT
  8
0
 62
5
  6
CONTINUOUS
 10
116.0
 20
25.636
  7
TEXTSTYLE_2
 40
2.8
  1
Belt type:
 41
0.6
 51
0.000019
 72
0
  0
INSERT
  8
0
 62
2
  6
CONTINUOUS
  2
SYMBOL_3_BL0
 10
32.1213064866
 20
19.8534310916
  0
INSERT
  8
0
 62
2
  6
CONTINUOUS
  2
SYMBOL_8_BL1
 10
173.5956734183
 20
35.5937998301
  0
LINE
  8
0
 62
2
  6
CONTINUOUS
 10
10.0
 20
30.0
 11
200.0
 21
30.0
  0
LINE
  8
0
 62
2
  6
CONTINUOUS
 10
10.0
 20
30.0
 11
10.0
 21
10.0
  0
LINE
  8
0
 62
2
  6
CONTINUOUS
 10
10.0
 20
10.0
 11
200.0
 21
10.0
  0
LINE
  8
0
 62
2
  6
CONTINUOUS
 10
95.0
 20
30.0
 11
95.0
 21
10.0
  0
LINE
  8
0
 62
2
  6
CONTINUOUS
 10
115.0
 20
30.0
 11
115.0
 21
10.0
  0
LINE
  8
0
 62
2
  6
CONTINUOUS
 10
200.0
 20
30.0
 11
200.0
 21
10.0
  0
TEXT
  8
0
 62
5
  6
CONTINUOUS
 10
13.0
 20
23.303
  7
TEXTSTYLE_5
 40
1.52
  1
                                                                     Ammeraal Beltech Modular A/S
 41
1.0
 72
0
  0
TEXT
  8
0
 62
5
  6
CONTINUOUS
 10
13.0
 20
20.595
  7
TEXTSTYLE_5
 40
1.5
  1
                                                                      Hjulmagervej 21,  7100 Vejle,  DK
 41
1.0
 72
0
  0
TEXT
  8
0
 62
5
  6
CONTINUOUS
 10
13.0
 20
17.881
  7
TEXTSTYLE_5
 40
1.495
  1
                                                                      tel: 
 41
1.0
 72
0
  0
TEXT
  8
0
 62
5
  6
CONTINUOUS
 10
57.9869465649
 20
17.881
  7
TEXTSTYLE_5
 40
1.51
  1
+45 75723100     fax: +45 75723348
 41
1.0
 72
0
  0
TEXT
  8
0
 62
5
  6
CONTINUOUS
 10
13.0
 20
15.177
  7
TEXTSTYLE_5
 40
1.5
  1
                                                                      admin@unichains.dk  www.unichains.com
 41
1.0
 72
0
  0
TEXT
  8
0
 62
5
  6
CONTINUOUS
 10
99.75
 20
13.75
  7
TEXTSTYLE_6
 40
5.0
  1
1:1
 41
0.7
 72
1
 11
105.0
 21
13.75
  0
TEXT
  8
0
 62
5
  6
CONTINUOUS
 10
118.0
 20
13.75
  7
TEXTSTYLE_7
 40
7.5
  1
uni MPB C K600
 41
0.7154761905
 72
0
  0
LINE
  8
0
 62
7
  6
CONTINUOUS
 10
210.0
 20
0.0
 11
0.0
 21
0.0
  0
LINE
  8
0
 62
7
  6
CONTINUOUS
 10
10.0
 20
10.0
 11
200.0
 21
10.0
  0
LINE
  8
0
 62
7
  6
CONTINUOUS
 10
10.0
 20
30.0
 11
200.0
 21
30.0
  0
LINE
  8
0
 62
7
  6
CONTINUOUS
 10
0.0
 20
0.0
 11
0.0
 21
297.0
  0
LINE
  8
0
 62
7
  6
CONTINUOUS
 10
10.0
 20
10.0
 11
10.0
 21
287.0
  0
LINE
  8
0
 62
7
  6
CONTINUOUS
 10
200.0
 20
287.0
 11
200.0
 21
10.0
  0
LINE
  8
0
 62
7
  6
CONTINUOUS
 10
210.0
 20
0.0
 11
210.0
 21
297.0
  0
LINE
  8
0
 62
7
  6
CONTINUOUS
 10
10.0
 20
287.0
 11
200.0
 21
287.0
  0
LINE
  8
0
 62
7
  6
CONTINUOUS
 10
0.0
 20
297.0
 11
210.0
 21
297.0
  0
LINE
  8
0
 62
2
  6
CONTINUOUS
 10
38.169299569
 20
259.3561159483
 11
38.169299569
 21
219.3561159483
  0
LINE
  8
0
 62
7
  6
CONTINUOUS
 10
47.809299569
 20
238.9361159483
 11
47.809299569
 21
235.8237215047
  0
POLYLINE
  8
0
 62
7
  6
CONTINUOUS
 66
1
 70
0
  0
VERTEX
  8
0
 62
7
  6
CONTINUOUS
 10
50.7370182457
 20
246.9361159483
  0
VERTEX
  8
0
 62
7
  6
CONTINUOUS
 10
50.736406293
 20
246.9305080881
  0
VERTEX
  8
0
 62
7
  6
CONTINUOUS
 10
50.7375453139
 20
246.9144429346
  0
VERTEX
  8
0
 62
7
  6
CONTINUOUS
 10
50.7406302866
 20
246.8887813468
  0
VERTEX
  8
0
 62
7
  6
CONTINUOUS
 10
50.745647421
 20
246.8549729747
  0
VERTEX
  8
0
 62
7
  6
CONTINUOUS
 10
50.7524174368
 20
246.8149641923
  0
VERTEX
  8
0
 62
7
  6
CONTINUOUS
 10
50.7606321105
 20
246.7710405054
  0
VERTEX
  8
0
 62
7
  6
CONTINUOUS
 10
50.7698935323
 20
246.7256354275
  0
VERTEX
  8
0
 62
7
  6
CONTINUOUS
 10
50.7797517939
 20
246.6811562699
  0
SEQEND
  0
LINE
  8
0
 62
2
  6
CONTINUOUS
 10
53.609299569
 20
239.8161159483
 11
53.609299569
 21
238.0561159483
  0
LINE
  8
DEFAULT_1
 62
2
  6
CENTER
 10
53.609299569
 20
234.5361159483
 11
53.609299569
 21
232.7861159483
  0
LINE
  8
DEFAULT_1
 62
2
  6
CENTER
 10
53.609299569
 20
243.3361159483
 11
53.609299569
 21
245.0861159483
  0
POLYLINE
  8
0
 62
6
  6
CONTINUOUS
 66
1
 70
0
  0
VERTEX
  8
0
 62
6
  6
CONTINUOUS
 10
50.7370651125
 20
230.9361159483
  0
VERTEX
  8
0
 62
6
  6
CONTINUOUS
 10
50.7430580555
 20
230.953768763
  0
VERTEX
  8
0
 62
6
  6
CONTINUOUS
 10
50.7544664822
 20
231.0059034918
  0
VERTEX
  8
0
 62
6
  6
CONTINUOUS
 10
50.7707493077
 20
231.0904054659
  0
VERTEX
  8
0
 62
6
  6
CONTINUOUS
 10
50.7912498901
 20
231.2040654811
  0
VERTEX
  8
0
 62
6
  6
CONTINUOUS
 10
50.8152022651
 20
231.342718623
  0
VERTEX
  8
0
 62
6
  6
CONTINUOUS
 10
50.8417432511
 20
231.5014182454
  0
VERTEX
  8
0
 62
6
  6
CONTINUOUS
 10
50.8987519703
 20
231.8564389471
  0
SEQEND
  0
LINE
  8
0
 62
7
  6
CONTINUOUS
 10
59.409299569
 20
235.8237215047
 11
59.409299569
 21
238.9361159483
  0
POLYLINE
  8
0
 62
7
  6
CONTINUOUS
 66
1
 70
0
  0
VERTEX
  8
0
 62
7
  6
CONTINUOUS
 10
50.7370651125
 20
230.9361159483
  0
VERTEX
  8
0
 62
7
  6
CONTINUOUS
 10
50.7386623737
 20
230.9386446725
  0
VERTEX
  8
0
 62
7
  6
CONTINUOUS
 10
50.7410729708
 20
230.9462068802
  0
SEQEND
  0
LINE
  8
0
 62
2
  6
CONTINUOUS
 10
119.009299569
 20
218.9361159483
 11
39.009299569
 21
218.9361159483
  0
POLYLINE
  8
0
 62
7
  6
CONTINUOUS
 66
1
 70
0
  0
VERTEX
  8
0
 62
7
  6
CONTINUOUS
 10
50.7410729708
 20
230.9462068802
  0
VERTEX
  8
0
 62
7
  6
CONTINUOUS
 10
50.1138759657
 20
231.1953961689
  0
VERTEX
  8
0
 62
7
  6
CONTINUOUS
 10
49.5063117826
 20
231.4956303461
  0
VERTEX
  8
0
 62
7
  6
CONTINUOUS
 10
48.9251716245
 20
231.8442787487
  0
VERTEX
  8
0
 62
7
  6
CONTINUOUS
 10
48.3756057193
 20
232.238470944
  0
SEQEND
  0
LINE
  8
0
 62
7
  6
CONTINUOUS
 10
58.109299569
 20
230.9361159483
 11
50.7370651125
 21
230.9361159483
  0
LINE
  8
0
 62
6
  6
CONTINUOUS
 10
50.7370651125
 20
230.9361159483
 11
50.7370182457
 21
230.9361159483
  0
LINE
  8
0
 62
7
  6
CONTINUOUS
 10
99.909299569
 20
230.9361159483
 11
107.2815808922
 21
230.9361159483
  0
LINE
  8
0
 62
6
  6
CONTINUOUS
 10
107.2815340255
 20
230.9361159483
 11
107.2815808922
 21
230.9361159483
  0
LINE
  8
0
 62
7
  6
CONTINUOUS
 10
58.1092995689
 20
230.9462068802
 11
50.7410729708
 21
230.9462068802
  0
LINE
  8
0
 62
7
  6
CONTINUOUS
 10
78.2564762082
 20
230.9861159483
 11
79.7621229297
 21
230.9861159483
  0
POLYLINE
  8
0
 62
7
  6
CONTINUOUS
 66
1
 70
0
  0
VERTEX
  8
0
 62
7
  6
CONTINUOUS
 10
60.054855703
 20
231.3545543072
  0
VERTEX
  8
0
 62
7
  6
CONTINUOUS
 10
59.9468642982
 20
231.2834827991
  0
VERTEX
  8
0
 62
7
  6
CONTINUOUS
 10
59.8304351471
 20
231.2242103609
  0
VERTEX
  8
0
 62
7
  6
CONTINUOUS
 10
59.7095993744
 20
231.1754295334
  0
VERTEX
  8
0
 62
7
  6
CONTINUOUS
 10
59.5890877955
 20
231.1357732189
  0
VERTEX
  8
0
 62
7
  6
CONTINUOUS
 10
59.472366955
 20
231.1036967485
  0
VERTEX
  8
0
 62
7
  6
CONTINUOUS
 10
59.3609930293
 20
231.0778364139
  0
SEQEND
  0
POLYLINE
  8
0
 62
7
  6
CONTINUOUS
 66
1
 70
0
  0
VERTEX
  8
0
 62
7
  6
CONTINUOUS
 10
59.3610183075
 20
231.0778419282
  0
VERTEX
  8
0
 62
7
  6
CONTINUOUS
 10
58.9472592536
 20
231.0048384758
  0
VERTEX
  8
0
 62
7
  6
CONTINUOUS
 10
58.5293718704
 20
230.9608870839
  0
VERTEX
  8
0
 62
7
  6
CONTINUOUS
 10
58.1092995689
 20
230.9462068802
  0
SEQEND
  0
LINE
  8
0
 62
7
  6
CONTINUOUS
 10
75.3393328095
 20
238.3270673259
 11
77.2974957565
 21
231.7026437393
  0
LINE
  8
0
 62
6
  6
CONTINUOUS
 10
79.009299569
 20
258.9361159483
 11
79.009299569
 21
252.1575492341
  0
LINE
  8
DEFAULT_1
 62
2
  6
CENTER
 10
79.009299569
 20
218.9361159483
 11
79.009299569
 21
252.1575492341
  0
LINE
  8
0
 62
2
  6
CONTINUOUS
 10
105.289299569
 20
238.9361159483
 11
103.529299569
 21
238.9361159483
  0
LINE
  8
0
 62
40
  6
CONTINUOUS
 10
103.529299569
 20
238.9361159483
 11
103.029299569
 21
238.9361159483
  0
LINE
  8
DEFAULT_1
 62
2
  6
CENTER
 10
100.009299569
 20
238.9361159483
 11
98.259299569
 21
238.9361159483
  0
LINE
  8
0
 62
7
  6
CONTINUOUS
 10
74.5241994256
 20
238.9361159483
 11
72.8314903897
 21
238.9361159483
  0
LINE
  8
0
 62
2
  6
CONTINUOUS
 10
54.489299569
 20
238.9361159483
 11
52.729299569
 21
238.9361159483
  0
LINE
  8
0
 62
40
  6
CONTINUOUS
 10
52.729299569
 20
238.9361159483
 11
51.989299569
 21
238.9361159483
  0
LINE
  8
DEFAULT_1
 62
2
  6
CENTER
 10
49.209299569
 20
238.9361159483
 11
47.459299569
 21
238.9361159483
  0
LINE
  8
0
 62
40
  6
CONTINUOUS
 10
45.1101116014
 20
238.9361159483
 11
25.185999569
 21
238.9361159483
  0
LINE
  8
0
 62
40
  6
CONTINUOUS
 10
54.489299569
 20
238.9361159483
 11
54.989299569
 21
238.9361159483
  0
LINE
  8
DEFAULT_1
 62
2
  6
CENTER
 10
58.009299569
 20
238.9361159483
 11
59.759299569
 21
238.9361159483
  0
LINE
  8
0
 62
7
  6
CONTINUOUS
 10
83.4943997123
 20
238.9361159483
 11
85.1871087482
 21
238.9361159483
  0
LINE
  8
0
 62
40
  6
CONTINUOUS
 10
105.289299569
 20
238.9361159483
 11
106.029299569
 21
238.9361159483
  0
LINE
  8
DEFAULT_1
 62
2
  6
CENTER
 10
108.809299569
 20
238.9361159483
 11
110.559299569
 21
238.9361159483
  0
LINE
  8
0
 62
40
  6
CONTINUOUS
 10
112.9083864531
 20
238.9361159483
 11
132.832599569
 21
238.9361159483
  0
LINE
  8
0
 62
7
  6
CONTINUOUS
 10
61.6603805118
 20
242.8396812045
 11
72.497025524
 21
238.993707728
  0
LINE
  8
0
 62
7
  6
CONTINUOUS
 10
80.7211033814
 20
231.7026437393
 11
82.6792663284
 21
238.3270673259
  0
LINE
  8
0
 62
6
  6
CONTINUOUS
 10
96.3582186262
 20
242.8396812045
 11
88.7427832819
 21
240.1369293553
  0
LINE
  8
0
 62
7
  6
CONTINUOUS
 10
85.5215736139
 20
238.993707728
 11
88.7427832819
 21
240.1369293553
  0
LINE
  8
0
 62
6
  6
CONTINUOUS
 10
99.8381862177
 20
246.9361451289
 11
99.8379099844
 21
246.9360692977
  0
LINE
  8
0
 62
6
  6
CONTINUOUS
 10
58.1804129254
 20
246.9361451284
 11
58.1806891536
 21
246.9360692986
  0
LINE
  8
0
 62
7
  6
CONTINUOUS
 10
50.7370182457
 20
246.9361159483
 11
107.2815808922
 21
246.9361159483
  0
POLYLINE
  8
0
 62
7
  6
CONTINUOUS
 66
1
 70
0
  0
VERTEX
  8
0
 62
7
  6
CONTINUOUS
 10
58.1804129254
 20
246.9361451284
  0
VERTEX
  8
0
 62
7
  6
CONTINUOUS
 10
58.1159557729
 20
246.9276910569
  0
VERTEX
  8
0
 62
7
  6
CONTINUOUS
 10
58.0558584387
 20
246.9029002781
  0
VERTEX
  8
0
 62
7
  6
CONTINUOUS
 10
58.0041864623
 20
246.8634496359
  0
VERTEX
  8
0
 62
7
  6
CONTINUOUS
 10
57.9644355135
 20
246.8120077925
  0
VERTEX
  8
0
 62
7
  6
CONTINUOUS
 10
57.9392948178
 20
246.7520547185
  0
VERTEX
  8
0
 62
7
  6
CONTINUOUS
 10
57.9304651469
 20
246.6876462409
  0
VERTEX
  8
0
 62
7
  6
CONTINUOUS
 10
57.9385437174
 20
246.6231395993
  0
VERTEX
  8
0
 62
7
  6
CONTINUOUS
 10
57.9629837923
 20
246.5628986039
  0
VERTEX
  8
0
 62
7
  6
CONTINUOUS
 10
58.0021317116
 20
246.5109983661
  0
VERTEX
  8
0
 62
7
  6
CONTINUOUS
 10
58.0533388384
 20
246.4709495864
  0
SEQEND
  0
LINE
  8
0
 62
2
  6
CONTINUOUS
 10
119.009299569
 20
258.9361159483
 11
39.009299569
 21
258.9361159483
  0
LINE
  8
0
 62
2
  6
CONTINUOUS
 10
104.409299569
 20
239.8161159483
 11
104.409299569
 21
238.0561159483
  0
LINE
  8
DEFAULT_1
 62
2
  6
CENTER
 10
104.409299569
 20
234.5361159483
 11
104.409299569
 21
232.7861159483
  0
LINE
  8
DEFAULT_1
 62
2
  6
CENTER
 10
104.409299569
 20
243.3361159483
 11
104.409299569
 21
245.0861159483
  0
LINE
  8
0
 62
7
  6
CONTINUOUS
 10
107.2465517523
 20
246.7361159483
 11
107.2815808922
 21
246.9361159483
  0
POLYLINE
  8
0
 62
6
  6
CONTINUOUS
 66
1
 70
0
  0
VERTEX
  8
0
 62
6
  6
CONTINUOUS
 10
107.2605102284
 20
246.7842193955
  0
VERTEX
  8
0
 62
6
  6
CONTINUOUS
 10
107.2693035468
 20
246.8328641835
  0
VERTEX
  8
0
 62
6
  6
CONTINUOUS
 10
107.2760319896
 20
246.8750755624
  0
VERTEX
  8
0
 62
6
  6
CONTINUOUS
 10
107.2803516929
 20
246.9078400055
  0
VERTEX
  8
0
 62
6
  6
CONTINUOUS
 10
107.2821405796
 20
246.9287366973
  0
VERTEX
  8
0
 62
6
  6
CONTINUOUS
 10
107.2815808922
 20
246.9361159483
  0
SEQEND
  0
LINE
  8
0
 62
6
  6
CONTINUOUS
 10
107.2605102284
 20
246.7842193955
 11
107.2487056053
 21
246.7256354261
  0
LINE
  8
0
 62
6
  6
CONTINUOUS
 10
107.2388476044
 20
246.6811573639
 11
107.2501556823
 21
246.7324992846
  0
POLYLINE
  8
0
 62
6
  6
CONTINUOUS
 66
1
 70
0
  0
VERTEX
  8
0
 62
6
  6
CONTINUOUS
 10
107.2815340255
 20
230.9361159483
  0
VERTEX
  8
0
 62
6
  6
CONTINUOUS
 10
107.2755410825
 20
230.953768763
  0
VERTEX
  8
0
 62
6
  6
CONTINUOUS
 10
107.2641326557
 20
231.0059034918
  0
VERTEX
  8
0
 62
6
  6
CONTINUOUS
 10
107.2478498302
 20
231.0904054659
  0
VERTEX
  8
0
 62
6
  6
CONTINUOUS
 10
107.2273492478
 20
231.2040654812
  0
VERTEX
  8
0
 62
6
  6
CONTINUOUS
 10
107.2033968729
 20
231.342718623
  0
VERTEX
  8
0
 62
6
  6
CONTINUOUS
 10
107.1768558869
 20
231.5014182454
  0
SEQEND
  0
LINE
  8
0
 62
6
  6
CONTINUOUS
 10
107.1768558869
 20
231.5014182454
 11
107.1198471676
 21
231.8564389471
  0
POLYLINE
  8
0
 62
6
  6
CONTINUOUS
 66
1
 70
0
  0
VERTEX
  8
0
 62
6
  6
CONTINUOUS
 10
107.2815808922
 20
246.9361159483
  0
VERTEX
  8
0
 62
6
  6
CONTINUOUS
 10
107.2821928449
 20
246.9305080873
  0
VERTEX
  8
0
 62
6
  6
CONTINUOUS
 10
107.2810538239
 20
246.9144429334
  0
VERTEX
  8
0
 62
6
  6
CONTINUOUS
 10
107.2779688512
 20
246.8887813453
  0
VERTEX
  8
0
 62
6
  6
CONTINUOUS
 10
107.2729517167
 20
246.8549729728
  0
VERTEX
  8
0
 62
6
  6
CONTINUOUS
 10
107.2661817008
 20
246.8149641902
  0
VERTEX
  8
0
 62
6
  6
CONTINUOUS
 10
107.257967027
 20
246.7710405033
  0
SEQEND
  0
POLYLINE
  8
0
 62
7
  6
CONTINUOUS
 66
1
 70
0
  0
VERTEX
  8
0
 62
7
  6
CONTINUOUS
 10
107.2405934194
 20
231.9361159483
  0
VERTEX
  8
0
 62
7
  6
CONTINUOUS
 10
107.240733953
 20
231.7813367005
  0
VERTEX
  8
0
 62
7
  6
CONTINUOUS
 10
107.2434684555
 20
231.629956117
  0
VERTEX
  8
0
 62
7
  6
CONTINUOUS
 10
107.2480738178
 20
231.4856804029
  0
VERTEX
  8
0
 62
7
  6
CONTINUOUS
 10
107.2538825484
 20
231.3520715798
  0
VERTEX
  8
0
 62
7
  6
CONTINUOUS
 10
107.2602717036
 20
231.2324672845
  0
VERTEX
  8
0
 62
7
  6
CONTINUOUS
 10
107.2666560802
 20
231.1299024971
  0
VERTEX
  8
0
 62
7
  6
CONTINUOUS
 10
107.2724841773
 20
231.0470345662
  0
VERTEX
  8
0
 62
7
  6
CONTINUOUS
 10
107.2772359399
 20
230.986073684
  0
VERTEX
  8
0
 62
7
  6
CONTINUOUS
 10
107.280421577
 20
230.9487208999
  0
VERTEX
  8
0
 62
7
  6
CONTINUOUS
 10
107.2815808922
 20
230.9361159483
  0
SEQEND
  0
LINE
  8
0
 62
2
  6
CONTINUOUS
 10
119.009299569
 20
258.9361159483
 11
119.009299569
 21
218.9361159483
  0
POLYLINE
  8
0
 62
7
  6
CONTINUOUS
 66
1
 70
0
  0
VERTEX
  8
0
 62
7
  6
CONTINUOUS
 10
50.7720474655
 20
206.0215146552
  0
VERTEX
  8
0
 62
7
  6
CONTINUOUS
 10
50.7642846984
 20
206.016589785
  0
VERTEX
  8
0
 62
7
  6
CONTINUOUS
 10
50.7569045733
 20
206.0020052702
  0
VERTEX
  8
0
 62
7
  6
CONTINUOUS
 10
50.7502703759
 20
205.9783968085
  0
VERTEX
  8
0
 62
7
  6
CONTINUOUS
 10
50.7447143017
 20
205.9468583587
  0
VERTEX
  8
0
 62
7
  6
CONTINUOUS
 10
50.740520114
 20
205.908907174
  0
VERTEX
  8
0
 62
7
  6
CONTINUOUS
 10
50.7379072004
 20
205.8664160493
  0
VERTEX
  8
0
 62
7
  6
CONTINUOUS
 10
50.7370182457
 20
205.8215146552
  0
SEQEND
  0
POLYLINE
  8
0
 62
7
  6
CONTINUOUS
 66
1
 70
0
  0
VERTEX
  8
0
 62
7
  6
CONTINUOUS
 10
112.7093084739
 20
55.0215142863
  0
VERTEX
  8
0
 62
7
  6
CONTINUOUS
 10
112.7536102141
 20
55.0264828474
  0
VERTEX
  8
0
 62
7
  6
CONTINUOUS
 10
112.795855851
 20
55.0412112571
  0
VERTEX
  8
0
 62
7
  6
CONTINUOUS
 10
112.833770291
 20
55.0649625456
  0
VERTEX
  8
0
 62
7
  6
CONTINUOUS
 10
112.8654560483
 20
55.0965480895
  0
VERTEX
  8
0
 62
7
  6
CONTINUOUS
 10
112.8893273298
 20
55.1343870861
  0
VERTEX
  8
0
 62
7
  6
CONTINUOUS
 10
112.9041895168
 20
55.1765857035
  0
VERTEX
  8
0
 62
7
  6
CONTINUOUS
 10
112.90929956
 20
55.2215059371
  0
SEQEND
  0
LINE
  8
0
 62
7
  6
CONTINUOUS
 10
112.7093667743
 20
55.0215146552
 11
58.1306938011
 21
55.0215146552
  0
POLYLINE
  8
0
 62
7
  6
CONTINUOUS
 66
1
 70
0
  0
VERTEX
  8
0
 62
7
  6
CONTINUOUS
 10
46.5705328372
 20
64.4670454813
  0
VERTEX
  8
0
 62
7
  6
CONTINUOUS
 10
46.9714820589
 20
64.2872622061
  0
VERTEX
  8
0
 62
7
  6
CONTINUOUS
 10
47.4370950998
 20
64.112197668
  0
VERTEX
  8
0
 62
7
  6
CONTINUOUS
 10
47.9387195802
 20
63.9534292661
  0
VERTEX
  8
0
 62
7
  6
CONTINUOUS
 10
48.4720557824
 20
63.8107245203
  0
VERTEX
  8
0
 62
7
  6
CONTINUOUS
 10
49.0324468042
 20
63.6840362867
  0
VERTEX
  8
0
 62
7
  6
CONTINUOUS
 10
49.6150576097
 20
63.5733487557
  0
VERTEX
  8
0
 62
7
  6
CONTINUOUS
 10
50.2148825366
 20
63.4786199044
  0
VERTEX
  8
0
 62
7
  6
CONTINUOUS
 10
50.766675658
 20
63.4067420906
  0
SEQEND
  0
POLYLINE
  8
0
 62
7
  6
CONTINUOUS
 66
1
 70
0
  0
VERTEX
  8
0
 62
7
  6
CONTINUOUS
 10
101.4197580706
 20
63.2333480668
  0
VERTEX
  8
0
 62
7
  6
CONTINUOUS
 10
101.1257262997
 20
63.2293783459
  0
VERTEX
  8
0
 62
7
  6
CONTINUOUS
 10
101.0458571267
 20
63.2293316794
  0
VERTEX
  8
0
 62
7
  6
CONTINUOUS
 10
100.9666816635
 20
63.2307084441
  0
VERTEX
  8
0
 62
7
  6
CONTINUOUS
 10
100.8884596897
 20
63.2337075535
  0
VERTEX
  8
0
 62
7
  6
CONTINUOUS
 10
100.8113885702
 20
63.2385431233
  0
VERTEX
  8
0
 62
7
  6
CONTINUOUS
 10
100.7356753976
 20
63.2454042531
  0
VERTEX
  8
0
 62
7
  6
CONTINUOUS
 10
100.6617481287
 20
63.2544601514
  0
VERTEX
  8
0
 62
7
  6
CONTINUOUS
 10
100.5900529525
 20
63.2658758073
  0
VERTEX
  8
0
 62
7
  6
CONTINUOUS
 10
100.5204539303
 20
63.2798317833
  0
VERTEX
  8
0
 62
7
  6
CONTINUOUS
 10
100.4532183443
 20
63.2965995379
  0
VERTEX
  8
0
 62
7
  6
CONTINUOUS
 10
100.3897893034
 20
63.3163016898
  0
VERTEX
  8
0
 62
7
  6
CONTINUOUS
 10
100.330794411
 20
63.3396530878
  0
VERTEX
  8
0
 62
7
  6
CONTINUOUS
 10
100.276024406
 20
63.3670559714
  0
VERTEX
  8
0
 62
7
  6
CONTINUOUS
 10
100.2270931386
 20
63.3979051051
  0
VERTEX
  8
0
 62
7
  6
CONTINUOUS
 10
100.1850667758
 20
63.4313691081
  0
VERTEX
  8
0
 62
7
  6
CONTINUOUS
 10
100.1497231011
 20
63.46750431
  0
VERTEX
  8
0
 62
7
  6
CONTINUOUS
 10
100.1213579577
 20
63.5062675517
  0
VERTEX
  8
0
 62
7
  6
CONTINUOUS
 10
100.10078166
 20
63.5475411514
  0
VERTEX
  8
0
 62
7
  6
CONTINUOUS
 10
100.0895986328
 20
63.5905384875
  0
VERTEX
  8
0
 62
7
  6
CONTINUOUS
 10
100.0881086206
 20
63.6117773907
  0
SEQEND
  0
LINE
  8
0
 62
7
  6
CONTINUOUS
 10
101.7027722397
 20
63.2357901214
 11
101.4197580706
 21
63.2333480668
  0
LINE
  8
0
 62
7
  6
CONTINUOUS
 10
101.7027722397
 20
63.2357901214
 11
107.2508731802
 21
63.2363464983
  0
LINE
  8
0
 62
7
  6
CONTINUOUS
 10
50.7666815236
 20
63.4067421202
 11
50.7677014635
 21
63.406682815
  0
LINE
  8
0
 62
7
  6
CONTINUOUS
 10
46.4748675873
 20
64.478886877
 11
46.5795949294
 21
64.4629820924
  0
LINE
  8
0
 62
7
  6
CONTINUOUS
 10
46.9714820589
 20
188.3557671042
 11
46.5705328372
 21
188.175983829
  0
POLYLINE
  8
0
 62
6
  6
CONTINUOUS
 66
1
 70
0
  0
VERTEX
  8
0
 62
6
  6
CONTINUOUS
 10
50.7606321105
 20
189.2332735795
  0
VERTEX
  8
0
 62
6
  6
CONTINUOUS
 10
50.7698935323
 20
189.2360717063
  0
VERTEX
  8
0
 62
6
  6
CONTINUOUS
 10
50.7797517939
 20
189.2286468721
  0
SEQEND
  0
POLYLINE
  8
0
 62
7
  6
CONTINUOUS
 66
1
 70
0
  0
VERTEX
  8
0
 62
7
  6
CONTINUOUS
 10
111.5437225932
 20
72.8788854806
  0
VERTEX
  8
0
 62
7
  6
CONTINUOUS
 10
111.7112351624
 20
72.9065472923
  0
VERTEX
  8
0
 62
7
  6
CONTINUOUS
 10
111.8762613805
 20
72.9374520902
  0
VERTEX
  8
0
 62
7
  6
CONTINUOUS
 10
112.0200890818
 20
72.9684008767
  0
VERTEX
  8
0
 62
7
  6
CONTINUOUS
 10
112.1460917049
 20
72.999810064
  0
VERTEX
  8
0
 62
7
  6
CONTINUOUS
 10
112.257678544
 20
73.032393205
  0
VERTEX
  8
0
 62
7
  6
CONTINUOUS
 10
112.3585298628
 20
73.0674082138
  0
VERTEX
  8
0
 62
7
  6
CONTINUOUS
 10
112.4527333293
 20
73.1070917121
  0
VERTEX
  8
0
 62
7
  6
CONTINUOUS
 10
112.5441972551
 20
73.1551188299
  0
VERTEX
  8
0
 62
7
  6
CONTINUOUS
 10
112.6358044778
 20
73.2172284807
  0
VERTEX
  8
0
 62
7
  6
CONTINUOUS
 10
112.7270953454
 20
73.3009574055
  0
VERTEX
  8
0
 62
7
  6
CONTINUOUS
 10
112.810583253
 20
73.4116028167
  0
VERTEX
  8
0
 62
7
  6
CONTINUOUS
 10
112.8735269764
 20
73.5465924822
  0
VERTEX
  8
0
 62
7
  6
CONTINUOUS
 10
112.9056691322
 20
73.6944272714
  0
VERTEX
  8
0
 62
7
  6
CONTINUOUS
 10
112.909299465
 20
73.765341414
  0
SEQEND
  0
LINE
  8
0
 62
7
  6
CONTINUOUS
 10
111.439005136
 20
72.862984367
 11
111.5437306807
 21
72.8788867414
  0
POLYLINE
  8
0
 62
7
  6
CONTINUOUS
 66
1
 70
0
  0
VERTEX
  8
0
 62
7
  6
CONTINUOUS
 10
107.2519234518
 20
71.8067420873
  0
VERTEX
  8
0
 62
7
  6
CONTINUOUS
 10
107.8002148342
 20
71.8781193423
  0
VERTEX
  8
0
 62
7
  6
CONTINUOUS
 10
108.4001962496
 20
71.9727688037
  0
VERTEX
  8
0
 62
7
  6
CONTINUOUS
 10
108.9829832141
 20
72.0833794085
  0
VERTEX
  8
0
 62
7
  6
CONTINUOUS
 10
109.5435688804
 20
72.2099932947
  0
VERTEX
  8
0
 62
7
  6
CONTINUOUS
 10
110.0771165587
 20
72.3526260491
  0
VERTEX
  8
0
 62
7
  6
CONTINUOUS
 10
110.5789669367
 20
72.5113239733
  0
VERTEX
  8
0
 62
7
  6
CONTINUOUS
 10
111.0448175421
 20
72.6863177549
  0
SEQEND
  0
POLYLINE
  8
0
 62
7
  6
CONTINUOUS
 66
1
 70
0
  0
VERTEX
  8
0
 62
7
  6
CONTINUOUS
 10
56.5948733373
 20
63.4096343788
  0
VERTEX
  8
0
 62
7
  6
CONTINUOUS
 10
56.8881954562
 20
63.4136073557
  0
VERTEX
  8
0
 62
7
  6
CONTINUOUS
 10
56.9677889992
 20
63.4137336792
  0
VERTEX
  8
0
 62
7
  6
CONTINUOUS
 10
57.0468516604
 20
63.4124549997
  0
VERTEX
  8
0
 62
7
  6
CONTINUOUS
 10
57.1251033847
 20
63.4095685229
  0
VERTEX
  8
0
 62
7
  6
CONTINUOUS
 10
57.2023216287
 20
63.4048531209
  0
VERTEX
  8
0
 62
7
  6
CONTINUOUS
 10
57.2782866776
 20
63.3981102004
  0
VERTEX
  8
0
 62
7
  6
CONTINUOUS
 10
57.3525658222
 20
63.3891638542
  0
VERTEX
  8
0
 62
7
  6
CONTINUOUS
 10
57.4246508206
 20
63.377844337
  0
VERTEX
  8
0
 62
7
  6
CONTINUOUS
 10
57.4947554895
 20
63.3639529378
  0
VERTEX
  8
0
 62
7
  6
CONTINUOUS
 10
57.5624056416
 20
63.3472530619
  0
VERTEX
  8
0
 62
7
  6
CONTINUOUS
 10
57.6264738259
 20
63.32753852
  0
VERTEX
  8
0
 62
7
  6
CONTINUOUS
 10
57.6859636509
 20
63.3041918424
  0
VERTEX
  8
0
 62
7
  6
CONTINUOUS
 10
57.7412325998
 20
63.2767234193
  0
VERTEX
  8
0
 62
7
  6
CONTINUOUS
 10
57.7906771291
 20
63.2457085427
  0
VERTEX
  8
0
 62
7
  6
CONTINUOUS
 10
57.832856102
 20
63.2122658567
  0
VERTEX
  8
0
 62
7
  6
CONTINUOUS
 10
57.8681303938
 20
63.1763959654
  0
VERTEX
  8
0
 62
7
  6
CONTINUOUS
 10
57.8964262052
 20
63.13807579
  0
VERTEX
  8
0
 62
7
  6
CONTINUOUS
 10
57.9171363109
 20
63.0972447895
  0
VERTEX
  8
0
 62
7
  6
CONTINUOUS
 10
57.9287245729
 20
63.0544479668
  0
VERTEX
  8
0
 62
7
  6
CONTINUOUS
 10
57.9304910831
 20
63.0310781685
  0
SEQEND
  0
LINE
  8
0
 62
7
  6
CONTINUOUS
 10
56.3118516006
 20
63.4072184044
 11
56.5948733373
 21
63.4096343788
  0
LINE
  8
0
 62
7
  6
CONTINUOUS
 10
50.767763475
 20
63.406682812
 11
56.3118516006
 21
63.4072184044
  0
LINE
  8
0
 62
7
  6
CONTINUOUS
 10
107.2509052932
 20
63.2363464983
 11
107.2519133304
 21
63.2362871722
  0
LINE
  8
0
 62
7
  6
CONTINUOUS
 10
111.5437306807
 20
62.164142569
 11
111.4390051357
 21
62.1800449433
  0
LINE
  8
0
 62
7
  6
CONTINUOUS
 10
107.2519175861
 20
71.8067421169
 11
107.2508976744
 21
71.806682815
  0
LINE
  8
0
 62
7
  6
CONTINUOUS
 10
50.7666815236
 20
71.6362871901
 11
50.7677014635
 21
71.6363464954
  0
POLYLINE
  8
0
 62
7
  6
CONTINUOUS
 66
1
 70
0
  0
VERTEX
  8
0
 62
7
  6
CONTINUOUS
 10
56.8923012096
 20
71.6293839933
  0
VERTEX
  8
0
 62
7
  6
CONTINUOUS
 10
56.5988372238
 20
71.6333484698
  0
VERTEX
  8
0
 62
7
  6
CONTINUOUS
 10
56.3158250223
 20
71.6357902137
  0
VERTEX
  8
0
 62
7
  6
CONTINUOUS
 10
50.767763475
 20
71.6363464983
  0
SEQEND
  0
POLYLINE
  8
0
 62
7
  6
CONTINUOUS
 66
1
 70
0
  0
VERTEX
  8
0
 62
7
  6
CONTINUOUS
 10
101.1299267541
 20
71.8136119342
  0
VERTEX
  8
0
 62
7
  6
CONTINUOUS
 10
101.4237258513
 20
71.809634379
  0
VERTEX
  8
0
 62
7
  6
CONTINUOUS
 10
101.7067475118
 20
71.8072184045
  0
VERTEX
  8
0
 62
7
  6
CONTINUOUS
 10
107.2508356629
 20
71.806682812
  0
SEQEND
  0
POLYLINE
  8
0
 62
7
  6
CONTINUOUS
 66
1
 70
0
  0
VERTEX
  8
0
 62
7
  6
CONTINUOUS
 10
46.5705328372
 20
81.2670454813
  0
VERTEX
  8
0
 62
7
  6
CONTINUOUS
 10
46.9714820589
 20
81.0872622061
  0
VERTEX
  8
0
 62
7
  6
CONTINUOUS
 10
47.4370950998
 20
80.912197668
  0
VERTEX
  8
0
 62
7
  6
CONTINUOUS
 10
47.9387195802
 20
80.7534292661
  0
VERTEX
  8
0
 62
7
  6
CONTINUOUS
 10
48.4720557824
 20
80.6107245203
  0
VERTEX
  8
0
 62
7
  6
CONTINUOUS
 10
49.0324468042
 20
80.4840362867
  0
VERTEX
  8
0
 62
7
  6
CONTINUOUS
 10
49.6150576097
 20
80.3733487557
  0
VERTEX
  8
0
 62
7
  6
CONTINUOUS
 10
50.2148825366
 20
80.2786199044
  0
VERTEX
  8
0
 62
7
  6
CONTINUOUS
 10
50.766675658
 20
80.2067420906
  0
SEQEND
  0
LINE
  8
0
 62
7
  6
CONTINUOUS
 10
46.9714820589
 20
171.5557671042
 11
46.5705328372
 21
171.375983829
  0
POLYLINE
  8
0
 62
7
  6
CONTINUOUS
 66
1
 70
0
  0
VERTEX
  8
0
 62
7
  6
CONTINUOUS
 10
46.4748757926
 20
70.5641437125
  0
VERTEX
  8
0
 62
7
  6
CONTINUOUS
 10
46.3060807393
 20
70.5362570668
  0
VERTEX
  8
0
 62
7
  6
CONTINUOUS
 10
46.1415205229
 20
70.5054131654
  0
VERTEX
  8
0
 62
7
  6
CONTINUOUS
 10
45.9980822464
 20
70.4745294146
  0
VERTEX
  8
0
 62
7
  6
CONTINUOUS
 10
45.8724039459
 20
70.443191368
  0
VERTEX
  8
0
 62
7
  6
CONTINUOUS
 10
45.7610902756
 20
70.4106899827
  0
VERTEX
  8
0
 62
7
  6
CONTINUOUS
 10
45.6604806541
 20
70.3757776798
  0
VERTEX
  8
0
 62
7
  6
CONTINUOUS
 10
45.566515783
 20
70.3362410526
  0
VERTEX
  8
0
 62
7
  6
CONTINUOUS
 10
45.4753200019
 20
70.2884524614
  0
VERTEX
  8
0
 62
7
  6
CONTINUOUS
 10
45.3840078256
 20
70.2267434181
  0
VERTEX
  8
0
 62
7
  6
CONTINUOUS
 10
45.2929600716
 20
70.1436463508
  0
VERTEX
  8
0
 62
7
  6
CONTINUOUS
 10
45.2094905126
 20
70.0338410857
  0
VERTEX
  8
0
 62
7
  6
CONTINUOUS
 10
45.1461802054
 20
69.8996873036
  0
VERTEX
  8
0
 62
7
  6
CONTINUOUS
 10
45.11333673
 20
69.7524410483
  0
VERTEX
  8
0
 62
7
  6
CONTINUOUS
 10
45.1092996759
 20
69.6776853426
  0
SEQEND
  0
LINE
  8
0
 62
7
  6
CONTINUOUS
 10
46.5795949294
 20
70.5800472179
 11
46.4748675873
 21
70.5641424334
  0
POLYLINE
  8
0
 62
7
  6
CONTINUOUS
 66
1
 70
0
  0
VERTEX
  8
0
 62
7
  6
CONTINUOUS
 10
50.766675658
 20
71.6362872197
  0
VERTEX
  8
0
 62
7
  6
CONTINUOUS
 10
50.2148825366
 20
71.564409406
  0
VERTEX
  8
0
 62
7
  6
CONTINUOUS
 10
49.6150576097
 20
71.4696805546
  0
VERTEX
  8
0
 62
7
  6
CONTINUOUS
 10
49.0324468042
 20
71.3589930236
  0
VERTEX
  8
0
 62
7
  6
CONTINUOUS
 10
48.4720557824
 20
71.2323047901
  0
VERTEX
  8
0
 62
7
  6
CONTINUOUS
 10
47.9387195802
 20
71.0896000443
  0
VERTEX
  8
0
 62
7
  6
CONTINUOUS
 10
47.4370950998
 20
70.9308316424
  0
VERTEX
  8
0
 62
7
  6
CONTINUOUS
 10
46.9714820589
 20
70.7557671042
  0
SEQEND
  0
POLYLINE
  8
0
 62
7
  6
CONTINUOUS
 66
1
 70
0
  0
VERTEX
  8
0
 62
7
  6
CONTINUOUS
 10
56.5948733373
 20
80.2096343788
  0
VERTEX
  8
0
 62
7
  6
CONTINUOUS
 10
56.8881954562
 20
80.2136073557
  0
VERTEX
  8
0
 62
7
  6
CONTINUOUS
 10
56.9677889992
 20
80.2137336792
  0
VERTEX
  8
0
 62
7
  6
CONTINUOUS
 10
57.0468516604
 20
80.2124549997
  0
VERTEX
  8
0
 62
7
  6
CONTINUOUS
 10
57.1251033847
 20
80.2095685229
  0
VERTEX
  8
0
 62
7
  6
CONTINUOUS
 10
57.2023216287
 20
80.2048531209
  0
VERTEX
  8
0
 62
7
  6
CONTINUOUS
 10
57.2782866776
 20
80.1981102004
  0
VERTEX
  8
0
 62
7
  6
CONTINUOUS
 10
57.3525658222
 20
80.1891638542
  0
VERTEX
  8
0
 62
7
  6
CONTINUOUS
 10
57.4246508206
 20
80.177844337
  0
VERTEX
  8
0
 62
7
  6
CONTINUOUS
 10
57.4947554895
 20
80.1639529378
  0
VERTEX
  8
0
 62
7
  6
CONTINUOUS
 10
57.5624056416
 20
80.1472530619
  0
VERTEX
  8
0
 62
7
  6
CONTINUOUS
 10
57.6264738259
 20
80.12753852
  0
VERTEX
  8
0
 62
7
  6
CONTINUOUS
 10
57.6859636509
 20
80.1041918424
  0
VERTEX
  8
0
 62
7
  6
CONTINUOUS
 10
57.7412325998
 20
80.0767234193
  0
VERTEX
  8
0
 62
7
  6
CONTINUOUS
 10
57.7906771291
 20
80.0457085427
  0
VERTEX
  8
0
 62
7
  6
CONTINUOUS
 10
57.832856102
 20
80.0122658567
  0
VERTEX
  8
0
 62
7
  6
CONTINUOUS
 10
57.8681303938
 20
79.9763959654
  0
VERTEX
  8
0
 62
7
  6
CONTINUOUS
 10
57.8964262052
 20
79.93807579
  0
VERTEX
  8
0
 62
7
  6
CONTINUOUS
 10
57.9171363109
 20
79.8972447895
  0
VERTEX
  8
0
 62
7
  6
CONTINUOUS
 10
57.9287245729
 20
79.8544479668
  0
VERTEX
  8
0
 62
7
  6
CONTINUOUS
 10
57.9304910831
 20
79.8310781685
  0
SEQEND
  0
POLYLINE
  8
0
 62
7
  6
CONTINUOUS
 66
1
 70
0
  0
VERTEX
  8
0
 62
7
  6
CONTINUOUS
 10
101.4197580706
 20
80.0333480668
  0
VERTEX
  8
0
 62
7
  6
CONTINUOUS
 10
101.1257262997
 20
80.0293783459
  0
VERTEX
  8
0
 62
7
  6
CONTINUOUS
 10
101.0458571267
 20
80.0293316794
  0
VERTEX
  8
0
 62
7
  6
CONTINUOUS
 10
100.9666816635
 20
80.0307084441
  0
VERTEX
  8
0
 62
7
  6
CONTINUOUS
 10
100.8884596897
 20
80.0337075535
  0
VERTEX
  8
0
 62
7
  6
CONTINUOUS
 10
100.8113885702
 20
80.0385431233
  0
VERTEX
  8
0
 62
7
  6
CONTINUOUS
 10
100.7356753976
 20
80.0454042531
  0
VERTEX
  8
0
 62
7
  6
CONTINUOUS
 10
100.6617481287
 20
80.0544601514
  0
VERTEX
  8
0
 62
7
  6
CONTINUOUS
 10
100.5900529525
 20
80.0658758073
  0
VERTEX
  8
0
 62
7
  6
CONTINUOUS
 10
100.5204539303
 20
80.0798317833
  0
VERTEX
  8
0
 62
7
  6
CONTINUOUS
 10
100.4532183443
 20
80.0965995379
  0
VERTEX
  8
0
 62
7
  6
CONTINUOUS
 10
100.3897893034
 20
80.1163016898
  0
VERTEX
  8
0
 62
7
  6
CONTINUOUS
 10
100.330794411
 20
80.1396530878
  0
VERTEX
  8
0
 62
7
  6
CONTINUOUS
 10
100.276024406
 20
80.1670559714
  0
VERTEX
  8
0
 62
7
  6
CONTINUOUS
 10
100.2270931386
 20
80.1979051051
  0
VERTEX
  8
0
 62
7
  6
CONTINUOUS
 10
100.1850667758
 20
80.2313691081
  0
VERTEX
  8
0
 62
7
  6
CONTINUOUS
 10
100.1497231011
 20
80.26750431
  0
VERTEX
  8
0
 62
7
  6
CONTINUOUS
 10
100.1213579577
 20
80.3062675517
  0
VERTEX
  8
0
 62
7
  6
CONTINUOUS
 10
100.10078166
 20
80.3475411514
  0
VERTEX
  8
0
 62
7
  6
CONTINUOUS
 10
100.0895986328
 20
80.3905384875
  0
VERTEX
  8
0
 62
7
  6
CONTINUOUS
 10
100.0881086206
 20
80.4117773907
  0
SEQEND
  0
LINE
  8
0
 62
7
  6
CONTINUOUS
 10
101.7027722397
 20
80.0357901214
 11
101.4197580706
 21
80.0333480668
  0
LINE
  8
0
 62
7
  6
CONTINUOUS
 10
56.3118516006
 20
80.2072184044
 11
56.5948733373
 21
80.2096343788
  0
LINE
  8
0
 62
7
  6
CONTINUOUS
 10
101.7027722397
 20
80.0357901214
 11
107.2508731802
 21
80.0363464983
  0
LINE
  8
0
 62
7
  6
CONTINUOUS
 10
50.767763475
 20
80.206682812
 11
56.3118516006
 21
80.2072184044
  0
LINE
  8
0
 62
7
  6
CONTINUOUS
 10
50.7666815236
 20
80.2067421202
 11
50.7677014635
 21
80.206682815
  0
LINE
  8
0
 62
7
  6
CONTINUOUS
 10
107.2509052932
 20
80.0363464983
 11
107.2519133304
 21
80.0362871722
  0
LINE
  8
0
 62
7
  6
CONTINUOUS
 10
46.4748675873
 20
81.278886877
 11
46.5795949294
 21
81.2629820924
  0
POLYLINE
  8
0
 62
7
  6
CONTINUOUS
 66
1
 70
0
  0
VERTEX
  8
0
 62
7
  6
CONTINUOUS
 10
111.4480641746
 20
62.1759848722
  0
VERTEX
  8
0
 62
7
  6
CONTINUOUS
 10
111.0448174352
 20
62.3567115993
  0
VERTEX
  8
0
 62
7
  6
CONTINUOUS
 10
110.578966704
 20
62.5317054171
  0
VERTEX
  8
0
 62
7
  6
CONTINUOUS
 10
110.0771161839
 20
62.6904033701
  0
VERTEX
  8
0
 62
7
  6
CONTINUOUS
 10
109.5435683505
 20
62.8330361458
  0
VERTEX
  8
0
 62
7
  6
CONTINUOUS
 10
108.9829825196
 20
62.9596500457
  0
VERTEX
  8
0
 62
7
  6
CONTINUOUS
 10
108.4001953846
 20
63.0702606565
  0
VERTEX
  8
0
 62
7
  6
CONTINUOUS
 10
107.8002137962
 20
63.1649101163
  0
VERTEX
  8
0
 62
7
  6
CONTINUOUS
 10
107.2519234518
 20
63.236287223
  0
SEQEND
  0
POLYLINE
  8
0
 62
6
  6
CONTINUOUS
 66
1
 70
0
  0
VERTEX
  8
0
 62
6
  6
CONTINUOUS
 10
107.257967027
 20
189.4097557305
  0
VERTEX
  8
0
 62
6
  6
CONTINUOUS
 10
107.2487056053
 20
189.4069576042
  0
VERTEX
  8
0
 62
6
  6
CONTINUOUS
 10
107.2388473441
 20
189.4143824383
  0
SEQEND
  0
POLYLINE
  8
0
 62
7
  6
CONTINUOUS
 66
1
 70
0
  0
VERTEX
  8
0
 62
7
  6
CONTINUOUS
 10
111.5437225932
 20
89.6788854806
  0
VERTEX
  8
0
 62
7
  6
CONTINUOUS
 10
111.7112351624
 20
89.7065472923
  0
VERTEX
  8
0
 62
7
  6
CONTINUOUS
 10
111.8762613805
 20
89.7374520902
  0
VERTEX
  8
0
 62
7
  6
CONTINUOUS
 10
112.0200890818
 20
89.7684008767
  0
VERTEX
  8
0
 62
7
  6
CONTINUOUS
 10
112.1460917049
 20
89.799810064
  0
VERTEX
  8
0
 62
7
  6
CONTINUOUS
 10
112.257678544
 20
89.832393205
  0
VERTEX
  8
0
 62
7
  6
CONTINUOUS
 10
112.3585298628
 20
89.8674082138
  0
VERTEX
  8
0
 62
7
  6
CONTINUOUS
 10
112.4527333293
 20
89.9070917121
  0
VERTEX
  8
0
 62
7
  6
CONTINUOUS
 10
112.5441972551
 20
89.9551188299
  0
VERTEX
  8
0
 62
7
  6
CONTINUOUS
 10
112.6358044778
 20
90.0172284807
  0
VERTEX
  8
0
 62
7
  6
CONTINUOUS
 10
112.7270953454
 20
90.1009574055
  0
VERTEX
  8
0
 62
7
  6
CONTINUOUS
 10
112.810583253
 20
90.2116028167
  0
VERTEX
  8
0
 62
7
  6
CONTINUOUS
 10
112.8735269764
 20
90.3465924822
  0
VERTEX
  8
0
 62
7
  6
CONTINUOUS
 10
112.9056691322
 20
90.4944272714
  0
VERTEX
  8
0
 62
7
  6
CONTINUOUS
 10
112.909299465
 20
90.565341414
  0
SEQEND
  0
LINE
  8
0
 62
7
  6
CONTINUOUS
 10
111.439005136
 20
89.662984367
 11
111.5437306807
 21
89.6788867414
  0
POLYLINE
  8
0
 62
7
  6
CONTINUOUS
 66
1
 70
0
  0
VERTEX
  8
0
 62
7
  6
CONTINUOUS
 10
107.2519234518
 20
88.6067420873
  0
VERTEX
  8
0
 62
7
  6
CONTINUOUS
 10
107.8002148342
 20
88.6781193423
  0
VERTEX
  8
0
 62
7
  6
CONTINUOUS
 10
108.4001962496
 20
88.7727688037
  0
VERTEX
  8
0
 62
7
  6
CONTINUOUS
 10
108.9829832141
 20
88.8833794085
  0
VERTEX
  8
0
 62
7
  6
CONTINUOUS
 10
109.5435688804
 20
89.0099932947
  0
VERTEX
  8
0
 62
7
  6
CONTINUOUS
 10
110.0771165587
 20
89.1526260491
  0
VERTEX
  8
0
 62
7
  6
CONTINUOUS
 10
110.5789669367
 20
89.3113239733
  0
VERTEX
  8
0
 62
7
  6
CONTINUOUS
 10
111.0448175421
 20
89.4863177549
  0
SEQEND
  0
LINE
  8
0
 62
7
  6
CONTINUOUS
 10
107.2519175861
 20
88.6067421169
 11
107.2508976744
 21
88.606682815
  0
LINE
  8
0
 62
7
  6
CONTINUOUS
 10
111.5437306807
 20
78.964142569
 11
111.4390051357
 21
78.9800449433
  0
POLYLINE
  8
0
 62
7
  6
CONTINUOUS
 66
1
 70
0
  0
VERTEX
  8
0
 62
7
  6
CONTINUOUS
 10
46.5705328372
 20
98.0670454813
  0
VERTEX
  8
0
 62
7
  6
CONTINUOUS
 10
46.9714820589
 20
97.8872622061
  0
VERTEX
  8
0
 62
7
  6
CONTINUOUS
 10
47.4370950998
 20
97.712197668
  0
VERTEX
  8
0
 62
7
  6
CONTINUOUS
 10
47.9387195802
 20
97.5534292661
  0
VERTEX
  8
0
 62
7
  6
CONTINUOUS
 10
48.4720557824
 20
97.4107245203
  0
VERTEX
  8
0
 62
7
  6
CONTINUOUS
 10
49.0324468042
 20
97.2840362867
  0
VERTEX
  8
0
 62
7
  6
CONTINUOUS
 10
49.6150576097
 20
97.1733487557
  0
VERTEX
  8
0
 62
7
  6
CONTINUOUS
 10
50.2148825366
 20
97.0786199044
  0
VERTEX
  8
0
 62
7
  6
CONTINUOUS
 10
50.766675658
 20
97.0067420906
  0
SEQEND
  0
POLYLINE
  8
0
 62
7
  6
CONTINUOUS
 66
1
 70
0
  0
VERTEX
  8
0
 62
7
  6
CONTINUOUS
 10
45.1092996725
 20
65.3653410353
  0
VERTEX
  8
0
 62
7
  6
CONTINUOUS
 10
45.1129177874
 20
65.2945458842
  0
VERTEX
  8
0
 62
7
  6
CONTINUOUS
 10
45.1449943328
 20
65.1468228463
  0
VERTEX
  8
0
 62
7
  6
CONTINUOUS
 10
45.2078344384
 20
65.0119014798
  0
VERTEX
  8
0
 62
7
  6
CONTINUOUS
 10
45.2912180175
 20
64.9012674755
  0
VERTEX
  8
0
 62
7
  6
CONTINUOUS
 10
45.3824295795
 20
64.8175128665
  0
VERTEX
  8
0
 62
7
  6
CONTINUOUS
 10
45.4739727723
 20
64.7553726152
  0
VERTEX
  8
0
 62
7
  6
CONTINUOUS
 10
45.5653669826
 20
64.7073249167
  0
VERTEX
  8
0
 62
7
  6
CONTINUOUS
 10
45.6594806887
 20
64.6676324697
  0
VERTEX
  8
0
 62
7
  6
CONTINUOUS
 10
45.7602136376
 20
64.6326178387
  0
VERTEX
  8
0
 62
7
  6
CONTINUOUS
 10
45.8716493679
 20
64.6000413343
  0
VERTEX
  8
0
 62
7
  6
CONTINUOUS
 10
45.9974657555
 20
64.5686426677
  0
VERTEX
  8
0
 62
7
  6
CONTINUOUS
 10
46.1410701008
 20
64.5377066162
  0
VERTEX
  8
0
 62
7
  6
CONTINUOUS
 10
46.3058337138
 20
64.506815572
  0
VERTEX
  8
0
 62
7
  6
CONTINUOUS
 10
46.4748758443
 20
64.4788855898
  0
SEQEND
  0
POLYLINE
  8
0
 62
7
  6
CONTINUOUS
 66
1
 70
0
  0
VERTEX
  8
0
 62
7
  6
CONTINUOUS
 10
45.1092996725
 20
82.1653410359
  0
VERTEX
  8
0
 62
7
  6
CONTINUOUS
 10
45.1129178055
 20
82.0945457082
  0
VERTEX
  8
0
 62
7
  6
CONTINUOUS
 10
45.1449944106
 20
81.9468226159
  0
VERTEX
  8
0
 62
7
  6
CONTINUOUS
 10
45.2078345486
 20
81.8119012983
  0
VERTEX
  8
0
 62
7
  6
CONTINUOUS
 10
45.2912180849
 20
81.7012674023
  0
VERTEX
  8
0
 62
7
  6
CONTINUOUS
 10
45.3824295797
 20
81.6175128663
  0
VERTEX
  8
0
 62
7
  6
CONTINUOUS
 10
45.4739726802
 20
81.5553726696
  0
VERTEX
  8
0
 62
7
  6
CONTINUOUS
 10
45.565366804
 20
81.5073250003
  0
VERTEX
  8
0
 62
7
  6
CONTINUOUS
 10
45.659480452
 20
81.46763256
  0
VERTEX
  8
0
 62
7
  6
CONTINUOUS
 10
45.7602133525
 20
81.4326179293
  0
VERTEX
  8
0
 62
7
  6
CONTINUOUS
 10
45.8716490487
 20
81.4000414204
  0
VERTEX
  8
0
 62
7
  6
CONTINUOUS
 10
45.9974654305
 20
81.3686427429
  0
VERTEX
  8
0
 62
7
  6
CONTINUOUS
 10
46.1410698157
 20
81.3377066735
  0
VERTEX
  8
0
 62
7
  6
CONTINUOUS
 10
46.3058335334
 20
81.3068156037
  0
VERTEX
  8
0
 62
7
  6
CONTINUOUS
 10
46.4748758443
 20
81.2788855898
  0
SEQEND
  0
POLYLINE
  8
0
 62
6
  6
CONTINUOUS
 66
1
 70
0
  0
VERTEX
  8
0
 62
6
  6
CONTINUOUS
 10
107.2388476044
 20
197.6286471847
  0
VERTEX
  8
0
 62
6
  6
CONTINUOUS
 10
107.2501556823
 20
197.636313795
  0
VERTEX
  8
0
 62
6
  6
CONTINUOUS
 10
107.2605102284
 20
197.6304754718
  0
SEQEND
  0
LINE
  8
0
 62
7
  6
CONTINUOUS
 10
111.0448175421
 20
190.2863177549
 11
111.4480641746
 21
190.4670444382
  0
POLYLINE
  8
0
 62
7
  6
CONTINUOUS
 66
1
 70
0
  0
VERTEX
  8
0
 62
7
  6
CONTINUOUS
 10
46.4748757926
 20
87.3641437125
  0
VERTEX
  8
0
 62
7
  6
CONTINUOUS
 10
46.3060807393
 20
87.3362570668
  0
VERTEX
  8
0
 62
7
  6
CONTINUOUS
 10
46.1415205229
 20
87.3054131654
  0
VERTEX
  8
0
 62
7
  6
CONTINUOUS
 10
45.9980822464
 20
87.2745294146
  0
VERTEX
  8
0
 62
7
  6
CONTINUOUS
 10
45.8724039459
 20
87.243191368
  0
VERTEX
  8
0
 62
7
  6
CONTINUOUS
 10
45.7610902756
 20
87.2106899827
  0
VERTEX
  8
0
 62
7
  6
CONTINUOUS
 10
45.6604806541
 20
87.1757776798
  0
VERTEX
  8
0
 62
7
  6
CONTINUOUS
 10
45.566515783
 20
87.1362410526
  0
VERTEX
  8
0
 62
7
  6
CONTINUOUS
 10
45.4753200019
 20
87.0884524614
  0
VERTEX
  8
0
 62
7
  6
CONTINUOUS
 10
45.3840078256
 20
87.0267434181
  0
VERTEX
  8
0
 62
7
  6
CONTINUOUS
 10
45.2929600716
 20
86.9436463508
  0
VERTEX
  8
0
 62
7
  6
CONTINUOUS
 10
45.2094905126
 20
86.8338410857
  0
VERTEX
  8
0
 62
7
  6
CONTINUOUS
 10
45.1461802054
 20
86.6996873036
  0
VERTEX
  8
0
 62
7
  6
CONTINUOUS
 10
45.11333673
 20
86.5524410483
  0
VERTEX
  8
0
 62
7
  6
CONTINUOUS
 10
45.1092996759
 20
86.4776853426
  0
SEQEND
  0
LINE
  8
0
 62
7
  6
CONTINUOUS
 10
46.5795949294
 20
87.3800472179
 11
46.4748675873
 21
87.3641424334
  0
POLYLINE
  8
0
 62
7
  6
CONTINUOUS
 66
1
 70
0
  0
VERTEX
  8
0
 62
7
  6
CONTINUOUS
 10
50.766675658
 20
88.4362872197
  0
VERTEX
  8
0
 62
7
  6
CONTINUOUS
 10
50.2148825366
 20
88.364409406
  0
VERTEX
  8
0
 62
7
  6
CONTINUOUS
 10
49.6150576097
 20
88.2696805546
  0
VERTEX
  8
0
 62
7
  6
CONTINUOUS
 10
49.0324468042
 20
88.1589930236
  0
VERTEX
  8
0
 62
7
  6
CONTINUOUS
 10
48.4720557824
 20
88.0323047901
  0
VERTEX
  8
0
 62
7
  6
CONTINUOUS
 10
47.9387195802
 20
87.8896000443
  0
VERTEX
  8
0
 62
7
  6
CONTINUOUS
 10
47.4370950998
 20
87.7308316424
  0
VERTEX
  8
0
 62
7
  6
CONTINUOUS
 10
46.9714820589
 20
87.5557671042
  0
SEQEND
  0
LINE
  8
0
 62
7
  6
CONTINUOUS
 10
50.7666815236
 20
88.4362871901
 11
50.7677014635
 21
88.4363464954
  0
POLYLINE
  8
0
 62
7
  6
CONTINUOUS
 66
1
 70
0
  0
VERTEX
  8
0
 62
7
  6
CONTINUOUS
 10
56.8923012096
 20
88.4293839933
  0
VERTEX
  8
0
 62
7
  6
CONTINUOUS
 10
56.5988372238
 20
88.4333484698
  0
VERTEX
  8
0
 62
7
  6
CONTINUOUS
 10
56.3158250223
 20
88.4357902137
  0
VERTEX
  8
0
 62
7
  6
CONTINUOUS
 10
50.767763475
 20
88.4363464983
  0
SEQEND
  0
POLYLINE
  8
0
 62
7
  6
CONTINUOUS
 66
1
 70
0
  0
VERTEX
  8
0
 62
7
  6
CONTINUOUS
 10
101.1299267541
 20
88.6136119342
  0
VERTEX
  8
0
 62
7
  6
CONTINUOUS
 10
101.4237258513
 20
88.609634379
  0
VERTEX
  8
0
 62
7
  6
CONTINUOUS
 10
101.7067475118
 20
88.6072184045
  0
VERTEX
  8
0
 62
7
  6
CONTINUOUS
 10
107.2508356629
 20
88.606682812
  0
SEQEND
  0
LINE
  8
0
 62
7
  6
CONTINUOUS
 10
46.4748675873
 20
98.078886877
 11
46.5795949294
 21
98.0629820924
  0
POLYLINE
  8
0
 62
7
  6
CONTINUOUS
 66
1
 70
0
  0
VERTEX
  8
0
 62
7
  6
CONTINUOUS
 10
107.2519133304
 20
63.2362871722
  0
VERTEX
  8
0
 62
7
  6
CONTINUOUS
 10
107.2605102284
 20
63.2304754718
  0
VERTEX
  8
0
 62
7
  6
CONTINUOUS
 10
107.2693035468
 20
63.2113887189
  0
VERTEX
  8
0
 62
7
  6
CONTINUOUS
 10
107.2760319896
 20
63.1801874718
  0
VERTEX
  8
0
 62
7
  6
CONTINUOUS
 10
107.2803516929
 20
63.1388689259
  0
VERTEX
  8
0
 62
7
  6
CONTINUOUS
 10
107.2821405796
 20
63.0901725798
  0
VERTEX
  8
0
 62
7
  6
CONTINUOUS
 10
107.2815808922
 20
63.0363464983
  0
SEQEND
  0
POLYLINE
  8
0
 62
7
  6
CONTINUOUS
 66
1
 70
0
  0
VERTEX
  8
0
 62
7
  6
CONTINUOUS
 10
45.1092996725
 20
98.9653410359
  0
VERTEX
  8
0
 62
7
  6
CONTINUOUS
 10
45.1129178055
 20
98.8945457082
  0
VERTEX
  8
0
 62
7
  6
CONTINUOUS
 10
45.1449944106
 20
98.7468226159
  0
VERTEX
  8
0
 62
7
  6
CONTINUOUS
 10
45.2078345486
 20
98.6119012983
  0
VERTEX
  8
0
 62
7
  6
CONTINUOUS
 10
45.2912180849
 20
98.5012674023
  0
VERTEX
  8
0
 62
7
  6
CONTINUOUS
 10
45.3824295797
 20
98.4175128663
  0
VERTEX
  8
0
 62
7
  6
CONTINUOUS
 10
45.4739726802
 20
98.3553726696
  0
VERTEX
  8
0
 62
7
  6
CONTINUOUS
 10
45.565366804
 20
98.3073250003
  0
VERTEX
  8
0
 62
7
  6
CONTINUOUS
 10
45.659480452
 20
98.26763256
  0
VERTEX
  8
0
 62
7
  6
CONTINUOUS
 10
45.7602133525
 20
98.2326179293
  0
VERTEX
  8
0
 62
7
  6
CONTINUOUS
 10
45.8716490487
 20
98.2000414204
  0
VERTEX
  8
0
 62
7
  6
CONTINUOUS
 10
45.9974654305
 20
98.1686427429
  0
VERTEX
  8
0
 62
7
  6
CONTINUOUS
 10
46.1410698157
 20
98.1377066735
  0
VERTEX
  8
0
 62
7
  6
CONTINUOUS
 10
46.3058335334
 20
98.1068156037
  0
VERTEX
  8
0
 62
7
  6
CONTINUOUS
 10
46.4748758443
 20
98.0788855898
  0
SEQEND
  0
POLYLINE
  8
0
 62
7
  6
CONTINUOUS
 66
1
 70
0
  0
VERTEX
  8
0
 62
7
  6
CONTINUOUS
 10
45.1092996725
 20
115.7653410359
  0
VERTEX
  8
0
 62
7
  6
CONTINUOUS
 10
45.1129178055
 20
115.6945457082
  0
VERTEX
  8
0
 62
7
  6
CONTINUOUS
 10
45.1449944106
 20
115.5468226159
  0
VERTEX
  8
0
 62
7
  6
CONTINUOUS
 10
45.2078345486
 20
115.4119012983
  0
VERTEX
  8
0
 62
7
  6
CONTINUOUS
 10
45.2912180849
 20
115.3012674023
  0
VERTEX
  8
0
 62
7
  6
CONTINUOUS
 10
45.3824295797
 20
115.2175128663
  0
VERTEX
  8
0
 62
7
  6
CONTINUOUS
 10
45.4739726802
 20
115.1553726696
  0
VERTEX
  8
0
 62
7
  6
CONTINUOUS
 10
45.565366804
 20
115.1073250003
  0
VERTEX
  8
0
 62
7
  6
CONTINUOUS
 10
45.659480452
 20
115.06763256
  0
VERTEX
  8
0
 62
7
  6
CONTINUOUS
 10
45.7602133525
 20
115.0326179293
  0
VERTEX
  8
0
 62
7
  6
CONTINUOUS
 10
45.8716490487
 20
115.0000414204
  0
VERTEX
  8
0
 62
7
  6
CONTINUOUS
 10
45.9974654305
 20
114.9686427429
  0
VERTEX
  8
0
 62
7
  6
CONTINUOUS
 10
46.1410698157
 20
114.9377066735
  0
VERTEX
  8
0
 62
7
  6
CONTINUOUS
 10
46.3058335334
 20
114.9068156037
  0
VERTEX
  8
0
 62
7
  6
CONTINUOUS
 10
46.4748758443
 20
114.8788855898
  0
SEQEND
  0
POLYLINE
  8
0
 62
7
  6
CONTINUOUS
 66
1
 70
0
  0
VERTEX
  8
0
 62
7
  6
CONTINUOUS
 10
45.1092996725
 20
132.5653410359
  0
VERTEX
  8
0
 62
7
  6
CONTINUOUS
 10
45.1129178055
 20
132.4945457082
  0
VERTEX
  8
0
 62
7
  6
CONTINUOUS
 10
45.1449944106
 20
132.3468226159
  0
VERTEX
  8
0
 62
7
  6
CONTINUOUS
 10
45.2078345486
 20
132.2119012983
  0
VERTEX
  8
0
 62
7
  6
CONTINUOUS
 10
45.2912180849
 20
132.1012674023
  0
VERTEX
  8
0
 62
7
  6
CONTINUOUS
 10
45.3824295797
 20
132.0175128663
  0
VERTEX
  8
0
 62
7
  6
CONTINUOUS
 10
45.4739726802
 20
131.9553726696
  0
VERTEX
  8
0
 62
7
  6
CONTINUOUS
 10
45.565366804
 20
131.9073250003
  0
VERTEX
  8
0
 62
7
  6
CONTINUOUS
 10
45.659480452
 20
131.86763256
  0
VERTEX
  8
0
 62
7
  6
CONTINUOUS
 10
45.7602133525
 20
131.8326179293
  0
VERTEX
  8
0
 62
7
  6
CONTINUOUS
 10
45.8716490487
 20
131.8000414204
  0
VERTEX
  8
0
 62
7
  6
CONTINUOUS
 10
45.9974654305
 20
131.7686427429
  0
VERTEX
  8
0
 62
7
  6
CONTINUOUS
 10
46.1410698157
 20
131.7377066735
  0
VERTEX
  8
0
 62
7
  6
CONTINUOUS
 10
46.3058335334
 20
131.7068156037
  0
VERTEX
  8
0
 62
7
  6
CONTINUOUS
 10
46.4748758443
 20
131.6788855898
  0
SEQEND
  0
POLYLINE
  8
0
 62
7
  6
CONTINUOUS
 66
1
 70
0
  0
VERTEX
  8
0
 62
7
  6
CONTINUOUS
 10
45.1092996725
 20
149.3653410359
  0
VERTEX
  8
0
 62
7
  6
CONTINUOUS
 10
45.1129178055
 20
149.2945457082
  0
VERTEX
  8
0
 62
7
  6
CONTINUOUS
 10
45.1449944106
 20
149.1468226159
  0
VERTEX
  8
0
 62
7
  6
CONTINUOUS
 10
45.2078345486
 20
149.0119012983
  0
VERTEX
  8
0
 62
7
  6
CONTINUOUS
 10
45.2912180849
 20
148.9012674023
  0
VERTEX
  8
0
 62
7
  6
CONTINUOUS
 10
45.3824295797
 20
148.8175128663
  0
VERTEX
  8
0
 62
7
  6
CONTINUOUS
 10
45.4739726802
 20
148.7553726696
  0
VERTEX
  8
0
 62
7
  6
CONTINUOUS
 10
45.565366804
 20
148.7073250003
  0
VERTEX
  8
0
 62
7
  6
CONTINUOUS
 10
45.659480452
 20
148.66763256
  0
VERTEX
  8
0
 62
7
  6
CONTINUOUS
 10
45.7602133525
 20
148.6326179293
  0
VERTEX
  8
0
 62
7
  6
CONTINUOUS
 10
45.8716490487
 20
148.6000414204
  0
VERTEX
  8
0
 62
7
  6
CONTINUOUS
 10
45.9974654305
 20
148.5686427429
  0
VERTEX
  8
0
 62
7
  6
CONTINUOUS
 10
46.1410698157
 20
148.5377066735
  0
VERTEX
  8
0
 62
7
  6
CONTINUOUS
 10
46.3058335334
 20
148.5068156037
  0
VERTEX
  8
0
 62
7
  6
CONTINUOUS
 10
46.4748758443
 20
148.4788855898
  0
SEQEND
  0
POLYLINE
  8
0
 62
7
  6
CONTINUOUS
 66
1
 70
0
  0
VERTEX
  8
0
 62
7
  6
CONTINUOUS
 10
45.1092996725
 20
166.1653410359
  0
VERTEX
  8
0
 62
7
  6
CONTINUOUS
 10
45.1129178055
 20
166.0945457082
  0
VERTEX
  8
0
 62
7
  6
CONTINUOUS
 10
45.1449944106
 20
165.9468226159
  0
VERTEX
  8
0
 62
7
  6
CONTINUOUS
 10
45.2078345486
 20
165.8119012983
  0
VERTEX
  8
0
 62
7
  6
CONTINUOUS
 10
45.2912180849
 20
165.7012674023
  0
VERTEX
  8
0
 62
7
  6
CONTINUOUS
 10
45.3824295797
 20
165.6175128663
  0
VERTEX
  8
0
 62
7
  6
CONTINUOUS
 10
45.4739726802
 20
165.5553726696
  0
VERTEX
  8
0
 62
7
  6
CONTINUOUS
 10
45.565366804
 20
165.5073250003
  0
VERTEX
  8
0
 62
7
  6
CONTINUOUS
 10
45.659480452
 20
165.46763256
  0
VERTEX
  8
0
 62
7
  6
CONTINUOUS
 10
45.7602133525
 20
165.4326179293
  0
VERTEX
  8
0
 62
7
  6
CONTINUOUS
 10
45.8716490487
 20
165.4000414204
  0
VERTEX
  8
0
 62
7
  6
CONTINUOUS
 10
45.9974654305
 20
165.3686427429
  0
VERTEX
  8
0
 62
7
  6
CONTINUOUS
 10
46.1410698157
 20
165.3377066735
  0
VERTEX
  8
0
 62
7
  6
CONTINUOUS
 10
46.3058335334
 20
165.3068156037
  0
VERTEX
  8
0
 62
7
  6
CONTINUOUS
 10
46.4748758443
 20
165.2788855898
  0
SEQEND
  0
POLYLINE
  8
0
 62
7
  6
CONTINUOUS
 66
1
 70
0
  0
VERTEX
  8
0
 62
7
  6
CONTINUOUS
 10
45.1092996725
 20
182.9653410359
  0
VERTEX
  8
0
 62
7
  6
CONTINUOUS
 10
45.1129178055
 20
182.8945457082
  0
VERTEX
  8
0
 62
7
  6
CONTINUOUS
 10
45.1449944106
 20
182.7468226159
  0
VERTEX
  8
0
 62
7
  6
CONTINUOUS
 10
45.2078345486
 20
182.6119012983
  0
VERTEX
  8
0
 62
7
  6
CONTINUOUS
 10
45.2912180849
 20
182.5012674023
  0
VERTEX
  8
0
 62
7
  6
CONTINUOUS
 10
45.3824295797
 20
182.4175128663
  0
VERTEX
  8
0
 62
7
  6
CONTINUOUS
 10
45.4739726802
 20
182.3553726696
  0
VERTEX
  8
0
 62
7
  6
CONTINUOUS
 10
45.565366804
 20
182.3073250003
  0
VERTEX
  8
0
 62
7
  6
CONTINUOUS
 10
45.659480452
 20
182.26763256
  0
VERTEX
  8
0
 62
7
  6
CONTINUOUS
 10
45.7602133525
 20
182.2326179293
  0
VERTEX
  8
0
 62
7
  6
CONTINUOUS
 10
45.8716490487
 20
182.2000414204
  0
VERTEX
  8
0
 62
7
  6
CONTINUOUS
 10
45.9974654305
 20
182.1686427429
  0
VERTEX
  8
0
 62
7
  6
CONTINUOUS
 10
46.1410698157
 20
182.1377066735
  0
VERTEX
  8
0
 62
7
  6
CONTINUOUS
 10
46.3058335334
 20
182.1068156037
  0
VERTEX
  8
0
 62
7
  6
CONTINUOUS
 10
46.4748758443
 20
182.0788855898
  0
SEQEND
  0
POLYLINE
  8
0
 62
7
  6
CONTINUOUS
 66
1
 70
0
  0
VERTEX
  8
0
 62
7
  6
CONTINUOUS
 10
45.1092996596
 20
199.7653295355
  0
VERTEX
  8
0
 62
7
  6
CONTINUOUS
 10
45.1121276931
 20
199.7027005329
  0
VERTEX
  8
0
 62
7
  6
CONTINUOUS
 10
45.1434326632
 20
199.551504314
  0
VERTEX
  8
0
 62
7
  6
CONTINUOUS
 10
45.2089646993
 20
199.4100466313
  0
VERTEX
  8
0
 62
7
  6
CONTINUOUS
 10
45.2992469306
 20
199.2926920249
  0
VERTEX
  8
0
 62
7
  6
CONTINUOUS
 10
45.4003194651
 20
199.2039637914
  0
VERTEX
  8
0
 62
7
  6
CONTINUOUS
 10
45.503057804
 20
199.1388275246
  0
VERTEX
  8
0
 62
7
  6
CONTINUOUS
 10
45.6076125546
 20
199.0884972683
  0
VERTEX
  8
0
 62
7
  6
CONTINUOUS
 10
45.718469325
 20
199.0463655189
  0
VERTEX
  8
0
 62
7
  6
CONTINUOUS
 10
45.8401970078
 20
199.0087074444
  0
VERTEX
  8
0
 62
7
  6
CONTINUOUS
 10
45.9763536194
 20
198.9735911478
  0
VERTEX
  8
0
 62
7
  6
CONTINUOUS
 10
46.1298906855
 20
198.9399639781
  0
VERTEX
  8
0
 62
7
  6
CONTINUOUS
 10
46.3025546044
 20
198.9073914965
  0
VERTEX
  8
0
 62
7
  6
CONTINUOUS
 10
46.4748821145
 20
198.8788846124
  0
SEQEND
  0
LINE
  8
0
 62
7
  6
CONTINUOUS
 10
45.109299569
 20
65.3652216596
 11
45.109299569
 21
69.6778037098
  0
LINE
  8
0
 62
7
  6
CONTINUOUS
 10
45.109299569
 20
82.1652256005
 11
45.109299569
 21
86.4778037098
  0
LINE
  8
0
 62
7
  6
CONTINUOUS
 10
45.109299569
 20
98.9652256005
 11
45.109299569
 21
103.2778037098
  0
LINE
  8
0
 62
7
  6
CONTINUOUS
 10
45.109299569
 20
115.7652256005
 11
45.109299569
 21
120.0778037098
  0
LINE
  8
0
 62
7
  6
CONTINUOUS
 10
45.109299569
 20
132.5652256005
 11
45.109299569
 21
136.8778037098
  0
LINE
  8
0
 62
7
  6
CONTINUOUS
 10
45.109299569
 20
149.3652256005
 11
45.109299569
 21
153.6778037098
  0
LINE
  8
0
 62
7
  6
CONTINUOUS
 10
45.109299569
 20
166.1652256005
 11
45.109299569
 21
170.4778037098
  0
LINE
  8
0
 62
7
  6
CONTINUOUS
 10
45.109299569
 20
182.9652256005
 11
45.109299569
 21
187.2778037098
  0
LINE
  8
0
 62
7
  6
CONTINUOUS
 10
45.109299569
 20
199.7652185638
 11
45.109299569
 21
205.8214957431
  0
LINE
  8
0
 62
7
  6
CONTINUOUS
 10
46.9714820589
 20
154.7557671042
 11
46.5705328372
 21
154.575983829
  0
POLYLINE
  8
0
 62
7
  6
CONTINUOUS
 66
1
 70
0
  0
VERTEX
  8
0
 62
7
  6
CONTINUOUS
 10
56.5948733373
 20
97.0096343788
  0
VERTEX
  8
0
 62
7
  6
CONTINUOUS
 10
56.8881954562
 20
97.0136073557
  0
VERTEX
  8
0
 62
7
  6
CONTINUOUS
 10
56.9677889992
 20
97.0137336792
  0
VERTEX
  8
0
 62
7
  6
CONTINUOUS
 10
57.0468516604
 20
97.0124549997
  0
VERTEX
  8
0
 62
7
  6
CONTINUOUS
 10
57.1251033847
 20
97.0095685229
  0
VERTEX
  8
0
 62
7
  6
CONTINUOUS
 10
57.2023216287
 20
97.0048531209
  0
VERTEX
  8
0
 62
7
  6
CONTINUOUS
 10
57.2782866776
 20
96.9981102004
  0
VERTEX
  8
0
 62
7
  6
CONTINUOUS
 10
57.3525658222
 20
96.9891638542
  0
VERTEX
  8
0
 62
7
  6
CONTINUOUS
 10
57.4246508206
 20
96.977844337
  0
VERTEX
  8
0
 62
7
  6
CONTINUOUS
 10
57.4947554895
 20
96.9639529378
  0
VERTEX
  8
0
 62
7
  6
CONTINUOUS
 10
57.5624056416
 20
96.9472530619
  0
VERTEX
  8
0
 62
7
  6
CONTINUOUS
 10
57.6264738259
 20
96.92753852
  0
VERTEX
  8
0
 62
7
  6
CONTINUOUS
 10
57.6859636509
 20
96.9041918424
  0
VERTEX
  8
0
 62
7
  6
CONTINUOUS
 10
57.7412325998
 20
96.8767234193
  0
VERTEX
  8
0
 62
7
  6
CONTINUOUS
 10
57.7906771291
 20
96.8457085427
  0
VERTEX
  8
0
 62
7
  6
CONTINUOUS
 10
57.832856102
 20
96.8122658567
  0
VERTEX
  8
0
 62
7
  6
CONTINUOUS
 10
57.8681303938
 20
96.7763959654
  0
VERTEX
  8
0
 62
7
  6
CONTINUOUS
 10
57.8964262052
 20
96.73807579
  0
VERTEX
  8
0
 62
7
  6
CONTINUOUS
 10
57.9171363109
 20
96.6972447895
  0
VERTEX
  8
0
 62
7
  6
CONTINUOUS
 10
57.9287245729
 20
96.6544479668
  0
VERTEX
  8
0
 62
7
  6
CONTINUOUS
 10
57.9304910831
 20
96.6310781685
  0
SEQEND
  0
POLYLINE
  8
0
 62
7
  6
CONTINUOUS
 66
1
 70
0
  0
VERTEX
  8
0
 62
7
  6
CONTINUOUS
 10
101.4197580706
 20
96.8333480668
  0
VERTEX
  8
0
 62
7
  6
CONTINUOUS
 10
101.1257262997
 20
96.8293783459
  0
VERTEX
  8
0
 62
7
  6
CONTINUOUS
 10
101.0458571267
 20
96.8293316794
  0
VERTEX
  8
0
 62
7
  6
CONTINUOUS
 10
100.9666816635
 20
96.8307084441
  0
VERTEX
  8
0
 62
7
  6
CONTINUOUS
 10
100.8884596897
 20
96.8337075535
  0
VERTEX
  8
0
 62
7
  6
CONTINUOUS
 10
100.8113885702
 20
96.8385431233
  0
VERTEX
  8
0
 62
7
  6
CONTINUOUS
 10
100.7356753976
 20
96.8454042531
  0
VERTEX
  8
0
 62
7
  6
CONTINUOUS
 10
100.6617481287
 20
96.8544601514
  0
VERTEX
  8
0
 62
7
  6
CONTINUOUS
 10
100.5900529525
 20
96.8658758073
  0
VERTEX
  8
0
 62
7
  6
CONTINUOUS
 10
100.5204539303
 20
96.8798317833
  0
VERTEX
  8
0
 62
7
  6
CONTINUOUS
 10
100.4532183443
 20
96.8965995379
  0
VERTEX
  8
0
 62
7
  6
CONTINUOUS
 10
100.3897893034
 20
96.9163016898
  0
VERTEX
  8
0
 62
7
  6
CONTINUOUS
 10
100.330794411
 20
96.9396530878
  0
VERTEX
  8
0
 62
7
  6
CONTINUOUS
 10
100.276024406
 20
96.9670559714
  0
VERTEX
  8
0
 62
7
  6
CONTINUOUS
 10
100.2270931386
 20
96.9979051051
  0
VERTEX
  8
0
 62
7
  6
CONTINUOUS
 10
100.1850667758
 20
97.0313691081
  0
VERTEX
  8
0
 62
7
  6
CONTINUOUS
 10
100.1497231011
 20
97.06750431
  0
VERTEX
  8
0
 62
7
  6
CONTINUOUS
 10
100.1213579577
 20
97.1062675517
  0
VERTEX
  8
0
 62
7
  6
CONTINUOUS
 10
100.10078166
 20
97.1475411514
  0
VERTEX
  8
0
 62
7
  6
CONTINUOUS
 10
100.0895986328
 20
97.1905384875
  0
VERTEX
  8
0
 62
7
  6
CONTINUOUS
 10
100.0881086206
 20
97.2117773907
  0
SEQEND
  0
LINE
  8
0
 62
7
  6
CONTINUOUS
 10
101.7027722397
 20
96.8357901214
 11
101.4197580706
 21
96.8333480668
  0
LINE
  8
0
 62
7
  6
CONTINUOUS
 10
56.3118516006
 20
97.0072184044
 11
56.5948733373
 21
97.0096343788
  0
LINE
  8
0
 62
7
  6
CONTINUOUS
 10
101.7027722397
 20
96.8357901214
 11
107.2508731802
 21
96.8363464983
  0
LINE
  8
0
 62
7
  6
CONTINUOUS
 10
50.767763475
 20
97.006682812
 11
56.3118516006
 21
97.0072184044
  0
LINE
  8
0
 62
7
  6
CONTINUOUS
 10
50.7666815236
 20
97.0067421202
 11
50.7677014635
 21
97.006682815
  0
LINE
  8
0
 62
7
  6
CONTINUOUS
 10
107.2509052932
 20
96.8363464983
 11
107.2519133304
 21
96.8362871722
  0
POLYLINE
  8
0
 62
7
  6
CONTINUOUS
 66
1
 70
0
  0
VERTEX
  8
0
 62
7
  6
CONTINUOUS
 10
111.4480641746
 20
78.9759848722
  0
VERTEX
  8
0
 62
7
  6
CONTINUOUS
 10
111.0448174352
 20
79.1567115993
  0
VERTEX
  8
0
 62
7
  6
CONTINUOUS
 10
110.578966704
 20
79.3317054171
  0
VERTEX
  8
0
 62
7
  6
CONTINUOUS
 10
110.0771161839
 20
79.4904033701
  0
VERTEX
  8
0
 62
7
  6
CONTINUOUS
 10
109.5435683505
 20
79.6330361458
  0
VERTEX
  8
0
 62
7
  6
CONTINUOUS
 10
108.9829825196
 20
79.7596500457
  0
VERTEX
  8
0
 62
7
  6
CONTINUOUS
 10
108.4001953846
 20
79.8702606565
  0
VERTEX
  8
0
 62
7
  6
CONTINUOUS
 10
107.8002137962
 20
79.9649101163
  0
VERTEX
  8
0
 62
7
  6
CONTINUOUS
 10
107.2519234518
 20
80.036287223
  0
SEQEND
  0
POLYLINE
  8
0
 62
6
  6
CONTINUOUS
 66
1
 70
0
  0
VERTEX
  8
0
 62
6
  6
CONTINUOUS
 10
50.7370651125
 20
200.7447729378
  0
VERTEX
  8
0
 62
6
  6
CONTINUOUS
 10
50.7430580555
 20
200.5577060845
  0
VERTEX
  8
0
 62
6
  6
CONTINUOUS
 10
50.7544664822
 20
200.3777514319
  0
VERTEX
  8
0
 62
6
  6
CONTINUOUS
 10
50.7707493077
 20
200.2111309418
  0
VERTEX
  8
0
 62
6
  6
CONTINUOUS
 10
50.7912498901
 20
200.0635225333
  0
VERTEX
  8
0
 62
6
  6
CONTINUOUS
 10
50.8152022651
 20
199.9398632445
  0
VERTEX
  8
0
 62
6
  6
CONTINUOUS
 10
50.8417432511
 20
199.8441965073
  0
VERTEX
  8
0
 62
6
  6
CONTINUOUS
 10
50.8699287849
 20
199.7795650735
  0
VERTEX
  8
0
 62
6
  6
CONTINUOUS
 10
50.8987519703
 20
199.7479522039
  0
SEQEND
  0
POLYLINE
  8
0
 62
7
  6
CONTINUOUS
 66
1
 70
0
  0
VERTEX
  8
0
 62
7
  6
CONTINUOUS
 10
50.7370182457
 20
71.4363464983
  0
VERTEX
  8
0
 62
7
  6
CONTINUOUS
 10
50.736406293
 20
71.4833751703
  0
VERTEX
  8
0
 62
7
  6
CONTINUOUS
 10
50.7375453139
 20
71.5268975113
  0
VERTEX
  8
0
 62
7
  6
CONTINUOUS
 10
50.7406302866
 20
71.56554896
  0
VERTEX
  8
0
 62
7
  6
CONTINUOUS
 10
50.745647421
 20
71.5971973835
  0
VERTEX
  8
0
 62
7
  6
CONTINUOUS
 10
50.7524174368
 20
71.6201478977
  0
VERTEX
  8
0
 62
7
  6
CONTINUOUS
 10
50.7606321105
 20
71.6332735795
  0
VERTEX
  8
0
 62
7
  6
CONTINUOUS
 10
50.7666815236
 20
71.6362871901
  0
SEQEND
  0
POLYLINE
  8
0
 62
7
  6
CONTINUOUS
 66
1
 70
0
  0
VERTEX
  8
0
 62
7
  6
CONTINUOUS
 10
50.7370182457
 20
88.2363464983
  0
VERTEX
  8
0
 62
7
  6
CONTINUOUS
 10
50.736406293
 20
88.2833751703
  0
VERTEX
  8
0
 62
7
  6
CONTINUOUS
 10
50.7375453139
 20
88.3268975113
  0
VERTEX
  8
0
 62
7
  6
CONTINUOUS
 10
50.7406302866
 20
88.36554896
  0
VERTEX
  8
0
 62
7
  6
CONTINUOUS
 10
50.745647421
 20
88.3971973835
  0
VERTEX
  8
0
 62
7
  6
CONTINUOUS
 10
50.7524174368
 20
88.4201478977
  0
VERTEX
  8
0
 62
7
  6
CONTINUOUS
 10
50.7606321105
 20
88.4332735795
  0
VERTEX
  8
0
 62
7
  6
CONTINUOUS
 10
50.7666815236
 20
88.4362871901
  0
SEQEND
  0
POLYLINE
  8
0
 62
7
  6
CONTINUOUS
 66
1
 70
0
  0
VERTEX
  8
0
 62
7
  6
CONTINUOUS
 10
50.7370182457
 20
105.0363464983
  0
VERTEX
  8
0
 62
7
  6
CONTINUOUS
 10
50.736406293
 20
105.0833751703
  0
VERTEX
  8
0
 62
7
  6
CONTINUOUS
 10
50.7375453139
 20
105.1268975113
  0
VERTEX
  8
0
 62
7
  6
CONTINUOUS
 10
50.7406302866
 20
105.16554896
  0
VERTEX
  8
0
 62
7
  6
CONTINUOUS
 10
50.745647421
 20
105.1971973835
  0
VERTEX
  8
0
 62
7
  6
CONTINUOUS
 10
50.7524174368
 20
105.2201478977
  0
VERTEX
  8
0
 62
7
  6
CONTINUOUS
 10
50.7606321105
 20
105.2332735795
  0
VERTEX
  8
0
 62
7
  6
CONTINUOUS
 10
50.7666815236
 20
105.2362871901
  0
SEQEND
  0
POLYLINE
  8
0
 62
7
  6
CONTINUOUS
 66
1
 70
0
  0
VERTEX
  8
0
 62
7
  6
CONTINUOUS
 10
50.7370182457
 20
121.8363464983
  0
VERTEX
  8
0
 62
7
  6
CONTINUOUS
 10
50.736406293
 20
121.8833751703
  0
VERTEX
  8
0
 62
7
  6
CONTINUOUS
 10
50.7375453139
 20
121.9268975113
  0
VERTEX
  8
0
 62
7
  6
CONTINUOUS
 10
50.7406302866
 20
121.96554896
  0
VERTEX
  8
0
 62
7
  6
CONTINUOUS
 10
50.745647421
 20
121.9971973835
  0
VERTEX
  8
0
 62
7
  6
CONTINUOUS
 10
50.7524174368
 20
122.0201478977
  0
VERTEX
  8
0
 62
7
  6
CONTINUOUS
 10
50.7606321105
 20
122.0332735795
  0
VERTEX
  8
0
 62
7
  6
CONTINUOUS
 10
50.7666815236
 20
122.0362871901
  0
SEQEND
  0
POLYLINE
  8
0
 62
7
  6
CONTINUOUS
 66
1
 70
0
  0
VERTEX
  8
0
 62
7
  6
CONTINUOUS
 10
50.7370182457
 20
138.6363464983
  0
VERTEX
  8
0
 62
7
  6
CONTINUOUS
 10
50.736406293
 20
138.6833751703
  0
VERTEX
  8
0
 62
7
  6
CONTINUOUS
 10
50.7375453139
 20
138.7268975113
  0
VERTEX
  8
0
 62
7
  6
CONTINUOUS
 10
50.7406302866
 20
138.76554896
  0
VERTEX
  8
0
 62
7
  6
CONTINUOUS
 10
50.745647421
 20
138.7971973835
  0
VERTEX
  8
0
 62
7
  6
CONTINUOUS
 10
50.7524174368
 20
138.8201478977
  0
VERTEX
  8
0
 62
7
  6
CONTINUOUS
 10
50.7606321105
 20
138.8332735795
  0
VERTEX
  8
0
 62
7
  6
CONTINUOUS
 10
50.7666815236
 20
138.8362871901
  0
SEQEND
  0
POLYLINE
  8
0
 62
7
  6
CONTINUOUS
 66
1
 70
0
  0
VERTEX
  8
0
 62
7
  6
CONTINUOUS
 10
50.7370182457
 20
155.4363464983
  0
VERTEX
  8
0
 62
7
  6
CONTINUOUS
 10
50.736406293
 20
155.4833751703
  0
VERTEX
  8
0
 62
7
  6
CONTINUOUS
 10
50.7375453139
 20
155.5268975113
  0
VERTEX
  8
0
 62
7
  6
CONTINUOUS
 10
50.7406302866
 20
155.56554896
  0
VERTEX
  8
0
 62
7
  6
CONTINUOUS
 10
50.745647421
 20
155.5971973835
  0
VERTEX
  8
0
 62
7
  6
CONTINUOUS
 10
50.7524174368
 20
155.6201478977
  0
VERTEX
  8
0
 62
7
  6
CONTINUOUS
 10
50.7606321105
 20
155.6332735795
  0
VERTEX
  8
0
 62
7
  6
CONTINUOUS
 10
50.7666815236
 20
155.6362871901
  0
SEQEND
  0
POLYLINE
  8
0
 62
7
  6
CONTINUOUS
 66
1
 70
0
  0
VERTEX
  8
0
 62
7
  6
CONTINUOUS
 10
50.7370182457
 20
172.2363464983
  0
VERTEX
  8
0
 62
7
  6
CONTINUOUS
 10
50.736406293
 20
172.2833751703
  0
VERTEX
  8
0
 62
7
  6
CONTINUOUS
 10
50.7375453139
 20
172.3268975113
  0
VERTEX
  8
0
 62
7
  6
CONTINUOUS
 10
50.7406302866
 20
172.36554896
  0
VERTEX
  8
0
 62
7
  6
CONTINUOUS
 10
50.745647421
 20
172.3971973835
  0
VERTEX
  8
0
 62
7
  6
CONTINUOUS
 10
50.7524174368
 20
172.4201478977
  0
VERTEX
  8
0
 62
7
  6
CONTINUOUS
 10
50.7606321105
 20
172.4332735795
  0
VERTEX
  8
0
 62
7
  6
CONTINUOUS
 10
50.7666815236
 20
172.4362871901
  0
SEQEND
  0
POLYLINE
  8
0
 62
7
  6
CONTINUOUS
 66
1
 70
0
  0
VERTEX
  8
0
 62
7
  6
CONTINUOUS
 10
50.7370182457
 20
189.0363464983
  0
VERTEX
  8
0
 62
7
  6
CONTINUOUS
 10
50.736406293
 20
189.0833751703
  0
VERTEX
  8
0
 62
7
  6
CONTINUOUS
 10
50.7375453139
 20
189.1268975113
  0
VERTEX
  8
0
 62
7
  6
CONTINUOUS
 10
50.7406302866
 20
189.16554896
  0
VERTEX
  8
0
 62
7
  6
CONTINUOUS
 10
50.745647421
 20
189.1971973835
  0
VERTEX
  8
0
 62
7
  6
CONTINUOUS
 10
50.7524174368
 20
189.2201478977
  0
VERTEX
  8
0
 62
7
  6
CONTINUOUS
 10
50.7606321105
 20
189.2332735795
  0
VERTEX
  8
0
 62
7
  6
CONTINUOUS
 10
50.7666815236
 20
189.2362871901
  0
SEQEND
  0
LINE
  8
0
 62
6
  6
CONTINUOUS
 10
50.7370651125
 20
200.7447729378
 11
50.7370182475
 21
200.750411242
  0
LINE
  8
0
 62
7
  6
CONTINUOUS
 10
50.7370182457
 20
189.0363464983
 11
50.7370182457
 21
181.206682812
  0
LINE
  8
0
 62
6
  6
CONTINUOUS
 10
50.7370182457
 20
189.0383824724
 11
50.7370182457
 21
189.0363464983
  0
LINE
  8
0
 62
7
  6
CONTINUOUS
 10
50.7370182457
 20
172.2363464983
 11
50.7370182457
 21
164.406682812
  0
LINE
  8
0
 62
7
  6
CONTINUOUS
 10
50.7370182457
 20
155.4363464983
 11
50.7370182457
 21
147.606682812
  0
LINE
  8
0
 62
7
  6
CONTINUOUS
 10
50.7370182457
 20
138.6363464983
 11
50.7370182457
 21
130.806682812
  0
LINE
  8
0
 62
7
  6
CONTINUOUS
 10
50.7370182457
 20
121.8363464983
 11
50.7370182457
 21
114.006682812
  0
LINE
  8
0
 62
7
  6
CONTINUOUS
 10
50.7370182457
 20
105.0363464983
 11
50.7370182457
 21
97.206682812
  0
LINE
  8
0
 62
7
  6
CONTINUOUS
 10
50.7370182457
 20
88.2363464983
 11
50.7370182457
 21
80.406682812
  0
LINE
  8
0
 62
7
  6
CONTINUOUS
 10
50.7370182457
 20
71.4363464983
 11
50.7370182457
 21
63.606682812
  0
LINE
  8
0
 62
6
  6
CONTINUOUS
 10
50.7370182457
 20
198.0046468379
 11
50.7370182457
 21
198.006682812
  0
LINE
  8
0
 62
7
  6
CONTINUOUS
 10
50.7370182457
 20
198.006682812
 11
50.7370182457
 21
205.8215146552
  0
LINE
  8
DEFAULT_1
 62
2
  6
CENTER
 10
53.609299569
 20
63.7791339248
 11
53.609299569
 21
208.0215146552
  0
LINE
  8
0
 62
6
  6
CONTINUOUS
 10
50.7370651125
 20
186.2982563726
 11
50.7370182475
 21
186.2926180683
  0
POLYLINE
  8
0
 62
7
  6
CONTINUOUS
 66
1
 70
0
  0
VERTEX
  8
0
 62
7
  6
CONTINUOUS
 10
50.7370182457
 20
198.006682812
  0
VERTEX
  8
0
 62
7
  6
CONTINUOUS
 10
50.736406293
 20
197.9596541401
  0
VERTEX
  8
0
 62
7
  6
CONTINUOUS
 10
50.7375453139
 20
197.916131799
  0
VERTEX
  8
0
 62
7
  6
CONTINUOUS
 10
50.7406302866
 20
197.8774803504
  0
VERTEX
  8
0
 62
7
  6
CONTINUOUS
 10
50.745647421
 20
197.8458319268
  0
VERTEX
  8
0
 62
7
  6
CONTINUOUS
 10
50.7524174368
 20
197.8228814126
  0
VERTEX
  8
0
 62
7
  6
CONTINUOUS
 10
50.7606321105
 20
197.8097557308
  0
VERTEX
  8
0
 62
7
  6
CONTINUOUS
 10
50.7666815236
 20
197.8067421202
  0
SEQEND
  0
POLYLINE
  8
0
 62
7
  6
CONTINUOUS
 66
1
 70
0
  0
VERTEX
  8
0
 62
7
  6
CONTINUOUS
 10
50.7370182457
 20
181.206682812
  0
VERTEX
  8
0
 62
7
  6
CONTINUOUS
 10
50.736406293
 20
181.1596541401
  0
VERTEX
  8
0
 62
7
  6
CONTINUOUS
 10
50.7375453139
 20
181.116131799
  0
VERTEX
  8
0
 62
7
  6
CONTINUOUS
 10
50.7406302866
 20
181.0774803504
  0
VERTEX
  8
0
 62
7
  6
CONTINUOUS
 10
50.745647421
 20
181.0458319268
  0
VERTEX
  8
0
 62
7
  6
CONTINUOUS
 10
50.7524174368
 20
181.0228814126
  0
VERTEX
  8
0
 62
7
  6
CONTINUOUS
 10
50.7606321105
 20
181.0097557308
  0
VERTEX
  8
0
 62
7
  6
CONTINUOUS
 10
50.7666815236
 20
181.0067421202
  0
SEQEND
  0
POLYLINE
  8
0
 62
7
  6
CONTINUOUS
 66
1
 70
0
  0
VERTEX
  8
0
 62
7
  6
CONTINUOUS
 10
50.7370182457
 20
164.406682812
  0
VERTEX
  8
0
 62
7
  6
CONTINUOUS
 10
50.736406293
 20
164.3596541401
  0
VERTEX
  8
0
 62
7
  6
CONTINUOUS
 10
50.7375453139
 20
164.316131799
  0
VERTEX
  8
0
 62
7
  6
CONTINUOUS
 10
50.7406302866
 20
164.2774803504
  0
VERTEX
  8
0
 62
7
  6
CONTINUOUS
 10
50.745647421
 20
164.2458319268
  0
VERTEX
  8
0
 62
7
  6
CONTINUOUS
 10
50.7524174368
 20
164.2228814126
  0
VERTEX
  8
0
 62
7
  6
CONTINUOUS
 10
50.7606321105
 20
164.2097557308
  0
VERTEX
  8
0
 62
7
  6
CONTINUOUS
 10
50.7666815236
 20
164.2067421202
  0
SEQEND
  0
POLYLINE
  8
0
 62
7
  6
CONTINUOUS
 66
1
 70
0
  0
VERTEX
  8
0
 62
7
  6
CONTINUOUS
 10
50.7370182457
 20
147.606682812
  0
VERTEX
  8
0
 62
7
  6
CONTINUOUS
 10
50.736406293
 20
147.5596541401
  0
VERTEX
  8
0
 62
7
  6
CONTINUOUS
 10
50.7375453139
 20
147.516131799
  0
VERTEX
  8
0
 62
7
  6
CONTINUOUS
 10
50.7406302866
 20
147.4774803504
  0
VERTEX
  8
0
 62
7
  6
CONTINUOUS
 10
50.745647421
 20
147.4458319268
  0
VERTEX
  8
0
 62
7
  6
CONTINUOUS
 10
50.7524174368
 20
147.4228814126
  0
VERTEX
  8
0
 62
7
  6
CONTINUOUS
 10
50.7606321105
 20
147.4097557308
  0
VERTEX
  8
0
 62
7
  6
CONTINUOUS
 10
50.7666815236
 20
147.4067421202
  0
SEQEND
  0
POLYLINE
  8
0
 62
7
  6
CONTINUOUS
 66
1
 70
0
  0
VERTEX
  8
0
 62
7
  6
CONTINUOUS
 10
50.7370182457
 20
130.806682812
  0
VERTEX
  8
0
 62
7
  6
CONTINUOUS
 10
50.736406293
 20
130.7596541401
  0
VERTEX
  8
0
 62
7
  6
CONTINUOUS
 10
50.7375453139
 20
130.716131799
  0
VERTEX
  8
0
 62
7
  6
CONTINUOUS
 10
50.7406302866
 20
130.6774803504
  0
VERTEX
  8
0
 62
7
  6
CONTINUOUS
 10
50.745647421
 20
130.6458319268
  0
VERTEX
  8
0
 62
7
  6
CONTINUOUS
 10
50.7524174368
 20
130.6228814126
  0
VERTEX
  8
0
 62
7
  6
CONTINUOUS
 10
50.7606321105
 20
130.6097557308
  0
VERTEX
  8
0
 62
7
  6
CONTINUOUS
 10
50.7666815236
 20
130.6067421202
  0
SEQEND
  0
POLYLINE
  8
0
 62
7
  6
CONTINUOUS
 66
1
 70
0
  0
VERTEX
  8
0
 62
7
  6
CONTINUOUS
 10
50.7370182457
 20
114.006682812
  0
VERTEX
  8
0
 62
7
  6
CONTINUOUS
 10
50.736406293
 20
113.9596541401
  0
VERTEX
  8
0
 62
7
  6
CONTINUOUS
 10
50.7375453139
 20
113.916131799
  0
VERTEX
  8
0
 62
7
  6
CONTINUOUS
 10
50.7406302866
 20
113.8774803504
  0
VERTEX
  8
0
 62
7
  6
CONTINUOUS
 10
50.745647421
 20
113.8458319268
  0
VERTEX
  8
0
 62
7
  6
CONTINUOUS
 10
50.7524174368
 20
113.8228814126
  0
VERTEX
  8
0
 62
7
  6
CONTINUOUS
 10
50.7606321105
 20
113.8097557308
  0
VERTEX
  8
0
 62
7
  6
CONTINUOUS
 10
50.7666815236
 20
113.8067421202
  0
SEQEND
  0
POLYLINE
  8
0
 62
7
  6
CONTINUOUS
 66
1
 70
0
  0
VERTEX
  8
0
 62
7
  6
CONTINUOUS
 10
50.7370182457
 20
97.206682812
  0
VERTEX
  8
0
 62
7
  6
CONTINUOUS
 10
50.736406293
 20
97.1596541401
  0
VERTEX
  8
0
 62
7
  6
CONTINUOUS
 10
50.7375453139
 20
97.116131799
  0
VERTEX
  8
0
 62
7
  6
CONTINUOUS
 10
50.7406302866
 20
97.0774803504
  0
VERTEX
  8
0
 62
7
  6
CONTINUOUS
 10
50.745647421
 20
97.0458319268
  0
VERTEX
  8
0
 62
7
  6
CONTINUOUS
 10
50.7524174368
 20
97.0228814126
  0
VERTEX
  8
0
 62
7
  6
CONTINUOUS
 10
50.7606321105
 20
97.0097557308
  0
VERTEX
  8
0
 62
7
  6
CONTINUOUS
 10
50.7666815236
 20
97.0067421202
  0
SEQEND
  0
POLYLINE
  8
0
 62
7
  6
CONTINUOUS
 66
1
 70
0
  0
VERTEX
  8
0
 62
7
  6
CONTINUOUS
 10
50.7370182457
 20
80.406682812
  0
VERTEX
  8
0
 62
7
  6
CONTINUOUS
 10
50.736406293
 20
80.3596541401
  0
VERTEX
  8
0
 62
7
  6
CONTINUOUS
 10
50.7375453139
 20
80.316131799
  0
VERTEX
  8
0
 62
7
  6
CONTINUOUS
 10
50.7406302866
 20
80.2774803504
  0
VERTEX
  8
0
 62
7
  6
CONTINUOUS
 10
50.745647421
 20
80.2458319268
  0
VERTEX
  8
0
 62
7
  6
CONTINUOUS
 10
50.7524174368
 20
80.2228814126
  0
VERTEX
  8
0
 62
7
  6
CONTINUOUS
 10
50.7606321105
 20
80.2097557308
  0
VERTEX
  8
0
 62
7
  6
CONTINUOUS
 10
50.7666815236
 20
80.2067421202
  0
SEQEND
  0
POLYLINE
  8
0
 62
7
  6
CONTINUOUS
 66
1
 70
0
  0
VERTEX
  8
0
 62
7
  6
CONTINUOUS
 10
50.7370182457
 20
63.606682812
  0
VERTEX
  8
0
 62
7
  6
CONTINUOUS
 10
50.736406293
 20
63.5596541401
  0
VERTEX
  8
0
 62
7
  6
CONTINUOUS
 10
50.7375453139
 20
63.516131799
  0
VERTEX
  8
0
 62
7
  6
CONTINUOUS
 10
50.7406302866
 20
63.4774803504
  0
VERTEX
  8
0
 62
7
  6
CONTINUOUS
 10
50.745647421
 20
63.4458319268
  0
VERTEX
  8
0
 62
7
  6
CONTINUOUS
 10
50.7524174368
 20
63.4228814126
  0
VERTEX
  8
0
 62
7
  6
CONTINUOUS
 10
50.7606321105
 20
63.4097557308
  0
VERTEX
  8
0
 62
7
  6
CONTINUOUS
 10
50.7666815236
 20
63.4067421202
  0
SEQEND
  0
POLYLINE
  8
0
 62
6
  6
CONTINUOUS
 66
1
 70
0
  0
VERTEX
  8
0
 62
6
  6
CONTINUOUS
 10
50.7370651125
 20
186.2982563726
  0
VERTEX
  8
0
 62
6
  6
CONTINUOUS
 10
50.7430580555
 20
186.4853232259
  0
VERTEX
  8
0
 62
6
  6
CONTINUOUS
 10
50.7544664822
 20
186.6652778785
  0
VERTEX
  8
0
 62
6
  6
CONTINUOUS
 10
50.7707493077
 20
186.8318983686
  0
VERTEX
  8
0
 62
6
  6
CONTINUOUS
 10
50.7912498901
 20
186.979506777
  0
VERTEX
  8
0
 62
6
  6
CONTINUOUS
 10
50.8152022651
 20
187.1031660659
  0
VERTEX
  8
0
 62
6
  6
CONTINUOUS
 10
50.8417432511
 20
187.198832803
  0
VERTEX
  8
0
 62
6
  6
CONTINUOUS
 10
50.8699287849
 20
187.2634642369
  0
VERTEX
  8
0
 62
6
  6
CONTINUOUS
 10
50.8987519703
 20
187.2950771064
  0
SEQEND
  0
POLYLINE
  8
0
 62
7
  6
CONTINUOUS
 66
1
 70
0
  0
VERTEX
  8
0
 62
7
  6
CONTINUOUS
 10
57.9304904777
 20
189.6117783458
  0
VERTEX
  8
0
 62
7
  6
CONTINUOUS
 10
57.9289757313
 20
189.5903573179
  0
VERTEX
  8
0
 62
7
  6
CONTINUOUS
 10
57.9178135915
 20
189.5475327095
  0
VERTEX
  8
0
 62
7
  6
CONTINUOUS
 10
57.897431792
 20
189.5065786962
  0
VERTEX
  8
0
 62
7
  6
CONTINUOUS
 10
57.8693779942
 20
189.4680949746
  0
VERTEX
  8
0
 62
7
  6
CONTINUOUS
 10
57.834311009
 20
189.4320720864
  0
VERTEX
  8
0
 62
7
  6
CONTINUOUS
 10
57.7923453516
 20
189.3985021631
  0
VERTEX
  8
0
 62
7
  6
CONTINUOUS
 10
57.7431284867
 20
189.3673686108
  0
VERTEX
  8
0
 62
7
  6
CONTINUOUS
 10
57.6880811605
 20
189.3397759954
  0
VERTEX
  8
0
 62
7
  6
CONTINUOUS
 10
57.6287781331
 20
189.3162956406
  0
VERTEX
  8
0
 62
7
  6
CONTINUOUS
 10
57.5650008895
 20
189.2964975906
  0
VERTEX
  8
0
 62
7
  6
CONTINUOUS
 10
57.4975008465
 20
189.2796854986
  0
VERTEX
  8
0
 62
7
  6
CONTINUOUS
 10
57.4276221427
 20
189.2657124093
  0
VERTEX
  8
0
 62
7
  6
CONTINUOUS
 10
57.3557124206
 20
189.2543020887
  0
VERTEX
  8
0
 62
7
  6
CONTINUOUS
 10
57.2816199845
 20
189.2452677666
  0
VERTEX
  8
0
 62
7
  6
CONTINUOUS
 10
57.2058320633
 20
189.2384393201
  0
VERTEX
  8
0
 62
7
  6
CONTINUOUS
 10
57.1287819156
 20
189.233641037
  0
VERTEX
  8
0
 62
7
  6
CONTINUOUS
 10
57.0506893882
 20
189.2306760283
  0
VERTEX
  8
0
 62
7
  6
CONTINUOUS
 10
56.9717712593
 20
189.2293247181
  0
VERTEX
  8
0
 62
7
  6
CONTINUOUS
 10
56.8923012096
 20
189.2293839933
  0
SEQEND
  0
POLYLINE
  8
0
 62
7
  6
CONTINUOUS
 66
1
 70
0
  0
VERTEX
  8
0
 62
7
  6
CONTINUOUS
 10
57.9304904777
 20
172.8117783458
  0
VERTEX
  8
0
 62
7
  6
CONTINUOUS
 10
57.9289757313
 20
172.7903573179
  0
VERTEX
  8
0
 62
7
  6
CONTINUOUS
 10
57.9178135915
 20
172.7475327095
  0
VERTEX
  8
0
 62
7
  6
CONTINUOUS
 10
57.897431792
 20
172.7065786962
  0
VERTEX
  8
0
 62
7
  6
CONTINUOUS
 10
57.8693779942
 20
172.6680949746
  0
VERTEX
  8
0
 62
7
  6
CONTINUOUS
 10
57.834311009
 20
172.6320720864
  0
VERTEX
  8
0
 62
7
  6
CONTINUOUS
 10
57.7923453516
 20
172.5985021631
  0
VERTEX
  8
0
 62
7
  6
CONTINUOUS
 10
57.7431284867
 20
172.5673686108
  0
VERTEX
  8
0
 62
7
  6
CONTINUOUS
 10
57.6880811605
 20
172.5397759954
  0
VERTEX
  8
0
 62
7
  6
CONTINUOUS
 10
57.6287781331
 20
172.5162956406
  0
VERTEX
  8
0
 62
7
  6
CONTINUOUS
 10
57.5650008895
 20
172.4964975906
  0
VERTEX
  8
0
 62
7
  6
CONTINUOUS
 10
57.4975008465
 20
172.4796854986
  0
VERTEX
  8
0
 62
7
  6
CONTINUOUS
 10
57.4276221427
 20
172.4657124093
  0
VERTEX
  8
0
 62
7
  6
CONTINUOUS
 10
57.3557124206
 20
172.4543020887
  0
VERTEX
  8
0
 62
7
  6
CONTINUOUS
 10
57.2816199845
 20
172.4452677666
  0
VERTEX
  8
0
 62
7
  6
CONTINUOUS
 10
57.2058320633
 20
172.4384393201
  0
VERTEX
  8
0
 62
7
  6
CONTINUOUS
 10
57.1287819156
 20
172.433641037
  0
VERTEX
  8
0
 62
7
  6
CONTINUOUS
 10
57.0506893882
 20
172.4306760283
  0
VERTEX
  8
0
 62
7
  6
CONTINUOUS
 10
56.9717712593
 20
172.4293247181
  0
VERTEX
  8
0
 62
7
  6
CONTINUOUS
 10
56.8923012096
 20
172.4293839933
  0
SEQEND
  0
LINE
  8
0
 62
7
  6
CONTINUOUS
 10
111.0448175421
 20
173.4863177549
 11
111.4480641746
 21
173.6670444382
  0
POLYLINE
  8
0
 62
7
  6
CONTINUOUS
 66
1
 70
0
  0
VERTEX
  8
0
 62
7
  6
CONTINUOUS
 10
111.5437225932
 20
106.4788854806
  0
VERTEX
  8
0
 62
7
  6
CONTINUOUS
 10
111.7112351624
 20
106.5065472923
  0
VERTEX
  8
0
 62
7
  6
CONTINUOUS
 10
111.8762613805
 20
106.5374520902
  0
VERTEX
  8
0
 62
7
  6
CONTINUOUS
 10
112.0200890818
 20
106.5684008767
  0
VERTEX
  8
0
 62
7
  6
CONTINUOUS
 10
112.1460917049
 20
106.599810064
  0
VERTEX
  8
0
 62
7
  6
CONTINUOUS
 10
112.257678544
 20
106.632393205
  0
VERTEX
  8
0
 62
7
  6
CONTINUOUS
 10
112.3585298628
 20
106.6674082138
  0
VERTEX
  8
0
 62
7
  6
CONTINUOUS
 10
112.4527333293
 20
106.7070917121
  0
VERTEX
  8
0
 62
7
  6
CONTINUOUS
 10
112.5441972551
 20
106.7551188299
  0
VERTEX
  8
0
 62
7
  6
CONTINUOUS
 10
112.6358044778
 20
106.8172284807
  0
VERTEX
  8
0
 62
7
  6
CONTINUOUS
 10
112.7270953454
 20
106.9009574055
  0
VERTEX
  8
0
 62
7
  6
CONTINUOUS
 10
112.810583253
 20
107.0116028167
  0
VERTEX
  8
0
 62
7
  6
CONTINUOUS
 10
112.8735269764
 20
107.1465924822
  0
VERTEX
  8
0
 62
7
  6
CONTINUOUS
 10
112.9056691322
 20
107.2944272714
  0
VERTEX
  8
0
 62
7
  6
CONTINUOUS
 10
112.9092991351
 20
107.3645266524
  0
SEQEND
  0
LINE
  8
0
 62
7
  6
CONTINUOUS
 10
111.439005136
 20
106.462984367
 11
111.5437306807
 21
106.4788867414
  0
POLYLINE
  8
0
 62
7
  6
CONTINUOUS
 66
1
 70
0
  0
VERTEX
  8
0
 62
7
  6
CONTINUOUS
 10
107.2519234518
 20
105.4067420873
  0
VERTEX
  8
0
 62
7
  6
CONTINUOUS
 10
107.8002148342
 20
105.4781193423
  0
VERTEX
  8
0
 62
7
  6
CONTINUOUS
 10
108.4001962496
 20
105.5727688037
  0
VERTEX
  8
0
 62
7
  6
CONTINUOUS
 10
108.9829832141
 20
105.6833794085
  0
VERTEX
  8
0
 62
7
  6
CONTINUOUS
 10
109.5435688804
 20
105.8099932947
  0
VERTEX
  8
0
 62
7
  6
CONTINUOUS
 10
110.0771165587
 20
105.9526260491
  0
VERTEX
  8
0
 62
7
  6
CONTINUOUS
 10
110.5789669367
 20
106.1113239733
  0
VERTEX
  8
0
 62
7
  6
CONTINUOUS
 10
111.0448175421
 20
106.2863177549
  0
SEQEND
  0
LINE
  8
0
 62
7
  6
CONTINUOUS
 10
107.2519175861
 20
105.4067421169
 11
107.2508976744
 21
105.406682815
  0
POLYLINE
  8
0
 62
7
  6
CONTINUOUS
 66
1
 70
0
  0
VERTEX
  8
0
 62
7
  6
CONTINUOUS
 10
56.8923012096
 20
105.2293839933
  0
VERTEX
  8
0
 62
7
  6
CONTINUOUS
 10
56.5988372238
 20
105.2333484698
  0
VERTEX
  8
0
 62
7
  6
CONTINUOUS
 10
56.3158250223
 20
105.2357902137
  0
VERTEX
  8
0
 62
7
  6
CONTINUOUS
 10
50.767763475
 20
105.2363464983
  0
SEQEND
  0
POLYLINE
  8
0
 62
7
  6
CONTINUOUS
 66
1
 70
0
  0
VERTEX
  8
0
 62
7
  6
CONTINUOUS
 10
101.1299267541
 20
105.4136119342
  0
VERTEX
  8
0
 62
7
  6
CONTINUOUS
 10
101.4237258513
 20
105.409634379
  0
VERTEX
  8
0
 62
7
  6
CONTINUOUS
 10
101.7067475118
 20
105.4072184045
  0
VERTEX
  8
0
 62
7
  6
CONTINUOUS
 10
107.2508356629
 20
105.406682812
  0
SEQEND
  0
LINE
  8
0
 62
7
  6
CONTINUOUS
 10
111.5437306807
 20
95.764142569
 11
111.4390051357
 21
95.7800449433
  0
POLYLINE
  8
0
 62
7
  6
CONTINUOUS
 66
1
 70
0
  0
VERTEX
  8
0
 62
7
  6
CONTINUOUS
 10
46.5705328372
 20
114.8670454813
  0
VERTEX
  8
0
 62
7
  6
CONTINUOUS
 10
46.9714820589
 20
114.6872622061
  0
VERTEX
  8
0
 62
7
  6
CONTINUOUS
 10
47.4370950998
 20
114.512197668
  0
VERTEX
  8
0
 62
7
  6
CONTINUOUS
 10
47.9387195802
 20
114.3534292661
  0
VERTEX
  8
0
 62
7
  6
CONTINUOUS
 10
48.4720557824
 20
114.2107245203
  0
VERTEX
  8
0
 62
7
  6
CONTINUOUS
 10
49.0324468042
 20
114.0840362867
  0
VERTEX
  8
0
 62
7
  6
CONTINUOUS
 10
49.6150576097
 20
113.9733487557
  0
VERTEX
  8
0
 62
7
  6
CONTINUOUS
 10
50.2148825366
 20
113.8786199044
  0
VERTEX
  8
0
 62
7
  6
CONTINUOUS
 10
50.766675658
 20
113.8067420906
  0
SEQEND
  0
POLYLINE
  8
0
 62
7
  6
CONTINUOUS
 66
1
 70
0
  0
VERTEX
  8
0
 62
7
  6
CONTINUOUS
 10
107.2519133304
 20
80.0362871722
  0
VERTEX
  8
0
 62
7
  6
CONTINUOUS
 10
107.2605102284
 20
80.0304754718
  0
VERTEX
  8
0
 62
7
  6
CONTINUOUS
 10
107.2693035468
 20
80.0113887189
  0
VERTEX
  8
0
 62
7
  6
CONTINUOUS
 10
107.2760319896
 20
79.9801874718
  0
VERTEX
  8
0
 62
7
  6
CONTINUOUS
 10
107.2803516929
 20
79.9388689259
  0
VERTEX
  8
0
 62
7
  6
CONTINUOUS
 10
107.2821405796
 20
79.8901725798
  0
VERTEX
  8
0
 62
7
  6
CONTINUOUS
 10
107.2815808922
 20
79.8363464983
  0
SEQEND
  0
LINE
  8
0
 62
7
  6
CONTINUOUS
 10
58.1804129251
 20
63.0322567829
 11
58.1806891537
 21
62.9521468441
  0
LINE
  8
0
 62
7
  6
CONTINUOUS
 10
58.1804129251
 20
79.8322567829
 11
58.1806891537
 21
79.7521468441
  0
LINE
  8
0
 62
7
  6
CONTINUOUS
 10
58.1804129251
 20
96.6322567829
 11
58.1806891537
 21
96.5521468441
  0
LINE
  8
0
 62
7
  6
CONTINUOUS
 10
58.1804129251
 20
113.4322567829
 11
58.1806891537
 21
113.3521468441
  0
LINE
  8
0
 62
7
  6
CONTINUOUS
 10
58.1804129251
 20
130.2322567829
 11
58.1806891537
 21
130.1521468441
  0
LINE
  8
0
 62
7
  6
CONTINUOUS
 10
58.1804129251
 20
147.0322567829
 11
58.1806891537
 21
146.9521468441
  0
LINE
  8
0
 62
7
  6
CONTINUOUS
 10
58.1804129251
 20
163.8322567829
 11
58.1806891537
 21
163.7521468441
  0
LINE
  8
0
 62
7
  6
CONTINUOUS
 10
58.1804129251
 20
180.6322567829
 11
58.1806891537
 21
180.5521468441
  0
LINE
  8
0
 62
7
  6
CONTINUOUS
 10
58.1804129251
 20
197.4322567829
 11
58.1806891537
 21
197.3521468441
  0
LINE
  8
0
 62
6
  6
CONTINUOUS
 10
58.0533388384
 20
197.4322567574
 11
58.0536086681
 21
197.3521468883
  0
LINE
  8
0
 62
7
  6
CONTINUOUS
 10
57.9304609035
 20
197.4310782136
 11
57.9306891537
 21
189.6908830126
  0
LINE
  8
0
 62
7
  6
CONTINUOUS
 10
57.9304609035
 20
180.6310782136
 11
57.9306891537
 21
172.8908830126
  0
LINE
  8
0
 62
7
  6
CONTINUOUS
 10
57.9304609035
 20
163.8310782136
 11
57.9306891537
 21
156.0908830126
  0
LINE
  8
0
 62
7
  6
CONTINUOUS
 10
57.9304609035
 20
147.0310782136
 11
57.9306891537
 21
139.2908830126
  0
LINE
  8
0
 62
7
  6
CONTINUOUS
 10
57.9304609035
 20
130.2310782136
 11
57.9306891537
 21
122.4908830126
  0
LINE
  8
0
 62
7
  6
CONTINUOUS
 10
57.9304609035
 20
113.4310782136
 11
57.9306891537
 21
105.6908830126
  0
LINE
  8
0
 62
7
  6
CONTINUOUS
 10
57.9304609035
 20
96.6310782136
 11
57.9306891537
 21
88.8908830126
  0
LINE
  8
0
 62
7
  6
CONTINUOUS
 10
57.9304609035
 20
79.8310782136
 11
57.9306891537
 21
72.0908830126
  0
LINE
  8
0
 62
7
  6
CONTINUOUS
 10
57.9304609035
 20
63.0310782136
 11
57.9306891537
 21
55.2215146552
  0
LINE
  8
0
 62
7
  6
CONTINUOUS
 10
57.9306891537
 20
189.6908830131
 11
57.9304906722
 21
189.6117786332
  0
LINE
  8
0
 62
7
  6
CONTINUOUS
 10
57.9306891537
 20
172.8908830131
 11
57.9304906722
 21
172.8117786332
  0
LINE
  8
0
 62
7
  6
CONTINUOUS
 10
57.9306891537
 20
156.0908830131
 11
57.9304906722
 21
156.0117786332
  0
LINE
  8
0
 62
7
  6
CONTINUOUS
 10
57.9306891537
 20
139.2908830131
 11
57.9304906722
 21
139.2117786332
  0
LINE
  8
0
 62
7
  6
CONTINUOUS
 10
57.9306891537
 20
122.4908830131
 11
57.9304906722
 21
122.4117786332
  0
LINE
  8
0
 62
7
  6
CONTINUOUS
 10
57.9306891537
 20
105.6908830131
 11
57.9304906722
 21
105.6117786332
  0
LINE
  8
0
 62
7
  6
CONTINUOUS
 10
57.9306891537
 20
88.8908830131
 11
57.9304906722
 21
88.8117786332
  0
LINE
  8
0
 62
7
  6
CONTINUOUS
 10
57.9306891537
 20
72.0908830131
 11
57.9304906722
 21
72.0117786332
  0
POLYLINE
  8
0
 62
7
  6
CONTINUOUS
 66
1
 70
0
  0
VERTEX
  8
0
 62
7
  6
CONTINUOUS
 10
57.9304904777
 20
156.0117783458
  0
VERTEX
  8
0
 62
7
  6
CONTINUOUS
 10
57.9289757313
 20
155.9903573179
  0
VERTEX
  8
0
 62
7
  6
CONTINUOUS
 10
57.9178135915
 20
155.9475327095
  0
VERTEX
  8
0
 62
7
  6
CONTINUOUS
 10
57.897431792
 20
155.9065786962
  0
VERTEX
  8
0
 62
7
  6
CONTINUOUS
 10
57.8693779942
 20
155.8680949746
  0
VERTEX
  8
0
 62
7
  6
CONTINUOUS
 10
57.834311009
 20
155.8320720864
  0
VERTEX
  8
0
 62
7
  6
CONTINUOUS
 10
57.7923453516
 20
155.7985021631
  0
VERTEX
  8
0
 62
7
  6
CONTINUOUS
 10
57.7431284867
 20
155.7673686108
  0
VERTEX
  8
0
 62
7
  6
CONTINUOUS
 10
57.6880811605
 20
155.7397759954
  0
VERTEX
  8
0
 62
7
  6
CONTINUOUS
 10
57.6287781331
 20
155.7162956406
  0
VERTEX
  8
0
 62
7
  6
CONTINUOUS
 10
57.5650008895
 20
155.6964975906
  0
VERTEX
  8
0
 62
7
  6
CONTINUOUS
 10
57.4975008465
 20
155.6796854986
  0
VERTEX
  8
0
 62
7
  6
CONTINUOUS
 10
57.4276221427
 20
155.6657124093
  0
VERTEX
  8
0
 62
7
  6
CONTINUOUS
 10
57.3557124206
 20
155.6543020887
  0
VERTEX
  8
0
 62
7
  6
CONTINUOUS
 10
57.2816199845
 20
155.6452677666
  0
VERTEX
  8
0
 62
7
  6
CONTINUOUS
 10
57.2058320633
 20
155.6384393201
  0
VERTEX
  8
0
 62
7
  6
CONTINUOUS
 10
57.1287819156
 20
155.633641037
  0
VERTEX
  8
0
 62
7
  6
CONTINUOUS
 10
57.0506893882
 20
155.6306760283
  0
VERTEX
  8
0
 62
7
  6
CONTINUOUS
 10
56.9717712593
 20
155.6293247181
  0
VERTEX
  8
0
 62
7
  6
CONTINUOUS
 10
56.8923012096
 20
155.6293839933
  0
SEQEND
  0
POLYLINE
  8
0
 62
7
  6
CONTINUOUS
 66
1
 70
0
  0
VERTEX
  8
0
 62
7
  6
CONTINUOUS
 10
57.9304904777
 20
139.2117783458
  0
VERTEX
  8
0
 62
7
  6
CONTINUOUS
 10
57.9289757313
 20
139.1903573179
  0
VERTEX
  8
0
 62
7
  6
CONTINUOUS
 10
57.9178135915
 20
139.1475327095
  0
VERTEX
  8
0
 62
7
  6
CONTINUOUS
 10
57.897431792
 20
139.1065786962
  0
VERTEX
  8
0
 62
7
  6
CONTINUOUS
 10
57.8693779942
 20
139.0680949746
  0
VERTEX
  8
0
 62
7
  6
CONTINUOUS
 10
57.834311009
 20
139.0320720864
  0
VERTEX
  8
0
 62
7
  6
CONTINUOUS
 10
57.7923453516
 20
138.9985021631
  0
VERTEX
  8
0
 62
7
  6
CONTINUOUS
 10
57.7431284867
 20
138.9673686108
  0
VERTEX
  8
0
 62
7
  6
CONTINUOUS
 10
57.6880811605
 20
138.9397759954
  0
VERTEX
  8
0
 62
7
  6
CONTINUOUS
 10
57.6287781331
 20
138.9162956406
  0
VERTEX
  8
0
 62
7
  6
CONTINUOUS
 10
57.5650008895
 20
138.8964975906
  0
VERTEX
  8
0
 62
7
  6
CONTINUOUS
 10
57.4975008465
 20
138.8796854986
  0
VERTEX
  8
0
 62
7
  6
CONTINUOUS
 10
57.4276221427
 20
138.8657124093
  0
VERTEX
  8
0
 62
7
  6
CONTINUOUS
 10
57.3557124206
 20
138.8543020887
  0
VERTEX
  8
0
 62
7
  6
CONTINUOUS
 10
57.2816199845
 20
138.8452677666
  0
VERTEX
  8
0
 62
7
  6
CONTINUOUS
 10
57.2058320633
 20
138.8384393201
  0
VERTEX
  8
0
 62
7
  6
CONTINUOUS
 10
57.1287819156
 20
138.833641037
  0
VERTEX
  8
0
 62
7
  6
CONTINUOUS
 10
57.0506893882
 20
138.8306760283
  0
VERTEX
  8
0
 62
7
  6
CONTINUOUS
 10
56.9717712593
 20
138.8293247181
  0
VERTEX
  8
0
 62
7
  6
CONTINUOUS
 10
56.8923012096
 20
138.8293839933
  0
SEQEND
  0
POLYLINE
  8
0
 62
7
  6
CONTINUOUS
 66
1
 70
0
  0
VERTEX
  8
0
 62
7
  6
CONTINUOUS
 10
57.9304904777
 20
122.4117783458
  0
VERTEX
  8
0
 62
7
  6
CONTINUOUS
 10
57.9289757313
 20
122.3903573179
  0
VERTEX
  8
0
 62
7
  6
CONTINUOUS
 10
57.9178135915
 20
122.3475327095
  0
VERTEX
  8
0
 62
7
  6
CONTINUOUS
 10
57.897431792
 20
122.3065786962
  0
VERTEX
  8
0
 62
7
  6
CONTINUOUS
 10
57.8693779942
 20
122.2680949746
  0
VERTEX
  8
0
 62
7
  6
CONTINUOUS
 10
57.834311009
 20
122.2320720864
  0
VERTEX
  8
0
 62
7
  6
CONTINUOUS
 10
57.7923453516
 20
122.1985021631
  0
VERTEX
  8
0
 62
7
  6
CONTINUOUS
 10
57.7431284867
 20
122.1673686108
  0
VERTEX
  8
0
 62
7
  6
CONTINUOUS
 10
57.6880811605
 20
122.1397759954
  0
VERTEX
  8
0
 62
7
  6
CONTINUOUS
 10
57.6287781331
 20
122.1162956406
  0
VERTEX
  8
0
 62
7
  6
CONTINUOUS
 10
57.5650008895
 20
122.0964975906
  0
VERTEX
  8
0
 62
7
  6
CONTINUOUS
 10
57.4975008465
 20
122.0796854986
  0
VERTEX
  8
0
 62
7
  6
CONTINUOUS
 10
57.4276221427
 20
122.0657124093
  0
VERTEX
  8
0
 62
7
  6
CONTINUOUS
 10
57.3557124206
 20
122.0543020887
  0
VERTEX
  8
0
 62
7
  6
CONTINUOUS
 10
57.2816199845
 20
122.0452677666
  0
VERTEX
  8
0
 62
7
  6
CONTINUOUS
 10
57.2058320633
 20
122.0384393201
  0
VERTEX
  8
0
 62
7
  6
CONTINUOUS
 10
57.1287819156
 20
122.033641037
  0
VERTEX
  8
0
 62
7
  6
CONTINUOUS
 10
57.0506893882
 20
122.0306760283
  0
VERTEX
  8
0
 62
7
  6
CONTINUOUS
 10
56.9717712593
 20
122.0293247181
  0
VERTEX
  8
0
 62
7
  6
CONTINUOUS
 10
56.8923012096
 20
122.0293839933
  0
SEQEND
  0
POLYLINE
  8
0
 62
7
  6
CONTINUOUS
 66
1
 70
0
  0
VERTEX
  8
0
 62
7
  6
CONTINUOUS
 10
57.9304904777
 20
105.6117783458
  0
VERTEX
  8
0
 62
7
  6
CONTINUOUS
 10
57.9289757313
 20
105.5903573179
  0
VERTEX
  8
0
 62
7
  6
CONTINUOUS
 10
57.9178135915
 20
105.5475327095
  0
VERTEX
  8
0
 62
7
  6
CONTINUOUS
 10
57.897431792
 20
105.5065786962
  0
VERTEX
  8
0
 62
7
  6
CONTINUOUS
 10
57.8693779942
 20
105.4680949746
  0
VERTEX
  8
0
 62
7
  6
CONTINUOUS
 10
57.834311009
 20
105.4320720864
  0
VERTEX
  8
0
 62
7
  6
CONTINUOUS
 10
57.7923453516
 20
105.3985021631
  0
VERTEX
  8
0
 62
7
  6
CONTINUOUS
 10
57.7431284867
 20
105.3673686108
  0
VERTEX
  8
0
 62
7
  6
CONTINUOUS
 10
57.6880811605
 20
105.3397759954
  0
VERTEX
  8
0
 62
7
  6
CONTINUOUS
 10
57.6287781331
 20
105.3162956406
  0
VERTEX
  8
0
 62
7
  6
CONTINUOUS
 10
57.5650008895
 20
105.2964975906
  0
VERTEX
  8
0
 62
7
  6
CONTINUOUS
 10
57.4975008465
 20
105.2796854986
  0
VERTEX
  8
0
 62
7
  6
CONTINUOUS
 10
57.4276221427
 20
105.2657124093
  0
VERTEX
  8
0
 62
7
  6
CONTINUOUS
 10
57.3557124206
 20
105.2543020887
  0
VERTEX
  8
0
 62
7
  6
CONTINUOUS
 10
57.2816199845
 20
105.2452677666
  0
VERTEX
  8
0
 62
7
  6
CONTINUOUS
 10
57.2058320633
 20
105.2384393201
  0
VERTEX
  8
0
 62
7
  6
CONTINUOUS
 10
57.1287819156
 20
105.233641037
  0
VERTEX
  8
0
 62
7
  6
CONTINUOUS
 10
57.0506893882
 20
105.2306760283
  0
VERTEX
  8
0
 62
7
  6
CONTINUOUS
 10
56.9717712593
 20
105.2293247181
  0
VERTEX
  8
0
 62
7
  6
CONTINUOUS
 10
56.8923012096
 20
105.2293839933
  0
SEQEND
  0
POLYLINE
  8
0
 62
7
  6
CONTINUOUS
 66
1
 70
0
  0
VERTEX
  8
0
 62
7
  6
CONTINUOUS
 10
57.9304904777
 20
88.8117783458
  0
VERTEX
  8
0
 62
7
  6
CONTINUOUS
 10
57.9289757313
 20
88.7903573179
  0
VERTEX
  8
0
 62
7
  6
CONTINUOUS
 10
57.9178135915
 20
88.7475327095
  0
VERTEX
  8
0
 62
7
  6
CONTINUOUS
 10
57.897431792
 20
88.7065786962
  0
VERTEX
  8
0
 62
7
  6
CONTINUOUS
 10
57.8693779942
 20
88.6680949746
  0
VERTEX
  8
0
 62
7
  6
CONTINUOUS
 10
57.834311009
 20
88.6320720864
  0
VERTEX
  8
0
 62
7
  6
CONTINUOUS
 10
57.7923453516
 20
88.5985021631
  0
VERTEX
  8
0
 62
7
  6
CONTINUOUS
 10
57.7431284867
 20
88.5673686108
  0
VERTEX
  8
0
 62
7
  6
CONTINUOUS
 10
57.6880811605
 20
88.5397759954
  0
VERTEX
  8
0
 62
7
  6
CONTINUOUS
 10
57.6287781331
 20
88.5162956406
  0
VERTEX
  8
0
 62
7
  6
CONTINUOUS
 10
57.5650008895
 20
88.4964975906
  0
VERTEX
  8
0
 62
7
  6
CONTINUOUS
 10
57.4975008465
 20
88.4796854986
  0
VERTEX
  8
0
 62
7
  6
CONTINUOUS
 10
57.4276221427
 20
88.4657124093
  0
VERTEX
  8
0
 62
7
  6
CONTINUOUS
 10
57.3557124206
 20
88.4543020887
  0
VERTEX
  8
0
 62
7
  6
CONTINUOUS
 10
57.2816199845
 20
88.4452677666
  0
VERTEX
  8
0
 62
7
  6
CONTINUOUS
 10
57.2058320633
 20
88.4384393201
  0
VERTEX
  8
0
 62
7
  6
CONTINUOUS
 10
57.1287819156
 20
88.433641037
  0
VERTEX
  8
0
 62
7
  6
CONTINUOUS
 10
57.0506893882
 20
88.4306760283
  0
VERTEX
  8
0
 62
7
  6
CONTINUOUS
 10
56.9717712593
 20
88.4293247181
  0
VERTEX
  8
0
 62
7
  6
CONTINUOUS
 10
56.8923012096
 20
88.4293839933
  0
SEQEND
  0
LINE
  8
0
 62
7
  6
CONTINUOUS
 10
46.9714820589
 20
137.9557671042
 11
46.5705328372
 21
137.775983829
  0
POLYLINE
  8
0
 62
7
  6
CONTINUOUS
 66
1
 70
0
  0
VERTEX
  8
0
 62
7
  6
CONTINUOUS
 10
46.4748757926
 20
104.1641437125
  0
VERTEX
  8
0
 62
7
  6
CONTINUOUS
 10
46.3060807393
 20
104.1362570668
  0
VERTEX
  8
0
 62
7
  6
CONTINUOUS
 10
46.1415205229
 20
104.1054131654
  0
VERTEX
  8
0
 62
7
  6
CONTINUOUS
 10
45.9980822464
 20
104.0745294146
  0
VERTEX
  8
0
 62
7
  6
CONTINUOUS
 10
45.8724039459
 20
104.043191368
  0
VERTEX
  8
0
 62
7
  6
CONTINUOUS
 10
45.7610902756
 20
104.0106899827
  0
VERTEX
  8
0
 62
7
  6
CONTINUOUS
 10
45.6604806541
 20
103.9757776798
  0
VERTEX
  8
0
 62
7
  6
CONTINUOUS
 10
45.566515783
 20
103.9362410526
  0
VERTEX
  8
0
 62
7
  6
CONTINUOUS
 10
45.4753200019
 20
103.8884524614
  0
VERTEX
  8
0
 62
7
  6
CONTINUOUS
 10
45.3840078256
 20
103.8267434181
  0
VERTEX
  8
0
 62
7
  6
CONTINUOUS
 10
45.2929600716
 20
103.7436463508
  0
VERTEX
  8
0
 62
7
  6
CONTINUOUS
 10
45.2094905126
 20
103.6338410857
  0
VERTEX
  8
0
 62
7
  6
CONTINUOUS
 10
45.1461802054
 20
103.4996873036
  0
VERTEX
  8
0
 62
7
  6
CONTINUOUS
 10
45.11333673
 20
103.3524410483
  0
VERTEX
  8
0
 62
7
  6
CONTINUOUS
 10
45.1092996759
 20
103.2776853426
  0
SEQEND
  0
LINE
  8
0
 62
7
  6
CONTINUOUS
 10
46.5795949294
 20
104.1800472179
 11
46.4748675873
 21
104.1641424334
  0
POLYLINE
  8
0
 62
7
  6
CONTINUOUS
 66
1
 70
0
  0
VERTEX
  8
0
 62
7
  6
CONTINUOUS
 10
50.766675658
 20
105.2362872197
  0
VERTEX
  8
0
 62
7
  6
CONTINUOUS
 10
50.2148825366
 20
105.164409406
  0
VERTEX
  8
0
 62
7
  6
CONTINUOUS
 10
49.6150576097
 20
105.0696805546
  0
VERTEX
  8
0
 62
7
  6
CONTINUOUS
 10
49.0324468042
 20
104.9589930236
  0
VERTEX
  8
0
 62
7
  6
CONTINUOUS
 10
48.4720557824
 20
104.8323047901
  0
VERTEX
  8
0
 62
7
  6
CONTINUOUS
 10
47.9387195802
 20
104.6896000443
  0
VERTEX
  8
0
 62
7
  6
CONTINUOUS
 10
47.4370950998
 20
104.5308316424
  0
VERTEX
  8
0
 62
7
  6
CONTINUOUS
 10
46.9714820589
 20
104.3557671042
  0
SEQEND
  0
LINE
  8
0
 62
7
  6
CONTINUOUS
 10
50.7666815236
 20
105.2362871901
 11
50.7677014635
 21
105.2363464954
  0
LINE
  8
0
 62
7
  6
CONTINUOUS
 10
50.7666815236
 20
113.8067421202
 11
50.7677014635
 21
113.806682815
  0
LINE
  8
0
 62
7
  6
CONTINUOUS
 10
46.4748675873
 20
114.878886877
 11
46.5795949294
 21
114.8629820924
  0
POLYLINE
  8
0
 62
7
  6
CONTINUOUS
 66
1
 70
0
  0
VERTEX
  8
0
 62
7
  6
CONTINUOUS
 10
111.4480641746
 20
95.7759848722
  0
VERTEX
  8
0
 62
7
  6
CONTINUOUS
 10
111.0448174352
 20
95.9567115993
  0
VERTEX
  8
0
 62
7
  6
CONTINUOUS
 10
110.578966704
 20
96.1317054171
  0
VERTEX
  8
0
 62
7
  6
CONTINUOUS
 10
110.0771161839
 20
96.2904033701
  0
VERTEX
  8
0
 62
7
  6
CONTINUOUS
 10
109.5435683505
 20
96.4330361458
  0
VERTEX
  8
0
 62
7
  6
CONTINUOUS
 10
108.9829825196
 20
96.5596500457
  0
VERTEX
  8
0
 62
7
  6
CONTINUOUS
 10
108.4001953846
 20
96.6702606565
  0
VERTEX
  8
0
 62
7
  6
CONTINUOUS
 10
107.8002137962
 20
96.7649101163
  0
VERTEX
  8
0
 62
7
  6
CONTINUOUS
 10
107.2519234518
 20
96.836287223
  0
SEQEND
  0
POLYLINE
  8
0
 62
7
  6
CONTINUOUS
 66
1
 70
0
  0
VERTEX
  8
0
 62
7
  6
CONTINUOUS
 10
57.9304904777
 20
72.0117783458
  0
VERTEX
  8
0
 62
7
  6
CONTINUOUS
 10
57.9289757313
 20
71.9903573179
  0
VERTEX
  8
0
 62
7
  6
CONTINUOUS
 10
57.9178135915
 20
71.9475327095
  0
VERTEX
  8
0
 62
7
  6
CONTINUOUS
 10
57.897431792
 20
71.9065786962
  0
VERTEX
  8
0
 62
7
  6
CONTINUOUS
 10
57.8693779942
 20
71.8680949746
  0
VERTEX
  8
0
 62
7
  6
CONTINUOUS
 10
57.834311009
 20
71.8320720864
  0
VERTEX
  8
0
 62
7
  6
CONTINUOUS
 10
57.7923453516
 20
71.7985021631
  0
VERTEX
  8
0
 62
7
  6
CONTINUOUS
 10
57.7431284867
 20
71.7673686108
  0
VERTEX
  8
0
 62
7
  6
CONTINUOUS
 10
57.6880811605
 20
71.7397759954
  0
VERTEX
  8
0
 62
7
  6
CONTINUOUS
 10
57.6287781331
 20
71.7162956406
  0
VERTEX
  8
0
 62
7
  6
CONTINUOUS
 10
57.5650008895
 20
71.6964975906
  0
VERTEX
  8
0
 62
7
  6
CONTINUOUS
 10
57.4975008465
 20
71.6796854986
  0
VERTEX
  8
0
 62
7
  6
CONTINUOUS
 10
57.4276221427
 20
71.6657124093
  0
VERTEX
  8
0
 62
7
  6
CONTINUOUS
 10
57.3557124206
 20
71.6543020887
  0
VERTEX
  8
0
 62
7
  6
CONTINUOUS
 10
57.2816199845
 20
71.6452677666
  0
VERTEX
  8
0
 62
7
  6
CONTINUOUS
 10
57.2058320633
 20
71.6384393201
  0
VERTEX
  8
0
 62
7
  6
CONTINUOUS
 10
57.1287819156
 20
71.633641037
  0
VERTEX
  8
0
 62
7
  6
CONTINUOUS
 10
57.0506893882
 20
71.6306760283
  0
VERTEX
  8
0
 62
7
  6
CONTINUOUS
 10
56.9717712593
 20
71.6293247181
  0
VERTEX
  8
0
 62
7
  6
CONTINUOUS
 10
56.8923012096
 20
71.6293839933
  0
SEQEND
  0
POLYLINE
  8
0
 62
7
  6
CONTINUOUS
 66
1
 70
0
  0
VERTEX
  8
0
 62
7
  6
CONTINUOUS
 10
111.5437225932
 20
123.2788854806
  0
VERTEX
  8
0
 62
7
  6
CONTINUOUS
 10
111.7112351624
 20
123.3065472923
  0
VERTEX
  8
0
 62
7
  6
CONTINUOUS
 10
111.8762613805
 20
123.3374520902
  0
VERTEX
  8
0
 62
7
  6
CONTINUOUS
 10
112.0200890818
 20
123.3684008767
  0
VERTEX
  8
0
 62
7
  6
CONTINUOUS
 10
112.1460917049
 20
123.399810064
  0
VERTEX
  8
0
 62
7
  6
CONTINUOUS
 10
112.257678544
 20
123.432393205
  0
VERTEX
  8
0
 62
7
  6
CONTINUOUS
 10
112.3585298628
 20
123.4674082138
  0
VERTEX
  8
0
 62
7
  6
CONTINUOUS
 10
112.4527333293
 20
123.5070917121
  0
VERTEX
  8
0
 62
7
  6
CONTINUOUS
 10
112.5441972551
 20
123.5551188299
  0
VERTEX
  8
0
 62
7
  6
CONTINUOUS
 10
112.6358044778
 20
123.6172284807
  0
VERTEX
  8
0
 62
7
  6
CONTINUOUS
 10
112.7270953454
 20
123.7009574055
  0
VERTEX
  8
0
 62
7
  6
CONTINUOUS
 10
112.810583253
 20
123.8116028167
  0
VERTEX
  8
0
 62
7
  6
CONTINUOUS
 10
112.8735269764
 20
123.9465924822
  0
VERTEX
  8
0
 62
7
  6
CONTINUOUS
 10
112.9056691322
 20
124.0944272714
  0
VERTEX
  8
0
 62
7
  6
CONTINUOUS
 10
112.909299465
 20
124.165341414
  0
SEQEND
  0
LINE
  8
0
 62
7
  6
CONTINUOUS
 10
111.439005136
 20
123.262984367
 11
111.5437306807
 21
123.2788867414
  0
POLYLINE
  8
0
 62
7
  6
CONTINUOUS
 66
1
 70
0
  0
VERTEX
  8
0
 62
7
  6
CONTINUOUS
 10
107.2519234518
 20
122.2067420873
  0
VERTEX
  8
0
 62
7
  6
CONTINUOUS
 10
107.8002148342
 20
122.2781193423
  0
VERTEX
  8
0
 62
7
  6
CONTINUOUS
 10
108.4001962496
 20
122.3727688037
  0
VERTEX
  8
0
 62
7
  6
CONTINUOUS
 10
108.9829832141
 20
122.4833794085
  0
VERTEX
  8
0
 62
7
  6
CONTINUOUS
 10
109.5435688804
 20
122.6099932947
  0
VERTEX
  8
0
 62
7
  6
CONTINUOUS
 10
110.0771165587
 20
122.7526260491
  0
VERTEX
  8
0
 62
7
  6
CONTINUOUS
 10
110.5789669367
 20
122.9113239734
  0
VERTEX
  8
0
 62
7
  6
CONTINUOUS
 10
111.0448175421
 20
123.0863177549
  0
SEQEND
  0
POLYLINE
  8
0
 62
7
  6
CONTINUOUS
 66
1
 70
0
  0
VERTEX
  8
0
 62
7
  6
CONTINUOUS
 10
56.5948733373
 20
113.8096343788
  0
VERTEX
  8
0
 62
7
  6
CONTINUOUS
 10
56.8881954562
 20
113.8136073557
  0
VERTEX
  8
0
 62
7
  6
CONTINUOUS
 10
56.9677889992
 20
113.8137336792
  0
VERTEX
  8
0
 62
7
  6
CONTINUOUS
 10
57.0468516604
 20
113.8124549997
  0
VERTEX
  8
0
 62
7
  6
CONTINUOUS
 10
57.1251033847
 20
113.8095685229
  0
VERTEX
  8
0
 62
7
  6
CONTINUOUS
 10
57.2023216287
 20
113.8048531209
  0
VERTEX
  8
0
 62
7
  6
CONTINUOUS
 10
57.2782866776
 20
113.7981102004
  0
VERTEX
  8
0
 62
7
  6
CONTINUOUS
 10
57.3525658222
 20
113.7891638542
  0
VERTEX
  8
0
 62
7
  6
CONTINUOUS
 10
57.4246508206
 20
113.777844337
  0
VERTEX
  8
0
 62
7
  6
CONTINUOUS
 10
57.4947554895
 20
113.7639529378
  0
VERTEX
  8
0
 62
7
  6
CONTINUOUS
 10
57.5624056416
 20
113.7472530619
  0
VERTEX
  8
0
 62
7
  6
CONTINUOUS
 10
57.6264738259
 20
113.72753852
  0
VERTEX
  8
0
 62
7
  6
CONTINUOUS
 10
57.6859636509
 20
113.7041918424
  0
VERTEX
  8
0
 62
7
  6
CONTINUOUS
 10
57.7412325998
 20
113.6767234193
  0
VERTEX
  8
0
 62
7
  6
CONTINUOUS
 10
57.7906771291
 20
113.6457085427
  0
VERTEX
  8
0
 62
7
  6
CONTINUOUS
 10
57.832856102
 20
113.6122658567
  0
VERTEX
  8
0
 62
7
  6
CONTINUOUS
 10
57.8681303938
 20
113.5763959654
  0
VERTEX
  8
0
 62
7
  6
CONTINUOUS
 10
57.8964262052
 20
113.53807579
  0
VERTEX
  8
0
 62
7
  6
CONTINUOUS
 10
57.9171363109
 20
113.4972447895
  0
VERTEX
  8
0
 62
7
  6
CONTINUOUS
 10
57.9287245729
 20
113.4544479668
  0
VERTEX
  8
0
 62
7
  6
CONTINUOUS
 10
57.9304910831
 20
113.4310781685
  0
SEQEND
  0
POLYLINE
  8
0
 62
7
  6
CONTINUOUS
 66
1
 70
0
  0
VERTEX
  8
0
 62
7
  6
CONTINUOUS
 10
101.4197580706
 20
113.6333480668
  0
VERTEX
  8
0
 62
7
  6
CONTINUOUS
 10
101.1257262997
 20
113.6293783459
  0
VERTEX
  8
0
 62
7
  6
CONTINUOUS
 10
101.0458571267
 20
113.6293316794
  0
VERTEX
  8
0
 62
7
  6
CONTINUOUS
 10
100.9666816635
 20
113.6307084441
  0
VERTEX
  8
0
 62
7
  6
CONTINUOUS
 10
100.8884596897
 20
113.6337075535
  0
VERTEX
  8
0
 62
7
  6
CONTINUOUS
 10
100.8113885702
 20
113.6385431233
  0
VERTEX
  8
0
 62
7
  6
CONTINUOUS
 10
100.7356753976
 20
113.6454042531
  0
VERTEX
  8
0
 62
7
  6
CONTINUOUS
 10
100.6617481287
 20
113.6544601514
  0
VERTEX
  8
0
 62
7
  6
CONTINUOUS
 10
100.5900529525
 20
113.6658758073
  0
VERTEX
  8
0
 62
7
  6
CONTINUOUS
 10
100.5204539303
 20
113.6798317833
  0
VERTEX
  8
0
 62
7
  6
CONTINUOUS
 10
100.4532183443
 20
113.6965995379
  0
VERTEX
  8
0
 62
7
  6
CONTINUOUS
 10
100.3897893034
 20
113.7163016898
  0
VERTEX
  8
0
 62
7
  6
CONTINUOUS
 10
100.330794411
 20
113.7396530878
  0
VERTEX
  8
0
 62
7
  6
CONTINUOUS
 10
100.276024406
 20
113.7670559714
  0
VERTEX
  8
0
 62
7
  6
CONTINUOUS
 10
100.2270931386
 20
113.7979051051
  0
VERTEX
  8
0
 62
7
  6
CONTINUOUS
 10
100.1850667758
 20
113.8313691081
  0
VERTEX
  8
0
 62
7
  6
CONTINUOUS
 10
100.1497231011
 20
113.86750431
  0
VERTEX
  8
0
 62
7
  6
CONTINUOUS
 10
100.1213579577
 20
113.9062675517
  0
VERTEX
  8
0
 62
7
  6
CONTINUOUS
 10
100.10078166
 20
113.9475411514
  0
VERTEX
  8
0
 62
7
  6
CONTINUOUS
 10
100.0895986328
 20
113.9905384875
  0
VERTEX
  8
0
 62
7
  6
CONTINUOUS
 10
100.0881086206
 20
114.0117773907
  0
SEQEND
  0
LINE
  8
0
 62
7
  6
CONTINUOUS
 10
101.7027722397
 20
113.6357901214
 11
101.4197580706
 21
113.6333480668
  0
LINE
  8
0
 62
7
  6
CONTINUOUS
 10
56.3118516006
 20
113.8072184044
 11
56.5948733373
 21
113.8096343788
  0
LINE
  8
0
 62
7
  6
CONTINUOUS
 10
101.7027722397
 20
113.6357901214
 11
107.2508731802
 21
113.6363464983
  0
LINE
  8
0
 62
7
  6
CONTINUOUS
 10
50.767763475
 20
113.806682812
 11
56.3118516006
 21
113.8072184044
  0
LINE
  8
0
 62
2
  6
CONTINUOUS
 10
119.009299569
 20
118.0215146552
 11
79.009299569
 21
118.0215146552
  0
LINE
  8
0
 62
7
  6
CONTINUOUS
 10
107.2509052932
 20
113.6363464983
 11
107.2519133304
 21
113.6362871722
  0
LINE
  8
0
 62
7
  6
CONTINUOUS
 10
111.5437306807
 20
112.564142569
 11
111.4390051357
 21
112.5800449433
  0
POLYLINE
  8
0
 62
7
  6
CONTINUOUS
 66
1
 70
0
  0
VERTEX
  8
0
 62
7
  6
CONTINUOUS
 10
46.5705328372
 20
131.6670454813
  0
VERTEX
  8
0
 62
7
  6
CONTINUOUS
 10
46.9714820589
 20
131.4872622061
  0
VERTEX
  8
0
 62
7
  6
CONTINUOUS
 10
47.4370950998
 20
131.312197668
  0
VERTEX
  8
0
 62
7
  6
CONTINUOUS
 10
47.9387195802
 20
131.1534292661
  0
VERTEX
  8
0
 62
7
  6
CONTINUOUS
 10
48.4720557824
 20
131.0107245203
  0
VERTEX
  8
0
 62
7
  6
CONTINUOUS
 10
49.0324468042
 20
130.8840362867
  0
VERTEX
  8
0
 62
7
  6
CONTINUOUS
 10
49.6150576097
 20
130.7733487557
  0
VERTEX
  8
0
 62
7
  6
CONTINUOUS
 10
50.2148825366
 20
130.6786199044
  0
VERTEX
  8
0
 62
7
  6
CONTINUOUS
 10
50.766675658
 20
130.6067420906
  0
SEQEND
  0
POLYLINE
  8
0
 62
7
  6
CONTINUOUS
 66
1
 70
0
  0
VERTEX
  8
0
 62
7
  6
CONTINUOUS
 10
107.2519133304
 20
96.8362871722
  0
VERTEX
  8
0
 62
7
  6
CONTINUOUS
 10
107.2605102284
 20
96.8304754718
  0
VERTEX
  8
0
 62
7
  6
CONTINUOUS
 10
107.2693035468
 20
96.8113887189
  0
VERTEX
  8
0
 62
7
  6
CONTINUOUS
 10
107.2760319896
 20
96.7801874718
  0
VERTEX
  8
0
 62
7
  6
CONTINUOUS
 10
107.2803516929
 20
96.7388689259
  0
VERTEX
  8
0
 62
7
  6
CONTINUOUS
 10
107.2821405796
 20
96.6901725798
  0
VERTEX
  8
0
 62
7
  6
CONTINUOUS
 10
107.2815808922
 20
96.6363464983
  0
SEQEND
  0
LINE
  8
0
 62
7
  6
CONTINUOUS
 10
111.0448175421
 20
156.6863177549
 11
111.4480641746
 21
156.8670444382
  0
LINE
  8
0
 62
7
  6
CONTINUOUS
 10
107.2519175861
 20
122.2067421169
 11
107.2508976744
 21
122.206682815
  0
LINE
  8
0
 62
7
  6
CONTINUOUS
 10
50.7666815236
 20
122.0362871901
 11
50.7677014635
 21
122.0363464954
  0
POLYLINE
  8
0
 62
7
  6
CONTINUOUS
 66
1
 70
0
  0
VERTEX
  8
0
 62
7
  6
CONTINUOUS
 10
56.8923012096
 20
122.0293839933
  0
VERTEX
  8
0
 62
7
  6
CONTINUOUS
 10
56.5988372238
 20
122.0333484698
  0
VERTEX
  8
0
 62
7
  6
CONTINUOUS
 10
56.3158250223
 20
122.0357902137
  0
VERTEX
  8
0
 62
7
  6
CONTINUOUS
 10
50.767763475
 20
122.0363464983
  0
SEQEND
  0
POLYLINE
  8
0
 62
7
  6
CONTINUOUS
 66
1
 70
0
  0
VERTEX
  8
0
 62
7
  6
CONTINUOUS
 10
101.1299267541
 20
122.2136119342
  0
VERTEX
  8
0
 62
7
  6
CONTINUOUS
 10
101.4237258513
 20
122.209634379
  0
VERTEX
  8
0
 62
7
  6
CONTINUOUS
 10
101.7067475118
 20
122.2072184045
  0
VERTEX
  8
0
 62
7
  6
CONTINUOUS
 10
107.2508356629
 20
122.206682812
  0
SEQEND
  0
LINE
  8
DEFAULT_1
 62
2
  6
CENTER
 10
79.009299569
 20
134.9215146552
 11
79.009299569
 21
132.5216146552
  0
LINE
  8
0
 62
2
  6
CONTINUOUS
 10
79.009299569
 20
131.4015146552
 11
79.009299569
 21
129.6415146552
  0
LINE
  8
0
 62
2
  6
CONTINUOUS
 10
79.009299569
 20
118.0215146552
 11
79.009299569
 21
126.1215146552
  0
LINE
  8
DEFAULT_1
 62
2
  6
CENTER
 10
79.009299569
 20
126.1215146552
 11
79.009299569
 21
128.5214146552
  0
LINE
  8
0
 62
7
  6
CONTINUOUS
 10
46.9714820589
 20
121.1557671042
 11
46.5705328372
 21
120.975983829
  0
POLYLINE
  8
0
 62
7
  6
CONTINUOUS
 66
1
 70
0
  0
VERTEX
  8
0
 62
7
  6
CONTINUOUS
 10
46.4748757926
 20
120.9641437125
  0
VERTEX
  8
0
 62
7
  6
CONTINUOUS
 10
46.3060807393
 20
120.9362570668
  0
VERTEX
  8
0
 62
7
  6
CONTINUOUS
 10
46.1415205229
 20
120.9054131654
  0
VERTEX
  8
0
 62
7
  6
CONTINUOUS
 10
45.9980822464
 20
120.8745294146
  0
VERTEX
  8
0
 62
7
  6
CONTINUOUS
 10
45.8724039459
 20
120.843191368
  0
VERTEX
  8
0
 62
7
  6
CONTINUOUS
 10
45.7610902756
 20
120.8106899827
  0
VERTEX
  8
0
 62
7
  6
CONTINUOUS
 10
45.6604806541
 20
120.7757776798
  0
VERTEX
  8
0
 62
7
  6
CONTINUOUS
 10
45.566515783
 20
120.7362410526
  0
VERTEX
  8
0
 62
7
  6
CONTINUOUS
 10
45.4753200019
 20
120.6884524614
  0
VERTEX
  8
0
 62
7
  6
CONTINUOUS
 10
45.3840078256
 20
120.6267434181
  0
VERTEX
  8
0
 62
7
  6
CONTINUOUS
 10
45.2929600716
 20
120.5436463508
  0
VERTEX
  8
0
 62
7
  6
CONTINUOUS
 10
45.2094905126
 20
120.4338410857
  0
VERTEX
  8
0
 62
7
  6
CONTINUOUS
 10
45.1461802054
 20
120.2996873036
  0
VERTEX
  8
0
 62
7
  6
CONTINUOUS
 10
45.11333673
 20
120.1524410483
  0
VERTEX
  8
0
 62
7
  6
CONTINUOUS
 10
45.1092996759
 20
120.0776853426
  0
SEQEND
  0
LINE
  8
0
 62
7
  6
CONTINUOUS
 10
46.5795949294
 20
120.9800472179
 11
46.4748675873
 21
120.9641424334
  0
POLYLINE
  8
0
 62
7
  6
CONTINUOUS
 66
1
 70
0
  0
VERTEX
  8
0
 62
7
  6
CONTINUOUS
 10
50.766675658
 20
122.0362872197
  0
VERTEX
  8
0
 62
7
  6
CONTINUOUS
 10
50.2148825366
 20
121.964409406
  0
VERTEX
  8
0
 62
7
  6
CONTINUOUS
 10
49.6150576097
 20
121.8696805546
  0
VERTEX
  8
0
 62
7
  6
CONTINUOUS
 10
49.0324468042
 20
121.7589930236
  0
VERTEX
  8
0
 62
7
  6
CONTINUOUS
 10
48.4720557824
 20
121.6323047901
  0
VERTEX
  8
0
 62
7
  6
CONTINUOUS
 10
47.9387195802
 20
121.4896000443
  0
VERTEX
  8
0
 62
7
  6
CONTINUOUS
 10
47.4370950998
 20
121.3308316424
  0
VERTEX
  8
0
 62
7
  6
CONTINUOUS
 10
46.9714820589
 20
121.1557671042
  0
SEQEND
  0
POLYLINE
  8
0
 62
7
  6
CONTINUOUS
 66
1
 70
0
  0
VERTEX
  8
0
 62
7
  6
CONTINUOUS
 10
56.5948733373
 20
130.6096343788
  0
VERTEX
  8
0
 62
7
  6
CONTINUOUS
 10
56.8881954562
 20
130.6136073557
  0
VERTEX
  8
0
 62
7
  6
CONTINUOUS
 10
56.9677889992
 20
130.6137336792
  0
VERTEX
  8
0
 62
7
  6
CONTINUOUS
 10
57.0468516604
 20
130.6124549997
  0
VERTEX
  8
0
 62
7
  6
CONTINUOUS
 10
57.1251033847
 20
130.6095685229
  0
VERTEX
  8
0
 62
7
  6
CONTINUOUS
 10
57.2023216287
 20
130.6048531209
  0
VERTEX
  8
0
 62
7
  6
CONTINUOUS
 10
57.2782866776
 20
130.5981102004
  0
VERTEX
  8
0
 62
7
  6
CONTINUOUS
 10
57.3525658222
 20
130.5891638542
  0
VERTEX
  8
0
 62
7
  6
CONTINUOUS
 10
57.4246508206
 20
130.577844337
  0
VERTEX
  8
0
 62
7
  6
CONTINUOUS
 10
57.4947554895
 20
130.5639529378
  0
VERTEX
  8
0
 62
7
  6
CONTINUOUS
 10
57.5624056416
 20
130.5472530619
  0
VERTEX
  8
0
 62
7
  6
CONTINUOUS
 10
57.6264738259
 20
130.52753852
  0
VERTEX
  8
0
 62
7
  6
CONTINUOUS
 10
57.6859636509
 20
130.5041918424
  0
VERTEX
  8
0
 62
7
  6
CONTINUOUS
 10
57.7412325998
 20
130.4767234193
  0
VERTEX
  8
0
 62
7
  6
CONTINUOUS
 10
57.7906771291
 20
130.4457085427
  0
VERTEX
  8
0
 62
7
  6
CONTINUOUS
 10
57.832856102
 20
130.4122658567
  0
VERTEX
  8
0
 62
7
  6
CONTINUOUS
 10
57.8681303938
 20
130.3763959654
  0
VERTEX
  8
0
 62
7
  6
CONTINUOUS
 10
57.8964262052
 20
130.33807579
  0
VERTEX
  8
0
 62
7
  6
CONTINUOUS
 10
57.9171363109
 20
130.2972447895
  0
VERTEX
  8
0
 62
7
  6
CONTINUOUS
 10
57.9287245729
 20
130.2544479668
  0
VERTEX
  8
0
 62
7
  6
CONTINUOUS
 10
57.9304910831
 20
130.2310781685
  0
SEQEND
  0
POLYLINE
  8
0
 62
7
  6
CONTINUOUS
 66
1
 70
0
  0
VERTEX
  8
0
 62
7
  6
CONTINUOUS
 10
101.4197580706
 20
130.4333480668
  0
VERTEX
  8
0
 62
7
  6
CONTINUOUS
 10
101.1257262997
 20
130.4293783459
  0
VERTEX
  8
0
 62
7
  6
CONTINUOUS
 10
101.0458571267
 20
130.4293316794
  0
VERTEX
  8
0
 62
7
  6
CONTINUOUS
 10
100.9666816635
 20
130.4307084441
  0
VERTEX
  8
0
 62
7
  6
CONTINUOUS
 10
100.8884596897
 20
130.4337075535
  0
VERTEX
  8
0
 62
7
  6
CONTINUOUS
 10
100.8113885702
 20
130.4385431233
  0
VERTEX
  8
0
 62
7
  6
CONTINUOUS
 10
100.7356753976
 20
130.4454042531
  0
VERTEX
  8
0
 62
7
  6
CONTINUOUS
 10
100.6617481287
 20
130.4544601514
  0
VERTEX
  8
0
 62
7
  6
CONTINUOUS
 10
100.5900529525
 20
130.4658758073
  0
VERTEX
  8
0
 62
7
  6
CONTINUOUS
 10
100.5204539303
 20
130.4798317833
  0
VERTEX
  8
0
 62
7
  6
CONTINUOUS
 10
100.4532183443
 20
130.4965995379
  0
VERTEX
  8
0
 62
7
  6
CONTINUOUS
 10
100.3897893034
 20
130.5163016898
  0
VERTEX
  8
0
 62
7
  6
CONTINUOUS
 10
100.330794411
 20
130.5396530878
  0
VERTEX
  8
0
 62
7
  6
CONTINUOUS
 10
100.276024406
 20
130.5670559714
  0
VERTEX
  8
0
 62
7
  6
CONTINUOUS
 10
100.2270931386
 20
130.5979051051
  0
VERTEX
  8
0
 62
7
  6
CONTINUOUS
 10
100.1850667758
 20
130.6313691081
  0
VERTEX
  8
0
 62
7
  6
CONTINUOUS
 10
100.1497231011
 20
130.66750431
  0
VERTEX
  8
0
 62
7
  6
CONTINUOUS
 10
100.1213579577
 20
130.7062675517
  0
VERTEX
  8
0
 62
7
  6
CONTINUOUS
 10
100.10078166
 20
130.7475411514
  0
VERTEX
  8
0
 62
7
  6
CONTINUOUS
 10
100.0895986328
 20
130.7905384875
  0
VERTEX
  8
0
 62
7
  6
CONTINUOUS
 10
100.0881086206
 20
130.8117773907
  0
SEQEND
  0
LINE
  8
0
 62
7
  6
CONTINUOUS
 10
101.7027722397
 20
130.4357901214
 11
101.4197580706
 21
130.4333480668
  0
LINE
  8
0
 62
7
  6
CONTINUOUS
 10
56.3118516006
 20
130.6072184044
 11
56.5948733373
 21
130.6096343788
  0
LINE
  8
0
 62
2
  6
CONTINUOUS
 10
79.009299569
 20
126.4215146552
 11
39.009299569
 21
126.4215146552
  0
LINE
  8
0
 62
7
  6
CONTINUOUS
 10
101.7027722397
 20
130.4357901214
 11
107.2508731802
 21
130.4363464983
  0
LINE
  8
DEFAULT_1
 62
2
  6
CENTER
 10
83.409299569
 20
130.5215146552
 11
81.009399569
 21
130.5215146552
  0
LINE
  8
0
 62
2
  6
CONTINUOUS
 10
79.889299569
 20
130.5215146552
 11
78.129299569
 21
130.5215146552
  0
LINE
  8
0
 62
40
  6
CONTINUOUS
 10
25.185999569
 20
130.5215146552
 11
50.7412722895
 21
130.5215146552
  0
LINE
  8
DEFAULT_1
 62
2
  6
CENTER
 10
74.609299569
 20
130.5215146552
 11
77.009199569
 21
130.5215146552
  0
LINE
  8
0
 62
40
  6
CONTINUOUS
 10
107.2773272693
 20
130.5215146552
 11
132.832599569
 21
130.5215146552
  0
LINE
  8
0
 62
7
  6
CONTINUOUS
 10
50.767763475
 20
130.606682812
 11
56.3118516006
 21
130.6072184044
  0
LINE
  8
0
 62
7
  6
CONTINUOUS
 10
50.7666815236
 20
130.6067421202
 11
50.7677014635
 21
130.606682815
  0
LINE
  8
0
 62
7
  6
CONTINUOUS
 10
46.4748675873
 20
131.678886877
 11
46.5795949294
 21
131.6629820924
  0
POLYLINE
  8
0
 62
7
  6
CONTINUOUS
 66
1
 70
0
  0
VERTEX
  8
0
 62
7
  6
CONTINUOUS
 10
111.4480641746
 20
112.5759848722
  0
VERTEX
  8
0
 62
7
  6
CONTINUOUS
 10
111.0448174352
 20
112.7567115993
  0
VERTEX
  8
0
 62
7
  6
CONTINUOUS
 10
110.578966704
 20
112.9317054171
  0
VERTEX
  8
0
 62
7
  6
CONTINUOUS
 10
110.0771161839
 20
113.0904033701
  0
VERTEX
  8
0
 62
7
  6
CONTINUOUS
 10
109.5435683505
 20
113.2330361458
  0
VERTEX
  8
0
 62
7
  6
CONTINUOUS
 10
108.9829825196
 20
113.3596500457
  0
VERTEX
  8
0
 62
7
  6
CONTINUOUS
 10
108.4001953846
 20
113.4702606565
  0
VERTEX
  8
0
 62
7
  6
CONTINUOUS
 10
107.8002137962
 20
113.5649101163
  0
VERTEX
  8
0
 62
7
  6
CONTINUOUS
 10
107.2519234518
 20
113.636287223
  0
SEQEND
  0
LINE
  8
0
 62
7
  6
CONTINUOUS
 10
111.0448175421
 20
139.8863177549
 11
111.4480641746
 21
140.0670444382
  0
POLYLINE
  8
0
 62
7
  6
CONTINUOUS
 66
1
 70
0
  0
VERTEX
  8
0
 62
7
  6
CONTINUOUS
 10
111.5437225932
 20
140.0788854806
  0
VERTEX
  8
0
 62
7
  6
CONTINUOUS
 10
111.7112351624
 20
140.1065472923
  0
VERTEX
  8
0
 62
7
  6
CONTINUOUS
 10
111.8762613805
 20
140.1374520902
  0
VERTEX
  8
0
 62
7
  6
CONTINUOUS
 10
112.0200890818
 20
140.1684008767
  0
VERTEX
  8
0
 62
7
  6
CONTINUOUS
 10
112.1460917049
 20
140.199810064
  0
VERTEX
  8
0
 62
7
  6
CONTINUOUS
 10
112.257678544
 20
140.232393205
  0
VERTEX
  8
0
 62
7
  6
CONTINUOUS
 10
112.3585298628
 20
140.2674082138
  0
VERTEX
  8
0
 62
7
  6
CONTINUOUS
 10
112.4527333293
 20
140.3070917121
  0
VERTEX
  8
0
 62
7
  6
CONTINUOUS
 10
112.5441972551
 20
140.3551188299
  0
VERTEX
  8
0
 62
7
  6
CONTINUOUS
 10
112.6358044778
 20
140.4172284807
  0
VERTEX
  8
0
 62
7
  6
CONTINUOUS
 10
112.7270953454
 20
140.5009574055
  0
VERTEX
  8
0
 62
7
  6
CONTINUOUS
 10
112.810583253
 20
140.6116028167
  0
VERTEX
  8
0
 62
7
  6
CONTINUOUS
 10
112.8735269764
 20
140.7465924822
  0
VERTEX
  8
0
 62
7
  6
CONTINUOUS
 10
112.9056691322
 20
140.8944272714
  0
VERTEX
  8
0
 62
7
  6
CONTINUOUS
 10
112.9092991351
 20
140.9645266524
  0
SEQEND
  0
LINE
  8
0
 62
7
  6
CONTINUOUS
 10
111.439005136
 20
140.062984367
 11
111.5437306807
 21
140.0788867414
  0
POLYLINE
  8
0
 62
7
  6
CONTINUOUS
 66
1
 70
0
  0
VERTEX
  8
0
 62
7
  6
CONTINUOUS
 10
107.2519234518
 20
139.0067420873
  0
VERTEX
  8
0
 62
7
  6
CONTINUOUS
 10
107.8002148342
 20
139.0781193423
  0
VERTEX
  8
0
 62
7
  6
CONTINUOUS
 10
108.4001962496
 20
139.1727688037
  0
VERTEX
  8
0
 62
7
  6
CONTINUOUS
 10
108.9829832141
 20
139.2833794085
  0
VERTEX
  8
0
 62
7
  6
CONTINUOUS
 10
109.5435688804
 20
139.4099932947
  0
VERTEX
  8
0
 62
7
  6
CONTINUOUS
 10
110.0771165587
 20
139.5526260491
  0
VERTEX
  8
0
 62
7
  6
CONTINUOUS
 10
110.5789669367
 20
139.7113239734
  0
VERTEX
  8
0
 62
7
  6
CONTINUOUS
 10
111.0448175421
 20
139.8863177549
  0
SEQEND
  0
LINE
  8
0
 62
7
  6
CONTINUOUS
 10
107.2519175861
 20
139.0067421169
 11
107.2508976744
 21
139.006682815
  0
LINE
  8
0
 62
7
  6
CONTINUOUS
 10
107.2509052932
 20
130.4363464983
 11
107.2519133304
 21
130.4362871722
  0
LINE
  8
0
 62
7
  6
CONTINUOUS
 10
111.5437306807
 20
129.364142569
 11
111.4390051357
 21
129.3800449433
  0
POLYLINE
  8
0
 62
7
  6
CONTINUOUS
 66
1
 70
0
  0
VERTEX
  8
0
 62
7
  6
CONTINUOUS
 10
46.5705328372
 20
148.4670454813
  0
VERTEX
  8
0
 62
7
  6
CONTINUOUS
 10
46.9714820589
 20
148.2872622061
  0
VERTEX
  8
0
 62
7
  6
CONTINUOUS
 10
47.4370950998
 20
148.112197668
  0
VERTEX
  8
0
 62
7
  6
CONTINUOUS
 10
47.9387195802
 20
147.9534292661
  0
VERTEX
  8
0
 62
7
  6
CONTINUOUS
 10
48.4720557824
 20
147.8107245203
  0
VERTEX
  8
0
 62
7
  6
CONTINUOUS
 10
49.0324468042
 20
147.6840362867
  0
VERTEX
  8
0
 62
7
  6
CONTINUOUS
 10
49.6150576097
 20
147.5733487557
  0
VERTEX
  8
0
 62
7
  6
CONTINUOUS
 10
50.2148825366
 20
147.4786199044
  0
VERTEX
  8
0
 62
7
  6
CONTINUOUS
 10
50.766675658
 20
147.4067420906
  0
SEQEND
  0
POLYLINE
  8
0
 62
7
  6
CONTINUOUS
 66
1
 70
0
  0
VERTEX
  8
0
 62
7
  6
CONTINUOUS
 10
107.2519133304
 20
113.6362871722
  0
VERTEX
  8
0
 62
7
  6
CONTINUOUS
 10
107.2605102284
 20
113.6304754718
  0
VERTEX
  8
0
 62
7
  6
CONTINUOUS
 10
107.2693035468
 20
113.6113887189
  0
VERTEX
  8
0
 62
7
  6
CONTINUOUS
 10
107.2760319896
 20
113.5801874718
  0
VERTEX
  8
0
 62
7
  6
CONTINUOUS
 10
107.2803516929
 20
113.5388689259
  0
VERTEX
  8
0
 62
7
  6
CONTINUOUS
 10
107.2821405796
 20
113.4901725798
  0
VERTEX
  8
0
 62
7
  6
CONTINUOUS
 10
107.2815808922
 20
113.4363464983
  0
SEQEND
  0
LINE
  8
0
 62
7
  6
CONTINUOUS
 10
46.9714820589
 20
104.3557671042
 11
46.5705328372
 21
104.175983829
  0
POLYLINE
  8
0
 62
7
  6
CONTINUOUS
 66
1
 70
0
  0
VERTEX
  8
0
 62
7
  6
CONTINUOUS
 10
46.4748757926
 20
137.7641437125
  0
VERTEX
  8
0
 62
7
  6
CONTINUOUS
 10
46.3060807393
 20
137.7362570668
  0
VERTEX
  8
0
 62
7
  6
CONTINUOUS
 10
46.1415205229
 20
137.7054131654
  0
VERTEX
  8
0
 62
7
  6
CONTINUOUS
 10
45.9980822464
 20
137.6745294146
  0
VERTEX
  8
0
 62
7
  6
CONTINUOUS
 10
45.8724039459
 20
137.643191368
  0
VERTEX
  8
0
 62
7
  6
CONTINUOUS
 10
45.7610902756
 20
137.6106899827
  0
VERTEX
  8
0
 62
7
  6
CONTINUOUS
 10
45.6604806541
 20
137.5757776798
  0
VERTEX
  8
0
 62
7
  6
CONTINUOUS
 10
45.566515783
 20
137.5362410526
  0
VERTEX
  8
0
 62
7
  6
CONTINUOUS
 10
45.4753200019
 20
137.4884524614
  0
VERTEX
  8
0
 62
7
  6
CONTINUOUS
 10
45.3840078256
 20
137.4267434181
  0
VERTEX
  8
0
 62
7
  6
CONTINUOUS
 10
45.2929600716
 20
137.3436463508
  0
VERTEX
  8
0
 62
7
  6
CONTINUOUS
 10
45.2094905126
 20
137.2338410857
  0
VERTEX
  8
0
 62
7
  6
CONTINUOUS
 10
45.1461802054
 20
137.0996873036
  0
VERTEX
  8
0
 62
7
  6
CONTINUOUS
 10
45.11333673
 20
136.9524410483
  0
VERTEX
  8
0
 62
7
  6
CONTINUOUS
 10
45.1092996759
 20
136.8776853426
  0
SEQEND
  0
LINE
  8
0
 62
7
  6
CONTINUOUS
 10
46.5795949294
 20
137.7800472179
 11
46.4748675873
 21
137.7641424334
  0
POLYLINE
  8
0
 62
7
  6
CONTINUOUS
 66
1
 70
0
  0
VERTEX
  8
0
 62
7
  6
CONTINUOUS
 10
50.766675658
 20
138.8362872197
  0
VERTEX
  8
0
 62
7
  6
CONTINUOUS
 10
50.2148825366
 20
138.764409406
  0
VERTEX
  8
0
 62
7
  6
CONTINUOUS
 10
49.6150576097
 20
138.6696805546
  0
VERTEX
  8
0
 62
7
  6
CONTINUOUS
 10
49.0324468042
 20
138.5589930236
  0
VERTEX
  8
0
 62
7
  6
CONTINUOUS
 10
48.4720557824
 20
138.4323047901
  0
VERTEX
  8
0
 62
7
  6
CONTINUOUS
 10
47.9387195802
 20
138.2896000443
  0
VERTEX
  8
0
 62
7
  6
CONTINUOUS
 10
47.4370950998
 20
138.1308316424
  0
VERTEX
  8
0
 62
7
  6
CONTINUOUS
 10
46.9714820589
 20
137.9557671042
  0
SEQEND
  0
LINE
  8
0
 62
7
  6
CONTINUOUS
 10
50.7666815236
 20
138.8362871901
 11
50.7677014635
 21
138.8363464954
  0
POLYLINE
  8
0
 62
7
  6
CONTINUOUS
 66
1
 70
0
  0
VERTEX
  8
0
 62
7
  6
CONTINUOUS
 10
56.8923012096
 20
138.8293839933
  0
VERTEX
  8
0
 62
7
  6
CONTINUOUS
 10
56.5988372238
 20
138.8333484698
  0
VERTEX
  8
0
 62
7
  6
CONTINUOUS
 10
56.3158250223
 20
138.8357902137
  0
VERTEX
  8
0
 62
7
  6
CONTINUOUS
 10
50.767763475
 20
138.8363464983
  0
SEQEND
  0
POLYLINE
  8
0
 62
7
  6
CONTINUOUS
 66
1
 70
0
  0
VERTEX
  8
0
 62
7
  6
CONTINUOUS
 10
101.1299267541
 20
139.0136119342
  0
VERTEX
  8
0
 62
7
  6
CONTINUOUS
 10
101.4237258513
 20
139.009634379
  0
VERTEX
  8
0
 62
7
  6
CONTINUOUS
 10
101.7067475118
 20
139.0072184045
  0
VERTEX
  8
0
 62
7
  6
CONTINUOUS
 10
107.2508356629
 20
139.006682812
  0
SEQEND
  0
LINE
  8
0
 62
7
  6
CONTINUOUS
 10
46.4748675873
 20
148.478886877
 11
46.5795949294
 21
148.4629820924
  0
POLYLINE
  8
0
 62
7
  6
CONTINUOUS
 66
1
 70
0
  0
VERTEX
  8
0
 62
7
  6
CONTINUOUS
 10
111.4480641746
 20
129.3759848722
  0
VERTEX
  8
0
 62
7
  6
CONTINUOUS
 10
111.0448174352
 20
129.5567115993
  0
VERTEX
  8
0
 62
7
  6
CONTINUOUS
 10
110.578966704
 20
129.7317054171
  0
VERTEX
  8
0
 62
7
  6
CONTINUOUS
 10
110.0771161839
 20
129.8904033701
  0
VERTEX
  8
0
 62
7
  6
CONTINUOUS
 10
109.5435683505
 20
130.0330361458
  0
VERTEX
  8
0
 62
7
  6
CONTINUOUS
 10
108.9829825196
 20
130.1596500457
  0
VERTEX
  8
0
 62
7
  6
CONTINUOUS
 10
108.4001953846
 20
130.2702606565
  0
VERTEX
  8
0
 62
7
  6
CONTINUOUS
 10
107.8002137962
 20
130.3649101163
  0
VERTEX
  8
0
 62
7
  6
CONTINUOUS
 10
107.2519234518
 20
130.436287223
  0
SEQEND
  0
POLYLINE
  8
0
 62
7
  6
CONTINUOUS
 66
1
 70
0
  0
VERTEX
  8
0
 62
7
  6
CONTINUOUS
 10
100.088108065
 20
189.0310788685
  0
VERTEX
  8
0
 62
7
  6
CONTINUOUS
 10
100.0898424727
 20
189.0542290853
  0
VERTEX
  8
0
 62
7
  6
CONTINUOUS
 10
100.101446299
 20
189.0972036501
  0
VERTEX
  8
0
 62
7
  6
CONTINUOUS
 10
100.1223525491
 20
189.1383639465
  0
VERTEX
  8
0
 62
7
  6
CONTINUOUS
 10
100.1509692276
 20
189.1769778282
  0
VERTEX
  8
0
 62
7
  6
CONTINUOUS
 10
100.1865306319
 20
189.212969516
  0
VERTEX
  8
0
 62
7
  6
CONTINUOUS
 10
100.2287735914
 20
189.2463081853
  0
VERTEX
  8
0
 62
7
  6
CONTINUOUS
 10
100.2779373221
 20
189.277042515
  0
VERTEX
  8
0
 62
7
  6
CONTINUOUS
 10
100.3329311479
 20
189.3043227023
  0
VERTEX
  8
0
 62
7
  6
CONTINUOUS
 10
100.3921475636
 20
189.3275463299
  0
VERTEX
  8
0
 62
7
  6
CONTINUOUS
 10
100.4558600089
 20
189.3471547077
  0
VERTEX
  8
0
 62
7
  6
CONTINUOUS
 10
100.5232795867
 20
189.3638275264
  0
VERTEX
  8
0
 62
7
  6
CONTINUOUS
 10
100.5930768486
 20
189.3776911524
  0
VERTEX
  8
0
 62
7
  6
CONTINUOUS
 10
100.6649487248
 20
189.389013964
  0
VERTEX
  8
0
 62
7
  6
CONTINUOUS
 10
100.739066161
 20
189.3979805503
  0
VERTEX
  8
0
 62
7
  6
CONTINUOUS
 10
100.8149584436
 20
189.4047546966
  0
VERTEX
  8
0
 62
7
  6
CONTINUOUS
 10
100.892201213
 20
189.4095056212
  0
VERTEX
  8
0
 62
7
  6
CONTINUOUS
 10
100.9705905555
 20
189.4124247846
  0
VERTEX
  8
0
 62
7
  6
CONTINUOUS
 10
101.0499203223
 20
189.4137274282
  0
VERTEX
  8
0
 62
7
  6
CONTINUOUS
 10
101.1299267541
 20
189.4136119342
  0
SEQEND
  0
POLYLINE
  8
0
 62
7
  6
CONTINUOUS
 66
1
 70
0
  0
VERTEX
  8
0
 62
7
  6
CONTINUOUS
 10
100.088108065
 20
172.2310788685
  0
VERTEX
  8
0
 62
7
  6
CONTINUOUS
 10
100.0898424727
 20
172.2542290853
  0
VERTEX
  8
0
 62
7
  6
CONTINUOUS
 10
100.101446299
 20
172.2972036501
  0
VERTEX
  8
0
 62
7
  6
CONTINUOUS
 10
100.1223525491
 20
172.3383639465
  0
VERTEX
  8
0
 62
7
  6
CONTINUOUS
 10
100.1509692276
 20
172.3769778282
  0
VERTEX
  8
0
 62
7
  6
CONTINUOUS
 10
100.1865306319
 20
172.412969516
  0
VERTEX
  8
0
 62
7
  6
CONTINUOUS
 10
100.2287735914
 20
172.4463081853
  0
VERTEX
  8
0
 62
7
  6
CONTINUOUS
 10
100.2779373221
 20
172.477042515
  0
VERTEX
  8
0
 62
7
  6
CONTINUOUS
 10
100.3329311479
 20
172.5043227023
  0
VERTEX
  8
0
 62
7
  6
CONTINUOUS
 10
100.3921475636
 20
172.5275463299
  0
VERTEX
  8
0
 62
7
  6
CONTINUOUS
 10
100.4558600089
 20
172.5471547077
  0
VERTEX
  8
0
 62
7
  6
CONTINUOUS
 10
100.5232795867
 20
172.5638275264
  0
VERTEX
  8
0
 62
7
  6
CONTINUOUS
 10
100.5930768486
 20
172.5776911524
  0
VERTEX
  8
0
 62
7
  6
CONTINUOUS
 10
100.6649487248
 20
172.589013964
  0
VERTEX
  8
0
 62
7
  6
CONTINUOUS
 10
100.739066161
 20
172.5979805503
  0
VERTEX
  8
0
 62
7
  6
CONTINUOUS
 10
100.8149584436
 20
172.6047546966
  0
VERTEX
  8
0
 62
7
  6
CONTINUOUS
 10
100.892201213
 20
172.6095056212
  0
VERTEX
  8
0
 62
7
  6
CONTINUOUS
 10
100.9705905555
 20
172.6124247846
  0
VERTEX
  8
0
 62
7
  6
CONTINUOUS
 10
101.0499203223
 20
172.6137274282
  0
VERTEX
  8
0
 62
7
  6
CONTINUOUS
 10
101.1299267541
 20
172.6136119342
  0
SEQEND
  0
POLYLINE
  8
0
 62
7
  6
CONTINUOUS
 66
1
 70
0
  0
VERTEX
  8
0
 62
7
  6
CONTINUOUS
 10
100.088108065
 20
155.4310788685
  0
VERTEX
  8
0
 62
7
  6
CONTINUOUS
 10
100.0898424727
 20
155.4542290853
  0
VERTEX
  8
0
 62
7
  6
CONTINUOUS
 10
100.101446299
 20
155.4972036501
  0
VERTEX
  8
0
 62
7
  6
CONTINUOUS
 10
100.1223525491
 20
155.5383639465
  0
VERTEX
  8
0
 62
7
  6
CONTINUOUS
 10
100.1509692276
 20
155.5769778282
  0
VERTEX
  8
0
 62
7
  6
CONTINUOUS
 10
100.1865306319
 20
155.612969516
  0
VERTEX
  8
0
 62
7
  6
CONTINUOUS
 10
100.2287735914
 20
155.6463081853
  0
VERTEX
  8
0
 62
7
  6
CONTINUOUS
 10
100.2779373221
 20
155.677042515
  0
VERTEX
  8
0
 62
7
  6
CONTINUOUS
 10
100.3329311479
 20
155.7043227023
  0
VERTEX
  8
0
 62
7
  6
CONTINUOUS
 10
100.3921475636
 20
155.7275463299
  0
VERTEX
  8
0
 62
7
  6
CONTINUOUS
 10
100.4558600089
 20
155.7471547077
  0
VERTEX
  8
0
 62
7
  6
CONTINUOUS
 10
100.5232795867
 20
155.7638275264
  0
VERTEX
  8
0
 62
7
  6
CONTINUOUS
 10
100.5930768486
 20
155.7776911524
  0
VERTEX
  8
0
 62
7
  6
CONTINUOUS
 10
100.6649487248
 20
155.789013964
  0
VERTEX
  8
0
 62
7
  6
CONTINUOUS
 10
100.739066161
 20
155.7979805503
  0
VERTEX
  8
0
 62
7
  6
CONTINUOUS
 10
100.8149584436
 20
155.8047546966
  0
VERTEX
  8
0
 62
7
  6
CONTINUOUS
 10
100.892201213
 20
155.8095056212
  0
VERTEX
  8
0
 62
7
  6
CONTINUOUS
 10
100.9705905555
 20
155.8124247846
  0
VERTEX
  8
0
 62
7
  6
CONTINUOUS
 10
101.0499203223
 20
155.8137274282
  0
VERTEX
  8
0
 62
7
  6
CONTINUOUS
 10
101.1299267541
 20
155.8136119342
  0
SEQEND
  0
POLYLINE
  8
0
 62
7
  6
CONTINUOUS
 66
1
 70
0
  0
VERTEX
  8
0
 62
7
  6
CONTINUOUS
 10
56.5948733373
 20
147.4096343788
  0
VERTEX
  8
0
 62
7
  6
CONTINUOUS
 10
56.8881954562
 20
147.4136073557
  0
VERTEX
  8
0
 62
7
  6
CONTINUOUS
 10
56.9677889992
 20
147.4137336792
  0
VERTEX
  8
0
 62
7
  6
CONTINUOUS
 10
57.0468516604
 20
147.4124549997
  0
VERTEX
  8
0
 62
7
  6
CONTINUOUS
 10
57.1251033847
 20
147.4095685229
  0
VERTEX
  8
0
 62
7
  6
CONTINUOUS
 10
57.2023216287
 20
147.4048531209
  0
VERTEX
  8
0
 62
7
  6
CONTINUOUS
 10
57.2782866776
 20
147.3981102004
  0
VERTEX
  8
0
 62
7
  6
CONTINUOUS
 10
57.3525658222
 20
147.3891638542
  0
VERTEX
  8
0
 62
7
  6
CONTINUOUS
 10
57.4246508206
 20
147.377844337
  0
VERTEX
  8
0
 62
7
  6
CONTINUOUS
 10
57.4947554895
 20
147.3639529378
  0
VERTEX
  8
0
 62
7
  6
CONTINUOUS
 10
57.5624056416
 20
147.3472530619
  0
VERTEX
  8
0
 62
7
  6
CONTINUOUS
 10
57.6264738259
 20
147.32753852
  0
VERTEX
  8
0
 62
7
  6
CONTINUOUS
 10
57.6859636509
 20
147.3041918424
  0
VERTEX
  8
0
 62
7
  6
CONTINUOUS
 10
57.7412325998
 20
147.2767234193
  0
VERTEX
  8
0
 62
7
  6
CONTINUOUS
 10
57.7906771291
 20
147.2457085427
  0
VERTEX
  8
0
 62
7
  6
CONTINUOUS
 10
57.832856102
 20
147.2122658567
  0
VERTEX
  8
0
 62
7
  6
CONTINUOUS
 10
57.8681303938
 20
147.1763959654
  0
VERTEX
  8
0
 62
7
  6
CONTINUOUS
 10
57.8964262052
 20
147.13807579
  0
VERTEX
  8
0
 62
7
  6
CONTINUOUS
 10
57.9171363109
 20
147.0972447895
  0
VERTEX
  8
0
 62
7
  6
CONTINUOUS
 10
57.9287245729
 20
147.0544479668
  0
VERTEX
  8
0
 62
7
  6
CONTINUOUS
 10
57.9304910831
 20
147.0310781685
  0
SEQEND
  0
POLYLINE
  8
0
 62
7
  6
CONTINUOUS
 66
1
 70
0
  0
VERTEX
  8
0
 62
7
  6
CONTINUOUS
 10
101.4197580706
 20
147.2333480668
  0
VERTEX
  8
0
 62
7
  6
CONTINUOUS
 10
101.1257262997
 20
147.2293783459
  0
VERTEX
  8
0
 62
7
  6
CONTINUOUS
 10
101.0458571267
 20
147.2293316794
  0
VERTEX
  8
0
 62
7
  6
CONTINUOUS
 10
100.9666816635
 20
147.2307084441
  0
VERTEX
  8
0
 62
7
  6
CONTINUOUS
 10
100.8884596897
 20
147.2337075535
  0
VERTEX
  8
0
 62
7
  6
CONTINUOUS
 10
100.8113885702
 20
147.2385431233
  0
VERTEX
  8
0
 62
7
  6
CONTINUOUS
 10
100.7356753976
 20
147.2454042531
  0
VERTEX
  8
0
 62
7
  6
CONTINUOUS
 10
100.6617481287
 20
147.2544601514
  0
VERTEX
  8
0
 62
7
  6
CONTINUOUS
 10
100.5900529525
 20
147.2658758073
  0
VERTEX
  8
0
 62
7
  6
CONTINUOUS
 10
100.5204539303
 20
147.2798317833
  0
VERTEX
  8
0
 62
7
  6
CONTINUOUS
 10
100.4532183443
 20
147.2965995379
  0
VERTEX
  8
0
 62
7
  6
CONTINUOUS
 10
100.3897893034
 20
147.3163016898
  0
VERTEX
  8
0
 62
7
  6
CONTINUOUS
 10
100.330794411
 20
147.3396530878
  0
VERTEX
  8
0
 62
7
  6
CONTINUOUS
 10
100.276024406
 20
147.3670559714
  0
VERTEX
  8
0
 62
7
  6
CONTINUOUS
 10
100.2270931386
 20
147.3979051051
  0
VERTEX
  8
0
 62
7
  6
CONTINUOUS
 10
100.1850667758
 20
147.4313691081
  0
VERTEX
  8
0
 62
7
  6
CONTINUOUS
 10
100.1497231011
 20
147.46750431
  0
VERTEX
  8
0
 62
7
  6
CONTINUOUS
 10
100.1213579577
 20
147.5062675517
  0
VERTEX
  8
0
 62
7
  6
CONTINUOUS
 10
100.10078166
 20
147.5475411514
  0
VERTEX
  8
0
 62
7
  6
CONTINUOUS
 10
100.0895986328
 20
147.5905384875
  0
VERTEX
  8
0
 62
7
  6
CONTINUOUS
 10
100.0881086206
 20
147.6117773907
  0
SEQEND
  0
LINE
  8
0
 62
7
  6
CONTINUOUS
 10
101.7027722397
 20
147.2357901214
 11
101.4197580706
 21
147.2333480668
  0
LINE
  8
0
 62
7
  6
CONTINUOUS
 10
56.3118516006
 20
147.4072184044
 11
56.5948733373
 21
147.4096343788
  0
LINE
  8
0
 62
7
  6
CONTINUOUS
 10
101.7027722397
 20
147.2357901214
 11
107.2508731802
 21
147.2363464983
  0
LINE
  8
0
 62
7
  6
CONTINUOUS
 10
50.767763475
 20
147.406682812
 11
56.3118516006
 21
147.4072184044
  0
LINE
  8
0
 62
7
  6
CONTINUOUS
 10
50.7666815236
 20
147.4067421202
 11
50.7677014635
 21
147.406682815
  0
LINE
  8
0
 62
7
  6
CONTINUOUS
 10
107.2509052932
 20
147.2363464983
 11
107.2519133304
 21
147.2362871722
  0
POLYLINE
  8
0
 62
7
  6
CONTINUOUS
 66
1
 70
0
  0
VERTEX
  8
0
 62
7
  6
CONTINUOUS
 10
46.5705328372
 20
165.2670454813
  0
VERTEX
  8
0
 62
7
  6
CONTINUOUS
 10
46.9714820589
 20
165.0872622061
  0
VERTEX
  8
0
 62
7
  6
CONTINUOUS
 10
47.4370950998
 20
164.912197668
  0
VERTEX
  8
0
 62
7
  6
CONTINUOUS
 10
47.9387195802
 20
164.7534292661
  0
VERTEX
  8
0
 62
7
  6
CONTINUOUS
 10
48.4720557824
 20
164.6107245203
  0
VERTEX
  8
0
 62
7
  6
CONTINUOUS
 10
49.0324468042
 20
164.4840362867
  0
VERTEX
  8
0
 62
7
  6
CONTINUOUS
 10
49.6150576097
 20
164.3733487557
  0
VERTEX
  8
0
 62
7
  6
CONTINUOUS
 10
50.2148825366
 20
164.2786199044
  0
VERTEX
  8
0
 62
7
  6
CONTINUOUS
 10
50.766675658
 20
164.2067420906
  0
SEQEND
  0
POLYLINE
  8
0
 62
7
  6
CONTINUOUS
 66
1
 70
0
  0
VERTEX
  8
0
 62
7
  6
CONTINUOUS
 10
107.2519133304
 20
130.4362871722
  0
VERTEX
  8
0
 62
7
  6
CONTINUOUS
 10
107.2605102284
 20
130.4304754718
  0
VERTEX
  8
0
 62
7
  6
CONTINUOUS
 10
107.2693035468
 20
130.4113887189
  0
VERTEX
  8
0
 62
7
  6
CONTINUOUS
 10
107.2760319896
 20
130.3801874718
  0
VERTEX
  8
0
 62
7
  6
CONTINUOUS
 10
107.2803516929
 20
130.3388689259
  0
VERTEX
  8
0
 62
7
  6
CONTINUOUS
 10
107.2821405796
 20
130.2901725798
  0
VERTEX
  8
0
 62
7
  6
CONTINUOUS
 10
107.2815808922
 20
130.2363464983
  0
SEQEND
  0
LINE
  8
0
 62
7
  6
CONTINUOUS
 10
100.0879099842
 20
205.8215146552
 11
100.0881083861
 21
198.0117776652
  0
LINE
  8
0
 62
7
  6
CONTINUOUS
 10
100.0879099842
 20
188.9521469225
 11
100.0881083861
 21
181.2117776652
  0
LINE
  8
0
 62
7
  6
CONTINUOUS
 10
100.0879099842
 20
172.1521469225
 11
100.0881083861
 21
164.4117776652
  0
LINE
  8
0
 62
7
  6
CONTINUOUS
 10
100.0879099842
 20
155.3521469225
 11
100.0881083861
 21
147.6117776652
  0
LINE
  8
0
 62
7
  6
CONTINUOUS
 10
100.0879099842
 20
138.5521469225
 11
100.0881083861
 21
130.8117776652
  0
LINE
  8
0
 62
7
  6
CONTINUOUS
 10
100.0879099842
 20
121.7521469225
 11
100.0881083861
 21
114.0117776652
  0
LINE
  8
0
 62
7
  6
CONTINUOUS
 10
100.0879099842
 20
104.9521469225
 11
100.0881083861
 21
97.2117776652
  0
LINE
  8
0
 62
7
  6
CONTINUOUS
 10
100.0879099842
 20
88.1521469225
 11
100.0881083861
 21
80.4117776652
  0
LINE
  8
0
 62
7
  6
CONTINUOUS
 10
100.0879099842
 20
71.3521469225
 11
100.0881083861
 21
63.6117776652
  0
LINE
  8
DEFAULT_1
 62
2
  6
CENTER
 10
104.409299569
 20
53.0215146552
 11
104.409299569
 21
197.2638953855
  0
LINE
  8
0
 62
7
  6
CONTINUOUS
 10
99.838186218
 20
189.0322575061
 11
99.8379099842
 21
188.9521468441
  0
LINE
  8
0
 62
7
  6
CONTINUOUS
 10
99.838186218
 20
172.2322575061
 11
99.8379099842
 21
172.1521468441
  0
LINE
  8
0
 62
7
  6
CONTINUOUS
 10
99.838186218
 20
155.4322575061
 11
99.8379099842
 21
155.3521468441
  0
LINE
  8
0
 62
7
  6
CONTINUOUS
 10
99.838186218
 20
138.6322575061
 11
99.8379099842
 21
138.5521468441
  0
LINE
  8
0
 62
7
  6
CONTINUOUS
 10
99.838186218
 20
121.8322575061
 11
99.8379099842
 21
121.7521468441
  0
LINE
  8
0
 62
7
  6
CONTINUOUS
 10
100.0881382387
 20
189.031078927
 11
100.0878647207
 21
188.9521463735
  0
LINE
  8
0
 62
7
  6
CONTINUOUS
 10
99.838186218
 20
105.0322575061
 11
99.8379099842
 21
104.9521468441
  0
LINE
  8
0
 62
7
  6
CONTINUOUS
 10
100.0881382387
 20
172.231078927
 11
100.0878647207
 21
172.1521463735
  0
LINE
  8
0
 62
7
  6
CONTINUOUS
 10
99.838186218
 20
88.2322575061
 11
99.8379099842
 21
88.1521468441
  0
LINE
  8
0
 62
7
  6
CONTINUOUS
 10
100.0881382387
 20
155.431078927
 11
100.0878647207
 21
155.3521463735
  0
LINE
  8
0
 62
7
  6
CONTINUOUS
 10
99.838186218
 20
71.4322575061
 11
99.8379099842
 21
71.3521468441
  0
LINE
  8
0
 62
7
  6
CONTINUOUS
 10
100.0881382387
 20
138.631078927
 11
100.0878647207
 21
138.5521463735
  0
LINE
  8
0
 62
7
  6
CONTINUOUS
 10
100.0881382387
 20
121.831078927
 11
100.0878647207
 21
121.7521463735
  0
LINE
  8
0
 62
7
  6
CONTINUOUS
 10
100.0881382387
 20
105.031078927
 11
100.0878647207
 21
104.9521463735
  0
LINE
  8
0
 62
7
  6
CONTINUOUS
 10
100.0881382387
 20
88.231078927
 11
100.0878647207
 21
88.1521463735
  0
LINE
  8
0
 62
7
  6
CONTINUOUS
 10
100.0881382387
 20
71.431078927
 11
100.0878647207
 21
71.3521463735
  0
LINE
  8
0
 62
6
  6
CONTINUOUS
 10
99.9652603042
 20
189.0322574805
 11
99.9649904694
 21
188.9521468883
  0
POLYLINE
  8
0
 62
7
  6
CONTINUOUS
 66
1
 70
0
  0
VERTEX
  8
0
 62
7
  6
CONTINUOUS
 10
100.088108065
 20
138.6310788685
  0
VERTEX
  8
0
 62
7
  6
CONTINUOUS
 10
100.0898424727
 20
138.6542290853
  0
VERTEX
  8
0
 62
7
  6
CONTINUOUS
 10
100.101446299
 20
138.6972036501
  0
VERTEX
  8
0
 62
7
  6
CONTINUOUS
 10
100.1223525491
 20
138.7383639465
  0
VERTEX
  8
0
 62
7
  6
CONTINUOUS
 10
100.1509692276
 20
138.7769778282
  0
VERTEX
  8
0
 62
7
  6
CONTINUOUS
 10
100.1865306319
 20
138.812969516
  0
VERTEX
  8
0
 62
7
  6
CONTINUOUS
 10
100.2287735914
 20
138.8463081853
  0
VERTEX
  8
0
 62
7
  6
CONTINUOUS
 10
100.2779373221
 20
138.877042515
  0
VERTEX
  8
0
 62
7
  6
CONTINUOUS
 10
100.3329311479
 20
138.9043227023
  0
VERTEX
  8
0
 62
7
  6
CONTINUOUS
 10
100.3921475636
 20
138.9275463299
  0
VERTEX
  8
0
 62
7
  6
CONTINUOUS
 10
100.4558600089
 20
138.9471547077
  0
VERTEX
  8
0
 62
7
  6
CONTINUOUS
 10
100.5232795867
 20
138.9638275264
  0
VERTEX
  8
0
 62
7
  6
CONTINUOUS
 10
100.5930768486
 20
138.9776911524
  0
VERTEX
  8
0
 62
7
  6
CONTINUOUS
 10
100.6649487248
 20
138.989013964
  0
VERTEX
  8
0
 62
7
  6
CONTINUOUS
 10
100.739066161
 20
138.9979805503
  0
VERTEX
  8
0
 62
7
  6
CONTINUOUS
 10
100.8149584436
 20
139.0047546966
  0
VERTEX
  8
0
 62
7
  6
CONTINUOUS
 10
100.892201213
 20
139.0095056212
  0
VERTEX
  8
0
 62
7
  6
CONTINUOUS
 10
100.9705905555
 20
139.0124247846
  0
VERTEX
  8
0
 62
7
  6
CONTINUOUS
 10
101.0499203223
 20
139.0137274282
  0
VERTEX
  8
0
 62
7
  6
CONTINUOUS
 10
101.1299267541
 20
139.0136119342
  0
SEQEND
  0
POLYLINE
  8
0
 62
7
  6
CONTINUOUS
 66
1
 70
0
  0
VERTEX
  8
0
 62
7
  6
CONTINUOUS
 10
100.088108065
 20
121.8310788685
  0
VERTEX
  8
0
 62
7
  6
CONTINUOUS
 10
100.0898424727
 20
121.8542290853
  0
VERTEX
  8
0
 62
7
  6
CONTINUOUS
 10
100.101446299
 20
121.8972036501
  0
VERTEX
  8
0
 62
7
  6
CONTINUOUS
 10
100.1223525491
 20
121.9383639465
  0
VERTEX
  8
0
 62
7
  6
CONTINUOUS
 10
100.1509692276
 20
121.9769778282
  0
VERTEX
  8
0
 62
7
  6
CONTINUOUS
 10
100.1865306319
 20
122.012969516
  0
VERTEX
  8
0
 62
7
  6
CONTINUOUS
 10
100.2287735914
 20
122.0463081853
  0
VERTEX
  8
0
 62
7
  6
CONTINUOUS
 10
100.2779373221
 20
122.077042515
  0
VERTEX
  8
0
 62
7
  6
CONTINUOUS
 10
100.3329311479
 20
122.1043227023
  0
VERTEX
  8
0
 62
7
  6
CONTINUOUS
 10
100.3921475636
 20
122.1275463299
  0
VERTEX
  8
0
 62
7
  6
CONTINUOUS
 10
100.4558600089
 20
122.1471547077
  0
VERTEX
  8
0
 62
7
  6
CONTINUOUS
 10
100.5232795867
 20
122.1638275264
  0
VERTEX
  8
0
 62
7
  6
CONTINUOUS
 10
100.5930768486
 20
122.1776911524
  0
VERTEX
  8
0
 62
7
  6
CONTINUOUS
 10
100.6649487248
 20
122.189013964
  0
VERTEX
  8
0
 62
7
  6
CONTINUOUS
 10
100.739066161
 20
122.1979805503
  0
VERTEX
  8
0
 62
7
  6
CONTINUOUS
 10
100.8149584436
 20
122.2047546966
  0
VERTEX
  8
0
 62
7
  6
CONTINUOUS
 10
100.892201213
 20
122.2095056212
  0
VERTEX
  8
0
 62
7
  6
CONTINUOUS
 10
100.9705905555
 20
122.2124247846
  0
VERTEX
  8
0
 62
7
  6
CONTINUOUS
 10
101.0499203223
 20
122.2137274282
  0
VERTEX
  8
0
 62
7
  6
CONTINUOUS
 10
101.1299267541
 20
122.2136119342
  0
SEQEND
  0
POLYLINE
  8
0
 62
7
  6
CONTINUOUS
 66
1
 70
0
  0
VERTEX
  8
0
 62
7
  6
CONTINUOUS
 10
100.088108065
 20
105.0310788685
  0
VERTEX
  8
0
 62
7
  6
CONTINUOUS
 10
100.0898424727
 20
105.0542290853
  0
VERTEX
  8
0
 62
7
  6
CONTINUOUS
 10
100.101446299
 20
105.0972036501
  0
VERTEX
  8
0
 62
7
  6
CONTINUOUS
 10
100.1223525491
 20
105.1383639465
  0
VERTEX
  8
0
 62
7
  6
CONTINUOUS
 10
100.1509692276
 20
105.1769778282
  0
VERTEX
  8
0
 62
7
  6
CONTINUOUS
 10
100.1865306319
 20
105.212969516
  0
VERTEX
  8
0
 62
7
  6
CONTINUOUS
 10
100.2287735914
 20
105.2463081853
  0
VERTEX
  8
0
 62
7
  6
CONTINUOUS
 10
100.2779373221
 20
105.277042515
  0
VERTEX
  8
0
 62
7
  6
CONTINUOUS
 10
100.3329311479
 20
105.3043227023
  0
VERTEX
  8
0
 62
7
  6
CONTINUOUS
 10
100.3921475636
 20
105.3275463299
  0
VERTEX
  8
0
 62
7
  6
CONTINUOUS
 10
100.4558600089
 20
105.3471547077
  0
VERTEX
  8
0
 62
7
  6
CONTINUOUS
 10
100.5232795867
 20
105.3638275264
  0
VERTEX
  8
0
 62
7
  6
CONTINUOUS
 10
100.5930768486
 20
105.3776911524
  0
VERTEX
  8
0
 62
7
  6
CONTINUOUS
 10
100.6649487248
 20
105.389013964
  0
VERTEX
  8
0
 62
7
  6
CONTINUOUS
 10
100.739066161
 20
105.3979805503
  0
VERTEX
  8
0
 62
7
  6
CONTINUOUS
 10
100.8149584436
 20
105.4047546966
  0
VERTEX
  8
0
 62
7
  6
CONTINUOUS
 10
100.892201213
 20
105.4095056212
  0
VERTEX
  8
0
 62
7
  6
CONTINUOUS
 10
100.9705905555
 20
105.4124247846
  0
VERTEX
  8
0
 62
7
  6
CONTINUOUS
 10
101.0499203223
 20
105.4137274282
  0
VERTEX
  8
0
 62
7
  6
CONTINUOUS
 10
101.1299267541
 20
105.4136119342
  0
SEQEND
  0
POLYLINE
  8
0
 62
7
  6
CONTINUOUS
 66
1
 70
0
  0
VERTEX
  8
0
 62
7
  6
CONTINUOUS
 10
100.088108065
 20
88.2310788685
  0
VERTEX
  8
0
 62
7
  6
CONTINUOUS
 10
100.0898424727
 20
88.2542290853
  0
VERTEX
  8
0
 62
7
  6
CONTINUOUS
 10
100.101446299
 20
88.2972036501
  0
VERTEX
  8
0
 62
7
  6
CONTINUOUS
 10
100.1223525491
 20
88.3383639465
  0
VERTEX
  8
0
 62
7
  6
CONTINUOUS
 10
100.1509692276
 20
88.3769778282
  0
VERTEX
  8
0
 62
7
  6
CONTINUOUS
 10
100.1865306319
 20
88.412969516
  0
VERTEX
  8
0
 62
7
  6
CONTINUOUS
 10
100.2287735914
 20
88.4463081853
  0
VERTEX
  8
0
 62
7
  6
CONTINUOUS
 10
100.2779373221
 20
88.477042515
  0
VERTEX
  8
0
 62
7
  6
CONTINUOUS
 10
100.3329311479
 20
88.5043227023
  0
VERTEX
  8
0
 62
7
  6
CONTINUOUS
 10
100.3921475636
 20
88.5275463299
  0
VERTEX
  8
0
 62
7
  6
CONTINUOUS
 10
100.4558600089
 20
88.5471547077
  0
VERTEX
  8
0
 62
7
  6
CONTINUOUS
 10
100.5232795867
 20
88.5638275264
  0
VERTEX
  8
0
 62
7
  6
CONTINUOUS
 10
100.5930768486
 20
88.5776911524
  0
VERTEX
  8
0
 62
7
  6
CONTINUOUS
 10
100.6649487248
 20
88.589013964
  0
VERTEX
  8
0
 62
7
  6
CONTINUOUS
 10
100.739066161
 20
88.5979805503
  0
VERTEX
  8
0
 62
7
  6
CONTINUOUS
 10
100.8149584436
 20
88.6047546966
  0
VERTEX
  8
0
 62
7
  6
CONTINUOUS
 10
100.892201213
 20
88.6095056212
  0
VERTEX
  8
0
 62
7
  6
CONTINUOUS
 10
100.9705905555
 20
88.6124247846
  0
VERTEX
  8
0
 62
7
  6
CONTINUOUS
 10
101.0499203223
 20
88.6137274282
  0
VERTEX
  8
0
 62
7
  6
CONTINUOUS
 10
101.1299267541
 20
88.6136119342
  0
SEQEND
  0
POLYLINE
  8
0
 62
7
  6
CONTINUOUS
 66
1
 70
0
  0
VERTEX
  8
0
 62
7
  6
CONTINUOUS
 10
100.088108065
 20
71.4310788685
  0
VERTEX
  8
0
 62
7
  6
CONTINUOUS
 10
100.0898424727
 20
71.4542290853
  0
VERTEX
  8
0
 62
7
  6
CONTINUOUS
 10
100.101446299
 20
71.4972036501
  0
VERTEX
  8
0
 62
7
  6
CONTINUOUS
 10
100.1223525491
 20
71.5383639465
  0
VERTEX
  8
0
 62
7
  6
CONTINUOUS
 10
100.1509692276
 20
71.5769778282
  0
VERTEX
  8
0
 62
7
  6
CONTINUOUS
 10
100.1865306319
 20
71.612969516
  0
VERTEX
  8
0
 62
7
  6
CONTINUOUS
 10
100.2287735914
 20
71.6463081853
  0
VERTEX
  8
0
 62
7
  6
CONTINUOUS
 10
100.2779373221
 20
71.677042515
  0
VERTEX
  8
0
 62
7
  6
CONTINUOUS
 10
100.3329311479
 20
71.7043227023
  0
VERTEX
  8
0
 62
7
  6
CONTINUOUS
 10
100.3921475636
 20
71.7275463299
  0
VERTEX
  8
0
 62
7
  6
CONTINUOUS
 10
100.4558600089
 20
71.7471547077
  0
VERTEX
  8
0
 62
7
  6
CONTINUOUS
 10
100.5232795867
 20
71.7638275264
  0
VERTEX
  8
0
 62
7
  6
CONTINUOUS
 10
100.5930768486
 20
71.7776911524
  0
VERTEX
  8
0
 62
7
  6
CONTINUOUS
 10
100.6649487248
 20
71.789013964
  0
VERTEX
  8
0
 62
7
  6
CONTINUOUS
 10
100.739066161
 20
71.7979805503
  0
VERTEX
  8
0
 62
7
  6
CONTINUOUS
 10
100.8149584436
 20
71.8047546966
  0
VERTEX
  8
0
 62
7
  6
CONTINUOUS
 10
100.892201213
 20
71.8095056212
  0
VERTEX
  8
0
 62
7
  6
CONTINUOUS
 10
100.9705905555
 20
71.8124247846
  0
VERTEX
  8
0
 62
7
  6
CONTINUOUS
 10
101.0499203223
 20
71.8137274282
  0
VERTEX
  8
0
 62
7
  6
CONTINUOUS
 10
101.1299267541
 20
71.8136119342
  0
SEQEND
  0
LINE
  8
0
 62
7
  6
CONTINUOUS
 10
111.0448175421
 20
123.0863177549
 11
111.4480641746
 21
123.2670444382
  0
POLYLINE
  8
0
 62
7
  6
CONTINUOUS
 66
1
 70
0
  0
VERTEX
  8
0
 62
7
  6
CONTINUOUS
 10
111.5437225932
 20
156.8788854806
  0
VERTEX
  8
0
 62
7
  6
CONTINUOUS
 10
111.7112351624
 20
156.9065472923
  0
VERTEX
  8
0
 62
7
  6
CONTINUOUS
 10
111.8762613805
 20
156.9374520902
  0
VERTEX
  8
0
 62
7
  6
CONTINUOUS
 10
112.0200890818
 20
156.9684008767
  0
VERTEX
  8
0
 62
7
  6
CONTINUOUS
 10
112.1460917049
 20
156.999810064
  0
VERTEX
  8
0
 62
7
  6
CONTINUOUS
 10
112.257678544
 20
157.032393205
  0
VERTEX
  8
0
 62
7
  6
CONTINUOUS
 10
112.3585298628
 20
157.0674082138
  0
VERTEX
  8
0
 62
7
  6
CONTINUOUS
 10
112.4527333293
 20
157.1070917121
  0
VERTEX
  8
0
 62
7
  6
CONTINUOUS
 10
112.5441972551
 20
157.1551188299
  0
VERTEX
  8
0
 62
7
  6
CONTINUOUS
 10
112.6358044778
 20
157.2172284807
  0
VERTEX
  8
0
 62
7
  6
CONTINUOUS
 10
112.7270953454
 20
157.3009574055
  0
VERTEX
  8
0
 62
7
  6
CONTINUOUS
 10
112.810583253
 20
157.4116028167
  0
VERTEX
  8
0
 62
7
  6
CONTINUOUS
 10
112.8735269764
 20
157.5465924822
  0
VERTEX
  8
0
 62
7
  6
CONTINUOUS
 10
112.9056691322
 20
157.6944272714
  0
VERTEX
  8
0
 62
7
  6
CONTINUOUS
 10
112.909299465
 20
157.765341414
  0
SEQEND
  0
LINE
  8
0
 62
7
  6
CONTINUOUS
 10
111.439005136
 20
156.862984367
 11
111.5437306807
 21
156.8788867414
  0
POLYLINE
  8
0
 62
7
  6
CONTINUOUS
 66
1
 70
0
  0
VERTEX
  8
0
 62
7
  6
CONTINUOUS
 10
107.2519234518
 20
155.8067420873
  0
VERTEX
  8
0
 62
7
  6
CONTINUOUS
 10
107.8002148342
 20
155.8781193423
  0
VERTEX
  8
0
 62
7
  6
CONTINUOUS
 10
108.4001962496
 20
155.9727688037
  0
VERTEX
  8
0
 62
7
  6
CONTINUOUS
 10
108.9829832141
 20
156.0833794085
  0
VERTEX
  8
0
 62
7
  6
CONTINUOUS
 10
109.5435688804
 20
156.2099932947
  0
VERTEX
  8
0
 62
7
  6
CONTINUOUS
 10
110.0771165587
 20
156.3526260491
  0
VERTEX
  8
0
 62
7
  6
CONTINUOUS
 10
110.5789669367
 20
156.5113239733
  0
VERTEX
  8
0
 62
7
  6
CONTINUOUS
 10
111.0448175421
 20
156.6863177549
  0
SEQEND
  0
LINE
  8
0
 62
7
  6
CONTINUOUS
 10
107.2519175861
 20
155.8067421169
 11
107.2508976744
 21
155.806682815
  0
POLYLINE
  8
0
 62
7
  6
CONTINUOUS
 66
1
 70
0
  0
VERTEX
  8
0
 62
7
  6
CONTINUOUS
 10
56.8923012096
 20
155.6293839933
  0
VERTEX
  8
0
 62
7
  6
CONTINUOUS
 10
56.5988372238
 20
155.6333484698
  0
VERTEX
  8
0
 62
7
  6
CONTINUOUS
 10
56.3158250223
 20
155.6357902137
  0
VERTEX
  8
0
 62
7
  6
CONTINUOUS
 10
50.767763475
 20
155.6363464983
  0
SEQEND
  0
POLYLINE
  8
0
 62
7
  6
CONTINUOUS
 66
1
 70
0
  0
VERTEX
  8
0
 62
7
  6
CONTINUOUS
 10
101.1299267541
 20
155.8136119342
  0
VERTEX
  8
0
 62
7
  6
CONTINUOUS
 10
101.4237258513
 20
155.809634379
  0
VERTEX
  8
0
 62
7
  6
CONTINUOUS
 10
101.7067475118
 20
155.8072184045
  0
VERTEX
  8
0
 62
7
  6
CONTINUOUS
 10
107.2508356629
 20
155.806682812
  0
SEQEND
  0
LINE
  8
0
 62
7
  6
CONTINUOUS
 10
111.5437306807
 20
146.164142569
 11
111.4390051357
 21
146.1800449433
  0
POLYLINE
  8
0
 62
7
  6
CONTINUOUS
 66
1
 70
0
  0
VERTEX
  8
0
 62
7
  6
CONTINUOUS
 10
112.9092994616
 20
78.0776849704
  0
VERTEX
  8
0
 62
7
  6
CONTINUOUS
 10
112.9052495248
 20
78.1525593692
  0
VERTEX
  8
0
 62
7
  6
CONTINUOUS
 10
112.8723400527
 20
78.2999166536
  0
VERTEX
  8
0
 62
7
  6
CONTINUOUS
 10
112.8089263948
 20
78.4341379226
  0
VERTEX
  8
0
 62
7
  6
CONTINUOUS
 10
112.7253532144
 20
78.5439542964
  0
VERTEX
  8
0
 62
7
  6
CONTINUOUS
 10
112.6342265643
 20
78.6270260879
  0
VERTEX
  8
0
 62
7
  6
CONTINUOUS
 10
112.5428503027
 20
78.6887051363
  0
VERTEX
  8
0
 62
7
  6
CONTINUOUS
 10
112.4515844907
 20
78.7364736417
  0
VERTEX
  8
0
 62
7
  6
CONTINUOUS
 10
112.3575295382
 20
78.7760016285
  0
VERTEX
  8
0
 62
7
  6
CONTINUOUS
 10
112.2568013183
 20
78.8109144817
  0
VERTEX
  8
0
 62
7
  6
CONTINUOUS
 10
112.1453364179
 20
78.8434225965
  0
VERTEX
  8
0
 62
7
  6
CONTINUOUS
 10
112.0194718721
 20
78.8747712089
  0
VERTEX
  8
0
 62
7
  6
CONTINUOUS
 10
111.8758103494
 20
78.9056677102
  0
VERTEX
  8
0
 62
7
  6
CONTINUOUS
 10
111.7109877661
 20
78.9365253617
  0
VERTEX
  8
0
 62
7
  6
CONTINUOUS
 10
111.5437226487
 20
78.9641438211
  0
SEQEND
  0
POLYLINE
  8
0
 62
7
  6
CONTINUOUS
 66
1
 70
0
  0
VERTEX
  8
0
 62
7
  6
CONTINUOUS
 10
112.9092994725
 20
61.2776944705
  0
VERTEX
  8
0
 62
7
  6
CONTINUOUS
 10
112.906032861
 20
61.3449797886
  0
VERTEX
  8
0
 62
7
  6
CONTINUOUS
 10
112.8737839369
 20
61.4956752119
  0
VERTEX
  8
0
 62
7
  6
CONTINUOUS
 10
112.8076328189
 20
61.6362353606
  0
VERTEX
  8
0
 62
7
  6
CONTINUOUS
 10
112.717199537
 20
61.7525896787
  0
VERTEX
  8
0
 62
7
  6
CONTINUOUS
 10
112.6162729691
 20
61.8405376921
  0
VERTEX
  8
0
 62
7
  6
CONTINUOUS
 10
112.5137167381
 20
61.9051972337
  0
VERTEX
  8
0
 62
7
  6
CONTINUOUS
 10
112.4092580247
 20
61.9552649661
  0
VERTEX
  8
0
 62
7
  6
CONTINUOUS
 10
112.298409472
 20
61.9972500843
  0
VERTEX
  8
0
 62
7
  6
CONTINUOUS
 10
112.1766360405
 20
62.0348185377
  0
VERTEX
  8
0
 62
7
  6
CONTINUOUS
 10
112.0404115787
 20
62.0698726589
  0
VERTEX
  8
0
 62
7
  6
CONTINUOUS
 10
111.886819024
 20
62.103448463
  0
VERTEX
  8
0
 62
7
  6
CONTINUOUS
 10
111.7141425588
 20
62.1359720396
  0
VERTEX
  8
0
 62
7
  6
CONTINUOUS
 10
111.5437159134
 20
62.1641448709
  0
SEQEND
  0
POLYLINE
  8
0
 62
6
  6
CONTINUOUS
 66
1
 70
0
  0
VERTEX
  8
0
 62
6
  6
CONTINUOUS
 10
107.2815340255
 20
194.6982563726
  0
VERTEX
  8
0
 62
6
  6
CONTINUOUS
 10
107.2755410825
 20
194.8853232259
  0
VERTEX
  8
0
 62
6
  6
CONTINUOUS
 10
107.2641326557
 20
195.0652778785
  0
VERTEX
  8
0
 62
6
  6
CONTINUOUS
 10
107.2478498302
 20
195.2318983686
  0
VERTEX
  8
0
 62
6
  6
CONTINUOUS
 10
107.2273492478
 20
195.379506777
  0
VERTEX
  8
0
 62
6
  6
CONTINUOUS
 10
107.2033968729
 20
195.5031660659
  0
VERTEX
  8
0
 62
6
  6
CONTINUOUS
 10
107.1768558869
 20
195.598832803
  0
VERTEX
  8
0
 62
6
  6
CONTINUOUS
 10
107.148670353
 20
195.6634642369
  0
VERTEX
  8
0
 62
6
  6
CONTINUOUS
 10
107.1198471676
 20
195.6950771064
  0
SEQEND
  0
POLYLINE
  8
0
 62
7
  6
CONTINUOUS
 66
1
 70
0
  0
VERTEX
  8
0
 62
7
  6
CONTINUOUS
 10
107.2815808922
 20
72.006682812
  0
VERTEX
  8
0
 62
7
  6
CONTINUOUS
 10
107.2821928449
 20
71.9596541368
  0
VERTEX
  8
0
 62
7
  6
CONTINUOUS
 10
107.2810538239
 20
71.9161317967
  0
VERTEX
  8
0
 62
7
  6
CONTINUOUS
 10
107.2779688512
 20
71.8774803486
  0
VERTEX
  8
0
 62
7
  6
CONTINUOUS
 10
107.2729517167
 20
71.8458319254
  0
VERTEX
  8
0
 62
7
  6
CONTINUOUS
 10
107.2661817008
 20
71.8228814117
  0
VERTEX
  8
0
 62
7
  6
CONTINUOUS
 10
107.257967027
 20
71.8097557305
  0
VERTEX
  8
0
 62
7
  6
CONTINUOUS
 10
107.2519175861
 20
71.8067421169
  0
SEQEND
  0
POLYLINE
  8
0
 62
7
  6
CONTINUOUS
 66
1
 70
0
  0
VERTEX
  8
0
 62
7
  6
CONTINUOUS
 10
107.2815808922
 20
88.806682812
  0
VERTEX
  8
0
 62
7
  6
CONTINUOUS
 10
107.2821928449
 20
88.7596541368
  0
VERTEX
  8
0
 62
7
  6
CONTINUOUS
 10
107.2810538239
 20
88.7161317967
  0
VERTEX
  8
0
 62
7
  6
CONTINUOUS
 10
107.2779688512
 20
88.6774803486
  0
VERTEX
  8
0
 62
7
  6
CONTINUOUS
 10
107.2729517167
 20
88.6458319254
  0
VERTEX
  8
0
 62
7
  6
CONTINUOUS
 10
107.2661817008
 20
88.6228814117
  0
VERTEX
  8
0
 62
7
  6
CONTINUOUS
 10
107.257967027
 20
88.6097557305
  0
VERTEX
  8
0
 62
7
  6
CONTINUOUS
 10
107.2519175861
 20
88.6067421169
  0
SEQEND
  0
POLYLINE
  8
0
 62
7
  6
CONTINUOUS
 66
1
 70
0
  0
VERTEX
  8
0
 62
7
  6
CONTINUOUS
 10
107.2815808922
 20
105.606682812
  0
VERTEX
  8
0
 62
7
  6
CONTINUOUS
 10
107.2821928449
 20
105.5596541368
  0
VERTEX
  8
0
 62
7
  6
CONTINUOUS
 10
107.2810538239
 20
105.5161317967
  0
VERTEX
  8
0
 62
7
  6
CONTINUOUS
 10
107.2779688512
 20
105.4774803486
  0
VERTEX
  8
0
 62
7
  6
CONTINUOUS
 10
107.2729517167
 20
105.4458319254
  0
VERTEX
  8
0
 62
7
  6
CONTINUOUS
 10
107.2661817008
 20
105.4228814117
  0
VERTEX
  8
0
 62
7
  6
CONTINUOUS
 10
107.257967027
 20
105.4097557305
  0
VERTEX
  8
0
 62
7
  6
CONTINUOUS
 10
107.2519175861
 20
105.4067421169
  0
SEQEND
  0
POLYLINE
  8
0
 62
7
  6
CONTINUOUS
 66
1
 70
0
  0
VERTEX
  8
0
 62
7
  6
CONTINUOUS
 10
107.2815808922
 20
122.406682812
  0
VERTEX
  8
0
 62
7
  6
CONTINUOUS
 10
107.2821928449
 20
122.3596541368
  0
VERTEX
  8
0
 62
7
  6
CONTINUOUS
 10
107.2810538239
 20
122.3161317967
  0
VERTEX
  8
0
 62
7
  6
CONTINUOUS
 10
107.2779688512
 20
122.2774803486
  0
VERTEX
  8
0
 62
7
  6
CONTINUOUS
 10
107.2729517167
 20
122.2458319254
  0
VERTEX
  8
0
 62
7
  6
CONTINUOUS
 10
107.2661817008
 20
122.2228814117
  0
VERTEX
  8
0
 62
7
  6
CONTINUOUS
 10
107.257967027
 20
122.2097557305
  0
VERTEX
  8
0
 62
7
  6
CONTINUOUS
 10
107.2519175861
 20
122.2067421169
  0
SEQEND
  0
POLYLINE
  8
0
 62
7
  6
CONTINUOUS
 66
1
 70
0
  0
VERTEX
  8
0
 62
7
  6
CONTINUOUS
 10
107.2815808922
 20
139.206682812
  0
VERTEX
  8
0
 62
7
  6
CONTINUOUS
 10
107.2821928449
 20
139.1596541368
  0
VERTEX
  8
0
 62
7
  6
CONTINUOUS
 10
107.2810538239
 20
139.1161317967
  0
VERTEX
  8
0
 62
7
  6
CONTINUOUS
 10
107.2779688512
 20
139.0774803486
  0
VERTEX
  8
0
 62
7
  6
CONTINUOUS
 10
107.2729517167
 20
139.0458319254
  0
VERTEX
  8
0
 62
7
  6
CONTINUOUS
 10
107.2661817008
 20
139.0228814117
  0
VERTEX
  8
0
 62
7
  6
CONTINUOUS
 10
107.257967027
 20
139.0097557305
  0
VERTEX
  8
0
 62
7
  6
CONTINUOUS
 10
107.2519175861
 20
139.0067421169
  0
SEQEND
  0
POLYLINE
  8
0
 62
7
  6
CONTINUOUS
 66
1
 70
0
  0
VERTEX
  8
0
 62
7
  6
CONTINUOUS
 10
107.2815808922
 20
156.006682812
  0
VERTEX
  8
0
 62
7
  6
CONTINUOUS
 10
107.2821928449
 20
155.9596541368
  0
VERTEX
  8
0
 62
7
  6
CONTINUOUS
 10
107.2810538239
 20
155.9161317967
  0
VERTEX
  8
0
 62
7
  6
CONTINUOUS
 10
107.2779688512
 20
155.8774803486
  0
VERTEX
  8
0
 62
7
  6
CONTINUOUS
 10
107.2729517167
 20
155.8458319254
  0
VERTEX
  8
0
 62
7
  6
CONTINUOUS
 10
107.2661817008
 20
155.8228814117
  0
VERTEX
  8
0
 62
7
  6
CONTINUOUS
 10
107.257967027
 20
155.8097557305
  0
VERTEX
  8
0
 62
7
  6
CONTINUOUS
 10
107.2519175861
 20
155.8067421169
  0
SEQEND
  0
POLYLINE
  8
0
 62
7
  6
CONTINUOUS
 66
1
 70
0
  0
VERTEX
  8
0
 62
7
  6
CONTINUOUS
 10
107.2815808922
 20
172.806682812
  0
VERTEX
  8
0
 62
7
  6
CONTINUOUS
 10
107.2821928449
 20
172.7596541368
  0
VERTEX
  8
0
 62
7
  6
CONTINUOUS
 10
107.2810538239
 20
172.7161317967
  0
VERTEX
  8
0
 62
7
  6
CONTINUOUS
 10
107.2779688512
 20
172.6774803486
  0
VERTEX
  8
0
 62
7
  6
CONTINUOUS
 10
107.2729517167
 20
172.6458319254
  0
VERTEX
  8
0
 62
7
  6
CONTINUOUS
 10
107.2661817008
 20
172.6228814117
  0
VERTEX
  8
0
 62
7
  6
CONTINUOUS
 10
107.257967027
 20
172.6097557305
  0
VERTEX
  8
0
 62
7
  6
CONTINUOUS
 10
107.2519175861
 20
172.6067421169
  0
SEQEND
  0
POLYLINE
  8
0
 62
7
  6
CONTINUOUS
 66
1
 70
0
  0
VERTEX
  8
0
 62
7
  6
CONTINUOUS
 10
107.2815808922
 20
189.606682812
  0
VERTEX
  8
0
 62
7
  6
CONTINUOUS
 10
107.2821928449
 20
189.5596541368
  0
VERTEX
  8
0
 62
7
  6
CONTINUOUS
 10
107.2810538239
 20
189.5161317967
  0
VERTEX
  8
0
 62
7
  6
CONTINUOUS
 10
107.2779688512
 20
189.4774803486
  0
VERTEX
  8
0
 62
7
  6
CONTINUOUS
 10
107.2729517167
 20
189.4458319254
  0
VERTEX
  8
0
 62
7
  6
CONTINUOUS
 10
107.2661817008
 20
189.4228814117
  0
VERTEX
  8
0
 62
7
  6
CONTINUOUS
 10
107.257967027
 20
189.4097557305
  0
VERTEX
  8
0
 62
7
  6
CONTINUOUS
 10
107.2519175861
 20
189.4067421169
  0
SEQEND
  0
LINE
  8
0
 62
6
  6
CONTINUOUS
 10
107.2815340255
 20
194.6982563726
 11
107.2815808905
 21
194.6926180683
  0
LINE
  8
0
 62
7
  6
CONTINUOUS
 10
107.2815808922
 20
63.0363464983
 11
107.2815808922
 21
55.2215146552
  0
LINE
  8
0
 62
7
  6
CONTINUOUS
 10
107.2815808922
 20
72.006682812
 11
107.2815808922
 21
79.8363464983
  0
LINE
  8
0
 62
7
  6
CONTINUOUS
 10
107.2815808922
 20
88.806682812
 11
107.2815808922
 21
96.6363464983
  0
LINE
  8
0
 62
7
  6
CONTINUOUS
 10
107.2815808922
 20
105.606682812
 11
107.2815808922
 21
113.4363464983
  0
LINE
  8
0
 62
7
  6
CONTINUOUS
 10
107.2815808922
 20
122.406682812
 11
107.2815808922
 21
130.2363464983
  0
LINE
  8
0
 62
7
  6
CONTINUOUS
 10
107.2815808922
 20
139.206682812
 11
107.2815808922
 21
147.0363464983
  0
LINE
  8
0
 62
7
  6
CONTINUOUS
 10
107.2815808922
 20
156.006682812
 11
107.2815808922
 21
163.8363464983
  0
LINE
  8
0
 62
7
  6
CONTINUOUS
 10
107.2815808922
 20
172.806682812
 11
107.2815808922
 21
180.6363464983
  0
LINE
  8
0
 62
7
  6
CONTINUOUS
 10
107.2815808922
 20
189.606682812
 11
107.2815808922
 21
197.4363464983
  0
LINE
  8
0
 62
6
  6
CONTINUOUS
 10
107.2815808922
 20
189.6046468284
 11
107.2815808922
 21
189.606682812
  0
LINE
  8
0
 62
6
  6
CONTINUOUS
 10
107.2815808922
 20
197.4363464983
 11
107.2815808922
 21
197.438382482
  0
LINE
  8
0
 62
6
  6
CONTINUOUS
 10
107.2815340255
 20
192.3447729378
 11
107.2815808905
 21
192.350411242
  0
POLYLINE
  8
0
 62
6
  6
CONTINUOUS
 66
1
 70
0
  0
VERTEX
  8
0
 62
6
  6
CONTINUOUS
 10
107.2815340255
 20
192.3447729378
  0
VERTEX
  8
0
 62
6
  6
CONTINUOUS
 10
107.2755410825
 20
192.1577060845
  0
VERTEX
  8
0
 62
6
  6
CONTINUOUS
 10
107.2641326557
 20
191.9777514319
  0
VERTEX
  8
0
 62
6
  6
CONTINUOUS
 10
107.2478498302
 20
191.8111309417
  0
VERTEX
  8
0
 62
6
  6
CONTINUOUS
 10
107.2273492478
 20
191.6635225333
  0
VERTEX
  8
0
 62
6
  6
CONTINUOUS
 10
107.2033968729
 20
191.5398632445
  0
VERTEX
  8
0
 62
6
  6
CONTINUOUS
 10
107.1768558869
 20
191.4441965073
  0
VERTEX
  8
0
 62
6
  6
CONTINUOUS
 10
107.148670353
 20
191.3795650735
  0
VERTEX
  8
0
 62
6
  6
CONTINUOUS
 10
107.1198471676
 20
191.3479522039
  0
SEQEND
  0
LINE
  8
0
 62
7
  6
CONTINUOUS
 10
46.9714820589
 20
87.5557671042
 11
46.5705328372
 21
87.375983829
  0
POLYLINE
  8
0
 62
7
  6
CONTINUOUS
 66
1
 70
0
  0
VERTEX
  8
0
 62
7
  6
CONTINUOUS
 10
46.4748757926
 20
154.5641437125
  0
VERTEX
  8
0
 62
7
  6
CONTINUOUS
 10
46.3060807393
 20
154.5362570668
  0
VERTEX
  8
0
 62
7
  6
CONTINUOUS
 10
46.1415205229
 20
154.5054131654
  0
VERTEX
  8
0
 62
7
  6
CONTINUOUS
 10
45.9980822464
 20
154.4745294146
  0
VERTEX
  8
0
 62
7
  6
CONTINUOUS
 10
45.8724039459
 20
154.443191368
  0
VERTEX
  8
0
 62
7
  6
CONTINUOUS
 10
45.7610902756
 20
154.4106899827
  0
VERTEX
  8
0
 62
7
  6
CONTINUOUS
 10
45.6604806541
 20
154.3757776798
  0
VERTEX
  8
0
 62
7
  6
CONTINUOUS
 10
45.566515783
 20
154.3362410526
  0
VERTEX
  8
0
 62
7
  6
CONTINUOUS
 10
45.4753200019
 20
154.2884524614
  0
VERTEX
  8
0
 62
7
  6
CONTINUOUS
 10
45.3840078256
 20
154.2267434181
  0
VERTEX
  8
0
 62
7
  6
CONTINUOUS
 10
45.2929600716
 20
154.1436463508
  0
VERTEX
  8
0
 62
7
  6
CONTINUOUS
 10
45.2094905126
 20
154.0338410857
  0
VERTEX
  8
0
 62
7
  6
CONTINUOUS
 10
45.1461802054
 20
153.8996873036
  0
VERTEX
  8
0
 62
7
  6
CONTINUOUS
 10
45.11333673
 20
153.7524410483
  0
VERTEX
  8
0
 62
7
  6
CONTINUOUS
 10
45.1092996759
 20
153.6776853426
  0
SEQEND
  0
LINE
  8
0
 62
7
  6
CONTINUOUS
 10
46.5795949294
 20
154.5800472179
 11
46.4748675873
 21
154.5641424334
  0
POLYLINE
  8
0
 62
7
  6
CONTINUOUS
 66
1
 70
0
  0
VERTEX
  8
0
 62
7
  6
CONTINUOUS
 10
50.766675658
 20
155.6362872197
  0
VERTEX
  8
0
 62
7
  6
CONTINUOUS
 10
50.2148825366
 20
155.564409406
  0
VERTEX
  8
0
 62
7
  6
CONTINUOUS
 10
49.6150576097
 20
155.4696805546
  0
VERTEX
  8
0
 62
7
  6
CONTINUOUS
 10
49.0324468042
 20
155.3589930236
  0
VERTEX
  8
0
 62
7
  6
CONTINUOUS
 10
48.4720557824
 20
155.2323047901
  0
VERTEX
  8
0
 62
7
  6
CONTINUOUS
 10
47.9387195802
 20
155.0896000443
  0
VERTEX
  8
0
 62
7
  6
CONTINUOUS
 10
47.4370950998
 20
154.9308316424
  0
VERTEX
  8
0
 62
7
  6
CONTINUOUS
 10
46.9714820589
 20
154.7557671042
  0
SEQEND
  0
LINE
  8
0
 62
7
  6
CONTINUOUS
 10
50.7666815236
 20
155.6362871901
 11
50.7677014635
 21
155.6363464954
  0
LINE
  8
0
 62
7
  6
CONTINUOUS
 10
46.4748675873
 20
165.278886877
 11
46.5795949294
 21
165.2629820924
  0
POLYLINE
  8
0
 62
7
  6
CONTINUOUS
 66
1
 70
0
  0
VERTEX
  8
0
 62
7
  6
CONTINUOUS
 10
111.4480641746
 20
146.1759848722
  0
VERTEX
  8
0
 62
7
  6
CONTINUOUS
 10
111.0448174352
 20
146.3567115993
  0
VERTEX
  8
0
 62
7
  6
CONTINUOUS
 10
110.578966704
 20
146.5317054171
  0
VERTEX
  8
0
 62
7
  6
CONTINUOUS
 10
110.0771161839
 20
146.6904033701
  0
VERTEX
  8
0
 62
7
  6
CONTINUOUS
 10
109.5435683505
 20
146.8330361458
  0
VERTEX
  8
0
 62
7
  6
CONTINUOUS
 10
108.9829825196
 20
146.9596500457
  0
VERTEX
  8
0
 62
7
  6
CONTINUOUS
 10
108.4001953846
 20
147.0702606565
  0
VERTEX
  8
0
 62
7
  6
CONTINUOUS
 10
107.8002137962
 20
147.1649101163
  0
VERTEX
  8
0
 62
7
  6
CONTINUOUS
 10
107.2519234518
 20
147.236287223
  0
SEQEND
  0
POLYLINE
  8
0
 62
7
  6
CONTINUOUS
 66
1
 70
0
  0
VERTEX
  8
0
 62
7
  6
CONTINUOUS
 10
107.2519133304
 20
147.2362871722
  0
VERTEX
  8
0
 62
7
  6
CONTINUOUS
 10
107.2605102284
 20
147.2304754718
  0
VERTEX
  8
0
 62
7
  6
CONTINUOUS
 10
107.2693035468
 20
147.2113887189
  0
VERTEX
  8
0
 62
7
  6
CONTINUOUS
 10
107.2760319896
 20
147.1801874718
  0
VERTEX
  8
0
 62
7
  6
CONTINUOUS
 10
107.2803516929
 20
147.1388689259
  0
VERTEX
  8
0
 62
7
  6
CONTINUOUS
 10
107.2821405796
 20
147.0901725798
  0
VERTEX
  8
0
 62
7
  6
CONTINUOUS
 10
107.2815808922
 20
147.0363464983
  0
SEQEND
  0
POLYLINE
  8
0
 62
7
  6
CONTINUOUS
 66
1
 70
0
  0
VERTEX
  8
0
 62
7
  6
CONTINUOUS
 10
112.909299115
 20
111.6785196263
  0
VERTEX
  8
0
 62
7
  6
CONTINUOUS
 10
112.9052495248
 20
111.7525593692
  0
VERTEX
  8
0
 62
7
  6
CONTINUOUS
 10
112.8723400527
 20
111.8999166536
  0
VERTEX
  8
0
 62
7
  6
CONTINUOUS
 10
112.8089263948
 20
112.0341379226
  0
VERTEX
  8
0
 62
7
  6
CONTINUOUS
 10
112.7253532144
 20
112.1439542964
  0
VERTEX
  8
0
 62
7
  6
CONTINUOUS
 10
112.6342265643
 20
112.2270260879
  0
VERTEX
  8
0
 62
7
  6
CONTINUOUS
 10
112.5428503027
 20
112.2887051363
  0
VERTEX
  8
0
 62
7
  6
CONTINUOUS
 10
112.4515844907
 20
112.3364736417
  0
VERTEX
  8
0
 62
7
  6
CONTINUOUS
 10
112.3575295382
 20
112.3760016285
  0
VERTEX
  8
0
 62
7
  6
CONTINUOUS
 10
112.2568013183
 20
112.4109144817
  0
VERTEX
  8
0
 62
7
  6
CONTINUOUS
 10
112.1453364179
 20
112.4434225965
  0
VERTEX
  8
0
 62
7
  6
CONTINUOUS
 10
112.0194718721
 20
112.4747712089
  0
VERTEX
  8
0
 62
7
  6
CONTINUOUS
 10
111.8758103494
 20
112.5056677102
  0
VERTEX
  8
0
 62
7
  6
CONTINUOUS
 10
111.7109877661
 20
112.5365253617
  0
VERTEX
  8
0
 62
7
  6
CONTINUOUS
 10
111.5437226487
 20
112.5641438211
  0
SEQEND
  0
POLYLINE
  8
0
 62
7
  6
CONTINUOUS
 66
1
 70
0
  0
VERTEX
  8
0
 62
7
  6
CONTINUOUS
 10
112.909299115
 20
145.2785196263
  0
VERTEX
  8
0
 62
7
  6
CONTINUOUS
 10
112.9052495248
 20
145.3525593692
  0
VERTEX
  8
0
 62
7
  6
CONTINUOUS
 10
112.8723400527
 20
145.4999166536
  0
VERTEX
  8
0
 62
7
  6
CONTINUOUS
 10
112.8089263948
 20
145.6341379226
  0
VERTEX
  8
0
 62
7
  6
CONTINUOUS
 10
112.7253532144
 20
145.7439542964
  0
VERTEX
  8
0
 62
7
  6
CONTINUOUS
 10
112.6342265643
 20
145.8270260879
  0
VERTEX
  8
0
 62
7
  6
CONTINUOUS
 10
112.5428503027
 20
145.8887051363
  0
VERTEX
  8
0
 62
7
  6
CONTINUOUS
 10
112.4515844907
 20
145.9364736417
  0
VERTEX
  8
0
 62
7
  6
CONTINUOUS
 10
112.3575295382
 20
145.9760016285
  0
VERTEX
  8
0
 62
7
  6
CONTINUOUS
 10
112.2568013183
 20
146.0109144817
  0
VERTEX
  8
0
 62
7
  6
CONTINUOUS
 10
112.1453364179
 20
146.0434225965
  0
VERTEX
  8
0
 62
7
  6
CONTINUOUS
 10
112.0194718721
 20
146.0747712089
  0
VERTEX
  8
0
 62
7
  6
CONTINUOUS
 10
111.8758103494
 20
146.1056677102
  0
VERTEX
  8
0
 62
7
  6
CONTINUOUS
 10
111.7109877661
 20
146.1365253617
  0
VERTEX
  8
0
 62
7
  6
CONTINUOUS
 10
111.5437226487
 20
146.1641438211
  0
SEQEND
  0
POLYLINE
  8
0
 62
7
  6
CONTINUOUS
 66
1
 70
0
  0
VERTEX
  8
0
 62
7
  6
CONTINUOUS
 10
112.9092994616
 20
94.8776849704
  0
VERTEX
  8
0
 62
7
  6
CONTINUOUS
 10
112.9052495248
 20
94.9525593692
  0
VERTEX
  8
0
 62
7
  6
CONTINUOUS
 10
112.8723400527
 20
95.0999166536
  0
VERTEX
  8
0
 62
7
  6
CONTINUOUS
 10
112.8089263948
 20
95.2341379226
  0
VERTEX
  8
0
 62
7
  6
CONTINUOUS
 10
112.7253532144
 20
95.3439542964
  0
VERTEX
  8
0
 62
7
  6
CONTINUOUS
 10
112.6342265643
 20
95.4270260879
  0
VERTEX
  8
0
 62
7
  6
CONTINUOUS
 10
112.5428503027
 20
95.4887051363
  0
VERTEX
  8
0
 62
7
  6
CONTINUOUS
 10
112.4515844907
 20
95.5364736417
  0
VERTEX
  8
0
 62
7
  6
CONTINUOUS
 10
112.3575295382
 20
95.5760016285
  0
VERTEX
  8
0
 62
7
  6
CONTINUOUS
 10
112.2568013183
 20
95.6109144817
  0
VERTEX
  8
0
 62
7
  6
CONTINUOUS
 10
112.1453364179
 20
95.6434225965
  0
VERTEX
  8
0
 62
7
  6
CONTINUOUS
 10
112.0194718721
 20
95.6747712089
  0
VERTEX
  8
0
 62
7
  6
CONTINUOUS
 10
111.8758103494
 20
95.7056677102
  0
VERTEX
  8
0
 62
7
  6
CONTINUOUS
 10
111.7109877661
 20
95.7365253617
  0
VERTEX
  8
0
 62
7
  6
CONTINUOUS
 10
111.5437226487
 20
95.7641438211
  0
SEQEND
  0
POLYLINE
  8
0
 62
7
  6
CONTINUOUS
 66
1
 70
0
  0
VERTEX
  8
0
 62
7
  6
CONTINUOUS
 10
112.9092994616
 20
128.4776849704
  0
VERTEX
  8
0
 62
7
  6
CONTINUOUS
 10
112.9052495248
 20
128.5525593692
  0
VERTEX
  8
0
 62
7
  6
CONTINUOUS
 10
112.8723400527
 20
128.6999166536
  0
VERTEX
  8
0
 62
7
  6
CONTINUOUS
 10
112.8089263948
 20
128.8341379226
  0
VERTEX
  8
0
 62
7
  6
CONTINUOUS
 10
112.7253532144
 20
128.9439542964
  0
VERTEX
  8
0
 62
7
  6
CONTINUOUS
 10
112.6342265643
 20
129.0270260879
  0
VERTEX
  8
0
 62
7
  6
CONTINUOUS
 10
112.5428503027
 20
129.0887051363
  0
VERTEX
  8
0
 62
7
  6
CONTINUOUS
 10
112.4515844907
 20
129.1364736417
  0
VERTEX
  8
0
 62
7
  6
CONTINUOUS
 10
112.3575295382
 20
129.1760016285
  0
VERTEX
  8
0
 62
7
  6
CONTINUOUS
 10
112.2568013183
 20
129.2109144817
  0
VERTEX
  8
0
 62
7
  6
CONTINUOUS
 10
112.1453364179
 20
129.2434225965
  0
VERTEX
  8
0
 62
7
  6
CONTINUOUS
 10
112.0194718721
 20
129.2747712089
  0
VERTEX
  8
0
 62
7
  6
CONTINUOUS
 10
111.8758103494
 20
129.3056677102
  0
VERTEX
  8
0
 62
7
  6
CONTINUOUS
 10
111.7109877661
 20
129.3365253617
  0
VERTEX
  8
0
 62
7
  6
CONTINUOUS
 10
111.5437226487
 20
129.3641438211
  0
SEQEND
  0
POLYLINE
  8
0
 62
7
  6
CONTINUOUS
 66
1
 70
0
  0
VERTEX
  8
0
 62
7
  6
CONTINUOUS
 10
112.9092994616
 20
162.0776849704
  0
VERTEX
  8
0
 62
7
  6
CONTINUOUS
 10
112.9052495248
 20
162.1525593692
  0
VERTEX
  8
0
 62
7
  6
CONTINUOUS
 10
112.8723400527
 20
162.2999166536
  0
VERTEX
  8
0
 62
7
  6
CONTINUOUS
 10
112.8089263948
 20
162.4341379226
  0
VERTEX
  8
0
 62
7
  6
CONTINUOUS
 10
112.7253532144
 20
162.5439542964
  0
VERTEX
  8
0
 62
7
  6
CONTINUOUS
 10
112.6342265643
 20
162.6270260879
  0
VERTEX
  8
0
 62
7
  6
CONTINUOUS
 10
112.5428503027
 20
162.6887051363
  0
VERTEX
  8
0
 62
7
  6
CONTINUOUS
 10
112.4515844907
 20
162.7364736417
  0
VERTEX
  8
0
 62
7
  6
CONTINUOUS
 10
112.3575295382
 20
162.7760016285
  0
VERTEX
  8
0
 62
7
  6
CONTINUOUS
 10
112.2568013183
 20
162.8109144817
  0
VERTEX
  8
0
 62
7
  6
CONTINUOUS
 10
112.1453364179
 20
162.8434225965
  0
VERTEX
  8
0
 62
7
  6
CONTINUOUS
 10
112.0194718721
 20
162.8747712089
  0
VERTEX
  8
0
 62
7
  6
CONTINUOUS
 10
111.8758103494
 20
162.9056677102
  0
VERTEX
  8
0
 62
7
  6
CONTINUOUS
 10
111.7109877661
 20
162.9365253617
  0
VERTEX
  8
0
 62
7
  6
CONTINUOUS
 10
111.5437226487
 20
162.9641438211
  0
SEQEND
  0
POLYLINE
  8
0
 62
7
  6
CONTINUOUS
 66
1
 70
0
  0
VERTEX
  8
0
 62
7
  6
CONTINUOUS
 10
112.9092994616
 20
178.8776849704
  0
VERTEX
  8
0
 62
7
  6
CONTINUOUS
 10
112.9052495248
 20
178.9525593692
  0
VERTEX
  8
0
 62
7
  6
CONTINUOUS
 10
112.8723400527
 20
179.0999166536
  0
VERTEX
  8
0
 62
7
  6
CONTINUOUS
 10
112.8089263948
 20
179.2341379226
  0
VERTEX
  8
0
 62
7
  6
CONTINUOUS
 10
112.7253532144
 20
179.3439542964
  0
VERTEX
  8
0
 62
7
  6
CONTINUOUS
 10
112.6342265643
 20
179.4270260879
  0
VERTEX
  8
0
 62
7
  6
CONTINUOUS
 10
112.5428503027
 20
179.4887051363
  0
VERTEX
  8
0
 62
7
  6
CONTINUOUS
 10
112.4515844907
 20
179.5364736417
  0
VERTEX
  8
0
 62
7
  6
CONTINUOUS
 10
112.3575295382
 20
179.5760016285
  0
VERTEX
  8
0
 62
7
  6
CONTINUOUS
 10
112.2568013183
 20
179.6109144817
  0
VERTEX
  8
0
 62
7
  6
CONTINUOUS
 10
112.1453364179
 20
179.6434225965
  0
VERTEX
  8
0
 62
7
  6
CONTINUOUS
 10
112.0194718721
 20
179.6747712089
  0
VERTEX
  8
0
 62
7
  6
CONTINUOUS
 10
111.8758103494
 20
179.7056677102
  0
VERTEX
  8
0
 62
7
  6
CONTINUOUS
 10
111.7109877661
 20
179.7365253617
  0
VERTEX
  8
0
 62
7
  6
CONTINUOUS
 10
111.5437226487
 20
179.7641438211
  0
SEQEND
  0
POLYLINE
  8
0
 62
7
  6
CONTINUOUS
 66
1
 70
0
  0
VERTEX
  8
0
 62
7
  6
CONTINUOUS
 10
112.9092994616
 20
195.6776849711
  0
VERTEX
  8
0
 62
7
  6
CONTINUOUS
 10
112.9052495463
 20
195.7525591719
  0
VERTEX
  8
0
 62
7
  6
CONTINUOUS
 10
112.8723401413
 20
195.899916396
  0
VERTEX
  8
0
 62
7
  6
CONTINUOUS
 10
112.8089265198
 20
196.0341377191
  0
VERTEX
  8
0
 62
7
  6
CONTINUOUS
 10
112.725353292
 20
196.1439542129
  0
VERTEX
  8
0
 62
7
  6
CONTINUOUS
 10
112.6342265664
 20
196.2270260863
  0
VERTEX
  8
0
 62
7
  6
CONTINUOUS
 10
112.5428502022
 20
196.2887051955
  0
VERTEX
  8
0
 62
7
  6
CONTINUOUS
 10
112.4515842933
 20
196.3364737336
  0
VERTEX
  8
0
 62
7
  6
CONTINUOUS
 10
112.3575292754
 20
196.3760017284
  0
VERTEX
  8
0
 62
7
  6
CONTINUOUS
 10
112.256801001
 20
196.4109145823
  0
VERTEX
  8
0
 62
7
  6
CONTINUOUS
 10
112.1453360623
 20
196.4434226921
  0
VERTEX
  8
0
 62
7
  6
CONTINUOUS
 10
112.01947151
 20
196.4747712927
  0
VERTEX
  8
0
 62
7
  6
CONTINUOUS
 10
111.8758100316
 20
196.5056677739
  0
VERTEX
  8
0
 62
7
  6
CONTINUOUS
 10
111.7109875655
 20
196.5365253968
  0
VERTEX
  8
0
 62
7
  6
CONTINUOUS
 10
111.5437226487
 20
196.5641438211
  0
SEQEND
  0
LINE
  8
0
 62
7
  6
CONTINUOUS
 10
112.909299569
 20
55.2215133636
 11
112.909299569
 21
61.2778107459
  0
LINE
  8
0
 62
7
  6
CONTINUOUS
 10
112.909299569
 20
73.7652155247
 11
112.909299569
 21
78.0778037098
  0
LINE
  8
0
 62
7
  6
CONTINUOUS
 10
112.909299569
 20
90.5652155247
 11
112.909299569
 21
94.8778037098
  0
LINE
  8
0
 62
7
  6
CONTINUOUS
 10
112.909299569
 20
107.3652164678
 11
112.909299569
 21
111.6778128427
  0
LINE
  8
0
 62
7
  6
CONTINUOUS
 10
112.909299569
 20
124.1652155247
 11
112.909299569
 21
128.4778037098
  0
LINE
  8
0
 62
7
  6
CONTINUOUS
 10
112.909299569
 20
140.9652164678
 11
112.909299569
 21
145.2778128427
  0
LINE
  8
0
 62
7
  6
CONTINUOUS
 10
112.909299569
 20
157.7652155247
 11
112.909299569
 21
162.0778037098
  0
LINE
  8
0
 62
7
  6
CONTINUOUS
 10
112.909299569
 20
174.5652155247
 11
112.909299569
 21
178.8778037098
  0
LINE
  8
0
 62
7
  6
CONTINUOUS
 10
112.909299569
 20
191.3652155247
 11
112.909299569
 21
195.6778076507
  0
LINE
  8
0
 62
7
  6
CONTINUOUS
 10
112.909299569
 20
195.677814161
 11
112.9092994919
 21
195.6776855348
  0
LINE
  8
0
 62
7
  6
CONTINUOUS
 10
112.909299569
 20
178.8778137856
 11
112.9092994919
 21
178.8776849173
  0
LINE
  8
0
 62
7
  6
CONTINUOUS
 10
112.909299569
 20
162.0778137856
 11
112.9092994919
 21
162.0776849173
  0
LINE
  8
0
 62
7
  6
CONTINUOUS
 10
112.909299569
 20
128.4778137856
 11
112.9092994919
 21
128.4776849173
  0
LINE
  8
0
 62
7
  6
CONTINUOUS
 10
112.909299569
 20
94.8778137856
 11
112.9092994919
 21
94.8776849173
  0
LINE
  8
0
 62
7
  6
CONTINUOUS
 10
112.909299569
 20
78.0778137856
 11
112.9092994919
 21
78.0776849173
  0
LINE
  8
0
 62
7
  6
CONTINUOUS
 10
111.0448175421
 20
106.2863177549
 11
111.4480641746
 21
106.4670444382
  0
POLYLINE
  8
0
 62
7
  6
CONTINUOUS
 66
1
 70
0
  0
VERTEX
  8
0
 62
7
  6
CONTINUOUS
 10
111.5437225932
 20
173.6788854806
  0
VERTEX
  8
0
 62
7
  6
CONTINUOUS
 10
111.7112351624
 20
173.7065472923
  0
VERTEX
  8
0
 62
7
  6
CONTINUOUS
 10
111.8762613805
 20
173.7374520902
  0
VERTEX
  8
0
 62
7
  6
CONTINUOUS
 10
112.0200890818
 20
173.7684008767
  0
VERTEX
  8
0
 62
7
  6
CONTINUOUS
 10
112.1460917049
 20
173.799810064
  0
VERTEX
  8
0
 62
7
  6
CONTINUOUS
 10
112.257678544
 20
173.832393205
  0
VERTEX
  8
0
 62
7
  6
CONTINUOUS
 10
112.3585298628
 20
173.8674082138
  0
VERTEX
  8
0
 62
7
  6
CONTINUOUS
 10
112.4527333293
 20
173.9070917121
  0
VERTEX
  8
0
 62
7
  6
CONTINUOUS
 10
112.5441972551
 20
173.9551188299
  0
VERTEX
  8
0
 62
7
  6
CONTINUOUS
 10
112.6358044778
 20
174.0172284807
  0
VERTEX
  8
0
 62
7
  6
CONTINUOUS
 10
112.7270953454
 20
174.1009574055
  0
VERTEX
  8
0
 62
7
  6
CONTINUOUS
 10
112.810583253
 20
174.2116028167
  0
VERTEX
  8
0
 62
7
  6
CONTINUOUS
 10
112.8735269764
 20
174.3465924822
  0
VERTEX
  8
0
 62
7
  6
CONTINUOUS
 10
112.9056691322
 20
174.4944272714
  0
VERTEX
  8
0
 62
7
  6
CONTINUOUS
 10
112.909299465
 20
174.565341414
  0
SEQEND
  0
LINE
  8
0
 62
7
  6
CONTINUOUS
 10
111.439005136
 20
173.662984367
 11
111.5437306807
 21
173.6788867414
  0
POLYLINE
  8
0
 62
7
  6
CONTINUOUS
 66
1
 70
0
  0
VERTEX
  8
0
 62
7
  6
CONTINUOUS
 10
56.5948733373
 20
164.2096343788
  0
VERTEX
  8
0
 62
7
  6
CONTINUOUS
 10
56.8881954562
 20
164.2136073557
  0
VERTEX
  8
0
 62
7
  6
CONTINUOUS
 10
56.9677889992
 20
164.2137336792
  0
VERTEX
  8
0
 62
7
  6
CONTINUOUS
 10
57.0468516604
 20
164.2124549997
  0
VERTEX
  8
0
 62
7
  6
CONTINUOUS
 10
57.1251033847
 20
164.2095685229
  0
VERTEX
  8
0
 62
7
  6
CONTINUOUS
 10
57.2023216287
 20
164.2048531209
  0
VERTEX
  8
0
 62
7
  6
CONTINUOUS
 10
57.2782866776
 20
164.1981102004
  0
VERTEX
  8
0
 62
7
  6
CONTINUOUS
 10
57.3525658222
 20
164.1891638542
  0
VERTEX
  8
0
 62
7
  6
CONTINUOUS
 10
57.4246508206
 20
164.177844337
  0
VERTEX
  8
0
 62
7
  6
CONTINUOUS
 10
57.4947554895
 20
164.1639529378
  0
VERTEX
  8
0
 62
7
  6
CONTINUOUS
 10
57.5624056416
 20
164.1472530619
  0
VERTEX
  8
0
 62
7
  6
CONTINUOUS
 10
57.6264738259
 20
164.12753852
  0
VERTEX
  8
0
 62
7
  6
CONTINUOUS
 10
57.6859636509
 20
164.1041918424
  0
VERTEX
  8
0
 62
7
  6
CONTINUOUS
 10
57.7412325998
 20
164.0767234193
  0
VERTEX
  8
0
 62
7
  6
CONTINUOUS
 10
57.7906771291
 20
164.0457085427
  0
VERTEX
  8
0
 62
7
  6
CONTINUOUS
 10
57.832856102
 20
164.0122658567
  0
VERTEX
  8
0
 62
7
  6
CONTINUOUS
 10
57.8681303938
 20
163.9763959654
  0
VERTEX
  8
0
 62
7
  6
CONTINUOUS
 10
57.8964262052
 20
163.93807579
  0
VERTEX
  8
0
 62
7
  6
CONTINUOUS
 10
57.9171363109
 20
163.8972447895
  0
VERTEX
  8
0
 62
7
  6
CONTINUOUS
 10
57.9287245729
 20
163.8544479668
  0
VERTEX
  8
0
 62
7
  6
CONTINUOUS
 10
57.9304910831
 20
163.8310781685
  0
SEQEND
  0
POLYLINE
  8
0
 62
7
  6
CONTINUOUS
 66
1
 70
0
  0
VERTEX
  8
0
 62
7
  6
CONTINUOUS
 10
101.4197580706
 20
164.0333480668
  0
VERTEX
  8
0
 62
7
  6
CONTINUOUS
 10
101.1257262997
 20
164.0293783459
  0
VERTEX
  8
0
 62
7
  6
CONTINUOUS
 10
101.0458571267
 20
164.0293316794
  0
VERTEX
  8
0
 62
7
  6
CONTINUOUS
 10
100.9666816635
 20
164.0307084441
  0
VERTEX
  8
0
 62
7
  6
CONTINUOUS
 10
100.8884596897
 20
164.0337075535
  0
VERTEX
  8
0
 62
7
  6
CONTINUOUS
 10
100.8113885702
 20
164.0385431233
  0
VERTEX
  8
0
 62
7
  6
CONTINUOUS
 10
100.7356753976
 20
164.0454042531
  0
VERTEX
  8
0
 62
7
  6
CONTINUOUS
 10
100.6617481287
 20
164.0544601514
  0
VERTEX
  8
0
 62
7
  6
CONTINUOUS
 10
100.5900529525
 20
164.0658758073
  0
VERTEX
  8
0
 62
7
  6
CONTINUOUS
 10
100.5204539303
 20
164.0798317833
  0
VERTEX
  8
0
 62
7
  6
CONTINUOUS
 10
100.4532183443
 20
164.0965995379
  0
VERTEX
  8
0
 62
7
  6
CONTINUOUS
 10
100.3897893034
 20
164.1163016898
  0
VERTEX
  8
0
 62
7
  6
CONTINUOUS
 10
100.330794411
 20
164.1396530878
  0
VERTEX
  8
0
 62
7
  6
CONTINUOUS
 10
100.276024406
 20
164.1670559714
  0
VERTEX
  8
0
 62
7
  6
CONTINUOUS
 10
100.2270931386
 20
164.1979051051
  0
VERTEX
  8
0
 62
7
  6
CONTINUOUS
 10
100.1850667758
 20
164.2313691081
  0
VERTEX
  8
0
 62
7
  6
CONTINUOUS
 10
100.1497231011
 20
164.26750431
  0
VERTEX
  8
0
 62
7
  6
CONTINUOUS
 10
100.1213579577
 20
164.3062675517
  0
VERTEX
  8
0
 62
7
  6
CONTINUOUS
 10
100.10078166
 20
164.3475411514
  0
VERTEX
  8
0
 62
7
  6
CONTINUOUS
 10
100.0895986328
 20
164.3905384875
  0
VERTEX
  8
0
 62
7
  6
CONTINUOUS
 10
100.0881086206
 20
164.4117773907
  0
SEQEND
  0
LINE
  8
0
 62
7
  6
CONTINUOUS
 10
101.7027722397
 20
164.0357901214
 11
101.4197580706
 21
164.0333480668
  0
LINE
  8
0
 62
7
  6
CONTINUOUS
 10
56.3118516006
 20
164.2072184044
 11
56.5948733373
 21
164.2096343788
  0
LINE
  8
0
 62
7
  6
CONTINUOUS
 10
101.7027722397
 20
164.0357901214
 11
107.2508731802
 21
164.0363464983
  0
LINE
  8
0
 62
7
  6
CONTINUOUS
 10
50.767763475
 20
164.206682812
 11
56.3118516006
 21
164.2072184044
  0
LINE
  8
0
 62
7
  6
CONTINUOUS
 10
50.7666815236
 20
164.2067421202
 11
50.7677014635
 21
164.206682815
  0
LINE
  8
0
 62
7
  6
CONTINUOUS
 10
107.2509052932
 20
164.0363464983
 11
107.2519133304
 21
164.0362871722
  0
LINE
  8
0
 62
7
  6
CONTINUOUS
 10
111.5437306807
 20
162.964142569
 11
111.4390051357
 21
162.9800449433
  0
POLYLINE
  8
0
 62
7
  6
CONTINUOUS
 66
1
 70
0
  0
VERTEX
  8
0
 62
7
  6
CONTINUOUS
 10
46.5705328372
 20
182.0670454813
  0
VERTEX
  8
0
 62
7
  6
CONTINUOUS
 10
46.9714820589
 20
181.8872622061
  0
VERTEX
  8
0
 62
7
  6
CONTINUOUS
 10
47.4370950998
 20
181.712197668
  0
VERTEX
  8
0
 62
7
  6
CONTINUOUS
 10
47.9387195802
 20
181.5534292661
  0
VERTEX
  8
0
 62
7
  6
CONTINUOUS
 10
48.4720557824
 20
181.4107245203
  0
VERTEX
  8
0
 62
7
  6
CONTINUOUS
 10
49.0324468042
 20
181.2840362867
  0
VERTEX
  8
0
 62
7
  6
CONTINUOUS
 10
49.6150576097
 20
181.1733487557
  0
VERTEX
  8
0
 62
7
  6
CONTINUOUS
 10
50.2148825366
 20
181.0786199044
  0
VERTEX
  8
0
 62
7
  6
CONTINUOUS
 10
50.766675658
 20
181.0067420906
  0
SEQEND
  0
LINE
  8
0
 62
7
  6
CONTINUOUS
 10
46.9714820589
 20
70.7557671042
 11
46.5705328372
 21
70.575983829
  0
POLYLINE
  8
0
 62
7
  6
CONTINUOUS
 66
1
 70
0
  0
VERTEX
  8
0
 62
7
  6
CONTINUOUS
 10
107.2519234518
 20
172.6067420873
  0
VERTEX
  8
0
 62
7
  6
CONTINUOUS
 10
107.8002148342
 20
172.6781193423
  0
VERTEX
  8
0
 62
7
  6
CONTINUOUS
 10
108.4001962496
 20
172.7727688037
  0
VERTEX
  8
0
 62
7
  6
CONTINUOUS
 10
108.9829832141
 20
172.8833794085
  0
VERTEX
  8
0
 62
7
  6
CONTINUOUS
 10
109.5435688804
 20
173.0099932947
  0
VERTEX
  8
0
 62
7
  6
CONTINUOUS
 10
110.0771165587
 20
173.1526260491
  0
VERTEX
  8
0
 62
7
  6
CONTINUOUS
 10
110.5789669367
 20
173.3113239733
  0
VERTEX
  8
0
 62
7
  6
CONTINUOUS
 10
111.0448175421
 20
173.4863177549
  0
SEQEND
  0
LINE
  8
0
 62
7
  6
CONTINUOUS
 10
107.2519175861
 20
172.6067421169
 11
107.2508976744
 21
172.606682815
  0
LINE
  8
0
 62
7
  6
CONTINUOUS
 10
50.7666815236
 20
172.4362871901
 11
50.7677014635
 21
172.4363464954
  0
POLYLINE
  8
0
 62
7
  6
CONTINUOUS
 66
1
 70
0
  0
VERTEX
  8
0
 62
7
  6
CONTINUOUS
 10
56.8923012096
 20
172.4293839933
  0
VERTEX
  8
0
 62
7
  6
CONTINUOUS
 10
56.5988372238
 20
172.4333484698
  0
VERTEX
  8
0
 62
7
  6
CONTINUOUS
 10
56.3158250223
 20
172.4357902137
  0
VERTEX
  8
0
 62
7
  6
CONTINUOUS
 10
50.767763475
 20
172.4363464983
  0
SEQEND
  0
POLYLINE
  8
0
 62
7
  6
CONTINUOUS
 66
1
 70
0
  0
VERTEX
  8
0
 62
7
  6
CONTINUOUS
 10
101.1299267541
 20
172.6136119342
  0
VERTEX
  8
0
 62
7
  6
CONTINUOUS
 10
101.4237258513
 20
172.609634379
  0
VERTEX
  8
0
 62
7
  6
CONTINUOUS
 10
101.7067475118
 20
172.6072184045
  0
VERTEX
  8
0
 62
7
  6
CONTINUOUS
 10
107.2508356629
 20
172.606682812
  0
SEQEND
  0
POLYLINE
  8
0
 62
7
  6
CONTINUOUS
 66
1
 70
0
  0
VERTEX
  8
0
 62
7
  6
CONTINUOUS
 10
111.4480641746
 20
162.9759848722
  0
VERTEX
  8
0
 62
7
  6
CONTINUOUS
 10
111.0448174352
 20
163.1567115993
  0
VERTEX
  8
0
 62
7
  6
CONTINUOUS
 10
110.578966704
 20
163.3317054171
  0
VERTEX
  8
0
 62
7
  6
CONTINUOUS
 10
110.0771161839
 20
163.4904033701
  0
VERTEX
  8
0
 62
7
  6
CONTINUOUS
 10
109.5435683505
 20
163.6330361458
  0
VERTEX
  8
0
 62
7
  6
CONTINUOUS
 10
108.9829825196
 20
163.7596500457
  0
VERTEX
  8
0
 62
7
  6
CONTINUOUS
 10
108.4001953846
 20
163.8702606565
  0
VERTEX
  8
0
 62
7
  6
CONTINUOUS
 10
107.8002137962
 20
163.9649101163
  0
VERTEX
  8
0
 62
7
  6
CONTINUOUS
 10
107.2519234518
 20
164.036287223
  0
SEQEND
  0
POLYLINE
  8
0
 62
7
  6
CONTINUOUS
 66
1
 70
0
  0
VERTEX
  8
0
 62
7
  6
CONTINUOUS
 10
107.2519133304
 20
164.0362871722
  0
VERTEX
  8
0
 62
7
  6
CONTINUOUS
 10
107.2605102284
 20
164.0304754718
  0
VERTEX
  8
0
 62
7
  6
CONTINUOUS
 10
107.2693035468
 20
164.0113887189
  0
VERTEX
  8
0
 62
7
  6
CONTINUOUS
 10
107.2760319896
 20
163.9801874718
  0
VERTEX
  8
0
 62
7
  6
CONTINUOUS
 10
107.2803516929
 20
163.9388689259
  0
VERTEX
  8
0
 62
7
  6
CONTINUOUS
 10
107.2821405796
 20
163.8901725798
  0
VERTEX
  8
0
 62
7
  6
CONTINUOUS
 10
107.2815808922
 20
163.8363464983
  0
SEQEND
  0
POLYLINE
  8
0
 62
7
  6
CONTINUOUS
 66
1
 70
0
  0
VERTEX
  8
0
 62
7
  6
CONTINUOUS
 10
46.4748757926
 20
171.3641437125
  0
VERTEX
  8
0
 62
7
  6
CONTINUOUS
 10
46.3060807393
 20
171.3362570668
  0
VERTEX
  8
0
 62
7
  6
CONTINUOUS
 10
46.1415205229
 20
171.3054131654
  0
VERTEX
  8
0
 62
7
  6
CONTINUOUS
 10
45.9980822464
 20
171.2745294146
  0
VERTEX
  8
0
 62
7
  6
CONTINUOUS
 10
45.8724039459
 20
171.243191368
  0
VERTEX
  8
0
 62
7
  6
CONTINUOUS
 10
45.7610902756
 20
171.2106899827
  0
VERTEX
  8
0
 62
7
  6
CONTINUOUS
 10
45.6604806541
 20
171.1757776798
  0
VERTEX
  8
0
 62
7
  6
CONTINUOUS
 10
45.566515783
 20
171.1362410526
  0
VERTEX
  8
0
 62
7
  6
CONTINUOUS
 10
45.4753200019
 20
171.0884524614
  0
VERTEX
  8
0
 62
7
  6
CONTINUOUS
 10
45.3840078256
 20
171.0267434181
  0
VERTEX
  8
0
 62
7
  6
CONTINUOUS
 10
45.2929600716
 20
170.9436463508
  0
VERTEX
  8
0
 62
7
  6
CONTINUOUS
 10
45.2094905126
 20
170.8338410857
  0
VERTEX
  8
0
 62
7
  6
CONTINUOUS
 10
45.1461802054
 20
170.6996873036
  0
VERTEX
  8
0
 62
7
  6
CONTINUOUS
 10
45.11333673
 20
170.5524410483
  0
VERTEX
  8
0
 62
7
  6
CONTINUOUS
 10
45.1092996759
 20
170.4776853426
  0
SEQEND
  0
LINE
  8
0
 62
7
  6
CONTINUOUS
 10
46.5795949294
 20
171.3800472179
 11
46.4748675873
 21
171.3641424334
  0
POLYLINE
  8
0
 62
7
  6
CONTINUOUS
 66
1
 70
0
  0
VERTEX
  8
0
 62
7
  6
CONTINUOUS
 10
50.766675658
 20
172.4362872197
  0
VERTEX
  8
0
 62
7
  6
CONTINUOUS
 10
50.2148825366
 20
172.364409406
  0
VERTEX
  8
0
 62
7
  6
CONTINUOUS
 10
49.6150576097
 20
172.2696805546
  0
VERTEX
  8
0
 62
7
  6
CONTINUOUS
 10
49.0324468042
 20
172.1589930236
  0
VERTEX
  8
0
 62
7
  6
CONTINUOUS
 10
48.4720557824
 20
172.0323047901
  0
VERTEX
  8
0
 62
7
  6
CONTINUOUS
 10
47.9387195802
 20
171.8896000443
  0
VERTEX
  8
0
 62
7
  6
CONTINUOUS
 10
47.4370950998
 20
171.7308316424
  0
VERTEX
  8
0
 62
7
  6
CONTINUOUS
 10
46.9714820589
 20
171.5557671042
  0
SEQEND
  0
POLYLINE
  8
0
 62
7
  6
CONTINUOUS
 66
1
 70
0
  0
VERTEX
  8
0
 62
7
  6
CONTINUOUS
 10
101.4197580706
 20
180.8333480668
  0
VERTEX
  8
0
 62
7
  6
CONTINUOUS
 10
101.1257262997
 20
180.8293783459
  0
VERTEX
  8
0
 62
7
  6
CONTINUOUS
 10
101.0458571267
 20
180.8293316794
  0
VERTEX
  8
0
 62
7
  6
CONTINUOUS
 10
100.9666816635
 20
180.8307084441
  0
VERTEX
  8
0
 62
7
  6
CONTINUOUS
 10
100.8884596897
 20
180.8337075535
  0
VERTEX
  8
0
 62
7
  6
CONTINUOUS
 10
100.8113885702
 20
180.8385431233
  0
VERTEX
  8
0
 62
7
  6
CONTINUOUS
 10
100.7356753976
 20
180.8454042531
  0
VERTEX
  8
0
 62
7
  6
CONTINUOUS
 10
100.6617481287
 20
180.8544601514
  0
VERTEX
  8
0
 62
7
  6
CONTINUOUS
 10
100.5900529525
 20
180.8658758073
  0
VERTEX
  8
0
 62
7
  6
CONTINUOUS
 10
100.5204539303
 20
180.8798317833
  0
VERTEX
  8
0
 62
7
  6
CONTINUOUS
 10
100.4532183443
 20
180.8965995379
  0
VERTEX
  8
0
 62
7
  6
CONTINUOUS
 10
100.3897893034
 20
180.9163016898
  0
VERTEX
  8
0
 62
7
  6
CONTINUOUS
 10
100.330794411
 20
180.9396530878
  0
VERTEX
  8
0
 62
7
  6
CONTINUOUS
 10
100.276024406
 20
180.9670559714
  0
VERTEX
  8
0
 62
7
  6
CONTINUOUS
 10
100.2270931386
 20
180.9979051051
  0
VERTEX
  8
0
 62
7
  6
CONTINUOUS
 10
100.1850667758
 20
181.0313691081
  0
VERTEX
  8
0
 62
7
  6
CONTINUOUS
 10
100.1497231011
 20
181.06750431
  0
VERTEX
  8
0
 62
7
  6
CONTINUOUS
 10
100.1213579577
 20
181.1062675517
  0
VERTEX
  8
0
 62
7
  6
CONTINUOUS
 10
100.10078166
 20
181.1475411514
  0
VERTEX
  8
0
 62
7
  6
CONTINUOUS
 10
100.0895986328
 20
181.1905384875
  0
VERTEX
  8
0
 62
7
  6
CONTINUOUS
 10
100.0881086206
 20
181.2117773907
  0
SEQEND
  0
LINE
  8
0
 62
7
  6
CONTINUOUS
 10
101.7027722397
 20
180.8357901214
 11
101.4197580706
 21
180.8333480668
  0
LINE
  8
0
 62
7
  6
CONTINUOUS
 10
101.7027722397
 20
180.8357901214
 11
107.2508731802
 21
180.8363464983
  0
LINE
  8
0
 62
7
  6
CONTINUOUS
 10
50.7666815236
 20
181.0067421202
 11
50.7677014635
 21
181.006682815
  0
LINE
  8
0
 62
7
  6
CONTINUOUS
 10
46.4748675873
 20
182.078886877
 11
46.5795949294
 21
182.0629820924
  0
POLYLINE
  8
0
 62
7
  6
CONTINUOUS
 66
1
 70
0
  0
VERTEX
  8
0
 62
7
  6
CONTINUOUS
 10
46.5705328372
 20
198.8670454813
  0
VERTEX
  8
0
 62
7
  6
CONTINUOUS
 10
46.9714820589
 20
198.6872622061
  0
VERTEX
  8
0
 62
7
  6
CONTINUOUS
 10
47.4370950998
 20
198.512197668
  0
VERTEX
  8
0
 62
7
  6
CONTINUOUS
 10
47.9387195802
 20
198.3534292661
  0
VERTEX
  8
0
 62
7
  6
CONTINUOUS
 10
48.4720557824
 20
198.2107245203
  0
VERTEX
  8
0
 62
7
  6
CONTINUOUS
 10
49.0324468042
 20
198.0840362867
  0
VERTEX
  8
0
 62
7
  6
CONTINUOUS
 10
49.6150576097
 20
197.9733487557
  0
VERTEX
  8
0
 62
7
  6
CONTINUOUS
 10
50.2148825366
 20
197.8786199044
  0
VERTEX
  8
0
 62
7
  6
CONTINUOUS
 10
50.766675658
 20
197.8067420906
  0
SEQEND
  0
LINE
  8
0
 62
7
  6
CONTINUOUS
 10
111.0448175421
 20
89.4863177549
 11
111.4480641746
 21
89.6670444382
  0
POLYLINE
  8
0
 62
7
  6
CONTINUOUS
 66
1
 70
0
  0
VERTEX
  8
0
 62
7
  6
CONTINUOUS
 10
111.5437225932
 20
190.4788854806
  0
VERTEX
  8
0
 62
7
  6
CONTINUOUS
 10
111.7112351624
 20
190.5065472923
  0
VERTEX
  8
0
 62
7
  6
CONTINUOUS
 10
111.8762613805
 20
190.5374520902
  0
VERTEX
  8
0
 62
7
  6
CONTINUOUS
 10
112.0200890818
 20
190.5684008767
  0
VERTEX
  8
0
 62
7
  6
CONTINUOUS
 10
112.1460917049
 20
190.599810064
  0
VERTEX
  8
0
 62
7
  6
CONTINUOUS
 10
112.257678544
 20
190.632393205
  0
VERTEX
  8
0
 62
7
  6
CONTINUOUS
 10
112.3585298628
 20
190.6674082138
  0
VERTEX
  8
0
 62
7
  6
CONTINUOUS
 10
112.4527333293
 20
190.7070917121
  0
VERTEX
  8
0
 62
7
  6
CONTINUOUS
 10
112.5441972551
 20
190.7551188299
  0
VERTEX
  8
0
 62
7
  6
CONTINUOUS
 10
112.6358044778
 20
190.8172284807
  0
VERTEX
  8
0
 62
7
  6
CONTINUOUS
 10
112.7270953454
 20
190.9009574055
  0
VERTEX
  8
0
 62
7
  6
CONTINUOUS
 10
112.810583253
 20
191.0116028167
  0
VERTEX
  8
0
 62
7
  6
CONTINUOUS
 10
112.8735269764
 20
191.1465924822
  0
VERTEX
  8
0
 62
7
  6
CONTINUOUS
 10
112.9056691322
 20
191.2944272714
  0
VERTEX
  8
0
 62
7
  6
CONTINUOUS
 10
112.909299465
 20
191.365341414
  0
SEQEND
  0
LINE
  8
0
 62
7
  6
CONTINUOUS
 10
111.439005136
 20
190.462984367
 11
111.5437306807
 21
190.4788867414
  0
POLYLINE
  8
0
 62
7
  6
CONTINUOUS
 66
1
 70
0
  0
VERTEX
  8
0
 62
7
  6
CONTINUOUS
 10
107.2519234518
 20
189.4067420873
  0
VERTEX
  8
0
 62
7
  6
CONTINUOUS
 10
107.8002148342
 20
189.4781193423
  0
VERTEX
  8
0
 62
7
  6
CONTINUOUS
 10
108.4001962496
 20
189.5727688037
  0
VERTEX
  8
0
 62
7
  6
CONTINUOUS
 10
108.9829832141
 20
189.6833794085
  0
VERTEX
  8
0
 62
7
  6
CONTINUOUS
 10
109.5435688804
 20
189.8099932947
  0
VERTEX
  8
0
 62
7
  6
CONTINUOUS
 10
110.0771165587
 20
189.9526260491
  0
VERTEX
  8
0
 62
7
  6
CONTINUOUS
 10
110.5789669367
 20
190.1113239733
  0
VERTEX
  8
0
 62
7
  6
CONTINUOUS
 10
111.0448175421
 20
190.2863177549
  0
SEQEND
  0
POLYLINE
  8
0
 62
7
  6
CONTINUOUS
 66
1
 70
0
  0
VERTEX
  8
0
 62
7
  6
CONTINUOUS
 10
56.5948733373
 20
181.0096343788
  0
VERTEX
  8
0
 62
7
  6
CONTINUOUS
 10
56.8881954562
 20
181.0136073557
  0
VERTEX
  8
0
 62
7
  6
CONTINUOUS
 10
56.9677889992
 20
181.0137336792
  0
VERTEX
  8
0
 62
7
  6
CONTINUOUS
 10
57.0468516604
 20
181.0124549997
  0
VERTEX
  8
0
 62
7
  6
CONTINUOUS
 10
57.1251033847
 20
181.0095685229
  0
VERTEX
  8
0
 62
7
  6
CONTINUOUS
 10
57.2023216287
 20
181.0048531209
  0
VERTEX
  8
0
 62
7
  6
CONTINUOUS
 10
57.2782866776
 20
180.9981102004
  0
VERTEX
  8
0
 62
7
  6
CONTINUOUS
 10
57.3525658222
 20
180.9891638542
  0
VERTEX
  8
0
 62
7
  6
CONTINUOUS
 10
57.4246508206
 20
180.977844337
  0
VERTEX
  8
0
 62
7
  6
CONTINUOUS
 10
57.4947554895
 20
180.9639529378
  0
VERTEX
  8
0
 62
7
  6
CONTINUOUS
 10
57.5624056416
 20
180.9472530619
  0
VERTEX
  8
0
 62
7
  6
CONTINUOUS
 10
57.6264738259
 20
180.92753852
  0
VERTEX
  8
0
 62
7
  6
CONTINUOUS
 10
57.6859636509
 20
180.9041918424
  0
VERTEX
  8
0
 62
7
  6
CONTINUOUS
 10
57.7412325998
 20
180.8767234193
  0
VERTEX
  8
0
 62
7
  6
CONTINUOUS
 10
57.7906771291
 20
180.8457085427
  0
VERTEX
  8
0
 62
7
  6
CONTINUOUS
 10
57.832856102
 20
180.8122658567
  0
VERTEX
  8
0
 62
7
  6
CONTINUOUS
 10
57.8681303938
 20
180.7763959654
  0
VERTEX
  8
0
 62
7
  6
CONTINUOUS
 10
57.8964262052
 20
180.73807579
  0
VERTEX
  8
0
 62
7
  6
CONTINUOUS
 10
57.9171363109
 20
180.6972447895
  0
VERTEX
  8
0
 62
7
  6
CONTINUOUS
 10
57.9287245729
 20
180.6544479668
  0
VERTEX
  8
0
 62
7
  6
CONTINUOUS
 10
57.9304910831
 20
180.6310781685
  0
SEQEND
  0
LINE
  8
0
 62
7
  6
CONTINUOUS
 10
56.3118516006
 20
181.0072184044
 11
56.5948733373
 21
181.0096343788
  0
LINE
  8
0
 62
7
  6
CONTINUOUS
 10
50.767763475
 20
181.006682812
 11
56.3118516006
 21
181.0072184044
  0
LINE
  8
0
 62
6
  6
CONTINUOUS
 10
45.1093028155
 20
185.1215146552
 11
100.0877512953
 21
185.1215146552
  0
LINE
  8
0
 62
7
  6
CONTINUOUS
 10
107.2509052932
 20
180.8363464983
 11
107.2519133304
 21
180.8362871722
  0
LINE
  8
0
 62
7
  6
CONTINUOUS
 10
111.5437306807
 20
179.764142569
 11
111.4390051357
 21
179.7800449433
  0
POLYLINE
  8
0
 62
6
  6
CONTINUOUS
 66
1
 70
0
  0
VERTEX
  8
0
 62
6
  6
CONTINUOUS
 10
50.7606321105
 20
197.8097557308
  0
VERTEX
  8
0
 62
6
  6
CONTINUOUS
 10
50.7698935323
 20
197.8069576041
  0
VERTEX
  8
0
 62
6
  6
CONTINUOUS
 10
50.7797517939
 20
197.8143824383
  0
SEQEND
  0
POLYLINE
  8
0
 62
7
  6
CONTINUOUS
 66
1
 70
0
  0
VERTEX
  8
0
 62
7
  6
CONTINUOUS
 10
46.4748757926
 20
188.1641437125
  0
VERTEX
  8
0
 62
7
  6
CONTINUOUS
 10
46.3060807393
 20
188.1362570668
  0
VERTEX
  8
0
 62
7
  6
CONTINUOUS
 10
46.1415205229
 20
188.1054131654
  0
VERTEX
  8
0
 62
7
  6
CONTINUOUS
 10
45.9980822464
 20
188.0745294146
  0
VERTEX
  8
0
 62
7
  6
CONTINUOUS
 10
45.8724039459
 20
188.043191368
  0
VERTEX
  8
0
 62
7
  6
CONTINUOUS
 10
45.7610902756
 20
188.0106899827
  0
VERTEX
  8
0
 62
7
  6
CONTINUOUS
 10
45.6604806541
 20
187.9757776798
  0
VERTEX
  8
0
 62
7
  6
CONTINUOUS
 10
45.566515783
 20
187.9362410526
  0
VERTEX
  8
0
 62
7
  6
CONTINUOUS
 10
45.4753200019
 20
187.8884524614
  0
VERTEX
  8
0
 62
7
  6
CONTINUOUS
 10
45.3840078256
 20
187.8267434181
  0
VERTEX
  8
0
 62
7
  6
CONTINUOUS
 10
45.2929600716
 20
187.7436463508
  0
VERTEX
  8
0
 62
7
  6
CONTINUOUS
 10
45.2094905126
 20
187.6338410857
  0
VERTEX
  8
0
 62
7
  6
CONTINUOUS
 10
45.1461802054
 20
187.4996873036
  0
VERTEX
  8
0
 62
7
  6
CONTINUOUS
 10
45.11333673
 20
187.3524410483
  0
VERTEX
  8
0
 62
7
  6
CONTINUOUS
 10
45.1092996759
 20
187.2776853426
  0
SEQEND
  0
LINE
  8
0
 62
7
  6
CONTINUOUS
 10
46.5795949294
 20
188.1800472179
 11
46.4748675873
 21
188.1641424334
  0
POLYLINE
  8
0
 62
7
  6
CONTINUOUS
 66
1
 70
0
  0
VERTEX
  8
0
 62
7
  6
CONTINUOUS
 10
50.766675658
 20
189.2362872197
  0
VERTEX
  8
0
 62
7
  6
CONTINUOUS
 10
50.2148825366
 20
189.164409406
  0
VERTEX
  8
0
 62
7
  6
CONTINUOUS
 10
49.6150576097
 20
189.0696805546
  0
VERTEX
  8
0
 62
7
  6
CONTINUOUS
 10
49.0324468042
 20
188.9589930236
  0
VERTEX
  8
0
 62
7
  6
CONTINUOUS
 10
48.4720557824
 20
188.8323047901
  0
VERTEX
  8
0
 62
7
  6
CONTINUOUS
 10
47.9387195802
 20
188.6896000443
  0
VERTEX
  8
0
 62
7
  6
CONTINUOUS
 10
47.4370950998
 20
188.5308316424
  0
VERTEX
  8
0
 62
7
  6
CONTINUOUS
 10
46.9714820589
 20
188.3557671042
  0
SEQEND
  0
LINE
  8
0
 62
7
  6
CONTINUOUS
 10
107.2519175861
 20
189.4067421169
 11
107.2508976744
 21
189.406682815
  0
LINE
  8
0
 62
7
  6
CONTINUOUS
 10
50.7666815236
 20
189.2362871901
 11
50.7677014635
 21
189.2363464954
  0
POLYLINE
  8
0
 62
7
  6
CONTINUOUS
 66
1
 70
0
  0
VERTEX
  8
0
 62
7
  6
CONTINUOUS
 10
56.8923012096
 20
189.2293839933
  0
VERTEX
  8
0
 62
7
  6
CONTINUOUS
 10
56.5988372238
 20
189.2333484698
  0
VERTEX
  8
0
 62
7
  6
CONTINUOUS
 10
56.3158250223
 20
189.2357902137
  0
VERTEX
  8
0
 62
7
  6
CONTINUOUS
 10
50.767763475
 20
189.2363464983
  0
SEQEND
  0
POLYLINE
  8
0
 62
7
  6
CONTINUOUS
 66
1
 70
0
  0
VERTEX
  8
0
 62
7
  6
CONTINUOUS
 10
101.1299267541
 20
189.4136119342
  0
VERTEX
  8
0
 62
7
  6
CONTINUOUS
 10
101.4237258513
 20
189.409634379
  0
VERTEX
  8
0
 62
7
  6
CONTINUOUS
 10
101.7067475118
 20
189.4072184045
  0
VERTEX
  8
0
 62
7
  6
CONTINUOUS
 10
107.2508356629
 20
189.406682812
  0
SEQEND
  0
LINE
  8
0
 62
7
  6
CONTINUOUS
 10
46.4748675873
 20
198.878886877
 11
46.5795949294
 21
198.8629820924
  0
POLYLINE
  8
0
 62
7
  6
CONTINUOUS
 66
1
 70
0
  0
VERTEX
  8
0
 62
7
  6
CONTINUOUS
 10
111.4480641746
 20
179.7759848722
  0
VERTEX
  8
0
 62
7
  6
CONTINUOUS
 10
111.0448174352
 20
179.9567115993
  0
VERTEX
  8
0
 62
7
  6
CONTINUOUS
 10
110.578966704
 20
180.1317054171
  0
VERTEX
  8
0
 62
7
  6
CONTINUOUS
 10
110.0771161839
 20
180.2904033701
  0
VERTEX
  8
0
 62
7
  6
CONTINUOUS
 10
109.5435683505
 20
180.4330361458
  0
VERTEX
  8
0
 62
7
  6
CONTINUOUS
 10
108.9829825196
 20
180.5596500457
  0
VERTEX
  8
0
 62
7
  6
CONTINUOUS
 10
108.4001953846
 20
180.6702606565
  0
VERTEX
  8
0
 62
7
  6
CONTINUOUS
 10
107.8002137962
 20
180.7649101163
  0
VERTEX
  8
0
 62
7
  6
CONTINUOUS
 10
107.2519234518
 20
180.836287223
  0
SEQEND
  0
POLYLINE
  8
0
 62
7
  6
CONTINUOUS
 66
1
 70
0
  0
VERTEX
  8
0
 62
7
  6
CONTINUOUS
 10
107.2519133304
 20
180.8362871722
  0
VERTEX
  8
0
 62
7
  6
CONTINUOUS
 10
107.2605102284
 20
180.8304754718
  0
VERTEX
  8
0
 62
7
  6
CONTINUOUS
 10
107.2693035468
 20
180.8113887189
  0
VERTEX
  8
0
 62
7
  6
CONTINUOUS
 10
107.2760319896
 20
180.7801874718
  0
VERTEX
  8
0
 62
7
  6
CONTINUOUS
 10
107.2803516929
 20
180.7388689259
  0
VERTEX
  8
0
 62
7
  6
CONTINUOUS
 10
107.2821405796
 20
180.6901725798
  0
VERTEX
  8
0
 62
7
  6
CONTINUOUS
 10
107.2815808922
 20
180.6363464983
  0
SEQEND
  0
LINE
  8
0
 62
7
  6
CONTINUOUS
 10
111.0448175421
 20
72.6863177549
 11
111.4480641746
 21
72.8670444382
  0
POLYLINE
  8
0
 62
7
  6
CONTINUOUS
 66
1
 70
0
  0
VERTEX
  8
0
 62
7
  6
CONTINUOUS
 10
56.5948733373
 20
197.8096343788
  0
VERTEX
  8
0
 62
7
  6
CONTINUOUS
 10
56.8881954562
 20
197.8136073557
  0
VERTEX
  8
0
 62
7
  6
CONTINUOUS
 10
56.9677889992
 20
197.8137336792
  0
VERTEX
  8
0
 62
7
  6
CONTINUOUS
 10
57.0468516604
 20
197.8124549997
  0
VERTEX
  8
0
 62
7
  6
CONTINUOUS
 10
57.1251033847
 20
197.8095685229
  0
VERTEX
  8
0
 62
7
  6
CONTINUOUS
 10
57.2023216287
 20
197.8048531209
  0
VERTEX
  8
0
 62
7
  6
CONTINUOUS
 10
57.2782866776
 20
197.7981102004
  0
VERTEX
  8
0
 62
7
  6
CONTINUOUS
 10
57.3525658222
 20
197.7891638542
  0
VERTEX
  8
0
 62
7
  6
CONTINUOUS
 10
57.4246508206
 20
197.777844337
  0
VERTEX
  8
0
 62
7
  6
CONTINUOUS
 10
57.4947554895
 20
197.7639529378
  0
VERTEX
  8
0
 62
7
  6
CONTINUOUS
 10
57.5624056416
 20
197.7472530619
  0
VERTEX
  8
0
 62
7
  6
CONTINUOUS
 10
57.6264738259
 20
197.72753852
  0
VERTEX
  8
0
 62
7
  6
CONTINUOUS
 10
57.6859636509
 20
197.7041918424
  0
VERTEX
  8
0
 62
7
  6
CONTINUOUS
 10
57.7412325998
 20
197.6767234193
  0
VERTEX
  8
0
 62
7
  6
CONTINUOUS
 10
57.7906771291
 20
197.6457085427
  0
VERTEX
  8
0
 62
7
  6
CONTINUOUS
 10
57.832856102
 20
197.6122658567
  0
VERTEX
  8
0
 62
7
  6
CONTINUOUS
 10
57.8681303938
 20
197.5763959654
  0
VERTEX
  8
0
 62
7
  6
CONTINUOUS
 10
57.8964262052
 20
197.53807579
  0
VERTEX
  8
0
 62
7
  6
CONTINUOUS
 10
57.9171363109
 20
197.4972447895
  0
VERTEX
  8
0
 62
7
  6
CONTINUOUS
 10
57.9287245729
 20
197.4544479668
  0
VERTEX
  8
0
 62
7
  6
CONTINUOUS
 10
57.9304910831
 20
197.4310781685
  0
SEQEND
  0
POLYLINE
  8
0
 62
7
  6
CONTINUOUS
 66
1
 70
0
  0
VERTEX
  8
0
 62
7
  6
CONTINUOUS
 10
101.4197580706
 20
197.6333480668
  0
VERTEX
  8
0
 62
7
  6
CONTINUOUS
 10
101.1257262997
 20
197.6293783459
  0
VERTEX
  8
0
 62
7
  6
CONTINUOUS
 10
101.0458571267
 20
197.6293316794
  0
VERTEX
  8
0
 62
7
  6
CONTINUOUS
 10
100.9666816635
 20
197.6307084441
  0
VERTEX
  8
0
 62
7
  6
CONTINUOUS
 10
100.8884596897
 20
197.6337075535
  0
VERTEX
  8
0
 62
7
  6
CONTINUOUS
 10
100.8113885702
 20
197.6385431233
  0
VERTEX
  8
0
 62
7
  6
CONTINUOUS
 10
100.7356753976
 20
197.6454042531
  0
VERTEX
  8
0
 62
7
  6
CONTINUOUS
 10
100.6617481287
 20
197.6544601514
  0
VERTEX
  8
0
 62
7
  6
CONTINUOUS
 10
100.5900529525
 20
197.6658758073
  0
VERTEX
  8
0
 62
7
  6
CONTINUOUS
 10
100.5204539303
 20
197.6798317833
  0
VERTEX
  8
0
 62
7
  6
CONTINUOUS
 10
100.4532183443
 20
197.6965995379
  0
VERTEX
  8
0
 62
7
  6
CONTINUOUS
 10
100.3897893034
 20
197.7163016898
  0
VERTEX
  8
0
 62
7
  6
CONTINUOUS
 10
100.330794411
 20
197.7396530878
  0
VERTEX
  8
0
 62
7
  6
CONTINUOUS
 10
100.276024406
 20
197.7670559714
  0
VERTEX
  8
0
 62
7
  6
CONTINUOUS
 10
100.2270931386
 20
197.7979051051
  0
VERTEX
  8
0
 62
7
  6
CONTINUOUS
 10
100.1850667758
 20
197.8313691081
  0
VERTEX
  8
0
 62
7
  6
CONTINUOUS
 10
100.1497231011
 20
197.86750431
  0
VERTEX
  8
0
 62
7
  6
CONTINUOUS
 10
100.1213579577
 20
197.9062675517
  0
VERTEX
  8
0
 62
7
  6
CONTINUOUS
 10
100.10078166
 20
197.9475411514
  0
VERTEX
  8
0
 62
7
  6
CONTINUOUS
 10
100.0895986328
 20
197.9905384875
  0
VERTEX
  8
0
 62
7
  6
CONTINUOUS
 10
100.0881086206
 20
198.0117773907
  0
SEQEND
  0
LINE
  8
0
 62
7
  6
CONTINUOUS
 10
101.7027722397
 20
197.6357901214
 11
101.4197580706
 21
197.6333480668
  0
LINE
  8
0
 62
7
  6
CONTINUOUS
 10
56.3118516006
 20
197.8072184044
 11
56.5948733373
 21
197.8096343788
  0
LINE
  8
0
 62
7
  6
CONTINUOUS
 10
101.7027722397
 20
197.6357901214
 11
107.2508731802
 21
197.6363464983
  0
LINE
  8
0
 62
7
  6
CONTINUOUS
 10
50.767763475
 20
197.806682812
 11
56.3118516006
 21
197.8072184044
  0
LINE
  8
0
 62
7
  6
CONTINUOUS
 10
50.7666815236
 20
197.8067421202
 11
50.7677014635
 21
197.806682815
  0
LINE
  8
0
 62
7
  6
CONTINUOUS
 10
107.2509052932
 20
197.6363464983
 11
107.2519133304
 21
197.6362871722
  0
LINE
  8
0
 62
6
  6
CONTINUOUS
 10
45.1093028155
 20
201.9215146552
 11
100.0877866243
 21
201.9215146552
  0
LINE
  8
0
 62
7
  6
CONTINUOUS
 10
111.5437306807
 20
196.564142569
 11
111.4390051357
 21
196.5800449433
  0
POLYLINE
  8
0
 62
7
  6
CONTINUOUS
 66
1
 70
0
  0
VERTEX
  8
0
 62
7
  6
CONTINUOUS
 10
111.4480641746
 20
196.5759848722
  0
VERTEX
  8
0
 62
7
  6
CONTINUOUS
 10
111.0448174352
 20
196.7567115993
  0
VERTEX
  8
0
 62
7
  6
CONTINUOUS
 10
110.578966704
 20
196.9317054171
  0
VERTEX
  8
0
 62
7
  6
CONTINUOUS
 10
110.0771161839
 20
197.0904033701
  0
VERTEX
  8
0
 62
7
  6
CONTINUOUS
 10
109.5435683505
 20
197.2330361458
  0
VERTEX
  8
0
 62
7
  6
CONTINUOUS
 10
108.9829825196
 20
197.3596500457
  0
VERTEX
  8
0
 62
7
  6
CONTINUOUS
 10
108.4001953846
 20
197.4702606565
  0
VERTEX
  8
0
 62
7
  6
CONTINUOUS
 10
107.8002137962
 20
197.5649101163
  0
VERTEX
  8
0
 62
7
  6
CONTINUOUS
 10
107.2519234518
 20
197.636287223
  0
SEQEND
  0
POLYLINE
  8
0
 62
7
  6
CONTINUOUS
 66
1
 70
0
  0
VERTEX
  8
0
 62
7
  6
CONTINUOUS
 10
107.2519133304
 20
197.6362871722
  0
VERTEX
  8
0
 62
7
  6
CONTINUOUS
 10
107.2605102284
 20
197.6304754718
  0
VERTEX
  8
0
 62
7
  6
CONTINUOUS
 10
107.2693035468
 20
197.6113887189
  0
VERTEX
  8
0
 62
7
  6
CONTINUOUS
 10
107.2760319896
 20
197.5801874718
  0
VERTEX
  8
0
 62
7
  6
CONTINUOUS
 10
107.2803516929
 20
197.5388689259
  0
VERTEX
  8
0
 62
7
  6
CONTINUOUS
 10
107.2821405796
 20
197.4901725798
  0
VERTEX
  8
0
 62
7
  6
CONTINUOUS
 10
107.2815808922
 20
197.4363464983
  0
SEQEND
  0
POLYLINE
  8
0
 62
7
  6
CONTINUOUS
 66
1
 70
0
  0
VERTEX
  8
0
 62
7
  6
CONTINUOUS
 10
107.2465517523
 20
55.0215146552
  0
VERTEX
  8
0
 62
7
  6
CONTINUOUS
 10
107.2543144925
 20
55.0264395261
  0
VERTEX
  8
0
 62
7
  6
CONTINUOUS
 10
107.2616946199
 20
55.0410240408
  0
VERTEX
  8
0
 62
7
  6
CONTINUOUS
 10
107.268328813
 20
55.0646325022
  0
VERTEX
  8
0
 62
7
  6
CONTINUOUS
 10
107.273884882
 20
55.0961709517
  0
VERTEX
  8
0
 62
7
  6
CONTINUOUS
 10
107.2780790653
 20
55.1341221362
  0
VERTEX
  8
0
 62
7
  6
CONTINUOUS
 10
107.280691976
 20
55.1766132608
  0
VERTEX
  8
0
 62
7
  6
CONTINUOUS
 10
107.2815808922
 20
55.2215146552
  0
SEQEND
  0
POLYLINE
  8
0
 62
7
  6
CONTINUOUS
 66
1
 70
0
  0
VERTEX
  8
0
 62
7
  6
CONTINUOUS
 10
45.3091107717
 20
206.0215143393
  0
VERTEX
  8
0
 62
7
  6
CONTINUOUS
 10
45.2646945156
 20
206.0164752792
  0
VERTEX
  8
0
 62
7
  6
CONTINUOUS
 10
45.2225119008
 20
206.0016998246
  0
VERTEX
  8
0
 62
7
  6
CONTINUOUS
 10
45.18466174
 20
205.977924267
  0
VERTEX
  8
0
 62
7
  6
CONTINUOUS
 10
45.1530362273
 20
205.9463358148
  0
VERTEX
  8
0
 62
7
  6
CONTINUOUS
 10
45.129215437
 20
205.9085117949
  0
VERTEX
  8
0
 62
7
  6
CONTINUOUS
 10
45.1143898732
 20
205.8663419993
  0
VERTEX
  8
0
 62
7
  6
CONTINUOUS
 10
45.10929957
 20
205.8215054764
  0
SEQEND
  0
LINE
  8
0
 62
7
  6
CONTINUOUS
 10
45.3092323898
 20
206.0215146552
 11
99.8879053368
 21
206.0215146552
  0
LINE
  8
0
 62
7
  6
CONTINUOUS
 10
158.0208836207
 20
55.0215146552
 11
172.8208836207
 21
55.0215146552
  0
POLYLINE
  8
0
 62
7
  6
CONTINUOUS
 66
1
 70
0
  0
VERTEX
  8
0
 62
7
  6
CONTINUOUS
 10
166.0211865432
 20
55.0215146552
  0
VERTEX
  8
0
 62
7
  6
CONTINUOUS
 10
165.8647046632
 20
55.0338300517
  0
VERTEX
  8
0
 62
7
  6
CONTINUOUS
 10
165.7120758874
 20
55.0704729934
  0
VERTEX
  8
0
 62
7
  6
CONTINUOUS
 10
165.5670584617
 20
55.1305411979
  0
VERTEX
  8
0
 62
7
  6
CONTINUOUS
 10
165.4332232122
 20
55.2125555626
  0
VERTEX
  8
0
 62
7
  6
CONTINUOUS
 10
165.3138655824
 20
55.3144966169
  0
VERTEX
  8
0
 62
7
  6
CONTINUOUS
 10
165.2119245281
 20
55.4338542467
  0
VERTEX
  8
0
 62
7
  6
CONTINUOUS
 10
165.1299101634
 20
55.5676894962
  0
VERTEX
  8
0
 62
7
  6
CONTINUOUS
 10
165.0698419589
 20
55.7127069218
  0
VERTEX
  8
0
 62
7
  6
CONTINUOUS
 10
165.0331990172
 20
55.8653356977
  0
VERTEX
  8
0
 62
7
  6
CONTINUOUS
 10
165.0208836207
 20
56.021820527
  0
SEQEND
  0
LINE
  8
0
 62
7
  6
CONTINUOUS
 10
157.0708836207
 20
59.6600209909
 11
157.0208836207
 21
59.6565246504
  0
LINE
  8
0
 62
7
  6
CONTINUOUS
 10
157.0309745526
 20
66.2030688911
 11
159.1677796192
 21
66.1284500139
  0
LINE
  8
0
 62
7
  6
CONTINUOUS
 10
158.2764451149
 20
65.3211562143
 11
169.0799245772
 21
64.4576219635
  0
LINE
  8
0
 62
7
  6
CONTINUOUS
 10
159.7855604094
 20
65.8321040495
 11
160.9435355351
 21
65.7356223919
  0
LINE
  8
0
 62
7
  6
CONTINUOUS
 10
160.9435355351
 20
65.7356223919
 11
162.211499847
 21
65.6283243997
  0
POLYLINE
  8
0
 62
7
  6
CONTINUOUS
 66
1
 70
0
  0
VERTEX
  8
0
 62
7
  6
CONTINUOUS
 10
162.211499847
 20
65.6283243997
  0
VERTEX
  8
0
 62
7
  6
CONTINUOUS
 10
163.5552264189
 20
65.5125924364
  0
VERTEX
  8
0
 62
7
  6
CONTINUOUS
 10
164.2441837361
 20
65.452468763
  0
SEQEND
  0
POLYLINE
  8
0
 62
7
  6
CONTINUOUS
 66
1
 70
0
  0
VERTEX
  8
0
 62
7
  6
CONTINUOUS
 10
165.7393830144
 20
64.724635209
  0
VERTEX
  8
0
 62
7
  6
CONTINUOUS
 10
165.7785932424
 20
64.7196471148
  0
VERTEX
  8
0
 62
7
  6
CONTINUOUS
 10
165.8262739934
 20
64.7085163436
  0
VERTEX
  8
0
 62
7
  6
CONTINUOUS
 10
165.8571343671
 20
64.69831212
  0
SEQEND
  0
POLYLINE
  8
0
 62
7
  6
CONTINUOUS
 66
1
 70
0
  0
VERTEX
  8
0
 62
7
  6
CONTINUOUS
 10
159.1677750248
 20
66.1284501858
  0
VERTEX
  8
0
 62
7
  6
CONTINUOUS
 10
159.2558233909
 20
66.1159534851
  0
VERTEX
  8
0
 62
7
  6
CONTINUOUS
 10
159.3147675883
 20
66.0976480828
  0
SEQEND
  0
LINE
  8
0
 62
7
  6
CONTINUOUS
 10
169.1774852725
 20
64.439962531
 11
172.7659239423
 21
63.4143824383
  0
POLYLINE
  8
0
 62
7
  6
CONTINUOUS
 66
1
 70
0
  0
VERTEX
  8
0
 62
7
  6
CONTINUOUS
 10
159.3147675883
 20
66.0976480828
  0
VERTEX
  8
0
 62
7
  6
CONTINUOUS
 10
159.3396426814
 20
66.0878521736
  0
VERTEX
  8
0
 62
7
  6
CONTINUOUS
 10
159.4162259387
 20
66.0498389347
  0
VERTEX
  8
0
 62
7
  6
CONTINUOUS
 10
159.4848256775
 20
66.0072376232
  0
VERTEX
  8
0
 62
7
  6
CONTINUOUS
 10
159.5456320478
 20
65.9645061718
  0
VERTEX
  8
0
 62
7
  6
CONTINUOUS
 10
159.6005410177
 20
65.9242125728
  0
VERTEX
  8
0
 62
7
  6
CONTINUOUS
 10
159.6507356403
 20
65.8888418805
  0
VERTEX
  8
0
 62
7
  6
CONTINUOUS
 10
159.6971622256
 20
65.8606872282
  0
VERTEX
  8
0
 62
7
  6
CONTINUOUS
 10
159.741526801
 20
65.8412935842
  0
VERTEX
  8
0
 62
7
  6
CONTINUOUS
 10
159.7855604094
 20
65.8321040495
  0
SEQEND
  0
LINE
  8
0
 62
7
  6
CONTINUOUS
 10
157.9412066195
 20
69.6950771064
 11
169.0799245772
 21
70.5854073468
  0
LINE
  8
0
 62
7
  6
CONTINUOUS
 10
167.2103073053
 20
73.3421396552
 11
167.5584503977
 21
73.3421396552
  0
LINE
  8
0
 62
7
  6
CONTINUOUS
 10
166.779891265
 20
73.499639505
 11
167.1280343573
 21
73.499639505
  0
LINE
  8
0
 62
7
  6
CONTINUOUS
 10
166.5824631758
 20
73.6515146552
 11
166.3702409182
 21
73.6515146552
  0
LINE
  8
0
 62
7
  6
CONTINUOUS
 10
165.8571092511
 20
64.6983213907
 11
165.9141971229
 21
64.6731523541
  0
POLYLINE
  8
0
 62
7
  6
CONTINUOUS
 66
1
 70
0
  0
VERTEX
  8
0
 62
7
  6
CONTINUOUS
 10
159.3147850055
 20
66.0977329229
  0
VERTEX
  8
0
 62
7
  6
CONTINUOUS
 10
159.3973920433
 20
66.058047133
  0
VERTEX
  8
0
 62
7
  6
CONTINUOUS
 10
159.4654042016
 20
66.0091316748
  0
VERTEX
  8
0
 62
7
  6
CONTINUOUS
 10
159.5242946798
 20
65.9495473023
  0
VERTEX
  8
0
 62
7
  6
CONTINUOUS
 10
159.5724101695
 20
65.8809667753
  0
VERTEX
  8
0
 62
7
  6
CONTINUOUS
 10
159.6083998741
 20
65.8053154272
  0
SEQEND
  0
LINE
  8
0
 62
7
  6
CONTINUOUS
 10
165.9141971232
 20
187.9698769564
 11
165.8571092512
 21
187.9447079196
  0
LINE
  8
0
 62
7
  6
CONTINUOUS
 10
169.1774852725
 20
188.2030667793
 11
172.7659239423
 21
189.2286468721
  0
LINE
  8
0
 62
7
  6
CONTINUOUS
 10
166.5824631758
 20
74.1915146552
 11
166.3702409182
 21
74.1915146552
  0
LINE
  8
0
 62
7
  6
CONTINUOUS
 10
166.2815148072
 20
74.5233896552
 11
166.779891265
 21
74.5233896552
  0
LINE
  8
0
 62
7
  6
CONTINUOUS
 10
166.9158120998
 20
74.5233896552
 11
167.2103073053
 21
74.5233896552
  0
LINE
  8
0
 62
7
  6
CONTINUOUS
 10
167.5584503977
 20
74.7596396552
 11
166.2815148072
 21
74.7596396552
  0
LINE
  8
0
 62
7
  6
CONTINUOUS
 10
166.5307030361
 20
75.0746395801
 11
166.8561926559
 21
75.0746395801
  0
LINE
  8
0
 62
7
  6
CONTINUOUS
 10
166.9468065775
 20
75.1533897303
 11
166.73458432
 21
75.1533897303
  0
LINE
  8
0
 62
7
  6
CONTINUOUS
 10
167.3092622005
 20
75.1927645801
 11
167.097039943
 21
75.1927645801
  0
LINE
  8
0
 62
7
  6
CONTINUOUS
 10
167.3772226179
 20
75.2321396552
 11
167.1650003604
 21
75.2321396552
  0
LINE
  8
0
 62
7
  6
CONTINUOUS
 10
167.0374204674
 20
75.3108895801
 11
166.8251982099
 21
75.3108895801
  0
LINE
  8
0
 62
7
  6
CONTINUOUS
 10
166.6213169259
 20
75.3108895801
 11
166.5533565085
 21
75.3108895801
  0
LINE
  8
0
 62
7
  6
CONTINUOUS
 10
167.4678365078
 20
75.3502646552
 11
167.2556142503
 21
75.3502646552
  0
LINE
  8
0
 62
7
  6
CONTINUOUS
 10
166.6892773751
 20
75.3896397303
 11
166.4853960911
 21
75.3896397303
  0
LINE
  8
0
 62
7
  6
CONTINUOUS
 10
167.0827274123
 20
75.4683896552
 11
166.8705051548
 21
75.4683896552
  0
LINE
  8
0
 62
7
  6
CONTINUOUS
 10
167.5357969252
 20
75.5077647303
 11
167.3235746677
 21
75.5077647303
  0
LINE
  8
0
 62
7
  6
CONTINUOUS
 10
166.6523113878
 20
75.5077647303
 11
166.4400891303
 21
75.5077647303
  0
LINE
  8
0
 62
7
  6
CONTINUOUS
 10
167.1053808848
 20
75.6652645801
 11
166.8931586273
 21
75.6652645801
  0
LINE
  8
0
 62
7
  6
CONTINUOUS
 10
166.6296579154
 20
75.6652645801
 11
166.4174356578
 21
75.6652645801
  0
LINE
  8
0
 62
7
  6
CONTINUOUS
 10
167.5584503977
 20
75.7046396552
 11
167.3462281402
 21
75.7046396552
  0
LINE
  8
0
 62
7
  6
CONTINUOUS
 10
167.5584503977
 20
75.9015145801
 11
167.3462281402
 21
75.9015145801
  0
LINE
  8
0
 62
7
  6
CONTINUOUS
 10
167.1053808848
 20
75.9015145801
 11
166.8931586273
 21
75.9015145801
  0
LINE
  8
0
 62
7
  6
CONTINUOUS
 10
166.6296579154
 20
75.9802647303
 11
166.4174356578
 21
75.9802647303
  0
LINE
  8
0
 62
7
  6
CONTINUOUS
 10
167.1280343573
 20
76.0196395801
 11
166.9158120998
 21
76.0196395801
  0
LINE
  8
0
 62
7
  6
CONTINUOUS
 10
167.5357969252
 20
76.0590146552
 11
167.3235746677
 21
76.0590146552
  0
LINE
  8
0
 62
7
  6
CONTINUOUS
 10
167.1423468879
 20
76.1377645801
 11
166.9611190447
 21
76.1377645801
  0
LINE
  8
0
 62
7
  6
CONTINUOUS
 10
166.6523113878
 20
76.1377645801
 11
166.4400891303
 21
76.1377645801
  0
LINE
  8
0
 62
7
  6
CONTINUOUS
 10
167.0290794621
 20
76.1771396552
 11
167.0743864071
 21
76.1771396552
  0
LINE
  8
0
 62
7
  6
CONTINUOUS
 10
167.4904899803
 20
76.2165147303
 11
167.2782677227
 21
76.2165147303
  0
LINE
  8
0
 62
7
  6
CONTINUOUS
 10
166.7202718211
 20
76.2558895801
 11
166.5080495636
 21
76.2558895801
  0
LINE
  8
0
 62
7
  6
CONTINUOUS
 10
166.7882322385
 20
76.2952646552
 11
166.576009981
 21
76.2952646552
  0
LINE
  8
0
 62
7
  6
CONTINUOUS
 10
167.3998760904
 20
76.3740145801
 11
167.1876538329
 21
76.3740145801
  0
LINE
  8
0
 62
7
  6
CONTINUOUS
 10
167.3092622005
 20
76.4133896552
 11
167.0064259897
 21
76.4133896552
  0
LINE
  8
0
 62
7
  6
CONTINUOUS
 10
166.7882322385
 20
76.5315146552
 11
166.576009981
 21
76.5315146552
  0
LINE
  8
0
 62
7
  6
CONTINUOUS
 10
166.2815148072
 20
76.8465146927
 11
167.5584503977
 21
76.8465146927
  0
LINE
  8
0
 62
7
  6
CONTINUOUS
 10
167.5584503977
 20
77.0827646927
 11
166.4400891303
 21
77.0827646927
  0
LINE
  8
0
 62
7
  6
CONTINUOUS
 10
167.5584503977
 20
78.0671396552
 11
167.3462281402
 21
78.0671396552
  0
LINE
  8
0
 62
7
  6
CONTINUOUS
 10
166.2815148072
 20
78.1852646552
 11
167.2103073053
 21
78.1852646552
  0
LINE
  8
0
 62
7
  6
CONTINUOUS
 10
167.5584503977
 20
78.4215146552
 11
166.2815148072
 21
78.4215146552
  0
POLYLINE
  8
0
 62
7
  6
CONTINUOUS
 66
1
 70
0
  0
VERTEX
  8
0
 62
7
  6
CONTINUOUS
 10
165.9141971229
 20
64.6731523541
  0
VERTEX
  8
0
 62
7
  6
CONTINUOUS
 10
165.9846721681
 20
64.6305220049
  0
VERTEX
  8
0
 62
7
  6
CONTINUOUS
 10
166.0548935226
 20
64.5745739838
  0
VERTEX
  8
0
 62
7
  6
CONTINUOUS
 10
166.1062318239
 20
64.5243069022
  0
SEQEND
  0
LINE
  8
0
 62
7
  6
CONTINUOUS
 10
165.9846721681
 20
188.0125073054
 11
165.9141971232
 21
187.9698769564
  0
LINE
  8
0
 62
7
  6
CONTINUOUS
 10
157.9412066195
 20
82.1479522039
 11
169.0799245772
 21
81.2576219635
  0
LINE
  8
0
 62
7
  6
CONTINUOUS
 10
167.1876538329
 20
76.3740145801
 11
167.097039943
 21
76.4133896552
  0
LINE
  8
0
 62
7
  6
CONTINUOUS
 10
167.3998760904
 20
76.3740145801
 11
167.3092622005
 21
76.4133896552
  0
POLYLINE
  8
0
 62
7
  6
CONTINUOUS
 66
1
 70
0
  0
VERTEX
  8
0
 62
7
  6
CONTINUOUS
 10
157.3474988047
 20
66.0201427338
  0
VERTEX
  8
0
 62
7
  6
CONTINUOUS
 10
157.3089780333
 20
66.0676226884
  0
VERTEX
  8
0
 62
7
  6
CONTINUOUS
 10
157.2601972058
 20
66.1255003578
  0
VERTEX
  8
0
 62
7
  6
CONTINUOUS
 10
157.2205408913
 20
66.1663657014
  0
VERTEX
  8
0
 62
7
  6
CONTINUOUS
 10
157.188464421
 20
66.1902811446
  0
VERTEX
  8
0
 62
7
  6
CONTINUOUS
 10
157.1626040863
 20
66.1984697569
  0
SEQEND
  0
LINE
  8
0
 62
7
  6
CONTINUOUS
 10
157.9412066195
 20
86.4950771064
 11
169.0799245772
 21
87.3854073468
  0
LINE
  8
0
 62
7
  6
CONTINUOUS
 10
169.1774852725
 20
81.239962531
 11
172.7659239423
 21
80.2143824383
  0
LINE
  8
0
 62
7
  6
CONTINUOUS
 10
165.8571092511
 20
81.4983213907
 11
165.9141971229
 21
81.4731523541
  0
LINE
  8
0
 62
7
  6
CONTINUOUS
 10
167.0743864071
 20
76.1771396552
 11
167.1423468879
 21
76.1377645801
  0
POLYLINE
  8
0
 62
7
  6
CONTINUOUS
 66
1
 70
0
  0
VERTEX
  8
0
 62
7
  6
CONTINUOUS
 10
165.9141971229
 20
81.4731523541
  0
VERTEX
  8
0
 62
7
  6
CONTINUOUS
 10
165.9846721681
 20
81.4305220049
  0
VERTEX
  8
0
 62
7
  6
CONTINUOUS
 10
166.0548935226
 20
81.3745739838
  0
VERTEX
  8
0
 62
7
  6
CONTINUOUS
 10
166.1062318239
 20
81.3243069022
  0
SEQEND
  0
LINE
  8
0
 62
7
  6
CONTINUOUS
 10
166.1061335003
 20
64.5244114677
 11
166.1062318239
 21
64.5243069022
  0
POLYLINE
  8
0
 62
7
  6
CONTINUOUS
 66
1
 70
0
  0
VERTEX
  8
0
 62
7
  6
CONTINUOUS
 10
157.3475036232
 20
66.0201367899
  0
VERTEX
  8
0
 62
7
  6
CONTINUOUS
 10
157.3965613352
 20
65.9473958538
  0
VERTEX
  8
0
 62
7
  6
CONTINUOUS
 10
157.4134375847
 20
65.9140144605
  0
SEQEND
  0
LINE
  8
0
 62
7
  6
CONTINUOUS
 10
166.1061335014
 20
188.1186178438
 11
166.1062318231
 21
188.1187224073
  0
POLYLINE
  8
0
 62
7
  6
CONTINUOUS
 66
1
 70
0
  0
VERTEX
  8
0
 62
7
  6
CONTINUOUS
 10
166.1062318231
 20
188.1187224073
  0
VERTEX
  8
0
 62
7
  6
CONTINUOUS
 10
166.0548935227
 20
188.0684553267
  0
VERTEX
  8
0
 62
7
  6
CONTINUOUS
 10
165.9846721681
 20
188.0125073054
  0
SEQEND
  0
LINE
  8
0
 62
7
  6
CONTINUOUS
 10
165.9141971232
 20
171.1698769564
 11
165.8571092512
 21
171.1447079196
  0
LINE
  8
0
 62
7
  6
CONTINUOUS
 10
169.1774852725
 20
171.4030667793
 11
172.7659239423
 21
172.4286468721
  0
LINE
  8
0
 62
7
  6
CONTINUOUS
 10
166.8138714737
 20
92.3965146552
 11
167.913354842
 21
92.3965146552
  0
LINE
  8
0
 62
7
  6
CONTINUOUS
 10
167.913354842
 20
92.7090146552
 11
167.7011325845
 21
92.7090146552
  0
LINE
  8
0
 62
7
  6
CONTINUOUS
 10
167.5501094347
 20
92.7090146552
 11
166.8138714737
 21
92.7090146552
  0
LINE
  8
0
 62
7
  6
CONTINUOUS
 10
167.7812095859
 20
93.0215146552
 11
167.4179641257
 21
93.0215146552
  0
LINE
  8
0
 62
7
  6
CONTINUOUS
 10
166.4400891303
 20
75.1533897303
 11
166.5307030361
 21
75.0746395801
  0
LINE
  8
0
 62
7
  6
CONTINUOUS
 10
166.1061335029
 20
64.5244114702
 11
166.1501160754
 21
64.4699206698
  0
POLYLINE
  8
0
 62
7
  6
CONTINUOUS
 66
1
 70
0
  0
VERTEX
  8
0
 62
7
  6
CONTINUOUS
 10
157.4134375158
 20
65.9140144286
  0
VERTEX
  8
0
 62
7
  6
CONTINUOUS
 10
157.4554576749
 20
65.832666341
  0
VERTEX
  8
0
 62
7
  6
CONTINUOUS
 10
157.5377728163
 20
65.7113639601
  0
VERTEX
  8
0
 62
7
  6
CONTINUOUS
 10
157.6376719921
 20
65.6024551047
  0
VERTEX
  8
0
 62
7
  6
CONTINUOUS
 10
157.7532397385
 20
65.5083873207
  0
VERTEX
  8
0
 62
7
  6
CONTINUOUS
 10
157.8822646626
 20
65.4312862447
  0
VERTEX
  8
0
 62
7
  6
CONTINUOUS
 10
158.0221511122
 20
65.3730112332
  0
VERTEX
  8
0
 62
7
  6
CONTINUOUS
 10
158.1700984597
 20
65.335029093
  0
VERTEX
  8
0
 62
7
  6
CONTINUOUS
 10
158.2766107025
 20
65.3211444016
  0
SEQEND
  0
LINE
  8
0
 62
7
  6
CONTINUOUS
 10
165.9846721681
 20
171.2125073054
 11
165.9141971232
 21
171.1698769564
  0
LINE
  8
0
 62
7
  6
CONTINUOUS
 10
157.9412066195
 20
98.9479522039
 11
169.0799245772
 21
98.0576219635
  0
LINE
  8
0
 62
7
  6
CONTINUOUS
 10
166.1061335003
 20
81.3244114677
 11
166.1062318239
 21
81.3243069022
  0
LINE
  8
0
 62
7
  6
CONTINUOUS
 10
166.5533565085
 20
75.3108895801
 11
166.4853960911
 21
75.3896397303
  0
LINE
  8
0
 62
7
  6
CONTINUOUS
 10
166.1501160754
 20
64.4699206698
 11
166.1951012505
 21
64.3886916339
  0
POLYLINE
  8
0
 62
7
  6
CONTINUOUS
 66
1
 70
0
  0
VERTEX
  8
0
 62
7
  6
CONTINUOUS
 10
166.1951012517
 20
188.2543376793
  0
VERTEX
  8
0
 62
7
  6
CONTINUOUS
 10
166.1501160767
 20
188.1731086426
  0
VERTEX
  8
0
 62
7
  6
CONTINUOUS
 10
166.106133504
 20
188.1186178413
  0
SEQEND
  0
LINE
  8
0
 62
7
  6
CONTINUOUS
 10
166.1061335014
 20
171.3186178438
 11
166.1062318231
 21
171.3187224073
  0
POLYLINE
  8
0
 62
7
  6
CONTINUOUS
 66
1
 70
0
  0
VERTEX
  8
0
 62
7
  6
CONTINUOUS
 10
166.1062318231
 20
171.3187224073
  0
VERTEX
  8
0
 62
7
  6
CONTINUOUS
 10
166.0548935227
 20
171.2684553267
  0
VERTEX
  8
0
 62
7
  6
CONTINUOUS
 10
165.9846721681
 20
171.2125073054
  0
SEQEND
  0
LINE
  8
0
 62
7
  6
CONTINUOUS
 10
157.9412066195
 20
103.2950771064
 11
169.0799245772
 21
104.1854073468
  0
LINE
  8
0
 62
7
  6
CONTINUOUS
 10
169.1774852725
 20
98.039962531
 11
172.7659239423
 21
97.0143824383
  0
LINE
  8
0
 62
7
  6
CONTINUOUS
 10
165.8571092511
 20
98.2983213907
 11
165.9141971229
 21
98.2731523541
  0
POLYLINE
  8
0
 62
7
  6
CONTINUOUS
 66
1
 70
0
  0
VERTEX
  8
0
 62
7
  6
CONTINUOUS
 10
165.9141971229
 20
98.2731523541
  0
VERTEX
  8
0
 62
7
  6
CONTINUOUS
 10
165.9846721681
 20
98.2305220049
  0
VERTEX
  8
0
 62
7
  6
CONTINUOUS
 10
166.0548935226
 20
98.1745739838
  0
VERTEX
  8
0
 62
7
  6
CONTINUOUS
 10
166.1062318239
 20
98.1243069022
  0
SEQEND
  0
LINE
  8
0
 62
7
  6
CONTINUOUS
 10
166.1061335029
 20
81.3244114702
 11
166.1501160754
 21
81.2699206698
  0
LINE
  8
0
 62
7
  6
CONTINUOUS
 10
166.3494752325
 20
75.3108895801
 11
166.4400891303
 21
75.1533897303
  0
POLYLINE
  8
0
 62
7
  6
CONTINUOUS
 66
1
 70
0
  0
VERTEX
  8
0
 62
7
  6
CONTINUOUS
 10
159.6083998741
 20
65.8053154272
  0
VERTEX
  8
0
 62
7
  6
CONTINUOUS
 10
159.6350459049
 20
65.7258111855
  0
VERTEX
  8
0
 62
7
  6
CONTINUOUS
 10
159.6863435122
 20
65.6160002153
  0
VERTEX
  8
0
 62
7
  6
CONTINUOUS
 10
159.7582095345
 20
65.5106485004
  0
VERTEX
  8
0
 62
7
  6
CONTINUOUS
 10
159.8504868158
 20
65.4130462968
  0
VERTEX
  8
0
 62
7
  6
CONTINUOUS
 10
159.9617267094
 20
65.3266507602
  0
VERTEX
  8
0
 62
7
  6
CONTINUOUS
 10
160.0903221691
 20
65.2539418337
  0
VERTEX
  8
0
 62
7
  6
CONTINUOUS
 10
160.2342766282
 20
65.19710737
  0
VERTEX
  8
0
 62
7
  6
CONTINUOUS
 10
160.391393148
 20
65.1581969508
  0
VERTEX
  8
0
 62
7
  6
CONTINUOUS
 10
160.5150172277
 20
65.142222516
  0
SEQEND
  0
LINE
  8
0
 62
7
  6
CONTINUOUS
 10
165.9141971232
 20
154.3698769564
 11
165.8571092512
 21
154.3447079196
  0
LINE
  8
0
 62
7
  6
CONTINUOUS
 10
169.1774852725
 20
154.6030667793
 11
172.7659239423
 21
155.6286468721
  0
LINE
  8
0
 62
7
  6
CONTINUOUS
 10
166.1061335003
 20
98.1244114677
 11
166.1062318239
 21
98.1243069022
  0
LINE
  8
0
 62
7
  6
CONTINUOUS
 10
167.2782677227
 20
76.2165147303
 11
167.1876538329
 21
76.3740145801
  0
LINE
  8
0
 62
7
  6
CONTINUOUS
 10
167.4904899803
 20
76.2165147303
 11
167.3998760904
 21
76.3740145801
  0
LINE
  8
0
 62
7
  6
CONTINUOUS
 10
166.1501160754
 20
81.2699206698
 11
166.1951012505
 21
81.1886916339
  0
LINE
  8
0
 62
7
  6
CONTINUOUS
 10
166.1951012505
 20
64.3886916339
 11
166.223736263
 21
64.3071078846
  0
LINE
  8
0
 62
2
  6
CONTINUOUS
 10
145.0208836207
 20
118.0215146552
 11
145.0208836207
 21
126.4215146552
  0
LINE
  8
0
 62
7
  6
CONTINUOUS
 10
166.2237362537
 20
188.335921392
 11
166.1951012517
 21
188.2543376793
  0
POLYLINE
  8
0
 62
7
  6
CONTINUOUS
 66
1
 70
0
  0
VERTEX
  8
0
 62
7
  6
CONTINUOUS
 10
166.1951012517
 20
171.4543376793
  0
VERTEX
  8
0
 62
7
  6
CONTINUOUS
 10
166.1501160767
 20
171.3731086426
  0
VERTEX
  8
0
 62
7
  6
CONTINUOUS
 10
166.106133504
 20
171.3186178413
  0
SEQEND
  0
LINE
  8
0
 62
7
  6
CONTINUOUS
 10
166.1061335014
 20
154.5186178438
 11
166.1062318231
 21
154.5187224073
  0
POLYLINE
  8
0
 62
7
  6
CONTINUOUS
 66
1
 70
0
  0
VERTEX
  8
0
 62
7
  6
CONTINUOUS
 10
166.1062318231
 20
154.5187224073
  0
VERTEX
  8
0
 62
7
  6
CONTINUOUS
 10
166.0548935227
 20
154.4684553267
  0
VERTEX
  8
0
 62
7
  6
CONTINUOUS
 10
165.9846721681
 20
154.4125073054
  0
SEQEND
  0
LINE
  8
0
 62
7
  6
CONTINUOUS
 10
165.9846721681
 20
154.4125073054
 11
165.9141971232
 21
154.3698769564
  0
LINE
  8
0
 62
7
  6
CONTINUOUS
 10
157.9412066195
 20
115.7479522039
 11
169.0799245772
 21
114.8576219635
  0
LINE
  8
0
 62
7
  6
CONTINUOUS
 10
166.1061335029
 20
98.1244114702
 11
166.1501160754
 21
98.0699206698
  0
LINE
  8
0
 62
7
  6
CONTINUOUS
 10
166.4853960911
 20
75.3896397303
 11
166.4400891303
 21
75.5077647303
  0
LINE
  8
0
 62
7
  6
CONTINUOUS
 10
166.6934478611
 20
75.400513089
 11
166.6523113878
 21
75.5077647303
  0
LINE
  8
0
 62
7
  6
CONTINUOUS
 10
167.1423468879
 20
76.1377645801
 11
167.1876538329
 21
76.0196395801
  0
LINE
  8
0
 62
7
  6
CONTINUOUS
 10
166.1951012505
 20
81.1886916339
 11
166.223736263
 21
81.1071078846
  0
LINE
  8
0
 62
7
  6
CONTINUOUS
 10
166.2237362537
 20
171.535921392
 11
166.1951012517
 21
171.4543376793
  0
POLYLINE
  8
0
 62
7
  6
CONTINUOUS
 66
1
 70
0
  0
VERTEX
  8
0
 62
7
  6
CONTINUOUS
 10
166.1951012517
 20
154.6543376793
  0
VERTEX
  8
0
 62
7
  6
CONTINUOUS
 10
166.1501160767
 20
154.5731086426
  0
VERTEX
  8
0
 62
7
  6
CONTINUOUS
 10
166.106133504
 20
154.5186178413
  0
SEQEND
  0
LINE
  8
0
 62
7
  6
CONTINUOUS
 10
157.9412066195
 20
120.0950771064
 11
169.0799245772
 21
120.9854073468
  0
LINE
  8
0
 62
2
  6
CONTINUOUS
 10
185.0208836207
 20
118.0215146552
 11
145.0208836207
 21
118.0215146552
  0
LINE
  8
0
 62
7
  6
CONTINUOUS
 10
169.1774852725
 20
114.839962531
 11
172.7659239423
 21
113.8143824383
  0
LINE
  8
0
 62
7
  6
CONTINUOUS
 10
165.8571092511
 20
115.0983213907
 11
165.9141971229
 21
115.0731523541
  0
POLYLINE
  8
0
 62
7
  6
CONTINUOUS
 66
1
 70
0
  0
VERTEX
  8
0
 62
7
  6
CONTINUOUS
 10
165.9141971229
 20
115.0731523541
  0
VERTEX
  8
0
 62
7
  6
CONTINUOUS
 10
165.9846721681
 20
115.0305220049
  0
VERTEX
  8
0
 62
7
  6
CONTINUOUS
 10
166.0548935226
 20
114.9745739838
  0
VERTEX
  8
0
 62
7
  6
CONTINUOUS
 10
166.1062318239
 20
114.9243069022
  0
SEQEND
  0
LINE
  8
0
 62
7
  6
CONTINUOUS
 10
166.1061335003
 20
114.9244114677
 11
166.1062318239
 21
114.9243069022
  0
LINE
  8
0
 62
7
  6
CONTINUOUS
 10
166.1501160754
 20
98.0699206698
 11
166.1951012505
 21
97.9886916339
  0
LINE
  8
0
 62
7
  6
CONTINUOUS
 10
167.4179641257
 20
93.0215146552
 11
167.5501094347
 21
92.7090146552
  0
LINE
  8
0
 62
7
  6
CONTINUOUS
 10
167.7011325845
 20
92.7090146552
 11
167.5689873284
 21
93.0215146552
  0
LINE
  8
0
 62
7
  6
CONTINUOUS
 10
167.913354842
 20
92.7090146552
 11
167.7812095859
 21
93.0215146552
  0
LINE
  8
0
 62
7
  6
CONTINUOUS
 10
166.3041682816
 20
75.4683896552
 11
166.3494752325
 21
75.3108895801
  0
LINE
  8
0
 62
7
  6
CONTINUOUS
 10
167.3235746677
 20
76.0590146552
 11
167.2782677227
 21
76.2165147303
  0
LINE
  8
0
 62
7
  6
CONTINUOUS
 10
167.5357969252
 20
76.0590146552
 11
167.4904899803
 21
76.2165147303
  0
POLYLINE
  8
0
 62
7
  6
CONTINUOUS
 66
1
 70
0
  0
VERTEX
  8
0
 62
7
  6
CONTINUOUS
 10
166.2237364473
 20
64.3071072107
  0
VERTEX
  8
0
 62
7
  6
CONTINUOUS
 10
166.2450102058
 20
64.193540534
  0
VERTEX
  8
0
 62
7
  6
CONTINUOUS
 10
166.2504929176
 20
64.0910856662
  0
SEQEND
  0
POLYLINE
  8
0
 62
7
  6
CONTINUOUS
 66
1
 70
0
  0
VERTEX
  8
0
 62
7
  6
CONTINUOUS
 10
157.3237728907
 20
200.7227638849
  0
VERTEX
  8
0
 62
7
  6
CONTINUOUS
 10
157.3277078631
 20
200.6352925426
  0
VERTEX
  8
0
 62
7
  6
CONTINUOUS
 10
157.3509039618
 20
200.4944284238
  0
VERTEX
  8
0
 62
7
  6
CONTINUOUS
 10
157.3945993852
 20
200.3577674212
  0
VERTEX
  8
0
 62
7
  6
CONTINUOUS
 10
157.4581373388
 20
200.22804563
  0
VERTEX
  8
0
 62
7
  6
CONTINUOUS
 10
157.5404754959
 20
200.1079622632
  0
VERTEX
  8
0
 62
7
  6
CONTINUOUS
 10
157.6402545395
 20
200.0000292487
  0
VERTEX
  8
0
 62
7
  6
CONTINUOUS
 10
157.7557196691
 20
199.9066560202
  0
VERTEX
  8
0
 62
7
  6
CONTINUOUS
 10
157.8845477398
 20
199.830139487
  0
VERTEX
  8
0
 62
7
  6
CONTINUOUS
 10
158.0241087823
 20
199.7723578852
  0
VERTEX
  8
0
 62
7
  6
CONTINUOUS
 10
158.1714785297
 20
199.7347793004
  0
VERTEX
  8
0
 62
7
  6
CONTINUOUS
 10
158.2766332204
 20
199.7211425748
  0
SEQEND
  0
LINE
  8
0
 62
7
  6
CONTINUOUS
 10
157.0208836207
 20
194.6982563726
 11
157.0208836207
 21
192.3447729378
  0
LINE
  8
0
 62
7
  6
CONTINUOUS
 10
157.0208836207
 20
177.8982563726
 11
157.0208836207
 21
175.5447729378
  0
LINE
  8
0
 62
7
  6
CONTINUOUS
 10
157.0208836207
 20
161.0982563726
 11
157.0208836207
 21
158.7447729378
  0
LINE
  8
0
 62
7
  6
CONTINUOUS
 10
157.0208836207
 20
144.2982563726
 11
157.0208836207
 21
141.9447729378
  0
LINE
  8
0
 62
7
  6
CONTINUOUS
 10
157.0208836207
 20
127.4982563726
 11
157.0208836207
 21
125.1447729378
  0
LINE
  8
0
 62
7
  6
CONTINUOUS
 10
157.0208836207
 20
110.6982563726
 11
157.0208836207
 21
108.3447729378
  0
LINE
  8
0
 62
7
  6
CONTINUOUS
 10
157.0208836207
 20
93.8982563726
 11
157.0208836207
 21
91.5447729378
  0
LINE
  8
0
 62
7
  6
CONTINUOUS
 10
157.0208836207
 20
77.0982563726
 11
157.0208836207
 21
74.7447729378
  0
LINE
  8
0
 62
7
  6
CONTINUOUS
 10
157.0208836207
 20
59.6565246504
 11
157.0208836207
 21
56.0215146552
  0
LINE
  8
0
 62
7
  6
CONTINUOUS
 10
157.0208836207
 20
66.3447729378
 11
157.0208836207
 21
68.6982563726
  0
LINE
  8
0
 62
7
  6
CONTINUOUS
 10
157.0208836207
 20
83.1447729378
 11
157.0208836207
 21
85.4982563726
  0
LINE
  8
0
 62
7
  6
CONTINUOUS
 10
157.0208836207
 20
99.9447729378
 11
157.0208836207
 21
102.2982563726
  0
LINE
  8
0
 62
7
  6
CONTINUOUS
 10
157.0208836207
 20
116.7447729378
 11
157.0208836207
 21
119.0982563726
  0
LINE
  8
0
 62
7
  6
CONTINUOUS
 10
157.0208836207
 20
133.5447729378
 11
157.0208836207
 21
135.8982563726
  0
LINE
  8
0
 62
7
  6
CONTINUOUS
 10
157.0208836207
 20
150.3447729378
 11
157.0208836207
 21
152.6982563726
  0
LINE
  8
0
 62
7
  6
CONTINUOUS
 10
157.0208836207
 20
167.1447729378
 11
157.0208836207
 21
169.4982563726
  0
LINE
  8
0
 62
7
  6
CONTINUOUS
 10
157.0208836207
 20
183.9447729378
 11
157.0208836207
 21
186.2982563726
  0
LINE
  8
0
 62
6
  6
CONTINUOUS
 10
157.0208836207
 20
200.7447729378
 11
157.0208836207
 21
201.38650466
  0
LINE
  8
0
 62
7
  6
CONTINUOUS
 10
157.0208836207
 20
201.38650466
 11
157.0208836207
 21
205.0215146552
  0
LINE
  8
0
 62
7
  6
CONTINUOUS
 10
157.0708836207
 20
201.3830083194
 11
157.0708836207
 21
186.5973968621
  0
LINE
  8
0
 62
7
  6
CONTINUOUS
 10
157.0708836207
 20
183.6460525548
 11
157.0708836207
 21
169.7973968621
  0
LINE
  8
0
 62
7
  6
CONTINUOUS
 10
157.0708836207
 20
166.8460525548
 11
157.0708836207
 21
152.9973968621
  0
LINE
  8
0
 62
7
  6
CONTINUOUS
 10
157.0708836207
 20
150.0460525548
 11
157.0708836207
 21
136.1973968621
  0
LINE
  8
0
 62
7
  6
CONTINUOUS
 10
157.0708836207
 20
133.2460525548
 11
157.0708836207
 21
119.3973968621
  0
LINE
  8
0
 62
7
  6
CONTINUOUS
 10
157.0708836207
 20
116.4460525548
 11
157.0708836207
 21
102.5973968621
  0
LINE
  8
0
 62
7
  6
CONTINUOUS
 10
157.0708836207
 20
99.6460525548
 11
157.0708836207
 21
85.7973968621
  0
LINE
  8
0
 62
7
  6
CONTINUOUS
 10
157.0708836207
 20
82.8460525548
 11
157.0708836207
 21
68.9973968621
  0
LINE
  8
0
 62
7
  6
CONTINUOUS
 10
157.0708836207
 20
66.2016752357
 11
157.0708836207
 21
56.0215146552
  0
LINE
  8
0
 62
7
  6
CONTINUOUS
 10
157.3237690366
 20
200.8989044008
 11
157.3237690366
 21
200.7227638848
  0
LINE
  8
0
 62
7
  6
CONTINUOUS
 10
159.5903664064
 20
200.372121366
 11
159.5903664064
 21
200.740441996
  0
LINE
  8
0
 62
7
  6
CONTINUOUS
 10
166.2237362537
 20
154.735921392
 11
166.1951012517
 21
154.6543376793
  0
LINE
  8
0
 62
7
  6
CONTINUOUS
 10
165.9846721681
 20
137.6125073054
 11
165.9141971232
 21
137.5698769564
  0
LINE
  8
0
 62
7
  6
CONTINUOUS
 10
165.9141971232
 20
137.5698769564
 11
165.8571092512
 21
137.5447079196
  0
LINE
  8
0
 62
7
  6
CONTINUOUS
 10
169.1774852725
 20
137.8030667793
 11
172.7659239423
 21
138.8286468721
  0
LINE
  8
0
 62
7
  6
CONTINUOUS
 10
166.1061335029
 20
114.9244114702
 11
166.1501160754
 21
114.8699206698
  0
LINE
  8
0
 62
7
  6
CONTINUOUS
 10
166.1501160754
 20
114.8699206698
 11
166.1951012505
 21
114.7886916339
  0
LINE
  8
0
 62
7
  6
CONTINUOUS
 10
166.1951012505
 20
97.9886916339
 11
166.223736263
 21
97.9071078846
  0
LINE
  8
0
 62
7
  6
CONTINUOUS
 10
167.1876538329
 20
76.0196395801
 11
167.2103073053
 21
75.9015145801
  0
POLYLINE
  8
0
 62
7
  6
CONTINUOUS
 66
1
 70
0
  0
VERTEX
  8
0
 62
7
  6
CONTINUOUS
 10
166.2237364473
 20
81.1071072107
  0
VERTEX
  8
0
 62
7
  6
CONTINUOUS
 10
166.2450102058
 20
80.993540534
  0
VERTEX
  8
0
 62
7
  6
CONTINUOUS
 10
166.2504929176
 20
80.8910856662
  0
SEQEND
  0
POLYLINE
  8
0
 62
7
  6
CONTINUOUS
 66
1
 70
0
  0
VERTEX
  8
0
 62
7
  6
CONTINUOUS
 10
166.2237364473
 20
97.9071072107
  0
VERTEX
  8
0
 62
7
  6
CONTINUOUS
 10
166.2450102058
 20
97.7935405341
  0
VERTEX
  8
0
 62
7
  6
CONTINUOUS
 10
166.2504929176
 20
97.6910856662
  0
SEQEND
  0
LINE
  8
0
 62
7
  6
CONTINUOUS
 10
166.4400891303
 20
75.5077647303
 11
166.4174356578
 21
75.6652645801
  0
LINE
  8
0
 62
7
  6
CONTINUOUS
 10
166.6523113878
 20
75.5077647303
 11
166.6296579154
 21
75.6652645801
  0
LINE
  8
0
 62
7
  6
CONTINUOUS
 10
167.3462281402
 20
75.9015145801
 11
167.3235746677
 21
76.0590146552
  0
LINE
  8
0
 62
7
  6
CONTINUOUS
 10
167.5584503977
 20
75.9015145801
 11
167.5357969252
 21
76.0590146552
  0
LINE
  8
0
 62
7
  6
CONTINUOUS
 10
166.2815148072
 20
75.6652645801
 11
166.3041682816
 21
75.4683896552
  0
POLYLINE
  8
0
 62
7
  6
CONTINUOUS
 66
1
 70
0
  0
VERTEX
  8
0
 62
7
  6
CONTINUOUS
 10
159.5903702912
 20
200.3721213666
  0
VERTEX
  8
0
 62
7
  6
CONTINUOUS
 10
159.5917778828
 20
200.3282758539
  0
VERTEX
  8
0
 62
7
  6
CONTINUOUS
 10
159.6080497648
 20
200.2160916948
  0
VERTEX
  8
0
 62
7
  6
CONTINUOUS
 10
159.6428115872
 20
200.1057954845
  0
VERTEX
  8
0
 62
7
  6
CONTINUOUS
 10
159.6962983792
 20
199.9990209417
  0
VERTEX
  8
0
 62
7
  6
CONTINUOUS
 10
159.7686834217
 20
199.8979004682
  0
VERTEX
  8
0
 62
7
  6
CONTINUOUS
 10
159.860187068
 20
199.8043768259
  0
VERTEX
  8
0
 62
7
  6
CONTINUOUS
 10
159.969914771
 20
199.7212627696
  0
VERTEX
  8
0
 62
7
  6
CONTINUOUS
 10
160.0962137228
 20
199.6511548496
  0
VERTEX
  8
0
 62
7
  6
CONTINUOUS
 10
160.2376608129
 20
199.5960315774
  0
VERTEX
  8
0
 62
7
  6
CONTINUOUS
 10
160.3923349144
 20
199.5580281256
  0
VERTEX
  8
0
 62
7
  6
CONTINUOUS
 10
160.5150638744
 20
199.5422188738
  0
SEQEND
  0
LINE
  8
0
 62
7
  6
CONTINUOUS
 10
165.0209758326
 20
56.0078173253
 11
165.0208836207
 21
56.0213964852
  0
LINE
  8
0
 62
40
  6
CONTINUOUS
 10
165.0208836207
 20
206.2215146552
 11
165.0208836207
 21
206.0217978683
  0
LINE
  8
0
 62
7
  6
CONTINUOUS
 10
165.0208836207
 20
199.1820656674
 11
165.0208836207
 21
187.8609636429
  0
LINE
  8
DEFAULT_1
 62
2
  6
CENTER
 10
165.0208836207
 20
187.8609636429
 11
165.0208836207
 21
182.3820656674
  0
LINE
  8
DEFAULT_1
 62
2
  6
CENTER
 10
165.0208836207
 20
171.0609636429
 11
165.0208836207
 21
165.5820656674
  0
LINE
  8
DEFAULT_1
 62
2
  6
CENTER
 10
165.0208836207
 20
154.2609636429
 11
165.0208836207
 21
148.7820656674
  0
LINE
  8
DEFAULT_1
 62
2
  6
CENTER
 10
165.0208836207
 20
137.4609636429
 11
165.0208836207
 21
131.9820656674
  0
LINE
  8
DEFAULT_1
 62
2
  6
CENTER
 10
165.0208836207
 20
120.6609636429
 11
165.0208836207
 21
115.1820656674
  0
LINE
  8
DEFAULT_1
 62
2
  6
CENTER
 10
165.0208836207
 20
103.8609636429
 11
165.0208836207
 21
98.3820656674
  0
LINE
  8
DEFAULT_1
 62
2
  6
CENTER
 10
165.0208836207
 20
87.0609636429
 11
165.0208836207
 21
81.5820656674
  0
LINE
  8
DEFAULT_1
 62
2
  6
CENTER
 10
165.0208836207
 20
70.2609636429
 11
165.0208836207
 21
64.7820656674
  0
LINE
  8
DEFAULT_1
 62
2
  6
CENTER
 10
165.0208836207
 20
56.0218176294
 11
165.0208836207
 21
53.0215146552
  0
LINE
  8
0
 62
7
  6
CONTINUOUS
 10
165.0208836207
 20
182.3820656674
 11
165.0208836207
 21
171.0609636429
  0
LINE
  8
0
 62
7
  6
CONTINUOUS
 10
165.0208836207
 20
165.5820656674
 11
165.0208836207
 21
154.2609636429
  0
LINE
  8
0
 62
7
  6
CONTINUOUS
 10
165.0208836207
 20
148.7820656674
 11
165.0208836207
 21
137.4609636429
  0
LINE
  8
0
 62
7
  6
CONTINUOUS
 10
165.0208836207
 20
131.9820656674
 11
165.0208836207
 21
120.6609636429
  0
LINE
  8
0
 62
7
  6
CONTINUOUS
 10
165.0208836207
 20
115.1820656674
 11
165.0208836207
 21
103.8609636429
  0
LINE
  8
0
 62
7
  6
CONTINUOUS
 10
165.0208836207
 20
98.3820656674
 11
165.0208836207
 21
87.0609636429
  0
LINE
  8
0
 62
7
  6
CONTINUOUS
 10
165.0208836207
 20
81.5820656674
 11
165.0208836207
 21
70.2609636429
  0
LINE
  8
0
 62
7
  6
CONTINUOUS
 10
165.0208836207
 20
64.7820656674
 11
165.0208836207
 21
56.0218176294
  0
POLYLINE
  8
0
 62
7
  6
CONTINUOUS
 66
1
 70
0
  0
VERTEX
  8
0
 62
7
  6
CONTINUOUS
 10
166.2504929173
 20
188.5519876946
  0
VERTEX
  8
0
 62
7
  6
CONTINUOUS
 10
166.244821341
 20
188.4478021698
  0
VERTEX
  8
0
 62
7
  6
CONTINUOUS
 10
166.2237259741
 20
188.3358838076
  0
SEQEND
  0
POLYLINE
  8
0
 62
7
  6
CONTINUOUS
 66
1
 70
0
  0
VERTEX
  8
0
 62
7
  6
CONTINUOUS
 10
166.2504929173
 20
171.7519876946
  0
VERTEX
  8
0
 62
7
  6
CONTINUOUS
 10
166.244821341
 20
171.6478021698
  0
VERTEX
  8
0
 62
7
  6
CONTINUOUS
 10
166.2237259741
 20
171.5358838076
  0
SEQEND
  0
POLYLINE
  8
0
 62
7
  6
CONTINUOUS
 66
1
 70
0
  0
VERTEX
  8
0
 62
7
  6
CONTINUOUS
 10
166.2504929173
 20
154.9519876946
  0
VERTEX
  8
0
 62
7
  6
CONTINUOUS
 10
166.244821341
 20
154.8478021698
  0
VERTEX
  8
0
 62
7
  6
CONTINUOUS
 10
166.2237259741
 20
154.7358838076
  0
SEQEND
  0
LINE
  8
0
 62
7
  6
CONTINUOUS
 10
166.2237362537
 20
137.935921392
 11
166.1951012517
 21
137.8543376793
  0
POLYLINE
  8
0
 62
7
  6
CONTINUOUS
 66
1
 70
0
  0
VERTEX
  8
0
 62
7
  6
CONTINUOUS
 10
166.1951012517
 20
137.8543376793
  0
VERTEX
  8
0
 62
7
  6
CONTINUOUS
 10
166.1501160767
 20
137.7731086426
  0
VERTEX
  8
0
 62
7
  6
CONTINUOUS
 10
166.106133504
 20
137.7186178413
  0
SEQEND
  0
LINE
  8
0
 62
7
  6
CONTINUOUS
 10
166.1061335014
 20
137.7186178438
 11
166.1062318231
 21
137.7187224073
  0
POLYLINE
  8
0
 62
7
  6
CONTINUOUS
 66
1
 70
0
  0
VERTEX
  8
0
 62
7
  6
CONTINUOUS
 10
166.1062318231
 20
137.7187224073
  0
VERTEX
  8
0
 62
7
  6
CONTINUOUS
 10
166.0548935227
 20
137.6684553267
  0
VERTEX
  8
0
 62
7
  6
CONTINUOUS
 10
165.9846721681
 20
137.6125073054
  0
SEQEND
  0
LINE
  8
0
 62
2
  6
CONTINUOUS
 10
185.4408836207
 20
126.3354146552
 11
145.4408836207
 21
126.3354146552
  0
LINE
  8
0
 62
6
  6
CONTINUOUS
 10
185.0208836207
 20
126.4215146552
 11
173.0208836207
 21
126.4215146552
  0
LINE
  8
0
 62
6
  6
CONTINUOUS
 10
157.0708836207
 20
126.4215146552
 11
145.0208836207
 21
126.4215146552
  0
LINE
  8
0
 62
40
  6
CONTINUOUS
 10
157.0708836207
 20
126.4215146552
 11
168.924448877
 21
126.4215146552
  0
LINE
  8
DEFAULT_1
 62
40
  6
CENTER
 10
168.924448877
 20
126.4215146552
 11
173.0208836207
 21
126.4215146552
  0
LINE
  8
0
 62
40
  6
CONTINUOUS
 10
165.0208836207
 20
130.5215146552
 11
172.9408837731
 21
130.5215146552
  0
LINE
  8
0
 62
7
  6
CONTINUOUS
 10
166.1951012505
 20
114.7886916339
 11
166.223736263
 21
114.7071078846
  0
POLYLINE
  8
0
 62
7
  6
CONTINUOUS
 66
1
 70
0
  0
VERTEX
  8
0
 62
7
  6
CONTINUOUS
 10
166.2237364473
 20
114.7071072107
  0
VERTEX
  8
0
 62
7
  6
CONTINUOUS
 10
166.2450102058
 20
114.5935405341
  0
VERTEX
  8
0
 62
7
  6
CONTINUOUS
 10
166.2504929176
 20
114.4910856662
  0
SEQEND
  0
LINE
  8
0
 62
7
  6
CONTINUOUS
 10
166.2504929172
 20
70.9519876664
 11
166.2504929176
 21
70.95191595
  0
LINE
  8
0
 62
7
  6
CONTINUOUS
 10
166.2504929172
 20
87.7519876664
 11
166.2504929176
 21
87.75191595
  0
LINE
  8
0
 62
7
  6
CONTINUOUS
 10
166.2504929172
 20
104.5519876664
 11
166.2504929176
 21
104.55191595
  0
LINE
  8
0
 62
7
  6
CONTINUOUS
 10
166.2504929172
 20
121.3519876664
 11
166.2504929176
 21
121.35191595
  0
LINE
  8
0
 62
7
  6
CONTINUOUS
 10
166.2504929172
 20
138.1519876664
 11
166.2504929176
 21
138.15191595
  0
LINE
  8
0
 62
7
  6
CONTINUOUS
 10
166.2504929172
 20
154.9519876664
 11
166.2504929176
 21
154.95191595
  0
LINE
  8
0
 62
7
  6
CONTINUOUS
 10
166.2504929172
 20
171.7519876664
 11
166.2504929176
 21
171.75191595
  0
LINE
  8
0
 62
7
  6
CONTINUOUS
 10
166.2504929172
 20
188.5519876664
 11
166.2504929176
 21
188.55191595
  0
LINE
  8
0
 62
7
  6
CONTINUOUS
 10
166.2815148072
 20
78.4215146552
 11
166.2815148072
 21
78.1852646552
  0
LINE
  8
0
 62
7
  6
CONTINUOUS
 10
166.2815148072
 20
77.2008896927
 11
166.2815148072
 21
76.8465146927
  0
LINE
  8
0
 62
7
  6
CONTINUOUS
 10
166.2815148072
 20
75.9802647303
 11
166.2815148072
 21
75.6652645801
  0
LINE
  8
0
 62
7
  6
CONTINUOUS
 10
166.2815148072
 20
74.7596396552
 11
166.2815148072
 21
74.5233896552
  0
LINE
  8
0
 62
7
  6
CONTINUOUS
 10
166.4174356578
 20
75.6652645801
 11
166.4174356578
 21
75.9802647303
  0
LINE
  8
0
 62
7
  6
CONTINUOUS
 10
166.576009981
 20
76.2952646552
 11
166.576009981
 21
76.5315146552
  0
LINE
  8
0
 62
7
  6
CONTINUOUS
 10
166.6296579154
 20
75.6652645801
 11
166.6296579154
 21
75.9802647303
  0
LINE
  8
0
 62
7
  6
CONTINUOUS
 10
166.7572377925
 20
75.9015145801
 11
166.7572377925
 21
75.6652645801
  0
LINE
  8
0
 62
7
  6
CONTINUOUS
 10
166.779891265
 20
74.5233896552
 11
166.779891265
 21
73.499639505
  0
LINE
  8
0
 62
7
  6
CONTINUOUS
 10
166.7882322385
 20
76.2952646552
 11
166.7882322385
 21
76.5315146552
  0
LINE
  8
0
 62
7
  6
CONTINUOUS
 10
166.8138714737
 20
92.7090146552
 11
166.8138714737
 21
92.3965146552
  0
LINE
  8
0
 62
7
  6
CONTINUOUS
 10
166.8931586273
 20
75.6652645801
 11
166.8931586273
 21
75.9015145801
  0
LINE
  8
0
 62
7
  6
CONTINUOUS
 10
166.9158120998
 20
73.499639505
 11
166.9158120998
 21
74.5233896552
  0
LINE
  8
0
 62
7
  6
CONTINUOUS
 10
167.097039943
 20
75.4290145801
 11
167.097039943
 21
75.1927645801
  0
LINE
  8
0
 62
7
  6
CONTINUOUS
 10
167.1053808848
 20
75.6652645801
 11
167.1053808848
 21
75.9015145801
  0
LINE
  8
0
 62
7
  6
CONTINUOUS
 10
167.1280343573
 20
73.499639505
 11
167.1280343573
 21
74.5233896552
  0
LINE
  8
0
 62
7
  6
CONTINUOUS
 10
167.2103073053
 20
75.9015145801
 11
167.2103073053
 21
75.6652645801
  0
LINE
  8
0
 62
7
  6
CONTINUOUS
 10
167.2103073053
 20
74.5233896552
 11
167.2103073053
 21
73.3421396552
  0
LINE
  8
0
 62
7
  6
CONTINUOUS
 10
167.3462281402
 20
73.3421396552
 11
167.3462281402
 21
74.7596396552
  0
LINE
  8
0
 62
7
  6
CONTINUOUS
 10
167.3462281402
 20
75.7046396552
 11
167.3462281402
 21
75.9015145801
  0
LINE
  8
0
 62
7
  6
CONTINUOUS
 10
167.3462281402
 20
76.8465146927
 11
167.3462281402
 21
77.0827646927
  0
LINE
  8
0
 62
7
  6
CONTINUOUS
 10
167.3462281402
 20
78.0671396552
 11
167.3462281402
 21
78.4215146552
  0
LINE
  8
0
 62
7
  6
CONTINUOUS
 10
167.5584503977
 20
73.3421396552
 11
167.5584503977
 21
74.7596396552
  0
LINE
  8
0
 62
7
  6
CONTINUOUS
 10
167.5584503977
 20
75.7046396552
 11
167.5584503977
 21
75.9015145801
  0
LINE
  8
0
 62
7
  6
CONTINUOUS
 10
167.5584503977
 20
76.8465146927
 11
167.5584503977
 21
77.0827646927
  0
LINE
  8
0
 62
7
  6
CONTINUOUS
 10
167.5584503977
 20
78.0671396552
 11
167.5584503977
 21
78.4215146552
  0
LINE
  8
0
 62
7
  6
CONTINUOUS
 10
167.7011325845
 20
92.3965146552
 11
167.7011325845
 21
92.7090146552
  0
LINE
  8
0
 62
7
  6
CONTINUOUS
 10
167.913354842
 20
92.3965146552
 11
167.913354842
 21
92.7090146552
  0
POLYLINE
  8
0
 62
7
  6
CONTINUOUS
 66
1
 70
0
  0
VERTEX
  8
0
 62
7
  6
CONTINUOUS
 10
166.2504929173
 20
138.1519876946
  0
VERTEX
  8
0
 62
7
  6
CONTINUOUS
 10
166.244821341
 20
138.0478021698
  0
VERTEX
  8
0
 62
7
  6
CONTINUOUS
 10
166.2237259741
 20
137.9358838076
  0
SEQEND
  0
POLYLINE
  8
0
 62
7
  6
CONTINUOUS
 66
1
 70
0
  0
VERTEX
  8
0
 62
7
  6
CONTINUOUS
 10
166.2504929173
 20
121.3519876946
  0
VERTEX
  8
0
 62
7
  6
CONTINUOUS
 10
166.244821341
 20
121.2478021698
  0
VERTEX
  8
0
 62
7
  6
CONTINUOUS
 10
166.2237259741
 20
121.1358838076
  0
SEQEND
  0
POLYLINE
  8
0
 62
7
  6
CONTINUOUS
 66
1
 70
0
  0
VERTEX
  8
0
 62
7
  6
CONTINUOUS
 10
166.2504929173
 20
104.5519876946
  0
VERTEX
  8
0
 62
7
  6
CONTINUOUS
 10
166.244821341
 20
104.4478021698
  0
VERTEX
  8
0
 62
7
  6
CONTINUOUS
 10
166.2237259741
 20
104.3358838076
  0
SEQEND
  0
POLYLINE
  8
0
 62
7
  6
CONTINUOUS
 66
1
 70
0
  0
VERTEX
  8
0
 62
7
  6
CONTINUOUS
 10
166.2504929173
 20
87.7519876946
  0
VERTEX
  8
0
 62
7
  6
CONTINUOUS
 10
166.244821341
 20
87.6478021698
  0
VERTEX
  8
0
 62
7
  6
CONTINUOUS
 10
166.2237259741
 20
87.5358838076
  0
SEQEND
  0
POLYLINE
  8
0
 62
7
  6
CONTINUOUS
 66
1
 70
0
  0
VERTEX
  8
0
 62
7
  6
CONTINUOUS
 10
166.2504929173
 20
70.9519876946
  0
VERTEX
  8
0
 62
7
  6
CONTINUOUS
 10
166.244821341
 20
70.8478021698
  0
VERTEX
  8
0
 62
7
  6
CONTINUOUS
 10
166.2237259741
 20
70.7358838076
  0
SEQEND
  0
LINE
  8
0
 62
7
  6
CONTINUOUS
 10
166.2237362537
 20
121.135921392
 11
166.1951012517
 21
121.0543376793
  0
POLYLINE
  8
0
 62
7
  6
CONTINUOUS
 66
1
 70
0
  0
VERTEX
  8
0
 62
7
  6
CONTINUOUS
 10
166.1951012517
 20
121.0543376793
  0
VERTEX
  8
0
 62
7
  6
CONTINUOUS
 10
166.1501160767
 20
120.9731086426
  0
VERTEX
  8
0
 62
7
  6
CONTINUOUS
 10
166.106133504
 20
120.9186178413
  0
SEQEND
  0
LINE
  8
0
 62
7
  6
CONTINUOUS
 10
157.9412066195
 20
132.5479522039
 11
169.0799245772
 21
131.6576219635
  0
LINE
  8
0
 62
7
  6
CONTINUOUS
 10
169.1774852725
 20
131.639962531
 11
172.7659239423
 21
130.6143824383
  0
LINE
  8
0
 62
7
  6
CONTINUOUS
 10
165.8571092511
 20
131.8983213907
 11
165.9141971229
 21
131.8731523541
  0
POLYLINE
  8
0
 62
7
  6
CONTINUOUS
 66
1
 70
0
  0
VERTEX
  8
0
 62
7
  6
CONTINUOUS
 10
165.9141971229
 20
131.8731523541
  0
VERTEX
  8
0
 62
7
  6
CONTINUOUS
 10
165.9846721681
 20
131.8305220049
  0
VERTEX
  8
0
 62
7
  6
CONTINUOUS
 10
166.0548935226
 20
131.7745739838
  0
VERTEX
  8
0
 62
7
  6
CONTINUOUS
 10
166.1062318239
 20
131.7243069022
  0
SEQEND
  0
LINE
  8
0
 62
7
  6
CONTINUOUS
 10
166.1061335003
 20
131.7244114677
 11
166.1062318239
 21
131.7243069022
  0
LINE
  8
0
 62
7
  6
CONTINUOUS
 10
166.1061335029
 20
131.7244114702
 11
166.1501160754
 21
131.6699206698
  0
LINE
  8
0
 62
7
  6
CONTINUOUS
 10
166.1501160754
 20
131.6699206698
 11
166.1951012505
 21
131.5886916339
  0
LINE
  8
0
 62
7
  6
CONTINUOUS
 10
166.1951012505
 20
131.5886916339
 11
166.223736263
 21
131.5071078846
  0
POLYLINE
  8
0
 62
7
  6
CONTINUOUS
 66
1
 70
0
  0
VERTEX
  8
0
 62
7
  6
CONTINUOUS
 10
166.2237364473
 20
131.5071072107
  0
VERTEX
  8
0
 62
7
  6
CONTINUOUS
 10
166.2450102058
 20
131.393540534
  0
VERTEX
  8
0
 62
7
  6
CONTINUOUS
 10
166.2504929176
 20
131.2910856662
  0
SEQEND
  0
POLYLINE
  8
0
 62
7
  6
CONTINUOUS
 66
1
 70
0
  0
VERTEX
  8
0
 62
7
  6
CONTINUOUS
 10
166.2237364473
 20
148.3071072107
  0
VERTEX
  8
0
 62
7
  6
CONTINUOUS
 10
166.2450102058
 20
148.193540534
  0
VERTEX
  8
0
 62
7
  6
CONTINUOUS
 10
166.2504929176
 20
148.0910856662
  0
SEQEND
  0
LINE
  8
0
 62
7
  6
CONTINUOUS
 10
173.0208836207
 20
189.0363464983
 11
173.0208836207
 21
181.206682812
  0
LINE
  8
0
 62
7
  6
CONTINUOUS
 10
173.0208836207
 20
197.9881916961
 11
173.0208836207
 21
189.0615425322
  0
LINE
  8
0
 62
6
  6
CONTINUOUS
 10
173.0208836207
 20
189.0383824724
 11
173.0208836207
 21
189.0363464983
  0
LINE
  8
0
 62
7
  6
CONTINUOUS
 10
173.0208836207
 20
172.2363464983
 11
173.0208836207
 21
164.406682812
  0
LINE
  8
0
 62
7
  6
CONTINUOUS
 10
173.0208836207
 20
181.1881916961
 11
173.0208836207
 21
172.2615425322
  0
LINE
  8
0
 62
7
  6
CONTINUOUS
 10
173.0208836207
 20
155.4363464983
 11
173.0208836207
 21
147.606682812
  0
LINE
  8
0
 62
7
  6
CONTINUOUS
 10
173.0208836207
 20
164.3881916961
 11
173.0208836207
 21
155.4615425322
  0
LINE
  8
0
 62
7
  6
CONTINUOUS
 10
173.0208836207
 20
138.6363464983
 11
173.0208836207
 21
130.806682812
  0
LINE
  8
0
 62
7
  6
CONTINUOUS
 10
173.0208836207
 20
147.5881916961
 11
173.0208836207
 21
138.6615425322
  0
LINE
  8
0
 62
7
  6
CONTINUOUS
 10
173.0208836207
 20
121.8363464983
 11
173.0208836207
 21
114.006682812
  0
LINE
  8
0
 62
7
  6
CONTINUOUS
 10
173.0208836207
 20
130.7881916961
 11
173.0208836207
 21
121.8615425322
  0
LINE
  8
0
 62
7
  6
CONTINUOUS
 10
173.0208836207
 20
105.0363464983
 11
173.0208836207
 21
97.206682812
  0
LINE
  8
0
 62
7
  6
CONTINUOUS
 10
173.0208836207
 20
113.9881916961
 11
173.0208836207
 21
105.0615425322
  0
LINE
  8
0
 62
7
  6
CONTINUOUS
 10
173.0208836207
 20
88.2363464983
 11
173.0208836207
 21
80.406682812
  0
LINE
  8
0
 62
7
  6
CONTINUOUS
 10
173.0208836207
 20
97.1881916961
 11
173.0208836207
 21
88.2615425322
  0
LINE
  8
0
 62
7
  6
CONTINUOUS
 10
173.0208836207
 20
80.3881916961
 11
173.0208836207
 21
71.4615425322
  0
LINE
  8
0
 62
7
  6
CONTINUOUS
 10
173.0208836207
 20
71.4363464983
 11
173.0208836207
 21
63.606682812
  0
LINE
  8
0
 62
7
  6
CONTINUOUS
 10
173.0208836207
 20
63.5881916961
 11
173.0208836207
 21
55.2215146552
  0
LINE
  8
0
 62
6
  6
CONTINUOUS
 10
173.0208836207
 20
198.0046468379
 11
173.0208836207
 21
198.006682812
  0
LINE
  8
0
 62
7
  6
CONTINUOUS
 10
173.0208836207
 20
198.006682812
 11
173.0208836207
 21
205.8215146552
  0
LINE
  8
0
 62
7
  6
CONTINUOUS
 10
172.5557172589
 20
197.4322567574
 11
172.5556460135
 21
197.3521468883
  0
LINE
  8
0
 62
6
  6
CONTINUOUS
 10
172.5557172608
 20
189.0322574805
 11
172.5556460143
 21
188.9521468883
  0
LINE
  8
0
 62
7
  6
CONTINUOUS
 10
172.5557172589
 20
180.6322567574
 11
172.5556460135
 21
180.5521468883
  0
LINE
  8
0
 62
7
  6
CONTINUOUS
 10
172.5557172589
 20
163.8322567574
 11
172.5556460135
 21
163.7521468883
  0
LINE
  8
0
 62
7
  6
CONTINUOUS
 10
172.5557172589
 20
147.0322567574
 11
172.5556460135
 21
146.9521468883
  0
LINE
  8
0
 62
7
  6
CONTINUOUS
 10
172.5557172589
 20
130.2322567574
 11
172.5556460135
 21
130.1521468883
  0
LINE
  8
0
 62
7
  6
CONTINUOUS
 10
172.5557172589
 20
113.4322567574
 11
172.5556460135
 21
113.3521468883
  0
LINE
  8
0
 62
7
  6
CONTINUOUS
 10
172.5557172589
 20
96.6322567574
 11
172.5556460135
 21
96.5521468883
  0
LINE
  8
0
 62
7
  6
CONTINUOUS
 10
172.5557172589
 20
79.8322567574
 11
172.5556460135
 21
79.7521468883
  0
LINE
  8
0
 62
7
  6
CONTINUOUS
 10
172.5557172589
 20
63.0322567574
 11
172.5556460135
 21
62.9521468883
  0
LINE
  8
0
 62
7
  6
CONTINUOUS
 10
166.3041682816
 20
76.1771396552
 11
166.2815148072
 21
75.9802647303
  0
LINE
  8
0
 62
7
  6
CONTINUOUS
 10
166.8705051548
 20
75.4683896552
 11
166.8931586273
 21
75.6652645801
  0
LINE
  8
0
 62
7
  6
CONTINUOUS
 10
167.0827274123
 20
75.4683896552
 11
167.1053808848
 21
75.6652645801
  0
LINE
  8
0
 62
7
  6
CONTINUOUS
 10
167.3235746677
 20
75.5077647303
 11
167.3462281402
 21
75.7046396552
  0
LINE
  8
0
 62
7
  6
CONTINUOUS
 10
167.5357969252
 20
75.5077647303
 11
167.5584503977
 21
75.7046396552
  0
LINE
  8
0
 62
7
  6
CONTINUOUS
 10
166.4174356578
 20
75.9802647303
 11
166.4400891303
 21
76.1377645801
  0
LINE
  8
0
 62
7
  6
CONTINUOUS
 10
166.6296579154
 20
75.9802647303
 11
166.6523113878
 21
76.1377645801
  0
LINE
  8
0
 62
7
  6
CONTINUOUS
 10
166.779891265
 20
76.0590146552
 11
166.7572377925
 21
75.9015145801
  0
LINE
  8
0
 62
7
  6
CONTINUOUS
 10
166.7572377925
 20
75.6652645801
 11
166.73458432
 21
75.5077647303
  0
LINE
  8
0
 62
7
  6
CONTINUOUS
 10
166.2237362537
 20
104.335921392
 11
166.1951012517
 21
104.2543376793
  0
LINE
  8
0
 62
7
  6
CONTINUOUS
 10
166.1061335014
 20
120.9186178438
 11
166.1062318231
 21
120.9187224073
  0
POLYLINE
  8
0
 62
7
  6
CONTINUOUS
 66
1
 70
0
  0
VERTEX
  8
0
 62
7
  6
CONTINUOUS
 10
166.1062318231
 20
120.9187224073
  0
VERTEX
  8
0
 62
7
  6
CONTINUOUS
 10
166.0548935227
 20
120.8684553267
  0
VERTEX
  8
0
 62
7
  6
CONTINUOUS
 10
165.9846721681
 20
120.8125073054
  0
SEQEND
  0
LINE
  8
0
 62
7
  6
CONTINUOUS
 10
165.9846721681
 20
120.8125073054
 11
165.9141971232
 21
120.7698769564
  0
LINE
  8
0
 62
7
  6
CONTINUOUS
 10
165.9141971232
 20
120.7698769564
 11
165.8571092512
 21
120.7447079196
  0
LINE
  8
0
 62
7
  6
CONTINUOUS
 10
169.1774852725
 20
121.0030667793
 11
172.7659239423
 21
122.0286468721
  0
LINE
  8
0
 62
7
  6
CONTINUOUS
 10
157.9412066195
 20
136.8950771064
 11
169.0799245772
 21
137.7854073468
  0
LINE
  8
0
 62
7
  6
CONTINUOUS
 10
166.1501160754
 20
148.4699206698
 11
166.1951012505
 21
148.3886916339
  0
LINE
  8
0
 62
7
  6
CONTINUOUS
 10
166.1951012505
 20
148.3886916339
 11
166.223736263
 21
148.3071078846
  0
POLYLINE
  8
0
 62
7
  6
CONTINUOUS
 66
1
 70
0
  0
VERTEX
  8
0
 62
7
  6
CONTINUOUS
 10
166.2237364473
 20
165.1071072107
  0
VERTEX
  8
0
 62
7
  6
CONTINUOUS
 10
166.2450102058
 20
164.9935405341
  0
VERTEX
  8
0
 62
7
  6
CONTINUOUS
 10
166.2504929176
 20
164.8910856662
  0
SEQEND
  0
POLYLINE
  8
0
 62
7
  6
CONTINUOUS
 66
1
 70
0
  0
VERTEX
  8
0
 62
7
  6
CONTINUOUS
 10
166.2237364473
 20
181.9071072107
  0
VERTEX
  8
0
 62
7
  6
CONTINUOUS
 10
166.2450102058
 20
181.793540534
  0
VERTEX
  8
0
 62
7
  6
CONTINUOUS
 10
166.2504929176
 20
181.6910856662
  0
SEQEND
  0
LINE
  8
0
 62
7
  6
CONTINUOUS
 10
166.8931586273
 20
75.9015145801
 11
166.9158120998
 21
76.0196395801
  0
LINE
  8
0
 62
7
  6
CONTINUOUS
 10
167.1053808848
 20
75.9015145801
 11
167.1280343573
 21
76.0196395801
  0
LINE
  8
0
 62
7
  6
CONTINUOUS
 10
167.2103073053
 20
75.6652645801
 11
167.1876538329
 21
75.5471395801
  0
LINE
  8
0
 62
7
  6
CONTINUOUS
 10
166.2237362537
 20
87.535921392
 11
166.1951012517
 21
87.4543376793
  0
POLYLINE
  8
0
 62
7
  6
CONTINUOUS
 66
1
 70
0
  0
VERTEX
  8
0
 62
7
  6
CONTINUOUS
 10
166.1951012517
 20
104.2543376793
  0
VERTEX
  8
0
 62
7
  6
CONTINUOUS
 10
166.1501160767
 20
104.1731086426
  0
VERTEX
  8
0
 62
7
  6
CONTINUOUS
 10
166.106133504
 20
104.1186178413
  0
SEQEND
  0
POLYLINE
  8
0
 62
7
  6
CONTINUOUS
 66
1
 70
0
  0
VERTEX
  8
0
 62
7
  6
CONTINUOUS
 10
165.9141971229
 20
148.6731523541
  0
VERTEX
  8
0
 62
7
  6
CONTINUOUS
 10
165.9846721681
 20
148.6305220049
  0
VERTEX
  8
0
 62
7
  6
CONTINUOUS
 10
166.0548935226
 20
148.5745739838
  0
VERTEX
  8
0
 62
7
  6
CONTINUOUS
 10
166.1062318239
 20
148.5243069022
  0
SEQEND
  0
LINE
  8
0
 62
7
  6
CONTINUOUS
 10
166.1061335003
 20
148.5244114677
 11
166.1062318239
 21
148.5243069022
  0
LINE
  8
0
 62
7
  6
CONTINUOUS
 10
166.1061335029
 20
148.5244114702
 11
166.1501160754
 21
148.4699206698
  0
POLYLINE
  8
0
 62
7
  6
CONTINUOUS
 66
1
 70
0
  0
VERTEX
  8
0
 62
7
  6
CONTINUOUS
 10
157.2972202372
 20
201.0596657293
  0
VERTEX
  8
0
 62
7
  6
CONTINUOUS
 10
157.2678297276
 20
201.1432310958
  0
VERTEX
  8
0
 62
7
  6
CONTINUOUS
 10
157.2320151078
 20
201.2334055769
  0
VERTEX
  8
0
 62
7
  6
CONTINUOUS
 10
157.2000904991
 20
201.2997547819
  0
VERTEX
  8
0
 62
7
  6
CONTINUOUS
 10
157.1720705622
 20
201.3443007526
  0
VERTEX
  8
0
 62
7
  6
CONTINUOUS
 10
157.1476343707
 20
201.3699535939
  0
VERTEX
  8
0
 62
7
  6
CONTINUOUS
 10
157.1261894049
 20
201.3791409854
  0
SEQEND
  0
LINE
  8
0
 62
7
  6
CONTINUOUS
 10
166.1951012505
 20
165.1886916339
 11
166.223736263
 21
165.1071078846
  0
POLYLINE
  8
0
 62
7
  6
CONTINUOUS
 66
1
 70
0
  0
VERTEX
  8
0
 62
7
  6
CONTINUOUS
 10
157.2972444247
 20
201.0597571036
  0
VERTEX
  8
0
 62
7
  6
CONTINUOUS
 10
157.3071962856
 20
201.0267319731
  0
VERTEX
  8
0
 62
7
  6
CONTINUOUS
 10
157.3221404601
 20
200.9393925631
  0
VERTEX
  8
0
 62
7
  6
CONTINUOUS
 10
157.3237692438
 20
200.8990672765
  0
SEQEND
  0
POLYLINE
  8
0
 62
7
  6
CONTINUOUS
 66
1
 70
0
  0
VERTEX
  8
0
 62
7
  6
CONTINUOUS
 10
166.2237364473
 20
198.7071072107
  0
VERTEX
  8
0
 62
7
  6
CONTINUOUS
 10
166.2450102058
 20
198.5935405341
  0
VERTEX
  8
0
 62
7
  6
CONTINUOUS
 10
166.2504929176
 20
198.4910856662
  0
SEQEND
  0
LINE
  8
0
 62
2
  6
CONTINUOUS
 10
185.0208836207
 20
118.0215146552
 11
185.0208836207
 21
126.4215146552
  0
LINE
  8
0
 62
7
  6
CONTINUOUS
 10
166.8251982099
 20
76.2165147303
 11
166.779891265
 21
76.0590146552
  0
LINE
  8
0
 62
7
  6
CONTINUOUS
 10
166.8251982099
 20
75.3108895801
 11
166.8705051548
 21
75.4683896552
  0
LINE
  8
0
 62
7
  6
CONTINUOUS
 10
167.0374204674
 20
75.3108895801
 11
167.0827274123
 21
75.4683896552
  0
LINE
  8
0
 62
7
  6
CONTINUOUS
 10
166.372128705
 20
76.3740145801
 11
166.3041682816
 21
76.1771396552
  0
LINE
  8
0
 62
7
  6
CONTINUOUS
 10
166.2237362537
 20
70.735921392
 11
166.1951012517
 21
70.6543376793
  0
LINE
  8
0
 62
7
  6
CONTINUOUS
 10
166.9158120998
 20
76.0196395801
 11
166.9611190447
 21
76.1377645801
  0
LINE
  8
0
 62
7
  6
CONTINUOUS
 10
166.73458432
 20
75.5077647303
 11
166.6892773751
 21
75.3896397303
  0
LINE
  8
0
 62
7
  6
CONTINUOUS
 10
167.1280343573
 20
76.0196395801
 11
167.1578440951
 21
76.0973600108
  0
LINE
  8
0
 62
7
  6
CONTINUOUS
 10
166.1061335014
 20
104.1186178438
 11
166.1062318231
 21
104.1187224073
  0
POLYLINE
  8
0
 62
7
  6
CONTINUOUS
 66
1
 70
0
  0
VERTEX
  8
0
 62
7
  6
CONTINUOUS
 10
166.1062318231
 20
104.1187224073
  0
VERTEX
  8
0
 62
7
  6
CONTINUOUS
 10
166.0548935227
 20
104.0684553267
  0
VERTEX
  8
0
 62
7
  6
CONTINUOUS
 10
165.9846721681
 20
104.0125073054
  0
SEQEND
  0
LINE
  8
0
 62
7
  6
CONTINUOUS
 10
157.9412066195
 20
149.3479522039
 11
169.0799245772
 21
148.4576219635
  0
LINE
  8
0
 62
7
  6
CONTINUOUS
 10
169.1774852725
 20
148.439962531
 11
172.7659239423
 21
147.4143824383
  0
LINE
  8
0
 62
7
  6
CONTINUOUS
 10
165.8571092511
 20
148.6983213907
 11
165.9141971229
 21
148.6731523541
  0
LINE
  8
0
 62
7
  6
CONTINUOUS
 10
166.1501160754
 20
165.2699206698
 11
166.1951012505
 21
165.1886916339
  0
LINE
  8
0
 62
7
  6
CONTINUOUS
 10
166.1951012505
 20
181.9886916339
 11
166.223736263
 21
181.9071078846
  0
LINE
  8
0
 62
7
  6
CONTINUOUS
 10
167.2556142503
 20
75.3502646552
 11
167.3235746677
 21
75.5077647303
  0
LINE
  8
0
 62
7
  6
CONTINUOUS
 10
167.4678365078
 20
75.3502646552
 11
167.5357969252
 21
75.5077647303
  0
POLYLINE
  8
0
 62
7
  6
CONTINUOUS
 66
1
 70
0
  0
VERTEX
  8
0
 62
7
  6
CONTINUOUS
 10
166.1951012517
 20
87.4543376793
  0
VERTEX
  8
0
 62
7
  6
CONTINUOUS
 10
166.1501160767
 20
87.3731086426
  0
VERTEX
  8
0
 62
7
  6
CONTINUOUS
 10
166.106133504
 20
87.3186178413
  0
SEQEND
  0
LINE
  8
0
 62
7
  6
CONTINUOUS
 10
165.9846721681
 20
104.0125073054
 11
165.9141971232
 21
103.9698769564
  0
LINE
  8
0
 62
7
  6
CONTINUOUS
 10
165.9141971232
 20
103.9698769564
 11
165.8571092512
 21
103.9447079196
  0
LINE
  8
0
 62
7
  6
CONTINUOUS
 10
169.1774852725
 20
104.2030667793
 11
172.7659239423
 21
105.2286468721
  0
LINE
  8
0
 62
7
  6
CONTINUOUS
 10
157.9412066195
 20
153.6950771064
 11
169.0799245772
 21
154.5854073468
  0
LINE
  8
0
 62
7
  6
CONTINUOUS
 10
166.1061335003
 20
165.3244114677
 11
166.1062318239
 21
165.3243069022
  0
LINE
  8
0
 62
7
  6
CONTINUOUS
 10
166.1061335029
 20
165.3244114702
 11
166.1501160754
 21
165.2699206698
  0
LINE
  8
0
 62
7
  6
CONTINUOUS
 10
166.1501160754
 20
182.0699206698
 11
166.1951012505
 21
181.9886916339
  0
LINE
  8
0
 62
7
  6
CONTINUOUS
 10
166.1951012505
 20
198.7886916339
 11
166.223736263
 21
198.7071078846
  0
POLYLINE
  8
0
 62
7
  6
CONTINUOUS
 66
1
 70
0
  0
VERTEX
  8
0
 62
7
  6
CONTINUOUS
 10
166.1951012517
 20
70.6543376793
  0
VERTEX
  8
0
 62
7
  6
CONTINUOUS
 10
166.1501160767
 20
70.5731086426
  0
VERTEX
  8
0
 62
7
  6
CONTINUOUS
 10
166.106133504
 20
70.5186178413
  0
SEQEND
  0
LINE
  8
0
 62
7
  6
CONTINUOUS
 10
166.4400891303
 20
76.1377645801
 11
166.5080495636
 21
76.2558895801
  0
LINE
  8
0
 62
7
  6
CONTINUOUS
 10
166.6523113878
 20
76.1377645801
 11
166.7202718211
 21
76.2558895801
  0
LINE
  8
0
 62
7
  6
CONTINUOUS
 10
166.9158120998
 20
76.3740145801
 11
166.8251982099
 21
76.2165147303
  0
LINE
  8
0
 62
7
  6
CONTINUOUS
 10
166.73458432
 20
75.1533897303
 11
166.8251982099
 21
75.3108895801
  0
LINE
  8
0
 62
7
  6
CONTINUOUS
 10
166.9468065775
 20
75.1533897303
 11
167.0374204674
 21
75.3108895801
  0
LINE
  8
0
 62
7
  6
CONTINUOUS
 10
167.1876538329
 20
75.5471395801
 11
167.1423468879
 21
75.4683896552
  0
LINE
  8
0
 62
7
  6
CONTINUOUS
 10
166.1061335014
 20
87.3186178438
 11
166.1062318231
 21
87.3187224073
  0
POLYLINE
  8
0
 62
7
  6
CONTINUOUS
 66
1
 70
0
  0
VERTEX
  8
0
 62
7
  6
CONTINUOUS
 10
166.1062318231
 20
87.3187224073
  0
VERTEX
  8
0
 62
7
  6
CONTINUOUS
 10
166.0548935227
 20
87.2684553267
  0
VERTEX
  8
0
 62
7
  6
CONTINUOUS
 10
165.9846721681
 20
87.2125073054
  0
SEQEND
  0
POLYLINE
  8
0
 62
7
  6
CONTINUOUS
 66
1
 70
0
  0
VERTEX
  8
0
 62
7
  6
CONTINUOUS
 10
165.9141971229
 20
165.4731523541
  0
VERTEX
  8
0
 62
7
  6
CONTINUOUS
 10
165.9846721681
 20
165.4305220049
  0
VERTEX
  8
0
 62
7
  6
CONTINUOUS
 10
166.0548935226
 20
165.3745739838
  0
VERTEX
  8
0
 62
7
  6
CONTINUOUS
 10
166.1062318239
 20
165.3243069022
  0
SEQEND
  0
LINE
  8
0
 62
7
  6
CONTINUOUS
 10
167.1650003604
 20
75.2321396552
 11
167.2556142503
 21
75.3502646552
  0
LINE
  8
0
 62
7
  6
CONTINUOUS
 10
167.3772226179
 20
75.2321396552
 11
167.4678365078
 21
75.3502646552
  0
LINE
  8
0
 62
7
  6
CONTINUOUS
 10
166.4400891303
 20
77.0827646927
 11
167.3462281402
 21
78.0671396552
  0
LINE
  8
0
 62
7
  6
CONTINUOUS
 10
157.9412066195
 20
166.1479522039
 11
169.0799245772
 21
165.2576219635
  0
LINE
  8
0
 62
7
  6
CONTINUOUS
 10
169.1774852725
 20
165.239962531
 11
172.7659239423
 21
164.2143824383
  0
LINE
  8
0
 62
7
  6
CONTINUOUS
 10
165.8571092511
 20
165.4983213907
 11
165.9141971229
 21
165.4731523541
  0
LINE
  8
0
 62
7
  6
CONTINUOUS
 10
166.1061335003
 20
182.1244114677
 11
166.1062318239
 21
182.1243069022
  0
LINE
  8
0
 62
7
  6
CONTINUOUS
 10
166.1061335029
 20
182.1244114702
 11
166.1501160754
 21
182.0699206698
  0
LINE
  8
0
 62
7
  6
CONTINUOUS
 10
166.1501160754
 20
198.8699206698
 11
166.1951012505
 21
198.7886916339
  0
LINE
  8
0
 62
7
  6
CONTINUOUS
 10
166.6892773751
 20
75.3896397303
 11
166.6213169259
 21
75.3108895801
  0
LINE
  8
0
 62
7
  6
CONTINUOUS
 10
166.6523113878
 20
77.0827646927
 11
167.5584503977
 21
78.0671396552
  0
LINE
  8
0
 62
7
  6
CONTINUOUS
 10
166.1061335014
 20
70.5186178438
 11
166.1062318231
 21
70.5187224073
  0
LINE
  8
0
 62
7
  6
CONTINUOUS
 10
167.2103073053
 20
78.1852646552
 11
166.2815148072
 21
77.2008896927
  0
LINE
  8
0
 62
7
  6
CONTINUOUS
 10
166.4853960911
 20
76.4921395801
 11
166.372128705
 21
76.3740145801
  0
LINE
  8
0
 62
7
  6
CONTINUOUS
 10
165.9846721681
 20
87.2125073054
 11
165.9141971232
 21
87.1698769564
  0
LINE
  8
0
 62
7
  6
CONTINUOUS
 10
165.9141971232
 20
87.1698769564
 11
165.8571092512
 21
87.1447079196
  0
LINE
  8
0
 62
7
  6
CONTINUOUS
 10
157.9412066195
 20
170.4950771064
 11
169.0799245772
 21
171.3854073468
  0
POLYLINE
  8
0
 62
7
  6
CONTINUOUS
 66
1
 70
0
  0
VERTEX
  8
0
 62
7
  6
CONTINUOUS
 10
166.1062318231
 20
70.5187224073
  0
VERTEX
  8
0
 62
7
  6
CONTINUOUS
 10
166.0548935227
 20
70.4684553267
  0
VERTEX
  8
0
 62
7
  6
CONTINUOUS
 10
165.9846721681
 20
70.4125073054
  0
SEQEND
  0
LINE
  8
0
 62
7
  6
CONTINUOUS
 10
166.6439703984
 20
75.0746395801
 11
166.73458432
 21
75.1533897303
  0
LINE
  8
0
 62
7
  6
CONTINUOUS
 10
167.1423468879
 20
75.4683896552
 11
167.097039943
 21
75.4290145801
  0
LINE
  8
0
 62
7
  6
CONTINUOUS
 10
166.8561926559
 20
75.0746395801
 11
166.9468065775
 21
75.1533897303
  0
LINE
  8
0
 62
7
  6
CONTINUOUS
 10
169.1774852725
 20
87.4030667793
 11
172.7659239423
 21
88.4286468721
  0
POLYLINE
  8
0
 62
7
  6
CONTINUOUS
 66
1
 70
0
  0
VERTEX
  8
0
 62
7
  6
CONTINUOUS
 10
165.9141971229
 20
182.2731523541
  0
VERTEX
  8
0
 62
7
  6
CONTINUOUS
 10
165.9846721681
 20
182.2305220049
  0
VERTEX
  8
0
 62
7
  6
CONTINUOUS
 10
166.0548935226
 20
182.1745739838
  0
VERTEX
  8
0
 62
7
  6
CONTINUOUS
 10
166.1062318239
 20
182.1243069022
  0
SEQEND
  0
LINE
  8
0
 62
7
  6
CONTINUOUS
 10
166.1061335003
 20
198.9244114677
 11
166.1062318239
 21
198.9243069022
  0
LINE
  8
0
 62
7
  6
CONTINUOUS
 10
166.1061335029
 20
198.9244114702
 11
166.1501160754
 21
198.8699206698
  0
LINE
  8
0
 62
7
  6
CONTINUOUS
 10
165.9846721681
 20
70.4125073054
 11
165.9141971232
 21
70.3698769564
  0
LINE
  8
0
 62
7
  6
CONTINUOUS
 10
166.5080495636
 20
76.2558895801
 11
166.576009981
 21
76.2952646552
  0
LINE
  8
0
 62
7
  6
CONTINUOUS
 10
166.7202718211
 20
76.2558895801
 11
166.7882322385
 21
76.2952646552
  0
LINE
  8
0
 62
7
  6
CONTINUOUS
 10
166.9611190447
 20
76.1377645801
 11
167.0290794621
 21
76.1771396552
  0
LINE
  8
0
 62
7
  6
CONTINUOUS
 10
167.097039943
 20
75.1927645801
 11
167.1650003604
 21
75.2321396552
  0
LINE
  8
0
 62
7
  6
CONTINUOUS
 10
167.3092622005
 20
75.1927645801
 11
167.3772226179
 21
75.2321396552
  0
LINE
  8
0
 62
7
  6
CONTINUOUS
 10
166.576009981
 20
76.5315146552
 11
166.4853960911
 21
76.4921395801
  0
LINE
  8
0
 62
7
  6
CONTINUOUS
 10
167.0064259897
 20
76.4133896552
 11
166.9158120998
 21
76.3740145801
  0
LINE
  8
0
 62
7
  6
CONTINUOUS
 10
157.9412066195
 20
182.9479522039
 11
169.0799245772
 21
182.0576219635
  0
LINE
  8
0
 62
7
  6
CONTINUOUS
 10
169.1774852725
 20
182.039962531
 11
172.7659239423
 21
181.0143824383
  0
LINE
  8
0
 62
7
  6
CONTINUOUS
 10
165.8571092511
 20
182.2983213907
 11
165.9141971229
 21
182.2731523541
  0
POLYLINE
  8
0
 62
7
  6
CONTINUOUS
 66
1
 70
0
  0
VERTEX
  8
0
 62
7
  6
CONTINUOUS
 10
159.3734335053
 20
201.1527273242
  0
VERTEX
  8
0
 62
7
  6
CONTINUOUS
 10
159.4418019502
 20
201.0962297799
  0
VERTEX
  8
0
 62
7
  6
CONTINUOUS
 10
159.4991125145
 20
201.028541454
  0
VERTEX
  8
0
 62
7
  6
CONTINUOUS
 10
159.5435619278
 20
200.9517921629
  0
VERTEX
  8
0
 62
7
  6
CONTINUOUS
 10
159.5737515963
 20
200.8683968245
  0
VERTEX
  8
0
 62
7
  6
CONTINUOUS
 10
159.5887316097
 20
200.7809794753
  0
VERTEX
  8
0
 62
7
  6
CONTINUOUS
 10
159.5903671141
 20
200.7405712784
  0
SEQEND
  0
LINE
  8
0
 62
7
  6
CONTINUOUS
 10
165.9141971232
 20
70.3698769564
 11
165.8571092512
 21
70.3447079196
  0
POLYLINE
  8
0
 62
7
  6
CONTINUOUS
 66
1
 70
0
  0
VERTEX
  8
0
 62
7
  6
CONTINUOUS
 10
166.5824631758
 20
73.6515146552
  0
VERTEX
  8
0
 62
7
  6
CONTINUOUS
 10
166.603080561
 20
73.6578382833
  0
VERTEX
  8
0
 62
7
  6
CONTINUOUS
 10
166.6226168249
 20
73.6763626754
  0
VERTEX
  8
0
 62
7
  6
CONTINUOUS
 10
166.6401120872
 20
73.7058416077
  0
VERTEX
  8
0
 62
7
  6
CONTINUOUS
 10
166.6548102267
 20
73.7444682482
  0
VERTEX
  8
0
 62
7
  6
CONTINUOUS
 10
166.6661822974
 20
73.7901565149
  0
VERTEX
  8
0
 62
7
  6
CONTINUOUS
 10
166.6739033762
 20
73.8407815936
  0
VERTEX
  8
0
 62
7
  6
CONTINUOUS
 10
166.6777992203
 20
73.8942960168
  0
VERTEX
  8
0
 62
7
  6
CONTINUOUS
 10
166.6777982966
 20
73.9487589683
  0
VERTEX
  8
0
 62
7
  6
CONTINUOUS
 10
166.6739009613
 20
74.0022694285
  0
VERTEX
  8
0
 62
7
  6
CONTINUOUS
 10
166.6661792083
 20
74.0528884251
  0
VERTEX
  8
0
 62
7
  6
CONTINUOUS
 10
166.6548074118
 20
74.0985701939
  0
VERTEX
  8
0
 62
7
  6
CONTINUOUS
 10
166.6401101404
 20
74.1371918339
  0
VERTEX
  8
0
 62
7
  6
CONTINUOUS
 10
166.6226158406
 20
74.1666679149
  0
VERTEX
  8
0
 62
7
  6
CONTINUOUS
 10
166.6030803003
 20
74.1851911889
  0
VERTEX
  8
0
 62
7
  6
CONTINUOUS
 10
166.5824631758
 20
74.1915146552
  0
SEQEND
  0
POLYLINE
  8
0
 62
7
  6
CONTINUOUS
 66
1
 70
0
  0
VERTEX
  8
0
 62
7
  6
CONTINUOUS
 10
166.3702409182
 20
74.1915146552
  0
VERTEX
  8
0
 62
7
  6
CONTINUOUS
 10
166.3496776466
 20
74.1852245736
  0
VERTEX
  8
0
 62
7
  6
CONTINUOUS
 10
166.3302543578
 20
74.1668833642
  0
VERTEX
  8
0
 62
7
  6
CONTINUOUS
 10
166.3127935414
 20
74.1376142164
  0
VERTEX
  8
0
 62
7
  6
CONTINUOUS
 10
166.2980627904
 20
74.0991076033
  0
VERTEX
  8
0
 62
7
  6
CONTINUOUS
 10
166.2866443515
 20
74.0534910066
  0
VERTEX
  8
0
 62
7
  6
CONTINUOUS
 10
166.278840953
 20
74.0026086312
  0
VERTEX
  8
0
 62
7
  6
CONTINUOUS
 10
166.2749159634
 20
73.9490399303
  0
VERTEX
  8
0
 62
7
  6
CONTINUOUS
 10
166.2749159634
 20
73.89398938
  0
VERTEX
  8
0
 62
7
  6
CONTINUOUS
 10
166.278840953
 20
73.8404206791
  0
VERTEX
  8
0
 62
7
  6
CONTINUOUS
 10
166.2866443515
 20
73.7895383037
  0
VERTEX
  8
0
 62
7
  6
CONTINUOUS
 10
166.2980627904
 20
73.7439217071
  0
VERTEX
  8
0
 62
7
  6
CONTINUOUS
 10
166.3127935414
 20
73.705415094
  0
VERTEX
  8
0
 62
7
  6
CONTINUOUS
 10
166.3302543578
 20
73.6761459461
  0
VERTEX
  8
0
 62
7
  6
CONTINUOUS
 10
166.3496776466
 20
73.6578047367
  0
VERTEX
  8
0
 62
7
  6
CONTINUOUS
 10
166.3702409182
 20
73.6515146552
  0
SEQEND
  0
POLYLINE
  8
0
 62
7
  6
CONTINUOUS
 66
1
 70
0
  0
VERTEX
  8
0
 62
7
  6
CONTINUOUS
 10
166.3702409182
 20
73.6515146552
  0
VERTEX
  8
0
 62
7
  6
CONTINUOUS
 10
166.3908041899
 20
73.6578047367
  0
VERTEX
  8
0
 62
7
  6
CONTINUOUS
 10
166.4102274786
 20
73.6761459461
  0
VERTEX
  8
0
 62
7
  6
CONTINUOUS
 10
166.4276882951
 20
73.705415094
  0
VERTEX
  8
0
 62
7
  6
CONTINUOUS
 10
166.4424190461
 20
73.7439217071
  0
VERTEX
  8
0
 62
7
  6
CONTINUOUS
 10
166.453837485
 20
73.7895383037
  0
VERTEX
  8
0
 62
7
  6
CONTINUOUS
 10
166.4616408835
 20
73.8404206791
  0
VERTEX
  8
0
 62
7
  6
CONTINUOUS
 10
166.4655658731
 20
73.89398938
  0
VERTEX
  8
0
 62
7
  6
CONTINUOUS
 10
166.4655658731
 20
73.9490399303
  0
VERTEX
  8
0
 62
7
  6
CONTINUOUS
 10
166.4616408835
 20
74.0026086312
  0
VERTEX
  8
0
 62
7
  6
CONTINUOUS
 10
166.453837485
 20
74.0534910066
  0
VERTEX
  8
0
 62
7
  6
CONTINUOUS
 10
166.4424190461
 20
74.0991076033
  0
VERTEX
  8
0
 62
7
  6
CONTINUOUS
 10
166.4276882951
 20
74.1376142164
  0
VERTEX
  8
0
 62
7
  6
CONTINUOUS
 10
166.4102274786
 20
74.1668833642
  0
VERTEX
  8
0
 62
7
  6
CONTINUOUS
 10
166.3908041899
 20
74.1852245736
  0
VERTEX
  8
0
 62
7
  6
CONTINUOUS
 10
166.3702409182
 20
74.1915146552
  0
SEQEND
  0
LINE
  8
0
 62
7
  6
CONTINUOUS
 10
157.9412066195
 20
187.2950771064
 11
169.0799245772
 21
188.1854073468
  0
LINE
  8
0
 62
6
  6
CONTINUOUS
 10
157.0208836207
 20
185.1215146552
 11
173.0208839228
 21
185.1215146552
  0
POLYLINE
  8
0
 62
7
  6
CONTINUOUS
 66
1
 70
0
  0
VERTEX
  8
0
 62
7
  6
CONTINUOUS
 10
159.3147088718
 20
201.18738113
  0
VERTEX
  8
0
 62
7
  6
CONTINUOUS
 10
159.3898610585
 20
201.1430295617
  0
VERTEX
  8
0
 62
7
  6
CONTINUOUS
 10
159.4825248441
 20
201.0700520875
  0
VERTEX
  8
0
 62
7
  6
CONTINUOUS
 10
159.5792221861
 20
200.9728676424
  0
VERTEX
  8
0
 62
7
  6
CONTINUOUS
 10
159.6788162134
 20
200.8527174295
  0
VERTEX
  8
0
 62
7
  6
CONTINUOUS
 10
159.7822090806
 20
200.7137414842
  0
SEQEND
  0
LINE
  8
0
 62
7
  6
CONTINUOUS
 10
169.1774852725
 20
70.6030667793
 11
172.7659239423
 21
71.6286468721
  0
LINE
  8
0
 62
7
  6
CONTINUOUS
 10
165.8571092511
 20
199.0983213907
 11
165.9141971229
 21
199.0731523541
  0
POLYLINE
  8
0
 62
7
  6
CONTINUOUS
 66
1
 70
0
  0
VERTEX
  8
0
 62
7
  6
CONTINUOUS
 10
165.9141971229
 20
199.0731523541
  0
VERTEX
  8
0
 62
7
  6
CONTINUOUS
 10
165.9846721681
 20
199.0305220049
  0
VERTEX
  8
0
 62
7
  6
CONTINUOUS
 10
166.0548935226
 20
198.9745739838
  0
VERTEX
  8
0
 62
7
  6
CONTINUOUS
 10
166.1062318239
 20
198.9243069022
  0
SEQEND
  0
LINE
  8
0
 62
7
  6
CONTINUOUS
 10
157.0708836207
 20
194.8413540747
 11
157.0309745526
 21
194.8399604193
  0
LINE
  8
0
 62
7
  6
CONTINUOUS
 10
158.2764451149
 20
199.7211562143
 11
169.0799245772
 21
198.8576219635
  0
POLYLINE
  8
0
 62
7
  6
CONTINUOUS
 66
1
 70
0
  0
VERTEX
  8
0
 62
7
  6
CONTINUOUS
 10
165.7393830144
 20
199.124635209
  0
VERTEX
  8
0
 62
7
  6
CONTINUOUS
 10
165.7785932424
 20
199.1196471148
  0
VERTEX
  8
0
 62
7
  6
CONTINUOUS
 10
165.8262739934
 20
199.1085163436
  0
VERTEX
  8
0
 62
7
  6
CONTINUOUS
 10
165.8571343671
 20
199.09831212
  0
SEQEND
  0
LINE
  8
0
 62
7
  6
CONTINUOUS
 10
169.1774852725
 20
198.839962531
 11
172.7659239423
 21
197.8143824383
  0
LINE
  8
0
 62
6
  6
CONTINUOUS
 10
173.0208836207
 20
201.9215146552
 11
157.0208836207
 21
201.9215146552
  0
LINE
  8
0
 62
7
  6
CONTINUOUS
 10
158.0208836207
 20
206.0215146552
 11
172.8208836207
 21
206.0215146552
  0
LINE
  8
0
 62
7
  6
CONTINUOUS
 10
157.0208836207
 20
201.38650466
 11
159.1387837514
 21
201.2384066558
  0
POLYLINE
  8
0
 62
7
  6
CONTINUOUS
 66
1
 70
0
  0
VERTEX
  8
0
 62
7
  6
CONTINUOUS
 10
159.1387796612
 20
201.2384069249
  0
VERTEX
  8
0
 62
7
  6
CONTINUOUS
 10
159.2178004764
 20
201.2248856988
  0
VERTEX
  8
0
 62
7
  6
CONTINUOUS
 10
159.3016511997
 20
201.1937697136
  0
VERTEX
  8
0
 62
7
  6
CONTINUOUS
 10
159.3147088718
 20
201.18738113
  0
SEQEND
  0
ARC
  8
0
 62
7
  6
CONTINUOUS
 10
54.6980584487
 20
203.891544891
 40
50.0
 50
36.1628008448
 51
46.2787379139
  0
ARC
  8
0
 62
7
  6
CONTINUOUS
 10
53.6049378493
 20
238.9361159483
 40
8.75
 50
29.0322772227
 51
59.4415682141
  0
ARC
  8
0
 62
7
  6
CONTINUOUS
 10
53.609299569
 20
238.9361159483
 40
8.5
 50
109.7499227956
 51
231.9951143277
  0
ARC
  8
0
 62
7
  6
CONTINUOUS
 10
53.609299569
 20
238.9361159483
 40
8.5
 50
232.4345865675
 51
250.2500772044
  0
ARC
  8
0
 62
6
  6
CONTINUOUS
 10
53.609299569
 20
238.9361159483
 40
8.5
 50
231.9951143277
 51
232.4345865675
  0
ARC
  8
0
 62
7
  6
CONTINUOUS
 10
53.609299569
 20
238.9361159483
 40
5.8
 50
0.0
 51
180.0
  0
CIRCLE
  8
0
 62
7
  6
CONTINUOUS
 10
53.609299569
 20
238.9361159483
 40
4.15
  0
ARC
  8
0
 62
7
  6
CONTINUOUS
 10
58.109299569
 20
236.9361159483
 40
6.0
 50
270.0
 51
323.8371991552
  0
ARC
  8
0
 62
7
  6
CONTINUOUS
 10
61.9112291611
 20
243.5464873697
 40
0.75
 50
209.0322772227
 51
250.46
  0
ARC
  8
0
 62
7
  6
CONTINUOUS
 10
58.1806891537
 20
246.6861159483
 40
0.25
 50
90.0
 51
239.4415682141
  0
ARC
  8
0
 62
7
  6
CONTINUOUS
 10
78.2564762082
 20
231.9861159483
 40
1.0
 50
196.467546793
 51
270.0
  0
ARC
  8
0
 62
7
  6
CONTINUOUS
 10
74.5241994256
 20
238.0861159483
 40
0.85
 50
16.467546793
 51
90.0
  0
ARC
  8
0
 62
7
  6
CONTINUOUS
 10
72.8314903897
 20
239.9361159483
 40
1.0
 50
250.46
 51
270.0
  0
ARC
  8
0
 62
7
  6
CONTINUOUS
 10
69.1085834231
 20
239.6657252452
 40
0.5
 50
70.46
 51
133.7212620861
  0
ARC
  8
0
 62
7
  6
CONTINUOUS
 10
103.3205406893
 20
203.891544891
 40
50.0
 50
133.7212620861
 51
143.8371991552
  0
ARC
  8
0
 62
7
  6
CONTINUOUS
 10
79.7621229297
 20
231.9861159483
 40
1.0
 50
270.0
 51
343.532453207
  0
ARC
  8
0
 62
7
  6
CONTINUOUS
 10
83.4943997123
 20
238.0861159483
 40
0.85
 50
90.0
 51
163.532453207
  0
ARC
  8
0
 62
7
  6
CONTINUOUS
 10
85.1871087482
 20
239.9361159483
 40
1.0
 50
270.0
 51
289.54
  0
ARC
  8
0
 62
7
  6
CONTINUOUS
 10
88.9100157148
 20
239.6657252452
 40
0.5
 50
46.2787379139
 51
109.54
  0
ARC
  8
0
 62
6
  6
CONTINUOUS
 10
104.4136612887
 20
238.9361159483
 40
8.75
 50
120.5584317859
 51
150.9677227773
  0
ARC
  8
0
 62
7
  6
CONTINUOUS
 10
104.409299569
 20
238.9361159483
 40
8.5
 50
289.7499227956
 51
70.2500772044
  0
ARC
  8
0
 62
7
  6
CONTINUOUS
 10
99.909299569
 20
236.9361159483
 40
6.0
 50
216.1628008448
 51
270.0
  0
CIRCLE
  8
0
 62
7
  6
CONTINUOUS
 10
104.409299569
 20
238.9361159483
 40
4.15
  0
ARC
  8
0
 62
6
  6
CONTINUOUS
 10
96.1073699769
 20
243.5464873697
 40
0.75
 50
289.54
 51
330.9677227773
  0
ARC
  8
0
 62
6
  6
CONTINUOUS
 10
99.8379099842
 20
246.6861159483
 40
0.25
 50
300.5584317859
 51
90.0
  0
ARC
  8
0
 62
40
  6
CONTINUOUS
 10
104.529299569
 20
56.3215146552
 40
1.5
 50
240.095255074
 51
299.904744926
  0
ARC
  8
0
 62
40
  6
CONTINUOUS
 10
53.489299569
 20
204.7215146552
 40
1.5
 50
60.095255074
 51
119.904744926
  0
ARC
  8
0
 62
7
  6
CONTINUOUS
 10
58.1306891537
 20
55.2215146552
 40
0.2
 50
180.0
 51
270.0
  0
ARC
  8
0
 62
7
  6
CONTINUOUS
 10
99.8879099842
 20
205.8215146552
 40
0.2
 50
0.0
 51
90.0
  0
ARC
  8
0
 62
7
  6
CONTINUOUS
 10
158.0208836207
 20
56.0215146552
 40
1.0
 50
180.0
 51
270.0
  0
ARC
  8
0
 62
7
  6
CONTINUOUS
 10
158.0208836207
 20
125.1447729378
 40
1.0
 50
180.0
 51
197.4745042926
  0
ARC
  8
0
 62
7
  6
CONTINUOUS
 10
158.0208836207
 20
127.4982563726
 40
1.0
 50
162.5254957074
 51
180.0
  0
ARC
  8
0
 62
7
  6
CONTINUOUS
 10
158.0208836207
 20
119.0982563726
 40
1.0
 50
94.57
 51
180.0
  0
ARC
  8
0
 62
7
  6
CONTINUOUS
 10
158.0208836207
 20
108.3447729378
 40
1.0
 50
180.0
 51
197.4745042926
  0
ARC
  8
0
 62
7
  6
CONTINUOUS
 10
158.0208836207
 20
110.6982563726
 40
1.0
 50
162.5254957074
 51
180.0
  0
ARC
  8
0
 62
7
  6
CONTINUOUS
 10
158.0208836207
 20
116.7447729378
 40
1.0
 50
180.0
 51
265.43
  0
ARC
  8
0
 62
7
  6
CONTINUOUS
 10
158.0208836207
 20
102.2982563726
 40
1.0
 50
94.57
 51
180.0
  0
ARC
  8
0
 62
7
  6
CONTINUOUS
 10
158.0208836207
 20
91.5447729378
 40
1.0
 50
180.0
 51
197.4745042926
  0
ARC
  8
0
 62
7
  6
CONTINUOUS
 10
158.0208836207
 20
93.8982563726
 40
1.0
 50
162.5254957074
 51
180.0
  0
ARC
  8
0
 62
7
  6
CONTINUOUS
 10
158.0208836207
 20
99.9447729378
 40
1.0
 50
180.0
 51
265.43
  0
ARC
  8
0
 62
7
  6
CONTINUOUS
 10
158.0208836207
 20
85.4982563726
 40
1.0
 50
94.57
 51
180.0
  0
ARC
  8
0
 62
7
  6
CONTINUOUS
 10
158.0208836207
 20
74.7447729378
 40
1.0
 50
180.0
 51
197.4745042926
  0
ARC
  8
0
 62
7
  6
CONTINUOUS
 10
158.0208836207
 20
77.0982563726
 40
1.0
 50
162.5254957074
 51
180.0
  0
ARC
  8
0
 62
7
  6
CONTINUOUS
 10
158.0208836207
 20
83.1447729378
 40
1.0
 50
180.0
 51
265.43
  0
ARC
  8
0
 62
7
  6
CONTINUOUS
 10
158.0208836207
 20
68.6982563726
 40
1.0
 50
94.57
 51
180.0
  0
ARC
  8
0
 62
7
  6
CONTINUOUS
 10
158.0208836207
 20
66.3447729378
 40
1.0
 50
180.0
 51
188.1464641015
  0
ARC
  8
0
 62
7
  6
CONTINUOUS
 10
158.0708836207
 20
56.0215146552
 40
1.0
 50
180.0
 51
270.0
  0
ARC
  8
0
 62
7
  6
CONTINUOUS
 10
158.0208836207
 20
194.6982563726
 40
1.0
 50
171.8535358985
 51
180.0
  0
ARC
  8
0
 62
7
  6
CONTINUOUS
 10
158.0208836207
 20
192.3447729378
 40
1.0
 50
180.0
 51
197.4745042926
  0
ARC
  8
0
 62
7
  6
CONTINUOUS
 10
158.0208836207
 20
186.2982563726
 40
1.0
 50
94.57
 51
180.0
  0
ARC
  8
0
 62
7
  6
CONTINUOUS
 10
158.0208836207
 20
175.5447729378
 40
1.0
 50
180.0
 51
197.4745042926
  0
ARC
  8
0
 62
7
  6
CONTINUOUS
 10
158.0208836207
 20
177.8982563726
 40
1.0
 50
162.5254957074
 51
180.0
  0
ARC
  8
0
 62
7
  6
CONTINUOUS
 10
158.0208836207
 20
183.9447729378
 40
1.0
 50
180.0
 51
265.43
  0
ARC
  8
0
 62
7
  6
CONTINUOUS
 10
158.0208836207
 20
169.4982563726
 40
1.0
 50
94.57
 51
180.0
  0
ARC
  8
0
 62
7
  6
CONTINUOUS
 10
158.0208836207
 20
158.7447729378
 40
1.0
 50
180.0
 51
197.4745042926
  0
ARC
  8
0
 62
7
  6
CONTINUOUS
 10
158.0208836207
 20
161.0982563726
 40
1.0
 50
162.5254957074
 51
180.0
  0
ARC
  8
0
 62
7
  6
CONTINUOUS
 10
158.0208836207
 20
167.1447729378
 40
1.0
 50
180.0
 51
265.43
  0
ARC
  8
0
 62
7
  6
CONTINUOUS
 10
158.0208836207
 20
152.6982563726
 40
1.0
 50
94.57
 51
180.0
  0
ARC
  8
0
 62
7
  6
CONTINUOUS
 10
158.0208836207
 20
141.9447729378
 40
1.0
 50
180.0
 51
197.4745042926
  0
ARC
  8
0
 62
7
  6
CONTINUOUS
 10
158.0208836207
 20
144.2982563726
 40
1.0
 50
162.5254957074
 51
180.0
  0
ARC
  8
0
 62
7
  6
CONTINUOUS
 10
158.0208836207
 20
150.3447729378
 40
1.0
 50
180.0
 51
265.43
  0
ARC
  8
0
 62
7
  6
CONTINUOUS
 10
158.0208836207
 20
135.8982563726
 40
1.0
 50
94.57
 51
180.0
  0
ARC
  8
0
 62
7
  6
CONTINUOUS
 10
158.0208836207
 20
133.5447729378
 40
1.0
 50
180.0
 51
265.43
  0
ARC
  8
0
 62
7
  6
CONTINUOUS
 10
158.0208836207
 20
205.0215146552
 40
1.0
 50
90.0
 51
180.0
  0
ARC
  8
0
 62
6
  6
CONTINUOUS
 10
158.0208836207
 20
192.3447729378
 40
1.0
 50
197.4745042926
 51
265.43
  0
ARC
  8
0
 62
6
  6
CONTINUOUS
 10
158.0208836207
 20
194.6982563726
 40
1.0
 50
94.57
 51
171.8535358985
  0
ARC
  8
0
 62
6
  6
CONTINUOUS
 10
158.0208836207
 20
200.7447729378
 40
1.0
 50
180.0
 51
265.43
  0
ARC
  8
0
 62
7
  6
CONTINUOUS
 10
166.0207654508
 20
56.0213964852
 40
0.9998818301
 50
180.7781444247
 51
268.0049485052
  0
ARC
  8
0
 62
7
  6
CONTINUOUS
 10
169.0400860766
 20
121.4838177138
 40
0.5
 50
274.57
 51
285.95
  0
ARC
  8
0
 62
7
  6
CONTINUOUS
 10
169.0400860766
 20
104.6838177138
 40
0.5
 50
274.57
 51
285.95
  0
ARC
  8
0
 62
7
  6
CONTINUOUS
 10
169.0400860766
 20
114.3592115966
 40
0.5
 50
74.05
 51
85.43
  0
ARC
  8
0
 62
7
  6
CONTINUOUS
 10
169.0400860766
 20
87.8838177138
 40
0.5
 50
274.57
 51
285.95
  0
ARC
  8
0
 62
7
  6
CONTINUOUS
 10
169.0400860766
 20
97.5592115966
 40
0.5
 50
74.05
 51
85.43
  0
ARC
  8
0
 62
7
  6
CONTINUOUS
 10
169.0400860766
 20
71.0838177138
 40
0.5
 50
274.57
 51
285.95
  0
ARC
  8
0
 62
7
  6
CONTINUOUS
 10
169.0400860766
 20
80.7592115966
 40
0.5
 50
74.05
 51
85.43
  0
ARC
  8
0
 62
7
  6
CONTINUOUS
 10
169.0400860766
 20
63.9592115966
 40
0.5
 50
74.05
 51
85.43
  0
ARC
  8
0
 62
7
  6
CONTINUOUS
 10
172.8208836207
 20
121.8363464983
 40
0.2
 50
0.0
 51
105.95
  0
ARC
  8
0
 62
7
  6
CONTINUOUS
 10
172.8208836207
 20
114.006682812
 40
0.2
 50
254.05
 51
360.0
  0
ARC
  8
0
 62
7
  6
CONTINUOUS
 10
172.8208836207
 20
105.0363464983
 40
0.2
 50
0.0
 51
105.95
  0
ARC
  8
0
 62
7
  6
CONTINUOUS
 10
172.8208836207
 20
97.206682812
 40
0.2
 50
254.05
 51
360.0
  0
ARC
  8
0
 62
7
  6
CONTINUOUS
 10
172.8208836207
 20
88.2363464983
 40
0.2
 50
0.0
 51
105.95
  0
ARC
  8
0
 62
7
  6
CONTINUOUS
 10
172.8208836207
 20
80.406682812
 40
0.2
 50
254.05
 51
360.0
  0
ARC
  8
0
 62
7
  6
CONTINUOUS
 10
172.8208836207
 20
71.4363464983
 40
0.2
 50
0.0
 51
105.95
  0
ARC
  8
0
 62
7
  6
CONTINUOUS
 10
172.8208836207
 20
63.606682812
 40
0.2
 50
254.05
 51
360.0
  0
ARC
  8
0
 62
7
  6
CONTINUOUS
 10
172.8208836207
 20
55.2215146552
 40
0.2
 50
270.0
 51
360.0
  0
ARC
  8
0
 62
7
  6
CONTINUOUS
 10
169.0400860766
 20
188.6838177138
 40
0.5
 50
274.57
 51
285.95
  0
ARC
  8
0
 62
7
  6
CONTINUOUS
 10
169.0400860766
 20
198.3592115966
 40
0.5
 50
74.05
 51
85.43
  0
ARC
  8
0
 62
7
  6
CONTINUOUS
 10
169.0400860766
 20
171.8838177138
 40
0.5
 50
274.57
 51
285.95
  0
ARC
  8
0
 62
7
  6
CONTINUOUS
 10
169.0400860766
 20
181.5592115966
 40
0.5
 50
74.05
 51
85.43
  0
ARC
  8
0
 62
7
  6
CONTINUOUS
 10
169.0400860766
 20
155.0838177138
 40
0.5
 50
274.57
 51
285.95
  0
ARC
  8
0
 62
7
  6
CONTINUOUS
 10
169.0400860766
 20
164.7592115966
 40
0.5
 50
74.05
 51
85.43
  0
ARC
  8
0
 62
7
  6
CONTINUOUS
 10
169.0400860766
 20
138.2838177138
 40
0.5
 50
274.57
 51
285.95
  0
ARC
  8
0
 62
7
  6
CONTINUOUS
 10
169.0400860766
 20
147.9592115966
 40
0.5
 50
74.05
 51
85.43
  0
ARC
  8
0
 62
7
  6
CONTINUOUS
 10
169.0400860766
 20
131.1592115966
 40
0.5
 50
74.05
 51
85.43
  0
ARC
  8
0
 62
7
  6
CONTINUOUS
 10
172.8208836207
 20
198.006682812
 40
0.2
 50
254.05
 51
360.0
  0
ARC
  8
0
 62
7
  6
CONTINUOUS
 10
172.8208836207
 20
189.0363464983
 40
0.2
 50
0.0
 51
105.95
  0
ARC
  8
0
 62
7
  6
CONTINUOUS
 10
172.8208836207
 20
181.206682812
 40
0.2
 50
254.05
 51
360.0
  0
ARC
  8
0
 62
7
  6
CONTINUOUS
 10
172.8208836207
 20
172.2363464983
 40
0.2
 50
0.0
 51
105.95
  0
ARC
  8
0
 62
7
  6
CONTINUOUS
 10
172.8208836207
 20
164.406682812
 40
0.2
 50
254.05
 51
360.0
  0
ARC
  8
0
 62
7
  6
CONTINUOUS
 10
172.8208836207
 20
155.4363464983
 40
0.2
 50
0.0
 51
105.95
  0
ARC
  8
0
 62
7
  6
CONTINUOUS
 10
172.8208836207
 20
147.606682812
 40
0.2
 50
254.05
 51
360.0
  0
ARC
  8
0
 62
7
  6
CONTINUOUS
 10
172.8208836207
 20
138.6363464983
 40
0.2
 50
0.0
 51
105.95
  0
ARC
  8
0
 62
7
  6
CONTINUOUS
 10
172.8208836207
 20
130.806682812
 40
0.2
 50
254.05
 51
360.0
  0
ARC
  8
0
 62
7
  6
CONTINUOUS
 10
172.8208836207
 20
205.8215146552
 40
0.2
 50
0.0
 51
90.0
  0
ARC
  8
0
 62
6
  6
CONTINUOUS
 10
172.8208836207
 20
197.4363464983
 40
0.2
 50
0.0
 51
105.95
  0
ARC
  8
0
 62
6
  6
CONTINUOUS
 10
172.8208836207
 20
189.606682812
 40
0.2
 50
254.05
 51
360.0
  0
ENDSEC
  0
EOF
