  0
SECTION
  2
HEADER
  9
$EXTMAX
 10
210.0
 20
297.0
 30
0.0
  9
$EXTMIN
 10
0.0
 20
0.0
 30
0.0
  9
$LIMMIN
 10
0.0
 20
0.0
  9
$LIMMAX
 10
210.0
 20
297.0
  9
$VIEWCTR
 10
105.0
 20
148.5
  9
$VIEWSIZE
 40
297.0
  9
$CLAYER
  8
0
  9
$LTSCALE
 40
19.36
  9
$CELTYPE
  6
BYLAYER
  9
$DIMSCALE
 40
1.0
  9
$DIMASZ
 40
3.5
  9
$DIMEXO
 40
2.2
  9
$DIMDLI
 40
13.376
  9
$DIMEXE
 40
6.336
  9
$DIMCEN
 40
3.168
  9
$DIMLFAC
 40
1.0
  9
$DIMBLK
  1
_FILLED
  9
$DIMTXT
 40
3.5
  9
$PDMODE
 70
3
  9
$PDSIZE
 40
0.3125
  9
$TILEMODE
 70
1
  0
ENDSEC
  0
SECTION
  2
TABLES
  0
TABLE
  2
LTYPE
 70
6
  0
LTYPE
  2
BYBLOCK
 70
0
  3

 72
65
 73
0
 40
0.0
  0
LTYPE
  2
BYLAYER
 70
0
  3

 72
65
 73
0
 40
0.0
  0
LTYPE
  2
CONTINUOUS
 70
64
  3
Solid line
 72
65
 73
0
 40
0.0
  0
LTYPE
  2
CENTER
 70
64
  3
____ _ ____ _ ____ _ ____ _ ____ _ ____ _ ____
 72
65
 73
4
 40
0.6
 49
0.375
 49
-0.075
 49
0.075
 49
-0.075
  0
LTYPE
  2
HIDDEN
 70
64
  3
- - - - - - - - - - - - - - - - - - - -
 72
65
 73
2
 40
0.2
 49
0.1
 49
-0.1
  0
LTYPE
  2
PHANTOM
 70
64
  3
_____ _ _ _____ _ _ _____ _ _ _____
 72
65
 73
6
 40
0.8
 49
0.45
 49
-0.05
 49
0.1
 49
-0.05
 49
0.1
 49
-0.05
  0
LTYPE
  2
DOT
 70
64
  3
. . . . . . . . . . . . . . . . . . . .
 72
65
 73
2
 40
0.2
 49
0.1
 49
-0.1
  0
LTYPE
  2
DASHED
 70
64
  3
- - - - - - - - - - - - - - - - - - - -
 72
65
 73
2
 40
0.2
 49
0.1
 49
-0.1
  0
ENDTAB
  0
TABLE
  2
LAYER
 70
36
  0
LAYER
  2
0
 70
0
 62
7
  6
CONTINUOUS
  0
LAYER
  2
DEFAULT_1
 70
0
 62
7
  6
CENTER
  0
LAYER
  2
DEFAULT_2
 70
0
 62
8
  6
HIDDEN
  0
LAYER
  2
DEFAULT_3
 70
0
 62
7
  6
PHANTOM
  0
LAYER
  2
1_AXIS
 70
0
 62
7
  6
CONTINUOUS
  0
LAYER
  2
1_DATUMPLANE
 70
0
 62
7
  6
CONTINUOUS
  0
LAYER
  2
2_FEATURE
 70
0
 62
7
  6
CONTINUOUS
  0
LAYER
  2
3_CURVE
 70
0
 62
7
  6
CONTINUOUS
  0
LAYER
  2
6_DIM
 70
0
 62
7
  6
CONTINUOUS
  0
LAYER
  2
6_NOTE
 70
0
 62
7
  6
CONTINUOUS
  0
LAYER
  2
AXES
 70
0
 62
7
  6
CONTINUOUS
  0
LAYER
  2
CSYS
 70
0
 62
7
  6
CONTINUOUS
  0
LAYER
  2
NOTES
 70
0
 62
7
  6
CONTINUOUS
  0
LAYER
  2
PLANES
 70
0
 62
7
  6
CONTINUOUS
  0
ENDTAB
  0
TABLE
  2
STYLE
 70
1
  0
STYLE
  2
STANDARD
 70
0
 40
0.0
 41
0.8
 50
0.0
 71
0
 42
0.2
  3
txt
  4

  0
STYLE
  2
TEXTSTYLE_1
 70
0
 40
0.0
 41
0.8
 50
0.0
 71
0
 42
0.2
  3
gdt
  4

  0
STYLE
  2
TEXTSTYLE_2
 70
0
 40
0.0
 41
0.6
 50
0.0
 71
0
 42
0.2
  3
txt
  4

  0
STYLE
  2
TEXTSTYLE_3
 70
0
 40
0.0
 41
1.0
 50
0.0
 71
0
 42
0.2
  3
ftb_____.ttf
  4

  0
STYLE
  2
TEXTSTYLE_4
 70
0
 40
0.0
 41
1.0
 50
0.0
 71
0
 42
0.2
  3
fti_____.ttf
  4

  0
STYLE
  2
TEXTSTYLE_5
 70
0
 40
0.0
 41
1.0
 50
0.0
 71
0
 42
0.2
  3
frutiger light.ttf
  4

  0
STYLE
  2
TEXTSTYLE_6
 70
0
 40
0.0
 41
0.7
 50
0.0
 71
0
 42
0.2
  3
txt
  4

  0
STYLE
  2
TEXTSTYLE_7
 70
0
 40
0.0
 41
0.7
 50
0.0
 71
0
 42
0.2
  3
txt
  4

  0
ENDTAB
  0
ENDSEC
  0
SECTION
  2
BLOCKS
  0
BLOCK
  8
0
 62
2
  6
CONTINUOUS
  2
SYMBOL_8_BL1
 70
64
 10
173.5956734183
 20
35.5937998301
  0
TEXT
  8
0
 62
7
  6
CONTINUOUS
 10
164.6539584268
 20
30.6865562072
  7
TEXTSTYLE_4
 40
1.0655737705
  1
The brand for plastic modular belts and chains
 41
1.0
 72
0
  0
LINE
  8
0
 62
7
  6
CONTINUOUS
 10
149.5737418074
 20
36.1675703219
 11
149.5737418074
 21
34.0364227809
  0
LINE
  8
0
 62
7
  6
CONTINUOUS
 10
149.8628043005
 20
31.0454914852
 11
149.8628043005
 21
31.1422825445
  0
LINE
  8
0
 62
7
  6
CONTINUOUS
 10
149.5737418074
 20
31.1100188581
 11
149.6315543091
 21
30.9164367395
  0
LINE
  8
0
 62
7
  6
CONTINUOUS
 10
150.9671844304
 20
33.9544555678
 11
150.9671844304
 21
36.1675703219
  0
LINE
  8
0
 62
7
  6
CONTINUOUS
 10
151.8862417523
 20
32.1101932727
 11
151.8862417523
 21
30.5937998301
  0
LINE
  8
0
 62
7
  6
CONTINUOUS
 10
152.1753043074
 20
30.5937998301
 11
152.1753043074
 21
31.3358647082
  0
LINE
  8
0
 62
7
  6
CONTINUOUS
 10
152.1753043074
 20
31.4649194539
 11
152.1753043074
 21
32.1101932727
  0
LINE
  8
0
 62
7
  6
CONTINUOUS
 10
149.6315543091
 20
31.3036010218
 11
149.5737418074
 21
31.1100188581
  0
LINE
  8
0
 62
7
  6
CONTINUOUS
 10
149.9784292936
 20
30.8841730531
 11
149.8628043005
 21
31.0454914852
  0
LINE
  8
0
 62
7
  6
CONTINUOUS
 10
151.0768668626
 20
31.400392081
 11
151.1346793074
 21
31.3036010218
  0
LINE
  8
0
 62
7
  6
CONTINUOUS
 10
151.4237418626
 20
31.3036010218
 11
151.3659292523
 21
31.4326557675
  0
LINE
  8
0
 62
7
  6
CONTINUOUS
 10
152.852430332
 20
36.1675703219
 11
152.852430332
 21
34.3642916334
  0
LINE
  8
0
 62
7
  6
CONTINUOUS
 10
152.852430332
 20
33.0528162235
 11
152.852430332
 21
32.3970785186
  0
LINE
  8
0
 62
7
  6
CONTINUOUS
 10
153.2159293074
 20
31.2390736489
 11
153.2159293074
 21
30.5937998301
  0
LINE
  8
0
 62
7
  6
CONTINUOUS
 10
153.5049916972
 20
30.5937998301
 11
153.5049916972
 21
31.2390736489
  0
LINE
  8
0
 62
7
  6
CONTINUOUS
 10
149.8628043005
 20
31.1422825445
 11
149.9206168074
 21
31.2713373354
  0
LINE
  8
0
 62
7
  6
CONTINUOUS
 10
149.6315543091
 20
30.9164367395
 11
149.7471793074
 21
30.7873819712
  0
LINE
  8
0
 62
7
  6
CONTINUOUS
 10
153.1581166972
 20
31.3681283946
 11
153.2159293074
 21
31.2390736489
  0
LINE
  8
0
 62
7
  6
CONTINUOUS
 10
153.9674919177
 20
30.8841730531
 11
154.0253041972
 21
30.7551182848
  0
LINE
  8
0
 62
7
  6
CONTINUOUS
 10
153.5049916972
 20
31.2390736489
 11
153.4471794177
 21
31.400392081
  0
LINE
  8
0
 62
7
  6
CONTINUOUS
 10
153.9674919177
 20
31.4326557675
 11
153.9674919177
 21
31.3681283946
  0
LINE
  8
0
 62
7
  6
CONTINUOUS
 10
153.9674919177
 20
30.9809641124
 11
153.9674919177
 21
30.8841730531
  0
LINE
  8
0
 62
7
  6
CONTINUOUS
 10
154.245872955
 20
32.3970785186
 11
154.245872955
 21
36.1675703219
  0
LINE
  8
0
 62
7
  6
CONTINUOUS
 10
154.2565543074
 20
30.8519093441
 11
154.2565543074
 21
30.9164367395
  0
LINE
  8
0
 62
7
  6
CONTINUOUS
 10
154.5737418074
 20
36.1675703219
 11
154.5737418074
 21
32.3970785186
  0
LINE
  8
0
 62
7
  6
CONTINUOUS
 10
151.3659292523
 20
30.7873819712
 11
151.4237418626
 21
30.9164367395
  0
LINE
  8
0
 62
7
  6
CONTINUOUS
 10
155.759679528
 20
30.6905909007
 11
155.7018665869
 21
30.8519093441
  0
LINE
  8
0
 62
7
  6
CONTINUOUS
 10
155.412804528
 20
31.3681283946
 11
155.412804528
 21
31.2713373354
  0
LINE
  8
0
 62
7
  6
CONTINUOUS
 10
155.412804528
 20
31.1422825445
 11
155.412804528
 21
30.9487004259
  0
LINE
  8
0
 62
7
  6
CONTINUOUS
 10
155.7018665869
 20
30.8519093441
 11
155.7018665869
 21
31.3681283946
  0
LINE
  8
0
 62
7
  6
CONTINUOUS
 10
155.9671844304
 20
32.3970785186
 11
155.9671844304
 21
34.2003572071
  0
LINE
  8
0
 62
7
  6
CONTINUOUS
 10
155.9671844304
 20
35.511832617
 11
155.9671844304
 21
36.1675703219
  0
LINE
  8
0
 62
7
  6
CONTINUOUS
 10
156.279992028
 20
32.1101932727
 11
156.279992028
 21
31.9488748406
  0
LINE
  8
0
 62
7
  6
CONTINUOUS
 10
156.279992028
 20
31.626237886
 11
156.279992028
 21
30.5937998301
  0
LINE
  8
0
 62
7
  6
CONTINUOUS
 10
156.5690540869
 20
30.5937998301
 11
156.5690540869
 21
31.626237886
  0
LINE
  8
0
 62
7
  6
CONTINUOUS
 10
156.5690540869
 20
31.9488748406
 11
156.5690540869
 21
32.1101932727
  0
LINE
  8
0
 62
7
  6
CONTINUOUS
 10
151.1346793074
 20
30.9164367395
 11
151.0768668626
 21
30.8196456577
  0
LINE
  8
0
 62
7
  6
CONTINUOUS
 10
153.4471794177
 20
31.400392081
 11
153.3893668074
 21
31.4649194539
  0
LINE
  8
0
 62
7
  6
CONTINUOUS
 10
154.3143669177
 20
30.7873819712
 11
154.2565543074
 21
30.8519093441
  0
LINE
  8
0
 62
7
  6
CONTINUOUS
 10
155.4706168074
 20
30.6583272086
 11
155.5284290869
 21
30.5937998301
  0
LINE
  8
0
 62
7
  6
CONTINUOUS
 10
155.412804528
 20
30.7551182848
 11
155.4706168074
 21
30.6583272086
  0
LINE
  8
0
 62
7
  6
CONTINUOUS
 10
155.8174918074
 20
30.5937998301
 11
155.759679528
 21
30.6905909007
  0
LINE
  8
0
 62
7
  6
CONTINUOUS
 10
155.7018665869
 20
31.3681283946
 11
155.6440543074
 21
31.4649194539
  0
LINE
  8
0
 62
7
  6
CONTINUOUS
 10
157.0315543074
 20
31.626237886
 11
157.0315543074
 21
30.5937998301
  0
LINE
  8
0
 62
7
  6
CONTINUOUS
 10
157.320617028
 20
30.5937998301
 11
157.320617028
 21
31.3358647082
  0
LINE
  8
0
 62
7
  6
CONTINUOUS
 10
157.320617028
 20
31.4649194539
 11
157.320617028
 21
31.626237886
  0
LINE
  8
0
 62
7
  6
CONTINUOUS
 10
157.852430332
 20
34.6101932727
 11
157.852430332
 21
32.3970785186
  0
LINE
  8
0
 62
7
  6
CONTINUOUS
 10
149.7471793074
 20
31.4326557675
 11
149.6315543091
 21
31.3036010218
  0
LINE
  8
0
 62
7
  6
CONTINUOUS
 10
149.9206168074
 20
31.2713373354
 11
149.9784292936
 21
31.3358647082
  0
LINE
  8
0
 62
7
  6
CONTINUOUS
 10
149.7471793074
 20
30.7873819712
 11
149.8628043005
 21
30.7228545871
  0
LINE
  8
0
 62
7
  6
CONTINUOUS
 10
150.1518667936
 20
30.7873819712
 11
149.9784292936
 21
30.8841730531
  0
LINE
  8
0
 62
7
  6
CONTINUOUS
 10
155.3549915869
 20
31.4326557675
 11
155.412804528
 21
31.3681283946
  0
LINE
  8
0
 62
7
  6
CONTINUOUS
 10
158.3034290869
 20
31.3681283946
 11
158.361242028
 21
31.2068099625
  0
LINE
  8
0
 62
7
  6
CONTINUOUS
 10
158.6503040869
 20
31.2068099625
 11
158.5924918074
 21
31.3681283946
  0
LINE
  8
0
 62
7
  6
CONTINUOUS
 10
158.361242028
 20
31.2068099625
 11
158.361242028
 21
30.5937998301
  0
LINE
  8
0
 62
7
  6
CONTINUOUS
 10
158.6503040869
 20
30.5937998301
 11
158.6503040869
 21
31.2068099625
  0
LINE
  8
0
 62
7
  6
CONTINUOUS
 10
159.1128043074
 20
31.4326557675
 11
159.1128043074
 21
31.3681283946
  0
LINE
  8
0
 62
7
  6
CONTINUOUS
 10
159.245872955
 20
32.3970785186
 11
159.245872955
 21
34.5282260596
  0
LINE
  8
0
 62
7
  6
CONTINUOUS
 10
159.5737418074
 20
36.1675703219
 11
159.5737418074
 21
32.3970785186
  0
LINE
  8
0
 62
7
  6
CONTINUOUS
 10
154.2565543074
 20
30.9164367395
 11
154.3143669177
 21
31.0132277988
  0
LINE
  8
0
 62
7
  6
CONTINUOUS
 10
149.8628043005
 20
30.7228545871
 11
150.0362418212
 21
30.6583272086
  0
LINE
  8
0
 62
7
  6
CONTINUOUS
 10
151.3659292523
 20
31.4326557675
 11
151.1924917523
 21
31.5294468267
  0
LINE
  8
0
 62
7
  6
CONTINUOUS
 10
154.0253041972
 20
30.7551182848
 11
154.1987416972
 21
30.6583272086
  0
LINE
  8
0
 62
7
  6
CONTINUOUS
 10
153.0424918074
 20
31.4326557675
 11
153.1581166972
 21
31.3681283946
  0
LINE
  8
0
 62
7
  6
CONTINUOUS
 10
153.3893668074
 20
31.4649194539
 11
153.2737419177
 21
31.5294468267
  0
LINE
  8
0
 62
7
  6
CONTINUOUS
 10
159.1128043074
 20
30.8519093441
 11
159.228429528
 21
30.7228545871
  0
LINE
  8
0
 62
7
  6
CONTINUOUS
 10
159.4596793074
 20
30.7873819712
 11
159.401867028
 21
30.8519093441
  0
LINE
  8
0
 62
7
  6
CONTINUOUS
 10
159.1128043074
 20
31.3681283946
 11
159.228429528
 21
31.2390736489
  0
LINE
  8
0
 62
7
  6
CONTINUOUS
 10
158.5924918074
 20
31.3681283946
 11
158.534679528
 21
31.4649194539
  0
LINE
  8
0
 62
7
  6
CONTINUOUS
 10
160.9628038663
 20
30.7873819712
 11
160.9628038663
 21
30.8519093441
  0
LINE
  8
0
 62
7
  6
CONTINUOUS
 10
160.9671844304
 20
32.3970785186
 11
160.9671844304
 21
36.1675703219
  0
LINE
  8
0
 62
7
  6
CONTINUOUS
 10
154.0253041972
 20
31.4971831403
 11
153.9674919177
 21
31.4326557675
  0
LINE
  8
0
 62
7
  6
CONTINUOUS
 10
150.9034292799
 20
31.4649194539
 11
151.0768668626
 21
31.400392081
  0
LINE
  8
0
 62
7
  6
CONTINUOUS
 10
155.6440543074
 20
31.4649194539
 11
155.5284290869
 21
31.5294468267
  0
LINE
  8
0
 62
7
  6
CONTINUOUS
 10
159.4596793074
 20
31.3036010218
 11
159.401867028
 21
31.3681283946
  0
LINE
  8
0
 62
7
  6
CONTINUOUS
 10
160.615929528
 20
30.9164367395
 11
160.6737418074
 21
30.8519093441
  0
LINE
  8
0
 62
7
  6
CONTINUOUS
 10
160.9628038663
 20
30.8519093441
 11
160.8471793074
 21
30.9809641124
  0
LINE
  8
0
 62
7
  6
CONTINUOUS
 10
160.615929528
 20
31.4326557675
 11
160.6737418074
 21
31.3681283946
  0
LINE
  8
0
 62
7
  6
CONTINUOUS
 10
160.9628038663
 20
31.3681283946
 11
160.8471793074
 21
31.4971831403
  0
LINE
  8
0
 62
7
  6
CONTINUOUS
 10
154.2565543074
 20
31.3681283946
 11
154.3143669177
 21
31.4326557675
  0
LINE
  8
0
 62
7
  6
CONTINUOUS
 10
154.0831168074
 20
31.1100188581
 11
153.9674919177
 21
30.9809641124
  0
LINE
  8
0
 62
7
  6
CONTINUOUS
 10
155.412804528
 20
30.9487004259
 11
155.3549915869
 21
30.8841730531
  0
LINE
  8
0
 62
7
  6
CONTINUOUS
 10
155.3549915869
 20
30.6905909007
 11
155.412804528
 21
30.7551182848
  0
LINE
  8
0
 62
7
  6
CONTINUOUS
 10
154.1987416972
 20
30.6583272086
 11
154.3143669177
 21
30.6260635193
  0
LINE
  8
0
 62
7
  6
CONTINUOUS
 10
151.1924917523
 20
31.5294468267
 11
150.9612418074
 21
31.5939741996
  0
LINE
  8
0
 62
7
  6
CONTINUOUS
 10
154.5456166972
 20
30.7228545871
 11
154.3143669177
 21
30.7873819712
  0
LINE
  8
0
 62
7
  6
CONTINUOUS
 10
153.2737419177
 20
31.5294468267
 11
153.1003044177
 21
31.5939741996
  0
LINE
  8
0
 62
7
  6
CONTINUOUS
 10
155.5284290869
 20
31.5294468267
 11
155.3549915869
 21
31.5939741996
  0
LINE
  8
0
 62
7
  6
CONTINUOUS
 10
158.187804528
 20
31.4326557675
 11
158.3034290869
 21
31.3681283946
  0
LINE
  8
0
 62
7
  6
CONTINUOUS
 10
158.534679528
 20
31.4649194539
 11
158.4190543074
 21
31.5294468267
  0
LINE
  8
0
 62
7
  6
CONTINUOUS
 10
150.0362418212
 20
30.6583272086
 11
150.2096793212
 21
30.6260635193
  0
LINE
  8
0
 62
7
  6
CONTINUOUS
 10
150.498741835
 20
30.7228545871
 11
150.1518667936
 21
30.7873819712
  0
LINE
  8
0
 62
7
  6
CONTINUOUS
 10
152.9268669177
 20
31.4649194539
 11
153.0424918074
 21
31.4326557675
  0
LINE
  8
0
 62
7
  6
CONTINUOUS
 10
155.239367028
 20
31.4649194539
 11
155.3549915869
 21
31.4326557675
  0
LINE
  8
0
 62
7
  6
CONTINUOUS
 10
159.575304528
 20
30.7551182848
 11
159.4596793074
 21
30.7873819712
  0
LINE
  8
0
 62
7
  6
CONTINUOUS
 10
158.0721793074
 20
31.4649194539
 11
158.187804528
 21
31.4326557675
  0
LINE
  8
0
 62
7
  6
CONTINUOUS
 10
159.228429528
 20
30.7228545871
 11
159.401867028
 21
30.6583272086
  0
LINE
  8
0
 62
7
  6
CONTINUOUS
 10
158.4190543074
 20
31.5294468267
 11
158.2456168074
 21
31.5939741996
  0
LINE
  8
0
 62
7
  6
CONTINUOUS
 10
159.6331168074
 20
31.2390736489
 11
159.4596793074
 21
31.3036010218
  0
LINE
  8
0
 62
7
  6
CONTINUOUS
 10
160.442492028
 20
30.9809641124
 11
160.615929528
 21
30.9164367395
  0
LINE
  8
0
 62
7
  6
CONTINUOUS
 10
160.8471793074
 20
31.4971831403
 11
160.6737418074
 21
31.5617105132
  0
LINE
  8
0
 62
7
  6
CONTINUOUS
 10
159.228429528
 20
31.2390736489
 11
159.4596793074
 21
31.1422825445
  0
LINE
  8
0
 62
7
  6
CONTINUOUS
 10
160.8471793074
 20
30.9809641124
 11
160.615929528
 21
31.0777551716
  0
LINE
  8
0
 62
7
  6
CONTINUOUS
 10
159.401867028
 20
31.3681283946
 11
159.4596793074
 21
31.4326557675
  0
LINE
  8
0
 62
7
  6
CONTINUOUS
 10
149.8628043005
 20
31.4971831403
 11
149.7471793074
 21
31.4326557675
  0
LINE
  8
0
 62
7
  6
CONTINUOUS
 10
149.9784292936
 20
31.3358647082
 11
150.1518667936
 21
31.4326557675
  0
LINE
  8
0
 62
7
  6
CONTINUOUS
 10
152.2909293626
 20
31.5294468267
 11
152.1753043074
 21
31.4649194539
  0
LINE
  8
0
 62
7
  6
CONTINUOUS
 10
152.1753043074
 20
31.3358647082
 11
152.2909293626
 21
31.400392081
  0
LINE
  8
0
 62
7
  6
CONTINUOUS
 10
151.1924917523
 20
30.6905909007
 11
151.3659292523
 21
30.7873819712
  0
LINE
  8
0
 62
7
  6
CONTINUOUS
 10
150.2096793212
 20
30.6260635193
 11
150.5565542799
 21
30.5937998301
  0
LINE
  8
0
 62
7
  6
CONTINUOUS
 10
154.3143669177
 20
30.6260635193
 11
154.5456166972
 21
30.5937998301
  0
LINE
  8
0
 62
7
  6
CONTINUOUS
 10
152.6956168074
 20
31.4971831403
 11
152.9268669177
 21
31.4649194539
  0
LINE
  8
0
 62
7
  6
CONTINUOUS
 10
155.0081169177
 20
31.4971831403
 11
155.239367028
 21
31.4649194539
  0
LINE
  8
0
 62
7
  6
CONTINUOUS
 10
159.4596793074
 20
31.1422825445
 11
160.442492028
 21
30.9809641124
  0
LINE
  8
0
 62
7
  6
CONTINUOUS
 10
160.615929528
 20
31.0777551716
 11
159.6331168074
 21
31.2390736489
  0
LINE
  8
0
 62
7
  6
CONTINUOUS
 10
153.1003044177
 20
31.5939741996
 11
152.9268669177
 21
31.626237886
  0
LINE
  8
0
 62
7
  6
CONTINUOUS
 10
159.401867028
 20
30.6583272086
 11
159.575304528
 21
30.6260635193
  0
LINE
  8
0
 62
7
  6
CONTINUOUS
 10
158.2456168074
 20
31.5939741996
 11
158.0721793074
 21
31.626237886
  0
LINE
  8
0
 62
7
  6
CONTINUOUS
 10
160.5003043074
 20
31.4649194539
 11
160.615929528
 21
31.4326557675
  0
LINE
  8
0
 62
7
  6
CONTINUOUS
 10
160.6737418074
 20
30.8519093441
 11
160.615929528
 21
30.7873819712
  0
LINE
  8
0
 62
7
  6
CONTINUOUS
 10
159.228429528
 20
31.5294468267
 11
159.1128043074
 21
31.4326557675
  0
LINE
  8
0
 62
7
  6
CONTINUOUS
 10
154.1409294177
 20
31.5617105132
 11
154.0253041972
 21
31.4971831403
  0
LINE
  8
0
 62
7
  6
CONTINUOUS
 10
154.1987416972
 20
31.1745462761
 11
154.0831168074
 21
31.1100188581
  0
LINE
  8
0
 62
7
  6
CONTINUOUS
 10
154.3143669177
 20
31.0132277988
 11
154.4299918074
 21
31.0777551716
  0
LINE
  8
0
 62
7
  6
CONTINUOUS
 10
151.8862417523
 20
30.5937998301
 11
152.1753043074
 21
30.5937998301
  0
LINE
  8
0
 62
7
  6
CONTINUOUS
 10
153.2159293074
 20
30.5937998301
 11
153.5049916972
 21
30.5937998301
  0
LINE
  8
0
 62
7
  6
CONTINUOUS
 10
154.5456166972
 20
30.5937998301
 11
154.8924916972
 21
30.5937998301
  0
LINE
  8
0
 62
7
  6
CONTINUOUS
 10
155.5284290869
 20
30.5937998301
 11
155.8174918074
 21
30.5937998301
  0
LINE
  8
0
 62
7
  6
CONTINUOUS
 10
156.279992028
 20
30.5937998301
 11
156.5690540869
 21
30.5937998301
  0
LINE
  8
0
 62
7
  6
CONTINUOUS
 10
157.0315543074
 20
30.5937998301
 11
157.320617028
 21
30.5937998301
  0
LINE
  8
0
 62
7
  6
CONTINUOUS
 10
158.361242028
 20
30.5937998301
 11
158.6503040869
 21
30.5937998301
  0
LINE
  8
0
 62
7
  6
CONTINUOUS
 10
159.922179528
 20
30.5937998301
 11
160.269054528
 21
30.5937998301
  0
LINE
  8
0
 62
7
  6
CONTINUOUS
 10
160.269054528
 20
30.7228545871
 11
159.922179528
 21
30.7228545871
  0
LINE
  8
0
 62
7
  6
CONTINUOUS
 10
154.8924916972
 20
30.7228545871
 11
154.5456166972
 21
30.7228545871
  0
LINE
  8
0
 62
7
  6
CONTINUOUS
 10
159.401867028
 20
30.8519093441
 11
159.1128043074
 21
30.8519093441
  0
LINE
  8
0
 62
7
  6
CONTINUOUS
 10
151.4237418626
 20
30.9164367395
 11
151.1346793074
 21
30.9164367395
  0
LINE
  8
0
 62
7
  6
CONTINUOUS
 10
150.498741835
 20
31.4971831403
 11
150.9034292799
 21
31.4649194539
  0
LINE
  8
0
 62
7
  6
CONTINUOUS
 10
150.9612418074
 20
31.5939741996
 11
150.5565542799
 21
31.626237886
  0
LINE
  8
0
 62
7
  6
CONTINUOUS
 10
159.575304528
 20
30.6260635193
 11
159.922179528
 21
30.5937998301
  0
LINE
  8
0
 62
7
  6
CONTINUOUS
 10
159.922179528
 20
30.7228545871
 11
159.575304528
 21
30.7551182848
  0
LINE
  8
0
 62
7
  6
CONTINUOUS
 10
155.3549915869
 20
31.5939741996
 11
155.0081169177
 21
31.626237886
  0
LINE
  8
0
 62
7
  6
CONTINUOUS
 10
160.1534293074
 20
31.4971831403
 11
160.5003043074
 21
31.4649194539
  0
LINE
  8
0
 62
7
  6
CONTINUOUS
 10
160.5003043074
 20
31.5939741996
 11
160.1534293074
 21
31.626237886
  0
LINE
  8
0
 62
7
  6
CONTINUOUS
 10
157.840929528
 20
31.4971831403
 11
158.0721793074
 21
31.4649194539
  0
LINE
  8
0
 62
7
  6
CONTINUOUS
 10
160.6737418074
 20
31.5617105132
 11
160.5003043074
 21
31.5939741996
  0
LINE
  8
0
 62
7
  6
CONTINUOUS
 10
160.8471793074
 20
30.6905909007
 11
160.9628038663
 21
30.7873819712
  0
LINE
  8
0
 62
7
  6
CONTINUOUS
 10
155.3549915869
 20
30.8841730531
 11
155.1815540869
 21
30.7873819712
  0
LINE
  8
0
 62
7
  6
CONTINUOUS
 10
157.4362415869
 20
31.5294468267
 11
157.320617028
 21
31.4649194539
  0
LINE
  8
0
 62
7
  6
CONTINUOUS
 10
157.320617028
 20
31.3358647082
 11
157.4362415869
 21
31.400392081
  0
LINE
  8
0
 62
7
  6
CONTINUOUS
 10
150.0362418212
 20
31.5617105132
 11
149.8628043005
 21
31.4971831403
  0
LINE
  8
0
 62
7
  6
CONTINUOUS
 10
152.4643666972
 20
31.5939741996
 11
152.2909293626
 21
31.5294468267
  0
LINE
  8
0
 62
7
  6
CONTINUOUS
 10
152.2909293626
 20
31.400392081
 11
152.4643666972
 21
31.4649194539
  0
LINE
  8
0
 62
7
  6
CONTINUOUS
 10
151.0768668626
 20
30.8196456577
 11
150.9034292799
 21
30.7551182848
  0
LINE
  8
0
 62
7
  6
CONTINUOUS
 10
160.5003043074
 20
30.7551182848
 11
160.269054528
 21
30.7228545871
  0
LINE
  8
0
 62
7
  6
CONTINUOUS
 10
154.8924916972
 20
30.5937998301
 11
155.1815540869
 21
30.6260635193
  0
LINE
  8
0
 62
7
  6
CONTINUOUS
 10
160.269054528
 20
30.5937998301
 11
160.615929528
 21
30.6260635193
  0
LINE
  8
0
 62
7
  6
CONTINUOUS
 10
150.5565542799
 20
30.5937998301
 11
150.9612418074
 21
30.6260635193
  0
LINE
  8
0
 62
7
  6
CONTINUOUS
 10
150.9034292799
 20
30.7551182848
 11
150.498741835
 21
30.7228545871
  0
LINE
  8
0
 62
7
  6
CONTINUOUS
 10
154.7768668074
 20
31.1422825445
 11
155.412804528
 21
31.1422825445
  0
LINE
  8
0
 62
7
  6
CONTINUOUS
 10
155.412804528
 20
31.2713373354
 11
154.7768668074
 21
31.2713373354
  0
LINE
  8
0
 62
7
  6
CONTINUOUS
 10
151.1346793074
 20
31.3036010218
 11
151.4237418626
 21
31.3036010218
  0
LINE
  8
0
 62
7
  6
CONTINUOUS
 10
153.9674919177
 20
31.3681283946
 11
154.2565543074
 21
31.3681283946
  0
LINE
  8
0
 62
7
  6
CONTINUOUS
 10
160.6737418074
 20
31.3681283946
 11
160.9628038663
 21
31.3681283946
  0
LINE
  8
0
 62
7
  6
CONTINUOUS
 10
154.6612419177
 20
31.4971831403
 11
155.0081169177
 21
31.4971831403
  0
LINE
  8
0
 62
7
  6
CONTINUOUS
 10
159.8065543074
 20
31.4971831403
 11
160.1534293074
 21
31.4971831403
  0
LINE
  8
0
 62
7
  6
CONTINUOUS
 10
160.1534293074
 20
31.626237886
 11
159.8065543074
 21
31.626237886
  0
LINE
  8
0
 62
7
  6
CONTINUOUS
 10
158.0721793074
 20
31.626237886
 11
157.840929528
 21
31.626237886
  0
LINE
  8
0
 62
7
  6
CONTINUOUS
 10
157.320617028
 20
31.626237886
 11
157.0315543074
 21
31.626237886
  0
LINE
  8
0
 62
7
  6
CONTINUOUS
 10
156.5690540869
 20
31.626237886
 11
156.279992028
 21
31.626237886
  0
LINE
  8
0
 62
7
  6
CONTINUOUS
 10
155.0081169177
 20
31.626237886
 11
154.6612419177
 21
31.626237886
  0
LINE
  8
0
 62
7
  6
CONTINUOUS
 10
152.9268669177
 20
31.626237886
 11
152.6956168074
 21
31.626237886
  0
LINE
  8
0
 62
7
  6
CONTINUOUS
 10
156.279992028
 20
31.9488748406
 11
156.5690540869
 21
31.9488748406
  0
LINE
  8
0
 62
7
  6
CONTINUOUS
 10
156.5690540869
 20
32.1101932727
 11
156.279992028
 21
32.1101932727
  0
LINE
  8
0
 62
7
  6
CONTINUOUS
 10
152.1753043074
 20
32.1101932727
 11
151.8862417523
 21
32.1101932727
  0
LINE
  8
0
 62
7
  6
CONTINUOUS
 10
151.2130860697
 20
32.3970785186
 11
151.6256574183
 21
32.3970785186
  0
LINE
  8
0
 62
7
  6
CONTINUOUS
 10
152.852430332
 20
32.3970785186
 11
154.245872955
 21
32.3970785186
  0
LINE
  8
0
 62
7
  6
CONTINUOUS
 10
154.5737418074
 20
32.3970785186
 11
155.9671844304
 21
32.3970785186
  0
LINE
  8
0
 62
7
  6
CONTINUOUS
 10
157.852430332
 20
32.3970785186
 11
159.245872955
 21
32.3970785186
  0
LINE
  8
0
 62
7
  6
CONTINUOUS
 10
159.5737418074
 20
32.3970785186
 11
160.9671844304
 21
32.3970785186
  0
LINE
  8
0
 62
7
  6
CONTINUOUS
 10
157.6096790869
 20
31.5939741996
 11
157.4362415869
 21
31.5294468267
  0
LINE
  8
0
 62
7
  6
CONTINUOUS
 10
155.1815540869
 20
30.6260635193
 11
155.3549915869
 21
30.6905909007
  0
LINE
  8
0
 62
7
  6
CONTINUOUS
 10
160.615929528
 20
30.6260635193
 11
160.8471793074
 21
30.6905909007
  0
LINE
  8
0
 62
7
  6
CONTINUOUS
 10
160.615929528
 20
30.7873819712
 11
160.5003043074
 21
30.7551182848
  0
LINE
  8
0
 62
7
  6
CONTINUOUS
 10
159.575304528
 20
31.4649194539
 11
159.8065543074
 21
31.4971831403
  0
LINE
  8
0
 62
7
  6
CONTINUOUS
 10
157.6096790869
 20
31.4649194539
 11
157.840929528
 21
31.4971831403
  0
LINE
  8
0
 62
7
  6
CONTINUOUS
 10
154.5456166972
 20
31.1100188581
 11
154.7768668074
 21
31.1422825445
  0
LINE
  8
0
 62
7
  6
CONTINUOUS
 10
157.840929528
 20
31.626237886
 11
157.6096790869
 21
31.5939741996
  0
LINE
  8
0
 62
7
  6
CONTINUOUS
 10
154.4299918074
 20
31.4649194539
 11
154.6612419177
 21
31.4971831403
  0
LINE
  8
0
 62
7
  6
CONTINUOUS
 10
159.8065543074
 20
31.626237886
 11
159.4596793074
 21
31.5939741996
  0
LINE
  8
0
 62
7
  6
CONTINUOUS
 10
154.7768668074
 20
31.2713373354
 11
154.4299918074
 21
31.2390736489
  0
LINE
  8
0
 62
7
  6
CONTINUOUS
 10
150.5565542799
 20
31.626237886
 11
150.2096793212
 21
31.5939741996
  0
LINE
  8
0
 62
7
  6
CONTINUOUS
 10
154.6612419177
 20
31.626237886
 11
154.2565543074
 21
31.5939741996
  0
LINE
  8
0
 62
7
  6
CONTINUOUS
 10
152.0327582009
 20
33.5446195022
 11
151.3770204959
 21
33.5446195022
  0
LINE
  8
0
 62
7
  6
CONTINUOUS
 10
157.4362415869
 20
31.400392081
 11
157.6096790869
 21
31.4649194539
  0
LINE
  8
0
 62
7
  6
CONTINUOUS
 10
159.4596793074
 20
31.4326557675
 11
159.575304528
 21
31.4649194539
  0
LINE
  8
0
 62
7
  6
CONTINUOUS
 10
159.4596793074
 20
31.5939741996
 11
159.228429528
 21
31.5294468267
  0
LINE
  8
0
 62
7
  6
CONTINUOUS
 10
155.1815540869
 20
30.7873819712
 11
154.8924916972
 21
30.7228545871
  0
LINE
  8
0
 62
7
  6
CONTINUOUS
 10
152.4643666972
 20
31.4649194539
 11
152.6956168074
 21
31.4971831403
  0
LINE
  8
0
 62
7
  6
CONTINUOUS
 10
152.6956168074
 20
31.626237886
 11
152.4643666972
 21
31.5939741996
  0
LINE
  8
0
 62
7
  6
CONTINUOUS
 10
150.2674918074
 20
31.4649194539
 11
150.498741835
 21
31.4971831403
  0
LINE
  8
0
 62
7
  6
CONTINUOUS
 10
156.7868565615
 20
35.0200293383
 11
157.4425942664
 21
35.0200293383
  0
LINE
  8
0
 62
7
  6
CONTINUOUS
 10
154.4299918074
 20
31.0777551716
 11
154.5456166972
 21
31.1100188581
  0
LINE
  8
0
 62
7
  6
CONTINUOUS
 10
154.4299918074
 20
31.2390736489
 11
154.1987416972
 21
31.1745462761
  0
LINE
  8
0
 62
7
  6
CONTINUOUS
 10
154.3143669177
 20
31.4326557675
 11
154.4299918074
 21
31.4649194539
  0
LINE
  8
0
 62
7
  6
CONTINUOUS
 10
150.9612418074
 20
30.6260635193
 11
151.1924917523
 21
30.6905909007
  0
LINE
  8
0
 62
7
  6
CONTINUOUS
 10
154.2565543074
 20
31.5939741996
 11
154.1409294177
 21
31.5617105132
  0
LINE
  8
0
 62
7
  6
CONTINUOUS
 10
150.2096793212
 20
31.5939741996
 11
150.0362418212
 21
31.5617105132
  0
LINE
  8
0
 62
7
  6
CONTINUOUS
 10
160.9671844304
 20
36.1675703219
 11
159.5737418074
 21
36.1675703219
  0
LINE
  8
0
 62
7
  6
CONTINUOUS
 10
157.6065286927
 20
36.1675703219
 11
157.1939573441
 21
36.1675703219
  0
LINE
  8
0
 62
7
  6
CONTINUOUS
 10
155.9671844304
 20
36.1675703219
 11
154.5737418074
 21
36.1675703219
  0
LINE
  8
0
 62
7
  6
CONTINUOUS
 10
154.245872955
 20
36.1675703219
 11
152.852430332
 21
36.1675703219
  0
LINE
  8
0
 62
7
  6
CONTINUOUS
 10
150.9671844304
 20
36.1675703219
 11
149.5737418074
 21
36.1675703219
  0
LINE
  8
0
 62
7
  6
CONTINUOUS
 10
150.1518667936
 20
31.4326557675
 11
150.2674918074
 21
31.4649194539
  0
CIRCLE
  8
0
 62
7
  6
CONTINUOUS
 10
160.2704631189
 20
38.5036358957
 40
2.0901639344
  0
ARC
  8
0
 62
7
  6
CONTINUOUS
 10
151.2130860697
 20
34.0364227809
 40
1.6393442623
 50
180.0
 51
270.0
  0
ARC
  8
0
 62
7
  6
CONTINUOUS
 10
157.6065286927
 20
34.5282260596
 40
1.6393442623
 50
0.0
 51
90.0
  0
ARC
  8
0
 62
7
  6
CONTINUOUS
 10
151.6256574183
 20
33.8724883547
 40
1.4754098361
 50
270.0
 51
326.2510114041
  0
ARC
  8
0
 62
7
  6
CONTINUOUS
 10
157.1939573441
 20
34.6921604858
 40
1.4754098361
 50
90.0
 51
146.2510114041
  0
ARC
  8
0
 62
7
  6
CONTINUOUS
 10
152.0327582009
 20
34.3642916334
 40
0.8196721311
 50
270.0
 51
360.0
  0
ARC
  8
0
 62
7
  6
CONTINUOUS
 10
156.7868565615
 20
34.2003572071
 40
0.8196721311
 50
90.0
 51
180.0
  0
ARC
  8
0
 62
7
  6
CONTINUOUS
 10
151.3770204959
 20
33.9544555678
 40
0.4098360656
 50
180.0
 51
270.0
  0
ARC
  8
0
 62
7
  6
CONTINUOUS
 10
157.4425942664
 20
34.6101932727
 40
0.4098360656
 50
0.0
 51
90.0
  0
SOLID
  8
0
 62
7
  6
CONTINUOUS
 10
156.279992028
 20
31.9488752009
 11
156.279992028
 21
32.1101936845
 12
156.5690540869
 22
31.9488752009
 13
156.5690540869
 23
32.1101936845
  0
SOLID
  8
0
 62
7
  6
CONTINUOUS
 10
150.5565542799
 20
31.6262382337
 11
150.9612418074
 21
31.5939740028
 12
150.2096793212
 22
31.5939740028
 13
150.2096793212
 23
31.5939740028
  0
SOLID
  8
0
 62
7
  6
CONTINUOUS
 10
150.0362418212
 20
31.5617111435
 11
150.2096793212
 21
31.5939740028
 12
150.9612418074
 22
31.5939740028
 13
150.9612418074
 23
31.5939740028
  0
SOLID
  8
0
 62
7
  6
CONTINUOUS
 10
150.9612418074
 20
31.5939740028
 11
151.1924917523
 21
31.5294468402
 12
150.0362418212
 22
31.5617111435
 13
150.0362418212
 23
31.5617111435
  0
SOLID
  8
0
 62
7
  6
CONTINUOUS
 10
149.8628043005
 20
31.49718259
 11
150.0362418212
 21
31.5617111435
 12
151.1924917523
 22
31.5294468402
 13
151.1924917523
 23
31.5294468402
  0
SOLID
  8
0
 62
7
  6
CONTINUOUS
 10
149.8628043005
 20
31.49718259
 11
151.1924917523
 21
31.5294468402
 12
150.498741835
 22
31.49718259
 13
150.498741835
 23
31.49718259
  0
SOLID
  8
0
 62
7
  6
CONTINUOUS
 10
150.498741835
 20
31.49718259
 11
151.1924917523
 21
31.5294468402
 12
150.9034292799
 22
31.4649197501
 13
150.9034292799
 23
31.4649197501
  0
SOLID
  8
0
 62
7
  6
CONTINUOUS
 10
151.1924917523
 20
31.5294468402
 11
151.3659292523
 21
31.4326554468
 12
150.9034292799
 22
31.4649197501
 13
150.9034292799
 23
31.4649197501
  0
SOLID
  8
0
 62
7
  6
CONTINUOUS
 10
151.0768668626
 20
31.4003926599
 11
150.9034292799
 21
31.4649197501
 12
151.3659292523
 22
31.4326554468
 13
151.3659292523
 23
31.4326554468
  0
SOLID
  8
0
 62
7
  6
CONTINUOUS
 10
151.0768668626
 20
31.4003926599
 11
151.3659292523
 21
31.4326554468
 12
151.1346793074
 22
31.3036013776
 13
151.1346793074
 23
31.3036013776
  0
SOLID
  8
0
 62
7
  6
CONTINUOUS
 10
151.3659292523
 20
31.4326554468
 11
151.4237418626
 21
31.3036013776
 12
151.1346793074
 22
31.3036013776
 13
151.1346793074
 23
31.3036013776
  0
SOLID
  8
0
 62
7
  6
CONTINUOUS
 10
152.4643666972
 20
31.5939739754
 11
152.6956168074
 21
31.6262382787
 12
152.9268669177
 22
31.6262382787
 13
152.9268669177
 23
31.6262382787
  0
SOLID
  8
0
 62
7
  6
CONTINUOUS
 10
152.9268669177
 20
31.6262382787
 11
153.1003044177
 21
31.5939739754
 12
152.4643666972
 22
31.5939739754
 13
152.4643666972
 23
31.5939739754
  0
SOLID
  8
0
 62
7
  6
CONTINUOUS
 10
152.2909293626
 20
31.5294468852
 11
152.4643666972
 21
31.5939739754
 12
153.1003044177
 22
31.5939739754
 13
153.1003044177
 23
31.5939739754
  0
SOLID
  8
0
 62
7
  6
CONTINUOUS
 10
153.1003044177
 20
31.5939739754
 11
153.2737419177
 21
31.5294468852
 12
152.2909293626
 22
31.5294468852
 13
152.2909293626
 23
31.5294468852
  0
SOLID
  8
0
 62
7
  6
CONTINUOUS
 10
153.2737419177
 20
31.5294468852
 11
152.6956168074
 21
31.4971825369
 12
152.2909293626
 22
31.5294468852
 13
152.2909293626
 23
31.5294468852
  0
SOLID
  8
0
 62
7
  6
CONTINUOUS
 10
152.1753043074
 20
31.4649197951
 11
152.2909293626
 21
31.5294468852
 12
152.6956168074
 22
31.4971825369
 13
152.6956168074
 23
31.4971825369
  0
SOLID
  8
0
 62
7
  6
CONTINUOUS
 10
152.6956168074
 20
31.4971825369
 11
152.4643666972
 21
31.4649197951
 12
152.1753043074
 22
31.4649197951
 13
152.1753043074
 23
31.4649197951
  0
SOLID
  8
0
 62
7
  6
CONTINUOUS
 10
152.6956168074
 20
31.4971825369
 11
153.2737419177
 21
31.5294468852
 12
152.9268669177
 22
31.4649197951
 13
152.9268669177
 23
31.4649197951
  0
SOLID
  8
0
 62
7
  6
CONTINUOUS
 10
153.2737419177
 20
31.5294468852
 11
153.3893668074
 21
31.4649197951
 12
152.9268669177
 22
31.4649197951
 13
152.9268669177
 23
31.4649197951
  0
SOLID
  8
0
 62
7
  6
CONTINUOUS
 10
153.0424918074
 20
31.4326554468
 11
152.9268669177
 21
31.4649197951
 12
153.3893668074
 22
31.4649197951
 13
153.3893668074
 23
31.4649197951
  0
SOLID
  8
0
 62
7
  6
CONTINUOUS
 10
153.3893668074
 20
31.4649197951
 11
153.4471794177
 21
31.4003927049
 12
153.0424918074
 22
31.4326554468
 13
153.0424918074
 23
31.4326554468
  0
SOLID
  8
0
 62
7
  6
CONTINUOUS
 10
153.1581166972
 20
31.3681283566
 11
153.0424918074
 21
31.4326554468
 12
153.4471794177
 22
31.4003927049
 13
153.4471794177
 23
31.4003927049
  0
SOLID
  8
0
 62
7
  6
CONTINUOUS
 10
153.1581166972
 20
31.3681283566
 11
153.4471794177
 21
31.4003927049
 12
153.2159293074
 22
31.2390742213
 13
153.2159293074
 23
31.2390742213
  0
SOLID
  8
0
 62
7
  6
CONTINUOUS
 10
153.4471794177
 20
31.4003927049
 11
153.5049916972
 21
31.2390742213
 12
153.2159293074
 22
31.2390742213
 13
153.2159293074
 23
31.2390742213
  0
SOLID
  8
0
 62
7
  6
CONTINUOUS
 10
152.4643666972
 20
31.4649197951
 11
152.2909293626
 21
31.4003927049
 12
152.1753043074
 22
31.4649197951
 13
152.1753043074
 23
31.4649197951
  0
SOLID
  8
0
 62
7
  6
CONTINUOUS
 10
152.2909293626
 20
31.4003927049
 11
152.1753043074
 21
31.3358640533
 12
152.1753043074
 22
31.4649197951
 13
152.1753043074
 23
31.4649197951
  0
SOLID
  8
0
 62
7
  6
CONTINUOUS
 10
152.1753043074
 20
31.3358640533
 11
151.8862417523
 21
30.5938002869
 12
152.1753043074
 22
31.4649197951
 13
152.1753043074
 23
31.4649197951
  0
SOLID
  8
0
 62
7
  6
CONTINUOUS
 10
152.1753043074
 20
31.4649197951
 11
151.8862417523
 21
30.5938002869
 12
152.1753043074
 22
32.1101937295
 13
152.1753043074
 23
32.1101937295
  0
SOLID
  8
0
 62
7
  6
CONTINUOUS
 10
151.8862417523
 20
30.5938002869
 11
151.8862417523
 21
32.1101937295
 12
152.1753043074
 22
32.1101937295
 13
152.1753043074
 23
32.1101937295
  0
SOLID
  8
0
 62
7
  6
CONTINUOUS
 10
152.1753043074
 20
31.3358640533
 11
152.1753043074
 21
30.5938002869
 12
151.8862417523
 22
30.5938002869
 13
151.8862417523
 23
30.5938002869
  0
SOLID
  8
0
 62
7
  6
CONTINUOUS
 10
153.2159293074
 20
30.5938002869
 11
153.2159293074
 21
31.2390742213
 12
153.5049916972
 22
31.2390742213
 13
153.5049916972
 23
31.2390742213
  0
SOLID
  8
0
 62
7
  6
CONTINUOUS
 10
153.5049916972
 20
31.2390742213
 11
153.5049916972
 21
30.5938002869
 12
153.2159293074
 22
30.5938002869
 13
153.2159293074
 23
30.5938002869
  0
SOLID
  8
0
 62
7
  6
CONTINUOUS
 10
154.2565543074
 20
31.5939738288
 11
154.6612419177
 21
31.6262385959
 12
155.0081169177
 22
31.6262385959
 13
155.0081169177
 23
31.6262385959
  0
SOLID
  8
0
 62
7
  6
CONTINUOUS
 10
155.0081169177
 20
31.6262385959
 11
155.3549915869
 21
31.5939738288
 12
154.2565543074
 22
31.5939738288
 13
154.2565543074
 23
31.5939738288
  0
SOLID
  8
0
 62
7
  6
CONTINUOUS
 10
154.1409294177
 20
31.5617111435
 11
154.2565543074
 21
31.5939738288
 12
155.3549915869
 22
31.5939738288
 13
155.3549915869
 23
31.5939738288
  0
SOLID
  8
0
 62
7
  6
CONTINUOUS
 10
155.3549915869
 20
31.5939738288
 11
155.5284290869
 21
31.5294468402
 12
154.1409294177
 22
31.5617111435
 13
154.1409294177
 23
31.5617111435
  0
SOLID
  8
0
 62
7
  6
CONTINUOUS
 10
154.0253041972
 20
31.4971826249
 11
154.1409294177
 21
31.5617111435
 12
155.5284290869
 22
31.5294468402
 13
155.5284290869
 23
31.5294468402
  0
SOLID
  8
0
 62
7
  6
CONTINUOUS
 10
154.0253041972
 20
31.4971826249
 11
155.5284290869
 21
31.5294468402
 12
154.6612419177
 22
31.4971826249
 13
154.6612419177
 23
31.4971826249
  0
SOLID
  8
0
 62
7
  6
CONTINUOUS
 10
154.6612419177
 20
31.4971826249
 11
155.5284290869
 21
31.5294468402
 12
155.0081169177
 22
31.4971826249
 13
155.0081169177
 23
31.4971826249
  0
SOLID
  8
0
 62
7
  6
CONTINUOUS
 10
155.0081169177
 20
31.4971826249
 11
155.5284290869
 21
31.5294468402
 12
155.239367028
 22
31.4649194065
 13
155.239367028
 23
31.4649194065
  0
SOLID
  8
0
 62
7
  6
CONTINUOUS
 10
155.5284290869
 20
31.5294468402
 11
155.6440543074
 21
31.4649194065
 12
155.239367028
 22
31.4649194065
 13
155.239367028
 23
31.4649194065
  0
SOLID
  8
0
 62
7
  6
CONTINUOUS
 10
153.9674919177
 20
31.4326554138
 11
154.0253041972
 21
31.4971826249
 12
154.6612419177
 22
31.4971826249
 13
154.6612419177
 23
31.4971826249
  0
SOLID
  8
0
 62
7
  6
CONTINUOUS
 10
155.3549915869
 20
31.4326554138
 11
155.239367028
 21
31.4649194065
 12
155.6440543074
 22
31.4649194065
 13
155.6440543074
 23
31.4649194065
  0
SOLID
  8
0
 62
7
  6
CONTINUOUS
 10
155.3549915869
 20
31.4326554138
 11
155.6440543074
 21
31.4649194065
 12
155.412804528
 22
31.3681282026
 13
155.412804528
 23
31.3681282026
  0
SOLID
  8
0
 62
7
  6
CONTINUOUS
 10
155.6440543074
 20
31.4649194065
 11
155.7018665869
 21
31.3681282026
 12
155.412804528
 22
31.3681282026
 13
155.412804528
 23
31.3681282026
  0
SOLID
  8
0
 62
7
  6
CONTINUOUS
 10
155.412804528
 20
31.2713369632
 11
155.412804528
 21
31.3681282026
 12
155.7018665869
 22
31.3681282026
 13
155.7018665869
 23
31.3681282026
  0
SOLID
  8
0
 62
7
  6
CONTINUOUS
 10
155.412804528
 20
31.2713369632
 11
155.7018665869
 21
31.3681282026
 12
155.412804528
 22
31.1422827828
 13
155.412804528
 23
31.1422827828
  0
SOLID
  8
0
 62
7
  6
CONTINUOUS
 10
155.412804528
 20
31.1422827828
 11
155.7018665869
 21
31.3681282026
 12
155.412804528
 22
30.9487004259
 13
155.412804528
 23
30.9487004259
  0
SOLID
  8
0
 62
7
  6
CONTINUOUS
 10
155.7018665869
 20
31.3681282026
 11
155.7018665869
 21
30.8519086025
 12
155.412804528
 22
30.9487004259
 13
155.412804528
 23
30.9487004259
  0
SOLID
  8
0
 62
7
  6
CONTINUOUS
 10
157.6096790869
 20
31.5939736268
 11
157.840929528
 21
31.6262383465
 12
158.0721793074
 22
31.6262383465
 13
158.0721793074
 23
31.6262383465
  0
SOLID
  8
0
 62
7
  6
CONTINUOUS
 10
158.0721793074
 20
31.6262383465
 11
158.2456168074
 21
31.5939736268
 12
157.6096790869
 22
31.5939736268
 13
157.6096790869
 23
31.5939736268
  0
SOLID
  8
0
 62
7
  6
CONTINUOUS
 10
157.4362415869
 20
31.5294472848
 11
157.6096790869
 21
31.5939736268
 12
158.2456168074
 22
31.5939736268
 13
158.2456168074
 23
31.5939736268
  0
SOLID
  8
0
 62
7
  6
CONTINUOUS
 10
158.2456168074
 20
31.5939736268
 11
158.4190543074
 21
31.5294472848
 12
157.4362415869
 22
31.5294472848
 13
157.4362415869
 23
31.5294472848
  0
SOLID
  8
0
 62
7
  6
CONTINUOUS
 10
158.4190543074
 20
31.5294472848
 11
157.840929528
 21
31.4971825369
 12
157.4362415869
 22
31.5294472848
 13
157.4362415869
 23
31.5294472848
  0
SOLID
  8
0
 62
7
  6
CONTINUOUS
 10
157.320617028
 20
31.4649199103
 11
157.4362415869
 21
31.5294472848
 12
157.840929528
 22
31.4971825369
 13
157.840929528
 23
31.4971825369
  0
SOLID
  8
0
 62
7
  6
CONTINUOUS
 10
157.840929528
 20
31.4971825369
 11
157.6096790869
 21
31.4649199103
 12
157.320617028
 22
31.4649199103
 13
157.320617028
 23
31.4649199103
  0
SOLID
  8
0
 62
7
  6
CONTINUOUS
 10
157.840929528
 20
31.4971825369
 11
158.4190543074
 21
31.5294472848
 12
158.0721793074
 22
31.4649199103
 13
158.0721793074
 23
31.4649199103
  0
SOLID
  8
0
 62
7
  6
CONTINUOUS
 10
158.4190543074
 20
31.5294472848
 11
158.534679528
 21
31.4649199103
 12
158.0721793074
 22
31.4649199103
 13
158.0721793074
 23
31.4649199103
  0
SOLID
  8
0
 62
7
  6
CONTINUOUS
 10
158.187804528
 20
31.4326554468
 11
158.0721793074
 21
31.4649199103
 12
158.534679528
 22
31.4649199103
 13
158.534679528
 23
31.4649199103
  0
SOLID
  8
0
 62
7
  6
CONTINUOUS
 10
158.187804528
 20
31.4326554468
 11
158.534679528
 21
31.4649199103
 12
158.3034290869
 22
31.3681288486
 13
158.3034290869
 23
31.3681288486
  0
SOLID
  8
0
 62
7
  6
CONTINUOUS
 10
158.534679528
 20
31.4649199103
 11
158.5924918074
 21
31.3681288486
 12
158.3034290869
 22
31.3681288486
 13
158.3034290869
 23
31.3681288486
  0
SOLID
  8
0
 62
7
  6
CONTINUOUS
 10
158.361242028
 20
31.2068093799
 11
158.3034290869
 21
31.3681288486
 12
158.5924918074
 22
31.3681288486
 13
158.5924918074
 23
31.3681288486
  0
SOLID
  8
0
 62
7
  6
CONTINUOUS
 10
158.5924918074
 20
31.3681288486
 11
158.6503040869
 21
31.2068093799
 12
158.361242028
 22
31.2068093799
 13
158.361242028
 23
31.2068093799
  0
SOLID
  8
0
 62
7
  6
CONTINUOUS
 10
157.6096790869
 20
31.4649199103
 11
157.4362415869
 21
31.4003926599
 12
157.320617028
 22
31.4649199103
 13
157.320617028
 23
31.4649199103
  0
SOLID
  8
0
 62
7
  6
CONTINUOUS
 10
157.4362415869
 20
31.4003926599
 11
157.320617028
 21
31.3358640533
 12
157.320617028
 22
31.4649199103
 13
157.320617028
 23
31.4649199103
  0
SOLID
  8
0
 62
7
  6
CONTINUOUS
 10
157.320617028
 20
31.3358640533
 11
157.0315543074
 21
30.5938003547
 12
157.320617028
 22
31.4649199103
 13
157.320617028
 23
31.4649199103
  0
SOLID
  8
0
 62
7
  6
CONTINUOUS
 10
157.320617028
 20
31.4649199103
 11
157.0315543074
 21
30.5938003547
 12
157.320617028
 22
31.6262383465
 13
157.320617028
 23
31.6262383465
  0
SOLID
  8
0
 62
7
  6
CONTINUOUS
 10
157.0315543074
 20
30.5938003547
 11
157.0315543074
 21
31.6262383465
 12
157.320617028
 22
31.6262383465
 13
157.320617028
 23
31.6262383465
  0
SOLID
  8
0
 62
7
  6
CONTINUOUS
 10
157.320617028
 20
31.3358640533
 11
157.320617028
 21
30.5938003547
 12
157.0315543074
 22
30.5938003547
 13
157.0315543074
 23
30.5938003547
  0
SOLID
  8
0
 62
7
  6
CONTINUOUS
 10
158.361242028
 20
30.5938003547
 11
158.361242028
 21
31.2068093799
 12
158.6503040869
 22
31.2068093799
 13
158.6503040869
 23
31.2068093799
  0
SOLID
  8
0
 62
7
  6
CONTINUOUS
 10
158.6503040869
 20
31.2068093799
 11
158.6503040869
 21
30.5938003547
 12
158.361242028
 22
30.5938003547
 13
158.361242028
 23
30.5938003547
  0
SOLID
  8
0
 62
7
  6
CONTINUOUS
 10
159.4596793074
 20
31.5939739474
 11
159.8065543074
 21
31.6262381969
 12
160.1534293074
 22
31.6262381969
 13
160.1534293074
 23
31.6262381969
  0
SOLID
  8
0
 62
7
  6
CONTINUOUS
 10
160.1534293074
 20
31.6262381969
 11
160.5003043074
 21
31.5939739474
 12
159.4596793074
 22
31.5939739474
 13
159.4596793074
 23
31.5939739474
  0
SOLID
  8
0
 62
7
  6
CONTINUOUS
 10
159.228429528
 20
31.5294468402
 11
159.4596793074
 21
31.5939739474
 12
160.5003043074
 22
31.5939739474
 13
160.5003043074
 23
31.5939739474
  0
SOLID
  8
0
 62
7
  6
CONTINUOUS
 10
159.228429528
 20
31.5294468402
 11
160.5003043074
 21
31.5939739304
 12
160.6737418074
 22
31.5617111435
 13
160.6737418074
 23
31.5617111435
  0
SOLID
  8
0
 62
7
  6
CONTINUOUS
 10
159.228429528
 20
31.5294468402
 11
160.6737418074
 21
31.5617111435
 12
159.8065543074
 22
31.4971825592
 13
159.8065543074
 23
31.4971825592
  0
SOLID
  8
0
 62
7
  6
CONTINUOUS
 10
159.8065543074
 20
31.4971825592
 11
160.6737418074
 21
31.5617111435
 12
160.1534293074
 22
31.4971825592
 13
160.1534293074
 23
31.4971825592
  0
SOLID
  8
0
 62
7
  6
CONTINUOUS
 10
160.6737418074
 20
31.5617111435
 11
160.8471793074
 21
31.4971825592
 12
160.1534293074
 22
31.4971825592
 13
160.1534293074
 23
31.4971825592
  0
SOLID
  8
0
 62
7
  6
CONTINUOUS
 10
160.5003043074
 20
31.4649197501
 11
160.1534293074
 21
31.4971825592
 12
160.8471793074
 22
31.4971825592
 13
160.8471793074
 23
31.4971825592
  0
SOLID
  8
0
 62
7
  6
CONTINUOUS
 10
159.1128043074
 20
31.4326555427
 11
159.228429528
 21
31.5294468402
 12
159.8065543074
 22
31.4971825592
 13
159.8065543074
 23
31.4971825592
  0
SOLID
  8
0
 62
7
  6
CONTINUOUS
 10
160.5003043074
 20
31.4649197501
 11
160.8471793074
 21
31.4971825592
 12
160.615929528
 22
31.4326555427
 13
160.615929528
 23
31.4326555427
  0
SOLID
  8
0
 62
7
  6
CONTINUOUS
 10
160.615929528
 20
31.4326555427
 11
160.8471793074
 21
31.4971825592
 12
160.6737418074
 22
31.3681283005
 13
160.6737418074
 23
31.3681283005
  0
SOLID
  8
0
 62
7
  6
CONTINUOUS
 10
160.8471793074
 20
31.4971825592
 11
160.9628038663
 21
31.3681283005
 12
160.6737418074
 22
31.3681283005
 13
160.6737418074
 23
31.3681283005
  0
SOLID
  8
0
 62
7
  6
CONTINUOUS
 10
150.2674918074
 20
31.4649197501
 11
149.7471793074
 21
31.4326554237
 12
150.498741835
 22
31.4971824493
 13
150.498741835
 23
31.4971824493
  0
SOLID
  8
0
 62
7
  6
CONTINUOUS
 10
149.7471793074
 20
31.4326554237
 11
149.8628043005
 21
31.4971824493
 12
150.498741835
 22
31.4971824493
 13
150.498741835
 23
31.4971824493
  0
SOLID
  8
0
 62
7
  6
CONTINUOUS
 10
150.2674918074
 20
31.4649197501
 11
150.1518667936
 21
31.4326554237
 12
149.7471793074
 22
31.4326554237
 13
149.7471793074
 23
31.4326554237
  0
SOLID
  8
0
 62
7
  6
CONTINUOUS
 10
149.6315543091
 20
31.3036012664
 11
149.7471793074
 21
31.4326554237
 12
150.1518667936
 22
31.4326554237
 13
150.1518667936
 23
31.4326554237
  0
SOLID
  8
0
 62
7
  6
CONTINUOUS
 10
153.9674919177
 20
31.4326554237
 11
154.6612419177
 21
31.4971825369
 12
154.4299918074
 22
31.4649197501
 13
154.4299918074
 23
31.4649197501
  0
SOLID
  8
0
 62
7
  6
CONTINUOUS
 10
154.4299918074
 20
31.4649197501
 11
154.3143669177
 21
31.4326554237
 12
153.9674919177
 22
31.4326554237
 13
153.9674919177
 23
31.4326554237
  0
SOLID
  8
0
 62
7
  6
CONTINUOUS
 10
153.9674919177
 20
31.3681283335
 11
153.9674919177
 21
31.4326554237
 12
154.3143669177
 22
31.4326554237
 13
154.3143669177
 23
31.4326554237
  0
SOLID
  8
0
 62
7
  6
CONTINUOUS
 10
154.3143669177
 20
31.4326554237
 11
154.2565543074
 21
31.3681283335
 12
153.9674919177
 22
31.3681283335
 13
153.9674919177
 23
31.3681283335
  0
SOLID
  8
0
 62
7
  6
CONTINUOUS
 10
159.1128043074
 20
31.4326555528
 11
159.8065543074
 21
31.4971825369
 12
159.575304528
 22
31.4649197501
 13
159.575304528
 23
31.4649197501
  0
SOLID
  8
0
 62
7
  6
CONTINUOUS
 10
159.575304528
 20
31.4649197501
 11
159.4596793074
 21
31.4326555528
 12
159.1128043074
 22
31.4326555528
 13
159.1128043074
 23
31.4326555528
  0
SOLID
  8
0
 62
7
  6
CONTINUOUS
 10
159.1128043074
 20
31.3681284626
 11
159.1128043074
 21
31.4326555528
 12
159.4596793074
 22
31.4326555528
 13
159.4596793074
 23
31.4326555528
  0
SOLID
  8
0
 62
7
  6
CONTINUOUS
 10
159.4596793074
 20
31.4326555528
 11
159.401867028
 21
31.3681284626
 12
159.1128043074
 22
31.3681284626
 13
159.1128043074
 23
31.3681284626
  0
SOLID
  8
0
 62
7
  6
CONTINUOUS
 10
159.228429528
 20
31.2390741763
 11
159.1128043074
 21
31.3681284626
 12
159.401867028
 22
31.3681284626
 13
159.401867028
 23
31.3681284626
  0
SOLID
  8
0
 62
7
  6
CONTINUOUS
 10
149.6315543091
 20
31.3036012664
 11
150.1518667936
 21
31.4326554468
 12
149.9784292936
 22
31.3358640533
 13
149.9784292936
 23
31.3358640533
  0
SOLID
  8
0
 62
7
  6
CONTINUOUS
 10
149.9784292936
 20
31.3358640533
 11
149.9206168074
 21
31.2713369632
 12
149.6315543091
 22
31.3036012664
 13
149.6315543091
 23
31.3036012664
  0
SOLID
  8
0
 62
7
  6
CONTINUOUS
 10
149.5737418074
 20
31.1100184796
 11
149.6315543091
 21
31.3036012664
 12
149.9206168074
 22
31.2713369632
 13
149.9206168074
 23
31.2713369632
  0
SOLID
  8
0
 62
7
  6
CONTINUOUS
 10
154.4299918074
 20
31.2390741763
 11
154.7768668074
 21
31.271336924
 12
155.412804528
 22
31.271336924
 13
155.412804528
 23
31.271336924
  0
SOLID
  8
0
 62
7
  6
CONTINUOUS
 10
154.4299918074
 20
31.2390741763
 11
155.412804528
 21
31.271336924
 12
154.1987416972
 22
31.1745462761
 13
154.1987416972
 23
31.1745462761
  0
SOLID
  8
0
 62
7
  6
CONTINUOUS
 10
154.1987416972
 20
31.1745462761
 11
155.412804528
 21
31.271336924
 12
154.7768668074
 22
31.1422827436
 13
154.7768668074
 23
31.1422827436
  0
SOLID
  8
0
 62
7
  6
CONTINUOUS
 10
155.412804528
 20
31.271336924
 11
155.412804528
 21
31.1422827436
 12
154.7768668074
 22
31.1422827436
 13
154.7768668074
 23
31.1422827436
  0
SOLID
  8
0
 62
7
  6
CONTINUOUS
 10
159.228429528
 20
31.2390745501
 11
159.401867028
 21
31.3681283566
 12
159.4596793074
 22
31.3036012664
 13
159.4596793074
 23
31.3036012664
  0
SOLID
  8
0
 62
7
  6
CONTINUOUS
 10
159.4596793074
 20
31.3036012664
 11
159.6331168074
 21
31.2390745501
 12
159.228429528
 22
31.2390745501
 13
159.228429528
 23
31.2390745501
  0
SOLID
  8
0
 62
7
  6
CONTINUOUS
 10
159.4596793074
 20
31.1422827828
 11
159.228429528
 21
31.2390745501
 12
159.6331168074
 22
31.2390745501
 13
159.6331168074
 23
31.2390745501
  0
SOLID
  8
0
 62
7
  6
CONTINUOUS
 10
159.6331168074
 20
31.2390745501
 11
160.615929528
 21
31.0777556927
 12
159.4596793074
 22
31.1422827828
 13
159.4596793074
 23
31.1422827828
  0
SOLID
  8
0
 62
7
  6
CONTINUOUS
 10
160.442492028
 20
30.9809646623
 11
159.4596793074
 21
31.1422827828
 12
160.615929528
 22
31.0777556927
 13
160.615929528
 23
31.0777556927
  0
SOLID
  8
0
 62
7
  6
CONTINUOUS
 10
160.615929528
 20
31.0777556927
 11
160.8471793074
 21
30.9809646623
 12
160.442492028
 22
30.9809646623
 13
160.442492028
 23
30.9809646623
  0
SOLID
  8
0
 62
7
  6
CONTINUOUS
 10
160.615929528
 20
30.9164372091
 11
160.442492028
 21
30.9809646623
 12
160.8471793074
 22
30.9809646623
 13
160.8471793074
 23
30.9809646623
  0
SOLID
  8
0
 62
7
  6
CONTINUOUS
 10
160.615929528
 20
30.9164372091
 11
160.8471793074
 21
30.9809646623
 12
160.6737418074
 22
30.8519089441
 13
160.6737418074
 23
30.8519089441
  0
SOLID
  8
0
 62
7
  6
CONTINUOUS
 10
160.8471793074
 20
30.9809646623
 11
160.9628038663
 21
30.8519089441
 12
160.6737418074
 22
30.8519089441
 13
160.6737418074
 23
30.8519089441
  0
SOLID
  8
0
 62
7
  6
CONTINUOUS
 10
160.615929528
 20
30.7873818593
 11
160.6737418074
 21
30.8519089441
 12
160.9628038663
 22
30.8519089441
 13
160.9628038663
 23
30.8519089441
  0
SOLID
  8
0
 62
7
  6
CONTINUOUS
 10
160.9628038663
 20
30.8519089441
 11
160.9628038663
 21
30.7873818593
 12
160.615929528
 22
30.7873818593
 13
160.615929528
 23
30.7873818593
  0
SOLID
  8
0
 62
7
  6
CONTINUOUS
 10
160.5003043074
 20
30.7551187255
 11
160.615929528
 21
30.7873818593
 12
160.9628038663
 22
30.7873818593
 13
160.9628038663
 23
30.7873818593
  0
SOLID
  8
0
 62
7
  6
CONTINUOUS
 10
160.5003043074
 20
30.7551187255
 11
160.9628038663
 21
30.7873818593
 12
160.269054528
 22
30.7228547745
 13
160.269054528
 23
30.7228547745
  0
SOLID
  8
0
 62
7
  6
CONTINUOUS
 10
160.9628038663
 20
30.7873818593
 11
160.8471793074
 21
30.6905916353
 12
160.269054528
 22
30.7228547745
 13
160.269054528
 23
30.7228547745
  0
SOLID
  8
0
 62
7
  6
CONTINUOUS
 10
160.8471793074
 20
30.6905916353
 11
159.401867028
 21
30.658327332
 12
160.269054528
 22
30.7228547745
 13
160.269054528
 23
30.7228547745
  0
SOLID
  8
0
 62
7
  6
CONTINUOUS
 10
160.269054528
 20
30.7228547745
 11
159.401867028
 21
30.658327332
 12
159.922179528
 22
30.7228547745
 13
159.922179528
 23
30.7228547745
  0
SOLID
  8
0
 62
7
  6
CONTINUOUS
 10
159.401867028
 20
30.658327332
 11
159.228429528
 21
30.7228547745
 12
159.922179528
 22
30.7228547745
 13
159.922179528
 23
30.7228547745
  0
SOLID
  8
0
 62
7
  6
CONTINUOUS
 10
159.401867028
 20
30.658327332
 11
160.8471793074
 21
30.6905916353
 12
159.575304528
 22
30.6260629858
 13
159.575304528
 23
30.6260629858
  0
SOLID
  8
0
 62
7
  6
CONTINUOUS
 10
160.8471793074
 20
30.6905916353
 11
160.615929528
 21
30.6260629858
 12
159.575304528
 22
30.6260629858
 13
159.575304528
 23
30.6260629858
  0
SOLID
  8
0
 62
7
  6
CONTINUOUS
 10
159.922179528
 20
30.5938006049
 11
159.575304528
 21
30.6260629858
 12
160.615929528
 22
30.6260629858
 13
160.615929528
 23
30.6260629858
  0
SOLID
  8
0
 62
7
  6
CONTINUOUS
 10
160.615929528
 20
30.6260629858
 11
160.269054528
 21
30.5938006049
 12
159.922179528
 22
30.5938006049
 13
159.922179528
 23
30.5938006049
  0
SOLID
  8
0
 62
7
  6
CONTINUOUS
 10
149.5737418074
 20
31.1100184796
 11
149.9206168074
 21
31.2713369632
 12
149.8628043005
 22
31.1422827828
 13
149.8628043005
 23
31.1422827828
  0
SOLID
  8
0
 62
7
  6
CONTINUOUS
 10
149.8628043005
 20
31.1422827828
 11
149.8628043005
 21
31.0454914852
 12
149.5737418074
 22
31.1100184796
 13
149.5737418074
 23
31.1100184796
  0
SOLID
  8
0
 62
7
  6
CONTINUOUS
 10
149.6315543091
 20
30.9164372091
 11
149.5737418074
 21
31.1100184796
 12
149.8628043005
 22
31.0454914852
 13
149.8628043005
 23
31.0454914852
  0
SOLID
  8
0
 62
7
  6
CONTINUOUS
 10
149.8628043005
 20
31.0454914852
 11
149.9784292936
 21
30.8841729058
 12
149.6315543091
 22
30.9164372091
 13
149.6315543091
 23
30.9164372091
  0
SOLID
  8
0
 62
7
  6
CONTINUOUS
 10
149.7471793074
 20
30.7873813202
 11
149.6315543091
 21
30.9164372091
 12
149.9784292936
 22
30.8841729058
 13
149.9784292936
 23
30.8841729058
  0
SOLID
  8
0
 62
7
  6
CONTINUOUS
 10
149.9784292936
 20
30.8841729058
 11
150.1518667936
 21
30.7873813202
 12
149.7471793074
 22
30.7873813202
 13
149.7471793074
 23
30.7873813202
  0
SOLID
  8
0
 62
7
  6
CONTINUOUS
 10
149.8628043005
 20
30.7228547004
 11
149.7471793074
 21
30.7873813202
 12
150.1518667936
 22
30.7873813202
 13
150.1518667936
 23
30.7873813202
  0
SOLID
  8
0
 62
7
  6
CONTINUOUS
 10
150.1518667936
 20
30.7873813202
 11
150.498741835
 21
30.7228547004
 12
149.8628043005
 22
30.7228547004
 13
149.8628043005
 23
30.7228547004
  0
SOLID
  8
0
 62
7
  6
CONTINUOUS
 10
150.0362418212
 20
30.658327332
 11
149.8628043005
 21
30.7228547004
 12
150.498741835
 22
30.7228547004
 13
150.498741835
 23
30.7228547004
  0
SOLID
  8
0
 62
7
  6
CONTINUOUS
 10
154.0831168074
 20
31.1100184386
 11
154.1987416972
 21
31.1745462761
 12
154.7768668074
 22
31.1422827828
 13
154.7768668074
 23
31.1422827828
  0
SOLID
  8
0
 62
7
  6
CONTINUOUS
 10
154.7768668074
 20
31.1422827828
 11
154.5456166972
 21
31.1100184386
 12
154.0831168074
 22
31.1100184386
 13
154.0831168074
 23
31.1100184386
  0
SOLID
  8
0
 62
7
  6
CONTINUOUS
 10
153.9674919177
 20
30.9809642992
 11
154.0831168074
 21
31.1100184386
 12
154.5456166972
 22
31.1100184386
 13
154.5456166972
 23
31.1100184386
  0
SOLID
  8
0
 62
7
  6
CONTINUOUS
 10
154.3143669177
 20
31.0132277988
 11
153.9674919177
 21
30.9809642992
 12
154.4299918074
 22
31.0777556927
 13
154.4299918074
 23
31.0777556927
  0
SOLID
  8
0
 62
7
  6
CONTINUOUS
 10
153.9674919177
 20
30.9809642992
 11
154.5456166972
 21
31.1100184796
 12
154.4299918074
 22
31.0777556927
 13
154.4299918074
 23
31.0777556927
  0
SOLID
  8
0
 62
7
  6
CONTINUOUS
 10
154.3143669177
 20
31.0132277988
 11
154.2565543074
 21
30.9164372091
 12
153.9674919177
 22
30.9809642992
 13
153.9674919177
 23
30.9809642992
  0
SOLID
  8
0
 62
7
  6
CONTINUOUS
 10
153.9674919177
 20
30.8841729058
 11
153.9674919177
 21
30.9809642992
 12
154.2565543074
 22
30.9164372091
 13
154.2565543074
 23
30.9164372091
  0
SOLID
  8
0
 62
7
  6
CONTINUOUS
 10
154.2565543074
 20
30.9164372091
 11
154.2565543074
 21
30.8519086025
 12
153.9674919177
 22
30.8841729058
 13
153.9674919177
 23
30.8841729058
  0
SOLID
  8
0
 62
7
  6
CONTINUOUS
 10
154.0253041972
 20
30.7551187255
 11
153.9674919177
 21
30.8841729058
 12
154.2565543074
 22
30.8519086025
 13
154.2565543074
 23
30.8519086025
  0
SOLID
  8
0
 62
7
  6
CONTINUOUS
 10
155.412804528
 20
30.9487004259
 11
155.7018665869
 21
30.8519086025
 12
155.3549915869
 22
30.8841729058
 13
155.3549915869
 23
30.8841729058
  0
SOLID
  8
0
 62
7
  6
CONTINUOUS
 10
155.1815540869
 20
30.7873815123
 11
155.3549915869
 21
30.8841729058
 12
155.7018665869
 22
30.8519086025
 13
155.7018665869
 23
30.8519086025
  0
SOLID
  8
0
 62
7
  6
CONTINUOUS
 10
155.1815540869
 20
30.7873815123
 11
155.7018665869
 21
30.8519086025
 12
155.412804528
 22
30.7551187255
 13
155.412804528
 23
30.7551187255
  0
SOLID
  8
0
 62
7
  6
CONTINUOUS
 10
155.7018665869
 20
30.8519086025
 11
155.759679528
 21
30.6905916353
 12
155.412804528
 22
30.7551187255
 13
155.412804528
 23
30.7551187255
  0
SOLID
  8
0
 62
7
  6
CONTINUOUS
 10
155.4706168074
 20
30.658327332
 11
155.412804528
 21
30.7551187255
 12
155.759679528
 22
30.6905916353
 13
155.759679528
 23
30.6905916353
  0
SOLID
  8
0
 62
7
  6
CONTINUOUS
 10
155.4706168074
 20
30.658327332
 11
155.759679528
 21
30.6905916353
 12
155.5284290869
 22
30.5938002079
 13
155.5284290869
 23
30.5938002079
  0
SOLID
  8
0
 62
7
  6
CONTINUOUS
 10
155.759679528
 20
30.6905916353
 11
155.8174918074
 21
30.5938002079
 12
155.5284290869
 22
30.5938002079
 13
155.5284290869
 23
30.5938002079
  0
SOLID
  8
0
 62
7
  6
CONTINUOUS
 10
151.0768668626
 20
30.8196456577
 11
151.1346793074
 21
30.9164373395
 12
151.4237418626
 22
30.9164373395
 13
151.4237418626
 23
30.9164373395
  0
SOLID
  8
0
 62
7
  6
CONTINUOUS
 10
151.4237418626
 20
30.9164373395
 11
151.3659292523
 21
30.7873815123
 12
151.0768668626
 22
30.8196456577
 13
151.0768668626
 23
30.8196456577
  0
SOLID
  8
0
 62
7
  6
CONTINUOUS
 10
150.9034292799
 20
30.7551187255
 11
151.0768668626
 21
30.8196456577
 12
151.3659292523
 22
30.7873815123
 13
151.3659292523
 23
30.7873815123
  0
SOLID
  8
0
 62
7
  6
CONTINUOUS
 10
150.9034292799
 20
30.7551187255
 11
151.3659292523
 21
30.7873815123
 12
150.498741835
 22
30.7228544222
 13
150.498741835
 23
30.7228544222
  0
SOLID
  8
0
 62
7
  6
CONTINUOUS
 10
151.3659292523
 20
30.7873815123
 11
151.1924917523
 21
30.6905916353
 12
150.498741835
 22
30.7228544222
 13
150.498741835
 23
30.7228544222
  0
SOLID
  8
0
 62
7
  6
CONTINUOUS
 10
150.0362418212
 20
30.658327332
 11
150.498741835
 21
30.7228544222
 12
151.1924917523
 22
30.6905916353
 13
151.1924917523
 23
30.6905916353
  0
SOLID
  8
0
 62
7
  6
CONTINUOUS
 10
150.0362418212
 20
30.658327332
 11
151.1924917523
 21
30.6905916353
 12
150.2096793212
 22
30.6260631011
 13
150.2096793212
 23
30.6260631011
  0
SOLID
  8
0
 62
7
  6
CONTINUOUS
 10
151.1924917523
 20
30.6905916353
 11
150.9612418074
 21
30.6260631011
 12
150.2096793212
 22
30.6260631011
 13
150.2096793212
 23
30.6260631011
  0
SOLID
  8
0
 62
7
  6
CONTINUOUS
 10
150.5565542799
 20
30.5938002419
 11
150.2096793212
 21
30.6260631011
 12
150.9612418074
 22
30.6260631011
 13
150.9612418074
 23
30.6260631011
  0
SOLID
  8
0
 62
7
  6
CONTINUOUS
 10
154.0253041972
 20
30.7551187255
 11
154.2565543074
 21
30.8519086025
 12
154.3143669177
 22
30.7873815123
 13
154.3143669177
 23
30.7873815123
  0
SOLID
  8
0
 62
7
  6
CONTINUOUS
 10
154.3143669177
 20
30.7873815123
 11
154.5456166972
 21
30.7228544222
 12
154.0253041972
 22
30.7551187255
 13
154.0253041972
 23
30.7551187255
  0
SOLID
  8
0
 62
7
  6
CONTINUOUS
 10
154.1987416972
 20
30.658327332
 11
154.0253041972
 21
30.7551187255
 12
154.5456166972
 22
30.7228544222
 13
154.5456166972
 23
30.7228544222
  0
SOLID
  8
0
 62
7
  6
CONTINUOUS
 10
154.8924916972
 20
30.7228544637
 11
155.1815540869
 21
30.7873815123
 12
155.412804528
 22
30.7551187255
 13
155.412804528
 23
30.7551187255
  0
SOLID
  8
0
 62
7
  6
CONTINUOUS
 10
155.412804528
 20
30.7551187255
 11
155.3549915869
 21
30.6905916353
 12
154.8924916972
 22
30.7228544637
 13
154.8924916972
 23
30.7228544637
  0
SOLID
  8
0
 62
7
  6
CONTINUOUS
 10
155.3549915869
 20
30.6905916353
 11
154.1987416972
 21
30.658327332
 12
154.8924916972
 22
30.7228544637
 13
154.8924916972
 23
30.7228544637
  0
SOLID
  8
0
 62
7
  6
CONTINUOUS
 10
154.1987416972
 20
30.658327332
 11
154.5456166972
 21
30.7228544637
 12
154.8924916972
 22
30.7228544637
 13
154.8924916972
 23
30.7228544637
  0
SOLID
  8
0
 62
7
  6
CONTINUOUS
 10
154.1987416972
 20
30.658327332
 11
155.3549915869
 21
30.6905916353
 12
154.3143669177
 22
30.6260630541
 13
154.3143669177
 23
30.6260630541
  0
SOLID
  8
0
 62
7
  6
CONTINUOUS
 10
155.3549915869
 20
30.6905916353
 11
155.1815540869
 21
30.6260630541
 12
154.3143669177
 22
30.6260630541
 13
154.3143669177
 23
30.6260630541
  0
SOLID
  8
0
 62
7
  6
CONTINUOUS
 10
154.5456166972
 20
30.5938002188
 11
154.3143669177
 21
30.6260630541
 12
155.1815540869
 22
30.6260630541
 13
155.1815540869
 23
30.6260630541
  0
SOLID
  8
0
 62
7
  6
CONTINUOUS
 10
155.1815540869
 20
30.6260630541
 11
154.8924916972
 21
30.5938002188
 12
154.5456166972
 22
30.5938002188
 13
154.5456166972
 23
30.5938002188
  0
SOLID
  8
0
 62
7
  6
CONTINUOUS
 10
159.575304528
 20
30.7551187255
 11
159.228429528
 21
30.7228544637
 12
159.4596793074
 22
30.7873815123
 13
159.4596793074
 23
30.7873815123
  0
SOLID
  8
0
 62
7
  6
CONTINUOUS
 10
159.4596793074
 20
30.7873815123
 11
159.228429528
 21
30.7228544637
 12
159.401867028
 22
30.851908644
 13
159.401867028
 23
30.851908644
  0
SOLID
  8
0
 62
7
  6
CONTINUOUS
 10
159.228429528
 20
30.7228544637
 11
159.1128043074
 21
30.851908644
 12
159.401867028
 22
30.851908644
 13
159.401867028
 23
30.851908644
  0
SOLID
  8
0
 62
7
  6
CONTINUOUS
 10
159.575304528
 20
30.7551187255
 11
159.922179528
 21
30.7228544637
 12
159.228429528
 22
30.7228544637
 13
159.228429528
 23
30.7228544637
  0
SOLID
  8
0
 62
7
  6
CONTINUOUS
 10
156.279992028
 20
30.5938002419
 11
156.279992028
 21
31.6262382337
 12
156.5690540869
 22
30.5938002419
 13
156.5690540869
 23
31.6262382337
  0
ENDBLK
  8
0
  6
BYBLOCK
 62
0
  0
BLOCK
  8
0
 62
2
  6
CONTINUOUS
  2
SYMBOL_3_BL0
 70
64
 10
32.1213064866
 20
19.8534310916
  0
TEXT
  8
0
 62
7
  6
CONTINUOUS
 10
18.3860103289
 20
19.2268451992
  7
TEXTSTYLE_3
 40
2.7338706658
  1
Ammeraal Beltech
 41
1.0
 51
15.0
 72
0
  0
TEXT
  8
0
 62
7
  6
CONTINUOUS
 10
29.1868111546
 20
16.9533085264
  7
TEXTSTYLE_4
 40
1.0935482663
  1
Innovation & Service in Belting
 41
1.0
 72
0
  0
LINE
  8
0
 62
7
  6
CONTINUOUS
 10
12.3614696776
 20
19.9934385078
 11
13.1396216709
 21
23.6543558055
  0
LINE
  8
0
 62
7
  6
CONTINUOUS
 10
23.2347899607
 20
27.3177497171
 11
13.6274394139
 21
24.1961322958
  0
LINE
  8
0
 62
7
  6
CONTINUOUS
 10
12.5867530099
 20
19.3000877048
 11
20.093828271
 21
12.5406867788
  0
LINE
  8
0
 62
7
  6
CONTINUOUS
 10
12.8492874206
 20
20.5352149982
 11
23.6575567857
 21
24.0470345971
  0
LINE
  8
0
 62
7
  6
CONTINUOUS
 10
23.6533516486
 20
13.6972460334
 11
15.2078919798
 21
21.3015720751
  0
LINE
  8
0
 62
7
  6
CONTINUOUS
 10
24.1731743684
 20
26.4728246013
 11
23.1966148312
 21
21.8784731989
  0
LINE
  8
0
 62
7
  6
CONTINUOUS
 10
22.4968128835
 20
18.5861638851
 11
21.810364672
 21
15.3566789607
  0
LINE
  8
0
 62
7
  6
CONTINUOUS
 10
24.8542704669
 20
14.087448211
 11
25.8105020025
 21
18.5861638851
  0
LINE
  8
0
 62
7
  6
CONTINUOUS
 10
26.5103039502
 20
21.8784731989
 11
26.9545457526
 21
23.9684665583
  0
LINE
  8
0
 62
7
  6
CONTINUOUS
 10
20.8069293463
 20
12.3891124661
 11
24.3664527239
 21
13.5456717207
  0
LINE
  8
0
 62
7
  6
CONTINUOUS
 10
23.9478910361
 20
27.1661754044
 11
26.7292624203
 21
24.6618173613
  0
ARC
  8
0
 62
7
  6
CONTINUOUS
 10
13.8527227462
 20
23.5027814928
 40
0.7290321776
 50
108.0
 51
168.0
  0
ARC
  8
0
 62
7
  6
CONTINUOUS
 10
23.4600732931
 20
26.624398914
 40
0.7290321776
 50
348.0
 51
108.0
  0
ARC
  8
0
 62
7
  6
CONTINUOUS
 10
26.2414446773
 20
24.120040871
 40
0.7290321776
 50
348.0
 51
48.0
  0
ARC
  8
0
 62
7
  6
CONTINUOUS
 10
20.581646014
 20
13.0824632691
 40
0.7290321776
 50
228.0
 51
288.0
  0
ARC
  8
0
 62
7
  6
CONTINUOUS
 10
13.0745707529
 20
19.8418641951
 40
0.7290321776
 50
108.0
 51
228.0
  0
ARC
  8
0
 62
7
  6
CONTINUOUS
 10
24.1411693916
 20
14.2390225237
 40
0.7290321776
 50
228.0
 51
348.0
  0
ENDBLK
  8
0
  6
BYBLOCK
 62
0
  0
ENDSEC
  0
SECTION
  2
ENTITIES
  0
TEXT
  8
0
 62
5
  6
CONTINUOUS
 10
96.0
 20
25.636
  7
TEXTSTYLE_2
 40
2.8
  1
Scale :
 41
0.6
 51
0.000019
 72
0
  0
TEXT
  8
0
 62
5
  6
CONTINUOUS
 10
116.0
 20
25.636
  7
TEXTSTYLE_2
 40
2.8
  1
Belt type:
 41
0.6
 51
0.000019
 72
0
  0
INSERT
  8
0
 62
2
  6
CONTINUOUS
  2
SYMBOL_3_BL0
 10
32.1213064866
 20
19.8534310916
  0
INSERT
  8
0
 62
2
  6
CONTINUOUS
  2
SYMBOL_8_BL1
 10
173.5956734183
 20
35.5937998301
  0
LINE
  8
0
 62
2
  6
CONTINUOUS
 10
10.0
 20
30.0
 11
200.0
 21
30.0
  0
LINE
  8
0
 62
2
  6
CONTINUOUS
 10
10.0
 20
30.0
 11
10.0
 21
10.0
  0
LINE
  8
0
 62
2
  6
CONTINUOUS
 10
10.0
 20
10.0
 11
200.0
 21
10.0
  0
LINE
  8
0
 62
2
  6
CONTINUOUS
 10
95.0
 20
30.0
 11
95.0
 21
10.0
  0
LINE
  8
0
 62
2
  6
CONTINUOUS
 10
115.0
 20
30.0
 11
115.0
 21
10.0
  0
LINE
  8
0
 62
2
  6
CONTINUOUS
 10
200.0
 20
30.0
 11
200.0
 21
10.0
  0
TEXT
  8
0
 62
5
  6
CONTINUOUS
 10
13.0
 20
23.303
  7
TEXTSTYLE_5
 40
1.52
  1
                                                                     Ammeraal Beltech Modular A/S
 41
1.0
 72
0
  0
TEXT
  8
0
 62
5
  6
CONTINUOUS
 10
13.0
 20
20.595
  7
TEXTSTYLE_5
 40
1.5
  1
                                                                      Hjulmagervej 21,  7100 Vejle,  DK
 41
1.0
 72
0
  0
TEXT
  8
0
 62
5
  6
CONTINUOUS
 10
13.0
 20
17.881
  7
TEXTSTYLE_5
 40
1.495
  1
                                                                      tel: 
 41
1.0
 72
0
  0
TEXT
  8
0
 62
5
  6
CONTINUOUS
 10
57.9869465649
 20
17.881
  7
TEXTSTYLE_5
 40
1.51
  1
+45 75723100     fax: +45 75723348
 41
1.0
 72
0
  0
TEXT
  8
0
 62
5
  6
CONTINUOUS
 10
13.0
 20
15.177
  7
TEXTSTYLE_5
 40
1.5
  1
                                                                      admin@unichains.dk  www.unichains.com
 41
1.0
 72
0
  0
TEXT
  8
0
 62
5
  6
CONTINUOUS
 10
99.75
 20
13.75
  7
TEXTSTYLE_6
 40
5.0
  1
1:1
 41
0.7
 72
1
 11
105.0
 21
13.75
  0
TEXT
  8
0
 62
5
  6
CONTINUOUS
 10
118.0
 20
13.75
  7
TEXTSTYLE_7
 40
7.5
  1
uni MPB C K325
 41
0.6260416667
 72
0
  0
LINE
  8
0
 62
7
  6
CONTINUOUS
 10
210.0
 20
0.0
 11
0.0
 21
0.0
  0
LINE
  8
0
 62
7
  6
CONTINUOUS
 10
10.0
 20
10.0
 11
200.0
 21
10.0
  0
LINE
  8
0
 62
7
  6
CONTINUOUS
 10
10.0
 20
30.0
 11
200.0
 21
30.0
  0
LINE
  8
0
 62
7
  6
CONTINUOUS
 10
0.0
 20
0.0
 11
0.0
 21
297.0
  0
LINE
  8
0
 62
7
  6
CONTINUOUS
 10
10.0
 20
10.0
 11
10.0
 21
287.0
  0
LINE
  8
0
 62
7
  6
CONTINUOUS
 10
200.0
 20
287.0
 11
200.0
 21
10.0
  0
LINE
  8
0
 62
7
  6
CONTINUOUS
 10
210.0
 20
0.0
 11
210.0
 21
297.0
  0
LINE
  8
0
 62
7
  6
CONTINUOUS
 10
10.0
 20
287.0
 11
200.0
 21
287.0
  0
LINE
  8
0
 62
7
  6
CONTINUOUS
 10
0.0
 20
297.0
 11
210.0
 21
297.0
  0
POLYLINE
  8
0
 62
7
  6
CONTINUOUS
 66
1
 70
0
  0
VERTEX
  8
0
 62
7
  6
CONTINUOUS
 10
49.9396466274
 20
234.2064655172
  0
VERTEX
  8
0
 62
7
  6
CONTINUOUS
 10
49.9388458267
 20
234.1792749608
  0
VERTEX
  8
0
 62
7
  6
CONTINUOUS
 10
49.9474012517
 20
234.1050076901
  0
VERTEX
  8
0
 62
7
  6
CONTINUOUS
 10
49.9634697986
 20
234.0001075838
  0
VERTEX
  8
0
 62
7
  6
CONTINUOUS
 10
49.9835017744
 20
233.8877659193
  0
SEQEND
  0
LINE
  8
AXES
 62
2
  6
CENTER
 10
52.8119279506
 20
230.6064655172
 11
52.8119279506
 21
229.2439655172
  0
LINE
  8
AXES
 62
2
  6
CONTINUOUS
 10
52.8119279506
 20
227.0864655172
 11
52.8119279506
 21
225.3264655172
  0
LINE
  8
AXES
 62
2
  6
CENTER
 10
52.8119279506
 20
221.8064655172
 11
52.8119279506
 21
223.1689655172
  0
POLYLINE
  8
0
 62
7
  6
CONTINUOUS
 66
1
 70
0
  0
VERTEX
  8
0
 62
7
  6
CONTINUOUS
 10
46.77159939
 20
220.2314107809
  0
VERTEX
  8
0
 62
7
  6
CONTINUOUS
 10
46.6645512624
 20
220.3421877071
  0
VERTEX
  8
0
 62
7
  6
CONTINUOUS
 10
46.5763578694
 20
220.4446068434
  0
VERTEX
  8
0
 62
7
  6
CONTINUOUS
 10
46.5054654369
 20
220.5404377851
  0
SEQEND
  0
POLYLINE
  8
0
 62
7
  6
CONTINUOUS
 66
1
 70
0
  0
VERTEX
  8
0
 62
7
  6
CONTINUOUS
 10
49.9397445044
 20
218.2064655172
  0
VERTEX
  8
0
 62
7
  6
CONTINUOUS
 10
49.9475510646
 20
218.2317147091
  0
VERTEX
  8
0
 62
7
  6
CONTINUOUS
 10
49.9594223114
 20
218.3057881352
  0
VERTEX
  8
0
 62
7
  6
CONTINUOUS
 10
49.9739927606
 20
218.4244494604
  0
SEQEND
  0
LINE
  8
0
 62
7
  6
CONTINUOUS
 10
46.9683906357
 20
220.0367541168
 11
46.9470991893
 21
220.0539226622
  0
POLYLINE
  8
0
 62
7
  6
CONTINUOUS
 66
1
 70
0
  0
VERTEX
  8
0
 62
7
  6
CONTINUOUS
 10
57.3863853691
 20
234.0843045524
  0
VERTEX
  8
0
 62
7
  6
CONTINUOUS
 10
57.3876866077
 20
234.1412368362
  0
VERTEX
  8
0
 62
7
  6
CONTINUOUS
 10
57.3871173495
 20
234.1679717785
  0
VERTEX
  8
0
 62
7
  6
CONTINUOUS
 10
57.3879127898
 20
234.1900819314
  0
VERTEX
  8
0
 62
7
  6
CONTINUOUS
 10
57.3894827975
 20
234.2029632509
  0
VERTEX
  8
0
 62
7
  6
CONTINUOUS
 10
57.3876792551
 20
234.2064655172
  0
SEQEND
  0
POLYLINE
  8
0
 62
7
  6
CONTINUOUS
 66
1
 70
0
  0
VERTEX
  8
0
 62
7
  6
CONTINUOUS
 10
57.3876792551
 20
233.9564655172
  0
VERTEX
  8
0
 62
7
  6
CONTINUOUS
 10
57.3918423907
 20
233.9768593353
  0
VERTEX
  8
0
 62
7
  6
CONTINUOUS
 10
57.3920159917
 20
234.0002267173
  0
VERTEX
  8
0
 62
7
  6
CONTINUOUS
 10
57.3899405866
 20
234.026329967
  0
VERTEX
  8
0
 62
7
  6
CONTINUOUS
 10
57.3874947668
 20
234.0547429947
  0
VERTEX
  8
0
 62
7
  6
CONTINUOUS
 10
57.3863853691
 20
234.0843045524
  0
SEQEND
  0
POLYLINE
  8
0
 62
7
  6
CONTINUOUS
 66
1
 70
0
  0
VERTEX
  8
0
 62
7
  6
CONTINUOUS
 10
57.2610465576
 20
230.2971916118
  0
VERTEX
  8
0
 62
7
  6
CONTINUOUS
 10
57.1870467761
 20
230.2348750331
  0
VERTEX
  8
0
 62
7
  6
CONTINUOUS
 10
57.1236058798
 20
230.1879076504
  0
VERTEX
  8
0
 62
7
  6
CONTINUOUS
 10
57.0781793984
 20
230.1618067474
  0
VERTEX
  8
0
 62
7
  6
CONTINUOUS
 10
57.0561223826
 20
230.1595389822
  0
SEQEND
  0
POLYLINE
  8
0
 62
7
  6
CONTINUOUS
 66
1
 70
0
  0
VERTEX
  8
0
 62
7
  6
CONTINUOUS
 10
49.9739927606
 20
218.4244494604
  0
VERTEX
  8
0
 62
7
  6
CONTINUOUS
 10
49.0613837154
 20
218.7332734387
  0
VERTEX
  8
0
 62
7
  6
CONTINUOUS
 10
48.2156861154
 20
219.1454658951
  0
VERTEX
  8
0
 62
7
  6
CONTINUOUS
 10
47.4469663523
 20
219.6507166914
  0
VERTEX
  8
0
 62
7
  6
CONTINUOUS
 10
46.77159939
 20
220.2314107809
  0
SEQEND
  0
POLYLINE
  8
0
 62
7
  6
CONTINUOUS
 66
1
 70
0
  0
VERTEX
  8
0
 62
7
  6
CONTINUOUS
 10
48.3628104491
 20
230.2971913958
  0
VERTEX
  8
0
 62
7
  6
CONTINUOUS
 10
48.4368087309
 20
230.2348734771
  0
VERTEX
  8
0
 62
7
  6
CONTINUOUS
 10
48.5002476698
 20
230.1879042116
  0
VERTEX
  8
0
 62
7
  6
CONTINUOUS
 10
48.5456699534
 20
230.1617989831
  0
VERTEX
  8
0
 62
7
  6
CONTINUOUS
 10
48.5677347515
 20
230.1595392795
  0
SEQEND
  0
POLYLINE
  8
0
 62
7
  6
CONTINUOUS
 66
1
 70
0
  0
VERTEX
  8
0
 62
7
  6
CONTINUOUS
 10
57.2610465576
 20
230.2971915605
  0
VERTEX
  8
0
 62
7
  6
CONTINUOUS
 10
57.2727694601
 20
230.3046768038
  0
VERTEX
  8
0
 62
7
  6
CONTINUOUS
 10
57.2871742114
 20
230.3089912317
  0
VERTEX
  8
0
 62
7
  6
CONTINUOUS
 10
57.3032088662
 20
230.3103091555
  0
SEQEND
  0
POLYLINE
  8
0
 62
7
  6
CONTINUOUS
 66
1
 70
0
  0
VERTEX
  8
0
 62
7
  6
CONTINUOUS
 10
45.6700443914
 20
230.3164367404
  0
VERTEX
  8
0
 62
7
  6
CONTINUOUS
 10
45.5858268914
 20
230.368327635
  0
VERTEX
  8
0
 62
7
  6
CONTINUOUS
 10
45.5169480609
 20
230.4180309519
  0
VERTEX
  8
0
 62
7
  6
CONTINUOUS
 10
45.4743752328
 20
230.4576032372
  0
VERTEX
  8
0
 62
7
  6
CONTINUOUS
 10
45.4648000339
 20
230.4807734303
  0
SEQEND
  0
POLYLINE
  8
0
 62
7
  6
CONTINUOUS
 66
1
 70
0
  0
VERTEX
  8
0
 62
7
  6
CONTINUOUS
 10
48.3628104491
 20
230.2971913253
  0
VERTEX
  8
0
 62
7
  6
CONTINUOUS
 10
48.3510872399
 20
230.3046764814
  0
VERTEX
  8
0
 62
7
  6
CONTINUOUS
 10
48.336682293
 20
230.3089911051
  0
VERTEX
  8
0
 62
7
  6
CONTINUOUS
 10
48.3206473668
 20
230.3103091555
  0
SEQEND
  0
LINE
  8
0
 62
7
  6
CONTINUOUS
 10
60.4306619842
 20
230.5076717229
 11
60.4450280008
 21
230.4841147167
  0
POLYLINE
  8
0
 62
7
  6
CONTINUOUS
 66
1
 70
0
  0
VERTEX
  8
0
 62
7
  6
CONTINUOUS
 10
59.2438651873
 20
230.3230495942
  0
VERTEX
  8
0
 62
7
  6
CONTINUOUS
 10
59.452800721
 20
230.3905278351
  0
VERTEX
  8
0
 62
7
  6
CONTINUOUS
 10
59.6337559579
 20
230.4459114769
  0
VERTEX
  8
0
 62
7
  6
CONTINUOUS
 10
59.7868770519
 20
230.4888454569
  0
VERTEX
  8
0
 62
7
  6
CONTINUOUS
 10
59.9156171808
 20
230.5209734699
  0
VERTEX
  8
0
 62
7
  6
CONTINUOUS
 10
60.0220136081
 20
230.5437521072
  0
VERTEX
  8
0
 62
7
  6
CONTINUOUS
 10
60.1094099792
 20
230.5588978741
  0
VERTEX
  8
0
 62
7
  6
CONTINUOUS
 10
60.1812238512
 20
230.5678934238
  0
VERTEX
  8
0
 62
7
  6
CONTINUOUS
 10
60.2396105595
 20
230.5718124919
  0
VERTEX
  8
0
 62
7
  6
CONTINUOUS
 10
60.2867544819
 20
230.5715796453
  0
VERTEX
  8
0
 62
7
  6
CONTINUOUS
 10
60.3247648136
 20
230.5679064285
  0
SEQEND
  0
POLYLINE
  8
0
 62
7
  6
CONTINUOUS
 66
1
 70
0
  0
VERTEX
  8
0
 62
7
  6
CONTINUOUS
 10
45.6700443914
 20
230.3164367413
  0
VERTEX
  8
0
 62
7
  6
CONTINUOUS
 10
45.6775812869
 20
230.3130235899
  0
VERTEX
  8
0
 62
7
  6
CONTINUOUS
 10
45.6859480987
 20
230.3109724371
  0
VERTEX
  8
0
 62
7
  6
CONTINUOUS
 10
45.6948795004
 20
230.3103091555
  0
SEQEND
  0
LINE
  8
0
 62
7
  6
CONTINUOUS
 10
49.9396466274
 20
218.2064655172
 11
57.3119279506
 21
218.2064655172
  0
LINE
  8
0
 62
7
  6
CONTINUOUS
 10
99.1119279506
 20
218.2064655172
 11
106.4842092739
 21
218.2064655172
  0
LINE
  8
0
 62
7
  6
CONTINUOUS
 10
77.0107986063
 20
218.2564655172
 11
79.4130572949
 21
218.2564655172
  0
LINE
  8
0
 62
7
  6
CONTINUOUS
 10
49.9739927606
 20
218.4244494604
 11
57.3119282806
 21
218.4244494604
  0
POLYLINE
  8
0
 62
7
  6
CONTINUOUS
 66
1
 70
0
  0
VERTEX
  8
0
 62
7
  6
CONTINUOUS
 10
60.3999955776
 20
230.5401240518
  0
VERTEX
  8
0
 62
7
  6
CONTINUOUS
 10
60.4165360209
 20
230.5254373318
  0
VERTEX
  8
0
 62
7
  6
CONTINUOUS
 10
60.4296778603
 20
230.5089094127
  0
SEQEND
  0
POLYLINE
  8
0
 62
7
  6
CONTINUOUS
 66
1
 70
0
  0
VERTEX
  8
0
 62
7
  6
CONTINUOUS
 10
58.9723233788
 20
218.7105938839
  0
VERTEX
  8
0
 62
7
  6
CONTINUOUS
 10
58.9031872346
 20
218.6618917747
  0
VERTEX
  8
0
 62
7
  6
CONTINUOUS
 10
58.8196065887
 20
218.6203085397
  0
VERTEX
  8
0
 62
7
  6
CONTINUOUS
 10
58.7222081387
 20
218.5892997714
  0
SEQEND
  0
POLYLINE
  8
0
 62
7
  6
CONTINUOUS
 66
1
 70
0
  0
VERTEX
  8
0
 62
7
  6
CONTINUOUS
 10
58.7222572946
 20
218.5892756627
  0
VERTEX
  8
0
 62
7
  6
CONTINUOUS
 10
58.2579341489
 20
218.4980129538
  0
VERTEX
  8
0
 62
7
  6
CONTINUOUS
 10
57.7866675718
 20
218.4428859154
  0
VERTEX
  8
0
 62
7
  6
CONTINUOUS
 10
57.3119282806
 20
218.4244494604
  0
SEQEND
  0
LINE
  8
0
 62
7
  6
CONTINUOUS
 10
60.8684402297
 20
230.1081031681
 11
71.6996539057
 21
226.264057297
  0
LINE
  8
0
 62
7
  6
CONTINUOUS
 10
74.5419611912
 20
225.5974168949
 11
76.6272064257
 21
218.5430766336
  0
LINE
  8
AXES
 62
2
  6
CENTER
 10
78.2119279506
 20
230.6064655172
 11
78.2119279506
 21
228.2064905172
  0
LINE
  8
AXES
 62
2
  6
CONTINUOUS
 10
78.2119279506
 20
227.0864655172
 11
78.2119279506
 21
225.3264655172
  0
LINE
  8
AXES
 62
2
  6
CENTER
 10
78.2119279506
 20
221.8064655172
 11
78.2119279506
 21
224.2064405172
  0
LINE
  8
AXES
 62
2
  6
CENTER
 10
108.0119279506
 20
226.2064655172
 11
106.6494279506
 21
226.2064655172
  0
LINE
  8
AXES
 62
2
  6
CONTINUOUS
 10
104.4919279506
 20
226.2064655172
 11
102.7319279506
 21
226.2064655172
  0
LINE
  8
AXES
 62
2
  6
CENTER
 10
82.6119279506
 20
226.2064655172
 11
80.2119529506
 21
226.2064655172
  0
LINE
  8
AXES
 62
2
  6
CONTINUOUS
 10
79.0919279506
 20
226.2064655172
 11
77.3319279506
 21
226.2064655172
  0
LINE
  8
AXES
 62
2
  6
CENTER
 10
57.2119279506
 20
226.2064655172
 11
55.8494279506
 21
226.2064655172
  0
LINE
  8
AXES
 62
2
  6
CONTINUOUS
 10
53.6919279506
 20
226.2064655172
 11
51.9319279506
 21
226.2064655172
  0
LINE
  8
AXES
 62
2
  6
CENTER
 10
48.4119279506
 20
226.2064655172
 11
49.7744279506
 21
226.2064655172
  0
LINE
  8
0
 62
7
  6
CONTINUOUS
 10
72.0341187714
 20
226.2064655172
 11
73.7268278073
 21
226.2064655172
  0
LINE
  8
AXES
 62
2
  6
CENTER
 10
73.8119279506
 20
226.2064655172
 11
76.2119029506
 21
226.2064655172
  0
LINE
  8
0
 62
7
  6
CONTINUOUS
 10
82.697028094
 20
226.2064655172
 11
84.3897371299
 21
226.2064655172
  0
LINE
  8
AXES
 62
2
  6
CENTER
 10
99.2119279506
 20
226.2064655172
 11
100.5744279506
 21
226.2064655172
  0
LINE
  8
0
 62
7
  6
CONTINUOUS
 10
84.7242019956
 20
226.264057297
 11
87.946818948
 21
227.4077783758
  0
POLYLINE
  8
0
 62
7
  6
CONTINUOUS
 66
1
 70
0
  0
VERTEX
  8
0
 62
7
  6
CONTINUOUS
 10
60.3247648136
 20
230.5679064285
  0
VERTEX
  8
0
 62
7
  6
CONTINUOUS
 10
60.3554378337
 20
230.5612610548
  0
VERTEX
  8
0
 62
7
  6
CONTINUOUS
 10
60.380038702
 20
230.5519849573
  0
VERTEX
  8
0
 62
7
  6
CONTINUOUS
 10
60.3999955776
 20
230.5401240518
  0
SEQEND
  0
LINE
  8
0
 62
7
  6
CONTINUOUS
 10
79.7966494756
 20
218.5430766336
 11
81.8818947101
 21
225.5974168949
  0
LINE
  8
0
 62
7
  6
CONTINUOUS
 10
59.1615819309
 20
230.3103091555
 11
57.3032088662
 21
230.3103091555
  0
LINE
  8
0
 62
7
  6
CONTINUOUS
 10
48.3206473668
 20
230.3103091555
 11
45.6948795004
 21
230.3103091555
  0
POLYLINE
  8
0
 62
7
  6
CONTINUOUS
 66
1
 70
0
  0
VERTEX
  8
0
 62
7
  6
CONTINUOUS
 10
59.2438651873
 20
230.3230495956
  0
VERTEX
  8
0
 62
7
  6
CONTINUOUS
 10
59.2178169953
 20
230.31606925
  0
VERTEX
  8
0
 62
7
  6
CONTINUOUS
 10
59.1903773606
 20
230.311771938
  0
VERTEX
  8
0
 62
7
  6
CONTINUOUS
 10
59.1615819309
 20
230.3103091555
  0
SEQEND
  0
LINE
  8
0
 62
7
  6
CONTINUOUS
 10
106.4842092739
 20
234.2064655172
 11
49.9396466274
 21
234.2064655172
  0
LINE
  8
AXES
 62
2
  6
CENTER
 10
103.6119279506
 20
230.6064655172
 11
103.6119279506
 21
229.2439655172
  0
LINE
  8
AXES
 62
2
  6
CONTINUOUS
 10
103.6119279506
 20
227.0864655172
 11
103.6119279506
 21
225.3264655172
  0
LINE
  8
AXES
 62
2
  6
CENTER
 10
103.6119279506
 20
221.8064655172
 11
103.6119279506
 21
223.1689655172
  0
POLYLINE
  8
0
 62
7
  6
CONTINUOUS
 66
1
 70
0
  0
VERTEX
  8
0
 62
7
  6
CONTINUOUS
 10
106.4293049718
 20
219.2064655172
  0
VERTEX
  8
0
 62
7
  6
CONTINUOUS
 10
106.4356469044
 20
218.9499325947
  0
VERTEX
  8
0
 62
7
  6
CONTINUOUS
 10
106.4467895832
 20
218.7098576197
  0
VERTEX
  8
0
 62
7
  6
CONTINUOUS
 10
106.4597710192
 20
218.5025832287
  0
VERTEX
  8
0
 62
7
  6
CONTINUOUS
 10
106.4719173848
 20
218.3425342977
  0
VERTEX
  8
0
 62
7
  6
CONTINUOUS
 10
106.4807971803
 20
218.2412378869
  0
VERTEX
  8
0
 62
7
  6
CONTINUOUS
 10
106.4842092739
 20
218.2064655172
  0
SEQEND
  0
LINE
  8
0
 62
7
  6
CONTINUOUS
 10
106.4403544165
 20
233.9564655172
 11
106.4842092739
 21
234.2064655172
  0
POLYLINE
  8
0
 62
7
  6
CONTINUOUS
 66
1
 70
0
  0
VERTEX
  8
0
 62
7
  6
CONTINUOUS
 10
49.9835014848
 20
164.2844827586
  0
VERTEX
  8
0
 62
7
  6
CONTINUOUS
 10
49.9667678724
 20
164.2657544525
  0
VERTEX
  8
0
 62
7
  6
CONTINUOUS
 10
49.9525541817
 20
164.2120115761
  0
VERTEX
  8
0
 62
7
  6
CONTINUOUS
 10
49.9430145011
 20
164.1308810323
  0
VERTEX
  8
0
 62
7
  6
CONTINUOUS
 10
49.9396466274
 20
164.0344827586
  0
SEQEND
  0
POLYLINE
  8
0
 62
7
  6
CONTINUOUS
 66
1
 70
0
  0
VERTEX
  8
0
 62
7
  6
CONTINUOUS
 10
111.8620320791
 20
80.4844832485
  0
VERTEX
  8
0
 62
7
  6
CONTINUOUS
 10
111.9431631684
 20
80.4980544422
  0
VERTEX
  8
0
 62
7
  6
CONTINUOUS
 10
112.0155009803
 20
80.5372221849
  0
VERTEX
  8
0
 62
7
  6
CONTINUOUS
 10
112.0712119663
 20
80.5977465127
  0
VERTEX
  8
0
 62
7
  6
CONTINUOUS
 10
112.1042645832
 20
80.6730739847
  0
VERTEX
  8
0
 62
7
  6
CONTINUOUS
 10
112.1119278917
 20
80.7345004186
  0
SEQEND
  0
POLYLINE
  8
0
 62
7
  6
CONTINUOUS
 66
1
 70
0
  0
VERTEX
  8
0
 62
7
  6
CONTINUOUS
 10
57.3876792551
 20
80.4844827586
  0
VERTEX
  8
0
 62
7
  6
CONTINUOUS
 10
57.3031711944
 20
80.4991991262
  0
VERTEX
  8
0
 62
7
  6
CONTINUOUS
 10
57.2301064872
 20
80.5403930298
  0
VERTEX
  8
0
 62
7
  6
CONTINUOUS
 10
57.172490317
 20
80.6072282069
  0
VERTEX
  8
0
 62
7
  6
CONTINUOUS
 10
57.1408532932
 20
80.6947719974
  0
VERTEX
  8
0
 62
7
  6
CONTINUOUS
 10
57.1376792551
 20
80.7344827586
  0
SEQEND
  0
LINE
  8
0
 62
7
  6
CONTINUOUS
 10
45.5807221677
 20
89.9349137751
 11
45.5169480609
 21
89.9856348677
  0
POLYLINE
  8
0
 62
7
  6
CONTINUOUS
 66
1
 70
0
  0
VERTEX
  8
0
 62
7
  6
CONTINUOUS
 10
45.5169480609
 20
89.9856348677
  0
VERTEX
  8
0
 62
7
  6
CONTINUOUS
 10
45.4743752328
 20
90.0672474128
  0
VERTEX
  8
0
 62
7
  6
CONTINUOUS
 10
45.4648000339
 20
90.1642294238
  0
SEQEND
  0
POLYLINE
  8
0
 62
7
  6
CONTINUOUS
 66
1
 70
0
  0
VERTEX
  8
0
 62
7
  6
CONTINUOUS
 10
45.5169480609
 20
146.3833306495
  0
VERTEX
  8
0
 62
7
  6
CONTINUOUS
 10
45.4743752328
 20
146.3017181044
  0
VERTEX
  8
0
 62
7
  6
CONTINUOUS
 10
45.4648000339
 20
146.2047360935
  0
SEQEND
  0
LINE
  8
0
 62
7
  6
CONTINUOUS
 10
45.5807221677
 20
146.4340517421
 11
45.5169480609
 21
146.3833306495
  0
LINE
  8
0
 62
7
  6
CONTINUOUS
 10
111.8619205058
 20
80.4844827586
 11
57.3876792551
 21
80.4844827586
  0
POLYLINE
  8
0
 62
7
  6
CONTINUOUS
 66
1
 70
0
  0
VERTEX
  8
0
 62
7
  6
CONTINUOUS
 10
45.5807197522
 20
89.9349149554
  0
VERTEX
  8
0
 62
7
  6
CONTINUOUS
 10
46.2238255015
 20
89.6638872715
  0
VERTEX
  8
0
 62
7
  6
CONTINUOUS
 10
47.0552862862
 20
89.4016241984
  0
VERTEX
  8
0
 62
7
  6
CONTINUOUS
 10
47.9943962095
 20
89.1806566551
  0
VERTEX
  8
0
 62
7
  6
CONTINUOUS
 10
49.0188339686
 20
89.0033423627
  0
VERTEX
  8
0
 62
7
  6
CONTINUOUS
 10
49.9701398941
 20
88.8849836458
  0
SEQEND
  0
POLYLINE
  8
0
 62
7
  6
CONTINUOUS
 66
1
 70
0
  0
VERTEX
  8
0
 62
7
  6
CONTINUOUS
 10
44.3119365132
 20
90.4967998519
  0
VERTEX
  8
0
 62
7
  6
CONTINUOUS
 10
44.3162493561
 20
90.4448376231
  0
VERTEX
  8
0
 62
7
  6
CONTINUOUS
 10
44.3780361445
 20
90.3046143203
  0
VERTEX
  8
0
 62
7
  6
CONTINUOUS
 10
44.4769674545
 20
90.2126577068
  0
VERTEX
  8
0
 62
7
  6
CONTINUOUS
 10
44.5985752156
 20
90.1471787163
  0
VERTEX
  8
0
 62
7
  6
CONTINUOUS
 10
44.7523937381
 20
90.0914057161
  0
VERTEX
  8
0
 62
7
  6
CONTINUOUS
 10
44.9462814084
 20
90.0396197374
  0
VERTEX
  8
0
 62
7
  6
CONTINUOUS
 10
45.1783415331
 20
89.9912037812
  0
VERTEX
  8
0
 62
7
  6
CONTINUOUS
 10
45.4371437541
 20
89.9471707251
  0
SEQEND
  0
POLYLINE
  8
0
 62
7
  6
CONTINUOUS
 66
1
 70
0
  0
VERTEX
  8
0
 62
7
  6
CONTINUOUS
 10
57.3876792551
 20
80.4844827586
  0
VERTEX
  8
0
 62
7
  6
CONTINUOUS
 10
57.3918423907
 20
80.4853159627
  0
VERTEX
  8
0
 62
7
  6
CONTINUOUS
 10
57.3920159917
 20
80.4883426413
  0
VERTEX
  8
0
 62
7
  6
CONTINUOUS
 10
57.3899405866
 20
80.4944432647
  0
VERTEX
  8
0
 62
7
  6
CONTINUOUS
 10
57.3874947668
 20
80.5046098863
  0
VERTEX
  8
0
 62
7
  6
CONTINUOUS
 10
57.3863853691
 20
80.5196405349
  0
VERTEX
  8
0
 62
7
  6
CONTINUOUS
 10
57.3870510105
 20
80.5398439339
  0
VERTEX
  8
0
 62
7
  6
CONTINUOUS
 10
57.3876866077
 20
80.5660797904
  0
VERTEX
  8
0
 62
7
  6
CONTINUOUS
 10
57.3871173495
 20
80.60119697
  0
VERTEX
  8
0
 62
7
  6
CONTINUOUS
 10
57.3879127898
 20
80.6454694392
  0
VERTEX
  8
0
 62
7
  6
CONTINUOUS
 10
57.3894827975
 20
80.6927830311
  0
VERTEX
  8
0
 62
7
  6
CONTINUOUS
 10
57.3876792551
 20
80.7344827586
  0
SEQEND
  0
LINE
  8
0
 62
7
  6
CONTINUOUS
 10
45.4371437541
 20
89.9471707251
 11
45.6126003852
 21
89.9214793204
  0
POLYLINE
  8
0
 62
7
  6
CONTINUOUS
 66
1
 70
0
  0
VERTEX
  8
0
 62
7
  6
CONTINUOUS
 10
45.5169480609
 20
106.7856348677
  0
VERTEX
  8
0
 62
7
  6
CONTINUOUS
 10
45.4743752328
 20
106.8672474128
  0
VERTEX
  8
0
 62
7
  6
CONTINUOUS
 10
45.4648000339
 20
106.9642294238
  0
SEQEND
  0
POLYLINE
  8
0
 62
7
  6
CONTINUOUS
 66
1
 70
0
  0
VERTEX
  8
0
 62
7
  6
CONTINUOUS
 10
44.3119365132
 20
107.2967998519
  0
VERTEX
  8
0
 62
7
  6
CONTINUOUS
 10
44.3162493561
 20
107.2448376231
  0
VERTEX
  8
0
 62
7
  6
CONTINUOUS
 10
44.3780361445
 20
107.1046143203
  0
VERTEX
  8
0
 62
7
  6
CONTINUOUS
 10
44.4769674545
 20
107.0126577068
  0
VERTEX
  8
0
 62
7
  6
CONTINUOUS
 10
44.5985752156
 20
106.9471787163
  0
VERTEX
  8
0
 62
7
  6
CONTINUOUS
 10
44.7523937381
 20
106.8914057161
  0
VERTEX
  8
0
 62
7
  6
CONTINUOUS
 10
44.9462814084
 20
106.8396197374
  0
VERTEX
  8
0
 62
7
  6
CONTINUOUS
 10
45.1783415331
 20
106.7912037812
  0
VERTEX
  8
0
 62
7
  6
CONTINUOUS
 10
45.4371437541
 20
106.7471707251
  0
SEQEND
  0
POLYLINE
  8
0
 62
7
  6
CONTINUOUS
 66
1
 70
0
  0
VERTEX
  8
0
 62
7
  6
CONTINUOUS
 10
44.3119365132
 20
124.0967998519
  0
VERTEX
  8
0
 62
7
  6
CONTINUOUS
 10
44.3162493561
 20
124.0448376231
  0
VERTEX
  8
0
 62
7
  6
CONTINUOUS
 10
44.3780361445
 20
123.9046143203
  0
VERTEX
  8
0
 62
7
  6
CONTINUOUS
 10
44.4769674545
 20
123.8126577068
  0
VERTEX
  8
0
 62
7
  6
CONTINUOUS
 10
44.5985752156
 20
123.7471787163
  0
VERTEX
  8
0
 62
7
  6
CONTINUOUS
 10
44.7523937381
 20
123.6914057161
  0
VERTEX
  8
0
 62
7
  6
CONTINUOUS
 10
44.9462814084
 20
123.6396197374
  0
VERTEX
  8
0
 62
7
  6
CONTINUOUS
 10
45.1783415331
 20
123.5912037812
  0
VERTEX
  8
0
 62
7
  6
CONTINUOUS
 10
45.4371437541
 20
123.5471707251
  0
SEQEND
  0
POLYLINE
  8
0
 62
7
  6
CONTINUOUS
 66
1
 70
0
  0
VERTEX
  8
0
 62
7
  6
CONTINUOUS
 10
44.3119365132
 20
140.8967998519
  0
VERTEX
  8
0
 62
7
  6
CONTINUOUS
 10
44.3162493561
 20
140.8448376231
  0
VERTEX
  8
0
 62
7
  6
CONTINUOUS
 10
44.3780361445
 20
140.7046143203
  0
VERTEX
  8
0
 62
7
  6
CONTINUOUS
 10
44.4769674545
 20
140.6126577068
  0
VERTEX
  8
0
 62
7
  6
CONTINUOUS
 10
44.5985752156
 20
140.5471787163
  0
VERTEX
  8
0
 62
7
  6
CONTINUOUS
 10
44.7523937381
 20
140.4914057161
  0
VERTEX
  8
0
 62
7
  6
CONTINUOUS
 10
44.9462814084
 20
140.4396197374
  0
VERTEX
  8
0
 62
7
  6
CONTINUOUS
 10
45.1783415331
 20
140.3912037812
  0
VERTEX
  8
0
 62
7
  6
CONTINUOUS
 10
45.4371437541
 20
140.3471707251
  0
SEQEND
  0
LINE
  8
0
 62
7
  6
CONTINUOUS
 10
44.3119279974
 20
95.4729882286
 11
44.3119341543
 21
95.472255065
  0
LINE
  8
0
 62
7
  6
CONTINUOUS
 10
44.3119279974
 20
112.2729882286
 11
44.3119341543
 21
112.272255065
  0
LINE
  8
0
 62
7
  6
CONTINUOUS
 10
44.3119279974
 20
129.0729882286
 11
44.3119341543
 21
129.072255065
  0
LINE
  8
0
 62
7
  6
CONTINUOUS
 10
44.3119279974
 20
145.8729882286
 11
44.3119341543
 21
145.872255065
  0
LINE
  8
0
 62
7
  6
CONTINUOUS
 10
44.3119279506
 20
164.034354519
 11
44.3119279506
 21
157.6959629066
  0
LINE
  8
0
 62
7
  6
CONTINUOUS
 10
44.3119279506
 20
145.8729312371
 11
44.3119279506
 21
140.8960342801
  0
LINE
  8
0
 62
7
  6
CONTINUOUS
 10
44.3119279506
 20
129.0729312371
 11
44.3119279506
 21
124.0960342801
  0
LINE
  8
0
 62
7
  6
CONTINUOUS
 10
44.3119279506
 20
112.2729312371
 11
44.3119279506
 21
107.2960342801
  0
LINE
  8
0
 62
7
  6
CONTINUOUS
 10
44.3119279506
 20
95.4729312371
 11
44.3119279506
 21
90.4960342801
  0
LINE
  8
0
 62
7
  6
CONTINUOUS
 10
44.311927988
 20
157.6958974292
 11
44.3119361313
 21
157.6967586899
  0
LINE
  8
0
 62
7
  6
CONTINUOUS
 10
44.3119279974
 20
140.8959772886
 11
44.3119361238
 21
140.8968291623
  0
LINE
  8
0
 62
7
  6
CONTINUOUS
 10
44.3119279974
 20
124.0959772886
 11
44.3119361238
 21
124.0968291623
  0
LINE
  8
0
 62
7
  6
CONTINUOUS
 10
44.3119279974
 20
107.2959772886
 11
44.3119361238
 21
107.2968291623
  0
LINE
  8
0
 62
7
  6
CONTINUOUS
 10
44.3119279974
 20
90.4959772886
 11
44.3119361238
 21
90.4968291623
  0
POLYLINE
  8
0
 62
7
  6
CONTINUOUS
 66
1
 70
0
  0
VERTEX
  8
0
 62
7
  6
CONTINUOUS
 10
45.5169480609
 20
129.5833306495
  0
VERTEX
  8
0
 62
7
  6
CONTINUOUS
 10
45.4743752328
 20
129.5017181044
  0
VERTEX
  8
0
 62
7
  6
CONTINUOUS
 10
45.4648000339
 20
129.4047360935
  0
SEQEND
  0
LINE
  8
0
 62
7
  6
CONTINUOUS
 10
46.2238255015
 20
146.7050782457
 11
45.5807197522
 21
146.4340505619
  0
LINE
  8
0
 62
7
  6
CONTINUOUS
 10
99.7855647093
 20
88.6840225626
 11
106.4526413031
 21
88.6840225626
  0
LINE
  8
0
 62
7
  6
CONTINUOUS
 10
56.6383061483
 20
88.8849429547
 11
49.9712145982
 21
88.8849429547
  0
LINE
  8
0
 62
7
  6
CONTINUOUS
 10
49.9699416
 20
88.8849830372
 11
49.9707446437
 21
88.8849430388
  0
LINE
  8
0
 62
7
  6
CONTINUOUS
 10
106.4539143013
 20
88.68398248
 11
106.4531112575
 21
88.6840224785
  0
LINE
  8
0
 62
7
  6
CONTINUOUS
 10
45.5807221677
 20
106.7349137751
 11
45.5169480609
 21
106.7856348677
  0
POLYLINE
  8
0
 62
7
  6
CONTINUOUS
 66
1
 70
0
  0
VERTEX
  8
0
 62
7
  6
CONTINUOUS
 10
44.3119365131
 20
157.6967998443
  0
VERTEX
  8
0
 62
7
  6
CONTINUOUS
 10
44.3162492239
 20
157.6448383987
  0
VERTEX
  8
0
 62
7
  6
CONTINUOUS
 10
44.3780357837
 20
157.5046147952
  0
VERTEX
  8
0
 62
7
  6
CONTINUOUS
 10
44.4769670792
 20
157.412657963
  0
VERTEX
  8
0
 62
7
  6
CONTINUOUS
 10
44.598574856
 20
157.3471788725
  0
VERTEX
  8
0
 62
7
  6
CONTINUOUS
 10
44.7523934132
 20
157.2914058162
  0
VERTEX
  8
0
 62
7
  6
CONTINUOUS
 10
44.9462811634
 20
157.2396197949
  0
VERTEX
  8
0
 62
7
  6
CONTINUOUS
 10
45.178341405
 20
157.1912038052
  0
VERTEX
  8
0
 62
7
  6
CONTINUOUS
 10
45.4371437324
 20
157.1471707285
  0
SEQEND
  0
POLYLINE
  8
0
 62
7
  6
CONTINUOUS
 66
1
 70
0
  0
VERTEX
  8
0
 62
7
  6
CONTINUOUS
 10
49.9396466274
 20
96.8340225626
  0
VERTEX
  8
0
 62
7
  6
CONTINUOUS
 10
49.9388458267
 20
96.9474066525
  0
VERTEX
  8
0
 62
7
  6
CONTINUOUS
 10
49.9474012517
 20
97.0351076761
  0
VERTEX
  8
0
 62
7
  6
CONTINUOUS
 10
49.9634697986
 20
97.0801838309
  0
VERTEX
  8
0
 62
7
  6
CONTINUOUS
 10
49.9699416
 20
97.08398248
  0
SEQEND
  0
POLYLINE
  8
0
 62
7
  6
CONTINUOUS
 66
1
 70
0
  0
VERTEX
  8
0
 62
7
  6
CONTINUOUS
 10
49.9396466274
 20
113.6340225626
  0
VERTEX
  8
0
 62
7
  6
CONTINUOUS
 10
49.9388458267
 20
113.7474066525
  0
VERTEX
  8
0
 62
7
  6
CONTINUOUS
 10
49.9474012517
 20
113.8351076761
  0
VERTEX
  8
0
 62
7
  6
CONTINUOUS
 10
49.9634697986
 20
113.8801838309
  0
VERTEX
  8
0
 62
7
  6
CONTINUOUS
 10
49.9699416
 20
113.88398248
  0
SEQEND
  0
LINE
  8
0
 62
7
  6
CONTINUOUS
 10
49.9396466274
 20
130.4340225626
 11
49.9396466274
 21
122.7349429547
  0
LINE
  8
0
 62
7
  6
CONTINUOUS
 10
49.9396466274
 20
113.6340225626
 11
49.9396466274
 21
105.9349429547
  0
LINE
  8
0
 62
7
  6
CONTINUOUS
 10
49.9396466274
 20
89.1349429547
 11
49.9396466274
 21
96.8340225626
  0
LINE
  8
0
 62
7
  6
CONTINUOUS
 10
49.9396466274
 20
139.5349429547
 11
49.9396466274
 21
147.2340225626
  0
LINE
  8
0
 62
7
  6
CONTINUOUS
 10
49.9396466274
 20
156.3349429547
 11
49.9396466274
 21
164.0344827586
  0
POLYLINE
  8
0
 62
7
  6
CONTINUOUS
 66
1
 70
0
  0
VERTEX
  8
0
 62
7
  6
CONTINUOUS
 10
49.9396466274
 20
156.3349429547
  0
VERTEX
  8
0
 62
7
  6
CONTINUOUS
 10
49.9388458267
 20
156.2215588647
  0
VERTEX
  8
0
 62
7
  6
CONTINUOUS
 10
49.9474012517
 20
156.1338578411
  0
VERTEX
  8
0
 62
7
  6
CONTINUOUS
 10
49.9634697986
 20
156.0887816864
  0
VERTEX
  8
0
 62
7
  6
CONTINUOUS
 10
49.9699416
 20
156.0849830372
  0
SEQEND
  0
POLYLINE
  8
0
 62
7
  6
CONTINUOUS
 66
1
 70
0
  0
VERTEX
  8
0
 62
7
  6
CONTINUOUS
 10
49.9396466274
 20
139.5349429547
  0
VERTEX
  8
0
 62
7
  6
CONTINUOUS
 10
49.9388458267
 20
139.4215588647
  0
VERTEX
  8
0
 62
7
  6
CONTINUOUS
 10
49.9474012517
 20
139.3338578411
  0
VERTEX
  8
0
 62
7
  6
CONTINUOUS
 10
49.9634697986
 20
139.2887816864
  0
VERTEX
  8
0
 62
7
  6
CONTINUOUS
 10
49.9699416
 20
139.2849830372
  0
SEQEND
  0
POLYLINE
  8
0
 62
7
  6
CONTINUOUS
 66
1
 70
0
  0
VERTEX
  8
0
 62
7
  6
CONTINUOUS
 10
49.9396466274
 20
122.7349429547
  0
VERTEX
  8
0
 62
7
  6
CONTINUOUS
 10
49.9388458267
 20
122.6215588647
  0
VERTEX
  8
0
 62
7
  6
CONTINUOUS
 10
49.9474012517
 20
122.5338578411
  0
VERTEX
  8
0
 62
7
  6
CONTINUOUS
 10
49.9634697986
 20
122.4887816864
  0
VERTEX
  8
0
 62
7
  6
CONTINUOUS
 10
49.9699416
 20
122.4849830372
  0
SEQEND
  0
POLYLINE
  8
0
 62
7
  6
CONTINUOUS
 66
1
 70
0
  0
VERTEX
  8
0
 62
7
  6
CONTINUOUS
 10
110.8112515418
 20
98.3214776455
  0
VERTEX
  8
0
 62
7
  6
CONTINUOUS
 10
110.9856618723
 20
98.3470075679
  0
VERTEX
  8
0
 62
7
  6
CONTINUOUS
 10
111.2456374172
 20
98.3912268225
  0
VERTEX
  8
0
 62
7
  6
CONTINUOUS
 10
111.4795772346
 20
98.4400897827
  0
VERTEX
  8
0
 62
7
  6
CONTINUOUS
 10
111.6750079209
 20
98.4925021235
  0
VERTEX
  8
0
 62
7
  6
CONTINUOUS
 10
111.829673858
 20
98.5490989358
  0
VERTEX
  8
0
 62
7
  6
CONTINUOUS
 10
111.9517036064
 20
98.6159837319
  0
VERTEX
  8
0
 62
7
  6
CONTINUOUS
 10
112.0504549182
 20
98.7108562399
  0
VERTEX
  8
0
 62
7
  6
CONTINUOUS
 10
112.1091366527
 20
98.8548105844
  0
VERTEX
  8
0
 62
7
  6
CONTINUOUS
 10
112.1119027678
 20
98.8923443003
  0
SEQEND
  0
POLYLINE
  8
0
 62
7
  6
CONTINUOUS
 66
1
 70
0
  0
VERTEX
  8
0
 62
7
  6
CONTINUOUS
 10
106.4537160072
 20
97.2849836458
  0
VERTEX
  8
0
 62
7
  6
CONTINUOUS
 10
107.4050219327
 20
97.4033423627
  0
VERTEX
  8
0
 62
7
  6
CONTINUOUS
 10
108.4294596918
 20
97.5806566551
  0
VERTEX
  8
0
 62
7
  6
CONTINUOUS
 10
109.3685696151
 20
97.8016241984
  0
VERTEX
  8
0
 62
7
  6
CONTINUOUS
 10
110.2000303998
 20
98.0638872715
  0
SEQEND
  0
LINE
  8
0
 62
7
  6
CONTINUOUS
 10
110.9867121689
 20
87.6217947888
 11
110.8112555162
 21
87.6474861969
  0
POLYLINE
  8
0
 62
7
  6
CONTINUOUS
 66
1
 70
0
  0
VERTEX
  8
0
 62
7
  6
CONTINUOUS
 10
45.5169480609
 20
123.5856348677
  0
VERTEX
  8
0
 62
7
  6
CONTINUOUS
 10
45.4743752328
 20
123.6672474128
  0
VERTEX
  8
0
 62
7
  6
CONTINUOUS
 10
45.4648000339
 20
123.7642294238
  0
SEQEND
  0
POLYLINE
  8
0
 62
7
  6
CONTINUOUS
 66
1
 70
0
  0
VERTEX
  8
0
 62
7
  6
CONTINUOUS
 10
49.9396466274
 20
130.4340225626
  0
VERTEX
  8
0
 62
7
  6
CONTINUOUS
 10
49.9388458267
 20
130.5474066525
  0
VERTEX
  8
0
 62
7
  6
CONTINUOUS
 10
49.9474012517
 20
130.6351076761
  0
VERTEX
  8
0
 62
7
  6
CONTINUOUS
 10
49.9634697986
 20
130.6801838309
  0
VERTEX
  8
0
 62
7
  6
CONTINUOUS
 10
49.9699416
 20
130.68398248
  0
SEQEND
  0
POLYLINE
  8
0
 62
7
  6
CONTINUOUS
 66
1
 70
0
  0
VERTEX
  8
0
 62
7
  6
CONTINUOUS
 10
49.9396466274
 20
147.2340225626
  0
VERTEX
  8
0
 62
7
  6
CONTINUOUS
 10
49.9388458267
 20
147.3474066525
  0
VERTEX
  8
0
 62
7
  6
CONTINUOUS
 10
49.9474012517
 20
147.4351076761
  0
VERTEX
  8
0
 62
7
  6
CONTINUOUS
 10
49.9634697986
 20
147.4801838309
  0
VERTEX
  8
0
 62
7
  6
CONTINUOUS
 10
49.9699416
 20
147.48398248
  0
SEQEND
  0
LINE
  8
DEFAULT_1
 62
2
  6
CENTER
 10
52.8119279506
 20
80.4959478078
 11
52.8119279506
 21
166.2844827586
  0
POLYLINE
  8
0
 62
7
  6
CONTINUOUS
 66
1
 70
0
  0
VERTEX
  8
0
 62
7
  6
CONTINUOUS
 10
49.9396466274
 20
105.9349429547
  0
VERTEX
  8
0
 62
7
  6
CONTINUOUS
 10
49.9388458267
 20
105.8215588647
  0
VERTEX
  8
0
 62
7
  6
CONTINUOUS
 10
49.9474012517
 20
105.7338578411
  0
VERTEX
  8
0
 62
7
  6
CONTINUOUS
 10
49.9634697986
 20
105.6887816864
  0
VERTEX
  8
0
 62
7
  6
CONTINUOUS
 10
49.9699416
 20
105.6849830372
  0
SEQEND
  0
POLYLINE
  8
0
 62
7
  6
CONTINUOUS
 66
1
 70
0
  0
VERTEX
  8
0
 62
7
  6
CONTINUOUS
 10
49.9396466274
 20
89.1349429547
  0
VERTEX
  8
0
 62
7
  6
CONTINUOUS
 10
49.9388458267
 20
89.0215588647
  0
VERTEX
  8
0
 62
7
  6
CONTINUOUS
 10
49.9474012517
 20
88.9338578411
  0
VERTEX
  8
0
 62
7
  6
CONTINUOUS
 10
49.9634697986
 20
88.8887816864
  0
VERTEX
  8
0
 62
7
  6
CONTINUOUS
 10
49.9699416
 20
88.8849830372
  0
SEQEND
  0
LINE
  8
0
 62
7
  6
CONTINUOUS
 10
45.5807221677
 20
129.6340517421
 11
45.5169480609
 21
129.5833306495
  0
LINE
  8
0
 62
7
  6
CONTINUOUS
 10
106.4539143013
 20
97.2849830372
 11
106.4531112575
 21
97.2849430388
  0
LINE
  8
0
 62
7
  6
CONTINUOUS
 10
49.9712145982
 20
97.0840225626
 11
56.6383061483
 21
97.0840225626
  0
LINE
  8
0
 62
7
  6
CONTINUOUS
 10
106.4526413031
 20
97.2849429547
 11
99.7855647093
 21
97.2849429547
  0
POLYLINE
  8
0
 62
7
  6
CONTINUOUS
 66
1
 70
0
  0
VERTEX
  8
0
 62
7
  6
CONTINUOUS
 10
45.5807197522
 20
106.7349149554
  0
VERTEX
  8
0
 62
7
  6
CONTINUOUS
 10
46.2238255015
 20
106.4638872715
  0
VERTEX
  8
0
 62
7
  6
CONTINUOUS
 10
47.0552862862
 20
106.2016241984
  0
VERTEX
  8
0
 62
7
  6
CONTINUOUS
 10
47.9943962095
 20
105.9806566551
  0
VERTEX
  8
0
 62
7
  6
CONTINUOUS
 10
49.0188339686
 20
105.8033423627
  0
VERTEX
  8
0
 62
7
  6
CONTINUOUS
 10
49.9701398941
 20
105.6849836458
  0
SEQEND
  0
POLYLINE
  8
0
 62
7
  6
CONTINUOUS
 66
1
 70
0
  0
VERTEX
  8
0
 62
7
  6
CONTINUOUS
 10
45.5169480609
 20
112.7833306495
  0
VERTEX
  8
0
 62
7
  6
CONTINUOUS
 10
45.4743752328
 20
112.7017181044
  0
VERTEX
  8
0
 62
7
  6
CONTINUOUS
 10
45.4648000339
 20
112.6047360935
  0
SEQEND
  0
POLYLINE
  8
0
 62
7
  6
CONTINUOUS
 66
1
 70
0
  0
VERTEX
  8
0
 62
7
  6
CONTINUOUS
 10
45.6126043594
 20
96.0474878718
  0
VERTEX
  8
0
 62
7
  6
CONTINUOUS
 10
45.4381940306
 20
96.0219579496
  0
VERTEX
  8
0
 62
7
  6
CONTINUOUS
 10
45.1782184931
 20
95.9777386965
  0
VERTEX
  8
0
 62
7
  6
CONTINUOUS
 10
44.9442786838
 20
95.9288757385
  0
VERTEX
  8
0
 62
7
  6
CONTINUOUS
 10
44.748848003
 20
95.8764634007
  0
VERTEX
  8
0
 62
7
  6
CONTINUOUS
 10
44.5941820681
 20
95.8198665924
  0
VERTEX
  8
0
 62
7
  6
CONTINUOUS
 10
44.4721523207
 20
95.7529818034
  0
VERTEX
  8
0
 62
7
  6
CONTINUOUS
 10
44.3734010075
 20
95.6581093109
  0
VERTEX
  8
0
 62
7
  6
CONTINUOUS
 10
44.3147192559
 20
95.5141549866
  0
VERTEX
  8
0
 62
7
  6
CONTINUOUS
 10
44.3119345413
 20
95.4722845777
  0
SEQEND
  0
POLYLINE
  8
0
 62
7
  6
CONTINUOUS
 66
1
 70
0
  0
VERTEX
  8
0
 62
7
  6
CONTINUOUS
 10
49.9701398941
 20
97.0839818714
  0
VERTEX
  8
0
 62
7
  6
CONTINUOUS
 10
49.0188339686
 20
96.9656231545
  0
VERTEX
  8
0
 62
7
  6
CONTINUOUS
 10
47.9943962095
 20
96.7883088621
  0
VERTEX
  8
0
 62
7
  6
CONTINUOUS
 10
47.0552862862
 20
96.5673413188
  0
VERTEX
  8
0
 62
7
  6
CONTINUOUS
 10
46.2238255015
 20
96.3050782457
  0
SEQEND
  0
LINE
  8
0
 62
7
  6
CONTINUOUS
 10
49.9699416
 20
97.08398248
 11
49.9707446437
 21
97.0840224785
  0
LINE
  8
0
 62
7
  6
CONTINUOUS
 10
57.1376792551
 20
80.7344827586
 11
57.1376792551
 21
88.385573212
  0
LINE
  8
0
 62
7
  6
CONTINUOUS
 10
57.1376792551
 20
97.5833923053
 11
57.1376792551
 21
105.185573212
  0
LINE
  8
0
 62
7
  6
CONTINUOUS
 10
57.1376792551
 20
114.3833923053
 11
57.1376792551
 21
121.985573212
  0
LINE
  8
0
 62
7
  6
CONTINUOUS
 10
57.1376792551
 20
131.1833923053
 11
57.1376792551
 21
138.785573212
  0
LINE
  8
0
 62
7
  6
CONTINUOUS
 10
57.1376792551
 20
147.9833923053
 11
57.1376792551
 21
155.585573212
  0
LINE
  8
0
 62
7
  6
CONTINUOUS
 10
46.2238255015
 20
129.9050782457
 11
45.5807197522
 21
129.6340505619
  0
LINE
  8
0
 62
7
  6
CONTINUOUS
 10
49.9699416
 20
105.6849830372
 11
49.9707446437
 21
105.6849430388
  0
LINE
  8
0
 62
7
  6
CONTINUOUS
 10
45.4371437541
 20
106.7471707251
 11
45.6126003852
 21
106.7214793204
  0
POLYLINE
  8
0
 62
7
  6
CONTINUOUS
 66
1
 70
0
  0
VERTEX
  8
0
 62
7
  6
CONTINUOUS
 10
110.8431361491
 20
87.6340505619
  0
VERTEX
  8
0
 62
7
  6
CONTINUOUS
 10
110.2000303998
 20
87.9050782457
  0
VERTEX
  8
0
 62
7
  6
CONTINUOUS
 10
109.3685696151
 20
88.1673413188
  0
VERTEX
  8
0
 62
7
  6
CONTINUOUS
 10
108.4294596918
 20
88.3883088621
  0
VERTEX
  8
0
 62
7
  6
CONTINUOUS
 10
107.4050219327
 20
88.5656231545
  0
VERTEX
  8
0
 62
7
  6
CONTINUOUS
 10
106.4537160072
 20
88.6839818714
  0
SEQEND
  0
LINE
  8
0
 62
7
  6
CONTINUOUS
 10
45.5807221677
 20
123.5349137751
 11
45.5169480609
 21
123.5856348677
  0
POLYLINE
  8
0
 62
7
  6
CONTINUOUS
 66
1
 70
0
  0
VERTEX
  8
0
 62
7
  6
CONTINUOUS
 10
45.5169480609
 20
140.3856348677
  0
VERTEX
  8
0
 62
7
  6
CONTINUOUS
 10
45.4743752328
 20
140.4672474128
  0
VERTEX
  8
0
 62
7
  6
CONTINUOUS
 10
45.4648000339
 20
140.5642294238
  0
SEQEND
  0
POLYLINE
  8
0
 62
7
  6
CONTINUOUS
 66
1
 70
0
  0
VERTEX
  8
0
 62
7
  6
CONTINUOUS
 10
45.5169480609
 20
95.9833306495
  0
VERTEX
  8
0
 62
7
  6
CONTINUOUS
 10
45.4743752328
 20
95.9017181044
  0
VERTEX
  8
0
 62
7
  6
CONTINUOUS
 10
45.4648000339
 20
95.8047360935
  0
SEQEND
  0
LINE
  8
0
 62
7
  6
CONTINUOUS
 10
99.7855647093
 20
105.4840225626
 11
106.4526413031
 21
105.4840225626
  0
LINE
  8
0
 62
7
  6
CONTINUOUS
 10
56.6383061483
 20
105.6849429547
 11
49.9712145982
 21
105.6849429547
  0
LINE
  8
0
 62
7
  6
CONTINUOUS
 10
106.4539143013
 20
105.48398248
 11
106.4531112575
 21
105.4840224785
  0
LINE
  8
0
 62
7
  6
CONTINUOUS
 10
45.5807221677
 20
112.8340517421
 11
45.5169480609
 21
112.7833306495
  0
LINE
  8
0
 62
7
  6
CONTINUOUS
 10
110.2000303998
 20
148.4638872715
 11
110.8431361491
 21
148.7349149554
  0
POLYLINE
  8
0
 62
7
  6
CONTINUOUS
 66
1
 70
0
  0
VERTEX
  8
0
 62
7
  6
CONTINUOUS
 10
110.8112515418
 20
115.1214776455
  0
VERTEX
  8
0
 62
7
  6
CONTINUOUS
 10
110.9856618707
 20
115.1470075677
  0
VERTEX
  8
0
 62
7
  6
CONTINUOUS
 10
111.2456374082
 20
115.1912268208
  0
VERTEX
  8
0
 62
7
  6
CONTINUOUS
 10
111.4795772175
 20
115.2400897787
  0
VERTEX
  8
0
 62
7
  6
CONTINUOUS
 10
111.6750078983
 20
115.2925021166
  0
VERTEX
  8
0
 62
7
  6
CONTINUOUS
 10
111.8296738332
 20
115.3490989248
  0
VERTEX
  8
0
 62
7
  6
CONTINUOUS
 10
111.9517035806
 20
115.4159837139
  0
VERTEX
  8
0
 62
7
  6
CONTINUOUS
 10
112.0504548938
 20
115.5108562063
  0
VERTEX
  8
0
 62
7
  6
CONTINUOUS
 10
112.1091366454
 20
115.6548105307
  0
VERTEX
  8
0
 62
7
  6
CONTINUOUS
 10
112.11192136
 20
115.6966809396
  0
SEQEND
  0
POLYLINE
  8
0
 62
7
  6
CONTINUOUS
 66
1
 70
0
  0
VERTEX
  8
0
 62
7
  6
CONTINUOUS
 10
106.4537160072
 20
114.0849836458
  0
VERTEX
  8
0
 62
7
  6
CONTINUOUS
 10
107.4050219327
 20
114.2033423627
  0
VERTEX
  8
0
 62
7
  6
CONTINUOUS
 10
108.4294596918
 20
114.3806566551
  0
VERTEX
  8
0
 62
7
  6
CONTINUOUS
 10
109.3685696151
 20
114.6016241984
  0
VERTEX
  8
0
 62
7
  6
CONTINUOUS
 10
110.2000303998
 20
114.8638872715
  0
SEQEND
  0
LINE
  8
0
 62
7
  6
CONTINUOUS
 10
110.9867121486
 20
104.4217947919
 11
110.8112555161
 21
104.4474861969
  0
POLYLINE
  8
0
 62
7
  6
CONTINUOUS
 66
1
 70
0
  0
VERTEX
  8
0
 62
7
  6
CONTINUOUS
 10
45.5807197522
 20
123.5349149554
  0
VERTEX
  8
0
 62
7
  6
CONTINUOUS
 10
46.2238255015
 20
123.2638872715
  0
VERTEX
  8
0
 62
7
  6
CONTINUOUS
 10
47.0552862862
 20
123.0016241984
  0
VERTEX
  8
0
 62
7
  6
CONTINUOUS
 10
47.9943962095
 20
122.7806566551
  0
VERTEX
  8
0
 62
7
  6
CONTINUOUS
 10
49.0188339686
 20
122.6033423627
  0
VERTEX
  8
0
 62
7
  6
CONTINUOUS
 10
49.9701398941
 20
122.4849836458
  0
SEQEND
  0
POLYLINE
  8
0
 62
7
  6
CONTINUOUS
 66
1
 70
0
  0
VERTEX
  8
0
 62
7
  6
CONTINUOUS
 10
45.5169480609
 20
157.1856348677
  0
VERTEX
  8
0
 62
7
  6
CONTINUOUS
 10
45.4743752328
 20
157.2672474128
  0
VERTEX
  8
0
 62
7
  6
CONTINUOUS
 10
45.4648000339
 20
157.3642294238
  0
SEQEND
  0
LINE
  8
0
 62
7
  6
CONTINUOUS
 10
106.4539143013
 20
114.0849830372
 11
106.4531112575
 21
114.0849430388
  0
LINE
  8
0
 62
7
  6
CONTINUOUS
 10
49.9699416
 20
113.88398248
 11
49.9707446437
 21
113.8840224785
  0
LINE
  8
0
 62
7
  6
CONTINUOUS
 10
49.9712145982
 20
113.8840225626
 11
56.6383061483
 21
113.8840225626
  0
LINE
  8
0
 62
7
  6
CONTINUOUS
 10
106.4526413031
 20
114.0849429547
 11
99.7855647093
 21
114.0849429547
  0
LINE
  8
0
 62
7
  6
CONTINUOUS
 10
110.8431337335
 20
87.6340517421
 11
110.9069078404
 21
87.5833306495
  0
LINE
  8
0
 62
7
  6
CONTINUOUS
 10
46.2238255015
 20
113.1050782457
 11
45.5807197522
 21
112.8340505619
  0
POLYLINE
  8
0
 62
7
  6
CONTINUOUS
 66
1
 70
0
  0
VERTEX
  8
0
 62
7
  6
CONTINUOUS
 10
45.6126043594
 20
112.8474878718
  0
VERTEX
  8
0
 62
7
  6
CONTINUOUS
 10
45.4381940306
 20
112.8219579496
  0
VERTEX
  8
0
 62
7
  6
CONTINUOUS
 10
45.1782184931
 20
112.7777386965
  0
VERTEX
  8
0
 62
7
  6
CONTINUOUS
 10
44.9442786838
 20
112.7288757385
  0
VERTEX
  8
0
 62
7
  6
CONTINUOUS
 10
44.748848003
 20
112.6764634007
  0
VERTEX
  8
0
 62
7
  6
CONTINUOUS
 10
44.5941820681
 20
112.6198665924
  0
VERTEX
  8
0
 62
7
  6
CONTINUOUS
 10
44.4721523207
 20
112.5529818034
  0
VERTEX
  8
0
 62
7
  6
CONTINUOUS
 10
44.3734010075
 20
112.4581093109
  0
VERTEX
  8
0
 62
7
  6
CONTINUOUS
 10
44.3147192559
 20
112.3141549866
  0
VERTEX
  8
0
 62
7
  6
CONTINUOUS
 10
44.3119345413
 20
112.2722845777
  0
SEQEND
  0
POLYLINE
  8
0
 62
7
  6
CONTINUOUS
 66
1
 70
0
  0
VERTEX
  8
0
 62
7
  6
CONTINUOUS
 10
49.9701398941
 20
113.8839818714
  0
VERTEX
  8
0
 62
7
  6
CONTINUOUS
 10
49.0188339686
 20
113.7656231545
  0
VERTEX
  8
0
 62
7
  6
CONTINUOUS
 10
47.9943962095
 20
113.5883088621
  0
VERTEX
  8
0
 62
7
  6
CONTINUOUS
 10
47.0552862862
 20
113.3673413188
  0
VERTEX
  8
0
 62
7
  6
CONTINUOUS
 10
46.2238255015
 20
113.1050782457
  0
SEQEND
  0
LINE
  8
0
 62
7
  6
CONTINUOUS
 10
45.4371437541
 20
123.5471707251
 11
45.6126003852
 21
123.5214793204
  0
POLYLINE
  8
0
 62
7
  6
CONTINUOUS
 66
1
 70
0
  0
VERTEX
  8
0
 62
7
  6
CONTINUOUS
 10
110.8431361491
 20
104.4340505619
  0
VERTEX
  8
0
 62
7
  6
CONTINUOUS
 10
110.2000303998
 20
104.7050782457
  0
VERTEX
  8
0
 62
7
  6
CONTINUOUS
 10
109.3685696151
 20
104.9673413188
  0
VERTEX
  8
0
 62
7
  6
CONTINUOUS
 10
108.4294596918
 20
105.1883088621
  0
VERTEX
  8
0
 62
7
  6
CONTINUOUS
 10
107.4050219327
 20
105.3656231545
  0
VERTEX
  8
0
 62
7
  6
CONTINUOUS
 10
106.4537160072
 20
105.4839818714
  0
SEQEND
  0
LINE
  8
0
 62
7
  6
CONTINUOUS
 10
45.5807221677
 20
140.3349137751
 11
45.5169480609
 21
140.3856348677
  0
LINE
  8
AXES
 62
2
  6
CENTER
 10
78.2119279506
 20
126.7844827586
 11
78.2119279506
 21
124.3845827586
  0
LINE
  8
AXES
 62
2
  6
CONTINUOUS
 10
78.2119279506
 20
123.2644827586
 11
78.2119279506
 21
121.5044827586
  0
LINE
  8
AXES
 62
2
  6
CENTER
 10
78.2119279506
 20
117.9844827586
 11
78.2119279506
 21
120.3843827586
  0
LINE
  8
0
 62
7
  6
CONTINUOUS
 10
110.8431337335
 20
148.7349137751
 11
110.9069078404
 21
148.7856348677
  0
LINE
  8
0
 62
7
  6
CONTINUOUS
 10
45.5807221677
 20
96.0340517421
 11
45.5169480609
 21
95.9833306495
  0
LINE
  8
0
 62
7
  6
CONTINUOUS
 10
99.7855647093
 20
122.2840225626
 11
106.4526413031
 21
122.2840225626
  0
LINE
  8
AXES
 62
2
  6
CENTER
 10
82.6119279506
 20
122.3844827586
 11
80.2120279506
 21
122.3844827586
  0
LINE
  8
AXES
 62
2
  6
CONTINUOUS
 10
79.0919279506
 20
122.3844827586
 11
77.3319279506
 21
122.3844827586
  0
LINE
  8
AXES
 62
2
  6
CENTER
 10
73.8119279506
 20
122.3844827586
 11
76.2118279506
 21
122.3844827586
  0
LINE
  8
0
 62
7
  6
CONTINUOUS
 10
56.6383061483
 20
122.4849429547
 11
49.9712145982
 21
122.4849429547
  0
LINE
  8
0
 62
7
  6
CONTINUOUS
 10
49.9699416
 20
122.4849830372
 11
49.9707446437
 21
122.4849430388
  0
LINE
  8
0
 62
7
  6
CONTINUOUS
 10
110.2000303998
 20
131.6638872715
 11
110.8431361491
 21
131.9349149554
  0
LINE
  8
0
 62
7
  6
CONTINUOUS
 10
106.4539143013
 20
122.28398248
 11
106.4531112575
 21
122.2840224785
  0
LINE
  8
0
 62
7
  6
CONTINUOUS
 10
110.9867121472
 20
121.2217947921
 11
110.8112555161
 21
121.2474861969
  0
POLYLINE
  8
0
 62
7
  6
CONTINUOUS
 66
1
 70
0
  0
VERTEX
  8
0
 62
7
  6
CONTINUOUS
 10
45.5807197522
 20
140.3349149554
  0
VERTEX
  8
0
 62
7
  6
CONTINUOUS
 10
46.2238255015
 20
140.0638872715
  0
VERTEX
  8
0
 62
7
  6
CONTINUOUS
 10
47.0552862862
 20
139.8016241984
  0
VERTEX
  8
0
 62
7
  6
CONTINUOUS
 10
47.9943962095
 20
139.5806566551
  0
VERTEX
  8
0
 62
7
  6
CONTINUOUS
 10
49.0188339686
 20
139.4033423627
  0
VERTEX
  8
0
 62
7
  6
CONTINUOUS
 10
49.9701398941
 20
139.2849836458
  0
SEQEND
  0
POLYLINE
  8
0
 62
7
  6
CONTINUOUS
 66
1
 70
0
  0
VERTEX
  8
0
 62
7
  6
CONTINUOUS
 10
110.8112515418
 20
131.9214776455
  0
VERTEX
  8
0
 62
7
  6
CONTINUOUS
 10
110.9856618707
 20
131.9470075677
  0
VERTEX
  8
0
 62
7
  6
CONTINUOUS
 10
111.2456374082
 20
131.9912268208
  0
VERTEX
  8
0
 62
7
  6
CONTINUOUS
 10
111.4795772175
 20
132.0400897787
  0
VERTEX
  8
0
 62
7
  6
CONTINUOUS
 10
111.6750078983
 20
132.0925021166
  0
VERTEX
  8
0
 62
7
  6
CONTINUOUS
 10
111.8296738332
 20
132.1490989248
  0
VERTEX
  8
0
 62
7
  6
CONTINUOUS
 10
111.9517035806
 20
132.2159837139
  0
VERTEX
  8
0
 62
7
  6
CONTINUOUS
 10
112.0504548938
 20
132.3108562063
  0
VERTEX
  8
0
 62
7
  6
CONTINUOUS
 10
112.1091366454
 20
132.4548105307
  0
VERTEX
  8
0
 62
7
  6
CONTINUOUS
 10
112.11192136
 20
132.4966809396
  0
SEQEND
  0
POLYLINE
  8
0
 62
7
  6
CONTINUOUS
 66
1
 70
0
  0
VERTEX
  8
0
 62
7
  6
CONTINUOUS
 10
106.4537160072
 20
130.8849836458
  0
VERTEX
  8
0
 62
7
  6
CONTINUOUS
 10
107.4050219327
 20
131.0033423627
  0
VERTEX
  8
0
 62
7
  6
CONTINUOUS
 10
108.4294596918
 20
131.1806566551
  0
VERTEX
  8
0
 62
7
  6
CONTINUOUS
 10
109.3685696151
 20
131.4016241984
  0
VERTEX
  8
0
 62
7
  6
CONTINUOUS
 10
110.2000303998
 20
131.6638872715
  0
SEQEND
  0
LINE
  8
0
 62
7
  6
CONTINUOUS
 10
106.4539143013
 20
130.8849830372
 11
106.4531112575
 21
130.8849430388
  0
LINE
  8
0
 62
7
  6
CONTINUOUS
 10
110.8431337335
 20
104.4340517421
 11
110.9069078404
 21
104.3833306495
  0
LINE
  8
0
 62
7
  6
CONTINUOUS
 10
45.5807221677
 20
157.1349137751
 11
45.5169480609
 21
157.1856348677
  0
LINE
  8
0
 62
7
  6
CONTINUOUS
 10
49.9699416
 20
130.68398248
 11
49.9707446437
 21
130.6840224785
  0
LINE
  8
0
 62
7
  6
CONTINUOUS
 10
49.9712145982
 20
130.6840225626
 11
56.6383061483
 21
130.6840225626
  0
LINE
  8
0
 62
7
  6
CONTINUOUS
 10
106.4526413031
 20
130.8849429547
 11
99.7855647093
 21
130.8849429547
  0
LINE
  8
0
 62
7
  6
CONTINUOUS
 10
110.8431337335
 20
131.9349137751
 11
110.9069078404
 21
131.9856348677
  0
LINE
  8
0
 62
7
  6
CONTINUOUS
 10
46.2238255015
 20
96.3050782457
 11
45.5807197522
 21
96.0340505619
  0
POLYLINE
  8
0
 62
7
  6
CONTINUOUS
 66
1
 70
0
  0
VERTEX
  8
0
 62
7
  6
CONTINUOUS
 10
45.6126043594
 20
129.6474878718
  0
VERTEX
  8
0
 62
7
  6
CONTINUOUS
 10
45.4381940306
 20
129.6219579496
  0
VERTEX
  8
0
 62
7
  6
CONTINUOUS
 10
45.1782184931
 20
129.5777386965
  0
VERTEX
  8
0
 62
7
  6
CONTINUOUS
 10
44.9442786838
 20
129.5288757385
  0
VERTEX
  8
0
 62
7
  6
CONTINUOUS
 10
44.748848003
 20
129.4764634007
  0
VERTEX
  8
0
 62
7
  6
CONTINUOUS
 10
44.5941820681
 20
129.4198665924
  0
VERTEX
  8
0
 62
7
  6
CONTINUOUS
 10
44.4721523207
 20
129.3529818034
  0
VERTEX
  8
0
 62
7
  6
CONTINUOUS
 10
44.3734010075
 20
129.2581093109
  0
VERTEX
  8
0
 62
7
  6
CONTINUOUS
 10
44.3147192559
 20
129.1141549866
  0
VERTEX
  8
0
 62
7
  6
CONTINUOUS
 10
44.3119345413
 20
129.0722845777
  0
SEQEND
  0
POLYLINE
  8
0
 62
7
  6
CONTINUOUS
 66
1
 70
0
  0
VERTEX
  8
0
 62
7
  6
CONTINUOUS
 10
49.9701398941
 20
130.6839818714
  0
VERTEX
  8
0
 62
7
  6
CONTINUOUS
 10
49.0188339686
 20
130.5656231545
  0
VERTEX
  8
0
 62
7
  6
CONTINUOUS
 10
47.9943962095
 20
130.3883088621
  0
VERTEX
  8
0
 62
7
  6
CONTINUOUS
 10
47.0552862862
 20
130.1673413188
  0
VERTEX
  8
0
 62
7
  6
CONTINUOUS
 10
46.2238255015
 20
129.9050782457
  0
SEQEND
  0
LINE
  8
0
 62
7
  6
CONTINUOUS
 10
45.4371437541
 20
140.3471707251
 11
45.6126003852
 21
140.3214793204
  0
POLYLINE
  8
0
 62
7
  6
CONTINUOUS
 66
1
 70
0
  0
VERTEX
  8
0
 62
7
  6
CONTINUOUS
 10
110.8431361491
 20
121.2340505619
  0
VERTEX
  8
0
 62
7
  6
CONTINUOUS
 10
110.2000303998
 20
121.5050782457
  0
VERTEX
  8
0
 62
7
  6
CONTINUOUS
 10
109.3685696151
 20
121.7673413188
  0
VERTEX
  8
0
 62
7
  6
CONTINUOUS
 10
108.4294596918
 20
121.9883088621
  0
VERTEX
  8
0
 62
7
  6
CONTINUOUS
 10
107.4050219327
 20
122.1656231545
  0
VERTEX
  8
0
 62
7
  6
CONTINUOUS
 10
106.4537160072
 20
122.2839818714
  0
SEQEND
  0
POLYLINE
  8
0
 62
7
  6
CONTINUOUS
 66
1
 70
0
  0
VERTEX
  8
0
 62
7
  6
CONTINUOUS
 10
110.9069078404
 20
87.5833306495
  0
VERTEX
  8
0
 62
7
  6
CONTINUOUS
 10
110.9494806685
 20
87.5017181044
  0
VERTEX
  8
0
 62
7
  6
CONTINUOUS
 10
110.9590558674
 20
87.4047360935
  0
SEQEND
  0
POLYLINE
  8
0
 62
7
  6
CONTINUOUS
 66
1
 70
0
  0
VERTEX
  8
0
 62
7
  6
CONTINUOUS
 10
110.9069078404
 20
148.7856348677
  0
VERTEX
  8
0
 62
7
  6
CONTINUOUS
 10
110.9494806685
 20
148.8672474128
  0
VERTEX
  8
0
 62
7
  6
CONTINUOUS
 10
110.9590558674
 20
148.9642294238
  0
SEQEND
  0
LINE
  8
0
 62
7
  6
CONTINUOUS
 10
99.7855647093
 20
139.0840225626
 11
106.4526413031
 21
139.0840225626
  0
LINE
  8
0
 62
7
  6
CONTINUOUS
 10
56.6383061483
 20
139.2849429547
 11
49.9712145982
 21
139.2849429547
  0
LINE
  8
0
 62
7
  6
CONTINUOUS
 10
49.9699416
 20
139.2849830372
 11
49.9707446437
 21
139.2849430388
  0
LINE
  8
0
 62
7
  6
CONTINUOUS
 10
106.4539143013
 20
139.08398248
 11
106.4531112575
 21
139.0840224785
  0
LINE
  8
0
 62
7
  6
CONTINUOUS
 10
99.2861766462
 20
89.1834074187
 11
99.2861766462
 21
96.7855580985
  0
LINE
  8
0
 62
7
  6
CONTINUOUS
 10
99.2861766462
 20
105.9834074187
 11
99.2861766462
 21
113.5855580985
  0
LINE
  8
0
 62
7
  6
CONTINUOUS
 10
99.2861766462
 20
122.7834074187
 11
99.2861766462
 21
130.3855580985
  0
LINE
  8
0
 62
7
  6
CONTINUOUS
 10
99.2861766462
 20
139.5834074187
 11
99.2861766462
 21
147.1855580985
  0
LINE
  8
0
 62
7
  6
CONTINUOUS
 10
99.2861766462
 20
156.3834074187
 11
99.2861766462
 21
164.0344827586
  0
LINE
  8
0
 62
7
  6
CONTINUOUS
 10
110.2000303998
 20
114.8638872715
 11
110.8431361491
 21
115.1349149554
  0
POLYLINE
  8
0
 62
7
  6
CONTINUOUS
 66
1
 70
0
  0
VERTEX
  8
0
 62
7
  6
CONTINUOUS
 10
110.8112515418
 20
148.7214776455
  0
VERTEX
  8
0
 62
7
  6
CONTINUOUS
 10
110.9856618707
 20
148.7470075677
  0
VERTEX
  8
0
 62
7
  6
CONTINUOUS
 10
111.2456374082
 20
148.7912268208
  0
VERTEX
  8
0
 62
7
  6
CONTINUOUS
 10
111.4795772175
 20
148.8400897787
  0
VERTEX
  8
0
 62
7
  6
CONTINUOUS
 10
111.6750078983
 20
148.8925021166
  0
VERTEX
  8
0
 62
7
  6
CONTINUOUS
 10
111.8296738332
 20
148.9490989248
  0
VERTEX
  8
0
 62
7
  6
CONTINUOUS
 10
111.9517035806
 20
149.0159837139
  0
VERTEX
  8
0
 62
7
  6
CONTINUOUS
 10
112.0504548938
 20
149.1108562063
  0
VERTEX
  8
0
 62
7
  6
CONTINUOUS
 10
112.1091366454
 20
149.2548105307
  0
VERTEX
  8
0
 62
7
  6
CONTINUOUS
 10
112.11192136
 20
149.2966809396
  0
SEQEND
  0
POLYLINE
  8
0
 62
7
  6
CONTINUOUS
 66
1
 70
0
  0
VERTEX
  8
0
 62
7
  6
CONTINUOUS
 10
106.4537160072
 20
147.6849836458
  0
VERTEX
  8
0
 62
7
  6
CONTINUOUS
 10
107.4050219327
 20
147.8033423627
  0
VERTEX
  8
0
 62
7
  6
CONTINUOUS
 10
108.4294596918
 20
147.9806566551
  0
VERTEX
  8
0
 62
7
  6
CONTINUOUS
 10
109.3685696151
 20
148.2016241984
  0
VERTEX
  8
0
 62
7
  6
CONTINUOUS
 10
110.2000303998
 20
148.4638872715
  0
SEQEND
  0
LINE
  8
0
 62
7
  6
CONTINUOUS
 10
110.9867121472
 20
138.0217947921
 11
110.8112555161
 21
138.0474861969
  0
POLYLINE
  8
0
 62
7
  6
CONTINUOUS
 66
1
 70
0
  0
VERTEX
  8
0
 62
7
  6
CONTINUOUS
 10
45.5807197522
 20
157.1349149554
  0
VERTEX
  8
0
 62
7
  6
CONTINUOUS
 10
46.2238255015
 20
156.8638872715
  0
VERTEX
  8
0
 62
7
  6
CONTINUOUS
 10
47.0552862862
 20
156.6016241984
  0
VERTEX
  8
0
 62
7
  6
CONTINUOUS
 10
47.9943962095
 20
156.3806566551
  0
VERTEX
  8
0
 62
7
  6
CONTINUOUS
 10
49.0188339686
 20
156.2033423627
  0
VERTEX
  8
0
 62
7
  6
CONTINUOUS
 10
49.9701398941
 20
156.0849836458
  0
SEQEND
  0
LINE
  8
0
 62
7
  6
CONTINUOUS
 10
110.8431337335
 20
121.2340517421
 11
110.9069078404
 21
121.1833306495
  0
POLYLINE
  8
0
 62
7
  6
CONTINUOUS
 66
1
 70
0
  0
VERTEX
  8
0
 62
7
  6
CONTINUOUS
 10
110.9069078404
 20
104.3833306495
  0
VERTEX
  8
0
 62
7
  6
CONTINUOUS
 10
110.9494806685
 20
104.3017181044
  0
VERTEX
  8
0
 62
7
  6
CONTINUOUS
 10
110.9590558674
 20
104.2047360935
  0
SEQEND
  0
LINE
  8
DEFAULT_1
 62
2
  6
CENTER
 10
103.6119279506
 20
74.9718777859
 11
103.6119279506
 21
155.5844827586
  0
POLYLINE
  8
0
 62
7
  6
CONTINUOUS
 66
1
 70
0
  0
VERTEX
  8
0
 62
7
  6
CONTINUOUS
 10
110.9069078404
 20
131.9856348677
  0
VERTEX
  8
0
 62
7
  6
CONTINUOUS
 10
110.9494806685
 20
132.0672474128
  0
VERTEX
  8
0
 62
7
  6
CONTINUOUS
 10
110.9590558674
 20
132.1642294238
  0
SEQEND
  0
LINE
  8
0
 62
7
  6
CONTINUOUS
 10
106.4539143013
 20
147.6849830372
 11
106.4531112575
 21
147.6849430388
  0
LINE
  8
0
 62
7
  6
CONTINUOUS
 10
49.9712145982
 20
147.4840225626
 11
56.6383061483
 21
147.4840225626
  0
LINE
  8
0
 62
7
  6
CONTINUOUS
 10
106.4526413031
 20
147.6849429547
 11
99.7855647093
 21
147.6849429547
  0
POLYLINE
  8
0
 62
7
  6
CONTINUOUS
 66
1
 70
0
  0
VERTEX
  8
0
 62
7
  6
CONTINUOUS
 10
106.4842092739
 20
97.5349429547
  0
VERTEX
  8
0
 62
7
  6
CONTINUOUS
 10
106.4850100745
 20
97.4215588647
  0
VERTEX
  8
0
 62
7
  6
CONTINUOUS
 10
106.4764546496
 20
97.3338578411
  0
VERTEX
  8
0
 62
7
  6
CONTINUOUS
 10
106.4603861027
 20
97.2887816864
  0
VERTEX
  8
0
 62
7
  6
CONTINUOUS
 10
106.4539143013
 20
97.2849830372
  0
SEQEND
  0
POLYLINE
  8
0
 62
7
  6
CONTINUOUS
 66
1
 70
0
  0
VERTEX
  8
0
 62
7
  6
CONTINUOUS
 10
106.4842092739
 20
114.3349429547
  0
VERTEX
  8
0
 62
7
  6
CONTINUOUS
 10
106.4850100745
 20
114.2215588647
  0
VERTEX
  8
0
 62
7
  6
CONTINUOUS
 10
106.4764546496
 20
114.1338578411
  0
VERTEX
  8
0
 62
7
  6
CONTINUOUS
 10
106.4603861027
 20
114.0887816864
  0
VERTEX
  8
0
 62
7
  6
CONTINUOUS
 10
106.4539143013
 20
114.0849830372
  0
SEQEND
  0
POLYLINE
  8
0
 62
7
  6
CONTINUOUS
 66
1
 70
0
  0
VERTEX
  8
0
 62
7
  6
CONTINUOUS
 10
106.4842092739
 20
131.1349429547
  0
VERTEX
  8
0
 62
7
  6
CONTINUOUS
 10
106.4850100745
 20
131.0215588647
  0
VERTEX
  8
0
 62
7
  6
CONTINUOUS
 10
106.4764546496
 20
130.9338578411
  0
VERTEX
  8
0
 62
7
  6
CONTINUOUS
 10
106.4603861027
 20
130.8887816864
  0
VERTEX
  8
0
 62
7
  6
CONTINUOUS
 10
106.4539143013
 20
130.8849830372
  0
SEQEND
  0
POLYLINE
  8
0
 62
7
  6
CONTINUOUS
 66
1
 70
0
  0
VERTEX
  8
0
 62
7
  6
CONTINUOUS
 10
106.4842092739
 20
147.9349429547
  0
VERTEX
  8
0
 62
7
  6
CONTINUOUS
 10
106.4850100745
 20
147.8215588647
  0
VERTEX
  8
0
 62
7
  6
CONTINUOUS
 10
106.4764546496
 20
147.7338578411
  0
VERTEX
  8
0
 62
7
  6
CONTINUOUS
 10
106.4603861027
 20
147.6887816864
  0
VERTEX
  8
0
 62
7
  6
CONTINUOUS
 10
106.4539143013
 20
147.6849830372
  0
SEQEND
  0
LINE
  8
0
 62
7
  6
CONTINUOUS
 10
106.4842092739
 20
138.8340225626
 11
106.4842092739
 21
131.1349429547
  0
LINE
  8
0
 62
7
  6
CONTINUOUS
 10
106.4842092739
 20
105.2340225626
 11
106.4842092739
 21
97.5349429547
  0
LINE
  8
0
 62
7
  6
CONTINUOUS
 10
106.4842092739
 20
80.7344827586
 11
106.4842092739
 21
88.4340225626
  0
LINE
  8
0
 62
7
  6
CONTINUOUS
 10
106.4842092739
 20
114.3349429547
 11
106.4842092739
 21
122.0340225626
  0
LINE
  8
0
 62
7
  6
CONTINUOUS
 10
106.4842092739
 20
147.9349429547
 11
106.4842092739
 21
155.6340225626
  0
POLYLINE
  8
0
 62
7
  6
CONTINUOUS
 66
1
 70
0
  0
VERTEX
  8
0
 62
7
  6
CONTINUOUS
 10
106.4842092739
 20
155.6340225626
  0
VERTEX
  8
0
 62
7
  6
CONTINUOUS
 10
106.4850100745
 20
155.7474066525
  0
VERTEX
  8
0
 62
7
  6
CONTINUOUS
 10
106.4764546496
 20
155.8351076761
  0
VERTEX
  8
0
 62
7
  6
CONTINUOUS
 10
106.4603861027
 20
155.8801838309
  0
VERTEX
  8
0
 62
7
  6
CONTINUOUS
 10
106.4539143013
 20
155.88398248
  0
SEQEND
  0
POLYLINE
  8
0
 62
7
  6
CONTINUOUS
 66
1
 70
0
  0
VERTEX
  8
0
 62
7
  6
CONTINUOUS
 10
106.4842092739
 20
138.8340225626
  0
VERTEX
  8
0
 62
7
  6
CONTINUOUS
 10
106.4850100745
 20
138.9474066525
  0
VERTEX
  8
0
 62
7
  6
CONTINUOUS
 10
106.4764546496
 20
139.0351076761
  0
VERTEX
  8
0
 62
7
  6
CONTINUOUS
 10
106.4603861027
 20
139.0801838309
  0
VERTEX
  8
0
 62
7
  6
CONTINUOUS
 10
106.4539143013
 20
139.08398248
  0
SEQEND
  0
POLYLINE
  8
0
 62
7
  6
CONTINUOUS
 66
1
 70
0
  0
VERTEX
  8
0
 62
7
  6
CONTINUOUS
 10
106.4842092739
 20
122.0340225626
  0
VERTEX
  8
0
 62
7
  6
CONTINUOUS
 10
106.4850100745
 20
122.1474066525
  0
VERTEX
  8
0
 62
7
  6
CONTINUOUS
 10
106.4764546496
 20
122.2351076761
  0
VERTEX
  8
0
 62
7
  6
CONTINUOUS
 10
106.4603861027
 20
122.2801838309
  0
VERTEX
  8
0
 62
7
  6
CONTINUOUS
 10
106.4539143013
 20
122.28398248
  0
SEQEND
  0
POLYLINE
  8
0
 62
7
  6
CONTINUOUS
 66
1
 70
0
  0
VERTEX
  8
0
 62
7
  6
CONTINUOUS
 10
106.4842092739
 20
105.2340225626
  0
VERTEX
  8
0
 62
7
  6
CONTINUOUS
 10
106.4850100745
 20
105.3474066525
  0
VERTEX
  8
0
 62
7
  6
CONTINUOUS
 10
106.4764546496
 20
105.4351076761
  0
VERTEX
  8
0
 62
7
  6
CONTINUOUS
 10
106.4603861027
 20
105.4801838309
  0
VERTEX
  8
0
 62
7
  6
CONTINUOUS
 10
106.4539143013
 20
105.48398248
  0
SEQEND
  0
POLYLINE
  8
0
 62
7
  6
CONTINUOUS
 66
1
 70
0
  0
VERTEX
  8
0
 62
7
  6
CONTINUOUS
 10
106.4842092739
 20
88.4340225626
  0
VERTEX
  8
0
 62
7
  6
CONTINUOUS
 10
106.4850100745
 20
88.5474066525
  0
VERTEX
  8
0
 62
7
  6
CONTINUOUS
 10
106.4764546496
 20
88.6351076761
  0
VERTEX
  8
0
 62
7
  6
CONTINUOUS
 10
106.4603861027
 20
88.6801838309
  0
VERTEX
  8
0
 62
7
  6
CONTINUOUS
 10
106.4539143013
 20
88.68398248
  0
SEQEND
  0
LINE
  8
0
 62
7
  6
CONTINUOUS
 10
110.8431337335
 20
115.1349137751
 11
110.9069078404
 21
115.1856348677
  0
POLYLINE
  8
0
 62
7
  6
CONTINUOUS
 66
1
 70
0
  0
VERTEX
  8
0
 62
7
  6
CONTINUOUS
 10
45.6126043594
 20
146.4474878718
  0
VERTEX
  8
0
 62
7
  6
CONTINUOUS
 10
45.4381940306
 20
146.4219579496
  0
VERTEX
  8
0
 62
7
  6
CONTINUOUS
 10
45.1782184931
 20
146.3777386965
  0
VERTEX
  8
0
 62
7
  6
CONTINUOUS
 10
44.9442786838
 20
146.3288757385
  0
VERTEX
  8
0
 62
7
  6
CONTINUOUS
 10
44.748848003
 20
146.2764634007
  0
VERTEX
  8
0
 62
7
  6
CONTINUOUS
 10
44.5941820681
 20
146.2198665924
  0
VERTEX
  8
0
 62
7
  6
CONTINUOUS
 10
44.4721523207
 20
146.1529818034
  0
VERTEX
  8
0
 62
7
  6
CONTINUOUS
 10
44.3734010075
 20
146.0581093109
  0
VERTEX
  8
0
 62
7
  6
CONTINUOUS
 10
44.3147192559
 20
145.9141549866
  0
VERTEX
  8
0
 62
7
  6
CONTINUOUS
 10
44.3119345413
 20
145.8722845777
  0
SEQEND
  0
POLYLINE
  8
0
 62
7
  6
CONTINUOUS
 66
1
 70
0
  0
VERTEX
  8
0
 62
7
  6
CONTINUOUS
 10
49.9701398941
 20
147.4839818714
  0
VERTEX
  8
0
 62
7
  6
CONTINUOUS
 10
49.0188339686
 20
147.3656231545
  0
VERTEX
  8
0
 62
7
  6
CONTINUOUS
 10
47.9943962095
 20
147.1883088621
  0
VERTEX
  8
0
 62
7
  6
CONTINUOUS
 10
47.0552862862
 20
146.9673413188
  0
VERTEX
  8
0
 62
7
  6
CONTINUOUS
 10
46.2238255015
 20
146.7050782457
  0
SEQEND
  0
LINE
  8
0
 62
7
  6
CONTINUOUS
 10
49.9699416
 20
147.48398248
 11
49.9707446437
 21
147.4840224785
  0
POLYLINE
  8
0
 62
7
  6
CONTINUOUS
 66
1
 70
0
  0
VERTEX
  8
0
 62
7
  6
CONTINUOUS
 10
110.8431361491
 20
138.0340505619
  0
VERTEX
  8
0
 62
7
  6
CONTINUOUS
 10
110.2000303998
 20
138.3050782457
  0
VERTEX
  8
0
 62
7
  6
CONTINUOUS
 10
109.3685696151
 20
138.5673413188
  0
VERTEX
  8
0
 62
7
  6
CONTINUOUS
 10
108.4294596918
 20
138.7883088621
  0
VERTEX
  8
0
 62
7
  6
CONTINUOUS
 10
107.4050219327
 20
138.9656231545
  0
VERTEX
  8
0
 62
7
  6
CONTINUOUS
 10
106.4537160072
 20
139.0839818714
  0
SEQEND
  0
POLYLINE
  8
0
 62
7
  6
CONTINUOUS
 66
1
 70
0
  0
VERTEX
  8
0
 62
7
  6
CONTINUOUS
 10
110.9069078404
 20
121.1833306495
  0
VERTEX
  8
0
 62
7
  6
CONTINUOUS
 10
110.9494806685
 20
121.1017181044
  0
VERTEX
  8
0
 62
7
  6
CONTINUOUS
 10
110.9590558674
 20
121.0047360935
  0
SEQEND
  0
POLYLINE
  8
0
 62
7
  6
CONTINUOUS
 66
1
 70
0
  0
VERTEX
  8
0
 62
7
  6
CONTINUOUS
 10
112.1118939073
 20
103.8772040155
  0
VERTEX
  8
0
 62
7
  6
CONTINUOUS
 10
112.1076065539
 20
103.9241278427
  0
VERTEX
  8
0
 62
7
  6
CONTINUOUS
 10
112.0458197807
 20
104.0643511655
  0
VERTEX
  8
0
 62
7
  6
CONTINUOUS
 10
111.9468884717
 20
104.1563077935
  0
VERTEX
  8
0
 62
7
  6
CONTINUOUS
 10
111.8252807096
 20
104.2217867906
  0
VERTEX
  8
0
 62
7
  6
CONTINUOUS
 10
111.6714621847
 20
104.2775597945
  0
VERTEX
  8
0
 62
7
  6
CONTINUOUS
 10
111.4775745092
 20
104.329345776
  0
VERTEX
  8
0
 62
7
  6
CONTINUOUS
 10
111.2455143767
 20
104.3777617344
  0
VERTEX
  8
0
 62
7
  6
CONTINUOUS
 10
110.9867121486
 20
104.4217947919
  0
SEQEND
  0
POLYLINE
  8
0
 62
7
  6
CONTINUOUS
 66
1
 70
0
  0
VERTEX
  8
0
 62
7
  6
CONTINUOUS
 10
112.1119193882
 20
87.0721656729
  0
VERTEX
  8
0
 62
7
  6
CONTINUOUS
 10
112.1076066773
 20
87.1241271185
  0
VERTEX
  8
0
 62
7
  6
CONTINUOUS
 10
112.0458201176
 20
87.2643507221
  0
VERTEX
  8
0
 62
7
  6
CONTINUOUS
 10
111.9468888221
 20
87.3563075542
  0
VERTEX
  8
0
 62
7
  6
CONTINUOUS
 10
111.8252810453
 20
87.4217866447
  0
VERTEX
  8
0
 62
7
  6
CONTINUOUS
 10
111.6714624881
 20
87.477559701
  0
VERTEX
  8
0
 62
7
  6
CONTINUOUS
 10
111.4775747379
 20
87.5293457224
  0
VERTEX
  8
0
 62
7
  6
CONTINUOUS
 10
111.2455144963
 20
87.577761712
  0
VERTEX
  8
0
 62
7
  6
CONTINUOUS
 10
110.9867121689
 20
87.6217947888
  0
SEQEND
  0
POLYLINE
  8
0
 62
7
  6
CONTINUOUS
 66
1
 70
0
  0
VERTEX
  8
0
 62
7
  6
CONTINUOUS
 10
110.9069078404
 20
115.1856348677
  0
VERTEX
  8
0
 62
7
  6
CONTINUOUS
 10
110.9494806685
 20
115.2672474128
  0
VERTEX
  8
0
 62
7
  6
CONTINUOUS
 10
110.9590558674
 20
115.3642294238
  0
SEQEND
  0
LINE
  8
0
 62
7
  6
CONTINUOUS
 10
49.9699416
 20
156.0849830372
 11
49.9707446437
 21
156.0849430388
  0
LINE
  8
0
 62
7
  6
CONTINUOUS
 10
45.4371437324
 20
157.1471707285
 11
45.6126003851
 21
157.1214793204
  0
LINE
  8
0
 62
7
  6
CONTINUOUS
 10
110.8431337335
 20
138.0340517421
 11
110.9069078404
 21
137.9833306495
  0
POLYLINE
  8
0
 62
7
  6
CONTINUOUS
 66
1
 70
0
  0
VERTEX
  8
0
 62
7
  6
CONTINUOUS
 10
112.1119193881
 20
120.6721656654
  0
VERTEX
  8
0
 62
7
  6
CONTINUOUS
 10
112.1076065452
 20
120.7241278941
  0
VERTEX
  8
0
 62
7
  6
CONTINUOUS
 10
112.0458197568
 20
120.8643511969
  0
VERTEX
  8
0
 62
7
  6
CONTINUOUS
 10
111.9468884468
 20
120.9563078105
  0
VERTEX
  8
0
 62
7
  6
CONTINUOUS
 10
111.8252806857
 20
121.0217868009
  0
VERTEX
  8
0
 62
7
  6
CONTINUOUS
 10
111.6714621632
 20
121.0775598012
  0
VERTEX
  8
0
 62
7
  6
CONTINUOUS
 10
111.4775744929
 20
121.1293457798
  0
VERTEX
  8
0
 62
7
  6
CONTINUOUS
 10
111.2455143682
 20
121.177761736
  0
VERTEX
  8
0
 62
7
  6
CONTINUOUS
 10
110.9867121472
 20
121.2217947921
  0
SEQEND
  0
POLYLINE
  8
0
 62
7
  6
CONTINUOUS
 66
1
 70
0
  0
VERTEX
  8
0
 62
7
  6
CONTINUOUS
 10
112.1119193881
 20
137.4721656654
  0
VERTEX
  8
0
 62
7
  6
CONTINUOUS
 10
112.1076065452
 20
137.5241278941
  0
VERTEX
  8
0
 62
7
  6
CONTINUOUS
 10
112.0458197568
 20
137.6643511969
  0
VERTEX
  8
0
 62
7
  6
CONTINUOUS
 10
111.9468884468
 20
137.7563078105
  0
VERTEX
  8
0
 62
7
  6
CONTINUOUS
 10
111.8252806857
 20
137.8217868009
  0
VERTEX
  8
0
 62
7
  6
CONTINUOUS
 10
111.6714621632
 20
137.8775598012
  0
VERTEX
  8
0
 62
7
  6
CONTINUOUS
 10
111.4775744929
 20
137.9293457798
  0
VERTEX
  8
0
 62
7
  6
CONTINUOUS
 10
111.2455143682
 20
137.977761736
  0
VERTEX
  8
0
 62
7
  6
CONTINUOUS
 10
110.9867121472
 20
138.0217947921
  0
SEQEND
  0
LINE
  8
0
 62
7
  6
CONTINUOUS
 10
112.1119279039
 20
115.6959772886
 11
112.111921747
 21
115.6967104522
  0
LINE
  8
0
 62
7
  6
CONTINUOUS
 10
112.1119279039
 20
132.4959772886
 11
112.111921747
 21
132.4967104522
  0
LINE
  8
0
 62
7
  6
CONTINUOUS
 10
112.1119279039
 20
149.2959772886
 11
112.111921747
 21
149.2967104522
  0
LINE
  8
0
 62
7
  6
CONTINUOUS
 10
112.1119279506
 20
80.7346109983
 11
112.1119279506
 21
87.0730026107
  0
LINE
  8
0
 62
7
  6
CONTINUOUS
 10
112.1119279506
 20
98.8958779574
 11
112.1119279506
 21
103.8730875598
  0
LINE
  8
2_FEATURE
 62
7
  6
CONTINUOUS
 10
112.1119279506
 20
98.89588029
 11
112.1119279506
 21
103.8730852208
  0
LINE
  8
0
 62
7
  6
CONTINUOUS
 10
112.1119279506
 20
115.6960342801
 11
112.1119279506
 21
120.6729312371
  0
LINE
  8
0
 62
7
  6
CONTINUOUS
 10
112.1119279506
 20
132.4960342801
 11
112.1119279506
 21
137.4729312371
  0
LINE
  8
0
 62
7
  6
CONTINUOUS
 10
112.1119279506
 20
149.2960342801
 11
112.1119279506
 21
154.2729312371
  0
LINE
  8
0
 62
7
  6
CONTINUOUS
 10
112.1119279133
 20
87.0730680881
 11
112.11191977
 21
87.0722068273
  0
LINE
  8
0
 62
7
  6
CONTINUOUS
 10
112.1119279039
 20
154.2729882286
 11
112.1119197775
 21
154.2721363549
  0
LINE
  8
0
 62
7
  6
CONTINUOUS
 10
112.1119279039
 20
137.4729882286
 11
112.1119197775
 21
137.4721363549
  0
LINE
  8
0
 62
7
  6
CONTINUOUS
 10
112.1119279039
 20
120.6729882286
 11
112.1119197775
 21
120.6721363549
  0
LINE
  8
2_FEATURE
 62
7
  6
CONTINUOUS
 10
112.1118766668
 20
98.8923448417
 11
112.1119279506
 21
98.89588029
  0
LINE
  8
0
 62
7
  6
CONTINUOUS
 10
110.2000303998
 20
98.0638872715
 11
110.8431361491
 21
98.3349149554
  0
LINE
  8
0
 62
7
  6
CONTINUOUS
 10
99.7855647093
 20
155.8840225626
 11
106.4526413031
 21
155.8840225626
  0
LINE
  8
0
 62
7
  6
CONTINUOUS
 10
56.6383061483
 20
156.0849429547
 11
49.9712145982
 21
156.0849429547
  0
LINE
  8
0
 62
7
  6
CONTINUOUS
 10
106.4539143013
 20
155.88398248
 11
106.4531112575
 21
155.8840224785
  0
POLYLINE
  8
0
 62
7
  6
CONTINUOUS
 66
1
 70
0
  0
VERTEX
  8
0
 62
7
  6
CONTINUOUS
 10
110.9069078404
 20
137.9833306495
  0
VERTEX
  8
0
 62
7
  6
CONTINUOUS
 10
110.9494806685
 20
137.9017181044
  0
VERTEX
  8
0
 62
7
  6
CONTINUOUS
 10
110.9590558674
 20
137.8047360935
  0
SEQEND
  0
POLYLINE
  8
0
 62
7
  6
CONTINUOUS
 66
1
 70
0
  0
VERTEX
  8
0
 62
7
  6
CONTINUOUS
 10
112.1119193881
 20
154.2721656654
  0
VERTEX
  8
0
 62
7
  6
CONTINUOUS
 10
112.1076065452
 20
154.3241278941
  0
VERTEX
  8
0
 62
7
  6
CONTINUOUS
 10
112.0458197568
 20
154.4643511969
  0
VERTEX
  8
0
 62
7
  6
CONTINUOUS
 10
111.9468884468
 20
154.5563078105
  0
VERTEX
  8
0
 62
7
  6
CONTINUOUS
 10
111.8252806857
 20
154.6217868009
  0
VERTEX
  8
0
 62
7
  6
CONTINUOUS
 10
111.6714621632
 20
154.6775598012
  0
VERTEX
  8
0
 62
7
  6
CONTINUOUS
 10
111.4775744929
 20
154.7293457798
  0
VERTEX
  8
0
 62
7
  6
CONTINUOUS
 10
111.2455143682
 20
154.777761736
  0
VERTEX
  8
0
 62
7
  6
CONTINUOUS
 10
110.9867121472
 20
154.8217947921
  0
SEQEND
  0
LINE
  8
0
 62
7
  6
CONTINUOUS
 10
110.8431337335
 20
98.3349137751
 11
110.9069078404
 21
98.3856348677
  0
POLYLINE
  8
0
 62
7
  6
CONTINUOUS
 66
1
 70
0
  0
VERTEX
  8
0
 62
7
  6
CONTINUOUS
 10
99.0361766462
 20
164.2844827586
  0
VERTEX
  8
0
 62
7
  6
CONTINUOUS
 10
99.0320135076
 20
164.2836495517
  0
VERTEX
  8
0
 62
7
  6
CONTINUOUS
 10
99.0318399117
 20
164.2806228685
  0
VERTEX
  8
0
 62
7
  6
CONTINUOUS
 10
99.0339153171
 20
164.274522245
  0
VERTEX
  8
0
 62
7
  6
CONTINUOUS
 10
99.0363611342
 20
164.2643556324
  0
VERTEX
  8
0
 62
7
  6
CONTINUOUS
 10
99.0374705321
 20
164.2493250009
  0
VERTEX
  8
0
 62
7
  6
CONTINUOUS
 10
99.0368048926
 20
164.2291216202
  0
VERTEX
  8
0
 62
7
  6
CONTINUOUS
 10
99.0361692931
 20
164.2028857767
  0
VERTEX
  8
0
 62
7
  6
CONTINUOUS
 10
99.0367385515
 20
164.167768599
  0
VERTEX
  8
0
 62
7
  6
CONTINUOUS
 10
99.0359431128
 20
164.1234961142
  0
VERTEX
  8
0
 62
7
  6
CONTINUOUS
 10
99.0343731039
 20
164.0761824986
  0
VERTEX
  8
0
 62
7
  6
CONTINUOUS
 10
99.0361766462
 20
164.0344827586
  0
SEQEND
  0
LINE
  8
0
 62
7
  6
CONTINUOUS
 10
110.9867121472
 20
154.8217947921
 11
110.8112555161
 21
154.8474861969
  0
POLYLINE
  8
0
 62
7
  6
CONTINUOUS
 66
1
 70
0
  0
VERTEX
  8
0
 62
7
  6
CONTINUOUS
 10
110.9069078404
 20
98.3856348677
  0
VERTEX
  8
0
 62
7
  6
CONTINUOUS
 10
110.9494806685
 20
98.4672474128
  0
VERTEX
  8
0
 62
7
  6
CONTINUOUS
 10
110.9590558674
 20
98.5642294238
  0
SEQEND
  0
LINE
  8
0
 62
7
  6
CONTINUOUS
 10
44.5619353954
 20
164.2844827586
 11
99.0361766462
 21
164.2844827586
  0
POLYLINE
  8
0
 62
7
  6
CONTINUOUS
 66
1
 70
0
  0
VERTEX
  8
0
 62
7
  6
CONTINUOUS
 10
110.8431361491
 20
154.8340505619
  0
VERTEX
  8
0
 62
7
  6
CONTINUOUS
 10
110.2000303998
 20
155.1050782457
  0
VERTEX
  8
0
 62
7
  6
CONTINUOUS
 10
109.3685696151
 20
155.3673413188
  0
VERTEX
  8
0
 62
7
  6
CONTINUOUS
 10
108.4294596918
 20
155.5883088621
  0
VERTEX
  8
0
 62
7
  6
CONTINUOUS
 10
107.4050219327
 20
155.7656231545
  0
VERTEX
  8
0
 62
7
  6
CONTINUOUS
 10
106.4537160072
 20
155.8839818714
  0
SEQEND
  0
POLYLINE
  8
0
 62
7
  6
CONTINUOUS
 66
1
 70
0
  0
VERTEX
  8
0
 62
7
  6
CONTINUOUS
 10
44.5618238223
 20
164.2844822687
  0
VERTEX
  8
0
 62
7
  6
CONTINUOUS
 10
44.480692733
 20
164.2709110751
  0
VERTEX
  8
0
 62
7
  6
CONTINUOUS
 10
44.408354921
 20
164.2317433324
  0
VERTEX
  8
0
 62
7
  6
CONTINUOUS
 10
44.3526439351
 20
164.1712190046
  0
VERTEX
  8
0
 62
7
  6
CONTINUOUS
 10
44.3195913181
 20
164.0958915326
  0
VERTEX
  8
0
 62
7
  6
CONTINUOUS
 10
44.3119280095
 20
164.0344650987
  0
SEQEND
  0
POLYLINE
  8
0
 62
7
  6
CONTINUOUS
 66
1
 70
0
  0
VERTEX
  8
0
 62
7
  6
CONTINUOUS
 10
99.0361766462
 20
164.2844827586
  0
VERTEX
  8
0
 62
7
  6
CONTINUOUS
 10
99.1206847069
 20
164.269766391
  0
VERTEX
  8
0
 62
7
  6
CONTINUOUS
 10
99.1937494141
 20
164.2285724874
  0
VERTEX
  8
0
 62
7
  6
CONTINUOUS
 10
99.2513655843
 20
164.1617373104
  0
VERTEX
  8
0
 62
7
  6
CONTINUOUS
 10
99.2830026081
 20
164.0741935198
  0
VERTEX
  8
0
 62
7
  6
CONTINUOUS
 10
99.2861766462
 20
164.0344827586
  0
SEQEND
  0
LINE
  8
0
 62
7
  6
CONTINUOUS
 10
110.8431337335
 20
154.8340517421
 11
110.9069078404
 21
154.7833306495
  0
POLYLINE
  8
0
 62
7
  6
CONTINUOUS
 66
1
 70
0
  0
VERTEX
  8
0
 62
7
  6
CONTINUOUS
 10
110.9069078404
 20
154.7833306495
  0
VERTEX
  8
0
 62
7
  6
CONTINUOUS
 10
110.9494806685
 20
154.7017181044
  0
VERTEX
  8
0
 62
7
  6
CONTINUOUS
 10
110.9590558674
 20
154.6047360935
  0
SEQEND
  0
POLYLINE
  8
0
 62
7
  6
CONTINUOUS
 66
1
 70
0
  0
VERTEX
  8
0
 62
7
  6
CONTINUOUS
 10
106.4403544165
 20
80.4844827586
  0
VERTEX
  8
0
 62
7
  6
CONTINUOUS
 10
106.4570880289
 20
80.5032110647
  0
VERTEX
  8
0
 62
7
  6
CONTINUOUS
 10
106.4713017195
 20
80.5569539411
  0
VERTEX
  8
0
 62
7
  6
CONTINUOUS
 10
106.4808414002
 20
80.638084485
  0
VERTEX
  8
0
 62
7
  6
CONTINUOUS
 10
106.4842092739
 20
80.7344827586
  0
SEQEND
  0
LINE
  8
0
 62
7
  6
CONTINUOUS
 10
160.1643857759
 20
80.4844827586
 11
144.7143857758
 21
80.4844827586
  0
POLYLINE
  8
0
 62
7
  6
CONTINUOUS
 66
1
 70
0
  0
VERTEX
  8
0
 62
7
  6
CONTINUOUS
 10
156.524356999
 20
157.1165191422
  0
VERTEX
  8
0
 62
7
  6
CONTINUOUS
 10
156.5762478936
 20
157.1325121402
  0
VERTEX
  8
0
 62
7
  6
CONTINUOUS
 10
156.6259512105
 20
157.1856348677
  0
VERTEX
  8
0
 62
7
  6
CONTINUOUS
 10
156.6655234958
 20
157.2672474128
  0
VERTEX
  8
0
 62
7
  6
CONTINUOUS
 10
156.6886936889
 20
157.3642294238
  0
SEQEND
  0
LINE
  8
0
 62
7
  6
CONTINUOUS
 10
144.632369719
 20
91.1844827586
 11
146.4393310395
 21
91.1844827586
  0
LINE
  8
0
 62
7
  6
CONTINUOUS
 10
146.4393310395
 20
91.1844826129
 11
146.4692869778
 21
91.1825388158
  0
LINE
  8
0
 62
7
  6
CONTINUOUS
 10
145.5976211039
 20
90.7899054295
 11
156.5243569999
 21
89.9165191535
  0
POLYLINE
  8
0
 62
7
  6
CONTINUOUS
 66
1
 70
0
  0
VERTEX
  8
0
 62
7
  6
CONTINUOUS
 10
146.4694756896
 20
91.1825147354
  0
VERTEX
  8
0
 62
7
  6
CONTINUOUS
 10
146.4750486466
 20
91.1817358974
  0
VERTEX
  8
0
 62
7
  6
CONTINUOUS
 10
146.4846065851
 20
91.1800913599
  0
VERTEX
  8
0
 62
7
  6
CONTINUOUS
 10
146.4943178641
 20
91.1780132921
  0
VERTEX
  8
0
 62
7
  6
CONTINUOUS
 10
146.5041734898
 20
91.1754733132
  0
SEQEND
  0
POLYLINE
  8
0
 62
7
  6
CONTINUOUS
 66
1
 70
0
  0
VERTEX
  8
0
 62
7
  6
CONTINUOUS
 10
153.1352928293
 20
90.1874091478
  0
VERTEX
  8
0
 62
7
  6
CONTINUOUS
 10
153.2862871219
 20
90.1630640592
  0
VERTEX
  8
0
 62
7
  6
CONTINUOUS
 10
153.4934183449
 20
90.0860734876
  0
VERTEX
  8
0
 62
7
  6
CONTINUOUS
 10
153.6338459774
 20
89.9946769574
  0
VERTEX
  8
0
 62
7
  6
CONTINUOUS
 10
153.6713285107
 20
89.9617892273
  0
SEQEND
  0
LINE
  8
0
 62
7
  6
CONTINUOUS
 10
146.4692869778
 20
91.1825388158
 11
146.5501079657
 21
91.160387892
  0
POLYLINE
  8
0
 62
7
  6
CONTINUOUS
 66
1
 70
0
  0
VERTEX
  8
0
 62
7
  6
CONTINUOUS
 10
145.2211788939
 20
90.8910065285
  0
VERTEX
  8
0
 62
7
  6
CONTINUOUS
 10
145.4592805957
 20
90.8100545006
  0
VERTEX
  8
0
 62
7
  6
CONTINUOUS
 10
145.5976223183
 20
90.7899205899
  0
SEQEND
  0
LINE
  8
0
 62
7
  6
CONTINUOUS
 10
160.0956861779
 20
88.8945674875
 11
156.5182294141
 21
89.9170089383
  0
LINE
  8
0
 62
7
  6
CONTINUOUS
 10
146.5501079657
 20
91.160387892
 11
146.6525271021
 21
91.1059191785
  0
POLYLINE
  8
0
 62
7
  6
CONTINUOUS
 66
1
 70
0
  0
VERTEX
  8
0
 62
7
  6
CONTINUOUS
 10
144.8714498257
 20
91.1510777848
  0
VERTEX
  8
0
 62
7
  6
CONTINUOUS
 10
144.8282287983
 20
91.1756408046
  0
VERTEX
  8
0
 62
7
  6
CONTINUOUS
 10
144.79722003
 20
91.1844827567
  0
SEQEND
  0
LINE
  8
0
 62
7
  6
CONTINUOUS
 10
146.6525271021
 20
91.1059191785
 11
146.7483580438
 21
91.0414446789
  0
POLYLINE
  8
0
 62
7
  6
CONTINUOUS
 66
1
 70
0
  0
VERTEX
  8
0
 62
7
  6
CONTINUOUS
 10
144.8714483166
 20
91.1510787519
  0
VERTEX
  8
0
 62
7
  6
CONTINUOUS
 10
144.8826912128
 20
91.1433491252
  0
VERTEX
  8
0
 62
7
  6
CONTINUOUS
 10
144.9116135294
 20
91.117621073
  0
SEQEND
  0
POLYLINE
  8
0
 62
7
  6
CONTINUOUS
 66
1
 70
0
  0
VERTEX
  8
0
 62
7
  6
CONTINUOUS
 10
146.5749993417
 20
91.1425499119
  0
VERTEX
  8
0
 62
7
  6
CONTINUOUS
 10
146.5848539381
 20
91.135478084
  0
VERTEX
  8
0
 62
7
  6
CONTINUOUS
 10
146.5945016687
 20
91.1277846731
  0
VERTEX
  8
0
 62
7
  6
CONTINUOUS
 10
146.6038963736
 20
91.1194645959
  0
VERTEX
  8
0
 62
7
  6
CONTINUOUS
 10
146.6129899705
 20
91.110515978
  0
VERTEX
  8
0
 62
7
  6
CONTINUOUS
 10
146.6217326204
 20
91.1009404469
  0
VERTEX
  8
0
 62
7
  6
CONTINUOUS
 10
146.630072924
 20
91.0907434326
  0
VERTEX
  8
0
 62
7
  6
CONTINUOUS
 10
146.6379581531
 20
91.0799344718
  0
VERTEX
  8
0
 62
7
  6
CONTINUOUS
 10
146.645334522
 20
91.0685275152
  0
VERTEX
  8
0
 62
7
  6
CONTINUOUS
 10
146.6521475
 20
91.0565412372
  0
VERTEX
  8
0
 62
7
  6
CONTINUOUS
 10
146.658342185
 20
91.0439993172
  0
VERTEX
  8
0
 62
7
  6
CONTINUOUS
 10
146.663863831
 20
91.0309304278
  0
VERTEX
  8
0
 62
7
  6
CONTINUOUS
 10
146.6646070228
 20
91.028989267
  0
SEQEND
  0
LINE
  8
0
 62
7
  6
CONTINUOUS
 10
145.3347087747
 20
95.1580452099
 11
156.5243569999
 21
96.0524463638
  0
LINE
  8
0
 62
7
  6
CONTINUOUS
 10
156.5309698528
 20
89.9133677001
 11
156.5984480937
 21
89.874720799
  0
POLYLINE
  8
0
 62
7
  6
CONTINUOUS
 66
1
 70
0
  0
VERTEX
  8
0
 62
7
  6
CONTINUOUS
 10
144.9116134225
 20
91.1176210161
  0
VERTEX
  8
0
 62
7
  6
CONTINUOUS
 10
145.0115418814
 20
91.0240776406
  0
VERTEX
  8
0
 62
7
  6
CONTINUOUS
 10
145.2211788939
 20
90.8910065285
  0
SEQEND
  0
LINE
  8
1_AXIS
 62
7
  6
CONTINUOUS
 10
154.6038094605
 20
98.8551077586
 11
154.9519525528
 21
98.8551077586
  0
LINE
  8
1_AXIS
 62
7
  6
CONTINUOUS
 10
154.1733934201
 20
99.0126076084
 11
154.5215365125
 21
99.0126076084
  0
LINE
  8
1_AXIS
 62
7
  6
CONTINUOUS
 10
153.9759653309
 20
99.1644827586
 11
153.7637430734
 21
99.1644827586
  0
LINE
  8
1_AXIS
 62
7
  6
CONTINUOUS
 10
153.9759653309
 20
99.7044827586
 11
153.7637430734
 21
99.7044827586
  0
POLYLINE
  8
0
 62
7
  6
CONTINUOUS
 66
1
 70
0
  0
VERTEX
  8
0
 62
7
  6
CONTINUOUS
 10
156.524356999
 20
96.0524463751
  0
VERTEX
  8
0
 62
7
  6
CONTINUOUS
 10
156.5762478936
 20
96.036453377
  0
VERTEX
  8
0
 62
7
  6
CONTINUOUS
 10
156.6259512105
 20
95.9833306495
  0
VERTEX
  8
0
 62
7
  6
CONTINUOUS
 10
156.6655234958
 20
95.9017181044
  0
VERTEX
  8
0
 62
7
  6
CONTINUOUS
 10
156.6886936889
 20
95.8047360935
  0
SEQEND
  0
LINE
  8
0
 62
7
  6
CONTINUOUS
 10
160.0956861779
 20
147.4743980298
 11
156.5182294141
 21
146.451956579
  0
LINE
  8
1_AXIS
 62
7
  6
CONTINUOUS
 10
153.6750169623
 20
100.0363577586
 11
154.1733934201
 21
100.0363577586
  0
LINE
  8
1_AXIS
 62
7
  6
CONTINUOUS
 10
154.3093142549
 20
100.0363577586
 11
154.6038094605
 21
100.0363577586
  0
LINE
  8
1_AXIS
 62
7
  6
CONTINUOUS
 10
154.9519525528
 20
100.2726077586
 11
153.6750169623
 21
100.2726077586
  0
LINE
  8
1_AXIS
 62
7
  6
CONTINUOUS
 10
153.9242051912
 20
100.5876076835
 11
154.2496948111
 21
100.5876076835
  0
LINE
  8
1_AXIS
 62
7
  6
CONTINUOUS
 10
154.3403087327
 20
100.6663578337
 11
154.1280864752
 21
100.6663578337
  0
LINE
  8
1_AXIS
 62
7
  6
CONTINUOUS
 10
154.7027643557
 20
100.7057326835
 11
154.4905420982
 21
100.7057326835
  0
LINE
  8
1_AXIS
 62
7
  6
CONTINUOUS
 10
154.7707247731
 20
100.7451077586
 11
154.5585025156
 21
100.7451077586
  0
LINE
  8
1_AXIS
 62
7
  6
CONTINUOUS
 10
154.0148190811
 20
100.8238576835
 11
153.9468586637
 21
100.8238576835
  0
LINE
  8
1_AXIS
 62
7
  6
CONTINUOUS
 10
154.4309226226
 20
100.8238576835
 11
154.2187003651
 21
100.8238576835
  0
LINE
  8
1_AXIS
 62
7
  6
CONTINUOUS
 10
154.861338663
 20
100.8632327586
 11
154.6491164055
 21
100.8632327586
  0
LINE
  8
1_AXIS
 62
7
  6
CONTINUOUS
 10
154.0827795302
 20
100.9026078337
 11
153.8788982463
 21
100.9026078337
  0
LINE
  8
1_AXIS
 62
7
  6
CONTINUOUS
 10
154.4762295675
 20
100.9813577586
 11
154.26400731
 21
100.9813577586
  0
LINE
  8
1_AXIS
 62
7
  6
CONTINUOUS
 10
154.9292990804
 20
101.0207328337
 11
154.7170768229
 21
101.0207328337
  0
LINE
  8
1_AXIS
 62
7
  6
CONTINUOUS
 10
154.045813543
 20
101.0207328337
 11
153.8335912855
 21
101.0207328337
  0
LINE
  8
1_AXIS
 62
7
  6
CONTINUOUS
 10
154.49888304
 20
101.1782326835
 11
154.2866607825
 21
101.1782326835
  0
LINE
  8
1_AXIS
 62
7
  6
CONTINUOUS
 10
154.0231600705
 20
101.1782326835
 11
153.810937813
 21
101.1782326835
  0
LINE
  8
1_AXIS
 62
7
  6
CONTINUOUS
 10
154.9519525528
 20
101.2176077586
 11
154.7397302953
 21
101.2176077586
  0
LINE
  8
1_AXIS
 62
7
  6
CONTINUOUS
 10
154.9519525528
 20
101.4144826835
 11
154.7397302953
 21
101.4144826835
  0
LINE
  8
1_AXIS
 62
7
  6
CONTINUOUS
 10
154.49888304
 20
101.4144826835
 11
154.2866607825
 21
101.4144826835
  0
LINE
  8
1_AXIS
 62
7
  6
CONTINUOUS
 10
154.0231600705
 20
101.4932328337
 11
153.810937813
 21
101.4932328337
  0
LINE
  8
1_AXIS
 62
7
  6
CONTINUOUS
 10
154.5215365125
 20
101.5326076835
 11
154.3093142549
 21
101.5326076835
  0
LINE
  8
1_AXIS
 62
7
  6
CONTINUOUS
 10
154.9292990804
 20
101.5719827586
 11
154.7170768229
 21
101.5719827586
  0
LINE
  8
1_AXIS
 62
7
  6
CONTINUOUS
 10
154.5358490431
 20
101.6507326835
 11
154.3546211999
 21
101.6507326835
  0
LINE
  8
1_AXIS
 62
7
  6
CONTINUOUS
 10
154.045813543
 20
101.6507326835
 11
153.8335912855
 21
101.6507326835
  0
LINE
  8
1_AXIS
 62
7
  6
CONTINUOUS
 10
154.4225816173
 20
101.6901077586
 11
154.4678885622
 21
101.6901077586
  0
LINE
  8
1_AXIS
 62
7
  6
CONTINUOUS
 10
154.8839921354
 20
101.7294828337
 11
154.6717698779
 21
101.7294828337
  0
LINE
  8
1_AXIS
 62
7
  6
CONTINUOUS
 10
154.1137739763
 20
101.7688576835
 11
153.9015517188
 21
101.7688576835
  0
LINE
  8
1_AXIS
 62
7
  6
CONTINUOUS
 10
154.1817343937
 20
101.8082327586
 11
153.9695121362
 21
101.8082327586
  0
LINE
  8
1_AXIS
 62
7
  6
CONTINUOUS
 10
154.7933782456
 20
101.8869826835
 11
154.581155988
 21
101.8869826835
  0
LINE
  8
1_AXIS
 62
7
  6
CONTINUOUS
 10
154.7027643557
 20
101.9263577586
 11
154.3999281448
 21
101.9263577586
  0
LINE
  8
1_AXIS
 62
7
  6
CONTINUOUS
 10
154.1817343937
 20
102.0444827586
 11
153.9695121362
 21
102.0444827586
  0
LINE
  8
1_AXIS
 62
7
  6
CONTINUOUS
 10
153.6750169623
 20
102.3594827962
 11
154.9519525528
 21
102.3594827962
  0
LINE
  8
1_AXIS
 62
7
  6
CONTINUOUS
 10
154.9519525528
 20
102.5957327962
 11
153.8335912855
 21
102.5957327962
  0
POLYLINE
  8
0
 62
7
  6
CONTINUOUS
 66
1
 70
0
  0
VERTEX
  8
0
 62
7
  6
CONTINUOUS
 10
153.6710264586
 20
89.9620749453
  0
VERTEX
  8
0
 62
7
  6
CONTINUOUS
 10
153.6905745737
 20
89.9429567105
  0
VERTEX
  8
0
 62
7
  6
CONTINUOUS
 10
153.7576161133
 20
89.8650705285
  0
VERTEX
  8
0
 62
7
  6
CONTINUOUS
 10
153.7892524002
 20
89.8170230282
  0
VERTEX
  8
0
 62
7
  6
CONTINUOUS
 10
153.7947135755
 20
89.8068198631
  0
SEQEND
  0
POLYLINE
  8
0
 62
7
  6
CONTINUOUS
 66
1
 70
0
  0
VERTEX
  8
0
 62
7
  6
CONTINUOUS
 10
146.6646069224
 20
91.0289894068
  0
VERTEX
  8
0
 62
7
  6
CONTINUOUS
 10
146.7192529911
 20
90.9243209601
  0
VERTEX
  8
0
 62
7
  6
CONTINUOUS
 10
146.8223341482
 20
90.8112722523
  0
VERTEX
  8
0
 62
7
  6
CONTINUOUS
 10
146.9593173346
 20
90.7245940281
  0
VERTEX
  8
0
 62
7
  6
CONTINUOUS
 10
147.1210313691
 20
90.6723870525
  0
VERTEX
  8
0
 62
7
  6
CONTINUOUS
 10
147.1972524307
 20
90.6620308789
  0
SEQEND
  0
POLYLINE
  8
0
 62
7
  6
CONTINUOUS
 66
1
 70
0
  0
VERTEX
  8
0
 62
7
  6
CONTINUOUS
 10
153.6713502649
 20
146.4071968765
  0
VERTEX
  8
0
 62
7
  6
CONTINUOUS
 10
153.6333237889
 20
146.3738631995
  0
VERTEX
  8
0
 62
7
  6
CONTINUOUS
 10
153.4911026014
 20
146.2817001983
  0
VERTEX
  8
0
 62
7
  6
CONTINUOUS
 10
153.2808536674
 20
146.2045971151
  0
VERTEX
  8
0
 62
7
  6
CONTINUOUS
 10
153.1353764428
 20
146.1815631991
  0
SEQEND
  0
LINE
  8
0
 62
7
  6
CONTINUOUS
 10
156.5309698528
 20
146.4555978172
 11
156.5984480937
 21
146.4942447183
  0
LINE
  8
1_AXIS
 62
7
  6
CONTINUOUS
 10
154.9519525528
 20
103.5801077586
 11
154.7397302953
 21
103.5801077586
  0
LINE
  8
1_AXIS
 62
7
  6
CONTINUOUS
 10
153.6750169623
 20
103.6982327586
 11
154.6038094605
 21
103.6982327586
  0
LINE
  8
1_AXIS
 62
7
  6
CONTINUOUS
 10
154.9519525528
 20
103.9344827586
 11
153.6750169623
 21
103.9344827586
  0
LINE
  8
1_AXIS
 62
7
  6
CONTINUOUS
 10
154.581155988
 20
101.8869826835
 11
154.4905420982
 21
101.9263577586
  0
LINE
  8
1_AXIS
 62
7
  6
CONTINUOUS
 10
154.7933782456
 20
101.8869826835
 11
154.7027643557
 21
101.9263577586
  0
LINE
  8
1_AXIS
 62
7
  6
CONTINUOUS
 10
154.4678885622
 20
101.6901077586
 11
154.5358490431
 21
101.6507326835
  0
LINE
  8
0
 62
7
  6
CONTINUOUS
 10
156.5984480937
 20
89.874720799
 11
156.6538317356
 21
89.8085132267
  0
LINE
  8
0
 62
7
  6
CONTINUOUS
 10
156.6920350019
 20
155.8969210013
 11
156.6590050801
 21
155.8520185458
  0
POLYLINE
  8
0
 62
7
  6
CONTINUOUS
 66
1
 70
0
  0
VERTEX
  8
0
 62
7
  6
CONTINUOUS
 10
156.524356999
 20
140.3165191422
  0
VERTEX
  8
0
 62
7
  6
CONTINUOUS
 10
156.5762478936
 20
140.3325121402
  0
VERTEX
  8
0
 62
7
  6
CONTINUOUS
 10
156.6259512105
 20
140.3856348677
  0
VERTEX
  8
0
 62
7
  6
CONTINUOUS
 10
156.6655234958
 20
140.4672474128
  0
VERTEX
  8
0
 62
7
  6
CONTINUOUS
 10
156.6886936889
 20
140.5642294238
  0
SEQEND
  0
LINE
  8
0
 62
7
  6
CONTINUOUS
 10
145.3347087747
 20
107.6109203074
 11
156.5243569999
 21
106.7165191535
  0
POLYLINE
  8
0
 62
7
  6
CONTINUOUS
 66
1
 70
0
  0
VERTEX
  8
0
 62
7
  6
CONTINUOUS
 10
153.1352928293
 20
106.9874091478
  0
VERTEX
  8
0
 62
7
  6
CONTINUOUS
 10
153.2862871219
 20
106.9630640592
  0
VERTEX
  8
0
 62
7
  6
CONTINUOUS
 10
153.4934183449
 20
106.8860734876
  0
VERTEX
  8
0
 62
7
  6
CONTINUOUS
 10
153.6338459774
 20
106.7946769574
  0
VERTEX
  8
0
 62
7
  6
CONTINUOUS
 10
153.6713285107
 20
106.7617892272
  0
SEQEND
  0
LINE
  8
0
 62
7
  6
CONTINUOUS
 10
160.0956861779
 20
105.6945674875
 11
156.5182294141
 21
106.7170089383
  0
LINE
  8
1_AXIS
 62
7
  6
CONTINUOUS
 10
153.8335912855
 20
100.6663578337
 11
153.9242051912
 21
100.5876076835
  0
LINE
  8
0
 62
7
  6
CONTINUOUS
 10
156.5984480937
 20
146.4942447183
 11
156.6538317356
 21
146.5604522905
  0
LINE
  8
0
 62
7
  6
CONTINUOUS
 10
156.5309698528
 20
106.7133677001
 11
156.5984480937
 21
106.674720799
  0
LINE
  8
1_AXIS
 62
7
  6
CONTINUOUS
 10
153.9468586637
 20
100.8238576835
 11
153.8788982463
 21
100.9026078337
  0
LINE
  8
0
 62
7
  6
CONTINUOUS
 10
156.6920350019
 20
97.2720445159
 11
156.6590050801
 21
97.3169469715
  0
POLYLINE
  8
0
 62
7
  6
CONTINUOUS
 66
1
 70
0
  0
VERTEX
  8
0
 62
7
  6
CONTINUOUS
 10
156.6538317356
 20
89.8085132267
  0
VERTEX
  8
0
 62
7
  6
CONTINUOUS
 10
156.6967657156
 20
89.7254140011
  0
VERTEX
  8
0
 62
7
  6
CONTINUOUS
 10
156.7288937285
 20
89.6324196433
  0
VERTEX
  8
0
 62
7
  6
CONTINUOUS
 10
156.7516723658
 20
89.5355222702
  0
VERTEX
  8
0
 62
7
  6
CONTINUOUS
 10
156.7668181327
 20
89.4382712542
  0
VERTEX
  8
0
 62
7
  6
CONTINUOUS
 10
156.7758136824
 20
89.3424047945
  0
VERTEX
  8
0
 62
7
  6
CONTINUOUS
 10
156.7797327505
 20
89.249927766
  0
VERTEX
  8
0
 62
7
  6
CONTINUOUS
 10
156.779499904
 20
89.1619800264
  0
VERTEX
  8
0
 62
7
  6
CONTINUOUS
 10
156.7758266871
 20
89.0788669839
  0
VERTEX
  8
0
 62
7
  6
CONTINUOUS
 10
156.7691813134
 20
89.0005444256
  0
VERTEX
  8
0
 62
7
  6
CONTINUOUS
 10
156.7599052159
 20
88.9276083047
  0
VERTEX
  8
0
 62
7
  6
CONTINUOUS
 10
156.7480443104
 20
88.8597883503
  0
VERTEX
  8
0
 62
7
  6
CONTINUOUS
 10
156.7333575905
 20
88.7973395455
  0
VERTEX
  8
0
 62
7
  6
CONTINUOUS
 10
156.7155919815
 20
88.7426540464
  0
VERTEX
  8
0
 62
7
  6
CONTINUOUS
 10
156.6920349753
 20
88.6969210013
  0
SEQEND
  0
LINE
  8
0
 62
7
  6
CONTINUOUS
 10
145.3347087747
 20
111.9580452099
 11
156.5243569999
 21
112.8524463638
  0
POLYLINE
  8
0
 62
7
  6
CONTINUOUS
 66
1
 70
0
  0
VERTEX
  8
0
 62
7
  6
CONTINUOUS
 10
153.6710264586
 20
106.7620749453
  0
VERTEX
  8
0
 62
7
  6
CONTINUOUS
 10
153.6905745737
 20
106.7429567105
  0
VERTEX
  8
0
 62
7
  6
CONTINUOUS
 10
153.7576161133
 20
106.6650705285
  0
VERTEX
  8
0
 62
7
  6
CONTINUOUS
 10
153.7892524002
 20
106.6170230282
  0
VERTEX
  8
0
 62
7
  6
CONTINUOUS
 10
153.7947135755
 20
106.6068198631
  0
SEQEND
  0
LINE
  8
1_AXIS
 62
7
  6
CONTINUOUS
 10
153.7429773877
 20
100.8238576835
 11
153.8335912855
 21
100.6663578337
  0
LINE
  8
1_AXIS
 62
7
  6
CONTINUOUS
 10
154.6717698779
 20
101.7294828337
 11
154.581155988
 21
101.8869826835
  0
LINE
  8
1_AXIS
 62
7
  6
CONTINUOUS
 10
154.8839921354
 20
101.7294828337
 11
154.7933782456
 21
101.8869826835
  0
LINE
  8
0
 62
7
  6
CONTINUOUS
 10
144.4143857759
 20
136.161224476
 11
144.4143857759
 21
133.8077410412
  0
LINE
  8
0
 62
7
  6
CONTINUOUS
 10
144.4143857759
 20
102.561224476
 11
144.4143857759
 21
100.2077410412
  0
LINE
  8
0
 62
7
  6
CONTINUOUS
 10
144.4143857759
 20
85.761224476
 11
144.4143857759
 21
81.4844827586
  0
LINE
  8
0
 62
7
  6
CONTINUOUS
 10
144.4143857759
 20
91.8077410412
 11
144.4143857759
 21
94.161224476
  0
LINE
  8
0
 62
7
  6
CONTINUOUS
 10
144.4143857759
 20
108.6077410412
 11
144.4143857759
 21
110.961224476
  0
LINE
  8
0
 62
7
  6
CONTINUOUS
 10
144.4143857759
 20
117.0077410412
 11
144.4143857759
 21
119.361224476
  0
LINE
  8
0
 62
7
  6
CONTINUOUS
 10
144.4143857759
 20
125.4077410412
 11
144.4143857759
 21
127.761224476
  0
LINE
  8
0
 62
7
  6
CONTINUOUS
 10
144.4143857759
 20
142.2077410412
 11
144.4143857759
 21
144.561224476
  0
LINE
  8
0
 62
7
  6
CONTINUOUS
 10
144.4143857759
 20
150.6077410412
 11
144.4143857759
 21
152.961224476
  0
LINE
  8
0
 62
7
  6
CONTINUOUS
 10
144.4143857759
 20
159.0077410412
 11
144.4143857759
 21
163.2844827586
  0
LINE
  8
0
 62
7
  6
CONTINUOUS
 10
144.4643857759
 20
164.0344827586
 11
144.4643857759
 21
163.5817501495
  0
LINE
  8
0
 62
7
  6
CONTINUOUS
 10
144.4643857759
 20
158.7075187899
 11
144.4643857759
 21
144.8681088659
  0
LINE
  8
0
 62
7
  6
CONTINUOUS
 10
144.4643857759
 20
141.9008566514
 11
144.4643857759
 21
128.0681088659
  0
LINE
  8
0
 62
7
  6
CONTINUOUS
 10
144.4643857759
 20
125.1008566514
 11
144.4643857759
 21
111.2681088659
  0
LINE
  8
0
 62
7
  6
CONTINUOUS
 10
144.4643857759
 20
108.3008566514
 11
144.4643857759
 21
94.4681088659
  0
LINE
  8
0
 62
7
  6
CONTINUOUS
 10
144.4643857759
 20
91.5138777872
 11
144.4643857759
 21
80.7344827586
  0
POLYLINE
  8
0
 62
7
  6
CONTINUOUS
 66
1
 70
0
  0
VERTEX
  8
0
 62
7
  6
CONTINUOUS
 10
153.7850962611
 20
146.5382522936
  0
VERTEX
  8
0
 62
7
  6
CONTINUOUS
 10
153.7934604457
 20
146.5593553287
  0
VERTEX
  8
0
 62
7
  6
CONTINUOUS
 10
153.7890875405
 20
146.5516519666
  0
VERTEX
  8
0
 62
7
  6
CONTINUOUS
 10
153.7570427727
 20
146.5031198666
  0
VERTEX
  8
0
 62
7
  6
CONTINUOUS
 10
153.6898069122
 20
146.4252330713
  0
VERTEX
  8
0
 62
7
  6
CONTINUOUS
 10
153.6710369116
 20
146.4069004559
  0
SEQEND
  0
POLYLINE
  8
0
 62
7
  6
CONTINUOUS
 66
1
 70
0
  0
VERTEX
  8
0
 62
7
  6
CONTINUOUS
 10
156.6538317356
 20
146.5604522905
  0
VERTEX
  8
0
 62
7
  6
CONTINUOUS
 10
156.6967657156
 20
146.6435515162
  0
VERTEX
  8
0
 62
7
  6
CONTINUOUS
 10
156.7288937285
 20
146.736545874
  0
VERTEX
  8
0
 62
7
  6
CONTINUOUS
 10
156.7516723658
 20
146.833443247
  0
VERTEX
  8
0
 62
7
  6
CONTINUOUS
 10
156.7668181327
 20
146.930694263
  0
VERTEX
  8
0
 62
7
  6
CONTINUOUS
 10
156.7758136824
 20
147.0265607227
  0
VERTEX
  8
0
 62
7
  6
CONTINUOUS
 10
156.7797327505
 20
147.1190377512
  0
VERTEX
  8
0
 62
7
  6
CONTINUOUS
 10
156.779499904
 20
147.2069854908
  0
VERTEX
  8
0
 62
7
  6
CONTINUOUS
 10
156.7758266871
 20
147.2900985334
  0
VERTEX
  8
0
 62
7
  6
CONTINUOUS
 10
156.7691813134
 20
147.3684210916
  0
VERTEX
  8
0
 62
7
  6
CONTINUOUS
 10
156.7599052159
 20
147.4413572125
  0
VERTEX
  8
0
 62
7
  6
CONTINUOUS
 10
156.7480443104
 20
147.509177167
  0
VERTEX
  8
0
 62
7
  6
CONTINUOUS
 10
156.7333575905
 20
147.5716259717
  0
VERTEX
  8
0
 62
7
  6
CONTINUOUS
 10
156.7155919815
 20
147.6263114709
  0
VERTEX
  8
0
 62
7
  6
CONTINUOUS
 10
156.6920349753
 20
147.6720445159
  0
SEQEND
  0
LINE
  8
0
 62
7
  6
CONTINUOUS
 10
156.6920350019
 20
139.0969210013
 11
156.6590050801
 21
139.0520185458
  0
LINE
  8
0
 62
7
  6
CONTINUOUS
 10
160.0956861779
 20
130.6743980298
 11
156.5182294141
 21
129.651956579
  0
POLYLINE
  8
0
 62
7
  6
CONTINUOUS
 66
1
 70
0
  0
VERTEX
  8
0
 62
7
  6
CONTINUOUS
 10
156.524356999
 20
112.8524463751
  0
VERTEX
  8
0
 62
7
  6
CONTINUOUS
 10
156.5762478936
 20
112.836453377
  0
VERTEX
  8
0
 62
7
  6
CONTINUOUS
 10
156.6259512105
 20
112.7833306495
  0
VERTEX
  8
0
 62
7
  6
CONTINUOUS
 10
156.6655234958
 20
112.7017181044
  0
VERTEX
  8
0
 62
7
  6
CONTINUOUS
 10
156.6886936889
 20
112.6047360935
  0
SEQEND
  0
LINE
  8
0
 62
7
  6
CONTINUOUS
 10
156.5984480937
 20
106.674720799
 11
156.6538317356
 21
106.6085132267
  0
LINE
  8
1_AXIS
 62
7
  6
CONTINUOUS
 10
153.8788982463
 20
100.9026078337
 11
153.8335912855
 21
101.0207328337
  0
LINE
  8
1_AXIS
 62
7
  6
CONTINUOUS
 10
154.0869500163
 20
100.9134811924
 11
154.045813543
 21
101.0207328337
  0
LINE
  8
1_AXIS
 62
7
  6
CONTINUOUS
 10
154.5358490431
 20
101.6507326835
 11
154.581155988
 21
101.5326076835
  0
POLYLINE
  8
0
 62
7
  6
CONTINUOUS
 66
1
 70
0
  0
VERTEX
  8
0
 62
7
  6
CONTINUOUS
 10
153.6713502649
 20
129.6071968765
  0
VERTEX
  8
0
 62
7
  6
CONTINUOUS
 10
153.6333237889
 20
129.5738631995
  0
VERTEX
  8
0
 62
7
  6
CONTINUOUS
 10
153.4911026014
 20
129.4817001983
  0
VERTEX
  8
0
 62
7
  6
CONTINUOUS
 10
153.2808536674
 20
129.4045971151
  0
VERTEX
  8
0
 62
7
  6
CONTINUOUS
 10
153.1353764428
 20
129.3815631991
  0
SEQEND
  0
LINE
  8
0
 62
7
  6
CONTINUOUS
 10
156.5309698528
 20
129.6555978172
 11
156.5984480937
 21
129.6942447183
  0
LINE
  8
0
 62
7
  6
CONTINUOUS
 10
153.9063996202
 20
117.984485621
 11
154.8109314067
 21
117.984485621
  0
LINE
  8
0
 62
7
  6
CONTINUOUS
 10
154.8109314067
 20
118.234485621
 11
154.5753293517
 21
118.234485621
  0
LINE
  8
0
 62
7
  6
CONTINUOUS
 10
154.4614689854
 20
118.234485621
 11
153.9063996202
 21
118.234485621
  0
LINE
  8
0
 62
7
  6
CONTINUOUS
 10
154.7113038255
 20
118.484485621
 11
154.3618414042
 21
118.484485621
  0
POLYLINE
  8
0
 62
7
  6
CONTINUOUS
 66
1
 70
0
  0
VERTEX
  8
0
 62
7
  6
CONTINUOUS
 10
156.6538317356
 20
106.6085132267
  0
VERTEX
  8
0
 62
7
  6
CONTINUOUS
 10
156.6967657156
 20
106.5254140011
  0
VERTEX
  8
0
 62
7
  6
CONTINUOUS
 10
156.7288937285
 20
106.4324196433
  0
VERTEX
  8
0
 62
7
  6
CONTINUOUS
 10
156.7516723658
 20
106.3355222702
  0
VERTEX
  8
0
 62
7
  6
CONTINUOUS
 10
156.7668181327
 20
106.2382712542
  0
VERTEX
  8
0
 62
7
  6
CONTINUOUS
 10
156.7758136824
 20
106.1424047945
  0
VERTEX
  8
0
 62
7
  6
CONTINUOUS
 10
156.7797327505
 20
106.049927766
  0
VERTEX
  8
0
 62
7
  6
CONTINUOUS
 10
156.779499904
 20
105.9619800264
  0
VERTEX
  8
0
 62
7
  6
CONTINUOUS
 10
156.7758266871
 20
105.8788669839
  0
VERTEX
  8
0
 62
7
  6
CONTINUOUS
 10
156.7691813134
 20
105.8005444256
  0
VERTEX
  8
0
 62
7
  6
CONTINUOUS
 10
156.7599052159
 20
105.7276083047
  0
VERTEX
  8
0
 62
7
  6
CONTINUOUS
 10
156.7480443104
 20
105.6597883503
  0
VERTEX
  8
0
 62
7
  6
CONTINUOUS
 10
156.7333575905
 20
105.5973395455
  0
VERTEX
  8
0
 62
7
  6
CONTINUOUS
 10
156.7155919815
 20
105.5426540464
  0
VERTEX
  8
0
 62
7
  6
CONTINUOUS
 10
156.6920349753
 20
105.4969210013
  0
SEQEND
  0
LINE
  8
1_AXIS
 62
7
  6
CONTINUOUS
 10
153.6976704368
 20
100.9813577586
 11
153.7429773877
 21
100.8238576835
  0
LINE
  8
1_AXIS
 62
7
  6
CONTINUOUS
 10
154.7170768229
 20
101.5719827586
 11
154.6717698779
 21
101.7294828337
  0
LINE
  8
1_AXIS
 62
7
  6
CONTINUOUS
 10
154.9292990804
 20
101.5719827586
 11
154.8839921354
 21
101.7294828337
  0
LINE
  8
0
 62
7
  6
CONTINUOUS
 10
152.4143857759
 20
157.4469443725
 11
152.4143857759
 21
146.1239317464
  0
LINE
  8
0
 62
7
  6
CONTINUOUS
 10
152.4143857759
 20
140.6450337708
 11
152.4143857759
 21
129.3239317464
  0
LINE
  8
DEFAULT_1
 62
2
  6
CENTER
 10
152.4143857759
 20
129.3239317464
 11
152.4143857759
 21
123.8450337708
  0
LINE
  8
DEFAULT_1
 62
2
  6
CENTER
 10
152.4143857759
 20
112.5239317464
 11
152.4143857759
 21
107.0450337708
  0
LINE
  8
DEFAULT_1
 62
2
  6
CENTER
 10
152.4143857759
 20
95.7239317464
 11
152.4143857759
 21
90.2450337708
  0
LINE
  8
DEFAULT_1
 62
2
  6
CENTER
 10
152.4143857759
 20
80.7344827586
 11
152.4143857759
 21
73.0222060135
  0
LINE
  8
0
 62
7
  6
CONTINUOUS
 10
152.4143857759
 20
123.8450337708
 11
152.4143857759
 21
112.5239317464
  0
LINE
  8
0
 62
7
  6
CONTINUOUS
 10
152.4143857759
 20
107.0450337708
 11
152.4143857759
 21
95.7239317464
  0
LINE
  8
0
 62
7
  6
CONTINUOUS
 10
152.4143857759
 20
90.2450337708
 11
152.4143857759
 21
80.7344827586
  0
LINE
  8
DEFAULT_1
 62
2
  6
CENTER
 10
152.4143857759
 20
140.6450337708
 11
152.4143857759
 21
146.1239317464
  0
LINE
  8
DEFAULT_1
 62
2
  6
CENTER
 10
152.4143857759
 20
157.4469443725
 11
152.4143857759
 21
167.9062322717
  0
POLYLINE
  8
0
 62
7
  6
CONTINUOUS
 66
1
 70
0
  0
VERTEX
  8
0
 62
7
  6
CONTINUOUS
 10
153.7850962611
 20
129.7382522936
  0
VERTEX
  8
0
 62
7
  6
CONTINUOUS
 10
153.7934604457
 20
129.7593553287
  0
VERTEX
  8
0
 62
7
  6
CONTINUOUS
 10
153.7890875405
 20
129.7516519666
  0
VERTEX
  8
0
 62
7
  6
CONTINUOUS
 10
153.7570427727
 20
129.7031198666
  0
VERTEX
  8
0
 62
7
  6
CONTINUOUS
 10
153.6898069122
 20
129.6252330713
  0
VERTEX
  8
0
 62
7
  6
CONTINUOUS
 10
153.6710369116
 20
129.6069004559
  0
SEQEND
  0
POLYLINE
  8
0
 62
7
  6
CONTINUOUS
 66
1
 70
0
  0
VERTEX
  8
0
 62
7
  6
CONTINUOUS
 10
156.6538317356
 20
129.7604522905
  0
VERTEX
  8
0
 62
7
  6
CONTINUOUS
 10
156.6967657156
 20
129.8435515162
  0
VERTEX
  8
0
 62
7
  6
CONTINUOUS
 10
156.7288937285
 20
129.936545874
  0
VERTEX
  8
0
 62
7
  6
CONTINUOUS
 10
156.7516723658
 20
130.033443247
  0
VERTEX
  8
0
 62
7
  6
CONTINUOUS
 10
156.7668181327
 20
130.130694263
  0
VERTEX
  8
0
 62
7
  6
CONTINUOUS
 10
156.7758136824
 20
130.2265607227
  0
VERTEX
  8
0
 62
7
  6
CONTINUOUS
 10
156.7797327505
 20
130.3190377512
  0
VERTEX
  8
0
 62
7
  6
CONTINUOUS
 10
156.779499904
 20
130.4069854908
  0
VERTEX
  8
0
 62
7
  6
CONTINUOUS
 10
156.7758266871
 20
130.4900985334
  0
VERTEX
  8
0
 62
7
  6
CONTINUOUS
 10
156.7691813134
 20
130.5684210916
  0
VERTEX
  8
0
 62
7
  6
CONTINUOUS
 10
156.7599052159
 20
130.6413572125
  0
VERTEX
  8
0
 62
7
  6
CONTINUOUS
 10
156.7480443104
 20
130.709177167
  0
VERTEX
  8
0
 62
7
  6
CONTINUOUS
 10
156.7333575905
 20
130.7716259717
  0
VERTEX
  8
0
 62
7
  6
CONTINUOUS
 10
156.7155919815
 20
130.8263114709
  0
VERTEX
  8
0
 62
7
  6
CONTINUOUS
 10
156.6920349753
 20
130.8720445159
  0
SEQEND
  0
LINE
  8
0
 62
7
  6
CONTINUOUS
 10
156.5984480937
 20
129.6942447183
 11
156.6538317356
 21
129.7604522905
  0
POLYLINE
  8
0
 62
7
  6
CONTINUOUS
 66
1
 70
0
  0
VERTEX
  8
0
 62
7
  6
CONTINUOUS
 10
156.524356999
 20
123.5165191422
  0
VERTEX
  8
0
 62
7
  6
CONTINUOUS
 10
156.5762478936
 20
123.5325121402
  0
VERTEX
  8
0
 62
7
  6
CONTINUOUS
 10
156.6259512105
 20
123.5856348677
  0
VERTEX
  8
0
 62
7
  6
CONTINUOUS
 10
156.6655234958
 20
123.6672474128
  0
VERTEX
  8
0
 62
7
  6
CONTINUOUS
 10
156.6886936889
 20
123.7642294238
  0
SEQEND
  0
LINE
  8
0
 62
7
  6
CONTINUOUS
 10
156.6920350019
 20
114.0720445159
 11
156.6590050801
 21
114.1169469715
  0
LINE
  8
0
 62
7
  6
CONTINUOUS
 10
154.3618414042
 20
118.484485621
 11
154.4614689854
 21
118.234485621
  0
LINE
  8
1_AXIS
 62
7
  6
CONTINUOUS
 10
154.581155988
 20
101.5326076835
 11
154.6038094605
 21
101.4144826835
  0
LINE
  8
1_AXIS
 62
7
  6
CONTINUOUS
 10
153.8335912855
 20
101.0207328337
 11
153.810937813
 21
101.1782326835
  0
LINE
  8
1_AXIS
 62
7
  6
CONTINUOUS
 10
154.045813543
 20
101.0207328337
 11
154.0231600705
 21
101.1782326835
  0
LINE
  8
1_AXIS
 62
7
  6
CONTINUOUS
 10
154.7397302953
 20
101.4144826835
 11
154.7170768229
 21
101.5719827586
  0
LINE
  8
1_AXIS
 62
7
  6
CONTINUOUS
 10
154.9519525528
 20
101.4144826835
 11
154.9292990804
 21
101.5719827586
  0
LINE
  8
1_AXIS
 62
7
  6
CONTINUOUS
 10
153.6750169623
 20
101.1782326835
 11
153.6976704368
 21
100.9813577586
  0
LINE
  8
1_AXIS
 62
7
  6
CONTINUOUS
 10
153.6750169623
 20
103.9344827586
 11
153.6750169623
 21
103.6982327586
  0
LINE
  8
1_AXIS
 62
7
  6
CONTINUOUS
 10
153.6750169623
 20
102.7138577962
 11
153.6750169623
 21
102.3594827962
  0
LINE
  8
1_AXIS
 62
7
  6
CONTINUOUS
 10
153.6750169623
 20
101.4932328337
 11
153.6750169623
 21
101.1782326835
  0
LINE
  8
1_AXIS
 62
7
  6
CONTINUOUS
 10
153.6750169623
 20
100.2726077586
 11
153.6750169623
 21
100.0363577586
  0
LINE
  8
1_AXIS
 62
7
  6
CONTINUOUS
 10
153.810937813
 20
101.1782326835
 11
153.810937813
 21
101.4932328337
  0
LINE
  8
0
 62
7
  6
CONTINUOUS
 10
153.9063996202
 20
118.234485621
 11
153.9063996202
 21
117.984485621
  0
LINE
  8
1_AXIS
 62
7
  6
CONTINUOUS
 10
153.9695121362
 20
101.8082327586
 11
153.9695121362
 21
102.0444827586
  0
LINE
  8
1_AXIS
 62
7
  6
CONTINUOUS
 10
154.0231600705
 20
101.1782326835
 11
154.0231600705
 21
101.4932328337
  0
LINE
  8
1_AXIS
 62
7
  6
CONTINUOUS
 10
154.1507399477
 20
101.4144826835
 11
154.1507399477
 21
101.1782326835
  0
LINE
  8
1_AXIS
 62
7
  6
CONTINUOUS
 10
154.1733934201
 20
100.0363577586
 11
154.1733934201
 21
99.0126076084
  0
LINE
  8
1_AXIS
 62
7
  6
CONTINUOUS
 10
154.1817343937
 20
101.8082327586
 11
154.1817343937
 21
102.0444827586
  0
LINE
  8
1_AXIS
 62
7
  6
CONTINUOUS
 10
154.2866607825
 20
101.1782326835
 11
154.2866607825
 21
101.4144826835
  0
LINE
  8
1_AXIS
 62
7
  6
CONTINUOUS
 10
154.3093142549
 20
99.0126076084
 11
154.3093142549
 21
100.0363577586
  0
LINE
  8
1_AXIS
 62
7
  6
CONTINUOUS
 10
154.4905420982
 20
100.9419826835
 11
154.4905420982
 21
100.7057326835
  0
LINE
  8
1_AXIS
 62
7
  6
CONTINUOUS
 10
154.49888304
 20
101.1782326835
 11
154.49888304
 21
101.4144826835
  0
LINE
  8
1_AXIS
 62
7
  6
CONTINUOUS
 10
154.5215365125
 20
99.0126076084
 11
154.5215365125
 21
100.0363577586
  0
LINE
  8
0
 62
7
  6
CONTINUOUS
 10
154.5753293517
 20
117.984485621
 11
154.5753293517
 21
118.234485621
  0
LINE
  8
1_AXIS
 62
7
  6
CONTINUOUS
 10
154.6038094605
 20
101.4144826835
 11
154.6038094605
 21
101.1782326835
  0
LINE
  8
1_AXIS
 62
7
  6
CONTINUOUS
 10
154.6038094605
 20
100.0363577586
 11
154.6038094605
 21
98.8551077586
  0
LINE
  8
1_AXIS
 62
7
  6
CONTINUOUS
 10
154.7397302953
 20
98.8551077586
 11
154.7397302953
 21
100.2726077586
  0
LINE
  8
1_AXIS
 62
7
  6
CONTINUOUS
 10
154.7397302953
 20
101.2176077586
 11
154.7397302953
 21
101.4144826835
  0
LINE
  8
1_AXIS
 62
7
  6
CONTINUOUS
 10
154.7397302953
 20
102.3594827962
 11
154.7397302953
 21
102.5957327962
  0
LINE
  8
1_AXIS
 62
7
  6
CONTINUOUS
 10
154.7397302953
 20
103.5801077586
 11
154.7397302953
 21
103.9344827586
  0
LINE
  8
0
 62
7
  6
CONTINUOUS
 10
154.8109314067
 20
117.984485621
 11
154.8109314067
 21
118.234485621
  0
LINE
  8
1_AXIS
 62
7
  6
CONTINUOUS
 10
154.9519525528
 20
98.8551077586
 11
154.9519525528
 21
100.2726077586
  0
LINE
  8
1_AXIS
 62
7
  6
CONTINUOUS
 10
154.9519525528
 20
101.2176077586
 11
154.9519525528
 21
101.4144826835
  0
LINE
  8
1_AXIS
 62
7
  6
CONTINUOUS
 10
154.9519525528
 20
102.3594827962
 11
154.9519525528
 21
102.5957327962
  0
LINE
  8
1_AXIS
 62
7
  6
CONTINUOUS
 10
154.9519525528
 20
103.5801077586
 11
154.9519525528
 21
103.9344827586
  0
LINE
  8
0
 62
7
  6
CONTINUOUS
 10
145.3347087747
 20
124.4109203074
 11
156.5243569999
 21
123.5165191535
  0
POLYLINE
  8
0
 62
7
  6
CONTINUOUS
 66
1
 70
0
  0
VERTEX
  8
0
 62
7
  6
CONTINUOUS
 10
153.1352928293
 20
123.7874091478
  0
VERTEX
  8
0
 62
7
  6
CONTINUOUS
 10
153.2862871219
 20
123.7630640592
  0
VERTEX
  8
0
 62
7
  6
CONTINUOUS
 10
153.4934183449
 20
123.6860734876
  0
VERTEX
  8
0
 62
7
  6
CONTINUOUS
 10
153.6338459774
 20
123.5946769574
  0
VERTEX
  8
0
 62
7
  6
CONTINUOUS
 10
153.6713285107
 20
123.5617892272
  0
SEQEND
  0
LINE
  8
0
 62
7
  6
CONTINUOUS
 10
160.0956861779
 20
122.4945674875
 11
156.5182294141
 21
123.5170089383
  0
LINE
  8
0
 62
7
  6
CONTINUOUS
 10
156.5309698528
 20
123.5133677001
 11
156.5984480937
 21
123.474720799
  0
POLYLINE
  8
0
 62
7
  6
CONTINUOUS
 66
1
 70
0
  0
VERTEX
  8
0
 62
7
  6
CONTINUOUS
 10
153.6710264586
 20
123.5620749453
  0
VERTEX
  8
0
 62
7
  6
CONTINUOUS
 10
153.6905745737
 20
123.5429567105
  0
VERTEX
  8
0
 62
7
  6
CONTINUOUS
 10
153.7576161133
 20
123.4650705285
  0
VERTEX
  8
0
 62
7
  6
CONTINUOUS
 10
153.7892524002
 20
123.4170230282
  0
VERTEX
  8
0
 62
7
  6
CONTINUOUS
 10
153.7947135755
 20
123.4068198631
  0
SEQEND
  0
LINE
  8
0
 62
7
  6
CONTINUOUS
 10
154.5753293517
 20
118.234485621
 11
154.4757017704
 21
118.484485621
  0
LINE
  8
0
 62
7
  6
CONTINUOUS
 10
154.8109314067
 20
118.234485621
 11
154.7113038255
 21
118.484485621
  0
LINE
  8
1_AXIS
 62
7
  6
CONTINUOUS
 10
153.6976704368
 20
101.6901077586
 11
153.6750169623
 21
101.4932328337
  0
LINE
  8
1_AXIS
 62
7
  6
CONTINUOUS
 10
154.26400731
 20
100.9813577586
 11
154.2866607825
 21
101.1782326835
  0
LINE
  8
1_AXIS
 62
7
  6
CONTINUOUS
 10
154.4762295675
 20
100.9813577586
 11
154.49888304
 21
101.1782326835
  0
LINE
  8
1_AXIS
 62
7
  6
CONTINUOUS
 10
154.7170768229
 20
101.0207328337
 11
154.7397302953
 21
101.2176077586
  0
LINE
  8
1_AXIS
 62
7
  6
CONTINUOUS
 10
154.9292990804
 20
101.0207328337
 11
154.9519525528
 21
101.2176077586
  0
LINE
  8
1_AXIS
 62
7
  6
CONTINUOUS
 10
153.810937813
 20
101.4932328337
 11
153.8335912855
 21
101.6507326835
  0
LINE
  8
1_AXIS
 62
7
  6
CONTINUOUS
 10
154.0231600705
 20
101.4932328337
 11
154.045813543
 21
101.6507326835
  0
LINE
  8
1_AXIS
 62
7
  6
CONTINUOUS
 10
154.1733934201
 20
101.5719827586
 11
154.1507399477
 21
101.4144826835
  0
LINE
  8
1_AXIS
 62
7
  6
CONTINUOUS
 10
154.1507399477
 20
101.1782326835
 11
154.1280864752
 21
101.0207328337
  0
LINE
  8
1_AXIS
 62
7
  6
CONTINUOUS
 10
154.2866607825
 20
101.4144826835
 11
154.3093142549
 21
101.5326076835
  0
LINE
  8
1_AXIS
 62
7
  6
CONTINUOUS
 10
154.49888304
 20
101.4144826835
 11
154.5215365125
 21
101.5326076835
  0
POLYLINE
  8
0
 62
7
  6
CONTINUOUS
 66
1
 70
0
  0
VERTEX
  8
0
 62
7
  6
CONTINUOUS
 10
153.7850962611
 20
112.9382522936
  0
VERTEX
  8
0
 62
7
  6
CONTINUOUS
 10
153.7934604457
 20
112.9593553287
  0
VERTEX
  8
0
 62
7
  6
CONTINUOUS
 10
153.7890875405
 20
112.9516519666
  0
VERTEX
  8
0
 62
7
  6
CONTINUOUS
 10
153.7570427727
 20
112.9031198666
  0
VERTEX
  8
0
 62
7
  6
CONTINUOUS
 10
153.6898069122
 20
112.8252330713
  0
VERTEX
  8
0
 62
7
  6
CONTINUOUS
 10
153.6710369116
 20
112.8069004559
  0
SEQEND
  0
LINE
  8
0
 62
7
  6
CONTINUOUS
 10
156.6920350019
 20
122.2969210013
 11
156.6590050801
 21
122.2520185458
  0
LINE
  8
0
 62
7
  6
CONTINUOUS
 10
156.5984480937
 20
123.474720799
 11
156.6538317356
 21
123.4085132267
  0
POLYLINE
  8
0
 62
7
  6
CONTINUOUS
 66
1
 70
0
  0
VERTEX
  8
0
 62
7
  6
CONTINUOUS
 10
156.6538317356
 20
123.4085132267
  0
VERTEX
  8
0
 62
7
  6
CONTINUOUS
 10
156.6967657156
 20
123.3254140011
  0
VERTEX
  8
0
 62
7
  6
CONTINUOUS
 10
156.7288937285
 20
123.2324196433
  0
VERTEX
  8
0
 62
7
  6
CONTINUOUS
 10
156.7516723658
 20
123.1355222702
  0
VERTEX
  8
0
 62
7
  6
CONTINUOUS
 10
156.7668181327
 20
123.0382712542
  0
VERTEX
  8
0
 62
7
  6
CONTINUOUS
 10
156.7758136824
 20
122.9424047945
  0
VERTEX
  8
0
 62
7
  6
CONTINUOUS
 10
156.7797327505
 20
122.849927766
  0
VERTEX
  8
0
 62
7
  6
CONTINUOUS
 10
156.779499904
 20
122.7619800264
  0
VERTEX
  8
0
 62
7
  6
CONTINUOUS
 10
156.7758266871
 20
122.6788669839
  0
VERTEX
  8
0
 62
7
  6
CONTINUOUS
 10
156.7691813134
 20
122.6005444256
  0
VERTEX
  8
0
 62
7
  6
CONTINUOUS
 10
156.7599052159
 20
122.5276083047
  0
VERTEX
  8
0
 62
7
  6
CONTINUOUS
 10
156.7480443104
 20
122.4597883503
  0
VERTEX
  8
0
 62
7
  6
CONTINUOUS
 10
156.7333575905
 20
122.3973395455
  0
VERTEX
  8
0
 62
7
  6
CONTINUOUS
 10
156.7155919815
 20
122.3426540464
  0
VERTEX
  8
0
 62
7
  6
CONTINUOUS
 10
156.6920349753
 20
122.2969210013
  0
SEQEND
  0
POLYLINE
  8
0
 62
7
  6
CONTINUOUS
 66
1
 70
0
  0
VERTEX
  8
0
 62
7
  6
CONTINUOUS
 10
146.639674798
 20
158.3237305796
  0
VERTEX
  8
0
 62
7
  6
CONTINUOUS
 10
146.6798304935
 20
158.1931220236
  0
VERTEX
  8
0
 62
7
  6
CONTINUOUS
 10
146.7749177876
 20
158.0556100412
  0
VERTEX
  8
0
 62
7
  6
CONTINUOUS
 10
146.9163670269
 20
157.9466344479
  0
VERTEX
  8
0
 62
7
  6
CONTINUOUS
 10
147.0939068212
 20
157.8781488725
  0
VERTEX
  8
0
 62
7
  6
CONTINUOUS
 10
147.1972524307
 20
157.8620308789
  0
SEQEND
  0
LINE
  8
0
 62
7
  6
CONTINUOUS
 10
160.4143857759
 20
80.7344827586
 11
160.4143857759
 21
164.0344827586
  0
LINE
  8
1_AXIS
 62
7
  6
CONTINUOUS
 10
154.6038094605
 20
101.1782326835
 11
154.581155988
 21
101.0601076835
  0
LINE
  8
1_AXIS
 62
7
  6
CONTINUOUS
 10
154.2187003651
 20
101.7294828337
 11
154.1733934201
 21
101.5719827586
  0
LINE
  8
1_AXIS
 62
7
  6
CONTINUOUS
 10
154.2187003651
 20
100.8238576835
 11
154.26400731
 21
100.9813577586
  0
LINE
  8
1_AXIS
 62
7
  6
CONTINUOUS
 10
154.4309226226
 20
100.8238576835
 11
154.4762295675
 21
100.9813577586
  0
LINE
  8
1_AXIS
 62
7
  6
CONTINUOUS
 10
153.7656308601
 20
101.8869826835
 11
153.6976704368
 21
101.6901077586
  0
POLYLINE
  8
0
 62
7
  6
CONTINUOUS
 66
1
 70
0
  0
VERTEX
  8
0
 62
7
  6
CONTINUOUS
 10
156.6538317356
 20
112.9604522905
  0
VERTEX
  8
0
 62
7
  6
CONTINUOUS
 10
156.6967657156
 20
113.0435515162
  0
VERTEX
  8
0
 62
7
  6
CONTINUOUS
 10
156.7288937285
 20
113.136545874
  0
VERTEX
  8
0
 62
7
  6
CONTINUOUS
 10
156.7516723658
 20
113.233443247
  0
VERTEX
  8
0
 62
7
  6
CONTINUOUS
 10
156.7668181327
 20
113.330694263
  0
VERTEX
  8
0
 62
7
  6
CONTINUOUS
 10
156.7758136824
 20
113.4265607227
  0
VERTEX
  8
0
 62
7
  6
CONTINUOUS
 10
156.7797327505
 20
113.5190377512
  0
VERTEX
  8
0
 62
7
  6
CONTINUOUS
 10
156.779499904
 20
113.6069854908
  0
VERTEX
  8
0
 62
7
  6
CONTINUOUS
 10
156.7758266871
 20
113.6900985334
  0
VERTEX
  8
0
 62
7
  6
CONTINUOUS
 10
156.7691813134
 20
113.7684210916
  0
VERTEX
  8
0
 62
7
  6
CONTINUOUS
 10
156.7599052159
 20
113.8413572125
  0
VERTEX
  8
0
 62
7
  6
CONTINUOUS
 10
156.7480443104
 20
113.909177167
  0
VERTEX
  8
0
 62
7
  6
CONTINUOUS
 10
156.7333575905
 20
113.9716259717
  0
VERTEX
  8
0
 62
7
  6
CONTINUOUS
 10
156.7155919815
 20
114.0263114709
  0
VERTEX
  8
0
 62
7
  6
CONTINUOUS
 10
156.6920349753
 20
114.0720445159
  0
SEQEND
  0
POLYLINE
  8
0
 62
7
  6
CONTINUOUS
 66
1
 70
0
  0
VERTEX
  8
0
 62
7
  6
CONTINUOUS
 10
153.6713502649
 20
112.8071968765
  0
VERTEX
  8
0
 62
7
  6
CONTINUOUS
 10
153.6333237889
 20
112.7738631995
  0
VERTEX
  8
0
 62
7
  6
CONTINUOUS
 10
153.4911026014
 20
112.6817001983
  0
VERTEX
  8
0
 62
7
  6
CONTINUOUS
 10
153.2808536674
 20
112.6045971151
  0
VERTEX
  8
0
 62
7
  6
CONTINUOUS
 10
153.1353764428
 20
112.5815631991
  0
SEQEND
  0
LINE
  8
0
 62
7
  6
CONTINUOUS
 10
145.3347087747
 20
128.7580452099
 11
156.5243569999
 21
129.6524463638
  0
POLYLINE
  8
0
 62
7
  6
CONTINUOUS
 66
1
 70
0
  0
VERTEX
  8
0
 62
7
  6
CONTINUOUS
 10
156.524356999
 20
129.6524463751
  0
VERTEX
  8
0
 62
7
  6
CONTINUOUS
 10
156.5762478936
 20
129.636453377
  0
VERTEX
  8
0
 62
7
  6
CONTINUOUS
 10
156.6259512105
 20
129.5833306495
  0
VERTEX
  8
0
 62
7
  6
CONTINUOUS
 10
156.6655234958
 20
129.5017181044
  0
VERTEX
  8
0
 62
7
  6
CONTINUOUS
 10
156.6886936889
 20
129.4047360935
  0
SEQEND
  0
LINE
  8
0
 62
7
  6
CONTINUOUS
 10
156.6920350019
 20
130.8720445159
 11
156.6590050801
 21
130.9169469715
  0
LINE
  8
1_AXIS
 62
7
  6
CONTINUOUS
 10
154.3093142549
 20
101.5326076835
 11
154.3546211999
 21
101.6507326835
  0
LINE
  8
1_AXIS
 62
7
  6
CONTINUOUS
 10
154.1280864752
 20
101.0207328337
 11
154.0827795302
 21
100.9026078337
  0
LINE
  8
1_AXIS
 62
7
  6
CONTINUOUS
 10
154.5215365125
 20
101.5326076835
 11
154.5513462503
 21
101.6103281143
  0
POLYLINE
  8
0
 62
7
  6
CONTINUOUS
 66
1
 70
0
  0
VERTEX
  8
0
 62
7
  6
CONTINUOUS
 10
153.7850962611
 20
96.1382522936
  0
VERTEX
  8
0
 62
7
  6
CONTINUOUS
 10
153.7934604457
 20
96.1593553287
  0
VERTEX
  8
0
 62
7
  6
CONTINUOUS
 10
153.7890875405
 20
96.1516519666
  0
VERTEX
  8
0
 62
7
  6
CONTINUOUS
 10
153.7570427727
 20
96.1031198666
  0
VERTEX
  8
0
 62
7
  6
CONTINUOUS
 10
153.6898069122
 20
96.0252330713
  0
VERTEX
  8
0
 62
7
  6
CONTINUOUS
 10
153.6710369116
 20
96.0069004559
  0
SEQEND
  0
LINE
  8
1_AXIS
 62
7
  6
CONTINUOUS
 10
154.6491164055
 20
100.8632327586
 11
154.7170768229
 21
101.0207328337
  0
LINE
  8
1_AXIS
 62
7
  6
CONTINUOUS
 10
154.861338663
 20
100.8632327586
 11
154.9292990804
 21
101.0207328337
  0
LINE
  8
1_AXIS
 62
7
  6
CONTINUOUS
 10
153.8335912855
 20
101.6507326835
 11
153.9015517188
 21
101.7688576835
  0
LINE
  8
1_AXIS
 62
7
  6
CONTINUOUS
 10
154.045813543
 20
101.6507326835
 11
154.1137739763
 21
101.7688576835
  0
LINE
  8
0
 62
7
  6
CONTINUOUS
 10
156.5984480937
 20
112.8942447183
 11
156.6538317356
 21
112.9604522905
  0
LINE
  8
0
 62
7
  6
CONTINUOUS
 10
156.5309698528
 20
112.8555978172
 11
156.5984480937
 21
112.8942447183
  0
LINE
  8
0
 62
7
  6
CONTINUOUS
 10
160.0956861779
 20
113.8743980298
 11
156.5182294141
 21
112.851956579
  0
LINE
  8
1_AXIS
 62
7
  6
CONTINUOUS
 10
154.3093142549
 20
101.8869826835
 11
154.2187003651
 21
101.7294828337
  0
LINE
  8
1_AXIS
 62
7
  6
CONTINUOUS
 10
154.1280864752
 20
100.6663578337
 11
154.2187003651
 21
100.8238576835
  0
LINE
  8
1_AXIS
 62
7
  6
CONTINUOUS
 10
154.3403087327
 20
100.6663578337
 11
154.4309226226
 21
100.8238576835
  0
LINE
  8
1_AXIS
 62
7
  6
CONTINUOUS
 10
154.581155988
 20
101.0601076835
 11
154.5358490431
 21
100.9813577586
  0
LINE
  8
0
 62
7
  6
CONTINUOUS
 10
156.6920350019
 20
105.4969210013
 11
156.6590050801
 21
105.4520185458
  0
LINE
  8
1_AXIS
 62
7
  6
CONTINUOUS
 10
153.8335912855
 20
102.5957327962
 11
154.7397302953
 21
103.5801077586
  0
LINE
  8
1_AXIS
 62
7
  6
CONTINUOUS
 10
154.6038094605
 20
103.6982327586
 11
153.6750169623
 21
102.7138577962
  0
POLYLINE
  8
0
 62
7
  6
CONTINUOUS
 66
1
 70
0
  0
VERTEX
  8
0
 62
7
  6
CONTINUOUS
 10
153.6710264586
 20
140.3620749453
  0
VERTEX
  8
0
 62
7
  6
CONTINUOUS
 10
153.6905745737
 20
140.3429567105
  0
VERTEX
  8
0
 62
7
  6
CONTINUOUS
 10
153.7576161133
 20
140.2650705285
  0
VERTEX
  8
0
 62
7
  6
CONTINUOUS
 10
153.7892524002
 20
140.2170230282
  0
VERTEX
  8
0
 62
7
  6
CONTINUOUS
 10
153.7947135755
 20
140.2068198631
  0
SEQEND
  0
POLYLINE
  8
0
 62
7
  6
CONTINUOUS
 66
1
 70
0
  0
VERTEX
  8
0
 62
7
  6
CONTINUOUS
 10
156.6538317356
 20
140.2085132267
  0
VERTEX
  8
0
 62
7
  6
CONTINUOUS
 10
156.6967657156
 20
140.1254140011
  0
VERTEX
  8
0
 62
7
  6
CONTINUOUS
 10
156.7288937285
 20
140.0324196433
  0
VERTEX
  8
0
 62
7
  6
CONTINUOUS
 10
156.7516723658
 20
139.9355222702
  0
VERTEX
  8
0
 62
7
  6
CONTINUOUS
 10
156.7668181327
 20
139.8382712542
  0
VERTEX
  8
0
 62
7
  6
CONTINUOUS
 10
156.7758136824
 20
139.7424047945
  0
VERTEX
  8
0
 62
7
  6
CONTINUOUS
 10
156.7797327505
 20
139.649927766
  0
VERTEX
  8
0
 62
7
  6
CONTINUOUS
 10
156.779499904
 20
139.5619800264
  0
VERTEX
  8
0
 62
7
  6
CONTINUOUS
 10
156.7758266871
 20
139.4788669839
  0
VERTEX
  8
0
 62
7
  6
CONTINUOUS
 10
156.7691813134
 20
139.4005444256
  0
VERTEX
  8
0
 62
7
  6
CONTINUOUS
 10
156.7599052159
 20
139.3276083047
  0
VERTEX
  8
0
 62
7
  6
CONTINUOUS
 10
156.7480443104
 20
139.2597883503
  0
VERTEX
  8
0
 62
7
  6
CONTINUOUS
 10
156.7333575905
 20
139.1973395455
  0
VERTEX
  8
0
 62
7
  6
CONTINUOUS
 10
156.7155919815
 20
139.1426540464
  0
VERTEX
  8
0
 62
7
  6
CONTINUOUS
 10
156.6920349753
 20
139.0969210013
  0
SEQEND
  0
POLYLINE
  8
0
 62
7
  6
CONTINUOUS
 66
1
 70
0
  0
VERTEX
  8
0
 62
7
  6
CONTINUOUS
 10
156.6538317356
 20
96.1604522905
  0
VERTEX
  8
0
 62
7
  6
CONTINUOUS
 10
156.6967657156
 20
96.2435515162
  0
VERTEX
  8
0
 62
7
  6
CONTINUOUS
 10
156.7288937285
 20
96.336545874
  0
VERTEX
  8
0
 62
7
  6
CONTINUOUS
 10
156.7516723658
 20
96.433443247
  0
VERTEX
  8
0
 62
7
  6
CONTINUOUS
 10
156.7668181327
 20
96.530694263
  0
VERTEX
  8
0
 62
7
  6
CONTINUOUS
 10
156.7758136824
 20
96.6265607227
  0
VERTEX
  8
0
 62
7
  6
CONTINUOUS
 10
156.7797327505
 20
96.7190377512
  0
VERTEX
  8
0
 62
7
  6
CONTINUOUS
 10
156.779499904
 20
96.8069854908
  0
VERTEX
  8
0
 62
7
  6
CONTINUOUS
 10
156.7758266871
 20
96.8900985334
  0
VERTEX
  8
0
 62
7
  6
CONTINUOUS
 10
156.7691813134
 20
96.9684210916
  0
VERTEX
  8
0
 62
7
  6
CONTINUOUS
 10
156.7599052159
 20
97.0413572125
  0
VERTEX
  8
0
 62
7
  6
CONTINUOUS
 10
156.7480443104
 20
97.109177167
  0
VERTEX
  8
0
 62
7
  6
CONTINUOUS
 10
156.7333575905
 20
97.1716259717
  0
VERTEX
  8
0
 62
7
  6
CONTINUOUS
 10
156.7155919815
 20
97.2263114709
  0
VERTEX
  8
0
 62
7
  6
CONTINUOUS
 10
156.6920349753
 20
97.2720445159
  0
SEQEND
  0
LINE
  8
1_AXIS
 62
7
  6
CONTINUOUS
 10
154.5585025156
 20
100.7451077586
 11
154.6491164055
 21
100.8632327586
  0
LINE
  8
1_AXIS
 62
7
  6
CONTINUOUS
 10
154.7707247731
 20
100.7451077586
 11
154.861338663
 21
100.8632327586
  0
LINE
  8
1_AXIS
 62
7
  6
CONTINUOUS
 10
154.0827795302
 20
100.9026078337
 11
154.0148190811
 21
100.8238576835
  0
LINE
  8
1_AXIS
 62
7
  6
CONTINUOUS
 10
154.045813543
 20
102.5957327962
 11
154.9519525528
 21
103.5801077586
  0
LINE
  8
1_AXIS
 62
7
  6
CONTINUOUS
 10
153.8788982463
 20
102.0051076835
 11
153.7656308601
 21
101.8869826835
  0
POLYLINE
  8
0
 62
7
  6
CONTINUOUS
 66
1
 70
0
  0
VERTEX
  8
0
 62
7
  6
CONTINUOUS
 10
156.524356999
 20
106.7165191422
  0
VERTEX
  8
0
 62
7
  6
CONTINUOUS
 10
156.5762478936
 20
106.7325121402
  0
VERTEX
  8
0
 62
7
  6
CONTINUOUS
 10
156.6259512105
 20
106.7856348677
  0
VERTEX
  8
0
 62
7
  6
CONTINUOUS
 10
156.6655234958
 20
106.8672474128
  0
VERTEX
  8
0
 62
7
  6
CONTINUOUS
 10
156.6886936889
 20
106.9642294238
  0
SEQEND
  0
LINE
  8
0
 62
7
  6
CONTINUOUS
 10
156.5984480937
 20
140.274720799
 11
156.6538317356
 21
140.2085132267
  0
POLYLINE
  8
0
 62
7
  6
CONTINUOUS
 66
1
 70
0
  0
VERTEX
  8
0
 62
7
  6
CONTINUOUS
 10
144.8294030469
 20
158.4177914168
  0
VERTEX
  8
0
 62
7
  6
CONTINUOUS
 10
144.8988262394
 20
158.3315677889
  0
VERTEX
  8
0
 62
7
  6
CONTINUOUS
 10
145.0643612437
 20
158.1839420805
  0
SEQEND
  0
POLYLINE
  8
0
 62
7
  6
CONTINUOUS
 66
1
 70
0
  0
VERTEX
  8
0
 62
7
  6
CONTINUOUS
 10
146.5876829466
 20
158.4273353622
  0
VERTEX
  8
0
 62
7
  6
CONTINUOUS
 10
146.6282423941
 20
158.3654231398
  0
VERTEX
  8
0
 62
7
  6
CONTINUOUS
 10
146.6396756197
 20
158.32372531
  0
SEQEND
  0
LINE
  8
0
 62
7
  6
CONTINUOUS
 10
156.5984480937
 20
96.0942447183
 11
156.6538317356
 21
96.1604522905
  0
LINE
  8
1_AXIS
 62
7
  6
CONTINUOUS
 10
154.0374725536
 20
100.5876076835
 11
154.1280864752
 21
100.6663578337
  0
LINE
  8
1_AXIS
 62
7
  6
CONTINUOUS
 10
154.5358490431
 20
100.9813577586
 11
154.4905420982
 21
100.9419826835
  0
LINE
  8
1_AXIS
 62
7
  6
CONTINUOUS
 10
154.2496948111
 20
100.5876076835
 11
154.3403087327
 21
100.6663578337
  0
LINE
  8
1_AXIS
 62
7
  6
CONTINUOUS
 10
153.9015517188
 20
101.7688576835
 11
153.9695121362
 21
101.8082327586
  0
LINE
  8
1_AXIS
 62
7
  6
CONTINUOUS
 10
154.1137739763
 20
101.7688576835
 11
154.1817343937
 21
101.8082327586
  0
LINE
  8
1_AXIS
 62
7
  6
CONTINUOUS
 10
154.3546211999
 20
101.6507326835
 11
154.4225816173
 21
101.6901077586
  0
LINE
  8
1_AXIS
 62
7
  6
CONTINUOUS
 10
154.4905420982
 20
100.7057326835
 11
154.5585025156
 21
100.7451077586
  0
LINE
  8
1_AXIS
 62
7
  6
CONTINUOUS
 10
154.7027643557
 20
100.7057326835
 11
154.7707247731
 21
100.7451077586
  0
LINE
  8
1_AXIS
 62
7
  6
CONTINUOUS
 10
153.9695121362
 20
102.0444827586
 11
153.8788982463
 21
102.0051076835
  0
LINE
  8
1_AXIS
 62
7
  6
CONTINUOUS
 10
154.3999281448
 20
101.9263577586
 11
154.3093142549
 21
101.8869826835
  0
LINE
  8
0
 62
7
  6
CONTINUOUS
 10
145.3347087747
 20
141.2109203074
 11
156.5243569999
 21
140.3165191535
  0
POLYLINE
  8
0
 62
7
  6
CONTINUOUS
 66
1
 70
0
  0
VERTEX
  8
0
 62
7
  6
CONTINUOUS
 10
153.1352928293
 20
140.5874091478
  0
VERTEX
  8
0
 62
7
  6
CONTINUOUS
 10
153.2862871219
 20
140.5630640592
  0
VERTEX
  8
0
 62
7
  6
CONTINUOUS
 10
153.4934183449
 20
140.4860734876
  0
VERTEX
  8
0
 62
7
  6
CONTINUOUS
 10
153.6338459774
 20
140.3946769574
  0
VERTEX
  8
0
 62
7
  6
CONTINUOUS
 10
153.6713285107
 20
140.3617892272
  0
SEQEND
  0
LINE
  8
0
 62
7
  6
CONTINUOUS
 10
160.0956861779
 20
139.2945674875
 11
156.5182294141
 21
140.3170089383
  0
LINE
  8
0
 62
7
  6
CONTINUOUS
 10
156.5309698528
 20
140.3133677001
 11
156.5984480937
 21
140.274720799
  0
LINE
  8
0
 62
7
  6
CONTINUOUS
 10
144.8109881249
 20
158.4391462078
 11
144.8294034987
 21
158.4177910397
  0
LINE
  8
0
 62
7
  6
CONTINUOUS
 10
156.6920350019
 20
147.6720445159
 11
156.6590050801
 21
147.7169469715
  0
POLYLINE
  8
0
 62
7
  6
CONTINUOUS
 66
1
 70
0
  0
VERTEX
  8
0
 62
7
  6
CONTINUOUS
 10
156.6538317356
 20
157.0085132267
  0
VERTEX
  8
0
 62
7
  6
CONTINUOUS
 10
156.6967657156
 20
156.9254140011
  0
VERTEX
  8
0
 62
7
  6
CONTINUOUS
 10
156.7288937285
 20
156.8324196433
  0
VERTEX
  8
0
 62
7
  6
CONTINUOUS
 10
156.7516723658
 20
156.7355222702
  0
VERTEX
  8
0
 62
7
  6
CONTINUOUS
 10
156.7668181327
 20
156.6382712542
  0
VERTEX
  8
0
 62
7
  6
CONTINUOUS
 10
156.7758136824
 20
156.5424047945
  0
VERTEX
  8
0
 62
7
  6
CONTINUOUS
 10
156.7797327505
 20
156.449927766
  0
VERTEX
  8
0
 62
7
  6
CONTINUOUS
 10
156.779499904
 20
156.3619800264
  0
VERTEX
  8
0
 62
7
  6
CONTINUOUS
 10
156.7758266871
 20
156.2788669839
  0
VERTEX
  8
0
 62
7
  6
CONTINUOUS
 10
156.7691813134
 20
156.2005444256
  0
VERTEX
  8
0
 62
7
  6
CONTINUOUS
 10
156.7599052159
 20
156.1276083047
  0
VERTEX
  8
0
 62
7
  6
CONTINUOUS
 10
156.7480443104
 20
156.0597883503
  0
VERTEX
  8
0
 62
7
  6
CONTINUOUS
 10
156.7333575905
 20
155.9973395455
  0
VERTEX
  8
0
 62
7
  6
CONTINUOUS
 10
156.7155919815
 20
155.9426540464
  0
VERTEX
  8
0
 62
7
  6
CONTINUOUS
 10
156.6920349753
 20
155.8969210013
  0
SEQEND
  0
POLYLINE
  8
0
 62
7
  6
CONTINUOUS
 66
1
 70
0
  0
VERTEX
  8
0
 62
7
  6
CONTINUOUS
 10
153.6713502649
 20
96.0071968765
  0
VERTEX
  8
0
 62
7
  6
CONTINUOUS
 10
153.6333237889
 20
95.9738631995
  0
VERTEX
  8
0
 62
7
  6
CONTINUOUS
 10
153.4911026014
 20
95.8817001983
  0
VERTEX
  8
0
 62
7
  6
CONTINUOUS
 10
153.2808536674
 20
95.8045971151
  0
VERTEX
  8
0
 62
7
  6
CONTINUOUS
 10
153.1353764428
 20
95.7815631991
  0
SEQEND
  0
POLYLINE
  8
1_AXIS
 62
7
  6
CONTINUOUS
 66
1
 70
0
  0
VERTEX
  8
1_AXIS
 62
7
  6
CONTINUOUS
 10
153.9759653309
 20
99.1644827586
  0
VERTEX
  8
1_AXIS
 62
7
  6
CONTINUOUS
 10
154.0097355162
 20
99.1818052436
  0
VERTEX
  8
1_AXIS
 62
7
  6
CONTINUOUS
 10
154.0387882417
 20
99.2306048836
  0
VERTEX
  8
1_AXIS
 62
7
  6
CONTINUOUS
 10
154.0596476799
 20
99.3029387235
  0
VERTEX
  8
1_AXIS
 62
7
  6
CONTINUOUS
 10
154.0704297421
 20
99.3891585026
  0
VERTEX
  8
1_AXIS
 62
7
  6
CONTINUOUS
 10
154.0704255231
 20
99.479876771
  0
VERTEX
  8
1_AXIS
 62
7
  6
CONTINUOUS
 10
154.0596389581
 20
99.5660708345
  0
VERTEX
  8
1_AXIS
 62
7
  6
CONTINUOUS
 10
154.0387819909
 20
99.6383759244
  0
VERTEX
  8
1_AXIS
 62
7
  6
CONTINUOUS
 10
154.0097334006
 20
99.6871625184
  0
VERTEX
  8
1_AXIS
 62
7
  6
CONTINUOUS
 10
153.9759653309
 20
99.7044827586
  0
SEQEND
  0
POLYLINE
  8
1_AXIS
 62
7
  6
CONTINUOUS
 66
1
 70
0
  0
VERTEX
  8
1_AXIS
 62
7
  6
CONTINUOUS
 10
153.7637430734
 20
99.7044827586
  0
VERTEX
  8
1_AXIS
 62
7
  6
CONTINUOUS
 10
153.7300696213
 20
99.6872627465
  0
VERTEX
  8
1_AXIS
 62
7
  6
CONTINUOUS
 10
153.701425563
 20
99.6395883685
  0
VERTEX
  8
1_AXIS
 62
7
  6
CONTINUOUS
 10
153.6805484779
 20
99.5684605311
  0
VERTEX
  8
1_AXIS
 62
7
  6
CONTINUOUS
 10
153.6693012238
 20
99.4801787687
  0
VERTEX
  8
1_AXIS
 62
7
  6
CONTINUOUS
 10
153.6693012238
 20
99.3887867485
  0
VERTEX
  8
1_AXIS
 62
7
  6
CONTINUOUS
 10
153.6805484779
 20
99.3005049862
  0
VERTEX
  8
1_AXIS
 62
7
  6
CONTINUOUS
 10
153.701425563
 20
99.2293771488
  0
VERTEX
  8
1_AXIS
 62
7
  6
CONTINUOUS
 10
153.7300696213
 20
99.1817027708
  0
VERTEX
  8
1_AXIS
 62
7
  6
CONTINUOUS
 10
153.7637430734
 20
99.1644827586
  0
SEQEND
  0
POLYLINE
  8
1_AXIS
 62
7
  6
CONTINUOUS
 66
1
 70
0
  0
VERTEX
  8
1_AXIS
 62
7
  6
CONTINUOUS
 10
153.7637430734
 20
99.1644827586
  0
VERTEX
  8
1_AXIS
 62
7
  6
CONTINUOUS
 10
153.7974165256
 20
99.1817027708
  0
VERTEX
  8
1_AXIS
 62
7
  6
CONTINUOUS
 10
153.8260605838
 20
99.2293771488
  0
VERTEX
  8
1_AXIS
 62
7
  6
CONTINUOUS
 10
153.8469376689
 20
99.3005049862
  0
VERTEX
  8
1_AXIS
 62
7
  6
CONTINUOUS
 10
153.858184923
 20
99.3887867485
  0
VERTEX
  8
1_AXIS
 62
7
  6
CONTINUOUS
 10
153.858184923
 20
99.4801787687
  0
VERTEX
  8
1_AXIS
 62
7
  6
CONTINUOUS
 10
153.8469376689
 20
99.5684605311
  0
VERTEX
  8
1_AXIS
 62
7
  6
CONTINUOUS
 10
153.8260605838
 20
99.6395883685
  0
VERTEX
  8
1_AXIS
 62
7
  6
CONTINUOUS
 10
153.7974165256
 20
99.6872627465
  0
VERTEX
  8
1_AXIS
 62
7
  6
CONTINUOUS
 10
153.7637430734
 20
99.7044827586
  0
SEQEND
  0
LINE
  8
0
 62
7
  6
CONTINUOUS
 10
144.7927706602
 20
158.4543721034
 11
144.8109881249
 21
158.4391462078
  0
LINE
  8
0
 62
7
  6
CONTINUOUS
 10
156.6920350019
 20
88.6969210013
 11
156.6590050801
 21
88.6520185458
  0
LINE
  8
0
 62
7
  6
CONTINUOUS
 10
156.5309698528
 20
96.0555978172
 11
156.5984480937
 21
96.0942447183
  0
LINE
  8
0
 62
7
  6
CONTINUOUS
 10
145.3347087747
 20
145.5580452099
 11
156.5243569999
 21
146.4524463638
  0
POLYLINE
  8
0
 62
7
  6
CONTINUOUS
 66
1
 70
0
  0
VERTEX
  8
0
 62
7
  6
CONTINUOUS
 10
156.524356999
 20
146.4524463751
  0
VERTEX
  8
0
 62
7
  6
CONTINUOUS
 10
156.5762478936
 20
146.436453377
  0
VERTEX
  8
0
 62
7
  6
CONTINUOUS
 10
156.6259512105
 20
146.3833306495
  0
VERTEX
  8
0
 62
7
  6
CONTINUOUS
 10
156.6655234958
 20
146.3017181044
  0
VERTEX
  8
0
 62
7
  6
CONTINUOUS
 10
156.6886936889
 20
146.2047360935
  0
SEQEND
  0
POLYLINE
  8
0
 62
7
  6
CONTINUOUS
 66
1
 70
0
  0
VERTEX
  8
0
 62
7
  6
CONTINUOUS
 10
153.6710264586
 20
157.1620749453
  0
VERTEX
  8
0
 62
7
  6
CONTINUOUS
 10
153.6905745737
 20
157.1429567105
  0
VERTEX
  8
0
 62
7
  6
CONTINUOUS
 10
153.7576161133
 20
157.0650705285
  0
VERTEX
  8
0
 62
7
  6
CONTINUOUS
 10
153.7892524002
 20
157.0170230282
  0
VERTEX
  8
0
 62
7
  6
CONTINUOUS
 10
153.7947135755
 20
157.0068198631
  0
SEQEND
  0
LINE
  8
0
 62
7
  6
CONTINUOUS
 10
156.5984480937
 20
157.074720799
 11
156.6538317356
 21
157.0085132267
  0
LINE
  8
0
 62
7
  6
CONTINUOUS
 10
160.0956861779
 20
97.0743980298
 11
156.5182294141
 21
96.051956579
  0
POLYLINE
  8
0
 62
7
  6
CONTINUOUS
 66
1
 70
0
  0
VERTEX
  8
0
 62
7
  6
CONTINUOUS
 10
145.0659793223
 20
158.1824990625
  0
VERTEX
  8
0
 62
7
  6
CONTINUOUS
 10
145.2637771637
 20
158.0717563204
  0
VERTEX
  8
0
 62
7
  6
CONTINUOUS
 10
145.4833134393
 20
158.0052307759
  0
VERTEX
  8
0
 62
7
  6
CONTINUOUS
 10
145.5976223164
 20
157.9899205901
  0
SEQEND
  0
POLYLINE
  8
0
 62
7
  6
CONTINUOUS
 66
1
 70
0
  0
VERTEX
  8
0
 62
7
  6
CONTINUOUS
 10
146.5729478425
 20
158.4506296512
  0
VERTEX
  8
0
 62
7
  6
CONTINUOUS
 10
146.6062887919
 20
158.4319190132
  0
VERTEX
  8
0
 62
7
  6
CONTINUOUS
 10
146.6371007846
 20
158.4123886277
  0
VERTEX
  8
0
 62
7
  6
CONTINUOUS
 10
146.6648867637
 20
158.3939096643
  0
VERTEX
  8
0
 62
7
  6
CONTINUOUS
 10
146.6890859025
 20
158.3783297527
  0
SEQEND
  0
POLYLINE
  8
0
 62
7
  6
CONTINUOUS
 66
1
 70
0
  0
VERTEX
  8
0
 62
7
  6
CONTINUOUS
 10
144.7927508162
 20
158.4543863249
  0
VERTEX
  8
0
 62
7
  6
CONTINUOUS
 10
144.7595431102
 20
158.4754733576
  0
VERTEX
  8
0
 62
7
  6
CONTINUOUS
 10
144.7311846594
 20
158.4844827588
  0
SEQEND
  0
LINE
  8
0
 62
7
  6
CONTINUOUS
 10
146.6890859025
 20
158.3783297527
 11
146.7106233259
 21
158.3667118887
  0
POLYLINE
  8
0
 62
7
  6
CONTINUOUS
 66
1
 70
0
  0
VERTEX
  8
0
 62
7
  6
CONTINUOUS
 10
156.524356999
 20
89.9165191422
  0
VERTEX
  8
0
 62
7
  6
CONTINUOUS
 10
156.5762478936
 20
89.9325121402
  0
VERTEX
  8
0
 62
7
  6
CONTINUOUS
 10
156.6259512105
 20
89.9856348677
  0
VERTEX
  8
0
 62
7
  6
CONTINUOUS
 10
156.6655234958
 20
90.0672474128
  0
VERTEX
  8
0
 62
7
  6
CONTINUOUS
 10
156.6886936889
 20
90.1642294238
  0
SEQEND
  0
LINE
  8
0
 62
7
  6
CONTINUOUS
 10
146.7106233259
 20
158.3667118887
 11
146.7307707353
 21
158.3616397892
  0
POLYLINE
  8
0
 62
7
  6
CONTINUOUS
 66
1
 70
0
  0
VERTEX
  8
0
 62
7
  6
CONTINUOUS
 10
146.4948145156
 20
158.479697261
  0
VERTEX
  8
0
 62
7
  6
CONTINUOUS
 10
146.5357867682
 20
158.467375093
  0
VERTEX
  8
0
 62
7
  6
CONTINUOUS
 10
146.5729478425
 20
158.4506296512
  0
SEQEND
  0
LINE
  8
0
 62
7
  6
CONTINUOUS
 10
156.5309698528
 20
157.1133677001
 11
156.5984480937
 21
157.074720799
  0
LINE
  8
0
 62
7
  6
CONTINUOUS
 10
146.7307707353
 20
158.3616397892
 11
146.9014144952
 21
158.3618784652
  0
LINE
  8
0
 62
7
  6
CONTINUOUS
 10
144.5622116331
 20
158.4844827586
 11
146.4505408565
 21
158.4844827586
  0
LINE
  8
0
 62
7
  6
CONTINUOUS
 10
146.4505408523
 20
158.4844827586
 11
146.4603310288
 21
158.4840900766
  0
LINE
  8
0
 62
7
  6
CONTINUOUS
 10
145.5976211039
 20
157.9899054295
 11
156.5243569999
 21
157.1165191535
  0
LINE
  8
0
 62
7
  6
CONTINUOUS
 10
146.4603310288
 20
158.4840900766
 11
146.4948145156
 21
158.479697261
  0
POLYLINE
  8
0
 62
7
  6
CONTINUOUS
 66
1
 70
0
  0
VERTEX
  8
0
 62
7
  6
CONTINUOUS
 10
153.1352928293
 20
157.3874091478
  0
VERTEX
  8
0
 62
7
  6
CONTINUOUS
 10
153.2862871219
 20
157.3630640592
  0
VERTEX
  8
0
 62
7
  6
CONTINUOUS
 10
153.4934183449
 20
157.2860734876
  0
VERTEX
  8
0
 62
7
  6
CONTINUOUS
 10
153.6338459774
 20
157.1946769574
  0
VERTEX
  8
0
 62
7
  6
CONTINUOUS
 10
153.6713285107
 20
157.1617892272
  0
SEQEND
  0
LINE
  8
0
 62
7
  6
CONTINUOUS
 10
160.0956861779
 20
156.0945674875
 11
156.5182294141
 21
157.1170089383
  0
LINE
  8
0
 62
7
  6
CONTINUOUS
 10
144.7143857758
 20
164.2844827586
 11
160.1643857759
 21
164.2844827586
  0
ARC
  8
0
 62
7
  6
CONTINUOUS
 10
53.8962069098
 20
191.1680247133
 40
50.0
 50
36.1550324174
 51
46.2693084426
  0
ARC
  8
0
 62
7
  6
CONTINUOUS
 10
52.8119279506
 20
226.2064655172
 40
8.75
 50
29.0189816931
 51
59.4415682141
  0
ARC
  8
0
 62
7
  6
CONTINUOUS
 10
52.8119279506
 20
226.2064655172
 40
8.5
 50
109.7499227956
 51
250.2500772044
  0
ARC
  8
0
 62
7
  6
CONTINUOUS
 10
57.3119279506
 20
224.2064655172
 40
6.0
 50
270.0
 51
323.8449675826
  0
ARC
  8
0
 62
7
  6
CONTINUOUS
 10
52.8119279506
 20
226.2064655172
 40
5.8
 50
13.2203423897
 51
166.7796635675
  0
CIRCLE
  8
0
 62
7
  6
CONTINUOUS
 10
52.8119279506
 20
226.2064655172
 40
4.15
  0
ARC
  8
0
 62
7
  6
CONTINUOUS
 10
61.119288879
 20
230.8149093333
 40
0.75
 50
209.0189816931
 51
250.46
  0
ARC
  8
0
 62
7
  6
CONTINUOUS
 10
57.3876792551
 20
233.9564655172
 40
0.25
 50
90.0
 51
239.4415682141
  0
ARC
  8
0
 62
7
  6
CONTINUOUS
 10
73.7268278073
 20
225.3564655172
 40
0.85
 50
16.467546793
 51
90.0
  0
ARC
  8
0
 62
7
  6
CONTINUOUS
 10
77.0107986063
 20
218.6564655172
 40
0.4000000001
 50
196.467546793
 51
270.0
  0
ARC
  8
0
 62
7
  6
CONTINUOUS
 10
72.0341187714
 20
227.2064655172
 40
1.0
 50
250.46
 51
270.0
  0
ARC
  8
0
 62
7
  6
CONTINUOUS
 10
68.3098048022
 20
226.9365741657
 40
0.499999908
 50
70.4600000001
 51
133.73070024
  0
ARC
  8
0
 62
7
  6
CONTINUOUS
 10
102.5276489915
 20
191.1680247133
 40
50.0
 50
133.7306914902
 51
143.8449675826
  0
ARC
  8
0
 62
7
  6
CONTINUOUS
 10
79.4130572949
 20
218.6564655172
 40
0.4000000001
 50
270.0
 51
343.532453207
  0
ARC
  8
0
 62
7
  6
CONTINUOUS
 10
84.3897371299
 20
227.2064655172
 40
1.0
 50
270.0
 51
289.54
  0
ARC
  8
0
 62
7
  6
CONTINUOUS
 10
82.697028094
 20
225.3564655172
 40
0.85
 50
90.0
 51
163.532453207
  0
ARC
  8
0
 62
7
  6
CONTINUOUS
 10
88.1140513808
 20
226.9365742657
 40
0.5000000123
 50
46.2693084426
 51
109.54
  0
ARC
  8
2_FEATURE
 62
7
  6
CONTINUOUS
 10
103.6119279506
 20
226.2064655172
 40
8.5
 50
313.6286180646
 51
318.0471942975
  0
ARC
  8
2_FEATURE
 62
7
  6
CONTINUOUS
 10
103.6119279506
 20
226.2064655172
 40
8.5
 50
0.0
 51
0.5260050191
  0
ARC
  8
0
 62
7
  6
CONTINUOUS
 10
103.6119279506
 20
226.2064655172
 40
8.5
 50
289.7499227956
 51
70.2500772044
  0
ARC
  8
0
 62
7
  6
CONTINUOUS
 10
99.1119279506
 20
224.2064655172
 40
6.0
 50
216.1550324174
 51
270.0
  0
CIRCLE
  8
0
 62
7
  6
CONTINUOUS
 10
103.6119279506
 20
226.2064655172
 40
4.15
  0
ARC
  8
0
 62
7
  6
CONTINUOUS
 10
99.7861755356
 20
105.984021452
 40
0.4999992149
 50
180.0000000117
 51
270.0000000052
  0
ARC
  8
0
 62
7
  6
CONTINUOUS
 10
99.7861755356
 20
96.7849440653
 40
0.4999992149
 50
90.0000000181
 51
180.0000000116
  0
ARC
  8
0
 62
7
  6
CONTINUOUS
 10
99.7861755356
 20
113.5849440653
 40
0.4999992149
 50
90.0000000181
 51
180.0000000116
  0
ARC
  8
0
 62
7
  6
CONTINUOUS
 10
99.7861755356
 20
122.784021452
 40
0.4999992149
 50
180.0000000117
 51
270.0000000052
  0
ARC
  8
0
 62
7
  6
CONTINUOUS
 10
99.7861755356
 20
89.184021452
 40
0.4999992149
 50
180.0000000117
 51
270.0000000052
  0
ARC
  8
0
 62
7
  6
CONTINUOUS
 10
99.7861755356
 20
147.1849440653
 40
0.4999992149
 50
90.0000000181
 51
180.0000000116
  0
ARC
  8
0
 62
7
  6
CONTINUOUS
 10
99.7861755356
 20
156.384021452
 40
0.4999992149
 50
180.0000000117
 51
270.0000000052
  0
ARC
  8
0
 62
7
  6
CONTINUOUS
 10
99.7861755356
 20
139.584021452
 40
0.4999992149
 50
180.0000000117
 51
270.0000000052
  0
ARC
  8
0
 62
7
  6
CONTINUOUS
 10
99.7861755356
 20
130.3849440653
 40
0.4999992149
 50
90.0000000181
 51
180.0000000116
  0
ARC
  8
0
 62
7
  6
CONTINUOUS
 10
56.6376804196
 20
105.1849441192
 40
0.4999991796
 50
0.0
 51
89.9999998499
  0
ARC
  8
0
 62
7
  6
CONTINUOUS
 10
56.6376804197
 20
97.584021398
 40
0.4999991796
 50
270.0000002235
 51
0.0000000797
  0
ARC
  8
0
 62
7
  6
CONTINUOUS
 10
56.6376804197
 20
114.384021398
 40
0.4999991796
 50
270.0000002235
 51
0.0000000797
  0
ARC
  8
0
 62
7
  6
CONTINUOUS
 10
56.6376804196
 20
121.9849441192
 40
0.4999991796
 50
0.0
 51
89.9999998499
  0
ARC
  8
0
 62
7
  6
CONTINUOUS
 10
56.6376804196
 20
88.3849441192
 40
0.4999991796
 50
0.0
 51
89.9999998499
  0
ARC
  8
0
 62
7
  6
CONTINUOUS
 10
56.6376804197
 20
147.984021398
 40
0.4999991796
 50
270.0000002235
 51
0.0000000797
  0
ARC
  8
0
 62
7
  6
CONTINUOUS
 10
56.6376804196
 20
155.5849441192
 40
0.4999991796
 50
0.0
 51
89.9999998499
  0
ARC
  8
0
 62
7
  6
CONTINUOUS
 10
56.6376804196
 20
138.7849441192
 40
0.4999991796
 50
0.0
 51
89.9999998499
  0
ARC
  8
0
 62
7
  6
CONTINUOUS
 10
56.6376804197
 20
131.184021398
 40
0.4999991796
 50
270.0000002235
 51
0.0000000797
  0
ARC
  8
0
 62
7
  6
CONTINUOUS
 10
145.4143857759
 20
127.761224476
 40
1.0
 50
94.57
 51
180.0
  0
ARC
  8
0
 62
7
  6
CONTINUOUS
 10
145.4143857759
 20
81.4844827586
 40
1.0
 50
180.0
 51
197.3912550953
  0
ARC
  8
0
 62
7
  6
CONTINUOUS
 10
145.4143857759
 20
133.8077410412
 40
1.0
 50
180.0
 51
197.8657588265
  0
ARC
  8
0
 62
7
  6
CONTINUOUS
 10
145.4143857759
 20
142.2077410412
 40
1.0
 50
180.0
 51
265.43
  0
ARC
  8
0
 62
7
  6
CONTINUOUS
 10
145.4143857759
 20
136.161224476
 40
1.0
 50
162.1342411735
 51
180.0
  0
ARC
  8
0
 62
7
  6
CONTINUOUS
 10
145.4143857759
 20
159.0077410412
 40
1.0
 50
180.0
 51
211.5510655343
  0
ARC
  8
0
 62
7
  6
CONTINUOUS
 10
145.4143857759
 20
152.961224476
 40
1.0
 50
162.8093642381
 51
180.0
  0
ARC
  8
0
 62
7
  6
CONTINUOUS
 10
145.4143857759
 20
144.561224476
 40
1.0
 50
94.57
 51
180.0
  0
ARC
  8
0
 62
7
  6
CONTINUOUS
 10
145.4143857759
 20
150.6077410412
 40
1.0
 50
180.0
 51
197.8657588265
  0
ARC
  8
0
 62
7
  6
CONTINUOUS
 10
145.4143857759
 20
91.8077410412
 40
1.0
 50
180.0
 51
218.5544639061
  0
ARC
  8
0
 62
7
  6
CONTINUOUS
 10
145.4143857759
 20
85.761224476
 40
1.0
 50
162.4581439197
 51
180.0
  0
ARC
  8
0
 62
7
  6
CONTINUOUS
 10
145.4143857759
 20
125.4077410412
 40
1.0
 50
180.0
 51
265.43
  0
ARC
  8
0
 62
7
  6
CONTINUOUS
 10
145.4143857759
 20
119.361224476
 40
1.0
 50
162.1342411735
 51
180.0
  0
ARC
  8
0
 62
7
  6
CONTINUOUS
 10
145.4143857759
 20
110.961224476
 40
1.0
 50
94.57
 51
180.0
  0
ARC
  8
0
 62
7
  6
CONTINUOUS
 10
145.4143857759
 20
117.0077410412
 40
1.0
 50
180.0
 51
197.8657588265
  0
ARC
  8
0
 62
7
  6
CONTINUOUS
 10
145.4143857759
 20
94.161224476
 40
1.0
 50
94.57
 51
180.0
  0
ARC
  8
0
 62
7
  6
CONTINUOUS
 10
145.4143857759
 20
100.2077410412
 40
1.0
 50
180.0
 51
197.8657588265
  0
ARC
  8
0
 62
7
  6
CONTINUOUS
 10
145.4143857759
 20
108.6077410412
 40
1.0
 50
180.0
 51
265.43
  0
ARC
  8
0
 62
7
  6
CONTINUOUS
 10
145.4143857759
 20
102.561224476
 40
1.0
 50
162.1342411735
 51
180.0
  0
ARC
  8
0
 62
7
  6
CONTINUOUS
 10
145.4143857759
 20
163.2844827586
 40
1.0
 50
90.0
 51
180.0
  0
ARC
  8
0
 62
7
  6
CONTINUOUS
 10
144.7143857758
 20
164.0344827586
 40
0.25
 50
89.9999999996
 51
180.0
  0
ARC
  8
0
 62
7
  6
CONTINUOUS
 10
160.1643857759
 20
130.4340225626
 40
0.25
 50
0.0
 51
105.95
  0
ARC
  8
0
 62
7
  6
CONTINUOUS
 10
144.7143857759
 20
80.7344827586
 40
0.25
 50
180.0
 51
269.9999999859
  0
ARC
  8
0
 62
7
  6
CONTINUOUS
 10
152.6643857759
 20
80.7344827586
 40
0.25
 50
180.0
 51
269.9999999999
  0
ARC
  8
0
 62
7
  6
CONTINUOUS
 10
160.1643857759
 20
139.5349429547
 40
0.25
 50
254.05
 51
360.0
  0
ARC
  8
0
 62
7
  6
CONTINUOUS
 10
160.1643857759
 20
156.3349429547
 40
0.25
 50
254.05
 51
360.0
  0
ARC
  8
0
 62
7
  6
CONTINUOUS
 10
160.1643857759
 20
147.2340225626
 40
0.25
 50
0.0
 51
105.95
  0
ARC
  8
0
 62
7
  6
CONTINUOUS
 10
160.1643857759
 20
89.1349429547
 40
0.25
 50
254.05
 51
360.0
  0
ARC
  8
0
 62
7
  6
CONTINUOUS
 10
160.1643857759
 20
122.7349429547
 40
0.25
 50
254.05
 51
360.0
  0
ARC
  8
0
 62
7
  6
CONTINUOUS
 10
160.1643857759
 20
113.6340225626
 40
0.25
 50
0.0
 51
105.95
  0
ARC
  8
0
 62
7
  6
CONTINUOUS
 10
160.1643857759
 20
96.8340225626
 40
0.25
 50
0.0
 51
105.95
  0
ARC
  8
0
 62
7
  6
CONTINUOUS
 10
160.1643857759
 20
105.9349429547
 40
0.25
 50
254.05
 51
360.0
  0
ARC
  8
0
 62
7
  6
CONTINUOUS
 10
160.1643857759
 20
164.0344827586
 40
0.25
 50
0.0
 51
90.0
  0
ARC
  8
0
 62
7
  6
CONTINUOUS
 10
160.1643857759
 20
80.7344827586
 40
0.25
 50
270.0
 51
360.0
  0
ENDSEC
  0
EOF
