  0
SECTION
  2
HEADER
  9
$EXTMAX
 10
210.0
 20
297.0
 30
0.0
  9
$EXTMIN
 10
0.0
 20
0.0
 30
0.0
  9
$LIMMIN
 10
0.0
 20
0.0
  9
$LIMMAX
 10
210.0
 20
297.0
  9
$VIEWCTR
 10
105.0
 20
148.5
  9
$VIEWSIZE
 40
297.0
  9
$CLAYER
  8
0
  9
$LTSCALE
 40
19.36
  9
$CELTYPE
  6
BYLAYER
  9
$DIMSCALE
 40
1.0
  9
$DIMASZ
 40
3.5
  9
$DIMEXO
 40
2.2
  9
$DIMDLI
 40
13.376
  9
$DIMEXE
 40
6.336
  9
$DIMCEN
 40
3.168
  9
$DIMLFAC
 40
1.0
  9
$DIMBLK
  1
_FILLED
  9
$DIMTXT
 40
3.5
  9
$PDMODE
 70
3
  9
$PDSIZE
 40
0.3125
  9
$TILEMODE
 70
1
  0
ENDSEC
  0
SECTION
  2
TABLES
  0
TABLE
  2
LTYPE
 70
6
  0
LTYPE
  2
BYBLOCK
 70
0
  3

 72
65
 73
0
 40
0.0
  0
LTYPE
  2
BYLAYER
 70
0
  3

 72
65
 73
0
 40
0.0
  0
LTYPE
  2
CONTINUOUS
 70
64
  3
Solid line
 72
65
 73
0
 40
0.0
  0
LTYPE
  2
CENTER
 70
64
  3
____ _ ____ _ ____ _ ____ _ ____ _ ____ _ ____
 72
65
 73
4
 40
0.6
 49
0.375
 49
-0.075
 49
0.075
 49
-0.075
  0
LTYPE
  2
HIDDEN
 70
64
  3
- - - - - - - - - - - - - - - - - - - -
 72
65
 73
2
 40
0.2
 49
0.1
 49
-0.1
  0
LTYPE
  2
PHANTOM
 70
64
  3
_____ _ _ _____ _ _ _____ _ _ _____
 72
65
 73
6
 40
0.8
 49
0.45
 49
-0.05
 49
0.1
 49
-0.05
 49
0.1
 49
-0.05
  0
LTYPE
  2
DOT
 70
64
  3
. . . . . . . . . . . . . . . . . . . .
 72
65
 73
2
 40
0.2
 49
0.1
 49
-0.1
  0
LTYPE
  2
DASHED
 70
64
  3
- - - - - - - - - - - - - - - - - - - -
 72
65
 73
2
 40
0.2
 49
0.1
 49
-0.1
  0
ENDTAB
  0
TABLE
  2
LAYER
 70
36
  0
LAYER
  2
0
 70
0
 62
7
  6
CONTINUOUS
  0
LAYER
  2
DEFAULT_1
 70
0
 62
7
  6
CENTER
  0
LAYER
  2
DEFAULT_2
 70
0
 62
8
  6
HIDDEN
  0
LAYER
  2
DEFAULT_3
 70
0
 62
7
  6
PHANTOM
  0
LAYER
  2
1_AXIS
 70
0
 62
7
  6
CONTINUOUS
  0
LAYER
  2
1_DATUMPLANE
 70
0
 62
7
  6
CONTINUOUS
  0
LAYER
  2
1_DATUM_PLANE
 70
0
 62
7
  6
CONTINUOUS
  0
LAYER
  2
2_FEATURE
 70
0
 62
7
  6
CONTINUOUS
  0
LAYER
  2
3_CURVE
 70
0
 62
7
  6
CONTINUOUS
  0
LAYER
  2
4_QUILT
 70
0
 62
7
  6
CONTINUOUS
  0
LAYER
  2
6_DIM
 70
0
 62
7
  6
CONTINUOUS
  0
LAYER
  2
6_NOTE
 70
0
 62
7
  6
CONTINUOUS
  0
LAYER
  2
AXES
 70
0
 62
7
  6
CONTINUOUS
  0
LAYER
  2
CSYS
 70
0
 62
7
  6
CONTINUOUS
  0
LAYER
  2
NOTES
 70
0
 62
7
  6
CONTINUOUS
  0
LAYER
  2
PLANES
 70
0
 62
7
  6
CONTINUOUS
  0
ENDTAB
  0
TABLE
  2
STYLE
 70
1
  0
STYLE
  2
STANDARD
 70
0
 40
0.0
 41
0.8
 50
0.0
 71
0
 42
0.2
  3
txt
  4

  0
STYLE
  2
TEXTSTYLE_1
 70
0
 40
0.0
 41
0.8
 50
0.0
 71
0
 42
0.2
  3
gdt
  4

  0
STYLE
  2
TEXTSTYLE_2
 70
0
 40
0.0
 41
0.6
 50
0.0
 71
0
 42
0.2
  3
txt
  4

  0
STYLE
  2
TEXTSTYLE_3
 70
0
 40
0.0
 41
1.0
 50
0.0
 71
0
 42
0.2
  3
ftb_____.ttf
  4

  0
STYLE
  2
TEXTSTYLE_4
 70
0
 40
0.0
 41
1.0
 50
0.0
 71
0
 42
0.2
  3
fti_____.ttf
  4

  0
STYLE
  2
TEXTSTYLE_5
 70
0
 40
0.0
 41
1.0
 50
0.0
 71
0
 42
0.2
  3
frutiger light.ttf
  4

  0
STYLE
  2
TEXTSTYLE_6
 70
0
 40
0.0
 41
0.7
 50
0.0
 71
0
 42
0.2
  3
txt
  4

  0
STYLE
  2
TEXTSTYLE_7
 70
0
 40
0.0
 41
0.8
 50
0.0
 71
0
 42
0.2
  3
txt
  4

  0
ENDTAB
  0
ENDSEC
  0
SECTION
  2
BLOCKS
  0
BLOCK
  8
0
 62
2
  6
CONTINUOUS
  2
SYMBOL_8_BL1
 70
64
 10
173.5956734183
 20
35.5937998301
  0
TEXT
  8
0
 62
7
  6
CONTINUOUS
 10
164.6539584268
 20
30.6865562072
  7
TEXTSTYLE_4
 40
1.0655737705
  1
The brand for plastic modular belts and chains
 41
1.0
 72
0
  0
LINE
  8
0
 62
7
  6
CONTINUOUS
 10
149.5737418074
 20
36.1675703219
 11
149.5737418074
 21
34.0364227809
  0
LINE
  8
0
 62
7
  6
CONTINUOUS
 10
149.8628043005
 20
31.0454914852
 11
149.8628043005
 21
31.1422825445
  0
LINE
  8
0
 62
7
  6
CONTINUOUS
 10
149.5737418074
 20
31.1100188581
 11
149.6315543091
 21
30.9164367395
  0
LINE
  8
0
 62
7
  6
CONTINUOUS
 10
150.9671844304
 20
33.9544555678
 11
150.9671844304
 21
36.1675703219
  0
LINE
  8
0
 62
7
  6
CONTINUOUS
 10
151.8862417523
 20
32.1101932727
 11
151.8862417523
 21
30.5937998301
  0
LINE
  8
0
 62
7
  6
CONTINUOUS
 10
152.1753043074
 20
30.5937998301
 11
152.1753043074
 21
31.3358647082
  0
LINE
  8
0
 62
7
  6
CONTINUOUS
 10
152.1753043074
 20
31.4649194539
 11
152.1753043074
 21
32.1101932727
  0
LINE
  8
0
 62
7
  6
CONTINUOUS
 10
149.6315543091
 20
31.3036010218
 11
149.5737418074
 21
31.1100188581
  0
LINE
  8
0
 62
7
  6
CONTINUOUS
 10
149.9784292936
 20
30.8841730531
 11
149.8628043005
 21
31.0454914852
  0
LINE
  8
0
 62
7
  6
CONTINUOUS
 10
151.0768668626
 20
31.400392081
 11
151.1346793074
 21
31.3036010218
  0
LINE
  8
0
 62
7
  6
CONTINUOUS
 10
151.4237418626
 20
31.3036010218
 11
151.3659292523
 21
31.4326557675
  0
LINE
  8
0
 62
7
  6
CONTINUOUS
 10
152.852430332
 20
36.1675703219
 11
152.852430332
 21
34.3642916334
  0
LINE
  8
0
 62
7
  6
CONTINUOUS
 10
152.852430332
 20
33.0528162235
 11
152.852430332
 21
32.3970785186
  0
LINE
  8
0
 62
7
  6
CONTINUOUS
 10
153.2159293074
 20
31.2390736489
 11
153.2159293074
 21
30.5937998301
  0
LINE
  8
0
 62
7
  6
CONTINUOUS
 10
153.5049916972
 20
30.5937998301
 11
153.5049916972
 21
31.2390736489
  0
LINE
  8
0
 62
7
  6
CONTINUOUS
 10
149.8628043005
 20
31.1422825445
 11
149.9206168074
 21
31.2713373354
  0
LINE
  8
0
 62
7
  6
CONTINUOUS
 10
149.6315543091
 20
30.9164367395
 11
149.7471793074
 21
30.7873819712
  0
LINE
  8
0
 62
7
  6
CONTINUOUS
 10
153.1581166972
 20
31.3681283946
 11
153.2159293074
 21
31.2390736489
  0
LINE
  8
0
 62
7
  6
CONTINUOUS
 10
153.9674919177
 20
30.8841730531
 11
154.0253041972
 21
30.7551182848
  0
LINE
  8
0
 62
7
  6
CONTINUOUS
 10
153.5049916972
 20
31.2390736489
 11
153.4471794177
 21
31.400392081
  0
LINE
  8
0
 62
7
  6
CONTINUOUS
 10
153.9674919177
 20
31.4326557675
 11
153.9674919177
 21
31.3681283946
  0
LINE
  8
0
 62
7
  6
CONTINUOUS
 10
153.9674919177
 20
30.9809641124
 11
153.9674919177
 21
30.8841730531
  0
LINE
  8
0
 62
7
  6
CONTINUOUS
 10
154.245872955
 20
32.3970785186
 11
154.245872955
 21
36.1675703219
  0
LINE
  8
0
 62
7
  6
CONTINUOUS
 10
154.2565543074
 20
30.8519093441
 11
154.2565543074
 21
30.9164367395
  0
LINE
  8
0
 62
7
  6
CONTINUOUS
 10
154.5737418074
 20
36.1675703219
 11
154.5737418074
 21
32.3970785186
  0
LINE
  8
0
 62
7
  6
CONTINUOUS
 10
151.3659292523
 20
30.7873819712
 11
151.4237418626
 21
30.9164367395
  0
LINE
  8
0
 62
7
  6
CONTINUOUS
 10
155.759679528
 20
30.6905909007
 11
155.7018665869
 21
30.8519093441
  0
LINE
  8
0
 62
7
  6
CONTINUOUS
 10
155.412804528
 20
31.3681283946
 11
155.412804528
 21
31.2713373354
  0
LINE
  8
0
 62
7
  6
CONTINUOUS
 10
155.412804528
 20
31.1422825445
 11
155.412804528
 21
30.9487004259
  0
LINE
  8
0
 62
7
  6
CONTINUOUS
 10
155.7018665869
 20
30.8519093441
 11
155.7018665869
 21
31.3681283946
  0
LINE
  8
0
 62
7
  6
CONTINUOUS
 10
155.9671844304
 20
32.3970785186
 11
155.9671844304
 21
34.2003572071
  0
LINE
  8
0
 62
7
  6
CONTINUOUS
 10
155.9671844304
 20
35.511832617
 11
155.9671844304
 21
36.1675703219
  0
LINE
  8
0
 62
7
  6
CONTINUOUS
 10
156.279992028
 20
32.1101932727
 11
156.279992028
 21
31.9488748406
  0
LINE
  8
0
 62
7
  6
CONTINUOUS
 10
156.279992028
 20
31.626237886
 11
156.279992028
 21
30.5937998301
  0
LINE
  8
0
 62
7
  6
CONTINUOUS
 10
156.5690540869
 20
30.5937998301
 11
156.5690540869
 21
31.626237886
  0
LINE
  8
0
 62
7
  6
CONTINUOUS
 10
156.5690540869
 20
31.9488748406
 11
156.5690540869
 21
32.1101932727
  0
LINE
  8
0
 62
7
  6
CONTINUOUS
 10
151.1346793074
 20
30.9164367395
 11
151.0768668626
 21
30.8196456577
  0
LINE
  8
0
 62
7
  6
CONTINUOUS
 10
153.4471794177
 20
31.400392081
 11
153.3893668074
 21
31.4649194539
  0
LINE
  8
0
 62
7
  6
CONTINUOUS
 10
154.3143669177
 20
30.7873819712
 11
154.2565543074
 21
30.8519093441
  0
LINE
  8
0
 62
7
  6
CONTINUOUS
 10
155.4706168074
 20
30.6583272086
 11
155.5284290869
 21
30.5937998301
  0
LINE
  8
0
 62
7
  6
CONTINUOUS
 10
155.412804528
 20
30.7551182848
 11
155.4706168074
 21
30.6583272086
  0
LINE
  8
0
 62
7
  6
CONTINUOUS
 10
155.8174918074
 20
30.5937998301
 11
155.759679528
 21
30.6905909007
  0
LINE
  8
0
 62
7
  6
CONTINUOUS
 10
155.7018665869
 20
31.3681283946
 11
155.6440543074
 21
31.4649194539
  0
LINE
  8
0
 62
7
  6
CONTINUOUS
 10
157.0315543074
 20
31.626237886
 11
157.0315543074
 21
30.5937998301
  0
LINE
  8
0
 62
7
  6
CONTINUOUS
 10
157.320617028
 20
30.5937998301
 11
157.320617028
 21
31.3358647082
  0
LINE
  8
0
 62
7
  6
CONTINUOUS
 10
157.320617028
 20
31.4649194539
 11
157.320617028
 21
31.626237886
  0
LINE
  8
0
 62
7
  6
CONTINUOUS
 10
157.852430332
 20
34.6101932727
 11
157.852430332
 21
32.3970785186
  0
LINE
  8
0
 62
7
  6
CONTINUOUS
 10
149.7471793074
 20
31.4326557675
 11
149.6315543091
 21
31.3036010218
  0
LINE
  8
0
 62
7
  6
CONTINUOUS
 10
149.9206168074
 20
31.2713373354
 11
149.9784292936
 21
31.3358647082
  0
LINE
  8
0
 62
7
  6
CONTINUOUS
 10
149.7471793074
 20
30.7873819712
 11
149.8628043005
 21
30.7228545871
  0
LINE
  8
0
 62
7
  6
CONTINUOUS
 10
150.1518667936
 20
30.7873819712
 11
149.9784292936
 21
30.8841730531
  0
LINE
  8
0
 62
7
  6
CONTINUOUS
 10
155.3549915869
 20
31.4326557675
 11
155.412804528
 21
31.3681283946
  0
LINE
  8
0
 62
7
  6
CONTINUOUS
 10
158.3034290869
 20
31.3681283946
 11
158.361242028
 21
31.2068099625
  0
LINE
  8
0
 62
7
  6
CONTINUOUS
 10
158.6503040869
 20
31.2068099625
 11
158.5924918074
 21
31.3681283946
  0
LINE
  8
0
 62
7
  6
CONTINUOUS
 10
158.361242028
 20
31.2068099625
 11
158.361242028
 21
30.5937998301
  0
LINE
  8
0
 62
7
  6
CONTINUOUS
 10
158.6503040869
 20
30.5937998301
 11
158.6503040869
 21
31.2068099625
  0
LINE
  8
0
 62
7
  6
CONTINUOUS
 10
159.1128043074
 20
31.4326557675
 11
159.1128043074
 21
31.3681283946
  0
LINE
  8
0
 62
7
  6
CONTINUOUS
 10
159.245872955
 20
32.3970785186
 11
159.245872955
 21
34.5282260596
  0
LINE
  8
0
 62
7
  6
CONTINUOUS
 10
159.5737418074
 20
36.1675703219
 11
159.5737418074
 21
32.3970785186
  0
LINE
  8
0
 62
7
  6
CONTINUOUS
 10
154.2565543074
 20
30.9164367395
 11
154.3143669177
 21
31.0132277988
  0
LINE
  8
0
 62
7
  6
CONTINUOUS
 10
149.8628043005
 20
30.7228545871
 11
150.0362418212
 21
30.6583272086
  0
LINE
  8
0
 62
7
  6
CONTINUOUS
 10
151.3659292523
 20
31.4326557675
 11
151.1924917523
 21
31.5294468267
  0
LINE
  8
0
 62
7
  6
CONTINUOUS
 10
154.0253041972
 20
30.7551182848
 11
154.1987416972
 21
30.6583272086
  0
LINE
  8
0
 62
7
  6
CONTINUOUS
 10
153.0424918074
 20
31.4326557675
 11
153.1581166972
 21
31.3681283946
  0
LINE
  8
0
 62
7
  6
CONTINUOUS
 10
153.3893668074
 20
31.4649194539
 11
153.2737419177
 21
31.5294468267
  0
LINE
  8
0
 62
7
  6
CONTINUOUS
 10
159.1128043074
 20
30.8519093441
 11
159.228429528
 21
30.7228545871
  0
LINE
  8
0
 62
7
  6
CONTINUOUS
 10
159.4596793074
 20
30.7873819712
 11
159.401867028
 21
30.8519093441
  0
LINE
  8
0
 62
7
  6
CONTINUOUS
 10
159.1128043074
 20
31.3681283946
 11
159.228429528
 21
31.2390736489
  0
LINE
  8
0
 62
7
  6
CONTINUOUS
 10
158.5924918074
 20
31.3681283946
 11
158.534679528
 21
31.4649194539
  0
LINE
  8
0
 62
7
  6
CONTINUOUS
 10
160.9628038663
 20
30.7873819712
 11
160.9628038663
 21
30.8519093441
  0
LINE
  8
0
 62
7
  6
CONTINUOUS
 10
160.9671844304
 20
32.3970785186
 11
160.9671844304
 21
36.1675703219
  0
LINE
  8
0
 62
7
  6
CONTINUOUS
 10
154.0253041972
 20
31.4971831403
 11
153.9674919177
 21
31.4326557675
  0
LINE
  8
0
 62
7
  6
CONTINUOUS
 10
150.9034292799
 20
31.4649194539
 11
151.0768668626
 21
31.400392081
  0
LINE
  8
0
 62
7
  6
CONTINUOUS
 10
155.6440543074
 20
31.4649194539
 11
155.5284290869
 21
31.5294468267
  0
LINE
  8
0
 62
7
  6
CONTINUOUS
 10
159.4596793074
 20
31.3036010218
 11
159.401867028
 21
31.3681283946
  0
LINE
  8
0
 62
7
  6
CONTINUOUS
 10
160.615929528
 20
30.9164367395
 11
160.6737418074
 21
30.8519093441
  0
LINE
  8
0
 62
7
  6
CONTINUOUS
 10
160.9628038663
 20
30.8519093441
 11
160.8471793074
 21
30.9809641124
  0
LINE
  8
0
 62
7
  6
CONTINUOUS
 10
160.615929528
 20
31.4326557675
 11
160.6737418074
 21
31.3681283946
  0
LINE
  8
0
 62
7
  6
CONTINUOUS
 10
160.9628038663
 20
31.3681283946
 11
160.8471793074
 21
31.4971831403
  0
LINE
  8
0
 62
7
  6
CONTINUOUS
 10
154.2565543074
 20
31.3681283946
 11
154.3143669177
 21
31.4326557675
  0
LINE
  8
0
 62
7
  6
CONTINUOUS
 10
154.0831168074
 20
31.1100188581
 11
153.9674919177
 21
30.9809641124
  0
LINE
  8
0
 62
7
  6
CONTINUOUS
 10
155.412804528
 20
30.9487004259
 11
155.3549915869
 21
30.8841730531
  0
LINE
  8
0
 62
7
  6
CONTINUOUS
 10
155.3549915869
 20
30.6905909007
 11
155.412804528
 21
30.7551182848
  0
LINE
  8
0
 62
7
  6
CONTINUOUS
 10
154.1987416972
 20
30.6583272086
 11
154.3143669177
 21
30.6260635193
  0
LINE
  8
0
 62
7
  6
CONTINUOUS
 10
151.1924917523
 20
31.5294468267
 11
150.9612418074
 21
31.5939741996
  0
LINE
  8
0
 62
7
  6
CONTINUOUS
 10
154.5456166972
 20
30.7228545871
 11
154.3143669177
 21
30.7873819712
  0
LINE
  8
0
 62
7
  6
CONTINUOUS
 10
153.2737419177
 20
31.5294468267
 11
153.1003044177
 21
31.5939741996
  0
LINE
  8
0
 62
7
  6
CONTINUOUS
 10
155.5284290869
 20
31.5294468267
 11
155.3549915869
 21
31.5939741996
  0
LINE
  8
0
 62
7
  6
CONTINUOUS
 10
158.187804528
 20
31.4326557675
 11
158.3034290869
 21
31.3681283946
  0
LINE
  8
0
 62
7
  6
CONTINUOUS
 10
158.534679528
 20
31.4649194539
 11
158.4190543074
 21
31.5294468267
  0
LINE
  8
0
 62
7
  6
CONTINUOUS
 10
150.0362418212
 20
30.6583272086
 11
150.2096793212
 21
30.6260635193
  0
LINE
  8
0
 62
7
  6
CONTINUOUS
 10
150.498741835
 20
30.7228545871
 11
150.1518667936
 21
30.7873819712
  0
LINE
  8
0
 62
7
  6
CONTINUOUS
 10
152.9268669177
 20
31.4649194539
 11
153.0424918074
 21
31.4326557675
  0
LINE
  8
0
 62
7
  6
CONTINUOUS
 10
155.239367028
 20
31.4649194539
 11
155.3549915869
 21
31.4326557675
  0
LINE
  8
0
 62
7
  6
CONTINUOUS
 10
159.575304528
 20
30.7551182848
 11
159.4596793074
 21
30.7873819712
  0
LINE
  8
0
 62
7
  6
CONTINUOUS
 10
158.0721793074
 20
31.4649194539
 11
158.187804528
 21
31.4326557675
  0
LINE
  8
0
 62
7
  6
CONTINUOUS
 10
159.228429528
 20
30.7228545871
 11
159.401867028
 21
30.6583272086
  0
LINE
  8
0
 62
7
  6
CONTINUOUS
 10
158.4190543074
 20
31.5294468267
 11
158.2456168074
 21
31.5939741996
  0
LINE
  8
0
 62
7
  6
CONTINUOUS
 10
159.6331168074
 20
31.2390736489
 11
159.4596793074
 21
31.3036010218
  0
LINE
  8
0
 62
7
  6
CONTINUOUS
 10
160.442492028
 20
30.9809641124
 11
160.615929528
 21
30.9164367395
  0
LINE
  8
0
 62
7
  6
CONTINUOUS
 10
160.8471793074
 20
31.4971831403
 11
160.6737418074
 21
31.5617105132
  0
LINE
  8
0
 62
7
  6
CONTINUOUS
 10
159.228429528
 20
31.2390736489
 11
159.4596793074
 21
31.1422825445
  0
LINE
  8
0
 62
7
  6
CONTINUOUS
 10
160.8471793074
 20
30.9809641124
 11
160.615929528
 21
31.0777551716
  0
LINE
  8
0
 62
7
  6
CONTINUOUS
 10
159.401867028
 20
31.3681283946
 11
159.4596793074
 21
31.4326557675
  0
LINE
  8
0
 62
7
  6
CONTINUOUS
 10
149.8628043005
 20
31.4971831403
 11
149.7471793074
 21
31.4326557675
  0
LINE
  8
0
 62
7
  6
CONTINUOUS
 10
149.9784292936
 20
31.3358647082
 11
150.1518667936
 21
31.4326557675
  0
LINE
  8
0
 62
7
  6
CONTINUOUS
 10
152.2909293626
 20
31.5294468267
 11
152.1753043074
 21
31.4649194539
  0
LINE
  8
0
 62
7
  6
CONTINUOUS
 10
152.1753043074
 20
31.3358647082
 11
152.2909293626
 21
31.400392081
  0
LINE
  8
0
 62
7
  6
CONTINUOUS
 10
151.1924917523
 20
30.6905909007
 11
151.3659292523
 21
30.7873819712
  0
LINE
  8
0
 62
7
  6
CONTINUOUS
 10
150.2096793212
 20
30.6260635193
 11
150.5565542799
 21
30.5937998301
  0
LINE
  8
0
 62
7
  6
CONTINUOUS
 10
154.3143669177
 20
30.6260635193
 11
154.5456166972
 21
30.5937998301
  0
LINE
  8
0
 62
7
  6
CONTINUOUS
 10
152.6956168074
 20
31.4971831403
 11
152.9268669177
 21
31.4649194539
  0
LINE
  8
0
 62
7
  6
CONTINUOUS
 10
155.0081169177
 20
31.4971831403
 11
155.239367028
 21
31.4649194539
  0
LINE
  8
0
 62
7
  6
CONTINUOUS
 10
159.4596793074
 20
31.1422825445
 11
160.442492028
 21
30.9809641124
  0
LINE
  8
0
 62
7
  6
CONTINUOUS
 10
160.615929528
 20
31.0777551716
 11
159.6331168074
 21
31.2390736489
  0
LINE
  8
0
 62
7
  6
CONTINUOUS
 10
153.1003044177
 20
31.5939741996
 11
152.9268669177
 21
31.626237886
  0
LINE
  8
0
 62
7
  6
CONTINUOUS
 10
159.401867028
 20
30.6583272086
 11
159.575304528
 21
30.6260635193
  0
LINE
  8
0
 62
7
  6
CONTINUOUS
 10
158.2456168074
 20
31.5939741996
 11
158.0721793074
 21
31.626237886
  0
LINE
  8
0
 62
7
  6
CONTINUOUS
 10
160.5003043074
 20
31.4649194539
 11
160.615929528
 21
31.4326557675
  0
LINE
  8
0
 62
7
  6
CONTINUOUS
 10
160.6737418074
 20
30.8519093441
 11
160.615929528
 21
30.7873819712
  0
LINE
  8
0
 62
7
  6
CONTINUOUS
 10
159.228429528
 20
31.5294468267
 11
159.1128043074
 21
31.4326557675
  0
LINE
  8
0
 62
7
  6
CONTINUOUS
 10
154.1409294177
 20
31.5617105132
 11
154.0253041972
 21
31.4971831403
  0
LINE
  8
0
 62
7
  6
CONTINUOUS
 10
154.1987416972
 20
31.1745462761
 11
154.0831168074
 21
31.1100188581
  0
LINE
  8
0
 62
7
  6
CONTINUOUS
 10
154.3143669177
 20
31.0132277988
 11
154.4299918074
 21
31.0777551716
  0
LINE
  8
0
 62
7
  6
CONTINUOUS
 10
151.8862417523
 20
30.5937998301
 11
152.1753043074
 21
30.5937998301
  0
LINE
  8
0
 62
7
  6
CONTINUOUS
 10
153.2159293074
 20
30.5937998301
 11
153.5049916972
 21
30.5937998301
  0
LINE
  8
0
 62
7
  6
CONTINUOUS
 10
154.5456166972
 20
30.5937998301
 11
154.8924916972
 21
30.5937998301
  0
LINE
  8
0
 62
7
  6
CONTINUOUS
 10
155.5284290869
 20
30.5937998301
 11
155.8174918074
 21
30.5937998301
  0
LINE
  8
0
 62
7
  6
CONTINUOUS
 10
156.279992028
 20
30.5937998301
 11
156.5690540869
 21
30.5937998301
  0
LINE
  8
0
 62
7
  6
CONTINUOUS
 10
157.0315543074
 20
30.5937998301
 11
157.320617028
 21
30.5937998301
  0
LINE
  8
0
 62
7
  6
CONTINUOUS
 10
158.361242028
 20
30.5937998301
 11
158.6503040869
 21
30.5937998301
  0
LINE
  8
0
 62
7
  6
CONTINUOUS
 10
159.922179528
 20
30.5937998301
 11
160.269054528
 21
30.5937998301
  0
LINE
  8
0
 62
7
  6
CONTINUOUS
 10
160.269054528
 20
30.7228545871
 11
159.922179528
 21
30.7228545871
  0
LINE
  8
0
 62
7
  6
CONTINUOUS
 10
154.8924916972
 20
30.7228545871
 11
154.5456166972
 21
30.7228545871
  0
LINE
  8
0
 62
7
  6
CONTINUOUS
 10
159.401867028
 20
30.8519093441
 11
159.1128043074
 21
30.8519093441
  0
LINE
  8
0
 62
7
  6
CONTINUOUS
 10
151.4237418626
 20
30.9164367395
 11
151.1346793074
 21
30.9164367395
  0
LINE
  8
0
 62
7
  6
CONTINUOUS
 10
150.498741835
 20
31.4971831403
 11
150.9034292799
 21
31.4649194539
  0
LINE
  8
0
 62
7
  6
CONTINUOUS
 10
150.9612418074
 20
31.5939741996
 11
150.5565542799
 21
31.626237886
  0
LINE
  8
0
 62
7
  6
CONTINUOUS
 10
159.575304528
 20
30.6260635193
 11
159.922179528
 21
30.5937998301
  0
LINE
  8
0
 62
7
  6
CONTINUOUS
 10
159.922179528
 20
30.7228545871
 11
159.575304528
 21
30.7551182848
  0
LINE
  8
0
 62
7
  6
CONTINUOUS
 10
155.3549915869
 20
31.5939741996
 11
155.0081169177
 21
31.626237886
  0
LINE
  8
0
 62
7
  6
CONTINUOUS
 10
160.1534293074
 20
31.4971831403
 11
160.5003043074
 21
31.4649194539
  0
LINE
  8
0
 62
7
  6
CONTINUOUS
 10
160.5003043074
 20
31.5939741996
 11
160.1534293074
 21
31.626237886
  0
LINE
  8
0
 62
7
  6
CONTINUOUS
 10
157.840929528
 20
31.4971831403
 11
158.0721793074
 21
31.4649194539
  0
LINE
  8
0
 62
7
  6
CONTINUOUS
 10
160.6737418074
 20
31.5617105132
 11
160.5003043074
 21
31.5939741996
  0
LINE
  8
0
 62
7
  6
CONTINUOUS
 10
160.8471793074
 20
30.6905909007
 11
160.9628038663
 21
30.7873819712
  0
LINE
  8
0
 62
7
  6
CONTINUOUS
 10
155.3549915869
 20
30.8841730531
 11
155.1815540869
 21
30.7873819712
  0
LINE
  8
0
 62
7
  6
CONTINUOUS
 10
157.4362415869
 20
31.5294468267
 11
157.320617028
 21
31.4649194539
  0
LINE
  8
0
 62
7
  6
CONTINUOUS
 10
157.320617028
 20
31.3358647082
 11
157.4362415869
 21
31.400392081
  0
LINE
  8
0
 62
7
  6
CONTINUOUS
 10
150.0362418212
 20
31.5617105132
 11
149.8628043005
 21
31.4971831403
  0
LINE
  8
0
 62
7
  6
CONTINUOUS
 10
152.4643666972
 20
31.5939741996
 11
152.2909293626
 21
31.5294468267
  0
LINE
  8
0
 62
7
  6
CONTINUOUS
 10
152.2909293626
 20
31.400392081
 11
152.4643666972
 21
31.4649194539
  0
LINE
  8
0
 62
7
  6
CONTINUOUS
 10
151.0768668626
 20
30.8196456577
 11
150.9034292799
 21
30.7551182848
  0
LINE
  8
0
 62
7
  6
CONTINUOUS
 10
160.5003043074
 20
30.7551182848
 11
160.269054528
 21
30.7228545871
  0
LINE
  8
0
 62
7
  6
CONTINUOUS
 10
154.8924916972
 20
30.5937998301
 11
155.1815540869
 21
30.6260635193
  0
LINE
  8
0
 62
7
  6
CONTINUOUS
 10
160.269054528
 20
30.5937998301
 11
160.615929528
 21
30.6260635193
  0
LINE
  8
0
 62
7
  6
CONTINUOUS
 10
150.5565542799
 20
30.5937998301
 11
150.9612418074
 21
30.6260635193
  0
LINE
  8
0
 62
7
  6
CONTINUOUS
 10
150.9034292799
 20
30.7551182848
 11
150.498741835
 21
30.7228545871
  0
LINE
  8
0
 62
7
  6
CONTINUOUS
 10
154.7768668074
 20
31.1422825445
 11
155.412804528
 21
31.1422825445
  0
LINE
  8
0
 62
7
  6
CONTINUOUS
 10
155.412804528
 20
31.2713373354
 11
154.7768668074
 21
31.2713373354
  0
LINE
  8
0
 62
7
  6
CONTINUOUS
 10
151.1346793074
 20
31.3036010218
 11
151.4237418626
 21
31.3036010218
  0
LINE
  8
0
 62
7
  6
CONTINUOUS
 10
153.9674919177
 20
31.3681283946
 11
154.2565543074
 21
31.3681283946
  0
LINE
  8
0
 62
7
  6
CONTINUOUS
 10
160.6737418074
 20
31.3681283946
 11
160.9628038663
 21
31.3681283946
  0
LINE
  8
0
 62
7
  6
CONTINUOUS
 10
154.6612419177
 20
31.4971831403
 11
155.0081169177
 21
31.4971831403
  0
LINE
  8
0
 62
7
  6
CONTINUOUS
 10
159.8065543074
 20
31.4971831403
 11
160.1534293074
 21
31.4971831403
  0
LINE
  8
0
 62
7
  6
CONTINUOUS
 10
160.1534293074
 20
31.626237886
 11
159.8065543074
 21
31.626237886
  0
LINE
  8
0
 62
7
  6
CONTINUOUS
 10
158.0721793074
 20
31.626237886
 11
157.840929528
 21
31.626237886
  0
LINE
  8
0
 62
7
  6
CONTINUOUS
 10
157.320617028
 20
31.626237886
 11
157.0315543074
 21
31.626237886
  0
LINE
  8
0
 62
7
  6
CONTINUOUS
 10
156.5690540869
 20
31.626237886
 11
156.279992028
 21
31.626237886
  0
LINE
  8
0
 62
7
  6
CONTINUOUS
 10
155.0081169177
 20
31.626237886
 11
154.6612419177
 21
31.626237886
  0
LINE
  8
0
 62
7
  6
CONTINUOUS
 10
152.9268669177
 20
31.626237886
 11
152.6956168074
 21
31.626237886
  0
LINE
  8
0
 62
7
  6
CONTINUOUS
 10
156.279992028
 20
31.9488748406
 11
156.5690540869
 21
31.9488748406
  0
LINE
  8
0
 62
7
  6
CONTINUOUS
 10
156.5690540869
 20
32.1101932727
 11
156.279992028
 21
32.1101932727
  0
LINE
  8
0
 62
7
  6
CONTINUOUS
 10
152.1753043074
 20
32.1101932727
 11
151.8862417523
 21
32.1101932727
  0
LINE
  8
0
 62
7
  6
CONTINUOUS
 10
151.2130860697
 20
32.3970785186
 11
151.6256574183
 21
32.3970785186
  0
LINE
  8
0
 62
7
  6
CONTINUOUS
 10
152.852430332
 20
32.3970785186
 11
154.245872955
 21
32.3970785186
  0
LINE
  8
0
 62
7
  6
CONTINUOUS
 10
154.5737418074
 20
32.3970785186
 11
155.9671844304
 21
32.3970785186
  0
LINE
  8
0
 62
7
  6
CONTINUOUS
 10
157.852430332
 20
32.3970785186
 11
159.245872955
 21
32.3970785186
  0
LINE
  8
0
 62
7
  6
CONTINUOUS
 10
159.5737418074
 20
32.3970785186
 11
160.9671844304
 21
32.3970785186
  0
LINE
  8
0
 62
7
  6
CONTINUOUS
 10
157.6096790869
 20
31.5939741996
 11
157.4362415869
 21
31.5294468267
  0
LINE
  8
0
 62
7
  6
CONTINUOUS
 10
155.1815540869
 20
30.6260635193
 11
155.3549915869
 21
30.6905909007
  0
LINE
  8
0
 62
7
  6
CONTINUOUS
 10
160.615929528
 20
30.6260635193
 11
160.8471793074
 21
30.6905909007
  0
LINE
  8
0
 62
7
  6
CONTINUOUS
 10
160.615929528
 20
30.7873819712
 11
160.5003043074
 21
30.7551182848
  0
LINE
  8
0
 62
7
  6
CONTINUOUS
 10
159.575304528
 20
31.4649194539
 11
159.8065543074
 21
31.4971831403
  0
LINE
  8
0
 62
7
  6
CONTINUOUS
 10
157.6096790869
 20
31.4649194539
 11
157.840929528
 21
31.4971831403
  0
LINE
  8
0
 62
7
  6
CONTINUOUS
 10
154.5456166972
 20
31.1100188581
 11
154.7768668074
 21
31.1422825445
  0
LINE
  8
0
 62
7
  6
CONTINUOUS
 10
157.840929528
 20
31.626237886
 11
157.6096790869
 21
31.5939741996
  0
LINE
  8
0
 62
7
  6
CONTINUOUS
 10
154.4299918074
 20
31.4649194539
 11
154.6612419177
 21
31.4971831403
  0
LINE
  8
0
 62
7
  6
CONTINUOUS
 10
159.8065543074
 20
31.626237886
 11
159.4596793074
 21
31.5939741996
  0
LINE
  8
0
 62
7
  6
CONTINUOUS
 10
154.7768668074
 20
31.2713373354
 11
154.4299918074
 21
31.2390736489
  0
LINE
  8
0
 62
7
  6
CONTINUOUS
 10
150.5565542799
 20
31.626237886
 11
150.2096793212
 21
31.5939741996
  0
LINE
  8
0
 62
7
  6
CONTINUOUS
 10
154.6612419177
 20
31.626237886
 11
154.2565543074
 21
31.5939741996
  0
LINE
  8
0
 62
7
  6
CONTINUOUS
 10
152.0327582009
 20
33.5446195022
 11
151.3770204959
 21
33.5446195022
  0
LINE
  8
0
 62
7
  6
CONTINUOUS
 10
157.4362415869
 20
31.400392081
 11
157.6096790869
 21
31.4649194539
  0
LINE
  8
0
 62
7
  6
CONTINUOUS
 10
159.4596793074
 20
31.4326557675
 11
159.575304528
 21
31.4649194539
  0
LINE
  8
0
 62
7
  6
CONTINUOUS
 10
159.4596793074
 20
31.5939741996
 11
159.228429528
 21
31.5294468267
  0
LINE
  8
0
 62
7
  6
CONTINUOUS
 10
155.1815540869
 20
30.7873819712
 11
154.8924916972
 21
30.7228545871
  0
LINE
  8
0
 62
7
  6
CONTINUOUS
 10
152.4643666972
 20
31.4649194539
 11
152.6956168074
 21
31.4971831403
  0
LINE
  8
0
 62
7
  6
CONTINUOUS
 10
152.6956168074
 20
31.626237886
 11
152.4643666972
 21
31.5939741996
  0
LINE
  8
0
 62
7
  6
CONTINUOUS
 10
150.2674918074
 20
31.4649194539
 11
150.498741835
 21
31.4971831403
  0
LINE
  8
0
 62
7
  6
CONTINUOUS
 10
156.7868565615
 20
35.0200293383
 11
157.4425942664
 21
35.0200293383
  0
LINE
  8
0
 62
7
  6
CONTINUOUS
 10
154.4299918074
 20
31.0777551716
 11
154.5456166972
 21
31.1100188581
  0
LINE
  8
0
 62
7
  6
CONTINUOUS
 10
154.4299918074
 20
31.2390736489
 11
154.1987416972
 21
31.1745462761
  0
LINE
  8
0
 62
7
  6
CONTINUOUS
 10
154.3143669177
 20
31.4326557675
 11
154.4299918074
 21
31.4649194539
  0
LINE
  8
0
 62
7
  6
CONTINUOUS
 10
150.9612418074
 20
30.6260635193
 11
151.1924917523
 21
30.6905909007
  0
LINE
  8
0
 62
7
  6
CONTINUOUS
 10
154.2565543074
 20
31.5939741996
 11
154.1409294177
 21
31.5617105132
  0
LINE
  8
0
 62
7
  6
CONTINUOUS
 10
150.2096793212
 20
31.5939741996
 11
150.0362418212
 21
31.5617105132
  0
LINE
  8
0
 62
7
  6
CONTINUOUS
 10
160.9671844304
 20
36.1675703219
 11
159.5737418074
 21
36.1675703219
  0
LINE
  8
0
 62
7
  6
CONTINUOUS
 10
157.6065286927
 20
36.1675703219
 11
157.1939573441
 21
36.1675703219
  0
LINE
  8
0
 62
7
  6
CONTINUOUS
 10
155.9671844304
 20
36.1675703219
 11
154.5737418074
 21
36.1675703219
  0
LINE
  8
0
 62
7
  6
CONTINUOUS
 10
154.245872955
 20
36.1675703219
 11
152.852430332
 21
36.1675703219
  0
LINE
  8
0
 62
7
  6
CONTINUOUS
 10
150.9671844304
 20
36.1675703219
 11
149.5737418074
 21
36.1675703219
  0
LINE
  8
0
 62
7
  6
CONTINUOUS
 10
150.1518667936
 20
31.4326557675
 11
150.2674918074
 21
31.4649194539
  0
CIRCLE
  8
0
 62
7
  6
CONTINUOUS
 10
160.2704631189
 20
38.5036358957
 40
2.0901639344
  0
ARC
  8
0
 62
7
  6
CONTINUOUS
 10
151.2130860697
 20
34.0364227809
 40
1.6393442623
 50
180.0
 51
270.0
  0
ARC
  8
0
 62
7
  6
CONTINUOUS
 10
157.6065286927
 20
34.5282260596
 40
1.6393442623
 50
0.0
 51
90.0
  0
ARC
  8
0
 62
7
  6
CONTINUOUS
 10
151.6256574183
 20
33.8724883547
 40
1.4754098361
 50
270.0
 51
326.2510114041
  0
ARC
  8
0
 62
7
  6
CONTINUOUS
 10
157.1939573441
 20
34.6921604858
 40
1.4754098361
 50
90.0
 51
146.2510114041
  0
ARC
  8
0
 62
7
  6
CONTINUOUS
 10
152.0327582009
 20
34.3642916334
 40
0.8196721311
 50
270.0
 51
360.0
  0
ARC
  8
0
 62
7
  6
CONTINUOUS
 10
156.7868565615
 20
34.2003572071
 40
0.8196721311
 50
90.0
 51
180.0
  0
ARC
  8
0
 62
7
  6
CONTINUOUS
 10
151.3770204959
 20
33.9544555678
 40
0.4098360656
 50
180.0
 51
270.0
  0
ARC
  8
0
 62
7
  6
CONTINUOUS
 10
157.4425942664
 20
34.6101932727
 40
0.4098360656
 50
0.0
 51
90.0
  0
SOLID
  8
0
 62
7
  6
CONTINUOUS
 10
156.279992028
 20
31.9488752009
 11
156.279992028
 21
32.1101936845
 12
156.5690540869
 22
31.9488752009
 13
156.5690540869
 23
32.1101936845
  0
SOLID
  8
0
 62
7
  6
CONTINUOUS
 10
150.5565542799
 20
31.6262382337
 11
150.9612418074
 21
31.5939740028
 12
150.2096793212
 22
31.5939740028
 13
150.2096793212
 23
31.5939740028
  0
SOLID
  8
0
 62
7
  6
CONTINUOUS
 10
150.0362418212
 20
31.5617111435
 11
150.2096793212
 21
31.5939740028
 12
150.9612418074
 22
31.5939740028
 13
150.9612418074
 23
31.5939740028
  0
SOLID
  8
0
 62
7
  6
CONTINUOUS
 10
150.9612418074
 20
31.5939740028
 11
151.1924917523
 21
31.5294468402
 12
150.0362418212
 22
31.5617111435
 13
150.0362418212
 23
31.5617111435
  0
SOLID
  8
0
 62
7
  6
CONTINUOUS
 10
149.8628043005
 20
31.49718259
 11
150.0362418212
 21
31.5617111435
 12
151.1924917523
 22
31.5294468402
 13
151.1924917523
 23
31.5294468402
  0
SOLID
  8
0
 62
7
  6
CONTINUOUS
 10
149.8628043005
 20
31.49718259
 11
151.1924917523
 21
31.5294468402
 12
150.498741835
 22
31.49718259
 13
150.498741835
 23
31.49718259
  0
SOLID
  8
0
 62
7
  6
CONTINUOUS
 10
150.498741835
 20
31.49718259
 11
151.1924917523
 21
31.5294468402
 12
150.9034292799
 22
31.4649197501
 13
150.9034292799
 23
31.4649197501
  0
SOLID
  8
0
 62
7
  6
CONTINUOUS
 10
151.1924917523
 20
31.5294468402
 11
151.3659292523
 21
31.4326554468
 12
150.9034292799
 22
31.4649197501
 13
150.9034292799
 23
31.4649197501
  0
SOLID
  8
0
 62
7
  6
CONTINUOUS
 10
151.0768668626
 20
31.4003926599
 11
150.9034292799
 21
31.4649197501
 12
151.3659292523
 22
31.4326554468
 13
151.3659292523
 23
31.4326554468
  0
SOLID
  8
0
 62
7
  6
CONTINUOUS
 10
151.0768668626
 20
31.4003926599
 11
151.3659292523
 21
31.4326554468
 12
151.1346793074
 22
31.3036013776
 13
151.1346793074
 23
31.3036013776
  0
SOLID
  8
0
 62
7
  6
CONTINUOUS
 10
151.3659292523
 20
31.4326554468
 11
151.4237418626
 21
31.3036013776
 12
151.1346793074
 22
31.3036013776
 13
151.1346793074
 23
31.3036013776
  0
SOLID
  8
0
 62
7
  6
CONTINUOUS
 10
152.4643666972
 20
31.5939739754
 11
152.6956168074
 21
31.6262382787
 12
152.9268669177
 22
31.6262382787
 13
152.9268669177
 23
31.6262382787
  0
SOLID
  8
0
 62
7
  6
CONTINUOUS
 10
152.9268669177
 20
31.6262382787
 11
153.1003044177
 21
31.5939739754
 12
152.4643666972
 22
31.5939739754
 13
152.4643666972
 23
31.5939739754
  0
SOLID
  8
0
 62
7
  6
CONTINUOUS
 10
152.2909293626
 20
31.5294468852
 11
152.4643666972
 21
31.5939739754
 12
153.1003044177
 22
31.5939739754
 13
153.1003044177
 23
31.5939739754
  0
SOLID
  8
0
 62
7
  6
CONTINUOUS
 10
153.1003044177
 20
31.5939739754
 11
153.2737419177
 21
31.5294468852
 12
152.2909293626
 22
31.5294468852
 13
152.2909293626
 23
31.5294468852
  0
SOLID
  8
0
 62
7
  6
CONTINUOUS
 10
153.2737419177
 20
31.5294468852
 11
152.6956168074
 21
31.4971825369
 12
152.2909293626
 22
31.5294468852
 13
152.2909293626
 23
31.5294468852
  0
SOLID
  8
0
 62
7
  6
CONTINUOUS
 10
152.1753043074
 20
31.4649197951
 11
152.2909293626
 21
31.5294468852
 12
152.6956168074
 22
31.4971825369
 13
152.6956168074
 23
31.4971825369
  0
SOLID
  8
0
 62
7
  6
CONTINUOUS
 10
152.6956168074
 20
31.4971825369
 11
152.4643666972
 21
31.4649197951
 12
152.1753043074
 22
31.4649197951
 13
152.1753043074
 23
31.4649197951
  0
SOLID
  8
0
 62
7
  6
CONTINUOUS
 10
152.6956168074
 20
31.4971825369
 11
153.2737419177
 21
31.5294468852
 12
152.9268669177
 22
31.4649197951
 13
152.9268669177
 23
31.4649197951
  0
SOLID
  8
0
 62
7
  6
CONTINUOUS
 10
153.2737419177
 20
31.5294468852
 11
153.3893668074
 21
31.4649197951
 12
152.9268669177
 22
31.4649197951
 13
152.9268669177
 23
31.4649197951
  0
SOLID
  8
0
 62
7
  6
CONTINUOUS
 10
153.0424918074
 20
31.4326554468
 11
152.9268669177
 21
31.4649197951
 12
153.3893668074
 22
31.4649197951
 13
153.3893668074
 23
31.4649197951
  0
SOLID
  8
0
 62
7
  6
CONTINUOUS
 10
153.3893668074
 20
31.4649197951
 11
153.4471794177
 21
31.4003927049
 12
153.0424918074
 22
31.4326554468
 13
153.0424918074
 23
31.4326554468
  0
SOLID
  8
0
 62
7
  6
CONTINUOUS
 10
153.1581166972
 20
31.3681283566
 11
153.0424918074
 21
31.4326554468
 12
153.4471794177
 22
31.4003927049
 13
153.4471794177
 23
31.4003927049
  0
SOLID
  8
0
 62
7
  6
CONTINUOUS
 10
153.1581166972
 20
31.3681283566
 11
153.4471794177
 21
31.4003927049
 12
153.2159293074
 22
31.2390742213
 13
153.2159293074
 23
31.2390742213
  0
SOLID
  8
0
 62
7
  6
CONTINUOUS
 10
153.4471794177
 20
31.4003927049
 11
153.5049916972
 21
31.2390742213
 12
153.2159293074
 22
31.2390742213
 13
153.2159293074
 23
31.2390742213
  0
SOLID
  8
0
 62
7
  6
CONTINUOUS
 10
152.4643666972
 20
31.4649197951
 11
152.2909293626
 21
31.4003927049
 12
152.1753043074
 22
31.4649197951
 13
152.1753043074
 23
31.4649197951
  0
SOLID
  8
0
 62
7
  6
CONTINUOUS
 10
152.2909293626
 20
31.4003927049
 11
152.1753043074
 21
31.3358640533
 12
152.1753043074
 22
31.4649197951
 13
152.1753043074
 23
31.4649197951
  0
SOLID
  8
0
 62
7
  6
CONTINUOUS
 10
152.1753043074
 20
31.3358640533
 11
151.8862417523
 21
30.5938002869
 12
152.1753043074
 22
31.4649197951
 13
152.1753043074
 23
31.4649197951
  0
SOLID
  8
0
 62
7
  6
CONTINUOUS
 10
152.1753043074
 20
31.4649197951
 11
151.8862417523
 21
30.5938002869
 12
152.1753043074
 22
32.1101937295
 13
152.1753043074
 23
32.1101937295
  0
SOLID
  8
0
 62
7
  6
CONTINUOUS
 10
151.8862417523
 20
30.5938002869
 11
151.8862417523
 21
32.1101937295
 12
152.1753043074
 22
32.1101937295
 13
152.1753043074
 23
32.1101937295
  0
SOLID
  8
0
 62
7
  6
CONTINUOUS
 10
152.1753043074
 20
31.3358640533
 11
152.1753043074
 21
30.5938002869
 12
151.8862417523
 22
30.5938002869
 13
151.8862417523
 23
30.5938002869
  0
SOLID
  8
0
 62
7
  6
CONTINUOUS
 10
153.2159293074
 20
30.5938002869
 11
153.2159293074
 21
31.2390742213
 12
153.5049916972
 22
31.2390742213
 13
153.5049916972
 23
31.2390742213
  0
SOLID
  8
0
 62
7
  6
CONTINUOUS
 10
153.5049916972
 20
31.2390742213
 11
153.5049916972
 21
30.5938002869
 12
153.2159293074
 22
30.5938002869
 13
153.2159293074
 23
30.5938002869
  0
SOLID
  8
0
 62
7
  6
CONTINUOUS
 10
154.2565543074
 20
31.5939738288
 11
154.6612419177
 21
31.6262385959
 12
155.0081169177
 22
31.6262385959
 13
155.0081169177
 23
31.6262385959
  0
SOLID
  8
0
 62
7
  6
CONTINUOUS
 10
155.0081169177
 20
31.6262385959
 11
155.3549915869
 21
31.5939738288
 12
154.2565543074
 22
31.5939738288
 13
154.2565543074
 23
31.5939738288
  0
SOLID
  8
0
 62
7
  6
CONTINUOUS
 10
154.1409294177
 20
31.5617111435
 11
154.2565543074
 21
31.5939738288
 12
155.3549915869
 22
31.5939738288
 13
155.3549915869
 23
31.5939738288
  0
SOLID
  8
0
 62
7
  6
CONTINUOUS
 10
155.3549915869
 20
31.5939738288
 11
155.5284290869
 21
31.5294468402
 12
154.1409294177
 22
31.5617111435
 13
154.1409294177
 23
31.5617111435
  0
SOLID
  8
0
 62
7
  6
CONTINUOUS
 10
154.0253041972
 20
31.4971826249
 11
154.1409294177
 21
31.5617111435
 12
155.5284290869
 22
31.5294468402
 13
155.5284290869
 23
31.5294468402
  0
SOLID
  8
0
 62
7
  6
CONTINUOUS
 10
154.0253041972
 20
31.4971826249
 11
155.5284290869
 21
31.5294468402
 12
154.6612419177
 22
31.4971826249
 13
154.6612419177
 23
31.4971826249
  0
SOLID
  8
0
 62
7
  6
CONTINUOUS
 10
154.6612419177
 20
31.4971826249
 11
155.5284290869
 21
31.5294468402
 12
155.0081169177
 22
31.4971826249
 13
155.0081169177
 23
31.4971826249
  0
SOLID
  8
0
 62
7
  6
CONTINUOUS
 10
155.0081169177
 20
31.4971826249
 11
155.5284290869
 21
31.5294468402
 12
155.239367028
 22
31.4649194065
 13
155.239367028
 23
31.4649194065
  0
SOLID
  8
0
 62
7
  6
CONTINUOUS
 10
155.5284290869
 20
31.5294468402
 11
155.6440543074
 21
31.4649194065
 12
155.239367028
 22
31.4649194065
 13
155.239367028
 23
31.4649194065
  0
SOLID
  8
0
 62
7
  6
CONTINUOUS
 10
153.9674919177
 20
31.4326554138
 11
154.0253041972
 21
31.4971826249
 12
154.6612419177
 22
31.4971826249
 13
154.6612419177
 23
31.4971826249
  0
SOLID
  8
0
 62
7
  6
CONTINUOUS
 10
155.3549915869
 20
31.4326554138
 11
155.239367028
 21
31.4649194065
 12
155.6440543074
 22
31.4649194065
 13
155.6440543074
 23
31.4649194065
  0
SOLID
  8
0
 62
7
  6
CONTINUOUS
 10
155.3549915869
 20
31.4326554138
 11
155.6440543074
 21
31.4649194065
 12
155.412804528
 22
31.3681282026
 13
155.412804528
 23
31.3681282026
  0
SOLID
  8
0
 62
7
  6
CONTINUOUS
 10
155.6440543074
 20
31.4649194065
 11
155.7018665869
 21
31.3681282026
 12
155.412804528
 22
31.3681282026
 13
155.412804528
 23
31.3681282026
  0
SOLID
  8
0
 62
7
  6
CONTINUOUS
 10
155.412804528
 20
31.2713369632
 11
155.412804528
 21
31.3681282026
 12
155.7018665869
 22
31.3681282026
 13
155.7018665869
 23
31.3681282026
  0
SOLID
  8
0
 62
7
  6
CONTINUOUS
 10
155.412804528
 20
31.2713369632
 11
155.7018665869
 21
31.3681282026
 12
155.412804528
 22
31.1422827828
 13
155.412804528
 23
31.1422827828
  0
SOLID
  8
0
 62
7
  6
CONTINUOUS
 10
155.412804528
 20
31.1422827828
 11
155.7018665869
 21
31.3681282026
 12
155.412804528
 22
30.9487004259
 13
155.412804528
 23
30.9487004259
  0
SOLID
  8
0
 62
7
  6
CONTINUOUS
 10
155.7018665869
 20
31.3681282026
 11
155.7018665869
 21
30.8519086025
 12
155.412804528
 22
30.9487004259
 13
155.412804528
 23
30.9487004259
  0
SOLID
  8
0
 62
7
  6
CONTINUOUS
 10
157.6096790869
 20
31.5939736268
 11
157.840929528
 21
31.6262383465
 12
158.0721793074
 22
31.6262383465
 13
158.0721793074
 23
31.6262383465
  0
SOLID
  8
0
 62
7
  6
CONTINUOUS
 10
158.0721793074
 20
31.6262383465
 11
158.2456168074
 21
31.5939736268
 12
157.6096790869
 22
31.5939736268
 13
157.6096790869
 23
31.5939736268
  0
SOLID
  8
0
 62
7
  6
CONTINUOUS
 10
157.4362415869
 20
31.5294472848
 11
157.6096790869
 21
31.5939736268
 12
158.2456168074
 22
31.5939736268
 13
158.2456168074
 23
31.5939736268
  0
SOLID
  8
0
 62
7
  6
CONTINUOUS
 10
158.2456168074
 20
31.5939736268
 11
158.4190543074
 21
31.5294472848
 12
157.4362415869
 22
31.5294472848
 13
157.4362415869
 23
31.5294472848
  0
SOLID
  8
0
 62
7
  6
CONTINUOUS
 10
158.4190543074
 20
31.5294472848
 11
157.840929528
 21
31.4971825369
 12
157.4362415869
 22
31.5294472848
 13
157.4362415869
 23
31.5294472848
  0
SOLID
  8
0
 62
7
  6
CONTINUOUS
 10
157.320617028
 20
31.4649199103
 11
157.4362415869
 21
31.5294472848
 12
157.840929528
 22
31.4971825369
 13
157.840929528
 23
31.4971825369
  0
SOLID
  8
0
 62
7
  6
CONTINUOUS
 10
157.840929528
 20
31.4971825369
 11
157.6096790869
 21
31.4649199103
 12
157.320617028
 22
31.4649199103
 13
157.320617028
 23
31.4649199103
  0
SOLID
  8
0
 62
7
  6
CONTINUOUS
 10
157.840929528
 20
31.4971825369
 11
158.4190543074
 21
31.5294472848
 12
158.0721793074
 22
31.4649199103
 13
158.0721793074
 23
31.4649199103
  0
SOLID
  8
0
 62
7
  6
CONTINUOUS
 10
158.4190543074
 20
31.5294472848
 11
158.534679528
 21
31.4649199103
 12
158.0721793074
 22
31.4649199103
 13
158.0721793074
 23
31.4649199103
  0
SOLID
  8
0
 62
7
  6
CONTINUOUS
 10
158.187804528
 20
31.4326554468
 11
158.0721793074
 21
31.4649199103
 12
158.534679528
 22
31.4649199103
 13
158.534679528
 23
31.4649199103
  0
SOLID
  8
0
 62
7
  6
CONTINUOUS
 10
158.187804528
 20
31.4326554468
 11
158.534679528
 21
31.4649199103
 12
158.3034290869
 22
31.3681288486
 13
158.3034290869
 23
31.3681288486
  0
SOLID
  8
0
 62
7
  6
CONTINUOUS
 10
158.534679528
 20
31.4649199103
 11
158.5924918074
 21
31.3681288486
 12
158.3034290869
 22
31.3681288486
 13
158.3034290869
 23
31.3681288486
  0
SOLID
  8
0
 62
7
  6
CONTINUOUS
 10
158.361242028
 20
31.2068093799
 11
158.3034290869
 21
31.3681288486
 12
158.5924918074
 22
31.3681288486
 13
158.5924918074
 23
31.3681288486
  0
SOLID
  8
0
 62
7
  6
CONTINUOUS
 10
158.5924918074
 20
31.3681288486
 11
158.6503040869
 21
31.2068093799
 12
158.361242028
 22
31.2068093799
 13
158.361242028
 23
31.2068093799
  0
SOLID
  8
0
 62
7
  6
CONTINUOUS
 10
157.6096790869
 20
31.4649199103
 11
157.4362415869
 21
31.4003926599
 12
157.320617028
 22
31.4649199103
 13
157.320617028
 23
31.4649199103
  0
SOLID
  8
0
 62
7
  6
CONTINUOUS
 10
157.4362415869
 20
31.4003926599
 11
157.320617028
 21
31.3358640533
 12
157.320617028
 22
31.4649199103
 13
157.320617028
 23
31.4649199103
  0
SOLID
  8
0
 62
7
  6
CONTINUOUS
 10
157.320617028
 20
31.3358640533
 11
157.0315543074
 21
30.5938003547
 12
157.320617028
 22
31.4649199103
 13
157.320617028
 23
31.4649199103
  0
SOLID
  8
0
 62
7
  6
CONTINUOUS
 10
157.320617028
 20
31.4649199103
 11
157.0315543074
 21
30.5938003547
 12
157.320617028
 22
31.6262383465
 13
157.320617028
 23
31.6262383465
  0
SOLID
  8
0
 62
7
  6
CONTINUOUS
 10
157.0315543074
 20
30.5938003547
 11
157.0315543074
 21
31.6262383465
 12
157.320617028
 22
31.6262383465
 13
157.320617028
 23
31.6262383465
  0
SOLID
  8
0
 62
7
  6
CONTINUOUS
 10
157.320617028
 20
31.3358640533
 11
157.320617028
 21
30.5938003547
 12
157.0315543074
 22
30.5938003547
 13
157.0315543074
 23
30.5938003547
  0
SOLID
  8
0
 62
7
  6
CONTINUOUS
 10
158.361242028
 20
30.5938003547
 11
158.361242028
 21
31.2068093799
 12
158.6503040869
 22
31.2068093799
 13
158.6503040869
 23
31.2068093799
  0
SOLID
  8
0
 62
7
  6
CONTINUOUS
 10
158.6503040869
 20
31.2068093799
 11
158.6503040869
 21
30.5938003547
 12
158.361242028
 22
30.5938003547
 13
158.361242028
 23
30.5938003547
  0
SOLID
  8
0
 62
7
  6
CONTINUOUS
 10
159.4596793074
 20
31.5939739474
 11
159.8065543074
 21
31.6262381969
 12
160.1534293074
 22
31.6262381969
 13
160.1534293074
 23
31.6262381969
  0
SOLID
  8
0
 62
7
  6
CONTINUOUS
 10
160.1534293074
 20
31.6262381969
 11
160.5003043074
 21
31.5939739474
 12
159.4596793074
 22
31.5939739474
 13
159.4596793074
 23
31.5939739474
  0
SOLID
  8
0
 62
7
  6
CONTINUOUS
 10
159.228429528
 20
31.5294468402
 11
159.4596793074
 21
31.5939739474
 12
160.5003043074
 22
31.5939739474
 13
160.5003043074
 23
31.5939739474
  0
SOLID
  8
0
 62
7
  6
CONTINUOUS
 10
159.228429528
 20
31.5294468402
 11
160.5003043074
 21
31.5939739304
 12
160.6737418074
 22
31.5617111435
 13
160.6737418074
 23
31.5617111435
  0
SOLID
  8
0
 62
7
  6
CONTINUOUS
 10
159.228429528
 20
31.5294468402
 11
160.6737418074
 21
31.5617111435
 12
159.8065543074
 22
31.4971825592
 13
159.8065543074
 23
31.4971825592
  0
SOLID
  8
0
 62
7
  6
CONTINUOUS
 10
159.8065543074
 20
31.4971825592
 11
160.6737418074
 21
31.5617111435
 12
160.1534293074
 22
31.4971825592
 13
160.1534293074
 23
31.4971825592
  0
SOLID
  8
0
 62
7
  6
CONTINUOUS
 10
160.6737418074
 20
31.5617111435
 11
160.8471793074
 21
31.4971825592
 12
160.1534293074
 22
31.4971825592
 13
160.1534293074
 23
31.4971825592
  0
SOLID
  8
0
 62
7
  6
CONTINUOUS
 10
160.5003043074
 20
31.4649197501
 11
160.1534293074
 21
31.4971825592
 12
160.8471793074
 22
31.4971825592
 13
160.8471793074
 23
31.4971825592
  0
SOLID
  8
0
 62
7
  6
CONTINUOUS
 10
159.1128043074
 20
31.4326555427
 11
159.228429528
 21
31.5294468402
 12
159.8065543074
 22
31.4971825592
 13
159.8065543074
 23
31.4971825592
  0
SOLID
  8
0
 62
7
  6
CONTINUOUS
 10
160.5003043074
 20
31.4649197501
 11
160.8471793074
 21
31.4971825592
 12
160.615929528
 22
31.4326555427
 13
160.615929528
 23
31.4326555427
  0
SOLID
  8
0
 62
7
  6
CONTINUOUS
 10
160.615929528
 20
31.4326555427
 11
160.8471793074
 21
31.4971825592
 12
160.6737418074
 22
31.3681283005
 13
160.6737418074
 23
31.3681283005
  0
SOLID
  8
0
 62
7
  6
CONTINUOUS
 10
160.8471793074
 20
31.4971825592
 11
160.9628038663
 21
31.3681283005
 12
160.6737418074
 22
31.3681283005
 13
160.6737418074
 23
31.3681283005
  0
SOLID
  8
0
 62
7
  6
CONTINUOUS
 10
150.2674918074
 20
31.4649197501
 11
149.7471793074
 21
31.4326554237
 12
150.498741835
 22
31.4971824493
 13
150.498741835
 23
31.4971824493
  0
SOLID
  8
0
 62
7
  6
CONTINUOUS
 10
149.7471793074
 20
31.4326554237
 11
149.8628043005
 21
31.4971824493
 12
150.498741835
 22
31.4971824493
 13
150.498741835
 23
31.4971824493
  0
SOLID
  8
0
 62
7
  6
CONTINUOUS
 10
150.2674918074
 20
31.4649197501
 11
150.1518667936
 21
31.4326554237
 12
149.7471793074
 22
31.4326554237
 13
149.7471793074
 23
31.4326554237
  0
SOLID
  8
0
 62
7
  6
CONTINUOUS
 10
149.6315543091
 20
31.3036012664
 11
149.7471793074
 21
31.4326554237
 12
150.1518667936
 22
31.4326554237
 13
150.1518667936
 23
31.4326554237
  0
SOLID
  8
0
 62
7
  6
CONTINUOUS
 10
153.9674919177
 20
31.4326554237
 11
154.6612419177
 21
31.4971825369
 12
154.4299918074
 22
31.4649197501
 13
154.4299918074
 23
31.4649197501
  0
SOLID
  8
0
 62
7
  6
CONTINUOUS
 10
154.4299918074
 20
31.4649197501
 11
154.3143669177
 21
31.4326554237
 12
153.9674919177
 22
31.4326554237
 13
153.9674919177
 23
31.4326554237
  0
SOLID
  8
0
 62
7
  6
CONTINUOUS
 10
153.9674919177
 20
31.3681283335
 11
153.9674919177
 21
31.4326554237
 12
154.3143669177
 22
31.4326554237
 13
154.3143669177
 23
31.4326554237
  0
SOLID
  8
0
 62
7
  6
CONTINUOUS
 10
154.3143669177
 20
31.4326554237
 11
154.2565543074
 21
31.3681283335
 12
153.9674919177
 22
31.3681283335
 13
153.9674919177
 23
31.3681283335
  0
SOLID
  8
0
 62
7
  6
CONTINUOUS
 10
159.1128043074
 20
31.4326555528
 11
159.8065543074
 21
31.4971825369
 12
159.575304528
 22
31.4649197501
 13
159.575304528
 23
31.4649197501
  0
SOLID
  8
0
 62
7
  6
CONTINUOUS
 10
159.575304528
 20
31.4649197501
 11
159.4596793074
 21
31.4326555528
 12
159.1128043074
 22
31.4326555528
 13
159.1128043074
 23
31.4326555528
  0
SOLID
  8
0
 62
7
  6
CONTINUOUS
 10
159.1128043074
 20
31.3681284626
 11
159.1128043074
 21
31.4326555528
 12
159.4596793074
 22
31.4326555528
 13
159.4596793074
 23
31.4326555528
  0
SOLID
  8
0
 62
7
  6
CONTINUOUS
 10
159.4596793074
 20
31.4326555528
 11
159.401867028
 21
31.3681284626
 12
159.1128043074
 22
31.3681284626
 13
159.1128043074
 23
31.3681284626
  0
SOLID
  8
0
 62
7
  6
CONTINUOUS
 10
159.228429528
 20
31.2390741763
 11
159.1128043074
 21
31.3681284626
 12
159.401867028
 22
31.3681284626
 13
159.401867028
 23
31.3681284626
  0
SOLID
  8
0
 62
7
  6
CONTINUOUS
 10
149.6315543091
 20
31.3036012664
 11
150.1518667936
 21
31.4326554468
 12
149.9784292936
 22
31.3358640533
 13
149.9784292936
 23
31.3358640533
  0
SOLID
  8
0
 62
7
  6
CONTINUOUS
 10
149.9784292936
 20
31.3358640533
 11
149.9206168074
 21
31.2713369632
 12
149.6315543091
 22
31.3036012664
 13
149.6315543091
 23
31.3036012664
  0
SOLID
  8
0
 62
7
  6
CONTINUOUS
 10
149.5737418074
 20
31.1100184796
 11
149.6315543091
 21
31.3036012664
 12
149.9206168074
 22
31.2713369632
 13
149.9206168074
 23
31.2713369632
  0
SOLID
  8
0
 62
7
  6
CONTINUOUS
 10
154.4299918074
 20
31.2390741763
 11
154.7768668074
 21
31.271336924
 12
155.412804528
 22
31.271336924
 13
155.412804528
 23
31.271336924
  0
SOLID
  8
0
 62
7
  6
CONTINUOUS
 10
154.4299918074
 20
31.2390741763
 11
155.412804528
 21
31.271336924
 12
154.1987416972
 22
31.1745462761
 13
154.1987416972
 23
31.1745462761
  0
SOLID
  8
0
 62
7
  6
CONTINUOUS
 10
154.1987416972
 20
31.1745462761
 11
155.412804528
 21
31.271336924
 12
154.7768668074
 22
31.1422827436
 13
154.7768668074
 23
31.1422827436
  0
SOLID
  8
0
 62
7
  6
CONTINUOUS
 10
155.412804528
 20
31.271336924
 11
155.412804528
 21
31.1422827436
 12
154.7768668074
 22
31.1422827436
 13
154.7768668074
 23
31.1422827436
  0
SOLID
  8
0
 62
7
  6
CONTINUOUS
 10
159.228429528
 20
31.2390745501
 11
159.401867028
 21
31.3681283566
 12
159.4596793074
 22
31.3036012664
 13
159.4596793074
 23
31.3036012664
  0
SOLID
  8
0
 62
7
  6
CONTINUOUS
 10
159.4596793074
 20
31.3036012664
 11
159.6331168074
 21
31.2390745501
 12
159.228429528
 22
31.2390745501
 13
159.228429528
 23
31.2390745501
  0
SOLID
  8
0
 62
7
  6
CONTINUOUS
 10
159.4596793074
 20
31.1422827828
 11
159.228429528
 21
31.2390745501
 12
159.6331168074
 22
31.2390745501
 13
159.6331168074
 23
31.2390745501
  0
SOLID
  8
0
 62
7
  6
CONTINUOUS
 10
159.6331168074
 20
31.2390745501
 11
160.615929528
 21
31.0777556927
 12
159.4596793074
 22
31.1422827828
 13
159.4596793074
 23
31.1422827828
  0
SOLID
  8
0
 62
7
  6
CONTINUOUS
 10
160.442492028
 20
30.9809646623
 11
159.4596793074
 21
31.1422827828
 12
160.615929528
 22
31.0777556927
 13
160.615929528
 23
31.0777556927
  0
SOLID
  8
0
 62
7
  6
CONTINUOUS
 10
160.615929528
 20
31.0777556927
 11
160.8471793074
 21
30.9809646623
 12
160.442492028
 22
30.9809646623
 13
160.442492028
 23
30.9809646623
  0
SOLID
  8
0
 62
7
  6
CONTINUOUS
 10
160.615929528
 20
30.9164372091
 11
160.442492028
 21
30.9809646623
 12
160.8471793074
 22
30.9809646623
 13
160.8471793074
 23
30.9809646623
  0
SOLID
  8
0
 62
7
  6
CONTINUOUS
 10
160.615929528
 20
30.9164372091
 11
160.8471793074
 21
30.9809646623
 12
160.6737418074
 22
30.8519089441
 13
160.6737418074
 23
30.8519089441
  0
SOLID
  8
0
 62
7
  6
CONTINUOUS
 10
160.8471793074
 20
30.9809646623
 11
160.9628038663
 21
30.8519089441
 12
160.6737418074
 22
30.8519089441
 13
160.6737418074
 23
30.8519089441
  0
SOLID
  8
0
 62
7
  6
CONTINUOUS
 10
160.615929528
 20
30.7873818593
 11
160.6737418074
 21
30.8519089441
 12
160.9628038663
 22
30.8519089441
 13
160.9628038663
 23
30.8519089441
  0
SOLID
  8
0
 62
7
  6
CONTINUOUS
 10
160.9628038663
 20
30.8519089441
 11
160.9628038663
 21
30.7873818593
 12
160.615929528
 22
30.7873818593
 13
160.615929528
 23
30.7873818593
  0
SOLID
  8
0
 62
7
  6
CONTINUOUS
 10
160.5003043074
 20
30.7551187255
 11
160.615929528
 21
30.7873818593
 12
160.9628038663
 22
30.7873818593
 13
160.9628038663
 23
30.7873818593
  0
SOLID
  8
0
 62
7
  6
CONTINUOUS
 10
160.5003043074
 20
30.7551187255
 11
160.9628038663
 21
30.7873818593
 12
160.269054528
 22
30.7228547745
 13
160.269054528
 23
30.7228547745
  0
SOLID
  8
0
 62
7
  6
CONTINUOUS
 10
160.9628038663
 20
30.7873818593
 11
160.8471793074
 21
30.6905916353
 12
160.269054528
 22
30.7228547745
 13
160.269054528
 23
30.7228547745
  0
SOLID
  8
0
 62
7
  6
CONTINUOUS
 10
160.8471793074
 20
30.6905916353
 11
159.401867028
 21
30.658327332
 12
160.269054528
 22
30.7228547745
 13
160.269054528
 23
30.7228547745
  0
SOLID
  8
0
 62
7
  6
CONTINUOUS
 10
160.269054528
 20
30.7228547745
 11
159.401867028
 21
30.658327332
 12
159.922179528
 22
30.7228547745
 13
159.922179528
 23
30.7228547745
  0
SOLID
  8
0
 62
7
  6
CONTINUOUS
 10
159.401867028
 20
30.658327332
 11
159.228429528
 21
30.7228547745
 12
159.922179528
 22
30.7228547745
 13
159.922179528
 23
30.7228547745
  0
SOLID
  8
0
 62
7
  6
CONTINUOUS
 10
159.401867028
 20
30.658327332
 11
160.8471793074
 21
30.6905916353
 12
159.575304528
 22
30.6260629858
 13
159.575304528
 23
30.6260629858
  0
SOLID
  8
0
 62
7
  6
CONTINUOUS
 10
160.8471793074
 20
30.6905916353
 11
160.615929528
 21
30.6260629858
 12
159.575304528
 22
30.6260629858
 13
159.575304528
 23
30.6260629858
  0
SOLID
  8
0
 62
7
  6
CONTINUOUS
 10
159.922179528
 20
30.5938006049
 11
159.575304528
 21
30.6260629858
 12
160.615929528
 22
30.6260629858
 13
160.615929528
 23
30.6260629858
  0
SOLID
  8
0
 62
7
  6
CONTINUOUS
 10
160.615929528
 20
30.6260629858
 11
160.269054528
 21
30.5938006049
 12
159.922179528
 22
30.5938006049
 13
159.922179528
 23
30.5938006049
  0
SOLID
  8
0
 62
7
  6
CONTINUOUS
 10
149.5737418074
 20
31.1100184796
 11
149.9206168074
 21
31.2713369632
 12
149.8628043005
 22
31.1422827828
 13
149.8628043005
 23
31.1422827828
  0
SOLID
  8
0
 62
7
  6
CONTINUOUS
 10
149.8628043005
 20
31.1422827828
 11
149.8628043005
 21
31.0454914852
 12
149.5737418074
 22
31.1100184796
 13
149.5737418074
 23
31.1100184796
  0
SOLID
  8
0
 62
7
  6
CONTINUOUS
 10
149.6315543091
 20
30.9164372091
 11
149.5737418074
 21
31.1100184796
 12
149.8628043005
 22
31.0454914852
 13
149.8628043005
 23
31.0454914852
  0
SOLID
  8
0
 62
7
  6
CONTINUOUS
 10
149.8628043005
 20
31.0454914852
 11
149.9784292936
 21
30.8841729058
 12
149.6315543091
 22
30.9164372091
 13
149.6315543091
 23
30.9164372091
  0
SOLID
  8
0
 62
7
  6
CONTINUOUS
 10
149.7471793074
 20
30.7873813202
 11
149.6315543091
 21
30.9164372091
 12
149.9784292936
 22
30.8841729058
 13
149.9784292936
 23
30.8841729058
  0
SOLID
  8
0
 62
7
  6
CONTINUOUS
 10
149.9784292936
 20
30.8841729058
 11
150.1518667936
 21
30.7873813202
 12
149.7471793074
 22
30.7873813202
 13
149.7471793074
 23
30.7873813202
  0
SOLID
  8
0
 62
7
  6
CONTINUOUS
 10
149.8628043005
 20
30.7228547004
 11
149.7471793074
 21
30.7873813202
 12
150.1518667936
 22
30.7873813202
 13
150.1518667936
 23
30.7873813202
  0
SOLID
  8
0
 62
7
  6
CONTINUOUS
 10
150.1518667936
 20
30.7873813202
 11
150.498741835
 21
30.7228547004
 12
149.8628043005
 22
30.7228547004
 13
149.8628043005
 23
30.7228547004
  0
SOLID
  8
0
 62
7
  6
CONTINUOUS
 10
150.0362418212
 20
30.658327332
 11
149.8628043005
 21
30.7228547004
 12
150.498741835
 22
30.7228547004
 13
150.498741835
 23
30.7228547004
  0
SOLID
  8
0
 62
7
  6
CONTINUOUS
 10
154.0831168074
 20
31.1100184386
 11
154.1987416972
 21
31.1745462761
 12
154.7768668074
 22
31.1422827828
 13
154.7768668074
 23
31.1422827828
  0
SOLID
  8
0
 62
7
  6
CONTINUOUS
 10
154.7768668074
 20
31.1422827828
 11
154.5456166972
 21
31.1100184386
 12
154.0831168074
 22
31.1100184386
 13
154.0831168074
 23
31.1100184386
  0
SOLID
  8
0
 62
7
  6
CONTINUOUS
 10
153.9674919177
 20
30.9809642992
 11
154.0831168074
 21
31.1100184386
 12
154.5456166972
 22
31.1100184386
 13
154.5456166972
 23
31.1100184386
  0
SOLID
  8
0
 62
7
  6
CONTINUOUS
 10
154.3143669177
 20
31.0132277988
 11
153.9674919177
 21
30.9809642992
 12
154.4299918074
 22
31.0777556927
 13
154.4299918074
 23
31.0777556927
  0
SOLID
  8
0
 62
7
  6
CONTINUOUS
 10
153.9674919177
 20
30.9809642992
 11
154.5456166972
 21
31.1100184796
 12
154.4299918074
 22
31.0777556927
 13
154.4299918074
 23
31.0777556927
  0
SOLID
  8
0
 62
7
  6
CONTINUOUS
 10
154.3143669177
 20
31.0132277988
 11
154.2565543074
 21
30.9164372091
 12
153.9674919177
 22
30.9809642992
 13
153.9674919177
 23
30.9809642992
  0
SOLID
  8
0
 62
7
  6
CONTINUOUS
 10
153.9674919177
 20
30.8841729058
 11
153.9674919177
 21
30.9809642992
 12
154.2565543074
 22
30.9164372091
 13
154.2565543074
 23
30.9164372091
  0
SOLID
  8
0
 62
7
  6
CONTINUOUS
 10
154.2565543074
 20
30.9164372091
 11
154.2565543074
 21
30.8519086025
 12
153.9674919177
 22
30.8841729058
 13
153.9674919177
 23
30.8841729058
  0
SOLID
  8
0
 62
7
  6
CONTINUOUS
 10
154.0253041972
 20
30.7551187255
 11
153.9674919177
 21
30.8841729058
 12
154.2565543074
 22
30.8519086025
 13
154.2565543074
 23
30.8519086025
  0
SOLID
  8
0
 62
7
  6
CONTINUOUS
 10
155.412804528
 20
30.9487004259
 11
155.7018665869
 21
30.8519086025
 12
155.3549915869
 22
30.8841729058
 13
155.3549915869
 23
30.8841729058
  0
SOLID
  8
0
 62
7
  6
CONTINUOUS
 10
155.1815540869
 20
30.7873815123
 11
155.3549915869
 21
30.8841729058
 12
155.7018665869
 22
30.8519086025
 13
155.7018665869
 23
30.8519086025
  0
SOLID
  8
0
 62
7
  6
CONTINUOUS
 10
155.1815540869
 20
30.7873815123
 11
155.7018665869
 21
30.8519086025
 12
155.412804528
 22
30.7551187255
 13
155.412804528
 23
30.7551187255
  0
SOLID
  8
0
 62
7
  6
CONTINUOUS
 10
155.7018665869
 20
30.8519086025
 11
155.759679528
 21
30.6905916353
 12
155.412804528
 22
30.7551187255
 13
155.412804528
 23
30.7551187255
  0
SOLID
  8
0
 62
7
  6
CONTINUOUS
 10
155.4706168074
 20
30.658327332
 11
155.412804528
 21
30.7551187255
 12
155.759679528
 22
30.6905916353
 13
155.759679528
 23
30.6905916353
  0
SOLID
  8
0
 62
7
  6
CONTINUOUS
 10
155.4706168074
 20
30.658327332
 11
155.759679528
 21
30.6905916353
 12
155.5284290869
 22
30.5938002079
 13
155.5284290869
 23
30.5938002079
  0
SOLID
  8
0
 62
7
  6
CONTINUOUS
 10
155.759679528
 20
30.6905916353
 11
155.8174918074
 21
30.5938002079
 12
155.5284290869
 22
30.5938002079
 13
155.5284290869
 23
30.5938002079
  0
SOLID
  8
0
 62
7
  6
CONTINUOUS
 10
151.0768668626
 20
30.8196456577
 11
151.1346793074
 21
30.9164373395
 12
151.4237418626
 22
30.9164373395
 13
151.4237418626
 23
30.9164373395
  0
SOLID
  8
0
 62
7
  6
CONTINUOUS
 10
151.4237418626
 20
30.9164373395
 11
151.3659292523
 21
30.7873815123
 12
151.0768668626
 22
30.8196456577
 13
151.0768668626
 23
30.8196456577
  0
SOLID
  8
0
 62
7
  6
CONTINUOUS
 10
150.9034292799
 20
30.7551187255
 11
151.0768668626
 21
30.8196456577
 12
151.3659292523
 22
30.7873815123
 13
151.3659292523
 23
30.7873815123
  0
SOLID
  8
0
 62
7
  6
CONTINUOUS
 10
150.9034292799
 20
30.7551187255
 11
151.3659292523
 21
30.7873815123
 12
150.498741835
 22
30.7228544222
 13
150.498741835
 23
30.7228544222
  0
SOLID
  8
0
 62
7
  6
CONTINUOUS
 10
151.3659292523
 20
30.7873815123
 11
151.1924917523
 21
30.6905916353
 12
150.498741835
 22
30.7228544222
 13
150.498741835
 23
30.7228544222
  0
SOLID
  8
0
 62
7
  6
CONTINUOUS
 10
150.0362418212
 20
30.658327332
 11
150.498741835
 21
30.7228544222
 12
151.1924917523
 22
30.6905916353
 13
151.1924917523
 23
30.6905916353
  0
SOLID
  8
0
 62
7
  6
CONTINUOUS
 10
150.0362418212
 20
30.658327332
 11
151.1924917523
 21
30.6905916353
 12
150.2096793212
 22
30.6260631011
 13
150.2096793212
 23
30.6260631011
  0
SOLID
  8
0
 62
7
  6
CONTINUOUS
 10
151.1924917523
 20
30.6905916353
 11
150.9612418074
 21
30.6260631011
 12
150.2096793212
 22
30.6260631011
 13
150.2096793212
 23
30.6260631011
  0
SOLID
  8
0
 62
7
  6
CONTINUOUS
 10
150.5565542799
 20
30.5938002419
 11
150.2096793212
 21
30.6260631011
 12
150.9612418074
 22
30.6260631011
 13
150.9612418074
 23
30.6260631011
  0
SOLID
  8
0
 62
7
  6
CONTINUOUS
 10
154.0253041972
 20
30.7551187255
 11
154.2565543074
 21
30.8519086025
 12
154.3143669177
 22
30.7873815123
 13
154.3143669177
 23
30.7873815123
  0
SOLID
  8
0
 62
7
  6
CONTINUOUS
 10
154.3143669177
 20
30.7873815123
 11
154.5456166972
 21
30.7228544222
 12
154.0253041972
 22
30.7551187255
 13
154.0253041972
 23
30.7551187255
  0
SOLID
  8
0
 62
7
  6
CONTINUOUS
 10
154.1987416972
 20
30.658327332
 11
154.0253041972
 21
30.7551187255
 12
154.5456166972
 22
30.7228544222
 13
154.5456166972
 23
30.7228544222
  0
SOLID
  8
0
 62
7
  6
CONTINUOUS
 10
154.8924916972
 20
30.7228544637
 11
155.1815540869
 21
30.7873815123
 12
155.412804528
 22
30.7551187255
 13
155.412804528
 23
30.7551187255
  0
SOLID
  8
0
 62
7
  6
CONTINUOUS
 10
155.412804528
 20
30.7551187255
 11
155.3549915869
 21
30.6905916353
 12
154.8924916972
 22
30.7228544637
 13
154.8924916972
 23
30.7228544637
  0
SOLID
  8
0
 62
7
  6
CONTINUOUS
 10
155.3549915869
 20
30.6905916353
 11
154.1987416972
 21
30.658327332
 12
154.8924916972
 22
30.7228544637
 13
154.8924916972
 23
30.7228544637
  0
SOLID
  8
0
 62
7
  6
CONTINUOUS
 10
154.1987416972
 20
30.658327332
 11
154.5456166972
 21
30.7228544637
 12
154.8924916972
 22
30.7228544637
 13
154.8924916972
 23
30.7228544637
  0
SOLID
  8
0
 62
7
  6
CONTINUOUS
 10
154.1987416972
 20
30.658327332
 11
155.3549915869
 21
30.6905916353
 12
154.3143669177
 22
30.6260630541
 13
154.3143669177
 23
30.6260630541
  0
SOLID
  8
0
 62
7
  6
CONTINUOUS
 10
155.3549915869
 20
30.6905916353
 11
155.1815540869
 21
30.6260630541
 12
154.3143669177
 22
30.6260630541
 13
154.3143669177
 23
30.6260630541
  0
SOLID
  8
0
 62
7
  6
CONTINUOUS
 10
154.5456166972
 20
30.5938002188
 11
154.3143669177
 21
30.6260630541
 12
155.1815540869
 22
30.6260630541
 13
155.1815540869
 23
30.6260630541
  0
SOLID
  8
0
 62
7
  6
CONTINUOUS
 10
155.1815540869
 20
30.6260630541
 11
154.8924916972
 21
30.5938002188
 12
154.5456166972
 22
30.5938002188
 13
154.5456166972
 23
30.5938002188
  0
SOLID
  8
0
 62
7
  6
CONTINUOUS
 10
159.575304528
 20
30.7551187255
 11
159.228429528
 21
30.7228544637
 12
159.4596793074
 22
30.7873815123
 13
159.4596793074
 23
30.7873815123
  0
SOLID
  8
0
 62
7
  6
CONTINUOUS
 10
159.4596793074
 20
30.7873815123
 11
159.228429528
 21
30.7228544637
 12
159.401867028
 22
30.851908644
 13
159.401867028
 23
30.851908644
  0
SOLID
  8
0
 62
7
  6
CONTINUOUS
 10
159.228429528
 20
30.7228544637
 11
159.1128043074
 21
30.851908644
 12
159.401867028
 22
30.851908644
 13
159.401867028
 23
30.851908644
  0
SOLID
  8
0
 62
7
  6
CONTINUOUS
 10
159.575304528
 20
30.7551187255
 11
159.922179528
 21
30.7228544637
 12
159.228429528
 22
30.7228544637
 13
159.228429528
 23
30.7228544637
  0
SOLID
  8
0
 62
7
  6
CONTINUOUS
 10
156.279992028
 20
30.5938002419
 11
156.279992028
 21
31.6262382337
 12
156.5690540869
 22
30.5938002419
 13
156.5690540869
 23
31.6262382337
  0
ENDBLK
  8
0
  6
BYBLOCK
 62
0
  0
BLOCK
  8
0
 62
2
  6
CONTINUOUS
  2
SYMBOL_3_BL0
 70
64
 10
32.1213064866
 20
19.8534310916
  0
TEXT
  8
0
 62
7
  6
CONTINUOUS
 10
18.3860103289
 20
19.2268451992
  7
TEXTSTYLE_3
 40
2.7338706658
  1
Ammeraal Beltech
 41
1.0
 51
15.0
 72
0
  0
TEXT
  8
0
 62
7
  6
CONTINUOUS
 10
29.1868111546
 20
16.9533085264
  7
TEXTSTYLE_4
 40
1.0935482663
  1
Innovation & Service in Belting
 41
1.0
 72
0
  0
LINE
  8
0
 62
7
  6
CONTINUOUS
 10
12.3614696776
 20
19.9934385078
 11
13.1396216709
 21
23.6543558055
  0
LINE
  8
0
 62
7
  6
CONTINUOUS
 10
23.2347899607
 20
27.3177497171
 11
13.6274394139
 21
24.1961322958
  0
LINE
  8
0
 62
7
  6
CONTINUOUS
 10
12.5867530099
 20
19.3000877048
 11
20.093828271
 21
12.5406867788
  0
LINE
  8
0
 62
7
  6
CONTINUOUS
 10
12.8492874206
 20
20.5352149982
 11
23.6575567857
 21
24.0470345971
  0
LINE
  8
0
 62
7
  6
CONTINUOUS
 10
23.6533516486
 20
13.6972460334
 11
15.2078919798
 21
21.3015720751
  0
LINE
  8
0
 62
7
  6
CONTINUOUS
 10
24.1731743684
 20
26.4728246013
 11
23.1966148312
 21
21.8784731989
  0
LINE
  8
0
 62
7
  6
CONTINUOUS
 10
22.4968128835
 20
18.5861638851
 11
21.810364672
 21
15.3566789607
  0
LINE
  8
0
 62
7
  6
CONTINUOUS
 10
24.8542704669
 20
14.087448211
 11
25.8105020025
 21
18.5861638851
  0
LINE
  8
0
 62
7
  6
CONTINUOUS
 10
26.5103039502
 20
21.8784731989
 11
26.9545457526
 21
23.9684665583
  0
LINE
  8
0
 62
7
  6
CONTINUOUS
 10
20.8069293463
 20
12.3891124661
 11
24.3664527239
 21
13.5456717207
  0
LINE
  8
0
 62
7
  6
CONTINUOUS
 10
23.9478910361
 20
27.1661754044
 11
26.7292624203
 21
24.6618173613
  0
ARC
  8
0
 62
7
  6
CONTINUOUS
 10
13.8527227462
 20
23.5027814928
 40
0.7290321776
 50
108.0
 51
168.0
  0
ARC
  8
0
 62
7
  6
CONTINUOUS
 10
23.4600732931
 20
26.624398914
 40
0.7290321776
 50
348.0
 51
108.0
  0
ARC
  8
0
 62
7
  6
CONTINUOUS
 10
26.2414446773
 20
24.120040871
 40
0.7290321776
 50
348.0
 51
48.0
  0
ARC
  8
0
 62
7
  6
CONTINUOUS
 10
20.581646014
 20
13.0824632691
 40
0.7290321776
 50
228.0
 51
288.0
  0
ARC
  8
0
 62
7
  6
CONTINUOUS
 10
13.0745707529
 20
19.8418641951
 40
0.7290321776
 50
108.0
 51
228.0
  0
ARC
  8
0
 62
7
  6
CONTINUOUS
 10
24.1411693916
 20
14.2390225237
 40
0.7290321776
 50
228.0
 51
348.0
  0
ENDBLK
  8
0
  6
BYBLOCK
 62
0
  0
ENDSEC
  0
SECTION
  2
ENTITIES
  0
TEXT
  8
0
 62
5
  6
CONTINUOUS
 10
96.0
 20
25.636
  7
TEXTSTYLE_2
 40
2.8
  1
Scale :
 41
0.6
 51
0.000019
 72
0
  0
TEXT
  8
0
 62
5
  6
CONTINUOUS
 10
116.0
 20
25.636
  7
TEXTSTYLE_2
 40
2.8
  1
Belt type:
 41
0.6
 51
0.000019
 72
0
  0
INSERT
  8
0
 62
2
  6
CONTINUOUS
  2
SYMBOL_3_BL0
 10
32.1213064866
 20
19.8534310916
  0
INSERT
  8
0
 62
2
  6
CONTINUOUS
  2
SYMBOL_8_BL1
 10
173.5956734183
 20
35.5937998301
  0
LINE
  8
0
 62
2
  6
CONTINUOUS
 10
10.0
 20
30.0
 11
200.0
 21
30.0
  0
LINE
  8
0
 62
2
  6
CONTINUOUS
 10
10.0
 20
30.0
 11
10.0
 21
10.0
  0
LINE
  8
0
 62
2
  6
CONTINUOUS
 10
10.0
 20
10.0
 11
200.0
 21
10.0
  0
LINE
  8
0
 62
2
  6
CONTINUOUS
 10
95.0
 20
30.0
 11
95.0
 21
10.0
  0
LINE
  8
0
 62
2
  6
CONTINUOUS
 10
115.0
 20
30.0
 11
115.0
 21
10.0
  0
LINE
  8
0
 62
2
  6
CONTINUOUS
 10
200.0
 20
30.0
 11
200.0
 21
10.0
  0
TEXT
  8
0
 62
5
  6
CONTINUOUS
 10
13.0
 20
23.303
  7
TEXTSTYLE_5
 40
1.52
  1
                                                                     Ammeraal Beltech Modular A/S
 41
1.0
 72
0
  0
TEXT
  8
0
 62
5
  6
CONTINUOUS
 10
13.0
 20
20.595
  7
TEXTSTYLE_5
 40
1.5
  1
                                                                      Hjulmagervej 21,  7100 Vejle,  DK
 41
1.0
 72
0
  0
TEXT
  8
0
 62
5
  6
CONTINUOUS
 10
13.0
 20
17.881
  7
TEXTSTYLE_5
 40
1.495
  1
                                                                      tel: 
 41
1.0
 72
0
  0
TEXT
  8
0
 62
5
  6
CONTINUOUS
 10
57.9869465649
 20
17.881
  7
TEXTSTYLE_5
 40
1.51
  1
+45 75723100     fax: +45 75723348
 41
1.0
 72
0
  0
TEXT
  8
0
 62
5
  6
CONTINUOUS
 10
13.0
 20
15.177
  7
TEXTSTYLE_5
 40
1.5
  1
                                                                      admin@unichains.dk  www.unichains.com
 41
1.0
 72
0
  0
TEXT
  8
0
 62
5
  6
CONTINUOUS
 10
99.75
 20
13.75
  7
TEXTSTYLE_6
 40
5.0
  1
1:1
 41
0.7
 72
1
 11
105.0
 21
13.75
  0
TEXT
  8
0
 62
5
  6
CONTINUOUS
 10
118.0
 20
13.75
  7
TEXTSTYLE_7
 40
7.5
  1
uni MPB C K275
 41
0.7154761905
 72
0
  0
LINE
  8
0
 62
7
  6
CONTINUOUS
 10
210.0
 20
0.0
 11
0.0
 21
0.0
  0
LINE
  8
0
 62
7
  6
CONTINUOUS
 10
10.0
 20
10.0
 11
200.0
 21
10.0
  0
LINE
  8
0
 62
7
  6
CONTINUOUS
 10
10.0
 20
30.0
 11
200.0
 21
30.0
  0
LINE
  8
0
 62
7
  6
CONTINUOUS
 10
0.0
 20
0.0
 11
0.0
 21
297.0
  0
LINE
  8
0
 62
7
  6
CONTINUOUS
 10
10.0
 20
10.0
 11
10.0
 21
287.0
  0
LINE
  8
0
 62
7
  6
CONTINUOUS
 10
200.0
 20
287.0
 11
200.0
 21
10.0
  0
LINE
  8
0
 62
7
  6
CONTINUOUS
 10
210.0
 20
0.0
 11
210.0
 21
297.0
  0
LINE
  8
0
 62
7
  6
CONTINUOUS
 10
10.0
 20
287.0
 11
200.0
 21
287.0
  0
LINE
  8
0
 62
7
  6
CONTINUOUS
 10
0.0
 20
297.0
 11
210.0
 21
297.0
  0
LINE
  8
2_FEATURE
 62
7
  6
CONTINUOUS
 10
45.5608414459
 20
215.2736298776
 11
45.5608414459
 21
218.8856142241
  0
POLYLINE
  8
0
 62
7
  6
CONTINUOUS
 66
1
 70
0
  0
VERTEX
  8
0
 62
7
  6
CONTINUOUS
 10
49.8285601226
 20
227.8856142241
  0
VERTEX
  8
0
 62
7
  6
CONTINUOUS
 10
49.827759322
 20
227.8584236677
  0
VERTEX
  8
0
 62
7
  6
CONTINUOUS
 10
49.8363147469
 20
227.784156397
  0
VERTEX
  8
0
 62
7
  6
CONTINUOUS
 10
49.8523832938
 20
227.6792562907
  0
VERTEX
  8
0
 62
7
  6
CONTINUOUS
 10
49.8724152696
 20
227.5669146262
  0
SEQEND
  0
LINE
  8
AXES
 62
2
  6
CONTINUOUS
 10
52.7008414459
 20
220.7656142241
 11
52.7008414459
 21
219.0056142241
  0
LINE
  8
AXES
 62
2
  6
CENTER
 10
52.7008414459
 20
215.4856142241
 11
52.7008414459
 21
213.7356142241
  0
LINE
  8
AXES
 62
2
  6
CENTER
 10
52.7008414459
 20
224.2856142241
 11
52.7008414459
 21
226.0356142241
  0
POLYLINE
  8
0
 62
7
  6
CONTINUOUS
 66
1
 70
0
  0
VERTEX
  8
0
 62
7
  6
CONTINUOUS
 10
46.6605038903
 20
213.9105683027
  0
VERTEX
  8
0
 62
7
  6
CONTINUOUS
 10
46.5534598679
 20
214.0213417381
  0
VERTEX
  8
0
 62
7
  6
CONTINUOUS
 10
46.4652696289
 20
214.1237577851
  0
VERTEX
  8
0
 62
7
  6
CONTINUOUS
 10
46.3943788302
 20
214.2195865762
  0
SEQEND
  0
POLYLINE
  8
0
 62
7
  6
CONTINUOUS
 66
1
 70
0
  0
VERTEX
  8
0
 62
7
  6
CONTINUOUS
 10
49.8286579996
 20
211.8856142241
  0
VERTEX
  8
0
 62
7
  6
CONTINUOUS
 10
49.8364645598
 20
211.910863416
  0
VERTEX
  8
0
 62
7
  6
CONTINUOUS
 10
49.8483358066
 20
211.9849368421
  0
VERTEX
  8
0
 62
7
  6
CONTINUOUS
 10
49.8629062558
 20
212.1035981673
  0
SEQEND
  0
LINE
  8
0
 62
7
  6
CONTINUOUS
 10
46.8573041309
 20
213.7159028237
 11
46.8360126845
 21
213.7330713691
  0
POLYLINE
  8
0
 62
7
  6
CONTINUOUS
 66
1
 70
0
  0
VERTEX
  8
0
 62
7
  6
CONTINUOUS
 10
57.2752991828
 20
227.7633755452
  0
VERTEX
  8
0
 62
7
  6
CONTINUOUS
 10
57.2766011843
 20
227.8202727268
  0
VERTEX
  8
0
 62
7
  6
CONTINUOUS
 10
57.2760316601
 20
227.8470394683
  0
VERTEX
  8
0
 62
7
  6
CONTINUOUS
 10
57.2768229703
 20
227.8691963381
  0
VERTEX
  8
0
 62
7
  6
CONTINUOUS
 10
57.2783958975
 20
227.8821067035
  0
VERTEX
  8
0
 62
7
  6
CONTINUOUS
 10
57.2765927503
 20
227.8856142241
  0
SEQEND
  0
POLYLINE
  8
0
 62
7
  6
CONTINUOUS
 66
1
 70
0
  0
VERTEX
  8
0
 62
7
  6
CONTINUOUS
 10
57.2765927503
 20
227.6356142241
  0
VERTEX
  8
0
 62
7
  6
CONTINUOUS
 10
57.2807631022
 20
227.6560924351
  0
VERTEX
  8
0
 62
7
  6
CONTINUOUS
 10
57.2809242516
 20
227.6794787268
  0
VERTEX
  8
0
 62
7
  6
CONTINUOUS
 10
57.2788480747
 20
227.7055423427
  0
VERTEX
  8
0
 62
7
  6
CONTINUOUS
 10
57.2764088643
 20
227.7338829126
  0
VERTEX
  8
0
 62
7
  6
CONTINUOUS
 10
57.2752991828
 20
227.7633755452
  0
SEQEND
  0
POLYLINE
  8
0
 62
7
  6
CONTINUOUS
 66
1
 70
0
  0
VERTEX
  8
0
 62
7
  6
CONTINUOUS
 10
57.1499601783
 20
223.976340356
  0
VERTEX
  8
0
 62
7
  6
CONTINUOUS
 10
57.0759601728
 20
223.9140239803
  0
VERTEX
  8
0
 62
7
  6
CONTINUOUS
 10
57.0125189784
 20
223.8670568876
  0
VERTEX
  8
0
 62
7
  6
CONTINUOUS
 10
56.9670918392
 20
223.8409566668
  0
VERTEX
  8
0
 62
7
  6
CONTINUOUS
 10
56.945036037
 20
223.8386876504
  0
SEQEND
  0
POLYLINE
  8
0
 62
7
  6
CONTINUOUS
 66
1
 70
0
  0
VERTEX
  8
0
 62
7
  6
CONTINUOUS
 10
49.8629062558
 20
212.1035981673
  0
VERTEX
  8
0
 62
7
  6
CONTINUOUS
 10
48.9502940431
 20
212.4124234476
  0
VERTEX
  8
0
 62
7
  6
CONTINUOUS
 10
48.1045937669
 20
212.8246179294
  0
VERTEX
  8
0
 62
7
  6
CONTINUOUS
 10
47.3358719979
 20
213.3298713165
  0
VERTEX
  8
0
 62
7
  6
CONTINUOUS
 10
46.6605038903
 20
213.9105683027
  0
SEQEND
  0
POLYLINE
  8
0
 62
7
  6
CONTINUOUS
 66
1
 70
0
  0
VERTEX
  8
0
 62
7
  6
CONTINUOUS
 10
48.2517237621
 20
223.976340156
  0
VERTEX
  8
0
 62
7
  6
CONTINUOUS
 10
48.3257223677
 20
223.9140225305
  0
VERTEX
  8
0
 62
7
  6
CONTINUOUS
 10
48.3891617354
 20
223.8670536816
  0
VERTEX
  8
0
 62
7
  6
CONTINUOUS
 10
48.4345849589
 20
223.8409494268
  0
VERTEX
  8
0
 62
7
  6
CONTINUOUS
 10
48.4566480186
 20
223.8386879297
  0
SEQEND
  0
POLYLINE
  8
0
 62
7
  6
CONTINUOUS
 66
1
 70
0
  0
VERTEX
  8
0
 62
7
  6
CONTINUOUS
 10
57.1499601783
 20
223.976340307
  0
VERTEX
  8
0
 62
7
  6
CONTINUOUS
 10
57.1617079211
 20
223.983836695
  0
VERTEX
  8
0
 62
7
  6
CONTINUOUS
 10
57.1761153848
 20
223.9881448509
  0
VERTEX
  8
0
 62
7
  6
CONTINUOUS
 10
57.1921223614
 20
223.9894578623
  0
SEQEND
  0
POLYLINE
  8
0
 62
7
  6
CONTINUOUS
 66
1
 70
0
  0
VERTEX
  8
0
 62
7
  6
CONTINUOUS
 10
45.5589578866
 20
223.9955854473
  0
VERTEX
  8
0
 62
7
  6
CONTINUOUS
 10
45.4747403866
 20
224.0474763419
  0
VERTEX
  8
0
 62
7
  6
CONTINUOUS
 10
45.4058615561
 20
224.0971796588
  0
VERTEX
  8
0
 62
7
  6
CONTINUOUS
 10
45.363288728
 20
224.1367519441
  0
VERTEX
  8
0
 62
7
  6
CONTINUOUS
 10
45.3537135291
 20
224.1599221372
  0
SEQEND
  0
POLYLINE
  8
0
 62
7
  6
CONTINUOUS
 66
1
 70
0
  0
VERTEX
  8
0
 62
7
  6
CONTINUOUS
 10
48.2517237621
 20
223.9763400887
  0
VERTEX
  8
0
 62
7
  6
CONTINUOUS
 10
48.2399757312
 20
223.98383639
  0
VERTEX
  8
0
 62
7
  6
CONTINUOUS
 10
48.2255680877
 20
223.9881447284
  0
VERTEX
  8
0
 62
7
  6
CONTINUOUS
 10
48.209560862
 20
223.9894578623
  0
SEQEND
  0
LINE
  8
0
 62
7
  6
CONTINUOUS
 10
60.3339403191
 20
224.163265516
 11
60.3195335059
 21
224.1868814736
  0
POLYLINE
  8
0
 62
7
  6
CONTINUOUS
 66
1
 70
0
  0
VERTEX
  8
0
 62
7
  6
CONTINUOUS
 10
45.5589578866
 20
223.9955854482
  0
VERTEX
  8
0
 62
7
  6
CONTINUOUS
 10
45.566494676
 20
223.9921723333
  0
VERTEX
  8
0
 62
7
  6
CONTINUOUS
 10
45.5748614487
 20
223.9901211665
  0
VERTEX
  8
0
 62
7
  6
CONTINUOUS
 10
45.5837929956
 20
223.9894578623
  0
SEQEND
  0
POLYLINE
  8
0
 62
7
  6
CONTINUOUS
 66
1
 70
0
  0
VERTEX
  8
0
 62
7
  6
CONTINUOUS
 10
60.3195335059
 20
224.1868814736
  0
VERTEX
  8
0
 62
7
  6
CONTINUOUS
 10
60.3053667828
 20
224.2046736951
  0
VERTEX
  8
0
 62
7
  6
CONTINUOUS
 10
60.2887728162
 20
224.2193715627
  0
VERTEX
  8
0
 62
7
  6
CONTINUOUS
 10
60.2687552024
 20
224.231227308
  0
VERTEX
  8
0
 62
7
  6
CONTINUOUS
 10
60.2440786585
 20
224.2404892547
  0
VERTEX
  8
0
 62
7
  6
CONTINUOUS
 10
60.2133186526
 20
224.2471104885
  0
SEQEND
  0
LINE
  8
0
 62
7
  6
CONTINUOUS
 10
49.8285601226
 20
211.8856142241
 11
57.2008414459
 21
211.8856142241
  0
LINE
  8
0
 62
7
  6
CONTINUOUS
 10
99.0008414459
 20
211.8856142241
 11
106.3731227691
 21
211.8856142241
  0
LINE
  8
0
 62
7
  6
CONTINUOUS
 10
76.8997121016
 20
211.9356142241
 11
79.3019707902
 21
211.9356142241
  0
LINE
  8
0
 62
7
  6
CONTINUOUS
 10
49.8629062558
 20
212.1035981673
 11
57.2008417773
 21
212.1035981673
  0
POLYLINE
  8
0
 62
7
  6
CONTINUOUS
 66
1
 70
0
  0
VERTEX
  8
0
 62
7
  6
CONTINUOUS
 10
58.8612364482
 20
212.3897494757
  0
VERTEX
  8
0
 62
7
  6
CONTINUOUS
 10
58.7921107951
 20
212.3410431859
  0
VERTEX
  8
0
 62
7
  6
CONTINUOUS
 10
58.7085330476
 20
212.2994608353
  0
VERTEX
  8
0
 62
7
  6
CONTINUOUS
 10
58.6113582082
 20
212.2684945662
  0
SEQEND
  0
POLYLINE
  8
0
 62
7
  6
CONTINUOUS
 66
1
 70
0
  0
VERTEX
  8
0
 62
7
  6
CONTINUOUS
 10
58.6113937728
 20
212.2684772693
  0
VERTEX
  8
0
 62
7
  6
CONTINUOUS
 10
58.1469988166
 20
212.1771853276
  0
VERTEX
  8
0
 62
7
  6
CONTINUOUS
 10
57.6756569794
 20
212.1220405275
  0
VERTEX
  8
0
 62
7
  6
CONTINUOUS
 10
57.2008417773
 20
212.1035981673
  0
SEQEND
  0
LINE
  8
0
 62
7
  6
CONTINUOUS
 10
60.7573537249
 20
223.787251875
 11
71.5885674009
 21
219.9432060039
  0
LINE
  8
0
 62
7
  6
CONTINUOUS
 10
74.4308746864
 20
219.2765656018
 11
76.5161199209
 21
212.2222253405
  0
LINE
  8
AXES
 62
2
  6
CENTER
 10
78.1008414459
 20
230.3600806074
 11
78.1008414459
 21
221.8857142241
  0
LINE
  8
AXES
 62
2
  6
CONTINUOUS
 10
78.1008414459
 20
220.7656142241
 11
78.1008414459
 21
219.0056142241
  0
LINE
  8
AXES
 62
2
  6
CENTER
 10
78.1008414459
 20
209.1436891106
 11
78.1008414459
 21
217.8855142241
  0
LINE
  8
AXES
 62
2
  6
CONTINUOUS
 10
78.9808414459
 20
219.8856142241
 11
77.2208414459
 21
219.8856142241
  0
LINE
  8
AXES
 62
2
  6
CONTINUOUS
 10
53.5808414459
 20
219.8856142241
 11
51.8208414459
 21
219.8856142241
  0
LINE
  8
AXES
 62
2
  6
CENTER
 10
48.3008414459
 20
219.8856142241
 11
46.5508414459
 21
219.8856142241
  0
LINE
  8
AXES
 62
2
  6
CENTER
 10
56.7202211714
 20
219.8856142241
 11
76.1007414459
 21
219.8856142241
  0
LINE
  8
0
 62
7
  6
CONTINUOUS
 10
71.9230322666
 20
219.8856142241
 11
73.6157413025
 21
219.8856142241
  0
LINE
  8
0
 62
7
  6
CONTINUOUS
 10
82.5859415892
 20
219.8856142241
 11
84.2786506251
 21
219.8856142241
  0
LINE
  8
AXES
 62
2
  6
CENTER
 10
80.1009414459
 20
219.8856142241
 11
109.6508414459
 21
219.8856142241
  0
LINE
  8
2_FEATURE
 62
7
  6
CONTINUOUS
 10
44.2008414459
 20
219.8856142241
 11
44.5608414459
 21
219.8856142241
  0
LINE
  8
0
 62
7
  6
CONTINUOUS
 10
84.6131154908
 20
219.9432060039
 11
87.8357322585
 21
221.0869270171
  0
LINE
  8
0
 62
7
  6
CONTINUOUS
 10
79.6855629708
 20
212.2222253405
 11
81.7708082053
 21
219.2765656018
  0
LINE
  8
0
 62
7
  6
CONTINUOUS
 10
59.0504979513
 20
223.9894578623
 11
57.1921223614
 21
223.9894578623
  0
LINE
  8
0
 62
7
  6
CONTINUOUS
 10
48.209560862
 20
223.9894578623
 11
45.5837929956
 21
223.9894578623
  0
POLYLINE
  8
0
 62
7
  6
CONTINUOUS
 66
1
 70
0
  0
VERTEX
  8
0
 62
7
  6
CONTINUOUS
 10
60.2133186526
 20
224.2471104885
  0
VERTEX
  8
0
 62
7
  6
CONTINUOUS
 10
60.1752114074
 20
224.2507508935
  0
VERTEX
  8
0
 62
7
  6
CONTINUOUS
 10
60.1279598391
 20
224.2509431158
  0
VERTEX
  8
0
 62
7
  6
CONTINUOUS
 10
60.0694645477
 20
224.2469768529
  0
VERTEX
  8
0
 62
7
  6
CONTINUOUS
 10
59.9975544811
 20
224.2379311913
  0
VERTEX
  8
0
 62
7
  6
CONTINUOUS
 10
59.9100891522
 20
224.2227379925
  0
VERTEX
  8
0
 62
7
  6
CONTINUOUS
 10
59.8036585602
 20
224.1999194645
  0
VERTEX
  8
0
 62
7
  6
CONTINUOUS
 10
59.6749588338
 20
224.1677730453
  0
VERTEX
  8
0
 62
7
  6
CONTINUOUS
 10
59.5219806684
 20
224.1248571272
  0
VERTEX
  8
0
 62
7
  6
CONTINUOUS
 10
59.3412930966
 20
224.0695423676
  0
VERTEX
  8
0
 62
7
  6
CONTINUOUS
 10
59.1327793726
 20
224.0021971479
  0
SEQEND
  0
POLYLINE
  8
0
 62
7
  6
CONTINUOUS
 66
1
 70
0
  0
VERTEX
  8
0
 62
7
  6
CONTINUOUS
 10
59.1327793726
 20
224.0021971486
  0
VERTEX
  8
0
 62
7
  6
CONTINUOUS
 10
59.1067484516
 20
223.9952204409
  0
VERTEX
  8
0
 62
7
  6
CONTINUOUS
 10
59.0793018742
 20
223.9909206185
  0
VERTEX
  8
0
 62
7
  6
CONTINUOUS
 10
59.0504979513
 20
223.9894578623
  0
SEQEND
  0
LINE
  8
0
 62
7
  6
CONTINUOUS
 10
106.3731227691
 20
227.8856142241
 11
49.8285601226
 21
227.8856142241
  0
LINE
  8
AXES
 62
2
  6
CONTINUOUS
 10
103.5008414459
 20
220.7656142241
 11
103.5008414459
 21
219.0056142241
  0
LINE
  8
AXES
 62
2
  6
CENTER
 10
103.5008414459
 20
215.4856142241
 11
103.5008414459
 21
213.7356142241
  0
LINE
  8
AXES
 62
2
  6
CENTER
 10
103.5008414459
 20
224.2856142241
 11
103.5008414459
 21
226.0356142241
  0
POLYLINE
  8
0
 62
7
  6
CONTINUOUS
 66
1
 70
0
  0
VERTEX
  8
0
 62
7
  6
CONTINUOUS
 10
106.3182185554
 20
212.8856142241
  0
VERTEX
  8
0
 62
7
  6
CONTINUOUS
 10
106.3245603824
 20
212.6290812975
  0
VERTEX
  8
0
 62
7
  6
CONTINUOUS
 10
106.3357030993
 20
212.3890063311
  0
VERTEX
  8
0
 62
7
  6
CONTINUOUS
 10
106.3486844699
 20
212.1817319394
  0
VERTEX
  8
0
 62
7
  6
CONTINUOUS
 10
106.3608308008
 20
212.0216830057
  0
VERTEX
  8
0
 62
7
  6
CONTINUOUS
 10
106.3697105977
 20
211.9203865936
  0
VERTEX
  8
0
 62
7
  6
CONTINUOUS
 10
106.3731227691
 20
211.8856142241
  0
SEQEND
  0
LINE
  8
0
 62
7
  6
CONTINUOUS
 10
106.3292678297
 20
227.6356142241
 11
106.3731227691
 21
227.8856142241
  0
POLYLINE
  8
0
 62
7
  6
CONTINUOUS
 66
1
 70
0
  0
VERTEX
  8
0
 62
7
  6
CONTINUOUS
 10
49.8724150621
 20
159.2633442241
  0
VERTEX
  8
0
 62
7
  6
CONTINUOUS
 10
49.8556814319
 20
159.2446159189
  0
VERTEX
  8
0
 62
7
  6
CONTINUOUS
 10
49.841467737
 20
159.1908730425
  0
VERTEX
  8
0
 62
7
  6
CONTINUOUS
 10
49.8319280515
 20
159.109742498
  0
VERTEX
  8
0
 62
7
  6
CONTINUOUS
 10
49.8285601226
 20
159.0133442241
  0
SEQEND
  0
POLYLINE
  8
0
 62
7
  6
CONTINUOUS
 66
1
 70
0
  0
VERTEX
  8
0
 62
7
  6
CONTINUOUS
 10
111.750885364
 20
92.2633444586
  0
VERTEX
  8
0
 62
7
  6
CONTINUOUS
 10
111.847472588
 20
92.2827787276
  0
VERTEX
  8
0
 62
7
  6
CONTINUOUS
 10
111.9290543364
 20
92.3380229735
  0
VERTEX
  8
0
 62
7
  6
CONTINUOUS
 10
111.9829567393
 20
92.4204972349
  0
VERTEX
  8
0
 62
7
  6
CONTINUOUS
 10
112.0008413727
 20
92.5133570313
  0
SEQEND
  0
LINE
  8
0
 62
7
  6
CONTINUOUS
 10
45.469635663
 20
101.7137752406
 11
45.4058615561
 21
101.7644963333
  0
POLYLINE
  8
0
 62
7
  6
CONTINUOUS
 66
1
 70
0
  0
VERTEX
  8
0
 62
7
  6
CONTINUOUS
 10
45.4058615561
 20
101.7644963333
  0
VERTEX
  8
0
 62
7
  6
CONTINUOUS
 10
45.363288728
 20
101.8461088783
  0
VERTEX
  8
0
 62
7
  6
CONTINUOUS
 10
45.3537135291
 20
101.9430908893
  0
SEQEND
  0
POLYLINE
  8
0
 62
7
  6
CONTINUOUS
 66
1
 70
0
  0
VERTEX
  8
0
 62
7
  6
CONTINUOUS
 10
45.4058615561
 20
141.362192115
  0
VERTEX
  8
0
 62
7
  6
CONTINUOUS
 10
45.363288728
 20
141.28057957
  0
VERTEX
  8
0
 62
7
  6
CONTINUOUS
 10
45.3537135291
 20
141.183597559
  0
SEQEND
  0
POLYLINE
  8
0
 62
7
  6
CONTINUOUS
 66
1
 70
0
  0
VERTEX
  8
0
 62
7
  6
CONTINUOUS
 10
57.2765927503
 20
92.2633442241
  0
VERTEX
  8
0
 62
7
  6
CONTINUOUS
 10
57.1920987033
 20
92.2780555588
  0
VERTEX
  8
0
 62
7
  6
CONTINUOUS
 10
57.1190215212
 20
92.3192532461
  0
VERTEX
  8
0
 62
7
  6
CONTINUOUS
 10
57.0613967678
 20
92.3861015853
  0
VERTEX
  8
0
 62
7
  6
CONTINUOUS
 10
57.0297616343
 20
92.4736655125
  0
VERTEX
  8
0
 62
7
  6
CONTINUOUS
 10
57.0265927503
 20
92.5133442241
  0
SEQEND
  0
POLYLINE
  8
0
 62
7
  6
CONTINUOUS
 66
1
 70
0
  0
VERTEX
  8
0
 62
7
  6
CONTINUOUS
 10
45.4696332474
 20
101.7137764209
  0
VERTEX
  8
0
 62
7
  6
CONTINUOUS
 10
46.1127389967
 20
101.442748737
  0
VERTEX
  8
0
 62
7
  6
CONTINUOUS
 10
46.9441997814
 20
101.180485664
  0
VERTEX
  8
0
 62
7
  6
CONTINUOUS
 10
47.8833097047
 20
100.9595181206
  0
VERTEX
  8
0
 62
7
  6
CONTINUOUS
 10
48.9077474638
 20
100.7822038282
  0
VERTEX
  8
0
 62
7
  6
CONTINUOUS
 10
49.8590533893
 20
100.6638451113
  0
SEQEND
  0
POLYLINE
  8
0
 62
7
  6
CONTINUOUS
 66
1
 70
0
  0
VERTEX
  8
0
 62
7
  6
CONTINUOUS
 10
44.2009229758
 20
102.2683490373
  0
VERTEX
  8
0
 62
7
  6
CONTINUOUS
 10
44.2092311684
 20
102.2038306692
  0
VERTEX
  8
0
 62
7
  6
CONTINUOUS
 10
44.2895688717
 20
102.0565318759
  0
VERTEX
  8
0
 62
7
  6
CONTINUOUS
 10
44.408498024
 20
101.9650584266
  0
VERTEX
  8
0
 62
7
  6
CONTINUOUS
 10
44.5596708507
 20
101.8974837934
  0
VERTEX
  8
0
 62
7
  6
CONTINUOUS
 10
44.7576895659
 20
101.8375300504
  0
VERTEX
  8
0
 62
7
  6
CONTINUOUS
 10
45.0061381833
 20
101.7818094756
  0
VERTEX
  8
0
 62
7
  6
CONTINUOUS
 10
45.2928360149
 20
101.7312501819
  0
SEQEND
  0
LINE
  8
0
 62
7
  6
CONTINUOUS
 10
44.2008414927
 20
124.0518496942
 11
44.2008591436
 21
124.0505630858
  0
LINE
  8
0
 62
7
  6
CONTINUOUS
 10
44.2008414927
 20
140.8518496942
 11
44.2008591436
 21
140.8505630858
  0
LINE
  8
0
 62
7
  6
CONTINUOUS
 10
44.2008414459
 20
159.0132135079
 11
44.2008414459
 21
152.6748243721
  0
LINE
  8
0
 62
7
  6
CONTINUOUS
 10
44.2008414459
 20
140.8517927026
 11
44.2008414459
 21
135.8748957456
  0
LINE
  8
0
 62
7
  6
CONTINUOUS
 10
44.2008414459
 20
124.0517927026
 11
44.2008414459
 21
119.0748957456
  0
LINE
  8
AXES
 62
7
  6
CONTINUOUS
 10
44.2008414459
 20
107.2519490254
 11
44.2008414459
 21
102.2747394229
  0
LINE
  8
2_FEATURE
 62
7
  6
CONTINUOUS
 10
44.2008414459
 20
107.2519466928
 11
44.2008414459
 21
102.274741762
  0
LINE
  8
0
 62
7
  6
CONTINUOUS
 10
44.2008414832
 20
152.6747588947
 11
44.2008609612
 21
152.6761237156
  0
LINE
  8
0
 62
7
  6
CONTINUOUS
 10
44.2008414927
 20
135.8748387541
 11
44.2008609496
 21
135.8761929217
  0
LINE
  8
0
 62
7
  6
CONTINUOUS
 10
44.2008414927
 20
119.0748387541
 11
44.2008609496
 21
119.0761929217
  0
LINE
  8
0
 62
7
  6
CONTINUOUS
 10
45.469635663
 20
141.4129132076
 11
45.4058615561
 21
141.362192115
  0
LINE
  8
0
 62
7
  6
CONTINUOUS
 10
111.7508382763
 20
92.2633442241
 11
57.2765927503
 21
92.2633442241
  0
POLYLINE
  8
0
 62
7
  6
CONTINUOUS
 66
1
 70
0
  0
VERTEX
  8
0
 62
7
  6
CONTINUOUS
 10
45.4058615561
 20
118.5644963333
  0
VERTEX
  8
0
 62
7
  6
CONTINUOUS
 10
45.363288728
 20
118.6461088783
  0
VERTEX
  8
0
 62
7
  6
CONTINUOUS
 10
45.3537135291
 20
118.7430908893
  0
SEQEND
  0
POLYLINE
  8
0
 62
7
  6
CONTINUOUS
 66
1
 70
0
  0
VERTEX
  8
0
 62
7
  6
CONTINUOUS
 10
44.2008613486
 20
119.0761644769
  0
VERTEX
  8
0
 62
7
  6
CONTINUOUS
 10
44.2092311855
 20
119.0038305977
  0
VERTEX
  8
0
 62
7
  6
CONTINUOUS
 10
44.2895689074
 20
118.8565318373
  0
VERTEX
  8
0
 62
7
  6
CONTINUOUS
 10
44.4084980594
 20
118.7650584065
  0
VERTEX
  8
0
 62
7
  6
CONTINUOUS
 10
44.5596708839
 20
118.6974837813
  0
VERTEX
  8
0
 62
7
  6
CONTINUOUS
 10
44.7576895928
 20
118.6375300434
  0
VERTEX
  8
0
 62
7
  6
CONTINUOUS
 10
45.0061381985
 20
118.5818094726
  0
VERTEX
  8
0
 62
7
  6
CONTINUOUS
 10
45.292836018
 20
118.5312501814
  0
SEQEND
  0
POLYLINE
  8
0
 62
7
  6
CONTINUOUS
 66
1
 70
0
  0
VERTEX
  8
0
 62
7
  6
CONTINUOUS
 10
44.2008613486
 20
135.8761644769
  0
VERTEX
  8
0
 62
7
  6
CONTINUOUS
 10
44.2092311855
 20
135.8038305977
  0
VERTEX
  8
0
 62
7
  6
CONTINUOUS
 10
44.2895689074
 20
135.6565318373
  0
VERTEX
  8
0
 62
7
  6
CONTINUOUS
 10
44.4084980594
 20
135.5650584065
  0
VERTEX
  8
0
 62
7
  6
CONTINUOUS
 10
44.5596708839
 20
135.4974837813
  0
VERTEX
  8
0
 62
7
  6
CONTINUOUS
 10
44.7576895928
 20
135.4375300434
  0
VERTEX
  8
0
 62
7
  6
CONTINUOUS
 10
45.0061381985
 20
135.3818094726
  0
VERTEX
  8
0
 62
7
  6
CONTINUOUS
 10
45.292836018
 20
135.3312501814
  0
SEQEND
  0
POLYLINE
  8
0
 62
7
  6
CONTINUOUS
 66
1
 70
0
  0
VERTEX
  8
0
 62
7
  6
CONTINUOUS
 10
49.8285601226
 20
108.6128840281
  0
VERTEX
  8
0
 62
7
  6
CONTINUOUS
 10
49.827759322
 20
108.7262681181
  0
VERTEX
  8
0
 62
7
  6
CONTINUOUS
 10
49.8363147469
 20
108.8139691416
  0
VERTEX
  8
0
 62
7
  6
CONTINUOUS
 10
49.8523832938
 20
108.8590452964
  0
VERTEX
  8
0
 62
7
  6
CONTINUOUS
 10
49.8588550952
 20
108.8628439455
  0
SEQEND
  0
POLYLINE
  8
0
 62
7
  6
CONTINUOUS
 66
1
 70
0
  0
VERTEX
  8
0
 62
7
  6
CONTINUOUS
 10
49.8285601226
 20
125.4128840281
  0
VERTEX
  8
0
 62
7
  6
CONTINUOUS
 10
49.827759322
 20
125.5262681181
  0
VERTEX
  8
0
 62
7
  6
CONTINUOUS
 10
49.8363147469
 20
125.6139691416
  0
VERTEX
  8
0
 62
7
  6
CONTINUOUS
 10
49.8523832938
 20
125.6590452964
  0
VERTEX
  8
0
 62
7
  6
CONTINUOUS
 10
49.8588550952
 20
125.6628439455
  0
SEQEND
  0
LINE
  8
0
 62
7
  6
CONTINUOUS
 10
49.8285601226
 20
142.2128840281
 11
49.8285601226
 21
134.5138044202
  0
LINE
  8
0
 62
7
  6
CONTINUOUS
 10
49.8285601226
 20
108.6128840281
 11
49.8285601226
 21
100.9138044202
  0
LINE
  8
0
 62
7
  6
CONTINUOUS
 10
49.8285601226
 20
117.7138044202
 11
49.8285601226
 21
125.4128840281
  0
LINE
  8
0
 62
7
  6
CONTINUOUS
 10
49.8285601226
 20
151.3138044202
 11
49.8285601226
 21
159.0133442241
  0
POLYLINE
  8
0
 62
7
  6
CONTINUOUS
 66
1
 70
0
  0
VERTEX
  8
0
 62
7
  6
CONTINUOUS
 10
49.8285601226
 20
151.3138044202
  0
VERTEX
  8
0
 62
7
  6
CONTINUOUS
 10
49.827759322
 20
151.2004203302
  0
VERTEX
  8
0
 62
7
  6
CONTINUOUS
 10
49.8363147469
 20
151.1127193067
  0
VERTEX
  8
0
 62
7
  6
CONTINUOUS
 10
49.8523832938
 20
151.0676431519
  0
VERTEX
  8
0
 62
7
  6
CONTINUOUS
 10
49.8588550952
 20
151.0638445028
  0
SEQEND
  0
POLYLINE
  8
0
 62
7
  6
CONTINUOUS
 66
1
 70
0
  0
VERTEX
  8
0
 62
7
  6
CONTINUOUS
 10
49.8285601226
 20
134.5138044202
  0
VERTEX
  8
0
 62
7
  6
CONTINUOUS
 10
49.827759322
 20
134.4004203302
  0
VERTEX
  8
0
 62
7
  6
CONTINUOUS
 10
49.8363147469
 20
134.3127193067
  0
VERTEX
  8
0
 62
7
  6
CONTINUOUS
 10
49.8523832938
 20
134.2676431519
  0
VERTEX
  8
0
 62
7
  6
CONTINUOUS
 10
49.8588550952
 20
134.2638445028
  0
SEQEND
  0
POLYLINE
  8
0
 62
7
  6
CONTINUOUS
 66
1
 70
0
  0
VERTEX
  8
0
 62
7
  6
CONTINUOUS
 10
49.8285601226
 20
117.7138044202
  0
VERTEX
  8
0
 62
7
  6
CONTINUOUS
 10
49.827759322
 20
117.6004203302
  0
VERTEX
  8
0
 62
7
  6
CONTINUOUS
 10
49.8363147469
 20
117.5127193067
  0
VERTEX
  8
0
 62
7
  6
CONTINUOUS
 10
49.8523832938
 20
117.4676431519
  0
VERTEX
  8
0
 62
7
  6
CONTINUOUS
 10
49.8588550952
 20
117.4638445028
  0
SEQEND
  0
POLYLINE
  8
0
 62
7
  6
CONTINUOUS
 66
1
 70
0
  0
VERTEX
  8
0
 62
7
  6
CONTINUOUS
 10
45.4058615561
 20
124.562192115
  0
VERTEX
  8
0
 62
7
  6
CONTINUOUS
 10
45.363288728
 20
124.48057957
  0
VERTEX
  8
0
 62
7
  6
CONTINUOUS
 10
45.3537135291
 20
124.383597559
  0
SEQEND
  0
POLYLINE
  8
0
 62
7
  6
CONTINUOUS
 66
1
 70
0
  0
VERTEX
  8
0
 62
7
  6
CONTINUOUS
 10
57.2765927503
 20
92.2633442241
  0
VERTEX
  8
0
 62
7
  6
CONTINUOUS
 10
57.2807631022
 20
92.26418435
  0
VERTEX
  8
0
 62
7
  6
CONTINUOUS
 10
57.2809242516
 20
92.2672224953
  0
VERTEX
  8
0
 62
7
  6
CONTINUOUS
 10
57.2788480747
 20
92.2733232704
  0
VERTEX
  8
0
 62
7
  6
CONTINUOUS
 10
57.2764088643
 20
92.2834675945
  0
VERTEX
  8
0
 62
7
  6
CONTINUOUS
 10
57.2752991828
 20
92.2984557767
  0
VERTEX
  8
0
 62
7
  6
CONTINUOUS
 10
57.2759599914
 20
92.3186139212
  0
VERTEX
  8
0
 62
7
  6
CONTINUOUS
 10
57.2766011843
 20
92.3448175574
  0
VERTEX
  8
0
 62
7
  6
CONTINUOUS
 10
57.2760316601
 20
92.3799299591
  0
VERTEX
  8
0
 62
7
  6
CONTINUOUS
 10
57.2768229703
 20
92.4242409357
  0
VERTEX
  8
0
 62
7
  6
CONTINUOUS
 10
57.2783958975
 20
92.4716134488
  0
VERTEX
  8
0
 62
7
  6
CONTINUOUS
 10
57.2765927503
 20
92.5133442241
  0
SEQEND
  0
LINE
  8
0
 62
7
  6
CONTINUOUS
 10
45.2928360149
 20
101.7312501819
 11
45.5013829781
 21
101.7003959528
  0
POLYLINE
  8
0
 62
7
  6
CONTINUOUS
 66
1
 70
0
  0
VERTEX
  8
0
 62
7
  6
CONTINUOUS
 10
44.2008613485
 20
152.6761644737
  0
VERTEX
  8
0
 62
7
  6
CONTINUOUS
 10
44.2092310067
 20
152.6038313445
  0
VERTEX
  8
0
 62
7
  6
CONTINUOUS
 10
44.2895685344
 20
152.4565322411
  0
VERTEX
  8
0
 62
7
  6
CONTINUOUS
 10
44.4084976894
 20
152.3650586162
  0
VERTEX
  8
0
 62
7
  6
CONTINUOUS
 10
44.559670537
 20
152.2974839069
  0
VERTEX
  8
0
 62
7
  6
CONTINUOUS
 10
44.7576893121
 20
152.2375301159
  0
VERTEX
  8
0
 62
7
  6
CONTINUOUS
 10
45.0061380398
 20
152.181809504
  0
VERTEX
  8
0
 62
7
  6
CONTINUOUS
 10
45.292835986
 20
152.1312501865
  0
SEQEND
  0
POLYLINE
  8
0
 62
7
  6
CONTINUOUS
 66
1
 70
0
  0
VERTEX
  8
0
 62
7
  6
CONTINUOUS
 10
49.8285601226
 20
142.2128840281
  0
VERTEX
  8
0
 62
7
  6
CONTINUOUS
 10
49.827759322
 20
142.3262681181
  0
VERTEX
  8
0
 62
7
  6
CONTINUOUS
 10
49.8363147469
 20
142.4139691416
  0
VERTEX
  8
0
 62
7
  6
CONTINUOUS
 10
49.8523832938
 20
142.4590452964
  0
VERTEX
  8
0
 62
7
  6
CONTINUOUS
 10
49.8588550952
 20
142.4628439455
  0
SEQEND
  0
LINE
  8
DEFAULT_1
 62
2
  6
CENTER
 10
52.7008414459
 20
92.4702091106
 11
52.7008414459
 21
161.2633442241
  0
POLYLINE
  8
0
 62
7
  6
CONTINUOUS
 66
1
 70
0
  0
VERTEX
  8
0
 62
7
  6
CONTINUOUS
 10
49.8285601226
 20
100.9138044202
  0
VERTEX
  8
0
 62
7
  6
CONTINUOUS
 10
49.827759322
 20
100.8004203302
  0
VERTEX
  8
0
 62
7
  6
CONTINUOUS
 10
49.8363147469
 20
100.7127193067
  0
VERTEX
  8
0
 62
7
  6
CONTINUOUS
 10
49.8523832938
 20
100.6676431519
  0
VERTEX
  8
0
 62
7
  6
CONTINUOUS
 10
49.8588550952
 20
100.6638445028
  0
SEQEND
  0
LINE
  8
0
 62
7
  6
CONTINUOUS
 10
46.1127389967
 20
141.6839397113
 11
45.4696332474
 21
141.4129120274
  0
LINE
  8
0
 62
7
  6
CONTINUOUS
 10
99.6744632482
 20
100.4628840281
 11
106.3415547983
 21
100.4628840281
  0
LINE
  8
0
 62
7
  6
CONTINUOUS
 10
56.5272046872
 20
100.6638044202
 11
49.8601280934
 21
100.6638044202
  0
LINE
  8
0
 62
7
  6
CONTINUOUS
 10
49.8588550952
 20
100.6638445028
 11
49.859658139
 21
100.6638045043
  0
LINE
  8
0
 62
7
  6
CONTINUOUS
 10
45.469635663
 20
118.5137752406
 11
45.4058615561
 21
118.5644963333
  0
LINE
  8
0
 62
7
  6
CONTINUOUS
 10
106.3428277965
 20
100.4628439455
 11
106.3420247528
 21
100.462883944
  0
POLYLINE
  8
0
 62
7
  6
CONTINUOUS
 66
1
 70
0
  0
VERTEX
  8
0
 62
7
  6
CONTINUOUS
 10
45.4058615561
 20
135.3644963333
  0
VERTEX
  8
0
 62
7
  6
CONTINUOUS
 10
45.363288728
 20
135.4461088783
  0
VERTEX
  8
0
 62
7
  6
CONTINUOUS
 10
45.3537135291
 20
135.5430908893
  0
SEQEND
  0
LINE
  8
0
 62
7
  6
CONTINUOUS
 10
57.0265927503
 20
150.564419564
 11
57.0265927503
 21
142.9622688843
  0
LINE
  8
0
 62
7
  6
CONTINUOUS
 10
57.0265927503
 20
133.764419564
 11
57.0265927503
 21
126.1622688843
  0
LINE
  8
0
 62
7
  6
CONTINUOUS
 10
57.0265927503
 20
116.964419564
 11
57.0265927503
 21
109.3622688843
  0
LINE
  8
0
 62
7
  6
CONTINUOUS
 10
57.0265927503
 20
100.164419564
 11
57.0265927503
 21
92.5133442241
  0
POLYLINE
  8
0
 62
7
  6
CONTINUOUS
 66
1
 70
0
  0
VERTEX
  8
0
 62
7
  6
CONTINUOUS
 10
45.4058615561
 20
107.762192115
  0
VERTEX
  8
0
 62
7
  6
CONTINUOUS
 10
45.363288728
 20
107.68057957
  0
VERTEX
  8
0
 62
7
  6
CONTINUOUS
 10
45.3537135291
 20
107.583597559
  0
SEQEND
  0
LINE
  8
0
 62
7
  6
CONTINUOUS
 10
45.469635663
 20
124.6129132076
 11
45.4058615561
 21
124.562192115
  0
POLYLINE
  8
0
 62
7
  6
CONTINUOUS
 66
1
 70
0
  0
VERTEX
  8
0
 62
7
  6
CONTINUOUS
 10
110.7002960338
 20
110.1003943177
  0
VERTEX
  8
0
 62
7
  6
CONTINUOUS
 10
110.9078558377
 20
110.1310928907
  0
VERTEX
  8
0
 62
7
  6
CONTINUOUS
 10
111.1961222843
 20
110.1819234569
  0
VERTEX
  8
0
 62
7
  6
CONTINUOUS
 10
111.4466496806
 20
110.2382168173
  0
VERTEX
  8
0
 62
7
  6
CONTINUOUS
 10
111.6460618771
 20
110.2989569086
  0
VERTEX
  8
0
 62
7
  6
CONTINUOUS
 10
111.7978705984
 20
110.3677382003
  0
VERTEX
  8
0
 62
7
  6
CONTINUOUS
 10
111.916927283
 20
110.4618428359
  0
VERTEX
  8
0
 62
7
  6
CONTINUOUS
 10
111.9945972472
 20
110.6134717004
  0
VERTEX
  8
0
 62
7
  6
CONTINUOUS
 10
112.0008233504
 20
110.6760967788
  0
SEQEND
  0
POLYLINE
  8
0
 62
7
  6
CONTINUOUS
 66
1
 70
0
  0
VERTEX
  8
0
 62
7
  6
CONTINUOUS
 10
106.3426295024
 20
109.0638451113
  0
VERTEX
  8
0
 62
7
  6
CONTINUOUS
 10
107.2939354279
 20
109.1822038282
  0
VERTEX
  8
0
 62
7
  6
CONTINUOUS
 10
108.3183731871
 20
109.3595181206
  0
VERTEX
  8
0
 62
7
  6
CONTINUOUS
 10
109.2574831103
 20
109.580485664
  0
VERTEX
  8
0
 62
7
  6
CONTINUOUS
 10
110.088943895
 20
109.842748737
  0
SEQEND
  0
LINE
  8
0
 62
7
  6
CONTINUOUS
 10
110.9088469058
 20
99.3954382618
 11
110.7002999137
 21
99.4262924955
  0
POLYLINE
  8
0
 62
7
  6
CONTINUOUS
 66
1
 70
0
  0
VERTEX
  8
0
 62
7
  6
CONTINUOUS
 10
45.4696332474
 20
118.5137764209
  0
VERTEX
  8
0
 62
7
  6
CONTINUOUS
 10
46.1127389967
 20
118.242748737
  0
VERTEX
  8
0
 62
7
  6
CONTINUOUS
 10
46.9441997814
 20
117.980485664
  0
VERTEX
  8
0
 62
7
  6
CONTINUOUS
 10
47.8833097047
 20
117.7595181206
  0
VERTEX
  8
0
 62
7
  6
CONTINUOUS
 10
48.9077474638
 20
117.5822038282
  0
VERTEX
  8
0
 62
7
  6
CONTINUOUS
 10
49.8590533893
 20
117.4638451113
  0
SEQEND
  0
LINE
  8
0
 62
7
  6
CONTINUOUS
 10
106.3428277965
 20
109.0638445028
 11
106.3420247528
 21
109.0638045043
  0
LINE
  8
0
 62
7
  6
CONTINUOUS
 10
49.8588550952
 20
108.8628439455
 11
49.859658139
 21
108.862883944
  0
LINE
  8
0
 62
7
  6
CONTINUOUS
 10
49.8601280934
 20
108.8628840281
 11
56.5272046872
 21
108.8628840281
  0
LINE
  8
0
 62
7
  6
CONTINUOUS
 10
106.3415547983
 20
109.0638044202
 11
99.6744632482
 21
109.0638044202
  0
POLYLINE
  8
0
 62
7
  6
CONTINUOUS
 66
1
 70
0
  0
VERTEX
  8
0
 62
7
  6
CONTINUOUS
 10
45.4058615561
 20
152.1644963333
  0
VERTEX
  8
0
 62
7
  6
CONTINUOUS
 10
45.363288728
 20
152.2461088783
  0
VERTEX
  8
0
 62
7
  6
CONTINUOUS
 10
45.3537135291
 20
152.3430908893
  0
SEQEND
  0
POLYLINE
  8
0
 62
7
  6
CONTINUOUS
 66
1
 70
0
  0
VERTEX
  8
0
 62
7
  6
CONTINUOUS
 10
45.501386858
 20
107.8262941306
  0
VERTEX
  8
0
 62
7
  6
CONTINUOUS
 10
45.2938270507
 20
107.795595557
  0
VERTEX
  8
0
 62
7
  6
CONTINUOUS
 10
45.0055605914
 20
107.7447649882
  0
VERTEX
  8
0
 62
7
  6
CONTINUOUS
 10
44.7550331829
 20
107.6884716237
  0
VERTEX
  8
0
 62
7
  6
CONTINUOUS
 10
44.55562098
 20
107.6277315271
  0
VERTEX
  8
0
 62
7
  6
CONTINUOUS
 10
44.4038122566
 20
107.5589502267
  0
VERTEX
  8
0
 62
7
  6
CONTINUOUS
 10
44.284755572
 20
107.4648455711
  0
VERTEX
  8
0
 62
7
  6
CONTINUOUS
 10
44.2070856291
 20
107.3132166728
  0
VERTEX
  8
0
 62
7
  6
CONTINUOUS
 10
44.2009126514
 20
107.2579191958
  0
SEQEND
  0
POLYLINE
  8
0
 62
7
  6
CONTINUOUS
 66
1
 70
0
  0
VERTEX
  8
0
 62
7
  6
CONTINUOUS
 10
49.8590533893
 20
108.8628433369
  0
VERTEX
  8
0
 62
7
  6
CONTINUOUS
 10
48.9077474638
 20
108.74448462
  0
VERTEX
  8
0
 62
7
  6
CONTINUOUS
 10
47.8833097047
 20
108.5671703276
  0
VERTEX
  8
0
 62
7
  6
CONTINUOUS
 10
46.9441997814
 20
108.3462027843
  0
VERTEX
  8
0
 62
7
  6
CONTINUOUS
 10
46.1127389967
 20
108.0839397113
  0
SEQEND
  0
LINE
  8
0
 62
7
  6
CONTINUOUS
 10
45.469635663
 20
135.3137752406
 11
45.4058615561
 21
135.3644963333
  0
LINE
  8
0
 62
7
  6
CONTINUOUS
 10
46.1127389967
 20
124.8839397113
 11
45.4696332474
 21
124.6129120274
  0
LINE
  8
0
 62
7
  6
CONTINUOUS
 10
49.8588550952
 20
117.4638445028
 11
49.859658139
 21
117.4638045043
  0
LINE
  8
0
 62
7
  6
CONTINUOUS
 10
45.292836018
 20
118.5312501814
 11
45.5013829781
 21
118.5003959528
  0
POLYLINE
  8
0
 62
7
  6
CONTINUOUS
 66
1
 70
0
  0
VERTEX
  8
0
 62
7
  6
CONTINUOUS
 10
110.7320496444
 20
99.4129120274
  0
VERTEX
  8
0
 62
7
  6
CONTINUOUS
 10
110.088943895
 20
99.6839397113
  0
VERTEX
  8
0
 62
7
  6
CONTINUOUS
 10
109.2574831103
 20
99.9462027843
  0
VERTEX
  8
0
 62
7
  6
CONTINUOUS
 10
108.3183731871
 20
100.1671703276
  0
VERTEX
  8
0
 62
7
  6
CONTINUOUS
 10
107.2939354279
 20
100.34448462
  0
VERTEX
  8
0
 62
7
  6
CONTINUOUS
 10
106.3426295024
 20
100.4628433369
  0
SEQEND
  0
LINE
  8
0
 62
7
  6
CONTINUOUS
 10
45.469635663
 20
107.8129132076
 11
45.4058615561
 21
107.762192115
  0
LINE
  8
0
 62
7
  6
CONTINUOUS
 10
99.6744632482
 20
117.2628840281
 11
106.3415547983
 21
117.2628840281
  0
LINE
  8
0
 62
7
  6
CONTINUOUS
 10
56.5272046872
 20
117.4638044202
 11
49.8601280934
 21
117.4638044202
  0
LINE
  8
0
 62
7
  6
CONTINUOUS
 10
106.3428277965
 20
117.2628439455
 11
106.3420247528
 21
117.262883944
  0
LINE
  8
0
 62
7
  6
CONTINUOUS
 10
110.088943895
 20
143.442748737
 11
110.7320496444
 21
143.7137764209
  0
POLYLINE
  8
0
 62
7
  6
CONTINUOUS
 66
1
 70
0
  0
VERTEX
  8
0
 62
7
  6
CONTINUOUS
 10
110.7002960338
 20
126.9003943177
  0
VERTEX
  8
0
 62
7
  6
CONTINUOUS
 10
110.9078558377
 20
126.9310928907
  0
VERTEX
  8
0
 62
7
  6
CONTINUOUS
 10
111.1961222843
 20
126.9819234569
  0
VERTEX
  8
0
 62
7
  6
CONTINUOUS
 10
111.4466496806
 20
127.0382168173
  0
VERTEX
  8
0
 62
7
  6
CONTINUOUS
 10
111.6460618771
 20
127.0989569086
  0
VERTEX
  8
0
 62
7
  6
CONTINUOUS
 10
111.7978705984
 20
127.1677382003
  0
VERTEX
  8
0
 62
7
  6
CONTINUOUS
 10
111.916927283
 20
127.2618428359
  0
VERTEX
  8
0
 62
7
  6
CONTINUOUS
 10
111.9945972472
 20
127.4134717004
  0
VERTEX
  8
0
 62
7
  6
CONTINUOUS
 10
112.0008233504
 20
127.4760967788
  0
SEQEND
  0
POLYLINE
  8
0
 62
7
  6
CONTINUOUS
 66
1
 70
0
  0
VERTEX
  8
0
 62
7
  6
CONTINUOUS
 10
106.3426295024
 20
125.8638451113
  0
VERTEX
  8
0
 62
7
  6
CONTINUOUS
 10
107.2939354279
 20
125.9822038282
  0
VERTEX
  8
0
 62
7
  6
CONTINUOUS
 10
108.3183731871
 20
126.1595181206
  0
VERTEX
  8
0
 62
7
  6
CONTINUOUS
 10
109.2574831103
 20
126.380485664
  0
VERTEX
  8
0
 62
7
  6
CONTINUOUS
 10
110.088943895
 20
126.642748737
  0
SEQEND
  0
LINE
  8
0
 62
7
  6
CONTINUOUS
 10
110.9088468737
 20
116.1954382669
 11
110.7002999136
 21
116.2262924955
  0
POLYLINE
  8
0
 62
7
  6
CONTINUOUS
 66
1
 70
0
  0
VERTEX
  8
0
 62
7
  6
CONTINUOUS
 10
45.4696332474
 20
135.3137764209
  0
VERTEX
  8
0
 62
7
  6
CONTINUOUS
 10
46.1127389967
 20
135.042748737
  0
VERTEX
  8
0
 62
7
  6
CONTINUOUS
 10
46.9441997814
 20
134.780485664
  0
VERTEX
  8
0
 62
7
  6
CONTINUOUS
 10
47.8833097047
 20
134.5595181206
  0
VERTEX
  8
0
 62
7
  6
CONTINUOUS
 10
48.9077474638
 20
134.3822038282
  0
VERTEX
  8
0
 62
7
  6
CONTINUOUS
 10
49.8590533893
 20
134.2638451113
  0
SEQEND
  0
LINE
  8
AXES
 62
2
  6
CENTER
 10
78.1008414459
 20
130.1633442241
 11
78.1008414459
 21
127.7634442241
  0
LINE
  8
AXES
 62
2
  6
CONTINUOUS
 10
78.1008414459
 20
126.6433442241
 11
78.1008414459
 21
124.8833442241
  0
LINE
  8
AXES
 62
2
  6
CENTER
 10
78.1008414459
 20
121.3633442241
 11
78.1008414459
 21
123.7632442241
  0
LINE
  8
0
 62
7
  6
CONTINUOUS
 10
106.3428277965
 20
125.8638445028
 11
106.3420247528
 21
125.8638045043
  0
LINE
  8
0
 62
7
  6
CONTINUOUS
 10
49.8601280934
 20
125.6628840281
 11
56.5272046872
 21
125.6628840281
  0
LINE
  8
AXES
 62
2
  6
CENTER
 10
82.5008414459
 20
125.7633442241
 11
80.1009414459
 21
125.7633442241
  0
LINE
  8
AXES
 62
2
  6
CONTINUOUS
 10
78.9808414459
 20
125.7633442241
 11
77.2208414459
 21
125.7633442241
  0
LINE
  8
AXES
 62
2
  6
CENTER
 10
73.7008414459
 20
125.7633442241
 11
76.1007414459
 21
125.7633442241
  0
LINE
  8
0
 62
7
  6
CONTINUOUS
 10
106.3415547983
 20
125.8638044202
 11
99.6744632482
 21
125.8638044202
  0
LINE
  8
0
 62
7
  6
CONTINUOUS
 10
110.7320472288
 20
99.4129132076
 11
110.7958213356
 21
99.362192115
  0
LINE
  8
0
 62
7
  6
CONTINUOUS
 10
45.469635663
 20
152.1137752406
 11
45.4058615561
 21
152.1644963333
  0
POLYLINE
  8
0
 62
7
  6
CONTINUOUS
 66
1
 70
0
  0
VERTEX
  8
0
 62
7
  6
CONTINUOUS
 10
49.8590533893
 20
125.6628433369
  0
VERTEX
  8
0
 62
7
  6
CONTINUOUS
 10
48.9077474638
 20
125.54448462
  0
VERTEX
  8
0
 62
7
  6
CONTINUOUS
 10
47.8833097047
 20
125.3671703276
  0
VERTEX
  8
0
 62
7
  6
CONTINUOUS
 10
46.9441997814
 20
125.1462027843
  0
VERTEX
  8
0
 62
7
  6
CONTINUOUS
 10
46.1127389967
 20
124.8839397113
  0
SEQEND
  0
LINE
  8
0
 62
7
  6
CONTINUOUS
 10
49.8588550952
 20
125.6628439455
 11
49.859658139
 21
125.662883944
  0
LINE
  8
0
 62
7
  6
CONTINUOUS
 10
110.7320472288
 20
143.7137752406
 11
110.7958213356
 21
143.7644963333
  0
LINE
  8
0
 62
7
  6
CONTINUOUS
 10
46.1127389967
 20
108.0839397113
 11
45.4696332474
 21
107.8129120274
  0
POLYLINE
  8
0
 62
7
  6
CONTINUOUS
 66
1
 70
0
  0
VERTEX
  8
0
 62
7
  6
CONTINUOUS
 10
45.501386858
 20
124.6262941306
  0
VERTEX
  8
0
 62
7
  6
CONTINUOUS
 10
45.293827054
 20
124.5955955575
  0
VERTEX
  8
0
 62
7
  6
CONTINUOUS
 10
45.0055606075
 20
124.5447649914
  0
VERTEX
  8
0
 62
7
  6
CONTINUOUS
 10
44.7550332111
 20
124.488471631
  0
VERTEX
  8
0
 62
7
  6
CONTINUOUS
 10
44.5556210146
 20
124.4277315397
  0
VERTEX
  8
0
 62
7
  6
CONTINUOUS
 10
44.4038122934
 20
124.358950248
  0
VERTEX
  8
0
 62
7
  6
CONTINUOUS
 10
44.2847556087
 20
124.2648456124
  0
VERTEX
  8
0
 62
7
  6
CONTINUOUS
 10
44.2070856446
 20
124.1132167478
  0
VERTEX
  8
0
 62
7
  6
CONTINUOUS
 10
44.2008595413
 20
124.0505916695
  0
SEQEND
  0
LINE
  8
0
 62
7
  6
CONTINUOUS
 10
45.292836018
 20
135.3312501814
 11
45.5013829781
 21
135.3003959528
  0
POLYLINE
  8
0
 62
7
  6
CONTINUOUS
 66
1
 70
0
  0
VERTEX
  8
0
 62
7
  6
CONTINUOUS
 10
110.7320496444
 20
116.2129120274
  0
VERTEX
  8
0
 62
7
  6
CONTINUOUS
 10
110.088943895
 20
116.4839397113
  0
VERTEX
  8
0
 62
7
  6
CONTINUOUS
 10
109.2574831103
 20
116.7462027843
  0
VERTEX
  8
0
 62
7
  6
CONTINUOUS
 10
108.3183731871
 20
116.9671703276
  0
VERTEX
  8
0
 62
7
  6
CONTINUOUS
 10
107.2939354279
 20
117.14448462
  0
VERTEX
  8
0
 62
7
  6
CONTINUOUS
 10
106.3426295024
 20
117.2628433369
  0
SEQEND
  0
LINE
  8
0
 62
7
  6
CONTINUOUS
 10
99.6744632482
 20
134.0628840281
 11
106.3415547983
 21
134.0628840281
  0
LINE
  8
0
 62
7
  6
CONTINUOUS
 10
56.5272046872
 20
134.2638044202
 11
49.8601280934
 21
134.2638044202
  0
LINE
  8
0
 62
7
  6
CONTINUOUS
 10
49.8588550952
 20
134.2638445028
 11
49.859658139
 21
134.2638045043
  0
LINE
  8
0
 62
7
  6
CONTINUOUS
 10
106.3428277965
 20
134.0628439455
 11
106.3420247528
 21
134.062883944
  0
LINE
  8
0
 62
7
  6
CONTINUOUS
 10
110.088943895
 20
126.642748737
 11
110.7320496444
 21
126.9137764209
  0
POLYLINE
  8
0
 62
7
  6
CONTINUOUS
 66
1
 70
0
  0
VERTEX
  8
0
 62
7
  6
CONTINUOUS
 10
110.7002960338
 20
143.7003943177
  0
VERTEX
  8
0
 62
7
  6
CONTINUOUS
 10
110.9078558377
 20
143.7310928907
  0
VERTEX
  8
0
 62
7
  6
CONTINUOUS
 10
111.1961222843
 20
143.7819234569
  0
VERTEX
  8
0
 62
7
  6
CONTINUOUS
 10
111.4466496806
 20
143.8382168173
  0
VERTEX
  8
0
 62
7
  6
CONTINUOUS
 10
111.6460618771
 20
143.8989569086
  0
VERTEX
  8
0
 62
7
  6
CONTINUOUS
 10
111.7978705984
 20
143.9677382003
  0
VERTEX
  8
0
 62
7
  6
CONTINUOUS
 10
111.916927283
 20
144.0618428359
  0
VERTEX
  8
0
 62
7
  6
CONTINUOUS
 10
111.9945972472
 20
144.2134717004
  0
VERTEX
  8
0
 62
7
  6
CONTINUOUS
 10
112.0008233504
 20
144.2760967788
  0
SEQEND
  0
LINE
  8
0
 62
7
  6
CONTINUOUS
 10
110.9088468737
 20
132.9954382669
 11
110.7002999136
 21
133.0262924955
  0
POLYLINE
  8
0
 62
7
  6
CONTINUOUS
 66
1
 70
0
  0
VERTEX
  8
0
 62
7
  6
CONTINUOUS
 10
45.4696332474
 20
152.1137764209
  0
VERTEX
  8
0
 62
7
  6
CONTINUOUS
 10
46.1127389967
 20
151.842748737
  0
VERTEX
  8
0
 62
7
  6
CONTINUOUS
 10
46.9441997814
 20
151.580485664
  0
VERTEX
  8
0
 62
7
  6
CONTINUOUS
 10
47.8833097047
 20
151.3595181206
  0
VERTEX
  8
0
 62
7
  6
CONTINUOUS
 10
48.9077474638
 20
151.1822038282
  0
VERTEX
  8
0
 62
7
  6
CONTINUOUS
 10
49.8590533893
 20
151.0638451113
  0
SEQEND
  0
LINE
  8
0
 62
7
  6
CONTINUOUS
 10
110.7320472288
 20
116.2129132076
 11
110.7958213356
 21
116.162192115
  0
POLYLINE
  8
0
 62
7
  6
CONTINUOUS
 66
1
 70
0
  0
VERTEX
  8
0
 62
7
  6
CONTINUOUS
 10
106.3426295024
 20
142.6638451113
  0
VERTEX
  8
0
 62
7
  6
CONTINUOUS
 10
107.2939354279
 20
142.7822038282
  0
VERTEX
  8
0
 62
7
  6
CONTINUOUS
 10
108.3183731871
 20
142.9595181206
  0
VERTEX
  8
0
 62
7
  6
CONTINUOUS
 10
109.2574831103
 20
143.180485664
  0
VERTEX
  8
0
 62
7
  6
CONTINUOUS
 10
110.088943895
 20
143.442748737
  0
SEQEND
  0
LINE
  8
0
 62
7
  6
CONTINUOUS
 10
106.3428277965
 20
142.6638445028
 11
106.3420247528
 21
142.6638045043
  0
LINE
  8
0
 62
7
  6
CONTINUOUS
 10
110.7320472288
 20
126.9137752406
 11
110.7958213356
 21
126.9644963333
  0
LINE
  8
0
 62
7
  6
CONTINUOUS
 10
49.8588550952
 20
142.4628439455
 11
49.859658139
 21
142.462883944
  0
LINE
  8
0
 62
7
  6
CONTINUOUS
 10
49.8601280934
 20
142.4628840281
 11
56.5272046872
 21
142.4628840281
  0
LINE
  8
0
 62
7
  6
CONTINUOUS
 10
106.3415547983
 20
142.6638044202
 11
99.6744632482
 21
142.6638044202
  0
POLYLINE
  8
0
 62
7
  6
CONTINUOUS
 66
1
 70
0
  0
VERTEX
  8
0
 62
7
  6
CONTINUOUS
 10
110.7320496444
 20
133.0129120274
  0
VERTEX
  8
0
 62
7
  6
CONTINUOUS
 10
110.088943895
 20
133.2839397113
  0
VERTEX
  8
0
 62
7
  6
CONTINUOUS
 10
109.2574831103
 20
133.5462027843
  0
VERTEX
  8
0
 62
7
  6
CONTINUOUS
 10
108.3183731871
 20
133.7671703276
  0
VERTEX
  8
0
 62
7
  6
CONTINUOUS
 10
107.2939354279
 20
133.94448462
  0
VERTEX
  8
0
 62
7
  6
CONTINUOUS
 10
106.3426295024
 20
134.0628433369
  0
SEQEND
  0
POLYLINE
  8
0
 62
7
  6
CONTINUOUS
 66
1
 70
0
  0
VERTEX
  8
0
 62
7
  6
CONTINUOUS
 10
110.7958213356
 20
99.362192115
  0
VERTEX
  8
0
 62
7
  6
CONTINUOUS
 10
110.8383941637
 20
99.28057957
  0
VERTEX
  8
0
 62
7
  6
CONTINUOUS
 10
110.8479693626
 20
99.183597559
  0
SEQEND
  0
LINE
  8
0
 62
7
  6
CONTINUOUS
 10
99.1750901414
 20
159.0133442241
 11
99.1750901414
 21
151.3622537708
  0
LINE
  8
0
 62
7
  6
CONTINUOUS
 10
99.1750901414
 20
142.1644346775
 11
99.1750901414
 21
134.5622537708
  0
LINE
  8
0
 62
7
  6
CONTINUOUS
 10
99.1750901414
 20
125.3644346775
 11
99.1750901414
 21
117.7622537708
  0
LINE
  8
0
 62
7
  6
CONTINUOUS
 10
99.1750901414
 20
108.5644346775
 11
99.1750901414
 21
100.9622537708
  0
POLYLINE
  8
0
 62
7
  6
CONTINUOUS
 66
1
 70
0
  0
VERTEX
  8
0
 62
7
  6
CONTINUOUS
 10
110.7958213356
 20
143.7644963333
  0
VERTEX
  8
0
 62
7
  6
CONTINUOUS
 10
110.8383941637
 20
143.8461088783
  0
VERTEX
  8
0
 62
7
  6
CONTINUOUS
 10
110.8479693626
 20
143.9430908893
  0
SEQEND
  0
POLYLINE
  8
0
 62
7
  6
CONTINUOUS
 66
1
 70
0
  0
VERTEX
  8
0
 62
7
  6
CONTINUOUS
 10
45.501386858
 20
141.4262941306
  0
VERTEX
  8
0
 62
7
  6
CONTINUOUS
 10
45.293827054
 20
141.3955955575
  0
VERTEX
  8
0
 62
7
  6
CONTINUOUS
 10
45.0055606075
 20
141.3447649914
  0
VERTEX
  8
0
 62
7
  6
CONTINUOUS
 10
44.7550332111
 20
141.288471631
  0
VERTEX
  8
0
 62
7
  6
CONTINUOUS
 10
44.5556210146
 20
141.2277315397
  0
VERTEX
  8
0
 62
7
  6
CONTINUOUS
 10
44.4038122934
 20
141.158950248
  0
VERTEX
  8
0
 62
7
  6
CONTINUOUS
 10
44.2847556087
 20
141.0648456124
  0
VERTEX
  8
0
 62
7
  6
CONTINUOUS
 10
44.2070856446
 20
140.9132167478
  0
VERTEX
  8
0
 62
7
  6
CONTINUOUS
 10
44.2008595413
 20
140.8505916695
  0
SEQEND
  0
POLYLINE
  8
0
 62
7
  6
CONTINUOUS
 66
1
 70
0
  0
VERTEX
  8
0
 62
7
  6
CONTINUOUS
 10
49.8590533893
 20
142.4628433369
  0
VERTEX
  8
0
 62
7
  6
CONTINUOUS
 10
48.9077474638
 20
142.34448462
  0
VERTEX
  8
0
 62
7
  6
CONTINUOUS
 10
47.8833097047
 20
142.1671703276
  0
VERTEX
  8
0
 62
7
  6
CONTINUOUS
 10
46.9441997814
 20
141.9462027843
  0
VERTEX
  8
0
 62
7
  6
CONTINUOUS
 10
46.1127389967
 20
141.6839397113
  0
SEQEND
  0
LINE
  8
0
 62
7
  6
CONTINUOUS
 10
45.292835986
 20
152.1312501865
 11
45.501382978
 21
152.1003959528
  0
LINE
  8
AXES
 62
2
  6
CENTER
 10
103.5008414459
 20
90.2633442241
 11
103.5008414459
 21
158.0457475054
  0
LINE
  8
0
 62
7
  6
CONTINUOUS
 10
99.6744632482
 20
150.8628840281
 11
106.3415547983
 21
150.8628840281
  0
LINE
  8
0
 62
7
  6
CONTINUOUS
 10
56.5272046872
 20
151.0638044202
 11
49.8601280934
 21
151.0638044202
  0
LINE
  8
0
 62
7
  6
CONTINUOUS
 10
49.8588550952
 20
151.0638445028
 11
49.859658139
 21
151.0638045043
  0
POLYLINE
  8
0
 62
7
  6
CONTINUOUS
 66
1
 70
0
  0
VERTEX
  8
0
 62
7
  6
CONTINUOUS
 10
110.7958213356
 20
116.162192115
  0
VERTEX
  8
0
 62
7
  6
CONTINUOUS
 10
110.8383941637
 20
116.08057957
  0
VERTEX
  8
0
 62
7
  6
CONTINUOUS
 10
110.8479693626
 20
115.983597559
  0
SEQEND
  0
POLYLINE
  8
0
 62
7
  6
CONTINUOUS
 66
1
 70
0
  0
VERTEX
  8
0
 62
7
  6
CONTINUOUS
 10
106.3731227691
 20
109.3138044202
  0
VERTEX
  8
0
 62
7
  6
CONTINUOUS
 10
106.3739235698
 20
109.2004203302
  0
VERTEX
  8
0
 62
7
  6
CONTINUOUS
 10
106.3653681448
 20
109.1127193067
  0
VERTEX
  8
0
 62
7
  6
CONTINUOUS
 10
106.3492995979
 20
109.0676431519
  0
VERTEX
  8
0
 62
7
  6
CONTINUOUS
 10
106.3428277965
 20
109.0638445028
  0
SEQEND
  0
POLYLINE
  8
0
 62
7
  6
CONTINUOUS
 66
1
 70
0
  0
VERTEX
  8
0
 62
7
  6
CONTINUOUS
 10
106.3731227691
 20
126.1138044202
  0
VERTEX
  8
0
 62
7
  6
CONTINUOUS
 10
106.3739235698
 20
126.0004203302
  0
VERTEX
  8
0
 62
7
  6
CONTINUOUS
 10
106.3653681448
 20
125.9127193067
  0
VERTEX
  8
0
 62
7
  6
CONTINUOUS
 10
106.3492995979
 20
125.8676431519
  0
VERTEX
  8
0
 62
7
  6
CONTINUOUS
 10
106.3428277965
 20
125.8638445028
  0
SEQEND
  0
POLYLINE
  8
0
 62
7
  6
CONTINUOUS
 66
1
 70
0
  0
VERTEX
  8
0
 62
7
  6
CONTINUOUS
 10
106.3731227691
 20
142.9138044202
  0
VERTEX
  8
0
 62
7
  6
CONTINUOUS
 10
106.3739235698
 20
142.8004203302
  0
VERTEX
  8
0
 62
7
  6
CONTINUOUS
 10
106.3653681448
 20
142.7127193067
  0
VERTEX
  8
0
 62
7
  6
CONTINUOUS
 10
106.3492995979
 20
142.6676431519
  0
VERTEX
  8
0
 62
7
  6
CONTINUOUS
 10
106.3428277965
 20
142.6638445028
  0
SEQEND
  0
LINE
  8
0
 62
7
  6
CONTINUOUS
 10
106.3731227691
 20
150.6128840281
 11
106.3731227691
 21
142.9138044202
  0
LINE
  8
0
 62
7
  6
CONTINUOUS
 10
106.3731227691
 20
100.2128840281
 11
106.3731227691
 21
92.5133442241
  0
LINE
  8
0
 62
7
  6
CONTINUOUS
 10
106.3731227691
 20
109.3138044202
 11
106.3731227691
 21
117.0128840281
  0
LINE
  8
0
 62
7
  6
CONTINUOUS
 10
106.3731227691
 20
126.1138044202
 11
106.3731227691
 21
133.8128840281
  0
POLYLINE
  8
0
 62
7
  6
CONTINUOUS
 66
1
 70
0
  0
VERTEX
  8
0
 62
7
  6
CONTINUOUS
 10
106.3731227691
 20
150.6128840281
  0
VERTEX
  8
0
 62
7
  6
CONTINUOUS
 10
106.3739235698
 20
150.7262681181
  0
VERTEX
  8
0
 62
7
  6
CONTINUOUS
 10
106.3653681448
 20
150.8139691416
  0
VERTEX
  8
0
 62
7
  6
CONTINUOUS
 10
106.3492995979
 20
150.8590452964
  0
VERTEX
  8
0
 62
7
  6
CONTINUOUS
 10
106.3428277965
 20
150.8628439455
  0
SEQEND
  0
POLYLINE
  8
0
 62
7
  6
CONTINUOUS
 66
1
 70
0
  0
VERTEX
  8
0
 62
7
  6
CONTINUOUS
 10
106.3731227691
 20
133.8128840281
  0
VERTEX
  8
0
 62
7
  6
CONTINUOUS
 10
106.3739235698
 20
133.9262681181
  0
VERTEX
  8
0
 62
7
  6
CONTINUOUS
 10
106.3653681448
 20
134.0139691416
  0
VERTEX
  8
0
 62
7
  6
CONTINUOUS
 10
106.3492995979
 20
134.0590452964
  0
VERTEX
  8
0
 62
7
  6
CONTINUOUS
 10
106.3428277965
 20
134.0628439455
  0
SEQEND
  0
POLYLINE
  8
0
 62
7
  6
CONTINUOUS
 66
1
 70
0
  0
VERTEX
  8
0
 62
7
  6
CONTINUOUS
 10
106.3731227691
 20
117.0128840281
  0
VERTEX
  8
0
 62
7
  6
CONTINUOUS
 10
106.3739235698
 20
117.1262681181
  0
VERTEX
  8
0
 62
7
  6
CONTINUOUS
 10
106.3653681448
 20
117.2139691416
  0
VERTEX
  8
0
 62
7
  6
CONTINUOUS
 10
106.3492995979
 20
117.2590452964
  0
VERTEX
  8
0
 62
7
  6
CONTINUOUS
 10
106.3428277965
 20
117.2628439455
  0
SEQEND
  0
POLYLINE
  8
0
 62
7
  6
CONTINUOUS
 66
1
 70
0
  0
VERTEX
  8
0
 62
7
  6
CONTINUOUS
 10
106.3731227691
 20
100.2128840281
  0
VERTEX
  8
0
 62
7
  6
CONTINUOUS
 10
106.3739235698
 20
100.3262681181
  0
VERTEX
  8
0
 62
7
  6
CONTINUOUS
 10
106.3653681448
 20
100.4139691416
  0
VERTEX
  8
0
 62
7
  6
CONTINUOUS
 10
106.3492995979
 20
100.4590452964
  0
VERTEX
  8
0
 62
7
  6
CONTINUOUS
 10
106.3428277965
 20
100.4628439455
  0
SEQEND
  0
POLYLINE
  8
0
 62
7
  6
CONTINUOUS
 66
1
 70
0
  0
VERTEX
  8
0
 62
7
  6
CONTINUOUS
 10
110.7958213356
 20
126.9644963333
  0
VERTEX
  8
0
 62
7
  6
CONTINUOUS
 10
110.8383941637
 20
127.0461088783
  0
VERTEX
  8
0
 62
7
  6
CONTINUOUS
 10
110.8479693626
 20
127.1430908893
  0
SEQEND
  0
LINE
  8
0
 62
7
  6
CONTINUOUS
 10
110.088943895
 20
109.842748737
 11
110.7320496444
 21
110.1137764209
  0
POLYLINE
  8
0
 62
7
  6
CONTINUOUS
 66
1
 70
0
  0
VERTEX
  8
0
 62
7
  6
CONTINUOUS
 10
98.9250901414
 20
159.2633442241
  0
VERTEX
  8
0
 62
7
  6
CONTINUOUS
 10
98.9209197895
 20
159.2625040983
  0
VERTEX
  8
0
 62
7
  6
CONTINUOUS
 10
98.9207586401
 20
159.259465953
  0
VERTEX
  8
0
 62
7
  6
CONTINUOUS
 10
98.922834817
 20
159.2533651779
  0
VERTEX
  8
0
 62
7
  6
CONTINUOUS
 10
98.9252740275
 20
159.2432208538
  0
VERTEX
  8
0
 62
7
  6
CONTINUOUS
 10
98.9263837089
 20
159.2282326716
  0
VERTEX
  8
0
 62
7
  6
CONTINUOUS
 10
98.9257229003
 20
159.2080745271
  0
VERTEX
  8
0
 62
7
  6
CONTINUOUS
 10
98.9250817074
 20
159.1818708908
  0
VERTEX
  8
0
 62
7
  6
CONTINUOUS
 10
98.9256512316
 20
159.1467584892
  0
VERTEX
  8
0
 62
7
  6
CONTINUOUS
 10
98.9248599215
 20
159.1024475126
  0
VERTEX
  8
0
 62
7
  6
CONTINUOUS
 10
98.9232869942
 20
159.0550749995
  0
VERTEX
  8
0
 62
7
  6
CONTINUOUS
 10
98.9250901414
 20
159.0133442241
  0
SEQEND
  0
LINE
  8
0
 62
7
  6
CONTINUOUS
 10
106.3428277965
 20
150.8628439455
 11
106.3420247528
 21
150.862883944
  0
LINE
  8
0
 62
7
  6
CONTINUOUS
 10
110.9088468737
 20
149.7954382669
 11
110.7002999136
 21
149.8262924955
  0
LINE
  8
0
 62
7
  6
CONTINUOUS
 10
110.7320472288
 20
133.0129132076
 11
110.7958213356
 21
132.962192115
  0
POLYLINE
  8
0
 62
7
  6
CONTINUOUS
 66
1
 70
0
  0
VERTEX
  8
0
 62
7
  6
CONTINUOUS
 10
112.0008215432
 20
98.8505239745
  0
VERTEX
  8
0
 62
7
  6
CONTINUOUS
 10
111.9924518851
 20
98.9228571038
  0
VERTEX
  8
0
 62
7
  6
CONTINUOUS
 10
111.9121143573
 20
99.0701562072
  0
VERTEX
  8
0
 62
7
  6
CONTINUOUS
 10
111.7931852023
 20
99.1616298321
  0
VERTEX
  8
0
 62
7
  6
CONTINUOUS
 10
111.6420123547
 20
99.2292045414
  0
VERTEX
  8
0
 62
7
  6
CONTINUOUS
 10
111.4439935796
 20
99.2891583324
  0
VERTEX
  8
0
 62
7
  6
CONTINUOUS
 10
111.195544852
 20
99.3448789443
  0
VERTEX
  8
0
 62
7
  6
CONTINUOUS
 10
110.9088469058
 20
99.3954382618
  0
SEQEND
  0
LINE
  8
0
 62
7
  6
CONTINUOUS
 10
112.0008413991
 20
110.6748387541
 11
112.0008237482
 21
110.6761253624
  0
LINE
  8
0
 62
7
  6
CONTINUOUS
 10
112.0008413991
 20
127.4748387541
 11
112.0008237482
 21
127.4761253624
  0
LINE
  8
0
 62
7
  6
CONTINUOUS
 10
112.0008413991
 20
144.2748387541
 11
112.0008237482
 21
144.2761253624
  0
LINE
  8
0
 62
7
  6
CONTINUOUS
 10
112.0008414459
 20
92.5134749404
 11
112.0008414459
 21
98.8518640762
  0
LINE
  8
0
 62
7
  6
CONTINUOUS
 10
112.0008414459
 20
110.6748957456
 11
112.0008414459
 21
115.6517927026
  0
LINE
  8
0
 62
7
  6
CONTINUOUS
 10
112.0008414459
 20
127.4748957456
 11
112.0008414459
 21
132.4517927026
  0
LINE
  8
0
 62
7
  6
CONTINUOUS
 10
112.0008414459
 20
144.2748957456
 11
112.0008414459
 21
149.2517927026
  0
LINE
  8
0
 62
7
  6
CONTINUOUS
 10
112.0008414085
 20
98.8519295536
 11
112.0008219306
 21
98.8505647326
  0
LINE
  8
0
 62
7
  6
CONTINUOUS
 10
112.0008413991
 20
149.2518496942
 11
112.0008219421
 21
149.2504955266
  0
LINE
  8
0
 62
7
  6
CONTINUOUS
 10
112.0008413991
 20
132.4518496942
 11
112.0008219421
 21
132.4504955266
  0
LINE
  8
0
 62
7
  6
CONTINUOUS
 10
112.0008413991
 20
115.6518496942
 11
112.0008219421
 21
115.6504955266
  0
LINE
  8
0
 62
7
  6
CONTINUOUS
 10
110.7320472288
 20
110.1137752406
 11
110.7958213356
 21
110.1644963333
  0
LINE
  8
0
 62
7
  6
CONTINUOUS
 10
44.4508446154
 20
159.2633442241
 11
98.9250901414
 21
159.2633442241
  0
POLYLINE
  8
0
 62
7
  6
CONTINUOUS
 66
1
 70
0
  0
VERTEX
  8
0
 62
7
  6
CONTINUOUS
 10
110.7320496444
 20
149.8129120274
  0
VERTEX
  8
0
 62
7
  6
CONTINUOUS
 10
110.088943895
 20
150.0839397113
  0
VERTEX
  8
0
 62
7
  6
CONTINUOUS
 10
109.2574831103
 20
150.3462027843
  0
VERTEX
  8
0
 62
7
  6
CONTINUOUS
 10
108.3183731871
 20
150.5671703276
  0
VERTEX
  8
0
 62
7
  6
CONTINUOUS
 10
107.2939354279
 20
150.74448462
  0
VERTEX
  8
0
 62
7
  6
CONTINUOUS
 10
106.3426295024
 20
150.8628433369
  0
SEQEND
  0
POLYLINE
  8
0
 62
7
  6
CONTINUOUS
 66
1
 70
0
  0
VERTEX
  8
0
 62
7
  6
CONTINUOUS
 10
110.7958213356
 20
132.962192115
  0
VERTEX
  8
0
 62
7
  6
CONTINUOUS
 10
110.8383941637
 20
132.88057957
  0
VERTEX
  8
0
 62
7
  6
CONTINUOUS
 10
110.8479693626
 20
132.783597559
  0
SEQEND
  0
POLYLINE
  8
0
 62
7
  6
CONTINUOUS
 66
1
 70
0
  0
VERTEX
  8
0
 62
7
  6
CONTINUOUS
 10
112.0008215432
 20
115.6505239714
  0
VERTEX
  8
0
 62
7
  6
CONTINUOUS
 10
111.9924517062
 20
115.7228578506
  0
VERTEX
  8
0
 62
7
  6
CONTINUOUS
 10
111.9121139843
 20
115.870156611
  0
VERTEX
  8
0
 62
7
  6
CONTINUOUS
 10
111.7931848323
 20
115.9616300417
  0
VERTEX
  8
0
 62
7
  6
CONTINUOUS
 10
111.6420120079
 20
116.0292046669
  0
VERTEX
  8
0
 62
7
  6
CONTINUOUS
 10
111.443993299
 20
116.0891584049
  0
VERTEX
  8
0
 62
7
  6
CONTINUOUS
 10
111.1955446932
 20
116.1448789756
  0
VERTEX
  8
0
 62
7
  6
CONTINUOUS
 10
110.9088468737
 20
116.1954382669
  0
SEQEND
  0
POLYLINE
  8
0
 62
7
  6
CONTINUOUS
 66
1
 70
0
  0
VERTEX
  8
0
 62
7
  6
CONTINUOUS
 10
112.0008215432
 20
132.4505239714
  0
VERTEX
  8
0
 62
7
  6
CONTINUOUS
 10
111.9924517062
 20
132.5228578506
  0
VERTEX
  8
0
 62
7
  6
CONTINUOUS
 10
111.9121139843
 20
132.670156611
  0
VERTEX
  8
0
 62
7
  6
CONTINUOUS
 10
111.7931848323
 20
132.7616300417
  0
VERTEX
  8
0
 62
7
  6
CONTINUOUS
 10
111.6420120079
 20
132.8292046669
  0
VERTEX
  8
0
 62
7
  6
CONTINUOUS
 10
111.443993299
 20
132.8891584049
  0
VERTEX
  8
0
 62
7
  6
CONTINUOUS
 10
111.1955446932
 20
132.9448789756
  0
VERTEX
  8
0
 62
7
  6
CONTINUOUS
 10
110.9088468737
 20
132.9954382669
  0
SEQEND
  0
POLYLINE
  8
0
 62
7
  6
CONTINUOUS
 66
1
 70
0
  0
VERTEX
  8
0
 62
7
  6
CONTINUOUS
 10
110.7958213356
 20
110.1644963333
  0
VERTEX
  8
0
 62
7
  6
CONTINUOUS
 10
110.8383941637
 20
110.2461088783
  0
VERTEX
  8
0
 62
7
  6
CONTINUOUS
 10
110.8479693626
 20
110.3430908893
  0
SEQEND
  0
POLYLINE
  8
0
 62
7
  6
CONTINUOUS
 66
1
 70
0
  0
VERTEX
  8
0
 62
7
  6
CONTINUOUS
 10
98.9250901414
 20
159.2633442241
  0
VERTEX
  8
0
 62
7
  6
CONTINUOUS
 10
99.0095841884
 20
159.2486328895
  0
VERTEX
  8
0
 62
7
  6
CONTINUOUS
 10
99.0826613706
 20
159.2074352022
  0
VERTEX
  8
0
 62
7
  6
CONTINUOUS
 10
99.1402861239
 20
159.140586863
  0
VERTEX
  8
0
 62
7
  6
CONTINUOUS
 10
99.1719212575
 20
159.0530229358
  0
VERTEX
  8
0
 62
7
  6
CONTINUOUS
 10
99.1750901414
 20
159.0133442241
  0
SEQEND
  0
POLYLINE
  8
0
 62
7
  6
CONTINUOUS
 66
1
 70
0
  0
VERTEX
  8
0
 62
7
  6
CONTINUOUS
 10
112.0008215432
 20
149.2505239714
  0
VERTEX
  8
0
 62
7
  6
CONTINUOUS
 10
111.9924517062
 20
149.3228578506
  0
VERTEX
  8
0
 62
7
  6
CONTINUOUS
 10
111.9121139843
 20
149.470156611
  0
VERTEX
  8
0
 62
7
  6
CONTINUOUS
 10
111.7931848323
 20
149.5616300417
  0
VERTEX
  8
0
 62
7
  6
CONTINUOUS
 10
111.6420120079
 20
149.6292046669
  0
VERTEX
  8
0
 62
7
  6
CONTINUOUS
 10
111.443993299
 20
149.6891584049
  0
VERTEX
  8
0
 62
7
  6
CONTINUOUS
 10
111.1955446932
 20
149.7448789756
  0
VERTEX
  8
0
 62
7
  6
CONTINUOUS
 10
110.9088468737
 20
149.7954382669
  0
SEQEND
  0
POLYLINE
  8
0
 62
7
  6
CONTINUOUS
 66
1
 70
0
  0
VERTEX
  8
0
 62
7
  6
CONTINUOUS
 10
44.4507975278
 20
159.2633439896
  0
VERTEX
  8
0
 62
7
  6
CONTINUOUS
 10
44.3542103037
 20
159.2439097206
  0
VERTEX
  8
0
 62
7
  6
CONTINUOUS
 10
44.2726285553
 20
159.1886654748
  0
VERTEX
  8
0
 62
7
  6
CONTINUOUS
 10
44.2187261525
 20
159.1061912134
  0
VERTEX
  8
0
 62
7
  6
CONTINUOUS
 10
44.200841519
 20
159.013331417
  0
SEQEND
  0
LINE
  8
0
 62
7
  6
CONTINUOUS
 10
110.7320472288
 20
149.8129132076
 11
110.7958213356
 21
149.762192115
  0
POLYLINE
  8
0
 62
7
  6
CONTINUOUS
 66
1
 70
0
  0
VERTEX
  8
0
 62
7
  6
CONTINUOUS
 10
110.7958213356
 20
149.762192115
  0
VERTEX
  8
0
 62
7
  6
CONTINUOUS
 10
110.8383941637
 20
149.68057957
  0
VERTEX
  8
0
 62
7
  6
CONTINUOUS
 10
110.8479693626
 20
149.583597559
  0
SEQEND
  0
POLYLINE
  8
0
 62
7
  6
CONTINUOUS
 66
1
 70
0
  0
VERTEX
  8
0
 62
7
  6
CONTINUOUS
 10
106.3292678297
 20
92.2633442241
  0
VERTEX
  8
0
 62
7
  6
CONTINUOUS
 10
106.3460014598
 20
92.2820725294
  0
VERTEX
  8
0
 62
7
  6
CONTINUOUS
 10
106.3602151548
 20
92.3358154058
  0
VERTEX
  8
0
 62
7
  6
CONTINUOUS
 10
106.3697548402
 20
92.4169459503
  0
VERTEX
  8
0
 62
7
  6
CONTINUOUS
 10
106.3731227691
 20
92.5133442241
  0
SEQEND
  0
LINE
  8
0
 62
7
  6
CONTINUOUS
 10
165.1873982759
 20
92.2633442241
 11
149.7373982759
 21
92.2633442241
  0
POLYLINE
  8
0
 62
7
  6
CONTINUOUS
 66
1
 70
0
  0
VERTEX
  8
0
 62
7
  6
CONTINUOUS
 10
161.547369499
 20
152.0953806077
  0
VERTEX
  8
0
 62
7
  6
CONTINUOUS
 10
161.5992603936
 20
152.1113736058
  0
VERTEX
  8
0
 62
7
  6
CONTINUOUS
 10
161.6489637105
 20
152.1644963333
  0
VERTEX
  8
0
 62
7
  6
CONTINUOUS
 10
161.6885359958
 20
152.2461088783
  0
VERTEX
  8
0
 62
7
  6
CONTINUOUS
 10
161.7117061889
 20
152.3430908893
  0
SEQEND
  0
LINE
  8
0
 62
7
  6
CONTINUOUS
 10
149.655382219
 20
102.9633442241
 11
151.4623523544
 21
102.9633442241
  0
LINE
  8
0
 62
7
  6
CONTINUOUS
 10
151.4623523544
 20
102.9633435087
 11
151.4924317296
 21
102.9613840225
  0
LINE
  8
0
 62
7
  6
CONTINUOUS
 10
152.2204012827
 20
102.4408956672
 11
150.6206336041
 21
102.568766895
  0
LINE
  8
2_FEATURE
 62
7
  6
CONTINUOUS
 10
152.2204012827
 20
102.4408956672
 11
161.5473694999
 21
101.695380619
  0
LINE
  8
0
 62
7
  6
CONTINUOUS
 10
158.1563467348
 20
101.9664288783
 11
158.1580760905
 21
101.9662893403
  0
POLYLINE
  8
2_FEATURE
 62
7
  6
CONTINUOUS
 66
1
 70
0
  0
VERTEX
  8
2_FEATURE
 62
7
  6
CONTINUOUS
 10
153.5294037762
 20
102.3362656272
  0
VERTEX
  8
2_FEATURE
 62
7
  6
CONTINUOUS
 10
153.3988747292
 20
102.3532166033
  0
VERTEX
  8
2_FEATURE
 62
7
  6
CONTINUOUS
 10
153.2747386522
 20
102.3824017486
  0
VERTEX
  8
2_FEATURE
 62
7
  6
CONTINUOUS
 10
153.1585410879
 20
102.4236797399
  0
VERTEX
  8
2_FEATURE
 62
7
  6
CONTINUOUS
 10
153.0537323888
 20
102.4765455496
  0
VERTEX
  8
2_FEATURE
 62
7
  6
CONTINUOUS
 10
152.964084092
 20
102.5400737056
  0
VERTEX
  8
2_FEATURE
 62
7
  6
CONTINUOUS
 10
152.8925991497
 20
102.6140272783
  0
VERTEX
  8
2_FEATURE
 62
7
  6
CONTINUOUS
 10
152.8434543272
 20
102.699309726
  0
VERTEX
  8
2_FEATURE
 62
7
  6
CONTINUOUS
 10
152.8254139293
 20
102.7914514586
  0
SEQEND
  0
POLYLINE
  8
0
 62
7
  6
CONTINUOUS
 66
1
 70
0
  0
VERTEX
  8
0
 62
7
  6
CONTINUOUS
 10
151.4926215638
 20
102.9613596917
  0
VERTEX
  8
0
 62
7
  6
CONTINUOUS
 10
151.5032219446
 20
102.9597587461
  0
VERTEX
  8
0
 62
7
  6
CONTINUOUS
 10
151.5131160644
 20
102.9578280873
  0
VERTEX
  8
0
 62
7
  6
CONTINUOUS
 10
151.5230928199
 20
102.9554436605
  0
SEQEND
  0
POLYLINE
  8
0
 62
7
  6
CONTINUOUS
 66
1
 70
0
  0
VERTEX
  8
0
 62
7
  6
CONTINUOUS
 10
158.1580760905
 20
101.9662893403
  0
VERTEX
  8
0
 62
7
  6
CONTINUOUS
 10
158.3238162812
 20
101.938276549
  0
VERTEX
  8
0
 62
7
  6
CONTINUOUS
 10
158.5262486422
 20
101.859785045
  0
VERTEX
  8
0
 62
7
  6
CONTINUOUS
 10
158.6598715865
 20
101.7710678781
  0
VERTEX
  8
0
 62
7
  6
CONTINUOUS
 10
158.6943314877
 20
101.7406597046
  0
SEQEND
  0
LINE
  8
0
 62
7
  6
CONTINUOUS
 10
151.4924317296
 20
102.9613840225
 11
151.5731257898
 21
102.9392472767
  0
POLYLINE
  8
0
 62
7
  6
CONTINUOUS
 66
1
 70
0
  0
VERTEX
  8
0
 62
7
  6
CONTINUOUS
 10
150.2440266762
 20
102.6699458273
  0
VERTEX
  8
0
 62
7
  6
CONTINUOUS
 10
150.4821666959
 20
102.5889462279
  0
VERTEX
  8
0
 62
7
  6
CONTINUOUS
 10
150.6206351901
 20
102.5687866945
  0
SEQEND
  0
LINE
  8
0
 62
7
  6
CONTINUOUS
 10
151.5731257898
 20
102.9392472767
 11
151.6755418368
 21
102.8847790359
  0
POLYLINE
  8
0
 62
7
  6
CONTINUOUS
 66
1
 70
0
  0
VERTEX
  8
0
 62
7
  6
CONTINUOUS
 10
149.8944613598
 20
102.9299415966
  0
VERTEX
  8
0
 62
7
  6
CONTINUOUS
 10
149.8512448871
 20
102.954501916
  0
VERTEX
  8
0
 62
7
  6
CONTINUOUS
 10
149.820278618
 20
102.9633442223
  0
SEQEND
  0
POLYLINE
  8
0
 62
7
  6
CONTINUOUS
 66
1
 70
0
  0
VERTEX
  8
0
 62
7
  6
CONTINUOUS
 10
149.8944597389
 20
102.9299426353
  0
VERTEX
  8
0
 62
7
  6
CONTINUOUS
 10
149.9058390878
 20
102.9221123844
  0
VERTEX
  8
0
 62
7
  6
CONTINUOUS
 10
149.9346298746
 20
102.8964790101
  0
SEQEND
  0
LINE
  8
0
 62
7
  6
CONTINUOUS
 10
165.1186986779
 20
100.673428953
 11
161.5412419141
 21
101.6958704038
  0
LINE
  8
0
 62
7
  6
CONTINUOUS
 10
151.6755418368
 20
102.8847790359
 11
151.7713706279
 21
102.8203061342
  0
POLYLINE
  8
0
 62
7
  6
CONTINUOUS
 66
1
 70
0
  0
VERTEX
  8
0
 62
7
  6
CONTINUOUS
 10
151.6018921959
 20
102.9187159892
  0
VERTEX
  8
0
 62
7
  6
CONTINUOUS
 10
151.6110951125
 20
102.9118541836
  0
VERTEX
  8
0
 62
7
  6
CONTINUOUS
 10
151.620052319
 20
102.9044834397
  0
VERTEX
  8
0
 62
7
  6
CONTINUOUS
 10
151.6287366385
 20
102.8966023682
  0
VERTEX
  8
0
 62
7
  6
CONTINUOUS
 10
151.6371192804
 20
102.8882106682
  0
VERTEX
  8
0
 62
7
  6
CONTINUOUS
 10
151.6451698024
 20
102.8793093407
  0
VERTEX
  8
0
 62
7
  6
CONTINUOUS
 10
151.6528560893
 20
102.8699009226
  0
VERTEX
  8
0
 62
7
  6
CONTINUOUS
 10
151.6601443482
 20
102.859989741
  0
VERTEX
  8
0
 62
7
  6
CONTINUOUS
 10
151.6669991268
 20
102.8495821891
  0
VERTEX
  8
0
 62
7
  6
CONTINUOUS
 10
151.6733833572
 20
102.8386870268
  0
VERTEX
  8
0
 62
7
  6
CONTINUOUS
 10
151.679258431
 20
102.8273157033
  0
VERTEX
  8
0
 62
7
  6
CONTINUOUS
 10
151.6845843757
 20
102.815482551
  0
VERTEX
  8
0
 62
7
  6
CONTINUOUS
 10
151.6876194005
 20
102.8078508837
  0
SEQEND
  0
POLYLINE
  8
0
 62
7
  6
CONTINUOUS
 66
1
 70
0
  0
VERTEX
  8
0
 62
7
  6
CONTINUOUS
 10
149.9346297044
 20
102.8964790153
  0
VERTEX
  8
0
 62
7
  6
CONTINUOUS
 10
150.034460799
 20
102.803018051
  0
VERTEX
  8
0
 62
7
  6
CONTINUOUS
 10
150.2440266762
 20
102.6699458273
  0
SEQEND
  0
LINE
  8
2_FEATURE
 62
7
  6
CONTINUOUS
 10
150.3577212747
 20
106.9369066754
 11
161.5473694999
 21
107.8313078293
  0
LINE
  8
0
 62
7
  6
CONTINUOUS
 10
161.6213264194
 20
101.6536999684
 11
161.5539811996
 21
101.692229498
  0
POLYLINE
  8
0
 62
7
  6
CONTINUOUS
 66
1
 70
0
  0
VERTEX
  8
0
 62
7
  6
CONTINUOUS
 10
161.547369499
 20
107.8313078406
  0
VERTEX
  8
0
 62
7
  6
CONTINUOUS
 10
161.5992603936
 20
107.8153148425
  0
VERTEX
  8
0
 62
7
  6
CONTINUOUS
 10
161.6489637105
 20
107.762192115
  0
VERTEX
  8
0
 62
7
  6
CONTINUOUS
 10
161.6885359958
 20
107.68057957
  0
VERTEX
  8
0
 62
7
  6
CONTINUOUS
 10
161.7117061889
 20
107.583597559
  0
SEQEND
  0
LINE
  8
0
 62
7
  6
CONTINUOUS
 10
165.1186986779
 20
142.4532594953
 11
161.5412419141
 21
141.4308180445
  0
LINE
  8
1_AXIS
 62
7
  6
CONTINUOUS
 10
159.6268219605
 20
110.6339692241
 11
159.9749650528
 21
110.6339692241
  0
LINE
  8
1_AXIS
 62
7
  6
CONTINUOUS
 10
159.1964059201
 20
110.7914690739
 11
159.5445490125
 21
110.7914690739
  0
LINE
  8
1_AXIS
 62
7
  6
CONTINUOUS
 10
158.9989778309
 20
110.9433442241
 11
158.7867555734
 21
110.9433442241
  0
LINE
  8
1_AXIS
 62
7
  6
CONTINUOUS
 10
158.9989778309
 20
111.4833442241
 11
158.7867555734
 21
111.4833442241
  0
LINE
  8
1_AXIS
 62
7
  6
CONTINUOUS
 10
158.6980294623
 20
111.8152192241
 11
159.1964059201
 21
111.8152192241
  0
LINE
  8
1_AXIS
 62
7
  6
CONTINUOUS
 10
159.3323267549
 20
111.8152192241
 11
159.6268219605
 21
111.8152192241
  0
LINE
  8
1_AXIS
 62
7
  6
CONTINUOUS
 10
159.9749650528
 20
112.0514692241
 11
158.6980294623
 21
112.0514692241
  0
POLYLINE
  8
0
 62
7
  6
CONTINUOUS
 66
1
 70
0
  0
VERTEX
  8
0
 62
7
  6
CONTINUOUS
 10
158.6938770633
 20
101.7410894579
  0
VERTEX
  8
0
 62
7
  6
CONTINUOUS
 10
158.7747122899
 20
101.6518143538
  0
VERTEX
  8
0
 62
7
  6
CONTINUOUS
 10
158.8117707103
 20
101.5967551747
  0
VERTEX
  8
0
 62
7
  6
CONTINUOUS
 10
158.8176531787
 20
101.5858358686
  0
SEQEND
  0
POLYLINE
  8
0
 62
7
  6
CONTINUOUS
 66
1
 70
0
  0
VERTEX
  8
0
 62
7
  6
CONTINUOUS
 10
151.6876194602
 20
102.8078506149
  0
VERTEX
  8
0
 62
7
  6
CONTINUOUS
 10
151.7422821331
 20
102.7031580064
  0
VERTEX
  8
0
 62
7
  6
CONTINUOUS
 10
151.8453867906
 20
102.59010012
  0
VERTEX
  8
0
 62
7
  6
CONTINUOUS
 10
151.9823903789
 20
102.5034274268
  0
VERTEX
  8
0
 62
7
  6
CONTINUOUS
 10
152.1441003348
 20
102.4512375971
  0
VERTEX
  8
0
 62
7
  6
CONTINUOUS
 10
152.2202018712
 20
102.4408975943
  0
SEQEND
  0
LINE
  8
0
 62
7
  6
CONTINUOUS
 10
161.7150495961
 20
150.875781705
 11
161.6820175801
 21
150.8308789975
  0
LINE
  8
1_AXIS
 62
7
  6
CONTINUOUS
 10
158.9472176912
 20
112.366469149
 11
159.2727073111
 21
112.366469149
  0
LINE
  8
1_AXIS
 62
7
  6
CONTINUOUS
 10
159.3633212327
 20
112.4452192992
 11
159.1510989752
 21
112.4452192992
  0
LINE
  8
1_AXIS
 62
7
  6
CONTINUOUS
 10
159.7257768557
 20
112.484594149
 11
159.5135545982
 21
112.484594149
  0
LINE
  8
1_AXIS
 62
7
  6
CONTINUOUS
 10
159.7937372731
 20
112.5239692241
 11
159.5815150156
 21
112.5239692241
  0
LINE
  8
1_AXIS
 62
7
  6
CONTINUOUS
 10
159.4539351226
 20
112.602719149
 11
159.2417128651
 21
112.602719149
  0
LINE
  8
1_AXIS
 62
7
  6
CONTINUOUS
 10
159.0378315811
 20
112.602719149
 11
158.9698711637
 21
112.602719149
  0
LINE
  8
1_AXIS
 62
7
  6
CONTINUOUS
 10
159.884351163
 20
112.6420942241
 11
159.6721289055
 21
112.6420942241
  0
LINE
  8
1_AXIS
 62
7
  6
CONTINUOUS
 10
159.1057920302
 20
112.6814692992
 11
158.9019107463
 21
112.6814692992
  0
LINE
  8
1_AXIS
 62
7
  6
CONTINUOUS
 10
159.4992420675
 20
112.7602192241
 11
159.28701981
 21
112.7602192241
  0
LINE
  8
1_AXIS
 62
7
  6
CONTINUOUS
 10
159.9523115804
 20
112.7995942992
 11
159.7400893229
 21
112.7995942992
  0
LINE
  8
1_AXIS
 62
7
  6
CONTINUOUS
 10
159.068826043
 20
112.7995942992
 11
158.8566037855
 21
112.7995942992
  0
LINE
  8
1_AXIS
 62
7
  6
CONTINUOUS
 10
159.52189554
 20
112.957094149
 11
159.3096732825
 21
112.957094149
  0
LINE
  8
1_AXIS
 62
7
  6
CONTINUOUS
 10
159.0461725705
 20
112.957094149
 11
158.833950313
 21
112.957094149
  0
LINE
  8
1_AXIS
 62
7
  6
CONTINUOUS
 10
159.9749650528
 20
112.9964692241
 11
159.7627427953
 21
112.9964692241
  0
LINE
  8
1_AXIS
 62
7
  6
CONTINUOUS
 10
159.9749650528
 20
113.193344149
 11
159.7627427953
 21
113.193344149
  0
LINE
  8
1_AXIS
 62
7
  6
CONTINUOUS
 10
159.52189554
 20
113.193344149
 11
159.3096732825
 21
113.193344149
  0
LINE
  8
1_AXIS
 62
7
  6
CONTINUOUS
 10
159.0461725705
 20
113.2720942992
 11
158.833950313
 21
113.2720942992
  0
LINE
  8
1_AXIS
 62
7
  6
CONTINUOUS
 10
159.5445490125
 20
113.311469149
 11
159.3323267549
 21
113.311469149
  0
LINE
  8
1_AXIS
 62
7
  6
CONTINUOUS
 10
159.9523115804
 20
113.3508442241
 11
159.7400893229
 21
113.3508442241
  0
LINE
  8
1_AXIS
 62
7
  6
CONTINUOUS
 10
159.5588615431
 20
113.429594149
 11
159.3776336999
 21
113.429594149
  0
LINE
  8
1_AXIS
 62
7
  6
CONTINUOUS
 10
159.068826043
 20
113.429594149
 11
158.8566037855
 21
113.429594149
  0
LINE
  8
1_AXIS
 62
7
  6
CONTINUOUS
 10
159.4455941173
 20
113.4689692241
 11
159.4909010622
 21
113.4689692241
  0
LINE
  8
1_AXIS
 62
7
  6
CONTINUOUS
 10
159.9070046354
 20
113.5083442992
 11
159.6947823779
 21
113.5083442992
  0
LINE
  8
1_AXIS
 62
7
  6
CONTINUOUS
 10
159.1367864763
 20
113.547719149
 11
158.9245642188
 21
113.547719149
  0
LINE
  8
1_AXIS
 62
7
  6
CONTINUOUS
 10
159.2047468937
 20
113.5870942241
 11
158.9925246362
 21
113.5870942241
  0
LINE
  8
1_AXIS
 62
7
  6
CONTINUOUS
 10
159.8163907456
 20
113.665844149
 11
159.604168488
 21
113.665844149
  0
LINE
  8
1_AXIS
 62
7
  6
CONTINUOUS
 10
159.7257768557
 20
113.7052192241
 11
159.4229406448
 21
113.7052192241
  0
LINE
  8
1_AXIS
 62
7
  6
CONTINUOUS
 10
159.2047468937
 20
113.8233442241
 11
158.9925246362
 21
113.8233442241
  0
LINE
  8
1_AXIS
 62
7
  6
CONTINUOUS
 10
158.6980294623
 20
114.1383442617
 11
159.9749650528
 21
114.1383442617
  0
LINE
  8
1_AXIS
 62
7
  6
CONTINUOUS
 10
159.9749650528
 20
114.3745942617
 11
158.8566037855
 21
114.3745942617
  0
LINE
  8
0
 62
7
  6
CONTINUOUS
 10
161.6766411789
 20
101.5876894348
 11
161.6213264194
 21
101.6536999684
  0
POLYLINE
  8
0
 62
7
  6
CONTINUOUS
 66
1
 70
0
  0
VERTEX
  8
0
 62
7
  6
CONTINUOUS
 10
158.6943223003
 20
141.38602005
  0
VERTEX
  8
0
 62
7
  6
CONTINUOUS
 10
158.6605606934
 20
141.356189438
  0
VERTEX
  8
0
 62
7
  6
CONTINUOUS
 10
158.5287162949
 20
141.2682228391
  0
VERTEX
  8
0
 62
7
  6
CONTINUOUS
 10
158.3288777081
 20
141.1897407889
  0
VERTEX
  8
0
 62
7
  6
CONTINUOUS
 10
158.1579860895
 20
141.1603917814
  0
SEQEND
  0
LINE
  8
1_AXIS
 62
7
  6
CONTINUOUS
 10
159.9749650528
 20
115.3589692241
 11
159.7627427953
 21
115.3589692241
  0
LINE
  8
1_AXIS
 62
7
  6
CONTINUOUS
 10
158.6980294623
 20
115.4770942241
 11
159.6268219605
 21
115.4770942241
  0
LINE
  8
1_AXIS
 62
7
  6
CONTINUOUS
 10
159.9749650528
 20
115.7133442241
 11
158.6980294623
 21
115.7133442241
  0
LINE
  8
1_AXIS
 62
7
  6
CONTINUOUS
 10
159.604168488
 20
113.665844149
 11
159.5135545982
 21
113.7052192241
  0
LINE
  8
1_AXIS
 62
7
  6
CONTINUOUS
 10
159.8163907456
 20
113.665844149
 11
159.7257768557
 21
113.7052192241
  0
LINE
  8
1_AXIS
 62
7
  6
CONTINUOUS
 10
159.4909010622
 20
113.4689692241
 11
159.5588615431
 21
113.429594149
  0
LINE
  8
1_AXIS
 62
7
  6
CONTINUOUS
 10
158.8566037855
 20
112.4452192992
 11
158.9472176912
 21
112.366469149
  0
LINE
  8
0
 62
7
  6
CONTINUOUS
 10
149.4373982759
 20
147.9400859415
 11
149.4373982759
 21
145.5866025068
  0
LINE
  8
0
 62
7
  6
CONTINUOUS
 10
149.4373982759
 20
97.5400859415
 11
149.4373982759
 21
93.2633442241
  0
LINE
  8
0
 62
7
  6
CONTINUOUS
 10
149.4373982759
 20
103.5866025068
 11
149.4373982759
 21
105.9400859415
  0
LINE
  8
0
 62
7
  6
CONTINUOUS
 10
149.4373982759
 20
111.9866025068
 11
149.4373982759
 21
114.3400859415
  0
LINE
  8
0
 62
7
  6
CONTINUOUS
 10
149.4373982759
 20
120.3866025068
 11
149.4373982759
 21
122.7400859415
  0
LINE
  8
0
 62
7
  6
CONTINUOUS
 10
149.4373982759
 20
128.7866025068
 11
149.4373982759
 21
131.1400859415
  0
LINE
  8
0
 62
7
  6
CONTINUOUS
 10
149.4373982759
 20
137.1866025068
 11
149.4373982759
 21
139.5400859415
  0
LINE
  8
0
 62
7
  6
CONTINUOUS
 10
149.4373982759
 20
153.9866025068
 11
149.4373982759
 21
158.2633442241
  0
LINE
  8
0
 62
7
  6
CONTINUOUS
 10
149.4873982759
 20
159.0133442241
 11
149.4873982759
 21
158.5606116151
  0
LINE
  8
0
 62
7
  6
CONTINUOUS
 10
149.4873982759
 20
153.6863802554
 11
149.4873982759
 21
139.8469703314
  0
LINE
  8
0
 62
7
  6
CONTINUOUS
 10
149.4873982759
 20
136.8797181169
 11
149.4873982759
 21
123.0469703314
  0
LINE
  8
0
 62
7
  6
CONTINUOUS
 10
149.4873982759
 20
120.0797181169
 11
149.4873982759
 21
106.2469703314
  0
LINE
  8
0
 62
7
  6
CONTINUOUS
 10
149.4873982759
 20
103.2927392528
 11
149.4873982759
 21
92.5133442241
  0
POLYLINE
  8
0
 62
7
  6
CONTINUOUS
 66
1
 70
0
  0
VERTEX
  8
0
 62
7
  6
CONTINUOUS
 10
161.7150495677
 20
150.875781705
  0
VERTEX
  8
0
 62
7
  6
CONTINUOUS
 10
161.7386655253
 20
150.9216727284
  0
VERTEX
  8
0
 62
7
  6
CONTINUOUS
 10
161.7564577469
 20
150.9765274505
  0
VERTEX
  8
0
 62
7
  6
CONTINUOUS
 10
161.7711556144
 20
151.0391449013
  0
VERTEX
  8
0
 62
7
  6
CONTINUOUS
 10
161.7830113597
 20
151.107098673
  0
VERTEX
  8
0
 62
7
  6
CONTINUOUS
 10
161.7922733064
 20
151.1801576713
  0
VERTEX
  8
0
 62
7
  6
CONTINUOUS
 10
161.7988945402
 20
151.2585786864
  0
VERTEX
  8
0
 62
7
  6
CONTINUOUS
 10
161.8025349452
 20
151.3417641734
  0
VERTEX
  8
0
 62
7
  6
CONTINUOUS
 10
161.8027271675
 20
151.4297603056
  0
VERTEX
  8
0
 62
7
  6
CONTINUOUS
 10
161.7987609046
 20
151.5222465223
  0
VERTEX
  8
0
 62
7
  6
CONTINUOUS
 10
161.789715243
 20
151.6180726476
  0
VERTEX
  8
0
 62
7
  6
CONTINUOUS
 10
161.7745220442
 20
151.7152313032
  0
VERTEX
  8
0
 62
7
  6
CONTINUOUS
 10
161.7517035162
 20
151.8119937781
  0
VERTEX
  8
0
 62
7
  6
CONTINUOUS
 10
161.719557097
 20
151.9048025684
  0
VERTEX
  8
0
 62
7
  6
CONTINUOUS
 10
161.6766411789
 20
151.9876894348
  0
SEQEND
  0
POLYLINE
  8
0
 62
7
  6
CONTINUOUS
 66
1
 70
0
  0
VERTEX
  8
0
 62
7
  6
CONTINUOUS
 10
161.6766411789
 20
141.5389990135
  0
VERTEX
  8
0
 62
7
  6
CONTINUOUS
 10
161.6213264194
 20
141.4729884799
  0
VERTEX
  8
0
 62
7
  6
CONTINUOUS
 10
161.5832741776
 20
141.4512180412
  0
SEQEND
  0
POLYLINE
  8
0
 62
7
  6
CONTINUOUS
 66
1
 70
0
  0
VERTEX
  8
0
 62
7
  6
CONTINUOUS
 10
161.547369499
 20
135.2953806077
  0
VERTEX
  8
0
 62
7
  6
CONTINUOUS
 10
161.5992603936
 20
135.3113736058
  0
VERTEX
  8
0
 62
7
  6
CONTINUOUS
 10
161.6489637105
 20
135.3644963333
  0
VERTEX
  8
0
 62
7
  6
CONTINUOUS
 10
161.6885359958
 20
135.4461088783
  0
VERTEX
  8
0
 62
7
  6
CONTINUOUS
 10
161.7117061889
 20
135.5430908893
  0
SEQEND
  0
LINE
  8
0
 62
7
  6
CONTINUOUS
 10
150.3577212747
 20
119.3897817729
 11
161.5473694999
 21
118.495380619
  0
POLYLINE
  8
0
 62
7
  6
CONTINUOUS
 66
1
 70
0
  0
VERTEX
  8
0
 62
7
  6
CONTINUOUS
 10
158.1580760905
 20
118.7662893403
  0
VERTEX
  8
0
 62
7
  6
CONTINUOUS
 10
158.3238162812
 20
118.738276549
  0
VERTEX
  8
0
 62
7
  6
CONTINUOUS
 10
158.5262486422
 20
118.659785045
  0
VERTEX
  8
0
 62
7
  6
CONTINUOUS
 10
158.6598715865
 20
118.5710678781
  0
VERTEX
  8
0
 62
7
  6
CONTINUOUS
 10
158.6943314877
 20
118.5406597046
  0
SEQEND
  0
LINE
  8
1_AXIS
 62
7
  6
CONTINUOUS
 10
158.9698711637
 20
112.602719149
 11
158.9019107463
 21
112.6814692992
  0
LINE
  8
2_FEATURE
 62
7
  6
CONTINUOUS
 10
152.8254139293
 20
106.7352369908
 11
152.8254139293
 21
102.7914514586
  0
POLYLINE
  8
0
 62
7
  6
CONTINUOUS
 66
1
 70
0
  0
VERTEX
  8
0
 62
7
  6
CONTINUOUS
 10
158.8072006744
 20
141.5146391552
  0
VERTEX
  8
0
 62
7
  6
CONTINUOUS
 10
158.8161503503
 20
141.5374735491
  0
VERTEX
  8
0
 62
7
  6
CONTINUOUS
 10
158.8119293119
 20
141.5302113222
  0
VERTEX
  8
0
 62
7
  6
CONTINUOUS
 10
158.7750984596
 20
141.4753808306
  0
VERTEX
  8
0
 62
7
  6
CONTINUOUS
 10
158.6938578053
 20
141.3855807893
  0
SEQEND
  0
LINE
  8
0
 62
7
  6
CONTINUOUS
 10
165.1186986779
 20
117.473428953
 11
161.5412419141
 21
118.4958704038
  0
LINE
  8
0
 62
7
  6
CONTINUOUS
 10
161.7150495961
 20
109.0509067433
 11
161.6820175801
 21
109.0958094508
  0
LINE
  8
1_AXIS
 62
7
  6
CONTINUOUS
 10
158.7659898877
 20
112.602719149
 11
158.8566037855
 21
112.4452192992
  0
POLYLINE
  8
0
 62
7
  6
CONTINUOUS
 66
1
 70
0
  0
VERTEX
  8
0
 62
7
  6
CONTINUOUS
 10
158.6938770633
 20
118.5410894579
  0
VERTEX
  8
0
 62
7
  6
CONTINUOUS
 10
158.7747122899
 20
118.4518143538
  0
VERTEX
  8
0
 62
7
  6
CONTINUOUS
 10
158.8117707103
 20
118.3967551747
  0
VERTEX
  8
0
 62
7
  6
CONTINUOUS
 10
158.8176531787
 20
118.3858358686
  0
SEQEND
  0
LINE
  8
1_AXIS
 62
7
  6
CONTINUOUS
 10
159.6947823779
 20
113.5083442992
 11
159.604168488
 21
113.665844149
  0
LINE
  8
1_AXIS
 62
7
  6
CONTINUOUS
 10
159.9070046354
 20
113.5083442992
 11
159.8163907456
 21
113.665844149
  0
POLYLINE
  8
0
 62
7
  6
CONTINUOUS
 66
1
 70
0
  0
VERTEX
  8
0
 62
7
  6
CONTINUOUS
 10
161.7150495677
 20
109.0509067433
  0
VERTEX
  8
0
 62
7
  6
CONTINUOUS
 10
161.7386655253
 20
109.0050157199
  0
VERTEX
  8
0
 62
7
  6
CONTINUOUS
 10
161.7564577469
 20
108.9501609978
  0
VERTEX
  8
0
 62
7
  6
CONTINUOUS
 10
161.7711556144
 20
108.887543547
  0
VERTEX
  8
0
 62
7
  6
CONTINUOUS
 10
161.7830113597
 20
108.8195897753
  0
VERTEX
  8
0
 62
7
  6
CONTINUOUS
 10
161.7922733064
 20
108.746530777
  0
VERTEX
  8
0
 62
7
  6
CONTINUOUS
 10
161.7988945402
 20
108.6681097619
  0
VERTEX
  8
0
 62
7
  6
CONTINUOUS
 10
161.8025349452
 20
108.5849242749
  0
VERTEX
  8
0
 62
7
  6
CONTINUOUS
 10
161.8027271675
 20
108.4969281427
  0
VERTEX
  8
0
 62
7
  6
CONTINUOUS
 10
161.7987609046
 20
108.4044419259
  0
VERTEX
  8
0
 62
7
  6
CONTINUOUS
 10
161.789715243
 20
108.3086158007
  0
VERTEX
  8
0
 62
7
  6
CONTINUOUS
 10
161.7745220442
 20
108.2114571451
  0
VERTEX
  8
0
 62
7
  6
CONTINUOUS
 10
161.7517035162
 20
108.1146946701
  0
VERTEX
  8
0
 62
7
  6
CONTINUOUS
 10
161.719557097
 20
108.0218858799
  0
VERTEX
  8
0
 62
7
  6
CONTINUOUS
 10
161.6766411789
 20
107.9389990135
  0
SEQEND
  0
LINE
  8
1_AXIS
 62
7
  6
CONTINUOUS
 10
158.9019107463
 20
112.6814692992
 11
158.8566037855
 21
112.7995942992
  0
LINE
  8
1_AXIS
 62
7
  6
CONTINUOUS
 10
159.1099625163
 20
112.6923426579
 11
159.068826043
 21
112.7995942992
  0
LINE
  8
1_AXIS
 62
7
  6
CONTINUOUS
 10
159.5588615431
 20
113.429594149
 11
159.604168488
 21
113.311469149
  0
LINE
  8
1_AXIS
 62
7
  6
CONTINUOUS
 10
158.7206829368
 20
112.7602192241
 11
158.7659898877
 21
112.602719149
  0
LINE
  8
DEFAULT_1
 62
2
  6
CENTER
 10
157.4373982759
 20
141.1027932119
 11
157.4373982759
 21
135.6238952364
  0
LINE
  8
DEFAULT_1
 62
2
  6
CENTER
 10
157.4373982759
 20
124.3027932119
 11
157.4373982759
 21
118.8238952364
  0
LINE
  8
DEFAULT_1
 62
2
  6
CENTER
 10
157.4373982759
 20
107.502793205
 11
157.4373982759
 21
102.0238952433
  0
LINE
  8
DEFAULT_1
 62
2
  6
CENTER
 10
157.4373982759
 20
92.5133442241
 11
157.4373982759
 21
88.2480416486
  0
LINE
  8
0
 62
7
  6
CONTINUOUS
 10
157.4373982759
 20
152.425805838
 11
157.4373982759
 21
141.1027932119
  0
LINE
  8
0
 62
7
  6
CONTINUOUS
 10
157.4373982759
 20
135.6238952364
 11
157.4373982759
 21
124.3027932119
  0
LINE
  8
0
 62
7
  6
CONTINUOUS
 10
157.4373982759
 20
118.8238952364
 11
157.4373982759
 21
107.502793205
  0
LINE
  8
2_FEATURE
 62
7
  6
CONTINUOUS
 10
157.4373982759
 20
107.502793205
 11
157.4373982759
 21
102.0238952433
  0
LINE
  8
0
 62
7
  6
CONTINUOUS
 10
157.4373982759
 20
102.0238952433
 11
157.4373982759
 21
92.5133442241
  0
LINE
  8
DEFAULT_1
 62
2
  6
CENTER
 10
157.4373982759
 20
152.425805838
 11
157.4373982759
 21
161.2633442241
  0
POLYLINE
  8
2_FEATURE
 62
7
  6
CONTINUOUS
 66
1
 70
0
  0
VERTEX
  8
2_FEATURE
 62
7
  6
CONTINUOUS
 10
152.8254139293
 20
106.7352369908
  0
VERTEX
  8
2_FEATURE
 62
7
  6
CONTINUOUS
 10
152.8431466099
 20
106.8265856638
  0
VERTEX
  8
2_FEATURE
 62
7
  6
CONTINUOUS
 10
152.8912576025
 20
106.9109131613
  0
VERTEX
  8
2_FEATURE
 62
7
  6
CONTINUOUS
 10
152.9619435833
 20
106.9847922612
  0
VERTEX
  8
2_FEATURE
 62
7
  6
CONTINUOUS
 10
153.051412209
 20
107.0487531166
  0
VERTEX
  8
2_FEATURE
 62
7
  6
CONTINUOUS
 10
153.1565083674
 20
107.1021426884
  0
VERTEX
  8
2_FEATURE
 62
7
  6
CONTINUOUS
 10
153.2732455956
 20
107.143849109
  0
VERTEX
  8
2_FEATURE
 62
7
  6
CONTINUOUS
 10
153.3981254994
 20
107.1733357405
  0
VERTEX
  8
2_FEATURE
 62
7
  6
CONTINUOUS
 10
153.5294037888
 20
107.190422822
  0
SEQEND
  0
POLYLINE
  8
0
 62
7
  6
CONTINUOUS
 66
1
 70
0
  0
VERTEX
  8
0
 62
7
  6
CONTINUOUS
 10
161.7150495677
 20
134.075781705
  0
VERTEX
  8
0
 62
7
  6
CONTINUOUS
 10
161.7386655253
 20
134.1216727284
  0
VERTEX
  8
0
 62
7
  6
CONTINUOUS
 10
161.7564577469
 20
134.1765274505
  0
VERTEX
  8
0
 62
7
  6
CONTINUOUS
 10
161.7711556144
 20
134.2391449013
  0
VERTEX
  8
0
 62
7
  6
CONTINUOUS
 10
161.7830113597
 20
134.307098673
  0
VERTEX
  8
0
 62
7
  6
CONTINUOUS
 10
161.7922733064
 20
134.3801576713
  0
VERTEX
  8
0
 62
7
  6
CONTINUOUS
 10
161.7988945402
 20
134.4585786864
  0
VERTEX
  8
0
 62
7
  6
CONTINUOUS
 10
161.8025349452
 20
134.5417641734
  0
VERTEX
  8
0
 62
7
  6
CONTINUOUS
 10
161.8027271675
 20
134.6297603056
  0
VERTEX
  8
0
 62
7
  6
CONTINUOUS
 10
161.7987609046
 20
134.7222465223
  0
VERTEX
  8
0
 62
7
  6
CONTINUOUS
 10
161.789715243
 20
134.8180726476
  0
VERTEX
  8
0
 62
7
  6
CONTINUOUS
 10
161.7745220442
 20
134.9152313032
  0
VERTEX
  8
0
 62
7
  6
CONTINUOUS
 10
161.7517035162
 20
135.0119937781
  0
VERTEX
  8
0
 62
7
  6
CONTINUOUS
 10
161.719557097
 20
135.1048025684
  0
VERTEX
  8
0
 62
7
  6
CONTINUOUS
 10
161.6766411789
 20
135.1876894348
  0
SEQEND
  0
LINE
  8
0
 62
7
  6
CONTINUOUS
 10
161.7150495961
 20
134.075781705
 11
161.6820175801
 21
134.0308789975
  0
LINE
  8
0
 62
7
  6
CONTINUOUS
 10
150.3577212747
 20
123.7369066754
 11
161.5473694999
 21
124.6313078293
  0
POLYLINE
  8
0
 62
7
  6
CONTINUOUS
 66
1
 70
0
  0
VERTEX
  8
0
 62
7
  6
CONTINUOUS
 10
161.547369499
 20
124.6313078406
  0
VERTEX
  8
0
 62
7
  6
CONTINUOUS
 10
161.5992603936
 20
124.6153148425
  0
VERTEX
  8
0
 62
7
  6
CONTINUOUS
 10
161.6489637105
 20
124.562192115
  0
VERTEX
  8
0
 62
7
  6
CONTINUOUS
 10
161.6885359958
 20
124.48057957
  0
VERTEX
  8
0
 62
7
  6
CONTINUOUS
 10
161.7117061889
 20
124.383597559
  0
SEQEND
  0
POLYLINE
  8
0
 62
7
  6
CONTINUOUS
 66
1
 70
0
  0
VERTEX
  8
0
 62
7
  6
CONTINUOUS
 10
161.6766411789
 20
118.3876894348
  0
VERTEX
  8
0
 62
7
  6
CONTINUOUS
 10
161.6213264194
 20
118.4536999684
  0
VERTEX
  8
0
 62
7
  6
CONTINUOUS
 10
161.5832741776
 20
118.475470407
  0
SEQEND
  0
LINE
  8
1_AXIS
 62
7
  6
CONTINUOUS
 10
159.7400893229
 20
113.3508442241
 11
159.6947823779
 21
113.5083442992
  0
LINE
  8
1_AXIS
 62
7
  6
CONTINUOUS
 10
159.9523115804
 20
113.3508442241
 11
159.9070046354
 21
113.5083442992
  0
LINE
  8
1_AXIS
 62
7
  6
CONTINUOUS
 10
159.604168488
 20
113.311469149
 11
159.6268219605
 21
113.193344149
  0
LINE
  8
1_AXIS
 62
7
  6
CONTINUOUS
 10
158.8566037855
 20
112.7995942992
 11
158.833950313
 21
112.957094149
  0
LINE
  8
1_AXIS
 62
7
  6
CONTINUOUS
 10
159.068826043
 20
112.7995942992
 11
159.0461725705
 21
112.957094149
  0
LINE
  8
1_AXIS
 62
7
  6
CONTINUOUS
 10
158.6980294623
 20
112.957094149
 11
158.7206829368
 21
112.7602192241
  0
LINE
  8
1_AXIS
 62
7
  6
CONTINUOUS
 10
158.6980294623
 20
115.7133442241
 11
158.6980294623
 21
115.4770942241
  0
LINE
  8
1_AXIS
 62
7
  6
CONTINUOUS
 10
158.6980294623
 20
114.4927192617
 11
158.6980294623
 21
114.1383442617
  0
LINE
  8
1_AXIS
 62
7
  6
CONTINUOUS
 10
158.6980294623
 20
113.2720942992
 11
158.6980294623
 21
112.957094149
  0
LINE
  8
1_AXIS
 62
7
  6
CONTINUOUS
 10
158.6980294623
 20
112.0514692241
 11
158.6980294623
 21
111.8152192241
  0
LINE
  8
1_AXIS
 62
7
  6
CONTINUOUS
 10
158.833950313
 20
112.957094149
 11
158.833950313
 21
113.2720942992
  0
LINE
  8
0
 62
7
  6
CONTINUOUS
 10
158.9294122302
 20
130.0133440082
 11
158.9294122302
 21
129.7633440082
  0
LINE
  8
1_AXIS
 62
7
  6
CONTINUOUS
 10
158.9925246362
 20
113.5870942241
 11
158.9925246362
 21
113.8233442241
  0
LINE
  8
1_AXIS
 62
7
  6
CONTINUOUS
 10
159.0461725705
 20
112.957094149
 11
159.0461725705
 21
113.2720942992
  0
LINE
  8
1_AXIS
 62
7
  6
CONTINUOUS
 10
159.1737524477
 20
113.193344149
 11
159.1737524477
 21
112.957094149
  0
LINE
  8
1_AXIS
 62
7
  6
CONTINUOUS
 10
159.1964059201
 20
111.8152192241
 11
159.1964059201
 21
110.7914690739
  0
LINE
  8
1_AXIS
 62
7
  6
CONTINUOUS
 10
159.2047468937
 20
113.5870942241
 11
159.2047468937
 21
113.8233442241
  0
LINE
  8
1_AXIS
 62
7
  6
CONTINUOUS
 10
159.3096732825
 20
112.957094149
 11
159.3096732825
 21
113.193344149
  0
LINE
  8
1_AXIS
 62
7
  6
CONTINUOUS
 10
159.3323267549
 20
110.7914690739
 11
159.3323267549
 21
111.8152192241
  0
LINE
  8
1_AXIS
 62
7
  6
CONTINUOUS
 10
159.5135545982
 20
112.720844149
 11
159.5135545982
 21
112.484594149
  0
LINE
  8
1_AXIS
 62
7
  6
CONTINUOUS
 10
159.52189554
 20
112.957094149
 11
159.52189554
 21
113.193344149
  0
LINE
  8
1_AXIS
 62
7
  6
CONTINUOUS
 10
159.5445490125
 20
110.7914690739
 11
159.5445490125
 21
111.8152192241
  0
LINE
  8
0
 62
7
  6
CONTINUOUS
 10
159.5983419617
 20
129.7633440082
 11
159.5983419617
 21
130.0133440082
  0
LINE
  8
1_AXIS
 62
7
  6
CONTINUOUS
 10
159.6268219605
 20
113.193344149
 11
159.6268219605
 21
112.957094149
  0
LINE
  8
1_AXIS
 62
7
  6
CONTINUOUS
 10
159.6268219605
 20
111.8152192241
 11
159.6268219605
 21
110.6339692241
  0
LINE
  8
1_AXIS
 62
7
  6
CONTINUOUS
 10
159.7627427953
 20
110.6339692241
 11
159.7627427953
 21
112.0514692241
  0
LINE
  8
1_AXIS
 62
7
  6
CONTINUOUS
 10
159.7627427953
 20
112.9964692241
 11
159.7627427953
 21
113.193344149
  0
LINE
  8
1_AXIS
 62
7
  6
CONTINUOUS
 10
159.7627427953
 20
114.1383442617
 11
159.7627427953
 21
114.3745942617
  0
LINE
  8
1_AXIS
 62
7
  6
CONTINUOUS
 10
159.7627427953
 20
115.3589692241
 11
159.7627427953
 21
115.7133442241
  0
LINE
  8
0
 62
7
  6
CONTINUOUS
 10
159.8339440168
 20
129.7633440082
 11
159.8339440168
 21
130.0133440082
  0
LINE
  8
1_AXIS
 62
7
  6
CONTINUOUS
 10
159.9749650528
 20
110.6339692241
 11
159.9749650528
 21
112.0514692241
  0
LINE
  8
1_AXIS
 62
7
  6
CONTINUOUS
 10
159.9749650528
 20
112.9964692241
 11
159.9749650528
 21
113.193344149
  0
LINE
  8
1_AXIS
 62
7
  6
CONTINUOUS
 10
159.9749650528
 20
114.1383442617
 11
159.9749650528
 21
114.3745942617
  0
LINE
  8
1_AXIS
 62
7
  6
CONTINUOUS
 10
159.9749650528
 20
115.3589692241
 11
159.9749650528
 21
115.7133442241
  0
POLYLINE
  8
0
 62
7
  6
CONTINUOUS
 66
1
 70
0
  0
VERTEX
  8
0
 62
7
  6
CONTINUOUS
 10
158.8072006744
 20
124.7146391552
  0
VERTEX
  8
0
 62
7
  6
CONTINUOUS
 10
158.8161503503
 20
124.7374735491
  0
VERTEX
  8
0
 62
7
  6
CONTINUOUS
 10
158.8119293119
 20
124.7302113222
  0
VERTEX
  8
0
 62
7
  6
CONTINUOUS
 10
158.7750984596
 20
124.6753808306
  0
VERTEX
  8
0
 62
7
  6
CONTINUOUS
 10
158.6938578053
 20
124.5855807893
  0
SEQEND
  0
POLYLINE
  8
0
 62
7
  6
CONTINUOUS
 66
1
 70
0
  0
VERTEX
  8
0
 62
7
  6
CONTINUOUS
 10
158.6943223003
 20
124.58602005
  0
VERTEX
  8
0
 62
7
  6
CONTINUOUS
 10
158.6605606934
 20
124.556189438
  0
VERTEX
  8
0
 62
7
  6
CONTINUOUS
 10
158.5287162949
 20
124.4682228391
  0
VERTEX
  8
0
 62
7
  6
CONTINUOUS
 10
158.3288777081
 20
124.3897407889
  0
VERTEX
  8
0
 62
7
  6
CONTINUOUS
 10
158.1579860895
 20
124.3603917814
  0
SEQEND
  0
LINE
  8
0
 62
7
  6
CONTINUOUS
 10
165.1186986779
 20
125.6532594953
 11
161.5412419141
 21
124.6308180445
  0
POLYLINE
  8
0
 62
7
  6
CONTINUOUS
 66
1
 70
0
  0
VERTEX
  8
0
 62
7
  6
CONTINUOUS
 10
151.6626872013
 20
153.3025923837
  0
VERTEX
  8
0
 62
7
  6
CONTINUOUS
 10
151.7028450657
 20
153.1719791113
  0
VERTEX
  8
0
 62
7
  6
CONTINUOUS
 10
151.797939947
 20
153.0344615074
  0
VERTEX
  8
0
 62
7
  6
CONTINUOUS
 10
151.9393974944
 20
152.9254857332
  0
VERTEX
  8
0
 62
7
  6
CONTINUOUS
 10
152.1169401841
 20
152.8570059664
  0
VERTEX
  8
0
 62
7
  6
CONTINUOUS
 10
152.2202018712
 20
152.8408975943
  0
SEQEND
  0
LINE
  8
1_AXIS
 62
7
  6
CONTINUOUS
 10
159.7627427953
 20
113.193344149
 11
159.7400893229
 21
113.3508442241
  0
LINE
  8
1_AXIS
 62
7
  6
CONTINUOUS
 10
159.9749650528
 20
113.193344149
 11
159.9523115804
 21
113.3508442241
  0
LINE
  8
1_AXIS
 62
7
  6
CONTINUOUS
 10
158.7206829368
 20
113.4689692241
 11
158.6980294623
 21
113.2720942992
  0
LINE
  8
1_AXIS
 62
7
  6
CONTINUOUS
 10
159.28701981
 20
112.7602192241
 11
159.3096732825
 21
112.957094149
  0
LINE
  8
1_AXIS
 62
7
  6
CONTINUOUS
 10
159.4992420675
 20
112.7602192241
 11
159.52189554
 21
112.957094149
  0
LINE
  8
1_AXIS
 62
7
  6
CONTINUOUS
 10
159.7400893229
 20
112.7995942992
 11
159.7627427953
 21
112.9964692241
  0
LINE
  8
1_AXIS
 62
7
  6
CONTINUOUS
 10
159.9523115804
 20
112.7995942992
 11
159.9749650528
 21
112.9964692241
  0
LINE
  8
1_AXIS
 62
7
  6
CONTINUOUS
 10
158.833950313
 20
113.2720942992
 11
158.8566037855
 21
113.429594149
  0
LINE
  8
1_AXIS
 62
7
  6
CONTINUOUS
 10
159.0461725705
 20
113.2720942992
 11
159.068826043
 21
113.429594149
  0
LINE
  8
1_AXIS
 62
7
  6
CONTINUOUS
 10
159.1964059201
 20
113.3508442241
 11
159.1737524477
 21
113.193344149
  0
LINE
  8
1_AXIS
 62
7
  6
CONTINUOUS
 10
159.1737524477
 20
112.957094149
 11
159.1510989752
 21
112.7995942992
  0
LINE
  8
1_AXIS
 62
7
  6
CONTINUOUS
 10
159.3096732825
 20
113.193344149
 11
159.3323267549
 21
113.311469149
  0
LINE
  8
1_AXIS
 62
7
  6
CONTINUOUS
 10
159.52189554
 20
113.193344149
 11
159.5445490125
 21
113.311469149
  0
LINE
  8
1_AXIS
 62
7
  6
CONTINUOUS
 10
159.6268219605
 20
112.957094149
 11
159.604168488
 21
112.838969149
  0
POLYLINE
  8
0
 62
7
  6
CONTINUOUS
 66
1
 70
0
  0
VERTEX
  8
0
 62
7
  6
CONTINUOUS
 10
161.6766411789
 20
124.7389990135
  0
VERTEX
  8
0
 62
7
  6
CONTINUOUS
 10
161.6213264194
 20
124.6729884799
  0
VERTEX
  8
0
 62
7
  6
CONTINUOUS
 10
161.5832741776
 20
124.6512180412
  0
SEQEND
  0
LINE
  8
0
 62
7
  6
CONTINUOUS
 10
158.9294122302
 20
129.7633440082
 11
159.8339440168
 21
129.7633440082
  0
LINE
  8
0
 62
7
  6
CONTINUOUS
 10
159.8339440168
 20
130.0133440082
 11
159.5983419617
 21
130.0133440082
  0
LINE
  8
0
 62
7
  6
CONTINUOUS
 10
159.4844815954
 20
130.0133440082
 11
158.9294122302
 21
130.0133440082
  0
LINE
  8
0
 62
7
  6
CONTINUOUS
 10
159.7343161165
 20
130.2633440082
 11
159.3848536952
 21
130.2633440082
  0
LINE
  8
0
 62
7
  6
CONTINUOUS
 10
161.7150495961
 20
125.8509067433
 11
161.6820175801
 21
125.8958094508
  0
POLYLINE
  8
0
 62
7
  6
CONTINUOUS
 66
1
 70
0
  0
VERTEX
  8
0
 62
7
  6
CONTINUOUS
 10
161.7150495677
 20
125.8509067433
  0
VERTEX
  8
0
 62
7
  6
CONTINUOUS
 10
161.7386655253
 20
125.8050157199
  0
VERTEX
  8
0
 62
7
  6
CONTINUOUS
 10
161.7564577469
 20
125.7501609978
  0
VERTEX
  8
0
 62
7
  6
CONTINUOUS
 10
161.7711556144
 20
125.687543547
  0
VERTEX
  8
0
 62
7
  6
CONTINUOUS
 10
161.7830113597
 20
125.6195897753
  0
VERTEX
  8
0
 62
7
  6
CONTINUOUS
 10
161.7922733064
 20
125.546530777
  0
VERTEX
  8
0
 62
7
  6
CONTINUOUS
 10
161.7988945402
 20
125.4681097619
  0
VERTEX
  8
0
 62
7
  6
CONTINUOUS
 10
161.8025349452
 20
125.3849242749
  0
VERTEX
  8
0
 62
7
  6
CONTINUOUS
 10
161.8027271675
 20
125.2969281427
  0
VERTEX
  8
0
 62
7
  6
CONTINUOUS
 10
161.7987609046
 20
125.2044419259
  0
VERTEX
  8
0
 62
7
  6
CONTINUOUS
 10
161.789715243
 20
125.1086158007
  0
VERTEX
  8
0
 62
7
  6
CONTINUOUS
 10
161.7745220442
 20
125.0114571451
  0
VERTEX
  8
0
 62
7
  6
CONTINUOUS
 10
161.7517035162
 20
124.9146946701
  0
VERTEX
  8
0
 62
7
  6
CONTINUOUS
 10
161.719557097
 20
124.8218858799
  0
VERTEX
  8
0
 62
7
  6
CONTINUOUS
 10
161.6766411789
 20
124.7389990135
  0
SEQEND
  0
LINE
  8
0
 62
7
  6
CONTINUOUS
 10
159.3848536952
 20
130.2633440082
 11
159.4844815954
 21
130.0133440082
  0
LINE
  8
0
 62
7
  6
CONTINUOUS
 10
159.5983419617
 20
130.0133440082
 11
159.4987140615
 21
130.2633440082
  0
LINE
  8
0
 62
7
  6
CONTINUOUS
 10
159.8339440168
 20
130.0133440082
 11
159.7343161165
 21
130.2633440082
  0
LINE
  8
1_AXIS
 62
7
  6
CONTINUOUS
 10
159.2417128651
 20
113.5083442992
 11
159.1964059201
 21
113.3508442241
  0
LINE
  8
1_AXIS
 62
7
  6
CONTINUOUS
 10
159.2417128651
 20
112.602719149
 11
159.28701981
 21
112.7602192241
  0
LINE
  8
1_AXIS
 62
7
  6
CONTINUOUS
 10
159.4539351226
 20
112.602719149
 11
159.4992420675
 21
112.7602192241
  0
LINE
  8
1_AXIS
 62
7
  6
CONTINUOUS
 10
158.7886433601
 20
113.665844149
 11
158.7206829368
 21
113.4689692241
  0
LINE
  8
1_AXIS
 62
7
  6
CONTINUOUS
 10
159.3323267549
 20
113.311469149
 11
159.3776336999
 21
113.429594149
  0
LINE
  8
1_AXIS
 62
7
  6
CONTINUOUS
 10
159.1510989752
 20
112.7995942992
 11
159.1057920302
 21
112.6814692992
  0
LINE
  8
1_AXIS
 62
7
  6
CONTINUOUS
 10
159.5445490125
 20
113.311469149
 11
159.5743587503
 21
113.3891895798
  0
LINE
  8
0
 62
7
  6
CONTINUOUS
 10
165.4373982759
 20
92.5133442241
 11
165.4373982759
 21
159.0133442241
  0
POLYLINE
  8
0
 62
7
  6
CONTINUOUS
 66
1
 70
0
  0
VERTEX
  8
0
 62
7
  6
CONTINUOUS
 10
158.8072006744
 20
107.9146391552
  0
VERTEX
  8
0
 62
7
  6
CONTINUOUS
 10
158.8161503503
 20
107.9374735491
  0
VERTEX
  8
0
 62
7
  6
CONTINUOUS
 10
158.8119293119
 20
107.9302113222
  0
VERTEX
  8
0
 62
7
  6
CONTINUOUS
 10
158.7750984596
 20
107.8753808306
  0
VERTEX
  8
0
 62
7
  6
CONTINUOUS
 10
158.6938578053
 20
107.7855807893
  0
SEQEND
  0
LINE
  8
1_AXIS
 62
7
  6
CONTINUOUS
 10
159.6721289055
 20
112.6420942241
 11
159.7400893229
 21
112.7995942992
  0
LINE
  8
1_AXIS
 62
7
  6
CONTINUOUS
 10
159.884351163
 20
112.6420942241
 11
159.9523115804
 21
112.7995942992
  0
POLYLINE
  8
0
 62
7
  6
CONTINUOUS
 66
1
 70
0
  0
VERTEX
  8
0
 62
7
  6
CONTINUOUS
 10
161.7150495677
 20
117.275781705
  0
VERTEX
  8
0
 62
7
  6
CONTINUOUS
 10
161.7386655253
 20
117.3216727284
  0
VERTEX
  8
0
 62
7
  6
CONTINUOUS
 10
161.7564577469
 20
117.3765274505
  0
VERTEX
  8
0
 62
7
  6
CONTINUOUS
 10
161.7711556144
 20
117.4391449013
  0
VERTEX
  8
0
 62
7
  6
CONTINUOUS
 10
161.7830113597
 20
117.507098673
  0
VERTEX
  8
0
 62
7
  6
CONTINUOUS
 10
161.7922733064
 20
117.5801576713
  0
VERTEX
  8
0
 62
7
  6
CONTINUOUS
 10
161.7988945402
 20
117.6585786864
  0
VERTEX
  8
0
 62
7
  6
CONTINUOUS
 10
161.8025349452
 20
117.7417641734
  0
VERTEX
  8
0
 62
7
  6
CONTINUOUS
 10
161.8027271675
 20
117.8297603056
  0
VERTEX
  8
0
 62
7
  6
CONTINUOUS
 10
161.7987609046
 20
117.9222465223
  0
VERTEX
  8
0
 62
7
  6
CONTINUOUS
 10
161.789715243
 20
118.0180726476
  0
VERTEX
  8
0
 62
7
  6
CONTINUOUS
 10
161.7745220442
 20
118.1152313032
  0
VERTEX
  8
0
 62
7
  6
CONTINUOUS
 10
161.7517035162
 20
118.2119937781
  0
VERTEX
  8
0
 62
7
  6
CONTINUOUS
 10
161.719557097
 20
118.3048025684
  0
VERTEX
  8
0
 62
7
  6
CONTINUOUS
 10
161.6766411789
 20
118.3876894348
  0
SEQEND
  0
LINE
  8
1_AXIS
 62
7
  6
CONTINUOUS
 10
158.8566037855
 20
113.429594149
 11
158.9245642188
 21
113.547719149
  0
LINE
  8
1_AXIS
 62
7
  6
CONTINUOUS
 10
159.068826043
 20
113.429594149
 11
159.1367864763
 21
113.547719149
  0
LINE
  8
1_AXIS
 62
7
  6
CONTINUOUS
 10
159.3323267549
 20
113.665844149
 11
159.2417128651
 21
113.5083442992
  0
LINE
  8
1_AXIS
 62
7
  6
CONTINUOUS
 10
159.1510989752
 20
112.4452192992
 11
159.2417128651
 21
112.602719149
  0
LINE
  8
1_AXIS
 62
7
  6
CONTINUOUS
 10
159.3633212327
 20
112.4452192992
 11
159.4539351226
 21
112.602719149
  0
LINE
  8
1_AXIS
 62
7
  6
CONTINUOUS
 10
159.604168488
 20
112.838969149
 11
159.5588615431
 21
112.7602192241
  0
LINE
  8
0
 62
7
  6
CONTINUOUS
 10
161.7150495961
 20
117.275781705
 11
161.6820175801
 21
117.2308789975
  0
LINE
  8
1_AXIS
 62
7
  6
CONTINUOUS
 10
158.8566037855
 20
114.3745942617
 11
159.7627427953
 21
115.3589692241
  0
LINE
  8
1_AXIS
 62
7
  6
CONTINUOUS
 10
159.068826043
 20
114.3745942617
 11
159.9749650528
 21
115.3589692241
  0
LINE
  8
1_AXIS
 62
7
  6
CONTINUOUS
 10
159.6268219605
 20
115.4770942241
 11
158.6980294623
 21
114.4927192617
  0
LINE
  8
1_AXIS
 62
7
  6
CONTINUOUS
 10
158.9019107463
 20
113.783969149
 11
158.7886433601
 21
113.665844149
  0
POLYLINE
  8
0
 62
7
  6
CONTINUOUS
 66
1
 70
0
  0
VERTEX
  8
0
 62
7
  6
CONTINUOUS
 10
161.547369499
 20
118.4953806077
  0
VERTEX
  8
0
 62
7
  6
CONTINUOUS
 10
161.5992603936
 20
118.5113736058
  0
VERTEX
  8
0
 62
7
  6
CONTINUOUS
 10
161.6489637105
 20
118.5644963333
  0
VERTEX
  8
0
 62
7
  6
CONTINUOUS
 10
161.6885359958
 20
118.6461088783
  0
VERTEX
  8
0
 62
7
  6
CONTINUOUS
 10
161.7117061889
 20
118.7430908893
  0
SEQEND
  0
POLYLINE
  8
0
 62
7
  6
CONTINUOUS
 66
1
 70
0
  0
VERTEX
  8
0
 62
7
  6
CONTINUOUS
 10
158.6938770633
 20
135.3410894579
  0
VERTEX
  8
0
 62
7
  6
CONTINUOUS
 10
158.7747122899
 20
135.2518143538
  0
VERTEX
  8
0
 62
7
  6
CONTINUOUS
 10
158.8117707103
 20
135.1967551747
  0
VERTEX
  8
0
 62
7
  6
CONTINUOUS
 10
158.8176531787
 20
135.1858358686
  0
SEQEND
  0
POLYLINE
  8
0
 62
7
  6
CONTINUOUS
 66
1
 70
0
  0
VERTEX
  8
0
 62
7
  6
CONTINUOUS
 10
161.6766411789
 20
135.1876894348
  0
VERTEX
  8
0
 62
7
  6
CONTINUOUS
 10
161.6213264194
 20
135.2536999684
  0
VERTEX
  8
0
 62
7
  6
CONTINUOUS
 10
161.5832741776
 20
135.275470407
  0
SEQEND
  0
LINE
  8
1_AXIS
 62
7
  6
CONTINUOUS
 10
159.5815150156
 20
112.5239692241
 11
159.6721289055
 21
112.6420942241
  0
LINE
  8
1_AXIS
 62
7
  6
CONTINUOUS
 10
159.7937372731
 20
112.5239692241
 11
159.884351163
 21
112.6420942241
  0
LINE
  8
1_AXIS
 62
7
  6
CONTINUOUS
 10
159.1057920302
 20
112.6814692992
 11
159.0378315811
 21
112.602719149
  0
LINE
  8
1_AXIS
 62
7
  6
CONTINUOUS
 10
159.0604850536
 20
112.366469149
 11
159.1510989752
 21
112.4452192992
  0
LINE
  8
1_AXIS
 62
7
  6
CONTINUOUS
 10
159.5588615431
 20
112.7602192241
 11
159.5135545982
 21
112.720844149
  0
LINE
  8
1_AXIS
 62
7
  6
CONTINUOUS
 10
159.2727073111
 20
112.366469149
 11
159.3633212327
 21
112.4452192992
  0
LINE
  8
1_AXIS
 62
7
  6
CONTINUOUS
 10
158.9245642188
 20
113.547719149
 11
158.9925246362
 21
113.5870942241
  0
LINE
  8
1_AXIS
 62
7
  6
CONTINUOUS
 10
159.1367864763
 20
113.547719149
 11
159.2047468937
 21
113.5870942241
  0
LINE
  8
1_AXIS
 62
7
  6
CONTINUOUS
 10
159.3776336999
 20
113.429594149
 11
159.4455941173
 21
113.4689692241
  0
LINE
  8
1_AXIS
 62
7
  6
CONTINUOUS
 10
158.9925246362
 20
113.8233442241
 11
158.9019107463
 21
113.783969149
  0
LINE
  8
0
 62
7
  6
CONTINUOUS
 10
150.3577212747
 20
136.1897817729
 11
161.5473694999
 21
135.295380619
  0
POLYLINE
  8
0
 62
7
  6
CONTINUOUS
 66
1
 70
0
  0
VERTEX
  8
0
 62
7
  6
CONTINUOUS
 10
158.1580760905
 20
135.5662893403
  0
VERTEX
  8
0
 62
7
  6
CONTINUOUS
 10
158.3238162812
 20
135.538276549
  0
VERTEX
  8
0
 62
7
  6
CONTINUOUS
 10
158.5262486422
 20
135.459785045
  0
VERTEX
  8
0
 62
7
  6
CONTINUOUS
 10
158.6598715865
 20
135.3710678781
  0
VERTEX
  8
0
 62
7
  6
CONTINUOUS
 10
158.6943314877
 20
135.3406597046
  0
SEQEND
  0
LINE
  8
0
 62
7
  6
CONTINUOUS
 10
165.1186986779
 20
134.273428953
 11
161.5412419141
 21
135.2958704038
  0
POLYLINE
  8
0
 62
7
  6
CONTINUOUS
 66
1
 70
0
  0
VERTEX
  8
0
 62
7
  6
CONTINUOUS
 10
151.6106940799
 20
153.4061981688
  0
VERTEX
  8
0
 62
7
  6
CONTINUOUS
 10
151.6512534176
 20
153.3442882433
  0
VERTEX
  8
0
 62
7
  6
CONTINUOUS
 10
151.6626880562
 20
153.3025872368
  0
SEQEND
  0
POLYLINE
  8
0
 62
7
  6
CONTINUOUS
 66
1
 70
0
  0
VERTEX
  8
0
 62
7
  6
CONTINUOUS
 10
161.7150495677
 20
142.6509067433
  0
VERTEX
  8
0
 62
7
  6
CONTINUOUS
 10
161.7386655253
 20
142.6050157199
  0
VERTEX
  8
0
 62
7
  6
CONTINUOUS
 10
161.7564577469
 20
142.5501609978
  0
VERTEX
  8
0
 62
7
  6
CONTINUOUS
 10
161.7711556144
 20
142.487543547
  0
VERTEX
  8
0
 62
7
  6
CONTINUOUS
 10
161.7830113597
 20
142.4195897753
  0
VERTEX
  8
0
 62
7
  6
CONTINUOUS
 10
161.7922733064
 20
142.346530777
  0
VERTEX
  8
0
 62
7
  6
CONTINUOUS
 10
161.7988945402
 20
142.2681097619
  0
VERTEX
  8
0
 62
7
  6
CONTINUOUS
 10
161.8025349452
 20
142.1849242749
  0
VERTEX
  8
0
 62
7
  6
CONTINUOUS
 10
161.8027271675
 20
142.0969281427
  0
VERTEX
  8
0
 62
7
  6
CONTINUOUS
 10
161.7987609046
 20
142.0044419259
  0
VERTEX
  8
0
 62
7
  6
CONTINUOUS
 10
161.789715243
 20
141.9086158007
  0
VERTEX
  8
0
 62
7
  6
CONTINUOUS
 10
161.7745220442
 20
141.8114571451
  0
VERTEX
  8
0
 62
7
  6
CONTINUOUS
 10
161.7517035162
 20
141.7146946701
  0
VERTEX
  8
0
 62
7
  6
CONTINUOUS
 10
161.719557097
 20
141.6218858799
  0
VERTEX
  8
0
 62
7
  6
CONTINUOUS
 10
161.6766411789
 20
141.5389990135
  0
SEQEND
  0
LINE
  8
1_AXIS
 62
7
  6
CONTINUOUS
 10
159.5135545982
 20
112.484594149
 11
159.5815150156
 21
112.5239692241
  0
LINE
  8
1_AXIS
 62
7
  6
CONTINUOUS
 10
159.7257768557
 20
112.484594149
 11
159.7937372731
 21
112.5239692241
  0
POLYLINE
  8
1_AXIS
 62
7
  6
CONTINUOUS
 66
1
 70
0
  0
VERTEX
  8
1_AXIS
 62
7
  6
CONTINUOUS
 10
158.7867555734
 20
111.4833442241
  0
VERTEX
  8
1_AXIS
 62
7
  6
CONTINUOUS
 10
158.7491268633
 20
111.4616559625
  0
VERTEX
  8
1_AXIS
 62
7
  6
CONTINUOUS
 10
158.7185111781
 20
111.4028824821
  0
VERTEX
  8
1_AXIS
 62
7
  6
CONTINUOUS
 10
158.6980461615
 20
111.3154398857
  0
VERTEX
  8
1_AXIS
 62
7
  6
CONTINUOUS
 10
158.6909313734
 20
111.2133442241
  0
VERTEX
  8
1_AXIS
 62
7
  6
CONTINUOUS
 10
158.6980461615
 20
111.1112485626
  0
VERTEX
  8
1_AXIS
 62
7
  6
CONTINUOUS
 10
158.7185111781
 20
111.0238059661
  0
VERTEX
  8
1_AXIS
 62
7
  6
CONTINUOUS
 10
158.7491268633
 20
110.9650324857
  0
VERTEX
  8
1_AXIS
 62
7
  6
CONTINUOUS
 10
158.7867555734
 20
110.9433442241
  0
SEQEND
  0
POLYLINE
  8
1_AXIS
 62
7
  6
CONTINUOUS
 66
1
 70
0
  0
VERTEX
  8
1_AXIS
 62
7
  6
CONTINUOUS
 10
158.7867555734
 20
110.9433442241
  0
VERTEX
  8
1_AXIS
 62
7
  6
CONTINUOUS
 10
158.8243842836
 20
110.9650324857
  0
VERTEX
  8
1_AXIS
 62
7
  6
CONTINUOUS
 10
158.8549999687
 20
111.0238059661
  0
VERTEX
  8
1_AXIS
 62
7
  6
CONTINUOUS
 10
158.8754649853
 20
111.1112485626
  0
VERTEX
  8
1_AXIS
 62
7
  6
CONTINUOUS
 10
158.8825797734
 20
111.2133442241
  0
VERTEX
  8
1_AXIS
 62
7
  6
CONTINUOUS
 10
158.8754649853
 20
111.3154398857
  0
VERTEX
  8
1_AXIS
 62
7
  6
CONTINUOUS
 10
158.8549999687
 20
111.4028824821
  0
VERTEX
  8
1_AXIS
 62
7
  6
CONTINUOUS
 10
158.8243842836
 20
111.4616559625
  0
VERTEX
  8
1_AXIS
 62
7
  6
CONTINUOUS
 10
158.7867555734
 20
111.4833442241
  0
SEQEND
  0
POLYLINE
  8
1_AXIS
 62
7
  6
CONTINUOUS
 66
1
 70
0
  0
VERTEX
  8
1_AXIS
 62
7
  6
CONTINUOUS
 10
158.9989778309
 20
110.9433442241
  0
VERTEX
  8
1_AXIS
 62
7
  6
CONTINUOUS
 10
159.0327480162
 20
110.9606667091
  0
VERTEX
  8
1_AXIS
 62
7
  6
CONTINUOUS
 10
159.0618007417
 20
111.0094663491
  0
VERTEX
  8
1_AXIS
 62
7
  6
CONTINUOUS
 10
159.0826601799
 20
111.081800189
  0
VERTEX
  8
1_AXIS
 62
7
  6
CONTINUOUS
 10
159.0934422421
 20
111.1680199682
  0
VERTEX
  8
1_AXIS
 62
7
  6
CONTINUOUS
 10
159.0934380231
 20
111.2587382365
  0
VERTEX
  8
1_AXIS
 62
7
  6
CONTINUOUS
 10
159.0826514581
 20
111.3449323
  0
VERTEX
  8
1_AXIS
 62
7
  6
CONTINUOUS
 10
159.0617944909
 20
111.41723739
  0
VERTEX
  8
1_AXIS
 62
7
  6
CONTINUOUS
 10
159.0327459006
 20
111.4660239839
  0
VERTEX
  8
1_AXIS
 62
7
  6
CONTINUOUS
 10
158.9989778309
 20
111.4833442241
  0
SEQEND
  0
LINE
  8
1_AXIS
 62
7
  6
CONTINUOUS
 10
159.4229406448
 20
113.7052192241
 11
159.3323267549
 21
113.665844149
  0
LINE
  8
0
 62
7
  6
CONTINUOUS
 10
149.8340238198
 20
153.4179922056
 11
149.8523883144
 21
153.3966871699
  0
LINE
  8
0
 62
7
  6
CONTINUOUS
 10
149.8523878641
 20
153.3966875353
 11
149.9604438826
 21
153.2698313526
  0
LINE
  8
0
 62
7
  6
CONTINUOUS
 10
161.7150495961
 20
142.6509067433
 11
161.6820175801
 21
142.6958094508
  0
POLYLINE
  8
0
 62
7
  6
CONTINUOUS
 66
1
 70
0
  0
VERTEX
  8
0
 62
7
  6
CONTINUOUS
 10
161.7150495677
 20
100.475781705
  0
VERTEX
  8
0
 62
7
  6
CONTINUOUS
 10
161.7386655253
 20
100.5216727284
  0
VERTEX
  8
0
 62
7
  6
CONTINUOUS
 10
161.7564577469
 20
100.5765274505
  0
VERTEX
  8
0
 62
7
  6
CONTINUOUS
 10
161.7711556144
 20
100.6391449013
  0
VERTEX
  8
0
 62
7
  6
CONTINUOUS
 10
161.7830113597
 20
100.707098673
  0
VERTEX
  8
0
 62
7
  6
CONTINUOUS
 10
161.7922733064
 20
100.7801576713
  0
VERTEX
  8
0
 62
7
  6
CONTINUOUS
 10
161.7988945402
 20
100.8585786864
  0
VERTEX
  8
0
 62
7
  6
CONTINUOUS
 10
161.8025349452
 20
100.9417641734
  0
VERTEX
  8
0
 62
7
  6
CONTINUOUS
 10
161.8027271675
 20
101.0297603056
  0
VERTEX
  8
0
 62
7
  6
CONTINUOUS
 10
161.7987609046
 20
101.1222465223
  0
VERTEX
  8
0
 62
7
  6
CONTINUOUS
 10
161.789715243
 20
101.2180726476
  0
VERTEX
  8
0
 62
7
  6
CONTINUOUS
 10
161.7745220442
 20
101.3152313032
  0
VERTEX
  8
0
 62
7
  6
CONTINUOUS
 10
161.7517035162
 20
101.4119937781
  0
VERTEX
  8
0
 62
7
  6
CONTINUOUS
 10
161.719557097
 20
101.5048025684
  0
VERTEX
  8
0
 62
7
  6
CONTINUOUS
 10
161.6766411789
 20
101.5876894348
  0
SEQEND
  0
POLYLINE
  8
0
 62
7
  6
CONTINUOUS
 66
1
 70
0
  0
VERTEX
  8
0
 62
7
  6
CONTINUOUS
 10
161.6766411789
 20
107.9389990135
  0
VERTEX
  8
0
 62
7
  6
CONTINUOUS
 10
161.6213264194
 20
107.8729884799
  0
VERTEX
  8
0
 62
7
  6
CONTINUOUS
 10
161.5832741776
 20
107.8512180412
  0
SEQEND
  0
POLYLINE
  8
0
 62
7
  6
CONTINUOUS
 66
1
 70
0
  0
VERTEX
  8
0
 62
7
  6
CONTINUOUS
 10
158.6943223003
 20
107.78602005
  0
VERTEX
  8
0
 62
7
  6
CONTINUOUS
 10
158.6605606934
 20
107.756189438
  0
VERTEX
  8
0
 62
7
  6
CONTINUOUS
 10
158.5287162949
 20
107.6682228391
  0
VERTEX
  8
0
 62
7
  6
CONTINUOUS
 10
158.3288777081
 20
107.5897407889
  0
VERTEX
  8
0
 62
7
  6
CONTINUOUS
 10
158.1579860895
 20
107.5603917814
  0
SEQEND
  0
LINE
  8
0
 62
7
  6
CONTINUOUS
 10
150.3577212747
 20
140.5369066754
 11
161.5473694999
 21
141.4313078293
  0
POLYLINE
  8
0
 62
7
  6
CONTINUOUS
 66
1
 70
0
  0
VERTEX
  8
0
 62
7
  6
CONTINUOUS
 10
161.547369499
 20
141.4313078406
  0
VERTEX
  8
0
 62
7
  6
CONTINUOUS
 10
161.5992603936
 20
141.4153148425
  0
VERTEX
  8
0
 62
7
  6
CONTINUOUS
 10
161.6489637105
 20
141.362192115
  0
VERTEX
  8
0
 62
7
  6
CONTINUOUS
 10
161.6885359958
 20
141.28057957
  0
VERTEX
  8
0
 62
7
  6
CONTINUOUS
 10
161.7117061889
 20
141.183597559
  0
SEQEND
  0
LINE
  8
0
 62
7
  6
CONTINUOUS
 10
149.8157313911
 20
153.4332812968
 11
149.8340238198
 21
153.4179922056
  0
LINE
  8
0
 62
7
  6
CONTINUOUS
 10
161.7150495961
 20
100.475781705
 11
161.6820175801
 21
100.4308789975
  0
LINE
  8
0
 62
7
  6
CONTINUOUS
 10
165.1186986779
 20
108.8532594953
 11
161.5412419141
 21
107.8308180445
  0
POLYLINE
  8
0
 62
7
  6
CONTINUOUS
 66
1
 70
0
  0
VERTEX
  8
0
 62
7
  6
CONTINUOUS
 10
149.9604438826
 20
153.2698313526
  0
VERTEX
  8
0
 62
7
  6
CONTINUOUS
 10
150.1848191732
 20
153.1006589585
  0
VERTEX
  8
0
 62
7
  6
CONTINUOUS
 10
150.4500961392
 20
152.9962849814
  0
VERTEX
  8
0
 62
7
  6
CONTINUOUS
 10
150.6206351887
 20
152.9687866946
  0
SEQEND
  0
POLYLINE
  8
0
 62
7
  6
CONTINUOUS
 66
1
 70
0
  0
VERTEX
  8
0
 62
7
  6
CONTINUOUS
 10
158.6938770633
 20
152.1410894579
  0
VERTEX
  8
0
 62
7
  6
CONTINUOUS
 10
158.7747122899
 20
152.0518143538
  0
VERTEX
  8
0
 62
7
  6
CONTINUOUS
 10
158.8117707103
 20
151.9967551747
  0
VERTEX
  8
0
 62
7
  6
CONTINUOUS
 10
158.8176531787
 20
151.9858358686
  0
SEQEND
  0
POLYLINE
  8
0
 62
7
  6
CONTINUOUS
 66
1
 70
0
  0
VERTEX
  8
0
 62
7
  6
CONTINUOUS
 10
149.8157145237
 20
153.4332933766
  0
VERTEX
  8
0
 62
7
  6
CONTINUOUS
 10
149.7825534084
 20
153.4543321162
  0
VERTEX
  8
0
 62
7
  6
CONTINUOUS
 10
149.7542732361
 20
153.4633438878
  0
SEQEND
  0
LINE
  8
0
 62
7
  6
CONTINUOUS
 10
161.6766411789
 20
151.9876894348
 11
161.6213264194
 21
152.0536999684
  0
LINE
  8
0
 62
7
  6
CONTINUOUS
 10
151.7116592778
 20
153.3574590935
 11
151.7333738857
 21
153.3456885116
  0
POLYLINE
  8
0
 62
7
  6
CONTINUOUS
 66
1
 70
0
  0
VERTEX
  8
0
 62
7
  6
CONTINUOUS
 10
151.5953698771
 20
153.4297936463
  0
VERTEX
  8
0
 62
7
  6
CONTINUOUS
 10
151.6286550064
 20
153.4111704912
  0
VERTEX
  8
0
 62
7
  6
CONTINUOUS
 10
151.6594555523
 20
153.3916821199
  0
VERTEX
  8
0
 62
7
  6
CONTINUOUS
 10
151.687321705
 20
153.3731548476
  0
VERTEX
  8
0
 62
7
  6
CONTINUOUS
 10
151.7116592778
 20
153.3574590935
  0
SEQEND
  0
POLYLINE
  8
0
 62
7
  6
CONTINUOUS
 66
1
 70
0
  0
VERTEX
  8
0
 62
7
  6
CONTINUOUS
 10
161.547369499
 20
101.6953806077
  0
VERTEX
  8
0
 62
7
  6
CONTINUOUS
 10
161.5992603936
 20
101.7113736058
  0
VERTEX
  8
0
 62
7
  6
CONTINUOUS
 10
161.6489637105
 20
101.7644963333
  0
VERTEX
  8
0
 62
7
  6
CONTINUOUS
 10
161.6885359958
 20
101.8461088783
  0
VERTEX
  8
0
 62
7
  6
CONTINUOUS
 10
161.7117061889
 20
101.9430908893
  0
SEQEND
  0
LINE
  8
0
 62
7
  6
CONTINUOUS
 10
151.7333738857
 20
153.3456885116
 11
151.7537831784
 21
153.3405010778
  0
POLYLINE
  8
0
 62
7
  6
CONTINUOUS
 66
1
 70
0
  0
VERTEX
  8
0
 62
7
  6
CONTINUOUS
 10
151.5175533529
 20
153.4586168768
  0
VERTEX
  8
0
 62
7
  6
CONTINUOUS
 10
151.5583278994
 20
153.4464169129
  0
VERTEX
  8
0
 62
7
  6
CONTINUOUS
 10
151.5953698771
 20
153.4297936463
  0
SEQEND
  0
LINE
  8
0
 62
7
  6
CONTINUOUS
 10
161.6213264194
 20
152.0536999684
 11
161.5539811996
 21
152.092229498
  0
LINE
  8
0
 62
7
  6
CONTINUOUS
 10
151.7537831784
 20
153.3405010778
 11
151.9244269952
 21
153.3407399307
  0
LINE
  8
0
 62
7
  6
CONTINUOUS
 10
149.5852241331
 20
153.4633442241
 11
151.4735533219
 21
153.4633442241
  0
LINE
  8
0
 62
7
  6
CONTINUOUS
 10
151.4735533173
 20
153.4633442241
 11
151.4833472083
 21
153.4629546469
  0
LINE
  8
0
 62
7
  6
CONTINUOUS
 10
150.6206336041
 20
152.968766895
 11
161.5473694999
 21
152.095380619
  0
LINE
  8
0
 62
7
  6
CONTINUOUS
 10
151.4833472083
 20
153.4629546469
 11
151.5175533529
 21
153.4586168768
  0
POLYLINE
  8
0
 62
7
  6
CONTINUOUS
 66
1
 70
0
  0
VERTEX
  8
0
 62
7
  6
CONTINUOUS
 10
158.1580760905
 20
152.3662893403
  0
VERTEX
  8
0
 62
7
  6
CONTINUOUS
 10
158.3238162812
 20
152.338276549
  0
VERTEX
  8
0
 62
7
  6
CONTINUOUS
 10
158.5262486422
 20
152.259785045
  0
VERTEX
  8
0
 62
7
  6
CONTINUOUS
 10
158.6598715865
 20
152.1710678781
  0
VERTEX
  8
0
 62
7
  6
CONTINUOUS
 10
158.6943314877
 20
152.1406597046
  0
SEQEND
  0
LINE
  8
0
 62
7
  6
CONTINUOUS
 10
165.1186986779
 20
151.073428953
 11
161.5412419141
 21
152.0958704038
  0
LINE
  8
0
 62
7
  6
CONTINUOUS
 10
149.7373982758
 20
159.2633442241
 11
165.1873982759
 21
159.2633442241
  0
ARC
  8
0
 62
7
  6
CONTINUOUS
 10
53.785120405
 20
184.8471734202
 40
50.0
 50
36.1550324174
 51
46.2693085446
  0
ARC
  8
2_FEATURE
 62
7
  6
CONTINUOUS
 10
44.5608414459
 20
218.8856142241
 40
1.0
 50
0.0
 51
90.0
  0
ARC
  8
0
 62
7
  6
CONTINUOUS
 10
57.2008414459
 20
217.8856142241
 40
6.0
 50
270.0
 51
323.8449675826
  0
ARC
  8
0
 62
7
  6
CONTINUOUS
 10
52.7008414459
 20
219.8856142241
 40
8.75
 50
29.0189816931
 51
59.4415682141
  0
ARC
  8
2_FEATURE
 62
7
  6
CONTINUOUS
 10
52.7008414459
 20
219.8856142241
 40
8.5
 50
149.8106181235
 51
180.0
  0
ARC
  8
2_FEATURE
 62
7
  6
CONTINUOUS
 10
52.7008414459
 20
219.8856142241
 40
8.5
 50
212.8598800421
 51
250.2500772044
  0
ARC
  8
0
 62
7
  6
CONTINUOUS
 10
52.7008414459
 20
219.8856142241
 40
8.5
 50
247.5580988828
 51
250.2500772044
  0
ARC
  8
0
 62
7
  6
CONTINUOUS
 10
52.7008414459
 20
219.8856142241
 40
8.5
 50
213.6423293698
 51
219.6299962515
  0
ARC
  8
0
 62
7
  6
CONTINUOUS
 10
52.7008414459
 20
219.8856142241
 40
8.5
 50
109.7499227956
 51
212.8599117247
  0
ARC
  8
0
 62
7
  6
CONTINUOUS
 10
52.7008414459
 20
219.8856142241
 40
5.8
 50
13.2203423897
 51
166.7796635675
  0
CIRCLE
  8
0
 62
7
  6
CONTINUOUS
 10
52.7008414459
 20
219.8856142241
 40
4.15
  0
ARC
  8
0
 62
7
  6
CONTINUOUS
 10
57.2765927503
 20
227.6356142241
 40
0.25
 50
90.0
 51
239.4415682141
  0
ARC
  8
0
 62
7
  6
CONTINUOUS
 10
71.9230322666
 20
220.8856142241
 40
1.0
 50
250.46
 51
270.0
  0
ARC
  8
0
 62
7
  6
CONTINUOUS
 10
73.6157413025
 20
219.0356142241
 40
0.85
 50
16.467546793
 51
90.0
  0
ARC
  8
0
 62
7
  6
CONTINUOUS
 10
68.1987183941
 20
220.6157228382
 40
0.5000000123
 50
70.46
 51
133.7306913483
  0
ARC
  8
0
 62
7
  6
CONTINUOUS
 10
61.0082023742
 20
224.4940580402
 40
0.75
 50
209.0189816931
 51
250.46
  0
ARC
  8
0
 62
7
  6
CONTINUOUS
 10
102.4165624867
 20
184.8471734202
 40
50.0
 50
133.7306914902
 51
143.8449675826
  0
ARC
  8
0
 62
7
  6
CONTINUOUS
 10
79.3019707902
 20
212.3356142241
 40
0.4000000001
 50
270.0
 51
343.532453207
  0
ARC
  8
0
 62
7
  6
CONTINUOUS
 10
76.8997121016
 20
212.3356142241
 40
0.4000000001
 50
196.467546793
 51
270.0
  0
ARC
  8
0
 62
7
  6
CONTINUOUS
 10
84.2786506251
 20
220.8856142241
 40
1.0
 50
270.0
 51
289.54
  0
ARC
  8
0
 62
7
  6
CONTINUOUS
 10
82.5859415892
 20
219.0356142241
 40
0.85
 50
90.0
 51
163.532453207
  0
ARC
  8
0
 62
7
  6
CONTINUOUS
 10
88.0029646914
 20
220.615722907
 40
0.5
 50
46.2693085446
 51
109.54
  0
ARC
  8
0
 62
7
  6
CONTINUOUS
 10
103.5008414459
 20
219.8856142241
 40
8.5
 50
289.7499227956
 51
70.2500772044
  0
ARC
  8
0
 62
7
  6
CONTINUOUS
 10
99.0008414459
 20
217.8856142241
 40
6.0
 50
216.1550324174
 51
270.0
  0
CIRCLE
  8
0
 62
7
  6
CONTINUOUS
 10
103.5008414459
 20
219.8856142241
 40
4.15
  0
ARC
  8
0
 62
7
  6
CONTINUOUS
 10
56.5265938609
 20
142.9628829175
 40
0.4999992149
 50
270.0000000184
 51
360.0
  0
ARC
  8
0
 62
7
  6
CONTINUOUS
 10
56.5265938609
 20
133.7638055308
 40
0.4999992149
 50
0.0000000123
 51
90.0000000055
  0
ARC
  8
0
 62
7
  6
CONTINUOUS
 10
56.5265938609
 20
150.5638055308
 40
0.4999992149
 50
0.0000000123
 51
90.0000000055
  0
ARC
  8
0
 62
7
  6
CONTINUOUS
 10
56.5265938609
 20
116.9638055308
 40
0.4999992149
 50
0.0000000123
 51
90.0000000055
  0
ARC
  8
0
 62
7
  6
CONTINUOUS
 10
56.5265938609
 20
126.1628829175
 40
0.4999992149
 50
270.0000000184
 51
360.0
  0
ARC
  8
0
 62
7
  6
CONTINUOUS
 10
56.5265938609
 20
109.3628829175
 40
0.4999992149
 50
270.0000000184
 51
360.0
  0
ARC
  8
0
 62
7
  6
CONTINUOUS
 10
56.5265938609
 20
100.1638055308
 40
0.4999992149
 50
0.0000000123
 51
90.0000000055
  0
ARC
  8
0
 62
7
  6
CONTINUOUS
 10
99.6750889768
 20
142.1638055848
 40
0.4999991796
 50
90.0000002288
 51
180.0000000792
  0
ARC
  8
0
 62
7
  6
CONTINUOUS
 10
99.6750889769
 20
134.5628828635
 40
0.4999991796
 50
179.9999999967
 51
269.9999998456
  0
ARC
  8
0
 62
7
  6
CONTINUOUS
 10
99.6750889769
 20
151.3628828635
 40
0.4999991796
 50
179.9999999967
 51
269.9999998456
  0
ARC
  8
0
 62
7
  6
CONTINUOUS
 10
99.6750889769
 20
117.7628828635
 40
0.4999991796
 50
179.9999999967
 51
269.9999998456
  0
ARC
  8
0
 62
7
  6
CONTINUOUS
 10
99.6750889768
 20
125.3638055848
 40
0.4999991796
 50
90.0000002288
 51
180.0000000792
  0
ARC
  8
0
 62
7
  6
CONTINUOUS
 10
99.6750889768
 20
108.5638055848
 40
0.4999991796
 50
90.0000002288
 51
180.0000000792
  0
ARC
  8
0
 62
7
  6
CONTINUOUS
 10
99.6750889769
 20
100.9628828635
 40
0.4999991796
 50
179.9999999967
 51
269.9999998456
  0
ARC
  8
0
 62
7
  6
CONTINUOUS
 10
150.4373982759
 20
97.5400859415
 40
1.0
 50
162.4581439197
 51
180.0
  0
ARC
  8
0
 62
7
  6
CONTINUOUS
 10
150.4373982759
 20
103.5866025068
 40
1.0
 50
180.0
 51
218.5544639061
  0
ARC
  8
0
 62
7
  6
CONTINUOUS
 10
150.4373982759
 20
93.2633442241
 40
1.0
 50
180.0
 51
197.3912550953
  0
ARC
  8
0
 62
7
  6
CONTINUOUS
 10
150.4373982759
 20
111.9866025068
 40
1.0
 50
180.0
 51
197.8657588265
  0
ARC
  8
0
 62
7
  6
CONTINUOUS
 10
150.4373982759
 20
105.9400859415
 40
1.0
 50
94.57
 51
180.0
  0
ARC
  8
0
 62
7
  6
CONTINUOUS
 10
150.4373982759
 20
128.7866025068
 40
1.0
 50
180.0
 51
197.8657588265
  0
ARC
  8
0
 62
7
  6
CONTINUOUS
 10
150.4373982759
 20
122.7400859415
 40
1.0
 50
94.57
 51
180.0
  0
ARC
  8
0
 62
7
  6
CONTINUOUS
 10
150.4373982759
 20
114.3400859415
 40
1.0
 50
162.1342411735
 51
180.0
  0
ARC
  8
0
 62
7
  6
CONTINUOUS
 10
150.4373982759
 20
120.3866025068
 40
1.0
 50
180.0
 51
265.43
  0
ARC
  8
0
 62
7
  6
CONTINUOUS
 10
150.4373982759
 20
147.9400859415
 40
1.0
 50
162.8093642381
 51
180.0
  0
ARC
  8
0
 62
7
  6
CONTINUOUS
 10
150.4373982759
 20
153.9866025068
 40
1.0
 50
180.0
 51
211.5510655343
  0
ARC
  8
0
 62
7
  6
CONTINUOUS
 10
150.4373982759
 20
131.1400859415
 40
1.0
 50
162.1342411735
 51
180.0
  0
ARC
  8
0
 62
7
  6
CONTINUOUS
 10
150.4373982759
 20
137.1866025068
 40
1.0
 50
180.0
 51
265.43
  0
ARC
  8
0
 62
7
  6
CONTINUOUS
 10
150.4373982759
 20
145.5866025068
 40
1.0
 50
180.0
 51
197.8657588265
  0
ARC
  8
0
 62
7
  6
CONTINUOUS
 10
150.4373982759
 20
139.5400859415
 40
1.0
 50
94.57
 51
180.0
  0
ARC
  8
0
 62
7
  6
CONTINUOUS
 10
150.4373982759
 20
158.2633442241
 40
1.0
 50
90.0
 51
180.0
  0
ARC
  8
0
 62
7
  6
CONTINUOUS
 10
149.7373982758
 20
159.0133442241
 40
0.25
 50
89.9999999996
 51
180.0
  0
ARC
  8
0
 62
7
  6
CONTINUOUS
 10
165.1873982759
 20
100.9138044202
 40
0.25
 50
254.05
 51
360.0
  0
ARC
  8
0
 62
7
  6
CONTINUOUS
 10
149.7373982759
 20
92.5133442241
 40
0.25
 50
180.0
 51
269.9999999859
  0
ARC
  8
0
 62
7
  6
CONTINUOUS
 10
157.6873982759
 20
92.5133442241
 40
0.25
 50
180.0
 51
269.9999999999
  0
ARC
  8
0
 62
7
  6
CONTINUOUS
 10
165.1873982759
 20
108.6128840281
 40
0.25
 50
0.0
 51
105.95
  0
ARC
  8
0
 62
7
  6
CONTINUOUS
 10
165.1873982759
 20
125.4128840281
 40
0.25
 50
0.0
 51
105.95
  0
ARC
  8
0
 62
7
  6
CONTINUOUS
 10
165.1873982759
 20
117.7138044202
 40
0.25
 50
254.05
 51
360.0
  0
ARC
  8
0
 62
7
  6
CONTINUOUS
 10
165.1873982759
 20
151.3138044202
 40
0.25
 50
254.05
 51
360.0
  0
ARC
  8
0
 62
7
  6
CONTINUOUS
 10
165.1873982759
 20
134.5138044202
 40
0.25
 50
254.05
 51
360.0
  0
ARC
  8
0
 62
7
  6
CONTINUOUS
 10
165.1873982759
 20
142.2128840281
 40
0.25
 50
0.0
 51
105.95
  0
ARC
  8
0
 62
7
  6
CONTINUOUS
 10
165.1873982759
 20
92.5133442241
 40
0.25
 50
270.0
 51
360.0
  0
ARC
  8
0
 62
7
  6
CONTINUOUS
 10
165.1873982759
 20
159.0133442241
 40
0.25
 50
0.0
 51
90.0
  0
ENDSEC
  0
EOF
