  0
SECTION
  2
HEADER
  9
$EXTMAX
 10
210.0
 20
297.0
 30
0.0
  9
$EXTMIN
 10
0.0
 20
0.0
 30
0.0
  9
$LIMMIN
 10
0.0
 20
0.0
  9
$LIMMAX
 10
210.0
 20
297.0
  9
$VIEWCTR
 10
105.0
 20
148.5
  9
$VIEWSIZE
 40
297.0
  9
$CLAYER
  8
0
  9
$LTSCALE
 40
19.36
  9
$CELTYPE
  6
BYLAYER
  9
$DIMSCALE
 40
1.0
  9
$DIMASZ
 40
3.5
  9
$DIMEXO
 40
2.2
  9
$DIMDLI
 40
13.376
  9
$DIMEXE
 40
6.336
  9
$DIMCEN
 40
3.168
  9
$DIMLFAC
 40
1.0
  9
$DIMBLK
  1
_FILLED
  9
$DIMTXT
 40
3.5
  9
$PDMODE
 70
3
  9
$PDSIZE
 40
0.3125
  9
$TILEMODE
 70
1
  0
ENDSEC
  0
SECTION
  2
TABLES
  0
TABLE
  2
LTYPE
 70
6
  0
LTYPE
  2
BYBLOCK
 70
0
  3

 72
65
 73
0
 40
0.0
  0
LTYPE
  2
BYLAYER
 70
0
  3

 72
65
 73
0
 40
0.0
  0
LTYPE
  2
CONTINUOUS
 70
64
  3
Solid line
 72
65
 73
0
 40
0.0
  0
LTYPE
  2
CENTER
 70
64
  3
____ _ ____ _ ____ _ ____ _ ____ _ ____ _ ____
 72
65
 73
4
 40
0.6
 49
0.375
 49
-0.075
 49
0.075
 49
-0.075
  0
LTYPE
  2
HIDDEN
 70
64
  3
- - - - - - - - - - - - - - - - - - - -
 72
65
 73
2
 40
0.2
 49
0.1
 49
-0.1
  0
LTYPE
  2
PHANTOM
 70
64
  3
_____ _ _ _____ _ _ _____ _ _ _____
 72
65
 73
6
 40
0.8
 49
0.45
 49
-0.05
 49
0.1
 49
-0.05
 49
0.1
 49
-0.05
  0
LTYPE
  2
DOT
 70
64
  3
. . . . . . . . . . . . . . . . . . . .
 72
65
 73
2
 40
0.2
 49
0.1
 49
-0.1
  0
LTYPE
  2
DASHED
 70
64
  3
- - - - - - - - - - - - - - - - - - - -
 72
65
 73
2
 40
0.2
 49
0.1
 49
-0.1
  0
ENDTAB
  0
TABLE
  2
LAYER
 70
36
  0
LAYER
  2
0
 70
0
 62
7
  6
CONTINUOUS
  0
LAYER
  2
DEFAULT_1
 70
0
 62
7
  6
CENTER
  0
LAYER
  2
DEFAULT_2
 70
0
 62
8
  6
HIDDEN
  0
LAYER
  2
DEFAULT_3
 70
0
 62
7
  6
PHANTOM
  0
LAYER
  2
1_CSYS
 70
0
 62
7
  6
CONTINUOUS
  0
LAYER
  2
1_DATUMPLANE
 70
0
 62
7
  6
CONTINUOUS
  0
LAYER
  2
3_CURVE
 70
0
 62
7
  6
CONTINUOUS
  0
LAYER
  2
4_QUILT
 70
0
 62
7
  6
CONTINUOUS
  0
LAYER
  2
6_DIM
 70
0
 62
7
  6
CONTINUOUS
  0
LAYER
  2
6_NOTE
 70
0
 62
7
  6
CONTINUOUS
  0
LAYER
  2
AXES
 70
0
 62
7
  6
CONTINUOUS
  0
LAYER
  2
CURVES
 70
0
 62
7
  6
CONTINUOUS
  0
LAYER
  2
NOTES
 70
0
 62
7
  6
CONTINUOUS
  0
LAYER
  2
PLANES
 70
0
 62
7
  6
CONTINUOUS
  0
LAYER
  2
QUILTS
 70
0
 62
7
  6
CONTINUOUS
  0
ENDTAB
  0
TABLE
  2
STYLE
 70
1
  0
STYLE
  2
STANDARD
 70
0
 40
0.0
 41
0.8
 50
0.0
 71
0
 42
0.2
  3
txt
  4

  0
STYLE
  2
TEXTSTYLE_1
 70
0
 40
0.0
 41
0.8
 50
0.0
 71
0
 42
0.2
  3
gdt
  4

  0
STYLE
  2
TEXTSTYLE_2
 70
0
 40
0.0
 41
0.6
 50
0.0
 71
0
 42
0.2
  3
txt
  4

  0
STYLE
  2
TEXTSTYLE_3
 70
0
 40
0.0
 41
1.0
 50
0.0
 71
0
 42
0.2
  3
ftb_____.ttf
  4

  0
STYLE
  2
TEXTSTYLE_4
 70
0
 40
0.0
 41
1.0
 50
0.0
 71
0
 42
0.2
  3
fti_____.ttf
  4

  0
STYLE
  2
TEXTSTYLE_5
 70
0
 40
0.0
 41
1.0
 50
0.0
 71
0
 42
0.2
  3
frutiger light.ttf
  4

  0
ENDTAB
  0
ENDSEC
  0
SECTION
  2
BLOCKS
  0
BLOCK
  8
0
 62
2
  6
CONTINUOUS
  2
SYMBOL_8_BL1
 70
64
 10
173.5956734183
 20
35.5937998301
  0
TEXT
  8
0
 62
7
  6
CONTINUOUS
 10
164.6539584268
 20
30.6865562072
  7
TEXTSTYLE_4
 40
1.0655737705
  1
The brand for plastic modular belts and chains
 41
1.0
 72
0
  0
LINE
  8
0
 62
7
  6
CONTINUOUS
 10
149.5737418074
 20
36.1675703219
 11
149.5737418074
 21
34.0364227809
  0
LINE
  8
0
 62
7
  6
CONTINUOUS
 10
149.8628043005
 20
31.0454914852
 11
149.8628043005
 21
31.1422825445
  0
LINE
  8
0
 62
7
  6
CONTINUOUS
 10
149.5737418074
 20
31.1100188581
 11
149.6315543091
 21
30.9164367395
  0
LINE
  8
0
 62
7
  6
CONTINUOUS
 10
150.9671844304
 20
33.9544555678
 11
150.9671844304
 21
36.1675703219
  0
LINE
  8
0
 62
7
  6
CONTINUOUS
 10
151.8862417523
 20
32.1101932727
 11
151.8862417523
 21
30.5937998301
  0
LINE
  8
0
 62
7
  6
CONTINUOUS
 10
152.1753043074
 20
30.5937998301
 11
152.1753043074
 21
31.3358647082
  0
LINE
  8
0
 62
7
  6
CONTINUOUS
 10
152.1753043074
 20
31.4649194539
 11
152.1753043074
 21
32.1101932727
  0
LINE
  8
0
 62
7
  6
CONTINUOUS
 10
149.6315543091
 20
31.3036010218
 11
149.5737418074
 21
31.1100188581
  0
LINE
  8
0
 62
7
  6
CONTINUOUS
 10
149.9784292936
 20
30.8841730531
 11
149.8628043005
 21
31.0454914852
  0
LINE
  8
0
 62
7
  6
CONTINUOUS
 10
151.0768668626
 20
31.400392081
 11
151.1346793074
 21
31.3036010218
  0
LINE
  8
0
 62
7
  6
CONTINUOUS
 10
151.4237418626
 20
31.3036010218
 11
151.3659292523
 21
31.4326557675
  0
LINE
  8
0
 62
7
  6
CONTINUOUS
 10
152.852430332
 20
36.1675703219
 11
152.852430332
 21
34.3642916334
  0
LINE
  8
0
 62
7
  6
CONTINUOUS
 10
152.852430332
 20
33.0528162235
 11
152.852430332
 21
32.3970785186
  0
LINE
  8
0
 62
7
  6
CONTINUOUS
 10
153.2159293074
 20
31.2390736489
 11
153.2159293074
 21
30.5937998301
  0
LINE
  8
0
 62
7
  6
CONTINUOUS
 10
153.5049916972
 20
30.5937998301
 11
153.5049916972
 21
31.2390736489
  0
LINE
  8
0
 62
7
  6
CONTINUOUS
 10
149.8628043005
 20
31.1422825445
 11
149.9206168074
 21
31.2713373354
  0
LINE
  8
0
 62
7
  6
CONTINUOUS
 10
149.6315543091
 20
30.9164367395
 11
149.7471793074
 21
30.7873819712
  0
LINE
  8
0
 62
7
  6
CONTINUOUS
 10
153.1581166972
 20
31.3681283946
 11
153.2159293074
 21
31.2390736489
  0
LINE
  8
0
 62
7
  6
CONTINUOUS
 10
153.9674919177
 20
30.8841730531
 11
154.0253041972
 21
30.7551182848
  0
LINE
  8
0
 62
7
  6
CONTINUOUS
 10
153.5049916972
 20
31.2390736489
 11
153.4471794177
 21
31.400392081
  0
LINE
  8
0
 62
7
  6
CONTINUOUS
 10
153.9674919177
 20
31.4326557675
 11
153.9674919177
 21
31.3681283946
  0
LINE
  8
0
 62
7
  6
CONTINUOUS
 10
153.9674919177
 20
30.9809641124
 11
153.9674919177
 21
30.8841730531
  0
LINE
  8
0
 62
7
  6
CONTINUOUS
 10
154.245872955
 20
32.3970785186
 11
154.245872955
 21
36.1675703219
  0
LINE
  8
0
 62
7
  6
CONTINUOUS
 10
154.2565543074
 20
30.8519093441
 11
154.2565543074
 21
30.9164367395
  0
LINE
  8
0
 62
7
  6
CONTINUOUS
 10
154.5737418074
 20
36.1675703219
 11
154.5737418074
 21
32.3970785186
  0
LINE
  8
0
 62
7
  6
CONTINUOUS
 10
151.3659292523
 20
30.7873819712
 11
151.4237418626
 21
30.9164367395
  0
LINE
  8
0
 62
7
  6
CONTINUOUS
 10
155.759679528
 20
30.6905909007
 11
155.7018665869
 21
30.8519093441
  0
LINE
  8
0
 62
7
  6
CONTINUOUS
 10
155.412804528
 20
31.3681283946
 11
155.412804528
 21
31.2713373354
  0
LINE
  8
0
 62
7
  6
CONTINUOUS
 10
155.412804528
 20
31.1422825445
 11
155.412804528
 21
30.9487004259
  0
LINE
  8
0
 62
7
  6
CONTINUOUS
 10
155.7018665869
 20
30.8519093441
 11
155.7018665869
 21
31.3681283946
  0
LINE
  8
0
 62
7
  6
CONTINUOUS
 10
155.9671844304
 20
32.3970785186
 11
155.9671844304
 21
34.2003572071
  0
LINE
  8
0
 62
7
  6
CONTINUOUS
 10
155.9671844304
 20
35.511832617
 11
155.9671844304
 21
36.1675703219
  0
LINE
  8
0
 62
7
  6
CONTINUOUS
 10
156.279992028
 20
32.1101932727
 11
156.279992028
 21
31.9488748406
  0
LINE
  8
0
 62
7
  6
CONTINUOUS
 10
156.279992028
 20
31.626237886
 11
156.279992028
 21
30.5937998301
  0
LINE
  8
0
 62
7
  6
CONTINUOUS
 10
156.5690540869
 20
30.5937998301
 11
156.5690540869
 21
31.626237886
  0
LINE
  8
0
 62
7
  6
CONTINUOUS
 10
156.5690540869
 20
31.9488748406
 11
156.5690540869
 21
32.1101932727
  0
LINE
  8
0
 62
7
  6
CONTINUOUS
 10
151.1346793074
 20
30.9164367395
 11
151.0768668626
 21
30.8196456577
  0
LINE
  8
0
 62
7
  6
CONTINUOUS
 10
153.4471794177
 20
31.400392081
 11
153.3893668074
 21
31.4649194539
  0
LINE
  8
0
 62
7
  6
CONTINUOUS
 10
154.3143669177
 20
30.7873819712
 11
154.2565543074
 21
30.8519093441
  0
LINE
  8
0
 62
7
  6
CONTINUOUS
 10
155.4706168074
 20
30.6583272086
 11
155.5284290869
 21
30.5937998301
  0
LINE
  8
0
 62
7
  6
CONTINUOUS
 10
155.412804528
 20
30.7551182848
 11
155.4706168074
 21
30.6583272086
  0
LINE
  8
0
 62
7
  6
CONTINUOUS
 10
155.8174918074
 20
30.5937998301
 11
155.759679528
 21
30.6905909007
  0
LINE
  8
0
 62
7
  6
CONTINUOUS
 10
155.7018665869
 20
31.3681283946
 11
155.6440543074
 21
31.4649194539
  0
LINE
  8
0
 62
7
  6
CONTINUOUS
 10
157.0315543074
 20
31.626237886
 11
157.0315543074
 21
30.5937998301
  0
LINE
  8
0
 62
7
  6
CONTINUOUS
 10
157.320617028
 20
30.5937998301
 11
157.320617028
 21
31.3358647082
  0
LINE
  8
0
 62
7
  6
CONTINUOUS
 10
157.320617028
 20
31.4649194539
 11
157.320617028
 21
31.626237886
  0
LINE
  8
0
 62
7
  6
CONTINUOUS
 10
157.852430332
 20
34.6101932727
 11
157.852430332
 21
32.3970785186
  0
LINE
  8
0
 62
7
  6
CONTINUOUS
 10
149.7471793074
 20
31.4326557675
 11
149.6315543091
 21
31.3036010218
  0
LINE
  8
0
 62
7
  6
CONTINUOUS
 10
149.9206168074
 20
31.2713373354
 11
149.9784292936
 21
31.3358647082
  0
LINE
  8
0
 62
7
  6
CONTINUOUS
 10
149.7471793074
 20
30.7873819712
 11
149.8628043005
 21
30.7228545871
  0
LINE
  8
0
 62
7
  6
CONTINUOUS
 10
150.1518667936
 20
30.7873819712
 11
149.9784292936
 21
30.8841730531
  0
LINE
  8
0
 62
7
  6
CONTINUOUS
 10
155.3549915869
 20
31.4326557675
 11
155.412804528
 21
31.3681283946
  0
LINE
  8
0
 62
7
  6
CONTINUOUS
 10
158.3034290869
 20
31.3681283946
 11
158.361242028
 21
31.2068099625
  0
LINE
  8
0
 62
7
  6
CONTINUOUS
 10
158.6503040869
 20
31.2068099625
 11
158.5924918074
 21
31.3681283946
  0
LINE
  8
0
 62
7
  6
CONTINUOUS
 10
158.361242028
 20
31.2068099625
 11
158.361242028
 21
30.5937998301
  0
LINE
  8
0
 62
7
  6
CONTINUOUS
 10
158.6503040869
 20
30.5937998301
 11
158.6503040869
 21
31.2068099625
  0
LINE
  8
0
 62
7
  6
CONTINUOUS
 10
159.1128043074
 20
31.4326557675
 11
159.1128043074
 21
31.3681283946
  0
LINE
  8
0
 62
7
  6
CONTINUOUS
 10
159.245872955
 20
32.3970785186
 11
159.245872955
 21
34.5282260596
  0
LINE
  8
0
 62
7
  6
CONTINUOUS
 10
159.5737418074
 20
36.1675703219
 11
159.5737418074
 21
32.3970785186
  0
LINE
  8
0
 62
7
  6
CONTINUOUS
 10
154.2565543074
 20
30.9164367395
 11
154.3143669177
 21
31.0132277988
  0
LINE
  8
0
 62
7
  6
CONTINUOUS
 10
149.8628043005
 20
30.7228545871
 11
150.0362418212
 21
30.6583272086
  0
LINE
  8
0
 62
7
  6
CONTINUOUS
 10
151.3659292523
 20
31.4326557675
 11
151.1924917523
 21
31.5294468267
  0
LINE
  8
0
 62
7
  6
CONTINUOUS
 10
154.0253041972
 20
30.7551182848
 11
154.1987416972
 21
30.6583272086
  0
LINE
  8
0
 62
7
  6
CONTINUOUS
 10
153.0424918074
 20
31.4326557675
 11
153.1581166972
 21
31.3681283946
  0
LINE
  8
0
 62
7
  6
CONTINUOUS
 10
153.3893668074
 20
31.4649194539
 11
153.2737419177
 21
31.5294468267
  0
LINE
  8
0
 62
7
  6
CONTINUOUS
 10
159.1128043074
 20
30.8519093441
 11
159.228429528
 21
30.7228545871
  0
LINE
  8
0
 62
7
  6
CONTINUOUS
 10
159.4596793074
 20
30.7873819712
 11
159.401867028
 21
30.8519093441
  0
LINE
  8
0
 62
7
  6
CONTINUOUS
 10
159.1128043074
 20
31.3681283946
 11
159.228429528
 21
31.2390736489
  0
LINE
  8
0
 62
7
  6
CONTINUOUS
 10
158.5924918074
 20
31.3681283946
 11
158.534679528
 21
31.4649194539
  0
LINE
  8
0
 62
7
  6
CONTINUOUS
 10
160.9628038663
 20
30.7873819712
 11
160.9628038663
 21
30.8519093441
  0
LINE
  8
0
 62
7
  6
CONTINUOUS
 10
160.9671844304
 20
32.3970785186
 11
160.9671844304
 21
36.1675703219
  0
LINE
  8
0
 62
7
  6
CONTINUOUS
 10
154.0253041972
 20
31.4971831403
 11
153.9674919177
 21
31.4326557675
  0
LINE
  8
0
 62
7
  6
CONTINUOUS
 10
150.9034292799
 20
31.4649194539
 11
151.0768668626
 21
31.400392081
  0
LINE
  8
0
 62
7
  6
CONTINUOUS
 10
155.6440543074
 20
31.4649194539
 11
155.5284290869
 21
31.5294468267
  0
LINE
  8
0
 62
7
  6
CONTINUOUS
 10
159.4596793074
 20
31.3036010218
 11
159.401867028
 21
31.3681283946
  0
LINE
  8
0
 62
7
  6
CONTINUOUS
 10
160.615929528
 20
30.9164367395
 11
160.6737418074
 21
30.8519093441
  0
LINE
  8
0
 62
7
  6
CONTINUOUS
 10
160.9628038663
 20
30.8519093441
 11
160.8471793074
 21
30.9809641124
  0
LINE
  8
0
 62
7
  6
CONTINUOUS
 10
160.615929528
 20
31.4326557675
 11
160.6737418074
 21
31.3681283946
  0
LINE
  8
0
 62
7
  6
CONTINUOUS
 10
160.9628038663
 20
31.3681283946
 11
160.8471793074
 21
31.4971831403
  0
LINE
  8
0
 62
7
  6
CONTINUOUS
 10
154.2565543074
 20
31.3681283946
 11
154.3143669177
 21
31.4326557675
  0
LINE
  8
0
 62
7
  6
CONTINUOUS
 10
154.0831168074
 20
31.1100188581
 11
153.9674919177
 21
30.9809641124
  0
LINE
  8
0
 62
7
  6
CONTINUOUS
 10
155.412804528
 20
30.9487004259
 11
155.3549915869
 21
30.8841730531
  0
LINE
  8
0
 62
7
  6
CONTINUOUS
 10
155.3549915869
 20
30.6905909007
 11
155.412804528
 21
30.7551182848
  0
LINE
  8
0
 62
7
  6
CONTINUOUS
 10
154.1987416972
 20
30.6583272086
 11
154.3143669177
 21
30.6260635193
  0
LINE
  8
0
 62
7
  6
CONTINUOUS
 10
151.1924917523
 20
31.5294468267
 11
150.9612418074
 21
31.5939741996
  0
LINE
  8
0
 62
7
  6
CONTINUOUS
 10
154.5456166972
 20
30.7228545871
 11
154.3143669177
 21
30.7873819712
  0
LINE
  8
0
 62
7
  6
CONTINUOUS
 10
153.2737419177
 20
31.5294468267
 11
153.1003044177
 21
31.5939741996
  0
LINE
  8
0
 62
7
  6
CONTINUOUS
 10
155.5284290869
 20
31.5294468267
 11
155.3549915869
 21
31.5939741996
  0
LINE
  8
0
 62
7
  6
CONTINUOUS
 10
158.187804528
 20
31.4326557675
 11
158.3034290869
 21
31.3681283946
  0
LINE
  8
0
 62
7
  6
CONTINUOUS
 10
158.534679528
 20
31.4649194539
 11
158.4190543074
 21
31.5294468267
  0
LINE
  8
0
 62
7
  6
CONTINUOUS
 10
150.0362418212
 20
30.6583272086
 11
150.2096793212
 21
30.6260635193
  0
LINE
  8
0
 62
7
  6
CONTINUOUS
 10
150.498741835
 20
30.7228545871
 11
150.1518667936
 21
30.7873819712
  0
LINE
  8
0
 62
7
  6
CONTINUOUS
 10
152.9268669177
 20
31.4649194539
 11
153.0424918074
 21
31.4326557675
  0
LINE
  8
0
 62
7
  6
CONTINUOUS
 10
155.239367028
 20
31.4649194539
 11
155.3549915869
 21
31.4326557675
  0
LINE
  8
0
 62
7
  6
CONTINUOUS
 10
159.575304528
 20
30.7551182848
 11
159.4596793074
 21
30.7873819712
  0
LINE
  8
0
 62
7
  6
CONTINUOUS
 10
158.0721793074
 20
31.4649194539
 11
158.187804528
 21
31.4326557675
  0
LINE
  8
0
 62
7
  6
CONTINUOUS
 10
159.228429528
 20
30.7228545871
 11
159.401867028
 21
30.6583272086
  0
LINE
  8
0
 62
7
  6
CONTINUOUS
 10
158.4190543074
 20
31.5294468267
 11
158.2456168074
 21
31.5939741996
  0
LINE
  8
0
 62
7
  6
CONTINUOUS
 10
159.6331168074
 20
31.2390736489
 11
159.4596793074
 21
31.3036010218
  0
LINE
  8
0
 62
7
  6
CONTINUOUS
 10
160.442492028
 20
30.9809641124
 11
160.615929528
 21
30.9164367395
  0
LINE
  8
0
 62
7
  6
CONTINUOUS
 10
160.8471793074
 20
31.4971831403
 11
160.6737418074
 21
31.5617105132
  0
LINE
  8
0
 62
7
  6
CONTINUOUS
 10
159.228429528
 20
31.2390736489
 11
159.4596793074
 21
31.1422825445
  0
LINE
  8
0
 62
7
  6
CONTINUOUS
 10
160.8471793074
 20
30.9809641124
 11
160.615929528
 21
31.0777551716
  0
LINE
  8
0
 62
7
  6
CONTINUOUS
 10
159.401867028
 20
31.3681283946
 11
159.4596793074
 21
31.4326557675
  0
LINE
  8
0
 62
7
  6
CONTINUOUS
 10
149.8628043005
 20
31.4971831403
 11
149.7471793074
 21
31.4326557675
  0
LINE
  8
0
 62
7
  6
CONTINUOUS
 10
149.9784292936
 20
31.3358647082
 11
150.1518667936
 21
31.4326557675
  0
LINE
  8
0
 62
7
  6
CONTINUOUS
 10
152.2909293626
 20
31.5294468267
 11
152.1753043074
 21
31.4649194539
  0
LINE
  8
0
 62
7
  6
CONTINUOUS
 10
152.1753043074
 20
31.3358647082
 11
152.2909293626
 21
31.400392081
  0
LINE
  8
0
 62
7
  6
CONTINUOUS
 10
151.1924917523
 20
30.6905909007
 11
151.3659292523
 21
30.7873819712
  0
LINE
  8
0
 62
7
  6
CONTINUOUS
 10
150.2096793212
 20
30.6260635193
 11
150.5565542799
 21
30.5937998301
  0
LINE
  8
0
 62
7
  6
CONTINUOUS
 10
154.3143669177
 20
30.6260635193
 11
154.5456166972
 21
30.5937998301
  0
LINE
  8
0
 62
7
  6
CONTINUOUS
 10
152.6956168074
 20
31.4971831403
 11
152.9268669177
 21
31.4649194539
  0
LINE
  8
0
 62
7
  6
CONTINUOUS
 10
155.0081169177
 20
31.4971831403
 11
155.239367028
 21
31.4649194539
  0
LINE
  8
0
 62
7
  6
CONTINUOUS
 10
159.4596793074
 20
31.1422825445
 11
160.442492028
 21
30.9809641124
  0
LINE
  8
0
 62
7
  6
CONTINUOUS
 10
160.615929528
 20
31.0777551716
 11
159.6331168074
 21
31.2390736489
  0
LINE
  8
0
 62
7
  6
CONTINUOUS
 10
153.1003044177
 20
31.5939741996
 11
152.9268669177
 21
31.626237886
  0
LINE
  8
0
 62
7
  6
CONTINUOUS
 10
159.401867028
 20
30.6583272086
 11
159.575304528
 21
30.6260635193
  0
LINE
  8
0
 62
7
  6
CONTINUOUS
 10
158.2456168074
 20
31.5939741996
 11
158.0721793074
 21
31.626237886
  0
LINE
  8
0
 62
7
  6
CONTINUOUS
 10
160.5003043074
 20
31.4649194539
 11
160.615929528
 21
31.4326557675
  0
LINE
  8
0
 62
7
  6
CONTINUOUS
 10
160.6737418074
 20
30.8519093441
 11
160.615929528
 21
30.7873819712
  0
LINE
  8
0
 62
7
  6
CONTINUOUS
 10
159.228429528
 20
31.5294468267
 11
159.1128043074
 21
31.4326557675
  0
LINE
  8
0
 62
7
  6
CONTINUOUS
 10
154.1409294177
 20
31.5617105132
 11
154.0253041972
 21
31.4971831403
  0
LINE
  8
0
 62
7
  6
CONTINUOUS
 10
154.1987416972
 20
31.1745462761
 11
154.0831168074
 21
31.1100188581
  0
LINE
  8
0
 62
7
  6
CONTINUOUS
 10
154.3143669177
 20
31.0132277988
 11
154.4299918074
 21
31.0777551716
  0
LINE
  8
0
 62
7
  6
CONTINUOUS
 10
151.8862417523
 20
30.5937998301
 11
152.1753043074
 21
30.5937998301
  0
LINE
  8
0
 62
7
  6
CONTINUOUS
 10
153.2159293074
 20
30.5937998301
 11
153.5049916972
 21
30.5937998301
  0
LINE
  8
0
 62
7
  6
CONTINUOUS
 10
154.5456166972
 20
30.5937998301
 11
154.8924916972
 21
30.5937998301
  0
LINE
  8
0
 62
7
  6
CONTINUOUS
 10
155.5284290869
 20
30.5937998301
 11
155.8174918074
 21
30.5937998301
  0
LINE
  8
0
 62
7
  6
CONTINUOUS
 10
156.279992028
 20
30.5937998301
 11
156.5690540869
 21
30.5937998301
  0
LINE
  8
0
 62
7
  6
CONTINUOUS
 10
157.0315543074
 20
30.5937998301
 11
157.320617028
 21
30.5937998301
  0
LINE
  8
0
 62
7
  6
CONTINUOUS
 10
158.361242028
 20
30.5937998301
 11
158.6503040869
 21
30.5937998301
  0
LINE
  8
0
 62
7
  6
CONTINUOUS
 10
159.922179528
 20
30.5937998301
 11
160.269054528
 21
30.5937998301
  0
LINE
  8
0
 62
7
  6
CONTINUOUS
 10
160.269054528
 20
30.7228545871
 11
159.922179528
 21
30.7228545871
  0
LINE
  8
0
 62
7
  6
CONTINUOUS
 10
154.8924916972
 20
30.7228545871
 11
154.5456166972
 21
30.7228545871
  0
LINE
  8
0
 62
7
  6
CONTINUOUS
 10
159.401867028
 20
30.8519093441
 11
159.1128043074
 21
30.8519093441
  0
LINE
  8
0
 62
7
  6
CONTINUOUS
 10
151.4237418626
 20
30.9164367395
 11
151.1346793074
 21
30.9164367395
  0
LINE
  8
0
 62
7
  6
CONTINUOUS
 10
150.498741835
 20
31.4971831403
 11
150.9034292799
 21
31.4649194539
  0
LINE
  8
0
 62
7
  6
CONTINUOUS
 10
150.9612418074
 20
31.5939741996
 11
150.5565542799
 21
31.626237886
  0
LINE
  8
0
 62
7
  6
CONTINUOUS
 10
159.575304528
 20
30.6260635193
 11
159.922179528
 21
30.5937998301
  0
LINE
  8
0
 62
7
  6
CONTINUOUS
 10
159.922179528
 20
30.7228545871
 11
159.575304528
 21
30.7551182848
  0
LINE
  8
0
 62
7
  6
CONTINUOUS
 10
155.3549915869
 20
31.5939741996
 11
155.0081169177
 21
31.626237886
  0
LINE
  8
0
 62
7
  6
CONTINUOUS
 10
160.1534293074
 20
31.4971831403
 11
160.5003043074
 21
31.4649194539
  0
LINE
  8
0
 62
7
  6
CONTINUOUS
 10
160.5003043074
 20
31.5939741996
 11
160.1534293074
 21
31.626237886
  0
LINE
  8
0
 62
7
  6
CONTINUOUS
 10
157.840929528
 20
31.4971831403
 11
158.0721793074
 21
31.4649194539
  0
LINE
  8
0
 62
7
  6
CONTINUOUS
 10
160.6737418074
 20
31.5617105132
 11
160.5003043074
 21
31.5939741996
  0
LINE
  8
0
 62
7
  6
CONTINUOUS
 10
160.8471793074
 20
30.6905909007
 11
160.9628038663
 21
30.7873819712
  0
LINE
  8
0
 62
7
  6
CONTINUOUS
 10
155.3549915869
 20
30.8841730531
 11
155.1815540869
 21
30.7873819712
  0
LINE
  8
0
 62
7
  6
CONTINUOUS
 10
157.4362415869
 20
31.5294468267
 11
157.320617028
 21
31.4649194539
  0
LINE
  8
0
 62
7
  6
CONTINUOUS
 10
157.320617028
 20
31.3358647082
 11
157.4362415869
 21
31.400392081
  0
LINE
  8
0
 62
7
  6
CONTINUOUS
 10
150.0362418212
 20
31.5617105132
 11
149.8628043005
 21
31.4971831403
  0
LINE
  8
0
 62
7
  6
CONTINUOUS
 10
152.4643666972
 20
31.5939741996
 11
152.2909293626
 21
31.5294468267
  0
LINE
  8
0
 62
7
  6
CONTINUOUS
 10
152.2909293626
 20
31.400392081
 11
152.4643666972
 21
31.4649194539
  0
LINE
  8
0
 62
7
  6
CONTINUOUS
 10
151.0768668626
 20
30.8196456577
 11
150.9034292799
 21
30.7551182848
  0
LINE
  8
0
 62
7
  6
CONTINUOUS
 10
160.5003043074
 20
30.7551182848
 11
160.269054528
 21
30.7228545871
  0
LINE
  8
0
 62
7
  6
CONTINUOUS
 10
154.8924916972
 20
30.5937998301
 11
155.1815540869
 21
30.6260635193
  0
LINE
  8
0
 62
7
  6
CONTINUOUS
 10
160.269054528
 20
30.5937998301
 11
160.615929528
 21
30.6260635193
  0
LINE
  8
0
 62
7
  6
CONTINUOUS
 10
150.5565542799
 20
30.5937998301
 11
150.9612418074
 21
30.6260635193
  0
LINE
  8
0
 62
7
  6
CONTINUOUS
 10
150.9034292799
 20
30.7551182848
 11
150.498741835
 21
30.7228545871
  0
LINE
  8
0
 62
7
  6
CONTINUOUS
 10
154.7768668074
 20
31.1422825445
 11
155.412804528
 21
31.1422825445
  0
LINE
  8
0
 62
7
  6
CONTINUOUS
 10
155.412804528
 20
31.2713373354
 11
154.7768668074
 21
31.2713373354
  0
LINE
  8
0
 62
7
  6
CONTINUOUS
 10
151.1346793074
 20
31.3036010218
 11
151.4237418626
 21
31.3036010218
  0
LINE
  8
0
 62
7
  6
CONTINUOUS
 10
153.9674919177
 20
31.3681283946
 11
154.2565543074
 21
31.3681283946
  0
LINE
  8
0
 62
7
  6
CONTINUOUS
 10
160.6737418074
 20
31.3681283946
 11
160.9628038663
 21
31.3681283946
  0
LINE
  8
0
 62
7
  6
CONTINUOUS
 10
154.6612419177
 20
31.4971831403
 11
155.0081169177
 21
31.4971831403
  0
LINE
  8
0
 62
7
  6
CONTINUOUS
 10
159.8065543074
 20
31.4971831403
 11
160.1534293074
 21
31.4971831403
  0
LINE
  8
0
 62
7
  6
CONTINUOUS
 10
160.1534293074
 20
31.626237886
 11
159.8065543074
 21
31.626237886
  0
LINE
  8
0
 62
7
  6
CONTINUOUS
 10
158.0721793074
 20
31.626237886
 11
157.840929528
 21
31.626237886
  0
LINE
  8
0
 62
7
  6
CONTINUOUS
 10
157.320617028
 20
31.626237886
 11
157.0315543074
 21
31.626237886
  0
LINE
  8
0
 62
7
  6
CONTINUOUS
 10
156.5690540869
 20
31.626237886
 11
156.279992028
 21
31.626237886
  0
LINE
  8
0
 62
7
  6
CONTINUOUS
 10
155.0081169177
 20
31.626237886
 11
154.6612419177
 21
31.626237886
  0
LINE
  8
0
 62
7
  6
CONTINUOUS
 10
152.9268669177
 20
31.626237886
 11
152.6956168074
 21
31.626237886
  0
LINE
  8
0
 62
7
  6
CONTINUOUS
 10
156.279992028
 20
31.9488748406
 11
156.5690540869
 21
31.9488748406
  0
LINE
  8
0
 62
7
  6
CONTINUOUS
 10
156.5690540869
 20
32.1101932727
 11
156.279992028
 21
32.1101932727
  0
LINE
  8
0
 62
7
  6
CONTINUOUS
 10
152.1753043074
 20
32.1101932727
 11
151.8862417523
 21
32.1101932727
  0
LINE
  8
0
 62
7
  6
CONTINUOUS
 10
151.2130860697
 20
32.3970785186
 11
151.6256574183
 21
32.3970785186
  0
LINE
  8
0
 62
7
  6
CONTINUOUS
 10
152.852430332
 20
32.3970785186
 11
154.245872955
 21
32.3970785186
  0
LINE
  8
0
 62
7
  6
CONTINUOUS
 10
154.5737418074
 20
32.3970785186
 11
155.9671844304
 21
32.3970785186
  0
LINE
  8
0
 62
7
  6
CONTINUOUS
 10
157.852430332
 20
32.3970785186
 11
159.245872955
 21
32.3970785186
  0
LINE
  8
0
 62
7
  6
CONTINUOUS
 10
159.5737418074
 20
32.3970785186
 11
160.9671844304
 21
32.3970785186
  0
LINE
  8
0
 62
7
  6
CONTINUOUS
 10
157.6096790869
 20
31.5939741996
 11
157.4362415869
 21
31.5294468267
  0
LINE
  8
0
 62
7
  6
CONTINUOUS
 10
155.1815540869
 20
30.6260635193
 11
155.3549915869
 21
30.6905909007
  0
LINE
  8
0
 62
7
  6
CONTINUOUS
 10
160.615929528
 20
30.6260635193
 11
160.8471793074
 21
30.6905909007
  0
LINE
  8
0
 62
7
  6
CONTINUOUS
 10
160.615929528
 20
30.7873819712
 11
160.5003043074
 21
30.7551182848
  0
LINE
  8
0
 62
7
  6
CONTINUOUS
 10
159.575304528
 20
31.4649194539
 11
159.8065543074
 21
31.4971831403
  0
LINE
  8
0
 62
7
  6
CONTINUOUS
 10
157.6096790869
 20
31.4649194539
 11
157.840929528
 21
31.4971831403
  0
LINE
  8
0
 62
7
  6
CONTINUOUS
 10
154.5456166972
 20
31.1100188581
 11
154.7768668074
 21
31.1422825445
  0
LINE
  8
0
 62
7
  6
CONTINUOUS
 10
157.840929528
 20
31.626237886
 11
157.6096790869
 21
31.5939741996
  0
LINE
  8
0
 62
7
  6
CONTINUOUS
 10
154.4299918074
 20
31.4649194539
 11
154.6612419177
 21
31.4971831403
  0
LINE
  8
0
 62
7
  6
CONTINUOUS
 10
159.8065543074
 20
31.626237886
 11
159.4596793074
 21
31.5939741996
  0
LINE
  8
0
 62
7
  6
CONTINUOUS
 10
154.7768668074
 20
31.2713373354
 11
154.4299918074
 21
31.2390736489
  0
LINE
  8
0
 62
7
  6
CONTINUOUS
 10
150.5565542799
 20
31.626237886
 11
150.2096793212
 21
31.5939741996
  0
LINE
  8
0
 62
7
  6
CONTINUOUS
 10
154.6612419177
 20
31.626237886
 11
154.2565543074
 21
31.5939741996
  0
LINE
  8
0
 62
7
  6
CONTINUOUS
 10
152.0327582009
 20
33.5446195022
 11
151.3770204959
 21
33.5446195022
  0
LINE
  8
0
 62
7
  6
CONTINUOUS
 10
157.4362415869
 20
31.400392081
 11
157.6096790869
 21
31.4649194539
  0
LINE
  8
0
 62
7
  6
CONTINUOUS
 10
159.4596793074
 20
31.4326557675
 11
159.575304528
 21
31.4649194539
  0
LINE
  8
0
 62
7
  6
CONTINUOUS
 10
159.4596793074
 20
31.5939741996
 11
159.228429528
 21
31.5294468267
  0
LINE
  8
0
 62
7
  6
CONTINUOUS
 10
155.1815540869
 20
30.7873819712
 11
154.8924916972
 21
30.7228545871
  0
LINE
  8
0
 62
7
  6
CONTINUOUS
 10
152.4643666972
 20
31.4649194539
 11
152.6956168074
 21
31.4971831403
  0
LINE
  8
0
 62
7
  6
CONTINUOUS
 10
152.6956168074
 20
31.626237886
 11
152.4643666972
 21
31.5939741996
  0
LINE
  8
0
 62
7
  6
CONTINUOUS
 10
150.2674918074
 20
31.4649194539
 11
150.498741835
 21
31.4971831403
  0
LINE
  8
0
 62
7
  6
CONTINUOUS
 10
156.7868565615
 20
35.0200293383
 11
157.4425942664
 21
35.0200293383
  0
LINE
  8
0
 62
7
  6
CONTINUOUS
 10
154.4299918074
 20
31.0777551716
 11
154.5456166972
 21
31.1100188581
  0
LINE
  8
0
 62
7
  6
CONTINUOUS
 10
154.4299918074
 20
31.2390736489
 11
154.1987416972
 21
31.1745462761
  0
LINE
  8
0
 62
7
  6
CONTINUOUS
 10
154.3143669177
 20
31.4326557675
 11
154.4299918074
 21
31.4649194539
  0
LINE
  8
0
 62
7
  6
CONTINUOUS
 10
150.9612418074
 20
30.6260635193
 11
151.1924917523
 21
30.6905909007
  0
LINE
  8
0
 62
7
  6
CONTINUOUS
 10
154.2565543074
 20
31.5939741996
 11
154.1409294177
 21
31.5617105132
  0
LINE
  8
0
 62
7
  6
CONTINUOUS
 10
150.2096793212
 20
31.5939741996
 11
150.0362418212
 21
31.5617105132
  0
LINE
  8
0
 62
7
  6
CONTINUOUS
 10
160.9671844304
 20
36.1675703219
 11
159.5737418074
 21
36.1675703219
  0
LINE
  8
0
 62
7
  6
CONTINUOUS
 10
157.6065286927
 20
36.1675703219
 11
157.1939573441
 21
36.1675703219
  0
LINE
  8
0
 62
7
  6
CONTINUOUS
 10
155.9671844304
 20
36.1675703219
 11
154.5737418074
 21
36.1675703219
  0
LINE
  8
0
 62
7
  6
CONTINUOUS
 10
154.245872955
 20
36.1675703219
 11
152.852430332
 21
36.1675703219
  0
LINE
  8
0
 62
7
  6
CONTINUOUS
 10
150.9671844304
 20
36.1675703219
 11
149.5737418074
 21
36.1675703219
  0
LINE
  8
0
 62
7
  6
CONTINUOUS
 10
150.1518667936
 20
31.4326557675
 11
150.2674918074
 21
31.4649194539
  0
CIRCLE
  8
0
 62
7
  6
CONTINUOUS
 10
160.2704631189
 20
38.5036358957
 40
2.0901639344
  0
ARC
  8
0
 62
7
  6
CONTINUOUS
 10
151.2130860697
 20
34.0364227809
 40
1.6393442623
 50
180.0
 51
270.0
  0
ARC
  8
0
 62
7
  6
CONTINUOUS
 10
157.6065286927
 20
34.5282260596
 40
1.6393442623
 50
0.0
 51
90.0
  0
ARC
  8
0
 62
7
  6
CONTINUOUS
 10
151.6256574183
 20
33.8724883547
 40
1.4754098361
 50
270.0
 51
326.2510114041
  0
ARC
  8
0
 62
7
  6
CONTINUOUS
 10
157.1939573441
 20
34.6921604858
 40
1.4754098361
 50
90.0
 51
146.2510114041
  0
ARC
  8
0
 62
7
  6
CONTINUOUS
 10
152.0327582009
 20
34.3642916334
 40
0.8196721311
 50
270.0
 51
360.0
  0
ARC
  8
0
 62
7
  6
CONTINUOUS
 10
156.7868565615
 20
34.2003572071
 40
0.8196721311
 50
90.0
 51
180.0
  0
ARC
  8
0
 62
7
  6
CONTINUOUS
 10
151.3770204959
 20
33.9544555678
 40
0.4098360656
 50
180.0
 51
270.0
  0
ARC
  8
0
 62
7
  6
CONTINUOUS
 10
157.4425942664
 20
34.6101932727
 40
0.4098360656
 50
0.0
 51
90.0
  0
SOLID
  8
0
 62
7
  6
CONTINUOUS
 10
156.279992028
 20
31.9488752009
 11
156.279992028
 21
32.1101936845
 12
156.5690540869
 22
31.9488752009
 13
156.5690540869
 23
32.1101936845
  0
SOLID
  8
0
 62
7
  6
CONTINUOUS
 10
150.5565542799
 20
31.6262382337
 11
150.9612418074
 21
31.5939740028
 12
150.2096793212
 22
31.5939740028
 13
150.2096793212
 23
31.5939740028
  0
SOLID
  8
0
 62
7
  6
CONTINUOUS
 10
150.0362418212
 20
31.5617111435
 11
150.2096793212
 21
31.5939740028
 12
150.9612418074
 22
31.5939740028
 13
150.9612418074
 23
31.5939740028
  0
SOLID
  8
0
 62
7
  6
CONTINUOUS
 10
150.9612418074
 20
31.5939740028
 11
151.1924917523
 21
31.5294468402
 12
150.0362418212
 22
31.5617111435
 13
150.0362418212
 23
31.5617111435
  0
SOLID
  8
0
 62
7
  6
CONTINUOUS
 10
149.8628043005
 20
31.49718259
 11
150.0362418212
 21
31.5617111435
 12
151.1924917523
 22
31.5294468402
 13
151.1924917523
 23
31.5294468402
  0
SOLID
  8
0
 62
7
  6
CONTINUOUS
 10
149.8628043005
 20
31.49718259
 11
151.1924917523
 21
31.5294468402
 12
150.498741835
 22
31.49718259
 13
150.498741835
 23
31.49718259
  0
SOLID
  8
0
 62
7
  6
CONTINUOUS
 10
150.498741835
 20
31.49718259
 11
151.1924917523
 21
31.5294468402
 12
150.9034292799
 22
31.4649197501
 13
150.9034292799
 23
31.4649197501
  0
SOLID
  8
0
 62
7
  6
CONTINUOUS
 10
151.1924917523
 20
31.5294468402
 11
151.3659292523
 21
31.4326554468
 12
150.9034292799
 22
31.4649197501
 13
150.9034292799
 23
31.4649197501
  0
SOLID
  8
0
 62
7
  6
CONTINUOUS
 10
151.0768668626
 20
31.4003926599
 11
150.9034292799
 21
31.4649197501
 12
151.3659292523
 22
31.4326554468
 13
151.3659292523
 23
31.4326554468
  0
SOLID
  8
0
 62
7
  6
CONTINUOUS
 10
151.0768668626
 20
31.4003926599
 11
151.3659292523
 21
31.4326554468
 12
151.1346793074
 22
31.3036013776
 13
151.1346793074
 23
31.3036013776
  0
SOLID
  8
0
 62
7
  6
CONTINUOUS
 10
151.3659292523
 20
31.4326554468
 11
151.4237418626
 21
31.3036013776
 12
151.1346793074
 22
31.3036013776
 13
151.1346793074
 23
31.3036013776
  0
SOLID
  8
0
 62
7
  6
CONTINUOUS
 10
152.4643666972
 20
31.5939739754
 11
152.6956168074
 21
31.6262382787
 12
152.9268669177
 22
31.6262382787
 13
152.9268669177
 23
31.6262382787
  0
SOLID
  8
0
 62
7
  6
CONTINUOUS
 10
152.9268669177
 20
31.6262382787
 11
153.1003044177
 21
31.5939739754
 12
152.4643666972
 22
31.5939739754
 13
152.4643666972
 23
31.5939739754
  0
SOLID
  8
0
 62
7
  6
CONTINUOUS
 10
152.2909293626
 20
31.5294468852
 11
152.4643666972
 21
31.5939739754
 12
153.1003044177
 22
31.5939739754
 13
153.1003044177
 23
31.5939739754
  0
SOLID
  8
0
 62
7
  6
CONTINUOUS
 10
153.1003044177
 20
31.5939739754
 11
153.2737419177
 21
31.5294468852
 12
152.2909293626
 22
31.5294468852
 13
152.2909293626
 23
31.5294468852
  0
SOLID
  8
0
 62
7
  6
CONTINUOUS
 10
153.2737419177
 20
31.5294468852
 11
152.6956168074
 21
31.4971825369
 12
152.2909293626
 22
31.5294468852
 13
152.2909293626
 23
31.5294468852
  0
SOLID
  8
0
 62
7
  6
CONTINUOUS
 10
152.1753043074
 20
31.4649197951
 11
152.2909293626
 21
31.5294468852
 12
152.6956168074
 22
31.4971825369
 13
152.6956168074
 23
31.4971825369
  0
SOLID
  8
0
 62
7
  6
CONTINUOUS
 10
152.6956168074
 20
31.4971825369
 11
152.4643666972
 21
31.4649197951
 12
152.1753043074
 22
31.4649197951
 13
152.1753043074
 23
31.4649197951
  0
SOLID
  8
0
 62
7
  6
CONTINUOUS
 10
152.6956168074
 20
31.4971825369
 11
153.2737419177
 21
31.5294468852
 12
152.9268669177
 22
31.4649197951
 13
152.9268669177
 23
31.4649197951
  0
SOLID
  8
0
 62
7
  6
CONTINUOUS
 10
153.2737419177
 20
31.5294468852
 11
153.3893668074
 21
31.4649197951
 12
152.9268669177
 22
31.4649197951
 13
152.9268669177
 23
31.4649197951
  0
SOLID
  8
0
 62
7
  6
CONTINUOUS
 10
153.0424918074
 20
31.4326554468
 11
152.9268669177
 21
31.4649197951
 12
153.3893668074
 22
31.4649197951
 13
153.3893668074
 23
31.4649197951
  0
SOLID
  8
0
 62
7
  6
CONTINUOUS
 10
153.3893668074
 20
31.4649197951
 11
153.4471794177
 21
31.4003927049
 12
153.0424918074
 22
31.4326554468
 13
153.0424918074
 23
31.4326554468
  0
SOLID
  8
0
 62
7
  6
CONTINUOUS
 10
153.1581166972
 20
31.3681283566
 11
153.0424918074
 21
31.4326554468
 12
153.4471794177
 22
31.4003927049
 13
153.4471794177
 23
31.4003927049
  0
SOLID
  8
0
 62
7
  6
CONTINUOUS
 10
153.1581166972
 20
31.3681283566
 11
153.4471794177
 21
31.4003927049
 12
153.2159293074
 22
31.2390742213
 13
153.2159293074
 23
31.2390742213
  0
SOLID
  8
0
 62
7
  6
CONTINUOUS
 10
153.4471794177
 20
31.4003927049
 11
153.5049916972
 21
31.2390742213
 12
153.2159293074
 22
31.2390742213
 13
153.2159293074
 23
31.2390742213
  0
SOLID
  8
0
 62
7
  6
CONTINUOUS
 10
152.4643666972
 20
31.4649197951
 11
152.2909293626
 21
31.4003927049
 12
152.1753043074
 22
31.4649197951
 13
152.1753043074
 23
31.4649197951
  0
SOLID
  8
0
 62
7
  6
CONTINUOUS
 10
152.2909293626
 20
31.4003927049
 11
152.1753043074
 21
31.3358640533
 12
152.1753043074
 22
31.4649197951
 13
152.1753043074
 23
31.4649197951
  0
SOLID
  8
0
 62
7
  6
CONTINUOUS
 10
152.1753043074
 20
31.3358640533
 11
151.8862417523
 21
30.5938002869
 12
152.1753043074
 22
31.4649197951
 13
152.1753043074
 23
31.4649197951
  0
SOLID
  8
0
 62
7
  6
CONTINUOUS
 10
152.1753043074
 20
31.4649197951
 11
151.8862417523
 21
30.5938002869
 12
152.1753043074
 22
32.1101937295
 13
152.1753043074
 23
32.1101937295
  0
SOLID
  8
0
 62
7
  6
CONTINUOUS
 10
151.8862417523
 20
30.5938002869
 11
151.8862417523
 21
32.1101937295
 12
152.1753043074
 22
32.1101937295
 13
152.1753043074
 23
32.1101937295
  0
SOLID
  8
0
 62
7
  6
CONTINUOUS
 10
152.1753043074
 20
31.3358640533
 11
152.1753043074
 21
30.5938002869
 12
151.8862417523
 22
30.5938002869
 13
151.8862417523
 23
30.5938002869
  0
SOLID
  8
0
 62
7
  6
CONTINUOUS
 10
153.2159293074
 20
30.5938002869
 11
153.2159293074
 21
31.2390742213
 12
153.5049916972
 22
31.2390742213
 13
153.5049916972
 23
31.2390742213
  0
SOLID
  8
0
 62
7
  6
CONTINUOUS
 10
153.5049916972
 20
31.2390742213
 11
153.5049916972
 21
30.5938002869
 12
153.2159293074
 22
30.5938002869
 13
153.2159293074
 23
30.5938002869
  0
SOLID
  8
0
 62
7
  6
CONTINUOUS
 10
154.2565543074
 20
31.5939738288
 11
154.6612419177
 21
31.6262385959
 12
155.0081169177
 22
31.6262385959
 13
155.0081169177
 23
31.6262385959
  0
SOLID
  8
0
 62
7
  6
CONTINUOUS
 10
155.0081169177
 20
31.6262385959
 11
155.3549915869
 21
31.5939738288
 12
154.2565543074
 22
31.5939738288
 13
154.2565543074
 23
31.5939738288
  0
SOLID
  8
0
 62
7
  6
CONTINUOUS
 10
154.1409294177
 20
31.5617111435
 11
154.2565543074
 21
31.5939738288
 12
155.3549915869
 22
31.5939738288
 13
155.3549915869
 23
31.5939738288
  0
SOLID
  8
0
 62
7
  6
CONTINUOUS
 10
155.3549915869
 20
31.5939738288
 11
155.5284290869
 21
31.5294468402
 12
154.1409294177
 22
31.5617111435
 13
154.1409294177
 23
31.5617111435
  0
SOLID
  8
0
 62
7
  6
CONTINUOUS
 10
154.0253041972
 20
31.4971826249
 11
154.1409294177
 21
31.5617111435
 12
155.5284290869
 22
31.5294468402
 13
155.5284290869
 23
31.5294468402
  0
SOLID
  8
0
 62
7
  6
CONTINUOUS
 10
154.0253041972
 20
31.4971826249
 11
155.5284290869
 21
31.5294468402
 12
154.6612419177
 22
31.4971826249
 13
154.6612419177
 23
31.4971826249
  0
SOLID
  8
0
 62
7
  6
CONTINUOUS
 10
154.6612419177
 20
31.4971826249
 11
155.5284290869
 21
31.5294468402
 12
155.0081169177
 22
31.4971826249
 13
155.0081169177
 23
31.4971826249
  0
SOLID
  8
0
 62
7
  6
CONTINUOUS
 10
155.0081169177
 20
31.4971826249
 11
155.5284290869
 21
31.5294468402
 12
155.239367028
 22
31.4649194065
 13
155.239367028
 23
31.4649194065
  0
SOLID
  8
0
 62
7
  6
CONTINUOUS
 10
155.5284290869
 20
31.5294468402
 11
155.6440543074
 21
31.4649194065
 12
155.239367028
 22
31.4649194065
 13
155.239367028
 23
31.4649194065
  0
SOLID
  8
0
 62
7
  6
CONTINUOUS
 10
153.9674919177
 20
31.4326554138
 11
154.0253041972
 21
31.4971826249
 12
154.6612419177
 22
31.4971826249
 13
154.6612419177
 23
31.4971826249
  0
SOLID
  8
0
 62
7
  6
CONTINUOUS
 10
155.3549915869
 20
31.4326554138
 11
155.239367028
 21
31.4649194065
 12
155.6440543074
 22
31.4649194065
 13
155.6440543074
 23
31.4649194065
  0
SOLID
  8
0
 62
7
  6
CONTINUOUS
 10
155.3549915869
 20
31.4326554138
 11
155.6440543074
 21
31.4649194065
 12
155.412804528
 22
31.3681282026
 13
155.412804528
 23
31.3681282026
  0
SOLID
  8
0
 62
7
  6
CONTINUOUS
 10
155.6440543074
 20
31.4649194065
 11
155.7018665869
 21
31.3681282026
 12
155.412804528
 22
31.3681282026
 13
155.412804528
 23
31.3681282026
  0
SOLID
  8
0
 62
7
  6
CONTINUOUS
 10
155.412804528
 20
31.2713369632
 11
155.412804528
 21
31.3681282026
 12
155.7018665869
 22
31.3681282026
 13
155.7018665869
 23
31.3681282026
  0
SOLID
  8
0
 62
7
  6
CONTINUOUS
 10
155.412804528
 20
31.2713369632
 11
155.7018665869
 21
31.3681282026
 12
155.412804528
 22
31.1422827828
 13
155.412804528
 23
31.1422827828
  0
SOLID
  8
0
 62
7
  6
CONTINUOUS
 10
155.412804528
 20
31.1422827828
 11
155.7018665869
 21
31.3681282026
 12
155.412804528
 22
30.9487004259
 13
155.412804528
 23
30.9487004259
  0
SOLID
  8
0
 62
7
  6
CONTINUOUS
 10
155.7018665869
 20
31.3681282026
 11
155.7018665869
 21
30.8519086025
 12
155.412804528
 22
30.9487004259
 13
155.412804528
 23
30.9487004259
  0
SOLID
  8
0
 62
7
  6
CONTINUOUS
 10
157.6096790869
 20
31.5939736268
 11
157.840929528
 21
31.6262383465
 12
158.0721793074
 22
31.6262383465
 13
158.0721793074
 23
31.6262383465
  0
SOLID
  8
0
 62
7
  6
CONTINUOUS
 10
158.0721793074
 20
31.6262383465
 11
158.2456168074
 21
31.5939736268
 12
157.6096790869
 22
31.5939736268
 13
157.6096790869
 23
31.5939736268
  0
SOLID
  8
0
 62
7
  6
CONTINUOUS
 10
157.4362415869
 20
31.5294472848
 11
157.6096790869
 21
31.5939736268
 12
158.2456168074
 22
31.5939736268
 13
158.2456168074
 23
31.5939736268
  0
SOLID
  8
0
 62
7
  6
CONTINUOUS
 10
158.2456168074
 20
31.5939736268
 11
158.4190543074
 21
31.5294472848
 12
157.4362415869
 22
31.5294472848
 13
157.4362415869
 23
31.5294472848
  0
SOLID
  8
0
 62
7
  6
CONTINUOUS
 10
158.4190543074
 20
31.5294472848
 11
157.840929528
 21
31.4971825369
 12
157.4362415869
 22
31.5294472848
 13
157.4362415869
 23
31.5294472848
  0
SOLID
  8
0
 62
7
  6
CONTINUOUS
 10
157.320617028
 20
31.4649199103
 11
157.4362415869
 21
31.5294472848
 12
157.840929528
 22
31.4971825369
 13
157.840929528
 23
31.4971825369
  0
SOLID
  8
0
 62
7
  6
CONTINUOUS
 10
157.840929528
 20
31.4971825369
 11
157.6096790869
 21
31.4649199103
 12
157.320617028
 22
31.4649199103
 13
157.320617028
 23
31.4649199103
  0
SOLID
  8
0
 62
7
  6
CONTINUOUS
 10
157.840929528
 20
31.4971825369
 11
158.4190543074
 21
31.5294472848
 12
158.0721793074
 22
31.4649199103
 13
158.0721793074
 23
31.4649199103
  0
SOLID
  8
0
 62
7
  6
CONTINUOUS
 10
158.4190543074
 20
31.5294472848
 11
158.534679528
 21
31.4649199103
 12
158.0721793074
 22
31.4649199103
 13
158.0721793074
 23
31.4649199103
  0
SOLID
  8
0
 62
7
  6
CONTINUOUS
 10
158.187804528
 20
31.4326554468
 11
158.0721793074
 21
31.4649199103
 12
158.534679528
 22
31.4649199103
 13
158.534679528
 23
31.4649199103
  0
SOLID
  8
0
 62
7
  6
CONTINUOUS
 10
158.187804528
 20
31.4326554468
 11
158.534679528
 21
31.4649199103
 12
158.3034290869
 22
31.3681288486
 13
158.3034290869
 23
31.3681288486
  0
SOLID
  8
0
 62
7
  6
CONTINUOUS
 10
158.534679528
 20
31.4649199103
 11
158.5924918074
 21
31.3681288486
 12
158.3034290869
 22
31.3681288486
 13
158.3034290869
 23
31.3681288486
  0
SOLID
  8
0
 62
7
  6
CONTINUOUS
 10
158.361242028
 20
31.2068093799
 11
158.3034290869
 21
31.3681288486
 12
158.5924918074
 22
31.3681288486
 13
158.5924918074
 23
31.3681288486
  0
SOLID
  8
0
 62
7
  6
CONTINUOUS
 10
158.5924918074
 20
31.3681288486
 11
158.6503040869
 21
31.2068093799
 12
158.361242028
 22
31.2068093799
 13
158.361242028
 23
31.2068093799
  0
SOLID
  8
0
 62
7
  6
CONTINUOUS
 10
157.6096790869
 20
31.4649199103
 11
157.4362415869
 21
31.4003926599
 12
157.320617028
 22
31.4649199103
 13
157.320617028
 23
31.4649199103
  0
SOLID
  8
0
 62
7
  6
CONTINUOUS
 10
157.4362415869
 20
31.4003926599
 11
157.320617028
 21
31.3358640533
 12
157.320617028
 22
31.4649199103
 13
157.320617028
 23
31.4649199103
  0
SOLID
  8
0
 62
7
  6
CONTINUOUS
 10
157.320617028
 20
31.3358640533
 11
157.0315543074
 21
30.5938003547
 12
157.320617028
 22
31.4649199103
 13
157.320617028
 23
31.4649199103
  0
SOLID
  8
0
 62
7
  6
CONTINUOUS
 10
157.320617028
 20
31.4649199103
 11
157.0315543074
 21
30.5938003547
 12
157.320617028
 22
31.6262383465
 13
157.320617028
 23
31.6262383465
  0
SOLID
  8
0
 62
7
  6
CONTINUOUS
 10
157.0315543074
 20
30.5938003547
 11
157.0315543074
 21
31.6262383465
 12
157.320617028
 22
31.6262383465
 13
157.320617028
 23
31.6262383465
  0
SOLID
  8
0
 62
7
  6
CONTINUOUS
 10
157.320617028
 20
31.3358640533
 11
157.320617028
 21
30.5938003547
 12
157.0315543074
 22
30.5938003547
 13
157.0315543074
 23
30.5938003547
  0
SOLID
  8
0
 62
7
  6
CONTINUOUS
 10
158.361242028
 20
30.5938003547
 11
158.361242028
 21
31.2068093799
 12
158.6503040869
 22
31.2068093799
 13
158.6503040869
 23
31.2068093799
  0
SOLID
  8
0
 62
7
  6
CONTINUOUS
 10
158.6503040869
 20
31.2068093799
 11
158.6503040869
 21
30.5938003547
 12
158.361242028
 22
30.5938003547
 13
158.361242028
 23
30.5938003547
  0
SOLID
  8
0
 62
7
  6
CONTINUOUS
 10
159.4596793074
 20
31.5939739474
 11
159.8065543074
 21
31.6262381969
 12
160.1534293074
 22
31.6262381969
 13
160.1534293074
 23
31.6262381969
  0
SOLID
  8
0
 62
7
  6
CONTINUOUS
 10
160.1534293074
 20
31.6262381969
 11
160.5003043074
 21
31.5939739474
 12
159.4596793074
 22
31.5939739474
 13
159.4596793074
 23
31.5939739474
  0
SOLID
  8
0
 62
7
  6
CONTINUOUS
 10
159.228429528
 20
31.5294468402
 11
159.4596793074
 21
31.5939739474
 12
160.5003043074
 22
31.5939739474
 13
160.5003043074
 23
31.5939739474
  0
SOLID
  8
0
 62
7
  6
CONTINUOUS
 10
159.228429528
 20
31.5294468402
 11
160.5003043074
 21
31.5939739304
 12
160.6737418074
 22
31.5617111435
 13
160.6737418074
 23
31.5617111435
  0
SOLID
  8
0
 62
7
  6
CONTINUOUS
 10
159.228429528
 20
31.5294468402
 11
160.6737418074
 21
31.5617111435
 12
159.8065543074
 22
31.4971825592
 13
159.8065543074
 23
31.4971825592
  0
SOLID
  8
0
 62
7
  6
CONTINUOUS
 10
159.8065543074
 20
31.4971825592
 11
160.6737418074
 21
31.5617111435
 12
160.1534293074
 22
31.4971825592
 13
160.1534293074
 23
31.4971825592
  0
SOLID
  8
0
 62
7
  6
CONTINUOUS
 10
160.6737418074
 20
31.5617111435
 11
160.8471793074
 21
31.4971825592
 12
160.1534293074
 22
31.4971825592
 13
160.1534293074
 23
31.4971825592
  0
SOLID
  8
0
 62
7
  6
CONTINUOUS
 10
160.5003043074
 20
31.4649197501
 11
160.1534293074
 21
31.4971825592
 12
160.8471793074
 22
31.4971825592
 13
160.8471793074
 23
31.4971825592
  0
SOLID
  8
0
 62
7
  6
CONTINUOUS
 10
159.1128043074
 20
31.4326555427
 11
159.228429528
 21
31.5294468402
 12
159.8065543074
 22
31.4971825592
 13
159.8065543074
 23
31.4971825592
  0
SOLID
  8
0
 62
7
  6
CONTINUOUS
 10
160.5003043074
 20
31.4649197501
 11
160.8471793074
 21
31.4971825592
 12
160.615929528
 22
31.4326555427
 13
160.615929528
 23
31.4326555427
  0
SOLID
  8
0
 62
7
  6
CONTINUOUS
 10
160.615929528
 20
31.4326555427
 11
160.8471793074
 21
31.4971825592
 12
160.6737418074
 22
31.3681283005
 13
160.6737418074
 23
31.3681283005
  0
SOLID
  8
0
 62
7
  6
CONTINUOUS
 10
160.8471793074
 20
31.4971825592
 11
160.9628038663
 21
31.3681283005
 12
160.6737418074
 22
31.3681283005
 13
160.6737418074
 23
31.3681283005
  0
SOLID
  8
0
 62
7
  6
CONTINUOUS
 10
150.2674918074
 20
31.4649197501
 11
149.7471793074
 21
31.4326554237
 12
150.498741835
 22
31.4971824493
 13
150.498741835
 23
31.4971824493
  0
SOLID
  8
0
 62
7
  6
CONTINUOUS
 10
149.7471793074
 20
31.4326554237
 11
149.8628043005
 21
31.4971824493
 12
150.498741835
 22
31.4971824493
 13
150.498741835
 23
31.4971824493
  0
SOLID
  8
0
 62
7
  6
CONTINUOUS
 10
150.2674918074
 20
31.4649197501
 11
150.1518667936
 21
31.4326554237
 12
149.7471793074
 22
31.4326554237
 13
149.7471793074
 23
31.4326554237
  0
SOLID
  8
0
 62
7
  6
CONTINUOUS
 10
149.6315543091
 20
31.3036012664
 11
149.7471793074
 21
31.4326554237
 12
150.1518667936
 22
31.4326554237
 13
150.1518667936
 23
31.4326554237
  0
SOLID
  8
0
 62
7
  6
CONTINUOUS
 10
153.9674919177
 20
31.4326554237
 11
154.6612419177
 21
31.4971825369
 12
154.4299918074
 22
31.4649197501
 13
154.4299918074
 23
31.4649197501
  0
SOLID
  8
0
 62
7
  6
CONTINUOUS
 10
154.4299918074
 20
31.4649197501
 11
154.3143669177
 21
31.4326554237
 12
153.9674919177
 22
31.4326554237
 13
153.9674919177
 23
31.4326554237
  0
SOLID
  8
0
 62
7
  6
CONTINUOUS
 10
153.9674919177
 20
31.3681283335
 11
153.9674919177
 21
31.4326554237
 12
154.3143669177
 22
31.4326554237
 13
154.3143669177
 23
31.4326554237
  0
SOLID
  8
0
 62
7
  6
CONTINUOUS
 10
154.3143669177
 20
31.4326554237
 11
154.2565543074
 21
31.3681283335
 12
153.9674919177
 22
31.3681283335
 13
153.9674919177
 23
31.3681283335
  0
SOLID
  8
0
 62
7
  6
CONTINUOUS
 10
159.1128043074
 20
31.4326555528
 11
159.8065543074
 21
31.4971825369
 12
159.575304528
 22
31.4649197501
 13
159.575304528
 23
31.4649197501
  0
SOLID
  8
0
 62
7
  6
CONTINUOUS
 10
159.575304528
 20
31.4649197501
 11
159.4596793074
 21
31.4326555528
 12
159.1128043074
 22
31.4326555528
 13
159.1128043074
 23
31.4326555528
  0
SOLID
  8
0
 62
7
  6
CONTINUOUS
 10
159.1128043074
 20
31.3681284626
 11
159.1128043074
 21
31.4326555528
 12
159.4596793074
 22
31.4326555528
 13
159.4596793074
 23
31.4326555528
  0
SOLID
  8
0
 62
7
  6
CONTINUOUS
 10
159.4596793074
 20
31.4326555528
 11
159.401867028
 21
31.3681284626
 12
159.1128043074
 22
31.3681284626
 13
159.1128043074
 23
31.3681284626
  0
SOLID
  8
0
 62
7
  6
CONTINUOUS
 10
159.228429528
 20
31.2390741763
 11
159.1128043074
 21
31.3681284626
 12
159.401867028
 22
31.3681284626
 13
159.401867028
 23
31.3681284626
  0
SOLID
  8
0
 62
7
  6
CONTINUOUS
 10
149.6315543091
 20
31.3036012664
 11
150.1518667936
 21
31.4326554468
 12
149.9784292936
 22
31.3358640533
 13
149.9784292936
 23
31.3358640533
  0
SOLID
  8
0
 62
7
  6
CONTINUOUS
 10
149.9784292936
 20
31.3358640533
 11
149.9206168074
 21
31.2713369632
 12
149.6315543091
 22
31.3036012664
 13
149.6315543091
 23
31.3036012664
  0
SOLID
  8
0
 62
7
  6
CONTINUOUS
 10
149.5737418074
 20
31.1100184796
 11
149.6315543091
 21
31.3036012664
 12
149.9206168074
 22
31.2713369632
 13
149.9206168074
 23
31.2713369632
  0
SOLID
  8
0
 62
7
  6
CONTINUOUS
 10
154.4299918074
 20
31.2390741763
 11
154.7768668074
 21
31.271336924
 12
155.412804528
 22
31.271336924
 13
155.412804528
 23
31.271336924
  0
SOLID
  8
0
 62
7
  6
CONTINUOUS
 10
154.4299918074
 20
31.2390741763
 11
155.412804528
 21
31.271336924
 12
154.1987416972
 22
31.1745462761
 13
154.1987416972
 23
31.1745462761
  0
SOLID
  8
0
 62
7
  6
CONTINUOUS
 10
154.1987416972
 20
31.1745462761
 11
155.412804528
 21
31.271336924
 12
154.7768668074
 22
31.1422827436
 13
154.7768668074
 23
31.1422827436
  0
SOLID
  8
0
 62
7
  6
CONTINUOUS
 10
155.412804528
 20
31.271336924
 11
155.412804528
 21
31.1422827436
 12
154.7768668074
 22
31.1422827436
 13
154.7768668074
 23
31.1422827436
  0
SOLID
  8
0
 62
7
  6
CONTINUOUS
 10
159.228429528
 20
31.2390745501
 11
159.401867028
 21
31.3681283566
 12
159.4596793074
 22
31.3036012664
 13
159.4596793074
 23
31.3036012664
  0
SOLID
  8
0
 62
7
  6
CONTINUOUS
 10
159.4596793074
 20
31.3036012664
 11
159.6331168074
 21
31.2390745501
 12
159.228429528
 22
31.2390745501
 13
159.228429528
 23
31.2390745501
  0
SOLID
  8
0
 62
7
  6
CONTINUOUS
 10
159.4596793074
 20
31.1422827828
 11
159.228429528
 21
31.2390745501
 12
159.6331168074
 22
31.2390745501
 13
159.6331168074
 23
31.2390745501
  0
SOLID
  8
0
 62
7
  6
CONTINUOUS
 10
159.6331168074
 20
31.2390745501
 11
160.615929528
 21
31.0777556927
 12
159.4596793074
 22
31.1422827828
 13
159.4596793074
 23
31.1422827828
  0
SOLID
  8
0
 62
7
  6
CONTINUOUS
 10
160.442492028
 20
30.9809646623
 11
159.4596793074
 21
31.1422827828
 12
160.615929528
 22
31.0777556927
 13
160.615929528
 23
31.0777556927
  0
SOLID
  8
0
 62
7
  6
CONTINUOUS
 10
160.615929528
 20
31.0777556927
 11
160.8471793074
 21
30.9809646623
 12
160.442492028
 22
30.9809646623
 13
160.442492028
 23
30.9809646623
  0
SOLID
  8
0
 62
7
  6
CONTINUOUS
 10
160.615929528
 20
30.9164372091
 11
160.442492028
 21
30.9809646623
 12
160.8471793074
 22
30.9809646623
 13
160.8471793074
 23
30.9809646623
  0
SOLID
  8
0
 62
7
  6
CONTINUOUS
 10
160.615929528
 20
30.9164372091
 11
160.8471793074
 21
30.9809646623
 12
160.6737418074
 22
30.8519089441
 13
160.6737418074
 23
30.8519089441
  0
SOLID
  8
0
 62
7
  6
CONTINUOUS
 10
160.8471793074
 20
30.9809646623
 11
160.9628038663
 21
30.8519089441
 12
160.6737418074
 22
30.8519089441
 13
160.6737418074
 23
30.8519089441
  0
SOLID
  8
0
 62
7
  6
CONTINUOUS
 10
160.615929528
 20
30.7873818593
 11
160.6737418074
 21
30.8519089441
 12
160.9628038663
 22
30.8519089441
 13
160.9628038663
 23
30.8519089441
  0
SOLID
  8
0
 62
7
  6
CONTINUOUS
 10
160.9628038663
 20
30.8519089441
 11
160.9628038663
 21
30.7873818593
 12
160.615929528
 22
30.7873818593
 13
160.615929528
 23
30.7873818593
  0
SOLID
  8
0
 62
7
  6
CONTINUOUS
 10
160.5003043074
 20
30.7551187255
 11
160.615929528
 21
30.7873818593
 12
160.9628038663
 22
30.7873818593
 13
160.9628038663
 23
30.7873818593
  0
SOLID
  8
0
 62
7
  6
CONTINUOUS
 10
160.5003043074
 20
30.7551187255
 11
160.9628038663
 21
30.7873818593
 12
160.269054528
 22
30.7228547745
 13
160.269054528
 23
30.7228547745
  0
SOLID
  8
0
 62
7
  6
CONTINUOUS
 10
160.9628038663
 20
30.7873818593
 11
160.8471793074
 21
30.6905916353
 12
160.269054528
 22
30.7228547745
 13
160.269054528
 23
30.7228547745
  0
SOLID
  8
0
 62
7
  6
CONTINUOUS
 10
160.8471793074
 20
30.6905916353
 11
159.401867028
 21
30.658327332
 12
160.269054528
 22
30.7228547745
 13
160.269054528
 23
30.7228547745
  0
SOLID
  8
0
 62
7
  6
CONTINUOUS
 10
160.269054528
 20
30.7228547745
 11
159.401867028
 21
30.658327332
 12
159.922179528
 22
30.7228547745
 13
159.922179528
 23
30.7228547745
  0
SOLID
  8
0
 62
7
  6
CONTINUOUS
 10
159.401867028
 20
30.658327332
 11
159.228429528
 21
30.7228547745
 12
159.922179528
 22
30.7228547745
 13
159.922179528
 23
30.7228547745
  0
SOLID
  8
0
 62
7
  6
CONTINUOUS
 10
159.401867028
 20
30.658327332
 11
160.8471793074
 21
30.6905916353
 12
159.575304528
 22
30.6260629858
 13
159.575304528
 23
30.6260629858
  0
SOLID
  8
0
 62
7
  6
CONTINUOUS
 10
160.8471793074
 20
30.6905916353
 11
160.615929528
 21
30.6260629858
 12
159.575304528
 22
30.6260629858
 13
159.575304528
 23
30.6260629858
  0
SOLID
  8
0
 62
7
  6
CONTINUOUS
 10
159.922179528
 20
30.5938006049
 11
159.575304528
 21
30.6260629858
 12
160.615929528
 22
30.6260629858
 13
160.615929528
 23
30.6260629858
  0
SOLID
  8
0
 62
7
  6
CONTINUOUS
 10
160.615929528
 20
30.6260629858
 11
160.269054528
 21
30.5938006049
 12
159.922179528
 22
30.5938006049
 13
159.922179528
 23
30.5938006049
  0
SOLID
  8
0
 62
7
  6
CONTINUOUS
 10
149.5737418074
 20
31.1100184796
 11
149.9206168074
 21
31.2713369632
 12
149.8628043005
 22
31.1422827828
 13
149.8628043005
 23
31.1422827828
  0
SOLID
  8
0
 62
7
  6
CONTINUOUS
 10
149.8628043005
 20
31.1422827828
 11
149.8628043005
 21
31.0454914852
 12
149.5737418074
 22
31.1100184796
 13
149.5737418074
 23
31.1100184796
  0
SOLID
  8
0
 62
7
  6
CONTINUOUS
 10
149.6315543091
 20
30.9164372091
 11
149.5737418074
 21
31.1100184796
 12
149.8628043005
 22
31.0454914852
 13
149.8628043005
 23
31.0454914852
  0
SOLID
  8
0
 62
7
  6
CONTINUOUS
 10
149.8628043005
 20
31.0454914852
 11
149.9784292936
 21
30.8841729058
 12
149.6315543091
 22
30.9164372091
 13
149.6315543091
 23
30.9164372091
  0
SOLID
  8
0
 62
7
  6
CONTINUOUS
 10
149.7471793074
 20
30.7873813202
 11
149.6315543091
 21
30.9164372091
 12
149.9784292936
 22
30.8841729058
 13
149.9784292936
 23
30.8841729058
  0
SOLID
  8
0
 62
7
  6
CONTINUOUS
 10
149.9784292936
 20
30.8841729058
 11
150.1518667936
 21
30.7873813202
 12
149.7471793074
 22
30.7873813202
 13
149.7471793074
 23
30.7873813202
  0
SOLID
  8
0
 62
7
  6
CONTINUOUS
 10
149.8628043005
 20
30.7228547004
 11
149.7471793074
 21
30.7873813202
 12
150.1518667936
 22
30.7873813202
 13
150.1518667936
 23
30.7873813202
  0
SOLID
  8
0
 62
7
  6
CONTINUOUS
 10
150.1518667936
 20
30.7873813202
 11
150.498741835
 21
30.7228547004
 12
149.8628043005
 22
30.7228547004
 13
149.8628043005
 23
30.7228547004
  0
SOLID
  8
0
 62
7
  6
CONTINUOUS
 10
150.0362418212
 20
30.658327332
 11
149.8628043005
 21
30.7228547004
 12
150.498741835
 22
30.7228547004
 13
150.498741835
 23
30.7228547004
  0
SOLID
  8
0
 62
7
  6
CONTINUOUS
 10
154.0831168074
 20
31.1100184386
 11
154.1987416972
 21
31.1745462761
 12
154.7768668074
 22
31.1422827828
 13
154.7768668074
 23
31.1422827828
  0
SOLID
  8
0
 62
7
  6
CONTINUOUS
 10
154.7768668074
 20
31.1422827828
 11
154.5456166972
 21
31.1100184386
 12
154.0831168074
 22
31.1100184386
 13
154.0831168074
 23
31.1100184386
  0
SOLID
  8
0
 62
7
  6
CONTINUOUS
 10
153.9674919177
 20
30.9809642992
 11
154.0831168074
 21
31.1100184386
 12
154.5456166972
 22
31.1100184386
 13
154.5456166972
 23
31.1100184386
  0
SOLID
  8
0
 62
7
  6
CONTINUOUS
 10
154.3143669177
 20
31.0132277988
 11
153.9674919177
 21
30.9809642992
 12
154.4299918074
 22
31.0777556927
 13
154.4299918074
 23
31.0777556927
  0
SOLID
  8
0
 62
7
  6
CONTINUOUS
 10
153.9674919177
 20
30.9809642992
 11
154.5456166972
 21
31.1100184796
 12
154.4299918074
 22
31.0777556927
 13
154.4299918074
 23
31.0777556927
  0
SOLID
  8
0
 62
7
  6
CONTINUOUS
 10
154.3143669177
 20
31.0132277988
 11
154.2565543074
 21
30.9164372091
 12
153.9674919177
 22
30.9809642992
 13
153.9674919177
 23
30.9809642992
  0
SOLID
  8
0
 62
7
  6
CONTINUOUS
 10
153.9674919177
 20
30.8841729058
 11
153.9674919177
 21
30.9809642992
 12
154.2565543074
 22
30.9164372091
 13
154.2565543074
 23
30.9164372091
  0
SOLID
  8
0
 62
7
  6
CONTINUOUS
 10
154.2565543074
 20
30.9164372091
 11
154.2565543074
 21
30.8519086025
 12
153.9674919177
 22
30.8841729058
 13
153.9674919177
 23
30.8841729058
  0
SOLID
  8
0
 62
7
  6
CONTINUOUS
 10
154.0253041972
 20
30.7551187255
 11
153.9674919177
 21
30.8841729058
 12
154.2565543074
 22
30.8519086025
 13
154.2565543074
 23
30.8519086025
  0
SOLID
  8
0
 62
7
  6
CONTINUOUS
 10
155.412804528
 20
30.9487004259
 11
155.7018665869
 21
30.8519086025
 12
155.3549915869
 22
30.8841729058
 13
155.3549915869
 23
30.8841729058
  0
SOLID
  8
0
 62
7
  6
CONTINUOUS
 10
155.1815540869
 20
30.7873815123
 11
155.3549915869
 21
30.8841729058
 12
155.7018665869
 22
30.8519086025
 13
155.7018665869
 23
30.8519086025
  0
SOLID
  8
0
 62
7
  6
CONTINUOUS
 10
155.1815540869
 20
30.7873815123
 11
155.7018665869
 21
30.8519086025
 12
155.412804528
 22
30.7551187255
 13
155.412804528
 23
30.7551187255
  0
SOLID
  8
0
 62
7
  6
CONTINUOUS
 10
155.7018665869
 20
30.8519086025
 11
155.759679528
 21
30.6905916353
 12
155.412804528
 22
30.7551187255
 13
155.412804528
 23
30.7551187255
  0
SOLID
  8
0
 62
7
  6
CONTINUOUS
 10
155.4706168074
 20
30.658327332
 11
155.412804528
 21
30.7551187255
 12
155.759679528
 22
30.6905916353
 13
155.759679528
 23
30.6905916353
  0
SOLID
  8
0
 62
7
  6
CONTINUOUS
 10
155.4706168074
 20
30.658327332
 11
155.759679528
 21
30.6905916353
 12
155.5284290869
 22
30.5938002079
 13
155.5284290869
 23
30.5938002079
  0
SOLID
  8
0
 62
7
  6
CONTINUOUS
 10
155.759679528
 20
30.6905916353
 11
155.8174918074
 21
30.5938002079
 12
155.5284290869
 22
30.5938002079
 13
155.5284290869
 23
30.5938002079
  0
SOLID
  8
0
 62
7
  6
CONTINUOUS
 10
151.0768668626
 20
30.8196456577
 11
151.1346793074
 21
30.9164373395
 12
151.4237418626
 22
30.9164373395
 13
151.4237418626
 23
30.9164373395
  0
SOLID
  8
0
 62
7
  6
CONTINUOUS
 10
151.4237418626
 20
30.9164373395
 11
151.3659292523
 21
30.7873815123
 12
151.0768668626
 22
30.8196456577
 13
151.0768668626
 23
30.8196456577
  0
SOLID
  8
0
 62
7
  6
CONTINUOUS
 10
150.9034292799
 20
30.7551187255
 11
151.0768668626
 21
30.8196456577
 12
151.3659292523
 22
30.7873815123
 13
151.3659292523
 23
30.7873815123
  0
SOLID
  8
0
 62
7
  6
CONTINUOUS
 10
150.9034292799
 20
30.7551187255
 11
151.3659292523
 21
30.7873815123
 12
150.498741835
 22
30.7228544222
 13
150.498741835
 23
30.7228544222
  0
SOLID
  8
0
 62
7
  6
CONTINUOUS
 10
151.3659292523
 20
30.7873815123
 11
151.1924917523
 21
30.6905916353
 12
150.498741835
 22
30.7228544222
 13
150.498741835
 23
30.7228544222
  0
SOLID
  8
0
 62
7
  6
CONTINUOUS
 10
150.0362418212
 20
30.658327332
 11
150.498741835
 21
30.7228544222
 12
151.1924917523
 22
30.6905916353
 13
151.1924917523
 23
30.6905916353
  0
SOLID
  8
0
 62
7
  6
CONTINUOUS
 10
150.0362418212
 20
30.658327332
 11
151.1924917523
 21
30.6905916353
 12
150.2096793212
 22
30.6260631011
 13
150.2096793212
 23
30.6260631011
  0
SOLID
  8
0
 62
7
  6
CONTINUOUS
 10
151.1924917523
 20
30.6905916353
 11
150.9612418074
 21
30.6260631011
 12
150.2096793212
 22
30.6260631011
 13
150.2096793212
 23
30.6260631011
  0
SOLID
  8
0
 62
7
  6
CONTINUOUS
 10
150.5565542799
 20
30.5938002419
 11
150.2096793212
 21
30.6260631011
 12
150.9612418074
 22
30.6260631011
 13
150.9612418074
 23
30.6260631011
  0
SOLID
  8
0
 62
7
  6
CONTINUOUS
 10
154.0253041972
 20
30.7551187255
 11
154.2565543074
 21
30.8519086025
 12
154.3143669177
 22
30.7873815123
 13
154.3143669177
 23
30.7873815123
  0
SOLID
  8
0
 62
7
  6
CONTINUOUS
 10
154.3143669177
 20
30.7873815123
 11
154.5456166972
 21
30.7228544222
 12
154.0253041972
 22
30.7551187255
 13
154.0253041972
 23
30.7551187255
  0
SOLID
  8
0
 62
7
  6
CONTINUOUS
 10
154.1987416972
 20
30.658327332
 11
154.0253041972
 21
30.7551187255
 12
154.5456166972
 22
30.7228544222
 13
154.5456166972
 23
30.7228544222
  0
SOLID
  8
0
 62
7
  6
CONTINUOUS
 10
154.8924916972
 20
30.7228544637
 11
155.1815540869
 21
30.7873815123
 12
155.412804528
 22
30.7551187255
 13
155.412804528
 23
30.7551187255
  0
SOLID
  8
0
 62
7
  6
CONTINUOUS
 10
155.412804528
 20
30.7551187255
 11
155.3549915869
 21
30.6905916353
 12
154.8924916972
 22
30.7228544637
 13
154.8924916972
 23
30.7228544637
  0
SOLID
  8
0
 62
7
  6
CONTINUOUS
 10
155.3549915869
 20
30.6905916353
 11
154.1987416972
 21
30.658327332
 12
154.8924916972
 22
30.7228544637
 13
154.8924916972
 23
30.7228544637
  0
SOLID
  8
0
 62
7
  6
CONTINUOUS
 10
154.1987416972
 20
30.658327332
 11
154.5456166972
 21
30.7228544637
 12
154.8924916972
 22
30.7228544637
 13
154.8924916972
 23
30.7228544637
  0
SOLID
  8
0
 62
7
  6
CONTINUOUS
 10
154.1987416972
 20
30.658327332
 11
155.3549915869
 21
30.6905916353
 12
154.3143669177
 22
30.6260630541
 13
154.3143669177
 23
30.6260630541
  0
SOLID
  8
0
 62
7
  6
CONTINUOUS
 10
155.3549915869
 20
30.6905916353
 11
155.1815540869
 21
30.6260630541
 12
154.3143669177
 22
30.6260630541
 13
154.3143669177
 23
30.6260630541
  0
SOLID
  8
0
 62
7
  6
CONTINUOUS
 10
154.5456166972
 20
30.5938002188
 11
154.3143669177
 21
30.6260630541
 12
155.1815540869
 22
30.6260630541
 13
155.1815540869
 23
30.6260630541
  0
SOLID
  8
0
 62
7
  6
CONTINUOUS
 10
155.1815540869
 20
30.6260630541
 11
154.8924916972
 21
30.5938002188
 12
154.5456166972
 22
30.5938002188
 13
154.5456166972
 23
30.5938002188
  0
SOLID
  8
0
 62
7
  6
CONTINUOUS
 10
159.575304528
 20
30.7551187255
 11
159.228429528
 21
30.7228544637
 12
159.4596793074
 22
30.7873815123
 13
159.4596793074
 23
30.7873815123
  0
SOLID
  8
0
 62
7
  6
CONTINUOUS
 10
159.4596793074
 20
30.7873815123
 11
159.228429528
 21
30.7228544637
 12
159.401867028
 22
30.851908644
 13
159.401867028
 23
30.851908644
  0
SOLID
  8
0
 62
7
  6
CONTINUOUS
 10
159.228429528
 20
30.7228544637
 11
159.1128043074
 21
30.851908644
 12
159.401867028
 22
30.851908644
 13
159.401867028
 23
30.851908644
  0
SOLID
  8
0
 62
7
  6
CONTINUOUS
 10
159.575304528
 20
30.7551187255
 11
159.922179528
 21
30.7228544637
 12
159.228429528
 22
30.7228544637
 13
159.228429528
 23
30.7228544637
  0
SOLID
  8
0
 62
7
  6
CONTINUOUS
 10
156.279992028
 20
30.5938002419
 11
156.279992028
 21
31.6262382337
 12
156.5690540869
 22
30.5938002419
 13
156.5690540869
 23
31.6262382337
  0
ENDBLK
  8
0
  6
BYBLOCK
 62
0
  0
BLOCK
  8
0
 62
2
  6
CONTINUOUS
  2
SYMBOL_3_BL0
 70
64
 10
32.1213064866
 20
19.8534310916
  0
TEXT
  8
0
 62
7
  6
CONTINUOUS
 10
18.3860103289
 20
19.2268451992
  7
TEXTSTYLE_3
 40
2.7338706658
  1
Ammeraal Beltech
 41
1.0
 51
15.0
 72
0
  0
TEXT
  8
0
 62
7
  6
CONTINUOUS
 10
29.1868111546
 20
16.9533085264
  7
TEXTSTYLE_4
 40
1.0935482663
  1
Innovation & Service in Belting
 41
1.0
 72
0
  0
LINE
  8
0
 62
7
  6
CONTINUOUS
 10
12.3614696776
 20
19.9934385078
 11
13.1396216709
 21
23.6543558055
  0
LINE
  8
0
 62
7
  6
CONTINUOUS
 10
23.2347899607
 20
27.3177497171
 11
13.6274394139
 21
24.1961322958
  0
LINE
  8
0
 62
7
  6
CONTINUOUS
 10
12.5867530099
 20
19.3000877048
 11
20.093828271
 21
12.5406867788
  0
LINE
  8
0
 62
7
  6
CONTINUOUS
 10
12.8492874206
 20
20.5352149982
 11
23.6575567857
 21
24.0470345971
  0
LINE
  8
0
 62
7
  6
CONTINUOUS
 10
23.6533516486
 20
13.6972460334
 11
15.2078919798
 21
21.3015720751
  0
LINE
  8
0
 62
7
  6
CONTINUOUS
 10
24.1731743684
 20
26.4728246013
 11
23.1966148312
 21
21.8784731989
  0
LINE
  8
0
 62
7
  6
CONTINUOUS
 10
22.4968128835
 20
18.5861638851
 11
21.810364672
 21
15.3566789607
  0
LINE
  8
0
 62
7
  6
CONTINUOUS
 10
24.8542704669
 20
14.087448211
 11
25.8105020025
 21
18.5861638851
  0
LINE
  8
0
 62
7
  6
CONTINUOUS
 10
26.5103039502
 20
21.8784731989
 11
26.9545457526
 21
23.9684665583
  0
LINE
  8
0
 62
7
  6
CONTINUOUS
 10
20.8069293463
 20
12.3891124661
 11
24.3664527239
 21
13.5456717207
  0
LINE
  8
0
 62
7
  6
CONTINUOUS
 10
23.9478910361
 20
27.1661754044
 11
26.7292624203
 21
24.6618173613
  0
ARC
  8
0
 62
7
  6
CONTINUOUS
 10
13.8527227462
 20
23.5027814928
 40
0.7290321776
 50
108.0
 51
168.0
  0
ARC
  8
0
 62
7
  6
CONTINUOUS
 10
23.4600732931
 20
26.624398914
 40
0.7290321776
 50
348.0
 51
108.0
  0
ARC
  8
0
 62
7
  6
CONTINUOUS
 10
26.2414446773
 20
24.120040871
 40
0.7290321776
 50
348.0
 51
48.0
  0
ARC
  8
0
 62
7
  6
CONTINUOUS
 10
20.581646014
 20
13.0824632691
 40
0.7290321776
 50
228.0
 51
288.0
  0
ARC
  8
0
 62
7
  6
CONTINUOUS
 10
13.0745707529
 20
19.8418641951
 40
0.7290321776
 50
108.0
 51
228.0
  0
ARC
  8
0
 62
7
  6
CONTINUOUS
 10
24.1411693916
 20
14.2390225237
 40
0.7290321776
 50
228.0
 51
348.0
  0
ENDBLK
  8
0
  6
BYBLOCK
 62
0
  0
ENDSEC
  0
SECTION
  2
ENTITIES
  0
TEXT
  8
0
 62
5
  6
CONTINUOUS
 10
96.0
 20
25.636
  7
TEXTSTYLE_2
 40
2.8
  1
Scale :
 41
0.6
 51
0.000019
 72
0
  0
TEXT
  8
0
 62
5
  6
CONTINUOUS
 10
116.0
 20
25.636
  7
TEXTSTYLE_2
 40
2.8
  1
Belt type:
 41
0.6
 51
0.000019
 72
0
  0
INSERT
  8
0
 62
2
  6
CONTINUOUS
  2
SYMBOL_3_BL0
 10
32.1213064866
 20
19.8534310916
  0
INSERT
  8
0
 62
2
  6
CONTINUOUS
  2
SYMBOL_8_BL1
 10
173.5956734183
 20
35.5937998301
  0
LINE
  8
0
 62
2
  6
CONTINUOUS
 10
10.0
 20
30.0
 11
200.0
 21
30.0
  0
LINE
  8
0
 62
2
  6
CONTINUOUS
 10
10.0
 20
30.0
 11
10.0
 21
10.0
  0
LINE
  8
0
 62
2
  6
CONTINUOUS
 10
10.0
 20
10.0
 11
200.0
 21
10.0
  0
LINE
  8
0
 62
2
  6
CONTINUOUS
 10
95.0
 20
30.0
 11
95.0
 21
10.0
  0
LINE
  8
0
 62
2
  6
CONTINUOUS
 10
115.0
 20
30.0
 11
115.0
 21
10.0
  0
LINE
  8
0
 62
2
  6
CONTINUOUS
 10
200.0
 20
30.0
 11
200.0
 21
10.0
  0
TEXT
  8
0
 62
5
  6
CONTINUOUS
 10
13.0
 20
23.303
  7
TEXTSTYLE_5
 40
1.52
  1
                                                                     Ammeraal Beltech Modular A/S
 41
1.0
 72
0
  0
TEXT
  8
0
 62
5
  6
CONTINUOUS
 10
13.0
 20
20.595
  7
TEXTSTYLE_5
 40
1.5
  1
                                                                      Hjulmagervej 21 DK-7100 Vejle
 41
1.0
 72
0
  0
TEXT
  8
0
 62
5
  6
CONTINUOUS
 10
13.0
 20
17.881
  7
TEXTSTYLE_5
 40
1.495
  1
                                                                      tel: 
 41
1.0
 72
0
  0
TEXT
  8
0
 62
5
  6
CONTINUOUS
 10
57.9869465649
 20
17.881
  7
TEXTSTYLE_5
 40
1.51
  1
+45 75723100     fax: +45 75723348
 41
1.0
 72
0
  0
TEXT
  8
0
 62
5
  6
CONTINUOUS
 10
13.0
 20
15.177
  7
TEXTSTYLE_5
 40
1.5
  1
                                                                      admin@unichains.dk  www.unichains.com
 41
1.0
 72
0
  0
TEXT
  8
0
 62
5
  6
CONTINUOUS
 10
98.0
 20
13.75
  7
TEXTSTYLE_5
 40
3.0
  1
1:1
 41
1.0
 72
0
  0
TEXT
  8
0
 62
5
  6
CONTINUOUS
 10
118.0
 20
13.75
  7
TEXTSTYLE_5
 40
4.5
  1
uni M-SNB M3 K300
 41
1.0
 72
0
  0
LINE
  8
0
 62
7
  6
CONTINUOUS
 10
210.0
 20
0.0
 11
0.0
 21
0.0
  0
LINE
  8
0
 62
7
  6
CONTINUOUS
 10
10.0
 20
10.0
 11
200.0
 21
10.0
  0
LINE
  8
0
 62
7
  6
CONTINUOUS
 10
10.0
 20
30.0
 11
200.0
 21
30.0
  0
LINE
  8
0
 62
7
  6
CONTINUOUS
 10
0.0
 20
0.0
 11
0.0
 21
297.0
  0
LINE
  8
0
 62
7
  6
CONTINUOUS
 10
10.0
 20
10.0
 11
10.0
 21
287.0
  0
LINE
  8
0
 62
7
  6
CONTINUOUS
 10
200.0
 20
287.0
 11
200.0
 21
10.0
  0
LINE
  8
0
 62
7
  6
CONTINUOUS
 10
210.0
 20
0.0
 11
210.0
 21
297.0
  0
LINE
  8
0
 62
7
  6
CONTINUOUS
 10
10.0
 20
287.0
 11
200.0
 21
287.0
  0
LINE
  8
0
 62
7
  6
CONTINUOUS
 10
0.0
 20
297.0
 11
210.0
 21
297.0
  0
LINE
  8
0
 62
7
  6
CONTINUOUS
 10
42.0513033175
 20
141.7060658238
 11
42.0513033175
 21
133.3010661964
  0
POLYLINE
  8
0
 62
7
  6
CONTINUOUS
 66
1
 70
0
  0
VERTEX
  8
0
 62
7
  6
CONTINUOUS
 10
48.4013033175
 20
122.3460289331
  0
VERTEX
  8
0
 62
7
  6
CONTINUOUS
 10
48.4129352643
 20
122.188689053
  0
VERTEX
  8
0
 62
7
  6
CONTINUOUS
 10
48.4475783941
 20
122.034769288
  0
VERTEX
  8
0
 62
7
  6
CONTINUOUS
 10
48.5044795433
 20
121.8876168648
  0
VERTEX
  8
0
 62
7
  6
CONTINUOUS
 10
48.5824015902
 20
121.7504313652
  0
VERTEX
  8
0
 62
7
  6
CONTINUOUS
 10
48.6796503665
 20
121.6261956467
  0
VERTEX
  8
0
 62
7
  6
CONTINUOUS
 10
48.7941114782
 20
121.5176110176
  0
VERTEX
  8
0
 62
7
  6
CONTINUOUS
 10
48.9232962934
 20
121.4270384845
  0
VERTEX
  8
0
 62
7
  6
CONTINUOUS
 10
49.0643960549
 20
121.3564474263
  0
VERTEX
  8
0
 62
7
  6
CONTINUOUS
 10
49.2143429197
 20
121.3073727916
  0
VERTEX
  8
0
 62
7
  6
CONTINUOUS
 10
49.3698766524
 20
121.2808817102
  0
VERTEX
  8
0
 62
7
  6
CONTINUOUS
 10
49.4712774755
 20
121.276066073
  0
SEQEND
  0
LINE
  8
0
 62
7
  6
CONTINUOUS
 10
48.0513033175
 20
134.5660661963
 11
48.0513033175
 21
141.7060971177
  0
LINE
  8
0
 62
7
  6
CONTINUOUS
 10
48.4013033175
 20
129.4860661964
 11
48.4013033175
 21
122.3460318357
  0
POLYLINE
  8
0
 62
7
  6
CONTINUOUS
 66
1
 70
0
  0
VERTEX
  8
0
 62
7
  6
CONTINUOUS
 10
48.0513033175
 20
141.7060950152
  0
VERTEX
  8
0
 62
7
  6
CONTINUOUS
 10
48.0396743855
 20
141.8634149972
  0
VERTEX
  8
0
 62
7
  6
CONTINUOUS
 10
48.0050401342
 20
142.0173164629
  0
VERTEX
  8
0
 62
7
  6
CONTINUOUS
 10
47.9481533042
 20
142.1644533057
  0
VERTEX
  8
0
 62
7
  6
CONTINUOUS
 10
47.8702503812
 20
142.3016270585
  0
VERTEX
  8
0
 62
7
  6
CONTINUOUS
 10
47.7730246869
 20
142.4258558714
  0
VERTEX
  8
0
 62
7
  6
CONTINUOUS
 10
47.6585895806
 20
142.5344392826
  0
VERTEX
  8
0
 62
7
  6
CONTINUOUS
 10
47.5294324947
 20
142.6250169392
  0
VERTEX
  8
0
 62
7
  6
CONTINUOUS
 10
47.3883608585
 20
142.6956198873
  0
VERTEX
  8
0
 62
7
  6
CONTINUOUS
 10
47.2384410974
 20
142.7447133487
  0
VERTEX
  8
0
 62
7
  6
CONTINUOUS
 10
47.0829319826
 20
142.7712300893
  0
VERTEX
  8
0
 62
7
  6
CONTINUOUS
 10
46.9813212021
 20
142.7760656893
  0
SEQEND
  0
LINE
  8
0
 62
7
  6
CONTINUOUS
 10
50.5513033175
 20
125.9760661964
 11
50.5513033175
 21
130.9510661964
  0
LINE
  8
0
 62
7
  6
CONTINUOUS
 10
52.2513033175
 20
130.9510661964
 11
52.2513033175
 21
125.9760661964
  0
LINE
  8
0
 62
7
  6
CONTINUOUS
 10
53.5763033175
 20
122.3460106856
 11
53.5763033175
 21
127.9510661964
  0
LINE
  8
0
 62
7
  6
CONTINUOUS
 10
55.5763033175
 20
141.7060725126
 11
55.5763033175
 21
134.5660661963
  0
LINE
  8
0
 62
7
  6
CONTINUOUS
 10
56.9013033175
 20
133.1010661964
 11
56.9013033175
 21
138.0760661964
  0
LINE
  8
0
 62
7
  6
CONTINUOUS
 10
58.6013033175
 20
138.0760661964
 11
58.6013033175
 21
133.1010661964
  0
LINE
  8
0
 62
7
  6
CONTINUOUS
 10
50.5513033175
 20
130.9510661964
 11
50.0513033175
 21
131.4510661964
  0
POLYLINE
  8
0
 62
7
  6
CONTINUOUS
 66
1
 70
0
  0
VERTEX
  8
0
 62
7
  6
CONTINUOUS
 10
61.1013033175
 20
122.346039118
  0
VERTEX
  8
0
 62
7
  6
CONTINUOUS
 10
61.112932399
 20
122.1887179276
  0
VERTEX
  8
0
 62
7
  6
CONTINUOUS
 10
61.1475670752
 20
122.0348153884
  0
VERTEX
  8
0
 62
7
  6
CONTINUOUS
 10
61.2044545818
 20
121.8876776201
  0
VERTEX
  8
0
 62
7
  6
CONTINUOUS
 10
61.2823584008
 20
121.750503135
  0
VERTEX
  8
0
 62
7
  6
CONTINUOUS
 10
61.3795851695
 20
121.6262738248
  0
VERTEX
  8
0
 62
7
  6
CONTINUOUS
 10
61.4940214801
 20
121.517690185
  0
VERTEX
  8
0
 62
7
  6
CONTINUOUS
 10
61.6231798443
 20
121.4271125946
  0
VERTEX
  8
0
 62
7
  6
CONTINUOUS
 10
61.7642527712
 20
121.3565100233
  0
VERTEX
  8
0
 62
7
  6
CONTINUOUS
 10
61.9141737709
 20
121.3074172525
  0
VERTEX
  8
0
 62
7
  6
CONTINUOUS
 10
62.069684008
 20
121.2809015074
  0
VERTEX
  8
0
 62
7
  6
CONTINUOUS
 10
62.1712864836
 20
121.2760667013
  0
SEQEND
  0
POLYLINE
  8
0
 62
7
  6
CONTINUOUS
 66
1
 70
0
  0
VERTEX
  8
0
 62
7
  6
CONTINUOUS
 10
60.7513033175
 20
141.7060674366
  0
VERTEX
  8
0
 62
7
  6
CONTINUOUS
 10
60.7396744929
 20
141.8633899814
  0
VERTEX
  8
0
 62
7
  6
CONTINUOUS
 10
60.7050408175
 20
142.017292941
  0
VERTEX
  8
0
 62
7
  6
CONTINUOUS
 10
60.6481550939
 20
142.1644310606
  0
VERTEX
  8
0
 62
7
  6
CONTINUOUS
 10
60.5702537978
 20
142.3016061282
  0
VERTEX
  8
0
 62
7
  6
CONTINUOUS
 10
60.4730302015
 20
142.42583649
  0
VERTEX
  8
0
 62
7
  6
CONTINUOUS
 10
60.3585975697
 20
142.5344218595
  0
VERTEX
  8
0
 62
7
  6
CONTINUOUS
 10
60.2294432242
 20
142.625002012
  0
VERTEX
  8
0
 62
7
  6
CONTINUOUS
 10
60.0883744801
 20
142.6956080865
  0
VERTEX
  8
0
 62
7
  6
CONTINUOUS
 10
59.9384576253
 20
142.7447053809
  0
VERTEX
  8
0
 62
7
  6
CONTINUOUS
 10
59.7829512715
 20
142.7712267108
  0
VERTEX
  8
0
 62
7
  6
CONTINUOUS
 10
59.6813050285
 20
142.7760656787
  0
SEQEND
  0
LINE
  8
0
 62
7
  6
CONTINUOUS
 10
60.7513033175
 20
134.5660661964
 11
60.7513033175
 21
141.70606939
  0
LINE
  8
0
 62
7
  6
CONTINUOUS
 10
61.1013033175
 20
129.4860661965
 11
61.1013033175
 21
122.3460371387
  0
LINE
  8
0
 62
7
  6
CONTINUOUS
 10
52.2513033175
 20
130.9510661964
 11
52.7513033175
 21
131.4510661964
  0
LINE
  8
0
 62
7
  6
CONTINUOUS
 10
63.2513033175
 20
125.9760661964
 11
63.2513033175
 21
130.9510661964
  0
LINE
  8
0
 62
7
  6
CONTINUOUS
 10
64.3013033175
 20
129.2927011594
 11
64.3013033175
 21
129.5760661964
  0
LINE
  8
0
 62
7
  6
CONTINUOUS
 10
56.9013033175
 20
133.1010661964
 11
56.4013033175
 21
132.6010661964
  0
LINE
  8
0
 62
7
  6
CONTINUOUS
 10
64.9513033175
 20
130.9510661964
 11
64.9513033175
 21
125.9760661964
  0
LINE
  8
0
 62
7
  6
CONTINUOUS
 10
67.1013033175
 20
122.3460630598
 11
67.1013033175
 21
129.4860661964
  0
POLYLINE
  8
0
 62
7
  6
CONTINUOUS
 66
1
 70
0
  0
VERTEX
  8
0
 62
7
  6
CONTINUOUS
 10
116.8313009689
 20
121.276066197
  0
VERTEX
  8
0
 62
7
  6
CONTINUOUS
 10
116.9545163962
 20
121.2831842681
  0
VERTEX
  8
0
 62
7
  6
CONTINUOUS
 10
117.1073589491
 20
121.3122905079
  0
VERTEX
  8
0
 62
7
  6
CONTINUOUS
 10
117.2543644959
 20
121.3632550802
  0
VERTEX
  8
0
 62
7
  6
CONTINUOUS
 10
117.392424731
 20
121.4350003824
  0
VERTEX
  8
0
 62
7
  6
CONTINUOUS
 10
117.5186204902
 20
121.5260094202
  0
VERTEX
  8
0
 62
7
  6
CONTINUOUS
 10
117.6302834751
 20
121.6343578845
  0
VERTEX
  8
0
 62
7
  6
CONTINUOUS
 10
117.7250526698
 20
121.7577548376
  0
VERTEX
  8
0
 62
7
  6
CONTINUOUS
 10
117.8009242636
 20
121.8935911527
  0
VERTEX
  8
0
 62
7
  6
CONTINUOUS
 10
117.8562940217
 20
122.0389946846
  0
VERTEX
  8
0
 62
7
  6
CONTINUOUS
 10
117.8899912037
 20
122.1908909985
  0
VERTEX
  8
0
 62
7
  6
CONTINUOUS
 10
117.9013033175
 20
122.3460683008
  0
SEQEND
  0
LINE
  8
0
 62
7
  6
CONTINUOUS
 10
58.6013033175
 20
133.1010661964
 11
59.1013033175
 21
132.6010661964
  0
LINE
  8
0
 62
7
  6
CONTINUOUS
 10
64.7101021496
 20
128.0309538519
 11
64.5425044854
 21
128.3405317058
  0
LINE
  8
0
 62
7
  6
CONTINUOUS
 10
67.4513033175
 20
141.7060693386
 11
67.4513033175
 21
134.5660661964
  0
LINE
  8
0
 62
7
  6
CONTINUOUS
 10
69.6013033175
 20
133.1010661964
 11
69.6013033175
 21
138.0760661964
  0
POLYLINE
  8
0
 62
7
  6
CONTINUOUS
 66
1
 70
0
  0
VERTEX
  8
0
 62
7
  6
CONTINUOUS
 10
78.7313183891
 20
121.2760666918
  0
VERTEX
  8
0
 62
7
  6
CONTINUOUS
 10
78.8329256254
 20
121.280901949
  0
VERTEX
  8
0
 62
7
  6
CONTINUOUS
 10
78.9884354602
 20
121.3074183016
  0
VERTEX
  8
0
 62
7
  6
CONTINUOUS
 10
79.1383560281
 20
121.3565115674
  0
VERTEX
  8
0
 62
7
  6
CONTINUOUS
 10
79.2794285176
 20
121.4271145253
  0
VERTEX
  8
0
 62
7
  6
CONTINUOUS
 10
79.4085864605
 20
121.5176924022
  0
VERTEX
  8
0
 62
7
  6
CONTINUOUS
 10
79.5230223848
 20
121.6262762398
  0
VERTEX
  8
0
 62
7
  6
CONTINUOUS
 10
79.6202488199
 20
121.7505056757
  0
VERTEX
  8
0
 62
7
  6
CONTINUOUS
 10
79.6981523734
 20
121.8876802364
  0
VERTEX
  8
0
 62
7
  6
CONTINUOUS
 10
79.7550396922
 20
122.0348180554
  0
VERTEX
  8
0
 62
7
  6
CONTINUOUS
 10
79.789674263
 20
122.1887206522
  0
VERTEX
  8
0
 62
7
  6
CONTINUOUS
 10
79.8013033175
 20
122.3460419973
  0
SEQEND
  0
POLYLINE
  8
0
 62
7
  6
CONTINUOUS
 66
1
 70
0
  0
VERTEX
  8
0
 62
7
  6
CONTINUOUS
 10
103.3063368558
 20
121.2760664067
  0
VERTEX
  8
0
 62
7
  6
CONTINUOUS
 10
103.4076224048
 20
121.280871046
  0
VERTEX
  8
0
 62
7
  6
CONTINUOUS
 10
103.56316974
 20
121.3073478886
  0
VERTEX
  8
0
 62
7
  6
CONTINUOUS
 10
103.7131313527
 20
121.3564119061
  0
VERTEX
  8
0
 62
7
  6
CONTINUOUS
 10
103.8542462553
 20
121.4269959777
  0
VERTEX
  8
0
 62
7
  6
CONTINUOUS
 10
103.9834458771
 20
121.517565026
  0
VERTEX
  8
0
 62
7
  6
CONTINUOUS
 10
104.0979207831
 20
121.6261494156
  0
VERTEX
  8
0
 62
7
  6
CONTINUOUS
 10
104.1951817174
 20
121.75038775
  0
VERTEX
  8
0
 62
7
  6
CONTINUOUS
 10
104.2731137436
 20
121.8875781975
  0
VERTEX
  8
0
 62
7
  6
CONTINUOUS
 10
104.3300222739
 20
122.034737284
  0
VERTEX
  8
0
 62
7
  6
CONTINUOUS
 10
104.364669895
 20
122.1886646988
  0
VERTEX
  8
0
 62
7
  6
CONTINUOUS
 10
104.3763033175
 20
122.346012126
  0
SEQEND
  0
LINE
  8
0
 62
7
  6
CONTINUOUS
 10
116.8313484395
 20
121.2760661964
 11
112.9711220759
 21
121.2760661964
  0
LINE
  8
0
 62
7
  6
CONTINUOUS
 10
103.3064807751
 20
121.2760661964
 11
100.271137036
 21
121.2760661964
  0
LINE
  8
0
 62
7
  6
CONTINUOUS
 10
91.4314695639
 20
121.2760661964
 11
87.5711203001
 21
121.2760661964
  0
LINE
  8
0
 62
7
  6
CONTINUOUS
 10
78.7314831576
 20
121.2760661964
 11
74.8711370349
 21
121.2760661964
  0
LINE
  8
0
 62
7
  6
CONTINUOUS
 10
66.0314695644
 20
121.2760661964
 11
62.1711219255
 21
121.2760661964
  0
LINE
  8
0
 62
7
  6
CONTINUOUS
 10
52.5064807654
 20
121.2760661964
 11
49.4712585969
 21
121.2760661964
  0
LINE
  8
0
 62
7
  6
CONTINUOUS
 10
63.2513033175
 20
130.9510661964
 11
62.7513033175
 21
131.4510661964
  0
LINE
  8
0
 62
7
  6
CONTINUOUS
 10
70.2713033175
 20
134.7594312334
 11
70.2713033175
 21
134.4760661964
  0
LINE
  8
0
 62
7
  6
CONTINUOUS
 10
71.3013033175
 20
138.0760661964
 11
71.3013033175
 21
133.1010661964
  0
LINE
  8
0
 62
7
  6
CONTINUOUS
 10
64.9513033175
 20
130.9510661964
 11
65.4513033175
 21
131.4510661964
  0
LINE
  8
0
 62
7
  6
CONTINUOUS
 10
69.6013033175
 20
133.1010661964
 11
69.1013033175
 21
132.6010661964
  0
POLYLINE
  8
0
 62
7
  6
CONTINUOUS
 66
1
 70
0
  0
VERTEX
  8
0
 62
7
  6
CONTINUOUS
 10
52.5063368315
 20
121.2760664067
  0
VERTEX
  8
0
 62
7
  6
CONTINUOUS
 10
52.6076218782
 20
121.2808709983
  0
VERTEX
  8
0
 62
7
  6
CONTINUOUS
 10
52.7631692772
 20
121.30734778
  0
VERTEX
  8
0
 62
7
  6
CONTINUOUS
 10
52.9131309602
 20
121.3564117541
  0
VERTEX
  8
0
 62
7
  6
CONTINUOUS
 10
53.0542459359
 20
121.4269958002
  0
VERTEX
  8
0
 62
7
  6
CONTINUOUS
 10
53.1834456299
 20
121.5175648403
  0
VERTEX
  8
0
 62
7
  6
CONTINUOUS
 10
53.2979206037
 20
121.6261492384
  0
VERTEX
  8
0
 62
7
  6
CONTINUOUS
 10
53.3951815983
 20
121.7503875961
  0
VERTEX
  8
0
 62
7
  6
CONTINUOUS
 10
53.4731136746
 20
121.8875780798
  0
VERTEX
  8
0
 62
7
  6
CONTINUOUS
 10
53.5300222425
 20
122.0347372127
  0
VERTEX
  8
0
 62
7
  6
CONTINUOUS
 10
53.564669887
 20
122.1886646813
  0
VERTEX
  8
0
 62
7
  6
CONTINUOUS
 10
53.5763033175
 20
122.3460121674
  0
SEQEND
  0
POLYLINE
  8
0
 62
7
  6
CONTINUOUS
 66
1
 70
0
  0
VERTEX
  8
0
 62
7
  6
CONTINUOUS
 10
73.8013033175
 20
122.3460649576
  0
VERTEX
  8
0
 62
7
  6
CONTINUOUS
 10
73.8129321419
 20
122.188742414
  0
VERTEX
  8
0
 62
7
  6
CONTINUOUS
 10
73.8475658166
 20
122.0348394556
  0
VERTEX
  8
0
 62
7
  6
CONTINUOUS
 10
73.904451539
 20
121.887701337
  0
VERTEX
  8
0
 62
7
  6
CONTINUOUS
 10
73.9823528337
 20
121.7505262702
  0
VERTEX
  8
0
 62
7
  6
CONTINUOUS
 10
74.0795764281
 20
121.6262959089
  0
VERTEX
  8
0
 62
7
  6
CONTINUOUS
 10
74.1940090579
 20
121.5177105393
  0
VERTEX
  8
0
 62
7
  6
CONTINUOUS
 10
74.3231634012
 20
121.4271303863
  0
VERTEX
  8
0
 62
7
  6
CONTINUOUS
 10
74.4642321431
 20
121.3565243108
  0
VERTEX
  8
0
 62
7
  6
CONTINUOUS
 10
74.6141489957
 20
121.3074270149
  0
VERTEX
  8
0
 62
7
  6
CONTINUOUS
 10
74.7696553475
 20
121.2809056829
  0
VERTEX
  8
0
 62
7
  6
CONTINUOUS
 10
74.8713016071
 20
121.2760667133
  0
SEQEND
  0
POLYLINE
  8
0
 62
7
  6
CONTINUOUS
 66
1
 70
0
  0
VERTEX
  8
0
 62
7
  6
CONTINUOUS
 10
73.4513033175
 20
141.7060898382
  0
VERTEX
  8
0
 62
7
  6
CONTINUOUS
 10
73.4396742529
 20
141.8634113287
  0
VERTEX
  8
0
 62
7
  6
CONTINUOUS
 10
73.4050396574
 20
142.0173140368
  0
VERTEX
  8
0
 62
7
  6
CONTINUOUS
 10
73.3481523029
 20
142.1644519495
  0
VERTEX
  8
0
 62
7
  6
CONTINUOUS
 10
73.2702487053
 20
142.3016265871
  0
VERTEX
  8
0
 62
7
  6
CONTINUOUS
 10
73.1730222207
 20
142.4258560832
  0
VERTEX
  8
0
 62
7
  6
CONTINUOUS
 10
73.0585862442
 20
142.5344399647
  0
VERTEX
  8
0
 62
7
  6
CONTINUOUS
 10
72.9294282493
 20
142.6250178695
  0
VERTEX
  8
0
 62
7
  6
CONTINUOUS
 10
72.7883557117
 20
142.6956208399
  0
VERTEX
  8
0
 62
7
  6
CONTINUOUS
 10
72.6384351029
 20
142.7447141041
  0
VERTEX
  8
0
 62
7
  6
CONTINUOUS
 10
72.4829252372
 20
142.7712304432
  0
VERTEX
  8
0
 62
7
  6
CONTINUOUS
 10
72.3813181648
 20
142.7760656866
  0
SEQEND
  0
LINE
  8
0
 62
7
  6
CONTINUOUS
 10
73.4513033175
 20
134.5660661963
 11
73.4513033175
 21
141.7060918287
  0
LINE
  8
0
 62
7
  6
CONTINUOUS
 10
73.8013033175
 20
129.4860661964
 11
73.8013033175
 21
122.3460629998
  0
LINE
  8
DEFAULT_1
 62
2
  6
CENTER
 10
46.4013033175
 20
125.6760661964
 11
119.9013033175
 21
125.6760661964
  0
LINE
  8
0
 62
7
  6
CONTINUOUS
 10
71.3013033175
 20
133.1010661964
 11
71.8013033175
 21
132.6010661964
  0
LINE
  8
0
 62
7
  6
CONTINUOUS
 10
69.8425044854
 20
136.0581215204
 11
70.0301021496
 21
135.711600687
  0
LINE
  8
0
 62
7
  6
CONTINUOUS
 10
75.9513033175
 20
125.9760661964
 11
75.9513033175
 21
130.9510661964
  0
LINE
  8
0
 62
7
  6
CONTINUOUS
 10
77.6513033175
 20
130.9510661964
 11
77.6513033175
 21
125.9760661964
  0
LINE
  8
0
 62
7
  6
CONTINUOUS
 10
90.3513033175
 20
128.2760661964
 11
89.9774044909
 21
128.2760661964
  0
LINE
  8
0
 62
7
  6
CONTINUOUS
 10
64.9513033175
 20
128.2760661964
 11
64.5774044909
 21
128.2760661964
  0
LINE
  8
0
 62
7
  6
CONTINUOUS
 10
75.9513033175
 20
130.9510661964
 11
75.4513033175
 21
131.4510661964
  0
LINE
  8
0
 62
7
  6
CONTINUOUS
 10
79.8013033175
 20
122.3460402971
 11
79.8013033175
 21
129.4860661964
  0
LINE
  8
0
 62
7
  6
CONTINUOUS
 10
80.1513033175
 20
141.706097182
 11
80.1513033175
 21
134.5660661963
  0
LINE
  8
0
 62
7
  6
CONTINUOUS
 10
77.6513033175
 20
130.9510661964
 11
78.1513033175
 21
131.4510661964
  0
LINE
  8
0
 62
7
  6
CONTINUOUS
 10
90.3513033175
 20
130.0760661964
 11
90.2013033175
 21
130.0760661964
  0
LINE
  8
0
 62
7
  6
CONTINUOUS
 10
64.8013033175
 20
130.0760661964
 11
64.9513033175
 21
130.0760661964
  0
LINE
  8
0
 62
7
  6
CONTINUOUS
 10
44.4013033175
 20
130.9510661964
 11
47.4266203417
 21
130.9510661964
  0
LINE
  8
0
 62
7
  6
CONTINUOUS
 10
50.5513033175
 20
130.9510661964
 11
52.2513033175
 21
130.9510661964
  0
LINE
  8
0
 62
7
  6
CONTINUOUS
 10
56.5763033175
 20
130.9510661964
 11
60.1266203417
 21
130.9510661964
  0
LINE
  8
0
 62
7
  6
CONTINUOUS
 10
63.2513033175
 20
130.9510661964
 11
64.9513033175
 21
130.9510661964
  0
LINE
  8
0
 62
7
  6
CONTINUOUS
 10
68.0759862934
 20
130.9510661964
 11
72.8266203417
 21
130.9510661964
  0
LINE
  8
0
 62
7
  6
CONTINUOUS
 10
75.9513033175
 20
130.9510661964
 11
77.6513033175
 21
130.9510661964
  0
LINE
  8
0
 62
7
  6
CONTINUOUS
 10
80.7759862934
 20
130.9510661964
 11
85.5266203417
 21
130.9510661964
  0
LINE
  8
0
 62
7
  6
CONTINUOUS
 10
88.6513033175
 20
130.9510661964
 11
90.3513033175
 21
130.9510661964
  0
LINE
  8
0
 62
7
  6
CONTINUOUS
 10
93.4759862934
 20
130.9510661964
 11
98.2266203417
 21
130.9510661964
  0
LINE
  8
0
 62
7
  6
CONTINUOUS
 10
101.3513033175
 20
130.9510661964
 11
103.0513033175
 21
130.9510661964
  0
LINE
  8
0
 62
7
  6
CONTINUOUS
 10
105.3509862934
 20
130.9510661964
 11
110.9266203417
 21
130.9510661964
  0
LINE
  8
0
 62
7
  6
CONTINUOUS
 10
82.3013033175
 20
133.1010661964
 11
82.3013033175
 21
138.0760661964
  0
LINE
  8
0
 62
7
  6
CONTINUOUS
 10
82.3013033175
 20
133.1010661964
 11
81.8013033175
 21
132.6010661964
  0
LINE
  8
0
 62
7
  6
CONTINUOUS
 10
115.5513030365
 20
133.1010661964
 11
112.5259864923
 21
133.1010661964
  0
LINE
  8
0
 62
7
  6
CONTINUOUS
 10
109.4013033175
 20
133.1010661964
 11
107.7013033175
 21
133.1010661964
  0
LINE
  8
0
 62
7
  6
CONTINUOUS
 10
103.3763033175
 20
133.1010661964
 11
99.8259862933
 21
133.1010661964
  0
LINE
  8
0
 62
7
  6
CONTINUOUS
 10
96.7013033175
 20
133.1010661964
 11
95.0013033175
 21
133.1010661964
  0
LINE
  8
0
 62
7
  6
CONTINUOUS
 10
91.8766203417
 20
133.1010661964
 11
87.1259862934
 21
133.1010661964
  0
LINE
  8
0
 62
7
  6
CONTINUOUS
 10
84.0013033175
 20
133.1010661964
 11
82.3013033175
 21
133.1010661964
  0
LINE
  8
0
 62
7
  6
CONTINUOUS
 10
79.1766203417
 20
133.1010661964
 11
74.4259862933
 21
133.1010661964
  0
LINE
  8
0
 62
7
  6
CONTINUOUS
 10
71.3013033175
 20
133.1010661964
 11
69.6013033175
 21
133.1010661964
  0
LINE
  8
0
 62
7
  6
CONTINUOUS
 10
66.4766203417
 20
133.1010661964
 11
61.7259862934
 21
133.1010661964
  0
LINE
  8
0
 62
7
  6
CONTINUOUS
 10
58.6013033175
 20
133.1010661964
 11
56.9013033175
 21
133.1010661964
  0
LINE
  8
0
 62
7
  6
CONTINUOUS
 10
54.6016203417
 20
133.1010661964
 11
49.0259862933
 21
133.1010661964
  0
LINE
  8
0
 62
7
  6
CONTINUOUS
 10
69.6013033175
 20
133.9760661964
 11
69.7713033175
 21
133.9760661964
  0
LINE
  8
0
 62
7
  6
CONTINUOUS
 10
95.0013033175
 20
133.9760661964
 11
95.1513033175
 21
133.9760661964
  0
LINE
  8
0
 62
7
  6
CONTINUOUS
 10
84.0013033175
 20
138.0760661964
 11
84.0013033175
 21
133.1010661964
  0
LINE
  8
0
 62
7
  6
CONTINUOUS
 10
95.3752021441
 20
135.7760661964
 11
95.0013033175
 21
135.7760661964
  0
LINE
  8
0
 62
7
  6
CONTINUOUS
 10
69.9952021441
 20
135.7760661964
 11
69.6013033175
 21
135.7760661964
  0
LINE
  8
0
 62
7
  6
CONTINUOUS
 10
84.0013033175
 20
133.1010661964
 11
84.5013033175
 21
132.6010661964
  0
LINE
  8
0
 62
7
  6
CONTINUOUS
 10
88.6513033175
 20
130.9510661964
 11
88.1513033175
 21
131.4510661964
  0
POLYLINE
  8
0
 62
7
  6
CONTINUOUS
 66
1
 70
0
  0
VERTEX
  8
0
 62
7
  6
CONTINUOUS
 10
86.5013033175
 20
122.3460362631
  0
VERTEX
  8
0
 62
7
  6
CONTINUOUS
 10
86.5129323838
 20
122.1887155163
  0
VERTEX
  8
0
 62
7
  6
CONTINUOUS
 10
86.5475670414
 20
122.0348132987
  0
VERTEX
  8
0
 62
7
  6
CONTINUOUS
 10
86.604454536
 20
121.8876758064
  0
VERTEX
  8
0
 62
7
  6
CONTINUOUS
 10
86.6823583541
 20
121.7505015679
  0
VERTEX
  8
0
 62
7
  6
CONTINUOUS
 10
86.7795851353
 20
121.6262724858
  0
VERTEX
  8
0
 62
7
  6
CONTINUOUS
 10
86.8940214715
 20
121.5176890664
  0
VERTEX
  8
0
 62
7
  6
CONTINUOUS
 10
87.0231798736
 20
121.4271116959
  0
VERTEX
  8
0
 62
7
  6
CONTINUOUS
 10
87.1642528508
 20
121.35650935
  0
VERTEX
  8
0
 62
7
  6
CONTINUOUS
 10
87.3141739113
 20
121.3074168169
  0
VERTEX
  8
0
 62
7
  6
CONTINUOUS
 10
87.4696842159
 20
121.2809013279
  0
VERTEX
  8
0
 62
7
  6
CONTINUOUS
 10
87.5712848192
 20
121.276066699
  0
SEQEND
  0
POLYLINE
  8
0
 62
7
  6
CONTINUOUS
 66
1
 70
0
  0
VERTEX
  8
0
 62
7
  6
CONTINUOUS
 10
86.1513033175
 20
141.7060674366
  0
VERTEX
  8
0
 62
7
  6
CONTINUOUS
 10
86.1396744929
 20
141.8633899814
  0
VERTEX
  8
0
 62
7
  6
CONTINUOUS
 10
86.1050408175
 20
142.017292941
  0
VERTEX
  8
0
 62
7
  6
CONTINUOUS
 10
86.0481550939
 20
142.1644310606
  0
VERTEX
  8
0
 62
7
  6
CONTINUOUS
 10
85.9702537978
 20
142.3016061282
  0
VERTEX
  8
0
 62
7
  6
CONTINUOUS
 10
85.8730302015
 20
142.42583649
  0
VERTEX
  8
0
 62
7
  6
CONTINUOUS
 10
85.7585975697
 20
142.5344218595
  0
VERTEX
  8
0
 62
7
  6
CONTINUOUS
 10
85.6294432242
 20
142.625002012
  0
VERTEX
  8
0
 62
7
  6
CONTINUOUS
 10
85.4883744801
 20
142.6956080865
  0
VERTEX
  8
0
 62
7
  6
CONTINUOUS
 10
85.3384576253
 20
142.7447053809
  0
VERTEX
  8
0
 62
7
  6
CONTINUOUS
 10
85.1829512715
 20
142.7712267108
  0
VERTEX
  8
0
 62
7
  6
CONTINUOUS
 10
85.0813050285
 20
142.7760656787
  0
SEQEND
  0
LINE
  8
0
 62
7
  6
CONTINUOUS
 10
86.1513033175
 20
134.5660661964
 11
86.1513033175
 21
141.70606939
  0
LINE
  8
0
 62
7
  6
CONTINUOUS
 10
86.5013033175
 20
129.4860661965
 11
86.5013033175
 21
122.3460342723
  0
LINE
  8
0
 62
7
  6
CONTINUOUS
 10
90.3513033175
 20
130.9510661964
 11
90.8513033175
 21
131.4510661964
  0
LINE
  8
DEFAULT_1
 62
2
  6
CENTER
 10
40.0513033175
 20
138.3760661964
 11
113.5513033175
 21
138.3760661964
  0
LINE
  8
0
 62
7
  6
CONTINUOUS
 10
90.1101021496
 20
128.0309538519
 11
89.9425044854
 21
128.3405317058
  0
LINE
  8
0
 62
7
  6
CONTINUOUS
 10
88.6513033175
 20
125.9760661964
 11
88.6513033175
 21
130.9510661964
  0
LINE
  8
0
 62
7
  6
CONTINUOUS
 10
89.7013033175
 20
129.2927011594
 11
89.7013033175
 21
129.5760661964
  0
LINE
  8
0
 62
7
  6
CONTINUOUS
 10
90.3513033175
 20
130.9510661964
 11
90.3513033175
 21
125.9760661964
  0
LINE
  8
0
 62
7
  6
CONTINUOUS
 10
95.0013033175
 20
133.1010661964
 11
94.5013033175
 21
132.6010661964
  0
POLYLINE
  8
0
 62
7
  6
CONTINUOUS
 66
1
 70
0
  0
VERTEX
  8
0
 62
7
  6
CONTINUOUS
 10
107.4462996984
 20
142.7760658106
  0
VERTEX
  8
0
 62
7
  6
CONTINUOUS
 10
107.344808108
 20
142.7712415869
  0
VERTEX
  8
0
 62
7
  6
CONTINUOUS
 10
107.1892830075
 20
142.7447391339
  0
VERTEX
  8
0
 62
7
  6
CONTINUOUS
 10
107.0393455884
 20
142.6956556018
  0
VERTEX
  8
0
 62
7
  6
CONTINUOUS
 10
106.898255544
 20
142.6250580961
  0
VERTEX
  8
0
 62
7
  6
CONTINUOUS
 10
106.7690802198
 20
142.5344814438
  0
VERTEX
  8
0
 62
7
  6
CONTINUOUS
 10
106.6546279287
 20
142.4258948239
  0
VERTEX
  8
0
 62
7
  6
CONTINUOUS
 10
106.5573869007
 20
142.3016589589
  0
VERTEX
  8
0
 62
7
  6
CONTINUOUS
 10
106.4794711875
 20
142.164474794
  0
VERTEX
  8
0
 62
7
  6
CONTINUOUS
 10
106.4225746995
 20
142.0173247742
  0
VERTEX
  8
0
 62
7
  6
CONTINUOUS
 10
106.3879343813
 20
141.8634080098
  0
VERTEX
  8
0
 62
7
  6
CONTINUOUS
 10
106.3763033175
 20
141.7060707767
  0
SEQEND
  0
POLYLINE
  8
0
 62
7
  6
CONTINUOUS
 66
1
 70
0
  0
VERTEX
  8
0
 62
7
  6
CONTINUOUS
 10
81.2212852694
 20
142.7760657029
  0
VERTEX
  8
0
 62
7
  6
CONTINUOUS
 10
81.1196846279
 20
142.7712310719
  0
VERTEX
  8
0
 62
7
  6
CONTINUOUS
 10
80.9641742774
 20
142.7447155724
  0
VERTEX
  8
0
 62
7
  6
CONTINUOUS
 10
80.8142531662
 20
142.6956230184
  0
VERTEX
  8
0
 62
7
  6
CONTINUOUS
 10
80.6731801354
 20
142.6250206401
  0
VERTEX
  8
0
 62
7
  6
CONTINUOUS
 10
80.5440216792
 20
142.5344432244
  0
VERTEX
  8
0
 62
7
  6
CONTINUOUS
 10
80.4295852909
 20
142.4258597471
  0
VERTEX
  8
0
 62
7
  6
CONTINUOUS
 10
80.3323584618
 20
142.3016305941
  0
VERTEX
  8
0
 62
7
  6
CONTINUOUS
 10
80.2544546021
 20
142.1644562714
  0
VERTEX
  8
0
 62
7
  6
CONTINUOUS
 10
80.1975670742
 20
142.0173186815
  0
VERTEX
  8
0
 62
7
  6
CONTINUOUS
 10
80.1629323935
 20
141.8634163517
  0
VERTEX
  8
0
 62
7
  6
CONTINUOUS
 10
80.1513033175
 20
141.7060954664
  0
SEQEND
  0
LINE
  8
0
 62
7
  6
CONTINUOUS
 10
110.4813480286
 20
142.7760661964
 11
107.4461518654
 21
142.7760661964
  0
LINE
  8
0
 62
7
  6
CONTINUOUS
 10
97.7814852694
 20
142.7760661964
 11
93.9211370658
 21
142.7760661964
  0
LINE
  8
0
 62
7
  6
CONTINUOUS
 10
85.0814695932
 20
142.7760661964
 11
81.2211203701
 21
142.7760661964
  0
LINE
  8
0
 62
7
  6
CONTINUOUS
 10
72.3814827164
 20
142.7760661964
 11
68.5211370658
 21
142.7760661964
  0
LINE
  8
0
 62
7
  6
CONTINUOUS
 10
59.6814695932
 20
142.7760661964
 11
56.6461517558
 21
142.7760661964
  0
LINE
  8
0
 62
7
  6
CONTINUOUS
 10
46.9814856551
 20
142.7760661964
 11
43.1212851191
 21
142.7760661964
  0
LINE
  8
0
 62
7
  6
CONTINUOUS
 10
92.5013033175
 20
122.3460630587
 11
92.5013033175
 21
129.4860661964
  0
LINE
  8
0
 62
7
  6
CONTINUOUS
 10
92.8513033175
 20
141.7060693386
 11
92.8513033175
 21
134.5660661964
  0
POLYLINE
  8
0
 62
7
  6
CONTINUOUS
 66
1
 70
0
  0
VERTEX
  8
0
 62
7
  6
CONTINUOUS
 10
56.64629957
 20
142.7760658103
  0
VERTEX
  8
0
 62
7
  6
CONTINUOUS
 10
56.5448062544
 20
142.771241422
  0
VERTEX
  8
0
 62
7
  6
CONTINUOUS
 10
56.3892813784
 20
142.7447387608
  0
VERTEX
  8
0
 62
7
  6
CONTINUOUS
 10
56.2393442065
 20
142.6956550814
  0
VERTEX
  8
0
 62
7
  6
CONTINUOUS
 10
56.0982544191
 20
142.6250574909
  0
VERTEX
  8
0
 62
7
  6
CONTINUOUS
 10
55.9690793489
 20
142.5344808153
  0
VERTEX
  8
0
 62
7
  6
CONTINUOUS
 10
55.8546272965
 20
142.4258942301
  0
VERTEX
  8
0
 62
7
  6
CONTINUOUS
 10
55.757386481
 20
142.3016584525
  0
VERTEX
  8
0
 62
7
  6
CONTINUOUS
 10
55.6794709443
 20
142.1644744201
  0
VERTEX
  8
0
 62
7
  6
CONTINUOUS
 10
55.6225745887
 20
142.0173245692
  0
VERTEX
  8
0
 62
7
  6
CONTINUOUS
 10
55.587934353
 20
141.863408
  0
VERTEX
  8
0
 62
7
  6
CONTINUOUS
 10
55.5763033175
 20
141.7060709804
  0
SEQEND
  0
POLYLINE
  8
0
 62
7
  6
CONTINUOUS
 66
1
 70
0
  0
VERTEX
  8
0
 62
7
  6
CONTINUOUS
 10
43.1213041049
 20
142.7760663038
  0
VERTEX
  8
0
 62
7
  6
CONTINUOUS
 10
43.0197072061
 20
142.7712320613
  0
VERTEX
  8
0
 62
7
  6
CONTINUOUS
 10
42.8641943497
 20
142.7447167157
  0
VERTEX
  8
0
 62
7
  6
CONTINUOUS
 10
42.7142704344
 20
142.6956236954
  0
VERTEX
  8
0
 62
7
  6
CONTINUOUS
 10
42.5731944285
 20
142.6250201651
  0
VERTEX
  8
0
 62
7
  6
CONTINUOUS
 10
42.4440329677
 20
142.5344408735
  0
VERTEX
  8
0
 62
7
  6
CONTINUOUS
 10
42.3295936946
 20
142.4258547911
  0
VERTEX
  8
0
 62
7
  6
CONTINUOUS
 10
42.2323642287
 20
142.3016223109
  0
VERTEX
  8
0
 62
7
  6
CONTINUOUS
 10
42.1544580919
 20
142.1644439396
  0
VERTEX
  8
0
 62
7
  6
CONTINUOUS
 10
42.0975687649
 20
142.0173015947
  0
VERTEX
  8
0
 62
7
  6
CONTINUOUS
 10
42.0629328756
 20
141.8633937863
  0
VERTEX
  8
0
 62
7
  6
CONTINUOUS
 10
42.0513033175
 20
141.7060661212
  0
SEQEND
  0
LINE
  8
0
 62
7
  6
CONTINUOUS
 10
96.7013033175
 20
133.1010661964
 11
97.2013033175
 21
132.6010661964
  0
LINE
  8
0
 62
7
  6
CONTINUOUS
 10
95.0013033175
 20
133.1010661964
 11
95.0013033175
 21
138.0760661964
  0
LINE
  8
0
 62
7
  6
CONTINUOUS
 10
95.6513033175
 20
134.7594312334
 11
95.6513033175
 21
134.4760661964
  0
LINE
  8
0
 62
7
  6
CONTINUOUS
 10
101.3513033175
 20
130.9510661964
 11
100.8513033175
 21
131.4510661964
  0
LINE
  8
0
 62
7
  6
CONTINUOUS
 10
95.2425044854
 20
136.0211785409
 11
95.4101021496
 21
135.711600687
  0
POLYLINE
  8
0
 62
7
  6
CONTINUOUS
 66
1
 70
0
  0
VERTEX
  8
0
 62
7
  6
CONTINUOUS
 10
99.2013033175
 20
122.3460649579
  0
VERTEX
  8
0
 62
7
  6
CONTINUOUS
 10
99.2129321419
 20
122.188742414
  0
VERTEX
  8
0
 62
7
  6
CONTINUOUS
 10
99.2475658167
 20
122.0348394553
  0
VERTEX
  8
0
 62
7
  6
CONTINUOUS
 10
99.3044515394
 20
121.8877013365
  0
VERTEX
  8
0
 62
7
  6
CONTINUOUS
 10
99.3823528343
 20
121.7505262694
  0
VERTEX
  8
0
 62
7
  6
CONTINUOUS
 10
99.479576429
 20
121.626295908
  0
VERTEX
  8
0
 62
7
  6
CONTINUOUS
 10
99.5940090592
 20
121.5177105384
  0
VERTEX
  8
0
 62
7
  6
CONTINUOUS
 10
99.7231634028
 20
121.4271303854
  0
VERTEX
  8
0
 62
7
  6
CONTINUOUS
 10
99.8642321451
 20
121.35652431
  0
VERTEX
  8
0
 62
7
  6
CONTINUOUS
 10
100.0141489981
 20
121.3074270143
  0
VERTEX
  8
0
 62
7
  6
CONTINUOUS
 10
100.1696553503
 20
121.2809056826
  0
VERTEX
  8
0
 62
7
  6
CONTINUOUS
 10
100.2713016073
 20
121.2760667133
  0
SEQEND
  0
LINE
  8
0
 62
7
  6
CONTINUOUS
 10
96.7013033175
 20
138.0760661964
 11
96.7013033175
 21
133.1010661964
  0
LINE
  8
0
 62
7
  6
CONTINUOUS
 10
103.0513033175
 20
130.9510661964
 11
103.5513033175
 21
131.4510661964
  0
POLYLINE
  8
0
 62
7
  6
CONTINUOUS
 66
1
 70
0
  0
VERTEX
  8
0
 62
7
  6
CONTINUOUS
 10
98.8513033175
 20
141.7060943251
  0
VERTEX
  8
0
 62
7
  6
CONTINUOUS
 10
98.8396743102
 20
141.863414895
  0
VERTEX
  8
0
 62
7
  6
CONTINUOUS
 10
98.8050398426
 20
142.0173168883
  0
VERTEX
  8
0
 62
7
  6
CONTINUOUS
 10
98.7481526669
 20
142.1644541861
  0
VERTEX
  8
0
 62
7
  6
CONTINUOUS
 10
98.6702492849
 20
142.3016282969
  0
VERTEX
  8
0
 62
7
  6
CONTINUOUS
 10
98.5730230393
 20
142.4258573486
  0
VERTEX
  8
0
 62
7
  6
CONTINUOUS
 10
98.4585873144
 20
142.5344408612
  0
VERTEX
  8
0
 62
7
  6
CONTINUOUS
 10
98.3294295711
 20
142.6250184681
  0
VERTEX
  8
0
 62
7
  6
CONTINUOUS
 10
98.1883572706
 20
142.6956212068
  0
VERTEX
  8
0
 62
7
  6
CONTINUOUS
 10
98.0384368713
 20
142.744714297
  0
VERTEX
  8
0
 62
7
  6
CONTINUOUS
 10
97.8829271778
 20
142.7712305089
  0
VERTEX
  8
0
 62
7
  6
CONTINUOUS
 10
97.7813207906
 20
142.7760656893
  0
SEQEND
  0
LINE
  8
0
 62
7
  6
CONTINUOUS
 10
98.8513033175
 20
134.5660661963
 11
98.8513033175
 21
141.7060962956
  0
LINE
  8
0
 62
7
  6
CONTINUOUS
 10
99.2013033175
 20
129.4860661964
 11
99.2013033175
 21
122.3460629981
  0
LINE
  8
0
 62
7
  6
CONTINUOUS
 10
101.3513033175
 20
125.9760661964
 11
101.3513033175
 21
130.9510661964
  0
LINE
  8
0
 62
7
  6
CONTINUOUS
 10
107.7013033175
 20
133.1010661964
 11
107.2013033175
 21
132.6010661964
  0
LINE
  8
0
 62
7
  6
CONTINUOUS
 10
103.0513033175
 20
130.9510661964
 11
103.0513033175
 21
125.9760661964
  0
LINE
  8
0
 62
7
  6
CONTINUOUS
 10
109.4013033175
 20
133.1010661964
 11
109.9013033175
 21
132.6010661964
  0
LINE
  8
0
 62
7
  6
CONTINUOUS
 10
104.3763033175
 20
122.3460106448
 11
104.3763033175
 21
129.4860661964
  0
LINE
  8
0
 62
7
  6
CONTINUOUS
 10
106.3763033175
 20
141.7060723092
 11
106.3763033175
 21
136.1010661964
  0
LINE
  8
0
 62
7
  6
CONTINUOUS
 10
107.7013033175
 20
133.1010661964
 11
107.7013033175
 21
138.0760661964
  0
POLYLINE
  8
0
 62
7
  6
CONTINUOUS
 66
1
 70
0
  0
VERTEX
  8
0
 62
7
  6
CONTINUOUS
 10
111.9013033175
 20
122.3460391728
  0
VERTEX
  8
0
 62
7
  6
CONTINUOUS
 10
111.9129323835
 20
122.18871808
  0
VERTEX
  8
0
 62
7
  6
CONTINUOUS
 10
111.9475670133
 20
122.0348156339
  0
VERTEX
  8
0
 62
7
  6
CONTINUOUS
 10
112.0044544445
 20
121.8876779461
  0
VERTEX
  8
0
 62
7
  6
CONTINUOUS
 10
112.0823581623
 20
121.7505035221
  0
VERTEX
  8
0
 62
7
  6
CONTINUOUS
 10
112.1795848085
 20
121.6262742479
  0
VERTEX
  8
0
 62
7
  6
CONTINUOUS
 10
112.2940209807
 20
121.5176906145
  0
VERTEX
  8
0
 62
7
  6
CONTINUOUS
 10
112.4231791971
 20
121.4271129971
  0
VERTEX
  8
0
 62
7
  6
CONTINUOUS
 10
112.5642519739
 20
121.3565103631
  0
VERTEX
  8
0
 62
7
  6
CONTINUOUS
 10
112.7141728285
 20
121.307417493
  0
VERTEX
  8
0
 62
7
  6
CONTINUOUS
 10
112.8696829332
 20
121.2809016126
  0
VERTEX
  8
0
 62
7
  6
CONTINUOUS
 10
112.9712865152
 20
121.2760667009
  0
SEQEND
  0
LINE
  8
0
 62
7
  6
CONTINUOUS
 10
109.4013033175
 20
138.0760661964
 11
109.4013033175
 21
133.1010661964
  0
LINE
  8
0
 62
7
  6
CONTINUOUS
 10
111.5513033175
 20
134.5659868069
 11
111.5513033175
 21
141.7060626937
  0
POLYLINE
  8
0
 62
7
  6
CONTINUOUS
 66
1
 70
0
  0
VERTEX
  8
0
 62
7
  6
CONTINUOUS
 10
111.5513033175
 20
141.7060641096
  0
VERTEX
  8
0
 62
7
  6
CONTINUOUS
 10
111.5399912039
 20
141.8612414091
  0
VERTEX
  8
0
 62
7
  6
CONTINUOUS
 10
111.5062940224
 20
142.0131377205
  0
VERTEX
  8
0
 62
7
  6
CONTINUOUS
 10
111.4509242653
 20
142.1585412501
  0
VERTEX
  8
0
 62
7
  6
CONTINUOUS
 10
111.3750526727
 20
142.294377563
  0
VERTEX
  8
0
 62
7
  6
CONTINUOUS
 10
111.2802834794
 20
142.4177745142
  0
VERTEX
  8
0
 62
7
  6
CONTINUOUS
 10
111.1686204963
 20
142.5261229767
  0
VERTEX
  8
0
 62
7
  6
CONTINUOUS
 10
111.0424247389
 20
142.6171320131
  0
VERTEX
  8
0
 62
7
  6
CONTINUOUS
 10
110.904364506
 20
142.6888773141
  0
VERTEX
  8
0
 62
7
  6
CONTINUOUS
 10
110.7573589614
 20
142.7398418856
  0
VERTEX
  8
0
 62
7
  6
CONTINUOUS
 10
110.6045164108
 20
142.7689481249
  0
VERTEX
  8
0
 62
7
  6
CONTINUOUS
 10
110.481300986
 20
142.7760661958
  0
SEQEND
  0
LINE
  8
0
 62
7
  6
CONTINUOUS
 10
111.9013033175
 20
129.4860661965
 11
111.9013033175
 21
122.3460370229
  0
LINE
  8
0
 62
7
  6
CONTINUOUS
 10
117.9013033175
 20
122.3460697422
 11
117.9013033175
 21
130.7510659154
  0
LINE
  8
0
 62
2
  6
CONTINUOUS
 10
163.1184169332
 20
125.6760661964
 11
161.3584169332
 21
125.6760661964
  0
LINE
  8
DEFAULT_1
 62
7
  6
CENTER
 10
157.8384169332
 20
125.6760661964
 11
157.6384169332
 21
125.6760661964
  0
LINE
  8
DEFAULT_1
 62
7
  6
CENTER
 10
166.6384169332
 20
125.6760661964
 11
166.8384169332
 21
125.6760661964
  0
LINE
  8
0
 62
7
  6
CONTINUOUS
 10
157.8384169332
 20
138.3760935678
 11
157.8384169332
 21
137.6932458734
  0
LINE
  8
0
 62
7
  6
CONTINUOUS
 10
157.8384169332
 20
126.3588865194
 11
157.8384169332
 21
125.6760661964
  0
LINE
  8
0
 62
7
  6
CONTINUOUS
 10
159.3384169332
 20
131.2760661964
 11
159.3384169332
 21
132.7760661964
  0
LINE
  8
0
 62
7
  6
CONTINUOUS
 10
159.4384169332
 20
129.6660661964
 11
159.4384169332
 21
134.3860661964
  0
LINE
  8
0
 62
7
  6
CONTINUOUS
 10
166.1384169332
 20
130.9510661964
 11
159.9384169332
 21
130.9510661964
  0
LINE
  8
0
 62
7
  6
CONTINUOUS
 10
159.4384169332
 20
131.2760661964
 11
159.3384169332
 21
131.2760661964
  0
LINE
  8
0
 62
7
  6
CONTINUOUS
 10
157.9723915294
 20
126.8588865194
 11
159.3044423369
 21
129.1660661964
  0
LINE
  8
0
 62
7
  6
CONTINUOUS
 10
159.4384169332
 20
131.7260661964
 11
159.3384169332
 21
131.7260661964
  0
LINE
  8
0
 62
7
  6
CONTINUOUS
 10
159.4384169332
 20
131.9760661964
 11
159.3384169332
 21
131.9760661964
  0
LINE
  8
DEFAULT_1
 62
7
  6
CENTER
 10
154.4539547964
 20
132.0260661964
 11
168.6384170455
 21
132.0260661964
  0
LINE
  8
0
 62
7
  6
CONTINUOUS
 10
159.3044423369
 20
134.8860661964
 11
157.9723915294
 21
137.1932458734
  0
LINE
  8
0
 62
2
  6
CONTINUOUS
 10
162.2384169332
 20
139.2560661964
 11
162.2384169332
 21
137.4960661964
  0
LINE
  8
DEFAULT_1
 62
7
  6
CENTER
 10
162.2384169332
 20
133.9760661964
 11
162.2384169332
 21
133.7760661964
  0
LINE
  8
0
 62
2
  6
CONTINUOUS
 10
162.2384169332
 20
126.5560661964
 11
162.2384169332
 21
124.7960661964
  0
LINE
  8
DEFAULT_1
 62
7
  6
CENTER
 10
162.2384169332
 20
121.2760661964
 11
162.2384169332
 21
121.0760661964
  0
LINE
  8
DEFAULT_1
 62
7
  6
CENTER
 10
162.2384169332
 20
130.0760661964
 11
162.2384169332
 21
130.2760661964
  0
LINE
  8
DEFAULT_1
 62
7
  6
CENTER
 10
162.2384169332
 20
142.7760661964
 11
162.2384169332
 21
142.9760661964
  0
LINE
  8
0
 62
7
  6
CONTINUOUS
 10
159.4384169332
 20
132.2260661964
 11
159.3384169332
 21
132.2260661964
  0
LINE
  8
0
 62
7
  6
CONTINUOUS
 10
159.4384169332
 20
132.2654279147
 11
159.3384169332
 21
132.2654279147
  0
LINE
  8
0
 62
7
  6
CONTINUOUS
 10
159.4384169332
 20
132.4250023638
 11
159.3384169332
 21
132.4250023638
  0
LINE
  8
0
 62
7
  6
CONTINUOUS
 10
159.4384169332
 20
132.5526619454
 11
159.3384169332
 21
132.5526619454
  0
LINE
  8
0
 62
7
  6
CONTINUOUS
 10
159.4384169332
 20
132.6803215158
 11
159.3384169332
 21
132.6803215158
  0
LINE
  8
0
 62
7
  6
CONTINUOUS
 10
159.4384169332
 20
132.7441513038
 11
159.3384169332
 21
132.7441513038
  0
LINE
  8
0
 62
7
  6
CONTINUOUS
 10
159.4384169332
 20
132.7760661964
 11
159.3384169332
 21
132.7760661964
  0
LINE
  8
0
 62
7
  6
CONTINUOUS
 10
166.6384169332
 20
138.3760659529
 11
166.6384169332
 21
125.6760462228
  0
LINE
  8
0
 62
2
  6
CONTINUOUS
 10
163.1184169332
 20
138.3760661964
 11
161.3584169332
 21
138.3760661964
  0
LINE
  8
DEFAULT_1
 62
7
  6
CENTER
 10
157.8384169332
 20
138.3760661964
 11
157.6384169332
 21
138.3760661964
  0
LINE
  8
DEFAULT_1
 62
7
  6
CENTER
 10
166.6384169332
 20
138.3760661964
 11
166.8384169332
 21
138.3760661964
  0
LINE
  8
0
 62
7
  6
CONTINUOUS
 10
42.0513033175
 20
207.355856363
 11
42.0513033175
 21
199.5558656192
  0
LINE
  8
0
 62
7
  6
CONTINUOUS
 10
42.0648186406
 20
207.4713282042
 11
42.0522483203
 21
207.3865878994
  0
LINE
  8
0
 62
7
  6
CONTINUOUS
 10
44.4763033175
 20
200.655856363
 11
44.4763033175
 21
200.555856363
  0
LINE
  8
0
 62
7
  6
CONTINUOUS
 10
42.0916525928
 20
207.5526376606
 11
42.0648186406
 21
207.4713282042
  0
LINE
  8
0
 62
7
  6
CONTINUOUS
 10
42.1310587921
 20
207.6267743893
 11
42.0916525928
 21
207.5526376606
  0
LINE
  8
0
 62
7
  6
CONTINUOUS
 10
46.4763033175
 20
200.655856363
 11
46.4763033175
 21
200.555856363
  0
LINE
  8
0
 62
7
  6
CONTINUOUS
 10
42.1746466737
 20
207.6846906124
 11
42.1310587921
 21
207.6267743893
  0
LINE
  8
0
 62
7
  6
CONTINUOUS
 10
48.0513033175
 20
199.555856363
 11
48.0513033175
 21
200.655856363
  0
LINE
  8
0
 62
7
  6
CONTINUOUS
 10
48.4013033175
 20
207.3558420424
 11
48.4013033175
 21
199.555856363
  0
POLYLINE
  8
0
 62
7
  6
CONTINUOUS
 66
1
 70
0
  0
VERTEX
  8
0
 62
7
  6
CONTINUOUS
 10
53.5789439367
 20
204.4538280673
  0
VERTEX
  8
0
 62
7
  6
CONTINUOUS
 10
53.5901490446
 20
203.8935514519
  0
VERTEX
  8
0
 62
7
  6
CONTINUOUS
 10
53.5935134389
 20
203.6021521211
  0
VERTEX
  8
0
 62
7
  6
CONTINUOUS
 10
53.5935125135
 20
203.3094080401
  0
VERTEX
  8
0
 62
7
  6
CONTINUOUS
 10
53.5901455743
 20
203.0179505478
  0
SEQEND
  0
LINE
  8
0
 62
7
  6
CONTINUOUS
 10
53.5763033175
 20
204.7145759505
 11
53.5789439367
 21
204.4538280673
  0
LINE
  8
0
 62
7
  6
CONTINUOUS
 10
53.5763033175
 20
199.574517588
 11
53.5763033175
 21
207.3558392835
  0
POLYLINE
  8
0
 62
7
  6
CONTINUOUS
 66
1
 70
0
  0
VERTEX
  8
0
 62
7
  6
CONTINUOUS
 10
53.5901455743
 20
203.0179505478
  0
VERTEX
  8
0
 62
7
  6
CONTINUOUS
 10
53.5789473558
 20
202.4580805335
  0
VERTEX
  8
0
 62
7
  6
CONTINUOUS
 10
53.5763033175
 20
202.1971367754
  0
SEQEND
  0
POLYLINE
  8
0
 62
7
  6
CONTINUOUS
 66
1
 70
0
  0
VERTEX
  8
0
 62
7
  6
CONTINUOUS
 10
53.576303273
 20
200.4340862263
  0
VERTEX
  8
0
 62
7
  6
CONTINUOUS
 10
53.5812414412
 20
200.5116876188
  0
VERTEX
  8
0
 62
7
  6
CONTINUOUS
 10
53.5963387282
 20
200.5839365892
  0
VERTEX
  8
0
 62
7
  6
CONTINUOUS
 10
53.6222542659
 20
200.656095181
  0
VERTEX
  8
0
 62
7
  6
CONTINUOUS
 10
53.6553561597
 20
200.7255909175
  0
SEQEND
  0
POLYLINE
  8
0
 62
7
  6
CONTINUOUS
 66
1
 70
0
  0
VERTEX
  8
0
 62
7
  6
CONTINUOUS
 10
42.2658167506
 20
207.7663432806
  0
VERTEX
  8
0
 62
7
  6
CONTINUOUS
 10
42.2195700821
 20
207.7299623041
  0
VERTEX
  8
0
 62
7
  6
CONTINUOUS
 10
42.1746466737
 20
207.6846906124
  0
SEQEND
  0
POLYLINE
  8
0
 62
7
  6
CONTINUOUS
 66
1
 70
0
  0
VERTEX
  8
0
 62
7
  6
CONTINUOUS
 10
55.5763033175
 20
199.5750906489
  0
VERTEX
  8
0
 62
7
  6
CONTINUOUS
 10
55.5841565152
 20
199.486718015
  0
VERTEX
  8
0
 62
7
  6
CONTINUOUS
 10
55.6075271569
 20
199.4009560877
  0
VERTEX
  8
0
 62
7
  6
CONTINUOUS
 10
55.6457357218
 20
199.3205719945
  0
VERTEX
  8
0
 62
7
  6
CONTINUOUS
 10
55.6975908559
 20
199.2481686962
  0
VERTEX
  8
0
 62
7
  6
CONTINUOUS
 10
55.7614277124
 20
199.1860850546
  0
VERTEX
  8
0
 62
7
  6
CONTINUOUS
 10
55.8351600243
 20
199.1363084492
  0
VERTEX
  8
0
 62
7
  6
CONTINUOUS
 10
55.9163658609
 20
199.1003865755
  0
VERTEX
  8
0
 62
7
  6
CONTINUOUS
 10
56.0024228264
 20
199.0793627977
  0
VERTEX
  8
0
 62
7
  6
CONTINUOUS
 10
56.0904388179
 20
199.0737683729
  0
VERTEX
  8
0
 62
7
  6
CONTINUOUS
 10
56.1846709016
 20
199.0850090717
  0
SEQEND
  0
LINE
  8
0
 62
7
  6
CONTINUOUS
 10
55.5763033175
 20
200.655856363
 11
55.5763033175
 21
199.5751369261
  0
LINE
  8
0
 62
7
  6
CONTINUOUS
 10
56.4763033175
 20
200.655856363
 11
56.4763033175
 21
200.555856363
  0
LINE
  8
0
 62
7
  6
CONTINUOUS
 10
56.6263033175
 20
200.655856363
 11
56.6263033175
 21
200.555856363
  0
LINE
  8
0
 62
7
  6
CONTINUOUS
 10
56.6513033116
 20
200.655856363
 11
56.6513033116
 21
200.555856363
  0
LINE
  8
0
 62
7
  6
CONTINUOUS
 10
56.7013033175
 20
200.655856363
 11
56.7013033175
 21
200.555856363
  0
LINE
  8
0
 62
7
  6
CONTINUOUS
 10
56.7763033175
 20
200.655856363
 11
56.7763033175
 21
200.555856363
  0
LINE
  8
0
 62
7
  6
CONTINUOUS
 10
56.8763033295
 20
200.655856363
 11
56.8763033295
 21
200.555856363
  0
LINE
  8
0
 62
7
  6
CONTINUOUS
 10
56.9013033175
 20
200.055856363
 11
56.9013033175
 21
200.555856363
  0
LINE
  8
0
 62
7
  6
CONTINUOUS
 10
56.9763033056
 20
200.655856363
 11
56.9763033056
 21
200.555856363
  0
LINE
  8
0
 62
7
  6
CONTINUOUS
 10
57.0763033175
 20
200.655856363
 11
57.0763033175
 21
200.555856363
  0
LINE
  8
0
 62
7
  6
CONTINUOUS
 10
57.1513033175
 20
200.655856363
 11
57.1513033175
 21
200.555856363
  0
LINE
  8
0
 62
7
  6
CONTINUOUS
 10
57.2013033414
 20
200.655856363
 11
57.2013033414
 21
200.555856363
  0
LINE
  8
0
 62
7
  6
CONTINUOUS
 10
57.2263033175
 20
200.655856363
 11
57.2263033175
 21
200.555856363
  0
POLYLINE
  8
0
 62
7
  6
CONTINUOUS
 66
1
 70
0
  0
VERTEX
  8
0
 62
7
  6
CONTINUOUS
 10
48.5706016337
 20
207.7308721715
  0
VERTEX
  8
0
 62
7
  6
CONTINUOUS
 10
48.5632965122
 20
207.724301557
  0
VERTEX
  8
0
 62
7
  6
CONTINUOUS
 10
48.5559923177
 20
207.717464957
  0
VERTEX
  8
0
 62
7
  6
CONTINUOUS
 10
48.5486946772
 20
207.7103526374
  0
SEQEND
  0
LINE
  8
0
 62
7
  6
CONTINUOUS
 10
48.5800300273
 20
207.738956007
 11
48.5779027962
 21
207.7371863533
  0
LINE
  8
0
 62
7
  6
CONTINUOUS
 10
42.3153830195
 20
207.796700437
 11
42.2658167506
 21
207.7663432806
  0
LINE
  8
0
 62
7
  6
CONTINUOUS
 10
57.3763033175
 20
200.655856363
 11
57.3763033175
 21
200.555856363
  0
LINE
  8
0
 62
7
  6
CONTINUOUS
 10
57.5763033414
 20
200.655856363
 11
57.5763033414
 21
200.555856363
  0
LINE
  8
0
 62
7
  6
CONTINUOUS
 10
57.7013033652
 20
200.655856363
 11
57.7013033652
 21
200.555856363
  0
LINE
  8
0
 62
7
  6
CONTINUOUS
 10
57.7513033175
 20
200.655856363
 11
57.7513033175
 21
200.555856363
  0
LINE
  8
0
 62
7
  6
CONTINUOUS
 10
57.8263033175
 20
200.655856363
 11
57.8263033175
 21
200.555856363
  0
LINE
  8
0
 62
7
  6
CONTINUOUS
 10
57.9263033652
 20
200.655856363
 11
57.9263033652
 21
200.555856363
  0
LINE
  8
0
 62
7
  6
CONTINUOUS
 10
58.0263032699
 20
200.655856363
 11
58.0263032699
 21
200.555856363
  0
LINE
  8
0
 62
7
  6
CONTINUOUS
 10
58.1013032699
 20
200.655856363
 11
58.1013032699
 21
200.555856363
  0
LINE
  8
0
 62
7
  6
CONTINUOUS
 10
58.1763032699
 20
200.655856363
 11
58.1763032699
 21
200.555856363
  0
LINE
  8
0
 62
7
  6
CONTINUOUS
 10
58.2263033652
 20
200.655856363
 11
58.2263033652
 21
200.555856363
  0
LINE
  8
0
 62
7
  6
CONTINUOUS
 10
58.2513032699
 20
200.655856363
 11
58.2513032699
 21
200.555856363
  0
LINE
  8
0
 62
7
  6
CONTINUOUS
 10
58.2763033175
 20
200.655856363
 11
58.2763033175
 21
200.555856363
  0
LINE
  8
0
 62
7
  6
CONTINUOUS
 10
58.4763032699
 20
200.655856363
 11
58.4763032699
 21
200.555856363
  0
LINE
  8
0
 62
7
  6
CONTINUOUS
 10
58.6013033652
 20
200.655856363
 11
58.6013033175
 21
200.055856363
  0
LINE
  8
0
 62
7
  6
CONTINUOUS
 10
53.6553463736
 20
200.7255720734
 11
53.6567129799
 21
200.728048129
  0
LINE
  8
0
 62
7
  6
CONTINUOUS
 10
53.6567129799
 20
200.728048129
 11
53.6570069937
 21
200.7285238224
  0
LINE
  8
0
 62
7
  6
CONTINUOUS
 10
53.6567226369
 20
200.7281244488
 11
53.6569010767
 21
200.7283717948
  0
LINE
  8
0
 62
7
  6
CONTINUOUS
 10
42.3707295291
 20
207.8221123673
 11
42.3153830195
 21
207.796700437
  0
POLYLINE
  8
0
 62
7
  6
CONTINUOUS
 66
1
 70
0
  0
VERTEX
  8
0
 62
7
  6
CONTINUOUS
 10
61.1014088463
 20
199.5455145323
  0
VERTEX
  8
0
 62
7
  6
CONTINUOUS
 10
61.1104111559
 20
199.4607927769
  0
VERTEX
  8
0
 62
7
  6
CONTINUOUS
 10
61.1341760841
 20
199.377494659
  0
VERTEX
  8
0
 62
7
  6
CONTINUOUS
 10
61.1722798054
 20
199.2990188978
  0
VERTEX
  8
0
 62
7
  6
CONTINUOUS
 10
61.2237192277
 20
199.2280455671
  0
VERTEX
  8
0
 62
7
  6
CONTINUOUS
 10
61.2868802658
 20
199.1670533821
  0
VERTEX
  8
0
 62
7
  6
CONTINUOUS
 10
61.3595909401
 20
199.1181331454
  0
VERTEX
  8
0
 62
7
  6
CONTINUOUS
 10
61.43927257
 20
199.0828167828
  0
SEQEND
  0
LINE
  8
0
 62
7
  6
CONTINUOUS
 10
61.1013033175
 20
199.5557861088
 11
61.1014088463
 21
199.5455145323
  0
LINE
  8
0
 62
7
  6
CONTINUOUS
 10
60.7513033175
 20
199.555856363
 11
60.7513033175
 21
200.655856363
  0
LINE
  8
0
 62
7
  6
CONTINUOUS
 10
61.1013033175
 20
207.355856363
 11
61.1013033175
 21
199.5558687115
  0
LINE
  8
0
 62
7
  6
CONTINUOUS
 10
60.7422792361
 20
199.4612340979
 11
60.7511855323
 21
199.5449425083
  0
POLYLINE
  8
0
 62
7
  6
CONTINUOUS
 66
1
 70
0
  0
VERTEX
  8
0
 62
7
  6
CONTINUOUS
 10
60.7430225075
 20
199.4652318213
  0
VERTEX
  8
0
 62
7
  6
CONTINUOUS
 10
60.744913899
 20
199.476175121
  0
VERTEX
  8
0
 62
7
  6
CONTINUOUS
 10
60.7465739247
 20
199.4872453815
  0
VERTEX
  8
0
 62
7
  6
CONTINUOUS
 10
60.7479960129
 20
199.4984391198
  0
VERTEX
  8
0
 62
7
  6
CONTINUOUS
 10
60.7491735267
 20
199.5097525875
  0
VERTEX
  8
0
 62
7
  6
CONTINUOUS
 10
60.7500997719
 20
199.5211817632
  0
VERTEX
  8
0
 62
7
  6
CONTINUOUS
 10
60.7507680039
 20
199.5327223463
  0
VERTEX
  8
0
 62
7
  6
CONTINUOUS
 10
60.7511714367
 20
199.5443697777
  0
VERTEX
  8
0
 62
7
  6
CONTINUOUS
 10
60.7513033175
 20
199.5558529216
  0
SEQEND
  0
LINE
  8
0
 62
7
  6
CONTINUOUS
 10
48.6571913971
 20
207.7922160555
 11
48.6513535155
 21
207.7888871446
  0
POLYLINE
  8
0
 62
7
  6
CONTINUOUS
 66
1
 70
0
  0
VERTEX
  8
0
 62
7
  6
CONTINUOUS
 10
48.6924644541
 20
207.8101543975
  0
VERTEX
  8
0
 62
7
  6
CONTINUOUS
 10
48.6854754856
 20
207.8068760186
  0
VERTEX
  8
0
 62
7
  6
CONTINUOUS
 10
48.6784302669
 20
207.8034365162
  0
VERTEX
  8
0
 62
7
  6
CONTINUOUS
 10
48.671364776
 20
207.7998481023
  0
VERTEX
  8
0
 62
7
  6
CONTINUOUS
 10
48.6642858487
 20
207.7961098398
  0
SEQEND
  0
POLYLINE
  8
0
 62
7
  6
CONTINUOUS
 66
1
 70
0
  0
VERTEX
  8
0
 62
7
  6
CONTINUOUS
 10
48.7251271685
 20
207.8237904393
  0
VERTEX
  8
0
 62
7
  6
CONTINUOUS
 10
48.7190032235
 20
207.8214388142
  0
VERTEX
  8
0
 62
7
  6
CONTINUOUS
 10
48.7126649658
 20
207.8189070334
  0
VERTEX
  8
0
 62
7
  6
CONTINUOUS
 10
48.7061028394
 20
207.8161792198
  0
VERTEX
  8
0
 62
7
  6
CONTINUOUS
 10
48.699354675
 20
207.8132589351
  0
SEQEND
  0
POLYLINE
  8
0
 62
7
  6
CONTINUOUS
 66
1
 70
0
  0
VERTEX
  8
0
 62
7
  6
CONTINUOUS
 10
48.7382657103
 20
207.8285645221
  0
VERTEX
  8
0
 62
7
  6
CONTINUOUS
 10
48.7210772775
 20
207.8222847372
  0
VERTEX
  8
0
 62
7
  6
CONTINUOUS
 10
48.7037491251
 20
207.8152163774
  0
VERTEX
  8
0
 62
7
  6
CONTINUOUS
 10
48.6863165665
 20
207.8073231154
  0
VERTEX
  8
0
 62
7
  6
CONTINUOUS
 10
48.6688187059
 20
207.7985690133
  0
VERTEX
  8
0
 62
7
  6
CONTINUOUS
 10
48.6512986205
 20
207.7889188015
  0
VERTEX
  8
0
 62
7
  6
CONTINUOUS
 10
48.6338035277
 20
207.7783381861
  0
VERTEX
  8
0
 62
7
  6
CONTINUOUS
 10
48.616384916
 20
207.7667941717
  0
VERTEX
  8
0
 62
7
  6
CONTINUOUS
 10
48.5990985888
 20
207.754255352
  0
VERTEX
  8
0
 62
7
  6
CONTINUOUS
 10
48.5820049451
 20
207.7406924054
  0
VERTEX
  8
0
 62
7
  6
CONTINUOUS
 10
48.5651690435
 20
207.7260785116
  0
VERTEX
  8
0
 62
7
  6
CONTINUOUS
 10
48.5486606651
 20
207.7103898144
  0
SEQEND
  0
POLYLINE
  8
0
 62
7
  6
CONTINUOUS
 66
1
 70
0
  0
VERTEX
  8
0
 62
7
  6
CONTINUOUS
 10
67.4514240465
 20
199.5448087912
  0
VERTEX
  8
0
 62
7
  6
CONTINUOUS
 10
67.4606442324
 20
199.459604968
  0
VERTEX
  8
0
 62
7
  6
CONTINUOUS
 10
67.4843065596
 20
199.3771611848
  0
VERTEX
  8
0
 62
7
  6
CONTINUOUS
 10
67.5217287669
 20
199.2999489142
  0
VERTEX
  8
0
 62
7
  6
CONTINUOUS
 10
67.5718164209
 20
199.2302566999
  0
VERTEX
  8
0
 62
7
  6
CONTINUOUS
 10
67.6330921275
 20
199.1701530119
  0
SEQEND
  0
POLYLINE
  8
0
 62
7
  6
CONTINUOUS
 66
1
 70
0
  0
VERTEX
  8
0
 62
7
  6
CONTINUOUS
 10
67.4513033175
 20
200.6454118234
  0
VERTEX
  8
0
 62
7
  6
CONTINUOUS
 10
67.4574012497
 20
200.5827100761
  0
VERTEX
  8
0
 62
7
  6
CONTINUOUS
 10
67.4755697399
 20
200.5214343636
  0
VERTEX
  8
0
 62
7
  6
CONTINUOUS
 10
67.5054031723
 20
200.4630885369
  0
VERTEX
  8
0
 62
7
  6
CONTINUOUS
 10
67.5462098763
 20
200.4091192988
  0
VERTEX
  8
0
 62
7
  6
CONTINUOUS
 10
67.5970236257
 20
200.3608787
  0
VERTEX
  8
0
 62
7
  6
CONTINUOUS
 10
67.6566232146
 20
200.3195873668
  0
VERTEX
  8
0
 62
7
  6
CONTINUOUS
 10
67.7235604104
 20
200.2863000331
  0
VERTEX
  8
0
 62
7
  6
CONTINUOUS
 10
67.7961956579
 20
200.2618753267
  0
VERTEX
  8
0
 62
7
  6
CONTINUOUS
 10
67.8727403186
 20
200.2469514182
  0
VERTEX
  8
0
 62
7
  6
CONTINUOUS
 10
67.9513033175
 20
200.2419288274
  0
SEQEND
  0
LINE
  8
0
 62
7
  6
CONTINUOUS
 10
67.4514240465
 20
199.5448087912
 11
67.4513033175
 21
199.55579513
  0
LINE
  8
0
 62
7
  6
CONTINUOUS
 10
67.4473839356
 20
204.855856363
 11
67.4496834494
 21
203.4639497396
  0
LINE
  8
0
 62
7
  6
CONTINUOUS
 10
67.4496874171
 20
203.4639497218
 11
67.4513069328
 21
202.6228517675
  0
LINE
  8
0
 62
7
  6
CONTINUOUS
 10
67.1013033173
 20
199.5558548661
 11
67.1013033175
 21
207.355856299
  0
LINE
  8
0
 62
7
  6
CONTINUOUS
 10
67.4513033175
 20
199.555856363
 11
67.4513033175
 21
204.855856363
  0
LINE
  8
0
 62
7
  6
CONTINUOUS
 10
67.1013008798
 20
207.3542950344
 11
67.1013033175
 21
207.3558563606
  0
LINE
  8
0
 62
7
  6
CONTINUOUS
 10
67.1029231857
 20
203.463949738
 11
67.1060971411
 21
205.2771017865
  0
LINE
  8
0
 62
7
  6
CONTINUOUS
 10
67.1013033175
 20
199.555797818
 11
67.1011827865
 21
199.5448204519
  0
LINE
  8
0
 62
7
  6
CONTINUOUS
 10
67.0919820506
 20
199.4597076814
 11
67.1011827865
 21
199.5448204519
  0
POLYLINE
  8
0
 62
7
  6
CONTINUOUS
 66
1
 70
0
  0
VERTEX
  8
0
 62
7
  6
CONTINUOUS
 10
61.2864808807
 20
199.1674390529
  0
VERTEX
  8
0
 62
7
  6
CONTINUOUS
 10
61.2910518001
 20
199.1637521234
  0
VERTEX
  8
0
 62
7
  6
CONTINUOUS
 10
61.298431857
 20
199.1580239785
  0
VERTEX
  8
0
 62
7
  6
CONTINUOUS
 10
61.3058890152
 20
199.1524556879
  0
VERTEX
  8
0
 62
7
  6
CONTINUOUS
 10
61.3134176797
 20
199.1470488788
  0
VERTEX
  8
0
 62
7
  6
CONTINUOUS
 10
61.3210121902
 20
199.1418049572
  0
VERTEX
  8
0
 62
7
  6
CONTINUOUS
 10
61.3286668303
 20
199.136725107
  0
VERTEX
  8
0
 62
7
  6
CONTINUOUS
 10
61.3363758361
 20
199.131810289
  0
VERTEX
  8
0
 62
7
  6
CONTINUOUS
 10
61.3441334054
 20
199.1270612405
  0
VERTEX
  8
0
 62
7
  6
CONTINUOUS
 10
61.351336267
 20
199.1228294776
  0
SEQEND
  0
LINE
  8
0
 62
7
  6
CONTINUOUS
 10
53.4289469614
 20
207.710391283
 11
53.3657170615
 21
207.763643139
  0
LINE
  8
0
 62
7
  6
CONTINUOUS
 10
69.6013033175
 20
204.855856363
 11
69.6013033175
 21
203.455856363
  0
LINE
  8
0
 62
7
  6
CONTINUOUS
 10
69.6013033175
 20
199.555856363
 11
69.6013033175
 21
199.8728101958
  0
POLYLINE
  8
0
 62
7
  6
CONTINUOUS
 66
1
 70
0
  0
VERTEX
  8
0
 62
7
  6
CONTINUOUS
 10
69.6013032986
 20
199.8726657337
  0
VERTEX
  8
0
 62
7
  6
CONTINUOUS
 10
69.6116056524
 20
199.9560808695
  0
VERTEX
  8
0
 62
7
  6
CONTINUOUS
 10
69.6452388822
 20
200.0467928544
  0
VERTEX
  8
0
 62
7
  6
CONTINUOUS
 10
69.7015427934
 20
200.1387803172
  0
VERTEX
  8
0
 62
7
  6
CONTINUOUS
 10
69.7674786874
 20
200.2179078628
  0
SEQEND
  0
POLYLINE
  8
0
 62
7
  6
CONTINUOUS
 66
1
 70
0
  0
VERTEX
  8
0
 62
7
  6
CONTINUOUS
 10
67.0922103157
 20
199.46093085
  0
VERTEX
  8
0
 62
7
  6
CONTINUOUS
 10
67.0942835124
 20
199.4723638309
  0
VERTEX
  8
0
 62
7
  6
CONTINUOUS
 10
67.0961045057
 20
199.4839383627
  0
VERTEX
  8
0
 62
7
  6
CONTINUOUS
 10
67.0976656986
 20
199.4956505659
  0
VERTEX
  8
0
 62
7
  6
CONTINUOUS
 10
67.0989594079
 20
199.5074962417
  0
SEQEND
  0
LINE
  8
0
 62
7
  6
CONTINUOUS
 10
107.0194268039
 20
199.0929367579
 11
107.0815324304
 21
199.1089264173
  0
POLYLINE
  8
0
 62
7
  6
CONTINUOUS
 66
1
 70
0
  0
VERTEX
  8
0
 62
7
  6
CONTINUOUS
 10
58.8829351974
 20
199.2155222701
  0
VERTEX
  8
0
 62
7
  6
CONTINUOUS
 10
59.0356059003
 20
199.1656015769
  0
VERTEX
  8
0
 62
7
  6
CONTINUOUS
 10
59.1028926152
 20
199.1440406449
  0
VERTEX
  8
0
 62
7
  6
CONTINUOUS
 10
59.1666547732
 20
199.1244905497
  0
VERTEX
  8
0
 62
7
  6
CONTINUOUS
 10
59.228794859
 20
199.1068254809
  0
VERTEX
  8
0
 62
7
  6
CONTINUOUS
 10
59.2911542198
 20
199.0910474326
  0
VERTEX
  8
0
 62
7
  6
CONTINUOUS
 10
59.3566243496
 20
199.0771791107
  0
VERTEX
  8
0
 62
7
  6
CONTINUOUS
 10
59.4280898096
 20
199.065748543
  0
VERTEX
  8
0
 62
7
  6
CONTINUOUS
 10
59.5090015922
 20
199.0579459277
  0
VERTEX
  8
0
 62
7
  6
CONTINUOUS
 10
59.5764298421
 20
199.055857627
  0
SEQEND
  0
POLYLINE
  8
0
 62
7
  6
CONTINUOUS
 66
1
 70
0
  0
VERTEX
  8
0
 62
7
  6
CONTINUOUS
 10
52.5225755924
 20
199.2188820765
  0
VERTEX
  8
0
 62
7
  6
CONTINUOUS
 10
52.6768924861
 20
199.1684358179
  0
VERTEX
  8
0
 62
7
  6
CONTINUOUS
 10
52.7447405078
 20
199.1466132547
  0
VERTEX
  8
0
 62
7
  6
CONTINUOUS
 10
52.80879894
 20
199.1268338236
  0
VERTEX
  8
0
 62
7
  6
CONTINUOUS
 10
52.8710454583
 20
199.1089341409
  0
VERTEX
  8
0
 62
7
  6
CONTINUOUS
 10
52.9331435238
 20
199.0929456076
  0
VERTEX
  8
0
 62
7
  6
CONTINUOUS
 10
52.9691259141
 20
199.0847521371
  0
SEQEND
  0
LINE
  8
0
 62
7
  6
CONTINUOUS
 10
61.351336267
 20
199.1228294776
 11
61.3593115879
 21
199.1183210954
  0
LINE
  8
0
 62
7
  6
CONTINUOUS
 10
67.6330921275
 20
199.1701530119
 11
67.7033207255
 21
199.1217087036
  0
POLYLINE
  8
0
 62
7
  6
CONTINUOUS
 66
1
 70
0
  0
VERTEX
  8
0
 62
7
  6
CONTINUOUS
 10
67.6283515698
 20
199.1741450152
  0
VERTEX
  8
0
 62
7
  6
CONTINUOUS
 10
67.6360141627
 20
199.1677917728
  0
VERTEX
  8
0
 62
7
  6
CONTINUOUS
 10
67.6437637655
 20
199.1616219248
  0
VERTEX
  8
0
 62
7
  6
CONTINUOUS
 10
67.651594208
 20
199.1556366642
  0
VERTEX
  8
0
 62
7
  6
CONTINUOUS
 10
67.6594992926
 20
199.1498369592
  0
VERTEX
  8
0
 62
7
  6
CONTINUOUS
 10
67.6674728027
 20
199.1442235534
  0
VERTEX
  8
0
 62
7
  6
CONTINUOUS
 10
67.6755085111
 20
199.1387969667
  0
VERTEX
  8
0
 62
7
  6
CONTINUOUS
 10
67.6836001884
 20
199.1335574966
  0
VERTEX
  8
0
 62
7
  6
CONTINUOUS
 10
67.6917416111
 20
199.1285052199
  0
VERTEX
  8
0
 62
7
  6
CONTINUOUS
 10
67.69992657
 20
199.1236399945
  0
SEQEND
  0
POLYLINE
  8
0
 62
7
  6
CONTINUOUS
 66
1
 70
0
  0
VERTEX
  8
0
 62
7
  6
CONTINUOUS
 10
67.5986932471
 20
199.2013601955
  0
VERTEX
  8
0
 62
7
  6
CONTINUOUS
 10
67.6059469551
 20
199.1942898024
  0
VERTEX
  8
0
 62
7
  6
CONTINUOUS
 10
67.6133119038
 20
199.187395785
  0
VERTEX
  8
0
 62
7
  6
CONTINUOUS
 10
67.6207821205
 20
199.1806802336
  0
VERTEX
  8
0
 62
7
  6
CONTINUOUS
 10
67.6283515698
 20
199.1741450152
  0
SEQEND
  0
LINE
  8
0
 62
7
  6
CONTINUOUS
 10
71.3013033175
 20
199.555856363
 11
71.3013033175
 21
204.8534487658
  0
LINE
  8
0
 62
7
  6
CONTINUOUS
 10
70.2713030829
 20
201.994641404
 11
70.2713033175
 21
203.455856363
  0
POLYLINE
  8
0
 62
7
  6
CONTINUOUS
 66
1
 70
0
  0
VERTEX
  8
0
 62
7
  6
CONTINUOUS
 10
70.0401835958
 20
200.6325730089
  0
VERTEX
  8
0
 62
7
  6
CONTINUOUS
 10
70.1210684243
 20
200.8275093641
  0
VERTEX
  8
0
 62
7
  6
CONTINUOUS
 10
70.1933027479
 20
201.0843612375
  0
VERTEX
  8
0
 62
7
  6
CONTINUOUS
 10
70.2407450056
 20
201.3716896267
  0
VERTEX
  8
0
 62
7
  6
CONTINUOUS
 10
70.2651283143
 20
201.6853741796
  0
VERTEX
  8
0
 62
7
  6
CONTINUOUS
 10
70.2713047391
 20
201.9945465727
  0
SEQEND
  0
LINE
  8
0
 62
7
  6
CONTINUOUS
 10
70.0401297498
 20
200.6324620948
 11
70.0401835958
 21
200.6325730089
  0
POLYLINE
  8
0
 62
7
  6
CONTINUOUS
 66
1
 70
0
  0
VERTEX
  8
0
 62
7
  6
CONTINUOUS
 10
69.9038433102
 20
200.3740993565
  0
VERTEX
  8
0
 62
7
  6
CONTINUOUS
 10
69.9402849047
 20
200.4391246661
  0
VERTEX
  8
0
 62
7
  6
CONTINUOUS
 10
69.9965983446
 20
200.545266065
  0
VERTEX
  8
0
 62
7
  6
CONTINUOUS
 10
70.0401305126
 20
200.6324617242
  0
SEQEND
  0
POLYLINE
  8
0
 62
7
  6
CONTINUOUS
 66
1
 70
0
  0
VERTEX
  8
0
 62
7
  6
CONTINUOUS
 10
67.0342061688
 20
199.3057066385
  0
VERTEX
  8
0
 62
7
  6
CONTINUOUS
 10
67.0356751873
 20
199.3082231231
  0
VERTEX
  8
0
 62
7
  6
CONTINUOUS
 10
67.0406973379
 20
199.3172478727
  0
VERTEX
  8
0
 62
7
  6
CONTINUOUS
 10
67.0455669521
 20
199.3264420829
  0
VERTEX
  8
0
 62
7
  6
CONTINUOUS
 10
67.0502783472
 20
199.3358052738
  0
VERTEX
  8
0
 62
7
  6
CONTINUOUS
 10
67.0548256942
 20
199.3453368127
  0
VERTEX
  8
0
 62
7
  6
CONTINUOUS
 10
67.0592030189
 20
199.3550359041
  0
VERTEX
  8
0
 62
7
  6
CONTINUOUS
 10
67.0634042028
 20
199.3649015805
  0
VERTEX
  8
0
 62
7
  6
CONTINUOUS
 10
67.0674229849
 20
199.3749326921
  0
VERTEX
  8
0
 62
7
  6
CONTINUOUS
 10
67.0712529633
 20
199.3851278969
  0
VERTEX
  8
0
 62
7
  6
CONTINUOUS
 10
67.0748875978
 20
199.3954856498
  0
VERTEX
  8
0
 62
7
  6
CONTINUOUS
 10
67.0783202129
 20
199.4060041924
  0
VERTEX
  8
0
 62
7
  6
CONTINUOUS
 10
67.0815440005
 20
199.4166815416
  0
VERTEX
  8
0
 62
7
  6
CONTINUOUS
 10
67.0845520244
 20
199.4275154785
  0
VERTEX
  8
0
 62
7
  6
CONTINUOUS
 10
67.0873372239
 20
199.4385035372
  0
VERTEX
  8
0
 62
7
  6
CONTINUOUS
 10
67.0898924189
 20
199.4496429928
  0
VERTEX
  8
0
 62
7
  6
CONTINUOUS
 10
67.0922103157
 20
199.46093085
  0
SEQEND
  0
POLYLINE
  8
0
 62
7
  6
CONTINUOUS
 66
1
 70
0
  0
VERTEX
  8
0
 62
7
  6
CONTINUOUS
 10
73.9840448606
 20
207.7423155297
  0
VERTEX
  8
0
 62
7
  6
CONTINUOUS
 10
73.9211484302
 20
207.6806422546
  0
VERTEX
  8
0
 62
7
  6
CONTINUOUS
 10
73.8701542041
 20
207.6090631489
  0
VERTEX
  8
0
 62
7
  6
CONTINUOUS
 10
73.8326550139
 20
207.5301298973
  0
VERTEX
  8
0
 62
7
  6
CONTINUOUS
 10
73.8096139252
 20
207.4466472094
  0
VERTEX
  8
0
 62
7
  6
CONTINUOUS
 10
73.8059739122
 20
207.4092302485
  0
SEQEND
  0
LINE
  8
0
 62
7
  6
CONTINUOUS
 10
73.9542316828
 20
207.7157752469
 11
73.9486940784
 21
207.7103518455
  0
POLYLINE
  8
0
 62
7
  6
CONTINUOUS
 66
1
 70
0
  0
VERTEX
  8
0
 62
7
  6
CONTINUOUS
 10
73.980046932
 20
207.7389942679
  0
VERTEX
  8
0
 62
7
  6
CONTINUOUS
 10
73.9750861781
 20
207.7347794401
  0
VERTEX
  8
0
 62
7
  6
CONTINUOUS
 10
73.9700400765
 20
207.7303760373
  0
VERTEX
  8
0
 62
7
  6
CONTINUOUS
 10
73.964892085
 20
207.7257587887
  0
VERTEX
  8
0
 62
7
  6
CONTINUOUS
 10
73.9596271151
 20
207.7209011481
  0
SEQEND
  0
POLYLINE
  8
0
 62
7
  6
CONTINUOUS
 66
1
 70
0
  0
VERTEX
  8
0
 62
7
  6
CONTINUOUS
 10
73.9912728217
 20
207.7481804935
  0
VERTEX
  8
0
 62
7
  6
CONTINUOUS
 10
73.9769300718
 20
207.7364080279
  0
VERTEX
  8
0
 62
7
  6
CONTINUOUS
 10
73.9627142048
 20
207.7238173025
  0
VERTEX
  8
0
 62
7
  6
CONTINUOUS
 10
73.9486680617
 20
207.710378999
  0
SEQEND
  0
LINE
  8
0
 62
7
  6
CONTINUOUS
 10
106.9846481187
 20
199.0850041197
 11
107.0194268039
 21
199.0929367579
  0
POLYLINE
  8
0
 62
7
  6
CONTINUOUS
 66
1
 70
0
  0
VERTEX
  8
0
 62
7
  6
CONTINUOUS
 10
61.43927257
 20
199.0828167828
  0
VERTEX
  8
0
 62
7
  6
CONTINUOUS
 10
61.5230690974
 20
199.0620031118
  0
VERTEX
  8
0
 62
7
  6
CONTINUOUS
 10
61.6012323622
 20
199.0558549005
  0
SEQEND
  0
POLYLINE
  8
0
 62
7
  6
CONTINUOUS
 66
1
 70
0
  0
VERTEX
  8
0
 62
7
  6
CONTINUOUS
 10
61.4390553331
 20
199.0829130662
  0
VERTEX
  8
0
 62
7
  6
CONTINUOUS
 10
61.4467437752
 20
199.0803434464
  0
VERTEX
  8
0
 62
7
  6
CONTINUOUS
 10
61.4545705329
 20
199.0778703451
  0
VERTEX
  8
0
 62
7
  6
CONTINUOUS
 10
61.4623598374
 20
199.0755483273
  0
VERTEX
  8
0
 62
7
  6
CONTINUOUS
 10
61.4701063573
 20
199.0733748473
  0
VERTEX
  8
0
 62
7
  6
CONTINUOUS
 10
61.4778048476
 20
199.0713471909
  0
VERTEX
  8
0
 62
7
  6
CONTINUOUS
 10
61.4854501537
 20
199.0694624812
  0
VERTEX
  8
0
 62
7
  6
CONTINUOUS
 10
61.4930372163
 20
199.0677176858
  0
VERTEX
  8
0
 62
7
  6
CONTINUOUS
 10
61.5005610751
 20
199.0661096225
  0
VERTEX
  8
0
 62
7
  6
CONTINUOUS
 10
61.5080168726
 20
199.0646349666
  0
VERTEX
  8
0
 62
7
  6
CONTINUOUS
 10
61.5145401315
 20
199.0634468451
  0
SEQEND
  0
LINE
  8
0
 62
7
  6
CONTINUOUS
 10
61.4303351012
 20
199.0859992971
 11
61.4390553331
 21
199.0829130662
  0
POLYLINE
  8
0
 62
7
  6
CONTINUOUS
 66
1
 70
0
  0
VERTEX
  8
0
 62
7
  6
CONTINUOUS
 10
67.7745425364
 20
199.0881420938
  0
VERTEX
  8
0
 62
7
  6
CONTINUOUS
 10
67.7828298047
 20
199.0850935211
  0
VERTEX
  8
0
 62
7
  6
CONTINUOUS
 10
67.7910953377
 20
199.0822168941
  0
VERTEX
  8
0
 62
7
  6
CONTINUOUS
 10
67.799333645
 20
199.0795097177
  0
VERTEX
  8
0
 62
7
  6
CONTINUOUS
 10
67.8075393345
 20
199.0769693319
  0
VERTEX
  8
0
 62
7
  6
CONTINUOUS
 10
67.8157071168
 20
199.074592917
  0
VERTEX
  8
0
 62
7
  6
CONTINUOUS
 10
67.8238318094
 20
199.0723775004
  0
VERTEX
  8
0
 62
7
  6
CONTINUOUS
 10
67.8319083405
 20
199.0703199621
  0
VERTEX
  8
0
 62
7
  6
CONTINUOUS
 10
67.8399317524
 20
199.0684170416
  0
VERTEX
  8
0
 62
7
  6
CONTINUOUS
 10
67.847897205
 20
199.0666653439
  0
VERTEX
  8
0
 62
7
  6
CONTINUOUS
 10
67.8557999781
 20
199.0650613461
  0
VERTEX
  8
0
 62
7
  6
CONTINUOUS
 10
67.8636354739
 20
199.0636014044
  0
SEQEND
  0
LINE
  8
0
 62
7
  6
CONTINUOUS
 10
67.7037388625
 20
199.121420269
 11
67.7813568335
 21
199.0856353715
  0
POLYLINE
  8
0
 62
7
  6
CONTINUOUS
 66
1
 70
0
  0
VERTEX
  8
0
 62
7
  6
CONTINUOUS
 10
67.69992657
 20
199.1236399945
  0
VERTEX
  8
0
 62
7
  6
CONTINUOUS
 10
67.7081488776
 20
199.1189614618
  0
VERTEX
  8
0
 62
7
  6
CONTINUOUS
 10
67.7164023761
 20
199.1144690494
  0
VERTEX
  8
0
 62
7
  6
CONTINUOUS
 10
67.7246809449
 20
199.1101619742
  0
VERTEX
  8
0
 62
7
  6
CONTINUOUS
 10
67.7329785076
 20
199.1060392457
  0
VERTEX
  8
0
 62
7
  6
CONTINUOUS
 10
67.7412890395
 20
199.1020996693
  0
VERTEX
  8
0
 62
7
  6
CONTINUOUS
 10
67.749606574
 20
199.0983418509
  0
VERTEX
  8
0
 62
7
  6
CONTINUOUS
 10
67.7579252092
 20
199.0947642005
  0
VERTEX
  8
0
 62
7
  6
CONTINUOUS
 10
67.7662391146
 20
199.0913649373
  0
VERTEX
  8
0
 62
7
  6
CONTINUOUS
 10
67.7745425364
 20
199.0881420938
  0
SEQEND
  0
LINE
  8
0
 62
7
  6
CONTINUOUS
 10
53.3657170615
 20
207.763643139
 11
53.2961965534
 21
207.8049561019
  0
LINE
  8
0
 62
7
  6
CONTINUOUS
 10
73.8013033175
 20
199.5557966538
 11
73.8014209461
 21
199.5449522661
  0
LINE
  8
0
 62
7
  6
CONTINUOUS
 10
73.4513033175
 20
199.555856363
 11
73.4513033175
 21
200.655856363
  0
LINE
  8
0
 62
7
  6
CONTINUOUS
 10
73.8013033175
 20
207.3558563655
 11
73.8013033175
 21
199.5558567509
  0
LINE
  8
0
 62
7
  6
CONTINUOUS
 10
73.8013356612
 20
207.3615520503
 11
73.8013033175
 21
207.3558602215
  0
POLYLINE
  8
0
 62
7
  6
CONTINUOUS
 66
1
 70
0
  0
VERTEX
  8
0
 62
7
  6
CONTINUOUS
 10
71.3013033175
 20
200.8732220489
  0
VERTEX
  8
0
 62
7
  6
CONTINUOUS
 10
71.295191358
 20
200.8634256952
  0
VERTEX
  8
0
 62
7
  6
CONTINUOUS
 10
71.2768879266
 20
200.8576940606
  0
VERTEX
  8
0
 62
7
  6
CONTINUOUS
 10
71.2466020036
 20
200.855856363
  0
SEQEND
  0
POLYLINE
  8
0
 62
7
  6
CONTINUOUS
 66
1
 70
0
  0
VERTEX
  8
0
 62
7
  6
CONTINUOUS
 10
69.8662428892
 20
200.3232351256
  0
VERTEX
  8
0
 62
7
  6
CONTINUOUS
 10
69.9001552132
 20
200.3678502297
  0
VERTEX
  8
0
 62
7
  6
CONTINUOUS
 10
69.9038445722
 20
200.3741007612
  0
SEQEND
  0
LINE
  8
0
 62
7
  6
CONTINUOUS
 10
69.7675390282
 20
200.2179721995
 11
69.8661984711
 21
200.3231877556
  0
POLYLINE
  8
0
 62
7
  6
CONTINUOUS
 66
1
 70
0
  0
VERTEX
  8
0
 62
7
  6
CONTINUOUS
 10
74.0700486687
 20
207.7991638899
  0
VERTEX
  8
0
 62
7
  6
CONTINUOUS
 10
74.0653963934
 20
207.7967057731
  0
VERTEX
  8
0
 62
7
  6
CONTINUOUS
 10
74.0607385665
 20
207.7941814513
  0
VERTEX
  8
0
 62
7
  6
CONTINUOUS
 10
74.0566886731
 20
207.791930567
  0
SEQEND
  0
POLYLINE
  8
0
 62
7
  6
CONTINUOUS
 66
1
 70
0
  0
VERTEX
  8
0
 62
7
  6
CONTINUOUS
 10
74.0839665232
 20
207.8061506929
  0
VERTEX
  8
0
 62
7
  6
CONTINUOUS
 10
74.0793342684
 20
207.8038853916
  0
VERTEX
  8
0
 62
7
  6
CONTINUOUS
 10
74.0746948105
 20
207.8015567749
  0
SEQEND
  0
POLYLINE
  8
0
 62
7
  6
CONTINUOUS
 66
1
 70
0
  0
VERTEX
  8
0
 62
7
  6
CONTINUOUS
 10
74.0978153234
 20
207.8125760701
  0
VERTEX
  8
0
 62
7
  6
CONTINUOUS
 10
74.0932074962
 20
207.810495107
  0
VERTEX
  8
0
 62
7
  6
CONTINUOUS
 10
74.0885910858
 20
207.808353621
  0
SEQEND
  0
POLYLINE
  8
0
 62
7
  6
CONTINUOUS
 66
1
 70
0
  0
VERTEX
  8
0
 62
7
  6
CONTINUOUS
 10
74.1115834072
 20
207.818464835
  0
VERTEX
  8
0
 62
7
  6
CONTINUOUS
 10
74.1070036418
 20
207.8165600452
  0
VERTEX
  8
0
 62
7
  6
CONTINUOUS
 10
74.102414164
 20
207.8145974178
  0
SEQEND
  0
POLYLINE
  8
0
 62
7
  6
CONTINUOUS
 66
1
 70
0
  0
VERTEX
  8
0
 62
7
  6
CONTINUOUS
 10
74.125261312
 20
207.82384081
  0
VERTEX
  8
0
 62
7
  6
CONTINUOUS
 10
74.1207125292
 20
207.8221043675
  0
VERTEX
  8
0
 62
7
  6
CONTINUOUS
 10
74.116153136
 20
207.8203126569
  0
SEQEND
  0
POLYLINE
  8
0
 62
7
  6
CONTINUOUS
 66
1
 70
0
  0
VERTEX
  8
0
 62
7
  6
CONTINUOUS
 10
74.135054485
 20
207.8274355692
  0
VERTEX
  8
0
 62
7
  6
CONTINUOUS
 10
74.1209600112
 20
207.8222290809
  0
VERTEX
  8
0
 62
7
  6
CONTINUOUS
 10
74.1067644673
 20
207.8164900293
  0
VERTEX
  8
0
 62
7
  6
CONTINUOUS
 10
74.0924775885
 20
207.8101932277
  0
VERTEX
  8
0
 62
7
  6
CONTINUOUS
 10
74.0781114493
 20
207.8033123963
  0
VERTEX
  8
0
 62
7
  6
CONTINUOUS
 10
74.0636806619
 20
207.7958202536
  0
VERTEX
  8
0
 62
7
  6
CONTINUOUS
 10
74.0492025861
 20
207.7876886264
  0
VERTEX
  8
0
 62
7
  6
CONTINUOUS
 10
74.0346975435
 20
207.7788885807
  0
VERTEX
  8
0
 62
7
  6
CONTINUOUS
 10
74.020189031
 20
207.7693905698
  0
VERTEX
  8
0
 62
7
  6
CONTINUOUS
 10
74.0057039443
 20
207.7591646095
  0
VERTEX
  8
0
 62
7
  6
CONTINUOUS
 10
73.9912728217
 20
207.7481804935
  0
SEQEND
  0
POLYLINE
  8
0
 62
7
  6
CONTINUOUS
 66
1
 70
0
  0
VERTEX
  8
0
 62
7
  6
CONTINUOUS
 10
74.1362226902
 20
207.8278129653
  0
VERTEX
  8
0
 62
7
  6
CONTINUOUS
 10
74.1343260648
 20
207.827151195
  0
VERTEX
  8
0
 62
7
  6
CONTINUOUS
 10
74.1297992333
 20
207.8255228139
  0
SEQEND
  0
POLYLINE
  8
0
 62
7
  6
CONTINUOUS
 66
1
 70
0
  0
VERTEX
  8
0
 62
7
  6
CONTINUOUS
 10
50.117041578
 20
199.165614823
  0
VERTEX
  8
0
 62
7
  6
CONTINUOUS
 10
50.2697123069
 20
199.215535476
  0
VERTEX
  8
0
 62
7
  6
CONTINUOUS
 10
50.3586318323
 20
199.2440218387
  0
VERTEX
  8
0
 62
7
  6
CONTINUOUS
 10
50.459049239
 20
199.2748658863
  0
VERTEX
  8
0
 62
7
  6
CONTINUOUS
 10
50.5741984769
 20
199.3078749645
  0
VERTEX
  8
0
 62
7
  6
CONTINUOUS
 10
50.7071424617
 20
199.3420954231
  0
VERTEX
  8
0
 62
7
  6
CONTINUOUS
 10
50.8558406341
 20
199.3745670451
  0
VERTEX
  8
0
 62
7
  6
CONTINUOUS
 10
51.0145507208
 20
199.4015529431
  0
VERTEX
  8
0
 62
7
  6
CONTINUOUS
 10
51.1728107949
 20
199.419784976
  0
VERTEX
  8
0
 62
7
  6
CONTINUOUS
 10
51.3210162505
 20
199.4284893863
  0
VERTEX
  8
0
 62
7
  6
CONTINUOUS
 10
51.4648949553
 20
199.4289488034
  0
VERTEX
  8
0
 62
7
  6
CONTINUOUS
 10
51.6120901707
 20
199.421258304
  0
VERTEX
  8
0
 62
7
  6
CONTINUOUS
 10
51.7690949414
 20
199.4042079245
  0
VERTEX
  8
0
 62
7
  6
CONTINUOUS
 10
51.928399892
 20
199.3781114862
  0
VERTEX
  8
0
 62
7
  6
CONTINUOUS
 10
52.0786920006
 20
199.3460795677
  0
VERTEX
  8
0
 62
7
  6
CONTINUOUS
 10
52.2137021525
 20
199.3118775041
  0
VERTEX
  8
0
 62
7
  6
CONTINUOUS
 10
52.3306841212
 20
199.2786925415
  0
VERTEX
  8
0
 62
7
  6
CONTINUOUS
 10
52.4325575695
 20
199.247609874
  0
VERTEX
  8
0
 62
7
  6
CONTINUOUS
 10
52.5225755924
 20
199.2188820765
  0
SEQEND
  0
POLYLINE
  8
0
 62
7
  6
CONTINUOUS
 66
1
 70
0
  0
VERTEX
  8
0
 62
7
  6
CONTINUOUS
 10
85.7212513465
 20
199.0607642147
  0
VERTEX
  8
0
 62
7
  6
CONTINUOUS
 10
85.8015820941
 20
199.0789570508
  0
VERTEX
  8
0
 62
7
  6
CONTINUOUS
 10
85.8815275197
 20
199.1119878679
  0
VERTEX
  8
0
 62
7
  6
CONTINUOUS
 10
85.9569298301
 20
199.1601062753
  0
VERTEX
  8
0
 62
7
  6
CONTINUOUS
 10
86.0236362725
 20
199.2220985112
  0
VERTEX
  8
0
 62
7
  6
CONTINUOUS
 10
86.078142867
 20
199.2954112941
  0
VERTEX
  8
0
 62
7
  6
CONTINUOUS
 10
86.1180418729
 20
199.3764866652
  0
VERTEX
  8
0
 62
7
  6
CONTINUOUS
 10
86.1422792348
 20
199.4612340911
  0
SEQEND
  0
POLYLINE
  8
0
 62
7
  6
CONTINUOUS
 66
1
 70
0
  0
VERTEX
  8
0
 62
7
  6
CONTINUOUS
 10
88.466169025
 20
199.0895933586
  0
VERTEX
  8
0
 62
7
  6
CONTINUOUS
 10
88.6133210235
 20
199.1153164622
  0
VERTEX
  8
0
 62
7
  6
CONTINUOUS
 10
88.7012714045
 20
199.1300399866
  0
VERTEX
  8
0
 62
7
  6
CONTINUOUS
 10
88.7996880342
 20
199.1453365057
  0
VERTEX
  8
0
 62
7
  6
CONTINUOUS
 10
88.9100279749
 20
199.1606183182
  0
VERTEX
  8
0
 62
7
  6
CONTINUOUS
 10
89.0339726303
 20
199.1750677551
  0
VERTEX
  8
0
 62
7
  6
CONTINUOUS
 10
89.1727846289
 20
199.1874992143
  0
VERTEX
  8
0
 62
7
  6
CONTINUOUS
 10
89.3244796952
 20
199.1962584998
  0
VERTEX
  8
0
 62
7
  6
CONTINUOUS
 10
89.4841222898
 20
199.199827063
  0
VERTEX
  8
0
 62
7
  6
CONTINUOUS
 10
89.6454522156
 20
199.1974650256
  0
VERTEX
  8
0
 62
7
  6
CONTINUOUS
 10
89.8012014425
 20
199.189544798
  0
VERTEX
  8
0
 62
7
  6
CONTINUOUS
 10
89.944826554
 20
199.1774894816
  0
VERTEX
  8
0
 62
7
  6
CONTINUOUS
 10
90.0728403223
 20
199.1631198948
  0
VERTEX
  8
0
 62
7
  6
CONTINUOUS
 10
90.1864059619
 20
199.1477571566
  0
VERTEX
  8
0
 62
7
  6
CONTINUOUS
 10
90.2874748596
 20
199.1322778264
  0
VERTEX
  8
0
 62
7
  6
CONTINUOUS
 10
90.3777740442
 20
199.1172882867
  0
SEQEND
  0
POLYLINE
  8
0
 62
7
  6
CONTINUOUS
 66
1
 70
0
  0
VERTEX
  8
0
 62
7
  6
CONTINUOUS
 10
92.0881084696
 20
199.0634524345
  0
VERTEX
  8
0
 62
7
  6
CONTINUOUS
 10
92.0886733765
 20
199.0635485042
  0
VERTEX
  8
0
 62
7
  6
CONTINUOUS
 10
92.0958175304
 20
199.0648699535
  0
VERTEX
  8
0
 62
7
  6
CONTINUOUS
 10
92.1030183161
 20
199.0663109768
  0
VERTEX
  8
0
 62
7
  6
CONTINUOUS
 10
92.1102715622
 20
199.0678742091
  0
VERTEX
  8
0
 62
7
  6
CONTINUOUS
 10
92.1175730216
 20
199.0695621607
  0
VERTEX
  8
0
 62
7
  6
CONTINUOUS
 10
92.1249183746
 20
199.0713772131
  0
VERTEX
  8
0
 62
7
  6
CONTINUOUS
 10
92.1323032324
 20
199.0733216134
  0
VERTEX
  8
0
 62
7
  6
CONTINUOUS
 10
92.1397231409
 20
199.0753974705
  0
VERTEX
  8
0
 62
7
  6
CONTINUOUS
 10
92.1471735849
 20
199.0776067505
  0
VERTEX
  8
0
 62
7
  6
CONTINUOUS
 10
92.1546499924
 20
199.0799512724
  0
VERTEX
  8
0
 62
7
  6
CONTINUOUS
 10
92.162147739
 20
199.0824327044
  0
VERTEX
  8
0
 62
7
  6
CONTINUOUS
 10
92.169662153
 20
199.0850525603
  0
SEQEND
  0
POLYLINE
  8
0
 62
7
  6
CONTINUOUS
 66
1
 70
0
  0
VERTEX
  8
0
 62
7
  6
CONTINUOUS
 10
94.974831849
 20
199.11728816
  0
VERTEX
  8
0
 62
7
  6
CONTINUOUS
 10
95.0651308479
 20
199.1322776775
  0
VERTEX
  8
0
 62
7
  6
CONTINUOUS
 10
95.1661995316
 20
199.1477569908
  0
VERTEX
  8
0
 62
7
  6
CONTINUOUS
 10
95.2797649044
 20
199.1631197189
  0
VERTEX
  8
0
 62
7
  6
CONTINUOUS
 10
95.4077783265
 20
199.1774893074
  0
VERTEX
  8
0
 62
7
  6
CONTINUOUS
 10
95.5514030284
 20
199.1895446501
  0
VERTEX
  8
0
 62
7
  6
CONTINUOUS
 10
95.7071519251
 20
199.1974649428
  0
VERTEX
  8
0
 62
7
  6
CONTINUOUS
 10
95.8684817436
 20
199.1998270733
  0
VERTEX
  8
0
 62
7
  6
CONTINUOUS
 10
96.0281245184
 20
199.1962585983
  0
VERTEX
  8
0
 62
7
  6
CONTINUOUS
 10
96.1798199428
 20
199.1874993683
  0
VERTEX
  8
0
 62
7
  6
CONTINUOUS
 10
96.3186323376
 20
199.1750679288
  0
VERTEX
  8
0
 62
7
  6
CONTINUOUS
 10
96.4425773147
 20
199.1606184912
  0
VERTEX
  8
0
 62
7
  6
CONTINUOUS
 10
96.5529175054
 20
199.1453366678
  0
VERTEX
  8
0
 62
7
  6
CONTINUOUS
 10
96.6513343378
 20
199.1300401316
  0
VERTEX
  8
0
 62
7
  6
CONTINUOUS
 10
96.7392848984
 20
199.1153165847
  0
SEQEND
  0
LINE
  8
0
 62
7
  6
CONTINUOUS
 10
92.003499881
 20
199.0558602576
 11
92.0885582293
 21
199.0635185151
  0
POLYLINE
  8
0
 62
7
  6
CONTINUOUS
 66
1
 70
0
  0
VERTEX
  8
0
 62
7
  6
CONTINUOUS
 10
103.8637929232
 20
199.0735993305
  0
VERTEX
  8
0
 62
7
  6
CONTINUOUS
 10
103.9517664148
 20
199.0793850632
  0
VERTEX
  8
0
 62
7
  6
CONTINUOUS
 10
104.0376336508
 20
199.1005705686
  0
VERTEX
  8
0
 62
7
  6
CONTINUOUS
 10
104.1185762884
 20
199.1365851601
  0
VERTEX
  8
0
 62
7
  6
CONTINUOUS
 10
104.1920077481
 20
199.1863619809
  0
VERTEX
  8
0
 62
7
  6
CONTINUOUS
 10
104.2555530173
 20
199.248353827
  0
VERTEX
  8
0
 62
7
  6
CONTINUOUS
 10
104.3071646615
 20
199.3205933533
  0
VERTEX
  8
0
 62
7
  6
CONTINUOUS
 10
104.3452008788
 20
199.4007726785
  0
VERTEX
  8
0
 62
7
  6
CONTINUOUS
 10
104.3684769573
 20
199.4863254179
  0
VERTEX
  8
0
 62
7
  6
CONTINUOUS
 10
104.3763033175
 20
199.5745188871
  0
SEQEND
  0
POLYLINE
  8
0
 62
7
  6
CONTINUOUS
 66
1
 70
0
  0
VERTEX
  8
0
 62
7
  6
CONTINUOUS
 10
61.6013156661
 20
199.0558562889
  0
VERTEX
  8
0
 62
7
  6
CONTINUOUS
 10
61.514489024
 20
199.0634513157
  0
VERTEX
  8
0
 62
7
  6
CONTINUOUS
 10
61.4303003717
 20
199.0860086024
  0
VERTEX
  8
0
 62
7
  6
CONTINUOUS
 10
61.3513078576
 20
199.1228427249
  0
VERTEX
  8
0
 62
7
  6
CONTINUOUS
 10
61.2799117463
 20
199.1728344442
  0
VERTEX
  8
0
 62
7
  6
CONTINUOUS
 10
61.2182814814
 20
199.2344647133
  0
VERTEX
  8
0
 62
7
  6
CONTINUOUS
 10
61.1682897619
 20
199.3058608343
  0
VERTEX
  8
0
 62
7
  6
CONTINUOUS
 10
61.1314556366
 20
199.3848533645
  0
VERTEX
  8
0
 62
7
  6
CONTINUOUS
 10
61.1088983462
 20
199.4690420398
  0
VERTEX
  8
0
 62
7
  6
CONTINUOUS
 10
61.1013033176
 20
199.5558687115
  0
SEQEND
  0
LINE
  8
0
 62
7
  6
CONTINUOUS
 10
67.8643454604
 20
199.0634807243
 11
67.9451492369
 21
199.0562798082
  0
LINE
  8
0
 62
7
  6
CONTINUOUS
 10
52.9691114212
 20
199.0847553494
 11
53.0637955299
 21
199.073599068
  0
POLYLINE
  8
0
 62
7
  6
CONTINUOUS
 66
1
 70
0
  0
VERTEX
  8
0
 62
7
  6
CONTINUOUS
 10
65.1914382458
 20
199.0801957544
  0
VERTEX
  8
0
 62
7
  6
CONTINUOUS
 10
65.247280349
 20
199.0712876874
  0
VERTEX
  8
0
 62
7
  6
CONTINUOUS
 10
65.298318434
 20
199.064211411
  0
VERTEX
  8
0
 62
7
  6
CONTINUOUS
 10
65.3473052456
 20
199.0590213542
  0
VERTEX
  8
0
 62
7
  6
CONTINUOUS
 10
65.3974816299
 20
199.0561353553
  0
VERTEX
  8
0
 62
7
  6
CONTINUOUS
 10
65.4174996551
 20
199.0558563975
  0
SEQEND
  0
LINE
  8
0
 62
7
  6
CONTINUOUS
 10
61.5145401315
 20
199.0634468451
 11
61.5229281813
 21
199.062038113
  0
POLYLINE
  8
0
 62
7
  6
CONTINUOUS
 66
1
 70
0
  0
VERTEX
  8
0
 62
7
  6
CONTINUOUS
 10
67.8636354739
 20
199.0636014044
  0
VERTEX
  8
0
 62
7
  6
CONTINUOUS
 10
67.8713992187
 20
199.0622817605
  0
VERTEX
  8
0
 62
7
  6
CONTINUOUS
 10
67.879086858
 20
199.0610985496
  0
VERTEX
  8
0
 62
7
  6
CONTINUOUS
 10
67.886690601
 20
199.06004827
  0
VERTEX
  8
0
 62
7
  6
CONTINUOUS
 10
67.8941931657
 20
199.0591282121
  0
VERTEX
  8
0
 62
7
  6
CONTINUOUS
 10
67.9015757485
 20
199.0583349552
  0
VERTEX
  8
0
 62
7
  6
CONTINUOUS
 10
67.9088196529
 20
199.0576641534
  0
VERTEX
  8
0
 62
7
  6
CONTINUOUS
 10
67.9159063334
 20
199.0571105857
  0
VERTEX
  8
0
 62
7
  6
CONTINUOUS
 10
67.9228174178
 20
199.0566682141
  0
VERTEX
  8
0
 62
7
  6
CONTINUOUS
 10
67.9295346144
 20
199.0563302512
  0
VERTEX
  8
0
 62
7
  6
CONTINUOUS
 10
67.9360325756
 20
199.056089441
  0
VERTEX
  8
0
 62
7
  6
CONTINUOUS
 10
67.9422378043
 20
199.0559384211
  0
VERTEX
  8
0
 62
7
  6
CONTINUOUS
 10
67.9480544119
 20
199.0558668239
  0
VERTEX
  8
0
 62
7
  6
CONTINUOUS
 10
69.1351083535
 20
199.0558563698
  0
SEQEND
  0
POLYLINE
  8
0
 62
7
  6
CONTINUOUS
 66
1
 70
0
  0
VERTEX
  8
0
 62
7
  6
CONTINUOUS
 10
71.3392847627
 20
199.115316608
  0
VERTEX
  8
0
 62
7
  6
CONTINUOUS
 10
71.4864371133
 20
199.0895934451
  0
VERTEX
  8
0
 62
7
  6
CONTINUOUS
 10
71.5475479029
 20
199.0791814645
  0
VERTEX
  8
0
 62
7
  6
CONTINUOUS
 10
71.602268297
 20
199.0705412922
  0
VERTEX
  8
0
 62
7
  6
CONTINUOUS
 10
71.652519304
 20
199.0636944732
  0
VERTEX
  8
0
 62
7
  6
CONTINUOUS
 10
71.7010513713
 20
199.0587105288
  0
VERTEX
  8
0
 62
7
  6
CONTINUOUS
 10
71.7510168378
 20
199.0560466559
  0
VERTEX
  8
0
 62
7
  6
CONTINUOUS
 10
71.7675098051
 20
199.0558563674
  0
SEQEND
  0
LINE
  8
0
 62
7
  6
CONTINUOUS
 10
64.9777740442
 20
199.1172882867
 11
65.1914382458
 21
199.0801957544
  0
POLYLINE
  8
0
 62
7
  6
CONTINUOUS
 66
1
 70
0
  0
VERTEX
  8
0
 62
7
  6
CONTINUOUS
 10
74.173638106
 20
199.0724286196
  0
VERTEX
  8
0
 62
7
  6
CONTINUOUS
 10
74.1814314727
 20
199.0704374791
  0
VERTEX
  8
0
 62
7
  6
CONTINUOUS
 10
74.1891758231
 20
199.068590379
  0
VERTEX
  8
0
 62
7
  6
CONTINUOUS
 10
74.1968668199
 20
199.0668842845
  0
VERTEX
  8
0
 62
7
  6
CONTINUOUS
 10
74.2045002295
 20
199.06531605
  0
VERTEX
  8
0
 62
7
  6
CONTINUOUS
 10
74.2120719241
 20
199.0638824254
  0
SEQEND
  0
LINE
  8
0
 62
7
  6
CONTINUOUS
 10
67.7816572164
 20
199.0854968833
 11
67.8643454604
 21
199.0634807243
  0
POLYLINE
  8
0
 62
7
  6
CONTINUOUS
 66
1
 70
0
  0
VERTEX
  8
0
 62
7
  6
CONTINUOUS
 10
74.1261038851
 20
199.0875550119
  0
VERTEX
  8
0
 62
7
  6
CONTINUOUS
 10
74.1340947822
 20
199.0846427491
  0
VERTEX
  8
0
 62
7
  6
CONTINUOUS
 10
74.1420647166
 20
199.0818901206
  0
VERTEX
  8
0
 62
7
  6
CONTINUOUS
 10
74.150008787
 20
199.0792948646
  0
VERTEX
  8
0
 62
7
  6
CONTINUOUS
 10
74.1579221775
 20
199.0768545776
  0
VERTEX
  8
0
 62
7
  6
CONTINUOUS
 10
74.1658001617
 20
199.0745667198
  0
VERTEX
  8
0
 62
7
  6
CONTINUOUS
 10
74.173638106
 20
199.0724286196
  0
SEQEND
  0
LINE
  8
0
 62
7
  6
CONTINUOUS
 10
53.2961965534
 20
207.8049561019
 11
53.2226658652
 21
207.8339889128
  0
POLYLINE
  8
0
 62
7
  6
CONTINUOUS
 66
1
 70
0
  0
VERTEX
  8
0
 62
7
  6
CONTINUOUS
 10
74.1100792079
 20
199.0938667548
  0
VERTEX
  8
0
 62
7
  6
CONTINUOUS
 10
74.1180970075
 20
199.0906290252
  0
VERTEX
  8
0
 62
7
  6
CONTINUOUS
 10
74.1261038851
 20
199.0875550119
  0
SEQEND
  0
POLYLINE
  8
0
 62
7
  6
CONTINUOUS
 66
1
 70
0
  0
VERTEX
  8
0
 62
7
  6
CONTINUOUS
 10
53.2968183977
 20
207.8045865674
  0
VERTEX
  8
0
 62
7
  6
CONTINUOUS
 10
53.2890783701
 20
207.8083287605
  0
VERTEX
  8
0
 62
7
  6
CONTINUOUS
 10
53.2794031581
 20
207.8127533096
  0
VERTEX
  8
0
 62
7
  6
CONTINUOUS
 10
53.2697787923
 20
207.816911101
  0
VERTEX
  8
0
 62
7
  6
CONTINUOUS
 10
53.2602123014
 20
207.8208096691
  0
VERTEX
  8
0
 62
7
  6
CONTINUOUS
 10
53.25071029
 20
207.8244565705
  0
VERTEX
  8
0
 62
7
  6
CONTINUOUS
 10
53.2470987716
 20
207.8257595952
  0
SEQEND
  0
POLYLINE
  8
0
 62
7
  6
CONTINUOUS
 66
1
 70
0
  0
VERTEX
  8
0
 62
7
  6
CONTINUOUS
 10
74.0474544477
 20
199.1250624278
  0
VERTEX
  8
0
 62
7
  6
CONTINUOUS
 10
74.1129838657
 20
199.092656013
  0
VERTEX
  8
0
 62
7
  6
CONTINUOUS
 10
74.179046834
 20
199.07101941
  0
SEQEND
  0
POLYLINE
  8
0
 62
7
  6
CONTINUOUS
 66
1
 70
0
  0
VERTEX
  8
0
 62
7
  6
CONTINUOUS
 10
74.0461726518
 20
199.1258451984
  0
VERTEX
  8
0
 62
7
  6
CONTINUOUS
 10
74.0540879416
 20
199.1212464279
  0
VERTEX
  8
0
 62
7
  6
CONTINUOUS
 10
74.0620349984
 20
199.1168211852
  0
VERTEX
  8
0
 62
7
  6
CONTINUOUS
 10
74.0700083211
 20
199.1125688521
  0
VERTEX
  8
0
 62
7
  6
CONTINUOUS
 10
74.0780024439
 20
199.1084886305
  0
VERTEX
  8
0
 62
7
  6
CONTINUOUS
 10
74.0860119432
 20
199.1045795448
  0
VERTEX
  8
0
 62
7
  6
CONTINUOUS
 10
74.0940314427
 20
199.1008404452
  0
VERTEX
  8
0
 62
7
  6
CONTINUOUS
 10
74.1020556192
 20
199.0972700111
  0
VERTEX
  8
0
 62
7
  6
CONTINUOUS
 10
74.1100792079
 20
199.0938667548
  0
SEQEND
  0
POLYLINE
  8
0
 62
7
  6
CONTINUOUS
 66
1
 70
0
  0
VERTEX
  8
0
 62
7
  6
CONTINUOUS
 10
73.9844472311
 20
199.1690734886
  0
VERTEX
  8
0
 62
7
  6
CONTINUOUS
 10
73.9846609367
 20
199.1688951616
  0
VERTEX
  8
0
 62
7
  6
CONTINUOUS
 10
73.9921218354
 20
199.1629083111
  0
VERTEX
  8
0
 62
7
  6
CONTINUOUS
 10
73.9996590344
 20
199.1570931789
  0
VERTEX
  8
0
 62
7
  6
CONTINUOUS
 10
74.007266979
 20
199.1514506625
  0
VERTEX
  8
0
 62
7
  6
CONTINUOUS
 10
74.014940097
 20
199.1459814653
  0
VERTEX
  8
0
 62
7
  6
CONTINUOUS
 10
74.0226728062
 20
199.1406860975
  0
VERTEX
  8
0
 62
7
  6
CONTINUOUS
 10
74.0304595212
 20
199.1355648773
  0
VERTEX
  8
0
 62
7
  6
CONTINUOUS
 10
74.0382946602
 20
199.1306179316
  0
VERTEX
  8
0
 62
7
  6
CONTINUOUS
 10
74.0461726518
 20
199.1258451984
  0
SEQEND
  0
POLYLINE
  8
0
 62
7
  6
CONTINUOUS
 66
1
 70
0
  0
VERTEX
  8
0
 62
7
  6
CONTINUOUS
 10
66.9429802387
 20
207.7209004897
  0
VERTEX
  8
0
 62
7
  6
CONTINUOUS
 10
66.9377156667
 20
207.7257577873
  0
VERTEX
  8
0
 62
7
  6
CONTINUOUS
 10
66.9325680824
 20
207.7303747034
  0
VERTEX
  8
0
 62
7
  6
CONTINUOUS
 10
66.9275223885
 20
207.734777791
  0
VERTEX
  8
0
 62
7
  6
CONTINUOUS
 10
66.9226222328
 20
207.7389411794
  0
SEQEND
  0
POLYLINE
  8
0
 62
7
  6
CONTINUOUS
 66
1
 70
0
  0
VERTEX
  8
0
 62
7
  6
CONTINUOUS
 10
66.9539388647
 20
207.7103794581
  0
VERTEX
  8
0
 62
7
  6
CONTINUOUS
 10
66.9398786279
 20
207.7238307252
  0
VERTEX
  8
0
 62
7
  6
CONTINUOUS
 10
66.9256557265
 20
207.7364264836
  0
SEQEND
  0
LINE
  8
0
 62
7
  6
CONTINUOUS
 10
66.9539125415
 20
207.7103518753
 11
66.948375291
 21
207.7157749348
  0
POLYLINE
  8
0
 62
7
  6
CONTINUOUS
 66
1
 70
0
  0
VERTEX
  8
0
 62
7
  6
CONTINUOUS
 10
73.8014209461
 20
199.5449522661
  0
VERTEX
  8
0
 62
7
  6
CONTINUOUS
 10
73.8119269991
 20
199.4532802267
  0
VERTEX
  8
0
 62
7
  6
CONTINUOUS
 10
73.8380547825
 20
199.3676568919
  0
VERTEX
  8
0
 62
7
  6
CONTINUOUS
 10
73.877324142
 20
199.2907818216
  0
VERTEX
  8
0
 62
7
  6
CONTINUOUS
 10
73.927097909
 20
199.2242009756
  0
VERTEX
  8
0
 62
7
  6
CONTINUOUS
 10
73.9846834286
 20
199.168846442
  0
SEQEND
  0
POLYLINE
  8
0
 62
7
  6
CONTINUOUS
 66
1
 70
0
  0
VERTEX
  8
0
 62
7
  6
CONTINUOUS
 10
66.8448792203
 20
199.1191963761
  0
VERTEX
  8
0
 62
7
  6
CONTINUOUS
 10
66.8523346211
 20
199.1234393557
  0
VERTEX
  8
0
 62
7
  6
CONTINUOUS
 10
66.8597639748
 20
199.1278385013
  0
VERTEX
  8
0
 62
7
  6
CONTINUOUS
 10
66.8671635491
 20
199.1323949654
  0
VERTEX
  8
0
 62
7
  6
CONTINUOUS
 10
66.8745295406
 20
199.1371098235
  0
VERTEX
  8
0
 62
7
  6
CONTINUOUS
 10
66.8818580767
 20
199.1419840703
  0
VERTEX
  8
0
 62
7
  6
CONTINUOUS
 10
66.8891452157
 20
199.1470186176
  0
VERTEX
  8
0
 62
7
  6
CONTINUOUS
 10
66.8963869489
 20
199.1522142907
  0
VERTEX
  8
0
 62
7
  6
CONTINUOUS
 10
66.9035792012
 20
199.1575718259
  0
VERTEX
  8
0
 62
7
  6
CONTINUOUS
 10
66.9107178328
 20
199.1630918674
  0
VERTEX
  8
0
 62
7
  6
CONTINUOUS
 10
66.9177986406
 20
199.1687749643
  0
VERTEX
  8
0
 62
7
  6
CONTINUOUS
 10
66.9225789797
 20
199.1727569936
  0
SEQEND
  0
POLYLINE
  8
0
 62
7
  6
CONTINUOUS
 66
1
 70
0
  0
VERTEX
  8
0
 62
7
  6
CONTINUOUS
 10
56.4756779162
 20
199.1684240099
  0
VERTEX
  8
0
 62
7
  6
CONTINUOUS
 10
56.6299962578
 20
199.2188708493
  0
VERTEX
  8
0
 62
7
  6
CONTINUOUS
 10
56.720022806
 20
199.2476015883
  0
VERTEX
  8
0
 62
7
  6
CONTINUOUS
 10
56.8218917314
 20
199.2786833404
  0
VERTEX
  8
0
 62
7
  6
CONTINUOUS
 10
56.9388662482
 20
199.3118672892
  0
VERTEX
  8
0
 62
7
  6
CONTINUOUS
 10
57.073858518
 20
199.3460665047
  0
VERTEX
  8
0
 62
7
  6
CONTINUOUS
 10
57.2241432331
 20
199.3780994789
  0
VERTEX
  8
0
 62
7
  6
CONTINUOUS
 10
57.3834990762
 20
199.4042062176
  0
VERTEX
  8
0
 62
7
  6
CONTINUOUS
 10
57.5406047368
 20
199.4212653899
  0
VERTEX
  8
0
 62
7
  6
CONTINUOUS
 10
57.6878484625
 20
199.4289522251
  0
VERTEX
  8
0
 62
7
  6
CONTINUOUS
 10
57.8317269133
 20
199.4284853555
  0
VERTEX
  8
0
 62
7
  6
CONTINUOUS
 10
57.9799010867
 20
199.4197759707
  0
VERTEX
  8
0
 62
7
  6
CONTINUOUS
 10
58.1381086314
 20
199.4015453679
  0
VERTEX
  8
0
 62
7
  6
CONTINUOUS
 10
58.2967932761
 20
199.374561697
  0
VERTEX
  8
0
 62
7
  6
CONTINUOUS
 10
58.445497695
 20
199.3420874113
  0
VERTEX
  8
0
 62
7
  6
CONTINUOUS
 10
58.5784552977
 20
199.3078621656
  0
VERTEX
  8
0
 62
7
  6
CONTINUOUS
 10
58.6936082817
 20
199.274850746
  0
VERTEX
  8
0
 62
7
  6
CONTINUOUS
 10
58.7940169141
 20
199.2440084714
  0
VERTEX
  8
0
 62
7
  6
CONTINUOUS
 10
58.8829351974
 20
199.2155222701
  0
SEQEND
  0
POLYLINE
  8
0
 62
7
  6
CONTINUOUS
 66
1
 70
0
  0
VERTEX
  8
0
 62
7
  6
CONTINUOUS
 10
56.2815324278
 20
199.1089264166
  0
VERTEX
  8
0
 62
7
  6
CONTINUOUS
 10
56.3437726801
 20
199.1268231997
  0
VERTEX
  8
0
 62
7
  6
CONTINUOUS
 10
56.4078376041
 20
199.1466042941
  0
VERTEX
  8
0
 62
7
  6
CONTINUOUS
 10
56.4756779162
 20
199.1684240099
  0
SEQEND
  0
POLYLINE
  8
0
 62
7
  6
CONTINUOUS
 66
1
 70
0
  0
VERTEX
  8
0
 62
7
  6
CONTINUOUS
 10
85.7359008564
 20
199.0630644526
  0
VERTEX
  8
0
 62
7
  6
CONTINUOUS
 10
85.7426539929
 20
199.0642714747
  0
VERTEX
  8
0
 62
7
  6
CONTINUOUS
 10
85.7494708227
 20
199.065587226
  0
VERTEX
  8
0
 62
7
  6
CONTINUOUS
 10
85.7563465994
 20
199.0670142293
  0
VERTEX
  8
0
 62
7
  6
CONTINUOUS
 10
85.763276513
 20
199.0685548517
  0
VERTEX
  8
0
 62
7
  6
CONTINUOUS
 10
85.7702556941
 20
199.0702112996
  0
VERTEX
  8
0
 62
7
  6
CONTINUOUS
 10
85.7772792191
 20
199.0719856124
  0
VERTEX
  8
0
 62
7
  6
CONTINUOUS
 10
85.7843421151
 20
199.0738796578
  0
VERTEX
  8
0
 62
7
  6
CONTINUOUS
 10
85.7914393655
 20
199.0758951266
  0
VERTEX
  8
0
 62
7
  6
CONTINUOUS
 10
85.7985659157
 20
199.0780335285
  0
VERTEX
  8
0
 62
7
  6
CONTINUOUS
 10
85.8057166796
 20
199.0802961874
  0
VERTEX
  8
0
 62
7
  6
CONTINUOUS
 10
85.8128865455
 20
199.0826842383
  0
VERTEX
  8
0
 62
7
  6
CONTINUOUS
 10
85.8200703829
 20
199.0851986231
  0
VERTEX
  8
0
 62
7
  6
CONTINUOUS
 10
85.8272630493
 20
199.0878400878
  0
VERTEX
  8
0
 62
7
  6
CONTINUOUS
 10
85.8344599006
 20
199.0906093784
  0
VERTEX
  8
0
 62
7
  6
CONTINUOUS
 10
85.8416580911
 20
199.0935078153
  0
VERTEX
  8
0
 62
7
  6
CONTINUOUS
 10
85.8488551296
 20
199.0965368351
  0
VERTEX
  8
0
 62
7
  6
CONTINUOUS
 10
85.856048463
 20
199.0996978386
  0
VERTEX
  8
0
 62
7
  6
CONTINUOUS
 10
85.8632354763
 20
199.1029921892
  0
VERTEX
  8
0
 62
7
  6
CONTINUOUS
 10
85.8704134921
 20
199.1064212109
  0
VERTEX
  8
0
 62
7
  6
CONTINUOUS
 10
85.8775797712
 20
199.1099861859
  0
VERTEX
  8
0
 62
7
  6
CONTINUOUS
 10
85.8847315122
 20
199.1136883532
  0
VERTEX
  8
0
 62
7
  6
CONTINUOUS
 10
85.8918658516
 20
199.1175289058
  0
VERTEX
  8
0
 62
7
  6
CONTINUOUS
 10
85.8989798641
 20
199.121508989
  0
VERTEX
  8
0
 62
7
  6
CONTINUOUS
 10
85.9060705625
 20
199.1256296981
  0
VERTEX
  8
0
 62
7
  6
CONTINUOUS
 10
85.9131348984
 20
199.1298920761
  0
VERTEX
  8
0
 62
7
  6
CONTINUOUS
 10
85.9201697619
 20
199.1342971116
  0
VERTEX
  8
0
 62
7
  6
CONTINUOUS
 10
85.9271719825
 20
199.1388457365
  0
VERTEX
  8
0
 62
7
  6
CONTINUOUS
 10
85.9341383293
 20
199.1435388234
  0
VERTEX
  8
0
 62
7
  6
CONTINUOUS
 10
85.9410655114
 20
199.1483771838
  0
VERTEX
  8
0
 62
7
  6
CONTINUOUS
 10
85.9479501786
 20
199.1533615655
  0
VERTEX
  8
0
 62
7
  6
CONTINUOUS
 10
85.9547889222
 20
199.15849265
  0
VERTEX
  8
0
 62
7
  6
CONTINUOUS
 10
85.9615782751
 20
199.1637710503
  0
VERTEX
  8
0
 62
7
  6
CONTINUOUS
 10
85.9683147134
 20
199.1691973087
  0
VERTEX
  8
0
 62
7
  6
CONTINUOUS
 10
85.9749946566
 20
199.1747718939
  0
VERTEX
  8
0
 62
7
  6
CONTINUOUS
 10
85.9816144689
 20
199.1804951987
  0
VERTEX
  8
0
 62
7
  6
CONTINUOUS
 10
85.9881704599
 20
199.1863675377
  0
VERTEX
  8
0
 62
7
  6
CONTINUOUS
 10
85.9946588861
 20
199.1923891444
  0
VERTEX
  8
0
 62
7
  6
CONTINUOUS
 10
86.0010759519
 20
199.1985601694
  0
VERTEX
  8
0
 62
7
  6
CONTINUOUS
 10
86.0074178324
 20
199.2048806989
  0
VERTEX
  8
0
 62
7
  6
CONTINUOUS
 10
86.0136810389
 20
199.2113511401
  0
VERTEX
  8
0
 62
7
  6
CONTINUOUS
 10
86.0198623331
 20
199.2179721977
  0
VERTEX
  8
0
 62
7
  6
CONTINUOUS
 10
86.0259583809
 20
199.2247445473
  0
VERTEX
  8
0
 62
7
  6
CONTINUOUS
 10
86.0319657396
 20
199.2316688191
  0
VERTEX
  8
0
 62
7
  6
CONTINUOUS
 10
86.0378808564
 20
199.2387455934
  0
VERTEX
  8
0
 62
7
  6
CONTINUOUS
 10
86.0437000665
 20
199.2459753955
  0
VERTEX
  8
0
 62
7
  6
CONTINUOUS
 10
86.049419592
 20
199.2533586908
  0
VERTEX
  8
0
 62
7
  6
CONTINUOUS
 10
86.0550355408
 20
199.2608958793
  0
VERTEX
  8
0
 62
7
  6
CONTINUOUS
 10
86.0605439051
 20
199.2685872904
  0
VERTEX
  8
0
 62
7
  6
CONTINUOUS
 10
86.0659405609
 20
199.2764331772
  0
VERTEX
  8
0
 62
7
  6
CONTINUOUS
 10
86.0712212665
 20
199.2844337104
  0
VERTEX
  8
0
 62
7
  6
CONTINUOUS
 10
86.0763816627
 20
199.2925889729
  0
VERTEX
  8
0
 62
7
  6
CONTINUOUS
 10
86.0814172714
 20
199.3008989528
  0
VERTEX
  8
0
 62
7
  6
CONTINUOUS
 10
86.086323496
 20
199.309363538
  0
VERTEX
  8
0
 62
7
  6
CONTINUOUS
 10
86.0910956208
 20
199.3179825085
  0
VERTEX
  8
0
 62
7
  6
CONTINUOUS
 10
86.0957288113
 20
199.3267555308
  0
VERTEX
  8
0
 62
7
  6
CONTINUOUS
 10
86.1002181145
 20
199.3356821499
  0
VERTEX
  8
0
 62
7
  6
CONTINUOUS
 10
86.1045584592
 20
199.3447617829
  0
VERTEX
  8
0
 62
7
  6
CONTINUOUS
 10
86.1087446571
 20
199.3539937114
  0
VERTEX
  8
0
 62
7
  6
CONTINUOUS
 10
86.1127714036
 20
199.3633770738
  0
VERTEX
  8
0
 62
7
  6
CONTINUOUS
 10
86.1166332792
 20
199.3729108579
  0
VERTEX
  8
0
 62
7
  6
CONTINUOUS
 10
86.1203247511
 20
199.3825938927
  0
VERTEX
  8
0
 62
7
  6
CONTINUOUS
 10
86.123840175
 20
199.3924248405
  0
VERTEX
  8
0
 62
7
  6
CONTINUOUS
 10
86.1271737978
 20
199.4024021891
  0
VERTEX
  8
0
 62
7
  6
CONTINUOUS
 10
86.1303197596
 20
199.4125242424
  0
VERTEX
  8
0
 62
7
  6
CONTINUOUS
 10
86.1332720969
 20
199.4227891129
  0
VERTEX
  8
0
 62
7
  6
CONTINUOUS
 10
86.1360247459
 20
199.4331947119
  0
VERTEX
  8
0
 62
7
  6
CONTINUOUS
 10
86.1385715465
 20
199.4437387416
  0
VERTEX
  8
0
 62
7
  6
CONTINUOUS
 10
86.1409062458
 20
199.4544186855
  0
VERTEX
  8
0
 62
7
  6
CONTINUOUS
 10
86.1430225034
 20
199.4652317991
  0
SEQEND
  0
POLYLINE
  8
0
 62
7
  6
CONTINUOUS
 66
1
 70
0
  0
VERTEX
  8
0
 62
7
  6
CONTINUOUS
 10
92.0013031386
 20
199.0558561054
  0
VERTEX
  8
0
 62
7
  6
CONTINUOUS
 10
92.0881274753
 20
199.0634540977
  0
VERTEX
  8
0
 62
7
  6
CONTINUOUS
 10
92.1723128264
 20
199.0860130653
  0
SEQEND
  0
LINE
  8
0
 62
7
  6
CONTINUOUS
 10
85.7299530706
 20
199.0627349301
 11
85.7379897113
 21
199.0634378042
  0
POLYLINE
  8
0
 62
7
  6
CONTINUOUS
 66
1
 70
0
  0
VERTEX
  8
0
 62
7
  6
CONTINUOUS
 10
66.6013031386
 20
199.0558561054
  0
VERTEX
  8
0
 62
7
  6
CONTINUOUS
 10
66.6881274754
 20
199.0634540976
  0
VERTEX
  8
0
 62
7
  6
CONTINUOUS
 10
66.7723128264
 20
199.0860130653
  0
VERTEX
  8
0
 62
7
  6
CONTINUOUS
 10
66.8513016396
 20
199.1228473532
  0
VERTEX
  8
0
 62
7
  6
CONTINUOUS
 10
66.9226942809
 20
199.1728377296
  0
VERTEX
  8
0
 62
7
  6
CONTINUOUS
 10
66.9843218849
 20
199.2344653867
  0
VERTEX
  8
0
 62
7
  6
CONTINUOUS
 10
67.034312199
 20
199.3058580635
  0
VERTEX
  8
0
 62
7
  6
CONTINUOUS
 10
67.0711464268
 20
199.3848468898
  0
VERTEX
  8
0
 62
7
  6
CONTINUOUS
 10
67.093705348
 20
199.4690322318
  0
VERTEX
  8
0
 62
7
  6
CONTINUOUS
 10
67.1013033174
 20
199.5558565419
  0
SEQEND
  0
LINE
  8
0
 62
7
  6
CONTINUOUS
 10
85.6513651931
 20
199.0558554788
 11
85.7212513465
 21
199.0607642147
  0
LINE
  8
0
 62
7
  6
CONTINUOUS
 10
60.2513651931
 20
199.0558554788
 11
60.3212517372
 21
199.0607642699
  0
POLYLINE
  8
0
 62
7
  6
CONTINUOUS
 66
1
 70
0
  0
VERTEX
  8
0
 62
7
  6
CONTINUOUS
 10
81.3261932901
 20
199.0558576445
  0
VERTEX
  8
0
 62
7
  6
CONTINUOUS
 10
81.4046464294
 20
199.0586756072
  0
VERTEX
  8
0
 62
7
  6
CONTINUOUS
 10
81.484215116
 20
199.0670576416
  0
VERTEX
  8
0
 62
7
  6
CONTINUOUS
 10
81.5546597159
 20
199.0788392473
  0
VERTEX
  8
0
 62
7
  6
CONTINUOUS
 10
81.6194340825
 20
199.0929385007
  0
VERTEX
  8
0
 62
7
  6
CONTINUOUS
 10
81.6815377964
 20
199.1089278875
  0
VERTEX
  8
0
 62
7
  6
CONTINUOUS
 10
81.7437769226
 20
199.1268244708
  0
VERTEX
  8
0
 62
7
  6
CONTINUOUS
 10
81.8078412786
 20
199.1466054567
  0
VERTEX
  8
0
 62
7
  6
CONTINUOUS
 10
81.8756817458
 20
199.168425257
  0
SEQEND
  0
POLYLINE
  8
0
 62
7
  6
CONTINUOUS
 66
1
 70
0
  0
VERTEX
  8
0
 62
7
  6
CONTINUOUS
 10
100.376194824
 20
199.0558578122
  0
VERTEX
  8
0
 62
7
  6
CONTINUOUS
 10
100.4436748353
 20
199.0579503755
  0
VERTEX
  8
0
 62
7
  6
CONTINUOUS
 10
100.5245795395
 20
199.065756626
  0
VERTEX
  8
0
 62
7
  6
CONTINUOUS
 10
100.596042618
 20
199.0771902186
  0
VERTEX
  8
0
 62
7
  6
CONTINUOUS
 10
100.6614976885
 20
199.0910582186
  0
VERTEX
  8
0
 62
7
  6
CONTINUOUS
 10
100.7238457667
 20
199.1068345743
  0
VERTEX
  8
0
 62
7
  6
CONTINUOUS
 10
100.7859941044
 20
199.1245031848
  0
VERTEX
  8
0
 62
7
  6
CONTINUOUS
 10
100.8497482696
 20
199.1440514
  0
VERTEX
  8
0
 62
7
  6
CONTINUOUS
 10
100.9170415781
 20
199.165614823
  0
SEQEND
  0
POLYLINE
  8
0
 62
7
  6
CONTINUOUS
 66
1
 70
0
  0
VERTEX
  8
0
 62
7
  6
CONTINUOUS
 10
74.9761947926
 20
199.0558578122
  0
VERTEX
  8
0
 62
7
  6
CONTINUOUS
 10
75.0436787482
 20
199.0579506152
  0
VERTEX
  8
0
 62
7
  6
CONTINUOUS
 10
75.1245849445
 20
199.0657573341
  0
VERTEX
  8
0
 62
7
  6
CONTINUOUS
 10
75.1960477787
 20
199.0771911893
  0
VERTEX
  8
0
 62
7
  6
CONTINUOUS
 10
75.2615017396
 20
199.0910591681
  0
VERTEX
  8
0
 62
7
  6
CONTINUOUS
 10
75.3238483307
 20
199.1068352671
  0
VERTEX
  8
0
 62
7
  6
CONTINUOUS
 10
75.3859957077
 20
199.1245036609
  0
VERTEX
  8
0
 62
7
  6
CONTINUOUS
 10
75.4497492292
 20
199.1440517021
  0
VERTEX
  8
0
 62
7
  6
CONTINUOUS
 10
75.5170423101
 20
199.1656150609
  0
SEQEND
  0
POLYLINE
  8
0
 62
7
  6
CONTINUOUS
 66
1
 70
0
  0
VERTEX
  8
0
 62
7
  6
CONTINUOUS
 10
49.576194824
 20
199.0558578122
  0
VERTEX
  8
0
 62
7
  6
CONTINUOUS
 10
49.6436748352
 20
199.0579503755
  0
VERTEX
  8
0
 62
7
  6
CONTINUOUS
 10
49.7245795394
 20
199.065756626
  0
VERTEX
  8
0
 62
7
  6
CONTINUOUS
 10
49.7960426179
 20
199.0771902185
  0
VERTEX
  8
0
 62
7
  6
CONTINUOUS
 10
49.8614976884
 20
199.0910582186
  0
VERTEX
  8
0
 62
7
  6
CONTINUOUS
 10
49.9238457667
 20
199.1068345743
  0
VERTEX
  8
0
 62
7
  6
CONTINUOUS
 10
49.9859941043
 20
199.1245031848
  0
VERTEX
  8
0
 62
7
  6
CONTINUOUS
 10
50.0497482696
 20
199.1440514
  0
VERTEX
  8
0
 62
7
  6
CONTINUOUS
 10
50.117041578
 20
199.165614823
  0
SEQEND
  0
POLYLINE
  8
0
 62
7
  6
CONTINUOUS
 66
1
 70
0
  0
VERTEX
  8
0
 62
7
  6
CONTINUOUS
 10
94.5351069789
 20
199.0558563975
  0
VERTEX
  8
0
 62
7
  6
CONTINUOUS
 10
94.5551249475
 20
199.0561353537
  0
VERTEX
  8
0
 62
7
  6
CONTINUOUS
 10
94.6053012822
 20
199.0590213451
  0
VERTEX
  8
0
 62
7
  6
CONTINUOUS
 10
94.6542880422
 20
199.0642113913
  0
VERTEX
  8
0
 62
7
  6
CONTINUOUS
 10
94.7053260582
 20
199.0712876531
  0
VERTEX
  8
0
 62
7
  6
CONTINUOUS
 10
94.761168071
 20
199.0801957014
  0
VERTEX
  8
0
 62
7
  6
CONTINUOUS
 10
94.974831849
 20
199.11728816
  0
SEQEND
  0
POLYLINE
  8
0
 62
7
  6
CONTINUOUS
 66
1
 70
0
  0
VERTEX
  8
0
 62
7
  6
CONTINUOUS
 10
69.1351069762
 20
199.0558563974
  0
VERTEX
  8
0
 62
7
  6
CONTINUOUS
 10
69.1551249346
 20
199.0561353534
  0
VERTEX
  8
0
 62
7
  6
CONTINUOUS
 10
69.2053012597
 20
199.0590213432
  0
VERTEX
  8
0
 62
7
  6
CONTINUOUS
 10
69.2542880154
 20
199.064211388
  0
VERTEX
  8
0
 62
7
  6
CONTINUOUS
 10
69.3053260171
 20
199.0712876469
  0
VERTEX
  8
0
 62
7
  6
CONTINUOUS
 10
69.361168011
 20
199.0801956914
  0
VERTEX
  8
0
 62
7
  6
CONTINUOUS
 10
69.574831709
 20
199.1172881361
  0
SEQEND
  0
POLYLINE
  8
0
 62
7
  6
CONTINUOUS
 66
1
 70
0
  0
VERTEX
  8
0
 62
7
  6
CONTINUOUS
 10
85.6553630842
 20
199.0558727369
  0
VERTEX
  8
0
 62
7
  6
CONTINUOUS
 10
85.6608670289
 20
199.0559476905
  0
VERTEX
  8
0
 62
7
  6
CONTINUOUS
 10
85.6667108108
 20
199.0560936256
  0
VERTEX
  8
0
 62
7
  6
CONTINUOUS
 10
85.6726343764
 20
199.0563113603
  0
VERTEX
  8
0
 62
7
  6
CONTINUOUS
 10
85.6785789471
 20
199.0566006143
  0
VERTEX
  8
0
 62
7
  6
CONTINUOUS
 10
85.684613121
 20
199.0569668377
  0
VERTEX
  8
0
 62
7
  6
CONTINUOUS
 10
85.6907352394
 20
199.0574133232
  0
VERTEX
  8
0
 62
7
  6
CONTINUOUS
 10
85.6969436665
 20
199.0579433808
  0
VERTEX
  8
0
 62
7
  6
CONTINUOUS
 10
85.7032366766
 20
199.0585603301
  0
VERTEX
  8
0
 62
7
  6
CONTINUOUS
 10
85.7096124328
 20
199.0592674948
  0
VERTEX
  8
0
 62
7
  6
CONTINUOUS
 10
85.7160689878
 20
199.060068199
  0
VERTEX
  8
0
 62
7
  6
CONTINUOUS
 10
85.7226042859
 20
199.0609657629
  0
VERTEX
  8
0
 62
7
  6
CONTINUOUS
 10
85.7292160923
 20
199.061963488
  0
VERTEX
  8
0
 62
7
  6
CONTINUOUS
 10
85.7359008564
 20
199.0630644526
  0
SEQEND
  0
POLYLINE
  8
0
 62
7
  6
CONTINUOUS
 66
1
 70
0
  0
VERTEX
  8
0
 62
7
  6
CONTINUOUS
 10
60.2553632049
 20
199.0558727379
  0
VERTEX
  8
0
 62
7
  6
CONTINUOUS
 10
60.2608671586
 20
199.055947693
  0
VERTEX
  8
0
 62
7
  6
CONTINUOUS
 10
60.2667109438
 20
199.0560936297
  0
VERTEX
  8
0
 62
7
  6
CONTINUOUS
 10
60.2726345073
 20
199.0563113659
  0
VERTEX
  8
0
 62
7
  6
CONTINUOUS
 10
60.2785790784
 20
199.0566006215
  0
VERTEX
  8
0
 62
7
  6
CONTINUOUS
 10
60.2846132528
 20
199.0569668465
  0
VERTEX
  8
0
 62
7
  6
CONTINUOUS
 10
60.2907353714
 20
199.0574133336
  0
VERTEX
  8
0
 62
7
  6
CONTINUOUS
 10
60.2969437988
 20
199.0579433929
  0
VERTEX
  8
0
 62
7
  6
CONTINUOUS
 10
60.303236809
 20
199.0585603439
  0
VERTEX
  8
0
 62
7
  6
CONTINUOUS
 10
60.3096125653
 20
199.0592675104
  0
VERTEX
  8
0
 62
7
  6
CONTINUOUS
 10
60.3160691203
 20
199.0600682163
  0
VERTEX
  8
0
 62
7
  6
CONTINUOUS
 10
60.3226044183
 20
199.060965782
  0
VERTEX
  8
0
 62
7
  6
CONTINUOUS
 10
60.3292162245
 20
199.0619635089
  0
VERTEX
  8
0
 62
7
  6
CONTINUOUS
 10
60.3359009884
 20
199.0630644753
  0
SEQEND
  0
POLYLINE
  8
0
 62
7
  6
CONTINUOUS
 66
1
 70
0
  0
VERTEX
  8
0
 62
7
  6
CONTINUOUS
 10
88.1850968351
 20
199.0558563674
  0
VERTEX
  8
0
 62
7
  6
CONTINUOUS
 10
88.2015897356
 20
199.0560466545
  0
VERTEX
  8
0
 62
7
  6
CONTINUOUS
 10
88.2515551409
 20
199.0587105188
  0
VERTEX
  8
0
 62
7
  6
CONTINUOUS
 10
88.3000871434
 20
199.0636944503
  0
VERTEX
  8
0
 62
7
  6
CONTINUOUS
 10
88.3503380736
 20
199.0705412529
  0
VERTEX
  8
0
 62
7
  6
CONTINUOUS
 10
88.4050583671
 20
199.0791814041
  0
VERTEX
  8
0
 62
7
  6
CONTINUOUS
 10
88.466169025
 20
199.0895933586
  0
SEQEND
  0
POLYLINE
  8
0
 62
7
  6
CONTINUOUS
 66
1
 70
0
  0
VERTEX
  8
0
 62
7
  6
CONTINUOUS
 10
62.7850968351
 20
199.0558563674
  0
VERTEX
  8
0
 62
7
  6
CONTINUOUS
 10
62.8015897356
 20
199.0560466545
  0
VERTEX
  8
0
 62
7
  6
CONTINUOUS
 10
62.8515551409
 20
199.0587105188
  0
VERTEX
  8
0
 62
7
  6
CONTINUOUS
 10
62.9000871434
 20
199.0636944503
  0
VERTEX
  8
0
 62
7
  6
CONTINUOUS
 10
62.9503380736
 20
199.0705412529
  0
VERTEX
  8
0
 62
7
  6
CONTINUOUS
 10
63.0050583671
 20
199.0791814041
  0
VERTEX
  8
0
 62
7
  6
CONTINUOUS
 10
63.066169025
 20
199.0895933586
  0
SEQEND
  0
LINE
  8
0
 62
7
  6
CONTINUOUS
 10
92.003499881
 20
199.0558602576
 11
92.008224323
 21
199.055902751
  0
LINE
  8
0
 62
7
  6
CONTINUOUS
 10
66.6034999277
 20
199.0558602578
 11
66.6082249785
 21
199.05590276
  0
LINE
  8
0
 62
7
  6
CONTINUOUS
 10
92.0035319538
 20
199.0558631453
 11
92.0048217476
 21
199.0558676108
  0
LINE
  8
0
 62
7
  6
CONTINUOUS
 10
66.6035320191
 20
199.0558631471
 11
66.604822508
 21
199.0558676161
  0
LINE
  8
0
 62
7
  6
CONTINUOUS
 10
117.4013033175
 20
199.055856363
 11
112.4013186836
 21
199.055856363
  0
LINE
  8
0
 62
7
  6
CONTINUOUS
 10
111.0513033175
 20
199.055856363
 11
110.3768169439
 21
199.055856363
  0
LINE
  8
0
 62
7
  6
CONTINUOUS
 10
100.3761948246
 20
199.0558564472
 11
99.7013037046
 21
199.055856363
  0
LINE
  8
0
 62
7
  6
CONTINUOUS
 10
98.3513033175
 20
199.055856363
 11
97.1675477325
 21
199.055856363
  0
LINE
  8
0
 62
7
  6
CONTINUOUS
 10
92.0013031388
 20
199.055856363
 11
90.8175479756
 21
199.055856363
  0
LINE
  8
0
 62
7
  6
CONTINUOUS
 10
88.185096391
 20
199.0558563669
 11
87.0013196527
 21
199.055856363
  0
LINE
  8
0
 62
7
  6
CONTINUOUS
 10
85.6553630842
 20
199.0558727369
 11
84.9768169439
 21
199.055856363
  0
LINE
  8
0
 62
7
  6
CONTINUOUS
 10
81.3261932906
 20
199.0558564466
 11
80.6513033175
 21
199.055856363
  0
LINE
  8
0
 62
7
  6
CONTINUOUS
 10
79.3013033177
 20
199.055856363
 11
78.6268169439
 21
199.055856363
  0
LINE
  8
0
 62
7
  6
CONTINUOUS
 10
74.9761947931
 20
199.0558564472
 11
74.3013037053
 21
199.055856363
  0
LINE
  8
0
 62
7
  6
CONTINUOUS
 10
72.9513033175
 20
199.055856363
 11
71.7675477326
 21
199.055856363
  0
LINE
  8
0
 62
7
  6
CONTINUOUS
 10
66.6013031388
 20
199.055856363
 11
65.4175479756
 21
199.055856363
  0
LINE
  8
0
 62
7
  6
CONTINUOUS
 10
62.7850589048
 20
199.055856363
 11
61.6013156666
 21
199.055856363
  0
LINE
  8
0
 62
7
  6
CONTINUOUS
 10
60.2553632049
 20
199.0558727379
 11
59.5768169439
 21
199.055856363
  0
LINE
  8
0
 62
7
  6
CONTINUOUS
 10
49.5761948246
 20
199.0558564472
 11
48.9013033175
 21
199.055856363
  0
LINE
  8
0
 62
7
  6
CONTINUOUS
 10
47.5513033175
 20
199.055856363
 11
42.5513125736
 21
199.055856363
  0
LINE
  8
0
 62
7
  6
CONTINUOUS
 10
67.9513033175
 20
200.2419288274
 11
69.4610737487
 21
200.2419288151
  0
LINE
  8
0
 62
7
  6
CONTINUOUS
 10
93.3513033175
 20
200.2419288274
 11
94.8410743937
 21
200.2419287938
  0
LINE
  8
0
 62
7
  6
CONTINUOUS
 10
74.2996798796
 20
199.0558580568
 11
74.2975948036
 21
199.0558688971
  0
LINE
  8
0
 62
7
  6
CONTINUOUS
 10
99.6996788095
 20
199.0558580603
 11
99.6975947627
 21
199.0558688975
  0
LINE
  8
0
 62
7
  6
CONTINUOUS
 10
80.6448015402
 20
199.0558984264
 11
80.651299065
 21
199.0558562064
  0
LINE
  8
0
 62
7
  6
CONTINUOUS
 10
67.9498941076
 20
199.0558587345
 11
67.9451149177
 21
199.0558930821
  0
LINE
  8
0
 62
7
  6
CONTINUOUS
 10
93.3498941113
 20
199.0558587341
 11
93.345115124
 21
199.0558930796
  0
LINE
  8
0
 62
7
  6
CONTINUOUS
 10
80.631602827
 20
199.0562443022
 11
80.6383110926
 21
199.0560249237
  0
POLYLINE
  8
0
 62
7
  6
CONTINUOUS
 66
1
 70
0
  0
VERTEX
  8
0
 62
7
  6
CONTINUOUS
 10
71.2466020036
 20
200.855856363
  0
VERTEX
  8
0
 62
7
  6
CONTINUOUS
 10
71.1936796921
 20
200.8583558059
  0
VERTEX
  8
0
 62
7
  6
CONTINUOUS
 10
71.1239793313
 20
200.8651487
  0
VERTEX
  8
0
 62
7
  6
CONTINUOUS
 10
70.9376514997
 20
200.8863618824
  0
SEQEND
  0
LINE
  8
0
 62
7
  6
CONTINUOUS
 10
80.6177680704
 20
199.0569818108
 11
80.6247526887
 21
199.0565614199
  0
POLYLINE
  8
0
 62
7
  6
CONTINUOUS
 66
1
 70
0
  0
VERTEX
  8
0
 62
7
  6
CONTINUOUS
 10
74.3013037055
 20
199.0558563219
  0
VERTEX
  8
0
 62
7
  6
CONTINUOUS
 10
74.2144786943
 20
199.0634502213
  0
VERTEX
  8
0
 62
7
  6
CONTINUOUS
 10
74.1302915523
 20
199.0860063274
  0
VERTEX
  8
0
 62
7
  6
CONTINUOUS
 10
74.0513004509
 20
199.1228392312
  0
VERTEX
  8
0
 62
7
  6
CONTINUOUS
 10
73.9799056788
 20
199.1728296992
  0
VERTEX
  8
0
 62
7
  6
CONTINUOUS
 10
73.918276701
 20
199.2344586791
  0
VERTEX
  8
0
 62
7
  6
CONTINUOUS
 10
73.8682862317
 20
199.3058534581
  0
VERTEX
  8
0
 62
7
  6
CONTINUOUS
 10
73.8314533254
 20
199.384844571
  0
VERTEX
  8
0
 62
7
  6
CONTINUOUS
 10
73.8088972175
 20
199.469031727
  0
VERTEX
  8
0
 62
7
  6
CONTINUOUS
 10
73.8013033178
 20
199.5558567509
  0
SEQEND
  0
POLYLINE
  8
0
 62
7
  6
CONTINUOUS
 66
1
 70
0
  0
VERTEX
  8
0
 62
7
  6
CONTINUOUS
 10
87.0013196518
 20
199.0558562823
  0
VERTEX
  8
0
 62
7
  6
CONTINUOUS
 10
86.914492396
 20
199.0634515265
  0
VERTEX
  8
0
 62
7
  6
CONTINUOUS
 10
86.830303158
 20
199.0860091002
  0
VERTEX
  8
0
 62
7
  6
CONTINUOUS
 10
86.7513100935
 20
199.1228435737
  0
VERTEX
  8
0
 62
7
  6
CONTINUOUS
 10
86.6799134733
 20
199.1728357024
  0
VERTEX
  8
0
 62
7
  6
CONTINUOUS
 10
86.6182827468
 20
199.2344664336
  0
VERTEX
  8
0
 62
7
  6
CONTINUOUS
 10
86.5682906181
 20
199.3058630641
  0
VERTEX
  8
0
 62
7
  6
CONTINUOUS
 10
86.5314561415
 20
199.3848561459
  0
VERTEX
  8
0
 62
7
  6
CONTINUOUS
 10
86.5088985638
 20
199.4690454088
  0
VERTEX
  8
0
 62
7
  6
CONTINUOUS
 10
86.5013033176
 20
199.5558726972
  0
SEQEND
  0
LINE
  8
0
 62
7
  6
CONTINUOUS
 10
67.9451492369
 20
199.0562798082
 11
67.9499097351
 21
199.0558573476
  0
LINE
  8
0
 62
7
  6
CONTINUOUS
 10
93.2643454638
 20
199.0634807234
 11
93.3499097351
 21
199.0558573476
  0
POLYLINE
  8
0
 62
7
  6
CONTINUOUS
 66
1
 70
0
  0
VERTEX
  8
0
 62
7
  6
CONTINUOUS
 10
70.9376514997
 20
200.8863618824
  0
VERTEX
  8
0
 62
7
  6
CONTINUOUS
 10
70.8258862115
 20
200.8974154941
  0
VERTEX
  8
0
 62
7
  6
CONTINUOUS
 10
70.7067810599
 20
200.9065059298
  0
VERTEX
  8
0
 62
7
  6
CONTINUOUS
 10
70.5814295527
 20
200.9125472765
  0
VERTEX
  8
0
 62
7
  6
CONTINUOUS
 10
70.4512868334
 20
200.914695211
  0
VERTEX
  8
0
 62
7
  6
CONTINUOUS
 10
70.321161607
 20
200.9125467674
  0
VERTEX
  8
0
 62
7
  6
CONTINUOUS
 10
70.1958603129
 20
200.9065081226
  0
VERTEX
  8
0
 62
7
  6
CONTINUOUS
 10
70.1421320195
 20
200.9024076065
  0
SEQEND
  0
POLYLINE
  8
0
 62
7
  6
CONTINUOUS
 66
1
 70
0
  0
VERTEX
  8
0
 62
7
  6
CONTINUOUS
 10
69.5063183883
 20
200.2373589928
  0
VERTEX
  8
0
 62
7
  6
CONTINUOUS
 10
69.5888031833
 20
200.2259831619
  0
VERTEX
  8
0
 62
7
  6
CONTINUOUS
 10
69.6677772457
 20
200.2284494746
  0
VERTEX
  8
0
 62
7
  6
CONTINUOUS
 10
69.7406448518
 20
200.2446526488
  0
VERTEX
  8
0
 62
7
  6
CONTINUOUS
 10
69.8050101822
 20
200.274026975
  0
VERTEX
  8
0
 62
7
  6
CONTINUOUS
 10
69.8587632036
 20
200.31556408
  0
VERTEX
  8
0
 62
7
  6
CONTINUOUS
 10
69.8662428892
 20
200.3232351256
  0
SEQEND
  0
LINE
  8
0
 62
7
  6
CONTINUOUS
 10
86.9146305502
 20
199.0634394414
 11
86.9238855248
 21
199.0618967882
  0
POLYLINE
  8
0
 62
7
  6
CONTINUOUS
 66
1
 70
0
  0
VERTEX
  8
0
 62
7
  6
CONTINUOUS
 10
74.2120719241
 20
199.0638824254
  0
VERTEX
  8
0
 62
7
  6
CONTINUOUS
 10
74.2195778827
 20
199.062580061
  0
VERTEX
  8
0
 62
7
  6
CONTINUOUS
 10
74.2270141926
 20
199.0614055138
  0
VERTEX
  8
0
 62
7
  6
CONTINUOUS
 10
74.2343756316
 20
199.0603554444
  0
VERTEX
  8
0
 62
7
  6
CONTINUOUS
 10
74.2416483281
 20
199.0594273987
  0
VERTEX
  8
0
 62
7
  6
CONTINUOUS
 10
74.2444414761
 20
199.059112186
  0
SEQEND
  0
POLYLINE
  8
0
 62
7
  6
CONTINUOUS
 66
1
 70
0
  0
VERTEX
  8
0
 62
7
  6
CONTINUOUS
 10
69.5063183883
 20
200.2373589928
  0
VERTEX
  8
0
 62
7
  6
CONTINUOUS
 10
69.4923102778
 20
200.2398529666
  0
VERTEX
  8
0
 62
7
  6
CONTINUOUS
 10
69.477302457
 20
200.2413938802
  0
VERTEX
  8
0
 62
7
  6
CONTINUOUS
 10
69.4610737487
 20
200.2419288151
  0
SEQEND
  0
POLYLINE
  8
0
 62
7
  6
CONTINUOUS
 66
1
 70
0
  0
VERTEX
  8
0
 62
7
  6
CONTINUOUS
 10
74.179046834
 20
199.07101941
  0
VERTEX
  8
0
 62
7
  6
CONTINUOUS
 10
74.2447242113
 20
199.0590607048
  0
VERTEX
  8
0
 62
7
  6
CONTINUOUS
 10
74.2976057507
 20
199.0560619446
  0
SEQEND
  0
POLYLINE
  8
0
 62
7
  6
CONTINUOUS
 66
1
 70
0
  0
VERTEX
  8
0
 62
7
  6
CONTINUOUS
 10
80.5577755573
 20
199.0646808038
  0
VERTEX
  8
0
 62
7
  6
CONTINUOUS
 10
80.5656168398
 20
199.0632524189
  0
VERTEX
  8
0
 62
7
  6
CONTINUOUS
 10
80.573372061
 20
199.0619662101
  0
VERTEX
  8
0
 62
7
  6
CONTINUOUS
 10
80.5810359055
 20
199.0608177787
  0
VERTEX
  8
0
 62
7
  6
CONTINUOUS
 10
80.5886026336
 20
199.0598026579
  0
VERTEX
  8
0
 62
7
  6
CONTINUOUS
 10
80.596065654
 20
199.0589163272
  0
VERTEX
  8
0
 62
7
  6
CONTINUOUS
 10
80.6034184426
 20
199.0581540606
  0
VERTEX
  8
0
 62
7
  6
CONTINUOUS
 10
80.6106546431
 20
199.057510928
  0
SEQEND
  0
POLYLINE
  8
0
 62
7
  6
CONTINUOUS
 66
1
 70
0
  0
VERTEX
  8
0
 62
7
  6
CONTINUOUS
 10
80.492628951
 20
199.0817005696
  0
VERTEX
  8
0
 62
7
  6
CONTINUOUS
 10
80.500951509
 20
199.0789962593
  0
VERTEX
  8
0
 62
7
  6
CONTINUOUS
 10
80.5092352066
 20
199.0764631744
  0
VERTEX
  8
0
 62
7
  6
CONTINUOUS
 10
80.5174737296
 20
199.0740983633
  0
VERTEX
  8
0
 62
7
  6
CONTINUOUS
 10
80.5256608707
 20
199.0718986636
  0
VERTEX
  8
0
 62
7
  6
CONTINUOUS
 10
80.533790536
 20
199.0698607099
  0
VERTEX
  8
0
 62
7
  6
CONTINUOUS
 10
80.5418567509
 20
199.0679809422
  0
VERTEX
  8
0
 62
7
  6
CONTINUOUS
 10
80.549853665
 20
199.0662556145
  0
VERTEX
  8
0
 62
7
  6
CONTINUOUS
 10
80.5577755573
 20
199.0646808038
  0
SEQEND
  0
POLYLINE
  8
0
 62
7
  6
CONTINUOUS
 66
1
 70
0
  0
VERTEX
  8
0
 62
7
  6
CONTINUOUS
 10
77.9225732563
 20
199.2188828332
  0
VERTEX
  8
0
 62
7
  6
CONTINUOUS
 10
78.0768912299
 20
199.168436227
  0
VERTEX
  8
0
 62
7
  6
CONTINUOUS
 10
78.1447391263
 20
199.1466136918
  0
VERTEX
  8
0
 62
7
  6
CONTINUOUS
 10
78.2087970024
 20
199.1268344042
  0
VERTEX
  8
0
 62
7
  6
CONTINUOUS
 10
78.2710426169
 20
199.1089349194
  0
VERTEX
  8
0
 62
7
  6
CONTINUOUS
 10
78.333139282
 20
199.0929466234
  0
VERTEX
  8
0
 62
7
  6
CONTINUOUS
 10
78.3978965095
 20
199.0788488776
  0
VERTEX
  8
0
 62
7
  6
CONTINUOUS
 10
78.468339817
 20
199.0670646633
  0
VERTEX
  8
0
 62
7
  6
CONTINUOUS
 10
78.547902477
 20
199.0586798556
  0
VERTEX
  8
0
 62
7
  6
CONTINUOUS
 10
78.6263954973
 20
199.0558578299
  0
SEQEND
  0
LINE
  8
0
 62
7
  6
CONTINUOUS
 10
80.4758930041
 20
199.0876335727
 11
80.484273947
 21
199.0845788383
  0
POLYLINE
  8
0
 62
7
  6
CONTINUOUS
 66
1
 70
0
  0
VERTEX
  8
0
 62
7
  6
CONTINUOUS
 10
80.4643570244
 20
199.09209561
  0
VERTEX
  8
0
 62
7
  6
CONTINUOUS
 10
80.4815959525
 20
199.0855151172
  0
VERTEX
  8
0
 62
7
  6
CONTINUOUS
 10
80.4986994905
 20
199.0796925456
  0
VERTEX
  8
0
 62
7
  6
CONTINUOUS
 10
80.5156367792
 20
199.0745946386
  0
VERTEX
  8
0
 62
7
  6
CONTINUOUS
 10
80.5323796563
 20
199.070188068
  0
VERTEX
  8
0
 62
7
  6
CONTINUOUS
 10
80.5488616744
 20
199.066448097
  0
VERTEX
  8
0
 62
7
  6
CONTINUOUS
 10
80.564932323
 20
199.0633596976
  0
VERTEX
  8
0
 62
7
  6
CONTINUOUS
 10
80.580431803
 20
199.0608934306
  0
VERTEX
  8
0
 62
7
  6
CONTINUOUS
 10
80.5952666881
 20
199.0589970827
  0
VERTEX
  8
0
 62
7
  6
CONTINUOUS
 10
80.6094396826
 20
199.0576045425
  0
VERTEX
  8
0
 62
7
  6
CONTINUOUS
 10
80.6229732919
 20
199.0566539296
  0
VERTEX
  8
0
 62
7
  6
CONTINUOUS
 10
80.6358453788
 20
199.0560914463
  0
VERTEX
  8
0
 62
7
  6
CONTINUOUS
 10
80.6460222131
 20
199.0558904946
  0
SEQEND
  0
POLYLINE
  8
0
 62
7
  6
CONTINUOUS
 66
1
 70
0
  0
VERTEX
  8
0
 62
7
  6
CONTINUOUS
 10
67.4496834494
 20
203.4639497396
  0
VERTEX
  8
0
 62
7
  6
CONTINUOUS
 10
67.4535654463
 20
203.4624195804
  0
VERTEX
  8
0
 62
7
  6
CONTINUOUS
 10
67.4698996502
 20
203.4614504895
  0
VERTEX
  8
0
 62
7
  6
CONTINUOUS
 10
67.4985929646
 20
203.4603036916
  0
VERTEX
  8
0
 62
7
  6
CONTINUOUS
 10
67.5389069726
 20
203.4591909959
  0
VERTEX
  8
0
 62
7
  6
CONTINUOUS
 10
67.5898040384
 20
203.4581813612
  0
VERTEX
  8
0
 62
7
  6
CONTINUOUS
 10
67.6499737943
 20
203.4573172464
  0
VERTEX
  8
0
 62
7
  6
CONTINUOUS
 10
67.7917344214
 20
203.4561443948
  0
SEQEND
  0
LINE
  8
0
 62
7
  6
CONTINUOUS
 10
80.4590797387
 20
199.0942813011
 11
80.4674927128
 21
199.090867048
  0
LINE
  8
0
 62
7
  6
CONTINUOUS
 10
80.4422427435
 20
199.1016590549
 11
80.4506608174
 21
199.0978781232
  0
LINE
  8
0
 62
7
  6
CONTINUOUS
 10
80.425436555
 20
199.1097781264
 11
80.4338323613
 21
199.1056253812
  0
LINE
  8
0
 62
7
  6
CONTINUOUS
 10
80.4087163472
 20
199.1186456457
 11
80.4170622391
 21
199.1141180506
  0
POLYLINE
  8
0
 62
7
  6
CONTINUOUS
 66
1
 70
0
  0
VERTEX
  8
0
 62
7
  6
CONTINUOUS
 10
66.888881145
 20
207.7648787483
  0
VERTEX
  8
0
 62
7
  6
CONTINUOUS
 10
66.8841321718
 20
207.7681768156
  0
VERTEX
  8
0
 62
7
  6
CONTINUOUS
 10
66.8793957725
 20
207.7713860257
  0
VERTEX
  8
0
 62
7
  6
CONTINUOUS
 10
66.8746714542
 20
207.7745091709
  0
VERTEX
  8
0
 62
7
  6
CONTINUOUS
 10
66.8699586111
 20
207.7775489553
  0
VERTEX
  8
0
 62
7
  6
CONTINUOUS
 10
66.8652565293
 20
207.780507995
  0
VERTEX
  8
0
 62
7
  6
CONTINUOUS
 10
66.8605643918
 20
207.783388817
  0
VERTEX
  8
0
 62
7
  6
CONTINUOUS
 10
66.8558812829
 20
207.7861938591
  0
VERTEX
  8
0
 62
7
  6
CONTINUOUS
 10
66.8512309949
 20
207.7889109778
  0
SEQEND
  0
POLYLINE
  8
0
 62
7
  6
CONTINUOUS
 66
1
 70
0
  0
VERTEX
  8
0
 62
7
  6
CONTINUOUS
 10
66.9032066333
 20
207.7544221821
  0
VERTEX
  8
0
 62
7
  6
CONTINUOUS
 10
66.8984181891
 20
207.7580044397
  0
VERTEX
  8
0
 62
7
  6
CONTINUOUS
 10
66.8936430671
 20
207.7614889448
  0
SEQEND
  0
POLYLINE
  8
0
 62
7
  6
CONTINUOUS
 66
1
 70
0
  0
VERTEX
  8
0
 62
7
  6
CONTINUOUS
 10
66.9176691432
 20
207.7430423558
  0
VERTEX
  8
0
 62
7
  6
CONTINUOUS
 10
66.9128246332
 20
207.7469507214
  0
VERTEX
  8
0
 62
7
  6
CONTINUOUS
 10
66.9080083869
 20
207.7507390371
  0
SEQEND
  0
POLYLINE
  8
0
 62
7
  6
CONTINUOUS
 66
1
 70
0
  0
VERTEX
  8
0
 62
7
  6
CONTINUOUS
 10
80.3262905684
 20
199.1758604296
  0
VERTEX
  8
0
 62
7
  6
CONTINUOUS
 10
80.3431554664
 20
199.1620610662
  0
VERTEX
  8
0
 62
7
  6
CONTINUOUS
 10
80.3602185826
 20
199.1492866015
  0
VERTEX
  8
0
 62
7
  6
CONTINUOUS
 10
80.3774390705
 20
199.1374941248
  0
VERTEX
  8
0
 62
7
  6
CONTINUOUS
 10
80.3947774085
 20
199.1266452429
  0
VERTEX
  8
0
 62
7
  6
CONTINUOUS
 10
80.4121844316
 20
199.1167107362
  0
VERTEX
  8
0
 62
7
  6
CONTINUOUS
 10
80.4296122734
 20
199.1076614651
  0
VERTEX
  8
0
 62
7
  6
CONTINUOUS
 10
80.4470167038
 20
199.0994669408
  0
VERTEX
  8
0
 62
7
  6
CONTINUOUS
 10
80.4643570244
 20
199.09209561
  0
SEQEND
  0
POLYLINE
  8
0
 62
7
  6
CONTINUOUS
 66
1
 70
0
  0
VERTEX
  8
0
 62
7
  6
CONTINUOUS
 10
66.9256557265
 20
207.7364264836
  0
VERTEX
  8
0
 62
7
  6
CONTINUOUS
 10
66.9113138126
 20
207.7481969678
  0
VERTEX
  8
0
 62
7
  6
CONTINUOUS
 10
66.8968920993
 20
207.7591730164
  0
VERTEX
  8
0
 62
7
  6
CONTINUOUS
 10
66.8824255968
 20
207.7693857558
  0
VERTEX
  8
0
 62
7
  6
CONTINUOUS
 10
66.8679453512
 20
207.7788663227
  0
VERTEX
  8
0
 62
7
  6
CONTINUOUS
 10
66.8534786795
 20
207.7876456225
  0
SEQEND
  0
POLYLINE
  8
0
 62
7
  6
CONTINUOUS
 66
1
 70
0
  0
VERTEX
  8
0
 62
7
  6
CONTINUOUS
 10
80.3283383371
 20
199.1741556243
  0
VERTEX
  8
0
 62
7
  6
CONTINUOUS
 10
80.3360221649
 20
199.1677846954
  0
VERTEX
  8
0
 62
7
  6
CONTINUOUS
 10
80.3438024019
 20
199.1615912227
  0
VERTEX
  8
0
 62
7
  6
CONTINUOUS
 10
80.3516725319
 20
199.1555774684
  0
VERTEX
  8
0
 62
7
  6
CONTINUOUS
 10
80.3596259451
 20
199.1497454219
  0
VERTEX
  8
0
 62
7
  6
CONTINUOUS
 10
80.3676559495
 20
199.144096798
  0
VERTEX
  8
0
 62
7
  6
CONTINUOUS
 10
80.3757557829
 20
199.1386330352
  0
VERTEX
  8
0
 62
7
  6
CONTINUOUS
 10
80.3839186243
 20
199.1333552942
  0
VERTEX
  8
0
 62
7
  6
CONTINUOUS
 10
80.3921376053
 20
199.1282644582
  0
VERTEX
  8
0
 62
7
  6
CONTINUOUS
 10
80.4004058223
 20
199.1233611326
  0
SEQEND
  0
LINE
  8
0
 62
7
  6
CONTINUOUS
 10
80.3207573293
 20
199.1807014778
 11
80.3283383371
 21
199.1741556243
  0
LINE
  8
0
 62
7
  6
CONTINUOUS
 10
80.3059288213
 20
199.1943065051
 11
80.3132854354
 21
199.1874194581
  0
POLYLINE
  8
0
 62
7
  6
CONTINUOUS
 66
1
 70
0
  0
VERTEX
  8
0
 62
7
  6
CONTINUOUS
 10
80.2933562245
 20
199.2067085196
  0
VERTEX
  8
0
 62
7
  6
CONTINUOUS
 10
80.3096720671
 20
199.1907283609
  0
VERTEX
  8
0
 62
7
  6
CONTINUOUS
 10
80.3262905684
 20
199.1758604296
  0
SEQEND
  0
POLYLINE
  8
0
 62
7
  6
CONTINUOUS
 66
1
 70
0
  0
VERTEX
  8
0
 62
7
  6
CONTINUOUS
 10
80.1514082464
 20
199.5455429036
  0
VERTEX
  8
0
 62
7
  6
CONTINUOUS
 10
80.1529376264
 20
199.5153943423
  0
VERTEX
  8
0
 62
7
  6
CONTINUOUS
 10
80.1562190332
 20
199.4858502758
  0
SEQEND
  0
LINE
  8
0
 62
7
  6
CONTINUOUS
 10
80.1514082464
 20
199.5455429036
 11
80.1513033175
 21
199.555785137
  0
LINE
  8
0
 62
7
  6
CONTINUOUS
 10
79.8013033175
 20
199.555856363
 11
79.801293398
 21
207.3590106409
  0
LINE
  8
0
 62
7
  6
CONTINUOUS
 10
80.1513033175
 20
200.655856363
 11
80.1513033175
 21
199.555856363
  0
POLYLINE
  8
0
 62
7
  6
CONTINUOUS
 66
1
 70
0
  0
VERTEX
  8
0
 62
7
  6
CONTINUOUS
 10
66.7712004566
 20
199.0855883861
  0
VERTEX
  8
0
 62
7
  6
CONTINUOUS
 10
66.8490043965
 20
199.1214993673
  0
VERTEX
  8
0
 62
7
  6
CONTINUOUS
 10
66.9196047151
 20
199.1702289563
  0
VERTEX
  8
0
 62
7
  6
CONTINUOUS
 10
66.9808676053
 20
199.2303486888
  0
VERTEX
  8
0
 62
7
  6
CONTINUOUS
 10
67.0309475975
 20
199.3000680168
  0
VERTEX
  8
0
 62
7
  6
CONTINUOUS
 10
67.0683503947
 20
199.3772950023
  0
VERTEX
  8
0
 62
7
  6
CONTINUOUS
 10
67.0919820506
 20
199.4597076814
  0
SEQEND
  0
POLYLINE
  8
0
 62
7
  6
CONTINUOUS
 66
1
 70
0
  0
VERTEX
  8
0
 62
7
  6
CONTINUOUS
 10
66.7696620146
 20
199.0850525108
  0
VERTEX
  8
0
 62
7
  6
CONTINUOUS
 10
66.7771883839
 20
199.0878121446
  0
VERTEX
  8
0
 62
7
  6
CONTINUOUS
 10
66.7847222765
 20
199.0907128793
  0
VERTEX
  8
0
 62
7
  6
CONTINUOUS
 10
66.7922604167
 20
199.0937563864
  0
VERTEX
  8
0
 62
7
  6
CONTINUOUS
 10
66.7997997376
 20
199.0969443894
  0
VERTEX
  8
0
 62
7
  6
CONTINUOUS
 10
66.8073370966
 20
199.1002785591
  0
VERTEX
  8
0
 62
7
  6
CONTINUOUS
 10
66.8148692759
 20
199.1037605112
  0
VERTEX
  8
0
 62
7
  6
CONTINUOUS
 10
66.8223929826
 20
199.1073918035
  0
VERTEX
  8
0
 62
7
  6
CONTINUOUS
 10
66.829904849
 20
199.1111739335
  0
VERTEX
  8
0
 62
7
  6
CONTINUOUS
 10
66.8374014334
 20
199.115108335
  0
VERTEX
  8
0
 62
7
  6
CONTINUOUS
 10
66.8448792203
 20
199.1191963761
  0
SEQEND
  0
POLYLINE
  8
0
 62
7
  6
CONTINUOUS
 66
1
 70
0
  0
VERTEX
  8
0
 62
7
  6
CONTINUOUS
 10
99.6170188604
 20
207.8484811157
  0
VERTEX
  8
0
 62
7
  6
CONTINUOUS
 10
99.5361353128
 20
207.8277907116
  0
VERTEX
  8
0
 62
7
  6
CONTINUOUS
 10
99.4570283578
 20
207.7920839773
  0
SEQEND
  0
LINE
  8
0
 62
7
  6
CONTINUOUS
 10
99.6197659449
 20
207.8491470175
 11
99.6170188604
 21
207.8484811157
  0
POLYLINE
  8
0
 62
7
  6
CONTINUOUS
 66
1
 70
0
  0
VERTEX
  8
0
 62
7
  6
CONTINUOUS
 10
60.3359009884
 20
199.0630644753
  0
VERTEX
  8
0
 62
7
  6
CONTINUOUS
 10
60.3426541244
 20
199.0642714991
  0
VERTEX
  8
0
 62
7
  6
CONTINUOUS
 10
60.3494709537
 20
199.0655872523
  0
VERTEX
  8
0
 62
7
  6
CONTINUOUS
 10
60.3563467297
 20
199.0670142573
  0
VERTEX
  8
0
 62
7
  6
CONTINUOUS
 10
60.3632766424
 20
199.0685548815
  0
VERTEX
  8
0
 62
7
  6
CONTINUOUS
 10
60.3702558226
 20
199.0702113311
  0
VERTEX
  8
0
 62
7
  6
CONTINUOUS
 10
60.3772793466
 20
199.0719856456
  0
VERTEX
  8
0
 62
7
  6
CONTINUOUS
 10
60.3843422415
 20
199.0738796927
  0
VERTEX
  8
0
 62
7
  6
CONTINUOUS
 10
60.3914394906
 20
199.0758951632
  0
VERTEX
  8
0
 62
7
  6
CONTINUOUS
 10
60.3985660395
 20
199.0780335666
  0
VERTEX
  8
0
 62
7
  6
CONTINUOUS
 10
60.405716802
 20
199.0802962272
  0
VERTEX
  8
0
 62
7
  6
CONTINUOUS
 10
60.4128866663
 20
199.0826842796
  0
VERTEX
  8
0
 62
7
  6
CONTINUOUS
 10
60.420070502
 20
199.0851986658
  0
VERTEX
  8
0
 62
7
  6
CONTINUOUS
 10
60.4272631667
 20
199.087840132
  0
VERTEX
  8
0
 62
7
  6
CONTINUOUS
 10
60.4344600162
 20
199.0906094239
  0
VERTEX
  8
0
 62
7
  6
CONTINUOUS
 10
60.4416582049
 20
199.0935078622
  0
VERTEX
  8
0
 62
7
  6
CONTINUOUS
 10
60.4488552415
 20
199.0965368833
  0
VERTEX
  8
0
 62
7
  6
CONTINUOUS
 10
60.4560485731
 20
199.099697888
  0
VERTEX
  8
0
 62
7
  6
CONTINUOUS
 10
60.4632355843
 20
199.1029922398
  0
VERTEX
  8
0
 62
7
  6
CONTINUOUS
 10
60.4704135982
 20
199.1064212626
  0
VERTEX
  8
0
 62
7
  6
CONTINUOUS
 10
60.4775798753
 20
199.1099862387
  0
VERTEX
  8
0
 62
7
  6
CONTINUOUS
 10
60.4847316142
 20
199.113688407
  0
VERTEX
  8
0
 62
7
  6
CONTINUOUS
 10
60.4918659515
 20
199.1175289606
  0
VERTEX
  8
0
 62
7
  6
CONTINUOUS
 10
60.4989799619
 20
199.1215090448
  0
VERTEX
  8
0
 62
7
  6
CONTINUOUS
 10
60.5060706582
 20
199.1256297547
  0
VERTEX
  8
0
 62
7
  6
CONTINUOUS
 10
60.5131349918
 20
199.1298921336
  0
VERTEX
  8
0
 62
7
  6
CONTINUOUS
 10
60.5201698531
 20
199.1342971698
  0
VERTEX
  8
0
 62
7
  6
CONTINUOUS
 10
60.5271720715
 20
199.1388457954
  0
VERTEX
  8
0
 62
7
  6
CONTINUOUS
 10
60.5341384161
 20
199.1435388829
  0
VERTEX
  8
0
 62
7
  6
CONTINUOUS
 10
60.5410655959
 20
199.1483772439
  0
VERTEX
  8
0
 62
7
  6
CONTINUOUS
 10
60.5479502609
 20
199.1533616261
  0
VERTEX
  8
0
 62
7
  6
CONTINUOUS
 10
60.5547890021
 20
199.158492711
  0
VERTEX
  8
0
 62
7
  6
CONTINUOUS
 10
60.5615783527
 20
199.1637711118
  0
VERTEX
  8
0
 62
7
  6
CONTINUOUS
 10
60.5683147887
 20
199.1691973705
  0
VERTEX
  8
0
 62
7
  6
CONTINUOUS
 10
60.5749947295
 20
199.1747719558
  0
VERTEX
  8
0
 62
7
  6
CONTINUOUS
 10
60.5816145394
 20
199.1804952608
  0
VERTEX
  8
0
 62
7
  6
CONTINUOUS
 10
60.5881705281
 20
199.1863675998
  0
VERTEX
  8
0
 62
7
  6
CONTINUOUS
 10
60.594658952
 20
199.1923892066
  0
VERTEX
  8
0
 62
7
  6
CONTINUOUS
 10
60.6010760153
 20
199.1985602315
  0
VERTEX
  8
0
 62
7
  6
CONTINUOUS
 10
60.6074178934
 20
199.2048807609
  0
VERTEX
  8
0
 62
7
  6
CONTINUOUS
 10
60.6136810976
 20
199.2113512018
  0
VERTEX
  8
0
 62
7
  6
CONTINUOUS
 10
60.6198623894
 20
199.2179722592
  0
VERTEX
  8
0
 62
7
  6
CONTINUOUS
 10
60.6259584349
 20
199.2247446084
  0
VERTEX
  8
0
 62
7
  6
CONTINUOUS
 10
60.6319657913
 20
199.2316688798
  0
VERTEX
  8
0
 62
7
  6
CONTINUOUS
 10
60.6378809058
 20
199.2387456536
  0
VERTEX
  8
0
 62
7
  6
CONTINUOUS
 10
60.6437001136
 20
199.2459754551
  0
VERTEX
  8
0
 62
7
  6
CONTINUOUS
 10
60.6494196368
 20
199.2533587497
  0
VERTEX
  8
0
 62
7
  6
CONTINUOUS
 10
60.6550355834
 20
199.2608959375
  0
VERTEX
  8
0
 62
7
  6
CONTINUOUS
 10
60.6605439455
 20
199.2685873478
  0
VERTEX
  8
0
 62
7
  6
CONTINUOUS
 10
60.665940599
 20
199.2764332337
  0
VERTEX
  8
0
 62
7
  6
CONTINUOUS
 10
60.6712213025
 20
199.284433766
  0
VERTEX
  8
0
 62
7
  6
CONTINUOUS
 10
60.6763816965
 20
199.2925890274
  0
VERTEX
  8
0
 62
7
  6
CONTINUOUS
 10
60.6814173031
 20
199.3008990063
  0
VERTEX
  8
0
 62
7
  6
CONTINUOUS
 10
60.6863235256
 20
199.3093635902
  0
VERTEX
  8
0
 62
7
  6
CONTINUOUS
 10
60.6910956484
 20
199.3179825595
  0
VERTEX
  8
0
 62
7
  6
CONTINUOUS
 10
60.6957288369
 20
199.3267555804
  0
VERTEX
  8
0
 62
7
  6
CONTINUOUS
 10
60.7002181381
 20
199.3356821981
  0
VERTEX
  8
0
 62
7
  6
CONTINUOUS
 10
60.704558481
 20
199.3447618296
  0
VERTEX
  8
0
 62
7
  6
CONTINUOUS
 10
60.708744677
 20
199.3539937565
  0
VERTEX
  8
0
 62
7
  6
CONTINUOUS
 10
60.7127714217
 20
199.3633771172
  0
VERTEX
  8
0
 62
7
  6
CONTINUOUS
 10
60.7166332956
 20
199.3729108996
  0
VERTEX
  8
0
 62
7
  6
CONTINUOUS
 10
60.7203247658
 20
199.3825939325
  0
VERTEX
  8
0
 62
7
  6
CONTINUOUS
 10
60.7238401881
 20
199.3924248784
  0
VERTEX
  8
0
 62
7
  6
CONTINUOUS
 10
60.7271738094
 20
199.402402225
  0
VERTEX
  8
0
 62
7
  6
CONTINUOUS
 10
60.7303197697
 20
199.4125242762
  0
VERTEX
  8
0
 62
7
  6
CONTINUOUS
 10
60.7332721056
 20
199.4227891445
  0
VERTEX
  8
0
 62
7
  6
CONTINUOUS
 10
60.7360247534
 20
199.4331947413
  0
VERTEX
  8
0
 62
7
  6
CONTINUOUS
 10
60.7385715527
 20
199.4437387687
  0
VERTEX
  8
0
 62
7
  6
CONTINUOUS
 10
60.7409062509
 20
199.4544187101
  0
VERTEX
  8
0
 62
7
  6
CONTINUOUS
 10
60.7430225075
 20
199.4652318213
  0
SEQEND
  0
POLYLINE
  8
0
 62
7
  6
CONTINUOUS
 66
1
 70
0
  0
VERTEX
  8
0
 62
7
  6
CONTINUOUS
 10
63.066169025
 20
199.0895933586
  0
VERTEX
  8
0
 62
7
  6
CONTINUOUS
 10
63.2133210235
 20
199.1153164622
  0
VERTEX
  8
0
 62
7
  6
CONTINUOUS
 10
63.3012714045
 20
199.1300399866
  0
VERTEX
  8
0
 62
7
  6
CONTINUOUS
 10
63.3996880342
 20
199.1453365057
  0
VERTEX
  8
0
 62
7
  6
CONTINUOUS
 10
63.5100279749
 20
199.1606183182
  0
VERTEX
  8
0
 62
7
  6
CONTINUOUS
 10
63.6339726304
 20
199.1750677551
  0
VERTEX
  8
0
 62
7
  6
CONTINUOUS
 10
63.7727846289
 20
199.1874992143
  0
VERTEX
  8
0
 62
7
  6
CONTINUOUS
 10
63.9244796953
 20
199.1962584998
  0
VERTEX
  8
0
 62
7
  6
CONTINUOUS
 10
64.0841222899
 20
199.199827063
  0
VERTEX
  8
0
 62
7
  6
CONTINUOUS
 10
64.2454522156
 20
199.1974650256
  0
VERTEX
  8
0
 62
7
  6
CONTINUOUS
 10
64.4012014425
 20
199.189544798
  0
VERTEX
  8
0
 62
7
  6
CONTINUOUS
 10
64.544826554
 20
199.1774894816
  0
VERTEX
  8
0
 62
7
  6
CONTINUOUS
 10
64.6728403223
 20
199.1631198948
  0
VERTEX
  8
0
 62
7
  6
CONTINUOUS
 10
64.7864059619
 20
199.1477571566
  0
VERTEX
  8
0
 62
7
  6
CONTINUOUS
 10
64.8874748596
 20
199.1322778264
  0
VERTEX
  8
0
 62
7
  6
CONTINUOUS
 10
64.9777740442
 20
199.1172882867
  0
SEQEND
  0
POLYLINE
  8
0
 62
7
  6
CONTINUOUS
 66
1
 70
0
  0
VERTEX
  8
0
 62
7
  6
CONTINUOUS
 10
66.6881084809
 20
199.0634524354
  0
VERTEX
  8
0
 62
7
  6
CONTINUOUS
 10
66.6886732223
 20
199.0635484769
  0
VERTEX
  8
0
 62
7
  6
CONTINUOUS
 10
66.695817377
 20
199.064869924
  0
VERTEX
  8
0
 62
7
  6
CONTINUOUS
 10
66.7030181637
 20
199.0663109452
  0
VERTEX
  8
0
 62
7
  6
CONTINUOUS
 10
66.7102714109
 20
199.0678741753
  0
VERTEX
  8
0
 62
7
  6
CONTINUOUS
 10
66.7175728715
 20
199.0695621248
  0
VERTEX
  8
0
 62
7
  6
CONTINUOUS
 10
66.7249182258
 20
199.0713771751
  0
VERTEX
  8
0
 62
7
  6
CONTINUOUS
 10
66.732303085
 20
199.0733215734
  0
VERTEX
  8
0
 62
7
  6
CONTINUOUS
 10
66.7397229951
 20
199.0753974285
  0
VERTEX
  8
0
 62
7
  6
CONTINUOUS
 10
66.7471734408
 20
199.0776067066
  0
VERTEX
  8
0
 62
7
  6
CONTINUOUS
 10
66.7546498501
 20
199.0799512265
  0
VERTEX
  8
0
 62
7
  6
CONTINUOUS
 10
66.7621475986
 20
199.0824326567
  0
VERTEX
  8
0
 62
7
  6
CONTINUOUS
 10
66.7696620146
 20
199.0850525108
  0
SEQEND
  0
POLYLINE
  8
0
 62
7
  6
CONTINUOUS
 66
1
 70
0
  0
VERTEX
  8
0
 62
7
  6
CONTINUOUS
 10
69.574831709
 20
199.1172881361
  0
VERTEX
  8
0
 62
7
  6
CONTINUOUS
 10
69.6651306721
 20
199.1322776493
  0
VERTEX
  8
0
 62
7
  6
CONTINUOUS
 10
69.7661993151
 20
199.1477569593
  0
VERTEX
  8
0
 62
7
  6
CONTINUOUS
 10
69.8797646369
 20
199.1631196855
  0
VERTEX
  8
0
 62
7
  6
CONTINUOUS
 10
70.0077779931
 20
199.1774892744
  0
VERTEX
  8
0
 62
7
  6
CONTINUOUS
 10
70.1514026169
 20
199.189544622
  0
VERTEX
  8
0
 62
7
  6
CONTINUOUS
 10
70.3071514508
 20
199.197464927
  0
VERTEX
  8
0
 62
7
  6
CONTINUOUS
 10
70.4684812487
 20
199.1998270753
  0
VERTEX
  8
0
 62
7
  6
CONTINUOUS
 10
70.6281240579
 20
199.196258617
  0
VERTEX
  8
0
 62
7
  6
CONTINUOUS
 10
70.7798195503
 20
199.1874993976
  0
VERTEX
  8
0
 62
7
  6
CONTINUOUS
 10
70.9186320204
 20
199.1750679619
  0
VERTEX
  8
0
 62
7
  6
CONTINUOUS
 10
71.0425770585
 20
199.1606185241
  0
VERTEX
  8
0
 62
7
  6
CONTINUOUS
 10
71.1529172969
 20
199.1453366986
  0
VERTEX
  8
0
 62
7
  6
CONTINUOUS
 10
71.2513341679
 20
199.1300401592
  0
VERTEX
  8
0
 62
7
  6
CONTINUOUS
 10
71.3392847627
 20
199.115316608
  0
SEQEND
  0
LINE
  8
0
 62
7
  6
CONTINUOUS
 10
60.3299532459
 20
199.0627349454
 11
60.3379897152
 21
199.0634378045
  0
POLYLINE
  8
0
 62
7
  6
CONTINUOUS
 66
1
 70
0
  0
VERTEX
  8
0
 62
7
  6
CONTINUOUS
 10
53.0637955299
 20
199.073599068
  0
VERTEX
  8
0
 62
7
  6
CONTINUOUS
 10
53.1517689169
 20
199.0793851158
  0
VERTEX
  8
0
 62
7
  6
CONTINUOUS
 10
53.237635832
 20
199.1005708839
  0
VERTEX
  8
0
 62
7
  6
CONTINUOUS
 10
53.3185780559
 20
199.136585634
  0
VERTEX
  8
0
 62
7
  6
CONTINUOUS
 10
53.3920090509
 20
199.1863624745
  0
VERTEX
  8
0
 62
7
  6
CONTINUOUS
 10
53.4555538726
 20
199.2483542033
  0
VERTEX
  8
0
 62
7
  6
CONTINUOUS
 10
53.5071651423
 20
199.3205935061
  0
VERTEX
  8
0
 62
7
  6
CONTINUOUS
 10
53.5452010868
 20
199.4007725379
  0
VERTEX
  8
0
 62
7
  6
CONTINUOUS
 10
53.5684770063
 20
199.4863249543
  0
VERTEX
  8
0
 62
7
  6
CONTINUOUS
 10
53.5763033175
 20
199.5745181181
  0
SEQEND
  0
LINE
  8
0
 62
7
  6
CONTINUOUS
 10
109.2985255821
 20
200.555856363
 11
108.4763033175
 21
200.555856363
  0
LINE
  8
0
 62
7
  6
CONTINUOUS
 10
108.2985255186
 20
200.555856363
 11
107.4763033175
 21
200.555856363
  0
LINE
  8
0
 62
7
  6
CONTINUOUS
 10
84.7944851357
 20
200.555856363
 11
83.9763033175
 21
200.555856363
  0
LINE
  8
0
 62
7
  6
CONTINUOUS
 10
83.7944847889
 20
200.555856363
 11
82.9763034909
 21
200.555856363
  0
LINE
  8
0
 62
7
  6
CONTINUOUS
 10
82.7944849623
 20
200.555856363
 11
81.9763031441
 21
200.555856363
  0
LINE
  8
0
 62
7
  6
CONTINUOUS
 10
81.7944851357
 20
200.555856363
 11
80.9763033175
 21
200.555856363
  0
LINE
  8
0
 62
7
  6
CONTINUOUS
 10
58.6013033652
 20
200.555856363
 11
58.4763032699
 21
200.555856363
  0
LINE
  8
0
 62
7
  6
CONTINUOUS
 10
58.2763033175
 20
200.555856363
 11
57.5763033414
 21
200.555856363
  0
LINE
  8
0
 62
7
  6
CONTINUOUS
 10
57.3763033175
 20
200.555856363
 11
56.4763033175
 21
200.555856363
  0
LINE
  8
0
 62
7
  6
CONTINUOUS
 10
46.4763033175
 20
200.555856363
 11
44.4763033175
 21
200.555856363
  0
LINE
  8
0
 62
7
  6
CONTINUOUS
 10
111.9013033175
 20
200.655856363
 11
104.3763033175
 21
200.655856363
  0
LINE
  8
0
 62
7
  6
CONTINUOUS
 10
99.2013033175
 20
200.655856363
 11
97.2013033175
 21
200.655856363
  0
LINE
  8
0
 62
7
  6
CONTINUOUS
 10
86.5013033175
 20
200.655856363
 11
79.8013033175
 21
200.655856363
  0
LINE
  8
0
 62
7
  6
CONTINUOUS
 10
73.8013033175
 20
200.655856363
 11
71.8013033175
 21
200.655856363
  0
LINE
  8
0
 62
7
  6
CONTINUOUS
 10
61.1013033175
 20
200.655856363
 11
53.6221684951
 21
200.655856363
  0
LINE
  8
0
 62
7
  6
CONTINUOUS
 10
48.4013033175
 20
200.655856363
 11
42.5513033175
 21
200.655856363
  0
POLYLINE
  8
0
 62
7
  6
CONTINUOUS
 66
1
 70
0
  0
VERTEX
  8
0
 62
7
  6
CONTINUOUS
 10
96.6466020036
 20
200.855856363
  0
VERTEX
  8
0
 62
7
  6
CONTINUOUS
 10
96.5936796921
 20
200.8583558059
  0
VERTEX
  8
0
 62
7
  6
CONTINUOUS
 10
96.5239793313
 20
200.8651487
  0
VERTEX
  8
0
 62
7
  6
CONTINUOUS
 10
96.3376514997
 20
200.8863618824
  0
SEQEND
  0
POLYLINE
  8
0
 62
7
  6
CONTINUOUS
 66
1
 70
0
  0
VERTEX
  8
0
 62
7
  6
CONTINUOUS
 10
99.7013037048
 20
199.0558563219
  0
VERTEX
  8
0
 62
7
  6
CONTINUOUS
 10
99.6144786937
 20
199.0634502211
  0
VERTEX
  8
0
 62
7
  6
CONTINUOUS
 10
99.5302915517
 20
199.086006327
  0
VERTEX
  8
0
 62
7
  6
CONTINUOUS
 10
99.4513004503
 20
199.1228392307
  0
VERTEX
  8
0
 62
7
  6
CONTINUOUS
 10
99.3799056782
 20
199.1728296986
  0
VERTEX
  8
0
 62
7
  6
CONTINUOUS
 10
99.3182767005
 20
199.2344586785
  0
VERTEX
  8
0
 62
7
  6
CONTINUOUS
 10
99.2682862312
 20
199.3058534574
  0
VERTEX
  8
0
 62
7
  6
CONTINUOUS
 10
99.231453325
 20
199.3848445703
  0
VERTEX
  8
0
 62
7
  6
CONTINUOUS
 10
99.2088972173
 20
199.4690317263
  0
VERTEX
  8
0
 62
7
  6
CONTINUOUS
 10
99.2013033178
 20
199.5558567502
  0
SEQEND
  0
POLYLINE
  8
0
 62
7
  6
CONTINUOUS
 66
1
 70
0
  0
VERTEX
  8
0
 62
7
  6
CONTINUOUS
 10
112.4013186828
 20
199.0558562835
  0
VERTEX
  8
0
 62
7
  6
CONTINUOUS
 10
112.3144915775
 20
199.0634514778
  0
VERTEX
  8
0
 62
7
  6
CONTINUOUS
 10
112.2303024834
 20
199.0860089837
  0
VERTEX
  8
0
 62
7
  6
CONTINUOUS
 10
112.1513095542
 20
199.1228433729
  0
VERTEX
  8
0
 62
7
  6
CONTINUOUS
 10
112.079913059
 20
199.1728354022
  0
VERTEX
  8
0
 62
7
  6
CONTINUOUS
 10
112.0182824453
 20
199.2344660204
  0
VERTEX
  8
0
 62
7
  6
CONTINUOUS
 10
111.968290416
 20
199.305862526
  0
VERTEX
  8
0
 62
7
  6
CONTINUOUS
 10
111.9314560238
 20
199.3848554722
  0
VERTEX
  8
0
 62
7
  6
CONTINUOUS
 10
111.9088985139
 20
199.4690445908
  0
VERTEX
  8
0
 62
7
  6
CONTINUOUS
 10
111.9013033176
 20
199.5558717282
  0
SEQEND
  0
POLYLINE
  8
0
 62
7
  6
CONTINUOUS
 66
1
 70
0
  0
VERTEX
  8
0
 62
7
  6
CONTINUOUS
 10
96.3376514997
 20
200.8863618824
  0
VERTEX
  8
0
 62
7
  6
CONTINUOUS
 10
96.2258862115
 20
200.8974154941
  0
VERTEX
  8
0
 62
7
  6
CONTINUOUS
 10
96.1067810599
 20
200.9065059298
  0
VERTEX
  8
0
 62
7
  6
CONTINUOUS
 10
95.9814295527
 20
200.9125472765
  0
VERTEX
  8
0
 62
7
  6
CONTINUOUS
 10
95.8512868334
 20
200.914695211
  0
VERTEX
  8
0
 62
7
  6
CONTINUOUS
 10
95.721161607
 20
200.9125467674
  0
VERTEX
  8
0
 62
7
  6
CONTINUOUS
 10
95.5958603129
 20
200.9065081226
  0
VERTEX
  8
0
 62
7
  6
CONTINUOUS
 10
95.5216933381
 20
200.9008477367
  0
SEQEND
  0
LINE
  8
0
 62
7
  6
CONTINUOUS
 10
103.7691096086
 20
199.0847557418
 11
103.8637929232
 21
199.0735993305
  0
POLYLINE
  8
0
 62
7
  6
CONTINUOUS
 66
1
 70
0
  0
VERTEX
  8
0
 62
7
  6
CONTINUOUS
 10
94.8863182961
 20
200.2373588946
  0
VERTEX
  8
0
 62
7
  6
CONTINUOUS
 10
94.9688030913
 20
200.2259830649
  0
VERTEX
  8
0
 62
7
  6
CONTINUOUS
 10
95.0477771521
 20
200.228449377
  0
VERTEX
  8
0
 62
7
  6
CONTINUOUS
 10
95.1206447552
 20
200.2446525486
  0
VERTEX
  8
0
 62
7
  6
CONTINUOUS
 10
95.1850100825
 20
200.274026871
  0
VERTEX
  8
0
 62
7
  6
CONTINUOUS
 10
95.2387631025
 20
200.3155639727
  0
VERTEX
  8
0
 62
7
  6
CONTINUOUS
 10
95.2462427936
 20
200.3232350236
  0
SEQEND
  0
POLYLINE
  8
0
 62
7
  6
CONTINUOUS
 66
1
 70
0
  0
VERTEX
  8
0
 62
7
  6
CONTINUOUS
 10
90.5914382458
 20
199.0801957544
  0
VERTEX
  8
0
 62
7
  6
CONTINUOUS
 10
90.647280349
 20
199.0712876874
  0
VERTEX
  8
0
 62
7
  6
CONTINUOUS
 10
90.698318434
 20
199.064211411
  0
VERTEX
  8
0
 62
7
  6
CONTINUOUS
 10
90.7473052456
 20
199.0590213542
  0
VERTEX
  8
0
 62
7
  6
CONTINUOUS
 10
90.7974816299
 20
199.0561353553
  0
VERTEX
  8
0
 62
7
  6
CONTINUOUS
 10
90.8174996551
 20
199.0558563975
  0
SEQEND
  0
POLYLINE
  8
0
 62
7
  6
CONTINUOUS
 66
1
 70
0
  0
VERTEX
  8
0
 62
7
  6
CONTINUOUS
 10
93.2636355244
 20
199.0636013954
  0
VERTEX
  8
0
 62
7
  6
CONTINUOUS
 10
93.2713992702
 20
199.0622817522
  0
VERTEX
  8
0
 62
7
  6
CONTINUOUS
 10
93.2790869104
 20
199.061098542
  0
VERTEX
  8
0
 62
7
  6
CONTINUOUS
 10
93.2866906543
 20
199.060048263
  0
VERTEX
  8
0
 62
7
  6
CONTINUOUS
 10
93.2941932196
 20
199.0591282059
  0
VERTEX
  8
0
 62
7
  6
CONTINUOUS
 10
93.3015758029
 20
199.0583349497
  0
VERTEX
  8
0
 62
7
  6
CONTINUOUS
 10
93.3088197077
 20
199.0576641487
  0
VERTEX
  8
0
 62
7
  6
CONTINUOUS
 10
93.3159063883
 20
199.0571105819
  0
VERTEX
  8
0
 62
7
  6
CONTINUOUS
 10
93.3228174725
 20
199.0566682109
  0
VERTEX
  8
0
 62
7
  6
CONTINUOUS
 10
93.3295346689
 20
199.0563302488
  0
VERTEX
  8
0
 62
7
  6
CONTINUOUS
 10
93.3360326293
 20
199.0560894394
  0
VERTEX
  8
0
 62
7
  6
CONTINUOUS
 10
93.3422378563
 20
199.0559384201
  0
VERTEX
  8
0
 62
7
  6
CONTINUOUS
 10
93.3480544609
 20
199.0558668236
  0
VERTEX
  8
0
 62
7
  6
CONTINUOUS
 10
94.5351083549
 20
199.0558563698
  0
SEQEND
  0
POLYLINE
  8
0
 62
7
  6
CONTINUOUS
 66
1
 70
0
  0
VERTEX
  8
0
 62
7
  6
CONTINUOUS
 10
99.6120495715
 20
199.06388648
  0
VERTEX
  8
0
 62
7
  6
CONTINUOUS
 10
99.6195550781
 20
199.0625838397
  0
VERTEX
  8
0
 62
7
  6
CONTINUOUS
 10
99.6269909596
 20
199.061409005
  0
VERTEX
  8
0
 62
7
  6
CONTINUOUS
 10
99.6343520103
 20
199.0603586354
  0
VERTEX
  8
0
 62
7
  6
CONTINUOUS
 10
99.6416243889
 20
199.0594302759
  0
VERTEX
  8
0
 62
7
  6
CONTINUOUS
 10
99.6444407274
 20
199.0591123079
  0
SEQEND
  0
POLYLINE
  8
0
 62
7
  6
CONTINUOUS
 66
1
 70
0
  0
VERTEX
  8
0
 62
7
  6
CONTINUOUS
 10
50.5034684686
 20
207.7980924575
  0
VERTEX
  8
0
 62
7
  6
CONTINUOUS
 10
50.3611842423
 20
207.8229840872
  0
VERTEX
  8
0
 62
7
  6
CONTINUOUS
 10
50.3018728613
 20
207.8330568382
  0
VERTEX
  8
0
 62
7
  6
CONTINUOUS
 10
50.2485787701
 20
207.8414307074
  0
VERTEX
  8
0
 62
7
  6
CONTINUOUS
 10
50.1995507977
 20
207.8480837346
  0
VERTEX
  8
0
 62
7
  6
CONTINUOUS
 10
50.1520517746
 20
207.8529568755
  0
VERTEX
  8
0
 62
7
  6
CONTINUOUS
 10
50.1035321143
 20
207.8556157901
  0
VERTEX
  8
0
 62
7
  6
CONTINUOUS
 10
50.0849532705
 20
207.8558549616
  0
SEQEND
  0
POLYLINE
  8
0
 62
7
  6
CONTINUOUS
 66
1
 70
0
  0
VERTEX
  8
0
 62
7
  6
CONTINUOUS
 10
96.7392848984
 20
199.1153165847
  0
VERTEX
  8
0
 62
7
  6
CONTINUOUS
 10
96.8864371926
 20
199.0895934312
  0
VERTEX
  8
0
 62
7
  6
CONTINUOUS
 10
96.9475479612
 20
199.0791814548
  0
VERTEX
  8
0
 62
7
  6
CONTINUOUS
 10
97.0022683391
 20
199.070541286
  0
VERTEX
  8
0
 62
7
  6
CONTINUOUS
 10
97.0525193338
 20
199.0636944696
  0
VERTEX
  8
0
 62
7
  6
CONTINUOUS
 10
97.101051391
 20
199.0587105272
  0
VERTEX
  8
0
 62
7
  6
CONTINUOUS
 10
97.1510168481
 20
199.0560466557
  0
VERTEX
  8
0
 62
7
  6
CONTINUOUS
 10
97.1675098049
 20
199.0558563674
  0
SEQEND
  0
LINE
  8
0
 62
7
  6
CONTINUOUS
 10
90.3777740442
 20
199.1172882867
 11
90.5914382458
 21
199.0801957544
  0
POLYLINE
  8
0
 62
7
  6
CONTINUOUS
 66
1
 70
0
  0
VERTEX
  8
0
 62
7
  6
CONTINUOUS
 10
94.8863182961
 20
200.2373588946
  0
VERTEX
  8
0
 62
7
  6
CONTINUOUS
 10
94.8723102126
 20
200.2398528651
  0
VERTEX
  8
0
 62
7
  6
CONTINUOUS
 10
94.8573024187
 20
200.2413937815
  0
VERTEX
  8
0
 62
7
  6
CONTINUOUS
 10
94.8410743937
 20
200.2419287938
  0
SEQEND
  0
POLYLINE
  8
0
 62
7
  6
CONTINUOUS
 66
1
 70
0
  0
VERTEX
  8
0
 62
7
  6
CONTINUOUS
 10
99.5790465451
 20
199.0710194836
  0
VERTEX
  8
0
 62
7
  6
CONTINUOUS
 10
99.6447239926
 20
199.0590607302
  0
VERTEX
  8
0
 62
7
  6
CONTINUOUS
 10
99.6976057101
 20
199.056061948
  0
SEQEND
  0
POLYLINE
  8
0
 62
7
  6
CONTINUOUS
 66
1
 70
0
  0
VERTEX
  8
0
 62
7
  6
CONTINUOUS
 10
53.2226658652
 20
207.8339889128
  0
VERTEX
  8
0
 62
7
  6
CONTINUOUS
 10
53.1473167214
 20
207.8508062356
  0
VERTEX
  8
0
 62
7
  6
CONTINUOUS
 10
53.0764285323
 20
207.8558582262
  0
SEQEND
  0
POLYLINE
  8
0
 62
7
  6
CONTINUOUS
 66
1
 70
0
  0
VERTEX
  8
0
 62
7
  6
CONTINUOUS
 10
86.8407134081
 20
199.0823254373
  0
VERTEX
  8
0
 62
7
  6
CONTINUOUS
 10
86.9241375987
 20
199.0618348741
  0
VERTEX
  8
0
 62
7
  6
CONTINUOUS
 10
87.0012314341
 20
199.0558547482
  0
SEQEND
  0
LINE
  8
0
 62
7
  6
CONTINUOUS
 10
93.1816572162
 20
199.0854968834
 11
93.2643454638
 21
199.0634807234
  0
POLYLINE
  8
0
 62
7
  6
CONTINUOUS
 66
1
 70
0
  0
VERTEX
  8
0
 62
7
  6
CONTINUOUS
 10
84.2829299999
 20
199.2155239579
  0
VERTEX
  8
0
 62
7
  6
CONTINUOUS
 10
84.4356026975
 20
199.1656026174
  0
VERTEX
  8
0
 62
7
  6
CONTINUOUS
 10
84.5028896068
 20
199.1440415918
  0
VERTEX
  8
0
 62
7
  6
CONTINUOUS
 10
84.5666511193
 20
199.1244916346
  0
VERTEX
  8
0
 62
7
  6
CONTINUOUS
 10
84.6287899569
 20
199.1068268053
  0
VERTEX
  8
0
 62
7
  6
CONTINUOUS
 10
84.6911472087
 20
199.0910490757
  0
VERTEX
  8
0
 62
7
  6
CONTINUOUS
 10
84.7566157711
 20
199.0771807238
  0
VERTEX
  8
0
 62
7
  6
CONTINUOUS
 10
84.8280810012
 20
199.0657496966
  0
VERTEX
  8
0
 62
7
  6
CONTINUOUS
 10
84.9089952036
 20
199.0579463188
  0
VERTEX
  8
0
 62
7
  6
CONTINUOUS
 10
84.97642989
 20
199.055857627
  0
SEQEND
  0
POLYLINE
  8
0
 62
7
  6
CONTINUOUS
 66
1
 70
0
  0
VERTEX
  8
0
 62
7
  6
CONTINUOUS
 10
86.8333467647
 20
199.0849084926
  0
VERTEX
  8
0
 62
7
  6
CONTINUOUS
 10
86.84132265
 20
199.0821397346
  0
VERTEX
  8
0
 62
7
  6
CONTINUOUS
 10
86.8492695235
 20
199.0795298573
  0
VERTEX
  8
0
 62
7
  6
CONTINUOUS
 10
86.8571817046
 20
199.0770765278
  0
VERTEX
  8
0
 62
7
  6
CONTINUOUS
 10
86.8650535935
 20
199.074777225
  0
VERTEX
  8
0
 62
7
  6
CONTINUOUS
 10
86.8728796773
 20
199.0726292463
  0
VERTEX
  8
0
 62
7
  6
CONTINUOUS
 10
86.8806545349
 20
199.0706297134
  0
VERTEX
  8
0
 62
7
  6
CONTINUOUS
 10
86.8883728425
 20
199.0687755795
  0
VERTEX
  8
0
 62
7
  6
CONTINUOUS
 10
86.8960293776
 20
199.0670636356
  0
VERTEX
  8
0
 62
7
  6
CONTINUOUS
 10
86.9036190235
 20
199.0654905182
  0
VERTEX
  8
0
 62
7
  6
CONTINUOUS
 10
86.9111367729
 20
199.0640527163
  0
VERTEX
  8
0
 62
7
  6
CONTINUOUS
 10
86.9146305502
 20
199.0634394414
  0
SEQEND
  0
LINE
  8
0
 62
7
  6
CONTINUOUS
 10
86.825347623
 20
199.0878382705
 11
86.8333467647
 21
199.0849084926
  0
POLYLINE
  8
0
 62
7
  6
CONTINUOUS
 66
1
 70
0
  0
VERTEX
  8
0
 62
7
  6
CONTINUOUS
 10
66.7820741041
 20
207.8220640399
  0
VERTEX
  8
0
 62
7
  6
CONTINUOUS
 10
66.7680833646
 20
207.8272484373
  0
VERTEX
  8
0
 62
7
  6
CONTINUOUS
 10
66.7542142497
 20
207.8319263612
  0
VERTEX
  8
0
 62
7
  6
CONTINUOUS
 10
66.740477222
 20
207.836120123
  0
VERTEX
  8
0
 62
7
  6
CONTINUOUS
 10
66.726881171
 20
207.8398512554
  0
VERTEX
  8
0
 62
7
  6
CONTINUOUS
 10
66.7134333111
 20
207.8431405314
  0
VERTEX
  8
0
 62
7
  6
CONTINUOUS
 10
66.7001393002
 20
207.8460079085
  0
SEQEND
  0
POLYLINE
  8
0
 62
7
  6
CONTINUOUS
 66
1
 70
0
  0
VERTEX
  8
0
 62
7
  6
CONTINUOUS
 10
86.7612269158
 20
199.1172620868
  0
VERTEX
  8
0
 62
7
  6
CONTINUOUS
 10
86.7691982952
 20
199.1129919961
  0
VERTEX
  8
0
 62
7
  6
CONTINUOUS
 10
86.7771942953
 20
199.1088924893
  0
VERTEX
  8
0
 62
7
  6
CONTINUOUS
 10
86.7852088236
 20
199.1049631433
  0
VERTEX
  8
0
 62
7
  6
CONTINUOUS
 10
86.7932358017
 20
199.1012033076
  0
VERTEX
  8
0
 62
7
  6
CONTINUOUS
 10
86.8012691743
 20
199.0976121071
  0
VERTEX
  8
0
 62
7
  6
CONTINUOUS
 10
86.8093029176
 20
199.0941884456
  0
VERTEX
  8
0
 62
7
  6
CONTINUOUS
 10
86.8173310465
 20
199.0909310092
  0
VERTEX
  8
0
 62
7
  6
CONTINUOUS
 10
86.825347623
 20
199.0878382705
  0
SEQEND
  0
POLYLINE
  8
0
 62
7
  6
CONTINUOUS
 66
1
 70
0
  0
VERTEX
  8
0
 62
7
  6
CONTINUOUS
 10
66.8534786795
 20
207.7876456225
  0
VERTEX
  8
0
 62
7
  6
CONTINUOUS
 10
66.8390494208
 20
207.7957541105
  0
VERTEX
  8
0
 62
7
  6
CONTINUOUS
 10
66.8246781608
 20
207.8032216151
  0
VERTEX
  8
0
 62
7
  6
CONTINUOUS
 10
66.8103824557
 20
207.8100771848
  0
VERTEX
  8
0
 62
7
  6
CONTINUOUS
 10
66.7961770525
 20
207.8163489558
  0
VERTEX
  8
0
 62
7
  6
CONTINUOUS
 10
66.7820741041
 20
207.8220640399
  0
SEQEND
  0
LINE
  8
0
 62
7
  6
CONTINUOUS
 10
86.751415926
 20
199.122794224
 11
86.7609318741
 21
199.1174270908
  0
POLYLINE
  8
0
 62
7
  6
CONTINUOUS
 66
1
 70
0
  0
VERTEX
  8
0
 62
7
  6
CONTINUOUS
 10
80.1562190332
 20
199.4858502758
  0
VERTEX
  8
0
 62
7
  6
CONTINUOUS
 10
80.1611501514
 20
199.4570504512
  0
VERTEX
  8
0
 62
7
  6
CONTINUOUS
 10
80.1676265479
 20
199.4290785158
  0
VERTEX
  8
0
 62
7
  6
CONTINUOUS
 10
80.1755408329
 20
199.4020100786
  0
VERTEX
  8
0
 62
7
  6
CONTINUOUS
 10
80.1847835816
 20
199.3759107649
  0
VERTEX
  8
0
 62
7
  6
CONTINUOUS
 10
80.1952441423
 20
199.350836219
  0
VERTEX
  8
0
 62
7
  6
CONTINUOUS
 10
80.2068111961
 20
199.3268327218
  0
VERTEX
  8
0
 62
7
  6
CONTINUOUS
 10
80.219373848
 20
199.3039366224
  0
VERTEX
  8
0
 62
7
  6
CONTINUOUS
 10
80.2328223939
 20
199.2821747922
  0
VERTEX
  8
0
 62
7
  6
CONTINUOUS
 10
80.2470489283
 20
199.2615652407
  0
VERTEX
  8
0
 62
7
  6
CONTINUOUS
 10
80.2619479317
 20
199.2421176356
  0
VERTEX
  8
0
 62
7
  6
CONTINUOUS
 10
80.2774167865
 20
199.2238338484
  0
VERTEX
  8
0
 62
7
  6
CONTINUOUS
 10
80.2933562245
 20
199.2067085196
  0
SEQEND
  0
LINE
  8
0
 62
7
  6
CONTINUOUS
 10
80.9763033175
 20
200.655856363
 11
80.9763033175
 21
200.555856363
  0
LINE
  8
0
 62
7
  6
CONTINUOUS
 10
81.1126669539
 20
200.655856363
 11
81.1126669539
 21
200.555856363
  0
LINE
  8
0
 62
7
  6
CONTINUOUS
 10
81.6126671273
 20
200.655856363
 11
81.6126671273
 21
200.555856363
  0
LINE
  8
0
 62
7
  6
CONTINUOUS
 10
81.7944851357
 20
200.655856363
 11
81.7944851357
 21
200.555856363
  0
LINE
  8
0
 62
7
  6
CONTINUOUS
 10
81.9763031441
 20
200.655856363
 11
81.9763031441
 21
200.555856363
  0
LINE
  8
0
 62
7
  6
CONTINUOUS
 10
81.9990305903
 20
200.655856363
 11
81.9990305903
 21
200.555856363
  0
LINE
  8
0
 62
7
  6
CONTINUOUS
 10
82.0217580364
 20
200.655856363
 11
82.0217580364
 21
200.555856363
  0
LINE
  8
0
 62
7
  6
CONTINUOUS
 10
82.1126667805
 20
200.655856363
 11
82.1126667805
 21
200.555856363
  0
LINE
  8
0
 62
7
  6
CONTINUOUS
 10
82.2035760448
 20
200.655856363
 11
82.2035760448
 21
200.555856363
  0
LINE
  8
0
 62
7
  6
CONTINUOUS
 10
82.3013033175
 20
200.055856363
 11
82.3013033175
 21
200.555856363
  0
LINE
  8
0
 62
7
  6
CONTINUOUS
 10
82.3626671273
 20
200.655856363
 11
82.3626671273
 21
200.555856363
  0
LINE
  8
0
 62
7
  6
CONTINUOUS
 10
82.4081214994
 20
200.655856363
 11
82.4081214994
 21
200.555856363
  0
LINE
  8
0
 62
7
  6
CONTINUOUS
 10
82.5672125818
 20
200.655856363
 11
82.5672125818
 21
200.555856363
  0
LINE
  8
0
 62
7
  6
CONTINUOUS
 10
82.658121326
 20
200.655856363
 11
82.658121326
 21
200.555856363
  0
LINE
  8
0
 62
7
  6
CONTINUOUS
 10
82.7490305903
 20
200.655856363
 11
82.7490305903
 21
200.555856363
  0
LINE
  8
0
 62
7
  6
CONTINUOUS
 10
82.7717580364
 20
200.655856363
 11
82.7717580364
 21
200.555856363
  0
LINE
  8
0
 62
7
  6
CONTINUOUS
 10
82.7944849623
 20
200.655856363
 11
82.7944849623
 21
200.555856363
  0
POLYLINE
  8
0
 62
7
  6
CONTINUOUS
 66
1
 70
0
  0
VERTEX
  8
0
 62
7
  6
CONTINUOUS
 10
99.5115692714
 20
207.8184590376
  0
VERTEX
  8
0
 62
7
  6
CONTINUOUS
 10
99.5069895218
 20
207.8165540899
  0
VERTEX
  8
0
 62
7
  6
CONTINUOUS
 10
99.5024000914
 20
207.8145913163
  0
SEQEND
  0
POLYLINE
  8
0
 62
7
  6
CONTINUOUS
 66
1
 70
0
  0
VERTEX
  8
0
 62
7
  6
CONTINUOUS
 10
99.5252473081
 20
207.8238355419
  0
VERTEX
  8
0
 62
7
  6
CONTINUOUS
 10
99.5206984526
 20
207.822098915
  0
VERTEX
  8
0
 62
7
  6
CONTINUOUS
 10
99.516139015
 20
207.8203070275
  0
SEQEND
  0
POLYLINE
  8
0
 62
7
  6
CONTINUOUS
 66
1
 70
0
  0
VERTEX
  8
0
 62
7
  6
CONTINUOUS
 10
99.5350565638
 20
207.8274363032
  0
VERTEX
  8
0
 62
7
  6
CONTINUOUS
 10
99.5209621077
 20
207.8222298929
  0
VERTEX
  8
0
 62
7
  6
CONTINUOUS
 10
99.5067665487
 20
207.8164909098
  0
VERTEX
  8
0
 62
7
  6
CONTINUOUS
 10
99.4924796219
 20
207.8101941638
  0
VERTEX
  8
0
 62
7
  6
CONTINUOUS
 10
99.4781134021
 20
207.803313372
  0
VERTEX
  8
0
 62
7
  6
CONTINUOUS
 10
99.4636825024
 20
207.7958212494
  0
VERTEX
  8
0
 62
7
  6
CONTINUOUS
 10
99.4492042833
 20
207.7876896191
  0
VERTEX
  8
0
 62
7
  6
CONTINUOUS
 10
99.4346990681
 20
207.7788895436
  0
VERTEX
  8
0
 62
7
  6
CONTINUOUS
 10
99.4201903551
 20
207.7693914721
  0
VERTEX
  8
0
 62
7
  6
CONTINUOUS
 10
99.4057050423
 20
207.7591654166
  0
VERTEX
  8
0
 62
7
  6
CONTINUOUS
 10
99.3912736709
 20
207.7481811669
  0
SEQEND
  0
POLYLINE
  8
0
 62
7
  6
CONTINUOUS
 66
1
 70
0
  0
VERTEX
  8
0
 62
7
  6
CONTINUOUS
 10
99.5362238707
 20
207.8278133652
  0
VERTEX
  8
0
 62
7
  6
CONTINUOUS
 10
99.5343122865
 20
207.8271463133
  0
VERTEX
  8
0
 62
7
  6
CONTINUOUS
 10
99.5297853292
 20
207.8255177365
  0
SEQEND
  0
POLYLINE
  8
0
 62
7
  6
CONTINUOUS
 66
1
 70
0
  0
VERTEX
  8
0
 62
7
  6
CONTINUOUS
 10
75.5170423101
 20
199.1656150609
  0
VERTEX
  8
0
 62
7
  6
CONTINUOUS
 10
75.6697138402
 20
199.2155359739
  0
VERTEX
  8
0
 62
7
  6
CONTINUOUS
 10
75.7586347115
 20
199.2440227459
  0
VERTEX
  8
0
 62
7
  6
CONTINUOUS
 10
75.8590535675
 20
199.2748671782
  0
VERTEX
  8
0
 62
7
  6
CONTINUOUS
 10
75.9742033083
 20
199.3078762878
  0
VERTEX
  8
0
 62
7
  6
CONTINUOUS
 10
76.1071460021
 20
199.3420962724
  0
VERTEX
  8
0
 62
7
  6
CONTINUOUS
 10
76.2558440688
 20
199.374567718
  0
VERTEX
  8
0
 62
7
  6
CONTINUOUS
 10
76.4145611652
 20
199.4015544401
  0
VERTEX
  8
0
 62
7
  6
CONTINUOUS
 10
76.5728208398
 20
199.4197858449
  0
VERTEX
  8
0
 62
7
  6
CONTINUOUS
 10
76.7210186998
 20
199.4284894615
  0
VERTEX
  8
0
 62
7
  6
CONTINUOUS
 10
76.8648921799
 20
199.4289488709
  0
VERTEX
  8
0
 62
7
  6
CONTINUOUS
 10
77.0120802321
 20
199.4212590982
  0
VERTEX
  8
0
 62
7
  6
CONTINUOUS
 10
77.1690818993
 20
199.4042097074
  0
VERTEX
  8
0
 62
7
  6
CONTINUOUS
 10
77.3283943669
 20
199.3781125363
  0
VERTEX
  8
0
 62
7
  6
CONTINUOUS
 10
77.4786870076
 20
199.3460807421
  0
VERTEX
  8
0
 62
7
  6
CONTINUOUS
 10
77.6136961735
 20
199.311879121
  0
VERTEX
  8
0
 62
7
  6
CONTINUOUS
 10
77.7306787611
 20
199.2786941282
  0
VERTEX
  8
0
 62
7
  6
CONTINUOUS
 10
77.8325537607
 20
199.2476110678
  0
VERTEX
  8
0
 62
7
  6
CONTINUOUS
 10
77.9225732563
 20
199.2188828332
  0
SEQEND
  0
LINE
  8
0
 62
7
  6
CONTINUOUS
 10
56.2194268004
 20
199.0929367571
 11
56.2815324278
 21
199.1089264166
  0
LINE
  8
0
 62
7
  6
CONTINUOUS
 10
56.1846553745
 20
199.0850056894
 11
56.2194268004
 21
199.0929367571
  0
POLYLINE
  8
0
 62
7
  6
CONTINUOUS
 66
1
 70
0
  0
VERTEX
  8
0
 62
7
  6
CONTINUOUS
 10
60.3212517372
 20
199.0607642699
  0
VERTEX
  8
0
 62
7
  6
CONTINUOUS
 10
60.4015826514
 20
199.0789572263
  0
VERTEX
  8
0
 62
7
  6
CONTINUOUS
 10
60.4815280768
 20
199.1119881567
  0
VERTEX
  8
0
 62
7
  6
CONTINUOUS
 10
60.5569302731
 20
199.1601066174
  0
VERTEX
  8
0
 62
7
  6
CONTINUOUS
 10
60.6236365546
 20
199.2220988259
  0
VERTEX
  8
0
 62
7
  6
CONTINUOUS
 10
60.6781430008
 20
199.2954115134
  0
VERTEX
  8
0
 62
7
  6
CONTINUOUS
 10
60.7180419104
 20
199.3764867628
  0
VERTEX
  8
0
 62
7
  6
CONTINUOUS
 10
60.7422792361
 20
199.4612340979
  0
SEQEND
  0
POLYLINE
  8
0
 62
7
  6
CONTINUOUS
 66
1
 70
0
  0
VERTEX
  8
0
 62
7
  6
CONTINUOUS
 10
99.6168624208
 20
207.8486894328
  0
VERTEX
  8
0
 62
7
  6
CONTINUOUS
 10
99.6036171855
 20
207.8462379182
  0
VERTEX
  8
0
 62
7
  6
CONTINUOUS
 10
99.5902024219
 20
207.8433757439
  0
VERTEX
  8
0
 62
7
  6
CONTINUOUS
 10
99.5766274098
 20
207.8400839228
  0
VERTEX
  8
0
 62
7
  6
CONTINUOUS
 10
99.5629029347
 20
207.8363431434
  0
VERTEX
  8
0
 62
7
  6
CONTINUOUS
 10
99.5490413402
 20
207.8321338468
  0
VERTEX
  8
0
 62
7
  6
CONTINUOUS
 10
99.5350565638
 20
207.8274363032
  0
SEQEND
  0
LINE
  8
0
 62
7
  6
CONTINUOUS
 10
99.6196236248
 20
207.8491353051
 11
99.6145014354
 21
207.8482608228
  0
POLYLINE
  8
0
 62
7
  6
CONTINUOUS
 66
1
 70
0
  0
VERTEX
  8
0
 62
7
  6
CONTINUOUS
 10
103.1106374634
 20
207.8000814587
  0
VERTEX
  8
0
 62
7
  6
CONTINUOUS
 10
103.0282473029
 20
207.7860875443
  0
VERTEX
  8
0
 62
7
  6
CONTINUOUS
 10
102.9362975442
 20
207.7714030239
  0
VERTEX
  8
0
 62
7
  6
CONTINUOUS
 10
102.833701501
 20
207.7565386805
  0
VERTEX
  8
0
 62
7
  6
CONTINUOUS
 10
102.7189433523
 20
207.7421441107
  0
VERTEX
  8
0
 62
7
  6
CONTINUOUS
 10
102.5905875389
 20
207.7291493989
  0
VERTEX
  8
0
 62
7
  6
CONTINUOUS
 10
102.4488618997
 20
207.7188965143
  0
VERTEX
  8
0
 62
7
  6
CONTINUOUS
 10
102.2973798594
 20
207.7129164453
  0
VERTEX
  8
0
 62
7
  6
CONTINUOUS
 10
102.1412280286
 20
207.7122678074
  0
VERTEX
  8
0
 62
7
  6
CONTINUOUS
 10
101.986652929
 20
207.7171541989
  0
VERTEX
  8
0
 62
7
  6
CONTINUOUS
 10
101.8401866304
 20
207.7267619888
  0
VERTEX
  8
0
 62
7
  6
CONTINUOUS
 10
101.7070477161
 20
207.7395244215
  0
VERTEX
  8
0
 62
7
  6
CONTINUOUS
 10
101.5884506518
 20
207.7539123866
  0
VERTEX
  8
0
 62
7
  6
CONTINUOUS
 10
101.4827648408
 20
207.7689030824
  0
VERTEX
  8
0
 62
7
  6
CONTINUOUS
 10
101.3882151121
 20
207.7838035683
  0
VERTEX
  8
0
 62
7
  6
CONTINUOUS
 10
101.3034684686
 20
207.7980924575
  0
SEQEND
  0
LINE
  8
0
 62
7
  6
CONTINUOUS
 10
99.6218021761
 20
207.8494955951
 11
99.6196236248
 21
207.8491353051
  0
POLYLINE
  8
0
 62
7
  6
CONTINUOUS
 66
1
 70
0
  0
VERTEX
  8
0
 62
7
  6
CONTINUOUS
 10
99.6340740194
 20
207.8513160773
  0
VERTEX
  8
0
 62
7
  6
CONTINUOUS
 10
99.6300207664
 20
207.85074919
  0
VERTEX
  8
0
 62
7
  6
CONTINUOUS
 10
99.6259295619
 20
207.8501426308
  0
SEQEND
  0
POLYLINE
  8
0
 62
7
  6
CONTINUOUS
 66
1
 70
0
  0
VERTEX
  8
0
 62
7
  6
CONTINUOUS
 10
99.6459885557
 20
207.8527873121
  0
VERTEX
  8
0
 62
7
  6
CONTINUOUS
 10
99.6420596524
 20
207.8523342422
  0
VERTEX
  8
0
 62
7
  6
CONTINUOUS
 10
99.6380875631
 20
207.8518441351
  0
SEQEND
  0
LINE
  8
DEFAULT_1
 62
2
  6
CENTER
 10
93.1917344214
 20
203.4561443948
 11
70.2713033175
 21
203.455856363
  0
LINE
  8
DEFAULT_1
 62
2
  6
CENTER
 10
67.7917344214
 20
203.4561443948
 11
40.0513033175
 21
203.455856363
  0
LINE
  8
DEFAULT_1
 62
2
  6
CENTER
 10
95.6513033175
 20
203.455856363
 11
119.9903763676
 21
203.455856363
  0
LINE
  8
0
 62
7
  6
CONTINUOUS
 10
97.7619272025
 20
204.855856363
 11
92.5052226995
 21
204.855856363
  0
LINE
  8
0
 62
7
  6
CONTINUOUS
 10
72.2211189114
 20
204.855856363
 11
67.1052226995
 21
204.855856363
  0
LINE
  8
0
 62
7
  6
CONTINUOUS
 10
67.7917344214
 20
203.4561443948
 11
70.2713033175
 21
203.455856363
  0
LINE
  8
0
 62
7
  6
CONTINUOUS
 10
93.1917344214
 20
203.4561443948
 11
95.6513033175
 21
203.455856363
  0
POLYLINE
  8
0
 62
7
  6
CONTINUOUS
 66
1
 70
0
  0
VERTEX
  8
0
 62
7
  6
CONTINUOUS
 10
53.0762862381
 20
207.8558563408
  0
VERTEX
  8
0
 62
7
  6
CONTINUOUS
 10
53.1631138885
 20
207.8482618292
  0
VERTEX
  8
0
 62
7
  6
CONTINUOUS
 10
53.24730362
 20
207.8257047098
  0
VERTEX
  8
0
 62
7
  6
CONTINUOUS
 10
53.3262971808
 20
207.7888704184
  0
VERTEX
  8
0
 62
7
  6
CONTINUOUS
 10
53.3976942167
 20
207.7388782282
  0
VERTEX
  8
0
 62
7
  6
CONTINUOUS
 10
53.4593252088
 20
207.677247237
  0
VERTEX
  8
0
 62
7
  6
CONTINUOUS
 10
53.5093173973
 20
207.6058502061
  0
VERTEX
  8
0
 62
7
  6
CONTINUOUS
 10
53.5461516866
 20
207.5268566532
  0
VERTEX
  8
0
 62
7
  6
CONTINUOUS
 10
53.5687088053
 20
207.4426669298
  0
VERTEX
  8
0
 62
7
  6
CONTINUOUS
 10
53.5763033174
 20
207.3558392835
  0
SEQEND
  0
LINE
  8
0
 62
7
  6
CONTINUOUS
 10
112.3146297684
 20
199.0634393895
 11
112.3237141174
 21
199.0619216511
  0
POLYLINE
  8
0
 62
7
  6
CONTINUOUS
 66
1
 70
0
  0
VERTEX
  8
0
 62
7
  6
CONTINUOUS
 10
63.2034684686
 20
207.7980924575
  0
VERTEX
  8
0
 62
7
  6
CONTINUOUS
 10
63.0611842423
 20
207.8229840872
  0
VERTEX
  8
0
 62
7
  6
CONTINUOUS
 10
63.0018728613
 20
207.8330568382
  0
VERTEX
  8
0
 62
7
  6
CONTINUOUS
 10
62.9485787701
 20
207.8414307074
  0
VERTEX
  8
0
 62
7
  6
CONTINUOUS
 10
62.8995507977
 20
207.8480837346
  0
VERTEX
  8
0
 62
7
  6
CONTINUOUS
 10
62.8520517746
 20
207.8529568755
  0
VERTEX
  8
0
 62
7
  6
CONTINUOUS
 10
62.8035321143
 20
207.8556157901
  0
VERTEX
  8
0
 62
7
  6
CONTINUOUS
 10
62.7849532705
 20
207.8558549616
  0
SEQEND
  0
POLYLINE
  8
0
 62
7
  6
CONTINUOUS
 66
1
 70
0
  0
VERTEX
  8
0
 62
7
  6
CONTINUOUS
 10
66.7001393002
 20
207.8460079085
  0
VERTEX
  8
0
 62
7
  6
CONTINUOUS
 10
66.6870034331
 20
207.8484724671
  0
VERTEX
  8
0
 62
7
  6
CONTINUOUS
 10
66.6740291799
 20
207.8505523198
  0
VERTEX
  8
0
 62
7
  6
CONTINUOUS
 10
66.6611290925
 20
207.8522755102
  0
VERTEX
  8
0
 62
7
  6
CONTINUOUS
 10
66.6484311725
 20
207.8536394297
  0
VERTEX
  8
0
 62
7
  6
CONTINUOUS
 10
66.6363671821
 20
207.8546323779
  0
VERTEX
  8
0
 62
7
  6
CONTINUOUS
 10
66.6252424145
 20
207.8552880305
  0
VERTEX
  8
0
 62
7
  6
CONTINUOUS
 10
66.6152666149
 20
207.8556646706
  0
VERTEX
  8
0
 62
7
  6
CONTINUOUS
 10
66.6079539566
 20
207.8558141502
  0
VERTEX
  8
0
 62
7
  6
CONTINUOUS
 10
66.6037344888
 20
207.8558517282
  0
SEQEND
  0
POLYLINE
  8
0
 62
7
  6
CONTINUOUS
 66
1
 70
0
  0
VERTEX
  8
0
 62
7
  6
CONTINUOUS
 10
99.5736183422
 20
199.0724338392
  0
VERTEX
  8
0
 62
7
  6
CONTINUOUS
 10
99.5814111499
 20
199.0704424981
  0
VERTEX
  8
0
 62
7
  6
CONTINUOUS
 10
99.5891549611
 20
199.0685951801
  0
VERTEX
  8
0
 62
7
  6
CONTINUOUS
 10
99.5968454394
 20
199.0668888514
  0
VERTEX
  8
0
 62
7
  6
CONTINUOUS
 10
99.6044783519
 20
199.0653203678
  0
VERTEX
  8
0
 62
7
  6
CONTINUOUS
 10
99.6120495715
 20
199.06388648
  0
SEQEND
  0
POLYLINE
  8
0
 62
7
  6
CONTINUOUS
 66
1
 70
0
  0
VERTEX
  8
0
 62
7
  6
CONTINUOUS
 10
93.1745425721
 20
199.0881420803
  0
VERTEX
  8
0
 62
7
  6
CONTINUOUS
 10
93.182829842
 20
199.0850935077
  0
VERTEX
  8
0
 62
7
  6
CONTINUOUS
 10
93.1910953765
 20
199.082216881
  0
VERTEX
  8
0
 62
7
  6
CONTINUOUS
 10
93.1993336853
 20
199.0795097049
  0
VERTEX
  8
0
 62
7
  6
CONTINUOUS
 10
93.2075393762
 20
199.0769693194
  0
VERTEX
  8
0
 62
7
  6
CONTINUOUS
 10
93.2157071599
 20
199.0745929049
  0
VERTEX
  8
0
 62
7
  6
CONTINUOUS
 10
93.2238318539
 20
199.0723774887
  0
VERTEX
  8
0
 62
7
  6
CONTINUOUS
 10
93.2319083862
 20
199.0703199509
  0
VERTEX
  8
0
 62
7
  6
CONTINUOUS
 10
93.2399317994
 20
199.0684170309
  0
VERTEX
  8
0
 62
7
  6
CONTINUOUS
 10
93.2478972532
 20
199.0666653337
  0
VERTEX
  8
0
 62
7
  6
CONTINUOUS
 10
93.2558000275
 20
199.0650613365
  0
VERTEX
  8
0
 62
7
  6
CONTINUOUS
 10
93.2636355244
 20
199.0636013954
  0
SEQEND
  0
LINE
  8
0
 62
7
  6
CONTINUOUS
 10
93.1037388623
 20
199.1214202692
 11
93.1813568307
 21
199.0856353728
  0
POLYLINE
  8
0
 62
7
  6
CONTINUOUS
 66
1
 70
0
  0
VERTEX
  8
0
 62
7
  6
CONTINUOUS
 10
86.6880219119
 20
199.1661974415
  0
VERTEX
  8
0
 62
7
  6
CONTINUOUS
 10
86.6915934865
 20
199.1633240531
  0
VERTEX
  8
0
 62
7
  6
CONTINUOUS
 10
86.6990711277
 20
199.1575380411
  0
VERTEX
  8
0
 62
7
  6
CONTINUOUS
 10
86.7066273965
 20
199.1519159341
  0
VERTEX
  8
0
 62
7
  6
CONTINUOUS
 10
86.7142564771
 20
199.1464594111
  0
VERTEX
  8
0
 62
7
  6
CONTINUOUS
 10
86.7219524853
 20
199.1411699179
  0
VERTEX
  8
0
 62
7
  6
CONTINUOUS
 10
86.7297094784
 20
199.1360486665
  0
VERTEX
  8
0
 62
7
  6
CONTINUOUS
 10
86.7375214642
 20
199.1310966336
  0
VERTEX
  8
0
 62
7
  6
CONTINUOUS
 10
86.7453824108
 20
199.1263145608
  0
VERTEX
  8
0
 62
7
  6
CONTINUOUS
 10
86.751415926
 20
199.122794224
  0
SEQEND
  0
LINE
  8
0
 62
7
  6
CONTINUOUS
 10
82.9763034909
 20
200.655856363
 11
82.9763034909
 21
200.555856363
  0
LINE
  8
0
 62
7
  6
CONTINUOUS
 10
82.9990304169
 20
200.655856363
 11
82.9990304169
 21
200.555856363
  0
LINE
  8
0
 62
7
  6
CONTINUOUS
 10
83.021757863
 20
200.655856363
 11
83.021757863
 21
200.555856363
  0
LINE
  8
0
 62
7
  6
CONTINUOUS
 10
83.067212235
 20
200.655856363
 11
83.067212235
 21
200.555856363
  0
LINE
  8
0
 62
7
  6
CONTINUOUS
 10
83.1353940532
 20
200.655856363
 11
83.1353940532
 21
200.555856363
  0
LINE
  8
0
 62
7
  6
CONTINUOUS
 10
83.2490307637
 20
200.655856363
 11
83.2490307637
 21
200.555856363
  0
LINE
  8
0
 62
7
  6
CONTINUOUS
 10
83.3853944
 20
200.655856363
 11
83.3853944
 21
200.555856363
  0
LINE
  8
0
 62
7
  6
CONTINUOUS
 10
83.5217580364
 20
200.655856363
 11
83.5217580364
 21
200.555856363
  0
LINE
  8
0
 62
7
  6
CONTINUOUS
 10
83.6353942266
 20
200.655856363
 11
83.6353942266
 21
200.555856363
  0
LINE
  8
0
 62
7
  6
CONTINUOUS
 10
83.7035760448
 20
200.655856363
 11
83.7035760448
 21
200.555856363
  0
LINE
  8
0
 62
7
  6
CONTINUOUS
 10
83.7490309371
 20
200.655856363
 11
83.7490309371
 21
200.555856363
  0
LINE
  8
0
 62
7
  6
CONTINUOUS
 10
83.771757863
 20
200.655856363
 11
83.771757863
 21
200.555856363
  0
LINE
  8
0
 62
7
  6
CONTINUOUS
 10
83.7944847889
 20
200.655856363
 11
83.7944847889
 21
200.555856363
  0
LINE
  8
0
 62
7
  6
CONTINUOUS
 10
83.9763033175
 20
200.655856363
 11
83.9763033175
 21
200.555856363
  0
LINE
  8
0
 62
7
  6
CONTINUOUS
 10
83.9990302435
 20
200.655856363
 11
83.9990302435
 21
200.555856363
  0
LINE
  8
0
 62
7
  6
CONTINUOUS
 10
84.0013033175
 20
200.555856363
 11
84.0013033175
 21
200.055856363
  0
LINE
  8
0
 62
7
  6
CONTINUOUS
 10
84.0217582098
 20
200.655856363
 11
84.0217582098
 21
200.555856363
  0
LINE
  8
0
 62
7
  6
CONTINUOUS
 10
84.0672120617
 20
200.655856363
 11
84.0672120617
 21
200.555856363
  0
LINE
  8
0
 62
7
  6
CONTINUOUS
 10
84.1353938798
 20
200.655856363
 11
84.1353938798
 21
200.555856363
  0
LINE
  8
0
 62
7
  6
CONTINUOUS
 10
84.2490305903
 20
200.655856363
 11
84.2490305903
 21
200.555856363
  0
LINE
  8
0
 62
7
  6
CONTINUOUS
 10
84.3853942266
 20
200.655856363
 11
84.3853942266
 21
200.555856363
  0
LINE
  8
0
 62
7
  6
CONTINUOUS
 10
84.521757863
 20
200.655856363
 11
84.521757863
 21
200.555856363
  0
LINE
  8
0
 62
7
  6
CONTINUOUS
 10
84.6353945734
 20
200.655856363
 11
84.6353945734
 21
200.555856363
  0
LINE
  8
0
 62
7
  6
CONTINUOUS
 10
84.7035763916
 20
200.655856363
 11
84.7035763916
 21
200.555856363
  0
LINE
  8
0
 62
7
  6
CONTINUOUS
 10
84.7490302435
 20
200.655856363
 11
84.7490302435
 21
200.555856363
  0
LINE
  8
0
 62
7
  6
CONTINUOUS
 10
84.7717582098
 20
200.655856363
 11
84.7717582098
 21
200.555856363
  0
LINE
  8
0
 62
7
  6
CONTINUOUS
 10
84.7944851357
 20
200.655856363
 11
84.7944851357
 21
200.555856363
  0
POLYLINE
  8
0
 62
7
  6
CONTINUOUS
 66
1
 70
0
  0
VERTEX
  8
0
 62
7
  6
CONTINUOUS
 10
99.4700358968
 20
207.7991572271
  0
VERTEX
  8
0
 62
7
  6
CONTINUOUS
 10
99.4653839555
 20
207.7966991172
  0
VERTEX
  8
0
 62
7
  6
CONTINUOUS
 10
99.4607265016
 20
207.7941748296
  0
VERTEX
  8
0
 62
7
  6
CONTINUOUS
 10
99.4566900658
 20
207.7919312815
  0
SEQEND
  0
POLYLINE
  8
0
 62
7
  6
CONTINUOUS
 66
1
 70
0
  0
VERTEX
  8
0
 62
7
  6
CONTINUOUS
 10
99.4839529776
 20
207.8061441548
  0
VERTEX
  8
0
 62
7
  6
CONTINUOUS
 10
99.4793209433
 20
207.8038787897
  0
VERTEX
  8
0
 62
7
  6
CONTINUOUS
 10
99.474681743
 20
207.8015501308
  0
SEQEND
  0
POLYLINE
  8
0
 62
7
  6
CONTINUOUS
 66
1
 70
0
  0
VERTEX
  8
0
 62
7
  6
CONTINUOUS
 10
99.497801331
 20
207.8125698357
  0
VERTEX
  8
0
 62
7
  6
CONTINUOUS
 10
99.4931936178
 20
207.8104887544
  0
VERTEX
  8
0
 62
7
  6
CONTINUOUS
 10
99.488577356
 20
207.8083471667
  0
SEQEND
  0
POLYLINE
  8
0
 62
7
  6
CONTINUOUS
 66
1
 70
0
  0
VERTEX
  8
0
 62
7
  6
CONTINUOUS
 10
81.8756817458
 20
199.168425257
  0
VERTEX
  8
0
 62
7
  6
CONTINUOUS
 10
82.0300026278
 20
199.2188729125
  0
VERTEX
  8
0
 62
7
  6
CONTINUOUS
 10
82.1200320003
 20
199.2476044703
  0
VERTEX
  8
0
 62
7
  6
CONTINUOUS
 10
82.2219040703
 20
199.2786869931
  0
VERTEX
  8
0
 62
7
  6
CONTINUOUS
 10
82.3388805936
 20
199.3118711686
  0
VERTEX
  8
0
 62
7
  6
CONTINUOUS
 10
82.4738726579
 20
199.3460698306
  0
VERTEX
  8
0
 62
7
  6
CONTINUOUS
 10
82.624159253
 20
199.3781025241
  0
VERTEX
  8
0
 62
7
  6
CONTINUOUS
 10
82.7835269276
 20
199.4042100253
  0
VERTEX
  8
0
 62
7
  6
CONTINUOUS
 10
82.9406296308
 20
199.4212673785
  0
VERTEX
  8
0
 62
7
  6
CONTINUOUS
 10
83.087867592
 20
199.4289526893
  0
VERTEX
  8
0
 62
7
  6
CONTINUOUS
 10
83.2317410133
 20
199.4284849217
  0
VERTEX
  8
0
 62
7
  6
CONTINUOUS
 10
83.37989772
 20
199.419776262
  0
VERTEX
  8
0
 62
7
  6
CONTINUOUS
 10
83.5380872278
 20
199.401548436
  0
VERTEX
  8
0
 62
7
  6
CONTINUOUS
 10
83.6967744229
 20
199.3745653904
  0
VERTEX
  8
0
 62
7
  6
CONTINUOUS
 10
83.8454821108
 20
199.3420911499
  0
VERTEX
  8
0
 62
7
  6
CONTINUOUS
 10
83.9784431814
 20
199.3078654845
  0
VERTEX
  8
0
 62
7
  6
CONTINUOUS
 10
84.0935991014
 20
199.2748534861
  0
VERTEX
  8
0
 62
7
  6
CONTINUOUS
 10
84.1940100158
 20
199.2440106449
  0
VERTEX
  8
0
 62
7
  6
CONTINUOUS
 10
84.2829299999
 20
199.2155239579
  0
SEQEND
  0
POLYLINE
  8
0
 62
7
  6
CONTINUOUS
 66
1
 70
0
  0
VERTEX
  8
0
 62
7
  6
CONTINUOUS
 10
90.4106374634
 20
207.8000814587
  0
VERTEX
  8
0
 62
7
  6
CONTINUOUS
 10
90.3282473029
 20
207.7860875443
  0
VERTEX
  8
0
 62
7
  6
CONTINUOUS
 10
90.2362975442
 20
207.7714030239
  0
VERTEX
  8
0
 62
7
  6
CONTINUOUS
 10
90.133701501
 20
207.7565386805
  0
VERTEX
  8
0
 62
7
  6
CONTINUOUS
 10
90.0189433523
 20
207.7421441107
  0
VERTEX
  8
0
 62
7
  6
CONTINUOUS
 10
89.8905875389
 20
207.7291493989
  0
VERTEX
  8
0
 62
7
  6
CONTINUOUS
 10
89.7488618997
 20
207.7188965143
  0
VERTEX
  8
0
 62
7
  6
CONTINUOUS
 10
89.5973798594
 20
207.7129164453
  0
VERTEX
  8
0
 62
7
  6
CONTINUOUS
 10
89.4412280286
 20
207.7122678074
  0
VERTEX
  8
0
 62
7
  6
CONTINUOUS
 10
89.286652929
 20
207.7171541989
  0
VERTEX
  8
0
 62
7
  6
CONTINUOUS
 10
89.1401866304
 20
207.7267619888
  0
VERTEX
  8
0
 62
7
  6
CONTINUOUS
 10
89.0070477161
 20
207.7395244215
  0
VERTEX
  8
0
 62
7
  6
CONTINUOUS
 10
88.8884506518
 20
207.7539123866
  0
VERTEX
  8
0
 62
7
  6
CONTINUOUS
 10
88.7827648408
 20
207.7689030824
  0
VERTEX
  8
0
 62
7
  6
CONTINUOUS
 10
88.6882151121
 20
207.7838035683
  0
VERTEX
  8
0
 62
7
  6
CONTINUOUS
 10
88.6034684686
 20
207.7980924575
  0
SEQEND
  0
POLYLINE
  8
0
 62
7
  6
CONTINUOUS
 66
1
 70
0
  0
VERTEX
  8
0
 62
7
  6
CONTINUOUS
 10
77.7106374634
 20
207.8000814587
  0
VERTEX
  8
0
 62
7
  6
CONTINUOUS
 10
77.6282473029
 20
207.7860875443
  0
VERTEX
  8
0
 62
7
  6
CONTINUOUS
 10
77.5362975442
 20
207.7714030239
  0
VERTEX
  8
0
 62
7
  6
CONTINUOUS
 10
77.433701501
 20
207.7565386805
  0
VERTEX
  8
0
 62
7
  6
CONTINUOUS
 10
77.3189433523
 20
207.7421441107
  0
VERTEX
  8
0
 62
7
  6
CONTINUOUS
 10
77.1905875389
 20
207.7291493989
  0
VERTEX
  8
0
 62
7
  6
CONTINUOUS
 10
77.0488618997
 20
207.7188965143
  0
VERTEX
  8
0
 62
7
  6
CONTINUOUS
 10
76.8973798594
 20
207.7129164453
  0
VERTEX
  8
0
 62
7
  6
CONTINUOUS
 10
76.7412280286
 20
207.7122678074
  0
VERTEX
  8
0
 62
7
  6
CONTINUOUS
 10
76.586652929
 20
207.7171541989
  0
VERTEX
  8
0
 62
7
  6
CONTINUOUS
 10
76.4401866304
 20
207.7267619888
  0
VERTEX
  8
0
 62
7
  6
CONTINUOUS
 10
76.3070477161
 20
207.7395244215
  0
VERTEX
  8
0
 62
7
  6
CONTINUOUS
 10
76.1884506518
 20
207.7539123866
  0
VERTEX
  8
0
 62
7
  6
CONTINUOUS
 10
76.0827648408
 20
207.7689030824
  0
VERTEX
  8
0
 62
7
  6
CONTINUOUS
 10
75.9882151121
 20
207.7838035683
  0
VERTEX
  8
0
 62
7
  6
CONTINUOUS
 10
75.9034684686
 20
207.7980924575
  0
SEQEND
  0
POLYLINE
  8
0
 62
7
  6
CONTINUOUS
 66
1
 70
0
  0
VERTEX
  8
0
 62
7
  6
CONTINUOUS
 10
99.6611661143
 20
207.8542428346
  0
VERTEX
  8
0
 62
7
  6
CONTINUOUS
 10
99.6574719972
 20
207.8539315487
  0
VERTEX
  8
0
 62
7
  6
CONTINUOUS
 10
99.6537036913
 20
207.8535855626
  0
VERTEX
  8
0
 62
7
  6
CONTINUOUS
 10
99.6498722352
 20
207.8532042589
  0
SEQEND
  0
LINE
  8
0
 62
7
  6
CONTINUOUS
 10
99.7012946397
 20
207.8558564967
 11
99.6197659449
 21
207.8491470175
  0
POLYLINE
  8
0
 62
7
  6
CONTINUOUS
 66
1
 70
0
  0
VERTEX
  8
0
 62
7
  6
CONTINUOUS
 10
99.6717005706
 20
207.8549793263
  0
VERTEX
  8
0
 62
7
  6
CONTINUOUS
 10
99.6682877145
 20
207.8547652024
  0
VERTEX
  8
0
 62
7
  6
CONTINUOUS
 10
99.6647750047
 20
207.8545203254
  0
SEQEND
  0
POLYLINE
  8
0
 62
7
  6
CONTINUOUS
 66
1
 70
0
  0
VERTEX
  8
0
 62
7
  6
CONTINUOUS
 10
74.2716718742
 20
207.8549776236
  0
VERTEX
  8
0
 62
7
  6
CONTINUOUS
 10
74.2682630676
 20
207.8547635708
  0
VERTEX
  8
0
 62
7
  6
CONTINUOUS
 10
74.2647546166
 20
207.8545188315
  0
SEQEND
  0
POLYLINE
  8
0
 62
7
  6
CONTINUOUS
 66
1
 70
0
  0
VERTEX
  8
0
 62
7
  6
CONTINUOUS
 10
99.6814400679
 20
207.8554616996
  0
VERTEX
  8
0
 62
7
  6
CONTINUOUS
 10
99.6782658727
 20
207.8553254029
  0
VERTEX
  8
0
 62
7
  6
CONTINUOUS
 10
99.675023006
 20
207.855165281
  0
SEQEND
  0
POLYLINE
  8
0
 62
7
  6
CONTINUOUS
 66
1
 70
0
  0
VERTEX
  8
0
 62
7
  6
CONTINUOUS
 10
74.2814022111
 20
207.8554601931
  0
VERTEX
  8
0
 62
7
  6
CONTINUOUS
 10
74.2782305414
 20
207.8553237721
  0
VERTEX
  8
0
 62
7
  6
CONTINUOUS
 10
74.274990738
 20
207.8551635816
  0
SEQEND
  0
LINE
  8
0
 62
7
  6
CONTINUOUS
 10
74.2906250809
 20
207.8557423527
 11
74.287585552
 21
207.8556681824
  0
LINE
  8
0
 62
7
  6
CONTINUOUS
 10
99.690667975
 20
207.855743267
 11
99.6876265463
 21
207.8556693058
  0
LINE
  8
0
 62
7
  6
CONTINUOUS
 10
99.6965598343
 20
207.8558338803
 11
99.6936585487
 21
207.8557979399
  0
LINE
  8
0
 62
7
  6
CONTINUOUS
 10
74.2965099328
 20
207.8558334045
 11
74.29361212
 21
207.8557972279
  0
POLYLINE
  8
0
 62
7
  6
CONTINUOUS
 66
1
 70
0
  0
VERTEX
  8
0
 62
7
  6
CONTINUOUS
 10
103.5174994129
 20
207.8558549545
  0
VERTEX
  8
0
 62
7
  6
CONTINUOUS
 10
103.5026727401
 20
207.8556987914
  0
VERTEX
  8
0
 62
7
  6
CONTINUOUS
 10
103.4543650442
 20
207.8532601862
  0
VERTEX
  8
0
 62
7
  6
CONTINUOUS
 10
103.4073509148
 20
207.8485983125
  0
VERTEX
  8
0
 62
7
  6
CONTINUOUS
 10
103.3590714854
 20
207.842171228
  0
VERTEX
  8
0
 62
7
  6
CONTINUOUS
 10
103.3068958378
 20
207.8340673869
  0
VERTEX
  8
0
 62
7
  6
CONTINUOUS
 10
103.2490227294
 20
207.8243005487
  0
VERTEX
  8
0
 62
7
  6
CONTINUOUS
 10
103.1106374634
 20
207.8000814587
  0
SEQEND
  0
POLYLINE
  8
0
 62
7
  6
CONTINUOUS
 66
1
 70
0
  0
VERTEX
  8
0
 62
7
  6
CONTINUOUS
 10
90.8174994128
 20
207.8558549545
  0
VERTEX
  8
0
 62
7
  6
CONTINUOUS
 10
90.8026727401
 20
207.8556987914
  0
VERTEX
  8
0
 62
7
  6
CONTINUOUS
 10
90.7543650442
 20
207.8532601862
  0
VERTEX
  8
0
 62
7
  6
CONTINUOUS
 10
90.7073509148
 20
207.8485983125
  0
VERTEX
  8
0
 62
7
  6
CONTINUOUS
 10
90.6590714854
 20
207.842171228
  0
VERTEX
  8
0
 62
7
  6
CONTINUOUS
 10
90.6068958378
 20
207.8340673869
  0
VERTEX
  8
0
 62
7
  6
CONTINUOUS
 10
90.5490227294
 20
207.8243005487
  0
VERTEX
  8
0
 62
7
  6
CONTINUOUS
 10
90.4106374634
 20
207.8000814587
  0
SEQEND
  0
POLYLINE
  8
0
 62
7
  6
CONTINUOUS
 66
1
 70
0
  0
VERTEX
  8
0
 62
7
  6
CONTINUOUS
 10
78.1174994129
 20
207.8558549545
  0
VERTEX
  8
0
 62
7
  6
CONTINUOUS
 10
78.1026727401
 20
207.8556987914
  0
VERTEX
  8
0
 62
7
  6
CONTINUOUS
 10
78.0543650442
 20
207.8532601862
  0
VERTEX
  8
0
 62
7
  6
CONTINUOUS
 10
78.0073509148
 20
207.8485983125
  0
VERTEX
  8
0
 62
7
  6
CONTINUOUS
 10
77.9590714854
 20
207.842171228
  0
VERTEX
  8
0
 62
7
  6
CONTINUOUS
 10
77.9068958378
 20
207.8340673869
  0
VERTEX
  8
0
 62
7
  6
CONTINUOUS
 10
77.8490227294
 20
207.8243005487
  0
VERTEX
  8
0
 62
7
  6
CONTINUOUS
 10
77.7106374634
 20
207.8000814587
  0
SEQEND
  0
POLYLINE
  8
0
 62
7
  6
CONTINUOUS
 66
1
 70
0
  0
VERTEX
  8
0
 62
7
  6
CONTINUOUS
 10
65.4174994129
 20
207.8558549545
  0
VERTEX
  8
0
 62
7
  6
CONTINUOUS
 10
65.4026727401
 20
207.8556987914
  0
VERTEX
  8
0
 62
7
  6
CONTINUOUS
 10
65.3543650442
 20
207.8532601862
  0
VERTEX
  8
0
 62
7
  6
CONTINUOUS
 10
65.3073509148
 20
207.8485983125
  0
VERTEX
  8
0
 62
7
  6
CONTINUOUS
 10
65.2590714854
 20
207.842171228
  0
VERTEX
  8
0
 62
7
  6
CONTINUOUS
 10
65.2068958378
 20
207.8340673869
  0
VERTEX
  8
0
 62
7
  6
CONTINUOUS
 10
65.1490227294
 20
207.8243005487
  0
VERTEX
  8
0
 62
7
  6
CONTINUOUS
 10
65.0106374634
 20
207.8000814587
  0
SEQEND
  0
POLYLINE
  8
0
 62
7
  6
CONTINUOUS
 66
1
 70
0
  0
VERTEX
  8
0
 62
7
  6
CONTINUOUS
 10
52.7174994128
 20
207.8558549545
  0
VERTEX
  8
0
 62
7
  6
CONTINUOUS
 10
52.7026727401
 20
207.8556987914
  0
VERTEX
  8
0
 62
7
  6
CONTINUOUS
 10
52.6543650442
 20
207.8532601862
  0
VERTEX
  8
0
 62
7
  6
CONTINUOUS
 10
52.6073509148
 20
207.8485983125
  0
VERTEX
  8
0
 62
7
  6
CONTINUOUS
 10
52.5590714854
 20
207.842171228
  0
VERTEX
  8
0
 62
7
  6
CONTINUOUS
 10
52.5068958378
 20
207.8340673869
  0
VERTEX
  8
0
 62
7
  6
CONTINUOUS
 10
52.4490227294
 20
207.8243005487
  0
VERTEX
  8
0
 62
7
  6
CONTINUOUS
 10
52.3106374634
 20
207.8000814587
  0
SEQEND
  0
LINE
  8
0
 62
7
  6
CONTINUOUS
 10
48.8976145961
 20
207.8558423487
 11
48.894807498
 21
207.855814206
  0
POLYLINE
  8
0
 62
7
  6
CONTINUOUS
 66
1
 70
0
  0
VERTEX
  8
0
 62
7
  6
CONTINUOUS
 10
99.6991868498
 20
207.8558530367
  0
VERTEX
  8
0
 62
7
  6
CONTINUOUS
 10
99.6954635774
 20
207.8558240589
  0
VERTEX
  8
0
 62
7
  6
CONTINUOUS
 10
99.6888369507
 20
207.8557038903
  0
VERTEX
  8
0
 62
7
  6
CONTINUOUS
 10
99.6791020503
 20
207.8553678818
  0
VERTEX
  8
0
 62
7
  6
CONTINUOUS
 10
99.6678933607
 20
207.8547454701
  0
VERTEX
  8
0
 62
7
  6
CONTINUOUS
 10
99.6556265329
 20
207.8537742685
  0
VERTEX
  8
0
 62
7
  6
CONTINUOUS
 10
99.642818543
 20
207.8524348713
  0
VERTEX
  8
0
 62
7
  6
CONTINUOUS
 10
99.6299300307
 20
207.8507488398
  0
VERTEX
  8
0
 62
7
  6
CONTINUOUS
 10
99.6168624208
 20
207.8486894328
  0
SEQEND
  0
POLYLINE
  8
0
 62
7
  6
CONTINUOUS
 66
1
 70
0
  0
VERTEX
  8
0
 62
7
  6
CONTINUOUS
 10
74.2991866147
 20
207.8558530357
  0
VERTEX
  8
0
 62
7
  6
CONTINUOUS
 10
74.2954634787
 20
207.8558240576
  0
VERTEX
  8
0
 62
7
  6
CONTINUOUS
 10
74.2888369594
 20
207.8557038903
  0
VERTEX
  8
0
 62
7
  6
CONTINUOUS
 10
74.279101931
 20
207.8553678762
  0
VERTEX
  8
0
 62
7
  6
CONTINUOUS
 10
74.2678926137
 20
207.8547454198
  0
VERTEX
  8
0
 62
7
  6
CONTINUOUS
 10
74.2556250575
 20
207.8537741329
  0
VERTEX
  8
0
 62
7
  6
CONTINUOUS
 10
74.2428170713
 20
207.8524346975
  0
VERTEX
  8
0
 62
7
  6
CONTINUOUS
 10
74.2299286621
 20
207.8507486419
  0
VERTEX
  8
0
 62
7
  6
CONTINUOUS
 10
74.2168609676
 20
207.8486891832
  0
SEQEND
  0
POLYLINE
  8
0
 62
7
  6
CONTINUOUS
 66
1
 70
0
  0
VERTEX
  8
0
 62
7
  6
CONTINUOUS
 10
48.901190089
 20
207.8558582352
  0
VERTEX
  8
0
 62
7
  6
CONTINUOUS
 10
48.896103904
 20
207.8558323829
  0
VERTEX
  8
0
 62
7
  6
CONTINUOUS
 10
48.8878174037
 20
207.8556794407
  0
VERTEX
  8
0
 62
7
  6
CONTINUOUS
 10
48.8763704972
 20
207.8552419496
  0
VERTEX
  8
0
 62
7
  6
CONTINUOUS
 10
48.8633783121
 20
207.8544265413
  0
VERTEX
  8
0
 62
7
  6
CONTINUOUS
 10
48.8497296397
 20
207.853202988
  0
VERTEX
  8
0
 62
7
  6
CONTINUOUS
 10
48.8354187616
 20
207.8515132627
  0
VERTEX
  8
0
 62
7
  6
CONTINUOUS
 10
48.8204442546
 20
207.8492947141
  0
SEQEND
  0
LINE
  8
0
 62
7
  6
CONTINUOUS
 10
92.0077238542
 20
207.855856363
 11
117.4013033175
 21
207.855856363
  0
POLYLINE
  8
0
 62
7
  6
CONTINUOUS
 66
1
 70
0
  0
VERTEX
  8
0
 62
7
  6
CONTINUOUS
 10
66.6013032535
 20
207.8558563575
  0
VERTEX
  8
0
 62
7
  6
CONTINUOUS
 10
66.6881285617
 20
207.8482633503
  0
VERTEX
  8
0
 62
7
  6
CONTINUOUS
 10
66.7723160932
 20
207.825707848
  0
VERTEX
  8
0
 62
7
  6
CONTINUOUS
 10
66.8513075887
 20
207.7888752632
  0
VERTEX
  8
0
 62
7
  6
CONTINUOUS
 10
66.9227026753
 20
207.7388848541
  0
VERTEX
  8
0
 62
7
  6
CONTINUOUS
 10
66.9843318123
 20
207.6772557177
  0
VERTEX
  8
0
 62
7
  6
CONTINUOUS
 10
67.0343222233
 20
207.6058606296
  0
VERTEX
  8
0
 62
7
  6
CONTINUOUS
 10
67.0711548093
 20
207.5268691314
  0
VERTEX
  8
0
 62
7
  6
CONTINUOUS
 10
67.093710311
 20
207.4426815997
  0
VERTEX
  8
0
 62
7
  6
CONTINUOUS
 10
67.1013033171
 20
207.355856299
  0
SEQEND
  0
POLYLINE
  8
0
 62
7
  6
CONTINUOUS
 66
1
 70
0
  0
VERTEX
  8
0
 62
7
  6
CONTINUOUS
 10
79.3012873592
 20
207.8558563447
  0
VERTEX
  8
0
 62
7
  6
CONTINUOUS
 10
79.3881148399
 20
207.848261874
  0
VERTEX
  8
0
 62
7
  6
CONTINUOUS
 10
79.4723043931
 20
207.8257048231
  0
VERTEX
  8
0
 62
7
  6
CONTINUOUS
 10
79.5512977844
 20
207.7888706265
  0
VERTEX
  8
0
 62
7
  6
CONTINUOUS
 10
79.6226946678
 20
207.7388785524
  0
VERTEX
  8
0
 62
7
  6
CONTINUOUS
 10
79.6843255265
 20
207.6772476947
  0
VERTEX
  8
0
 62
7
  6
CONTINUOUS
 10
79.7343176011
 20
207.6058508132
  0
VERTEX
  8
0
 62
7
  6
CONTINUOUS
 10
79.7711517973
 20
207.5268574249
  0
VERTEX
  8
0
 62
7
  6
CONTINUOUS
 10
79.7937088474
 20
207.4426678767
  0
VERTEX
  8
0
 62
7
  6
CONTINUOUS
 10
79.8013033174
 20
207.3558404046
  0
SEQEND
  0
POLYLINE
  8
0
 62
7
  6
CONTINUOUS
 66
1
 70
0
  0
VERTEX
  8
0
 62
7
  6
CONTINUOUS
 10
79.3939093557
 20
207.8472283101
  0
VERTEX
  8
0
 62
7
  6
CONTINUOUS
 10
79.3804022896
 20
207.8495798862
  0
VERTEX
  8
0
 62
7
  6
CONTINUOUS
 10
79.3671362114
 20
207.8515204096
  0
VERTEX
  8
0
 62
7
  6
CONTINUOUS
 10
79.3542886558
 20
207.8530551406
  0
VERTEX
  8
0
 62
7
  6
CONTINUOUS
 10
79.3420094278
 20
207.8542080271
  0
VERTEX
  8
0
 62
7
  6
CONTINUOUS
 10
79.330388925
 20
207.8550184324
  0
VERTEX
  8
0
 62
7
  6
CONTINUOUS
 10
79.3195302894
 20
207.8555302708
  0
VERTEX
  8
0
 62
7
  6
CONTINUOUS
 10
79.3101819268
 20
207.8557815718
  0
VERTEX
  8
0
 62
7
  6
CONTINUOUS
 10
79.3036076826
 20
207.8558535527
  0
SEQEND
  0
POLYLINE
  8
0
 62
7
  6
CONTINUOUS
 66
1
 70
0
  0
VERTEX
  8
0
 62
7
  6
CONTINUOUS
 10
75.9034684686
 20
207.7980924575
  0
VERTEX
  8
0
 62
7
  6
CONTINUOUS
 10
75.7611842423
 20
207.8229840872
  0
VERTEX
  8
0
 62
7
  6
CONTINUOUS
 10
75.7018728613
 20
207.8330568382
  0
VERTEX
  8
0
 62
7
  6
CONTINUOUS
 10
75.6485787701
 20
207.8414307074
  0
VERTEX
  8
0
 62
7
  6
CONTINUOUS
 10
75.5995507977
 20
207.8480837346
  0
VERTEX
  8
0
 62
7
  6
CONTINUOUS
 10
75.5520517746
 20
207.8529568755
  0
VERTEX
  8
0
 62
7
  6
CONTINUOUS
 10
75.5035321143
 20
207.8556157901
  0
VERTEX
  8
0
 62
7
  6
CONTINUOUS
 10
75.4849532705
 20
207.8558549616
  0
SEQEND
  0
POLYLINE
  8
0
 62
7
  6
CONTINUOUS
 66
1
 70
0
  0
VERTEX
  8
0
 62
7
  6
CONTINUOUS
 10
112.2404979305
 20
199.0823986522
  0
VERTEX
  8
0
 62
7
  6
CONTINUOUS
 10
112.3239426882
 20
199.0618654067
  0
VERTEX
  8
0
 62
7
  6
CONTINUOUS
 10
112.4012316927
 20
199.0558547837
  0
SEQEND
  0
POLYLINE
  8
0
 62
7
  6
CONTINUOUS
 66
1
 70
0
  0
VERTEX
  8
0
 62
7
  6
CONTINUOUS
 10
103.3225755924
 20
199.2188820765
  0
VERTEX
  8
0
 62
7
  6
CONTINUOUS
 10
103.476892486
 20
199.1684358179
  0
VERTEX
  8
0
 62
7
  6
CONTINUOUS
 10
103.5447405077
 20
199.1466132547
  0
VERTEX
  8
0
 62
7
  6
CONTINUOUS
 10
103.60879894
 20
199.1268338237
  0
VERTEX
  8
0
 62
7
  6
CONTINUOUS
 10
103.6710454582
 20
199.1089341409
  0
VERTEX
  8
0
 62
7
  6
CONTINUOUS
 10
103.7331435237
 20
199.0929456077
  0
VERTEX
  8
0
 62
7
  6
CONTINUOUS
 10
103.769124
 20
199.0847525496
  0
SEQEND
  0
POLYLINE
  8
0
 62
7
  6
CONTINUOUS
 66
1
 70
0
  0
VERTEX
  8
0
 62
7
  6
CONTINUOUS
 10
79.4770461314
 20
207.8239922234
  0
VERTEX
  8
0
 62
7
  6
CONTINUOUS
 10
79.4628818548
 20
207.8290655274
  0
VERTEX
  8
0
 62
7
  6
CONTINUOUS
 10
79.448847759
 20
207.8336250253
  0
VERTEX
  8
0
 62
7
  6
CONTINUOUS
 10
79.4349410614
 20
207.8376974565
  0
VERTEX
  8
0
 62
7
  6
CONTINUOUS
 10
79.4211568285
 20
207.8413072513
  0
VERTEX
  8
0
 62
7
  6
CONTINUOUS
 10
79.4074882967
 20
207.8444765021
  0
VERTEX
  8
0
 62
7
  6
CONTINUOUS
 10
79.3939093557
 20
207.8472283101
  0
SEQEND
  0
POLYLINE
  8
0
 62
7
  6
CONTINUOUS
 66
1
 70
0
  0
VERTEX
  8
0
 62
7
  6
CONTINUOUS
 10
99.5260878393
 20
199.0875610153
  0
VERTEX
  8
0
 62
7
  6
CONTINUOUS
 10
99.5340780784
 20
199.0846486767
  0
VERTEX
  8
0
 62
7
  6
CONTINUOUS
 10
99.5420473689
 20
199.0818959493
  0
VERTEX
  8
0
 62
7
  6
CONTINUOUS
 10
99.5499908102
 20
199.079300572
  0
VERTEX
  8
0
 62
7
  6
CONTINUOUS
 10
99.5579035877
 20
199.0768601425
  0
VERTEX
  8
0
 62
7
  6
CONTINUOUS
 10
99.5657809759
 20
199.0745721217
  0
VERTEX
  8
0
 62
7
  6
CONTINUOUS
 10
99.5736183422
 20
199.0724338392
  0
SEQEND
  0
POLYLINE
  8
0
 62
7
  6
CONTINUOUS
 66
1
 70
0
  0
VERTEX
  8
0
 62
7
  6
CONTINUOUS
 10
92.8496834494
 20
203.4639497396
  0
VERTEX
  8
0
 62
7
  6
CONTINUOUS
 10
92.8535654463
 20
203.4624195804
  0
VERTEX
  8
0
 62
7
  6
CONTINUOUS
 10
92.8698996502
 20
203.4614504895
  0
VERTEX
  8
0
 62
7
  6
CONTINUOUS
 10
92.8985929646
 20
203.4603036916
  0
VERTEX
  8
0
 62
7
  6
CONTINUOUS
 10
92.9389069726
 20
203.4591909959
  0
VERTEX
  8
0
 62
7
  6
CONTINUOUS
 10
92.9898040384
 20
203.4581813612
  0
VERTEX
  8
0
 62
7
  6
CONTINUOUS
 10
93.0499737943
 20
203.4573172464
  0
VERTEX
  8
0
 62
7
  6
CONTINUOUS
 10
93.1917344214
 20
203.4561443948
  0
SEQEND
  0
POLYLINE
  8
0
 62
7
  6
CONTINUOUS
 66
1
 70
0
  0
VERTEX
  8
0
 62
7
  6
CONTINUOUS
 10
99.5100645153
 20
199.0938728366
  0
VERTEX
  8
0
 62
7
  6
CONTINUOUS
 10
99.5180816324
 20
199.0906350802
  0
VERTEX
  8
0
 62
7
  6
CONTINUOUS
 10
99.5260878393
 20
199.0875610153
  0
SEQEND
  0
POLYLINE
  8
0
 62
7
  6
CONTINUOUS
 66
1
 70
0
  0
VERTEX
  8
0
 62
7
  6
CONTINUOUS
 10
99.447454272
 20
199.1250625328
  0
VERTEX
  8
0
 62
7
  6
CONTINUOUS
 10
99.5129836367
 20
199.0926561072
  0
VERTEX
  8
0
 62
7
  6
CONTINUOUS
 10
99.5790465451
 20
199.0710194836
  0
SEQEND
  0
POLYLINE
  8
0
 62
7
  6
CONTINUOUS
 66
1
 70
0
  0
VERTEX
  8
0
 62
7
  6
CONTINUOUS
 10
93.0999265909
 20
199.1236399824
  0
VERTEX
  8
0
 62
7
  6
CONTINUOUS
 10
93.1081489002
 20
199.1189614492
  0
VERTEX
  8
0
 62
7
  6
CONTINUOUS
 10
93.1164024004
 20
199.1144690365
  0
VERTEX
  8
0
 62
7
  6
CONTINUOUS
 10
93.1246809709
 20
199.110161961
  0
VERTEX
  8
0
 62
7
  6
CONTINUOUS
 10
93.1329785353
 20
199.1060392322
  0
VERTEX
  8
0
 62
7
  6
CONTINUOUS
 10
93.1412890688
 20
199.1020996557
  0
VERTEX
  8
0
 62
7
  6
CONTINUOUS
 10
93.1496066049
 20
199.0983418372
  0
VERTEX
  8
0
 62
7
  6
CONTINUOUS
 10
93.1579252418
 20
199.0947641869
  0
VERTEX
  8
0
 62
7
  6
CONTINUOUS
 10
93.1662391488
 20
199.0913649237
  0
VERTEX
  8
0
 62
7
  6
CONTINUOUS
 10
93.1745425721
 20
199.0881420803
  0
SEQEND
  0
LINE
  8
0
 62
7
  6
CONTINUOUS
 10
79.5556478022
 20
207.7863320414
 11
79.5512965
 21
207.7888712254
  0
POLYLINE
  8
0
 62
7
  6
CONTINUOUS
 66
1
 70
0
  0
VERTEX
  8
0
 62
7
  6
CONTINUOUS
 10
79.5697602319
 20
207.7776754271
  0
VERTEX
  8
0
 62
7
  6
CONTINUOUS
 10
79.5650467009
 20
207.7806384976
  0
VERTEX
  8
0
 62
7
  6
CONTINUOUS
 10
79.5603428818
 20
207.783523213
  0
SEQEND
  0
POLYLINE
  8
0
 62
7
  6
CONTINUOUS
 66
1
 70
0
  0
VERTEX
  8
0
 62
7
  6
CONTINUOUS
 10
79.5839672905
 20
207.7682900254
  0
VERTEX
  8
0
 62
7
  6
CONTINUOUS
 10
79.5792198141
 20
207.7715038883
  0
VERTEX
  8
0
 62
7
  6
CONTINUOUS
 10
79.5744843471
 20
207.7746314413
  0
SEQEND
  0
LINE
  8
0
 62
7
  6
CONTINUOUS
 10
93.0330921272
 20
199.1701530121
 11
93.1033207256
 21
199.1217087035
  0
POLYLINE
  8
0
 62
7
  6
CONTINUOUS
 66
1
 70
0
  0
VERTEX
  8
0
 62
7
  6
CONTINUOUS
 10
79.5982865948
 20
207.7581017963
  0
VERTEX
  8
0
 62
7
  6
CONTINUOUS
 10
79.5935003213
 20
207.7615919469
  0
VERTEX
  8
0
 62
7
  6
CONTINUOUS
 10
79.5887273187
 20
207.7649870193
  0
SEQEND
  0
POLYLINE
  8
0
 62
7
  6
CONTINUOUS
 66
1
 70
0
  0
VERTEX
  8
0
 62
7
  6
CONTINUOUS
 10
79.6429528538
 20
207.720926306
  0
VERTEX
  8
0
 62
7
  6
CONTINUOUS
 10
79.6376758135
 20
207.7257942123
  0
VERTEX
  8
0
 62
7
  6
CONTINUOUS
 10
79.6325162422
 20
207.7304207315
  0
VERTEX
  8
0
 62
7
  6
CONTINUOUS
 10
79.6274589295
 20
207.7348325936
  0
VERTEX
  8
0
 62
7
  6
CONTINUOUS
 10
79.6224871981
 20
207.7390552411
  0
VERTEX
  8
0
 62
7
  6
CONTINUOUS
 10
79.6175830363
 20
207.7431128713
  0
VERTEX
  8
0
 62
7
  6
CONTINUOUS
 10
79.6127272128
 20
207.7470284728
  0
VERTEX
  8
0
 62
7
  6
CONTINUOUS
 10
79.607899477
 20
207.7508237731
  0
VERTEX
  8
0
 62
7
  6
CONTINUOUS
 10
79.6030863042
 20
207.7545134674
  0
SEQEND
  0
POLYLINE
  8
0
 62
7
  6
CONTINUOUS
 66
1
 70
0
  0
VERTEX
  8
0
 62
7
  6
CONTINUOUS
 10
79.6539462882
 20
207.7103904466
  0
VERTEX
  8
0
 62
7
  6
CONTINUOUS
 10
79.639205712
 20
207.7244664085
  0
VERTEX
  8
0
 62
7
  6
CONTINUOUS
 10
79.6243439298
 20
207.7375575508
  0
VERTEX
  8
0
 62
7
  6
CONTINUOUS
 10
79.609410697
 20
207.7497094665
  0
VERTEX
  8
0
 62
7
  6
CONTINUOUS
 10
79.5944490549
 20
207.7609676605
  0
VERTEX
  8
0
 62
7
  6
CONTINUOUS
 10
79.5794958028
 20
207.7713770986
  0
VERTEX
  8
0
 62
7
  6
CONTINUOUS
 10
79.5645819621
 20
207.7809818263
  0
VERTEX
  8
0
 62
7
  6
CONTINUOUS
 10
79.5497332366
 20
207.7898246449
  0
VERTEX
  8
0
 62
7
  6
CONTINUOUS
 10
79.5349704384
 20
207.7979468544
  0
VERTEX
  8
0
 62
7
  6
CONTINUOUS
 10
79.5203099037
 20
207.8053880394
  0
VERTEX
  8
0
 62
7
  6
CONTINUOUS
 10
79.5057638897
 20
207.8121858949
  0
VERTEX
  8
0
 62
7
  6
CONTINUOUS
 10
79.4913409277
 20
207.8183760995
  0
VERTEX
  8
0
 62
7
  6
CONTINUOUS
 10
79.4770461314
 20
207.8239922234
  0
SEQEND
  0
LINE
  8
0
 62
7
  6
CONTINUOUS
 10
79.6539119174
 20
207.7103526877
 11
79.6483609549
 21
207.7157889475
  0
POLYLINE
  8
0
 62
7
  6
CONTINUOUS
 66
1
 70
0
  0
VERTEX
  8
0
 62
7
  6
CONTINUOUS
 10
86.5014062803
 20
199.5456390004
  0
VERTEX
  8
0
 62
7
  6
CONTINUOUS
 10
86.5105872615
 20
199.4598864794
  0
VERTEX
  8
0
 62
7
  6
CONTINUOUS
 10
86.534685212
 20
199.3761658069
  0
VERTEX
  8
0
 62
7
  6
CONTINUOUS
 10
86.5732100041
 20
199.2974705227
  0
VERTEX
  8
0
 62
7
  6
CONTINUOUS
 10
86.6250359637
 20
199.2265343129
  0
VERTEX
  8
0
 62
7
  6
CONTINUOUS
 10
86.6884418554
 20
199.1657951601
  0
VERTEX
  8
0
 62
7
  6
CONTINUOUS
 10
86.7612009241
 20
199.1172475706
  0
VERTEX
  8
0
 62
7
  6
CONTINUOUS
 10
86.8407134081
 20
199.0823254373
  0
SEQEND
  0
LINE
  8
0
 62
7
  6
CONTINUOUS
 10
86.5014062803
 20
199.5456390004
 11
86.5013033175
 21
199.5557847765
  0
LINE
  8
0
 62
7
  6
CONTINUOUS
 10
86.1513033175
 20
199.555856363
 11
86.1513033175
 21
200.655856363
  0
LINE
  8
0
 62
7
  6
CONTINUOUS
 10
86.5013033175
 20
207.355856363
 11
86.5013033175
 21
199.5558726972
  0
LINE
  8
0
 62
7
  6
CONTINUOUS
 10
86.1422792348
 20
199.4612340911
 11
86.1511855323
 21
199.5449425083
  0
POLYLINE
  8
0
 62
7
  6
CONTINUOUS
 66
1
 70
0
  0
VERTEX
  8
0
 62
7
  6
CONTINUOUS
 10
86.1430225034
 20
199.4652317991
  0
VERTEX
  8
0
 62
7
  6
CONTINUOUS
 10
86.1449138958
 20
199.4761751013
  0
VERTEX
  8
0
 62
7
  6
CONTINUOUS
 10
86.1465739224
 20
199.4872453645
  0
VERTEX
  8
0
 62
7
  6
CONTINUOUS
 10
86.1479960112
 20
199.4984391054
  0
VERTEX
  8
0
 62
7
  6
CONTINUOUS
 10
86.1491735257
 20
199.5097525759
  0
VERTEX
  8
0
 62
7
  6
CONTINUOUS
 10
86.1500997713
 20
199.5211817544
  0
VERTEX
  8
0
 62
7
  6
CONTINUOUS
 10
86.1507680037
 20
199.5327223404
  0
VERTEX
  8
0
 62
7
  6
CONTINUOUS
 10
86.1511714366
 20
199.5443697747
  0
VERTEX
  8
0
 62
7
  6
CONTINUOUS
 10
86.1513033175
 20
199.5558529216
  0
SEQEND
  0
POLYLINE
  8
0
 62
7
  6
CONTINUOUS
 66
1
 70
0
  0
VERTEX
  8
0
 62
7
  6
CONTINUOUS
 10
92.169662153
 20
199.0850525603
  0
VERTEX
  8
0
 62
7
  6
CONTINUOUS
 10
92.1771885202
 20
199.0878121958
  0
VERTEX
  8
0
 62
7
  6
CONTINUOUS
 10
92.1847224106
 20
199.0907129321
  0
VERTEX
  8
0
 62
7
  6
CONTINUOUS
 10
92.1922605486
 20
199.0937564409
  0
VERTEX
  8
0
 62
7
  6
CONTINUOUS
 10
92.1997998672
 20
199.0969444455
  0
VERTEX
  8
0
 62
7
  6
CONTINUOUS
 10
92.207337224
 20
199.1002786167
  0
VERTEX
  8
0
 62
7
  6
CONTINUOUS
 10
92.2148694009
 20
199.1037605702
  0
VERTEX
  8
0
 62
7
  6
CONTINUOUS
 10
92.2223931051
 20
199.1073918639
  0
VERTEX
  8
0
 62
7
  6
CONTINUOUS
 10
92.2299049691
 20
199.1111739952
  0
VERTEX
  8
0
 62
7
  6
CONTINUOUS
 10
92.237401551
 20
199.115108398
  0
VERTEX
  8
0
 62
7
  6
CONTINUOUS
 10
92.2448793353
 20
199.1191964403
  0
SEQEND
  0
POLYLINE
  8
0
 62
7
  6
CONTINUOUS
 66
1
 70
0
  0
VERTEX
  8
0
 62
7
  6
CONTINUOUS
 10
74.2170183505
 20
207.8484810713
  0
VERTEX
  8
0
 62
7
  6
CONTINUOUS
 10
74.1361342725
 20
207.8277903474
  0
VERTEX
  8
0
 62
7
  6
CONTINUOUS
 10
74.0570275658
 20
207.7920835348
  0
SEQEND
  0
LINE
  8
0
 62
7
  6
CONTINUOUS
 10
74.2197649771
 20
207.8491468529
 11
74.2170183505
 21
207.8484810713
  0
POLYLINE
  8
0
 62
7
  6
CONTINUOUS
 66
1
 70
0
  0
VERTEX
  8
0
 62
7
  6
CONTINUOUS
 10
74.2168609676
 20
207.8486891832
  0
VERTEX
  8
0
 62
7
  6
CONTINUOUS
 10
74.2036156219
 20
207.8462376061
  0
VERTEX
  8
0
 62
7
  6
CONTINUOUS
 10
74.1902007333
 20
207.8433753584
  0
VERTEX
  8
0
 62
7
  6
CONTINUOUS
 10
74.1766255944
 20
207.8400834545
  0
VERTEX
  8
0
 62
7
  6
CONTINUOUS
 10
74.1629010033
 20
207.8363425861
  0
VERTEX
  8
0
 62
7
  6
CONTINUOUS
 10
74.149039317
 20
207.8321331989
  0
VERTEX
  8
0
 62
7
  6
CONTINUOUS
 10
74.135054485
 20
207.8274355692
  0
SEQEND
  0
LINE
  8
0
 62
7
  6
CONTINUOUS
 10
74.2196225611
 20
207.8491351325
 11
74.2145013043
 21
207.8482608115
  0
POLYLINE
  8
0
 62
7
  6
CONTINUOUS
 66
1
 70
0
  0
VERTEX
  8
0
 62
7
  6
CONTINUOUS
 10
65.0106374634
 20
207.8000814587
  0
VERTEX
  8
0
 62
7
  6
CONTINUOUS
 10
64.9282473029
 20
207.7860875443
  0
VERTEX
  8
0
 62
7
  6
CONTINUOUS
 10
64.8362975442
 20
207.7714030239
  0
VERTEX
  8
0
 62
7
  6
CONTINUOUS
 10
64.733701501
 20
207.7565386805
  0
VERTEX
  8
0
 62
7
  6
CONTINUOUS
 10
64.6189433523
 20
207.7421441107
  0
VERTEX
  8
0
 62
7
  6
CONTINUOUS
 10
64.4905875389
 20
207.7291493989
  0
VERTEX
  8
0
 62
7
  6
CONTINUOUS
 10
64.3488618997
 20
207.7188965143
  0
VERTEX
  8
0
 62
7
  6
CONTINUOUS
 10
64.1973798594
 20
207.7129164453
  0
VERTEX
  8
0
 62
7
  6
CONTINUOUS
 10
64.0412280286
 20
207.7122678074
  0
VERTEX
  8
0
 62
7
  6
CONTINUOUS
 10
63.886652929
 20
207.7171541989
  0
VERTEX
  8
0
 62
7
  6
CONTINUOUS
 10
63.7401866304
 20
207.7267619888
  0
VERTEX
  8
0
 62
7
  6
CONTINUOUS
 10
63.6070477161
 20
207.7395244215
  0
VERTEX
  8
0
 62
7
  6
CONTINUOUS
 10
63.4884506518
 20
207.7539123866
  0
VERTEX
  8
0
 62
7
  6
CONTINUOUS
 10
63.3827648408
 20
207.7689030824
  0
VERTEX
  8
0
 62
7
  6
CONTINUOUS
 10
63.2882151121
 20
207.7838035683
  0
VERTEX
  8
0
 62
7
  6
CONTINUOUS
 10
63.2034684686
 20
207.7980924575
  0
SEQEND
  0
LINE
  8
0
 62
7
  6
CONTINUOUS
 10
74.221804469
 20
207.8494959643
 11
74.2196225611
 21
207.8491351325
  0
POLYLINE
  8
0
 62
7
  6
CONTINUOUS
 66
1
 70
0
  0
VERTEX
  8
0
 62
7
  6
CONTINUOUS
 10
74.2340721589
 20
207.8513158248
  0
VERTEX
  8
0
 62
7
  6
CONTINUOUS
 10
74.2300203593
 20
207.8507491314
  0
VERTEX
  8
0
 62
7
  6
CONTINUOUS
 10
74.2259305399
 20
207.85014278
  0
SEQEND
  0
POLYLINE
  8
0
 62
7
  6
CONTINUOUS
 66
1
 70
0
  0
VERTEX
  8
0
 62
7
  6
CONTINUOUS
 10
74.2459819431
 20
207.852786576
  0
VERTEX
  8
0
 62
7
  6
CONTINUOUS
 10
74.2420546872
 20
207.8523336497
  0
VERTEX
  8
0
 62
7
  6
CONTINUOUS
 10
74.2380841826
 20
207.8518437042
  0
SEQEND
  0
POLYLINE
  8
0
 62
7
  6
CONTINUOUS
 66
1
 70
0
  0
VERTEX
  8
0
 62
7
  6
CONTINUOUS
 10
74.2611494943
 20
207.8542414958
  0
VERTEX
  8
0
 62
7
  6
CONTINUOUS
 10
74.2574586226
 20
207.8539303716
  0
VERTEX
  8
0
 62
7
  6
CONTINUOUS
 10
74.2536930525
 20
207.853584545
  0
VERTEX
  8
0
 62
7
  6
CONTINUOUS
 10
74.2498638357
 20
207.8532033902
  0
SEQEND
  0
LINE
  8
0
 62
7
  6
CONTINUOUS
 10
74.3012946402
 20
207.8558564967
 11
74.2197649771
 21
207.8491468529
  0
POLYLINE
  8
0
 62
7
  6
CONTINUOUS
 66
1
 70
0
  0
VERTEX
  8
0
 62
7
  6
CONTINUOUS
 10
48.8690827862
 20
207.8548172144
  0
VERTEX
  8
0
 62
7
  6
CONTINUOUS
 10
48.8655132491
 20
207.8545738903
  0
VERTEX
  8
0
 62
7
  6
CONTINUOUS
 10
48.8618528315
 20
207.8542977011
  0
VERTEX
  8
0
 62
7
  6
CONTINUOUS
 10
48.8581070581
 20
207.8539870676
  0
SEQEND
  0
POLYLINE
  8
0
 62
7
  6
CONTINUOUS
 66
1
 70
0
  0
VERTEX
  8
0
 62
7
  6
CONTINUOUS
 10
48.8792339737
 20
207.8553691428
  0
VERTEX
  8
0
 62
7
  6
CONTINUOUS
 10
48.8759370655
 20
207.8552125817
  0
VERTEX
  8
0
 62
7
  6
CONTINUOUS
 10
48.8725564297
 20
207.8550293824
  0
SEQEND
  0
LINE
  8
0
 62
7
  6
CONTINUOUS
 10
48.8887176159
 20
207.8556979914
 11
48.8856146906
 21
207.8556102293
  0
POLYLINE
  8
0
 62
7
  6
CONTINUOUS
 66
1
 70
0
  0
VERTEX
  8
0
 62
7
  6
CONTINUOUS
 10
92.0013032536
 20
207.8558563575
  0
VERTEX
  8
0
 62
7
  6
CONTINUOUS
 10
92.0881285619
 20
207.8482633504
  0
VERTEX
  8
0
 62
7
  6
CONTINUOUS
 10
92.1723160933
 20
207.8257078482
  0
VERTEX
  8
0
 62
7
  6
CONTINUOUS
 10
92.2513075889
 20
207.7888752634
  0
VERTEX
  8
0
 62
7
  6
CONTINUOUS
 10
92.3227026755
 20
207.7388848543
  0
VERTEX
  8
0
 62
7
  6
CONTINUOUS
 10
92.3843318125
 20
207.6772557179
  0
VERTEX
  8
0
 62
7
  6
CONTINUOUS
 10
92.4343222235
 20
207.6058606297
  0
VERTEX
  8
0
 62
7
  6
CONTINUOUS
 10
92.4711548094
 20
207.5268691315
  0
VERTEX
  8
0
 62
7
  6
CONTINUOUS
 10
92.493710311
 20
207.4426815998
  0
VERTEX
  8
0
 62
7
  6
CONTINUOUS
 10
92.5013033171
 20
207.3558562991
  0
SEQEND
  0
POLYLINE
  8
0
 62
7
  6
CONTINUOUS
 66
1
 70
0
  0
VERTEX
  8
0
 62
7
  6
CONTINUOUS
 10
103.8762858483
 20
207.8558563443
  0
VERTEX
  8
0
 62
7
  6
CONTINUOUS
 10
103.9631135508
 20
207.8482617901
  0
VERTEX
  8
0
 62
7
  6
CONTINUOUS
 10
104.0473033291
 20
207.8257046286
  0
VERTEX
  8
0
 62
7
  6
CONTINUOUS
 10
104.126296933
 20
207.788870296
  0
VERTEX
  8
0
 62
7
  6
CONTINUOUS
 10
104.1976940098
 20
207.7388780653
  0
VERTEX
  8
0
 62
7
  6
CONTINUOUS
 10
104.2593250421
 20
207.6772470338
  0
VERTEX
  8
0
 62
7
  6
CONTINUOUS
 10
104.309317271
 20
207.6058499615
  0
VERTEX
  8
0
 62
7
  6
CONTINUOUS
 10
104.3461516016
 20
207.5268563648
  0
VERTEX
  8
0
 62
7
  6
CONTINUOUS
 10
104.3687087627
 20
207.4426665936
  0
VERTEX
  8
0
 62
7
  6
CONTINUOUS
 10
104.3763033174
 20
207.3558388937
  0
SEQEND
  0
POLYLINE
  8
0
 62
7
  6
CONTINUOUS
 66
1
 70
0
  0
VERTEX
  8
0
 62
7
  6
CONTINUOUS
 10
88.6034684686
 20
207.7980924575
  0
VERTEX
  8
0
 62
7
  6
CONTINUOUS
 10
88.4611842423
 20
207.8229840872
  0
VERTEX
  8
0
 62
7
  6
CONTINUOUS
 10
88.4018728613
 20
207.8330568382
  0
VERTEX
  8
0
 62
7
  6
CONTINUOUS
 10
88.3485787701
 20
207.8414307074
  0
VERTEX
  8
0
 62
7
  6
CONTINUOUS
 10
88.2995507977
 20
207.8480837346
  0
VERTEX
  8
0
 62
7
  6
CONTINUOUS
 10
88.2520517746
 20
207.8529568755
  0
VERTEX
  8
0
 62
7
  6
CONTINUOUS
 10
88.2035321143
 20
207.8556157901
  0
VERTEX
  8
0
 62
7
  6
CONTINUOUS
 10
88.1849532705
 20
207.8558549616
  0
SEQEND
  0
POLYLINE
  8
0
 62
7
  6
CONTINUOUS
 66
1
 70
0
  0
VERTEX
  8
0
 62
7
  6
CONTINUOUS
 10
92.1001384364
 20
207.8460080822
  0
VERTEX
  8
0
 62
7
  6
CONTINUOUS
 10
92.0870024677
 20
207.8484726346
  0
VERTEX
  8
0
 62
7
  6
CONTINUOUS
 10
92.0740281332
 20
207.8505524732
  0
VERTEX
  8
0
 62
7
  6
CONTINUOUS
 10
92.0611281087
 20
207.8522756284
  0
VERTEX
  8
0
 62
7
  6
CONTINUOUS
 10
92.0484300079
 20
207.8536395395
  0
VERTEX
  8
0
 62
7
  6
CONTINUOUS
 10
92.0363657664
 20
207.854632477
  0
VERTEX
  8
0
 62
7
  6
CONTINUOUS
 10
92.025240874
 20
207.855288104
  0
VERTEX
  8
0
 62
7
  6
CONTINUOUS
 10
92.0152652254
 20
207.855664709
  0
VERTEX
  8
0
 62
7
  6
CONTINUOUS
 10
92.0079531155
 20
207.8558141611
  0
VERTEX
  8
0
 62
7
  6
CONTINUOUS
 10
92.0037341022
 20
207.85585173
  0
VERTEX
  8
0
 62
7
  6
CONTINUOUS
 10
42.5513033175
 20
207.855856363
  0
SEQEND
  0
POLYLINE
  8
0
 62
7
  6
CONTINUOUS
 66
1
 70
0
  0
VERTEX
  8
0
 62
7
  6
CONTINUOUS
 10
109.6829351948
 20
199.215522271
  0
VERTEX
  8
0
 62
7
  6
CONTINUOUS
 10
109.8356058986
 20
199.1656015775
  0
VERTEX
  8
0
 62
7
  6
CONTINUOUS
 10
109.9028926137
 20
199.1440406454
  0
VERTEX
  8
0
 62
7
  6
CONTINUOUS
 10
109.9666547714
 20
199.1244905503
  0
VERTEX
  8
0
 62
7
  6
CONTINUOUS
 10
110.0287948566
 20
199.1068254815
  0
VERTEX
  8
0
 62
7
  6
CONTINUOUS
 10
110.0911542164
 20
199.0910474334
  0
VERTEX
  8
0
 62
7
  6
CONTINUOUS
 10
110.1566243454
 20
199.0771791114
  0
VERTEX
  8
0
 62
7
  6
CONTINUOUS
 10
110.2280898054
 20
199.0657485436
  0
VERTEX
  8
0
 62
7
  6
CONTINUOUS
 10
110.3090015892
 20
199.0579459279
  0
VERTEX
  8
0
 62
7
  6
CONTINUOUS
 10
110.3764298421
 20
199.055857627
  0
SEQEND
  0
POLYLINE
  8
0
 62
7
  6
CONTINUOUS
 66
1
 70
0
  0
VERTEX
  8
0
 62
7
  6
CONTINUOUS
 10
112.240805846
 20
199.082314586
  0
VERTEX
  8
0
 62
7
  6
CONTINUOUS
 10
112.2487353548
 20
199.0797006883
  0
VERTEX
  8
0
 62
7
  6
CONTINUOUS
 10
112.2566305512
 20
199.0772427858
  0
VERTEX
  8
0
 62
7
  6
CONTINUOUS
 10
112.264485838
 20
199.0749383891
  0
VERTEX
  8
0
 62
7
  6
CONTINUOUS
 10
112.2722957032
 20
199.0727848263
  0
VERTEX
  8
0
 62
7
  6
CONTINUOUS
 10
112.2800547255
 20
199.0707792496
  0
VERTEX
  8
0
 62
7
  6
CONTINUOUS
 10
112.2877575791
 20
199.0689186417
  0
VERTEX
  8
0
 62
7
  6
CONTINUOUS
 10
112.2953990385
 20
199.0671998229
  0
VERTEX
  8
0
 62
7
  6
CONTINUOUS
 10
112.3029739828
 20
199.065619458
  0
VERTEX
  8
0
 62
7
  6
CONTINUOUS
 10
112.310477399
 20
199.0641740635
  0
VERTEX
  8
0
 62
7
  6
CONTINUOUS
 10
112.3146297684
 20
199.0634393895
  0
SEQEND
  0
LINE
  8
0
 62
7
  6
CONTINUOUS
 10
112.2304333909
 20
199.0859739086
 11
112.2402441288
 21
199.0825102584
  0
POLYLINE
  8
0
 62
7
  6
CONTINUOUS
 66
1
 70
0
  0
VERTEX
  8
0
 62
7
  6
CONTINUOUS
 10
99.4461636888
 20
199.1258505165
  0
VERTEX
  8
0
 62
7
  6
CONTINUOUS
 10
99.4540782483
 20
199.1212519419
  0
VERTEX
  8
0
 62
7
  6
CONTINUOUS
 10
99.4620245762
 20
199.1168268654
  0
VERTEX
  8
0
 62
7
  6
CONTINUOUS
 10
99.4699971725
 20
199.1125746694
  0
VERTEX
  8
0
 62
7
  6
CONTINUOUS
 10
99.4779905732
 20
199.108494556
  0
VERTEX
  8
0
 62
7
  6
CONTINUOUS
 10
99.4859993557
 20
199.1045855503
  0
VERTEX
  8
0
 62
7
  6
CONTINUOUS
 10
99.4940181451
 20
199.1008465029
  0
VERTEX
  8
0
 62
7
  6
CONTINUOUS
 10
99.5020416194
 20
199.0972760941
  0
VERTEX
  8
0
 62
7
  6
CONTINUOUS
 10
99.5100645153
 20
199.0938728366
  0
SEQEND
  0
POLYLINE
  8
0
 62
7
  6
CONTINUOUS
 66
1
 70
0
  0
VERTEX
  8
0
 62
7
  6
CONTINUOUS
 10
93.0283515757
 20
199.1741450101
  0
VERTEX
  8
0
 62
7
  6
CONTINUOUS
 10
93.0360141702
 20
199.1677917667
  0
VERTEX
  8
0
 62
7
  6
CONTINUOUS
 10
93.0437637746
 20
199.1616219177
  0
VERTEX
  8
0
 62
7
  6
CONTINUOUS
 10
93.0515942187
 20
199.1556366561
  0
VERTEX
  8
0
 62
7
  6
CONTINUOUS
 10
93.059499305
 20
199.1498369503
  0
VERTEX
  8
0
 62
7
  6
CONTINUOUS
 10
93.0674728168
 20
199.1442235437
  0
VERTEX
  8
0
 62
7
  6
CONTINUOUS
 10
93.0755085269
 20
199.1387969562
  0
VERTEX
  8
0
 62
7
  6
CONTINUOUS
 10
93.0836002058
 20
199.1335574855
  0
VERTEX
  8
0
 62
7
  6
CONTINUOUS
 10
93.0917416303
 20
199.1285052083
  0
VERTEX
  8
0
 62
7
  6
CONTINUOUS
 10
93.0999265909
 20
199.1236399824
  0
SEQEND
  0
POLYLINE
  8
0
 62
7
  6
CONTINUOUS
 66
1
 70
0
  0
VERTEX
  8
0
 62
7
  6
CONTINUOUS
 10
92.9986932471
 20
199.2013601955
  0
VERTEX
  8
0
 62
7
  6
CONTINUOUS
 10
93.0059469565
 20
199.194289801
  0
VERTEX
  8
0
 62
7
  6
CONTINUOUS
 10
93.0133119067
 20
199.1873957824
  0
VERTEX
  8
0
 62
7
  6
CONTINUOUS
 10
93.0207821249
 20
199.1806802297
  0
VERTEX
  8
0
 62
7
  6
CONTINUOUS
 10
93.0283515757
 20
199.1741450101
  0
SEQEND
  0
POLYLINE
  8
0
 62
7
  6
CONTINUOUS
 66
1
 70
0
  0
VERTEX
  8
0
 62
7
  6
CONTINUOUS
 10
99.384045264
 20
207.742315861
  0
VERTEX
  8
0
 62
7
  6
CONTINUOUS
 10
99.3211484876
 20
207.6806423221
  0
VERTEX
  8
0
 62
7
  6
CONTINUOUS
 10
99.2701540548
 20
207.609062895
  0
VERTEX
  8
0
 62
7
  6
CONTINUOUS
 10
99.2326548329
 20
207.530129411
  0
VERTEX
  8
0
 62
7
  6
CONTINUOUS
 10
99.2096138382
 20
207.4466467385
  0
VERTEX
  8
0
 62
7
  6
CONTINUOUS
 10
99.2059741017
 20
207.4092324117
  0
SEQEND
  0
LINE
  8
0
 62
7
  6
CONTINUOUS
 10
99.3542310521
 20
207.7157746387
 11
99.3486940784
 21
207.7103518455
  0
POLYLINE
  8
0
 62
7
  6
CONTINUOUS
 66
1
 70
0
  0
VERTEX
  8
0
 62
7
  6
CONTINUOUS
 10
99.3800437213
 20
207.7389915758
  0
VERTEX
  8
0
 62
7
  6
CONTINUOUS
 10
99.3750834441
 20
207.7347770864
  0
VERTEX
  8
0
 62
7
  6
CONTINUOUS
 10
99.3700378267
 20
207.7303740474
  0
VERTEX
  8
0
 62
7
  6
CONTINUOUS
 10
99.3648903395
 20
207.7257572013
  0
VERTEX
  8
0
 62
7
  6
CONTINUOUS
 10
99.3596259058
 20
207.7209000162
  0
SEQEND
  0
POLYLINE
  8
0
 62
7
  6
CONTINUOUS
 66
1
 70
0
  0
VERTEX
  8
0
 62
7
  6
CONTINUOUS
 10
99.3912736709
 20
207.7481811669
  0
VERTEX
  8
0
 62
7
  6
CONTINUOUS
 10
99.3769306522
 20
207.7364085251
  0
VERTEX
  8
0
 62
7
  6
CONTINUOUS
 10
99.3627145003
 20
207.7238175771
  0
VERTEX
  8
0
 62
7
  6
CONTINUOUS
 10
99.3486680604
 20
207.7103790005
  0
SEQEND
  0
POLYLINE
  8
0
 62
7
  6
CONTINUOUS
 66
1
 70
0
  0
VERTEX
  8
0
 62
7
  6
CONTINUOUS
 10
92.2513016395
 20
199.1228473532
  0
VERTEX
  8
0
 62
7
  6
CONTINUOUS
 10
92.3226942808
 20
199.1728377296
  0
VERTEX
  8
0
 62
7
  6
CONTINUOUS
 10
92.3843218849
 20
199.2344653868
  0
VERTEX
  8
0
 62
7
  6
CONTINUOUS
 10
92.434312199
 20
199.3058580635
  0
VERTEX
  8
0
 62
7
  6
CONTINUOUS
 10
92.4711464268
 20
199.3848468898
  0
VERTEX
  8
0
 62
7
  6
CONTINUOUS
 10
92.493705348
 20
199.4690322319
  0
VERTEX
  8
0
 62
7
  6
CONTINUOUS
 10
92.5013033174
 20
199.5558565419
  0
SEQEND
  0
POLYLINE
  8
0
 62
7
  6
CONTINUOUS
 66
1
 70
0
  0
VERTEX
  8
0
 62
7
  6
CONTINUOUS
 10
92.249004204
 20
199.1214992573
  0
VERTEX
  8
0
 62
7
  6
CONTINUOUS
 10
92.3196045705
 20
199.1702288366
  0
VERTEX
  8
0
 62
7
  6
CONTINUOUS
 10
92.3808675194
 20
199.2303485883
  0
VERTEX
  8
0
 62
7
  6
CONTINUOUS
 10
92.4309475618
 20
199.3000679565
  0
VERTEX
  8
0
 62
7
  6
CONTINUOUS
 10
92.468350389
 20
199.377294987
  0
VERTEX
  8
0
 62
7
  6
CONTINUOUS
 10
92.4919820532
 20
199.4597076941
  0
SEQEND
  0
POLYLINE
  8
0
 62
7
  6
CONTINUOUS
 66
1
 70
0
  0
VERTEX
  8
0
 62
7
  6
CONTINUOUS
 10
92.2448793353
 20
199.1191964403
  0
VERTEX
  8
0
 62
7
  6
CONTINUOUS
 10
92.2523347335
 20
199.123439421
  0
VERTEX
  8
0
 62
7
  6
CONTINUOUS
 10
92.2597640847
 20
199.1278385676
  0
VERTEX
  8
0
 62
7
  6
CONTINUOUS
 10
92.2671636563
 20
199.1323950327
  0
VERTEX
  8
0
 62
7
  6
CONTINUOUS
 10
92.2745296452
 20
199.1371098917
  0
VERTEX
  8
0
 62
7
  6
CONTINUOUS
 10
92.2818581785
 20
199.1419841393
  0
VERTEX
  8
0
 62
7
  6
CONTINUOUS
 10
92.2891453148
 20
199.1470186873
  0
VERTEX
  8
0
 62
7
  6
CONTINUOUS
 10
92.2963870452
 20
199.1522143611
  0
VERTEX
  8
0
 62
7
  6
CONTINUOUS
 10
92.3035792946
 20
199.1575718969
  0
VERTEX
  8
0
 62
7
  6
CONTINUOUS
 10
92.3107179234
 20
199.1630919389
  0
VERTEX
  8
0
 62
7
  6
CONTINUOUS
 10
92.3177987284
 20
199.1687750361
  0
VERTEX
  8
0
 62
7
  6
CONTINUOUS
 10
92.3225789767
 20
199.1727569916
  0
SEQEND
  0
LINE
  8
0
 62
7
  6
CONTINUOUS
 10
92.1712002502
 20
199.0855883113
 11
92.2513016395
 21
199.1228473532
  0
POLYLINE
  8
0
 62
7
  6
CONTINUOUS
 66
1
 70
0
  0
VERTEX
  8
0
 62
7
  6
CONTINUOUS
 10
100.9170415781
 20
199.165614823
  0
VERTEX
  8
0
 62
7
  6
CONTINUOUS
 10
101.0697123069
 20
199.215535476
  0
VERTEX
  8
0
 62
7
  6
CONTINUOUS
 10
101.1586318323
 20
199.2440218387
  0
VERTEX
  8
0
 62
7
  6
CONTINUOUS
 10
101.2590492391
 20
199.2748658863
  0
VERTEX
  8
0
 62
7
  6
CONTINUOUS
 10
101.374198477
 20
199.3078749645
  0
VERTEX
  8
0
 62
7
  6
CONTINUOUS
 10
101.5071424618
 20
199.3420954231
  0
VERTEX
  8
0
 62
7
  6
CONTINUOUS
 10
101.6558406342
 20
199.3745670451
  0
VERTEX
  8
0
 62
7
  6
CONTINUOUS
 10
101.8145507211
 20
199.4015529431
  0
VERTEX
  8
0
 62
7
  6
CONTINUOUS
 10
101.9728107951
 20
199.419784976
  0
VERTEX
  8
0
 62
7
  6
CONTINUOUS
 10
102.1210162505
 20
199.4284893863
  0
VERTEX
  8
0
 62
7
  6
CONTINUOUS
 10
102.2648949552
 20
199.4289488034
  0
VERTEX
  8
0
 62
7
  6
CONTINUOUS
 10
102.4120901704
 20
199.421258304
  0
VERTEX
  8
0
 62
7
  6
CONTINUOUS
 10
102.5690949411
 20
199.4042079246
  0
VERTEX
  8
0
 62
7
  6
CONTINUOUS
 10
102.7283998919
 20
199.3781114862
  0
VERTEX
  8
0
 62
7
  6
CONTINUOUS
 10
102.8786920005
 20
199.3460795678
  0
VERTEX
  8
0
 62
7
  6
CONTINUOUS
 10
103.0137021524
 20
199.3118775042
  0
VERTEX
  8
0
 62
7
  6
CONTINUOUS
 10
103.1306841211
 20
199.2786925415
  0
VERTEX
  8
0
 62
7
  6
CONTINUOUS
 10
103.2325575695
 20
199.247609874
  0
VERTEX
  8
0
 62
7
  6
CONTINUOUS
 10
103.3225755924
 20
199.2188820765
  0
SEQEND
  0
POLYLINE
  8
0
 62
7
  6
CONTINUOUS
 66
1
 70
0
  0
VERTEX
  8
0
 62
7
  6
CONTINUOUS
 10
48.8204442546
 20
207.8492947141
  0
VERTEX
  8
0
 62
7
  6
CONTINUOUS
 10
48.8048248217
 20
207.8464830654
  0
VERTEX
  8
0
 62
7
  6
CONTINUOUS
 10
48.7886598391
 20
207.8430289687
  0
VERTEX
  8
0
 62
7
  6
CONTINUOUS
 10
48.7720997885
 20
207.8389041023
  0
VERTEX
  8
0
 62
7
  6
CONTINUOUS
 10
48.7552826978
 20
207.8340921945
  0
VERTEX
  8
0
 62
7
  6
CONTINUOUS
 10
48.7382657103
 20
207.8285645221
  0
SEQEND
  0
POLYLINE
  8
0
 62
7
  6
CONTINUOUS
 66
1
 70
0
  0
VERTEX
  8
0
 62
7
  6
CONTINUOUS
 10
52.3106374634
 20
207.8000814587
  0
VERTEX
  8
0
 62
7
  6
CONTINUOUS
 10
52.2282473029
 20
207.7860875443
  0
VERTEX
  8
0
 62
7
  6
CONTINUOUS
 10
52.1362975442
 20
207.7714030239
  0
VERTEX
  8
0
 62
7
  6
CONTINUOUS
 10
52.033701501
 20
207.7565386805
  0
VERTEX
  8
0
 62
7
  6
CONTINUOUS
 10
51.9189433523
 20
207.7421441107
  0
VERTEX
  8
0
 62
7
  6
CONTINUOUS
 10
51.7905875389
 20
207.7291493989
  0
VERTEX
  8
0
 62
7
  6
CONTINUOUS
 10
51.6488618997
 20
207.7188965143
  0
VERTEX
  8
0
 62
7
  6
CONTINUOUS
 10
51.4973798594
 20
207.7129164453
  0
VERTEX
  8
0
 62
7
  6
CONTINUOUS
 10
51.3412280286
 20
207.7122678074
  0
VERTEX
  8
0
 62
7
  6
CONTINUOUS
 10
51.186652929
 20
207.7171541989
  0
VERTEX
  8
0
 62
7
  6
CONTINUOUS
 10
51.0401866304
 20
207.7267619888
  0
VERTEX
  8
0
 62
7
  6
CONTINUOUS
 10
50.9070477161
 20
207.7395244215
  0
VERTEX
  8
0
 62
7
  6
CONTINUOUS
 10
50.7884506518
 20
207.7539123866
  0
VERTEX
  8
0
 62
7
  6
CONTINUOUS
 10
50.6827648408
 20
207.7689030824
  0
VERTEX
  8
0
 62
7
  6
CONTINUOUS
 10
50.5882151121
 20
207.7838035683
  0
VERTEX
  8
0
 62
7
  6
CONTINUOUS
 10
50.5034684686
 20
207.7980924575
  0
SEQEND
  0
POLYLINE
  8
0
 62
7
  6
CONTINUOUS
 66
1
 70
0
  0
VERTEX
  8
0
 62
7
  6
CONTINUOUS
 10
48.8255581125
 20
207.8500859061
  0
VERTEX
  8
0
 62
7
  6
CONTINUOUS
 10
48.8211932376
 20
207.8493972026
  0
VERTEX
  8
0
 62
7
  6
CONTINUOUS
 10
48.8167661714
 20
207.8486582137
  0
SEQEND
  0
POLYLINE
  8
0
 62
7
  6
CONTINUOUS
 66
1
 70
0
  0
VERTEX
  8
0
 62
7
  6
CONTINUOUS
 10
48.8423740533
 20
207.8523717081
  0
VERTEX
  8
0
 62
7
  6
CONTINUOUS
 10
48.8382686847
 20
207.8518672388
  0
VERTEX
  8
0
 62
7
  6
CONTINUOUS
 10
48.8340968935
 20
207.8513192357
  0
VERTEX
  8
0
 62
7
  6
CONTINUOUS
 10
48.8298596891
 20
207.85072602
  0
SEQEND
  0
POLYLINE
  8
0
 62
7
  6
CONTINUOUS
 66
1
 70
0
  0
VERTEX
  8
0
 62
7
  6
CONTINUOUS
 10
48.8542814736
 20
207.8536405225
  0
VERTEX
  8
0
 62
7
  6
CONTINUOUS
 10
48.85038164
 20
207.8532567184
  0
VERTEX
  8
0
 62
7
  6
CONTINUOUS
 10
48.8464120211
 20
207.8528343142
  0
SEQEND
  0
POLYLINE
  8
0
 62
7
  6
CONTINUOUS
 66
1
 70
0
  0
VERTEX
  8
0
 62
7
  6
CONTINUOUS
 10
101.3034684686
 20
207.7980924575
  0
VERTEX
  8
0
 62
7
  6
CONTINUOUS
 10
101.1611842423
 20
207.8229840872
  0
VERTEX
  8
0
 62
7
  6
CONTINUOUS
 10
101.1018728613
 20
207.8330568382
  0
VERTEX
  8
0
 62
7
  6
CONTINUOUS
 10
101.0485787701
 20
207.8414307074
  0
VERTEX
  8
0
 62
7
  6
CONTINUOUS
 10
100.9995507977
 20
207.8480837346
  0
VERTEX
  8
0
 62
7
  6
CONTINUOUS
 10
100.9520517746
 20
207.8529568755
  0
VERTEX
  8
0
 62
7
  6
CONTINUOUS
 10
100.9035321143
 20
207.8556157901
  0
VERTEX
  8
0
 62
7
  6
CONTINUOUS
 10
100.8849532705
 20
207.8558549616
  0
SEQEND
  0
POLYLINE
  8
0
 62
7
  6
CONTINUOUS
 66
1
 70
0
  0
VERTEX
  8
0
 62
7
  6
CONTINUOUS
 10
92.1820739506
 20
207.8220640988
  0
VERTEX
  8
0
 62
7
  6
CONTINUOUS
 10
92.1680831099
 20
207.8272485268
  0
VERTEX
  8
0
 62
7
  6
CONTINUOUS
 10
92.1542138797
 20
207.8319264794
  0
VERTEX
  8
0
 62
7
  6
CONTINUOUS
 10
92.1404767275
 20
207.8361202657
  0
VERTEX
  8
0
 62
7
  6
CONTINUOUS
 10
92.1268805486
 20
207.8398514163
  0
VERTEX
  8
0
 62
7
  6
CONTINUOUS
 10
92.1134325636
 20
207.8431407029
  0
VERTEX
  8
0
 62
7
  6
CONTINUOUS
 10
92.1001384364
 20
207.8460080822
  0
SEQEND
  0
POLYLINE
  8
0
 62
7
  6
CONTINUOUS
 66
1
 70
0
  0
VERTEX
  8
0
 62
7
  6
CONTINUOUS
 10
92.2534788158
 20
207.7876455421
  0
VERTEX
  8
0
 62
7
  6
CONTINUOUS
 10
92.2390495274
 20
207.795754052
  0
VERTEX
  8
0
 62
7
  6
CONTINUOUS
 10
92.2246782239
 20
207.8032215828
  0
VERTEX
  8
0
 62
7
  6
CONTINUOUS
 10
92.210382461
 20
207.8100771817
  0
VERTEX
  8
0
 62
7
  6
CONTINUOUS
 10
92.1961769856
 20
207.8163489834
  0
VERTEX
  8
0
 62
7
  6
CONTINUOUS
 10
92.1820739506
 20
207.8220640988
  0
SEQEND
  0
POLYLINE
  8
0
 62
7
  6
CONTINUOUS
 66
1
 70
0
  0
VERTEX
  8
0
 62
7
  6
CONTINUOUS
 10
99.3844474979
 20
199.1690732164
  0
VERTEX
  8
0
 62
7
  6
CONTINUOUS
 10
99.3846576929
 20
199.1688978161
  0
VERTEX
  8
0
 62
7
  6
CONTINUOUS
 10
99.3921179021
 20
199.162911406
  0
VERTEX
  8
0
 62
7
  6
CONTINUOUS
 10
99.3996544015
 20
199.1570966836
  0
VERTEX
  8
0
 62
7
  6
CONTINUOUS
 10
99.4072616377
 20
199.1514545462
  0
VERTEX
  8
0
 62
7
  6
CONTINUOUS
 10
99.4149340401
 20
199.1459856972
  0
VERTEX
  8
0
 62
7
  6
CONTINUOUS
 10
99.4226660279
 20
199.1406906468
  0
VERTEX
  8
0
 62
7
  6
CONTINUOUS
 10
99.4304520171
 20
199.1355697132
  0
VERTEX
  8
0
 62
7
  6
CONTINUOUS
 10
99.4382864274
 20
199.1306230238
  0
VERTEX
  8
0
 62
7
  6
CONTINUOUS
 10
99.4461636888
 20
199.1258505165
  0
SEQEND
  0
POLYLINE
  8
0
 62
7
  6
CONTINUOUS
 66
1
 70
0
  0
VERTEX
  8
0
 62
7
  6
CONTINUOUS
 10
92.8514240465
 20
199.5448087912
  0
VERTEX
  8
0
 62
7
  6
CONTINUOUS
 10
92.8606442324
 20
199.4596049682
  0
VERTEX
  8
0
 62
7
  6
CONTINUOUS
 10
92.8843065594
 20
199.3771611852
  0
VERTEX
  8
0
 62
7
  6
CONTINUOUS
 10
92.9217287666
 20
199.2999489146
  0
VERTEX
  8
0
 62
7
  6
CONTINUOUS
 10
92.9718164206
 20
199.2302567003
  0
VERTEX
  8
0
 62
7
  6
CONTINUOUS
 10
93.0330921272
 20
199.1701530121
  0
SEQEND
  0
POLYLINE
  8
0
 62
7
  6
CONTINUOUS
 66
1
 70
0
  0
VERTEX
  8
0
 62
7
  6
CONTINUOUS
 10
92.8513033175
 20
200.6454118234
  0
VERTEX
  8
0
 62
7
  6
CONTINUOUS
 10
92.8574012497
 20
200.5827100761
  0
VERTEX
  8
0
 62
7
  6
CONTINUOUS
 10
92.8755697399
 20
200.5214343636
  0
VERTEX
  8
0
 62
7
  6
CONTINUOUS
 10
92.9054031723
 20
200.4630885369
  0
VERTEX
  8
0
 62
7
  6
CONTINUOUS
 10
92.9462098763
 20
200.4091192988
  0
VERTEX
  8
0
 62
7
  6
CONTINUOUS
 10
92.9970236257
 20
200.3608787
  0
VERTEX
  8
0
 62
7
  6
CONTINUOUS
 10
93.0566232146
 20
200.3195873668
  0
VERTEX
  8
0
 62
7
  6
CONTINUOUS
 10
93.1235604104
 20
200.2863000331
  0
VERTEX
  8
0
 62
7
  6
CONTINUOUS
 10
93.1961956579
 20
200.2618753267
  0
VERTEX
  8
0
 62
7
  6
CONTINUOUS
 10
93.2727403186
 20
200.2469514182
  0
VERTEX
  8
0
 62
7
  6
CONTINUOUS
 10
93.3513033175
 20
200.2419288274
  0
SEQEND
  0
LINE
  8
0
 62
7
  6
CONTINUOUS
 10
92.8514240465
 20
199.5448087912
 11
92.8513033175
 21
199.55579513
  0
LINE
  8
0
 62
7
  6
CONTINUOUS
 10
92.8473839356
 20
204.855856363
 11
92.8496834494
 21
203.4639497396
  0
LINE
  8
0
 62
7
  6
CONTINUOUS
 10
92.8496874171
 20
203.4639497218
 11
92.8513069328
 21
202.6228517675
  0
LINE
  8
0
 62
7
  6
CONTINUOUS
 10
92.5013033173
 20
199.5558548648
 11
92.5013033175
 21
207.3558562991
  0
LINE
  8
0
 62
7
  6
CONTINUOUS
 10
92.8513033175
 20
199.555856363
 11
92.8513033175
 21
204.855856363
  0
LINE
  8
0
 62
7
  6
CONTINUOUS
 10
92.5013003091
 20
207.3541218659
 11
92.5013033174
 21
207.3558562954
  0
LINE
  8
0
 62
7
  6
CONTINUOUS
 10
92.5029231857
 20
203.463949738
 11
92.5060971411
 21
205.2771017865
  0
LINE
  8
0
 62
7
  6
CONTINUOUS
 10
92.5013033175
 20
199.5557978175
 11
92.5011827867
 21
199.5448204602
  0
LINE
  8
0
 62
7
  6
CONTINUOUS
 10
92.4919820532
 20
199.4597076941
 11
92.5011827867
 21
199.5448204602
  0
POLYLINE
  8
0
 62
7
  6
CONTINUOUS
 66
1
 70
0
  0
VERTEX
  8
0
 62
7
  6
CONTINUOUS
 10
92.4922103209
 20
199.4609308769
  0
VERTEX
  8
0
 62
7
  6
CONTINUOUS
 10
92.4942835164
 20
199.4723638547
  0
VERTEX
  8
0
 62
7
  6
CONTINUOUS
 10
92.4961045087
 20
199.4839383834
  0
VERTEX
  8
0
 62
7
  6
CONTINUOUS
 10
92.4976657007
 20
199.4956505833
  0
VERTEX
  8
0
 62
7
  6
CONTINUOUS
 10
92.4989594093
 20
199.5074962558
  0
SEQEND
  0
POLYLINE
  8
0
 62
7
  6
CONTINUOUS
 66
1
 70
0
  0
VERTEX
  8
0
 62
7
  6
CONTINUOUS
 10
92.434206167
 20
199.3057066361
  0
VERTEX
  8
0
 62
7
  6
CONTINUOUS
 10
92.4356752221
 20
199.3082231841
  0
VERTEX
  8
0
 62
7
  6
CONTINUOUS
 10
92.4406973702
 20
199.3172479321
  0
VERTEX
  8
0
 62
7
  6
CONTINUOUS
 10
92.445566982
 20
199.3264421407
  0
VERTEX
  8
0
 62
7
  6
CONTINUOUS
 10
92.4502783746
 20
199.3358053299
  0
VERTEX
  8
0
 62
7
  6
CONTINUOUS
 10
92.4548257193
 20
199.3453368669
  0
VERTEX
  8
0
 62
7
  6
CONTINUOUS
 10
92.4592030418
 20
199.3550359563
  0
VERTEX
  8
0
 62
7
  6
CONTINUOUS
 10
92.4634042235
 20
199.3649016306
  0
VERTEX
  8
0
 62
7
  6
CONTINUOUS
 10
92.4674230035
 20
199.3749327401
  0
VERTEX
  8
0
 62
7
  6
CONTINUOUS
 10
92.4712529799
 20
199.3851279426
  0
VERTEX
  8
0
 62
7
  6
CONTINUOUS
 10
92.4748876125
 20
199.3954856931
  0
VERTEX
  8
0
 62
7
  6
CONTINUOUS
 10
92.4783202257
 20
199.4060042333
  0
VERTEX
  8
0
 62
7
  6
CONTINUOUS
 10
92.4815440116
 20
199.4166815798
  0
VERTEX
  8
0
 62
7
  6
CONTINUOUS
 10
92.4845520338
 20
199.427515514
  0
VERTEX
  8
0
 62
7
  6
CONTINUOUS
 10
92.4873372318
 20
199.4385035699
  0
VERTEX
  8
0
 62
7
  6
CONTINUOUS
 10
92.4898924254
 20
199.4496430227
  0
VERTEX
  8
0
 62
7
  6
CONTINUOUS
 10
92.4922103209
 20
199.4609308769
  0
SEQEND
  0
LINE
  8
0
 62
7
  6
CONTINUOUS
 10
95.1675390282
 20
200.2393012387
 11
95.2461983756
 21
200.3231876538
  0
POLYLINE
  8
0
 62
7
  6
CONTINUOUS
 66
1
 70
0
  0
VERTEX
  8
0
 62
7
  6
CONTINUOUS
 10
107.2756779182
 20
199.1684240106
  0
VERTEX
  8
0
 62
7
  6
CONTINUOUS
 10
107.4299962609
 20
199.2188708504
  0
VERTEX
  8
0
 62
7
  6
CONTINUOUS
 10
107.5200228106
 20
199.2476015898
  0
VERTEX
  8
0
 62
7
  6
CONTINUOUS
 10
107.6218917375
 20
199.2786833422
  0
VERTEX
  8
0
 62
7
  6
CONTINUOUS
 10
107.7388662553
 20
199.3118672911
  0
VERTEX
  8
0
 62
7
  6
CONTINUOUS
 10
107.8738585251
 20
199.3460665064
  0
VERTEX
  8
0
 62
7
  6
CONTINUOUS
 10
108.0241432411
 20
199.3780994804
  0
VERTEX
  8
0
 62
7
  6
CONTINUOUS
 10
108.1834990899
 20
199.4042062195
  0
VERTEX
  8
0
 62
7
  6
CONTINUOUS
 10
108.3406047491
 20
199.4212653909
  0
VERTEX
  8
0
 62
7
  6
CONTINUOUS
 10
108.4878484724
 20
199.4289522253
  0
VERTEX
  8
0
 62
7
  6
CONTINUOUS
 10
108.631726921
 20
199.4284853553
  0
VERTEX
  8
0
 62
7
  6
CONTINUOUS
 10
108.7799010858
 20
199.4197759708
  0
VERTEX
  8
0
 62
7
  6
CONTINUOUS
 10
108.9381086209
 20
199.4015453694
  0
VERTEX
  8
0
 62
7
  6
CONTINUOUS
 10
109.0967932664
 20
199.3745616989
  0
VERTEX
  8
0
 62
7
  6
CONTINUOUS
 10
109.245497687
 20
199.3420874132
  0
VERTEX
  8
0
 62
7
  6
CONTINUOUS
 10
109.3784552917
 20
199.3078621673
  0
VERTEX
  8
0
 62
7
  6
CONTINUOUS
 10
109.4936082772
 20
199.2748507473
  0
VERTEX
  8
0
 62
7
  6
CONTINUOUS
 10
109.5940169107
 20
199.2440084725
  0
VERTEX
  8
0
 62
7
  6
CONTINUOUS
 10
109.6829351948
 20
199.215522271
  0
SEQEND
  0
POLYLINE
  8
0
 62
7
  6
CONTINUOUS
 66
1
 70
0
  0
VERTEX
  8
0
 62
7
  6
CONTINUOUS
 10
107.0815324304
 20
199.1089264173
  0
VERTEX
  8
0
 62
7
  6
CONTINUOUS
 10
107.1437726822
 20
199.1268232003
  0
VERTEX
  8
0
 62
7
  6
CONTINUOUS
 10
107.2078376059
 20
199.1466042947
  0
VERTEX
  8
0
 62
7
  6
CONTINUOUS
 10
107.2756779182
 20
199.1684240106
  0
SEQEND
  0
LINE
  8
0
 62
7
  6
CONTINUOUS
 10
112.1514017783
 20
199.1228003689
 11
112.1607534654
 21
199.1175233249
  0
POLYLINE
  8
0
 62
7
  6
CONTINUOUS
 66
1
 70
0
  0
VERTEX
  8
0
 62
7
  6
CONTINUOUS
 10
92.2888821315
 20
207.7648780547
  0
VERTEX
  8
0
 62
7
  6
CONTINUOUS
 10
92.2841332376
 20
207.7681760844
  0
VERTEX
  8
0
 62
7
  6
CONTINUOUS
 10
92.2793969171
 20
207.7713852597
  0
VERTEX
  8
0
 62
7
  6
CONTINUOUS
 10
92.2746726766
 20
207.7745083727
  0
VERTEX
  8
0
 62
7
  6
CONTINUOUS
 10
92.2699599098
 20
207.7775481279
  0
VERTEX
  8
0
 62
7
  6
CONTINUOUS
 10
92.2652579025
 20
207.7805071415
  0
VERTEX
  8
0
 62
7
  6
CONTINUOUS
 10
92.2605658371
 20
207.7833879405
  0
VERTEX
  8
0
 62
7
  6
CONTINUOUS
 10
92.2558827976
 20
207.786192963
  0
VERTEX
  8
0
 62
7
  6
CONTINUOUS
 10
92.2512310888
 20
207.7889109343
  0
SEQEND
  0
POLYLINE
  8
0
 62
7
  6
CONTINUOUS
 66
1
 70
0
  0
VERTEX
  8
0
 62
7
  6
CONTINUOUS
 10
92.3032073817
 20
207.7544216152
  0
VERTEX
  8
0
 62
7
  6
CONTINUOUS
 10
92.2984190164
 20
207.7580038284
  0
VERTEX
  8
0
 62
7
  6
CONTINUOUS
 10
92.2936439739
 20
207.7614882913
  0
SEQEND
  0
POLYLINE
  8
0
 62
7
  6
CONTINUOUS
 66
1
 70
0
  0
VERTEX
  8
0
 62
7
  6
CONTINUOUS
 10
92.3176696668
 20
207.7430419279
  0
VERTEX
  8
0
 62
7
  6
CONTINUOUS
 10
92.312825228
 20
207.7469502476
  0
VERTEX
  8
0
 62
7
  6
CONTINUOUS
 10
92.3080090573
 20
207.7507385163
  0
SEQEND
  0
POLYLINE
  8
0
 62
7
  6
CONTINUOUS
 66
1
 70
0
  0
VERTEX
  8
0
 62
7
  6
CONTINUOUS
 10
92.3256558183
 20
207.7364264043
  0
VERTEX
  8
0
 62
7
  6
CONTINUOUS
 10
92.3113139366
 20
207.7481968688
  0
VERTEX
  8
0
 62
7
  6
CONTINUOUS
 10
92.2968922447
 20
207.7591729088
  0
VERTEX
  8
0
 62
7
  6
CONTINUOUS
 10
92.2824257519
 20
207.7693856494
  0
VERTEX
  8
0
 62
7
  6
CONTINUOUS
 10
92.2679455034
 20
207.7788662258
  0
VERTEX
  8
0
 62
7
  6
CONTINUOUS
 10
92.2534788158
 20
207.7876455421
  0
SEQEND
  0
POLYLINE
  8
0
 62
7
  6
CONTINUOUS
 66
1
 70
0
  0
VERTEX
  8
0
 62
7
  6
CONTINUOUS
 10
92.3429804092
 20
207.72090033
  0
VERTEX
  8
0
 62
7
  6
CONTINUOUS
 10
92.3377159133
 20
207.725757563
  0
VERTEX
  8
0
 62
7
  6
CONTINUOUS
 10
92.3325684006
 20
207.7303744219
  0
VERTEX
  8
0
 62
7
  6
CONTINUOUS
 10
92.3275227757
 20
207.7347774577
  0
VERTEX
  8
0
 62
7
  6
CONTINUOUS
 10
92.3226222639
 20
207.738941158
  0
SEQEND
  0
POLYLINE
  8
0
 62
7
  6
CONTINUOUS
 66
1
 70
0
  0
VERTEX
  8
0
 62
7
  6
CONTINUOUS
 10
92.3539388641
 20
207.7103794575
  0
VERTEX
  8
0
 62
7
  6
CONTINUOUS
 10
92.3398786777
 20
207.7238306782
  0
VERTEX
  8
0
 62
7
  6
CONTINUOUS
 10
92.3256558183
 20
207.7364264043
  0
SEQEND
  0
LINE
  8
0
 62
7
  6
CONTINUOUS
 10
92.3539125415
 20
207.7103518753
 11
92.3483753798
 21
207.7157748491
  0
LINE
  8
0
 62
7
  6
CONTINUOUS
 10
95.0013033175
 20
204.855856363
 11
95.0013033175
 21
203.455856363
  0
LINE
  8
0
 62
7
  6
CONTINUOUS
 10
95.0013033175
 20
199.555856363
 11
95.0013033175
 21
199.894139235
  0
POLYLINE
  8
0
 62
7
  6
CONTINUOUS
 66
1
 70
0
  0
VERTEX
  8
0
 62
7
  6
CONTINUOUS
 10
95.0013032986
 20
199.8939947728
  0
VERTEX
  8
0
 62
7
  6
CONTINUOUS
 10
95.0116056531
 20
199.9774099115
  0
VERTEX
  8
0
 62
7
  6
CONTINUOUS
 10
95.0452388857
 20
200.0681219008
  0
VERTEX
  8
0
 62
7
  6
CONTINUOUS
 10
95.1015427997
 20
200.1601093651
  0
VERTEX
  8
0
 62
7
  6
CONTINUOUS
 10
95.167478687
 20
200.2392369015
  0
SEQEND
  0
POLYLINE
  8
0
 62
7
  6
CONTINUOUS
 66
1
 70
0
  0
VERTEX
  8
0
 62
7
  6
CONTINUOUS
 10
95.4201835958
 20
200.6325730089
  0
VERTEX
  8
0
 62
7
  6
CONTINUOUS
 10
95.5010684243
 20
200.8275093641
  0
VERTEX
  8
0
 62
7
  6
CONTINUOUS
 10
95.5733027479
 20
201.0843612375
  0
VERTEX
  8
0
 62
7
  6
CONTINUOUS
 10
95.6207450056
 20
201.3716896267
  0
VERTEX
  8
0
 62
7
  6
CONTINUOUS
 10
95.6451283143
 20
201.6853741796
  0
VERTEX
  8
0
 62
7
  6
CONTINUOUS
 10
95.6513047391
 20
201.9945465727
  0
SEQEND
  0
LINE
  8
0
 62
7
  6
CONTINUOUS
 10
95.4201297544
 20
200.6324621042
 11
95.4201835958
 21
200.6325730089
  0
POLYLINE
  8
0
 62
7
  6
CONTINUOUS
 66
1
 70
0
  0
VERTEX
  8
0
 62
7
  6
CONTINUOUS
 10
95.2838432914
 20
200.3740993875
  0
VERTEX
  8
0
 62
7
  6
CONTINUOUS
 10
95.3202857641
 20
200.4391262651
  0
VERTEX
  8
0
 62
7
  6
CONTINUOUS
 10
95.3765990873
 20
200.5452674497
  0
VERTEX
  8
0
 62
7
  6
CONTINUOUS
 10
95.4201305292
 20
200.6324617276
  0
SEQEND
  0
POLYLINE
  8
0
 62
7
  6
CONTINUOUS
 66
1
 70
0
  0
VERTEX
  8
0
 62
7
  6
CONTINUOUS
 10
96.7013033175
 20
200.8732220489
  0
VERTEX
  8
0
 62
7
  6
CONTINUOUS
 10
96.695191358
 20
200.8634256952
  0
VERTEX
  8
0
 62
7
  6
CONTINUOUS
 10
96.6768879266
 20
200.8576940606
  0
VERTEX
  8
0
 62
7
  6
CONTINUOUS
 10
96.6466020036
 20
200.855856363
  0
SEQEND
  0
POLYLINE
  8
0
 62
7
  6
CONTINUOUS
 66
1
 70
0
  0
VERTEX
  8
0
 62
7
  6
CONTINUOUS
 10
95.2462427936
 20
200.3232350236
  0
VERTEX
  8
0
 62
7
  6
CONTINUOUS
 10
95.2801551144
 20
200.3678501217
  0
VERTEX
  8
0
 62
7
  6
CONTINUOUS
 10
95.2838445534
 20
200.3741007922
  0
SEQEND
  0
LINE
  8
0
 62
7
  6
CONTINUOUS
 10
96.7013033175
 20
199.555856363
 11
96.7013033175
 21
204.855856363
  0
LINE
  8
0
 62
7
  6
CONTINUOUS
 10
95.6513030829
 20
201.994641404
 11
95.6513033175
 21
203.455856363
  0
LINE
  8
0
 62
7
  6
CONTINUOUS
 10
104.1273796039
 20
207.7882463814
 11
104.1262287404
 21
207.7889020939
  0
POLYLINE
  8
0
 62
7
  6
CONTINUOUS
 66
1
 70
0
  0
VERTEX
  8
0
 62
7
  6
CONTINUOUS
 10
104.1369360754
 20
207.782609065
  0
VERTEX
  8
0
 62
7
  6
CONTINUOUS
 10
104.121668209
 20
207.791564849
  0
VERTEX
  8
0
 62
7
  6
CONTINUOUS
 10
104.106504798
 20
207.799761128
  0
VERTEX
  8
0
 62
7
  6
CONTINUOUS
 10
104.0914660072
 20
207.8072402097
  0
VERTEX
  8
0
 62
7
  6
CONTINUOUS
 10
104.0765676137
 20
207.8140426074
  0
VERTEX
  8
0
 62
7
  6
CONTINUOUS
 10
104.061820565
 20
207.8202072149
  0
VERTEX
  8
0
 62
7
  6
CONTINUOUS
 10
104.0472271102
 20
207.8257725756
  0
VERTEX
  8
0
 62
7
  6
CONTINUOUS
 10
104.0327840942
 20
207.8307749651
  0
VERTEX
  8
0
 62
7
  6
CONTINUOUS
 10
104.0184851349
 20
207.8352475054
  0
VERTEX
  8
0
 62
7
  6
CONTINUOUS
 10
104.0043210279
 20
207.839220133
  0
VERTEX
  8
0
 62
7
  6
CONTINUOUS
 10
103.9902801501
 20
207.8427195808
  0
VERTEX
  8
0
 62
7
  6
CONTINUOUS
 10
103.9763409575
 20
207.8457709851
  0
VERTEX
  8
0
 62
7
  6
CONTINUOUS
 10
103.9624753113
 20
207.8483962293
  0
VERTEX
  8
0
 62
7
  6
CONTINUOUS
 10
103.9488203544
 20
207.8505882305
  0
VERTEX
  8
0
 62
7
  6
CONTINUOUS
 10
103.9355347346
 20
207.8523512498
  0
VERTEX
  8
0
 62
7
  6
CONTINUOUS
 10
103.922759415
 20
207.8537063201
  0
VERTEX
  8
0
 62
7
  6
CONTINUOUS
 10
103.9105941802
 20
207.8546891595
  0
VERTEX
  8
0
 62
7
  6
CONTINUOUS
 10
103.8991111437
 20
207.855343287
  0
VERTEX
  8
0
 62
7
  6
CONTINUOUS
 10
103.8887152842
 20
207.8557072326
  0
VERTEX
  8
0
 62
7
  6
CONTINUOUS
 10
103.8806383039
 20
207.8558406108
  0
SEQEND
  0
LINE
  8
0
 62
7
  6
CONTINUOUS
 10
104.1416853145
 20
207.7796167162
 11
104.13452266
 21
207.7840189569
  0
LINE
  8
0
 62
7
  6
CONTINUOUS
 10
104.1560714401
 20
207.770259849
 11
104.1488681776
 21
207.7750327503
  0
LINE
  8
0
 62
7
  6
CONTINUOUS
 10
104.1705376712
 20
207.7601169292
 11
104.1632948472
 21
207.7652905067
  0
POLYLINE
  8
0
 62
7
  6
CONTINUOUS
 66
1
 70
0
  0
VERTEX
  8
0
 62
7
  6
CONTINUOUS
 10
112.0878791569
 20
199.1663121249
  0
VERTEX
  8
0
 62
7
  6
CONTINUOUS
 10
112.0914636791
 20
199.1634265189
  0
VERTEX
  8
0
 62
7
  6
CONTINUOUS
 10
112.0989193861
 20
199.1576532356
  0
VERTEX
  8
0
 62
7
  6
CONTINUOUS
 10
112.106453737
 20
199.1520426882
  0
VERTEX
  8
0
 62
7
  6
CONTINUOUS
 10
112.1140609506
 20
199.1465965846
  0
VERTEX
  8
0
 62
7
  6
CONTINUOUS
 10
112.121735176
 20
199.1413164008
  0
VERTEX
  8
0
 62
7
  6
CONTINUOUS
 10
112.1294705018
 20
199.1362033792
  0
VERTEX
  8
0
 62
7
  6
CONTINUOUS
 10
112.1372609655
 20
199.1312585281
  0
VERTEX
  8
0
 62
7
  6
CONTINUOUS
 10
112.1451005631
 20
199.1264826209
  0
VERTEX
  8
0
 62
7
  6
CONTINUOUS
 10
112.1514017783
 20
199.1228003689
  0
SEQEND
  0
LINE
  8
0
 62
7
  6
CONTINUOUS
 10
99.2013033175
 20
199.5557966568
 11
99.2014209483
 21
199.5449521673
  0
LINE
  8
0
 62
7
  6
CONTINUOUS
 10
98.8513033175
 20
199.555856363
 11
98.8513033175
 21
200.655856363
  0
LINE
  8
0
 62
7
  6
CONTINUOUS
 10
99.2013033175
 20
207.3558563436
 11
99.2013033175
 21
199.5558567502
  0
LINE
  8
0
 62
7
  6
CONTINUOUS
 10
99.2013356606
 20
207.3615519956
 11
99.2013033175
 21
207.3558602216
  0
POLYLINE
  8
0
 62
7
  6
CONTINUOUS
 66
1
 70
0
  0
VERTEX
  8
0
 62
7
  6
CONTINUOUS
 10
104.1996703784
 20
207.7372147456
  0
VERTEX
  8
0
 62
7
  6
CONTINUOUS
 10
104.1923676587
 20
207.7432886823
  0
VERTEX
  8
0
 62
7
  6
CONTINUOUS
 10
104.18507612
 20
207.7491244949
  0
VERTEX
  8
0
 62
7
  6
CONTINUOUS
 10
104.1777986827
 20
207.754731041
  0
SEQEND
  0
POLYLINE
  8
0
 62
7
  6
CONTINUOUS
 66
1
 70
0
  0
VERTEX
  8
0
 62
7
  6
CONTINUOUS
 10
104.2289463555
 20
207.7103907239
  0
VERTEX
  8
0
 62
7
  6
CONTINUOUS
 10
104.2137754546
 20
207.7248606851
  0
VERTEX
  8
0
 62
7
  6
CONTINUOUS
 10
104.1984714311
 20
207.7382945384
  0
VERTEX
  8
0
 62
7
  6
CONTINUOUS
 10
104.1830900727
 20
207.7507392469
  0
VERTEX
  8
0
 62
7
  6
CONTINUOUS
 10
104.1676800562
 20
207.7622420341
  0
VERTEX
  8
0
 62
7
  6
CONTINUOUS
 10
104.1522834273
 20
207.7728498752
  0
VERTEX
  8
0
 62
7
  6
CONTINUOUS
 10
104.1369360754
 20
207.782609065
  0
SEQEND
  0
POLYLINE
  8
0
 62
7
  6
CONTINUOUS
 66
1
 70
0
  0
VERTEX
  8
0
 62
7
  6
CONTINUOUS
 10
104.2289118786
 20
207.7103527349
  0
VERTEX
  8
0
 62
7
  6
CONTINUOUS
 10
104.2216067643
 20
207.717472188
  0
VERTEX
  8
0
 62
7
  6
CONTINUOUS
 10
104.2142944964
 20
207.72431591
  0
VERTEX
  8
0
 62
7
  6
CONTINUOUS
 10
104.2069807292
 20
207.7308935919
  0
VERTEX
  8
0
 62
7
  6
CONTINUOUS
 10
104.1996703784
 20
207.7372147456
  0
SEQEND
  0
POLYLINE
  8
0
 62
7
  6
CONTINUOUS
 66
1
 70
0
  0
VERTEX
  8
0
 62
7
  6
CONTINUOUS
 10
99.2014209483
 20
199.5449521673
  0
VERTEX
  8
0
 62
7
  6
CONTINUOUS
 10
99.2119270097
 20
199.453280179
  0
VERTEX
  8
0
 62
7
  6
CONTINUOUS
 10
99.2380547786
 20
199.3676569041
  0
VERTEX
  8
0
 62
7
  6
CONTINUOUS
 10
99.2773241087
 20
199.2907818772
  0
VERTEX
  8
0
 62
7
  6
CONTINUOUS
 10
99.3270978348
 20
199.2242010612
  0
VERTEX
  8
0
 62
7
  6
CONTINUOUS
 10
99.3846833056
 20
199.1688465443
  0
SEQEND
  0
LINE
  8
0
 62
7
  6
CONTINUOUS
 10
104.3763033175
 20
199.5745183894
 11
104.3762931489
 21
207.3590500454
  0
POLYLINE
  8
0
 62
7
  6
CONTINUOUS
 66
1
 70
0
  0
VERTEX
  8
0
 62
7
  6
CONTINUOUS
 10
106.33043814
 20
200.655856363
  0
VERTEX
  8
0
 62
7
  6
CONTINUOUS
 10
106.356267907
 20
200.5839365886
  0
VERTEX
  8
0
 62
7
  6
CONTINUOUS
 10
106.3713651939
 20
200.511687619
  0
VERTEX
  8
0
 62
7
  6
CONTINUOUS
 10
106.3763033621
 20
200.4340862264
  0
SEQEND
  0
POLYLINE
  8
0
 62
7
  6
CONTINUOUS
 66
1
 70
0
  0
VERTEX
  8
0
 62
7
  6
CONTINUOUS
 10
106.3763033175
 20
199.575087817
  0
VERTEX
  8
0
 62
7
  6
CONTINUOUS
 10
106.3841562602
 20
199.4867167101
  0
VERTEX
  8
0
 62
7
  6
CONTINUOUS
 10
106.4075259765
 20
199.4009566616
  0
VERTEX
  8
0
 62
7
  6
CONTINUOUS
 10
106.445732837
 20
199.32057441
  0
VERTEX
  8
0
 62
7
  6
CONTINUOUS
 10
106.4975855647
 20
199.2481725221
  0
VERTEX
  8
0
 62
7
  6
CONTINUOUS
 10
106.5614195706
 20
199.1860895326
  0
VERTEX
  8
0
 62
7
  6
CONTINUOUS
 10
106.6351490155
 20
199.1363126187
  0
VERTEX
  8
0
 62
7
  6
CONTINUOUS
 10
106.7163524841
 20
199.1003894903
  0
VERTEX
  8
0
 62
7
  6
CONTINUOUS
 10
106.8024079616
 20
199.0793637937
  0
VERTEX
  8
0
 62
7
  6
CONTINUOUS
 10
106.8904241022
 20
199.0737672387
  0
VERTEX
  8
0
 62
7
  6
CONTINUOUS
 10
106.9846636368
 20
199.0850075009
  0
SEQEND
  0
LINE
  8
0
 62
7
  6
CONTINUOUS
 10
106.3763033175
 20
199.5751348397
 11
106.3763033175
 21
200.655856363
  0
LINE
  8
0
 62
7
  6
CONTINUOUS
 10
107.4763033175
 20
200.655856363
 11
107.4763033175
 21
200.555856363
  0
LINE
  8
0
 62
7
  6
CONTINUOUS
 10
107.7013033175
 20
200.055856363
 11
107.7013033175
 21
200.555856363
  0
LINE
  8
0
 62
7
  6
CONTINUOUS
 10
108.0096366509
 20
200.655856363
 11
108.0096366509
 21
200.555856363
  0
LINE
  8
0
 62
7
  6
CONTINUOUS
 10
108.1207477832
 20
200.655856363
 11
108.1207477832
 21
200.555856363
  0
LINE
  8
0
 62
7
  6
CONTINUOUS
 10
108.2096366509
 20
200.655856363
 11
108.2096366509
 21
200.555856363
  0
LINE
  8
0
 62
7
  6
CONTINUOUS
 10
108.2763033175
 20
200.655856363
 11
108.2763033175
 21
200.555856363
  0
LINE
  8
0
 62
7
  6
CONTINUOUS
 10
108.2985255186
 20
200.655856363
 11
108.2985255186
 21
200.555856363
  0
LINE
  8
0
 62
7
  6
CONTINUOUS
 10
108.4763033175
 20
200.655856363
 11
108.4763033175
 21
200.555856363
  0
LINE
  8
0
 62
7
  6
CONTINUOUS
 10
109.0096366509
 20
200.655856363
 11
109.0096366509
 21
200.555856363
  0
LINE
  8
0
 62
7
  6
CONTINUOUS
 10
109.1207477196
 20
200.655856363
 11
109.1207477196
 21
200.555856363
  0
LINE
  8
0
 62
7
  6
CONTINUOUS
 10
109.2096366509
 20
200.655856363
 11
109.2096366509
 21
200.555856363
  0
LINE
  8
0
 62
7
  6
CONTINUOUS
 10
109.2763033175
 20
200.655856363
 11
109.2763033175
 21
200.555856363
  0
LINE
  8
0
 62
7
  6
CONTINUOUS
 10
109.2985255821
 20
200.655856363
 11
109.2985255821
 21
200.555856363
  0
LINE
  8
0
 62
7
  6
CONTINUOUS
 10
109.4013033175
 20
200.655856363
 11
109.4013033175
 21
200.055856363
  0
POLYLINE
  8
0
 62
7
  6
CONTINUOUS
 66
1
 70
0
  0
VERTEX
  8
0
 62
7
  6
CONTINUOUS
 10
111.9014068787
 20
199.5456098161
  0
VERTEX
  8
0
 62
7
  6
CONTINUOUS
 10
111.9105899827
 20
199.4598727932
  0
VERTEX
  8
0
 62
7
  6
CONTINUOUS
 10
111.9346770908
 20
199.3761871214
  0
VERTEX
  8
0
 62
7
  6
CONTINUOUS
 10
111.9731708439
 20
199.2975356231
  0
VERTEX
  8
0
 62
7
  6
CONTINUOUS
 10
112.0249479376
 20
199.2266350993
  0
VERTEX
  8
0
 62
7
  6
CONTINUOUS
 10
112.0882973477
 20
199.1659112663
  0
VERTEX
  8
0
 62
7
  6
CONTINUOUS
 10
112.1610078635
 20
199.1173534317
  0
VERTEX
  8
0
 62
7
  6
CONTINUOUS
 10
112.2404979305
 20
199.0823986522
  0
SEQEND
  0
LINE
  8
0
 62
7
  6
CONTINUOUS
 10
111.9014068787
 20
199.5456098161
 11
111.9013033175
 21
199.5557850299
  0
LINE
  8
0
 62
7
  6
CONTINUOUS
 10
111.5513033175
 20
200.655856363
 11
111.5513033175
 21
199.555856363
  0
LINE
  8
0
 62
7
  6
CONTINUOUS
 10
111.9013033175
 20
207.355856363
 11
111.9013033175
 21
199.5558717282
  0
LINE
  8
0
 62
7
  6
CONTINUOUS
 10
117.9013033175
 20
199.555856363
 11
117.9013033175
 21
207.355856363
  0
ARC
  8
0
 62
7
  6
CONTINUOUS
 10
56.5763033175
 20
127.9510661964
 40
3.0
 50
90.0
 51
180.0
  0
ARC
  8
0
 62
7
  6
CONTINUOUS
 10
59.1013033175
 20
129.4860661965
 40
2.0
 50
0.0
 51
34.8898099146
  0
ARC
  8
0
 62
7
  6
CONTINUOUS
 10
71.8013033175
 20
129.4860661964
 40
2.0
 50
0.0
 51
34.8898099186
  0
ARC
  8
0
 62
7
  6
CONTINUOUS
 10
69.1013033175
 20
129.4860661964
 40
2.0
 50
145.1101900814
 51
180.0
  0
ARC
  8
0
 62
7
  6
CONTINUOUS
 10
46.4013033175
 20
129.4860661964
 40
2.0
 50
0.0
 51
34.8898099186
  0
ARC
  8
0
 62
7
  6
CONTINUOUS
 10
66.3013033175
 20
129.2927011594
 40
2.0
 50
180.0
 51
208.43
  0
ARC
  8
0
 62
7
  6
CONTINUOUS
 10
62.9513033175
 20
127.0787843983
 40
2.0
 50
0.0
 51
28.43
  0
ARC
  8
0
 62
7
  6
CONTINUOUS
 10
66.0313049949
 20
122.3460651258
 40
1.0699983227
 50
269.9999999985
 51
359.9999940599
  0
ARC
  8
0
 62
7
  6
CONTINUOUS
 10
51.4013033175
 20
125.9760661964
 40
0.85
 50
180.0
 51
360.0
  0
ARC
  8
0
 62
7
  6
CONTINUOUS
 10
64.1013033175
 20
125.9760661964
 40
0.85
 50
180.0
 51
360.0
  0
ARC
  8
0
 62
7
  6
CONTINUOUS
 10
76.8013033175
 20
125.9760661964
 40
0.85
 50
180.0
 51
360.0
  0
ARC
  8
0
 62
7
  6
CONTINUOUS
 10
60.1266203417
 20
130.2010661964
 40
0.75
 50
34.8898099146
 51
90.0
  0
ARC
  8
0
 62
7
  6
CONTINUOUS
 10
72.8266203417
 20
130.2010661964
 40
0.75
 50
34.8898099186
 51
90.0
  0
ARC
  8
0
 62
7
  6
CONTINUOUS
 10
68.0759862934
 20
130.2010661964
 40
0.75
 50
90.0
 51
145.1101900814
  0
ARC
  8
0
 62
7
  6
CONTINUOUS
 10
47.4266203417
 20
130.2010661964
 40
0.75
 50
34.8898099186
 51
90.0
  0
ARC
  8
0
 62
7
  6
CONTINUOUS
 10
64.8013033175
 20
129.5760661964
 40
0.5
 50
90.0
 51
180.0
  0
ARC
  8
0
 62
7
  6
CONTINUOUS
 10
44.4013033175
 20
133.3010661964
 40
2.35
 50
180.0
 51
270.0
  0
ARC
  8
0
 62
7
  6
CONTINUOUS
 10
50.0513033175
 20
134.5660661963
 40
2.0
 50
180.0
 51
214.8898099146
  0
ARC
  8
0
 62
7
  6
CONTINUOUS
 10
53.5763033175
 20
134.5660661963
 40
2.0
 50
325.1101900854
 51
360.0
  0
ARC
  8
0
 62
7
  6
CONTINUOUS
 10
75.4513033175
 20
134.5660661963
 40
2.0
 50
180.0
 51
214.8898099146
  0
ARC
  8
0
 62
7
  6
CONTINUOUS
 10
78.1513033175
 20
134.5660661963
 40
2.0
 50
325.1101900854
 51
360.0
  0
ARC
  8
0
 62
7
  6
CONTINUOUS
 10
62.7513033175
 20
134.5660661964
 40
2.0
 50
180.0
 51
214.8898099186
  0
ARC
  8
0
 62
7
  6
CONTINUOUS
 10
65.4513033175
 20
134.5660661964
 40
2.0
 50
325.1101900814
 51
360.0
  0
ARC
  8
0
 62
7
  6
CONTINUOUS
 10
68.2713033175
 20
134.7594312334
 40
2.0
 50
0.0
 51
28.43
  0
ARC
  8
0
 62
7
  6
CONTINUOUS
 10
71.6013033175
 20
137.010290974
 40
2.0
 50
180.0
 51
208.43
  0
ARC
  8
0
 62
7
  6
CONTINUOUS
 10
68.5213016432
 20
141.7060672651
 40
1.0699983257
 50
90.0000000008
 51
179.9999940717
  0
ARC
  8
0
 62
7
  6
CONTINUOUS
 10
57.7513033175
 20
138.0760661964
 40
0.85
 50
0.0
 51
180.0
  0
ARC
  8
0
 62
7
  6
CONTINUOUS
 10
70.4513033175
 20
138.0760661964
 40
0.85
 50
0.0
 51
180.0
  0
ARC
  8
0
 62
7
  6
CONTINUOUS
 10
49.0259862933
 20
133.8510661964
 40
0.75
 50
214.8898099146
 51
270.0
  0
ARC
  8
0
 62
7
  6
CONTINUOUS
 10
54.6016203417
 20
133.8510661964
 40
0.75
 50
270.0
 51
325.1101900854
  0
ARC
  8
0
 62
7
  6
CONTINUOUS
 10
74.4259862933
 20
133.8510661964
 40
0.75
 50
214.8898099146
 51
270.0
  0
ARC
  8
0
 62
7
  6
CONTINUOUS
 10
79.1766203417
 20
133.8510661964
 40
0.75
 50
270.0
 51
325.1101900854
  0
ARC
  8
0
 62
7
  6
CONTINUOUS
 10
61.7259862934
 20
133.8510661964
 40
0.75
 50
214.8898099186
 51
270.0
  0
ARC
  8
0
 62
7
  6
CONTINUOUS
 10
66.4766203417
 20
133.8510661964
 40
0.75
 50
270.0
 51
325.1101900814
  0
ARC
  8
0
 62
7
  6
CONTINUOUS
 10
69.7713033175
 20
134.4760661964
 40
0.5
 50
270.0
 51
360.0
  0
ARC
  8
0
 62
7
  6
CONTINUOUS
 10
115.5513033175
 20
130.7510661964
 40
2.35
 50
359.9999931486
 51
90.0000068514
  0
ARC
  8
0
 62
7
  6
CONTINUOUS
 10
84.5013033175
 20
129.4860661965
 40
2.0
 50
0.0
 51
34.8898099146
  0
ARC
  8
0
 62
7
  6
CONTINUOUS
 10
81.8013033175
 20
129.4860661964
 40
2.0
 50
145.1101900814
 51
180.0
  0
ARC
  8
0
 62
7
  6
CONTINUOUS
 10
109.9013033175
 20
129.4860661965
 40
2.0
 50
0.0
 51
34.8898099146
  0
ARC
  8
0
 62
7
  6
CONTINUOUS
 10
106.3763033175
 20
129.4860661964
 40
2.0
 50
145.1101900814
 51
180.0
  0
ARC
  8
0
 62
7
  6
CONTINUOUS
 10
97.2013033175
 20
129.4860661964
 40
2.0
 50
0.0
 51
34.8898099186
  0
ARC
  8
0
 62
7
  6
CONTINUOUS
 10
94.5013033175
 20
129.4860661964
 40
2.0
 50
145.1101900814
 51
180.0
  0
ARC
  8
0
 62
7
  6
CONTINUOUS
 10
91.7013033175
 20
129.2927011594
 40
2.0
 50
180.0
 51
208.43
  0
ARC
  8
0
 62
7
  6
CONTINUOUS
 10
88.3513033175
 20
127.0787843983
 40
2.0
 50
0.0
 51
28.43
  0
ARC
  8
0
 62
7
  6
CONTINUOUS
 10
91.4313049949
 20
122.3460651258
 40
1.0699983227
 50
269.9999999985
 51
359.9999940599
  0
ARC
  8
0
 62
7
  6
CONTINUOUS
 10
89.5013033175
 20
125.9760661964
 40
0.85
 50
180.0
 51
360.0
  0
ARC
  8
0
 62
7
  6
CONTINUOUS
 10
102.2013033175
 20
125.9760661964
 40
0.85
 50
180.0
 51
360.0
  0
ARC
  8
0
 62
7
  6
CONTINUOUS
 10
85.5266203417
 20
130.2010661964
 40
0.75
 50
34.8898099146
 51
90.0
  0
ARC
  8
0
 62
7
  6
CONTINUOUS
 10
80.7759862934
 20
130.2010661964
 40
0.75
 50
90.0
 51
145.1101900814
  0
ARC
  8
0
 62
7
  6
CONTINUOUS
 10
110.9266203417
 20
130.2010661964
 40
0.75
 50
34.8898099146
 51
90.0
  0
ARC
  8
0
 62
7
  6
CONTINUOUS
 10
105.3509862934
 20
130.2010661964
 40
0.75
 50
90.0
 51
145.1101900814
  0
ARC
  8
0
 62
7
  6
CONTINUOUS
 10
98.2266203417
 20
130.2010661964
 40
0.75
 50
34.8898099186
 51
90.0
  0
ARC
  8
0
 62
7
  6
CONTINUOUS
 10
93.4759862934
 20
130.2010661964
 40
0.75
 50
90.0
 51
145.1101900814
  0
ARC
  8
0
 62
7
  6
CONTINUOUS
 10
90.2013033175
 20
129.5760661964
 40
0.5
 50
90.0
 51
180.0
  0
ARC
  8
0
 62
7
  6
CONTINUOUS
 10
103.3763033175
 20
136.1010661964
 40
3.0
 50
270.0
 51
360.0
  0
ARC
  8
0
 62
7
  6
CONTINUOUS
 10
100.8513033175
 20
134.5660661963
 40
2.0
 50
180.0
 51
214.8898099146
  0
ARC
  8
0
 62
7
  6
CONTINUOUS
 10
88.1513033175
 20
134.5660661964
 40
2.0
 50
180.0
 51
214.8898099186
  0
ARC
  8
0
 62
7
  6
CONTINUOUS
 10
90.8513033175
 20
134.5660661964
 40
2.0
 50
325.1101900814
 51
360.0
  0
ARC
  8
0
 62
7
  6
CONTINUOUS
 10
113.5513033175
 20
134.5660661964
 40
2.0
 50
179.9999915584
 51
214.8898007625
  0
ARC
  8
0
 62
7
  6
CONTINUOUS
 10
93.6513033175
 20
134.7594312334
 40
2.0
 50
0.0
 51
28.43
  0
ARC
  8
0
 62
7
  6
CONTINUOUS
 10
97.0013033175
 20
136.9733479944
 40
2.0
 50
180.0
 51
208.43
  0
ARC
  8
0
 62
7
  6
CONTINUOUS
 10
93.9213016432
 20
141.7060672651
 40
1.0699983257
 50
90.0000000008
 51
179.9999940717
  0
ARC
  8
0
 62
7
  6
CONTINUOUS
 10
83.1513033175
 20
138.0760661964
 40
0.85
 50
0.0
 51
180.0
  0
ARC
  8
0
 62
7
  6
CONTINUOUS
 10
95.8513033175
 20
138.0760661964
 40
0.85
 50
0.0
 51
180.0
  0
ARC
  8
0
 62
7
  6
CONTINUOUS
 10
108.5513033175
 20
138.0760661964
 40
0.85
 50
0.0
 51
180.0
  0
ARC
  8
0
 62
7
  6
CONTINUOUS
 10
99.8259862933
 20
133.8510661964
 40
0.75
 50
214.8898099146
 51
270.0
  0
ARC
  8
0
 62
7
  6
CONTINUOUS
 10
87.1259862934
 20
133.8510661964
 40
0.75
 50
214.8898099186
 51
270.0
  0
ARC
  8
0
 62
7
  6
CONTINUOUS
 10
91.8766203417
 20
133.8510661964
 40
0.75
 50
270.0
 51
325.1101900814
  0
ARC
  8
0
 62
7
  6
CONTINUOUS
 10
112.5259862934
 20
133.8510661964
 40
0.75
 50
214.8897855023
 51
270.0000151973
  0
ARC
  8
0
 62
7
  6
CONTINUOUS
 10
95.1513033175
 20
134.4760661964
 40
0.5
 50
270.0
 51
360.0
  0
ARC
  8
0
 62
7
  6
CONTINUOUS
 10
162.2384169332
 20
138.3760661964
 40
4.4
 50
359.9999968291
 51
179.9999946601
  0
ARC
  8
0
 62
7
  6
CONTINUOUS
 10
162.2384169332
 20
125.6760661964
 40
4.4
 50
180.0000049091
 51
359.9997399082
  0
CIRCLE
  8
0
 62
7
  6
CONTINUOUS
 10
162.2384169332
 20
125.6760661964
 40
2.6
  0
CIRCLE
  8
0
 62
7
  6
CONTINUOUS
 10
162.2384169332
 20
138.3760661964
 40
2.6
  0
ARC
  8
0
 62
7
  6
CONTINUOUS
 10
158.8384169332
 20
137.6932458734
 40
1.0
 50
180.000001389
 51
209.99999858
  0
ARC
  8
0
 62
7
  6
CONTINUOUS
 10
158.8384169332
 20
126.3588865194
 40
1.0
 50
150.0
 51
180.0
  0
ARC
  8
0
 62
7
  6
CONTINUOUS
 10
158.4384169332
 20
129.6660661964
 40
1.0
 50
330.0
 51
359.9999979825
  0
ARC
  8
0
 62
7
  6
CONTINUOUS
 10
158.4384169332
 20
134.3860661964
 40
1.0
 50
0.0
 51
30.0
  0
ARC
  8
0
 62
7
  6
CONTINUOUS
 10
166.1384169332
 20
131.4510661964
 40
0.5
 50
270.0
 51
360.0
  0
ARC
  8
0
 62
7
  6
CONTINUOUS
 10
159.9384169332
 20
131.4510661964
 40
0.5
 50
180.0
 51
270.0
  0
ARC
  8
0
 62
7
  6
CONTINUOUS
 10
55.9013033175
 20
200.055856363
 40
1.0
 50
290.4873151147
 51
360.0
  0
ARC
  8
0
 62
7
  6
CONTINUOUS
 10
59.6013033175
 20
200.055856363
 40
1.0
 50
180.0
 51
270.0
  0
ARC
  8
0
 62
7
  6
CONTINUOUS
 10
42.5513125738
 20
199.5558656192
 40
0.5000092562
 50
180.0
 51
270.0
  0
ARC
  8
0
 62
7
  6
CONTINUOUS
 10
56.0763033175
 20
199.5874815131
 40
0.5
 50
180.0
 51
290.4873151147
  0
ARC
  8
0
 62
7
  6
CONTINUOUS
 10
53.0763033175
 20
199.5874815059
 40
0.5
 50
258.0622593163
 51
259.556986145
  0
ARC
  8
0
 62
7
  6
CONTINUOUS
 10
53.0763033175
 20
199.5874815059
 40
0.5
 50
358.5182509211
 51
0.0000008219
  0
ARC
  8
0
 62
7
  6
CONTINUOUS
 10
60.2513033175
 20
199.555856363
 40
0.5
 50
270.0
 51
360.0
  0
ARC
  8
0
 62
7
  6
CONTINUOUS
 10
48.9013013821
 20
199.5558544399
 40
0.4999980645
 50
179.9997796295
 51
270.0002217907
  0
ARC
  8
0
 62
7
  6
CONTINUOUS
 10
47.5513174034
 20
199.5558422771
 40
0.4999859141
 50
269.9983858302
 51
360.0
  0
ARC
  8
0
 62
7
  6
CONTINUOUS
 10
42.5513033175
 20
201.155856363
 40
0.5
 50
180.0
 51
270.0
  0
ARC
  8
0
 62
7
  6
CONTINUOUS
 10
67.9513042999
 20
199.5558573454
 40
0.5000009824
 50
180.0001125744
 51
269.9998874268
  0
ARC
  8
0
 62
7
  6
CONTINUOUS
 10
66.6013023612
 20
199.5558573193
 40
0.5000009564
 50
278.7676462715
 51
279.9956712516
  0
ARC
  8
0
 62
7
  6
CONTINUOUS
 10
61.6013033175
 20
199.555856363
 40
0.5
 50
250.0054967011
 51
262.379970524
  0
ARC
  8
0
 62
7
  6
CONTINUOUS
 10
61.6013033175
 20
199.555856363
 40
0.5
 50
188.179991518
 51
189.9990285466
  0
ARC
  8
0
 62
7
  6
CONTINUOUS
 10
74.3013033175
 20
199.555856363
 40
0.5
 50
229.9999989974
 51
261.3579667706
  0
ARC
  8
0
 62
7
  6
CONTINUOUS
 10
71.8013033175
 20
199.555856363
 40
0.5
 50
180.0
 51
270.0
  0
ARC
  8
0
 62
7
  6
CONTINUOUS
 10
69.1013033175
 20
199.555856363
 40
0.5
 50
270.0
 51
360.0
  0
ARC
  8
0
 62
7
  6
CONTINUOUS
 10
72.9513188596
 20
199.5558408209
 40
0.4999844579
 50
269.9982189534
 51
360.0
  0
ARC
  8
0
 62
7
  6
CONTINUOUS
 10
79.3013039981
 20
199.5558555645
 40
0.4999993269
 50
269.9999220146
 51
0.0000897963
  0
ARC
  8
0
 62
7
  6
CONTINUOUS
 10
71.8013033175
 20
201.155856363
 40
0.5
 50
180.0
 51
270.0
  0
ARC
  8
0
 62
7
  6
CONTINUOUS
 10
48.9013176381
 20
207.3558420424
 40
0.5000143206
 50
90.0
 51
180.0
  0
ARC
  8
0
 62
7
  6
CONTINUOUS
 10
74.3013126114
 20
207.35584704
 40
0.5000095004
 50
90.0010646698
 51
179.9988846377
  0
ARC
  8
0
 62
7
  6
CONTINUOUS
 10
61.6013045499
 20
207.3558551293
 40
0.5000012529
 50
90.0001412133
 51
179.9998539172
  0
ARC
  8
0
 62
7
  6
CONTINUOUS
 10
42.5513033175
 20
207.355856363
 40
0.5
 50
90.0
 51
180.0
  0
ARC
  8
0
 62
7
  6
CONTINUOUS
 10
81.3013033175
 20
200.055856363
 40
1.0
 50
270.0
 51
360.0
  0
ARC
  8
0
 62
7
  6
CONTINUOUS
 10
85.0013033175
 20
200.055856363
 40
1.0
 50
180.0
 51
270.0
  0
ARC
  8
0
 62
7
  6
CONTINUOUS
 10
106.7013033175
 20
200.055856363
 40
1.0
 50
290.4873151147
 51
360.0
  0
ARC
  8
0
 62
7
  6
CONTINUOUS
 10
110.4013033175
 20
200.055856363
 40
1.0
 50
180.0
 51
270.0
  0
ARC
  8
0
 62
7
  6
CONTINUOUS
 10
80.6513045712
 20
199.5558576166
 40
0.5000012537
 50
180.0001436618
 51
269.9998563412
  0
ARC
  8
0
 62
7
  6
CONTINUOUS
 10
93.3513042999
 20
199.5558573454
 40
0.5000009824
 50
180.0001125744
 51
269.9998874268
  0
ARC
  8
0
 62
7
  6
CONTINUOUS
 10
92.0013023612
 20
199.5558573193
 40
0.5000009564
 50
278.7681825568
 51
279.9956699219
  0
ARC
  8
0
 62
7
  6
CONTINUOUS
 10
117.4013033175
 20
199.555856363
 40
0.5
 50
270.0
 51
360.0
  0
ARC
  8
0
 62
7
  6
CONTINUOUS
 10
111.0513033175
 20
199.555856363
 40
0.5
 50
270.0
 51
360.0
  0
ARC
  8
0
 62
7
  6
CONTINUOUS
 10
87.0013033175
 20
199.555856363
 40
0.5
 50
250.0203297639
 51
260.5496668688
  0
ARC
  8
0
 62
7
  6
CONTINUOUS
 10
98.3513033175
 20
199.555856363
 40
0.5
 50
270.0
 51
360.0
  0
ARC
  8
0
 62
7
  6
CONTINUOUS
 10
106.8763033175
 20
199.5874815131
 40
0.5
 50
180.0
 51
290.4873151147
  0
ARC
  8
0
 62
7
  6
CONTINUOUS
 10
112.4013033175
 20
199.555856363
 40
0.5
 50
240.0152744168
 51
260.5386087103
  0
ARC
  8
0
 62
7
  6
CONTINUOUS
 10
103.8763033175
 20
199.5874815059
 40
0.5
 50
258.0620339444
 51
259.556986145
  0
ARC
  8
0
 62
7
  6
CONTINUOUS
 10
103.8763033175
 20
199.5874815059
 40
0.5
 50
358.5183425201
 51
0.0000008219
  0
ARC
  8
0
 62
7
  6
CONTINUOUS
 10
85.6513033175
 20
199.555856363
 40
0.5
 50
270.0
 51
360.0
  0
ARC
  8
0
 62
7
  6
CONTINUOUS
 10
99.7013033175
 20
199.555856363
 40
0.5
 50
229.9999989974
 51
261.3579612725
  0
ARC
  8
0
 62
7
  6
CONTINUOUS
 10
97.2013033175
 20
201.155856363
 40
0.5
 50
180.0
 51
270.0
  0
ARC
  8
0
 62
7
  6
CONTINUOUS
 10
97.2013033175
 20
199.555856363
 40
0.5
 50
180.0
 51
270.0
  0
ARC
  8
0
 62
7
  6
CONTINUOUS
 10
94.5013033175
 20
199.555856363
 40
0.5
 50
270.0
 51
360.0
  0
ARC
  8
0
 62
7
  6
CONTINUOUS
 10
99.7013126126
 20
207.3558470389
 40
0.5000095016
 50
90.0010647939
 51
179.9988845046
  0
ARC
  8
0
 62
7
  6
CONTINUOUS
 10
112.4013039243
 20
207.3558557525
 40
0.5000006207
 50
90.0000695267
 51
179.9999268583
  0
ARC
  8
0
 62
7
  6
CONTINUOUS
 10
117.4013033175
 20
207.355856363
 40
0.5
 50
0.0
 51
90.0
  0
ARC
  8
0
 62
7
  6
CONTINUOUS
 10
87.0013032345
 20
207.3558564516
 40
0.4999999252
 50
89.9999904772
 51
180.0000082552
  0
ENDSEC
  0
EOF
