  0
SECTION
  2
HEADER
  9
$EXTMAX
 10
210.0
 20
297.0
 30
0.0
  9
$EXTMIN
 10
0.0
 20
0.0
 30
0.0
  9
$LIMMIN
 10
0.0
 20
0.0
  9
$LIMMAX
 10
210.0
 20
297.0
  9
$VIEWCTR
 10
105.0
 20
148.5
  9
$VIEWSIZE
 40
297.0
  9
$CLAYER
  8
0
  9
$LTSCALE
 40
19.36
  9
$CELTYPE
  6
BYLAYER
  9
$DIMSCALE
 40
1.0
  9
$DIMASZ
 40
3.5
  9
$DIMEXO
 40
2.2
  9
$DIMDLI
 40
13.376
  9
$DIMEXE
 40
6.336
  9
$DIMCEN
 40
3.168
  9
$DIMLFAC
 40
1.0
  9
$DIMBLK
  1
_FILLED
  9
$DIMTXT
 40
3.5
  9
$PDMODE
 70
3
  9
$PDSIZE
 40
0.3125
  9
$TILEMODE
 70
1
  0
ENDSEC
  0
SECTION
  2
TABLES
  0
TABLE
  2
LTYPE
 70
6
  0
LTYPE
  2
BYBLOCK
 70
0
  3

 72
65
 73
0
 40
0.0
  0
LTYPE
  2
BYLAYER
 70
0
  3

 72
65
 73
0
 40
0.0
  0
LTYPE
  2
CONTINUOUS
 70
64
  3
Solid line
 72
65
 73
0
 40
0.0
  0
LTYPE
  2
CENTER
 70
64
  3
____ _ ____ _ ____ _ ____ _ ____ _ ____ _ ____
 72
65
 73
4
 40
0.6
 49
0.375
 49
-0.075
 49
0.075
 49
-0.075
  0
LTYPE
  2
HIDDEN
 70
64
  3
- - - - - - - - - - - - - - - - - - - -
 72
65
 73
2
 40
0.2
 49
0.1
 49
-0.1
  0
LTYPE
  2
PHANTOM
 70
64
  3
_____ _ _ _____ _ _ _____ _ _ _____
 72
65
 73
6
 40
0.8
 49
0.45
 49
-0.05
 49
0.1
 49
-0.05
 49
0.1
 49
-0.05
  0
LTYPE
  2
DOT
 70
64
  3
. . . . . . . . . . . . . . . . . . . .
 72
65
 73
2
 40
0.2
 49
0.1
 49
-0.1
  0
LTYPE
  2
DASHED
 70
64
  3
- - - - - - - - - - - - - - - - - - - -
 72
65
 73
2
 40
0.2
 49
0.1
 49
-0.1
  0
ENDTAB
  0
TABLE
  2
LAYER
 70
36
  0
LAYER
  2
0
 70
0
 62
7
  6
CONTINUOUS
  0
LAYER
  2
DEFAULT_1
 70
0
 62
7
  6
CENTER
  0
LAYER
  2
DEFAULT_2
 70
0
 62
8
  6
HIDDEN
  0
LAYER
  2
DEFAULT_3
 70
0
 62
7
  6
PHANTOM
  0
LAYER
  2
1_CSYS
 70
0
 62
7
  6
CONTINUOUS
  0
LAYER
  2
1_DATUM_PLANE
 70
0
 62
7
  6
CONTINUOUS
  0
LAYER
  2
2_FEATURE
 70
0
 62
7
  6
CONTINUOUS
  0
LAYER
  2
6_DIM
 70
0
 62
7
  6
CONTINUOUS
  0
LAYER
  2
AXES
 70
0
 62
7
  6
CONTINUOUS
  0
LAYER
  2
CSYS
 70
0
 62
7
  6
CONTINUOUS
  0
LAYER
  2
NOTES
 70
0
 62
7
  6
CONTINUOUS
  0
LAYER
  2
PLANES
 70
0
 62
7
  6
CONTINUOUS
  0
LAYER
  2
QUILTS
 70
0
 62
7
  6
CONTINUOUS
  0
ENDTAB
  0
TABLE
  2
STYLE
 70
1
  0
STYLE
  2
STANDARD
 70
0
 40
0.0
 41
0.8
 50
0.0
 71
0
 42
0.2
  3
txt
  4

  0
STYLE
  2
TEXTSTYLE_1
 70
0
 40
0.0
 41
0.8
 50
0.0
 71
0
 42
0.2
  3
gdt
  4

  0
STYLE
  2
TEXTSTYLE_2
 70
0
 40
0.0
 41
0.6
 50
0.0
 71
0
 42
0.2
  3
txt
  4

  0
STYLE
  2
TEXTSTYLE_3
 70
0
 40
0.0
 41
1.0
 50
0.0
 71
0
 42
0.2
  3
ftb_____.ttf
  4

  0
STYLE
  2
TEXTSTYLE_4
 70
0
 40
0.0
 41
1.0
 50
0.0
 71
0
 42
0.2
  3
fti_____.ttf
  4

  0
STYLE
  2
TEXTSTYLE_5
 70
0
 40
0.0
 41
1.0
 50
0.0
 71
0
 42
0.2
  3
frutiger light.ttf
  4

  0
STYLE
  2
TEXTSTYLE_6
 70
0
 40
0.0
 41
0.7
 50
0.0
 71
0
 42
0.2
  3
txt
  4

  0
STYLE
  2
TEXTSTYLE_7
 70
0
 40
0.0
 41
0.6
 50
0.0
 71
0
 42
0.2
  3
txt
  4

  0
ENDTAB
  0
ENDSEC
  0
SECTION
  2
BLOCKS
  0
BLOCK
  8
0
 62
2
  6
CONTINUOUS
  2
SYMBOL_8_BL1
 70
64
 10
173.5956734183
 20
35.5937998301
  0
TEXT
  8
0
 62
7
  6
CONTINUOUS
 10
164.6539584268
 20
30.6865562072
  7
TEXTSTYLE_4
 40
1.0655737705
  1
The brand for plastic modular belts and chains
 41
1.0
 72
0
  0
LINE
  8
0
 62
7
  6
CONTINUOUS
 10
149.5737418074
 20
36.1675703219
 11
149.5737418074
 21
34.0364227809
  0
LINE
  8
0
 62
7
  6
CONTINUOUS
 10
149.8628043005
 20
31.0454914852
 11
149.8628043005
 21
31.1422825445
  0
LINE
  8
0
 62
7
  6
CONTINUOUS
 10
149.5737418074
 20
31.1100188581
 11
149.6315543091
 21
30.9164367395
  0
LINE
  8
0
 62
7
  6
CONTINUOUS
 10
150.9671844304
 20
33.9544555678
 11
150.9671844304
 21
36.1675703219
  0
LINE
  8
0
 62
7
  6
CONTINUOUS
 10
151.8862417523
 20
32.1101932727
 11
151.8862417523
 21
30.5937998301
  0
LINE
  8
0
 62
7
  6
CONTINUOUS
 10
152.1753043074
 20
30.5937998301
 11
152.1753043074
 21
31.3358647082
  0
LINE
  8
0
 62
7
  6
CONTINUOUS
 10
152.1753043074
 20
31.4649194539
 11
152.1753043074
 21
32.1101932727
  0
LINE
  8
0
 62
7
  6
CONTINUOUS
 10
149.6315543091
 20
31.3036010218
 11
149.5737418074
 21
31.1100188581
  0
LINE
  8
0
 62
7
  6
CONTINUOUS
 10
149.9784292936
 20
30.8841730531
 11
149.8628043005
 21
31.0454914852
  0
LINE
  8
0
 62
7
  6
CONTINUOUS
 10
151.0768668626
 20
31.400392081
 11
151.1346793074
 21
31.3036010218
  0
LINE
  8
0
 62
7
  6
CONTINUOUS
 10
151.4237418626
 20
31.3036010218
 11
151.3659292523
 21
31.4326557675
  0
LINE
  8
0
 62
7
  6
CONTINUOUS
 10
152.852430332
 20
36.1675703219
 11
152.852430332
 21
34.3642916334
  0
LINE
  8
0
 62
7
  6
CONTINUOUS
 10
152.852430332
 20
33.0528162235
 11
152.852430332
 21
32.3970785186
  0
LINE
  8
0
 62
7
  6
CONTINUOUS
 10
153.2159293074
 20
31.2390736489
 11
153.2159293074
 21
30.5937998301
  0
LINE
  8
0
 62
7
  6
CONTINUOUS
 10
153.5049916972
 20
30.5937998301
 11
153.5049916972
 21
31.2390736489
  0
LINE
  8
0
 62
7
  6
CONTINUOUS
 10
149.8628043005
 20
31.1422825445
 11
149.9206168074
 21
31.2713373354
  0
LINE
  8
0
 62
7
  6
CONTINUOUS
 10
149.6315543091
 20
30.9164367395
 11
149.7471793074
 21
30.7873819712
  0
LINE
  8
0
 62
7
  6
CONTINUOUS
 10
153.1581166972
 20
31.3681283946
 11
153.2159293074
 21
31.2390736489
  0
LINE
  8
0
 62
7
  6
CONTINUOUS
 10
153.9674919177
 20
30.8841730531
 11
154.0253041972
 21
30.7551182848
  0
LINE
  8
0
 62
7
  6
CONTINUOUS
 10
153.5049916972
 20
31.2390736489
 11
153.4471794177
 21
31.400392081
  0
LINE
  8
0
 62
7
  6
CONTINUOUS
 10
153.9674919177
 20
31.4326557675
 11
153.9674919177
 21
31.3681283946
  0
LINE
  8
0
 62
7
  6
CONTINUOUS
 10
153.9674919177
 20
30.9809641124
 11
153.9674919177
 21
30.8841730531
  0
LINE
  8
0
 62
7
  6
CONTINUOUS
 10
154.245872955
 20
32.3970785186
 11
154.245872955
 21
36.1675703219
  0
LINE
  8
0
 62
7
  6
CONTINUOUS
 10
154.2565543074
 20
30.8519093441
 11
154.2565543074
 21
30.9164367395
  0
LINE
  8
0
 62
7
  6
CONTINUOUS
 10
154.5737418074
 20
36.1675703219
 11
154.5737418074
 21
32.3970785186
  0
LINE
  8
0
 62
7
  6
CONTINUOUS
 10
151.3659292523
 20
30.7873819712
 11
151.4237418626
 21
30.9164367395
  0
LINE
  8
0
 62
7
  6
CONTINUOUS
 10
155.759679528
 20
30.6905909007
 11
155.7018665869
 21
30.8519093441
  0
LINE
  8
0
 62
7
  6
CONTINUOUS
 10
155.412804528
 20
31.3681283946
 11
155.412804528
 21
31.2713373354
  0
LINE
  8
0
 62
7
  6
CONTINUOUS
 10
155.412804528
 20
31.1422825445
 11
155.412804528
 21
30.9487004259
  0
LINE
  8
0
 62
7
  6
CONTINUOUS
 10
155.7018665869
 20
30.8519093441
 11
155.7018665869
 21
31.3681283946
  0
LINE
  8
0
 62
7
  6
CONTINUOUS
 10
155.9671844304
 20
32.3970785186
 11
155.9671844304
 21
34.2003572071
  0
LINE
  8
0
 62
7
  6
CONTINUOUS
 10
155.9671844304
 20
35.511832617
 11
155.9671844304
 21
36.1675703219
  0
LINE
  8
0
 62
7
  6
CONTINUOUS
 10
156.279992028
 20
32.1101932727
 11
156.279992028
 21
31.9488748406
  0
LINE
  8
0
 62
7
  6
CONTINUOUS
 10
156.279992028
 20
31.626237886
 11
156.279992028
 21
30.5937998301
  0
LINE
  8
0
 62
7
  6
CONTINUOUS
 10
156.5690540869
 20
30.5937998301
 11
156.5690540869
 21
31.626237886
  0
LINE
  8
0
 62
7
  6
CONTINUOUS
 10
156.5690540869
 20
31.9488748406
 11
156.5690540869
 21
32.1101932727
  0
LINE
  8
0
 62
7
  6
CONTINUOUS
 10
151.1346793074
 20
30.9164367395
 11
151.0768668626
 21
30.8196456577
  0
LINE
  8
0
 62
7
  6
CONTINUOUS
 10
153.4471794177
 20
31.400392081
 11
153.3893668074
 21
31.4649194539
  0
LINE
  8
0
 62
7
  6
CONTINUOUS
 10
154.3143669177
 20
30.7873819712
 11
154.2565543074
 21
30.8519093441
  0
LINE
  8
0
 62
7
  6
CONTINUOUS
 10
155.4706168074
 20
30.6583272086
 11
155.5284290869
 21
30.5937998301
  0
LINE
  8
0
 62
7
  6
CONTINUOUS
 10
155.412804528
 20
30.7551182848
 11
155.4706168074
 21
30.6583272086
  0
LINE
  8
0
 62
7
  6
CONTINUOUS
 10
155.8174918074
 20
30.5937998301
 11
155.759679528
 21
30.6905909007
  0
LINE
  8
0
 62
7
  6
CONTINUOUS
 10
155.7018665869
 20
31.3681283946
 11
155.6440543074
 21
31.4649194539
  0
LINE
  8
0
 62
7
  6
CONTINUOUS
 10
157.0315543074
 20
31.626237886
 11
157.0315543074
 21
30.5937998301
  0
LINE
  8
0
 62
7
  6
CONTINUOUS
 10
157.320617028
 20
30.5937998301
 11
157.320617028
 21
31.3358647082
  0
LINE
  8
0
 62
7
  6
CONTINUOUS
 10
157.320617028
 20
31.4649194539
 11
157.320617028
 21
31.626237886
  0
LINE
  8
0
 62
7
  6
CONTINUOUS
 10
157.852430332
 20
34.6101932727
 11
157.852430332
 21
32.3970785186
  0
LINE
  8
0
 62
7
  6
CONTINUOUS
 10
149.7471793074
 20
31.4326557675
 11
149.6315543091
 21
31.3036010218
  0
LINE
  8
0
 62
7
  6
CONTINUOUS
 10
149.9206168074
 20
31.2713373354
 11
149.9784292936
 21
31.3358647082
  0
LINE
  8
0
 62
7
  6
CONTINUOUS
 10
149.7471793074
 20
30.7873819712
 11
149.8628043005
 21
30.7228545871
  0
LINE
  8
0
 62
7
  6
CONTINUOUS
 10
150.1518667936
 20
30.7873819712
 11
149.9784292936
 21
30.8841730531
  0
LINE
  8
0
 62
7
  6
CONTINUOUS
 10
155.3549915869
 20
31.4326557675
 11
155.412804528
 21
31.3681283946
  0
LINE
  8
0
 62
7
  6
CONTINUOUS
 10
158.3034290869
 20
31.3681283946
 11
158.361242028
 21
31.2068099625
  0
LINE
  8
0
 62
7
  6
CONTINUOUS
 10
158.6503040869
 20
31.2068099625
 11
158.5924918074
 21
31.3681283946
  0
LINE
  8
0
 62
7
  6
CONTINUOUS
 10
158.361242028
 20
31.2068099625
 11
158.361242028
 21
30.5937998301
  0
LINE
  8
0
 62
7
  6
CONTINUOUS
 10
158.6503040869
 20
30.5937998301
 11
158.6503040869
 21
31.2068099625
  0
LINE
  8
0
 62
7
  6
CONTINUOUS
 10
159.1128043074
 20
31.4326557675
 11
159.1128043074
 21
31.3681283946
  0
LINE
  8
0
 62
7
  6
CONTINUOUS
 10
159.245872955
 20
32.3970785186
 11
159.245872955
 21
34.5282260596
  0
LINE
  8
0
 62
7
  6
CONTINUOUS
 10
159.5737418074
 20
36.1675703219
 11
159.5737418074
 21
32.3970785186
  0
LINE
  8
0
 62
7
  6
CONTINUOUS
 10
154.2565543074
 20
30.9164367395
 11
154.3143669177
 21
31.0132277988
  0
LINE
  8
0
 62
7
  6
CONTINUOUS
 10
149.8628043005
 20
30.7228545871
 11
150.0362418212
 21
30.6583272086
  0
LINE
  8
0
 62
7
  6
CONTINUOUS
 10
151.3659292523
 20
31.4326557675
 11
151.1924917523
 21
31.5294468267
  0
LINE
  8
0
 62
7
  6
CONTINUOUS
 10
154.0253041972
 20
30.7551182848
 11
154.1987416972
 21
30.6583272086
  0
LINE
  8
0
 62
7
  6
CONTINUOUS
 10
153.0424918074
 20
31.4326557675
 11
153.1581166972
 21
31.3681283946
  0
LINE
  8
0
 62
7
  6
CONTINUOUS
 10
153.3893668074
 20
31.4649194539
 11
153.2737419177
 21
31.5294468267
  0
LINE
  8
0
 62
7
  6
CONTINUOUS
 10
159.1128043074
 20
30.8519093441
 11
159.228429528
 21
30.7228545871
  0
LINE
  8
0
 62
7
  6
CONTINUOUS
 10
159.4596793074
 20
30.7873819712
 11
159.401867028
 21
30.8519093441
  0
LINE
  8
0
 62
7
  6
CONTINUOUS
 10
159.1128043074
 20
31.3681283946
 11
159.228429528
 21
31.2390736489
  0
LINE
  8
0
 62
7
  6
CONTINUOUS
 10
158.5924918074
 20
31.3681283946
 11
158.534679528
 21
31.4649194539
  0
LINE
  8
0
 62
7
  6
CONTINUOUS
 10
160.9628038663
 20
30.7873819712
 11
160.9628038663
 21
30.8519093441
  0
LINE
  8
0
 62
7
  6
CONTINUOUS
 10
160.9671844304
 20
32.3970785186
 11
160.9671844304
 21
36.1675703219
  0
LINE
  8
0
 62
7
  6
CONTINUOUS
 10
154.0253041972
 20
31.4971831403
 11
153.9674919177
 21
31.4326557675
  0
LINE
  8
0
 62
7
  6
CONTINUOUS
 10
150.9034292799
 20
31.4649194539
 11
151.0768668626
 21
31.400392081
  0
LINE
  8
0
 62
7
  6
CONTINUOUS
 10
155.6440543074
 20
31.4649194539
 11
155.5284290869
 21
31.5294468267
  0
LINE
  8
0
 62
7
  6
CONTINUOUS
 10
159.4596793074
 20
31.3036010218
 11
159.401867028
 21
31.3681283946
  0
LINE
  8
0
 62
7
  6
CONTINUOUS
 10
160.615929528
 20
30.9164367395
 11
160.6737418074
 21
30.8519093441
  0
LINE
  8
0
 62
7
  6
CONTINUOUS
 10
160.9628038663
 20
30.8519093441
 11
160.8471793074
 21
30.9809641124
  0
LINE
  8
0
 62
7
  6
CONTINUOUS
 10
160.615929528
 20
31.4326557675
 11
160.6737418074
 21
31.3681283946
  0
LINE
  8
0
 62
7
  6
CONTINUOUS
 10
160.9628038663
 20
31.3681283946
 11
160.8471793074
 21
31.4971831403
  0
LINE
  8
0
 62
7
  6
CONTINUOUS
 10
154.2565543074
 20
31.3681283946
 11
154.3143669177
 21
31.4326557675
  0
LINE
  8
0
 62
7
  6
CONTINUOUS
 10
154.0831168074
 20
31.1100188581
 11
153.9674919177
 21
30.9809641124
  0
LINE
  8
0
 62
7
  6
CONTINUOUS
 10
155.412804528
 20
30.9487004259
 11
155.3549915869
 21
30.8841730531
  0
LINE
  8
0
 62
7
  6
CONTINUOUS
 10
155.3549915869
 20
30.6905909007
 11
155.412804528
 21
30.7551182848
  0
LINE
  8
0
 62
7
  6
CONTINUOUS
 10
154.1987416972
 20
30.6583272086
 11
154.3143669177
 21
30.6260635193
  0
LINE
  8
0
 62
7
  6
CONTINUOUS
 10
151.1924917523
 20
31.5294468267
 11
150.9612418074
 21
31.5939741996
  0
LINE
  8
0
 62
7
  6
CONTINUOUS
 10
154.5456166972
 20
30.7228545871
 11
154.3143669177
 21
30.7873819712
  0
LINE
  8
0
 62
7
  6
CONTINUOUS
 10
153.2737419177
 20
31.5294468267
 11
153.1003044177
 21
31.5939741996
  0
LINE
  8
0
 62
7
  6
CONTINUOUS
 10
155.5284290869
 20
31.5294468267
 11
155.3549915869
 21
31.5939741996
  0
LINE
  8
0
 62
7
  6
CONTINUOUS
 10
158.187804528
 20
31.4326557675
 11
158.3034290869
 21
31.3681283946
  0
LINE
  8
0
 62
7
  6
CONTINUOUS
 10
158.534679528
 20
31.4649194539
 11
158.4190543074
 21
31.5294468267
  0
LINE
  8
0
 62
7
  6
CONTINUOUS
 10
150.0362418212
 20
30.6583272086
 11
150.2096793212
 21
30.6260635193
  0
LINE
  8
0
 62
7
  6
CONTINUOUS
 10
150.498741835
 20
30.7228545871
 11
150.1518667936
 21
30.7873819712
  0
LINE
  8
0
 62
7
  6
CONTINUOUS
 10
152.9268669177
 20
31.4649194539
 11
153.0424918074
 21
31.4326557675
  0
LINE
  8
0
 62
7
  6
CONTINUOUS
 10
155.239367028
 20
31.4649194539
 11
155.3549915869
 21
31.4326557675
  0
LINE
  8
0
 62
7
  6
CONTINUOUS
 10
159.575304528
 20
30.7551182848
 11
159.4596793074
 21
30.7873819712
  0
LINE
  8
0
 62
7
  6
CONTINUOUS
 10
158.0721793074
 20
31.4649194539
 11
158.187804528
 21
31.4326557675
  0
LINE
  8
0
 62
7
  6
CONTINUOUS
 10
159.228429528
 20
30.7228545871
 11
159.401867028
 21
30.6583272086
  0
LINE
  8
0
 62
7
  6
CONTINUOUS
 10
158.4190543074
 20
31.5294468267
 11
158.2456168074
 21
31.5939741996
  0
LINE
  8
0
 62
7
  6
CONTINUOUS
 10
159.6331168074
 20
31.2390736489
 11
159.4596793074
 21
31.3036010218
  0
LINE
  8
0
 62
7
  6
CONTINUOUS
 10
160.442492028
 20
30.9809641124
 11
160.615929528
 21
30.9164367395
  0
LINE
  8
0
 62
7
  6
CONTINUOUS
 10
160.8471793074
 20
31.4971831403
 11
160.6737418074
 21
31.5617105132
  0
LINE
  8
0
 62
7
  6
CONTINUOUS
 10
159.228429528
 20
31.2390736489
 11
159.4596793074
 21
31.1422825445
  0
LINE
  8
0
 62
7
  6
CONTINUOUS
 10
160.8471793074
 20
30.9809641124
 11
160.615929528
 21
31.0777551716
  0
LINE
  8
0
 62
7
  6
CONTINUOUS
 10
159.401867028
 20
31.3681283946
 11
159.4596793074
 21
31.4326557675
  0
LINE
  8
0
 62
7
  6
CONTINUOUS
 10
149.8628043005
 20
31.4971831403
 11
149.7471793074
 21
31.4326557675
  0
LINE
  8
0
 62
7
  6
CONTINUOUS
 10
149.9784292936
 20
31.3358647082
 11
150.1518667936
 21
31.4326557675
  0
LINE
  8
0
 62
7
  6
CONTINUOUS
 10
152.2909293626
 20
31.5294468267
 11
152.1753043074
 21
31.4649194539
  0
LINE
  8
0
 62
7
  6
CONTINUOUS
 10
152.1753043074
 20
31.3358647082
 11
152.2909293626
 21
31.400392081
  0
LINE
  8
0
 62
7
  6
CONTINUOUS
 10
151.1924917523
 20
30.6905909007
 11
151.3659292523
 21
30.7873819712
  0
LINE
  8
0
 62
7
  6
CONTINUOUS
 10
150.2096793212
 20
30.6260635193
 11
150.5565542799
 21
30.5937998301
  0
LINE
  8
0
 62
7
  6
CONTINUOUS
 10
154.3143669177
 20
30.6260635193
 11
154.5456166972
 21
30.5937998301
  0
LINE
  8
0
 62
7
  6
CONTINUOUS
 10
152.6956168074
 20
31.4971831403
 11
152.9268669177
 21
31.4649194539
  0
LINE
  8
0
 62
7
  6
CONTINUOUS
 10
155.0081169177
 20
31.4971831403
 11
155.239367028
 21
31.4649194539
  0
LINE
  8
0
 62
7
  6
CONTINUOUS
 10
159.4596793074
 20
31.1422825445
 11
160.442492028
 21
30.9809641124
  0
LINE
  8
0
 62
7
  6
CONTINUOUS
 10
160.615929528
 20
31.0777551716
 11
159.6331168074
 21
31.2390736489
  0
LINE
  8
0
 62
7
  6
CONTINUOUS
 10
153.1003044177
 20
31.5939741996
 11
152.9268669177
 21
31.626237886
  0
LINE
  8
0
 62
7
  6
CONTINUOUS
 10
159.401867028
 20
30.6583272086
 11
159.575304528
 21
30.6260635193
  0
LINE
  8
0
 62
7
  6
CONTINUOUS
 10
158.2456168074
 20
31.5939741996
 11
158.0721793074
 21
31.626237886
  0
LINE
  8
0
 62
7
  6
CONTINUOUS
 10
160.5003043074
 20
31.4649194539
 11
160.615929528
 21
31.4326557675
  0
LINE
  8
0
 62
7
  6
CONTINUOUS
 10
160.6737418074
 20
30.8519093441
 11
160.615929528
 21
30.7873819712
  0
LINE
  8
0
 62
7
  6
CONTINUOUS
 10
159.228429528
 20
31.5294468267
 11
159.1128043074
 21
31.4326557675
  0
LINE
  8
0
 62
7
  6
CONTINUOUS
 10
154.1409294177
 20
31.5617105132
 11
154.0253041972
 21
31.4971831403
  0
LINE
  8
0
 62
7
  6
CONTINUOUS
 10
154.1987416972
 20
31.1745462761
 11
154.0831168074
 21
31.1100188581
  0
LINE
  8
0
 62
7
  6
CONTINUOUS
 10
154.3143669177
 20
31.0132277988
 11
154.4299918074
 21
31.0777551716
  0
LINE
  8
0
 62
7
  6
CONTINUOUS
 10
151.8862417523
 20
30.5937998301
 11
152.1753043074
 21
30.5937998301
  0
LINE
  8
0
 62
7
  6
CONTINUOUS
 10
153.2159293074
 20
30.5937998301
 11
153.5049916972
 21
30.5937998301
  0
LINE
  8
0
 62
7
  6
CONTINUOUS
 10
154.5456166972
 20
30.5937998301
 11
154.8924916972
 21
30.5937998301
  0
LINE
  8
0
 62
7
  6
CONTINUOUS
 10
155.5284290869
 20
30.5937998301
 11
155.8174918074
 21
30.5937998301
  0
LINE
  8
0
 62
7
  6
CONTINUOUS
 10
156.279992028
 20
30.5937998301
 11
156.5690540869
 21
30.5937998301
  0
LINE
  8
0
 62
7
  6
CONTINUOUS
 10
157.0315543074
 20
30.5937998301
 11
157.320617028
 21
30.5937998301
  0
LINE
  8
0
 62
7
  6
CONTINUOUS
 10
158.361242028
 20
30.5937998301
 11
158.6503040869
 21
30.5937998301
  0
LINE
  8
0
 62
7
  6
CONTINUOUS
 10
159.922179528
 20
30.5937998301
 11
160.269054528
 21
30.5937998301
  0
LINE
  8
0
 62
7
  6
CONTINUOUS
 10
160.269054528
 20
30.7228545871
 11
159.922179528
 21
30.7228545871
  0
LINE
  8
0
 62
7
  6
CONTINUOUS
 10
154.8924916972
 20
30.7228545871
 11
154.5456166972
 21
30.7228545871
  0
LINE
  8
0
 62
7
  6
CONTINUOUS
 10
159.401867028
 20
30.8519093441
 11
159.1128043074
 21
30.8519093441
  0
LINE
  8
0
 62
7
  6
CONTINUOUS
 10
151.4237418626
 20
30.9164367395
 11
151.1346793074
 21
30.9164367395
  0
LINE
  8
0
 62
7
  6
CONTINUOUS
 10
150.498741835
 20
31.4971831403
 11
150.9034292799
 21
31.4649194539
  0
LINE
  8
0
 62
7
  6
CONTINUOUS
 10
150.9612418074
 20
31.5939741996
 11
150.5565542799
 21
31.626237886
  0
LINE
  8
0
 62
7
  6
CONTINUOUS
 10
159.575304528
 20
30.6260635193
 11
159.922179528
 21
30.5937998301
  0
LINE
  8
0
 62
7
  6
CONTINUOUS
 10
159.922179528
 20
30.7228545871
 11
159.575304528
 21
30.7551182848
  0
LINE
  8
0
 62
7
  6
CONTINUOUS
 10
155.3549915869
 20
31.5939741996
 11
155.0081169177
 21
31.626237886
  0
LINE
  8
0
 62
7
  6
CONTINUOUS
 10
160.1534293074
 20
31.4971831403
 11
160.5003043074
 21
31.4649194539
  0
LINE
  8
0
 62
7
  6
CONTINUOUS
 10
160.5003043074
 20
31.5939741996
 11
160.1534293074
 21
31.626237886
  0
LINE
  8
0
 62
7
  6
CONTINUOUS
 10
157.840929528
 20
31.4971831403
 11
158.0721793074
 21
31.4649194539
  0
LINE
  8
0
 62
7
  6
CONTINUOUS
 10
160.6737418074
 20
31.5617105132
 11
160.5003043074
 21
31.5939741996
  0
LINE
  8
0
 62
7
  6
CONTINUOUS
 10
160.8471793074
 20
30.6905909007
 11
160.9628038663
 21
30.7873819712
  0
LINE
  8
0
 62
7
  6
CONTINUOUS
 10
155.3549915869
 20
30.8841730531
 11
155.1815540869
 21
30.7873819712
  0
LINE
  8
0
 62
7
  6
CONTINUOUS
 10
157.4362415869
 20
31.5294468267
 11
157.320617028
 21
31.4649194539
  0
LINE
  8
0
 62
7
  6
CONTINUOUS
 10
157.320617028
 20
31.3358647082
 11
157.4362415869
 21
31.400392081
  0
LINE
  8
0
 62
7
  6
CONTINUOUS
 10
150.0362418212
 20
31.5617105132
 11
149.8628043005
 21
31.4971831403
  0
LINE
  8
0
 62
7
  6
CONTINUOUS
 10
152.4643666972
 20
31.5939741996
 11
152.2909293626
 21
31.5294468267
  0
LINE
  8
0
 62
7
  6
CONTINUOUS
 10
152.2909293626
 20
31.400392081
 11
152.4643666972
 21
31.4649194539
  0
LINE
  8
0
 62
7
  6
CONTINUOUS
 10
151.0768668626
 20
30.8196456577
 11
150.9034292799
 21
30.7551182848
  0
LINE
  8
0
 62
7
  6
CONTINUOUS
 10
160.5003043074
 20
30.7551182848
 11
160.269054528
 21
30.7228545871
  0
LINE
  8
0
 62
7
  6
CONTINUOUS
 10
154.8924916972
 20
30.5937998301
 11
155.1815540869
 21
30.6260635193
  0
LINE
  8
0
 62
7
  6
CONTINUOUS
 10
160.269054528
 20
30.5937998301
 11
160.615929528
 21
30.6260635193
  0
LINE
  8
0
 62
7
  6
CONTINUOUS
 10
150.5565542799
 20
30.5937998301
 11
150.9612418074
 21
30.6260635193
  0
LINE
  8
0
 62
7
  6
CONTINUOUS
 10
150.9034292799
 20
30.7551182848
 11
150.498741835
 21
30.7228545871
  0
LINE
  8
0
 62
7
  6
CONTINUOUS
 10
154.7768668074
 20
31.1422825445
 11
155.412804528
 21
31.1422825445
  0
LINE
  8
0
 62
7
  6
CONTINUOUS
 10
155.412804528
 20
31.2713373354
 11
154.7768668074
 21
31.2713373354
  0
LINE
  8
0
 62
7
  6
CONTINUOUS
 10
151.1346793074
 20
31.3036010218
 11
151.4237418626
 21
31.3036010218
  0
LINE
  8
0
 62
7
  6
CONTINUOUS
 10
153.9674919177
 20
31.3681283946
 11
154.2565543074
 21
31.3681283946
  0
LINE
  8
0
 62
7
  6
CONTINUOUS
 10
160.6737418074
 20
31.3681283946
 11
160.9628038663
 21
31.3681283946
  0
LINE
  8
0
 62
7
  6
CONTINUOUS
 10
154.6612419177
 20
31.4971831403
 11
155.0081169177
 21
31.4971831403
  0
LINE
  8
0
 62
7
  6
CONTINUOUS
 10
159.8065543074
 20
31.4971831403
 11
160.1534293074
 21
31.4971831403
  0
LINE
  8
0
 62
7
  6
CONTINUOUS
 10
160.1534293074
 20
31.626237886
 11
159.8065543074
 21
31.626237886
  0
LINE
  8
0
 62
7
  6
CONTINUOUS
 10
158.0721793074
 20
31.626237886
 11
157.840929528
 21
31.626237886
  0
LINE
  8
0
 62
7
  6
CONTINUOUS
 10
157.320617028
 20
31.626237886
 11
157.0315543074
 21
31.626237886
  0
LINE
  8
0
 62
7
  6
CONTINUOUS
 10
156.5690540869
 20
31.626237886
 11
156.279992028
 21
31.626237886
  0
LINE
  8
0
 62
7
  6
CONTINUOUS
 10
155.0081169177
 20
31.626237886
 11
154.6612419177
 21
31.626237886
  0
LINE
  8
0
 62
7
  6
CONTINUOUS
 10
152.9268669177
 20
31.626237886
 11
152.6956168074
 21
31.626237886
  0
LINE
  8
0
 62
7
  6
CONTINUOUS
 10
156.279992028
 20
31.9488748406
 11
156.5690540869
 21
31.9488748406
  0
LINE
  8
0
 62
7
  6
CONTINUOUS
 10
156.5690540869
 20
32.1101932727
 11
156.279992028
 21
32.1101932727
  0
LINE
  8
0
 62
7
  6
CONTINUOUS
 10
152.1753043074
 20
32.1101932727
 11
151.8862417523
 21
32.1101932727
  0
LINE
  8
0
 62
7
  6
CONTINUOUS
 10
151.2130860697
 20
32.3970785186
 11
151.6256574183
 21
32.3970785186
  0
LINE
  8
0
 62
7
  6
CONTINUOUS
 10
152.852430332
 20
32.3970785186
 11
154.245872955
 21
32.3970785186
  0
LINE
  8
0
 62
7
  6
CONTINUOUS
 10
154.5737418074
 20
32.3970785186
 11
155.9671844304
 21
32.3970785186
  0
LINE
  8
0
 62
7
  6
CONTINUOUS
 10
157.852430332
 20
32.3970785186
 11
159.245872955
 21
32.3970785186
  0
LINE
  8
0
 62
7
  6
CONTINUOUS
 10
159.5737418074
 20
32.3970785186
 11
160.9671844304
 21
32.3970785186
  0
LINE
  8
0
 62
7
  6
CONTINUOUS
 10
157.6096790869
 20
31.5939741996
 11
157.4362415869
 21
31.5294468267
  0
LINE
  8
0
 62
7
  6
CONTINUOUS
 10
155.1815540869
 20
30.6260635193
 11
155.3549915869
 21
30.6905909007
  0
LINE
  8
0
 62
7
  6
CONTINUOUS
 10
160.615929528
 20
30.6260635193
 11
160.8471793074
 21
30.6905909007
  0
LINE
  8
0
 62
7
  6
CONTINUOUS
 10
160.615929528
 20
30.7873819712
 11
160.5003043074
 21
30.7551182848
  0
LINE
  8
0
 62
7
  6
CONTINUOUS
 10
159.575304528
 20
31.4649194539
 11
159.8065543074
 21
31.4971831403
  0
LINE
  8
0
 62
7
  6
CONTINUOUS
 10
157.6096790869
 20
31.4649194539
 11
157.840929528
 21
31.4971831403
  0
LINE
  8
0
 62
7
  6
CONTINUOUS
 10
154.5456166972
 20
31.1100188581
 11
154.7768668074
 21
31.1422825445
  0
LINE
  8
0
 62
7
  6
CONTINUOUS
 10
157.840929528
 20
31.626237886
 11
157.6096790869
 21
31.5939741996
  0
LINE
  8
0
 62
7
  6
CONTINUOUS
 10
154.4299918074
 20
31.4649194539
 11
154.6612419177
 21
31.4971831403
  0
LINE
  8
0
 62
7
  6
CONTINUOUS
 10
159.8065543074
 20
31.626237886
 11
159.4596793074
 21
31.5939741996
  0
LINE
  8
0
 62
7
  6
CONTINUOUS
 10
154.7768668074
 20
31.2713373354
 11
154.4299918074
 21
31.2390736489
  0
LINE
  8
0
 62
7
  6
CONTINUOUS
 10
150.5565542799
 20
31.626237886
 11
150.2096793212
 21
31.5939741996
  0
LINE
  8
0
 62
7
  6
CONTINUOUS
 10
154.6612419177
 20
31.626237886
 11
154.2565543074
 21
31.5939741996
  0
LINE
  8
0
 62
7
  6
CONTINUOUS
 10
152.0327582009
 20
33.5446195022
 11
151.3770204959
 21
33.5446195022
  0
LINE
  8
0
 62
7
  6
CONTINUOUS
 10
157.4362415869
 20
31.400392081
 11
157.6096790869
 21
31.4649194539
  0
LINE
  8
0
 62
7
  6
CONTINUOUS
 10
159.4596793074
 20
31.4326557675
 11
159.575304528
 21
31.4649194539
  0
LINE
  8
0
 62
7
  6
CONTINUOUS
 10
159.4596793074
 20
31.5939741996
 11
159.228429528
 21
31.5294468267
  0
LINE
  8
0
 62
7
  6
CONTINUOUS
 10
155.1815540869
 20
30.7873819712
 11
154.8924916972
 21
30.7228545871
  0
LINE
  8
0
 62
7
  6
CONTINUOUS
 10
152.4643666972
 20
31.4649194539
 11
152.6956168074
 21
31.4971831403
  0
LINE
  8
0
 62
7
  6
CONTINUOUS
 10
152.6956168074
 20
31.626237886
 11
152.4643666972
 21
31.5939741996
  0
LINE
  8
0
 62
7
  6
CONTINUOUS
 10
150.2674918074
 20
31.4649194539
 11
150.498741835
 21
31.4971831403
  0
LINE
  8
0
 62
7
  6
CONTINUOUS
 10
156.7868565615
 20
35.0200293383
 11
157.4425942664
 21
35.0200293383
  0
LINE
  8
0
 62
7
  6
CONTINUOUS
 10
154.4299918074
 20
31.0777551716
 11
154.5456166972
 21
31.1100188581
  0
LINE
  8
0
 62
7
  6
CONTINUOUS
 10
154.4299918074
 20
31.2390736489
 11
154.1987416972
 21
31.1745462761
  0
LINE
  8
0
 62
7
  6
CONTINUOUS
 10
154.3143669177
 20
31.4326557675
 11
154.4299918074
 21
31.4649194539
  0
LINE
  8
0
 62
7
  6
CONTINUOUS
 10
150.9612418074
 20
30.6260635193
 11
151.1924917523
 21
30.6905909007
  0
LINE
  8
0
 62
7
  6
CONTINUOUS
 10
154.2565543074
 20
31.5939741996
 11
154.1409294177
 21
31.5617105132
  0
LINE
  8
0
 62
7
  6
CONTINUOUS
 10
150.2096793212
 20
31.5939741996
 11
150.0362418212
 21
31.5617105132
  0
LINE
  8
0
 62
7
  6
CONTINUOUS
 10
160.9671844304
 20
36.1675703219
 11
159.5737418074
 21
36.1675703219
  0
LINE
  8
0
 62
7
  6
CONTINUOUS
 10
157.6065286927
 20
36.1675703219
 11
157.1939573441
 21
36.1675703219
  0
LINE
  8
0
 62
7
  6
CONTINUOUS
 10
155.9671844304
 20
36.1675703219
 11
154.5737418074
 21
36.1675703219
  0
LINE
  8
0
 62
7
  6
CONTINUOUS
 10
154.245872955
 20
36.1675703219
 11
152.852430332
 21
36.1675703219
  0
LINE
  8
0
 62
7
  6
CONTINUOUS
 10
150.9671844304
 20
36.1675703219
 11
149.5737418074
 21
36.1675703219
  0
LINE
  8
0
 62
7
  6
CONTINUOUS
 10
150.1518667936
 20
31.4326557675
 11
150.2674918074
 21
31.4649194539
  0
CIRCLE
  8
0
 62
7
  6
CONTINUOUS
 10
160.2704631189
 20
38.5036358957
 40
2.0901639344
  0
ARC
  8
0
 62
7
  6
CONTINUOUS
 10
151.2130860697
 20
34.0364227809
 40
1.6393442623
 50
180.0
 51
270.0
  0
ARC
  8
0
 62
7
  6
CONTINUOUS
 10
157.6065286927
 20
34.5282260596
 40
1.6393442623
 50
0.0
 51
90.0
  0
ARC
  8
0
 62
7
  6
CONTINUOUS
 10
151.6256574183
 20
33.8724883547
 40
1.4754098361
 50
270.0
 51
326.2510114041
  0
ARC
  8
0
 62
7
  6
CONTINUOUS
 10
157.1939573441
 20
34.6921604858
 40
1.4754098361
 50
90.0
 51
146.2510114041
  0
ARC
  8
0
 62
7
  6
CONTINUOUS
 10
152.0327582009
 20
34.3642916334
 40
0.8196721311
 50
270.0
 51
360.0
  0
ARC
  8
0
 62
7
  6
CONTINUOUS
 10
156.7868565615
 20
34.2003572071
 40
0.8196721311
 50
90.0
 51
180.0
  0
ARC
  8
0
 62
7
  6
CONTINUOUS
 10
151.3770204959
 20
33.9544555678
 40
0.4098360656
 50
180.0
 51
270.0
  0
ARC
  8
0
 62
7
  6
CONTINUOUS
 10
157.4425942664
 20
34.6101932727
 40
0.4098360656
 50
0.0
 51
90.0
  0
SOLID
  8
0
 62
7
  6
CONTINUOUS
 10
156.279992028
 20
31.9488752009
 11
156.279992028
 21
32.1101936845
 12
156.5690540869
 22
31.9488752009
 13
156.5690540869
 23
32.1101936845
  0
SOLID
  8
0
 62
7
  6
CONTINUOUS
 10
150.5565542799
 20
31.6262382337
 11
150.9612418074
 21
31.5939740028
 12
150.2096793212
 22
31.5939740028
 13
150.2096793212
 23
31.5939740028
  0
SOLID
  8
0
 62
7
  6
CONTINUOUS
 10
150.0362418212
 20
31.5617111435
 11
150.2096793212
 21
31.5939740028
 12
150.9612418074
 22
31.5939740028
 13
150.9612418074
 23
31.5939740028
  0
SOLID
  8
0
 62
7
  6
CONTINUOUS
 10
150.9612418074
 20
31.5939740028
 11
151.1924917523
 21
31.5294468402
 12
150.0362418212
 22
31.5617111435
 13
150.0362418212
 23
31.5617111435
  0
SOLID
  8
0
 62
7
  6
CONTINUOUS
 10
149.8628043005
 20
31.49718259
 11
150.0362418212
 21
31.5617111435
 12
151.1924917523
 22
31.5294468402
 13
151.1924917523
 23
31.5294468402
  0
SOLID
  8
0
 62
7
  6
CONTINUOUS
 10
149.8628043005
 20
31.49718259
 11
151.1924917523
 21
31.5294468402
 12
150.498741835
 22
31.49718259
 13
150.498741835
 23
31.49718259
  0
SOLID
  8
0
 62
7
  6
CONTINUOUS
 10
150.498741835
 20
31.49718259
 11
151.1924917523
 21
31.5294468402
 12
150.9034292799
 22
31.4649197501
 13
150.9034292799
 23
31.4649197501
  0
SOLID
  8
0
 62
7
  6
CONTINUOUS
 10
151.1924917523
 20
31.5294468402
 11
151.3659292523
 21
31.4326554468
 12
150.9034292799
 22
31.4649197501
 13
150.9034292799
 23
31.4649197501
  0
SOLID
  8
0
 62
7
  6
CONTINUOUS
 10
151.0768668626
 20
31.4003926599
 11
150.9034292799
 21
31.4649197501
 12
151.3659292523
 22
31.4326554468
 13
151.3659292523
 23
31.4326554468
  0
SOLID
  8
0
 62
7
  6
CONTINUOUS
 10
151.0768668626
 20
31.4003926599
 11
151.3659292523
 21
31.4326554468
 12
151.1346793074
 22
31.3036013776
 13
151.1346793074
 23
31.3036013776
  0
SOLID
  8
0
 62
7
  6
CONTINUOUS
 10
151.3659292523
 20
31.4326554468
 11
151.4237418626
 21
31.3036013776
 12
151.1346793074
 22
31.3036013776
 13
151.1346793074
 23
31.3036013776
  0
SOLID
  8
0
 62
7
  6
CONTINUOUS
 10
152.4643666972
 20
31.5939739754
 11
152.6956168074
 21
31.6262382787
 12
152.9268669177
 22
31.6262382787
 13
152.9268669177
 23
31.6262382787
  0
SOLID
  8
0
 62
7
  6
CONTINUOUS
 10
152.9268669177
 20
31.6262382787
 11
153.1003044177
 21
31.5939739754
 12
152.4643666972
 22
31.5939739754
 13
152.4643666972
 23
31.5939739754
  0
SOLID
  8
0
 62
7
  6
CONTINUOUS
 10
152.2909293626
 20
31.5294468852
 11
152.4643666972
 21
31.5939739754
 12
153.1003044177
 22
31.5939739754
 13
153.1003044177
 23
31.5939739754
  0
SOLID
  8
0
 62
7
  6
CONTINUOUS
 10
153.1003044177
 20
31.5939739754
 11
153.2737419177
 21
31.5294468852
 12
152.2909293626
 22
31.5294468852
 13
152.2909293626
 23
31.5294468852
  0
SOLID
  8
0
 62
7
  6
CONTINUOUS
 10
153.2737419177
 20
31.5294468852
 11
152.6956168074
 21
31.4971825369
 12
152.2909293626
 22
31.5294468852
 13
152.2909293626
 23
31.5294468852
  0
SOLID
  8
0
 62
7
  6
CONTINUOUS
 10
152.1753043074
 20
31.4649197951
 11
152.2909293626
 21
31.5294468852
 12
152.6956168074
 22
31.4971825369
 13
152.6956168074
 23
31.4971825369
  0
SOLID
  8
0
 62
7
  6
CONTINUOUS
 10
152.6956168074
 20
31.4971825369
 11
152.4643666972
 21
31.4649197951
 12
152.1753043074
 22
31.4649197951
 13
152.1753043074
 23
31.4649197951
  0
SOLID
  8
0
 62
7
  6
CONTINUOUS
 10
152.6956168074
 20
31.4971825369
 11
153.2737419177
 21
31.5294468852
 12
152.9268669177
 22
31.4649197951
 13
152.9268669177
 23
31.4649197951
  0
SOLID
  8
0
 62
7
  6
CONTINUOUS
 10
153.2737419177
 20
31.5294468852
 11
153.3893668074
 21
31.4649197951
 12
152.9268669177
 22
31.4649197951
 13
152.9268669177
 23
31.4649197951
  0
SOLID
  8
0
 62
7
  6
CONTINUOUS
 10
153.0424918074
 20
31.4326554468
 11
152.9268669177
 21
31.4649197951
 12
153.3893668074
 22
31.4649197951
 13
153.3893668074
 23
31.4649197951
  0
SOLID
  8
0
 62
7
  6
CONTINUOUS
 10
153.3893668074
 20
31.4649197951
 11
153.4471794177
 21
31.4003927049
 12
153.0424918074
 22
31.4326554468
 13
153.0424918074
 23
31.4326554468
  0
SOLID
  8
0
 62
7
  6
CONTINUOUS
 10
153.1581166972
 20
31.3681283566
 11
153.0424918074
 21
31.4326554468
 12
153.4471794177
 22
31.4003927049
 13
153.4471794177
 23
31.4003927049
  0
SOLID
  8
0
 62
7
  6
CONTINUOUS
 10
153.1581166972
 20
31.3681283566
 11
153.4471794177
 21
31.4003927049
 12
153.2159293074
 22
31.2390742213
 13
153.2159293074
 23
31.2390742213
  0
SOLID
  8
0
 62
7
  6
CONTINUOUS
 10
153.4471794177
 20
31.4003927049
 11
153.5049916972
 21
31.2390742213
 12
153.2159293074
 22
31.2390742213
 13
153.2159293074
 23
31.2390742213
  0
SOLID
  8
0
 62
7
  6
CONTINUOUS
 10
152.4643666972
 20
31.4649197951
 11
152.2909293626
 21
31.4003927049
 12
152.1753043074
 22
31.4649197951
 13
152.1753043074
 23
31.4649197951
  0
SOLID
  8
0
 62
7
  6
CONTINUOUS
 10
152.2909293626
 20
31.4003927049
 11
152.1753043074
 21
31.3358640533
 12
152.1753043074
 22
31.4649197951
 13
152.1753043074
 23
31.4649197951
  0
SOLID
  8
0
 62
7
  6
CONTINUOUS
 10
152.1753043074
 20
31.3358640533
 11
151.8862417523
 21
30.5938002869
 12
152.1753043074
 22
31.4649197951
 13
152.1753043074
 23
31.4649197951
  0
SOLID
  8
0
 62
7
  6
CONTINUOUS
 10
152.1753043074
 20
31.4649197951
 11
151.8862417523
 21
30.5938002869
 12
152.1753043074
 22
32.1101937295
 13
152.1753043074
 23
32.1101937295
  0
SOLID
  8
0
 62
7
  6
CONTINUOUS
 10
151.8862417523
 20
30.5938002869
 11
151.8862417523
 21
32.1101937295
 12
152.1753043074
 22
32.1101937295
 13
152.1753043074
 23
32.1101937295
  0
SOLID
  8
0
 62
7
  6
CONTINUOUS
 10
152.1753043074
 20
31.3358640533
 11
152.1753043074
 21
30.5938002869
 12
151.8862417523
 22
30.5938002869
 13
151.8862417523
 23
30.5938002869
  0
SOLID
  8
0
 62
7
  6
CONTINUOUS
 10
153.2159293074
 20
30.5938002869
 11
153.2159293074
 21
31.2390742213
 12
153.5049916972
 22
31.2390742213
 13
153.5049916972
 23
31.2390742213
  0
SOLID
  8
0
 62
7
  6
CONTINUOUS
 10
153.5049916972
 20
31.2390742213
 11
153.5049916972
 21
30.5938002869
 12
153.2159293074
 22
30.5938002869
 13
153.2159293074
 23
30.5938002869
  0
SOLID
  8
0
 62
7
  6
CONTINUOUS
 10
154.2565543074
 20
31.5939738288
 11
154.6612419177
 21
31.6262385959
 12
155.0081169177
 22
31.6262385959
 13
155.0081169177
 23
31.6262385959
  0
SOLID
  8
0
 62
7
  6
CONTINUOUS
 10
155.0081169177
 20
31.6262385959
 11
155.3549915869
 21
31.5939738288
 12
154.2565543074
 22
31.5939738288
 13
154.2565543074
 23
31.5939738288
  0
SOLID
  8
0
 62
7
  6
CONTINUOUS
 10
154.1409294177
 20
31.5617111435
 11
154.2565543074
 21
31.5939738288
 12
155.3549915869
 22
31.5939738288
 13
155.3549915869
 23
31.5939738288
  0
SOLID
  8
0
 62
7
  6
CONTINUOUS
 10
155.3549915869
 20
31.5939738288
 11
155.5284290869
 21
31.5294468402
 12
154.1409294177
 22
31.5617111435
 13
154.1409294177
 23
31.5617111435
  0
SOLID
  8
0
 62
7
  6
CONTINUOUS
 10
154.0253041972
 20
31.4971826249
 11
154.1409294177
 21
31.5617111435
 12
155.5284290869
 22
31.5294468402
 13
155.5284290869
 23
31.5294468402
  0
SOLID
  8
0
 62
7
  6
CONTINUOUS
 10
154.0253041972
 20
31.4971826249
 11
155.5284290869
 21
31.5294468402
 12
154.6612419177
 22
31.4971826249
 13
154.6612419177
 23
31.4971826249
  0
SOLID
  8
0
 62
7
  6
CONTINUOUS
 10
154.6612419177
 20
31.4971826249
 11
155.5284290869
 21
31.5294468402
 12
155.0081169177
 22
31.4971826249
 13
155.0081169177
 23
31.4971826249
  0
SOLID
  8
0
 62
7
  6
CONTINUOUS
 10
155.0081169177
 20
31.4971826249
 11
155.5284290869
 21
31.5294468402
 12
155.239367028
 22
31.4649194065
 13
155.239367028
 23
31.4649194065
  0
SOLID
  8
0
 62
7
  6
CONTINUOUS
 10
155.5284290869
 20
31.5294468402
 11
155.6440543074
 21
31.4649194065
 12
155.239367028
 22
31.4649194065
 13
155.239367028
 23
31.4649194065
  0
SOLID
  8
0
 62
7
  6
CONTINUOUS
 10
153.9674919177
 20
31.4326554138
 11
154.0253041972
 21
31.4971826249
 12
154.6612419177
 22
31.4971826249
 13
154.6612419177
 23
31.4971826249
  0
SOLID
  8
0
 62
7
  6
CONTINUOUS
 10
155.3549915869
 20
31.4326554138
 11
155.239367028
 21
31.4649194065
 12
155.6440543074
 22
31.4649194065
 13
155.6440543074
 23
31.4649194065
  0
SOLID
  8
0
 62
7
  6
CONTINUOUS
 10
155.3549915869
 20
31.4326554138
 11
155.6440543074
 21
31.4649194065
 12
155.412804528
 22
31.3681282026
 13
155.412804528
 23
31.3681282026
  0
SOLID
  8
0
 62
7
  6
CONTINUOUS
 10
155.6440543074
 20
31.4649194065
 11
155.7018665869
 21
31.3681282026
 12
155.412804528
 22
31.3681282026
 13
155.412804528
 23
31.3681282026
  0
SOLID
  8
0
 62
7
  6
CONTINUOUS
 10
155.412804528
 20
31.2713369632
 11
155.412804528
 21
31.3681282026
 12
155.7018665869
 22
31.3681282026
 13
155.7018665869
 23
31.3681282026
  0
SOLID
  8
0
 62
7
  6
CONTINUOUS
 10
155.412804528
 20
31.2713369632
 11
155.7018665869
 21
31.3681282026
 12
155.412804528
 22
31.1422827828
 13
155.412804528
 23
31.1422827828
  0
SOLID
  8
0
 62
7
  6
CONTINUOUS
 10
155.412804528
 20
31.1422827828
 11
155.7018665869
 21
31.3681282026
 12
155.412804528
 22
30.9487004259
 13
155.412804528
 23
30.9487004259
  0
SOLID
  8
0
 62
7
  6
CONTINUOUS
 10
155.7018665869
 20
31.3681282026
 11
155.7018665869
 21
30.8519086025
 12
155.412804528
 22
30.9487004259
 13
155.412804528
 23
30.9487004259
  0
SOLID
  8
0
 62
7
  6
CONTINUOUS
 10
157.6096790869
 20
31.5939736268
 11
157.840929528
 21
31.6262383465
 12
158.0721793074
 22
31.6262383465
 13
158.0721793074
 23
31.6262383465
  0
SOLID
  8
0
 62
7
  6
CONTINUOUS
 10
158.0721793074
 20
31.6262383465
 11
158.2456168074
 21
31.5939736268
 12
157.6096790869
 22
31.5939736268
 13
157.6096790869
 23
31.5939736268
  0
SOLID
  8
0
 62
7
  6
CONTINUOUS
 10
157.4362415869
 20
31.5294472848
 11
157.6096790869
 21
31.5939736268
 12
158.2456168074
 22
31.5939736268
 13
158.2456168074
 23
31.5939736268
  0
SOLID
  8
0
 62
7
  6
CONTINUOUS
 10
158.2456168074
 20
31.5939736268
 11
158.4190543074
 21
31.5294472848
 12
157.4362415869
 22
31.5294472848
 13
157.4362415869
 23
31.5294472848
  0
SOLID
  8
0
 62
7
  6
CONTINUOUS
 10
158.4190543074
 20
31.5294472848
 11
157.840929528
 21
31.4971825369
 12
157.4362415869
 22
31.5294472848
 13
157.4362415869
 23
31.5294472848
  0
SOLID
  8
0
 62
7
  6
CONTINUOUS
 10
157.320617028
 20
31.4649199103
 11
157.4362415869
 21
31.5294472848
 12
157.840929528
 22
31.4971825369
 13
157.840929528
 23
31.4971825369
  0
SOLID
  8
0
 62
7
  6
CONTINUOUS
 10
157.840929528
 20
31.4971825369
 11
157.6096790869
 21
31.4649199103
 12
157.320617028
 22
31.4649199103
 13
157.320617028
 23
31.4649199103
  0
SOLID
  8
0
 62
7
  6
CONTINUOUS
 10
157.840929528
 20
31.4971825369
 11
158.4190543074
 21
31.5294472848
 12
158.0721793074
 22
31.4649199103
 13
158.0721793074
 23
31.4649199103
  0
SOLID
  8
0
 62
7
  6
CONTINUOUS
 10
158.4190543074
 20
31.5294472848
 11
158.534679528
 21
31.4649199103
 12
158.0721793074
 22
31.4649199103
 13
158.0721793074
 23
31.4649199103
  0
SOLID
  8
0
 62
7
  6
CONTINUOUS
 10
158.187804528
 20
31.4326554468
 11
158.0721793074
 21
31.4649199103
 12
158.534679528
 22
31.4649199103
 13
158.534679528
 23
31.4649199103
  0
SOLID
  8
0
 62
7
  6
CONTINUOUS
 10
158.187804528
 20
31.4326554468
 11
158.534679528
 21
31.4649199103
 12
158.3034290869
 22
31.3681288486
 13
158.3034290869
 23
31.3681288486
  0
SOLID
  8
0
 62
7
  6
CONTINUOUS
 10
158.534679528
 20
31.4649199103
 11
158.5924918074
 21
31.3681288486
 12
158.3034290869
 22
31.3681288486
 13
158.3034290869
 23
31.3681288486
  0
SOLID
  8
0
 62
7
  6
CONTINUOUS
 10
158.361242028
 20
31.2068093799
 11
158.3034290869
 21
31.3681288486
 12
158.5924918074
 22
31.3681288486
 13
158.5924918074
 23
31.3681288486
  0
SOLID
  8
0
 62
7
  6
CONTINUOUS
 10
158.5924918074
 20
31.3681288486
 11
158.6503040869
 21
31.2068093799
 12
158.361242028
 22
31.2068093799
 13
158.361242028
 23
31.2068093799
  0
SOLID
  8
0
 62
7
  6
CONTINUOUS
 10
157.6096790869
 20
31.4649199103
 11
157.4362415869
 21
31.4003926599
 12
157.320617028
 22
31.4649199103
 13
157.320617028
 23
31.4649199103
  0
SOLID
  8
0
 62
7
  6
CONTINUOUS
 10
157.4362415869
 20
31.4003926599
 11
157.320617028
 21
31.3358640533
 12
157.320617028
 22
31.4649199103
 13
157.320617028
 23
31.4649199103
  0
SOLID
  8
0
 62
7
  6
CONTINUOUS
 10
157.320617028
 20
31.3358640533
 11
157.0315543074
 21
30.5938003547
 12
157.320617028
 22
31.4649199103
 13
157.320617028
 23
31.4649199103
  0
SOLID
  8
0
 62
7
  6
CONTINUOUS
 10
157.320617028
 20
31.4649199103
 11
157.0315543074
 21
30.5938003547
 12
157.320617028
 22
31.6262383465
 13
157.320617028
 23
31.6262383465
  0
SOLID
  8
0
 62
7
  6
CONTINUOUS
 10
157.0315543074
 20
30.5938003547
 11
157.0315543074
 21
31.6262383465
 12
157.320617028
 22
31.6262383465
 13
157.320617028
 23
31.6262383465
  0
SOLID
  8
0
 62
7
  6
CONTINUOUS
 10
157.320617028
 20
31.3358640533
 11
157.320617028
 21
30.5938003547
 12
157.0315543074
 22
30.5938003547
 13
157.0315543074
 23
30.5938003547
  0
SOLID
  8
0
 62
7
  6
CONTINUOUS
 10
158.361242028
 20
30.5938003547
 11
158.361242028
 21
31.2068093799
 12
158.6503040869
 22
31.2068093799
 13
158.6503040869
 23
31.2068093799
  0
SOLID
  8
0
 62
7
  6
CONTINUOUS
 10
158.6503040869
 20
31.2068093799
 11
158.6503040869
 21
30.5938003547
 12
158.361242028
 22
30.5938003547
 13
158.361242028
 23
30.5938003547
  0
SOLID
  8
0
 62
7
  6
CONTINUOUS
 10
159.4596793074
 20
31.5939739474
 11
159.8065543074
 21
31.6262381969
 12
160.1534293074
 22
31.6262381969
 13
160.1534293074
 23
31.6262381969
  0
SOLID
  8
0
 62
7
  6
CONTINUOUS
 10
160.1534293074
 20
31.6262381969
 11
160.5003043074
 21
31.5939739474
 12
159.4596793074
 22
31.5939739474
 13
159.4596793074
 23
31.5939739474
  0
SOLID
  8
0
 62
7
  6
CONTINUOUS
 10
159.228429528
 20
31.5294468402
 11
159.4596793074
 21
31.5939739474
 12
160.5003043074
 22
31.5939739474
 13
160.5003043074
 23
31.5939739474
  0
SOLID
  8
0
 62
7
  6
CONTINUOUS
 10
159.228429528
 20
31.5294468402
 11
160.5003043074
 21
31.5939739304
 12
160.6737418074
 22
31.5617111435
 13
160.6737418074
 23
31.5617111435
  0
SOLID
  8
0
 62
7
  6
CONTINUOUS
 10
159.228429528
 20
31.5294468402
 11
160.6737418074
 21
31.5617111435
 12
159.8065543074
 22
31.4971825592
 13
159.8065543074
 23
31.4971825592
  0
SOLID
  8
0
 62
7
  6
CONTINUOUS
 10
159.8065543074
 20
31.4971825592
 11
160.6737418074
 21
31.5617111435
 12
160.1534293074
 22
31.4971825592
 13
160.1534293074
 23
31.4971825592
  0
SOLID
  8
0
 62
7
  6
CONTINUOUS
 10
160.6737418074
 20
31.5617111435
 11
160.8471793074
 21
31.4971825592
 12
160.1534293074
 22
31.4971825592
 13
160.1534293074
 23
31.4971825592
  0
SOLID
  8
0
 62
7
  6
CONTINUOUS
 10
160.5003043074
 20
31.4649197501
 11
160.1534293074
 21
31.4971825592
 12
160.8471793074
 22
31.4971825592
 13
160.8471793074
 23
31.4971825592
  0
SOLID
  8
0
 62
7
  6
CONTINUOUS
 10
159.1128043074
 20
31.4326555427
 11
159.228429528
 21
31.5294468402
 12
159.8065543074
 22
31.4971825592
 13
159.8065543074
 23
31.4971825592
  0
SOLID
  8
0
 62
7
  6
CONTINUOUS
 10
160.5003043074
 20
31.4649197501
 11
160.8471793074
 21
31.4971825592
 12
160.615929528
 22
31.4326555427
 13
160.615929528
 23
31.4326555427
  0
SOLID
  8
0
 62
7
  6
CONTINUOUS
 10
160.615929528
 20
31.4326555427
 11
160.8471793074
 21
31.4971825592
 12
160.6737418074
 22
31.3681283005
 13
160.6737418074
 23
31.3681283005
  0
SOLID
  8
0
 62
7
  6
CONTINUOUS
 10
160.8471793074
 20
31.4971825592
 11
160.9628038663
 21
31.3681283005
 12
160.6737418074
 22
31.3681283005
 13
160.6737418074
 23
31.3681283005
  0
SOLID
  8
0
 62
7
  6
CONTINUOUS
 10
150.2674918074
 20
31.4649197501
 11
149.7471793074
 21
31.4326554237
 12
150.498741835
 22
31.4971824493
 13
150.498741835
 23
31.4971824493
  0
SOLID
  8
0
 62
7
  6
CONTINUOUS
 10
149.7471793074
 20
31.4326554237
 11
149.8628043005
 21
31.4971824493
 12
150.498741835
 22
31.4971824493
 13
150.498741835
 23
31.4971824493
  0
SOLID
  8
0
 62
7
  6
CONTINUOUS
 10
150.2674918074
 20
31.4649197501
 11
150.1518667936
 21
31.4326554237
 12
149.7471793074
 22
31.4326554237
 13
149.7471793074
 23
31.4326554237
  0
SOLID
  8
0
 62
7
  6
CONTINUOUS
 10
149.6315543091
 20
31.3036012664
 11
149.7471793074
 21
31.4326554237
 12
150.1518667936
 22
31.4326554237
 13
150.1518667936
 23
31.4326554237
  0
SOLID
  8
0
 62
7
  6
CONTINUOUS
 10
153.9674919177
 20
31.4326554237
 11
154.6612419177
 21
31.4971825369
 12
154.4299918074
 22
31.4649197501
 13
154.4299918074
 23
31.4649197501
  0
SOLID
  8
0
 62
7
  6
CONTINUOUS
 10
154.4299918074
 20
31.4649197501
 11
154.3143669177
 21
31.4326554237
 12
153.9674919177
 22
31.4326554237
 13
153.9674919177
 23
31.4326554237
  0
SOLID
  8
0
 62
7
  6
CONTINUOUS
 10
153.9674919177
 20
31.3681283335
 11
153.9674919177
 21
31.4326554237
 12
154.3143669177
 22
31.4326554237
 13
154.3143669177
 23
31.4326554237
  0
SOLID
  8
0
 62
7
  6
CONTINUOUS
 10
154.3143669177
 20
31.4326554237
 11
154.2565543074
 21
31.3681283335
 12
153.9674919177
 22
31.3681283335
 13
153.9674919177
 23
31.3681283335
  0
SOLID
  8
0
 62
7
  6
CONTINUOUS
 10
159.1128043074
 20
31.4326555528
 11
159.8065543074
 21
31.4971825369
 12
159.575304528
 22
31.4649197501
 13
159.575304528
 23
31.4649197501
  0
SOLID
  8
0
 62
7
  6
CONTINUOUS
 10
159.575304528
 20
31.4649197501
 11
159.4596793074
 21
31.4326555528
 12
159.1128043074
 22
31.4326555528
 13
159.1128043074
 23
31.4326555528
  0
SOLID
  8
0
 62
7
  6
CONTINUOUS
 10
159.1128043074
 20
31.3681284626
 11
159.1128043074
 21
31.4326555528
 12
159.4596793074
 22
31.4326555528
 13
159.4596793074
 23
31.4326555528
  0
SOLID
  8
0
 62
7
  6
CONTINUOUS
 10
159.4596793074
 20
31.4326555528
 11
159.401867028
 21
31.3681284626
 12
159.1128043074
 22
31.3681284626
 13
159.1128043074
 23
31.3681284626
  0
SOLID
  8
0
 62
7
  6
CONTINUOUS
 10
159.228429528
 20
31.2390741763
 11
159.1128043074
 21
31.3681284626
 12
159.401867028
 22
31.3681284626
 13
159.401867028
 23
31.3681284626
  0
SOLID
  8
0
 62
7
  6
CONTINUOUS
 10
149.6315543091
 20
31.3036012664
 11
150.1518667936
 21
31.4326554468
 12
149.9784292936
 22
31.3358640533
 13
149.9784292936
 23
31.3358640533
  0
SOLID
  8
0
 62
7
  6
CONTINUOUS
 10
149.9784292936
 20
31.3358640533
 11
149.9206168074
 21
31.2713369632
 12
149.6315543091
 22
31.3036012664
 13
149.6315543091
 23
31.3036012664
  0
SOLID
  8
0
 62
7
  6
CONTINUOUS
 10
149.5737418074
 20
31.1100184796
 11
149.6315543091
 21
31.3036012664
 12
149.9206168074
 22
31.2713369632
 13
149.9206168074
 23
31.2713369632
  0
SOLID
  8
0
 62
7
  6
CONTINUOUS
 10
154.4299918074
 20
31.2390741763
 11
154.7768668074
 21
31.271336924
 12
155.412804528
 22
31.271336924
 13
155.412804528
 23
31.271336924
  0
SOLID
  8
0
 62
7
  6
CONTINUOUS
 10
154.4299918074
 20
31.2390741763
 11
155.412804528
 21
31.271336924
 12
154.1987416972
 22
31.1745462761
 13
154.1987416972
 23
31.1745462761
  0
SOLID
  8
0
 62
7
  6
CONTINUOUS
 10
154.1987416972
 20
31.1745462761
 11
155.412804528
 21
31.271336924
 12
154.7768668074
 22
31.1422827436
 13
154.7768668074
 23
31.1422827436
  0
SOLID
  8
0
 62
7
  6
CONTINUOUS
 10
155.412804528
 20
31.271336924
 11
155.412804528
 21
31.1422827436
 12
154.7768668074
 22
31.1422827436
 13
154.7768668074
 23
31.1422827436
  0
SOLID
  8
0
 62
7
  6
CONTINUOUS
 10
159.228429528
 20
31.2390745501
 11
159.401867028
 21
31.3681283566
 12
159.4596793074
 22
31.3036012664
 13
159.4596793074
 23
31.3036012664
  0
SOLID
  8
0
 62
7
  6
CONTINUOUS
 10
159.4596793074
 20
31.3036012664
 11
159.6331168074
 21
31.2390745501
 12
159.228429528
 22
31.2390745501
 13
159.228429528
 23
31.2390745501
  0
SOLID
  8
0
 62
7
  6
CONTINUOUS
 10
159.4596793074
 20
31.1422827828
 11
159.228429528
 21
31.2390745501
 12
159.6331168074
 22
31.2390745501
 13
159.6331168074
 23
31.2390745501
  0
SOLID
  8
0
 62
7
  6
CONTINUOUS
 10
159.6331168074
 20
31.2390745501
 11
160.615929528
 21
31.0777556927
 12
159.4596793074
 22
31.1422827828
 13
159.4596793074
 23
31.1422827828
  0
SOLID
  8
0
 62
7
  6
CONTINUOUS
 10
160.442492028
 20
30.9809646623
 11
159.4596793074
 21
31.1422827828
 12
160.615929528
 22
31.0777556927
 13
160.615929528
 23
31.0777556927
  0
SOLID
  8
0
 62
7
  6
CONTINUOUS
 10
160.615929528
 20
31.0777556927
 11
160.8471793074
 21
30.9809646623
 12
160.442492028
 22
30.9809646623
 13
160.442492028
 23
30.9809646623
  0
SOLID
  8
0
 62
7
  6
CONTINUOUS
 10
160.615929528
 20
30.9164372091
 11
160.442492028
 21
30.9809646623
 12
160.8471793074
 22
30.9809646623
 13
160.8471793074
 23
30.9809646623
  0
SOLID
  8
0
 62
7
  6
CONTINUOUS
 10
160.615929528
 20
30.9164372091
 11
160.8471793074
 21
30.9809646623
 12
160.6737418074
 22
30.8519089441
 13
160.6737418074
 23
30.8519089441
  0
SOLID
  8
0
 62
7
  6
CONTINUOUS
 10
160.8471793074
 20
30.9809646623
 11
160.9628038663
 21
30.8519089441
 12
160.6737418074
 22
30.8519089441
 13
160.6737418074
 23
30.8519089441
  0
SOLID
  8
0
 62
7
  6
CONTINUOUS
 10
160.615929528
 20
30.7873818593
 11
160.6737418074
 21
30.8519089441
 12
160.9628038663
 22
30.8519089441
 13
160.9628038663
 23
30.8519089441
  0
SOLID
  8
0
 62
7
  6
CONTINUOUS
 10
160.9628038663
 20
30.8519089441
 11
160.9628038663
 21
30.7873818593
 12
160.615929528
 22
30.7873818593
 13
160.615929528
 23
30.7873818593
  0
SOLID
  8
0
 62
7
  6
CONTINUOUS
 10
160.5003043074
 20
30.7551187255
 11
160.615929528
 21
30.7873818593
 12
160.9628038663
 22
30.7873818593
 13
160.9628038663
 23
30.7873818593
  0
SOLID
  8
0
 62
7
  6
CONTINUOUS
 10
160.5003043074
 20
30.7551187255
 11
160.9628038663
 21
30.7873818593
 12
160.269054528
 22
30.7228547745
 13
160.269054528
 23
30.7228547745
  0
SOLID
  8
0
 62
7
  6
CONTINUOUS
 10
160.9628038663
 20
30.7873818593
 11
160.8471793074
 21
30.6905916353
 12
160.269054528
 22
30.7228547745
 13
160.269054528
 23
30.7228547745
  0
SOLID
  8
0
 62
7
  6
CONTINUOUS
 10
160.8471793074
 20
30.6905916353
 11
159.401867028
 21
30.658327332
 12
160.269054528
 22
30.7228547745
 13
160.269054528
 23
30.7228547745
  0
SOLID
  8
0
 62
7
  6
CONTINUOUS
 10
160.269054528
 20
30.7228547745
 11
159.401867028
 21
30.658327332
 12
159.922179528
 22
30.7228547745
 13
159.922179528
 23
30.7228547745
  0
SOLID
  8
0
 62
7
  6
CONTINUOUS
 10
159.401867028
 20
30.658327332
 11
159.228429528
 21
30.7228547745
 12
159.922179528
 22
30.7228547745
 13
159.922179528
 23
30.7228547745
  0
SOLID
  8
0
 62
7
  6
CONTINUOUS
 10
159.401867028
 20
30.658327332
 11
160.8471793074
 21
30.6905916353
 12
159.575304528
 22
30.6260629858
 13
159.575304528
 23
30.6260629858
  0
SOLID
  8
0
 62
7
  6
CONTINUOUS
 10
160.8471793074
 20
30.6905916353
 11
160.615929528
 21
30.6260629858
 12
159.575304528
 22
30.6260629858
 13
159.575304528
 23
30.6260629858
  0
SOLID
  8
0
 62
7
  6
CONTINUOUS
 10
159.922179528
 20
30.5938006049
 11
159.575304528
 21
30.6260629858
 12
160.615929528
 22
30.6260629858
 13
160.615929528
 23
30.6260629858
  0
SOLID
  8
0
 62
7
  6
CONTINUOUS
 10
160.615929528
 20
30.6260629858
 11
160.269054528
 21
30.5938006049
 12
159.922179528
 22
30.5938006049
 13
159.922179528
 23
30.5938006049
  0
SOLID
  8
0
 62
7
  6
CONTINUOUS
 10
149.5737418074
 20
31.1100184796
 11
149.9206168074
 21
31.2713369632
 12
149.8628043005
 22
31.1422827828
 13
149.8628043005
 23
31.1422827828
  0
SOLID
  8
0
 62
7
  6
CONTINUOUS
 10
149.8628043005
 20
31.1422827828
 11
149.8628043005
 21
31.0454914852
 12
149.5737418074
 22
31.1100184796
 13
149.5737418074
 23
31.1100184796
  0
SOLID
  8
0
 62
7
  6
CONTINUOUS
 10
149.6315543091
 20
30.9164372091
 11
149.5737418074
 21
31.1100184796
 12
149.8628043005
 22
31.0454914852
 13
149.8628043005
 23
31.0454914852
  0
SOLID
  8
0
 62
7
  6
CONTINUOUS
 10
149.8628043005
 20
31.0454914852
 11
149.9784292936
 21
30.8841729058
 12
149.6315543091
 22
30.9164372091
 13
149.6315543091
 23
30.9164372091
  0
SOLID
  8
0
 62
7
  6
CONTINUOUS
 10
149.7471793074
 20
30.7873813202
 11
149.6315543091
 21
30.9164372091
 12
149.9784292936
 22
30.8841729058
 13
149.9784292936
 23
30.8841729058
  0
SOLID
  8
0
 62
7
  6
CONTINUOUS
 10
149.9784292936
 20
30.8841729058
 11
150.1518667936
 21
30.7873813202
 12
149.7471793074
 22
30.7873813202
 13
149.7471793074
 23
30.7873813202
  0
SOLID
  8
0
 62
7
  6
CONTINUOUS
 10
149.8628043005
 20
30.7228547004
 11
149.7471793074
 21
30.7873813202
 12
150.1518667936
 22
30.7873813202
 13
150.1518667936
 23
30.7873813202
  0
SOLID
  8
0
 62
7
  6
CONTINUOUS
 10
150.1518667936
 20
30.7873813202
 11
150.498741835
 21
30.7228547004
 12
149.8628043005
 22
30.7228547004
 13
149.8628043005
 23
30.7228547004
  0
SOLID
  8
0
 62
7
  6
CONTINUOUS
 10
150.0362418212
 20
30.658327332
 11
149.8628043005
 21
30.7228547004
 12
150.498741835
 22
30.7228547004
 13
150.498741835
 23
30.7228547004
  0
SOLID
  8
0
 62
7
  6
CONTINUOUS
 10
154.0831168074
 20
31.1100184386
 11
154.1987416972
 21
31.1745462761
 12
154.7768668074
 22
31.1422827828
 13
154.7768668074
 23
31.1422827828
  0
SOLID
  8
0
 62
7
  6
CONTINUOUS
 10
154.7768668074
 20
31.1422827828
 11
154.5456166972
 21
31.1100184386
 12
154.0831168074
 22
31.1100184386
 13
154.0831168074
 23
31.1100184386
  0
SOLID
  8
0
 62
7
  6
CONTINUOUS
 10
153.9674919177
 20
30.9809642992
 11
154.0831168074
 21
31.1100184386
 12
154.5456166972
 22
31.1100184386
 13
154.5456166972
 23
31.1100184386
  0
SOLID
  8
0
 62
7
  6
CONTINUOUS
 10
154.3143669177
 20
31.0132277988
 11
153.9674919177
 21
30.9809642992
 12
154.4299918074
 22
31.0777556927
 13
154.4299918074
 23
31.0777556927
  0
SOLID
  8
0
 62
7
  6
CONTINUOUS
 10
153.9674919177
 20
30.9809642992
 11
154.5456166972
 21
31.1100184796
 12
154.4299918074
 22
31.0777556927
 13
154.4299918074
 23
31.0777556927
  0
SOLID
  8
0
 62
7
  6
CONTINUOUS
 10
154.3143669177
 20
31.0132277988
 11
154.2565543074
 21
30.9164372091
 12
153.9674919177
 22
30.9809642992
 13
153.9674919177
 23
30.9809642992
  0
SOLID
  8
0
 62
7
  6
CONTINUOUS
 10
153.9674919177
 20
30.8841729058
 11
153.9674919177
 21
30.9809642992
 12
154.2565543074
 22
30.9164372091
 13
154.2565543074
 23
30.9164372091
  0
SOLID
  8
0
 62
7
  6
CONTINUOUS
 10
154.2565543074
 20
30.9164372091
 11
154.2565543074
 21
30.8519086025
 12
153.9674919177
 22
30.8841729058
 13
153.9674919177
 23
30.8841729058
  0
SOLID
  8
0
 62
7
  6
CONTINUOUS
 10
154.0253041972
 20
30.7551187255
 11
153.9674919177
 21
30.8841729058
 12
154.2565543074
 22
30.8519086025
 13
154.2565543074
 23
30.8519086025
  0
SOLID
  8
0
 62
7
  6
CONTINUOUS
 10
155.412804528
 20
30.9487004259
 11
155.7018665869
 21
30.8519086025
 12
155.3549915869
 22
30.8841729058
 13
155.3549915869
 23
30.8841729058
  0
SOLID
  8
0
 62
7
  6
CONTINUOUS
 10
155.1815540869
 20
30.7873815123
 11
155.3549915869
 21
30.8841729058
 12
155.7018665869
 22
30.8519086025
 13
155.7018665869
 23
30.8519086025
  0
SOLID
  8
0
 62
7
  6
CONTINUOUS
 10
155.1815540869
 20
30.7873815123
 11
155.7018665869
 21
30.8519086025
 12
155.412804528
 22
30.7551187255
 13
155.412804528
 23
30.7551187255
  0
SOLID
  8
0
 62
7
  6
CONTINUOUS
 10
155.7018665869
 20
30.8519086025
 11
155.759679528
 21
30.6905916353
 12
155.412804528
 22
30.7551187255
 13
155.412804528
 23
30.7551187255
  0
SOLID
  8
0
 62
7
  6
CONTINUOUS
 10
155.4706168074
 20
30.658327332
 11
155.412804528
 21
30.7551187255
 12
155.759679528
 22
30.6905916353
 13
155.759679528
 23
30.6905916353
  0
SOLID
  8
0
 62
7
  6
CONTINUOUS
 10
155.4706168074
 20
30.658327332
 11
155.759679528
 21
30.6905916353
 12
155.5284290869
 22
30.5938002079
 13
155.5284290869
 23
30.5938002079
  0
SOLID
  8
0
 62
7
  6
CONTINUOUS
 10
155.759679528
 20
30.6905916353
 11
155.8174918074
 21
30.5938002079
 12
155.5284290869
 22
30.5938002079
 13
155.5284290869
 23
30.5938002079
  0
SOLID
  8
0
 62
7
  6
CONTINUOUS
 10
151.0768668626
 20
30.8196456577
 11
151.1346793074
 21
30.9164373395
 12
151.4237418626
 22
30.9164373395
 13
151.4237418626
 23
30.9164373395
  0
SOLID
  8
0
 62
7
  6
CONTINUOUS
 10
151.4237418626
 20
30.9164373395
 11
151.3659292523
 21
30.7873815123
 12
151.0768668626
 22
30.8196456577
 13
151.0768668626
 23
30.8196456577
  0
SOLID
  8
0
 62
7
  6
CONTINUOUS
 10
150.9034292799
 20
30.7551187255
 11
151.0768668626
 21
30.8196456577
 12
151.3659292523
 22
30.7873815123
 13
151.3659292523
 23
30.7873815123
  0
SOLID
  8
0
 62
7
  6
CONTINUOUS
 10
150.9034292799
 20
30.7551187255
 11
151.3659292523
 21
30.7873815123
 12
150.498741835
 22
30.7228544222
 13
150.498741835
 23
30.7228544222
  0
SOLID
  8
0
 62
7
  6
CONTINUOUS
 10
151.3659292523
 20
30.7873815123
 11
151.1924917523
 21
30.6905916353
 12
150.498741835
 22
30.7228544222
 13
150.498741835
 23
30.7228544222
  0
SOLID
  8
0
 62
7
  6
CONTINUOUS
 10
150.0362418212
 20
30.658327332
 11
150.498741835
 21
30.7228544222
 12
151.1924917523
 22
30.6905916353
 13
151.1924917523
 23
30.6905916353
  0
SOLID
  8
0
 62
7
  6
CONTINUOUS
 10
150.0362418212
 20
30.658327332
 11
151.1924917523
 21
30.6905916353
 12
150.2096793212
 22
30.6260631011
 13
150.2096793212
 23
30.6260631011
  0
SOLID
  8
0
 62
7
  6
CONTINUOUS
 10
151.1924917523
 20
30.6905916353
 11
150.9612418074
 21
30.6260631011
 12
150.2096793212
 22
30.6260631011
 13
150.2096793212
 23
30.6260631011
  0
SOLID
  8
0
 62
7
  6
CONTINUOUS
 10
150.5565542799
 20
30.5938002419
 11
150.2096793212
 21
30.6260631011
 12
150.9612418074
 22
30.6260631011
 13
150.9612418074
 23
30.6260631011
  0
SOLID
  8
0
 62
7
  6
CONTINUOUS
 10
154.0253041972
 20
30.7551187255
 11
154.2565543074
 21
30.8519086025
 12
154.3143669177
 22
30.7873815123
 13
154.3143669177
 23
30.7873815123
  0
SOLID
  8
0
 62
7
  6
CONTINUOUS
 10
154.3143669177
 20
30.7873815123
 11
154.5456166972
 21
30.7228544222
 12
154.0253041972
 22
30.7551187255
 13
154.0253041972
 23
30.7551187255
  0
SOLID
  8
0
 62
7
  6
CONTINUOUS
 10
154.1987416972
 20
30.658327332
 11
154.0253041972
 21
30.7551187255
 12
154.5456166972
 22
30.7228544222
 13
154.5456166972
 23
30.7228544222
  0
SOLID
  8
0
 62
7
  6
CONTINUOUS
 10
154.8924916972
 20
30.7228544637
 11
155.1815540869
 21
30.7873815123
 12
155.412804528
 22
30.7551187255
 13
155.412804528
 23
30.7551187255
  0
SOLID
  8
0
 62
7
  6
CONTINUOUS
 10
155.412804528
 20
30.7551187255
 11
155.3549915869
 21
30.6905916353
 12
154.8924916972
 22
30.7228544637
 13
154.8924916972
 23
30.7228544637
  0
SOLID
  8
0
 62
7
  6
CONTINUOUS
 10
155.3549915869
 20
30.6905916353
 11
154.1987416972
 21
30.658327332
 12
154.8924916972
 22
30.7228544637
 13
154.8924916972
 23
30.7228544637
  0
SOLID
  8
0
 62
7
  6
CONTINUOUS
 10
154.1987416972
 20
30.658327332
 11
154.5456166972
 21
30.7228544637
 12
154.8924916972
 22
30.7228544637
 13
154.8924916972
 23
30.7228544637
  0
SOLID
  8
0
 62
7
  6
CONTINUOUS
 10
154.1987416972
 20
30.658327332
 11
155.3549915869
 21
30.6905916353
 12
154.3143669177
 22
30.6260630541
 13
154.3143669177
 23
30.6260630541
  0
SOLID
  8
0
 62
7
  6
CONTINUOUS
 10
155.3549915869
 20
30.6905916353
 11
155.1815540869
 21
30.6260630541
 12
154.3143669177
 22
30.6260630541
 13
154.3143669177
 23
30.6260630541
  0
SOLID
  8
0
 62
7
  6
CONTINUOUS
 10
154.5456166972
 20
30.5938002188
 11
154.3143669177
 21
30.6260630541
 12
155.1815540869
 22
30.6260630541
 13
155.1815540869
 23
30.6260630541
  0
SOLID
  8
0
 62
7
  6
CONTINUOUS
 10
155.1815540869
 20
30.6260630541
 11
154.8924916972
 21
30.5938002188
 12
154.5456166972
 22
30.5938002188
 13
154.5456166972
 23
30.5938002188
  0
SOLID
  8
0
 62
7
  6
CONTINUOUS
 10
159.575304528
 20
30.7551187255
 11
159.228429528
 21
30.7228544637
 12
159.4596793074
 22
30.7873815123
 13
159.4596793074
 23
30.7873815123
  0
SOLID
  8
0
 62
7
  6
CONTINUOUS
 10
159.4596793074
 20
30.7873815123
 11
159.228429528
 21
30.7228544637
 12
159.401867028
 22
30.851908644
 13
159.401867028
 23
30.851908644
  0
SOLID
  8
0
 62
7
  6
CONTINUOUS
 10
159.228429528
 20
30.7228544637
 11
159.1128043074
 21
30.851908644
 12
159.401867028
 22
30.851908644
 13
159.401867028
 23
30.851908644
  0
SOLID
  8
0
 62
7
  6
CONTINUOUS
 10
159.575304528
 20
30.7551187255
 11
159.922179528
 21
30.7228544637
 12
159.228429528
 22
30.7228544637
 13
159.228429528
 23
30.7228544637
  0
SOLID
  8
0
 62
7
  6
CONTINUOUS
 10
156.279992028
 20
30.5938002419
 11
156.279992028
 21
31.6262382337
 12
156.5690540869
 22
30.5938002419
 13
156.5690540869
 23
31.6262382337
  0
ENDBLK
  8
0
  6
BYBLOCK
 62
0
  0
BLOCK
  8
0
 62
2
  6
CONTINUOUS
  2
SYMBOL_3_BL0
 70
64
 10
32.1213064866
 20
19.8534310916
  0
TEXT
  8
0
 62
7
  6
CONTINUOUS
 10
18.3860103289
 20
19.2268451992
  7
TEXTSTYLE_3
 40
2.7338706658
  1
Ammeraal Beltech
 41
1.0
 51
15.0
 72
0
  0
TEXT
  8
0
 62
7
  6
CONTINUOUS
 10
29.1868111546
 20
16.9533085264
  7
TEXTSTYLE_4
 40
1.0935482663
  1
Innovation & Service in Belting
 41
1.0
 72
0
  0
LINE
  8
0
 62
7
  6
CONTINUOUS
 10
12.3614696776
 20
19.9934385078
 11
13.1396216709
 21
23.6543558055
  0
LINE
  8
0
 62
7
  6
CONTINUOUS
 10
23.2347899607
 20
27.3177497171
 11
13.6274394139
 21
24.1961322958
  0
LINE
  8
0
 62
7
  6
CONTINUOUS
 10
12.5867530099
 20
19.3000877048
 11
20.093828271
 21
12.5406867788
  0
LINE
  8
0
 62
7
  6
CONTINUOUS
 10
12.8492874206
 20
20.5352149982
 11
23.6575567857
 21
24.0470345971
  0
LINE
  8
0
 62
7
  6
CONTINUOUS
 10
23.6533516486
 20
13.6972460334
 11
15.2078919798
 21
21.3015720751
  0
LINE
  8
0
 62
7
  6
CONTINUOUS
 10
24.1731743684
 20
26.4728246013
 11
23.1966148312
 21
21.8784731989
  0
LINE
  8
0
 62
7
  6
CONTINUOUS
 10
22.4968128835
 20
18.5861638851
 11
21.810364672
 21
15.3566789607
  0
LINE
  8
0
 62
7
  6
CONTINUOUS
 10
24.8542704669
 20
14.087448211
 11
25.8105020025
 21
18.5861638851
  0
LINE
  8
0
 62
7
  6
CONTINUOUS
 10
26.5103039502
 20
21.8784731989
 11
26.9545457526
 21
23.9684665583
  0
LINE
  8
0
 62
7
  6
CONTINUOUS
 10
20.8069293463
 20
12.3891124661
 11
24.3664527239
 21
13.5456717207
  0
LINE
  8
0
 62
7
  6
CONTINUOUS
 10
23.9478910361
 20
27.1661754044
 11
26.7292624203
 21
24.6618173613
  0
ARC
  8
0
 62
7
  6
CONTINUOUS
 10
13.8527227462
 20
23.5027814928
 40
0.7290321776
 50
108.0
 51
168.0
  0
ARC
  8
0
 62
7
  6
CONTINUOUS
 10
23.4600732931
 20
26.624398914
 40
0.7290321776
 50
348.0
 51
108.0
  0
ARC
  8
0
 62
7
  6
CONTINUOUS
 10
26.2414446773
 20
24.120040871
 40
0.7290321776
 50
348.0
 51
48.0
  0
ARC
  8
0
 62
7
  6
CONTINUOUS
 10
20.581646014
 20
13.0824632691
 40
0.7290321776
 50
228.0
 51
288.0
  0
ARC
  8
0
 62
7
  6
CONTINUOUS
 10
13.0745707529
 20
19.8418641951
 40
0.7290321776
 50
108.0
 51
228.0
  0
ARC
  8
0
 62
7
  6
CONTINUOUS
 10
24.1411693916
 20
14.2390225237
 40
0.7290321776
 50
228.0
 51
348.0
  0
ENDBLK
  8
0
  6
BYBLOCK
 62
0
  0
ENDSEC
  0
SECTION
  2
ENTITIES
  0
TEXT
  8
0
 62
5
  6
CONTINUOUS
 10
96.0
 20
25.636
  7
TEXTSTYLE_2
 40
2.8
  1
Scale :
 41
0.6
 51
0.000019
 72
0
  0
TEXT
  8
0
 62
5
  6
CONTINUOUS
 10
116.0
 20
25.636
  7
TEXTSTYLE_2
 40
2.8
  1
Belt type:
 41
0.6
 51
0.000019
 72
0
  0
INSERT
  8
0
 62
2
  6
CONTINUOUS
  2
SYMBOL_3_BL0
 10
32.1213064866
 20
19.8534310916
  0
INSERT
  8
0
 62
2
  6
CONTINUOUS
  2
SYMBOL_8_BL1
 10
173.5956734183
 20
35.5937998301
  0
LINE
  8
0
 62
2
  6
CONTINUOUS
 10
10.0
 20
30.0
 11
200.0
 21
30.0
  0
LINE
  8
0
 62
2
  6
CONTINUOUS
 10
10.0
 20
30.0
 11
10.0
 21
10.0
  0
LINE
  8
0
 62
2
  6
CONTINUOUS
 10
10.0
 20
10.0
 11
200.0
 21
10.0
  0
LINE
  8
0
 62
2
  6
CONTINUOUS
 10
95.0
 20
30.0
 11
95.0
 21
10.0
  0
LINE
  8
0
 62
2
  6
CONTINUOUS
 10
115.0
 20
30.0
 11
115.0
 21
10.0
  0
LINE
  8
0
 62
2
  6
CONTINUOUS
 10
200.0
 20
30.0
 11
200.0
 21
10.0
  0
TEXT
  8
0
 62
5
  6
CONTINUOUS
 10
13.0
 20
23.303
  7
TEXTSTYLE_5
 40
1.52
  1
                                                                     Ammeraal Beltech Modular A/S
 41
1.0
 72
0
  0
TEXT
  8
0
 62
5
  6
CONTINUOUS
 10
13.0
 20
20.595
  7
TEXTSTYLE_5
 40
1.5
  1
                                                                      Hjulmagervej 21,  7100 Vejle,  DK
 41
1.0
 72
0
  0
TEXT
  8
0
 62
5
  6
CONTINUOUS
 10
13.0
 20
17.881
  7
TEXTSTYLE_5
 40
1.495
  1
                                                                      tel: 
 41
1.0
 72
0
  0
TEXT
  8
0
 62
5
  6
CONTINUOUS
 10
57.9869465649
 20
17.881
  7
TEXTSTYLE_5
 40
1.51
  1
+45 75723100     fax: +45 75723348
 41
1.0
 72
0
  0
TEXT
  8
0
 62
5
  6
CONTINUOUS
 10
13.0
 20
15.177
  7
TEXTSTYLE_5
 40
1.5
  1
                                                                      admin@unichains.dk  www.unichains.com
 41
1.0
 72
0
  0
TEXT
  8
0
 62
5
  6
CONTINUOUS
 10
99.75
 20
13.75
  7
TEXTSTYLE_6
 40
5.0
  1
1:1
 41
0.7
 72
1
 11
105.0
 21
13.75
  0
TEXT
  8
0
 62
5
  6
CONTINUOUS
 10
118.0
 20
13.75
  7
TEXTSTYLE_7
 40
7.5
  1
uni M-QNB Sprocket Z10
 41
0.4892045455
 72
0
  0
LINE
  8
0
 62
7
  6
CONTINUOUS
 10
210.0
 20
0.0
 11
0.0
 21
0.0
  0
LINE
  8
0
 62
7
  6
CONTINUOUS
 10
10.0
 20
10.0
 11
200.0
 21
10.0
  0
LINE
  8
0
 62
7
  6
CONTINUOUS
 10
10.0
 20
30.0
 11
200.0
 21
30.0
  0
LINE
  8
0
 62
7
  6
CONTINUOUS
 10
0.0
 20
0.0
 11
0.0
 21
297.0
  0
LINE
  8
0
 62
7
  6
CONTINUOUS
 10
10.0
 20
10.0
 11
10.0
 21
287.0
  0
LINE
  8
0
 62
7
  6
CONTINUOUS
 10
200.0
 20
287.0
 11
200.0
 21
10.0
  0
LINE
  8
0
 62
7
  6
CONTINUOUS
 10
210.0
 20
0.0
 11
210.0
 21
297.0
  0
LINE
  8
0
 62
7
  6
CONTINUOUS
 10
10.0
 20
287.0
 11
200.0
 21
287.0
  0
LINE
  8
0
 62
7
  6
CONTINUOUS
 10
0.0
 20
297.0
 11
210.0
 21
297.0
  0
POLYLINE
  8
0
 62
9
  6
CONTINUOUS
 66
1
 70
0
  0
VERTEX
  8
0
 62
9
  6
CONTINUOUS
 10
67.901821595
 20
225.3462465848
  0
VERTEX
  8
0
 62
9
  6
CONTINUOUS
 10
67.8634369243
 20
225.2231623602
  0
VERTEX
  8
0
 62
9
  6
CONTINUOUS
 10
67.8305058216
 20
225.1076635658
  0
VERTEX
  8
0
 62
9
  6
CONTINUOUS
 10
67.8052583224
 20
225.0075715816
  0
VERTEX
  8
0
 62
9
  6
CONTINUOUS
 10
67.7894041394
 20
224.9296644557
  0
VERTEX
  8
0
 62
9
  6
CONTINUOUS
 10
67.7840168855
 20
224.8792179118
  0
VERTEX
  8
0
 62
9
  6
CONTINUOUS
 10
67.7894613729
 20
224.8596480924
  0
SEQEND
  0
POLYLINE
  8
0
 62
9
  6
CONTINUOUS
 66
1
 70
0
  0
VERTEX
  8
0
 62
9
  6
CONTINUOUS
 10
67.6021227042
 20
225.4436654749
  0
VERTEX
  8
0
 62
9
  6
CONTINUOUS
 10
67.5689425885
 20
225.3378859447
  0
VERTEX
  8
0
 62
9
  6
CONTINUOUS
 10
67.539515763
 20
225.2368241346
  0
VERTEX
  8
0
 62
9
  6
CONTINUOUS
 10
67.5153086287
 20
225.1455161687
  0
VERTEX
  8
0
 62
9
  6
CONTINUOUS
 10
67.4975274787
 20
225.0685121168
  0
VERTEX
  8
0
 62
9
  6
CONTINUOUS
 10
67.4870583851
 20
225.0096492541
  0
VERTEX
  8
0
 62
9
  6
CONTINUOUS
 10
67.4844230453
 20
224.9718608418
  0
VERTEX
  8
0
 62
9
  6
CONTINUOUS
 10
67.4897527838
 20
224.9570299566
  0
SEQEND
  0
POLYLINE
  8
0
 62
9
  6
CONTINUOUS
 66
1
 70
0
  0
VERTEX
  8
0
 62
9
  6
CONTINUOUS
 10
68.3090077505
 20
227.6192339445
  0
VERTEX
  8
0
 62
9
  6
CONTINUOUS
 10
68.3443884026
 20
227.7244630207
  0
VERTEX
  8
0
 62
9
  6
CONTINUOUS
 10
68.3800382416
 20
227.8236365773
  0
VERTEX
  8
0
 62
9
  6
CONTINUOUS
 10
68.4141643659
 20
227.9118269474
  0
VERTEX
  8
0
 62
9
  6
CONTINUOUS
 10
68.4450610263
 20
227.9845560443
  0
VERTEX
  8
0
 62
9
  6
CONTINUOUS
 10
68.4711643455
 20
228.0382921558
  0
VERTEX
  8
0
 62
9
  6
CONTINUOUS
 10
68.4912289003
 20
228.0702387346
  0
VERTEX
  8
0
 62
9
  6
CONTINUOUS
 10
68.5041357561
 20
228.0789797309
  0
SEQEND
  0
POLYLINE
  8
0
 62
9
  6
CONTINUOUS
 66
1
 70
0
  0
VERTEX
  8
0
 62
9
  6
CONTINUOUS
 10
68.6087306263
 20
227.5218888967
  0
VERTEX
  8
0
 62
9
  6
CONTINUOUS
 10
68.6500238228
 20
227.6440278943
  0
VERTEX
  8
0
 62
9
  6
CONTINUOUS
 10
68.6912704437
 20
227.7568246424
  0
VERTEX
  8
0
 62
9
  6
CONTINUOUS
 10
68.7296773413
 20
227.8526407464
  0
VERTEX
  8
0
 62
9
  6
CONTINUOUS
 10
68.7626436692
 20
227.9249877109
  0
VERTEX
  8
0
 62
9
  6
CONTINUOUS
 10
68.7879370065
 20
227.9689663286
  0
VERTEX
  8
0
 62
9
  6
CONTINUOUS
 10
68.8038445335
 20
227.9815984459
  0
SEQEND
  0
POLYLINE
  8
0
 62
9
  6
CONTINUOUS
 66
1
 70
0
  0
VERTEX
  8
0
 62
9
  6
CONTINUOUS
 10
74.5703385398
 20
235.7273382336
  0
VERTEX
  8
0
 62
9
  6
CONTINUOUS
 10
74.4669375967
 20
235.6503229474
  0
VERTEX
  8
0
 62
9
  6
CONTINUOUS
 10
74.3724072865
 20
235.5762388761
  0
VERTEX
  8
0
 62
9
  6
CONTINUOUS
 10
74.2931490376
 20
235.510102867
  0
VERTEX
  8
0
 62
9
  6
CONTINUOUS
 10
74.2345300736
 20
235.4563935326
  0
VERTEX
  8
0
 62
9
  6
CONTINUOUS
 10
74.2005199586
 20
235.4187479692
  0
VERTEX
  8
0
 62
9
  6
CONTINUOUS
 10
74.1934217901
 20
235.3997154631
  0
SEQEND
  0
POLYLINE
  8
0
 62
9
  6
CONTINUOUS
 66
1
 70
0
  0
VERTEX
  8
0
 62
9
  6
CONTINUOUS
 10
74.3851384309
 20
235.9823103593
  0
VERTEX
  8
0
 62
9
  6
CONTINUOUS
 10
74.2961195055
 20
235.9162357044
  0
VERTEX
  8
0
 62
9
  6
CONTINUOUS
 10
74.212910062
 20
235.8517716366
  0
VERTEX
  8
0
 62
9
  6
CONTINUOUS
 10
74.1396566033
 20
235.792130537
  0
VERTEX
  8
0
 62
9
  6
CONTINUOUS
 10
74.0800095046
 20
235.7402844482
  0
VERTEX
  8
0
 62
9
  6
CONTINUOUS
 10
74.0369411074
 20
235.6988169707
  0
VERTEX
  8
0
 62
9
  6
CONTINUOUS
 10
74.0125976012
 20
235.6697945168
  0
VERTEX
  8
0
 62
9
  6
CONTINUOUS
 10
74.0081920746
 20
235.654663337
  0
SEQEND
  0
POLYLINE
  8
0
 62
9
  6
CONTINUOUS
 66
1
 70
0
  0
VERTEX
  8
0
 62
9
  6
CONTINUOUS
 10
76.2357875081
 20
237.3268856183
  0
VERTEX
  8
0
 62
9
  6
CONTINUOUS
 10
76.3262631561
 20
237.3912215038
  0
VERTEX
  8
0
 62
9
  6
CONTINUOUS
 10
76.4133972357
 20
237.4505001469
  0
VERTEX
  8
0
 62
9
  6
CONTINUOUS
 10
76.4928428491
 20
237.5017888225
  0
VERTEX
  8
0
 62
9
  6
CONTINUOUS
 10
76.560587863
 20
237.5424672965
  0
VERTEX
  8
0
 62
9
  6
CONTINUOUS
 10
76.6132911857
 20
237.5705975778
  0
VERTEX
  8
0
 62
9
  6
CONTINUOUS
 10
76.6483014794
 20
237.5846492537
  0
VERTEX
  8
0
 62
9
  6
CONTINUOUS
 10
76.6638811737
 20
237.5841344087
  0
SEQEND
  0
POLYLINE
  8
0
 62
9
  6
CONTINUOUS
 66
1
 70
0
  0
VERTEX
  8
0
 62
9
  6
CONTINUOUS
 10
76.4210504248
 20
237.0719591342
  0
VERTEX
  8
0
 62
9
  6
CONTINUOUS
 10
76.5262488241
 20
237.1465001271
  0
VERTEX
  8
0
 62
9
  6
CONTINUOUS
 10
76.6259183063
 20
237.2135104577
  0
VERTEX
  8
0
 62
9
  6
CONTINUOUS
 10
76.7133094321
 20
237.2684523062
  0
VERTEX
  8
0
 62
9
  6
CONTINUOUS
 10
76.7825042304
 20
237.3076051086
  0
VERTEX
  8
0
 62
9
  6
CONTINUOUS
 10
76.828816953
 20
237.328317507
  0
VERTEX
  8
0
 62
9
  6
CONTINUOUS
 10
76.8491113849
 20
237.3291868949
  0
SEQEND
  0
POLYLINE
  8
0
 62
9
  6
CONTINUOUS
 66
1
 70
0
  0
VERTEX
  8
0
 62
9
  6
CONTINUOUS
 10
88.3547403508
 20
200.3438381171
  0
VERTEX
  8
0
 62
9
  6
CONTINUOUS
 10
88.4836619198
 20
200.3453672433
  0
VERTEX
  8
0
 62
9
  6
CONTINUOUS
 10
88.6036840693
 20
200.3497389941
  0
VERTEX
  8
0
 62
9
  6
CONTINUOUS
 10
88.7066791067
 20
200.3566573197
  0
VERTEX
  8
0
 62
9
  6
CONTINUOUS
 10
88.7856723957
 20
200.3656537214
  0
VERTEX
  8
0
 62
9
  6
CONTINUOUS
 10
88.8353146609
 20
200.3761189777
  0
VERTEX
  8
0
 62
9
  6
CONTINUOUS
 10
88.8522442254
 20
200.3873443995
  0
SEQEND
  0
POLYLINE
  8
0
 62
9
  6
CONTINUOUS
 66
1
 70
0
  0
VERTEX
  8
0
 62
9
  6
CONTINUOUS
 10
88.354701531
 20
200.0287034417
  0
VERTEX
  8
0
 62
9
  6
CONTINUOUS
 10
88.4655570621
 20
200.0298349489
  0
VERTEX
  8
0
 62
9
  6
CONTINUOUS
 10
88.5707659444
 20
200.0330781915
  0
VERTEX
  8
0
 62
9
  6
CONTINUOUS
 10
88.6650853961
 20
200.0382715519
  0
VERTEX
  8
0
 62
9
  6
CONTINUOUS
 10
88.743815279
 20
200.0451562339
  0
VERTEX
  8
0
 62
9
  6
CONTINUOUS
 10
88.803032316
 20
200.0533891593
  0
VERTEX
  8
0
 62
9
  6
CONTINUOUS
 10
88.8397855966
 20
200.0625600638
  0
VERTEX
  8
0
 62
9
  6
CONTINUOUS
 10
88.8522436268
 20
200.0722119418
  0
SEQEND
  0
POLYLINE
  8
0
 62
9
  6
CONTINUOUS
 66
1
 70
0
  0
VERTEX
  8
0
 62
9
  6
CONTINUOUS
 10
86.067173469
 20
200.0287034417
  0
VERTEX
  8
0
 62
9
  6
CONTINUOUS
 10
85.9561614476
 20
200.0298348686
  0
VERTEX
  8
0
 62
9
  6
CONTINUOUS
 10
85.8508253842
 20
200.0330935659
  0
VERTEX
  8
0
 62
9
  6
CONTINUOUS
 10
85.7564058057
 20
200.0382971156
  0
VERTEX
  8
0
 62
9
  6
CONTINUOUS
 10
85.6776887311
 20
200.0452070589
  0
VERTEX
  8
0
 62
9
  6
CONTINUOUS
 10
85.6185162828
 20
200.0534274191
  0
VERTEX
  8
0
 62
9
  6
CONTINUOUS
 10
85.5819329924
 20
200.0626379089
  0
VERTEX
  8
0
 62
9
  6
CONTINUOUS
 10
85.5696313732
 20
200.0722119418
  0
SEQEND
  0
POLYLINE
  8
0
 62
9
  6
CONTINUOUS
 66
1
 70
0
  0
VERTEX
  8
0
 62
9
  6
CONTINUOUS
 10
86.0671346488
 20
200.3438381099
  0
VERTEX
  8
0
 62
9
  6
CONTINUOUS
 10
85.9382132597
 20
200.3453672476
  0
VERTEX
  8
0
 62
9
  6
CONTINUOUS
 10
85.8181912706
 20
200.349739003
  0
VERTEX
  8
0
 62
9
  6
CONTINUOUS
 10
85.7151963565
 20
200.3566573288
  0
VERTEX
  8
0
 62
9
  6
CONTINUOUS
 10
85.6362031489
 20
200.3656537283
  0
VERTEX
  8
0
 62
9
  6
CONTINUOUS
 10
85.5865609269
 20
200.3761189813
  0
VERTEX
  8
0
 62
9
  6
CONTINUOUS
 10
85.5696313732
 20
200.3873443995
  0
SEQEND
  0
POLYLINE
  8
0
 62
9
  6
CONTINUOUS
 66
1
 70
0
  0
VERTEX
  8
0
 62
9
  6
CONTINUOUS
 10
76.4210504287
 20
203.4780408719
  0
VERTEX
  8
0
 62
9
  6
CONTINUOUS
 10
76.5262489669
 20
203.4034997639
  0
VERTEX
  8
0
 62
9
  6
CONTINUOUS
 10
76.6259185766
 20
203.3364893347
  0
VERTEX
  8
0
 62
9
  6
CONTINUOUS
 10
76.7133098027
 20
203.2815474131
  0
VERTEX
  8
0
 62
9
  6
CONTINUOUS
 10
76.7825046689
 20
203.2423945641
  0
VERTEX
  8
0
 62
9
  6
CONTINUOUS
 10
76.828817429
 20
203.2216821426
  0
VERTEX
  8
0
 62
9
  6
CONTINUOUS
 10
76.849111872
 20
203.2208127512
  0
SEQEND
  0
POLYLINE
  8
0
 62
9
  6
CONTINUOUS
 66
1
 70
0
  0
VERTEX
  8
0
 62
9
  6
CONTINUOUS
 10
76.2357875081
 20
203.2231143817
  0
VERTEX
  8
0
 62
9
  6
CONTINUOUS
 10
76.3261365999
 20
203.1588705439
  0
VERTEX
  8
0
 62
9
  6
CONTINUOUS
 10
76.4131587039
 20
203.0996541529
  0
VERTEX
  8
0
 62
9
  6
CONTINUOUS
 10
76.4925173239
 20
203.048416087
  0
VERTEX
  8
0
 62
9
  6
CONTINUOUS
 10
76.5602578517
 20
203.0077096476
  0
VERTEX
  8
0
 62
9
  6
CONTINUOUS
 10
76.613004633
 20
202.9795633231
  0
VERTEX
  8
0
 62
9
  6
CONTINUOUS
 10
76.648129184
 20
202.9653797044
  0
VERTEX
  8
0
 62
9
  6
CONTINUOUS
 10
76.6638811737
 20
202.9658655913
  0
SEQEND
  0
POLYLINE
  8
0
 62
9
  6
CONTINUOUS
 66
1
 70
0
  0
VERTEX
  8
0
 62
9
  6
CONTINUOUS
 10
74.3851384309
 20
204.5676896407
  0
VERTEX
  8
0
 62
9
  6
CONTINUOUS
 10
74.295992855
 20
204.6338562133
  0
VERTEX
  8
0
 62
9
  6
CONTINUOUS
 10
74.2126896038
 20
204.6984075394
  0
VERTEX
  8
0
 62
9
  6
CONTINUOUS
 10
74.13936113
 20
204.7581157353
  0
VERTEX
  8
0
 62
9
  6
CONTINUOUS
 10
74.0797392416
 20
204.8099747325
  0
VERTEX
  8
0
 62
9
  6
CONTINUOUS
 10
74.0366995319
 20
204.851405836
  0
VERTEX
  8
0
 62
9
  6
CONTINUOUS
 10
74.0125168183
 20
204.8803603973
  0
VERTEX
  8
0
 62
9
  6
CONTINUOUS
 10
74.0081920746
 20
204.895336663
  0
SEQEND
  0
POLYLINE
  8
0
 62
9
  6
CONTINUOUS
 66
1
 70
0
  0
VERTEX
  8
0
 62
9
  6
CONTINUOUS
 10
74.5703385351
 20
204.8226617607
  0
VERTEX
  8
0
 62
9
  6
CONTINUOUS
 10
74.466937745
 20
204.8996769503
  0
VERTEX
  8
0
 62
9
  6
CONTINUOUS
 10
74.3724075695
 20
204.9737609299
  0
VERTEX
  8
0
 62
9
  6
CONTINUOUS
 10
74.2931494235
 20
205.0398968647
  0
VERTEX
  8
0
 62
9
  6
CONTINUOUS
 10
74.234530527
 20
205.0936061472
  0
VERTEX
  8
0
 62
9
  6
CONTINUOUS
 10
74.2005204472
 20
205.1312516806
  0
VERTEX
  8
0
 62
9
  6
CONTINUOUS
 10
74.1934222858
 20
205.1502841768
  0
SEQEND
  0
POLYLINE
  8
0
 62
9
  6
CONTINUOUS
 66
1
 70
0
  0
VERTEX
  8
0
 62
9
  6
CONTINUOUS
 10
68.6087306331
 20
213.028111106
  0
VERTEX
  8
0
 62
9
  6
CONTINUOUS
 10
68.6500238743
 20
212.9059719334
  0
VERTEX
  8
0
 62
9
  6
CONTINUOUS
 10
68.6912705405
 20
212.79317503
  0
VERTEX
  8
0
 62
9
  6
CONTINUOUS
 10
68.7296774765
 20
212.697358807
  0
VERTEX
  8
0
 62
9
  6
CONTINUOUS
 10
68.7626438323
 20
212.625011764
  0
VERTEX
  8
0
 62
9
  6
CONTINUOUS
 10
68.7879371866
 20
212.581033105
  0
VERTEX
  8
0
 62
9
  6
CONTINUOUS
 10
68.8038447206
 20
212.5684009781
  0
SEQEND
  0
POLYLINE
  8
0
 62
9
  6
CONTINUOUS
 66
1
 70
0
  0
VERTEX
  8
0
 62
9
  6
CONTINUOUS
 10
68.3090077505
 20
212.9307660555
  0
VERTEX
  8
0
 62
9
  6
CONTINUOUS
 10
68.3443401208
 20
212.8256858353
  0
VERTEX
  8
0
 62
9
  6
CONTINUOUS
 10
68.3799359605
 20
212.7266284593
  0
VERTEX
  8
0
 62
9
  6
CONTINUOUS
 10
68.4140214532
 20
212.6385301667
  0
VERTEX
  8
0
 62
9
  6
CONTINUOUS
 10
68.4448980467
 20
212.5657810823
  0
VERTEX
  8
0
 62
9
  6
CONTINUOUS
 10
68.4710270947
 20
212.5120064472
  0
VERTEX
  8
0
 62
9
  6
CONTINUOUS
 10
68.4911065315
 20
212.4798859656
  0
VERTEX
  8
0
 62
9
  6
CONTINUOUS
 10
68.5041357561
 20
212.4710202691
  0
SEQEND
  0
POLYLINE
  8
0
 62
9
  6
CONTINUOUS
 66
1
 70
0
  0
VERTEX
  8
0
 62
9
  6
CONTINUOUS
 10
67.6021227042
 20
215.1063345251
  0
VERTEX
  8
0
 62
9
  6
CONTINUOUS
 10
67.568894154
 20
215.2122628616
  0
VERTEX
  8
0
 62
9
  6
CONTINUOUS
 10
67.5394427255
 20
215.3134504039
  0
VERTEX
  8
0
 62
9
  6
CONTINUOUS
 10
67.5152143411
 20
215.4048567446
  0
VERTEX
  8
0
 62
9
  6
CONTINUOUS
 10
67.4974611739
 20
215.4818564213
  0
VERTEX
  8
0
 62
9
  6
CONTINUOUS
 10
67.4869939089
 20
215.5406729948
  0
VERTEX
  8
0
 62
9
  6
CONTINUOUS
 10
67.4844487467
 20
215.5783119694
  0
VERTEX
  8
0
 62
9
  6
CONTINUOUS
 10
67.4897527838
 20
215.5929700434
  0
SEQEND
  0
POLYLINE
  8
0
 62
9
  6
CONTINUOUS
 66
1
 70
0
  0
VERTEX
  8
0
 62
9
  6
CONTINUOUS
 10
67.9018215878
 20
215.2037534133
  0
VERTEX
  8
0
 62
9
  6
CONTINUOUS
 10
67.863436984
 20
215.32683747
  0
VERTEX
  8
0
 62
9
  6
CONTINUOUS
 10
67.8305059362
 20
215.4423361116
  0
VERTEX
  8
0
 62
9
  6
CONTINUOUS
 10
67.8052584763
 20
215.5424279761
  0
VERTEX
  8
0
 62
9
  6
CONTINUOUS
 10
67.789404317
 20
215.6203350212
  0
VERTEX
  8
0
 62
9
  6
CONTINUOUS
 10
67.7840170738
 20
215.6707815209
  0
VERTEX
  8
0
 62
9
  6
CONTINUOUS
 10
67.7894615612
 20
215.6903513283
  0
SEQEND
  0
POLYLINE
  8
0
 62
7
  6
CONTINUOUS
 66
1
 70
0
  0
VERTEX
  8
0
 62
7
  6
CONTINUOUS
 10
70.9423609692
 20
227.3527152997
  0
VERTEX
  8
0
 62
7
  6
CONTINUOUS
 10
70.9428107247
 20
227.3446386407
  0
VERTEX
  8
0
 62
7
  6
CONTINUOUS
 10
70.9415685204
 20
227.3363616799
  0
VERTEX
  8
0
 62
7
  6
CONTINUOUS
 10
70.9386876866
 20
227.327950518
  0
SEQEND
  0
LINE
  8
0
 62
7
  6
CONTINUOUS
 10
70.8289719263
 20
220.5903235506
 11
70.8289719263
 21
219.9596764494
  0
POLYLINE
  8
0
 62
7
  6
CONTINUOUS
 66
1
 70
0
  0
VERTEX
  8
0
 62
7
  6
CONTINUOUS
 10
70.942360245
 20
213.1972688269
  0
VERTEX
  8
0
 62
7
  6
CONTINUOUS
 10
70.9428107277
 20
213.2053612968
  0
VERTEX
  8
0
 62
7
  6
CONTINUOUS
 10
70.9415685284
 20
213.2136382879
  0
VERTEX
  8
0
 62
7
  6
CONTINUOUS
 10
70.9386876866
 20
213.222049482
  0
SEQEND
  0
POLYLINE
  8
0
 62
7
  6
CONTINUOUS
 66
1
 70
0
  0
VERTEX
  8
0
 62
7
  6
CONTINUOUS
 10
78.2095576507
 20
235.5634188836
  0
VERTEX
  8
0
 62
7
  6
CONTINUOUS
 10
78.2051757898
 20
235.5566227874
  0
VERTEX
  8
0
 62
7
  6
CONTINUOUS
 10
78.199305755
 20
235.550656745
  0
VERTEX
  8
0
 62
7
  6
CONTINUOUS
 10
78.1920311639
 20
235.5455452915
  0
SEQEND
  0
LINE
  8
0
 62
7
  6
CONTINUOUS
 10
74.1429914824
 20
230.159179879
 11
73.7723064169
 21
229.6489756566
  0
POLYLINE
  8
0
 62
7
  6
CONTINUOUS
 66
1
 70
0
  0
VERTEX
  8
0
 62
7
  6
CONTINUOUS
 10
69.8891952466
 20
224.111423953
  0
VERTEX
  8
0
 62
7
  6
CONTINUOUS
 10
69.894317094
 20
224.1177071262
  0
VERTEX
  8
0
 62
7
  6
CONTINUOUS
 10
69.8981772345
 20
224.1251335066
  0
VERTEX
  8
0
 62
7
  6
CONTINUOUS
 10
69.9007905646
 20
224.1336316324
  0
SEQEND
  0
POLYLINE
  8
0
 62
7
  6
CONTINUOUS
 66
1
 70
0
  0
VERTEX
  8
0
 62
7
  6
CONTINUOUS
 10
88.9149725543
 20
237.9344679823
  0
VERTEX
  8
0
 62
7
  6
CONTINUOUS
 10
88.9074357123
 20
237.9315464495
  0
VERTEX
  8
0
 62
7
  6
CONTINUOUS
 10
88.8991800128
 20
237.9301701449
  0
VERTEX
  8
0
 62
7
  6
CONTINUOUS
 10
88.8902903202
 20
237.9303107904
  0
SEQEND
  0
LINE
  8
0
 62
7
  6
CONTINUOUS
 10
82.448522254
 20
235.9526154445
 11
81.8487412189
 21
235.7577347727
  0
POLYLINE
  8
0
 62
7
  6
CONTINUOUS
 66
1
 70
0
  0
VERTEX
  8
0
 62
7
  6
CONTINUOUS
 10
98.9695223614
 20
206.9898014982
  0
VERTEX
  8
0
 62
7
  6
CONTINUOUS
 10
98.9616910343
 20
206.9877305054
  0
VERTEX
  8
0
 62
7
  6
CONTINUOUS
 10
98.9542030406
 20
206.9839913775
  0
VERTEX
  8
0
 62
7
  6
CONTINUOUS
 10
98.9470937783
 20
206.9786523507
  0
SEQEND
  0
POLYLINE
  8
0
 62
7
  6
CONTINUOUS
 66
1
 70
0
  0
VERTEX
  8
0
 62
7
  6
CONTINUOUS
 10
75.4523582292
 20
206.9898001253
  0
VERTEX
  8
0
 62
7
  6
CONTINUOUS
 10
75.4601839201
 20
206.9877305226
  0
VERTEX
  8
0
 62
7
  6
CONTINUOUS
 10
75.4676719375
 20
206.9839913912
  0
VERTEX
  8
0
 62
7
  6
CONTINUOUS
 10
75.4747812217
 20
206.9786523507
  0
SEQEND
  0
LINE
  8
0
 62
7
  6
CONTINUOUS
 10
81.8487412189
 20
204.7922652273
 11
82.448522254
 21
204.5973845555
  0
POLYLINE
  8
0
 62
7
  6
CONTINUOUS
 66
1
 70
0
  0
VERTEX
  8
0
 62
7
  6
CONTINUOUS
 10
88.9149902545
 20
202.6155253336
  0
VERTEX
  8
0
 62
7
  6
CONTINUOUS
 10
88.9074357751
 20
202.6184535334
  0
VERTEX
  8
0
 62
7
  6
CONTINUOUS
 10
88.8991800471
 20
202.6198298527
  0
VERTEX
  8
0
 62
7
  6
CONTINUOUS
 10
88.8902903202
 20
202.6196892096
  0
SEQEND
  0
POLYLINE
  8
0
 62
7
  6
CONTINUOUS
 66
1
 70
0
  0
VERTEX
  8
0
 62
7
  6
CONTINUOUS
 10
69.889204181
 20
216.4385648399
  0
VERTEX
  8
0
 62
7
  6
CONTINUOUS
 10
69.8943171276
 20
216.4322928226
  0
VERTEX
  8
0
 62
7
  6
CONTINUOUS
 10
69.8981772466
 20
216.4248664634
  0
VERTEX
  8
0
 62
7
  6
CONTINUOUS
 10
69.9007905646
 20
216.4163683676
  0
SEQEND
  0
LINE
  8
0
 62
7
  6
CONTINUOUS
 10
73.7723064168
 20
210.9010243434
 11
74.1429914823
 21
210.3908201211
  0
POLYLINE
  8
0
 62
7
  6
CONTINUOUS
 66
1
 70
0
  0
VERTEX
  8
0
 62
7
  6
CONTINUOUS
 10
78.2095672271
 20
204.9865665636
  0
VERTEX
  8
0
 62
7
  6
CONTINUOUS
 10
78.2051758298
 20
204.9933771628
  0
VERTEX
  8
0
 62
7
  6
CONTINUOUS
 10
78.1993057809
 20
204.9993432333
  0
VERTEX
  8
0
 62
7
  6
CONTINUOUS
 10
78.1920311639
 20
205.0044547085
  0
SEQEND
  0
POLYLINE
  8
0
 62
7
  6
CONTINUOUS
 66
1
 70
0
  0
VERTEX
  8
0
 62
7
  6
CONTINUOUS
 10
70.9423713481
 20
213.1974688368
  0
VERTEX
  8
0
 62
7
  6
CONTINUOUS
 10
70.9254391601
 20
213.0914914937
  0
VERTEX
  8
0
 62
7
  6
CONTINUOUS
 10
70.9103417416
 20
212.9914941322
  0
VERTEX
  8
0
 62
7
  6
CONTINUOUS
 10
70.8977902721
 20
212.9021943216
  0
VERTEX
  8
0
 62
7
  6
CONTINUOUS
 10
70.8883747616
 20
212.8278023391
  0
VERTEX
  8
0
 62
7
  6
CONTINUOUS
 10
70.8825335796
 20
212.7718209517
  0
VERTEX
  8
0
 62
7
  6
CONTINUOUS
 10
70.8805173828
 20
212.7368833594
  0
VERTEX
  8
0
 62
7
  6
CONTINUOUS
 10
70.8825824094
 20
212.7245993732
  0
SEQEND
  0
POLYLINE
  8
0
 62
7
  6
CONTINUOUS
 66
1
 70
0
  0
VERTEX
  8
0
 62
7
  6
CONTINUOUS
 10
78.2094592093
 20
235.5632662558
  0
VERTEX
  8
0
 62
7
  6
CONTINUOUS
 10
78.2580529417
 20
235.6589560226
  0
VERTEX
  8
0
 62
7
  6
CONTINUOUS
 10
78.3046161448
 20
235.7487294986
  0
VERTEX
  8
0
 62
7
  6
CONTINUOUS
 10
78.3469512724
 20
235.828352012
  0
VERTEX
  8
0
 62
7
  6
CONTINUOUS
 10
78.3830609657
 20
235.8940705029
  0
VERTEX
  8
0
 62
7
  6
CONTINUOUS
 10
78.411241192
 20
235.942793378
  0
VERTEX
  8
0
 62
7
  6
CONTINUOUS
 10
78.4301480063
 20
235.9722424863
  0
VERTEX
  8
0
 62
7
  6
CONTINUOUS
 10
78.4390348394
 20
235.9809687576
  0
SEQEND
  0
POLYLINE
  8
0
 62
7
  6
CONTINUOUS
 66
1
 70
0
  0
VERTEX
  8
0
 62
7
  6
CONTINUOUS
 10
69.889322587
 20
224.1115802154
  0
VERTEX
  8
0
 62
7
  6
CONTINUOUS
 10
69.8133321876
 20
224.0357952905
  0
VERTEX
  8
0
 62
7
  6
CONTINUOUS
 10
69.7423410899
 20
223.9637698257
  0
VERTEX
  8
0
 62
7
  6
CONTINUOUS
 10
69.6796975609
 20
223.8989024006
  0
VERTEX
  8
0
 62
7
  6
CONTINUOUS
 10
69.6283536531
 20
223.8442524156
  0
VERTEX
  8
0
 62
7
  6
CONTINUOUS
 10
69.5907228493
 20
223.8023960422
  0
VERTEX
  8
0
 62
7
  6
CONTINUOUS
 10
69.5685554904
 20
223.775316455
  0
VERTEX
  8
0
 62
7
  6
CONTINUOUS
 10
69.5630066113
 20
223.7641638879
  0
SEQEND
  0
POLYLINE
  8
0
 62
7
  6
CONTINUOUS
 66
1
 70
0
  0
VERTEX
  8
0
 62
7
  6
CONTINUOUS
 10
88.9148059763
 20
237.9344034403
  0
VERTEX
  8
0
 62
7
  6
CONTINUOUS
 10
89.0103642065
 20
237.9832553366
  0
VERTEX
  8
0
 62
7
  6
CONTINUOUS
 10
89.1008021977
 20
238.0285143632
  0
VERTEX
  8
0
 62
7
  6
CONTINUOUS
 10
89.1818530251
 20
238.0680462743
  0
VERTEX
  8
0
 62
7
  6
CONTINUOUS
 10
89.2496948086
 20
238.0999887792
  0
VERTEX
  8
0
 62
7
  6
CONTINUOUS
 10
89.301131793
 20
238.1228422747
  0
VERTEX
  8
0
 62
7
  6
CONTINUOUS
 10
89.3337377867
 20
238.1355533664
  0
VERTEX
  8
0
 62
7
  6
CONTINUOUS
 10
89.3460559794
 20
238.1373906638
  0
SEQEND
  0
POLYLINE
  8
0
 62
7
  6
CONTINUOUS
 66
1
 70
0
  0
VERTEX
  8
0
 62
7
  6
CONTINUOUS
 10
98.9693329929
 20
206.989751388
  0
VERTEX
  8
0
 62
7
  6
CONTINUOUS
 10
99.0753557408
 20
207.0063969545
  0
VERTEX
  8
0
 62
7
  6
CONTINUOUS
 10
99.1751242133
 20
207.0229395902
  0
VERTEX
  8
0
 62
7
  6
CONTINUOUS
 10
99.2639319628
 20
207.0385978869
  0
VERTEX
  8
0
 62
7
  6
CONTINUOUS
 10
99.3375924438
 20
207.0526319912
  0
VERTEX
  8
0
 62
7
  6
CONTINUOUS
 10
99.3926388352
 20
207.0643765796
  0
VERTEX
  8
0
 62
7
  6
CONTINUOUS
 10
99.4264892247
 20
207.0732572156
  0
VERTEX
  8
0
 62
7
  6
CONTINUOUS
 10
99.4375344341
 20
207.0790135709
  0
SEQEND
  0
POLYLINE
  8
0
 62
7
  6
CONTINUOUS
 66
1
 70
0
  0
VERTEX
  8
0
 62
7
  6
CONTINUOUS
 10
75.4525419644
 20
206.9897515046
  0
VERTEX
  8
0
 62
7
  6
CONTINUOUS
 10
75.3465192722
 20
207.0063968819
  0
VERTEX
  8
0
 62
7
  6
CONTINUOUS
 10
75.2467507716
 20
207.0229393296
  0
VERTEX
  8
0
 62
7
  6
CONTINUOUS
 10
75.1579429495
 20
207.0385974117
  0
VERTEX
  8
0
 62
7
  6
CONTINUOUS
 10
75.0842823858
 20
207.0526312222
  0
VERTEX
  8
0
 62
7
  6
CONTINUOUS
 10
75.0292359075
 20
207.0643752986
  0
VERTEX
  8
0
 62
7
  6
CONTINUOUS
 10
74.9953853271
 20
207.0732545385
  0
VERTEX
  8
0
 62
7
  6
CONTINUOUS
 10
74.9843405676
 20
207.0790135822
  0
SEQEND
  0
POLYLINE
  8
0
 62
7
  6
CONTINUOUS
 66
1
 70
0
  0
VERTEX
  8
0
 62
7
  6
CONTINUOUS
 10
88.9148061216
 20
202.6155966725
  0
VERTEX
  8
0
 62
7
  6
CONTINUOUS
 10
89.0103643063
 20
202.5667445416
  0
VERTEX
  8
0
 62
7
  6
CONTINUOUS
 10
89.1008021717
 20
202.5214853044
  0
VERTEX
  8
0
 62
7
  6
CONTINUOUS
 10
89.1818528172
 20
202.4819531598
  0
VERTEX
  8
0
 62
7
  6
CONTINUOUS
 10
89.2496943723
 20
202.4500103247
  0
VERTEX
  8
0
 62
7
  6
CONTINUOUS
 10
89.3011310249
 20
202.4271562331
  0
VERTEX
  8
0
 62
7
  6
CONTINUOUS
 10
89.3337361804
 20
202.414443499
  0
VERTEX
  8
0
 62
7
  6
CONTINUOUS
 10
89.3460559947
 20
202.4126093657
  0
SEQEND
  0
POLYLINE
  8
0
 62
7
  6
CONTINUOUS
 66
1
 70
0
  0
VERTEX
  8
0
 62
7
  6
CONTINUOUS
 10
69.8893225271
 20
216.4384196208
  0
VERTEX
  8
0
 62
7
  6
CONTINUOUS
 10
69.8133323293
 20
216.514204649
  0
VERTEX
  8
0
 62
7
  6
CONTINUOUS
 10
69.7423413823
 20
216.5862302873
  0
VERTEX
  8
0
 62
7
  6
CONTINUOUS
 10
69.6796980045
 20
216.6510979446
  0
VERTEX
  8
0
 62
7
  6
CONTINUOUS
 10
69.6283543194
 20
216.7057482296
  0
VERTEX
  8
0
 62
7
  6
CONTINUOUS
 10
69.5907239433
 20
216.747605066
  0
VERTEX
  8
0
 62
7
  6
CONTINUOUS
 10
69.5685577852
 20
216.7746858532
  0
VERTEX
  8
0
 62
7
  6
CONTINUOUS
 10
69.5630065858
 20
216.7858360862
  0
SEQEND
  0
POLYLINE
  8
0
 62
7
  6
CONTINUOUS
 66
1
 70
0
  0
VERTEX
  8
0
 62
7
  6
CONTINUOUS
 10
78.2094593904
 20
204.9867337503
  0
VERTEX
  8
0
 62
7
  6
CONTINUOUS
 10
78.2580529523
 20
204.8910438212
  0
VERTEX
  8
0
 62
7
  6
CONTINUOUS
 10
78.304615934
 20
204.8012702508
  0
VERTEX
  8
0
 62
7
  6
CONTINUOUS
 10
78.3469507822
 20
204.7216476585
  0
VERTEX
  8
0
 62
7
  6
CONTINUOUS
 10
78.3830601042
 20
204.6559290389
  0
VERTEX
  8
0
 62
7
  6
CONTINUOUS
 10
78.4112397258
 20
204.6072058837
  0
VERTEX
  8
0
 62
7
  6
CONTINUOUS
 10
78.4301449367
 20
204.5777559593
  0
VERTEX
  8
0
 62
7
  6
CONTINUOUS
 10
78.4390348701
 20
204.5690312578
  0
SEQEND
  0
POLYLINE
  8
0
 62
7
  6
CONTINUOUS
 66
1
 70
0
  0
VERTEX
  8
0
 62
7
  6
CONTINUOUS
 10
70.9423712005
 20
227.3525310637
  0
VERTEX
  8
0
 62
7
  6
CONTINUOUS
 10
70.9254392413
 20
227.4585083737
  0
VERTEX
  8
0
 62
7
  6
CONTINUOUS
 10
70.9103420523
 20
227.5585057881
  0
VERTEX
  8
0
 62
7
  6
CONTINUOUS
 10
70.8977908488
 20
227.6478056985
  0
VERTEX
  8
0
 62
7
  6
CONTINUOUS
 10
70.8883757049
 20
227.7221977941
  0
VERTEX
  8
0
 62
7
  6
CONTINUOUS
 10
70.8825351595
 20
227.7781793076
  0
VERTEX
  8
0
 62
7
  6
CONTINUOUS
 10
70.8805206913
 20
227.8131171738
  0
VERTEX
  8
0
 62
7
  6
CONTINUOUS
 10
70.8825823745
 20
227.825400621
  0
SEQEND
  0
POLYLINE
  8
0
 62
9
  6
CONTINUOUS
 66
1
 70
0
  0
VERTEX
  8
0
 62
9
  6
CONTINUOUS
 10
75.4523582292
 20
206.9898001253
  0
VERTEX
  8
0
 62
9
  6
CONTINUOUS
 10
75.3507201368
 20
206.4823044648
  0
VERTEX
  8
0
 62
9
  6
CONTINUOUS
 10
75.198012858
 20
205.9942103824
  0
VERTEX
  8
0
 62
9
  6
CONTINUOUS
 10
75.0051538926
 20
205.5449894511
  0
VERTEX
  8
0
 62
9
  6
CONTINUOUS
 10
74.7888393561
 20
205.1504922921
  0
VERTEX
  8
0
 62
9
  6
CONTINUOUS
 10
74.5703385351
 20
204.8226617607
  0
SEQEND
  0
POLYLINE
  8
0
 62
9
  6
CONTINUOUS
 66
1
 70
0
  0
VERTEX
  8
0
 62
9
  6
CONTINUOUS
 10
69.889204181
 20
216.4385648399
  0
VERTEX
  8
0
 62
9
  6
CONTINUOUS
 10
69.5083900094
 20
216.087498083
  0
VERTEX
  8
0
 62
9
  6
CONTINUOUS
 10
69.0977829786
 20
215.7823146171
  0
VERTEX
  8
0
 62
9
  6
CONTINUOUS
 10
68.6776938572
 20
215.5322996393
  0
VERTEX
  8
0
 62
9
  6
CONTINUOUS
 10
68.2709635036
 20
215.3404077542
  0
VERTEX
  8
0
 62
9
  6
CONTINUOUS
 10
67.9018215878
 20
215.2037534133
  0
SEQEND
  0
POLYLINE
  8
0
 62
9
  6
CONTINUOUS
 66
1
 70
0
  0
VERTEX
  8
0
 62
9
  6
CONTINUOUS
 10
103.4795145039
 20
213.1972714293
  0
VERTEX
  8
0
 62
9
  6
CONTINUOUS
 10
103.9924504411
 20
213.2573686348
  0
VERTEX
  8
0
 62
9
  6
CONTINUOUS
 10
104.5033048793
 20
213.2631051384
  0
VERTEX
  8
0
 62
9
  6
CONTINUOUS
 10
104.9901822211
 20
213.2186641778
  0
VERTEX
  8
0
 62
9
  6
CONTINUOUS
 10
105.4327956977
 20
213.1348603595
  0
VERTEX
  8
0
 62
9
  6
CONTINUOUS
 10
105.8131443737
 20
213.0281111033
  0
SEQEND
  0
POLYLINE
  8
0
 62
9
  6
CONTINUOUS
 66
1
 70
0
  0
VERTEX
  8
0
 62
9
  6
CONTINUOUS
 10
96.2123096693
 20
204.986569698
  0
VERTEX
  8
0
 62
9
  6
CONTINUOUS
 10
96.6629264223
 20
204.7334883756
  0
VERTEX
  8
0
 62
9
  6
CONTINUOUS
 10
97.079707484
 20
204.4377117953
  0
VERTEX
  8
0
 62
9
  6
CONTINUOUS
 10
97.4474339564
 20
204.1155435392
  0
VERTEX
  8
0
 62
9
  6
CONTINUOUS
 10
97.7560966016
 20
203.7876924192
  0
VERTEX
  8
0
 62
9
  6
CONTINUOUS
 10
98.0008245752
 20
203.4780408658
  0
SEQEND
  0
POLYLINE
  8
0
 62
9
  6
CONTINUOUS
 66
1
 70
0
  0
VERTEX
  8
0
 62
9
  6
CONTINUOUS
 10
85.5068891002
 20
202.6155271323
  0
VERTEX
  8
0
 62
9
  6
CONTINUOUS
 10
85.7228248688
 20
202.1455627286
  0
VERTEX
  8
0
 62
9
  6
CONTINUOUS
 10
85.8861658129
 20
201.661111061
  0
VERTEX
  8
0
 62
9
  6
CONTINUOUS
 10
85.9942409283
 20
201.1843252262
  0
VERTEX
  8
0
 62
9
  6
CONTINUOUS
 10
86.0511830347
 20
200.7378427464
  0
VERTEX
  8
0
 62
9
  6
CONTINUOUS
 10
86.0671346488
 20
200.3438381099
  0
SEQEND
  0
POLYLINE
  8
0
 62
9
  6
CONTINUOUS
 66
1
 70
0
  0
VERTEX
  8
0
 62
9
  6
CONTINUOUS
 10
86.0671346488
 20
240.2061618901
  0
VERTEX
  8
0
 62
9
  6
CONTINUOUS
 10
86.0506496848
 20
239.8056256517
  0
VERTEX
  8
0
 62
9
  6
CONTINUOUS
 10
85.9925149009
 20
239.3558507595
  0
VERTEX
  8
0
 62
9
  6
CONTINUOUS
 10
85.8834497637
 20
238.8792232183
  0
VERTEX
  8
0
 62
9
  6
CONTINUOUS
 10
85.7203555312
 20
238.3982215713
  0
VERTEX
  8
0
 62
9
  6
CONTINUOUS
 10
85.5068786452
 20
237.9344767604
  0
SEQEND
  0
POLYLINE
  8
0
 62
9
  6
CONTINUOUS
 66
1
 70
0
  0
VERTEX
  8
0
 62
9
  6
CONTINUOUS
 10
98.0008245752
 20
237.0719591342
  0
VERTEX
  8
0
 62
9
  6
CONTINUOUS
 10
97.7541341623
 20
236.7600221851
  0
VERTEX
  8
0
 62
9
  6
CONTINUOUS
 10
97.4441153759
 20
236.4312450952
  0
VERTEX
  8
0
 62
9
  6
CONTINUOUS
 10
97.0760711636
 20
236.1094131156
  0
VERTEX
  8
0
 62
9
  6
CONTINUOUS
 10
96.6603349131
 20
235.8148698845
  0
VERTEX
  8
0
 62
9
  6
CONTINUOUS
 10
96.2123126352
 20
235.5634263758
  0
SEQEND
  0
POLYLINE
  8
0
 62
9
  6
CONTINUOUS
 66
1
 70
0
  0
VERTEX
  8
0
 62
9
  6
CONTINUOUS
 10
68.6087306263
 20
213.0281111033
  0
VERTEX
  8
0
 62
9
  6
CONTINUOUS
 10
68.9937008639
 20
213.1359557258
  0
VERTEX
  8
0
 62
9
  6
CONTINUOUS
 10
69.438866149
 20
213.2196771911
  0
VERTEX
  8
0
 62
9
  6
CONTINUOUS
 10
69.9258482555
 20
213.263398543
  0
VERTEX
  8
0
 62
9
  6
CONTINUOUS
 10
70.4342548295
 20
213.2570593867
  0
VERTEX
  8
0
 62
9
  6
CONTINUOUS
 10
70.942360245
 20
213.1972688269
  0
SEQEND
  0
POLYLINE
  8
0
 62
9
  6
CONTINUOUS
 66
1
 70
0
  0
VERTEX
  8
0
 62
9
  6
CONTINUOUS
 10
67.9018215878
 20
225.3462465867
  0
VERTEX
  8
0
 62
9
  6
CONTINUOUS
 10
68.2769904961
 20
225.2070760573
  0
VERTEX
  8
0
 62
9
  6
CONTINUOUS
 10
68.6864936568
 20
225.0130308408
  0
VERTEX
  8
0
 62
9
  6
CONTINUOUS
 10
69.1061437015
 20
224.7621131823
  0
VERTEX
  8
0
 62
9
  6
CONTINUOUS
 10
69.5135538456
 20
224.4582212075
  0
VERTEX
  8
0
 62
9
  6
CONTINUOUS
 10
69.8891952466
 20
224.111423953
  0
SEQEND
  0
POLYLINE
  8
0
 62
9
  6
CONTINUOUS
 66
1
 70
0
  0
VERTEX
  8
0
 62
9
  6
CONTINUOUS
 10
74.5703385351
 20
235.7273382393
  0
VERTEX
  8
0
 62
9
  6
CONTINUOUS
 10
74.7922422226
 20
235.3939188802
  0
VERTEX
  8
0
 62
9
  6
CONTINUOUS
 10
75.0095308489
 20
234.9960529312
  0
VERTEX
  8
0
 62
9
  6
CONTINUOUS
 10
75.2014997775
 20
234.5463689002
  0
VERTEX
  8
0
 62
9
  6
CONTINUOUS
 10
75.3523790246
 20
234.0612052951
  0
VERTEX
  8
0
 62
9
  6
CONTINUOUS
 10
75.4523459397
 20
233.5601964667
  0
SEQEND
  0
LINE
  8
0
 62
9
  6
CONTINUOUS
 10
86.0414300852
 20
240.976992112
 11
86.067173469
 21
240.5212965583
  0
LINE
  8
0
 62
9
  6
CONTINUOUS
 10
88.3804449148
 20
199.573007888
 11
88.354701531
 21
200.0287034417
  0
LINE
  8
0
 62
7
  6
CONTINUOUS
 10
85.5696313732
 20
240.4777880582
 11
85.5696313732
 21
240.1626556005
  0
LINE
  8
0
 62
7
  6
CONTINUOUS
 10
85.5696313732
 20
200.3873443995
 11
85.5696313732
 21
200.0722119418
  0
LINE
  8
0
 62
9
  6
CONTINUOUS
 10
86.0671346488
 20
200.3438381099
 11
86.0671738389
 21
200.0287034208
  0
LINE
  8
0
 62
2
  6
CONTINUOUS
 10
87.2109375
 20
221.155
 11
87.2109375
 21
219.395
  0
LINE
  8
DEFAULT_1
 62
2
  6
CENTER
 10
87.2109375
 20
215.875
 11
87.2109375
 21
197.54
  0
LINE
  8
DEFAULT_1
 62
2
  6
CENTER
 10
87.2109375
 20
224.675
 11
87.2109375
 21
243.01
  0
LINE
  8
0
 62
9
  6
CONTINUOUS
 10
86.0671738188
 20
240.5212965781
 11
86.0671346488
 21
240.2061618901
  0
LINE
  8
0
 62
9
  6
CONTINUOUS
 10
86.067173469
 20
200.0287034417
 11
86.0414300852
 21
199.573007888
  0
LINE
  8
0
 62
9
  6
CONTINUOUS
 10
88.354701531
 20
240.5212965583
 11
88.3804449148
 21
240.976992112
  0
LINE
  8
0
 62
9
  6
CONTINUOUS
 10
91.8280242368
 20
235.4742017904
 11
91.973352746
 21
235.9526154445
  0
LINE
  8
0
 62
9
  6
CONTINUOUS
 10
82.5938507632
 20
205.0757982096
 11
82.448522254
 21
204.5973845555
  0
LINE
  8
0
 62
9
  6
CONTINUOUS
 10
82.0123724756
 20
205.2647319582
 11
81.8487412189
 21
204.7922652273
  0
LINE
  8
0
 62
9
  6
CONTINUOUS
 10
92.4095025244
 20
235.2852680418
 11
92.5731337811
 21
235.7577347727
  0
LINE
  8
0
 62
9
  6
CONTINUOUS
 10
98.4331117829
 20
237.7106826469
 11
98.1860874919
 21
237.3268856183
  0
LINE
  8
0
 62
9
  6
CONTINUOUS
 10
75.9887632171
 20
202.8393173531
 11
76.2357875081
 21
203.2231143817
  0
LINE
  8
0
 62
7
  6
CONTINUOUS
 10
97.7579938263
 20
237.5841344087
 11
97.5727636151
 21
237.3291868949
  0
LINE
  8
0
 62
7
  6
CONTINUOUS
 10
74.1934222858
 20
205.1502841768
 11
74.0081920746
 21
204.895336663
  0
LINE
  8
0
 62
9
  6
CONTINUOUS
 10
74.5703385351
 20
204.8226617607
 11
74.3851387178
 21
204.5676894064
  0
LINE
  8
0
 62
9
  6
CONTINUOUS
 10
98.1860877865
 20
237.3268854287
 11
98.0008245752
 21
237.0719591342
  0
LINE
  8
0
 62
9
  6
CONTINUOUS
 10
74.3851384309
 20
204.5676896407
 11
74.0964604698
 21
204.2141557748
  0
LINE
  8
0
 62
9
  6
CONTINUOUS
 10
100.0367365691
 20
235.9823103593
 11
100.3254145302
 21
236.3358442252
  0
LINE
  8
0
 62
9
  6
CONTINUOUS
 10
99.8801057936
 20
229.8575570569
 11
100.2788835177
 21
230.1591798789
  0
LINE
  8
0
 62
9
  6
CONTINUOUS
 10
74.5417692064
 20
210.6924429431
 11
74.1429914823
 21
210.3908201211
  0
LINE
  8
0
 62
9
  6
CONTINUOUS
 10
74.1823958609
 20
211.1870779185
 11
73.7723064168
 21
210.9010243434
  0
LINE
  8
0
 62
9
  6
CONTINUOUS
 10
100.2394791391
 20
229.3629220815
 11
100.6495685832
 21
229.6489756566
  0
LINE
  8
0
 62
9
  6
CONTINUOUS
 10
106.5383043322
 20
227.7845350278
 11
106.1128672495
 21
227.6192339445
  0
LINE
  8
0
 62
9
  6
CONTINUOUS
 10
67.8835706678
 20
212.7654649722
 11
68.3090077505
 21
212.9307660555
  0
LINE
  8
0
 62
7
  6
CONTINUOUS
 10
105.9177392439
 20
228.0789797309
 11
105.6180304665
 21
227.9815984459
  0
LINE
  8
0
 62
7
  6
CONTINUOUS
 10
67.7894615612
 20
215.6903513283
 11
67.4897527838
 21
215.5929700434
  0
LINE
  8
0
 62
9
  6
CONTINUOUS
 10
67.9018215878
 20
215.2037534133
 11
67.6021227987
 21
215.1063341669
  0
LINE
  8
0
 62
9
  6
CONTINUOUS
 10
106.1128673764
 20
227.6192336179
 11
105.8131443737
 21
227.5218888967
  0
LINE
  8
0
 62
9
  6
CONTINUOUS
 10
67.6021227042
 20
215.1063345251
 11
67.1607753353
 21
214.9900002677
  0
LINE
  8
0
 62
9
  6
CONTINUOUS
 10
106.8197522958
 20
225.4436654749
 11
107.2610996647
 21
225.5599997323
  0
LINE
  8
0
 62
9
  6
CONTINUOUS
 10
71.3288793286
 20
219.9692987732
 11
70.8289719263
 21
219.9596764494
  0
LINE
  8
0
 62
9
  6
CONTINUOUS
 10
103.0929956714
 20
220.5807012268
 11
103.5929030737
 21
220.5903235506
  0
LINE
  8
0
 62
2
  6
CONTINUOUS
 10
88.0909375
 20
220.275
 11
86.3309375
 21
220.275
  0
LINE
  8
DEFAULT_1
 62
2
  6
CENTER
 10
82.8109375
 20
220.275
 11
64.4759375
 21
220.275
  0
LINE
  8
DEFAULT_1
 62
2
  6
CENTER
 10
91.6109375
 20
220.275
 11
109.9459375
 21
220.275
  0
LINE
  8
0
 62
9
  6
CONTINUOUS
 10
71.3288793286
 20
220.5807012268
 11
70.8289719263
 21
220.5903235506
  0
LINE
  8
0
 62
9
  6
CONTINUOUS
 10
103.0929956714
 20
219.9692987732
 11
103.5929030737
 21
219.9596764494
  0
LINE
  8
0
 62
9
  6
CONTINUOUS
 10
107.2610996647
 20
214.9900002677
 11
106.8197522958
 21
215.1063345251
  0
LINE
  8
0
 62
9
  6
CONTINUOUS
 10
67.1607753353
 20
225.5599997323
 11
67.6021227042
 21
225.4436654749
  0
LINE
  8
0
 62
7
  6
CONTINUOUS
 10
105.9177392439
 20
212.4710202691
 11
105.6180304665
 21
212.5684015541
  0
LINE
  8
0
 62
7
  6
CONTINUOUS
 10
67.7894615612
 20
224.8596486717
 11
67.4897527838
 21
224.9570299566
  0
LINE
  8
0
 62
9
  6
CONTINUOUS
 10
105.8131443737
 20
213.0281111033
 11
106.1128673837
 21
212.9307664009
  0
LINE
  8
0
 62
9
  6
CONTINUOUS
 10
67.6021227935
 20
225.4436658137
 11
67.9018215878
 21
225.3462465867
  0
LINE
  8
0
 62
9
  6
CONTINUOUS
 10
68.3090077505
 20
227.6192339445
 11
67.8835706678
 21
227.7845350278
  0
LINE
  8
0
 62
9
  6
CONTINUOUS
 10
106.1128672495
 20
212.9307660555
 11
106.5383043322
 21
212.7654649722
  0
LINE
  8
0
 62
9
  6
CONTINUOUS
 10
74.1823958609
 20
229.3629220815
 11
73.7723064169
 21
229.6489756567
  0
LINE
  8
0
 62
9
  6
CONTINUOUS
 10
100.2394791391
 20
211.1870779185
 11
100.6495685831
 21
210.9010243433
  0
LINE
  8
0
 62
9
  6
CONTINUOUS
 10
99.8801057936
 20
210.6924429431
 11
100.2788835176
 21
210.390820121
  0
LINE
  8
0
 62
9
  6
CONTINUOUS
 10
74.5417692064
 20
229.8575570569
 11
74.1429914824
 21
230.159179879
  0
LINE
  8
0
 62
9
  6
CONTINUOUS
 10
74.0964604698
 20
236.3358442252
 11
74.3851384309
 21
235.9823103593
  0
LINE
  8
0
 62
9
  6
CONTINUOUS
 10
100.3254145302
 20
204.2141557748
 11
100.0367365691
 21
204.5676896407
  0
LINE
  8
0
 62
7
  6
CONTINUOUS
 10
74.0081920746
 20
235.654663337
 11
74.1934222858
 21
235.3997158232
  0
LINE
  8
0
 62
7
  6
CONTINUOUS
 10
97.5727636151
 20
203.2208131051
 11
97.7579938263
 21
202.9658655913
  0
LINE
  8
0
 62
9
  6
CONTINUOUS
 10
98.0008245752
 20
203.4780408658
 11
98.1860878034
 21
203.2231145822
  0
LINE
  8
0
 62
9
  6
CONTINUOUS
 10
74.3851387022
 20
235.9823105809
 11
74.5703385351
 21
235.7273382393
  0
LINE
  8
0
 62
9
  6
CONTINUOUS
 10
98.1860874919
 20
203.2231143817
 11
98.4331117829
 21
202.8393173531
  0
LINE
  8
0
 62
9
  6
CONTINUOUS
 10
76.2357875081
 20
237.3268856183
 11
75.9887632171
 21
237.7106826469
  0
LINE
  8
0
 62
9
  6
CONTINUOUS
 10
82.0123724756
 20
235.2852680418
 11
81.8487412189
 21
235.7577347727
  0
LINE
  8
0
 62
9
  6
CONTINUOUS
 10
92.4095025244
 20
205.2647319582
 11
92.5731337811
 21
204.7922652273
  0
LINE
  8
0
 62
9
  6
CONTINUOUS
 10
91.8280242368
 20
205.0757982096
 11
91.973352746
 21
204.5973845555
  0
LINE
  8
0
 62
9
  6
CONTINUOUS
 10
82.5938507632
 20
235.4742017904
 11
82.448522254
 21
235.9526154445
  0
LINE
  8
0
 62
9
  6
CONTINUOUS
 10
88.3547403512
 20
240.2061618901
 11
88.3547011611
 21
240.5212965792
  0
LINE
  8
0
 62
7
  6
CONTINUOUS
 10
88.8522436268
 20
240.4777880582
 11
88.8522436268
 21
240.1626556005
  0
LINE
  8
0
 62
7
  6
CONTINUOUS
 10
88.8522436268
 20
200.3873443995
 11
88.8522436268
 21
200.0722119418
  0
LINE
  8
0
 62
9
  6
CONTINUOUS
 10
88.3547011812
 20
200.0287034219
 11
88.3547403512
 21
200.3438381099
  0
POLYLINE
  8
0
 62
9
  6
CONTINUOUS
 66
1
 70
0
  0
VERTEX
  8
0
 62
9
  6
CONTINUOUS
 10
88.3547403512
 20
200.3438381099
  0
VERTEX
  8
0
 62
9
  6
CONTINUOUS
 10
88.371078152
 20
200.7425826789
  0
VERTEX
  8
0
 62
9
  6
CONTINUOUS
 10
88.4288895071
 20
201.1914822227
  0
VERTEX
  8
0
 62
9
  6
CONTINUOUS
 10
88.5376868359
 20
201.668156857
  0
VERTEX
  8
0
 62
9
  6
CONTINUOUS
 10
88.7008479434
 20
202.1500908712
  0
VERTEX
  8
0
 62
9
  6
CONTINUOUS
 10
88.9149902545
 20
202.6155253336
  0
SEQEND
  0
LINE
  8
0
 62
9
  6
CONTINUOUS
 10
99.8515364649
 20
235.7273382393
 11
100.0367362822
 21
235.9823105936
  0
LINE
  8
0
 62
7
  6
CONTINUOUS
 10
100.4136829254
 20
235.654663337
 11
100.2284527142
 21
235.3997158232
  0
LINE
  8
0
 62
7
  6
CONTINUOUS
 10
76.8491113849
 20
203.2208131051
 11
76.6638811737
 21
202.9658655913
  0
LINE
  8
0
 62
9
  6
CONTINUOUS
 10
76.2357872135
 20
203.2231145713
 11
76.4210504248
 21
203.4780408658
  0
POLYLINE
  8
0
 62
9
  6
CONTINUOUS
 66
1
 70
0
  0
VERTEX
  8
0
 62
9
  6
CONTINUOUS
 10
76.4210504248
 20
203.4780408658
  0
VERTEX
  8
0
 62
9
  6
CONTINUOUS
 10
76.6688753908
 20
203.7912978326
  0
VERTEX
  8
0
 62
9
  6
CONTINUOUS
 10
76.9796565502
 20
204.1205879187
  0
VERTEX
  8
0
 62
9
  6
CONTINUOUS
 10
77.3478963499
 20
204.4422385856
  0
VERTEX
  8
0
 62
9
  6
CONTINUOUS
 10
77.7630515733
 20
204.7360863014
  0
VERTEX
  8
0
 62
9
  6
CONTINUOUS
 10
78.2095672271
 20
204.9865665636
  0
SEQEND
  0
LINE
  8
0
 62
9
  6
CONTINUOUS
 10
106.5200534122
 20
225.3462465867
 11
106.8197522013
 21
225.4436658331
  0
LINE
  8
0
 62
7
  6
CONTINUOUS
 10
106.9321222162
 20
224.9570299566
 11
106.6324134388
 21
224.8596486717
  0
LINE
  8
0
 62
7
  6
CONTINUOUS
 10
68.8038445335
 20
212.5684015541
 11
68.5041357561
 21
212.4710202691
  0
LINE
  8
0
 62
9
  6
CONTINUOUS
 10
68.3090076236
 20
212.9307663821
 11
68.6087306263
 21
213.0281111033
  0
POLYLINE
  8
0
 62
9
  6
CONTINUOUS
 66
1
 70
0
  0
VERTEX
  8
0
 62
9
  6
CONTINUOUS
 10
105.8131443737
 20
227.5218888967
  0
VERTEX
  8
0
 62
9
  6
CONTINUOUS
 10
105.4298838239
 20
227.4144489597
  0
VERTEX
  8
0
 62
9
  6
CONTINUOUS
 10
104.9856415769
 20
227.3306933826
  0
VERTEX
  8
0
 62
9
  6
CONTINUOUS
 10
104.4987078915
 20
227.2867081633
  0
VERTEX
  8
0
 62
9
  6
CONTINUOUS
 10
103.9894142853
 20
227.292825026
  0
VERTEX
  8
0
 62
9
  6
CONTINUOUS
 10
103.4795145653
 20
227.3527231109
  0
SEQEND
  0
LINE
  8
0
 62
9
  6
CONTINUOUS
 10
68.6087306263
 20
227.5218888967
 11
68.3090076163
 21
227.6192335991
  0
LINE
  8
0
 62
7
  6
CONTINUOUS
 10
106.9321222162
 20
215.5929700434
 11
106.6324134388
 21
215.6903513283
  0
LINE
  8
0
 62
7
  6
CONTINUOUS
 10
68.8038445335
 20
227.9815984459
 11
68.5041357561
 21
228.0789797309
  0
LINE
  8
0
 62
9
  6
CONTINUOUS
 10
106.8197522065
 20
215.1063341863
 11
106.5200534122
 21
215.2037534133
  0
POLYLINE
  8
0
 62
9
  6
CONTINUOUS
 66
1
 70
0
  0
VERTEX
  8
0
 62
9
  6
CONTINUOUS
 10
106.5200534122
 20
215.2037534133
  0
VERTEX
  8
0
 62
9
  6
CONTINUOUS
 10
106.1465193716
 20
215.3422404907
  0
VERTEX
  8
0
 62
9
  6
CONTINUOUS
 10
105.7377455277
 20
215.5357124106
  0
VERTEX
  8
0
 62
9
  6
CONTINUOUS
 10
105.3179756454
 20
215.7863884828
  0
VERTEX
  8
0
 62
9
  6
CONTINUOUS
 10
104.909710583
 20
216.0906256573
  0
VERTEX
  8
0
 62
9
  6
CONTINUOUS
 10
104.532675191
 20
216.4385700437
  0
SEQEND
  0
LINE
  8
0
 62
9
  6
CONTINUOUS
 10
76.4210504248
 20
237.0719591342
 11
76.2357871966
 21
237.3268854178
  0
LINE
  8
0
 62
7
  6
CONTINUOUS
 10
76.6638811737
 20
237.5841344087
 11
76.8491113849
 21
237.3291868949
  0
LINE
  8
0
 62
7
  6
CONTINUOUS
 10
100.2284527142
 20
205.1502841768
 11
100.4136829254
 21
204.895336663
  0
LINE
  8
0
 62
9
  6
CONTINUOUS
 10
100.0367362978
 20
204.5676894191
 11
99.8515364649
 21
204.8226617607
  0
POLYLINE
  8
0
 62
9
  6
CONTINUOUS
 66
1
 70
0
  0
VERTEX
  8
0
 62
9
  6
CONTINUOUS
 10
99.8515364649
 20
204.8226617607
  0
VERTEX
  8
0
 62
9
  6
CONTINUOUS
 10
99.6305606403
 20
205.1545555695
  0
VERTEX
  8
0
 62
9
  6
CONTINUOUS
 10
99.4135250867
 20
205.5515257458
  0
VERTEX
  8
0
 62
9
  6
CONTINUOUS
 10
99.2213144217
 20
206.0010875327
  0
VERTEX
  8
0
 62
9
  6
CONTINUOUS
 10
99.0699436347
 20
206.4870391449
  0
VERTEX
  8
0
 62
9
  6
CONTINUOUS
 10
98.9695223614
 20
206.9898014982
  0
SEQEND
  0
POLYLINE
  8
0
 62
9
  6
CONTINUOUS
 66
1
 70
0
  0
VERTEX
  8
0
 62
9
  6
CONTINUOUS
 10
98.9695285324
 20
233.560196494
  0
VERTEX
  8
0
 62
9
  6
CONTINUOUS
 10
99.0706854371
 20
234.0658622088
  0
VERTEX
  8
0
 62
9
  6
CONTINUOUS
 10
99.2228888848
 20
234.553165831
  0
VERTEX
  8
0
 62
9
  6
CONTINUOUS
 10
99.4155117624
 20
235.0025402406
  0
VERTEX
  8
0
 62
9
  6
CONTINUOUS
 10
99.6320976172
 20
235.3979688032
  0
VERTEX
  8
0
 62
9
  6
CONTINUOUS
 10
99.8515364649
 20
235.7273382393
  0
SEQEND
  0
POLYLINE
  8
0
 62
9
  6
CONTINUOUS
 66
1
 70
0
  0
VERTEX
  8
0
 62
9
  6
CONTINUOUS
 10
104.5326786824
 20
224.111425097
  0
VERTEX
  8
0
 62
9
  6
CONTINUOUS
 10
104.9120341152
 20
224.4613002203
  0
VERTEX
  8
0
 62
9
  6
CONTINUOUS
 10
105.3217762869
 20
224.7661443754
  0
VERTEX
  8
0
 62
9
  6
CONTINUOUS
 10
105.7417690302
 20
225.0164227054
  0
VERTEX
  8
0
 62
9
  6
CONTINUOUS
 10
106.1492634686
 20
225.2089051665
  0
VERTEX
  8
0
 62
9
  6
CONTINUOUS
 10
106.5200534122
 20
225.3462465867
  0
SEQEND
  0
POLYLINE
  8
0
 62
9
  6
CONTINUOUS
 66
1
 70
0
  0
VERTEX
  8
0
 62
9
  6
CONTINUOUS
 10
70.9423609692
 20
227.3527152997
  0
VERTEX
  8
0
 62
9
  6
CONTINUOUS
 10
70.427554657
 20
227.2925127685
  0
VERTEX
  8
0
 62
9
  6
CONTINUOUS
 10
69.9158101471
 20
227.2870088352
  0
VERTEX
  8
0
 62
9
  6
CONTINUOUS
 10
69.4290132986
 20
227.3317170237
  0
VERTEX
  8
0
 62
9
  6
CONTINUOUS
 10
68.9873598873
 20
227.4155483883
  0
VERTEX
  8
0
 62
9
  6
CONTINUOUS
 10
68.6087306263
 20
227.5218888967
  0
SEQEND
  0
POLYLINE
  8
0
 62
9
  6
CONTINUOUS
 66
1
 70
0
  0
VERTEX
  8
0
 62
9
  6
CONTINUOUS
 10
78.2095576507
 20
235.5634188836
  0
VERTEX
  8
0
 62
9
  6
CONTINUOUS
 10
77.7573762876
 20
235.8175084798
  0
VERTEX
  8
0
 62
9
  6
CONTINUOUS
 10
77.3400188814
 20
236.113989431
  0
VERTEX
  8
0
 62
9
  6
CONTINUOUS
 10
76.9725158518
 20
236.436322315
  0
VERTEX
  8
0
 62
9
  6
CONTINUOUS
 10
76.664640506
 20
236.7636340829
  0
VERTEX
  8
0
 62
9
  6
CONTINUOUS
 10
76.4210504248
 20
237.0719591342
  0
SEQEND
  0
POLYLINE
  8
0
 62
9
  6
CONTINUOUS
 66
1
 70
0
  0
VERTEX
  8
0
 62
9
  6
CONTINUOUS
 10
88.9149725543
 20
237.9344679823
  0
VERTEX
  8
0
 62
9
  6
CONTINUOUS
 10
88.6983693379
 20
238.4061549761
  0
VERTEX
  8
0
 62
9
  6
CONTINUOUS
 10
88.5349777659
 20
238.8915046402
  0
VERTEX
  8
0
 62
9
  6
CONTINUOUS
 10
88.4271783944
 20
239.3682882534
  0
VERTEX
  8
0
 62
9
  6
CONTINUOUS
 10
88.3705529282
 20
239.8138780349
  0
VERTEX
  8
0
 62
9
  6
CONTINUOUS
 10
88.3547403512
 20
240.2061618901
  0
SEQEND
  0
POLYLINE
  8
0
 62
7
  6
CONTINUOUS
 66
1
 70
0
  0
VERTEX
  8
0
 62
7
  6
CONTINUOUS
 10
103.4795145039
 20
213.1972714293
  0
VERTEX
  8
0
 62
7
  6
CONTINUOUS
 10
103.4790642699
 20
213.2053612472
  0
VERTEX
  8
0
 62
7
  6
CONTINUOUS
 10
103.4803064653
 20
213.2136382624
  0
VERTEX
  8
0
 62
7
  6
CONTINUOUS
 10
103.4831873134
 20
213.222049482
  0
SEQEND
  0
POLYLINE
  8
0
 62
7
  6
CONTINUOUS
 66
1
 70
0
  0
VERTEX
  8
0
 62
7
  6
CONTINUOUS
 10
103.4795145653
 20
227.3527231109
  0
VERTEX
  8
0
 62
7
  6
CONTINUOUS
 10
103.4790642776
 20
227.3446385926
  0
VERTEX
  8
0
 62
7
  6
CONTINUOUS
 10
103.4803064858
 20
227.3363616552
  0
VERTEX
  8
0
 62
7
  6
CONTINUOUS
 10
103.4831873134
 20
227.327950518
  0
SEQEND
  0
POLYLINE
  8
0
 62
7
  6
CONTINUOUS
 66
1
 70
0
  0
VERTEX
  8
0
 62
7
  6
CONTINUOUS
 10
103.479503895
 20
227.3525309882
  0
VERTEX
  8
0
 62
7
  6
CONTINUOUS
 10
103.4964356934
 20
227.4585084071
  0
VERTEX
  8
0
 62
7
  6
CONTINUOUS
 10
103.5115326971
 20
227.5585058526
  0
VERTEX
  8
0
 62
7
  6
CONTINUOUS
 10
103.5240836765
 20
227.647805761
  0
VERTEX
  8
0
 62
7
  6
CONTINUOUS
 10
103.5334985179
 20
227.7221978695
  0
VERTEX
  8
0
 62
7
  6
CONTINUOUS
 10
103.5393385526
 20
227.7781794583
  0
VERTEX
  8
0
 62
7
  6
CONTINUOUS
 10
103.5413516404
 20
227.8131175727
  0
VERTEX
  8
0
 62
7
  6
CONTINUOUS
 10
103.5392926348
 20
227.8254006194
  0
SEQEND
  0
POLYLINE
  8
0
 62
7
  6
CONTINUOUS
 66
1
 70
0
  0
VERTEX
  8
0
 62
7
  6
CONTINUOUS
 10
96.2124154833
 20
204.986733746
  0
VERTEX
  8
0
 62
7
  6
CONTINUOUS
 10
96.1638221212
 20
204.8910438125
  0
VERTEX
  8
0
 62
7
  6
CONTINUOUS
 10
96.1172593115
 20
204.8012701564
  0
VERTEX
  8
0
 62
7
  6
CONTINUOUS
 10
96.0749246462
 20
204.7216474268
  0
VERTEX
  8
0
 62
7
  6
CONTINUOUS
 10
96.0388155793
 20
204.6559286359
  0
VERTEX
  8
0
 62
7
  6
CONTINUOUS
 10
96.0106364195
 20
204.6072052386
  0
VERTEX
  8
0
 62
7
  6
CONTINUOUS
 10
95.9917324816
 20
204.5777546998
  0
VERTEX
  8
0
 62
7
  6
CONTINUOUS
 10
95.9828401178
 20
204.5690312638
  0
SEQEND
  0
POLYLINE
  8
0
 62
7
  6
CONTINUOUS
 66
1
 70
0
  0
VERTEX
  8
0
 62
7
  6
CONTINUOUS
 10
96.2123096693
 20
204.986569698
  0
VERTEX
  8
0
 62
7
  6
CONTINUOUS
 10
96.2166991393
 20
204.9933771242
  0
VERTEX
  8
0
 62
7
  6
CONTINUOUS
 10
96.2225691991
 20
204.9993432164
  0
VERTEX
  8
0
 62
7
  6
CONTINUOUS
 10
96.2298438361
 20
205.0044547085
  0
SEQEND
  0
POLYLINE
  8
0
 62
7
  6
CONTINUOUS
 66
1
 70
0
  0
VERTEX
  8
0
 62
7
  6
CONTINUOUS
 10
104.532675191
 20
216.4385700437
  0
VERTEX
  8
0
 62
7
  6
CONTINUOUS
 10
104.5275578459
 20
216.432292782
  0
VERTEX
  8
0
 62
7
  6
CONTINUOUS
 10
104.5236977437
 20
216.4248664396
  0
VERTEX
  8
0
 62
7
  6
CONTINUOUS
 10
104.5210844354
 20
216.4163683676
  0
SEQEND
  0
POLYLINE
  8
0
 62
7
  6
CONTINUOUS
 66
1
 70
0
  0
VERTEX
  8
0
 62
7
  6
CONTINUOUS
 10
104.5325525063
 20
216.4384195024
  0
VERTEX
  8
0
 62
7
  6
CONTINUOUS
 10
104.608542638
 20
216.5142047148
  0
VERTEX
  8
0
 62
7
  6
CONTINUOUS
 10
104.6795334526
 20
216.586230488
  0
VERTEX
  8
0
 62
7
  6
CONTINUOUS
 10
104.7421766467
 20
216.6510982759
  0
VERTEX
  8
0
 62
7
  6
CONTINUOUS
 10
104.7935200933
 20
216.7057487496
  0
VERTEX
  8
0
 62
7
  6
CONTINUOUS
 10
104.8311500993
 20
216.7476059481
  0
VERTEX
  8
0
 62
7
  6
CONTINUOUS
 10
104.8533152842
 20
216.7746877503
  0
VERTEX
  8
0
 62
7
  6
CONTINUOUS
 10
104.8588684216
 20
216.7858360788
  0
SEQEND
  0
POLYLINE
  8
0
 62
7
  6
CONTINUOUS
 66
1
 70
0
  0
VERTEX
  8
0
 62
7
  6
CONTINUOUS
 10
85.5070687745
 20
202.6155967425
  0
VERTEX
  8
0
 62
7
  6
CONTINUOUS
 10
85.4115107475
 20
202.5667444909
  0
VERTEX
  8
0
 62
7
  6
CONTINUOUS
 10
85.3210729704
 20
202.5214850842
  0
VERTEX
  8
0
 62
7
  6
CONTINUOUS
 10
85.2400223922
 20
202.4819527221
  0
VERTEX
  8
0
 62
7
  6
CONTINUOUS
 10
85.1721809429
 20
202.4500095995
  0
VERTEX
  8
0
 62
7
  6
CONTINUOUS
 10
85.1207445213
 20
202.4271550415
  0
VERTEX
  8
0
 62
7
  6
CONTINUOUS
 10
85.0881400334
 20
202.4144410636
  0
VERTEX
  8
0
 62
7
  6
CONTINUOUS
 10
85.0758189995
 20
202.4126093768
  0
SEQEND
  0
POLYLINE
  8
0
 62
7
  6
CONTINUOUS
 66
1
 70
0
  0
VERTEX
  8
0
 62
7
  6
CONTINUOUS
 10
85.5068891002
 20
202.6155271323
  0
VERTEX
  8
0
 62
7
  6
CONTINUOUS
 10
85.5144391775
 20
202.6184535205
  0
VERTEX
  8
0
 62
7
  6
CONTINUOUS
 10
85.5226949269
 20
202.6198298509
  0
VERTEX
  8
0
 62
7
  6
CONTINUOUS
 10
85.5315846798
 20
202.6196892096
  0
SEQEND
  0
POLYLINE
  8
0
 62
7
  6
CONTINUOUS
 66
1
 70
0
  0
VERTEX
  8
0
 62
7
  6
CONTINUOUS
 10
75.4523459397
 20
233.5601964667
  0
VERTEX
  8
0
 62
7
  6
CONTINUOUS
 10
75.4601838643
 20
233.5622694562
  0
VERTEX
  8
0
 62
7
  6
CONTINUOUS
 10
75.4676719107
 20
233.5660085921
  0
VERTEX
  8
0
 62
7
  6
CONTINUOUS
 10
75.4747812217
 20
233.5713476493
  0
SEQEND
  0
POLYLINE
  8
0
 62
7
  6
CONTINUOUS
 66
1
 70
0
  0
VERTEX
  8
0
 62
7
  6
CONTINUOUS
 10
75.4525419179
 20
233.5602483313
  0
VERTEX
  8
0
 62
7
  6
CONTINUOUS
 10
75.346519123
 20
233.5436031503
  0
VERTEX
  8
0
 62
7
  6
CONTINUOUS
 10
75.2467506034
 20
233.5270609255
  0
VERTEX
  8
0
 62
7
  6
CONTINUOUS
 10
75.157942797
 20
233.5114031127
  0
VERTEX
  8
0
 62
7
  6
CONTINUOUS
 10
75.0842822315
 20
233.4973696649
  0
VERTEX
  8
0
 62
7
  6
CONTINUOUS
 10
75.0292356822
 20
233.4856261948
  0
VERTEX
  8
0
 62
7
  6
CONTINUOUS
 10
74.9953848437
 20
233.4767485764
  0
VERTEX
  8
0
 62
7
  6
CONTINUOUS
 10
74.9843405732
 20
233.470986381
  0
SEQEND
  0
POLYLINE
  8
0
 62
7
  6
CONTINUOUS
 66
1
 70
0
  0
VERTEX
  8
0
 62
7
  6
CONTINUOUS
 10
98.9693331255
 20
233.5602482094
  0
VERTEX
  8
0
 62
7
  6
CONTINUOUS
 10
99.0753558602
 20
233.5436032227
  0
VERTEX
  8
0
 62
7
  6
CONTINUOUS
 10
99.1751244088
 20
233.5270611904
  0
VERTEX
  8
0
 62
7
  6
CONTINUOUS
 10
99.2639322912
 20
233.511403596
  0
VERTEX
  8
0
 62
7
  6
CONTINUOUS
 10
99.3375929425
 20
233.4973704453
  0
VERTEX
  8
0
 62
7
  6
CONTINUOUS
 10
99.39263958
 20
233.4856274908
  0
VERTEX
  8
0
 62
7
  6
CONTINUOUS
 10
99.426490609
 20
233.4767512742
  0
VERTEX
  8
0
 62
7
  6
CONTINUOUS
 10
99.4375344243
 20
233.4709863643
  0
SEQEND
  0
POLYLINE
  8
0
 62
7
  6
CONTINUOUS
 66
1
 70
0
  0
VERTEX
  8
0
 62
7
  6
CONTINUOUS
 10
98.9695285324
 20
233.560196494
  0
VERTEX
  8
0
 62
7
  6
CONTINUOUS
 10
98.9616911826
 20
233.5622694384
  0
VERTEX
  8
0
 62
7
  6
CONTINUOUS
 10
98.9542031119
 20
233.566008578
  0
VERTEX
  8
0
 62
7
  6
CONTINUOUS
 10
98.9470937783
 20
233.5713476493
  0
SEQEND
  0
POLYLINE
  8
0
 62
7
  6
CONTINUOUS
 66
1
 70
0
  0
VERTEX
  8
0
 62
7
  6
CONTINUOUS
 10
85.5068786452
 20
237.9344767604
  0
VERTEX
  8
0
 62
7
  6
CONTINUOUS
 10
85.5144391215
 20
237.9315464948
  0
VERTEX
  8
0
 62
7
  6
CONTINUOUS
 10
85.5226948963
 20
237.9301701513
  0
VERTEX
  8
0
 62
7
  6
CONTINUOUS
 10
85.5315846798
 20
237.9303107904
  0
SEQEND
  0
POLYLINE
  8
0
 62
7
  6
CONTINUOUS
 66
1
 70
0
  0
VERTEX
  8
0
 62
7
  6
CONTINUOUS
 10
85.507068644
 20
237.9344031543
  0
VERTEX
  8
0
 62
7
  6
CONTINUOUS
 10
85.4115106454
 20
237.9832556203
  0
VERTEX
  8
0
 62
7
  6
CONTINUOUS
 10
85.3210729807
 20
238.0285152128
  0
VERTEX
  8
0
 62
7
  6
CONTINUOUS
 10
85.2400225701
 20
238.0680477762
  0
VERTEX
  8
0
 62
7
  6
CONTINUOUS
 10
85.1721813275
 20
238.0999911827
  0
VERTEX
  8
0
 62
7
  6
CONTINUOUS
 10
85.1207451953
 20
238.1228462542
  0
VERTEX
  8
0
 62
7
  6
CONTINUOUS
 10
85.0881414244
 20
238.1355616435
  0
VERTEX
  8
0
 62
7
  6
CONTINUOUS
 10
85.075818982
 20
238.1373905895
  0
SEQEND
  0
POLYLINE
  8
0
 62
7
  6
CONTINUOUS
 66
1
 70
0
  0
VERTEX
  8
0
 62
7
  6
CONTINUOUS
 10
104.5325523769
 20
224.1115800921
  0
VERTEX
  8
0
 62
7
  6
CONTINUOUS
 10
104.6085428421
 20
224.0357953586
  0
VERTEX
  8
0
 62
7
  6
CONTINUOUS
 10
104.6795340758
 20
223.9637700319
  0
VERTEX
  8
0
 62
7
  6
CONTINUOUS
 10
104.7421777938
 20
223.8989027388
  0
VERTEX
  8
0
 62
7
  6
CONTINUOUS
 10
104.793521945
 20
223.8442529437
  0
VERTEX
  8
0
 62
7
  6
CONTINUOUS
 10
104.8311531229
 20
223.8023969355
  0
VERTEX
  8
0
 62
7
  6
CONTINUOUS
 10
104.8533214603
 20
223.7753183705
  0
VERTEX
  8
0
 62
7
  6
CONTINUOUS
 10
104.8588683777
 20
223.7641638767
  0
SEQEND
  0
POLYLINE
  8
0
 62
7
  6
CONTINUOUS
 66
1
 70
0
  0
VERTEX
  8
0
 62
7
  6
CONTINUOUS
 10
104.5326786824
 20
224.111425097
  0
VERTEX
  8
0
 62
7
  6
CONTINUOUS
 10
104.5275579334
 20
224.1177070845
  0
VERTEX
  8
0
 62
7
  6
CONTINUOUS
 10
104.5236977754
 20
224.1251334821
  0
VERTEX
  8
0
 62
7
  6
CONTINUOUS
 10
104.5210844354
 20
224.1336316324
  0
SEQEND
  0
POLYLINE
  8
0
 62
7
  6
CONTINUOUS
 66
1
 70
0
  0
VERTEX
  8
0
 62
7
  6
CONTINUOUS
 10
96.2123126352
 20
235.5634263758
  0
VERTEX
  8
0
 62
7
  6
CONTINUOUS
 10
96.2166992401
 20
235.5566227501
  0
VERTEX
  8
0
 62
7
  6
CONTINUOUS
 10
96.2225692644
 20
235.5506567287
  0
VERTEX
  8
0
 62
7
  6
CONTINUOUS
 10
96.2298438361
 20
235.5455452915
  0
SEQEND
  0
POLYLINE
  8
0
 62
7
  6
CONTINUOUS
 66
1
 70
0
  0
VERTEX
  8
0
 62
7
  6
CONTINUOUS
 10
96.2124159112
 20
235.5632662506
  0
VERTEX
  8
0
 62
7
  6
CONTINUOUS
 10
96.1638219862
 20
235.6589560106
  0
VERTEX
  8
0
 62
7
  6
CONTINUOUS
 10
96.117258616
 20
235.7487294034
  0
VERTEX
  8
0
 62
7
  6
CONTINUOUS
 10
96.074923309
 20
235.8283517844
  0
VERTEX
  8
0
 62
7
  6
CONTINUOUS
 10
96.0388133642
 20
235.8940701091
  0
VERTEX
  8
0
 62
7
  6
CONTINUOUS
 10
96.010632682
 20
235.9427927459
  0
VERTEX
  8
0
 62
7
  6
CONTINUOUS
 10
95.9917246085
 20
235.972241245
  0
VERTEX
  8
0
 62
7
  6
CONTINUOUS
 10
95.9828401682
 20
235.9809687614
  0
SEQEND
  0
POLYLINE
  8
0
 62
7
  6
CONTINUOUS
 66
1
 70
0
  0
VERTEX
  8
0
 62
7
  6
CONTINUOUS
 10
103.4795035513
 20
213.1974687586
  0
VERTEX
  8
0
 62
7
  6
CONTINUOUS
 10
103.4964359043
 20
213.0914915307
  0
VERTEX
  8
0
 62
7
  6
CONTINUOUS
 10
103.5115335131
 20
212.9914942009
  0
VERTEX
  8
0
 62
7
  6
CONTINUOUS
 10
103.5240852122
 20
212.9021943863
  0
VERTEX
  8
0
 62
7
  6
CONTINUOUS
 10
103.5335010306
 20
212.8278024148
  0
VERTEX
  8
0
 62
7
  6
CONTINUOUS
 10
103.5393427294
 20
212.771821103
  0
VERTEX
  8
0
 62
7
  6
CONTINUOUS
 10
103.5413603183
 20
212.7368837622
  0
VERTEX
  8
0
 62
7
  6
CONTINUOUS
 10
103.5392925762
 20
212.7245993708
  0
SEQEND
  0
LINE
  8
0
 62
7
  6
CONTINUOUS
 10
103.5929030737
 20
219.9596764494
 11
103.5929030737
 21
220.5903235506
  0
LINE
  8
0
 62
7
  6
CONTINUOUS
 10
100.2788835176
 20
210.390820121
 11
100.6495685831
 21
210.9010243434
  0
LINE
  8
0
 62
7
  6
CONTINUOUS
 10
91.973352746
 20
204.5973845555
 11
92.5731337811
 21
204.7922652273
  0
LINE
  8
0
 62
7
  6
CONTINUOUS
 10
92.5731337811
 20
235.7577347727
 11
91.973352746
 21
235.9526154445
  0
LINE
  8
0
 62
7
  6
CONTINUOUS
 10
100.6495685832
 20
229.6489756566
 11
100.2788835177
 21
230.1591798789
  0
POLYLINE
  8
0
 62
9
  6
CONTINUOUS
 66
1
 70
0
  0
VERTEX
  8
0
 62
9
  6
CONTINUOUS
 10
106.5200534052
 20
215.2037534151
  0
VERTEX
  8
0
 62
9
  6
CONTINUOUS
 10
106.5584380753
 20
215.3268376392
  0
VERTEX
  8
0
 62
9
  6
CONTINUOUS
 10
106.5913691767
 20
215.4423364308
  0
VERTEX
  8
0
 62
9
  6
CONTINUOUS
 10
106.6166166743
 20
215.5424284107
  0
VERTEX
  8
0
 62
9
  6
CONTINUOUS
 10
106.632470856
 20
215.6203355322
  0
VERTEX
  8
0
 62
9
  6
CONTINUOUS
 10
106.6378581091
 20
215.6707820728
  0
VERTEX
  8
0
 62
9
  6
CONTINUOUS
 10
106.6324136217
 20
215.690351891
  0
SEQEND
  0
POLYLINE
  8
0
 62
9
  6
CONTINUOUS
 66
1
 70
0
  0
VERTEX
  8
0
 62
9
  6
CONTINUOUS
 10
106.8197522958
 20
215.1063345251
  0
VERTEX
  8
0
 62
9
  6
CONTINUOUS
 10
106.8529324115
 20
215.2121140553
  0
VERTEX
  8
0
 62
9
  6
CONTINUOUS
 10
106.882359237
 20
215.3131758654
  0
VERTEX
  8
0
 62
9
  6
CONTINUOUS
 10
106.9065663713
 20
215.4044838313
  0
VERTEX
  8
0
 62
9
  6
CONTINUOUS
 10
106.9243475213
 20
215.4814878832
  0
VERTEX
  8
0
 62
9
  6
CONTINUOUS
 10
106.9348166149
 20
215.5403507459
  0
VERTEX
  8
0
 62
9
  6
CONTINUOUS
 10
106.9374519547
 20
215.5781391582
  0
VERTEX
  8
0
 62
9
  6
CONTINUOUS
 10
106.9321222162
 20
215.5929700434
  0
SEQEND
  0
POLYLINE
  8
0
 62
9
  6
CONTINUOUS
 66
1
 70
0
  0
VERTEX
  8
0
 62
9
  6
CONTINUOUS
 10
106.1128672495
 20
212.9307660555
  0
VERTEX
  8
0
 62
9
  6
CONTINUOUS
 10
106.0774865974
 20
212.8255369793
  0
VERTEX
  8
0
 62
9
  6
CONTINUOUS
 10
106.0418367584
 20
212.7263634227
  0
VERTEX
  8
0
 62
9
  6
CONTINUOUS
 10
106.0077106341
 20
212.6381730526
  0
VERTEX
  8
0
 62
9
  6
CONTINUOUS
 10
105.9768139737
 20
212.5654439557
  0
VERTEX
  8
0
 62
9
  6
CONTINUOUS
 10
105.9507106545
 20
212.5117078442
  0
VERTEX
  8
0
 62
9
  6
CONTINUOUS
 10
105.9306460997
 20
212.4797612654
  0
VERTEX
  8
0
 62
9
  6
CONTINUOUS
 10
105.9177392439
 20
212.4710202691
  0
SEQEND
  0
POLYLINE
  8
0
 62
9
  6
CONTINUOUS
 66
1
 70
0
  0
VERTEX
  8
0
 62
9
  6
CONTINUOUS
 10
105.8131443737
 20
213.0281111033
  0
VERTEX
  8
0
 62
9
  6
CONTINUOUS
 10
105.7718511772
 20
212.9059721057
  0
VERTEX
  8
0
 62
9
  6
CONTINUOUS
 10
105.7306045563
 20
212.7931753576
  0
VERTEX
  8
0
 62
9
  6
CONTINUOUS
 10
105.6921976587
 20
212.6973592536
  0
VERTEX
  8
0
 62
9
  6
CONTINUOUS
 10
105.6592313308
 20
212.6250122891
  0
VERTEX
  8
0
 62
9
  6
CONTINUOUS
 10
105.6339379935
 20
212.5810336714
  0
VERTEX
  8
0
 62
9
  6
CONTINUOUS
 10
105.6180304665
 20
212.5684015541
  0
SEQEND
  0
POLYLINE
  8
0
 62
9
  6
CONTINUOUS
 66
1
 70
0
  0
VERTEX
  8
0
 62
9
  6
CONTINUOUS
 10
99.8515364603
 20
204.8226617663
  0
VERTEX
  8
0
 62
9
  6
CONTINUOUS
 10
99.9549374026
 20
204.8996770523
  0
VERTEX
  8
0
 62
9
  6
CONTINUOUS
 10
100.0494677101
 20
204.9737611221
  0
VERTEX
  8
0
 62
9
  6
CONTINUOUS
 10
100.1287259552
 20
205.0398971287
  0
VERTEX
  8
0
 62
9
  6
CONTINUOUS
 10
100.1873449154
 20
205.0936064603
  0
VERTEX
  8
0
 62
9
  6
CONTINUOUS
 10
100.2213550278
 20
205.1312520214
  0
VERTEX
  8
0
 62
9
  6
CONTINUOUS
 10
100.2284531956
 20
205.1502845266
  0
SEQEND
  0
POLYLINE
  8
0
 62
9
  6
CONTINUOUS
 66
1
 70
0
  0
VERTEX
  8
0
 62
9
  6
CONTINUOUS
 10
100.0367365691
 20
204.5676896407
  0
VERTEX
  8
0
 62
9
  6
CONTINUOUS
 10
100.1257554945
 20
204.6337642956
  0
VERTEX
  8
0
 62
9
  6
CONTINUOUS
 10
100.208964938
 20
204.6982283634
  0
VERTEX
  8
0
 62
9
  6
CONTINUOUS
 10
100.2822183967
 20
204.757869463
  0
VERTEX
  8
0
 62
9
  6
CONTINUOUS
 10
100.3418654954
 20
204.8097155518
  0
VERTEX
  8
0
 62
9
  6
CONTINUOUS
 10
100.3849338926
 20
204.8511830293
  0
VERTEX
  8
0
 62
9
  6
CONTINUOUS
 10
100.4092773988
 20
204.8802054832
  0
VERTEX
  8
0
 62
9
  6
CONTINUOUS
 10
100.4136829254
 20
204.895336663
  0
SEQEND
  0
POLYLINE
  8
0
 62
9
  6
CONTINUOUS
 66
1
 70
0
  0
VERTEX
  8
0
 62
9
  6
CONTINUOUS
 10
98.1860874919
 20
203.2231143817
  0
VERTEX
  8
0
 62
9
  6
CONTINUOUS
 10
98.0956118439
 20
203.1587784962
  0
VERTEX
  8
0
 62
9
  6
CONTINUOUS
 10
98.0084777643
 20
203.0994998531
  0
VERTEX
  8
0
 62
9
  6
CONTINUOUS
 10
97.9290321509
 20
203.0482111775
  0
VERTEX
  8
0
 62
9
  6
CONTINUOUS
 10
97.861287137
 20
203.0075327035
  0
VERTEX
  8
0
 62
9
  6
CONTINUOUS
 10
97.8085838143
 20
202.9794024222
  0
VERTEX
  8
0
 62
9
  6
CONTINUOUS
 10
97.7735735206
 20
202.9653507463
  0
VERTEX
  8
0
 62
9
  6
CONTINUOUS
 10
97.7579938263
 20
202.9658655913
  0
SEQEND
  0
POLYLINE
  8
0
 62
9
  6
CONTINUOUS
 66
1
 70
0
  0
VERTEX
  8
0
 62
9
  6
CONTINUOUS
 10
98.0008245752
 20
203.4780408658
  0
VERTEX
  8
0
 62
9
  6
CONTINUOUS
 10
97.8956261759
 20
203.4034998729
  0
VERTEX
  8
0
 62
9
  6
CONTINUOUS
 10
97.7959566937
 20
203.3364895423
  0
VERTEX
  8
0
 62
9
  6
CONTINUOUS
 10
97.7085655679
 20
203.2815476938
  0
VERTEX
  8
0
 62
9
  6
CONTINUOUS
 10
97.6393707696
 20
203.2423948914
  0
VERTEX
  8
0
 62
9
  6
CONTINUOUS
 10
97.593058047
 20
203.221682493
  0
VERTEX
  8
0
 62
9
  6
CONTINUOUS
 10
97.5727636151
 20
203.2208131051
  0
SEQEND
  0
POLYLINE
  8
0
 62
9
  6
CONTINUOUS
 66
1
 70
0
  0
VERTEX
  8
0
 62
9
  6
CONTINUOUS
 10
86.0671346492
 20
240.2061618827
  0
VERTEX
  8
0
 62
9
  6
CONTINUOUS
 10
85.9382130795
 20
240.2046327569
  0
VERTEX
  8
0
 62
9
  6
CONTINUOUS
 10
85.8181909268
 20
240.2002610065
  0
VERTEX
  8
0
 62
9
  6
CONTINUOUS
 10
85.7151958848
 20
240.1933426811
  0
VERTEX
  8
0
 62
9
  6
CONTINUOUS
 10
85.6362025912
 20
240.1843462793
  0
VERTEX
  8
0
 62
9
  6
CONTINUOUS
 10
85.5865603225
 20
240.1738810227
  0
VERTEX
  8
0
 62
9
  6
CONTINUOUS
 10
85.5696307568
 20
240.1626556005
  0
SEQEND
  0
POLYLINE
  8
0
 62
9
  6
CONTINUOUS
 66
1
 70
0
  0
VERTEX
  8
0
 62
9
  6
CONTINUOUS
 10
86.067173469
 20
240.5212965583
  0
VERTEX
  8
0
 62
9
  6
CONTINUOUS
 10
85.9563179379
 20
240.5201650511
  0
VERTEX
  8
0
 62
9
  6
CONTINUOUS
 10
85.8511090556
 20
240.5169218085
  0
VERTEX
  8
0
 62
9
  6
CONTINUOUS
 10
85.7567896039
 20
240.5117284481
  0
VERTEX
  8
0
 62
9
  6
CONTINUOUS
 10
85.678059721
 20
240.5048437661
  0
VERTEX
  8
0
 62
9
  6
CONTINUOUS
 10
85.618842684
 20
240.4966108407
  0
VERTEX
  8
0
 62
9
  6
CONTINUOUS
 10
85.5820894034
 20
240.4874399362
  0
VERTEX
  8
0
 62
9
  6
CONTINUOUS
 10
85.5696313732
 20
240.4777880582
  0
SEQEND
  0
POLYLINE
  8
0
 62
9
  6
CONTINUOUS
 66
1
 70
0
  0
VERTEX
  8
0
 62
9
  6
CONTINUOUS
 10
88.354701531
 20
240.5212965583
  0
VERTEX
  8
0
 62
9
  6
CONTINUOUS
 10
88.4657135524
 20
240.5201651314
  0
VERTEX
  8
0
 62
9
  6
CONTINUOUS
 10
88.5710496158
 20
240.5169064341
  0
VERTEX
  8
0
 62
9
  6
CONTINUOUS
 10
88.6654691943
 20
240.5117028844
  0
VERTEX
  8
0
 62
9
  6
CONTINUOUS
 10
88.7441862689
 20
240.5047929411
  0
VERTEX
  8
0
 62
9
  6
CONTINUOUS
 10
88.8033587172
 20
240.4965725809
  0
VERTEX
  8
0
 62
9
  6
CONTINUOUS
 10
88.8399420076
 20
240.4873620911
  0
VERTEX
  8
0
 62
9
  6
CONTINUOUS
 10
88.8522436268
 20
240.4777880582
  0
SEQEND
  0
POLYLINE
  8
0
 62
9
  6
CONTINUOUS
 66
1
 70
0
  0
VERTEX
  8
0
 62
9
  6
CONTINUOUS
 10
88.3547403512
 20
240.2061618901
  0
VERTEX
  8
0
 62
9
  6
CONTINUOUS
 10
88.4836617403
 20
240.2046327524
  0
VERTEX
  8
0
 62
9
  6
CONTINUOUS
 10
88.6036837294
 20
240.200260997
  0
VERTEX
  8
0
 62
9
  6
CONTINUOUS
 10
88.7066786435
 20
240.1933426712
  0
VERTEX
  8
0
 62
9
  6
CONTINUOUS
 10
88.7856718511
 20
240.1843462717
  0
VERTEX
  8
0
 62
9
  6
CONTINUOUS
 10
88.8353140731
 20
240.1738810187
  0
VERTEX
  8
0
 62
9
  6
CONTINUOUS
 10
88.8522436268
 20
240.1626556005
  0
SEQEND
  0
POLYLINE
  8
0
 62
9
  6
CONTINUOUS
 66
1
 70
0
  0
VERTEX
  8
0
 62
9
  6
CONTINUOUS
 10
98.0008245714
 20
237.0719591282
  0
VERTEX
  8
0
 62
9
  6
CONTINUOUS
 10
97.8956260336
 20
237.1465002355
  0
VERTEX
  8
0
 62
9
  6
CONTINUOUS
 10
97.7959564261
 20
237.2135106627
  0
VERTEX
  8
0
 62
9
  6
CONTINUOUS
 10
97.7085652035
 20
237.2684525816
  0
VERTEX
  8
0
 62
9
  6
CONTINUOUS
 10
97.6393703409
 20
237.3076054279
  0
VERTEX
  8
0
 62
9
  6
CONTINUOUS
 10
97.5930575837
 20
237.3283178478
  0
VERTEX
  8
0
 62
9
  6
CONTINUOUS
 10
97.5727631418
 20
237.3291872387
  0
SEQEND
  0
POLYLINE
  8
0
 62
9
  6
CONTINUOUS
 66
1
 70
0
  0
VERTEX
  8
0
 62
9
  6
CONTINUOUS
 10
98.1860874919
 20
237.3268856183
  0
VERTEX
  8
0
 62
9
  6
CONTINUOUS
 10
98.0957384001
 20
237.3911294561
  0
VERTEX
  8
0
 62
9
  6
CONTINUOUS
 10
98.0087162961
 20
237.4503458471
  0
VERTEX
  8
0
 62
9
  6
CONTINUOUS
 10
97.9293576761
 20
237.501583913
  0
VERTEX
  8
0
 62
9
  6
CONTINUOUS
 10
97.8616171483
 20
237.5422903524
  0
VERTEX
  8
0
 62
9
  6
CONTINUOUS
 10
97.808870367
 20
237.5704366769
  0
VERTEX
  8
0
 62
9
  6
CONTINUOUS
 10
97.773745816
 20
237.5846202956
  0
VERTEX
  8
0
 62
9
  6
CONTINUOUS
 10
97.7579938263
 20
237.5841344087
  0
SEQEND
  0
POLYLINE
  8
0
 62
9
  6
CONTINUOUS
 66
1
 70
0
  0
VERTEX
  8
0
 62
9
  6
CONTINUOUS
 10
100.0367365691
 20
235.9823103593
  0
VERTEX
  8
0
 62
9
  6
CONTINUOUS
 10
100.125882145
 20
235.9161437867
  0
VERTEX
  8
0
 62
9
  6
CONTINUOUS
 10
100.2091853962
 20
235.8515924606
  0
VERTEX
  8
0
 62
9
  6
CONTINUOUS
 10
100.28251387
 20
235.7918842647
  0
VERTEX
  8
0
 62
9
  6
CONTINUOUS
 10
100.3421357584
 20
235.7400252675
  0
VERTEX
  8
0
 62
9
  6
CONTINUOUS
 10
100.3851754681
 20
235.698594164
  0
VERTEX
  8
0
 62
9
  6
CONTINUOUS
 10
100.4093581817
 20
235.6696396027
  0
VERTEX
  8
0
 62
9
  6
CONTINUOUS
 10
100.4136829254
 20
235.654663337
  0
SEQEND
  0
POLYLINE
  8
0
 62
9
  6
CONTINUOUS
 66
1
 70
0
  0
VERTEX
  8
0
 62
9
  6
CONTINUOUS
 10
99.8515364649
 20
235.7273382393
  0
VERTEX
  8
0
 62
9
  6
CONTINUOUS
 10
99.954937255
 20
235.6503230497
  0
VERTEX
  8
0
 62
9
  6
CONTINUOUS
 10
100.0494674305
 20
235.5762390701
  0
VERTEX
  8
0
 62
9
  6
CONTINUOUS
 10
100.1287255765
 20
235.5101031353
  0
VERTEX
  8
0
 62
9
  6
CONTINUOUS
 10
100.187344473
 20
235.4563938528
  0
VERTEX
  8
0
 62
9
  6
CONTINUOUS
 10
100.2213545528
 20
235.4187483194
  0
VERTEX
  8
0
 62
9
  6
CONTINUOUS
 10
100.2284527142
 20
235.3997158232
  0
SEQEND
  0
POLYLINE
  8
0
 62
9
  6
CONTINUOUS
 66
1
 70
0
  0
VERTEX
  8
0
 62
9
  6
CONTINUOUS
 10
105.8131443671
 20
227.5218888941
  0
VERTEX
  8
0
 62
9
  6
CONTINUOUS
 10
105.7718511257
 20
227.6440280659
  0
VERTEX
  8
0
 62
9
  6
CONTINUOUS
 10
105.7306044602
 20
227.7568249663
  0
VERTEX
  8
0
 62
9
  6
CONTINUOUS
 10
105.6921975254
 20
227.852641185
  0
VERTEX
  8
0
 62
9
  6
CONTINUOUS
 10
105.659231171
 20
227.9249882236
  0
VERTEX
  8
0
 62
9
  6
CONTINUOUS
 10
105.633937818
 20
227.9689668796
  0
VERTEX
  8
0
 62
9
  6
CONTINUOUS
 10
105.6180302847
 20
227.9815990055
  0
SEQEND
  0
POLYLINE
  8
0
 62
9
  6
CONTINUOUS
 66
1
 70
0
  0
VERTEX
  8
0
 62
9
  6
CONTINUOUS
 10
106.1128672495
 20
227.6192339445
  0
VERTEX
  8
0
 62
9
  6
CONTINUOUS
 10
106.0775348792
 20
227.7243141647
  0
VERTEX
  8
0
 62
9
  6
CONTINUOUS
 10
106.0419390395
 20
227.8233715407
  0
VERTEX
  8
0
 62
9
  6
CONTINUOUS
 10
106.0078535468
 20
227.9114698333
  0
VERTEX
  8
0
 62
9
  6
CONTINUOUS
 10
105.9769769533
 20
227.9842189177
  0
VERTEX
  8
0
 62
9
  6
CONTINUOUS
 10
105.9508479053
 20
228.0379935528
  0
VERTEX
  8
0
 62
9
  6
CONTINUOUS
 10
105.9307684685
 20
228.0701140344
  0
VERTEX
  8
0
 62
9
  6
CONTINUOUS
 10
105.9177392439
 20
228.0789797309
  0
SEQEND
  0
POLYLINE
  8
0
 62
9
  6
CONTINUOUS
 66
1
 70
0
  0
VERTEX
  8
0
 62
9
  6
CONTINUOUS
 10
106.8197522958
 20
225.4436654749
  0
VERTEX
  8
0
 62
9
  6
CONTINUOUS
 10
106.852980846
 20
225.3377371384
  0
VERTEX
  8
0
 62
9
  6
CONTINUOUS
 10
106.8824322745
 20
225.2365495961
  0
VERTEX
  8
0
 62
9
  6
CONTINUOUS
 10
106.9066606589
 20
225.1451432554
  0
VERTEX
  8
0
 62
9
  6
CONTINUOUS
 10
106.9244138261
 20
225.0681435787
  0
VERTEX
  8
0
 62
9
  6
CONTINUOUS
 10
106.9348810911
 20
225.0093270052
  0
VERTEX
  8
0
 62
9
  6
CONTINUOUS
 10
106.9374262533
 20
224.9716880306
  0
VERTEX
  8
0
 62
9
  6
CONTINUOUS
 10
106.9321222162
 20
224.9570299566
  0
SEQEND
  0
POLYLINE
  8
0
 62
9
  6
CONTINUOUS
 66
1
 70
0
  0
VERTEX
  8
0
 62
9
  6
CONTINUOUS
 10
106.5200534122
 20
225.3462465867
  0
VERTEX
  8
0
 62
9
  6
CONTINUOUS
 10
106.558438016
 20
225.22316253
  0
VERTEX
  8
0
 62
9
  6
CONTINUOUS
 10
106.5913690638
 20
225.1076638884
  0
VERTEX
  8
0
 62
9
  6
CONTINUOUS
 10
106.6166165237
 20
225.0075720239
  0
VERTEX
  8
0
 62
9
  6
CONTINUOUS
 10
106.632470683
 20
224.9296649788
  0
VERTEX
  8
0
 62
9
  6
CONTINUOUS
 10
106.6378579262
 20
224.8792184791
  0
VERTEX
  8
0
 62
9
  6
CONTINUOUS
 10
106.6324134388
 20
224.8596486717
  0
SEQEND
  0
POLYLINE
  8
DEFAULT_2
 62
8
  6
HIDDEN
 66
1
 70
0
  0
VERTEX
  8
DEFAULT_2
 62
8
  6
HIDDEN
 10
67.1442612809
 20
135.1245378276
  0
VERTEX
  8
DEFAULT_2
 62
8
  6
HIDDEN
 10
67.1559386704
 20
135.0171086509
  0
VERTEX
  8
DEFAULT_2
 62
8
  6
HIDDEN
 10
67.189990054
 20
134.9156415559
  0
VERTEX
  8
DEFAULT_2
 62
8
  6
HIDDEN
 10
67.2445036223
 20
134.8242149774
  0
VERTEX
  8
DEFAULT_2
 62
8
  6
HIDDEN
 10
67.3169344428
 20
134.746573357
  0
VERTEX
  8
DEFAULT_2
 62
8
  6
HIDDEN
 10
67.4041438334
 20
134.6859678658
  0
VERTEX
  8
DEFAULT_2
 62
8
  6
HIDDEN
 10
67.5025434602
 20
134.6450421975
  0
VERTEX
  8
DEFAULT_2
 62
8
  6
HIDDEN
 10
67.5986804682
 20
134.6266197767
  0
SEQEND
  0
LINE
  8
0
 62
7
  6
CONTINUOUS
 10
67.1442612809
 20
140.6832746724
 11
67.1442612809
 21
135.1245378276
  0
LINE
  8
0
 62
9
  6
CONTINUOUS
 10
67.1607753353
 20
140.6832746724
 11
67.1607753353
 21
135.1245378276
  0
POLYLINE
  8
0
 62
7
  6
CONTINUOUS
 66
1
 70
0
  0
VERTEX
  8
0
 62
7
  6
CONTINUOUS
 10
67.1442612809
 20
140.6832746724
  0
VERTEX
  8
0
 62
7
  6
CONTINUOUS
 10
67.1559386704
 20
140.7907038491
  0
VERTEX
  8
0
 62
7
  6
CONTINUOUS
 10
67.189990054
 20
140.8921709441
  0
VERTEX
  8
0
 62
7
  6
CONTINUOUS
 10
67.2445036223
 20
140.9835975226
  0
VERTEX
  8
0
 62
7
  6
CONTINUOUS
 10
67.3169344428
 20
141.061239143
  0
VERTEX
  8
0
 62
7
  6
CONTINUOUS
 10
67.4041438334
 20
141.1218446342
  0
VERTEX
  8
0
 62
7
  6
CONTINUOUS
 10
67.5025434602
 20
141.1627703025
  0
VERTEX
  8
0
 62
7
  6
CONTINUOUS
 10
67.5986804682
 20
141.1811927233
  0
SEQEND
  0
POLYLINE
  8
0
 62
9
  6
CONTINUOUS
 66
1
 70
0
  0
VERTEX
  8
0
 62
9
  6
CONTINUOUS
 10
67.1607753353
 20
135.1245378276
  0
VERTEX
  8
0
 62
9
  6
CONTINUOUS
 10
67.1754791583
 20
135.0021661556
  0
VERTEX
  8
0
 62
9
  6
CONTINUOUS
 10
67.218696279
 20
134.8872376427
  0
VERTEX
  8
0
 62
9
  6
CONTINUOUS
 10
67.2877980506
 20
134.7867427238
  0
VERTEX
  8
0
 62
9
  6
CONTINUOUS
 10
67.3785814131
 20
134.7067939219
  0
VERTEX
  8
0
 62
9
  6
CONTINUOUS
 10
67.485524541
 20
134.652254059
  0
SEQEND
  0
LINE
  8
DEFAULT_2
 62
8
  6
HIDDEN
 10
67.4844230453
 20
140.7937720432
 11
67.4897527838
 21
140.6832746724
  0
LINE
  8
DEFAULT_2
 62
8
  6
HIDDEN
 10
67.4897527838
 20
140.6832746733
 11
67.4897527838
 21
135.1245378267
  0
LINE
  8
DEFAULT_2
 62
8
  6
HIDDEN
 10
67.7894615612
 20
135.0970118931
 11
67.7894615612
 21
140.7108006069
  0
LINE
  8
0
 62
9
  6
CONTINUOUS
 10
67.8835706678
 20
135.1245378276
 11
67.8835706678
 21
140.6832746724
  0
LINE
  8
0
 62
9
  6
CONTINUOUS
 10
68.5041357561
 20
135.1245378267
 11
68.5041357561
 21
140.6832746733
  0
LINE
  8
0
 62
9
  6
CONTINUOUS
 10
68.8038445335
 20
135.0970118931
 11
68.8038445335
 21
140.7108006069
  0
POLYLINE
  8
0
 62
9
  6
CONTINUOUS
 66
1
 70
0
  0
VERTEX
  8
0
 62
9
  6
CONTINUOUS
 10
67.8835706678
 20
140.6832746724
  0
VERTEX
  8
0
 62
9
  6
CONTINUOUS
 10
67.8977444275
 20
140.8056463444
  0
VERTEX
  8
0
 62
9
  6
CONTINUOUS
 10
67.939403599
 20
140.9205748573
  0
VERTEX
  8
0
 62
9
  6
CONTINUOUS
 10
68.0060142966
 20
141.0210697762
  0
VERTEX
  8
0
 62
9
  6
CONTINUOUS
 10
68.0935249778
 20
141.1010185781
  0
VERTEX
  8
0
 62
9
  6
CONTINUOUS
 10
68.1966128754
 20
141.155558441
  0
VERTEX
  8
0
 62
9
  6
CONTINUOUS
 10
68.3090077505
 20
141.1813720215
  0
SEQEND
  0
POLYLINE
  8
DEFAULT_2
 62
8
  6
HIDDEN
 66
1
 70
0
  0
VERTEX
  8
DEFAULT_2
 62
8
  6
HIDDEN
 10
67.8052583224
 20
134.7456798622
  0
VERTEX
  8
DEFAULT_2
 62
8
  6
HIDDEN
 10
67.7894041394
 20
134.8486783909
  0
VERTEX
  8
DEFAULT_2
 62
8
  6
HIDDEN
 10
67.7840168855
 20
134.968493628
  0
VERTEX
  8
DEFAULT_2
 62
8
  6
HIDDEN
 10
67.7894613729
 20
135.0970118931
  0
SEQEND
  0
POLYLINE
  8
DEFAULT_2
 62
8
  6
HIDDEN
 66
1
 70
0
  0
VERTEX
  8
DEFAULT_2
 62
8
  6
HIDDEN
 10
67.568894154
 20
141.1683816293
  0
VERTEX
  8
DEFAULT_2
 62
8
  6
HIDDEN
 10
67.5394427255
 20
141.1311515437
  0
VERTEX
  8
DEFAULT_2
 62
8
  6
HIDDEN
 10
67.5152143411
 20
141.0715265603
  0
VERTEX
  8
DEFAULT_2
 62
8
  6
HIDDEN
 10
67.4974611739
 20
140.9925507652
  0
VERTEX
  8
DEFAULT_2
 62
8
  6
HIDDEN
 10
67.4869939089
 20
140.8980823002
  0
VERTEX
  8
DEFAULT_2
 62
8
  6
HIDDEN
 10
67.4844487467
 20
140.7930864535
  0
SEQEND
  0
POLYLINE
  8
DEFAULT_2
 62
8
  6
HIDDEN
 66
1
 70
0
  0
VERTEX
  8
DEFAULT_2
 62
8
  6
HIDDEN
 10
67.5689425885
 20
134.6393942861
  0
VERTEX
  8
DEFAULT_2
 62
8
  6
HIDDEN
 10
67.539515763
 20
134.6765238252
  0
VERTEX
  8
DEFAULT_2
 62
8
  6
HIDDEN
 10
67.5153086287
 20
134.7359788523
  0
VERTEX
  8
DEFAULT_2
 62
8
  6
HIDDEN
 10
67.4975274787
 20
134.8147965971
  0
VERTEX
  8
DEFAULT_2
 62
8
  6
HIDDEN
 10
67.4870583851
 20
134.9090494044
  0
VERTEX
  8
DEFAULT_2
 62
8
  6
HIDDEN
 10
67.4844230453
 20
135.0140404568
  0
VERTEX
  8
DEFAULT_2
 62
8
  6
HIDDEN
 10
67.4897527838
 20
135.1245378276
  0
SEQEND
  0
LINE
  8
DEFAULT_2
 62
8
  6
HIDDEN
 10
70.8259375
 20
140.90390625
 11
70.8259375
 21
134.90390625
  0
LINE
  8
DEFAULT_2
 62
8
  6
HIDDEN
 10
70.829786786
 20
140.90390625
 11
70.829786786
 21
134.90390625
  0
LINE
  8
DEFAULT_2
 62
8
  6
HIDDEN
 10
70.846005858
 20
141.0333157728
 11
70.8289719263
 21
140.90390625
  0
POLYLINE
  8
0
 62
7
  6
CONTINUOUS
 66
1
 70
0
  0
VERTEX
  8
0
 62
7
  6
CONTINUOUS
 10
70.9254392409
 20
141.3864391918
  0
VERTEX
  8
0
 62
7
  6
CONTINUOUS
 10
70.910342046
 20
141.3467565185
  0
VERTEX
  8
0
 62
7
  6
CONTINUOUS
 10
70.8977908351
 20
141.2861782478
  0
VERTEX
  8
0
 62
7
  6
CONTINUOUS
 10
70.8883756807
 20
141.2075722622
  0
VERTEX
  8
0
 62
7
  6
CONTINUOUS
 10
70.8825351166
 20
141.1146556745
  0
VERTEX
  8
0
 62
7
  6
CONTINUOUS
 10
70.8805205958
 20
141.0118154116
  0
VERTEX
  8
0
 62
7
  6
CONTINUOUS
 10
70.8825823751
 20
140.90390625
  0
SEQEND
  0
POLYLINE
  8
0
 62
7
  6
CONTINUOUS
 66
1
 70
0
  0
VERTEX
  8
0
 62
7
  6
CONTINUOUS
 10
70.9254392413
 20
134.4213733078
  0
VERTEX
  8
0
 62
7
  6
CONTINUOUS
 10
70.9103420523
 20
134.4610559808
  0
VERTEX
  8
0
 62
7
  6
CONTINUOUS
 10
70.8977908488
 20
134.5216342511
  0
VERTEX
  8
0
 62
7
  6
CONTINUOUS
 10
70.8883757049
 20
134.6002402364
  0
VERTEX
  8
0
 62
7
  6
CONTINUOUS
 10
70.8825351595
 20
134.6931568235
  0
VERTEX
  8
0
 62
7
  6
CONTINUOUS
 10
70.8805206913
 20
134.7959970846
  0
VERTEX
  8
0
 62
7
  6
CONTINUOUS
 10
70.8825823745
 20
134.90390625
  0
SEQEND
  0
LINE
  8
0
 62
7
  6
CONTINUOUS
 10
72.2109375
 20
129.90390625
 11
72.2109375
 21
134.40390625
  0
LINE
  8
0
 62
7
  6
CONTINUOUS
 10
72.2109375
 20
141.40390625
 11
72.2109375
 21
145.90390625
  0
LINE
  8
0
 62
7
  6
CONTINUOUS
 10
70.9423712055
 20
141.4033450749
 11
70.9254392409
 21
141.3864391918
  0
LINE
  8
0
 62
7
  6
CONTINUOUS
 10
70.9423712005
 20
134.404467425
 11
70.9254392413
 21
134.4213733078
  0
LINE
  8
DEFAULT_2
 62
8
  6
HIDDEN
 10
73.9127005718
 20
135.1245378276
 11
73.9242571828
 21
135.0176591314
  0
POLYLINE
  8
0
 62
9
  6
CONTINUOUS
 66
1
 70
0
  0
VERTEX
  8
0
 62
9
  6
CONTINUOUS
 10
74.0964604698
 20
135.1245378276
  0
VERTEX
  8
0
 62
9
  6
CONTINUOUS
 10
74.1060779955
 20
135.0021661556
  0
VERTEX
  8
0
 62
9
  6
CONTINUOUS
 10
74.1343455941
 20
134.8872376427
  0
VERTEX
  8
0
 62
9
  6
CONTINUOUS
 10
74.1795439116
 20
134.7867427238
  0
VERTEX
  8
0
 62
9
  6
CONTINUOUS
 10
74.2389237966
 20
134.7067939219
  0
VERTEX
  8
0
 62
9
  6
CONTINUOUS
 10
74.3088735149
 20
134.652254059
  0
SEQEND
  0
LINE
  8
0
 62
9
  6
CONTINUOUS
 10
73.7723064168
 20
134.90390625
 11
73.7723064168
 21
140.90390625
  0
LINE
  8
0
 62
7
  6
CONTINUOUS
 10
73.9127005718
 20
140.6832746724
 11
73.9127005718
 21
135.1245378276
  0
LINE
  8
DEFAULT_2
 62
8
  6
HIDDEN
 10
74.0081920746
 20
140.6832746733
 11
74.0081920746
 21
135.1245378267
  0
LINE
  8
0
 62
9
  6
CONTINUOUS
 10
74.0964604698
 20
140.6832746724
 11
74.0964604698
 21
135.1245378276
  0
LINE
  8
DEFAULT_2
 62
8
  6
HIDDEN
 10
74.1429914824
 20
134.90390625
 11
74.1429914824
 21
140.90390625
  0
LINE
  8
DEFAULT_2
 62
8
  6
HIDDEN
 10
74.1934222858
 20
135.0970118931
 11
74.1934222858
 21
140.7108006069
  0
LINE
  8
DEFAULT_2
 62
8
  6
HIDDEN
 10
75.0337475106
 20
140.90390625
 11
75.0337475106
 21
134.90390625
  0
POLYLINE
  8
0
 62
7
  6
CONTINUOUS
 66
1
 70
0
  0
VERTEX
  8
0
 62
7
  6
CONTINUOUS
 10
73.9127005718
 20
140.6832746724
  0
VERTEX
  8
0
 62
7
  6
CONTINUOUS
 10
73.9242571828
 20
140.7901533686
  0
VERTEX
  8
0
 62
7
  6
CONTINUOUS
 10
73.958362462
 20
140.8920254375
  0
VERTEX
  8
0
 62
7
  6
CONTINUOUS
 10
74.0134133051
 20
140.984222639
  0
VERTEX
  8
0
 62
7
  6
CONTINUOUS
 10
74.0868677621
 20
141.0625278597
  0
VERTEX
  8
0
 62
7
  6
CONTINUOUS
 10
74.1753567463
 20
141.1233518344
  0
VERTEX
  8
0
 62
7
  6
CONTINUOUS
 10
74.2748261191
 20
141.1638895237
  0
VERTEX
  8
0
 62
7
  6
CONTINUOUS
 10
74.33958379
 20
141.1778997169
  0
SEQEND
  0
LINE
  8
DEFAULT_2
 62
8
  6
HIDDEN
 10
73.9260677323
 20
140.7981157778
 11
73.9127005955
 21
140.6832746724
  0
POLYLINE
  8
DEFAULT_2
 62
8
  6
HIDDEN
 66
1
 70
0
  0
VERTEX
  8
DEFAULT_2
 62
8
  6
HIDDEN
 10
74.1880298823
 20
141.1285166367
  0
VERTEX
  8
DEFAULT_2
 62
8
  6
HIDDEN
 10
74.1565795039
 20
141.0333157728
  0
VERTEX
  8
DEFAULT_2
 62
8
  6
HIDDEN
 10
74.1429914824
 20
140.90390625
  0
SEQEND
  0
LINE
  8
DEFAULT_2
 62
8
  6
HIDDEN
 10
73.969202046
 20
140.9141622155
 11
73.9260677323
 21
140.7981157778
  0
LINE
  8
DEFAULT_2
 62
8
  6
HIDDEN
 10
74.0376565038
 20
141.0139436112
 11
73.969202046
 21
140.9141622155
  0
LINE
  8
DEFAULT_2
 62
8
  6
HIDDEN
 10
70.9423602396
 20
141.4033374199
 11
70.9428107276
 21
141.4036558779
  0
POLYLINE
  8
0
 62
7
  6
CONTINUOUS
 66
1
 70
0
  0
VERTEX
  8
0
 62
7
  6
CONTINUOUS
 10
70.9423609743
 20
141.4033380328
  0
VERTEX
  8
0
 62
7
  6
CONTINUOUS
 10
70.9428107248
 20
141.4036558797
  0
VERTEX
  8
0
 62
7
  6
CONTINUOUS
 10
70.9415685206
 20
141.4038446595
  0
VERTEX
  8
0
 62
7
  6
CONTINUOUS
 10
70.9386876866
 20
141.40390625
  0
SEQEND
  0
POLYLINE
  8
0
 62
7
  6
CONTINUOUS
 66
1
 70
0
  0
VERTEX
  8
0
 62
7
  6
CONTINUOUS
 10
70.9423609692
 20
134.4044744676
  0
VERTEX
  8
0
 62
7
  6
CONTINUOUS
 10
70.9428107247
 20
134.4041566202
  0
VERTEX
  8
0
 62
7
  6
CONTINUOUS
 10
70.9415685204
 20
134.4039678405
  0
VERTEX
  8
0
 62
7
  6
CONTINUOUS
 10
70.9386876866
 20
134.40390625
  0
SEQEND
  0
LINE
  8
DEFAULT_2
 62
8
  6
HIDDEN
 10
70.942360245
 20
134.4044750797
 11
70.9428107277
 21
134.4041566222
  0
LINE
  8
DEFAULT_2
 62
8
  6
HIDDEN
 10
73.958362462
 20
134.9157870625
 11
74.0134133051
 21
134.823589861
  0
POLYLINE
  8
DEFAULT_2
 62
8
  6
HIDDEN
 66
1
 70
0
  0
VERTEX
  8
DEFAULT_2
 62
8
  6
HIDDEN
 10
74.2931490376
 20
134.7456798605
  0
VERTEX
  8
DEFAULT_2
 62
8
  6
HIDDEN
 10
74.2345300736
 20
134.8486783894
  0
VERTEX
  8
DEFAULT_2
 62
8
  6
HIDDEN
 10
74.2005199586
 20
134.9684936271
  0
VERTEX
  8
DEFAULT_2
 62
8
  6
HIDDEN
 10
74.1934217901
 20
135.0970118931
  0
SEQEND
  0
LINE
  8
DEFAULT_2
 62
8
  6
HIDDEN
 10
73.9242571828
 20
135.0176591314
 11
73.958362462
 21
134.9157870625
  0
POLYLINE
  8
DEFAULT_2
 62
8
  6
HIDDEN
 66
1
 70
0
  0
VERTEX
  8
DEFAULT_2
 62
8
  6
HIDDEN
 10
74.1871603274
 20
134.6819280677
  0
VERTEX
  8
DEFAULT_2
 62
8
  6
HIDDEN
 10
74.1565794654
 20
134.7744969072
  0
VERTEX
  8
DEFAULT_2
 62
8
  6
HIDDEN
 10
74.1429914823
 20
134.90390625
  0
SEQEND
  0
LINE
  8
0
 62
9
  6
CONTINUOUS
 10
75.9887632171
 20
135.1245378276
 11
75.9887632171
 21
140.6832746724
  0
POLYLINE
  8
0
 62
9
  6
CONTINUOUS
 66
1
 70
0
  0
VERTEX
  8
0
 62
9
  6
CONTINUOUS
 10
75.9887632171
 20
140.6832746724
  0
VERTEX
  8
0
 62
9
  6
CONTINUOUS
 10
75.9969930191
 20
140.8056463444
  0
VERTEX
  8
0
 62
9
  6
CONTINUOUS
 10
76.0211818539
 20
140.9205748573
  0
VERTEX
  8
0
 62
9
  6
CONTINUOUS
 10
76.059858455
 20
141.0210697762
  0
VERTEX
  8
0
 62
9
  6
CONTINUOUS
 10
76.110670349
 20
141.1010185781
  0
VERTEX
  8
0
 62
9
  6
CONTINUOUS
 10
76.1705269432
 20
141.155558441
  0
VERTEX
  8
0
 62
9
  6
CONTINUOUS
 10
76.2357875081
 20
141.1813720215
  0
SEQEND
  0
POLYLINE
  8
DEFAULT_2
 62
8
  6
HIDDEN
 66
1
 70
0
  0
VERTEX
  8
DEFAULT_2
 62
8
  6
HIDDEN
 10
75.1579429461
 20
141.2861782182
  0
VERTEX
  8
DEFAULT_2
 62
8
  6
HIDDEN
 10
75.0842823809
 20
141.2075722232
  0
VERTEX
  8
DEFAULT_2
 62
8
  6
HIDDEN
 10
75.0292358998
 20
141.1146556201
  0
VERTEX
  8
DEFAULT_2
 62
8
  6
HIDDEN
 10
74.9953853113
 20
141.0118153133
  0
VERTEX
  8
DEFAULT_2
 62
8
  6
HIDDEN
 10
74.9843405677
 20
140.90390625
  0
SEQEND
  0
LINE
  8
DEFAULT_2
 62
8
  6
HIDDEN
 10
74.1257997381
 20
141.0927718172
 11
74.0376565038
 21
141.0139436112
  0
POLYLINE
  8
DEFAULT_2
 62
8
  6
HIDDEN
 66
1
 70
0
  0
VERTEX
  8
DEFAULT_2
 62
8
  6
HIDDEN
 10
69.813332328
 20
141.3864391853
  0
VERTEX
  8
DEFAULT_2
 62
8
  6
HIDDEN
 10
69.7423413768
 20
141.3467565076
  0
VERTEX
  8
DEFAULT_2
 62
8
  6
HIDDEN
 10
69.6796979938
 20
141.2861782329
  0
VERTEX
  8
DEFAULT_2
 62
8
  6
HIDDEN
 10
69.6283543013
 20
141.2075722426
  0
VERTEX
  8
DEFAULT_2
 62
8
  6
HIDDEN
 10
69.5907239117
 20
141.1146556472
  0
VERTEX
  8
DEFAULT_2
 62
8
  6
HIDDEN
 10
69.5685577157
 20
141.0118153622
  0
VERTEX
  8
DEFAULT_2
 62
8
  6
HIDDEN
 10
69.5630065862
 20
140.90390625
  0
SEQEND
  0
POLYLINE
  8
DEFAULT_2
 62
8
  6
HIDDEN
 66
1
 70
0
  0
VERTEX
  8
DEFAULT_2
 62
8
  6
HIDDEN
 10
67.8982417145
 20
141.2087051345
  0
VERTEX
  8
DEFAULT_2
 62
8
  6
HIDDEN
 10
67.863436984
 20
141.1913910752
  0
VERTEX
  8
DEFAULT_2
 62
8
  6
HIDDEN
 10
67.8305059362
 20
141.1413394658
  0
VERTEX
  8
DEFAULT_2
 62
8
  6
HIDDEN
 10
67.8052584763
 20
141.0621325334
  0
VERTEX
  8
DEFAULT_2
 62
8
  6
HIDDEN
 10
67.789404317
 20
140.9591340302
  0
VERTEX
  8
DEFAULT_2
 62
8
  6
HIDDEN
 10
67.7840170738
 20
140.8393188309
  0
VERTEX
  8
DEFAULT_2
 62
8
  6
HIDDEN
 10
67.7894615612
 20
140.7108006069
  0
SEQEND
  0
LINE
  8
DEFAULT_2
 62
8
  6
HIDDEN
 10
67.5985314587
 20
141.1811790642
 11
67.5689425885
 21
141.1684182139
  0
LINE
  8
DEFAULT_2
 62
8
  6
HIDDEN
 10
67.5986608912
 20
134.6266215651
 11
67.568894154
 21
134.6394308707
  0
POLYLINE
  8
DEFAULT_2
 62
8
  6
HIDDEN
 66
1
 70
0
  0
VERTEX
  8
DEFAULT_2
 62
8
  6
HIDDEN
 10
67.8982417802
 20
134.5991073595
  0
VERTEX
  8
DEFAULT_2
 62
8
  6
HIDDEN
 10
67.863436984
 20
134.6164214248
  0
VERTEX
  8
DEFAULT_2
 62
8
  6
HIDDEN
 10
67.8305059362
 20
134.6664730342
  0
VERTEX
  8
DEFAULT_2
 62
8
  6
HIDDEN
 10
67.8052584763
 20
134.7456799666
  0
SEQEND
  0
POLYLINE
  8
DEFAULT_2
 62
8
  6
HIDDEN
 66
1
 70
0
  0
VERTEX
  8
DEFAULT_2
 62
8
  6
HIDDEN
 10
69.8133323293
 20
134.4213733143
  0
VERTEX
  8
DEFAULT_2
 62
8
  6
HIDDEN
 10
69.7423413823
 20
134.4610559916
  0
VERTEX
  8
DEFAULT_2
 62
8
  6
HIDDEN
 10
69.6796980045
 20
134.521634266
  0
VERTEX
  8
DEFAULT_2
 62
8
  6
HIDDEN
 10
69.6283543194
 20
134.6002402559
  0
VERTEX
  8
DEFAULT_2
 62
8
  6
HIDDEN
 10
69.5907239433
 20
134.6931568508
  0
VERTEX
  8
DEFAULT_2
 62
8
  6
HIDDEN
 10
69.5685577852
 20
134.795997134
  0
VERTEX
  8
DEFAULT_2
 62
8
  6
HIDDEN
 10
69.5630065858
 20
134.90390625
  0
SEQEND
  0
LINE
  8
DEFAULT_2
 62
8
  6
HIDDEN
 10
74.3724075695
 20
134.6664730342
 11
74.2931494235
 21
134.7456799666
  0
LINE
  8
DEFAULT_2
 62
8
  6
HIDDEN
 10
74.0134133051
 20
134.823589861
 11
74.0868677621
 21
134.7452846403
  0
POLYLINE
  8
DEFAULT_2
 62
8
  6
HIDDEN
 66
1
 70
0
  0
VERTEX
  8
DEFAULT_2
 62
8
  6
HIDDEN
 10
75.1579429495
 20
134.5216342808
  0
VERTEX
  8
DEFAULT_2
 62
8
  6
HIDDEN
 10
75.0842823858
 20
134.6002402753
  0
VERTEX
  8
DEFAULT_2
 62
8
  6
HIDDEN
 10
75.0292359075
 20
134.6931568778
  0
VERTEX
  8
DEFAULT_2
 62
8
  6
HIDDEN
 10
74.9953853271
 20
134.7959971828
  0
VERTEX
  8
DEFAULT_2
 62
8
  6
HIDDEN
 10
74.9843405676
 20
134.90390625
  0
SEQEND
  0
LINE
  8
0
 62
9
  6
CONTINUOUS
 10
76.6638811737
 20
135.1245378267
 11
76.6638811737
 21
140.6832746733
  0
LINE
  8
0
 62
9
  6
CONTINUOUS
 10
76.8491113849
 20
135.0970118931
 11
76.8491113849
 21
140.7108006069
  0
POLYLINE
  8
0
 62
9
  6
CONTINUOUS
 66
1
 70
0
  0
VERTEX
  8
0
 62
9
  6
CONTINUOUS
 10
74.3088735149
 20
141.155558441
  0
VERTEX
  8
0
 62
9
  6
CONTINUOUS
 10
74.2389237966
 20
141.1010185781
  0
VERTEX
  8
0
 62
9
  6
CONTINUOUS
 10
74.1795439116
 20
141.0210697762
  0
VERTEX
  8
0
 62
9
  6
CONTINUOUS
 10
74.1343455941
 20
140.9205748573
  0
VERTEX
  8
0
 62
9
  6
CONTINUOUS
 10
74.1060779955
 20
140.8056463444
  0
VERTEX
  8
0
 62
9
  6
CONTINUOUS
 10
74.0964604698
 20
140.6832746724
  0
SEQEND
  0
LINE
  8
DEFAULT_2
 62
8
  6
HIDDEN
 10
75.2560321628
 20
141.3515647831
 11
75.1579428005
 21
141.2861781607
  0
LINE
  8
DEFAULT_2
 62
8
  6
HIDDEN
 10
74.2279052472
 20
141.1478720121
 11
74.1257997381
 21
141.0927718172
  0
POLYLINE
  8
DEFAULT_2
 62
8
  6
HIDDEN
 66
1
 70
0
  0
VERTEX
  8
DEFAULT_2
 62
8
  6
HIDDEN
 10
71.1994936427
 20
141.3868691285
  0
VERTEX
  8
DEFAULT_2
 62
8
  6
HIDDEN
 10
71.0789254526
 20
141.3369188509
  0
VERTEX
  8
DEFAULT_2
 62
8
  6
HIDDEN
 10
70.9753912658
 20
141.2574594919
  0
VERTEX
  8
DEFAULT_2
 62
8
  6
HIDDEN
 10
70.8959467338
 20
141.153906103
  0
VERTEX
  8
DEFAULT_2
 62
8
  6
HIDDEN
 10
70.8460058336
 20
141.0333156816
  0
SEQEND
  0
LINE
  8
0
 62
7
  6
CONTINUOUS
 10
74.2109375
 20
127.90390625
 11
100.2109375
 21
127.90390625
  0
LINE
  8
DEFAULT_2
 62
8
  6
HIDDEN
 10
75.2576919322
 20
134.455131698
 11
75.1579429495
 21
134.5216342808
  0
LINE
  8
DEFAULT_2
 62
8
  6
HIDDEN
 10
74.0868677621
 20
134.7452846403
 11
74.1753567463
 21
134.6844606656
  0
LINE
  8
DEFAULT_2
 62
8
  6
HIDDEN
 10
75.2560946413
 20
141.3515963181
 11
75.2591449668
 21
141.3532462222
  0
LINE
  8
DEFAULT_2
 62
8
  6
HIDDEN
 10
75.2560320892
 20
141.3515647805
 11
75.2593276768
 21
141.3533183765
  0
POLYLINE
  8
DEFAULT_2
 62
8
  6
HIDDEN
 66
1
 70
0
  0
VERTEX
  8
DEFAULT_2
 62
8
  6
HIDDEN
 10
74.466937745
 20
141.1913910752
  0
VERTEX
  8
DEFAULT_2
 62
8
  6
HIDDEN
 10
74.3724075695
 20
141.1413394658
  0
VERTEX
  8
DEFAULT_2
 62
8
  6
HIDDEN
 10
74.2931494235
 20
141.0621325334
  0
VERTEX
  8
DEFAULT_2
 62
8
  6
HIDDEN
 10
74.234530527
 20
140.9591340302
  0
VERTEX
  8
DEFAULT_2
 62
8
  6
HIDDEN
 10
74.2005204472
 20
140.8393188309
  0
VERTEX
  8
DEFAULT_2
 62
8
  6
HIDDEN
 10
74.1934222858
 20
140.7108006069
  0
SEQEND
  0
POLYLINE
  8
DEFAULT_2
 62
8
  6
HIDDEN
 66
1
 70
0
  0
VERTEX
  8
DEFAULT_2
 62
8
  6
HIDDEN
 10
74.295992855
 20
141.1683816293
  0
VERTEX
  8
DEFAULT_2
 62
8
  6
HIDDEN
 10
74.2126896038
 20
141.1311515437
  0
VERTEX
  8
DEFAULT_2
 62
8
  6
HIDDEN
 10
74.13936113
 20
141.0715265603
  0
VERTEX
  8
DEFAULT_2
 62
8
  6
HIDDEN
 10
74.0797392416
 20
140.9925507652
  0
VERTEX
  8
DEFAULT_2
 62
8
  6
HIDDEN
 10
74.0366995319
 20
140.8980823002
  0
VERTEX
  8
DEFAULT_2
 62
8
  6
HIDDEN
 10
74.0125168183
 20
140.7930864535
  0
VERTEX
  8
DEFAULT_2
 62
8
  6
HIDDEN
 10
74.0081920746
 20
140.6832746724
  0
SEQEND
  0
LINE
  8
DEFAULT_2
 62
8
  6
HIDDEN
 10
74.8916124745
 20
140.8647860355
 11
74.9843471935
 21
140.90390625
  0
LINE
  8
0
 62
9
  6
CONTINUOUS
 10
75.4523459395
 20
141.4033373307
 11
75.3523790198
 21
141.3645588654
  0
LINE
  8
DEFAULT_2
 62
8
  6
HIDDEN
 10
75.3507201415
 20
141.3640337238
 11
75.3523790198
 21
141.3645588654
  0
LINE
  8
DEFAULT_2
 62
8
  6
HIDDEN
 10
75.2576919054
 20
141.3526807748
 11
75.2560947153
 21
141.3515963207
  0
LINE
  8
0
 62
9
  6
CONTINUOUS
 10
72.2109375
 20
129.90390625
 11
102.2109375
 21
129.90390625
  0
LINE
  8
DEFAULT_2
 62
8
  6
HIDDEN
 10
75.3523790246
 20
134.4432536341
 11
75.3507201368
 21
134.4437787767
  0
POLYLINE
  8
DEFAULT_2
 62
8
  6
HIDDEN
 66
1
 70
0
  0
VERTEX
  8
DEFAULT_2
 62
8
  6
HIDDEN
 10
74.1753567463
 20
134.6844606656
  0
VERTEX
  8
DEFAULT_2
 62
8
  6
HIDDEN
 10
74.2748261191
 20
134.6439229763
  0
VERTEX
  8
DEFAULT_2
 62
8
  6
HIDDEN
 10
74.33958379
 20
134.6299127831
  0
SEQEND
  0
LINE
  8
DEFAULT_2
 62
8
  6
HIDDEN
 10
74.9843471934
 20
134.90390625
 11
74.8916124743
 21
134.9430264646
  0
POLYLINE
  8
DEFAULT_2
 62
8
  6
HIDDEN
 66
1
 70
0
  0
VERTEX
  8
DEFAULT_2
 62
8
  6
HIDDEN
 10
74.2961195055
 20
134.6393942861
  0
VERTEX
  8
DEFAULT_2
 62
8
  6
HIDDEN
 10
74.212910062
 20
134.6765238252
  0
VERTEX
  8
DEFAULT_2
 62
8
  6
HIDDEN
 10
74.1396566033
 20
134.7359788523
  0
VERTEX
  8
DEFAULT_2
 62
8
  6
HIDDEN
 10
74.0800095046
 20
134.8147965971
  0
VERTEX
  8
DEFAULT_2
 62
8
  6
HIDDEN
 10
74.0369411074
 20
134.9090494044
  0
VERTEX
  8
DEFAULT_2
 62
8
  6
HIDDEN
 10
74.0125976012
 20
135.0140404568
  0
VERTEX
  8
DEFAULT_2
 62
8
  6
HIDDEN
 10
74.0081920746
 20
135.1245378276
  0
SEQEND
  0
LINE
  8
DEFAULT_2
 62
8
  6
HIDDEN
 10
75.2576723138
 20
141.3526742518
 11
75.2558673459
 21
141.3520612292
  0
LINE
  8
0
 62
9
  6
CONTINUOUS
 10
74.3851384309
 20
141.1813720215
 11
74.3088735149
 21
141.155558441
  0
POLYLINE
  8
0
 62
7
  6
CONTINUOUS
 66
1
 70
0
  0
VERTEX
  8
0
 62
7
  6
CONTINUOUS
 10
75.2576919054
 20
141.3526807748
  0
VERTEX
  8
0
 62
7
  6
CONTINUOUS
 10
75.2183976229
 20
141.3395977467
  0
VERTEX
  8
0
 62
7
  6
CONTINUOUS
 10
75.1420316612
 20
141.3188523903
  0
VERTEX
  8
0
 62
7
  6
CONTINUOUS
 10
75.0315574512
 20
141.2935817927
  0
VERTEX
  8
0
 62
7
  6
CONTINUOUS
 10
74.8876552181
 20
141.2651527889
  0
VERTEX
  8
0
 62
7
  6
CONTINUOUS
 10
74.7098197712
 20
141.2342571345
  0
SEQEND
  0
LINE
  8
DEFAULT_2
 62
8
  6
HIDDEN
 10
74.754125594
 20
140.823875936
 11
74.8931019754
 21
140.8653042425
  0
POLYLINE
  8
0
 62
9
  6
CONTINUOUS
 66
1
 70
0
  0
VERTEX
  8
0
 62
9
  6
CONTINUOUS
 10
99.0706854371
 20
134.4436303855
  0
VERTEX
  8
0
 62
9
  6
CONTINUOUS
 10
99.2228888848
 20
134.4847333838
  0
VERTEX
  8
0
 62
9
  6
CONTINUOUS
 10
99.4155117624
 20
134.5257132152
  0
VERTEX
  8
0
 62
9
  6
CONTINUOUS
 10
99.6320976172
 20
134.5644580154
  0
VERTEX
  8
0
 62
9
  6
CONTINUOUS
 10
99.8515364649
 20
134.598914544
  0
SEQEND
  0
LINE
  8
DEFAULT_2
 62
8
  6
HIDDEN
 10
100.0826711308
 20
134.6299690915
 11
100.1939697528
 21
134.6599404879
  0
LINE
  8
DEFAULT_2
 62
8
  6
HIDDEN
 10
99.8974372565
 20
134.6024426126
 11
99.954937255
 21
134.6164214248
  0
LINE
  8
DEFAULT_2
 62
8
  6
HIDDEN
 10
104.54208206
 20
134.4052840208
 11
104.608542638
 21
134.4213733206
  0
POLYLINE
  8
0
 62
9
  6
CONTINUOUS
 66
1
 70
0
  0
VERTEX
  8
0
 62
9
  6
CONTINUOUS
 10
106.8197522958
 20
134.6264404785
  0
VERTEX
  8
0
 62
9
  6
CONTINUOUS
 10
106.936350459
 20
134.652254059
  0
VERTEX
  8
0
 62
9
  6
CONTINUOUS
 10
107.0432935869
 20
134.7067939219
  0
VERTEX
  8
0
 62
9
  6
CONTINUOUS
 10
107.1340769494
 20
134.7867427238
  0
VERTEX
  8
0
 62
9
  6
CONTINUOUS
 10
107.203178721
 20
134.8872376427
  0
VERTEX
  8
0
 62
9
  6
CONTINUOUS
 10
107.2463958417
 20
135.0021661556
  0
VERTEX
  8
0
 62
9
  6
CONTINUOUS
 10
107.2610996647
 20
135.1245378276
  0
SEQEND
  0
LINE
  8
DEFAULT_2
 62
8
  6
HIDDEN
 10
100.0826711308
 20
134.6299690915
 11
100.1257554945
 21
134.6393942861
  0
POLYLINE
  8
0
 62
7
  6
CONTINUOUS
 66
1
 70
0
  0
VERTEX
  8
0
 62
7
  6
CONTINUOUS
 10
106.8233435413
 20
134.6266334358
  0
VERTEX
  8
0
 62
7
  6
CONTINUOUS
 10
106.9364404546
 20
134.6504343915
  0
VERTEX
  8
0
 62
7
  6
CONTINUOUS
 10
107.0319724029
 20
134.6940710345
  0
VERTEX
  8
0
 62
7
  6
CONTINUOUS
 10
107.1169784623
 20
134.7573436405
  0
VERTEX
  8
0
 62
7
  6
CONTINUOUS
 10
107.1890471792
 20
134.8404207604
  0
VERTEX
  8
0
 62
7
  6
CONTINUOUS
 10
107.2413195595
 20
134.9375167232
  0
VERTEX
  8
0
 62
7
  6
CONTINUOUS
 10
107.2718843062
 20
135.0490620917
  0
VERTEX
  8
0
 62
7
  6
CONTINUOUS
 10
107.277613711
 20
135.1245378276
  0
SEQEND
  0
POLYLINE
  8
0
 62
7
  6
CONTINUOUS
 66
1
 70
0
  0
VERTEX
  8
0
 62
7
  6
CONTINUOUS
 10
67.5985314587
 20
134.6266334358
  0
VERTEX
  8
0
 62
7
  6
CONTINUOUS
 10
67.4854345454
 20
134.6504343915
  0
VERTEX
  8
0
 62
7
  6
CONTINUOUS
 10
67.3899025971
 20
134.6940710345
  0
VERTEX
  8
0
 62
7
  6
CONTINUOUS
 10
67.3048965377
 20
134.7573436405
  0
VERTEX
  8
0
 62
7
  6
CONTINUOUS
 10
67.2328278208
 20
134.8404207604
  0
VERTEX
  8
0
 62
7
  6
CONTINUOUS
 10
67.1805554405
 20
134.9375167232
  0
VERTEX
  8
0
 62
7
  6
CONTINUOUS
 10
67.1499906938
 20
135.0490620917
  0
VERTEX
  8
0
 62
7
  6
CONTINUOUS
 10
67.144261289
 20
135.1245378276
  0
SEQEND
  0
LINE
  8
DEFAULT_2
 62
8
  6
HIDDEN
 10
74.3394249805
 20
134.6299363082
 11
74.295992855
 21
134.6394308707
  0
LINE
  8
0
 62
9
  6
CONTINUOUS
 10
67.485524541
 20
134.652254059
 11
67.6021227042
 21
134.6264404785
  0
POLYLINE
  8
0
 62
9
  6
CONTINUOUS
 66
1
 70
0
  0
VERTEX
  8
0
 62
9
  6
CONTINUOUS
 10
68.3090077505
 20
134.6264404785
  0
VERTEX
  8
0
 62
9
  6
CONTINUOUS
 10
68.1966128754
 20
134.652254059
  0
VERTEX
  8
0
 62
9
  6
CONTINUOUS
 10
68.0935249778
 20
134.7067939219
  0
VERTEX
  8
0
 62
9
  6
CONTINUOUS
 10
68.0060142966
 20
134.7867427238
  0
VERTEX
  8
0
 62
9
  6
CONTINUOUS
 10
67.939403599
 20
134.8872376427
  0
VERTEX
  8
0
 62
9
  6
CONTINUOUS
 10
67.8977444275
 20
135.0021661556
  0
VERTEX
  8
0
 62
9
  6
CONTINUOUS
 10
67.8835706678
 20
135.1245378276
  0
SEQEND
  0
LINE
  8
DEFAULT_2
 62
8
  6
HIDDEN
 10
69.8797929934
 20
134.4052840314
 11
69.8133321876
 21
134.4213733532
  0
POLYLINE
  8
DEFAULT_2
 62
8
  6
HIDDEN
 66
1
 70
0
  0
VERTEX
  8
DEFAULT_2
 62
8
  6
HIDDEN
 10
74.5244377435
 20
134.6024426126
  0
VERTEX
  8
DEFAULT_2
 62
8
  6
HIDDEN
 10
74.466937745
 20
134.6164214248
  0
VERTEX
  8
DEFAULT_2
 62
8
  6
HIDDEN
 10
74.3724075695
 20
134.6664730342
  0
SEQEND
  0
POLYLINE
  8
0
 62
7
  6
CONTINUOUS
 66
1
 70
0
  0
VERTEX
  8
0
 62
7
  6
CONTINUOUS
 10
74.3392038692
 20
134.6299690915
  0
VERTEX
  8
0
 62
7
  6
CONTINUOUS
 10
74.2279052472
 20
134.6599404879
  0
VERTEX
  8
0
 62
7
  6
CONTINUOUS
 10
74.1257997381
 20
134.7150406828
  0
VERTEX
  8
0
 62
7
  6
CONTINUOUS
 10
74.0376565038
 20
134.7938688888
  0
VERTEX
  8
0
 62
7
  6
CONTINUOUS
 10
73.969202046
 20
134.8936502845
  0
VERTEX
  8
0
 62
7
  6
CONTINUOUS
 10
73.9260677323
 20
135.0096967222
  0
VERTEX
  8
0
 62
7
  6
CONTINUOUS
 10
73.9127005955
 20
135.1245378276
  0
SEQEND
  0
LINE
  8
DEFAULT_2
 62
8
  6
HIDDEN
 10
75.2014997775
 20
134.4841367802
 11
75.198012858
 21
134.4849638599
  0
POLYLINE
  8
0
 62
9
  6
CONTINUOUS
 66
1
 70
0
  0
VERTEX
  8
0
 62
9
  6
CONTINUOUS
 10
75.2014997775
 20
134.4841367802
  0
VERTEX
  8
0
 62
9
  6
CONTINUOUS
 10
75.3523790246
 20
134.4432536341
  0
VERTEX
  8
0
 62
9
  6
CONTINUOUS
 10
75.4523459397
 20
134.4044751689
  0
SEQEND
  0
LINE
  8
DEFAULT_2
 62
8
  6
HIDDEN
 10
74.7541255938
 20
134.9839365642
 11
74.8931019755
 21
134.9425082574
  0
LINE
  8
DEFAULT_2
 62
8
  6
HIDDEN
 10
75.2313627817
 20
134.4641963158
 11
75.2318608799
 21
134.464041934
  0
LINE
  8
0
 62
9
  6
CONTINUOUS
 10
74.3088735149
 20
134.652254059
 11
74.3851384309
 21
134.6264404785
  0
POLYLINE
  8
0
 62
7
  6
CONTINUOUS
 66
1
 70
0
  0
VERTEX
  8
0
 62
7
  6
CONTINUOUS
 10
75.2311981231
 20
134.4642529376
  0
VERTEX
  8
0
 62
7
  6
CONTINUOUS
 10
75.2574278945
 20
134.4552331962
  0
VERTEX
  8
0
 62
7
  6
CONTINUOUS
 10
75.2560945477
 20
134.4562162098
  0
SEQEND
  0
POLYLINE
  8
0
 62
9
  6
CONTINUOUS
 66
1
 70
0
  0
VERTEX
  8
0
 62
9
  6
CONTINUOUS
 10
76.2357875081
 20
134.6264404785
  0
VERTEX
  8
0
 62
9
  6
CONTINUOUS
 10
76.1705269432
 20
134.652254059
  0
VERTEX
  8
0
 62
9
  6
CONTINUOUS
 10
76.110670349
 20
134.7067939219
  0
VERTEX
  8
0
 62
9
  6
CONTINUOUS
 10
76.059858455
 20
134.7867427238
  0
VERTEX
  8
0
 62
9
  6
CONTINUOUS
 10
76.0211818539
 20
134.8872376427
  0
VERTEX
  8
0
 62
9
  6
CONTINUOUS
 10
75.9969930191
 20
135.0021661556
  0
VERTEX
  8
0
 62
9
  6
CONTINUOUS
 10
75.9887632171
 20
135.1245378276
  0
SEQEND
  0
LINE
  8
0
 62
9
  6
CONTINUOUS
 10
81.8487412189
 20
134.90390625
 11
81.8487412189
 21
140.90390625
  0
LINE
  8
0
 62
9
  6
CONTINUOUS
 10
82.448522254
 20
134.90390625
 11
82.448522254
 21
140.90390625
  0
POLYLINE
  8
0
 62
9
  6
CONTINUOUS
 66
1
 70
0
  0
VERTEX
  8
0
 62
9
  6
CONTINUOUS
 10
82.5938507632
 20
141.40390625
  0
VERTEX
  8
0
 62
9
  6
CONTINUOUS
 10
82.5562369418
 20
141.3868691304
  0
VERTEX
  8
0
 62
9
  6
CONTINUOUS
 10
82.5211864607
 20
141.3369188567
  0
VERTEX
  8
0
 62
9
  6
CONTINUOUS
 10
82.4910879481
 20
141.2574595004
  0
VERTEX
  8
0
 62
9
  6
CONTINUOUS
 10
82.4679925591
 20
141.1539061114
  0
VERTEX
  8
0
 62
9
  6
CONTINUOUS
 10
82.4534741962
 20
141.0333156867
  0
VERTEX
  8
0
 62
9
  6
CONTINUOUS
 10
82.448522254
 20
140.90390625
  0
SEQEND
  0
POLYLINE
  8
0
 62
9
  6
CONTINUOUS
 66
1
 70
0
  0
VERTEX
  8
0
 62
9
  6
CONTINUOUS
 10
82.0123724756
 20
141.40390625
  0
VERTEX
  8
0
 62
9
  6
CONTINUOUS
 10
81.9700215901
 20
141.3868691632
  0
VERTEX
  8
0
 62
9
  6
CONTINUOUS
 10
81.9305568474
 20
141.3369189522
  0
VERTEX
  8
0
 62
9
  6
CONTINUOUS
 10
81.8966677045
 20
141.257459641
  0
VERTEX
  8
0
 62
9
  6
CONTINUOUS
 10
81.8706636505
 20
141.1539062504
  0
VERTEX
  8
0
 62
9
  6
CONTINUOUS
 10
81.8543168188
 20
141.0333157728
  0
VERTEX
  8
0
 62
9
  6
CONTINUOUS
 10
81.8487412189
 20
140.90390625
  0
SEQEND
  0
LINE
  8
DEFAULT_2
 62
8
  6
HIDDEN
 10
99.6654724783
 20
134.9833395381
 11
99.8393386499
 21
135.0243718795
  0
LINE
  8
DEFAULT_2
 62
8
  6
HIDDEN
 10
99.2228888848
 20
134.4847333838
 11
99.2213144217
 21
134.4843599568
  0
LINE
  8
DEFAULT_2
 62
8
  6
HIDDEN
 10
99.8375596097
 20
135.02398945
 11
100.0326760823
 21
135.0628017925
  0
LINE
  8
DEFAULT_2
 62
8
  6
HIDDEN
 10
99.4155117624
 20
134.5257132152
 11
99.4135250867
 21
134.5253284115
  0
LINE
  8
DEFAULT_2
 62
8
  6
HIDDEN
 10
100.2284527142
 20
135.0970118931
 11
100.031295204
 21
135.0625459893
  0
LINE
  8
DEFAULT_2
 62
8
  6
HIDDEN
 10
99.712054323
 20
134.5735552212
 11
99.7132524115
 21
134.5737419147
  0
POLYLINE
  8
0
 62
9
  6
CONTINUOUS
 66
1
 70
0
  0
VERTEX
  8
0
 62
9
  6
CONTINUOUS
 10
99.8801057936
 20
134.40390625
  0
VERTEX
  8
0
 62
9
  6
CONTINUOUS
 10
99.9833172633
 20
134.420943404
  0
VERTEX
  8
0
 62
9
  6
CONTINUOUS
 10
100.0794949282
 20
134.4708937454
  0
VERTEX
  8
0
 62
9
  6
CONTINUOUS
 10
100.1620844598
 20
134.5503531519
  0
VERTEX
  8
0
 62
9
  6
CONTINUOUS
 10
100.2254575668
 20
134.6539065403
  0
VERTEX
  8
0
 62
9
  6
CONTINUOUS
 10
100.2338451291
 20
134.6792958679
  0
SEQEND
  0
POLYLINE
  8
0
 62
9
  6
CONTINUOUS
 66
1
 70
0
  0
VERTEX
  8
0
 62
9
  6
CONTINUOUS
 10
100.2394791391
 20
134.40390625
  0
VERTEX
  8
0
 62
9
  6
CONTINUOUS
 10
100.3456180972
 20
134.4209433368
  0
VERTEX
  8
0
 62
9
  6
CONTINUOUS
 10
100.4445238609
 20
134.4708935479
  0
VERTEX
  8
0
 62
9
  6
CONTINUOUS
 10
100.5294561657
 20
134.5503528591
  0
VERTEX
  8
0
 62
9
  6
CONTINUOUS
 10
100.5946270154
 20
134.6539062497
  0
VERTEX
  8
0
 62
9
  6
CONTINUOUS
 10
100.6355951242
 20
134.7744967273
  0
VERTEX
  8
0
 62
9
  6
CONTINUOUS
 10
100.6495685832
 20
134.90390625
  0
SEQEND
  0
POLYLINE
  8
0
 62
7
  6
CONTINUOUS
 66
1
 70
0
  0
VERTEX
  8
0
 62
7
  6
CONTINUOUS
 10
98.9693331255
 20
134.4044674339
  0
VERTEX
  8
0
 62
7
  6
CONTINUOUS
 10
99.0753558602
 20
134.4213733519
  0
VERTEX
  8
0
 62
7
  6
CONTINUOUS
 10
99.1641830483
 20
134.4551317201
  0
SEQEND
  0
LINE
  8
DEFAULT_2
 62
8
  6
HIDDEN
 10
99.6320976172
 20
134.5644580154
 11
99.6305606403
 21
134.5642020021
  0
LINE
  8
0
 62
7
  6
CONTINUOUS
 10
99.712054323
 20
134.5735552212
 11
99.8974225158
 21
134.6024404227
  0
LINE
  8
0
 62
7
  6
CONTINUOUS
 10
99.8974372565
 20
134.6024426126
 11
100.0826728218
 21
134.6299693428
  0
LINE
  8
0
 62
9
  6
CONTINUOUS
 10
99.8515364649
 20
134.598914544
 11
100.0367362822
 21
134.6264404785
  0
LINE
  8
0
 62
9
  6
CONTINUOUS
 10
98.1860877865
 20
134.6264404785
 11
98.0008245752
 21
134.598914544
  0
LINE
  8
DEFAULT_2
 62
8
  6
HIDDEN
 10
100.4136829254
 20
135.1245378267
 11
100.2284527142
 21
135.0970118931
  0
POLYLINE
  8
0
 62
9
  6
CONTINUOUS
 66
1
 70
0
  0
VERTEX
  8
0
 62
9
  6
CONTINUOUS
 10
98.0008245752
 20
134.598914544
  0
VERTEX
  8
0
 62
9
  6
CONTINUOUS
 10
97.7541341623
 20
134.5642915881
  0
VERTEX
  8
0
 62
9
  6
CONTINUOUS
 10
97.4441153759
 20
134.5254618775
  0
VERTEX
  8
0
 62
9
  6
CONTINUOUS
 10
97.0760711636
 20
134.4844907301
  0
VERTEX
  8
0
 62
9
  6
CONTINUOUS
 10
96.6603349131
 20
134.4434792635
  0
SEQEND
  0
LINE
  8
DEFAULT_2
 62
8
  6
HIDDEN
 10
103.0929956714
 20
134.40390625
 11
103.2223814386
 21
134.4209433933
  0
LINE
  8
DEFAULT_2
 62
8
  6
HIDDEN
 10
97.7541341623
 20
134.5642915881
 11
97.7560966016
 21
134.5645525368
  0
LINE
  8
DEFAULT_2
 62
8
  6
HIDDEN
 10
104.8588261868
 20
134.90390625
 11
105.1984161459
 21
134.9429100781
  0
LINE
  8
DEFAULT_2
 62
8
  6
HIDDEN
 10
105.196343724
 20
134.9426753362
 11
105.5642548153
 21
134.9837558481
  0
LINE
  8
DEFAULT_2
 62
8
  6
HIDDEN
 10
97.4441153759
 20
134.5254618775
 11
97.4474339564
 21
134.5258545887
  0
LINE
  8
DEFAULT_2
 62
8
  6
HIDDEN
 10
105.5608657329
 20
134.9833827161
 11
105.9387146899
 21
135.0244185183
  0
LINE
  8
0
 62
9
  6
CONTINUOUS
 10
104.5326786824
 20
134.4044750567
 11
104.542080999
 21
134.4052840183
  0
LINE
  8
DEFAULT_2
 62
8
  6
HIDDEN
 10
106.6324134388
 20
135.0970118931
 11
105.9351223345
 21
135.024033622
  0
POLYLINE
  8
0
 62
7
  6
CONTINUOUS
 66
1
 70
0
  0
VERTEX
  8
0
 62
7
  6
CONTINUOUS
 10
104.542080999
 20
134.4052840183
  0
VERTEX
  8
0
 62
7
  6
CONTINUOUS
 10
104.956718849
 20
134.4480343991
  0
VERTEX
  8
0
 62
7
  6
CONTINUOUS
 10
105.4559899942
 20
134.4978432192
  0
VERTEX
  8
0
 62
7
  6
CONTINUOUS
 10
105.9961284046
 20
134.5499043773
  0
SEQEND
  0
POLYLINE
  8
0
 62
9
  6
CONTINUOUS
 66
1
 70
0
  0
VERTEX
  8
0
 62
9
  6
CONTINUOUS
 10
105.6180304665
 20
135.0970118931
  0
VERTEX
  8
0
 62
9
  6
CONTINUOUS
 10
105.2763853352
 20
135.0626051807
  0
VERTEX
  8
0
 62
9
  6
CONTINUOUS
 10
104.8809350411
 20
135.024077403
  0
VERTEX
  8
0
 62
9
  6
CONTINUOUS
 10
104.4475121398
 20
134.9834255689
  0
VERTEX
  8
0
 62
9
  6
CONTINUOUS
 10
103.9939336517
 20
134.9427027326
  0
VERTEX
  8
0
 62
9
  6
CONTINUOUS
 10
103.5392363203
 20
134.90390625
  0
SEQEND
  0
LINE
  8
DEFAULT_2
 62
8
  6
HIDDEN
 10
105.2763853352
 20
135.0626051807
 11
105.2789962965
 21
135.0628641355
  0
LINE
  8
DEFAULT_2
 62
8
  6
HIDDEN
 10
104.8809350411
 20
135.024077403
 11
104.8849835673
 21
135.0244648845
  0
LINE
  8
0
 62
7
  6
CONTINUOUS
 10
105.9961284046
 20
134.5499043773
 11
106.8233443011
 21
134.6266335056
  0
LINE
  8
DEFAULT_2
 62
8
  6
HIDDEN
 10
106.9321222162
 20
135.1245378267
 11
106.6324134388
 21
135.0970118931
  0
LINE
  8
0
 62
9
  6
CONTINUOUS
 10
105.9177392439
 20
135.1245378267
 11
105.6180304665
 21
135.0970118931
  0
POLYLINE
  8
0
 62
9
  6
CONTINUOUS
 66
1
 70
0
  0
VERTEX
  8
0
 62
9
  6
CONTINUOUS
 10
106.1128673764
 20
134.6264404785
  0
VERTEX
  8
0
 62
9
  6
CONTINUOUS
 10
105.4298838239
 20
134.5642620444
  0
VERTEX
  8
0
 62
9
  6
CONTINUOUS
 10
104.9856415769
 20
134.5254177975
  0
VERTEX
  8
0
 62
9
  6
CONTINUOUS
 10
104.4987078915
 20
134.4844474815
  0
VERTEX
  8
0
 62
9
  6
CONTINUOUS
 10
103.9894142853
 20
134.4434515645
  0
SEQEND
  0
LINE
  8
DEFAULT_2
 62
8
  6
HIDDEN
 10
104.4475121398
 20
134.9834255689
 11
104.451602613
 21
134.9838014154
  0
LINE
  8
DEFAULT_2
 62
8
  6
HIDDEN
 10
105.4298838239
 20
134.5642620444
 11
105.4327956977
 21
134.564521286
  0
LINE
  8
0
 62
7
  6
CONTINUOUS
 10
104.5325523769
 20
134.4044674326
 11
104.5420818165
 21
134.4052840182
  0
LINE
  8
DEFAULT_2
 62
8
  6
HIDDEN
 10
104.9856415769
 20
134.5254177975
 11
104.9901822211
 21
134.525807766
  0
LINE
  8
DEFAULT_2
 62
8
  6
HIDDEN
 10
104.4987078915
 20
134.4844474815
 11
104.5033048793
 21
134.4848263226
  0
LINE
  8
DEFAULT_2
 62
8
  6
HIDDEN
 10
103.9894142853
 20
134.4434515645
 11
103.9924504411
 21
134.443690088
  0
LINE
  8
0
 62
9
  6
CONTINUOUS
 10
103.9894142853
 20
134.4434515645
 11
103.4795145653
 21
134.4044747831
  0
LINE
  8
0
 62
7
  6
CONTINUOUS
 10
104.5326786824
 20
134.4044750567
 11
104.5236977754
 21
134.4039678415
  0
LINE
  8
0
 62
7
  6
CONTINUOUS
 10
69.8891952466
 20
134.4044751265
 11
69.8981772345
 21
134.4039678412
  0
POLYLINE
  8
0
 62
9
  6
CONTINUOUS
 66
1
 70
0
  0
VERTEX
  8
0
 62
9
  6
CONTINUOUS
 10
70.9423609692
 20
134.4044744676
  0
VERTEX
  8
0
 62
9
  6
CONTINUOUS
 10
70.427554657
 20
134.4438370166
  0
VERTEX
  8
0
 62
9
  6
CONTINUOUS
 10
69.9158101471
 20
134.4850538414
  0
VERTEX
  8
0
 62
9
  6
CONTINUOUS
 10
69.4290132986
 20
134.5260379604
  0
VERTEX
  8
0
 62
9
  6
CONTINUOUS
 10
68.9873598873
 20
134.5646743934
  0
SEQEND
  0
LINE
  8
DEFAULT_2
 62
8
  6
HIDDEN
 10
70.427554657
 20
134.4438370166
 11
70.4342548295
 21
134.4433106599
  0
LINE
  8
DEFAULT_2
 62
8
  6
HIDDEN
 10
69.9158101471
 20
134.4850538414
 11
69.9258482555
 21
134.4842266033
  0
LINE
  8
0
 62
7
  6
CONTINUOUS
 10
69.889322587
 20
134.4044674297
 11
69.8797929934
 21
134.4052840314
  0
LINE
  8
DEFAULT_2
 62
8
  6
HIDDEN
 10
69.4290132986
 20
134.5260379604
 11
69.438866149
 21
134.525191753
  0
LINE
  8
DEFAULT_2
 62
8
  6
HIDDEN
 10
70.4235956982
 20
134.9430836604
 11
70.4295211152
 21
134.9425642942
  0
LINE
  8
DEFAULT_2
 62
8
  6
HIDDEN
 10
68.9873598873
 20
134.5646743934
 11
68.9937008639
 21
134.5641098597
  0
LINE
  8
0
 62
9
  6
CONTINUOUS
 10
68.9873598873
 20
134.5646743934
 11
68.3090076163
 21
134.6264404785
  0
LINE
  8
DEFAULT_2
 62
8
  6
HIDDEN
 10
67.7894615612
 20
135.0970118931
 11
67.4897527838
 21
135.1245378267
  0
LINE
  8
0
 62
9
  6
CONTINUOUS
 10
68.8038445335
 20
135.0970118931
 11
68.5041357561
 21
135.1245378267
  0
POLYLINE
  8
0
 62
7
  6
CONTINUOUS
 66
1
 70
0
  0
VERTEX
  8
0
 62
7
  6
CONTINUOUS
 10
67.5985314596
 20
134.6266334357
  0
VERTEX
  8
0
 62
7
  6
CONTINUOUS
 10
68.4218871816
 20
134.5502700386
  0
VERTEX
  8
0
 62
7
  6
CONTINUOUS
 10
68.9622837088
 20
134.4981963815
  0
VERTEX
  8
0
 62
7
  6
CONTINUOUS
 10
69.4618567095
 20
134.4483693192
  0
VERTEX
  8
0
 62
7
  6
CONTINUOUS
 10
69.8797938113
 20
134.4052840315
  0
SEQEND
  0
LINE
  8
DEFAULT_2
 62
8
  6
HIDDEN
 10
69.9678402308
 20
134.9840249779
 11
69.9767263944
 21
134.9832084515
  0
LINE
  8
0
 62
9
  6
CONTINUOUS
 10
68.2769904961
 20
134.5640786926
 11
68.4218871816
 21
134.5502700386
  0
LINE
  8
DEFAULT_2
 62
8
  6
HIDDEN
 10
68.2769904961
 20
134.5640786926
 11
68.2709635036
 21
134.5646444519
  0
LINE
  8
DEFAULT_2
 62
8
  6
HIDDEN
 10
69.534526556
 20
135.0246913075
 11
69.5432644249
 21
135.023854979
  0
LINE
  8
DEFAULT_2
 62
8
  6
HIDDEN
 10
69.141357804
 20
135.0630150075
 11
69.1470025781
 21
135.0624551572
  0
LINE
  8
0
 62
9
  6
CONTINUOUS
 10
69.8798104059
 20
134.4054446626
 11
69.8891952466
 21
134.4044751265
  0
LINE
  8
DEFAULT_2
 62
8
  6
HIDDEN
 10
67.7894615612
 20
135.0970118931
 11
68.4888426771
 21
135.0238096307
  0
LINE
  8
DEFAULT_2
 62
8
  6
HIDDEN
 10
68.8629919427
 20
134.9831643664
 11
68.4810287353
 21
135.0246468724
  0
LINE
  8
DEFAULT_2
 62
8
  6
HIDDEN
 10
77.3400188814
 20
134.4850981945
 11
77.3478963499
 21
134.4842712768
  0
LINE
  8
DEFAULT_2
 62
8
  6
HIDDEN
 10
68.8555752124
 20
134.9839809664
 11
69.2267585301
 21
134.9425362985
  0
LINE
  8
DEFAULT_2
 62
8
  6
HIDDEN
 10
69.5630352031
 20
134.90390625
 11
69.2221778283
 21
134.943055168
  0
LINE
  8
DEFAULT_2
 62
8
  6
HIDDEN
 10
76.9725158518
 20
134.5260826242
 11
76.9796565502
 21
134.5252375974
  0
POLYLINE
  8
DEFAULT_2
 62
8
  6
HIDDEN
 66
1
 70
0
  0
VERTEX
  8
DEFAULT_2
 62
8
  6
HIDDEN
 10
71.3288793286
 20
134.40390625
  0
VERTEX
  8
DEFAULT_2
 62
8
  6
HIDDEN
 10
71.1994935611
 20
134.4209433934
  0
VERTEX
  8
DEFAULT_2
 62
8
  6
HIDDEN
 10
71.0789253423
 20
134.4708937128
  0
VERTEX
  8
DEFAULT_2
 62
8
  6
HIDDEN
 10
70.9753911717
 20
134.5503531022
  0
VERTEX
  8
DEFAULT_2
 62
8
  6
HIDDEN
 10
70.89594668
 20
134.6539064902
  0
VERTEX
  8
DEFAULT_2
 62
8
  6
HIDDEN
 10
70.8460058181
 20
134.7744968763
  0
VERTEX
  8
DEFAULT_2
 62
8
  6
HIDDEN
 10
70.8289719263
 20
134.90390625
  0
SEQEND
  0
LINE
  8
DEFAULT_2
 62
8
  6
HIDDEN
 10
76.664640506
 20
134.5647039439
 11
76.6688753908
 21
134.5641408171
  0
LINE
  8
DEFAULT_2
 62
8
  6
HIDDEN
 10
74.33958379
 20
134.6299127831
 11
74.3394249805
 21
134.6299363082
  0
LINE
  8
0
 62
7
  6
CONTINUOUS
 10
74.3392038789
 20
134.6299690901
 11
74.5244377427
 21
134.6024426128
  0
LINE
  8
0
 62
9
  6
CONTINUOUS
 10
76.4210504248
 20
134.598914544
 11
76.2357871966
 21
134.6264404785
  0
LINE
  8
DEFAULT_2
 62
8
  6
HIDDEN
 10
74.1934222858
 20
135.0970118931
 11
74.0081920746
 21
135.1245378267
  0
LINE
  8
0
 62
9
  6
CONTINUOUS
 10
74.3851387022
 20
134.6264404785
 11
74.5703385351
 21
134.598914544
  0
POLYLINE
  8
0
 62
7
  6
CONTINUOUS
 66
1
 70
0
  0
VERTEX
  8
0
 62
7
  6
CONTINUOUS
 10
74.524453336
 20
134.602440303
  0
VERTEX
  8
0
 62
7
  6
CONTINUOUS
 10
74.7076454598
 20
134.5739114424
  0
VERTEX
  8
0
 62
7
  6
CONTINUOUS
 10
74.8857906868
 20
134.5430045453
  0
VERTEX
  8
0
 62
7
  6
CONTINUOUS
 10
75.030020274
 20
134.5145567867
  0
VERTEX
  8
0
 62
7
  6
CONTINUOUS
 10
75.1408482827
 20
134.4892544781
  0
VERTEX
  8
0
 62
7
  6
CONTINUOUS
 10
75.2176196965
 20
134.4684492199
  0
VERTEX
  8
0
 62
7
  6
CONTINUOUS
 10
75.2311981231
 20
134.4642529376
  0
SEQEND
  0
POLYLINE
  8
0
 62
9
  6
CONTINUOUS
 66
1
 70
0
  0
VERTEX
  8
0
 62
9
  6
CONTINUOUS
 10
74.5703385351
 20
134.598914544
  0
VERTEX
  8
0
 62
9
  6
CONTINUOUS
 10
74.7922422226
 20
134.5640473405
  0
VERTEX
  8
0
 62
9
  6
CONTINUOUS
 10
75.0095308489
 20
134.5250993803
  0
VERTEX
  8
0
 62
9
  6
CONTINUOUS
 10
75.2014997775
 20
134.4841367802
  0
SEQEND
  0
POLYLINE
  8
0
 62
7
  6
CONTINUOUS
 66
1
 70
0
  0
VERTEX
  8
0
 62
7
  6
CONTINUOUS
 10
75.4525419179
 20
134.4044674309
  0
VERTEX
  8
0
 62
7
  6
CONTINUOUS
 10
75.346519123
 20
134.4213733594
  0
VERTEX
  8
0
 62
7
  6
CONTINUOUS
 10
75.2560946218
 20
134.4562162072
  0
SEQEND
  0
POLYLINE
  8
0
 62
9
  6
CONTINUOUS
 66
1
 70
0
  0
VERTEX
  8
0
 62
9
  6
CONTINUOUS
 10
74.1823958609
 20
134.40390625
  0
VERTEX
  8
0
 62
9
  6
CONTINUOUS
 10
74.0762567028
 20
134.4209434021
  0
VERTEX
  8
0
 62
9
  6
CONTINUOUS
 10
73.9773508689
 20
134.4708937382
  0
VERTEX
  8
0
 62
9
  6
CONTINUOUS
 10
73.8924186043
 20
134.5503531396
  0
VERTEX
  8
0
 62
9
  6
CONTINUOUS
 10
73.8272478533
 20
134.6539065272
  0
VERTEX
  8
0
 62
9
  6
CONTINUOUS
 10
73.7862798381
 20
134.7744968992
  0
VERTEX
  8
0
 62
9
  6
CONTINUOUS
 10
73.7723064169
 20
134.90390625
  0
SEQEND
  0
POLYLINE
  8
0
 62
9
  6
CONTINUOUS
 66
1
 70
0
  0
VERTEX
  8
0
 62
9
  6
CONTINUOUS
 10
74.5417692064
 20
134.40390625
  0
VERTEX
  8
0
 62
9
  6
CONTINUOUS
 10
74.4385579369
 20
134.4209433368
  0
VERTEX
  8
0
 62
9
  6
CONTINUOUS
 10
74.3423803447
 20
134.4708935479
  0
VERTEX
  8
0
 62
9
  6
CONTINUOUS
 10
74.2597907738
 20
134.5503528591
  0
VERTEX
  8
0
 62
9
  6
CONTINUOUS
 10
74.1964175671
 20
134.6539062497
  0
VERTEX
  8
0
 62
9
  6
CONTINUOUS
 10
74.1871603274
 20
134.6819280677
  0
SEQEND
  0
LINE
  8
DEFAULT_2
 62
8
  6
HIDDEN
 10
74.1934222858
 20
135.0970118931
 11
74.3914022076
 21
135.0623935298
  0
LINE
  8
DEFAULT_2
 62
8
  6
HIDDEN
 10
74.7922422226
 20
134.5640473405
 11
74.7888393561
 21
134.5646141449
  0
LINE
  8
DEFAULT_2
 62
8
  6
HIDDEN
 10
74.3883678437
 20
135.0629556371
 11
74.5853623511
 21
135.023764082
  0
LINE
  8
DEFAULT_2
 62
8
  6
HIDDEN
 10
75.0095308489
 20
134.5250993803
 11
75.0051538926
 21
134.5259471371
  0
LINE
  8
DEFAULT_2
 62
8
  6
HIDDEN
 10
74.5814646427
 20
135.0246019734
 11
74.7572372503
 21
134.9831201483
  0
POLYLINE
  8
0
 62
9
  6
CONTINUOUS
 66
1
 70
0
  0
VERTEX
  8
0
 62
9
  6
CONTINUOUS
 10
82.0123724756
 20
134.40390625
  0
VERTEX
  8
0
 62
9
  6
CONTINUOUS
 10
81.9700215079
 20
134.420943404
  0
VERTEX
  8
0
 62
9
  6
CONTINUOUS
 10
81.9305567354
 20
134.4708937454
  0
VERTEX
  8
0
 62
9
  6
CONTINUOUS
 10
81.8966676086
 20
134.5503531519
  0
VERTEX
  8
0
 62
9
  6
CONTINUOUS
 10
81.8706635956
 20
134.6539065403
  0
VERTEX
  8
0
 62
9
  6
CONTINUOUS
 10
81.854316803
 20
134.7744969072
  0
VERTEX
  8
0
 62
9
  6
CONTINUOUS
 10
81.8487412189
 20
134.90390625
  0
SEQEND
  0
POLYLINE
  8
0
 62
9
  6
CONTINUOUS
 66
1
 70
0
  0
VERTEX
  8
0
 62
9
  6
CONTINUOUS
 10
82.5938507632
 20
134.40390625
  0
VERTEX
  8
0
 62
9
  6
CONTINUOUS
 10
82.5562369773
 20
134.4209433368
  0
VERTEX
  8
0
 62
9
  6
CONTINUOUS
 10
82.5211865087
 20
134.4708935479
  0
VERTEX
  8
0
 62
9
  6
CONTINUOUS
 10
82.491087989
 20
134.5503528591
  0
VERTEX
  8
0
 62
9
  6
CONTINUOUS
 10
82.4679925824
 20
134.6539062497
  0
VERTEX
  8
0
 62
9
  6
CONTINUOUS
 10
82.4534742029
 20
134.7744967273
  0
VERTEX
  8
0
 62
9
  6
CONTINUOUS
 10
82.448522254
 20
134.90390625
  0
SEQEND
  0
POLYLINE
  8
0
 62
9
  6
CONTINUOUS
 66
1
 70
0
  0
VERTEX
  8
0
 62
9
  6
CONTINUOUS
 10
68.6087306263
 20
134.598914544
  0
VERTEX
  8
0
 62
9
  6
CONTINUOUS
 10
68.6500238228
 20
134.6164214248
  0
VERTEX
  8
0
 62
9
  6
CONTINUOUS
 10
68.6912704437
 20
134.6664730342
  0
VERTEX
  8
0
 62
9
  6
CONTINUOUS
 10
68.7296773413
 20
134.7456799666
  0
VERTEX
  8
0
 62
9
  6
CONTINUOUS
 10
68.7626436692
 20
134.8486784698
  0
VERTEX
  8
0
 62
9
  6
CONTINUOUS
 10
68.7879370065
 20
134.9684936691
  0
VERTEX
  8
0
 62
9
  6
CONTINUOUS
 10
68.8038445335
 20
135.0970118931
  0
SEQEND
  0
POLYLINE
  8
0
 62
9
  6
CONTINUOUS
 66
1
 70
0
  0
VERTEX
  8
0
 62
9
  6
CONTINUOUS
 10
68.3090077505
 20
134.6264404785
  0
VERTEX
  8
0
 62
9
  6
CONTINUOUS
 10
68.3443884026
 20
134.6394308707
  0
VERTEX
  8
0
 62
9
  6
CONTINUOUS
 10
68.3800382416
 20
134.6766609563
  0
VERTEX
  8
0
 62
9
  6
CONTINUOUS
 10
68.4141643659
 20
134.7362859397
  0
VERTEX
  8
0
 62
9
  6
CONTINUOUS
 10
68.4450610263
 20
134.8152617348
  0
VERTEX
  8
0
 62
9
  6
CONTINUOUS
 10
68.4711643455
 20
134.9097301998
  0
VERTEX
  8
0
 62
9
  6
CONTINUOUS
 10
68.4912289003
 20
135.0147260465
  0
VERTEX
  8
0
 62
9
  6
CONTINUOUS
 10
68.5041357561
 20
135.1245378276
  0
SEQEND
  0
LINE
  8
DEFAULT_2
 62
8
  6
HIDDEN
 10
85.8834497637
 20
134.4840917045
 11
85.8861658129
 21
134.4849183156
  0
LINE
  8
DEFAULT_2
 62
8
  6
HIDDEN
 10
85.7203555312
 20
134.443225078
 11
85.7228248688
 21
134.4437493637
  0
LINE
  8
0
 62
9
  6
CONTINUOUS
 10
85.7203555312
 20
134.443225078
 11
85.5068786452
 21
134.4044752069
  0
POLYLINE
  8
0
 62
7
  6
CONTINUOUS
 66
1
 70
0
  0
VERTEX
  8
0
 62
7
  6
CONTINUOUS
 10
88.9148059763
 20
134.4044674223
  0
VERTEX
  8
0
 62
7
  6
CONTINUOUS
 10
89.0103642065
 20
134.4213732946
  0
VERTEX
  8
0
 62
7
  6
CONTINUOUS
 10
89.1008021977
 20
134.4610559589
  0
VERTEX
  8
0
 62
7
  6
CONTINUOUS
 10
89.1818530251
 20
134.5216342211
  0
VERTEX
  8
0
 62
7
  6
CONTINUOUS
 10
89.2496948086
 20
134.6002401968
  0
VERTEX
  8
0
 62
7
  6
CONTINUOUS
 10
89.301131793
 20
134.6931567682
  0
VERTEX
  8
0
 62
7
  6
CONTINUOUS
 10
89.3337377867
 20
134.7959969845
  0
VERTEX
  8
0
 62
7
  6
CONTINUOUS
 10
89.3460559794
 20
134.90390625
  0
SEQEND
  0
POLYLINE
  8
0
 62
9
  6
CONTINUOUS
 66
1
 70
0
  0
VERTEX
  8
0
 62
9
  6
CONTINUOUS
 10
97.5727636151
 20
135.0970118931
  0
VERTEX
  8
0
 62
9
  6
CONTINUOUS
 10
97.3529676607
 20
135.0626343066
  0
VERTEX
  8
0
 62
9
  6
CONTINUOUS
 10
97.0773292896
 20
135.0241207758
  0
VERTEX
  8
0
 62
9
  6
CONTINUOUS
 10
96.7503463385
 20
134.9834680778
  0
VERTEX
  8
0
 62
9
  6
CONTINUOUS
 10
96.3810098108
 20
134.9427299436
  0
VERTEX
  8
0
 62
9
  6
CONTINUOUS
 10
95.9827918957
 20
134.90390625
  0
SEQEND
  0
LINE
  8
0
 62
9
  6
CONTINUOUS
 10
97.7579938263
 20
135.1245378267
 11
97.5727636151
 21
135.0970118931
  0
LINE
  8
DEFAULT_2
 62
8
  6
HIDDEN
 10
97.3529676607
 20
135.0626343066
 11
97.3547255791
 21
135.062894929
  0
POLYLINE
  8
0
 62
9
  6
CONTINUOUS
 66
1
 70
0
  0
VERTEX
  8
0
 62
9
  6
CONTINUOUS
 10
88.3547403512
 20
134.598914544
  0
VERTEX
  8
0
 62
9
  6
CONTINUOUS
 10
88.4836617403
 20
134.6164214248
  0
VERTEX
  8
0
 62
9
  6
CONTINUOUS
 10
88.6036837294
 20
134.6664730342
  0
VERTEX
  8
0
 62
9
  6
CONTINUOUS
 10
88.7066786435
 20
134.7456799666
  0
VERTEX
  8
0
 62
9
  6
CONTINUOUS
 10
88.7856718511
 20
134.8486784698
  0
VERTEX
  8
0
 62
9
  6
CONTINUOUS
 10
88.8353140731
 20
134.9684936691
  0
VERTEX
  8
0
 62
9
  6
CONTINUOUS
 10
88.8522436268
 20
135.0970118931
  0
SEQEND
  0
LINE
  8
DEFAULT_2
 62
8
  6
HIDDEN
 10
97.0773292896
 20
135.0241207758
 11
97.0802832846
 21
135.0245109409
  0
POLYLINE
  8
0
 62
9
  6
CONTINUOUS
 66
1
 70
0
  0
VERTEX
  8
0
 62
9
  6
CONTINUOUS
 10
88.354701531
 20
134.6264404785
  0
VERTEX
  8
0
 62
9
  6
CONTINUOUS
 10
88.4657135524
 20
134.6394308707
  0
VERTEX
  8
0
 62
9
  6
CONTINUOUS
 10
88.5710496158
 20
134.6766609563
  0
VERTEX
  8
0
 62
9
  6
CONTINUOUS
 10
88.6654691943
 20
134.7362859397
  0
VERTEX
  8
0
 62
9
  6
CONTINUOUS
 10
88.7441862689
 20
134.8152617348
  0
VERTEX
  8
0
 62
9
  6
CONTINUOUS
 10
88.8033587172
 20
134.9097301998
  0
VERTEX
  8
0
 62
9
  6
CONTINUOUS
 10
88.8399420076
 20
135.0147260465
  0
VERTEX
  8
0
 62
9
  6
CONTINUOUS
 10
88.8522436268
 20
135.1245378276
  0
SEQEND
  0
LINE
  8
DEFAULT_2
 62
8
  6
HIDDEN
 10
96.7503463385
 20
134.9834680778
 11
96.7535746952
 21
134.9838467494
  0
LINE
  8
DEFAULT_2
 62
8
  6
HIDDEN
 10
97.0760711636
 20
134.4844907301
 11
97.079707484
 21
134.4848724566
  0
LINE
  8
DEFAULT_2
 62
8
  6
HIDDEN
 10
96.3810098108
 20
134.9427299436
 11
96.3833077254
 21
134.9429685336
  0
LINE
  8
DEFAULT_2
 62
8
  6
HIDDEN
 10
96.6603349131
 20
134.4434792635
 11
96.6629264223
 21
134.443719792
  0
LINE
  8
0
 62
9
  6
CONTINUOUS
 10
96.6603349131
 20
134.4434792635
 11
96.2123126352
 21
134.4044747121
  0
LINE
  8
DEFAULT_2
 62
8
  6
HIDDEN
 10
103.9939336517
 20
134.9427027326
 11
103.9966334073
 21
134.9429393588
  0
LINE
  8
0
 62
9
  6
CONTINUOUS
 10
99.8515364649
 20
134.598914544
 11
99.8974225158
 21
134.6024404225
  0
LINE
  8
0
 62
9
  6
CONTINUOUS
 10
100.0367365691
 20
134.6264404785
 11
100.08229121
 21
134.6299127831
  0
LINE
  8
0
 62
9
  6
CONTINUOUS
 10
106.5200534122
 20
134.598914544
 11
106.5236324591
 21
134.5991072896
  0
LINE
  8
0
 62
9
  6
CONTINUOUS
 10
106.8197522958
 20
134.6264404785
 11
106.8231945318
 21
134.6266197767
  0
POLYLINE
  8
0
 62
7
  6
CONTINUOUS
 66
1
 70
0
  0
VERTEX
  8
0
 62
7
  6
CONTINUOUS
 10
88.9149725543
 20
134.4044742424
  0
VERTEX
  8
0
 62
7
  6
CONTINUOUS
 10
88.9074357123
 20
134.4041566188
  0
VERTEX
  8
0
 62
7
  6
CONTINUOUS
 10
88.8991800128
 20
134.4039678402
  0
VERTEX
  8
0
 62
7
  6
CONTINUOUS
 10
88.8902903202
 20
134.40390625
  0
SEQEND
  0
POLYLINE
  8
0
 62
7
  6
CONTINUOUS
 66
1
 70
0
  0
VERTEX
  8
0
 62
7
  6
CONTINUOUS
 10
98.9695285324
 20
134.4044751401
  0
VERTEX
  8
0
 62
7
  6
CONTINUOUS
 10
98.9616911826
 20
134.4041566251
  0
VERTEX
  8
0
 62
7
  6
CONTINUOUS
 10
98.9542031119
 20
134.4039678417
  0
VERTEX
  8
0
 62
7
  6
CONTINUOUS
 10
98.9470937783
 20
134.40390625
  0
SEQEND
  0
LINE
  8
0
 62
7
  6
CONTINUOUS
 10
104.5236977754
 20
134.4039678415
 11
104.5210844354
 21
134.40390625
  0
LINE
  8
0
 62
7
  6
CONTINUOUS
 10
104.52109954
 20
134.40390625
 11
98.9695285324
 21
134.40390625
  0
LINE
  8
DEFAULT_2
 62
8
  6
HIDDEN
 10
88.9148059763
 20
134.40390625
 11
88.8903503738
 21
134.40390625
  0
LINE
  8
0
 62
7
  6
CONTINUOUS
 10
88.8903503738
 20
134.40390625
 11
85.5315285122
 21
134.40390625
  0
LINE
  8
0
 62
7
  6
CONTINUOUS
 10
85.507068644
 20
134.40390625
 11
75.4747369328
 21
134.40390625
  0
LINE
  8
0
 62
7
  6
CONTINUOUS
 10
75.4523459397
 20
134.40390625
 11
69.9007762759
 21
134.40390625
  0
LINE
  8
DEFAULT_2
 62
8
  6
HIDDEN
 10
75.4523459397
 20
134.40390625
 11
75.4747369328
 21
134.40390625
  0
LINE
  8
DEFAULT_2
 62
8
  6
HIDDEN
 10
85.507068644
 20
134.40390625
 11
85.5315285122
 21
134.40390625
  0
LINE
  8
0
 62
7
  6
CONTINUOUS
 10
88.9148059763
 20
134.40390625
 11
98.9471413297
 21
134.40390625
  0
LINE
  8
DEFAULT_2
 62
8
  6
HIDDEN
 10
98.9471413297
 20
134.40390625
 11
98.9695285324
 21
134.40390625
  0
LINE
  8
0
 62
9
  6
CONTINUOUS
 10
67.6021227935
 20
134.6264404785
 11
68.3090076163
 21
134.6264404785
  0
LINE
  8
0
 62
9
  6
CONTINUOUS
 10
74.3851387022
 20
134.6264404785
 11
76.2357871966
 21
134.6264404785
  0
LINE
  8
0
 62
9
  6
CONTINUOUS
 10
86.0671738188
 20
134.6264404785
 11
88.3547011611
 21
134.6264404785
  0
LINE
  8
0
 62
9
  6
CONTINUOUS
 10
98.1860877865
 20
134.6264404785
 11
100.0367362822
 21
134.6264404785
  0
LINE
  8
0
 62
9
  6
CONTINUOUS
 10
106.1128673764
 20
134.6264404785
 11
106.8197522013
 21
134.6264404785
  0
LINE
  8
DEFAULT_2
 62
8
  6
HIDDEN
 10
104.8588261868
 20
134.90390625
 11
103.5920882372
 21
134.90390625
  0
LINE
  8
0
 62
9
  6
CONTINUOUS
 10
103.5392363203
 20
134.90390625
 11
100.4564185185
 21
134.90390625
  0
LINE
  8
DEFAULT_2
 62
8
  6
HIDDEN
 10
100.4564185185
 20
134.90390625
 11
99.3881274894
 21
134.90390625
  0
LINE
  8
0
 62
9
  6
CONTINUOUS
 10
95.9827918957
 20
134.90390625
 11
89.3460697738
 21
134.90390625
  0
LINE
  8
0
 62
9
  6
CONTINUOUS
 10
85.0757818264
 20
134.90390625
 11
78.4390648566
 21
134.90390625
  0
LINE
  8
0
 62
9
  6
CONTINUOUS
 10
73.9653899166
 20
134.90390625
 11
70.8826190434
 21
134.90390625
  0
LINE
  8
DEFAULT_2
 62
8
  6
HIDDEN
 10
70.8297867634
 20
134.90390625
 11
69.5630352031
 21
134.90390625
  0
LINE
  8
DEFAULT_2
 62
8
  6
HIDDEN
 10
73.9653899166
 20
134.90390625
 11
75.0337475106
 21
134.90390625
  0
LINE
  8
0
 62
7
  6
CONTINUOUS
 10
69.8981772345
 20
134.4039678412
 11
69.9007905646
 21
134.40390625
  0
POLYLINE
  8
0
 62
7
  6
CONTINUOUS
 66
1
 70
0
  0
VERTEX
  8
0
 62
7
  6
CONTINUOUS
 10
75.4523459397
 20
134.4044751689
  0
VERTEX
  8
0
 62
7
  6
CONTINUOUS
 10
75.4601838643
 20
134.4041566235
  0
VERTEX
  8
0
 62
7
  6
CONTINUOUS
 10
75.4676719107
 20
134.4039678413
  0
VERTEX
  8
0
 62
7
  6
CONTINUOUS
 10
75.4747812217
 20
134.40390625
  0
SEQEND
  0
POLYLINE
  8
0
 62
7
  6
CONTINUOUS
 66
1
 70
0
  0
VERTEX
  8
0
 62
7
  6
CONTINUOUS
 10
85.5068786452
 20
134.4044752069
  0
VERTEX
  8
0
 62
7
  6
CONTINUOUS
 10
85.5144391215
 20
134.4041566242
  0
VERTEX
  8
0
 62
7
  6
CONTINUOUS
 10
85.5226948963
 20
134.4039678415
  0
VERTEX
  8
0
 62
7
  6
CONTINUOUS
 10
85.5315846798
 20
134.40390625
  0
SEQEND
  0
LINE
  8
0
 62
9
  6
CONTINUOUS
 10
67.901821595
 20
134.5989146282
 11
67.8982425471
 21
134.5991073581
  0
LINE
  8
0
 62
9
  6
CONTINUOUS
 10
67.6021227042
 20
134.6264404785
 11
67.5985314594
 21
134.6266334357
  0
LINE
  8
0
 62
9
  6
CONTINUOUS
 10
74.5703385398
 20
134.5989146287
 11
74.524453336
 21
134.602440303
  0
LINE
  8
0
 62
9
  6
CONTINUOUS
 10
74.3851384309
 20
134.6264404785
 11
74.3392038786
 21
134.6299690901
  0
POLYLINE
  8
0
 62
9
  6
CONTINUOUS
 66
1
 70
0
  0
VERTEX
  8
0
 62
9
  6
CONTINUOUS
 10
70.8826190434
 20
134.90390625
  0
VERTEX
  8
0
 62
9
  6
CONTINUOUS
 10
70.4235956982
 20
134.9430836604
  0
VERTEX
  8
0
 62
9
  6
CONTINUOUS
 10
69.9678402308
 20
134.9840249779
  0
VERTEX
  8
0
 62
9
  6
CONTINUOUS
 10
69.534526556
 20
135.0246913075
  0
VERTEX
  8
0
 62
9
  6
CONTINUOUS
 10
69.141357804
 20
135.0630150075
  0
VERTEX
  8
0
 62
9
  6
CONTINUOUS
 10
68.8038445335
 20
135.0970118931
  0
SEQEND
  0
POLYLINE
  8
0
 62
9
  6
CONTINUOUS
 66
1
 70
0
  0
VERTEX
  8
0
 62
9
  6
CONTINUOUS
 10
78.2095576507
 20
134.4044743565
  0
VERTEX
  8
0
 62
9
  6
CONTINUOUS
 10
77.7573762876
 20
134.4438657866
  0
VERTEX
  8
0
 62
9
  6
CONTINUOUS
 10
77.3400188814
 20
134.4850981945
  0
VERTEX
  8
0
 62
9
  6
CONTINUOUS
 10
76.9725158518
 20
134.5260826242
  0
VERTEX
  8
0
 62
9
  6
CONTINUOUS
 10
76.664640506
 20
134.5647039439
  0
VERTEX
  8
0
 62
9
  6
CONTINUOUS
 10
76.4210504248
 20
134.598914544
  0
SEQEND
  0
POLYLINE
  8
0
 62
9
  6
CONTINUOUS
 66
1
 70
0
  0
VERTEX
  8
0
 62
9
  6
CONTINUOUS
 10
78.4390648566
 20
134.90390625
  0
VERTEX
  8
0
 62
9
  6
CONTINUOUS
 10
78.0371872499
 20
134.9431119134
  0
VERTEX
  8
0
 62
9
  6
CONTINUOUS
 10
77.6664110893
 20
134.9840685568
  0
VERTEX
  8
0
 62
9
  6
CONTINUOUS
 10
77.3398951795
 20
135.0247352385
  0
VERTEX
  8
0
 62
9
  6
CONTINUOUS
 10
77.0661437076
 20
135.063044128
  0
VERTEX
  8
0
 62
9
  6
CONTINUOUS
 10
76.8491113849
 20
135.0970118931
  0
SEQEND
  0
LINE
  8
DEFAULT_2
 62
8
  6
HIDDEN
 10
77.7573762876
 20
134.4438657866
 11
77.7630515733
 21
134.4433390815
  0
LINE
  8
DEFAULT_2
 62
8
  6
HIDDEN
 10
78.0371872499
 20
134.9431119134
 11
78.0421923079
 21
134.9425922209
  0
POLYLINE
  8
0
 62
9
  6
CONTINUOUS
 66
1
 70
0
  0
VERTEX
  8
0
 62
9
  6
CONTINUOUS
 10
86.067173469
 20
134.6264404785
  0
VERTEX
  8
0
 62
9
  6
CONTINUOUS
 10
85.9563179379
 20
134.6393942861
  0
VERTEX
  8
0
 62
9
  6
CONTINUOUS
 10
85.8511090556
 20
134.6765238252
  0
VERTEX
  8
0
 62
9
  6
CONTINUOUS
 10
85.7567896039
 20
134.7359788523
  0
VERTEX
  8
0
 62
9
  6
CONTINUOUS
 10
85.678059721
 20
134.8147965971
  0
VERTEX
  8
0
 62
9
  6
CONTINUOUS
 10
85.618842684
 20
134.9090494044
  0
VERTEX
  8
0
 62
9
  6
CONTINUOUS
 10
85.5820894034
 20
135.0140404568
  0
VERTEX
  8
0
 62
9
  6
CONTINUOUS
 10
85.5696313732
 20
135.1245378276
  0
SEQEND
  0
LINE
  8
DEFAULT_2
 62
8
  6
HIDDEN
 10
77.6664110893
 20
134.9840685568
 11
77.6733691603
 21
134.9832523669
  0
POLYLINE
  8
0
 62
9
  6
CONTINUOUS
 66
1
 70
0
  0
VERTEX
  8
0
 62
9
  6
CONTINUOUS
 10
86.0671346492
 20
134.5989146292
  0
VERTEX
  8
0
 62
9
  6
CONTINUOUS
 10
85.9382130795
 20
134.6164213774
  0
VERTEX
  8
0
 62
9
  6
CONTINUOUS
 10
85.8181909268
 20
134.6664729304
  0
VERTEX
  8
0
 62
9
  6
CONTINUOUS
 10
85.7151958848
 20
134.7456798588
  0
VERTEX
  8
0
 62
9
  6
CONTINUOUS
 10
85.6362025912
 20
134.8486783878
  0
VERTEX
  8
0
 62
9
  6
CONTINUOUS
 10
85.5865603225
 20
134.9684936262
  0
VERTEX
  8
0
 62
9
  6
CONTINUOUS
 10
85.5696307568
 20
135.0970118931
  0
SEQEND
  0
LINE
  8
DEFAULT_2
 62
8
  6
HIDDEN
 10
77.3398951795
 20
135.0247352385
 11
77.3462179367
 21
135.0239000901
  0
LINE
  8
0
 62
9
  6
CONTINUOUS
 10
76.8491113849
 20
135.0970118931
 11
76.6638811737
 21
135.1245378267
  0
LINE
  8
DEFAULT_2
 62
8
  6
HIDDEN
 10
77.0661437076
 20
135.063044128
 11
77.0699105097
 21
135.0624856737
  0
POLYLINE
  8
0
 62
7
  6
CONTINUOUS
 66
1
 70
0
  0
VERTEX
  8
0
 62
7
  6
CONTINUOUS
 10
85.507068644
 20
134.4044674321
  0
VERTEX
  8
0
 62
7
  6
CONTINUOUS
 10
85.4115106454
 20
134.4213733656
  0
VERTEX
  8
0
 62
7
  6
CONTINUOUS
 10
85.3210729807
 20
134.4610560793
  0
VERTEX
  8
0
 62
7
  6
CONTINUOUS
 10
85.2400225701
 20
134.5216343542
  0
VERTEX
  8
0
 62
7
  6
CONTINUOUS
 10
85.1721813275
 20
134.600240316
  0
VERTEX
  8
0
 62
7
  6
CONTINUOUS
 10
85.1207451953
 20
134.6931568947
  0
VERTEX
  8
0
 62
7
  6
CONTINUOUS
 10
85.0881414244
 20
134.7959972688
  0
VERTEX
  8
0
 62
7
  6
CONTINUOUS
 10
85.075818982
 20
134.90390625
  0
SEQEND
  0
POLYLINE
  8
0
 62
9
  6
CONTINUOUS
 66
1
 70
0
  0
VERTEX
  8
0
 62
9
  6
CONTINUOUS
 10
88.9149725543
 20
134.4044742424
  0
VERTEX
  8
0
 62
9
  6
CONTINUOUS
 10
88.6983693379
 20
134.4438942687
  0
VERTEX
  8
0
 62
9
  6
CONTINUOUS
 10
88.5349777659
 20
134.4851420415
  0
VERTEX
  8
0
 62
9
  6
CONTINUOUS
 10
88.4271783944
 20
134.5261267108
  0
VERTEX
  8
0
 62
9
  6
CONTINUOUS
 10
88.3705529282
 20
134.5647330618
  0
VERTEX
  8
0
 62
9
  6
CONTINUOUS
 10
88.3547403512
 20
134.598914544
  0
SEQEND
  0
LINE
  8
DEFAULT_2
 62
8
  6
HIDDEN
 10
88.6983693379
 20
134.4438942687
 11
88.7008479434
 21
134.443367409
  0
POLYLINE
  8
0
 62
9
  6
CONTINUOUS
 66
1
 70
0
  0
VERTEX
  8
0
 62
9
  6
CONTINUOUS
 10
68.3090077505
 20
141.1813720215
  0
VERTEX
  8
0
 62
9
  6
CONTINUOUS
 10
68.3443401208
 20
141.1684182139
  0
VERTEX
  8
0
 62
9
  6
CONTINUOUS
 10
68.3799359605
 20
141.1312886748
  0
VERTEX
  8
0
 62
9
  6
CONTINUOUS
 10
68.4140214532
 20
141.0718336477
  0
VERTEX
  8
0
 62
9
  6
CONTINUOUS
 10
68.4448980467
 20
140.9930159029
  0
VERTEX
  8
0
 62
9
  6
CONTINUOUS
 10
68.4710270947
 20
140.8987630956
  0
VERTEX
  8
0
 62
9
  6
CONTINUOUS
 10
68.4911065315
 20
140.7937720432
  0
VERTEX
  8
0
 62
9
  6
CONTINUOUS
 10
68.5041357561
 20
140.6832746724
  0
SEQEND
  0
POLYLINE
  8
0
 62
9
  6
CONTINUOUS
 66
1
 70
0
  0
VERTEX
  8
0
 62
9
  6
CONTINUOUS
 10
68.6087306302
 20
141.208897908
  0
VERTEX
  8
0
 62
9
  6
CONTINUOUS
 10
68.6500238535
 20
141.1913911059
  0
VERTEX
  8
0
 62
9
  6
CONTINUOUS
 10
68.6912705017
 20
141.1413395295
  0
VERTEX
  8
0
 62
9
  6
CONTINUOUS
 10
68.7296774226
 20
141.062132599
  0
VERTEX
  8
0
 62
9
  6
CONTINUOUS
 10
68.7626437676
 20
140.95913408
  0
VERTEX
  8
0
 62
9
  6
CONTINUOUS
 10
68.7879371155
 20
140.839318857
  0
VERTEX
  8
0
 62
9
  6
CONTINUOUS
 10
68.803844647
 20
140.7108006069
  0
SEQEND
  0
LINE
  8
0
 62
7
  6
CONTINUOUS
 10
87.2109375
 20
133.90390625
 11
86.3449120962
 21
134.40390625
  0
LINE
  8
0
 62
7
  6
CONTINUOUS
 10
85.5696313732
 20
140.7108006069
 11
85.5696313732
 21
135.0970118931
  0
POLYLINE
  8
0
 62
9
  6
CONTINUOUS
 66
1
 70
0
  0
VERTEX
  8
0
 62
9
  6
CONTINUOUS
 10
86.067173469
 20
141.1813720215
  0
VERTEX
  8
0
 62
9
  6
CONTINUOUS
 10
86.060372406
 20
141.155558441
  0
VERTEX
  8
0
 62
9
  6
CONTINUOUS
 10
86.0541345122
 20
141.1010185781
  0
VERTEX
  8
0
 62
9
  6
CONTINUOUS
 10
86.0488392027
 20
141.0210697762
  0
VERTEX
  8
0
 62
9
  6
CONTINUOUS
 10
86.0448085602
 20
140.9205748573
  0
VERTEX
  8
0
 62
9
  6
CONTINUOUS
 10
86.0422877456
 20
140.8056463444
  0
VERTEX
  8
0
 62
9
  6
CONTINUOUS
 10
86.0414300852
 20
140.6832746724
  0
SEQEND
  0
POLYLINE
  8
DEFAULT_2
 62
8
  6
HIDDEN
 66
1
 70
0
  0
VERTEX
  8
DEFAULT_2
 62
8
  6
HIDDEN
 10
88.4288895063
 20
141.2825293367
  0
VERTEX
  8
DEFAULT_2
 62
8
  6
HIDDEN
 10
88.3710781583
 20
141.2436409602
  0
VERTEX
  8
DEFAULT_2
 62
8
  6
HIDDEN
 10
88.3547403512
 20
141.208897956
  0
SEQEND
  0
LINE
  8
DEFAULT_2
 62
8
  6
HIDDEN
 10
89.0133892318
 20
140.8245164245
 11
89.0110157704
 21
140.8237008626
  0
LINE
  8
DEFAULT_2
 62
8
  6
HIDDEN
 10
88.5376868311
 20
141.3234967588
 11
88.5349777712
 21
141.3226704586
  0
LINE
  8
DEFAULT_2
 62
8
  6
HIDDEN
 10
85.4078415549
 20
134.9830758329
 11
85.4102213947
 21
134.983891812
  0
LINE
  8
DEFAULT_2
 62
8
  6
HIDDEN
 10
85.2640749431
 20
134.9424801942
 11
85.2662366946
 21
134.9429975775
  0
POLYLINE
  8
0
 62
9
  6
CONTINUOUS
 66
1
 70
0
  0
VERTEX
  8
0
 62
9
  6
CONTINUOUS
 10
76.4210504248
 20
134.598914544
  0
VERTEX
  8
0
 62
9
  6
CONTINUOUS
 10
76.5262488241
 20
134.6164214248
  0
VERTEX
  8
0
 62
9
  6
CONTINUOUS
 10
76.6259183063
 20
134.6664730342
  0
VERTEX
  8
0
 62
9
  6
CONTINUOUS
 10
76.7133094321
 20
134.7456799666
  0
VERTEX
  8
0
 62
9
  6
CONTINUOUS
 10
76.7825042304
 20
134.8486784698
  0
VERTEX
  8
0
 62
9
  6
CONTINUOUS
 10
76.828816953
 20
134.9684936691
  0
VERTEX
  8
0
 62
9
  6
CONTINUOUS
 10
76.8491113849
 20
135.0970118931
  0
SEQEND
  0
POLYLINE
  8
0
 62
9
  6
CONTINUOUS
 66
1
 70
0
  0
VERTEX
  8
0
 62
9
  6
CONTINUOUS
 10
76.2357875081
 20
134.6264404785
  0
VERTEX
  8
0
 62
9
  6
CONTINUOUS
 10
76.3262631561
 20
134.6394308707
  0
VERTEX
  8
0
 62
9
  6
CONTINUOUS
 10
76.4133972357
 20
134.6766609563
  0
VERTEX
  8
0
 62
9
  6
CONTINUOUS
 10
76.4928428491
 20
134.7362859397
  0
VERTEX
  8
0
 62
9
  6
CONTINUOUS
 10
76.560587863
 20
134.8152617348
  0
VERTEX
  8
0
 62
9
  6
CONTINUOUS
 10
76.6132911857
 20
134.9097301998
  0
VERTEX
  8
0
 62
9
  6
CONTINUOUS
 10
76.6483014794
 20
135.0147260465
  0
VERTEX
  8
0
 62
9
  6
CONTINUOUS
 10
76.6638811737
 20
135.1245378276
  0
SEQEND
  0
POLYLINE
  8
0
 62
7
  6
CONTINUOUS
 66
1
 70
0
  0
VERTEX
  8
0
 62
7
  6
CONTINUOUS
 10
78.2095576507
 20
134.4044743565
  0
VERTEX
  8
0
 62
7
  6
CONTINUOUS
 10
78.2051757898
 20
134.4041566195
  0
VERTEX
  8
0
 62
7
  6
CONTINUOUS
 10
78.199305755
 20
134.4039678403
  0
VERTEX
  8
0
 62
7
  6
CONTINUOUS
 10
78.1920311639
 20
134.40390625
  0
SEQEND
  0
LINE
  8
0
 62
9
  6
CONTINUOUS
 10
67.1442612809
 20
135.1245378276
 11
68.5041357561
 21
135.1245378276
  0
LINE
  8
0
 62
9
  6
CONTINUOUS
 10
73.9127005718
 20
135.1245378276
 11
76.6638811737
 21
135.1245378276
  0
LINE
  8
0
 62
9
  6
CONTINUOUS
 10
85.5696313732
 20
135.1245378276
 11
88.8522436268
 21
135.1245378276
  0
LINE
  8
0
 62
9
  6
CONTINUOUS
 10
97.7579938263
 20
135.1245378276
 11
100.5091744282
 21
135.1245378276
  0
LINE
  8
0
 62
9
  6
CONTINUOUS
 10
105.9177392439
 20
135.1245378276
 11
107.2776137191
 21
135.1245378276
  0
POLYLINE
  8
0
 62
7
  6
CONTINUOUS
 66
1
 70
0
  0
VERTEX
  8
0
 62
7
  6
CONTINUOUS
 10
96.2123126352
 20
134.4044747121
  0
VERTEX
  8
0
 62
7
  6
CONTINUOUS
 10
96.2166992401
 20
134.4041566181
  0
VERTEX
  8
0
 62
7
  6
CONTINUOUS
 10
96.2225692644
 20
134.40396784
  0
VERTEX
  8
0
 62
7
  6
CONTINUOUS
 10
96.2298438361
 20
134.40390625
  0
SEQEND
  0
POLYLINE
  8
0
 62
9
  6
CONTINUOUS
 66
1
 70
0
  0
VERTEX
  8
0
 62
9
  6
CONTINUOUS
 10
98.1860874919
 20
134.6264404785
  0
VERTEX
  8
0
 62
9
  6
CONTINUOUS
 10
98.0957384001
 20
134.6393942861
  0
VERTEX
  8
0
 62
9
  6
CONTINUOUS
 10
98.0087162961
 20
134.6765238252
  0
VERTEX
  8
0
 62
9
  6
CONTINUOUS
 10
97.9293576761
 20
134.7359788523
  0
VERTEX
  8
0
 62
9
  6
CONTINUOUS
 10
97.8616171483
 20
134.8147965971
  0
VERTEX
  8
0
 62
9
  6
CONTINUOUS
 10
97.808870367
 20
134.9090494044
  0
VERTEX
  8
0
 62
9
  6
CONTINUOUS
 10
97.773745816
 20
135.0140404568
  0
VERTEX
  8
0
 62
9
  6
CONTINUOUS
 10
97.7579938263
 20
135.1245378276
  0
SEQEND
  0
POLYLINE
  8
0
 62
9
  6
CONTINUOUS
 66
1
 70
0
  0
VERTEX
  8
0
 62
9
  6
CONTINUOUS
 10
98.0008245714
 20
134.598914625
  0
VERTEX
  8
0
 62
9
  6
CONTINUOUS
 10
97.8956260336
 20
134.6164213821
  0
VERTEX
  8
0
 62
9
  6
CONTINUOUS
 10
97.7959564261
 20
134.666472942
  0
VERTEX
  8
0
 62
9
  6
CONTINUOUS
 10
97.7085652035
 20
134.7456798735
  0
VERTEX
  8
0
 62
9
  6
CONTINUOUS
 10
97.6393703409
 20
134.8486784011
  0
VERTEX
  8
0
 62
9
  6
CONTINUOUS
 10
97.5930575837
 20
134.968493634
  0
VERTEX
  8
0
 62
9
  6
CONTINUOUS
 10
97.5727631418
 20
135.0970118931
  0
SEQEND
  0
POLYLINE
  8
0
 62
9
  6
CONTINUOUS
 66
1
 70
0
  0
VERTEX
  8
0
 62
9
  6
CONTINUOUS
 10
89.3460697738
 20
134.90390625
  0
VERTEX
  8
0
 62
9
  6
CONTINUOUS
 10
89.155045312
 20
134.9431398829
  0
VERTEX
  8
0
 62
9
  6
CONTINUOUS
 10
89.0110157703
 20
134.9841116376
  0
VERTEX
  8
0
 62
9
  6
CONTINUOUS
 10
88.916047585
 20
135.0247786015
  0
VERTEX
  8
0
 62
9
  6
CONTINUOUS
 10
88.8661659159
 20
135.0630728229
  0
VERTEX
  8
0
 62
9
  6
CONTINUOUS
 10
88.8522436268
 20
135.0970118931
  0
SEQEND
  0
LINE
  8
DEFAULT_2
 62
8
  6
HIDDEN
 10
89.155045312
 20
134.9431398829
 11
89.1572148198
 21
134.9426200538
  0
LINE
  8
DEFAULT_2
 62
8
  6
HIDDEN
 10
88.5349777659
 20
134.4851420415
 11
88.5376868359
 21
134.484315741
  0
LINE
  8
DEFAULT_2
 62
8
  6
HIDDEN
 10
89.0110157703
 20
134.9841116376
 11
89.013389232
 21
134.9832960752
  0
POLYLINE
  8
0
 62
9
  6
CONTINUOUS
 66
1
 70
0
  0
VERTEX
  8
0
 62
9
  6
CONTINUOUS
 10
86.0414300852
 20
135.1245378276
  0
VERTEX
  8
0
 62
9
  6
CONTINUOUS
 10
86.0422877456
 20
135.0021661556
  0
VERTEX
  8
0
 62
9
  6
CONTINUOUS
 10
86.0448085602
 20
134.8872376427
  0
VERTEX
  8
0
 62
9
  6
CONTINUOUS
 10
86.0488392027
 20
134.7867427238
  0
VERTEX
  8
0
 62
9
  6
CONTINUOUS
 10
86.0541345122
 20
134.7067939219
  0
VERTEX
  8
0
 62
9
  6
CONTINUOUS
 10
86.060372406
 20
134.652254059
  0
VERTEX
  8
0
 62
9
  6
CONTINUOUS
 10
86.067173469
 20
134.6264404785
  0
SEQEND
  0
LINE
  8
0
 62
9
  6
CONTINUOUS
 10
86.0671346488
 20
141.208897956
 11
86.0671738188
 21
141.1813720215
  0
LINE
  8
0
 62
9
  6
CONTINUOUS
 10
86.0414300852
 20
140.6832746724
 11
86.0414300852
 21
135.1245378276
  0
LINE
  8
DEFAULT_1
 62
2
  6
CENTER
 10
87.2109375
 20
125.90390625
 11
87.2109375
 21
149.90390625
  0
LINE
  8
0
 62
9
  6
CONTINUOUS
 10
86.0671738188
 20
134.6264404785
 11
86.0671346488
 21
134.598914544
  0
POLYLINE
  8
0
 62
9
  6
CONTINUOUS
 66
1
 70
0
  0
VERTEX
  8
0
 62
9
  6
CONTINUOUS
 10
85.5696313732
 20
135.0970118931
  0
VERTEX
  8
0
 62
9
  6
CONTINUOUS
 10
85.5551177073
 20
135.0623624677
  0
VERTEX
  8
0
 62
9
  6
CONTINUOUS
 10
85.503914561
 20
135.0237183691
  0
VERTEX
  8
0
 62
9
  6
CONTINUOUS
 10
85.4078415549
 20
134.9830758329
  0
VERTEX
  8
0
 62
9
  6
CONTINUOUS
 10
85.2640749431
 20
134.9424801942
  0
VERTEX
  8
0
 62
9
  6
CONTINUOUS
 10
85.0757818264
 20
134.90390625
  0
SEQEND
  0
POLYLINE
  8
0
 62
9
  6
CONTINUOUS
 66
1
 70
0
  0
VERTEX
  8
0
 62
9
  6
CONTINUOUS
 10
88.3547403512
 20
141.208897956
  0
VERTEX
  8
0
 62
9
  6
CONTINUOUS
 10
88.3705529246
 20
141.2430794383
  0
VERTEX
  8
0
 62
9
  6
CONTINUOUS
 10
88.427178393
 20
141.2816857893
  0
VERTEX
  8
0
 62
9
  6
CONTINUOUS
 10
88.5349777712
 20
141.3226704586
  0
VERTEX
  8
0
 62
9
  6
CONTINUOUS
 10
88.6983693361
 20
141.3639182318
  0
SEQEND
  0
POLYLINE
  8
DEFAULT_2
 62
8
  6
HIDDEN
 66
1
 70
0
  0
VERTEX
  8
DEFAULT_2
 62
8
  6
HIDDEN
 10
88.9175492382
 20
140.7838675742
  0
VERTEX
  8
DEFAULT_2
 62
8
  6
HIDDEN
 10
88.8666284573
 20
140.7452965397
  0
VERTEX
  8
DEFAULT_2
 62
8
  6
HIDDEN
 10
88.8522436268
 20
140.7108006069
  0
SEQEND
  0
POLYLINE
  8
0
 62
7
  6
CONTINUOUS
 66
1
 70
0
  0
VERTEX
  8
0
 62
7
  6
CONTINUOUS
 10
96.2124159166
 20
141.4033450792
  0
VERTEX
  8
0
 62
7
  6
CONTINUOUS
 10
96.1638219868
 20
141.3864391933
  0
VERTEX
  8
0
 62
7
  6
CONTINUOUS
 10
96.1172586114
 20
141.3467565189
  0
VERTEX
  8
0
 62
7
  6
CONTINUOUS
 10
96.0749232979
 20
141.2861782772
  0
VERTEX
  8
0
 62
7
  6
CONTINUOUS
 10
96.0388133439
 20
141.2075723505
  0
VERTEX
  8
0
 62
7
  6
CONTINUOUS
 10
96.0106326452
 20
141.1146558327
  0
VERTEX
  8
0
 62
7
  6
CONTINUOUS
 10
95.9917245258
 20
141.0118156482
  0
VERTEX
  8
0
 62
7
  6
CONTINUOUS
 10
95.9828401687
 20
140.90390625
  0
SEQEND
  0
POLYLINE
  8
0
 62
7
  6
CONTINUOUS
 66
1
 70
0
  0
VERTEX
  8
0
 62
7
  6
CONTINUOUS
 10
96.2124159112
 20
134.4044674209
  0
VERTEX
  8
0
 62
7
  6
CONTINUOUS
 10
96.1638219862
 20
134.4213733071
  0
VERTEX
  8
0
 62
7
  6
CONTINUOUS
 10
96.117258616
 20
134.4610559818
  0
VERTEX
  8
0
 62
7
  6
CONTINUOUS
 10
96.074923309
 20
134.5216342238
  0
VERTEX
  8
0
 62
7
  6
CONTINUOUS
 10
96.0388133642
 20
134.6002401508
  0
VERTEX
  8
0
 62
7
  6
CONTINUOUS
 10
96.010632682
 20
134.6931566691
  0
VERTEX
  8
0
 62
7
  6
CONTINUOUS
 10
95.9917246085
 20
134.7959968554
  0
VERTEX
  8
0
 62
7
  6
CONTINUOUS
 10
95.9828401682
 20
134.90390625
  0
SEQEND
  0
POLYLINE
  8
DEFAULT_2
 62
8
  6
HIDDEN
 66
1
 70
0
  0
VERTEX
  8
DEFAULT_2
 62
8
  6
HIDDEN
 10
88.3547403512
 20
134.598914544
  0
VERTEX
  8
DEFAULT_2
 62
8
  6
HIDDEN
 10
88.371078152
 20
134.5641715396
  0
VERTEX
  8
DEFAULT_2
 62
8
  6
HIDDEN
 10
88.4288895071
 20
134.5252831631
  0
SEQEND
  0
POLYLINE
  8
DEFAULT_2
 62
8
  6
HIDDEN
 66
1
 70
0
  0
VERTEX
  8
DEFAULT_2
 62
8
  6
HIDDEN
 10
85.5696313732
 20
140.7108006069
  0
VERTEX
  8
DEFAULT_2
 62
8
  6
HIDDEN
 10
85.5555874067
 20
140.744887063
  0
VERTEX
  8
DEFAULT_2
 62
8
  6
HIDDEN
 10
85.5054294066
 20
140.7832558495
  0
VERTEX
  8
DEFAULT_2
 62
8
  6
HIDDEN
 10
85.5039145611
 20
140.7840941316
  0
SEQEND
  0
POLYLINE
  8
0
 62
9
  6
CONTINUOUS
 66
1
 70
0
  0
VERTEX
  8
0
 62
9
  6
CONTINUOUS
 10
88.3804449148
 20
140.6832746724
  0
VERTEX
  8
0
 62
9
  6
CONTINUOUS
 10
88.3795872544
 20
140.8056463444
  0
VERTEX
  8
0
 62
9
  6
CONTINUOUS
 10
88.3770664398
 20
140.9205748573
  0
VERTEX
  8
0
 62
9
  6
CONTINUOUS
 10
88.3730357973
 20
141.0210697762
  0
VERTEX
  8
0
 62
9
  6
CONTINUOUS
 10
88.3677404878
 20
141.1010185781
  0
VERTEX
  8
0
 62
9
  6
CONTINUOUS
 10
88.361502594
 20
141.155558441
  0
VERTEX
  8
0
 62
9
  6
CONTINUOUS
 10
88.354701531
 20
141.1813720215
  0
SEQEND
  0
LINE
  8
0
 62
9
  6
CONTINUOUS
 10
88.3547403512
 20
134.598914544
 11
88.3547011611
 21
134.6264404785
  0
LINE
  8
0
 62
9
  6
CONTINUOUS
 10
88.3804449148
 20
135.1245378276
 11
88.3804449148
 21
140.6832746724
  0
LINE
  8
0
 62
7
  6
CONTINUOUS
 10
88.8522436268
 20
135.0970118931
 11
88.8522436268
 21
140.7108006069
  0
LINE
  8
0
 62
9
  6
CONTINUOUS
 10
88.3547011611
 20
141.1813720215
 11
88.3547403512
 21
141.208897956
  0
POLYLINE
  8
0
 62
9
  6
CONTINUOUS
 66
1
 70
0
  0
VERTEX
  8
0
 62
9
  6
CONTINUOUS
 10
88.8522436268
 20
140.7108006069
  0
VERTEX
  8
0
 62
9
  6
CONTINUOUS
 10
88.8661659159
 20
140.7447396778
  0
VERTEX
  8
0
 62
9
  6
CONTINUOUS
 10
88.9160475851
 20
140.7830338979
  0
VERTEX
  8
0
 62
9
  6
CONTINUOUS
 10
89.0110157704
 20
140.8237008626
  0
VERTEX
  8
0
 62
9
  6
CONTINUOUS
 10
89.1550453121
 20
140.8646726172
  0
VERTEX
  8
0
 62
9
  6
CONTINUOUS
 10
89.346069774
 20
140.90390625
  0
SEQEND
  0
POLYLINE
  8
0
 62
9
  6
CONTINUOUS
 66
1
 70
0
  0
VERTEX
  8
0
 62
9
  6
CONTINUOUS
 10
86.0671346488
 20
134.598914544
  0
VERTEX
  8
0
 62
9
  6
CONTINUOUS
 10
86.0506496848
 20
134.5640158282
  0
VERTEX
  8
0
 62
9
  6
CONTINUOUS
 10
85.9925149009
 20
134.5250529263
  0
VERTEX
  8
0
 62
9
  6
CONTINUOUS
 10
85.8834497637
 20
134.4840917045
  0
VERTEX
  8
0
 62
9
  6
CONTINUOUS
 10
85.7203555312
 20
134.443225078
  0
SEQEND
  0
POLYLINE
  8
0
 62
7
  6
CONTINUOUS
 66
1
 70
0
  0
VERTEX
  8
0
 62
7
  6
CONTINUOUS
 10
78.2094592093
 20
134.4044674236
  0
VERTEX
  8
0
 62
7
  6
CONTINUOUS
 10
78.2580529417
 20
134.4213733012
  0
VERTEX
  8
0
 62
7
  6
CONTINUOUS
 10
78.3046161448
 20
134.4610559699
  0
VERTEX
  8
0
 62
7
  6
CONTINUOUS
 10
78.3469512724
 20
134.5216342361
  0
VERTEX
  8
0
 62
7
  6
CONTINUOUS
 10
78.3830609657
 20
134.6002402166
  0
VERTEX
  8
0
 62
7
  6
CONTINUOUS
 10
78.411241192
 20
134.6931567959
  0
VERTEX
  8
0
 62
7
  6
CONTINUOUS
 10
78.4301480063
 20
134.7959970348
  0
VERTEX
  8
0
 62
7
  6
CONTINUOUS
 10
78.4390348394
 20
134.90390625
  0
SEQEND
  0
POLYLINE
  8
0
 62
9
  6
CONTINUOUS
 66
1
 70
0
  0
VERTEX
  8
0
 62
9
  6
CONTINUOUS
 10
98.0008245752
 20
141.208897956
  0
VERTEX
  8
0
 62
9
  6
CONTINUOUS
 10
97.8956261759
 20
141.1913910752
  0
VERTEX
  8
0
 62
9
  6
CONTINUOUS
 10
97.7959566937
 20
141.1413394658
  0
VERTEX
  8
0
 62
9
  6
CONTINUOUS
 10
97.7085655679
 20
141.0621325334
  0
VERTEX
  8
0
 62
9
  6
CONTINUOUS
 10
97.6393707696
 20
140.9591340302
  0
VERTEX
  8
0
 62
9
  6
CONTINUOUS
 10
97.593058047
 20
140.8393188309
  0
VERTEX
  8
0
 62
9
  6
CONTINUOUS
 10
97.5727636151
 20
140.7108006069
  0
SEQEND
  0
POLYLINE
  8
0
 62
9
  6
CONTINUOUS
 66
1
 70
0
  0
VERTEX
  8
0
 62
9
  6
CONTINUOUS
 10
98.1860874919
 20
141.1813720215
  0
VERTEX
  8
0
 62
9
  6
CONTINUOUS
 10
98.0956118439
 20
141.1683816293
  0
VERTEX
  8
0
 62
9
  6
CONTINUOUS
 10
98.0084777643
 20
141.1311515437
  0
VERTEX
  8
0
 62
9
  6
CONTINUOUS
 10
97.9290321509
 20
141.0715265603
  0
VERTEX
  8
0
 62
9
  6
CONTINUOUS
 10
97.861287137
 20
140.9925507652
  0
VERTEX
  8
0
 62
9
  6
CONTINUOUS
 10
97.8085838143
 20
140.8980823002
  0
VERTEX
  8
0
 62
9
  6
CONTINUOUS
 10
97.7735735206
 20
140.7930864535
  0
VERTEX
  8
0
 62
9
  6
CONTINUOUS
 10
97.7579938263
 20
140.6832746724
  0
SEQEND
  0
POLYLINE
  8
0
 62
9
  6
CONTINUOUS
 66
1
 70
0
  0
VERTEX
  8
0
 62
9
  6
CONTINUOUS
 10
76.2357875081
 20
141.1813720215
  0
VERTEX
  8
0
 62
9
  6
CONTINUOUS
 10
76.3261365999
 20
141.1684182139
  0
VERTEX
  8
0
 62
9
  6
CONTINUOUS
 10
76.4131587039
 20
141.1312886748
  0
VERTEX
  8
0
 62
9
  6
CONTINUOUS
 10
76.4925173239
 20
141.0718336477
  0
VERTEX
  8
0
 62
9
  6
CONTINUOUS
 10
76.5602578517
 20
140.9930159029
  0
VERTEX
  8
0
 62
9
  6
CONTINUOUS
 10
76.613004633
 20
140.8987630956
  0
VERTEX
  8
0
 62
9
  6
CONTINUOUS
 10
76.648129184
 20
140.7937720432
  0
VERTEX
  8
0
 62
9
  6
CONTINUOUS
 10
76.6638811737
 20
140.6832746724
  0
SEQEND
  0
POLYLINE
  8
0
 62
9
  6
CONTINUOUS
 66
1
 70
0
  0
VERTEX
  8
0
 62
9
  6
CONTINUOUS
 10
76.421050427
 20
141.2088979082
  0
VERTEX
  8
0
 62
9
  6
CONTINUOUS
 10
76.5262489097
 20
141.1913911056
  0
VERTEX
  8
0
 62
9
  6
CONTINUOUS
 10
76.6259184688
 20
141.1413395288
  0
VERTEX
  8
0
 62
9
  6
CONTINUOUS
 10
76.7133096554
 20
141.0621325981
  0
VERTEX
  8
0
 62
9
  6
CONTINUOUS
 10
76.7825044954
 20
140.9591340791
  0
VERTEX
  8
0
 62
9
  6
CONTINUOUS
 10
76.8288172413
 20
140.8393188565
  0
VERTEX
  8
0
 62
9
  6
CONTINUOUS
 10
76.8491116804
 20
140.7108006069
  0
SEQEND
  0
POLYLINE
  8
0
 62
7
  6
CONTINUOUS
 66
1
 70
0
  0
VERTEX
  8
0
 62
7
  6
CONTINUOUS
 10
78.2094592149
 20
141.4033450763
  0
VERTEX
  8
0
 62
7
  6
CONTINUOUS
 10
78.2580529423
 20
141.3864391983
  0
VERTEX
  8
0
 62
7
  6
CONTINUOUS
 10
78.3046161399
 20
141.3467565294
  0
VERTEX
  8
0
 62
7
  6
CONTINUOUS
 10
78.3469512609
 20
141.2861782628
  0
VERTEX
  8
0
 62
7
  6
CONTINUOUS
 10
78.3830609448
 20
141.207572282
  0
VERTEX
  8
0
 62
7
  6
CONTINUOUS
 10
78.4112411542
 20
141.1146557021
  0
VERTEX
  8
0
 62
7
  6
CONTINUOUS
 10
78.4301479214
 20
141.0118154615
  0
VERTEX
  8
0
 62
7
  6
CONTINUOUS
 10
78.4390348399
 20
140.90390625
  0
SEQEND
  0
POLYLINE
  8
DEFAULT_2
 62
8
  6
HIDDEN
 66
1
 70
0
  0
VERTEX
  8
DEFAULT_2
 62
8
  6
HIDDEN
 10
86.0671346488
 20
141.208897956
  0
VERTEX
  8
DEFAULT_2
 62
8
  6
HIDDEN
 10
86.051183038
 20
141.243229002
  0
VERTEX
  8
DEFAULT_2
 62
8
  6
HIDDEN
 10
85.9942409303
 20
141.2819114415
  0
VERTEX
  8
DEFAULT_2
 62
8
  6
HIDDEN
 10
85.992514901
 20
141.2827595735
  0
SEQEND
  0
POLYLINE
  8
DEFAULT_2
 62
8
  6
HIDDEN
 66
1
 70
0
  0
VERTEX
  8
DEFAULT_2
 62
8
  6
HIDDEN
 10
88.8522436268
 20
135.0970118931
  0
VERTEX
  8
DEFAULT_2
 62
8
  6
HIDDEN
 10
88.8666284573
 20
135.0625159594
  0
VERTEX
  8
DEFAULT_2
 62
8
  6
HIDDEN
 10
88.9175492383
 20
135.0239449264
  0
SEQEND
  0
POLYLINE
  8
0
 62
9
  6
CONTINUOUS
 66
1
 70
0
  0
VERTEX
  8
0
 62
9
  6
CONTINUOUS
 10
88.354701531
 20
134.6264404785
  0
VERTEX
  8
0
 62
9
  6
CONTINUOUS
 10
88.361502594
 20
134.652254059
  0
VERTEX
  8
0
 62
9
  6
CONTINUOUS
 10
88.3677404878
 20
134.7067939219
  0
VERTEX
  8
0
 62
9
  6
CONTINUOUS
 10
88.3730357973
 20
134.7867427238
  0
VERTEX
  8
0
 62
9
  6
CONTINUOUS
 10
88.3770664398
 20
134.8872376427
  0
VERTEX
  8
0
 62
9
  6
CONTINUOUS
 10
88.3795872544
 20
135.0021661556
  0
VERTEX
  8
0
 62
9
  6
CONTINUOUS
 10
88.3804449148
 20
135.1245378276
  0
SEQEND
  0
POLYLINE
  8
DEFAULT_2
 62
8
  6
HIDDEN
 66
1
 70
0
  0
VERTEX
  8
DEFAULT_2
 62
8
  6
HIDDEN
 10
85.503914561
 20
135.0237183691
  0
VERTEX
  8
DEFAULT_2
 62
8
  6
HIDDEN
 10
85.5054294067
 20
135.0245566499
  0
VERTEX
  8
DEFAULT_2
 62
8
  6
HIDDEN
 10
85.5555874067
 20
135.0629254377
  0
VERTEX
  8
DEFAULT_2
 62
8
  6
HIDDEN
 10
85.5696313732
 20
135.0970118931
  0
SEQEND
  0
POLYLINE
  8
DEFAULT_2
 62
8
  6
HIDDEN
 66
1
 70
0
  0
VERTEX
  8
DEFAULT_2
 62
8
  6
HIDDEN
 10
85.9925149009
 20
134.5250529263
  0
VERTEX
  8
DEFAULT_2
 62
8
  6
HIDDEN
 10
85.9942409283
 20
134.5259010587
  0
VERTEX
  8
DEFAULT_2
 62
8
  6
HIDDEN
 10
86.0511830347
 20
134.5645834982
  0
VERTEX
  8
DEFAULT_2
 62
8
  6
HIDDEN
 10
86.0671346488
 20
134.598914544
  0
SEQEND
  0
LINE
  8
DEFAULT_2
 62
8
  6
HIDDEN
 10
89.1572148196
 20
140.8651924462
 11
89.1550453121
 21
140.8646726172
  0
LINE
  8
DEFAULT_2
 62
8
  6
HIDDEN
 10
88.7008479452
 20
141.3644450905
 11
88.6983693361
 21
141.3639182318
  0
LINE
  8
0
 62
9
  6
CONTINUOUS
 10
88.6983693361
 20
141.3639182318
 11
88.914972557
 21
141.4033382579
  0
POLYLINE
  8
0
 62
7
  6
CONTINUOUS
 66
1
 70
0
  0
VERTEX
  8
0
 62
7
  6
CONTINUOUS
 10
96.21231264
 20
141.4033377875
  0
VERTEX
  8
0
 62
7
  6
CONTINUOUS
 10
96.2166992411
 20
141.403655882
  0
VERTEX
  8
0
 62
7
  6
CONTINUOUS
 10
96.222569265
 20
141.40384466
  0
VERTEX
  8
0
 62
7
  6
CONTINUOUS
 10
96.2298438361
 20
141.40390625
  0
SEQEND
  0
LINE
  8
0
 62
9
  6
CONTINUOUS
 10
67.1442612809
 20
140.6832746724
 11
68.5041357561
 21
140.6832746724
  0
LINE
  8
0
 62
9
  6
CONTINUOUS
 10
73.9127005718
 20
140.6832746724
 11
76.6638811737
 21
140.6832746724
  0
LINE
  8
0
 62
9
  6
CONTINUOUS
 10
85.5696313732
 20
140.6832746724
 11
88.8522436268
 21
140.6832746724
  0
LINE
  8
0
 62
9
  6
CONTINUOUS
 10
97.7579938263
 20
140.6832746724
 11
100.5091744282
 21
140.6832746724
  0
LINE
  8
0
 62
9
  6
CONTINUOUS
 10
105.9177392439
 20
140.6832746724
 11
107.2776137191
 21
140.6832746724
  0
LINE
  8
DEFAULT_2
 62
8
  6
HIDDEN
 10
104.8588273608
 20
140.90390625
 11
103.5920882366
 21
140.90390625
  0
LINE
  8
DEFAULT_2
 62
8
  6
HIDDEN
 10
100.4564850834
 20
140.90390625
 11
99.3881274894
 21
140.90390625
  0
LINE
  8
DEFAULT_2
 62
8
  6
HIDDEN
 10
75.0337475106
 20
140.90390625
 11
73.9654564815
 21
140.90390625
  0
LINE
  8
DEFAULT_2
 62
8
  6
HIDDEN
 10
70.8297867634
 20
140.90390625
 11
69.5630593052
 21
140.90390625
  0
LINE
  8
0
 62
9
  6
CONTINUOUS
 10
70.882619044
 20
140.90390625
 11
73.9654564815
 21
140.90390625
  0
LINE
  8
0
 62
9
  6
CONTINUOUS
 10
78.4390648571
 20
140.90390625
 11
85.0757818268
 21
140.90390625
  0
LINE
  8
0
 62
9
  6
CONTINUOUS
 10
89.346069774
 20
140.90390625
 11
95.9827918963
 21
140.90390625
  0
LINE
  8
0
 62
9
  6
CONTINUOUS
 10
100.4564850834
 20
140.90390625
 11
103.539236321
 21
140.90390625
  0
LINE
  8
0
 62
9
  6
CONTINUOUS
 10
67.6021227935
 20
141.1813720215
 11
68.3090076163
 21
141.1813720215
  0
LINE
  8
0
 62
9
  6
CONTINUOUS
 10
74.3851387022
 20
141.1813720215
 11
76.2357871966
 21
141.1813720215
  0
LINE
  8
0
 62
9
  6
CONTINUOUS
 10
86.0671738188
 20
141.1813720215
 11
88.3547011611
 21
141.1813720215
  0
LINE
  8
0
 62
9
  6
CONTINUOUS
 10
98.1860877865
 20
141.1813720215
 11
100.0367362822
 21
141.1813720215
  0
LINE
  8
0
 62
9
  6
CONTINUOUS
 10
106.1128673764
 20
141.1813720215
 11
106.8197522013
 21
141.1813720215
  0
POLYLINE
  8
0
 62
7
  6
CONTINUOUS
 66
1
 70
0
  0
VERTEX
  8
0
 62
7
  6
CONTINUOUS
 10
78.2095576555
 20
141.4033381439
  0
VERTEX
  8
0
 62
7
  6
CONTINUOUS
 10
78.2051757908
 20
141.4036558804
  0
VERTEX
  8
0
 62
7
  6
CONTINUOUS
 10
78.1993057556
 20
141.4038446596
  0
VERTEX
  8
0
 62
7
  6
CONTINUOUS
 10
78.1920311639
 20
141.40390625
  0
SEQEND
  0
POLYLINE
  8
0
 62
9
  6
CONTINUOUS
 66
1
 70
0
  0
VERTEX
  8
0
 62
9
  6
CONTINUOUS
 10
85.5068786485
 20
141.4033372927
  0
VERTEX
  8
0
 62
9
  6
CONTINUOUS
 10
85.7203555293
 20
141.3645874215
  0
VERTEX
  8
0
 62
9
  6
CONTINUOUS
 10
85.8834497692
 20
141.3237207953
  0
VERTEX
  8
0
 62
9
  6
CONTINUOUS
 10
85.992514901
 20
141.2827595735
  0
VERTEX
  8
0
 62
9
  6
CONTINUOUS
 10
86.0506496787
 20
141.2437966717
  0
VERTEX
  8
0
 62
9
  6
CONTINUOUS
 10
86.0671346488
 20
141.208897956
  0
SEQEND
  0
LINE
  8
DEFAULT_2
 62
8
  6
HIDDEN
 10
85.7228248708
 20
141.3640631368
 11
85.7203555293
 21
141.3645874215
  0
POLYLINE
  8
0
 62
9
  6
CONTINUOUS
 66
1
 70
0
  0
VERTEX
  8
0
 62
9
  6
CONTINUOUS
 10
85.0757818268
 20
140.90390625
  0
VERTEX
  8
0
 62
9
  6
CONTINUOUS
 10
85.2640749434
 20
140.8653323057
  0
VERTEX
  8
0
 62
9
  6
CONTINUOUS
 10
85.4078415551
 20
140.8247366668
  0
VERTEX
  8
0
 62
9
  6
CONTINUOUS
 10
85.5039145611
 20
140.7840941316
  0
VERTEX
  8
0
 62
9
  6
CONTINUOUS
 10
85.5551177073
 20
140.7454500315
  0
VERTEX
  8
0
 62
9
  6
CONTINUOUS
 10
85.5696313732
 20
140.7108006069
  0
SEQEND
  0
LINE
  8
DEFAULT_2
 62
8
  6
HIDDEN
 10
85.2662366944
 20
140.8648149226
 11
85.2640749434
 21
140.8653323057
  0
LINE
  8
DEFAULT_2
 62
8
  6
HIDDEN
 10
85.8861658068
 20
141.3228941846
 11
85.8834497692
 21
141.3237207953
  0
LINE
  8
DEFAULT_2
 62
8
  6
HIDDEN
 10
85.4102213945
 20
140.8239206883
 11
85.4078415551
 21
140.8247366668
  0
LINE
  8
0
 62
9
  6
CONTINUOUS
 10
91.973352746
 20
134.90390625
 11
91.973352746
 21
140.90390625
  0
LINE
  8
0
 62
7
  6
CONTINUOUS
 10
87.2109375
 20
133.90390625
 11
88.0769629038
 21
134.40390625
  0
POLYLINE
  8
0
 62
9
  6
CONTINUOUS
 66
1
 70
0
  0
VERTEX
  8
0
 62
9
  6
CONTINUOUS
 10
105.8131443737
 20
141.208897956
  0
VERTEX
  8
0
 62
9
  6
CONTINUOUS
 10
105.7718511772
 20
141.1913910752
  0
VERTEX
  8
0
 62
9
  6
CONTINUOUS
 10
105.7306045563
 20
141.1413394658
  0
VERTEX
  8
0
 62
9
  6
CONTINUOUS
 10
105.6921976587
 20
141.0621325334
  0
VERTEX
  8
0
 62
9
  6
CONTINUOUS
 10
105.6592313308
 20
140.9591340302
  0
VERTEX
  8
0
 62
9
  6
CONTINUOUS
 10
105.6339379935
 20
140.8393188309
  0
VERTEX
  8
0
 62
9
  6
CONTINUOUS
 10
105.6180304665
 20
140.7108006069
  0
SEQEND
  0
POLYLINE
  8
0
 62
9
  6
CONTINUOUS
 66
1
 70
0
  0
VERTEX
  8
0
 62
9
  6
CONTINUOUS
 10
106.1128672495
 20
141.1813720215
  0
VERTEX
  8
0
 62
9
  6
CONTINUOUS
 10
106.0774865974
 20
141.1683816293
  0
VERTEX
  8
0
 62
9
  6
CONTINUOUS
 10
106.0418367584
 20
141.1311515437
  0
VERTEX
  8
0
 62
9
  6
CONTINUOUS
 10
106.0077106341
 20
141.0715265603
  0
VERTEX
  8
0
 62
9
  6
CONTINUOUS
 10
105.9768139737
 20
140.9925507652
  0
VERTEX
  8
0
 62
9
  6
CONTINUOUS
 10
105.9507106545
 20
140.8980823002
  0
VERTEX
  8
0
 62
9
  6
CONTINUOUS
 10
105.9306460997
 20
140.7930864535
  0
VERTEX
  8
0
 62
9
  6
CONTINUOUS
 10
105.9177392439
 20
140.6832746724
  0
SEQEND
  0
POLYLINE
  8
0
 62
7
  6
CONTINUOUS
 66
1
 70
0
  0
VERTEX
  8
0
 62
7
  6
CONTINUOUS
 10
85.5070686485
 20
141.403345068
  0
VERTEX
  8
0
 62
7
  6
CONTINUOUS
 10
85.411510647
 20
141.3864391349
  0
VERTEX
  8
0
 62
7
  6
CONTINUOUS
 10
85.3210729791
 20
141.3467564215
  0
VERTEX
  8
0
 62
7
  6
CONTINUOUS
 10
85.2400225646
 20
141.286178147
  0
VERTEX
  8
0
 62
7
  6
CONTINUOUS
 10
85.1721813165
 20
141.2075721855
  0
VERTEX
  8
0
 62
7
  6
CONTINUOUS
 10
85.1207451747
 20
141.1146556073
  0
VERTEX
  8
0
 62
7
  6
CONTINUOUS
 10
85.0881413774
 20
141.0118152353
  0
VERTEX
  8
0
 62
7
  6
CONTINUOUS
 10
85.0758189824
 20
140.90390625
  0
SEQEND
  0
LINE
  8
DEFAULT_2
 62
8
  6
HIDDEN
 10
77.0699105096
 20
140.7453268254
 11
77.0661437076
 21
140.7447683727
  0
POLYLINE
  8
0
 62
9
  6
CONTINUOUS
 66
1
 70
0
  0
VERTEX
  8
0
 62
9
  6
CONTINUOUS
 10
76.8491113849
 20
140.7108006069
  0
VERTEX
  8
0
 62
9
  6
CONTINUOUS
 10
77.0661437076
 20
140.7447683727
  0
VERTEX
  8
0
 62
9
  6
CONTINUOUS
 10
77.3398951798
 20
140.7830772609
  0
VERTEX
  8
0
 62
9
  6
CONTINUOUS
 10
77.6664110897
 20
140.8237439434
  0
VERTEX
  8
0
 62
9
  6
CONTINUOUS
 10
78.0371872504
 20
140.8647005867
  0
VERTEX
  8
0
 62
9
  6
CONTINUOUS
 10
78.4390648571
 20
140.90390625
  0
SEQEND
  0
LINE
  8
0
 62
9
  6
CONTINUOUS
 10
76.6638811737
 20
140.6832746733
 11
76.8491113849
 21
140.7108006069
  0
LINE
  8
DEFAULT_2
 62
8
  6
HIDDEN
 10
74.1934222858
 20
140.7108006069
 11
74.0081920746
 21
140.6832746733
  0
LINE
  8
DEFAULT_2
 62
8
  6
HIDDEN
 10
76.6688753949
 20
141.2436716828
 11
76.6646405039
 21
141.2431085563
  0
POLYLINE
  8
0
 62
9
  6
CONTINUOUS
 66
1
 70
0
  0
VERTEX
  8
0
 62
9
  6
CONTINUOUS
 10
76.4210504248
 20
141.208897956
  0
VERTEX
  8
0
 62
9
  6
CONTINUOUS
 10
76.6646405039
 20
141.2431085563
  0
VERTEX
  8
0
 62
9
  6
CONTINUOUS
 10
76.9725158519
 20
141.281729876
  0
VERTEX
  8
0
 62
9
  6
CONTINUOUS
 10
77.340018887
 20
141.3227143056
  0
VERTEX
  8
0
 62
9
  6
CONTINUOUS
 10
77.7573762891
 20
141.3639467138
  0
SEQEND
  0
LINE
  8
DEFAULT_2
 62
8
  6
HIDDEN
 10
77.3462179364
 20
140.7839124106
 11
77.3398951798
 21
140.7830772609
  0
POLYLINE
  8
0
 62
9
  6
CONTINUOUS
 66
1
 70
0
  0
VERTEX
  8
0
 62
9
  6
CONTINUOUS
 10
86.0671346488
 20
141.208897956
  0
VERTEX
  8
0
 62
9
  6
CONTINUOUS
 10
85.9382132597
 20
141.1913910752
  0
VERTEX
  8
0
 62
9
  6
CONTINUOUS
 10
85.8181912706
 20
141.1413394658
  0
VERTEX
  8
0
 62
9
  6
CONTINUOUS
 10
85.7151963565
 20
141.0621325334
  0
VERTEX
  8
0
 62
9
  6
CONTINUOUS
 10
85.6362031489
 20
140.9591340302
  0
VERTEX
  8
0
 62
9
  6
CONTINUOUS
 10
85.5865609269
 20
140.8393188309
  0
VERTEX
  8
0
 62
9
  6
CONTINUOUS
 10
85.5696313732
 20
140.7108006069
  0
SEQEND
  0
LINE
  8
DEFAULT_2
 62
8
  6
HIDDEN
 10
76.9796565487
 20
141.2825749025
 11
76.9725158519
 21
141.281729876
  0
LINE
  8
DEFAULT_2
 62
8
  6
HIDDEN
 10
77.6733691598
 20
140.8245601328
 11
77.6664110897
 21
140.8237439434
  0
POLYLINE
  8
0
 62
9
  6
CONTINUOUS
 66
1
 70
0
  0
VERTEX
  8
0
 62
9
  6
CONTINUOUS
 10
86.067173469
 20
141.1813720215
  0
VERTEX
  8
0
 62
9
  6
CONTINUOUS
 10
85.9561614476
 20
141.1683816293
  0
VERTEX
  8
0
 62
9
  6
CONTINUOUS
 10
85.8508253842
 20
141.1311515437
  0
VERTEX
  8
0
 62
9
  6
CONTINUOUS
 10
85.7564058057
 20
141.0715265603
  0
VERTEX
  8
0
 62
9
  6
CONTINUOUS
 10
85.6776887311
 20
140.9925507652
  0
VERTEX
  8
0
 62
9
  6
CONTINUOUS
 10
85.6185162828
 20
140.8980823002
  0
VERTEX
  8
0
 62
9
  6
CONTINUOUS
 10
85.5819329924
 20
140.7930864535
  0
VERTEX
  8
0
 62
9
  6
CONTINUOUS
 10
85.5696313732
 20
140.6832746724
  0
SEQEND
  0
LINE
  8
DEFAULT_2
 62
8
  6
HIDDEN
 10
77.3478963444
 20
141.323541223
 11
77.340018887
 21
141.3227143056
  0
LINE
  8
DEFAULT_2
 62
8
  6
HIDDEN
 10
78.0421923073
 20
140.8652202791
 11
78.0371872504
 21
140.8647005867
  0
LINE
  8
DEFAULT_2
 62
8
  6
HIDDEN
 10
68.1239917051
 20
140.7453880648
 11
67.7894615612
 21
140.7108006069
  0
POLYLINE
  8
0
 62
9
  6
CONTINUOUS
 66
1
 70
0
  0
VERTEX
  8
0
 62
9
  6
CONTINUOUS
 10
68.8038445335
 20
140.7108006069
  0
VERTEX
  8
0
 62
9
  6
CONTINUOUS
 10
69.1413578041
 20
140.7447974933
  0
VERTEX
  8
0
 62
9
  6
CONTINUOUS
 10
69.5345265565
 20
140.7831211919
  0
VERTEX
  8
0
 62
9
  6
CONTINUOUS
 10
69.9678402313
 20
140.8237875224
  0
VERTEX
  8
0
 62
9
  6
CONTINUOUS
 10
70.4235956988
 20
140.8647288397
  0
VERTEX
  8
0
 62
9
  6
CONTINUOUS
 10
70.882619044
 20
140.90390625
  0
SEQEND
  0
LINE
  8
DEFAULT_2
 62
8
  6
HIDDEN
 10
77.7630515717
 20
141.364473418
 11
77.7573762891
 21
141.3639467138
  0
LINE
  8
DEFAULT_2
 62
8
  6
HIDDEN
 10
69.5432644244
 20
140.7839575216
 11
69.5345265565
 21
140.7831211919
  0
LINE
  8
0
 62
9
  6
CONTINUOUS
 10
68.5041357561
 20
140.6832746733
 11
68.8038445335
 21
140.7108006069
  0
LINE
  8
DEFAULT_2
 62
8
  6
HIDDEN
 10
67.7894615612
 20
140.7108006069
 11
67.4897527838
 21
140.6832746733
  0
LINE
  8
DEFAULT_2
 62
8
  6
HIDDEN
 10
70.4295211145
 20
140.8652482057
 11
70.4235956988
 21
140.8647288397
  0
LINE
  8
0
 62
9
  6
CONTINUOUS
 10
77.7573762891
 20
141.3639467138
 11
78.2095576555
 21
141.4033381439
  0
LINE
  8
0
 62
9
  6
CONTINUOUS
 10
74.5703385351
 20
141.208897956
 11
74.5244523477
 21
141.2053720572
  0
LINE
  8
0
 62
9
  6
CONTINUOUS
 10
70.4275546614
 20
141.3639754838
 11
70.9423609743
 21
141.4033380328
  0
LINE
  8
0
 62
9
  6
CONTINUOUS
 10
74.3851384309
 20
141.1813720215
 11
74.33958379
 21
141.1778997169
  0
LINE
  8
0
 62
7
  6
CONTINUOUS
 10
69.8891952431
 20
141.4033373731
 11
69.8981772348
 21
141.4038446588
  0
LINE
  8
0
 62
9
  6
CONTINUOUS
 10
67.9018215878
 20
141.208897956
 11
67.8982425409
 21
141.2087052104
  0
LINE
  8
0
 62
9
  6
CONTINUOUS
 10
67.6021227042
 20
141.1813720215
 11
67.5986804682
 21
141.1811927233
  0
POLYLINE
  8
0
 62
7
  6
CONTINUOUS
 66
1
 70
0
  0
VERTEX
  8
0
 62
7
  6
CONTINUOUS
 10
85.5068786485
 20
141.4033372927
  0
VERTEX
  8
0
 62
7
  6
CONTINUOUS
 10
85.5144391233
 20
141.4036558759
  0
VERTEX
  8
0
 62
7
  6
CONTINUOUS
 10
85.5226948973
 20
141.4038446585
  0
VERTEX
  8
0
 62
7
  6
CONTINUOUS
 10
85.5315846798
 20
141.40390625
  0
SEQEND
  0
POLYLINE
  8
0
 62
7
  6
CONTINUOUS
 66
1
 70
0
  0
VERTEX
  8
0
 62
7
  6
CONTINUOUS
 10
75.4523459395
 20
141.4033373307
  0
VERTEX
  8
0
 62
7
  6
CONTINUOUS
 10
75.460183866
 20
141.4036558765
  0
VERTEX
  8
0
 62
7
  6
CONTINUOUS
 10
75.4676719115
 20
141.4038446587
  0
VERTEX
  8
0
 62
7
  6
CONTINUOUS
 10
75.4747812217
 20
141.40390625
  0
SEQEND
  0
LINE
  8
0
 62
7
  6
CONTINUOUS
 10
69.8981772348
 20
141.4038446588
 11
69.9007905646
 21
141.40390625
  0
LINE
  8
DEFAULT_2
 62
8
  6
HIDDEN
 10
75.4523459395
 20
141.40390625
 11
75.4747369328
 21
141.40390625
  0
LINE
  8
DEFAULT_2
 62
8
  6
HIDDEN
 10
78.1920838425
 20
141.40390625
 11
78.2095576555
 21
141.40390625
  0
LINE
  8
0
 62
7
  6
CONTINUOUS
 10
69.9007762759
 20
141.40390625
 11
75.4523459395
 21
141.40390625
  0
LINE
  8
0
 62
7
  6
CONTINUOUS
 10
75.4747369328
 20
141.40390625
 11
78.1920838425
 21
141.40390625
  0
LINE
  8
DEFAULT_2
 62
8
  6
HIDDEN
 10
85.5068786485
 20
141.40390625
 11
85.5315285122
 21
141.40390625
  0
LINE
  8
DEFAULT_2
 62
8
  6
HIDDEN
 10
88.8903503738
 20
141.40390625
 11
88.9148059803
 21
141.40390625
  0
LINE
  8
0
 62
7
  6
CONTINUOUS
 10
78.2095576555
 20
141.40390625
 11
85.5068786485
 21
141.40390625
  0
LINE
  8
0
 62
7
  6
CONTINUOUS
 10
85.5315285122
 20
141.40390625
 11
88.8903503738
 21
141.40390625
  0
LINE
  8
DEFAULT_2
 62
8
  6
HIDDEN
 10
98.9471413297
 20
141.40390625
 11
98.969528532
 21
141.40390625
  0
LINE
  8
0
 62
7
  6
CONTINUOUS
 10
88.9148059803
 20
141.40390625
 11
98.9471413297
 21
141.40390625
  0
LINE
  8
0
 62
7
  6
CONTINUOUS
 10
98.969528532
 20
141.40390625
 11
104.52109954
 21
141.40390625
  0
LINE
  8
0
 62
7
  6
CONTINUOUS
 10
104.5236977758
 20
141.4038446584
 11
104.5210844354
 21
141.40390625
  0
POLYLINE
  8
0
 62
7
  6
CONTINUOUS
 66
1
 70
0
  0
VERTEX
  8
0
 62
7
  6
CONTINUOUS
 10
98.969528532
 20
141.4033373603
  0
VERTEX
  8
0
 62
7
  6
CONTINUOUS
 10
98.9616911843
 20
141.4036558749
  0
VERTEX
  8
0
 62
7
  6
CONTINUOUS
 10
98.9542031127
 20
141.4038446583
  0
VERTEX
  8
0
 62
7
  6
CONTINUOUS
 10
98.9470937783
 20
141.40390625
  0
SEQEND
  0
POLYLINE
  8
0
 62
7
  6
CONTINUOUS
 66
1
 70
0
  0
VERTEX
  8
0
 62
7
  6
CONTINUOUS
 10
88.914972557
 20
141.4033382579
  0
VERTEX
  8
0
 62
7
  6
CONTINUOUS
 10
88.9074357139
 20
141.4036558811
  0
VERTEX
  8
0
 62
7
  6
CONTINUOUS
 10
88.8991800136
 20
141.4038446598
  0
VERTEX
  8
0
 62
7
  6
CONTINUOUS
 10
88.8902903202
 20
141.40390625
  0
SEQEND
  0
LINE
  8
0
 62
9
  6
CONTINUOUS
 10
106.8197522958
 20
141.1813720215
 11
106.8233435406
 21
141.1811790643
  0
LINE
  8
0
 62
9
  6
CONTINUOUS
 10
106.520053408
 20
141.2088979064
 11
106.5236324555
 21
141.2087051706
  0
LINE
  8
0
 62
7
  6
CONTINUOUS
 10
104.5326786787
 20
141.4033374437
 11
104.5236977758
 21
141.4038446584
  0
POLYLINE
  8
0
 62
9
  6
CONTINUOUS
 66
1
 70
0
  0
VERTEX
  8
0
 62
9
  6
CONTINUOUS
 10
103.4795145703
 20
141.4033377166
  0
VERTEX
  8
0
 62
9
  6
CONTINUOUS
 10
103.9894142894
 20
141.3643609351
  0
VERTEX
  8
0
 62
9
  6
CONTINUOUS
 10
104.4987078952
 20
141.3233650183
  0
VERTEX
  8
0
 62
9
  6
CONTINUOUS
 10
104.9856415788
 20
141.2823947024
  0
VERTEX
  8
0
 62
9
  6
CONTINUOUS
 10
105.4298838233
 20
141.2435504554
  0
SEQEND
  0
LINE
  8
0
 62
9
  6
CONTINUOUS
 10
100.0367365691
 20
141.1813720215
 11
100.0826711214
 21
141.1778434099
  0
LINE
  8
0
 62
9
  6
CONTINUOUS
 10
99.8515364621
 20
141.2088979061
 11
99.8974215382
 21
141.2053722213
  0
LINE
  8
DEFAULT_2
 62
8
  6
HIDDEN
 10
104.5033048753
 20
141.3229861775
 11
104.4987078952
 21
141.3233650183
  0
POLYLINE
  8
0
 62
9
  6
CONTINUOUS
 66
1
 70
0
  0
VERTEX
  8
0
 62
9
  6
CONTINUOUS
 10
103.539236321
 20
140.90390625
  0
VERTEX
  8
0
 62
9
  6
CONTINUOUS
 10
103.9939336523
 20
140.8651097673
  0
VERTEX
  8
0
 62
9
  6
CONTINUOUS
 10
104.4475121402
 20
140.8243869308
  0
VERTEX
  8
0
 62
9
  6
CONTINUOUS
 10
104.8809350415
 20
140.7837350977
  0
VERTEX
  8
0
 62
9
  6
CONTINUOUS
 10
105.2763853354
 20
140.7452073184
  0
VERTEX
  8
0
 62
9
  6
CONTINUOUS
 10
105.6180304665
 20
140.7108006069
  0
SEQEND
  0
LINE
  8
DEFAULT_2
 62
8
  6
HIDDEN
 10
103.9966334066
 20
140.8648731413
 11
103.9939336523
 21
140.8651097673
  0
POLYLINE
  8
0
 62
9
  6
CONTINUOUS
 66
1
 70
0
  0
VERTEX
  8
0
 62
9
  6
CONTINUOUS
 10
96.21231264
 20
141.4033377875
  0
VERTEX
  8
0
 62
9
  6
CONTINUOUS
 10
96.6603349145
 20
141.3643332361
  0
VERTEX
  8
0
 62
9
  6
CONTINUOUS
 10
97.0760711684
 20
141.3233217697
  0
VERTEX
  8
0
 62
9
  6
CONTINUOUS
 10
97.4441153777
 20
141.2823506224
  0
VERTEX
  8
0
 62
9
  6
CONTINUOUS
 10
97.7541341578
 20
141.2435209117
  0
VERTEX
  8
0
 62
9
  6
CONTINUOUS
 10
98.0008245752
 20
141.208897956
  0
SEQEND
  0
LINE
  8
DEFAULT_2
 62
8
  6
HIDDEN
 10
96.6629264206
 20
141.3640927085
 11
96.6603349145
 21
141.3643332361
  0
LINE
  8
0
 62
9
  6
CONTINUOUS
 10
105.6180304665
 20
140.7108006069
 11
105.9177392439
 21
140.6832746733
  0
LINE
  8
DEFAULT_2
 62
8
  6
HIDDEN
 10
106.9321222162
 20
140.6832746733
 11
106.6324134388
 21
140.7108006069
  0
POLYLINE
  8
0
 62
9
  6
CONTINUOUS
 66
1
 70
0
  0
VERTEX
  8
0
 62
9
  6
CONTINUOUS
 10
95.9827918963
 20
140.90390625
  0
VERTEX
  8
0
 62
9
  6
CONTINUOUS
 10
96.3810098112
 20
140.8650825564
  0
VERTEX
  8
0
 62
9
  6
CONTINUOUS
 10
96.7503463387
 20
140.8243444219
  0
VERTEX
  8
0
 62
9
  6
CONTINUOUS
 10
97.0773292898
 20
140.7836917249
  0
VERTEX
  8
0
 62
9
  6
CONTINUOUS
 10
97.3529676607
 20
140.7451781925
  0
VERTEX
  8
0
 62
9
  6
CONTINUOUS
 10
97.5727636151
 20
140.7108006069
  0
SEQEND
  0
LINE
  8
DEFAULT_2
 62
8
  6
HIDDEN
 10
96.3833077248
 20
140.8648439665
 11
96.3810098112
 21
140.8650825564
  0
LINE
  8
DEFAULT_2
 62
8
  6
HIDDEN
 10
97.0797074777
 20
141.3229400435
 11
97.0760711684
 21
141.3233217697
  0
LINE
  8
DEFAULT_2
 62
8
  6
HIDDEN
 10
106.2993308113
 20
140.745236761
 11
106.6324134388
 21
140.7108006069
  0
LINE
  8
DEFAULT_2
 62
8
  6
HIDDEN
 10
96.7535746948
 20
140.8239657508
 11
96.7503463387
 21
140.8243444219
  0
LINE
  8
DEFAULT_2
 62
8
  6
HIDDEN
 10
97.4474339567
 20
141.2819579115
 11
97.4441153777
 21
141.2823506224
  0
POLYLINE
  8
0
 62
9
  6
CONTINUOUS
 66
1
 70
0
  0
VERTEX
  8
0
 62
9
  6
CONTINUOUS
 10
88.354701531
 20
141.1813720215
  0
VERTEX
  8
0
 62
9
  6
CONTINUOUS
 10
88.4655570621
 20
141.1684182139
  0
VERTEX
  8
0
 62
9
  6
CONTINUOUS
 10
88.5707659444
 20
141.1312886748
  0
VERTEX
  8
0
 62
9
  6
CONTINUOUS
 10
88.6650853961
 20
141.0718336477
  0
VERTEX
  8
0
 62
9
  6
CONTINUOUS
 10
88.743815279
 20
140.9930159029
  0
VERTEX
  8
0
 62
9
  6
CONTINUOUS
 10
88.803032316
 20
140.8987630956
  0
VERTEX
  8
0
 62
9
  6
CONTINUOUS
 10
88.8397855966
 20
140.7937720432
  0
VERTEX
  8
0
 62
9
  6
CONTINUOUS
 10
88.8522436268
 20
140.6832746724
  0
SEQEND
  0
LINE
  8
DEFAULT_2
 62
8
  6
HIDDEN
 10
97.0802832843
 20
140.7833015585
 11
97.0773292898
 21
140.7836917249
  0
LINE
  8
DEFAULT_2
 62
8
  6
HIDDEN
 10
97.7560966034
 20
141.2432599633
 11
97.7541341578
 21
141.2435209117
  0
POLYLINE
  8
0
 62
9
  6
CONTINUOUS
 66
1
 70
0
  0
VERTEX
  8
0
 62
9
  6
CONTINUOUS
 10
88.3547403509
 20
141.2088979085
  0
VERTEX
  8
0
 62
9
  6
CONTINUOUS
 10
88.4836618481
 20
141.1913911052
  0
VERTEX
  8
0
 62
9
  6
CONTINUOUS
 10
88.6036839339
 20
141.141339528
  0
VERTEX
  8
0
 62
9
  6
CONTINUOUS
 10
88.7066789229
 20
141.0621325971
  0
VERTEX
  8
0
 62
9
  6
CONTINUOUS
 10
88.7856721804
 20
140.9591340783
  0
VERTEX
  8
0
 62
9
  6
CONTINUOUS
 10
88.8353144293
 20
140.839318856
  0
VERTEX
  8
0
 62
9
  6
CONTINUOUS
 10
88.85224399
 20
140.7108006069
  0
SEQEND
  0
LINE
  8
DEFAULT_2
 62
8
  6
HIDDEN
 10
97.354725579
 20
140.7449175717
 11
97.3529676607
 21
140.7451781925
  0
LINE
  8
0
 62
9
  6
CONTINUOUS
 10
97.5727636151
 20
140.7108006069
 11
97.7579938263
 21
140.6832746733
  0
LINE
  8
DEFAULT_2
 62
8
  6
HIDDEN
 10
100.4136829254
 20
140.6832746733
 11
100.2284527142
 21
140.7108006069
  0
POLYLINE
  8
0
 62
7
  6
CONTINUOUS
 66
1
 70
0
  0
VERTEX
  8
0
 62
7
  6
CONTINUOUS
 10
88.9148059803
 20
141.4033450776
  0
VERTEX
  8
0
 62
7
  6
CONTINUOUS
 10
89.0103642079
 20
141.3864392049
  0
VERTEX
  8
0
 62
7
  6
CONTINUOUS
 10
89.1008021962
 20
141.3467565404
  0
VERTEX
  8
0
 62
7
  6
CONTINUOUS
 10
89.1818530202
 20
141.2861782779
  0
VERTEX
  8
0
 62
7
  6
CONTINUOUS
 10
89.2496947987
 20
141.2075723019
  0
VERTEX
  8
0
 62
7
  6
CONTINUOUS
 10
89.3011317744
 20
141.1146557299
  0
VERTEX
  8
0
 62
7
  6
CONTINUOUS
 10
89.3337377442
 20
141.0118155118
  0
VERTEX
  8
0
 62
7
  6
CONTINUOUS
 10
89.3460559797
 20
140.90390625
  0
SEQEND
  0
POLYLINE
  8
0
 62
9
  6
CONTINUOUS
 66
1
 70
0
  0
VERTEX
  8
0
 62
9
  6
CONTINUOUS
 10
106.1128672495
 20
134.6264404785
  0
VERTEX
  8
0
 62
9
  6
CONTINUOUS
 10
106.0775348792
 20
134.6393942861
  0
VERTEX
  8
0
 62
9
  6
CONTINUOUS
 10
106.0419390395
 20
134.6765238252
  0
VERTEX
  8
0
 62
9
  6
CONTINUOUS
 10
106.0078535468
 20
134.7359788523
  0
VERTEX
  8
0
 62
9
  6
CONTINUOUS
 10
105.9769769533
 20
134.8147965971
  0
VERTEX
  8
0
 62
9
  6
CONTINUOUS
 10
105.9508479053
 20
134.9090494044
  0
VERTEX
  8
0
 62
9
  6
CONTINUOUS
 10
105.9307684685
 20
135.0140404568
  0
VERTEX
  8
0
 62
9
  6
CONTINUOUS
 10
105.9177392439
 20
135.1245378276
  0
SEQEND
  0
POLYLINE
  8
0
 62
9
  6
CONTINUOUS
 66
1
 70
0
  0
VERTEX
  8
0
 62
9
  6
CONTINUOUS
 10
105.8131443671
 20
134.5989146255
  0
VERTEX
  8
0
 62
9
  6
CONTINUOUS
 10
105.7718511257
 20
134.6164213816
  0
VERTEX
  8
0
 62
9
  6
CONTINUOUS
 10
105.7306044602
 20
134.6664729408
  0
VERTEX
  8
0
 62
9
  6
CONTINUOUS
 10
105.6921975254
 20
134.745679872
  0
VERTEX
  8
0
 62
9
  6
CONTINUOUS
 10
105.659231171
 20
134.8486783997
  0
VERTEX
  8
0
 62
9
  6
CONTINUOUS
 10
105.633937818
 20
134.9684936331
  0
VERTEX
  8
0
 62
9
  6
CONTINUOUS
 10
105.6180302847
 20
135.0970118931
  0
SEQEND
  0
LINE
  8
0
 62
9
  6
CONTINUOUS
 10
92.5731337811
 20
134.90390625
 11
92.5731337811
 21
140.90390625
  0
POLYLINE
  8
0
 62
9
  6
CONTINUOUS
 66
1
 70
0
  0
VERTEX
  8
0
 62
9
  6
CONTINUOUS
 10
91.8280242368
 20
134.40390625
  0
VERTEX
  8
0
 62
9
  6
CONTINUOUS
 10
91.8656380807
 20
134.4209433902
  0
VERTEX
  8
0
 62
9
  6
CONTINUOUS
 10
91.9006885697
 20
134.4708937036
  0
VERTEX
  8
0
 62
9
  6
CONTINUOUS
 10
91.9307870778
 20
134.5503530887
  0
VERTEX
  8
0
 62
9
  6
CONTINUOUS
 10
91.9538824558
 20
134.6539064769
  0
VERTEX
  8
0
 62
9
  6
CONTINUOUS
 10
91.9684008081
 20
134.7744968681
  0
VERTEX
  8
0
 62
9
  6
CONTINUOUS
 10
91.973352746
 20
134.90390625
  0
SEQEND
  0
POLYLINE
  8
0
 62
9
  6
CONTINUOUS
 66
1
 70
0
  0
VERTEX
  8
0
 62
9
  6
CONTINUOUS
 10
92.4095025244
 20
134.40390625
  0
VERTEX
  8
0
 62
9
  6
CONTINUOUS
 10
92.45185341
 20
134.4209433368
  0
VERTEX
  8
0
 62
9
  6
CONTINUOUS
 10
92.4913181527
 20
134.4708935479
  0
VERTEX
  8
0
 62
9
  6
CONTINUOUS
 10
92.5252072956
 20
134.5503528591
  0
VERTEX
  8
0
 62
9
  6
CONTINUOUS
 10
92.5512113495
 20
134.6539062497
  0
VERTEX
  8
0
 62
9
  6
CONTINUOUS
 10
92.5675581812
 20
134.7744967273
  0
VERTEX
  8
0
 62
9
  6
CONTINUOUS
 10
92.5731337811
 20
134.90390625
  0
SEQEND
  0
LINE
  8
DEFAULT_2
 62
8
  6
HIDDEN
 10
99.5298429374
 20
134.9428807162
 11
99.666884794
 21
134.9837100845
  0
LINE
  8
DEFAULT_2
 62
8
  6
HIDDEN
 10
74.5244377429
 20
141.2053698858
 11
74.4669376558
 21
141.1913911065
  0
LINE
  8
DEFAULT_2
 62
8
  6
HIDDEN
 10
74.5814646429
 20
140.783210526
 11
74.7572372501
 21
140.8246923514
  0
POLYLINE
  8
0
 62
9
  6
CONTINUOUS
 66
1
 70
0
  0
VERTEX
  8
0
 62
9
  6
CONTINUOUS
 10
75.2014997803
 20
141.3236757196
  0
VERTEX
  8
0
 62
9
  6
CONTINUOUS
 10
75.009530848
 20
141.2827131195
  0
VERTEX
  8
0
 62
9
  6
CONTINUOUS
 10
74.7922422167
 20
141.2437651593
  0
VERTEX
  8
0
 62
9
  6
CONTINUOUS
 10
74.5703385351
 20
141.208897956
  0
SEQEND
  0
LINE
  8
DEFAULT_2
 62
8
  6
HIDDEN
 10
75.0051538954
 20
141.2818653631
 11
75.009530848
 21
141.2827131195
  0
LINE
  8
DEFAULT_2
 62
8
  6
HIDDEN
 10
74.3883678437
 20
140.7448568636
 11
74.5853623509
 21
140.7840484187
  0
LINE
  8
DEFAULT_2
 62
8
  6
HIDDEN
 10
74.7888393596
 20
141.2431983552
 11
74.7922422167
 21
141.2437651593
  0
LINE
  8
DEFAULT_2
 62
8
  6
HIDDEN
 10
74.3914022075
 20
140.7454189694
 11
74.1934222858
 21
140.7108006069
  0
LINE
  8
DEFAULT_2
 62
8
  6
HIDDEN
 10
74.7098197712
 20
141.2342571345
 11
74.7086232535
 21
141.2340706858
  0
POLYLINE
  8
0
 62
9
  6
CONTINUOUS
 66
1
 70
0
  0
VERTEX
  8
0
 62
9
  6
CONTINUOUS
 10
74.5417692064
 20
141.40390625
  0
VERTEX
  8
0
 62
9
  6
CONTINUOUS
 10
74.4385578133
 20
141.3868691217
  0
VERTEX
  8
0
 62
9
  6
CONTINUOUS
 10
74.3423801767
 20
141.3369188305
  0
VERTEX
  8
0
 62
9
  6
CONTINUOUS
 10
74.2597906304
 20
141.2574594611
  0
VERTEX
  8
0
 62
9
  6
CONTINUOUS
 10
74.196417485
 20
141.1539060722
  0
VERTEX
  8
0
 62
9
  6
CONTINUOUS
 10
74.1880298823
 20
141.1285166367
  0
SEQEND
  0
POLYLINE
  8
0
 62
9
  6
CONTINUOUS
 66
1
 70
0
  0
VERTEX
  8
0
 62
9
  6
CONTINUOUS
 10
74.1823958609
 20
141.40390625
  0
VERTEX
  8
0
 62
9
  6
CONTINUOUS
 10
74.0762569029
 20
141.3868691632
  0
VERTEX
  8
0
 62
9
  6
CONTINUOUS
 10
73.9773511393
 20
141.3369189522
  0
VERTEX
  8
0
 62
9
  6
CONTINUOUS
 10
73.8924188345
 20
141.257459641
  0
VERTEX
  8
0
 62
9
  6
CONTINUOUS
 10
73.8272479847
 20
141.1539062504
  0
VERTEX
  8
0
 62
9
  6
CONTINUOUS
 10
73.7862798758
 20
141.0333157728
  0
VERTEX
  8
0
 62
9
  6
CONTINUOUS
 10
73.7723064168
 20
140.90390625
  0
SEQEND
  0
POLYLINE
  8
0
 62
7
  6
CONTINUOUS
 66
1
 70
0
  0
VERTEX
  8
0
 62
7
  6
CONTINUOUS
 10
75.452541919
 20
141.4033450691
  0
VERTEX
  8
0
 62
7
  6
CONTINUOUS
 10
75.3465191249
 20
141.3864391411
  0
VERTEX
  8
0
 62
7
  6
CONTINUOUS
 10
75.2576919054
 20
141.3526807748
  0
SEQEND
  0
LINE
  8
0
 62
7
  6
CONTINUOUS
 10
74.7098197712
 20
141.2342571345
 11
74.5244523484
 21
141.2053720523
  0
LINE
  8
0
 62
9
  6
CONTINUOUS
 10
76.2357871966
 20
141.1813720215
 11
76.4210504248
 21
141.208897956
  0
LINE
  8
0
 62
9
  6
CONTINUOUS
 10
74.5703385351
 20
141.208897956
 11
74.3851387022
 21
141.1813720215
  0
LINE
  8
0
 62
7
  6
CONTINUOUS
 10
74.5244377435
 20
141.2053698874
 11
74.3392021782
 21
141.1778431572
  0
LINE
  8
DEFAULT_2
 62
8
  6
HIDDEN
 10
71.3288793286
 20
141.40390625
 11
71.1994937725
 21
141.3868691632
  0
LINE
  8
DEFAULT_2
 62
8
  6
HIDDEN
 10
69.2221778288
 20
140.8647573321
 11
69.5630352035
 21
140.90390625
  0
LINE
  8
DEFAULT_2
 62
8
  6
HIDDEN
 10
69.2267585295
 20
140.8652762015
 11
68.8555752128
 21
140.8238315338
  0
LINE
  8
DEFAULT_2
 62
8
  6
HIDDEN
 10
68.4810287357
 20
140.783165627
 11
68.8629919423
 21
140.8246481333
  0
LINE
  8
DEFAULT_2
 62
8
  6
HIDDEN
 10
68.4888426766
 20
140.7840028699
 11
68.11862329
 21
140.7448269987
  0
LINE
  8
0
 62
9
  6
CONTINUOUS
 10
69.8891952431
 20
141.4033373731
 11
69.8797939795
 21
141.4025284865
  0
POLYLINE
  8
0
 62
7
  6
CONTINUOUS
 66
1
 70
0
  0
VERTEX
  8
0
 62
7
  6
CONTINUOUS
 10
69.8797939795
 20
141.4025284865
  0
VERTEX
  8
0
 62
7
  6
CONTINUOUS
 10
69.4651915415
 20
141.3597816979
  0
VERTEX
  8
0
 62
7
  6
CONTINUOUS
 10
68.9659366788
 20
141.3099743479
  0
VERTEX
  8
0
 62
7
  6
CONTINUOUS
 10
68.4257861723
 20
141.2579118694
  0
SEQEND
  0
LINE
  8
DEFAULT_2
 62
8
  6
HIDDEN
 10
69.4651915415
 20
141.3597816979
 11
69.508390015
 21
141.3640044968
  0
LINE
  8
0
 62
7
  6
CONTINUOUS
 10
68.4257861723
 20
141.2579118694
 11
67.5985306989
 21
141.1811789944
  0
POLYLINE
  8
0
 62
9
  6
CONTINUOUS
 66
1
 70
0
  0
VERTEX
  8
0
 62
9
  6
CONTINUOUS
 10
68.3090076163
 20
141.1813720215
  0
VERTEX
  8
0
 62
9
  6
CONTINUOUS
 10
68.9873598875
 20
141.2431381067
  0
VERTEX
  8
0
 62
9
  6
CONTINUOUS
 10
69.4290133002
 20
141.2817745398
  0
VERTEX
  8
0
 62
9
  6
CONTINUOUS
 10
69.9158101508
 20
141.3227586588
  0
VERTEX
  8
0
 62
9
  6
CONTINUOUS
 10
70.4275546614
 20
141.3639754838
  0
SEQEND
  0
LINE
  8
0
 62
7
  6
CONTINUOUS
 10
69.8893225844
 20
141.4033450704
 11
69.8797931616
 21
141.4025284866
  0
LINE
  8
DEFAULT_2
 62
8
  6
HIDDEN
 10
69.9258482515
 20
141.3235858966
 11
69.9158101508
 21
141.3227586588
  0
LINE
  8
0
 62
7
  6
CONTINUOUS
 10
104.5325523742
 20
141.4033450673
 11
104.5420819835
 21
141.4025284639
  0
LINE
  8
0
 62
9
  6
CONTINUOUS
 10
105.4298838233
 20
141.2435504554
 11
106.1128673764
 21
141.1813720215
  0
POLYLINE
  8
0
 62
7
  6
CONTINUOUS
 66
1
 70
0
  0
VERTEX
  8
0
 62
7
  6
CONTINUOUS
 10
106.8233435404
 20
141.1811790643
  0
VERTEX
  8
0
 62
7
  6
CONTINUOUS
 10
106.0000291248
 20
141.2575385516
  0
VERTEX
  8
0
 62
7
  6
CONTINUOUS
 10
105.4596454621
 20
141.3096108082
  0
VERTEX
  8
0
 62
7
  6
CONTINUOUS
 10
104.9600554313
 20
141.3594394072
  0
VERTEX
  8
0
 62
7
  6
CONTINUOUS
 10
104.542081166
 20
141.4025284638
  0
SEQEND
  0
LINE
  8
0
 62
9
  6
CONTINUOUS
 10
106.1492634663
 20
141.2433227296
 11
106.0000291248
 21
141.2575385516
  0
LINE
  8
0
 62
9
  6
CONTINUOUS
 10
104.5420645842
 20
141.402367934
 11
104.5326786787
 21
141.4033374437
  0
LINE
  8
DEFAULT_2
 62
8
  6
HIDDEN
 10
105.9351223349
 20
140.7837788787
 11
106.30179314
 21
140.7449794188
  0
LINE
  8
DEFAULT_2
 62
8
  6
HIDDEN
 10
105.5608657333
 20
140.8244297837
 11
105.9387146894
 21
140.7833939811
  0
LINE
  8
DEFAULT_2
 62
8
  6
HIDDEN
 10
105.1963437245
 20
140.8651371638
 11
105.5642548148
 21
140.8240566522
  0
LINE
  8
DEFAULT_2
 62
8
  6
HIDDEN
 10
105.1984161453
 20
140.864902422
 11
104.8588273608
 21
140.90390625
  0
POLYLINE
  8
DEFAULT_2
 62
8
  6
HIDDEN
 66
1
 70
0
  0
VERTEX
  8
DEFAULT_2
 62
8
  6
HIDDEN
 10
103.0929956714
 20
141.40390625
  0
VERTEX
  8
DEFAULT_2
 62
8
  6
HIDDEN
 10
103.2223812275
 20
141.3868691632
  0
VERTEX
  8
DEFAULT_2
 62
8
  6
HIDDEN
 10
103.342949372
 20
141.3369189522
  0
VERTEX
  8
DEFAULT_2
 62
8
  6
HIDDEN
 10
103.4464835851
 20
141.257459641
  0
VERTEX
  8
DEFAULT_2
 62
8
  6
HIDDEN
 10
103.5259281811
 20
141.1539062504
  0
VERTEX
  8
DEFAULT_2
 62
8
  6
HIDDEN
 10
103.575869142
 20
141.0333157728
  0
SEQEND
  0
LINE
  8
DEFAULT_2
 62
8
  6
HIDDEN
 10
100.08229121
 20
141.1778997169
 11
100.0824500194
 21
141.1778761918
  0
LINE
  8
0
 62
9
  6
CONTINUOUS
 10
98.0008245752
 20
141.208897956
 11
98.1860877865
 21
141.1813720215
  0
LINE
  8
0
 62
7
  6
CONTINUOUS
 10
100.0826711212
 20
141.1778434099
 11
99.8974372572
 21
141.2053698872
  0
LINE
  8
0
 62
9
  6
CONTINUOUS
 10
100.0367362822
 20
141.1813720215
 11
99.8515364649
 21
141.208897956
  0
POLYLINE
  8
0
 62
7
  6
CONTINUOUS
 66
1
 70
0
  0
VERTEX
  8
0
 62
7
  6
CONTINUOUS
 10
99.8974215382
 20
141.2053722213
  0
VERTEX
  8
0
 62
7
  6
CONTINUOUS
 10
99.7142284893
 20
141.233901225
  0
VERTEX
  8
0
 62
7
  6
CONTINUOUS
 10
99.53608321
 20
141.2648081609
  0
VERTEX
  8
0
 62
7
  6
CONTINUOUS
 10
99.3918543105
 20
141.2932557965
  0
VERTEX
  8
0
 62
7
  6
CONTINUOUS
 10
99.2810263636
 20
141.3185581058
  0
VERTEX
  8
0
 62
7
  6
CONTINUOUS
 10
99.2042553593
 20
141.3393632665
  0
VERTEX
  8
0
 62
7
  6
CONTINUOUS
 10
99.190676972
 20
141.3435595402
  0
SEQEND
  0
POLYLINE
  8
0
 62
9
  6
CONTINUOUS
 66
1
 70
0
  0
VERTEX
  8
0
 62
9
  6
CONTINUOUS
 10
99.8515364649
 20
141.208897956
  0
VERTEX
  8
0
 62
9
  6
CONTINUOUS
 10
99.6320976139
 20
141.2433544847
  0
VERTEX
  8
0
 62
9
  6
CONTINUOUS
 10
99.4155117589
 20
141.282099285
  0
VERTEX
  8
0
 62
9
  6
CONTINUOUS
 10
99.2228888888
 20
141.3230791163
  0
SEQEND
  0
LINE
  8
DEFAULT_2
 62
8
  6
HIDDEN
 10
99.6305606464
 20
141.2436104977
 11
99.6320976139
 21
141.2433544847
  0
POLYLINE
  8
0
 62
7
  6
CONTINUOUS
 66
1
 70
0
  0
VERTEX
  8
0
 62
7
  6
CONTINUOUS
 10
98.9693331266
 20
141.403345066
  0
VERTEX
  8
0
 62
7
  6
CONTINUOUS
 10
99.075355862
 20
141.3864391476
  0
VERTEX
  8
0
 62
7
  6
CONTINUOUS
 10
99.1657804729
 20
141.3515962643
  0
SEQEND
  0
POLYLINE
  8
0
 62
9
  6
CONTINUOUS
 66
1
 70
0
  0
VERTEX
  8
0
 62
9
  6
CONTINUOUS
 10
100.2394791391
 20
141.40390625
  0
VERTEX
  8
0
 62
9
  6
CONTINUOUS
 10
100.345618207
 20
141.3868691273
  0
VERTEX
  8
0
 62
9
  6
CONTINUOUS
 10
100.4445240092
 20
141.3369188476
  0
VERTEX
  8
0
 62
9
  6
CONTINUOUS
 10
100.5294562918
 20
141.2574594871
  0
VERTEX
  8
0
 62
9
  6
CONTINUOUS
 10
100.5946270873
 20
141.1539060982
  0
VERTEX
  8
0
 62
9
  6
CONTINUOUS
 10
100.6355951448
 20
141.0333156786
  0
VERTEX
  8
0
 62
9
  6
CONTINUOUS
 10
100.6495685831
 20
140.90390625
  0
SEQEND
  0
POLYLINE
  8
0
 62
9
  6
CONTINUOUS
 66
1
 70
0
  0
VERTEX
  8
0
 62
9
  6
CONTINUOUS
 10
99.8801057936
 20
141.40390625
  0
VERTEX
  8
0
 62
9
  6
CONTINUOUS
 10
99.983317063
 20
141.3868691632
  0
VERTEX
  8
0
 62
9
  6
CONTINUOUS
 10
100.0794946552
 20
141.3369189522
  0
VERTEX
  8
0
 62
9
  6
CONTINUOUS
 10
100.1620842261
 20
141.257459641
  0
VERTEX
  8
0
 62
9
  6
CONTINUOUS
 10
100.2254574329
 20
141.1539062504
  0
VERTEX
  8
0
 62
9
  6
CONTINUOUS
 10
100.2347146726
 20
141.1258844323
  0
SEQEND
  0
LINE
  8
DEFAULT_2
 62
8
  6
HIDDEN
 10
100.0312952041
 20
140.7452665099
 11
100.2284527142
 21
140.7108006069
  0
LINE
  8
DEFAULT_2
 62
8
  6
HIDDEN
 10
99.4135250869
 20
141.2824840884
 11
99.4155117589
 21
141.282099285
  0
LINE
  8
DEFAULT_2
 62
8
  6
HIDDEN
 10
99.8375596099
 20
140.7838230507
 11
100.0326760822
 21
140.7450107082
  0
LINE
  8
DEFAULT_2
 62
8
  6
HIDDEN
 10
99.2213144194
 20
141.323452543
 11
99.2228888888
 21
141.3230791163
  0
POLYLINE
  8
DEFAULT_2
 62
8
  6
HIDDEN
 66
1
 70
0
  0
VERTEX
  8
DEFAULT_2
 62
8
  6
HIDDEN
 10
99.8974372571
 20
141.2053698859
  0
VERTEX
  8
DEFAULT_2
 62
8
  6
HIDDEN
 10
99.9549373447
 20
141.1913911082
  0
VERTEX
  8
DEFAULT_2
 62
8
  6
HIDDEN
 10
100.049467603
 20
141.1413395351
  0
VERTEX
  8
DEFAULT_2
 62
8
  6
HIDDEN
 10
100.1287258137
 20
141.0621326061
  0
VERTEX
  8
DEFAULT_2
 62
8
  6
HIDDEN
 10
100.1873447537
 20
140.9591340863
  0
VERTEX
  8
DEFAULT_2
 62
8
  6
HIDDEN
 10
100.2213548569
 20
140.8393188607
  0
VERTEX
  8
DEFAULT_2
 62
8
  6
HIDDEN
 10
100.2284530233
 20
140.7108006069
  0
SEQEND
  0
POLYLINE
  8
DEFAULT_2
 62
8
  6
HIDDEN
 66
1
 70
0
  0
VERTEX
  8
DEFAULT_2
 62
8
  6
HIDDEN
 10
99.6668847938
 20
140.8241024157
  0
VERTEX
  8
DEFAULT_2
 62
8
  6
HIDDEN
 10
99.5298429372
 20
140.8649317839
  0
VERTEX
  8
DEFAULT_2
 62
8
  6
HIDDEN
 10
99.4375251805
 20
140.90390625
  0
SEQEND
  0
POLYLINE
  8
0
 62
9
  6
CONTINUOUS
 66
1
 70
0
  0
VERTEX
  8
0
 62
9
  6
CONTINUOUS
 10
92.4095025244
 20
141.40390625
  0
VERTEX
  8
0
 62
9
  6
CONTINUOUS
 10
92.4518534607
 20
141.3868691217
  0
VERTEX
  8
0
 62
9
  6
CONTINUOUS
 10
92.4913182216
 20
141.3369188305
  0
VERTEX
  8
0
 62
9
  6
CONTINUOUS
 10
92.5252073544
 20
141.2574594611
  0
VERTEX
  8
0
 62
9
  6
CONTINUOUS
 10
92.5512113832
 20
141.1539060722
  0
VERTEX
  8
0
 62
9
  6
CONTINUOUS
 10
92.5675581909
 20
141.0333156626
  0
VERTEX
  8
0
 62
9
  6
CONTINUOUS
 10
92.5731337811
 20
140.90390625
  0
SEQEND
  0
POLYLINE
  8
0
 62
9
  6
CONTINUOUS
 66
1
 70
0
  0
VERTEX
  8
0
 62
9
  6
CONTINUOUS
 10
91.8280242368
 20
141.40390625
  0
VERTEX
  8
0
 62
9
  6
CONTINUOUS
 10
91.8656380226
 20
141.3868691632
  0
VERTEX
  8
0
 62
9
  6
CONTINUOUS
 10
91.9006884912
 20
141.3369189522
  0
VERTEX
  8
0
 62
9
  6
CONTINUOUS
 10
91.930787011
 20
141.257459641
  0
VERTEX
  8
0
 62
9
  6
CONTINUOUS
 10
91.9538824176
 20
141.1539062504
  0
VERTEX
  8
0
 62
9
  6
CONTINUOUS
 10
91.9684007971
 20
141.0333157728
  0
VERTEX
  8
0
 62
9
  6
CONTINUOUS
 10
91.973352746
 20
140.90390625
  0
SEQEND
  0
LINE
  8
0
 62
9
  6
CONTINUOUS
 10
98.9695285324
 20
134.4044751401
 11
99.0706854371
 21
134.4436303855
  0
LINE
  8
DEFAULT_2
 62
8
  6
HIDDEN
 10
99.1641830483
 20
134.4551317201
 11
99.1657802366
 21
134.4562161739
  0
LINE
  8
DEFAULT_2
 62
8
  6
HIDDEN
 10
99.1642030868
 20
134.4551383919
 11
99.166007733
 21
134.4557512872
  0
LINE
  8
0
 62
9
  6
CONTINUOUS
 10
100.0367365691
 20
134.6264404785
 11
100.1130014851
 21
134.652254059
  0
POLYLINE
  8
0
 62
7
  6
CONTINUOUS
 66
1
 70
0
  0
VERTEX
  8
0
 62
7
  6
CONTINUOUS
 10
99.1641830483
 20
134.4551317201
  0
VERTEX
  8
0
 62
7
  6
CONTINUOUS
 10
99.2034774424
 20
134.4682147694
  0
VERTEX
  8
0
 62
7
  6
CONTINUOUS
 10
99.279843008
 20
134.4889600318
  0
VERTEX
  8
0
 62
7
  6
CONTINUOUS
 10
99.3903171847
 20
134.5142306347
  0
VERTEX
  8
0
 62
7
  6
CONTINUOUS
 10
99.5342188219
 20
134.5426595311
  0
VERTEX
  8
0
 62
7
  6
CONTINUOUS
 10
99.712054323
 20
134.5735552212
  0
SEQEND
  0
POLYLINE
  8
DEFAULT_2
 62
8
  6
HIDDEN
 66
1
 70
0
  0
VERTEX
  8
DEFAULT_2
 62
8
  6
HIDDEN
 10
99.6654724783
 20
134.9833395381
  0
VERTEX
  8
DEFAULT_2
 62
8
  6
HIDDEN
 10
99.5291733606
 20
134.9426477676
  0
VERTEX
  8
DEFAULT_2
 62
8
  6
HIDDEN
 10
99.4375249893
 20
134.90390625
  0
SEQEND
  0
LINE
  8
0
 62
9
  6
CONTINUOUS
 10
75.3523790198
 20
141.3645588654
 11
75.2014997803
 21
141.3236757196
  0
LINE
  8
DEFAULT_2
 62
8
  6
HIDDEN
 10
75.1980128545
 20
141.3228486403
 11
75.2014997803
 21
141.3236757196
  0
LINE
  8
DEFAULT_2
 62
8
  6
HIDDEN
 10
74.3392038692
 20
141.1778434085
 11
74.2279052472
 21
141.1478720121
  0
LINE
  8
DEFAULT_2
 62
8
  6
HIDDEN
 10
69.8797931616
 20
141.4025284866
 11
69.813332189
 21
141.3864391473
  0
POLYLINE
  8
0
 62
9
  6
CONTINUOUS
 66
1
 70
0
  0
VERTEX
  8
0
 62
9
  6
CONTINUOUS
 10
67.6021227042
 20
141.1813720215
  0
VERTEX
  8
0
 62
9
  6
CONTINUOUS
 10
67.485524541
 20
141.155558441
  0
VERTEX
  8
0
 62
9
  6
CONTINUOUS
 10
67.3785814131
 20
141.1010185781
  0
VERTEX
  8
0
 62
9
  6
CONTINUOUS
 10
67.2877980506
 20
141.0210697762
  0
VERTEX
  8
0
 62
9
  6
CONTINUOUS
 10
67.218696279
 20
140.9205748573
  0
VERTEX
  8
0
 62
9
  6
CONTINUOUS
 10
67.1754791583
 20
140.8056463444
  0
VERTEX
  8
0
 62
9
  6
CONTINUOUS
 10
67.1607753353
 20
140.6832746724
  0
SEQEND
  0
POLYLINE
  8
DEFAULT_2
 62
8
  6
HIDDEN
 66
1
 70
0
  0
VERTEX
  8
DEFAULT_2
 62
8
  6
HIDDEN
 10
67.5985314587
 20
141.1811790642
  0
VERTEX
  8
DEFAULT_2
 62
8
  6
HIDDEN
 10
67.4854345454
 20
141.1573781085
  0
VERTEX
  8
DEFAULT_2
 62
8
  6
HIDDEN
 10
67.3899025971
 20
141.1137414655
  0
VERTEX
  8
DEFAULT_2
 62
8
  6
HIDDEN
 10
67.3048965377
 20
141.0504688595
  0
VERTEX
  8
DEFAULT_2
 62
8
  6
HIDDEN
 10
67.2328278208
 20
140.9673917396
  0
VERTEX
  8
DEFAULT_2
 62
8
  6
HIDDEN
 10
67.1805554405
 20
140.8702957768
  0
VERTEX
  8
DEFAULT_2
 62
8
  6
HIDDEN
 10
67.1499906938
 20
140.7587504083
  0
VERTEX
  8
DEFAULT_2
 62
8
  6
HIDDEN
 10
67.144261289
 20
140.6832746724
  0
SEQEND
  0
POLYLINE
  8
0
 62
7
  6
CONTINUOUS
 66
1
 70
0
  0
VERTEX
  8
0
 62
7
  6
CONTINUOUS
 10
106.8233435413
 20
141.1811790642
  0
VERTEX
  8
0
 62
7
  6
CONTINUOUS
 10
106.9364404546
 20
141.1573781085
  0
VERTEX
  8
0
 62
7
  6
CONTINUOUS
 10
107.0319724029
 20
141.1137414655
  0
VERTEX
  8
0
 62
7
  6
CONTINUOUS
 10
107.1169784623
 20
141.0504688595
  0
VERTEX
  8
0
 62
7
  6
CONTINUOUS
 10
107.1890471792
 20
140.9673917396
  0
VERTEX
  8
0
 62
7
  6
CONTINUOUS
 10
107.2413195595
 20
140.8702957768
  0
VERTEX
  8
0
 62
7
  6
CONTINUOUS
 10
107.2718843062
 20
140.7587504083
  0
VERTEX
  8
0
 62
7
  6
CONTINUOUS
 10
107.277613711
 20
140.6832746724
  0
SEQEND
  0
LINE
  8
0
 62
9
  6
CONTINUOUS
 10
106.936350459
 20
141.155558441
 11
106.8197522958
 21
141.1813720215
  0
POLYLINE
  8
0
 62
9
  6
CONTINUOUS
 66
1
 70
0
  0
VERTEX
  8
0
 62
9
  6
CONTINUOUS
 10
106.1128672495
 20
141.1813720215
  0
VERTEX
  8
0
 62
9
  6
CONTINUOUS
 10
106.2252621246
 20
141.155558441
  0
VERTEX
  8
0
 62
9
  6
CONTINUOUS
 10
106.3283500222
 20
141.1010185781
  0
VERTEX
  8
0
 62
9
  6
CONTINUOUS
 10
106.4158607034
 20
141.0210697762
  0
VERTEX
  8
0
 62
9
  6
CONTINUOUS
 10
106.482471401
 20
140.9205748573
  0
VERTEX
  8
0
 62
9
  6
CONTINUOUS
 10
106.5241305725
 20
140.8056463444
  0
VERTEX
  8
0
 62
9
  6
CONTINUOUS
 10
106.5383043322
 20
140.6832746724
  0
SEQEND
  0
POLYLINE
  8
DEFAULT_2
 62
8
  6
HIDDEN
 66
1
 70
0
  0
VERTEX
  8
DEFAULT_2
 62
8
  6
HIDDEN
 10
104.5420819835
 20
141.4025284639
  0
VERTEX
  8
DEFAULT_2
 62
8
  6
HIDDEN
 10
104.6085428435
 20
141.3864391537
  0
VERTEX
  8
DEFAULT_2
 62
8
  6
HIDDEN
 10
104.6795340816
 20
141.3467564551
  0
VERTEX
  8
DEFAULT_2
 62
8
  6
HIDDEN
 10
104.7421778052
 20
141.2861781608
  0
VERTEX
  8
DEFAULT_2
 62
8
  6
HIDDEN
 10
104.7935219643
 20
141.207572148
  0
VERTEX
  8
DEFAULT_2
 62
8
  6
HIDDEN
 10
104.8311531566
 20
141.1146555155
  0
VERTEX
  8
DEFAULT_2
 62
8
  6
HIDDEN
 10
104.8533215343
 20
141.0118151251
  0
VERTEX
  8
DEFAULT_2
 62
8
  6
HIDDEN
 10
104.8588683771
 20
140.90390625
  0
SEQEND
  0
POLYLINE
  8
0
 62
7
  6
CONTINUOUS
 66
1
 70
0
  0
VERTEX
  8
0
 62
7
  6
CONTINUOUS
 10
100.0826711308
 20
141.1778434085
  0
VERTEX
  8
0
 62
7
  6
CONTINUOUS
 10
100.1939697528
 20
141.1478720121
  0
VERTEX
  8
0
 62
7
  6
CONTINUOUS
 10
100.2960752619
 20
141.0927718172
  0
VERTEX
  8
0
 62
7
  6
CONTINUOUS
 10
100.3842184962
 20
141.0139436112
  0
VERTEX
  8
0
 62
7
  6
CONTINUOUS
 10
100.452672954
 20
140.9141622155
  0
VERTEX
  8
0
 62
7
  6
CONTINUOUS
 10
100.4958072677
 20
140.7981157778
  0
VERTEX
  8
0
 62
7
  6
CONTINUOUS
 10
100.5091744045
 20
140.6832746724
  0
SEQEND
  0
POLYLINE
  8
0
 62
9
  6
CONTINUOUS
 66
1
 70
0
  0
VERTEX
  8
0
 62
9
  6
CONTINUOUS
 10
99.2228888888
 20
141.3230791163
  0
VERTEX
  8
0
 62
9
  6
CONTINUOUS
 10
99.0706854319
 20
141.364182115
  0
VERTEX
  8
0
 62
9
  6
CONTINUOUS
 10
98.969528532
 20
141.4033373603
  0
SEQEND
  0
POLYLINE
  8
DEFAULT_2
 62
8
  6
HIDDEN
 66
1
 70
0
  0
VERTEX
  8
DEFAULT_2
 62
8
  6
HIDDEN
 10
99.5291733607
 20
140.8651647324
  0
VERTEX
  8
DEFAULT_2
 62
8
  6
HIDDEN
 10
99.6654724785
 20
140.8244729616
  0
VERTEX
  8
DEFAULT_2
 62
8
  6
HIDDEN
 10
99.8393386497
 20
140.78344062
  0
SEQEND
  0
LINE
  8
DEFAULT_2
 62
8
  6
HIDDEN
 10
99.1905127213
 20
141.3436160217
 11
99.1900140221
 21
141.3437705896
  0
LINE
  8
0
 62
9
  6
CONTINUOUS
 10
100.1130014851
 20
141.155558441
 11
100.0367365691
 21
141.1813720215
  0
POLYLINE
  8
0
 62
7
  6
CONTINUOUS
 66
1
 70
0
  0
VERTEX
  8
0
 62
7
  6
CONTINUOUS
 10
99.190676972
 20
141.3435595402
  0
VERTEX
  8
0
 62
7
  6
CONTINUOUS
 10
99.1644470448
 20
141.3525793144
  0
VERTEX
  8
0
 62
7
  6
CONTINUOUS
 10
99.1657805471
 20
141.3515962617
  0
SEQEND
  0
POLYLINE
  8
0
 62
9
  6
CONTINUOUS
 66
1
 70
0
  0
VERTEX
  8
0
 62
9
  6
CONTINUOUS
 10
98.1860874919
 20
141.1813720215
  0
VERTEX
  8
0
 62
9
  6
CONTINUOUS
 10
98.2513480568
 20
141.155558441
  0
VERTEX
  8
0
 62
9
  6
CONTINUOUS
 10
98.311204651
 20
141.1010185781
  0
VERTEX
  8
0
 62
9
  6
CONTINUOUS
 10
98.362016545
 20
141.0210697762
  0
VERTEX
  8
0
 62
9
  6
CONTINUOUS
 10
98.4006931461
 20
140.9205748573
  0
VERTEX
  8
0
 62
9
  6
CONTINUOUS
 10
98.4248819809
 20
140.8056463444
  0
VERTEX
  8
0
 62
9
  6
CONTINUOUS
 10
98.4331117829
 20
140.6832746724
  0
SEQEND
  0
LINE
  8
DEFAULT_2
 62
8
  6
HIDDEN
 10
99.1657803105
 20
134.4562161765
 11
99.1627300508
 21
134.454566274
  0
LINE
  8
DEFAULT_2
 62
8
  6
HIDDEN
 10
100.1939697528
 20
134.6599404879
 11
100.2960752619
 21
134.7150406828
  0
LINE
  8
DEFAULT_2
 62
8
  6
HIDDEN
 10
99.1658429884
 20
134.4562477395
 11
99.1625472911
 21
134.4544941224
  0
LINE
  8
DEFAULT_2
 62
8
  6
HIDDEN
 10
99.9549374026
 20
134.6164213806
 11
100.0494677101
 21
134.6664729383
  0
POLYLINE
  8
DEFAULT_2
 62
8
  6
HIDDEN
 66
1
 70
0
  0
VERTEX
  8
DEFAULT_2
 62
8
  6
HIDDEN
 10
100.125882145
 20
134.6394308707
  0
VERTEX
  8
DEFAULT_2
 62
8
  6
HIDDEN
 10
100.2091853962
 20
134.6766609563
  0
VERTEX
  8
DEFAULT_2
 62
8
  6
HIDDEN
 10
100.28251387
 20
134.7362859397
  0
VERTEX
  8
DEFAULT_2
 62
8
  6
HIDDEN
 10
100.3421357584
 20
134.8152617348
  0
VERTEX
  8
DEFAULT_2
 62
8
  6
HIDDEN
 10
100.3851754681
 20
134.9097301998
  0
VERTEX
  8
DEFAULT_2
 62
8
  6
HIDDEN
 10
100.4093581817
 20
135.0147260465
  0
VERTEX
  8
DEFAULT_2
 62
8
  6
HIDDEN
 10
100.4136829254
 20
135.1245378276
  0
SEQEND
  0
POLYLINE
  8
DEFAULT_2
 62
8
  6
HIDDEN
 66
1
 70
0
  0
VERTEX
  8
DEFAULT_2
 62
8
  6
HIDDEN
 10
103.2223812277
 20
134.4209433368
  0
VERTEX
  8
DEFAULT_2
 62
8
  6
HIDDEN
 10
103.3429493722
 20
134.4708935479
  0
VERTEX
  8
DEFAULT_2
 62
8
  6
HIDDEN
 10
103.4464835853
 20
134.5503528591
  0
VERTEX
  8
DEFAULT_2
 62
8
  6
HIDDEN
 10
103.5259281812
 20
134.6539062497
  0
VERTEX
  8
DEFAULT_2
 62
8
  6
HIDDEN
 10
103.575869142
 20
134.7744967273
  0
VERTEX
  8
DEFAULT_2
 62
8
  6
HIDDEN
 10
103.5929030737
 20
134.90390625
  0
SEQEND
  0
LINE
  8
0
 62
9
  6
CONTINUOUS
 10
72.2109375
 20
145.90390625
 11
102.2109375
 21
145.90390625
  0
POLYLINE
  8
DEFAULT_2
 62
8
  6
HIDDEN
 66
1
 70
0
  0
VERTEX
  8
DEFAULT_2
 62
8
  6
HIDDEN
 10
100.2465182537
 20
141.1233518344
  0
VERTEX
  8
DEFAULT_2
 62
8
  6
HIDDEN
 10
100.1470488809
 20
141.1638895237
  0
VERTEX
  8
DEFAULT_2
 62
8
  6
HIDDEN
 10
100.08229121
 20
141.1778997169
  0
SEQEND
  0
POLYLINE
  8
DEFAULT_2
 62
8
  6
HIDDEN
 66
1
 70
0
  0
VERTEX
  8
DEFAULT_2
 62
8
  6
HIDDEN
 10
100.1257554945
 20
141.1684182139
  0
VERTEX
  8
DEFAULT_2
 62
8
  6
HIDDEN
 10
100.208964938
 20
141.1312886748
  0
VERTEX
  8
DEFAULT_2
 62
8
  6
HIDDEN
 10
100.2822183967
 20
141.0718336477
  0
VERTEX
  8
DEFAULT_2
 62
8
  6
HIDDEN
 10
100.3418654954
 20
140.9930159029
  0
VERTEX
  8
DEFAULT_2
 62
8
  6
HIDDEN
 10
100.3849338926
 20
140.8987630956
  0
VERTEX
  8
DEFAULT_2
 62
8
  6
HIDDEN
 10
100.4092773988
 20
140.7937720432
  0
VERTEX
  8
DEFAULT_2
 62
8
  6
HIDDEN
 10
100.4136829254
 20
140.6832746724
  0
SEQEND
  0
LINE
  8
0
 62
9
  6
CONTINUOUS
 10
97.5727636151
 20
135.0970118931
 11
97.5727636151
 21
140.7108006069
  0
LINE
  8
0
 62
9
  6
CONTINUOUS
 10
97.7579938263
 20
140.6832746733
 11
97.7579938263
 21
135.1245378267
  0
POLYLINE
  8
0
 62
9
  6
CONTINUOUS
 66
1
 70
0
  0
VERTEX
  8
0
 62
9
  6
CONTINUOUS
 10
100.1130014851
 20
134.652254059
  0
VERTEX
  8
0
 62
9
  6
CONTINUOUS
 10
100.1829512034
 20
134.7067939219
  0
VERTEX
  8
0
 62
9
  6
CONTINUOUS
 10
100.2423310884
 20
134.7867427238
  0
VERTEX
  8
0
 62
9
  6
CONTINUOUS
 10
100.2875294059
 20
134.8872376427
  0
VERTEX
  8
0
 62
9
  6
CONTINUOUS
 10
100.3157970045
 20
135.0021661556
  0
VERTEX
  8
0
 62
9
  6
CONTINUOUS
 10
100.3254145302
 20
135.1245378276
  0
SEQEND
  0
POLYLINE
  8
DEFAULT_2
 62
8
  6
HIDDEN
 66
1
 70
0
  0
VERTEX
  8
DEFAULT_2
 62
8
  6
HIDDEN
 10
99.1658429147
 20
134.4562477368
  0
VERTEX
  8
DEFAULT_2
 62
8
  6
HIDDEN
 10
99.2639322912
 20
134.5216343518
  0
VERTEX
  8
DEFAULT_2
 62
8
  6
HIDDEN
 10
99.3375929425
 20
134.6002403686
  0
VERTEX
  8
DEFAULT_2
 62
8
  6
HIDDEN
 10
99.39263958
 20
134.6931570074
  0
VERTEX
  8
DEFAULT_2
 62
8
  6
HIDDEN
 10
99.426490609
 20
134.7959974157
  0
VERTEX
  8
DEFAULT_2
 62
8
  6
HIDDEN
 10
99.4375344243
 20
134.90390625
  0
SEQEND
  0
LINE
  8
DEFAULT_2
 62
8
  6
HIDDEN
 10
106.8233435413
 20
134.6266334358
 11
106.8529324115
 21
134.6393942861
  0
LINE
  8
0
 62
7
  6
CONTINUOUS
 10
74.2109375
 20
147.90390625
 11
100.2109375
 21
147.90390625
  0
LINE
  8
DEFAULT_2
 62
8
  6
HIDDEN
 10
106.8232141088
 20
141.1811909349
 11
106.852980846
 21
141.1683816293
  0
LINE
  8
DEFAULT_2
 62
8
  6
HIDDEN
 10
99.1641830839
 20
141.3526808077
 11
99.2639322948
 21
141.286178147
  0
LINE
  8
DEFAULT_2
 62
8
  6
HIDDEN
 10
100.3350072379
 20
141.0625278597
 11
100.2465182537
 21
141.1233518344
  0
LINE
  8
0
 62
9
  6
CONTINUOUS
 10
98.4331117829
 20
140.6832746724
 11
98.4331117829
 21
135.1245378276
  0
LINE
  8
DEFAULT_2
 62
8
  6
HIDDEN
 10
99.3881274894
 20
140.90390625
 11
99.3881274894
 21
134.90390625
  0
POLYLINE
  8
0
 62
9
  6
CONTINUOUS
 66
1
 70
0
  0
VERTEX
  8
0
 62
9
  6
CONTINUOUS
 10
98.4331117829
 20
135.1245378276
  0
VERTEX
  8
0
 62
9
  6
CONTINUOUS
 10
98.4248819809
 20
135.0021661556
  0
VERTEX
  8
0
 62
9
  6
CONTINUOUS
 10
98.4006931461
 20
134.8872376427
  0
VERTEX
  8
0
 62
9
  6
CONTINUOUS
 10
98.362016545
 20
134.7867427238
  0
VERTEX
  8
0
 62
9
  6
CONTINUOUS
 10
98.311204651
 20
134.7067939219
  0
VERTEX
  8
0
 62
9
  6
CONTINUOUS
 10
98.2513480568
 20
134.652254059
  0
VERTEX
  8
0
 62
9
  6
CONTINUOUS
 10
98.1860874919
 20
134.6264404785
  0
SEQEND
  0
LINE
  8
DEFAULT_2
 62
8
  6
HIDDEN
 10
100.0494677101
 20
134.6664729383
 11
100.1287259552
 21
134.7456798688
  0
LINE
  8
DEFAULT_2
 62
8
  6
HIDDEN
 10
100.2960752619
 20
134.7150406828
 11
100.3842184962
 21
134.7938688888
  0
LINE
  8
DEFAULT_2
 62
8
  6
HIDDEN
 10
103.4795145039
 20
134.4044749687
 11
103.4790642699
 21
134.4041566237
  0
POLYLINE
  8
0
 62
7
  6
CONTINUOUS
 66
1
 70
0
  0
VERTEX
  8
0
 62
7
  6
CONTINUOUS
 10
103.4795145653
 20
134.4044747831
  0
VERTEX
  8
0
 62
7
  6
CONTINUOUS
 10
103.4790642776
 20
134.4041566188
  0
VERTEX
  8
0
 62
7
  6
CONTINUOUS
 10
103.4803064858
 20
134.4039678402
  0
VERTEX
  8
0
 62
7
  6
CONTINUOUS
 10
103.4831873134
 20
134.40390625
  0
SEQEND
  0
POLYLINE
  8
DEFAULT_2
 62
8
  6
HIDDEN
 66
1
 70
0
  0
VERTEX
  8
DEFAULT_2
 62
8
  6
HIDDEN
 10
104.6085428421
 20
134.4213733459
  0
VERTEX
  8
DEFAULT_2
 62
8
  6
HIDDEN
 10
104.6795340758
 20
134.4610560441
  0
VERTEX
  8
DEFAULT_2
 62
8
  6
HIDDEN
 10
104.7421777938
 20
134.521634338
  0
VERTEX
  8
DEFAULT_2
 62
8
  6
HIDDEN
 10
104.793521945
 20
134.6002403505
  0
VERTEX
  8
DEFAULT_2
 62
8
  6
HIDDEN
 10
104.8311531229
 20
134.6931569823
  0
VERTEX
  8
DEFAULT_2
 62
8
  6
HIDDEN
 10
104.8533214603
 20
134.7959973708
  0
VERTEX
  8
DEFAULT_2
 62
8
  6
HIDDEN
 10
104.8588683777
 20
134.90390625
  0
SEQEND
  0
POLYLINE
  8
DEFAULT_2
 62
8
  6
HIDDEN
 66
1
 70
0
  0
VERTEX
  8
DEFAULT_2
 62
8
  6
HIDDEN
 10
106.5236333184
 20
134.5991074357
  0
VERTEX
  8
DEFAULT_2
 62
8
  6
HIDDEN
 10
106.5584380753
 20
134.6164213811
  0
VERTEX
  8
DEFAULT_2
 62
8
  6
HIDDEN
 10
106.5913691767
 20
134.6664729396
  0
VERTEX
  8
DEFAULT_2
 62
8
  6
HIDDEN
 10
106.6166166743
 20
134.7456798704
  0
SEQEND
  0
POLYLINE
  8
DEFAULT_2
 62
8
  6
HIDDEN
 66
1
 70
0
  0
VERTEX
  8
DEFAULT_2
 62
8
  6
HIDDEN
 10
106.5236332686
 20
141.2087050959
  0
VERTEX
  8
DEFAULT_2
 62
8
  6
HIDDEN
 10
106.5584380524
 20
141.1913911079
  0
VERTEX
  8
DEFAULT_2
 62
8
  6
HIDDEN
 10
106.591369134
 20
141.1413395343
  0
VERTEX
  8
DEFAULT_2
 62
8
  6
HIDDEN
 10
106.6166166187
 20
141.062132605
  0
VERTEX
  8
DEFAULT_2
 62
8
  6
HIDDEN
 10
106.6324707933
 20
140.9591340854
  0
VERTEX
  8
DEFAULT_2
 62
8
  6
HIDDEN
 10
106.6378580436
 20
140.8393188601
  0
VERTEX
  8
DEFAULT_2
 62
8
  6
HIDDEN
 10
106.6324135562
 20
140.7108006069
  0
SEQEND
  0
POLYLINE
  8
0
 62
7
  6
CONTINUOUS
 66
1
 70
0
  0
VERTEX
  8
0
 62
7
  6
CONTINUOUS
 10
103.4795145703
 20
141.4033377166
  0
VERTEX
  8
0
 62
7
  6
CONTINUOUS
 10
103.4790642777
 20
141.4036558813
  0
VERTEX
  8
0
 62
7
  6
CONTINUOUS
 10
103.480306486
 20
141.4038446599
  0
VERTEX
  8
0
 62
7
  6
CONTINUOUS
 10
103.4831873134
 20
141.40390625
  0
SEQEND
  0
LINE
  8
DEFAULT_2
 62
8
  6
HIDDEN
 10
103.4795144984
 20
141.4033375317
 11
103.4790642698
 21
141.4036558762
  0
LINE
  8
DEFAULT_2
 62
8
  6
HIDDEN
 10
100.4084616949
 20
140.984222639
 11
100.3350072379
 21
141.0625278597
  0
POLYLINE
  8
DEFAULT_2
 62
8
  6
HIDDEN
 66
1
 70
0
  0
VERTEX
  8
DEFAULT_2
 62
8
  6
HIDDEN
 10
99.2639322948
 20
141.286178147
  0
VERTEX
  8
DEFAULT_2
 62
8
  6
HIDDEN
 10
99.3375929478
 20
141.2075721299
  0
VERTEX
  8
DEFAULT_2
 62
8
  6
HIDDEN
 10
99.3926395882
 20
141.1146554904
  0
VERTEX
  8
DEFAULT_2
 62
8
  6
HIDDEN
 10
99.4264906258
 20
141.0118150801
  0
VERTEX
  8
DEFAULT_2
 62
8
  6
HIDDEN
 10
99.4375344242
 20
140.90390625
  0
SEQEND
  0
LINE
  8
DEFAULT_2
 62
8
  6
HIDDEN
 10
100.5091744282
 20
140.6832746724
 11
100.4976178172
 21
140.7901533686
  0
POLYLINE
  8
0
 62
9
  6
CONTINUOUS
 66
1
 70
0
  0
VERTEX
  8
0
 62
9
  6
CONTINUOUS
 10
100.3254145302
 20
140.6832746724
  0
VERTEX
  8
0
 62
9
  6
CONTINUOUS
 10
100.3157970045
 20
140.8056463444
  0
VERTEX
  8
0
 62
9
  6
CONTINUOUS
 10
100.2875294059
 20
140.9205748573
  0
VERTEX
  8
0
 62
9
  6
CONTINUOUS
 10
100.2423310884
 20
141.0210697762
  0
VERTEX
  8
0
 62
9
  6
CONTINUOUS
 10
100.1829512034
 20
141.1010185781
  0
VERTEX
  8
0
 62
9
  6
CONTINUOUS
 10
100.1130014851
 20
141.155558441
  0
SEQEND
  0
LINE
  8
DEFAULT_2
 62
8
  6
HIDDEN
 10
100.2284527142
 20
135.0970118931
 11
100.2284527142
 21
140.7108006069
  0
LINE
  8
DEFAULT_2
 62
8
  6
HIDDEN
 10
100.2788835176
 20
134.90390625
 11
100.2788835176
 21
140.90390625
  0
LINE
  8
0
 62
9
  6
CONTINUOUS
 10
100.3254145302
 20
135.1245378276
 11
100.3254145302
 21
140.6832746724
  0
LINE
  8
DEFAULT_2
 62
8
  6
HIDDEN
 10
100.4136829254
 20
140.6832746733
 11
100.4136829254
 21
135.1245378267
  0
LINE
  8
0
 62
7
  6
CONTINUOUS
 10
100.5091744282
 20
135.1245378276
 11
100.5091744282
 21
140.6832746724
  0
LINE
  8
0
 62
9
  6
CONTINUOUS
 10
100.6495685832
 20
134.90390625
 11
100.6495685832
 21
140.90390625
  0
POLYLINE
  8
0
 62
7
  6
CONTINUOUS
 66
1
 70
0
  0
VERTEX
  8
0
 62
7
  6
CONTINUOUS
 10
100.5091744282
 20
135.1245378276
  0
VERTEX
  8
0
 62
7
  6
CONTINUOUS
 10
100.4976178172
 20
135.0176591314
  0
VERTEX
  8
0
 62
7
  6
CONTINUOUS
 10
100.463512538
 20
134.9157870625
  0
VERTEX
  8
0
 62
7
  6
CONTINUOUS
 10
100.4084616949
 20
134.823589861
  0
VERTEX
  8
0
 62
7
  6
CONTINUOUS
 10
100.3350072379
 20
134.7452846403
  0
VERTEX
  8
0
 62
7
  6
CONTINUOUS
 10
100.2465182537
 20
134.6844606656
  0
VERTEX
  8
0
 62
7
  6
CONTINUOUS
 10
100.1470488809
 20
134.6439229763
  0
VERTEX
  8
0
 62
7
  6
CONTINUOUS
 10
100.08229121
 20
134.6299127831
  0
SEQEND
  0
LINE
  8
DEFAULT_2
 62
8
  6
HIDDEN
 10
100.4958072677
 20
135.0096967222
 11
100.5091744045
 21
135.1245378276
  0
POLYLINE
  8
DEFAULT_2
 62
8
  6
HIDDEN
 66
1
 70
0
  0
VERTEX
  8
DEFAULT_2
 62
8
  6
HIDDEN
 10
100.2338451291
 20
134.6792958679
  0
VERTEX
  8
DEFAULT_2
 62
8
  6
HIDDEN
 10
100.2652954962
 20
134.7744967273
  0
VERTEX
  8
DEFAULT_2
 62
8
  6
HIDDEN
 10
100.2788835176
 20
134.90390625
  0
SEQEND
  0
LINE
  8
DEFAULT_2
 62
8
  6
HIDDEN
 10
100.452672954
 20
134.8936502845
 11
100.4958072677
 21
135.0096967222
  0
POLYLINE
  8
DEFAULT_2
 62
8
  6
HIDDEN
 66
1
 70
0
  0
VERTEX
  8
DEFAULT_2
 62
8
  6
HIDDEN
 10
100.1287255765
 20
134.7456799666
  0
VERTEX
  8
DEFAULT_2
 62
8
  6
HIDDEN
 10
100.187344473
 20
134.8486784698
  0
VERTEX
  8
DEFAULT_2
 62
8
  6
HIDDEN
 10
100.2213545528
 20
134.9684936691
  0
VERTEX
  8
DEFAULT_2
 62
8
  6
HIDDEN
 10
100.2284527142
 20
135.0970118931
  0
SEQEND
  0
LINE
  8
DEFAULT_2
 62
8
  6
HIDDEN
 10
100.3842184962
 20
134.7938688888
 11
100.452672954
 21
134.8936502845
  0
LINE
  8
0
 62
7
  6
CONTINUOUS
 10
103.479503895
 20
134.4044674222
 11
103.4964356934
 21
134.4213733139
  0
LINE
  8
0
 62
7
  6
CONTINUOUS
 10
103.4795038999
 20
141.4033450779
 11
103.496435693
 21
141.3864391866
  0
LINE
  8
DEFAULT_2
 62
8
  6
HIDDEN
 10
100.463512538
 20
140.8920254375
 11
100.4084616949
 21
140.984222639
  0
LINE
  8
DEFAULT_2
 62
8
  6
HIDDEN
 10
100.4976178172
 20
140.7901533686
 11
100.463512538
 21
140.8920254375
  0
POLYLINE
  8
DEFAULT_2
 62
8
  6
HIDDEN
 66
1
 70
0
  0
VERTEX
  8
DEFAULT_2
 62
8
  6
HIDDEN
 10
100.2347146726
 20
141.1258844323
  0
VERTEX
  8
DEFAULT_2
 62
8
  6
HIDDEN
 10
100.2652955197
 20
141.0333156626
  0
VERTEX
  8
DEFAULT_2
 62
8
  6
HIDDEN
 10
100.2788835177
 20
140.90390625
  0
SEQEND
  0
LINE
  8
0
 62
7
  6
CONTINUOUS
 10
102.2109375
 20
129.90390625
 11
102.2109375
 21
134.40390625
  0
LINE
  8
0
 62
7
  6
CONTINUOUS
 10
102.2109375
 20
141.40390625
 11
102.2109375
 21
145.90390625
  0
LINE
  8
DEFAULT_2
 62
8
  6
HIDDEN
 10
103.592088214
 20
140.90390625
 11
103.592088214
 21
134.90390625
  0
LINE
  8
DEFAULT_2
 62
8
  6
HIDDEN
 10
103.5959375
 20
140.90390625
 11
103.5959375
 21
134.90390625
  0
POLYLINE
  8
0
 62
7
  6
CONTINUOUS
 66
1
 70
0
  0
VERTEX
  8
0
 62
7
  6
CONTINUOUS
 10
103.4964356934
 20
134.4213733139
  0
VERTEX
  8
0
 62
7
  6
CONTINUOUS
 10
103.5115326971
 20
134.4610559931
  0
VERTEX
  8
0
 62
7
  6
CONTINUOUS
 10
103.5240836765
 20
134.5216342389
  0
VERTEX
  8
0
 62
7
  6
CONTINUOUS
 10
103.5334985179
 20
134.60024017
  0
VERTEX
  8
0
 62
7
  6
CONTINUOUS
 10
103.5393385526
 20
134.6931566954
  0
VERTEX
  8
0
 62
7
  6
CONTINUOUS
 10
103.5413516404
 20
134.7959969037
  0
VERTEX
  8
0
 62
7
  6
CONTINUOUS
 10
103.5392926348
 20
134.90390625
  0
SEQEND
  0
POLYLINE
  8
0
 62
7
  6
CONTINUOUS
 66
1
 70
0
  0
VERTEX
  8
0
 62
7
  6
CONTINUOUS
 10
103.496435693
 20
141.3864391866
  0
VERTEX
  8
0
 62
7
  6
CONTINUOUS
 10
103.5115326909
 20
141.3467565077
  0
VERTEX
  8
0
 62
7
  6
CONTINUOUS
 10
103.5240836633
 20
141.2861782621
  0
VERTEX
  8
0
 62
7
  6
CONTINUOUS
 10
103.5334984945
 20
141.2075723314
  0
VERTEX
  8
0
 62
7
  6
CONTINUOUS
 10
103.5393385108
 20
141.1146558065
  0
VERTEX
  8
0
 62
7
  6
CONTINUOUS
 10
103.5413515474
 20
141.0118155999
  0
VERTEX
  8
0
 62
7
  6
CONTINUOUS
 10
103.5392926355
 20
140.90390625
  0
SEQEND
  0
LINE
  8
DEFAULT_2
 62
8
  6
HIDDEN
 10
103.5758691664
 20
141.0333156817
 11
103.5929030737
 21
140.90390625
  0
LINE
  8
0
 62
9
  6
CONTINUOUS
 10
105.6180304665
 20
135.0970118931
 11
105.6180304665
 21
140.7108006069
  0
POLYLINE
  8
DEFAULT_2
 62
8
  6
HIDDEN
 66
1
 70
0
  0
VERTEX
  8
DEFAULT_2
 62
8
  6
HIDDEN
 10
106.852980846
 20
134.6394308707
  0
VERTEX
  8
DEFAULT_2
 62
8
  6
HIDDEN
 10
106.8824322745
 20
134.6766609563
  0
VERTEX
  8
DEFAULT_2
 62
8
  6
HIDDEN
 10
106.9066606589
 20
134.7362859397
  0
VERTEX
  8
DEFAULT_2
 62
8
  6
HIDDEN
 10
106.9244138261
 20
134.8152617348
  0
VERTEX
  8
DEFAULT_2
 62
8
  6
HIDDEN
 10
106.9348810911
 20
134.9097301998
  0
VERTEX
  8
DEFAULT_2
 62
8
  6
HIDDEN
 10
106.9374262533
 20
135.0147260465
  0
VERTEX
  8
DEFAULT_2
 62
8
  6
HIDDEN
 10
106.9321222162
 20
135.1245378276
  0
SEQEND
  0
POLYLINE
  8
DEFAULT_2
 62
8
  6
HIDDEN
 66
1
 70
0
  0
VERTEX
  8
DEFAULT_2
 62
8
  6
HIDDEN
 10
106.8529324115
 20
141.1684182139
  0
VERTEX
  8
DEFAULT_2
 62
8
  6
HIDDEN
 10
106.882359237
 20
141.1312886748
  0
VERTEX
  8
DEFAULT_2
 62
8
  6
HIDDEN
 10
106.9065663713
 20
141.0718336477
  0
VERTEX
  8
DEFAULT_2
 62
8
  6
HIDDEN
 10
106.9243475213
 20
140.9930159029
  0
VERTEX
  8
DEFAULT_2
 62
8
  6
HIDDEN
 10
106.9348166149
 20
140.8987630956
  0
VERTEX
  8
DEFAULT_2
 62
8
  6
HIDDEN
 10
106.9374519547
 20
140.7937720432
  0
VERTEX
  8
DEFAULT_2
 62
8
  6
HIDDEN
 10
106.9321222162
 20
140.6832746724
  0
SEQEND
  0
LINE
  8
0
 62
9
  6
CONTINUOUS
 10
105.9177392439
 20
140.6832746733
 11
105.9177392439
 21
135.1245378267
  0
LINE
  8
0
 62
9
  6
CONTINUOUS
 10
106.5383043322
 20
140.6832746724
 11
106.5383043322
 21
135.1245378276
  0
LINE
  8
DEFAULT_2
 62
8
  6
HIDDEN
 10
106.6324134388
 20
135.0970118931
 11
106.6324134388
 21
140.7108006069
  0
LINE
  8
DEFAULT_2
 62
8
  6
HIDDEN
 10
106.9321222162
 20
140.6832746733
 11
106.9321222162
 21
135.1245378267
  0
LINE
  8
0
 62
9
  6
CONTINUOUS
 10
107.2610996647
 20
135.1245378276
 11
107.2610996647
 21
140.6832746724
  0
LINE
  8
0
 62
7
  6
CONTINUOUS
 10
107.2776137191
 20
135.1245378276
 11
107.2776137191
 21
140.6832746724
  0
POLYLINE
  8
0
 62
9
  6
CONTINUOUS
 66
1
 70
0
  0
VERTEX
  8
0
 62
9
  6
CONTINUOUS
 10
106.5383043322
 20
135.1245378276
  0
VERTEX
  8
0
 62
9
  6
CONTINUOUS
 10
106.5241305725
 20
135.0021661556
  0
VERTEX
  8
0
 62
9
  6
CONTINUOUS
 10
106.482471401
 20
134.8872376427
  0
VERTEX
  8
0
 62
9
  6
CONTINUOUS
 10
106.4158607034
 20
134.7867427238
  0
VERTEX
  8
0
 62
9
  6
CONTINUOUS
 10
106.3283500222
 20
134.7067939219
  0
VERTEX
  8
0
 62
9
  6
CONTINUOUS
 10
106.2252621246
 20
134.652254059
  0
VERTEX
  8
0
 62
9
  6
CONTINUOUS
 10
106.1128672495
 20
134.6264404785
  0
SEQEND
  0
POLYLINE
  8
DEFAULT_2
 62
8
  6
HIDDEN
 66
1
 70
0
  0
VERTEX
  8
DEFAULT_2
 62
8
  6
HIDDEN
 10
106.6166165237
 20
134.7456799666
  0
VERTEX
  8
DEFAULT_2
 62
8
  6
HIDDEN
 10
106.632470683
 20
134.8486784698
  0
VERTEX
  8
DEFAULT_2
 62
8
  6
HIDDEN
 10
106.6378579262
 20
134.9684936691
  0
VERTEX
  8
DEFAULT_2
 62
8
  6
HIDDEN
 10
106.6324134388
 20
135.0970118931
  0
SEQEND
  0
POLYLINE
  8
0
 62
7
  6
CONTINUOUS
 66
1
 70
0
  0
VERTEX
  8
0
 62
7
  6
CONTINUOUS
 10
107.2776137191
 20
140.6832746724
  0
VERTEX
  8
0
 62
7
  6
CONTINUOUS
 10
107.2659363296
 20
140.7907038491
  0
VERTEX
  8
0
 62
7
  6
CONTINUOUS
 10
107.231884946
 20
140.8921709441
  0
VERTEX
  8
0
 62
7
  6
CONTINUOUS
 10
107.1773713777
 20
140.9835975226
  0
VERTEX
  8
0
 62
7
  6
CONTINUOUS
 10
107.1049405572
 20
141.061239143
  0
VERTEX
  8
0
 62
7
  6
CONTINUOUS
 10
107.0177311666
 20
141.1218446342
  0
VERTEX
  8
0
 62
7
  6
CONTINUOUS
 10
106.9193315398
 20
141.1627703025
  0
VERTEX
  8
0
 62
7
  6
CONTINUOUS
 10
106.8231945318
 20
141.1811927233
  0
SEQEND
  0
POLYLINE
  8
0
 62
7
  6
CONTINUOUS
 66
1
 70
0
  0
VERTEX
  8
0
 62
7
  6
CONTINUOUS
 10
107.2776137191
 20
135.1245378276
  0
VERTEX
  8
0
 62
7
  6
CONTINUOUS
 10
107.2659363296
 20
135.0171086509
  0
VERTEX
  8
0
 62
7
  6
CONTINUOUS
 10
107.231884946
 20
134.9156415559
  0
VERTEX
  8
0
 62
7
  6
CONTINUOUS
 10
107.1773713777
 20
134.8242149774
  0
VERTEX
  8
0
 62
7
  6
CONTINUOUS
 10
107.1049405572
 20
134.746573357
  0
VERTEX
  8
0
 62
7
  6
CONTINUOUS
 10
107.0177311666
 20
134.6859678658
  0
VERTEX
  8
0
 62
7
  6
CONTINUOUS
 10
106.9193315398
 20
134.6450421975
  0
VERTEX
  8
0
 62
7
  6
CONTINUOUS
 10
106.8231945318
 20
134.6266197767
  0
SEQEND
  0
POLYLINE
  8
0
 62
9
  6
CONTINUOUS
 66
1
 70
0
  0
VERTEX
  8
0
 62
9
  6
CONTINUOUS
 10
107.2610996647
 20
140.6832746724
  0
VERTEX
  8
0
 62
9
  6
CONTINUOUS
 10
107.2463958417
 20
140.8056463444
  0
VERTEX
  8
0
 62
9
  6
CONTINUOUS
 10
107.203178721
 20
140.9205748573
  0
VERTEX
  8
0
 62
9
  6
CONTINUOUS
 10
107.1340769494
 20
141.0210697762
  0
VERTEX
  8
0
 62
9
  6
CONTINUOUS
 10
107.0432935869
 20
141.1010185781
  0
VERTEX
  8
0
 62
9
  6
CONTINUOUS
 10
106.936350459
 20
141.155558441
  0
SEQEND
  0
ARC
  8
0
 62
9
  6
CONTINUOUS
 10
70.6337475106
 20
207.7365392869
 40
4.9
 50
351.1026643869
 51
37.1027051575
  0
ARC
  8
0
 62
9
  6
CONTINUOUS
 10
70.1635193088
 20
208.3837528824
 40
4.9
 50
34.8972948425
 51
80.8973788944
  0
ARC
  8
0
 62
7
  6
CONTINUOUS
 10
70.6337475106
 20
207.7365392869
 40
4.4
 50
324.0
 51
37.1027051575
  0
ARC
  8
0
 62
7
  6
CONTINUOUS
 10
70.1635193088
 20
208.3837528824
 40
4.4
 50
34.8972948425
 51
108.0
  0
ARC
  8
0
 62
7
  6
CONTINUOUS
 10
74.4127005718
 20
204.6014440368
 40
0.5
 50
144.0
 51
230.7666545427
  0
ARC
  8
0
 62
9
  6
CONTINUOUS
 10
66.429786786
 20
219.875
 40
4.9
 50
315.1026589908
 51
1.1027051575
  0
ARC
  8
0
 62
7
  6
CONTINUOUS
 10
66.429786786
 20
219.875
 40
4.4
 50
288.0
 51
1.1027051575
  0
ARC
  8
0
 62
7
  6
CONTINUOUS
 10
67.6442612809
 20
215.1174417852
 40
0.5
 50
108.0
 51
194.7666545427
  0
ARC
  8
0
 62
7
  6
CONTINUOUS
 10
68.3496272589
 20
212.9465485273
 40
0.5
 50
201.2333454573
 51
288.0
  0
ARC
  8
0
 62
9
  6
CONTINUOUS
 10
80.4087861602
 20
200.634557995
 40
4.9
 50
70.8972948425
 51
116.8973719684
  0
ARC
  8
0
 62
7
  6
CONTINUOUS
 10
80.4087861602
 20
200.634557995
 40
4.4
 50
70.8972948425
 51
144.0
  0
ARC
  8
0
 62
7
  6
CONTINUOUS
 10
76.2593726766
 20
203.2597582175
 40
0.5
 50
237.2333454573
 51
324.0
  0
ARC
  8
0
 62
9
  6
CONTINUOUS
 10
81.1696313732
 20
200.3873443995
 40
4.9
 50
27.1026589922
 51
73.1027051575
  0
ARC
  8
0
 62
7
  6
CONTINUOUS
 10
81.1696313732
 20
200.3873443995
 40
4.4
 50
0.0
 51
73.1027051575
  0
ARC
  8
0
 62
7
  6
CONTINUOUS
 10
86.0696313732
 20
200.0722119418
 40
0.5
 50
180.0
 51
266.7666545427
  0
ARC
  8
0
 62
9
  6
CONTINUOUS
 10
66.429786786
 20
220.675
 40
4.9
 50
358.8972948425
 51
44.8973765284
  0
ARC
  8
0
 62
7
  6
CONTINUOUS
 10
66.429786786
 20
220.675
 40
4.4
 50
358.8972948425
 51
72.0
  0
ARC
  8
0
 62
7
  6
CONTINUOUS
 10
68.3496272589
 20
227.6034514727
 40
0.5
 50
72.0
 51
158.7666545427
  0
ARC
  8
0
 62
7
  6
CONTINUOUS
 10
67.6442612809
 20
225.4325582148
 40
0.5
 50
165.2333454573
 51
252.0
  0
ARC
  8
0
 62
9
  6
CONTINUOUS
 10
70.1635193088
 20
232.1662471176
 40
4.9
 50
279.10265899
 51
325.1027051575
  0
ARC
  8
0
 62
9
  6
CONTINUOUS
 10
70.6337475106
 20
232.8134607131
 40
4.9
 50
322.8972948425
 51
8.8973656925
  0
ARC
  8
0
 62
7
  6
CONTINUOUS
 10
70.1635193088
 20
232.1662471176
 40
4.4
 50
252.0
 51
325.1027051575
  0
ARC
  8
0
 62
7
  6
CONTINUOUS
 10
70.6337475106
 20
232.8134607131
 40
4.4
 50
322.8972948425
 51
36.0
  0
ARC
  8
0
 62
7
  6
CONTINUOUS
 10
74.4127005718
 20
235.9485559632
 40
0.5
 50
129.2333454573
 51
216.0
  0
ARC
  8
0
 62
7
  6
CONTINUOUS
 10
76.2593726766
 20
237.2902417825
 40
0.5
 50
36.0
 51
122.7666545427
  0
ARC
  8
0
 62
9
  6
CONTINUOUS
 10
80.4087861602
 20
239.915442005
 40
4.9
 50
243.1026712868
 51
289.1027051575
  0
ARC
  8
0
 62
7
  6
CONTINUOUS
 10
80.4087861602
 20
239.915442005
 40
4.4
 50
216.0
 51
289.1027051575
  0
ARC
  8
0
 62
9
  6
CONTINUOUS
 10
81.1696313732
 20
240.1626556005
 40
4.9
 50
286.8972948425
 51
332.8973635647
  0
ARC
  8
0
 62
7
  6
CONTINUOUS
 10
81.1696313732
 20
240.1626556005
 40
4.4
 50
286.8972948425
 51
360.0
  0
ARC
  8
0
 62
7
  6
CONTINUOUS
 10
86.0696313732
 20
240.4777880582
 40
0.5
 50
93.2333454573
 51
180.0
  0
ARC
  8
0
 62
9
  6
CONTINUOUS
 10
93.2522436268
 20
200.3873443995
 40
4.9
 50
106.8972948425
 51
152.8973812521
  0
ARC
  8
0
 62
7
  6
CONTINUOUS
 10
93.2522436268
 20
200.3873443995
 40
4.4
 50
106.8972948425
 51
180.0
  0
ARC
  8
0
 62
7
  6
CONTINUOUS
 10
88.3522436268
 20
200.0722119418
 40
0.5
 50
273.2333454573
 51
360.0
  0
ARC
  8
0
 62
9
  6
CONTINUOUS
 10
94.0130888398
 20
200.634557995
 40
4.9
 50
63.1026643878
 51
109.1027051575
  0
ARC
  8
0
 62
7
  6
CONTINUOUS
 10
94.0130888398
 20
200.634557995
 40
4.4
 50
36.0
 51
109.1027051575
  0
ARC
  8
0
 62
7
  6
CONTINUOUS
 10
98.1625023234
 20
203.2597582175
 40
0.5
 50
216.0
 51
302.7666545427
  0
ARC
  8
0
 62
7
  6
CONTINUOUS
 10
100.0091744282
 20
204.6014440368
 40
0.5
 50
309.2333454573
 51
36.0
  0
ARC
  8
0
 62
9
  6
CONTINUOUS
 10
104.2583556912
 20
208.3837528824
 40
4.9
 50
99.1026589929
 51
145.1027051575
  0
ARC
  8
0
 62
9
  6
CONTINUOUS
 10
103.7881274894
 20
207.7365392869
 40
4.9
 50
142.8972948425
 51
188.8973736238
  0
ARC
  8
0
 62
7
  6
CONTINUOUS
 10
104.2583556912
 20
208.3837528824
 40
4.4
 50
72.0
 51
145.1027051575
  0
ARC
  8
0
 62
7
  6
CONTINUOUS
 10
103.7881274894
 20
207.7365392869
 40
4.4
 50
142.8972948425
 51
216.0
  0
ARC
  8
0
 62
7
  6
CONTINUOUS
 10
106.0722477411
 20
212.9465485273
 40
0.5
 50
252.0
 51
338.7666545427
  0
ARC
  8
0
 62
7
  6
CONTINUOUS
 10
106.7776137191
 20
215.1174417852
 40
0.5
 50
345.2333454573
 51
72.0
  0
ARC
  8
0
 62
9
  6
CONTINUOUS
 10
107.992088214
 20
219.875
 40
4.9
 50
178.8972948425
 51
224.8973824277
  0
ARC
  8
0
 62
7
  6
CONTINUOUS
 10
107.992088214
 20
219.875
 40
4.4
 50
178.8972948425
 51
252.0
  0
ARC
  8
0
 62
7
  6
CONTINUOUS
 10
87.2109375
 20
220.275
 40
20.735
 50
50.7666545427
 51
57.2333454573
  0
ARC
  8
0
 62
7
  6
CONTINUOUS
 10
87.2109375
 20
220.275
 40
20.735
 50
14.7666545427
 51
21.2333454573
  0
ARC
  8
0
 62
7
  6
CONTINUOUS
 10
87.2109375
 20
220.275
 40
20.735
 50
338.7666545427
 51
345.2333454573
  0
ARC
  8
0
 62
7
  6
CONTINUOUS
 10
87.2109375
 20
220.275
 40
20.735
 50
302.7666545427
 51
309.2333454573
  0
ARC
  8
0
 62
7
  6
CONTINUOUS
 10
87.2109375
 20
220.275
 40
20.735
 50
266.7666545427
 51
273.2333454573
  0
ARC
  8
0
 62
7
  6
CONTINUOUS
 10
87.2109375
 20
220.275
 40
20.735
 50
230.7666545427
 51
237.2333454573
  0
ARC
  8
0
 62
7
  6
CONTINUOUS
 10
87.2109375
 20
220.275
 40
20.735
 50
194.7666545427
 51
201.2333454573
  0
ARC
  8
0
 62
7
  6
CONTINUOUS
 10
87.2109375
 20
220.275
 40
20.735
 50
158.7666545427
 51
165.2333454573
  0
ARC
  8
0
 62
7
  6
CONTINUOUS
 10
87.2109375
 20
220.275
 40
20.735
 50
122.7666545427
 51
129.2333454573
  0
ARC
  8
0
 62
7
  6
CONTINUOUS
 10
87.2109375
 20
220.275
 40
20.735
 50
86.7666545427
 51
93.2333454573
  0
ARC
  8
0
 62
9
  6
CONTINUOUS
 10
87.2109375
 20
220.275
 40
20.2785778714
 50
266.7666555894
 51
273.2333444674
  0
ARC
  8
0
 62
9
  6
CONTINUOUS
 10
87.2109375
 20
220.275
 40
20.2785778714
 50
230.7666555894
 51
237.2333444674
  0
ARC
  8
0
 62
9
  6
CONTINUOUS
 10
87.2109375
 20
220.275
 40
20.2785778714
 50
194.7666555894
 51
201.2333444674
  0
ARC
  8
0
 62
9
  6
CONTINUOUS
 10
87.2109375
 20
220.275
 40
20.2785778714
 50
158.7666555894
 51
165.2333444674
  0
ARC
  8
0
 62
9
  6
CONTINUOUS
 10
87.2109375
 20
220.275
 40
20.2785778714
 50
86.7666555894
 51
93.2333444674
  0
ARC
  8
0
 62
9
  6
CONTINUOUS
 10
87.2109375
 20
220.275
 40
20.2785778714
 50
122.7666555894
 51
129.2333444674
  0
ARC
  8
0
 62
9
  6
CONTINUOUS
 10
87.2109375
 20
220.275
 40
20.2785778714
 50
302.7666555894
 51
309.2333444674
  0
ARC
  8
0
 62
9
  6
CONTINUOUS
 10
87.2109375
 20
220.275
 40
20.2785778714
 50
50.7666555894
 51
57.2333444674
  0
ARC
  8
0
 62
9
  6
CONTINUOUS
 10
87.2109375
 20
220.275
 40
20.2785778714
 50
14.7666555894
 51
21.2333444674
  0
ARC
  8
0
 62
9
  6
CONTINUOUS
 10
87.2109375
 20
220.275
 40
20.2785778714
 50
338.7666555894
 51
345.2333444674
  0
ARC
  8
0
 62
7
  6
CONTINUOUS
 10
87.2109375
 20
220.275
 40
17.735
 50
264.5662425779
 51
275.4337399976
  0
ARC
  8
0
 62
7
  6
CONTINUOUS
 10
87.2109375
 20
220.275
 40
17.735
 50
228.5662396619
 51
239.4337447611
  0
ARC
  8
0
 62
7
  6
CONTINUOUS
 10
87.2109375
 20
220.275
 40
17.735
 50
192.5662425781
 51
203.4337403795
  0
ARC
  8
0
 62
7
  6
CONTINUOUS
 10
87.2109375
 20
220.275
 40
17.735
 50
156.5662425782
 51
167.4337407628
  0
ARC
  8
0
 62
7
  6
CONTINUOUS
 10
87.2109375
 20
220.275
 40
17.735
 50
84.56624503
 51
95.4337428626
  0
ARC
  8
0
 62
7
  6
CONTINUOUS
 10
87.2109375
 20
220.275
 40
17.735
 50
120.5662385443
 51
131.4337457776
  0
ARC
  8
0
 62
7
  6
CONTINUOUS
 10
87.2109375
 20
220.275
 40
17.735
 50
48.5662396617
 51
59.433744187
  0
ARC
  8
0
 62
7
  6
CONTINUOUS
 10
87.2109375
 20
220.275
 40
17.735
 50
12.5662425777
 51
23.4337397438
  0
ARC
  8
0
 62
7
  6
CONTINUOUS
 10
87.2109375
 20
220.275
 40
17.735
 50
336.5662425778
 51
347.4337398072
  0
ARC
  8
0
 62
7
  6
CONTINUOUS
 10
87.2109375
 20
220.275
 40
17.735
 50
300.5662396618
 51
311.4337444929
  0
ARC
  8
0
 62
7
  6
CONTINUOUS
 10
87.2109375
 20
220.275
 40
16.385
 50
106.8972948425
 51
109.1027051575
  0
ARC
  8
0
 62
7
  6
CONTINUOUS
 10
87.2109375
 20
220.275
 40
16.385
 50
142.8972948425
 51
145.1027051575
  0
ARC
  8
0
 62
7
  6
CONTINUOUS
 10
87.2109375
 20
220.275
 40
16.385
 50
178.8972948425
 51
181.1027051575
  0
ARC
  8
0
 62
7
  6
CONTINUOUS
 10
87.2109375
 20
220.275
 40
16.385
 50
214.8972948425
 51
217.1027051575
  0
ARC
  8
0
 62
7
  6
CONTINUOUS
 10
87.2109375
 20
220.275
 40
16.385
 50
250.8972948425
 51
253.1027051575
  0
ARC
  8
0
 62
7
  6
CONTINUOUS
 10
87.2109375
 20
220.275
 40
16.385
 50
70.8972948425
 51
73.1027051575
  0
ARC
  8
0
 62
7
  6
CONTINUOUS
 10
87.2109375
 20
220.275
 40
16.385
 50
286.8972948425
 51
289.1027051575
  0
ARC
  8
0
 62
7
  6
CONTINUOUS
 10
87.2109375
 20
220.275
 40
16.385
 50
34.8972948425
 51
37.1027051575
  0
ARC
  8
0
 62
7
  6
CONTINUOUS
 10
87.2109375
 20
220.275
 40
16.385
 50
322.8972948425
 51
325.1027051575
  0
ARC
  8
0
 62
7
  6
CONTINUOUS
 10
87.2109375
 20
220.275
 40
16.385
 50
358.8972948425
 51
1.1027051575
  0
ARC
  8
0
 62
9
  6
CONTINUOUS
 10
87.2109375
 20
220.275
 40
15.8850000006
 50
70.8972948425
 51
73.1027051575
  0
ARC
  8
0
 62
9
  6
CONTINUOUS
 10
87.2109375
 20
220.275
 40
15.8850000006
 50
34.8972948425
 51
37.1027051575
  0
ARC
  8
0
 62
9
  6
CONTINUOUS
 10
87.2109375
 20
220.275
 40
15.8850000006
 50
358.8972948425
 51
1.1027051575
  0
ARC
  8
0
 62
9
  6
CONTINUOUS
 10
87.2109375
 20
220.275
 40
15.8850000006
 50
322.8972948425
 51
325.1027051575
  0
ARC
  8
0
 62
9
  6
CONTINUOUS
 10
87.2109375
 20
220.275
 40
15.8850000006
 50
286.8972948425
 51
289.1027051575
  0
ARC
  8
0
 62
9
  6
CONTINUOUS
 10
87.2109375
 20
220.275
 40
15.8850000006
 50
250.8972948425
 51
253.1027051575
  0
ARC
  8
0
 62
9
  6
CONTINUOUS
 10
87.2109375
 20
220.275
 40
15.8850000006
 50
214.8972948425
 51
217.1027051575
  0
ARC
  8
0
 62
9
  6
CONTINUOUS
 10
87.2109375
 20
220.275
 40
15.8850000006
 50
178.8972948425
 51
181.1027051575
  0
ARC
  8
0
 62
9
  6
CONTINUOUS
 10
87.2109375
 20
220.275
 40
15.8850000006
 50
142.8972948425
 51
145.1027051575
  0
ARC
  8
0
 62
9
  6
CONTINUOUS
 10
87.2109375
 20
220.275
 40
15.8850000006
 50
106.8972948425
 51
109.1027051575
  0
CIRCLE
  8
0
 62
7
  6
CONTINUOUS
 10
87.2109375
 20
220.275
 40
15.0
  0
CIRCLE
  8
0
 62
9
  6
CONTINUOUS
 10
87.2109375
 20
220.275
 40
13.0
  0
CIRCLE
  8
DEFAULT_3
 62
2
  6
PHANTOM
 10
87.2109375
 20
220.275
 40
9.525
  0
ARC
  8
0
 62
7
  6
CONTINUOUS
 10
87.2109375
 20
235.275
 40
0.8660254038
 50
358.3457835072
 51
181.6542164928
  0
ARC
  8
0
 62
7
  6
CONTINUOUS
 10
88.3522436268
 20
240.4777880582
 40
0.5
 50
0.0
 51
86.7666545427
  0
ARC
  8
0
 62
9
  6
CONTINUOUS
 10
93.2522436268
 20
240.1626556005
 40
4.9
 50
207.102643853
 51
253.1027051575
  0
ARC
  8
0
 62
7
  6
CONTINUOUS
 10
93.2522436268
 20
240.1626556005
 40
4.4
 50
180.0
 51
253.1027051575
  0
ARC
  8
0
 62
9
  6
CONTINUOUS
 10
94.0130888398
 20
239.915442005
 40
4.9
 50
250.8972948425
 51
296.8973755125
  0
ARC
  8
0
 62
7
  6
CONTINUOUS
 10
94.0130888398
 20
239.915442005
 40
4.4
 50
250.8972948425
 51
324.0
  0
ARC
  8
0
 62
7
  6
CONTINUOUS
 10
106.0722477411
 20
227.6034514727
 40
0.5
 50
21.2333454573
 51
108.0
  0
ARC
  8
0
 62
7
  6
CONTINUOUS
 10
106.7776137191
 20
225.4325582148
 40
0.5
 50
288.0
 51
14.7666545427
  0
ARC
  8
0
 62
9
  6
CONTINUOUS
 10
107.992088214
 20
220.675
 40
4.9
 50
135.1026589931
 51
181.1027051575
  0
ARC
  8
0
 62
7
  6
CONTINUOUS
 10
107.992088214
 20
220.675
 40
4.4
 50
108.0
 51
181.1027051575
  0
ARC
  8
0
 62
7
  6
CONTINUOUS
 10
98.1625023234
 20
237.2902417825
 40
0.5
 50
57.2333454573
 51
144.0
  0
ARC
  8
0
 62
7
  6
CONTINUOUS
 10
100.0091744282
 20
235.9485559632
 40
0.5
 50
324.0
 51
50.7666545427
  0
ARC
  8
0
 62
9
  6
CONTINUOUS
 10
103.7881274894
 20
232.8134607131
 40
4.9
 50
171.1026643884
 51
217.1027051575
  0
ARC
  8
0
 62
7
  6
CONTINUOUS
 10
103.7881274894
 20
232.8134607131
 40
4.4
 50
144.0
 51
217.1027051575
  0
ARC
  8
0
 62
9
  6
CONTINUOUS
 10
104.2583556912
 20
232.1662471176
 40
4.9
 50
214.8972948425
 51
260.8973828193
  0
ARC
  8
0
 62
7
  6
CONTINUOUS
 10
104.2583556912
 20
232.1662471176
 40
4.4
 50
214.8972948425
 51
288.0
  0
ARC
  8
0
 62
7
  6
CONTINUOUS
 10
74.2109375
 20
129.90390625
 40
2.0
 50
180.0
 51
270.0
  0
ARC
  8
0
 62
7
  6
CONTINUOUS
 10
74.2109375
 20
145.90390625
 40
2.0
 50
90.0
 51
180.0
  0
ARC
  8
0
 62
7
  6
CONTINUOUS
 10
100.2109375
 20
129.90390625
 40
2.0
 50
270.0
 51
360.0
  0
ARC
  8
0
 62
7
  6
CONTINUOUS
 10
100.2109375
 20
145.90390625
 40
2.0
 50
0.0
 51
90.0
  0
ARC
  8
DEFAULT_2
 62
8
  6
HIDDEN
 10
71.329786786
 20
134.90390625
 40
0.5
 50
180.0
 51
270.0
  0
ARC
  8
DEFAULT_2
 62
8
  6
HIDDEN
 10
71.329786786
 20
140.90390625
 40
0.5
 50
90.0
 51
180.0
  0
ARC
  8
DEFAULT_2
 62
8
  6
HIDDEN
 10
75.5337475106
 20
134.90390625
 40
0.5
 50
180.0
 51
270.0
  0
ARC
  8
DEFAULT_2
 62
8
  6
HIDDEN
 10
75.5337475106
 20
140.90390625
 40
0.5
 50
90.0
 51
180.0
  0
ARC
  8
DEFAULT_2
 62
8
  6
HIDDEN
 10
103.092088214
 20
134.90390625
 40
0.5
 50
270.0
 51
360.0
  0
ARC
  8
DEFAULT_2
 62
8
  6
HIDDEN
 10
103.092088214
 20
140.90390625
 40
0.5
 50
0.0
 51
90.0
  0
ARC
  8
DEFAULT_2
 62
8
  6
HIDDEN
 10
98.8881274894
 20
134.90390625
 40
0.5
 50
270.0
 51
360.0
  0
ARC
  8
DEFAULT_2
 62
8
  6
HIDDEN
 10
98.8881274894
 20
140.90390625
 40
0.5
 50
0.0
 51
90.0
  0
ARC
  8
DEFAULT_2
 62
8
  6
HIDDEN
 10
71.3259375
 20
134.90390625
 40
0.5
 50
180.0
 51
269.9999999289
  0
ARC
  8
DEFAULT_2
 62
8
  6
HIDDEN
 10
71.3259375
 20
140.90390625
 40
0.5
 50
90.000000071
 51
180.0
  0
ARC
  8
DEFAULT_2
 62
8
  6
HIDDEN
 10
103.0959375
 20
134.90390625
 40
0.5
 50
270.0000000711
 51
360.0
  0
ARC
  8
DEFAULT_2
 62
8
  6
HIDDEN
 10
103.0959375
 20
140.90390625
 40
0.5
 50
0.0
 51
89.999999929
  0
ENDSEC
  0
EOF
