  0
SECTION
  2
HEADER
  9
$EXTMAX
 10
210.0
 20
297.0
 30
0.0
  9
$EXTMIN
 10
0.0
 20
0.0
 30
0.0
  9
$LIMMIN
 10
0.0
 20
0.0
  9
$LIMMAX
 10
210.0
 20
297.0
  9
$VIEWCTR
 10
105.0
 20
148.5
  9
$VIEWSIZE
 40
297.0
  9
$CLAYER
  8
0
  9
$LTSCALE
 40
19.36
  9
$CELTYPE
  6
BYLAYER
  9
$DIMSCALE
 40
1.0
  9
$DIMASZ
 40
3.5
  9
$DIMEXO
 40
1.0
  9
$DIMDLI
 40
13.376
  9
$DIMEXE
 40
2.0
  9
$DIMCEN
 40
3.168
  9
$DIMLFAC
 40
1.0
  9
$DIMBLK
  1
_FILLED
  9
$DIMALT
 70
0
  9
$DIMALTF
 40
0.0393700787
  9
$DIMTXT
 40
3.5
  9
$AUNITS
 70
0
  9
$PDMODE
 70
3
  9
$PDSIZE
 40
0.3125
  9
$TILEMODE
 70
1
  0
ENDSEC
  0
SECTION
  2
TABLES
  0
TABLE
  2
LTYPE
 70
6
  0
LTYPE
  2
BYBLOCK
 70
0
  3

 72
65
 73
0
 40
0.0
  0
LTYPE
  2
BYLAYER
 70
0
  3

 72
65
 73
0
 40
0.0
  0
LTYPE
  2
CONTINUOUS
 70
64
  3
Solid line
 72
65
 73
0
 40
0.0
  0
LTYPE
  2
CENTER
 70
64
  3
____ _ ____ _ ____ _ ____ _ ____ _ ____ _ ____
 72
65
 73
4
 40
0.6
 49
0.375
 49
-0.075
 49
0.075
 49
-0.075
  0
LTYPE
  2
HIDDEN
 70
64
  3
- - - - - - - - - - - - - - - - - - - -
 72
65
 73
2
 40
0.2
 49
0.1
 49
-0.1
  0
LTYPE
  2
PHANTOM
 70
64
  3
_____ _ _ _____ _ _ _____ _ _ _____
 72
65
 73
6
 40
0.8
 49
0.45
 49
-0.05
 49
0.1
 49
-0.05
 49
0.1
 49
-0.05
  0
LTYPE
  2
DOT
 70
64
  3
. . . . . . . . . . . . . . . . . . . .
 72
65
 73
2
 40
0.2
 49
0.1
 49
-0.1
  0
LTYPE
  2
DASHED
 70
64
  3
- - - - - - - - - - - - - - - - - - - -
 72
65
 73
2
 40
0.2
 49
0.1
 49
-0.1
  0
ENDTAB
  0
TABLE
  2
LAYER
 70
36
  0
LAYER
  2
0
 70
0
 62
7
  6
CONTINUOUS
  0
LAYER
  2
DEFAULT_1
 70
0
 62
7
  6
CENTER
  0
LAYER
  2
DEFAULT_2
 70
0
 62
8
  6
HIDDEN
  0
LAYER
  2
DEFAULT_3
 70
0
 62
7
  6
PHANTOM
  0
LAYER
  2
1_AXIS
 70
0
 62
7
  6
CONTINUOUS
  0
LAYER
  2
1_CSYS
 70
0
 62
7
  6
CONTINUOUS
  0
LAYER
  2
1_DATUM_PLANE
 70
0
 62
7
  6
CONTINUOUS
  0
LAYER
  2
1_DATUM_PLANES
 70
0
 62
7
  6
CONTINUOUS
  0
LAYER
  2
2_FEATURE
 70
0
 62
7
  6
CONTINUOUS
  0
LAYER
  2
4_QUILT
 70
0
 62
7
  6
CONTINUOUS
  0
LAYER
  2
4_SURFACE
 70
0
 62
7
  6
CONTINUOUS
  0
LAYER
  2
6_DIM
 70
0
 62
7
  6
CONTINUOUS
  0
LAYER
  2
CSYS
 70
0
 62
7
  6
CONTINUOUS
  0
LAYER
  2
XSEC_DATUMS
 70
0
 62
7
  6
CONTINUOUS
  0
ENDTAB
  0
TABLE
  2
STYLE
 70
1
  0
STYLE
  2
STANDARD
 70
0
 40
0.0
 41
0.8
 50
0.0
 71
0
 42
0.2
  3
txt
  4

  0
STYLE
  2
TEXTSTYLE_1
 70
0
 40
0.0
 41
0.8
 50
0.0
 71
0
 42
0.2
  3
gdt
  4

  0
STYLE
  2
TEXTSTYLE_2
 70
0
 40
0.0
 41
0.6
 50
0.0
 71
0
 42
0.2
  3
txt
  4

  0
STYLE
  2
TEXTSTYLE_3
 70
0
 40
0.0
 41
1.0
 50
0.0
 71
0
 42
0.2
  3
ftb_____.ttf
  4

  0
STYLE
  2
TEXTSTYLE_4
 70
0
 40
0.0
 41
1.0
 50
0.0
 71
0
 42
0.2
  3
fti_____.ttf
  4

  0
STYLE
  2
TEXTSTYLE_5
 70
0
 40
0.0
 41
1.0
 50
0.0
 71
0
 42
0.2
  3
frutiger light.ttf
  4

  0
STYLE
  2
TEXTSTYLE_6
 70
0
 40
0.0
 41
0.7
 50
0.0
 71
0
 42
0.2
  3
txt
  4

  0
STYLE
  2
TEXTSTYLE_7
 70
0
 40
0.0
 41
0.8
 50
0.0
 71
0
 42
0.2
  3
txt
  4

  0
ENDTAB
  0
ENDSEC
  0
SECTION
  2
BLOCKS
  0
BLOCK
  8
0
 62
2
  6
CONTINUOUS
  2
UNI_LOGO2_BL1
 70
64
 10
173.5956734183
 20
35.5937998301
  0
TEXT
  8
0
 62
7
  6
CONTINUOUS
 10
164.6539584268
 20
30.6865562072
  7
TEXTSTYLE_4
 40
1.0655737705
  1
The brand for plastic modular belts and chains
 41
1.0
 72
0
  0
LINE
  8
0
 62
7
  6
CONTINUOUS
 10
149.5737418074
 20
36.1675703219
 11
149.5737418074
 21
34.0364227809
  0
LINE
  8
0
 62
7
  6
CONTINUOUS
 10
149.8628043005
 20
31.0454914852
 11
149.8628043005
 21
31.1422825445
  0
LINE
  8
0
 62
7
  6
CONTINUOUS
 10
149.5737418074
 20
31.1100188581
 11
149.6315543091
 21
30.9164367395
  0
LINE
  8
0
 62
7
  6
CONTINUOUS
 10
150.9671844304
 20
33.9544555678
 11
150.9671844304
 21
36.1675703219
  0
LINE
  8
0
 62
7
  6
CONTINUOUS
 10
151.8862417523
 20
32.1101932727
 11
151.8862417523
 21
30.5937998301
  0
LINE
  8
0
 62
7
  6
CONTINUOUS
 10
152.1753043074
 20
30.5937998301
 11
152.1753043074
 21
31.3358647082
  0
LINE
  8
0
 62
7
  6
CONTINUOUS
 10
152.1753043074
 20
31.4649194539
 11
152.1753043074
 21
32.1101932727
  0
LINE
  8
0
 62
7
  6
CONTINUOUS
 10
149.6315543091
 20
31.3036010218
 11
149.5737418074
 21
31.1100188581
  0
LINE
  8
0
 62
7
  6
CONTINUOUS
 10
149.9784292936
 20
30.8841730531
 11
149.8628043005
 21
31.0454914852
  0
LINE
  8
0
 62
7
  6
CONTINUOUS
 10
151.0768668626
 20
31.400392081
 11
151.1346793074
 21
31.3036010218
  0
LINE
  8
0
 62
7
  6
CONTINUOUS
 10
151.4237418626
 20
31.3036010218
 11
151.3659292523
 21
31.4326557675
  0
LINE
  8
0
 62
7
  6
CONTINUOUS
 10
152.852430332
 20
36.1675703219
 11
152.852430332
 21
34.3642916334
  0
LINE
  8
0
 62
7
  6
CONTINUOUS
 10
152.852430332
 20
33.0528162235
 11
152.852430332
 21
32.3970785186
  0
LINE
  8
0
 62
7
  6
CONTINUOUS
 10
153.2159293074
 20
31.2390736489
 11
153.2159293074
 21
30.5937998301
  0
LINE
  8
0
 62
7
  6
CONTINUOUS
 10
153.5049916972
 20
30.5937998301
 11
153.5049916972
 21
31.2390736489
  0
LINE
  8
0
 62
7
  6
CONTINUOUS
 10
149.8628043005
 20
31.1422825445
 11
149.9206168074
 21
31.2713373354
  0
LINE
  8
0
 62
7
  6
CONTINUOUS
 10
149.6315543091
 20
30.9164367395
 11
149.7471793074
 21
30.7873819712
  0
LINE
  8
0
 62
7
  6
CONTINUOUS
 10
153.1581166972
 20
31.3681283946
 11
153.2159293074
 21
31.2390736489
  0
LINE
  8
0
 62
7
  6
CONTINUOUS
 10
153.9674919177
 20
30.8841730531
 11
154.0253041972
 21
30.7551182848
  0
LINE
  8
0
 62
7
  6
CONTINUOUS
 10
153.5049916972
 20
31.2390736489
 11
153.4471794177
 21
31.400392081
  0
LINE
  8
0
 62
7
  6
CONTINUOUS
 10
153.9674919177
 20
31.4326557675
 11
153.9674919177
 21
31.3681283946
  0
LINE
  8
0
 62
7
  6
CONTINUOUS
 10
153.9674919177
 20
30.9809641124
 11
153.9674919177
 21
30.8841730531
  0
LINE
  8
0
 62
7
  6
CONTINUOUS
 10
154.245872955
 20
32.3970785186
 11
154.245872955
 21
36.1675703219
  0
LINE
  8
0
 62
7
  6
CONTINUOUS
 10
154.2565543074
 20
30.8519093441
 11
154.2565543074
 21
30.9164367395
  0
LINE
  8
0
 62
7
  6
CONTINUOUS
 10
154.5737418074
 20
36.1675703219
 11
154.5737418074
 21
32.3970785186
  0
LINE
  8
0
 62
7
  6
CONTINUOUS
 10
151.3659292523
 20
30.7873819712
 11
151.4237418626
 21
30.9164367395
  0
LINE
  8
0
 62
7
  6
CONTINUOUS
 10
155.759679528
 20
30.6905909007
 11
155.7018665869
 21
30.8519093441
  0
LINE
  8
0
 62
7
  6
CONTINUOUS
 10
155.412804528
 20
31.3681283946
 11
155.412804528
 21
31.2713373354
  0
LINE
  8
0
 62
7
  6
CONTINUOUS
 10
155.412804528
 20
31.1422825445
 11
155.412804528
 21
30.9487004259
  0
LINE
  8
0
 62
7
  6
CONTINUOUS
 10
155.7018665869
 20
30.8519093441
 11
155.7018665869
 21
31.3681283946
  0
LINE
  8
0
 62
7
  6
CONTINUOUS
 10
155.9671844304
 20
32.3970785186
 11
155.9671844304
 21
34.2003572071
  0
LINE
  8
0
 62
7
  6
CONTINUOUS
 10
155.9671844304
 20
35.511832617
 11
155.9671844304
 21
36.1675703219
  0
LINE
  8
0
 62
7
  6
CONTINUOUS
 10
156.279992028
 20
32.1101932727
 11
156.279992028
 21
31.9488748406
  0
LINE
  8
0
 62
7
  6
CONTINUOUS
 10
156.279992028
 20
31.626237886
 11
156.279992028
 21
30.5937998301
  0
LINE
  8
0
 62
7
  6
CONTINUOUS
 10
156.5690540869
 20
30.5937998301
 11
156.5690540869
 21
31.626237886
  0
LINE
  8
0
 62
7
  6
CONTINUOUS
 10
156.5690540869
 20
31.9488748406
 11
156.5690540869
 21
32.1101932727
  0
LINE
  8
0
 62
7
  6
CONTINUOUS
 10
151.1346793074
 20
30.9164367395
 11
151.0768668626
 21
30.8196456577
  0
LINE
  8
0
 62
7
  6
CONTINUOUS
 10
153.4471794177
 20
31.400392081
 11
153.3893668074
 21
31.4649194539
  0
LINE
  8
0
 62
7
  6
CONTINUOUS
 10
154.3143669177
 20
30.7873819712
 11
154.2565543074
 21
30.8519093441
  0
LINE
  8
0
 62
7
  6
CONTINUOUS
 10
155.4706168074
 20
30.6583272086
 11
155.5284290869
 21
30.5937998301
  0
LINE
  8
0
 62
7
  6
CONTINUOUS
 10
155.412804528
 20
30.7551182848
 11
155.4706168074
 21
30.6583272086
  0
LINE
  8
0
 62
7
  6
CONTINUOUS
 10
155.8174918074
 20
30.5937998301
 11
155.759679528
 21
30.6905909007
  0
LINE
  8
0
 62
7
  6
CONTINUOUS
 10
155.7018665869
 20
31.3681283946
 11
155.6440543074
 21
31.4649194539
  0
LINE
  8
0
 62
7
  6
CONTINUOUS
 10
157.0315543074
 20
31.626237886
 11
157.0315543074
 21
30.5937998301
  0
LINE
  8
0
 62
7
  6
CONTINUOUS
 10
157.320617028
 20
30.5937998301
 11
157.320617028
 21
31.3358647082
  0
LINE
  8
0
 62
7
  6
CONTINUOUS
 10
157.320617028
 20
31.4649194539
 11
157.320617028
 21
31.626237886
  0
LINE
  8
0
 62
7
  6
CONTINUOUS
 10
157.852430332
 20
34.6101932727
 11
157.852430332
 21
32.3970785186
  0
LINE
  8
0
 62
7
  6
CONTINUOUS
 10
149.7471793074
 20
31.4326557675
 11
149.6315543091
 21
31.3036010218
  0
LINE
  8
0
 62
7
  6
CONTINUOUS
 10
149.9206168074
 20
31.2713373354
 11
149.9784292936
 21
31.3358647082
  0
LINE
  8
0
 62
7
  6
CONTINUOUS
 10
149.7471793074
 20
30.7873819712
 11
149.8628043005
 21
30.7228545871
  0
LINE
  8
0
 62
7
  6
CONTINUOUS
 10
150.1518667936
 20
30.7873819712
 11
149.9784292936
 21
30.8841730531
  0
LINE
  8
0
 62
7
  6
CONTINUOUS
 10
155.3549915869
 20
31.4326557675
 11
155.412804528
 21
31.3681283946
  0
LINE
  8
0
 62
7
  6
CONTINUOUS
 10
158.3034290869
 20
31.3681283946
 11
158.361242028
 21
31.2068099625
  0
LINE
  8
0
 62
7
  6
CONTINUOUS
 10
158.6503040869
 20
31.2068099625
 11
158.5924918074
 21
31.3681283946
  0
LINE
  8
0
 62
7
  6
CONTINUOUS
 10
158.361242028
 20
31.2068099625
 11
158.361242028
 21
30.5937998301
  0
LINE
  8
0
 62
7
  6
CONTINUOUS
 10
158.6503040869
 20
30.5937998301
 11
158.6503040869
 21
31.2068099625
  0
LINE
  8
0
 62
7
  6
CONTINUOUS
 10
159.1128043074
 20
31.4326557675
 11
159.1128043074
 21
31.3681283946
  0
LINE
  8
0
 62
7
  6
CONTINUOUS
 10
159.245872955
 20
32.3970785186
 11
159.245872955
 21
34.5282260596
  0
LINE
  8
0
 62
7
  6
CONTINUOUS
 10
159.5737418074
 20
36.1675703219
 11
159.5737418074
 21
32.3970785186
  0
LINE
  8
0
 62
7
  6
CONTINUOUS
 10
154.2565543074
 20
30.9164367395
 11
154.3143669177
 21
31.0132277988
  0
LINE
  8
0
 62
7
  6
CONTINUOUS
 10
149.8628043005
 20
30.7228545871
 11
150.0362418212
 21
30.6583272086
  0
LINE
  8
0
 62
7
  6
CONTINUOUS
 10
151.3659292523
 20
31.4326557675
 11
151.1924917523
 21
31.5294468267
  0
LINE
  8
0
 62
7
  6
CONTINUOUS
 10
154.0253041972
 20
30.7551182848
 11
154.1987416972
 21
30.6583272086
  0
LINE
  8
0
 62
7
  6
CONTINUOUS
 10
153.0424918074
 20
31.4326557675
 11
153.1581166972
 21
31.3681283946
  0
LINE
  8
0
 62
7
  6
CONTINUOUS
 10
153.3893668074
 20
31.4649194539
 11
153.2737419177
 21
31.5294468267
  0
LINE
  8
0
 62
7
  6
CONTINUOUS
 10
159.1128043074
 20
30.8519093441
 11
159.228429528
 21
30.7228545871
  0
LINE
  8
0
 62
7
  6
CONTINUOUS
 10
159.4596793074
 20
30.7873819712
 11
159.401867028
 21
30.8519093441
  0
LINE
  8
0
 62
7
  6
CONTINUOUS
 10
159.1128043074
 20
31.3681283946
 11
159.228429528
 21
31.2390736489
  0
LINE
  8
0
 62
7
  6
CONTINUOUS
 10
158.5924918074
 20
31.3681283946
 11
158.534679528
 21
31.4649194539
  0
LINE
  8
0
 62
7
  6
CONTINUOUS
 10
160.9628038663
 20
30.7873819712
 11
160.9628038663
 21
30.8519093441
  0
LINE
  8
0
 62
7
  6
CONTINUOUS
 10
160.9671844304
 20
32.3970785186
 11
160.9671844304
 21
36.1675703219
  0
LINE
  8
0
 62
7
  6
CONTINUOUS
 10
154.0253041972
 20
31.4971831403
 11
153.9674919177
 21
31.4326557675
  0
LINE
  8
0
 62
7
  6
CONTINUOUS
 10
150.9034292799
 20
31.4649194539
 11
151.0768668626
 21
31.400392081
  0
LINE
  8
0
 62
7
  6
CONTINUOUS
 10
155.6440543074
 20
31.4649194539
 11
155.5284290869
 21
31.5294468267
  0
LINE
  8
0
 62
7
  6
CONTINUOUS
 10
159.4596793074
 20
31.3036010218
 11
159.401867028
 21
31.3681283946
  0
LINE
  8
0
 62
7
  6
CONTINUOUS
 10
160.615929528
 20
30.9164367395
 11
160.6737418074
 21
30.8519093441
  0
LINE
  8
0
 62
7
  6
CONTINUOUS
 10
160.9628038663
 20
30.8519093441
 11
160.8471793074
 21
30.9809641124
  0
LINE
  8
0
 62
7
  6
CONTINUOUS
 10
160.615929528
 20
31.4326557675
 11
160.6737418074
 21
31.3681283946
  0
LINE
  8
0
 62
7
  6
CONTINUOUS
 10
160.9628038663
 20
31.3681283946
 11
160.8471793074
 21
31.4971831403
  0
LINE
  8
0
 62
7
  6
CONTINUOUS
 10
154.2565543074
 20
31.3681283946
 11
154.3143669177
 21
31.4326557675
  0
LINE
  8
0
 62
7
  6
CONTINUOUS
 10
154.0831168074
 20
31.1100188581
 11
153.9674919177
 21
30.9809641124
  0
LINE
  8
0
 62
7
  6
CONTINUOUS
 10
155.412804528
 20
30.9487004259
 11
155.3549915869
 21
30.8841730531
  0
LINE
  8
0
 62
7
  6
CONTINUOUS
 10
155.3549915869
 20
30.6905909007
 11
155.412804528
 21
30.7551182848
  0
LINE
  8
0
 62
7
  6
CONTINUOUS
 10
154.1987416972
 20
30.6583272086
 11
154.3143669177
 21
30.6260635193
  0
LINE
  8
0
 62
7
  6
CONTINUOUS
 10
151.1924917523
 20
31.5294468267
 11
150.9612418074
 21
31.5939741996
  0
LINE
  8
0
 62
7
  6
CONTINUOUS
 10
154.5456166972
 20
30.7228545871
 11
154.3143669177
 21
30.7873819712
  0
LINE
  8
0
 62
7
  6
CONTINUOUS
 10
153.2737419177
 20
31.5294468267
 11
153.1003044177
 21
31.5939741996
  0
LINE
  8
0
 62
7
  6
CONTINUOUS
 10
155.5284290869
 20
31.5294468267
 11
155.3549915869
 21
31.5939741996
  0
LINE
  8
0
 62
7
  6
CONTINUOUS
 10
158.187804528
 20
31.4326557675
 11
158.3034290869
 21
31.3681283946
  0
LINE
  8
0
 62
7
  6
CONTINUOUS
 10
158.534679528
 20
31.4649194539
 11
158.4190543074
 21
31.5294468267
  0
LINE
  8
0
 62
7
  6
CONTINUOUS
 10
150.0362418212
 20
30.6583272086
 11
150.2096793212
 21
30.6260635193
  0
LINE
  8
0
 62
7
  6
CONTINUOUS
 10
150.498741835
 20
30.7228545871
 11
150.1518667936
 21
30.7873819712
  0
LINE
  8
0
 62
7
  6
CONTINUOUS
 10
152.9268669177
 20
31.4649194539
 11
153.0424918074
 21
31.4326557675
  0
LINE
  8
0
 62
7
  6
CONTINUOUS
 10
155.239367028
 20
31.4649194539
 11
155.3549915869
 21
31.4326557675
  0
LINE
  8
0
 62
7
  6
CONTINUOUS
 10
159.575304528
 20
30.7551182848
 11
159.4596793074
 21
30.7873819712
  0
LINE
  8
0
 62
7
  6
CONTINUOUS
 10
158.0721793074
 20
31.4649194539
 11
158.187804528
 21
31.4326557675
  0
LINE
  8
0
 62
7
  6
CONTINUOUS
 10
159.228429528
 20
30.7228545871
 11
159.401867028
 21
30.6583272086
  0
LINE
  8
0
 62
7
  6
CONTINUOUS
 10
158.4190543074
 20
31.5294468267
 11
158.2456168074
 21
31.5939741996
  0
LINE
  8
0
 62
7
  6
CONTINUOUS
 10
159.6331168074
 20
31.2390736489
 11
159.4596793074
 21
31.3036010218
  0
LINE
  8
0
 62
7
  6
CONTINUOUS
 10
160.442492028
 20
30.9809641124
 11
160.615929528
 21
30.9164367395
  0
LINE
  8
0
 62
7
  6
CONTINUOUS
 10
160.8471793074
 20
31.4971831403
 11
160.6737418074
 21
31.5617105132
  0
LINE
  8
0
 62
7
  6
CONTINUOUS
 10
159.228429528
 20
31.2390736489
 11
159.4596793074
 21
31.1422825445
  0
LINE
  8
0
 62
7
  6
CONTINUOUS
 10
160.8471793074
 20
30.9809641124
 11
160.615929528
 21
31.0777551716
  0
LINE
  8
0
 62
7
  6
CONTINUOUS
 10
159.401867028
 20
31.3681283946
 11
159.4596793074
 21
31.4326557675
  0
LINE
  8
0
 62
7
  6
CONTINUOUS
 10
149.8628043005
 20
31.4971831403
 11
149.7471793074
 21
31.4326557675
  0
LINE
  8
0
 62
7
  6
CONTINUOUS
 10
149.9784292936
 20
31.3358647082
 11
150.1518667936
 21
31.4326557675
  0
LINE
  8
0
 62
7
  6
CONTINUOUS
 10
152.2909293626
 20
31.5294468267
 11
152.1753043074
 21
31.4649194539
  0
LINE
  8
0
 62
7
  6
CONTINUOUS
 10
152.1753043074
 20
31.3358647082
 11
152.2909293626
 21
31.400392081
  0
LINE
  8
0
 62
7
  6
CONTINUOUS
 10
151.1924917523
 20
30.6905909007
 11
151.3659292523
 21
30.7873819712
  0
LINE
  8
0
 62
7
  6
CONTINUOUS
 10
150.2096793212
 20
30.6260635193
 11
150.5565542799
 21
30.5937998301
  0
LINE
  8
0
 62
7
  6
CONTINUOUS
 10
154.3143669177
 20
30.6260635193
 11
154.5456166972
 21
30.5937998301
  0
LINE
  8
0
 62
7
  6
CONTINUOUS
 10
152.6956168074
 20
31.4971831403
 11
152.9268669177
 21
31.4649194539
  0
LINE
  8
0
 62
7
  6
CONTINUOUS
 10
155.0081169177
 20
31.4971831403
 11
155.239367028
 21
31.4649194539
  0
LINE
  8
0
 62
7
  6
CONTINUOUS
 10
159.4596793074
 20
31.1422825445
 11
160.442492028
 21
30.9809641124
  0
LINE
  8
0
 62
7
  6
CONTINUOUS
 10
160.615929528
 20
31.0777551716
 11
159.6331168074
 21
31.2390736489
  0
LINE
  8
0
 62
7
  6
CONTINUOUS
 10
153.1003044177
 20
31.5939741996
 11
152.9268669177
 21
31.626237886
  0
LINE
  8
0
 62
7
  6
CONTINUOUS
 10
159.401867028
 20
30.6583272086
 11
159.575304528
 21
30.6260635193
  0
LINE
  8
0
 62
7
  6
CONTINUOUS
 10
158.2456168074
 20
31.5939741996
 11
158.0721793074
 21
31.626237886
  0
LINE
  8
0
 62
7
  6
CONTINUOUS
 10
160.5003043074
 20
31.4649194539
 11
160.615929528
 21
31.4326557675
  0
LINE
  8
0
 62
7
  6
CONTINUOUS
 10
160.6737418074
 20
30.8519093441
 11
160.615929528
 21
30.7873819712
  0
LINE
  8
0
 62
7
  6
CONTINUOUS
 10
159.228429528
 20
31.5294468267
 11
159.1128043074
 21
31.4326557675
  0
LINE
  8
0
 62
7
  6
CONTINUOUS
 10
154.1409294177
 20
31.5617105132
 11
154.0253041972
 21
31.4971831403
  0
LINE
  8
0
 62
7
  6
CONTINUOUS
 10
154.1987416972
 20
31.1745462761
 11
154.0831168074
 21
31.1100188581
  0
LINE
  8
0
 62
7
  6
CONTINUOUS
 10
154.3143669177
 20
31.0132277988
 11
154.4299918074
 21
31.0777551716
  0
LINE
  8
0
 62
7
  6
CONTINUOUS
 10
151.8862417523
 20
30.5937998301
 11
152.1753043074
 21
30.5937998301
  0
LINE
  8
0
 62
7
  6
CONTINUOUS
 10
153.2159293074
 20
30.5937998301
 11
153.5049916972
 21
30.5937998301
  0
LINE
  8
0
 62
7
  6
CONTINUOUS
 10
154.5456166972
 20
30.5937998301
 11
154.8924916972
 21
30.5937998301
  0
LINE
  8
0
 62
7
  6
CONTINUOUS
 10
155.5284290869
 20
30.5937998301
 11
155.8174918074
 21
30.5937998301
  0
LINE
  8
0
 62
7
  6
CONTINUOUS
 10
156.279992028
 20
30.5937998301
 11
156.5690540869
 21
30.5937998301
  0
LINE
  8
0
 62
7
  6
CONTINUOUS
 10
157.0315543074
 20
30.5937998301
 11
157.320617028
 21
30.5937998301
  0
LINE
  8
0
 62
7
  6
CONTINUOUS
 10
158.361242028
 20
30.5937998301
 11
158.6503040869
 21
30.5937998301
  0
LINE
  8
0
 62
7
  6
CONTINUOUS
 10
159.922179528
 20
30.5937998301
 11
160.269054528
 21
30.5937998301
  0
LINE
  8
0
 62
7
  6
CONTINUOUS
 10
160.269054528
 20
30.7228545871
 11
159.922179528
 21
30.7228545871
  0
LINE
  8
0
 62
7
  6
CONTINUOUS
 10
154.8924916972
 20
30.7228545871
 11
154.5456166972
 21
30.7228545871
  0
LINE
  8
0
 62
7
  6
CONTINUOUS
 10
159.401867028
 20
30.8519093441
 11
159.1128043074
 21
30.8519093441
  0
LINE
  8
0
 62
7
  6
CONTINUOUS
 10
151.4237418626
 20
30.9164367395
 11
151.1346793074
 21
30.9164367395
  0
LINE
  8
0
 62
7
  6
CONTINUOUS
 10
150.498741835
 20
31.4971831403
 11
150.9034292799
 21
31.4649194539
  0
LINE
  8
0
 62
7
  6
CONTINUOUS
 10
150.9612418074
 20
31.5939741996
 11
150.5565542799
 21
31.626237886
  0
LINE
  8
0
 62
7
  6
CONTINUOUS
 10
159.575304528
 20
30.6260635193
 11
159.922179528
 21
30.5937998301
  0
LINE
  8
0
 62
7
  6
CONTINUOUS
 10
159.922179528
 20
30.7228545871
 11
159.575304528
 21
30.7551182848
  0
LINE
  8
0
 62
7
  6
CONTINUOUS
 10
155.3549915869
 20
31.5939741996
 11
155.0081169177
 21
31.626237886
  0
LINE
  8
0
 62
7
  6
CONTINUOUS
 10
160.1534293074
 20
31.4971831403
 11
160.5003043074
 21
31.4649194539
  0
LINE
  8
0
 62
7
  6
CONTINUOUS
 10
160.5003043074
 20
31.5939741996
 11
160.1534293074
 21
31.626237886
  0
LINE
  8
0
 62
7
  6
CONTINUOUS
 10
157.840929528
 20
31.4971831403
 11
158.0721793074
 21
31.4649194539
  0
LINE
  8
0
 62
7
  6
CONTINUOUS
 10
160.6737418074
 20
31.5617105132
 11
160.5003043074
 21
31.5939741996
  0
LINE
  8
0
 62
7
  6
CONTINUOUS
 10
160.8471793074
 20
30.6905909007
 11
160.9628038663
 21
30.7873819712
  0
LINE
  8
0
 62
7
  6
CONTINUOUS
 10
155.3549915869
 20
30.8841730531
 11
155.1815540869
 21
30.7873819712
  0
LINE
  8
0
 62
7
  6
CONTINUOUS
 10
157.4362415869
 20
31.5294468267
 11
157.320617028
 21
31.4649194539
  0
LINE
  8
0
 62
7
  6
CONTINUOUS
 10
157.320617028
 20
31.3358647082
 11
157.4362415869
 21
31.400392081
  0
LINE
  8
0
 62
7
  6
CONTINUOUS
 10
150.0362418212
 20
31.5617105132
 11
149.8628043005
 21
31.4971831403
  0
LINE
  8
0
 62
7
  6
CONTINUOUS
 10
152.4643666972
 20
31.5939741996
 11
152.2909293626
 21
31.5294468267
  0
LINE
  8
0
 62
7
  6
CONTINUOUS
 10
152.2909293626
 20
31.400392081
 11
152.4643666972
 21
31.4649194539
  0
LINE
  8
0
 62
7
  6
CONTINUOUS
 10
151.0768668626
 20
30.8196456577
 11
150.9034292799
 21
30.7551182848
  0
LINE
  8
0
 62
7
  6
CONTINUOUS
 10
160.5003043074
 20
30.7551182848
 11
160.269054528
 21
30.7228545871
  0
LINE
  8
0
 62
7
  6
CONTINUOUS
 10
154.8924916972
 20
30.5937998301
 11
155.1815540869
 21
30.6260635193
  0
LINE
  8
0
 62
7
  6
CONTINUOUS
 10
160.269054528
 20
30.5937998301
 11
160.615929528
 21
30.6260635193
  0
LINE
  8
0
 62
7
  6
CONTINUOUS
 10
150.5565542799
 20
30.5937998301
 11
150.9612418074
 21
30.6260635193
  0
LINE
  8
0
 62
7
  6
CONTINUOUS
 10
150.9034292799
 20
30.7551182848
 11
150.498741835
 21
30.7228545871
  0
LINE
  8
0
 62
7
  6
CONTINUOUS
 10
154.7768668074
 20
31.1422825445
 11
155.412804528
 21
31.1422825445
  0
LINE
  8
0
 62
7
  6
CONTINUOUS
 10
155.412804528
 20
31.2713373354
 11
154.7768668074
 21
31.2713373354
  0
LINE
  8
0
 62
7
  6
CONTINUOUS
 10
151.1346793074
 20
31.3036010218
 11
151.4237418626
 21
31.3036010218
  0
LINE
  8
0
 62
7
  6
CONTINUOUS
 10
153.9674919177
 20
31.3681283946
 11
154.2565543074
 21
31.3681283946
  0
LINE
  8
0
 62
7
  6
CONTINUOUS
 10
160.6737418074
 20
31.3681283946
 11
160.9628038663
 21
31.3681283946
  0
LINE
  8
0
 62
7
  6
CONTINUOUS
 10
154.6612419177
 20
31.4971831403
 11
155.0081169177
 21
31.4971831403
  0
LINE
  8
0
 62
7
  6
CONTINUOUS
 10
159.8065543074
 20
31.4971831403
 11
160.1534293074
 21
31.4971831403
  0
LINE
  8
0
 62
7
  6
CONTINUOUS
 10
160.1534293074
 20
31.626237886
 11
159.8065543074
 21
31.626237886
  0
LINE
  8
0
 62
7
  6
CONTINUOUS
 10
158.0721793074
 20
31.626237886
 11
157.840929528
 21
31.626237886
  0
LINE
  8
0
 62
7
  6
CONTINUOUS
 10
157.320617028
 20
31.626237886
 11
157.0315543074
 21
31.626237886
  0
LINE
  8
0
 62
7
  6
CONTINUOUS
 10
156.5690540869
 20
31.626237886
 11
156.279992028
 21
31.626237886
  0
LINE
  8
0
 62
7
  6
CONTINUOUS
 10
155.0081169177
 20
31.626237886
 11
154.6612419177
 21
31.626237886
  0
LINE
  8
0
 62
7
  6
CONTINUOUS
 10
152.9268669177
 20
31.626237886
 11
152.6956168074
 21
31.626237886
  0
LINE
  8
0
 62
7
  6
CONTINUOUS
 10
156.279992028
 20
31.9488748406
 11
156.5690540869
 21
31.9488748406
  0
LINE
  8
0
 62
7
  6
CONTINUOUS
 10
156.5690540869
 20
32.1101932727
 11
156.279992028
 21
32.1101932727
  0
LINE
  8
0
 62
7
  6
CONTINUOUS
 10
152.1753043074
 20
32.1101932727
 11
151.8862417523
 21
32.1101932727
  0
LINE
  8
0
 62
7
  6
CONTINUOUS
 10
151.2130860697
 20
32.3970785186
 11
151.6256574183
 21
32.3970785186
  0
LINE
  8
0
 62
7
  6
CONTINUOUS
 10
152.852430332
 20
32.3970785186
 11
154.245872955
 21
32.3970785186
  0
LINE
  8
0
 62
7
  6
CONTINUOUS
 10
154.5737418074
 20
32.3970785186
 11
155.9671844304
 21
32.3970785186
  0
LINE
  8
0
 62
7
  6
CONTINUOUS
 10
157.852430332
 20
32.3970785186
 11
159.245872955
 21
32.3970785186
  0
LINE
  8
0
 62
7
  6
CONTINUOUS
 10
159.5737418074
 20
32.3970785186
 11
160.9671844304
 21
32.3970785186
  0
LINE
  8
0
 62
7
  6
CONTINUOUS
 10
157.6096790869
 20
31.5939741996
 11
157.4362415869
 21
31.5294468267
  0
LINE
  8
0
 62
7
  6
CONTINUOUS
 10
155.1815540869
 20
30.6260635193
 11
155.3549915869
 21
30.6905909007
  0
LINE
  8
0
 62
7
  6
CONTINUOUS
 10
160.615929528
 20
30.6260635193
 11
160.8471793074
 21
30.6905909007
  0
LINE
  8
0
 62
7
  6
CONTINUOUS
 10
160.615929528
 20
30.7873819712
 11
160.5003043074
 21
30.7551182848
  0
LINE
  8
0
 62
7
  6
CONTINUOUS
 10
159.575304528
 20
31.4649194539
 11
159.8065543074
 21
31.4971831403
  0
LINE
  8
0
 62
7
  6
CONTINUOUS
 10
157.6096790869
 20
31.4649194539
 11
157.840929528
 21
31.4971831403
  0
LINE
  8
0
 62
7
  6
CONTINUOUS
 10
154.5456166972
 20
31.1100188581
 11
154.7768668074
 21
31.1422825445
  0
LINE
  8
0
 62
7
  6
CONTINUOUS
 10
157.840929528
 20
31.626237886
 11
157.6096790869
 21
31.5939741996
  0
LINE
  8
0
 62
7
  6
CONTINUOUS
 10
154.4299918074
 20
31.4649194539
 11
154.6612419177
 21
31.4971831403
  0
LINE
  8
0
 62
7
  6
CONTINUOUS
 10
159.8065543074
 20
31.626237886
 11
159.4596793074
 21
31.5939741996
  0
LINE
  8
0
 62
7
  6
CONTINUOUS
 10
154.7768668074
 20
31.2713373354
 11
154.4299918074
 21
31.2390736489
  0
LINE
  8
0
 62
7
  6
CONTINUOUS
 10
150.5565542799
 20
31.626237886
 11
150.2096793212
 21
31.5939741996
  0
LINE
  8
0
 62
7
  6
CONTINUOUS
 10
154.6612419177
 20
31.626237886
 11
154.2565543074
 21
31.5939741996
  0
LINE
  8
0
 62
7
  6
CONTINUOUS
 10
152.0327582009
 20
33.5446195022
 11
151.3770204959
 21
33.5446195022
  0
LINE
  8
0
 62
7
  6
CONTINUOUS
 10
157.4362415869
 20
31.400392081
 11
157.6096790869
 21
31.4649194539
  0
LINE
  8
0
 62
7
  6
CONTINUOUS
 10
159.4596793074
 20
31.4326557675
 11
159.575304528
 21
31.4649194539
  0
LINE
  8
0
 62
7
  6
CONTINUOUS
 10
159.4596793074
 20
31.5939741996
 11
159.228429528
 21
31.5294468267
  0
LINE
  8
0
 62
7
  6
CONTINUOUS
 10
155.1815540869
 20
30.7873819712
 11
154.8924916972
 21
30.7228545871
  0
LINE
  8
0
 62
7
  6
CONTINUOUS
 10
152.4643666972
 20
31.4649194539
 11
152.6956168074
 21
31.4971831403
  0
LINE
  8
0
 62
7
  6
CONTINUOUS
 10
152.6956168074
 20
31.626237886
 11
152.4643666972
 21
31.5939741996
  0
LINE
  8
0
 62
7
  6
CONTINUOUS
 10
150.2674918074
 20
31.4649194539
 11
150.498741835
 21
31.4971831403
  0
LINE
  8
0
 62
7
  6
CONTINUOUS
 10
156.7868565615
 20
35.0200293383
 11
157.4425942664
 21
35.0200293383
  0
LINE
  8
0
 62
7
  6
CONTINUOUS
 10
154.4299918074
 20
31.0777551716
 11
154.5456166972
 21
31.1100188581
  0
LINE
  8
0
 62
7
  6
CONTINUOUS
 10
154.4299918074
 20
31.2390736489
 11
154.1987416972
 21
31.1745462761
  0
LINE
  8
0
 62
7
  6
CONTINUOUS
 10
154.3143669177
 20
31.4326557675
 11
154.4299918074
 21
31.4649194539
  0
LINE
  8
0
 62
7
  6
CONTINUOUS
 10
150.9612418074
 20
30.6260635193
 11
151.1924917523
 21
30.6905909007
  0
LINE
  8
0
 62
7
  6
CONTINUOUS
 10
154.2565543074
 20
31.5939741996
 11
154.1409294177
 21
31.5617105132
  0
LINE
  8
0
 62
7
  6
CONTINUOUS
 10
150.2096793212
 20
31.5939741996
 11
150.0362418212
 21
31.5617105132
  0
LINE
  8
0
 62
7
  6
CONTINUOUS
 10
160.9671844304
 20
36.1675703219
 11
159.5737418074
 21
36.1675703219
  0
LINE
  8
0
 62
7
  6
CONTINUOUS
 10
157.6065286927
 20
36.1675703219
 11
157.1939573441
 21
36.1675703219
  0
LINE
  8
0
 62
7
  6
CONTINUOUS
 10
155.9671844304
 20
36.1675703219
 11
154.5737418074
 21
36.1675703219
  0
LINE
  8
0
 62
7
  6
CONTINUOUS
 10
154.245872955
 20
36.1675703219
 11
152.852430332
 21
36.1675703219
  0
LINE
  8
0
 62
7
  6
CONTINUOUS
 10
150.9671844304
 20
36.1675703219
 11
149.5737418074
 21
36.1675703219
  0
LINE
  8
0
 62
7
  6
CONTINUOUS
 10
150.1518667936
 20
31.4326557675
 11
150.2674918074
 21
31.4649194539
  0
CIRCLE
  8
0
 62
7
  6
CONTINUOUS
 10
160.2704631189
 20
38.5036358957
 40
2.0901639344
  0
ARC
  8
0
 62
7
  6
CONTINUOUS
 10
151.2130860697
 20
34.0364227809
 40
1.6393442623
 50
180.0
 51
270.0
  0
ARC
  8
0
 62
7
  6
CONTINUOUS
 10
157.6065286927
 20
34.5282260596
 40
1.6393442623
 50
0.0
 51
90.0
  0
ARC
  8
0
 62
7
  6
CONTINUOUS
 10
151.6256574183
 20
33.8724883547
 40
1.4754098361
 50
270.0
 51
326.2510114041
  0
ARC
  8
0
 62
7
  6
CONTINUOUS
 10
157.1939573441
 20
34.6921604858
 40
1.4754098361
 50
90.0
 51
146.2510114041
  0
ARC
  8
0
 62
7
  6
CONTINUOUS
 10
152.0327582009
 20
34.3642916334
 40
0.8196721311
 50
270.0
 51
360.0
  0
ARC
  8
0
 62
7
  6
CONTINUOUS
 10
156.7868565615
 20
34.2003572071
 40
0.8196721311
 50
90.0
 51
180.0
  0
ARC
  8
0
 62
7
  6
CONTINUOUS
 10
151.3770204959
 20
33.9544555678
 40
0.4098360656
 50
180.0
 51
270.0
  0
ARC
  8
0
 62
7
  6
CONTINUOUS
 10
157.4425942664
 20
34.6101932727
 40
0.4098360656
 50
0.0
 51
90.0
  0
SOLID
  8
0
 62
7
  6
CONTINUOUS
 10
156.279992028
 20
31.9488752009
 11
156.279992028
 21
32.1101936845
 12
156.5690540869
 22
31.9488752009
 13
156.5690540869
 23
32.1101936845
  0
SOLID
  8
0
 62
7
  6
CONTINUOUS
 10
150.5565542799
 20
31.6262382337
 11
150.9612418074
 21
31.5939740028
 12
150.2096793212
 22
31.5939740028
 13
150.2096793212
 23
31.5939740028
  0
SOLID
  8
0
 62
7
  6
CONTINUOUS
 10
150.0362418212
 20
31.5617111435
 11
150.2096793212
 21
31.5939740028
 12
150.9612418074
 22
31.5939740028
 13
150.9612418074
 23
31.5939740028
  0
SOLID
  8
0
 62
7
  6
CONTINUOUS
 10
150.9612418074
 20
31.5939740028
 11
151.1924917523
 21
31.5294468402
 12
150.0362418212
 22
31.5617111435
 13
150.0362418212
 23
31.5617111435
  0
SOLID
  8
0
 62
7
  6
CONTINUOUS
 10
149.8628043005
 20
31.49718259
 11
150.0362418212
 21
31.5617111435
 12
151.1924917523
 22
31.5294468402
 13
151.1924917523
 23
31.5294468402
  0
SOLID
  8
0
 62
7
  6
CONTINUOUS
 10
149.8628043005
 20
31.49718259
 11
151.1924917523
 21
31.5294468402
 12
150.498741835
 22
31.49718259
 13
150.498741835
 23
31.49718259
  0
SOLID
  8
0
 62
7
  6
CONTINUOUS
 10
150.498741835
 20
31.49718259
 11
151.1924917523
 21
31.5294468402
 12
150.9034292799
 22
31.4649197501
 13
150.9034292799
 23
31.4649197501
  0
SOLID
  8
0
 62
7
  6
CONTINUOUS
 10
151.1924917523
 20
31.5294468402
 11
151.3659292523
 21
31.4326554468
 12
150.9034292799
 22
31.4649197501
 13
150.9034292799
 23
31.4649197501
  0
SOLID
  8
0
 62
7
  6
CONTINUOUS
 10
151.0768668626
 20
31.4003926599
 11
150.9034292799
 21
31.4649197501
 12
151.3659292523
 22
31.4326554468
 13
151.3659292523
 23
31.4326554468
  0
SOLID
  8
0
 62
7
  6
CONTINUOUS
 10
151.0768668626
 20
31.4003926599
 11
151.3659292523
 21
31.4326554468
 12
151.1346793074
 22
31.3036013776
 13
151.1346793074
 23
31.3036013776
  0
SOLID
  8
0
 62
7
  6
CONTINUOUS
 10
151.3659292523
 20
31.4326554468
 11
151.4237418626
 21
31.3036013776
 12
151.1346793074
 22
31.3036013776
 13
151.1346793074
 23
31.3036013776
  0
SOLID
  8
0
 62
7
  6
CONTINUOUS
 10
152.4643666972
 20
31.5939739754
 11
152.6956168074
 21
31.6262382787
 12
152.9268669177
 22
31.6262382787
 13
152.9268669177
 23
31.6262382787
  0
SOLID
  8
0
 62
7
  6
CONTINUOUS
 10
152.9268669177
 20
31.6262382787
 11
153.1003044177
 21
31.5939739754
 12
152.4643666972
 22
31.5939739754
 13
152.4643666972
 23
31.5939739754
  0
SOLID
  8
0
 62
7
  6
CONTINUOUS
 10
152.2909293626
 20
31.5294468852
 11
152.4643666972
 21
31.5939739754
 12
153.1003044177
 22
31.5939739754
 13
153.1003044177
 23
31.5939739754
  0
SOLID
  8
0
 62
7
  6
CONTINUOUS
 10
153.1003044177
 20
31.5939739754
 11
153.2737419177
 21
31.5294468852
 12
152.2909293626
 22
31.5294468852
 13
152.2909293626
 23
31.5294468852
  0
SOLID
  8
0
 62
7
  6
CONTINUOUS
 10
153.2737419177
 20
31.5294468852
 11
152.6956168074
 21
31.4971825369
 12
152.2909293626
 22
31.5294468852
 13
152.2909293626
 23
31.5294468852
  0
SOLID
  8
0
 62
7
  6
CONTINUOUS
 10
152.1753043074
 20
31.4649197951
 11
152.2909293626
 21
31.5294468852
 12
152.6956168074
 22
31.4971825369
 13
152.6956168074
 23
31.4971825369
  0
SOLID
  8
0
 62
7
  6
CONTINUOUS
 10
152.6956168074
 20
31.4971825369
 11
152.4643666972
 21
31.4649197951
 12
152.1753043074
 22
31.4649197951
 13
152.1753043074
 23
31.4649197951
  0
SOLID
  8
0
 62
7
  6
CONTINUOUS
 10
152.6956168074
 20
31.4971825369
 11
153.2737419177
 21
31.5294468852
 12
152.9268669177
 22
31.4649197951
 13
152.9268669177
 23
31.4649197951
  0
SOLID
  8
0
 62
7
  6
CONTINUOUS
 10
153.2737419177
 20
31.5294468852
 11
153.3893668074
 21
31.4649197951
 12
152.9268669177
 22
31.4649197951
 13
152.9268669177
 23
31.4649197951
  0
SOLID
  8
0
 62
7
  6
CONTINUOUS
 10
153.0424918074
 20
31.4326554468
 11
152.9268669177
 21
31.4649197951
 12
153.3893668074
 22
31.4649197951
 13
153.3893668074
 23
31.4649197951
  0
SOLID
  8
0
 62
7
  6
CONTINUOUS
 10
153.3893668074
 20
31.4649197951
 11
153.4471794177
 21
31.4003927049
 12
153.0424918074
 22
31.4326554468
 13
153.0424918074
 23
31.4326554468
  0
SOLID
  8
0
 62
7
  6
CONTINUOUS
 10
153.1581166972
 20
31.3681283566
 11
153.0424918074
 21
31.4326554468
 12
153.4471794177
 22
31.4003927049
 13
153.4471794177
 23
31.4003927049
  0
SOLID
  8
0
 62
7
  6
CONTINUOUS
 10
153.1581166972
 20
31.3681283566
 11
153.4471794177
 21
31.4003927049
 12
153.2159293074
 22
31.2390742213
 13
153.2159293074
 23
31.2390742213
  0
SOLID
  8
0
 62
7
  6
CONTINUOUS
 10
153.4471794177
 20
31.4003927049
 11
153.5049916972
 21
31.2390742213
 12
153.2159293074
 22
31.2390742213
 13
153.2159293074
 23
31.2390742213
  0
SOLID
  8
0
 62
7
  6
CONTINUOUS
 10
152.4643666972
 20
31.4649197951
 11
152.2909293626
 21
31.4003927049
 12
152.1753043074
 22
31.4649197951
 13
152.1753043074
 23
31.4649197951
  0
SOLID
  8
0
 62
7
  6
CONTINUOUS
 10
152.2909293626
 20
31.4003927049
 11
152.1753043074
 21
31.3358640533
 12
152.1753043074
 22
31.4649197951
 13
152.1753043074
 23
31.4649197951
  0
SOLID
  8
0
 62
7
  6
CONTINUOUS
 10
152.1753043074
 20
31.3358640533
 11
151.8862417523
 21
30.5938002869
 12
152.1753043074
 22
31.4649197951
 13
152.1753043074
 23
31.4649197951
  0
SOLID
  8
0
 62
7
  6
CONTINUOUS
 10
152.1753043074
 20
31.4649197951
 11
151.8862417523
 21
30.5938002869
 12
152.1753043074
 22
32.1101937295
 13
152.1753043074
 23
32.1101937295
  0
SOLID
  8
0
 62
7
  6
CONTINUOUS
 10
151.8862417523
 20
30.5938002869
 11
151.8862417523
 21
32.1101937295
 12
152.1753043074
 22
32.1101937295
 13
152.1753043074
 23
32.1101937295
  0
SOLID
  8
0
 62
7
  6
CONTINUOUS
 10
152.1753043074
 20
31.3358640533
 11
152.1753043074
 21
30.5938002869
 12
151.8862417523
 22
30.5938002869
 13
151.8862417523
 23
30.5938002869
  0
SOLID
  8
0
 62
7
  6
CONTINUOUS
 10
153.2159293074
 20
30.5938002869
 11
153.2159293074
 21
31.2390742213
 12
153.5049916972
 22
31.2390742213
 13
153.5049916972
 23
31.2390742213
  0
SOLID
  8
0
 62
7
  6
CONTINUOUS
 10
153.5049916972
 20
31.2390742213
 11
153.5049916972
 21
30.5938002869
 12
153.2159293074
 22
30.5938002869
 13
153.2159293074
 23
30.5938002869
  0
SOLID
  8
0
 62
7
  6
CONTINUOUS
 10
154.2565543074
 20
31.5939738288
 11
154.6612419177
 21
31.6262385959
 12
155.0081169177
 22
31.6262385959
 13
155.0081169177
 23
31.6262385959
  0
SOLID
  8
0
 62
7
  6
CONTINUOUS
 10
155.0081169177
 20
31.6262385959
 11
155.3549915869
 21
31.5939738288
 12
154.2565543074
 22
31.5939738288
 13
154.2565543074
 23
31.5939738288
  0
SOLID
  8
0
 62
7
  6
CONTINUOUS
 10
154.1409294177
 20
31.5617111435
 11
154.2565543074
 21
31.5939738288
 12
155.3549915869
 22
31.5939738288
 13
155.3549915869
 23
31.5939738288
  0
SOLID
  8
0
 62
7
  6
CONTINUOUS
 10
155.3549915869
 20
31.5939738288
 11
155.5284290869
 21
31.5294468402
 12
154.1409294177
 22
31.5617111435
 13
154.1409294177
 23
31.5617111435
  0
SOLID
  8
0
 62
7
  6
CONTINUOUS
 10
154.0253041972
 20
31.4971826249
 11
154.1409294177
 21
31.5617111435
 12
155.5284290869
 22
31.5294468402
 13
155.5284290869
 23
31.5294468402
  0
SOLID
  8
0
 62
7
  6
CONTINUOUS
 10
154.0253041972
 20
31.4971826249
 11
155.5284290869
 21
31.5294468402
 12
154.6612419177
 22
31.4971826249
 13
154.6612419177
 23
31.4971826249
  0
SOLID
  8
0
 62
7
  6
CONTINUOUS
 10
154.6612419177
 20
31.4971826249
 11
155.5284290869
 21
31.5294468402
 12
155.0081169177
 22
31.4971826249
 13
155.0081169177
 23
31.4971826249
  0
SOLID
  8
0
 62
7
  6
CONTINUOUS
 10
155.0081169177
 20
31.4971826249
 11
155.5284290869
 21
31.5294468402
 12
155.239367028
 22
31.4649194065
 13
155.239367028
 23
31.4649194065
  0
SOLID
  8
0
 62
7
  6
CONTINUOUS
 10
155.5284290869
 20
31.5294468402
 11
155.6440543074
 21
31.4649194065
 12
155.239367028
 22
31.4649194065
 13
155.239367028
 23
31.4649194065
  0
SOLID
  8
0
 62
7
  6
CONTINUOUS
 10
153.9674919177
 20
31.4326554138
 11
154.0253041972
 21
31.4971826249
 12
154.6612419177
 22
31.4971826249
 13
154.6612419177
 23
31.4971826249
  0
SOLID
  8
0
 62
7
  6
CONTINUOUS
 10
155.3549915869
 20
31.4326554138
 11
155.239367028
 21
31.4649194065
 12
155.6440543074
 22
31.4649194065
 13
155.6440543074
 23
31.4649194065
  0
SOLID
  8
0
 62
7
  6
CONTINUOUS
 10
155.3549915869
 20
31.4326554138
 11
155.6440543074
 21
31.4649194065
 12
155.412804528
 22
31.3681282026
 13
155.412804528
 23
31.3681282026
  0
SOLID
  8
0
 62
7
  6
CONTINUOUS
 10
155.6440543074
 20
31.4649194065
 11
155.7018665869
 21
31.3681282026
 12
155.412804528
 22
31.3681282026
 13
155.412804528
 23
31.3681282026
  0
SOLID
  8
0
 62
7
  6
CONTINUOUS
 10
155.412804528
 20
31.2713369632
 11
155.412804528
 21
31.3681282026
 12
155.7018665869
 22
31.3681282026
 13
155.7018665869
 23
31.3681282026
  0
SOLID
  8
0
 62
7
  6
CONTINUOUS
 10
155.412804528
 20
31.2713369632
 11
155.7018665869
 21
31.3681282026
 12
155.412804528
 22
31.1422827828
 13
155.412804528
 23
31.1422827828
  0
SOLID
  8
0
 62
7
  6
CONTINUOUS
 10
155.412804528
 20
31.1422827828
 11
155.7018665869
 21
31.3681282026
 12
155.412804528
 22
30.9487004259
 13
155.412804528
 23
30.9487004259
  0
SOLID
  8
0
 62
7
  6
CONTINUOUS
 10
155.7018665869
 20
31.3681282026
 11
155.7018665869
 21
30.8519086025
 12
155.412804528
 22
30.9487004259
 13
155.412804528
 23
30.9487004259
  0
SOLID
  8
0
 62
7
  6
CONTINUOUS
 10
157.6096790869
 20
31.5939736268
 11
157.840929528
 21
31.6262383465
 12
158.0721793074
 22
31.6262383465
 13
158.0721793074
 23
31.6262383465
  0
SOLID
  8
0
 62
7
  6
CONTINUOUS
 10
158.0721793074
 20
31.6262383465
 11
158.2456168074
 21
31.5939736268
 12
157.6096790869
 22
31.5939736268
 13
157.6096790869
 23
31.5939736268
  0
SOLID
  8
0
 62
7
  6
CONTINUOUS
 10
157.4362415869
 20
31.5294472848
 11
157.6096790869
 21
31.5939736268
 12
158.2456168074
 22
31.5939736268
 13
158.2456168074
 23
31.5939736268
  0
SOLID
  8
0
 62
7
  6
CONTINUOUS
 10
158.2456168074
 20
31.5939736268
 11
158.4190543074
 21
31.5294472848
 12
157.4362415869
 22
31.5294472848
 13
157.4362415869
 23
31.5294472848
  0
SOLID
  8
0
 62
7
  6
CONTINUOUS
 10
158.4190543074
 20
31.5294472848
 11
157.840929528
 21
31.4971825369
 12
157.4362415869
 22
31.5294472848
 13
157.4362415869
 23
31.5294472848
  0
SOLID
  8
0
 62
7
  6
CONTINUOUS
 10
157.320617028
 20
31.4649199103
 11
157.4362415869
 21
31.5294472848
 12
157.840929528
 22
31.4971825369
 13
157.840929528
 23
31.4971825369
  0
SOLID
  8
0
 62
7
  6
CONTINUOUS
 10
157.840929528
 20
31.4971825369
 11
157.6096790869
 21
31.4649199103
 12
157.320617028
 22
31.4649199103
 13
157.320617028
 23
31.4649199103
  0
SOLID
  8
0
 62
7
  6
CONTINUOUS
 10
157.840929528
 20
31.4971825369
 11
158.4190543074
 21
31.5294472848
 12
158.0721793074
 22
31.4649199103
 13
158.0721793074
 23
31.4649199103
  0
SOLID
  8
0
 62
7
  6
CONTINUOUS
 10
158.4190543074
 20
31.5294472848
 11
158.534679528
 21
31.4649199103
 12
158.0721793074
 22
31.4649199103
 13
158.0721793074
 23
31.4649199103
  0
SOLID
  8
0
 62
7
  6
CONTINUOUS
 10
158.187804528
 20
31.4326554468
 11
158.0721793074
 21
31.4649199103
 12
158.534679528
 22
31.4649199103
 13
158.534679528
 23
31.4649199103
  0
SOLID
  8
0
 62
7
  6
CONTINUOUS
 10
158.187804528
 20
31.4326554468
 11
158.534679528
 21
31.4649199103
 12
158.3034290869
 22
31.3681288486
 13
158.3034290869
 23
31.3681288486
  0
SOLID
  8
0
 62
7
  6
CONTINUOUS
 10
158.534679528
 20
31.4649199103
 11
158.5924918074
 21
31.3681288486
 12
158.3034290869
 22
31.3681288486
 13
158.3034290869
 23
31.3681288486
  0
SOLID
  8
0
 62
7
  6
CONTINUOUS
 10
158.361242028
 20
31.2068093799
 11
158.3034290869
 21
31.3681288486
 12
158.5924918074
 22
31.3681288486
 13
158.5924918074
 23
31.3681288486
  0
SOLID
  8
0
 62
7
  6
CONTINUOUS
 10
158.5924918074
 20
31.3681288486
 11
158.6503040869
 21
31.2068093799
 12
158.361242028
 22
31.2068093799
 13
158.361242028
 23
31.2068093799
  0
SOLID
  8
0
 62
7
  6
CONTINUOUS
 10
157.6096790869
 20
31.4649199103
 11
157.4362415869
 21
31.4003926599
 12
157.320617028
 22
31.4649199103
 13
157.320617028
 23
31.4649199103
  0
SOLID
  8
0
 62
7
  6
CONTINUOUS
 10
157.4362415869
 20
31.4003926599
 11
157.320617028
 21
31.3358640533
 12
157.320617028
 22
31.4649199103
 13
157.320617028
 23
31.4649199103
  0
SOLID
  8
0
 62
7
  6
CONTINUOUS
 10
157.320617028
 20
31.3358640533
 11
157.0315543074
 21
30.5938003547
 12
157.320617028
 22
31.4649199103
 13
157.320617028
 23
31.4649199103
  0
SOLID
  8
0
 62
7
  6
CONTINUOUS
 10
157.320617028
 20
31.4649199103
 11
157.0315543074
 21
30.5938003547
 12
157.320617028
 22
31.6262383465
 13
157.320617028
 23
31.6262383465
  0
SOLID
  8
0
 62
7
  6
CONTINUOUS
 10
157.0315543074
 20
30.5938003547
 11
157.0315543074
 21
31.6262383465
 12
157.320617028
 22
31.6262383465
 13
157.320617028
 23
31.6262383465
  0
SOLID
  8
0
 62
7
  6
CONTINUOUS
 10
157.320617028
 20
31.3358640533
 11
157.320617028
 21
30.5938003547
 12
157.0315543074
 22
30.5938003547
 13
157.0315543074
 23
30.5938003547
  0
SOLID
  8
0
 62
7
  6
CONTINUOUS
 10
158.361242028
 20
30.5938003547
 11
158.361242028
 21
31.2068093799
 12
158.6503040869
 22
31.2068093799
 13
158.6503040869
 23
31.2068093799
  0
SOLID
  8
0
 62
7
  6
CONTINUOUS
 10
158.6503040869
 20
31.2068093799
 11
158.6503040869
 21
30.5938003547
 12
158.361242028
 22
30.5938003547
 13
158.361242028
 23
30.5938003547
  0
SOLID
  8
0
 62
7
  6
CONTINUOUS
 10
159.4596793074
 20
31.5939739474
 11
159.8065543074
 21
31.6262381969
 12
160.1534293074
 22
31.6262381969
 13
160.1534293074
 23
31.6262381969
  0
SOLID
  8
0
 62
7
  6
CONTINUOUS
 10
160.1534293074
 20
31.6262381969
 11
160.5003043074
 21
31.5939739474
 12
159.4596793074
 22
31.5939739474
 13
159.4596793074
 23
31.5939739474
  0
SOLID
  8
0
 62
7
  6
CONTINUOUS
 10
159.228429528
 20
31.5294468402
 11
159.4596793074
 21
31.5939739474
 12
160.5003043074
 22
31.5939739474
 13
160.5003043074
 23
31.5939739474
  0
SOLID
  8
0
 62
7
  6
CONTINUOUS
 10
159.228429528
 20
31.5294468402
 11
160.5003043074
 21
31.5939739304
 12
160.6737418074
 22
31.5617111435
 13
160.6737418074
 23
31.5617111435
  0
SOLID
  8
0
 62
7
  6
CONTINUOUS
 10
159.228429528
 20
31.5294468402
 11
160.6737418074
 21
31.5617111435
 12
159.8065543074
 22
31.4971825592
 13
159.8065543074
 23
31.4971825592
  0
SOLID
  8
0
 62
7
  6
CONTINUOUS
 10
159.8065543074
 20
31.4971825592
 11
160.6737418074
 21
31.5617111435
 12
160.1534293074
 22
31.4971825592
 13
160.1534293074
 23
31.4971825592
  0
SOLID
  8
0
 62
7
  6
CONTINUOUS
 10
160.6737418074
 20
31.5617111435
 11
160.8471793074
 21
31.4971825592
 12
160.1534293074
 22
31.4971825592
 13
160.1534293074
 23
31.4971825592
  0
SOLID
  8
0
 62
7
  6
CONTINUOUS
 10
160.5003043074
 20
31.4649197501
 11
160.1534293074
 21
31.4971825592
 12
160.8471793074
 22
31.4971825592
 13
160.8471793074
 23
31.4971825592
  0
SOLID
  8
0
 62
7
  6
CONTINUOUS
 10
159.1128043074
 20
31.4326555427
 11
159.228429528
 21
31.5294468402
 12
159.8065543074
 22
31.4971825592
 13
159.8065543074
 23
31.4971825592
  0
SOLID
  8
0
 62
7
  6
CONTINUOUS
 10
160.5003043074
 20
31.4649197501
 11
160.8471793074
 21
31.4971825592
 12
160.615929528
 22
31.4326555427
 13
160.615929528
 23
31.4326555427
  0
SOLID
  8
0
 62
7
  6
CONTINUOUS
 10
160.615929528
 20
31.4326555427
 11
160.8471793074
 21
31.4971825592
 12
160.6737418074
 22
31.3681283005
 13
160.6737418074
 23
31.3681283005
  0
SOLID
  8
0
 62
7
  6
CONTINUOUS
 10
160.8471793074
 20
31.4971825592
 11
160.9628038663
 21
31.3681283005
 12
160.6737418074
 22
31.3681283005
 13
160.6737418074
 23
31.3681283005
  0
SOLID
  8
0
 62
7
  6
CONTINUOUS
 10
150.2674918074
 20
31.4649197501
 11
149.7471793074
 21
31.4326554237
 12
150.498741835
 22
31.4971824493
 13
150.498741835
 23
31.4971824493
  0
SOLID
  8
0
 62
7
  6
CONTINUOUS
 10
149.7471793074
 20
31.4326554237
 11
149.8628043005
 21
31.4971824493
 12
150.498741835
 22
31.4971824493
 13
150.498741835
 23
31.4971824493
  0
SOLID
  8
0
 62
7
  6
CONTINUOUS
 10
150.2674918074
 20
31.4649197501
 11
150.1518667936
 21
31.4326554237
 12
149.7471793074
 22
31.4326554237
 13
149.7471793074
 23
31.4326554237
  0
SOLID
  8
0
 62
7
  6
CONTINUOUS
 10
149.6315543091
 20
31.3036012664
 11
149.7471793074
 21
31.4326554237
 12
150.1518667936
 22
31.4326554237
 13
150.1518667936
 23
31.4326554237
  0
SOLID
  8
0
 62
7
  6
CONTINUOUS
 10
153.9674919177
 20
31.4326554237
 11
154.6612419177
 21
31.4971825369
 12
154.4299918074
 22
31.4649197501
 13
154.4299918074
 23
31.4649197501
  0
SOLID
  8
0
 62
7
  6
CONTINUOUS
 10
154.4299918074
 20
31.4649197501
 11
154.3143669177
 21
31.4326554237
 12
153.9674919177
 22
31.4326554237
 13
153.9674919177
 23
31.4326554237
  0
SOLID
  8
0
 62
7
  6
CONTINUOUS
 10
153.9674919177
 20
31.3681283335
 11
153.9674919177
 21
31.4326554237
 12
154.3143669177
 22
31.4326554237
 13
154.3143669177
 23
31.4326554237
  0
SOLID
  8
0
 62
7
  6
CONTINUOUS
 10
154.3143669177
 20
31.4326554237
 11
154.2565543074
 21
31.3681283335
 12
153.9674919177
 22
31.3681283335
 13
153.9674919177
 23
31.3681283335
  0
SOLID
  8
0
 62
7
  6
CONTINUOUS
 10
159.1128043074
 20
31.4326555528
 11
159.8065543074
 21
31.4971825369
 12
159.575304528
 22
31.4649197501
 13
159.575304528
 23
31.4649197501
  0
SOLID
  8
0
 62
7
  6
CONTINUOUS
 10
159.575304528
 20
31.4649197501
 11
159.4596793074
 21
31.4326555528
 12
159.1128043074
 22
31.4326555528
 13
159.1128043074
 23
31.4326555528
  0
SOLID
  8
0
 62
7
  6
CONTINUOUS
 10
159.1128043074
 20
31.3681284626
 11
159.1128043074
 21
31.4326555528
 12
159.4596793074
 22
31.4326555528
 13
159.4596793074
 23
31.4326555528
  0
SOLID
  8
0
 62
7
  6
CONTINUOUS
 10
159.4596793074
 20
31.4326555528
 11
159.401867028
 21
31.3681284626
 12
159.1128043074
 22
31.3681284626
 13
159.1128043074
 23
31.3681284626
  0
SOLID
  8
0
 62
7
  6
CONTINUOUS
 10
159.228429528
 20
31.2390741763
 11
159.1128043074
 21
31.3681284626
 12
159.401867028
 22
31.3681284626
 13
159.401867028
 23
31.3681284626
  0
SOLID
  8
0
 62
7
  6
CONTINUOUS
 10
149.6315543091
 20
31.3036012664
 11
150.1518667936
 21
31.4326554468
 12
149.9784292936
 22
31.3358640533
 13
149.9784292936
 23
31.3358640533
  0
SOLID
  8
0
 62
7
  6
CONTINUOUS
 10
149.9784292936
 20
31.3358640533
 11
149.9206168074
 21
31.2713369632
 12
149.6315543091
 22
31.3036012664
 13
149.6315543091
 23
31.3036012664
  0
SOLID
  8
0
 62
7
  6
CONTINUOUS
 10
149.5737418074
 20
31.1100184796
 11
149.6315543091
 21
31.3036012664
 12
149.9206168074
 22
31.2713369632
 13
149.9206168074
 23
31.2713369632
  0
SOLID
  8
0
 62
7
  6
CONTINUOUS
 10
154.4299918074
 20
31.2390741763
 11
154.7768668074
 21
31.271336924
 12
155.412804528
 22
31.271336924
 13
155.412804528
 23
31.271336924
  0
SOLID
  8
0
 62
7
  6
CONTINUOUS
 10
154.4299918074
 20
31.2390741763
 11
155.412804528
 21
31.271336924
 12
154.1987416972
 22
31.1745462761
 13
154.1987416972
 23
31.1745462761
  0
SOLID
  8
0
 62
7
  6
CONTINUOUS
 10
154.1987416972
 20
31.1745462761
 11
155.412804528
 21
31.271336924
 12
154.7768668074
 22
31.1422827436
 13
154.7768668074
 23
31.1422827436
  0
SOLID
  8
0
 62
7
  6
CONTINUOUS
 10
155.412804528
 20
31.271336924
 11
155.412804528
 21
31.1422827436
 12
154.7768668074
 22
31.1422827436
 13
154.7768668074
 23
31.1422827436
  0
SOLID
  8
0
 62
7
  6
CONTINUOUS
 10
159.228429528
 20
31.2390745501
 11
159.401867028
 21
31.3681283566
 12
159.4596793074
 22
31.3036012664
 13
159.4596793074
 23
31.3036012664
  0
SOLID
  8
0
 62
7
  6
CONTINUOUS
 10
159.4596793074
 20
31.3036012664
 11
159.6331168074
 21
31.2390745501
 12
159.228429528
 22
31.2390745501
 13
159.228429528
 23
31.2390745501
  0
SOLID
  8
0
 62
7
  6
CONTINUOUS
 10
159.4596793074
 20
31.1422827828
 11
159.228429528
 21
31.2390745501
 12
159.6331168074
 22
31.2390745501
 13
159.6331168074
 23
31.2390745501
  0
SOLID
  8
0
 62
7
  6
CONTINUOUS
 10
159.6331168074
 20
31.2390745501
 11
160.615929528
 21
31.0777556927
 12
159.4596793074
 22
31.1422827828
 13
159.4596793074
 23
31.1422827828
  0
SOLID
  8
0
 62
7
  6
CONTINUOUS
 10
160.442492028
 20
30.9809646623
 11
159.4596793074
 21
31.1422827828
 12
160.615929528
 22
31.0777556927
 13
160.615929528
 23
31.0777556927
  0
SOLID
  8
0
 62
7
  6
CONTINUOUS
 10
160.615929528
 20
31.0777556927
 11
160.8471793074
 21
30.9809646623
 12
160.442492028
 22
30.9809646623
 13
160.442492028
 23
30.9809646623
  0
SOLID
  8
0
 62
7
  6
CONTINUOUS
 10
160.615929528
 20
30.9164372091
 11
160.442492028
 21
30.9809646623
 12
160.8471793074
 22
30.9809646623
 13
160.8471793074
 23
30.9809646623
  0
SOLID
  8
0
 62
7
  6
CONTINUOUS
 10
160.615929528
 20
30.9164372091
 11
160.8471793074
 21
30.9809646623
 12
160.6737418074
 22
30.8519089441
 13
160.6737418074
 23
30.8519089441
  0
SOLID
  8
0
 62
7
  6
CONTINUOUS
 10
160.8471793074
 20
30.9809646623
 11
160.9628038663
 21
30.8519089441
 12
160.6737418074
 22
30.8519089441
 13
160.6737418074
 23
30.8519089441
  0
SOLID
  8
0
 62
7
  6
CONTINUOUS
 10
160.615929528
 20
30.7873818593
 11
160.6737418074
 21
30.8519089441
 12
160.9628038663
 22
30.8519089441
 13
160.9628038663
 23
30.8519089441
  0
SOLID
  8
0
 62
7
  6
CONTINUOUS
 10
160.9628038663
 20
30.8519089441
 11
160.9628038663
 21
30.7873818593
 12
160.615929528
 22
30.7873818593
 13
160.615929528
 23
30.7873818593
  0
SOLID
  8
0
 62
7
  6
CONTINUOUS
 10
160.5003043074
 20
30.7551187255
 11
160.615929528
 21
30.7873818593
 12
160.9628038663
 22
30.7873818593
 13
160.9628038663
 23
30.7873818593
  0
SOLID
  8
0
 62
7
  6
CONTINUOUS
 10
160.5003043074
 20
30.7551187255
 11
160.9628038663
 21
30.7873818593
 12
160.269054528
 22
30.7228547745
 13
160.269054528
 23
30.7228547745
  0
SOLID
  8
0
 62
7
  6
CONTINUOUS
 10
160.9628038663
 20
30.7873818593
 11
160.8471793074
 21
30.6905916353
 12
160.269054528
 22
30.7228547745
 13
160.269054528
 23
30.7228547745
  0
SOLID
  8
0
 62
7
  6
CONTINUOUS
 10
160.8471793074
 20
30.6905916353
 11
159.401867028
 21
30.658327332
 12
160.269054528
 22
30.7228547745
 13
160.269054528
 23
30.7228547745
  0
SOLID
  8
0
 62
7
  6
CONTINUOUS
 10
160.269054528
 20
30.7228547745
 11
159.401867028
 21
30.658327332
 12
159.922179528
 22
30.7228547745
 13
159.922179528
 23
30.7228547745
  0
SOLID
  8
0
 62
7
  6
CONTINUOUS
 10
159.401867028
 20
30.658327332
 11
159.228429528
 21
30.7228547745
 12
159.922179528
 22
30.7228547745
 13
159.922179528
 23
30.7228547745
  0
SOLID
  8
0
 62
7
  6
CONTINUOUS
 10
159.401867028
 20
30.658327332
 11
160.8471793074
 21
30.6905916353
 12
159.575304528
 22
30.6260629858
 13
159.575304528
 23
30.6260629858
  0
SOLID
  8
0
 62
7
  6
CONTINUOUS
 10
160.8471793074
 20
30.6905916353
 11
160.615929528
 21
30.6260629858
 12
159.575304528
 22
30.6260629858
 13
159.575304528
 23
30.6260629858
  0
SOLID
  8
0
 62
7
  6
CONTINUOUS
 10
159.922179528
 20
30.5938006049
 11
159.575304528
 21
30.6260629858
 12
160.615929528
 22
30.6260629858
 13
160.615929528
 23
30.6260629858
  0
SOLID
  8
0
 62
7
  6
CONTINUOUS
 10
160.615929528
 20
30.6260629858
 11
160.269054528
 21
30.5938006049
 12
159.922179528
 22
30.5938006049
 13
159.922179528
 23
30.5938006049
  0
SOLID
  8
0
 62
7
  6
CONTINUOUS
 10
149.5737418074
 20
31.1100184796
 11
149.9206168074
 21
31.2713369632
 12
149.8628043005
 22
31.1422827828
 13
149.8628043005
 23
31.1422827828
  0
SOLID
  8
0
 62
7
  6
CONTINUOUS
 10
149.8628043005
 20
31.1422827828
 11
149.8628043005
 21
31.0454914852
 12
149.5737418074
 22
31.1100184796
 13
149.5737418074
 23
31.1100184796
  0
SOLID
  8
0
 62
7
  6
CONTINUOUS
 10
149.6315543091
 20
30.9164372091
 11
149.5737418074
 21
31.1100184796
 12
149.8628043005
 22
31.0454914852
 13
149.8628043005
 23
31.0454914852
  0
SOLID
  8
0
 62
7
  6
CONTINUOUS
 10
149.8628043005
 20
31.0454914852
 11
149.9784292936
 21
30.8841729058
 12
149.6315543091
 22
30.9164372091
 13
149.6315543091
 23
30.9164372091
  0
SOLID
  8
0
 62
7
  6
CONTINUOUS
 10
149.7471793074
 20
30.7873813202
 11
149.6315543091
 21
30.9164372091
 12
149.9784292936
 22
30.8841729058
 13
149.9784292936
 23
30.8841729058
  0
SOLID
  8
0
 62
7
  6
CONTINUOUS
 10
149.9784292936
 20
30.8841729058
 11
150.1518667936
 21
30.7873813202
 12
149.7471793074
 22
30.7873813202
 13
149.7471793074
 23
30.7873813202
  0
SOLID
  8
0
 62
7
  6
CONTINUOUS
 10
149.8628043005
 20
30.7228547004
 11
149.7471793074
 21
30.7873813202
 12
150.1518667936
 22
30.7873813202
 13
150.1518667936
 23
30.7873813202
  0
SOLID
  8
0
 62
7
  6
CONTINUOUS
 10
150.1518667936
 20
30.7873813202
 11
150.498741835
 21
30.7228547004
 12
149.8628043005
 22
30.7228547004
 13
149.8628043005
 23
30.7228547004
  0
SOLID
  8
0
 62
7
  6
CONTINUOUS
 10
150.0362418212
 20
30.658327332
 11
149.8628043005
 21
30.7228547004
 12
150.498741835
 22
30.7228547004
 13
150.498741835
 23
30.7228547004
  0
SOLID
  8
0
 62
7
  6
CONTINUOUS
 10
154.0831168074
 20
31.1100184386
 11
154.1987416972
 21
31.1745462761
 12
154.7768668074
 22
31.1422827828
 13
154.7768668074
 23
31.1422827828
  0
SOLID
  8
0
 62
7
  6
CONTINUOUS
 10
154.7768668074
 20
31.1422827828
 11
154.5456166972
 21
31.1100184386
 12
154.0831168074
 22
31.1100184386
 13
154.0831168074
 23
31.1100184386
  0
SOLID
  8
0
 62
7
  6
CONTINUOUS
 10
153.9674919177
 20
30.9809642992
 11
154.0831168074
 21
31.1100184386
 12
154.5456166972
 22
31.1100184386
 13
154.5456166972
 23
31.1100184386
  0
SOLID
  8
0
 62
7
  6
CONTINUOUS
 10
154.3143669177
 20
31.0132277988
 11
153.9674919177
 21
30.9809642992
 12
154.4299918074
 22
31.0777556927
 13
154.4299918074
 23
31.0777556927
  0
SOLID
  8
0
 62
7
  6
CONTINUOUS
 10
153.9674919177
 20
30.9809642992
 11
154.5456166972
 21
31.1100184796
 12
154.4299918074
 22
31.0777556927
 13
154.4299918074
 23
31.0777556927
  0
SOLID
  8
0
 62
7
  6
CONTINUOUS
 10
154.3143669177
 20
31.0132277988
 11
154.2565543074
 21
30.9164372091
 12
153.9674919177
 22
30.9809642992
 13
153.9674919177
 23
30.9809642992
  0
SOLID
  8
0
 62
7
  6
CONTINUOUS
 10
153.9674919177
 20
30.8841729058
 11
153.9674919177
 21
30.9809642992
 12
154.2565543074
 22
30.9164372091
 13
154.2565543074
 23
30.9164372091
  0
SOLID
  8
0
 62
7
  6
CONTINUOUS
 10
154.2565543074
 20
30.9164372091
 11
154.2565543074
 21
30.8519086025
 12
153.9674919177
 22
30.8841729058
 13
153.9674919177
 23
30.8841729058
  0
SOLID
  8
0
 62
7
  6
CONTINUOUS
 10
154.0253041972
 20
30.7551187255
 11
153.9674919177
 21
30.8841729058
 12
154.2565543074
 22
30.8519086025
 13
154.2565543074
 23
30.8519086025
  0
SOLID
  8
0
 62
7
  6
CONTINUOUS
 10
155.412804528
 20
30.9487004259
 11
155.7018665869
 21
30.8519086025
 12
155.3549915869
 22
30.8841729058
 13
155.3549915869
 23
30.8841729058
  0
SOLID
  8
0
 62
7
  6
CONTINUOUS
 10
155.1815540869
 20
30.7873815123
 11
155.3549915869
 21
30.8841729058
 12
155.7018665869
 22
30.8519086025
 13
155.7018665869
 23
30.8519086025
  0
SOLID
  8
0
 62
7
  6
CONTINUOUS
 10
155.1815540869
 20
30.7873815123
 11
155.7018665869
 21
30.8519086025
 12
155.412804528
 22
30.7551187255
 13
155.412804528
 23
30.7551187255
  0
SOLID
  8
0
 62
7
  6
CONTINUOUS
 10
155.7018665869
 20
30.8519086025
 11
155.759679528
 21
30.6905916353
 12
155.412804528
 22
30.7551187255
 13
155.412804528
 23
30.7551187255
  0
SOLID
  8
0
 62
7
  6
CONTINUOUS
 10
155.4706168074
 20
30.658327332
 11
155.412804528
 21
30.7551187255
 12
155.759679528
 22
30.6905916353
 13
155.759679528
 23
30.6905916353
  0
SOLID
  8
0
 62
7
  6
CONTINUOUS
 10
155.4706168074
 20
30.658327332
 11
155.759679528
 21
30.6905916353
 12
155.5284290869
 22
30.5938002079
 13
155.5284290869
 23
30.5938002079
  0
SOLID
  8
0
 62
7
  6
CONTINUOUS
 10
155.759679528
 20
30.6905916353
 11
155.8174918074
 21
30.5938002079
 12
155.5284290869
 22
30.5938002079
 13
155.5284290869
 23
30.5938002079
  0
SOLID
  8
0
 62
7
  6
CONTINUOUS
 10
151.0768668626
 20
30.8196456577
 11
151.1346793074
 21
30.9164373395
 12
151.4237418626
 22
30.9164373395
 13
151.4237418626
 23
30.9164373395
  0
SOLID
  8
0
 62
7
  6
CONTINUOUS
 10
151.4237418626
 20
30.9164373395
 11
151.3659292523
 21
30.7873815123
 12
151.0768668626
 22
30.8196456577
 13
151.0768668626
 23
30.8196456577
  0
SOLID
  8
0
 62
7
  6
CONTINUOUS
 10
150.9034292799
 20
30.7551187255
 11
151.0768668626
 21
30.8196456577
 12
151.3659292523
 22
30.7873815123
 13
151.3659292523
 23
30.7873815123
  0
SOLID
  8
0
 62
7
  6
CONTINUOUS
 10
150.9034292799
 20
30.7551187255
 11
151.3659292523
 21
30.7873815123
 12
150.498741835
 22
30.7228544222
 13
150.498741835
 23
30.7228544222
  0
SOLID
  8
0
 62
7
  6
CONTINUOUS
 10
151.3659292523
 20
30.7873815123
 11
151.1924917523
 21
30.6905916353
 12
150.498741835
 22
30.7228544222
 13
150.498741835
 23
30.7228544222
  0
SOLID
  8
0
 62
7
  6
CONTINUOUS
 10
150.0362418212
 20
30.658327332
 11
150.498741835
 21
30.7228544222
 12
151.1924917523
 22
30.6905916353
 13
151.1924917523
 23
30.6905916353
  0
SOLID
  8
0
 62
7
  6
CONTINUOUS
 10
150.0362418212
 20
30.658327332
 11
151.1924917523
 21
30.6905916353
 12
150.2096793212
 22
30.6260631011
 13
150.2096793212
 23
30.6260631011
  0
SOLID
  8
0
 62
7
  6
CONTINUOUS
 10
151.1924917523
 20
30.6905916353
 11
150.9612418074
 21
30.6260631011
 12
150.2096793212
 22
30.6260631011
 13
150.2096793212
 23
30.6260631011
  0
SOLID
  8
0
 62
7
  6
CONTINUOUS
 10
150.5565542799
 20
30.5938002419
 11
150.2096793212
 21
30.6260631011
 12
150.9612418074
 22
30.6260631011
 13
150.9612418074
 23
30.6260631011
  0
SOLID
  8
0
 62
7
  6
CONTINUOUS
 10
154.0253041972
 20
30.7551187255
 11
154.2565543074
 21
30.8519086025
 12
154.3143669177
 22
30.7873815123
 13
154.3143669177
 23
30.7873815123
  0
SOLID
  8
0
 62
7
  6
CONTINUOUS
 10
154.3143669177
 20
30.7873815123
 11
154.5456166972
 21
30.7228544222
 12
154.0253041972
 22
30.7551187255
 13
154.0253041972
 23
30.7551187255
  0
SOLID
  8
0
 62
7
  6
CONTINUOUS
 10
154.1987416972
 20
30.658327332
 11
154.0253041972
 21
30.7551187255
 12
154.5456166972
 22
30.7228544222
 13
154.5456166972
 23
30.7228544222
  0
SOLID
  8
0
 62
7
  6
CONTINUOUS
 10
154.8924916972
 20
30.7228544637
 11
155.1815540869
 21
30.7873815123
 12
155.412804528
 22
30.7551187255
 13
155.412804528
 23
30.7551187255
  0
SOLID
  8
0
 62
7
  6
CONTINUOUS
 10
155.412804528
 20
30.7551187255
 11
155.3549915869
 21
30.6905916353
 12
154.8924916972
 22
30.7228544637
 13
154.8924916972
 23
30.7228544637
  0
SOLID
  8
0
 62
7
  6
CONTINUOUS
 10
155.3549915869
 20
30.6905916353
 11
154.1987416972
 21
30.658327332
 12
154.8924916972
 22
30.7228544637
 13
154.8924916972
 23
30.7228544637
  0
SOLID
  8
0
 62
7
  6
CONTINUOUS
 10
154.1987416972
 20
30.658327332
 11
154.5456166972
 21
30.7228544637
 12
154.8924916972
 22
30.7228544637
 13
154.8924916972
 23
30.7228544637
  0
SOLID
  8
0
 62
7
  6
CONTINUOUS
 10
154.1987416972
 20
30.658327332
 11
155.3549915869
 21
30.6905916353
 12
154.3143669177
 22
30.6260630541
 13
154.3143669177
 23
30.6260630541
  0
SOLID
  8
0
 62
7
  6
CONTINUOUS
 10
155.3549915869
 20
30.6905916353
 11
155.1815540869
 21
30.6260630541
 12
154.3143669177
 22
30.6260630541
 13
154.3143669177
 23
30.6260630541
  0
SOLID
  8
0
 62
7
  6
CONTINUOUS
 10
154.5456166972
 20
30.5938002188
 11
154.3143669177
 21
30.6260630541
 12
155.1815540869
 22
30.6260630541
 13
155.1815540869
 23
30.6260630541
  0
SOLID
  8
0
 62
7
  6
CONTINUOUS
 10
155.1815540869
 20
30.6260630541
 11
154.8924916972
 21
30.5938002188
 12
154.5456166972
 22
30.5938002188
 13
154.5456166972
 23
30.5938002188
  0
SOLID
  8
0
 62
7
  6
CONTINUOUS
 10
159.575304528
 20
30.7551187255
 11
159.228429528
 21
30.7228544637
 12
159.4596793074
 22
30.7873815123
 13
159.4596793074
 23
30.7873815123
  0
SOLID
  8
0
 62
7
  6
CONTINUOUS
 10
159.4596793074
 20
30.7873815123
 11
159.228429528
 21
30.7228544637
 12
159.401867028
 22
30.851908644
 13
159.401867028
 23
30.851908644
  0
SOLID
  8
0
 62
7
  6
CONTINUOUS
 10
159.228429528
 20
30.7228544637
 11
159.1128043074
 21
30.851908644
 12
159.401867028
 22
30.851908644
 13
159.401867028
 23
30.851908644
  0
SOLID
  8
0
 62
7
  6
CONTINUOUS
 10
159.575304528
 20
30.7551187255
 11
159.922179528
 21
30.7228544637
 12
159.228429528
 22
30.7228544637
 13
159.228429528
 23
30.7228544637
  0
SOLID
  8
0
 62
7
  6
CONTINUOUS
 10
156.279992028
 20
30.5938002419
 11
156.279992028
 21
31.6262382337
 12
156.5690540869
 22
30.5938002419
 13
156.5690540869
 23
31.6262382337
  0
ENDBLK
  8
0
  6
BYBLOCK
 62
0
  0
BLOCK
  8
0
 62
2
  6
CONTINUOUS
  2
AMMEAAL_LOGO_BL0
 70
64
 10
32.1213064866
 20
19.8534310916
  0
TEXT
  8
0
 62
7
  6
CONTINUOUS
 10
18.3860103289
 20
19.2268451992
  7
TEXTSTYLE_3
 40
2.7338706658
  1
Ammeraal Beltech
 41
1.0
 51
15.0
 72
0
  0
TEXT
  8
0
 62
7
  6
CONTINUOUS
 10
29.1868111546
 20
16.9533085264
  7
TEXTSTYLE_4
 40
1.0935482663
  1
Innovation & Service in Belting
 41
1.0
 72
0
  0
LINE
  8
0
 62
7
  6
CONTINUOUS
 10
12.3614696776
 20
19.9934385078
 11
13.1396216709
 21
23.6543558055
  0
LINE
  8
0
 62
7
  6
CONTINUOUS
 10
23.2347899607
 20
27.3177497171
 11
13.6274394139
 21
24.1961322958
  0
LINE
  8
0
 62
7
  6
CONTINUOUS
 10
12.5867530099
 20
19.3000877048
 11
20.093828271
 21
12.5406867788
  0
LINE
  8
0
 62
7
  6
CONTINUOUS
 10
12.8492874206
 20
20.5352149982
 11
23.6575567857
 21
24.0470345971
  0
LINE
  8
0
 62
7
  6
CONTINUOUS
 10
23.6533516486
 20
13.6972460334
 11
15.2078919798
 21
21.3015720751
  0
LINE
  8
0
 62
7
  6
CONTINUOUS
 10
24.1731743684
 20
26.4728246013
 11
23.1966148312
 21
21.8784731989
  0
LINE
  8
0
 62
7
  6
CONTINUOUS
 10
22.4968128835
 20
18.5861638851
 11
21.810364672
 21
15.3566789607
  0
LINE
  8
0
 62
7
  6
CONTINUOUS
 10
24.8542704669
 20
14.087448211
 11
25.8105020025
 21
18.5861638851
  0
LINE
  8
0
 62
7
  6
CONTINUOUS
 10
26.5103039502
 20
21.8784731989
 11
26.9545457526
 21
23.9684665583
  0
LINE
  8
0
 62
7
  6
CONTINUOUS
 10
20.8069293463
 20
12.3891124661
 11
24.3664527239
 21
13.5456717207
  0
LINE
  8
0
 62
7
  6
CONTINUOUS
 10
23.9478910361
 20
27.1661754044
 11
26.7292624203
 21
24.6618173613
  0
ARC
  8
0
 62
7
  6
CONTINUOUS
 10
13.8527227462
 20
23.5027814928
 40
0.7290321776
 50
108.0
 51
168.0
  0
ARC
  8
0
 62
7
  6
CONTINUOUS
 10
23.4600732931
 20
26.624398914
 40
0.7290321776
 50
348.0
 51
108.0
  0
ARC
  8
0
 62
7
  6
CONTINUOUS
 10
26.2414446773
 20
24.120040871
 40
0.7290321776
 50
348.0
 51
48.0
  0
ARC
  8
0
 62
7
  6
CONTINUOUS
 10
20.581646014
 20
13.0824632691
 40
0.7290321776
 50
228.0
 51
288.0
  0
ARC
  8
0
 62
7
  6
CONTINUOUS
 10
13.0745707529
 20
19.8418641951
 40
0.7290321776
 50
108.0
 51
228.0
  0
ARC
  8
0
 62
7
  6
CONTINUOUS
 10
24.1411693916
 20
14.2390225237
 40
0.7290321776
 50
228.0
 51
348.0
  0
ENDBLK
  8
0
  6
BYBLOCK
 62
0
  0
BLOCK
  8
0
  2
_FILLED
 70
64
 10
0.0
 20
0.0
  0
SOLID
  8
0
  6
BYBLOCK
 62
0
 10
0.0
 20
0.0
 11
-1.0
 21
0.2142857143
 12
-1.0
 22
-0.2142857143
 13
-1.0
 23
-0.2142857143
  0
ENDBLK
  8
0
  6
BYBLOCK
 62
0
  0
ENDSEC
  0
SECTION
  2
ENTITIES
  0
TEXT
  8
0
 62
5
  6
CONTINUOUS
 10
96.0
 20
25.636
  7
TEXTSTYLE_2
 40
2.8
  1
Scale :
 41
0.6
 51
0.000019
 72
0
  0
TEXT
  8
0
 62
5
  6
CONTINUOUS
 10
116.0
 20
25.636
  7
TEXTSTYLE_2
 40
2.8
  1
Belt type:
 41
0.6
 51
0.000019
 72
0
  0
INSERT
  8
0
 62
2
  6
CONTINUOUS
  2
AMMEAAL_LOGO_BL0
 10
32.1213064866
 20
19.8534310916
  0
INSERT
  8
0
 62
2
  6
CONTINUOUS
  2
UNI_LOGO2_BL1
 10
173.5956734183
 20
35.5937998301
  0
LINE
  8
0
 62
2
  6
CONTINUOUS
 10
10.0
 20
30.0
 11
200.0
 21
30.0
  0
LINE
  8
0
 62
2
  6
CONTINUOUS
 10
10.0
 20
30.0
 11
10.0
 21
10.0
  0
LINE
  8
0
 62
2
  6
CONTINUOUS
 10
10.0
 20
10.0
 11
200.0
 21
10.0
  0
LINE
  8
0
 62
2
  6
CONTINUOUS
 10
95.0
 20
30.0
 11
95.0
 21
10.0
  0
LINE
  8
0
 62
2
  6
CONTINUOUS
 10
115.0
 20
30.0
 11
115.0
 21
10.0
  0
LINE
  8
0
 62
2
  6
CONTINUOUS
 10
200.0
 20
30.0
 11
200.0
 21
10.0
  0
TEXT
  8
0
 62
5
  6
CONTINUOUS
 10
13.0
 20
23.303
  7
TEXTSTYLE_5
 40
1.52
  1
                                                                     Ammeraal Beltech Modular A/S
 41
1.0
 72
0
  0
TEXT
  8
0
 62
5
  6
CONTINUOUS
 10
13.0
 20
20.595
  7
TEXTSTYLE_5
 40
1.5
  1
                                                                      Hjulmagervej 21,  7100 Vejle,  DK
 41
1.0
 72
0
  0
TEXT
  8
0
 62
5
  6
CONTINUOUS
 10
13.0
 20
17.881
  7
TEXTSTYLE_5
 40
1.495
  1
                                                                      tel: 
 41
1.0
 72
0
  0
TEXT
  8
0
 62
5
  6
CONTINUOUS
 10
57.9869465649
 20
17.881
  7
TEXTSTYLE_5
 40
1.51
  1
+45 75723100     fax: +45 75723348
 41
1.0
 72
0
  0
TEXT
  8
0
 62
5
  6
CONTINUOUS
 10
13.0
 20
15.177
  7
TEXTSTYLE_5
 40
1.5
  1
                                                                      admin@unichains.dk  www.unichains.com
 41
1.0
 72
0
  0
TEXT
  8
0
 62
5
  6
CONTINUOUS
 10
99.75
 20
13.75
  7
TEXTSTYLE_6
 40
5.0
  1
1:1
 41
0.7
 72
1
 11
105.0
 21
13.75
  0
TEXT
  8
0
 62
5
  6
CONTINUOUS
 10
118.0
 20
13.75
  7
TEXTSTYLE_7
 40
7.5
  1
uni M-QNB-00-K173
 41
0.6264705882
 72
0
  0
LINE
  8
0
 62
7
  6
CONTINUOUS
 10
210.0
 20
0.0
 11
0.0
 21
0.0
  0
LINE
  8
0
 62
7
  6
CONTINUOUS
 10
10.0
 20
10.0
 11
200.0
 21
10.0
  0
LINE
  8
0
 62
7
  6
CONTINUOUS
 10
10.0
 20
30.0
 11
200.0
 21
30.0
  0
LINE
  8
0
 62
7
  6
CONTINUOUS
 10
0.0
 20
0.0
 11
0.0
 21
297.0
  0
LINE
  8
0
 62
7
  6
CONTINUOUS
 10
10.0
 20
10.0
 11
10.0
 21
287.0
  0
LINE
  8
0
 62
7
  6
CONTINUOUS
 10
200.0
 20
287.0
 11
200.0
 21
10.0
  0
LINE
  8
0
 62
7
  6
CONTINUOUS
 10
210.0
 20
0.0
 11
210.0
 21
297.0
  0
LINE
  8
0
 62
7
  6
CONTINUOUS
 10
10.0
 20
287.0
 11
200.0
 21
287.0
  0
LINE
  8
0
 62
7
  6
CONTINUOUS
 10
0.0
 20
297.0
 11
210.0
 21
297.0
  0
LINE
  8
0
 62
7
  6
CONTINUOUS
 10
37.8671260562
 20
134.4430710076
 11
37.8671260562
 21
146.1030252357
  0
LINE
  8
0
 62
9
  6
CONTINUOUS
 10
38.3671260562
 20
133.9430710076
 11
38.3671260562
 21
146.6030710076
  0
LINE
  8
0
 62
9
  6
CONTINUOUS
 10
43.388975139
 20
138.4130710076
 11
43.388975139
 21
142.2029866198
  0
LINE
  8
0
 62
9
  6
CONTINUOUS
 10
43.5251017962
 20
133.9430710076
 11
43.5251017962
 21
134.4430710076
  0
POLYLINE
  8
0
 62
9
  6
CONTINUOUS
 66
1
 70
0
  0
VERTEX
  8
0
 62
9
  6
CONTINUOUS
 10
43.3889750474
 20
142.2029866198
  0
VERTEX
  8
0
 62
9
  6
CONTINUOUS
 10
43.3915982889
 20
143.4127274503
  0
VERTEX
  8
0
 62
9
  6
CONTINUOUS
 10
43.3991956079
 20
144.5218787506
  0
VERTEX
  8
0
 62
9
  6
CONTINUOUS
 10
43.4111887684
 20
145.4547401983
  0
VERTEX
  8
0
 62
9
  6
CONTINUOUS
 10
43.4266961927
 20
146.1414606703
  0
VERTEX
  8
0
 62
9
  6
CONTINUOUS
 10
43.4432096921
 20
146.5111752335
  0
VERTEX
  8
0
 62
9
  6
CONTINUOUS
 10
43.4570498922
 20
146.6030710076
  0
SEQEND
  0
POLYLINE
  8
0
 62
9
  6
CONTINUOUS
 66
1
 70
0
  0
VERTEX
  8
0
 62
9
  6
CONTINUOUS
 10
43.8991595032
 20
144.262073839
  0
VERTEX
  8
0
 62
9
  6
CONTINUOUS
 10
43.9111982417
 20
145.0896969516
  0
VERTEX
  8
0
 62
9
  6
CONTINUOUS
 10
43.9267581938
 20
145.6978470174
  0
VERTEX
  8
0
 62
9
  6
CONTINUOUS
 10
43.9432908124
 20
146.0234765013
  0
VERTEX
  8
0
 62
9
  6
CONTINUOUS
 10
43.9571260562
 20
146.1030612452
  0
SEQEND
  0
LINE
  8
0
 62
7
  6
CONTINUOUS
 10
43.9571260562
 20
138.3119601313
 11
43.9510262395
 21
138.2580457546
  0
POLYLINE
  8
0
 62
7
  6
CONTINUOUS
 66
1
 70
0
  0
VERTEX
  8
0
 62
7
  6
CONTINUOUS
 10
44.1071260562
 20
125.60308077
  0
VERTEX
  8
0
 62
7
  6
CONTINUOUS
 10
44.1196662386
 20
125.4918106708
  0
VERTEX
  8
0
 62
7
  6
CONTINUOUS
 10
44.216238204
 20
125.291318401
  0
VERTEX
  8
0
 62
7
  6
CONTINUOUS
 10
44.2954234908
 20
125.2121487326
  0
VERTEX
  8
0
 62
7
  6
CONTINUOUS
 10
44.4959328364
 20
125.1156065511
  0
VERTEX
  8
0
 62
7
  6
CONTINUOUS
 10
44.6072022202
 20
125.1030718775
  0
SEQEND
  0
LINE
  8
0
 62
7
  6
CONTINUOUS
 10
43.9245454278
 20
138.3837869258
 11
43.9245513727
 21
138.3836556222
  0
LINE
  8
0
 62
7
  6
CONTINUOUS
 10
44.1397144112
 20
133.3221327036
 11
44.1397087654
 21
133.3222583172
  0
LINE
  8
0
 62
9
  6
CONTINUOUS
 10
44.1404434627
 20
133.293040439
 11
44.137618655
 21
133.3566472714
  0
LINE
  8
0
 62
9
  6
CONTINUOUS
 10
43.9238097167
 20
138.4130316993
 11
43.9266296259
 21
138.3495846932
  0
LINE
  8
0
 62
9
  6
CONTINUOUS
 10
43.9238103291
 20
138.4130710075
 11
43.9245454278
 21
138.3837869258
  0
LINE
  8
0
 62
9
  6
CONTINUOUS
 10
44.1404412312
 20
133.2930711902
 11
44.1397144112
 21
133.3221327036
  0
LINE
  8
0
 62
9
  6
CONTINUOUS
 10
43.8888989865
 20
138.4130950521
 11
43.8888989865
 21
142.2030710076
  0
LINE
  8
0
 62
7
  6
CONTINUOUS
 10
43.9571260562
 20
146.1030612452
 11
43.9571260562
 21
144.8030710076
  0
LINE
  8
0
 62
7
  6
CONTINUOUS
 10
43.9571260562
 20
139.6030710076
 11
43.9571260562
 21
138.3119601313
  0
LINE
  8
0
 62
7
  6
CONTINUOUS
 10
44.1071260562
 20
125.60308077
 11
44.1071260562
 21
126.9030710076
  0
LINE
  8
0
 62
7
  6
CONTINUOUS
 10
44.1071260562
 20
132.1030710076
 11
44.1071260562
 21
133.3941818839
  0
LINE
  8
0
 62
9
  6
CONTINUOUS
 10
44.1753531259
 20
129.5030710076
 11
44.1753531259
 21
133.293051657
  0
LINE
  8
0
 62
9
  6
CONTINUOUS
 10
44.5391503162
 20
137.2630710076
 11
44.5391503162
 21
137.7630710076
  0
LINE
  8
0
 62
9
  6
CONTINUOUS
 10
44.6752769734
 20
129.5031621789
 11
44.6752769734
 21
133.2930710076
  0
POLYLINE
  8
0
 62
9
  6
CONTINUOUS
 66
1
 70
0
  0
VERTEX
  8
0
 62
9
  6
CONTINUOUS
 10
43.8888989865
 20
142.2030710076
  0
VERTEX
  8
0
 62
9
  6
CONTINUOUS
 10
43.8915318536
 20
143.2772105051
  0
VERTEX
  8
0
 62
9
  6
CONTINUOUS
 10
43.8991595032
 20
144.262073839
  0
SEQEND
  0
POLYLINE
  8
0
 62
9
  6
CONTINUOUS
 66
1
 70
0
  0
VERTEX
  8
0
 62
9
  6
CONTINUOUS
 10
44.154055025
 20
126.6696147795
  0
VERTEX
  8
0
 62
9
  6
CONTINUOUS
 10
44.1655011015
 20
127.4822023364
  0
VERTEX
  8
0
 62
9
  6
CONTINUOUS
 10
44.1727685718
 20
128.4386387925
  0
VERTEX
  8
0
 62
9
  6
CONTINUOUS
 10
44.1753531259
 20
129.5030710076
  0
SEQEND
  0
LINE
  8
0
 62
7
  6
CONTINUOUS
 10
44.1071260562
 20
133.3941818839
 11
44.1131176714
 21
133.4471399008
  0
LINE
  8
0
 62
9
  6
CONTINUOUS
 10
43.9409476389
 20
138.2802028867
 11
43.9571260562
 21
138.3125695827
  0
LINE
  8
0
 62
7
  6
CONTINUOUS
 10
44.0008337448
 20
133.695419911
 11
44.1292449857
 21
133.412775566
  0
POLYLINE
  8
0
 62
7
  6
CONTINUOUS
 66
1
 70
0
  0
VERTEX
  8
0
 62
7
  6
CONTINUOUS
 10
43.9571260562
 20
139.6030710076
  0
VERTEX
  8
0
 62
7
  6
CONTINUOUS
 10
43.9496555526
 20
139.6385381151
  0
VERTEX
  8
0
 62
7
  6
CONTINUOUS
 10
43.9355244928
 20
139.9164876991
  0
VERTEX
  8
0
 62
7
  6
CONTINUOUS
 10
43.9237351407
 20
140.4422281086
  0
VERTEX
  8
0
 62
7
  6
CONTINUOUS
 10
43.9155647326
 20
141.1587449431
  0
VERTEX
  8
0
 62
7
  6
CONTINUOUS
 10
43.9118978648
 20
141.9883848586
  0
VERTEX
  8
0
 62
7
  6
CONTINUOUS
 10
43.9118978654
 20
142.4177575954
  0
VERTEX
  8
0
 62
7
  6
CONTINUOUS
 10
43.9155647352
 20
143.2473974126
  0
VERTEX
  8
0
 62
7
  6
CONTINUOUS
 10
43.9237351436
 20
143.963914083
  0
VERTEX
  8
0
 62
7
  6
CONTINUOUS
 10
43.9355244944
 20
144.489654364
  0
VERTEX
  8
0
 62
7
  6
CONTINUOUS
 10
43.9496555528
 20
144.7676039019
  0
VERTEX
  8
0
 62
7
  6
CONTINUOUS
 10
43.9571260562
 20
144.8030710076
  0
SEQEND
  0
LINE
  8
0
 62
7
  6
CONTINUOUS
 10
44.1008166568
 20
133.5165107067
 11
44.140442995
 21
133.2930404388
  0
POLYLINE
  8
0
 62
7
  6
CONTINUOUS
 66
1
 70
0
  0
VERTEX
  8
0
 62
7
  6
CONTINUOUS
 10
44.1753531265
 20
133.293051657
  0
VERTEX
  8
0
 62
7
  6
CONTINUOUS
 10
44.1361813486
 20
133.5152654901
  0
VERTEX
  8
0
 62
7
  6
CONTINUOUS
 10
44.0232685754
 20
133.710828912
  0
VERTEX
  8
0
 62
7
  6
CONTINUOUS
 10
43.9430394269
 20
133.7910299765
  0
VERTEX
  8
0
 62
7
  6
CONTINUOUS
 10
43.7473820476
 20
133.9039144186
  0
VERTEX
  8
0
 62
7
  6
CONTINUOUS
 10
43.5251017142
 20
133.9430710076
  0
SEQEND
  0
POLYLINE
  8
0
 62
9
  6
CONTINUOUS
 66
1
 70
0
  0
VERTEX
  8
0
 62
9
  6
CONTINUOUS
 10
44.6752769734
 20
133.2930710076
  0
VERTEX
  8
0
 62
9
  6
CONTINUOUS
 10
44.6061278813
 20
133.6857942425
  0
VERTEX
  8
0
 62
9
  6
CONTINUOUS
 10
44.4063469803
 20
134.0320857996
  0
VERTEX
  8
0
 62
9
  6
CONTINUOUS
 10
44.2642924305
 20
134.1741291614
  0
VERTEX
  8
0
 62
9
  6
CONTINUOUS
 10
43.9178922611
 20
134.3739303259
  0
VERTEX
  8
0
 62
9
  6
CONTINUOUS
 10
43.5251017962
 20
134.4430710076
  0
SEQEND
  0
LINE
  8
0
 62
7
  6
CONTINUOUS
 10
43.955288075
 20
138.2132794394
 11
43.9238091192
 21
138.4130317004
  0
LINE
  8
0
 62
7
  6
CONTINUOUS
 10
43.9350409452
 20
138.2931883595
 11
43.9245502912
 21
138.3836796486
  0
LINE
  8
0
 62
7
  6
CONTINUOUS
 10
44.1292449857
 20
133.412775566
 11
44.1397167767
 21
133.3220790468
  0
POLYLINE
  8
0
 62
7
  6
CONTINUOUS
 66
1
 70
0
  0
VERTEX
  8
0
 62
7
  6
CONTINUOUS
 10
43.9571260562
 20
146.1030612452
  0
VERTEX
  8
0
 62
7
  6
CONTINUOUS
 10
43.9445858913
 20
146.21433135
  0
VERTEX
  8
0
 62
7
  6
CONTINUOUS
 10
43.8480139426
 20
146.414823645
  0
VERTEX
  8
0
 62
7
  6
CONTINUOUS
 10
43.7688286523
 20
146.4939933242
  0
VERTEX
  8
0
 62
7
  6
CONTINUOUS
 10
43.5683192851
 20
146.590535508
  0
VERTEX
  8
0
 62
7
  6
CONTINUOUS
 10
43.4570498922
 20
146.6030702123
  0
SEQEND
  0
POLYLINE
  8
0
 62
9
  6
CONTINUOUS
 66
1
 70
0
  0
VERTEX
  8
0
 62
9
  6
CONTINUOUS
 10
44.6072022202
 20
125.1030710076
  0
VERTEX
  8
0
 62
9
  6
CONTINUOUS
 10
44.6224191664
 20
125.2144070334
  0
VERTEX
  8
0
 62
9
  6
CONTINUOUS
 10
44.6393072646
 20
125.6231314616
  0
VERTEX
  8
0
 62
9
  6
CONTINUOUS
 10
44.6540542038
 20
126.3109623486
  0
VERTEX
  8
0
 62
9
  6
CONTINUOUS
 10
44.6654606452
 20
127.2269302975
  0
VERTEX
  8
0
 62
9
  6
CONTINUOUS
 10
44.672701338
 20
128.3042064853
  0
VERTEX
  8
0
 62
9
  6
CONTINUOUS
 10
44.6752770717
 20
129.5031621789
  0
SEQEND
  0
POLYLINE
  8
0
 62
9
  6
CONTINUOUS
 66
1
 70
0
  0
VERTEX
  8
0
 62
9
  6
CONTINUOUS
 10
44.1071260562
 20
125.60308077
  0
VERTEX
  8
0
 62
9
  6
CONTINUOUS
 10
44.1223382285
 20
125.6997057735
  0
VERTEX
  8
0
 62
9
  6
CONTINUOUS
 10
44.1392618441
 20
126.060320546
  0
VERTEX
  8
0
 62
9
  6
CONTINUOUS
 10
44.154055025
 20
126.6696147795
  0
SEQEND
  0
POLYLINE
  8
0
 62
7
  6
CONTINUOUS
 66
1
 70
0
  0
VERTEX
  8
0
 62
7
  6
CONTINUOUS
 10
44.1071260562
 20
126.9030710076
  0
VERTEX
  8
0
 62
7
  6
CONTINUOUS
 10
44.1145965598
 20
126.9385381151
  0
VERTEX
  8
0
 62
7
  6
CONTINUOUS
 10
44.1287276196
 20
127.2164876991
  0
VERTEX
  8
0
 62
7
  6
CONTINUOUS
 10
44.1405169717
 20
127.7422281086
  0
VERTEX
  8
0
 62
7
  6
CONTINUOUS
 10
44.1486873798
 20
128.4587449431
  0
VERTEX
  8
0
 62
7
  6
CONTINUOUS
 10
44.1523542476
 20
129.2883848586
  0
VERTEX
  8
0
 62
7
  6
CONTINUOUS
 10
44.152354247
 20
129.7177575954
  0
VERTEX
  8
0
 62
7
  6
CONTINUOUS
 10
44.1486873772
 20
130.5473974126
  0
VERTEX
  8
0
 62
7
  6
CONTINUOUS
 10
44.1405169688
 20
131.263914083
  0
VERTEX
  8
0
 62
7
  6
CONTINUOUS
 10
44.128727618
 20
131.789654364
  0
VERTEX
  8
0
 62
7
  6
CONTINUOUS
 10
44.1145965596
 20
132.0676039019
  0
VERTEX
  8
0
 62
7
  6
CONTINUOUS
 10
44.1071260562
 20
132.1030710076
  0
SEQEND
  0
LINE
  8
0
 62
9
  6
CONTINUOUS
 10
44.1232835351
 20
133.4258972389
 11
44.1071260562
 21
133.3935724324
  0
LINE
  8
0
 62
7
  6
CONTINUOUS
 10
49.897144233
 20
126.4210522181
 11
49.8420754056
 21
126.4988193134
  0
LINE
  8
0
 62
7
  6
CONTINUOUS
 10
44.0636726889
 20
138.010400039
 11
43.9350409452
 21
138.2931883595
  0
POLYLINE
  8
0
 62
9
  6
CONTINUOUS
 66
1
 70
0
  0
VERTEX
  8
0
 62
9
  6
CONTINUOUS
 10
49.8420801542
 20
126.4988186981
  0
VERTEX
  8
0
 62
9
  6
CONTINUOUS
 10
49.7511868383
 20
126.5190426403
  0
VERTEX
  8
0
 62
9
  6
CONTINUOUS
 10
49.6587842812
 20
126.5583545144
  0
VERTEX
  8
0
 62
9
  6
CONTINUOUS
 10
49.5732812114
 20
126.6159404645
  0
VERTEX
  8
0
 62
9
  6
CONTINUOUS
 10
49.5360994205
 20
126.6496491792
  0
VERTEX
  8
0
 62
9
  6
CONTINUOUS
 10
49.4713613503
 20
126.7280369816
  0
VERTEX
  8
0
 62
9
  6
CONTINUOUS
 10
49.4156551637
 20
126.8365928099
  0
SEQEND
  0
POLYLINE
  8
0
 62
9
  6
CONTINUOUS
 66
1
 70
0
  0
VERTEX
  8
0
 62
9
  6
CONTINUOUS
 10
49.777019063
 20
125.5543530588
  0
VERTEX
  8
0
 62
9
  6
CONTINUOUS
 10
49.5966815527
 20
125.5999957145
  0
VERTEX
  8
0
 62
9
  6
CONTINUOUS
 10
49.4144593076
 20
125.6886840187
  0
VERTEX
  8
0
 62
9
  6
CONTINUOUS
 10
49.2467792222
 20
125.8186182173
  0
VERTEX
  8
0
 62
9
  6
CONTINUOUS
 10
49.1741848172
 20
125.8946720558
  0
VERTEX
  8
0
 62
9
  6
CONTINUOUS
 10
49.0484103501
 20
126.0715218913
  0
VERTEX
  8
0
 62
9
  6
CONTINUOUS
 10
48.9413630241
 20
126.31643128
  0
VERTEX
  8
0
 62
9
  6
CONTINUOUS
 10
48.8849255179
 20
126.6729646208
  0
SEQEND
  0
POLYLINE
  8
0
 62
7
  6
CONTINUOUS
 66
1
 70
0
  0
VERTEX
  8
0
 62
7
  6
CONTINUOUS
 10
49.8721260562
 20
126.4988193134
  0
VERTEX
  8
0
 62
7
  6
CONTINUOUS
 10
49.6413816269
 20
126.5914338563
  0
VERTEX
  8
0
 62
7
  6
CONTINUOUS
 10
49.5504285509
 20
126.6776264686
  0
VERTEX
  8
0
 62
7
  6
CONTINUOUS
 10
49.445570255
 20
126.9030710076
  0
SEQEND
  0
POLYLINE
  8
0
 62
9
  6
CONTINUOUS
 66
1
 70
0
  0
VERTEX
  8
0
 62
9
  6
CONTINUOUS
 10
50.2769429105
 20
126.0030710076
  0
VERTEX
  8
0
 62
9
  6
CONTINUOUS
 10
50.2204262237
 20
126.2340043028
  0
VERTEX
  8
0
 62
9
  6
CONTINUOUS
 10
50.0636540147
 20
126.4127237534
  0
VERTEX
  8
0
 62
9
  6
CONTINUOUS
 10
49.8420800933
 20
126.4988186981
  0
SEQEND
  0
LINE
  8
0
 62
9
  6
CONTINUOUS
 10
49.4156551637
 20
126.8365928099
 11
49.3848492911
 21
126.9945700183
  0
POLYLINE
  8
0
 62
9
  6
CONTINUOUS
 66
1
 70
0
  0
VERTEX
  8
0
 62
9
  6
CONTINUOUS
 10
49.8070498922
 20
125.1030710076
  0
VERTEX
  8
0
 62
9
  6
CONTINUOUS
 10
49.7929345295
 20
125.1986981355
  0
VERTEX
  8
0
 62
9
  6
CONTINUOUS
 10
49.777019063
 20
125.5543530588
  0
SEQEND
  0
POLYLINE
  8
0
 62
7
  6
CONTINUOUS
 66
1
 70
0
  0
VERTEX
  8
0
 62
7
  6
CONTINUOUS
 10
49.4251924743
 20
126.9945676193
  0
VERTEX
  8
0
 62
7
  6
CONTINUOUS
 10
49.4315963873
 20
126.9443672616
  0
VERTEX
  8
0
 62
7
  6
CONTINUOUS
 10
49.4397327527
 20
126.9133588597
  0
VERTEX
  8
0
 62
7
  6
CONTINUOUS
 10
49.445570255
 20
126.9030710076
  0
SEQEND
  0
POLYLINE
  8
0
 62
7
  6
CONTINUOUS
 66
1
 70
0
  0
VERTEX
  8
0
 62
7
  6
CONTINUOUS
 10
50.3071260562
 20
126.0030710076
  0
VERTEX
  8
0
 62
7
  6
CONTINUOUS
 10
50.2965760956
 20
126.1052330654
  0
VERTEX
  8
0
 62
7
  6
CONTINUOUS
 10
50.2148331516
 20
126.2924901883
  0
VERTEX
  8
0
 62
7
  6
CONTINUOUS
 10
50.1470920428
 20
126.3696860028
  0
VERTEX
  8
0
 62
7
  6
CONTINUOUS
 10
49.9720456853
 20
126.4750717281
  0
VERTEX
  8
0
 62
7
  6
CONTINUOUS
 10
49.8721260562
 20
126.4988193134
  0
SEQEND
  0
LINE
  8
0
 62
9
  6
CONTINUOUS
 10
50.2929546422
 20
125.6866697312
 11
50.2769429105
 21
126.0030710076
  0
POLYLINE
  8
0
 62
7
  6
CONTINUOUS
 66
1
 70
0
  0
VERTEX
  8
0
 62
7
  6
CONTINUOUS
 10
49.4251924743
 20
126.9945676193
  0
VERTEX
  8
0
 62
7
  6
CONTINUOUS
 10
49.4117905098
 20
127.3459368834
  0
VERTEX
  8
0
 62
7
  6
CONTINUOUS
 10
49.4010611784
 20
127.9247802888
  0
VERTEX
  8
0
 62
7
  6
CONTINUOUS
 10
49.3941354448
 20
128.6700203178
  0
VERTEX
  8
0
 62
7
  6
CONTINUOUS
 10
49.3917428874
 20
129.5030712141
  0
VERTEX
  8
0
 62
7
  6
CONTINUOUS
 10
49.3941354468
 20
130.3361220455
  0
VERTEX
  8
0
 62
7
  6
CONTINUOUS
 10
49.401061181
 20
131.0813619247
  0
VERTEX
  8
0
 62
7
  6
CONTINUOUS
 10
49.4117905113
 20
131.6602051922
  0
VERTEX
  8
0
 62
7
  6
CONTINUOUS
 10
49.4251924743
 20
132.0115743958
  0
SEQEND
  0
POLYLINE
  8
0
 62
9
  6
CONTINUOUS
 66
1
 70
0
  0
VERTEX
  8
0
 62
9
  6
CONTINUOUS
 10
49.3848493327
 20
126.9945700183
  0
VERTEX
  8
0
 62
9
  6
CONTINUOUS
 10
49.3793709059
 20
127.4247122569
  0
VERTEX
  8
0
 62
9
  6
CONTINUOUS
 10
49.3749918113
 20
127.8903688309
  0
VERTEX
  8
0
 62
9
  6
CONTINUOUS
 10
49.3717562042
 20
128.3850429573
  0
VERTEX
  8
0
 62
9
  6
CONTINUOUS
 10
49.3696699934
 20
128.9177658981
  0
SEQEND
  0
POLYLINE
  8
0
 62
9
  6
CONTINUOUS
 66
1
 70
0
  0
VERTEX
  8
0
 62
9
  6
CONTINUOUS
 10
48.8849255179
 20
126.6729646208
  0
VERTEX
  8
0
 62
9
  6
CONTINUOUS
 10
48.87944632
 20
127.1583319352
  0
VERTEX
  8
0
 62
9
  6
CONTINUOUS
 10
48.875067621
 20
127.6836610798
  0
VERTEX
  8
0
 62
9
  6
CONTINUOUS
 10
48.8718323105
 20
128.2417160438
  0
VERTEX
  8
0
 62
9
  6
CONTINUOUS
 10
48.8697462525
 20
128.8426812169
  0
SEQEND
  0
LINE
  8
0
 62
9
  6
CONTINUOUS
 10
48.8697462525
 20
128.8426812169
 11
48.868975139
 21
132.0115743958
  0
LINE
  8
0
 62
9
  6
CONTINUOUS
 10
49.3696699934
 20
128.9177658981
 11
49.3688989865
 21
132.0115635197
  0
LINE
  8
0
 62
9
  6
CONTINUOUS
 10
49.738975139
 20
133.0030710076
 11
49.738975139
 21
133.2930710076
  0
LINE
  8
0
 62
9
  6
CONTINUOUS
 10
49.8751017962
 20
137.2630710076
 11
49.8751017962
 21
137.7630710076
  0
LINE
  8
0
 62
9
  6
CONTINUOUS
 10
50.2388989865
 20
133.0030710076
 11
50.2388989865
 21
133.2930469137
  0
LINE
  8
0
 62
7
  6
CONTINUOUS
 10
50.3071260562
 20
125.60308077
 11
50.3071260562
 21
126.0030710076
  0
LINE
  8
0
 62
7
  6
CONTINUOUS
 10
50.3071260562
 20
133.0030710076
 11
50.3071260562
 21
133.3935724324
  0
LINE
  8
0
 62
9
  6
CONTINUOUS
 10
50.2745302411
 20
133.3219828961
 11
50.2738109478
 21
133.2930711971
  0
POLYLINE
  8
0
 62
9
  6
CONTINUOUS
 66
1
 70
0
  0
VERTEX
  8
0
 62
9
  6
CONTINUOUS
 10
48.868975139
 20
132.0115743958
  0
VERTEX
  8
0
 62
9
  6
CONTINUOUS
 10
48.8898777973
 20
132.2149463803
  0
VERTEX
  8
0
 62
9
  6
CONTINUOUS
 10
49.0533133894
 20
132.5900564509
  0
VERTEX
  8
0
 62
9
  6
CONTINUOUS
 10
49.1888840664
 20
132.7446509057
  0
VERTEX
  8
0
 62
9
  6
CONTINUOUS
 10
49.5393922122
 20
132.9556641233
  0
VERTEX
  8
0
 62
9
  6
CONTINUOUS
 10
49.738975139
 20
133.0030710076
  0
SEQEND
  0
POLYLINE
  8
0
 62
9
  6
CONTINUOUS
 66
1
 70
0
  0
VERTEX
  8
0
 62
9
  6
CONTINUOUS
 10
49.368898986
 20
132.0115635197
  0
VERTEX
  8
0
 62
9
  6
CONTINUOUS
 10
49.3794013258
 20
132.113492718
  0
VERTEX
  8
0
 62
9
  6
CONTINUOUS
 10
49.4611495113
 20
132.3008942944
  0
VERTEX
  8
0
 62
9
  6
CONTINUOUS
 10
49.5289181442
 20
132.3781304291
  0
VERTEX
  8
0
 62
9
  6
CONTINUOUS
 10
49.7040970693
 20
132.4835805845
  0
VERTEX
  8
0
 62
9
  6
CONTINUOUS
 10
49.8040211463
 20
132.5073213457
  0
SEQEND
  0
POLYLINE
  8
0
 62
7
  6
CONTINUOUS
 66
1
 70
0
  0
VERTEX
  8
0
 62
7
  6
CONTINUOUS
 10
50.4571260562
 20
146.1030612452
  0
VERTEX
  8
0
 62
7
  6
CONTINUOUS
 10
50.4696662205
 20
146.2143313507
  0
VERTEX
  8
0
 62
7
  6
CONTINUOUS
 10
50.5662381685
 20
146.4148236472
  0
VERTEX
  8
0
 62
7
  6
CONTINUOUS
 10
50.6454234589
 20
146.4939933271
  0
VERTEX
  8
0
 62
7
  6
CONTINUOUS
 10
50.8459328267
 20
146.5905355118
  0
VERTEX
  8
0
 62
7
  6
CONTINUOUS
 10
50.9572022202
 20
146.6030702152
  0
SEQEND
  0
LINE
  8
0
 62
7
  6
CONTINUOUS
 10
50.4896931489
 20
138.3834893613
 11
50.4798441034
 21
138.2966122778
  0
POLYLINE
  8
0
 62
9
  6
CONTINUOUS
 66
1
 70
0
  0
VERTEX
  8
0
 62
9
  6
CONTINUOUS
 10
49.738975139
 20
133.2930710076
  0
VERTEX
  8
0
 62
9
  6
CONTINUOUS
 10
49.808086105
 20
133.6856914121
  0
VERTEX
  8
0
 62
9
  6
CONTINUOUS
 10
50.00789824
 20
134.0320779708
  0
VERTEX
  8
0
 62
9
  6
CONTINUOUS
 10
50.1499392187
 20
134.1741107865
  0
VERTEX
  8
0
 62
9
  6
CONTINUOUS
 10
50.4962318101
 20
134.3738814846
  0
VERTEX
  8
0
 62
9
  6
CONTINUOUS
 10
50.8891503162
 20
134.4430710076
  0
SEQEND
  0
POLYLINE
  8
0
 62
7
  6
CONTINUOUS
 66
1
 70
0
  0
VERTEX
  8
0
 62
7
  6
CONTINUOUS
 10
50.4904443044
 20
138.4130303061
  0
VERTEX
  8
0
 62
7
  6
CONTINUOUS
 10
50.4513178076
 20
138.191004607
  0
VERTEX
  8
0
 62
7
  6
CONTINUOUS
 10
50.3385860277
 20
137.9955844285
  0
VERTEX
  8
0
 62
7
  6
CONTINUOUS
 10
50.2585655764
 20
137.9154782457
  0
VERTEX
  8
0
 62
7
  6
CONTINUOUS
 10
50.0630539867
 20
137.8024395562
  0
VERTEX
  8
0
 62
7
  6
CONTINUOUS
 10
49.8745108107
 20
137.766156656
  0
SEQEND
  0
POLYLINE
  8
0
 62
7
  6
CONTINUOUS
 66
1
 70
0
  0
VERTEX
  8
0
 62
7
  6
CONTINUOUS
 10
50.5253531265
 20
138.4130951014
  0
VERTEX
  8
0
 62
7
  6
CONTINUOUS
 10
50.486199267
 20
138.190925771
  0
VERTEX
  8
0
 62
7
  6
CONTINUOUS
 10
50.3733060435
 20
137.9953577562
  0
VERTEX
  8
0
 62
7
  6
CONTINUOUS
 10
50.2930863296
 20
137.9151513804
  0
VERTEX
  8
0
 62
7
  6
CONTINUOUS
 10
50.0974464853
 20
137.8022510299
  0
VERTEX
  8
0
 62
7
  6
CONTINUOUS
 10
49.8751046078
 20
137.7630710076
  0
SEQEND
  0
POLYLINE
  8
0
 62
7
  6
CONTINUOUS
 66
1
 70
0
  0
VERTEX
  8
0
 62
7
  6
CONTINUOUS
 10
50.4571260562
 20
139.6030710076
  0
VERTEX
  8
0
 62
7
  6
CONTINUOUS
 10
50.4645965598
 20
139.6385381151
  0
VERTEX
  8
0
 62
7
  6
CONTINUOUS
 10
50.4787276196
 20
139.9164876991
  0
VERTEX
  8
0
 62
7
  6
CONTINUOUS
 10
50.4905169717
 20
140.4422281086
  0
VERTEX
  8
0
 62
7
  6
CONTINUOUS
 10
50.4986873798
 20
141.1587449431
  0
VERTEX
  8
0
 62
7
  6
CONTINUOUS
 10
50.5023542476
 20
141.9883848586
  0
VERTEX
  8
0
 62
7
  6
CONTINUOUS
 10
50.502354247
 20
142.4177575954
  0
VERTEX
  8
0
 62
7
  6
CONTINUOUS
 10
50.4986873772
 20
143.2473974126
  0
VERTEX
  8
0
 62
7
  6
CONTINUOUS
 10
50.4905169688
 20
143.963914083
  0
VERTEX
  8
0
 62
7
  6
CONTINUOUS
 10
50.478727618
 20
144.489654364
  0
VERTEX
  8
0
 62
7
  6
CONTINUOUS
 10
50.4645965596
 20
144.7676039019
  0
VERTEX
  8
0
 62
7
  6
CONTINUOUS
 10
50.4571260562
 20
144.8030710076
  0
SEQEND
  0
POLYLINE
  8
0
 62
7
  6
CONTINUOUS
 66
1
 70
0
  0
VERTEX
  8
0
 62
7
  6
CONTINUOUS
 10
50.4798441034
 20
138.2966122778
  0
VERTEX
  8
0
 62
7
  6
CONTINUOUS
 10
50.3527090233
 20
138.0131124352
  0
VERTEX
  8
0
 62
7
  6
CONTINUOUS
 10
50.242324953
 20
137.9023132002
  0
SEQEND
  0
LINE
  8
2_FEATURE
 62
7
  6
CONTINUOUS
 10
44.6072022202
 20
125.1030710076
 11
49.8070498922
 21
125.1030710076
  0
LINE
  8
2_FEATURE
 62
7
  6
CONTINUOUS
 10
57.3072022202
 20
125.1030710076
 11
62.5070498922
 21
125.1030710076
  0
LINE
  8
2_FEATURE
 62
7
  6
CONTINUOUS
 10
70.0072022202
 20
125.1030710076
 11
75.2070498922
 21
125.1030710076
  0
LINE
  8
0
 62
9
  6
CONTINUOUS
 10
50.2769429105
 20
126.0030710076
 11
50.3071260562
 21
126.0030710076
  0
LINE
  8
0
 62
9
  6
CONTINUOUS
 10
50.2913750073
 20
133.4250841312
 11
50.3071260562
 21
133.3935724324
  0
LINE
  8
0
 62
9
  6
CONTINUOUS
 10
50.3071260562
 20
125.60308077
 11
50.2929546422
 21
125.6866697312
  0
LINE
  8
0
 62
9
  6
CONTINUOUS
 10
49.738975139
 20
133.0030710076
 11
49.8040314809
 21
132.5073227016
  0
LINE
  8
0
 62
7
  6
CONTINUOUS
 10
50.3071260562
 20
133.3935724324
 11
50.3011365369
 21
133.4468589111
  0
POLYLINE
  8
0
 62
9
  6
CONTINUOUS
 66
1
 70
0
  0
VERTEX
  8
0
 62
9
  6
CONTINUOUS
 10
50.5040552262
 20
145.0365164284
  0
VERTEX
  8
0
 62
9
  6
CONTINUOUS
 10
50.5154978641
 20
144.2242458421
  0
VERTEX
  8
0
 62
9
  6
CONTINUOUS
 10
50.5227651504
 20
143.2681938803
  0
VERTEX
  8
0
 62
9
  6
CONTINUOUS
 10
50.5253531259
 20
142.2030710076
  0
SEQEND
  0
LINE
  8
0
 62
7
  6
CONTINUOUS
 10
50.4571260562
 20
146.1030612452
 11
50.4571260562
 21
144.8030710076
  0
LINE
  8
0
 62
7
  6
CONTINUOUS
 10
50.4571260562
 20
139.6030710076
 11
50.4571260562
 21
138.3125695827
  0
LINE
  8
0
 62
9
  6
CONTINUOUS
 10
50.5253531259
 20
142.2030710076
 11
50.5253531259
 21
138.4130951014
  0
LINE
  8
0
 62
9
  6
CONTINUOUS
 10
50.8891503162
 20
134.4430710076
 11
50.8891503162
 21
133.9430710076
  0
LINE
  8
0
 62
9
  6
CONTINUOUS
 10
51.0252769734
 20
142.2029813967
 11
51.0252769734
 21
138.4130710076
  0
LINE
  8
0
 62
9
  6
CONTINUOUS
 10
50.4897095484
 20
138.3838508236
 11
50.4904431594
 21
138.4133240629
  0
LINE
  8
0
 62
9
  6
CONTINUOUS
 10
50.4876201697
 20
138.3495362151
 11
50.4896926209
 21
138.3834777447
  0
LINE
  8
0
 62
9
  6
CONTINUOUS
 10
50.4897095484
 20
138.3838508236
 11
50.4904423741
 21
138.4130303026
  0
LINE
  8
0
 62
9
  6
CONTINUOUS
 10
50.2766350342
 20
133.3566870286
 11
50.2745463314
 21
133.3223414747
  0
LINE
  8
0
 62
9
  6
CONTINUOUS
 10
50.2745302411
 20
133.3219828961
 11
50.2738089229
 21
133.2930583407
  0
LINE
  8
0
 62
7
  6
CONTINUOUS
 10
50.2745463314
 20
133.3223414747
 11
50.2745302411
 21
133.3219828961
  0
LINE
  8
0
 62
7
  6
CONTINUOUS
 10
50.4896926209
 20
138.3834777447
 11
50.4897095484
 21
138.3838508236
  0
POLYLINE
  8
0
 62
7
  6
CONTINUOUS
 66
1
 70
0
  0
VERTEX
  8
0
 62
7
  6
CONTINUOUS
 10
50.3071260562
 20
133.0030710076
  0
VERTEX
  8
0
 62
7
  6
CONTINUOUS
 10
50.2965760956
 20
132.9009089497
  0
VERTEX
  8
0
 62
7
  6
CONTINUOUS
 10
50.2148331516
 20
132.7136518268
  0
VERTEX
  8
0
 62
7
  6
CONTINUOUS
 10
50.1470920428
 20
132.6364560123
  0
VERTEX
  8
0
 62
7
  6
CONTINUOUS
 10
49.9720456853
 20
132.531070287
  0
VERTEX
  8
0
 62
7
  6
CONTINUOUS
 10
49.8721260562
 20
132.5073227017
  0
SEQEND
  0
POLYLINE
  8
0
 62
7
  6
CONTINUOUS
 66
1
 70
0
  0
VERTEX
  8
0
 62
7
  6
CONTINUOUS
 10
50.3071260562
 20
125.60308077
  0
VERTEX
  8
0
 62
7
  6
CONTINUOUS
 10
50.2945859061
 20
125.4918106506
  0
VERTEX
  8
0
 62
7
  6
CONTINUOUS
 10
50.1980139677
 20
125.2913183078
  0
VERTEX
  8
0
 62
7
  6
CONTINUOUS
 10
50.1188286727
 20
125.2121486042
  0
VERTEX
  8
0
 62
7
  6
CONTINUOUS
 10
49.9183192858
 20
125.1156063845
  0
VERTEX
  8
0
 62
7
  6
CONTINUOUS
 10
49.8070498922
 20
125.1030715372
  0
SEQEND
  0
LINE
  8
0
 62
7
  6
CONTINUOUS
 10
50.2745274397
 20
133.3219187987
 11
50.28441214
 21
133.4095522516
  0
POLYLINE
  8
0
 62
7
  6
CONTINUOUS
 66
1
 70
0
  0
VERTEX
  8
0
 62
7
  6
CONTINUOUS
 10
50.2738091172
 20
133.2930583407
  0
VERTEX
  8
0
 62
7
  6
CONTINUOUS
 10
50.3119029269
 20
133.512280491
  0
VERTEX
  8
0
 62
7
  6
CONTINUOUS
 10
50.4218306954
 20
133.7059392987
  0
VERTEX
  8
0
 62
7
  6
CONTINUOUS
 10
50.5000102373
 20
133.7858391049
  0
VERTEX
  8
0
 62
7
  6
CONTINUOUS
 10
50.6909147816
 20
133.8998535936
  0
VERTEX
  8
0
 62
7
  6
CONTINUOUS
 10
50.8896812836
 20
133.9404580624
  0
SEQEND
  0
POLYLINE
  8
0
 62
9
  6
CONTINUOUS
 66
1
 70
0
  0
VERTEX
  8
0
 62
9
  6
CONTINUOUS
 10
51.0252769734
 20
138.4130710076
  0
VERTEX
  8
0
 62
9
  6
CONTINUOUS
 10
50.9561660074
 20
138.0204506031
  0
VERTEX
  8
0
 62
9
  6
CONTINUOUS
 10
50.7563538724
 20
137.6740640443
  0
VERTEX
  8
0
 62
9
  6
CONTINUOUS
 10
50.6143128937
 20
137.5320312286
  0
VERTEX
  8
0
 62
9
  6
CONTINUOUS
 10
50.2680203023
 20
137.3322605305
  0
VERTEX
  8
0
 62
9
  6
CONTINUOUS
 10
49.8751017962
 20
137.2630710076
  0
SEQEND
  0
POLYLINE
  8
0
 62
7
  6
CONTINUOUS
 66
1
 70
0
  0
VERTEX
  8
0
 62
7
  6
CONTINUOUS
 10
50.2388989859
 20
133.2930469137
  0
VERTEX
  8
0
 62
7
  6
CONTINUOUS
 10
50.2780528454
 20
133.5152162441
  0
VERTEX
  8
0
 62
7
  6
CONTINUOUS
 10
50.3909460689
 20
133.7107842589
  0
VERTEX
  8
0
 62
7
  6
CONTINUOUS
 10
50.4711657828
 20
133.7909906347
  0
VERTEX
  8
0
 62
7
  6
CONTINUOUS
 10
50.6668056271
 20
133.9038909852
  0
VERTEX
  8
0
 62
7
  6
CONTINUOUS
 10
50.8891475046
 20
133.9430710076
  0
SEQEND
  0
LINE
  8
0
 62
9
  6
CONTINUOUS
 10
49.8721260562
 20
126.4988193134
 11
49.8420800933
 21
126.4988186981
  0
LINE
  8
0
 62
9
  6
CONTINUOUS
 10
49.4251924743
 20
126.9945676193
 11
49.3848493327
 21
126.9945700183
  0
POLYLINE
  8
0
 62
7
  6
CONTINUOUS
 66
1
 70
0
  0
VERTEX
  8
0
 62
7
  6
CONTINUOUS
 10
43.6067254535
 20
133.9325458952
  0
VERTEX
  8
0
 62
7
  6
CONTINUOUS
 10
43.8899655003
 20
133.8056784538
  0
VERTEX
  8
0
 62
7
  6
CONTINUOUS
 10
44.0008337448
 20
133.695419911
  0
SEQEND
  0
LINE
  8
0
 62
7
  6
CONTINUOUS
 10
50.4571260562
 20
138.3125695827
 11
50.4631132339
 21
138.259303937
  0
POLYLINE
  8
0
 62
7
  6
CONTINUOUS
 66
1
 70
0
  0
VERTEX
  8
0
 62
7
  6
CONTINUOUS
 10
50.28441214
 20
133.4095522516
  0
VERTEX
  8
0
 62
7
  6
CONTINUOUS
 10
50.4114277134
 20
133.6928824532
  0
VERTEX
  8
0
 62
7
  6
CONTINUOUS
 10
50.5217714972
 20
133.8037073037
  0
SEQEND
  0
POLYLINE
  8
0
 62
7
  6
CONTINUOUS
 66
1
 70
0
  0
VERTEX
  8
0
 62
7
  6
CONTINUOUS
 10
49.445570255
 20
132.1030710076
  0
VERTEX
  8
0
 62
7
  6
CONTINUOUS
 10
49.4397327527
 20
132.0927831554
  0
VERTEX
  8
0
 62
7
  6
CONTINUOUS
 10
49.4315963873
 20
132.0617747535
  0
VERTEX
  8
0
 62
7
  6
CONTINUOUS
 10
49.4251924743
 20
132.0115743958
  0
SEQEND
  0
POLYLINE
  8
0
 62
9
  6
CONTINUOUS
 66
1
 70
0
  0
VERTEX
  8
0
 62
9
  6
CONTINUOUS
 10
49.777019063
 20
125.5543530588
  0
VERTEX
  8
0
 62
9
  6
CONTINUOUS
 10
50.0258774315
 20
125.615615591
  0
VERTEX
  8
0
 62
9
  6
CONTINUOUS
 10
50.2086905004
 20
125.7797043403
  0
VERTEX
  8
0
 62
9
  6
CONTINUOUS
 10
50.2769429105
 20
126.0030710077
  0
SEQEND
  0
POLYLINE
  8
0
 62
9
  6
CONTINUOUS
 66
1
 70
0
  0
VERTEX
  8
0
 62
9
  6
CONTINUOUS
 10
48.8849255179
 20
126.6729649472
  0
VERTEX
  8
0
 62
9
  6
CONTINUOUS
 10
49.1329784111
 20
126.7174704047
  0
VERTEX
  8
0
 62
9
  6
CONTINUOUS
 10
49.3156665014
 20
126.8349942602
  0
VERTEX
  8
0
 62
9
  6
CONTINUOUS
 10
49.3848493655
 20
126.9945676193
  0
SEQEND
  0
LINE
  8
0
 62
9
  6
CONTINUOUS
 10
44.1753531259
 20
129.5030710076
 11
49.3688989865
 21
129.5030710076
  0
LINE
  8
1_AXIS
 62
2
  6
CENTER
 10
42.1071260562
 20
129.5030710076
 11
77.7071260562
 21
129.5030710076
  0
LINE
  8
0
 62
9
  6
CONTINUOUS
 10
69.5753531259
 20
129.5030710076
 11
75.6388989865
 21
129.5030710076
  0
LINE
  8
0
 62
9
  6
CONTINUOUS
 10
56.8753531259
 20
129.5030710076
 11
62.9388989865
 21
129.5030710076
  0
LINE
  8
0
 62
9
  6
CONTINUOUS
 10
50.4728727058
 20
138.2810666853
 11
50.4571260562
 21
138.3125695827
  0
POLYLINE
  8
0
 62
9
  6
CONTINUOUS
 66
1
 70
0
  0
VERTEX
  8
0
 62
9
  6
CONTINUOUS
 10
50.4571260562
 20
146.1030612452
  0
VERTEX
  8
0
 62
9
  6
CONTINUOUS
 10
50.4723499179
 20
146.0062842296
  0
VERTEX
  8
0
 62
9
  6
CONTINUOUS
 10
50.4892679065
 20
145.645636651
  0
VERTEX
  8
0
 62
9
  6
CONTINUOUS
 10
50.5040552262
 20
145.0365164284
  0
SEQEND
  0
POLYLINE
  8
0
 62
9
  6
CONTINUOUS
 66
1
 70
0
  0
VERTEX
  8
0
 62
9
  6
CONTINUOUS
 10
50.9572022202
 20
146.6030710076
  0
VERTEX
  8
0
 62
9
  6
CONTINUOUS
 10
50.9724309652
 20
146.4915599989
  0
VERTEX
  8
0
 62
9
  6
CONTINUOUS
 10
50.9893133688
 20
146.0827995091
  0
VERTEX
  8
0
 62
9
  6
CONTINUOUS
 10
51.0040544497
 20
145.3951646366
  0
VERTEX
  8
0
 62
9
  6
CONTINUOUS
 10
51.0154574475
 20
144.4795536847
  0
VERTEX
  8
0
 62
9
  6
CONTINUOUS
 10
51.0226979564
 20
143.4027070966
  0
VERTEX
  8
0
 62
9
  6
CONTINUOUS
 10
51.0252770701
 20
142.2029813967
  0
SEQEND
  0
POLYLINE
  8
0
 62
7
  6
CONTINUOUS
 66
1
 70
0
  0
VERTEX
  8
0
 62
7
  6
CONTINUOUS
 10
49.777019063
 20
125.5543530588
  0
VERTEX
  8
0
 62
7
  6
CONTINUOUS
 10
49.8491377674
 20
125.7241078368
  0
VERTEX
  8
0
 62
7
  6
CONTINUOUS
 10
49.9012445128
 20
125.9712838512
  0
VERTEX
  8
0
 62
7
  6
CONTINUOUS
 10
49.9188779216
 20
126.2272812532
  0
VERTEX
  8
0
 62
7
  6
CONTINUOUS
 10
49.897144233
 20
126.4210522181
  0
SEQEND
  0
LINE
  8
0
 62
7
  6
CONTINUOUS
 10
50.242324953
 20
137.9023132002
 11
49.9597818709
 21
137.7741609758
  0
POLYLINE
  8
0
 62
7
  6
CONTINUOUS
 66
1
 70
0
  0
VERTEX
  8
0
 62
7
  6
CONTINUOUS
 10
43.5245067589
 20
133.940001548
  0
VERTEX
  8
0
 62
7
  6
CONTINUOUS
 10
43.7144892459
 20
133.9031771253
  0
VERTEX
  8
0
 62
7
  6
CONTINUOUS
 10
43.9087202145
 20
133.7905338039
  0
VERTEX
  8
0
 62
7
  6
CONTINUOUS
 10
43.9883724112
 20
133.7108122693
  0
VERTEX
  8
0
 62
7
  6
CONTINUOUS
 10
44.1008166568
 20
133.5165107067
  0
SEQEND
  0
LINE
  8
0
 62
7
  6
CONTINUOUS
 10
56.6245454276
 20
138.3837869296
 11
56.6245513724
 21
138.3836556296
  0
LINE
  8
0
 62
7
  6
CONTINUOUS
 10
56.839714413
 20
133.3221326665
 11
56.8397087643
 21
133.3222583427
  0
LINE
  8
0
 62
9
  6
CONTINUOUS
 10
56.8404434629
 20
133.2930404418
 11
56.8376186554
 21
133.3566472643
  0
LINE
  8
0
 62
9
  6
CONTINUOUS
 10
56.6238097169
 20
138.4130316993
 11
56.6266296259
 21
138.3495846932
  0
LINE
  8
0
 62
9
  6
CONTINUOUS
 10
56.6238103291
 20
138.4130710075
 11
56.6245454276
 21
138.3837869296
  0
LINE
  8
0
 62
9
  6
CONTINUOUS
 10
56.8404412311
 20
133.2930711902
 11
56.839714413
 21
133.3221326665
  0
LINE
  8
0
 62
9
  6
CONTINUOUS
 10
56.088975139
 20
138.4130710076
 11
56.088975139
 21
142.2029866198
  0
LINE
  8
0
 62
9
  6
CONTINUOUS
 10
56.2251017962
 20
134.4430710076
 11
56.2251017962
 21
133.9430710076
  0
LINE
  8
0
 62
9
  6
CONTINUOUS
 10
56.5888989865
 20
138.4130950521
 11
56.5888989865
 21
142.2030710076
  0
LINE
  8
0
 62
7
  6
CONTINUOUS
 10
56.6571260562
 20
146.1030612452
 11
56.6571260562
 21
144.8030710076
  0
LINE
  8
0
 62
7
  6
CONTINUOUS
 10
56.6571260562
 20
139.6030710076
 11
56.6571260562
 21
138.3119601313
  0
LINE
  8
0
 62
7
  6
CONTINUOUS
 10
56.8071260562
 20
125.60308077
 11
56.8071260562
 21
126.9030710076
  0
LINE
  8
0
 62
7
  6
CONTINUOUS
 10
56.8071260562
 20
132.1030710076
 11
56.8071260562
 21
133.3941818839
  0
LINE
  8
0
 62
9
  6
CONTINUOUS
 10
56.8753531259
 20
133.293046963
 11
56.8753531259
 21
129.5030710076
  0
POLYLINE
  8
0
 62
9
  6
CONTINUOUS
 66
1
 70
0
  0
VERTEX
  8
0
 62
9
  6
CONTINUOUS
 10
56.0889750474
 20
142.2029866198
  0
VERTEX
  8
0
 62
9
  6
CONTINUOUS
 10
56.0915982889
 20
143.4127274503
  0
VERTEX
  8
0
 62
9
  6
CONTINUOUS
 10
56.0991956079
 20
144.5218787506
  0
VERTEX
  8
0
 62
9
  6
CONTINUOUS
 10
56.1111887684
 20
145.4547401983
  0
VERTEX
  8
0
 62
9
  6
CONTINUOUS
 10
56.1266961927
 20
146.1414606703
  0
VERTEX
  8
0
 62
9
  6
CONTINUOUS
 10
56.1432096921
 20
146.5111752335
  0
VERTEX
  8
0
 62
9
  6
CONTINUOUS
 10
56.1570498922
 20
146.6030710076
  0
SEQEND
  0
POLYLINE
  8
0
 62
9
  6
CONTINUOUS
 66
1
 70
0
  0
VERTEX
  8
0
 62
9
  6
CONTINUOUS
 10
56.5888989865
 20
142.2030710076
  0
VERTEX
  8
0
 62
9
  6
CONTINUOUS
 10
56.5915318536
 20
143.2772105051
  0
VERTEX
  8
0
 62
9
  6
CONTINUOUS
 10
56.5991595032
 20
144.262073839
  0
SEQEND
  0
POLYLINE
  8
0
 62
9
  6
CONTINUOUS
 66
1
 70
0
  0
VERTEX
  8
0
 62
9
  6
CONTINUOUS
 10
56.8753531259
 20
129.5030710076
  0
VERTEX
  8
0
 62
9
  6
CONTINUOUS
 10
56.8727201486
 20
128.4289096494
  0
VERTEX
  8
0
 62
9
  6
CONTINUOUS
 10
56.8650899046
 20
127.4438188867
  0
SEQEND
  0
POLYLINE
  8
0
 62
9
  6
CONTINUOUS
 66
1
 70
0
  0
VERTEX
  8
0
 62
9
  6
CONTINUOUS
 10
56.5991595032
 20
144.262073839
  0
VERTEX
  8
0
 62
9
  6
CONTINUOUS
 10
56.6111982417
 20
145.0896969516
  0
VERTEX
  8
0
 62
9
  6
CONTINUOUS
 10
56.6267581938
 20
145.6978470174
  0
VERTEX
  8
0
 62
9
  6
CONTINUOUS
 10
56.6432908124
 20
146.0234765013
  0
VERTEX
  8
0
 62
9
  6
CONTINUOUS
 10
56.6571260562
 20
146.1030612452
  0
SEQEND
  0
LINE
  8
0
 62
7
  6
CONTINUOUS
 10
56.6571260562
 20
138.3119601313
 11
56.6510262395
 21
138.2580457546
  0
LINE
  8
0
 62
9
  6
CONTINUOUS
 10
56.6409476389
 20
138.2802028867
 11
56.6571260562
 21
138.3125695827
  0
LINE
  8
0
 62
7
  6
CONTINUOUS
 10
76.2043695844
 20
133.9319629275
 11
76.289332548
 21
133.9414061296
  0
LINE
  8
0
 62
9
  6
CONTINUOUS
 10
48.868975139
 20
132.0115743958
 11
49.4251924743
 21
132.0115743958
  0
LINE
  8
0
 62
9
  6
CONTINUOUS
 10
49.8040211524
 20
132.5073213459
 11
49.8721260562
 21
132.5073227017
  0
LINE
  8
0
 62
7
  6
CONTINUOUS
 10
43.5249043314
 20
133.9412061588
 11
43.6067254535
 21
133.9325458952
  0
POLYLINE
  8
0
 62
7
  6
CONTINUOUS
 66
1
 70
0
  0
VERTEX
  8
0
 62
7
  6
CONTINUOUS
 10
44.4577709446
 20
137.7735521711
  0
VERTEX
  8
0
 62
7
  6
CONTINUOUS
 10
44.1746328678
 20
137.9001957605
  0
VERTEX
  8
0
 62
7
  6
CONTINUOUS
 10
44.0636726889
 20
138.010400039
  0
SEQEND
  0
POLYLINE
  8
0
 62
7
  6
CONTINUOUS
 66
1
 70
0
  0
VERTEX
  8
0
 62
7
  6
CONTINUOUS
 10
56.3067250833
 20
133.9325459631
  0
VERTEX
  8
0
 62
7
  6
CONTINUOUS
 10
56.5899651651
 20
133.8056787142
  0
VERTEX
  8
0
 62
7
  6
CONTINUOUS
 10
56.7008336052
 20
133.695420089
  0
SEQEND
  0
LINE
  8
0
 62
7
  6
CONTINUOUS
 10
56.7008336052
 20
133.695420089
 11
56.8292450019
 21
133.4127754795
  0
LINE
  8
0
 62
7
  6
CONTINUOUS
 10
56.8008165516
 20
133.5165109941
 11
56.840442995
 21
133.2930404417
  0
LINE
  8
0
 62
7
  6
CONTINUOUS
 10
56.8292450019
 20
133.4127754795
 11
56.8397167786
 21
133.3220790072
  0
POLYLINE
  8
0
 62
7
  6
CONTINUOUS
 66
1
 70
0
  0
VERTEX
  8
0
 62
7
  6
CONTINUOUS
 10
56.8071260562
 20
125.60308077
  0
VERTEX
  8
0
 62
7
  6
CONTINUOUS
 10
56.8196662205
 20
125.4918106644
  0
VERTEX
  8
0
 62
7
  6
CONTINUOUS
 10
56.9162381685
 20
125.2913183679
  0
VERTEX
  8
0
 62
7
  6
CONTINUOUS
 10
56.9954234589
 20
125.212148688
  0
VERTEX
  8
0
 62
7
  6
CONTINUOUS
 10
57.1959328267
 20
125.1156065033
  0
VERTEX
  8
0
 62
7
  6
CONTINUOUS
 10
57.3072022202
 20
125.1030718
  0
SEQEND
  0
LINE
  8
0
 62
9
  6
CONTINUOUS
 10
57.2391503162
 20
137.2630710076
 11
57.2391503162
 21
137.7630710076
  0
LINE
  8
0
 62
9
  6
CONTINUOUS
 10
57.3752769734
 20
133.2930710076
 11
57.3752769734
 21
129.5031586861
  0
POLYLINE
  8
0
 62
9
  6
CONTINUOUS
 66
1
 70
0
  0
VERTEX
  8
0
 62
9
  6
CONTINUOUS
 10
57.3752770686
 20
129.5031586861
  0
VERTEX
  8
0
 62
9
  6
CONTINUOUS
 10
57.3726536191
 20
128.2933685117
  0
VERTEX
  8
0
 62
9
  6
CONTINUOUS
 10
57.3650536771
 20
127.1839684968
  0
VERTEX
  8
0
 62
9
  6
CONTINUOUS
 10
57.3530560132
 20
126.2509698954
  0
VERTEX
  8
0
 62
9
  6
CONTINUOUS
 10
57.3375430498
 20
125.5642670634
  0
VERTEX
  8
0
 62
9
  6
CONTINUOUS
 10
57.321034236
 20
125.1948569729
  0
VERTEX
  8
0
 62
9
  6
CONTINUOUS
 10
57.3072022202
 20
125.1030710076
  0
SEQEND
  0
POLYLINE
  8
0
 62
9
  6
CONTINUOUS
 66
1
 70
0
  0
VERTEX
  8
0
 62
9
  6
CONTINUOUS
 10
56.8650899046
 20
127.4438188867
  0
VERTEX
  8
0
 62
9
  6
CONTINUOUS
 10
56.8530466378
 20
126.6160686067
  0
VERTEX
  8
0
 62
9
  6
CONTINUOUS
 10
56.8374811129
 20
126.0079316633
  0
VERTEX
  8
0
 62
9
  6
CONTINUOUS
 10
56.8209532365
 20
125.6825707404
  0
VERTEX
  8
0
 62
9
  6
CONTINUOUS
 10
56.8071260562
 20
125.60308077
  0
SEQEND
  0
LINE
  8
0
 62
7
  6
CONTINUOUS
 10
56.8071260562
 20
133.3941818839
 11
56.8131176568
 21
133.4471397725
  0
LINE
  8
0
 62
9
  6
CONTINUOUS
 10
56.8232835222
 20
133.425897213
 11
56.8071260562
 21
133.3935724324
  0
LINE
  8
0
 62
7
  6
CONTINUOUS
 10
50.5217714972
 20
133.8037073037
 11
50.804369584
 21
133.9319629274
  0
LINE
  8
0
 62
7
  6
CONTINUOUS
 10
63.504369584
 20
133.9319629274
 11
63.589332548
 21
133.9414061296
  0
LINE
  8
0
 62
9
  6
CONTINUOUS
 10
49.738975139
 20
133.0030710076
 11
50.3071260562
 21
133.0030710076
  0
LINE
  8
0
 62
9
  6
CONTINUOUS
 10
70.0752769734
 20
133.2930710076
 11
69.5404434628
 21
133.2930404418
  0
LINE
  8
0
 62
9
  6
CONTINUOUS
 10
57.3752769734
 20
133.2930710076
 11
56.8404434629
 21
133.2930404418
  0
LINE
  8
0
 62
9
  6
CONTINUOUS
 10
44.1404434627
 20
133.293040439
 11
44.6752769733
 21
133.2930710072
  0
LINE
  8
0
 62
9
  6
CONTINUOUS
 10
49.738975139
 20
133.2930710076
 11
50.2738089229
 21
133.2930583407
  0
LINE
  8
0
 62
9
  6
CONTINUOUS
 10
62.438975139
 20
133.2930710076
 11
62.973808923
 21
133.2930583407
  0
LINE
  8
0
 62
9
  6
CONTINUOUS
 10
75.138975139
 20
133.2930710076
 11
75.6738089229
 21
133.2930583407
  0
LINE
  8
0
 62
7
  6
CONTINUOUS
 10
43.525077768
 20
133.9430710076
 11
38.3671260562
 21
133.9430710076
  0
LINE
  8
0
 62
7
  6
CONTINUOUS
 10
50.8891475052
 20
133.9430710076
 11
56.225104555
 21
133.9430710076
  0
LINE
  8
0
 62
7
  6
CONTINUOUS
 10
63.5891475052
 20
133.9430710076
 11
68.925104555
 21
133.9430710076
  0
LINE
  8
0
 62
7
  6
CONTINUOUS
 10
76.2891475052
 20
133.9430710076
 11
81.5571260562
 21
133.9430710076
  0
LINE
  8
0
 62
7
  6
CONTINUOUS
 10
56.2249072555
 20
133.9412072389
 11
56.3067250833
 21
133.9325459631
  0
POLYLINE
  8
0
 62
9
  6
CONTINUOUS
 66
1
 70
0
  0
VERTEX
  8
0
 62
9
  6
CONTINUOUS
 10
56.2251017962
 20
134.4430710076
  0
VERTEX
  8
0
 62
9
  6
CONTINUOUS
 10
56.6180203013
 20
134.3738814817
  0
VERTEX
  8
0
 62
9
  6
CONTINUOUS
 10
56.9643128936
 20
134.1741107864
  0
VERTEX
  8
0
 62
9
  6
CONTINUOUS
 10
57.1063538724
 20
134.0320779708
  0
VERTEX
  8
0
 62
9
  6
CONTINUOUS
 10
57.3061660098
 20
133.6856914129
  0
VERTEX
  8
0
 62
9
  6
CONTINUOUS
 10
57.3752769734
 20
133.2930710076
  0
SEQEND
  0
POLYLINE
  8
0
 62
7
  6
CONTINUOUS
 66
1
 70
0
  0
VERTEX
  8
0
 62
7
  6
CONTINUOUS
 10
56.2251045556
 20
133.9430710076
  0
VERTEX
  8
0
 62
7
  6
CONTINUOUS
 10
56.4474464853
 20
133.9038909852
  0
VERTEX
  8
0
 62
7
  6
CONTINUOUS
 10
56.6430863296
 20
133.7909906347
  0
VERTEX
  8
0
 62
7
  6
CONTINUOUS
 10
56.7233060435
 20
133.7107842589
  0
VERTEX
  8
0
 62
7
  6
CONTINUOUS
 10
56.836199267
 20
133.5152162441
  0
VERTEX
  8
0
 62
7
  6
CONTINUOUS
 10
56.8753531265
 20
133.293046963
  0
SEQEND
  0
POLYLINE
  8
0
 62
7
  6
CONTINUOUS
 66
1
 70
0
  0
VERTEX
  8
0
 62
7
  6
CONTINUOUS
 10
56.224510057
 20
133.9400041968
  0
VERTEX
  8
0
 62
7
  6
CONTINUOUS
 10
56.4144903681
 20
133.903176713
  0
VERTEX
  8
0
 62
7
  6
CONTINUOUS
 10
56.6087206597
 20
133.7905334297
  0
VERTEX
  8
0
 62
7
  6
CONTINUOUS
 10
56.6883725902
 20
133.710812056
  0
VERTEX
  8
0
 62
7
  6
CONTINUOUS
 10
56.8008165516
 20
133.5165109941
  0
SEQEND
  0
LINE
  8
0
 62
7
  6
CONTINUOUS
 10
56.7636726889
 20
138.010400039
 11
56.6350409452
 21
138.2931883595
  0
POLYLINE
  8
0
 62
7
  6
CONTINUOUS
 66
1
 70
0
  0
VERTEX
  8
0
 62
7
  6
CONTINUOUS
 10
56.6571260562
 20
139.6030710076
  0
VERTEX
  8
0
 62
7
  6
CONTINUOUS
 10
56.6496555526
 20
139.6385381151
  0
VERTEX
  8
0
 62
7
  6
CONTINUOUS
 10
56.6355244928
 20
139.9164876991
  0
VERTEX
  8
0
 62
7
  6
CONTINUOUS
 10
56.6237351407
 20
140.4422281086
  0
VERTEX
  8
0
 62
7
  6
CONTINUOUS
 10
56.6155647326
 20
141.1587449431
  0
VERTEX
  8
0
 62
7
  6
CONTINUOUS
 10
56.6118978648
 20
141.9883848586
  0
VERTEX
  8
0
 62
7
  6
CONTINUOUS
 10
56.6118978654
 20
142.4177575954
  0
VERTEX
  8
0
 62
7
  6
CONTINUOUS
 10
56.6155647352
 20
143.2473974126
  0
VERTEX
  8
0
 62
7
  6
CONTINUOUS
 10
56.6237351436
 20
143.963914083
  0
VERTEX
  8
0
 62
7
  6
CONTINUOUS
 10
56.6355244944
 20
144.489654364
  0
VERTEX
  8
0
 62
7
  6
CONTINUOUS
 10
56.6496555528
 20
144.7676039019
  0
VERTEX
  8
0
 62
7
  6
CONTINUOUS
 10
56.6571260562
 20
144.8030710076
  0
SEQEND
  0
LINE
  8
0
 62
7
  6
CONTINUOUS
 10
56.655288075
 20
138.2132794394
 11
56.6238091192
 21
138.4130317004
  0
LINE
  8
0
 62
7
  6
CONTINUOUS
 10
56.6350409452
 20
138.2931883595
 11
56.6245502908
 21
138.3836796567
  0
POLYLINE
  8
0
 62
7
  6
CONTINUOUS
 66
1
 70
0
  0
VERTEX
  8
0
 62
7
  6
CONTINUOUS
 10
56.6571260562
 20
146.1030612452
  0
VERTEX
  8
0
 62
7
  6
CONTINUOUS
 10
56.6445858913
 20
146.21433135
  0
VERTEX
  8
0
 62
7
  6
CONTINUOUS
 10
56.5480139426
 20
146.414823645
  0
VERTEX
  8
0
 62
7
  6
CONTINUOUS
 10
56.4688286523
 20
146.4939933242
  0
VERTEX
  8
0
 62
7
  6
CONTINUOUS
 10
56.2683192851
 20
146.590535508
  0
VERTEX
  8
0
 62
7
  6
CONTINUOUS
 10
56.1570498922
 20
146.6030702123
  0
SEQEND
  0
LINE
  8
1_AXIS
 62
2
  6
CENTER
 10
59.9621260562
 20
140.2530710076
 11
59.9621260562
 21
137.8531710076
  0
LINE
  8
1_AXIS
 62
2
  6
CONTINUOUS
 10
59.9621260562
 20
136.7330710076
 11
59.9621260562
 21
134.9730710076
  0
LINE
  8
1_AXIS
 62
2
  6
CENTER
 10
59.9621260562
 20
131.4530710076
 11
59.9621260562
 21
133.8529710076
  0
POLYLINE
  8
0
 62
7
  6
CONTINUOUS
 66
1
 70
0
  0
VERTEX
  8
0
 62
7
  6
CONTINUOUS
 10
56.8071260562
 20
126.9030710076
  0
VERTEX
  8
0
 62
7
  6
CONTINUOUS
 10
56.8145965598
 20
126.9385381151
  0
VERTEX
  8
0
 62
7
  6
CONTINUOUS
 10
56.8287276196
 20
127.2164876991
  0
VERTEX
  8
0
 62
7
  6
CONTINUOUS
 10
56.8405169717
 20
127.7422281086
  0
VERTEX
  8
0
 62
7
  6
CONTINUOUS
 10
56.8486873798
 20
128.4587449431
  0
VERTEX
  8
0
 62
7
  6
CONTINUOUS
 10
56.8523542476
 20
129.2883848586
  0
VERTEX
  8
0
 62
7
  6
CONTINUOUS
 10
56.852354247
 20
129.7177575954
  0
VERTEX
  8
0
 62
7
  6
CONTINUOUS
 10
56.8486873772
 20
130.5473974126
  0
VERTEX
  8
0
 62
7
  6
CONTINUOUS
 10
56.8405169688
 20
131.263914083
  0
VERTEX
  8
0
 62
7
  6
CONTINUOUS
 10
56.828727618
 20
131.789654364
  0
VERTEX
  8
0
 62
7
  6
CONTINUOUS
 10
56.8145965596
 20
132.0676039019
  0
VERTEX
  8
0
 62
7
  6
CONTINUOUS
 10
56.8071260562
 20
132.1030710076
  0
SEQEND
  0
LINE
  8
0
 62
7
  6
CONTINUOUS
 10
62.9423249632
 20
137.9023132082
 11
62.6597818751
 21
137.7741609765
  0
POLYLINE
  8
0
 62
7
  6
CONTINUOUS
 66
1
 70
0
  0
VERTEX
  8
0
 62
7
  6
CONTINUOUS
 10
49.8721260562
 20
132.5073227017
  0
VERTEX
  8
0
 62
7
  6
CONTINUOUS
 10
49.6413816269
 20
132.4147081588
  0
VERTEX
  8
0
 62
7
  6
CONTINUOUS
 10
49.5504285509
 20
132.3285155465
  0
VERTEX
  8
0
 62
7
  6
CONTINUOUS
 10
49.445570255
 20
132.1030710076
  0
SEQEND
  0
POLYLINE
  8
0
 62
9
  6
CONTINUOUS
 66
1
 70
0
  0
VERTEX
  8
0
 62
9
  6
CONTINUOUS
 10
49.8040211524
 20
132.5073213459
  0
VERTEX
  8
0
 62
9
  6
CONTINUOUS
 10
50.0256112624
 20
132.5934190819
  0
VERTEX
  8
0
 62
9
  6
CONTINUOUS
 10
50.1823824499
 20
132.7721380009
  0
VERTEX
  8
0
 62
9
  6
CONTINUOUS
 10
50.2388989865
 20
133.0030710076
  0
SEQEND
  0
LINE
  8
0
 62
7
  6
CONTINUOUS
 10
50.804369584
 20
133.9319629274
 11
50.889332548
 21
133.9414061296
  0
LINE
  8
0
 62
9
  6
CONTINUOUS
 10
43.5251017962
 20
134.4430710076
 11
37.8671260562
 21
134.4430710076
  0
LINE
  8
0
 62
9
  6
CONTINUOUS
 10
50.8891503162
 20
134.4430710076
 11
56.2251017962
 21
134.4430710076
  0
LINE
  8
0
 62
9
  6
CONTINUOUS
 10
63.5891503162
 20
134.4430710076
 11
68.9251017962
 21
134.4430710076
  0
LINE
  8
0
 62
9
  6
CONTINUOUS
 10
76.2891503162
 20
134.4430710076
 11
82.0571260562
 21
134.4430710076
  0
LINE
  8
1_AXIS
 62
2
  6
CENTER
 10
64.3621260562
 20
135.8530710076
 11
61.9622260562
 21
135.8530710076
  0
LINE
  8
1_AXIS
 62
2
  6
CONTINUOUS
 10
60.8421260562
 20
135.8530710076
 11
59.0821260562
 21
135.8530710076
  0
LINE
  8
1_AXIS
 62
2
  6
CENTER
 10
55.5621260562
 20
135.8530710076
 11
57.9620260562
 21
135.8530710076
  0
LINE
  8
0
 62
7
  6
CONTINUOUS
 10
68.9249072555
 20
133.9412072389
 11
69.0067250833
 21
133.9325459631
  0
POLYLINE
  8
0
 62
7
  6
CONTINUOUS
 66
1
 70
0
  0
VERTEX
  8
0
 62
7
  6
CONTINUOUS
 10
44.5396433666
 20
137.7659224643
  0
VERTEX
  8
0
 62
7
  6
CONTINUOUS
 10
44.373169111
 20
137.7948688864
  0
VERTEX
  8
0
 62
7
  6
CONTINUOUS
 10
44.1915572562
 20
137.8874243705
  0
VERTEX
  8
0
 62
7
  6
CONTINUOUS
 10
44.0475778223
 20
138.031586706
  0
VERTEX
  8
0
 62
7
  6
CONTINUOUS
 10
43.955288075
 20
138.2132794394
  0
SEQEND
  0
POLYLINE
  8
0
 62
9
  6
CONTINUOUS
 66
1
 70
0
  0
VERTEX
  8
0
 62
9
  6
CONTINUOUS
 10
44.5391503162
 20
137.2630710076
  0
VERTEX
  8
0
 62
9
  6
CONTINUOUS
 10
44.1462318111
 20
137.3322605334
  0
VERTEX
  8
0
 62
9
  6
CONTINUOUS
 10
43.7999392188
 20
137.5320312287
  0
VERTEX
  8
0
 62
9
  6
CONTINUOUS
 10
43.65789824
 20
137.6740640443
  0
VERTEX
  8
0
 62
9
  6
CONTINUOUS
 10
43.4580861026
 20
138.0204506022
  0
VERTEX
  8
0
 62
9
  6
CONTINUOUS
 10
43.388975139
 20
138.4130710076
  0
SEQEND
  0
POLYLINE
  8
0
 62
9
  6
CONTINUOUS
 66
1
 70
0
  0
VERTEX
  8
0
 62
9
  6
CONTINUOUS
 10
68.9251017962
 20
134.4430710076
  0
VERTEX
  8
0
 62
9
  6
CONTINUOUS
 10
69.3180203013
 20
134.3738814817
  0
VERTEX
  8
0
 62
9
  6
CONTINUOUS
 10
69.6643128936
 20
134.1741107864
  0
VERTEX
  8
0
 62
9
  6
CONTINUOUS
 10
69.8063538724
 20
134.0320779708
  0
VERTEX
  8
0
 62
9
  6
CONTINUOUS
 10
70.0061660098
 20
133.6856914129
  0
VERTEX
  8
0
 62
9
  6
CONTINUOUS
 10
70.0752769734
 20
133.2930710076
  0
SEQEND
  0
POLYLINE
  8
0
 62
7
  6
CONTINUOUS
 66
1
 70
0
  0
VERTEX
  8
0
 62
7
  6
CONTINUOUS
 10
44.5391475568
 20
137.7630710076
  0
VERTEX
  8
0
 62
7
  6
CONTINUOUS
 10
44.3168056271
 20
137.8022510299
  0
VERTEX
  8
0
 62
7
  6
CONTINUOUS
 10
44.1211657828
 20
137.9151513804
  0
VERTEX
  8
0
 62
7
  6
CONTINUOUS
 10
44.0409460689
 20
137.9953577562
  0
VERTEX
  8
0
 62
7
  6
CONTINUOUS
 10
43.9280528454
 20
138.190925771
  0
VERTEX
  8
0
 62
7
  6
CONTINUOUS
 10
43.8888989859
 20
138.4130950521
  0
SEQEND
  0
POLYLINE
  8
0
 62
7
  6
CONTINUOUS
 66
1
 70
0
  0
VERTEX
  8
0
 62
7
  6
CONTINUOUS
 10
68.9251045556
 20
133.9430710076
  0
VERTEX
  8
0
 62
7
  6
CONTINUOUS
 10
69.1474464853
 20
133.9038909852
  0
VERTEX
  8
0
 62
7
  6
CONTINUOUS
 10
69.3430863296
 20
133.7909906347
  0
VERTEX
  8
0
 62
7
  6
CONTINUOUS
 10
69.4233060435
 20
133.7107842589
  0
VERTEX
  8
0
 62
7
  6
CONTINUOUS
 10
69.536199267
 20
133.5152162441
  0
VERTEX
  8
0
 62
7
  6
CONTINUOUS
 10
69.5753531265
 20
133.293046963
  0
SEQEND
  0
POLYLINE
  8
0
 62
7
  6
CONTINUOUS
 66
1
 70
0
  0
VERTEX
  8
0
 62
7
  6
CONTINUOUS
 10
68.924510057
 20
133.9400041968
  0
VERTEX
  8
0
 62
7
  6
CONTINUOUS
 10
69.1144903683
 20
133.903176713
  0
VERTEX
  8
0
 62
7
  6
CONTINUOUS
 10
69.30872066
 20
133.7905334294
  0
VERTEX
  8
0
 62
7
  6
CONTINUOUS
 10
69.3883725905
 20
133.7108120557
  0
VERTEX
  8
0
 62
7
  6
CONTINUOUS
 10
69.5008165518
 20
133.5165109935
  0
SEQEND
  0
LINE
  8
0
 62
7
  6
CONTINUOUS
 10
75.3597818712
 20
137.7741609758
 11
75.2748977077
 21
137.7649849646
  0
LINE
  8
0
 62
7
  6
CONTINUOUS
 10
62.6597818751
 20
137.7741609765
 11
62.5748977077
 21
137.7649849647
  0
LINE
  8
0
 62
9
  6
CONTINUOUS
 10
75.2751017962
 20
137.2630710076
 11
69.9391503162
 21
137.2630710076
  0
LINE
  8
0
 62
9
  6
CONTINUOUS
 10
62.5751017962
 20
137.2630710076
 11
57.2391503162
 21
137.2630710076
  0
LINE
  8
0
 62
9
  6
CONTINUOUS
 10
49.8751017962
 20
137.2630710076
 11
44.5391503162
 21
137.2630710076
  0
LINE
  8
0
 62
7
  6
CONTINUOUS
 10
44.5393460741
 20
137.7649545558
 11
44.4577709446
 21
137.7735521711
  0
LINE
  8
0
 62
7
  6
CONTINUOUS
 10
57.2393460741
 20
137.7649545558
 11
57.1577709446
 21
137.7735521711
  0
POLYLINE
  8
0
 62
7
  6
CONTINUOUS
 66
1
 70
0
  0
VERTEX
  8
0
 62
7
  6
CONTINUOUS
 10
57.2396433666
 20
137.7659224643
  0
VERTEX
  8
0
 62
7
  6
CONTINUOUS
 10
57.073169111
 20
137.7948688864
  0
VERTEX
  8
0
 62
7
  6
CONTINUOUS
 10
56.8915572562
 20
137.8874243705
  0
VERTEX
  8
0
 62
7
  6
CONTINUOUS
 10
56.7475778223
 20
138.031586706
  0
VERTEX
  8
0
 62
7
  6
CONTINUOUS
 10
56.655288075
 20
138.2132794394
  0
SEQEND
  0
POLYLINE
  8
0
 62
9
  6
CONTINUOUS
 66
1
 70
0
  0
VERTEX
  8
0
 62
9
  6
CONTINUOUS
 10
57.2391503162
 20
137.2630710076
  0
VERTEX
  8
0
 62
9
  6
CONTINUOUS
 10
56.8462318111
 20
137.3322605334
  0
VERTEX
  8
0
 62
9
  6
CONTINUOUS
 10
56.4999392188
 20
137.5320312287
  0
VERTEX
  8
0
 62
9
  6
CONTINUOUS
 10
56.35789824
 20
137.6740640443
  0
VERTEX
  8
0
 62
9
  6
CONTINUOUS
 10
56.1580861026
 20
138.0204506022
  0
VERTEX
  8
0
 62
9
  6
CONTINUOUS
 10
56.088975139
 20
138.4130710076
  0
SEQEND
  0
POLYLINE
  8
0
 62
7
  6
CONTINUOUS
 66
1
 70
0
  0
VERTEX
  8
0
 62
7
  6
CONTINUOUS
 10
57.2391475568
 20
137.7630710076
  0
VERTEX
  8
0
 62
7
  6
CONTINUOUS
 10
57.0168056271
 20
137.8022510299
  0
VERTEX
  8
0
 62
7
  6
CONTINUOUS
 10
56.8211657828
 20
137.9151513804
  0
VERTEX
  8
0
 62
7
  6
CONTINUOUS
 10
56.7409460689
 20
137.9953577562
  0
VERTEX
  8
0
 62
7
  6
CONTINUOUS
 10
56.6280528454
 20
138.190925771
  0
VERTEX
  8
0
 62
7
  6
CONTINUOUS
 10
56.5888989859
 20
138.4130950521
  0
SEQEND
  0
POLYLINE
  8
0
 62
7
  6
CONTINUOUS
 66
1
 70
0
  0
VERTEX
  8
0
 62
7
  6
CONTINUOUS
 10
57.1577709446
 20
137.7735521711
  0
VERTEX
  8
0
 62
7
  6
CONTINUOUS
 10
56.8746328678
 20
137.9001957605
  0
VERTEX
  8
0
 62
7
  6
CONTINUOUS
 10
56.7636726889
 20
138.010400039
  0
SEQEND
  0
LINE
  8
0
 62
9
  6
CONTINUOUS
 10
62.9913750073
 20
133.4250841312
 11
63.0071260562
 21
133.3935724324
  0
POLYLINE
  8
0
 62
7
  6
CONTINUOUS
 66
1
 70
0
  0
VERTEX
  8
0
 62
7
  6
CONTINUOUS
 10
63.0071260562
 20
126.9030710076
  0
VERTEX
  8
0
 62
7
  6
CONTINUOUS
 10
62.9996555526
 20
126.9385381151
  0
VERTEX
  8
0
 62
7
  6
CONTINUOUS
 10
62.9855244928
 20
127.2164876991
  0
VERTEX
  8
0
 62
7
  6
CONTINUOUS
 10
62.9737351407
 20
127.7422281086
  0
VERTEX
  8
0
 62
7
  6
CONTINUOUS
 10
62.9655647326
 20
128.4587449431
  0
VERTEX
  8
0
 62
7
  6
CONTINUOUS
 10
62.9618978648
 20
129.2883848586
  0
VERTEX
  8
0
 62
7
  6
CONTINUOUS
 10
62.9618978654
 20
129.7177575954
  0
VERTEX
  8
0
 62
7
  6
CONTINUOUS
 10
62.9655647352
 20
130.5473974126
  0
VERTEX
  8
0
 62
7
  6
CONTINUOUS
 10
62.9737351436
 20
131.263914083
  0
VERTEX
  8
0
 62
7
  6
CONTINUOUS
 10
62.9855244944
 20
131.789654364
  0
VERTEX
  8
0
 62
7
  6
CONTINUOUS
 10
62.9996555528
 20
132.0676039019
  0
VERTEX
  8
0
 62
7
  6
CONTINUOUS
 10
63.0071260562
 20
132.1030710076
  0
SEQEND
  0
POLYLINE
  8
0
 62
9
  6
CONTINUOUS
 66
1
 70
0
  0
VERTEX
  8
0
 62
9
  6
CONTINUOUS
 10
63.0071260562
 20
125.60308077
  0
VERTEX
  8
0
 62
9
  6
CONTINUOUS
 10
62.991909567
 20
125.6997619277
  0
VERTEX
  8
0
 62
9
  6
CONTINUOUS
 10
62.9749896039
 20
126.0603407387
  0
VERTEX
  8
0
 62
9
  6
CONTINUOUS
 10
62.9601981571
 20
126.669556677
  0
SEQEND
  0
POLYLINE
  8
0
 62
9
  6
CONTINUOUS
 66
1
 70
0
  0
VERTEX
  8
0
 62
9
  6
CONTINUOUS
 10
62.5070498922
 20
125.1030710076
  0
VERTEX
  8
0
 62
9
  6
CONTINUOUS
 10
62.4918286141
 20
125.2144712756
  0
VERTEX
  8
0
 62
9
  6
CONTINUOUS
 10
62.4749442271
 20
125.6231529305
  0
VERTEX
  8
0
 62
9
  6
CONTINUOUS
 10
62.4601990641
 20
126.3108914287
  0
VERTEX
  8
0
 62
9
  6
CONTINUOUS
 10
62.4487935466
 20
127.2267077832
  0
VERTEX
  8
0
 62
9
  6
CONTINUOUS
 10
62.4415525494
 20
128.3038014254
  0
VERTEX
  8
0
 62
9
  6
CONTINUOUS
 10
62.4389750387
 20
129.5031640037
  0
SEQEND
  0
POLYLINE
  8
0
 62
9
  6
CONTINUOUS
 66
1
 70
0
  0
VERTEX
  8
0
 62
9
  6
CONTINUOUS
 10
62.9601981571
 20
126.669556677
  0
VERTEX
  8
0
 62
9
  6
CONTINUOUS
 10
62.9487529935
 20
127.4820147127
  0
VERTEX
  8
0
 62
9
  6
CONTINUOUS
 10
62.941485253
 20
128.4382931082
  0
VERTEX
  8
0
 62
9
  6
CONTINUOUS
 10
62.9388989865
 20
129.5030710076
  0
SEQEND
  0
POLYLINE
  8
0
 62
9
  6
CONTINUOUS
 66
1
 70
0
  0
VERTEX
  8
0
 62
9
  6
CONTINUOUS
 10
63.2040552262
 20
145.0365164284
  0
VERTEX
  8
0
 62
9
  6
CONTINUOUS
 10
63.2154978641
 20
144.2242458421
  0
VERTEX
  8
0
 62
9
  6
CONTINUOUS
 10
63.2227651504
 20
143.2681938803
  0
VERTEX
  8
0
 62
9
  6
CONTINUOUS
 10
63.2253531259
 20
142.2030710076
  0
SEQEND
  0
LINE
  8
0
 62
9
  6
CONTINUOUS
 10
62.438975139
 20
129.5031640037
 11
62.438975139
 21
133.2930710076
  0
LINE
  8
0
 62
9
  6
CONTINUOUS
 10
62.5751017962
 20
137.2630710076
 11
62.5751017962
 21
137.7630710076
  0
LINE
  8
0
 62
9
  6
CONTINUOUS
 10
62.9388989865
 20
129.5030710076
 11
62.9388989865
 21
133.2930469137
  0
LINE
  8
0
 62
7
  6
CONTINUOUS
 10
63.0071260562
 20
125.60308077
 11
63.0071260562
 21
126.9030710076
  0
LINE
  8
0
 62
7
  6
CONTINUOUS
 10
63.0071260562
 20
132.1030710076
 11
63.0071260562
 21
133.3935724324
  0
LINE
  8
0
 62
7
  6
CONTINUOUS
 10
63.1571260562
 20
146.1030612452
 11
63.1571260562
 21
144.8030710076
  0
LINE
  8
0
 62
7
  6
CONTINUOUS
 10
63.1571260562
 20
139.6030710076
 11
63.1571260562
 21
138.3125695827
  0
LINE
  8
0
 62
9
  6
CONTINUOUS
 10
63.2253531259
 20
142.2030710076
 11
63.2253531259
 21
138.4130951014
  0
LINE
  8
0
 62
9
  6
CONTINUOUS
 10
62.974530241
 20
133.3219828932
 11
62.9738109478
 21
133.2930711971
  0
LINE
  8
0
 62
9
  6
CONTINUOUS
 10
63.1897095482
 20
138.3838508189
 11
63.1904431595
 21
138.4133240931
  0
LINE
  8
0
 62
9
  6
CONTINUOUS
 10
63.1876201697
 20
138.349536215
 11
63.1896926204
 21
138.383477734
  0
LINE
  8
0
 62
9
  6
CONTINUOUS
 10
63.1897095482
 20
138.3838508189
 11
63.1904423744
 21
138.4130303026
  0
LINE
  8
0
 62
9
  6
CONTINUOUS
 10
62.9766350342
 20
133.3566870286
 11
62.9745463314
 21
133.3223414734
  0
LINE
  8
0
 62
9
  6
CONTINUOUS
 10
62.974530241
 20
133.3219828932
 11
62.973808923
 21
133.2930583407
  0
LINE
  8
0
 62
7
  6
CONTINUOUS
 10
62.9745463314
 20
133.3223414734
 11
62.974530241
 21
133.3219828932
  0
LINE
  8
0
 62
7
  6
CONTINUOUS
 10
63.1896926204
 20
138.383477734
 11
63.1897095482
 21
138.3838508189
  0
POLYLINE
  8
0
 62
7
  6
CONTINUOUS
 66
1
 70
0
  0
VERTEX
  8
0
 62
7
  6
CONTINUOUS
 10
63.1571260562
 20
146.1030612452
  0
VERTEX
  8
0
 62
7
  6
CONTINUOUS
 10
63.1696662205
 20
146.2143313507
  0
VERTEX
  8
0
 62
7
  6
CONTINUOUS
 10
63.2662381685
 20
146.4148236472
  0
VERTEX
  8
0
 62
7
  6
CONTINUOUS
 10
63.3454234589
 20
146.4939933271
  0
VERTEX
  8
0
 62
7
  6
CONTINUOUS
 10
63.5459328267
 20
146.5905355118
  0
VERTEX
  8
0
 62
7
  6
CONTINUOUS
 10
63.6572022202
 20
146.6030702152
  0
SEQEND
  0
LINE
  8
0
 62
7
  6
CONTINUOUS
 10
62.9745274396
 20
133.3219187956
 11
62.98441214
 21
133.4095522516
  0
LINE
  8
0
 62
7
  6
CONTINUOUS
 10
63.1896931484
 20
138.3834893498
 11
63.1798441081
 21
138.2966123033
  0
POLYLINE
  8
0
 62
7
  6
CONTINUOUS
 66
1
 70
0
  0
VERTEX
  8
0
 62
7
  6
CONTINUOUS
 10
62.9738091172
 20
133.2930583407
  0
VERTEX
  8
0
 62
7
  6
CONTINUOUS
 10
63.0119029264
 20
133.5122804899
  0
VERTEX
  8
0
 62
7
  6
CONTINUOUS
 10
63.1218306948
 20
133.7059392981
  0
VERTEX
  8
0
 62
7
  6
CONTINUOUS
 10
63.2000102367
 20
133.7858391044
  0
VERTEX
  8
0
 62
7
  6
CONTINUOUS
 10
63.3909147813
 20
133.8998535934
  0
VERTEX
  8
0
 62
7
  6
CONTINUOUS
 10
63.5896812836
 20
133.9404580624
  0
SEQEND
  0
POLYLINE
  8
0
 62
9
  6
CONTINUOUS
 66
1
 70
0
  0
VERTEX
  8
0
 62
9
  6
CONTINUOUS
 10
62.438975139
 20
133.2930710076
  0
VERTEX
  8
0
 62
9
  6
CONTINUOUS
 10
62.508086105
 20
133.6856914121
  0
VERTEX
  8
0
 62
9
  6
CONTINUOUS
 10
62.70789824
 20
134.0320779708
  0
VERTEX
  8
0
 62
9
  6
CONTINUOUS
 10
62.8499392187
 20
134.1741107865
  0
VERTEX
  8
0
 62
9
  6
CONTINUOUS
 10
63.1962318101
 20
134.3738814846
  0
VERTEX
  8
0
 62
9
  6
CONTINUOUS
 10
63.5891503162
 20
134.4430710076
  0
SEQEND
  0
POLYLINE
  8
0
 62
9
  6
CONTINUOUS
 66
1
 70
0
  0
VERTEX
  8
0
 62
9
  6
CONTINUOUS
 10
63.7252769734
 20
138.4130710076
  0
VERTEX
  8
0
 62
9
  6
CONTINUOUS
 10
63.6561660074
 20
138.0204506031
  0
VERTEX
  8
0
 62
9
  6
CONTINUOUS
 10
63.4563538724
 20
137.6740640443
  0
VERTEX
  8
0
 62
9
  6
CONTINUOUS
 10
63.3143128937
 20
137.5320312286
  0
VERTEX
  8
0
 62
9
  6
CONTINUOUS
 10
62.9680203023
 20
137.3322605305
  0
VERTEX
  8
0
 62
9
  6
CONTINUOUS
 10
62.5751017962
 20
137.2630710076
  0
SEQEND
  0
POLYLINE
  8
0
 62
7
  6
CONTINUOUS
 66
1
 70
0
  0
VERTEX
  8
0
 62
7
  6
CONTINUOUS
 10
63.1904443045
 20
138.4130303061
  0
VERTEX
  8
0
 62
7
  6
CONTINUOUS
 10
63.1513178076
 20
138.191004607
  0
VERTEX
  8
0
 62
7
  6
CONTINUOUS
 10
63.0385860277
 20
137.9955844285
  0
VERTEX
  8
0
 62
7
  6
CONTINUOUS
 10
62.9585655764
 20
137.9154782457
  0
VERTEX
  8
0
 62
7
  6
CONTINUOUS
 10
62.7630539867
 20
137.8024395562
  0
VERTEX
  8
0
 62
7
  6
CONTINUOUS
 10
62.5745108107
 20
137.766156656
  0
SEQEND
  0
POLYLINE
  8
0
 62
7
  6
CONTINUOUS
 66
1
 70
0
  0
VERTEX
  8
0
 62
7
  6
CONTINUOUS
 10
63.2253531265
 20
138.4130951014
  0
VERTEX
  8
0
 62
7
  6
CONTINUOUS
 10
63.186199267
 20
138.190925771
  0
VERTEX
  8
0
 62
7
  6
CONTINUOUS
 10
63.0733060435
 20
137.9953577562
  0
VERTEX
  8
0
 62
7
  6
CONTINUOUS
 10
62.9930863296
 20
137.9151513804
  0
VERTEX
  8
0
 62
7
  6
CONTINUOUS
 10
62.7974464853
 20
137.8022510299
  0
VERTEX
  8
0
 62
7
  6
CONTINUOUS
 10
62.5751046078
 20
137.7630710076
  0
SEQEND
  0
POLYLINE
  8
0
 62
7
  6
CONTINUOUS
 66
1
 70
0
  0
VERTEX
  8
0
 62
7
  6
CONTINUOUS
 10
62.9388989859
 20
133.2930469137
  0
VERTEX
  8
0
 62
7
  6
CONTINUOUS
 10
62.9780528454
 20
133.5152162441
  0
VERTEX
  8
0
 62
7
  6
CONTINUOUS
 10
63.0909460689
 20
133.7107842589
  0
VERTEX
  8
0
 62
7
  6
CONTINUOUS
 10
63.1711657828
 20
133.7909906347
  0
VERTEX
  8
0
 62
7
  6
CONTINUOUS
 10
63.3668056271
 20
133.9038909852
  0
VERTEX
  8
0
 62
7
  6
CONTINUOUS
 10
63.5891475046
 20
133.9430710076
  0
SEQEND
  0
POLYLINE
  8
0
 62
7
  6
CONTINUOUS
 66
1
 70
0
  0
VERTEX
  8
0
 62
7
  6
CONTINUOUS
 10
63.1571260562
 20
139.6030710076
  0
VERTEX
  8
0
 62
7
  6
CONTINUOUS
 10
63.1645965598
 20
139.6385381151
  0
VERTEX
  8
0
 62
7
  6
CONTINUOUS
 10
63.1787276196
 20
139.9164876991
  0
VERTEX
  8
0
 62
7
  6
CONTINUOUS
 10
63.1905169717
 20
140.4422281086
  0
VERTEX
  8
0
 62
7
  6
CONTINUOUS
 10
63.1986873798
 20
141.1587449431
  0
VERTEX
  8
0
 62
7
  6
CONTINUOUS
 10
63.2023542476
 20
141.9883848586
  0
VERTEX
  8
0
 62
7
  6
CONTINUOUS
 10
63.202354247
 20
142.4177575954
  0
VERTEX
  8
0
 62
7
  6
CONTINUOUS
 10
63.1986873772
 20
143.2473974126
  0
VERTEX
  8
0
 62
7
  6
CONTINUOUS
 10
63.1905169688
 20
143.963914083
  0
VERTEX
  8
0
 62
7
  6
CONTINUOUS
 10
63.178727618
 20
144.489654364
  0
VERTEX
  8
0
 62
7
  6
CONTINUOUS
 10
63.1645965596
 20
144.7676039019
  0
VERTEX
  8
0
 62
7
  6
CONTINUOUS
 10
63.1571260562
 20
144.8030710076
  0
SEQEND
  0
POLYLINE
  8
0
 62
7
  6
CONTINUOUS
 66
1
 70
0
  0
VERTEX
  8
0
 62
7
  6
CONTINUOUS
 10
63.1798441081
 20
138.2966123033
  0
VERTEX
  8
0
 62
7
  6
CONTINUOUS
 10
63.0527090339
 20
138.0131124488
  0
VERTEX
  8
0
 62
7
  6
CONTINUOUS
 10
62.9423249632
 20
137.9023132082
  0
SEQEND
  0
LINE
  8
0
 62
7
  6
CONTINUOUS
 10
63.2217714972
 20
133.8037073037
 11
63.504369584
 21
133.9319629274
  0
LINE
  8
0
 62
7
  6
CONTINUOUS
 10
49.9597818709
 20
137.7741609758
 11
49.8748977077
 21
137.7649849646
  0
LINE
  8
0
 62
7
  6
CONTINUOUS
 10
75.2751046072
 20
137.7630710076
 11
69.9391475574
 21
137.7630710076
  0
LINE
  8
0
 62
7
  6
CONTINUOUS
 10
62.5751046072
 20
137.7630710076
 11
57.2391475574
 21
137.7630710076
  0
LINE
  8
0
 62
7
  6
CONTINUOUS
 10
49.8751046072
 20
137.7630710076
 11
44.5391475574
 21
137.7630710076
  0
LINE
  8
0
 62
9
  6
CONTINUOUS
 10
76.4252769734
 20
138.4130710076
 11
75.8904423741
 21
138.4130303026
  0
LINE
  8
0
 62
9
  6
CONTINUOUS
 10
63.7252769734
 20
138.4130710076
 11
63.1904423744
 21
138.4130303026
  0
LINE
  8
0
 62
9
  6
CONTINUOUS
 10
51.0252769734
 20
138.4130710076
 11
50.4904423741
 21
138.4130303026
  0
LINE
  8
0
 62
9
  6
CONTINUOUS
 10
43.9238097167
 20
138.4130316993
 11
43.388975139
 21
138.4130710076
  0
LINE
  8
0
 62
9
  6
CONTINUOUS
 10
56.6238097169
 20
138.4130316993
 11
56.088975139
 21
138.4130710076
  0
LINE
  8
0
 62
9
  6
CONTINUOUS
 10
69.3238097168
 20
138.4130316993
 11
68.788975139
 21
138.4130710076
  0
LINE
  8
0
 62
7
  6
CONTINUOUS
 10
69.9393460741
 20
137.7649545558
 11
69.8577709446
 21
137.7735521711
  0
POLYLINE
  8
0
 62
9
  6
CONTINUOUS
 66
1
 70
0
  0
VERTEX
  8
0
 62
9
  6
CONTINUOUS
 10
69.9391503162
 20
137.2630710076
  0
VERTEX
  8
0
 62
9
  6
CONTINUOUS
 10
69.5462318111
 20
137.3322605334
  0
VERTEX
  8
0
 62
9
  6
CONTINUOUS
 10
69.1999392188
 20
137.5320312287
  0
VERTEX
  8
0
 62
9
  6
CONTINUOUS
 10
69.05789824
 20
137.6740640443
  0
VERTEX
  8
0
 62
9
  6
CONTINUOUS
 10
68.8580861026
 20
138.0204506022
  0
VERTEX
  8
0
 62
9
  6
CONTINUOUS
 10
68.788975139
 20
138.4130710076
  0
SEQEND
  0
POLYLINE
  8
0
 62
7
  6
CONTINUOUS
 66
1
 70
0
  0
VERTEX
  8
0
 62
7
  6
CONTINUOUS
 10
69.0067250833
 20
133.9325459631
  0
VERTEX
  8
0
 62
7
  6
CONTINUOUS
 10
69.2899651651
 20
133.8056787142
  0
VERTEX
  8
0
 62
7
  6
CONTINUOUS
 10
69.4008336052
 20
133.695420089
  0
SEQEND
  0
LINE
  8
0
 62
7
  6
CONTINUOUS
 10
63.0071260562
 20
133.3935724324
 11
63.0011365369
 21
133.4468589111
  0
LINE
  8
0
 62
7
  6
CONTINUOUS
 10
63.1571260562
 20
138.3125695827
 11
63.1631132328
 21
138.2593039465
  0
LINE
  8
0
 62
9
  6
CONTINUOUS
 10
63.5891503162
 20
134.4430710076
 11
63.5891503162
 21
133.9430710076
  0
LINE
  8
0
 62
9
  6
CONTINUOUS
 10
63.7252769734
 20
142.2029813967
 11
63.7252769734
 21
138.4130710076
  0
POLYLINE
  8
0
 62
7
  6
CONTINUOUS
 66
1
 70
0
  0
VERTEX
  8
0
 62
7
  6
CONTINUOUS
 10
63.0071260562
 20
125.60308077
  0
VERTEX
  8
0
 62
7
  6
CONTINUOUS
 10
62.9945858913
 20
125.4918106652
  0
VERTEX
  8
0
 62
7
  6
CONTINUOUS
 10
62.8980139426
 20
125.2913183701
  0
VERTEX
  8
0
 62
7
  6
CONTINUOUS
 10
62.8188286523
 20
125.2121486909
  0
VERTEX
  8
0
 62
7
  6
CONTINUOUS
 10
62.6183192851
 20
125.1156065071
  0
VERTEX
  8
0
 62
7
  6
CONTINUOUS
 10
62.5070498922
 20
125.1030718028
  0
SEQEND
  0
POLYLINE
  8
0
 62
7
  6
CONTINUOUS
 66
1
 70
0
  0
VERTEX
  8
0
 62
7
  6
CONTINUOUS
 10
62.98441214
 20
133.4095522516
  0
VERTEX
  8
0
 62
7
  6
CONTINUOUS
 10
63.1114277134
 20
133.6928824532
  0
VERTEX
  8
0
 62
7
  6
CONTINUOUS
 10
63.2217714972
 20
133.8037073037
  0
SEQEND
  0
LINE
  8
0
 62
7
  6
CONTINUOUS
 10
75.6423249537
 20
137.9023132007
 11
75.3597818712
 21
137.7741609758
  0
POLYLINE
  8
0
 62
7
  6
CONTINUOUS
 66
1
 70
0
  0
VERTEX
  8
0
 62
7
  6
CONTINUOUS
 10
69.9396433666
 20
137.7659224643
  0
VERTEX
  8
0
 62
7
  6
CONTINUOUS
 10
69.773169111
 20
137.7948688864
  0
VERTEX
  8
0
 62
7
  6
CONTINUOUS
 10
69.5915572562
 20
137.8874243705
  0
VERTEX
  8
0
 62
7
  6
CONTINUOUS
 10
69.4475778223
 20
138.031586706
  0
VERTEX
  8
0
 62
7
  6
CONTINUOUS
 10
69.355288075
 20
138.2132794394
  0
SEQEND
  0
POLYLINE
  8
0
 62
7
  6
CONTINUOUS
 66
1
 70
0
  0
VERTEX
  8
0
 62
7
  6
CONTINUOUS
 10
69.9391475568
 20
137.7630710076
  0
VERTEX
  8
0
 62
7
  6
CONTINUOUS
 10
69.7168056271
 20
137.8022510299
  0
VERTEX
  8
0
 62
7
  6
CONTINUOUS
 10
69.5211657828
 20
137.9151513804
  0
VERTEX
  8
0
 62
7
  6
CONTINUOUS
 10
69.4409460689
 20
137.9953577562
  0
VERTEX
  8
0
 62
7
  6
CONTINUOUS
 10
69.3280528454
 20
138.190925771
  0
VERTEX
  8
0
 62
7
  6
CONTINUOUS
 10
69.2888989859
 20
138.4130950521
  0
SEQEND
  0
LINE
  8
0
 62
9
  6
CONTINUOUS
 10
63.1728727025
 20
138.2810666918
 11
63.1571260562
 21
138.3125695827
  0
POLYLINE
  8
0
 62
9
  6
CONTINUOUS
 66
1
 70
0
  0
VERTEX
  8
0
 62
9
  6
CONTINUOUS
 10
63.1571260562
 20
146.1030612452
  0
VERTEX
  8
0
 62
9
  6
CONTINUOUS
 10
63.1723499179
 20
146.0062842296
  0
VERTEX
  8
0
 62
9
  6
CONTINUOUS
 10
63.1892679065
 20
145.645636651
  0
VERTEX
  8
0
 62
9
  6
CONTINUOUS
 10
63.2040552262
 20
145.0365164284
  0
SEQEND
  0
POLYLINE
  8
0
 62
9
  6
CONTINUOUS
 66
1
 70
0
  0
VERTEX
  8
0
 62
9
  6
CONTINUOUS
 10
63.6572022202
 20
146.6030710076
  0
VERTEX
  8
0
 62
9
  6
CONTINUOUS
 10
63.6724309652
 20
146.4915599989
  0
VERTEX
  8
0
 62
9
  6
CONTINUOUS
 10
63.6893133688
 20
146.0827995091
  0
VERTEX
  8
0
 62
9
  6
CONTINUOUS
 10
63.7040544497
 20
145.3951646366
  0
VERTEX
  8
0
 62
9
  6
CONTINUOUS
 10
63.7154574475
 20
144.4795536847
  0
VERTEX
  8
0
 62
9
  6
CONTINUOUS
 10
63.7226979564
 20
143.4027070966
  0
VERTEX
  8
0
 62
9
  6
CONTINUOUS
 10
63.7252770701
 20
142.2029813967
  0
SEQEND
  0
LINE
  8
0
 62
9
  6
CONTINUOUS
 10
82.0571260562
 20
142.2030710076
 11
75.9253531259
 21
142.2030710076
  0
LINE
  8
0
 62
9
  6
CONTINUOUS
 10
37.8671260562
 20
142.2030710076
 11
43.8888989865
 21
142.2030710076
  0
LINE
  8
0
 62
9
  6
CONTINUOUS
 10
50.5253531259
 20
142.2030710076
 11
56.5888989865
 21
142.2030710076
  0
LINE
  8
0
 62
9
  6
CONTINUOUS
 10
63.2253531259
 20
142.2030710076
 11
69.2888989865
 21
142.2030710076
  0
LINE
  8
1_AXIS
 62
2
  6
CENTER
 10
35.8671260562
 20
142.2030710076
 11
84.0571260562
 21
142.2030710076
  0
POLYLINE
  8
0
 62
7
  6
CONTINUOUS
 66
1
 70
0
  0
VERTEX
  8
0
 62
7
  6
CONTINUOUS
 10
69.8577709446
 20
137.7735521711
  0
VERTEX
  8
0
 62
7
  6
CONTINUOUS
 10
69.5746328678
 20
137.9001957605
  0
VERTEX
  8
0
 62
7
  6
CONTINUOUS
 10
69.4636726889
 20
138.010400039
  0
SEQEND
  0
LINE
  8
0
 62
9
  6
CONTINUOUS
 10
69.3409476389
 20
138.2802028867
 11
69.3571260562
 21
138.3125695827
  0
LINE
  8
0
 62
7
  6
CONTINUOUS
 10
69.4008336052
 20
133.695420089
 11
69.5292450019
 21
133.4127754795
  0
POLYLINE
  8
0
 62
7
  6
CONTINUOUS
 66
1
 70
0
  0
VERTEX
  8
0
 62
7
  6
CONTINUOUS
 10
69.5071260562
 20
125.60308077
  0
VERTEX
  8
0
 62
7
  6
CONTINUOUS
 10
69.5196662205
 20
125.4918106644
  0
VERTEX
  8
0
 62
7
  6
CONTINUOUS
 10
69.6162381685
 20
125.2913183679
  0
VERTEX
  8
0
 62
7
  6
CONTINUOUS
 10
69.6954234589
 20
125.212148688
  0
VERTEX
  8
0
 62
7
  6
CONTINUOUS
 10
69.8959328267
 20
125.1156065033
  0
VERTEX
  8
0
 62
7
  6
CONTINUOUS
 10
70.0072022202
 20
125.1030718
  0
SEQEND
  0
LINE
  8
0
 62
7
  6
CONTINUOUS
 10
69.3245454277
 20
138.3837869274
 11
69.3245513726
 21
138.3836556253
  0
LINE
  8
0
 62
7
  6
CONTINUOUS
 10
69.5397144131
 20
133.322132665
 11
69.5397087644
 21
133.3222583421
  0
LINE
  8
0
 62
9
  6
CONTINUOUS
 10
69.5404434628
 20
133.2930404418
 11
69.5376186554
 21
133.3566472643
  0
LINE
  8
0
 62
9
  6
CONTINUOUS
 10
69.3238097168
 20
138.4130316993
 11
69.3266296259
 21
138.3495846932
  0
LINE
  8
0
 62
9
  6
CONTINUOUS
 10
69.3238103291
 20
138.4130710075
 11
69.3245454277
 21
138.3837869274
  0
LINE
  8
0
 62
9
  6
CONTINUOUS
 10
69.5404412311
 20
133.2930711902
 11
69.5397144131
 21
133.322132665
  0
LINE
  8
0
 62
9
  6
CONTINUOUS
 10
68.788975139
 20
138.4130710076
 11
68.788975139
 21
142.2029866198
  0
LINE
  8
0
 62
9
  6
CONTINUOUS
 10
68.9251017962
 20
134.4430710076
 11
68.9251017962
 21
133.9430710076
  0
LINE
  8
0
 62
9
  6
CONTINUOUS
 10
69.2888989865
 20
138.4130950521
 11
69.2888989865
 21
142.2030710076
  0
LINE
  8
0
 62
7
  6
CONTINUOUS
 10
69.3571260562
 20
146.1030612452
 11
69.3571260562
 21
144.8030710076
  0
LINE
  8
0
 62
7
  6
CONTINUOUS
 10
69.3571260562
 20
139.6030710076
 11
69.3571260562
 21
138.3119601313
  0
LINE
  8
0
 62
7
  6
CONTINUOUS
 10
69.5071260562
 20
125.60308077
 11
69.5071260562
 21
126.9030710076
  0
LINE
  8
0
 62
7
  6
CONTINUOUS
 10
69.5071260562
 20
132.1030710076
 11
69.5071260562
 21
133.3941818839
  0
LINE
  8
0
 62
9
  6
CONTINUOUS
 10
69.5753531259
 20
133.293046963
 11
69.5753531259
 21
129.5030710076
  0
LINE
  8
0
 62
9
  6
CONTINUOUS
 10
69.9391503162
 20
137.2630710076
 11
69.9391503162
 21
137.7630710076
  0
POLYLINE
  8
0
 62
9
  6
CONTINUOUS
 66
1
 70
0
  0
VERTEX
  8
0
 62
9
  6
CONTINUOUS
 10
68.7889750474
 20
142.2029866198
  0
VERTEX
  8
0
 62
9
  6
CONTINUOUS
 10
68.7915982889
 20
143.4127274503
  0
VERTEX
  8
0
 62
9
  6
CONTINUOUS
 10
68.7991956079
 20
144.5218787506
  0
VERTEX
  8
0
 62
9
  6
CONTINUOUS
 10
68.8111887684
 20
145.4547401983
  0
VERTEX
  8
0
 62
9
  6
CONTINUOUS
 10
68.8266961927
 20
146.1414606703
  0
VERTEX
  8
0
 62
9
  6
CONTINUOUS
 10
68.8432096921
 20
146.5111752335
  0
VERTEX
  8
0
 62
9
  6
CONTINUOUS
 10
68.8570498922
 20
146.6030710076
  0
SEQEND
  0
POLYLINE
  8
0
 62
9
  6
CONTINUOUS
 66
1
 70
0
  0
VERTEX
  8
0
 62
9
  6
CONTINUOUS
 10
69.2888989865
 20
142.2030710076
  0
VERTEX
  8
0
 62
9
  6
CONTINUOUS
 10
69.2915318536
 20
143.2772105051
  0
VERTEX
  8
0
 62
9
  6
CONTINUOUS
 10
69.2991595032
 20
144.262073839
  0
SEQEND
  0
POLYLINE
  8
0
 62
9
  6
CONTINUOUS
 66
1
 70
0
  0
VERTEX
  8
0
 62
9
  6
CONTINUOUS
 10
69.5753531259
 20
129.5030710076
  0
VERTEX
  8
0
 62
9
  6
CONTINUOUS
 10
69.5727201486
 20
128.4289096494
  0
VERTEX
  8
0
 62
9
  6
CONTINUOUS
 10
69.5650899046
 20
127.4438188867
  0
SEQEND
  0
POLYLINE
  8
0
 62
9
  6
CONTINUOUS
 66
1
 70
0
  0
VERTEX
  8
0
 62
9
  6
CONTINUOUS
 10
69.2991595032
 20
144.262073839
  0
VERTEX
  8
0
 62
9
  6
CONTINUOUS
 10
69.3111982417
 20
145.0896969516
  0
VERTEX
  8
0
 62
9
  6
CONTINUOUS
 10
69.3267581938
 20
145.6978470174
  0
VERTEX
  8
0
 62
9
  6
CONTINUOUS
 10
69.3432908124
 20
146.0234765013
  0
VERTEX
  8
0
 62
9
  6
CONTINUOUS
 10
69.3571260562
 20
146.1030612452
  0
SEQEND
  0
POLYLINE
  8
0
 62
9
  6
CONTINUOUS
 66
1
 70
0
  0
VERTEX
  8
0
 62
9
  6
CONTINUOUS
 10
69.5650899046
 20
127.4438188867
  0
VERTEX
  8
0
 62
9
  6
CONTINUOUS
 10
69.5530466378
 20
126.6160686067
  0
VERTEX
  8
0
 62
9
  6
CONTINUOUS
 10
69.5374811129
 20
126.0079316633
  0
VERTEX
  8
0
 62
9
  6
CONTINUOUS
 10
69.5209532365
 20
125.6825707404
  0
VERTEX
  8
0
 62
9
  6
CONTINUOUS
 10
69.5071260562
 20
125.60308077
  0
SEQEND
  0
LINE
  8
0
 62
7
  6
CONTINUOUS
 10
69.3571260562
 20
138.3119601313
 11
69.3510262395
 21
138.2580457546
  0
LINE
  8
0
 62
7
  6
CONTINUOUS
 10
69.5071260562
 20
133.3941818839
 11
69.5131176569
 21
133.4471397727
  0
LINE
  8
0
 62
9
  6
CONTINUOUS
 10
69.5232835222
 20
133.425897213
 11
69.5071260562
 21
133.3935724324
  0
LINE
  8
0
 62
7
  6
CONTINUOUS
 10
75.9217714974
 20
133.8037073039
 11
76.2043695844
 21
133.9319629275
  0
LINE
  8
0
 62
7
  6
CONTINUOUS
 10
69.4636726889
 20
138.010400039
 11
69.3350409452
 21
138.2931883595
  0
POLYLINE
  8
0
 62
7
  6
CONTINUOUS
 66
1
 70
0
  0
VERTEX
  8
0
 62
7
  6
CONTINUOUS
 10
69.3571260562
 20
139.6030710076
  0
VERTEX
  8
0
 62
7
  6
CONTINUOUS
 10
69.3496555526
 20
139.6385381151
  0
VERTEX
  8
0
 62
7
  6
CONTINUOUS
 10
69.3355244928
 20
139.9164876991
  0
VERTEX
  8
0
 62
7
  6
CONTINUOUS
 10
69.3237351407
 20
140.4422281086
  0
VERTEX
  8
0
 62
7
  6
CONTINUOUS
 10
69.3155647326
 20
141.1587449431
  0
VERTEX
  8
0
 62
7
  6
CONTINUOUS
 10
69.3118978648
 20
141.9883848586
  0
VERTEX
  8
0
 62
7
  6
CONTINUOUS
 10
69.3118978654
 20
142.4177575954
  0
VERTEX
  8
0
 62
7
  6
CONTINUOUS
 10
69.3155647352
 20
143.2473974126
  0
VERTEX
  8
0
 62
7
  6
CONTINUOUS
 10
69.3237351436
 20
143.963914083
  0
VERTEX
  8
0
 62
7
  6
CONTINUOUS
 10
69.3355244944
 20
144.489654364
  0
VERTEX
  8
0
 62
7
  6
CONTINUOUS
 10
69.3496555528
 20
144.7676039019
  0
VERTEX
  8
0
 62
7
  6
CONTINUOUS
 10
69.3571260562
 20
144.8030710076
  0
SEQEND
  0
LINE
  8
0
 62
7
  6
CONTINUOUS
 10
69.5008165518
 20
133.5165109935
 11
69.540442995
 21
133.2930404417
  0
LINE
  8
0
 62
7
  6
CONTINUOUS
 10
69.355288075
 20
138.2132794394
 11
69.3238091192
 21
138.4130317004
  0
LINE
  8
0
 62
7
  6
CONTINUOUS
 10
69.3350409452
 20
138.2931883595
 11
69.324550291
 21
138.383679652
  0
LINE
  8
0
 62
7
  6
CONTINUOUS
 10
69.5292450019
 20
133.4127754795
 11
69.5397167787
 21
133.3220790056
  0
LINE
  8
0
 62
9
  6
CONTINUOUS
 10
70.0752769734
 20
133.2930710076
 11
70.0752769734
 21
129.5031586861
  0
POLYLINE
  8
0
 62
9
  6
CONTINUOUS
 66
1
 70
0
  0
VERTEX
  8
0
 62
9
  6
CONTINUOUS
 10
70.0752770686
 20
129.5031586861
  0
VERTEX
  8
0
 62
9
  6
CONTINUOUS
 10
70.0726536191
 20
128.2933685117
  0
VERTEX
  8
0
 62
9
  6
CONTINUOUS
 10
70.0650536771
 20
127.1839684968
  0
VERTEX
  8
0
 62
9
  6
CONTINUOUS
 10
70.0530560132
 20
126.2509698954
  0
VERTEX
  8
0
 62
9
  6
CONTINUOUS
 10
70.0375430498
 20
125.5642670634
  0
VERTEX
  8
0
 62
9
  6
CONTINUOUS
 10
70.021034236
 20
125.1948569729
  0
VERTEX
  8
0
 62
9
  6
CONTINUOUS
 10
70.0072022202
 20
125.1030710076
  0
SEQEND
  0
POLYLINE
  8
0
 62
7
  6
CONTINUOUS
 66
1
 70
0
  0
VERTEX
  8
0
 62
7
  6
CONTINUOUS
 10
69.5071260562
 20
126.9030710076
  0
VERTEX
  8
0
 62
7
  6
CONTINUOUS
 10
69.5145965598
 20
126.9385381151
  0
VERTEX
  8
0
 62
7
  6
CONTINUOUS
 10
69.5287276196
 20
127.2164876991
  0
VERTEX
  8
0
 62
7
  6
CONTINUOUS
 10
69.5405169717
 20
127.7422281086
  0
VERTEX
  8
0
 62
7
  6
CONTINUOUS
 10
69.5486873798
 20
128.4587449431
  0
VERTEX
  8
0
 62
7
  6
CONTINUOUS
 10
69.5523542476
 20
129.2883848586
  0
VERTEX
  8
0
 62
7
  6
CONTINUOUS
 10
69.552354247
 20
129.7177575954
  0
VERTEX
  8
0
 62
7
  6
CONTINUOUS
 10
69.5486873772
 20
130.5473974126
  0
VERTEX
  8
0
 62
7
  6
CONTINUOUS
 10
69.5405169688
 20
131.263914083
  0
VERTEX
  8
0
 62
7
  6
CONTINUOUS
 10
69.528727618
 20
131.789654364
  0
VERTEX
  8
0
 62
7
  6
CONTINUOUS
 10
69.5145965596
 20
132.0676039019
  0
VERTEX
  8
0
 62
7
  6
CONTINUOUS
 10
69.5071260562
 20
132.1030710076
  0
SEQEND
  0
LINE
  8
2_FEATURE
 62
7
  6
CONTINUOUS
 10
38.3671260562
 20
146.6030710076
 11
43.4570498922
 21
146.6030710076
  0
LINE
  8
2_FEATURE
 62
7
  6
CONTINUOUS
 10
50.9572022202
 20
146.6030710076
 11
56.1570498922
 21
146.6030710076
  0
LINE
  8
2_FEATURE
 62
7
  6
CONTINUOUS
 10
63.6572022202
 20
146.6030710076
 11
68.8570498922
 21
146.6030710076
  0
LINE
  8
2_FEATURE
 62
7
  6
CONTINUOUS
 10
76.3572022202
 20
146.6030710076
 11
81.5571260562
 21
146.6030710076
  0
POLYLINE
  8
0
 62
7
  6
CONTINUOUS
 66
1
 70
0
  0
VERTEX
  8
0
 62
7
  6
CONTINUOUS
 10
69.3571260562
 20
146.1030612452
  0
VERTEX
  8
0
 62
7
  6
CONTINUOUS
 10
69.3445858913
 20
146.21433135
  0
VERTEX
  8
0
 62
7
  6
CONTINUOUS
 10
69.2480139426
 20
146.414823645
  0
VERTEX
  8
0
 62
7
  6
CONTINUOUS
 10
69.1688286523
 20
146.4939933242
  0
VERTEX
  8
0
 62
7
  6
CONTINUOUS
 10
68.9683192851
 20
146.590535508
  0
VERTEX
  8
0
 62
7
  6
CONTINUOUS
 10
68.8570498922
 20
146.6030702123
  0
SEQEND
  0
LINE
  8
0
 62
9
  6
CONTINUOUS
 10
75.6913750073
 20
133.4250841312
 11
75.7071260562
 21
133.3935724324
  0
POLYLINE
  8
0
 62
7
  6
CONTINUOUS
 66
1
 70
0
  0
VERTEX
  8
0
 62
7
  6
CONTINUOUS
 10
75.8571260562
 20
146.1030612452
  0
VERTEX
  8
0
 62
7
  6
CONTINUOUS
 10
75.8696662205
 20
146.2143313507
  0
VERTEX
  8
0
 62
7
  6
CONTINUOUS
 10
75.9662381685
 20
146.4148236472
  0
VERTEX
  8
0
 62
7
  6
CONTINUOUS
 10
76.0454234589
 20
146.4939933271
  0
VERTEX
  8
0
 62
7
  6
CONTINUOUS
 10
76.2459328267
 20
146.5905355118
  0
VERTEX
  8
0
 62
7
  6
CONTINUOUS
 10
76.3572022202
 20
146.6030702152
  0
SEQEND
  0
POLYLINE
  8
0
 62
7
  6
CONTINUOUS
 66
1
 70
0
  0
VERTEX
  8
0
 62
7
  6
CONTINUOUS
 10
75.8571260562
 20
139.6030710076
  0
VERTEX
  8
0
 62
7
  6
CONTINUOUS
 10
75.8645965598
 20
139.6385381151
  0
VERTEX
  8
0
 62
7
  6
CONTINUOUS
 10
75.8787276196
 20
139.9164876991
  0
VERTEX
  8
0
 62
7
  6
CONTINUOUS
 10
75.8905169717
 20
140.4422281086
  0
VERTEX
  8
0
 62
7
  6
CONTINUOUS
 10
75.8986873798
 20
141.1587449431
  0
VERTEX
  8
0
 62
7
  6
CONTINUOUS
 10
75.9023542476
 20
141.9883848586
  0
VERTEX
  8
0
 62
7
  6
CONTINUOUS
 10
75.902354247
 20
142.4177575954
  0
VERTEX
  8
0
 62
7
  6
CONTINUOUS
 10
75.8986873772
 20
143.2473974126
  0
VERTEX
  8
0
 62
7
  6
CONTINUOUS
 10
75.8905169688
 20
143.963914083
  0
VERTEX
  8
0
 62
7
  6
CONTINUOUS
 10
75.878727618
 20
144.489654364
  0
VERTEX
  8
0
 62
7
  6
CONTINUOUS
 10
75.8645965596
 20
144.7676039019
  0
VERTEX
  8
0
 62
7
  6
CONTINUOUS
 10
75.8571260562
 20
144.8030710076
  0
SEQEND
  0
POLYLINE
  8
0
 62
7
  6
CONTINUOUS
 66
1
 70
0
  0
VERTEX
  8
0
 62
7
  6
CONTINUOUS
 10
75.8798441037
 20
138.2966122794
  0
VERTEX
  8
0
 62
7
  6
CONTINUOUS
 10
75.7527090239
 20
138.0131124361
  0
VERTEX
  8
0
 62
7
  6
CONTINUOUS
 10
75.6423249537
 20
137.9023132007
  0
SEQEND
  0
POLYLINE
  8
0
 62
7
  6
CONTINUOUS
 66
1
 70
0
  0
VERTEX
  8
0
 62
7
  6
CONTINUOUS
 10
75.7071260562
 20
126.9030710076
  0
VERTEX
  8
0
 62
7
  6
CONTINUOUS
 10
75.6996555526
 20
126.9385381151
  0
VERTEX
  8
0
 62
7
  6
CONTINUOUS
 10
75.6855244928
 20
127.2164876991
  0
VERTEX
  8
0
 62
7
  6
CONTINUOUS
 10
75.6737351407
 20
127.7422281086
  0
VERTEX
  8
0
 62
7
  6
CONTINUOUS
 10
75.6655647326
 20
128.4587449431
  0
VERTEX
  8
0
 62
7
  6
CONTINUOUS
 10
75.6618978648
 20
129.2883848586
  0
VERTEX
  8
0
 62
7
  6
CONTINUOUS
 10
75.6618978654
 20
129.7177575954
  0
VERTEX
  8
0
 62
7
  6
CONTINUOUS
 10
75.6655647352
 20
130.5473974126
  0
VERTEX
  8
0
 62
7
  6
CONTINUOUS
 10
75.6737351436
 20
131.263914083
  0
VERTEX
  8
0
 62
7
  6
CONTINUOUS
 10
75.6855244944
 20
131.789654364
  0
VERTEX
  8
0
 62
7
  6
CONTINUOUS
 10
75.6996555528
 20
132.0676039019
  0
VERTEX
  8
0
 62
7
  6
CONTINUOUS
 10
75.7071260562
 20
132.1030710076
  0
SEQEND
  0
POLYLINE
  8
0
 62
9
  6
CONTINUOUS
 66
1
 70
0
  0
VERTEX
  8
0
 62
9
  6
CONTINUOUS
 10
75.7071260562
 20
125.60308077
  0
VERTEX
  8
0
 62
9
  6
CONTINUOUS
 10
75.691909567
 20
125.6997619277
  0
VERTEX
  8
0
 62
9
  6
CONTINUOUS
 10
75.6749896039
 20
126.0603407387
  0
VERTEX
  8
0
 62
9
  6
CONTINUOUS
 10
75.6601981571
 20
126.669556677
  0
SEQEND
  0
POLYLINE
  8
0
 62
9
  6
CONTINUOUS
 66
1
 70
0
  0
VERTEX
  8
0
 62
9
  6
CONTINUOUS
 10
75.2070498922
 20
125.1030710076
  0
VERTEX
  8
0
 62
9
  6
CONTINUOUS
 10
75.1918286141
 20
125.2144712756
  0
VERTEX
  8
0
 62
9
  6
CONTINUOUS
 10
75.1749442271
 20
125.6231529305
  0
VERTEX
  8
0
 62
9
  6
CONTINUOUS
 10
75.1601990641
 20
126.3108914287
  0
VERTEX
  8
0
 62
9
  6
CONTINUOUS
 10
75.1487935466
 20
127.2267077832
  0
VERTEX
  8
0
 62
9
  6
CONTINUOUS
 10
75.1415525494
 20
128.3038014254
  0
VERTEX
  8
0
 62
9
  6
CONTINUOUS
 10
75.1389750387
 20
129.5031640037
  0
SEQEND
  0
POLYLINE
  8
0
 62
9
  6
CONTINUOUS
 66
1
 70
0
  0
VERTEX
  8
0
 62
9
  6
CONTINUOUS
 10
75.6601981571
 20
126.669556677
  0
VERTEX
  8
0
 62
9
  6
CONTINUOUS
 10
75.6487529935
 20
127.4820147127
  0
VERTEX
  8
0
 62
9
  6
CONTINUOUS
 10
75.641485253
 20
128.4382931082
  0
VERTEX
  8
0
 62
9
  6
CONTINUOUS
 10
75.6388989865
 20
129.5030710076
  0
SEQEND
  0
POLYLINE
  8
0
 62
9
  6
CONTINUOUS
 66
1
 70
0
  0
VERTEX
  8
0
 62
9
  6
CONTINUOUS
 10
75.9040552262
 20
145.0365164284
  0
VERTEX
  8
0
 62
9
  6
CONTINUOUS
 10
75.9154978641
 20
144.2242458421
  0
VERTEX
  8
0
 62
9
  6
CONTINUOUS
 10
75.9227651504
 20
143.2681938803
  0
VERTEX
  8
0
 62
9
  6
CONTINUOUS
 10
75.9253531259
 20
142.2030710076
  0
SEQEND
  0
LINE
  8
0
 62
9
  6
CONTINUOUS
 10
75.138975139
 20
129.5031640037
 11
75.138975139
 21
133.2930710076
  0
LINE
  8
0
 62
9
  6
CONTINUOUS
 10
75.2751017962
 20
137.2630710076
 11
75.2751017962
 21
137.7630710076
  0
LINE
  8
0
 62
9
  6
CONTINUOUS
 10
75.6388989865
 20
129.5030710076
 11
75.6388989865
 21
133.2930469137
  0
LINE
  8
0
 62
7
  6
CONTINUOUS
 10
75.7071260562
 20
125.60308077
 11
75.7071260562
 21
126.9030710076
  0
LINE
  8
0
 62
7
  6
CONTINUOUS
 10
75.7071260562
 20
132.1030710076
 11
75.7071260562
 21
133.3935724324
  0
LINE
  8
0
 62
7
  6
CONTINUOUS
 10
75.8571260562
 20
146.1030612452
 11
75.8571260562
 21
144.8030710076
  0
LINE
  8
0
 62
7
  6
CONTINUOUS
 10
75.8571260562
 20
139.6030710076
 11
75.8571260562
 21
138.3125695827
  0
LINE
  8
0
 62
9
  6
CONTINUOUS
 10
75.9253531259
 20
142.2030710076
 11
75.9253531259
 21
138.4130951014
  0
LINE
  8
0
 62
9
  6
CONTINUOUS
 10
76.2891503162
 20
134.4430710076
 11
76.2891503162
 21
133.9430710076
  0
LINE
  8
0
 62
9
  6
CONTINUOUS
 10
76.4252769734
 20
142.2029813967
 11
76.4252769734
 21
138.4130710076
  0
LINE
  8
0
 62
9
  6
CONTINUOUS
 10
75.6745302411
 20
133.321982896
 11
75.6738109478
 21
133.2930711971
  0
LINE
  8
0
 62
9
  6
CONTINUOUS
 10
75.8897095484
 20
138.3838508233
 11
75.8904431594
 21
138.4133240649
  0
LINE
  8
0
 62
9
  6
CONTINUOUS
 10
75.8876201697
 20
138.3495362151
 11
75.8896926208
 21
138.383477744
  0
LINE
  8
0
 62
9
  6
CONTINUOUS
 10
75.8897095484
 20
138.3838508233
 11
75.8904423741
 21
138.4130303026
  0
LINE
  8
0
 62
9
  6
CONTINUOUS
 10
75.6766350342
 20
133.3566870286
 11
75.6745463314
 21
133.3223414747
  0
LINE
  8
0
 62
9
  6
CONTINUOUS
 10
75.6745302411
 20
133.321982896
 11
75.6738089229
 21
133.2930583407
  0
LINE
  8
0
 62
7
  6
CONTINUOUS
 10
75.6745463314
 20
133.3223414747
 11
75.6745302411
 21
133.321982896
  0
LINE
  8
0
 62
7
  6
CONTINUOUS
 10
75.8896926208
 20
138.383477744
 11
75.8897095484
 21
138.3838508233
  0
LINE
  8
0
 62
7
  6
CONTINUOUS
 10
75.6745274397
 20
133.3219187986
 11
75.68441214
 21
133.4095522517
  0
LINE
  8
0
 62
7
  6
CONTINUOUS
 10
75.8896931489
 20
138.3834893606
 11
75.8798441037
 21
138.2966122794
  0
POLYLINE
  8
0
 62
7
  6
CONTINUOUS
 66
1
 70
0
  0
VERTEX
  8
0
 62
7
  6
CONTINUOUS
 10
75.6738091172
 20
133.2930583407
  0
VERTEX
  8
0
 62
7
  6
CONTINUOUS
 10
75.7119029268
 20
133.512280491
  0
VERTEX
  8
0
 62
7
  6
CONTINUOUS
 10
75.8218306953
 20
133.7059392987
  0
VERTEX
  8
0
 62
7
  6
CONTINUOUS
 10
75.9000102372
 20
133.7858391049
  0
VERTEX
  8
0
 62
7
  6
CONTINUOUS
 10
76.0909147816
 20
133.8998535936
  0
VERTEX
  8
0
 62
7
  6
CONTINUOUS
 10
76.2896812836
 20
133.9404580624
  0
SEQEND
  0
POLYLINE
  8
0
 62
9
  6
CONTINUOUS
 66
1
 70
0
  0
VERTEX
  8
0
 62
9
  6
CONTINUOUS
 10
75.138975139
 20
133.2930710076
  0
VERTEX
  8
0
 62
9
  6
CONTINUOUS
 10
75.208086105
 20
133.6856914121
  0
VERTEX
  8
0
 62
9
  6
CONTINUOUS
 10
75.40789824
 20
134.0320779708
  0
VERTEX
  8
0
 62
9
  6
CONTINUOUS
 10
75.5499392187
 20
134.1741107865
  0
VERTEX
  8
0
 62
9
  6
CONTINUOUS
 10
75.8962318101
 20
134.3738814846
  0
VERTEX
  8
0
 62
9
  6
CONTINUOUS
 10
76.2891503162
 20
134.4430710076
  0
SEQEND
  0
POLYLINE
  8
0
 62
9
  6
CONTINUOUS
 66
1
 70
0
  0
VERTEX
  8
0
 62
9
  6
CONTINUOUS
 10
76.4252769734
 20
138.4130710076
  0
VERTEX
  8
0
 62
9
  6
CONTINUOUS
 10
76.3561660074
 20
138.0204506031
  0
VERTEX
  8
0
 62
9
  6
CONTINUOUS
 10
76.1563538724
 20
137.6740640443
  0
VERTEX
  8
0
 62
9
  6
CONTINUOUS
 10
76.0143128937
 20
137.5320312286
  0
VERTEX
  8
0
 62
9
  6
CONTINUOUS
 10
75.6680203023
 20
137.3322605305
  0
VERTEX
  8
0
 62
9
  6
CONTINUOUS
 10
75.2751017962
 20
137.2630710076
  0
SEQEND
  0
POLYLINE
  8
0
 62
7
  6
CONTINUOUS
 66
1
 70
0
  0
VERTEX
  8
0
 62
7
  6
CONTINUOUS
 10
75.8904443044
 20
138.4130303061
  0
VERTEX
  8
0
 62
7
  6
CONTINUOUS
 10
75.8513178076
 20
138.191004607
  0
VERTEX
  8
0
 62
7
  6
CONTINUOUS
 10
75.7385860277
 20
137.9955844285
  0
VERTEX
  8
0
 62
7
  6
CONTINUOUS
 10
75.6585655764
 20
137.9154782457
  0
VERTEX
  8
0
 62
7
  6
CONTINUOUS
 10
75.4630539867
 20
137.8024395562
  0
VERTEX
  8
0
 62
7
  6
CONTINUOUS
 10
75.2745108107
 20
137.766156656
  0
SEQEND
  0
POLYLINE
  8
0
 62
7
  6
CONTINUOUS
 66
1
 70
0
  0
VERTEX
  8
0
 62
7
  6
CONTINUOUS
 10
75.9253531265
 20
138.4130951014
  0
VERTEX
  8
0
 62
7
  6
CONTINUOUS
 10
75.886199267
 20
138.190925771
  0
VERTEX
  8
0
 62
7
  6
CONTINUOUS
 10
75.7733060435
 20
137.9953577562
  0
VERTEX
  8
0
 62
7
  6
CONTINUOUS
 10
75.6930863296
 20
137.9151513804
  0
VERTEX
  8
0
 62
7
  6
CONTINUOUS
 10
75.4974464853
 20
137.8022510299
  0
VERTEX
  8
0
 62
7
  6
CONTINUOUS
 10
75.2751046078
 20
137.7630710076
  0
SEQEND
  0
POLYLINE
  8
0
 62
7
  6
CONTINUOUS
 66
1
 70
0
  0
VERTEX
  8
0
 62
7
  6
CONTINUOUS
 10
75.6388989859
 20
133.2930469137
  0
VERTEX
  8
0
 62
7
  6
CONTINUOUS
 10
75.6780528454
 20
133.5152162441
  0
VERTEX
  8
0
 62
7
  6
CONTINUOUS
 10
75.7909460689
 20
133.7107842589
  0
VERTEX
  8
0
 62
7
  6
CONTINUOUS
 10
75.8711657828
 20
133.7909906347
  0
VERTEX
  8
0
 62
7
  6
CONTINUOUS
 10
76.0668056271
 20
133.9038909852
  0
VERTEX
  8
0
 62
7
  6
CONTINUOUS
 10
76.2891475046
 20
133.9430710076
  0
SEQEND
  0
POLYLINE
  8
0
 62
7
  6
CONTINUOUS
 66
1
 70
0
  0
VERTEX
  8
0
 62
7
  6
CONTINUOUS
 10
75.68441214
 20
133.4095522517
  0
VERTEX
  8
0
 62
7
  6
CONTINUOUS
 10
75.8114277135
 20
133.6928824533
  0
VERTEX
  8
0
 62
7
  6
CONTINUOUS
 10
75.9217714974
 20
133.8037073039
  0
SEQEND
  0
LINE
  8
0
 62
9
  6
CONTINUOUS
 10
75.8728727056
 20
138.2810666857
 11
75.8571260562
 21
138.3125695827
  0
LINE
  8
0
 62
7
  6
CONTINUOUS
 10
75.7071260562
 20
133.3935724324
 11
75.7011365369
 21
133.4468589111
  0
LINE
  8
0
 62
7
  6
CONTINUOUS
 10
75.8571260562
 20
138.3125695827
 11
75.8631132338
 21
138.2593039376
  0
POLYLINE
  8
0
 62
7
  6
CONTINUOUS
 66
1
 70
0
  0
VERTEX
  8
0
 62
7
  6
CONTINUOUS
 10
75.7071260562
 20
125.60308077
  0
VERTEX
  8
0
 62
7
  6
CONTINUOUS
 10
75.6945858913
 20
125.4918106652
  0
VERTEX
  8
0
 62
7
  6
CONTINUOUS
 10
75.5980139426
 20
125.2913183701
  0
VERTEX
  8
0
 62
7
  6
CONTINUOUS
 10
75.5188286523
 20
125.2121486909
  0
VERTEX
  8
0
 62
7
  6
CONTINUOUS
 10
75.3183192851
 20
125.1156065071
  0
VERTEX
  8
0
 62
7
  6
CONTINUOUS
 10
75.2070498922
 20
125.1030718028
  0
SEQEND
  0
POLYLINE
  8
0
 62
9
  6
CONTINUOUS
 66
1
 70
0
  0
VERTEX
  8
0
 62
9
  6
CONTINUOUS
 10
75.8571260562
 20
146.1030612452
  0
VERTEX
  8
0
 62
9
  6
CONTINUOUS
 10
75.8723499179
 20
146.0062842296
  0
VERTEX
  8
0
 62
9
  6
CONTINUOUS
 10
75.8892679065
 20
145.645636651
  0
VERTEX
  8
0
 62
9
  6
CONTINUOUS
 10
75.9040552262
 20
145.0365164284
  0
SEQEND
  0
POLYLINE
  8
0
 62
9
  6
CONTINUOUS
 66
1
 70
0
  0
VERTEX
  8
0
 62
9
  6
CONTINUOUS
 10
76.3572022202
 20
146.6030710076
  0
VERTEX
  8
0
 62
9
  6
CONTINUOUS
 10
76.3724309652
 20
146.4915599989
  0
VERTEX
  8
0
 62
9
  6
CONTINUOUS
 10
76.3893133688
 20
146.0827995091
  0
VERTEX
  8
0
 62
9
  6
CONTINUOUS
 10
76.4040544497
 20
145.3951646366
  0
VERTEX
  8
0
 62
9
  6
CONTINUOUS
 10
76.4154574475
 20
144.4795536847
  0
VERTEX
  8
0
 62
9
  6
CONTINUOUS
 10
76.4226979564
 20
143.4027070966
  0
VERTEX
  8
0
 62
9
  6
CONTINUOUS
 10
76.4252770701
 20
142.2029813967
  0
SEQEND
  0
LINE
  8
0
 62
9
  6
CONTINUOUS
 10
81.5571260562
 20
146.6030710076
 11
81.5571260562
 21
133.9430710076
  0
LINE
  8
0
 62
7
  6
CONTINUOUS
 10
82.0571260562
 20
146.1030252357
 11
82.0571260562
 21
134.4430710076
  0
POLYLINE
  8
0
 62
9
  6
CONTINUOUS
 66
1
 70
0
  0
VERTEX
  8
0
 62
9
  6
CONTINUOUS
 10
37.8671260562
 20
210.5403644693
  0
VERTEX
  8
0
 62
9
  6
CONTINUOUS
 10
37.8796621001
 20
210.4440100784
  0
VERTEX
  8
0
 62
9
  6
CONTINUOUS
 10
37.976210315
 20
210.2703854656
  0
VERTEX
  8
0
 62
9
  6
CONTINUOUS
 10
38.0553811553
 20
210.2018215066
  0
VERTEX
  8
0
 62
9
  6
CONTINUOUS
 10
38.2558655892
 20
210.1182082999
  0
VERTEX
  8
0
 62
9
  6
CONTINUOUS
 10
38.3671260562
 20
210.1073517674
  0
SEQEND
  0
LINE
  8
0
 62
7
  6
CONTINUOUS
 10
37.8671260562
 20
210.3394025749
 11
37.8671260562
 21
218.1394025749
  0
LINE
  8
0
 62
9
  6
CONTINUOUS
 10
38.3671260562
 20
209.8394025749
 11
38.3671260562
 21
218.6394025749
  0
POLYLINE
  8
0
 62
9
  6
CONTINUOUS
 66
1
 70
0
  0
VERTEX
  8
0
 62
9
  6
CONTINUOUS
 10
37.8671260562
 20
211.7384406806
  0
VERTEX
  8
0
 62
9
  6
CONTINUOUS
 10
37.8796620971
 20
211.6420863011
  0
VERTEX
  8
0
 62
9
  6
CONTINUOUS
 10
37.9762103098
 20
211.4684616825
  0
VERTEX
  8
0
 62
9
  6
CONTINUOUS
 10
38.0553811684
 20
211.3998977089
  0
VERTEX
  8
0
 62
9
  6
CONTINUOUS
 10
38.2558656053
 20
211.316284508
  0
VERTEX
  8
0
 62
9
  6
CONTINUOUS
 10
38.3671260562
 20
211.3054279786
  0
SEQEND
  0
LINE
  8
0
 62
9
  6
CONTINUOUS
 10
40.2371260562
 20
216.139459468
 11
40.2371260562
 21
211.4394025749
  0
LINE
  8
0
 62
7
  6
CONTINUOUS
 10
40.7371260562
 20
215.1394025749
 11
40.7371260562
 21
211.9394025749
  0
LINE
  8
0
 62
9
  6
CONTINUOUS
 10
41.2371260562
 20
215.6394025749
 11
41.2371260562
 21
210.9512467732
  0
POLYLINE
  8
0
 62
9
  6
CONTINUOUS
 66
1
 70
0
  0
VERTEX
  8
0
 62
9
  6
CONTINUOUS
 10
41.1464066632
 20
211.0988809331
  0
VERTEX
  8
0
 62
9
  6
CONTINUOUS
 10
41.1773110317
 20
211.0445876878
  0
VERTEX
  8
0
 62
9
  6
CONTINUOUS
 10
41.2074357977
 20
210.9954639789
  0
VERTEX
  8
0
 62
9
  6
CONTINUOUS
 10
41.2371260562
 20
210.9512467732
  0
SEQEND
  0
POLYLINE
  8
0
 62
9
  6
CONTINUOUS
 66
1
 70
0
  0
VERTEX
  8
0
 62
9
  6
CONTINUOUS
 10
40.7580571011
 20
211.8680382363
  0
VERTEX
  8
0
 62
9
  6
CONTINUOUS
 10
40.8122267802
 20
211.7688237226
  0
VERTEX
  8
0
 62
9
  6
CONTINUOUS
 10
40.850304978
 20
211.6938034738
  0
VERTEX
  8
0
 62
9
  6
CONTINUOUS
 10
40.9367855384
 20
211.4946307217
  0
SEQEND
  0
POLYLINE
  8
0
 62
9
  6
CONTINUOUS
 66
1
 70
0
  0
VERTEX
  8
0
 62
9
  6
CONTINUOUS
 10
40.9367855384
 20
211.4946307217
  0
VERTEX
  8
0
 62
9
  6
CONTINUOUS
 10
41.0033229673
 20
211.3315796674
  0
VERTEX
  8
0
 62
9
  6
CONTINUOUS
 10
41.0720689286
 20
211.1984625855
  0
VERTEX
  8
0
 62
9
  6
CONTINUOUS
 10
41.1464291146
 20
211.0988839236
  0
SEQEND
  0
LINE
  8
0
 62
9
  6
CONTINUOUS
 10
40.7371260562
 20
211.9394015026
 11
40.7580571011
 21
211.8680382363
  0
LINE
  8
0
 62
9
  6
CONTINUOUS
 10
43.4570498922
 20
214.2219528266
 11
43.4407228904
 21
215.1568523233
  0
LINE
  8
0
 62
9
  6
CONTINUOUS
 10
43.4407311608
 20
215.6394025749
 11
43.4407311608
 21
215.1568523233
  0
LINE
  8
0
 62
9
  6
CONTINUOUS
 10
43.4901916663
 20
216.1394025749
 11
43.490191666
 21
215.6394025749
  0
LINE
  8
0
 62
9
  6
CONTINUOUS
 10
43.5251017962
 20
218.1394025749
 11
43.5251017962
 21
218.6394025749
  0
LINE
  8
0
 62
9
  6
CONTINUOUS
 10
43.407213184
 20
210.9512467732
 11
43.4085540582
 21
211.1048841848
  0
LINE
  8
0
 62
9
  6
CONTINUOUS
 10
43.388975099
 20
209.8394025749
 11
43.3924832085
 21
210.1073748088
  0
LINE
  8
0
 62
9
  6
CONTINUOUS
 10
43.4901598767
 20
216.1394025749
 11
43.525077768
 21
218.1394025749
  0
LINE
  8
0
 62
9
  6
CONTINUOUS
 10
43.4085540836
 20
211.1048841848
 11
43.4570498922
 21
214.2219528266
  0
LINE
  8
0
 62
9
  6
CONTINUOUS
 10
43.3924833441
 20
210.1073748084
 11
43.407213184
 21
210.9512467732
  0
POLYLINE
  8
0
 62
9
  6
CONTINUOUS
 66
1
 70
0
  0
VERTEX
  8
0
 62
9
  6
CONTINUOUS
 10
40.7580592456
 20
211.8680379169
  0
VERTEX
  8
0
 62
9
  6
CONTINUOUS
 10
40.6447134132
 20
211.6118742519
  0
VERTEX
  8
0
 62
9
  6
CONTINUOUS
 10
40.5406063327
 20
211.5187265131
  0
SEQEND
  0
LINE
  8
0
 62
9
  6
CONTINUOUS
 10
40.7371260562
 20
215.1394025749
 11
40.2371260562
 21
216.1394025749
  0
LINE
  8
0
 62
7
  6
CONTINUOUS
 10
43.9326889653
 20
215.6394025749
 11
43.9571260562
 21
214.2394025749
  0
LINE
  8
0
 62
7
  6
CONTINUOUS
 10
44.1071260562
 20
214.2394025749
 11
44.1753531259
 21
210.3306763717
  0
LINE
  8
0
 62
9
  6
CONTINUOUS
 10
44.6072022202
 20
214.2394025749
 11
44.6752770649
 21
209.8394025749
  0
POLYLINE
  8
0
 62
9
  6
CONTINUOUS
 66
1
 70
0
  0
VERTEX
  8
0
 62
9
  6
CONTINUOUS
 10
43.9304643074
 20
215.6394025749
  0
VERTEX
  8
0
 62
9
  6
CONTINUOUS
 10
43.9303265746
 20
215.6183765916
  0
VERTEX
  8
0
 62
9
  6
CONTINUOUS
 10
43.9284542487
 20
215.5741961312
  0
SEQEND
  0
LINE
  8
0
 62
9
  6
CONTINUOUS
 10
44.6072022202
 20
214.2394025749
 11
44.6752770665
 21
218.6394025749
  0
LINE
  8
0
 62
7
  6
CONTINUOUS
 10
43.8888989865
 20
210.3306763717
 11
43.9571260562
 21
214.2394025749
  0
LINE
  8
0
 62
7
  6
CONTINUOUS
 10
44.1071260562
 20
214.2394025749
 11
44.1753531259
 21
218.1481287782
  0
POLYLINE
  8
0
 62
9
  6
CONTINUOUS
 66
1
 70
0
  0
VERTEX
  8
0
 62
9
  6
CONTINUOUS
 10
43.9276013375
 20
215.5540703571
  0
VERTEX
  8
0
 62
9
  6
CONTINUOUS
 10
43.9253511296
 20
215.5009731784
  0
VERTEX
  8
0
 62
9
  6
CONTINUOUS
 10
43.919405626
 20
215.4366048875
  0
VERTEX
  8
0
 62
9
  6
CONTINUOUS
 10
43.8924470371
 20
215.3024398044
  0
VERTEX
  8
0
 62
9
  6
CONTINUOUS
 10
43.8225305811
 20
215.1863591173
  0
VERTEX
  8
0
 62
9
  6
CONTINUOUS
 10
43.7065735106
 20
215.1495561825
  0
SEQEND
  0
POLYLINE
  8
0
 62
7
  6
CONTINUOUS
 66
1
 70
0
  0
VERTEX
  8
0
 62
7
  6
CONTINUOUS
 10
43.9155821993
 20
215.5545797168
  0
VERTEX
  8
0
 62
7
  6
CONTINUOUS
 10
43.9154124293
 20
215.5540266988
  0
VERTEX
  8
0
 62
7
  6
CONTINUOUS
 10
43.9403616139
 20
215.5926111078
  0
SEQEND
  0
POLYLINE
  8
0
 62
9
  6
CONTINUOUS
 66
1
 70
0
  0
VERTEX
  8
0
 62
9
  6
CONTINUOUS
 10
40.6364502384
 20
211.3054230889
  0
VERTEX
  8
0
 62
9
  6
CONTINUOUS
 10
40.7694378869
 20
211.1869164515
  0
VERTEX
  8
0
 62
9
  6
CONTINUOUS
 10
40.9067579323
 20
211.0897122297
  0
VERTEX
  8
0
 62
9
  6
CONTINUOUS
 10
41.0555981204
 20
211.0162280085
  0
SEQEND
  0
POLYLINE
  8
0
 62
9
  6
CONTINUOUS
 66
1
 70
0
  0
VERTEX
  8
0
 62
9
  6
CONTINUOUS
 10
44.1404412312
 20
216.1481287545
  0
VERTEX
  8
0
 62
9
  6
CONTINUOUS
 10
44.0917083251
 20
216.0670535152
  0
VERTEX
  8
0
 62
9
  6
CONTINUOUS
 10
43.9035372894
 20
215.9304037316
  0
SEQEND
  0
POLYLINE
  8
0
 62
9
  6
CONTINUOUS
 66
1
 70
0
  0
VERTEX
  8
0
 62
9
  6
CONTINUOUS
 10
43.9035372894
 20
215.9304037316
  0
VERTEX
  8
0
 62
9
  6
CONTINUOUS
 10
43.851441369
 20
215.882326878
  0
VERTEX
  8
0
 62
9
  6
CONTINUOUS
 10
43.8115912578
 20
215.8227682264
  0
VERTEX
  8
0
 62
9
  6
CONTINUOUS
 10
43.8026312306
 20
215.7899944765
  0
VERTEX
  8
0
 62
9
  6
CONTINUOUS
 10
43.8214700341
 20
215.7212444886
  0
VERTEX
  8
0
 62
9
  6
CONTINUOUS
 10
43.9213820424
 20
215.6605747972
  0
VERTEX
  8
0
 62
9
  6
CONTINUOUS
 10
44.0527713854
 20
215.6442736466
  0
SEQEND
  0
LINE
  8
0
 62
7
  6
CONTINUOUS
 10
49.3848493327
 20
217.2343340581
 11
49.3688989865
 21
218.1481287782
  0
LINE
  8
0
 62
9
  6
CONTINUOUS
 10
48.8849255179
 20
217.6084525656
 11
48.8689751286
 21
218.6394025749
  0
LINE
  8
0
 62
9
  6
CONTINUOUS
 10
48.8689751289
 20
209.8394025749
 11
48.8849255179
 21
210.8703525843
  0
LINE
  8
0
 62
7
  6
CONTINUOUS
 10
49.3848496584
 20
211.2444897513
 11
49.3688989865
 21
210.3306763717
  0
POLYLINE
  8
0
 62
7
  6
CONTINUOUS
 66
1
 70
0
  0
VERTEX
  8
0
 62
7
  6
CONTINUOUS
 10
49.3848492182
 20
211.244489759
  0
VERTEX
  8
0
 62
7
  6
CONTINUOUS
 10
49.3849601933
 20
211.2485827195
  0
VERTEX
  8
0
 62
7
  6
CONTINUOUS
 10
49.3884272018
 20
211.2839132368
  0
VERTEX
  8
0
 62
7
  6
CONTINUOUS
 10
49.3974103959
 20
211.3291565993
  0
VERTEX
  8
0
 62
7
  6
CONTINUOUS
 10
49.4118862348
 20
211.3803821027
  0
VERTEX
  8
0
 62
7
  6
CONTINUOUS
 10
49.4310243387
 20
211.4343907681
  0
VERTEX
  8
0
 62
7
  6
CONTINUOUS
 10
49.4539004483
 20
211.4892216674
  0
VERTEX
  8
0
 62
7
  6
CONTINUOUS
 10
49.4796113976
 20
211.5434768661
  0
VERTEX
  8
0
 62
7
  6
CONTINUOUS
 10
49.5072302403
 20
211.5959611577
  0
VERTEX
  8
0
 62
7
  6
CONTINUOUS
 10
49.5357738669
 20
211.6455598636
  0
VERTEX
  8
0
 62
7
  6
CONTINUOUS
 10
49.5637740278
 20
211.6905711841
  0
VERTEX
  8
0
 62
7
  6
CONTINUOUS
 10
49.589663619
 20
211.7294776851
  0
VERTEX
  8
0
 62
7
  6
CONTINUOUS
 10
49.6155043579
 20
211.7660100424
  0
VERTEX
  8
0
 62
7
  6
CONTINUOUS
 10
49.641689477
 20
211.8008833947
  0
VERTEX
  8
0
 62
7
  6
CONTINUOUS
 10
49.6548933927
 20
211.8176934038
  0
VERTEX
  8
0
 62
7
  6
CONTINUOUS
 10
49.6814839343
 20
211.8500272248
  0
VERTEX
  8
0
 62
7
  6
CONTINUOUS
 10
49.7082343425
 20
211.8805568914
  0
VERTEX
  8
0
 62
7
  6
CONTINUOUS
 10
49.7340948973
 20
211.9081841498
  0
VERTEX
  8
0
 62
7
  6
CONTINUOUS
 10
49.757437458
 20
211.9315066538
  0
VERTEX
  8
0
 62
7
  6
CONTINUOUS
 10
49.7787388631
 20
211.9514298811
  0
VERTEX
  8
0
 62
7
  6
CONTINUOUS
 10
49.7989088485
 20
211.969032042
  0
VERTEX
  8
0
 62
7
  6
CONTINUOUS
 10
49.8184453897
 20
211.9848431704
  0
VERTEX
  8
0
 62
7
  6
CONTINUOUS
 10
49.8371871284
 20
211.9987956117
  0
VERTEX
  8
0
 62
7
  6
CONTINUOUS
 10
49.8550994556
 20
212.0108551635
  0
VERTEX
  8
0
 62
7
  6
CONTINUOUS
 10
49.8720110875
 20
212.0209707919
  0
VERTEX
  8
0
 62
7
  6
CONTINUOUS
 10
49.8867064946
 20
212.0285062024
  0
VERTEX
  8
0
 62
7
  6
CONTINUOUS
 10
49.9004808561
 20
212.0341843311
  0
VERTEX
  8
0
 62
7
  6
CONTINUOUS
 10
49.905449857
 20
212.0357154427
  0
SEQEND
  0
POLYLINE
  8
0
 62
9
  6
CONTINUOUS
 66
1
 70
0
  0
VERTEX
  8
0
 62
9
  6
CONTINUOUS
 10
48.8849255179
 20
210.8703525843
  0
VERTEX
  8
0
 62
9
  6
CONTINUOUS
 10
48.9406533547
 20
211.2029754378
  0
VERTEX
  8
0
 62
9
  6
CONTINUOUS
 10
49.0463771909
 20
211.4810148764
  0
VERTEX
  8
0
 62
9
  6
CONTINUOUS
 10
49.1711306184
 20
211.716511757
  0
VERTEX
  8
0
 62
9
  6
CONTINUOUS
 10
49.2444300151
 20
211.8308107879
  0
VERTEX
  8
0
 62
9
  6
CONTINUOUS
 10
49.4151988346
 20
212.0469264508
  0
VERTEX
  8
0
 62
9
  6
CONTINUOUS
 10
49.5981274024
 20
212.2091514011
  0
VERTEX
  8
0
 62
9
  6
CONTINUOUS
 10
49.777019063
 20
212.2983650788
  0
SEQEND
  0
POLYLINE
  8
0
 62
9
  6
CONTINUOUS
 66
1
 70
0
  0
VERTEX
  8
0
 62
9
  6
CONTINUOUS
 10
41.1463620854
 20
211.0989629847
  0
VERTEX
  8
0
 62
9
  6
CONTINUOUS
 10
41.1166574347
 20
211.0671595155
  0
VERTEX
  8
0
 62
9
  6
CONTINUOUS
 10
41.0862934952
 20
211.0394815736
  0
VERTEX
  8
0
 62
9
  6
CONTINUOUS
 10
41.0555981204
 20
211.0162280085
  0
SEQEND
  0
POLYLINE
  8
0
 62
9
  6
CONTINUOUS
 66
1
 70
0
  0
VERTEX
  8
0
 62
9
  6
CONTINUOUS
 10
40.9367851304
 20
211.4946310529
  0
VERTEX
  8
0
 62
9
  6
CONTINUOUS
 10
40.8473517603
 20
211.410460905
  0
VERTEX
  8
0
 62
9
  6
CONTINUOUS
 10
40.7451817106
 20
211.3460973415
  0
VERTEX
  8
0
 62
9
  6
CONTINUOUS
 10
40.6364450205
 20
211.3054272479
  0
SEQEND
  0
LINE
  8
0
 62
7
  6
CONTINUOUS
 10
43.9403616139
 20
215.5926111078
 11
43.9973562858
 21
215.6367282077
  0
LINE
  8
0
 62
9
  6
CONTINUOUS
 10
50.4857607873
 20
215.5749845202
 11
50.4840598555
 21
215.6118294038
  0
LINE
  8
0
 62
9
  6
CONTINUOUS
 10
49.8040211524
 20
218.1405379573
 11
49.8329542776
 21
216.4832118046
  0
LINE
  8
0
 62
7
  6
CONTINUOUS
 10
50.3071260562
 20
214.2394025749
 11
50.2388989865
 21
218.1481287782
  0
LINE
  8
0
 62
7
  6
CONTINUOUS
 10
50.4571260562
 20
214.2394025749
 11
50.5253531259
 21
210.3306763717
  0
LINE
  8
0
 62
9
  6
CONTINUOUS
 10
51.0070389284
 20
210.9512467732
 11
51.0217687683
 21
210.1073748084
  0
LINE
  8
0
 62
9
  6
CONTINUOUS
 10
50.8891475052
 20
218.1394025749
 11
50.924101306
 21
216.1394025749
  0
LINE
  8
0
 62
9
  6
CONTINUOUS
 10
49.8070498922
 20
214.2394025749
 11
49.777019063
 21
216.1804400711
  0
LINE
  8
0
 62
9
  6
CONTINUOUS
 10
50.9572022202
 20
214.2219528266
 11
51.005698029
 21
211.1048841731
  0
LINE
  8
0
 62
9
  6
CONTINUOUS
 10
51.0217689039
 20
210.1073748089
 11
51.0252770134
 21
209.8394025749
  0
LINE
  8
0
 62
9
  6
CONTINUOUS
 10
51.0056980543
 20
211.1048841731
 11
51.0070389284
 21
210.9512467732
  0
LINE
  8
0
 62
9
  6
CONTINUOUS
 10
50.8891503162
 20
218.6394025749
 11
50.8891503162
 21
218.1394025749
  0
LINE
  8
0
 62
9
  6
CONTINUOUS
 10
50.9240604461
 20
216.1394025749
 11
50.9240604461
 21
215.6394025749
  0
LINE
  8
0
 62
9
  6
CONTINUOUS
 10
50.9735209516
 20
215.6394025749
 11
50.9735209516
 21
215.1568523233
  0
LINE
  8
0
 62
9
  6
CONTINUOUS
 10
49.777019063
 20
212.2983650788
 11
49.8070498922
 21
214.2394025749
  0
LINE
  8
0
 62
7
  6
CONTINUOUS
 10
50.2769429105
 20
212.5102113183
 11
50.3071260562
 21
214.2394025749
  0
LINE
  8
0
 62
7
  6
CONTINUOUS
 10
50.480569963
 20
215.582503097
 11
50.4571260562
 21
214.2394025749
  0
LINE
  8
0
 62
9
  6
CONTINUOUS
 10
50.9735292511
 20
215.1568523233
 11
50.9572022202
 21
214.2219528266
  0
POLYLINE
  8
0
 62
7
  6
CONTINUOUS
 66
1
 70
0
  0
VERTEX
  8
0
 62
7
  6
CONTINUOUS
 10
50.2769429105
 20
212.510211318
  0
VERTEX
  8
0
 62
7
  6
CONTINUOUS
 10
50.260492136
 20
212.3914471781
  0
VERTEX
  8
0
 62
7
  6
CONTINUOUS
 10
50.1563370279
 20
212.1931801248
  0
VERTEX
  8
0
 62
7
  6
CONTINUOUS
 10
49.9760824377
 20
212.0602723137
  0
VERTEX
  8
0
 62
7
  6
CONTINUOUS
 10
49.9055532668
 20
212.0357409175
  0
SEQEND
  0
LINE
  8
0
 62
7
  6
CONTINUOUS
 10
49.3823140025
 20
211.2769575929
 11
49.3823385354
 21
211.2770693327
  0
POLYLINE
  8
0
 62
7
  6
CONTINUOUS
 66
1
 70
0
  0
VERTEX
  8
0
 62
7
  6
CONTINUOUS
 10
49.777019063
 20
216.1804400711
  0
VERTEX
  8
0
 62
7
  6
CONTINUOUS
 10
49.8491377674
 20
216.3684975854
  0
VERTEX
  8
0
 62
7
  6
CONTINUOUS
 10
49.9012445128
 20
216.443145617
  0
VERTEX
  8
0
 62
7
  6
CONTINUOUS
 10
49.9055137718
 20
216.4430747366
  0
SEQEND
  0
POLYLINE
  8
0
 62
7
  6
CONTINUOUS
 66
1
 70
0
  0
VERTEX
  8
0
 62
7
  6
CONTINUOUS
 10
50.2836914022
 20
215.5819730021
  0
VERTEX
  8
0
 62
7
  6
CONTINUOUS
 10
50.2915923838
 20
215.5940099432
  0
VERTEX
  8
0
 62
7
  6
CONTINUOUS
 10
50.3485394304
 20
215.6372842588
  0
SEQEND
  0
POLYLINE
  8
0
 62
9
  6
CONTINUOUS
 66
1
 70
0
  0
VERTEX
  8
0
 62
9
  6
CONTINUOUS
 10
41.0555981204
 20
211.0162280085
  0
VERTEX
  8
0
 62
9
  6
CONTINUOUS
 10
41.1175519217
 20
210.9937502933
  0
VERTEX
  8
0
 62
9
  6
CONTINUOUS
 10
41.2371260562
 20
210.9512467732
  0
SEQEND
  0
POLYLINE
  8
0
 62
7
  6
CONTINUOUS
 66
1
 70
0
  0
VERTEX
  8
0
 62
7
  6
CONTINUOUS
 10
49.777019063
 20
212.2983650788
  0
VERTEX
  8
0
 62
7
  6
CONTINUOUS
 10
49.8491616222
 20
212.1103143092
  0
VERTEX
  8
0
 62
7
  6
CONTINUOUS
 10
49.9012823391
 20
212.0356696544
  0
VERTEX
  8
0
 62
7
  6
CONTINUOUS
 10
49.9055532668
 20
212.0357409175
  0
SEQEND
  0
POLYLINE
  8
0
 62
7
  6
CONTINUOUS
 66
1
 70
0
  0
VERTEX
  8
0
 62
7
  6
CONTINUOUS
 10
50.2769429105
 20
215.9685938319
  0
VERTEX
  8
0
 62
7
  6
CONTINUOUS
 10
50.260492136
 20
216.0873579718
  0
VERTEX
  8
0
 62
7
  6
CONTINUOUS
 10
50.1563370279
 20
216.285625025
  0
VERTEX
  8
0
 62
7
  6
CONTINUOUS
 10
49.9760824377
 20
216.4185328361
  0
VERTEX
  8
0
 62
7
  6
CONTINUOUS
 10
49.9055137718
 20
216.4430747366
  0
SEQEND
  0
POLYLINE
  8
0
 62
9
  6
CONTINUOUS
 66
1
 70
0
  0
VERTEX
  8
0
 62
9
  6
CONTINUOUS
 10
43.9721662263
 20
215.6394000706
  0
VERTEX
  8
0
 62
9
  6
CONTINUOUS
 10
43.8409028647
 20
215.5740981759
  0
VERTEX
  8
0
 62
9
  6
CONTINUOUS
 10
43.7439277502
 20
215.395243109
  0
VERTEX
  8
0
 62
9
  6
CONTINUOUS
 10
43.7065728369
 20
215.1495562082
  0
SEQEND
  0
LINE
  8
0
 62
7
  6
CONTINUOUS
 10
43.9973562858
 20
215.6367282077
 11
44.0028160745
 21
215.6391597521
  0
POLYLINE
  8
0
 62
7
  6
CONTINUOUS
 66
1
 70
0
  0
VERTEX
  8
0
 62
7
  6
CONTINUOUS
 10
44.0669352362
 20
215.636708687
  0
VERTEX
  8
0
 62
7
  6
CONTINUOUS
 10
44.123872379
 20
215.5926319602
  0
VERTEX
  8
0
 62
7
  6
CONTINUOUS
 10
44.1305738182
 20
215.5827239573
  0
SEQEND
  0
POLYLINE
  8
0
 62
9
  6
CONTINUOUS
 66
1
 70
0
  0
VERTEX
  8
0
 62
9
  6
CONTINUOUS
 10
50.4602310729
 20
215.9672453222
  0
VERTEX
  8
0
 62
9
  6
CONTINUOUS
 10
50.3623537654
 20
215.9155652537
  0
VERTEX
  8
0
 62
9
  6
CONTINUOUS
 10
50.3005390412
 20
215.8534833727
  0
VERTEX
  8
0
 62
9
  6
CONTINUOUS
 10
50.280123817
 20
215.7863598246
  0
SEQEND
  0
POLYLINE
  8
0
 62
9
  6
CONTINUOUS
 66
1
 70
0
  0
VERTEX
  8
0
 62
9
  6
CONTINUOUS
 10
68.7924829419
 20
210.1073517674
  0
VERTEX
  8
0
 62
9
  6
CONTINUOUS
 10
69.0402887067
 20
210.16319705
  0
VERTEX
  8
0
 62
9
  6
CONTINUOUS
 10
69.2229381759
 20
210.3182120671
  0
VERTEX
  8
0
 62
9
  6
CONTINUOUS
 10
69.2924067895
 20
210.531638266
  0
SEQEND
  0
POLYLINE
  8
0
 62
9
  6
CONTINUOUS
 66
1
 70
0
  0
VERTEX
  8
0
 62
9
  6
CONTINUOUS
 10
40.2790050155
 20
211.4394025743
  0
VERTEX
  8
0
 62
9
  6
CONTINUOUS
 10
40.3873156049
 20
211.4193105524
  0
VERTEX
  8
0
 62
9
  6
CONTINUOUS
 10
40.4635900471
 20
211.3929418758
  0
VERTEX
  8
0
 62
9
  6
CONTINUOUS
 10
40.636452788
 20
211.3054230888
  0
SEQEND
  0
POLYLINE
  8
0
 62
9
  6
CONTINUOUS
 66
1
 70
0
  0
VERTEX
  8
0
 62
9
  6
CONTINUOUS
 10
51.0217691705
 20
210.1073517674
  0
VERTEX
  8
0
 62
9
  6
CONTINUOUS
 10
50.7739631746
 20
210.163197163
  0
VERTEX
  8
0
 62
9
  6
CONTINUOUS
 10
50.5913137793
 20
210.3182122966
  0
VERTEX
  8
0
 62
9
  6
CONTINUOUS
 10
50.521845323
 20
210.531638266
  0
SEQEND
  0
LINE
  8
0
 62
9
  6
CONTINUOUS
 10
41.2371260562
 20
215.6394025749
 11
40.2370125542
 21
216.13945947
  0
POLYLINE
  8
0
 62
9
  6
CONTINUOUS
 66
1
 70
0
  0
VERTEX
  8
0
 62
9
  6
CONTINUOUS
 10
43.9540126021
 20
215.9672441498
  0
VERTEX
  8
0
 62
9
  6
CONTINUOUS
 10
44.0518938268
 20
215.9155644003
  0
VERTEX
  8
0
 62
9
  6
CONTINUOUS
 10
44.1137115022
 20
215.8534823399
  0
VERTEX
  8
0
 62
9
  6
CONTINUOUS
 10
44.1341282541
 20
215.7863581667
  0
SEQEND
  0
LINE
  8
0
 62
7
  6
CONTINUOUS
 10
50.4725064955
 20
215.5941825135
 11
50.4963404286
 21
215.5596605871
  0
POLYLINE
  8
0
 62
9
  6
CONTINUOUS
 66
1
 70
0
  0
VERTEX
  8
0
 62
9
  6
CONTINUOUS
 10
49.738975139
 20
218.6394025749
  0
VERTEX
  8
0
 62
9
  6
CONTINUOUS
 10
49.7714604221
 20
218.572605787
  0
VERTEX
  8
0
 62
9
  6
CONTINUOUS
 10
49.7952662343
 20
218.3900602886
  0
VERTEX
  8
0
 62
9
  6
CONTINUOUS
 10
49.8040314809
 20
218.1405381376
  0
SEQEND
  0
LINE
  8
0
 62
7
  6
CONTINUOUS
 10
50.3485394304
 20
215.6372842588
 11
50.3537897768
 21
215.6395603705
  0
POLYLINE
  8
0
 62
9
  6
CONTINUOUS
 66
1
 70
0
  0
VERTEX
  8
0
 62
9
  6
CONTINUOUS
 10
40.7371260562
 20
214.0683950411
  0
VERTEX
  8
0
 62
9
  6
CONTINUOUS
 10
40.7496621001
 20
214.0722779754
  0
VERTEX
  8
0
 62
9
  6
CONTINUOUS
 10
40.846210315
 20
214.0792747812
  0
VERTEX
  8
0
 62
9
  6
CONTINUOUS
 10
40.9253811553
 20
214.0820378037
  0
VERTEX
  8
0
 62
9
  6
CONTINUOUS
 10
41.1258655892
 20
214.0854072878
  0
SEQEND
  0
POLYLINE
  8
0
 62
7
  6
CONTINUOUS
 66
1
 70
0
  0
VERTEX
  8
0
 62
7
  6
CONTINUOUS
 10
43.9571260562
 20
214.2394025749
  0
VERTEX
  8
0
 62
7
  6
CONTINUOUS
 10
43.9445727491
 20
214.2355173079
  0
VERTEX
  8
0
 62
7
  6
CONTINUOUS
 10
43.8479977546
 20
214.228521638
  0
VERTEX
  8
0
 62
7
  6
CONTINUOUS
 10
43.7688444792
 20
214.2257598751
  0
VERTEX
  8
0
 62
7
  6
CONTINUOUS
 10
43.5683746239
 20
214.2223907053
  0
VERTEX
  8
0
 62
7
  6
CONTINUOUS
 10
43.4570498922
 20
214.2219528266
  0
SEQEND
  0
POLYLINE
  8
0
 62
9
  6
CONTINUOUS
 66
1
 70
0
  0
VERTEX
  8
0
 62
9
  6
CONTINUOUS
 10
68.807213184
 20
210.9512467732
  0
VERTEX
  8
0
 62
9
  6
CONTINUOUS
 10
69.0550190871
 20
211.007092124
  0
VERTEX
  8
0
 62
9
  6
CONTINUOUS
 10
69.2376685069
 20
211.1621072032
  0
VERTEX
  8
0
 62
9
  6
CONTINUOUS
 10
69.3071370316
 20
211.3755332718
  0
SEQEND
  0
POLYLINE
  8
0
 62
9
  6
CONTINUOUS
 66
1
 70
0
  0
VERTEX
  8
0
 62
9
  6
CONTINUOUS
 10
68.8085540307
 20
211.1048810494
  0
VERTEX
  8
0
 62
9
  6
CONTINUOUS
 10
69.0567386195
 20
211.1497331858
  0
VERTEX
  8
0
 62
9
  6
CONTINUOUS
 10
69.2394472713
 20
211.2767238136
  0
VERTEX
  8
0
 62
9
  6
CONTINUOUS
 10
69.3084778783
 20
211.452350327
  0
SEQEND
  0
LINE
  8
2_FEATURE
 62
7
  6
CONTINUOUS
 10
81.5571260562
 20
209.8394025749
 11
76.4252769734
 21
209.8394025749
  0
LINE
  8
0
 62
7
  6
CONTINUOUS
 10
81.5571260562
 20
209.8394025749
 11
76.4252769734
 21
209.8394025749
  0
LINE
  8
2_FEATURE
 62
7
  6
CONTINUOUS
 10
68.788975139
 20
209.8394025749
 11
63.7252769734
 21
209.8394025749
  0
LINE
  8
0
 62
7
  6
CONTINUOUS
 10
68.788975139
 20
209.8394025749
 11
63.7252769734
 21
209.8394025749
  0
LINE
  8
2_FEATURE
 62
7
  6
CONTINUOUS
 10
56.088975139
 20
209.8394025749
 11
51.0252769734
 21
209.8394025749
  0
LINE
  8
0
 62
7
  6
CONTINUOUS
 10
56.088975139
 20
209.8394025749
 11
51.0252769734
 21
209.8394025749
  0
LINE
  8
2_FEATURE
 62
7
  6
CONTINUOUS
 10
43.388975139
 20
209.8394025749
 11
38.3671260562
 21
209.8394025749
  0
LINE
  8
0
 62
7
  6
CONTINUOUS
 10
43.388975139
 20
209.8394025749
 11
38.3671260562
 21
209.8394025749
  0
LINE
  8
0
 62
7
  6
CONTINUOUS
 10
44.6752769734
 20
209.8394025749
 11
48.868975139
 21
209.8394025749
  0
LINE
  8
2_FEATURE
 62
7
  6
CONTINUOUS
 10
44.6752769734
 20
209.8394025749
 11
48.868975139
 21
209.8394025749
  0
LINE
  8
0
 62
7
  6
CONTINUOUS
 10
57.3752769734
 20
209.8394025749
 11
62.438975139
 21
209.8394025749
  0
LINE
  8
2_FEATURE
 62
7
  6
CONTINUOUS
 10
57.3752769734
 20
209.8394025749
 11
62.438975139
 21
209.8394025749
  0
LINE
  8
0
 62
7
  6
CONTINUOUS
 10
70.0752769734
 20
209.8394025749
 11
75.138975139
 21
209.8394025749
  0
LINE
  8
2_FEATURE
 62
7
  6
CONTINUOUS
 10
70.0752769734
 20
209.8394025749
 11
75.138975139
 21
209.8394025749
  0
POLYLINE
  8
0
 62
9
  6
CONTINUOUS
 66
1
 70
0
  0
VERTEX
  8
0
 62
9
  6
CONTINUOUS
 10
51.0056980817
 20
211.1048814931
  0
VERTEX
  8
0
 62
9
  6
CONTINUOUS
 10
50.7575135636
 20
211.1497335612
  0
VERTEX
  8
0
 62
9
  6
CONTINUOUS
 10
50.5748049227
 20
211.2767240192
  0
VERTEX
  8
0
 62
9
  6
CONTINUOUS
 10
50.5057742341
 20
211.452350327
  0
SEQEND
  0
POLYLINE
  8
0
 62
9
  6
CONTINUOUS
 66
1
 70
0
  0
VERTEX
  8
0
 62
9
  6
CONTINUOUS
 10
51.0070389284
 20
210.9512467732
  0
VERTEX
  8
0
 62
9
  6
CONTINUOUS
 10
50.7592331635
 20
211.0070920558
  0
VERTEX
  8
0
 62
9
  6
CONTINUOUS
 10
50.5765836944
 20
211.1621070729
  0
VERTEX
  8
0
 62
9
  6
CONTINUOUS
 10
50.5071150808
 20
211.3755332718
  0
SEQEND
  0
LINE
  8
0
 62
7
  6
CONTINUOUS
 10
44.0525283814
 20
215.6423150034
 11
44.0669352362
 21
215.636708687
  0
LINE
  8
0
 62
7
  6
CONTINUOUS
 10
50.4157719455
 20
215.6372576753
 11
50.4725064955
 21
215.5941825135
  0
LINE
  8
0
 62
9
  6
CONTINUOUS
 10
56.1570498922
 20
214.2219528266
 11
56.1407228904
 21
215.1568523233
  0
LINE
  8
0
 62
7
  6
CONTINUOUS
 10
56.6326889653
 20
215.6394025749
 11
56.6571260562
 21
214.2394025749
  0
LINE
  8
0
 62
7
  6
CONTINUOUS
 10
56.8071260562
 20
214.2394025749
 11
56.8753531259
 21
210.3306763717
  0
LINE
  8
0
 62
9
  6
CONTINUOUS
 10
56.1407311608
 20
215.6394025749
 11
56.1407311608
 21
215.1568523233
  0
LINE
  8
0
 62
9
  6
CONTINUOUS
 10
56.1901916663
 20
216.1394025749
 11
56.190191666
 21
215.6394025749
  0
LINE
  8
0
 62
9
  6
CONTINUOUS
 10
56.2251017962
 20
218.6394025749
 11
56.2251017962
 21
218.1394025749
  0
POLYLINE
  8
0
 62
9
  6
CONTINUOUS
 66
1
 70
0
  0
VERTEX
  8
0
 62
9
  6
CONTINUOUS
 10
56.6304643074
 20
215.6394025749
  0
VERTEX
  8
0
 62
9
  6
CONTINUOUS
 10
56.6303265746
 20
215.6183765916
  0
VERTEX
  8
0
 62
9
  6
CONTINUOUS
 10
56.6284542487
 20
215.5741961312
  0
SEQEND
  0
LINE
  8
0
 62
9
  6
CONTINUOUS
 10
56.107213184
 20
210.9512467732
 11
56.1085540582
 21
211.1048841848
  0
LINE
  8
0
 62
9
  6
CONTINUOUS
 10
56.088975099
 20
209.8394025749
 11
56.0924832085
 21
210.1073748088
  0
LINE
  8
0
 62
9
  6
CONTINUOUS
 10
56.1901598501
 20
216.1394025749
 11
56.225104555
 21
218.1394025749
  0
LINE
  8
0
 62
9
  6
CONTINUOUS
 10
56.1085540836
 20
211.1048841848
 11
56.1570498922
 21
214.2219528266
  0
LINE
  8
0
 62
9
  6
CONTINUOUS
 10
56.0924833441
 20
210.1073748084
 11
56.107213184
 21
210.9512467732
  0
LINE
  8
0
 62
7
  6
CONTINUOUS
 10
56.5888989865
 20
210.3306763717
 11
56.6571260562
 21
214.2394025749
  0
LINE
  8
0
 62
7
  6
CONTINUOUS
 10
56.8753531259
 20
218.1481287782
 11
56.8071260562
 21
214.2394025749
  0
POLYLINE
  8
0
 62
9
  6
CONTINUOUS
 66
1
 70
0
  0
VERTEX
  8
0
 62
9
  6
CONTINUOUS
 10
56.6276013375
 20
215.5540703571
  0
VERTEX
  8
0
 62
9
  6
CONTINUOUS
 10
56.6253511296
 20
215.5009731784
  0
VERTEX
  8
0
 62
9
  6
CONTINUOUS
 10
56.619405626
 20
215.4366048875
  0
VERTEX
  8
0
 62
9
  6
CONTINUOUS
 10
56.5924470371
 20
215.3024398044
  0
VERTEX
  8
0
 62
9
  6
CONTINUOUS
 10
56.5225305811
 20
215.1863591173
  0
VERTEX
  8
0
 62
9
  6
CONTINUOUS
 10
56.4065735106
 20
215.1495561825
  0
SEQEND
  0
POLYLINE
  8
0
 62
7
  6
CONTINUOUS
 66
1
 70
0
  0
VERTEX
  8
0
 62
7
  6
CONTINUOUS
 10
56.6155821993
 20
215.5545797168
  0
VERTEX
  8
0
 62
7
  6
CONTINUOUS
 10
56.6154124293
 20
215.5540266988
  0
VERTEX
  8
0
 62
7
  6
CONTINUOUS
 10
56.6403616139
 20
215.5926111078
  0
SEQEND
  0
POLYLINE
  8
0
 62
9
  6
CONTINUOUS
 66
1
 70
0
  0
VERTEX
  8
0
 62
9
  6
CONTINUOUS
 10
56.8404412311
 20
216.1481287545
  0
VERTEX
  8
0
 62
9
  6
CONTINUOUS
 10
56.7917083224
 20
216.0670535155
  0
VERTEX
  8
0
 62
9
  6
CONTINUOUS
 10
56.6035373054
 20
215.9304037336
  0
SEQEND
  0
POLYLINE
  8
0
 62
9
  6
CONTINUOUS
 66
1
 70
0
  0
VERTEX
  8
0
 62
9
  6
CONTINUOUS
 10
56.6035373054
 20
215.9304037336
  0
VERTEX
  8
0
 62
9
  6
CONTINUOUS
 10
56.551441356
 20
215.8823268878
  0
VERTEX
  8
0
 62
9
  6
CONTINUOUS
 10
56.511591268
 20
215.8227682286
  0
VERTEX
  8
0
 62
9
  6
CONTINUOUS
 10
56.5026312352
 20
215.7899944776
  0
VERTEX
  8
0
 62
9
  6
CONTINUOUS
 10
56.5214700239
 20
215.7212444915
  0
VERTEX
  8
0
 62
9
  6
CONTINUOUS
 10
56.6213820234
 20
215.6605748007
  0
VERTEX
  8
0
 62
9
  6
CONTINUOUS
 10
56.7527713881
 20
215.6442736457
  0
SEQEND
  0
LINE
  8
0
 62
7
  6
CONTINUOUS
 10
56.6403616139
 20
215.5926111078
 11
56.6973562858
 21
215.6367282077
  0
LINE
  8
0
 62
9
  6
CONTINUOUS
 10
40.5406063327
 20
211.5187265131
 11
40.2789881459
 21
211.4393988925
  0
POLYLINE
  8
0
 62
9
  6
CONTINUOUS
 66
1
 70
0
  0
VERTEX
  8
0
 62
9
  6
CONTINUOUS
 10
56.0924829419
 20
210.1073517674
  0
VERTEX
  8
0
 62
9
  6
CONTINUOUS
 10
56.3402887067
 20
210.16319705
  0
VERTEX
  8
0
 62
9
  6
CONTINUOUS
 10
56.5229381759
 20
210.3182120671
  0
VERTEX
  8
0
 62
9
  6
CONTINUOUS
 10
56.5924067895
 20
210.531638266
  0
SEQEND
  0
LINE
  8
0
 62
9
  6
CONTINUOUS
 10
68.7924833441
 20
210.1073748084
 11
63.7217687683
 21
210.1073748084
  0
LINE
  8
0
 62
9
  6
CONTINUOUS
 10
56.0924833441
 20
210.1073748084
 11
51.0217687683
 21
210.1073748084
  0
LINE
  8
0
 62
9
  6
CONTINUOUS
 10
81.5571260562
 20
210.1073517674
 11
76.4217687683
 21
210.1073748084
  0
LINE
  8
0
 62
9
  6
CONTINUOUS
 10
43.3924833441
 20
210.1073748084
 11
38.3671260562
 21
210.1073517674
  0
LINE
  8
0
 62
9
  6
CONTINUOUS
 10
78.6871260562
 20
210.9512467732
 11
76.4070389284
 21
210.9512467732
  0
LINE
  8
0
 62
9
  6
CONTINUOUS
 10
68.807213184
 20
210.9512467732
 11
63.7070389284
 21
210.9512467732
  0
LINE
  8
0
 62
9
  6
CONTINUOUS
 10
56.107213184
 20
210.9512467732
 11
51.0070389284
 21
210.9512467732
  0
LINE
  8
0
 62
9
  6
CONTINUOUS
 10
43.407213184
 20
210.9512467732
 11
41.2371260562
 21
210.9512467732
  0
LINE
  8
0
 62
9
  6
CONTINUOUS
 10
68.8085540836
 20
211.1048841848
 11
63.705698029
 21
211.1048841731
  0
LINE
  8
0
 62
9
  6
CONTINUOUS
 10
56.1085540836
 20
211.1048841848
 11
51.005698029
 21
211.1048841731
  0
LINE
  8
0
 62
9
  6
CONTINUOUS
 10
78.6871260562
 20
211.1048808834
 11
76.405698029
 21
211.1048841731
  0
LINE
  8
0
 62
9
  6
CONTINUOUS
 10
43.4085540836
 20
211.1048841848
 11
41.2371260562
 21
211.1048808834
  0
LINE
  8
0
 62
9
  6
CONTINUOUS
 10
81.5571260562
 20
211.3054279787
 11
79.2878018485
 21
211.3054230651
  0
LINE
  8
0
 62
9
  6
CONTINUOUS
 10
40.6364502384
 20
211.3054230889
 11
38.3671260562
 21
211.3054279787
  0
POLYLINE
  8
0
 62
9
  6
CONTINUOUS
 66
1
 70
0
  0
VERTEX
  8
0
 62
9
  6
CONTINUOUS
 10
63.7217691705
 20
210.1073517674
  0
VERTEX
  8
0
 62
9
  6
CONTINUOUS
 10
63.4739631746
 20
210.163197163
  0
VERTEX
  8
0
 62
9
  6
CONTINUOUS
 10
63.2913137793
 20
210.3182122966
  0
VERTEX
  8
0
 62
9
  6
CONTINUOUS
 10
63.221845323
 20
210.531638266
  0
SEQEND
  0
POLYLINE
  8
0
 62
7
  6
CONTINUOUS
 66
1
 70
0
  0
VERTEX
  8
0
 62
7
  6
CONTINUOUS
 10
50.4571260562
 20
214.2394025749
  0
VERTEX
  8
0
 62
7
  6
CONTINUOUS
 10
50.4696532983
 20
214.2355212924
  0
VERTEX
  8
0
 62
7
  6
CONTINUOUS
 10
50.5662251463
 20
214.2285229161
  0
VERTEX
  8
0
 62
7
  6
CONTINUOUS
 10
50.6454442608
 20
214.2257588559
  0
VERTEX
  8
0
 62
7
  6
CONTINUOUS
 10
50.8459916633
 20
214.2223897961
  0
VERTEX
  8
0
 62
7
  6
CONTINUOUS
 10
50.9572022202
 20
214.2219528266
  0
SEQEND
  0
POLYLINE
  8
0
 62
9
  6
CONTINUOUS
 66
1
 70
0
  0
VERTEX
  8
0
 62
9
  6
CONTINUOUS
 10
50.4420817941
 20
215.6393984944
  0
VERTEX
  8
0
 62
9
  6
CONTINUOUS
 10
50.5733476877
 20
215.5740999009
  0
VERTEX
  8
0
 62
9
  6
CONTINUOUS
 10
50.6703249022
 20
215.3952448707
  0
VERTEX
  8
0
 62
9
  6
CONTINUOUS
 10
50.7076807126
 20
215.1495562222
  0
SEQEND
  0
POLYLINE
  8
0
 62
9
  6
CONTINUOUS
 66
1
 70
0
  0
VERTEX
  8
0
 62
9
  6
CONTINUOUS
 10
49.777019063
 20
216.1804400711
  0
VERTEX
  8
0
 62
9
  6
CONTINUOUS
 10
49.5966815527
 20
216.2706591457
  0
VERTEX
  8
0
 62
9
  6
CONTINUOUS
 10
49.4144593076
 20
216.4326768166
  0
VERTEX
  8
0
 62
9
  6
CONTINUOUS
 10
49.2467792222
 20
216.6445652797
  0
VERTEX
  8
0
 62
9
  6
CONTINUOUS
 10
49.1741848172
 20
216.7572304095
  0
VERTEX
  8
0
 62
9
  6
CONTINUOUS
 10
49.0484103501
 20
216.9933943438
  0
VERTEX
  8
0
 62
9
  6
CONTINUOUS
 10
48.9413630241
 20
217.2734307961
  0
VERTEX
  8
0
 62
9
  6
CONTINUOUS
 10
48.8849255179
 20
217.6084525656
  0
SEQEND
  0
POLYLINE
  8
0
 62
9
  6
CONTINUOUS
 66
1
 70
0
  0
VERTEX
  8
0
 62
9
  6
CONTINUOUS
 10
50.4602323281
 20
215.9672446464
  0
VERTEX
  8
0
 62
9
  6
CONTINUOUS
 10
50.3225895336
 20
216.0670217318
  0
VERTEX
  8
0
 62
9
  6
CONTINUOUS
 10
50.2738109478
 20
216.1481287536
  0
SEQEND
  0
LINE
  8
0
 62
9
  6
CONTINUOUS
 10
57.3072022202
 20
214.2394025749
 11
57.3752770649
 21
209.8394025749
  0
LINE
  8
0
 62
9
  6
CONTINUOUS
 10
57.3752770643
 20
218.6394025749
 11
57.3072022202
 21
214.2394025749
  0
POLYLINE
  8
0
 62
9
  6
CONTINUOUS
 66
1
 70
0
  0
VERTEX
  8
0
 62
9
  6
CONTINUOUS
 10
56.6721662263
 20
215.6394000706
  0
VERTEX
  8
0
 62
9
  6
CONTINUOUS
 10
56.5409028647
 20
215.5740981759
  0
VERTEX
  8
0
 62
9
  6
CONTINUOUS
 10
56.4439277502
 20
215.395243109
  0
VERTEX
  8
0
 62
9
  6
CONTINUOUS
 10
56.4065728369
 20
215.1495562082
  0
SEQEND
  0
LINE
  8
0
 62
7
  6
CONTINUOUS
 10
56.6973562858
 20
215.6367282077
 11
56.7028160745
 21
215.6391597521
  0
POLYLINE
  8
0
 62
9
  6
CONTINUOUS
 66
1
 70
0
  0
VERTEX
  8
0
 62
9
  6
CONTINUOUS
 10
56.107213184
 20
210.9512467732
  0
VERTEX
  8
0
 62
9
  6
CONTINUOUS
 10
56.3550190871
 20
211.007092124
  0
VERTEX
  8
0
 62
9
  6
CONTINUOUS
 10
56.5376685069
 20
211.1621072032
  0
VERTEX
  8
0
 62
9
  6
CONTINUOUS
 10
56.6071370316
 20
211.3755332718
  0
SEQEND
  0
POLYLINE
  8
0
 62
9
  6
CONTINUOUS
 66
1
 70
0
  0
VERTEX
  8
0
 62
9
  6
CONTINUOUS
 10
56.1085540307
 20
211.1048810494
  0
VERTEX
  8
0
 62
9
  6
CONTINUOUS
 10
56.3567386195
 20
211.1497331858
  0
VERTEX
  8
0
 62
9
  6
CONTINUOUS
 10
56.5394472713
 20
211.2767238136
  0
VERTEX
  8
0
 62
9
  6
CONTINUOUS
 10
56.6084778783
 20
211.452350327
  0
SEQEND
  0
LINE
  8
0
 62
9
  6
CONTINUOUS
 10
41.2371260562
 20
211.1048808834
 11
41.1464291146
 21
211.0988839236
  0
LINE
  8
2_FEATURE
 62
7
  6
CONTINUOUS
 10
40.2371260562
 20
211.4394025749
 11
38.3671260562
 21
211.4394025749
  0
LINE
  8
0
 62
7
  6
CONTINUOUS
 10
38.3671260562
 20
211.4394025749
 11
40.2789951074
 21
211.4394025749
  0
LINE
  8
0
 62
7
  6
CONTINUOUS
 10
79.6452568803
 20
211.4394025749
 11
81.5571260562
 21
211.4394025749
  0
LINE
  8
0
 62
9
  6
CONTINUOUS
 10
37.8671260562
 20
212.4394025749
 11
40.7371260562
 21
212.4394025749
  0
LINE
  8
0
 62
9
  6
CONTINUOUS
 10
82.0571260562
 20
212.4394025749
 11
79.1871260562
 21
212.4394025749
  0
LINE
  8
0
 62
9
  6
CONTINUOUS
 10
78.7778222562
 20
211.0988830582
 11
78.6871260562
 21
211.1048808834
  0
POLYLINE
  8
0
 62
9
  6
CONTINUOUS
 66
1
 70
0
  0
VERTEX
  8
0
 62
9
  6
CONTINUOUS
 10
63.7056980817
 20
211.1048814931
  0
VERTEX
  8
0
 62
9
  6
CONTINUOUS
 10
63.4575135636
 20
211.1497335612
  0
VERTEX
  8
0
 62
9
  6
CONTINUOUS
 10
63.2748049227
 20
211.2767240192
  0
VERTEX
  8
0
 62
9
  6
CONTINUOUS
 10
63.2057742341
 20
211.452350327
  0
SEQEND
  0
POLYLINE
  8
0
 62
9
  6
CONTINUOUS
 66
1
 70
0
  0
VERTEX
  8
0
 62
9
  6
CONTINUOUS
 10
63.7070389284
 20
210.9512467732
  0
VERTEX
  8
0
 62
9
  6
CONTINUOUS
 10
63.4592331635
 20
211.0070920558
  0
VERTEX
  8
0
 62
9
  6
CONTINUOUS
 10
63.2765836944
 20
211.1621070729
  0
VERTEX
  8
0
 62
9
  6
CONTINUOUS
 10
63.2071150808
 20
211.3755332718
  0
SEQEND
  0
POLYLINE
  8
0
 62
9
  6
CONTINUOUS
 66
1
 70
0
  0
VERTEX
  8
0
 62
9
  6
CONTINUOUS
 10
50.7076786465
 20
215.1495561432
  0
VERTEX
  8
0
 62
9
  6
CONTINUOUS
 10
50.5940592838
 20
215.184421129
  0
VERTEX
  8
0
 62
9
  6
CONTINUOUS
 10
50.5239742125
 20
215.2958665383
  0
VERTEX
  8
0
 62
9
  6
CONTINUOUS
 10
50.4960467579
 20
215.4267331853
  0
VERTEX
  8
0
 62
9
  6
CONTINUOUS
 10
50.4896416727
 20
215.4909183833
  0
VERTEX
  8
0
 62
9
  6
CONTINUOUS
 10
50.4864892063
 20
215.5592058087
  0
SEQEND
  0
POLYLINE
  8
0
 62
7
  6
CONTINUOUS
 66
1
 70
0
  0
VERTEX
  8
0
 62
7
  6
CONTINUOUS
 10
49.9054124575
 20
216.4431000925
  0
VERTEX
  8
0
 62
7
  6
CONTINUOUS
 10
49.8917722103
 20
216.4480334861
  0
VERTEX
  8
0
 62
7
  6
CONTINUOUS
 10
49.8768277051
 20
216.455215249
  0
VERTEX
  8
0
 62
7
  6
CONTINUOUS
 10
49.8590409504
 20
216.4654770431
  0
VERTEX
  8
0
 62
7
  6
CONTINUOUS
 10
49.8400642568
 20
216.477983676
  0
VERTEX
  8
0
 62
7
  6
CONTINUOUS
 10
49.8205369441
 20
216.4923425507
  0
VERTEX
  8
0
 62
7
  6
CONTINUOUS
 10
49.8006800504
 20
216.5082894483
  0
VERTEX
  8
0
 62
7
  6
CONTINUOUS
 10
49.7806128587
 20
216.5256863219
  0
VERTEX
  8
0
 62
7
  6
CONTINUOUS
 10
49.7598569709
 20
216.5449688703
  0
VERTEX
  8
0
 62
7
  6
CONTINUOUS
 10
49.7378506024
 20
216.5667646872
  0
VERTEX
  8
0
 62
7
  6
CONTINUOUS
 10
49.7138740845
 20
216.5920645531
  0
VERTEX
  8
0
 62
7
  6
CONTINUOUS
 10
49.6886995828
 20
216.6203472839
  0
VERTEX
  8
0
 62
7
  6
CONTINUOUS
 10
49.6634829061
 20
216.6504471313
  0
VERTEX
  8
0
 62
7
  6
CONTINUOUS
 10
49.6384384512
 20
216.6821391278
  0
VERTEX
  8
0
 62
7
  6
CONTINUOUS
 10
49.6136243762
 20
216.7153800066
  0
VERTEX
  8
0
 62
7
  6
CONTINUOUS
 10
49.5890940994
 20
216.7501576759
  0
VERTEX
  8
0
 62
7
  6
CONTINUOUS
 10
49.564406186
 20
216.7872544796
  0
VERTEX
  8
0
 62
7
  6
CONTINUOUS
 10
49.5378869714
 20
216.8297313767
  0
VERTEX
  8
0
 62
7
  6
CONTINUOUS
 10
49.5107703617
 20
216.8764608553
  0
VERTEX
  8
0
 62
7
  6
CONTINUOUS
 10
49.4843533947
 20
216.9259450331
  0
VERTEX
  8
0
 62
7
  6
CONTINUOUS
 10
49.4594983658
 20
216.9772211141
  0
VERTEX
  8
0
 62
7
  6
CONTINUOUS
 10
49.4370236505
 20
217.0292470192
  0
VERTEX
  8
0
 62
7
  6
CONTINUOUS
 10
49.4176831688
 20
217.0809361076
  0
VERTEX
  8
0
 62
7
  6
CONTINUOUS
 10
49.4022750086
 20
217.130783716
  0
VERTEX
  8
0
 62
7
  6
CONTINUOUS
 10
49.3915764738
 20
217.1764680634
  0
VERTEX
  8
0
 62
7
  6
CONTINUOUS
 10
49.3859822358
 20
217.2148265883
  0
VERTEX
  8
0
 62
7
  6
CONTINUOUS
 10
49.3848491747
 20
217.2343163565
  0
SEQEND
  0
LINE
  8
0
 62
7
  6
CONTINUOUS
 10
50.4101657811
 20
215.6394025749
 11
50.4157719455
 21
215.6372576753
  0
POLYLINE
  8
0
 62
9
  6
CONTINUOUS
 66
1
 70
0
  0
VERTEX
  8
0
 62
9
  6
CONTINUOUS
 10
63.1602310729
 20
215.9672453222
  0
VERTEX
  8
0
 62
9
  6
CONTINUOUS
 10
63.0623537654
 20
215.9155652537
  0
VERTEX
  8
0
 62
9
  6
CONTINUOUS
 10
63.0005390412
 20
215.8534833727
  0
VERTEX
  8
0
 62
9
  6
CONTINUOUS
 10
62.980123817
 20
215.7863598246
  0
SEQEND
  0
LINE
  8
0
 62
7
  6
CONTINUOUS
 10
63.0485394304
 20
215.6372842588
 11
63.0537897768
 21
215.6395603705
  0
POLYLINE
  8
0
 62
7
  6
CONTINUOUS
 66
1
 70
0
  0
VERTEX
  8
0
 62
7
  6
CONTINUOUS
 10
56.6571260562
 20
214.2394025749
  0
VERTEX
  8
0
 62
7
  6
CONTINUOUS
 10
56.6445727491
 20
214.2355173079
  0
VERTEX
  8
0
 62
7
  6
CONTINUOUS
 10
56.5479977546
 20
214.228521638
  0
VERTEX
  8
0
 62
7
  6
CONTINUOUS
 10
56.4688444792
 20
214.2257598751
  0
VERTEX
  8
0
 62
7
  6
CONTINUOUS
 10
56.2683746239
 20
214.2223907053
  0
VERTEX
  8
0
 62
7
  6
CONTINUOUS
 10
56.1570498922
 20
214.2219528266
  0
SEQEND
  0
POLYLINE
  8
0
 62
9
  6
CONTINUOUS
 66
1
 70
0
  0
VERTEX
  8
0
 62
9
  6
CONTINUOUS
 10
43.3924829419
 20
210.1073517674
  0
VERTEX
  8
0
 62
9
  6
CONTINUOUS
 10
43.6402887067
 20
210.16319705
  0
VERTEX
  8
0
 62
9
  6
CONTINUOUS
 10
43.8229381759
 20
210.3182120671
  0
VERTEX
  8
0
 62
9
  6
CONTINUOUS
 10
43.8924067895
 20
210.531638266
  0
SEQEND
  0
POLYLINE
  8
0
 62
9
  6
CONTINUOUS
 66
1
 70
0
  0
VERTEX
  8
0
 62
9
  6
CONTINUOUS
 10
48.8849255179
 20
210.870351553
  0
VERTEX
  8
0
 62
9
  6
CONTINUOUS
 10
49.1329771525
 20
210.9190021533
  0
VERTEX
  8
0
 62
9
  6
CONTINUOUS
 10
49.3156648772
 20
211.0557180039
  0
VERTEX
  8
0
 62
9
  6
CONTINUOUS
 10
49.3848489251
 20
211.2444729786
  0
SEQEND
  0
POLYLINE
  8
0
 62
9
  6
CONTINUOUS
 66
1
 70
0
  0
VERTEX
  8
0
 62
9
  6
CONTINUOUS
 10
43.4085540307
 20
211.1048810494
  0
VERTEX
  8
0
 62
9
  6
CONTINUOUS
 10
43.6567386195
 20
211.1497331858
  0
VERTEX
  8
0
 62
9
  6
CONTINUOUS
 10
43.8394472713
 20
211.2767238136
  0
VERTEX
  8
0
 62
9
  6
CONTINUOUS
 10
43.9084778783
 20
211.452350327
  0
SEQEND
  0
POLYLINE
  8
0
 62
9
  6
CONTINUOUS
 66
1
 70
0
  0
VERTEX
  8
0
 62
9
  6
CONTINUOUS
 10
75.7533564315
 20
215.6431575345
  0
VERTEX
  8
0
 62
9
  6
CONTINUOUS
 10
75.8894441574
 20
215.6595518319
  0
VERTEX
  8
0
 62
9
  6
CONTINUOUS
 10
75.9901321264
 20
215.7178791489
  0
VERTEX
  8
0
 62
9
  6
CONTINUOUS
 10
76.012095253
 20
215.7850092828
  0
VERTEX
  8
0
 62
9
  6
CONTINUOUS
 10
76.0046670491
 20
215.8177103466
  0
VERTEX
  8
0
 62
9
  6
CONTINUOUS
 10
75.965754321
 20
215.8790635439
  0
VERTEX
  8
0
 62
9
  6
CONTINUOUS
 10
75.9122718477
 20
215.9291440567
  0
VERTEX
  8
0
 62
9
  6
CONTINUOUS
 10
75.8602323281
 20
215.9672446464
  0
SEQEND
  0
POLYLINE
  8
0
 62
9
  6
CONTINUOUS
 66
1
 70
0
  0
VERTEX
  8
0
 62
9
  6
CONTINUOUS
 10
49.777019063
 20
212.2983650788
  0
VERTEX
  8
0
 62
9
  6
CONTINUOUS
 10
50.0258769648
 20
212.3241354256
  0
VERTEX
  8
0
 62
9
  6
CONTINUOUS
 10
50.2086902793
 20
212.4016040617
  0
VERTEX
  8
0
 62
9
  6
CONTINUOUS
 10
50.2769429105
 20
212.510211318
  0
SEQEND
  0
POLYLINE
  8
0
 62
9
  6
CONTINUOUS
 66
1
 70
0
  0
VERTEX
  8
0
 62
9
  6
CONTINUOUS
 10
76.3595779949
 20
214.0858447894
  0
VERTEX
  8
0
 62
9
  6
CONTINUOUS
 10
76.1097038884
 20
214.0838245857
  0
VERTEX
  8
0
 62
9
  6
CONTINUOUS
 10
75.9267326683
 20
214.0870173887
  0
VERTEX
  8
0
 62
9
  6
CONTINUOUS
 10
75.8596541473
 20
214.0945683346
  0
SEQEND
  0
POLYLINE
  8
0
 62
9
  6
CONTINUOUS
 66
1
 70
0
  0
VERTEX
  8
0
 62
9
  6
CONTINUOUS
 10
63.6595779948
 20
214.0858447894
  0
VERTEX
  8
0
 62
9
  6
CONTINUOUS
 10
63.4097038884
 20
214.0838245857
  0
VERTEX
  8
0
 62
9
  6
CONTINUOUS
 10
63.2267326683
 20
214.0870173887
  0
VERTEX
  8
0
 62
9
  6
CONTINUOUS
 10
63.1596541473
 20
214.0945683346
  0
SEQEND
  0
POLYLINE
  8
0
 62
9
  6
CONTINUOUS
 66
1
 70
0
  0
VERTEX
  8
0
 62
9
  6
CONTINUOUS
 10
50.9595779949
 20
214.0858447894
  0
VERTEX
  8
0
 62
9
  6
CONTINUOUS
 10
50.7097038884
 20
214.0838245857
  0
VERTEX
  8
0
 62
9
  6
CONTINUOUS
 10
50.5267326683
 20
214.0870173887
  0
VERTEX
  8
0
 62
9
  6
CONTINUOUS
 10
50.4596541473
 20
214.0945683346
  0
SEQEND
  0
LINE
  8
0
 62
9
  6
CONTINUOUS
 10
56.1546744004
 20
214.0858609955
 11
50.9595777112
 21
214.0858610389
  0
LINE
  8
0
 62
9
  6
CONTINUOUS
 10
68.8546744004
 20
214.0858609955
 11
63.6595777112
 21
214.0858610389
  0
LINE
  8
0
 62
9
  6
CONTINUOUS
 10
43.4546744004
 20
214.0858609955
 11
41.1258655892
 21
214.0854072878
  0
LINE
  8
0
 62
7
  6
CONTINUOUS
 10
75.7071260562
 20
214.2394025749
 11
75.2070498922
 21
214.2394025749
  0
LINE
  8
0
 62
7
  6
CONTINUOUS
 10
63.0071260562
 20
214.2394025749
 11
62.5070498922
 21
214.2394025749
  0
LINE
  8
0
 62
7
  6
CONTINUOUS
 10
44.1071260562
 20
214.2394025749
 11
44.6072022202
 21
214.2394025749
  0
LINE
  8
0
 62
7
  6
CONTINUOUS
 10
56.8071260562
 20
214.2394025749
 11
57.3072022202
 21
214.2394025749
  0
LINE
  8
0
 62
7
  6
CONTINUOUS
 10
69.5071260562
 20
214.2394025749
 11
70.0072022202
 21
214.2394025749
  0
LINE
  8
1_AXIS
 62
2
  6
CENTER
 10
35.8671260562
 20
214.2394025749
 11
84.0571260562
 21
214.2394025749
  0
LINE
  8
0
 62
7
  6
CONTINUOUS
 10
50.3071260562
 20
214.2394025749
 11
49.8070498922
 21
214.2394025749
  0
POLYLINE
  8
0
 62
9
  6
CONTINUOUS
 66
1
 70
0
  0
VERTEX
  8
0
 62
9
  6
CONTINUOUS
 10
43.4546741176
 20
214.0858447894
  0
VERTEX
  8
0
 62
9
  6
CONTINUOUS
 10
43.7045481828
 20
214.0838245856
  0
VERTEX
  8
0
 62
9
  6
CONTINUOUS
 10
43.8875194162
 20
214.0870173875
  0
VERTEX
  8
0
 62
9
  6
CONTINUOUS
 10
43.9545979651
 20
214.0945683346
  0
SEQEND
  0
POLYLINE
  8
0
 62
9
  6
CONTINUOUS
 66
1
 70
0
  0
VERTEX
  8
0
 62
9
  6
CONTINUOUS
 10
56.1546741176
 20
214.0858447894
  0
VERTEX
  8
0
 62
9
  6
CONTINUOUS
 10
56.4045481828
 20
214.0838245856
  0
VERTEX
  8
0
 62
9
  6
CONTINUOUS
 10
56.5875194162
 20
214.0870173875
  0
VERTEX
  8
0
 62
9
  6
CONTINUOUS
 10
56.6545979651
 20
214.0945683346
  0
SEQEND
  0
POLYLINE
  8
0
 62
9
  6
CONTINUOUS
 66
1
 70
0
  0
VERTEX
  8
0
 62
9
  6
CONTINUOUS
 10
68.8546741176
 20
214.0858447894
  0
VERTEX
  8
0
 62
9
  6
CONTINUOUS
 10
69.1045481828
 20
214.0838245856
  0
VERTEX
  8
0
 62
9
  6
CONTINUOUS
 10
69.2875194162
 20
214.0870173875
  0
VERTEX
  8
0
 62
9
  6
CONTINUOUS
 10
69.3545979651
 20
214.0945683346
  0
SEQEND
  0
POLYLINE
  8
0
 62
9
  6
CONTINUOUS
 66
1
 70
0
  0
VERTEX
  8
0
 62
9
  6
CONTINUOUS
 10
76.4056980817
 20
211.1048814931
  0
VERTEX
  8
0
 62
9
  6
CONTINUOUS
 10
76.1575135636
 20
211.1497335612
  0
VERTEX
  8
0
 62
9
  6
CONTINUOUS
 10
75.9748049227
 20
211.2767240192
  0
VERTEX
  8
0
 62
9
  6
CONTINUOUS
 10
75.9057742341
 20
211.452350327
  0
SEQEND
  0
POLYLINE
  8
0
 62
9
  6
CONTINUOUS
 66
1
 70
0
  0
VERTEX
  8
0
 62
9
  6
CONTINUOUS
 10
76.4217691705
 20
210.1073517674
  0
VERTEX
  8
0
 62
9
  6
CONTINUOUS
 10
76.1739631746
 20
210.163197163
  0
VERTEX
  8
0
 62
9
  6
CONTINUOUS
 10
75.9913137793
 20
210.3182122966
  0
SEQEND
  0
LINE
  8
0
 62
7
  6
CONTINUOUS
 10
56.7525283842
 20
215.642315004
 11
56.7669352299
 21
215.6367086908
  0
POLYLINE
  8
0
 62
9
  6
CONTINUOUS
 66
1
 70
0
  0
VERTEX
  8
0
 62
9
  6
CONTINUOUS
 10
56.6540126164
 20
215.9672441503
  0
VERTEX
  8
0
 62
9
  6
CONTINUOUS
 10
56.7518938337
 20
215.9155644002
  0
VERTEX
  8
0
 62
9
  6
CONTINUOUS
 10
56.813711504
 20
215.8534823404
  0
VERTEX
  8
0
 62
9
  6
CONTINUOUS
 10
56.8341282541
 20
215.7863581682
  0
SEQEND
  0
POLYLINE
  8
0
 62
7
  6
CONTINUOUS
 66
1
 70
0
  0
VERTEX
  8
0
 62
7
  6
CONTINUOUS
 10
56.7669352299
 20
215.6367086908
  0
VERTEX
  8
0
 62
7
  6
CONTINUOUS
 10
56.8238723778
 20
215.5926319614
  0
VERTEX
  8
0
 62
7
  6
CONTINUOUS
 10
56.8305738181
 20
215.5827239566
  0
SEQEND
  0
POLYLINE
  8
0
 62
9
  6
CONTINUOUS
 66
1
 70
0
  0
VERTEX
  8
0
 62
9
  6
CONTINUOUS
 10
43.407213184
 20
210.9512467732
  0
VERTEX
  8
0
 62
9
  6
CONTINUOUS
 10
43.6550190871
 20
211.007092124
  0
VERTEX
  8
0
 62
9
  6
CONTINUOUS
 10
43.8376685069
 20
211.1621072032
  0
VERTEX
  8
0
 62
9
  6
CONTINUOUS
 10
43.9071370316
 20
211.3755332718
  0
SEQEND
  0
POLYLINE
  8
0
 62
9
  6
CONTINUOUS
 66
1
 70
0
  0
VERTEX
  8
0
 62
9
  6
CONTINUOUS
 10
63.0533564315
 20
215.6431575345
  0
VERTEX
  8
0
 62
9
  6
CONTINUOUS
 10
63.1894441574
 20
215.6595518319
  0
VERTEX
  8
0
 62
9
  6
CONTINUOUS
 10
63.2901321264
 20
215.7178791489
  0
VERTEX
  8
0
 62
9
  6
CONTINUOUS
 10
63.312095253
 20
215.7850092828
  0
VERTEX
  8
0
 62
9
  6
CONTINUOUS
 10
63.304667049
 20
215.8177103466
  0
VERTEX
  8
0
 62
9
  6
CONTINUOUS
 10
63.265754321
 20
215.8790635439
  0
VERTEX
  8
0
 62
9
  6
CONTINUOUS
 10
63.2122718477
 20
215.9291440567
  0
VERTEX
  8
0
 62
9
  6
CONTINUOUS
 10
63.1602323281
 20
215.9672446464
  0
SEQEND
  0
POLYLINE
  8
0
 62
9
  6
CONTINUOUS
 66
1
 70
0
  0
VERTEX
  8
0
 62
9
  6
CONTINUOUS
 10
76.3735292545
 20
215.1568525201
  0
VERTEX
  8
0
 62
9
  6
CONTINUOUS
 10
76.2806876631
 20
215.1549323478
  0
VERTEX
  8
0
 62
9
  6
CONTINUOUS
 10
76.1909425071
 20
215.1524694487
  0
VERTEX
  8
0
 62
9
  6
CONTINUOUS
 10
76.1076786465
 20
215.1495561432
  0
SEQEND
  0
POLYLINE
  8
0
 62
9
  6
CONTINUOUS
 66
1
 70
0
  0
VERTEX
  8
0
 62
9
  6
CONTINUOUS
 10
63.6735292545
 20
215.1568525201
  0
VERTEX
  8
0
 62
9
  6
CONTINUOUS
 10
63.5806876631
 20
215.1549323478
  0
VERTEX
  8
0
 62
9
  6
CONTINUOUS
 10
63.4909425071
 20
215.1524694487
  0
VERTEX
  8
0
 62
9
  6
CONTINUOUS
 10
63.4076786465
 20
215.1495561432
  0
SEQEND
  0
POLYLINE
  8
0
 62
9
  6
CONTINUOUS
 66
1
 70
0
  0
VERTEX
  8
0
 62
9
  6
CONTINUOUS
 10
50.9735292545
 20
215.1568525201
  0
VERTEX
  8
0
 62
9
  6
CONTINUOUS
 10
50.8806876631
 20
215.1549323478
  0
VERTEX
  8
0
 62
9
  6
CONTINUOUS
 10
50.7909425071
 20
215.1524694487
  0
VERTEX
  8
0
 62
9
  6
CONTINUOUS
 10
50.7076786465
 20
215.1495561432
  0
SEQEND
  0
POLYLINE
  8
0
 62
9
  6
CONTINUOUS
 66
1
 70
0
  0
VERTEX
  8
0
 62
9
  6
CONTINUOUS
 10
41.1258655883
 20
215.1564148217
  0
VERTEX
  8
0
 62
9
  6
CONTINUOUS
 10
40.9253811519
 20
215.1530453375
  0
VERTEX
  8
0
 62
9
  6
CONTINUOUS
 10
40.8462103124
 20
215.150282315
  0
VERTEX
  8
0
 62
9
  6
CONTINUOUS
 10
40.7496620999
 20
215.1432855092
  0
VERTEX
  8
0
 62
9
  6
CONTINUOUS
 10
40.7371260562
 20
215.1394025749
  0
SEQEND
  0
LINE
  8
0
 62
9
  6
CONTINUOUS
 10
68.8407228904
 20
215.1568523233
 11
63.6735292511
 21
215.1568523233
  0
LINE
  8
0
 62
9
  6
CONTINUOUS
 10
56.1407228904
 20
215.1568523233
 11
50.9735292511
 21
215.1568523233
  0
LINE
  8
0
 62
9
  6
CONTINUOUS
 10
43.4407228904
 20
215.1568523233
 11
41.1258655883
 21
215.1564148217
  0
LINE
  8
0
 62
7
  6
CONTINUOUS
 10
41.2371260562
 20
215.6394025749
 11
44.0600126065
 21
215.6394025749
  0
LINE
  8
0
 62
7
  6
CONTINUOUS
 10
44.0920843026
 20
215.6394025749
 11
44.1315631471
 21
215.6394025749
  0
LINE
  8
0
 62
7
  6
CONTINUOUS
 10
50.3537897768
 20
215.6394025749
 11
56.7600126105
 21
215.6394025749
  0
LINE
  8
0
 62
7
  6
CONTINUOUS
 10
56.7920843039
 20
215.6394025749
 11
56.8315631471
 21
215.6394025749
  0
LINE
  8
0
 62
7
  6
CONTINUOUS
 10
63.0537897768
 20
215.6394025749
 11
69.4600126105
 21
215.6394025749
  0
LINE
  8
0
 62
7
  6
CONTINUOUS
 10
69.4920843039
 20
215.6394025749
 11
69.5315631471
 21
215.6394025749
  0
LINE
  8
0
 62
7
  6
CONTINUOUS
 10
75.7537897768
 20
215.6394025749
 11
78.6871260562
 21
215.6394025749
  0
POLYLINE
  8
0
 62
9
  6
CONTINUOUS
 66
1
 70
0
  0
VERTEX
  8
0
 62
9
  6
CONTINUOUS
 10
43.7065735106
 20
215.1495561825
  0
VERTEX
  8
0
 62
9
  6
CONTINUOUS
 10
43.6233096368
 20
215.1524694473
  0
VERTEX
  8
0
 62
9
  6
CONTINUOUS
 10
43.533564466
 20
215.1549323476
  0
VERTEX
  8
0
 62
9
  6
CONTINUOUS
 10
43.440722887
 20
215.1568525194
  0
SEQEND
  0
POLYLINE
  8
0
 62
9
  6
CONTINUOUS
 66
1
 70
0
  0
VERTEX
  8
0
 62
9
  6
CONTINUOUS
 10
56.4065735106
 20
215.1495561825
  0
VERTEX
  8
0
 62
9
  6
CONTINUOUS
 10
56.3233096368
 20
215.1524694473
  0
VERTEX
  8
0
 62
9
  6
CONTINUOUS
 10
56.233564466
 20
215.1549323476
  0
VERTEX
  8
0
 62
9
  6
CONTINUOUS
 10
56.140722887
 20
215.1568525194
  0
SEQEND
  0
POLYLINE
  8
0
 62
9
  6
CONTINUOUS
 66
1
 70
0
  0
VERTEX
  8
0
 62
9
  6
CONTINUOUS
 10
69.1065735106
 20
215.1495561825
  0
VERTEX
  8
0
 62
9
  6
CONTINUOUS
 10
69.0233096368
 20
215.1524694473
  0
VERTEX
  8
0
 62
9
  6
CONTINUOUS
 10
68.933564466
 20
215.1549323476
  0
VERTEX
  8
0
 62
9
  6
CONTINUOUS
 10
68.840722887
 20
215.1568525194
  0
SEQEND
  0
POLYLINE
  8
0
 62
9
  6
CONTINUOUS
 66
1
 70
0
  0
VERTEX
  8
0
 62
9
  6
CONTINUOUS
 10
49.777019063
 20
216.1804400711
  0
VERTEX
  8
0
 62
9
  6
CONTINUOUS
 10
50.0258774315
 20
216.1546696114
  0
VERTEX
  8
0
 62
9
  6
CONTINUOUS
 10
50.2086905004
 20
216.0772009231
  0
VERTEX
  8
0
 62
9
  6
CONTINUOUS
 10
50.2769429105
 20
215.9685938318
  0
SEQEND
  0
POLYLINE
  8
0
 62
9
  6
CONTINUOUS
 66
1
 70
0
  0
VERTEX
  8
0
 62
9
  6
CONTINUOUS
 10
48.8849255179
 20
217.6084521771
  0
VERTEX
  8
0
 62
9
  6
CONTINUOUS
 10
49.1329784111
 20
217.5598012234
  0
VERTEX
  8
0
 62
9
  6
CONTINUOUS
 10
49.3156665014
 20
217.4230858649
  0
VERTEX
  8
0
 62
9
  6
CONTINUOUS
 10
49.3848493655
 20
217.234332179
  0
SEQEND
  0
POLYLINE
  8
0
 62
9
  6
CONTINUOUS
 66
1
 70
0
  0
VERTEX
  8
0
 62
9
  6
CONTINUOUS
 10
76.4070389284
 20
210.9512467732
  0
VERTEX
  8
0
 62
9
  6
CONTINUOUS
 10
76.1592331635
 20
211.0070920558
  0
VERTEX
  8
0
 62
9
  6
CONTINUOUS
 10
75.9765836944
 20
211.1621070729
  0
VERTEX
  8
0
 62
9
  6
CONTINUOUS
 10
75.9071150808
 20
211.3755332718
  0
SEQEND
  0
POLYLINE
  8
0
 62
7
  6
CONTINUOUS
 66
1
 70
0
  0
VERTEX
  8
0
 62
7
  6
CONTINUOUS
 10
63.1571260562
 20
214.2394025749
  0
VERTEX
  8
0
 62
7
  6
CONTINUOUS
 10
63.1696532983
 20
214.2355212924
  0
VERTEX
  8
0
 62
7
  6
CONTINUOUS
 10
63.2662251463
 20
214.2285229161
  0
VERTEX
  8
0
 62
7
  6
CONTINUOUS
 10
63.3454442608
 20
214.2257588559
  0
VERTEX
  8
0
 62
7
  6
CONTINUOUS
 10
63.5459916633
 20
214.2223897961
  0
VERTEX
  8
0
 62
7
  6
CONTINUOUS
 10
63.6572022202
 20
214.2219528266
  0
SEQEND
  0
LINE
  8
0
 62
7
  6
CONTINUOUS
 10
63.0071260562
 20
214.2394025749
 11
62.9388989865
 21
218.1481287782
  0
LINE
  8
0
 62
7
  6
CONTINUOUS
 10
63.1571260562
 20
214.2394025749
 11
63.2253531259
 21
210.3306763717
  0
LINE
  8
0
 62
9
  6
CONTINUOUS
 10
62.5070498922
 20
214.2394025749
 11
62.4389750441
 21
218.6394025749
  0
LINE
  8
0
 62
9
  6
CONTINUOUS
 10
62.4389750516
 20
209.8394025749
 11
62.5070498922
 21
214.2394025749
  0
LINE
  8
0
 62
7
  6
CONTINUOUS
 10
62.9388989865
 20
210.3306763717
 11
63.0071260562
 21
214.2394025749
  0
LINE
  8
0
 62
7
  6
CONTINUOUS
 10
63.180569963
 20
215.582503097
 11
63.1571260562
 21
214.2394025749
  0
POLYLINE
  8
0
 62
7
  6
CONTINUOUS
 66
1
 70
0
  0
VERTEX
  8
0
 62
7
  6
CONTINUOUS
 10
62.9836914022
 20
215.5819730021
  0
VERTEX
  8
0
 62
7
  6
CONTINUOUS
 10
62.9915923838
 20
215.5940099432
  0
VERTEX
  8
0
 62
7
  6
CONTINUOUS
 10
63.0485394304
 20
215.6372842588
  0
SEQEND
  0
POLYLINE
  8
0
 62
9
  6
CONTINUOUS
 66
1
 70
0
  0
VERTEX
  8
0
 62
9
  6
CONTINUOUS
 10
69.3721662263
 20
215.6394000706
  0
VERTEX
  8
0
 62
9
  6
CONTINUOUS
 10
69.2409028647
 20
215.5740981759
  0
VERTEX
  8
0
 62
9
  6
CONTINUOUS
 10
69.1439277502
 20
215.395243109
  0
VERTEX
  8
0
 62
9
  6
CONTINUOUS
 10
69.1065728369
 20
215.1495562082
  0
SEQEND
  0
LINE
  8
0
 62
7
  6
CONTINUOUS
 10
69.3973562858
 20
215.6367282077
 11
69.4028160745
 21
215.6391597521
  0
POLYLINE
  8
0
 62
7
  6
CONTINUOUS
 66
1
 70
0
  0
VERTEX
  8
0
 62
7
  6
CONTINUOUS
 10
69.3571260562
 20
214.2394025749
  0
VERTEX
  8
0
 62
7
  6
CONTINUOUS
 10
69.3445727491
 20
214.2355173079
  0
VERTEX
  8
0
 62
7
  6
CONTINUOUS
 10
69.2479977546
 20
214.228521638
  0
VERTEX
  8
0
 62
7
  6
CONTINUOUS
 10
69.1688444792
 20
214.2257598751
  0
VERTEX
  8
0
 62
7
  6
CONTINUOUS
 10
68.9683746239
 20
214.2223907053
  0
VERTEX
  8
0
 62
7
  6
CONTINUOUS
 10
68.8570498922
 20
214.2219528266
  0
SEQEND
  0
POLYLINE
  8
0
 62
9
  6
CONTINUOUS
 66
1
 70
0
  0
VERTEX
  8
0
 62
9
  6
CONTINUOUS
 10
50.3533564315
 20
215.6431575345
  0
VERTEX
  8
0
 62
9
  6
CONTINUOUS
 10
50.4894441574
 20
215.6595518319
  0
VERTEX
  8
0
 62
9
  6
CONTINUOUS
 10
50.5901321264
 20
215.7178791489
  0
VERTEX
  8
0
 62
9
  6
CONTINUOUS
 10
50.612095253
 20
215.7850092828
  0
VERTEX
  8
0
 62
9
  6
CONTINUOUS
 10
50.604667049
 20
215.8177103466
  0
VERTEX
  8
0
 62
9
  6
CONTINUOUS
 10
50.565754321
 20
215.8790635439
  0
VERTEX
  8
0
 62
9
  6
CONTINUOUS
 10
50.5122718477
 20
215.9291440567
  0
VERTEX
  8
0
 62
9
  6
CONTINUOUS
 10
50.4602323281
 20
215.9672446464
  0
SEQEND
  0
LINE
  8
0
 62
9
  6
CONTINUOUS
 10
68.8901598427
 20
216.1394021531
 11
69.5404429956
 21
216.1481287572
  0
LINE
  8
0
 62
9
  6
CONTINUOUS
 10
56.1901598427
 20
216.1394021531
 11
56.8404429956
 21
216.1481287572
  0
LINE
  8
0
 62
9
  6
CONTINUOUS
 10
43.4901598694
 20
216.1394021535
 11
44.1404429956
 21
216.1481287572
  0
LINE
  8
0
 62
9
  6
CONTINUOUS
 10
40.2371260562
 20
216.139459468
 11
43.4901598767
 21
216.1394025749
  0
LINE
  8
0
 62
9
  6
CONTINUOUS
 10
50.924101306
 20
216.1394025749
 11
56.1901598501
 21
216.1394025749
  0
LINE
  8
0
 62
9
  6
CONTINUOUS
 10
63.624101306
 20
216.1394025749
 11
68.8901598501
 21
216.1394025749
  0
LINE
  8
0
 62
9
  6
CONTINUOUS
 10
76.324101306
 20
216.1394025749
 11
79.6871847917
 21
216.1394025749
  0
LINE
  8
0
 62
9
  6
CONTINUOUS
 10
50.2738091171
 20
216.1481287368
 11
50.9241013155
 21
216.1394020339
  0
LINE
  8
0
 62
9
  6
CONTINUOUS
 10
62.9738091171
 20
216.1481287368
 11
63.6241013155
 21
216.1394020339
  0
LINE
  8
0
 62
9
  6
CONTINUOUS
 10
75.6738091171
 20
216.1481287368
 11
76.3241013155
 21
216.1394020339
  0
LINE
  8
0
 62
9
  6
CONTINUOUS
 10
79.3836486346
 20
211.5187299954
 11
79.6452639665
 21
211.439401966
  0
POLYLINE
  8
0
 62
9
  6
CONTINUOUS
 66
1
 70
0
  0
VERTEX
  8
0
 62
9
  6
CONTINUOUS
 10
63.4076786465
 20
215.1495561432
  0
VERTEX
  8
0
 62
9
  6
CONTINUOUS
 10
63.2940592838
 20
215.184421129
  0
VERTEX
  8
0
 62
9
  6
CONTINUOUS
 10
63.2239742125
 20
215.2958665383
  0
VERTEX
  8
0
 62
9
  6
CONTINUOUS
 10
63.1960467579
 20
215.4267331853
  0
VERTEX
  8
0
 62
9
  6
CONTINUOUS
 10
63.1896416727
 20
215.4909183833
  0
VERTEX
  8
0
 62
9
  6
CONTINUOUS
 10
63.1864892063
 20
215.5592058087
  0
SEQEND
  0
LINE
  8
0
 62
7
  6
CONTINUOUS
 10
63.1101657811
 20
215.6394025749
 11
63.1157719455
 21
215.6372576753
  0
POLYLINE
  8
0
 62
9
  6
CONTINUOUS
 66
1
 70
0
  0
VERTEX
  8
0
 62
9
  6
CONTINUOUS
 10
63.1420817941
 20
215.6393984944
  0
VERTEX
  8
0
 62
9
  6
CONTINUOUS
 10
63.2733476877
 20
215.5740999009
  0
VERTEX
  8
0
 62
9
  6
CONTINUOUS
 10
63.3703249022
 20
215.3952448707
  0
VERTEX
  8
0
 62
9
  6
CONTINUOUS
 10
63.4076807126
 20
215.1495562222
  0
SEQEND
  0
LINE
  8
0
 62
7
  6
CONTINUOUS
 10
63.1157719455
 20
215.6372576753
 11
63.1725064955
 21
215.5941825135
  0
LINE
  8
0
 62
9
  6
CONTINUOUS
 10
63.1857607873
 20
215.5749845202
 11
63.1840598555
 21
215.6118294038
  0
LINE
  8
0
 62
9
  6
CONTINUOUS
 10
63.7070389284
 20
210.9512467732
 11
63.7217687683
 21
210.1073748084
  0
LINE
  8
0
 62
9
  6
CONTINUOUS
 10
63.5891475052
 20
218.1394025749
 11
63.624101306
 21
216.1394025749
  0
LINE
  8
0
 62
9
  6
CONTINUOUS
 10
63.6572022202
 20
214.2219528266
 11
63.705698029
 21
211.1048841731
  0
LINE
  8
0
 62
9
  6
CONTINUOUS
 10
63.7217689039
 20
210.1073748089
 11
63.7252770134
 21
209.8394025749
  0
LINE
  8
0
 62
9
  6
CONTINUOUS
 10
63.7056980543
 20
211.1048841731
 11
63.7070389284
 21
210.9512467732
  0
LINE
  8
0
 62
9
  6
CONTINUOUS
 10
63.5891503162
 20
218.6394025749
 11
63.5891503162
 21
218.1394025749
  0
LINE
  8
0
 62
9
  6
CONTINUOUS
 10
63.6240604461
 20
216.1394025749
 11
63.6240604461
 21
215.6394025749
  0
LINE
  8
0
 62
9
  6
CONTINUOUS
 10
63.6735209516
 20
215.6394025749
 11
63.6735209516
 21
215.1568523233
  0
LINE
  8
0
 62
9
  6
CONTINUOUS
 10
63.6735292511
 20
215.1568523233
 11
63.6572022202
 21
214.2219528266
  0
LINE
  8
0
 62
7
  6
CONTINUOUS
 10
69.3403616139
 20
215.5926111078
 11
69.3973562858
 21
215.6367282077
  0
LINE
  8
0
 62
9
  6
CONTINUOUS
 10
49.8040211524
 20
218.1405379573
 11
50.2388989865
 21
218.1481287782
  0
LINE
  8
0
 62
9
  6
CONTINUOUS
 10
68.9251045556
 20
218.1394026115
 11
69.575353127
 21
218.1481288424
  0
LINE
  8
0
 62
9
  6
CONTINUOUS
 10
56.2251045556
 20
218.1394026115
 11
56.875353127
 21
218.1481288424
  0
LINE
  8
0
 62
9
  6
CONTINUOUS
 10
44.1753531268
 20
218.1481288298
 11
43.5250777625
 21
218.1394022562
  0
LINE
  8
0
 62
9
  6
CONTINUOUS
 10
37.8671260562
 20
218.1394025749
 11
43.525077768
 21
218.1394025749
  0
LINE
  8
0
 62
9
  6
CONTINUOUS
 10
50.8891475052
 20
218.1394025749
 11
56.225104555
 21
218.1394025749
  0
LINE
  8
0
 62
9
  6
CONTINUOUS
 10
63.5891475052
 20
218.1394025749
 11
68.925104555
 21
218.1394025749
  0
LINE
  8
0
 62
9
  6
CONTINUOUS
 10
76.2891475052
 20
218.1394025749
 11
82.0571260562
 21
218.1394025749
  0
LINE
  8
2_FEATURE
 62
7
  6
CONTINUOUS
 10
44.6752769734
 20
218.6394025749
 11
48.868975139
 21
218.6394025749
  0
LINE
  8
2_FEATURE
 62
7
  6
CONTINUOUS
 10
57.3752769734
 20
218.6394025749
 11
62.438975139
 21
218.6394025749
  0
LINE
  8
2_FEATURE
 62
7
  6
CONTINUOUS
 10
70.0752769734
 20
218.6394025749
 11
75.138975139
 21
218.6394025749
  0
LINE
  8
0
 62
7
  6
CONTINUOUS
 10
38.3671260562
 20
218.6394025749
 11
81.5571260562
 21
218.6394025749
  0
LINE
  8
0
 62
9
  6
CONTINUOUS
 10
50.2388989854
 20
218.1481288425
 11
50.8891475046
 21
218.1394026122
  0
LINE
  8
0
 62
9
  6
CONTINUOUS
 10
62.9388989854
 20
218.1481288425
 11
63.5891475046
 21
218.1394026122
  0
LINE
  8
0
 62
9
  6
CONTINUOUS
 10
75.6388989854
 20
218.1481288425
 11
76.2891475046
 21
218.1394026122
  0
LINE
  8
0
 62
9
  6
CONTINUOUS
 10
49.3688989859
 20
218.1481288165
 11
49.8040211463
 21
218.1405383105
  0
POLYLINE
  8
0
 62
7
  6
CONTINUOUS
 66
1
 70
0
  0
VERTEX
  8
0
 62
7
  6
CONTINUOUS
 10
75.8571260562
 20
214.2394025749
  0
VERTEX
  8
0
 62
7
  6
CONTINUOUS
 10
75.8696532983
 20
214.2355212924
  0
VERTEX
  8
0
 62
7
  6
CONTINUOUS
 10
75.9662251463
 20
214.2285229161
  0
VERTEX
  8
0
 62
7
  6
CONTINUOUS
 10
76.0454442608
 20
214.2257588559
  0
VERTEX
  8
0
 62
7
  6
CONTINUOUS
 10
76.2459916633
 20
214.2223897961
  0
VERTEX
  8
0
 62
7
  6
CONTINUOUS
 10
76.3572022202
 20
214.2219528266
  0
SEQEND
  0
POLYLINE
  8
0
 62
9
  6
CONTINUOUS
 66
1
 70
0
  0
VERTEX
  8
0
 62
9
  6
CONTINUOUS
 10
63.1602323281
 20
215.9672446464
  0
VERTEX
  8
0
 62
9
  6
CONTINUOUS
 10
63.0225895337
 20
216.0670217317
  0
VERTEX
  8
0
 62
9
  6
CONTINUOUS
 10
62.9738109478
 20
216.1481287536
  0
SEQEND
  0
LINE
  8
0
 62
7
  6
CONTINUOUS
 10
63.1725064955
 20
215.5941825135
 11
63.1963404286
 21
215.5596605871
  0
POLYLINE
  8
0
 62
9
  6
CONTINUOUS
 66
1
 70
0
  0
VERTEX
  8
0
 62
9
  6
CONTINUOUS
 10
69.3035373054
 20
215.9304037336
  0
VERTEX
  8
0
 62
9
  6
CONTINUOUS
 10
69.251441356
 20
215.8823268878
  0
VERTEX
  8
0
 62
9
  6
CONTINUOUS
 10
69.211591268
 20
215.8227682286
  0
VERTEX
  8
0
 62
9
  6
CONTINUOUS
 10
69.2026312352
 20
215.7899944776
  0
VERTEX
  8
0
 62
9
  6
CONTINUOUS
 10
69.2214700239
 20
215.7212444915
  0
VERTEX
  8
0
 62
9
  6
CONTINUOUS
 10
69.3213820234
 20
215.6605748007
  0
VERTEX
  8
0
 62
9
  6
CONTINUOUS
 10
69.4527713881
 20
215.6442736457
  0
SEQEND
  0
POLYLINE
  8
0
 62
9
  6
CONTINUOUS
 66
1
 70
0
  0
VERTEX
  8
0
 62
9
  6
CONTINUOUS
 10
75.8602310729
 20
215.9672453222
  0
VERTEX
  8
0
 62
9
  6
CONTINUOUS
 10
75.7623537654
 20
215.9155652537
  0
VERTEX
  8
0
 62
9
  6
CONTINUOUS
 10
75.7005390412
 20
215.8534833727
  0
VERTEX
  8
0
 62
9
  6
CONTINUOUS
 10
75.680123817
 20
215.7863598246
  0
SEQEND
  0
LINE
  8
0
 62
7
  6
CONTINUOUS
 10
75.7485394304
 20
215.6372842588
 11
75.7537897768
 21
215.6395603705
  0
POLYLINE
  8
0
 62
9
  6
CONTINUOUS
 66
1
 70
0
  0
VERTEX
  8
0
 62
9
  6
CONTINUOUS
 10
76.1076786465
 20
215.1495561432
  0
VERTEX
  8
0
 62
9
  6
CONTINUOUS
 10
75.9940592838
 20
215.184421129
  0
VERTEX
  8
0
 62
9
  6
CONTINUOUS
 10
75.9239742125
 20
215.2958665383
  0
VERTEX
  8
0
 62
9
  6
CONTINUOUS
 10
75.8960467579
 20
215.4267331853
  0
VERTEX
  8
0
 62
9
  6
CONTINUOUS
 10
75.8896416727
 20
215.4909183833
  0
VERTEX
  8
0
 62
9
  6
CONTINUOUS
 10
75.8864892063
 20
215.5592058087
  0
SEQEND
  0
POLYLINE
  8
0
 62
9
  6
CONTINUOUS
 66
1
 70
0
  0
VERTEX
  8
0
 62
9
  6
CONTINUOUS
 10
79.1871260562
 20
214.0683950411
  0
VERTEX
  8
0
 62
9
  6
CONTINUOUS
 10
79.1745900123
 20
214.0722779754
  0
VERTEX
  8
0
 62
9
  6
CONTINUOUS
 10
79.0780417974
 20
214.0792747812
  0
VERTEX
  8
0
 62
9
  6
CONTINUOUS
 10
78.9988709571
 20
214.0820378037
  0
VERTEX
  8
0
 62
9
  6
CONTINUOUS
 10
78.7983865232
 20
214.0854072878
  0
VERTEX
  8
0
 62
9
  6
CONTINUOUS
 10
76.3595777112
 20
214.0858610389
  0
SEQEND
  0
LINE
  8
0
 62
7
  6
CONTINUOUS
 10
69.4525283842
 20
215.642315004
 11
69.4669352299
 21
215.6367086908
  0
POLYLINE
  8
0
 62
9
  6
CONTINUOUS
 66
1
 70
0
  0
VERTEX
  8
0
 62
9
  6
CONTINUOUS
 10
69.3540126164
 20
215.9672441503
  0
VERTEX
  8
0
 62
9
  6
CONTINUOUS
 10
69.4518938337
 20
215.9155644002
  0
VERTEX
  8
0
 62
9
  6
CONTINUOUS
 10
69.513711504
 20
215.8534823404
  0
VERTEX
  8
0
 62
9
  6
CONTINUOUS
 10
69.5341282541
 20
215.7863581682
  0
SEQEND
  0
POLYLINE
  8
0
 62
9
  6
CONTINUOUS
 66
1
 70
0
  0
VERTEX
  8
0
 62
9
  6
CONTINUOUS
 10
69.5404412311
 20
216.1481287545
  0
VERTEX
  8
0
 62
9
  6
CONTINUOUS
 10
69.4917083224
 20
216.0670535155
  0
VERTEX
  8
0
 62
9
  6
CONTINUOUS
 10
69.3035373054
 20
215.9304037336
  0
SEQEND
  0
LINE
  8
0
 62
9
  6
CONTINUOUS
 10
79.6871260562
 20
216.1394025749
 11
78.6871319721
 21
215.6394025768
  0
POLYLINE
  8
0
 62
9
  6
CONTINUOUS
 66
1
 70
0
  0
VERTEX
  8
0
 62
9
  6
CONTINUOUS
 10
79.1871260562
 20
215.1394025749
  0
VERTEX
  8
0
 62
9
  6
CONTINUOUS
 10
79.1745900125
 20
215.1432855092
  0
VERTEX
  8
0
 62
9
  6
CONTINUOUS
 10
79.0780418
 20
215.150282315
  0
VERTEX
  8
0
 62
9
  6
CONTINUOUS
 10
78.9988709605
 20
215.1530453375
  0
VERTEX
  8
0
 62
9
  6
CONTINUOUS
 10
78.7983865241
 20
215.1564148217
  0
VERTEX
  8
0
 62
9
  6
CONTINUOUS
 10
76.3735292511
 20
215.1568523233
  0
SEQEND
  0
LINE
  8
0
 62
7
  6
CONTINUOUS
 10
75.8101657811
 20
215.6394025749
 11
75.8157719455
 21
215.6372576753
  0
POLYLINE
  8
0
 62
7
  6
CONTINUOUS
 66
1
 70
0
  0
VERTEX
  8
0
 62
7
  6
CONTINUOUS
 10
69.4669352299
 20
215.6367086908
  0
VERTEX
  8
0
 62
7
  6
CONTINUOUS
 10
69.5238723778
 20
215.5926319614
  0
VERTEX
  8
0
 62
7
  6
CONTINUOUS
 10
69.5305738181
 20
215.5827239566
  0
SEQEND
  0
LINE
  8
0
 62
9
  6
CONTINUOUS
 10
68.8570498922
 20
214.2219528266
 11
68.8407228904
 21
215.1568523233
  0
LINE
  8
0
 62
9
  6
CONTINUOUS
 10
68.8407311608
 20
215.6394025749
 11
68.8407311608
 21
215.1568523233
  0
LINE
  8
0
 62
9
  6
CONTINUOUS
 10
68.8901916663
 20
216.1394025749
 11
68.890191666
 21
215.6394025749
  0
LINE
  8
0
 62
9
  6
CONTINUOUS
 10
68.9251017962
 20
218.6394025749
 11
68.9251017962
 21
218.1394025749
  0
LINE
  8
0
 62
9
  6
CONTINUOUS
 10
68.807213184
 20
210.9512467732
 11
68.8085540582
 21
211.1048841848
  0
LINE
  8
0
 62
9
  6
CONTINUOUS
 10
68.788975099
 20
209.8394025749
 11
68.7924832085
 21
210.1073748088
  0
LINE
  8
0
 62
9
  6
CONTINUOUS
 10
68.8901598501
 20
216.1394025749
 11
68.925104555
 21
218.1394025749
  0
LINE
  8
0
 62
9
  6
CONTINUOUS
 10
68.8085540836
 20
211.1048841848
 11
68.8570498922
 21
214.2219528266
  0
LINE
  8
0
 62
9
  6
CONTINUOUS
 10
68.7924833441
 20
210.1073748084
 11
68.807213184
 21
210.9512467732
  0
POLYLINE
  8
0
 62
7
  6
CONTINUOUS
 66
1
 70
0
  0
VERTEX
  8
0
 62
7
  6
CONTINUOUS
 10
69.3155821993
 20
215.5545797168
  0
VERTEX
  8
0
 62
7
  6
CONTINUOUS
 10
69.3154124293
 20
215.5540266988
  0
VERTEX
  8
0
 62
7
  6
CONTINUOUS
 10
69.3403616139
 20
215.5926111078
  0
SEQEND
  0
POLYLINE
  8
0
 62
9
  6
CONTINUOUS
 66
1
 70
0
  0
VERTEX
  8
0
 62
9
  6
CONTINUOUS
 10
75.8420817941
 20
215.6393984944
  0
VERTEX
  8
0
 62
9
  6
CONTINUOUS
 10
75.9733476877
 20
215.5740999009
  0
VERTEX
  8
0
 62
9
  6
CONTINUOUS
 10
76.0703249022
 20
215.3952448707
  0
VERTEX
  8
0
 62
9
  6
CONTINUOUS
 10
76.1076807126
 20
215.1495562222
  0
SEQEND
  0
LINE
  8
0
 62
7
  6
CONTINUOUS
 10
69.3326889653
 20
215.6394025749
 11
69.3571260562
 21
214.2394025749
  0
LINE
  8
0
 62
7
  6
CONTINUOUS
 10
69.5071260562
 20
214.2394025749
 11
69.5753531259
 21
210.3306763717
  0
LINE
  8
0
 62
9
  6
CONTINUOUS
 10
70.0072022202
 20
214.2394025749
 11
70.0752770649
 21
209.8394025749
  0
POLYLINE
  8
0
 62
9
  6
CONTINUOUS
 66
1
 70
0
  0
VERTEX
  8
0
 62
9
  6
CONTINUOUS
 10
69.3304643074
 20
215.6394025749
  0
VERTEX
  8
0
 62
9
  6
CONTINUOUS
 10
69.3303265746
 20
215.6183765916
  0
VERTEX
  8
0
 62
9
  6
CONTINUOUS
 10
69.3284542487
 20
215.5741961312
  0
SEQEND
  0
LINE
  8
0
 62
9
  6
CONTINUOUS
 10
70.0752770643
 20
218.6394025749
 11
70.0072022202
 21
214.2394025749
  0
LINE
  8
0
 62
7
  6
CONTINUOUS
 10
69.2888989865
 20
210.3306763717
 11
69.3571260562
 21
214.2394025749
  0
LINE
  8
0
 62
7
  6
CONTINUOUS
 10
69.5753531259
 20
218.1481287782
 11
69.5071260562
 21
214.2394025749
  0
POLYLINE
  8
0
 62
9
  6
CONTINUOUS
 66
1
 70
0
  0
VERTEX
  8
0
 62
9
  6
CONTINUOUS
 10
69.3276013375
 20
215.5540703571
  0
VERTEX
  8
0
 62
9
  6
CONTINUOUS
 10
69.3253511296
 20
215.5009731784
  0
VERTEX
  8
0
 62
9
  6
CONTINUOUS
 10
69.319405626
 20
215.4366048875
  0
VERTEX
  8
0
 62
9
  6
CONTINUOUS
 10
69.2924470371
 20
215.3024398044
  0
VERTEX
  8
0
 62
9
  6
CONTINUOUS
 10
69.2225305811
 20
215.1863591173
  0
VERTEX
  8
0
 62
9
  6
CONTINUOUS
 10
69.1065735106
 20
215.1495561825
  0
SEQEND
  0
LINE
  8
0
 62
9
  6
CONTINUOUS
 10
78.8066925559
 20
210.9937475503
 11
78.868653992
 21
211.0162280085
  0
LINE
  8
0
 62
9
  6
CONTINUOUS
 10
78.6871260562
 20
210.9512467732
 11
78.8066925559
 21
210.9937475503
  0
LINE
  8
0
 62
7
  6
CONTINUOUS
 10
75.8157719455
 20
215.6372576753
 11
75.8725064955
 21
215.5941825135
  0
POLYLINE
  8
0
 62
9
  6
CONTINUOUS
 66
1
 70
0
  0
VERTEX
  8
0
 62
9
  6
CONTINUOUS
 10
79.2877992853
 20
211.3054230651
  0
VERTEX
  8
0
 62
9
  6
CONTINUOUS
 10
79.4617109274
 20
211.3933523619
  0
VERTEX
  8
0
 62
9
  6
CONTINUOUS
 10
79.5376383184
 20
211.4195181859
  0
VERTEX
  8
0
 62
9
  6
CONTINUOUS
 10
79.6452468099
 20
211.4394025743
  0
SEQEND
  0
POLYLINE
  8
0
 62
9
  6
CONTINUOUS
 66
1
 70
0
  0
VERTEX
  8
0
 62
9
  6
CONTINUOUS
 10
78.868653992
 20
211.0162280085
  0
VERTEX
  8
0
 62
9
  6
CONTINUOUS
 10
79.0174193132
 20
211.0896664423
  0
VERTEX
  8
0
 62
9
  6
CONTINUOUS
 10
79.1547456761
 20
211.1868615633
  0
VERTEX
  8
0
 62
9
  6
CONTINUOUS
 10
79.2878018485
 20
211.3054230651
  0
SEQEND
  0
POLYLINE
  8
0
 62
9
  6
CONTINUOUS
 66
1
 70
0
  0
VERTEX
  8
0
 62
9
  6
CONTINUOUS
 10
75.8602323281
 20
215.9672446464
  0
VERTEX
  8
0
 62
9
  6
CONTINUOUS
 10
75.7225895336
 20
216.0670217318
  0
VERTEX
  8
0
 62
9
  6
CONTINUOUS
 10
75.6738109478
 20
216.1481287536
  0
SEQEND
  0
POLYLINE
  8
0
 62
9
  6
CONTINUOUS
 66
1
 70
0
  0
VERTEX
  8
0
 62
9
  6
CONTINUOUS
 10
78.987462478
 20
211.4946273961
  0
VERTEX
  8
0
 62
9
  6
CONTINUOUS
 10
79.0769011662
 20
211.4104575848
  0
VERTEX
  8
0
 62
9
  6
CONTINUOUS
 10
79.179072207
 20
211.3460917442
  0
VERTEX
  8
0
 62
9
  6
CONTINUOUS
 10
79.2878070895
 20
211.3054169377
  0
SEQEND
  0
POLYLINE
  8
0
 62
9
  6
CONTINUOUS
 66
1
 70
0
  0
VERTEX
  8
0
 62
9
  6
CONTINUOUS
 10
78.7778913856
 20
211.0989682219
  0
VERTEX
  8
0
 62
9
  6
CONTINUOUS
 10
78.8075954397
 20
211.0671586592
  0
VERTEX
  8
0
 62
9
  6
CONTINUOUS
 10
78.837958794
 20
211.0394700645
  0
VERTEX
  8
0
 62
9
  6
CONTINUOUS
 10
78.8686539942
 20
211.0162010783
  0
SEQEND
  0
POLYLINE
  8
0
 62
7
  6
CONTINUOUS
 66
1
 70
0
  0
VERTEX
  8
0
 62
7
  6
CONTINUOUS
 10
75.6836914022
 20
215.5819730021
  0
VERTEX
  8
0
 62
7
  6
CONTINUOUS
 10
75.6915923838
 20
215.5940099432
  0
VERTEX
  8
0
 62
7
  6
CONTINUOUS
 10
75.7485394304
 20
215.6372842588
  0
SEQEND
  0
LINE
  8
0
 62
7
  6
CONTINUOUS
 10
75.8725064955
 20
215.5941825135
 11
75.8963404286
 21
215.5596605871
  0
LINE
  8
0
 62
9
  6
CONTINUOUS
 10
75.9913137793
 20
210.3182122966
 11
75.921845323
 21
210.531638266
  0
LINE
  8
0
 62
9
  6
CONTINUOUS
 10
75.8857607873
 20
215.5749845202
 11
75.8840598555
 21
215.6118294038
  0
LINE
  8
0
 62
7
  6
CONTINUOUS
 10
75.7071260562
 20
214.2394025749
 11
75.6388989865
 21
218.1481287782
  0
LINE
  8
0
 62
7
  6
CONTINUOUS
 10
75.8571260562
 20
214.2394025749
 11
75.9253531259
 21
210.3306763717
  0
LINE
  8
0
 62
9
  6
CONTINUOUS
 10
76.4070389284
 20
210.9512467732
 11
76.4217687683
 21
210.1073748084
  0
LINE
  8
0
 62
9
  6
CONTINUOUS
 10
76.2891475052
 20
218.1394025749
 11
76.324101306
 21
216.1394025749
  0
LINE
  8
0
 62
9
  6
CONTINUOUS
 10
75.2070498922
 20
214.2394025749
 11
75.1389750441
 21
218.6394025749
  0
LINE
  8
0
 62
9
  6
CONTINUOUS
 10
76.3572022202
 20
214.2219528266
 11
76.405698029
 21
211.1048841731
  0
LINE
  8
0
 62
9
  6
CONTINUOUS
 10
76.4217689039
 20
210.1073748089
 11
76.4252770134
 21
209.8394025749
  0
LINE
  8
0
 62
9
  6
CONTINUOUS
 10
76.4056980543
 20
211.1048841731
 11
76.4070389284
 21
210.9512467732
  0
LINE
  8
0
 62
9
  6
CONTINUOUS
 10
76.2891503162
 20
218.6394025749
 11
76.2891503162
 21
218.1394025749
  0
LINE
  8
0
 62
9
  6
CONTINUOUS
 10
76.3240604461
 20
216.1394025749
 11
76.3240604461
 21
215.6394025749
  0
LINE
  8
0
 62
9
  6
CONTINUOUS
 10
76.3735209516
 20
215.6394025749
 11
76.3735209516
 21
215.1568523233
  0
LINE
  8
0
 62
9
  6
CONTINUOUS
 10
75.1389750516
 20
209.8394025749
 11
75.2070498922
 21
214.2394025749
  0
LINE
  8
0
 62
7
  6
CONTINUOUS
 10
75.6388989865
 20
210.3306763717
 11
75.7071260562
 21
214.2394025749
  0
LINE
  8
0
 62
7
  6
CONTINUOUS
 10
75.880569963
 20
215.582503097
 11
75.8571260562
 21
214.2394025749
  0
LINE
  8
0
 62
9
  6
CONTINUOUS
 10
76.3735292511
 20
215.1568523233
 11
76.3572022202
 21
214.2219528266
  0
POLYLINE
  8
0
 62
9
  6
CONTINUOUS
 66
1
 70
0
  0
VERTEX
  8
0
 62
9
  6
CONTINUOUS
 10
79.166194765
 20
211.8680381996
  0
VERTEX
  8
0
 62
9
  6
CONTINUOUS
 10
79.2795420905
 20
211.611876946
  0
VERTEX
  8
0
 62
9
  6
CONTINUOUS
 10
79.3836486346
 20
211.5187299954
  0
SEQEND
  0
LINE
  8
0
 62
9
  6
CONTINUOUS
 10
79.6871847935
 20
216.1395197503
 11
79.1871260562
 21
215.1394025749
  0
POLYLINE
  8
0
 62
9
  6
CONTINUOUS
 66
1
 70
0
  0
VERTEX
  8
0
 62
9
  6
CONTINUOUS
 10
78.6871260562
 20
210.9512467732
  0
VERTEX
  8
0
 62
9
  6
CONTINUOUS
 10
78.71680977
 20
210.9954537557
  0
VERTEX
  8
0
 62
9
  6
CONTINUOUS
 10
78.746937262
 20
211.0445812103
  0
VERTEX
  8
0
 62
9
  6
CONTINUOUS
 10
78.7778449605
 20
211.0988800336
  0
SEQEND
  0
POLYLINE
  8
0
 62
9
  6
CONTINUOUS
 66
1
 70
0
  0
VERTEX
  8
0
 62
9
  6
CONTINUOUS
 10
78.7778222562
 20
211.0988830582
  0
VERTEX
  8
0
 62
9
  6
CONTINUOUS
 10
78.8521467861
 20
211.1984019648
  0
VERTEX
  8
0
 62
9
  6
CONTINUOUS
 10
78.9208952952
 20
211.3315052804
  0
VERTEX
  8
0
 62
9
  6
CONTINUOUS
 10
78.987466574
 20
211.4946307217
  0
SEQEND
  0
LINE
  8
0
 62
9
  6
CONTINUOUS
 10
78.6871260562
 20
210.9512467732
 11
78.6871260562
 21
215.6394025749
  0
LINE
  8
0
 62
7
  6
CONTINUOUS
 10
79.1871260562
 20
211.9394025749
 11
79.1871260562
 21
215.1394025749
  0
LINE
  8
0
 62
9
  6
CONTINUOUS
 10
79.6871260562
 20
211.4394025749
 11
79.6871847917
 21
216.1394025749
  0
LINE
  8
0
 62
9
  6
CONTINUOUS
 10
79.1661950114
 20
211.8680382363
 11
79.1871260562
 21
211.939401809
  0
POLYLINE
  8
0
 62
9
  6
CONTINUOUS
 66
1
 70
0
  0
VERTEX
  8
0
 62
9
  6
CONTINUOUS
 10
78.987466574
 20
211.4946307217
  0
VERTEX
  8
0
 62
9
  6
CONTINUOUS
 10
79.074476141
 20
211.694882159
  0
VERTEX
  8
0
 62
9
  6
CONTINUOUS
 10
79.1123798339
 20
211.7694991653
  0
VERTEX
  8
0
 62
9
  6
CONTINUOUS
 10
79.1661950114
 20
211.8680382363
  0
SEQEND
  0
LINE
  8
0
 62
9
  6
CONTINUOUS
 10
81.5571260562
 20
218.6394025749
 11
81.5571260562
 21
209.8394025749
  0
LINE
  8
0
 62
7
  6
CONTINUOUS
 10
82.0571260562
 20
218.1394025749
 11
82.0571260562
 21
210.3394025749
  0
POLYLINE
  8
0
 62
9
  6
CONTINUOUS
 66
1
 70
0
  0
VERTEX
  8
0
 62
9
  6
CONTINUOUS
 10
82.0571260562
 20
211.7384406806
  0
VERTEX
  8
0
 62
9
  6
CONTINUOUS
 10
82.0445900123
 20
211.6420862898
  0
VERTEX
  8
0
 62
9
  6
CONTINUOUS
 10
81.9480417974
 20
211.4684616769
  0
VERTEX
  8
0
 62
9
  6
CONTINUOUS
 10
81.8688709571
 20
211.399897718
  0
VERTEX
  8
0
 62
9
  6
CONTINUOUS
 10
81.6683865232
 20
211.3162845112
  0
VERTEX
  8
0
 62
9
  6
CONTINUOUS
 10
81.5571260562
 20
211.3054279787
  0
SEQEND
  0
POLYLINE
  8
0
 62
9
  6
CONTINUOUS
 66
1
 70
0
  0
VERTEX
  8
0
 62
9
  6
CONTINUOUS
 10
82.0571260562
 20
210.5403644693
  0
VERTEX
  8
0
 62
9
  6
CONTINUOUS
 10
82.0445900141
 20
210.4440100852
  0
VERTEX
  8
0
 62
9
  6
CONTINUOUS
 10
81.9480418026
 20
210.2703854711
  0
VERTEX
  8
0
 62
9
  6
CONTINUOUS
 10
81.868870954
 20
210.2018215044
  0
VERTEX
  8
0
 62
9
  6
CONTINUOUS
 10
81.6683865168
 20
210.1182082986
  0
VERTEX
  8
0
 62
9
  6
CONTINUOUS
 10
81.5571260562
 20
210.1073517674
  0
SEQEND
  0
LINE
  8
1_AXIS
 62
2
  6
CONTINUOUS
 10
144.0972386901
 20
215.1194025749
 11
144.0972386901
 21
213.3594025749
  0
LINE
  8
0
 62
9
  6
CONTINUOUS
 10
144.0972386901
 20
210.3394025749
 11
144.0972386901
 21
209.8394025749
  0
LINE
  8
1_AXIS
 62
2
  6
CENTER
 10
144.0972386901
 20
209.8394025749
 11
144.0972386901
 21
209.6394025749
  0
LINE
  8
0
 62
9
  6
CONTINUOUS
 10
144.0972386901
 20
218.1394025749
 11
144.0972386903
 21
218.6394025749
  0
LINE
  8
1_AXIS
 62
2
  6
CENTER
 10
144.0972386901
 20
218.6394025749
 11
144.0972386901
 21
218.8394025749
  0
LINE
  8
0
 62
9
  6
CONTINUOUS
 10
145.2600590132
 20
210.5403644693
 11
145.5100590132
 21
210.1073517674
  0
LINE
  8
0
 62
9
  6
CONTINUOUS
 10
144.5100590132
 20
210.3394025749
 11
144.5100590131
 21
209.8394025749
  0
LINE
  8
0
 62
7
  6
CONTINUOUS
 10
156.7971490792
 20
209.8394025749
 11
156.3844654641
 21
209.8394025749
  0
LINE
  8
0
 62
7
  6
CONTINUOUS
 10
144.0972386901
 20
209.8394025749
 11
144.5100590132
 21
209.8394025749
  0
LINE
  8
0
 62
9
  6
CONTINUOUS
 10
156.7972386901
 20
210.3306763717
 11
156.3844183671
 21
210.3306763717
  0
LINE
  8
0
 62
9
  6
CONTINUOUS
 10
144.0972386901
 20
210.3394025749
 11
144.5100590132
 21
210.3394025749
  0
LINE
  8
0
 62
9
  6
CONTINUOUS
 10
147.3351878826
 20
211.7384406806
 11
147.5851878824
 21
211.3054279786
  0
POLYLINE
  8
0
 62
9
  6
CONTINUOUS
 66
1
 70
0
  0
VERTEX
  8
0
 62
9
  6
CONTINUOUS
 10
156.3844183671
 20
210.3306763717
  0
VERTEX
  8
0
 62
9
  6
CONTINUOUS
 10
155.9962025447
 20
210.3817842182
  0
VERTEX
  8
0
 62
9
  6
CONTINUOUS
 10
155.6344183671
 20
210.531638266
  0
SEQEND
  0
LINE
  8
0
 62
9
  6
CONTINUOUS
 10
148.0851878826
 20
211.9394025749
 11
148.0851878826
 21
211.4394025749
  0
LINE
  8
0
 62
7
  6
CONTINUOUS
 10
148.0851878826
 20
211.4394025749
 11
151.3572386901
 21
211.4394025749
  0
LINE
  8
0
 62
9
  6
CONTINUOUS
 10
148.0851878826
 20
211.9394025749
 11
151.3572386901
 21
211.9394025749
  0
LINE
  8
0
 62
9
  6
CONTINUOUS
 10
151.8572386901
 20
212.4394025749
 11
152.3572386901
 21
212.4394025749
  0
POLYLINE
  8
0
 62
9
  6
CONTINUOUS
 66
1
 70
0
  0
VERTEX
  8
0
 62
9
  6
CONTINUOUS
 10
153.0072385075
 20
216.1481287545
  0
VERTEX
  8
0
 62
9
  6
CONTINUOUS
 10
152.7469761111
 20
216.0670535152
  0
VERTEX
  8
0
 62
9
  6
CONTINUOUS
 10
152.5090831888
 20
215.9672441251
  0
SEQEND
  0
LINE
  8
0
 62
7
  6
CONTINUOUS
 10
155.3844183671
 20
210.1073517674
 11
153.9227493408
 21
210.9512467732
  0
LINE
  8
1_AXIS
 62
2
  6
CENTER
 10
150.4472386901
 20
207.8394025749
 11
150.4472386901
 21
220.639402636
  0
POLYLINE
  8
0
 62
9
  6
CONTINUOUS
 66
1
 70
0
  0
VERTEX
  8
0
 62
9
  6
CONTINUOUS
 10
152.5090831888
 20
215.9672441251
  0
VERTEX
  8
0
 62
9
  6
CONTINUOUS
 10
152.4474760036
 20
215.9304037316
  0
VERTEX
  8
0
 62
9
  6
CONTINUOUS
 10
152.3830435143
 20
215.882326878
  0
VERTEX
  8
0
 62
9
  6
CONTINUOUS
 10
152.3572386901
 20
215.8596856887
  0
SEQEND
  0
LINE
  8
0
 62
7
  6
CONTINUOUS
 10
152.9061278138
 20
214.2394025749
 11
152.4067371261
 21
214.2219528266
  0
LINE
  8
1_AXIS
 62
2
  6
CONTINUOUS
 10
157.6772386901
 20
214.2394025749
 11
155.9172386901
 21
214.2394025749
  0
LINE
  8
0
 62
7
  6
CONTINUOUS
 10
154.1972386901
 20
214.2394025749
 11
152.9061278138
 21
214.2394025749
  0
LINE
  8
1_AXIS
 62
2
  6
CENTER
 10
152.3972386901
 20
214.2394025749
 11
152.1972386901
 21
214.2394025749
  0
LINE
  8
1_AXIS
 62
2
  6
CONTINUOUS
 10
144.9772386901
 20
214.2394025749
 11
143.2172386901
 21
214.2394025749
  0
LINE
  8
1_AXIS
 62
2
  6
CENTER
 10
139.6972386901
 20
214.2394025749
 11
139.4972386901
 21
214.2394025749
  0
LINE
  8
1_AXIS
 62
2
  6
CENTER
 10
148.4972386901
 20
214.2394025749
 11
148.6972386901
 21
214.2394025749
  0
LINE
  8
0
 62
7
  6
CONTINUOUS
 10
159.3972386901
 20
214.2394025749
 11
161.1972378202
 21
214.2394025749
  0
LINE
  8
1_AXIS
 62
2
  6
CENTER
 10
161.1972386901
 20
214.2394025749
 11
161.3972386901
 21
214.2394025749
  0
POLYLINE
  8
0
 62
9
  6
CONTINUOUS
 66
1
 70
0
  0
VERTEX
  8
0
 62
9
  6
CONTINUOUS
 10
152.4114901235
 20
214.0858447894
  0
VERTEX
  8
0
 62
9
  6
CONTINUOUS
 10
152.4785380217
 20
214.0838245856
  0
VERTEX
  8
0
 62
9
  6
CONTINUOUS
 10
152.6614256486
 20
214.0870173875
  0
VERTEX
  8
0
 62
9
  6
CONTINUOUS
 10
152.911185537
 20
214.0945683346
  0
SEQEND
  0
LINE
  8
0
 62
9
  6
CONTINUOUS
 10
155.6344183671
 20
210.531638266
 11
154.1727493408
 21
211.3755332718
  0
POLYLINE
  8
0
 62
9
  6
CONTINUOUS
 66
1
 70
0
  0
VERTEX
  8
0
 62
9
  6
CONTINUOUS
 10
154.1727493408
 20
211.3755332718
  0
VERTEX
  8
0
 62
9
  6
CONTINUOUS
 10
154.1369895943
 20
211.3982515918
  0
VERTEX
  8
0
 62
9
  6
CONTINUOUS
 10
154.1032764413
 20
211.4239199692
  0
VERTEX
  8
0
 62
9
  6
CONTINUOUS
 10
154.0718581024
 20
211.452350327
  0
SEQEND
  0
LINE
  8
0
 62
9
  6
CONTINUOUS
 10
145.2600590132
 20
210.5403644693
 11
147.3351878826
 21
211.7384406806
  0
POLYLINE
  8
0
 62
9
  6
CONTINUOUS
 66
1
 70
0
  0
VERTEX
  8
0
 62
9
  6
CONTINUOUS
 10
154.0718581024
 20
211.452350327
  0
VERTEX
  8
0
 62
9
  6
CONTINUOUS
 10
153.8736218399
 20
211.6626669095
  0
VERTEX
  8
0
 62
9
  6
CONTINUOUS
 10
153.5450497488
 20
212.0957593751
  0
VERTEX
  8
0
 62
9
  6
CONTINUOUS
 10
153.291449339
 20
212.5459877804
  0
VERTEX
  8
0
 62
9
  6
CONTINUOUS
 10
153.1888128402
 20
212.7796001214
  0
VERTEX
  8
0
 62
9
  6
CONTINUOUS
 10
153.0287259234
 20
213.2710065356
  0
VERTEX
  8
0
 62
9
  6
CONTINUOUS
 10
152.9319828956
 20
213.8061599923
  0
VERTEX
  8
0
 62
9
  6
CONTINUOUS
 10
152.911185537
 20
214.0945683346
  0
SEQEND
  0
LINE
  8
0
 62
9
  6
CONTINUOUS
 10
151.3572386901
 20
211.9394025749
 11
151.3572386894
 21
211.4394025749
  0
LINE
  8
0
 62
9
  6
CONTINUOUS
 10
151.8572386901
 20
212.4394025749
 11
151.8572386901
 21
218.6394025749
  0
LINE
  8
0
 62
7
  6
CONTINUOUS
 10
145.5100590132
 20
210.1073517674
 11
147.5851878824
 21
211.3054279786
  0
POLYLINE
  8
0
 62
9
  6
CONTINUOUS
 66
1
 70
0
  0
VERTEX
  8
0
 62
9
  6
CONTINUOUS
 10
152.4507857464
 20
215.1495566562
  0
VERTEX
  8
0
 62
9
  6
CONTINUOUS
 10
152.4087413151
 20
215.152469433
  0
VERTEX
  8
0
 62
9
  6
CONTINUOUS
 10
152.382845836
 20
215.1549323138
  0
VERTEX
  8
0
 62
9
  6
CONTINUOUS
 10
152.3740897146
 20
215.1568523691
  0
SEQEND
  0
LINE
  8
0
 62
7
  6
CONTINUOUS
 10
152.4114901235
 20
214.0858447894
 11
152.3740897162
 21
215.1568523233
  0
LINE
  8
0
 62
7
  6
CONTINUOUS
 10
152.3572386901
 20
212.4394025749
 11
152.3572386901
 21
218.1394025749
  0
POLYLINE
  8
0
 62
9
  6
CONTINUOUS
 66
1
 70
0
  0
VERTEX
  8
0
 62
9
  6
CONTINUOUS
 10
152.8527163857
 20
215.7863581664
  0
VERTEX
  8
0
 62
9
  6
CONTINUOUS
 10
152.8340879333
 20
215.7134095372
  0
VERTEX
  8
0
 62
9
  6
CONTINUOUS
 10
152.8063773711
 20
215.6183661713
  0
VERTEX
  8
0
 62
9
  6
CONTINUOUS
 10
152.7643419077
 20
215.5009692507
  0
VERTEX
  8
0
 62
9
  6
CONTINUOUS
 10
152.736239137
 20
215.4365977876
  0
VERTEX
  8
0
 62
9
  6
CONTINUOUS
 10
152.6597133053
 20
215.3024279857
  0
VERTEX
  8
0
 62
9
  6
CONTINUOUS
 10
152.5507247359
 20
215.1863503022
  0
VERTEX
  8
0
 62
9
  6
CONTINUOUS
 10
152.4507857464
 20
215.1495566562
  0
SEQEND
  0
POLYLINE
  8
0
 62
9
  6
CONTINUOUS
 66
1
 70
0
  0
VERTEX
  8
0
 62
9
  6
CONTINUOUS
 10
153.0072692587
 20
216.1481555171
  0
VERTEX
  8
0
 62
9
  6
CONTINUOUS
 10
152.9436624263
 20
215.9863223901
  0
VERTEX
  8
0
 62
9
  6
CONTINUOUS
 10
152.8527163857
 20
215.7863581664
  0
SEQEND
  0
POLYLINE
  8
0
 62
9
  6
CONTINUOUS
 66
1
 70
0
  0
VERTEX
  8
0
 62
9
  6
CONTINUOUS
 10
152.3572386901
 20
216.1394025965
  0
VERTEX
  8
0
 62
9
  6
CONTINUOUS
 10
152.3971325724
 20
216.1424121095
  0
VERTEX
  8
0
 62
9
  6
CONTINUOUS
 10
152.5097758938
 20
216.1450189858
  0
VERTEX
  8
0
 62
9
  6
CONTINUOUS
 10
152.5894974284
 20
216.1460881098
  0
VERTEX
  8
0
 62
9
  6
CONTINUOUS
 10
152.783798991
 20
216.1475971062
  0
VERTEX
  8
0
 62
9
  6
CONTINUOUS
 10
153.0072692589
 20
216.1481287626
  0
SEQEND
  0
POLYLINE
  8
0
 62
9
  6
CONTINUOUS
 66
1
 70
0
  0
VERTEX
  8
0
 62
9
  6
CONTINUOUS
 10
152.3572386901
 20
215.4345481498
  0
VERTEX
  8
0
 62
9
  6
CONTINUOUS
 10
152.3912210675
 20
215.3952435622
  0
VERTEX
  8
0
 62
9
  6
CONTINUOUS
 10
152.4507868832
 20
215.1495566834
  0
SEQEND
  0
LINE
  8
0
 62
9
  6
CONTINUOUS
 10
152.8527163857
 20
215.7863581664
 11
152.911185537
 21
214.0945683346
  0
LINE
  8
0
 62
9
  6
CONTINUOUS
 10
153.0072692587
 20
216.1481555171
 11
153.0072386905
 21
218.6394025749
  0
POLYLINE
  8
0
 62
9
  6
CONTINUOUS
 66
1
 70
0
  0
VERTEX
  8
0
 62
9
  6
CONTINUOUS
 10
152.5090831394
 20
215.9672441498
  0
VERTEX
  8
0
 62
9
  6
CONTINUOUS
 10
152.605693785
 20
215.9155644003
  0
VERTEX
  8
0
 62
9
  6
CONTINUOUS
 10
152.7236325001
 20
215.8534823399
  0
VERTEX
  8
0
 62
9
  6
CONTINUOUS
 10
152.8527163857
 20
215.7863581667
  0
SEQEND
  0
POLYLINE
  8
0
 62
9
  6
CONTINUOUS
 66
1
 70
0
  0
VERTEX
  8
0
 62
9
  6
CONTINUOUS
 10
152.7850442076
 20
218.1476032115
  0
VERTEX
  8
0
 62
9
  6
CONTINUOUS
 10
152.5894807857
 20
218.1460879826
  0
VERTEX
  8
0
 62
9
  6
CONTINUOUS
 10
152.5092797212
 20
218.1450110902
  0
VERTEX
  8
0
 62
9
  6
CONTINUOUS
 10
152.3963952791
 20
218.1423850562
  0
VERTEX
  8
0
 62
9
  6
CONTINUOUS
 10
152.3572386901
 20
218.1394025851
  0
SEQEND
  0
LINE
  8
0
 62
9
  6
CONTINUOUS
 10
144.0972386901
 20
218.1394025749
 11
152.3572386901
 21
218.1394025749
  0
LINE
  8
0
 62
9
  6
CONTINUOUS
 10
156.7972386901
 20
218.1481287782
 11
152.7850442076
 21
218.1476032115
  0
POLYLINE
  8
0
 62
9
  6
CONTINUOUS
 66
1
 70
0
  0
VERTEX
  8
0
 62
9
  6
CONTINUOUS
 10
153.9227493408
 20
210.9512467732
  0
VERTEX
  8
0
 62
9
  6
CONTINUOUS
 10
153.9574889783
 20
211.007092124
  0
VERTEX
  8
0
 62
9
  6
CONTINUOUS
 10
154.0488276596
 20
211.1621072032
  0
VERTEX
  8
0
 62
9
  6
CONTINUOUS
 10
154.1727493408
 20
211.3755332718
  0
SEQEND
  0
POLYLINE
  8
0
 62
9
  6
CONTINUOUS
 66
1
 70
0
  0
VERTEX
  8
0
 62
9
  6
CONTINUOUS
 10
153.7209670479
 20
211.1048810702
  0
VERTEX
  8
0
 62
9
  6
CONTINUOUS
 10
153.7694188155
 20
211.1497332033
  0
VERTEX
  8
0
 62
9
  6
CONTINUOUS
 10
153.8976600094
 20
211.2767238226
  0
VERTEX
  8
0
 62
9
  6
CONTINUOUS
 10
154.0718581024
 20
211.452350327
  0
SEQEND
  0
LINE
  8
0
 62
7
  6
CONTINUOUS
 10
156.7971475188
 20
218.6394025749
 11
144.0972386901
 21
218.6394025749
  0
LINE
  8
0
 62
9
  6
CONTINUOUS
 10
156.3844183671
 20
209.8394025749
 11
156.3844183671
 21
210.3306763717
  0
LINE
  8
1_AXIS
 62
2
  6
CONTINUOUS
 10
156.7972386901
 20
215.1194025749
 11
156.7972386901
 21
213.3594025749
  0
LINE
  8
1_AXIS
 62
2
  6
CENTER
 10
156.7972386901
 20
209.8394025749
 11
156.7972386901
 21
209.6394025749
  0
LINE
  8
0
 62
9
  6
CONTINUOUS
 10
156.7972386901
 20
209.8394025749
 11
156.7972386901
 21
210.3306763717
  0
LINE
  8
0
 62
9
  6
CONTINUOUS
 10
156.7972386901
 20
218.1481287782
 11
156.7972386901
 21
218.6394025749
  0
LINE
  8
1_AXIS
 62
2
  6
CENTER
 10
156.7972386901
 20
218.6394025749
 11
156.7972386901
 21
218.8394025749
  0
POLYLINE
  8
0
 62
9
  6
CONTINUOUS
 66
1
 70
0
  0
VERTEX
  8
0
 62
9
  6
CONTINUOUS
 10
155.3844183671
 20
210.1073517674
  0
VERTEX
  8
0
 62
9
  6
CONTINUOUS
 10
155.4191579649
 20
210.16319705
  0
VERTEX
  8
0
 62
9
  6
CONTINUOUS
 10
155.5104966108
 20
210.3182120671
  0
VERTEX
  8
0
 62
9
  6
CONTINUOUS
 10
155.6344183671
 20
210.531638266
  0
SEQEND
  0
POLYLINE
  8
0
 62
9
  6
CONTINUOUS
 66
1
 70
0
  0
VERTEX
  8
0
 62
9
  6
CONTINUOUS
 10
160.6972289277
 20
214.2394025749
  0
VERTEX
  8
0
 62
9
  6
CONTINUOUS
 10
160.6004519121
 20
213.367228125
  0
VERTEX
  8
0
 62
9
  6
CONTINUOUS
 10
160.2398043336
 20
212.3979972031
  0
VERTEX
  8
0
 62
9
  6
CONTINUOUS
 10
159.630684111
 20
211.550832228
  0
VERTEX
  8
0
 62
9
  6
CONTINUOUS
 10
158.8184135246
 20
210.8952839412
  0
VERTEX
  8
0
 62
9
  6
CONTINUOUS
 10
157.8623615629
 20
210.4789413852
  0
VERTEX
  8
0
 62
9
  6
CONTINUOUS
 10
156.7972386901
 20
210.3306763717
  0
SEQEND
  0
POLYLINE
  8
0
 62
9
  6
CONTINUOUS
 66
1
 70
0
  0
VERTEX
  8
0
 62
9
  6
CONTINUOUS
 10
160.6972289277
 20
214.2394025749
  0
VERTEX
  8
0
 62
9
  6
CONTINUOUS
 10
160.6006039242
 20
215.1109073448
  0
VERTEX
  8
0
 62
9
  6
CONTINUOUS
 10
160.2399891517
 20
216.0804606287
  0
VERTEX
  8
0
 62
9
  6
CONTINUOUS
 10
159.6306949182
 20
216.9279613989
  0
VERTEX
  8
0
 62
9
  6
CONTINUOUS
 10
158.8181073613
 20
217.5837066822
  0
VERTEX
  8
0
 62
9
  6
CONTINUOUS
 10
157.8616709053
 20
218.0000597749
  0
VERTEX
  8
0
 62
9
  6
CONTINUOUS
 10
156.7972386901
 20
218.1481287782
  0
SEQEND
  0
ARC
  8
0
 62
7
  6
CONTINUOUS
 10
81.5571260562
 20
146.1030710076
 40
0.5
 50
0.0
 51
90.0
  0
ARC
  8
0
 62
7
  6
CONTINUOUS
 10
38.3671260562
 20
146.1030710076
 40
0.5
 50
90.0
 51
180.0
  0
ARC
  8
0
 62
7
  6
CONTINUOUS
 10
81.5571260562
 20
134.4430710076
 40
0.5
 50
270.0
 51
360.0
  0
ARC
  8
0
 62
7
  6
CONTINUOUS
 10
38.3671260562
 20
134.4430710076
 40
0.5
 50
180.0
 51
270.0
  0
ARC
  8
0
 62
7
  6
CONTINUOUS
 10
44.6752769734
 20
210.3394025749
 40
0.5
 50
181.0
 51
270.0
  0
ARC
  8
0
 62
7
  6
CONTINUOUS
 10
38.3671260562
 20
210.3394025749
 40
0.5
 50
180.0
 51
270.0
  0
ARC
  8
0
 62
7
  6
CONTINUOUS
 10
43.388975139
 20
210.3394025749
 40
0.5
 50
270.0
 51
359.0
  0
ARC
  8
0
 62
7
  6
CONTINUOUS
 10
40.2371260562
 20
211.9394025749
 40
0.5
 50
270.0
 51
360.0
  0
ARC
  8
0
 62
7
  6
CONTINUOUS
 10
38.3671260562
 20
211.9394025749
 40
0.5
 50
180.0
 51
270.0
  0
ARC
  8
0
 62
7
  6
CONTINUOUS
 10
48.8689751434
 20
210.3394028318
 40
0.5
 50
269.9999994862
 51
358.9999705622
  0
ARC
  8
0
 62
7
  6
CONTINUOUS
 10
57.3752769734
 20
210.3394025749
 40
0.5
 50
181.0
 51
270.0
  0
ARC
  8
0
 62
7
  6
CONTINUOUS
 10
51.0252769496
 20
210.3394039423
 40
0.5
 50
181.0001567084
 51
270.0000027349
  0
ARC
  8
0
 62
7
  6
CONTINUOUS
 10
56.0889751655
 20
210.3394040968
 40
0.5
 50
269.9999969559
 51
358.9998255771
  0
ARC
  8
0
 62
7
  6
CONTINUOUS
 10
57.3752769496
 20
218.1394012076
 40
0.5
 50
89.9999972651
 51
178.9998432916
  0
ARC
  8
0
 62
7
  6
CONTINUOUS
 10
38.3671260562
 20
218.1394025749
 40
0.5
 50
90.0
 51
180.0
  0
ARC
  8
0
 62
7
  6
CONTINUOUS
 10
44.6752689448
 20
218.1394025749
 40
0.4999965098
 50
89.9990799923
 51
178.9999839432
  0
ARC
  8
0
 62
7
  6
CONTINUOUS
 10
49.738975139
 20
218.1394025749
 40
0.5
 50
1.0
 51
90.0
  0
ARC
  8
0
 62
7
  6
CONTINUOUS
 10
41.2371162725
 20
215.1394123586
 40
0.4999951082
 50
89.9988788455
 51
180.001121145
  0
ARC
  8
0
 62
7
  6
CONTINUOUS
 10
48.8689858087
 20
218.1394025749
 40
0.499994666
 50
1.000021339
 51
90.001222659
  0
ARC
  8
0
 62
7
  6
CONTINUOUS
 10
70.0752769734
 20
210.3394025749
 40
0.5
 50
181.0
 51
270.0
  0
ARC
  8
0
 62
7
  6
CONTINUOUS
 10
62.4389751602
 20
210.3394037937
 40
0.5
 50
269.9999975622
 51
358.9998603156
  0
ARC
  8
0
 62
7
  6
CONTINUOUS
 10
68.7889751655
 20
210.3394040968
 40
0.5
 50
269.9999969559
 51
358.9998255771
  0
ARC
  8
0
 62
7
  6
CONTINUOUS
 10
63.7252769496
 20
210.3394039423
 40
0.5
 50
181.0001567084
 51
270.0000027349
  0
ARC
  8
0
 62
7
  6
CONTINUOUS
 10
75.138975139
 20
210.3394025749
 40
0.5
 50
270.0
 51
359.0
  0
ARC
  8
0
 62
7
  6
CONTINUOUS
 10
81.5571260562
 20
210.3394025749
 40
0.5
 50
270.0
 51
360.0
  0
ARC
  8
0
 62
7
  6
CONTINUOUS
 10
76.4252769734
 20
210.3394025749
 40
0.5
 50
181.0
 51
270.0
  0
ARC
  8
0
 62
7
  6
CONTINUOUS
 10
79.6871260562
 20
211.9394025749
 40
0.5
 50
180.0
 51
270.0
  0
ARC
  8
0
 62
7
  6
CONTINUOUS
 10
81.5571260562
 20
211.9394025749
 40
0.5
 50
270.0
 51
360.0
  0
ARC
  8
0
 62
7
  6
CONTINUOUS
 10
78.6871260562
 20
215.1394025749
 40
0.5
 50
0.0
 51
90.0
  0
ARC
  8
0
 62
7
  6
CONTINUOUS
 10
70.0752769496
 20
218.1394012076
 40
0.5
 50
89.9999972651
 51
178.9998432916
  0
ARC
  8
0
 62
7
  6
CONTINUOUS
 10
81.5571260562
 20
218.1394025749
 40
0.5
 50
0.0
 51
90.0
  0
ARC
  8
0
 62
7
  6
CONTINUOUS
 10
62.4389833513
 20
218.1394025749
 40
0.49999643
 50
1.0000164243
 51
90.0009410652
  0
ARC
  8
0
 62
7
  6
CONTINUOUS
 10
75.1389833513
 20
218.1394025749
 40
0.49999643
 50
1.0000164243
 51
90.0009410652
  0
ARC
  8
0
 62
7
  6
CONTINUOUS
 10
144.5100590132
 20
211.8394025749
 40
2.0
 50
269.9986507712
 51
300.0
  0
ARC
  8
0
 62
9
  6
CONTINUOUS
 10
144.5100590132
 20
211.8394025749
 40
1.5
 50
270.0
 51
300.0
  0
ARC
  8
0
 62
7
  6
CONTINUOUS
 10
144.0972386901
 20
214.2394025749
 40
4.4
 50
89.9988331077
 51
270.0011417295
  0
ARC
  8
0
 62
9
  6
CONTINUOUS
 10
144.0972386901
 20
214.2394025749
 40
3.9
 50
90.0
 51
270.0
  0
CIRCLE
  8
1_AXIS
 62
7
  6
CONTINUOUS
 10
144.0972386901
 20
214.2394025749
 40
2.6
  0
ARC
  8
0
 62
9
  6
CONTINUOUS
 10
148.0851878826
 20
210.4394025749
 40
1.5
 50
90.0
 51
120.0
  0
ARC
  8
0
 62
7
  6
CONTINUOUS
 10
148.0851878826
 20
210.4394025749
 40
1.0
 50
90.0
 51
120.0
  0
ARC
  8
0
 62
7
  6
CONTINUOUS
 10
151.3572386901
 20
212.4394025749
 40
1.0
 50
270.0
 51
360.0
  0
ARC
  8
0
 62
9
  6
CONTINUOUS
 10
151.3572386901
 20
212.4394025749
 40
0.5
 50
270.0
 51
360.0
  0
ARC
  8
0
 62
7
  6
CONTINUOUS
 10
156.3844183671
 20
211.8394025749
 40
2.0
 50
239.9986798471
 51
270.0013492283
  0
ARC
  8
0
 62
7
  6
CONTINUOUS
 10
154.4227493408
 20
211.8172721769
 40
1.0
 50
225.4295356851
 51
240.0
  0
ARC
  8
0
 62
7
  6
CONTINUOUS
 10
156.7972386901
 20
214.2394025749
 40
4.4
 50
269.9988331077
 51
90.0011872117
  0
ARC
  8
0
 62
7
  6
CONTINUOUS
 10
156.8088097623
 20
214.2394025749
 40
4.4
 50
181.9997941397
 51
225.4298151528
  0
CIRCLE
  8
0
 62
7
  6
CONTINUOUS
 10
156.7972386901
 20
214.2394025749
 40
2.6
  0
ARC
  8
0
 62
7
  6
CONTINUOUS
 10
151.8572386901
 20
218.1394025749
 40
0.5
 50
0.0
 51
90.0
  0
ARC
  8
0
 62
7
  6
CONTINUOUS
 10
151.8744040034
 20
215.1394025749
 40
0.4999951526
 50
2.0000387955
 51
8.8070899432
  0
ENDSEC
  0
EOF
