  0
SECTION
  2
HEADER
  9
$EXTMAX
 10
210.0
 20
297.0
 30
0.0
  9
$EXTMIN
 10
0.0
 20
0.0
 30
0.0
  9
$LIMMIN
 10
0.0
 20
0.0
  9
$LIMMAX
 10
210.0
 20
297.0
  9
$VIEWCTR
 10
105.0
 20
148.5
  9
$VIEWSIZE
 40
297.0
  9
$CLAYER
  8
0
  9
$LTSCALE
 40
19.36
  9
$CELTYPE
  6
BYLAYER
  9
$DIMSCALE
 40
1.0
  9
$DIMASZ
 40
3.5
  9
$DIMEXO
 40
1.0
  9
$DIMDLI
 40
13.376
  9
$DIMEXE
 40
2.0
  9
$DIMCEN
 40
3.168
  9
$DIMLFAC
 40
1.0
  9
$DIMBLK
  1
_FILLED
  9
$DIMALT
 70
0
  9
$DIMALTF
 40
0.0393700787
  9
$DIMTXT
 40
3.5
  9
$AUNITS
 70
0
  9
$PDMODE
 70
3
  9
$PDSIZE
 40
0.3125
  9
$TILEMODE
 70
1
  0
ENDSEC
  0
SECTION
  2
TABLES
  0
TABLE
  2
LTYPE
 70
6
  0
LTYPE
  2
BYBLOCK
 70
0
  3

 72
65
 73
0
 40
0.0
  0
LTYPE
  2
BYLAYER
 70
0
  3

 72
65
 73
0
 40
0.0
  0
LTYPE
  2
CONTINUOUS
 70
64
  3
Solid line
 72
65
 73
0
 40
0.0
  0
LTYPE
  2
CENTER
 70
64
  3
____ _ ____ _ ____ _ ____ _ ____ _ ____ _ ____
 72
65
 73
4
 40
0.6
 49
0.375
 49
-0.075
 49
0.075
 49
-0.075
  0
LTYPE
  2
HIDDEN
 70
64
  3
- - - - - - - - - - - - - - - - - - - -
 72
65
 73
2
 40
0.2
 49
0.1
 49
-0.1
  0
LTYPE
  2
PHANTOM
 70
64
  3
_____ _ _ _____ _ _ _____ _ _ _____
 72
65
 73
6
 40
0.8
 49
0.45
 49
-0.05
 49
0.1
 49
-0.05
 49
0.1
 49
-0.05
  0
LTYPE
  2
DOT
 70
64
  3
. . . . . . . . . . . . . . . . . . . .
 72
65
 73
2
 40
0.2
 49
0.1
 49
-0.1
  0
LTYPE
  2
DASHED
 70
64
  3
- - - - - - - - - - - - - - - - - - - -
 72
65
 73
2
 40
0.2
 49
0.1
 49
-0.1
  0
ENDTAB
  0
TABLE
  2
LAYER
 70
36
  0
LAYER
  2
0
 70
0
 62
7
  6
CONTINUOUS
  0
LAYER
  2
DEFAULT_1
 70
0
 62
7
  6
CENTER
  0
LAYER
  2
DEFAULT_2
 70
0
 62
8
  6
HIDDEN
  0
LAYER
  2
DEFAULT_3
 70
0
 62
7
  6
PHANTOM
  0
LAYER
  2
1_AXIS
 70
0
 62
7
  6
CONTINUOUS
  0
LAYER
  2
1_CSYS
 70
0
 62
7
  6
CONTINUOUS
  0
LAYER
  2
1_DATUM_PLANE
 70
0
 62
7
  6
CONTINUOUS
  0
LAYER
  2
1_DATUM_PLANES
 70
0
 62
7
  6
CONTINUOUS
  0
LAYER
  2
2_FEATURE
 70
0
 62
7
  6
CONTINUOUS
  0
LAYER
  2
4_QUILT
 70
0
 62
7
  6
CONTINUOUS
  0
LAYER
  2
4_SURFACE
 70
0
 62
7
  6
CONTINUOUS
  0
LAYER
  2
6_DIM
 70
0
 62
7
  6
CONTINUOUS
  0
LAYER
  2
CSYS
 70
0
 62
7
  6
CONTINUOUS
  0
LAYER
  2
XSEC_DATUMS
 70
0
 62
7
  6
CONTINUOUS
  0
ENDTAB
  0
TABLE
  2
STYLE
 70
1
  0
STYLE
  2
STANDARD
 70
0
 40
0.0
 41
0.8
 50
0.0
 71
0
 42
0.2
  3
txt
  4

  0
STYLE
  2
TEXTSTYLE_1
 70
0
 40
0.0
 41
0.8
 50
0.0
 71
0
 42
0.2
  3
gdt
  4

  0
STYLE
  2
TEXTSTYLE_2
 70
0
 40
0.0
 41
0.6
 50
0.0
 71
0
 42
0.2
  3
txt
  4

  0
STYLE
  2
TEXTSTYLE_3
 70
0
 40
0.0
 41
1.0
 50
0.0
 71
0
 42
0.2
  3
ftb_____.ttf
  4

  0
STYLE
  2
TEXTSTYLE_4
 70
0
 40
0.0
 41
1.0
 50
0.0
 71
0
 42
0.2
  3
fti_____.ttf
  4

  0
STYLE
  2
TEXTSTYLE_5
 70
0
 40
0.0
 41
1.0
 50
0.0
 71
0
 42
0.2
  3
frutiger light.ttf
  4

  0
STYLE
  2
TEXTSTYLE_6
 70
0
 40
0.0
 41
0.7
 50
0.0
 71
0
 42
0.2
  3
txt
  4

  0
STYLE
  2
TEXTSTYLE_7
 70
0
 40
0.0
 41
0.8
 50
0.0
 71
0
 42
0.2
  3
txt
  4

  0
ENDTAB
  0
ENDSEC
  0
SECTION
  2
BLOCKS
  0
BLOCK
  8
0
 62
2
  6
CONTINUOUS
  2
UNI_LOGO2_BL1
 70
64
 10
173.5956734183
 20
35.5937998301
  0
TEXT
  8
0
 62
7
  6
CONTINUOUS
 10
164.6539584268
 20
30.6865562072
  7
TEXTSTYLE_4
 40
1.0655737705
  1
The brand for plastic modular belts and chains
 41
1.0
 72
0
  0
LINE
  8
0
 62
7
  6
CONTINUOUS
 10
149.5737418074
 20
36.1675703219
 11
149.5737418074
 21
34.0364227809
  0
LINE
  8
0
 62
7
  6
CONTINUOUS
 10
149.8628043005
 20
31.0454914852
 11
149.8628043005
 21
31.1422825445
  0
LINE
  8
0
 62
7
  6
CONTINUOUS
 10
149.5737418074
 20
31.1100188581
 11
149.6315543091
 21
30.9164367395
  0
LINE
  8
0
 62
7
  6
CONTINUOUS
 10
150.9671844304
 20
33.9544555678
 11
150.9671844304
 21
36.1675703219
  0
LINE
  8
0
 62
7
  6
CONTINUOUS
 10
151.8862417523
 20
32.1101932727
 11
151.8862417523
 21
30.5937998301
  0
LINE
  8
0
 62
7
  6
CONTINUOUS
 10
152.1753043074
 20
30.5937998301
 11
152.1753043074
 21
31.3358647082
  0
LINE
  8
0
 62
7
  6
CONTINUOUS
 10
152.1753043074
 20
31.4649194539
 11
152.1753043074
 21
32.1101932727
  0
LINE
  8
0
 62
7
  6
CONTINUOUS
 10
149.6315543091
 20
31.3036010218
 11
149.5737418074
 21
31.1100188581
  0
LINE
  8
0
 62
7
  6
CONTINUOUS
 10
149.9784292936
 20
30.8841730531
 11
149.8628043005
 21
31.0454914852
  0
LINE
  8
0
 62
7
  6
CONTINUOUS
 10
151.0768668626
 20
31.400392081
 11
151.1346793074
 21
31.3036010218
  0
LINE
  8
0
 62
7
  6
CONTINUOUS
 10
151.4237418626
 20
31.3036010218
 11
151.3659292523
 21
31.4326557675
  0
LINE
  8
0
 62
7
  6
CONTINUOUS
 10
152.852430332
 20
36.1675703219
 11
152.852430332
 21
34.3642916334
  0
LINE
  8
0
 62
7
  6
CONTINUOUS
 10
152.852430332
 20
33.0528162235
 11
152.852430332
 21
32.3970785186
  0
LINE
  8
0
 62
7
  6
CONTINUOUS
 10
153.2159293074
 20
31.2390736489
 11
153.2159293074
 21
30.5937998301
  0
LINE
  8
0
 62
7
  6
CONTINUOUS
 10
153.5049916972
 20
30.5937998301
 11
153.5049916972
 21
31.2390736489
  0
LINE
  8
0
 62
7
  6
CONTINUOUS
 10
149.8628043005
 20
31.1422825445
 11
149.9206168074
 21
31.2713373354
  0
LINE
  8
0
 62
7
  6
CONTINUOUS
 10
149.6315543091
 20
30.9164367395
 11
149.7471793074
 21
30.7873819712
  0
LINE
  8
0
 62
7
  6
CONTINUOUS
 10
153.1581166972
 20
31.3681283946
 11
153.2159293074
 21
31.2390736489
  0
LINE
  8
0
 62
7
  6
CONTINUOUS
 10
153.9674919177
 20
30.8841730531
 11
154.0253041972
 21
30.7551182848
  0
LINE
  8
0
 62
7
  6
CONTINUOUS
 10
153.5049916972
 20
31.2390736489
 11
153.4471794177
 21
31.400392081
  0
LINE
  8
0
 62
7
  6
CONTINUOUS
 10
153.9674919177
 20
31.4326557675
 11
153.9674919177
 21
31.3681283946
  0
LINE
  8
0
 62
7
  6
CONTINUOUS
 10
153.9674919177
 20
30.9809641124
 11
153.9674919177
 21
30.8841730531
  0
LINE
  8
0
 62
7
  6
CONTINUOUS
 10
154.245872955
 20
32.3970785186
 11
154.245872955
 21
36.1675703219
  0
LINE
  8
0
 62
7
  6
CONTINUOUS
 10
154.2565543074
 20
30.8519093441
 11
154.2565543074
 21
30.9164367395
  0
LINE
  8
0
 62
7
  6
CONTINUOUS
 10
154.5737418074
 20
36.1675703219
 11
154.5737418074
 21
32.3970785186
  0
LINE
  8
0
 62
7
  6
CONTINUOUS
 10
151.3659292523
 20
30.7873819712
 11
151.4237418626
 21
30.9164367395
  0
LINE
  8
0
 62
7
  6
CONTINUOUS
 10
155.759679528
 20
30.6905909007
 11
155.7018665869
 21
30.8519093441
  0
LINE
  8
0
 62
7
  6
CONTINUOUS
 10
155.412804528
 20
31.3681283946
 11
155.412804528
 21
31.2713373354
  0
LINE
  8
0
 62
7
  6
CONTINUOUS
 10
155.412804528
 20
31.1422825445
 11
155.412804528
 21
30.9487004259
  0
LINE
  8
0
 62
7
  6
CONTINUOUS
 10
155.7018665869
 20
30.8519093441
 11
155.7018665869
 21
31.3681283946
  0
LINE
  8
0
 62
7
  6
CONTINUOUS
 10
155.9671844304
 20
32.3970785186
 11
155.9671844304
 21
34.2003572071
  0
LINE
  8
0
 62
7
  6
CONTINUOUS
 10
155.9671844304
 20
35.511832617
 11
155.9671844304
 21
36.1675703219
  0
LINE
  8
0
 62
7
  6
CONTINUOUS
 10
156.279992028
 20
32.1101932727
 11
156.279992028
 21
31.9488748406
  0
LINE
  8
0
 62
7
  6
CONTINUOUS
 10
156.279992028
 20
31.626237886
 11
156.279992028
 21
30.5937998301
  0
LINE
  8
0
 62
7
  6
CONTINUOUS
 10
156.5690540869
 20
30.5937998301
 11
156.5690540869
 21
31.626237886
  0
LINE
  8
0
 62
7
  6
CONTINUOUS
 10
156.5690540869
 20
31.9488748406
 11
156.5690540869
 21
32.1101932727
  0
LINE
  8
0
 62
7
  6
CONTINUOUS
 10
151.1346793074
 20
30.9164367395
 11
151.0768668626
 21
30.8196456577
  0
LINE
  8
0
 62
7
  6
CONTINUOUS
 10
153.4471794177
 20
31.400392081
 11
153.3893668074
 21
31.4649194539
  0
LINE
  8
0
 62
7
  6
CONTINUOUS
 10
154.3143669177
 20
30.7873819712
 11
154.2565543074
 21
30.8519093441
  0
LINE
  8
0
 62
7
  6
CONTINUOUS
 10
155.4706168074
 20
30.6583272086
 11
155.5284290869
 21
30.5937998301
  0
LINE
  8
0
 62
7
  6
CONTINUOUS
 10
155.412804528
 20
30.7551182848
 11
155.4706168074
 21
30.6583272086
  0
LINE
  8
0
 62
7
  6
CONTINUOUS
 10
155.8174918074
 20
30.5937998301
 11
155.759679528
 21
30.6905909007
  0
LINE
  8
0
 62
7
  6
CONTINUOUS
 10
155.7018665869
 20
31.3681283946
 11
155.6440543074
 21
31.4649194539
  0
LINE
  8
0
 62
7
  6
CONTINUOUS
 10
157.0315543074
 20
31.626237886
 11
157.0315543074
 21
30.5937998301
  0
LINE
  8
0
 62
7
  6
CONTINUOUS
 10
157.320617028
 20
30.5937998301
 11
157.320617028
 21
31.3358647082
  0
LINE
  8
0
 62
7
  6
CONTINUOUS
 10
157.320617028
 20
31.4649194539
 11
157.320617028
 21
31.626237886
  0
LINE
  8
0
 62
7
  6
CONTINUOUS
 10
157.852430332
 20
34.6101932727
 11
157.852430332
 21
32.3970785186
  0
LINE
  8
0
 62
7
  6
CONTINUOUS
 10
149.7471793074
 20
31.4326557675
 11
149.6315543091
 21
31.3036010218
  0
LINE
  8
0
 62
7
  6
CONTINUOUS
 10
149.9206168074
 20
31.2713373354
 11
149.9784292936
 21
31.3358647082
  0
LINE
  8
0
 62
7
  6
CONTINUOUS
 10
149.7471793074
 20
30.7873819712
 11
149.8628043005
 21
30.7228545871
  0
LINE
  8
0
 62
7
  6
CONTINUOUS
 10
150.1518667936
 20
30.7873819712
 11
149.9784292936
 21
30.8841730531
  0
LINE
  8
0
 62
7
  6
CONTINUOUS
 10
155.3549915869
 20
31.4326557675
 11
155.412804528
 21
31.3681283946
  0
LINE
  8
0
 62
7
  6
CONTINUOUS
 10
158.3034290869
 20
31.3681283946
 11
158.361242028
 21
31.2068099625
  0
LINE
  8
0
 62
7
  6
CONTINUOUS
 10
158.6503040869
 20
31.2068099625
 11
158.5924918074
 21
31.3681283946
  0
LINE
  8
0
 62
7
  6
CONTINUOUS
 10
158.361242028
 20
31.2068099625
 11
158.361242028
 21
30.5937998301
  0
LINE
  8
0
 62
7
  6
CONTINUOUS
 10
158.6503040869
 20
30.5937998301
 11
158.6503040869
 21
31.2068099625
  0
LINE
  8
0
 62
7
  6
CONTINUOUS
 10
159.1128043074
 20
31.4326557675
 11
159.1128043074
 21
31.3681283946
  0
LINE
  8
0
 62
7
  6
CONTINUOUS
 10
159.245872955
 20
32.3970785186
 11
159.245872955
 21
34.5282260596
  0
LINE
  8
0
 62
7
  6
CONTINUOUS
 10
159.5737418074
 20
36.1675703219
 11
159.5737418074
 21
32.3970785186
  0
LINE
  8
0
 62
7
  6
CONTINUOUS
 10
154.2565543074
 20
30.9164367395
 11
154.3143669177
 21
31.0132277988
  0
LINE
  8
0
 62
7
  6
CONTINUOUS
 10
149.8628043005
 20
30.7228545871
 11
150.0362418212
 21
30.6583272086
  0
LINE
  8
0
 62
7
  6
CONTINUOUS
 10
151.3659292523
 20
31.4326557675
 11
151.1924917523
 21
31.5294468267
  0
LINE
  8
0
 62
7
  6
CONTINUOUS
 10
154.0253041972
 20
30.7551182848
 11
154.1987416972
 21
30.6583272086
  0
LINE
  8
0
 62
7
  6
CONTINUOUS
 10
153.0424918074
 20
31.4326557675
 11
153.1581166972
 21
31.3681283946
  0
LINE
  8
0
 62
7
  6
CONTINUOUS
 10
153.3893668074
 20
31.4649194539
 11
153.2737419177
 21
31.5294468267
  0
LINE
  8
0
 62
7
  6
CONTINUOUS
 10
159.1128043074
 20
30.8519093441
 11
159.228429528
 21
30.7228545871
  0
LINE
  8
0
 62
7
  6
CONTINUOUS
 10
159.4596793074
 20
30.7873819712
 11
159.401867028
 21
30.8519093441
  0
LINE
  8
0
 62
7
  6
CONTINUOUS
 10
159.1128043074
 20
31.3681283946
 11
159.228429528
 21
31.2390736489
  0
LINE
  8
0
 62
7
  6
CONTINUOUS
 10
158.5924918074
 20
31.3681283946
 11
158.534679528
 21
31.4649194539
  0
LINE
  8
0
 62
7
  6
CONTINUOUS
 10
160.9628038663
 20
30.7873819712
 11
160.9628038663
 21
30.8519093441
  0
LINE
  8
0
 62
7
  6
CONTINUOUS
 10
160.9671844304
 20
32.3970785186
 11
160.9671844304
 21
36.1675703219
  0
LINE
  8
0
 62
7
  6
CONTINUOUS
 10
154.0253041972
 20
31.4971831403
 11
153.9674919177
 21
31.4326557675
  0
LINE
  8
0
 62
7
  6
CONTINUOUS
 10
150.9034292799
 20
31.4649194539
 11
151.0768668626
 21
31.400392081
  0
LINE
  8
0
 62
7
  6
CONTINUOUS
 10
155.6440543074
 20
31.4649194539
 11
155.5284290869
 21
31.5294468267
  0
LINE
  8
0
 62
7
  6
CONTINUOUS
 10
159.4596793074
 20
31.3036010218
 11
159.401867028
 21
31.3681283946
  0
LINE
  8
0
 62
7
  6
CONTINUOUS
 10
160.615929528
 20
30.9164367395
 11
160.6737418074
 21
30.8519093441
  0
LINE
  8
0
 62
7
  6
CONTINUOUS
 10
160.9628038663
 20
30.8519093441
 11
160.8471793074
 21
30.9809641124
  0
LINE
  8
0
 62
7
  6
CONTINUOUS
 10
160.615929528
 20
31.4326557675
 11
160.6737418074
 21
31.3681283946
  0
LINE
  8
0
 62
7
  6
CONTINUOUS
 10
160.9628038663
 20
31.3681283946
 11
160.8471793074
 21
31.4971831403
  0
LINE
  8
0
 62
7
  6
CONTINUOUS
 10
154.2565543074
 20
31.3681283946
 11
154.3143669177
 21
31.4326557675
  0
LINE
  8
0
 62
7
  6
CONTINUOUS
 10
154.0831168074
 20
31.1100188581
 11
153.9674919177
 21
30.9809641124
  0
LINE
  8
0
 62
7
  6
CONTINUOUS
 10
155.412804528
 20
30.9487004259
 11
155.3549915869
 21
30.8841730531
  0
LINE
  8
0
 62
7
  6
CONTINUOUS
 10
155.3549915869
 20
30.6905909007
 11
155.412804528
 21
30.7551182848
  0
LINE
  8
0
 62
7
  6
CONTINUOUS
 10
154.1987416972
 20
30.6583272086
 11
154.3143669177
 21
30.6260635193
  0
LINE
  8
0
 62
7
  6
CONTINUOUS
 10
151.1924917523
 20
31.5294468267
 11
150.9612418074
 21
31.5939741996
  0
LINE
  8
0
 62
7
  6
CONTINUOUS
 10
154.5456166972
 20
30.7228545871
 11
154.3143669177
 21
30.7873819712
  0
LINE
  8
0
 62
7
  6
CONTINUOUS
 10
153.2737419177
 20
31.5294468267
 11
153.1003044177
 21
31.5939741996
  0
LINE
  8
0
 62
7
  6
CONTINUOUS
 10
155.5284290869
 20
31.5294468267
 11
155.3549915869
 21
31.5939741996
  0
LINE
  8
0
 62
7
  6
CONTINUOUS
 10
158.187804528
 20
31.4326557675
 11
158.3034290869
 21
31.3681283946
  0
LINE
  8
0
 62
7
  6
CONTINUOUS
 10
158.534679528
 20
31.4649194539
 11
158.4190543074
 21
31.5294468267
  0
LINE
  8
0
 62
7
  6
CONTINUOUS
 10
150.0362418212
 20
30.6583272086
 11
150.2096793212
 21
30.6260635193
  0
LINE
  8
0
 62
7
  6
CONTINUOUS
 10
150.498741835
 20
30.7228545871
 11
150.1518667936
 21
30.7873819712
  0
LINE
  8
0
 62
7
  6
CONTINUOUS
 10
152.9268669177
 20
31.4649194539
 11
153.0424918074
 21
31.4326557675
  0
LINE
  8
0
 62
7
  6
CONTINUOUS
 10
155.239367028
 20
31.4649194539
 11
155.3549915869
 21
31.4326557675
  0
LINE
  8
0
 62
7
  6
CONTINUOUS
 10
159.575304528
 20
30.7551182848
 11
159.4596793074
 21
30.7873819712
  0
LINE
  8
0
 62
7
  6
CONTINUOUS
 10
158.0721793074
 20
31.4649194539
 11
158.187804528
 21
31.4326557675
  0
LINE
  8
0
 62
7
  6
CONTINUOUS
 10
159.228429528
 20
30.7228545871
 11
159.401867028
 21
30.6583272086
  0
LINE
  8
0
 62
7
  6
CONTINUOUS
 10
158.4190543074
 20
31.5294468267
 11
158.2456168074
 21
31.5939741996
  0
LINE
  8
0
 62
7
  6
CONTINUOUS
 10
159.6331168074
 20
31.2390736489
 11
159.4596793074
 21
31.3036010218
  0
LINE
  8
0
 62
7
  6
CONTINUOUS
 10
160.442492028
 20
30.9809641124
 11
160.615929528
 21
30.9164367395
  0
LINE
  8
0
 62
7
  6
CONTINUOUS
 10
160.8471793074
 20
31.4971831403
 11
160.6737418074
 21
31.5617105132
  0
LINE
  8
0
 62
7
  6
CONTINUOUS
 10
159.228429528
 20
31.2390736489
 11
159.4596793074
 21
31.1422825445
  0
LINE
  8
0
 62
7
  6
CONTINUOUS
 10
160.8471793074
 20
30.9809641124
 11
160.615929528
 21
31.0777551716
  0
LINE
  8
0
 62
7
  6
CONTINUOUS
 10
159.401867028
 20
31.3681283946
 11
159.4596793074
 21
31.4326557675
  0
LINE
  8
0
 62
7
  6
CONTINUOUS
 10
149.8628043005
 20
31.4971831403
 11
149.7471793074
 21
31.4326557675
  0
LINE
  8
0
 62
7
  6
CONTINUOUS
 10
149.9784292936
 20
31.3358647082
 11
150.1518667936
 21
31.4326557675
  0
LINE
  8
0
 62
7
  6
CONTINUOUS
 10
152.2909293626
 20
31.5294468267
 11
152.1753043074
 21
31.4649194539
  0
LINE
  8
0
 62
7
  6
CONTINUOUS
 10
152.1753043074
 20
31.3358647082
 11
152.2909293626
 21
31.400392081
  0
LINE
  8
0
 62
7
  6
CONTINUOUS
 10
151.1924917523
 20
30.6905909007
 11
151.3659292523
 21
30.7873819712
  0
LINE
  8
0
 62
7
  6
CONTINUOUS
 10
150.2096793212
 20
30.6260635193
 11
150.5565542799
 21
30.5937998301
  0
LINE
  8
0
 62
7
  6
CONTINUOUS
 10
154.3143669177
 20
30.6260635193
 11
154.5456166972
 21
30.5937998301
  0
LINE
  8
0
 62
7
  6
CONTINUOUS
 10
152.6956168074
 20
31.4971831403
 11
152.9268669177
 21
31.4649194539
  0
LINE
  8
0
 62
7
  6
CONTINUOUS
 10
155.0081169177
 20
31.4971831403
 11
155.239367028
 21
31.4649194539
  0
LINE
  8
0
 62
7
  6
CONTINUOUS
 10
159.4596793074
 20
31.1422825445
 11
160.442492028
 21
30.9809641124
  0
LINE
  8
0
 62
7
  6
CONTINUOUS
 10
160.615929528
 20
31.0777551716
 11
159.6331168074
 21
31.2390736489
  0
LINE
  8
0
 62
7
  6
CONTINUOUS
 10
153.1003044177
 20
31.5939741996
 11
152.9268669177
 21
31.626237886
  0
LINE
  8
0
 62
7
  6
CONTINUOUS
 10
159.401867028
 20
30.6583272086
 11
159.575304528
 21
30.6260635193
  0
LINE
  8
0
 62
7
  6
CONTINUOUS
 10
158.2456168074
 20
31.5939741996
 11
158.0721793074
 21
31.626237886
  0
LINE
  8
0
 62
7
  6
CONTINUOUS
 10
160.5003043074
 20
31.4649194539
 11
160.615929528
 21
31.4326557675
  0
LINE
  8
0
 62
7
  6
CONTINUOUS
 10
160.6737418074
 20
30.8519093441
 11
160.615929528
 21
30.7873819712
  0
LINE
  8
0
 62
7
  6
CONTINUOUS
 10
159.228429528
 20
31.5294468267
 11
159.1128043074
 21
31.4326557675
  0
LINE
  8
0
 62
7
  6
CONTINUOUS
 10
154.1409294177
 20
31.5617105132
 11
154.0253041972
 21
31.4971831403
  0
LINE
  8
0
 62
7
  6
CONTINUOUS
 10
154.1987416972
 20
31.1745462761
 11
154.0831168074
 21
31.1100188581
  0
LINE
  8
0
 62
7
  6
CONTINUOUS
 10
154.3143669177
 20
31.0132277988
 11
154.4299918074
 21
31.0777551716
  0
LINE
  8
0
 62
7
  6
CONTINUOUS
 10
151.8862417523
 20
30.5937998301
 11
152.1753043074
 21
30.5937998301
  0
LINE
  8
0
 62
7
  6
CONTINUOUS
 10
153.2159293074
 20
30.5937998301
 11
153.5049916972
 21
30.5937998301
  0
LINE
  8
0
 62
7
  6
CONTINUOUS
 10
154.5456166972
 20
30.5937998301
 11
154.8924916972
 21
30.5937998301
  0
LINE
  8
0
 62
7
  6
CONTINUOUS
 10
155.5284290869
 20
30.5937998301
 11
155.8174918074
 21
30.5937998301
  0
LINE
  8
0
 62
7
  6
CONTINUOUS
 10
156.279992028
 20
30.5937998301
 11
156.5690540869
 21
30.5937998301
  0
LINE
  8
0
 62
7
  6
CONTINUOUS
 10
157.0315543074
 20
30.5937998301
 11
157.320617028
 21
30.5937998301
  0
LINE
  8
0
 62
7
  6
CONTINUOUS
 10
158.361242028
 20
30.5937998301
 11
158.6503040869
 21
30.5937998301
  0
LINE
  8
0
 62
7
  6
CONTINUOUS
 10
159.922179528
 20
30.5937998301
 11
160.269054528
 21
30.5937998301
  0
LINE
  8
0
 62
7
  6
CONTINUOUS
 10
160.269054528
 20
30.7228545871
 11
159.922179528
 21
30.7228545871
  0
LINE
  8
0
 62
7
  6
CONTINUOUS
 10
154.8924916972
 20
30.7228545871
 11
154.5456166972
 21
30.7228545871
  0
LINE
  8
0
 62
7
  6
CONTINUOUS
 10
159.401867028
 20
30.8519093441
 11
159.1128043074
 21
30.8519093441
  0
LINE
  8
0
 62
7
  6
CONTINUOUS
 10
151.4237418626
 20
30.9164367395
 11
151.1346793074
 21
30.9164367395
  0
LINE
  8
0
 62
7
  6
CONTINUOUS
 10
150.498741835
 20
31.4971831403
 11
150.9034292799
 21
31.4649194539
  0
LINE
  8
0
 62
7
  6
CONTINUOUS
 10
150.9612418074
 20
31.5939741996
 11
150.5565542799
 21
31.626237886
  0
LINE
  8
0
 62
7
  6
CONTINUOUS
 10
159.575304528
 20
30.6260635193
 11
159.922179528
 21
30.5937998301
  0
LINE
  8
0
 62
7
  6
CONTINUOUS
 10
159.922179528
 20
30.7228545871
 11
159.575304528
 21
30.7551182848
  0
LINE
  8
0
 62
7
  6
CONTINUOUS
 10
155.3549915869
 20
31.5939741996
 11
155.0081169177
 21
31.626237886
  0
LINE
  8
0
 62
7
  6
CONTINUOUS
 10
160.1534293074
 20
31.4971831403
 11
160.5003043074
 21
31.4649194539
  0
LINE
  8
0
 62
7
  6
CONTINUOUS
 10
160.5003043074
 20
31.5939741996
 11
160.1534293074
 21
31.626237886
  0
LINE
  8
0
 62
7
  6
CONTINUOUS
 10
157.840929528
 20
31.4971831403
 11
158.0721793074
 21
31.4649194539
  0
LINE
  8
0
 62
7
  6
CONTINUOUS
 10
160.6737418074
 20
31.5617105132
 11
160.5003043074
 21
31.5939741996
  0
LINE
  8
0
 62
7
  6
CONTINUOUS
 10
160.8471793074
 20
30.6905909007
 11
160.9628038663
 21
30.7873819712
  0
LINE
  8
0
 62
7
  6
CONTINUOUS
 10
155.3549915869
 20
30.8841730531
 11
155.1815540869
 21
30.7873819712
  0
LINE
  8
0
 62
7
  6
CONTINUOUS
 10
157.4362415869
 20
31.5294468267
 11
157.320617028
 21
31.4649194539
  0
LINE
  8
0
 62
7
  6
CONTINUOUS
 10
157.320617028
 20
31.3358647082
 11
157.4362415869
 21
31.400392081
  0
LINE
  8
0
 62
7
  6
CONTINUOUS
 10
150.0362418212
 20
31.5617105132
 11
149.8628043005
 21
31.4971831403
  0
LINE
  8
0
 62
7
  6
CONTINUOUS
 10
152.4643666972
 20
31.5939741996
 11
152.2909293626
 21
31.5294468267
  0
LINE
  8
0
 62
7
  6
CONTINUOUS
 10
152.2909293626
 20
31.400392081
 11
152.4643666972
 21
31.4649194539
  0
LINE
  8
0
 62
7
  6
CONTINUOUS
 10
151.0768668626
 20
30.8196456577
 11
150.9034292799
 21
30.7551182848
  0
LINE
  8
0
 62
7
  6
CONTINUOUS
 10
160.5003043074
 20
30.7551182848
 11
160.269054528
 21
30.7228545871
  0
LINE
  8
0
 62
7
  6
CONTINUOUS
 10
154.8924916972
 20
30.5937998301
 11
155.1815540869
 21
30.6260635193
  0
LINE
  8
0
 62
7
  6
CONTINUOUS
 10
160.269054528
 20
30.5937998301
 11
160.615929528
 21
30.6260635193
  0
LINE
  8
0
 62
7
  6
CONTINUOUS
 10
150.5565542799
 20
30.5937998301
 11
150.9612418074
 21
30.6260635193
  0
LINE
  8
0
 62
7
  6
CONTINUOUS
 10
150.9034292799
 20
30.7551182848
 11
150.498741835
 21
30.7228545871
  0
LINE
  8
0
 62
7
  6
CONTINUOUS
 10
154.7768668074
 20
31.1422825445
 11
155.412804528
 21
31.1422825445
  0
LINE
  8
0
 62
7
  6
CONTINUOUS
 10
155.412804528
 20
31.2713373354
 11
154.7768668074
 21
31.2713373354
  0
LINE
  8
0
 62
7
  6
CONTINUOUS
 10
151.1346793074
 20
31.3036010218
 11
151.4237418626
 21
31.3036010218
  0
LINE
  8
0
 62
7
  6
CONTINUOUS
 10
153.9674919177
 20
31.3681283946
 11
154.2565543074
 21
31.3681283946
  0
LINE
  8
0
 62
7
  6
CONTINUOUS
 10
160.6737418074
 20
31.3681283946
 11
160.9628038663
 21
31.3681283946
  0
LINE
  8
0
 62
7
  6
CONTINUOUS
 10
154.6612419177
 20
31.4971831403
 11
155.0081169177
 21
31.4971831403
  0
LINE
  8
0
 62
7
  6
CONTINUOUS
 10
159.8065543074
 20
31.4971831403
 11
160.1534293074
 21
31.4971831403
  0
LINE
  8
0
 62
7
  6
CONTINUOUS
 10
160.1534293074
 20
31.626237886
 11
159.8065543074
 21
31.626237886
  0
LINE
  8
0
 62
7
  6
CONTINUOUS
 10
158.0721793074
 20
31.626237886
 11
157.840929528
 21
31.626237886
  0
LINE
  8
0
 62
7
  6
CONTINUOUS
 10
157.320617028
 20
31.626237886
 11
157.0315543074
 21
31.626237886
  0
LINE
  8
0
 62
7
  6
CONTINUOUS
 10
156.5690540869
 20
31.626237886
 11
156.279992028
 21
31.626237886
  0
LINE
  8
0
 62
7
  6
CONTINUOUS
 10
155.0081169177
 20
31.626237886
 11
154.6612419177
 21
31.626237886
  0
LINE
  8
0
 62
7
  6
CONTINUOUS
 10
152.9268669177
 20
31.626237886
 11
152.6956168074
 21
31.626237886
  0
LINE
  8
0
 62
7
  6
CONTINUOUS
 10
156.279992028
 20
31.9488748406
 11
156.5690540869
 21
31.9488748406
  0
LINE
  8
0
 62
7
  6
CONTINUOUS
 10
156.5690540869
 20
32.1101932727
 11
156.279992028
 21
32.1101932727
  0
LINE
  8
0
 62
7
  6
CONTINUOUS
 10
152.1753043074
 20
32.1101932727
 11
151.8862417523
 21
32.1101932727
  0
LINE
  8
0
 62
7
  6
CONTINUOUS
 10
151.2130860697
 20
32.3970785186
 11
151.6256574183
 21
32.3970785186
  0
LINE
  8
0
 62
7
  6
CONTINUOUS
 10
152.852430332
 20
32.3970785186
 11
154.245872955
 21
32.3970785186
  0
LINE
  8
0
 62
7
  6
CONTINUOUS
 10
154.5737418074
 20
32.3970785186
 11
155.9671844304
 21
32.3970785186
  0
LINE
  8
0
 62
7
  6
CONTINUOUS
 10
157.852430332
 20
32.3970785186
 11
159.245872955
 21
32.3970785186
  0
LINE
  8
0
 62
7
  6
CONTINUOUS
 10
159.5737418074
 20
32.3970785186
 11
160.9671844304
 21
32.3970785186
  0
LINE
  8
0
 62
7
  6
CONTINUOUS
 10
157.6096790869
 20
31.5939741996
 11
157.4362415869
 21
31.5294468267
  0
LINE
  8
0
 62
7
  6
CONTINUOUS
 10
155.1815540869
 20
30.6260635193
 11
155.3549915869
 21
30.6905909007
  0
LINE
  8
0
 62
7
  6
CONTINUOUS
 10
160.615929528
 20
30.6260635193
 11
160.8471793074
 21
30.6905909007
  0
LINE
  8
0
 62
7
  6
CONTINUOUS
 10
160.615929528
 20
30.7873819712
 11
160.5003043074
 21
30.7551182848
  0
LINE
  8
0
 62
7
  6
CONTINUOUS
 10
159.575304528
 20
31.4649194539
 11
159.8065543074
 21
31.4971831403
  0
LINE
  8
0
 62
7
  6
CONTINUOUS
 10
157.6096790869
 20
31.4649194539
 11
157.840929528
 21
31.4971831403
  0
LINE
  8
0
 62
7
  6
CONTINUOUS
 10
154.5456166972
 20
31.1100188581
 11
154.7768668074
 21
31.1422825445
  0
LINE
  8
0
 62
7
  6
CONTINUOUS
 10
157.840929528
 20
31.626237886
 11
157.6096790869
 21
31.5939741996
  0
LINE
  8
0
 62
7
  6
CONTINUOUS
 10
154.4299918074
 20
31.4649194539
 11
154.6612419177
 21
31.4971831403
  0
LINE
  8
0
 62
7
  6
CONTINUOUS
 10
159.8065543074
 20
31.626237886
 11
159.4596793074
 21
31.5939741996
  0
LINE
  8
0
 62
7
  6
CONTINUOUS
 10
154.7768668074
 20
31.2713373354
 11
154.4299918074
 21
31.2390736489
  0
LINE
  8
0
 62
7
  6
CONTINUOUS
 10
150.5565542799
 20
31.626237886
 11
150.2096793212
 21
31.5939741996
  0
LINE
  8
0
 62
7
  6
CONTINUOUS
 10
154.6612419177
 20
31.626237886
 11
154.2565543074
 21
31.5939741996
  0
LINE
  8
0
 62
7
  6
CONTINUOUS
 10
152.0327582009
 20
33.5446195022
 11
151.3770204959
 21
33.5446195022
  0
LINE
  8
0
 62
7
  6
CONTINUOUS
 10
157.4362415869
 20
31.400392081
 11
157.6096790869
 21
31.4649194539
  0
LINE
  8
0
 62
7
  6
CONTINUOUS
 10
159.4596793074
 20
31.4326557675
 11
159.575304528
 21
31.4649194539
  0
LINE
  8
0
 62
7
  6
CONTINUOUS
 10
159.4596793074
 20
31.5939741996
 11
159.228429528
 21
31.5294468267
  0
LINE
  8
0
 62
7
  6
CONTINUOUS
 10
155.1815540869
 20
30.7873819712
 11
154.8924916972
 21
30.7228545871
  0
LINE
  8
0
 62
7
  6
CONTINUOUS
 10
152.4643666972
 20
31.4649194539
 11
152.6956168074
 21
31.4971831403
  0
LINE
  8
0
 62
7
  6
CONTINUOUS
 10
152.6956168074
 20
31.626237886
 11
152.4643666972
 21
31.5939741996
  0
LINE
  8
0
 62
7
  6
CONTINUOUS
 10
150.2674918074
 20
31.4649194539
 11
150.498741835
 21
31.4971831403
  0
LINE
  8
0
 62
7
  6
CONTINUOUS
 10
156.7868565615
 20
35.0200293383
 11
157.4425942664
 21
35.0200293383
  0
LINE
  8
0
 62
7
  6
CONTINUOUS
 10
154.4299918074
 20
31.0777551716
 11
154.5456166972
 21
31.1100188581
  0
LINE
  8
0
 62
7
  6
CONTINUOUS
 10
154.4299918074
 20
31.2390736489
 11
154.1987416972
 21
31.1745462761
  0
LINE
  8
0
 62
7
  6
CONTINUOUS
 10
154.3143669177
 20
31.4326557675
 11
154.4299918074
 21
31.4649194539
  0
LINE
  8
0
 62
7
  6
CONTINUOUS
 10
150.9612418074
 20
30.6260635193
 11
151.1924917523
 21
30.6905909007
  0
LINE
  8
0
 62
7
  6
CONTINUOUS
 10
154.2565543074
 20
31.5939741996
 11
154.1409294177
 21
31.5617105132
  0
LINE
  8
0
 62
7
  6
CONTINUOUS
 10
150.2096793212
 20
31.5939741996
 11
150.0362418212
 21
31.5617105132
  0
LINE
  8
0
 62
7
  6
CONTINUOUS
 10
160.9671844304
 20
36.1675703219
 11
159.5737418074
 21
36.1675703219
  0
LINE
  8
0
 62
7
  6
CONTINUOUS
 10
157.6065286927
 20
36.1675703219
 11
157.1939573441
 21
36.1675703219
  0
LINE
  8
0
 62
7
  6
CONTINUOUS
 10
155.9671844304
 20
36.1675703219
 11
154.5737418074
 21
36.1675703219
  0
LINE
  8
0
 62
7
  6
CONTINUOUS
 10
154.245872955
 20
36.1675703219
 11
152.852430332
 21
36.1675703219
  0
LINE
  8
0
 62
7
  6
CONTINUOUS
 10
150.9671844304
 20
36.1675703219
 11
149.5737418074
 21
36.1675703219
  0
LINE
  8
0
 62
7
  6
CONTINUOUS
 10
150.1518667936
 20
31.4326557675
 11
150.2674918074
 21
31.4649194539
  0
CIRCLE
  8
0
 62
7
  6
CONTINUOUS
 10
160.2704631189
 20
38.5036358957
 40
2.0901639344
  0
ARC
  8
0
 62
7
  6
CONTINUOUS
 10
151.2130860697
 20
34.0364227809
 40
1.6393442623
 50
180.0
 51
270.0
  0
ARC
  8
0
 62
7
  6
CONTINUOUS
 10
157.6065286927
 20
34.5282260596
 40
1.6393442623
 50
0.0
 51
90.0
  0
ARC
  8
0
 62
7
  6
CONTINUOUS
 10
151.6256574183
 20
33.8724883547
 40
1.4754098361
 50
270.0
 51
326.2510114041
  0
ARC
  8
0
 62
7
  6
CONTINUOUS
 10
157.1939573441
 20
34.6921604858
 40
1.4754098361
 50
90.0
 51
146.2510114041
  0
ARC
  8
0
 62
7
  6
CONTINUOUS
 10
152.0327582009
 20
34.3642916334
 40
0.8196721311
 50
270.0
 51
360.0
  0
ARC
  8
0
 62
7
  6
CONTINUOUS
 10
156.7868565615
 20
34.2003572071
 40
0.8196721311
 50
90.0
 51
180.0
  0
ARC
  8
0
 62
7
  6
CONTINUOUS
 10
151.3770204959
 20
33.9544555678
 40
0.4098360656
 50
180.0
 51
270.0
  0
ARC
  8
0
 62
7
  6
CONTINUOUS
 10
157.4425942664
 20
34.6101932727
 40
0.4098360656
 50
0.0
 51
90.0
  0
SOLID
  8
0
 62
7
  6
CONTINUOUS
 10
156.279992028
 20
31.9488752009
 11
156.279992028
 21
32.1101936845
 12
156.5690540869
 22
31.9488752009
 13
156.5690540869
 23
32.1101936845
  0
SOLID
  8
0
 62
7
  6
CONTINUOUS
 10
150.5565542799
 20
31.6262382337
 11
150.9612418074
 21
31.5939740028
 12
150.2096793212
 22
31.5939740028
 13
150.2096793212
 23
31.5939740028
  0
SOLID
  8
0
 62
7
  6
CONTINUOUS
 10
150.0362418212
 20
31.5617111435
 11
150.2096793212
 21
31.5939740028
 12
150.9612418074
 22
31.5939740028
 13
150.9612418074
 23
31.5939740028
  0
SOLID
  8
0
 62
7
  6
CONTINUOUS
 10
150.9612418074
 20
31.5939740028
 11
151.1924917523
 21
31.5294468402
 12
150.0362418212
 22
31.5617111435
 13
150.0362418212
 23
31.5617111435
  0
SOLID
  8
0
 62
7
  6
CONTINUOUS
 10
149.8628043005
 20
31.49718259
 11
150.0362418212
 21
31.5617111435
 12
151.1924917523
 22
31.5294468402
 13
151.1924917523
 23
31.5294468402
  0
SOLID
  8
0
 62
7
  6
CONTINUOUS
 10
149.8628043005
 20
31.49718259
 11
151.1924917523
 21
31.5294468402
 12
150.498741835
 22
31.49718259
 13
150.498741835
 23
31.49718259
  0
SOLID
  8
0
 62
7
  6
CONTINUOUS
 10
150.498741835
 20
31.49718259
 11
151.1924917523
 21
31.5294468402
 12
150.9034292799
 22
31.4649197501
 13
150.9034292799
 23
31.4649197501
  0
SOLID
  8
0
 62
7
  6
CONTINUOUS
 10
151.1924917523
 20
31.5294468402
 11
151.3659292523
 21
31.4326554468
 12
150.9034292799
 22
31.4649197501
 13
150.9034292799
 23
31.4649197501
  0
SOLID
  8
0
 62
7
  6
CONTINUOUS
 10
151.0768668626
 20
31.4003926599
 11
150.9034292799
 21
31.4649197501
 12
151.3659292523
 22
31.4326554468
 13
151.3659292523
 23
31.4326554468
  0
SOLID
  8
0
 62
7
  6
CONTINUOUS
 10
151.0768668626
 20
31.4003926599
 11
151.3659292523
 21
31.4326554468
 12
151.1346793074
 22
31.3036013776
 13
151.1346793074
 23
31.3036013776
  0
SOLID
  8
0
 62
7
  6
CONTINUOUS
 10
151.3659292523
 20
31.4326554468
 11
151.4237418626
 21
31.3036013776
 12
151.1346793074
 22
31.3036013776
 13
151.1346793074
 23
31.3036013776
  0
SOLID
  8
0
 62
7
  6
CONTINUOUS
 10
152.4643666972
 20
31.5939739754
 11
152.6956168074
 21
31.6262382787
 12
152.9268669177
 22
31.6262382787
 13
152.9268669177
 23
31.6262382787
  0
SOLID
  8
0
 62
7
  6
CONTINUOUS
 10
152.9268669177
 20
31.6262382787
 11
153.1003044177
 21
31.5939739754
 12
152.4643666972
 22
31.5939739754
 13
152.4643666972
 23
31.5939739754
  0
SOLID
  8
0
 62
7
  6
CONTINUOUS
 10
152.2909293626
 20
31.5294468852
 11
152.4643666972
 21
31.5939739754
 12
153.1003044177
 22
31.5939739754
 13
153.1003044177
 23
31.5939739754
  0
SOLID
  8
0
 62
7
  6
CONTINUOUS
 10
153.1003044177
 20
31.5939739754
 11
153.2737419177
 21
31.5294468852
 12
152.2909293626
 22
31.5294468852
 13
152.2909293626
 23
31.5294468852
  0
SOLID
  8
0
 62
7
  6
CONTINUOUS
 10
153.2737419177
 20
31.5294468852
 11
152.6956168074
 21
31.4971825369
 12
152.2909293626
 22
31.5294468852
 13
152.2909293626
 23
31.5294468852
  0
SOLID
  8
0
 62
7
  6
CONTINUOUS
 10
152.1753043074
 20
31.4649197951
 11
152.2909293626
 21
31.5294468852
 12
152.6956168074
 22
31.4971825369
 13
152.6956168074
 23
31.4971825369
  0
SOLID
  8
0
 62
7
  6
CONTINUOUS
 10
152.6956168074
 20
31.4971825369
 11
152.4643666972
 21
31.4649197951
 12
152.1753043074
 22
31.4649197951
 13
152.1753043074
 23
31.4649197951
  0
SOLID
  8
0
 62
7
  6
CONTINUOUS
 10
152.6956168074
 20
31.4971825369
 11
153.2737419177
 21
31.5294468852
 12
152.9268669177
 22
31.4649197951
 13
152.9268669177
 23
31.4649197951
  0
SOLID
  8
0
 62
7
  6
CONTINUOUS
 10
153.2737419177
 20
31.5294468852
 11
153.3893668074
 21
31.4649197951
 12
152.9268669177
 22
31.4649197951
 13
152.9268669177
 23
31.4649197951
  0
SOLID
  8
0
 62
7
  6
CONTINUOUS
 10
153.0424918074
 20
31.4326554468
 11
152.9268669177
 21
31.4649197951
 12
153.3893668074
 22
31.4649197951
 13
153.3893668074
 23
31.4649197951
  0
SOLID
  8
0
 62
7
  6
CONTINUOUS
 10
153.3893668074
 20
31.4649197951
 11
153.4471794177
 21
31.4003927049
 12
153.0424918074
 22
31.4326554468
 13
153.0424918074
 23
31.4326554468
  0
SOLID
  8
0
 62
7
  6
CONTINUOUS
 10
153.1581166972
 20
31.3681283566
 11
153.0424918074
 21
31.4326554468
 12
153.4471794177
 22
31.4003927049
 13
153.4471794177
 23
31.4003927049
  0
SOLID
  8
0
 62
7
  6
CONTINUOUS
 10
153.1581166972
 20
31.3681283566
 11
153.4471794177
 21
31.4003927049
 12
153.2159293074
 22
31.2390742213
 13
153.2159293074
 23
31.2390742213
  0
SOLID
  8
0
 62
7
  6
CONTINUOUS
 10
153.4471794177
 20
31.4003927049
 11
153.5049916972
 21
31.2390742213
 12
153.2159293074
 22
31.2390742213
 13
153.2159293074
 23
31.2390742213
  0
SOLID
  8
0
 62
7
  6
CONTINUOUS
 10
152.4643666972
 20
31.4649197951
 11
152.2909293626
 21
31.4003927049
 12
152.1753043074
 22
31.4649197951
 13
152.1753043074
 23
31.4649197951
  0
SOLID
  8
0
 62
7
  6
CONTINUOUS
 10
152.2909293626
 20
31.4003927049
 11
152.1753043074
 21
31.3358640533
 12
152.1753043074
 22
31.4649197951
 13
152.1753043074
 23
31.4649197951
  0
SOLID
  8
0
 62
7
  6
CONTINUOUS
 10
152.1753043074
 20
31.3358640533
 11
151.8862417523
 21
30.5938002869
 12
152.1753043074
 22
31.4649197951
 13
152.1753043074
 23
31.4649197951
  0
SOLID
  8
0
 62
7
  6
CONTINUOUS
 10
152.1753043074
 20
31.4649197951
 11
151.8862417523
 21
30.5938002869
 12
152.1753043074
 22
32.1101937295
 13
152.1753043074
 23
32.1101937295
  0
SOLID
  8
0
 62
7
  6
CONTINUOUS
 10
151.8862417523
 20
30.5938002869
 11
151.8862417523
 21
32.1101937295
 12
152.1753043074
 22
32.1101937295
 13
152.1753043074
 23
32.1101937295
  0
SOLID
  8
0
 62
7
  6
CONTINUOUS
 10
152.1753043074
 20
31.3358640533
 11
152.1753043074
 21
30.5938002869
 12
151.8862417523
 22
30.5938002869
 13
151.8862417523
 23
30.5938002869
  0
SOLID
  8
0
 62
7
  6
CONTINUOUS
 10
153.2159293074
 20
30.5938002869
 11
153.2159293074
 21
31.2390742213
 12
153.5049916972
 22
31.2390742213
 13
153.5049916972
 23
31.2390742213
  0
SOLID
  8
0
 62
7
  6
CONTINUOUS
 10
153.5049916972
 20
31.2390742213
 11
153.5049916972
 21
30.5938002869
 12
153.2159293074
 22
30.5938002869
 13
153.2159293074
 23
30.5938002869
  0
SOLID
  8
0
 62
7
  6
CONTINUOUS
 10
154.2565543074
 20
31.5939738288
 11
154.6612419177
 21
31.6262385959
 12
155.0081169177
 22
31.6262385959
 13
155.0081169177
 23
31.6262385959
  0
SOLID
  8
0
 62
7
  6
CONTINUOUS
 10
155.0081169177
 20
31.6262385959
 11
155.3549915869
 21
31.5939738288
 12
154.2565543074
 22
31.5939738288
 13
154.2565543074
 23
31.5939738288
  0
SOLID
  8
0
 62
7
  6
CONTINUOUS
 10
154.1409294177
 20
31.5617111435
 11
154.2565543074
 21
31.5939738288
 12
155.3549915869
 22
31.5939738288
 13
155.3549915869
 23
31.5939738288
  0
SOLID
  8
0
 62
7
  6
CONTINUOUS
 10
155.3549915869
 20
31.5939738288
 11
155.5284290869
 21
31.5294468402
 12
154.1409294177
 22
31.5617111435
 13
154.1409294177
 23
31.5617111435
  0
SOLID
  8
0
 62
7
  6
CONTINUOUS
 10
154.0253041972
 20
31.4971826249
 11
154.1409294177
 21
31.5617111435
 12
155.5284290869
 22
31.5294468402
 13
155.5284290869
 23
31.5294468402
  0
SOLID
  8
0
 62
7
  6
CONTINUOUS
 10
154.0253041972
 20
31.4971826249
 11
155.5284290869
 21
31.5294468402
 12
154.6612419177
 22
31.4971826249
 13
154.6612419177
 23
31.4971826249
  0
SOLID
  8
0
 62
7
  6
CONTINUOUS
 10
154.6612419177
 20
31.4971826249
 11
155.5284290869
 21
31.5294468402
 12
155.0081169177
 22
31.4971826249
 13
155.0081169177
 23
31.4971826249
  0
SOLID
  8
0
 62
7
  6
CONTINUOUS
 10
155.0081169177
 20
31.4971826249
 11
155.5284290869
 21
31.5294468402
 12
155.239367028
 22
31.4649194065
 13
155.239367028
 23
31.4649194065
  0
SOLID
  8
0
 62
7
  6
CONTINUOUS
 10
155.5284290869
 20
31.5294468402
 11
155.6440543074
 21
31.4649194065
 12
155.239367028
 22
31.4649194065
 13
155.239367028
 23
31.4649194065
  0
SOLID
  8
0
 62
7
  6
CONTINUOUS
 10
153.9674919177
 20
31.4326554138
 11
154.0253041972
 21
31.4971826249
 12
154.6612419177
 22
31.4971826249
 13
154.6612419177
 23
31.4971826249
  0
SOLID
  8
0
 62
7
  6
CONTINUOUS
 10
155.3549915869
 20
31.4326554138
 11
155.239367028
 21
31.4649194065
 12
155.6440543074
 22
31.4649194065
 13
155.6440543074
 23
31.4649194065
  0
SOLID
  8
0
 62
7
  6
CONTINUOUS
 10
155.3549915869
 20
31.4326554138
 11
155.6440543074
 21
31.4649194065
 12
155.412804528
 22
31.3681282026
 13
155.412804528
 23
31.3681282026
  0
SOLID
  8
0
 62
7
  6
CONTINUOUS
 10
155.6440543074
 20
31.4649194065
 11
155.7018665869
 21
31.3681282026
 12
155.412804528
 22
31.3681282026
 13
155.412804528
 23
31.3681282026
  0
SOLID
  8
0
 62
7
  6
CONTINUOUS
 10
155.412804528
 20
31.2713369632
 11
155.412804528
 21
31.3681282026
 12
155.7018665869
 22
31.3681282026
 13
155.7018665869
 23
31.3681282026
  0
SOLID
  8
0
 62
7
  6
CONTINUOUS
 10
155.412804528
 20
31.2713369632
 11
155.7018665869
 21
31.3681282026
 12
155.412804528
 22
31.1422827828
 13
155.412804528
 23
31.1422827828
  0
SOLID
  8
0
 62
7
  6
CONTINUOUS
 10
155.412804528
 20
31.1422827828
 11
155.7018665869
 21
31.3681282026
 12
155.412804528
 22
30.9487004259
 13
155.412804528
 23
30.9487004259
  0
SOLID
  8
0
 62
7
  6
CONTINUOUS
 10
155.7018665869
 20
31.3681282026
 11
155.7018665869
 21
30.8519086025
 12
155.412804528
 22
30.9487004259
 13
155.412804528
 23
30.9487004259
  0
SOLID
  8
0
 62
7
  6
CONTINUOUS
 10
157.6096790869
 20
31.5939736268
 11
157.840929528
 21
31.6262383465
 12
158.0721793074
 22
31.6262383465
 13
158.0721793074
 23
31.6262383465
  0
SOLID
  8
0
 62
7
  6
CONTINUOUS
 10
158.0721793074
 20
31.6262383465
 11
158.2456168074
 21
31.5939736268
 12
157.6096790869
 22
31.5939736268
 13
157.6096790869
 23
31.5939736268
  0
SOLID
  8
0
 62
7
  6
CONTINUOUS
 10
157.4362415869
 20
31.5294472848
 11
157.6096790869
 21
31.5939736268
 12
158.2456168074
 22
31.5939736268
 13
158.2456168074
 23
31.5939736268
  0
SOLID
  8
0
 62
7
  6
CONTINUOUS
 10
158.2456168074
 20
31.5939736268
 11
158.4190543074
 21
31.5294472848
 12
157.4362415869
 22
31.5294472848
 13
157.4362415869
 23
31.5294472848
  0
SOLID
  8
0
 62
7
  6
CONTINUOUS
 10
158.4190543074
 20
31.5294472848
 11
157.840929528
 21
31.4971825369
 12
157.4362415869
 22
31.5294472848
 13
157.4362415869
 23
31.5294472848
  0
SOLID
  8
0
 62
7
  6
CONTINUOUS
 10
157.320617028
 20
31.4649199103
 11
157.4362415869
 21
31.5294472848
 12
157.840929528
 22
31.4971825369
 13
157.840929528
 23
31.4971825369
  0
SOLID
  8
0
 62
7
  6
CONTINUOUS
 10
157.840929528
 20
31.4971825369
 11
157.6096790869
 21
31.4649199103
 12
157.320617028
 22
31.4649199103
 13
157.320617028
 23
31.4649199103
  0
SOLID
  8
0
 62
7
  6
CONTINUOUS
 10
157.840929528
 20
31.4971825369
 11
158.4190543074
 21
31.5294472848
 12
158.0721793074
 22
31.4649199103
 13
158.0721793074
 23
31.4649199103
  0
SOLID
  8
0
 62
7
  6
CONTINUOUS
 10
158.4190543074
 20
31.5294472848
 11
158.534679528
 21
31.4649199103
 12
158.0721793074
 22
31.4649199103
 13
158.0721793074
 23
31.4649199103
  0
SOLID
  8
0
 62
7
  6
CONTINUOUS
 10
158.187804528
 20
31.4326554468
 11
158.0721793074
 21
31.4649199103
 12
158.534679528
 22
31.4649199103
 13
158.534679528
 23
31.4649199103
  0
SOLID
  8
0
 62
7
  6
CONTINUOUS
 10
158.187804528
 20
31.4326554468
 11
158.534679528
 21
31.4649199103
 12
158.3034290869
 22
31.3681288486
 13
158.3034290869
 23
31.3681288486
  0
SOLID
  8
0
 62
7
  6
CONTINUOUS
 10
158.534679528
 20
31.4649199103
 11
158.5924918074
 21
31.3681288486
 12
158.3034290869
 22
31.3681288486
 13
158.3034290869
 23
31.3681288486
  0
SOLID
  8
0
 62
7
  6
CONTINUOUS
 10
158.361242028
 20
31.2068093799
 11
158.3034290869
 21
31.3681288486
 12
158.5924918074
 22
31.3681288486
 13
158.5924918074
 23
31.3681288486
  0
SOLID
  8
0
 62
7
  6
CONTINUOUS
 10
158.5924918074
 20
31.3681288486
 11
158.6503040869
 21
31.2068093799
 12
158.361242028
 22
31.2068093799
 13
158.361242028
 23
31.2068093799
  0
SOLID
  8
0
 62
7
  6
CONTINUOUS
 10
157.6096790869
 20
31.4649199103
 11
157.4362415869
 21
31.4003926599
 12
157.320617028
 22
31.4649199103
 13
157.320617028
 23
31.4649199103
  0
SOLID
  8
0
 62
7
  6
CONTINUOUS
 10
157.4362415869
 20
31.4003926599
 11
157.320617028
 21
31.3358640533
 12
157.320617028
 22
31.4649199103
 13
157.320617028
 23
31.4649199103
  0
SOLID
  8
0
 62
7
  6
CONTINUOUS
 10
157.320617028
 20
31.3358640533
 11
157.0315543074
 21
30.5938003547
 12
157.320617028
 22
31.4649199103
 13
157.320617028
 23
31.4649199103
  0
SOLID
  8
0
 62
7
  6
CONTINUOUS
 10
157.320617028
 20
31.4649199103
 11
157.0315543074
 21
30.5938003547
 12
157.320617028
 22
31.6262383465
 13
157.320617028
 23
31.6262383465
  0
SOLID
  8
0
 62
7
  6
CONTINUOUS
 10
157.0315543074
 20
30.5938003547
 11
157.0315543074
 21
31.6262383465
 12
157.320617028
 22
31.6262383465
 13
157.320617028
 23
31.6262383465
  0
SOLID
  8
0
 62
7
  6
CONTINUOUS
 10
157.320617028
 20
31.3358640533
 11
157.320617028
 21
30.5938003547
 12
157.0315543074
 22
30.5938003547
 13
157.0315543074
 23
30.5938003547
  0
SOLID
  8
0
 62
7
  6
CONTINUOUS
 10
158.361242028
 20
30.5938003547
 11
158.361242028
 21
31.2068093799
 12
158.6503040869
 22
31.2068093799
 13
158.6503040869
 23
31.2068093799
  0
SOLID
  8
0
 62
7
  6
CONTINUOUS
 10
158.6503040869
 20
31.2068093799
 11
158.6503040869
 21
30.5938003547
 12
158.361242028
 22
30.5938003547
 13
158.361242028
 23
30.5938003547
  0
SOLID
  8
0
 62
7
  6
CONTINUOUS
 10
159.4596793074
 20
31.5939739474
 11
159.8065543074
 21
31.6262381969
 12
160.1534293074
 22
31.6262381969
 13
160.1534293074
 23
31.6262381969
  0
SOLID
  8
0
 62
7
  6
CONTINUOUS
 10
160.1534293074
 20
31.6262381969
 11
160.5003043074
 21
31.5939739474
 12
159.4596793074
 22
31.5939739474
 13
159.4596793074
 23
31.5939739474
  0
SOLID
  8
0
 62
7
  6
CONTINUOUS
 10
159.228429528
 20
31.5294468402
 11
159.4596793074
 21
31.5939739474
 12
160.5003043074
 22
31.5939739474
 13
160.5003043074
 23
31.5939739474
  0
SOLID
  8
0
 62
7
  6
CONTINUOUS
 10
159.228429528
 20
31.5294468402
 11
160.5003043074
 21
31.5939739304
 12
160.6737418074
 22
31.5617111435
 13
160.6737418074
 23
31.5617111435
  0
SOLID
  8
0
 62
7
  6
CONTINUOUS
 10
159.228429528
 20
31.5294468402
 11
160.6737418074
 21
31.5617111435
 12
159.8065543074
 22
31.4971825592
 13
159.8065543074
 23
31.4971825592
  0
SOLID
  8
0
 62
7
  6
CONTINUOUS
 10
159.8065543074
 20
31.4971825592
 11
160.6737418074
 21
31.5617111435
 12
160.1534293074
 22
31.4971825592
 13
160.1534293074
 23
31.4971825592
  0
SOLID
  8
0
 62
7
  6
CONTINUOUS
 10
160.6737418074
 20
31.5617111435
 11
160.8471793074
 21
31.4971825592
 12
160.1534293074
 22
31.4971825592
 13
160.1534293074
 23
31.4971825592
  0
SOLID
  8
0
 62
7
  6
CONTINUOUS
 10
160.5003043074
 20
31.4649197501
 11
160.1534293074
 21
31.4971825592
 12
160.8471793074
 22
31.4971825592
 13
160.8471793074
 23
31.4971825592
  0
SOLID
  8
0
 62
7
  6
CONTINUOUS
 10
159.1128043074
 20
31.4326555427
 11
159.228429528
 21
31.5294468402
 12
159.8065543074
 22
31.4971825592
 13
159.8065543074
 23
31.4971825592
  0
SOLID
  8
0
 62
7
  6
CONTINUOUS
 10
160.5003043074
 20
31.4649197501
 11
160.8471793074
 21
31.4971825592
 12
160.615929528
 22
31.4326555427
 13
160.615929528
 23
31.4326555427
  0
SOLID
  8
0
 62
7
  6
CONTINUOUS
 10
160.615929528
 20
31.4326555427
 11
160.8471793074
 21
31.4971825592
 12
160.6737418074
 22
31.3681283005
 13
160.6737418074
 23
31.3681283005
  0
SOLID
  8
0
 62
7
  6
CONTINUOUS
 10
160.8471793074
 20
31.4971825592
 11
160.9628038663
 21
31.3681283005
 12
160.6737418074
 22
31.3681283005
 13
160.6737418074
 23
31.3681283005
  0
SOLID
  8
0
 62
7
  6
CONTINUOUS
 10
150.2674918074
 20
31.4649197501
 11
149.7471793074
 21
31.4326554237
 12
150.498741835
 22
31.4971824493
 13
150.498741835
 23
31.4971824493
  0
SOLID
  8
0
 62
7
  6
CONTINUOUS
 10
149.7471793074
 20
31.4326554237
 11
149.8628043005
 21
31.4971824493
 12
150.498741835
 22
31.4971824493
 13
150.498741835
 23
31.4971824493
  0
SOLID
  8
0
 62
7
  6
CONTINUOUS
 10
150.2674918074
 20
31.4649197501
 11
150.1518667936
 21
31.4326554237
 12
149.7471793074
 22
31.4326554237
 13
149.7471793074
 23
31.4326554237
  0
SOLID
  8
0
 62
7
  6
CONTINUOUS
 10
149.6315543091
 20
31.3036012664
 11
149.7471793074
 21
31.4326554237
 12
150.1518667936
 22
31.4326554237
 13
150.1518667936
 23
31.4326554237
  0
SOLID
  8
0
 62
7
  6
CONTINUOUS
 10
153.9674919177
 20
31.4326554237
 11
154.6612419177
 21
31.4971825369
 12
154.4299918074
 22
31.4649197501
 13
154.4299918074
 23
31.4649197501
  0
SOLID
  8
0
 62
7
  6
CONTINUOUS
 10
154.4299918074
 20
31.4649197501
 11
154.3143669177
 21
31.4326554237
 12
153.9674919177
 22
31.4326554237
 13
153.9674919177
 23
31.4326554237
  0
SOLID
  8
0
 62
7
  6
CONTINUOUS
 10
153.9674919177
 20
31.3681283335
 11
153.9674919177
 21
31.4326554237
 12
154.3143669177
 22
31.4326554237
 13
154.3143669177
 23
31.4326554237
  0
SOLID
  8
0
 62
7
  6
CONTINUOUS
 10
154.3143669177
 20
31.4326554237
 11
154.2565543074
 21
31.3681283335
 12
153.9674919177
 22
31.3681283335
 13
153.9674919177
 23
31.3681283335
  0
SOLID
  8
0
 62
7
  6
CONTINUOUS
 10
159.1128043074
 20
31.4326555528
 11
159.8065543074
 21
31.4971825369
 12
159.575304528
 22
31.4649197501
 13
159.575304528
 23
31.4649197501
  0
SOLID
  8
0
 62
7
  6
CONTINUOUS
 10
159.575304528
 20
31.4649197501
 11
159.4596793074
 21
31.4326555528
 12
159.1128043074
 22
31.4326555528
 13
159.1128043074
 23
31.4326555528
  0
SOLID
  8
0
 62
7
  6
CONTINUOUS
 10
159.1128043074
 20
31.3681284626
 11
159.1128043074
 21
31.4326555528
 12
159.4596793074
 22
31.4326555528
 13
159.4596793074
 23
31.4326555528
  0
SOLID
  8
0
 62
7
  6
CONTINUOUS
 10
159.4596793074
 20
31.4326555528
 11
159.401867028
 21
31.3681284626
 12
159.1128043074
 22
31.3681284626
 13
159.1128043074
 23
31.3681284626
  0
SOLID
  8
0
 62
7
  6
CONTINUOUS
 10
159.228429528
 20
31.2390741763
 11
159.1128043074
 21
31.3681284626
 12
159.401867028
 22
31.3681284626
 13
159.401867028
 23
31.3681284626
  0
SOLID
  8
0
 62
7
  6
CONTINUOUS
 10
149.6315543091
 20
31.3036012664
 11
150.1518667936
 21
31.4326554468
 12
149.9784292936
 22
31.3358640533
 13
149.9784292936
 23
31.3358640533
  0
SOLID
  8
0
 62
7
  6
CONTINUOUS
 10
149.9784292936
 20
31.3358640533
 11
149.9206168074
 21
31.2713369632
 12
149.6315543091
 22
31.3036012664
 13
149.6315543091
 23
31.3036012664
  0
SOLID
  8
0
 62
7
  6
CONTINUOUS
 10
149.5737418074
 20
31.1100184796
 11
149.6315543091
 21
31.3036012664
 12
149.9206168074
 22
31.2713369632
 13
149.9206168074
 23
31.2713369632
  0
SOLID
  8
0
 62
7
  6
CONTINUOUS
 10
154.4299918074
 20
31.2390741763
 11
154.7768668074
 21
31.271336924
 12
155.412804528
 22
31.271336924
 13
155.412804528
 23
31.271336924
  0
SOLID
  8
0
 62
7
  6
CONTINUOUS
 10
154.4299918074
 20
31.2390741763
 11
155.412804528
 21
31.271336924
 12
154.1987416972
 22
31.1745462761
 13
154.1987416972
 23
31.1745462761
  0
SOLID
  8
0
 62
7
  6
CONTINUOUS
 10
154.1987416972
 20
31.1745462761
 11
155.412804528
 21
31.271336924
 12
154.7768668074
 22
31.1422827436
 13
154.7768668074
 23
31.1422827436
  0
SOLID
  8
0
 62
7
  6
CONTINUOUS
 10
155.412804528
 20
31.271336924
 11
155.412804528
 21
31.1422827436
 12
154.7768668074
 22
31.1422827436
 13
154.7768668074
 23
31.1422827436
  0
SOLID
  8
0
 62
7
  6
CONTINUOUS
 10
159.228429528
 20
31.2390745501
 11
159.401867028
 21
31.3681283566
 12
159.4596793074
 22
31.3036012664
 13
159.4596793074
 23
31.3036012664
  0
SOLID
  8
0
 62
7
  6
CONTINUOUS
 10
159.4596793074
 20
31.3036012664
 11
159.6331168074
 21
31.2390745501
 12
159.228429528
 22
31.2390745501
 13
159.228429528
 23
31.2390745501
  0
SOLID
  8
0
 62
7
  6
CONTINUOUS
 10
159.4596793074
 20
31.1422827828
 11
159.228429528
 21
31.2390745501
 12
159.6331168074
 22
31.2390745501
 13
159.6331168074
 23
31.2390745501
  0
SOLID
  8
0
 62
7
  6
CONTINUOUS
 10
159.6331168074
 20
31.2390745501
 11
160.615929528
 21
31.0777556927
 12
159.4596793074
 22
31.1422827828
 13
159.4596793074
 23
31.1422827828
  0
SOLID
  8
0
 62
7
  6
CONTINUOUS
 10
160.442492028
 20
30.9809646623
 11
159.4596793074
 21
31.1422827828
 12
160.615929528
 22
31.0777556927
 13
160.615929528
 23
31.0777556927
  0
SOLID
  8
0
 62
7
  6
CONTINUOUS
 10
160.615929528
 20
31.0777556927
 11
160.8471793074
 21
30.9809646623
 12
160.442492028
 22
30.9809646623
 13
160.442492028
 23
30.9809646623
  0
SOLID
  8
0
 62
7
  6
CONTINUOUS
 10
160.615929528
 20
30.9164372091
 11
160.442492028
 21
30.9809646623
 12
160.8471793074
 22
30.9809646623
 13
160.8471793074
 23
30.9809646623
  0
SOLID
  8
0
 62
7
  6
CONTINUOUS
 10
160.615929528
 20
30.9164372091
 11
160.8471793074
 21
30.9809646623
 12
160.6737418074
 22
30.8519089441
 13
160.6737418074
 23
30.8519089441
  0
SOLID
  8
0
 62
7
  6
CONTINUOUS
 10
160.8471793074
 20
30.9809646623
 11
160.9628038663
 21
30.8519089441
 12
160.6737418074
 22
30.8519089441
 13
160.6737418074
 23
30.8519089441
  0
SOLID
  8
0
 62
7
  6
CONTINUOUS
 10
160.615929528
 20
30.7873818593
 11
160.6737418074
 21
30.8519089441
 12
160.9628038663
 22
30.8519089441
 13
160.9628038663
 23
30.8519089441
  0
SOLID
  8
0
 62
7
  6
CONTINUOUS
 10
160.9628038663
 20
30.8519089441
 11
160.9628038663
 21
30.7873818593
 12
160.615929528
 22
30.7873818593
 13
160.615929528
 23
30.7873818593
  0
SOLID
  8
0
 62
7
  6
CONTINUOUS
 10
160.5003043074
 20
30.7551187255
 11
160.615929528
 21
30.7873818593
 12
160.9628038663
 22
30.7873818593
 13
160.9628038663
 23
30.7873818593
  0
SOLID
  8
0
 62
7
  6
CONTINUOUS
 10
160.5003043074
 20
30.7551187255
 11
160.9628038663
 21
30.7873818593
 12
160.269054528
 22
30.7228547745
 13
160.269054528
 23
30.7228547745
  0
SOLID
  8
0
 62
7
  6
CONTINUOUS
 10
160.9628038663
 20
30.7873818593
 11
160.8471793074
 21
30.6905916353
 12
160.269054528
 22
30.7228547745
 13
160.269054528
 23
30.7228547745
  0
SOLID
  8
0
 62
7
  6
CONTINUOUS
 10
160.8471793074
 20
30.6905916353
 11
159.401867028
 21
30.658327332
 12
160.269054528
 22
30.7228547745
 13
160.269054528
 23
30.7228547745
  0
SOLID
  8
0
 62
7
  6
CONTINUOUS
 10
160.269054528
 20
30.7228547745
 11
159.401867028
 21
30.658327332
 12
159.922179528
 22
30.7228547745
 13
159.922179528
 23
30.7228547745
  0
SOLID
  8
0
 62
7
  6
CONTINUOUS
 10
159.401867028
 20
30.658327332
 11
159.228429528
 21
30.7228547745
 12
159.922179528
 22
30.7228547745
 13
159.922179528
 23
30.7228547745
  0
SOLID
  8
0
 62
7
  6
CONTINUOUS
 10
159.401867028
 20
30.658327332
 11
160.8471793074
 21
30.6905916353
 12
159.575304528
 22
30.6260629858
 13
159.575304528
 23
30.6260629858
  0
SOLID
  8
0
 62
7
  6
CONTINUOUS
 10
160.8471793074
 20
30.6905916353
 11
160.615929528
 21
30.6260629858
 12
159.575304528
 22
30.6260629858
 13
159.575304528
 23
30.6260629858
  0
SOLID
  8
0
 62
7
  6
CONTINUOUS
 10
159.922179528
 20
30.5938006049
 11
159.575304528
 21
30.6260629858
 12
160.615929528
 22
30.6260629858
 13
160.615929528
 23
30.6260629858
  0
SOLID
  8
0
 62
7
  6
CONTINUOUS
 10
160.615929528
 20
30.6260629858
 11
160.269054528
 21
30.5938006049
 12
159.922179528
 22
30.5938006049
 13
159.922179528
 23
30.5938006049
  0
SOLID
  8
0
 62
7
  6
CONTINUOUS
 10
149.5737418074
 20
31.1100184796
 11
149.9206168074
 21
31.2713369632
 12
149.8628043005
 22
31.1422827828
 13
149.8628043005
 23
31.1422827828
  0
SOLID
  8
0
 62
7
  6
CONTINUOUS
 10
149.8628043005
 20
31.1422827828
 11
149.8628043005
 21
31.0454914852
 12
149.5737418074
 22
31.1100184796
 13
149.5737418074
 23
31.1100184796
  0
SOLID
  8
0
 62
7
  6
CONTINUOUS
 10
149.6315543091
 20
30.9164372091
 11
149.5737418074
 21
31.1100184796
 12
149.8628043005
 22
31.0454914852
 13
149.8628043005
 23
31.0454914852
  0
SOLID
  8
0
 62
7
  6
CONTINUOUS
 10
149.8628043005
 20
31.0454914852
 11
149.9784292936
 21
30.8841729058
 12
149.6315543091
 22
30.9164372091
 13
149.6315543091
 23
30.9164372091
  0
SOLID
  8
0
 62
7
  6
CONTINUOUS
 10
149.7471793074
 20
30.7873813202
 11
149.6315543091
 21
30.9164372091
 12
149.9784292936
 22
30.8841729058
 13
149.9784292936
 23
30.8841729058
  0
SOLID
  8
0
 62
7
  6
CONTINUOUS
 10
149.9784292936
 20
30.8841729058
 11
150.1518667936
 21
30.7873813202
 12
149.7471793074
 22
30.7873813202
 13
149.7471793074
 23
30.7873813202
  0
SOLID
  8
0
 62
7
  6
CONTINUOUS
 10
149.8628043005
 20
30.7228547004
 11
149.7471793074
 21
30.7873813202
 12
150.1518667936
 22
30.7873813202
 13
150.1518667936
 23
30.7873813202
  0
SOLID
  8
0
 62
7
  6
CONTINUOUS
 10
150.1518667936
 20
30.7873813202
 11
150.498741835
 21
30.7228547004
 12
149.8628043005
 22
30.7228547004
 13
149.8628043005
 23
30.7228547004
  0
SOLID
  8
0
 62
7
  6
CONTINUOUS
 10
150.0362418212
 20
30.658327332
 11
149.8628043005
 21
30.7228547004
 12
150.498741835
 22
30.7228547004
 13
150.498741835
 23
30.7228547004
  0
SOLID
  8
0
 62
7
  6
CONTINUOUS
 10
154.0831168074
 20
31.1100184386
 11
154.1987416972
 21
31.1745462761
 12
154.7768668074
 22
31.1422827828
 13
154.7768668074
 23
31.1422827828
  0
SOLID
  8
0
 62
7
  6
CONTINUOUS
 10
154.7768668074
 20
31.1422827828
 11
154.5456166972
 21
31.1100184386
 12
154.0831168074
 22
31.1100184386
 13
154.0831168074
 23
31.1100184386
  0
SOLID
  8
0
 62
7
  6
CONTINUOUS
 10
153.9674919177
 20
30.9809642992
 11
154.0831168074
 21
31.1100184386
 12
154.5456166972
 22
31.1100184386
 13
154.5456166972
 23
31.1100184386
  0
SOLID
  8
0
 62
7
  6
CONTINUOUS
 10
154.3143669177
 20
31.0132277988
 11
153.9674919177
 21
30.9809642992
 12
154.4299918074
 22
31.0777556927
 13
154.4299918074
 23
31.0777556927
  0
SOLID
  8
0
 62
7
  6
CONTINUOUS
 10
153.9674919177
 20
30.9809642992
 11
154.5456166972
 21
31.1100184796
 12
154.4299918074
 22
31.0777556927
 13
154.4299918074
 23
31.0777556927
  0
SOLID
  8
0
 62
7
  6
CONTINUOUS
 10
154.3143669177
 20
31.0132277988
 11
154.2565543074
 21
30.9164372091
 12
153.9674919177
 22
30.9809642992
 13
153.9674919177
 23
30.9809642992
  0
SOLID
  8
0
 62
7
  6
CONTINUOUS
 10
153.9674919177
 20
30.8841729058
 11
153.9674919177
 21
30.9809642992
 12
154.2565543074
 22
30.9164372091
 13
154.2565543074
 23
30.9164372091
  0
SOLID
  8
0
 62
7
  6
CONTINUOUS
 10
154.2565543074
 20
30.9164372091
 11
154.2565543074
 21
30.8519086025
 12
153.9674919177
 22
30.8841729058
 13
153.9674919177
 23
30.8841729058
  0
SOLID
  8
0
 62
7
  6
CONTINUOUS
 10
154.0253041972
 20
30.7551187255
 11
153.9674919177
 21
30.8841729058
 12
154.2565543074
 22
30.8519086025
 13
154.2565543074
 23
30.8519086025
  0
SOLID
  8
0
 62
7
  6
CONTINUOUS
 10
155.412804528
 20
30.9487004259
 11
155.7018665869
 21
30.8519086025
 12
155.3549915869
 22
30.8841729058
 13
155.3549915869
 23
30.8841729058
  0
SOLID
  8
0
 62
7
  6
CONTINUOUS
 10
155.1815540869
 20
30.7873815123
 11
155.3549915869
 21
30.8841729058
 12
155.7018665869
 22
30.8519086025
 13
155.7018665869
 23
30.8519086025
  0
SOLID
  8
0
 62
7
  6
CONTINUOUS
 10
155.1815540869
 20
30.7873815123
 11
155.7018665869
 21
30.8519086025
 12
155.412804528
 22
30.7551187255
 13
155.412804528
 23
30.7551187255
  0
SOLID
  8
0
 62
7
  6
CONTINUOUS
 10
155.7018665869
 20
30.8519086025
 11
155.759679528
 21
30.6905916353
 12
155.412804528
 22
30.7551187255
 13
155.412804528
 23
30.7551187255
  0
SOLID
  8
0
 62
7
  6
CONTINUOUS
 10
155.4706168074
 20
30.658327332
 11
155.412804528
 21
30.7551187255
 12
155.759679528
 22
30.6905916353
 13
155.759679528
 23
30.6905916353
  0
SOLID
  8
0
 62
7
  6
CONTINUOUS
 10
155.4706168074
 20
30.658327332
 11
155.759679528
 21
30.6905916353
 12
155.5284290869
 22
30.5938002079
 13
155.5284290869
 23
30.5938002079
  0
SOLID
  8
0
 62
7
  6
CONTINUOUS
 10
155.759679528
 20
30.6905916353
 11
155.8174918074
 21
30.5938002079
 12
155.5284290869
 22
30.5938002079
 13
155.5284290869
 23
30.5938002079
  0
SOLID
  8
0
 62
7
  6
CONTINUOUS
 10
151.0768668626
 20
30.8196456577
 11
151.1346793074
 21
30.9164373395
 12
151.4237418626
 22
30.9164373395
 13
151.4237418626
 23
30.9164373395
  0
SOLID
  8
0
 62
7
  6
CONTINUOUS
 10
151.4237418626
 20
30.9164373395
 11
151.3659292523
 21
30.7873815123
 12
151.0768668626
 22
30.8196456577
 13
151.0768668626
 23
30.8196456577
  0
SOLID
  8
0
 62
7
  6
CONTINUOUS
 10
150.9034292799
 20
30.7551187255
 11
151.0768668626
 21
30.8196456577
 12
151.3659292523
 22
30.7873815123
 13
151.3659292523
 23
30.7873815123
  0
SOLID
  8
0
 62
7
  6
CONTINUOUS
 10
150.9034292799
 20
30.7551187255
 11
151.3659292523
 21
30.7873815123
 12
150.498741835
 22
30.7228544222
 13
150.498741835
 23
30.7228544222
  0
SOLID
  8
0
 62
7
  6
CONTINUOUS
 10
151.3659292523
 20
30.7873815123
 11
151.1924917523
 21
30.6905916353
 12
150.498741835
 22
30.7228544222
 13
150.498741835
 23
30.7228544222
  0
SOLID
  8
0
 62
7
  6
CONTINUOUS
 10
150.0362418212
 20
30.658327332
 11
150.498741835
 21
30.7228544222
 12
151.1924917523
 22
30.6905916353
 13
151.1924917523
 23
30.6905916353
  0
SOLID
  8
0
 62
7
  6
CONTINUOUS
 10
150.0362418212
 20
30.658327332
 11
151.1924917523
 21
30.6905916353
 12
150.2096793212
 22
30.6260631011
 13
150.2096793212
 23
30.6260631011
  0
SOLID
  8
0
 62
7
  6
CONTINUOUS
 10
151.1924917523
 20
30.6905916353
 11
150.9612418074
 21
30.6260631011
 12
150.2096793212
 22
30.6260631011
 13
150.2096793212
 23
30.6260631011
  0
SOLID
  8
0
 62
7
  6
CONTINUOUS
 10
150.5565542799
 20
30.5938002419
 11
150.2096793212
 21
30.6260631011
 12
150.9612418074
 22
30.6260631011
 13
150.9612418074
 23
30.6260631011
  0
SOLID
  8
0
 62
7
  6
CONTINUOUS
 10
154.0253041972
 20
30.7551187255
 11
154.2565543074
 21
30.8519086025
 12
154.3143669177
 22
30.7873815123
 13
154.3143669177
 23
30.7873815123
  0
SOLID
  8
0
 62
7
  6
CONTINUOUS
 10
154.3143669177
 20
30.7873815123
 11
154.5456166972
 21
30.7228544222
 12
154.0253041972
 22
30.7551187255
 13
154.0253041972
 23
30.7551187255
  0
SOLID
  8
0
 62
7
  6
CONTINUOUS
 10
154.1987416972
 20
30.658327332
 11
154.0253041972
 21
30.7551187255
 12
154.5456166972
 22
30.7228544222
 13
154.5456166972
 23
30.7228544222
  0
SOLID
  8
0
 62
7
  6
CONTINUOUS
 10
154.8924916972
 20
30.7228544637
 11
155.1815540869
 21
30.7873815123
 12
155.412804528
 22
30.7551187255
 13
155.412804528
 23
30.7551187255
  0
SOLID
  8
0
 62
7
  6
CONTINUOUS
 10
155.412804528
 20
30.7551187255
 11
155.3549915869
 21
30.6905916353
 12
154.8924916972
 22
30.7228544637
 13
154.8924916972
 23
30.7228544637
  0
SOLID
  8
0
 62
7
  6
CONTINUOUS
 10
155.3549915869
 20
30.6905916353
 11
154.1987416972
 21
30.658327332
 12
154.8924916972
 22
30.7228544637
 13
154.8924916972
 23
30.7228544637
  0
SOLID
  8
0
 62
7
  6
CONTINUOUS
 10
154.1987416972
 20
30.658327332
 11
154.5456166972
 21
30.7228544637
 12
154.8924916972
 22
30.7228544637
 13
154.8924916972
 23
30.7228544637
  0
SOLID
  8
0
 62
7
  6
CONTINUOUS
 10
154.1987416972
 20
30.658327332
 11
155.3549915869
 21
30.6905916353
 12
154.3143669177
 22
30.6260630541
 13
154.3143669177
 23
30.6260630541
  0
SOLID
  8
0
 62
7
  6
CONTINUOUS
 10
155.3549915869
 20
30.6905916353
 11
155.1815540869
 21
30.6260630541
 12
154.3143669177
 22
30.6260630541
 13
154.3143669177
 23
30.6260630541
  0
SOLID
  8
0
 62
7
  6
CONTINUOUS
 10
154.5456166972
 20
30.5938002188
 11
154.3143669177
 21
30.6260630541
 12
155.1815540869
 22
30.6260630541
 13
155.1815540869
 23
30.6260630541
  0
SOLID
  8
0
 62
7
  6
CONTINUOUS
 10
155.1815540869
 20
30.6260630541
 11
154.8924916972
 21
30.5938002188
 12
154.5456166972
 22
30.5938002188
 13
154.5456166972
 23
30.5938002188
  0
SOLID
  8
0
 62
7
  6
CONTINUOUS
 10
159.575304528
 20
30.7551187255
 11
159.228429528
 21
30.7228544637
 12
159.4596793074
 22
30.7873815123
 13
159.4596793074
 23
30.7873815123
  0
SOLID
  8
0
 62
7
  6
CONTINUOUS
 10
159.4596793074
 20
30.7873815123
 11
159.228429528
 21
30.7228544637
 12
159.401867028
 22
30.851908644
 13
159.401867028
 23
30.851908644
  0
SOLID
  8
0
 62
7
  6
CONTINUOUS
 10
159.228429528
 20
30.7228544637
 11
159.1128043074
 21
30.851908644
 12
159.401867028
 22
30.851908644
 13
159.401867028
 23
30.851908644
  0
SOLID
  8
0
 62
7
  6
CONTINUOUS
 10
159.575304528
 20
30.7551187255
 11
159.922179528
 21
30.7228544637
 12
159.228429528
 22
30.7228544637
 13
159.228429528
 23
30.7228544637
  0
SOLID
  8
0
 62
7
  6
CONTINUOUS
 10
156.279992028
 20
30.5938002419
 11
156.279992028
 21
31.6262382337
 12
156.5690540869
 22
30.5938002419
 13
156.5690540869
 23
31.6262382337
  0
ENDBLK
  8
0
  6
BYBLOCK
 62
0
  0
BLOCK
  8
0
 62
2
  6
CONTINUOUS
  2
AMMEAAL_LOGO_BL0
 70
64
 10
32.1213064866
 20
19.8534310916
  0
TEXT
  8
0
 62
7
  6
CONTINUOUS
 10
18.3860103289
 20
19.2268451992
  7
TEXTSTYLE_3
 40
2.7338706658
  1
Ammeraal Beltech
 41
1.0
 51
15.0
 72
0
  0
TEXT
  8
0
 62
7
  6
CONTINUOUS
 10
29.1868111546
 20
16.9533085264
  7
TEXTSTYLE_4
 40
1.0935482663
  1
Innovation & Service in Belting
 41
1.0
 72
0
  0
LINE
  8
0
 62
7
  6
CONTINUOUS
 10
12.3614696776
 20
19.9934385078
 11
13.1396216709
 21
23.6543558055
  0
LINE
  8
0
 62
7
  6
CONTINUOUS
 10
23.2347899607
 20
27.3177497171
 11
13.6274394139
 21
24.1961322958
  0
LINE
  8
0
 62
7
  6
CONTINUOUS
 10
12.5867530099
 20
19.3000877048
 11
20.093828271
 21
12.5406867788
  0
LINE
  8
0
 62
7
  6
CONTINUOUS
 10
12.8492874206
 20
20.5352149982
 11
23.6575567857
 21
24.0470345971
  0
LINE
  8
0
 62
7
  6
CONTINUOUS
 10
23.6533516486
 20
13.6972460334
 11
15.2078919798
 21
21.3015720751
  0
LINE
  8
0
 62
7
  6
CONTINUOUS
 10
24.1731743684
 20
26.4728246013
 11
23.1966148312
 21
21.8784731989
  0
LINE
  8
0
 62
7
  6
CONTINUOUS
 10
22.4968128835
 20
18.5861638851
 11
21.810364672
 21
15.3566789607
  0
LINE
  8
0
 62
7
  6
CONTINUOUS
 10
24.8542704669
 20
14.087448211
 11
25.8105020025
 21
18.5861638851
  0
LINE
  8
0
 62
7
  6
CONTINUOUS
 10
26.5103039502
 20
21.8784731989
 11
26.9545457526
 21
23.9684665583
  0
LINE
  8
0
 62
7
  6
CONTINUOUS
 10
20.8069293463
 20
12.3891124661
 11
24.3664527239
 21
13.5456717207
  0
LINE
  8
0
 62
7
  6
CONTINUOUS
 10
23.9478910361
 20
27.1661754044
 11
26.7292624203
 21
24.6618173613
  0
ARC
  8
0
 62
7
  6
CONTINUOUS
 10
13.8527227462
 20
23.5027814928
 40
0.7290321776
 50
108.0
 51
168.0
  0
ARC
  8
0
 62
7
  6
CONTINUOUS
 10
23.4600732931
 20
26.624398914
 40
0.7290321776
 50
348.0
 51
108.0
  0
ARC
  8
0
 62
7
  6
CONTINUOUS
 10
26.2414446773
 20
24.120040871
 40
0.7290321776
 50
348.0
 51
48.0
  0
ARC
  8
0
 62
7
  6
CONTINUOUS
 10
20.581646014
 20
13.0824632691
 40
0.7290321776
 50
228.0
 51
288.0
  0
ARC
  8
0
 62
7
  6
CONTINUOUS
 10
13.0745707529
 20
19.8418641951
 40
0.7290321776
 50
108.0
 51
228.0
  0
ARC
  8
0
 62
7
  6
CONTINUOUS
 10
24.1411693916
 20
14.2390225237
 40
0.7290321776
 50
228.0
 51
348.0
  0
ENDBLK
  8
0
  6
BYBLOCK
 62
0
  0
BLOCK
  8
0
  2
_FILLED
 70
64
 10
0.0
 20
0.0
  0
SOLID
  8
0
  6
BYBLOCK
 62
0
 10
0.0
 20
0.0
 11
-1.0
 21
0.2142857143
 12
-1.0
 22
-0.2142857143
 13
-1.0
 23
-0.2142857143
  0
ENDBLK
  8
0
  6
BYBLOCK
 62
0
  0
ENDSEC
  0
SECTION
  2
ENTITIES
  0
TEXT
  8
0
 62
5
  6
CONTINUOUS
 10
96.0
 20
25.636
  7
TEXTSTYLE_2
 40
2.8
  1
Scale :
 41
0.6
 51
0.000019
 72
0
  0
TEXT
  8
0
 62
5
  6
CONTINUOUS
 10
116.0
 20
25.636
  7
TEXTSTYLE_2
 40
2.8
  1
Belt type:
 41
0.6
 51
0.000019
 72
0
  0
INSERT
  8
0
 62
2
  6
CONTINUOUS
  2
AMMEAAL_LOGO_BL0
 10
32.1213064866
 20
19.8534310916
  0
INSERT
  8
0
 62
2
  6
CONTINUOUS
  2
UNI_LOGO2_BL1
 10
173.5956734183
 20
35.5937998301
  0
LINE
  8
0
 62
2
  6
CONTINUOUS
 10
10.0
 20
30.0
 11
200.0
 21
30.0
  0
LINE
  8
0
 62
2
  6
CONTINUOUS
 10
10.0
 20
30.0
 11
10.0
 21
10.0
  0
LINE
  8
0
 62
2
  6
CONTINUOUS
 10
10.0
 20
10.0
 11
200.0
 21
10.0
  0
LINE
  8
0
 62
2
  6
CONTINUOUS
 10
95.0
 20
30.0
 11
95.0
 21
10.0
  0
LINE
  8
0
 62
2
  6
CONTINUOUS
 10
115.0
 20
30.0
 11
115.0
 21
10.0
  0
LINE
  8
0
 62
2
  6
CONTINUOUS
 10
200.0
 20
30.0
 11
200.0
 21
10.0
  0
TEXT
  8
0
 62
5
  6
CONTINUOUS
 10
13.0
 20
23.303
  7
TEXTSTYLE_5
 40
1.52
  1
                                                                     Ammeraal Beltech Modular A/S
 41
1.0
 72
0
  0
TEXT
  8
0
 62
5
  6
CONTINUOUS
 10
13.0
 20
20.595
  7
TEXTSTYLE_5
 40
1.5
  1
                                                                      Hjulmagervej 21,  7100 Vejle,  DK
 41
1.0
 72
0
  0
TEXT
  8
0
 62
5
  6
CONTINUOUS
 10
13.0
 20
17.881
  7
TEXTSTYLE_5
 40
1.495
  1
                                                                      tel: 
 41
1.0
 72
0
  0
TEXT
  8
0
 62
5
  6
CONTINUOUS
 10
57.9869465649
 20
17.881
  7
TEXTSTYLE_5
 40
1.51
  1
+45 75723100     fax: +45 75723348
 41
1.0
 72
0
  0
TEXT
  8
0
 62
5
  6
CONTINUOUS
 10
13.0
 20
15.177
  7
TEXTSTYLE_5
 40
1.5
  1
                                                                      admin@unichains.dk  www.unichains.com
 41
1.0
 72
0
  0
TEXT
  8
0
 62
5
  6
CONTINUOUS
 10
99.75
 20
13.75
  7
TEXTSTYLE_6
 40
5.0
  1
1:1
 41
0.7
 72
1
 11
105.0
 21
13.75
  0
TEXT
  8
0
 62
5
  6
CONTINUOUS
 10
118.0
 20
13.75
  7
TEXTSTYLE_7
 40
7.5
  1
uni M-QNB-00-K150
 41
0.6264705882
 72
0
  0
LINE
  8
0
 62
7
  6
CONTINUOUS
 10
210.0
 20
0.0
 11
0.0
 21
0.0
  0
LINE
  8
0
 62
7
  6
CONTINUOUS
 10
10.0
 20
10.0
 11
200.0
 21
10.0
  0
LINE
  8
0
 62
7
  6
CONTINUOUS
 10
10.0
 20
30.0
 11
200.0
 21
30.0
  0
LINE
  8
0
 62
7
  6
CONTINUOUS
 10
0.0
 20
0.0
 11
0.0
 21
297.0
  0
LINE
  8
0
 62
7
  6
CONTINUOUS
 10
10.0
 20
10.0
 11
10.0
 21
287.0
  0
LINE
  8
0
 62
7
  6
CONTINUOUS
 10
200.0
 20
287.0
 11
200.0
 21
10.0
  0
LINE
  8
0
 62
7
  6
CONTINUOUS
 10
210.0
 20
0.0
 11
210.0
 21
297.0
  0
LINE
  8
0
 62
7
  6
CONTINUOUS
 10
10.0
 20
287.0
 11
200.0
 21
287.0
  0
LINE
  8
0
 62
7
  6
CONTINUOUS
 10
0.0
 20
297.0
 11
210.0
 21
297.0
  0
LINE
  8
0
 62
7
  6
CONTINUOUS
 10
59.7133790265
 20
111.0780254186
 11
59.7133790265
 21
122.7380254186
  0
LINE
  8
0
 62
9
  6
CONTINUOUS
 10
60.2133790265
 20
110.5780254186
 11
60.2133790265
 21
123.2380254186
  0
POLYLINE
  8
0
 62
7
  6
CONTINUOUS
 66
1
 70
0
  0
VERTEX
  8
0
 62
7
  6
CONTINUOUS
 10
65.9533790265
 20
102.238035181
  0
VERTEX
  8
0
 62
7
  6
CONTINUOUS
 10
66.0203849597
 20
101.9880186727
  0
VERTEX
  8
0
 62
7
  6
CONTINUOUS
 10
66.2034305664
 20
101.8050081762
  0
VERTEX
  8
0
 62
7
  6
CONTINUOUS
 10
66.4534551905
 20
101.7380264918
  0
SEQEND
  0
LINE
  8
0
 62
9
  6
CONTINUOUS
 10
65.2352281093
 20
115.0480254186
 11
65.2352281093
 21
118.8379942322
  0
LINE
  8
0
 62
9
  6
CONTINUOUS
 10
65.3713547665
 20
110.5780254186
 11
65.3713547665
 21
111.0780254186
  0
LINE
  8
0
 62
9
  6
CONTINUOUS
 10
65.7351519568
 20
115.0480494631
 11
65.7351519568
 21
118.8380254186
  0
POLYLINE
  8
0
 62
9
  6
CONTINUOUS
 66
1
 70
0
  0
VERTEX
  8
0
 62
9
  6
CONTINUOUS
 10
65.2352280862
 20
118.8379942322
  0
VERTEX
  8
0
 62
9
  6
CONTINUOUS
 10
65.2363774655
 20
119.6431457563
  0
VERTEX
  8
0
 62
9
  6
CONTINUOUS
 10
65.2394451592
 20
120.362593486
  0
VERTEX
  8
0
 62
9
  6
CONTINUOUS
 10
65.2442801783
 20
121.0303705065
  0
VERTEX
  8
0
 62
9
  6
CONTINUOUS
 10
65.2507524671
 20
121.6350245684
  0
VERTEX
  8
0
 62
9
  6
CONTINUOUS
 10
65.2598229842
 20
122.2236022347
  0
VERTEX
  8
0
 62
9
  6
CONTINUOUS
 10
65.2738182362
 20
122.8039013967
  0
VERTEX
  8
0
 62
9
  6
CONTINUOUS
 10
65.2899814428
 20
123.1529564398
  0
VERTEX
  8
0
 62
9
  6
CONTINUOUS
 10
65.3033028625
 20
123.2380254186
  0
SEQEND
  0
POLYLINE
  8
0
 62
9
  6
CONTINUOUS
 66
1
 70
0
  0
VERTEX
  8
0
 62
9
  6
CONTINUOUS
 10
65.7351519568
 20
118.8380254186
  0
VERTEX
  8
0
 62
9
  6
CONTINUOUS
 10
65.7363044458
 20
119.5526181173
  0
VERTEX
  8
0
 62
9
  6
CONTINUOUS
 10
65.7393810807
 20
120.1912182003
  0
VERTEX
  8
0
 62
9
  6
CONTINUOUS
 10
65.7442304163
 20
120.7838689424
  0
VERTEX
  8
0
 62
9
  6
CONTINUOUS
 10
65.7507229123
 20
121.3204221501
  0
SEQEND
  0
POLYLINE
  8
0
 62
9
  6
CONTINUOUS
 66
1
 70
0
  0
VERTEX
  8
0
 62
9
  6
CONTINUOUS
 10
65.7507229123
 20
121.3204221501
  0
VERTEX
  8
0
 62
9
  6
CONTINUOUS
 10
65.7598349196
 20
121.8430596928
  0
VERTEX
  8
0
 62
9
  6
CONTINUOUS
 10
65.7738980574
 20
122.357513595
  0
VERTEX
  8
0
 62
9
  6
CONTINUOUS
 10
65.7900677603
 20
122.6644685808
  0
VERTEX
  8
0
 62
9
  6
CONTINUOUS
 10
65.8033790265
 20
122.7380156562
  0
SEQEND
  0
LINE
  8
0
 62
7
  6
CONTINUOUS
 10
65.8033790265
 20
114.9469145423
 11
65.7862125966
 21
114.8742812708
  0
POLYLINE
  8
0
 62
7
  6
CONTINUOUS
 66
1
 70
0
  0
VERTEX
  8
0
 62
7
  6
CONTINUOUS
 10
66.0216060962
 20
109.9280254186
  0
VERTEX
  8
0
 62
7
  6
CONTINUOUS
 10
65.9721427171
 20
110.176687455
  0
VERTEX
  8
0
 62
7
  6
CONTINUOUS
 10
65.8311613347
 20
110.3876353872
  0
VERTEX
  8
0
 62
7
  6
CONTINUOUS
 10
65.620120943
 20
110.5285778417
  0
VERTEX
  8
0
 62
7
  6
CONTINUOUS
 10
65.3713546295
 20
110.5780254186
  0
SEQEND
  0
LINE
  8
0
 62
7
  6
CONTINUOUS
 10
65.9376710912
 20
110.1756261585
 11
65.9866959671
 21
109.9279792468
  0
POLYLINE
  8
0
 62
7
  6
CONTINUOUS
 66
1
 70
0
  0
VERTEX
  8
0
 62
7
  6
CONTINUOUS
 10
65.8033790265
 20
116.2380254186
  0
VERTEX
  8
0
 62
7
  6
CONTINUOUS
 10
65.7878557899
 20
116.3948512702
  0
VERTEX
  8
0
 62
7
  6
CONTINUOUS
 10
65.7742056901
 20
116.8463866818
  0
VERTEX
  8
0
 62
7
  6
CONTINUOUS
 10
65.7640751315
 20
117.538116508
  0
VERTEX
  8
0
 62
7
  6
CONTINUOUS
 10
65.7586852036
 20
118.3865812277
  0
VERTEX
  8
0
 62
7
  6
CONTINUOUS
 10
65.7586852051
 20
119.2894700815
  0
VERTEX
  8
0
 62
7
  6
CONTINUOUS
 10
65.7640751347
 20
120.1379346501
  0
VERTEX
  8
0
 62
7
  6
CONTINUOUS
 10
65.7742056928
 20
120.8296642865
  0
VERTEX
  8
0
 62
7
  6
CONTINUOUS
 10
65.7878557908
 20
121.2811995866
  0
VERTEX
  8
0
 62
7
  6
CONTINUOUS
 10
65.8033790265
 20
121.4380254186
  0
SEQEND
  0
LINE
  8
0
 62
7
  6
CONTINUOUS
 10
65.770790922
 20
115.0189712486
 11
65.7708092907
 21
115.0185648025
  0
LINE
  8
0
 62
7
  6
CONTINUOUS
 10
65.9859655205
 20
109.9571092993
 11
65.9859567695
 21
109.9573035
  0
LINE
  8
0
 62
9
  6
CONTINUOUS
 10
65.9866966714
 20
109.9279792478
 11
65.9838459937
 21
109.9921909341
  0
LINE
  8
0
 62
9
  6
CONTINUOUS
 10
65.7700613855
 20
115.0480713277
 11
65.7729117645
 21
114.9838675586
  0
LINE
  8
0
 62
9
  6
CONTINUOUS
 10
65.77006316
 20
115.0480254186
 11
65.770790922
 21
115.0189712486
  0
LINE
  8
0
 62
9
  6
CONTINUOUS
 10
65.986694193
 20
109.9280254184
 11
65.9859655205
 21
109.9571092993
  0
LINE
  8
0
 62
7
  6
CONTINUOUS
 10
65.8033790265
 20
122.7380156562
 11
65.8033790265
 21
121.4380254186
  0
LINE
  8
0
 62
7
  6
CONTINUOUS
 10
65.8033790265
 20
116.2380254186
 11
65.8033790265
 21
114.9469145423
  0
LINE
  8
0
 62
7
  6
CONTINUOUS
 10
65.9533790265
 20
102.238035181
 11
65.9533790265
 21
103.5380254186
  0
LINE
  8
0
 62
7
  6
CONTINUOUS
 10
65.9533790265
 20
108.7380254186
 11
65.9533790265
 21
110.0291362948
  0
LINE
  8
0
 62
9
  6
CONTINUOUS
 10
66.0216060962
 20
106.1380254186
 11
66.0216060962
 21
109.9280254186
  0
LINE
  8
0
 62
9
  6
CONTINUOUS
 10
66.3854032865
 20
113.8980254186
 11
66.3854032865
 21
114.3980254186
  0
LINE
  8
0
 62
9
  6
CONTINUOUS
 10
66.5215299438
 20
106.1380676692
 11
66.5215299438
 21
109.9280254186
  0
POLYLINE
  8
0
 62
9
  6
CONTINUOUS
 66
1
 70
0
  0
VERTEX
  8
0
 62
9
  6
CONTINUOUS
 10
65.9968848452
 20
103.1311781617
  0
VERTEX
  8
0
 62
9
  6
CONTINUOUS
 10
66.005319868
 20
103.60679413
  0
VERTEX
  8
0
 62
9
  6
CONTINUOUS
 10
66.0119304901
 20
104.1339315769
  0
VERTEX
  8
0
 62
9
  6
CONTINUOUS
 10
66.0169447211
 20
104.7196903841
  0
VERTEX
  8
0
 62
9
  6
CONTINUOUS
 10
66.0202579733
 20
105.3657179538
  0
VERTEX
  8
0
 62
9
  6
CONTINUOUS
 10
66.0216060962
 20
106.1380254186
  0
SEQEND
  0
POLYLINE
  8
0
 62
7
  6
CONTINUOUS
 66
1
 70
0
  0
VERTEX
  8
0
 62
7
  6
CONTINUOUS
 10
65.9533790265
 20
103.5380254186
  0
VERTEX
  8
0
 62
7
  6
CONTINUOUS
 10
65.9689022632
 20
103.6948512702
  0
VERTEX
  8
0
 62
7
  6
CONTINUOUS
 10
65.982552363
 20
104.1463866818
  0
VERTEX
  8
0
 62
7
  6
CONTINUOUS
 10
65.9926829215
 20
104.838116508
  0
VERTEX
  8
0
 62
7
  6
CONTINUOUS
 10
65.9980728494
 20
105.6865812277
  0
VERTEX
  8
0
 62
7
  6
CONTINUOUS
 10
65.998072848
 20
106.5894700815
  0
VERTEX
  8
0
 62
7
  6
CONTINUOUS
 10
65.9926829183
 20
107.4379346501
  0
VERTEX
  8
0
 62
7
  6
CONTINUOUS
 10
65.9825523602
 20
108.1296642865
  0
VERTEX
  8
0
 62
7
  6
CONTINUOUS
 10
65.9689022622
 20
108.5811995866
  0
VERTEX
  8
0
 62
7
  6
CONTINUOUS
 10
65.9533790265
 20
108.7380254186
  0
SEQEND
  0
LINE
  8
0
 62
7
  6
CONTINUOUS
 10
65.9533790265
 20
110.0291362948
 11
65.970545681
 21
110.1017705169
  0
LINE
  8
0
 62
9
  6
CONTINUOUS
 10
65.7872417445
 20
114.9152395934
 11
65.8033790265
 21
114.9475239937
  0
POLYLINE
  8
0
 62
9
  6
CONTINUOUS
 66
1
 70
0
  0
VERTEX
  8
0
 62
9
  6
CONTINUOUS
 10
71.6232720333
 20
102.1893074698
  0
VERTEX
  8
0
 62
9
  6
CONTINUOUS
 10
71.534160205
 20
102.2070302974
  0
VERTEX
  8
0
 62
9
  6
CONTINUOUS
 10
71.3551402286
 20
102.2718285196
  0
VERTEX
  8
0
 62
9
  6
CONTINUOUS
 10
71.1793732265
 20
102.3798354144
  0
VERTEX
  8
0
 62
9
  6
CONTINUOUS
 10
71.0277233209
 20
102.5213064361
  0
VERTEX
  8
0
 62
9
  6
CONTINUOUS
 10
70.9669372399
 20
102.59633109
  0
VERTEX
  8
0
 62
9
  6
CONTINUOUS
 10
70.8620000528
 20
102.7670054976
  0
VERTEX
  8
0
 62
9
  6
CONTINUOUS
 10
70.7851344145
 20
102.9594487587
  0
VERTEX
  8
0
 62
9
  6
CONTINUOUS
 10
70.7393270561
 20
103.1802528201
  0
VERTEX
  8
0
 62
9
  6
CONTINUOUS
 10
70.7311784882
 20
103.3079190318
  0
SEQEND
  0
LINE
  8
0
 62
7
  6
CONTINUOUS
 10
65.8471636526
 20
110.3302719929
 11
65.9755462259
 21
110.0474751884
  0
POLYLINE
  8
0
 62
9
  6
CONTINUOUS
 66
1
 70
0
  0
VERTEX
  8
0
 62
9
  6
CONTINUOUS
 10
66.5215299438
 20
109.9280254186
  0
VERTEX
  8
0
 62
9
  6
CONTINUOUS
 10
66.4342412315
 20
110.3674659616
  0
VERTEX
  8
0
 62
9
  6
CONTINUOUS
 10
66.1846932217
 20
110.7411564048
  0
VERTEX
  8
0
 62
9
  6
CONTINUOUS
 10
65.8109025491
 20
110.9907341468
  0
VERTEX
  8
0
 62
9
  6
CONTINUOUS
 10
65.3713547665
 20
111.0780254186
  0
SEQEND
  0
LINE
  8
0
 62
7
  6
CONTINUOUS
 10
65.8192929712
 20
114.7999254225
 11
65.7700620859
 21
115.0480713282
  0
LINE
  8
0
 62
7
  6
CONTINUOUS
 10
65.7812301077
 20
114.9284749782
 11
65.7708081657
 21
115.0185897443
  0
LINE
  8
0
 62
7
  6
CONTINUOUS
 10
65.9755462259
 20
110.0474751884
 11
65.9859585294
 21
109.9572640626
  0
POLYLINE
  8
0
 62
9
  6
CONTINUOUS
 66
1
 70
0
  0
VERTEX
  8
0
 62
9
  6
CONTINUOUS
 10
66.4534551905
 20
101.7380254186
  0
VERTEX
  8
0
 62
9
  6
CONTINUOUS
 10
66.4685063926
 20
101.8469189342
  0
VERTEX
  8
0
 62
9
  6
CONTINUOUS
 10
66.4848663055
 20
102.2344282307
  0
VERTEX
  8
0
 62
9
  6
CONTINUOUS
 10
66.4968806756
 20
102.7495335285
  0
VERTEX
  8
0
 62
9
  6
CONTINUOUS
 10
66.5052863726
 20
103.2855123959
  0
VERTEX
  8
0
 62
9
  6
CONTINUOUS
 10
66.5118796034
 20
103.879725161
  0
VERTEX
  8
0
 62
9
  6
CONTINUOUS
 10
66.5168804052
 20
104.5398136262
  0
VERTEX
  8
0
 62
9
  6
CONTINUOUS
 10
66.5201850869
 20
105.2677492945
  0
VERTEX
  8
0
 62
9
  6
CONTINUOUS
 10
66.5215299781
 20
106.1380676692
  0
SEQEND
  0
POLYLINE
  8
0
 62
9
  6
CONTINUOUS
 66
1
 70
0
  0
VERTEX
  8
0
 62
9
  6
CONTINUOUS
 10
65.9533790265
 20
102.238035181
  0
VERTEX
  8
0
 62
9
  6
CONTINUOUS
 10
65.968411705
 20
102.3323413385
  0
VERTEX
  8
0
 62
9
  6
CONTINUOUS
 10
65.984814309
 20
102.674210771
  0
VERTEX
  8
0
 62
9
  6
CONTINUOUS
 10
65.9968848452
 20
103.1311781617
  0
SEQEND
  0
LINE
  8
0
 62
9
  6
CONTINUOUS
 10
65.9695035672
 20
110.0607857533
 11
65.9533790265
 21
110.0285268434
  0
LINE
  8
2_FEATURE
 62
7
  6
CONTINUOUS
 10
66.4534551905
 20
101.7380254186
 11
71.6533028625
 21
101.7380254186
  0
LINE
  8
2_FEATURE
 62
7
  6
CONTINUOUS
 10
79.1534551905
 20
101.7380254186
 11
84.3533028625
 21
101.7380254186
  0
LINE
  8
2_FEATURE
 62
7
  6
CONTINUOUS
 10
91.8534551905
 20
101.7380254186
 11
97.0533790265
 21
101.7380254186
  0
POLYLINE
  8
0
 62
9
  6
CONTINUOUS
 66
1
 70
0
  0
VERTEX
  8
0
 62
9
  6
CONTINUOUS
 10
71.6883337878
 20
103.1337730231
  0
VERTEX
  8
0
 62
9
  6
CONTINUOUS
 10
71.6434850142
 20
103.1416233482
  0
VERTEX
  8
0
 62
9
  6
CONTINUOUS
 10
71.5529924601
 20
103.1703420681
  0
VERTEX
  8
0
 62
9
  6
CONTINUOUS
 10
71.463633248
 20
103.2182079192
  0
VERTEX
  8
0
 62
9
  6
CONTINUOUS
 10
71.3861001515
 20
103.280905171
  0
VERTEX
  8
0
 62
9
  6
CONTINUOUS
 10
71.3548831493
 20
103.3141572611
  0
VERTEX
  8
0
 62
9
  6
CONTINUOUS
 10
71.3007189371
 20
103.3897994676
  0
VERTEX
  8
0
 62
9
  6
CONTINUOUS
 10
71.2606124369
 20
103.4750912442
  0
VERTEX
  8
0
 62
9
  6
CONTINUOUS
 10
71.236039305
 20
103.5729508778
  0
SEQEND
  0
POLYLINE
  8
0
 62
7
  6
CONTINUOUS
 66
1
 70
0
  0
VERTEX
  8
0
 62
7
  6
CONTINUOUS
 10
71.7183790265
 20
103.1337737244
  0
VERTEX
  8
0
 62
7
  6
CONTINUOUS
 10
71.4876345972
 20
103.2263882673
  0
VERTEX
  8
0
 62
7
  6
CONTINUOUS
 10
71.3966815212
 20
103.3125808796
  0
VERTEX
  8
0
 62
7
  6
CONTINUOUS
 10
71.2918232253
 20
103.5380254186
  0
SEQEND
  0
LINE
  8
0
 62
7
  6
CONTINUOUS
 10
71.743396583
 20
103.0560065946
 11
71.688328376
 21
103.1337737244
  0
LINE
  8
0
 62
7
  6
CONTINUOUS
 10
65.9096869897
 20
114.6456607778
 11
65.7812301077
 21
114.9284749782
  0
POLYLINE
  8
0
 62
7
  6
CONTINUOUS
 66
1
 70
0
  0
VERTEX
  8
0
 62
7
  6
CONTINUOUS
 10
72.3033790265
 20
122.7380156562
  0
VERTEX
  8
0
 62
7
  6
CONTINUOUS
 10
72.3703848499
 20
122.9880323119
  0
VERTEX
  8
0
 62
7
  6
CONTINUOUS
 10
72.5534304963
 20
123.1710429687
  0
VERTEX
  8
0
 62
7
  6
CONTINUOUS
 10
72.8034551905
 20
123.2380250412
  0
SEQEND
  0
LINE
  8
0
 62
9
  6
CONTINUOUS
 10
72.1231958809
 20
102.6380254186
 11
72.1533790265
 21
102.6380254186
  0
LINE
  8
0
 62
9
  6
CONTINUOUS
 10
71.7183790265
 20
103.1337737244
 11
71.6883337185
 21
103.1337730231
  0
LINE
  8
0
 62
9
  6
CONTINUOUS
 10
71.2714454446
 20
103.6295220303
 11
71.2311023114
 21
103.6295238226
  0
POLYLINE
  8
0
 62
7
  6
CONTINUOUS
 66
1
 70
0
  0
VERTEX
  8
0
 62
7
  6
CONTINUOUS
 10
65.8033790265
 20
122.7380156562
  0
VERTEX
  8
0
 62
7
  6
CONTINUOUS
 10
65.736373203
 20
122.9880323117
  0
VERTEX
  8
0
 62
7
  6
CONTINUOUS
 10
65.5533275569
 20
123.1710429681
  0
VERTEX
  8
0
 62
7
  6
CONTINUOUS
 10
65.3033028625
 20
123.238025038
  0
SEQEND
  0
POLYLINE
  8
0
 62
9
  6
CONTINUOUS
 66
1
 70
0
  0
VERTEX
  8
0
 62
9
  6
CONTINUOUS
 10
72.1231958809
 20
102.6380254186
  0
VERTEX
  8
0
 62
9
  6
CONTINUOUS
 10
72.0666791498
 20
102.8689587987
  0
VERTEX
  8
0
 62
9
  6
CONTINUOUS
 10
71.9099070638
 20
103.0476781092
  0
VERTEX
  8
0
 62
9
  6
CONTINUOUS
 10
71.6883337185
 20
103.1337730231
  0
SEQEND
  0
POLYLINE
  8
0
 62
7
  6
CONTINUOUS
 66
1
 70
0
  0
VERTEX
  8
0
 62
7
  6
CONTINUOUS
 10
72.1533790265
 20
102.6380254186
  0
VERTEX
  8
0
 62
7
  6
CONTINUOUS
 10
72.0968380301
 20
102.8689723267
  0
VERTEX
  8
0
 62
7
  6
CONTINUOUS
 10
71.9400131838
 20
103.047686534
  0
VERTEX
  8
0
 62
7
  6
CONTINUOUS
 10
71.7183790265
 20
103.1337737244
  0
SEQEND
  0
LINE
  8
0
 62
9
  6
CONTINUOUS
 10
71.236039305
 20
103.5729508778
 11
71.2311022812
 21
103.6295238226
  0
POLYLINE
  8
0
 62
7
  6
CONTINUOUS
 66
1
 70
0
  0
VERTEX
  8
0
 62
7
  6
CONTINUOUS
 10
71.2714454446
 20
103.6295220303
  0
VERTEX
  8
0
 62
7
  6
CONTINUOUS
 10
71.2640461671
 20
103.7857352019
  0
VERTEX
  8
0
 62
7
  6
CONTINUOUS
 10
71.2512049205
 20
104.3043358959
  0
VERTEX
  8
0
 62
7
  6
CONTINUOUS
 10
71.2422200485
 20
105.0426471308
  0
VERTEX
  8
0
 62
7
  6
CONTINUOUS
 10
71.2381674014
 20
105.912176732
  0
VERTEX
  8
0
 62
7
  6
CONTINUOUS
 10
71.2381674021
 20
106.3638745598
  0
VERTEX
  8
0
 62
7
  6
CONTINUOUS
 10
71.2422200513
 20
107.2334040441
  0
VERTEX
  8
0
 62
7
  6
CONTINUOUS
 10
71.2512049231
 20
107.9717150933
  0
VERTEX
  8
0
 62
7
  6
CONTINUOUS
 10
71.264046168
 20
108.4903156593
  0
VERTEX
  8
0
 62
7
  6
CONTINUOUS
 10
71.2714454446
 20
108.6465288068
  0
SEQEND
  0
LINE
  8
0
 62
9
  6
CONTINUOUS
 10
71.2311023114
 20
103.6295238226
 11
71.225212595
 21
104.097558492
  0
LINE
  8
0
 62
9
  6
CONTINUOUS
 10
70.7311784882
 20
103.3079190318
 11
70.7252878073
 21
103.8360593718
  0
POLYLINE
  8
0
 62
9
  6
CONTINUOUS
 66
1
 70
0
  0
VERTEX
  8
0
 62
9
  6
CONTINUOUS
 10
71.225212595
 20
104.097558492
  0
VERTEX
  8
0
 62
9
  6
CONTINUOUS
 10
71.2187038574
 20
104.89472307
  0
VERTEX
  8
0
 62
9
  6
CONTINUOUS
 10
71.2161228556
 20
105.4816998096
  0
SEQEND
  0
POLYLINE
  8
0
 62
9
  6
CONTINUOUS
 66
1
 70
0
  0
VERTEX
  8
0
 62
9
  6
CONTINUOUS
 10
70.7252878073
 20
103.8360593718
  0
VERTEX
  8
0
 62
9
  6
CONTINUOUS
 10
70.7187798487
 20
104.7353563967
  0
VERTEX
  8
0
 62
9
  6
CONTINUOUS
 10
70.7161991257
 20
105.3975106831
  0
SEQEND
  0
LINE
  8
0
 62
9
  6
CONTINUOUS
 10
70.7161991257
 20
105.3975106831
 11
70.7152281093
 21
108.6465288068
  0
LINE
  8
0
 62
9
  6
CONTINUOUS
 10
71.2161228556
 20
105.4816998096
 11
71.2151519568
 21
108.6465179307
  0
POLYLINE
  8
0
 62
9
  6
CONTINUOUS
 66
1
 70
0
  0
VERTEX
  8
0
 62
9
  6
CONTINUOUS
 10
70.7152281093
 20
108.6465288068
  0
VERTEX
  8
0
 62
9
  6
CONTINUOUS
 10
70.7361307676
 20
108.8499007913
  0
VERTEX
  8
0
 62
9
  6
CONTINUOUS
 10
70.8995663597
 20
109.2250108618
  0
VERTEX
  8
0
 62
9
  6
CONTINUOUS
 10
71.0351370367
 20
109.3796053167
  0
VERTEX
  8
0
 62
9
  6
CONTINUOUS
 10
71.3856451825
 20
109.5906185343
  0
VERTEX
  8
0
 62
9
  6
CONTINUOUS
 10
71.5852281093
 20
109.6380254186
  0
SEQEND
  0
POLYLINE
  8
0
 62
9
  6
CONTINUOUS
 66
1
 70
0
  0
VERTEX
  8
0
 62
9
  6
CONTINUOUS
 10
71.6232720333
 20
102.1893074698
  0
VERTEX
  8
0
 62
9
  6
CONTINUOUS
 10
71.872130724
 20
102.2505701703
  0
VERTEX
  8
0
 62
9
  6
CONTINUOUS
 10
72.0549436587
 20
102.4146590414
  0
VERTEX
  8
0
 62
9
  6
CONTINUOUS
 10
72.1231958808
 20
102.6380254187
  0
SEQEND
  0
POLYLINE
  8
0
 62
9
  6
CONTINUOUS
 66
1
 70
0
  0
VERTEX
  8
0
 62
9
  6
CONTINUOUS
 10
70.7311784882
 20
103.3079194098
  0
VERTEX
  8
0
 62
9
  6
CONTINUOUS
 10
70.9792313601
 20
103.3524248584
  0
VERTEX
  8
0
 62
9
  6
CONTINUOUS
 10
71.1619194472
 20
103.469948693
  0
VERTEX
  8
0
 62
9
  6
CONTINUOUS
 10
71.2311023358
 20
103.6295220303
  0
SEQEND
  0
POLYLINE
  8
0
 62
7
  6
CONTINUOUS
 66
1
 70
0
  0
VERTEX
  8
0
 62
7
  6
CONTINUOUS
 10
65.4527570987
 20
110.5675405733
  0
VERTEX
  8
0
 62
7
  6
CONTINUOUS
 10
65.7361612797
 20
110.4406742737
  0
VERTEX
  8
0
 62
7
  6
CONTINUOUS
 10
65.8471636526
 20
110.3302719929
  0
SEQEND
  0
LINE
  8
0
 62
9
  6
CONTINUOUS
 10
72.1533790265
 20
102.238035181
 11
72.1391042305
 21
102.3228737684
  0
POLYLINE
  8
0
 62
9
  6
CONTINUOUS
 66
1
 70
0
  0
VERTEX
  8
0
 62
9
  6
CONTINUOUS
 10
71.6533028625
 20
101.7380254186
  0
VERTEX
  8
0
 62
9
  6
CONTINUOUS
 10
71.6390840616
 20
101.8350751426
  0
VERTEX
  8
0
 62
9
  6
CONTINUOUS
 10
71.6232720333
 20
102.1893074698
  0
SEQEND
  0
LINE
  8
0
 62
9
  6
CONTINUOUS
 10
71.5852281093
 20
109.6380254186
 11
71.6502844512
 21
109.1422771126
  0
POLYLINE
  8
0
 62
7
  6
CONTINUOUS
 66
1
 70
0
  0
VERTEX
  8
0
 62
7
  6
CONTINUOUS
 10
71.2714454446
 20
103.6295220303
  0
VERTEX
  8
0
 62
7
  6
CONTINUOUS
 10
71.2778493577
 20
103.5793216726
  0
VERTEX
  8
0
 62
7
  6
CONTINUOUS
 10
71.285985723
 20
103.5483132707
  0
VERTEX
  8
0
 62
7
  6
CONTINUOUS
 10
71.2918232253
 20
103.5380254186
  0
SEQEND
  0
LINE
  8
0
 62
9
  6
CONTINUOUS
 10
72.1391042305
 20
102.3228737684
 11
72.1231958809
 21
102.6380254186
  0
POLYLINE
  8
0
 62
9
  6
CONTINUOUS
 66
1
 70
0
  0
VERTEX
  8
0
 62
9
  6
CONTINUOUS
 10
72.3469118949
 20
121.8435919611
  0
VERTEX
  8
0
 62
9
  6
CONTINUOUS
 10
72.355338299
 20
121.368018514
  0
VERTEX
  8
0
 62
9
  6
CONTINUOUS
 10
72.3619411468
 20
120.841099696
  0
VERTEX
  8
0
 62
9
  6
CONTINUOUS
 10
72.3669495671
 20
120.255649129
  0
VERTEX
  8
0
 62
9
  6
CONTINUOUS
 10
72.3702591665
 20
119.6099944483
  0
VERTEX
  8
0
 62
9
  6
CONTINUOUS
 10
72.3716060962
 20
118.8380254186
  0
SEQEND
  0
LINE
  8
0
 62
9
  6
CONTINUOUS
 10
71.5852281093
 20
109.6380254186
 11
71.5852281093
 21
109.9280254186
  0
LINE
  8
0
 62
9
  6
CONTINUOUS
 10
71.7213547665
 20
113.8980254186
 11
71.7213547665
 21
114.3980254186
  0
LINE
  8
0
 62
9
  6
CONTINUOUS
 10
72.0851519568
 20
109.6380254186
 11
72.0851519568
 21
109.9280013247
  0
LINE
  8
0
 62
7
  6
CONTINUOUS
 10
72.1533790265
 20
102.238035181
 11
72.1533790265
 21
102.6380254186
  0
LINE
  8
0
 62
7
  6
CONTINUOUS
 10
72.1533790265
 20
109.6380254186
 11
72.1533790265
 21
110.0285268434
  0
LINE
  8
0
 62
7
  6
CONTINUOUS
 10
72.3033790265
 20
122.7380156562
 11
72.3033790265
 21
121.4380254186
  0
LINE
  8
0
 62
7
  6
CONTINUOUS
 10
72.3033790265
 20
116.2380254186
 11
72.3033790265
 21
114.9475239937
  0
LINE
  8
0
 62
9
  6
CONTINUOUS
 10
72.3716060962
 20
118.8380254186
 11
72.3716060962
 21
115.0480495124
  0
LINE
  8
0
 62
9
  6
CONTINUOUS
 10
72.7354032865
 20
111.0780254186
 11
72.7354032865
 21
110.5780254186
  0
LINE
  8
0
 62
9
  6
CONTINUOUS
 10
72.8715299438
 20
118.8379841316
 11
72.8715299438
 21
115.0480254186
  0
LINE
  8
0
 62
9
  6
CONTINUOUS
 10
72.1207948855
 20
109.957154132
 11
72.1200644417
 21
109.9280256622
  0
LINE
  8
0
 62
9
  6
CONTINUOUS
 10
72.3359648319
 20
115.0189270282
 11
72.3366943872
 21
115.0480254187
  0
LINE
  8
0
 62
9
  6
CONTINUOUS
 10
72.3338435999
 20
114.9838035608
 11
72.3359558762
 21
115.0187284251
  0
LINE
  8
0
 62
9
  6
CONTINUOUS
 10
72.3359648319
 20
115.0189270282
 11
72.3366967049
 21
115.0480737895
  0
LINE
  8
0
 62
9
  6
CONTINUOUS
 10
72.1229143984
 20
109.9922479617
 11
72.1200613881
 21
109.9279796622
  0
LINE
  8
0
 62
7
  6
CONTINUOUS
 10
72.3359558762
 20
115.0187284251
 11
72.3359648319
 21
115.0189270282
  0
POLYLINE
  8
0
 62
7
  6
CONTINUOUS
 66
1
 70
0
  0
VERTEX
  8
0
 62
7
  6
CONTINUOUS
 10
72.3033790265
 20
116.2380254186
  0
VERTEX
  8
0
 62
7
  6
CONTINUOUS
 10
72.3189022632
 20
116.3948512702
  0
VERTEX
  8
0
 62
7
  6
CONTINUOUS
 10
72.332552363
 20
116.8463866818
  0
VERTEX
  8
0
 62
7
  6
CONTINUOUS
 10
72.3426829215
 20
117.538116508
  0
VERTEX
  8
0
 62
7
  6
CONTINUOUS
 10
72.3480728494
 20
118.3865812277
  0
VERTEX
  8
0
 62
7
  6
CONTINUOUS
 10
72.348072848
 20
119.2894700815
  0
VERTEX
  8
0
 62
7
  6
CONTINUOUS
 10
72.3426829183
 20
120.1379346501
  0
VERTEX
  8
0
 62
7
  6
CONTINUOUS
 10
72.3325523602
 20
120.8296642865
  0
VERTEX
  8
0
 62
7
  6
CONTINUOUS
 10
72.3189022622
 20
121.2811995866
  0
VERTEX
  8
0
 62
7
  6
CONTINUOUS
 10
72.3033790265
 20
121.4380254186
  0
SEQEND
  0
POLYLINE
  8
0
 62
9
  6
CONTINUOUS
 66
1
 70
0
  0
VERTEX
  8
0
 62
9
  6
CONTINUOUS
 10
71.2151519563
 20
108.6465179307
  0
VERTEX
  8
0
 62
9
  6
CONTINUOUS
 10
71.2256542962
 20
108.748447129
  0
VERTEX
  8
0
 62
9
  6
CONTINUOUS
 10
71.3074024816
 20
108.9358487054
  0
VERTEX
  8
0
 62
9
  6
CONTINUOUS
 10
71.3751711145
 20
109.0130848401
  0
VERTEX
  8
0
 62
9
  6
CONTINUOUS
 10
71.5503500396
 20
109.1185349955
  0
VERTEX
  8
0
 62
9
  6
CONTINUOUS
 10
71.6502741166
 20
109.1422757567
  0
SEQEND
  0
LINE
  8
0
 62
7
  6
CONTINUOUS
 10
72.1207929214
 20
109.957109668
 11
72.1306109752
 21
110.0442161042
  0
LINE
  8
0
 62
7
  6
CONTINUOUS
 10
72.335957534
 20
115.018765519
 11
72.3261289008
 21
114.9317321657
  0
POLYLINE
  8
0
 62
9
  6
CONTINUOUS
 66
1
 70
0
  0
VERTEX
  8
0
 62
9
  6
CONTINUOUS
 10
71.5852281093
 20
109.9280254186
  0
VERTEX
  8
0
 62
9
  6
CONTINUOUS
 10
71.6543390753
 20
110.320645823
  0
VERTEX
  8
0
 62
9
  6
CONTINUOUS
 10
71.8541512103
 20
110.6670323818
  0
VERTEX
  8
0
 62
9
  6
CONTINUOUS
 10
71.996192189
 20
110.8090651975
  0
VERTEX
  8
0
 62
9
  6
CONTINUOUS
 10
72.3424847804
 20
111.0088358956
  0
VERTEX
  8
0
 62
9
  6
CONTINUOUS
 10
72.7354032865
 20
111.0780254186
  0
SEQEND
  0
POLYLINE
  8
0
 62
9
  6
CONTINUOUS
 66
1
 70
0
  0
VERTEX
  8
0
 62
9
  6
CONTINUOUS
 10
72.8715299438
 20
115.0480254186
  0
VERTEX
  8
0
 62
9
  6
CONTINUOUS
 10
72.8024189777
 20
114.6554050141
  0
VERTEX
  8
0
 62
9
  6
CONTINUOUS
 10
72.6026068427
 20
114.3090184553
  0
VERTEX
  8
0
 62
9
  6
CONTINUOUS
 10
72.460565864
 20
114.1669856396
  0
VERTEX
  8
0
 62
9
  6
CONTINUOUS
 10
72.1142732726
 20
113.9672149415
  0
VERTEX
  8
0
 62
9
  6
CONTINUOUS
 10
71.7213547665
 20
113.8980254186
  0
SEQEND
  0
POLYLINE
  8
0
 62
7
  6
CONTINUOUS
 66
1
 70
0
  0
VERTEX
  8
0
 62
7
  6
CONTINUOUS
 10
72.3716060969
 20
115.0480495124
  0
VERTEX
  8
0
 62
7
  6
CONTINUOUS
 10
72.3324522373
 20
114.825880182
  0
VERTEX
  8
0
 62
7
  6
CONTINUOUS
 10
72.2195590138
 20
114.6303121672
  0
VERTEX
  8
0
 62
7
  6
CONTINUOUS
 10
72.1393392999
 20
114.5501057914
  0
VERTEX
  8
0
 62
7
  6
CONTINUOUS
 10
71.9436994556
 20
114.4372054409
  0
VERTEX
  8
0
 62
7
  6
CONTINUOUS
 10
71.7213575781
 20
114.3980254186
  0
SEQEND
  0
POLYLINE
  8
0
 62
7
  6
CONTINUOUS
 66
1
 70
0
  0
VERTEX
  8
0
 62
7
  6
CONTINUOUS
 10
72.0851519562
 20
109.9280013247
  0
VERTEX
  8
0
 62
7
  6
CONTINUOUS
 10
72.1243058157
 20
110.1501706551
  0
VERTEX
  8
0
 62
7
  6
CONTINUOUS
 10
72.2371990392
 20
110.3457386699
  0
VERTEX
  8
0
 62
7
  6
CONTINUOUS
 10
72.3174187531
 20
110.4259450457
  0
VERTEX
  8
0
 62
7
  6
CONTINUOUS
 10
72.5130585974
 20
110.5388453962
  0
VERTEX
  8
0
 62
7
  6
CONTINUOUS
 10
72.7354004749
 20
110.5780254185
  0
SEQEND
  0
POLYLINE
  8
0
 62
7
  6
CONTINUOUS
 66
1
 70
0
  0
VERTEX
  8
0
 62
7
  6
CONTINUOUS
 10
72.3366959671
 20
115.04807379
  0
VERTEX
  8
0
 62
7
  6
CONTINUOUS
 10
72.2877060287
 20
114.8005094666
  0
VERTEX
  8
0
 62
7
  6
CONTINUOUS
 10
72.1480884844
 20
114.5902594673
  0
VERTEX
  8
0
 62
7
  6
CONTINUOUS
 10
71.9389359888
 20
114.4490284369
  0
VERTEX
  8
0
 62
7
  6
CONTINUOUS
 10
71.720797519
 20
114.4005452682
  0
SEQEND
  0
POLYLINE
  8
0
 62
7
  6
CONTINUOUS
 66
1
 70
0
  0
VERTEX
  8
0
 62
7
  6
CONTINUOUS
 10
72.1200620885
 20
109.9279796618
  0
VERTEX
  8
0
 62
7
  6
CONTINUOUS
 10
72.1691864189
 20
110.1758673377
  0
VERTEX
  8
0
 62
7
  6
CONTINUOUS
 10
72.3091795435
 20
110.3863046974
  0
VERTEX
  8
0
 62
7
  6
CONTINUOUS
 10
72.5188862002
 20
110.5274695005
  0
VERTEX
  8
0
 62
7
  6
CONTINUOUS
 10
72.7359591519
 20
110.5755005186
  0
SEQEND
  0
POLYLINE
  8
0
 62
7
  6
CONTINUOUS
 66
1
 70
0
  0
VERTEX
  8
0
 62
7
  6
CONTINUOUS
 10
72.1533790265
 20
109.6380254186
  0
VERTEX
  8
0
 62
7
  6
CONTINUOUS
 10
72.0968380301
 20
109.4070785104
  0
VERTEX
  8
0
 62
7
  6
CONTINUOUS
 10
71.9400131838
 20
109.2283643031
  0
VERTEX
  8
0
 62
7
  6
CONTINUOUS
 10
71.7183790265
 20
109.1422771127
  0
SEQEND
  0
POLYLINE
  8
0
 62
7
  6
CONTINUOUS
 66
1
 70
0
  0
VERTEX
  8
0
 62
7
  6
CONTINUOUS
 10
72.3261289008
 20
114.9317321657
  0
VERTEX
  8
0
 62
7
  6
CONTINUOUS
 10
72.1991465862
 20
114.6483075488
  0
VERTEX
  8
0
 62
7
  6
CONTINUOUS
 10
72.0887170656
 20
114.5373784967
  0
SEQEND
  0
LINE
  8
0
 62
9
  6
CONTINUOUS
 10
66.0216060962
 20
106.1380254186
 11
71.2151519568
 21
106.1380254186
  0
LINE
  8
1_AXIS
 62
2
  6
CENTER
 10
63.9533790265
 20
106.1380254186
 11
99.5533790265
 21
106.1380254186
  0
LINE
  8
0
 62
9
  6
CONTINUOUS
 10
78.7216060962
 20
106.1380254186
 11
84.7851519568
 21
106.1380254186
  0
LINE
  8
0
 62
9
  6
CONTINUOUS
 10
91.4216060962
 20
106.1380254186
 11
97.5533790265
 21
106.1380254186
  0
LINE
  8
0
 62
9
  6
CONTINUOUS
 10
72.1376639203
 20
110.0599666348
 11
72.1533790265
 21
110.0285268434
  0
LINE
  8
0
 62
7
  6
CONTINUOUS
 10
72.1533790265
 20
110.0285268434
 11
72.1361204164
 21
110.101748351
  0
POLYLINE
  8
0
 62
7
  6
CONTINUOUS
 66
1
 70
0
  0
VERTEX
  8
0
 62
7
  6
CONTINUOUS
 10
72.1306109752
 20
110.0442161042
  0
VERTEX
  8
0
 62
7
  6
CONTINUOUS
 10
72.2575179878
 20
110.3276229276
  0
VERTEX
  8
0
 62
7
  6
CONTINUOUS
 10
72.3679433813
 20
110.4385954027
  0
SEQEND
  0
POLYLINE
  8
0
 62
7
  6
CONTINUOUS
 66
1
 70
0
  0
VERTEX
  8
0
 62
7
  6
CONTINUOUS
 10
71.2918232253
 20
108.7380254186
  0
VERTEX
  8
0
 62
7
  6
CONTINUOUS
 10
71.285985723
 20
108.7277375664
  0
VERTEX
  8
0
 62
7
  6
CONTINUOUS
 10
71.2778493577
 20
108.6967291645
  0
VERTEX
  8
0
 62
7
  6
CONTINUOUS
 10
71.2714454446
 20
108.6465288068
  0
SEQEND
  0
LINE
  8
0
 62
7
  6
CONTINUOUS
 10
72.0887170656
 20
114.5373784967
 11
71.8059942613
 21
114.4091072052
  0
POLYLINE
  8
0
 62
7
  6
CONTINUOUS
 66
1
 70
0
  0
VERTEX
  8
0
 62
7
  6
CONTINUOUS
 10
65.3707776599
 20
110.5753890459
  0
VERTEX
  8
0
 62
7
  6
CONTINUOUS
 10
65.5858680604
 20
110.5283053801
  0
VERTEX
  8
0
 62
7
  6
CONTINUOUS
 10
65.7968664767
 20
110.3870195003
  0
VERTEX
  8
0
 62
7
  6
CONTINUOUS
 10
65.9376710912
 20
110.1756261585
  0
SEQEND
  0
LINE
  8
0
 62
9
  6
CONTINUOUS
 10
72.3191068067
 20
114.9160588465
 11
72.3033790265
 21
114.9475239937
  0
LINE
  8
0
 62
7
  6
CONTINUOUS
 10
72.3033790265
 20
114.9475239937
 11
72.3206375201
 21
114.8743029802
  0
POLYLINE
  8
0
 62
9
  6
CONTINUOUS
 66
1
 70
0
  0
VERTEX
  8
0
 62
9
  6
CONTINUOUS
 10
72.3033790265
 20
122.7380156562
  0
VERTEX
  8
0
 62
9
  6
CONTINUOUS
 10
72.318422828
 20
122.643566766
  0
VERTEX
  8
0
 62
9
  6
CONTINUOUS
 10
72.334846351
 20
122.3008897357
  0
VERTEX
  8
0
 62
9
  6
CONTINUOUS
 10
72.3469118949
 20
121.8435919611
  0
SEQEND
  0
POLYLINE
  8
0
 62
9
  6
CONTINUOUS
 66
1
 70
0
  0
VERTEX
  8
0
 62
9
  6
CONTINUOUS
 10
72.8034551905
 20
123.2380254186
  0
VERTEX
  8
0
 62
9
  6
CONTINUOUS
 10
72.8185177365
 20
123.1289656023
  0
VERTEX
  8
0
 62
9
  6
CONTINUOUS
 10
72.8348981889
 20
122.740550131
  0
VERTEX
  8
0
 62
9
  6
CONTINUOUS
 10
72.8469075885
 20
122.2250756769
  0
VERTEX
  8
0
 62
9
  6
CONTINUOUS
 10
72.8553047118
 20
121.6891457482
  0
VERTEX
  8
0
 62
9
  6
CONTINUOUS
 10
72.8618902067
 20
121.0951792893
  0
VERTEX
  8
0
 62
9
  6
CONTINUOUS
 10
72.8668852321
 20
120.4354367328
  0
VERTEX
  8
0
 62
9
  6
CONTINUOUS
 10
72.8701862823
 20
119.7079185264
  0
VERTEX
  8
0
 62
9
  6
CONTINUOUS
 10
72.8715299773
 20
118.8379841316
  0
SEQEND
  0
POLYLINE
  8
0
 62
7
  6
CONTINUOUS
 66
1
 70
0
  0
VERTEX
  8
0
 62
7
  6
CONTINUOUS
 10
72.1533790265
 20
102.238035181
  0
VERTEX
  8
0
 62
7
  6
CONTINUOUS
 10
72.0863731529
 20
101.9880185849
  0
VERTEX
  8
0
 62
7
  6
CONTINUOUS
 10
71.9033275241
 20
101.8050079886
  0
VERTEX
  8
0
 62
7
  6
CONTINUOUS
 10
71.6533028625
 20
101.7380260442
  0
SEQEND
  0
LINE
  8
0
 62
9
  6
CONTINUOUS
 10
70.7152281093
 20
108.6465288068
 11
71.2714454446
 21
108.6465288068
  0
LINE
  8
0
 62
9
  6
CONTINUOUS
 10
71.6502741228
 20
109.1422757569
 11
71.7183790265
 21
109.1422771127
  0
LINE
  8
0
 62
9
  6
CONTINUOUS
 10
71.5852281093
 20
109.6380254186
 11
72.1533790265
 21
109.6380254186
  0
LINE
  8
0
 62
7
  6
CONTINUOUS
 10
65.3711810563
 20
110.576431613
 11
65.4527570987
 21
110.5675405733
  0
POLYLINE
  8
0
 62
7
  6
CONTINUOUS
 66
1
 70
0
  0
VERTEX
  8
0
 62
7
  6
CONTINUOUS
 10
66.3040343986
 20
114.4085041597
  0
VERTEX
  8
0
 62
7
  6
CONTINUOUS
 10
66.0206935962
 20
114.5353010366
  0
VERTEX
  8
0
 62
7
  6
CONTINUOUS
 10
65.9096869897
 20
114.6456607778
  0
SEQEND
  0
POLYLINE
  8
0
 62
7
  6
CONTINUOUS
 66
1
 70
0
  0
VERTEX
  8
0
 62
7
  6
CONTINUOUS
 10
71.6232720333
 20
102.1893074698
  0
VERTEX
  8
0
 62
7
  6
CONTINUOUS
 10
71.6953900967
 20
102.3590623784
  0
VERTEX
  8
0
 62
7
  6
CONTINUOUS
 10
71.7474964398
 20
102.6062383361
  0
VERTEX
  8
0
 62
7
  6
CONTINUOUS
 10
71.7651298554
 20
102.8622356176
  0
VERTEX
  8
0
 62
7
  6
CONTINUOUS
 10
71.743396583
 20
103.0560065946
  0
SEQEND
  0
LINE
  8
0
 62
7
  6
CONTINUOUS
 10
85.3507310761
 20
110.5669374761
 11
85.4355766621
 21
110.5764547291
  0
LINE
  8
0
 62
9
  6
CONTINUOUS
 10
91.9215299438
 20
109.9280254186
 11
91.3866966715
 21
109.9279792507
  0
LINE
  8
0
 62
9
  6
CONTINUOUS
 10
79.2215299438
 20
109.9280254186
 11
78.6866966716
 21
109.9279792507
  0
LINE
  8
0
 62
9
  6
CONTINUOUS
 10
65.9866966714
 20
109.9279792478
 11
66.5215299435
 21
109.9280254177
  0
LINE
  8
0
 62
7
  6
CONTINUOUS
 10
65.3713547665
 20
110.5780254186
 11
60.2133790265
 21
110.5780254186
  0
LINE
  8
0
 62
7
  6
CONTINUOUS
 10
72.7354004755
 20
110.5780254186
 11
78.0713575253
 21
110.5780254186
  0
LINE
  8
0
 62
7
  6
CONTINUOUS
 10
85.4354004755
 20
110.5780254186
 11
90.7713575253
 21
110.5780254186
  0
LINE
  8
0
 62
9
  6
CONTINUOUS
 10
65.3713547665
 20
111.0780254186
 11
59.7133790265
 21
111.0780254186
  0
LINE
  8
0
 62
9
  6
CONTINUOUS
 10
72.7354032865
 20
111.0780254186
 11
78.0713547665
 21
111.0780254186
  0
LINE
  8
0
 62
9
  6
CONTINUOUS
 10
85.4354032865
 20
111.0780254186
 11
90.7713547665
 21
111.0780254186
  0
LINE
  8
0
 62
9
  6
CONTINUOUS
 10
71.5852281093
 20
109.9280254186
 11
72.1200613881
 21
109.9279796622
  0
LINE
  8
0
 62
9
  6
CONTINUOUS
 10
84.2852281093
 20
109.9280254186
 11
84.8200613881
 21
109.9279796622
  0
LINE
  8
0
 62
7
  6
CONTINUOUS
 10
78.0711839979
 20
110.5764337179
 11
78.1527566158
 21
110.5675406618
  0
POLYLINE
  8
0
 62
9
  6
CONTINUOUS
 66
1
 70
0
  0
VERTEX
  8
0
 62
9
  6
CONTINUOUS
 10
78.0713547665
 20
111.0780254186
  0
VERTEX
  8
0
 62
9
  6
CONTINUOUS
 10
78.4642732716
 20
111.0088358927
  0
VERTEX
  8
0
 62
9
  6
CONTINUOUS
 10
78.8105658639
 20
110.8090651974
  0
VERTEX
  8
0
 62
9
  6
CONTINUOUS
 10
78.9526068427
 20
110.6670323818
  0
VERTEX
  8
0
 62
9
  6
CONTINUOUS
 10
79.1524189801
 20
110.3206458239
  0
VERTEX
  8
0
 62
9
  6
CONTINUOUS
 10
79.2215299438
 20
109.9280254186
  0
SEQEND
  0
POLYLINE
  8
0
 62
7
  6
CONTINUOUS
 66
1
 70
0
  0
VERTEX
  8
0
 62
7
  6
CONTINUOUS
 10
78.071357526
 20
110.5780254185
  0
VERTEX
  8
0
 62
7
  6
CONTINUOUS
 10
78.2936994556
 20
110.5388453962
  0
VERTEX
  8
0
 62
7
  6
CONTINUOUS
 10
78.4893392999
 20
110.4259450457
  0
VERTEX
  8
0
 62
7
  6
CONTINUOUS
 10
78.5695590138
 20
110.3457386699
  0
VERTEX
  8
0
 62
7
  6
CONTINUOUS
 10
78.6824522373
 20
110.1501706551
  0
VERTEX
  8
0
 62
7
  6
CONTINUOUS
 10
78.7216060969
 20
109.928001374
  0
SEQEND
  0
POLYLINE
  8
0
 62
7
  6
CONTINUOUS
 66
1
 70
0
  0
VERTEX
  8
0
 62
7
  6
CONTINUOUS
 10
78.0707815956
 20
110.5753947974
  0
VERTEX
  8
0
 62
7
  6
CONTINUOUS
 10
78.2858685587
 20
110.5283051732
  0
VERTEX
  8
0
 62
7
  6
CONTINUOUS
 10
78.4968660366
 20
110.3870199414
  0
VERTEX
  8
0
 62
7
  6
CONTINUOUS
 10
78.6376703672
 20
110.175627915
  0
SEQEND
  0
POLYLINE
  8
0
 62
7
  6
CONTINUOUS
 66
1
 70
0
  0
VERTEX
  8
0
 62
7
  6
CONTINUOUS
 10
78.1527566158
 20
110.5675406618
  0
VERTEX
  8
0
 62
7
  6
CONTINUOUS
 10
78.4361608283
 20
110.4406746269
  0
VERTEX
  8
0
 62
7
  6
CONTINUOUS
 10
78.5471634567
 20
110.3302722412
  0
SEQEND
  0
POLYLINE
  8
0
 62
7
  6
CONTINUOUS
 66
1
 70
0
  0
VERTEX
  8
0
 62
7
  6
CONTINUOUS
 10
78.6533790265
 20
102.238035181
  0
VERTEX
  8
0
 62
7
  6
CONTINUOUS
 10
78.7203848499
 20
101.9880185252
  0
VERTEX
  8
0
 62
7
  6
CONTINUOUS
 10
78.9034304963
 20
101.8050078684
  0
VERTEX
  8
0
 62
7
  6
CONTINUOUS
 10
79.1534551905
 20
101.7380257959
  0
SEQEND
  0
LINE
  8
0
 62
7
  6
CONTINUOUS
 10
78.470790922
 20
115.0189712474
 11
78.4708092909
 21
115.0185647992
  0
LINE
  8
0
 62
7
  6
CONTINUOUS
 10
78.6859655185
 20
109.957109345
 11
78.6859567747
 21
109.957303388
  0
LINE
  8
0
 62
9
  6
CONTINUOUS
 10
78.6866966716
 20
109.9279792507
 11
78.6838459867
 21
109.9921911008
  0
LINE
  8
0
 62
9
  6
CONTINUOUS
 10
78.4700613854
 20
115.0480713277
 11
78.4729117645
 21
114.9838675586
  0
LINE
  8
0
 62
9
  6
CONTINUOUS
 10
78.47006316
 20
115.0480254186
 11
78.470790922
 21
115.0189712474
  0
LINE
  8
0
 62
9
  6
CONTINUOUS
 10
78.6866941928
 20
109.9280254184
 11
78.6859655185
 21
109.957109345
  0
LINE
  8
0
 62
9
  6
CONTINUOUS
 10
77.9352281093
 20
115.0480254186
 11
77.9352281093
 21
118.8379942322
  0
LINE
  8
0
 62
9
  6
CONTINUOUS
 10
78.0713547665
 20
111.0780254186
 11
78.0713547665
 21
110.5780254186
  0
LINE
  8
0
 62
9
  6
CONTINUOUS
 10
78.4351519568
 20
115.0480494631
 11
78.4351519568
 21
118.8380254186
  0
LINE
  8
0
 62
7
  6
CONTINUOUS
 10
78.5033790265
 20
122.7380156562
 11
78.5033790265
 21
121.4380254186
  0
LINE
  8
0
 62
7
  6
CONTINUOUS
 10
78.5033790265
 20
116.2380254186
 11
78.5033790265
 21
114.9469145423
  0
LINE
  8
1_AXIS
 62
2
  6
CENTER
 10
78.6333790265
 20
116.8880254186
 11
78.6333790265
 21
114.4881254186
  0
LINE
  8
1_AXIS
 62
2
  6
CONTINUOUS
 10
78.6333790265
 20
113.3680254186
 11
78.6333790265
 21
111.6080254186
  0
LINE
  8
1_AXIS
 62
2
  6
CENTER
 10
78.6333790265
 20
108.0880254186
 11
78.6333790265
 21
110.4879254186
  0
LINE
  8
0
 62
7
  6
CONTINUOUS
 10
78.6533790265
 20
102.238035181
 11
78.6533790265
 21
103.5380254186
  0
LINE
  8
0
 62
7
  6
CONTINUOUS
 10
78.6533790265
 20
108.7380254186
 11
78.6533790265
 21
110.0291362948
  0
LINE
  8
0
 62
9
  6
CONTINUOUS
 10
78.7216060962
 20
109.928001374
 11
78.7216060962
 21
106.1380254186
  0
POLYLINE
  8
0
 62
9
  6
CONTINUOUS
 66
1
 70
0
  0
VERTEX
  8
0
 62
9
  6
CONTINUOUS
 10
77.9352280862
 20
118.8379942322
  0
VERTEX
  8
0
 62
9
  6
CONTINUOUS
 10
77.9363774655
 20
119.6431457563
  0
VERTEX
  8
0
 62
9
  6
CONTINUOUS
 10
77.9394451592
 20
120.362593486
  0
VERTEX
  8
0
 62
9
  6
CONTINUOUS
 10
77.9442801783
 20
121.0303705065
  0
VERTEX
  8
0
 62
9
  6
CONTINUOUS
 10
77.9507524671
 20
121.6350245684
  0
VERTEX
  8
0
 62
9
  6
CONTINUOUS
 10
77.9598229842
 20
122.2236022347
  0
VERTEX
  8
0
 62
9
  6
CONTINUOUS
 10
77.9738182362
 20
122.8039013967
  0
VERTEX
  8
0
 62
9
  6
CONTINUOUS
 10
77.9899814428
 20
123.1529564398
  0
VERTEX
  8
0
 62
9
  6
CONTINUOUS
 10
78.0033028625
 20
123.2380254186
  0
SEQEND
  0
POLYLINE
  8
0
 62
9
  6
CONTINUOUS
 66
1
 70
0
  0
VERTEX
  8
0
 62
9
  6
CONTINUOUS
 10
78.4351519568
 20
118.8380254186
  0
VERTEX
  8
0
 62
9
  6
CONTINUOUS
 10
78.4363044458
 20
119.5526181173
  0
VERTEX
  8
0
 62
9
  6
CONTINUOUS
 10
78.4393810807
 20
120.1912182003
  0
VERTEX
  8
0
 62
9
  6
CONTINUOUS
 10
78.4442304163
 20
120.7838689424
  0
VERTEX
  8
0
 62
9
  6
CONTINUOUS
 10
78.4507229123
 20
121.3204221501
  0
SEQEND
  0
POLYLINE
  8
0
 62
9
  6
CONTINUOUS
 66
1
 70
0
  0
VERTEX
  8
0
 62
9
  6
CONTINUOUS
 10
78.7216060962
 20
106.1380254186
  0
VERTEX
  8
0
 62
9
  6
CONTINUOUS
 10
78.7204551174
 20
105.4238971752
  0
VERTEX
  8
0
 62
9
  6
CONTINUOUS
 10
78.7173806749
 20
104.7854061581
  0
VERTEX
  8
0
 62
9
  6
CONTINUOUS
 10
78.7125333614
 20
104.192751675
  0
VERTEX
  8
0
 62
9
  6
CONTINUOUS
 10
78.7060417643
 20
103.6560885602
  0
SEQEND
  0
POLYLINE
  8
0
 62
9
  6
CONTINUOUS
 66
1
 70
0
  0
VERTEX
  8
0
 62
9
  6
CONTINUOUS
 10
78.4507229123
 20
121.3204221501
  0
VERTEX
  8
0
 62
9
  6
CONTINUOUS
 10
78.4598349196
 20
121.8430596928
  0
VERTEX
  8
0
 62
9
  6
CONTINUOUS
 10
78.4738980574
 20
122.357513595
  0
VERTEX
  8
0
 62
9
  6
CONTINUOUS
 10
78.4900677603
 20
122.6644685808
  0
VERTEX
  8
0
 62
9
  6
CONTINUOUS
 10
78.5033790265
 20
122.7380156562
  0
SEQEND
  0
LINE
  8
0
 62
7
  6
CONTINUOUS
 10
78.5033790265
 20
114.9469145423
 11
78.4862125966
 21
114.8742812708
  0
LINE
  8
0
 62
9
  6
CONTINUOUS
 10
78.4872417445
 20
114.9152395934
 11
78.5033790265
 21
114.9475239937
  0
LINE
  8
0
 62
7
  6
CONTINUOUS
 10
72.3679433813
 20
110.4385954027
 11
72.6507310761
 21
110.5669374761
  0
LINE
  8
0
 62
7
  6
CONTINUOUS
 10
72.6507310761
 20
110.5669374761
 11
72.7355766621
 21
110.5764547291
  0
LINE
  8
1_AXIS
 62
2
  6
CENTER
 10
83.0333790265
 20
112.4880254186
 11
80.6334790265
 21
112.4880254186
  0
LINE
  8
1_AXIS
 62
2
  6
CONTINUOUS
 10
79.5133790265
 20
112.4880254186
 11
77.7533790265
 21
112.4880254186
  0
LINE
  8
1_AXIS
 62
2
  6
CENTER
 10
74.2333790265
 20
112.4880254186
 11
76.6332790265
 21
112.4880254186
  0
LINE
  8
0
 62
7
  6
CONTINUOUS
 10
90.7711839979
 20
110.5764337179
 11
90.8527566158
 21
110.5675406618
  0
POLYLINE
  8
0
 62
9
  6
CONTINUOUS
 66
1
 70
0
  0
VERTEX
  8
0
 62
9
  6
CONTINUOUS
 10
66.3854032865
 20
113.8980254186
  0
VERTEX
  8
0
 62
9
  6
CONTINUOUS
 10
65.9924847814
 20
113.9672149444
  0
VERTEX
  8
0
 62
9
  6
CONTINUOUS
 10
65.6461921891
 20
114.1669856397
  0
VERTEX
  8
0
 62
9
  6
CONTINUOUS
 10
65.5041512104
 20
114.3090184553
  0
VERTEX
  8
0
 62
9
  6
CONTINUOUS
 10
65.3043390729
 20
114.6554050132
  0
VERTEX
  8
0
 62
9
  6
CONTINUOUS
 10
65.2352281093
 20
115.0480254186
  0
SEQEND
  0
POLYLINE
  8
0
 62
7
  6
CONTINUOUS
 66
1
 70
0
  0
VERTEX
  8
0
 62
7
  6
CONTINUOUS
 10
66.3854005271
 20
114.3980254186
  0
VERTEX
  8
0
 62
7
  6
CONTINUOUS
 10
66.1630585974
 20
114.4372054409
  0
VERTEX
  8
0
 62
7
  6
CONTINUOUS
 10
65.9674187531
 20
114.5501057914
  0
VERTEX
  8
0
 62
7
  6
CONTINUOUS
 10
65.8871990392
 20
114.6303121672
  0
VERTEX
  8
0
 62
7
  6
CONTINUOUS
 10
65.7743058157
 20
114.825880182
  0
VERTEX
  8
0
 62
7
  6
CONTINUOUS
 10
65.7351519562
 20
115.0480494631
  0
SEQEND
  0
POLYLINE
  8
0
 62
7
  6
CONTINUOUS
 66
1
 70
0
  0
VERTEX
  8
0
 62
7
  6
CONTINUOUS
 10
66.3859852472
 20
114.4006976191
  0
VERTEX
  8
0
 62
7
  6
CONTINUOUS
 10
66.1707963895
 20
114.4477843286
  0
VERTEX
  8
0
 62
7
  6
CONTINUOUS
 10
65.9600393164
 20
114.5888833009
  0
VERTEX
  8
0
 62
7
  6
CONTINUOUS
 10
65.8192929712
 20
114.7999254225
  0
SEQEND
  0
LINE
  8
0
 62
7
  6
CONTINUOUS
 10
78.5471634567
 20
110.3302722412
 11
78.6755462446
 21
110.0474750865
  0
LINE
  8
0
 62
7
  6
CONTINUOUS
 10
78.6376703672
 20
110.175627915
 11
78.6866959671
 21
109.9279792502
  0
LINE
  8
0
 62
7
  6
CONTINUOUS
 10
78.4812301077
 20
114.9284749782
 11
78.4708081659
 21
115.0185897407
  0
LINE
  8
0
 62
7
  6
CONTINUOUS
 10
78.6755462446
 20
110.0474750865
 11
78.6859585348
 21
109.9572639423
  0
POLYLINE
  8
0
 62
7
  6
CONTINUOUS
 66
1
 70
0
  0
VERTEX
  8
0
 62
7
  6
CONTINUOUS
 10
78.5033790265
 20
116.2380254186
  0
VERTEX
  8
0
 62
7
  6
CONTINUOUS
 10
78.4878557899
 20
116.3948512702
  0
VERTEX
  8
0
 62
7
  6
CONTINUOUS
 10
78.4742056901
 20
116.8463866818
  0
VERTEX
  8
0
 62
7
  6
CONTINUOUS
 10
78.4640751315
 20
117.538116508
  0
VERTEX
  8
0
 62
7
  6
CONTINUOUS
 10
78.4586852036
 20
118.3865812277
  0
VERTEX
  8
0
 62
7
  6
CONTINUOUS
 10
78.4586852051
 20
119.2894700815
  0
VERTEX
  8
0
 62
7
  6
CONTINUOUS
 10
78.4640751347
 20
120.1379346501
  0
VERTEX
  8
0
 62
7
  6
CONTINUOUS
 10
78.4742056928
 20
120.8296642865
  0
VERTEX
  8
0
 62
7
  6
CONTINUOUS
 10
78.4878557908
 20
121.2811995866
  0
VERTEX
  8
0
 62
7
  6
CONTINUOUS
 10
78.5033790265
 20
121.4380254186
  0
SEQEND
  0
LINE
  8
0
 62
9
  6
CONTINUOUS
 10
79.0854032865
 20
113.8980254186
 11
79.0854032865
 21
114.3980254186
  0
LINE
  8
0
 62
9
  6
CONTINUOUS
 10
79.2215299438
 20
109.9280254186
 11
79.2215299438
 21
106.138057738
  0
POLYLINE
  8
0
 62
9
  6
CONTINUOUS
 66
1
 70
0
  0
VERTEX
  8
0
 62
9
  6
CONTINUOUS
 10
79.2215299676
 20
106.138057738
  0
VERTEX
  8
0
 62
9
  6
CONTINUOUS
 10
79.2203820758
 20
105.3334222096
  0
VERTEX
  8
0
 62
9
  6
CONTINUOUS
 10
79.217316569
 20
104.6141006018
  0
VERTEX
  8
0
 62
9
  6
CONTINUOUS
 10
79.2124835749
 20
103.9463215468
  0
VERTEX
  8
0
 62
9
  6
CONTINUOUS
 10
79.2060122259
 20
103.3415475082
  0
VERTEX
  8
0
 62
9
  6
CONTINUOUS
 10
79.1969338785
 20
102.7523847217
  0
VERTEX
  8
0
 62
9
  6
CONTINUOUS
 10
79.1829254094
 20
102.171702081
  0
VERTEX
  8
0
 62
9
  6
CONTINUOUS
 10
79.1667676692
 20
101.8229791178
  0
VERTEX
  8
0
 62
9
  6
CONTINUOUS
 10
79.1534551905
 20
101.7380254186
  0
SEQEND
  0
POLYLINE
  8
0
 62
9
  6
CONTINUOUS
 66
1
 70
0
  0
VERTEX
  8
0
 62
9
  6
CONTINUOUS
 10
78.7060417643
 20
103.6560885602
  0
VERTEX
  8
0
 62
9
  6
CONTINUOUS
 10
78.6969218049
 20
103.1329281724
  0
VERTEX
  8
0
 62
9
  6
CONTINUOUS
 10
78.6828454473
 20
102.6181394261
  0
VERTEX
  8
0
 62
9
  6
CONTINUOUS
 10
78.6666814478
 20
102.3114824461
  0
VERTEX
  8
0
 62
9
  6
CONTINUOUS
 10
78.6533790265
 20
102.238035181
  0
SEQEND
  0
POLYLINE
  8
0
 62
7
  6
CONTINUOUS
 66
1
 70
0
  0
VERTEX
  8
0
 62
7
  6
CONTINUOUS
 10
78.6533790265
 20
103.5380254186
  0
VERTEX
  8
0
 62
7
  6
CONTINUOUS
 10
78.6689022632
 20
103.6948512702
  0
VERTEX
  8
0
 62
7
  6
CONTINUOUS
 10
78.682552363
 20
104.1463866818
  0
VERTEX
  8
0
 62
7
  6
CONTINUOUS
 10
78.6926829215
 20
104.838116508
  0
VERTEX
  8
0
 62
7
  6
CONTINUOUS
 10
78.6980728494
 20
105.6865812277
  0
VERTEX
  8
0
 62
7
  6
CONTINUOUS
 10
78.698072848
 20
106.5894700815
  0
VERTEX
  8
0
 62
7
  6
CONTINUOUS
 10
78.6926829183
 20
107.4379346501
  0
VERTEX
  8
0
 62
7
  6
CONTINUOUS
 10
78.6825523602
 20
108.1296642865
  0
VERTEX
  8
0
 62
7
  6
CONTINUOUS
 10
78.6689022622
 20
108.5811995866
  0
VERTEX
  8
0
 62
7
  6
CONTINUOUS
 10
78.6533790265
 20
108.7380254186
  0
SEQEND
  0
LINE
  8
0
 62
7
  6
CONTINUOUS
 10
78.6533790265
 20
110.0291362948
 11
78.6705456823
 21
110.1017705222
  0
LINE
  8
0
 62
9
  6
CONTINUOUS
 10
78.6695035514
 20
110.0607857217
 11
78.6533790265
 21
110.0285268434
  0
LINE
  8
0
 62
7
  6
CONTINUOUS
 10
84.7887170656
 20
114.5373784967
 11
84.5059942613
 21
114.4091072052
  0
POLYLINE
  8
0
 62
7
  6
CONTINUOUS
 66
1
 70
0
  0
VERTEX
  8
0
 62
7
  6
CONTINUOUS
 10
71.7183790265
 20
109.1422771127
  0
VERTEX
  8
0
 62
7
  6
CONTINUOUS
 10
71.4876345972
 20
109.0496625698
  0
VERTEX
  8
0
 62
7
  6
CONTINUOUS
 10
71.3966815212
 20
108.9634699575
  0
VERTEX
  8
0
 62
7
  6
CONTINUOUS
 10
71.2918232253
 20
108.7380254186
  0
SEQEND
  0
POLYLINE
  8
0
 62
9
  6
CONTINUOUS
 66
1
 70
0
  0
VERTEX
  8
0
 62
9
  6
CONTINUOUS
 10
71.6502741228
 20
109.1422757569
  0
VERTEX
  8
0
 62
9
  6
CONTINUOUS
 10
71.8718642327
 20
109.2283734929
  0
VERTEX
  8
0
 62
9
  6
CONTINUOUS
 10
72.0286354203
 20
109.4070924119
  0
VERTEX
  8
0
 62
9
  6
CONTINUOUS
 10
72.0851519568
 20
109.6380254186
  0
SEQEND
  0
LINE
  8
0
 62
7
  6
CONTINUOUS
 10
84.5059942613
 20
114.4091072052
 11
84.4211819182
 21
114.39959096
  0
LINE
  8
0
 62
9
  6
CONTINUOUS
 10
84.4213547665
 20
113.8980254186
 11
79.0854032865
 21
113.8980254186
  0
LINE
  8
0
 62
9
  6
CONTINUOUS
 10
71.7213547665
 20
113.8980254186
 11
66.3854032865
 21
113.8980254186
  0
LINE
  8
0
 62
9
  6
CONTINUOUS
 10
91.7854032865
 20
113.8980254186
 11
97.5533790265
 21
113.8980254186
  0
LINE
  8
0
 62
7
  6
CONTINUOUS
 10
66.3855753525
 20
114.3996322116
 11
66.3040343986
 21
114.4085041597
  0
POLYLINE
  8
0
 62
9
  6
CONTINUOUS
 66
1
 70
0
  0
VERTEX
  8
0
 62
9
  6
CONTINUOUS
 10
90.7713547665
 20
111.0780254186
  0
VERTEX
  8
0
 62
9
  6
CONTINUOUS
 10
91.1642732716
 20
111.0088358927
  0
VERTEX
  8
0
 62
9
  6
CONTINUOUS
 10
91.5105658639
 20
110.8090651974
  0
VERTEX
  8
0
 62
9
  6
CONTINUOUS
 10
91.6526068427
 20
110.6670323818
  0
VERTEX
  8
0
 62
9
  6
CONTINUOUS
 10
91.8524189801
 20
110.3206458239
  0
VERTEX
  8
0
 62
9
  6
CONTINUOUS
 10
91.9215299438
 20
109.9280254186
  0
SEQEND
  0
POLYLINE
  8
0
 62
9
  6
CONTINUOUS
 66
1
 70
0
  0
VERTEX
  8
0
 62
9
  6
CONTINUOUS
 10
79.0854032865
 20
113.8980254186
  0
VERTEX
  8
0
 62
9
  6
CONTINUOUS
 10
78.6924847814
 20
113.9672149444
  0
VERTEX
  8
0
 62
9
  6
CONTINUOUS
 10
78.3461921891
 20
114.1669856397
  0
VERTEX
  8
0
 62
9
  6
CONTINUOUS
 10
78.2041512104
 20
114.3090184553
  0
VERTEX
  8
0
 62
9
  6
CONTINUOUS
 10
78.0043390729
 20
114.6554050132
  0
VERTEX
  8
0
 62
9
  6
CONTINUOUS
 10
77.9352281093
 20
115.0480254186
  0
SEQEND
  0
POLYLINE
  8
0
 62
7
  6
CONTINUOUS
 66
1
 70
0
  0
VERTEX
  8
0
 62
7
  6
CONTINUOUS
 10
90.771357526
 20
110.5780254185
  0
VERTEX
  8
0
 62
7
  6
CONTINUOUS
 10
90.9936994556
 20
110.5388453962
  0
VERTEX
  8
0
 62
7
  6
CONTINUOUS
 10
91.1893392999
 20
110.4259450457
  0
VERTEX
  8
0
 62
7
  6
CONTINUOUS
 10
91.2695590138
 20
110.3457386699
  0
VERTEX
  8
0
 62
7
  6
CONTINUOUS
 10
91.3824522373
 20
110.1501706551
  0
VERTEX
  8
0
 62
7
  6
CONTINUOUS
 10
91.4216060969
 20
109.928001374
  0
SEQEND
  0
POLYLINE
  8
0
 62
7
  6
CONTINUOUS
 66
1
 70
0
  0
VERTEX
  8
0
 62
7
  6
CONTINUOUS
 10
90.7707815956
 20
110.5753947974
  0
VERTEX
  8
0
 62
7
  6
CONTINUOUS
 10
90.9858685587
 20
110.5283051732
  0
VERTEX
  8
0
 62
7
  6
CONTINUOUS
 10
91.1968660366
 20
110.3870199414
  0
VERTEX
  8
0
 62
7
  6
CONTINUOUS
 10
91.3376703672
 20
110.175627915
  0
SEQEND
  0
LINE
  8
0
 62
7
  6
CONTINUOUS
 10
78.6096869897
 20
114.6456607778
 11
78.4812301077
 21
114.9284749782
  0
LINE
  8
0
 62
7
  6
CONTINUOUS
 10
78.5192929712
 20
114.7999254225
 11
78.4700620859
 21
115.0480713282
  0
LINE
  8
0
 62
7
  6
CONTINUOUS
 10
71.8059942613
 20
114.4091072052
 11
71.7211819182
 21
114.39959096
  0
LINE
  8
0
 62
7
  6
CONTINUOUS
 10
97.0533790265
 20
114.3980254186
 11
91.7854005277
 21
114.3980254186
  0
LINE
  8
0
 62
7
  6
CONTINUOUS
 10
84.4213575775
 20
114.3980254186
 11
79.0854005277
 21
114.3980254186
  0
LINE
  8
0
 62
7
  6
CONTINUOUS
 10
71.7213575775
 20
114.3980254186
 11
66.3854005277
 21
114.3980254186
  0
LINE
  8
0
 62
9
  6
CONTINUOUS
 10
65.2352281093
 20
115.0480254186
 11
65.7700613855
 21
115.0480713277
  0
LINE
  8
0
 62
9
  6
CONTINUOUS
 10
77.9352281093
 20
115.0480254186
 11
78.4700613854
 21
115.0480713277
  0
LINE
  8
0
 62
9
  6
CONTINUOUS
 10
90.6352281093
 20
115.0480254186
 11
91.1700613855
 21
115.0480713277
  0
LINE
  8
0
 62
9
  6
CONTINUOUS
 10
72.8715299438
 20
115.0480254186
 11
72.3366967049
 21
115.0480737895
  0
LINE
  8
0
 62
9
  6
CONTINUOUS
 10
85.5715299438
 20
115.0480254186
 11
85.0366967048
 21
115.0480737895
  0
LINE
  8
0
 62
7
  6
CONTINUOUS
 10
79.0855753525
 20
114.3996322116
 11
79.0040343986
 21
114.4085041597
  0
POLYLINE
  8
0
 62
7
  6
CONTINUOUS
 66
1
 70
0
  0
VERTEX
  8
0
 62
7
  6
CONTINUOUS
 10
79.0854005271
 20
114.3980254186
  0
VERTEX
  8
0
 62
7
  6
CONTINUOUS
 10
78.8630585974
 20
114.4372054409
  0
VERTEX
  8
0
 62
7
  6
CONTINUOUS
 10
78.6674187531
 20
114.5501057914
  0
VERTEX
  8
0
 62
7
  6
CONTINUOUS
 10
78.5871990392
 20
114.6303121672
  0
VERTEX
  8
0
 62
7
  6
CONTINUOUS
 10
78.4743058157
 20
114.825880182
  0
VERTEX
  8
0
 62
7
  6
CONTINUOUS
 10
78.4351519562
 20
115.0480494631
  0
SEQEND
  0
POLYLINE
  8
0
 62
7
  6
CONTINUOUS
 66
1
 70
0
  0
VERTEX
  8
0
 62
7
  6
CONTINUOUS
 10
79.0859852472
 20
114.4006976191
  0
VERTEX
  8
0
 62
7
  6
CONTINUOUS
 10
78.8707963895
 20
114.4477843286
  0
VERTEX
  8
0
 62
7
  6
CONTINUOUS
 10
78.6600393164
 20
114.5888833009
  0
VERTEX
  8
0
 62
7
  6
CONTINUOUS
 10
78.5192929712
 20
114.7999254225
  0
SEQEND
  0
POLYLINE
  8
0
 62
7
  6
CONTINUOUS
 66
1
 70
0
  0
VERTEX
  8
0
 62
7
  6
CONTINUOUS
 10
79.0040343986
 20
114.4085041597
  0
VERTEX
  8
0
 62
7
  6
CONTINUOUS
 10
78.7206935962
 20
114.5353010366
  0
VERTEX
  8
0
 62
7
  6
CONTINUOUS
 10
78.6096869897
 20
114.6456607778
  0
SEQEND
  0
POLYLINE
  8
0
 62
7
  6
CONTINUOUS
 66
1
 70
0
  0
VERTEX
  8
0
 62
7
  6
CONTINUOUS
 10
78.5033790265
 20
122.7380156562
  0
VERTEX
  8
0
 62
7
  6
CONTINUOUS
 10
78.436373203
 20
122.9880323117
  0
VERTEX
  8
0
 62
7
  6
CONTINUOUS
 10
78.2533275569
 20
123.1710429681
  0
VERTEX
  8
0
 62
7
  6
CONTINUOUS
 10
78.0033028625
 20
123.238025038
  0
SEQEND
  0
POLYLINE
  8
0
 62
7
  6
CONTINUOUS
 66
1
 70
0
  0
VERTEX
  8
0
 62
7
  6
CONTINUOUS
 10
85.0033790265
 20
122.7380156562
  0
VERTEX
  8
0
 62
7
  6
CONTINUOUS
 10
85.0703848499
 20
122.9880323119
  0
VERTEX
  8
0
 62
7
  6
CONTINUOUS
 10
85.2534304963
 20
123.1710429687
  0
VERTEX
  8
0
 62
7
  6
CONTINUOUS
 10
85.5034551905
 20
123.2380250412
  0
SEQEND
  0
LINE
  8
0
 62
7
  6
CONTINUOUS
 10
85.0679433813
 20
110.4385954027
 11
85.3507310761
 21
110.5669374761
  0
LINE
  8
0
 62
7
  6
CONTINUOUS
 10
91.7855753525
 20
114.3996322116
 11
91.7040343986
 21
114.4085041597
  0
POLYLINE
  8
0
 62
9
  6
CONTINUOUS
 66
1
 70
0
  0
VERTEX
  8
0
 62
9
  6
CONTINUOUS
 10
91.7854032865
 20
113.8980254186
  0
VERTEX
  8
0
 62
9
  6
CONTINUOUS
 10
91.3924847814
 20
113.9672149444
  0
VERTEX
  8
0
 62
9
  6
CONTINUOUS
 10
91.0461921891
 20
114.1669856397
  0
VERTEX
  8
0
 62
9
  6
CONTINUOUS
 10
90.9041512104
 20
114.3090184553
  0
VERTEX
  8
0
 62
9
  6
CONTINUOUS
 10
90.7043390729
 20
114.6554050132
  0
VERTEX
  8
0
 62
9
  6
CONTINUOUS
 10
90.6352281093
 20
115.0480254186
  0
SEQEND
  0
POLYLINE
  8
0
 62
7
  6
CONTINUOUS
 66
1
 70
0
  0
VERTEX
  8
0
 62
7
  6
CONTINUOUS
 10
91.7854005271
 20
114.3980254186
  0
VERTEX
  8
0
 62
7
  6
CONTINUOUS
 10
91.5630585974
 20
114.4372054409
  0
VERTEX
  8
0
 62
7
  6
CONTINUOUS
 10
91.3674187531
 20
114.5501057914
  0
VERTEX
  8
0
 62
7
  6
CONTINUOUS
 10
91.2871990392
 20
114.6303121672
  0
VERTEX
  8
0
 62
7
  6
CONTINUOUS
 10
91.1743058157
 20
114.825880182
  0
VERTEX
  8
0
 62
7
  6
CONTINUOUS
 10
91.1351519562
 20
115.0480494631
  0
SEQEND
  0
POLYLINE
  8
0
 62
7
  6
CONTINUOUS
 66
1
 70
0
  0
VERTEX
  8
0
 62
7
  6
CONTINUOUS
 10
90.8527566158
 20
110.5675406618
  0
VERTEX
  8
0
 62
7
  6
CONTINUOUS
 10
91.1361608283
 20
110.4406746269
  0
VERTEX
  8
0
 62
7
  6
CONTINUOUS
 10
91.2471634567
 20
110.3302722412
  0
SEQEND
  0
LINE
  8
0
 62
9
  6
CONTINUOUS
 10
84.8376639203
 20
110.0599666348
 11
84.8533790265
 21
110.0285268434
  0
POLYLINE
  8
0
 62
9
  6
CONTINUOUS
 66
1
 70
0
  0
VERTEX
  8
0
 62
9
  6
CONTINUOUS
 10
84.8533790265
 20
102.238035181
  0
VERTEX
  8
0
 62
9
  6
CONTINUOUS
 10
84.8383438369
 20
102.332373479
  0
VERTEX
  8
0
 62
9
  6
CONTINUOUS
 10
84.8219192706
 20
102.6749364814
  0
VERTEX
  8
0
 62
9
  6
CONTINUOUS
 10
84.8098405713
 20
103.1327235565
  0
SEQEND
  0
POLYLINE
  8
0
 62
9
  6
CONTINUOUS
 66
1
 70
0
  0
VERTEX
  8
0
 62
9
  6
CONTINUOUS
 10
84.3533028625
 20
101.7380254186
  0
VERTEX
  8
0
 62
9
  6
CONTINUOUS
 10
84.3382490312
 20
101.8469574744
  0
VERTEX
  8
0
 62
9
  6
CONTINUOUS
 10
84.3218672605
 20
102.2352517829
  0
VERTEX
  8
0
 62
9
  6
CONTINUOUS
 10
84.3098447996
 20
102.7512788
  0
VERTEX
  8
0
 62
9
  6
CONTINUOUS
 10
84.3014442921
 20
103.2875927111
  0
VERTEX
  8
0
 62
9
  6
CONTINUOUS
 10
84.2948606766
 20
103.8816471522
  0
VERTEX
  8
0
 62
9
  6
CONTINUOUS
 10
84.2898677636
 20
104.5414532851
  0
VERTEX
  8
0
 62
9
  6
CONTINUOUS
 10
84.2865696316
 20
105.2688182365
  0
VERTEX
  8
0
 62
9
  6
CONTINUOUS
 10
84.2852280743
 20
106.1380684404
  0
SEQEND
  0
POLYLINE
  8
0
 62
7
  6
CONTINUOUS
 66
1
 70
0
  0
VERTEX
  8
0
 62
7
  6
CONTINUOUS
 10
84.8533790265
 20
103.5380254186
  0
VERTEX
  8
0
 62
7
  6
CONTINUOUS
 10
84.8378557899
 20
103.6948512702
  0
VERTEX
  8
0
 62
7
  6
CONTINUOUS
 10
84.8242056901
 20
104.1463866818
  0
VERTEX
  8
0
 62
7
  6
CONTINUOUS
 10
84.8140751315
 20
104.838116508
  0
VERTEX
  8
0
 62
7
  6
CONTINUOUS
 10
84.8086852036
 20
105.6865812277
  0
VERTEX
  8
0
 62
7
  6
CONTINUOUS
 10
84.8086852051
 20
106.5894700815
  0
VERTEX
  8
0
 62
7
  6
CONTINUOUS
 10
84.8140751347
 20
107.4379346501
  0
VERTEX
  8
0
 62
7
  6
CONTINUOUS
 10
84.8242056928
 20
108.1296642865
  0
VERTEX
  8
0
 62
7
  6
CONTINUOUS
 10
84.8378557908
 20
108.5811995866
  0
VERTEX
  8
0
 62
7
  6
CONTINUOUS
 10
84.8533790265
 20
108.7380254186
  0
SEQEND
  0
LINE
  8
0
 62
9
  6
CONTINUOUS
 10
84.2852281093
 20
106.1380684404
 11
84.2852281093
 21
109.9280254186
  0
LINE
  8
0
 62
9
  6
CONTINUOUS
 10
84.4213547665
 20
113.8980254186
 11
84.4213547665
 21
114.3980254186
  0
POLYLINE
  8
0
 62
7
  6
CONTINUOUS
 66
1
 70
0
  0
VERTEX
  8
0
 62
7
  6
CONTINUOUS
 10
85.0033790265
 20
116.2380254186
  0
VERTEX
  8
0
 62
7
  6
CONTINUOUS
 10
85.0189022632
 20
116.3948512702
  0
VERTEX
  8
0
 62
7
  6
CONTINUOUS
 10
85.032552363
 20
116.8463866818
  0
VERTEX
  8
0
 62
7
  6
CONTINUOUS
 10
85.0426829215
 20
117.538116508
  0
VERTEX
  8
0
 62
7
  6
CONTINUOUS
 10
85.0480728494
 20
118.3865812277
  0
VERTEX
  8
0
 62
7
  6
CONTINUOUS
 10
85.048072848
 20
119.2894700815
  0
VERTEX
  8
0
 62
7
  6
CONTINUOUS
 10
85.0426829183
 20
120.1379346501
  0
VERTEX
  8
0
 62
7
  6
CONTINUOUS
 10
85.0325523602
 20
120.8296642865
  0
VERTEX
  8
0
 62
7
  6
CONTINUOUS
 10
85.0189022622
 20
121.2811995866
  0
VERTEX
  8
0
 62
7
  6
CONTINUOUS
 10
85.0033790265
 20
121.4380254186
  0
SEQEND
  0
POLYLINE
  8
0
 62
7
  6
CONTINUOUS
 66
1
 70
0
  0
VERTEX
  8
0
 62
7
  6
CONTINUOUS
 10
85.0716060969
 20
115.0480495124
  0
VERTEX
  8
0
 62
7
  6
CONTINUOUS
 10
85.0324522373
 20
114.825880182
  0
VERTEX
  8
0
 62
7
  6
CONTINUOUS
 10
84.9195590138
 20
114.6303121672
  0
VERTEX
  8
0
 62
7
  6
CONTINUOUS
 10
84.8393392999
 20
114.5501057914
  0
VERTEX
  8
0
 62
7
  6
CONTINUOUS
 10
84.6436994556
 20
114.4372054409
  0
VERTEX
  8
0
 62
7
  6
CONTINUOUS
 10
84.4213575781
 20
114.3980254186
  0
SEQEND
  0
POLYLINE
  8
0
 62
7
  6
CONTINUOUS
 66
1
 70
0
  0
VERTEX
  8
0
 62
7
  6
CONTINUOUS
 10
85.0366959671
 20
115.04807379
  0
VERTEX
  8
0
 62
7
  6
CONTINUOUS
 10
84.9877060287
 20
114.8005094666
  0
VERTEX
  8
0
 62
7
  6
CONTINUOUS
 10
84.8480884844
 20
114.5902594673
  0
VERTEX
  8
0
 62
7
  6
CONTINUOUS
 10
84.6389359888
 20
114.4490284369
  0
VERTEX
  8
0
 62
7
  6
CONTINUOUS
 10
84.420797519
 20
114.4005452682
  0
SEQEND
  0
POLYLINE
  8
0
 62
7
  6
CONTINUOUS
 66
1
 70
0
  0
VERTEX
  8
0
 62
7
  6
CONTINUOUS
 10
85.0261289008
 20
114.9317321657
  0
VERTEX
  8
0
 62
7
  6
CONTINUOUS
 10
84.8991465862
 20
114.6483075488
  0
VERTEX
  8
0
 62
7
  6
CONTINUOUS
 10
84.7887170656
 20
114.5373784967
  0
SEQEND
  0
POLYLINE
  8
0
 62
7
  6
CONTINUOUS
 66
1
 70
0
  0
VERTEX
  8
0
 62
7
  6
CONTINUOUS
 10
91.7859852472
 20
114.4006976191
  0
VERTEX
  8
0
 62
7
  6
CONTINUOUS
 10
91.5707963895
 20
114.4477843286
  0
VERTEX
  8
0
 62
7
  6
CONTINUOUS
 10
91.3600393164
 20
114.5888833009
  0
VERTEX
  8
0
 62
7
  6
CONTINUOUS
 10
91.2192929712
 20
114.7999254225
  0
SEQEND
  0
LINE
  8
0
 62
7
  6
CONTINUOUS
 10
84.8533790265
 20
110.0285268434
 11
84.8361204164
 21
110.101748351
  0
POLYLINE
  8
0
 62
9
  6
CONTINUOUS
 66
1
 70
0
  0
VERTEX
  8
0
 62
9
  6
CONTINUOUS
 10
84.8098405713
 20
103.1327235565
  0
VERTEX
  8
0
 62
9
  6
CONTINUOUS
 10
84.8014106946
 20
103.6086413108
  0
VERTEX
  8
0
 62
9
  6
CONTINUOUS
 10
84.7948097084
 20
104.1356401761
  0
VERTEX
  8
0
 62
9
  6
CONTINUOUS
 10
84.7898033962
 20
104.7211492463
  0
VERTEX
  8
0
 62
9
  6
CONTINUOUS
 10
84.7864967199
 20
105.3666714188
  0
VERTEX
  8
0
 62
9
  6
CONTINUOUS
 10
84.7851519568
 20
106.1380254186
  0
SEQEND
  0
POLYLINE
  8
0
 62
9
  6
CONTINUOUS
 66
1
 70
0
  0
VERTEX
  8
0
 62
9
  6
CONTINUOUS
 10
85.0469118949
 20
121.8435919611
  0
VERTEX
  8
0
 62
9
  6
CONTINUOUS
 10
85.055338299
 20
121.368018514
  0
VERTEX
  8
0
 62
9
  6
CONTINUOUS
 10
85.0619411468
 20
120.841099696
  0
VERTEX
  8
0
 62
9
  6
CONTINUOUS
 10
85.0669495671
 20
120.255649129
  0
VERTEX
  8
0
 62
9
  6
CONTINUOUS
 10
85.0702591665
 20
119.6099944483
  0
VERTEX
  8
0
 62
9
  6
CONTINUOUS
 10
85.0716060962
 20
118.8380254186
  0
SEQEND
  0
LINE
  8
0
 62
9
  6
CONTINUOUS
 10
84.7851519568
 20
106.1380254186
 11
84.7851519568
 21
109.9280013247
  0
LINE
  8
0
 62
7
  6
CONTINUOUS
 10
84.8533790265
 20
102.238035181
 11
84.8533790265
 21
103.5380254186
  0
LINE
  8
0
 62
7
  6
CONTINUOUS
 10
84.8533790265
 20
108.7380254186
 11
84.8533790265
 21
110.0285268434
  0
LINE
  8
0
 62
7
  6
CONTINUOUS
 10
85.0033790265
 20
122.7380156562
 11
85.0033790265
 21
121.4380254186
  0
LINE
  8
0
 62
7
  6
CONTINUOUS
 10
85.0033790265
 20
116.2380254186
 11
85.0033790265
 21
114.9475239937
  0
LINE
  8
0
 62
9
  6
CONTINUOUS
 10
85.0716060962
 20
118.8380254186
 11
85.0716060962
 21
115.0480495124
  0
LINE
  8
0
 62
9
  6
CONTINUOUS
 10
85.4354032865
 20
111.0780254186
 11
85.4354032865
 21
110.5780254186
  0
LINE
  8
0
 62
9
  6
CONTINUOUS
 10
85.5715299438
 20
118.8379841316
 11
85.5715299438
 21
115.0480254186
  0
LINE
  8
0
 62
9
  6
CONTINUOUS
 10
84.8207948855
 20
109.9571541321
 11
84.8200644417
 21
109.9280256622
  0
LINE
  8
0
 62
9
  6
CONTINUOUS
 10
85.0359648319
 20
115.0189270292
 11
85.0366943872
 21
115.0480254187
  0
LINE
  8
0
 62
9
  6
CONTINUOUS
 10
85.0338435999
 20
114.9838035608
 11
85.0359558763
 21
115.0187284278
  0
LINE
  8
0
 62
9
  6
CONTINUOUS
 10
85.0359648319
 20
115.0189270292
 11
85.0366967048
 21
115.0480737895
  0
LINE
  8
0
 62
9
  6
CONTINUOUS
 10
84.8229143984
 20
109.9922479617
 11
84.8200613881
 21
109.9279796622
  0
LINE
  8
0
 62
7
  6
CONTINUOUS
 10
85.0359558763
 20
115.0187284278
 11
85.0359648319
 21
115.0189270292
  0
LINE
  8
0
 62
7
  6
CONTINUOUS
 10
84.8207929215
 20
109.9571096682
 11
84.8306109752
 21
110.0442161042
  0
LINE
  8
0
 62
7
  6
CONTINUOUS
 10
85.0359575341
 20
115.018765522
 11
85.0261289008
 21
114.9317321657
  0
POLYLINE
  8
0
 62
9
  6
CONTINUOUS
 66
1
 70
0
  0
VERTEX
  8
0
 62
9
  6
CONTINUOUS
 10
84.2852281093
 20
109.9280254186
  0
VERTEX
  8
0
 62
9
  6
CONTINUOUS
 10
84.3543390753
 20
110.320645823
  0
VERTEX
  8
0
 62
9
  6
CONTINUOUS
 10
84.5541512103
 20
110.6670323818
  0
VERTEX
  8
0
 62
9
  6
CONTINUOUS
 10
84.696192189
 20
110.8090651975
  0
VERTEX
  8
0
 62
9
  6
CONTINUOUS
 10
85.0424847804
 20
111.0088358956
  0
VERTEX
  8
0
 62
9
  6
CONTINUOUS
 10
85.4354032865
 20
111.0780254186
  0
SEQEND
  0
POLYLINE
  8
0
 62
9
  6
CONTINUOUS
 66
1
 70
0
  0
VERTEX
  8
0
 62
9
  6
CONTINUOUS
 10
85.5715299438
 20
115.0480254186
  0
VERTEX
  8
0
 62
9
  6
CONTINUOUS
 10
85.5024189777
 20
114.6554050141
  0
VERTEX
  8
0
 62
9
  6
CONTINUOUS
 10
85.3026068427
 20
114.3090184553
  0
VERTEX
  8
0
 62
9
  6
CONTINUOUS
 10
85.160565864
 20
114.1669856396
  0
VERTEX
  8
0
 62
9
  6
CONTINUOUS
 10
84.8142732726
 20
113.9672149415
  0
VERTEX
  8
0
 62
9
  6
CONTINUOUS
 10
84.4213547665
 20
113.8980254186
  0
SEQEND
  0
POLYLINE
  8
0
 62
7
  6
CONTINUOUS
 66
1
 70
0
  0
VERTEX
  8
0
 62
7
  6
CONTINUOUS
 10
84.7851519562
 20
109.9280013247
  0
VERTEX
  8
0
 62
7
  6
CONTINUOUS
 10
84.8243058157
 20
110.1501706551
  0
VERTEX
  8
0
 62
7
  6
CONTINUOUS
 10
84.9371990392
 20
110.3457386699
  0
VERTEX
  8
0
 62
7
  6
CONTINUOUS
 10
85.0174187531
 20
110.4259450457
  0
VERTEX
  8
0
 62
7
  6
CONTINUOUS
 10
85.2130585974
 20
110.5388453962
  0
VERTEX
  8
0
 62
7
  6
CONTINUOUS
 10
85.4354004749
 20
110.5780254185
  0
SEQEND
  0
POLYLINE
  8
0
 62
7
  6
CONTINUOUS
 66
1
 70
0
  0
VERTEX
  8
0
 62
7
  6
CONTINUOUS
 10
84.8200620885
 20
109.9279796618
  0
VERTEX
  8
0
 62
7
  6
CONTINUOUS
 10
84.869186419
 20
110.1758673377
  0
VERTEX
  8
0
 62
7
  6
CONTINUOUS
 10
85.0091795436
 20
110.3863046974
  0
VERTEX
  8
0
 62
7
  6
CONTINUOUS
 10
85.2188862002
 20
110.5274695005
  0
VERTEX
  8
0
 62
7
  6
CONTINUOUS
 10
85.4359591519
 20
110.5755005186
  0
SEQEND
  0
POLYLINE
  8
0
 62
7
  6
CONTINUOUS
 66
1
 70
0
  0
VERTEX
  8
0
 62
7
  6
CONTINUOUS
 10
84.8306109752
 20
110.0442161042
  0
VERTEX
  8
0
 62
7
  6
CONTINUOUS
 10
84.9575179878
 20
110.3276229276
  0
VERTEX
  8
0
 62
7
  6
CONTINUOUS
 10
85.0679433813
 20
110.4385954027
  0
SEQEND
  0
LINE
  8
0
 62
9
  6
CONTINUOUS
 10
59.7133790265
 20
118.8380254186
 11
65.7351519568
 21
118.8380254186
  0
LINE
  8
0
 62
9
  6
CONTINUOUS
 10
72.3716060962
 20
118.8380254186
 11
78.4351519568
 21
118.8380254186
  0
LINE
  8
0
 62
9
  6
CONTINUOUS
 10
85.0716060962
 20
118.8380254186
 11
91.1351519568
 21
118.8380254186
  0
LINE
  8
1_AXIS
 62
2
  6
CENTER
 10
57.7133790265
 20
118.8380254186
 11
93.2033790265
 21
118.8380254186
  0
POLYLINE
  8
0
 62
7
  6
CONTINUOUS
 66
1
 70
0
  0
VERTEX
  8
0
 62
7
  6
CONTINUOUS
 10
91.7040343986
 20
114.4085041597
  0
VERTEX
  8
0
 62
7
  6
CONTINUOUS
 10
91.4206935962
 20
114.5353010366
  0
VERTEX
  8
0
 62
7
  6
CONTINUOUS
 10
91.3096869897
 20
114.6456607778
  0
SEQEND
  0
LINE
  8
0
 62
9
  6
CONTINUOUS
 10
85.0191068067
 20
114.9160588465
 11
85.0033790265
 21
114.9475239937
  0
LINE
  8
0
 62
7
  6
CONTINUOUS
 10
85.0033790265
 20
114.9475239937
 11
85.0206375201
 21
114.8743029802
  0
POLYLINE
  8
0
 62
7
  6
CONTINUOUS
 66
1
 70
0
  0
VERTEX
  8
0
 62
7
  6
CONTINUOUS
 10
84.8533790265
 20
102.238035181
  0
VERTEX
  8
0
 62
7
  6
CONTINUOUS
 10
84.786373203
 20
101.9880185255
  0
VERTEX
  8
0
 62
7
  6
CONTINUOUS
 10
84.6033275569
 20
101.805007869
  0
VERTEX
  8
0
 62
7
  6
CONTINUOUS
 10
84.3533028625
 20
101.7380257991
  0
SEQEND
  0
POLYLINE
  8
0
 62
9
  6
CONTINUOUS
 66
1
 70
0
  0
VERTEX
  8
0
 62
9
  6
CONTINUOUS
 10
85.0033790265
 20
122.7380156562
  0
VERTEX
  8
0
 62
9
  6
CONTINUOUS
 10
85.018422828
 20
122.643566766
  0
VERTEX
  8
0
 62
9
  6
CONTINUOUS
 10
85.034846351
 20
122.3008897357
  0
VERTEX
  8
0
 62
9
  6
CONTINUOUS
 10
85.0469118949
 20
121.8435919611
  0
SEQEND
  0
POLYLINE
  8
0
 62
9
  6
CONTINUOUS
 66
1
 70
0
  0
VERTEX
  8
0
 62
9
  6
CONTINUOUS
 10
85.5034551905
 20
123.2380254186
  0
VERTEX
  8
0
 62
9
  6
CONTINUOUS
 10
85.5185177365
 20
123.1289656023
  0
VERTEX
  8
0
 62
9
  6
CONTINUOUS
 10
85.5348981889
 20
122.740550131
  0
VERTEX
  8
0
 62
9
  6
CONTINUOUS
 10
85.5469075885
 20
122.2250756769
  0
VERTEX
  8
0
 62
9
  6
CONTINUOUS
 10
85.5553047118
 20
121.6891457482
  0
VERTEX
  8
0
 62
9
  6
CONTINUOUS
 10
85.5618902067
 20
121.0951792893
  0
VERTEX
  8
0
 62
9
  6
CONTINUOUS
 10
85.5668852321
 20
120.4354367328
  0
VERTEX
  8
0
 62
9
  6
CONTINUOUS
 10
85.5701862823
 20
119.7079185264
  0
VERTEX
  8
0
 62
9
  6
CONTINUOUS
 10
85.5715299773
 20
118.8379841316
  0
SEQEND
  0
LINE
  8
0
 62
9
  6
CONTINUOUS
 10
91.1872417445
 20
114.9152395934
 11
91.2033790265
 21
114.9475239937
  0
POLYLINE
  8
0
 62
7
  6
CONTINUOUS
 66
1
 70
0
  0
VERTEX
  8
0
 62
7
  6
CONTINUOUS
 10
91.3533790265
 20
102.238035181
  0
VERTEX
  8
0
 62
7
  6
CONTINUOUS
 10
91.4203848499
 20
101.9880185252
  0
VERTEX
  8
0
 62
7
  6
CONTINUOUS
 10
91.6034304963
 20
101.8050078684
  0
VERTEX
  8
0
 62
7
  6
CONTINUOUS
 10
91.8534551905
 20
101.7380257959
  0
SEQEND
  0
LINE
  8
0
 62
7
  6
CONTINUOUS
 10
91.2033790265
 20
114.9469145423
 11
91.1862125966
 21
114.8742812708
  0
LINE
  8
2_FEATURE
 62
7
  6
CONTINUOUS
 10
60.2133790265
 20
123.2380254186
 11
65.3033028625
 21
123.2380254186
  0
LINE
  8
2_FEATURE
 62
7
  6
CONTINUOUS
 10
72.8034551905
 20
123.2380254186
 11
78.0033028625
 21
123.2380254186
  0
LINE
  8
2_FEATURE
 62
7
  6
CONTINUOUS
 10
85.5034551905
 20
123.2380254186
 11
90.7033028625
 21
123.2380254186
  0
LINE
  8
0
 62
7
  6
CONTINUOUS
 10
91.2471634567
 20
110.3302722412
 11
91.3755462446
 21
110.0474750865
  0
POLYLINE
  8
0
 62
7
  6
CONTINUOUS
 66
1
 70
0
  0
VERTEX
  8
0
 62
7
  6
CONTINUOUS
 10
91.2033790265
 20
116.2380254186
  0
VERTEX
  8
0
 62
7
  6
CONTINUOUS
 10
91.1878557899
 20
116.3948512702
  0
VERTEX
  8
0
 62
7
  6
CONTINUOUS
 10
91.1742056901
 20
116.8463866818
  0
VERTEX
  8
0
 62
7
  6
CONTINUOUS
 10
91.1640751315
 20
117.538116508
  0
VERTEX
  8
0
 62
7
  6
CONTINUOUS
 10
91.1586852036
 20
118.3865812277
  0
VERTEX
  8
0
 62
7
  6
CONTINUOUS
 10
91.1586852051
 20
119.2894700815
  0
VERTEX
  8
0
 62
7
  6
CONTINUOUS
 10
91.1640751347
 20
120.1379346501
  0
VERTEX
  8
0
 62
7
  6
CONTINUOUS
 10
91.1742056928
 20
120.8296642865
  0
VERTEX
  8
0
 62
7
  6
CONTINUOUS
 10
91.1878557908
 20
121.2811995866
  0
VERTEX
  8
0
 62
7
  6
CONTINUOUS
 10
91.2033790265
 20
121.4380254186
  0
SEQEND
  0
LINE
  8
0
 62
7
  6
CONTINUOUS
 10
91.1707909219
 20
115.0189712496
 11
91.1708092906
 21
115.0185648051
  0
LINE
  8
0
 62
7
  6
CONTINUOUS
 10
91.3859655186
 20
109.9571093437
 11
91.3859567748
 21
109.9573033845
  0
LINE
  8
0
 62
9
  6
CONTINUOUS
 10
91.3866966715
 20
109.9279792507
 11
91.3838459867
 21
109.9921911008
  0
LINE
  8
0
 62
9
  6
CONTINUOUS
 10
91.1700613855
 20
115.0480713277
 11
91.1729117645
 21
114.9838675586
  0
LINE
  8
0
 62
9
  6
CONTINUOUS
 10
91.17006316
 20
115.0480254186
 11
91.1707909219
 21
115.0189712496
  0
LINE
  8
0
 62
9
  6
CONTINUOUS
 10
91.3866941928
 20
109.9280254184
 11
91.3859655186
 21
109.9571093437
  0
LINE
  8
0
 62
9
  6
CONTINUOUS
 10
90.6352281093
 20
115.0480254186
 11
90.6352281093
 21
118.8379942322
  0
LINE
  8
0
 62
9
  6
CONTINUOUS
 10
90.7713547665
 20
111.0780254186
 11
90.7713547665
 21
110.5780254186
  0
LINE
  8
0
 62
9
  6
CONTINUOUS
 10
91.1351519568
 20
115.0480494631
 11
91.1351519568
 21
118.8380254186
  0
LINE
  8
0
 62
7
  6
CONTINUOUS
 10
91.2033790265
 20
122.7380156562
 11
91.2033790265
 21
121.4380254186
  0
LINE
  8
0
 62
7
  6
CONTINUOUS
 10
91.2033790265
 20
116.2380254186
 11
91.2033790265
 21
114.9469145423
  0
LINE
  8
0
 62
7
  6
CONTINUOUS
 10
91.3533790265
 20
102.238035181
 11
91.3533790265
 21
103.5380254186
  0
LINE
  8
0
 62
7
  6
CONTINUOUS
 10
91.3533790265
 20
108.7380254186
 11
91.3533790265
 21
110.0291362948
  0
LINE
  8
0
 62
9
  6
CONTINUOUS
 10
91.4216060962
 20
109.928001374
 11
91.4216060962
 21
106.1380254186
  0
LINE
  8
0
 62
9
  6
CONTINUOUS
 10
91.7854032865
 20
113.8980254186
 11
91.7854032865
 21
114.3980254186
  0
POLYLINE
  8
0
 62
9
  6
CONTINUOUS
 66
1
 70
0
  0
VERTEX
  8
0
 62
9
  6
CONTINUOUS
 10
90.6352280862
 20
118.8379942322
  0
VERTEX
  8
0
 62
9
  6
CONTINUOUS
 10
90.6363774655
 20
119.6431457563
  0
VERTEX
  8
0
 62
9
  6
CONTINUOUS
 10
90.6394451592
 20
120.362593486
  0
VERTEX
  8
0
 62
9
  6
CONTINUOUS
 10
90.6442801783
 20
121.0303705065
  0
VERTEX
  8
0
 62
9
  6
CONTINUOUS
 10
90.6507524671
 20
121.6350245684
  0
VERTEX
  8
0
 62
9
  6
CONTINUOUS
 10
90.6598229842
 20
122.2236022347
  0
VERTEX
  8
0
 62
9
  6
CONTINUOUS
 10
90.6738182362
 20
122.8039013967
  0
VERTEX
  8
0
 62
9
  6
CONTINUOUS
 10
90.6899814428
 20
123.1529564398
  0
VERTEX
  8
0
 62
9
  6
CONTINUOUS
 10
90.7033028625
 20
123.2380254186
  0
SEQEND
  0
POLYLINE
  8
0
 62
9
  6
CONTINUOUS
 66
1
 70
0
  0
VERTEX
  8
0
 62
9
  6
CONTINUOUS
 10
91.1351519568
 20
118.8380254186
  0
VERTEX
  8
0
 62
9
  6
CONTINUOUS
 10
91.1363044458
 20
119.5526181173
  0
VERTEX
  8
0
 62
9
  6
CONTINUOUS
 10
91.1393810807
 20
120.1912182003
  0
VERTEX
  8
0
 62
9
  6
CONTINUOUS
 10
91.1442304163
 20
120.7838689424
  0
VERTEX
  8
0
 62
9
  6
CONTINUOUS
 10
91.1507229123
 20
121.3204221501
  0
SEQEND
  0
POLYLINE
  8
0
 62
9
  6
CONTINUOUS
 66
1
 70
0
  0
VERTEX
  8
0
 62
9
  6
CONTINUOUS
 10
91.4216060962
 20
106.1380254186
  0
VERTEX
  8
0
 62
9
  6
CONTINUOUS
 10
91.4204551174
 20
105.4238971752
  0
VERTEX
  8
0
 62
9
  6
CONTINUOUS
 10
91.4173806749
 20
104.7854061581
  0
VERTEX
  8
0
 62
9
  6
CONTINUOUS
 10
91.4125333614
 20
104.192751675
  0
VERTEX
  8
0
 62
9
  6
CONTINUOUS
 10
91.4060417643
 20
103.6560885602
  0
SEQEND
  0
POLYLINE
  8
0
 62
9
  6
CONTINUOUS
 66
1
 70
0
  0
VERTEX
  8
0
 62
9
  6
CONTINUOUS
 10
91.1507229123
 20
121.3204221501
  0
VERTEX
  8
0
 62
9
  6
CONTINUOUS
 10
91.1598349196
 20
121.8430596928
  0
VERTEX
  8
0
 62
9
  6
CONTINUOUS
 10
91.1738980574
 20
122.357513595
  0
VERTEX
  8
0
 62
9
  6
CONTINUOUS
 10
91.1900677603
 20
122.6644685808
  0
VERTEX
  8
0
 62
9
  6
CONTINUOUS
 10
91.2033790265
 20
122.7380156562
  0
SEQEND
  0
POLYLINE
  8
0
 62
9
  6
CONTINUOUS
 66
1
 70
0
  0
VERTEX
  8
0
 62
9
  6
CONTINUOUS
 10
91.4060417643
 20
103.6560885602
  0
VERTEX
  8
0
 62
9
  6
CONTINUOUS
 10
91.3969218049
 20
103.1329281724
  0
VERTEX
  8
0
 62
9
  6
CONTINUOUS
 10
91.3828454473
 20
102.6181394261
  0
VERTEX
  8
0
 62
9
  6
CONTINUOUS
 10
91.3666814478
 20
102.3114824461
  0
VERTEX
  8
0
 62
9
  6
CONTINUOUS
 10
91.3533790265
 20
102.238035181
  0
SEQEND
  0
LINE
  8
0
 62
7
  6
CONTINUOUS
 10
91.3533790265
 20
110.0291362948
 11
91.3705456823
 21
110.1017705222
  0
LINE
  8
0
 62
9
  6
CONTINUOUS
 10
91.3695035514
 20
110.0607857217
 11
91.3533790265
 21
110.0285268434
  0
LINE
  8
0
 62
7
  6
CONTINUOUS
 10
91.3096869897
 20
114.6456607778
 11
91.1812301077
 21
114.9284749782
  0
LINE
  8
0
 62
7
  6
CONTINUOUS
 10
91.2192929712
 20
114.7999254225
 11
91.1700620859
 21
115.0480713282
  0
LINE
  8
0
 62
7
  6
CONTINUOUS
 10
91.3376703672
 20
110.175627915
 11
91.3866959671
 21
109.9279792502
  0
LINE
  8
0
 62
7
  6
CONTINUOUS
 10
91.1812301077
 20
114.9284749782
 11
91.1708081656
 21
115.0185897472
  0
LINE
  8
0
 62
7
  6
CONTINUOUS
 10
91.3755462446
 20
110.0474750865
 11
91.385958535
 21
109.9572639386
  0
LINE
  8
0
 62
9
  6
CONTINUOUS
 10
91.9215299438
 20
109.9280254186
 11
91.9215299438
 21
106.138057738
  0
POLYLINE
  8
0
 62
9
  6
CONTINUOUS
 66
1
 70
0
  0
VERTEX
  8
0
 62
9
  6
CONTINUOUS
 10
91.9215299676
 20
106.138057738
  0
VERTEX
  8
0
 62
9
  6
CONTINUOUS
 10
91.9203820758
 20
105.3334222096
  0
VERTEX
  8
0
 62
9
  6
CONTINUOUS
 10
91.917316569
 20
104.6141006018
  0
VERTEX
  8
0
 62
9
  6
CONTINUOUS
 10
91.9124835749
 20
103.9463215468
  0
VERTEX
  8
0
 62
9
  6
CONTINUOUS
 10
91.9060122259
 20
103.3415475082
  0
VERTEX
  8
0
 62
9
  6
CONTINUOUS
 10
91.8969338785
 20
102.7523847217
  0
VERTEX
  8
0
 62
9
  6
CONTINUOUS
 10
91.8829254094
 20
102.171702081
  0
VERTEX
  8
0
 62
9
  6
CONTINUOUS
 10
91.8667676692
 20
101.8229791178
  0
VERTEX
  8
0
 62
9
  6
CONTINUOUS
 10
91.8534551905
 20
101.7380254186
  0
SEQEND
  0
POLYLINE
  8
0
 62
7
  6
CONTINUOUS
 66
1
 70
0
  0
VERTEX
  8
0
 62
7
  6
CONTINUOUS
 10
91.3533790265
 20
103.5380254186
  0
VERTEX
  8
0
 62
7
  6
CONTINUOUS
 10
91.3689022632
 20
103.6948512702
  0
VERTEX
  8
0
 62
7
  6
CONTINUOUS
 10
91.382552363
 20
104.1463866818
  0
VERTEX
  8
0
 62
7
  6
CONTINUOUS
 10
91.3926829215
 20
104.838116508
  0
VERTEX
  8
0
 62
7
  6
CONTINUOUS
 10
91.3980728494
 20
105.6865812277
  0
VERTEX
  8
0
 62
7
  6
CONTINUOUS
 10
91.398072848
 20
106.5894700815
  0
VERTEX
  8
0
 62
7
  6
CONTINUOUS
 10
91.3926829183
 20
107.4379346501
  0
VERTEX
  8
0
 62
7
  6
CONTINUOUS
 10
91.3825523602
 20
108.1296642865
  0
VERTEX
  8
0
 62
7
  6
CONTINUOUS
 10
91.3689022622
 20
108.5811995866
  0
VERTEX
  8
0
 62
7
  6
CONTINUOUS
 10
91.3533790265
 20
108.7380254186
  0
SEQEND
  0
POLYLINE
  8
0
 62
7
  6
CONTINUOUS
 66
1
 70
0
  0
VERTEX
  8
0
 62
7
  6
CONTINUOUS
 10
91.2033790265
 20
122.7380156562
  0
VERTEX
  8
0
 62
7
  6
CONTINUOUS
 10
91.136373203
 20
122.9880323117
  0
VERTEX
  8
0
 62
7
  6
CONTINUOUS
 10
90.9533275569
 20
123.1710429681
  0
VERTEX
  8
0
 62
7
  6
CONTINUOUS
 10
90.7033028625
 20
123.238025038
  0
SEQEND
  0
LINE
  8
0
 62
9
  6
CONTINUOUS
 10
97.0533790265
 20
114.3980254186
 11
97.0533790265
 21
101.7380254186
  0
LINE
  8
0
 62
7
  6
CONTINUOUS
 10
97.5533790265
 20
113.8980254186
 11
97.5533790265
 21
102.2380254186
  0
LINE
  8
0
 62
7
  6
CONTINUOUS
 10
59.7133790265
 20
185.025296668
 11
59.7133790265
 21
192.825296668
  0
LINE
  8
0
 62
9
  6
CONTINUOUS
 10
60.2133790265
 20
184.525296668
 11
60.2133790265
 21
193.325296668
  0
POLYLINE
  8
0
 62
9
  6
CONTINUOUS
 66
1
 70
0
  0
VERTEX
  8
0
 62
9
  6
CONTINUOUS
 10
59.7133790265
 20
185.2262585623
  0
VERTEX
  8
0
 62
9
  6
CONTINUOUS
 10
59.7803663246
 20
185.0097522114
  0
VERTEX
  8
0
 62
9
  6
CONTINUOUS
 10
59.9633790265
 20
184.8512585623
  0
VERTEX
  8
0
 62
9
  6
CONTINUOUS
 10
60.2133790265
 20
184.7932458605
  0
SEQEND
  0
POLYLINE
  8
0
 62
9
  6
CONTINUOUS
 66
1
 70
0
  0
VERTEX
  8
0
 62
9
  6
CONTINUOUS
 10
59.7133790265
 20
186.4243347737
  0
VERTEX
  8
0
 62
9
  6
CONTINUOUS
 10
59.7803663147
 20
186.2078284377
  0
VERTEX
  8
0
 62
9
  6
CONTINUOUS
 10
59.9633790502
 20
186.0493347618
  0
VERTEX
  8
0
 62
9
  6
CONTINUOUS
 10
60.2133790265
 20
185.9913220717
  0
SEQEND
  0
LINE
  8
0
 62
9
  6
CONTINUOUS
 10
62.0833790265
 20
190.8253522067
 11
62.0833790265
 21
186.125296668
  0
LINE
  8
0
 62
7
  6
CONTINUOUS
 10
62.5833790265
 20
189.825296668
 11
62.5833790265
 21
186.625296668
  0
LINE
  8
0
 62
9
  6
CONTINUOUS
 10
63.0833790265
 20
190.325296668
 11
63.0833790265
 21
185.6371408662
  0
POLYLINE
  8
0
 62
9
  6
CONTINUOUS
 66
1
 70
0
  0
VERTEX
  8
0
 62
9
  6
CONTINUOUS
 10
62.7830385087
 20
186.1805248148
  0
VERTEX
  8
0
 62
9
  6
CONTINUOUS
 10
62.8628699703
 20
185.9889106519
  0
VERTEX
  8
0
 62
9
  6
CONTINUOUS
 10
62.9040881909
 20
185.9088959265
  0
VERTEX
  8
0
 62
9
  6
CONTINUOUS
 10
62.9926068683
 20
185.7848670088
  0
SEQEND
  0
LINE
  8
0
 62
9
  6
CONTINUOUS
 10
62.5833790265
 20
186.6252955957
 11
62.6043100714
 21
186.5539323294
  0
POLYLINE
  8
0
 62
9
  6
CONTINUOUS
 66
1
 70
0
  0
VERTEX
  8
0
 62
9
  6
CONTINUOUS
 10
62.9926094716
 20
185.7848673504
  0
VERTEX
  8
0
 62
9
  6
CONTINUOUS
 10
63.0235617066
 20
185.7304856745
  0
VERTEX
  8
0
 62
9
  6
CONTINUOUS
 10
63.0536895672
 20
185.6813568237
  0
VERTEX
  8
0
 62
9
  6
CONTINUOUS
 10
63.0833790265
 20
185.6371408662
  0
SEQEND
  0
POLYLINE
  8
0
 62
9
  6
CONTINUOUS
 66
1
 70
0
  0
VERTEX
  8
0
 62
9
  6
CONTINUOUS
 10
62.6043100714
 20
186.5539323294
  0
VERTEX
  8
0
 62
9
  6
CONTINUOUS
 10
62.6588085531
 20
186.4540909701
  0
VERTEX
  8
0
 62
9
  6
CONTINUOUS
 10
62.6970253065
 20
186.3787438507
  0
VERTEX
  8
0
 62
9
  6
CONTINUOUS
 10
62.7830385087
 20
186.1805248148
  0
SEQEND
  0
LINE
  8
0
 62
9
  6
CONTINUOUS
 10
65.3033028625
 20
188.9078469197
 11
65.2869758607
 21
189.8427464164
  0
LINE
  8
0
 62
7
  6
CONTINUOUS
 10
65.7789419356
 20
190.325296668
 11
65.8033790265
 21
188.925296668
  0
LINE
  8
0
 62
9
  6
CONTINUOUS
 10
65.2869841311
 20
190.325296668
 11
65.2869841311
 21
189.8427464164
  0
LINE
  8
0
 62
9
  6
CONTINUOUS
 10
65.3364446366
 20
190.825296668
 11
65.3364446358
 21
190.325296668
  0
LINE
  8
0
 62
9
  6
CONTINUOUS
 10
65.3713547665
 20
192.825296668
 11
65.3713547665
 21
193.325296668
  0
LINE
  8
0
 62
9
  6
CONTINUOUS
 10
65.2534661543
 20
185.6371408662
 11
65.2548070285
 21
185.790778274
  0
LINE
  8
0
 62
9
  6
CONTINUOUS
 10
65.235228069
 20
184.5252966686
 11
65.2387361788
 21
184.7932689019
  0
LINE
  8
0
 62
9
  6
CONTINUOUS
 10
65.3364028017
 20
190.825296668
 11
65.3713131345
 21
192.825296668
  0
LINE
  8
0
 62
9
  6
CONTINUOUS
 10
65.2548070539
 20
185.790778274
 11
65.3033028625
 21
188.9078469197
  0
LINE
  8
0
 62
9
  6
CONTINUOUS
 10
65.2387363144
 20
184.7932689015
 11
65.2534661543
 21
185.6371408662
  0
LINE
  8
0
 62
7
  6
CONTINUOUS
 10
65.7351519568
 20
185.0165704648
 11
65.8033790265
 21
188.925296668
  0
LINE
  8
0
 62
9
  6
CONTINUOUS
 10
65.7768138554
 20
190.325296668
 11
65.7744571484
 21
190.2367749721
  0
POLYLINE
  8
0
 62
9
  6
CONTINUOUS
 66
1
 70
0
  0
VERTEX
  8
0
 62
9
  6
CONTINUOUS
 10
65.7744571484
 20
190.2367749721
  0
VERTEX
  8
0
 62
9
  6
CONTINUOUS
 10
65.7651363921
 20
190.118117454
  0
VERTEX
  8
0
 62
9
  6
CONTINUOUS
 10
65.7372961933
 20
189.9840333516
  0
VERTEX
  8
0
 62
9
  6
CONTINUOUS
 10
65.6669222878
 20
189.8706987704
  0
VERTEX
  8
0
 62
9
  6
CONTINUOUS
 10
65.5528265027
 20
189.835450285
  0
SEQEND
  0
POLYLINE
  8
0
 62
7
  6
CONTINUOUS
 66
1
 70
0
  0
VERTEX
  8
0
 62
7
  6
CONTINUOUS
 10
65.7637618546
 20
190.2477221837
  0
VERTEX
  8
0
 62
7
  6
CONTINUOUS
 10
65.7632741438
 20
190.2436854279
  0
VERTEX
  8
0
 62
7
  6
CONTINUOUS
 10
65.7766688976
 20
190.2660177814
  0
SEQEND
  0
POLYLINE
  8
0
 62
9
  6
CONTINUOUS
 66
1
 70
0
  0
VERTEX
  8
0
 62
9
  6
CONTINUOUS
 10
62.6043122676
 20
186.5539320023
  0
VERTEX
  8
0
 62
9
  6
CONTINUOUS
 10
62.4909664751
 20
186.2977682058
  0
VERTEX
  8
0
 62
9
  6
CONTINUOUS
 10
62.3868593809
 20
186.2046204179
  0
VERTEX
  8
0
 62
9
  6
CONTINUOUS
 10
62.1252411163
 20
186.1252927729
  0
SEQEND
  0
POLYLINE
  8
0
 62
9
  6
CONTINUOUS
 66
1
 70
0
  0
VERTEX
  8
0
 62
9
  6
CONTINUOUS
 10
62.482707099
 20
185.991313619
  0
VERTEX
  8
0
 62
9
  6
CONTINUOUS
 10
62.6421477872
 20
185.8520895025
  0
VERTEX
  8
0
 62
9
  6
CONTINUOUS
 10
62.7243911258
 20
185.7937016071
  0
VERTEX
  8
0
 62
9
  6
CONTINUOUS
 10
62.9018510907
 20
185.7021221016
  0
SEQEND
  0
LINE
  8
0
 62
9
  6
CONTINUOUS
 10
62.5833790265
 20
189.825296668
 11
62.0833790265
 21
190.825296668
  0
LINE
  8
0
 62
7
  6
CONTINUOUS
 10
65.9533790265
 20
188.925296668
 11
66.0216060962
 21
185.0165704648
  0
LINE
  8
0
 62
9
  6
CONTINUOUS
 10
66.4534551905
 20
188.925296668
 11
66.5215299701
 21
184.525296668
  0
LINE
  8
0
 62
9
  6
CONTINUOUS
 10
66.4534551905
 20
188.925296668
 11
66.5215299707
 21
193.325296668
  0
LINE
  8
0
 62
7
  6
CONTINUOUS
 10
65.9533790265
 20
188.925296668
 11
66.0216060962
 21
192.8340228712
  0
POLYLINE
  8
0
 62
9
  6
CONTINUOUS
 66
1
 70
0
  0
VERTEX
  8
0
 62
9
  6
CONTINUOUS
 10
65.986694193
 20
190.8340229022
  0
VERTEX
  8
0
 62
9
  6
CONTINUOUS
 10
65.9371238281
 20
190.7521799791
  0
VERTEX
  8
0
 62
9
  6
CONTINUOUS
 10
65.756483598
 20
190.6215153338
  0
SEQEND
  0
POLYLINE
  8
0
 62
9
  6
CONTINUOUS
 66
1
 70
0
  0
VERTEX
  8
0
 62
9
  6
CONTINUOUS
 10
62.9926150557
 20
185.7848570778
  0
VERTEX
  8
0
 62
9
  6
CONTINUOUS
 10
62.9629104046
 20
185.7530536083
  0
VERTEX
  8
0
 62
9
  6
CONTINUOUS
 10
62.9325464725
 20
185.7253756694
  0
VERTEX
  8
0
 62
9
  6
CONTINUOUS
 10
62.9018510907
 20
185.7021221016
  0
SEQEND
  0
POLYLINE
  8
0
 62
9
  6
CONTINUOUS
 66
1
 70
0
  0
VERTEX
  8
0
 62
9
  6
CONTINUOUS
 10
65.756483598
 20
190.6215153338
  0
VERTEX
  8
0
 62
9
  6
CONTINUOUS
 10
65.711481373
 20
190.5826220901
  0
VERTEX
  8
0
 62
9
  6
CONTINUOUS
 10
65.6712294949
 20
190.5340097812
  0
VERTEX
  8
0
 62
9
  6
CONTINUOUS
 10
65.6486263445
 20
190.4736843761
  0
VERTEX
  8
0
 62
9
  6
CONTINUOUS
 10
65.6693803148
 20
190.4049879894
  0
VERTEX
  8
0
 62
9
  6
CONTINUOUS
 10
65.7703180415
 20
190.3456495169
  0
VERTEX
  8
0
 62
9
  6
CONTINUOUS
 10
65.8992796861
 20
190.3300171715
  0
SEQEND
  0
LINE
  8
0
 62
7
  6
CONTINUOUS
 10
65.7766688976
 20
190.2660177814
 11
65.8436016643
 21
190.3226158637
  0
LINE
  8
0
 62
9
  6
CONTINUOUS
 10
70.7311784882
 20
192.2943466587
 11
70.7152280934
 21
193.325296668
  0
LINE
  8
0
 62
9
  6
CONTINUOUS
 10
70.7152280939
 20
184.525296668
 11
70.7311784882
 21
185.5562466774
  0
POLYLINE
  8
0
 62
9
  6
CONTINUOUS
 66
1
 70
0
  0
VERTEX
  8
0
 62
9
  6
CONTINUOUS
 10
62.783037732
 20
186.1805254453
  0
VERTEX
  8
0
 62
9
  6
CONTINUOUS
 10
62.6936044865
 20
186.0963551608
  0
VERTEX
  8
0
 62
9
  6
CONTINUOUS
 10
62.5914345582
 20
186.0319913348
  0
VERTEX
  8
0
 62
9
  6
CONTINUOUS
 10
62.4826979908
 20
185.9913208299
  0
SEQEND
  0
POLYLINE
  8
0
 62
9
  6
CONTINUOUS
 66
1
 70
0
  0
VERTEX
  8
0
 62
9
  6
CONTINUOUS
 10
62.9018510907
 20
185.7021221016
  0
VERTEX
  8
0
 62
9
  6
CONTINUOUS
 10
62.9638001987
 20
185.6796460726
  0
VERTEX
  8
0
 62
9
  6
CONTINUOUS
 10
63.0833790265
 20
185.6371408662
  0
SEQEND
  0
LINE
  8
0
 62
7
  6
CONTINUOUS
 10
71.2151519568
 20
192.8340228712
 11
71.2311026284
 21
191.9202095101
  0
LINE
  8
0
 62
9
  6
CONTINUOUS
 10
71.6502741228
 20
192.8264320504
 11
71.6792079908
 21
191.1690633427
  0
LINE
  8
0
 62
7
  6
CONTINUOUS
 10
72.1533790265
 20
188.925296668
 11
72.0851519568
 21
192.8340228712
  0
LINE
  8
0
 62
7
  6
CONTINUOUS
 10
72.3033790265
 20
188.925296668
 11
72.3716060962
 21
185.0165704648
  0
LINE
  8
0
 62
9
  6
CONTINUOUS
 10
71.6533028625
 20
188.925296668
 11
71.6232720333
 21
190.8663341642
  0
LINE
  8
0
 62
9
  6
CONTINUOUS
 10
71.6232720333
 20
186.9842591719
 11
71.6533028625
 21
188.925296668
  0
LINE
  8
0
 62
7
  6
CONTINUOUS
 10
71.2311030374
 20
185.9304072555
 11
71.2151519568
 21
185.0165704648
  0
LINE
  8
0
 62
7
  6
CONTINUOUS
 10
72.1231958809
 20
187.1961054114
 11
72.1533790265
 21
188.925296668
  0
LINE
  8
0
 62
7
  6
CONTINUOUS
 10
72.3268408626
 20
190.2694243554
 11
72.3033790265
 21
188.925296668
  0
POLYLINE
  8
0
 62
7
  6
CONTINUOUS
 66
1
 70
0
  0
VERTEX
  8
0
 62
7
  6
CONTINUOUS
 10
71.2311030274
 20
185.9304072557
  0
VERTEX
  8
0
 62
7
  6
CONTINUOUS
 10
71.2331953393
 20
185.9588296817
  0
VERTEX
  8
0
 62
7
  6
CONTINUOUS
 10
71.2430412055
 20
186.0124532006
  0
VERTEX
  8
0
 62
7
  6
CONTINUOUS
 10
71.2610861646
 20
186.0753161879
  0
VERTEX
  8
0
 62
7
  6
CONTINUOUS
 10
71.2858780828
 20
186.1418351238
  0
VERTEX
  8
0
 62
7
  6
CONTINUOUS
 10
71.3157214972
 20
186.2086987939
  0
VERTEX
  8
0
 62
7
  6
CONTINUOUS
 10
71.3489594403
 20
186.2735935982
  0
VERTEX
  8
0
 62
7
  6
CONTINUOUS
 10
71.3838309749
 20
186.3344550331
  0
VERTEX
  8
0
 62
7
  6
CONTINUOUS
 10
71.4175078654
 20
186.3879591919
  0
VERTEX
  8
0
 62
7
  6
CONTINUOUS
 10
71.4488894892
 20
186.4339855525
  0
VERTEX
  8
0
 62
7
  6
CONTINUOUS
 10
71.4807350384
 20
186.4773859028
  0
VERTEX
  8
0
 62
7
  6
CONTINUOUS
 10
71.5130789277
 20
186.5183445931
  0
VERTEX
  8
0
 62
7
  6
CONTINUOUS
 10
71.5458203198
 20
186.5567783922
  0
VERTEX
  8
0
 62
7
  6
CONTINUOUS
 10
71.577988146
 20
186.5916307843
  0
VERTEX
  8
0
 62
7
  6
CONTINUOUS
 10
71.6064062914
 20
186.6200190295
  0
VERTEX
  8
0
 62
7
  6
CONTINUOUS
 10
71.6319207139
 20
186.6435068328
  0
VERTEX
  8
0
 62
7
  6
CONTINUOUS
 10
71.6562368356
 20
186.6640430454
  0
VERTEX
  8
0
 62
7
  6
CONTINUOUS
 10
71.6793763728
 20
186.6817731175
  0
VERTEX
  8
0
 62
7
  6
CONTINUOUS
 10
71.7014953681
 20
186.6968371794
  0
VERTEX
  8
0
 62
7
  6
CONTINUOUS
 10
71.7218642895
 20
186.7088301987
  0
VERTEX
  8
0
 62
7
  6
CONTINUOUS
 10
71.7395683618
 20
186.7173211999
  0
VERTEX
  8
0
 62
7
  6
CONTINUOUS
 10
71.7517124894
 20
186.7216040725
  0
SEQEND
  0
POLYLINE
  8
0
 62
9
  6
CONTINUOUS
 66
1
 70
0
  0
VERTEX
  8
0
 62
9
  6
CONTINUOUS
 10
70.7311784882
 20
185.5562466774
  0
VERTEX
  8
0
 62
9
  6
CONTINUOUS
 10
70.7612199897
 20
185.7906217136
  0
VERTEX
  8
0
 62
9
  6
CONTINUOUS
 10
70.8304092393
 20
186.0183264506
  0
VERTEX
  8
0
 62
9
  6
CONTINUOUS
 10
70.9341265638
 20
186.2523615242
  0
VERTEX
  8
0
 62
9
  6
CONTINUOUS
 10
71.0657892521
 20
186.4795092634
  0
VERTEX
  8
0
 62
9
  6
CONTINUOUS
 10
71.242622292
 20
186.7121324963
  0
VERTEX
  8
0
 62
9
  6
CONTINUOUS
 10
71.4343391145
 20
186.8879764522
  0
VERTEX
  8
0
 62
9
  6
CONTINUOUS
 10
71.6232720333
 20
186.9842591719
  0
SEQEND
  0
LINE
  8
0
 62
7
  6
CONTINUOUS
 10
71.2285698587
 20
185.9628677306
 11
71.2285908965
 21
185.9629635624
  0
POLYLINE
  8
0
 62
7
  6
CONTINUOUS
 66
1
 70
0
  0
VERTEX
  8
0
 62
7
  6
CONTINUOUS
 10
71.6232720333
 20
190.8663341642
  0
VERTEX
  8
0
 62
7
  6
CONTINUOUS
 10
71.6953900967
 20
191.0543918808
  0
VERTEX
  8
0
 62
7
  6
CONTINUOUS
 10
71.7474964398
 20
191.1290399831
  0
VERTEX
  8
0
 62
7
  6
CONTINUOUS
 10
71.7517528319
 20
191.1289725209
  0
SEQEND
  0
POLYLINE
  8
0
 62
9
  6
CONTINUOUS
 66
1
 70
0
  0
VERTEX
  8
0
 62
9
  6
CONTINUOUS
 10
65.8184076648
 20
190.3252941642
  0
VERTEX
  8
0
 62
9
  6
CONTINUOUS
 10
65.6871495558
 20
190.2599882594
  0
VERTEX
  8
0
 62
9
  6
CONTINUOUS
 10
65.590178672
 20
190.0811337201
  0
VERTEX
  8
0
 62
9
  6
CONTINUOUS
 10
65.552825829
 20
189.8354503108
  0
SEQEND
  0
POLYLINE
  8
0
 62
9
  6
CONTINUOUS
 66
1
 70
0
  0
VERTEX
  8
0
 62
9
  6
CONTINUOUS
 10
90.6387359122
 20
184.7932458605
  0
VERTEX
  8
0
 62
9
  6
CONTINUOUS
 10
90.8865416771
 20
184.8490911431
  0
VERTEX
  8
0
 62
9
  6
CONTINUOUS
 10
91.0691911462
 20
185.0041061602
  0
VERTEX
  8
0
 62
9
  6
CONTINUOUS
 10
91.1386597598
 20
185.2175323591
  0
SEQEND
  0
LINE
  8
0
 62
7
  6
CONTINUOUS
 10
65.9206875385
 20
190.3187630227
 11
65.97683229
 21
190.2689332338
  0
POLYLINE
  8
0
 62
7
  6
CONTINUOUS
 66
1
 70
0
  0
VERTEX
  8
0
 62
7
  6
CONTINUOUS
 10
71.6232720333
 20
186.9842591719
  0
VERTEX
  8
0
 62
7
  6
CONTINUOUS
 10
71.6954147328
 20
186.7962081024
  0
VERTEX
  8
0
 62
7
  6
CONTINUOUS
 10
71.7475353908
 20
186.7215637258
  0
VERTEX
  8
0
 62
7
  6
CONTINUOUS
 10
71.7517934776
 20
186.7216316242
  0
SEQEND
  0
LINE
  8
0
 62
9
  6
CONTINUOUS
 10
72.3324290047
 20
190.2339620108
 11
72.3299230644
 21
190.325296668
  0
LINE
  8
0
 62
9
  6
CONTINUOUS
 10
72.8532918987
 20
185.6371408662
 11
72.8680217387
 21
184.7932689015
  0
LINE
  8
0
 62
9
  6
CONTINUOUS
 10
72.7354004755
 20
192.825296668
 11
72.7703573648
 21
190.825296668
  0
LINE
  8
0
 62
9
  6
CONTINUOUS
 10
72.8034551905
 20
188.9078469197
 11
72.8519509993
 21
185.7907782624
  0
LINE
  8
0
 62
9
  6
CONTINUOUS
 10
72.8680218742
 20
184.793268902
 11
72.8715299837
 21
184.525296668
  0
LINE
  8
0
 62
9
  6
CONTINUOUS
 10
72.8519510246
 20
185.7907782624
 11
72.8532918987
 21
185.6371408662
  0
LINE
  8
0
 62
9
  6
CONTINUOUS
 10
72.7354032865
 20
193.325296668
 11
72.7354032865
 21
192.825296668
  0
LINE
  8
0
 62
9
  6
CONTINUOUS
 10
72.7703134164
 20
190.825296668
 11
72.7703134164
 21
190.325296668
  0
LINE
  8
0
 62
9
  6
CONTINUOUS
 10
72.819773922
 20
190.325296668
 11
72.819773922
 21
189.8427464164
  0
LINE
  8
0
 62
9
  6
CONTINUOUS
 10
72.8197822214
 20
189.8427464164
 11
72.8034551905
 21
188.9078469197
  0
POLYLINE
  8
0
 62
7
  6
CONTINUOUS
 66
1
 70
0
  0
VERTEX
  8
0
 62
7
  6
CONTINUOUS
 10
72.1231958808
 20
187.1961054111
  0
VERTEX
  8
0
 62
7
  6
CONTINUOUS
 10
72.0537816761
 20
186.9505454619
  0
VERTEX
  8
0
 62
7
  6
CONTINUOUS
 10
71.8847520934
 20
186.7786530392
  0
VERTEX
  8
0
 62
7
  6
CONTINUOUS
 10
71.7517934776
 20
186.7216316242
  0
SEQEND
  0
LINE
  8
0
 62
7
  6
CONTINUOUS
 10
72.12992007
 20
190.2692593863
 11
72.1948168333
 21
190.3231863011
  0
POLYLINE
  8
0
 62
9
  6
CONTINUOUS
 66
1
 70
0
  0
VERTEX
  8
0
 62
9
  6
CONTINUOUS
 10
90.6534661543
 20
185.6371408662
  0
VERTEX
  8
0
 62
9
  6
CONTINUOUS
 10
90.9012720574
 20
185.6929862171
  0
VERTEX
  8
0
 62
9
  6
CONTINUOUS
 10
91.0839214772
 20
185.8480012963
  0
VERTEX
  8
0
 62
9
  6
CONTINUOUS
 10
91.1533900019
 20
186.0614273649
  0
SEQEND
  0
POLYLINE
  8
0
 62
9
  6
CONTINUOUS
 66
1
 70
0
  0
VERTEX
  8
0
 62
9
  6
CONTINUOUS
 10
90.654807001
 20
185.7907751423
  0
VERTEX
  8
0
 62
9
  6
CONTINUOUS
 10
90.9029915898
 20
185.8356272788
  0
VERTEX
  8
0
 62
9
  6
CONTINUOUS
 10
91.0857002417
 20
185.9626179066
  0
VERTEX
  8
0
 62
9
  6
CONTINUOUS
 10
91.1547308486
 20
186.13824442
  0
SEQEND
  0
POLYLINE
  8
0
 62
9
  6
CONTINUOUS
 66
1
 70
0
  0
VERTEX
  8
0
 62
9
  6
CONTINUOUS
 10
62.1252578095
 20
186.1252966674
  0
VERTEX
  8
0
 62
9
  6
CONTINUOUS
 10
62.2342201203
 20
186.1050113242
  0
VERTEX
  8
0
 62
9
  6
CONTINUOUS
 10
62.3107668184
 20
186.0784732933
  0
VERTEX
  8
0
 62
9
  6
CONTINUOUS
 10
62.4827114154
 20
185.9913136188
  0
SEQEND
  0
POLYLINE
  8
0
 62
9
  6
CONTINUOUS
 66
1
 70
0
  0
VERTEX
  8
0
 62
9
  6
CONTINUOUS
 10
72.8680221408
 20
184.7932458605
  0
VERTEX
  8
0
 62
9
  6
CONTINUOUS
 10
72.6202161449
 20
184.8490912561
  0
VERTEX
  8
0
 62
9
  6
CONTINUOUS
 10
72.4375667496
 20
185.0041063897
  0
VERTEX
  8
0
 62
9
  6
CONTINUOUS
 10
72.3680982933
 20
185.2175323591
  0
SEQEND
  0
LINE
  8
0
 62
9
  6
CONTINUOUS
 10
63.0833731052
 20
190.3252966698
 11
62.0832682232
 21
190.8253522086
  0
POLYLINE
  8
0
 62
7
  6
CONTINUOUS
 66
1
 70
0
  0
VERTEX
  8
0
 62
7
  6
CONTINUOUS
 10
72.1231958808
 20
190.654487925
  0
VERTEX
  8
0
 62
7
  6
CONTINUOUS
 10
72.0537816761
 20
190.9000478742
  0
VERTEX
  8
0
 62
7
  6
CONTINUOUS
 10
71.8847520934
 20
191.0719402969
  0
VERTEX
  8
0
 62
7
  6
CONTINUOUS
 10
71.7517528319
 20
191.1289725209
  0
SEQEND
  0
POLYLINE
  8
0
 62
9
  6
CONTINUOUS
 66
1
 70
0
  0
VERTEX
  8
0
 62
9
  6
CONTINUOUS
 10
72.3065924188
 20
190.6531398941
  0
VERTEX
  8
0
 62
9
  6
CONTINUOUS
 10
72.2086582027
 20
190.6014655722
  0
VERTEX
  8
0
 62
9
  6
CONTINUOUS
 10
72.1468051206
 20
190.5393819909
  0
VERTEX
  8
0
 62
9
  6
CONTINUOUS
 10
72.1263767894
 20
190.4722537981
  0
SEQEND
  0
POLYLINE
  8
0
 62
9
  6
CONTINUOUS
 66
1
 70
0
  0
VERTEX
  8
0
 62
9
  6
CONTINUOUS
 10
77.9387359122
 20
184.7932458605
  0
VERTEX
  8
0
 62
9
  6
CONTINUOUS
 10
78.1865416771
 20
184.8490911431
  0
VERTEX
  8
0
 62
9
  6
CONTINUOUS
 10
78.3691911462
 20
185.0041061602
  0
VERTEX
  8
0
 62
9
  6
CONTINUOUS
 10
78.4386597598
 20
185.2175323591
  0
SEQEND
  0
LINE
  8
2_FEATURE
 62
7
  6
CONTINUOUS
 10
90.6352281093
 20
184.525296668
 11
85.5715299438
 21
184.525296668
  0
LINE
  8
0
 62
7
  6
CONTINUOUS
 10
90.6352281093
 20
184.525296668
 11
85.5715299438
 21
184.525296668
  0
LINE
  8
2_FEATURE
 62
7
  6
CONTINUOUS
 10
77.9352281093
 20
184.525296668
 11
72.8715299438
 21
184.525296668
  0
LINE
  8
0
 62
7
  6
CONTINUOUS
 10
77.9352281093
 20
184.525296668
 11
72.8715299438
 21
184.525296668
  0
LINE
  8
0
 62
7
  6
CONTINUOUS
 10
65.2352281093
 20
184.525296668
 11
60.2133790265
 21
184.525296668
  0
LINE
  8
0
 62
7
  6
CONTINUOUS
 10
66.5215299438
 20
184.525296668
 11
70.7152281093
 21
184.525296668
  0
LINE
  8
2_FEATURE
 62
7
  6
CONTINUOUS
 10
66.5215299438
 20
184.525296668
 11
70.7152281093
 21
184.525296668
  0
LINE
  8
0
 62
7
  6
CONTINUOUS
 10
79.2215299438
 20
184.525296668
 11
84.2852281093
 21
184.525296668
  0
LINE
  8
2_FEATURE
 62
7
  6
CONTINUOUS
 10
79.2215299438
 20
184.525296668
 11
84.2852281093
 21
184.525296668
  0
LINE
  8
0
 62
7
  6
CONTINUOUS
 10
91.9215299438
 20
184.525296668
 11
97.0533790265
 21
184.525296668
  0
LINE
  8
0
 62
9
  6
CONTINUOUS
 10
90.6387363144
 20
184.7932689015
 11
85.5680217387
 21
184.7932689015
  0
LINE
  8
0
 62
9
  6
CONTINUOUS
 10
77.9387363144
 20
184.7932689015
 11
72.8680217387
 21
184.7932689015
  0
LINE
  8
0
 62
9
  6
CONTINUOUS
 10
65.2387363144
 20
184.7932689015
 11
60.2133790265
 21
184.7932458605
  0
POLYLINE
  8
0
 62
9
  6
CONTINUOUS
 66
1
 70
0
  0
VERTEX
  8
0
 62
9
  6
CONTINUOUS
 10
72.851951052
 20
185.7907755862
  0
VERTEX
  8
0
 62
9
  6
CONTINUOUS
 10
72.603766534
 20
185.8356276543
  0
VERTEX
  8
0
 62
9
  6
CONTINUOUS
 10
72.421057893
 20
185.9626181123
  0
VERTEX
  8
0
 62
9
  6
CONTINUOUS
 10
72.3520272045
 20
186.13824442
  0
SEQEND
  0
POLYLINE
  8
0
 62
9
  6
CONTINUOUS
 66
1
 70
0
  0
VERTEX
  8
0
 62
9
  6
CONTINUOUS
 10
72.8532918987
 20
185.6371408662
  0
VERTEX
  8
0
 62
9
  6
CONTINUOUS
 10
72.6054861339
 20
185.6929861489
  0
VERTEX
  8
0
 62
9
  6
CONTINUOUS
 10
72.4228366647
 20
185.848001166
  0
VERTEX
  8
0
 62
9
  6
CONTINUOUS
 10
72.3533680511
 20
186.0614273649
  0
SEQEND
  0
LINE
  8
0
 62
7
  6
CONTINUOUS
 10
65.8990527712
 20
190.328145199
 11
65.9206875385
 21
190.3187630227
  0
POLYLINE
  8
0
 62
9
  6
CONTINUOUS
 66
1
 70
0
  0
VERTEX
  8
0
 62
9
  6
CONTINUOUS
 10
65.8001685179
 20
190.6531388827
  0
VERTEX
  8
0
 62
9
  6
CONTINUOUS
 10
65.8981003799
 20
190.6014648202
  0
VERTEX
  8
0
 62
9
  6
CONTINUOUS
 10
65.9599524139
 20
190.5393822266
  0
VERTEX
  8
0
 62
9
  6
CONTINUOUS
 10
65.980381274
 20
190.4722543622
  0
SEQEND
  0
LINE
  8
0
 62
9
  6
CONTINUOUS
 10
72.1695916287
 20
190.7522238535
 11
72.1200644417
 21
190.8340228397
  0
LINE
  8
0
 62
7
  6
CONTINUOUS
 10
72.3289130707
 20
190.2676205841
 11
72.3449372637
 21
190.240324737
  0
POLYLINE
  8
0
 62
9
  6
CONTINUOUS
 66
1
 70
0
  0
VERTEX
  8
0
 62
9
  6
CONTINUOUS
 10
71.5852281093
 20
193.325296668
  0
VERTEX
  8
0
 62
9
  6
CONTINUOUS
 10
71.6177133924
 20
193.2584998801
  0
VERTEX
  8
0
 62
9
  6
CONTINUOUS
 10
71.6415192046
 20
193.0759543817
  0
VERTEX
  8
0
 62
9
  6
CONTINUOUS
 10
71.6502844512
 20
192.8264322307
  0
SEQEND
  0
POLYLINE
  8
0
 62
9
  6
CONTINUOUS
 66
1
 70
0
  0
VERTEX
  8
0
 62
9
  6
CONTINUOUS
 10
77.9534661543
 20
185.6371408662
  0
VERTEX
  8
0
 62
9
  6
CONTINUOUS
 10
78.2012720574
 20
185.6929862171
  0
VERTEX
  8
0
 62
9
  6
CONTINUOUS
 10
78.3839214772
 20
185.8480012963
  0
VERTEX
  8
0
 62
9
  6
CONTINUOUS
 10
78.4533900019
 20
186.0614273649
  0
SEQEND
  0
POLYLINE
  8
0
 62
9
  6
CONTINUOUS
 66
1
 70
0
  0
VERTEX
  8
0
 62
9
  6
CONTINUOUS
 10
77.954807001
 20
185.7907751423
  0
VERTEX
  8
0
 62
9
  6
CONTINUOUS
 10
78.2029915898
 20
185.8356272788
  0
VERTEX
  8
0
 62
9
  6
CONTINUOUS
 10
78.3857002417
 20
185.9626179066
  0
VERTEX
  8
0
 62
9
  6
CONTINUOUS
 10
78.4547308486
 20
186.13824442
  0
SEQEND
  0
LINE
  8
0
 62
9
  6
CONTINUOUS
 10
90.6534661543
 20
185.6371408662
 11
85.5532918987
 21
185.6371408662
  0
LINE
  8
0
 62
9
  6
CONTINUOUS
 10
77.9534661543
 20
185.6371408662
 11
72.8532918987
 21
185.6371408662
  0
LINE
  8
0
 62
9
  6
CONTINUOUS
 10
65.2534661543
 20
185.6371408662
 11
63.0833790265
 21
185.6371408662
  0
LINE
  8
0
 62
9
  6
CONTINUOUS
 10
90.6548070539
 20
185.790778274
 11
85.5519509993
 21
185.7907782624
  0
LINE
  8
0
 62
9
  6
CONTINUOUS
 10
77.9548070539
 20
185.790778274
 11
72.8519509993
 21
185.7907782624
  0
LINE
  8
0
 62
9
  6
CONTINUOUS
 10
65.2548070539
 20
185.790778274
 11
63.0833790265
 21
185.7907749765
  0
LINE
  8
0
 62
9
  6
CONTINUOUS
 10
62.482707099
 20
185.991313619
 11
60.2133790265
 21
185.9913220718
  0
LINE
  8
0
 62
7
  6
CONTINUOUS
 10
60.2133790265
 20
186.125296668
 11
62.1252479986
 21
186.125296668
  0
POLYLINE
  8
0
 62
9
  6
CONTINUOUS
 66
1
 70
0
  0
VERTEX
  8
0
 62
9
  6
CONTINUOUS
 10
85.5680221408
 20
184.7932458605
  0
VERTEX
  8
0
 62
9
  6
CONTINUOUS
 10
85.3202161449
 20
184.8490912561
  0
VERTEX
  8
0
 62
9
  6
CONTINUOUS
 10
85.1375667496
 20
185.0041063897
  0
VERTEX
  8
0
 62
9
  6
CONTINUOUS
 10
85.0680982933
 20
185.2175323591
  0
SEQEND
  0
LINE
  8
0
 62
7
  6
CONTINUOUS
 10
72.2692851281
 20
190.3195242401
 11
72.3289130707
 21
190.2676205841
  0
POLYLINE
  8
0
 62
9
  6
CONTINUOUS
 66
1
 70
0
  0
VERTEX
  8
0
 62
9
  6
CONTINUOUS
 10
78.4564836094
 20
190.6215153104
  0
VERTEX
  8
0
 62
9
  6
CONTINUOUS
 10
78.4114812927
 20
190.58262208
  0
VERTEX
  8
0
 62
9
  6
CONTINUOUS
 10
78.371229506
 20
190.5340097431
  0
VERTEX
  8
0
 62
9
  6
CONTINUOUS
 10
78.3486263477
 20
190.4736843684
  0
VERTEX
  8
0
 62
9
  6
CONTINUOUS
 10
78.3693802849
 20
190.4049880315
  0
VERTEX
  8
0
 62
9
  6
CONTINUOUS
 10
78.4703178968
 20
190.3456495482
  0
VERTEX
  8
0
 62
9
  6
CONTINUOUS
 10
78.5992796762
 20
190.3300171773
  0
SEQEND
  0
LINE
  8
0
 62
7
  6
CONTINUOUS
 10
78.4766688976
 20
190.2660177814
 11
78.5436016643
 21
190.3226158637
  0
POLYLINE
  8
0
 62
9
  6
CONTINUOUS
 66
1
 70
0
  0
VERTEX
  8
0
 62
9
  6
CONTINUOUS
 10
78.5184076648
 20
190.3252941642
  0
VERTEX
  8
0
 62
9
  6
CONTINUOUS
 10
78.3871495558
 20
190.2599882594
  0
VERTEX
  8
0
 62
9
  6
CONTINUOUS
 10
78.290178672
 20
190.0811337201
  0
VERTEX
  8
0
 62
9
  6
CONTINUOUS
 10
78.252825829
 20
189.8354503108
  0
SEQEND
  0
POLYLINE
  8
0
 62
9
  6
CONTINUOUS
 66
1
 70
0
  0
VERTEX
  8
0
 62
9
  6
CONTINUOUS
 10
70.7311784882
 20
185.5562466702
  0
VERTEX
  8
0
 62
9
  6
CONTINUOUS
 10
70.9792312327
 20
185.6048975259
  0
VERTEX
  8
0
 62
9
  6
CONTINUOUS
 10
71.1619192967
 20
185.7416130391
  0
VERTEX
  8
0
 62
9
  6
CONTINUOUS
 10
71.231102325
 20
185.9303670642
  0
SEQEND
  0
POLYLINE
  8
0
 62
7
  6
CONTINUOUS
 66
1
 70
0
  0
VERTEX
  8
0
 62
7
  6
CONTINUOUS
 10
91.2033790265
 20
188.925296668
  0
VERTEX
  8
0
 62
7
  6
CONTINUOUS
 10
91.1363473973
 20
188.9165697364
  0
VERTEX
  8
0
 62
7
  6
CONTINUOUS
 10
90.9533676989
 20
188.9101852826
  0
VERTEX
  8
0
 62
7
  6
CONTINUOUS
 10
90.7033028625
 20
188.9078469197
  0
SEQEND
  0
POLYLINE
  8
0
 62
9
  6
CONTINUOUS
 66
1
 70
0
  0
VERTEX
  8
0
 62
9
  6
CONTINUOUS
 10
71.6232720333
 20
186.9842591719
  0
VERTEX
  8
0
 62
9
  6
CONTINUOUS
 10
71.8721299366
 20
187.0100295191
  0
VERTEX
  8
0
 62
9
  6
CONTINUOUS
 10
72.0549432506
 20
187.0874981556
  0
VERTEX
  8
0
 62
9
  6
CONTINUOUS
 10
72.1231958808
 20
187.1961054111
  0
SEQEND
  0
LINE
  8
0
 62
9
  6
CONTINUOUS
 10
63.0833790265
 20
185.7907749765
 11
62.9926068683
 21
185.7848670088
  0
LINE
  8
0
 62
9
  6
CONTINUOUS
 10
59.7133790265
 20
187.125296668
 11
62.5833790265
 21
187.125296668
  0
POLYLINE
  8
0
 62
9
  6
CONTINUOUS
 66
1
 70
0
  0
VERTEX
  8
0
 62
9
  6
CONTINUOUS
 10
85.551951052
 20
185.7907755862
  0
VERTEX
  8
0
 62
9
  6
CONTINUOUS
 10
85.303766534
 20
185.8356276543
  0
VERTEX
  8
0
 62
9
  6
CONTINUOUS
 10
85.121057893
 20
185.9626181123
  0
VERTEX
  8
0
 62
9
  6
CONTINUOUS
 10
85.0520272045
 20
186.13824442
  0
SEQEND
  0
POLYLINE
  8
0
 62
9
  6
CONTINUOUS
 66
1
 70
0
  0
VERTEX
  8
0
 62
9
  6
CONTINUOUS
 10
85.5532918987
 20
185.6371408662
  0
VERTEX
  8
0
 62
9
  6
CONTINUOUS
 10
85.3054861339
 20
185.6929861489
  0
VERTEX
  8
0
 62
9
  6
CONTINUOUS
 10
85.1228366647
 20
185.848001166
  0
VERTEX
  8
0
 62
9
  6
CONTINUOUS
 10
85.0533680511
 20
186.0614273649
  0
SEQEND
  0
LINE
  8
0
 62
7
  6
CONTINUOUS
 10
72.2556932396
 20
190.325296668
 11
72.2692851281
 21
190.3195242401
  0
POLYLINE
  8
0
 62
9
  6
CONTINUOUS
 66
1
 70
0
  0
VERTEX
  8
0
 62
9
  6
CONTINUOUS
 10
72.2883601974
 20
190.3252921788
  0
VERTEX
  8
0
 62
9
  6
CONTINUOUS
 10
72.4196193685
 20
190.2599852085
  0
VERTEX
  8
0
 62
9
  6
CONTINUOUS
 10
72.516586632
 20
190.0811314873
  0
VERTEX
  8
0
 62
9
  6
CONTINUOUS
 10
72.5539338553
 20
189.8354505948
  0
SEQEND
  0
LINE
  8
0
 62
9
  6
CONTINUOUS
 10
78.0033028625
 20
188.9078469197
 11
77.9869758607
 21
189.8427464164
  0
LINE
  8
0
 62
7
  6
CONTINUOUS
 10
78.4789419356
 20
190.325296668
 11
78.5033790265
 21
188.925296668
  0
LINE
  8
0
 62
7
  6
CONTINUOUS
 10
78.6533790265
 20
188.925296668
 11
78.7216060962
 21
185.0165704648
  0
LINE
  8
0
 62
9
  6
CONTINUOUS
 10
77.9869841311
 20
190.325296668
 11
77.9869841311
 21
189.8427464164
  0
LINE
  8
0
 62
9
  6
CONTINUOUS
 10
78.0364446366
 20
190.825296668
 11
78.0364446358
 21
190.325296668
  0
LINE
  8
0
 62
9
  6
CONTINUOUS
 10
78.0713547665
 20
193.325296668
 11
78.0713547665
 21
192.825296668
  0
LINE
  8
0
 62
9
  6
CONTINUOUS
 10
77.9534661543
 20
185.6371408662
 11
77.9548070285
 21
185.790778274
  0
LINE
  8
0
 62
9
  6
CONTINUOUS
 10
77.9352280693
 20
184.525296668
 11
77.9387361788
 21
184.7932689019
  0
LINE
  8
0
 62
9
  6
CONTINUOUS
 10
78.0364027547
 20
190.825296668
 11
78.0713575253
 21
192.825296668
  0
LINE
  8
0
 62
9
  6
CONTINUOUS
 10
77.9548070539
 20
185.790778274
 11
78.0033028625
 21
188.9078469197
  0
LINE
  8
0
 62
9
  6
CONTINUOUS
 10
77.9387363144
 20
184.7932689015
 11
77.9534661543
 21
185.6371408662
  0
LINE
  8
0
 62
7
  6
CONTINUOUS
 10
78.4351519568
 20
185.0165704648
 11
78.5033790265
 21
188.925296668
  0
LINE
  8
0
 62
7
  6
CONTINUOUS
 10
78.7216060962
 20
192.8340228712
 11
78.6533790265
 21
188.925296668
  0
LINE
  8
0
 62
9
  6
CONTINUOUS
 10
78.4768138554
 20
190.325296668
 11
78.4744571484
 21
190.2367749721
  0
POLYLINE
  8
0
 62
9
  6
CONTINUOUS
 66
1
 70
0
  0
VERTEX
  8
0
 62
9
  6
CONTINUOUS
 10
78.4744571484
 20
190.2367749721
  0
VERTEX
  8
0
 62
9
  6
CONTINUOUS
 10
78.4651363921
 20
190.118117454
  0
VERTEX
  8
0
 62
9
  6
CONTINUOUS
 10
78.4372961933
 20
189.9840333516
  0
VERTEX
  8
0
 62
9
  6
CONTINUOUS
 10
78.3669222878
 20
189.8706987704
  0
VERTEX
  8
0
 62
9
  6
CONTINUOUS
 10
78.2528265027
 20
189.835450285
  0
SEQEND
  0
POLYLINE
  8
0
 62
7
  6
CONTINUOUS
 66
1
 70
0
  0
VERTEX
  8
0
 62
7
  6
CONTINUOUS
 10
78.4637618546
 20
190.2477221837
  0
VERTEX
  8
0
 62
7
  6
CONTINUOUS
 10
78.4632741438
 20
190.2436854279
  0
VERTEX
  8
0
 62
7
  6
CONTINUOUS
 10
78.4766688976
 20
190.2660177814
  0
SEQEND
  0
POLYLINE
  8
0
 62
9
  6
CONTINUOUS
 66
1
 70
0
  0
VERTEX
  8
0
 62
9
  6
CONTINUOUS
 10
78.6866941928
 20
190.8340229022
  0
VERTEX
  8
0
 62
9
  6
CONTINUOUS
 10
78.6371236743
 20
190.7521798486
  0
VERTEX
  8
0
 62
9
  6
CONTINUOUS
 10
78.4564836094
 20
190.6215153104
  0
SEQEND
  0
LINE
  8
0
 62
7
  6
CONTINUOUS
 10
71.7517934776
 20
186.7216316242
 11
71.7518392035
 21
186.7216438674
  0
POLYLINE
  8
0
 62
9
  6
CONTINUOUS
 66
1
 70
0
  0
VERTEX
  8
0
 62
9
  6
CONTINUOUS
 10
65.2387359122
 20
184.7932458605
  0
VERTEX
  8
0
 62
9
  6
CONTINUOUS
 10
65.4865416771
 20
184.8490911431
  0
VERTEX
  8
0
 62
9
  6
CONTINUOUS
 10
65.6691911462
 20
185.0041061602
  0
VERTEX
  8
0
 62
9
  6
CONTINUOUS
 10
65.7386597598
 20
185.2175323591
  0
SEQEND
  0
POLYLINE
  8
0
 62
9
  6
CONTINUOUS
 66
1
 70
0
  0
VERTEX
  8
0
 62
9
  6
CONTINUOUS
 10
65.2534661543
 20
185.6371408662
  0
VERTEX
  8
0
 62
9
  6
CONTINUOUS
 10
65.5012720574
 20
185.6929862171
  0
VERTEX
  8
0
 62
9
  6
CONTINUOUS
 10
65.6839214772
 20
185.8480012963
  0
VERTEX
  8
0
 62
9
  6
CONTINUOUS
 10
65.7533900019
 20
186.0614273649
  0
SEQEND
  0
POLYLINE
  8
0
 62
9
  6
CONTINUOUS
 66
1
 70
0
  0
VERTEX
  8
0
 62
9
  6
CONTINUOUS
 10
65.254807001
 20
185.7907751423
  0
VERTEX
  8
0
 62
9
  6
CONTINUOUS
 10
65.5029915898
 20
185.8356272788
  0
VERTEX
  8
0
 62
9
  6
CONTINUOUS
 10
65.6857002417
 20
185.9626179066
  0
VERTEX
  8
0
 62
9
  6
CONTINUOUS
 10
65.7547308486
 20
186.13824442
  0
SEQEND
  0
POLYLINE
  8
0
 62
7
  6
CONTINUOUS
 66
1
 70
0
  0
VERTEX
  8
0
 62
7
  6
CONTINUOUS
 10
78.5033790265
 20
188.925296668
  0
VERTEX
  8
0
 62
7
  6
CONTINUOUS
 10
78.4363473973
 20
188.9165697364
  0
VERTEX
  8
0
 62
7
  6
CONTINUOUS
 10
78.2533676989
 20
188.9101852826
  0
VERTEX
  8
0
 62
7
  6
CONTINUOUS
 10
78.0033028625
 20
188.9078469197
  0
SEQEND
  0
POLYLINE
  8
0
 62
9
  6
CONTINUOUS
 66
1
 70
0
  0
VERTEX
  8
0
 62
9
  6
CONTINUOUS
 10
85.5058309652
 20
188.7717388825
  0
VERTEX
  8
0
 62
9
  6
CONTINUOUS
 10
85.2559568587
 20
188.7697186787
  0
VERTEX
  8
0
 62
9
  6
CONTINUOUS
 10
85.0729856387
 20
188.7729114817
  0
VERTEX
  8
0
 62
9
  6
CONTINUOUS
 10
85.0059071176
 20
188.7804624277
  0
SEQEND
  0
POLYLINE
  8
0
 62
9
  6
CONTINUOUS
 66
1
 70
0
  0
VERTEX
  8
0
 62
9
  6
CONTINUOUS
 10
72.8058309652
 20
188.7717388825
  0
VERTEX
  8
0
 62
9
  6
CONTINUOUS
 10
72.5559568587
 20
188.7697186787
  0
VERTEX
  8
0
 62
9
  6
CONTINUOUS
 10
72.3729856387
 20
188.7729114817
  0
VERTEX
  8
0
 62
9
  6
CONTINUOUS
 10
72.3059071176
 20
188.7804624277
  0
SEQEND
  0
LINE
  8
0
 62
9
  6
CONTINUOUS
 10
78.0009273704
 20
188.7717550693
 11
72.8058306819
 21
188.7717551124
  0
LINE
  8
0
 62
9
  6
CONTINUOUS
 10
90.7009273704
 20
188.7717550693
 11
85.5058306819
 21
188.7717551124
  0
LINE
  8
0
 62
9
  6
CONTINUOUS
 10
65.3009273704
 20
188.7717550693
 11
63.0833790265
 21
188.7717388825
  0
LINE
  8
0
 62
7
  6
CONTINUOUS
 10
72.1533790265
 20
188.925296668
 11
71.6533028625
 21
188.925296668
  0
LINE
  8
0
 62
7
  6
CONTINUOUS
 10
65.9533790265
 20
188.925296668
 11
66.4534551905
 21
188.925296668
  0
LINE
  8
1_AXIS
 62
2
  6
CENTER
 10
63.9533790265
 20
188.925296668
 11
99.5533790265
 21
188.925296668
  0
LINE
  8
0
 62
7
  6
CONTINUOUS
 10
78.6533790265
 20
188.925296668
 11
79.1534551905
 21
188.925296668
  0
LINE
  8
0
 62
7
  6
CONTINUOUS
 10
84.8533790265
 20
188.925296668
 11
84.3533028625
 21
188.925296668
  0
LINE
  8
0
 62
7
  6
CONTINUOUS
 10
91.3533790265
 20
188.925296668
 11
91.8534551905
 21
188.925296668
  0
POLYLINE
  8
0
 62
9
  6
CONTINUOUS
 66
1
 70
0
  0
VERTEX
  8
0
 62
9
  6
CONTINUOUS
 10
65.3009270879
 20
188.7717388825
  0
VERTEX
  8
0
 62
9
  6
CONTINUOUS
 10
65.5508011531
 20
188.7697186787
  0
VERTEX
  8
0
 62
9
  6
CONTINUOUS
 10
65.7337723865
 20
188.7729114806
  0
VERTEX
  8
0
 62
9
  6
CONTINUOUS
 10
65.8008509354
 20
188.7804624277
  0
SEQEND
  0
POLYLINE
  8
0
 62
9
  6
CONTINUOUS
 66
1
 70
0
  0
VERTEX
  8
0
 62
9
  6
CONTINUOUS
 10
78.0009270879
 20
188.7717388825
  0
VERTEX
  8
0
 62
9
  6
CONTINUOUS
 10
78.2508011531
 20
188.7697186787
  0
VERTEX
  8
0
 62
9
  6
CONTINUOUS
 10
78.4337723865
 20
188.7729114806
  0
VERTEX
  8
0
 62
9
  6
CONTINUOUS
 10
78.5008509354
 20
188.7804624277
  0
SEQEND
  0
POLYLINE
  8
0
 62
9
  6
CONTINUOUS
 66
1
 70
0
  0
VERTEX
  8
0
 62
9
  6
CONTINUOUS
 10
90.7009270879
 20
188.7717388825
  0
VERTEX
  8
0
 62
9
  6
CONTINUOUS
 10
90.9508011531
 20
188.7697186787
  0
VERTEX
  8
0
 62
9
  6
CONTINUOUS
 10
91.1337723865
 20
188.7729114806
  0
VERTEX
  8
0
 62
9
  6
CONTINUOUS
 10
91.2008509354
 20
188.7804624277
  0
SEQEND
  0
POLYLINE
  8
0
 62
7
  6
CONTINUOUS
 66
1
 70
0
  0
VERTEX
  8
0
 62
7
  6
CONTINUOUS
 10
72.3033790265
 20
188.925296668
  0
VERTEX
  8
0
 62
7
  6
CONTINUOUS
 10
72.3703610254
 20
188.9165727358
  0
VERTEX
  8
0
 62
7
  6
CONTINUOUS
 10
72.5534762013
 20
188.9101835533
  0
VERTEX
  8
0
 62
7
  6
CONTINUOUS
 10
72.8034551905
 20
188.9078469197
  0
SEQEND
  0
POLYLINE
  8
0
 62
9
  6
CONTINUOUS
 66
1
 70
0
  0
VERTEX
  8
0
 62
9
  6
CONTINUOUS
 10
72.5539313209
 20
189.8354504979
  0
VERTEX
  8
0
 62
9
  6
CONTINUOUS
 10
72.441765499
 20
189.869142031
  0
VERTEX
  8
0
 62
9
  6
CONTINUOUS
 10
72.3708024668
 20
189.9800678004
  0
VERTEX
  8
0
 62
9
  6
CONTINUOUS
 10
72.3420901493
 20
190.1143028548
  0
VERTEX
  8
0
 62
9
  6
CONTINUOUS
 10
72.3324290047
 20
190.2339620108
  0
SEQEND
  0
POLYLINE
  8
0
 62
7
  6
CONTINUOUS
 66
1
 70
0
  0
VERTEX
  8
0
 62
7
  6
CONTINUOUS
 10
71.7516662007
 20
191.1289950074
  0
VERTEX
  8
0
 62
7
  6
CONTINUOUS
 10
71.7456410696
 20
191.1308999364
  0
VERTEX
  8
0
 62
7
  6
CONTINUOUS
 10
71.7302310207
 20
191.1374899169
  0
VERTEX
  8
0
 62
7
  6
CONTINUOUS
 10
71.7136544005
 20
191.1463505488
  0
VERTEX
  8
0
 62
7
  6
CONTINUOUS
 10
71.6948366079
 20
191.1580799749
  0
VERTEX
  8
0
 62
7
  6
CONTINUOUS
 10
71.6752011648
 20
191.1718792311
  0
VERTEX
  8
0
 62
7
  6
CONTINUOUS
 10
71.6550837433
 20
191.1874825359
  0
VERTEX
  8
0
 62
7
  6
CONTINUOUS
 10
71.6347263381
 20
191.2046150976
  0
VERTEX
  8
0
 62
7
  6
CONTINUOUS
 10
71.6139048698
 20
191.2234730688
  0
VERTEX
  8
0
 62
7
  6
CONTINUOUS
 10
71.5919795497
 20
191.2447010424
  0
VERTEX
  8
0
 62
7
  6
CONTINUOUS
 10
71.5682308147
 20
191.2692276996
  0
VERTEX
  8
0
 62
7
  6
CONTINUOUS
 10
71.5427973862
 20
191.2972399695
  0
VERTEX
  8
0
 62
7
  6
CONTINUOUS
 10
71.5170352164
 20
191.3274440129
  0
VERTEX
  8
0
 62
7
  6
CONTINUOUS
 10
71.4914277304
 20
191.3593292092
  0
VERTEX
  8
0
 62
7
  6
CONTINUOUS
 10
71.4787002213
 20
191.375887525
  0
VERTEX
  8
0
 62
7
  6
CONTINUOUS
 10
71.4534380987
 20
191.4102130089
  0
VERTEX
  8
0
 62
7
  6
CONTINUOUS
 10
71.4284608504
 20
191.4461788559
  0
VERTEX
  8
0
 62
7
  6
CONTINUOUS
 10
71.4028073279
 20
191.4854250309
  0
VERTEX
  8
0
 62
7
  6
CONTINUOUS
 10
71.3753062565
 20
191.5304521239
  0
VERTEX
  8
0
 62
7
  6
CONTINUOUS
 10
71.3477748856
 20
191.5791830123
  0
VERTEX
  8
0
 62
7
  6
CONTINUOUS
 10
71.3212813689
 20
191.6304573021
  0
VERTEX
  8
0
 62
7
  6
CONTINUOUS
 10
71.2967400129
 20
191.6831930328
  0
VERTEX
  8
0
 62
7
  6
CONTINUOUS
 10
71.2749768817
 20
191.7363070562
  0
VERTEX
  8
0
 62
7
  6
CONTINUOUS
 10
71.2568185255
 20
191.7884831044
  0
VERTEX
  8
0
 62
7
  6
CONTINUOUS
 10
71.2431095261
 20
191.837853086
  0
VERTEX
  8
0
 62
7
  6
CONTINUOUS
 10
71.2345752458
 20
191.8814958957
  0
VERTEX
  8
0
 62
7
  6
CONTINUOUS
 10
71.2312287976
 20
191.9157089265
  0
VERTEX
  8
0
 62
7
  6
CONTINUOUS
 10
71.2311026298
 20
191.9202100777
  0
SEQEND
  0
POLYLINE
  8
0
 62
9
  6
CONTINUOUS
 66
1
 70
0
  0
VERTEX
  8
0
 62
9
  6
CONTINUOUS
 10
71.6232720333
 20
190.8663341642
  0
VERTEX
  8
0
 62
9
  6
CONTINUOUS
 10
71.534160205
 20
190.9019800917
  0
VERTEX
  8
0
 62
9
  6
CONTINUOUS
 10
71.3551402286
 20
191.0258969485
  0
VERTEX
  8
0
 62
9
  6
CONTINUOUS
 10
71.1793732265
 20
191.2135291502
  0
VERTEX
  8
0
 62
9
  6
CONTINUOUS
 10
71.0277233209
 20
191.4311585561
  0
VERTEX
  8
0
 62
9
  6
CONTINUOUS
 10
70.9669372399
 20
191.5361205386
  0
VERTEX
  8
0
 62
9
  6
CONTINUOUS
 10
70.8620000528
 20
191.7530563276
  0
VERTEX
  8
0
 62
9
  6
CONTINUOUS
 10
70.7851344145
 20
191.9677710586
  0
VERTEX
  8
0
 62
9
  6
CONTINUOUS
 10
70.7393270561
 20
192.1828388789
  0
VERTEX
  8
0
 62
9
  6
CONTINUOUS
 10
70.7311784882
 20
192.2943466587
  0
SEQEND
  0
LINE
  8
0
 62
9
  6
CONTINUOUS
 10
79.1534551905
 20
188.925296668
 11
79.2215299701
 21
184.525296668
  0
LINE
  8
0
 62
9
  6
CONTINUOUS
 10
79.2215299641
 20
193.325296668
 11
79.1534551905
 21
188.925296668
  0
POLYLINE
  8
0
 62
9
  6
CONTINUOUS
 66
1
 70
0
  0
VERTEX
  8
0
 62
9
  6
CONTINUOUS
 10
85.0065924188
 20
190.6531398941
  0
VERTEX
  8
0
 62
9
  6
CONTINUOUS
 10
84.9086582027
 20
190.6014655722
  0
VERTEX
  8
0
 62
9
  6
CONTINUOUS
 10
84.8468051206
 20
190.5393819909
  0
VERTEX
  8
0
 62
9
  6
CONTINUOUS
 10
84.8263767894
 20
190.4722537981
  0
SEQEND
  0
POLYLINE
  8
0
 62
9
  6
CONTINUOUS
 66
1
 70
0
  0
VERTEX
  8
0
 62
9
  6
CONTINUOUS
 10
84.8942078162
 20
190.328338148
  0
VERTEX
  8
0
 62
9
  6
CONTINUOUS
 10
85.0335528609
 20
190.3448105924
  0
VERTEX
  8
0
 62
9
  6
CONTINUOUS
 10
85.1356915725
 20
190.4029225918
  0
VERTEX
  8
0
 62
9
  6
CONTINUOUS
 10
85.1583066902
 20
190.4717349755
  0
VERTEX
  8
0
 62
9
  6
CONTINUOUS
 10
85.1364189223
 20
190.5325856121
  0
VERTEX
  8
0
 62
9
  6
CONTINUOUS
 10
85.0961468088
 20
190.5817715216
  0
VERTEX
  8
0
 62
9
  6
CONTINUOUS
 10
85.0507593865
 20
190.6211317672
  0
VERTEX
  8
0
 62
9
  6
CONTINUOUS
 10
84.8695916287
 20
190.7522238535
  0
SEQEND
  0
POLYLINE
  8
0
 62
9
  6
CONTINUOUS
 66
1
 70
0
  0
VERTEX
  8
0
 62
9
  6
CONTINUOUS
 10
85.5197822248
 20
189.8427466132
  0
VERTEX
  8
0
 62
9
  6
CONTINUOUS
 10
85.426940523
 20
189.8408264382
  0
VERTEX
  8
0
 62
9
  6
CONTINUOUS
 10
85.3371952691
 20
189.8383635353
  0
VERTEX
  8
0
 62
9
  6
CONTINUOUS
 10
85.2539313209
 20
189.8354504979
  0
SEQEND
  0
POLYLINE
  8
0
 62
9
  6
CONTINUOUS
 66
1
 70
0
  0
VERTEX
  8
0
 62
9
  6
CONTINUOUS
 10
72.8197822248
 20
189.8427466132
  0
VERTEX
  8
0
 62
9
  6
CONTINUOUS
 10
72.726940523
 20
189.8408264382
  0
VERTEX
  8
0
 62
9
  6
CONTINUOUS
 10
72.6371952691
 20
189.8383635353
  0
VERTEX
  8
0
 62
9
  6
CONTINUOUS
 10
72.5539313209
 20
189.8354504979
  0
SEQEND
  0
POLYLINE
  8
0
 62
9
  6
CONTINUOUS
 66
1
 70
0
  0
VERTEX
  8
0
 62
9
  6
CONTINUOUS
 10
63.0833790265
 20
189.8427464164
  0
VERTEX
  8
0
 62
9
  6
CONTINUOUS
 10
62.8333790238
 20
189.8404085933
  0
VERTEX
  8
0
 62
9
  6
CONTINUOUS
 10
62.6503663233
 20
189.8340215421
  0
VERTEX
  8
0
 62
9
  6
CONTINUOUS
 10
62.5833790265
 20
189.825296668
  0
SEQEND
  0
LINE
  8
0
 62
9
  6
CONTINUOUS
 10
90.6869758607
 20
189.8427464164
 11
85.5197822214
 21
189.8427464164
  0
LINE
  8
0
 62
9
  6
CONTINUOUS
 10
77.9869758607
 20
189.8427464164
 11
72.8197822214
 21
189.8427464164
  0
LINE
  8
0
 62
9
  6
CONTINUOUS
 10
65.2869758607
 20
189.8427464164
 11
63.0833790265
 21
189.8427464164
  0
LINE
  8
0
 62
7
  6
CONTINUOUS
 10
63.0833790265
 20
190.325296668
 11
65.9056213223
 21
190.325296668
  0
LINE
  8
0
 62
7
  6
CONTINUOUS
 10
65.9383514949
 20
190.325296668
 11
65.9778161174
 21
190.325296668
  0
LINE
  8
0
 62
7
  6
CONTINUOUS
 10
72.1948168333
 20
190.325296668
 11
78.6056213175
 21
190.325296668
  0
LINE
  8
0
 62
7
  6
CONTINUOUS
 10
78.638351503
 20
190.325296668
 11
78.6778161174
 21
190.325296668
  0
LINE
  8
0
 62
7
  6
CONTINUOUS
 10
84.8948168333
 20
190.325296668
 11
91.3056213175
 21
190.325296668
  0
LINE
  8
0
 62
7
  6
CONTINUOUS
 10
91.338351503
 20
190.325296668
 11
91.3778161174
 21
190.325296668
  0
POLYLINE
  8
0
 62
9
  6
CONTINUOUS
 66
1
 70
0
  0
VERTEX
  8
0
 62
9
  6
CONTINUOUS
 10
65.5528265027
 20
189.835450285
  0
VERTEX
  8
0
 62
9
  6
CONTINUOUS
 10
65.4695626227
 20
189.8383635399
  0
VERTEX
  8
0
 62
9
  6
CONTINUOUS
 10
65.3798174446
 20
189.8408264405
  0
VERTEX
  8
0
 62
9
  6
CONTINUOUS
 10
65.2869758573
 20
189.8427466125
  0
SEQEND
  0
POLYLINE
  8
0
 62
9
  6
CONTINUOUS
 66
1
 70
0
  0
VERTEX
  8
0
 62
9
  6
CONTINUOUS
 10
78.2528265027
 20
189.835450285
  0
VERTEX
  8
0
 62
9
  6
CONTINUOUS
 10
78.1695626227
 20
189.8383635399
  0
VERTEX
  8
0
 62
9
  6
CONTINUOUS
 10
78.0798174446
 20
189.8408264405
  0
VERTEX
  8
0
 62
9
  6
CONTINUOUS
 10
77.9869758573
 20
189.8427466125
  0
SEQEND
  0
POLYLINE
  8
0
 62
9
  6
CONTINUOUS
 66
1
 70
0
  0
VERTEX
  8
0
 62
9
  6
CONTINUOUS
 10
90.9528265027
 20
189.835450285
  0
VERTEX
  8
0
 62
9
  6
CONTINUOUS
 10
90.8695626227
 20
189.8383635399
  0
VERTEX
  8
0
 62
9
  6
CONTINUOUS
 10
90.7798174446
 20
189.8408264405
  0
VERTEX
  8
0
 62
9
  6
CONTINUOUS
 10
90.6869758573
 20
189.8427466125
  0
SEQEND
  0
POLYLINE
  8
0
 62
9
  6
CONTINUOUS
 66
1
 70
0
  0
VERTEX
  8
0
 62
9
  6
CONTINUOUS
 10
71.6232720333
 20
190.8663341642
  0
VERTEX
  8
0
 62
9
  6
CONTINUOUS
 10
71.872130724
 20
190.8405636275
  0
VERTEX
  8
0
 62
9
  6
CONTINUOUS
 10
72.0549436587
 20
190.7630948769
  0
VERTEX
  8
0
 62
9
  6
CONTINUOUS
 10
72.1231958808
 20
190.6544879249
  0
SEQEND
  0
POLYLINE
  8
0
 62
7
  6
CONTINUOUS
 66
1
 70
0
  0
VERTEX
  8
0
 62
7
  6
CONTINUOUS
 10
85.0033790265
 20
188.925296668
  0
VERTEX
  8
0
 62
7
  6
CONTINUOUS
 10
85.0703610254
 20
188.9165727358
  0
VERTEX
  8
0
 62
7
  6
CONTINUOUS
 10
85.2534762013
 20
188.9101835533
  0
VERTEX
  8
0
 62
7
  6
CONTINUOUS
 10
85.5034551905
 20
188.9078469197
  0
SEQEND
  0
LINE
  8
0
 62
7
  6
CONTINUOUS
 10
71.7517528319
 20
191.1289725209
 11
71.7517940976
 21
191.1289614888
  0
LINE
  8
0
 62
7
  6
CONTINUOUS
 10
78.5990527608
 20
190.3281452022
 11
78.6206875537
 21
190.3187630121
  0
POLYLINE
  8
0
 62
9
  6
CONTINUOUS
 66
1
 70
0
  0
VERTEX
  8
0
 62
9
  6
CONTINUOUS
 10
78.5001684912
 20
190.6531388818
  0
VERTEX
  8
0
 62
9
  6
CONTINUOUS
 10
78.5981003671
 20
190.6014648202
  0
VERTEX
  8
0
 62
9
  6
CONTINUOUS
 10
78.6599524106
 20
190.5393822256
  0
VERTEX
  8
0
 62
9
  6
CONTINUOUS
 10
78.6803812739
 20
190.4722543594
  0
SEQEND
  0
LINE
  8
0
 62
7
  6
CONTINUOUS
 10
78.6206875537
 20
190.3187630121
 11
78.67683229
 21
190.2689332341
  0
POLYLINE
  8
0
 62
7
  6
CONTINUOUS
 66
1
 70
0
  0
VERTEX
  8
0
 62
7
  6
CONTINUOUS
 10
65.8033790265
 20
188.925296668
  0
VERTEX
  8
0
 62
7
  6
CONTINUOUS
 10
65.7363473973
 20
188.9165697364
  0
VERTEX
  8
0
 62
7
  6
CONTINUOUS
 10
65.5533676989
 20
188.9101852826
  0
VERTEX
  8
0
 62
7
  6
CONTINUOUS
 10
65.3033028625
 20
188.9078469197
  0
SEQEND
  0
POLYLINE
  8
0
 62
9
  6
CONTINUOUS
 66
1
 70
0
  0
VERTEX
  8
0
 62
9
  6
CONTINUOUS
 10
62.5833790265
 20
188.7542891342
  0
VERTEX
  8
0
 62
9
  6
CONTINUOUS
 10
62.6503663246
 20
188.7630140084
  0
VERTEX
  8
0
 62
9
  6
CONTINUOUS
 10
62.8333790265
 20
188.7694010595
  0
VERTEX
  8
0
 62
9
  6
CONTINUOUS
 10
63.0833790265
 20
188.7717388825
  0
SEQEND
  0
POLYLINE
  8
0
 62
9
  6
CONTINUOUS
 66
1
 70
0
  0
VERTEX
  8
0
 62
9
  6
CONTINUOUS
 10
72.1942078162
 20
190.328338148
  0
VERTEX
  8
0
 62
9
  6
CONTINUOUS
 10
72.3335528609
 20
190.3448105924
  0
VERTEX
  8
0
 62
9
  6
CONTINUOUS
 10
72.4356915725
 20
190.4029225918
  0
VERTEX
  8
0
 62
9
  6
CONTINUOUS
 10
72.4583066902
 20
190.4717349755
  0
VERTEX
  8
0
 62
9
  6
CONTINUOUS
 10
72.4364189223
 20
190.5325856121
  0
VERTEX
  8
0
 62
9
  6
CONTINUOUS
 10
72.3961468088
 20
190.5817715216
  0
VERTEX
  8
0
 62
9
  6
CONTINUOUS
 10
72.3507593865
 20
190.6211317672
  0
VERTEX
  8
0
 62
9
  6
CONTINUOUS
 10
72.1695916287
 20
190.7522238535
  0
SEQEND
  0
LINE
  8
0
 62
9
  6
CONTINUOUS
 10
90.736402745
 20
190.8252961143
 11
91.3866959687
 21
190.8340230091
  0
LINE
  8
0
 62
9
  6
CONTINUOUS
 10
78.036402745
 20
190.8252961143
 11
78.6866959687
 21
190.8340230091
  0
LINE
  8
0
 62
9
  6
CONTINUOUS
 10
65.3364027921
 20
190.8252961149
 11
65.9866959671
 21
190.8340230095
  0
LINE
  8
0
 62
9
  6
CONTINUOUS
 10
62.0833790265
 20
190.8253522067
 11
65.3364028017
 21
190.825296668
  0
LINE
  8
0
 62
9
  6
CONTINUOUS
 10
72.7703573648
 20
190.825296668
 11
78.0364027547
 21
190.825296668
  0
LINE
  8
0
 62
9
  6
CONTINUOUS
 10
85.4703573648
 20
190.825296668
 11
90.7364027547
 21
190.825296668
  0
LINE
  8
0
 62
9
  6
CONTINUOUS
 10
72.1200620869
 20
190.8340228604
 11
72.7703573749
 21
190.8252960871
  0
LINE
  8
0
 62
9
  6
CONTINUOUS
 10
84.8200620869
 20
190.8340228604
 11
85.4703573749
 21
190.8252960871
  0
POLYLINE
  8
0
 62
9
  6
CONTINUOUS
 66
1
 70
0
  0
VERTEX
  8
0
 62
9
  6
CONTINUOUS
 10
70.7311784882
 20
192.2943462087
  0
VERTEX
  8
0
 62
9
  6
CONTINUOUS
 10
70.9792313601
 20
192.2456952652
  0
VERTEX
  8
0
 62
9
  6
CONTINUOUS
 10
71.1619194472
 20
192.1089799317
  0
VERTEX
  8
0
 62
9
  6
CONTINUOUS
 10
71.2311023358
 20
191.9202262721
  0
SEQEND
  0
LINE
  8
0
 62
7
  6
CONTINUOUS
 10
84.82992007
 20
190.2692593863
 11
84.8948168333
 21
190.3231863011
  0
LINE
  8
0
 62
9
  6
CONTINUOUS
 10
71.6502741228
 20
192.8264320504
 11
72.0851519568
 21
192.8340228712
  0
LINE
  8
0
 62
9
  6
CONTINUOUS
 10
90.771357526
 20
192.8252967046
 11
91.4216060973
 21
192.8340229355
  0
LINE
  8
0
 62
9
  6
CONTINUOUS
 10
78.071357526
 20
192.8252967046
 11
78.7216060973
 21
192.8340229355
  0
LINE
  8
0
 62
9
  6
CONTINUOUS
 10
59.7133790265
 20
192.825296668
 11
65.3713131345
 21
192.825296668
  0
LINE
  8
0
 62
9
  6
CONTINUOUS
 10
72.7354004755
 20
192.825296668
 11
78.0713575253
 21
192.825296668
  0
LINE
  8
0
 62
9
  6
CONTINUOUS
 10
85.4354004755
 20
192.825296668
 11
90.7713575253
 21
192.825296668
  0
LINE
  8
0
 62
9
  6
CONTINUOUS
 10
72.0851519557
 20
192.8340229356
 11
72.7354004749
 21
192.8252967053
  0
LINE
  8
0
 62
9
  6
CONTINUOUS
 10
84.7851519557
 20
192.8340229356
 11
85.4354004749
 21
192.8252967053
  0
LINE
  8
0
 62
9
  6
CONTINUOUS
 10
71.2151519563
 20
192.8340229101
 11
71.6502741166
 21
192.8264324036
  0
POLYLINE
  8
0
 62
9
  6
CONTINUOUS
 66
1
 70
0
  0
VERTEX
  8
0
 62
9
  6
CONTINUOUS
 10
85.2539313209
 20
189.8354504979
  0
VERTEX
  8
0
 62
9
  6
CONTINUOUS
 10
85.141765499
 20
189.869142031
  0
VERTEX
  8
0
 62
9
  6
CONTINUOUS
 10
85.0708024668
 20
189.9800678004
  0
VERTEX
  8
0
 62
9
  6
CONTINUOUS
 10
85.0420901493
 20
190.1143028548
  0
VERTEX
  8
0
 62
9
  6
CONTINUOUS
 10
85.0324290047
 20
190.2339620108
  0
SEQEND
  0
LINE
  8
0
 62
7
  6
CONTINUOUS
 10
84.9556932396
 20
190.325296668
 11
84.9692851281
 21
190.3195242401
  0
POLYLINE
  8
0
 62
9
  6
CONTINUOUS
 66
1
 70
0
  0
VERTEX
  8
0
 62
9
  6
CONTINUOUS
 10
91.2184076648
 20
190.3252941642
  0
VERTEX
  8
0
 62
9
  6
CONTINUOUS
 10
91.0871495558
 20
190.2599882594
  0
VERTEX
  8
0
 62
9
  6
CONTINUOUS
 10
90.990178672
 20
190.0811337201
  0
VERTEX
  8
0
 62
9
  6
CONTINUOUS
 10
90.952825829
 20
189.8354503108
  0
SEQEND
  0
LINE
  8
0
 62
9
  6
CONTINUOUS
 10
66.0216060962
 20
192.8340228712
 11
65.3713131249
 21
192.8252961175
  0
LINE
  8
2_FEATURE
 62
7
  6
CONTINUOUS
 10
66.5215299438
 20
193.325296668
 11
70.7152281093
 21
193.325296668
  0
LINE
  8
2_FEATURE
 62
7
  6
CONTINUOUS
 10
79.2215299438
 20
193.325296668
 11
84.2852281093
 21
193.325296668
  0
LINE
  8
0
 62
7
  6
CONTINUOUS
 10
60.2133790265
 20
193.325296668
 11
97.0533790265
 21
193.325296668
  0
LINE
  8
2_FEATURE
 62
7
  6
CONTINUOUS
 10
91.9215299438
 20
193.325296668
 11
97.0533790265
 21
193.325296668
  0
POLYLINE
  8
0
 62
9
  6
CONTINUOUS
 66
1
 70
0
  0
VERTEX
  8
0
 62
9
  6
CONTINUOUS
 10
84.9883601974
 20
190.3252921788
  0
VERTEX
  8
0
 62
9
  6
CONTINUOUS
 10
85.1196193685
 20
190.2599852085
  0
VERTEX
  8
0
 62
9
  6
CONTINUOUS
 10
85.216586632
 20
190.0811314873
  0
VERTEX
  8
0
 62
9
  6
CONTINUOUS
 10
85.2539338553
 20
189.8354505948
  0
SEQEND
  0
LINE
  8
0
 62
7
  6
CONTINUOUS
 10
84.9692851281
 20
190.3195242401
 11
85.0289130707
 21
190.2676205841
  0
LINE
  8
0
 62
9
  6
CONTINUOUS
 10
85.0324290047
 20
190.2339620108
 11
85.0299230644
 21
190.325296668
  0
LINE
  8
0
 62
7
  6
CONTINUOUS
 10
84.8533790265
 20
188.925296668
 11
84.7851519568
 21
192.8340228712
  0
LINE
  8
0
 62
7
  6
CONTINUOUS
 10
85.0033790265
 20
188.925296668
 11
85.0716060962
 21
185.0165704648
  0
LINE
  8
0
 62
9
  6
CONTINUOUS
 10
84.3533028625
 20
188.925296668
 11
84.2852280818
 21
193.325296668
  0
LINE
  8
0
 62
9
  6
CONTINUOUS
 10
84.2852280897
 20
184.525296668
 11
84.3533028625
 21
188.925296668
  0
LINE
  8
0
 62
7
  6
CONTINUOUS
 10
84.7851519568
 20
185.0165704648
 11
84.8533790265
 21
188.925296668
  0
LINE
  8
0
 62
7
  6
CONTINUOUS
 10
85.0268408626
 20
190.2694243554
 11
85.0033790265
 21
188.925296668
  0
LINE
  8
0
 62
7
  6
CONTINUOUS
 10
91.2990527608
 20
190.3281452022
 11
91.3206875537
 21
190.3187630121
  0
LINE
  8
0
 62
9
  6
CONTINUOUS
 10
84.8695916287
 20
190.7522238535
 11
84.8200644417
 21
190.8340228397
  0
LINE
  8
0
 62
7
  6
CONTINUOUS
 10
85.0289130707
 20
190.2676205841
 11
85.0449372637
 21
190.240324737
  0
LINE
  8
0
 62
9
  6
CONTINUOUS
 10
85.5532918987
 20
185.6371408662
 11
85.5680217387
 21
184.7932689015
  0
LINE
  8
0
 62
9
  6
CONTINUOUS
 10
85.4354004755
 20
192.825296668
 11
85.4703573648
 21
190.825296668
  0
LINE
  8
0
 62
9
  6
CONTINUOUS
 10
85.5034551905
 20
188.9078469197
 11
85.5519509993
 21
185.7907782624
  0
LINE
  8
0
 62
9
  6
CONTINUOUS
 10
85.5680218742
 20
184.793268902
 11
85.5715299837
 21
184.525296668
  0
LINE
  8
0
 62
9
  6
CONTINUOUS
 10
85.5519510246
 20
185.7907782624
 11
85.5532918987
 21
185.6371408662
  0
LINE
  8
0
 62
9
  6
CONTINUOUS
 10
85.4354032865
 20
193.325296668
 11
85.4354032865
 21
192.825296668
  0
LINE
  8
0
 62
9
  6
CONTINUOUS
 10
85.4703134164
 20
190.825296668
 11
85.4703134164
 21
190.325296668
  0
LINE
  8
0
 62
9
  6
CONTINUOUS
 10
85.519773922
 20
190.325296668
 11
85.519773922
 21
189.8427464164
  0
LINE
  8
0
 62
9
  6
CONTINUOUS
 10
85.5197822214
 20
189.8427464164
 11
85.5034551905
 21
188.9078469197
  0
POLYLINE
  8
0
 62
9
  6
CONTINUOUS
 66
1
 70
0
  0
VERTEX
  8
0
 62
9
  6
CONTINUOUS
 10
91.1564836094
 20
190.6215153104
  0
VERTEX
  8
0
 62
9
  6
CONTINUOUS
 10
91.1114812927
 20
190.58262208
  0
VERTEX
  8
0
 62
9
  6
CONTINUOUS
 10
91.071229506
 20
190.5340097431
  0
VERTEX
  8
0
 62
9
  6
CONTINUOUS
 10
91.0486263477
 20
190.4736843684
  0
VERTEX
  8
0
 62
9
  6
CONTINUOUS
 10
91.0693802849
 20
190.4049880315
  0
VERTEX
  8
0
 62
9
  6
CONTINUOUS
 10
91.1703178968
 20
190.3456495482
  0
VERTEX
  8
0
 62
9
  6
CONTINUOUS
 10
91.2992796762
 20
190.3300171773
  0
SEQEND
  0
LINE
  8
0
 62
7
  6
CONTINUOUS
 10
91.1766688976
 20
190.2660177814
 11
91.2436016643
 21
190.3226158637
  0
POLYLINE
  8
0
 62
9
  6
CONTINUOUS
 66
1
 70
0
  0
VERTEX
  8
0
 62
9
  6
CONTINUOUS
 10
91.2001684912
 20
190.6531388818
  0
VERTEX
  8
0
 62
9
  6
CONTINUOUS
 10
91.2981003671
 20
190.6014648202
  0
VERTEX
  8
0
 62
9
  6
CONTINUOUS
 10
91.3599524106
 20
190.5393822256
  0
VERTEX
  8
0
 62
9
  6
CONTINUOUS
 10
91.3803812739
 20
190.4722543594
  0
SEQEND
  0
POLYLINE
  8
0
 62
9
  6
CONTINUOUS
 66
1
 70
0
  0
VERTEX
  8
0
 62
9
  6
CONTINUOUS
 10
91.3866941928
 20
190.8340229022
  0
VERTEX
  8
0
 62
9
  6
CONTINUOUS
 10
91.3371236742
 20
190.7521798484
  0
VERTEX
  8
0
 62
9
  6
CONTINUOUS
 10
91.1564836094
 20
190.6215153104
  0
SEQEND
  0
LINE
  8
0
 62
7
  6
CONTINUOUS
 10
91.3206875537
 20
190.3187630121
 11
91.37683229
 21
190.2689332341
  0
LINE
  8
0
 62
9
  6
CONTINUOUS
 10
90.7033028625
 20
188.9078469197
 11
90.6869758607
 21
189.8427464164
  0
LINE
  8
0
 62
7
  6
CONTINUOUS
 10
91.1789419356
 20
190.325296668
 11
91.2033790265
 21
188.925296668
  0
LINE
  8
0
 62
7
  6
CONTINUOUS
 10
91.3533790265
 20
188.925296668
 11
91.4216060962
 21
185.0165704648
  0
LINE
  8
0
 62
9
  6
CONTINUOUS
 10
90.6869841311
 20
190.325296668
 11
90.6869841311
 21
189.8427464164
  0
LINE
  8
0
 62
9
  6
CONTINUOUS
 10
90.7364446366
 20
190.825296668
 11
90.7364446358
 21
190.325296668
  0
LINE
  8
0
 62
9
  6
CONTINUOUS
 10
90.7713547665
 20
193.325296668
 11
90.7713547665
 21
192.825296668
  0
LINE
  8
0
 62
9
  6
CONTINUOUS
 10
90.6534661543
 20
185.6371408662
 11
90.6548070285
 21
185.790778274
  0
LINE
  8
0
 62
9
  6
CONTINUOUS
 10
90.6352280693
 20
184.525296668
 11
90.6387361788
 21
184.7932689019
  0
LINE
  8
0
 62
9
  6
CONTINUOUS
 10
90.7364027547
 20
190.825296668
 11
90.7713575253
 21
192.825296668
  0
LINE
  8
0
 62
9
  6
CONTINUOUS
 10
90.6548070539
 20
185.790778274
 11
90.7033028625
 21
188.9078469197
  0
LINE
  8
0
 62
9
  6
CONTINUOUS
 10
90.6387363144
 20
184.7932689015
 11
90.6534661543
 21
185.6371408662
  0
LINE
  8
0
 62
7
  6
CONTINUOUS
 10
91.1351519568
 20
185.0165704648
 11
91.2033790265
 21
188.925296668
  0
LINE
  8
0
 62
7
  6
CONTINUOUS
 10
91.4216060962
 20
192.8340228712
 11
91.3533790265
 21
188.925296668
  0
LINE
  8
0
 62
9
  6
CONTINUOUS
 10
91.1768138554
 20
190.325296668
 11
91.1744571484
 21
190.2367749721
  0
POLYLINE
  8
0
 62
9
  6
CONTINUOUS
 66
1
 70
0
  0
VERTEX
  8
0
 62
9
  6
CONTINUOUS
 10
91.1744571484
 20
190.2367749721
  0
VERTEX
  8
0
 62
9
  6
CONTINUOUS
 10
91.1651363921
 20
190.118117454
  0
VERTEX
  8
0
 62
9
  6
CONTINUOUS
 10
91.1372961933
 20
189.9840333516
  0
VERTEX
  8
0
 62
9
  6
CONTINUOUS
 10
91.0669222878
 20
189.8706987704
  0
VERTEX
  8
0
 62
9
  6
CONTINUOUS
 10
90.9528265027
 20
189.835450285
  0
SEQEND
  0
POLYLINE
  8
0
 62
7
  6
CONTINUOUS
 66
1
 70
0
  0
VERTEX
  8
0
 62
7
  6
CONTINUOUS
 10
91.1637618546
 20
190.2477221837
  0
VERTEX
  8
0
 62
7
  6
CONTINUOUS
 10
91.1632741438
 20
190.2436854279
  0
VERTEX
  8
0
 62
7
  6
CONTINUOUS
 10
91.1766688976
 20
190.2660177814
  0
SEQEND
  0
LINE
  8
0
 62
9
  6
CONTINUOUS
 10
91.8534551905
 20
188.925296668
 11
91.9215299773
 21
184.5252966682
  0
LINE
  8
0
 62
9
  6
CONTINUOUS
 10
91.9215299641
 20
193.325296668
 11
91.8534551905
 21
188.925296668
  0
LINE
  8
0
 62
9
  6
CONTINUOUS
 10
97.0533790265
 20
193.325296668
 11
97.0533790265
 21
184.525296668
  0
LINE
  8
0
 62
7
  6
CONTINUOUS
 10
97.5533790265
 20
192.825296668
 11
97.5533790265
 21
185.025296668
  0
LINE
  8
1_AXIS
 62
2
  6
CONTINUOUS
 10
151.4619350796
 20
189.805296668
 11
151.4619350796
 21
188.045296668
  0
LINE
  8
0
 62
9
  6
CONTINUOUS
 10
151.4619350796
 20
185.025296668
 11
151.4619350796
 21
184.525296668
  0
LINE
  8
1_AXIS
 62
2
  6
CENTER
 10
151.4619350796
 20
184.525296668
 11
151.4619350796
 21
184.325296668
  0
LINE
  8
0
 62
9
  6
CONTINUOUS
 10
151.4619350796
 20
192.825296668
 11
151.4619350797
 21
193.325296668
  0
LINE
  8
1_AXIS
 62
2
  6
CENTER
 10
151.4619350796
 20
193.325296668
 11
151.4619350796
 21
193.525296668
  0
LINE
  8
0
 62
9
  6
CONTINUOUS
 10
152.6247554027
 20
185.2262585623
 11
152.8747554027
 21
184.7932458605
  0
LINE
  8
0
 62
9
  6
CONTINUOUS
 10
151.8747554027
 20
185.025296668
 11
151.8747554026
 21
184.525296668
  0
LINE
  8
0
 62
7
  6
CONTINUOUS
 10
164.1618937927
 20
184.525296668
 11
163.7491618536
 21
184.525296668
  0
LINE
  8
0
 62
7
  6
CONTINUOUS
 10
151.4619350796
 20
184.525296668
 11
151.8747554027
 21
184.525296668
  0
LINE
  8
0
 62
9
  6
CONTINUOUS
 10
164.1619350796
 20
185.0165704648
 11
163.7491147566
 21
185.0165704648
  0
LINE
  8
0
 62
9
  6
CONTINUOUS
 10
151.4619350796
 20
185.025296668
 11
151.8747554027
 21
185.025296668
  0
LINE
  8
0
 62
9
  6
CONTINUOUS
 10
154.6998842721
 20
186.4243347737
 11
154.9498842719
 21
185.9913220717
  0
POLYLINE
  8
0
 62
9
  6
CONTINUOUS
 66
1
 70
0
  0
VERTEX
  8
0
 62
9
  6
CONTINUOUS
 10
163.7491147566
 20
185.0165704648
  0
VERTEX
  8
0
 62
9
  6
CONTINUOUS
 10
163.3608989342
 20
185.0676783112
  0
VERTEX
  8
0
 62
9
  6
CONTINUOUS
 10
162.9991147566
 20
185.2175323591
  0
SEQEND
  0
LINE
  8
0
 62
9
  6
CONTINUOUS
 10
155.4498842721
 20
186.625296668
 11
155.4498842721
 21
186.125296668
  0
LINE
  8
0
 62
7
  6
CONTINUOUS
 10
155.4498842721
 20
186.125296668
 11
160.1739509791
 21
186.125296668
  0
LINE
  8
0
 62
9
  6
CONTINUOUS
 10
155.4498842721
 20
186.625296668
 11
158.7219350796
 21
186.625296668
  0
LINE
  8
0
 62
9
  6
CONTINUOUS
 10
159.5632361164
 20
186.625296668
 11
159.8468469809
 21
186.625296668
  0
LINE
  8
0
 62
9
  6
CONTINUOUS
 10
159.2219350796
 20
187.125296668
 11
159.7219350796
 21
187.125296668
  0
POLYLINE
  8
0
 62
9
  6
CONTINUOUS
 66
1
 70
0
  0
VERTEX
  8
0
 62
9
  6
CONTINUOUS
 10
159.846847523
 20
186.6252956482
  0
VERTEX
  8
0
 62
9
  6
CONTINUOUS
 10
159.9139093208
 20
186.6022534664
  0
VERTEX
  8
0
 62
9
  6
CONTINUOUS
 10
159.9818896911
 20
186.578364345
  0
VERTEX
  8
0
 62
9
  6
CONTINUOUS
 10
160.0498888792
 20
186.5539323294
  0
SEQEND
  0
POLYLINE
  8
0
 62
9
  6
CONTINUOUS
 66
1
 70
0
  0
VERTEX
  8
0
 62
9
  6
CONTINUOUS
 10
160.3719350798
 20
190.8340229022
  0
VERTEX
  8
0
 62
9
  6
CONTINUOUS
 10
160.1094626296
 20
190.7521799791
  0
VERTEX
  8
0
 62
9
  6
CONTINUOUS
 10
159.873688492
 20
190.6531388821
  0
SEQEND
  0
POLYLINE
  8
0
 62
9
  6
CONTINUOUS
 66
1
 70
0
  0
VERTEX
  8
0
 62
9
  6
CONTINUOUS
 10
160.0498888792
 20
186.5539323294
  0
VERTEX
  8
0
 62
9
  6
CONTINUOUS
 10
160.2519045214
 20
186.4536334145
  0
VERTEX
  8
0
 62
9
  6
CONTINUOUS
 10
160.3650991657
 20
186.3776560053
  0
VERTEX
  8
0
 62
9
  6
CONTINUOUS
 10
160.6072016116
 20
186.1805248148
  0
SEQEND
  0
LINE
  8
0
 62
7
  6
CONTINUOUS
 10
160.6740572177
 20
185.9912808891
 11
162.7491147566
 21
184.7932458605
  0
LINE
  8
1_AXIS
 62
2
  6
CENTER
 10
157.8119350796
 20
182.525296668
 11
157.8119350796
 21
195.3252967578
  0
POLYLINE
  8
0
 62
9
  6
CONTINUOUS
 66
1
 70
0
  0
VERTEX
  8
0
 62
9
  6
CONTINUOUS
 10
159.873688492
 20
190.6531388821
  0
VERTEX
  8
0
 62
9
  6
CONTINUOUS
 10
159.8201445488
 20
190.6215153338
  0
VERTEX
  8
0
 62
9
  6
CONTINUOUS
 10
159.7656704723
 20
190.5826220901
  0
VERTEX
  8
0
 62
9
  6
CONTINUOUS
 10
159.7219350796
 20
190.545811938
  0
SEQEND
  0
LINE
  8
0
 62
9
  6
CONTINUOUS
 10
159.7219350796
 20
188.7698443807
 11
159.776186513
 21
188.7717388825
  0
LINE
  8
0
 62
7
  6
CONTINUOUS
 10
160.2708242033
 20
188.925296668
 11
159.7714335156
 21
188.9078469197
  0
LINE
  8
1_AXIS
 62
2
  6
CONTINUOUS
 10
165.0419350796
 20
188.925296668
 11
163.2819350796
 21
188.925296668
  0
LINE
  8
0
 62
7
  6
CONTINUOUS
 10
161.5619350796
 20
188.925296668
 11
160.2708242033
 21
188.925296668
  0
LINE
  8
1_AXIS
 62
2
  6
CENTER
 10
159.7619350796
 20
188.925296668
 11
159.5619350796
 21
188.925296668
  0
LINE
  8
1_AXIS
 62
2
  6
CONTINUOUS
 10
152.3419350796
 20
188.925296668
 11
150.5819350796
 21
188.925296668
  0
LINE
  8
1_AXIS
 62
2
  6
CENTER
 10
147.0619350796
 20
188.925296668
 11
146.8619350796
 21
188.925296668
  0
LINE
  8
1_AXIS
 62
2
  6
CENTER
 10
155.8619350796
 20
188.925296668
 11
156.0619350796
 21
188.925296668
  0
LINE
  8
0
 62
7
  6
CONTINUOUS
 10
166.7619350796
 20
188.925296668
 11
168.5619340064
 21
188.925296668
  0
LINE
  8
1_AXIS
 62
2
  6
CENTER
 10
168.5619350796
 20
188.925296668
 11
168.7619350796
 21
188.925296668
  0
POLYLINE
  8
0
 62
9
  6
CONTINUOUS
 66
1
 70
0
  0
VERTEX
  8
0
 62
9
  6
CONTINUOUS
 10
159.776186513
 20
188.7717388825
  0
VERTEX
  8
0
 62
9
  6
CONTINUOUS
 10
159.8432344112
 20
188.7697186787
  0
VERTEX
  8
0
 62
9
  6
CONTINUOUS
 10
160.0261220381
 20
188.7729114806
  0
VERTEX
  8
0
 62
9
  6
CONTINUOUS
 10
160.2758819265
 20
188.7804624277
  0
SEQEND
  0
LINE
  8
0
 62
9
  6
CONTINUOUS
 10
162.9991147566
 20
185.2175323591
 11
161.5374457303
 21
186.0614273649
  0
POLYLINE
  8
0
 62
9
  6
CONTINUOUS
 66
1
 70
0
  0
VERTEX
  8
0
 62
9
  6
CONTINUOUS
 10
161.5374457303
 20
186.0614273649
  0
VERTEX
  8
0
 62
9
  6
CONTINUOUS
 10
161.5016859838
 20
186.0841456849
  0
VERTEX
  8
0
 62
9
  6
CONTINUOUS
 10
161.4679728308
 20
186.1098140623
  0
VERTEX
  8
0
 62
9
  6
CONTINUOUS
 10
161.4365544919
 20
186.13824442
  0
SEQEND
  0
POLYLINE
  8
0
 62
9
  6
CONTINUOUS
 66
1
 70
0
  0
VERTEX
  8
0
 62
9
  6
CONTINUOUS
 10
161.0798334721
 20
185.7848570666
  0
VERTEX
  8
0
 62
9
  6
CONTINUOUS
 10
161.1470086867
 20
185.7304856745
  0
VERTEX
  8
0
 62
9
  6
CONTINUOUS
 10
161.2161362722
 20
185.6813568237
  0
VERTEX
  8
0
 62
9
  6
CONTINUOUS
 10
161.2874457303
 20
185.6371408662
  0
SEQEND
  0
POLYLINE
  8
0
 62
9
  6
CONTINUOUS
 66
1
 70
0
  0
VERTEX
  8
0
 62
9
  6
CONTINUOUS
 10
160.6072016116
 20
186.1805248148
  0
VERTEX
  8
0
 62
9
  6
CONTINUOUS
 10
160.8284655285
 20
185.9886575368
  0
VERTEX
  8
0
 62
9
  6
CONTINUOUS
 10
160.9248153155
 20
185.9087563891
  0
VERTEX
  8
0
 62
9
  6
CONTINUOUS
 10
161.0798334721
 20
185.7848570666
  0
SEQEND
  0
POLYLINE
  8
0
 62
9
  6
CONTINUOUS
 66
1
 70
0
  0
VERTEX
  8
0
 62
9
  6
CONTINUOUS
 10
161.108215743
 20
185.7530536086
  0
VERTEX
  8
0
 62
9
  6
CONTINUOUS
 10
161.140017349
 20
185.725375667
  0
VERTEX
  8
0
 62
9
  6
CONTINUOUS
 10
161.1748949292
 20
185.7021221016
  0
SEQEND
  0
LINE
  8
0
 62
9
  6
CONTINUOUS
 10
152.6247554027
 20
185.2262585623
 11
154.6998842721
 21
186.4243347737
  0
POLYLINE
  8
0
 62
9
  6
CONTINUOUS
 66
1
 70
0
  0
VERTEX
  8
0
 62
9
  6
CONTINUOUS
 10
161.4365544919
 20
186.13824442
  0
VERTEX
  8
0
 62
9
  6
CONTINUOUS
 10
161.2383894727
 20
186.3484795754
  0
VERTEX
  8
0
 62
9
  6
CONTINUOUS
 10
160.9098244808
 20
186.7815337069
  0
VERTEX
  8
0
 62
9
  6
CONTINUOUS
 10
160.6561607818
 20
187.231850445
  0
VERTEX
  8
0
 62
9
  6
CONTINUOUS
 10
160.5534954422
 20
187.4655286104
  0
VERTEX
  8
0
 62
9
  6
CONTINUOUS
 10
160.3933866729
 20
187.9570410237
  0
VERTEX
  8
0
 62
9
  6
CONTINUOUS
 10
160.2966674354
 20
188.4921623164
  0
VERTEX
  8
0
 62
9
  6
CONTINUOUS
 10
160.2758819265
 20
188.7804624277
  0
SEQEND
  0
LINE
  8
0
 62
9
  6
CONTINUOUS
 10
161.0798334831
 20
185.7848570778
 11
161.108215743
 21
185.7530536086
  0
LINE
  8
0
 62
9
  6
CONTINUOUS
 10
158.7219350796
 20
186.625296668
 11
158.7219350789
 21
186.125296668
  0
LINE
  8
0
 62
9
  6
CONTINUOUS
 10
159.2219350796
 20
187.125296668
 11
159.2219350796
 21
193.325296668
  0
LINE
  8
0
 62
7
  6
CONTINUOUS
 10
152.8747554027
 20
184.7932458605
 11
154.9498842721
 21
185.9913220718
  0
POLYLINE
  8
0
 62
9
  6
CONTINUOUS
 66
1
 70
0
  0
VERTEX
  8
0
 62
9
  6
CONTINUOUS
 10
159.815481937
 20
189.8354504408
  0
VERTEX
  8
0
 62
9
  6
CONTINUOUS
 10
159.7734376138
 20
189.8383635333
  0
VERTEX
  8
0
 62
9
  6
CONTINUOUS
 10
159.7475422023
 20
189.8408264098
  0
VERTEX
  8
0
 62
9
  6
CONTINUOUS
 10
159.7387860993
 20
189.8427466038
  0
SEQEND
  0
LINE
  8
0
 62
7
  6
CONTINUOUS
 10
159.7761859619
 20
188.7717546635
 11
159.7387861057
 21
189.8427464164
  0
LINE
  8
0
 62
7
  6
CONTINUOUS
 10
159.7219350796
 20
187.125296668
 11
159.7219350796
 21
192.825296668
  0
LINE
  8
0
 62
9
  6
CONTINUOUS
 10
159.8468446213
 20
186.625296668
 11
159.8468446213
 21
186.125296668
  0
POLYLINE
  8
0
 62
9
  6
CONTINUOUS
 66
1
 70
0
  0
VERTEX
  8
0
 62
9
  6
CONTINUOUS
 10
160.2174127018
 20
190.4722543623
  0
VERTEX
  8
0
 62
9
  6
CONTINUOUS
 10
160.2015410614
 20
190.4096387282
  0
VERTEX
  8
0
 62
9
  6
CONTINUOUS
 10
160.1798664923
 20
190.3327235049
  0
VERTEX
  8
0
 62
9
  6
CONTINUOUS
 10
160.1481681914
 20
190.2367626163
  0
VERTEX
  8
0
 62
9
  6
CONTINUOUS
 10
160.0988636697
 20
190.1181214392
  0
VERTEX
  8
0
 62
9
  6
CONTINUOUS
 10
160.021414476
 20
189.9840611833
  0
VERTEX
  8
0
 62
9
  6
CONTINUOUS
 10
159.9132852556
 20
189.8707158316
  0
VERTEX
  8
0
 62
9
  6
CONTINUOUS
 10
159.815481937
 20
189.8354504408
  0
SEQEND
  0
POLYLINE
  8
0
 62
9
  6
CONTINUOUS
 66
1
 70
0
  0
VERTEX
  8
0
 62
9
  6
CONTINUOUS
 10
160.3719812504
 20
190.834063267
  0
VERTEX
  8
0
 62
9
  6
CONTINUOUS
 10
160.3077695641
 20
190.6707480488
  0
VERTEX
  8
0
 62
9
  6
CONTINUOUS
 10
160.2174127018
 20
190.4722543623
  0
SEQEND
  0
POLYLINE
  8
0
 62
9
  6
CONTINUOUS
 66
1
 70
0
  0
VERTEX
  8
0
 62
9
  6
CONTINUOUS
 10
159.7219350796
 20
190.8252966934
  0
VERTEX
  8
0
 62
9
  6
CONTINUOUS
 10
159.7716551181
 20
190.8286432341
  0
VERTEX
  8
0
 62
9
  6
CONTINUOUS
 10
159.9129409979
 20
190.8314752629
  0
VERTEX
  8
0
 62
9
  6
CONTINUOUS
 10
160.1243343397
 20
190.8333651055
  0
VERTEX
  8
0
 62
9
  6
CONTINUOUS
 10
160.3719812514
 20
190.8340230095
  0
SEQEND
  0
POLYLINE
  8
0
 62
9
  6
CONTINUOUS
 66
1
 70
0
  0
VERTEX
  8
0
 62
9
  6
CONTINUOUS
 10
159.7219350796
 20
190.1204401442
  0
VERTEX
  8
0
 62
9
  6
CONTINUOUS
 10
159.7559187044
 20
190.0811332571
  0
VERTEX
  8
0
 62
9
  6
CONTINUOUS
 10
159.8154830738
 20
189.8354504681
  0
SEQEND
  0
POLYLINE
  8
0
 62
9
  6
CONTINUOUS
 66
1
 70
0
  0
VERTEX
  8
0
 62
9
  6
CONTINUOUS
 10
160.0498885853
 20
186.5539321604
  0
VERTEX
  8
0
 62
9
  6
CONTINUOUS
 10
160.0792518701
 20
186.2977680745
  0
VERTEX
  8
0
 62
9
  6
CONTINUOUS
 10
160.1062197458
 20
186.2046200083
  0
VERTEX
  8
0
 62
9
  6
CONTINUOUS
 10
160.1739858869
 20
186.1252912382
  0
SEQEND
  0
POLYLINE
  8
0
 62
9
  6
CONTINUOUS
 66
1
 70
0
  0
VERTEX
  8
0
 62
9
  6
CONTINUOUS
 10
160.6072022217
 20
186.1805252844
  0
VERTEX
  8
0
 62
9
  6
CONTINUOUS
 10
160.6110206031
 20
186.0963550562
  0
VERTEX
  8
0
 62
9
  6
CONTINUOUS
 10
160.6337389374
 20
186.0319913587
  0
VERTEX
  8
0
 62
9
  6
CONTINUOUS
 10
160.6739853096
 20
185.9913210714
  0
SEQEND
  0
LINE
  8
0
 62
9
  6
CONTINUOUS
 10
160.2174127018
 20
190.4722543623
 11
160.2758819265
 21
188.7804624277
  0
LINE
  8
0
 62
9
  6
CONTINUOUS
 10
160.3719812504
 20
190.834063267
 11
160.3719350805
 21
193.325296668
  0
POLYLINE
  8
0
 62
9
  6
CONTINUOUS
 66
1
 70
0
  0
VERTEX
  8
0
 62
9
  6
CONTINUOUS
 10
159.8736884908
 20
190.6531388827
  0
VERTEX
  8
0
 62
9
  6
CONTINUOUS
 10
159.9703137154
 20
190.6014648202
  0
VERTEX
  8
0
 62
9
  6
CONTINUOUS
 10
160.0882856179
 20
190.5393822266
  0
VERTEX
  8
0
 62
9
  6
CONTINUOUS
 10
160.2174127018
 20
190.4722543622
  0
SEQEND
  0
POLYLINE
  8
0
 62
9
  6
CONTINUOUS
 66
1
 70
0
  0
VERTEX
  8
0
 62
9
  6
CONTINUOUS
 10
160.1232730432
 20
192.8333592826
  0
VERTEX
  8
0
 62
9
  6
CONTINUOUS
 10
159.912325111
 20
192.8314672039
  0
VERTEX
  8
0
 62
9
  6
CONTINUOUS
 10
159.7713826565
 20
192.8286344147
  0
VERTEX
  8
0
 62
9
  6
CONTINUOUS
 10
159.7219350796
 20
192.8252966909
  0
SEQEND
  0
LINE
  8
0
 62
9
  6
CONTINUOUS
 10
151.4619350796
 20
192.825296668
 11
159.7219350796
 21
192.825296668
  0
LINE
  8
0
 62
9
  6
CONTINUOUS
 10
164.1619350796
 20
192.8340228712
 11
160.1232730432
 21
192.8333592826
  0
POLYLINE
  8
0
 62
9
  6
CONTINUOUS
 66
1
 70
0
  0
VERTEX
  8
0
 62
9
  6
CONTINUOUS
 10
161.2874457303
 20
185.6371408662
  0
VERTEX
  8
0
 62
9
  6
CONTINUOUS
 10
161.3221853678
 20
185.6929862171
  0
VERTEX
  8
0
 62
9
  6
CONTINUOUS
 10
161.4135240491
 20
185.8480012963
  0
VERTEX
  8
0
 62
9
  6
CONTINUOUS
 10
161.5374457303
 20
186.0614273649
  0
SEQEND
  0
LINE
  8
0
 62
9
  6
CONTINUOUS
 10
161.0856632534
 20
185.7907749765
 11
161.0798334721
 21
185.7848570666
  0
POLYLINE
  8
0
 62
9
  6
CONTINUOUS
 66
1
 70
0
  0
VERTEX
  8
0
 62
9
  6
CONTINUOUS
 10
161.0856634372
 20
185.7907751631
  0
VERTEX
  8
0
 62
9
  6
CONTINUOUS
 10
161.1341152049
 20
185.8356272962
  0
VERTEX
  8
0
 62
9
  6
CONTINUOUS
 10
161.2623563988
 20
185.9626179156
  0
VERTEX
  8
0
 62
9
  6
CONTINUOUS
 10
161.4365544919
 20
186.13824442
  0
SEQEND
  0
LINE
  8
0
 62
7
  6
CONTINUOUS
 10
164.161892829
 20
193.325296668
 11
151.4619350796
 21
193.325296668
  0
LINE
  8
0
 62
9
  6
CONTINUOUS
 10
163.7491147566
 20
184.525296668
 11
163.7491147566
 21
185.0165704648
  0
LINE
  8
1_AXIS
 62
2
  6
CONTINUOUS
 10
164.1619350796
 20
189.805296668
 11
164.1619350796
 21
188.045296668
  0
LINE
  8
1_AXIS
 62
2
  6
CENTER
 10
164.1619350796
 20
184.525296668
 11
164.1619350796
 21
184.325296668
  0
LINE
  8
0
 62
9
  6
CONTINUOUS
 10
164.1619350796
 20
184.525296668
 11
164.1619350796
 21
185.0165704648
  0
LINE
  8
0
 62
9
  6
CONTINUOUS
 10
164.1619350796
 20
192.8340228712
 11
164.1619350796
 21
193.325296668
  0
LINE
  8
1_AXIS
 62
2
  6
CENTER
 10
164.1619350796
 20
193.325296668
 11
164.1619350796
 21
193.525296668
  0
POLYLINE
  8
0
 62
9
  6
CONTINUOUS
 66
1
 70
0
  0
VERTEX
  8
0
 62
9
  6
CONTINUOUS
 10
162.7491147566
 20
184.7932458605
  0
VERTEX
  8
0
 62
9
  6
CONTINUOUS
 10
162.7838543544
 20
184.8490911431
  0
VERTEX
  8
0
 62
9
  6
CONTINUOUS
 10
162.8751930003
 20
185.0041061602
  0
VERTEX
  8
0
 62
9
  6
CONTINUOUS
 10
162.9991147566
 20
185.2175323591
  0
SEQEND
  0
POLYLINE
  8
0
 62
9
  6
CONTINUOUS
 66
1
 70
0
  0
VERTEX
  8
0
 62
9
  6
CONTINUOUS
 10
168.0619253172
 20
188.925296668
  0
VERTEX
  8
0
 62
9
  6
CONTINUOUS
 10
167.9676191597
 20
189.7865182433
  0
VERTEX
  8
0
 62
9
  6
CONTINUOUS
 10
167.6257497271
 20
190.7262227935
  0
VERTEX
  8
0
 62
9
  6
CONTINUOUS
 10
167.1687823365
 20
191.4177433506
  0
VERTEX
  8
0
 62
9
  6
CONTINUOUS
 10
166.6931663682
 20
191.9009854821
  0
VERTEX
  8
0
 62
9
  6
CONTINUOUS
 10
166.1660289213
 20
192.2797077716
  0
VERTEX
  8
0
 62
9
  6
CONTINUOUS
 10
165.5802701141
 20
192.5669728739
  0
VERTEX
  8
0
 62
9
  6
CONTINUOUS
 10
164.9342425443
 20
192.756788961
  0
VERTEX
  8
0
 62
9
  6
CONTINUOUS
 10
164.1619350796
 20
192.8340228712
  0
SEQEND
  0
POLYLINE
  8
0
 62
9
  6
CONTINUOUS
 66
1
 70
0
  0
VERTEX
  8
0
 62
9
  6
CONTINUOUS
 10
168.0619253172
 20
188.925296668
  0
VERTEX
  8
0
 62
9
  6
CONTINUOUS
 10
167.9674764271
 20
188.0634378599
  0
VERTEX
  8
0
 62
9
  6
CONTINUOUS
 10
167.6247993968
 20
187.1225348575
  0
VERTEX
  8
0
 62
9
  6
CONTINUOUS
 10
167.1675016222
 20
186.4313003067
  0
VERTEX
  8
0
 62
9
  6
CONTINUOUS
 10
166.6919281751
 20
185.9485519383
  0
VERTEX
  8
0
 62
9
  6
CONTINUOUS
 10
166.1650093571
 20
185.5702750435
  0
VERTEX
  8
0
 62
9
  6
CONTINUOUS
 10
165.5795587901
 20
185.2833428352
  0
VERTEX
  8
0
 62
9
  6
CONTINUOUS
 10
164.9339041094
 20
185.0937360132
  0
VERTEX
  8
0
 62
9
  6
CONTINUOUS
 10
164.1619350796
 20
185.0165704648
  0
SEQEND
  0
ARC
  8
0
 62
7
  6
CONTINUOUS
 10
60.2133790265
 20
122.7380254186
 40
0.5
 50
90.0
 51
180.0
  0
ARC
  8
0
 62
7
  6
CONTINUOUS
 10
97.0533790265
 20
102.2380254186
 40
0.5
 50
270.0
 51
360.0
  0
ARC
  8
0
 62
7
  6
CONTINUOUS
 10
60.2133790265
 20
111.0780254186
 40
0.5
 50
180.0
 51
270.0
  0
ARC
  8
0
 62
7
  6
CONTINUOUS
 10
97.0533790265
 20
113.8980254186
 40
0.5
 50
0.0
 51
90.0
  0
ARC
  8
0
 62
7
  6
CONTINUOUS
 10
62.0833790265
 20
186.625296668
 40
0.5
 50
270.0
 51
360.0
  0
ARC
  8
0
 62
7
  6
CONTINUOUS
 10
77.9352281358
 20
185.0252981899
 40
0.5
 50
269.9999969559
 51
358.9998255771
  0
ARC
  8
0
 62
7
  6
CONTINUOUS
 10
65.2352281358
 20
185.0252981899
 40
0.5
 50
269.9999969559
 51
358.9998255771
  0
ARC
  8
0
 62
7
  6
CONTINUOUS
 10
72.8715299438
 20
185.025296668
 40
0.5
 50
181.0
 51
270.0
  0
ARC
  8
0
 62
7
  6
CONTINUOUS
 10
60.2133790265
 20
186.625296668
 40
0.5
 50
180.0
 51
270.0
  0
ARC
  8
0
 62
7
  6
CONTINUOUS
 10
60.2133790265
 20
185.025296668
 40
0.5
 50
180.0
 51
270.0
  0
ARC
  8
0
 62
7
  6
CONTINUOUS
 10
70.7152281155
 20
185.0252970232
 40
0.5
 50
269.9999992896
 51
358.9999592978
  0
ARC
  8
0
 62
7
  6
CONTINUOUS
 10
66.5215299172
 20
185.0252981899
 40
0.5
 50
181.0001744229
 51
270.0000030441
  0
ARC
  8
0
 62
7
  6
CONTINUOUS
 10
60.2133790265
 20
192.825296668
 40
0.5
 50
90.0
 51
180.0
  0
ARC
  8
0
 62
7
  6
CONTINUOUS
 10
71.5852281093
 20
192.825296668
 40
0.5
 50
1.0
 51
90.0
  0
ARC
  8
0
 62
7
  6
CONTINUOUS
 10
66.5215180833
 20
192.825296668
 40
0.4999948441
 50
89.9986409126
 51
178.9999762797
  0
ARC
  8
0
 62
7
  6
CONTINUOUS
 10
70.715238779
 20
192.825296668
 40
0.499994666
 50
1.000021339
 51
90.001222659
  0
ARC
  8
0
 62
7
  6
CONTINUOUS
 10
63.0833679171
 20
189.8253077774
 40
0.4999944453
 50
89.9987269254
 51
180.0012730632
  0
ARC
  8
0
 62
7
  6
CONTINUOUS
 10
85.5715299438
 20
185.025296668
 40
0.5
 50
181.0
 51
270.0
  0
ARC
  8
0
 62
7
  6
CONTINUOUS
 10
90.6352281093
 20
185.025296668
 40
0.5
 50
270.0
 51
359.0
  0
ARC
  8
0
 62
7
  6
CONTINUOUS
 10
97.0533790265
 20
185.025296668
 40
0.5
 50
270.0
 51
360.0
  0
ARC
  8
0
 62
7
  6
CONTINUOUS
 10
91.9215299438
 20
185.025296668
 40
0.5
 50
181.0
 51
270.0
  0
ARC
  8
0
 62
7
  6
CONTINUOUS
 10
84.2852281167
 20
185.0252970941
 40
0.5
 50
269.9999991478
 51
358.9999511703
  0
ARC
  8
0
 62
7
  6
CONTINUOUS
 10
79.2215299438
 20
185.025296668
 40
0.5
 50
181.0
 51
270.0
  0
ARC
  8
0
 62
7
  6
CONTINUOUS
 10
97.0533790265
 20
192.825296668
 40
0.5
 50
0.0
 51
90.0
  0
ARC
  8
0
 62
7
  6
CONTINUOUS
 10
91.9215299354
 20
192.8252961881
 40
0.5
 50
89.99999904
 51
178.9999449957
  0
ARC
  8
0
 62
7
  6
CONTINUOUS
 10
79.2215299354
 20
192.8252961881
 40
0.5
 50
89.99999904
 51
178.9999449957
  0
ARC
  8
0
 62
7
  6
CONTINUOUS
 10
84.2852363216
 20
192.825296668
 40
0.49999643
 50
1.0000164243
 51
90.0009410652
  0
ARC
  8
0
 62
7
  6
CONTINUOUS
 10
151.8747554027
 20
186.525296668
 40
2.0
 50
269.9986507712
 51
300.0013201543
  0
ARC
  8
0
 62
9
  6
CONTINUOUS
 10
151.8747554027
 20
186.525296668
 40
1.5
 50
270.0
 51
300.0
  0
ARC
  8
0
 62
7
  6
CONTINUOUS
 10
151.4619350796
 20
188.925296668
 40
4.4
 50
90.0
 51
270.0005602208
  0
ARC
  8
0
 62
9
  6
CONTINUOUS
 10
151.4619350796
 20
188.925296668
 40
3.9
 50
90.0
 51
270.0
  0
CIRCLE
  8
1_AXIS
 62
7
  6
CONTINUOUS
 10
151.4619350796
 20
188.925296668
 40
2.6
  0
ARC
  8
0
 62
9
  6
CONTINUOUS
 10
155.4498842721
 20
185.125296668
 40
1.5
 50
90.0
 51
120.0
  0
ARC
  8
0
 62
7
  6
CONTINUOUS
 10
155.4498842721
 20
185.125296668
 40
1.0
 50
90.0
 51
120.0
  0
ARC
  8
0
 62
7
  6
CONTINUOUS
 10
160.1739858872
 20
185.125296668
 40
1.0
 50
59.9952807705
 51
90.0020000773
  0
ARC
  8
0
 62
7
  6
CONTINUOUS
 10
158.7219350796
 20
187.125296668
 40
1.0
 50
270.0
 51
360.0
  0
ARC
  8
0
 62
9
  6
CONTINUOUS
 10
158.7219350796
 20
187.125296668
 40
0.5
 50
270.0
 51
360.0
  0
ARC
  8
0
 62
7
  6
CONTINUOUS
 10
163.7491147566
 20
186.525296668
 40
2.0
 50
239.9986798471
 51
270.0013492283
  0
ARC
  8
0
 62
7
  6
CONTINUOUS
 10
161.7874457303
 20
186.50316627
 40
1.0
 50
225.4295360177
 51
240.0
  0
ARC
  8
0
 62
9
  6
CONTINUOUS
 10
164.1735061518
 20
188.925296668
 40
4.9
 50
203.9275074194
 51
207.9945746829
  0
ARC
  8
0
 62
7
  6
CONTINUOUS
 10
164.1619350796
 20
188.925296668
 40
4.4
 50
269.9994623708
 51
90.0005501786
  0
ARC
  8
0
 62
7
  6
CONTINUOUS
 10
164.1735061518
 20
188.925296668
 40
4.4
 50
181.9997943786
 51
225.4297493635
  0
CIRCLE
  8
0
 62
7
  6
CONTINUOUS
 10
164.1619350796
 20
188.925296668
 40
2.6
  0
ARC
  8
0
 62
7
  6
CONTINUOUS
 10
159.2219445092
 20
192.825296668
 40
0.4999959002
 50
0.0
 51
90.0
  0
ARC
  8
0
 62
7
  6
CONTINUOUS
 10
159.2391003929
 20
189.825296668
 40
0.4999951526
 50
2.0000387955
 51
8.8070899433
  0
ENDSEC
  0
EOF
