  0
SECTION
  2
HEADER
  9
$EXTMAX
 10
210.0
 20
297.0
 30
0.0
  9
$EXTMIN
 10
0.0
 20
0.0
 30
0.0
  9
$LIMMIN
 10
0.0
 20
0.0
  9
$LIMMAX
 10
210.0
 20
297.0
  9
$VIEWCTR
 10
105.0
 20
148.5
  9
$VIEWSIZE
 40
297.0
  9
$CLAYER
  8
0
  9
$LTSCALE
 40
19.36
  9
$CELTYPE
  6
BYLAYER
  9
$DIMSCALE
 40
1.0
  9
$DIMASZ
 40
3.5
  9
$DIMEXO
 40
1.0
  9
$DIMDLI
 40
13.376
  9
$DIMEXE
 40
2.0
  9
$DIMCEN
 40
3.168
  9
$DIMLFAC
 40
0.5
  9
$DIMBLK
  1
_FILLED
  9
$DIMALT
 70
0
  9
$DIMALTF
 40
0.0393700787
  9
$DIMTXT
 40
3.5
  9
$AUNITS
 70
0
  9
$PDMODE
 70
3
  9
$PDSIZE
 40
0.3125
  9
$TILEMODE
 70
1
  0
ENDSEC
  0
SECTION
  2
TABLES
  0
TABLE
  2
LTYPE
 70
6
  0
LTYPE
  2
BYBLOCK
 70
0
  3

 72
65
 73
0
 40
0.0
  0
LTYPE
  2
BYLAYER
 70
0
  3

 72
65
 73
0
 40
0.0
  0
LTYPE
  2
CONTINUOUS
 70
64
  3
Solid line
 72
65
 73
0
 40
0.0
  0
LTYPE
  2
CENTER
 70
64
  3
____ _ ____ _ ____ _ ____ _ ____ _ ____ _ ____
 72
65
 73
4
 40
0.6
 49
0.375
 49
-0.075
 49
0.075
 49
-0.075
  0
LTYPE
  2
HIDDEN
 70
64
  3
- - - - - - - - - - - - - - - - - - - -
 72
65
 73
2
 40
0.2
 49
0.1
 49
-0.1
  0
LTYPE
  2
PHANTOM
 70
64
  3
_____ _ _ _____ _ _ _____ _ _ _____
 72
65
 73
6
 40
0.8
 49
0.45
 49
-0.05
 49
0.1
 49
-0.05
 49
0.1
 49
-0.05
  0
LTYPE
  2
DOT
 70
64
  3
. . . . . . . . . . . . . . . . . . . .
 72
65
 73
2
 40
0.2
 49
0.1
 49
-0.1
  0
LTYPE
  2
DASHED
 70
64
  3
- - - - - - - - - - - - - - - - - - - -
 72
65
 73
2
 40
0.2
 49
0.1
 49
-0.1
  0
ENDTAB
  0
TABLE
  2
LAYER
 70
36
  0
LAYER
  2
0
 70
0
 62
7
  6
CONTINUOUS
  0
LAYER
  2
DEFAULT_1
 70
0
 62
7
  6
CENTER
  0
LAYER
  2
DEFAULT_2
 70
0
 62
8
  6
HIDDEN
  0
LAYER
  2
DEFAULT_3
 70
0
 62
7
  6
PHANTOM
  0
LAYER
  2
1_AXIS
 70
0
 62
7
  6
CONTINUOUS
  0
LAYER
  2
1_CSYS
 70
0
 62
7
  6
CONTINUOUS
  0
LAYER
  2
1_DATUM_PLANE
 70
0
 62
7
  6
CONTINUOUS
  0
LAYER
  2
1_DATUM_PLANES
 70
0
 62
7
  6
CONTINUOUS
  0
LAYER
  2
2_FEATURE
 70
0
 62
7
  6
CONTINUOUS
  0
LAYER
  2
4_QUILT
 70
0
 62
7
  6
CONTINUOUS
  0
LAYER
  2
4_SURFACE
 70
0
 62
7
  6
CONTINUOUS
  0
LAYER
  2
6_DIM
 70
0
 62
7
  6
CONTINUOUS
  0
LAYER
  2
BLANK_COPY
 70
0
 62
7
  6
CONTINUOUS
  0
LAYER
  2
CSYS
 70
0
 62
7
  6
CONTINUOUS
  0
LAYER
  2
XSEC_DATUMS
 70
0
 62
7
  6
CONTINUOUS
  0
ENDTAB
  0
TABLE
  2
STYLE
 70
1
  0
STYLE
  2
STANDARD
 70
0
 40
0.0
 41
0.8
 50
0.0
 71
0
 42
0.2
  3
txt
  4

  0
STYLE
  2
TEXTSTYLE_1
 70
0
 40
0.0
 41
0.8
 50
0.0
 71
0
 42
0.2
  3
gdt
  4

  0
STYLE
  2
TEXTSTYLE_2
 70
0
 40
0.0
 41
0.6
 50
0.0
 71
0
 42
0.2
  3
txt
  4

  0
STYLE
  2
TEXTSTYLE_3
 70
0
 40
0.0
 41
1.0
 50
0.0
 71
0
 42
0.2
  3
ftb_____.ttf
  4

  0
STYLE
  2
TEXTSTYLE_4
 70
0
 40
0.0
 41
1.0
 50
0.0
 71
0
 42
0.2
  3
fti_____.ttf
  4

  0
STYLE
  2
TEXTSTYLE_5
 70
0
 40
0.0
 41
1.0
 50
0.0
 71
0
 42
0.2
  3
frutiger light.ttf
  4

  0
STYLE
  2
TEXTSTYLE_6
 70
0
 40
0.0
 41
0.7
 50
0.0
 71
0
 42
0.2
  3
txt
  4

  0
STYLE
  2
TEXTSTYLE_7
 70
0
 40
0.0
 41
0.8
 50
0.0
 71
0
 42
0.2
  3
txt
  4

  0
ENDTAB
  0
ENDSEC
  0
SECTION
  2
BLOCKS
  0
BLOCK
  8
0
 62
2
  6
CONTINUOUS
  2
UNI_LOGO2_BL1
 70
64
 10
173.5956734183
 20
35.5937998301
  0
TEXT
  8
0
 62
7
  6
CONTINUOUS
 10
164.6539584268
 20
30.6865562072
  7
TEXTSTYLE_4
 40
1.0655737705
  1
The brand for plastic modular belts and chains
 41
1.0
 72
0
  0
LINE
  8
0
 62
7
  6
CONTINUOUS
 10
149.5737418074
 20
36.1675703219
 11
149.5737418074
 21
34.0364227809
  0
LINE
  8
0
 62
7
  6
CONTINUOUS
 10
149.8628043005
 20
31.0454914852
 11
149.8628043005
 21
31.1422825445
  0
LINE
  8
0
 62
7
  6
CONTINUOUS
 10
149.5737418074
 20
31.1100188581
 11
149.6315543091
 21
30.9164367395
  0
LINE
  8
0
 62
7
  6
CONTINUOUS
 10
150.9671844304
 20
33.9544555678
 11
150.9671844304
 21
36.1675703219
  0
LINE
  8
0
 62
7
  6
CONTINUOUS
 10
151.8862417523
 20
32.1101932727
 11
151.8862417523
 21
30.5937998301
  0
LINE
  8
0
 62
7
  6
CONTINUOUS
 10
152.1753043074
 20
30.5937998301
 11
152.1753043074
 21
31.3358647082
  0
LINE
  8
0
 62
7
  6
CONTINUOUS
 10
152.1753043074
 20
31.4649194539
 11
152.1753043074
 21
32.1101932727
  0
LINE
  8
0
 62
7
  6
CONTINUOUS
 10
149.6315543091
 20
31.3036010218
 11
149.5737418074
 21
31.1100188581
  0
LINE
  8
0
 62
7
  6
CONTINUOUS
 10
149.9784292936
 20
30.8841730531
 11
149.8628043005
 21
31.0454914852
  0
LINE
  8
0
 62
7
  6
CONTINUOUS
 10
151.0768668626
 20
31.400392081
 11
151.1346793074
 21
31.3036010218
  0
LINE
  8
0
 62
7
  6
CONTINUOUS
 10
151.4237418626
 20
31.3036010218
 11
151.3659292523
 21
31.4326557675
  0
LINE
  8
0
 62
7
  6
CONTINUOUS
 10
152.852430332
 20
36.1675703219
 11
152.852430332
 21
34.3642916334
  0
LINE
  8
0
 62
7
  6
CONTINUOUS
 10
152.852430332
 20
33.0528162235
 11
152.852430332
 21
32.3970785186
  0
LINE
  8
0
 62
7
  6
CONTINUOUS
 10
153.2159293074
 20
31.2390736489
 11
153.2159293074
 21
30.5937998301
  0
LINE
  8
0
 62
7
  6
CONTINUOUS
 10
153.5049916972
 20
30.5937998301
 11
153.5049916972
 21
31.2390736489
  0
LINE
  8
0
 62
7
  6
CONTINUOUS
 10
149.8628043005
 20
31.1422825445
 11
149.9206168074
 21
31.2713373354
  0
LINE
  8
0
 62
7
  6
CONTINUOUS
 10
149.6315543091
 20
30.9164367395
 11
149.7471793074
 21
30.7873819712
  0
LINE
  8
0
 62
7
  6
CONTINUOUS
 10
153.1581166972
 20
31.3681283946
 11
153.2159293074
 21
31.2390736489
  0
LINE
  8
0
 62
7
  6
CONTINUOUS
 10
153.9674919177
 20
30.8841730531
 11
154.0253041972
 21
30.7551182848
  0
LINE
  8
0
 62
7
  6
CONTINUOUS
 10
153.5049916972
 20
31.2390736489
 11
153.4471794177
 21
31.400392081
  0
LINE
  8
0
 62
7
  6
CONTINUOUS
 10
153.9674919177
 20
31.4326557675
 11
153.9674919177
 21
31.3681283946
  0
LINE
  8
0
 62
7
  6
CONTINUOUS
 10
153.9674919177
 20
30.9809641124
 11
153.9674919177
 21
30.8841730531
  0
LINE
  8
0
 62
7
  6
CONTINUOUS
 10
154.245872955
 20
32.3970785186
 11
154.245872955
 21
36.1675703219
  0
LINE
  8
0
 62
7
  6
CONTINUOUS
 10
154.2565543074
 20
30.8519093441
 11
154.2565543074
 21
30.9164367395
  0
LINE
  8
0
 62
7
  6
CONTINUOUS
 10
154.5737418074
 20
36.1675703219
 11
154.5737418074
 21
32.3970785186
  0
LINE
  8
0
 62
7
  6
CONTINUOUS
 10
151.3659292523
 20
30.7873819712
 11
151.4237418626
 21
30.9164367395
  0
LINE
  8
0
 62
7
  6
CONTINUOUS
 10
155.759679528
 20
30.6905909007
 11
155.7018665869
 21
30.8519093441
  0
LINE
  8
0
 62
7
  6
CONTINUOUS
 10
155.412804528
 20
31.3681283946
 11
155.412804528
 21
31.2713373354
  0
LINE
  8
0
 62
7
  6
CONTINUOUS
 10
155.412804528
 20
31.1422825445
 11
155.412804528
 21
30.9487004259
  0
LINE
  8
0
 62
7
  6
CONTINUOUS
 10
155.7018665869
 20
30.8519093441
 11
155.7018665869
 21
31.3681283946
  0
LINE
  8
0
 62
7
  6
CONTINUOUS
 10
155.9671844304
 20
32.3970785186
 11
155.9671844304
 21
34.2003572071
  0
LINE
  8
0
 62
7
  6
CONTINUOUS
 10
155.9671844304
 20
35.511832617
 11
155.9671844304
 21
36.1675703219
  0
LINE
  8
0
 62
7
  6
CONTINUOUS
 10
156.279992028
 20
32.1101932727
 11
156.279992028
 21
31.9488748406
  0
LINE
  8
0
 62
7
  6
CONTINUOUS
 10
156.279992028
 20
31.626237886
 11
156.279992028
 21
30.5937998301
  0
LINE
  8
0
 62
7
  6
CONTINUOUS
 10
156.5690540869
 20
30.5937998301
 11
156.5690540869
 21
31.626237886
  0
LINE
  8
0
 62
7
  6
CONTINUOUS
 10
156.5690540869
 20
31.9488748406
 11
156.5690540869
 21
32.1101932727
  0
LINE
  8
0
 62
7
  6
CONTINUOUS
 10
151.1346793074
 20
30.9164367395
 11
151.0768668626
 21
30.8196456577
  0
LINE
  8
0
 62
7
  6
CONTINUOUS
 10
153.4471794177
 20
31.400392081
 11
153.3893668074
 21
31.4649194539
  0
LINE
  8
0
 62
7
  6
CONTINUOUS
 10
154.3143669177
 20
30.7873819712
 11
154.2565543074
 21
30.8519093441
  0
LINE
  8
0
 62
7
  6
CONTINUOUS
 10
155.4706168074
 20
30.6583272086
 11
155.5284290869
 21
30.5937998301
  0
LINE
  8
0
 62
7
  6
CONTINUOUS
 10
155.412804528
 20
30.7551182848
 11
155.4706168074
 21
30.6583272086
  0
LINE
  8
0
 62
7
  6
CONTINUOUS
 10
155.8174918074
 20
30.5937998301
 11
155.759679528
 21
30.6905909007
  0
LINE
  8
0
 62
7
  6
CONTINUOUS
 10
155.7018665869
 20
31.3681283946
 11
155.6440543074
 21
31.4649194539
  0
LINE
  8
0
 62
7
  6
CONTINUOUS
 10
157.0315543074
 20
31.626237886
 11
157.0315543074
 21
30.5937998301
  0
LINE
  8
0
 62
7
  6
CONTINUOUS
 10
157.320617028
 20
30.5937998301
 11
157.320617028
 21
31.3358647082
  0
LINE
  8
0
 62
7
  6
CONTINUOUS
 10
157.320617028
 20
31.4649194539
 11
157.320617028
 21
31.626237886
  0
LINE
  8
0
 62
7
  6
CONTINUOUS
 10
157.852430332
 20
34.6101932727
 11
157.852430332
 21
32.3970785186
  0
LINE
  8
0
 62
7
  6
CONTINUOUS
 10
149.7471793074
 20
31.4326557675
 11
149.6315543091
 21
31.3036010218
  0
LINE
  8
0
 62
7
  6
CONTINUOUS
 10
149.9206168074
 20
31.2713373354
 11
149.9784292936
 21
31.3358647082
  0
LINE
  8
0
 62
7
  6
CONTINUOUS
 10
149.7471793074
 20
30.7873819712
 11
149.8628043005
 21
30.7228545871
  0
LINE
  8
0
 62
7
  6
CONTINUOUS
 10
150.1518667936
 20
30.7873819712
 11
149.9784292936
 21
30.8841730531
  0
LINE
  8
0
 62
7
  6
CONTINUOUS
 10
155.3549915869
 20
31.4326557675
 11
155.412804528
 21
31.3681283946
  0
LINE
  8
0
 62
7
  6
CONTINUOUS
 10
158.3034290869
 20
31.3681283946
 11
158.361242028
 21
31.2068099625
  0
LINE
  8
0
 62
7
  6
CONTINUOUS
 10
158.6503040869
 20
31.2068099625
 11
158.5924918074
 21
31.3681283946
  0
LINE
  8
0
 62
7
  6
CONTINUOUS
 10
158.361242028
 20
31.2068099625
 11
158.361242028
 21
30.5937998301
  0
LINE
  8
0
 62
7
  6
CONTINUOUS
 10
158.6503040869
 20
30.5937998301
 11
158.6503040869
 21
31.2068099625
  0
LINE
  8
0
 62
7
  6
CONTINUOUS
 10
159.1128043074
 20
31.4326557675
 11
159.1128043074
 21
31.3681283946
  0
LINE
  8
0
 62
7
  6
CONTINUOUS
 10
159.245872955
 20
32.3970785186
 11
159.245872955
 21
34.5282260596
  0
LINE
  8
0
 62
7
  6
CONTINUOUS
 10
159.5737418074
 20
36.1675703219
 11
159.5737418074
 21
32.3970785186
  0
LINE
  8
0
 62
7
  6
CONTINUOUS
 10
154.2565543074
 20
30.9164367395
 11
154.3143669177
 21
31.0132277988
  0
LINE
  8
0
 62
7
  6
CONTINUOUS
 10
149.8628043005
 20
30.7228545871
 11
150.0362418212
 21
30.6583272086
  0
LINE
  8
0
 62
7
  6
CONTINUOUS
 10
151.3659292523
 20
31.4326557675
 11
151.1924917523
 21
31.5294468267
  0
LINE
  8
0
 62
7
  6
CONTINUOUS
 10
154.0253041972
 20
30.7551182848
 11
154.1987416972
 21
30.6583272086
  0
LINE
  8
0
 62
7
  6
CONTINUOUS
 10
153.0424918074
 20
31.4326557675
 11
153.1581166972
 21
31.3681283946
  0
LINE
  8
0
 62
7
  6
CONTINUOUS
 10
153.3893668074
 20
31.4649194539
 11
153.2737419177
 21
31.5294468267
  0
LINE
  8
0
 62
7
  6
CONTINUOUS
 10
159.1128043074
 20
30.8519093441
 11
159.228429528
 21
30.7228545871
  0
LINE
  8
0
 62
7
  6
CONTINUOUS
 10
159.4596793074
 20
30.7873819712
 11
159.401867028
 21
30.8519093441
  0
LINE
  8
0
 62
7
  6
CONTINUOUS
 10
159.1128043074
 20
31.3681283946
 11
159.228429528
 21
31.2390736489
  0
LINE
  8
0
 62
7
  6
CONTINUOUS
 10
158.5924918074
 20
31.3681283946
 11
158.534679528
 21
31.4649194539
  0
LINE
  8
0
 62
7
  6
CONTINUOUS
 10
160.9628038663
 20
30.7873819712
 11
160.9628038663
 21
30.8519093441
  0
LINE
  8
0
 62
7
  6
CONTINUOUS
 10
160.9671844304
 20
32.3970785186
 11
160.9671844304
 21
36.1675703219
  0
LINE
  8
0
 62
7
  6
CONTINUOUS
 10
154.0253041972
 20
31.4971831403
 11
153.9674919177
 21
31.4326557675
  0
LINE
  8
0
 62
7
  6
CONTINUOUS
 10
150.9034292799
 20
31.4649194539
 11
151.0768668626
 21
31.400392081
  0
LINE
  8
0
 62
7
  6
CONTINUOUS
 10
155.6440543074
 20
31.4649194539
 11
155.5284290869
 21
31.5294468267
  0
LINE
  8
0
 62
7
  6
CONTINUOUS
 10
159.4596793074
 20
31.3036010218
 11
159.401867028
 21
31.3681283946
  0
LINE
  8
0
 62
7
  6
CONTINUOUS
 10
160.615929528
 20
30.9164367395
 11
160.6737418074
 21
30.8519093441
  0
LINE
  8
0
 62
7
  6
CONTINUOUS
 10
160.9628038663
 20
30.8519093441
 11
160.8471793074
 21
30.9809641124
  0
LINE
  8
0
 62
7
  6
CONTINUOUS
 10
160.615929528
 20
31.4326557675
 11
160.6737418074
 21
31.3681283946
  0
LINE
  8
0
 62
7
  6
CONTINUOUS
 10
160.9628038663
 20
31.3681283946
 11
160.8471793074
 21
31.4971831403
  0
LINE
  8
0
 62
7
  6
CONTINUOUS
 10
154.2565543074
 20
31.3681283946
 11
154.3143669177
 21
31.4326557675
  0
LINE
  8
0
 62
7
  6
CONTINUOUS
 10
154.0831168074
 20
31.1100188581
 11
153.9674919177
 21
30.9809641124
  0
LINE
  8
0
 62
7
  6
CONTINUOUS
 10
155.412804528
 20
30.9487004259
 11
155.3549915869
 21
30.8841730531
  0
LINE
  8
0
 62
7
  6
CONTINUOUS
 10
155.3549915869
 20
30.6905909007
 11
155.412804528
 21
30.7551182848
  0
LINE
  8
0
 62
7
  6
CONTINUOUS
 10
154.1987416972
 20
30.6583272086
 11
154.3143669177
 21
30.6260635193
  0
LINE
  8
0
 62
7
  6
CONTINUOUS
 10
151.1924917523
 20
31.5294468267
 11
150.9612418074
 21
31.5939741996
  0
LINE
  8
0
 62
7
  6
CONTINUOUS
 10
154.5456166972
 20
30.7228545871
 11
154.3143669177
 21
30.7873819712
  0
LINE
  8
0
 62
7
  6
CONTINUOUS
 10
153.2737419177
 20
31.5294468267
 11
153.1003044177
 21
31.5939741996
  0
LINE
  8
0
 62
7
  6
CONTINUOUS
 10
155.5284290869
 20
31.5294468267
 11
155.3549915869
 21
31.5939741996
  0
LINE
  8
0
 62
7
  6
CONTINUOUS
 10
158.187804528
 20
31.4326557675
 11
158.3034290869
 21
31.3681283946
  0
LINE
  8
0
 62
7
  6
CONTINUOUS
 10
158.534679528
 20
31.4649194539
 11
158.4190543074
 21
31.5294468267
  0
LINE
  8
0
 62
7
  6
CONTINUOUS
 10
150.0362418212
 20
30.6583272086
 11
150.2096793212
 21
30.6260635193
  0
LINE
  8
0
 62
7
  6
CONTINUOUS
 10
150.498741835
 20
30.7228545871
 11
150.1518667936
 21
30.7873819712
  0
LINE
  8
0
 62
7
  6
CONTINUOUS
 10
152.9268669177
 20
31.4649194539
 11
153.0424918074
 21
31.4326557675
  0
LINE
  8
0
 62
7
  6
CONTINUOUS
 10
155.239367028
 20
31.4649194539
 11
155.3549915869
 21
31.4326557675
  0
LINE
  8
0
 62
7
  6
CONTINUOUS
 10
159.575304528
 20
30.7551182848
 11
159.4596793074
 21
30.7873819712
  0
LINE
  8
0
 62
7
  6
CONTINUOUS
 10
158.0721793074
 20
31.4649194539
 11
158.187804528
 21
31.4326557675
  0
LINE
  8
0
 62
7
  6
CONTINUOUS
 10
159.228429528
 20
30.7228545871
 11
159.401867028
 21
30.6583272086
  0
LINE
  8
0
 62
7
  6
CONTINUOUS
 10
158.4190543074
 20
31.5294468267
 11
158.2456168074
 21
31.5939741996
  0
LINE
  8
0
 62
7
  6
CONTINUOUS
 10
159.6331168074
 20
31.2390736489
 11
159.4596793074
 21
31.3036010218
  0
LINE
  8
0
 62
7
  6
CONTINUOUS
 10
160.442492028
 20
30.9809641124
 11
160.615929528
 21
30.9164367395
  0
LINE
  8
0
 62
7
  6
CONTINUOUS
 10
160.8471793074
 20
31.4971831403
 11
160.6737418074
 21
31.5617105132
  0
LINE
  8
0
 62
7
  6
CONTINUOUS
 10
159.228429528
 20
31.2390736489
 11
159.4596793074
 21
31.1422825445
  0
LINE
  8
0
 62
7
  6
CONTINUOUS
 10
160.8471793074
 20
30.9809641124
 11
160.615929528
 21
31.0777551716
  0
LINE
  8
0
 62
7
  6
CONTINUOUS
 10
159.401867028
 20
31.3681283946
 11
159.4596793074
 21
31.4326557675
  0
LINE
  8
0
 62
7
  6
CONTINUOUS
 10
149.8628043005
 20
31.4971831403
 11
149.7471793074
 21
31.4326557675
  0
LINE
  8
0
 62
7
  6
CONTINUOUS
 10
149.9784292936
 20
31.3358647082
 11
150.1518667936
 21
31.4326557675
  0
LINE
  8
0
 62
7
  6
CONTINUOUS
 10
152.2909293626
 20
31.5294468267
 11
152.1753043074
 21
31.4649194539
  0
LINE
  8
0
 62
7
  6
CONTINUOUS
 10
152.1753043074
 20
31.3358647082
 11
152.2909293626
 21
31.400392081
  0
LINE
  8
0
 62
7
  6
CONTINUOUS
 10
151.1924917523
 20
30.6905909007
 11
151.3659292523
 21
30.7873819712
  0
LINE
  8
0
 62
7
  6
CONTINUOUS
 10
150.2096793212
 20
30.6260635193
 11
150.5565542799
 21
30.5937998301
  0
LINE
  8
0
 62
7
  6
CONTINUOUS
 10
154.3143669177
 20
30.6260635193
 11
154.5456166972
 21
30.5937998301
  0
LINE
  8
0
 62
7
  6
CONTINUOUS
 10
152.6956168074
 20
31.4971831403
 11
152.9268669177
 21
31.4649194539
  0
LINE
  8
0
 62
7
  6
CONTINUOUS
 10
155.0081169177
 20
31.4971831403
 11
155.239367028
 21
31.4649194539
  0
LINE
  8
0
 62
7
  6
CONTINUOUS
 10
159.4596793074
 20
31.1422825445
 11
160.442492028
 21
30.9809641124
  0
LINE
  8
0
 62
7
  6
CONTINUOUS
 10
160.615929528
 20
31.0777551716
 11
159.6331168074
 21
31.2390736489
  0
LINE
  8
0
 62
7
  6
CONTINUOUS
 10
153.1003044177
 20
31.5939741996
 11
152.9268669177
 21
31.626237886
  0
LINE
  8
0
 62
7
  6
CONTINUOUS
 10
159.401867028
 20
30.6583272086
 11
159.575304528
 21
30.6260635193
  0
LINE
  8
0
 62
7
  6
CONTINUOUS
 10
158.2456168074
 20
31.5939741996
 11
158.0721793074
 21
31.626237886
  0
LINE
  8
0
 62
7
  6
CONTINUOUS
 10
160.5003043074
 20
31.4649194539
 11
160.615929528
 21
31.4326557675
  0
LINE
  8
0
 62
7
  6
CONTINUOUS
 10
160.6737418074
 20
30.8519093441
 11
160.615929528
 21
30.7873819712
  0
LINE
  8
0
 62
7
  6
CONTINUOUS
 10
159.228429528
 20
31.5294468267
 11
159.1128043074
 21
31.4326557675
  0
LINE
  8
0
 62
7
  6
CONTINUOUS
 10
154.1409294177
 20
31.5617105132
 11
154.0253041972
 21
31.4971831403
  0
LINE
  8
0
 62
7
  6
CONTINUOUS
 10
154.1987416972
 20
31.1745462761
 11
154.0831168074
 21
31.1100188581
  0
LINE
  8
0
 62
7
  6
CONTINUOUS
 10
154.3143669177
 20
31.0132277988
 11
154.4299918074
 21
31.0777551716
  0
LINE
  8
0
 62
7
  6
CONTINUOUS
 10
151.8862417523
 20
30.5937998301
 11
152.1753043074
 21
30.5937998301
  0
LINE
  8
0
 62
7
  6
CONTINUOUS
 10
153.2159293074
 20
30.5937998301
 11
153.5049916972
 21
30.5937998301
  0
LINE
  8
0
 62
7
  6
CONTINUOUS
 10
154.5456166972
 20
30.5937998301
 11
154.8924916972
 21
30.5937998301
  0
LINE
  8
0
 62
7
  6
CONTINUOUS
 10
155.5284290869
 20
30.5937998301
 11
155.8174918074
 21
30.5937998301
  0
LINE
  8
0
 62
7
  6
CONTINUOUS
 10
156.279992028
 20
30.5937998301
 11
156.5690540869
 21
30.5937998301
  0
LINE
  8
0
 62
7
  6
CONTINUOUS
 10
157.0315543074
 20
30.5937998301
 11
157.320617028
 21
30.5937998301
  0
LINE
  8
0
 62
7
  6
CONTINUOUS
 10
158.361242028
 20
30.5937998301
 11
158.6503040869
 21
30.5937998301
  0
LINE
  8
0
 62
7
  6
CONTINUOUS
 10
159.922179528
 20
30.5937998301
 11
160.269054528
 21
30.5937998301
  0
LINE
  8
0
 62
7
  6
CONTINUOUS
 10
160.269054528
 20
30.7228545871
 11
159.922179528
 21
30.7228545871
  0
LINE
  8
0
 62
7
  6
CONTINUOUS
 10
154.8924916972
 20
30.7228545871
 11
154.5456166972
 21
30.7228545871
  0
LINE
  8
0
 62
7
  6
CONTINUOUS
 10
159.401867028
 20
30.8519093441
 11
159.1128043074
 21
30.8519093441
  0
LINE
  8
0
 62
7
  6
CONTINUOUS
 10
151.4237418626
 20
30.9164367395
 11
151.1346793074
 21
30.9164367395
  0
LINE
  8
0
 62
7
  6
CONTINUOUS
 10
150.498741835
 20
31.4971831403
 11
150.9034292799
 21
31.4649194539
  0
LINE
  8
0
 62
7
  6
CONTINUOUS
 10
150.9612418074
 20
31.5939741996
 11
150.5565542799
 21
31.626237886
  0
LINE
  8
0
 62
7
  6
CONTINUOUS
 10
159.575304528
 20
30.6260635193
 11
159.922179528
 21
30.5937998301
  0
LINE
  8
0
 62
7
  6
CONTINUOUS
 10
159.922179528
 20
30.7228545871
 11
159.575304528
 21
30.7551182848
  0
LINE
  8
0
 62
7
  6
CONTINUOUS
 10
155.3549915869
 20
31.5939741996
 11
155.0081169177
 21
31.626237886
  0
LINE
  8
0
 62
7
  6
CONTINUOUS
 10
160.1534293074
 20
31.4971831403
 11
160.5003043074
 21
31.4649194539
  0
LINE
  8
0
 62
7
  6
CONTINUOUS
 10
160.5003043074
 20
31.5939741996
 11
160.1534293074
 21
31.626237886
  0
LINE
  8
0
 62
7
  6
CONTINUOUS
 10
157.840929528
 20
31.4971831403
 11
158.0721793074
 21
31.4649194539
  0
LINE
  8
0
 62
7
  6
CONTINUOUS
 10
160.6737418074
 20
31.5617105132
 11
160.5003043074
 21
31.5939741996
  0
LINE
  8
0
 62
7
  6
CONTINUOUS
 10
160.8471793074
 20
30.6905909007
 11
160.9628038663
 21
30.7873819712
  0
LINE
  8
0
 62
7
  6
CONTINUOUS
 10
155.3549915869
 20
30.8841730531
 11
155.1815540869
 21
30.7873819712
  0
LINE
  8
0
 62
7
  6
CONTINUOUS
 10
157.4362415869
 20
31.5294468267
 11
157.320617028
 21
31.4649194539
  0
LINE
  8
0
 62
7
  6
CONTINUOUS
 10
157.320617028
 20
31.3358647082
 11
157.4362415869
 21
31.400392081
  0
LINE
  8
0
 62
7
  6
CONTINUOUS
 10
150.0362418212
 20
31.5617105132
 11
149.8628043005
 21
31.4971831403
  0
LINE
  8
0
 62
7
  6
CONTINUOUS
 10
152.4643666972
 20
31.5939741996
 11
152.2909293626
 21
31.5294468267
  0
LINE
  8
0
 62
7
  6
CONTINUOUS
 10
152.2909293626
 20
31.400392081
 11
152.4643666972
 21
31.4649194539
  0
LINE
  8
0
 62
7
  6
CONTINUOUS
 10
151.0768668626
 20
30.8196456577
 11
150.9034292799
 21
30.7551182848
  0
LINE
  8
0
 62
7
  6
CONTINUOUS
 10
160.5003043074
 20
30.7551182848
 11
160.269054528
 21
30.7228545871
  0
LINE
  8
0
 62
7
  6
CONTINUOUS
 10
154.8924916972
 20
30.5937998301
 11
155.1815540869
 21
30.6260635193
  0
LINE
  8
0
 62
7
  6
CONTINUOUS
 10
160.269054528
 20
30.5937998301
 11
160.615929528
 21
30.6260635193
  0
LINE
  8
0
 62
7
  6
CONTINUOUS
 10
150.5565542799
 20
30.5937998301
 11
150.9612418074
 21
30.6260635193
  0
LINE
  8
0
 62
7
  6
CONTINUOUS
 10
150.9034292799
 20
30.7551182848
 11
150.498741835
 21
30.7228545871
  0
LINE
  8
0
 62
7
  6
CONTINUOUS
 10
154.7768668074
 20
31.1422825445
 11
155.412804528
 21
31.1422825445
  0
LINE
  8
0
 62
7
  6
CONTINUOUS
 10
155.412804528
 20
31.2713373354
 11
154.7768668074
 21
31.2713373354
  0
LINE
  8
0
 62
7
  6
CONTINUOUS
 10
151.1346793074
 20
31.3036010218
 11
151.4237418626
 21
31.3036010218
  0
LINE
  8
0
 62
7
  6
CONTINUOUS
 10
153.9674919177
 20
31.3681283946
 11
154.2565543074
 21
31.3681283946
  0
LINE
  8
0
 62
7
  6
CONTINUOUS
 10
160.6737418074
 20
31.3681283946
 11
160.9628038663
 21
31.3681283946
  0
LINE
  8
0
 62
7
  6
CONTINUOUS
 10
154.6612419177
 20
31.4971831403
 11
155.0081169177
 21
31.4971831403
  0
LINE
  8
0
 62
7
  6
CONTINUOUS
 10
159.8065543074
 20
31.4971831403
 11
160.1534293074
 21
31.4971831403
  0
LINE
  8
0
 62
7
  6
CONTINUOUS
 10
160.1534293074
 20
31.626237886
 11
159.8065543074
 21
31.626237886
  0
LINE
  8
0
 62
7
  6
CONTINUOUS
 10
158.0721793074
 20
31.626237886
 11
157.840929528
 21
31.626237886
  0
LINE
  8
0
 62
7
  6
CONTINUOUS
 10
157.320617028
 20
31.626237886
 11
157.0315543074
 21
31.626237886
  0
LINE
  8
0
 62
7
  6
CONTINUOUS
 10
156.5690540869
 20
31.626237886
 11
156.279992028
 21
31.626237886
  0
LINE
  8
0
 62
7
  6
CONTINUOUS
 10
155.0081169177
 20
31.626237886
 11
154.6612419177
 21
31.626237886
  0
LINE
  8
0
 62
7
  6
CONTINUOUS
 10
152.9268669177
 20
31.626237886
 11
152.6956168074
 21
31.626237886
  0
LINE
  8
0
 62
7
  6
CONTINUOUS
 10
156.279992028
 20
31.9488748406
 11
156.5690540869
 21
31.9488748406
  0
LINE
  8
0
 62
7
  6
CONTINUOUS
 10
156.5690540869
 20
32.1101932727
 11
156.279992028
 21
32.1101932727
  0
LINE
  8
0
 62
7
  6
CONTINUOUS
 10
152.1753043074
 20
32.1101932727
 11
151.8862417523
 21
32.1101932727
  0
LINE
  8
0
 62
7
  6
CONTINUOUS
 10
151.2130860697
 20
32.3970785186
 11
151.6256574183
 21
32.3970785186
  0
LINE
  8
0
 62
7
  6
CONTINUOUS
 10
152.852430332
 20
32.3970785186
 11
154.245872955
 21
32.3970785186
  0
LINE
  8
0
 62
7
  6
CONTINUOUS
 10
154.5737418074
 20
32.3970785186
 11
155.9671844304
 21
32.3970785186
  0
LINE
  8
0
 62
7
  6
CONTINUOUS
 10
157.852430332
 20
32.3970785186
 11
159.245872955
 21
32.3970785186
  0
LINE
  8
0
 62
7
  6
CONTINUOUS
 10
159.5737418074
 20
32.3970785186
 11
160.9671844304
 21
32.3970785186
  0
LINE
  8
0
 62
7
  6
CONTINUOUS
 10
157.6096790869
 20
31.5939741996
 11
157.4362415869
 21
31.5294468267
  0
LINE
  8
0
 62
7
  6
CONTINUOUS
 10
155.1815540869
 20
30.6260635193
 11
155.3549915869
 21
30.6905909007
  0
LINE
  8
0
 62
7
  6
CONTINUOUS
 10
160.615929528
 20
30.6260635193
 11
160.8471793074
 21
30.6905909007
  0
LINE
  8
0
 62
7
  6
CONTINUOUS
 10
160.615929528
 20
30.7873819712
 11
160.5003043074
 21
30.7551182848
  0
LINE
  8
0
 62
7
  6
CONTINUOUS
 10
159.575304528
 20
31.4649194539
 11
159.8065543074
 21
31.4971831403
  0
LINE
  8
0
 62
7
  6
CONTINUOUS
 10
157.6096790869
 20
31.4649194539
 11
157.840929528
 21
31.4971831403
  0
LINE
  8
0
 62
7
  6
CONTINUOUS
 10
154.5456166972
 20
31.1100188581
 11
154.7768668074
 21
31.1422825445
  0
LINE
  8
0
 62
7
  6
CONTINUOUS
 10
157.840929528
 20
31.626237886
 11
157.6096790869
 21
31.5939741996
  0
LINE
  8
0
 62
7
  6
CONTINUOUS
 10
154.4299918074
 20
31.4649194539
 11
154.6612419177
 21
31.4971831403
  0
LINE
  8
0
 62
7
  6
CONTINUOUS
 10
159.8065543074
 20
31.626237886
 11
159.4596793074
 21
31.5939741996
  0
LINE
  8
0
 62
7
  6
CONTINUOUS
 10
154.7768668074
 20
31.2713373354
 11
154.4299918074
 21
31.2390736489
  0
LINE
  8
0
 62
7
  6
CONTINUOUS
 10
150.5565542799
 20
31.626237886
 11
150.2096793212
 21
31.5939741996
  0
LINE
  8
0
 62
7
  6
CONTINUOUS
 10
154.6612419177
 20
31.626237886
 11
154.2565543074
 21
31.5939741996
  0
LINE
  8
0
 62
7
  6
CONTINUOUS
 10
152.0327582009
 20
33.5446195022
 11
151.3770204959
 21
33.5446195022
  0
LINE
  8
0
 62
7
  6
CONTINUOUS
 10
157.4362415869
 20
31.400392081
 11
157.6096790869
 21
31.4649194539
  0
LINE
  8
0
 62
7
  6
CONTINUOUS
 10
159.4596793074
 20
31.4326557675
 11
159.575304528
 21
31.4649194539
  0
LINE
  8
0
 62
7
  6
CONTINUOUS
 10
159.4596793074
 20
31.5939741996
 11
159.228429528
 21
31.5294468267
  0
LINE
  8
0
 62
7
  6
CONTINUOUS
 10
155.1815540869
 20
30.7873819712
 11
154.8924916972
 21
30.7228545871
  0
LINE
  8
0
 62
7
  6
CONTINUOUS
 10
152.4643666972
 20
31.4649194539
 11
152.6956168074
 21
31.4971831403
  0
LINE
  8
0
 62
7
  6
CONTINUOUS
 10
152.6956168074
 20
31.626237886
 11
152.4643666972
 21
31.5939741996
  0
LINE
  8
0
 62
7
  6
CONTINUOUS
 10
150.2674918074
 20
31.4649194539
 11
150.498741835
 21
31.4971831403
  0
LINE
  8
0
 62
7
  6
CONTINUOUS
 10
156.7868565615
 20
35.0200293383
 11
157.4425942664
 21
35.0200293383
  0
LINE
  8
0
 62
7
  6
CONTINUOUS
 10
154.4299918074
 20
31.0777551716
 11
154.5456166972
 21
31.1100188581
  0
LINE
  8
0
 62
7
  6
CONTINUOUS
 10
154.4299918074
 20
31.2390736489
 11
154.1987416972
 21
31.1745462761
  0
LINE
  8
0
 62
7
  6
CONTINUOUS
 10
154.3143669177
 20
31.4326557675
 11
154.4299918074
 21
31.4649194539
  0
LINE
  8
0
 62
7
  6
CONTINUOUS
 10
150.9612418074
 20
30.6260635193
 11
151.1924917523
 21
30.6905909007
  0
LINE
  8
0
 62
7
  6
CONTINUOUS
 10
154.2565543074
 20
31.5939741996
 11
154.1409294177
 21
31.5617105132
  0
LINE
  8
0
 62
7
  6
CONTINUOUS
 10
150.2096793212
 20
31.5939741996
 11
150.0362418212
 21
31.5617105132
  0
LINE
  8
0
 62
7
  6
CONTINUOUS
 10
160.9671844304
 20
36.1675703219
 11
159.5737418074
 21
36.1675703219
  0
LINE
  8
0
 62
7
  6
CONTINUOUS
 10
157.6065286927
 20
36.1675703219
 11
157.1939573441
 21
36.1675703219
  0
LINE
  8
0
 62
7
  6
CONTINUOUS
 10
155.9671844304
 20
36.1675703219
 11
154.5737418074
 21
36.1675703219
  0
LINE
  8
0
 62
7
  6
CONTINUOUS
 10
154.245872955
 20
36.1675703219
 11
152.852430332
 21
36.1675703219
  0
LINE
  8
0
 62
7
  6
CONTINUOUS
 10
150.9671844304
 20
36.1675703219
 11
149.5737418074
 21
36.1675703219
  0
LINE
  8
0
 62
7
  6
CONTINUOUS
 10
150.1518667936
 20
31.4326557675
 11
150.2674918074
 21
31.4649194539
  0
CIRCLE
  8
0
 62
7
  6
CONTINUOUS
 10
160.2704631189
 20
38.5036358957
 40
2.0901639344
  0
ARC
  8
0
 62
7
  6
CONTINUOUS
 10
151.2130860697
 20
34.0364227809
 40
1.6393442623
 50
180.0
 51
270.0
  0
ARC
  8
0
 62
7
  6
CONTINUOUS
 10
157.6065286927
 20
34.5282260596
 40
1.6393442623
 50
0.0
 51
90.0
  0
ARC
  8
0
 62
7
  6
CONTINUOUS
 10
151.6256574183
 20
33.8724883547
 40
1.4754098361
 50
270.0
 51
326.2510114041
  0
ARC
  8
0
 62
7
  6
CONTINUOUS
 10
157.1939573441
 20
34.6921604858
 40
1.4754098361
 50
90.0
 51
146.2510114041
  0
ARC
  8
0
 62
7
  6
CONTINUOUS
 10
152.0327582009
 20
34.3642916334
 40
0.8196721311
 50
270.0
 51
360.0
  0
ARC
  8
0
 62
7
  6
CONTINUOUS
 10
156.7868565615
 20
34.2003572071
 40
0.8196721311
 50
90.0
 51
180.0
  0
ARC
  8
0
 62
7
  6
CONTINUOUS
 10
151.3770204959
 20
33.9544555678
 40
0.4098360656
 50
180.0
 51
270.0
  0
ARC
  8
0
 62
7
  6
CONTINUOUS
 10
157.4425942664
 20
34.6101932727
 40
0.4098360656
 50
0.0
 51
90.0
  0
SOLID
  8
0
 62
7
  6
CONTINUOUS
 10
156.279992028
 20
31.9488752009
 11
156.279992028
 21
32.1101936845
 12
156.5690540869
 22
31.9488752009
 13
156.5690540869
 23
32.1101936845
  0
SOLID
  8
0
 62
7
  6
CONTINUOUS
 10
150.5565542799
 20
31.6262382337
 11
150.9612418074
 21
31.5939740028
 12
150.2096793212
 22
31.5939740028
 13
150.2096793212
 23
31.5939740028
  0
SOLID
  8
0
 62
7
  6
CONTINUOUS
 10
150.0362418212
 20
31.5617111435
 11
150.2096793212
 21
31.5939740028
 12
150.9612418074
 22
31.5939740028
 13
150.9612418074
 23
31.5939740028
  0
SOLID
  8
0
 62
7
  6
CONTINUOUS
 10
150.9612418074
 20
31.5939740028
 11
151.1924917523
 21
31.5294468402
 12
150.0362418212
 22
31.5617111435
 13
150.0362418212
 23
31.5617111435
  0
SOLID
  8
0
 62
7
  6
CONTINUOUS
 10
149.8628043005
 20
31.49718259
 11
150.0362418212
 21
31.5617111435
 12
151.1924917523
 22
31.5294468402
 13
151.1924917523
 23
31.5294468402
  0
SOLID
  8
0
 62
7
  6
CONTINUOUS
 10
149.8628043005
 20
31.49718259
 11
151.1924917523
 21
31.5294468402
 12
150.498741835
 22
31.49718259
 13
150.498741835
 23
31.49718259
  0
SOLID
  8
0
 62
7
  6
CONTINUOUS
 10
150.498741835
 20
31.49718259
 11
151.1924917523
 21
31.5294468402
 12
150.9034292799
 22
31.4649197501
 13
150.9034292799
 23
31.4649197501
  0
SOLID
  8
0
 62
7
  6
CONTINUOUS
 10
151.1924917523
 20
31.5294468402
 11
151.3659292523
 21
31.4326554468
 12
150.9034292799
 22
31.4649197501
 13
150.9034292799
 23
31.4649197501
  0
SOLID
  8
0
 62
7
  6
CONTINUOUS
 10
151.0768668626
 20
31.4003926599
 11
150.9034292799
 21
31.4649197501
 12
151.3659292523
 22
31.4326554468
 13
151.3659292523
 23
31.4326554468
  0
SOLID
  8
0
 62
7
  6
CONTINUOUS
 10
151.0768668626
 20
31.4003926599
 11
151.3659292523
 21
31.4326554468
 12
151.1346793074
 22
31.3036013776
 13
151.1346793074
 23
31.3036013776
  0
SOLID
  8
0
 62
7
  6
CONTINUOUS
 10
151.3659292523
 20
31.4326554468
 11
151.4237418626
 21
31.3036013776
 12
151.1346793074
 22
31.3036013776
 13
151.1346793074
 23
31.3036013776
  0
SOLID
  8
0
 62
7
  6
CONTINUOUS
 10
152.4643666972
 20
31.5939739754
 11
152.6956168074
 21
31.6262382787
 12
152.9268669177
 22
31.6262382787
 13
152.9268669177
 23
31.6262382787
  0
SOLID
  8
0
 62
7
  6
CONTINUOUS
 10
152.9268669177
 20
31.6262382787
 11
153.1003044177
 21
31.5939739754
 12
152.4643666972
 22
31.5939739754
 13
152.4643666972
 23
31.5939739754
  0
SOLID
  8
0
 62
7
  6
CONTINUOUS
 10
152.2909293626
 20
31.5294468852
 11
152.4643666972
 21
31.5939739754
 12
153.1003044177
 22
31.5939739754
 13
153.1003044177
 23
31.5939739754
  0
SOLID
  8
0
 62
7
  6
CONTINUOUS
 10
153.1003044177
 20
31.5939739754
 11
153.2737419177
 21
31.5294468852
 12
152.2909293626
 22
31.5294468852
 13
152.2909293626
 23
31.5294468852
  0
SOLID
  8
0
 62
7
  6
CONTINUOUS
 10
153.2737419177
 20
31.5294468852
 11
152.6956168074
 21
31.4971825369
 12
152.2909293626
 22
31.5294468852
 13
152.2909293626
 23
31.5294468852
  0
SOLID
  8
0
 62
7
  6
CONTINUOUS
 10
152.1753043074
 20
31.4649197951
 11
152.2909293626
 21
31.5294468852
 12
152.6956168074
 22
31.4971825369
 13
152.6956168074
 23
31.4971825369
  0
SOLID
  8
0
 62
7
  6
CONTINUOUS
 10
152.6956168074
 20
31.4971825369
 11
152.4643666972
 21
31.4649197951
 12
152.1753043074
 22
31.4649197951
 13
152.1753043074
 23
31.4649197951
  0
SOLID
  8
0
 62
7
  6
CONTINUOUS
 10
152.6956168074
 20
31.4971825369
 11
153.2737419177
 21
31.5294468852
 12
152.9268669177
 22
31.4649197951
 13
152.9268669177
 23
31.4649197951
  0
SOLID
  8
0
 62
7
  6
CONTINUOUS
 10
153.2737419177
 20
31.5294468852
 11
153.3893668074
 21
31.4649197951
 12
152.9268669177
 22
31.4649197951
 13
152.9268669177
 23
31.4649197951
  0
SOLID
  8
0
 62
7
  6
CONTINUOUS
 10
153.0424918074
 20
31.4326554468
 11
152.9268669177
 21
31.4649197951
 12
153.3893668074
 22
31.4649197951
 13
153.3893668074
 23
31.4649197951
  0
SOLID
  8
0
 62
7
  6
CONTINUOUS
 10
153.3893668074
 20
31.4649197951
 11
153.4471794177
 21
31.4003927049
 12
153.0424918074
 22
31.4326554468
 13
153.0424918074
 23
31.4326554468
  0
SOLID
  8
0
 62
7
  6
CONTINUOUS
 10
153.1581166972
 20
31.3681283566
 11
153.0424918074
 21
31.4326554468
 12
153.4471794177
 22
31.4003927049
 13
153.4471794177
 23
31.4003927049
  0
SOLID
  8
0
 62
7
  6
CONTINUOUS
 10
153.1581166972
 20
31.3681283566
 11
153.4471794177
 21
31.4003927049
 12
153.2159293074
 22
31.2390742213
 13
153.2159293074
 23
31.2390742213
  0
SOLID
  8
0
 62
7
  6
CONTINUOUS
 10
153.4471794177
 20
31.4003927049
 11
153.5049916972
 21
31.2390742213
 12
153.2159293074
 22
31.2390742213
 13
153.2159293074
 23
31.2390742213
  0
SOLID
  8
0
 62
7
  6
CONTINUOUS
 10
152.4643666972
 20
31.4649197951
 11
152.2909293626
 21
31.4003927049
 12
152.1753043074
 22
31.4649197951
 13
152.1753043074
 23
31.4649197951
  0
SOLID
  8
0
 62
7
  6
CONTINUOUS
 10
152.2909293626
 20
31.4003927049
 11
152.1753043074
 21
31.3358640533
 12
152.1753043074
 22
31.4649197951
 13
152.1753043074
 23
31.4649197951
  0
SOLID
  8
0
 62
7
  6
CONTINUOUS
 10
152.1753043074
 20
31.3358640533
 11
151.8862417523
 21
30.5938002869
 12
152.1753043074
 22
31.4649197951
 13
152.1753043074
 23
31.4649197951
  0
SOLID
  8
0
 62
7
  6
CONTINUOUS
 10
152.1753043074
 20
31.4649197951
 11
151.8862417523
 21
30.5938002869
 12
152.1753043074
 22
32.1101937295
 13
152.1753043074
 23
32.1101937295
  0
SOLID
  8
0
 62
7
  6
CONTINUOUS
 10
151.8862417523
 20
30.5938002869
 11
151.8862417523
 21
32.1101937295
 12
152.1753043074
 22
32.1101937295
 13
152.1753043074
 23
32.1101937295
  0
SOLID
  8
0
 62
7
  6
CONTINUOUS
 10
152.1753043074
 20
31.3358640533
 11
152.1753043074
 21
30.5938002869
 12
151.8862417523
 22
30.5938002869
 13
151.8862417523
 23
30.5938002869
  0
SOLID
  8
0
 62
7
  6
CONTINUOUS
 10
153.2159293074
 20
30.5938002869
 11
153.2159293074
 21
31.2390742213
 12
153.5049916972
 22
31.2390742213
 13
153.5049916972
 23
31.2390742213
  0
SOLID
  8
0
 62
7
  6
CONTINUOUS
 10
153.5049916972
 20
31.2390742213
 11
153.5049916972
 21
30.5938002869
 12
153.2159293074
 22
30.5938002869
 13
153.2159293074
 23
30.5938002869
  0
SOLID
  8
0
 62
7
  6
CONTINUOUS
 10
154.2565543074
 20
31.5939738288
 11
154.6612419177
 21
31.6262385959
 12
155.0081169177
 22
31.6262385959
 13
155.0081169177
 23
31.6262385959
  0
SOLID
  8
0
 62
7
  6
CONTINUOUS
 10
155.0081169177
 20
31.6262385959
 11
155.3549915869
 21
31.5939738288
 12
154.2565543074
 22
31.5939738288
 13
154.2565543074
 23
31.5939738288
  0
SOLID
  8
0
 62
7
  6
CONTINUOUS
 10
154.1409294177
 20
31.5617111435
 11
154.2565543074
 21
31.5939738288
 12
155.3549915869
 22
31.5939738288
 13
155.3549915869
 23
31.5939738288
  0
SOLID
  8
0
 62
7
  6
CONTINUOUS
 10
155.3549915869
 20
31.5939738288
 11
155.5284290869
 21
31.5294468402
 12
154.1409294177
 22
31.5617111435
 13
154.1409294177
 23
31.5617111435
  0
SOLID
  8
0
 62
7
  6
CONTINUOUS
 10
154.0253041972
 20
31.4971826249
 11
154.1409294177
 21
31.5617111435
 12
155.5284290869
 22
31.5294468402
 13
155.5284290869
 23
31.5294468402
  0
SOLID
  8
0
 62
7
  6
CONTINUOUS
 10
154.0253041972
 20
31.4971826249
 11
155.5284290869
 21
31.5294468402
 12
154.6612419177
 22
31.4971826249
 13
154.6612419177
 23
31.4971826249
  0
SOLID
  8
0
 62
7
  6
CONTINUOUS
 10
154.6612419177
 20
31.4971826249
 11
155.5284290869
 21
31.5294468402
 12
155.0081169177
 22
31.4971826249
 13
155.0081169177
 23
31.4971826249
  0
SOLID
  8
0
 62
7
  6
CONTINUOUS
 10
155.0081169177
 20
31.4971826249
 11
155.5284290869
 21
31.5294468402
 12
155.239367028
 22
31.4649194065
 13
155.239367028
 23
31.4649194065
  0
SOLID
  8
0
 62
7
  6
CONTINUOUS
 10
155.5284290869
 20
31.5294468402
 11
155.6440543074
 21
31.4649194065
 12
155.239367028
 22
31.4649194065
 13
155.239367028
 23
31.4649194065
  0
SOLID
  8
0
 62
7
  6
CONTINUOUS
 10
153.9674919177
 20
31.4326554138
 11
154.0253041972
 21
31.4971826249
 12
154.6612419177
 22
31.4971826249
 13
154.6612419177
 23
31.4971826249
  0
SOLID
  8
0
 62
7
  6
CONTINUOUS
 10
155.3549915869
 20
31.4326554138
 11
155.239367028
 21
31.4649194065
 12
155.6440543074
 22
31.4649194065
 13
155.6440543074
 23
31.4649194065
  0
SOLID
  8
0
 62
7
  6
CONTINUOUS
 10
155.3549915869
 20
31.4326554138
 11
155.6440543074
 21
31.4649194065
 12
155.412804528
 22
31.3681282026
 13
155.412804528
 23
31.3681282026
  0
SOLID
  8
0
 62
7
  6
CONTINUOUS
 10
155.6440543074
 20
31.4649194065
 11
155.7018665869
 21
31.3681282026
 12
155.412804528
 22
31.3681282026
 13
155.412804528
 23
31.3681282026
  0
SOLID
  8
0
 62
7
  6
CONTINUOUS
 10
155.412804528
 20
31.2713369632
 11
155.412804528
 21
31.3681282026
 12
155.7018665869
 22
31.3681282026
 13
155.7018665869
 23
31.3681282026
  0
SOLID
  8
0
 62
7
  6
CONTINUOUS
 10
155.412804528
 20
31.2713369632
 11
155.7018665869
 21
31.3681282026
 12
155.412804528
 22
31.1422827828
 13
155.412804528
 23
31.1422827828
  0
SOLID
  8
0
 62
7
  6
CONTINUOUS
 10
155.412804528
 20
31.1422827828
 11
155.7018665869
 21
31.3681282026
 12
155.412804528
 22
30.9487004259
 13
155.412804528
 23
30.9487004259
  0
SOLID
  8
0
 62
7
  6
CONTINUOUS
 10
155.7018665869
 20
31.3681282026
 11
155.7018665869
 21
30.8519086025
 12
155.412804528
 22
30.9487004259
 13
155.412804528
 23
30.9487004259
  0
SOLID
  8
0
 62
7
  6
CONTINUOUS
 10
157.6096790869
 20
31.5939736268
 11
157.840929528
 21
31.6262383465
 12
158.0721793074
 22
31.6262383465
 13
158.0721793074
 23
31.6262383465
  0
SOLID
  8
0
 62
7
  6
CONTINUOUS
 10
158.0721793074
 20
31.6262383465
 11
158.2456168074
 21
31.5939736268
 12
157.6096790869
 22
31.5939736268
 13
157.6096790869
 23
31.5939736268
  0
SOLID
  8
0
 62
7
  6
CONTINUOUS
 10
157.4362415869
 20
31.5294472848
 11
157.6096790869
 21
31.5939736268
 12
158.2456168074
 22
31.5939736268
 13
158.2456168074
 23
31.5939736268
  0
SOLID
  8
0
 62
7
  6
CONTINUOUS
 10
158.2456168074
 20
31.5939736268
 11
158.4190543074
 21
31.5294472848
 12
157.4362415869
 22
31.5294472848
 13
157.4362415869
 23
31.5294472848
  0
SOLID
  8
0
 62
7
  6
CONTINUOUS
 10
158.4190543074
 20
31.5294472848
 11
157.840929528
 21
31.4971825369
 12
157.4362415869
 22
31.5294472848
 13
157.4362415869
 23
31.5294472848
  0
SOLID
  8
0
 62
7
  6
CONTINUOUS
 10
157.320617028
 20
31.4649199103
 11
157.4362415869
 21
31.5294472848
 12
157.840929528
 22
31.4971825369
 13
157.840929528
 23
31.4971825369
  0
SOLID
  8
0
 62
7
  6
CONTINUOUS
 10
157.840929528
 20
31.4971825369
 11
157.6096790869
 21
31.4649199103
 12
157.320617028
 22
31.4649199103
 13
157.320617028
 23
31.4649199103
  0
SOLID
  8
0
 62
7
  6
CONTINUOUS
 10
157.840929528
 20
31.4971825369
 11
158.4190543074
 21
31.5294472848
 12
158.0721793074
 22
31.4649199103
 13
158.0721793074
 23
31.4649199103
  0
SOLID
  8
0
 62
7
  6
CONTINUOUS
 10
158.4190543074
 20
31.5294472848
 11
158.534679528
 21
31.4649199103
 12
158.0721793074
 22
31.4649199103
 13
158.0721793074
 23
31.4649199103
  0
SOLID
  8
0
 62
7
  6
CONTINUOUS
 10
158.187804528
 20
31.4326554468
 11
158.0721793074
 21
31.4649199103
 12
158.534679528
 22
31.4649199103
 13
158.534679528
 23
31.4649199103
  0
SOLID
  8
0
 62
7
  6
CONTINUOUS
 10
158.187804528
 20
31.4326554468
 11
158.534679528
 21
31.4649199103
 12
158.3034290869
 22
31.3681288486
 13
158.3034290869
 23
31.3681288486
  0
SOLID
  8
0
 62
7
  6
CONTINUOUS
 10
158.534679528
 20
31.4649199103
 11
158.5924918074
 21
31.3681288486
 12
158.3034290869
 22
31.3681288486
 13
158.3034290869
 23
31.3681288486
  0
SOLID
  8
0
 62
7
  6
CONTINUOUS
 10
158.361242028
 20
31.2068093799
 11
158.3034290869
 21
31.3681288486
 12
158.5924918074
 22
31.3681288486
 13
158.5924918074
 23
31.3681288486
  0
SOLID
  8
0
 62
7
  6
CONTINUOUS
 10
158.5924918074
 20
31.3681288486
 11
158.6503040869
 21
31.2068093799
 12
158.361242028
 22
31.2068093799
 13
158.361242028
 23
31.2068093799
  0
SOLID
  8
0
 62
7
  6
CONTINUOUS
 10
157.6096790869
 20
31.4649199103
 11
157.4362415869
 21
31.4003926599
 12
157.320617028
 22
31.4649199103
 13
157.320617028
 23
31.4649199103
  0
SOLID
  8
0
 62
7
  6
CONTINUOUS
 10
157.4362415869
 20
31.4003926599
 11
157.320617028
 21
31.3358640533
 12
157.320617028
 22
31.4649199103
 13
157.320617028
 23
31.4649199103
  0
SOLID
  8
0
 62
7
  6
CONTINUOUS
 10
157.320617028
 20
31.3358640533
 11
157.0315543074
 21
30.5938003547
 12
157.320617028
 22
31.4649199103
 13
157.320617028
 23
31.4649199103
  0
SOLID
  8
0
 62
7
  6
CONTINUOUS
 10
157.320617028
 20
31.4649199103
 11
157.0315543074
 21
30.5938003547
 12
157.320617028
 22
31.6262383465
 13
157.320617028
 23
31.6262383465
  0
SOLID
  8
0
 62
7
  6
CONTINUOUS
 10
157.0315543074
 20
30.5938003547
 11
157.0315543074
 21
31.6262383465
 12
157.320617028
 22
31.6262383465
 13
157.320617028
 23
31.6262383465
  0
SOLID
  8
0
 62
7
  6
CONTINUOUS
 10
157.320617028
 20
31.3358640533
 11
157.320617028
 21
30.5938003547
 12
157.0315543074
 22
30.5938003547
 13
157.0315543074
 23
30.5938003547
  0
SOLID
  8
0
 62
7
  6
CONTINUOUS
 10
158.361242028
 20
30.5938003547
 11
158.361242028
 21
31.2068093799
 12
158.6503040869
 22
31.2068093799
 13
158.6503040869
 23
31.2068093799
  0
SOLID
  8
0
 62
7
  6
CONTINUOUS
 10
158.6503040869
 20
31.2068093799
 11
158.6503040869
 21
30.5938003547
 12
158.361242028
 22
30.5938003547
 13
158.361242028
 23
30.5938003547
  0
SOLID
  8
0
 62
7
  6
CONTINUOUS
 10
159.4596793074
 20
31.5939739474
 11
159.8065543074
 21
31.6262381969
 12
160.1534293074
 22
31.6262381969
 13
160.1534293074
 23
31.6262381969
  0
SOLID
  8
0
 62
7
  6
CONTINUOUS
 10
160.1534293074
 20
31.6262381969
 11
160.5003043074
 21
31.5939739474
 12
159.4596793074
 22
31.5939739474
 13
159.4596793074
 23
31.5939739474
  0
SOLID
  8
0
 62
7
  6
CONTINUOUS
 10
159.228429528
 20
31.5294468402
 11
159.4596793074
 21
31.5939739474
 12
160.5003043074
 22
31.5939739474
 13
160.5003043074
 23
31.5939739474
  0
SOLID
  8
0
 62
7
  6
CONTINUOUS
 10
159.228429528
 20
31.5294468402
 11
160.5003043074
 21
31.5939739304
 12
160.6737418074
 22
31.5617111435
 13
160.6737418074
 23
31.5617111435
  0
SOLID
  8
0
 62
7
  6
CONTINUOUS
 10
159.228429528
 20
31.5294468402
 11
160.6737418074
 21
31.5617111435
 12
159.8065543074
 22
31.4971825592
 13
159.8065543074
 23
31.4971825592
  0
SOLID
  8
0
 62
7
  6
CONTINUOUS
 10
159.8065543074
 20
31.4971825592
 11
160.6737418074
 21
31.5617111435
 12
160.1534293074
 22
31.4971825592
 13
160.1534293074
 23
31.4971825592
  0
SOLID
  8
0
 62
7
  6
CONTINUOUS
 10
160.6737418074
 20
31.5617111435
 11
160.8471793074
 21
31.4971825592
 12
160.1534293074
 22
31.4971825592
 13
160.1534293074
 23
31.4971825592
  0
SOLID
  8
0
 62
7
  6
CONTINUOUS
 10
160.5003043074
 20
31.4649197501
 11
160.1534293074
 21
31.4971825592
 12
160.8471793074
 22
31.4971825592
 13
160.8471793074
 23
31.4971825592
  0
SOLID
  8
0
 62
7
  6
CONTINUOUS
 10
159.1128043074
 20
31.4326555427
 11
159.228429528
 21
31.5294468402
 12
159.8065543074
 22
31.4971825592
 13
159.8065543074
 23
31.4971825592
  0
SOLID
  8
0
 62
7
  6
CONTINUOUS
 10
160.5003043074
 20
31.4649197501
 11
160.8471793074
 21
31.4971825592
 12
160.615929528
 22
31.4326555427
 13
160.615929528
 23
31.4326555427
  0
SOLID
  8
0
 62
7
  6
CONTINUOUS
 10
160.615929528
 20
31.4326555427
 11
160.8471793074
 21
31.4971825592
 12
160.6737418074
 22
31.3681283005
 13
160.6737418074
 23
31.3681283005
  0
SOLID
  8
0
 62
7
  6
CONTINUOUS
 10
160.8471793074
 20
31.4971825592
 11
160.9628038663
 21
31.3681283005
 12
160.6737418074
 22
31.3681283005
 13
160.6737418074
 23
31.3681283005
  0
SOLID
  8
0
 62
7
  6
CONTINUOUS
 10
150.2674918074
 20
31.4649197501
 11
149.7471793074
 21
31.4326554237
 12
150.498741835
 22
31.4971824493
 13
150.498741835
 23
31.4971824493
  0
SOLID
  8
0
 62
7
  6
CONTINUOUS
 10
149.7471793074
 20
31.4326554237
 11
149.8628043005
 21
31.4971824493
 12
150.498741835
 22
31.4971824493
 13
150.498741835
 23
31.4971824493
  0
SOLID
  8
0
 62
7
  6
CONTINUOUS
 10
150.2674918074
 20
31.4649197501
 11
150.1518667936
 21
31.4326554237
 12
149.7471793074
 22
31.4326554237
 13
149.7471793074
 23
31.4326554237
  0
SOLID
  8
0
 62
7
  6
CONTINUOUS
 10
149.6315543091
 20
31.3036012664
 11
149.7471793074
 21
31.4326554237
 12
150.1518667936
 22
31.4326554237
 13
150.1518667936
 23
31.4326554237
  0
SOLID
  8
0
 62
7
  6
CONTINUOUS
 10
153.9674919177
 20
31.4326554237
 11
154.6612419177
 21
31.4971825369
 12
154.4299918074
 22
31.4649197501
 13
154.4299918074
 23
31.4649197501
  0
SOLID
  8
0
 62
7
  6
CONTINUOUS
 10
154.4299918074
 20
31.4649197501
 11
154.3143669177
 21
31.4326554237
 12
153.9674919177
 22
31.4326554237
 13
153.9674919177
 23
31.4326554237
  0
SOLID
  8
0
 62
7
  6
CONTINUOUS
 10
153.9674919177
 20
31.3681283335
 11
153.9674919177
 21
31.4326554237
 12
154.3143669177
 22
31.4326554237
 13
154.3143669177
 23
31.4326554237
  0
SOLID
  8
0
 62
7
  6
CONTINUOUS
 10
154.3143669177
 20
31.4326554237
 11
154.2565543074
 21
31.3681283335
 12
153.9674919177
 22
31.3681283335
 13
153.9674919177
 23
31.3681283335
  0
SOLID
  8
0
 62
7
  6
CONTINUOUS
 10
159.1128043074
 20
31.4326555528
 11
159.8065543074
 21
31.4971825369
 12
159.575304528
 22
31.4649197501
 13
159.575304528
 23
31.4649197501
  0
SOLID
  8
0
 62
7
  6
CONTINUOUS
 10
159.575304528
 20
31.4649197501
 11
159.4596793074
 21
31.4326555528
 12
159.1128043074
 22
31.4326555528
 13
159.1128043074
 23
31.4326555528
  0
SOLID
  8
0
 62
7
  6
CONTINUOUS
 10
159.1128043074
 20
31.3681284626
 11
159.1128043074
 21
31.4326555528
 12
159.4596793074
 22
31.4326555528
 13
159.4596793074
 23
31.4326555528
  0
SOLID
  8
0
 62
7
  6
CONTINUOUS
 10
159.4596793074
 20
31.4326555528
 11
159.401867028
 21
31.3681284626
 12
159.1128043074
 22
31.3681284626
 13
159.1128043074
 23
31.3681284626
  0
SOLID
  8
0
 62
7
  6
CONTINUOUS
 10
159.228429528
 20
31.2390741763
 11
159.1128043074
 21
31.3681284626
 12
159.401867028
 22
31.3681284626
 13
159.401867028
 23
31.3681284626
  0
SOLID
  8
0
 62
7
  6
CONTINUOUS
 10
149.6315543091
 20
31.3036012664
 11
150.1518667936
 21
31.4326554468
 12
149.9784292936
 22
31.3358640533
 13
149.9784292936
 23
31.3358640533
  0
SOLID
  8
0
 62
7
  6
CONTINUOUS
 10
149.9784292936
 20
31.3358640533
 11
149.9206168074
 21
31.2713369632
 12
149.6315543091
 22
31.3036012664
 13
149.6315543091
 23
31.3036012664
  0
SOLID
  8
0
 62
7
  6
CONTINUOUS
 10
149.5737418074
 20
31.1100184796
 11
149.6315543091
 21
31.3036012664
 12
149.9206168074
 22
31.2713369632
 13
149.9206168074
 23
31.2713369632
  0
SOLID
  8
0
 62
7
  6
CONTINUOUS
 10
154.4299918074
 20
31.2390741763
 11
154.7768668074
 21
31.271336924
 12
155.412804528
 22
31.271336924
 13
155.412804528
 23
31.271336924
  0
SOLID
  8
0
 62
7
  6
CONTINUOUS
 10
154.4299918074
 20
31.2390741763
 11
155.412804528
 21
31.271336924
 12
154.1987416972
 22
31.1745462761
 13
154.1987416972
 23
31.1745462761
  0
SOLID
  8
0
 62
7
  6
CONTINUOUS
 10
154.1987416972
 20
31.1745462761
 11
155.412804528
 21
31.271336924
 12
154.7768668074
 22
31.1422827436
 13
154.7768668074
 23
31.1422827436
  0
SOLID
  8
0
 62
7
  6
CONTINUOUS
 10
155.412804528
 20
31.271336924
 11
155.412804528
 21
31.1422827436
 12
154.7768668074
 22
31.1422827436
 13
154.7768668074
 23
31.1422827436
  0
SOLID
  8
0
 62
7
  6
CONTINUOUS
 10
159.228429528
 20
31.2390745501
 11
159.401867028
 21
31.3681283566
 12
159.4596793074
 22
31.3036012664
 13
159.4596793074
 23
31.3036012664
  0
SOLID
  8
0
 62
7
  6
CONTINUOUS
 10
159.4596793074
 20
31.3036012664
 11
159.6331168074
 21
31.2390745501
 12
159.228429528
 22
31.2390745501
 13
159.228429528
 23
31.2390745501
  0
SOLID
  8
0
 62
7
  6
CONTINUOUS
 10
159.4596793074
 20
31.1422827828
 11
159.228429528
 21
31.2390745501
 12
159.6331168074
 22
31.2390745501
 13
159.6331168074
 23
31.2390745501
  0
SOLID
  8
0
 62
7
  6
CONTINUOUS
 10
159.6331168074
 20
31.2390745501
 11
160.615929528
 21
31.0777556927
 12
159.4596793074
 22
31.1422827828
 13
159.4596793074
 23
31.1422827828
  0
SOLID
  8
0
 62
7
  6
CONTINUOUS
 10
160.442492028
 20
30.9809646623
 11
159.4596793074
 21
31.1422827828
 12
160.615929528
 22
31.0777556927
 13
160.615929528
 23
31.0777556927
  0
SOLID
  8
0
 62
7
  6
CONTINUOUS
 10
160.615929528
 20
31.0777556927
 11
160.8471793074
 21
30.9809646623
 12
160.442492028
 22
30.9809646623
 13
160.442492028
 23
30.9809646623
  0
SOLID
  8
0
 62
7
  6
CONTINUOUS
 10
160.615929528
 20
30.9164372091
 11
160.442492028
 21
30.9809646623
 12
160.8471793074
 22
30.9809646623
 13
160.8471793074
 23
30.9809646623
  0
SOLID
  8
0
 62
7
  6
CONTINUOUS
 10
160.615929528
 20
30.9164372091
 11
160.8471793074
 21
30.9809646623
 12
160.6737418074
 22
30.8519089441
 13
160.6737418074
 23
30.8519089441
  0
SOLID
  8
0
 62
7
  6
CONTINUOUS
 10
160.8471793074
 20
30.9809646623
 11
160.9628038663
 21
30.8519089441
 12
160.6737418074
 22
30.8519089441
 13
160.6737418074
 23
30.8519089441
  0
SOLID
  8
0
 62
7
  6
CONTINUOUS
 10
160.615929528
 20
30.7873818593
 11
160.6737418074
 21
30.8519089441
 12
160.9628038663
 22
30.8519089441
 13
160.9628038663
 23
30.8519089441
  0
SOLID
  8
0
 62
7
  6
CONTINUOUS
 10
160.9628038663
 20
30.8519089441
 11
160.9628038663
 21
30.7873818593
 12
160.615929528
 22
30.7873818593
 13
160.615929528
 23
30.7873818593
  0
SOLID
  8
0
 62
7
  6
CONTINUOUS
 10
160.5003043074
 20
30.7551187255
 11
160.615929528
 21
30.7873818593
 12
160.9628038663
 22
30.7873818593
 13
160.9628038663
 23
30.7873818593
  0
SOLID
  8
0
 62
7
  6
CONTINUOUS
 10
160.5003043074
 20
30.7551187255
 11
160.9628038663
 21
30.7873818593
 12
160.269054528
 22
30.7228547745
 13
160.269054528
 23
30.7228547745
  0
SOLID
  8
0
 62
7
  6
CONTINUOUS
 10
160.9628038663
 20
30.7873818593
 11
160.8471793074
 21
30.6905916353
 12
160.269054528
 22
30.7228547745
 13
160.269054528
 23
30.7228547745
  0
SOLID
  8
0
 62
7
  6
CONTINUOUS
 10
160.8471793074
 20
30.6905916353
 11
159.401867028
 21
30.658327332
 12
160.269054528
 22
30.7228547745
 13
160.269054528
 23
30.7228547745
  0
SOLID
  8
0
 62
7
  6
CONTINUOUS
 10
160.269054528
 20
30.7228547745
 11
159.401867028
 21
30.658327332
 12
159.922179528
 22
30.7228547745
 13
159.922179528
 23
30.7228547745
  0
SOLID
  8
0
 62
7
  6
CONTINUOUS
 10
159.401867028
 20
30.658327332
 11
159.228429528
 21
30.7228547745
 12
159.922179528
 22
30.7228547745
 13
159.922179528
 23
30.7228547745
  0
SOLID
  8
0
 62
7
  6
CONTINUOUS
 10
159.401867028
 20
30.658327332
 11
160.8471793074
 21
30.6905916353
 12
159.575304528
 22
30.6260629858
 13
159.575304528
 23
30.6260629858
  0
SOLID
  8
0
 62
7
  6
CONTINUOUS
 10
160.8471793074
 20
30.6905916353
 11
160.615929528
 21
30.6260629858
 12
159.575304528
 22
30.6260629858
 13
159.575304528
 23
30.6260629858
  0
SOLID
  8
0
 62
7
  6
CONTINUOUS
 10
159.922179528
 20
30.5938006049
 11
159.575304528
 21
30.6260629858
 12
160.615929528
 22
30.6260629858
 13
160.615929528
 23
30.6260629858
  0
SOLID
  8
0
 62
7
  6
CONTINUOUS
 10
160.615929528
 20
30.6260629858
 11
160.269054528
 21
30.5938006049
 12
159.922179528
 22
30.5938006049
 13
159.922179528
 23
30.5938006049
  0
SOLID
  8
0
 62
7
  6
CONTINUOUS
 10
149.5737418074
 20
31.1100184796
 11
149.9206168074
 21
31.2713369632
 12
149.8628043005
 22
31.1422827828
 13
149.8628043005
 23
31.1422827828
  0
SOLID
  8
0
 62
7
  6
CONTINUOUS
 10
149.8628043005
 20
31.1422827828
 11
149.8628043005
 21
31.0454914852
 12
149.5737418074
 22
31.1100184796
 13
149.5737418074
 23
31.1100184796
  0
SOLID
  8
0
 62
7
  6
CONTINUOUS
 10
149.6315543091
 20
30.9164372091
 11
149.5737418074
 21
31.1100184796
 12
149.8628043005
 22
31.0454914852
 13
149.8628043005
 23
31.0454914852
  0
SOLID
  8
0
 62
7
  6
CONTINUOUS
 10
149.8628043005
 20
31.0454914852
 11
149.9784292936
 21
30.8841729058
 12
149.6315543091
 22
30.9164372091
 13
149.6315543091
 23
30.9164372091
  0
SOLID
  8
0
 62
7
  6
CONTINUOUS
 10
149.7471793074
 20
30.7873813202
 11
149.6315543091
 21
30.9164372091
 12
149.9784292936
 22
30.8841729058
 13
149.9784292936
 23
30.8841729058
  0
SOLID
  8
0
 62
7
  6
CONTINUOUS
 10
149.9784292936
 20
30.8841729058
 11
150.1518667936
 21
30.7873813202
 12
149.7471793074
 22
30.7873813202
 13
149.7471793074
 23
30.7873813202
  0
SOLID
  8
0
 62
7
  6
CONTINUOUS
 10
149.8628043005
 20
30.7228547004
 11
149.7471793074
 21
30.7873813202
 12
150.1518667936
 22
30.7873813202
 13
150.1518667936
 23
30.7873813202
  0
SOLID
  8
0
 62
7
  6
CONTINUOUS
 10
150.1518667936
 20
30.7873813202
 11
150.498741835
 21
30.7228547004
 12
149.8628043005
 22
30.7228547004
 13
149.8628043005
 23
30.7228547004
  0
SOLID
  8
0
 62
7
  6
CONTINUOUS
 10
150.0362418212
 20
30.658327332
 11
149.8628043005
 21
30.7228547004
 12
150.498741835
 22
30.7228547004
 13
150.498741835
 23
30.7228547004
  0
SOLID
  8
0
 62
7
  6
CONTINUOUS
 10
154.0831168074
 20
31.1100184386
 11
154.1987416972
 21
31.1745462761
 12
154.7768668074
 22
31.1422827828
 13
154.7768668074
 23
31.1422827828
  0
SOLID
  8
0
 62
7
  6
CONTINUOUS
 10
154.7768668074
 20
31.1422827828
 11
154.5456166972
 21
31.1100184386
 12
154.0831168074
 22
31.1100184386
 13
154.0831168074
 23
31.1100184386
  0
SOLID
  8
0
 62
7
  6
CONTINUOUS
 10
153.9674919177
 20
30.9809642992
 11
154.0831168074
 21
31.1100184386
 12
154.5456166972
 22
31.1100184386
 13
154.5456166972
 23
31.1100184386
  0
SOLID
  8
0
 62
7
  6
CONTINUOUS
 10
154.3143669177
 20
31.0132277988
 11
153.9674919177
 21
30.9809642992
 12
154.4299918074
 22
31.0777556927
 13
154.4299918074
 23
31.0777556927
  0
SOLID
  8
0
 62
7
  6
CONTINUOUS
 10
153.9674919177
 20
30.9809642992
 11
154.5456166972
 21
31.1100184796
 12
154.4299918074
 22
31.0777556927
 13
154.4299918074
 23
31.0777556927
  0
SOLID
  8
0
 62
7
  6
CONTINUOUS
 10
154.3143669177
 20
31.0132277988
 11
154.2565543074
 21
30.9164372091
 12
153.9674919177
 22
30.9809642992
 13
153.9674919177
 23
30.9809642992
  0
SOLID
  8
0
 62
7
  6
CONTINUOUS
 10
153.9674919177
 20
30.8841729058
 11
153.9674919177
 21
30.9809642992
 12
154.2565543074
 22
30.9164372091
 13
154.2565543074
 23
30.9164372091
  0
SOLID
  8
0
 62
7
  6
CONTINUOUS
 10
154.2565543074
 20
30.9164372091
 11
154.2565543074
 21
30.8519086025
 12
153.9674919177
 22
30.8841729058
 13
153.9674919177
 23
30.8841729058
  0
SOLID
  8
0
 62
7
  6
CONTINUOUS
 10
154.0253041972
 20
30.7551187255
 11
153.9674919177
 21
30.8841729058
 12
154.2565543074
 22
30.8519086025
 13
154.2565543074
 23
30.8519086025
  0
SOLID
  8
0
 62
7
  6
CONTINUOUS
 10
155.412804528
 20
30.9487004259
 11
155.7018665869
 21
30.8519086025
 12
155.3549915869
 22
30.8841729058
 13
155.3549915869
 23
30.8841729058
  0
SOLID
  8
0
 62
7
  6
CONTINUOUS
 10
155.1815540869
 20
30.7873815123
 11
155.3549915869
 21
30.8841729058
 12
155.7018665869
 22
30.8519086025
 13
155.7018665869
 23
30.8519086025
  0
SOLID
  8
0
 62
7
  6
CONTINUOUS
 10
155.1815540869
 20
30.7873815123
 11
155.7018665869
 21
30.8519086025
 12
155.412804528
 22
30.7551187255
 13
155.412804528
 23
30.7551187255
  0
SOLID
  8
0
 62
7
  6
CONTINUOUS
 10
155.7018665869
 20
30.8519086025
 11
155.759679528
 21
30.6905916353
 12
155.412804528
 22
30.7551187255
 13
155.412804528
 23
30.7551187255
  0
SOLID
  8
0
 62
7
  6
CONTINUOUS
 10
155.4706168074
 20
30.658327332
 11
155.412804528
 21
30.7551187255
 12
155.759679528
 22
30.6905916353
 13
155.759679528
 23
30.6905916353
  0
SOLID
  8
0
 62
7
  6
CONTINUOUS
 10
155.4706168074
 20
30.658327332
 11
155.759679528
 21
30.6905916353
 12
155.5284290869
 22
30.5938002079
 13
155.5284290869
 23
30.5938002079
  0
SOLID
  8
0
 62
7
  6
CONTINUOUS
 10
155.759679528
 20
30.6905916353
 11
155.8174918074
 21
30.5938002079
 12
155.5284290869
 22
30.5938002079
 13
155.5284290869
 23
30.5938002079
  0
SOLID
  8
0
 62
7
  6
CONTINUOUS
 10
151.0768668626
 20
30.8196456577
 11
151.1346793074
 21
30.9164373395
 12
151.4237418626
 22
30.9164373395
 13
151.4237418626
 23
30.9164373395
  0
SOLID
  8
0
 62
7
  6
CONTINUOUS
 10
151.4237418626
 20
30.9164373395
 11
151.3659292523
 21
30.7873815123
 12
151.0768668626
 22
30.8196456577
 13
151.0768668626
 23
30.8196456577
  0
SOLID
  8
0
 62
7
  6
CONTINUOUS
 10
150.9034292799
 20
30.7551187255
 11
151.0768668626
 21
30.8196456577
 12
151.3659292523
 22
30.7873815123
 13
151.3659292523
 23
30.7873815123
  0
SOLID
  8
0
 62
7
  6
CONTINUOUS
 10
150.9034292799
 20
30.7551187255
 11
151.3659292523
 21
30.7873815123
 12
150.498741835
 22
30.7228544222
 13
150.498741835
 23
30.7228544222
  0
SOLID
  8
0
 62
7
  6
CONTINUOUS
 10
151.3659292523
 20
30.7873815123
 11
151.1924917523
 21
30.6905916353
 12
150.498741835
 22
30.7228544222
 13
150.498741835
 23
30.7228544222
  0
SOLID
  8
0
 62
7
  6
CONTINUOUS
 10
150.0362418212
 20
30.658327332
 11
150.498741835
 21
30.7228544222
 12
151.1924917523
 22
30.6905916353
 13
151.1924917523
 23
30.6905916353
  0
SOLID
  8
0
 62
7
  6
CONTINUOUS
 10
150.0362418212
 20
30.658327332
 11
151.1924917523
 21
30.6905916353
 12
150.2096793212
 22
30.6260631011
 13
150.2096793212
 23
30.6260631011
  0
SOLID
  8
0
 62
7
  6
CONTINUOUS
 10
151.1924917523
 20
30.6905916353
 11
150.9612418074
 21
30.6260631011
 12
150.2096793212
 22
30.6260631011
 13
150.2096793212
 23
30.6260631011
  0
SOLID
  8
0
 62
7
  6
CONTINUOUS
 10
150.5565542799
 20
30.5938002419
 11
150.2096793212
 21
30.6260631011
 12
150.9612418074
 22
30.6260631011
 13
150.9612418074
 23
30.6260631011
  0
SOLID
  8
0
 62
7
  6
CONTINUOUS
 10
154.0253041972
 20
30.7551187255
 11
154.2565543074
 21
30.8519086025
 12
154.3143669177
 22
30.7873815123
 13
154.3143669177
 23
30.7873815123
  0
SOLID
  8
0
 62
7
  6
CONTINUOUS
 10
154.3143669177
 20
30.7873815123
 11
154.5456166972
 21
30.7228544222
 12
154.0253041972
 22
30.7551187255
 13
154.0253041972
 23
30.7551187255
  0
SOLID
  8
0
 62
7
  6
CONTINUOUS
 10
154.1987416972
 20
30.658327332
 11
154.0253041972
 21
30.7551187255
 12
154.5456166972
 22
30.7228544222
 13
154.5456166972
 23
30.7228544222
  0
SOLID
  8
0
 62
7
  6
CONTINUOUS
 10
154.8924916972
 20
30.7228544637
 11
155.1815540869
 21
30.7873815123
 12
155.412804528
 22
30.7551187255
 13
155.412804528
 23
30.7551187255
  0
SOLID
  8
0
 62
7
  6
CONTINUOUS
 10
155.412804528
 20
30.7551187255
 11
155.3549915869
 21
30.6905916353
 12
154.8924916972
 22
30.7228544637
 13
154.8924916972
 23
30.7228544637
  0
SOLID
  8
0
 62
7
  6
CONTINUOUS
 10
155.3549915869
 20
30.6905916353
 11
154.1987416972
 21
30.658327332
 12
154.8924916972
 22
30.7228544637
 13
154.8924916972
 23
30.7228544637
  0
SOLID
  8
0
 62
7
  6
CONTINUOUS
 10
154.1987416972
 20
30.658327332
 11
154.5456166972
 21
30.7228544637
 12
154.8924916972
 22
30.7228544637
 13
154.8924916972
 23
30.7228544637
  0
SOLID
  8
0
 62
7
  6
CONTINUOUS
 10
154.1987416972
 20
30.658327332
 11
155.3549915869
 21
30.6905916353
 12
154.3143669177
 22
30.6260630541
 13
154.3143669177
 23
30.6260630541
  0
SOLID
  8
0
 62
7
  6
CONTINUOUS
 10
155.3549915869
 20
30.6905916353
 11
155.1815540869
 21
30.6260630541
 12
154.3143669177
 22
30.6260630541
 13
154.3143669177
 23
30.6260630541
  0
SOLID
  8
0
 62
7
  6
CONTINUOUS
 10
154.5456166972
 20
30.5938002188
 11
154.3143669177
 21
30.6260630541
 12
155.1815540869
 22
30.6260630541
 13
155.1815540869
 23
30.6260630541
  0
SOLID
  8
0
 62
7
  6
CONTINUOUS
 10
155.1815540869
 20
30.6260630541
 11
154.8924916972
 21
30.5938002188
 12
154.5456166972
 22
30.5938002188
 13
154.5456166972
 23
30.5938002188
  0
SOLID
  8
0
 62
7
  6
CONTINUOUS
 10
159.575304528
 20
30.7551187255
 11
159.228429528
 21
30.7228544637
 12
159.4596793074
 22
30.7873815123
 13
159.4596793074
 23
30.7873815123
  0
SOLID
  8
0
 62
7
  6
CONTINUOUS
 10
159.4596793074
 20
30.7873815123
 11
159.228429528
 21
30.7228544637
 12
159.401867028
 22
30.851908644
 13
159.401867028
 23
30.851908644
  0
SOLID
  8
0
 62
7
  6
CONTINUOUS
 10
159.228429528
 20
30.7228544637
 11
159.1128043074
 21
30.851908644
 12
159.401867028
 22
30.851908644
 13
159.401867028
 23
30.851908644
  0
SOLID
  8
0
 62
7
  6
CONTINUOUS
 10
159.575304528
 20
30.7551187255
 11
159.922179528
 21
30.7228544637
 12
159.228429528
 22
30.7228544637
 13
159.228429528
 23
30.7228544637
  0
SOLID
  8
0
 62
7
  6
CONTINUOUS
 10
156.279992028
 20
30.5938002419
 11
156.279992028
 21
31.6262382337
 12
156.5690540869
 22
30.5938002419
 13
156.5690540869
 23
31.6262382337
  0
ENDBLK
  8
0
  6
BYBLOCK
 62
0
  0
BLOCK
  8
0
 62
2
  6
CONTINUOUS
  2
AMMEAAL_LOGO_BL0
 70
64
 10
32.1213064866
 20
19.8534310916
  0
TEXT
  8
0
 62
7
  6
CONTINUOUS
 10
18.3860103289
 20
19.2268451992
  7
TEXTSTYLE_3
 40
2.7338706658
  1
Ammeraal Beltech
 41
1.0
 51
15.0
 72
0
  0
TEXT
  8
0
 62
7
  6
CONTINUOUS
 10
29.1868111546
 20
16.9533085264
  7
TEXTSTYLE_4
 40
1.0935482663
  1
Innovation & Service in Belting
 41
1.0
 72
0
  0
LINE
  8
0
 62
7
  6
CONTINUOUS
 10
12.3614696776
 20
19.9934385078
 11
13.1396216709
 21
23.6543558055
  0
LINE
  8
0
 62
7
  6
CONTINUOUS
 10
23.2347899607
 20
27.3177497171
 11
13.6274394139
 21
24.1961322958
  0
LINE
  8
0
 62
7
  6
CONTINUOUS
 10
12.5867530099
 20
19.3000877048
 11
20.093828271
 21
12.5406867788
  0
LINE
  8
0
 62
7
  6
CONTINUOUS
 10
12.8492874206
 20
20.5352149982
 11
23.6575567857
 21
24.0470345971
  0
LINE
  8
0
 62
7
  6
CONTINUOUS
 10
23.6533516486
 20
13.6972460334
 11
15.2078919798
 21
21.3015720751
  0
LINE
  8
0
 62
7
  6
CONTINUOUS
 10
24.1731743684
 20
26.4728246013
 11
23.1966148312
 21
21.8784731989
  0
LINE
  8
0
 62
7
  6
CONTINUOUS
 10
22.4968128835
 20
18.5861638851
 11
21.810364672
 21
15.3566789607
  0
LINE
  8
0
 62
7
  6
CONTINUOUS
 10
24.8542704669
 20
14.087448211
 11
25.8105020025
 21
18.5861638851
  0
LINE
  8
0
 62
7
  6
CONTINUOUS
 10
26.5103039502
 20
21.8784731989
 11
26.9545457526
 21
23.9684665583
  0
LINE
  8
0
 62
7
  6
CONTINUOUS
 10
20.8069293463
 20
12.3891124661
 11
24.3664527239
 21
13.5456717207
  0
LINE
  8
0
 62
7
  6
CONTINUOUS
 10
23.9478910361
 20
27.1661754044
 11
26.7292624203
 21
24.6618173613
  0
ARC
  8
0
 62
7
  6
CONTINUOUS
 10
13.8527227462
 20
23.5027814928
 40
0.7290321776
 50
108.0
 51
168.0
  0
ARC
  8
0
 62
7
  6
CONTINUOUS
 10
23.4600732931
 20
26.624398914
 40
0.7290321776
 50
348.0
 51
108.0
  0
ARC
  8
0
 62
7
  6
CONTINUOUS
 10
26.2414446773
 20
24.120040871
 40
0.7290321776
 50
348.0
 51
48.0
  0
ARC
  8
0
 62
7
  6
CONTINUOUS
 10
20.581646014
 20
13.0824632691
 40
0.7290321776
 50
228.0
 51
288.0
  0
ARC
  8
0
 62
7
  6
CONTINUOUS
 10
13.0745707529
 20
19.8418641951
 40
0.7290321776
 50
108.0
 51
228.0
  0
ARC
  8
0
 62
7
  6
CONTINUOUS
 10
24.1411693916
 20
14.2390225237
 40
0.7290321776
 50
228.0
 51
348.0
  0
ENDBLK
  8
0
  6
BYBLOCK
 62
0
  0
BLOCK
  8
0
  2
_FILLED
 70
64
 10
0.0
 20
0.0
  0
SOLID
  8
0
  6
BYBLOCK
 62
0
 10
0.0
 20
0.0
 11
-1.0
 21
0.2142857143
 12
-1.0
 22
-0.2142857143
 13
-1.0
 23
-0.2142857143
  0
ENDBLK
  8
0
  6
BYBLOCK
 62
0
  0
ENDSEC
  0
SECTION
  2
ENTITIES
  0
TEXT
  8
0
 62
5
  6
CONTINUOUS
 10
96.0
 20
25.636
  7
TEXTSTYLE_2
 40
2.8
  1
Scale :
 41
0.6
 51
0.000019
 72
0
  0
TEXT
  8
0
 62
5
  6
CONTINUOUS
 10
116.0
 20
25.636
  7
TEXTSTYLE_2
 40
2.8
  1
Belt type:
 41
0.6
 51
0.000019
 72
0
  0
INSERT
  8
0
 62
2
  6
CONTINUOUS
  2
AMMEAAL_LOGO_BL0
 10
32.1213064866
 20
19.8534310916
  0
INSERT
  8
0
 62
2
  6
CONTINUOUS
  2
UNI_LOGO2_BL1
 10
173.5956734183
 20
35.5937998301
  0
LINE
  8
0
 62
2
  6
CONTINUOUS
 10
10.0
 20
30.0
 11
200.0
 21
30.0
  0
LINE
  8
0
 62
2
  6
CONTINUOUS
 10
10.0
 20
30.0
 11
10.0
 21
10.0
  0
LINE
  8
0
 62
2
  6
CONTINUOUS
 10
10.0
 20
10.0
 11
200.0
 21
10.0
  0
LINE
  8
0
 62
2
  6
CONTINUOUS
 10
95.0
 20
30.0
 11
95.0
 21
10.0
  0
LINE
  8
0
 62
2
  6
CONTINUOUS
 10
115.0
 20
30.0
 11
115.0
 21
10.0
  0
LINE
  8
0
 62
2
  6
CONTINUOUS
 10
200.0
 20
30.0
 11
200.0
 21
10.0
  0
TEXT
  8
0
 62
5
  6
CONTINUOUS
 10
13.0
 20
23.303
  7
TEXTSTYLE_5
 40
1.52
  1
                                                                     Ammeraal Beltech Modular A/S
 41
1.0
 72
0
  0
TEXT
  8
0
 62
5
  6
CONTINUOUS
 10
13.0
 20
20.595
  7
TEXTSTYLE_5
 40
1.5
  1
                                                                      Hjulmagervej 21,  7100 Vejle,  DK
 41
1.0
 72
0
  0
TEXT
  8
0
 62
5
  6
CONTINUOUS
 10
13.0
 20
17.881
  7
TEXTSTYLE_5
 40
1.495
  1
                                                                      tel: 
 41
1.0
 72
0
  0
TEXT
  8
0
 62
5
  6
CONTINUOUS
 10
57.9869465649
 20
17.881
  7
TEXTSTYLE_5
 40
1.51
  1
+45 75723100     fax: +45 75723348
 41
1.0
 72
0
  0
TEXT
  8
0
 62
5
  6
CONTINUOUS
 10
13.0
 20
15.177
  7
TEXTSTYLE_5
 40
1.5
  1
                                                                      admin@unichains.dk  www.unichains.com
 41
1.0
 72
0
  0
TEXT
  8
0
 62
5
  6
CONTINUOUS
 10
99.75
 20
13.75
  7
TEXTSTYLE_6
 40
5.0
  1
2:1
 41
0.7
 72
1
 11
105.0
 21
13.75
  0
TEXT
  8
0
 62
5
  6
CONTINUOUS
 10
118.0
 20
13.75
  7
TEXTSTYLE_7
 40
7.5
  1
uni M-QNB-00-K100
 41
0.6264705882
 72
0
  0
LINE
  8
0
 62
7
  6
CONTINUOUS
 10
210.0
 20
0.0
 11
0.0
 21
0.0
  0
LINE
  8
0
 62
7
  6
CONTINUOUS
 10
10.0
 20
10.0
 11
200.0
 21
10.0
  0
LINE
  8
0
 62
7
  6
CONTINUOUS
 10
10.0
 20
30.0
 11
200.0
 21
30.0
  0
LINE
  8
0
 62
7
  6
CONTINUOUS
 10
0.0
 20
0.0
 11
0.0
 21
297.0
  0
LINE
  8
0
 62
7
  6
CONTINUOUS
 10
10.0
 20
10.0
 11
10.0
 21
287.0
  0
LINE
  8
0
 62
7
  6
CONTINUOUS
 10
200.0
 20
287.0
 11
200.0
 21
10.0
  0
LINE
  8
0
 62
7
  6
CONTINUOUS
 10
210.0
 20
0.0
 11
210.0
 21
297.0
  0
LINE
  8
0
 62
7
  6
CONTINUOUS
 10
10.0
 20
287.0
 11
200.0
 21
287.0
  0
LINE
  8
0
 62
7
  6
CONTINUOUS
 10
0.0
 20
297.0
 11
210.0
 21
297.0
  0
LINE
  8
0
 62
7
  6
CONTINUOUS
 10
37.2564895746
 20
210.354479406
 11
37.2564895746
 21
225.954479406
  0
POLYLINE
  8
0
 62
9
  6
CONTINUOUS
 66
1
 70
0
  0
VERTEX
  8
0
 62
9
  6
CONTINUOUS
 10
37.2564895746
 20
210.7564031946
  0
VERTEX
  8
0
 62
9
  6
CONTINUOUS
 10
37.2815616624
 20
210.563694413
  0
VERTEX
  8
0
 62
9
  6
CONTINUOUS
 10
37.4746580921
 20
210.2164451872
  0
VERTEX
  8
0
 62
9
  6
CONTINUOUS
 10
37.6329997727
 20
210.0793172693
  0
VERTEX
  8
0
 62
9
  6
CONTINUOUS
 10
38.0339686406
 20
209.9120908558
  0
VERTEX
  8
0
 62
9
  6
CONTINUOUS
 10
38.2564895746
 20
209.8903777909
  0
SEQEND
  0
POLYLINE
  8
0
 62
9
  6
CONTINUOUS
 66
1
 70
0
  0
VERTEX
  8
0
 62
9
  6
CONTINUOUS
 10
37.2564895746
 20
213.1525556173
  0
VERTEX
  8
0
 62
9
  6
CONTINUOUS
 10
37.2815616597
 20
212.9598468459
  0
VERTEX
  8
0
 62
9
  6
CONTINUOUS
 10
37.4746580872
 20
212.6125976153
  0
VERTEX
  8
0
 62
9
  6
CONTINUOUS
 10
37.6329997837
 20
212.4754696845
  0
VERTEX
  8
0
 62
9
  6
CONTINUOUS
 10
38.0339686548
 20
212.3082432757
  0
VERTEX
  8
0
 62
9
  6
CONTINUOUS
 10
38.2564895746
 20
212.2865302135
  0
SEQEND
  0
LINE
  8
0
 62
9
  6
CONTINUOUS
 10
38.2564895746
 20
209.354479406
 11
38.2564895746
 21
226.954479406
  0
POLYLINE
  8
0
 62
9
  6
CONTINUOUS
 66
1
 70
0
  0
VERTEX
  8
0
 62
9
  6
CONTINUOUS
 10
42.9964895746
 20
213.5544811516
  0
VERTEX
  8
0
 62
9
  6
CONTINUOUS
 10
43.0011307187
 20
213.5083999681
  0
VERTEX
  8
0
 62
9
  6
CONTINUOUS
 10
43.0151187089
 20
213.4606233912
  0
VERTEX
  8
0
 62
9
  6
CONTINUOUS
 10
43.0383516643
 20
213.4117507288
  0
SEQEND
  0
LINE
  8
0
 62
9
  6
CONTINUOUS
 10
41.9964895746
 20
221.9545872871
 11
41.9964895746
 21
212.554479406
  0
LINE
  8
0
 62
7
  6
CONTINUOUS
 10
42.9964895746
 20
219.954479406
 11
42.9964895746
 21
213.554479406
  0
POLYLINE
  8
0
 62
9
  6
CONTINUOUS
 66
1
 70
0
  0
VERTEX
  8
0
 62
9
  6
CONTINUOUS
 10
43.3958085389
 20
212.6649356996
  0
VERTEX
  8
0
 62
9
  6
CONTINUOUS
 10
43.4275920026
 20
212.5808425611
  0
VERTEX
  8
0
 62
9
  6
CONTINUOUS
 10
43.4908760342
 20
212.4251085735
  0
VERTEX
  8
0
 62
9
  6
CONTINUOUS
 10
43.55593209
 20
212.2807331996
  0
VERTEX
  8
0
 62
9
  6
CONTINUOUS
 10
43.5902042485
 20
212.2110715782
  0
VERTEX
  8
0
 62
9
  6
CONTINUOUS
 10
43.6654736845
 20
212.074073969
  0
VERTEX
  8
0
 62
9
  6
CONTINUOUS
 10
43.7574473794
 20
211.9386303121
  0
VERTEX
  8
0
 62
9
  6
CONTINUOUS
 10
43.8149896658
 20
211.8735683816
  0
SEQEND
  0
LINE
  8
0
 62
9
  6
CONTINUOUS
 10
43.9964895746
 20
220.954479406
 11
43.9964895746
 21
211.5781678024
  0
POLYLINE
  8
0
 62
9
  6
CONTINUOUS
 66
1
 70
0
  0
VERTEX
  8
0
 62
9
  6
CONTINUOUS
 10
42.7951275007
 20
212.286530216
  0
VERTEX
  8
0
 62
9
  6
CONTINUOUS
 10
42.858675507
 20
212.2254178394
  0
VERTEX
  8
0
 62
9
  6
CONTINUOUS
 10
42.9851962997
 20
212.1122265907
  0
VERTEX
  8
0
 62
9
  6
CONTINUOUS
 10
43.1152549279
 20
212.0071202541
  0
VERTEX
  8
0
 62
9
  6
CONTINUOUS
 10
43.1837668957
 20
211.9562976909
  0
VERTEX
  8
0
 62
9
  6
CONTINUOUS
 10
43.3342159072
 20
211.8560487239
  0
VERTEX
  8
0
 62
9
  6
CONTINUOUS
 10
43.5179749449
 20
211.7564221116
  0
VERTEX
  8
0
 62
9
  6
CONTINUOUS
 10
43.6334337031
 20
211.7081302731
  0
SEQEND
  0
POLYLINE
  8
0
 62
9
  6
CONTINUOUS
 66
1
 70
0
  0
VERTEX
  8
0
 62
9
  6
CONTINUOUS
 10
43.8149796452
 20
211.8735670604
  0
VERTEX
  8
0
 62
9
  6
CONTINUOUS
 10
43.8768677566
 20
211.7648357048
  0
VERTEX
  8
0
 62
9
  6
CONTINUOUS
 10
43.9370951118
 20
211.6666240333
  0
VERTEX
  8
0
 62
9
  6
CONTINUOUS
 10
43.9964895746
 20
211.5781678024
  0
SEQEND
  0
POLYLINE
  8
0
 62
9
  6
CONTINUOUS
 66
1
 70
0
  0
VERTEX
  8
0
 62
9
  6
CONTINUOUS
 10
43.0383516643
 20
213.4117507288
  0
VERTEX
  8
0
 62
9
  6
CONTINUOUS
 10
43.1436320986
 20
213.2191494954
  0
VERTEX
  8
0
 62
9
  6
CONTINUOUS
 10
43.2179172893
 20
213.0733134605
  0
VERTEX
  8
0
 62
9
  6
CONTINUOUS
 10
43.3958085389
 20
212.6649356996
  0
SEQEND
  0
POLYLINE
  8
0
 62
9
  6
CONTINUOUS
 66
1
 70
0
  0
VERTEX
  8
0
 62
9
  6
CONTINUOUS
 10
43.0383532936
 20
213.4117504861
  0
VERTEX
  8
0
 62
9
  6
CONTINUOUS
 10
42.8686096376
 20
212.974191497
  0
VERTEX
  8
0
 62
9
  6
CONTINUOUS
 10
42.5236818681
 20
212.6655733891
  0
SEQEND
  0
LINE
  8
0
 62
9
  6
CONTINUOUS
 10
42.9964895746
 20
219.9544802699
 11
41.9964895746
 21
221.954479406
  0
LINE
  8
0
 62
9
  6
CONTINUOUS
 10
48.4036997837
 20
220.954479406
 11
48.4036997837
 21
219.9893789027
  0
LINE
  8
0
 62
9
  6
CONTINUOUS
 10
48.3366638302
 20
211.5781678024
 11
48.3393457051
 21
211.885457785
  0
LINE
  8
0
 62
9
  6
CONTINUOUS
 10
48.3001876724
 20
209.354479406
 11
48.3072037926
 21
209.8904163899
  0
LINE
  8
0
 62
9
  6
CONTINUOUS
 10
48.4363372466
 20
218.1195799093
 11
48.4036506886
 21
219.9893789027
  0
LINE
  8
0
 62
7
  6
CONTINUOUS
 10
49.3896060303
 20
220.8404358609
 11
49.4364895746
 21
218.154479406
  0
LINE
  8
0
 62
7
  6
CONTINUOUS
 10
49.7364895746
 20
218.154479406
 11
49.8729437139
 21
210.3370269996
  0
LINE
  8
0
 62
9
  6
CONTINUOUS
 10
48.5026207949
 20
221.954479406
 11
48.5026207944
 21
220.954479406
  0
LINE
  8
0
 62
9
  6
CONTINUOUS
 10
48.5724410546
 20
226.954479406
 11
48.5724410541
 21
225.954479406
  0
LINE
  8
0
 62
9
  6
CONTINUOUS
 10
48.5025529521
 20
221.954479406
 11
48.5723994532
 21
225.954479406
  0
LINE
  8
0
 62
9
  6
CONTINUOUS
 10
48.3393458809
 20
211.8854577849
 11
48.4363372466
 21
218.1195799093
  0
LINE
  8
0
 62
9
  6
CONTINUOUS
 10
48.3072040197
 20
209.8904163893
 11
48.3366638302
 21
211.5781678024
  0
LINE
  8
0
 62
7
  6
CONTINUOUS
 10
49.3000354353
 20
210.3370269996
 11
49.4364895746
 21
218.154479406
  0
LINE
  8
0
 62
7
  6
CONTINUOUS
 10
49.8729437139
 20
225.9719318124
 11
49.7364895746
 21
218.154479406
  0
POLYLINE
  8
0
 62
9
  6
CONTINUOUS
 66
1
 70
0
  0
VERTEX
  8
0
 62
9
  6
CONTINUOUS
 10
49.3787707742
 20
220.8295786971
  0
VERTEX
  8
0
 62
9
  6
CONTINUOUS
 10
49.3747203327
 20
220.7042646506
  0
VERTEX
  8
0
 62
9
  6
CONTINUOUS
 10
49.3456482234
 20
220.4417825088
  0
VERTEX
  8
0
 62
9
  6
CONTINUOUS
 10
49.2742299313
 20
220.1955443592
  0
VERTEX
  8
0
 62
9
  6
CONTINUOUS
 10
49.1322452619
 20
220.0227149491
  0
VERTEX
  8
0
 62
9
  6
CONTINUOUS
 10
48.9353855815
 20
219.9747875987
  0
SEQEND
  0
POLYLINE
  8
0
 62
7
  6
CONTINUOUS
 66
1
 70
0
  0
VERTEX
  8
0
 62
7
  6
CONTINUOUS
 10
49.3545657802
 20
220.7887963555
  0
VERTEX
  8
0
 62
7
  6
CONTINUOUS
 10
49.3571505727
 20
220.7931106481
  0
VERTEX
  8
0
 62
7
  6
CONTINUOUS
 10
49.3781776957
 20
220.8289844195
  0
VERTEX
  8
0
 62
7
  6
CONTINUOUS
 10
49.4715572912
 20
220.9225528183
  0
SEQEND
  0
POLYLINE
  8
0
 62
9
  6
CONTINUOUS
 66
1
 70
0
  0
VERTEX
  8
0
 62
9
  6
CONTINUOUS
 10
43.6334337031
 20
211.7081302731
  0
VERTEX
  8
0
 62
9
  6
CONTINUOUS
 10
43.7573373727
 20
211.6631762742
  0
VERTEX
  8
0
 62
9
  6
CONTINUOUS
 10
43.9964895746
 20
211.5781678024
  0
SEQEND
  0
LINE
  8
0
 62
9
  6
CONTINUOUS
 10
50.7366419026
 20
218.154479406
 11
50.8727915171
 21
209.354479406
  0
LINE
  8
0
 62
9
  6
CONTINUOUS
 10
50.8727915187
 20
226.954479406
 11
50.7366419026
 21
218.154479406
  0
POLYLINE
  8
0
 62
9
  6
CONTINUOUS
 66
1
 70
0
  0
VERTEX
  8
0
 62
9
  6
CONTINUOUS
 10
49.3498514899
 20
220.9300480993
  0
VERTEX
  8
0
 62
9
  6
CONTINUOUS
 10
49.1389426459
 20
220.7417105716
  0
VERTEX
  8
0
 62
9
  6
CONTINUOUS
 10
49.0550602881
 20
220.5870032678
  0
VERTEX
  8
0
 62
9
  6
CONTINUOUS
 10
48.9507324906
 20
220.1939388255
  0
VERTEX
  8
0
 62
9
  6
CONTINUOUS
 10
48.9353846002
 20
219.9747876362
  0
SEQEND
  0
POLYLINE
  8
0
 62
9
  6
CONTINUOUS
 66
1
 70
0
  0
VERTEX
  8
0
 62
9
  6
CONTINUOUS
 10
43.8149616358
 20
211.8736002147
  0
VERTEX
  8
0
 62
9
  6
CONTINUOUS
 10
43.7555523333
 20
211.8099932774
  0
VERTEX
  8
0
 62
9
  6
CONTINUOUS
 10
43.6948244523
 20
211.754637395
  0
VERTEX
  8
0
 62
9
  6
CONTINUOUS
 10
43.6334337031
 20
211.7081302731
  0
SEQEND
  0
POLYLINE
  8
0
 62
9
  6
CONTINUOUS
 66
1
 70
0
  0
VERTEX
  8
0
 62
9
  6
CONTINUOUS
 10
43.3958085055
 20
212.6649357267
  0
VERTEX
  8
0
 62
9
  6
CONTINUOUS
 10
43.2169415007
 20
212.4965958347
  0
VERTEX
  8
0
 62
9
  6
CONTINUOUS
 10
43.0126011249
 20
212.3678693785
  0
VERTEX
  8
0
 62
9
  6
CONTINUOUS
 10
42.7951275033
 20
212.286530153
  0
SEQEND
  0
LINE
  8
0
 62
7
  6
CONTINUOUS
 10
49.4715572912
 20
220.9225528183
 11
49.5295339068
 21
220.954479406
  0
POLYLINE
  8
0
 62
9
  6
CONTINUOUS
 66
1
 70
0
  0
VERTEX
  8
0
 62
9
  6
CONTINUOUS
 10
73.7072033459
 20
209.8903777909
  0
VERTEX
  8
0
 62
9
  6
CONTINUOUS
 10
73.9276102483
 20
209.9107149123
  0
VERTEX
  8
0
 62
9
  6
CONTINUOUS
 10
74.3255920245
 20
210.0731352707
  0
VERTEX
  8
0
 62
9
  6
CONTINUOUS
 10
74.4835910656
 20
210.2072294137
  0
VERTEX
  8
0
 62
9
  6
CONTINUOUS
 10
74.6791296259
 20
210.5485311056
  0
VERTEX
  8
0
 62
9
  6
CONTINUOUS
 10
74.7070510411
 20
210.7389507882
  0
SEQEND
  0
LINE
  8
2_FEATURE
 62
7
  6
CONTINUOUS
 10
73.7001877401
 20
209.354479406
 11
63.5727914091
 21
209.354479406
  0
LINE
  8
0
 62
7
  6
CONTINUOUS
 10
73.7001877401
 20
209.354479406
 11
63.5727914091
 21
209.354479406
  0
LINE
  8
2_FEATURE
 62
7
  6
CONTINUOUS
 10
48.3001877401
 20
209.354479406
 11
38.2564895746
 21
209.354479406
  0
LINE
  8
0
 62
7
  6
CONTINUOUS
 10
48.3001877401
 20
209.354479406
 11
38.2564895746
 21
209.354479406
  0
LINE
  8
0
 62
7
  6
CONTINUOUS
 10
50.8727914091
 20
209.354479406
 11
59.2601877401
 21
209.354479406
  0
LINE
  8
2_FEATURE
 62
7
  6
CONTINUOUS
 10
50.8727914091
 20
209.354479406
 11
59.2601877401
 21
209.354479406
  0
LINE
  8
0
 62
7
  6
CONTINUOUS
 10
76.2727914091
 20
209.354479406
 11
86.5364895746
 21
209.354479406
  0
POLYLINE
  8
0
 62
9
  6
CONTINUOUS
 66
1
 70
0
  0
VERTEX
  8
0
 62
9
  6
CONTINUOUS
 10
42.0802106659
 20
212.554479406
  0
VERTEX
  8
0
 62
9
  6
CONTINUOUS
 10
42.2907996306
 20
212.5160854341
  0
VERTEX
  8
0
 62
9
  6
CONTINUOUS
 10
42.4395809336
 20
212.4653820052
  0
VERTEX
  8
0
 62
9
  6
CONTINUOUS
 10
42.7951274993
 20
212.286530216
  0
SEQEND
  0
POLYLINE
  8
0
 62
9
  6
CONTINUOUS
 66
1
 70
0
  0
VERTEX
  8
0
 62
9
  6
CONTINUOUS
 10
73.7366638302
 20
211.5781678024
  0
VERTEX
  8
0
 62
9
  6
CONTINUOUS
 10
73.957070811
 20
211.5985049393
  0
VERTEX
  8
0
 62
9
  6
CONTINUOUS
 10
74.3550526505
 20
211.760925379
  0
VERTEX
  8
0
 62
9
  6
CONTINUOUS
 10
74.5130516682
 20
211.8950195519
  0
VERTEX
  8
0
 62
9
  6
CONTINUOUS
 10
74.7085901334
 20
212.2363212008
  0
VERTEX
  8
0
 62
9
  6
CONTINUOUS
 10
74.7365115253
 20
212.4267407998
  0
SEQEND
  0
POLYLINE
  8
0
 62
9
  6
CONTINUOUS
 66
1
 70
0
  0
VERTEX
  8
0
 62
9
  6
CONTINUOUS
 10
48.3072033459
 20
209.8903777909
  0
VERTEX
  8
0
 62
9
  6
CONTINUOUS
 10
48.5276102483
 20
209.9107149123
  0
VERTEX
  8
0
 62
9
  6
CONTINUOUS
 10
48.9255920245
 20
210.0731352707
  0
VERTEX
  8
0
 62
9
  6
CONTINUOUS
 10
49.0835910656
 20
210.2072294137
  0
VERTEX
  8
0
 62
9
  6
CONTINUOUS
 10
49.2791296259
 20
210.5485311056
  0
VERTEX
  8
0
 62
9
  6
CONTINUOUS
 10
49.3070510411
 20
210.7389507882
  0
SEQEND
  0
POLYLINE
  8
0
 62
9
  6
CONTINUOUS
 66
1
 70
0
  0
VERTEX
  8
0
 62
9
  6
CONTINUOUS
 10
73.7393455235
 20
211.8854367981
  0
VERTEX
  8
0
 62
9
  6
CONTINUOUS
 10
73.9601177497
 20
211.9011195517
  0
VERTEX
  8
0
 62
9
  6
CONTINUOUS
 10
74.3586136604
 20
212.0331754917
  0
VERTEX
  8
0
 62
9
  6
CONTINUOUS
 10
74.5166688975
 20
212.1430308313
  0
VERTEX
  8
0
 62
9
  6
CONTINUOUS
 10
74.7117735383
 20
212.4235533754
  0
VERTEX
  8
0
 62
9
  6
CONTINUOUS
 10
74.7391932187
 20
212.58037491
  0
SEQEND
  0
LINE
  8
0
 62
9
  6
CONTINUOUS
 10
73.7072040197
 20
209.8904163893
 11
63.5657751295
 21
209.8904163895
  0
LINE
  8
0
 62
9
  6
CONTINUOUS
 10
48.3072040197
 20
209.8904163893
 11
38.2564895746
 21
209.8903777909
  0
POLYLINE
  8
0
 62
9
  6
CONTINUOUS
 66
1
 70
0
  0
VERTEX
  8
0
 62
9
  6
CONTINUOUS
 10
63.5657758033
 20
209.8903777909
  0
VERTEX
  8
0
 62
9
  6
CONTINUOUS
 10
63.3453687637
 20
209.9107149383
  0
VERTEX
  8
0
 62
9
  6
CONTINUOUS
 10
62.9473868615
 20
210.0731354483
  0
VERTEX
  8
0
 62
9
  6
CONTINUOUS
 10
62.7893878582
 20
210.2072296527
  0
VERTEX
  8
0
 62
9
  6
CONTINUOUS
 10
62.593849477
 20
210.5485312709
  0
VERTEX
  8
0
 62
9
  6
CONTINUOUS
 10
62.5659281081
 20
210.7389507882
  0
SEQEND
  0
POLYLINE
  8
0
 62
9
  6
CONTINUOUS
 66
1
 70
0
  0
VERTEX
  8
0
 62
9
  6
CONTINUOUS
 10
42.9964895746
 20
217.8124643383
  0
VERTEX
  8
0
 62
9
  6
CONTINUOUS
 10
43.0215616624
 20
217.8202302069
  0
VERTEX
  8
0
 62
9
  6
CONTINUOUS
 10
43.2146580921
 20
217.8342238186
  0
VERTEX
  8
0
 62
9
  6
CONTINUOUS
 10
43.3729997727
 20
217.8397498635
  0
VERTEX
  8
0
 62
9
  6
CONTINUOUS
 10
43.7739686406
 20
217.8464888318
  0
SEQEND
  0
POLYLINE
  8
0
 62
9
  6
CONTINUOUS
 66
1
 70
0
  0
VERTEX
  8
0
 62
9
  6
CONTINUOUS
 10
48.3366638302
 20
211.5781678024
  0
VERTEX
  8
0
 62
9
  6
CONTINUOUS
 10
48.557070811
 20
211.5985049393
  0
VERTEX
  8
0
 62
9
  6
CONTINUOUS
 10
48.9550526505
 20
211.760925379
  0
VERTEX
  8
0
 62
9
  6
CONTINUOUS
 10
49.1130516682
 20
211.8950195519
  0
VERTEX
  8
0
 62
9
  6
CONTINUOUS
 10
49.3085901334
 20
212.2363212008
  0
VERTEX
  8
0
 62
9
  6
CONTINUOUS
 10
49.3365115253
 20
212.4267407998
  0
SEQEND
  0
POLYLINE
  8
0
 62
9
  6
CONTINUOUS
 66
1
 70
0
  0
VERTEX
  8
0
 62
9
  6
CONTINUOUS
 10
59.2920884981
 20
211.4163784127
  0
VERTEX
  8
0
 62
9
  6
CONTINUOUS
 10
59.5127334366
 20
211.4336585067
  0
VERTEX
  8
0
 62
9
  6
CONTINUOUS
 10
59.9110501339
 20
211.5762342532
  0
VERTEX
  8
0
 62
9
  6
CONTINUOUS
 10
60.0690857291
 20
211.6945011934
  0
VERTEX
  8
0
 62
9
  6
CONTINUOUS
 10
60.2643413939
 20
211.9961289951
  0
VERTEX
  8
0
 62
9
  6
CONTINUOUS
 10
60.2919357752
 20
212.1646202052
  0
SEQEND
  0
POLYLINE
  8
0
 62
9
  6
CONTINUOUS
 66
1
 70
0
  0
VERTEX
  8
0
 62
9
  6
CONTINUOUS
 10
48.3393455235
 20
211.8854367981
  0
VERTEX
  8
0
 62
9
  6
CONTINUOUS
 10
48.5601177497
 20
211.9011195517
  0
VERTEX
  8
0
 62
9
  6
CONTINUOUS
 10
48.9586136604
 20
212.0331754917
  0
VERTEX
  8
0
 62
9
  6
CONTINUOUS
 10
49.1166688975
 20
212.1430308313
  0
VERTEX
  8
0
 62
9
  6
CONTINUOUS
 10
49.3117735383
 20
212.4235533754
  0
VERTEX
  8
0
 62
9
  6
CONTINUOUS
 10
49.3391932187
 20
212.58037491
  0
SEQEND
  0
LINE
  8
0
 62
9
  6
CONTINUOUS
 10
73.7366638302
 20
211.5781678024
 11
63.536315319
 21
211.5781678024
  0
LINE
  8
0
 62
9
  6
CONTINUOUS
 10
48.3366638302
 20
211.5781678024
 11
43.9964895746
 21
211.5781678024
  0
LINE
  8
0
 62
9
  6
CONTINUOUS
 10
73.7393458809
 20
211.8854577849
 11
63.5336329961
 21
211.885474359
  0
LINE
  8
0
 62
9
  6
CONTINUOUS
 10
48.3393458809
 20
211.8854577849
 11
43.9964895746
 21
211.8854360229
  0
LINE
  8
0
 62
9
  6
CONTINUOUS
 10
42.7951275007
 20
212.286530216
 11
38.2564895746
 21
212.2865302136
  0
LINE
  8
0
 62
7
  6
CONTINUOUS
 10
38.2564895746
 20
212.554479406
 11
42.0802054989
 21
212.554479406
  0
POLYLINE
  8
0
 62
9
  6
CONTINUOUS
 66
1
 70
0
  0
VERTEX
  8
0
 62
9
  6
CONTINUOUS
 10
63.5336336256
 20
211.8854366073
  0
VERTEX
  8
0
 62
9
  6
CONTINUOUS
 10
63.3128613167
 20
211.9011193667
  0
VERTEX
  8
0
 62
9
  6
CONTINUOUS
 10
62.9143652901
 20
212.0331753588
  0
VERTEX
  8
0
 62
9
  6
CONTINUOUS
 10
62.7563100404
 20
212.1430307372
  0
VERTEX
  8
0
 62
9
  6
CONTINUOUS
 10
62.5612054978
 20
212.4235533549
  0
VERTEX
  8
0
 62
9
  6
CONTINUOUS
 10
62.5337859305
 20
212.58037491
  0
SEQEND
  0
POLYLINE
  8
0
 62
9
  6
CONTINUOUS
 66
1
 70
0
  0
VERTEX
  8
0
 62
9
  6
CONTINUOUS
 10
63.536315319
 20
211.5781678024
  0
VERTEX
  8
0
 62
9
  6
CONTINUOUS
 10
63.3159084166
 20
211.5985049239
  0
VERTEX
  8
0
 62
9
  6
CONTINUOUS
 10
62.9179266404
 20
211.7609252823
  0
VERTEX
  8
0
 62
9
  6
CONTINUOUS
 10
62.7599275994
 20
211.8950194253
  0
VERTEX
  8
0
 62
9
  6
CONTINUOUS
 10
62.5643890391
 20
212.2363211172
  0
VERTEX
  8
0
 62
9
  6
CONTINUOUS
 10
62.5364676239
 20
212.4267407998
  0
SEQEND
  0
LINE
  8
0
 62
9
  6
CONTINUOUS
 10
43.996489613
 20
220.954479406
 11
41.996274337
 21
221.9545872907
  0
POLYLINE
  8
0
 62
7
  6
CONTINUOUS
 66
1
 70
0
  0
VERTEX
  8
0
 62
7
  6
CONTINUOUS
 10
49.4364895746
 20
218.154479406
  0
VERTEX
  8
0
 62
7
  6
CONTINUOUS
 10
49.4113829604
 20
218.146708872
  0
VERTEX
  8
0
 62
7
  6
CONTINUOUS
 10
49.2182329714
 20
218.1327175321
  0
VERTEX
  8
0
 62
7
  6
CONTINUOUS
 10
49.0599264207
 20
218.1271940063
  0
VERTEX
  8
0
 62
7
  6
CONTINUOUS
 10
48.6589867099
 20
218.1204556667
  0
VERTEX
  8
0
 62
7
  6
CONTINUOUS
 10
48.4363372466
 20
218.1195799093
  0
SEQEND
  0
LINE
  8
0
 62
7
  6
CONTINUOUS
 10
61.3329688233
 20
213.7470563757
 11
61.3330899188
 21
213.7470889665
  0
LINE
  8
0
 62
9
  6
CONTINUOUS
 10
43.9964895746
 20
211.885436023
 11
43.8149896658
 21
211.8735683816
  0
POLYLINE
  8
0
 62
9
  6
CONTINUOUS
 66
1
 70
0
  0
VERTEX
  8
0
 62
9
  6
CONTINUOUS
 10
61.0762755881
 20
214.2724044137
  0
VERTEX
  8
0
 62
9
  6
CONTINUOUS
 10
61.2976974667
 20
214.2802443991
  0
VERTEX
  8
0
 62
9
  6
CONTINUOUS
 10
61.6971071257
 20
214.359015275
  0
VERTEX
  8
0
 62
9
  6
CONTINUOUS
 10
61.8552617919
 20
214.4260346151
  0
VERTEX
  8
0
 62
9
  6
CONTINUOUS
 10
62.0495945794
 20
214.5988665192
  0
VERTEX
  8
0
 62
9
  6
CONTINUOUS
 10
62.0761232833
 20
214.6960968931
  0
SEQEND
  0
LINE
  8
0
 62
9
  6
CONTINUOUS
 10
37.2564895746
 20
214.554479406
 11
42.9964895746
 21
214.554479406
  0
LINE
  8
0
 62
7
  6
CONTINUOUS
 10
60.2919362114
 20
224.1443375694
 11
60.2600354353
 21
225.9719318124
  0
LINE
  8
0
 62
9
  6
CONTINUOUS
 10
59.2920884981
 20
224.8925793873
 11
59.2601877237
 21
226.954479406
  0
LINE
  8
0
 62
9
  6
CONTINUOUS
 10
59.2601877242
 20
209.354479406
 11
59.2920884981
 21
211.4163794246
  0
LINE
  8
0
 62
7
  6
CONTINUOUS
 10
60.2919365325
 20
212.1646396381
 11
60.2600354353
 21
210.3370269996
  0
POLYLINE
  8
0
 62
7
  6
CONTINUOUS
 66
1
 70
0
  0
VERTEX
  8
0
 62
7
  6
CONTINUOUS
 10
60.2919361145
 20
212.1646396454
  0
VERTEX
  8
0
 62
7
  6
CONTINUOUS
 10
60.2938727819
 20
212.1999980949
  0
VERTEX
  8
0
 62
7
  6
CONTINUOUS
 10
60.3025133922
 20
212.2646042411
  0
VERTEX
  8
0
 62
7
  6
CONTINUOUS
 10
60.3191694815
 20
212.3425701258
  0
VERTEX
  8
0
 62
7
  6
CONTINUOUS
 10
60.3438853317
 20
212.4297470758
  0
VERTEX
  8
0
 62
7
  6
CONTINUOUS
 10
60.3759386919
 20
212.5225234009
  0
VERTEX
  8
0
 62
7
  6
CONTINUOUS
 10
60.4143727495
 20
212.6182771848
  0
VERTEX
  8
0
 62
7
  6
CONTINUOUS
 10
60.4581426731
 20
212.7149516708
  0
VERTEX
  8
0
 62
7
  6
CONTINUOUS
 10
60.5062125634
 20
212.8109210658
  0
VERTEX
  8
0
 62
7
  6
CONTINUOUS
 10
60.5575889157
 20
212.9048683762
  0
VERTEX
  8
0
 62
7
  6
CONTINUOUS
 10
60.6113160628
 20
212.9956862482
  0
VERTEX
  8
0
 62
7
  6
CONTINUOUS
 10
60.6653330763
 20
213.080695793
  0
VERTEX
  8
0
 62
7
  6
CONTINUOUS
 10
60.7170674663
 20
213.1570083825
  0
VERTEX
  8
0
 62
7
  6
CONTINUOUS
 10
60.7676939498
 20
213.2273542578
  0
VERTEX
  8
0
 62
7
  6
CONTINUOUS
 10
60.818207108
 20
213.2935969941
  0
VERTEX
  8
0
 62
7
  6
CONTINUOUS
 10
60.8684132182
 20
213.3557426662
  0
VERTEX
  8
0
 62
7
  6
CONTINUOUS
 10
60.9180239353
 20
213.4136556599
  0
VERTEX
  8
0
 62
7
  6
CONTINUOUS
 10
60.9667571976
 20
213.467217696
  0
VERTEX
  8
0
 62
7
  6
CONTINUOUS
 10
61.0143203041
 20
213.5163026172
  0
VERTEX
  8
0
 62
7
  6
CONTINUOUS
 10
61.0600503243
 20
213.5604781744
  0
VERTEX
  8
0
 62
7
  6
CONTINUOUS
 10
61.1031652902
 20
213.5993015995
  0
VERTEX
  8
0
 62
7
  6
CONTINUOUS
 10
61.1441710568
 20
213.6335715129
  0
VERTEX
  8
0
 62
7
  6
CONTINUOUS
 10
61.183373356
 20
213.6636893436
  0
VERTEX
  8
0
 62
7
  6
CONTINUOUS
 10
61.220507077
 20
213.6896447391
  0
VERTEX
  8
0
 62
7
  6
CONTINUOUS
 10
61.2541034222
 20
213.7106685184
  0
VERTEX
  8
0
 62
7
  6
CONTINUOUS
 10
61.2846296497
 20
213.7273327659
  0
VERTEX
  8
0
 62
7
  6
CONTINUOUS
 10
61.310255512
 20
213.7391365629
  0
VERTEX
  8
0
 62
7
  6
CONTINUOUS
 10
61.3332034743
 20
213.7471165754
  0
SEQEND
  0
POLYLINE
  8
0
 62
9
  6
CONTINUOUS
 66
1
 70
0
  0
VERTEX
  8
0
 62
9
  6
CONTINUOUS
 10
59.2920884981
 20
211.4163794246
  0
VERTEX
  8
0
 62
9
  6
CONTINUOUS
 10
59.3580084171
 20
211.9103766437
  0
VERTEX
  8
0
 62
9
  6
CONTINUOUS
 10
59.4951321439
 20
212.3526775509
  0
VERTEX
  8
0
 62
9
  6
CONTINUOUS
 10
59.6747921948
 20
212.7625405171
  0
VERTEX
  8
0
 62
9
  6
CONTINUOUS
 10
59.8751482967
 20
213.126313486
  0
VERTEX
  8
0
 62
9
  6
CONTINUOUS
 10
60.1138234116
 20
213.4811474418
  0
VERTEX
  8
0
 62
9
  6
CONTINUOUS
 10
60.3969213353
 20
213.8162817443
  0
VERTEX
  8
0
 62
9
  6
CONTINUOUS
 10
60.7328077332
 20
214.1038177849
  0
VERTEX
  8
0
 62
9
  6
CONTINUOUS
 10
61.0762755881
 20
214.2724044137
  0
SEQEND
  0
POLYLINE
  8
0
 62
7
  6
CONTINUOUS
 66
1
 70
0
  0
VERTEX
  8
0
 62
7
  6
CONTINUOUS
 10
61.0762755881
 20
222.0365543983
  0
VERTEX
  8
0
 62
7
  6
CONTINUOUS
 10
61.1444012647
 20
222.2301495304
  0
VERTEX
  8
0
 62
7
  6
CONTINUOUS
 10
61.2649622142
 20
222.4969267152
  0
VERTEX
  8
0
 62
7
  6
CONTINUOUS
 10
61.3329690098
 20
222.5619023868
  0
SEQEND
  0
LINE
  8
0
 62
7
  6
CONTINUOUS
 10
62.0896009196
 20
220.8407286503
 11
62.1726967126
 21
220.9233436937
  0
POLYLINE
  8
0
 62
9
  6
CONTINUOUS
 66
1
 70
0
  0
VERTEX
  8
0
 62
9
  6
CONTINUOUS
 10
62.4427160287
 20
221.6101645923
  0
VERTEX
  8
0
 62
9
  6
CONTINUOUS
 10
62.1752931932
 20
221.4466854054
  0
VERTEX
  8
0
 62
9
  6
CONTINUOUS
 10
62.0824848482
 20
221.2484081402
  0
SEQEND
  0
LINE
  8
0
 62
7
  6
CONTINUOUS
 10
62.1726967126
 20
220.9233436937
 11
62.2318736834
 21
220.9556412726
  0
POLYLINE
  8
0
 62
7
  6
CONTINUOUS
 66
1
 70
0
  0
VERTEX
  8
0
 62
7
  6
CONTINUOUS
 10
61.0762755881
 20
214.2724044137
  0
VERTEX
  8
0
 62
7
  6
CONTINUOUS
 10
61.1444010466
 20
214.0788096965
  0
VERTEX
  8
0
 62
7
  6
CONTINUOUS
 10
61.2649618098
 20
213.8120324889
  0
VERTEX
  8
0
 62
7
  6
CONTINUOUS
 10
61.3329688233
 20
213.7470563757
  0
SEQEND
  0
LINE
  8
0
 62
9
  6
CONTINUOUS
 10
62.4981787566
 20
220.7055394106
 11
62.4942070085
 21
220.8292744162
  0
LINE
  8
0
 62
7
  6
CONTINUOUS
 10
62.1364895746
 20
218.154479406
 11
62.0000354353
 21
225.9719318124
  0
LINE
  8
0
 62
7
  6
CONTINUOUS
 10
62.4364895746
 20
218.154479406
 11
62.5729437139
 21
210.3370269996
  0
LINE
  8
0
 62
9
  6
CONTINUOUS
 10
61.1363372466
 20
218.154479406
 11
61.0762755881
 21
222.0365543983
  0
LINE
  8
0
 62
9
  6
CONTINUOUS
 10
61.0762755881
 20
214.2724044137
 11
61.1363372466
 21
218.154479406
  0
LINE
  8
0
 62
7
  6
CONTINUOUS
 10
62.0761232833
 20
214.6960968927
 11
62.1364895746
 21
218.154479406
  0
LINE
  8
0
 62
7
  6
CONTINUOUS
 10
62.4833873579
 20
220.841251613
 11
62.4364895746
 21
218.154479406
  0
LINE
  8
0
 62
7
  6
CONTINUOUS
 10
60.2868642213
 20
212.2295852039
 11
60.2869023251
 21
212.229758722
  0
LINE
  8
0
 62
9
  6
CONTINUOUS
 10
42.5236818681
 20
212.6655733891
 11
42.0802137539
 21
212.5544721916
  0
LINE
  8
0
 62
9
  6
CONTINUOUS
 10
74.866572624
 20
220.9544757583
 11
74.7498514899
 21
220.9300480993
  0
POLYLINE
  8
0
 62
9
  6
CONTINUOUS
 66
1
 70
0
  0
VERTEX
  8
0
 62
9
  6
CONTINUOUS
 10
63.4413934519
 20
217.847363835
  0
VERTEX
  8
0
 62
9
  6
CONTINUOUS
 10
63.2189910875
 20
217.8443608435
  0
VERTEX
  8
0
 62
9
  6
CONTINUOUS
 10
62.8182023785
 20
217.8441075401
  0
VERTEX
  8
0
 62
9
  6
CONTINUOUS
 10
62.6598977543
 20
217.8468699187
  0
VERTEX
  8
0
 62
9
  6
CONTINUOUS
 10
62.466730099
 20
217.8574876147
  0
VERTEX
  8
0
 62
9
  6
CONTINUOUS
 10
62.4415457567
 20
217.8648109253
  0
SEQEND
  0
LINE
  8
0
 62
9
  6
CONTINUOUS
 10
73.8315875876
 20
217.8474721309
 11
63.4413915616
 21
217.8474721309
  0
LINE
  8
0
 62
9
  6
CONTINUOUS
 10
48.4315875876
 20
217.8474721309
 11
43.7739686406
 21
217.8464888318
  0
LINE
  8
1_AXIS
 62
2
  6
CENTER
 10
47.7364895746
 20
218.154479406
 11
89.5364895746
 21
218.154479406
  0
LINE
  8
0
 62
7
  6
CONTINUOUS
 10
62.1364895746
 20
218.154479406
 11
61.1363372466
 21
218.154479406
  0
LINE
  8
0
 62
7
  6
CONTINUOUS
 10
49.7364895746
 20
218.154479406
 11
50.7366419026
 21
218.154479406
  0
LINE
  8
0
 62
7
  6
CONTINUOUS
 10
75.1364895746
 20
218.154479406
 11
76.1366419026
 21
218.154479406
  0
POLYLINE
  8
0
 62
9
  6
CONTINUOUS
 66
1
 70
0
  0
VERTEX
  8
0
 62
9
  6
CONTINUOUS
 10
48.4315856973
 20
217.847363835
  0
VERTEX
  8
0
 62
9
  6
CONTINUOUS
 10
48.6539879637
 20
217.8443608449
  0
VERTEX
  8
0
 62
9
  6
CONTINUOUS
 10
49.0547765792
 20
217.8441075391
  0
VERTEX
  8
0
 62
9
  6
CONTINUOUS
 10
49.2130812307
 20
217.8468699153
  0
VERTEX
  8
0
 62
9
  6
CONTINUOUS
 10
49.4062490177
 20
217.8574876107
  0
VERTEX
  8
0
 62
9
  6
CONTINUOUS
 10
49.4314333925
 20
217.8648109253
  0
SEQEND
  0
POLYLINE
  8
0
 62
9
  6
CONTINUOUS
 66
1
 70
0
  0
VERTEX
  8
0
 62
9
  6
CONTINUOUS
 10
73.8315856973
 20
217.847363835
  0
VERTEX
  8
0
 62
9
  6
CONTINUOUS
 10
74.0539879637
 20
217.8443608449
  0
VERTEX
  8
0
 62
9
  6
CONTINUOUS
 10
74.4547765792
 20
217.8441075391
  0
VERTEX
  8
0
 62
9
  6
CONTINUOUS
 10
74.6130812307
 20
217.8468699153
  0
VERTEX
  8
0
 62
9
  6
CONTINUOUS
 10
74.8062490177
 20
217.8574876107
  0
VERTEX
  8
0
 62
9
  6
CONTINUOUS
 10
74.8314333925
 20
217.8648109253
  0
SEQEND
  0
POLYLINE
  8
0
 62
7
  6
CONTINUOUS
 66
1
 70
0
  0
VERTEX
  8
0
 62
7
  6
CONTINUOUS
 10
62.4364895746
 20
218.154479406
  0
VERTEX
  8
0
 62
7
  6
CONTINUOUS
 10
62.4615440588
 20
218.1467168409
  0
VERTEX
  8
0
 62
7
  6
CONTINUOUS
 10
62.6546877548
 20
218.1327200883
  0
VERTEX
  8
0
 62
7
  6
CONTINUOUS
 10
62.8131259838
 20
218.127191968
  0
VERTEX
  8
0
 62
7
  6
CONTINUOUS
 10
63.2142207889
 20
218.1204538482
  0
VERTEX
  8
0
 62
7
  6
CONTINUOUS
 10
63.4366419026
 20
218.1195799093
  0
SEQEND
  0
LINE
  8
0
 62
9
  6
CONTINUOUS
 10
63.536315319
 20
211.5781678024
 11
63.5657751295
 21
209.8904163895
  0
LINE
  8
0
 62
9
  6
CONTINUOUS
 10
63.3005795196
 20
225.954479406
 11
63.3704296054
 21
221.954479406
  0
LINE
  8
0
 62
9
  6
CONTINUOUS
 10
63.4366419026
 20
218.1195799093
 11
63.5336329961
 21
211.885474359
  0
LINE
  8
0
 62
9
  6
CONTINUOUS
 10
63.5657753566
 20
209.8904163902
 11
63.5727914768
 21
209.354479406
  0
LINE
  8
0
 62
9
  6
CONTINUOUS
 10
63.5336333059
 20
211.8854743594
 11
63.536315319
 21
211.5781678024
  0
LINE
  8
0
 62
9
  6
CONTINUOUS
 10
63.3005380946
 20
226.954479406
 11
63.3005380946
 21
225.954479406
  0
LINE
  8
0
 62
9
  6
CONTINUOUS
 10
63.3703583543
 20
221.954479406
 11
63.3703583543
 21
220.954479406
  0
LINE
  8
0
 62
9
  6
CONTINUOUS
 10
63.4692793655
 20
220.954479406
 11
63.4692793655
 21
219.9893789027
  0
LINE
  8
0
 62
9
  6
CONTINUOUS
 10
63.4693284773
 20
219.9893789027
 11
63.4366419026
 21
218.1195799093
  0
POLYLINE
  8
0
 62
7
  6
CONTINUOUS
 66
1
 70
0
  0
VERTEX
  8
0
 62
7
  6
CONTINUOUS
 10
62.0761232833
 20
214.6960968927
  0
VERTEX
  8
0
 62
7
  6
CONTINUOUS
 10
61.9773581731
 20
214.2799017753
  0
VERTEX
  8
0
 62
7
  6
CONTINUOUS
 10
61.7283781855
 20
213.95541857
  0
VERTEX
  8
0
 62
7
  6
CONTINUOUS
 10
61.3329688233
 20
213.7470563757
  0
SEQEND
  0
POLYLINE
  8
0
 62
9
  6
CONTINUOUS
 66
1
 70
0
  0
VERTEX
  8
0
 62
9
  6
CONTINUOUS
 10
63.4693284976
 20
219.9893800674
  0
VERTEX
  8
0
 62
9
  6
CONTINUOUS
 10
63.2836822885
 20
219.9855406573
  0
VERTEX
  8
0
 62
9
  6
CONTINUOUS
 10
63.1041399334
 20
219.9806138972
  0
VERTEX
  8
0
 62
9
  6
CONTINUOUS
 10
62.9375938408
 20
219.9747873574
  0
SEQEND
  0
LINE
  8
0
 62
9
  6
CONTINUOUS
 10
73.8036506886
 20
219.9893789027
 11
63.4693284773
 21
219.9893789027
  0
LINE
  8
0
 62
9
  6
CONTINUOUS
 10
48.4036506886
 20
219.9893789027
 11
43.7739686406
 21
219.9885038994
  0
POLYLINE
  8
0
 62
9
  6
CONTINUOUS
 66
1
 70
0
  0
VERTEX
  8
0
 62
9
  6
CONTINUOUS
 10
48.9353855815
 20
219.9747875987
  0
VERTEX
  8
0
 62
9
  6
CONTINUOUS
 10
48.7688394081
 20
219.9806138903
  0
VERTEX
  8
0
 62
9
  6
CONTINUOUS
 10
48.5892969625
 20
219.9855406555
  0
VERTEX
  8
0
 62
9
  6
CONTINUOUS
 10
48.4036506682
 20
219.989380067
  0
SEQEND
  0
POLYLINE
  8
0
 62
9
  6
CONTINUOUS
 66
1
 70
0
  0
VERTEX
  8
0
 62
9
  6
CONTINUOUS
 10
62.9375938408
 20
219.9747873574
  0
VERTEX
  8
0
 62
9
  6
CONTINUOUS
 10
62.7404172975
 20
220.0229160011
  0
VERTEX
  8
0
 62
9
  6
CONTINUOUS
 10
62.5983576642
 20
220.1963889291
  0
VERTEX
  8
0
 62
9
  6
CONTINUOUS
 10
62.5271220348
 20
220.4429848308
  0
VERTEX
  8
0
 62
9
  6
CONTINUOUS
 10
62.4981787566
 20
220.7055394106
  0
SEQEND
  0
POLYLINE
  8
0
 62
7
  6
CONTINUOUS
 66
1
 70
0
  0
VERTEX
  8
0
 62
7
  6
CONTINUOUS
 10
62.39710495
 20
220.925514447
  0
VERTEX
  8
0
 62
7
  6
CONTINUOUS
 10
62.4923646218
 20
220.832484476
  0
VERTEX
  8
0
 62
7
  6
CONTINUOUS
 10
62.5189280094
 20
220.7862020861
  0
SEQEND
  0
POLYLINE
  8
0
 62
7
  6
CONTINUOUS
 66
1
 70
0
  0
VERTEX
  8
0
 62
7
  6
CONTINUOUS
 10
62.0761232833
 20
221.6128619192
  0
VERTEX
  8
0
 62
7
  6
CONTINUOUS
 10
61.9773581731
 20
222.0290570367
  0
VERTEX
  8
0
 62
7
  6
CONTINUOUS
 10
61.7283781855
 20
222.353540242
  0
VERTEX
  8
0
 62
7
  6
CONTINUOUS
 10
61.3329690098
 20
222.5619023868
  0
SEQEND
  0
LINE
  8
0
 62
7
  6
CONTINUOUS
 10
74.8715572912
 20
220.9225528183
 11
74.9295339068
 21
220.954479406
  0
POLYLINE
  8
0
 62
7
  6
CONTINUOUS
 66
1
 70
0
  0
VERTEX
  8
0
 62
7
  6
CONTINUOUS
 10
74.8364895746
 20
218.154479406
  0
VERTEX
  8
0
 62
7
  6
CONTINUOUS
 10
74.8113829604
 20
218.146708872
  0
VERTEX
  8
0
 62
7
  6
CONTINUOUS
 10
74.6182329714
 20
218.1327175321
  0
VERTEX
  8
0
 62
7
  6
CONTINUOUS
 10
74.4599264207
 20
218.1271940063
  0
VERTEX
  8
0
 62
7
  6
CONTINUOUS
 10
74.0589867099
 20
218.1204556667
  0
VERTEX
  8
0
 62
7
  6
CONTINUOUS
 10
73.8363372466
 20
218.1195799093
  0
SEQEND
  0
POLYLINE
  8
0
 62
9
  6
CONTINUOUS
 66
1
 70
0
  0
VERTEX
  8
0
 62
9
  6
CONTINUOUS
 10
62.2313558051
 20
220.9608773461
  0
VERTEX
  8
0
 62
9
  6
CONTINUOUS
 10
62.4564873961
 20
220.9831441786
  0
VERTEX
  8
0
 62
9
  6
CONTINUOUS
 10
62.6652071827
 20
221.0746943357
  0
VERTEX
  8
0
 62
9
  6
CONTINUOUS
 10
62.7445085851
 20
221.2016818671
  0
VERTEX
  8
0
 62
9
  6
CONTINUOUS
 10
62.7211738782
 20
221.3355145718
  0
VERTEX
  8
0
 62
9
  6
CONTINUOUS
 10
62.6087029689
 20
221.4802011705
  0
VERTEX
  8
0
 62
9
  6
CONTINUOUS
 10
62.442719216
 20
221.6101628768
  0
SEQEND
  0
POLYLINE
  8
0
 62
9
  6
CONTINUOUS
 66
1
 70
0
  0
VERTEX
  8
0
 62
9
  6
CONTINUOUS
 10
43.7739686406
 20
219.9885038994
  0
VERTEX
  8
0
 62
9
  6
CONTINUOUS
 10
43.3729997709
 20
219.9817649312
  0
VERTEX
  8
0
 62
9
  6
CONTINUOUS
 10
43.2146580901
 20
219.9762388862
  0
VERTEX
  8
0
 62
9
  6
CONTINUOUS
 10
43.0215616621
 20
219.9622452745
  0
VERTEX
  8
0
 62
9
  6
CONTINUOUS
 10
42.9964895746
 20
219.954479406
  0
SEQEND
  0
LINE
  8
0
 62
9
  6
CONTINUOUS
 10
73.9025529364
 20
221.9544785062
 11
75.203121552
 21
221.971822835
  0
LINE
  8
0
 62
7
  6
CONTINUOUS
 10
43.9964895746
 20
220.954479406
 11
49.7853638012
 21
220.954479406
  0
LINE
  8
0
 62
7
  6
CONTINUOUS
 10
62.2318736834
 20
220.954479406
 11
75.0391740609
 21
220.954479406
  0
POLYLINE
  8
0
 62
9
  6
CONTINUOUS
 66
1
 70
0
  0
VERTEX
  8
0
 62
9
  6
CONTINUOUS
 10
74.3353855815
 20
219.9747875987
  0
VERTEX
  8
0
 62
9
  6
CONTINUOUS
 10
74.1688394081
 20
219.9806138903
  0
VERTEX
  8
0
 62
9
  6
CONTINUOUS
 10
73.9892969625
 20
219.9855406555
  0
VERTEX
  8
0
 62
9
  6
CONTINUOUS
 10
73.8036506682
 20
219.989380067
  0
SEQEND
  0
LINE
  8
0
 62
9
  6
CONTINUOUS
 10
62.4063954182
 20
220.95448402
 11
62.5231162242
 21
220.9300600525
  0
POLYLINE
  8
0
 62
9
  6
CONTINUOUS
 66
1
 70
0
  0
VERTEX
  8
0
 62
9
  6
CONTINUOUS
 10
61.0762755881
 20
222.0365543983
  0
VERTEX
  8
0
 62
9
  6
CONTINUOUS
 10
60.7308112059
 20
222.2064991552
  0
VERTEX
  8
0
 62
9
  6
CONTINUOUS
 10
60.3915827048
 20
222.4982043748
  0
VERTEX
  8
0
 62
9
  6
CONTINUOUS
 10
60.1080825449
 20
222.8355219402
  0
VERTEX
  8
0
 62
9
  6
CONTINUOUS
 10
59.8696796729
 20
223.1916710644
  0
VERTEX
  8
0
 62
9
  6
CONTINUOUS
 10
59.6722816409
 20
223.5514787043
  0
VERTEX
  8
0
 62
9
  6
CONTINUOUS
 10
59.4969904695
 20
223.9513903297
  0
VERTEX
  8
0
 62
9
  6
CONTINUOUS
 10
59.3593331037
 20
224.3929882933
  0
VERTEX
  8
0
 62
9
  6
CONTINUOUS
 10
59.2920884981
 20
224.8925793873
  0
SEQEND
  0
LINE
  8
0
 62
7
  6
CONTINUOUS
 10
62.3392181035
 20
220.954479406
 11
62.39710495
 21
220.925514447
  0
POLYLINE
  8
0
 62
9
  6
CONTINUOUS
 66
1
 70
0
  0
VERTEX
  8
0
 62
9
  6
CONTINUOUS
 10
62.442719216
 20
221.6101628768
  0
VERTEX
  8
0
 62
9
  6
CONTINUOUS
 10
62.1661151465
 20
221.8108668359
  0
VERTEX
  8
0
 62
9
  6
CONTINUOUS
 10
62.0698598175
 20
221.971810768
  0
SEQEND
  0
POLYLINE
  8
0
 62
9
  6
CONTINUOUS
 66
1
 70
0
  0
VERTEX
  8
0
 62
9
  6
CONTINUOUS
 10
62.5231162242
 20
220.9300600525
  0
VERTEX
  8
0
 62
9
  6
CONTINUOUS
 10
62.7340294743
 20
220.7417240408
  0
VERTEX
  8
0
 62
9
  6
CONTINUOUS
 10
62.8179150855
 20
220.5870148215
  0
VERTEX
  8
0
 62
9
  6
CONTINUOUS
 10
62.9222476235
 20
220.1939430105
  0
VERTEX
  8
0
 62
9
  6
CONTINUOUS
 10
62.9375956288
 20
219.9747874258
  0
SEQEND
  0
POLYLINE
  8
0
 62
9
  6
CONTINUOUS
 66
1
 70
0
  0
VERTEX
  8
0
 62
9
  6
CONTINUOUS
 10
74.8302510496
 20
221.6101626345
  0
VERTEX
  8
0
 62
9
  6
CONTINUOUS
 10
74.66371576
 20
221.4796679431
  0
VERTEX
  8
0
 62
9
  6
CONTINUOUS
 10
74.5514825929
 20
221.3348699983
  0
VERTEX
  8
0
 62
9
  6
CONTINUOUS
 10
74.5285735137
 20
221.2010656214
  0
VERTEX
  8
0
 62
9
  6
CONTINUOUS
 10
74.6083234664
 20
221.0742510431
  0
VERTEX
  8
0
 62
9
  6
CONTINUOUS
 10
74.8169717946
 20
220.9830341615
  0
VERTEX
  8
0
 62
9
  6
CONTINUOUS
 10
75.0278140784
 20
220.9622236058
  0
SEQEND
  0
LINE
  8
0
 62
9
  6
CONTINUOUS
 10
49.466572624
 20
220.9544757583
 11
49.3498514899
 21
220.9300480993
  0
LINE
  8
0
 62
9
  6
CONTINUOUS
 10
48.5025529364
 20
221.9544785062
 11
49.803123457
 21
221.9719319713
  0
LINE
  8
0
 62
9
  6
CONTINUOUS
 10
41.9964895746
 20
221.9545872871
 11
48.5025529521
 21
221.954479406
  0
LINE
  8
0
 62
9
  6
CONTINUOUS
 10
63.3704296054
 20
221.954479406
 11
73.9025529521
 21
221.954479406
  0
LINE
  8
0
 62
9
  6
CONTINUOUS
 10
62.0698578089
 20
221.9718107084
 11
63.3704296219
 21
221.9544784612
  0
POLYLINE
  8
0
 62
9
  6
CONTINUOUS
 66
1
 70
0
  0
VERTEX
  8
0
 62
9
  6
CONTINUOUS
 10
61.0762755881
 20
222.0365543983
  0
VERTEX
  8
0
 62
9
  6
CONTINUOUS
 10
61.2976979937
 20
222.0287143662
  0
VERTEX
  8
0
 62
9
  6
CONTINUOUS
 10
61.6971080191
 20
221.9499432351
  0
VERTEX
  8
0
 62
9
  6
CONTINUOUS
 10
61.8552624507
 20
221.8829238428
  0
VERTEX
  8
0
 62
9
  6
CONTINUOUS
 10
62.049594653
 20
221.7100921548
  0
VERTEX
  8
0
 62
9
  6
CONTINUOUS
 10
62.0761232833
 20
221.6128619189
  0
SEQEND
  0
LINE
  8
0
 62
7
  6
CONTINUOUS
 10
61.3329690098
 20
222.5619023868
 11
61.3330885856
 21
222.5618702116
  0
POLYLINE
  8
0
 62
7
  6
CONTINUOUS
 66
1
 70
0
  0
VERTEX
  8
0
 62
7
  6
CONTINUOUS
 10
61.3332016709
 20
222.5618411409
  0
VERTEX
  8
0
 62
7
  6
CONTINUOUS
 10
61.3110145812
 20
222.5695155632
  0
VERTEX
  8
0
 62
7
  6
CONTINUOUS
 10
61.2808364993
 20
222.5835599792
  0
VERTEX
  8
0
 62
7
  6
CONTINUOUS
 10
61.2464630485
 20
222.6028368568
  0
VERTEX
  8
0
 62
7
  6
CONTINUOUS
 10
61.2092441336
 20
222.6269091257
  0
VERTEX
  8
0
 62
7
  6
CONTINUOUS
 10
61.1683877818
 20
222.6564631736
  0
VERTEX
  8
0
 62
7
  6
CONTINUOUS
 10
61.1248731372
 20
222.6911802637
  0
VERTEX
  8
0
 62
7
  6
CONTINUOUS
 10
61.0791268939
 20
222.7309598033
  0
VERTEX
  8
0
 62
7
  6
CONTINUOUS
 10
61.0318330684
 20
222.7753828339
  0
VERTEX
  8
0
 62
7
  6
CONTINUOUS
 10
60.9832227227
 20
222.8243917471
  0
VERTEX
  8
0
 62
7
  6
CONTINUOUS
 10
60.9336321684
 20
222.8777895327
  0
VERTEX
  8
0
 62
7
  6
CONTINUOUS
 10
60.8834665586
 20
222.9352807697
  0
VERTEX
  8
0
 62
7
  6
CONTINUOUS
 10
60.8330925819
 20
222.996559215
  0
VERTEX
  8
0
 62
7
  6
CONTINUOUS
 10
60.7826060614
 20
223.0616503736
  0
VERTEX
  8
0
 62
7
  6
CONTINUOUS
 10
60.7572643631
 20
223.0957639525
  0
VERTEX
  8
0
 62
7
  6
CONTINUOUS
 10
60.7062799454
 20
223.1674797786
  0
VERTEX
  8
0
 62
7
  6
CONTINUOUS
 10
60.6550877267
 20
223.2439470919
  0
VERTEX
  8
0
 62
7
  6
CONTINUOUS
 10
60.604390089
 20
223.3246062509
  0
VERTEX
  8
0
 62
7
  6
CONTINUOUS
 10
60.5548677048
 20
223.4088784946
  0
VERTEX
  8
0
 62
7
  6
CONTINUOUS
 10
60.5070417892
 20
223.4964571868
  0
VERTEX
  8
0
 62
7
  6
CONTINUOUS
 10
60.4615224404
 20
223.5869520125
  0
VERTEX
  8
0
 62
7
  6
CONTINUOUS
 10
60.4191073479
 20
223.6796858074
  0
VERTEX
  8
0
 62
7
  6
CONTINUOUS
 10
60.3809022706
 20
223.7733052341
  0
VERTEX
  8
0
 62
7
  6
CONTINUOUS
 10
60.3481706584
 20
223.8658163892
  0
VERTEX
  8
0
 62
7
  6
CONTINUOUS
 10
60.3221675319
 20
223.9545998532
  0
VERTEX
  8
0
 62
7
  6
CONTINUOUS
 10
60.3040506923
 20
224.0357683517
  0
VERTEX
  8
0
 62
7
  6
CONTINUOUS
 10
60.2942877757
 20
224.1044153524
  0
VERTEX
  8
0
 62
7
  6
CONTINUOUS
 10
60.291936274
 20
224.1443091126
  0
SEQEND
  0
POLYLINE
  8
0
 62
9
  6
CONTINUOUS
 66
1
 70
0
  0
VERTEX
  8
0
 62
9
  6
CONTINUOUS
 10
74.7498514899
 20
220.9300480993
  0
VERTEX
  8
0
 62
9
  6
CONTINUOUS
 10
74.5389426459
 20
220.7417105716
  0
VERTEX
  8
0
 62
9
  6
CONTINUOUS
 10
74.4550602881
 20
220.5870032678
  0
VERTEX
  8
0
 62
9
  6
CONTINUOUS
 10
74.3507324906
 20
220.1939388255
  0
VERTEX
  8
0
 62
9
  6
CONTINUOUS
 10
74.3353846002
 20
219.9747876362
  0
SEQEND
  0
POLYLINE
  8
0
 62
9
  6
CONTINUOUS
 66
1
 70
0
  0
VERTEX
  8
0
 62
9
  6
CONTINUOUS
 10
59.2920884981
 20
224.8925788563
  0
VERTEX
  8
0
 62
9
  6
CONTINUOUS
 10
59.5127338143
 20
224.875298631
  0
VERTEX
  8
0
 62
9
  6
CONTINUOUS
 10
59.9110511319
 20
224.732722999
  0
VERTEX
  8
0
 62
9
  6
CONTINUOUS
 10
60.0690868595
 20
224.6144562954
  0
VERTEX
  8
0
 62
9
  6
CONTINUOUS
 10
60.2643422467
 20
224.3128292887
  0
VERTEX
  8
0
 62
9
  6
CONTINUOUS
 10
60.2919361932
 20
224.1443386141
  0
SEQEND
  0
POLYLINE
  8
0
 62
7
  6
CONTINUOUS
 66
1
 70
0
  0
VERTEX
  8
0
 62
7
  6
CONTINUOUS
 10
75.0276169172
 20
220.9602260665
  0
VERTEX
  8
0
 62
7
  6
CONTINUOUS
 10
75.0280100958
 20
220.9601218163
  0
VERTEX
  8
0
 62
7
  6
CONTINUOUS
 10
75.0989075316
 20
220.9242893483
  0
SEQEND
  0
POLYLINE
  8
0
 62
9
  6
CONTINUOUS
 66
1
 70
0
  0
VERTEX
  8
0
 62
9
  6
CONTINUOUS
 10
61.0001877401
 20
226.954479406
  0
VERTEX
  8
0
 62
9
  6
CONTINUOUS
 10
61.0290992645
 20
226.9294797933
  0
VERTEX
  8
0
 62
9
  6
CONTINUOUS
 10
61.0812124881
 20
226.7369194661
  0
VERTEX
  8
0
 62
9
  6
CONTINUOUS
 10
61.1018085563
 20
226.5789859435
  0
VERTEX
  8
0
 62
9
  6
CONTINUOUS
 10
61.1269819092
 20
226.1788992415
  0
VERTEX
  8
0
 62
9
  6
CONTINUOUS
 10
61.188157553
 20
222.6421624164
  0
SEQEND
  0
POLYLINE
  8
0
 62
9
  6
CONTINUOUS
 66
1
 70
0
  0
VERTEX
  8
0
 62
9
  6
CONTINUOUS
 10
75.2031202911
 20
221.9718228604
  0
VERTEX
  8
0
 62
9
  6
CONTINUOUS
 10
75.1068449323
 20
221.8108413539
  0
VERTEX
  8
0
 62
9
  6
CONTINUOUS
 10
74.8302510496
 20
221.6101626345
  0
SEQEND
  0
LINE
  8
0
 62
9
  6
CONTINUOUS
 10
61.1303017755
 20
225.9567505549
 11
62.0000354353
 21
225.9719318124
  0
LINE
  8
0
 62
9
  6
CONTINUOUS
 10
73.9723994435
 20
225.954478854
 11
75.2729437169
 21
225.9719319821
  0
LINE
  8
0
 62
9
  6
CONTINUOUS
 10
48.5723994435
 20
225.954478854
 11
49.8729437169
 21
225.9719319821
  0
LINE
  8
0
 62
9
  6
CONTINUOUS
 10
37.2564895746
 20
225.954479406
 11
48.5723994532
 21
225.954479406
  0
LINE
  8
0
 62
9
  6
CONTINUOUS
 10
63.3005795196
 20
225.954479406
 11
73.9723994532
 21
225.954479406
  0
LINE
  8
2_FEATURE
 62
7
  6
CONTINUOUS
 10
50.8727914091
 20
226.954479406
 11
59.2601877401
 21
226.954479406
  0
LINE
  8
0
 62
7
  6
CONTINUOUS
 10
38.2564895746
 20
226.954479406
 11
86.5364895746
 21
226.954479406
  0
LINE
  8
2_FEATURE
 62
7
  6
CONTINUOUS
 10
76.2727914091
 20
226.954479406
 11
86.5364895746
 21
226.954479406
  0
LINE
  8
0
 62
9
  6
CONTINUOUS
 10
62.0000354323
 20
225.9719319823
 11
63.3005795292
 21
225.9544788563
  0
LINE
  8
0
 62
9
  6
CONTINUOUS
 10
60.2600354337
 20
225.9719318997
 11
61.1303017763
 21
225.9567505085
  0
POLYLINE
  8
0
 62
7
  6
CONTINUOUS
 66
1
 70
0
  0
VERTEX
  8
0
 62
7
  6
CONTINUOUS
 10
74.7545657802
 20
220.7887963555
  0
VERTEX
  8
0
 62
7
  6
CONTINUOUS
 10
74.7571505727
 20
220.7931106481
  0
VERTEX
  8
0
 62
7
  6
CONTINUOUS
 10
74.7781776957
 20
220.8289844195
  0
VERTEX
  8
0
 62
7
  6
CONTINUOUS
 10
74.8715572912
 20
220.9225528183
  0
SEQEND
  0
POLYLINE
  8
0
 62
9
  6
CONTINUOUS
 66
1
 70
0
  0
VERTEX
  8
0
 62
9
  6
CONTINUOUS
 10
74.8302504005
 20
221.6101622852
  0
VERTEX
  8
0
 62
9
  6
CONTINUOUS
 10
75.0976850138
 20
221.4466848439
  0
VERTEX
  8
0
 62
9
  6
CONTINUOUS
 10
75.1905031443
 20
221.2483978546
  0
SEQEND
  0
LINE
  8
0
 62
9
  6
CONTINUOUS
 10
73.8363372466
 20
218.1195799093
 11
73.8036506886
 21
219.9893789027
  0
LINE
  8
0
 62
7
  6
CONTINUOUS
 10
74.7896060303
 20
220.8404358609
 11
74.8364895746
 21
218.154479406
  0
LINE
  8
0
 62
9
  6
CONTINUOUS
 10
73.8036997837
 20
220.954479406
 11
73.8036997837
 21
219.9893789027
  0
LINE
  8
0
 62
9
  6
CONTINUOUS
 10
73.9026207949
 20
221.954479406
 11
73.9026207944
 21
220.954479406
  0
LINE
  8
0
 62
9
  6
CONTINUOUS
 10
73.9724410546
 20
226.954479406
 11
73.9724410541
 21
225.954479406
  0
LINE
  8
0
 62
9
  6
CONTINUOUS
 10
73.7366638302
 20
211.5781678024
 11
73.7393457051
 21
211.885457785
  0
LINE
  8
0
 62
9
  6
CONTINUOUS
 10
73.7001876724
 20
209.354479406
 11
73.7072037926
 21
209.8904163899
  0
LINE
  8
0
 62
9
  6
CONTINUOUS
 10
73.9025529521
 20
221.954479406
 11
73.9723994532
 21
225.954479406
  0
LINE
  8
0
 62
9
  6
CONTINUOUS
 10
73.7393458809
 20
211.8854577849
 11
73.8363372466
 21
218.1195799093
  0
LINE
  8
0
 62
9
  6
CONTINUOUS
 10
73.7072040197
 20
209.8904163893
 11
73.7366638302
 21
211.5781678024
  0
LINE
  8
0
 62
7
  6
CONTINUOUS
 10
74.7000354353
 20
210.3370269996
 11
74.8364895746
 21
218.154479406
  0
POLYLINE
  8
0
 62
9
  6
CONTINUOUS
 66
1
 70
0
  0
VERTEX
  8
0
 62
9
  6
CONTINUOUS
 10
74.7787707742
 20
220.8295786971
  0
VERTEX
  8
0
 62
9
  6
CONTINUOUS
 10
74.7747203327
 20
220.7042646506
  0
VERTEX
  8
0
 62
9
  6
CONTINUOUS
 10
74.7456482234
 20
220.4417825088
  0
VERTEX
  8
0
 62
9
  6
CONTINUOUS
 10
74.6742299313
 20
220.1955443592
  0
VERTEX
  8
0
 62
9
  6
CONTINUOUS
 10
74.5322452619
 20
220.0227149491
  0
VERTEX
  8
0
 62
9
  6
CONTINUOUS
 10
74.3353855815
 20
219.9747875987
  0
SEQEND
  0
LINE
  8
0
 62
7
  6
CONTINUOUS
 10
75.0989075316
 20
220.9242893483
 11
75.1833802543
 21
220.8408446462
  0
LINE
  8
0
 62
7
  6
CONTINUOUS
 10
75.1364895746
 20
218.154479406
 11
75.2729437139
 21
210.3370269996
  0
LINE
  8
0
 62
9
  6
CONTINUOUS
 10
76.1366419026
 20
218.154479406
 11
76.272791521
 21
209.3544794067
  0
LINE
  8
0
 62
9
  6
CONTINUOUS
 10
76.2727915187
 20
226.954479406
 11
76.1366419026
 21
218.154479406
  0
LINE
  8
0
 62
7
  6
CONTINUOUS
 10
75.2729437139
 20
225.9719318124
 11
75.1364895746
 21
218.154479406
  0
LINE
  8
0
 62
9
  6
CONTINUOUS
 10
86.5364895746
 20
226.954479406
 11
86.5364895746
 21
209.354479406
  0
LINE
  8
0
 62
7
  6
CONTINUOUS
 10
87.5364895746
 20
225.954479406
 11
87.5364895746
 21
210.354479406
  0
LINE
  8
0
 62
7
  6
CONTINUOUS
 10
37.2564895746
 20
101.9329278408
 11
37.2564895746
 21
125.2528642342
  0
LINE
  8
0
 62
9
  6
CONTINUOUS
 10
38.2564895746
 20
100.9329278408
 11
38.2564895746
 21
126.2529278408
  0
POLYLINE
  8
0
 62
9
  6
CONTINUOUS
 66
1
 70
0
  0
VERTEX
  8
0
 62
9
  6
CONTINUOUS
 10
61.0762755881
 20
84.1554919434
  0
VERTEX
  8
0
 62
9
  6
CONTINUOUS
 10
61.2976979937
 20
84.179303767
  0
VERTEX
  8
0
 62
9
  6
CONTINUOUS
 10
61.6971080191
 20
84.3537333526
  0
VERTEX
  8
0
 62
9
  6
CONTINUOUS
 10
61.8552624507
 20
84.4956891325
  0
VERTEX
  8
0
 62
9
  6
CONTINUOUS
 10
62.049594653
 20
84.8541870809
  0
VERTEX
  8
0
 62
9
  6
CONTINUOUS
 10
62.0761232833
 20
85.0529278407
  0
SEQEND
  0
LINE
  8
2_FEATURE
 62
7
  6
CONTINUOUS
 10
50.7366419026
 20
83.2529278408
 11
61.1363372466
 21
83.2529278408
  0
LINE
  8
2_FEATURE
 62
7
  6
CONTINUOUS
 10
76.1366419026
 20
83.2529278408
 11
86.5364895746
 21
83.2529278408
  0
LINE
  8
0
 62
9
  6
CONTINUOUS
 10
62.0761232833
 20
85.0529278408
 11
62.1364895746
 21
85.0529278408
  0
POLYLINE
  8
0
 62
9
  6
CONTINUOUS
 66
1
 70
0
  0
VERTEX
  8
0
 62
9
  6
CONTINUOUS
 10
61.0762755881
 20
84.1554919434
  0
VERTEX
  8
0
 62
9
  6
CONTINUOUS
 10
60.7308112059
 20
84.2413251914
  0
VERTEX
  8
0
 62
9
  6
CONTINUOUS
 10
60.3915827048
 20
84.3996897421
  0
VERTEX
  8
0
 62
9
  6
CONTINUOUS
 10
60.1080825449
 20
84.6012273106
  0
VERTEX
  8
0
 62
9
  6
CONTINUOUS
 10
59.8696796729
 20
84.8372019455
  0
VERTEX
  8
0
 62
9
  6
CONTINUOUS
 10
59.6722816409
 20
85.1022157497
  0
VERTEX
  8
0
 62
9
  6
CONTINUOUS
 10
59.4969904695
 20
85.4320650766
  0
VERTEX
  8
0
 62
9
  6
CONTINUOUS
 10
59.3593331037
 20
85.8463984674
  0
VERTEX
  8
0
 62
9
  6
CONTINUOUS
 10
59.2920884981
 20
86.3927150673
  0
SEQEND
  0
POLYLINE
  8
0
 62
9
  6
CONTINUOUS
 66
1
 70
0
  0
VERTEX
  8
0
 62
9
  6
CONTINUOUS
 10
59.2920884981
 20
86.3927155134
  0
VERTEX
  8
0
 62
9
  6
CONTINUOUS
 10
59.5127338143
 20
86.4104667153
  0
VERTEX
  8
0
 62
9
  6
CONTINUOUS
 10
59.9110511319
 20
86.5360751095
  0
VERTEX
  8
0
 62
9
  6
CONTINUOUS
 10
60.0690868595
 20
86.6377400507
  0
VERTEX
  8
0
 62
9
  6
CONTINUOUS
 10
60.2643422467
 20
86.8939790724
  0
VERTEX
  8
0
 62
9
  6
CONTINUOUS
 10
60.2919361932
 20
87.0359210643
  0
SEQEND
  0
LINE
  8
0
 62
9
  6
CONTINUOUS
 10
60.3726224108
 20
87.0359210643
 11
60.2919362114
 21
87.0359197268
  0
LINE
  8
0
 62
9
  6
CONTINUOUS
 10
61.2664895746
 20
86.0444244526
 11
61.2063529454
 21
86.0444290894
  0
POLYLINE
  8
0
 62
9
  6
CONTINUOUS
 66
1
 70
0
  0
VERTEX
  8
0
 62
9
  6
CONTINUOUS
 10
61.2063524917
 20
86.0444290907
  0
VERTEX
  8
0
 62
9
  6
CONTINUOUS
 10
61.0322799167
 20
86.0824653762
  0
VERTEX
  8
0
 62
9
  6
CONTINUOUS
 10
60.8603384709
 20
86.15266158
  0
VERTEX
  8
0
 62
9
  6
CONTINUOUS
 10
60.7159405934
 20
86.2419838291
  0
VERTEX
  8
0
 62
9
  6
CONTINUOUS
 10
60.5939504687
 20
86.3465687437
  0
VERTEX
  8
0
 62
9
  6
CONTINUOUS
 10
60.4924372153
 20
86.4640284788
  0
VERTEX
  8
0
 62
9
  6
CONTINUOUS
 10
60.4016716876
 20
86.6102281242
  0
VERTEX
  8
0
 62
9
  6
CONTINUOUS
 10
60.3294090542
 20
86.7938854512
  0
SEQEND
  0
POLYLINE
  8
0
 62
7
  6
CONTINUOUS
 66
1
 70
0
  0
VERTEX
  8
0
 62
7
  6
CONTINUOUS
 10
61.2664895746
 20
86.0444244526
  0
VERTEX
  8
0
 62
7
  6
CONTINUOUS
 10
60.805000716
 20
86.2296535383
  0
VERTEX
  8
0
 62
7
  6
CONTINUOUS
 10
60.6230945641
 20
86.4020387629
  0
VERTEX
  8
0
 62
7
  6
CONTINUOUS
 10
60.4133779723
 20
86.8529278408
  0
SEQEND
  0
LINE
  8
0
 62
7
  6
CONTINUOUS
 10
61.2631371962
 20
86.0069792592
 11
61.2063882736
 21
86.0444244526
  0
LINE
  8
0
 62
9
  6
CONTINUOUS
 10
48.3001877401
 20
109.8729278408
 11
48.3001877401
 21
117.452817852
  0
LINE
  8
0
 62
9
  6
CONTINUOUS
 10
48.5724410546
 20
101.9329278408
 11
48.5724410541
 21
100.9329278408
  0
LINE
  8
0
 62
9
  6
CONTINUOUS
 10
49.3000354353
 20
109.8729905314
 11
49.3000354353
 21
117.4529278408
  0
LINE
  8
0
 62
7
  6
CONTINUOUS
 10
49.4364895746
 20
125.252908316
 11
49.4364895746
 21
122.6529278408
  0
LINE
  8
0
 62
7
  6
CONTINUOUS
 10
49.4364895746
 20
112.2529278408
 11
49.4364895746
 21
109.6707060882
  0
POLYLINE
  8
0
 62
9
  6
CONTINUOUS
 66
1
 70
0
  0
VERTEX
  8
0
 62
9
  6
CONTINUOUS
 10
48.3001876312
 20
117.452817852
  0
VERTEX
  8
0
 62
9
  6
CONTINUOUS
 10
48.3045851702
 20
119.6714003995
  0
VERTEX
  8
0
 62
9
  6
CONTINUOUS
 10
48.3174122846
 20
121.7371679672
  0
VERTEX
  8
0
 62
9
  6
CONTINUOUS
 10
48.3378494307
 20
123.528887201
  0
VERTEX
  8
0
 62
9
  6
CONTINUOUS
 10
48.350532296
 20
124.2853488627
  0
VERTEX
  8
0
 62
9
  6
CONTINUOUS
 10
48.3798441027
 20
125.4596168631
  0
VERTEX
  8
0
 62
9
  6
CONTINUOUS
 10
48.4106296193
 20
126.0946320846
  0
VERTEX
  8
0
 62
9
  6
CONTINUOUS
 10
48.4363372466
 20
126.2529278408
  0
SEQEND
  0
POLYLINE
  8
0
 62
9
  6
CONTINUOUS
 66
1
 70
0
  0
VERTEX
  8
0
 62
9
  6
CONTINUOUS
 10
49.3000354353
 20
117.4529278408
  0
VERTEX
  8
0
 62
9
  6
CONTINUOUS
 10
49.3044497205
 20
119.4230028582
  0
VERTEX
  8
0
 62
9
  6
CONTINUOUS
 10
49.3173280803
 20
121.2573149945
  0
VERTEX
  8
0
 62
9
  6
CONTINUOUS
 10
49.3378435897
 20
122.8472156201
  0
VERTEX
  8
0
 62
9
  6
CONTINUOUS
 10
49.3505725388
 20
123.5178752243
  0
VERTEX
  8
0
 62
9
  6
CONTINUOUS
 10
49.3799809842
 20
124.5572967381
  0
VERTEX
  8
0
 62
9
  6
CONTINUOUS
 10
49.4107993824
 20
125.1161431984
  0
VERTEX
  8
0
 62
9
  6
CONTINUOUS
 10
49.4364895746
 20
125.252908316
  0
SEQEND
  0
LINE
  8
0
 62
7
  6
CONTINUOUS
 10
49.4364895746
 20
109.6707060882
 11
49.4242510702
 21
109.5625337659
  0
LINE
  8
0
 62
9
  6
CONTINUOUS
 10
49.3824851525
 20
109.5638832289
 11
49.4364895746
 21
109.6719249912
  0
POLYLINE
  8
0
 62
7
  6
CONTINUOUS
 66
1
 70
0
  0
VERTEX
  8
0
 62
7
  6
CONTINUOUS
 10
49.7364895746
 20
84.2529473656
  0
VERTEX
  8
0
 62
7
  6
CONTINUOUS
 10
49.7615698287
 20
84.0304070867
  0
VERTEX
  8
0
 62
7
  6
CONTINUOUS
 10
49.9547136602
 20
83.6294223254
  0
VERTEX
  8
0
 62
7
  6
CONTINUOUS
 10
50.1130842514
 20
83.4710828886
  0
VERTEX
  8
0
 62
7
  6
CONTINUOUS
 10
50.5141030673
 20
83.2779984245
  0
VERTEX
  8
0
 62
7
  6
CONTINUOUS
 10
50.7366419026
 20
83.2529289303
  0
SEQEND
  0
LINE
  8
0
 62
7
  6
CONTINUOUS
 10
49.3713182011
 20
109.8146520387
 11
49.3713457637
 21
109.8140425752
  0
LINE
  8
0
 62
9
  6
CONTINUOUS
 10
49.3698549219
 20
109.8729784532
 11
49.375464195
 21
109.746724183
  0
LINE
  8
0
 62
9
  6
CONTINUOUS
 10
49.3698580035
 20
109.8726151484
 11
49.3713182011
 21
109.8146520387
  0
LINE
  8
0
 62
7
  6
CONTINUOUS
 10
49.8028150281
 20
99.6524892366
 11
49.8031243581
 21
99.6328685957
  0
LINE
  8
0
 62
7
  6
CONTINUOUS
 10
49.7364895746
 20
84.2529473656
 11
49.7364895746
 21
86.8529278408
  0
LINE
  8
0
 62
7
  6
CONTINUOUS
 10
49.7364895746
 20
97.2529278408
 11
49.7364895746
 21
99.8351495934
  0
LINE
  8
0
 62
9
  6
CONTINUOUS
 10
49.8729437139
 20
99.6328651503
 11
49.8729437139
 21
92.0529278408
  0
LINE
  8
0
 62
9
  6
CONTINUOUS
 10
50.6005380946
 20
107.5729278408
 11
50.6005380951
 21
108.5729278408
  0
LINE
  8
0
 62
9
  6
CONTINUOUS
 10
50.8727914091
 20
99.6329278408
 11
50.8727914091
 21
92.0530419885
  0
POLYLINE
  8
0
 62
9
  6
CONTINUOUS
 66
1
 70
0
  0
VERTEX
  8
0
 62
9
  6
CONTINUOUS
 10
50.8727915221
 20
92.0530419885
  0
VERTEX
  8
0
 62
9
  6
CONTINUOUS
 10
50.8683936476
 20
89.8343732074
  0
VERTEX
  8
0
 62
9
  6
CONTINUOUS
 10
50.8555634721
 20
87.7682942125
  0
VERTEX
  8
0
 62
9
  6
CONTINUOUS
 10
50.8351210106
 20
85.9763787997
  0
VERTEX
  8
0
 62
9
  6
CONTINUOUS
 10
50.8224349061
 20
85.2198800438
  0
VERTEX
  8
0
 62
9
  6
CONTINUOUS
 10
50.79311595
 20
84.0456760276
  0
VERTEX
  8
0
 62
9
  6
CONTINUOUS
 10
50.7623373895
 20
83.4110727557
  0
VERTEX
  8
0
 62
9
  6
CONTINUOUS
 10
50.7366419026
 20
83.2529278408
  0
SEQEND
  0
POLYLINE
  8
0
 62
9
  6
CONTINUOUS
 66
1
 70
0
  0
VERTEX
  8
0
 62
9
  6
CONTINUOUS
 10
49.8729437139
 20
92.0529278408
  0
VERTEX
  8
0
 62
9
  6
CONTINUOUS
 10
49.8685292031
 20
90.0828034852
  0
VERTEX
  8
0
 62
9
  6
CONTINUOUS
 10
49.8556478148
 20
88.2482069815
  0
VERTEX
  8
0
 62
9
  6
CONTINUOUS
 10
49.8351269624
 20
86.6581256325
  0
VERTEX
  8
0
 62
9
  6
CONTINUOUS
 10
49.8223947417
 20
85.9874305796
  0
VERTEX
  8
0
 62
9
  6
CONTINUOUS
 10
49.7929790859
 20
84.9480636024
  0
VERTEX
  8
0
 62
9
  6
CONTINUOUS
 10
49.7621677665
 20
84.3895820229
  0
VERTEX
  8
0
 62
9
  6
CONTINUOUS
 10
49.7364895746
 20
84.2529473656
  0
SEQEND
  0
POLYLINE
  8
0
 62
7
  6
CONTINUOUS
 66
1
 70
0
  0
VERTEX
  8
0
 62
7
  6
CONTINUOUS
 10
49.7410644213
 20
99.9793339448
  0
VERTEX
  8
0
 62
7
  6
CONTINUOUS
 10
49.7396528944
 20
99.9538429496
  0
VERTEX
  8
0
 62
7
  6
CONTINUOUS
 10
49.7384771197
 20
99.9282461078
  0
VERTEX
  8
0
 62
7
  6
CONTINUOUS
 10
49.7375223731
 20
99.9014899833
  0
VERTEX
  8
0
 62
7
  6
CONTINUOUS
 10
49.7368071857
 20
99.8714412568
  0
VERTEX
  8
0
 62
7
  6
CONTINUOUS
 10
49.7364895746
 20
99.8351495934
  0
SEQEND
  0
LINE
  8
0
 62
7
  6
CONTINUOUS
 10
49.7414542245
 20
99.9853875164
 11
49.7410644213
 21
99.9793339448
  0
LINE
  8
0
 62
9
  6
CONTINUOUS
 10
49.8729437139
 20
92.0529278408
 11
60.2600354353
 21
92.0529278408
  0
LINE
  8
1_AXIS
 62
2
  6
CENTER
 10
47.7364895746
 20
92.0529278408
 11
89.5364895746
 21
92.0529278408
  0
LINE
  8
0
 62
9
  6
CONTINUOUS
 10
75.2729437139
 20
92.0529278408
 11
87.5364895746
 21
92.0529278408
  0
LINE
  8
0
 62
7
  6
CONTINUOUS
 10
49.4604850231
 20
109.3964917724
 11
49.3713435814
 21
109.8140909818
  0
LINE
  8
0
 62
7
  6
CONTINUOUS
 10
49.4472888919
 20
109.431048633
 11
49.369857321
 21
109.8729784527
  0
POLYLINE
  8
0
 62
7
  6
CONTINUOUS
 66
1
 70
0
  0
VERTEX
  8
0
 62
7
  6
CONTINUOUS
 10
49.4364895746
 20
112.2529278408
  0
VERTEX
  8
0
 62
7
  6
CONTINUOUS
 10
49.4097334353
 20
112.4839897489
  0
VERTEX
  8
0
 62
7
  6
CONTINUOUS
 10
49.3853558008
 20
113.1566141504
  0
VERTEX
  8
0
 62
7
  6
CONTINUOUS
 10
49.3655230047
 20
114.2109669154
  0
VERTEX
  8
0
 62
7
  6
CONTINUOUS
 10
49.351996514
 20
115.5533091971
  0
VERTEX
  8
0
 62
7
  6
CONTINUOUS
 10
49.3459769902
 20
117.0643679517
  0
VERTEX
  8
0
 62
7
  6
CONTINUOUS
 10
49.3459769911
 20
117.84148845
  0
VERTEX
  8
0
 62
7
  6
CONTINUOUS
 10
49.351996518
 20
119.3525470703
  0
VERTEX
  8
0
 62
7
  6
CONTINUOUS
 10
49.3655230095
 20
120.6948891131
  0
VERTEX
  8
0
 62
7
  6
CONTINUOUS
 10
49.3853558041
 20
121.7492416612
  0
VERTEX
  8
0
 62
7
  6
CONTINUOUS
 10
49.4097334364
 20
122.4218659512
  0
VERTEX
  8
0
 62
7
  6
CONTINUOUS
 10
49.4364895746
 20
122.6529278408
  0
SEQEND
  0
POLYLINE
  8
0
 62
7
  6
CONTINUOUS
 66
1
 70
0
  0
VERTEX
  8
0
 62
7
  6
CONTINUOUS
 10
49.7364895746
 20
86.8529278408
  0
VERTEX
  8
0
 62
7
  6
CONTINUOUS
 10
49.7632457139
 20
87.0839897489
  0
VERTEX
  8
0
 62
7
  6
CONTINUOUS
 10
49.7876233484
 20
87.7566141504
  0
VERTEX
  8
0
 62
7
  6
CONTINUOUS
 10
49.8074561445
 20
88.8109669154
  0
VERTEX
  8
0
 62
7
  6
CONTINUOUS
 10
49.8209826352
 20
90.1533091971
  0
VERTEX
  8
0
 62
7
  6
CONTINUOUS
 10
49.827002159
 20
91.6643679517
  0
VERTEX
  8
0
 62
7
  6
CONTINUOUS
 10
49.8270021581
 20
92.44148845
  0
VERTEX
  8
0
 62
7
  6
CONTINUOUS
 10
49.8209826312
 20
93.9525470703
  0
VERTEX
  8
0
 62
7
  6
CONTINUOUS
 10
49.8074561397
 20
95.2948891131
  0
VERTEX
  8
0
 62
7
  6
CONTINUOUS
 10
49.7876233451
 20
96.3492416612
  0
VERTEX
  8
0
 62
7
  6
CONTINUOUS
 10
49.7632457128
 20
97.0218659512
  0
VERTEX
  8
0
 62
7
  6
CONTINUOUS
 10
49.7364895746
 20
97.2529278408
  0
SEQEND
  0
POLYLINE
  8
0
 62
7
  6
CONTINUOUS
 66
1
 70
0
  0
VERTEX
  8
0
 62
7
  6
CONTINUOUS
 10
49.4364895746
 20
125.252908316
  0
VERTEX
  8
0
 62
7
  6
CONTINUOUS
 10
49.4114093199
 20
125.4754485942
  0
VERTEX
  8
0
 62
7
  6
CONTINUOUS
 10
49.2182654878
 20
125.876433354
  0
VERTEX
  8
0
 62
7
  6
CONTINUOUS
 10
49.0598948966
 20
126.0347727901
  0
VERTEX
  8
0
 62
7
  6
CONTINUOUS
 10
48.6588760814
 20
126.2278572533
  0
VERTEX
  8
0
 62
7
  6
CONTINUOUS
 10
48.4363372466
 20
126.2529267476
  0
SEQEND
  0
LINE
  8
0
 62
9
  6
CONTINUOUS
 10
59.2601877401
 20
97.0699346173
 11
60.3726224108
 21
97.0699346173
  0
LINE
  8
0
 62
9
  6
CONTINUOUS
 10
61.1303017755
 20
98.0614314063
 11
61.2664895746
 21
98.0614312291
  0
POLYLINE
  8
0
 62
7
  6
CONTINUOUS
 66
1
 70
0
  0
VERTEX
  8
0
 62
7
  6
CONTINUOUS
 10
48.5717514078
 20
100.9294884103
  0
VERTEX
  8
0
 62
7
  6
CONTINUOUS
 10
48.949376641
 20
100.8538141826
  0
VERTEX
  8
0
 62
7
  6
CONTINUOUS
 10
49.3405563762
 20
100.6271142496
  0
VERTEX
  8
0
 62
7
  6
CONTINUOUS
 10
49.5006986296
 20
100.4663608255
  0
VERTEX
  8
0
 62
7
  6
CONTINUOUS
 10
49.7259249053
 20
100.0741575362
  0
VERTEX
  8
0
 62
7
  6
CONTINUOUS
 10
49.8031234556
 20
99.6328685958
  0
SEQEND
  0
POLYLINE
  8
0
 62
7
  6
CONTINUOUS
 66
1
 70
0
  0
VERTEX
  8
0
 62
7
  6
CONTINUOUS
 10
48.5716907421
 20
100.9293783078
  0
VERTEX
  8
0
 62
7
  6
CONTINUOUS
 10
48.9746726912
 20
100.8442402293
  0
VERTEX
  8
0
 62
7
  6
CONTINUOUS
 10
49.4204694266
 20
100.5537955564
  0
VERTEX
  8
0
 62
7
  6
CONTINUOUS
 10
49.7126172668
 20
100.1090497835
  0
VERTEX
  8
0
 62
7
  6
CONTINUOUS
 10
49.802818841
 20
99.652686095
  0
SEQEND
  0
POLYLINE
  8
0
 62
9
  6
CONTINUOUS
 66
1
 70
0
  0
VERTEX
  8
0
 62
9
  6
CONTINUOUS
 10
61.1303017755
 20
98.0614314063
  0
VERTEX
  8
0
 62
9
  6
CONTINUOUS
 10
61.3300952783
 20
98.1089321548
  0
VERTEX
  8
0
 62
9
  6
CONTINUOUS
 10
61.6800905625
 20
98.3197216565
  0
VERTEX
  8
0
 62
9
  6
CONTINUOUS
 10
61.8155259229
 20
98.4741177648
  0
VERTEX
  8
0
 62
9
  6
CONTINUOUS
 10
61.9789454062
 20
98.8486203312
  0
VERTEX
  8
0
 62
9
  6
CONTINUOUS
 10
62.0000354353
 20
99.0529278408
  0
SEQEND
  0
LINE
  8
0
 62
9
  6
CONTINUOUS
 10
61.0001877401
 20
99.0529278408
 11
62.1364895746
 21
99.0529278408
  0
LINE
  8
0
 62
9
  6
CONTINUOUS
 10
61.0001877401
 20
99.6329278408
 11
62.0698546907
 21
99.6328620777
  0
LINE
  8
0
 62
9
  6
CONTINUOUS
 10
49.8031243581
 20
99.6328685957
 11
50.8727914091
 21
99.6329278408
  0
LINE
  8
0
 62
9
  6
CONTINUOUS
 10
75.2031243589
 20
99.6328685957
 11
76.2727914091
 21
99.6329278408
  0
POLYLINE
  8
0
 62
9
  6
CONTINUOUS
 66
1
 70
0
  0
VERTEX
  8
0
 62
9
  6
CONTINUOUS
 10
48.5724410546
 20
101.9329278408
  0
VERTEX
  8
0
 62
9
  6
CONTINUOUS
 10
49.354092356
 20
101.7960690176
  0
VERTEX
  8
0
 62
9
  6
CONTINUOUS
 10
50.0516723154
 20
101.3943299094
  0
VERTEX
  8
0
 62
9
  6
CONTINUOUS
 10
50.3349365174
 20
101.1109521361
  0
VERTEX
  8
0
 62
9
  6
CONTINUOUS
 10
50.7365006981
 20
100.4128379254
  0
VERTEX
  8
0
 62
9
  6
CONTINUOUS
 10
50.8727914091
 20
99.6329278408
  0
SEQEND
  0
POLYLINE
  8
0
 62
7
  6
CONTINUOUS
 66
1
 70
0
  0
VERTEX
  8
0
 62
7
  6
CONTINUOUS
 10
48.5724406526
 20
100.9329278408
  0
VERTEX
  8
0
 62
7
  6
CONTINUOUS
 10
49.0147805693
 20
100.8554199528
  0
VERTEX
  8
0
 62
7
  6
CONTINUOUS
 10
49.4088660646
 20
100.6283844688
  0
VERTEX
  8
0
 62
7
  6
CONTINUOUS
 10
49.5688679682
 20
100.4683323921
  0
VERTEX
  8
0
 62
7
  6
CONTINUOUS
 10
49.7957666996
 20
100.0740978792
  0
VERTEX
  8
0
 62
7
  6
CONTINUOUS
 10
49.8729437153
 20
99.6328651503
  0
SEQEND
  0
LINE
  8
0
 62
9
  6
CONTINUOUS
 10
60.3294090542
 20
86.7938854512
 11
60.2919362342
 21
87.0359197268
  0
POLYLINE
  8
0
 62
9
  6
CONTINUOUS
 66
1
 70
0
  0
VERTEX
  8
0
 62
9
  6
CONTINUOUS
 10
61.1363372466
 20
83.2529278408
  0
VERTEX
  8
0
 62
9
  6
CONTINUOUS
 10
61.1079054514
 20
83.4469465872
  0
VERTEX
  8
0
 62
9
  6
CONTINUOUS
 10
61.0762755881
 20
84.1554919434
  0
SEQEND
  0
POLYLINE
  8
0
 62
7
  6
CONTINUOUS
 66
1
 70
0
  0
VERTEX
  8
0
 62
7
  6
CONTINUOUS
 10
60.3726224108
 20
87.0359210643
  0
VERTEX
  8
0
 62
7
  6
CONTINUOUS
 10
60.3854302369
 20
86.9355203489
  0
VERTEX
  8
0
 62
7
  6
CONTINUOUS
 10
60.4017029675
 20
86.8735035452
  0
VERTEX
  8
0
 62
7
  6
CONTINUOUS
 10
60.4133779723
 20
86.8529278408
  0
SEQEND
  0
POLYLINE
  8
0
 62
9
  6
CONTINUOUS
 66
1
 70
0
  0
VERTEX
  8
0
 62
9
  6
CONTINUOUS
 10
62.0761232833
 20
85.0529278408
  0
VERTEX
  8
0
 62
9
  6
CONTINUOUS
 10
62.0550335253
 20
85.2572340513
  0
VERTEX
  8
0
 62
9
  6
CONTINUOUS
 10
61.8916142927
 20
85.6317371816
  0
VERTEX
  8
0
 62
9
  6
CONTINUOUS
 10
61.7561786004
 20
85.786133849
  0
VERTEX
  8
0
 62
9
  6
CONTINUOUS
 10
61.4061819182
 20
85.9969239492
  0
VERTEX
  8
0
 62
9
  6
CONTINUOUS
 10
61.2063529454
 20
86.0444290894
  0
SEQEND
  0
POLYLINE
  8
0
 62
7
  6
CONTINUOUS
 66
1
 70
0
  0
VERTEX
  8
0
 62
7
  6
CONTINUOUS
 10
62.1364895746
 20
85.0529278408
  0
VERTEX
  8
0
 62
7
  6
CONTINUOUS
 10
62.1153896533
 20
85.2572519565
  0
VERTEX
  8
0
 62
7
  6
CONTINUOUS
 10
61.9519037654
 20
85.6317662023
  0
VERTEX
  8
0
 62
7
  6
CONTINUOUS
 10
61.8164215477
 20
85.7861578314
  0
VERTEX
  8
0
 62
7
  6
CONTINUOUS
 10
61.4663288327
 20
85.9969292819
  0
VERTEX
  8
0
 62
7
  6
CONTINUOUS
 10
61.2664895746
 20
86.0444244526
  0
SEQEND
  0
POLYLINE
  8
0
 62
7
  6
CONTINUOUS
 66
1
 70
0
  0
VERTEX
  8
0
 62
7
  6
CONTINUOUS
 10
60.3726224108
 20
87.0359210643
  0
VERTEX
  8
0
 62
7
  6
CONTINUOUS
 10
60.3485800312
 20
87.6363199998
  0
VERTEX
  8
0
 62
7
  6
CONTINUOUS
 10
60.328538965
 20
88.6054034459
  0
VERTEX
  8
0
 62
7
  6
CONTINUOUS
 10
60.3141713408
 20
89.8622055288
  0
VERTEX
  8
0
 62
7
  6
CONTINUOUS
 10
60.3066751572
 20
91.3017988092
  0
VERTEX
  8
0
 62
7
  6
CONTINUOUS
 10
60.3066751589
 20
92.8040575267
  0
VERTEX
  8
0
 62
7
  6
CONTINUOUS
 10
60.3141713448
 20
94.2436506495
  0
VERTEX
  8
0
 62
7
  6
CONTINUOUS
 10
60.3285389692
 20
95.5004525032
  0
VERTEX
  8
0
 62
7
  6
CONTINUOUS
 10
60.3485800335
 20
96.4695357628
  0
VERTEX
  8
0
 62
7
  6
CONTINUOUS
 10
60.3726224108
 20
97.0699346173
  0
SEQEND
  0
POLYLINE
  8
0
 62
9
  6
CONTINUOUS
 66
1
 70
0
  0
VERTEX
  8
0
 62
9
  6
CONTINUOUS
 10
60.2919362114
 20
87.0359197268
  0
VERTEX
  8
0
 62
9
  6
CONTINUOUS
 10
60.2806920344
 20
87.922454566
  0
VERTEX
  8
0
 62
9
  6
CONTINUOUS
 10
60.2720025398
 20
88.8552348939
  0
VERTEX
  8
0
 62
9
  6
CONTINUOUS
 10
60.2656409692
 20
89.837828438
  0
VERTEX
  8
0
 62
9
  6
CONTINUOUS
 10
60.2615495599
 20
90.8928919348
  0
VERTEX
  8
0
 62
9
  6
CONTINUOUS
 10
60.2600354353
 20
92.0529278408
  0
SEQEND
  0
POLYLINE
  8
0
 62
9
  6
CONTINUOUS
 66
1
 70
0
  0
VERTEX
  8
0
 62
9
  6
CONTINUOUS
 10
59.2920884981
 20
86.3927150673
  0
VERTEX
  8
0
 62
9
  6
CONTINUOUS
 10
59.2808431261
 20
87.3930326686
  0
VERTEX
  8
0
 62
9
  6
CONTINUOUS
 10
59.2721543134
 20
88.4453508875
  0
VERTEX
  8
0
 62
9
  6
CONTINUOUS
 10
59.2657931929
 20
89.5538590775
  0
VERTEX
  8
0
 62
9
  6
CONTINUOUS
 10
59.2617020007
 20
90.7441106344
  0
VERTEX
  8
0
 62
9
  6
CONTINUOUS
 10
59.2601877221
 20
92.0529584262
  0
SEQEND
  0
LINE
  8
0
 62
9
  6
CONTINUOUS
 10
59.2601877401
 20
92.0529584262
 11
59.2601877401
 21
97.0699346173
  0
LINE
  8
0
 62
9
  6
CONTINUOUS
 10
60.2600354353
 20
92.0529278408
 11
60.2600354353
 21
97.0699031518
  0
POLYLINE
  8
0
 62
7
  6
CONTINUOUS
 66
1
 70
0
  0
VERTEX
  8
0
 62
7
  6
CONTINUOUS
 10
62.4364895746
 20
125.252908316
  0
VERTEX
  8
0
 62
7
  6
CONTINUOUS
 10
62.4615698287
 20
125.4754485949
  0
VERTEX
  8
0
 62
7
  6
CONTINUOUS
 10
62.6547136602
 20
125.8764333562
  0
VERTEX
  8
0
 62
7
  6
CONTINUOUS
 10
62.8130842514
 20
126.034772793
  0
VERTEX
  8
0
 62
7
  6
CONTINUOUS
 10
63.2141030673
 20
126.2278572571
  0
VERTEX
  8
0
 62
7
  6
CONTINUOUS
 10
63.4366419026
 20
126.2529267514
  0
SEQEND
  0
LINE
  8
0
 62
7
  6
CONTINUOUS
 10
38.2564895746
 20
100.9329278408
 11
48.5723994532
 21
100.9329278408
  0
LINE
  8
0
 62
7
  6
CONTINUOUS
 10
63.3005795196
 20
100.9329278408
 11
73.9723994532
 21
100.9329278408
  0
LINE
  8
0
 62
9
  6
CONTINUOUS
 10
37.2564895746
 20
101.9329278408
 11
48.5724410546
 21
101.9329278408
  0
LINE
  8
0
 62
9
  6
CONTINUOUS
 10
63.3005380946
 20
101.9329278408
 11
73.9724410546
 21
101.9329278408
  0
LINE
  8
0
 62
9
  6
CONTINUOUS
 10
62.0824851335
 20
99.9419724909
 11
62.1364895746
 21
99.8339306905
  0
LINE
  8
0
 62
9
  6
CONTINUOUS
 10
62.1364895746
 20
84.2529473656
 11
62.107940651
 21
84.422617947
  0
LINE
  8
0
 62
9
  6
CONTINUOUS
 10
61.0001877401
 20
99.0529278408
 11
61.1303004244
 21
98.0614312289
  0
LINE
  8
0
 62
9
  6
CONTINUOUS
 10
62.107940651
 20
84.422617947
 11
62.0761232833
 21
85.0529278408
  0
LINE
  8
0
 62
9
  6
CONTINUOUS
 10
61.0001877401
 20
99.0529278408
 11
61.0001877401
 21
99.6329278408
  0
LINE
  8
0
 62
9
  6
CONTINUOUS
 10
61.2724410546
 20
107.5729278408
 11
61.2724410546
 21
108.5729278408
  0
LINE
  8
0
 62
9
  6
CONTINUOUS
 10
62.0000354353
 20
99.0529278408
 11
62.0000354353
 21
99.632865095
  0
LINE
  8
0
 62
7
  6
CONTINUOUS
 10
62.1364895746
 20
84.2529473656
 11
62.1364895746
 21
85.0529278408
  0
LINE
  8
0
 62
7
  6
CONTINUOUS
 10
62.1364895746
 20
99.0529278408
 11
62.1364895746
 21
99.8339306905
  0
LINE
  8
1_AXIS
 62
2
  6
CENTER
 10
62.3964895746
 20
109.1529278408
 11
62.3964895746
 21
106.7531278408
  0
LINE
  8
1_AXIS
 62
2
  6
CONTINUOUS
 10
62.3964895746
 20
105.6329278408
 11
62.3964895746
 21
103.8729278408
  0
LINE
  8
1_AXIS
 62
2
  6
CENTER
 10
62.3964895746
 20
100.3529278408
 11
62.3964895746
 21
102.7527278408
  0
LINE
  8
0
 62
7
  6
CONTINUOUS
 10
62.4364895746
 20
125.252908316
 11
62.4364895746
 21
122.6529278408
  0
LINE
  8
0
 62
7
  6
CONTINUOUS
 10
62.4364895746
 20
112.2529278408
 11
62.4364895746
 21
109.6719249912
  0
LINE
  8
0
 62
9
  6
CONTINUOUS
 10
62.5729437139
 20
117.4529278408
 11
62.5729437139
 21
109.8729905867
  0
LINE
  8
0
 62
9
  6
CONTINUOUS
 10
62.0713224255
 20
99.6912785496
 11
62.0698598175
 21
99.6333343729
  0
LINE
  8
0
 62
9
  6
CONTINUOUS
 10
62.5016582357
 20
109.8146036473
 11
62.5031201362
 21
109.8725429983
  0
LINE
  8
0
 62
9
  6
CONTINUOUS
 10
62.4975150284
 20
109.7467226993
 11
62.5016437331
 21
109.8142824123
  0
LINE
  8
0
 62
9
  6
CONTINUOUS
 10
62.5016582357
 20
109.8146036473
 11
62.5031244077
 21
109.8729901421
  0
LINE
  8
0
 62
9
  6
CONTINUOUS
 10
62.0754647314
 20
99.759149363
 11
62.0713270642
 21
99.6913814591
  0
LINE
  8
0
 62
9
  6
CONTINUOUS
 10
62.0713224255
 20
99.6912785496
 11
62.0698546907
 21
99.6328620777
  0
LINE
  8
0
 62
7
  6
CONTINUOUS
 10
62.0713270642
 20
99.6913814591
 11
62.0713224255
 21
99.6912785496
  0
LINE
  8
0
 62
7
  6
CONTINUOUS
 10
62.5016437331
 20
109.8142824123
 11
62.5016582357
 21
109.8146036473
  0
POLYLINE
  8
0
 62
7
  6
CONTINUOUS
 66
1
 70
0
  0
VERTEX
  8
0
 62
7
  6
CONTINUOUS
 10
62.4364895746
 20
112.2529278408
  0
VERTEX
  8
0
 62
7
  6
CONTINUOUS
 10
62.4632457139
 20
112.4839897489
  0
VERTEX
  8
0
 62
7
  6
CONTINUOUS
 10
62.4876233484
 20
113.1566141504
  0
VERTEX
  8
0
 62
7
  6
CONTINUOUS
 10
62.5074561445
 20
114.2109669154
  0
VERTEX
  8
0
 62
7
  6
CONTINUOUS
 10
62.5209826352
 20
115.5533091971
  0
VERTEX
  8
0
 62
7
  6
CONTINUOUS
 10
62.527002159
 20
117.0643679517
  0
VERTEX
  8
0
 62
7
  6
CONTINUOUS
 10
62.5270021581
 20
117.84148845
  0
VERTEX
  8
0
 62
7
  6
CONTINUOUS
 10
62.5209826312
 20
119.3525470703
  0
VERTEX
  8
0
 62
7
  6
CONTINUOUS
 10
62.5074561397
 20
120.6948891131
  0
VERTEX
  8
0
 62
7
  6
CONTINUOUS
 10
62.4876233451
 20
121.7492416612
  0
VERTEX
  8
0
 62
7
  6
CONTINUOUS
 10
62.4632457128
 20
122.4218659512
  0
VERTEX
  8
0
 62
7
  6
CONTINUOUS
 10
62.4364895746
 20
122.6529278408
  0
SEQEND
  0
POLYLINE
  8
0
 62
9
  6
CONTINUOUS
 66
1
 70
0
  0
VERTEX
  8
0
 62
9
  6
CONTINUOUS
 10
59.2601877401
 20
97.0699346173
  0
VERTEX
  8
0
 62
9
  6
CONTINUOUS
 10
59.361439974
 20
97.6981764107
  0
VERTEX
  8
0
 62
9
  6
CONTINUOUS
 10
59.6559438431
 20
98.2641741546
  0
VERTEX
  8
0
 62
9
  6
CONTINUOUS
 10
59.8671481436
 20
98.5049184728
  0
VERTEX
  8
0
 62
9
  6
CONTINUOUS
 10
60.389865769
 20
98.8705507758
  0
VERTEX
  8
0
 62
9
  6
CONTINUOUS
 10
61.0001877401
 20
99.0529278408
  0
SEQEND
  0
POLYLINE
  8
0
 62
9
  6
CONTINUOUS
 66
1
 70
0
  0
VERTEX
  8
0
 62
9
  6
CONTINUOUS
 10
60.2600354342
 20
97.0699031518
  0
VERTEX
  8
0
 62
9
  6
CONTINUOUS
 10
60.310762995
 20
97.3843194983
  0
VERTEX
  8
0
 62
9
  6
CONTINUOUS
 10
60.4579833645
 20
97.6670672941
  0
VERTEX
  8
0
 62
9
  6
CONTINUOUS
 10
60.5635269674
 20
97.7873485994
  0
VERTEX
  8
0
 62
9
  6
CONTINUOUS
 10
60.8248036212
 20
97.970128289
  0
VERTEX
  8
0
 62
9
  6
CONTINUOUS
 10
61.1303017763
 20
98.0614314063
  0
SEQEND
  0
POLYLINE
  8
0
 62
9
  6
CONTINUOUS
 66
1
 70
0
  0
VERTEX
  8
0
 62
9
  6
CONTINUOUS
 10
61.0001877401
 20
99.6329278408
  0
VERTEX
  8
0
 62
9
  6
CONTINUOUS
 10
61.1364784583
 20
100.4128379228
  0
VERTEX
  8
0
 62
9
  6
CONTINUOUS
 10
61.5380426316
 20
101.1109521362
  0
VERTEX
  8
0
 62
9
  6
CONTINUOUS
 10
61.8213068334
 20
101.3943299098
  0
VERTEX
  8
0
 62
9
  6
CONTINUOUS
 10
62.518886789
 20
101.7960690291
  0
VERTEX
  8
0
 62
9
  6
CONTINUOUS
 10
63.3005380946
 20
101.9329278408
  0
SEQEND
  0
POLYLINE
  8
0
 62
9
  6
CONTINUOUS
 66
1
 70
0
  0
VERTEX
  8
0
 62
9
  6
CONTINUOUS
 10
63.5727914091
 20
109.8729278408
  0
VERTEX
  8
0
 62
9
  6
CONTINUOUS
 10
63.4365006909
 20
109.0930177588
  0
VERTEX
  8
0
 62
9
  6
CONTINUOUS
 10
63.0349365176
 20
108.3949035455
  0
VERTEX
  8
0
 62
9
  6
CONTINUOUS
 10
62.7516723158
 20
108.1115257718
  0
VERTEX
  8
0
 62
9
  6
CONTINUOUS
 10
62.0540923602
 20
107.7097866525
  0
VERTEX
  8
0
 62
9
  6
CONTINUOUS
 10
61.2724410546
 20
107.5729278408
  0
SEQEND
  0
POLYLINE
  8
0
 62
7
  6
CONTINUOUS
 66
1
 70
0
  0
VERTEX
  8
0
 62
7
  6
CONTINUOUS
 10
62.5729437153
 20
109.8729905867
  0
VERTEX
  8
0
 62
7
  6
CONTINUOUS
 10
62.4957666996
 20
109.4317578024
  0
VERTEX
  8
0
 62
7
  6
CONTINUOUS
 10
62.2688679682
 20
109.0375232895
  0
VERTEX
  8
0
 62
7
  6
CONTINUOUS
 10
62.1088660646
 20
108.8774712128
  0
VERTEX
  8
0
 62
7
  6
CONTINUOUS
 10
61.7147805693
 20
108.6504357289
  0
VERTEX
  8
0
 62
7
  6
CONTINUOUS
 10
61.2724406543
 20
108.5729278408
  0
SEQEND
  0
POLYLINE
  8
0
 62
7
  6
CONTINUOUS
 66
1
 70
0
  0
VERTEX
  8
0
 62
7
  6
CONTINUOUS
 10
62.5031214514
 20
109.8729901421
  0
VERTEX
  8
0
 62
7
  6
CONTINUOUS
 10
62.4255059946
 20
109.430539339
  0
VERTEX
  8
0
 62
7
  6
CONTINUOUS
 10
62.2018517851
 20
109.0408766932
  0
VERTEX
  8
0
 62
7
  6
CONTINUOUS
 10
62.0429971359
 20
108.8808021302
  0
VERTEX
  8
0
 62
7
  6
CONTINUOUS
 10
61.6550259214
 20
108.6541219606
  0
VERTEX
  8
0
 62
7
  6
CONTINUOUS
 10
61.2717871598
 20
108.5761393844
  0
SEQEND
  0
POLYLINE
  8
0
 62
7
  6
CONTINUOUS
 66
1
 70
0
  0
VERTEX
  8
0
 62
7
  6
CONTINUOUS
 10
62.5016466884
 20
109.8143484077
  0
VERTEX
  8
0
 62
7
  6
CONTINUOUS
 10
62.4140964898
 20
109.4005794718
  0
VERTEX
  8
0
 62
7
  6
CONTINUOUS
 10
62.1234092087
 20
108.9549978351
  0
VERTEX
  8
0
 62
7
  6
CONTINUOUS
 10
61.6786477275
 20
108.663170837
  0
VERTEX
  8
0
 62
7
  6
CONTINUOUS
 10
61.271735608
 20
108.5762276018
  0
SEQEND
  0
LINE
  8
1_AXIS
 62
2
  6
CENTER
 10
66.7964895746
 20
104.7529278408
 11
64.3966895746
 21
104.7529278408
  0
LINE
  8
1_AXIS
 62
2
  6
CONTINUOUS
 10
63.2764895746
 20
104.7529278408
 11
61.5164895746
 21
104.7529278408
  0
LINE
  8
1_AXIS
 62
2
  6
CENTER
 10
57.9964895746
 20
104.7529278408
 11
60.3962895746
 21
104.7529278408
  0
POLYLINE
  8
0
 62
9
  6
CONTINUOUS
 66
1
 70
0
  0
VERTEX
  8
0
 62
9
  6
CONTINUOUS
 10
73.9724410546
 20
101.9329278408
  0
VERTEX
  8
0
 62
9
  6
CONTINUOUS
 10
74.754092356
 20
101.7960690176
  0
VERTEX
  8
0
 62
9
  6
CONTINUOUS
 10
75.4516723154
 20
101.3943299094
  0
VERTEX
  8
0
 62
9
  6
CONTINUOUS
 10
75.7349365174
 20
101.1109521361
  0
VERTEX
  8
0
 62
9
  6
CONTINUOUS
 10
76.1365006981
 20
100.4128379254
  0
VERTEX
  8
0
 62
9
  6
CONTINUOUS
 10
76.2727914091
 20
99.6329278408
  0
SEQEND
  0
POLYLINE
  8
0
 62
7
  6
CONTINUOUS
 66
1
 70
0
  0
VERTEX
  8
0
 62
7
  6
CONTINUOUS
 10
73.9724406526
 20
100.9329278408
  0
VERTEX
  8
0
 62
7
  6
CONTINUOUS
 10
74.4147805693
 20
100.8554199528
  0
VERTEX
  8
0
 62
7
  6
CONTINUOUS
 10
74.8088660646
 20
100.6283844688
  0
VERTEX
  8
0
 62
7
  6
CONTINUOUS
 10
74.9688679682
 20
100.4683323921
  0
VERTEX
  8
0
 62
7
  6
CONTINUOUS
 10
75.1957666996
 20
100.0740978792
  0
VERTEX
  8
0
 62
7
  6
CONTINUOUS
 10
75.2729437153
 20
99.6328651503
  0
SEQEND
  0
POLYLINE
  8
0
 62
7
  6
CONTINUOUS
 66
1
 70
0
  0
VERTEX
  8
0
 62
7
  6
CONTINUOUS
 10
73.9717514376
 20
100.929488467
  0
VERTEX
  8
0
 62
7
  6
CONTINUOUS
 10
74.3493639781
 20
100.8538188126
  0
VERTEX
  8
0
 62
7
  6
CONTINUOUS
 10
74.7405357579
 20
100.6271316137
  0
VERTEX
  8
0
 62
7
  6
CONTINUOUS
 10
74.9006770243
 20
100.4663866782
  0
VERTEX
  8
0
 62
7
  6
CONTINUOUS
 10
75.1259088985
 20
100.074201878
  0
SEQEND
  0
POLYLINE
  8
0
 62
7
  6
CONTINUOUS
 66
1
 70
0
  0
VERTEX
  8
0
 62
7
  6
CONTINUOUS
 10
73.9716909468
 20
100.9293786581
  0
VERTEX
  8
0
 62
7
  6
CONTINUOUS
 10
74.3745872332
 20
100.8442735167
  0
VERTEX
  8
0
 62
7
  6
CONTINUOUS
 10
74.8203427925
 20
100.5539216889
  0
VERTEX
  8
0
 62
7
  6
CONTINUOUS
 10
75.1125190443
 20
100.109299156
  0
SEQEND
  0
LINE
  8
0
 62
7
  6
CONTINUOUS
 10
62.1364895746
 20
99.8339306905
 11
62.124340795
 21
99.9420137688
  0
LINE
  8
0
 62
9
  6
CONTINUOUS
 10
63.3005380946
 20
101.9329278408
 11
63.3005380946
 21
100.9329278408
  0
LINE
  8
0
 62
9
  6
CONTINUOUS
 10
63.5727914091
 20
117.4528134992
 11
63.5727914091
 21
109.8729278408
  0
POLYLINE
  8
0
 62
7
  6
CONTINUOUS
 66
1
 70
0
  0
VERTEX
  8
0
 62
7
  6
CONTINUOUS
 10
62.1364895746
 20
99.0529278408
  0
VERTEX
  8
0
 62
7
  6
CONTINUOUS
 10
62.1153896533
 20
98.8486037252
  0
VERTEX
  8
0
 62
7
  6
CONTINUOUS
 10
61.9519037654
 20
98.4740894793
  0
VERTEX
  8
0
 62
7
  6
CONTINUOUS
 10
61.8164215477
 20
98.3196978503
  0
VERTEX
  8
0
 62
7
  6
CONTINUOUS
 10
61.4663288327
 20
98.1089263997
  0
VERTEX
  8
0
 62
7
  6
CONTINUOUS
 10
61.2664895746
 20
98.0614312291
  0
SEQEND
  0
POLYLINE
  8
0
 62
7
  6
CONTINUOUS
 66
1
 70
0
  0
VERTEX
  8
0
 62
7
  6
CONTINUOUS
 10
62.1364895746
 20
84.2529473656
  0
VERTEX
  8
0
 62
7
  6
CONTINUOUS
 10
62.1114092999
 20
84.0304070974
  0
VERTEX
  8
0
 62
7
  6
CONTINUOUS
 10
61.9182654499
 20
83.6294223751
  0
VERTEX
  8
0
 62
7
  6
CONTINUOUS
 10
61.7598948632
 20
83.4710829562
  0
VERTEX
  8
0
 62
7
  6
CONTINUOUS
 10
61.358876073
 20
83.2779985065
  0
VERTEX
  8
0
 62
7
  6
CONTINUOUS
 10
61.1363372466
 20
83.252929081
  0
SEQEND
  0
POLYLINE
  8
0
 62
7
  6
CONTINUOUS
 66
1
 70
0
  0
VERTEX
  8
0
 62
7
  6
CONTINUOUS
 10
62.0000354339
 20
99.632865095
  0
VERTEX
  8
0
 62
7
  6
CONTINUOUS
 10
62.0772124496
 20
100.0740978792
  0
VERTEX
  8
0
 62
7
  6
CONTINUOUS
 10
62.304111181
 20
100.4683323921
  0
VERTEX
  8
0
 62
7
  6
CONTINUOUS
 10
62.4641130846
 20
100.6283844688
  0
VERTEX
  8
0
 62
7
  6
CONTINUOUS
 10
62.8581985799
 20
100.8554199528
  0
VERTEX
  8
0
 62
7
  6
CONTINUOUS
 10
63.3005384949
 20
100.9329278408
  0
SEQEND
  0
POLYLINE
  8
0
 62
7
  6
CONTINUOUS
 66
1
 70
0
  0
VERTEX
  8
0
 62
7
  6
CONTINUOUS
 10
62.0698578114
 20
99.6328620776
  0
VERTEX
  8
0
 62
7
  6
CONTINUOUS
 10
62.1476218893
 20
100.0757269554
  0
VERTEX
  8
0
 62
7
  6
CONTINUOUS
 10
62.3716645031
 20
100.4656231334
  0
VERTEX
  8
0
 62
7
  6
CONTINUOUS
 10
62.5307792207
 20
100.6257277532
  0
VERTEX
  8
0
 62
7
  6
CONTINUOUS
 10
62.9193798292
 20
100.8522618992
  0
VERTEX
  8
0
 62
7
  6
CONTINUOUS
 10
63.3011914803
 20
100.9297086286
  0
SEQEND
  0
POLYLINE
  8
0
 62
7
  6
CONTINUOUS
 66
1
 70
0
  0
VERTEX
  8
0
 62
7
  6
CONTINUOUS
 10
62.0713234668
 20
99.6913006726
  0
VERTEX
  8
0
 62
7
  6
CONTINUOUS
 10
62.1588440593
 20
100.1051758995
  0
VERTEX
  8
0
 62
7
  6
CONTINUOUS
 10
62.4494632969
 20
100.5507507292
  0
VERTEX
  8
0
 62
7
  6
CONTINUOUS
 10
62.8942257158
 20
100.8426432456
  0
VERTEX
  8
0
 62
7
  6
CONTINUOUS
 10
63.3012464992
 20
100.9296144156
  0
SEQEND
  0
POLYLINE
  8
0
 62
7
  6
CONTINUOUS
 66
1
 70
0
  0
VERTEX
  8
0
 62
7
  6
CONTINUOUS
 10
60.4133779723
 20
97.2529278408
  0
VERTEX
  8
0
 62
7
  6
CONTINUOUS
 10
60.4017029675
 20
97.2323521365
  0
VERTEX
  8
0
 62
7
  6
CONTINUOUS
 10
60.3854302369
 20
97.1703353328
  0
VERTEX
  8
0
 62
7
  6
CONTINUOUS
 10
60.3726224108
 20
97.0699346173
  0
SEQEND
  0
POLYLINE
  8
0
 62
9
  6
CONTINUOUS
 66
1
 70
0
  0
VERTEX
  8
0
 62
9
  6
CONTINUOUS
 10
50.6005380946
 20
107.5729278408
  0
VERTEX
  8
0
 62
9
  6
CONTINUOUS
 10
49.8188867931
 20
107.7097866641
  0
VERTEX
  8
0
 62
9
  6
CONTINUOUS
 10
49.1213068337
 20
108.1115257723
  0
VERTEX
  8
0
 62
9
  6
CONTINUOUS
 10
48.8380426318
 20
108.3949035456
  0
VERTEX
  8
0
 62
9
  6
CONTINUOUS
 10
48.4364784511
 20
109.0930177562
  0
VERTEX
  8
0
 62
9
  6
CONTINUOUS
 10
48.3001877401
 20
109.8729278408
  0
SEQEND
  0
POLYLINE
  8
0
 62
7
  6
CONTINUOUS
 66
1
 70
0
  0
VERTEX
  8
0
 62
7
  6
CONTINUOUS
 10
50.6005384965
 20
108.5729278408
  0
VERTEX
  8
0
 62
7
  6
CONTINUOUS
 10
50.1581985799
 20
108.6504357289
  0
VERTEX
  8
0
 62
7
  6
CONTINUOUS
 10
49.7641130846
 20
108.8774712128
  0
VERTEX
  8
0
 62
7
  6
CONTINUOUS
 10
49.604111181
 20
109.0375232895
  0
VERTEX
  8
0
 62
7
  6
CONTINUOUS
 10
49.3772124496
 20
109.4317578024
  0
VERTEX
  8
0
 62
7
  6
CONTINUOUS
 10
49.3000354339
 20
109.8729905314
  0
SEQEND
  0
POLYLINE
  8
0
 62
7
  6
CONTINUOUS
 66
1
 70
0
  0
VERTEX
  8
0
 62
7
  6
CONTINUOUS
 10
50.6012367375
 20
108.5764129778
  0
VERTEX
  8
0
 62
7
  6
CONTINUOUS
 10
50.2234221893
 20
108.6521074468
  0
VERTEX
  8
0
 62
7
  6
CONTINUOUS
 10
49.8325407854
 20
108.8786420569
  0
VERTEX
  8
0
 62
7
  6
CONTINUOUS
 10
49.6724878074
 20
109.0392468756
  0
VERTEX
  8
0
 62
7
  6
CONTINUOUS
 10
49.4472888919
 20
109.431048633
  0
SEQEND
  0
POLYLINE
  8
0
 62
7
  6
CONTINUOUS
 66
1
 70
0
  0
VERTEX
  8
0
 62
7
  6
CONTINUOUS
 10
50.6012976037
 20
108.576524458
  0
VERTEX
  8
0
 62
7
  6
CONTINUOUS
 10
50.1985038516
 20
108.6615386778
  0
VERTEX
  8
0
 62
7
  6
CONTINUOUS
 10
49.7527319311
 20
108.9518386011
  0
VERTEX
  8
0
 62
7
  6
CONTINUOUS
 10
49.4604850231
 20
109.3964917724
  0
SEQEND
  0
LINE
  8
0
 62
9
  6
CONTINUOUS
 10
62.4904940113
 20
109.5638831996
 11
62.4364895746
 21
109.6719249912
  0
LINE
  8
0
 62
7
  6
CONTINUOUS
 10
62.4364895746
 20
109.6719249912
 11
62.4486394515
 21
109.5638321511
  0
LINE
  8
0
 62
9
  6
CONTINUOUS
 10
61.2724410546
 20
107.5729278408
 11
50.6005380946
 21
107.5729278408
  0
LINE
  8
0
 62
9
  6
CONTINUOUS
 10
76.0005380946
 20
107.5729278408
 11
87.5364895746
 21
107.5729278408
  0
LINE
  8
0
 62
7
  6
CONTINUOUS
 10
86.5364895746
 20
108.5729278408
 11
76.000579696
 21
108.5729278408
  0
LINE
  8
0
 62
7
  6
CONTINUOUS
 10
61.2724406543
 20
108.5729278408
 11
50.600579696
 21
108.5729278408
  0
POLYLINE
  8
0
 62
9
  6
CONTINUOUS
 66
1
 70
0
  0
VERTEX
  8
0
 62
9
  6
CONTINUOUS
 10
62.4364895746
 20
125.252908316
  0
VERTEX
  8
0
 62
9
  6
CONTINUOUS
 10
62.4648186439
 20
125.0858978856
  0
VERTEX
  8
0
 62
9
  6
CONTINUOUS
 10
62.4963502161
 20
124.4670876865
  0
VERTEX
  8
0
 62
9
  6
CONTINUOUS
 10
62.5245170958
 20
123.4180654119
  0
VERTEX
  8
0
 62
9
  6
CONTINUOUS
 10
62.5366946147
 20
122.7523515489
  0
VERTEX
  8
0
 62
9
  6
CONTINUOUS
 10
62.5563064805
 20
121.189313071
  0
VERTEX
  8
0
 62
9
  6
CONTINUOUS
 10
62.5686372328
 20
119.3991906578
  0
VERTEX
  8
0
 62
9
  6
CONTINUOUS
 10
62.5729437139
 20
117.4529278408
  0
SEQEND
  0
POLYLINE
  8
0
 62
9
  6
CONTINUOUS
 66
1
 70
0
  0
VERTEX
  8
0
 62
9
  6
CONTINUOUS
 10
63.4366419026
 20
126.2529278408
  0
VERTEX
  8
0
 62
9
  6
CONTINUOUS
 10
63.4649883709
 20
126.060084905
  0
VERTEX
  8
0
 62
9
  6
CONTINUOUS
 10
63.4964543029
 20
125.3582608253
  0
VERTEX
  8
0
 62
9
  6
CONTINUOUS
 10
63.5245352524
 20
124.1735304363
  0
VERTEX
  8
0
 62
9
  6
CONTINUOUS
 10
63.5366723016
 20
123.4226781038
  0
VERTEX
  8
0
 62
9
  6
CONTINUOUS
 10
63.5562151768
 20
121.6611017489
  0
VERTEX
  8
0
 62
9
  6
CONTINUOUS
 10
63.5685003565
 20
119.6448383674
  0
VERTEX
  8
0
 62
9
  6
CONTINUOUS
 10
63.572791521
 20
117.4528134992
  0
SEQEND
  0
POLYLINE
  8
0
 62
7
  6
CONTINUOUS
 66
1
 70
0
  0
VERTEX
  8
0
 62
7
  6
CONTINUOUS
 10
61.2664895746
 20
98.0614312291
  0
VERTEX
  8
0
 62
7
  6
CONTINUOUS
 10
60.805000716
 20
97.8762021434
  0
VERTEX
  8
0
 62
7
  6
CONTINUOUS
 10
60.6230945641
 20
97.7038169188
  0
VERTEX
  8
0
 62
7
  6
CONTINUOUS
 10
60.4133779723
 20
97.2529278408
  0
SEQEND
  0
LINE
  8
0
 62
9
  6
CONTINUOUS
 10
63.5727914091
 20
109.8729278408
 11
62.5031244077
 21
109.8729901421
  0
LINE
  8
0
 62
9
  6
CONTINUOUS
 10
49.3698549219
 20
109.8729784532
 11
48.3001877401
 21
109.8729278408
  0
LINE
  8
0
 62
9
  6
CONTINUOUS
 10
74.7698549221
 20
109.8729784532
 11
73.7001877401
 21
109.8729278408
  0
POLYLINE
  8
0
 62
9
  6
CONTINUOUS
 66
1
 70
0
  0
VERTEX
  8
0
 62
9
  6
CONTINUOUS
 10
76.0005380946
 20
107.5729278408
  0
VERTEX
  8
0
 62
9
  6
CONTINUOUS
 10
75.2188867931
 20
107.7097866641
  0
VERTEX
  8
0
 62
9
  6
CONTINUOUS
 10
74.5213068337
 20
108.1115257723
  0
VERTEX
  8
0
 62
9
  6
CONTINUOUS
 10
74.2380426318
 20
108.3949035456
  0
VERTEX
  8
0
 62
9
  6
CONTINUOUS
 10
73.8364784511
 20
109.0930177562
  0
VERTEX
  8
0
 62
9
  6
CONTINUOUS
 10
73.7001877401
 20
109.8729278408
  0
SEQEND
  0
POLYLINE
  8
0
 62
7
  6
CONTINUOUS
 66
1
 70
0
  0
VERTEX
  8
0
 62
7
  6
CONTINUOUS
 10
76.0005384965
 20
108.5729278408
  0
VERTEX
  8
0
 62
7
  6
CONTINUOUS
 10
75.5581985799
 20
108.6504357289
  0
VERTEX
  8
0
 62
7
  6
CONTINUOUS
 10
75.1641130846
 20
108.8774712128
  0
VERTEX
  8
0
 62
7
  6
CONTINUOUS
 10
75.004111181
 20
109.0375232895
  0
VERTEX
  8
0
 62
7
  6
CONTINUOUS
 10
74.7772124496
 20
109.4317578024
  0
VERTEX
  8
0
 62
7
  6
CONTINUOUS
 10
74.7000354339
 20
109.8729905314
  0
SEQEND
  0
POLYLINE
  8
0
 62
7
  6
CONTINUOUS
 66
1
 70
0
  0
VERTEX
  8
0
 62
7
  6
CONTINUOUS
 10
76.0012367375
 20
108.5764129778
  0
VERTEX
  8
0
 62
7
  6
CONTINUOUS
 10
75.6234221893
 20
108.6521074468
  0
VERTEX
  8
0
 62
7
  6
CONTINUOUS
 10
75.2325407854
 20
108.8786420569
  0
VERTEX
  8
0
 62
7
  6
CONTINUOUS
 10
75.0724878074
 20
109.0392468756
  0
VERTEX
  8
0
 62
7
  6
CONTINUOUS
 10
74.8472888919
 20
109.431048633
  0
SEQEND
  0
POLYLINE
  8
0
 62
7
  6
CONTINUOUS
 66
1
 70
0
  0
VERTEX
  8
0
 62
7
  6
CONTINUOUS
 10
76.0012976037
 20
108.576524458
  0
VERTEX
  8
0
 62
7
  6
CONTINUOUS
 10
75.5985038553
 20
108.6615386763
  0
VERTEX
  8
0
 62
7
  6
CONTINUOUS
 10
75.1527319369
 20
108.9518385954
  0
VERTEX
  8
0
 62
7
  6
CONTINUOUS
 10
74.8604850276
 20
109.3964917609
  0
SEQEND
  0
LINE
  8
0
 62
9
  6
CONTINUOUS
 10
74.7824851525
 20
109.5638832289
 11
74.8364895746
 21
109.6719249912
  0
POLYLINE
  8
0
 62
7
  6
CONTINUOUS
 66
1
 70
0
  0
VERTEX
  8
0
 62
7
  6
CONTINUOUS
 10
61.0762755881
 20
84.1554919434
  0
VERTEX
  8
0
 62
7
  6
CONTINUOUS
 10
61.1444012647
 20
84.2832110083
  0
VERTEX
  8
0
 62
7
  6
CONTINUOUS
 10
61.2649622142
 20
84.6634870995
  0
VERTEX
  8
0
 62
7
  6
CONTINUOUS
 10
61.3420658006
 20
85.1334571169
  0
VERTEX
  8
0
 62
7
  6
CONTINUOUS
 10
61.3582480296
 20
85.3683850269
  0
VERTEX
  8
0
 62
7
  6
CONTINUOUS
 10
61.3412007373
 20
85.770291942
  0
VERTEX
  8
0
 62
7
  6
CONTINUOUS
 10
61.2631371962
 20
86.0069792592
  0
SEQEND
  0
LINE
  8
0
 62
9
  6
CONTINUOUS
 10
73.7001877401
 20
109.8729278408
 11
73.7001877401
 21
117.452817852
  0
POLYLINE
  8
0
 62
9
  6
CONTINUOUS
 66
1
 70
0
  0
VERTEX
  8
0
 62
9
  6
CONTINUOUS
 10
73.7001876312
 20
117.452817852
  0
VERTEX
  8
0
 62
9
  6
CONTINUOUS
 10
73.7045851702
 20
119.6714003995
  0
VERTEX
  8
0
 62
9
  6
CONTINUOUS
 10
73.7174122846
 20
121.7371679672
  0
VERTEX
  8
0
 62
9
  6
CONTINUOUS
 10
73.7378494307
 20
123.528887201
  0
VERTEX
  8
0
 62
9
  6
CONTINUOUS
 10
73.750532296
 20
124.2853488627
  0
VERTEX
  8
0
 62
9
  6
CONTINUOUS
 10
73.7798441027
 20
125.4596168631
  0
VERTEX
  8
0
 62
9
  6
CONTINUOUS
 10
73.8106296193
 20
126.0946320846
  0
VERTEX
  8
0
 62
9
  6
CONTINUOUS
 10
73.8363372466
 20
126.2529278408
  0
SEQEND
  0
POLYLINE
  8
0
 62
7
  6
CONTINUOUS
 66
1
 70
0
  0
VERTEX
  8
0
 62
7
  6
CONTINUOUS
 10
75.1364895746
 20
84.2529473656
  0
VERTEX
  8
0
 62
7
  6
CONTINUOUS
 10
75.1615698287
 20
84.0304070867
  0
VERTEX
  8
0
 62
7
  6
CONTINUOUS
 10
75.3547136602
 20
83.6294223254
  0
VERTEX
  8
0
 62
7
  6
CONTINUOUS
 10
75.5130842514
 20
83.4710828886
  0
VERTEX
  8
0
 62
7
  6
CONTINUOUS
 10
75.9141030673
 20
83.2779984245
  0
VERTEX
  8
0
 62
7
  6
CONTINUOUS
 10
76.1366419026
 20
83.2529289303
  0
SEQEND
  0
LINE
  8
0
 62
7
  6
CONTINUOUS
 10
74.771318201
 20
109.8146520414
 11
74.7713457635
 21
109.8140425802
  0
LINE
  8
0
 62
7
  6
CONTINUOUS
 10
75.2016597399
 20
99.6912234631
 11
75.2016423811
 21
99.6916079564
  0
LINE
  8
0
 62
9
  6
CONTINUOUS
 10
75.2031243589
 20
99.6328685957
 11
75.1975139067
 21
99.7591575994
  0
LINE
  8
0
 62
9
  6
CONTINUOUS
 10
74.7698549221
 20
109.8729784532
 11
74.775464195
 21
109.7467241829
  0
LINE
  8
0
 62
9
  6
CONTINUOUS
 10
74.7698580035
 20
109.8726151318
 11
74.771318201
 21
109.8146520414
  0
LINE
  8
0
 62
9
  6
CONTINUOUS
 10
75.2031202911
 20
99.6332938465
 11
75.2016597399
 21
99.6912234631
  0
LINE
  8
0
 62
9
  6
CONTINUOUS
 10
73.9724410546
 20
101.9329278408
 11
73.9724410541
 21
100.9329278408
  0
LINE
  8
0
 62
9
  6
CONTINUOUS
 10
74.7000354353
 20
109.8729905314
 11
74.7000354353
 21
117.4529278408
  0
LINE
  8
0
 62
7
  6
CONTINUOUS
 10
74.8364895746
 20
125.252908316
 11
74.8364895746
 21
122.6529278408
  0
LINE
  8
0
 62
7
  6
CONTINUOUS
 10
74.8364895746
 20
112.2529278408
 11
74.8364895746
 21
109.6707060882
  0
LINE
  8
0
 62
7
  6
CONTINUOUS
 10
75.1364895746
 20
84.2529473656
 11
75.1364895746
 21
86.8529278408
  0
LINE
  8
0
 62
7
  6
CONTINUOUS
 10
75.1364895746
 20
97.2529278408
 11
75.1364895746
 21
99.8351495934
  0
LINE
  8
0
 62
9
  6
CONTINUOUS
 10
75.2729437139
 20
99.6328651503
 11
75.2729437139
 21
92.0529278408
  0
POLYLINE
  8
0
 62
9
  6
CONTINUOUS
 66
1
 70
0
  0
VERTEX
  8
0
 62
9
  6
CONTINUOUS
 10
74.7000354353
 20
117.4529278408
  0
VERTEX
  8
0
 62
9
  6
CONTINUOUS
 10
74.7044497205
 20
119.4230028582
  0
VERTEX
  8
0
 62
9
  6
CONTINUOUS
 10
74.7173280803
 20
121.2573149945
  0
VERTEX
  8
0
 62
9
  6
CONTINUOUS
 10
74.7378435897
 20
122.8472156201
  0
VERTEX
  8
0
 62
9
  6
CONTINUOUS
 10
74.7505725388
 20
123.5178752243
  0
VERTEX
  8
0
 62
9
  6
CONTINUOUS
 10
74.7799809842
 20
124.5572967381
  0
VERTEX
  8
0
 62
9
  6
CONTINUOUS
 10
74.8107993824
 20
125.1161431984
  0
VERTEX
  8
0
 62
9
  6
CONTINUOUS
 10
74.8364895746
 20
125.252908316
  0
SEQEND
  0
POLYLINE
  8
0
 62
9
  6
CONTINUOUS
 66
1
 70
0
  0
VERTEX
  8
0
 62
9
  6
CONTINUOUS
 10
75.2729437139
 20
92.0529278408
  0
VERTEX
  8
0
 62
9
  6
CONTINUOUS
 10
75.2685292031
 20
90.0828034852
  0
VERTEX
  8
0
 62
9
  6
CONTINUOUS
 10
75.2556478148
 20
88.2482069815
  0
VERTEX
  8
0
 62
9
  6
CONTINUOUS
 10
75.2351269624
 20
86.6581256325
  0
VERTEX
  8
0
 62
9
  6
CONTINUOUS
 10
75.2223947417
 20
85.9874305796
  0
VERTEX
  8
0
 62
9
  6
CONTINUOUS
 10
75.1929790859
 20
84.9480636024
  0
VERTEX
  8
0
 62
9
  6
CONTINUOUS
 10
75.1621677665
 20
84.3895820229
  0
VERTEX
  8
0
 62
9
  6
CONTINUOUS
 10
75.1364895746
 20
84.2529473656
  0
SEQEND
  0
LINE
  8
0
 62
7
  6
CONTINUOUS
 10
74.8364895746
 20
109.6707060882
 11
74.8242510702
 21
109.562533766
  0
LINE
  8
0
 62
7
  6
CONTINUOUS
 10
75.1364895746
 20
99.8351495934
 11
75.1487589789
 21
99.9435950302
  0
LINE
  8
0
 62
9
  6
CONTINUOUS
 10
37.2564895746
 20
117.4529278408
 11
49.3000354353
 21
117.4529278408
  0
LINE
  8
0
 62
9
  6
CONTINUOUS
 10
62.5729437139
 20
117.4529278408
 11
74.7000354353
 21
117.4529278408
  0
LINE
  8
1_AXIS
 62
2
  6
CENTER
 10
35.2564895746
 20
117.4529278408
 11
76.8364895746
 21
117.4529278408
  0
LINE
  8
0
 62
7
  6
CONTINUOUS
 10
74.8604850276
 20
109.3964917609
 11
74.7713435812
 21
109.8140909873
  0
LINE
  8
0
 62
7
  6
CONTINUOUS
 10
75.1125190443
 20
100.109299156
 11
75.2016452627
 21
99.6915436555
  0
LINE
  8
0
 62
7
  6
CONTINUOUS
 10
74.8472888919
 20
109.431048633
 11
74.769857321
 21
109.8729784527
  0
LINE
  8
0
 62
7
  6
CONTINUOUS
 10
75.1259088985
 20
100.074201878
 11
75.2031215499
 21
99.6328685959
  0
POLYLINE
  8
0
 62
7
  6
CONTINUOUS
 66
1
 70
0
  0
VERTEX
  8
0
 62
7
  6
CONTINUOUS
 10
74.8364895746
 20
112.2529278408
  0
VERTEX
  8
0
 62
7
  6
CONTINUOUS
 10
74.8097334353
 20
112.4839897489
  0
VERTEX
  8
0
 62
7
  6
CONTINUOUS
 10
74.7853558008
 20
113.1566141504
  0
VERTEX
  8
0
 62
7
  6
CONTINUOUS
 10
74.7655230047
 20
114.2109669154
  0
VERTEX
  8
0
 62
7
  6
CONTINUOUS
 10
74.751996514
 20
115.5533091971
  0
VERTEX
  8
0
 62
7
  6
CONTINUOUS
 10
74.7459769902
 20
117.0643679517
  0
VERTEX
  8
0
 62
7
  6
CONTINUOUS
 10
74.7459769911
 20
117.84148845
  0
VERTEX
  8
0
 62
7
  6
CONTINUOUS
 10
74.751996518
 20
119.3525470703
  0
VERTEX
  8
0
 62
7
  6
CONTINUOUS
 10
74.7655230095
 20
120.6948891131
  0
VERTEX
  8
0
 62
7
  6
CONTINUOUS
 10
74.7853558041
 20
121.7492416612
  0
VERTEX
  8
0
 62
7
  6
CONTINUOUS
 10
74.8097334364
 20
122.4218659512
  0
VERTEX
  8
0
 62
7
  6
CONTINUOUS
 10
74.8364895746
 20
122.6529278408
  0
SEQEND
  0
LINE
  8
0
 62
9
  6
CONTINUOUS
 10
76.0005380946
 20
107.5729278408
 11
76.0005380951
 21
108.5729278408
  0
LINE
  8
0
 62
9
  6
CONTINUOUS
 10
76.2727914091
 20
99.6329278408
 11
76.2727914091
 21
92.0530419885
  0
POLYLINE
  8
0
 62
9
  6
CONTINUOUS
 66
1
 70
0
  0
VERTEX
  8
0
 62
9
  6
CONTINUOUS
 10
76.2727915221
 20
92.0530419885
  0
VERTEX
  8
0
 62
9
  6
CONTINUOUS
 10
76.2683936476
 20
89.8343732074
  0
VERTEX
  8
0
 62
9
  6
CONTINUOUS
 10
76.2555634721
 20
87.7682942125
  0
VERTEX
  8
0
 62
9
  6
CONTINUOUS
 10
76.2351210106
 20
85.9763787997
  0
VERTEX
  8
0
 62
9
  6
CONTINUOUS
 10
76.2224349061
 20
85.2198800438
  0
VERTEX
  8
0
 62
9
  6
CONTINUOUS
 10
76.19311595
 20
84.0456760276
  0
VERTEX
  8
0
 62
9
  6
CONTINUOUS
 10
76.1623373895
 20
83.4110727557
  0
VERTEX
  8
0
 62
9
  6
CONTINUOUS
 10
76.1366419026
 20
83.2529278408
  0
SEQEND
  0
POLYLINE
  8
0
 62
7
  6
CONTINUOUS
 66
1
 70
0
  0
VERTEX
  8
0
 62
7
  6
CONTINUOUS
 10
75.1364895746
 20
86.8529278408
  0
VERTEX
  8
0
 62
7
  6
CONTINUOUS
 10
75.1632457139
 20
87.0839897489
  0
VERTEX
  8
0
 62
7
  6
CONTINUOUS
 10
75.1876233484
 20
87.7566141504
  0
VERTEX
  8
0
 62
7
  6
CONTINUOUS
 10
75.2074561445
 20
88.8109669154
  0
VERTEX
  8
0
 62
7
  6
CONTINUOUS
 10
75.2209826352
 20
90.1533091971
  0
VERTEX
  8
0
 62
7
  6
CONTINUOUS
 10
75.227002159
 20
91.6643679517
  0
VERTEX
  8
0
 62
7
  6
CONTINUOUS
 10
75.2270021581
 20
92.44148845
  0
VERTEX
  8
0
 62
7
  6
CONTINUOUS
 10
75.2209826312
 20
93.9525470703
  0
VERTEX
  8
0
 62
7
  6
CONTINUOUS
 10
75.2074561397
 20
95.2948891131
  0
VERTEX
  8
0
 62
7
  6
CONTINUOUS
 10
75.1876233451
 20
96.3492416612
  0
VERTEX
  8
0
 62
7
  6
CONTINUOUS
 10
75.1632457128
 20
97.0218659512
  0
VERTEX
  8
0
 62
7
  6
CONTINUOUS
 10
75.1364895746
 20
97.2529278408
  0
SEQEND
  0
LINE
  8
0
 62
9
  6
CONTINUOUS
 10
75.1904940023
 20
99.941972464
 11
75.1364895746
 21
99.8339306905
  0
POLYLINE
  8
0
 62
7
  6
CONTINUOUS
 66
1
 70
0
  0
VERTEX
  8
0
 62
7
  6
CONTINUOUS
 10
74.8364895746
 20
125.252908316
  0
VERTEX
  8
0
 62
7
  6
CONTINUOUS
 10
74.8114093199
 20
125.4754485942
  0
VERTEX
  8
0
 62
7
  6
CONTINUOUS
 10
74.6182654878
 20
125.876433354
  0
VERTEX
  8
0
 62
7
  6
CONTINUOUS
 10
74.4598948966
 20
126.0347727901
  0
VERTEX
  8
0
 62
7
  6
CONTINUOUS
 10
74.0588760814
 20
126.2278572533
  0
VERTEX
  8
0
 62
7
  6
CONTINUOUS
 10
73.8363372466
 20
126.2529267476
  0
SEQEND
  0
LINE
  8
2_FEATURE
 62
7
  6
CONTINUOUS
 10
38.2564895746
 20
126.2529278408
 11
48.4363372466
 21
126.2529278408
  0
LINE
  8
2_FEATURE
 62
7
  6
CONTINUOUS
 10
63.4366419026
 20
126.2529278408
 11
73.8363372466
 21
126.2529278408
  0
LINE
  8
0
 62
9
  6
CONTINUOUS
 10
86.5364895746
 20
108.5729278408
 11
86.5364895746
 21
83.2529278408
  0
LINE
  8
0
 62
7
  6
CONTINUOUS
 10
87.5364895746
 20
107.5729278408
 11
87.5364895746
 21
84.2529914474
  0
LINE
  8
1_AXIS
 62
2
  6
CONTINUOUS
 10
139.3594618373
 20
219.034479406
 11
139.3594618373
 21
217.274479406
  0
LINE
  8
1_AXIS
 62
2
  6
CENTER
 10
139.3594618373
 20
213.754479406
 11
139.3594618373
 21
210.954479406
  0
LINE
  8
0
 62
9
  6
CONTINUOUS
 10
139.3594618373
 20
210.354479406
 11
139.3594618373
 21
209.354479406
  0
LINE
  8
1_AXIS
 62
2
  6
CENTER
 10
139.3594618373
 20
222.554479406
 11
139.3594618373
 21
225.354479406
  0
LINE
  8
0
 62
9
  6
CONTINUOUS
 10
139.3594618373
 20
225.954479406
 11
139.3594618374
 21
226.954479406
  0
LINE
  8
0
 62
9
  6
CONTINUOUS
 10
141.6851024834
 20
210.7564031946
 11
142.1851024834
 21
209.8903777909
  0
LINE
  8
0
 62
9
  6
CONTINUOUS
 10
140.1851024834
 20
210.354479406
 11
140.1851024833
 21
209.354479406
  0
LINE
  8
0
 62
7
  6
CONTINUOUS
 10
164.7594618373
 20
209.354479406
 11
163.9338211913
 21
209.354479406
  0
LINE
  8
0
 62
7
  6
CONTINUOUS
 10
139.3594618373
 20
209.354479406
 11
140.1851024834
 21
209.354479406
  0
LINE
  8
0
 62
9
  6
CONTINUOUS
 10
164.7594618373
 20
210.3370269996
 11
163.9338211913
 21
210.3370269996
  0
LINE
  8
0
 62
9
  6
CONTINUOUS
 10
139.3594618373
 20
210.354479406
 11
140.1851024834
 21
210.354479406
  0
LINE
  8
0
 62
9
  6
CONTINUOUS
 10
145.8353602222
 20
213.1525556173
 11
146.335360222
 21
212.2865302135
  0
POLYLINE
  8
0
 62
9
  6
CONTINUOUS
 66
1
 70
0
  0
VERTEX
  8
0
 62
9
  6
CONTINUOUS
 10
163.9338211913
 20
210.3370269996
  0
VERTEX
  8
0
 62
9
  6
CONTINUOUS
 10
163.1573838095
 20
210.4392442286
  0
VERTEX
  8
0
 62
9
  6
CONTINUOUS
 10
162.4338211913
 20
210.7389507882
  0
SEQEND
  0
LINE
  8
0
 62
9
  6
CONTINUOUS
 10
147.3353602222
 20
213.554479406
 11
147.3353602222
 21
212.554479406
  0
LINE
  8
0
 62
7
  6
CONTINUOUS
 10
147.3353602222
 20
212.554479406
 11
156.7834530496
 21
212.554479406
  0
LINE
  8
0
 62
9
  6
CONTINUOUS
 10
147.3353602222
 20
213.554479406
 11
153.8794618373
 21
213.554479406
  0
LINE
  8
0
 62
9
  6
CONTINUOUS
 10
155.5704440536
 20
213.554479406
 11
156.1292773101
 21
213.554479406
  0
LINE
  8
0
 62
9
  6
CONTINUOUS
 10
154.8794618373
 20
214.554479406
 11
155.8794618373
 21
214.554479406
  0
POLYLINE
  8
0
 62
9
  6
CONTINUOUS
 66
1
 70
0
  0
VERTEX
  8
0
 62
9
  6
CONTINUOUS
 10
156.1292764806
 20
213.5544809665
  0
VERTEX
  8
0
 62
9
  6
CONTINUOUS
 10
156.2633847128
 20
213.5084016613
  0
VERTEX
  8
0
 62
9
  6
CONTINUOUS
 10
156.3992905256
 20
213.4606424019
  0
VERTEX
  8
0
 62
9
  6
CONTINUOUS
 10
156.5353694365
 20
213.4117507288
  0
SEQEND
  0
POLYLINE
  8
0
 62
9
  6
CONTINUOUS
 66
1
 70
0
  0
VERTEX
  8
0
 62
9
  6
CONTINUOUS
 10
156.5353694365
 20
213.4117507288
  0
VERTEX
  8
0
 62
9
  6
CONTINUOUS
 10
156.9274124643
 20
213.2184928996
  0
VERTEX
  8
0
 62
9
  6
CONTINUOUS
 10
157.1475901861
 20
213.0722860283
  0
VERTEX
  8
0
 62
9
  6
CONTINUOUS
 10
157.6499949012
 20
212.6649356996
  0
SEQEND
  0
LINE
  8
0
 62
7
  6
CONTINUOUS
 10
161.9337543368
 20
209.8904163893
 11
157.7835634525
 21
212.2865302136
  0
LINE
  8
1_AXIS
 62
2
  6
CENTER
 10
152.0594618373
 20
207.354479406
 11
152.0594618373
 21
228.9544797231
  0
POLYLINE
  8
0
 62
7
  6
CONTINUOUS
 66
1
 70
0
  0
VERTEX
  8
0
 62
7
  6
CONTINUOUS
 10
155.8794618373
 20
221.0796472782
  0
VERTEX
  8
0
 62
7
  6
CONTINUOUS
 10
156.4855370042
 20
221.4041572615
  0
VERTEX
  8
0
 62
7
  6
CONTINUOUS
 10
157.1795210824
 20
221.971983596
  0
SEQEND
  0
LINE
  8
0
 62
9
  6
CONTINUOUS
 10
155.8794618373
 20
217.8435748314
 11
155.987964704
 21
217.847363835
  0
LINE
  8
1_AXIS
 62
2
  6
CONTINUOUS
 10
165.6394618373
 20
218.154479406
 11
163.8794618373
 21
218.154479406
  0
LINE
  8
1_AXIS
 62
2
  6
CENTER
 10
160.3594618373
 20
218.154479406
 11
157.5594618373
 21
218.154479406
  0
LINE
  8
0
 62
7
  6
CONTINUOUS
 10
159.5594618373
 20
218.154479406
 11
156.9772400847
 21
218.154479406
  0
LINE
  8
1_AXIS
 62
2
  6
CONTINUOUS
 10
140.2394618373
 20
218.154479406
 11
138.4794618373
 21
218.154479406
  0
LINE
  8
1_AXIS
 62
2
  6
CENTER
 10
134.9594618373
 20
218.154479406
 11
132.1594618373
 21
218.154479406
  0
LINE
  8
1_AXIS
 62
2
  6
CENTER
 10
143.7594618373
 20
218.154479406
 11
146.5594618373
 21
218.154479406
  0
LINE
  8
1_AXIS
 62
2
  6
CENTER
 10
169.1594618373
 20
218.154479406
 11
171.9594618373
 21
218.154479406
  0
LINE
  8
0
 62
7
  6
CONTINUOUS
 10
169.9594618373
 20
218.154479406
 11
173.5594607479
 21
218.154479406
  0
POLYLINE
  8
0
 62
9
  6
CONTINUOUS
 66
1
 70
0
  0
VERTEX
  8
0
 62
9
  6
CONTINUOUS
 10
155.987964704
 20
217.847363835
  0
VERTEX
  8
0
 62
9
  6
CONTINUOUS
 10
156.0131375711
 20
217.8443608449
  0
VERTEX
  8
0
 62
9
  6
CONTINUOUS
 10
156.2062170924
 20
217.8441075391
  0
VERTEX
  8
0
 62
9
  6
CONTINUOUS
 10
156.3644494085
 20
217.8468699153
  0
VERTEX
  8
0
 62
9
  6
CONTINUOUS
 10
156.7650548886
 20
217.8574876107
  0
VERTEX
  8
0
 62
9
  6
CONTINUOUS
 10
156.987355531
 20
217.8648109253
  0
SEQEND
  0
LINE
  8
0
 62
9
  6
CONTINUOUS
 10
162.4338211913
 20
210.7389507882
 11
159.5104831387
 21
212.4267407998
  0
POLYLINE
  8
0
 62
9
  6
CONTINUOUS
 66
1
 70
0
  0
VERTEX
  8
0
 62
9
  6
CONTINUOUS
 10
159.5104831387
 20
212.4267407998
  0
VERTEX
  8
0
 62
9
  6
CONTINUOUS
 10
159.4389529723
 20
212.4721849907
  0
VERTEX
  8
0
 62
9
  6
CONTINUOUS
 10
159.3715456505
 20
212.5235074033
  0
VERTEX
  8
0
 62
9
  6
CONTINUOUS
 10
159.3087006618
 20
212.58037491
  0
SEQEND
  0
POLYLINE
  8
0
 62
9
  6
CONTINUOUS
 66
1
 70
0
  0
VERTEX
  8
0
 62
9
  6
CONTINUOUS
 10
158.5952586222
 20
211.8736002031
  0
VERTEX
  8
0
 62
9
  6
CONTINUOUS
 10
158.7296376709
 20
211.7648357048
  0
VERTEX
  8
0
 62
9
  6
CONTINUOUS
 10
158.8678276255
 20
211.6666240333
  0
VERTEX
  8
0
 62
9
  6
CONTINUOUS
 10
159.0104831387
 20
211.5781678024
  0
SEQEND
  0
POLYLINE
  8
0
 62
9
  6
CONTINUOUS
 66
1
 70
0
  0
VERTEX
  8
0
 62
9
  6
CONTINUOUS
 10
157.6499949012
 20
212.6649356996
  0
VERTEX
  8
0
 62
9
  6
CONTINUOUS
 10
158.0955743962
 20
212.2786417547
  0
VERTEX
  8
0
 62
9
  6
CONTINUOUS
 10
158.2881432924
 20
212.1190219986
  0
VERTEX
  8
0
 62
9
  6
CONTINUOUS
 10
158.5952586222
 20
211.8736002031
  0
SEQEND
  0
POLYLINE
  8
0
 62
9
  6
CONTINUOUS
 66
1
 70
0
  0
VERTEX
  8
0
 62
9
  6
CONTINUOUS
 10
158.6520231562
 20
211.8099932771
  0
VERTEX
  8
0
 62
9
  6
CONTINUOUS
 10
158.7156263748
 20
211.7546373962
  0
VERTEX
  8
0
 62
9
  6
CONTINUOUS
 10
158.7853815364
 20
211.7081302731
  0
SEQEND
  0
LINE
  8
0
 62
7
  6
CONTINUOUS
 10
158.6068953108
 20
211.8854585565
 11
158.6069239475
 21
211.8854303461
  0
LINE
  8
0
 62
9
  6
CONTINUOUS
 10
141.6851024834
 20
210.7564031946
 11
145.8353602222
 21
213.1525556173
  0
LINE
  8
0
 62
9
  6
CONTINUOUS
 10
155.9131638895
 20
219.9893789027
 11
155.8794618373
 21
219.9882020011
  0
LINE
  8
0
 62
9
  6
CONTINUOUS
 10
158.5952586335
 20
211.8736002147
 11
158.6520231562
 21
211.8099932771
  0
LINE
  8
0
 62
9
  6
CONTINUOUS
 10
153.8794618373
 20
213.554479406
 11
153.879461837
 21
212.554479406
  0
LINE
  8
0
 62
9
  6
CONTINUOUS
 10
154.8794618373
 20
214.554479406
 11
154.8794618373
 21
226.954479406
  0
POLYLINE
  8
0
 62
9
  6
CONTINUOUS
 66
1
 70
0
  0
VERTEX
  8
0
 62
9
  6
CONTINUOUS
 10
156.5132245189
 20
220.3773002094
  0
VERTEX
  8
0
 62
9
  6
CONTINUOUS
 10
156.3140112731
 20
220.1255798041
  0
VERTEX
  8
0
 62
9
  6
CONTINUOUS
 10
156.2199733514
 20
220.0510712066
  0
VERTEX
  8
0
 62
9
  6
CONTINUOUS
 10
156.0560328992
 20
219.9933718546
  0
SEQEND
  0
LINE
  8
0
 62
7
  6
CONTINUOUS
 10
142.1851024834
 20
209.8903777909
 11
146.3353602222
 21
212.2865302136
  0
POLYLINE
  8
0
 62
9
  6
CONTINUOUS
 66
1
 70
0
  0
VERTEX
  8
0
 62
9
  6
CONTINUOUS
 10
156.0560328992
 20
219.9933718546
  0
VERTEX
  8
0
 62
9
  6
CONTINUOUS
 10
155.9775254207
 20
219.9932858785
  0
VERTEX
  8
0
 62
9
  6
CONTINUOUS
 10
155.9292989642
 20
219.9919389976
  0
VERTEX
  8
0
 62
9
  6
CONTINUOUS
 10
155.9131639093
 20
219.9893783699
  0
SEQEND
  0
POLYLINE
  8
0
 62
9
  6
CONTINUOUS
 66
1
 70
0
  0
VERTEX
  8
0
 62
9
  6
CONTINUOUS
 10
159.3087006618
 20
212.58037491
  0
VERTEX
  8
0
 62
9
  6
CONTINUOUS
 10
158.0935260008
 20
214.1250159729
  0
VERTEX
  8
0
 62
9
  6
CONTINUOUS
 10
157.3028868271
 20
215.9248270019
  0
VERTEX
  8
0
 62
9
  6
CONTINUOUS
 10
156.987355531
 20
217.8648109253
  0
SEQEND
  0
POLYLINE
  8
0
 62
9
  6
CONTINUOUS
 66
1
 70
0
  0
VERTEX
  8
0
 62
9
  6
CONTINUOUS
 10
156.5353692566
 20
213.4117506254
  0
VERTEX
  8
0
 62
9
  6
CONTINUOUS
 10
156.5793413169
 20
212.9741925204
  0
VERTEX
  8
0
 62
9
  6
CONTINUOUS
 10
156.668690952
 20
212.6655749215
  0
VERTEX
  8
0
 62
9
  6
CONTINUOUS
 10
156.7835634519
 20
212.554473389
  0
SEQEND
  0
LINE
  8
0
 62
7
  6
CONTINUOUS
 10
155.9879610504
 20
217.8474684588
 11
155.9131638895
 21
219.9893789027
  0
LINE
  8
0
 62
7
  6
CONTINUOUS
 10
155.8794618373
 20
214.554479406
 11
155.8794618373
 21
225.954479406
  0
LINE
  8
0
 62
9
  6
CONTINUOUS
 10
156.1292809206
 20
213.554479406
 11
156.1292809206
 21
212.554479406
  0
POLYLINE
  8
0
 62
9
  6
CONTINUOUS
 66
1
 70
0
  0
VERTEX
  8
0
 62
9
  6
CONTINUOUS
 10
155.8794618373
 20
221.9544794405
  0
VERTEX
  8
0
 62
9
  6
CONTINUOUS
 10
155.9585754956
 20
221.960473922
  0
VERTEX
  8
0
 62
9
  6
CONTINUOUS
 10
156.1852754285
 20
221.9657239865
  0
VERTEX
  8
0
 62
9
  6
CONTINUOUS
 10
156.3460288527
 20
221.9678733095
  0
VERTEX
  8
0
 62
9
  6
CONTINUOUS
 10
156.738232142
 20
221.9708959652
  0
VERTEX
  8
0
 62
9
  6
CONTINUOUS
 10
157.1795210824
 20
221.9719319693
  0
SEQEND
  0
POLYLINE
  8
0
 62
7
  6
CONTINUOUS
 66
1
 70
0
  0
VERTEX
  8
0
 62
7
  6
CONTINUOUS
 10
155.8794618373
 20
220.7997023204
  0
VERTEX
  8
0
 62
7
  6
CONTINUOUS
 10
156.0191628767
 20
220.762231702
  0
VERTEX
  8
0
 62
7
  6
CONTINUOUS
 10
156.113996451
 20
220.7388314085
  0
VERTEX
  8
0
 62
7
  6
CONTINUOUS
 10
156.2991511899
 20
220.6814640166
  0
VERTEX
  8
0
 62
7
  6
CONTINUOUS
 10
156.4451842402
 20
220.56991498
  0
VERTEX
  8
0
 62
7
  6
CONTINUOUS
 10
156.5131713783
 20
220.3777420487
  0
SEQEND
  0
POLYLINE
  8
0
 62
9
  6
CONTINUOUS
 66
1
 70
0
  0
VERTEX
  8
0
 62
9
  6
CONTINUOUS
 10
155.8794618373
 20
220.5579234175
  0
VERTEX
  8
0
 62
9
  6
CONTINUOUS
 10
155.905968314
 20
220.5209010425
  0
VERTEX
  8
0
 62
9
  6
CONTINUOUS
 10
156.0347659359
 20
220.17919776
  0
VERTEX
  8
0
 62
9
  6
CONTINUOUS
 10
156.0560335305
 20
219.9933718833
  0
SEQEND
  0
POLYLINE
  8
0
 62
7
  6
CONTINUOUS
 66
1
 70
0
  0
VERTEX
  8
0
 62
7
  6
CONTINUOUS
 10
156.5131713783
 20
220.3777420487
  0
VERTEX
  8
0
 62
7
  6
CONTINUOUS
 10
156.5579671256
 20
220.012113791
  0
VERTEX
  8
0
 62
7
  6
CONTINUOUS
 10
156.599274959
 20
219.6986887556
  0
VERTEX
  8
0
 62
7
  6
CONTINUOUS
 10
156.6374967576
 20
219.4299106277
  0
VERTEX
  8
0
 62
7
  6
CONTINUOUS
 10
156.6729718824
 20
219.1995722098
  0
VERTEX
  8
0
 62
7
  6
CONTINUOUS
 10
156.7060209704
 20
219.0023468875
  0
VERTEX
  8
0
 62
7
  6
CONTINUOUS
 10
156.7369526005
 20
218.8336643149
  0
VERTEX
  8
0
 62
7
  6
CONTINUOUS
 10
156.7660712607
 20
218.6896109404
  0
VERTEX
  8
0
 62
7
  6
CONTINUOUS
 10
156.7800474875
 20
218.6257564053
  0
VERTEX
  8
0
 62
7
  6
CONTINUOUS
 10
156.8070388074
 20
218.5125494336
  0
VERTEX
  8
0
 62
7
  6
CONTINUOUS
 10
156.8330557333
 20
218.4165721986
  0
VERTEX
  8
0
 62
7
  6
CONTINUOUS
 10
156.8585467286
 20
218.3357058741
  0
VERTEX
  8
0
 62
7
  6
CONTINUOUS
 10
156.8841435703
 20
218.268345786
  0
VERTEX
  8
0
 62
7
  6
CONTINUOUS
 10
156.9108996948
 20
218.2136483945
  0
VERTEX
  8
0
 62
7
  6
CONTINUOUS
 10
156.9409484213
 20
218.172675334
  0
VERTEX
  8
0
 62
7
  6
CONTINUOUS
 10
156.9772400847
 20
218.154479406
  0
SEQEND
  0
POLYLINE
  8
0
 62
9
  6
CONTINUOUS
 66
1
 70
0
  0
VERTEX
  8
0
 62
9
  6
CONTINUOUS
 10
157.6499962917
 20
212.6649367698
  0
VERTEX
  8
0
 62
9
  6
CONTINUOUS
 10
157.6576328751
 20
212.4965963141
  0
VERTEX
  8
0
 62
9
  6
CONTINUOUS
 10
157.7030694694
 20
212.3678688761
  0
VERTEX
  8
0
 62
9
  6
CONTINUOUS
 10
157.7835622884
 20
212.2865281975
  0
SEQEND
  0
LINE
  8
0
 62
9
  6
CONTINUOUS
 10
156.987355531
 20
217.8648109253
 11
156.9772400847
 21
218.154479406
  0
LINE
  8
0
 62
9
  6
CONTINUOUS
 10
157.1795210824
 20
221.971983596
 11
157.1794618373
 21
226.954479406
  0
POLYLINE
  8
0
 62
9
  6
CONTINUOUS
 66
1
 70
0
  0
VERTEX
  8
0
 62
9
  6
CONTINUOUS
 10
155.8794618373
 20
225.9544794202
  0
VERTEX
  8
0
 62
9
  6
CONTINUOUS
 10
155.9569697254
 20
225.9604146004
  0
VERTEX
  8
0
 62
9
  6
CONTINUOUS
 10
156.1840052093
 20
225.9657035972
  0
VERTEX
  8
0
 62
9
  6
CONTINUOUS
 10
156.344057286
 20
225.9678511351
  0
VERTEX
  8
0
 62
9
  6
CONTINUOUS
 10
156.7382917989
 20
225.9708963761
  0
SEQEND
  0
LINE
  8
0
 62
9
  6
CONTINUOUS
 10
139.3594618373
 20
225.954479406
 11
155.8794618373
 21
225.954479406
  0
LINE
  8
0
 62
9
  6
CONTINUOUS
 10
156.7382917989
 20
225.9708963761
 11
164.7594618373
 21
225.9719318124
  0
POLYLINE
  8
0
 62
9
  6
CONTINUOUS
 66
1
 70
0
  0
VERTEX
  8
0
 62
9
  6
CONTINUOUS
 10
159.0104831387
 20
211.5781678024
  0
VERTEX
  8
0
 62
9
  6
CONTINUOUS
 10
159.0244459817
 20
211.5985049393
  0
VERTEX
  8
0
 62
9
  6
CONTINUOUS
 10
159.1222302015
 20
211.760925379
  0
VERTEX
  8
0
 62
9
  6
CONTINUOUS
 10
159.2012417729
 20
211.8950195519
  0
VERTEX
  8
0
 62
9
  6
CONTINUOUS
 10
159.5104831387
 20
212.4267407998
  0
SEQEND
  0
LINE
  8
0
 62
9
  6
CONTINUOUS
 10
158.6069181849
 20
211.885436023
 11
158.5952586222
 21
211.8736002031
  0
POLYLINE
  8
0
 62
9
  6
CONTINUOUS
 66
1
 70
0
  0
VERTEX
  8
0
 62
9
  6
CONTINUOUS
 10
158.6069190392
 20
211.8854368902
  0
VERTEX
  8
0
 62
9
  6
CONTINUOUS
 10
158.6261644504
 20
211.9011196409
  0
VERTEX
  8
0
 62
9
  6
CONTINUOUS
 10
158.7631060003
 20
212.0331755596
  0
VERTEX
  8
0
 62
9
  6
CONTINUOUS
 10
158.8740431556
 20
212.1430308828
  0
VERTEX
  8
0
 62
9
  6
CONTINUOUS
 10
159.1537430178
 20
212.4235533911
  0
VERTEX
  8
0
 62
9
  6
CONTINUOUS
 10
159.3087006618
 20
212.58037491
  0
SEQEND
  0
LINE
  8
0
 62
7
  6
CONTINUOUS
 10
139.3594618373
 20
226.954479406
 11
164.7593476896
 21
226.954479406
  0
POLYLINE
  8
0
 62
9
  6
CONTINUOUS
 66
1
 70
0
  0
VERTEX
  8
0
 62
9
  6
CONTINUOUS
 10
164.7594618373
 20
225.9719318124
  0
VERTEX
  8
0
 62
9
  6
CONTINUOUS
 10
166.7295861929
 20
225.7190246555
  0
VERTEX
  8
0
 62
9
  6
CONTINUOUS
 10
168.5641826967
 20
224.9810504171
  0
VERTEX
  8
0
 62
9
  6
CONTINUOUS
 10
170.1542640457
 20
223.8054115697
  0
VERTEX
  8
0
 62
9
  6
CONTINUOUS
 10
170.8249590986
 20
223.0759831311
  0
VERTEX
  8
0
 62
9
  6
CONTINUOUS
 10
171.8643260758
 20
221.3907613384
  0
VERTEX
  8
0
 62
9
  6
CONTINUOUS
 10
172.4228076553
 20
219.6255820361
  0
VERTEX
  8
0
 62
9
  6
CONTINUOUS
 10
172.5594423125
 20
218.154479406
  0
SEQEND
  0
LINE
  8
0
 62
9
  6
CONTINUOUS
 10
163.9338211913
 20
209.354479406
 11
163.9338211913
 21
210.3370269996
  0
LINE
  8
0
 62
9
  6
CONTINUOUS
 10
164.7594618373
 20
226.954479406
 11
164.7594618373
 21
225.9719318124
  0
LINE
  8
1_AXIS
 62
2
  6
CONTINUOUS
 10
164.7594618373
 20
219.034479406
 11
164.7594618373
 21
217.274479406
  0
LINE
  8
1_AXIS
 62
2
  6
CENTER
 10
164.7594618373
 20
213.754479406
 11
164.7594618373
 21
210.954479406
  0
LINE
  8
0
 62
9
  6
CONTINUOUS
 10
164.7594618373
 20
209.354479406
 11
164.7594618373
 21
210.3370269996
  0
LINE
  8
1_AXIS
 62
2
  6
CENTER
 10
164.7594618373
 20
222.554479406
 11
164.7594618373
 21
225.354479406
  0
POLYLINE
  8
0
 62
9
  6
CONTINUOUS
 66
1
 70
0
  0
VERTEX
  8
0
 62
9
  6
CONTINUOUS
 10
161.9338211913
 20
209.8903777909
  0
VERTEX
  8
0
 62
9
  6
CONTINUOUS
 10
161.9477840255
 20
209.9107149123
  0
VERTEX
  8
0
 62
9
  6
CONTINUOUS
 10
162.0455681986
 20
210.0731352707
  0
VERTEX
  8
0
 62
9
  6
CONTINUOUS
 10
162.124579753
 20
210.2072294137
  0
VERTEX
  8
0
 62
9
  6
CONTINUOUS
 10
162.4338211913
 20
210.7389507882
  0
SEQEND
  0
POLYLINE
  8
0
 62
9
  6
CONTINUOUS
 66
1
 70
0
  0
VERTEX
  8
0
 62
9
  6
CONTINUOUS
 10
172.5594423125
 20
218.154479406
  0
VERTEX
  8
0
 62
9
  6
CONTINUOUS
 10
172.3924318821
 20
216.5315081111
  0
VERTEX
  8
0
 62
9
  6
CONTINUOUS
 10
171.773621683
 20
214.7250655534
  0
VERTEX
  8
0
 62
9
  6
CONTINUOUS
 10
170.7245994084
 20
213.111386093
  0
VERTEX
  8
0
 62
9
  6
CONTINUOUS
 10
170.0588855454
 20
212.4137365035
  0
VERTEX
  8
0
 62
9
  6
CONTINUOUS
 10
168.4958470675
 20
211.2901734658
  0
VERTEX
  8
0
 62
9
  6
CONTINUOUS
 10
166.7057246543
 20
210.5837451376
  0
VERTEX
  8
0
 62
9
  6
CONTINUOUS
 10
164.7594618373
 20
210.3370269996
  0
SEQEND
  0
ARC
  8
0
 62
7
  6
CONTINUOUS
 10
38.2564895746
 20
210.354479406
 40
1.0
 50
180.0
 51
270.0
  0
ARC
  8
0
 62
7
  6
CONTINUOUS
 10
48.30018777
 20
210.3544811195
 40
1.0
 50
269.9999982864
 51
358.9999018102
  0
ARC
  8
0
 62
7
  6
CONTINUOUS
 10
41.9964895746
 20
213.554479406
 40
1.0
 50
270.0
 51
360.0
  0
ARC
  8
0
 62
7
  6
CONTINUOUS
 10
38.2564895746
 20
213.554479406
 40
1.0
 50
180.0
 51
270.0
  0
ARC
  8
0
 62
7
  6
CONTINUOUS
 10
50.8727913792
 20
210.3544811195
 40
1.0
 50
181.0000981898
 51
270.0000017136
  0
ARC
  8
0
 62
7
  6
CONTINUOUS
 10
59.2601877401
 20
210.354479406
 40
1.0
 50
270.0
 51
359.0
  0
ARC
  8
0
 62
7
  6
CONTINUOUS
 10
50.8727913875
 20
225.9544781675
 40
1.0
 50
89.9999987614
 51
178.9999290305
  0
ARC
  8
0
 62
7
  6
CONTINUOUS
 10
38.2564895746
 20
225.954479406
 40
1.0
 50
90.0
 51
180.0
  0
ARC
  8
0
 62
7
  6
CONTINUOUS
 10
61.0001877401
 20
225.954479406
 40
1.0
 50
1.0
 51
90.0
  0
ARC
  8
0
 62
7
  6
CONTINUOUS
 10
59.2601972856
 20
225.954479406
 40
0.999995228
 50
1.0000095451
 51
90.000546915
  0
ARC
  8
0
 62
7
  6
CONTINUOUS
 10
43.9964766251
 20
219.9544923555
 40
0.9999935253
 50
89.9992580388
 51
180.0007419604
  0
ARC
  8
0
 62
7
  6
CONTINUOUS
 10
86.5364895746
 20
210.354479406
 40
1.0
 50
270.0
 51
360.0
  0
ARC
  8
0
 62
7
  6
CONTINUOUS
 10
63.5727914091
 20
210.354479406
 40
1.0
 50
181.0
 51
270.0
  0
ARC
  8
0
 62
7
  6
CONTINUOUS
 10
73.7001877401
 20
210.354479406
 40
1.0
 50
270.0
 51
359.0
  0
ARC
  8
0
 62
7
  6
CONTINUOUS
 10
76.2727914091
 20
210.354479406
 40
1.0
 50
181.0
 51
270.0
  0
ARC
  8
0
 62
7
  6
CONTINUOUS
 10
86.5364895746
 20
225.954479406
 40
1.0
 50
0.0
 51
90.0
  0
ARC
  8
0
 62
7
  6
CONTINUOUS
 10
76.2727913875
 20
225.9544781675
 40
1.0
 50
89.9999987614
 51
178.9999290305
  0
ARC
  8
0
 62
7
  6
CONTINUOUS
 10
38.2564895746
 20
125.2529278408
 40
1.0
 50
90.0
 51
180.0
  0
ARC
  8
0
 62
7
  6
CONTINUOUS
 10
86.5364895746
 20
84.2529278408
 40
1.0
 50
270.0
 51
360.0
  0
ARC
  8
0
 62
7
  6
CONTINUOUS
 10
38.2564895746
 20
101.9329278408
 40
1.0
 50
180.0
 51
270.0
  0
ARC
  8
0
 62
7
  6
CONTINUOUS
 10
86.5364895746
 20
107.5729278408
 40
1.0
 50
0.0
 51
90.0
  0
ARC
  8
0
 62
7
  6
CONTINUOUS
 10
140.1851024834
 20
213.354479406
 40
4.0
 50
270.0
 51
300.0
  0
ARC
  8
0
 62
9
  6
CONTINUOUS
 10
140.1851024834
 20
213.354479406
 40
3.0
 50
270.0
 51
300.0
  0
ARC
  8
0
 62
7
  6
CONTINUOUS
 10
139.3594618373
 20
218.154479406
 40
8.8
 50
90.0
 51
270.0
  0
ARC
  8
0
 62
9
  6
CONTINUOUS
 10
139.3594618373
 20
218.154479406
 40
7.8
 50
90.0
 51
270.0
  0
CIRCLE
  8
1_AXIS
 62
7
  6
CONTINUOUS
 10
139.3594618373
 20
218.154479406
 40
5.2
  0
ARC
  8
0
 62
9
  6
CONTINUOUS
 10
147.3353602222
 20
210.554479406
 40
3.0
 50
90.0
 51
120.0
  0
ARC
  8
0
 62
7
  6
CONTINUOUS
 10
147.3353602222
 20
210.554479406
 40
2.0
 50
90.0
 51
120.0
  0
ARC
  8
0
 62
7
  6
CONTINUOUS
 10
156.7835634525
 20
210.554479406
 40
2.0
 50
59.9989944621
 51
90.0031627859
  0
ARC
  8
0
 62
7
  6
CONTINUOUS
 10
153.8794618373
 20
214.554479406
 40
2.0
 50
270.0
 51
360.0
  0
ARC
  8
0
 62
9
  6
CONTINUOUS
 10
153.8794618373
 20
214.554479406
 40
1.0
 50
270.0
 51
360.0
  0
ARC
  8
0
 62
7
  6
CONTINUOUS
 10
163.9338211913
 20
213.354479406
 40
4.0
 50
239.9988942359
 51
270.0011441734
  0
ARC
  8
0
 62
7
  6
CONTINUOUS
 10
160.0104831387
 20
213.31021861
 40
2.0
 50
225.4300438489
 51
239.9997706427
  0
ARC
  8
0
 62
9
  6
CONTINUOUS
 10
164.7826039817
 20
218.154479406
 40
9.8
 50
203.2685380396
 51
207.9945518241
  0
ARC
  8
0
 62
7
  6
CONTINUOUS
 10
164.7594618373
 20
218.154479406
 40
8.8
 50
269.9992555349
 51
90.0007432023
  0
ARC
  8
0
 62
7
  6
CONTINUOUS
 10
164.7826039817
 20
218.154479406
 40
8.8
 50
181.9993183916
 51
225.4298647797
  0
CIRCLE
  8
0
 62
7
  6
CONTINUOUS
 10
164.7594618373
 20
218.154479406
 40
5.2
  0
ARC
  8
0
 62
7
  6
CONTINUOUS
 10
154.879475155
 20
225.954479406
 40
0.9999942097
 50
0.0
 51
90.0
  0
ARC
  8
0
 62
7
  6
CONTINUOUS
 10
154.913786086
 20
219.954479406
 40
0.9999934922
 50
2.0000260421
 51
19.7901822022
  0
ENDSEC
  0
EOF
