  0
SECTION
  2
HEADER
  9
$EXTMAX
 10
210.0
 20
297.0
 30
0.0
  9
$EXTMIN
 10
0.0
 20
0.0
 30
0.0
  9
$LIMMIN
 10
0.0
 20
0.0
  9
$LIMMAX
 10
210.0
 20
297.0
  9
$VIEWCTR
 10
105.0
 20
148.5
  9
$VIEWSIZE
 40
297.0
  9
$CLAYER
  8
0
  9
$LTSCALE
 40
19.36
  9
$CELTYPE
  6
BYLAYER
  9
$DIMSCALE
 40
1.0
  9
$DIMASZ
 40
3.5
  9
$DIMEXO
 40
1.0
  9
$DIMDLI
 40
13.376
  9
$DIMEXE
 40
2.0
  9
$DIMCEN
 40
3.168
  9
$DIMLFAC
 40
1.0
  9
$DIMBLK
  1
_FILLED
  9
$DIMTXT
 40
3.5
  9
$PDMODE
 70
3
  9
$PDSIZE
 40
0.3125
  9
$TILEMODE
 70
1
  0
ENDSEC
  0
SECTION
  2
TABLES
  0
TABLE
  2
LTYPE
 70
6
  0
LTYPE
  2
BYBLOCK
 70
0
  3

 72
65
 73
0
 40
0.0
  0
LTYPE
  2
BYLAYER
 70
0
  3

 72
65
 73
0
 40
0.0
  0
LTYPE
  2
CONTINUOUS
 70
64
  3
Solid line
 72
65
 73
0
 40
0.0
  0
LTYPE
  2
CENTER
 70
64
  3
____ _ ____ _ ____ _ ____ _ ____ _ ____ _ ____
 72
65
 73
4
 40
0.6
 49
0.375
 49
-0.075
 49
0.075
 49
-0.075
  0
LTYPE
  2
HIDDEN
 70
64
  3
- - - - - - - - - - - - - - - - - - - -
 72
65
 73
2
 40
0.2
 49
0.1
 49
-0.1
  0
LTYPE
  2
PHANTOM
 70
64
  3
_____ _ _ _____ _ _ _____ _ _ _____
 72
65
 73
6
 40
0.8
 49
0.45
 49
-0.05
 49
0.1
 49
-0.05
 49
0.1
 49
-0.05
  0
LTYPE
  2
DOT
 70
64
  3
. . . . . . . . . . . . . . . . . . . .
 72
65
 73
2
 40
0.2
 49
0.1
 49
-0.1
  0
LTYPE
  2
DASHED
 70
64
  3
- - - - - - - - - - - - - - - - - - - -
 72
65
 73
2
 40
0.2
 49
0.1
 49
-0.1
  0
ENDTAB
  0
TABLE
  2
LAYER
 70
36
  0
LAYER
  2
0
 70
0
 62
7
  6
CONTINUOUS
  0
LAYER
  2
DEFAULT_1
 70
0
 62
7
  6
CENTER
  0
LAYER
  2
DEFAULT_2
 70
0
 62
8
  6
HIDDEN
  0
LAYER
  2
DEFAULT_3
 70
0
 62
7
  6
PHANTOM
  0
LAYER
  2
1_AXIS
 70
0
 62
7
  6
CONTINUOUS
  0
LAYER
  2
1_DATUMPLANE
 70
0
 62
7
  6
CONTINUOUS
  0
LAYER
  2
1_DATUM_PLANES
 70
0
 62
7
  6
CONTINUOUS
  0
LAYER
  2
2_FEATURE
 70
0
 62
7
  6
CONTINUOUS
  0
LAYER
  2
3_CURVE
 70
0
 62
7
  6
CONTINUOUS
  0
LAYER
  2
4_QUILT
 70
0
 62
7
  6
CONTINUOUS
  0
LAYER
  2
4_SURFACE
 70
0
 62
7
  6
CONTINUOUS
  0
LAYER
  2
6_DIM
 70
0
 62
7
  6
CONTINUOUS
  0
LAYER
  2
6_NOTE
 70
0
 62
7
  6
CONTINUOUS
  0
LAYER
  2
CSYS
 70
0
 62
7
  6
CONTINUOUS
  0
LAYER
  2
CURVE
 70
0
 62
7
  6
CONTINUOUS
  0
LAYER
  2
NOTES
 70
0
 62
7
  6
CONTINUOUS
  0
LAYER
  2
SURFACE
 70
0
 62
7
  6
CONTINUOUS
  0
ENDTAB
  0
TABLE
  2
STYLE
 70
1
  0
STYLE
  2
STANDARD
 70
0
 40
0.0
 41
0.8
 50
0.0
 71
0
 42
0.2
  3
txt
  4

  0
STYLE
  2
TEXTSTYLE_1
 70
0
 40
0.0
 41
0.8
 50
0.0
 71
0
 42
0.2
  3
gdt
  4

  0
STYLE
  2
TEXTSTYLE_2
 70
0
 40
0.0
 41
0.6
 50
0.0
 71
0
 42
0.2
  3
txt
  4

  0
STYLE
  2
TEXTSTYLE_3
 70
0
 40
0.0
 41
1.0
 50
0.0
 71
0
 42
0.2
  3
ftb_____.ttf
  4

  0
STYLE
  2
TEXTSTYLE_4
 70
0
 40
0.0
 41
1.0
 50
0.0
 71
0
 42
0.2
  3
fti_____.ttf
  4

  0
STYLE
  2
TEXTSTYLE_5
 70
0
 40
0.0
 41
1.0
 50
0.0
 71
0
 42
0.2
  3
frutiger light.ttf
  4

  0
STYLE
  2
TEXTSTYLE_6
 70
0
 40
0.0
 41
0.7
 50
0.0
 71
0
 42
0.2
  3
txt
  4

  0
STYLE
  2
TEXTSTYLE_7
 70
0
 40
0.0
 41
0.8
 50
0.0
 71
0
 42
0.2
  3
txt
  4

  0
ENDTAB
  0
ENDSEC
  0
SECTION
  2
BLOCKS
  0
BLOCK
  8
0
 62
2
  6
CONTINUOUS
  2
SYMBOL_8_BL1
 70
64
 10
173.5956734183
 20
35.5937998301
  0
TEXT
  8
0
 62
7
  6
CONTINUOUS
 10
164.6539584268
 20
30.6865562072
  7
TEXTSTYLE_4
 40
1.0655737705
  1
The brand for plastic modular belts and chains
 41
1.0
 72
0
  0
LINE
  8
0
 62
7
  6
CONTINUOUS
 10
149.5737418074
 20
36.1675703219
 11
149.5737418074
 21
34.0364227809
  0
LINE
  8
0
 62
7
  6
CONTINUOUS
 10
149.8628043005
 20
31.0454914852
 11
149.8628043005
 21
31.1422825445
  0
LINE
  8
0
 62
7
  6
CONTINUOUS
 10
149.5737418074
 20
31.1100188581
 11
149.6315543091
 21
30.9164367395
  0
LINE
  8
0
 62
7
  6
CONTINUOUS
 10
150.9671844304
 20
33.9544555678
 11
150.9671844304
 21
36.1675703219
  0
LINE
  8
0
 62
7
  6
CONTINUOUS
 10
151.8862417523
 20
32.1101932727
 11
151.8862417523
 21
30.5937998301
  0
LINE
  8
0
 62
7
  6
CONTINUOUS
 10
152.1753043074
 20
30.5937998301
 11
152.1753043074
 21
31.3358647082
  0
LINE
  8
0
 62
7
  6
CONTINUOUS
 10
152.1753043074
 20
31.4649194539
 11
152.1753043074
 21
32.1101932727
  0
LINE
  8
0
 62
7
  6
CONTINUOUS
 10
149.6315543091
 20
31.3036010218
 11
149.5737418074
 21
31.1100188581
  0
LINE
  8
0
 62
7
  6
CONTINUOUS
 10
149.9784292936
 20
30.8841730531
 11
149.8628043005
 21
31.0454914852
  0
LINE
  8
0
 62
7
  6
CONTINUOUS
 10
151.0768668626
 20
31.400392081
 11
151.1346793074
 21
31.3036010218
  0
LINE
  8
0
 62
7
  6
CONTINUOUS
 10
151.4237418626
 20
31.3036010218
 11
151.3659292523
 21
31.4326557675
  0
LINE
  8
0
 62
7
  6
CONTINUOUS
 10
152.852430332
 20
36.1675703219
 11
152.852430332
 21
34.3642916334
  0
LINE
  8
0
 62
7
  6
CONTINUOUS
 10
152.852430332
 20
33.0528162235
 11
152.852430332
 21
32.3970785186
  0
LINE
  8
0
 62
7
  6
CONTINUOUS
 10
153.2159293074
 20
31.2390736489
 11
153.2159293074
 21
30.5937998301
  0
LINE
  8
0
 62
7
  6
CONTINUOUS
 10
153.5049916972
 20
30.5937998301
 11
153.5049916972
 21
31.2390736489
  0
LINE
  8
0
 62
7
  6
CONTINUOUS
 10
149.8628043005
 20
31.1422825445
 11
149.9206168074
 21
31.2713373354
  0
LINE
  8
0
 62
7
  6
CONTINUOUS
 10
149.6315543091
 20
30.9164367395
 11
149.7471793074
 21
30.7873819712
  0
LINE
  8
0
 62
7
  6
CONTINUOUS
 10
153.1581166972
 20
31.3681283946
 11
153.2159293074
 21
31.2390736489
  0
LINE
  8
0
 62
7
  6
CONTINUOUS
 10
153.9674919177
 20
30.8841730531
 11
154.0253041972
 21
30.7551182848
  0
LINE
  8
0
 62
7
  6
CONTINUOUS
 10
153.5049916972
 20
31.2390736489
 11
153.4471794177
 21
31.400392081
  0
LINE
  8
0
 62
7
  6
CONTINUOUS
 10
153.9674919177
 20
31.4326557675
 11
153.9674919177
 21
31.3681283946
  0
LINE
  8
0
 62
7
  6
CONTINUOUS
 10
153.9674919177
 20
30.9809641124
 11
153.9674919177
 21
30.8841730531
  0
LINE
  8
0
 62
7
  6
CONTINUOUS
 10
154.245872955
 20
32.3970785186
 11
154.245872955
 21
36.1675703219
  0
LINE
  8
0
 62
7
  6
CONTINUOUS
 10
154.2565543074
 20
30.8519093441
 11
154.2565543074
 21
30.9164367395
  0
LINE
  8
0
 62
7
  6
CONTINUOUS
 10
154.5737418074
 20
36.1675703219
 11
154.5737418074
 21
32.3970785186
  0
LINE
  8
0
 62
7
  6
CONTINUOUS
 10
151.3659292523
 20
30.7873819712
 11
151.4237418626
 21
30.9164367395
  0
LINE
  8
0
 62
7
  6
CONTINUOUS
 10
155.759679528
 20
30.6905909007
 11
155.7018665869
 21
30.8519093441
  0
LINE
  8
0
 62
7
  6
CONTINUOUS
 10
155.412804528
 20
31.3681283946
 11
155.412804528
 21
31.2713373354
  0
LINE
  8
0
 62
7
  6
CONTINUOUS
 10
155.412804528
 20
31.1422825445
 11
155.412804528
 21
30.9487004259
  0
LINE
  8
0
 62
7
  6
CONTINUOUS
 10
155.7018665869
 20
30.8519093441
 11
155.7018665869
 21
31.3681283946
  0
LINE
  8
0
 62
7
  6
CONTINUOUS
 10
155.9671844304
 20
32.3970785186
 11
155.9671844304
 21
34.2003572071
  0
LINE
  8
0
 62
7
  6
CONTINUOUS
 10
155.9671844304
 20
35.511832617
 11
155.9671844304
 21
36.1675703219
  0
LINE
  8
0
 62
7
  6
CONTINUOUS
 10
156.279992028
 20
32.1101932727
 11
156.279992028
 21
31.9488748406
  0
LINE
  8
0
 62
7
  6
CONTINUOUS
 10
156.279992028
 20
31.626237886
 11
156.279992028
 21
30.5937998301
  0
LINE
  8
0
 62
7
  6
CONTINUOUS
 10
156.5690540869
 20
30.5937998301
 11
156.5690540869
 21
31.626237886
  0
LINE
  8
0
 62
7
  6
CONTINUOUS
 10
156.5690540869
 20
31.9488748406
 11
156.5690540869
 21
32.1101932727
  0
LINE
  8
0
 62
7
  6
CONTINUOUS
 10
151.1346793074
 20
30.9164367395
 11
151.0768668626
 21
30.8196456577
  0
LINE
  8
0
 62
7
  6
CONTINUOUS
 10
153.4471794177
 20
31.400392081
 11
153.3893668074
 21
31.4649194539
  0
LINE
  8
0
 62
7
  6
CONTINUOUS
 10
154.3143669177
 20
30.7873819712
 11
154.2565543074
 21
30.8519093441
  0
LINE
  8
0
 62
7
  6
CONTINUOUS
 10
155.4706168074
 20
30.6583272086
 11
155.5284290869
 21
30.5937998301
  0
LINE
  8
0
 62
7
  6
CONTINUOUS
 10
155.412804528
 20
30.7551182848
 11
155.4706168074
 21
30.6583272086
  0
LINE
  8
0
 62
7
  6
CONTINUOUS
 10
155.8174918074
 20
30.5937998301
 11
155.759679528
 21
30.6905909007
  0
LINE
  8
0
 62
7
  6
CONTINUOUS
 10
155.7018665869
 20
31.3681283946
 11
155.6440543074
 21
31.4649194539
  0
LINE
  8
0
 62
7
  6
CONTINUOUS
 10
157.0315543074
 20
31.626237886
 11
157.0315543074
 21
30.5937998301
  0
LINE
  8
0
 62
7
  6
CONTINUOUS
 10
157.320617028
 20
30.5937998301
 11
157.320617028
 21
31.3358647082
  0
LINE
  8
0
 62
7
  6
CONTINUOUS
 10
157.320617028
 20
31.4649194539
 11
157.320617028
 21
31.626237886
  0
LINE
  8
0
 62
7
  6
CONTINUOUS
 10
157.852430332
 20
34.6101932727
 11
157.852430332
 21
32.3970785186
  0
LINE
  8
0
 62
7
  6
CONTINUOUS
 10
149.7471793074
 20
31.4326557675
 11
149.6315543091
 21
31.3036010218
  0
LINE
  8
0
 62
7
  6
CONTINUOUS
 10
149.9206168074
 20
31.2713373354
 11
149.9784292936
 21
31.3358647082
  0
LINE
  8
0
 62
7
  6
CONTINUOUS
 10
149.7471793074
 20
30.7873819712
 11
149.8628043005
 21
30.7228545871
  0
LINE
  8
0
 62
7
  6
CONTINUOUS
 10
150.1518667936
 20
30.7873819712
 11
149.9784292936
 21
30.8841730531
  0
LINE
  8
0
 62
7
  6
CONTINUOUS
 10
155.3549915869
 20
31.4326557675
 11
155.412804528
 21
31.3681283946
  0
LINE
  8
0
 62
7
  6
CONTINUOUS
 10
158.3034290869
 20
31.3681283946
 11
158.361242028
 21
31.2068099625
  0
LINE
  8
0
 62
7
  6
CONTINUOUS
 10
158.6503040869
 20
31.2068099625
 11
158.5924918074
 21
31.3681283946
  0
LINE
  8
0
 62
7
  6
CONTINUOUS
 10
158.361242028
 20
31.2068099625
 11
158.361242028
 21
30.5937998301
  0
LINE
  8
0
 62
7
  6
CONTINUOUS
 10
158.6503040869
 20
30.5937998301
 11
158.6503040869
 21
31.2068099625
  0
LINE
  8
0
 62
7
  6
CONTINUOUS
 10
159.1128043074
 20
31.4326557675
 11
159.1128043074
 21
31.3681283946
  0
LINE
  8
0
 62
7
  6
CONTINUOUS
 10
159.245872955
 20
32.3970785186
 11
159.245872955
 21
34.5282260596
  0
LINE
  8
0
 62
7
  6
CONTINUOUS
 10
159.5737418074
 20
36.1675703219
 11
159.5737418074
 21
32.3970785186
  0
LINE
  8
0
 62
7
  6
CONTINUOUS
 10
154.2565543074
 20
30.9164367395
 11
154.3143669177
 21
31.0132277988
  0
LINE
  8
0
 62
7
  6
CONTINUOUS
 10
149.8628043005
 20
30.7228545871
 11
150.0362418212
 21
30.6583272086
  0
LINE
  8
0
 62
7
  6
CONTINUOUS
 10
151.3659292523
 20
31.4326557675
 11
151.1924917523
 21
31.5294468267
  0
LINE
  8
0
 62
7
  6
CONTINUOUS
 10
154.0253041972
 20
30.7551182848
 11
154.1987416972
 21
30.6583272086
  0
LINE
  8
0
 62
7
  6
CONTINUOUS
 10
153.0424918074
 20
31.4326557675
 11
153.1581166972
 21
31.3681283946
  0
LINE
  8
0
 62
7
  6
CONTINUOUS
 10
153.3893668074
 20
31.4649194539
 11
153.2737419177
 21
31.5294468267
  0
LINE
  8
0
 62
7
  6
CONTINUOUS
 10
159.1128043074
 20
30.8519093441
 11
159.228429528
 21
30.7228545871
  0
LINE
  8
0
 62
7
  6
CONTINUOUS
 10
159.4596793074
 20
30.7873819712
 11
159.401867028
 21
30.8519093441
  0
LINE
  8
0
 62
7
  6
CONTINUOUS
 10
159.1128043074
 20
31.3681283946
 11
159.228429528
 21
31.2390736489
  0
LINE
  8
0
 62
7
  6
CONTINUOUS
 10
158.5924918074
 20
31.3681283946
 11
158.534679528
 21
31.4649194539
  0
LINE
  8
0
 62
7
  6
CONTINUOUS
 10
160.9628038663
 20
30.7873819712
 11
160.9628038663
 21
30.8519093441
  0
LINE
  8
0
 62
7
  6
CONTINUOUS
 10
160.9671844304
 20
32.3970785186
 11
160.9671844304
 21
36.1675703219
  0
LINE
  8
0
 62
7
  6
CONTINUOUS
 10
154.0253041972
 20
31.4971831403
 11
153.9674919177
 21
31.4326557675
  0
LINE
  8
0
 62
7
  6
CONTINUOUS
 10
150.9034292799
 20
31.4649194539
 11
151.0768668626
 21
31.400392081
  0
LINE
  8
0
 62
7
  6
CONTINUOUS
 10
155.6440543074
 20
31.4649194539
 11
155.5284290869
 21
31.5294468267
  0
LINE
  8
0
 62
7
  6
CONTINUOUS
 10
159.4596793074
 20
31.3036010218
 11
159.401867028
 21
31.3681283946
  0
LINE
  8
0
 62
7
  6
CONTINUOUS
 10
160.615929528
 20
30.9164367395
 11
160.6737418074
 21
30.8519093441
  0
LINE
  8
0
 62
7
  6
CONTINUOUS
 10
160.9628038663
 20
30.8519093441
 11
160.8471793074
 21
30.9809641124
  0
LINE
  8
0
 62
7
  6
CONTINUOUS
 10
160.615929528
 20
31.4326557675
 11
160.6737418074
 21
31.3681283946
  0
LINE
  8
0
 62
7
  6
CONTINUOUS
 10
160.9628038663
 20
31.3681283946
 11
160.8471793074
 21
31.4971831403
  0
LINE
  8
0
 62
7
  6
CONTINUOUS
 10
154.2565543074
 20
31.3681283946
 11
154.3143669177
 21
31.4326557675
  0
LINE
  8
0
 62
7
  6
CONTINUOUS
 10
154.0831168074
 20
31.1100188581
 11
153.9674919177
 21
30.9809641124
  0
LINE
  8
0
 62
7
  6
CONTINUOUS
 10
155.412804528
 20
30.9487004259
 11
155.3549915869
 21
30.8841730531
  0
LINE
  8
0
 62
7
  6
CONTINUOUS
 10
155.3549915869
 20
30.6905909007
 11
155.412804528
 21
30.7551182848
  0
LINE
  8
0
 62
7
  6
CONTINUOUS
 10
154.1987416972
 20
30.6583272086
 11
154.3143669177
 21
30.6260635193
  0
LINE
  8
0
 62
7
  6
CONTINUOUS
 10
151.1924917523
 20
31.5294468267
 11
150.9612418074
 21
31.5939741996
  0
LINE
  8
0
 62
7
  6
CONTINUOUS
 10
154.5456166972
 20
30.7228545871
 11
154.3143669177
 21
30.7873819712
  0
LINE
  8
0
 62
7
  6
CONTINUOUS
 10
153.2737419177
 20
31.5294468267
 11
153.1003044177
 21
31.5939741996
  0
LINE
  8
0
 62
7
  6
CONTINUOUS
 10
155.5284290869
 20
31.5294468267
 11
155.3549915869
 21
31.5939741996
  0
LINE
  8
0
 62
7
  6
CONTINUOUS
 10
158.187804528
 20
31.4326557675
 11
158.3034290869
 21
31.3681283946
  0
LINE
  8
0
 62
7
  6
CONTINUOUS
 10
158.534679528
 20
31.4649194539
 11
158.4190543074
 21
31.5294468267
  0
LINE
  8
0
 62
7
  6
CONTINUOUS
 10
150.0362418212
 20
30.6583272086
 11
150.2096793212
 21
30.6260635193
  0
LINE
  8
0
 62
7
  6
CONTINUOUS
 10
150.498741835
 20
30.7228545871
 11
150.1518667936
 21
30.7873819712
  0
LINE
  8
0
 62
7
  6
CONTINUOUS
 10
152.9268669177
 20
31.4649194539
 11
153.0424918074
 21
31.4326557675
  0
LINE
  8
0
 62
7
  6
CONTINUOUS
 10
155.239367028
 20
31.4649194539
 11
155.3549915869
 21
31.4326557675
  0
LINE
  8
0
 62
7
  6
CONTINUOUS
 10
159.575304528
 20
30.7551182848
 11
159.4596793074
 21
30.7873819712
  0
LINE
  8
0
 62
7
  6
CONTINUOUS
 10
158.0721793074
 20
31.4649194539
 11
158.187804528
 21
31.4326557675
  0
LINE
  8
0
 62
7
  6
CONTINUOUS
 10
159.228429528
 20
30.7228545871
 11
159.401867028
 21
30.6583272086
  0
LINE
  8
0
 62
7
  6
CONTINUOUS
 10
158.4190543074
 20
31.5294468267
 11
158.2456168074
 21
31.5939741996
  0
LINE
  8
0
 62
7
  6
CONTINUOUS
 10
159.6331168074
 20
31.2390736489
 11
159.4596793074
 21
31.3036010218
  0
LINE
  8
0
 62
7
  6
CONTINUOUS
 10
160.442492028
 20
30.9809641124
 11
160.615929528
 21
30.9164367395
  0
LINE
  8
0
 62
7
  6
CONTINUOUS
 10
160.8471793074
 20
31.4971831403
 11
160.6737418074
 21
31.5617105132
  0
LINE
  8
0
 62
7
  6
CONTINUOUS
 10
159.228429528
 20
31.2390736489
 11
159.4596793074
 21
31.1422825445
  0
LINE
  8
0
 62
7
  6
CONTINUOUS
 10
160.8471793074
 20
30.9809641124
 11
160.615929528
 21
31.0777551716
  0
LINE
  8
0
 62
7
  6
CONTINUOUS
 10
159.401867028
 20
31.3681283946
 11
159.4596793074
 21
31.4326557675
  0
LINE
  8
0
 62
7
  6
CONTINUOUS
 10
149.8628043005
 20
31.4971831403
 11
149.7471793074
 21
31.4326557675
  0
LINE
  8
0
 62
7
  6
CONTINUOUS
 10
149.9784292936
 20
31.3358647082
 11
150.1518667936
 21
31.4326557675
  0
LINE
  8
0
 62
7
  6
CONTINUOUS
 10
152.2909293626
 20
31.5294468267
 11
152.1753043074
 21
31.4649194539
  0
LINE
  8
0
 62
7
  6
CONTINUOUS
 10
152.1753043074
 20
31.3358647082
 11
152.2909293626
 21
31.400392081
  0
LINE
  8
0
 62
7
  6
CONTINUOUS
 10
151.1924917523
 20
30.6905909007
 11
151.3659292523
 21
30.7873819712
  0
LINE
  8
0
 62
7
  6
CONTINUOUS
 10
150.2096793212
 20
30.6260635193
 11
150.5565542799
 21
30.5937998301
  0
LINE
  8
0
 62
7
  6
CONTINUOUS
 10
154.3143669177
 20
30.6260635193
 11
154.5456166972
 21
30.5937998301
  0
LINE
  8
0
 62
7
  6
CONTINUOUS
 10
152.6956168074
 20
31.4971831403
 11
152.9268669177
 21
31.4649194539
  0
LINE
  8
0
 62
7
  6
CONTINUOUS
 10
155.0081169177
 20
31.4971831403
 11
155.239367028
 21
31.4649194539
  0
LINE
  8
0
 62
7
  6
CONTINUOUS
 10
159.4596793074
 20
31.1422825445
 11
160.442492028
 21
30.9809641124
  0
LINE
  8
0
 62
7
  6
CONTINUOUS
 10
160.615929528
 20
31.0777551716
 11
159.6331168074
 21
31.2390736489
  0
LINE
  8
0
 62
7
  6
CONTINUOUS
 10
153.1003044177
 20
31.5939741996
 11
152.9268669177
 21
31.626237886
  0
LINE
  8
0
 62
7
  6
CONTINUOUS
 10
159.401867028
 20
30.6583272086
 11
159.575304528
 21
30.6260635193
  0
LINE
  8
0
 62
7
  6
CONTINUOUS
 10
158.2456168074
 20
31.5939741996
 11
158.0721793074
 21
31.626237886
  0
LINE
  8
0
 62
7
  6
CONTINUOUS
 10
160.5003043074
 20
31.4649194539
 11
160.615929528
 21
31.4326557675
  0
LINE
  8
0
 62
7
  6
CONTINUOUS
 10
160.6737418074
 20
30.8519093441
 11
160.615929528
 21
30.7873819712
  0
LINE
  8
0
 62
7
  6
CONTINUOUS
 10
159.228429528
 20
31.5294468267
 11
159.1128043074
 21
31.4326557675
  0
LINE
  8
0
 62
7
  6
CONTINUOUS
 10
154.1409294177
 20
31.5617105132
 11
154.0253041972
 21
31.4971831403
  0
LINE
  8
0
 62
7
  6
CONTINUOUS
 10
154.1987416972
 20
31.1745462761
 11
154.0831168074
 21
31.1100188581
  0
LINE
  8
0
 62
7
  6
CONTINUOUS
 10
154.3143669177
 20
31.0132277988
 11
154.4299918074
 21
31.0777551716
  0
LINE
  8
0
 62
7
  6
CONTINUOUS
 10
151.8862417523
 20
30.5937998301
 11
152.1753043074
 21
30.5937998301
  0
LINE
  8
0
 62
7
  6
CONTINUOUS
 10
153.2159293074
 20
30.5937998301
 11
153.5049916972
 21
30.5937998301
  0
LINE
  8
0
 62
7
  6
CONTINUOUS
 10
154.5456166972
 20
30.5937998301
 11
154.8924916972
 21
30.5937998301
  0
LINE
  8
0
 62
7
  6
CONTINUOUS
 10
155.5284290869
 20
30.5937998301
 11
155.8174918074
 21
30.5937998301
  0
LINE
  8
0
 62
7
  6
CONTINUOUS
 10
156.279992028
 20
30.5937998301
 11
156.5690540869
 21
30.5937998301
  0
LINE
  8
0
 62
7
  6
CONTINUOUS
 10
157.0315543074
 20
30.5937998301
 11
157.320617028
 21
30.5937998301
  0
LINE
  8
0
 62
7
  6
CONTINUOUS
 10
158.361242028
 20
30.5937998301
 11
158.6503040869
 21
30.5937998301
  0
LINE
  8
0
 62
7
  6
CONTINUOUS
 10
159.922179528
 20
30.5937998301
 11
160.269054528
 21
30.5937998301
  0
LINE
  8
0
 62
7
  6
CONTINUOUS
 10
160.269054528
 20
30.7228545871
 11
159.922179528
 21
30.7228545871
  0
LINE
  8
0
 62
7
  6
CONTINUOUS
 10
154.8924916972
 20
30.7228545871
 11
154.5456166972
 21
30.7228545871
  0
LINE
  8
0
 62
7
  6
CONTINUOUS
 10
159.401867028
 20
30.8519093441
 11
159.1128043074
 21
30.8519093441
  0
LINE
  8
0
 62
7
  6
CONTINUOUS
 10
151.4237418626
 20
30.9164367395
 11
151.1346793074
 21
30.9164367395
  0
LINE
  8
0
 62
7
  6
CONTINUOUS
 10
150.498741835
 20
31.4971831403
 11
150.9034292799
 21
31.4649194539
  0
LINE
  8
0
 62
7
  6
CONTINUOUS
 10
150.9612418074
 20
31.5939741996
 11
150.5565542799
 21
31.626237886
  0
LINE
  8
0
 62
7
  6
CONTINUOUS
 10
159.575304528
 20
30.6260635193
 11
159.922179528
 21
30.5937998301
  0
LINE
  8
0
 62
7
  6
CONTINUOUS
 10
159.922179528
 20
30.7228545871
 11
159.575304528
 21
30.7551182848
  0
LINE
  8
0
 62
7
  6
CONTINUOUS
 10
155.3549915869
 20
31.5939741996
 11
155.0081169177
 21
31.626237886
  0
LINE
  8
0
 62
7
  6
CONTINUOUS
 10
160.1534293074
 20
31.4971831403
 11
160.5003043074
 21
31.4649194539
  0
LINE
  8
0
 62
7
  6
CONTINUOUS
 10
160.5003043074
 20
31.5939741996
 11
160.1534293074
 21
31.626237886
  0
LINE
  8
0
 62
7
  6
CONTINUOUS
 10
157.840929528
 20
31.4971831403
 11
158.0721793074
 21
31.4649194539
  0
LINE
  8
0
 62
7
  6
CONTINUOUS
 10
160.6737418074
 20
31.5617105132
 11
160.5003043074
 21
31.5939741996
  0
LINE
  8
0
 62
7
  6
CONTINUOUS
 10
160.8471793074
 20
30.6905909007
 11
160.9628038663
 21
30.7873819712
  0
LINE
  8
0
 62
7
  6
CONTINUOUS
 10
155.3549915869
 20
30.8841730531
 11
155.1815540869
 21
30.7873819712
  0
LINE
  8
0
 62
7
  6
CONTINUOUS
 10
157.4362415869
 20
31.5294468267
 11
157.320617028
 21
31.4649194539
  0
LINE
  8
0
 62
7
  6
CONTINUOUS
 10
157.320617028
 20
31.3358647082
 11
157.4362415869
 21
31.400392081
  0
LINE
  8
0
 62
7
  6
CONTINUOUS
 10
150.0362418212
 20
31.5617105132
 11
149.8628043005
 21
31.4971831403
  0
LINE
  8
0
 62
7
  6
CONTINUOUS
 10
152.4643666972
 20
31.5939741996
 11
152.2909293626
 21
31.5294468267
  0
LINE
  8
0
 62
7
  6
CONTINUOUS
 10
152.2909293626
 20
31.400392081
 11
152.4643666972
 21
31.4649194539
  0
LINE
  8
0
 62
7
  6
CONTINUOUS
 10
151.0768668626
 20
30.8196456577
 11
150.9034292799
 21
30.7551182848
  0
LINE
  8
0
 62
7
  6
CONTINUOUS
 10
160.5003043074
 20
30.7551182848
 11
160.269054528
 21
30.7228545871
  0
LINE
  8
0
 62
7
  6
CONTINUOUS
 10
154.8924916972
 20
30.5937998301
 11
155.1815540869
 21
30.6260635193
  0
LINE
  8
0
 62
7
  6
CONTINUOUS
 10
160.269054528
 20
30.5937998301
 11
160.615929528
 21
30.6260635193
  0
LINE
  8
0
 62
7
  6
CONTINUOUS
 10
150.5565542799
 20
30.5937998301
 11
150.9612418074
 21
30.6260635193
  0
LINE
  8
0
 62
7
  6
CONTINUOUS
 10
150.9034292799
 20
30.7551182848
 11
150.498741835
 21
30.7228545871
  0
LINE
  8
0
 62
7
  6
CONTINUOUS
 10
154.7768668074
 20
31.1422825445
 11
155.412804528
 21
31.1422825445
  0
LINE
  8
0
 62
7
  6
CONTINUOUS
 10
155.412804528
 20
31.2713373354
 11
154.7768668074
 21
31.2713373354
  0
LINE
  8
0
 62
7
  6
CONTINUOUS
 10
151.1346793074
 20
31.3036010218
 11
151.4237418626
 21
31.3036010218
  0
LINE
  8
0
 62
7
  6
CONTINUOUS
 10
153.9674919177
 20
31.3681283946
 11
154.2565543074
 21
31.3681283946
  0
LINE
  8
0
 62
7
  6
CONTINUOUS
 10
160.6737418074
 20
31.3681283946
 11
160.9628038663
 21
31.3681283946
  0
LINE
  8
0
 62
7
  6
CONTINUOUS
 10
154.6612419177
 20
31.4971831403
 11
155.0081169177
 21
31.4971831403
  0
LINE
  8
0
 62
7
  6
CONTINUOUS
 10
159.8065543074
 20
31.4971831403
 11
160.1534293074
 21
31.4971831403
  0
LINE
  8
0
 62
7
  6
CONTINUOUS
 10
160.1534293074
 20
31.626237886
 11
159.8065543074
 21
31.626237886
  0
LINE
  8
0
 62
7
  6
CONTINUOUS
 10
158.0721793074
 20
31.626237886
 11
157.840929528
 21
31.626237886
  0
LINE
  8
0
 62
7
  6
CONTINUOUS
 10
157.320617028
 20
31.626237886
 11
157.0315543074
 21
31.626237886
  0
LINE
  8
0
 62
7
  6
CONTINUOUS
 10
156.5690540869
 20
31.626237886
 11
156.279992028
 21
31.626237886
  0
LINE
  8
0
 62
7
  6
CONTINUOUS
 10
155.0081169177
 20
31.626237886
 11
154.6612419177
 21
31.626237886
  0
LINE
  8
0
 62
7
  6
CONTINUOUS
 10
152.9268669177
 20
31.626237886
 11
152.6956168074
 21
31.626237886
  0
LINE
  8
0
 62
7
  6
CONTINUOUS
 10
156.279992028
 20
31.9488748406
 11
156.5690540869
 21
31.9488748406
  0
LINE
  8
0
 62
7
  6
CONTINUOUS
 10
156.5690540869
 20
32.1101932727
 11
156.279992028
 21
32.1101932727
  0
LINE
  8
0
 62
7
  6
CONTINUOUS
 10
152.1753043074
 20
32.1101932727
 11
151.8862417523
 21
32.1101932727
  0
LINE
  8
0
 62
7
  6
CONTINUOUS
 10
151.2130860697
 20
32.3970785186
 11
151.6256574183
 21
32.3970785186
  0
LINE
  8
0
 62
7
  6
CONTINUOUS
 10
152.852430332
 20
32.3970785186
 11
154.245872955
 21
32.3970785186
  0
LINE
  8
0
 62
7
  6
CONTINUOUS
 10
154.5737418074
 20
32.3970785186
 11
155.9671844304
 21
32.3970785186
  0
LINE
  8
0
 62
7
  6
CONTINUOUS
 10
157.852430332
 20
32.3970785186
 11
159.245872955
 21
32.3970785186
  0
LINE
  8
0
 62
7
  6
CONTINUOUS
 10
159.5737418074
 20
32.3970785186
 11
160.9671844304
 21
32.3970785186
  0
LINE
  8
0
 62
7
  6
CONTINUOUS
 10
157.6096790869
 20
31.5939741996
 11
157.4362415869
 21
31.5294468267
  0
LINE
  8
0
 62
7
  6
CONTINUOUS
 10
155.1815540869
 20
30.6260635193
 11
155.3549915869
 21
30.6905909007
  0
LINE
  8
0
 62
7
  6
CONTINUOUS
 10
160.615929528
 20
30.6260635193
 11
160.8471793074
 21
30.6905909007
  0
LINE
  8
0
 62
7
  6
CONTINUOUS
 10
160.615929528
 20
30.7873819712
 11
160.5003043074
 21
30.7551182848
  0
LINE
  8
0
 62
7
  6
CONTINUOUS
 10
159.575304528
 20
31.4649194539
 11
159.8065543074
 21
31.4971831403
  0
LINE
  8
0
 62
7
  6
CONTINUOUS
 10
157.6096790869
 20
31.4649194539
 11
157.840929528
 21
31.4971831403
  0
LINE
  8
0
 62
7
  6
CONTINUOUS
 10
154.5456166972
 20
31.1100188581
 11
154.7768668074
 21
31.1422825445
  0
LINE
  8
0
 62
7
  6
CONTINUOUS
 10
157.840929528
 20
31.626237886
 11
157.6096790869
 21
31.5939741996
  0
LINE
  8
0
 62
7
  6
CONTINUOUS
 10
154.4299918074
 20
31.4649194539
 11
154.6612419177
 21
31.4971831403
  0
LINE
  8
0
 62
7
  6
CONTINUOUS
 10
159.8065543074
 20
31.626237886
 11
159.4596793074
 21
31.5939741996
  0
LINE
  8
0
 62
7
  6
CONTINUOUS
 10
154.7768668074
 20
31.2713373354
 11
154.4299918074
 21
31.2390736489
  0
LINE
  8
0
 62
7
  6
CONTINUOUS
 10
150.5565542799
 20
31.626237886
 11
150.2096793212
 21
31.5939741996
  0
LINE
  8
0
 62
7
  6
CONTINUOUS
 10
154.6612419177
 20
31.626237886
 11
154.2565543074
 21
31.5939741996
  0
LINE
  8
0
 62
7
  6
CONTINUOUS
 10
152.0327582009
 20
33.5446195022
 11
151.3770204959
 21
33.5446195022
  0
LINE
  8
0
 62
7
  6
CONTINUOUS
 10
157.4362415869
 20
31.400392081
 11
157.6096790869
 21
31.4649194539
  0
LINE
  8
0
 62
7
  6
CONTINUOUS
 10
159.4596793074
 20
31.4326557675
 11
159.575304528
 21
31.4649194539
  0
LINE
  8
0
 62
7
  6
CONTINUOUS
 10
159.4596793074
 20
31.5939741996
 11
159.228429528
 21
31.5294468267
  0
LINE
  8
0
 62
7
  6
CONTINUOUS
 10
155.1815540869
 20
30.7873819712
 11
154.8924916972
 21
30.7228545871
  0
LINE
  8
0
 62
7
  6
CONTINUOUS
 10
152.4643666972
 20
31.4649194539
 11
152.6956168074
 21
31.4971831403
  0
LINE
  8
0
 62
7
  6
CONTINUOUS
 10
152.6956168074
 20
31.626237886
 11
152.4643666972
 21
31.5939741996
  0
LINE
  8
0
 62
7
  6
CONTINUOUS
 10
150.2674918074
 20
31.4649194539
 11
150.498741835
 21
31.4971831403
  0
LINE
  8
0
 62
7
  6
CONTINUOUS
 10
156.7868565615
 20
35.0200293383
 11
157.4425942664
 21
35.0200293383
  0
LINE
  8
0
 62
7
  6
CONTINUOUS
 10
154.4299918074
 20
31.0777551716
 11
154.5456166972
 21
31.1100188581
  0
LINE
  8
0
 62
7
  6
CONTINUOUS
 10
154.4299918074
 20
31.2390736489
 11
154.1987416972
 21
31.1745462761
  0
LINE
  8
0
 62
7
  6
CONTINUOUS
 10
154.3143669177
 20
31.4326557675
 11
154.4299918074
 21
31.4649194539
  0
LINE
  8
0
 62
7
  6
CONTINUOUS
 10
150.9612418074
 20
30.6260635193
 11
151.1924917523
 21
30.6905909007
  0
LINE
  8
0
 62
7
  6
CONTINUOUS
 10
154.2565543074
 20
31.5939741996
 11
154.1409294177
 21
31.5617105132
  0
LINE
  8
0
 62
7
  6
CONTINUOUS
 10
150.2096793212
 20
31.5939741996
 11
150.0362418212
 21
31.5617105132
  0
LINE
  8
0
 62
7
  6
CONTINUOUS
 10
160.9671844304
 20
36.1675703219
 11
159.5737418074
 21
36.1675703219
  0
LINE
  8
0
 62
7
  6
CONTINUOUS
 10
157.6065286927
 20
36.1675703219
 11
157.1939573441
 21
36.1675703219
  0
LINE
  8
0
 62
7
  6
CONTINUOUS
 10
155.9671844304
 20
36.1675703219
 11
154.5737418074
 21
36.1675703219
  0
LINE
  8
0
 62
7
  6
CONTINUOUS
 10
154.245872955
 20
36.1675703219
 11
152.852430332
 21
36.1675703219
  0
LINE
  8
0
 62
7
  6
CONTINUOUS
 10
150.9671844304
 20
36.1675703219
 11
149.5737418074
 21
36.1675703219
  0
LINE
  8
0
 62
7
  6
CONTINUOUS
 10
150.1518667936
 20
31.4326557675
 11
150.2674918074
 21
31.4649194539
  0
CIRCLE
  8
0
 62
7
  6
CONTINUOUS
 10
160.2704631189
 20
38.5036358957
 40
2.0901639344
  0
ARC
  8
0
 62
7
  6
CONTINUOUS
 10
151.2130860697
 20
34.0364227809
 40
1.6393442623
 50
180.0
 51
270.0
  0
ARC
  8
0
 62
7
  6
CONTINUOUS
 10
157.6065286927
 20
34.5282260596
 40
1.6393442623
 50
0.0
 51
90.0
  0
ARC
  8
0
 62
7
  6
CONTINUOUS
 10
151.6256574183
 20
33.8724883547
 40
1.4754098361
 50
270.0
 51
326.2510114041
  0
ARC
  8
0
 62
7
  6
CONTINUOUS
 10
157.1939573441
 20
34.6921604858
 40
1.4754098361
 50
90.0
 51
146.2510114041
  0
ARC
  8
0
 62
7
  6
CONTINUOUS
 10
152.0327582009
 20
34.3642916334
 40
0.8196721311
 50
270.0
 51
360.0
  0
ARC
  8
0
 62
7
  6
CONTINUOUS
 10
156.7868565615
 20
34.2003572071
 40
0.8196721311
 50
90.0
 51
180.0
  0
ARC
  8
0
 62
7
  6
CONTINUOUS
 10
151.3770204959
 20
33.9544555678
 40
0.4098360656
 50
180.0
 51
270.0
  0
ARC
  8
0
 62
7
  6
CONTINUOUS
 10
157.4425942664
 20
34.6101932727
 40
0.4098360656
 50
0.0
 51
90.0
  0
SOLID
  8
0
 62
7
  6
CONTINUOUS
 10
156.279992028
 20
31.9488752009
 11
156.279992028
 21
32.1101936845
 12
156.5690540869
 22
31.9488752009
 13
156.5690540869
 23
32.1101936845
  0
SOLID
  8
0
 62
7
  6
CONTINUOUS
 10
150.5565542799
 20
31.6262382337
 11
150.9612418074
 21
31.5939740028
 12
150.2096793212
 22
31.5939740028
 13
150.2096793212
 23
31.5939740028
  0
SOLID
  8
0
 62
7
  6
CONTINUOUS
 10
150.0362418212
 20
31.5617111435
 11
150.2096793212
 21
31.5939740028
 12
150.9612418074
 22
31.5939740028
 13
150.9612418074
 23
31.5939740028
  0
SOLID
  8
0
 62
7
  6
CONTINUOUS
 10
150.9612418074
 20
31.5939740028
 11
151.1924917523
 21
31.5294468402
 12
150.0362418212
 22
31.5617111435
 13
150.0362418212
 23
31.5617111435
  0
SOLID
  8
0
 62
7
  6
CONTINUOUS
 10
149.8628043005
 20
31.49718259
 11
150.0362418212
 21
31.5617111435
 12
151.1924917523
 22
31.5294468402
 13
151.1924917523
 23
31.5294468402
  0
SOLID
  8
0
 62
7
  6
CONTINUOUS
 10
149.8628043005
 20
31.49718259
 11
151.1924917523
 21
31.5294468402
 12
150.498741835
 22
31.49718259
 13
150.498741835
 23
31.49718259
  0
SOLID
  8
0
 62
7
  6
CONTINUOUS
 10
150.498741835
 20
31.49718259
 11
151.1924917523
 21
31.5294468402
 12
150.9034292799
 22
31.4649197501
 13
150.9034292799
 23
31.4649197501
  0
SOLID
  8
0
 62
7
  6
CONTINUOUS
 10
151.1924917523
 20
31.5294468402
 11
151.3659292523
 21
31.4326554468
 12
150.9034292799
 22
31.4649197501
 13
150.9034292799
 23
31.4649197501
  0
SOLID
  8
0
 62
7
  6
CONTINUOUS
 10
151.0768668626
 20
31.4003926599
 11
150.9034292799
 21
31.4649197501
 12
151.3659292523
 22
31.4326554468
 13
151.3659292523
 23
31.4326554468
  0
SOLID
  8
0
 62
7
  6
CONTINUOUS
 10
151.0768668626
 20
31.4003926599
 11
151.3659292523
 21
31.4326554468
 12
151.1346793074
 22
31.3036013776
 13
151.1346793074
 23
31.3036013776
  0
SOLID
  8
0
 62
7
  6
CONTINUOUS
 10
151.3659292523
 20
31.4326554468
 11
151.4237418626
 21
31.3036013776
 12
151.1346793074
 22
31.3036013776
 13
151.1346793074
 23
31.3036013776
  0
SOLID
  8
0
 62
7
  6
CONTINUOUS
 10
152.4643666972
 20
31.5939739754
 11
152.6956168074
 21
31.6262382787
 12
152.9268669177
 22
31.6262382787
 13
152.9268669177
 23
31.6262382787
  0
SOLID
  8
0
 62
7
  6
CONTINUOUS
 10
152.9268669177
 20
31.6262382787
 11
153.1003044177
 21
31.5939739754
 12
152.4643666972
 22
31.5939739754
 13
152.4643666972
 23
31.5939739754
  0
SOLID
  8
0
 62
7
  6
CONTINUOUS
 10
152.2909293626
 20
31.5294468852
 11
152.4643666972
 21
31.5939739754
 12
153.1003044177
 22
31.5939739754
 13
153.1003044177
 23
31.5939739754
  0
SOLID
  8
0
 62
7
  6
CONTINUOUS
 10
153.1003044177
 20
31.5939739754
 11
153.2737419177
 21
31.5294468852
 12
152.2909293626
 22
31.5294468852
 13
152.2909293626
 23
31.5294468852
  0
SOLID
  8
0
 62
7
  6
CONTINUOUS
 10
153.2737419177
 20
31.5294468852
 11
152.6956168074
 21
31.4971825369
 12
152.2909293626
 22
31.5294468852
 13
152.2909293626
 23
31.5294468852
  0
SOLID
  8
0
 62
7
  6
CONTINUOUS
 10
152.1753043074
 20
31.4649197951
 11
152.2909293626
 21
31.5294468852
 12
152.6956168074
 22
31.4971825369
 13
152.6956168074
 23
31.4971825369
  0
SOLID
  8
0
 62
7
  6
CONTINUOUS
 10
152.6956168074
 20
31.4971825369
 11
152.4643666972
 21
31.4649197951
 12
152.1753043074
 22
31.4649197951
 13
152.1753043074
 23
31.4649197951
  0
SOLID
  8
0
 62
7
  6
CONTINUOUS
 10
152.6956168074
 20
31.4971825369
 11
153.2737419177
 21
31.5294468852
 12
152.9268669177
 22
31.4649197951
 13
152.9268669177
 23
31.4649197951
  0
SOLID
  8
0
 62
7
  6
CONTINUOUS
 10
153.2737419177
 20
31.5294468852
 11
153.3893668074
 21
31.4649197951
 12
152.9268669177
 22
31.4649197951
 13
152.9268669177
 23
31.4649197951
  0
SOLID
  8
0
 62
7
  6
CONTINUOUS
 10
153.0424918074
 20
31.4326554468
 11
152.9268669177
 21
31.4649197951
 12
153.3893668074
 22
31.4649197951
 13
153.3893668074
 23
31.4649197951
  0
SOLID
  8
0
 62
7
  6
CONTINUOUS
 10
153.3893668074
 20
31.4649197951
 11
153.4471794177
 21
31.4003927049
 12
153.0424918074
 22
31.4326554468
 13
153.0424918074
 23
31.4326554468
  0
SOLID
  8
0
 62
7
  6
CONTINUOUS
 10
153.1581166972
 20
31.3681283566
 11
153.0424918074
 21
31.4326554468
 12
153.4471794177
 22
31.4003927049
 13
153.4471794177
 23
31.4003927049
  0
SOLID
  8
0
 62
7
  6
CONTINUOUS
 10
153.1581166972
 20
31.3681283566
 11
153.4471794177
 21
31.4003927049
 12
153.2159293074
 22
31.2390742213
 13
153.2159293074
 23
31.2390742213
  0
SOLID
  8
0
 62
7
  6
CONTINUOUS
 10
153.4471794177
 20
31.4003927049
 11
153.5049916972
 21
31.2390742213
 12
153.2159293074
 22
31.2390742213
 13
153.2159293074
 23
31.2390742213
  0
SOLID
  8
0
 62
7
  6
CONTINUOUS
 10
152.4643666972
 20
31.4649197951
 11
152.2909293626
 21
31.4003927049
 12
152.1753043074
 22
31.4649197951
 13
152.1753043074
 23
31.4649197951
  0
SOLID
  8
0
 62
7
  6
CONTINUOUS
 10
152.2909293626
 20
31.4003927049
 11
152.1753043074
 21
31.3358640533
 12
152.1753043074
 22
31.4649197951
 13
152.1753043074
 23
31.4649197951
  0
SOLID
  8
0
 62
7
  6
CONTINUOUS
 10
152.1753043074
 20
31.3358640533
 11
151.8862417523
 21
30.5938002869
 12
152.1753043074
 22
31.4649197951
 13
152.1753043074
 23
31.4649197951
  0
SOLID
  8
0
 62
7
  6
CONTINUOUS
 10
152.1753043074
 20
31.4649197951
 11
151.8862417523
 21
30.5938002869
 12
152.1753043074
 22
32.1101937295
 13
152.1753043074
 23
32.1101937295
  0
SOLID
  8
0
 62
7
  6
CONTINUOUS
 10
151.8862417523
 20
30.5938002869
 11
151.8862417523
 21
32.1101937295
 12
152.1753043074
 22
32.1101937295
 13
152.1753043074
 23
32.1101937295
  0
SOLID
  8
0
 62
7
  6
CONTINUOUS
 10
152.1753043074
 20
31.3358640533
 11
152.1753043074
 21
30.5938002869
 12
151.8862417523
 22
30.5938002869
 13
151.8862417523
 23
30.5938002869
  0
SOLID
  8
0
 62
7
  6
CONTINUOUS
 10
153.2159293074
 20
30.5938002869
 11
153.2159293074
 21
31.2390742213
 12
153.5049916972
 22
31.2390742213
 13
153.5049916972
 23
31.2390742213
  0
SOLID
  8
0
 62
7
  6
CONTINUOUS
 10
153.5049916972
 20
31.2390742213
 11
153.5049916972
 21
30.5938002869
 12
153.2159293074
 22
30.5938002869
 13
153.2159293074
 23
30.5938002869
  0
SOLID
  8
0
 62
7
  6
CONTINUOUS
 10
154.2565543074
 20
31.5939738288
 11
154.6612419177
 21
31.6262385959
 12
155.0081169177
 22
31.6262385959
 13
155.0081169177
 23
31.6262385959
  0
SOLID
  8
0
 62
7
  6
CONTINUOUS
 10
155.0081169177
 20
31.6262385959
 11
155.3549915869
 21
31.5939738288
 12
154.2565543074
 22
31.5939738288
 13
154.2565543074
 23
31.5939738288
  0
SOLID
  8
0
 62
7
  6
CONTINUOUS
 10
154.1409294177
 20
31.5617111435
 11
154.2565543074
 21
31.5939738288
 12
155.3549915869
 22
31.5939738288
 13
155.3549915869
 23
31.5939738288
  0
SOLID
  8
0
 62
7
  6
CONTINUOUS
 10
155.3549915869
 20
31.5939738288
 11
155.5284290869
 21
31.5294468402
 12
154.1409294177
 22
31.5617111435
 13
154.1409294177
 23
31.5617111435
  0
SOLID
  8
0
 62
7
  6
CONTINUOUS
 10
154.0253041972
 20
31.4971826249
 11
154.1409294177
 21
31.5617111435
 12
155.5284290869
 22
31.5294468402
 13
155.5284290869
 23
31.5294468402
  0
SOLID
  8
0
 62
7
  6
CONTINUOUS
 10
154.0253041972
 20
31.4971826249
 11
155.5284290869
 21
31.5294468402
 12
154.6612419177
 22
31.4971826249
 13
154.6612419177
 23
31.4971826249
  0
SOLID
  8
0
 62
7
  6
CONTINUOUS
 10
154.6612419177
 20
31.4971826249
 11
155.5284290869
 21
31.5294468402
 12
155.0081169177
 22
31.4971826249
 13
155.0081169177
 23
31.4971826249
  0
SOLID
  8
0
 62
7
  6
CONTINUOUS
 10
155.0081169177
 20
31.4971826249
 11
155.5284290869
 21
31.5294468402
 12
155.239367028
 22
31.4649194065
 13
155.239367028
 23
31.4649194065
  0
SOLID
  8
0
 62
7
  6
CONTINUOUS
 10
155.5284290869
 20
31.5294468402
 11
155.6440543074
 21
31.4649194065
 12
155.239367028
 22
31.4649194065
 13
155.239367028
 23
31.4649194065
  0
SOLID
  8
0
 62
7
  6
CONTINUOUS
 10
153.9674919177
 20
31.4326554138
 11
154.0253041972
 21
31.4971826249
 12
154.6612419177
 22
31.4971826249
 13
154.6612419177
 23
31.4971826249
  0
SOLID
  8
0
 62
7
  6
CONTINUOUS
 10
155.3549915869
 20
31.4326554138
 11
155.239367028
 21
31.4649194065
 12
155.6440543074
 22
31.4649194065
 13
155.6440543074
 23
31.4649194065
  0
SOLID
  8
0
 62
7
  6
CONTINUOUS
 10
155.3549915869
 20
31.4326554138
 11
155.6440543074
 21
31.4649194065
 12
155.412804528
 22
31.3681282026
 13
155.412804528
 23
31.3681282026
  0
SOLID
  8
0
 62
7
  6
CONTINUOUS
 10
155.6440543074
 20
31.4649194065
 11
155.7018665869
 21
31.3681282026
 12
155.412804528
 22
31.3681282026
 13
155.412804528
 23
31.3681282026
  0
SOLID
  8
0
 62
7
  6
CONTINUOUS
 10
155.412804528
 20
31.2713369632
 11
155.412804528
 21
31.3681282026
 12
155.7018665869
 22
31.3681282026
 13
155.7018665869
 23
31.3681282026
  0
SOLID
  8
0
 62
7
  6
CONTINUOUS
 10
155.412804528
 20
31.2713369632
 11
155.7018665869
 21
31.3681282026
 12
155.412804528
 22
31.1422827828
 13
155.412804528
 23
31.1422827828
  0
SOLID
  8
0
 62
7
  6
CONTINUOUS
 10
155.412804528
 20
31.1422827828
 11
155.7018665869
 21
31.3681282026
 12
155.412804528
 22
30.9487004259
 13
155.412804528
 23
30.9487004259
  0
SOLID
  8
0
 62
7
  6
CONTINUOUS
 10
155.7018665869
 20
31.3681282026
 11
155.7018665869
 21
30.8519086025
 12
155.412804528
 22
30.9487004259
 13
155.412804528
 23
30.9487004259
  0
SOLID
  8
0
 62
7
  6
CONTINUOUS
 10
157.6096790869
 20
31.5939736268
 11
157.840929528
 21
31.6262383465
 12
158.0721793074
 22
31.6262383465
 13
158.0721793074
 23
31.6262383465
  0
SOLID
  8
0
 62
7
  6
CONTINUOUS
 10
158.0721793074
 20
31.6262383465
 11
158.2456168074
 21
31.5939736268
 12
157.6096790869
 22
31.5939736268
 13
157.6096790869
 23
31.5939736268
  0
SOLID
  8
0
 62
7
  6
CONTINUOUS
 10
157.4362415869
 20
31.5294472848
 11
157.6096790869
 21
31.5939736268
 12
158.2456168074
 22
31.5939736268
 13
158.2456168074
 23
31.5939736268
  0
SOLID
  8
0
 62
7
  6
CONTINUOUS
 10
158.2456168074
 20
31.5939736268
 11
158.4190543074
 21
31.5294472848
 12
157.4362415869
 22
31.5294472848
 13
157.4362415869
 23
31.5294472848
  0
SOLID
  8
0
 62
7
  6
CONTINUOUS
 10
158.4190543074
 20
31.5294472848
 11
157.840929528
 21
31.4971825369
 12
157.4362415869
 22
31.5294472848
 13
157.4362415869
 23
31.5294472848
  0
SOLID
  8
0
 62
7
  6
CONTINUOUS
 10
157.320617028
 20
31.4649199103
 11
157.4362415869
 21
31.5294472848
 12
157.840929528
 22
31.4971825369
 13
157.840929528
 23
31.4971825369
  0
SOLID
  8
0
 62
7
  6
CONTINUOUS
 10
157.840929528
 20
31.4971825369
 11
157.6096790869
 21
31.4649199103
 12
157.320617028
 22
31.4649199103
 13
157.320617028
 23
31.4649199103
  0
SOLID
  8
0
 62
7
  6
CONTINUOUS
 10
157.840929528
 20
31.4971825369
 11
158.4190543074
 21
31.5294472848
 12
158.0721793074
 22
31.4649199103
 13
158.0721793074
 23
31.4649199103
  0
SOLID
  8
0
 62
7
  6
CONTINUOUS
 10
158.4190543074
 20
31.5294472848
 11
158.534679528
 21
31.4649199103
 12
158.0721793074
 22
31.4649199103
 13
158.0721793074
 23
31.4649199103
  0
SOLID
  8
0
 62
7
  6
CONTINUOUS
 10
158.187804528
 20
31.4326554468
 11
158.0721793074
 21
31.4649199103
 12
158.534679528
 22
31.4649199103
 13
158.534679528
 23
31.4649199103
  0
SOLID
  8
0
 62
7
  6
CONTINUOUS
 10
158.187804528
 20
31.4326554468
 11
158.534679528
 21
31.4649199103
 12
158.3034290869
 22
31.3681288486
 13
158.3034290869
 23
31.3681288486
  0
SOLID
  8
0
 62
7
  6
CONTINUOUS
 10
158.534679528
 20
31.4649199103
 11
158.5924918074
 21
31.3681288486
 12
158.3034290869
 22
31.3681288486
 13
158.3034290869
 23
31.3681288486
  0
SOLID
  8
0
 62
7
  6
CONTINUOUS
 10
158.361242028
 20
31.2068093799
 11
158.3034290869
 21
31.3681288486
 12
158.5924918074
 22
31.3681288486
 13
158.5924918074
 23
31.3681288486
  0
SOLID
  8
0
 62
7
  6
CONTINUOUS
 10
158.5924918074
 20
31.3681288486
 11
158.6503040869
 21
31.2068093799
 12
158.361242028
 22
31.2068093799
 13
158.361242028
 23
31.2068093799
  0
SOLID
  8
0
 62
7
  6
CONTINUOUS
 10
157.6096790869
 20
31.4649199103
 11
157.4362415869
 21
31.4003926599
 12
157.320617028
 22
31.4649199103
 13
157.320617028
 23
31.4649199103
  0
SOLID
  8
0
 62
7
  6
CONTINUOUS
 10
157.4362415869
 20
31.4003926599
 11
157.320617028
 21
31.3358640533
 12
157.320617028
 22
31.4649199103
 13
157.320617028
 23
31.4649199103
  0
SOLID
  8
0
 62
7
  6
CONTINUOUS
 10
157.320617028
 20
31.3358640533
 11
157.0315543074
 21
30.5938003547
 12
157.320617028
 22
31.4649199103
 13
157.320617028
 23
31.4649199103
  0
SOLID
  8
0
 62
7
  6
CONTINUOUS
 10
157.320617028
 20
31.4649199103
 11
157.0315543074
 21
30.5938003547
 12
157.320617028
 22
31.6262383465
 13
157.320617028
 23
31.6262383465
  0
SOLID
  8
0
 62
7
  6
CONTINUOUS
 10
157.0315543074
 20
30.5938003547
 11
157.0315543074
 21
31.6262383465
 12
157.320617028
 22
31.6262383465
 13
157.320617028
 23
31.6262383465
  0
SOLID
  8
0
 62
7
  6
CONTINUOUS
 10
157.320617028
 20
31.3358640533
 11
157.320617028
 21
30.5938003547
 12
157.0315543074
 22
30.5938003547
 13
157.0315543074
 23
30.5938003547
  0
SOLID
  8
0
 62
7
  6
CONTINUOUS
 10
158.361242028
 20
30.5938003547
 11
158.361242028
 21
31.2068093799
 12
158.6503040869
 22
31.2068093799
 13
158.6503040869
 23
31.2068093799
  0
SOLID
  8
0
 62
7
  6
CONTINUOUS
 10
158.6503040869
 20
31.2068093799
 11
158.6503040869
 21
30.5938003547
 12
158.361242028
 22
30.5938003547
 13
158.361242028
 23
30.5938003547
  0
SOLID
  8
0
 62
7
  6
CONTINUOUS
 10
159.4596793074
 20
31.5939739474
 11
159.8065543074
 21
31.6262381969
 12
160.1534293074
 22
31.6262381969
 13
160.1534293074
 23
31.6262381969
  0
SOLID
  8
0
 62
7
  6
CONTINUOUS
 10
160.1534293074
 20
31.6262381969
 11
160.5003043074
 21
31.5939739474
 12
159.4596793074
 22
31.5939739474
 13
159.4596793074
 23
31.5939739474
  0
SOLID
  8
0
 62
7
  6
CONTINUOUS
 10
159.228429528
 20
31.5294468402
 11
159.4596793074
 21
31.5939739474
 12
160.5003043074
 22
31.5939739474
 13
160.5003043074
 23
31.5939739474
  0
SOLID
  8
0
 62
7
  6
CONTINUOUS
 10
159.228429528
 20
31.5294468402
 11
160.5003043074
 21
31.5939739304
 12
160.6737418074
 22
31.5617111435
 13
160.6737418074
 23
31.5617111435
  0
SOLID
  8
0
 62
7
  6
CONTINUOUS
 10
159.228429528
 20
31.5294468402
 11
160.6737418074
 21
31.5617111435
 12
159.8065543074
 22
31.4971825592
 13
159.8065543074
 23
31.4971825592
  0
SOLID
  8
0
 62
7
  6
CONTINUOUS
 10
159.8065543074
 20
31.4971825592
 11
160.6737418074
 21
31.5617111435
 12
160.1534293074
 22
31.4971825592
 13
160.1534293074
 23
31.4971825592
  0
SOLID
  8
0
 62
7
  6
CONTINUOUS
 10
160.6737418074
 20
31.5617111435
 11
160.8471793074
 21
31.4971825592
 12
160.1534293074
 22
31.4971825592
 13
160.1534293074
 23
31.4971825592
  0
SOLID
  8
0
 62
7
  6
CONTINUOUS
 10
160.5003043074
 20
31.4649197501
 11
160.1534293074
 21
31.4971825592
 12
160.8471793074
 22
31.4971825592
 13
160.8471793074
 23
31.4971825592
  0
SOLID
  8
0
 62
7
  6
CONTINUOUS
 10
159.1128043074
 20
31.4326555427
 11
159.228429528
 21
31.5294468402
 12
159.8065543074
 22
31.4971825592
 13
159.8065543074
 23
31.4971825592
  0
SOLID
  8
0
 62
7
  6
CONTINUOUS
 10
160.5003043074
 20
31.4649197501
 11
160.8471793074
 21
31.4971825592
 12
160.615929528
 22
31.4326555427
 13
160.615929528
 23
31.4326555427
  0
SOLID
  8
0
 62
7
  6
CONTINUOUS
 10
160.615929528
 20
31.4326555427
 11
160.8471793074
 21
31.4971825592
 12
160.6737418074
 22
31.3681283005
 13
160.6737418074
 23
31.3681283005
  0
SOLID
  8
0
 62
7
  6
CONTINUOUS
 10
160.8471793074
 20
31.4971825592
 11
160.9628038663
 21
31.3681283005
 12
160.6737418074
 22
31.3681283005
 13
160.6737418074
 23
31.3681283005
  0
SOLID
  8
0
 62
7
  6
CONTINUOUS
 10
150.2674918074
 20
31.4649197501
 11
149.7471793074
 21
31.4326554237
 12
150.498741835
 22
31.4971824493
 13
150.498741835
 23
31.4971824493
  0
SOLID
  8
0
 62
7
  6
CONTINUOUS
 10
149.7471793074
 20
31.4326554237
 11
149.8628043005
 21
31.4971824493
 12
150.498741835
 22
31.4971824493
 13
150.498741835
 23
31.4971824493
  0
SOLID
  8
0
 62
7
  6
CONTINUOUS
 10
150.2674918074
 20
31.4649197501
 11
150.1518667936
 21
31.4326554237
 12
149.7471793074
 22
31.4326554237
 13
149.7471793074
 23
31.4326554237
  0
SOLID
  8
0
 62
7
  6
CONTINUOUS
 10
149.6315543091
 20
31.3036012664
 11
149.7471793074
 21
31.4326554237
 12
150.1518667936
 22
31.4326554237
 13
150.1518667936
 23
31.4326554237
  0
SOLID
  8
0
 62
7
  6
CONTINUOUS
 10
153.9674919177
 20
31.4326554237
 11
154.6612419177
 21
31.4971825369
 12
154.4299918074
 22
31.4649197501
 13
154.4299918074
 23
31.4649197501
  0
SOLID
  8
0
 62
7
  6
CONTINUOUS
 10
154.4299918074
 20
31.4649197501
 11
154.3143669177
 21
31.4326554237
 12
153.9674919177
 22
31.4326554237
 13
153.9674919177
 23
31.4326554237
  0
SOLID
  8
0
 62
7
  6
CONTINUOUS
 10
153.9674919177
 20
31.3681283335
 11
153.9674919177
 21
31.4326554237
 12
154.3143669177
 22
31.4326554237
 13
154.3143669177
 23
31.4326554237
  0
SOLID
  8
0
 62
7
  6
CONTINUOUS
 10
154.3143669177
 20
31.4326554237
 11
154.2565543074
 21
31.3681283335
 12
153.9674919177
 22
31.3681283335
 13
153.9674919177
 23
31.3681283335
  0
SOLID
  8
0
 62
7
  6
CONTINUOUS
 10
159.1128043074
 20
31.4326555528
 11
159.8065543074
 21
31.4971825369
 12
159.575304528
 22
31.4649197501
 13
159.575304528
 23
31.4649197501
  0
SOLID
  8
0
 62
7
  6
CONTINUOUS
 10
159.575304528
 20
31.4649197501
 11
159.4596793074
 21
31.4326555528
 12
159.1128043074
 22
31.4326555528
 13
159.1128043074
 23
31.4326555528
  0
SOLID
  8
0
 62
7
  6
CONTINUOUS
 10
159.1128043074
 20
31.3681284626
 11
159.1128043074
 21
31.4326555528
 12
159.4596793074
 22
31.4326555528
 13
159.4596793074
 23
31.4326555528
  0
SOLID
  8
0
 62
7
  6
CONTINUOUS
 10
159.4596793074
 20
31.4326555528
 11
159.401867028
 21
31.3681284626
 12
159.1128043074
 22
31.3681284626
 13
159.1128043074
 23
31.3681284626
  0
SOLID
  8
0
 62
7
  6
CONTINUOUS
 10
159.228429528
 20
31.2390741763
 11
159.1128043074
 21
31.3681284626
 12
159.401867028
 22
31.3681284626
 13
159.401867028
 23
31.3681284626
  0
SOLID
  8
0
 62
7
  6
CONTINUOUS
 10
149.6315543091
 20
31.3036012664
 11
150.1518667936
 21
31.4326554468
 12
149.9784292936
 22
31.3358640533
 13
149.9784292936
 23
31.3358640533
  0
SOLID
  8
0
 62
7
  6
CONTINUOUS
 10
149.9784292936
 20
31.3358640533
 11
149.9206168074
 21
31.2713369632
 12
149.6315543091
 22
31.3036012664
 13
149.6315543091
 23
31.3036012664
  0
SOLID
  8
0
 62
7
  6
CONTINUOUS
 10
149.5737418074
 20
31.1100184796
 11
149.6315543091
 21
31.3036012664
 12
149.9206168074
 22
31.2713369632
 13
149.9206168074
 23
31.2713369632
  0
SOLID
  8
0
 62
7
  6
CONTINUOUS
 10
154.4299918074
 20
31.2390741763
 11
154.7768668074
 21
31.271336924
 12
155.412804528
 22
31.271336924
 13
155.412804528
 23
31.271336924
  0
SOLID
  8
0
 62
7
  6
CONTINUOUS
 10
154.4299918074
 20
31.2390741763
 11
155.412804528
 21
31.271336924
 12
154.1987416972
 22
31.1745462761
 13
154.1987416972
 23
31.1745462761
  0
SOLID
  8
0
 62
7
  6
CONTINUOUS
 10
154.1987416972
 20
31.1745462761
 11
155.412804528
 21
31.271336924
 12
154.7768668074
 22
31.1422827436
 13
154.7768668074
 23
31.1422827436
  0
SOLID
  8
0
 62
7
  6
CONTINUOUS
 10
155.412804528
 20
31.271336924
 11
155.412804528
 21
31.1422827436
 12
154.7768668074
 22
31.1422827436
 13
154.7768668074
 23
31.1422827436
  0
SOLID
  8
0
 62
7
  6
CONTINUOUS
 10
159.228429528
 20
31.2390745501
 11
159.401867028
 21
31.3681283566
 12
159.4596793074
 22
31.3036012664
 13
159.4596793074
 23
31.3036012664
  0
SOLID
  8
0
 62
7
  6
CONTINUOUS
 10
159.4596793074
 20
31.3036012664
 11
159.6331168074
 21
31.2390745501
 12
159.228429528
 22
31.2390745501
 13
159.228429528
 23
31.2390745501
  0
SOLID
  8
0
 62
7
  6
CONTINUOUS
 10
159.4596793074
 20
31.1422827828
 11
159.228429528
 21
31.2390745501
 12
159.6331168074
 22
31.2390745501
 13
159.6331168074
 23
31.2390745501
  0
SOLID
  8
0
 62
7
  6
CONTINUOUS
 10
159.6331168074
 20
31.2390745501
 11
160.615929528
 21
31.0777556927
 12
159.4596793074
 22
31.1422827828
 13
159.4596793074
 23
31.1422827828
  0
SOLID
  8
0
 62
7
  6
CONTINUOUS
 10
160.442492028
 20
30.9809646623
 11
159.4596793074
 21
31.1422827828
 12
160.615929528
 22
31.0777556927
 13
160.615929528
 23
31.0777556927
  0
SOLID
  8
0
 62
7
  6
CONTINUOUS
 10
160.615929528
 20
31.0777556927
 11
160.8471793074
 21
30.9809646623
 12
160.442492028
 22
30.9809646623
 13
160.442492028
 23
30.9809646623
  0
SOLID
  8
0
 62
7
  6
CONTINUOUS
 10
160.615929528
 20
30.9164372091
 11
160.442492028
 21
30.9809646623
 12
160.8471793074
 22
30.9809646623
 13
160.8471793074
 23
30.9809646623
  0
SOLID
  8
0
 62
7
  6
CONTINUOUS
 10
160.615929528
 20
30.9164372091
 11
160.8471793074
 21
30.9809646623
 12
160.6737418074
 22
30.8519089441
 13
160.6737418074
 23
30.8519089441
  0
SOLID
  8
0
 62
7
  6
CONTINUOUS
 10
160.8471793074
 20
30.9809646623
 11
160.9628038663
 21
30.8519089441
 12
160.6737418074
 22
30.8519089441
 13
160.6737418074
 23
30.8519089441
  0
SOLID
  8
0
 62
7
  6
CONTINUOUS
 10
160.615929528
 20
30.7873818593
 11
160.6737418074
 21
30.8519089441
 12
160.9628038663
 22
30.8519089441
 13
160.9628038663
 23
30.8519089441
  0
SOLID
  8
0
 62
7
  6
CONTINUOUS
 10
160.9628038663
 20
30.8519089441
 11
160.9628038663
 21
30.7873818593
 12
160.615929528
 22
30.7873818593
 13
160.615929528
 23
30.7873818593
  0
SOLID
  8
0
 62
7
  6
CONTINUOUS
 10
160.5003043074
 20
30.7551187255
 11
160.615929528
 21
30.7873818593
 12
160.9628038663
 22
30.7873818593
 13
160.9628038663
 23
30.7873818593
  0
SOLID
  8
0
 62
7
  6
CONTINUOUS
 10
160.5003043074
 20
30.7551187255
 11
160.9628038663
 21
30.7873818593
 12
160.269054528
 22
30.7228547745
 13
160.269054528
 23
30.7228547745
  0
SOLID
  8
0
 62
7
  6
CONTINUOUS
 10
160.9628038663
 20
30.7873818593
 11
160.8471793074
 21
30.6905916353
 12
160.269054528
 22
30.7228547745
 13
160.269054528
 23
30.7228547745
  0
SOLID
  8
0
 62
7
  6
CONTINUOUS
 10
160.8471793074
 20
30.6905916353
 11
159.401867028
 21
30.658327332
 12
160.269054528
 22
30.7228547745
 13
160.269054528
 23
30.7228547745
  0
SOLID
  8
0
 62
7
  6
CONTINUOUS
 10
160.269054528
 20
30.7228547745
 11
159.401867028
 21
30.658327332
 12
159.922179528
 22
30.7228547745
 13
159.922179528
 23
30.7228547745
  0
SOLID
  8
0
 62
7
  6
CONTINUOUS
 10
159.401867028
 20
30.658327332
 11
159.228429528
 21
30.7228547745
 12
159.922179528
 22
30.7228547745
 13
159.922179528
 23
30.7228547745
  0
SOLID
  8
0
 62
7
  6
CONTINUOUS
 10
159.401867028
 20
30.658327332
 11
160.8471793074
 21
30.6905916353
 12
159.575304528
 22
30.6260629858
 13
159.575304528
 23
30.6260629858
  0
SOLID
  8
0
 62
7
  6
CONTINUOUS
 10
160.8471793074
 20
30.6905916353
 11
160.615929528
 21
30.6260629858
 12
159.575304528
 22
30.6260629858
 13
159.575304528
 23
30.6260629858
  0
SOLID
  8
0
 62
7
  6
CONTINUOUS
 10
159.922179528
 20
30.5938006049
 11
159.575304528
 21
30.6260629858
 12
160.615929528
 22
30.6260629858
 13
160.615929528
 23
30.6260629858
  0
SOLID
  8
0
 62
7
  6
CONTINUOUS
 10
160.615929528
 20
30.6260629858
 11
160.269054528
 21
30.5938006049
 12
159.922179528
 22
30.5938006049
 13
159.922179528
 23
30.5938006049
  0
SOLID
  8
0
 62
7
  6
CONTINUOUS
 10
149.5737418074
 20
31.1100184796
 11
149.9206168074
 21
31.2713369632
 12
149.8628043005
 22
31.1422827828
 13
149.8628043005
 23
31.1422827828
  0
SOLID
  8
0
 62
7
  6
CONTINUOUS
 10
149.8628043005
 20
31.1422827828
 11
149.8628043005
 21
31.0454914852
 12
149.5737418074
 22
31.1100184796
 13
149.5737418074
 23
31.1100184796
  0
SOLID
  8
0
 62
7
  6
CONTINUOUS
 10
149.6315543091
 20
30.9164372091
 11
149.5737418074
 21
31.1100184796
 12
149.8628043005
 22
31.0454914852
 13
149.8628043005
 23
31.0454914852
  0
SOLID
  8
0
 62
7
  6
CONTINUOUS
 10
149.8628043005
 20
31.0454914852
 11
149.9784292936
 21
30.8841729058
 12
149.6315543091
 22
30.9164372091
 13
149.6315543091
 23
30.9164372091
  0
SOLID
  8
0
 62
7
  6
CONTINUOUS
 10
149.7471793074
 20
30.7873813202
 11
149.6315543091
 21
30.9164372091
 12
149.9784292936
 22
30.8841729058
 13
149.9784292936
 23
30.8841729058
  0
SOLID
  8
0
 62
7
  6
CONTINUOUS
 10
149.9784292936
 20
30.8841729058
 11
150.1518667936
 21
30.7873813202
 12
149.7471793074
 22
30.7873813202
 13
149.7471793074
 23
30.7873813202
  0
SOLID
  8
0
 62
7
  6
CONTINUOUS
 10
149.8628043005
 20
30.7228547004
 11
149.7471793074
 21
30.7873813202
 12
150.1518667936
 22
30.7873813202
 13
150.1518667936
 23
30.7873813202
  0
SOLID
  8
0
 62
7
  6
CONTINUOUS
 10
150.1518667936
 20
30.7873813202
 11
150.498741835
 21
30.7228547004
 12
149.8628043005
 22
30.7228547004
 13
149.8628043005
 23
30.7228547004
  0
SOLID
  8
0
 62
7
  6
CONTINUOUS
 10
150.0362418212
 20
30.658327332
 11
149.8628043005
 21
30.7228547004
 12
150.498741835
 22
30.7228547004
 13
150.498741835
 23
30.7228547004
  0
SOLID
  8
0
 62
7
  6
CONTINUOUS
 10
154.0831168074
 20
31.1100184386
 11
154.1987416972
 21
31.1745462761
 12
154.7768668074
 22
31.1422827828
 13
154.7768668074
 23
31.1422827828
  0
SOLID
  8
0
 62
7
  6
CONTINUOUS
 10
154.7768668074
 20
31.1422827828
 11
154.5456166972
 21
31.1100184386
 12
154.0831168074
 22
31.1100184386
 13
154.0831168074
 23
31.1100184386
  0
SOLID
  8
0
 62
7
  6
CONTINUOUS
 10
153.9674919177
 20
30.9809642992
 11
154.0831168074
 21
31.1100184386
 12
154.5456166972
 22
31.1100184386
 13
154.5456166972
 23
31.1100184386
  0
SOLID
  8
0
 62
7
  6
CONTINUOUS
 10
154.3143669177
 20
31.0132277988
 11
153.9674919177
 21
30.9809642992
 12
154.4299918074
 22
31.0777556927
 13
154.4299918074
 23
31.0777556927
  0
SOLID
  8
0
 62
7
  6
CONTINUOUS
 10
153.9674919177
 20
30.9809642992
 11
154.5456166972
 21
31.1100184796
 12
154.4299918074
 22
31.0777556927
 13
154.4299918074
 23
31.0777556927
  0
SOLID
  8
0
 62
7
  6
CONTINUOUS
 10
154.3143669177
 20
31.0132277988
 11
154.2565543074
 21
30.9164372091
 12
153.9674919177
 22
30.9809642992
 13
153.9674919177
 23
30.9809642992
  0
SOLID
  8
0
 62
7
  6
CONTINUOUS
 10
153.9674919177
 20
30.8841729058
 11
153.9674919177
 21
30.9809642992
 12
154.2565543074
 22
30.9164372091
 13
154.2565543074
 23
30.9164372091
  0
SOLID
  8
0
 62
7
  6
CONTINUOUS
 10
154.2565543074
 20
30.9164372091
 11
154.2565543074
 21
30.8519086025
 12
153.9674919177
 22
30.8841729058
 13
153.9674919177
 23
30.8841729058
  0
SOLID
  8
0
 62
7
  6
CONTINUOUS
 10
154.0253041972
 20
30.7551187255
 11
153.9674919177
 21
30.8841729058
 12
154.2565543074
 22
30.8519086025
 13
154.2565543074
 23
30.8519086025
  0
SOLID
  8
0
 62
7
  6
CONTINUOUS
 10
155.412804528
 20
30.9487004259
 11
155.7018665869
 21
30.8519086025
 12
155.3549915869
 22
30.8841729058
 13
155.3549915869
 23
30.8841729058
  0
SOLID
  8
0
 62
7
  6
CONTINUOUS
 10
155.1815540869
 20
30.7873815123
 11
155.3549915869
 21
30.8841729058
 12
155.7018665869
 22
30.8519086025
 13
155.7018665869
 23
30.8519086025
  0
SOLID
  8
0
 62
7
  6
CONTINUOUS
 10
155.1815540869
 20
30.7873815123
 11
155.7018665869
 21
30.8519086025
 12
155.412804528
 22
30.7551187255
 13
155.412804528
 23
30.7551187255
  0
SOLID
  8
0
 62
7
  6
CONTINUOUS
 10
155.7018665869
 20
30.8519086025
 11
155.759679528
 21
30.6905916353
 12
155.412804528
 22
30.7551187255
 13
155.412804528
 23
30.7551187255
  0
SOLID
  8
0
 62
7
  6
CONTINUOUS
 10
155.4706168074
 20
30.658327332
 11
155.412804528
 21
30.7551187255
 12
155.759679528
 22
30.6905916353
 13
155.759679528
 23
30.6905916353
  0
SOLID
  8
0
 62
7
  6
CONTINUOUS
 10
155.4706168074
 20
30.658327332
 11
155.759679528
 21
30.6905916353
 12
155.5284290869
 22
30.5938002079
 13
155.5284290869
 23
30.5938002079
  0
SOLID
  8
0
 62
7
  6
CONTINUOUS
 10
155.759679528
 20
30.6905916353
 11
155.8174918074
 21
30.5938002079
 12
155.5284290869
 22
30.5938002079
 13
155.5284290869
 23
30.5938002079
  0
SOLID
  8
0
 62
7
  6
CONTINUOUS
 10
151.0768668626
 20
30.8196456577
 11
151.1346793074
 21
30.9164373395
 12
151.4237418626
 22
30.9164373395
 13
151.4237418626
 23
30.9164373395
  0
SOLID
  8
0
 62
7
  6
CONTINUOUS
 10
151.4237418626
 20
30.9164373395
 11
151.3659292523
 21
30.7873815123
 12
151.0768668626
 22
30.8196456577
 13
151.0768668626
 23
30.8196456577
  0
SOLID
  8
0
 62
7
  6
CONTINUOUS
 10
150.9034292799
 20
30.7551187255
 11
151.0768668626
 21
30.8196456577
 12
151.3659292523
 22
30.7873815123
 13
151.3659292523
 23
30.7873815123
  0
SOLID
  8
0
 62
7
  6
CONTINUOUS
 10
150.9034292799
 20
30.7551187255
 11
151.3659292523
 21
30.7873815123
 12
150.498741835
 22
30.7228544222
 13
150.498741835
 23
30.7228544222
  0
SOLID
  8
0
 62
7
  6
CONTINUOUS
 10
151.3659292523
 20
30.7873815123
 11
151.1924917523
 21
30.6905916353
 12
150.498741835
 22
30.7228544222
 13
150.498741835
 23
30.7228544222
  0
SOLID
  8
0
 62
7
  6
CONTINUOUS
 10
150.0362418212
 20
30.658327332
 11
150.498741835
 21
30.7228544222
 12
151.1924917523
 22
30.6905916353
 13
151.1924917523
 23
30.6905916353
  0
SOLID
  8
0
 62
7
  6
CONTINUOUS
 10
150.0362418212
 20
30.658327332
 11
151.1924917523
 21
30.6905916353
 12
150.2096793212
 22
30.6260631011
 13
150.2096793212
 23
30.6260631011
  0
SOLID
  8
0
 62
7
  6
CONTINUOUS
 10
151.1924917523
 20
30.6905916353
 11
150.9612418074
 21
30.6260631011
 12
150.2096793212
 22
30.6260631011
 13
150.2096793212
 23
30.6260631011
  0
SOLID
  8
0
 62
7
  6
CONTINUOUS
 10
150.5565542799
 20
30.5938002419
 11
150.2096793212
 21
30.6260631011
 12
150.9612418074
 22
30.6260631011
 13
150.9612418074
 23
30.6260631011
  0
SOLID
  8
0
 62
7
  6
CONTINUOUS
 10
154.0253041972
 20
30.7551187255
 11
154.2565543074
 21
30.8519086025
 12
154.3143669177
 22
30.7873815123
 13
154.3143669177
 23
30.7873815123
  0
SOLID
  8
0
 62
7
  6
CONTINUOUS
 10
154.3143669177
 20
30.7873815123
 11
154.5456166972
 21
30.7228544222
 12
154.0253041972
 22
30.7551187255
 13
154.0253041972
 23
30.7551187255
  0
SOLID
  8
0
 62
7
  6
CONTINUOUS
 10
154.1987416972
 20
30.658327332
 11
154.0253041972
 21
30.7551187255
 12
154.5456166972
 22
30.7228544222
 13
154.5456166972
 23
30.7228544222
  0
SOLID
  8
0
 62
7
  6
CONTINUOUS
 10
154.8924916972
 20
30.7228544637
 11
155.1815540869
 21
30.7873815123
 12
155.412804528
 22
30.7551187255
 13
155.412804528
 23
30.7551187255
  0
SOLID
  8
0
 62
7
  6
CONTINUOUS
 10
155.412804528
 20
30.7551187255
 11
155.3549915869
 21
30.6905916353
 12
154.8924916972
 22
30.7228544637
 13
154.8924916972
 23
30.7228544637
  0
SOLID
  8
0
 62
7
  6
CONTINUOUS
 10
155.3549915869
 20
30.6905916353
 11
154.1987416972
 21
30.658327332
 12
154.8924916972
 22
30.7228544637
 13
154.8924916972
 23
30.7228544637
  0
SOLID
  8
0
 62
7
  6
CONTINUOUS
 10
154.1987416972
 20
30.658327332
 11
154.5456166972
 21
30.7228544637
 12
154.8924916972
 22
30.7228544637
 13
154.8924916972
 23
30.7228544637
  0
SOLID
  8
0
 62
7
  6
CONTINUOUS
 10
154.1987416972
 20
30.658327332
 11
155.3549915869
 21
30.6905916353
 12
154.3143669177
 22
30.6260630541
 13
154.3143669177
 23
30.6260630541
  0
SOLID
  8
0
 62
7
  6
CONTINUOUS
 10
155.3549915869
 20
30.6905916353
 11
155.1815540869
 21
30.6260630541
 12
154.3143669177
 22
30.6260630541
 13
154.3143669177
 23
30.6260630541
  0
SOLID
  8
0
 62
7
  6
CONTINUOUS
 10
154.5456166972
 20
30.5938002188
 11
154.3143669177
 21
30.6260630541
 12
155.1815540869
 22
30.6260630541
 13
155.1815540869
 23
30.6260630541
  0
SOLID
  8
0
 62
7
  6
CONTINUOUS
 10
155.1815540869
 20
30.6260630541
 11
154.8924916972
 21
30.5938002188
 12
154.5456166972
 22
30.5938002188
 13
154.5456166972
 23
30.5938002188
  0
SOLID
  8
0
 62
7
  6
CONTINUOUS
 10
159.575304528
 20
30.7551187255
 11
159.228429528
 21
30.7228544637
 12
159.4596793074
 22
30.7873815123
 13
159.4596793074
 23
30.7873815123
  0
SOLID
  8
0
 62
7
  6
CONTINUOUS
 10
159.4596793074
 20
30.7873815123
 11
159.228429528
 21
30.7228544637
 12
159.401867028
 22
30.851908644
 13
159.401867028
 23
30.851908644
  0
SOLID
  8
0
 62
7
  6
CONTINUOUS
 10
159.228429528
 20
30.7228544637
 11
159.1128043074
 21
30.851908644
 12
159.401867028
 22
30.851908644
 13
159.401867028
 23
30.851908644
  0
SOLID
  8
0
 62
7
  6
CONTINUOUS
 10
159.575304528
 20
30.7551187255
 11
159.922179528
 21
30.7228544637
 12
159.228429528
 22
30.7228544637
 13
159.228429528
 23
30.7228544637
  0
SOLID
  8
0
 62
7
  6
CONTINUOUS
 10
156.279992028
 20
30.5938002419
 11
156.279992028
 21
31.6262382337
 12
156.5690540869
 22
30.5938002419
 13
156.5690540869
 23
31.6262382337
  0
ENDBLK
  8
0
  6
BYBLOCK
 62
0
  0
BLOCK
  8
0
 62
2
  6
CONTINUOUS
  2
SYMBOL_3_BL0
 70
64
 10
32.1213064866
 20
19.8534310916
  0
TEXT
  8
0
 62
7
  6
CONTINUOUS
 10
18.3860103289
 20
19.2268451992
  7
TEXTSTYLE_3
 40
2.7338706658
  1
Ammeraal Beltech
 41
1.0
 51
15.0
 72
0
  0
TEXT
  8
0
 62
7
  6
CONTINUOUS
 10
29.1868111546
 20
16.9533085264
  7
TEXTSTYLE_4
 40
1.0935482663
  1
Innovation & Service in Belting
 41
1.0
 72
0
  0
LINE
  8
0
 62
7
  6
CONTINUOUS
 10
12.3614696776
 20
19.9934385078
 11
13.1396216709
 21
23.6543558055
  0
LINE
  8
0
 62
7
  6
CONTINUOUS
 10
23.2347899607
 20
27.3177497171
 11
13.6274394139
 21
24.1961322958
  0
LINE
  8
0
 62
7
  6
CONTINUOUS
 10
12.5867530099
 20
19.3000877048
 11
20.093828271
 21
12.5406867788
  0
LINE
  8
0
 62
7
  6
CONTINUOUS
 10
12.8492874206
 20
20.5352149982
 11
23.6575567857
 21
24.0470345971
  0
LINE
  8
0
 62
7
  6
CONTINUOUS
 10
23.6533516486
 20
13.6972460334
 11
15.2078919798
 21
21.3015720751
  0
LINE
  8
0
 62
7
  6
CONTINUOUS
 10
24.1731743684
 20
26.4728246013
 11
23.1966148312
 21
21.8784731989
  0
LINE
  8
0
 62
7
  6
CONTINUOUS
 10
22.4968128835
 20
18.5861638851
 11
21.810364672
 21
15.3566789607
  0
LINE
  8
0
 62
7
  6
CONTINUOUS
 10
24.8542704669
 20
14.087448211
 11
25.8105020025
 21
18.5861638851
  0
LINE
  8
0
 62
7
  6
CONTINUOUS
 10
26.5103039502
 20
21.8784731989
 11
26.9545457526
 21
23.9684665583
  0
LINE
  8
0
 62
7
  6
CONTINUOUS
 10
20.8069293463
 20
12.3891124661
 11
24.3664527239
 21
13.5456717207
  0
LINE
  8
0
 62
7
  6
CONTINUOUS
 10
23.9478910361
 20
27.1661754044
 11
26.7292624203
 21
24.6618173613
  0
ARC
  8
0
 62
7
  6
CONTINUOUS
 10
13.8527227462
 20
23.5027814928
 40
0.7290321776
 50
108.0
 51
168.0
  0
ARC
  8
0
 62
7
  6
CONTINUOUS
 10
23.4600732931
 20
26.624398914
 40
0.7290321776
 50
348.0
 51
108.0
  0
ARC
  8
0
 62
7
  6
CONTINUOUS
 10
26.2414446773
 20
24.120040871
 40
0.7290321776
 50
348.0
 51
48.0
  0
ARC
  8
0
 62
7
  6
CONTINUOUS
 10
20.581646014
 20
13.0824632691
 40
0.7290321776
 50
228.0
 51
288.0
  0
ARC
  8
0
 62
7
  6
CONTINUOUS
 10
13.0745707529
 20
19.8418641951
 40
0.7290321776
 50
108.0
 51
228.0
  0
ARC
  8
0
 62
7
  6
CONTINUOUS
 10
24.1411693916
 20
14.2390225237
 40
0.7290321776
 50
228.0
 51
348.0
  0
ENDBLK
  8
0
  6
BYBLOCK
 62
0
  0
ENDSEC
  0
SECTION
  2
ENTITIES
  0
TEXT
  8
0
 62
5
  6
CONTINUOUS
 10
96.0
 20
25.636
  7
TEXTSTYLE_2
 40
2.8
  1
Scale :
 41
0.6
 51
0.000019
 72
0
  0
TEXT
  8
0
 62
5
  6
CONTINUOUS
 10
116.0
 20
25.636
  7
TEXTSTYLE_2
 40
2.8
  1
Belt type:
 41
0.6
 51
0.000019
 72
0
  0
INSERT
  8
0
 62
2
  6
CONTINUOUS
  2
SYMBOL_3_BL0
 10
32.1213064866
 20
19.8534310916
  0
INSERT
  8
0
 62
2
  6
CONTINUOUS
  2
SYMBOL_8_BL1
 10
173.5956734183
 20
35.5937998301
  0
LINE
  8
0
 62
2
  6
CONTINUOUS
 10
10.0
 20
30.0
 11
200.0
 21
30.0
  0
LINE
  8
0
 62
2
  6
CONTINUOUS
 10
10.0
 20
30.0
 11
10.0
 21
10.0
  0
LINE
  8
0
 62
2
  6
CONTINUOUS
 10
10.0
 20
10.0
 11
200.0
 21
10.0
  0
LINE
  8
0
 62
2
  6
CONTINUOUS
 10
95.0
 20
30.0
 11
95.0
 21
10.0
  0
LINE
  8
0
 62
2
  6
CONTINUOUS
 10
115.0
 20
30.0
 11
115.0
 21
10.0
  0
LINE
  8
0
 62
2
  6
CONTINUOUS
 10
200.0
 20
30.0
 11
200.0
 21
10.0
  0
TEXT
  8
0
 62
5
  6
CONTINUOUS
 10
13.0
 20
23.303
  7
TEXTSTYLE_5
 40
1.52
  1
                                                                     Ammeraal Beltech Modular A/S
 41
1.0
 72
0
  0
TEXT
  8
0
 62
5
  6
CONTINUOUS
 10
13.0
 20
20.595
  7
TEXTSTYLE_5
 40
1.5
  1
                                                                      Hjulmagervej 21,  7100 Vejle,  DK
 41
1.0
 72
0
  0
TEXT
  8
0
 62
5
  6
CONTINUOUS
 10
13.0
 20
17.881
  7
TEXTSTYLE_5
 40
1.495
  1
                                                                      tel: 
 41
1.0
 72
0
  0
TEXT
  8
0
 62
5
  6
CONTINUOUS
 10
57.9869465649
 20
17.881
  7
TEXTSTYLE_5
 40
1.51
  1
+45 75723100     fax: +45 75723348
 41
1.0
 72
0
  0
TEXT
  8
0
 62
5
  6
CONTINUOUS
 10
13.0
 20
15.177
  7
TEXTSTYLE_5
 40
1.5
  1
                                                                      admin@unichains.dk  www.unichains.com
 41
1.0
 72
0
  0
TEXT
  8
0
 62
5
  6
CONTINUOUS
 10
99.75
 20
13.75
  7
TEXTSTYLE_6
 40
5.0
  1
1:1
 41
0.7
 72
1
 11
105.0
 21
13.75
  0
TEXT
  8
0
 62
5
  6
CONTINUOUS
 10
118.0
 20
13.75
  7
TEXTSTYLE_7
 40
7.5
  1
uni Light 10-K450 
 41
0.6148148148
 72
0
  0
LINE
  8
0
 62
7
  6
CONTINUOUS
 10
210.0
 20
0.0
 11
0.0
 21
0.0
  0
LINE
  8
0
 62
7
  6
CONTINUOUS
 10
10.0
 20
10.0
 11
200.0
 21
10.0
  0
LINE
  8
0
 62
7
  6
CONTINUOUS
 10
10.0
 20
30.0
 11
200.0
 21
30.0
  0
LINE
  8
0
 62
7
  6
CONTINUOUS
 10
0.0
 20
0.0
 11
0.0
 21
297.0
  0
LINE
  8
0
 62
7
  6
CONTINUOUS
 10
10.0
 20
10.0
 11
10.0
 21
287.0
  0
LINE
  8
0
 62
7
  6
CONTINUOUS
 10
200.0
 20
287.0
 11
200.0
 21
10.0
  0
LINE
  8
0
 62
7
  6
CONTINUOUS
 10
210.0
 20
0.0
 11
210.0
 21
297.0
  0
LINE
  8
0
 62
7
  6
CONTINUOUS
 10
10.0
 20
287.0
 11
200.0
 21
287.0
  0
LINE
  8
0
 62
7
  6
CONTINUOUS
 10
0.0
 20
297.0
 11
210.0
 21
297.0
  0
LINE
  8
0
 62
7
  6
CONTINUOUS
 10
26.4899653979
 20
186.358304969
 11
26.4899653979
 21
192.158304969
  0
LINE
  8
0
 62
7
  6
CONTINUOUS
 10
26.6899653979
 20
184.6583068257
 11
26.6899653979
 21
192.158304969
  0
LINE
  8
0
 62
7
  6
CONTINUOUS
 10
30.6399653979
 20
184.658304969
 11
30.6399653979
 21
192.158304969
  0
POLYLINE
  8
0
 62
7
  6
CONTINUOUS
 66
1
 70
0
  0
VERTEX
  8
0
 62
7
  6
CONTINUOUS
 10
30.6399653979
 20
189.8935816643
  0
VERTEX
  8
0
 62
7
  6
CONTINUOUS
 10
30.6420136129
 20
189.8495028155
  0
VERTEX
  8
0
 62
7
  6
CONTINUOUS
 10
30.6482047884
 20
189.8043274385
  0
VERTEX
  8
0
 62
7
  6
CONTINUOUS
 10
30.658612912
 20
189.758304969
  0
SEQEND
  0
LINE
  8
0
 62
7
  6
CONTINUOUS
 10
33.2899653979
 20
189.758304969
 11
33.2899653979
 21
184.658304969
  0
LINE
  8
2_FEATURE
 62
7
  6
CONTINUOUS
 10
38.4399653979
 20
185.3643214857
 11
38.4399653979
 21
184.158304969
  0
LINE
  8
0
 62
7
  6
CONTINUOUS
 10
38.8399653979
 20
187.9013870979
 11
38.8399653979
 21
184.658304969
  0
LINE
  8
0
 62
7
  6
CONTINUOUS
 10
40.7899653979
 20
192.158304969
 11
40.7899653979
 21
184.658304969
  0
POLYLINE
  8
2_FEATURE
 62
7
  6
CONTINUOUS
 66
1
 70
0
  0
VERTEX
  8
2_FEATURE
 62
7
  6
CONTINUOUS
 10
38.4399653979
 20
185.3643214857
  0
VERTEX
  8
2_FEATURE
 62
7
  6
CONTINUOUS
 10
38.4501065621
 20
185.4305073319
  0
VERTEX
  8
2_FEATURE
 62
7
  6
CONTINUOUS
 10
38.4734595918
 20
185.477790001
  0
VERTEX
  8
2_FEATURE
 62
7
  6
CONTINUOUS
 10
38.5034231287
 20
185.5077851991
  0
VERTEX
  8
2_FEATURE
 62
7
  6
CONTINUOUS
 10
38.5357595275
 20
185.5219985829
  0
VERTEX
  8
2_FEATURE
 62
7
  6
CONTINUOUS
 10
38.5697285285
 20
185.5226854178
  0
VERTEX
  8
2_FEATURE
 62
7
  6
CONTINUOUS
 10
38.5876169572
 20
185.5180005243
  0
VERTEX
  8
2_FEATURE
 62
7
  6
CONTINUOUS
 10
38.6238474647
 20
185.4985246888
  0
VERTEX
  8
2_FEATURE
 62
7
  6
CONTINUOUS
 10
38.6622462643
 20
185.4633372256
  0
VERTEX
  8
2_FEATURE
 62
7
  6
CONTINUOUS
 10
38.7017562515
 20
185.4104089261
  0
VERTEX
  8
2_FEATURE
 62
7
  6
CONTINUOUS
 10
38.7392445035
 20
185.3417564121
  0
VERTEX
  8
2_FEATURE
 62
7
  6
CONTINUOUS
 10
38.7754704338
 20
185.2525727385
  0
SEQEND
  0
POLYLINE
  8
0
 62
7
  6
CONTINUOUS
 66
1
 70
0
  0
VERTEX
  8
0
 62
7
  6
CONTINUOUS
 10
40.7797271472
 20
189.758304969
  0
VERTEX
  8
0
 62
7
  6
CONTINUOUS
 10
40.7854302705
 20
189.7922421963
  0
VERTEX
  8
0
 62
7
  6
CONTINUOUS
 10
40.7888354717
 20
189.8258349517
  0
VERTEX
  8
0
 62
7
  6
CONTINUOUS
 10
40.7899653979
 20
189.8589699029
  0
SEQEND
  0
POLYLINE
  8
2_FEATURE
 62
7
  6
CONTINUOUS
 66
1
 70
0
  0
VERTEX
  8
2_FEATURE
 62
7
  6
CONTINUOUS
 10
38.7754704338
 20
185.2525727385
  0
VERTEX
  8
2_FEATURE
 62
7
  6
CONTINUOUS
 10
38.8181116566
 20
185.0985992445
  0
VERTEX
  8
2_FEATURE
 62
7
  6
CONTINUOUS
 10
38.8306949452
 20
185.0251813082
  0
VERTEX
  8
2_FEATURE
 62
7
  6
CONTINUOUS
 10
38.8399653979
 20
184.8924512489
  0
SEQEND
  0
POLYLINE
  8
0
 62
7
  6
CONTINUOUS
 66
1
 70
0
  0
VERTEX
  8
0
 62
7
  6
CONTINUOUS
 10
30.6399653979
 20
187.594576344
  0
VERTEX
  8
0
 62
7
  6
CONTINUOUS
 10
30.6304440884
 20
187.582959335
  0
VERTEX
  8
0
 62
7
  6
CONTINUOUS
 10
30.6021968932
 20
187.5719076724
  0
VERTEX
  8
0
 62
7
  6
CONTINUOUS
 10
30.5562283294
 20
187.5618175259
  0
VERTEX
  8
0
 62
7
  6
CONTINUOUS
 10
30.4942279538
 20
187.553043007
  0
VERTEX
  8
0
 62
7
  6
CONTINUOUS
 10
30.4185193386
 20
187.5458869651
  0
VERTEX
  8
0
 62
7
  6
CONTINUOUS
 10
30.3319777893
 20
187.5405934901
  0
VERTEX
  8
0
 62
7
  6
CONTINUOUS
 10
30.23791903
 20
187.5373423193
  0
VERTEX
  8
0
 62
7
  6
CONTINUOUS
 10
30.1399653979
 20
187.5362453
  0
SEQEND
  0
POLYLINE
  8
0
 62
7
  6
CONTINUOUS
 66
1
 70
0
  0
VERTEX
  8
0
 62
7
  6
CONTINUOUS
 10
30.6399653979
 20
189.4220335939
  0
VERTEX
  8
0
 62
7
  6
CONTINUOUS
 10
30.6304440884
 20
189.4336506029
  0
VERTEX
  8
0
 62
7
  6
CONTINUOUS
 10
30.6021968932
 20
189.4447022656
  0
VERTEX
  8
0
 62
7
  6
CONTINUOUS
 10
30.5562283294
 20
189.454792412
  0
VERTEX
  8
0
 62
7
  6
CONTINUOUS
 10
30.4942279538
 20
189.4635669309
  0
VERTEX
  8
0
 62
7
  6
CONTINUOUS
 10
30.4185193386
 20
189.4707229729
  0
VERTEX
  8
0
 62
7
  6
CONTINUOUS
 10
30.3319777893
 20
189.4760164479
  0
VERTEX
  8
0
 62
7
  6
CONTINUOUS
 10
30.23791903
 20
189.4792676186
  0
VERTEX
  8
0
 62
7
  6
CONTINUOUS
 10
30.1399653979
 20
189.4803646379
  0
SEQEND
  0
POLYLINE
  8
0
 62
7
  6
CONTINUOUS
 66
1
 70
0
  0
VERTEX
  8
0
 62
7
  6
CONTINUOUS
 10
49.9899653979
 20
189.8589699029
  0
VERTEX
  8
0
 62
7
  6
CONTINUOUS
 10
49.9910955085
 20
189.8258322335
  0
VERTEX
  8
0
 62
7
  6
CONTINUOUS
 10
49.9945009319
 20
189.7922391782
  0
VERTEX
  8
0
 62
7
  6
CONTINUOUS
 10
50.0002036486
 20
189.758304969
  0
SEQEND
  0
LINE
  8
0
 62
7
  6
CONTINUOUS
 10
49.9899653979
 20
184.658304969
 11
49.9899653979
 21
192.158304969
  0
LINE
  8
0
 62
7
  6
CONTINUOUS
 10
51.9399653979
 20
187.9013873267
 11
51.9399653979
 21
184.658304969
  0
POLYLINE
  8
0
 62
7
  6
CONTINUOUS
 66
1
 70
0
  0
VERTEX
  8
0
 62
7
  6
CONTINUOUS
 10
40.7899653979
 20
189.4220335939
  0
VERTEX
  8
0
 62
7
  6
CONTINUOUS
 10
40.7994867075
 20
189.4336506029
  0
VERTEX
  8
0
 62
7
  6
CONTINUOUS
 10
40.8277339026
 20
189.4447022656
  0
VERTEX
  8
0
 62
7
  6
CONTINUOUS
 10
40.8737024665
 20
189.454792412
  0
VERTEX
  8
0
 62
7
  6
CONTINUOUS
 10
40.935702842
 20
189.4635669309
  0
VERTEX
  8
0
 62
7
  6
CONTINUOUS
 10
41.0114114573
 20
189.4707229729
  0
VERTEX
  8
0
 62
7
  6
CONTINUOUS
 10
41.0979530065
 20
189.4760164479
  0
VERTEX
  8
0
 62
7
  6
CONTINUOUS
 10
41.1920117659
 20
189.4792676186
  0
VERTEX
  8
0
 62
7
  6
CONTINUOUS
 10
41.2899653979
 20
189.4803646379
  0
SEQEND
  0
POLYLINE
  8
0
 62
7
  6
CONTINUOUS
 66
1
 70
0
  0
VERTEX
  8
0
 62
7
  6
CONTINUOUS
 10
40.7899653979
 20
187.594576344
  0
VERTEX
  8
0
 62
7
  6
CONTINUOUS
 10
40.7994867075
 20
187.582959335
  0
VERTEX
  8
0
 62
7
  6
CONTINUOUS
 10
40.8277339026
 20
187.5719076724
  0
VERTEX
  8
0
 62
7
  6
CONTINUOUS
 10
40.8737024665
 20
187.5618175259
  0
VERTEX
  8
0
 62
7
  6
CONTINUOUS
 10
40.935702842
 20
187.553043007
  0
VERTEX
  8
0
 62
7
  6
CONTINUOUS
 10
41.0114114573
 20
187.5458869651
  0
VERTEX
  8
0
 62
7
  6
CONTINUOUS
 10
41.0979530065
 20
187.5405934901
  0
VERTEX
  8
0
 62
7
  6
CONTINUOUS
 10
41.1920117659
 20
187.5373423193
  0
VERTEX
  8
0
 62
7
  6
CONTINUOUS
 10
41.2899653979
 20
187.5362453
  0
SEQEND
  0
LINE
  8
0
 62
7
  6
CONTINUOUS
 10
57.9399653979
 20
187.9013869129
 11
57.9399653979
 21
184.658304969
  0
LINE
  8
0
 62
7
  6
CONTINUOUS
 10
59.8899653979
 20
184.658304969
 11
59.8899653979
 21
192.158304969
  0
POLYLINE
  8
0
 62
7
  6
CONTINUOUS
 66
1
 70
0
  0
VERTEX
  8
0
 62
7
  6
CONTINUOUS
 10
59.8797271472
 20
189.758304969
  0
VERTEX
  8
0
 62
7
  6
CONTINUOUS
 10
59.8854302705
 20
189.7922421963
  0
VERTEX
  8
0
 62
7
  6
CONTINUOUS
 10
59.8888354717
 20
189.8258349517
  0
VERTEX
  8
0
 62
7
  6
CONTINUOUS
 10
59.8899653979
 20
189.8589699029
  0
SEQEND
  0
POLYLINE
  8
0
 62
7
  6
CONTINUOUS
 66
1
 70
0
  0
VERTEX
  8
0
 62
7
  6
CONTINUOUS
 10
49.9899653979
 20
187.594576344
  0
VERTEX
  8
0
 62
7
  6
CONTINUOUS
 10
49.9804440884
 20
187.582959335
  0
VERTEX
  8
0
 62
7
  6
CONTINUOUS
 10
49.9521968932
 20
187.5719076724
  0
VERTEX
  8
0
 62
7
  6
CONTINUOUS
 10
49.9062283294
 20
187.5618175259
  0
VERTEX
  8
0
 62
7
  6
CONTINUOUS
 10
49.8442279538
 20
187.553043007
  0
VERTEX
  8
0
 62
7
  6
CONTINUOUS
 10
49.7685193386
 20
187.5458869651
  0
VERTEX
  8
0
 62
7
  6
CONTINUOUS
 10
49.6819777893
 20
187.5405934901
  0
VERTEX
  8
0
 62
7
  6
CONTINUOUS
 10
49.58791903
 20
187.5373423193
  0
VERTEX
  8
0
 62
7
  6
CONTINUOUS
 10
49.4899653979
 20
187.5362453
  0
SEQEND
  0
POLYLINE
  8
0
 62
7
  6
CONTINUOUS
 66
1
 70
0
  0
VERTEX
  8
0
 62
7
  6
CONTINUOUS
 10
49.9899653979
 20
189.4220335939
  0
VERTEX
  8
0
 62
7
  6
CONTINUOUS
 10
49.9804440884
 20
189.4336506029
  0
VERTEX
  8
0
 62
7
  6
CONTINUOUS
 10
49.9521968932
 20
189.4447022656
  0
VERTEX
  8
0
 62
7
  6
CONTINUOUS
 10
49.9062283294
 20
189.454792412
  0
VERTEX
  8
0
 62
7
  6
CONTINUOUS
 10
49.8442279538
 20
189.4635669309
  0
VERTEX
  8
0
 62
7
  6
CONTINUOUS
 10
49.7685193386
 20
189.4707229729
  0
VERTEX
  8
0
 62
7
  6
CONTINUOUS
 10
49.6819777893
 20
189.4760164479
  0
VERTEX
  8
0
 62
7
  6
CONTINUOUS
 10
49.58791903
 20
189.4792676186
  0
VERTEX
  8
0
 62
7
  6
CONTINUOUS
 10
49.4899653979
 20
189.4803646379
  0
SEQEND
  0
POLYLINE
  8
0
 62
7
  6
CONTINUOUS
 66
1
 70
0
  0
VERTEX
  8
0
 62
7
  6
CONTINUOUS
 10
59.8899653979
 20
189.4220335939
  0
VERTEX
  8
0
 62
7
  6
CONTINUOUS
 10
59.8994867075
 20
189.4336506029
  0
VERTEX
  8
0
 62
7
  6
CONTINUOUS
 10
59.9277339026
 20
189.4447022656
  0
VERTEX
  8
0
 62
7
  6
CONTINUOUS
 10
59.9737024665
 20
189.454792412
  0
VERTEX
  8
0
 62
7
  6
CONTINUOUS
 10
60.035702842
 20
189.4635669309
  0
VERTEX
  8
0
 62
7
  6
CONTINUOUS
 10
60.1114114573
 20
189.4707229729
  0
VERTEX
  8
0
 62
7
  6
CONTINUOUS
 10
60.1979530065
 20
189.4760164479
  0
VERTEX
  8
0
 62
7
  6
CONTINUOUS
 10
60.2920117659
 20
189.4792676186
  0
VERTEX
  8
0
 62
7
  6
CONTINUOUS
 10
60.3899653979
 20
189.4803646379
  0
SEQEND
  0
POLYLINE
  8
0
 62
7
  6
CONTINUOUS
 66
1
 70
0
  0
VERTEX
  8
0
 62
7
  6
CONTINUOUS
 10
59.8899653979
 20
187.594576344
  0
VERTEX
  8
0
 62
7
  6
CONTINUOUS
 10
59.8994867075
 20
187.582959335
  0
VERTEX
  8
0
 62
7
  6
CONTINUOUS
 10
59.9277339026
 20
187.5719076724
  0
VERTEX
  8
0
 62
7
  6
CONTINUOUS
 10
59.9737024665
 20
187.5618175259
  0
VERTEX
  8
0
 62
7
  6
CONTINUOUS
 10
60.035702842
 20
187.553043007
  0
VERTEX
  8
0
 62
7
  6
CONTINUOUS
 10
60.1114114573
 20
187.5458869651
  0
VERTEX
  8
0
 62
7
  6
CONTINUOUS
 10
60.1979530065
 20
187.5405934901
  0
VERTEX
  8
0
 62
7
  6
CONTINUOUS
 10
60.2920117659
 20
187.5373423193
  0
VERTEX
  8
0
 62
7
  6
CONTINUOUS
 10
60.3899653979
 20
187.5362453
  0
SEQEND
  0
POLYLINE
  8
0
 62
7
  6
CONTINUOUS
 66
1
 70
0
  0
VERTEX
  8
0
 62
7
  6
CONTINUOUS
 10
69.0899653979
 20
189.8589699029
  0
VERTEX
  8
0
 62
7
  6
CONTINUOUS
 10
69.0910955085
 20
189.8258322335
  0
VERTEX
  8
0
 62
7
  6
CONTINUOUS
 10
69.0945009319
 20
189.7922391782
  0
VERTEX
  8
0
 62
7
  6
CONTINUOUS
 10
69.1002036486
 20
189.758304969
  0
SEQEND
  0
LINE
  8
0
 62
7
  6
CONTINUOUS
 10
69.0899653979
 20
184.658304969
 11
69.0899653979
 21
192.158304969
  0
LINE
  8
0
 62
7
  6
CONTINUOUS
 10
71.0399653979
 20
187.9013873267
 11
71.0399653979
 21
184.658304969
  0
POLYLINE
  8
0
 62
7
  6
CONTINUOUS
 66
1
 70
0
  0
VERTEX
  8
0
 62
7
  6
CONTINUOUS
 10
69.0899653979
 20
187.594576344
  0
VERTEX
  8
0
 62
7
  6
CONTINUOUS
 10
69.0804440884
 20
187.582959335
  0
VERTEX
  8
0
 62
7
  6
CONTINUOUS
 10
69.0521968932
 20
187.5719076724
  0
VERTEX
  8
0
 62
7
  6
CONTINUOUS
 10
69.0062283294
 20
187.5618175259
  0
VERTEX
  8
0
 62
7
  6
CONTINUOUS
 10
68.9442279538
 20
187.553043007
  0
VERTEX
  8
0
 62
7
  6
CONTINUOUS
 10
68.8685193386
 20
187.5458869651
  0
VERTEX
  8
0
 62
7
  6
CONTINUOUS
 10
68.7819777893
 20
187.5405934901
  0
VERTEX
  8
0
 62
7
  6
CONTINUOUS
 10
68.68791903
 20
187.5373423193
  0
VERTEX
  8
0
 62
7
  6
CONTINUOUS
 10
68.5899653979
 20
187.5362453
  0
SEQEND
  0
POLYLINE
  8
0
 62
7
  6
CONTINUOUS
 66
1
 70
0
  0
VERTEX
  8
0
 62
7
  6
CONTINUOUS
 10
69.0899653979
 20
189.4220335939
  0
VERTEX
  8
0
 62
7
  6
CONTINUOUS
 10
69.0804440884
 20
189.4336506029
  0
VERTEX
  8
0
 62
7
  6
CONTINUOUS
 10
69.0521968932
 20
189.4447022656
  0
VERTEX
  8
0
 62
7
  6
CONTINUOUS
 10
69.0062283294
 20
189.454792412
  0
VERTEX
  8
0
 62
7
  6
CONTINUOUS
 10
68.9442279538
 20
189.4635669309
  0
VERTEX
  8
0
 62
7
  6
CONTINUOUS
 10
68.8685193386
 20
189.4707229729
  0
VERTEX
  8
0
 62
7
  6
CONTINUOUS
 10
68.7819777893
 20
189.4760164479
  0
VERTEX
  8
0
 62
7
  6
CONTINUOUS
 10
68.68791903
 20
189.4792676186
  0
VERTEX
  8
0
 62
7
  6
CONTINUOUS
 10
68.5899653979
 20
189.4803646379
  0
SEQEND
  0
POLYLINE
  8
1_AXIS
 62
7
  6
CONTINUOUS
 66
1
 70
0
  0
VERTEX
  8
1_AXIS
 62
7
  6
CONTINUOUS
 10
74.8499653979
 20
184.2225757428
  0
VERTEX
  8
1_AXIS
 62
7
  6
CONTINUOUS
 10
74.8677526496
 20
184.1972788184
  0
VERTEX
  8
1_AXIS
 62
7
  6
CONTINUOUS
 10
74.9200715647
 20
184.1791242915
  0
VERTEX
  8
1_AXIS
 62
7
  6
CONTINUOUS
 10
75.0046435616
 20
184.1675706924
  0
VERTEX
  8
1_AXIS
 62
7
  6
CONTINUOUS
 10
75.1179727899
 20
184.1613761053
  0
VERTEX
  8
1_AXIS
 62
7
  6
CONTINUOUS
 10
75.2550194455
 20
184.15886776
  0
VERTEX
  8
1_AXIS
 62
7
  6
CONTINUOUS
 10
75.4092829231
 20
184.1583126396
  0
SEQEND
  0
LINE
  8
0
 62
7
  6
CONTINUOUS
 10
77.0399653979
 20
187.9013937933
 11
77.0399653979
 21
184.658304969
  0
LINE
  8
0
 62
7
  6
CONTINUOUS
 10
78.9899653979
 20
184.658304969
 11
78.9899653979
 21
192.158304969
  0
POLYLINE
  8
0
 62
7
  6
CONTINUOUS
 66
1
 70
0
  0
VERTEX
  8
0
 62
7
  6
CONTINUOUS
 10
78.9797271472
 20
189.758304969
  0
VERTEX
  8
0
 62
7
  6
CONTINUOUS
 10
78.9854302705
 20
189.7922421963
  0
VERTEX
  8
0
 62
7
  6
CONTINUOUS
 10
78.9888354717
 20
189.8258349517
  0
VERTEX
  8
0
 62
7
  6
CONTINUOUS
 10
78.9899653979
 20
189.8589699029
  0
SEQEND
  0
POLYLINE
  8
1_AXIS
 62
7
  6
CONTINUOUS
 66
1
 70
0
  0
VERTEX
  8
1_AXIS
 62
7
  6
CONTINUOUS
 10
74.8499653979
 20
184.2225757428
  0
VERTEX
  8
1_AXIS
 62
7
  6
CONTINUOUS
 10
74.8669621664
 20
184.2535642541
  0
VERTEX
  8
1_AXIS
 62
7
  6
CONTINUOUS
 10
74.9177308272
 20
184.2893764417
  0
VERTEX
  8
1_AXIS
 62
7
  6
CONTINUOUS
 10
75.0003132012
 20
184.3272239706
  0
VERTEX
  8
1_AXIS
 62
7
  6
CONTINUOUS
 10
75.110432418
 20
184.3634294198
  0
VERTEX
  8
1_AXIS
 62
7
  6
CONTINUOUS
 10
75.2413174029
 20
184.3940340242
  0
VERTEX
  8
1_AXIS
 62
7
  6
CONTINUOUS
 10
75.3859086057
 20
184.41597532
  0
VERTEX
  8
1_AXIS
 62
7
  6
CONTINUOUS
 10
75.537846874
 20
184.4273548542
  0
VERTEX
  8
1_AXIS
 62
7
  6
CONTINUOUS
 10
75.6920624745
 20
184.4273556561
  0
VERTEX
  8
1_AXIS
 62
7
  6
CONTINUOUS
 10
75.8439982022
 20
184.4159780329
  0
VERTEX
  8
1_AXIS
 62
7
  6
CONTINUOUS
 10
75.9885917172
 20
184.3940381895
  0
VERTEX
  8
1_AXIS
 62
7
  6
CONTINUOUS
 10
76.1194745831
 20
184.3634360684
  0
VERTEX
  8
1_AXIS
 62
7
  6
CONTINUOUS
 10
76.2296198197
 20
184.3272231084
  0
VERTEX
  8
1_AXIS
 62
7
  6
CONTINUOUS
 10
76.312197134
 20
184.2893780189
  0
VERTEX
  8
1_AXIS
 62
7
  6
CONTINUOUS
 10
76.3629674358
 20
184.2535654388
  0
VERTEX
  8
1_AXIS
 62
7
  6
CONTINUOUS
 10
76.3799653979
 20
184.2225757428
  0
SEQEND
  0
POLYLINE
  8
0
 62
7
  6
CONTINUOUS
 66
1
 70
0
  0
VERTEX
  8
0
 62
7
  6
CONTINUOUS
 10
78.9899653979
 20
189.4220335939
  0
VERTEX
  8
0
 62
7
  6
CONTINUOUS
 10
78.9994867075
 20
189.4336506029
  0
VERTEX
  8
0
 62
7
  6
CONTINUOUS
 10
79.0277339026
 20
189.4447022656
  0
VERTEX
  8
0
 62
7
  6
CONTINUOUS
 10
79.0737024665
 20
189.454792412
  0
VERTEX
  8
0
 62
7
  6
CONTINUOUS
 10
79.135702842
 20
189.4635669309
  0
VERTEX
  8
0
 62
7
  6
CONTINUOUS
 10
79.2114114573
 20
189.4707229729
  0
VERTEX
  8
0
 62
7
  6
CONTINUOUS
 10
79.2979530065
 20
189.4760164479
  0
VERTEX
  8
0
 62
7
  6
CONTINUOUS
 10
79.3920117659
 20
189.4792676186
  0
VERTEX
  8
0
 62
7
  6
CONTINUOUS
 10
79.4899653979
 20
189.4803646379
  0
SEQEND
  0
LINE
  8
2_FEATURE
 62
7
  6
CONTINUOUS
 10
94.6274653979
 20
184.1839382321
 11
94.5399654814
 21
184.1702840899
  0
LINE
  8
2_FEATURE
 62
7
  6
CONTINUOUS
 10
92.6587153979
 20
184.1839382321
 11
92.5712153562
 21
184.1702840899
  0
LINE
  8
2_FEATURE
 62
7
  6
CONTINUOUS
 10
94.8899653979
 20
184.1764656477
 11
94.7587153979
 21
184.1594362723
  0
LINE
  8
2_FEATURE
 62
7
  6
CONTINUOUS
 10
92.9212153979
 20
184.1764656477
 11
92.7899653979
 21
184.1594362723
  0
POLYLINE
  8
2_FEATURE
 62
7
  6
CONTINUOUS
 66
1
 70
0
  0
VERTEX
  8
2_FEATURE
 62
7
  6
CONTINUOUS
 10
94.7587153979
 20
184.3594908082
  0
VERTEX
  8
2_FEATURE
 62
7
  6
CONTINUOUS
 10
94.8025359742
 20
184.3630622784
  0
VERTEX
  8
2_FEATURE
 62
7
  6
CONTINUOUS
 10
94.8137628553
 20
184.3645896542
  0
SEQEND
  0
POLYLINE
  8
2_FEATURE
 62
7
  6
CONTINUOUS
 66
1
 70
0
  0
VERTEX
  8
2_FEATURE
 62
7
  6
CONTINUOUS
 10
92.7899653979
 20
184.3594908082
  0
VERTEX
  8
2_FEATURE
 62
7
  6
CONTINUOUS
 10
92.8337859742
 20
184.3630622784
  0
VERTEX
  8
2_FEATURE
 62
7
  6
CONTINUOUS
 10
92.8450128553
 20
184.3645896542
  0
SEQEND
  0
LINE
  8
2_FEATURE
 62
7
  6
CONTINUOUS
 10
94.5399654814
 20
184.1702840899
 11
94.4087154814
 21
184.1653880459
  0
LINE
  8
2_FEATURE
 62
7
  6
CONTINUOUS
 10
92.5712153562
 20
184.1702840899
 11
92.4399653562
 21
184.1653880459
  0
POLYLINE
  8
1_AXIS
 62
7
  6
CONTINUOUS
 66
1
 70
0
  0
VERTEX
  8
1_AXIS
 62
7
  6
CONTINUOUS
 10
75.9749438258
 20
184.3588951783
  0
VERTEX
  8
1_AXIS
 62
7
  6
CONTINUOUS
 10
76.1119860069
 20
184.3615251673
  0
VERTEX
  8
1_AXIS
 62
7
  6
CONTINUOUS
 10
76.1233123855
 20
184.3621742963
  0
SEQEND
  0
LINE
  8
2_FEATURE
 62
7
  6
CONTINUOUS
 10
94.7003820024
 20
184.3583786769
 11
94.7587153979
 21
184.3594908082
  0
LINE
  8
2_FEATURE
 62
7
  6
CONTINUOUS
 10
92.7316320441
 20
184.3583786769
 11
92.7899653979
 21
184.3594908082
  0
POLYLINE
  8
1_AXIS
 62
7
  6
CONTINUOUS
 66
1
 70
0
  0
VERTEX
  8
1_AXIS
 62
7
  6
CONTINUOUS
 10
75.9748958114
 20
184.1588676268
  0
VERTEX
  8
1_AXIS
 62
7
  6
CONTINUOUS
 10
76.1119460627
 20
184.1613757216
  0
VERTEX
  8
1_AXIS
 62
7
  6
CONTINUOUS
 10
76.2252791921
 20
184.1675699967
  0
VERTEX
  8
1_AXIS
 62
7
  6
CONTINUOUS
 10
76.3098550606
 20
184.179123402
  0
VERTEX
  8
1_AXIS
 62
7
  6
CONTINUOUS
 10
76.3621769795
 20
184.1972781021
  0
VERTEX
  8
1_AXIS
 62
7
  6
CONTINUOUS
 10
76.3799653979
 20
184.2225757428
  0
SEQEND
  0
POLYLINE
  8
2_FEATURE
 62
7
  6
CONTINUOUS
 66
1
 70
0
  0
VERTEX
  8
2_FEATURE
 62
7
  6
CONTINUOUS
 10
94.7587153979
 20
184.1594362723
  0
VERTEX
  8
2_FEATURE
 62
7
  6
CONTINUOUS
 10
94.7003818797
 20
184.1583752871
  0
VERTEX
  8
2_FEATURE
 62
7
  6
CONTINUOUS
 10
94.6810072271
 20
184.1583049889
  0
SEQEND
  0
POLYLINE
  8
2_FEATURE
 62
7
  6
CONTINUOUS
 66
1
 70
0
  0
VERTEX
  8
2_FEATURE
 62
7
  6
CONTINUOUS
 10
92.7899653979
 20
184.1594362723
  0
VERTEX
  8
2_FEATURE
 62
7
  6
CONTINUOUS
 10
92.7316319215
 20
184.1583752871
  0
VERTEX
  8
2_FEATURE
 62
7
  6
CONTINUOUS
 10
92.7122572827
 20
184.1583049889
  0
SEQEND
  0
LINE
  8
1_AXIS
 62
7
  6
CONTINUOUS
 10
75.7839804605
 20
184.1583051063
 11
75.9748958114
 21
184.1588676268
  0
LINE
  8
1_AXIS
 62
7
  6
CONTINUOUS
 10
75.7839844451
 20
184.3583051134
 11
75.9749438258
 21
184.3588951783
  0
LINE
  8
2_FEATURE
 62
7
  6
CONTINUOUS
 10
128.8399653979
 20
184.158304969
 11
128.7399653979
 21
184.158304969
  0
LINE
  8
2_FEATURE
 62
7
  6
CONTINUOUS
 10
38.4399653979
 20
184.158304969
 11
38.3399653979
 21
184.158304969
  0
LINE
  8
0
 62
7
  6
CONTINUOUS
 10
27.1899653979
 20
184.158304969
 11
38.3399653979
 21
184.158304969
  0
LINE
  8
0
 62
7
  6
CONTINUOUS
 10
39.3399653979
 20
184.158304969
 11
75.446199623
 21
184.158304969
  0
LINE
  8
0
 62
7
  6
CONTINUOUS
 10
75.7837316005
 20
184.158304969
 11
91.3462153979
 21
184.158304969
  0
LINE
  8
0
 62
7
  6
CONTINUOUS
 10
92.7899653979
 20
184.158304969
 11
93.3149653979
 21
184.158304969
  0
LINE
  8
0
 62
7
  6
CONTINUOUS
 10
94.7587153979
 20
184.158304969
 11
127.8399653979
 21
184.158304969
  0
LINE
  8
0
 62
7
  6
CONTINUOUS
 10
128.8399653979
 20
184.158304969
 11
139.9899653979
 21
184.158304969
  0
LINE
  8
2_FEATURE
 62
7
  6
CONTINUOUS
 10
91.6087153979
 20
184.1628441009
 11
92.3962153979
 21
184.1628441009
  0
LINE
  8
2_FEATURE
 62
7
  6
CONTINUOUS
 10
93.5774653979
 20
184.1628441009
 11
94.3649653979
 21
184.1628441009
  0
LINE
  8
2_FEATURE
 62
7
  6
CONTINUOUS
 10
91.6087153979
 20
184.1653880459
 11
92.4399653562
 21
184.1653880459
  0
LINE
  8
2_FEATURE
 62
7
  6
CONTINUOUS
 10
93.5774653979
 20
184.1653880459
 11
94.4087154814
 21
184.1653880459
  0
LINE
  8
2_FEATURE
 62
7
  6
CONTINUOUS
 10
91.3462153979
 20
184.358304969
 11
91.6087153979
 21
184.358304969
  0
LINE
  8
2_FEATURE
 62
7
  6
CONTINUOUS
 10
92.7024653562
 20
184.358304969
 11
92.7316320441
 21
184.3583786769
  0
LINE
  8
2_FEATURE
 62
7
  6
CONTINUOUS
 10
93.3149653979
 20
184.358304969
 11
93.5774653979
 21
184.358304969
  0
LINE
  8
2_FEATURE
 62
7
  6
CONTINUOUS
 10
94.6712154814
 20
184.358304969
 11
94.7003820024
 21
184.3583786769
  0
LINE
  8
2_FEATURE
 62
7
  6
CONTINUOUS
 10
91.6087153979
 20
184.3780702038
 11
92.4399653562
 21
184.3780702038
  0
LINE
  8
2_FEATURE
 62
7
  6
CONTINUOUS
 10
93.5774653979
 20
184.3780702038
 11
94.4087154814
 21
184.3780702038
  0
LINE
  8
2_FEATURE
 62
7
  6
CONTINUOUS
 10
91.3462153979
 20
184.5203739578
 11
92.3962153979
 21
184.5203739578
  0
LINE
  8
2_FEATURE
 62
7
  6
CONTINUOUS
 10
93.3149653979
 20
184.5203739578
 11
94.3649653979
 21
184.5203739578
  0
LINE
  8
1_AXIS
 62
7
  6
CONTINUOUS
 10
75.4092829231
 20
184.1583126396
 11
75.7839804605
 21
184.1583051063
  0
POLYLINE
  8
2_FEATURE
 62
7
  6
CONTINUOUS
 66
1
 70
0
  0
VERTEX
  8
2_FEATURE
 62
7
  6
CONTINUOUS
 10
92.7122572827
 20
184.1583049889
  0
VERTEX
  8
2_FEATURE
 62
7
  6
CONTINUOUS
 10
92.6732901937
 20
184.1585894107
  0
VERTEX
  8
2_FEATURE
 62
7
  6
CONTINUOUS
 10
92.6149654396
 20
184.1600784529
  0
SEQEND
  0
POLYLINE
  8
2_FEATURE
 62
7
  6
CONTINUOUS
 66
1
 70
0
  0
VERTEX
  8
2_FEATURE
 62
7
  6
CONTINUOUS
 10
94.6810072271
 20
184.1583049889
  0
VERTEX
  8
2_FEATURE
 62
7
  6
CONTINUOUS
 10
94.6420401102
 20
184.1585894107
  0
VERTEX
  8
2_FEATURE
 62
7
  6
CONTINUOUS
 10
94.5837153145
 20
184.1600784529
  0
SEQEND
  0
LINE
  8
2_FEATURE
 62
7
  6
CONTINUOUS
 10
92.6149654396
 20
184.1600784529
 11
92.3962153979
 21
184.1628441009
  0
LINE
  8
2_FEATURE
 62
7
  6
CONTINUOUS
 10
94.5837153145
 20
184.1600784529
 11
94.3649653979
 21
184.1628441009
  0
POLYLINE
  8
1_AXIS
 62
7
  6
CONTINUOUS
 66
1
 70
0
  0
VERTEX
  8
1_AXIS
 62
7
  6
CONTINUOUS
 10
75.1066154098
 20
184.3621744481
  0
VERTEX
  8
1_AXIS
 62
7
  6
CONTINUOUS
 10
75.1179437268
 20
184.3615252031
  0
VERTEX
  8
1_AXIS
 62
7
  6
CONTINUOUS
 10
75.2549856664
 20
184.3588951901
  0
VERTEX
  8
1_AXIS
 62
7
  6
CONTINUOUS
 10
75.4092709328
 20
184.3583130159
  0
VERTEX
  8
1_AXIS
 62
7
  6
CONTINUOUS
 10
75.7837361827
 20
184.358304969
  0
SEQEND
  0
POLYLINE
  8
0
 62
7
  6
CONTINUOUS
 66
1
 70
0
  0
VERTEX
  8
0
 62
7
  6
CONTINUOUS
 10
78.9899653979
 20
187.594576344
  0
VERTEX
  8
0
 62
7
  6
CONTINUOUS
 10
78.9994867075
 20
187.582959335
  0
VERTEX
  8
0
 62
7
  6
CONTINUOUS
 10
79.0277339026
 20
187.5719076724
  0
VERTEX
  8
0
 62
7
  6
CONTINUOUS
 10
79.0737024665
 20
187.5618175259
  0
VERTEX
  8
0
 62
7
  6
CONTINUOUS
 10
79.135702842
 20
187.553043007
  0
VERTEX
  8
0
 62
7
  6
CONTINUOUS
 10
79.2114114573
 20
187.5458869651
  0
VERTEX
  8
0
 62
7
  6
CONTINUOUS
 10
79.2979530065
 20
187.5405934901
  0
VERTEX
  8
0
 62
7
  6
CONTINUOUS
 10
79.3920117659
 20
187.5373423193
  0
VERTEX
  8
0
 62
7
  6
CONTINUOUS
 10
79.4899653979
 20
187.5362453
  0
SEQEND
  0
LINE
  8
1_AXIS
 62
2
  6
CENTER
 10
83.5899653979
 20
181.6583044261
 11
83.5899653979
 21
195.1583055838
  0
LINE
  8
0
 62
7
  6
CONTINUOUS
 10
27.1899653979
 20
187.5362453
 11
30.1399653979
 21
187.5362453
  0
LINE
  8
0
 62
7
  6
CONTINUOUS
 10
41.2899653979
 20
187.5362453
 11
49.4899653979
 21
187.5362453
  0
LINE
  8
0
 62
7
  6
CONTINUOUS
 10
60.3899653979
 20
187.5362453
 11
68.5899653979
 21
187.5362453
  0
LINE
  8
0
 62
7
  6
CONTINUOUS
 10
79.4899653979
 20
187.5362453
 11
87.6899653979
 21
187.5362453
  0
LINE
  8
0
 62
7
  6
CONTINUOUS
 10
98.5899653979
 20
187.5362453
 11
106.7899653979
 21
187.5362453
  0
LINE
  8
0
 62
7
  6
CONTINUOUS
 10
117.6899653979
 20
187.5362453
 11
125.8899653979
 21
187.5362453
  0
LINE
  8
0
 62
7
  6
CONTINUOUS
 10
137.0399653979
 20
187.5362453
 11
139.9899653979
 21
187.5362453
  0
LINE
  8
1_AXIS
 62
2
  6
CENTER
 10
21.5206239446
 20
188.508304969
 11
147.2759734256
 21
188.508304969
  0
POLYLINE
  8
0
 62
7
  6
CONTINUOUS
 66
1
 70
0
  0
VERTEX
  8
0
 62
7
  6
CONTINUOUS
 10
27.1899653979
 20
187.5362453
  0
VERTEX
  8
0
 62
7
  6
CONTINUOUS
 10
27.0920117659
 20
187.5373423193
  0
VERTEX
  8
0
 62
7
  6
CONTINUOUS
 10
26.9979530065
 20
187.5405934901
  0
VERTEX
  8
0
 62
7
  6
CONTINUOUS
 10
26.9114114573
 20
187.5458869651
  0
VERTEX
  8
0
 62
7
  6
CONTINUOUS
 10
26.835702842
 20
187.553043007
  0
VERTEX
  8
0
 62
7
  6
CONTINUOUS
 10
26.7737024665
 20
187.5618175259
  0
VERTEX
  8
0
 62
7
  6
CONTINUOUS
 10
26.7277339026
 20
187.5719076724
  0
VERTEX
  8
0
 62
7
  6
CONTINUOUS
 10
26.6994867075
 20
187.582959335
  0
VERTEX
  8
0
 62
7
  6
CONTINUOUS
 10
26.6899653979
 20
187.594576344
  0
SEQEND
  0
LINE
  8
2_FEATURE
 62
7
  6
CONTINUOUS
 10
92.3962153979
 20
184.5203739578
 11
92.6149654396
 21
184.4887496676
  0
LINE
  8
2_FEATURE
 62
7
  6
CONTINUOUS
 10
94.3649653979
 20
184.5203739578
 11
94.5837153145
 21
184.4887496676
  0
LINE
  8
2_FEATURE
 62
7
  6
CONTINUOUS
 10
92.4399653562
 20
184.3780702038
 11
92.5712153562
 21
184.3541967203
  0
LINE
  8
2_FEATURE
 62
7
  6
CONTINUOUS
 10
94.4087154814
 20
184.3780702038
 11
94.5399654814
 21
184.3541967203
  0
LINE
  8
2_FEATURE
 62
7
  6
CONTINUOUS
 10
92.6149654396
 20
184.4887496676
 11
92.7899653979
 21
184.4034332171
  0
LINE
  8
2_FEATURE
 62
7
  6
CONTINUOUS
 10
92.5712153562
 20
184.3541967203
 11
92.6587153979
 21
184.3108182651
  0
POLYLINE
  8
0
 62
7
  6
CONTINUOUS
 66
1
 70
0
  0
VERTEX
  8
0
 62
7
  6
CONTINUOUS
 10
88.1899653979
 20
187.594576344
  0
VERTEX
  8
0
 62
7
  6
CONTINUOUS
 10
88.1804440884
 20
187.582959335
  0
VERTEX
  8
0
 62
7
  6
CONTINUOUS
 10
88.1521968932
 20
187.5719076724
  0
VERTEX
  8
0
 62
7
  6
CONTINUOUS
 10
88.1062283294
 20
187.5618175259
  0
VERTEX
  8
0
 62
7
  6
CONTINUOUS
 10
88.0442279538
 20
187.553043007
  0
VERTEX
  8
0
 62
7
  6
CONTINUOUS
 10
87.9685193386
 20
187.5458869651
  0
VERTEX
  8
0
 62
7
  6
CONTINUOUS
 10
87.8819777893
 20
187.5405934901
  0
VERTEX
  8
0
 62
7
  6
CONTINUOUS
 10
87.78791903
 20
187.5373423193
  0
VERTEX
  8
0
 62
7
  6
CONTINUOUS
 10
87.6899653979
 20
187.5362453
  0
SEQEND
  0
LINE
  8
0
 62
7
  6
CONTINUOUS
 10
126.9033276633
 20
190.2575600413
 11
126.9316508354
 21
190.258304969
  0
LINE
  8
0
 62
7
  6
CONTINUOUS
 10
107.8033276633
 20
190.2575600413
 11
107.8316508354
 21
190.258304969
  0
LINE
  8
0
 62
7
  6
CONTINUOUS
 10
88.7033276633
 20
190.2575600413
 11
88.7316508354
 21
190.258304969
  0
LINE
  8
0
 62
7
  6
CONTINUOUS
 10
69.6033276633
 20
190.2575600413
 11
69.6316508354
 21
190.258304969
  0
LINE
  8
0
 62
7
  6
CONTINUOUS
 10
50.5033276633
 20
190.2575600413
 11
50.5316508354
 21
190.258304969
  0
POLYLINE
  8
0
 62
7
  6
CONTINUOUS
 66
1
 70
0
  0
VERTEX
  8
0
 62
7
  6
CONTINUOUS
 10
27.1899653979
 20
189.4803646379
  0
VERTEX
  8
0
 62
7
  6
CONTINUOUS
 10
27.0920117659
 20
189.4792676186
  0
VERTEX
  8
0
 62
7
  6
CONTINUOUS
 10
26.9979530065
 20
189.4760164479
  0
VERTEX
  8
0
 62
7
  6
CONTINUOUS
 10
26.9114114573
 20
189.4707229729
  0
VERTEX
  8
0
 62
7
  6
CONTINUOUS
 10
26.835702842
 20
189.4635669309
  0
VERTEX
  8
0
 62
7
  6
CONTINUOUS
 10
26.7737024665
 20
189.454792412
  0
VERTEX
  8
0
 62
7
  6
CONTINUOUS
 10
26.7277339026
 20
189.4447022656
  0
VERTEX
  8
0
 62
7
  6
CONTINUOUS
 10
26.6994867075
 20
189.4336506029
  0
VERTEX
  8
0
 62
7
  6
CONTINUOUS
 10
26.6899653979
 20
189.4220335939
  0
SEQEND
  0
LINE
  8
0
 62
7
  6
CONTINUOUS
 10
27.1899653979
 20
189.4803646379
 11
30.1399653979
 21
189.4803646379
  0
LINE
  8
0
 62
7
  6
CONTINUOUS
 10
41.2899653979
 20
189.4803646379
 11
49.4899653979
 21
189.4803646379
  0
LINE
  8
0
 62
7
  6
CONTINUOUS
 10
60.3899653979
 20
189.4803646379
 11
68.5899653979
 21
189.4803646379
  0
LINE
  8
0
 62
7
  6
CONTINUOUS
 10
79.4899653979
 20
189.4803646379
 11
87.6899653979
 21
189.4803646379
  0
LINE
  8
0
 62
7
  6
CONTINUOUS
 10
98.5899653979
 20
189.4803646379
 11
106.7899653979
 21
189.4803646379
  0
LINE
  8
0
 62
7
  6
CONTINUOUS
 10
117.6899653979
 20
189.4803646379
 11
125.8899653979
 21
189.4803646379
  0
LINE
  8
0
 62
7
  6
CONTINUOUS
 10
137.0399653979
 20
189.4803646379
 11
139.9899653979
 21
189.4803646379
  0
LINE
  8
0
 62
7
  6
CONTINUOUS
 10
31.2020407094
 20
190.258304969
 11
40.2482799621
 21
190.258304969
  0
LINE
  8
0
 62
7
  6
CONTINUOUS
 10
50.5316508396
 20
190.258304969
 11
59.3482799621
 21
190.258304969
  0
LINE
  8
0
 62
7
  6
CONTINUOUS
 10
69.6316508396
 20
190.258304969
 11
78.4482799621
 21
190.258304969
  0
LINE
  8
0
 62
7
  6
CONTINUOUS
 10
88.7316508396
 20
190.258304969
 11
97.5482799621
 21
190.258304969
  0
LINE
  8
0
 62
7
  6
CONTINUOUS
 10
107.8316508396
 20
190.258304969
 11
116.6482799621
 21
190.258304969
  0
LINE
  8
0
 62
7
  6
CONTINUOUS
 10
126.9316508396
 20
190.258304969
 11
135.9778900863
 21
190.258304969
  0
LINE
  8
0
 62
7
  6
CONTINUOUS
 10
26.9899653979
 20
192.658304969
 11
140.1899653979
 21
192.658304969
  0
POLYLINE
  8
0
 62
7
  6
CONTINUOUS
 66
1
 70
0
  0
VERTEX
  8
0
 62
7
  6
CONTINUOUS
 10
139.9899653979
 20
189.4803646379
  0
VERTEX
  8
0
 62
7
  6
CONTINUOUS
 10
140.08791903
 20
189.4792676186
  0
VERTEX
  8
0
 62
7
  6
CONTINUOUS
 10
140.1819777893
 20
189.4760164479
  0
VERTEX
  8
0
 62
7
  6
CONTINUOUS
 10
140.2685193386
 20
189.4707229729
  0
VERTEX
  8
0
 62
7
  6
CONTINUOUS
 10
140.3442279538
 20
189.4635669309
  0
VERTEX
  8
0
 62
7
  6
CONTINUOUS
 10
140.4062283294
 20
189.454792412
  0
VERTEX
  8
0
 62
7
  6
CONTINUOUS
 10
140.4521968932
 20
189.4447022656
  0
VERTEX
  8
0
 62
7
  6
CONTINUOUS
 10
140.4804440884
 20
189.4336506029
  0
VERTEX
  8
0
 62
7
  6
CONTINUOUS
 10
140.4899653979
 20
189.4220335939
  0
SEQEND
  0
LINE
  8
0
 62
7
  6
CONTINUOUS
 10
40.2482799664
 20
190.258304969
 11
40.2766031325
 21
190.2575600413
  0
LINE
  8
0
 62
7
  6
CONTINUOUS
 10
59.3482799664
 20
190.258304969
 11
59.3766031325
 21
190.2575600413
  0
LINE
  8
0
 62
7
  6
CONTINUOUS
 10
78.4482799664
 20
190.258304969
 11
78.4766031325
 21
190.2575600413
  0
LINE
  8
0
 62
7
  6
CONTINUOUS
 10
97.5482799664
 20
190.258304969
 11
97.5766031325
 21
190.2575600413
  0
LINE
  8
0
 62
7
  6
CONTINUOUS
 10
116.6482799664
 20
190.258304969
 11
116.6766031325
 21
190.2575600413
  0
LINE
  8
2_FEATURE
 62
7
  6
CONTINUOUS
 10
94.5837153145
 20
184.4887496676
 11
94.7587153979
 21
184.4034332171
  0
LINE
  8
2_FEATURE
 62
7
  6
CONTINUOUS
 10
94.5399654814
 20
184.3541967203
 11
94.6274653979
 21
184.3108182651
  0
LINE
  8
2_FEATURE
 62
7
  6
CONTINUOUS
 10
92.7899653979
 20
184.4034332171
 11
92.9212153979
 21
184.3108182651
  0
LINE
  8
2_FEATURE
 62
7
  6
CONTINUOUS
 10
94.7587153979
 20
184.4034332171
 11
94.8899653979
 21
184.3108182651
  0
POLYLINE
  8
0
 62
7
  6
CONTINUOUS
 66
1
 70
0
  0
VERTEX
  8
0
 62
7
  6
CONTINUOUS
 10
88.1899653979
 20
189.4220335939
  0
VERTEX
  8
0
 62
7
  6
CONTINUOUS
 10
88.1804440884
 20
189.4336506029
  0
VERTEX
  8
0
 62
7
  6
CONTINUOUS
 10
88.1521968932
 20
189.4447022656
  0
VERTEX
  8
0
 62
7
  6
CONTINUOUS
 10
88.1062283294
 20
189.454792412
  0
VERTEX
  8
0
 62
7
  6
CONTINUOUS
 10
88.0442279538
 20
189.4635669309
  0
VERTEX
  8
0
 62
7
  6
CONTINUOUS
 10
87.9685193386
 20
189.4707229729
  0
VERTEX
  8
0
 62
7
  6
CONTINUOUS
 10
87.8819777893
 20
189.4760164479
  0
VERTEX
  8
0
 62
7
  6
CONTINUOUS
 10
87.78791903
 20
189.4792676186
  0
VERTEX
  8
0
 62
7
  6
CONTINUOUS
 10
87.6899653979
 20
189.4803646379
  0
SEQEND
  0
POLYLINE
  8
0
 62
7
  6
CONTINUOUS
 66
1
 70
0
  0
VERTEX
  8
0
 62
7
  6
CONTINUOUS
 10
88.1899653979
 20
189.8589699029
  0
VERTEX
  8
0
 62
7
  6
CONTINUOUS
 10
88.1910955085
 20
189.8258322335
  0
VERTEX
  8
0
 62
7
  6
CONTINUOUS
 10
88.1945009319
 20
189.7922391782
  0
VERTEX
  8
0
 62
7
  6
CONTINUOUS
 10
88.2002036486
 20
189.758304969
  0
SEQEND
  0
LINE
  8
0
 62
7
  6
CONTINUOUS
 10
88.1899653979
 20
184.658304969
 11
88.1899653979
 21
192.158304969
  0
LINE
  8
0
 62
7
  6
CONTINUOUS
 10
90.1399653979
 20
187.9013937933
 11
90.1399653979
 21
184.658304969
  0
LINE
  8
2_FEATURE
 62
7
  6
CONTINUOUS
 10
91.3462153979
 20
184.5203739578
 11
91.3462153979
 21
184.1583050321
  0
LINE
  8
2_FEATURE
 62
7
  6
CONTINUOUS
 10
91.6087153979
 20
184.1628441009
 11
91.6087153979
 21
184.5203739578
  0
LINE
  8
2_FEATURE
 62
7
  6
CONTINUOUS
 10
92.6587153979
 20
184.3108182651
 11
92.7024653562
 21
184.2563488139
  0
LINE
  8
2_FEATURE
 62
7
  6
CONTINUOUS
 10
92.9212153979
 20
184.3108182651
 11
92.9649653562
 21
184.2563488139
  0
LINE
  8
2_FEATURE
 62
7
  6
CONTINUOUS
 10
94.6274653979
 20
184.3108182651
 11
94.6712154814
 21
184.2563488139
  0
LINE
  8
2_FEATURE
 62
7
  6
CONTINUOUS
 10
94.8899653979
 20
184.3108182651
 11
94.9337154814
 21
184.2563488139
  0
LINE
  8
2_FEATURE
 62
7
  6
CONTINUOUS
 10
92.3962153979
 20
184.1628441009
 11
92.3962153979
 21
184.1653880459
  0
LINE
  8
2_FEATURE
 62
7
  6
CONTINUOUS
 10
92.4399653562
 20
184.3780702038
 11
92.4399653562
 21
184.514049107
  0
LINE
  8
2_FEATURE
 62
7
  6
CONTINUOUS
 10
92.5712153562
 20
184.3541967203
 11
92.5712153562
 21
184.4950745365
  0
LINE
  8
2_FEATURE
 62
7
  6
CONTINUOUS
 10
92.6149654396
 20
184.1600784529
 11
92.6149654396
 21
184.1771111707
  0
LINE
  8
2_FEATURE
 62
7
  6
CONTINUOUS
 10
92.6587153979
 20
184.3108182651
 11
92.6587153979
 21
184.4674205702
  0
LINE
  8
2_FEATURE
 62
7
  6
CONTINUOUS
 10
92.7024653562
 20
184.2141753656
 11
92.7024653562
 21
184.4460914728
  0
LINE
  8
2_FEATURE
 62
7
  6
CONTINUOUS
 10
92.7899653979
 20
184.1594362723
 11
92.7899653979
 21
184.3594908082
  0
LINE
  8
2_FEATURE
 62
7
  6
CONTINUOUS
 10
92.9212153979
 20
184.1764656477
 11
92.9212153979
 21
184.3108182651
  0
LINE
  8
2_FEATURE
 62
7
  6
CONTINUOUS
 10
92.9649653562
 20
184.2563488139
 11
92.9649653562
 21
184.2027845303
  0
LINE
  8
2_FEATURE
 62
7
  6
CONTINUOUS
 10
93.3149653979
 20
184.5203739578
 11
93.3149653979
 21
184.1583050321
  0
LINE
  8
2_FEATURE
 62
7
  6
CONTINUOUS
 10
93.5774653979
 20
184.1628441009
 11
93.5774653979
 21
184.5203739578
  0
LINE
  8
2_FEATURE
 62
7
  6
CONTINUOUS
 10
94.3649653979
 20
184.1628441009
 11
94.3649653979
 21
184.1653880459
  0
LINE
  8
2_FEATURE
 62
7
  6
CONTINUOUS
 10
94.4087154814
 20
184.3780702038
 11
94.4087154814
 21
184.5140490853
  0
LINE
  8
2_FEATURE
 62
7
  6
CONTINUOUS
 10
94.5399654814
 20
184.3541967203
 11
94.5399654814
 21
184.4950745039
  0
LINE
  8
2_FEATURE
 62
7
  6
CONTINUOUS
 10
94.5837153145
 20
184.1600784529
 11
94.5837153145
 21
184.1771111414
  0
LINE
  8
2_FEATURE
 62
7
  6
CONTINUOUS
 10
94.6274653979
 20
184.3108182651
 11
94.6274653979
 21
184.4674205245
  0
LINE
  8
2_FEATURE
 62
7
  6
CONTINUOUS
 10
94.6712154814
 20
184.2141753656
 11
94.6712154814
 21
184.4460913813
  0
LINE
  8
2_FEATURE
 62
7
  6
CONTINUOUS
 10
94.7587153979
 20
184.1594362723
 11
94.7587153979
 21
184.3594908082
  0
LINE
  8
2_FEATURE
 62
7
  6
CONTINUOUS
 10
94.8899653979
 20
184.1764656477
 11
94.8899653979
 21
184.3108182651
  0
LINE
  8
2_FEATURE
 62
7
  6
CONTINUOUS
 10
94.9337154814
 20
184.2563488139
 11
94.9337154814
 21
184.2027845303
  0
POLYLINE
  8
0
 62
7
  6
CONTINUOUS
 66
1
 70
0
  0
VERTEX
  8
0
 62
7
  6
CONTINUOUS
 10
98.0899653979
 20
189.4220335939
  0
VERTEX
  8
0
 62
7
  6
CONTINUOUS
 10
98.0994867075
 20
189.4336506029
  0
VERTEX
  8
0
 62
7
  6
CONTINUOUS
 10
98.1277339026
 20
189.4447022656
  0
VERTEX
  8
0
 62
7
  6
CONTINUOUS
 10
98.1737024665
 20
189.454792412
  0
VERTEX
  8
0
 62
7
  6
CONTINUOUS
 10
98.235702842
 20
189.4635669309
  0
VERTEX
  8
0
 62
7
  6
CONTINUOUS
 10
98.3114114573
 20
189.4707229729
  0
VERTEX
  8
0
 62
7
  6
CONTINUOUS
 10
98.3979530065
 20
189.4760164479
  0
VERTEX
  8
0
 62
7
  6
CONTINUOUS
 10
98.4920117659
 20
189.4792676186
  0
VERTEX
  8
0
 62
7
  6
CONTINUOUS
 10
98.5899653979
 20
189.4803646379
  0
SEQEND
  0
LINE
  8
2_FEATURE
 62
7
  6
CONTINUOUS
 10
92.7024653562
 20
184.2141753656
 11
92.6587153979
 21
184.1839382321
  0
LINE
  8
2_FEATURE
 62
7
  6
CONTINUOUS
 10
94.6712154814
 20
184.2141753656
 11
94.6274653979
 21
184.1839382321
  0
LINE
  8
2_FEATURE
 62
7
  6
CONTINUOUS
 10
92.9649653562
 20
184.2027845303
 11
92.9212153979
 21
184.1764656477
  0
LINE
  8
2_FEATURE
 62
7
  6
CONTINUOUS
 10
94.9337154814
 20
184.2027845303
 11
94.8899653979
 21
184.1764656477
  0
POLYLINE
  8
0
 62
7
  6
CONTINUOUS
 66
1
 70
0
  0
VERTEX
  8
0
 62
7
  6
CONTINUOUS
 10
98.0899653979
 20
187.594576344
  0
VERTEX
  8
0
 62
7
  6
CONTINUOUS
 10
98.0994867075
 20
187.582959335
  0
VERTEX
  8
0
 62
7
  6
CONTINUOUS
 10
98.1277339026
 20
187.5719076724
  0
VERTEX
  8
0
 62
7
  6
CONTINUOUS
 10
98.1737024665
 20
187.5618175259
  0
VERTEX
  8
0
 62
7
  6
CONTINUOUS
 10
98.235702842
 20
187.553043007
  0
VERTEX
  8
0
 62
7
  6
CONTINUOUS
 10
98.3114114573
 20
187.5458869651
  0
VERTEX
  8
0
 62
7
  6
CONTINUOUS
 10
98.3979530065
 20
187.5405934901
  0
VERTEX
  8
0
 62
7
  6
CONTINUOUS
 10
98.4920117659
 20
187.5373423193
  0
VERTEX
  8
0
 62
7
  6
CONTINUOUS
 10
98.5899653979
 20
187.5362453
  0
SEQEND
  0
LINE
  8
0
 62
7
  6
CONTINUOUS
 10
96.1399653979
 20
187.9013869129
 11
96.1399653979
 21
184.658304969
  0
LINE
  8
0
 62
7
  6
CONTINUOUS
 10
98.0899653979
 20
184.658304969
 11
98.0899653979
 21
192.158304969
  0
POLYLINE
  8
0
 62
7
  6
CONTINUOUS
 66
1
 70
0
  0
VERTEX
  8
0
 62
7
  6
CONTINUOUS
 10
98.0797271472
 20
189.758304969
  0
VERTEX
  8
0
 62
7
  6
CONTINUOUS
 10
98.0854302705
 20
189.7922421963
  0
VERTEX
  8
0
 62
7
  6
CONTINUOUS
 10
98.0888354717
 20
189.8258349517
  0
VERTEX
  8
0
 62
7
  6
CONTINUOUS
 10
98.0899653979
 20
189.8589699029
  0
SEQEND
  0
POLYLINE
  8
0
 62
7
  6
CONTINUOUS
 66
1
 70
0
  0
VERTEX
  8
0
 62
7
  6
CONTINUOUS
 10
107.2899653979
 20
187.594576344
  0
VERTEX
  8
0
 62
7
  6
CONTINUOUS
 10
107.2804440884
 20
187.582959335
  0
VERTEX
  8
0
 62
7
  6
CONTINUOUS
 10
107.2521968932
 20
187.5719076724
  0
VERTEX
  8
0
 62
7
  6
CONTINUOUS
 10
107.2062283294
 20
187.5618175259
  0
VERTEX
  8
0
 62
7
  6
CONTINUOUS
 10
107.1442279538
 20
187.553043007
  0
VERTEX
  8
0
 62
7
  6
CONTINUOUS
 10
107.0685193386
 20
187.5458869651
  0
VERTEX
  8
0
 62
7
  6
CONTINUOUS
 10
106.9819777893
 20
187.5405934901
  0
VERTEX
  8
0
 62
7
  6
CONTINUOUS
 10
106.88791903
 20
187.5373423193
  0
VERTEX
  8
0
 62
7
  6
CONTINUOUS
 10
106.7899653979
 20
187.5362453
  0
SEQEND
  0
POLYLINE
  8
0
 62
7
  6
CONTINUOUS
 66
1
 70
0
  0
VERTEX
  8
0
 62
7
  6
CONTINUOUS
 10
107.2899653979
 20
189.4220335939
  0
VERTEX
  8
0
 62
7
  6
CONTINUOUS
 10
107.2804440884
 20
189.4336506029
  0
VERTEX
  8
0
 62
7
  6
CONTINUOUS
 10
107.2521968932
 20
189.4447022656
  0
VERTEX
  8
0
 62
7
  6
CONTINUOUS
 10
107.2062283294
 20
189.454792412
  0
VERTEX
  8
0
 62
7
  6
CONTINUOUS
 10
107.1442279538
 20
189.4635669309
  0
VERTEX
  8
0
 62
7
  6
CONTINUOUS
 10
107.0685193386
 20
189.4707229729
  0
VERTEX
  8
0
 62
7
  6
CONTINUOUS
 10
106.9819777893
 20
189.4760164479
  0
VERTEX
  8
0
 62
7
  6
CONTINUOUS
 10
106.88791903
 20
189.4792676186
  0
VERTEX
  8
0
 62
7
  6
CONTINUOUS
 10
106.7899653979
 20
189.4803646379
  0
SEQEND
  0
POLYLINE
  8
0
 62
7
  6
CONTINUOUS
 66
1
 70
0
  0
VERTEX
  8
0
 62
7
  6
CONTINUOUS
 10
107.2899653979
 20
189.8589699029
  0
VERTEX
  8
0
 62
7
  6
CONTINUOUS
 10
107.2910955085
 20
189.8258322335
  0
VERTEX
  8
0
 62
7
  6
CONTINUOUS
 10
107.2945009319
 20
189.7922391782
  0
VERTEX
  8
0
 62
7
  6
CONTINUOUS
 10
107.3002036486
 20
189.758304969
  0
SEQEND
  0
LINE
  8
0
 62
7
  6
CONTINUOUS
 10
107.2899653979
 20
184.658304969
 11
107.2899653979
 21
192.158304969
  0
LINE
  8
0
 62
7
  6
CONTINUOUS
 10
109.2399653979
 20
187.9013873267
 11
109.2399653979
 21
184.658304969
  0
POLYLINE
  8
0
 62
7
  6
CONTINUOUS
 66
1
 70
0
  0
VERTEX
  8
0
 62
7
  6
CONTINUOUS
 10
117.1899653979
 20
189.4220335939
  0
VERTEX
  8
0
 62
7
  6
CONTINUOUS
 10
117.1994867075
 20
189.4336506029
  0
VERTEX
  8
0
 62
7
  6
CONTINUOUS
 10
117.2277339026
 20
189.4447022656
  0
VERTEX
  8
0
 62
7
  6
CONTINUOUS
 10
117.2737024665
 20
189.454792412
  0
VERTEX
  8
0
 62
7
  6
CONTINUOUS
 10
117.335702842
 20
189.4635669309
  0
VERTEX
  8
0
 62
7
  6
CONTINUOUS
 10
117.4114114573
 20
189.4707229729
  0
VERTEX
  8
0
 62
7
  6
CONTINUOUS
 10
117.4979530065
 20
189.4760164479
  0
VERTEX
  8
0
 62
7
  6
CONTINUOUS
 10
117.5920117659
 20
189.4792676186
  0
VERTEX
  8
0
 62
7
  6
CONTINUOUS
 10
117.6899653979
 20
189.4803646379
  0
SEQEND
  0
POLYLINE
  8
0
 62
7
  6
CONTINUOUS
 66
1
 70
0
  0
VERTEX
  8
0
 62
7
  6
CONTINUOUS
 10
117.1899653979
 20
187.594576344
  0
VERTEX
  8
0
 62
7
  6
CONTINUOUS
 10
117.1994867075
 20
187.582959335
  0
VERTEX
  8
0
 62
7
  6
CONTINUOUS
 10
117.2277339026
 20
187.5719076724
  0
VERTEX
  8
0
 62
7
  6
CONTINUOUS
 10
117.2737024665
 20
187.5618175259
  0
VERTEX
  8
0
 62
7
  6
CONTINUOUS
 10
117.335702842
 20
187.553043007
  0
VERTEX
  8
0
 62
7
  6
CONTINUOUS
 10
117.4114114573
 20
187.5458869651
  0
VERTEX
  8
0
 62
7
  6
CONTINUOUS
 10
117.4979530065
 20
187.5405934901
  0
VERTEX
  8
0
 62
7
  6
CONTINUOUS
 10
117.5920117659
 20
187.5373423193
  0
VERTEX
  8
0
 62
7
  6
CONTINUOUS
 10
117.6899653979
 20
187.5362453
  0
SEQEND
  0
LINE
  8
0
 62
7
  6
CONTINUOUS
 10
115.2399653979
 20
187.9013937933
 11
115.2399653979
 21
184.658304969
  0
LINE
  8
0
 62
7
  6
CONTINUOUS
 10
117.1899653979
 20
184.658304969
 11
117.1899653979
 21
192.158304969
  0
POLYLINE
  8
0
 62
7
  6
CONTINUOUS
 66
1
 70
0
  0
VERTEX
  8
0
 62
7
  6
CONTINUOUS
 10
117.1797271472
 20
189.758304969
  0
VERTEX
  8
0
 62
7
  6
CONTINUOUS
 10
117.1854302705
 20
189.7922421963
  0
VERTEX
  8
0
 62
7
  6
CONTINUOUS
 10
117.1888354717
 20
189.8258349517
  0
VERTEX
  8
0
 62
7
  6
CONTINUOUS
 10
117.1899653979
 20
189.8589699029
  0
SEQEND
  0
POLYLINE
  8
0
 62
7
  6
CONTINUOUS
 66
1
 70
0
  0
VERTEX
  8
0
 62
7
  6
CONTINUOUS
 10
126.3899653979
 20
187.594576344
  0
VERTEX
  8
0
 62
7
  6
CONTINUOUS
 10
126.3804440884
 20
187.582959335
  0
VERTEX
  8
0
 62
7
  6
CONTINUOUS
 10
126.3521968932
 20
187.5719076724
  0
VERTEX
  8
0
 62
7
  6
CONTINUOUS
 10
126.3062283294
 20
187.5618175259
  0
VERTEX
  8
0
 62
7
  6
CONTINUOUS
 10
126.2442279538
 20
187.553043007
  0
VERTEX
  8
0
 62
7
  6
CONTINUOUS
 10
126.1685193386
 20
187.5458869651
  0
VERTEX
  8
0
 62
7
  6
CONTINUOUS
 10
126.0819777893
 20
187.5405934901
  0
VERTEX
  8
0
 62
7
  6
CONTINUOUS
 10
125.98791903
 20
187.5373423193
  0
VERTEX
  8
0
 62
7
  6
CONTINUOUS
 10
125.8899653979
 20
187.5362453
  0
SEQEND
  0
POLYLINE
  8
0
 62
7
  6
CONTINUOUS
 66
1
 70
0
  0
VERTEX
  8
0
 62
7
  6
CONTINUOUS
 10
126.3899653979
 20
189.4220335939
  0
VERTEX
  8
0
 62
7
  6
CONTINUOUS
 10
126.3804440884
 20
189.4336506029
  0
VERTEX
  8
0
 62
7
  6
CONTINUOUS
 10
126.3521968932
 20
189.4447022656
  0
VERTEX
  8
0
 62
7
  6
CONTINUOUS
 10
126.3062283294
 20
189.454792412
  0
VERTEX
  8
0
 62
7
  6
CONTINUOUS
 10
126.2442279538
 20
189.4635669309
  0
VERTEX
  8
0
 62
7
  6
CONTINUOUS
 10
126.1685193386
 20
189.4707229729
  0
VERTEX
  8
0
 62
7
  6
CONTINUOUS
 10
126.0819777893
 20
189.4760164479
  0
VERTEX
  8
0
 62
7
  6
CONTINUOUS
 10
125.98791903
 20
189.4792676186
  0
VERTEX
  8
0
 62
7
  6
CONTINUOUS
 10
125.8899653979
 20
189.4803646379
  0
SEQEND
  0
POLYLINE
  8
0
 62
7
  6
CONTINUOUS
 66
1
 70
0
  0
VERTEX
  8
0
 62
7
  6
CONTINUOUS
 10
136.5399653979
 20
189.4220335939
  0
VERTEX
  8
0
 62
7
  6
CONTINUOUS
 10
136.5494867075
 20
189.4336506029
  0
VERTEX
  8
0
 62
7
  6
CONTINUOUS
 10
136.5777339026
 20
189.4447022656
  0
VERTEX
  8
0
 62
7
  6
CONTINUOUS
 10
136.6237024665
 20
189.454792412
  0
VERTEX
  8
0
 62
7
  6
CONTINUOUS
 10
136.685702842
 20
189.4635669309
  0
VERTEX
  8
0
 62
7
  6
CONTINUOUS
 10
136.7614114573
 20
189.4707229729
  0
VERTEX
  8
0
 62
7
  6
CONTINUOUS
 10
136.8479530065
 20
189.4760164479
  0
VERTEX
  8
0
 62
7
  6
CONTINUOUS
 10
136.9420117659
 20
189.4792676186
  0
VERTEX
  8
0
 62
7
  6
CONTINUOUS
 10
137.0399653979
 20
189.4803646379
  0
SEQEND
  0
POLYLINE
  8
0
 62
7
  6
CONTINUOUS
 66
1
 70
0
  0
VERTEX
  8
0
 62
7
  6
CONTINUOUS
 10
136.5399653979
 20
187.594576344
  0
VERTEX
  8
0
 62
7
  6
CONTINUOUS
 10
136.5494867075
 20
187.582959335
  0
VERTEX
  8
0
 62
7
  6
CONTINUOUS
 10
136.5777339026
 20
187.5719076724
  0
VERTEX
  8
0
 62
7
  6
CONTINUOUS
 10
136.6237024665
 20
187.5618175259
  0
VERTEX
  8
0
 62
7
  6
CONTINUOUS
 10
136.685702842
 20
187.553043007
  0
VERTEX
  8
0
 62
7
  6
CONTINUOUS
 10
136.7614114573
 20
187.5458869651
  0
VERTEX
  8
0
 62
7
  6
CONTINUOUS
 10
136.8479530065
 20
187.5405934901
  0
VERTEX
  8
0
 62
7
  6
CONTINUOUS
 10
136.9420117659
 20
187.5373423193
  0
VERTEX
  8
0
 62
7
  6
CONTINUOUS
 10
137.0399653979
 20
187.5362453
  0
SEQEND
  0
POLYLINE
  8
0
 62
7
  6
CONTINUOUS
 66
1
 70
0
  0
VERTEX
  8
0
 62
7
  6
CONTINUOUS
 10
126.3899653979
 20
189.8589699029
  0
VERTEX
  8
0
 62
7
  6
CONTINUOUS
 10
126.3910955085
 20
189.8258322335
  0
VERTEX
  8
0
 62
7
  6
CONTINUOUS
 10
126.3945009319
 20
189.7922391782
  0
VERTEX
  8
0
 62
7
  6
CONTINUOUS
 10
126.4002036486
 20
189.758304969
  0
SEQEND
  0
LINE
  8
0
 62
7
  6
CONTINUOUS
 10
126.3899653979
 20
184.658304969
 11
126.3899653979
 21
192.158304969
  0
LINE
  8
0
 62
7
  6
CONTINUOUS
 10
128.3399653979
 20
187.9013875005
 11
128.3399653979
 21
184.658304969
  0
LINE
  8
2_FEATURE
 62
7
  6
CONTINUOUS
 10
128.7399653979
 20
185.3643214857
 11
128.7399653979
 21
184.158304969
  0
POLYLINE
  8
2_FEATURE
 62
7
  6
CONTINUOUS
 66
1
 70
0
  0
VERTEX
  8
2_FEATURE
 62
7
  6
CONTINUOUS
 10
128.3399653979
 20
184.8924512489
  0
VERTEX
  8
2_FEATURE
 62
7
  6
CONTINUOUS
 10
128.3492402626
 20
185.0252136318
  0
VERTEX
  8
2_FEATURE
 62
7
  6
CONTINUOUS
 10
128.3618223613
 20
185.0986148946
  0
VERTEX
  8
2_FEATURE
 62
7
  6
CONTINUOUS
 10
128.4044603621
 20
185.2525727385
  0
SEQEND
  0
POLYLINE
  8
2_FEATURE
 62
7
  6
CONTINUOUS
 66
1
 70
0
  0
VERTEX
  8
2_FEATURE
 62
7
  6
CONTINUOUS
 10
128.4044603621
 20
185.2525727385
  0
VERTEX
  8
2_FEATURE
 62
7
  6
CONTINUOUS
 10
128.4433464888
 20
185.347319638
  0
VERTEX
  8
2_FEATURE
 62
7
  6
CONTINUOUS
 10
128.4842305402
 20
185.4197134952
  0
VERTEX
  8
2_FEATURE
 62
7
  6
CONTINUOUS
 10
128.525222846
 20
185.4714552384
  0
VERTEX
  8
2_FEATURE
 62
7
  6
CONTINUOUS
 10
128.5644380354
 20
185.5041876859
  0
VERTEX
  8
2_FEATURE
 62
7
  6
CONTINUOUS
 10
128.6018919346
 20
185.5209231513
  0
VERTEX
  8
2_FEATURE
 62
7
  6
CONTINUOUS
 10
128.6376112731
 20
185.5231696581
  0
VERTEX
  8
2_FEATURE
 62
7
  6
CONTINUOUS
 10
128.6715014117
 20
185.5110070196
  0
VERTEX
  8
2_FEATURE
 62
7
  6
CONTINUOUS
 10
128.7035723082
 20
185.4817031059
  0
VERTEX
  8
2_FEATURE
 62
7
  6
CONTINUOUS
 10
128.7289109605
 20
185.433266514
  0
VERTEX
  8
2_FEATURE
 62
7
  6
CONTINUOUS
 10
128.7399653979
 20
185.3643214857
  0
SEQEND
  0
POLYLINE
  8
0
 62
7
  6
CONTINUOUS
 66
1
 70
0
  0
VERTEX
  8
0
 62
7
  6
CONTINUOUS
 10
140.4899653979
 20
187.594576344
  0
VERTEX
  8
0
 62
7
  6
CONTINUOUS
 10
140.4804440884
 20
187.582959335
  0
VERTEX
  8
0
 62
7
  6
CONTINUOUS
 10
140.4521968932
 20
187.5719076724
  0
VERTEX
  8
0
 62
7
  6
CONTINUOUS
 10
140.4062283294
 20
187.5618175259
  0
VERTEX
  8
0
 62
7
  6
CONTINUOUS
 10
140.3442279538
 20
187.553043007
  0
VERTEX
  8
0
 62
7
  6
CONTINUOUS
 10
140.2685193386
 20
187.5458869651
  0
VERTEX
  8
0
 62
7
  6
CONTINUOUS
 10
140.1819777893
 20
187.5405934901
  0
VERTEX
  8
0
 62
7
  6
CONTINUOUS
 10
140.08791903
 20
187.5373423193
  0
VERTEX
  8
0
 62
7
  6
CONTINUOUS
 10
139.9899653979
 20
187.5362453
  0
SEQEND
  0
LINE
  8
0
 62
7
  6
CONTINUOUS
 10
133.8899653979
 20
184.658304969
 11
133.8899653979
 21
189.758304969
  0
LINE
  8
0
 62
7
  6
CONTINUOUS
 10
136.5399653979
 20
192.158304969
 11
136.5399653979
 21
184.658304969
  0
LINE
  8
0
 62
7
  6
CONTINUOUS
 10
140.4899653979
 20
192.158304969
 11
140.4899653979
 21
184.6583068038
  0
LINE
  8
0
 62
7
  6
CONTINUOUS
 10
140.6899653979
 20
186.358304969
 11
140.6899653979
 21
192.158304969
  0
POLYLINE
  8
0
 62
7
  6
CONTINUOUS
 66
1
 70
0
  0
VERTEX
  8
0
 62
7
  6
CONTINUOUS
 10
136.5213178838
 20
189.758304969
  0
VERTEX
  8
0
 62
7
  6
CONTINUOUS
 10
136.5317260074
 20
189.8043274385
  0
VERTEX
  8
0
 62
7
  6
CONTINUOUS
 10
136.537917183
 20
189.8495028155
  0
VERTEX
  8
0
 62
7
  6
CONTINUOUS
 10
136.5399653979
 20
189.8935816643
  0
SEQEND
  0
LINE
  8
0
 62
7
  6
CONTINUOUS
 10
26.4899653979
 20
121.572684666
 11
26.4899653979
 21
130.6392576586
  0
LINE
  8
0
 62
7
  6
CONTINUOUS
 10
26.6899653979
 20
113.4824048443
 11
26.6899653979
 21
120.972684666
  0
LINE
  8
0
 62
7
  6
CONTINUOUS
 10
26.6899653979
 20
131.2420737346
 11
26.6899653979
 21
132.1607745107
  0
LINE
  8
0
 62
7
  6
CONTINUOUS
 10
30.6399653979
 20
113.4824048443
 11
30.6399653979
 21
120.3340351779
  0
LINE
  8
0
 62
7
  6
CONTINUOUS
 10
31.6899653979
 20
133.1607744249
 11
31.6899653979
 21
140.0124048443
  0
LINE
  8
0
 62
7
  6
CONTINUOUS
 10
34.0699653979
 20
130.5624048443
 11
34.0699653979
 21
122.9324048443
  0
LINE
  8
0
 62
7
  6
CONTINUOUS
 10
35.2499653979
 20
122.9324048443
 11
35.2499653979
 21
130.5624048443
  0
LINE
  8
0
 62
7
  6
CONTINUOUS
 10
36.4299653979
 20
130.5624048443
 11
36.4299653979
 21
122.9324048443
  0
POLYLINE
  8
0
 62
7
  6
CONTINUOUS
 66
1
 70
0
  0
VERTEX
  8
0
 62
7
  6
CONTINUOUS
 10
31.6899653979
 20
137.4971497157
  0
VERTEX
  8
0
 62
7
  6
CONTINUOUS
 10
31.6994161133
 20
137.5128490107
  0
VERTEX
  8
0
 62
7
  6
CONTINUOUS
 10
31.727494067
 20
137.5278017265
  0
VERTEX
  8
0
 62
7
  6
CONTINUOUS
 10
31.7732669543
 20
137.5414733984
  0
VERTEX
  8
0
 62
7
  6
CONTINUOUS
 10
31.8351158657
 20
137.5533814217
  0
VERTEX
  8
0
 62
7
  6
CONTINUOUS
 10
31.9107725319
 20
137.5631086403
  0
VERTEX
  8
0
 62
7
  6
CONTINUOUS
 10
31.9973933899
 20
137.5703152019
  0
VERTEX
  8
0
 62
7
  6
CONTINUOUS
 10
32.0916696489
 20
137.5747477702
  0
VERTEX
  8
0
 62
7
  6
CONTINUOUS
 10
32.1899653979
 20
137.5762453253
  0
SEQEND
  0
LINE
  8
0
 62
7
  6
CONTINUOUS
 10
26.5738330305
 20
130.9164468588
 11
26.6060977654
 21
130.9648845343
  0
LINE
  8
0
 62
7
  6
CONTINUOUS
 10
37.6099653979
 20
122.9324048443
 11
37.6099653979
 21
130.5624048443
  0
LINE
  8
0
 62
7
  6
CONTINUOUS
 10
40.4399653979
 20
133.1607745107
 11
40.4399653979
 21
140.0124048443
  0
LINE
  8
0
 62
7
  6
CONTINUOUS
 10
40.7899653979
 20
120.3340352637
 11
40.7899653979
 21
113.4824048443
  0
LINE
  8
0
 62
7
  6
CONTINUOUS
 10
43.6199653979
 20
130.5624048443
 11
43.6199653979
 21
122.9324048443
  0
LINE
  8
0
 62
7
  6
CONTINUOUS
 10
44.7999653979
 20
122.9324048443
 11
44.7999653979
 21
130.5624048443
  0
POLYLINE
  8
0
 62
7
  6
CONTINUOUS
 66
1
 70
0
  0
VERTEX
  8
0
 62
7
  6
CONTINUOUS
 10
30.6399653979
 20
115.9976599729
  0
VERTEX
  8
0
 62
7
  6
CONTINUOUS
 10
30.6305146825
 20
115.9819606779
  0
VERTEX
  8
0
 62
7
  6
CONTINUOUS
 10
30.6024367288
 20
115.9670079621
  0
VERTEX
  8
0
 62
7
  6
CONTINUOUS
 10
30.5566638416
 20
115.9533362902
  0
VERTEX
  8
0
 62
7
  6
CONTINUOUS
 10
30.4948149301
 20
115.9414282669
  0
VERTEX
  8
0
 62
7
  6
CONTINUOUS
 10
30.4191582639
 20
115.9317010483
  0
VERTEX
  8
0
 62
7
  6
CONTINUOUS
 10
30.3325374059
 20
115.9244944867
  0
VERTEX
  8
0
 62
7
  6
CONTINUOUS
 10
30.2382611469
 20
115.9200619184
  0
VERTEX
  8
0
 62
7
  6
CONTINUOUS
 10
30.1399653979
 20
115.9185643633
  0
SEQEND
  0
POLYLINE
  8
0
 62
7
  6
CONTINUOUS
 66
1
 70
0
  0
VERTEX
  8
0
 62
7
  6
CONTINUOUS
 10
40.7899653979
 20
115.9976599729
  0
VERTEX
  8
0
 62
7
  6
CONTINUOUS
 10
40.7994161133
 20
115.9819606779
  0
VERTEX
  8
0
 62
7
  6
CONTINUOUS
 10
40.827494067
 20
115.9670079621
  0
VERTEX
  8
0
 62
7
  6
CONTINUOUS
 10
40.8732669543
 20
115.9533362902
  0
VERTEX
  8
0
 62
7
  6
CONTINUOUS
 10
40.9351158657
 20
115.9414282669
  0
VERTEX
  8
0
 62
7
  6
CONTINUOUS
 10
41.0107725319
 20
115.9317010483
  0
VERTEX
  8
0
 62
7
  6
CONTINUOUS
 10
41.0973933899
 20
115.9244944867
  0
VERTEX
  8
0
 62
7
  6
CONTINUOUS
 10
41.1916696489
 20
115.9200619184
  0
VERTEX
  8
0
 62
7
  6
CONTINUOUS
 10
41.2899653979
 20
115.9185643633
  0
SEQEND
  0
LINE
  8
0
 62
7
  6
CONTINUOUS
 10
45.9799653979
 20
130.5624048443
 11
45.9799653979
 21
122.9324048443
  0
LINE
  8
0
 62
7
  6
CONTINUOUS
 10
47.1599653979
 20
122.9324048443
 11
47.1599653979
 21
130.5624048443
  0
LINE
  8
0
 62
7
  6
CONTINUOUS
 10
49.9899653979
 20
120.3340351779
 11
49.9899653979
 21
113.4824048443
  0
LINE
  8
0
 62
7
  6
CONTINUOUS
 10
50.3399653979
 20
133.1607744249
 11
50.3399653979
 21
140.0124048443
  0
POLYLINE
  8
0
 62
7
  6
CONTINUOUS
 66
1
 70
0
  0
VERTEX
  8
0
 62
7
  6
CONTINUOUS
 10
50.3399653979
 20
137.4971497157
  0
VERTEX
  8
0
 62
7
  6
CONTINUOUS
 10
50.3494161133
 20
137.5128490107
  0
VERTEX
  8
0
 62
7
  6
CONTINUOUS
 10
50.377494067
 20
137.5278017265
  0
VERTEX
  8
0
 62
7
  6
CONTINUOUS
 10
50.4232669543
 20
137.5414733984
  0
VERTEX
  8
0
 62
7
  6
CONTINUOUS
 10
50.4851158657
 20
137.5533814217
  0
VERTEX
  8
0
 62
7
  6
CONTINUOUS
 10
50.5607725319
 20
137.5631086403
  0
VERTEX
  8
0
 62
7
  6
CONTINUOUS
 10
50.6473933899
 20
137.5703152019
  0
VERTEX
  8
0
 62
7
  6
CONTINUOUS
 10
50.7416696489
 20
137.5747477702
  0
VERTEX
  8
0
 62
7
  6
CONTINUOUS
 10
50.8399653979
 20
137.5762453253
  0
SEQEND
  0
POLYLINE
  8
0
 62
7
  6
CONTINUOUS
 66
1
 70
0
  0
VERTEX
  8
0
 62
7
  6
CONTINUOUS
 10
40.4399653979
 20
137.4971497157
  0
VERTEX
  8
0
 62
7
  6
CONTINUOUS
 10
40.4305146825
 20
137.5128490107
  0
VERTEX
  8
0
 62
7
  6
CONTINUOUS
 10
40.4024367288
 20
137.5278017265
  0
VERTEX
  8
0
 62
7
  6
CONTINUOUS
 10
40.3566638416
 20
137.5414733984
  0
VERTEX
  8
0
 62
7
  6
CONTINUOUS
 10
40.2948149301
 20
137.5533814217
  0
VERTEX
  8
0
 62
7
  6
CONTINUOUS
 10
40.2191582639
 20
137.5631086403
  0
VERTEX
  8
0
 62
7
  6
CONTINUOUS
 10
40.1325374059
 20
137.5703152019
  0
VERTEX
  8
0
 62
7
  6
CONTINUOUS
 10
40.0382611469
 20
137.5747477702
  0
VERTEX
  8
0
 62
7
  6
CONTINUOUS
 10
39.9399653979
 20
137.5762453253
  0
SEQEND
  0
LINE
  8
0
 62
7
  6
CONTINUOUS
 10
53.1699653979
 20
130.5624048443
 11
53.1699653979
 21
122.9324048443
  0
LINE
  8
0
 62
7
  6
CONTINUOUS
 10
54.3499653979
 20
122.9324048443
 11
54.3499653979
 21
130.5624048443
  0
LINE
  8
0
 62
7
  6
CONTINUOUS
 10
55.5299653979
 20
130.5624048443
 11
55.5299653979
 21
122.9324048443
  0
LINE
  8
0
 62
7
  6
CONTINUOUS
 10
56.7099653979
 20
122.9324048443
 11
56.7099653979
 21
130.5624048443
  0
LINE
  8
0
 62
7
  6
CONTINUOUS
 10
59.5399653979
 20
133.1607745107
 11
59.5399653979
 21
140.0124048443
  0
LINE
  8
0
 62
7
  6
CONTINUOUS
 10
59.8899653979
 20
113.4824048443
 11
59.8899653979
 21
120.3340351779
  0
POLYLINE
  8
0
 62
7
  6
CONTINUOUS
 66
1
 70
0
  0
VERTEX
  8
0
 62
7
  6
CONTINUOUS
 10
49.9899653979
 20
115.9976599729
  0
VERTEX
  8
0
 62
7
  6
CONTINUOUS
 10
49.9805146825
 20
115.9819606779
  0
VERTEX
  8
0
 62
7
  6
CONTINUOUS
 10
49.9524367288
 20
115.9670079621
  0
VERTEX
  8
0
 62
7
  6
CONTINUOUS
 10
49.9066638416
 20
115.9533362902
  0
VERTEX
  8
0
 62
7
  6
CONTINUOUS
 10
49.8448149301
 20
115.9414282669
  0
VERTEX
  8
0
 62
7
  6
CONTINUOUS
 10
49.7691582639
 20
115.9317010483
  0
VERTEX
  8
0
 62
7
  6
CONTINUOUS
 10
49.6825374059
 20
115.9244944867
  0
VERTEX
  8
0
 62
7
  6
CONTINUOUS
 10
49.5882611469
 20
115.9200619184
  0
VERTEX
  8
0
 62
7
  6
CONTINUOUS
 10
49.4899653979
 20
115.9185643633
  0
SEQEND
  0
POLYLINE
  8
0
 62
7
  6
CONTINUOUS
 66
1
 70
0
  0
VERTEX
  8
0
 62
7
  6
CONTINUOUS
 10
59.8899653979
 20
115.9976599729
  0
VERTEX
  8
0
 62
7
  6
CONTINUOUS
 10
59.8994161133
 20
115.9819606779
  0
VERTEX
  8
0
 62
7
  6
CONTINUOUS
 10
59.927494067
 20
115.9670079621
  0
VERTEX
  8
0
 62
7
  6
CONTINUOUS
 10
59.9732669543
 20
115.9533362902
  0
VERTEX
  8
0
 62
7
  6
CONTINUOUS
 10
60.0351158657
 20
115.9414282669
  0
VERTEX
  8
0
 62
7
  6
CONTINUOUS
 10
60.1107725319
 20
115.9317010483
  0
VERTEX
  8
0
 62
7
  6
CONTINUOUS
 10
60.1973933899
 20
115.9244944867
  0
VERTEX
  8
0
 62
7
  6
CONTINUOUS
 10
60.2916696489
 20
115.9200619184
  0
VERTEX
  8
0
 62
7
  6
CONTINUOUS
 10
60.3899653979
 20
115.9185643633
  0
SEQEND
  0
LINE
  8
0
 62
7
  6
CONTINUOUS
 10
62.7199653979
 20
130.5624048443
 11
62.7199653979
 21
122.9324048443
  0
LINE
  8
0
 62
7
  6
CONTINUOUS
 10
63.8999653979
 20
122.9324048443
 11
63.8999653979
 21
130.5624048443
  0
LINE
  8
0
 62
7
  6
CONTINUOUS
 10
65.0799653979
 20
130.5624048443
 11
65.0799653979
 21
122.9324048443
  0
LINE
  8
0
 62
7
  6
CONTINUOUS
 10
66.2599653979
 20
122.9324048443
 11
66.2599653979
 21
130.5624048443
  0
POLYLINE
  8
0
 62
7
  6
CONTINUOUS
 66
1
 70
0
  0
VERTEX
  8
0
 62
7
  6
CONTINUOUS
 10
69.4399653979
 20
137.4971497157
  0
VERTEX
  8
0
 62
7
  6
CONTINUOUS
 10
69.4494161133
 20
137.5128490107
  0
VERTEX
  8
0
 62
7
  6
CONTINUOUS
 10
69.477494067
 20
137.5278017265
  0
VERTEX
  8
0
 62
7
  6
CONTINUOUS
 10
69.5232669543
 20
137.5414733984
  0
VERTEX
  8
0
 62
7
  6
CONTINUOUS
 10
69.5851158657
 20
137.5533814217
  0
VERTEX
  8
0
 62
7
  6
CONTINUOUS
 10
69.6607725319
 20
137.5631086403
  0
VERTEX
  8
0
 62
7
  6
CONTINUOUS
 10
69.7473933899
 20
137.5703152019
  0
VERTEX
  8
0
 62
7
  6
CONTINUOUS
 10
69.8416696489
 20
137.5747477702
  0
VERTEX
  8
0
 62
7
  6
CONTINUOUS
 10
69.9399653979
 20
137.5762453253
  0
SEQEND
  0
LINE
  8
0
 62
7
  6
CONTINUOUS
 10
69.0899653979
 20
120.3340351779
 11
69.0899653979
 21
113.4824048443
  0
LINE
  8
0
 62
7
  6
CONTINUOUS
 10
69.4399653979
 20
133.1607744249
 11
69.4399653979
 21
140.0124048443
  0
LINE
  8
0
 62
7
  6
CONTINUOUS
 10
72.2699653979
 20
130.5624048443
 11
72.2699653979
 21
122.9324048443
  0
POLYLINE
  8
0
 62
7
  6
CONTINUOUS
 66
1
 70
0
  0
VERTEX
  8
0
 62
7
  6
CONTINUOUS
 10
139.9899653979
 20
115.9185643633
  0
VERTEX
  8
0
 62
7
  6
CONTINUOUS
 10
140.0882611469
 20
115.9200619184
  0
VERTEX
  8
0
 62
7
  6
CONTINUOUS
 10
140.1825374059
 20
115.9244944867
  0
VERTEX
  8
0
 62
7
  6
CONTINUOUS
 10
140.2691582639
 20
115.9317010483
  0
VERTEX
  8
0
 62
7
  6
CONTINUOUS
 10
140.3448149301
 20
115.9414282669
  0
VERTEX
  8
0
 62
7
  6
CONTINUOUS
 10
140.4066638416
 20
115.9533362902
  0
VERTEX
  8
0
 62
7
  6
CONTINUOUS
 10
140.4524367288
 20
115.9670079621
  0
VERTEX
  8
0
 62
7
  6
CONTINUOUS
 10
140.4805146825
 20
115.9819606779
  0
VERTEX
  8
0
 62
7
  6
CONTINUOUS
 10
140.4899653979
 20
115.9976599729
  0
SEQEND
  0
LINE
  8
0
 62
7
  6
CONTINUOUS
 10
27.1899653979
 20
112.9824048443
 11
30.1399653979
 21
112.9824048443
  0
LINE
  8
0
 62
7
  6
CONTINUOUS
 10
41.2899653979
 20
112.9824048443
 11
49.4899653979
 21
112.9824048443
  0
LINE
  8
0
 62
7
  6
CONTINUOUS
 10
60.3899653979
 20
112.9824048443
 11
68.5899653979
 21
112.9824048443
  0
LINE
  8
0
 62
7
  6
CONTINUOUS
 10
79.4899653979
 20
112.9824048443
 11
87.6899653979
 21
112.9824048443
  0
LINE
  8
0
 62
7
  6
CONTINUOUS
 10
98.5899653979
 20
112.9824048443
 11
106.7899653979
 21
112.9824048443
  0
LINE
  8
0
 62
7
  6
CONTINUOUS
 10
117.6899653979
 20
112.9824048443
 11
125.8899653979
 21
112.9824048443
  0
LINE
  8
0
 62
7
  6
CONTINUOUS
 10
137.0399653979
 20
112.9824048443
 11
139.9899653979
 21
112.9824048443
  0
POLYLINE
  8
0
 62
7
  6
CONTINUOUS
 66
1
 70
0
  0
VERTEX
  8
0
 62
7
  6
CONTINUOUS
 10
27.1899653979
 20
115.9185643633
  0
VERTEX
  8
0
 62
7
  6
CONTINUOUS
 10
27.0916696489
 20
115.9200619184
  0
VERTEX
  8
0
 62
7
  6
CONTINUOUS
 10
26.9973933899
 20
115.9244944867
  0
VERTEX
  8
0
 62
7
  6
CONTINUOUS
 10
26.9107725319
 20
115.9317010483
  0
VERTEX
  8
0
 62
7
  6
CONTINUOUS
 10
26.8351158657
 20
115.9414282669
  0
VERTEX
  8
0
 62
7
  6
CONTINUOUS
 10
26.7732669543
 20
115.9533362902
  0
VERTEX
  8
0
 62
7
  6
CONTINUOUS
 10
26.727494067
 20
115.9670079621
  0
VERTEX
  8
0
 62
7
  6
CONTINUOUS
 10
26.6994161133
 20
115.9819606779
  0
VERTEX
  8
0
 62
7
  6
CONTINUOUS
 10
26.6899653979
 20
115.9976599729
  0
SEQEND
  0
POLYLINE
  8
0
 62
7
  6
CONTINUOUS
 66
1
 70
0
  0
VERTEX
  8
0
 62
7
  6
CONTINUOUS
 10
59.5399653979
 20
137.4971497157
  0
VERTEX
  8
0
 62
7
  6
CONTINUOUS
 10
59.5305146825
 20
137.5128490107
  0
VERTEX
  8
0
 62
7
  6
CONTINUOUS
 10
59.5024367288
 20
137.5278017265
  0
VERTEX
  8
0
 62
7
  6
CONTINUOUS
 10
59.4566638416
 20
137.5414733984
  0
VERTEX
  8
0
 62
7
  6
CONTINUOUS
 10
59.3948149301
 20
137.5533814217
  0
VERTEX
  8
0
 62
7
  6
CONTINUOUS
 10
59.3191582639
 20
137.5631086403
  0
VERTEX
  8
0
 62
7
  6
CONTINUOUS
 10
59.2325374059
 20
137.5703152019
  0
VERTEX
  8
0
 62
7
  6
CONTINUOUS
 10
59.1382611469
 20
137.5747477702
  0
VERTEX
  8
0
 62
7
  6
CONTINUOUS
 10
59.0399653979
 20
137.5762453253
  0
SEQEND
  0
LINE
  8
0
 62
7
  6
CONTINUOUS
 10
73.4499653979
 20
122.9324048443
 11
73.4499653979
 21
130.5624048443
  0
LINE
  8
0
 62
7
  6
CONTINUOUS
 10
74.6299653979
 20
130.5624048443
 11
74.6299653979
 21
122.9324048443
  0
LINE
  8
0
 62
7
  6
CONTINUOUS
 10
75.8099653979
 20
122.9324048443
 11
75.8099653979
 21
130.5624048443
  0
LINE
  8
0
 62
7
  6
CONTINUOUS
 10
27.1899653979
 20
115.9185643633
 11
30.1399653979
 21
115.9185643633
  0
LINE
  8
0
 62
7
  6
CONTINUOUS
 10
41.2899653979
 20
115.9185643633
 11
49.4899653979
 21
115.9185643633
  0
LINE
  8
0
 62
7
  6
CONTINUOUS
 10
60.3899653979
 20
115.9185643633
 11
68.5899653979
 21
115.9185643633
  0
LINE
  8
0
 62
7
  6
CONTINUOUS
 10
79.4899653979
 20
115.9185643633
 11
87.6899653979
 21
115.9185643633
  0
LINE
  8
0
 62
7
  6
CONTINUOUS
 10
98.5899653979
 20
115.9185643633
 11
106.7899653979
 21
115.9185643633
  0
LINE
  8
0
 62
7
  6
CONTINUOUS
 10
117.6899653979
 20
115.9185643633
 11
125.8899653979
 21
115.9185643633
  0
LINE
  8
0
 62
7
  6
CONTINUOUS
 10
137.0399653979
 20
115.9185643633
 11
139.9899653979
 21
115.9185643633
  0
LINE
  8
1_AXIS
 62
2
  6
CENTER
 10
20.8190599308
 20
117.2224048443
 11
143.5927623529
 21
117.2224048443
  0
POLYLINE
  8
0
 62
7
  6
CONTINUOUS
 66
1
 70
0
  0
VERTEX
  8
0
 62
7
  6
CONTINUOUS
 10
78.9899653979
 20
115.9976599729
  0
VERTEX
  8
0
 62
7
  6
CONTINUOUS
 10
78.9994161133
 20
115.9819606779
  0
VERTEX
  8
0
 62
7
  6
CONTINUOUS
 10
79.027494067
 20
115.9670079621
  0
VERTEX
  8
0
 62
7
  6
CONTINUOUS
 10
79.0732669543
 20
115.9533362902
  0
VERTEX
  8
0
 62
7
  6
CONTINUOUS
 10
79.1351158657
 20
115.9414282669
  0
VERTEX
  8
0
 62
7
  6
CONTINUOUS
 10
79.2107725319
 20
115.9317010483
  0
VERTEX
  8
0
 62
7
  6
CONTINUOUS
 10
79.2973933899
 20
115.9244944867
  0
VERTEX
  8
0
 62
7
  6
CONTINUOUS
 10
79.3916696489
 20
115.9200619184
  0
VERTEX
  8
0
 62
7
  6
CONTINUOUS
 10
79.4899653979
 20
115.9185643633
  0
SEQEND
  0
LINE
  8
0
 62
7
  6
CONTINUOUS
 10
78.6399653979
 20
133.1607745107
 11
78.6399653979
 21
140.0124048443
  0
LINE
  8
0
 62
7
  6
CONTINUOUS
 10
78.9899653979
 20
120.3340351779
 11
78.9899653979
 21
113.4824048443
  0
POLYLINE
  8
0
 62
7
  6
CONTINUOUS
 66
1
 70
0
  0
VERTEX
  8
0
 62
7
  6
CONTINUOUS
 10
69.0899653979
 20
115.9976599729
  0
VERTEX
  8
0
 62
7
  6
CONTINUOUS
 10
69.0805146825
 20
115.9819606779
  0
VERTEX
  8
0
 62
7
  6
CONTINUOUS
 10
69.0524367288
 20
115.9670079621
  0
VERTEX
  8
0
 62
7
  6
CONTINUOUS
 10
69.0066638416
 20
115.9533362902
  0
VERTEX
  8
0
 62
7
  6
CONTINUOUS
 10
68.9448149301
 20
115.9414282669
  0
VERTEX
  8
0
 62
7
  6
CONTINUOUS
 10
68.8691582639
 20
115.9317010483
  0
VERTEX
  8
0
 62
7
  6
CONTINUOUS
 10
68.7825374059
 20
115.9244944867
  0
VERTEX
  8
0
 62
7
  6
CONTINUOUS
 10
68.6882611469
 20
115.9200619184
  0
VERTEX
  8
0
 62
7
  6
CONTINUOUS
 10
68.5899653979
 20
115.9185643633
  0
SEQEND
  0
LINE
  8
0
 62
7
  6
CONTINUOUS
 10
136.0399653979
 20
120.8340351779
 11
126.8899653979
 21
120.8340351779
  0
LINE
  8
0
 62
7
  6
CONTINUOUS
 10
116.6899653979
 20
120.8340351779
 11
107.7899653979
 21
120.8340351779
  0
LINE
  8
0
 62
7
  6
CONTINUOUS
 10
97.5899653979
 20
120.8340351779
 11
88.6899653979
 21
120.8340351779
  0
LINE
  8
0
 62
7
  6
CONTINUOUS
 10
78.4899653979
 20
120.8340351779
 11
69.5899653979
 21
120.8340351779
  0
LINE
  8
0
 62
7
  6
CONTINUOUS
 10
59.3899653979
 20
120.8340351779
 11
50.4899653979
 21
120.8340351779
  0
LINE
  8
0
 62
7
  6
CONTINUOUS
 10
40.2899653979
 20
120.8340351779
 11
31.1399653979
 21
120.8340351779
  0
LINE
  8
0
 62
7
  6
CONTINUOUS
 10
34.3699653979
 20
122.6324048443
 11
34.9499653979
 21
122.6324048443
  0
LINE
  8
0
 62
7
  6
CONTINUOUS
 10
36.7299653979
 20
122.6324048443
 11
37.3099653979
 21
122.6324048443
  0
LINE
  8
0
 62
7
  6
CONTINUOUS
 10
43.9199653979
 20
122.6324048443
 11
44.4999653979
 21
122.6324048443
  0
LINE
  8
0
 62
7
  6
CONTINUOUS
 10
46.2799653979
 20
122.6324048443
 11
46.8599653979
 21
122.6324048443
  0
LINE
  8
0
 62
7
  6
CONTINUOUS
 10
53.4699653979
 20
122.6324048443
 11
54.0499653979
 21
122.6324048443
  0
LINE
  8
0
 62
7
  6
CONTINUOUS
 10
55.8299653979
 20
122.6324048443
 11
56.4099653979
 21
122.6324048443
  0
LINE
  8
0
 62
7
  6
CONTINUOUS
 10
63.0199653979
 20
122.6324048443
 11
63.5999653979
 21
122.6324048443
  0
LINE
  8
0
 62
7
  6
CONTINUOUS
 10
65.3799653979
 20
122.6324048443
 11
65.9599653979
 21
122.6324048443
  0
LINE
  8
0
 62
7
  6
CONTINUOUS
 10
72.5699653979
 20
122.6324048443
 11
73.1499653979
 21
122.6324048443
  0
LINE
  8
0
 62
7
  6
CONTINUOUS
 10
74.9299653979
 20
122.6324048443
 11
75.5099653979
 21
122.6324048443
  0
LINE
  8
0
 62
7
  6
CONTINUOUS
 10
82.1199653979
 20
122.6324048443
 11
82.6999653979
 21
122.6324048443
  0
LINE
  8
0
 62
7
  6
CONTINUOUS
 10
84.4799653979
 20
122.6324048443
 11
85.0599653979
 21
122.6324048443
  0
LINE
  8
0
 62
7
  6
CONTINUOUS
 10
91.6699653979
 20
122.6324048443
 11
92.2499653979
 21
122.6324048443
  0
LINE
  8
0
 62
7
  6
CONTINUOUS
 10
94.0299653979
 20
122.6324048443
 11
94.6099653979
 21
122.6324048443
  0
LINE
  8
0
 62
7
  6
CONTINUOUS
 10
101.2199653979
 20
122.6324048443
 11
101.7999653979
 21
122.6324048443
  0
LINE
  8
0
 62
7
  6
CONTINUOUS
 10
103.5799653979
 20
122.6324048443
 11
104.1599653979
 21
122.6324048443
  0
LINE
  8
0
 62
7
  6
CONTINUOUS
 10
110.7699653979
 20
122.6324048443
 11
111.3499653979
 21
122.6324048443
  0
LINE
  8
0
 62
7
  6
CONTINUOUS
 10
113.1299653979
 20
122.6324048443
 11
113.7099653979
 21
122.6324048443
  0
LINE
  8
0
 62
7
  6
CONTINUOUS
 10
120.3199653979
 20
122.6324048443
 11
120.8999653979
 21
122.6324048443
  0
LINE
  8
0
 62
7
  6
CONTINUOUS
 10
122.6799653979
 20
122.6324048443
 11
123.2599653979
 21
122.6324048443
  0
LINE
  8
0
 62
7
  6
CONTINUOUS
 10
129.8699653979
 20
122.6324048443
 11
130.4499653979
 21
122.6324048443
  0
LINE
  8
0
 62
7
  6
CONTINUOUS
 10
132.2299653979
 20
122.6324048443
 11
132.8099653979
 21
122.6324048443
  0
LINE
  8
0
 62
7
  6
CONTINUOUS
 10
81.8199653979
 20
130.5624048443
 11
81.8199653979
 21
122.9324048443
  0
LINE
  8
0
 62
7
  6
CONTINUOUS
 10
82.9999653979
 20
122.9324048443
 11
82.9999653979
 21
130.5624048443
  0
LINE
  8
1_AXIS
 62
2
  6
CENTER
 10
83.5899653979
 20
142.5162618685
 11
83.5899653979
 21
128.7475048443
  0
LINE
  8
1_AXIS
 62
2
  6
CONTINUOUS
 10
83.5899653979
 20
127.6274048443
 11
83.5899653979
 21
125.8674048443
  0
LINE
  8
1_AXIS
 62
2
  6
CENTER
 10
83.5899653979
 20
107.262670173
 11
83.5899653979
 21
124.7473048443
  0
POLYLINE
  8
0
 62
7
  6
CONTINUOUS
 66
1
 70
0
  0
VERTEX
  8
0
 62
7
  6
CONTINUOUS
 10
88.5399653979
 20
137.4971497157
  0
VERTEX
  8
0
 62
7
  6
CONTINUOUS
 10
88.5494161133
 20
137.5128490107
  0
VERTEX
  8
0
 62
7
  6
CONTINUOUS
 10
88.577494067
 20
137.5278017265
  0
VERTEX
  8
0
 62
7
  6
CONTINUOUS
 10
88.6232669543
 20
137.5414733984
  0
VERTEX
  8
0
 62
7
  6
CONTINUOUS
 10
88.6851158657
 20
137.5533814217
  0
VERTEX
  8
0
 62
7
  6
CONTINUOUS
 10
88.7607725319
 20
137.5631086403
  0
VERTEX
  8
0
 62
7
  6
CONTINUOUS
 10
88.8473933899
 20
137.5703152019
  0
VERTEX
  8
0
 62
7
  6
CONTINUOUS
 10
88.9416696489
 20
137.5747477702
  0
VERTEX
  8
0
 62
7
  6
CONTINUOUS
 10
89.0399653979
 20
137.5762453253
  0
SEQEND
  0
LINE
  8
1_AXIS
 62
2
  6
CENTER
 10
146.5744094118
 20
126.7474048443
 11
85.5900653979
 21
126.7474048443
  0
LINE
  8
1_AXIS
 62
2
  6
CONTINUOUS
 10
84.4699653979
 20
126.7474048443
 11
82.7099653979
 21
126.7474048443
  0
LINE
  8
1_AXIS
 62
2
  6
CENTER
 10
22.046796955
 20
126.7474048443
 11
81.5898653979
 21
126.7474048443
  0
LINE
  8
0
 62
7
  6
CONTINUOUS
 10
84.1799653979
 20
130.5624048443
 11
84.1799653979
 21
122.9324048443
  0
LINE
  8
0
 62
7
  6
CONTINUOUS
 10
85.3599653979
 20
122.9324048443
 11
85.3599653979
 21
130.5624048443
  0
LINE
  8
0
 62
7
  6
CONTINUOUS
 10
132.8099653979
 20
130.8624048443
 11
132.2299653979
 21
130.8624048443
  0
LINE
  8
0
 62
7
  6
CONTINUOUS
 10
130.4499653979
 20
130.8624048443
 11
129.8699653979
 21
130.8624048443
  0
LINE
  8
0
 62
7
  6
CONTINUOUS
 10
123.2599653979
 20
130.8624048443
 11
122.6799653979
 21
130.8624048443
  0
LINE
  8
0
 62
7
  6
CONTINUOUS
 10
120.8999653979
 20
130.8624048443
 11
120.3199653979
 21
130.8624048443
  0
LINE
  8
0
 62
7
  6
CONTINUOUS
 10
113.7099653979
 20
130.8624048443
 11
113.1299653979
 21
130.8624048443
  0
LINE
  8
0
 62
7
  6
CONTINUOUS
 10
111.3499653979
 20
130.8624048443
 11
110.7699653979
 21
130.8624048443
  0
LINE
  8
0
 62
7
  6
CONTINUOUS
 10
104.1599653979
 20
130.8624048443
 11
103.5799653979
 21
130.8624048443
  0
LINE
  8
0
 62
7
  6
CONTINUOUS
 10
101.7999653979
 20
130.8624048443
 11
101.2199653979
 21
130.8624048443
  0
LINE
  8
0
 62
7
  6
CONTINUOUS
 10
94.6099653979
 20
130.8624048443
 11
94.0299653979
 21
130.8624048443
  0
LINE
  8
0
 62
7
  6
CONTINUOUS
 10
92.2499653979
 20
130.8624048443
 11
91.6699653979
 21
130.8624048443
  0
LINE
  8
0
 62
7
  6
CONTINUOUS
 10
85.0599653979
 20
130.8624048443
 11
84.4799653979
 21
130.8624048443
  0
LINE
  8
0
 62
7
  6
CONTINUOUS
 10
82.6999653979
 20
130.8624048443
 11
82.1199653979
 21
130.8624048443
  0
LINE
  8
0
 62
7
  6
CONTINUOUS
 10
75.5099653979
 20
130.8624048443
 11
74.9299653979
 21
130.8624048443
  0
LINE
  8
0
 62
7
  6
CONTINUOUS
 10
73.1499653979
 20
130.8624048443
 11
72.5699653979
 21
130.8624048443
  0
LINE
  8
0
 62
7
  6
CONTINUOUS
 10
65.9599653979
 20
130.8624048443
 11
65.3799653979
 21
130.8624048443
  0
LINE
  8
0
 62
7
  6
CONTINUOUS
 10
63.5999653979
 20
130.8624048443
 11
63.0199653979
 21
130.8624048443
  0
LINE
  8
0
 62
7
  6
CONTINUOUS
 10
56.4099653979
 20
130.8624048443
 11
55.8299653979
 21
130.8624048443
  0
LINE
  8
0
 62
7
  6
CONTINUOUS
 10
54.0499653979
 20
130.8624048443
 11
53.4699653979
 21
130.8624048443
  0
LINE
  8
0
 62
7
  6
CONTINUOUS
 10
46.8599653979
 20
130.8624048443
 11
46.2799653979
 21
130.8624048443
  0
LINE
  8
0
 62
7
  6
CONTINUOUS
 10
44.4999653979
 20
130.8624048443
 11
43.9199653979
 21
130.8624048443
  0
LINE
  8
0
 62
7
  6
CONTINUOUS
 10
37.3099653979
 20
130.8624048443
 11
36.7299653979
 21
130.8624048443
  0
LINE
  8
0
 62
7
  6
CONTINUOUS
 10
34.9499653979
 20
130.8624048443
 11
34.3699653979
 21
130.8624048443
  0
POLYLINE
  8
0
 62
7
  6
CONTINUOUS
 66
1
 70
0
  0
VERTEX
  8
0
 62
7
  6
CONTINUOUS
 10
78.6399653979
 20
137.4971497157
  0
VERTEX
  8
0
 62
7
  6
CONTINUOUS
 10
78.6305146825
 20
137.5128490107
  0
VERTEX
  8
0
 62
7
  6
CONTINUOUS
 10
78.6024367288
 20
137.5278017265
  0
VERTEX
  8
0
 62
7
  6
CONTINUOUS
 10
78.5566638416
 20
137.5414733984
  0
VERTEX
  8
0
 62
7
  6
CONTINUOUS
 10
78.4948149301
 20
137.5533814217
  0
VERTEX
  8
0
 62
7
  6
CONTINUOUS
 10
78.4191582639
 20
137.5631086403
  0
VERTEX
  8
0
 62
7
  6
CONTINUOUS
 10
78.3325374059
 20
137.5703152019
  0
VERTEX
  8
0
 62
7
  6
CONTINUOUS
 10
78.2382611469
 20
137.5747477702
  0
VERTEX
  8
0
 62
7
  6
CONTINUOUS
 10
78.1399653979
 20
137.5762453253
  0
SEQEND
  0
LINE
  8
0
 62
7
  6
CONTINUOUS
 10
88.1899653979
 20
120.3340351779
 11
88.1899653979
 21
113.4824048443
  0
LINE
  8
0
 62
7
  6
CONTINUOUS
 10
88.5399653979
 20
133.1607744249
 11
88.5399653979
 21
140.0124048443
  0
LINE
  8
0
 62
7
  6
CONTINUOUS
 10
91.3699653979
 20
130.5624048443
 11
91.3699653979
 21
122.9324048443
  0
LINE
  8
0
 62
7
  6
CONTINUOUS
 10
27.1899653979
 20
132.6607745107
 11
31.1899653979
 21
132.6607745107
  0
LINE
  8
0
 62
7
  6
CONTINUOUS
 10
40.9399653979
 20
132.6607745107
 11
49.8399653979
 21
132.6607745107
  0
LINE
  8
0
 62
7
  6
CONTINUOUS
 10
60.0399653979
 20
132.6607745107
 11
68.9399653979
 21
132.6607745107
  0
LINE
  8
0
 62
7
  6
CONTINUOUS
 10
79.1399653979
 20
132.6607745107
 11
88.0399653979
 21
132.6607745107
  0
LINE
  8
0
 62
7
  6
CONTINUOUS
 10
98.2399653979
 20
132.6607745107
 11
107.1399653979
 21
132.6607745107
  0
LINE
  8
0
 62
7
  6
CONTINUOUS
 10
117.3399653979
 20
132.6607745107
 11
126.2399653979
 21
132.6607745107
  0
LINE
  8
0
 62
7
  6
CONTINUOUS
 10
135.9899653979
 20
132.6607745107
 11
139.9899653979
 21
132.6607745107
  0
POLYLINE
  8
0
 62
7
  6
CONTINUOUS
 66
1
 70
0
  0
VERTEX
  8
0
 62
7
  6
CONTINUOUS
 10
98.0899653979
 20
115.9976599729
  0
VERTEX
  8
0
 62
7
  6
CONTINUOUS
 10
98.0994161133
 20
115.9819606779
  0
VERTEX
  8
0
 62
7
  6
CONTINUOUS
 10
98.127494067
 20
115.9670079621
  0
VERTEX
  8
0
 62
7
  6
CONTINUOUS
 10
98.1732669543
 20
115.9533362902
  0
VERTEX
  8
0
 62
7
  6
CONTINUOUS
 10
98.2351158657
 20
115.9414282669
  0
VERTEX
  8
0
 62
7
  6
CONTINUOUS
 10
98.3107725319
 20
115.9317010483
  0
VERTEX
  8
0
 62
7
  6
CONTINUOUS
 10
98.3973933899
 20
115.9244944867
  0
VERTEX
  8
0
 62
7
  6
CONTINUOUS
 10
98.4916696489
 20
115.9200619184
  0
VERTEX
  8
0
 62
7
  6
CONTINUOUS
 10
98.5899653979
 20
115.9185643633
  0
SEQEND
  0
LINE
  8
0
 62
7
  6
CONTINUOUS
 10
92.5499653979
 20
122.9324048443
 11
92.5499653979
 21
130.5624048443
  0
LINE
  8
0
 62
7
  6
CONTINUOUS
 10
93.7299653979
 20
130.5624048443
 11
93.7299653979
 21
122.9324048443
  0
LINE
  8
0
 62
7
  6
CONTINUOUS
 10
94.9099653979
 20
122.9324048443
 11
94.9099653979
 21
130.5624048443
  0
POLYLINE
  8
0
 62
7
  6
CONTINUOUS
 66
1
 70
0
  0
VERTEX
  8
0
 62
7
  6
CONTINUOUS
 10
88.1899653979
 20
115.9976599729
  0
VERTEX
  8
0
 62
7
  6
CONTINUOUS
 10
88.1805146825
 20
115.9819606779
  0
VERTEX
  8
0
 62
7
  6
CONTINUOUS
 10
88.1524367288
 20
115.9670079621
  0
VERTEX
  8
0
 62
7
  6
CONTINUOUS
 10
88.1066638416
 20
115.9533362902
  0
VERTEX
  8
0
 62
7
  6
CONTINUOUS
 10
88.0448149301
 20
115.9414282669
  0
VERTEX
  8
0
 62
7
  6
CONTINUOUS
 10
87.9691582639
 20
115.9317010483
  0
VERTEX
  8
0
 62
7
  6
CONTINUOUS
 10
87.8825374059
 20
115.9244944867
  0
VERTEX
  8
0
 62
7
  6
CONTINUOUS
 10
87.7882611469
 20
115.9200619184
  0
VERTEX
  8
0
 62
7
  6
CONTINUOUS
 10
87.6899653979
 20
115.9185643633
  0
SEQEND
  0
POLYLINE
  8
0
 62
7
  6
CONTINUOUS
 66
1
 70
0
  0
VERTEX
  8
0
 62
7
  6
CONTINUOUS
 10
27.1899653979
 20
132.6607745107
  0
VERTEX
  8
0
 62
7
  6
CONTINUOUS
 10
27.0778228988
 20
132.6480363088
  0
VERTEX
  8
0
 62
7
  6
CONTINUOUS
 10
26.9721664185
 20
132.6108451769
  0
VERTEX
  8
0
 62
7
  6
CONTINUOUS
 10
26.8778189204
 20
132.5513696676
  0
VERTEX
  8
0
 62
7
  6
CONTINUOUS
 10
26.7991029247
 20
132.4725861959
  0
VERTEX
  8
0
 62
7
  6
CONTINUOUS
 10
26.739722758
 20
132.3782177566
  0
VERTEX
  8
0
 62
7
  6
CONTINUOUS
 10
26.7026378327
 20
132.2726308656
  0
VERTEX
  8
0
 62
7
  6
CONTINUOUS
 10
26.6899653979
 20
132.1607745107
  0
SEQEND
  0
LINE
  8
1_AXIS
 62
2
  6
CENTER
 10
24.8530530104
 20
136.2724048443
 11
144.4697173702
 21
136.2724048443
  0
LINE
  8
0
 62
7
  6
CONTINUOUS
 10
32.1899653979
 20
137.5762453253
 11
39.9399653979
 21
137.5762453253
  0
LINE
  8
0
 62
7
  6
CONTINUOUS
 10
50.8399653979
 20
137.5762453253
 11
59.0399653979
 21
137.5762453253
  0
LINE
  8
0
 62
7
  6
CONTINUOUS
 10
69.9399653979
 20
137.5762453253
 11
78.1399653979
 21
137.5762453253
  0
LINE
  8
0
 62
7
  6
CONTINUOUS
 10
89.0399653979
 20
137.5762453253
 11
97.2399653979
 21
137.5762453253
  0
LINE
  8
0
 62
7
  6
CONTINUOUS
 10
108.1399653979
 20
137.5762453253
 11
116.3399653979
 21
137.5762453253
  0
LINE
  8
0
 62
7
  6
CONTINUOUS
 10
127.2399653979
 20
137.5762453253
 11
134.9899653979
 21
137.5762453253
  0
POLYLINE
  8
0
 62
7
  6
CONTINUOUS
 66
1
 70
0
  0
VERTEX
  8
0
 62
7
  6
CONTINUOUS
 10
139.9899653979
 20
132.6607745107
  0
VERTEX
  8
0
 62
7
  6
CONTINUOUS
 10
140.1021078971
 20
132.6480363088
  0
VERTEX
  8
0
 62
7
  6
CONTINUOUS
 10
140.2077643773
 20
132.6108451769
  0
VERTEX
  8
0
 62
7
  6
CONTINUOUS
 10
140.3021118754
 20
132.5513696676
  0
VERTEX
  8
0
 62
7
  6
CONTINUOUS
 10
140.3808278712
 20
132.4725861959
  0
VERTEX
  8
0
 62
7
  6
CONTINUOUS
 10
140.4402080378
 20
132.3782177566
  0
VERTEX
  8
0
 62
7
  6
CONTINUOUS
 10
140.4772929632
 20
132.2726308656
  0
VERTEX
  8
0
 62
7
  6
CONTINUOUS
 10
140.4899653979
 20
132.1607745107
  0
SEQEND
  0
LINE
  8
0
 62
7
  6
CONTINUOUS
 10
97.7399653979
 20
133.1607745107
 11
97.7399653979
 21
140.0124048443
  0
LINE
  8
0
 62
7
  6
CONTINUOUS
 10
98.0899653979
 20
113.4824048443
 11
98.0899653979
 21
120.3340351779
  0
POLYLINE
  8
0
 62
7
  6
CONTINUOUS
 66
1
 70
0
  0
VERTEX
  8
0
 62
7
  6
CONTINUOUS
 10
107.6399653979
 20
137.4971497157
  0
VERTEX
  8
0
 62
7
  6
CONTINUOUS
 10
107.6494161133
 20
137.5128490107
  0
VERTEX
  8
0
 62
7
  6
CONTINUOUS
 10
107.677494067
 20
137.5278017265
  0
VERTEX
  8
0
 62
7
  6
CONTINUOUS
 10
107.7232669543
 20
137.5414733984
  0
VERTEX
  8
0
 62
7
  6
CONTINUOUS
 10
107.7851158657
 20
137.5533814217
  0
VERTEX
  8
0
 62
7
  6
CONTINUOUS
 10
107.8607725319
 20
137.5631086403
  0
VERTEX
  8
0
 62
7
  6
CONTINUOUS
 10
107.9473933899
 20
137.5703152019
  0
VERTEX
  8
0
 62
7
  6
CONTINUOUS
 10
108.0416696489
 20
137.5747477702
  0
VERTEX
  8
0
 62
7
  6
CONTINUOUS
 10
108.1399653979
 20
137.5762453253
  0
SEQEND
  0
LINE
  8
0
 62
7
  6
CONTINUOUS
 10
32.1899653979
 20
140.5124048443
 11
39.9399653979
 21
140.5124048443
  0
LINE
  8
0
 62
7
  6
CONTINUOUS
 10
50.8399653979
 20
140.5124048443
 11
59.0399653979
 21
140.5124048443
  0
LINE
  8
0
 62
7
  6
CONTINUOUS
 10
69.9399653979
 20
140.5124048443
 11
78.1399653979
 21
140.5124048443
  0
LINE
  8
0
 62
7
  6
CONTINUOUS
 10
89.0399653979
 20
140.5124048443
 11
97.2399653979
 21
140.5124048443
  0
LINE
  8
0
 62
7
  6
CONTINUOUS
 10
108.1399653979
 20
140.5124048443
 11
116.3399653979
 21
140.5124048443
  0
LINE
  8
0
 62
7
  6
CONTINUOUS
 10
127.2399653979
 20
140.5124048443
 11
134.9899653979
 21
140.5124048443
  0
LINE
  8
0
 62
7
  6
CONTINUOUS
 10
100.9199653979
 20
130.5624048443
 11
100.9199653979
 21
122.9324048443
  0
LINE
  8
0
 62
7
  6
CONTINUOUS
 10
102.0999653979
 20
122.9324048443
 11
102.0999653979
 21
130.5624048443
  0
LINE
  8
0
 62
7
  6
CONTINUOUS
 10
103.2799653979
 20
130.5624048443
 11
103.2799653979
 21
122.9324048443
  0
POLYLINE
  8
0
 62
7
  6
CONTINUOUS
 66
1
 70
0
  0
VERTEX
  8
0
 62
7
  6
CONTINUOUS
 10
97.7399653979
 20
137.4971497157
  0
VERTEX
  8
0
 62
7
  6
CONTINUOUS
 10
97.7305146825
 20
137.5128490107
  0
VERTEX
  8
0
 62
7
  6
CONTINUOUS
 10
97.7024367288
 20
137.5278017265
  0
VERTEX
  8
0
 62
7
  6
CONTINUOUS
 10
97.6566638416
 20
137.5414733984
  0
VERTEX
  8
0
 62
7
  6
CONTINUOUS
 10
97.5948149301
 20
137.5533814217
  0
VERTEX
  8
0
 62
7
  6
CONTINUOUS
 10
97.5191582639
 20
137.5631086403
  0
VERTEX
  8
0
 62
7
  6
CONTINUOUS
 10
97.4325374059
 20
137.5703152019
  0
VERTEX
  8
0
 62
7
  6
CONTINUOUS
 10
97.3382611469
 20
137.5747477702
  0
VERTEX
  8
0
 62
7
  6
CONTINUOUS
 10
97.2399653979
 20
137.5762453253
  0
SEQEND
  0
LINE
  8
0
 62
7
  6
CONTINUOUS
 10
104.4599653979
 20
122.9324048443
 11
104.4599653979
 21
130.5624048443
  0
LINE
  8
0
 62
7
  6
CONTINUOUS
 10
107.2899653979
 20
120.3340351779
 11
107.2899653979
 21
113.4824048443
  0
POLYLINE
  8
0
 62
7
  6
CONTINUOUS
 66
1
 70
0
  0
VERTEX
  8
0
 62
7
  6
CONTINUOUS
 10
117.1899653979
 20
115.9976599729
  0
VERTEX
  8
0
 62
7
  6
CONTINUOUS
 10
117.1994161133
 20
115.9819606779
  0
VERTEX
  8
0
 62
7
  6
CONTINUOUS
 10
117.227494067
 20
115.9670079621
  0
VERTEX
  8
0
 62
7
  6
CONTINUOUS
 10
117.2732669543
 20
115.9533362902
  0
VERTEX
  8
0
 62
7
  6
CONTINUOUS
 10
117.3351158657
 20
115.9414282669
  0
VERTEX
  8
0
 62
7
  6
CONTINUOUS
 10
117.4107725319
 20
115.9317010483
  0
VERTEX
  8
0
 62
7
  6
CONTINUOUS
 10
117.4973933899
 20
115.9244944867
  0
VERTEX
  8
0
 62
7
  6
CONTINUOUS
 10
117.5916696489
 20
115.9200619184
  0
VERTEX
  8
0
 62
7
  6
CONTINUOUS
 10
117.6899653979
 20
115.9185643633
  0
SEQEND
  0
LINE
  8
0
 62
7
  6
CONTINUOUS
 10
107.6399653979
 20
133.1607744249
 11
107.6399653979
 21
140.0124048443
  0
LINE
  8
0
 62
7
  6
CONTINUOUS
 10
110.4699653979
 20
130.5624048443
 11
110.4699653979
 21
122.9324048443
  0
POLYLINE
  8
0
 62
7
  6
CONTINUOUS
 66
1
 70
0
  0
VERTEX
  8
0
 62
7
  6
CONTINUOUS
 10
107.2899653979
 20
115.9976599729
  0
VERTEX
  8
0
 62
7
  6
CONTINUOUS
 10
107.2805146825
 20
115.9819606779
  0
VERTEX
  8
0
 62
7
  6
CONTINUOUS
 10
107.2524367288
 20
115.9670079621
  0
VERTEX
  8
0
 62
7
  6
CONTINUOUS
 10
107.2066638416
 20
115.9533362902
  0
VERTEX
  8
0
 62
7
  6
CONTINUOUS
 10
107.1448149301
 20
115.9414282669
  0
VERTEX
  8
0
 62
7
  6
CONTINUOUS
 10
107.0691582639
 20
115.9317010483
  0
VERTEX
  8
0
 62
7
  6
CONTINUOUS
 10
106.9825374059
 20
115.9244944867
  0
VERTEX
  8
0
 62
7
  6
CONTINUOUS
 10
106.8882611469
 20
115.9200619184
  0
VERTEX
  8
0
 62
7
  6
CONTINUOUS
 10
106.7899653979
 20
115.9185643633
  0
SEQEND
  0
LINE
  8
0
 62
7
  6
CONTINUOUS
 10
111.6499653979
 20
122.9324048443
 11
111.6499653979
 21
130.5624048443
  0
LINE
  8
0
 62
7
  6
CONTINUOUS
 10
112.8299653979
 20
130.5624048443
 11
112.8299653979
 21
122.9324048443
  0
LINE
  8
0
 62
7
  6
CONTINUOUS
 10
114.0099653979
 20
122.9324048443
 11
114.0099653979
 21
130.5624048443
  0
POLYLINE
  8
0
 62
7
  6
CONTINUOUS
 66
1
 70
0
  0
VERTEX
  8
0
 62
7
  6
CONTINUOUS
 10
126.7399653979
 20
137.4971497157
  0
VERTEX
  8
0
 62
7
  6
CONTINUOUS
 10
126.7494161133
 20
137.5128490107
  0
VERTEX
  8
0
 62
7
  6
CONTINUOUS
 10
126.777494067
 20
137.5278017265
  0
VERTEX
  8
0
 62
7
  6
CONTINUOUS
 10
126.8232669543
 20
137.5414733984
  0
VERTEX
  8
0
 62
7
  6
CONTINUOUS
 10
126.8851158657
 20
137.5533814217
  0
VERTEX
  8
0
 62
7
  6
CONTINUOUS
 10
126.9607725319
 20
137.5631086403
  0
VERTEX
  8
0
 62
7
  6
CONTINUOUS
 10
127.0473933899
 20
137.5703152019
  0
VERTEX
  8
0
 62
7
  6
CONTINUOUS
 10
127.1416696489
 20
137.5747477702
  0
VERTEX
  8
0
 62
7
  6
CONTINUOUS
 10
127.2399653979
 20
137.5762453253
  0
SEQEND
  0
LINE
  8
0
 62
7
  6
CONTINUOUS
 10
116.8399653979
 20
133.1607745107
 11
116.8399653979
 21
140.0124048443
  0
LINE
  8
0
 62
7
  6
CONTINUOUS
 10
117.1899653979
 20
120.3340351779
 11
117.1899653979
 21
113.4824048443
  0
POLYLINE
  8
0
 62
7
  6
CONTINUOUS
 66
1
 70
0
  0
VERTEX
  8
0
 62
7
  6
CONTINUOUS
 10
116.8399653979
 20
137.4971497157
  0
VERTEX
  8
0
 62
7
  6
CONTINUOUS
 10
116.8305146825
 20
137.5128490107
  0
VERTEX
  8
0
 62
7
  6
CONTINUOUS
 10
116.8024367288
 20
137.5278017265
  0
VERTEX
  8
0
 62
7
  6
CONTINUOUS
 10
116.7566638416
 20
137.5414733984
  0
VERTEX
  8
0
 62
7
  6
CONTINUOUS
 10
116.6948149301
 20
137.5533814217
  0
VERTEX
  8
0
 62
7
  6
CONTINUOUS
 10
116.6191582639
 20
137.5631086403
  0
VERTEX
  8
0
 62
7
  6
CONTINUOUS
 10
116.5325374059
 20
137.5703152019
  0
VERTEX
  8
0
 62
7
  6
CONTINUOUS
 10
116.4382611469
 20
137.5747477702
  0
VERTEX
  8
0
 62
7
  6
CONTINUOUS
 10
116.3399653979
 20
137.5762453253
  0
SEQEND
  0
LINE
  8
0
 62
7
  6
CONTINUOUS
 10
120.0199653979
 20
130.5624048443
 11
120.0199653979
 21
122.9324048443
  0
LINE
  8
0
 62
7
  6
CONTINUOUS
 10
121.1999653979
 20
122.9324048443
 11
121.1999653979
 21
130.5624048443
  0
LINE
  8
0
 62
7
  6
CONTINUOUS
 10
122.3799653979
 20
130.5624048443
 11
122.3799653979
 21
122.9324048443
  0
LINE
  8
0
 62
7
  6
CONTINUOUS
 10
123.5599653979
 20
122.9324048443
 11
123.5599653979
 21
130.5624048443
  0
LINE
  8
0
 62
7
  6
CONTINUOUS
 10
126.3899653979
 20
113.4824048443
 11
126.3899653979
 21
120.3340351779
  0
LINE
  8
0
 62
7
  6
CONTINUOUS
 10
126.7399653979
 20
133.1607744249
 11
126.7399653979
 21
140.0124048443
  0
POLYLINE
  8
0
 62
7
  6
CONTINUOUS
 66
1
 70
0
  0
VERTEX
  8
0
 62
7
  6
CONTINUOUS
 10
126.3899653979
 20
115.9976599729
  0
VERTEX
  8
0
 62
7
  6
CONTINUOUS
 10
126.3805146825
 20
115.9819606779
  0
VERTEX
  8
0
 62
7
  6
CONTINUOUS
 10
126.3524367288
 20
115.9670079621
  0
VERTEX
  8
0
 62
7
  6
CONTINUOUS
 10
126.3066638416
 20
115.9533362902
  0
VERTEX
  8
0
 62
7
  6
CONTINUOUS
 10
126.2448149301
 20
115.9414282669
  0
VERTEX
  8
0
 62
7
  6
CONTINUOUS
 10
126.1691582639
 20
115.9317010483
  0
VERTEX
  8
0
 62
7
  6
CONTINUOUS
 10
126.0825374059
 20
115.9244944867
  0
VERTEX
  8
0
 62
7
  6
CONTINUOUS
 10
125.9882611469
 20
115.9200619184
  0
VERTEX
  8
0
 62
7
  6
CONTINUOUS
 10
125.8899653979
 20
115.9185643633
  0
SEQEND
  0
POLYLINE
  8
0
 62
7
  6
CONTINUOUS
 66
1
 70
0
  0
VERTEX
  8
0
 62
7
  6
CONTINUOUS
 10
136.5399653979
 20
115.9976599729
  0
VERTEX
  8
0
 62
7
  6
CONTINUOUS
 10
136.5494161133
 20
115.9819606779
  0
VERTEX
  8
0
 62
7
  6
CONTINUOUS
 10
136.577494067
 20
115.9670079621
  0
VERTEX
  8
0
 62
7
  6
CONTINUOUS
 10
136.6232669543
 20
115.9533362902
  0
VERTEX
  8
0
 62
7
  6
CONTINUOUS
 10
136.6851158657
 20
115.9414282669
  0
VERTEX
  8
0
 62
7
  6
CONTINUOUS
 10
136.7607725319
 20
115.9317010483
  0
VERTEX
  8
0
 62
7
  6
CONTINUOUS
 10
136.8473933899
 20
115.9244944867
  0
VERTEX
  8
0
 62
7
  6
CONTINUOUS
 10
136.9416696489
 20
115.9200619184
  0
VERTEX
  8
0
 62
7
  6
CONTINUOUS
 10
137.0399653979
 20
115.9185643633
  0
SEQEND
  0
LINE
  8
0
 62
7
  6
CONTINUOUS
 10
129.5699653979
 20
130.5624048443
 11
129.5699653979
 21
122.9324048443
  0
LINE
  8
0
 62
7
  6
CONTINUOUS
 10
130.7499653979
 20
122.9324048443
 11
130.7499653979
 21
130.5624048443
  0
LINE
  8
0
 62
7
  6
CONTINUOUS
 10
131.9299653979
 20
130.5624048443
 11
131.9299653979
 21
122.9324048443
  0
LINE
  8
0
 62
7
  6
CONTINUOUS
 10
133.1099653979
 20
122.9324048443
 11
133.1099653979
 21
130.5624048443
  0
LINE
  8
0
 62
7
  6
CONTINUOUS
 10
140.5738330305
 20
130.9648845343
 11
140.6060977654
 21
130.9164468588
  0
POLYLINE
  8
0
 62
7
  6
CONTINUOUS
 66
1
 70
0
  0
VERTEX
  8
0
 62
7
  6
CONTINUOUS
 10
135.4899653979
 20
137.4971497157
  0
VERTEX
  8
0
 62
7
  6
CONTINUOUS
 10
135.4805146825
 20
137.5128490107
  0
VERTEX
  8
0
 62
7
  6
CONTINUOUS
 10
135.4524367288
 20
137.5278017265
  0
VERTEX
  8
0
 62
7
  6
CONTINUOUS
 10
135.4066638416
 20
137.5414733984
  0
VERTEX
  8
0
 62
7
  6
CONTINUOUS
 10
135.3448149301
 20
137.5533814217
  0
VERTEX
  8
0
 62
7
  6
CONTINUOUS
 10
135.2691582639
 20
137.5631086403
  0
VERTEX
  8
0
 62
7
  6
CONTINUOUS
 10
135.1825374059
 20
137.5703152019
  0
VERTEX
  8
0
 62
7
  6
CONTINUOUS
 10
135.0882611469
 20
137.5747477702
  0
VERTEX
  8
0
 62
7
  6
CONTINUOUS
 10
134.9899653979
 20
137.5762453253
  0
SEQEND
  0
LINE
  8
0
 62
7
  6
CONTINUOUS
 10
135.4899653979
 20
133.1607745107
 11
135.4899653979
 21
140.0124048443
  0
LINE
  8
0
 62
7
  6
CONTINUOUS
 10
136.5399653979
 20
120.3340351779
 11
136.5399653979
 21
113.4824048443
  0
LINE
  8
0
 62
7
  6
CONTINUOUS
 10
140.4899653979
 20
132.1607745107
 11
140.4899653979
 21
131.2420737346
  0
LINE
  8
0
 62
7
  6
CONTINUOUS
 10
140.4899653979
 20
120.972684666
 11
140.4899653979
 21
113.4824048443
  0
LINE
  8
0
 62
7
  6
CONTINUOUS
 10
140.6899653979
 20
130.6392576586
 11
140.6899653979
 21
121.572684666
  0
LINE
  8
0
 62
7
  6
CONTINUOUS
 10
171.4410895907
 20
112.9824048443
 11
173.3852089286
 21
112.9824048443
  0
LINE
  8
1_AXIS
 62
2
  6
CONTINUOUS
 10
173.2931492596
 20
117.2224048443
 11
171.5331492596
 21
117.2224048443
  0
LINE
  8
1_AXIS
 62
2
  6
CENTER
 10
168.0131492596
 20
117.2224048443
 11
166.1731492596
 21
117.2224048443
  0
LINE
  8
1_AXIS
 62
2
  6
CENTER
 10
176.8131492596
 20
117.2224048443
 11
178.6531492596
 21
117.2224048443
  0
LINE
  8
0
 62
7
  6
CONTINUOUS
 10
176.5631492596
 20
115.9185643633
 11
176.3394867472
 21
115.9533362902
  0
POLYLINE
  8
0
 62
7
  6
CONTINUOUS
 66
1
 70
0
  0
VERTEX
  8
0
 62
7
  6
CONTINUOUS
 10
176.3394867472
 20
115.9533362902
  0
VERTEX
  8
0
 62
7
  6
CONTINUOUS
 10
176.1599035846
 20
115.9819606779
  0
VERTEX
  8
0
 62
7
  6
CONTINUOUS
 10
176.0631492596
 20
115.9976599729
  0
SEQEND
  0
LINE
  8
0
 62
7
  6
CONTINUOUS
 10
168.0631492596
 20
136.2724048443
 11
168.0631492596
 21
117.2224582437
  0
LINE
  8
0
 62
7
  6
CONTINUOUS
 10
174.4303100805
 20
131.6995429152
 11
174.2544979367
 21
131.6259611451
  0
LINE
  8
0
 62
7
  6
CONTINUOUS
 10
169.7631492596
 20
131.0907914472
 11
169.7631492596
 21
120.9102226272
  0
LINE
  8
1_AXIS
 62
2
  6
CONTINUOUS
 10
172.4131492596
 20
137.1524048443
 11
172.4131492596
 21
135.3924048443
  0
LINE
  8
1_AXIS
 62
2
  6
CENTER
 10
172.4131492596
 20
131.8724048443
 11
172.4131492596
 21
130.0324048443
  0
LINE
  8
1_AXIS
 62
2
  6
CONTINUOUS
 10
172.4131492596
 20
118.1024048443
 11
172.4131492596
 21
116.3424048443
  0
LINE
  8
1_AXIS
 62
2
  6
CENTER
 10
172.4131492596
 20
112.8224048443
 11
172.4131492596
 21
110.9824048443
  0
LINE
  8
1_AXIS
 62
2
  6
CENTER
 10
172.4131492596
 20
121.6224048443
 11
172.4131492596
 21
123.4624048443
  0
LINE
  8
1_AXIS
 62
2
  6
CENTER
 10
172.4131492596
 20
140.6724048443
 11
172.4131492596
 21
142.5124048443
  0
LINE
  8
0
 62
7
  6
CONTINUOUS
 10
173.3495465562
 20
140.2030407401
 11
173.3852089286
 21
140.5124048443
  0
LINE
  8
0
 62
7
  6
CONTINUOUS
 10
173.3268778845
 20
140.0124048443
 11
173.3495465562
 21
140.2030407401
  0
LINE
  8
1_AXIS
 62
2
  6
CENTER
 10
165.5631487168
 20
126.7474048443
 11
179.0631498744
 21
126.7474048443
  0
LINE
  8
0
 62
7
  6
CONTINUOUS
 10
173.3684112216
 20
113.1295620443
 11
173.3268778845
 21
113.4824048443
  0
LINE
  8
0
 62
7
  6
CONTINUOUS
 10
173.3852089286
 20
112.9824048443
 11
173.3684112216
 21
113.1295620443
  0
LINE
  8
0
 62
7
  6
CONTINUOUS
 10
171.4410895907
 20
112.9824048443
 11
171.4666618166
 21
113.2054117543
  0
POLYLINE
  8
0
 62
7
  6
CONTINUOUS
 66
1
 70
0
  0
VERTEX
  8
0
 62
7
  6
CONTINUOUS
 10
171.4666618166
 20
113.2054117543
  0
VERTEX
  8
0
 62
7
  6
CONTINUOUS
 10
171.4878036257
 20
113.3852932887
  0
VERTEX
  8
0
 62
7
  6
CONTINUOUS
 10
171.4994206347
 20
113.4824048443
  0
SEQEND
  0
LINE
  8
0
 62
7
  6
CONTINUOUS
 10
171.4994206347
 20
140.0124048443
 11
171.476751963
 21
140.2030407401
  0
LINE
  8
0
 62
7
  6
CONTINUOUS
 10
171.476751963
 20
140.2030407401
 11
171.4507312557
 21
140.427624909
  0
LINE
  8
0
 62
7
  6
CONTINUOUS
 10
171.4507312557
 20
140.427624909
 11
171.4410895907
 21
140.5124048443
  0
LINE
  8
0
 62
7
  6
CONTINUOUS
 10
176.5631492596
 20
115.9185643633
 11
176.5631492596
 21
137.5762453253
  0
LINE
  8
0
 62
7
  6
CONTINUOUS
 10
174.0702893856
 20
131.5907914472
 11
170.2519936526
 21
131.5907914472
  0
LINE
  8
1_AXIS
 62
2
  6
CONTINUOUS
 10
173.2931492596
 20
136.2724048443
 11
171.5331492596
 21
136.2724048443
  0
LINE
  8
1_AXIS
 62
2
  6
CENTER
 10
168.0131492596
 20
136.2724048443
 11
166.1731492596
 21
136.2724048443
  0
LINE
  8
1_AXIS
 62
2
  6
CENTER
 10
176.8131492596
 20
136.2724048443
 11
178.6531492596
 21
136.2724048443
  0
LINE
  8
0
 62
7
  6
CONTINUOUS
 10
176.0631492596
 20
137.4971497157
 11
176.2532025892
 21
137.5278017265
  0
LINE
  8
0
 62
7
  6
CONTINUOUS
 10
176.2532025892
 20
137.5278017265
 11
176.4779399823
 21
137.5631086403
  0
LINE
  8
0
 62
7
  6
CONTINUOUS
 10
176.4779399823
 20
137.5631086403
 11
176.5631492596
 21
137.5762453253
  0
LINE
  8
0
 62
7
  6
CONTINUOUS
 10
171.4410895907
 20
140.5124048443
 11
173.3852089286
 21
140.5124048443
  0
ARC
  8
0
 62
7
  6
CONTINUOUS
 10
27.1899653979
 20
184.658304969
 40
0.5
 50
180.0
 51
270.0
  0
ARC
  8
0
 62
7
  6
CONTINUOUS
 10
30.1399653979
 20
184.658304969
 40
0.5
 50
270.0
 51
360.0
  0
ARC
  8
0
 62
7
  6
CONTINUOUS
 10
32.7899653979
 20
184.658304969
 40
0.5
 50
270.0
 51
360.0
  0
ARC
  8
0
 62
7
  6
CONTINUOUS
 10
41.2899653979
 20
184.658304969
 40
0.5
 50
180.0
 51
270.0
  0
ARC
  8
0
 62
7
  6
CONTINUOUS
 10
39.3399653979
 20
184.658304969
 40
0.5
 50
180.0
 51
270.0
  0
ARC
  8
0
 62
7
  6
CONTINUOUS
 10
49.4899653979
 20
184.658304969
 40
0.5
 50
270.0
 51
360.0
  0
ARC
  8
0
 62
7
  6
CONTINUOUS
 10
51.4399653979
 20
184.658304969
 40
0.5
 50
270.0
 51
360.0
  0
ARC
  8
0
 62
7
  6
CONTINUOUS
 10
26.9899653979
 20
186.358304969
 40
0.5
 50
180.0
 51
235.5191919877
  0
ARC
  8
0
 62
7
  6
CONTINUOUS
 10
79.4899653979
 20
184.658304969
 40
0.5
 50
180.0
 51
270.0
  0
ARC
  8
0
 62
7
  6
CONTINUOUS
 10
77.5399653979
 20
184.658304969
 40
0.5
 50
180.0
 51
270.0
  0
ARC
  8
0
 62
7
  6
CONTINUOUS
 10
60.3899653979
 20
184.658304969
 40
0.5
 50
180.0
 51
270.0
  0
ARC
  8
0
 62
7
  6
CONTINUOUS
 10
58.4399653979
 20
184.658304969
 40
0.5
 50
180.0
 51
270.0
  0
ARC
  8
0
 62
7
  6
CONTINUOUS
 10
68.5899653979
 20
184.658304969
 40
0.5
 50
270.0
 51
360.0
  0
ARC
  8
0
 62
7
  6
CONTINUOUS
 10
70.5399653979
 20
184.658304969
 40
0.5
 50
270.0
 51
360.0
  0
ARC
  8
0
 62
7
  6
CONTINUOUS
 10
33.7899653979
 20
189.758304969
 40
0.5
 50
93.9490996015
 51
180.0
  0
ARC
  8
0
 62
7
  6
CONTINUOUS
 10
26.9899653979
 20
192.158304969
 40
0.5
 50
90.0
 51
180.0
  0
ARC
  8
0
 62
7
  6
CONTINUOUS
 10
27.1899653979
 20
192.158304969
 40
0.5
 50
90.0
 51
180.0
  0
ARC
  8
0
 62
7
  6
CONTINUOUS
 10
30.1399653979
 20
192.158304969
 40
0.5
 50
0.0
 51
90.0
  0
ARC
  8
0
 62
7
  6
CONTINUOUS
 10
41.2899653979
 20
192.158304969
 40
0.5
 50
90.0
 51
180.0
  0
ARC
  8
0
 62
7
  6
CONTINUOUS
 10
49.4899653979
 20
192.158304969
 40
0.5
 50
0.0
 51
90.0
  0
ARC
  8
0
 62
7
  6
CONTINUOUS
 10
79.4899653979
 20
192.158304969
 40
0.5
 50
90.0
 51
180.0
  0
ARC
  8
0
 62
7
  6
CONTINUOUS
 10
60.3899653979
 20
192.158304969
 40
0.5
 50
90.0
 51
180.0
  0
ARC
  8
0
 62
7
  6
CONTINUOUS
 10
68.5899653979
 20
192.158304969
 40
0.5
 50
0.0
 51
90.0
  0
ARC
  8
0
 62
7
  6
CONTINUOUS
 10
87.6899653979
 20
184.658304969
 40
0.5
 50
270.0
 51
360.0
  0
ARC
  8
0
 62
7
  6
CONTINUOUS
 10
89.6399653979
 20
184.658304969
 40
0.5
 50
270.0
 51
360.0
  0
ARC
  8
0
 62
7
  6
CONTINUOUS
 10
98.5899653979
 20
184.658304969
 40
0.5
 50
180.0
 51
270.0
  0
ARC
  8
0
 62
7
  6
CONTINUOUS
 10
96.6399653979
 20
184.658304969
 40
0.5
 50
180.0
 51
270.0
  0
ARC
  8
0
 62
7
  6
CONTINUOUS
 10
106.7899653979
 20
184.658304969
 40
0.5
 50
270.0
 51
360.0
  0
ARC
  8
0
 62
7
  6
CONTINUOUS
 10
108.7399653979
 20
184.658304969
 40
0.5
 50
270.0
 51
360.0
  0
ARC
  8
0
 62
7
  6
CONTINUOUS
 10
139.9899653979
 20
184.658304969
 40
0.5
 50
270.0
 51
360.0
  0
ARC
  8
0
 62
7
  6
CONTINUOUS
 10
117.6899653979
 20
184.658304969
 40
0.5
 50
180.0
 51
270.0
  0
ARC
  8
0
 62
7
  6
CONTINUOUS
 10
115.7399653979
 20
184.658304969
 40
0.5
 50
180.0
 51
270.0
  0
ARC
  8
0
 62
7
  6
CONTINUOUS
 10
125.8899653979
 20
184.658304969
 40
0.5
 50
270.0
 51
360.0
  0
ARC
  8
0
 62
7
  6
CONTINUOUS
 10
127.8399653979
 20
184.658304969
 40
0.5
 50
270.0
 51
360.0
  0
ARC
  8
0
 62
7
  6
CONTINUOUS
 10
137.0399653979
 20
184.658304969
 40
0.5
 50
180.0
 51
270.0
  0
ARC
  8
0
 62
7
  6
CONTINUOUS
 10
134.3899653979
 20
184.658304969
 40
0.5
 50
180.0
 51
270.0
  0
ARC
  8
0
 62
7
  6
CONTINUOUS
 10
140.1899653979
 20
186.358304969
 40
0.5
 50
304.4808079356
 51
360.0
  0
ARC
  8
0
 62
7
  6
CONTINUOUS
 10
87.6899653979
 20
192.158304969
 40
0.5
 50
0.0
 51
90.0
  0
ARC
  8
0
 62
7
  6
CONTINUOUS
 10
98.5899653979
 20
192.158304969
 40
0.5
 50
90.0
 51
180.0
  0
ARC
  8
0
 62
7
  6
CONTINUOUS
 10
106.7899653979
 20
192.158304969
 40
0.5
 50
0.0
 51
90.0
  0
ARC
  8
0
 62
7
  6
CONTINUOUS
 10
133.3899653979
 20
189.758304969
 40
0.5
 50
0.0
 51
86.0509094214
  0
ARC
  8
0
 62
7
  6
CONTINUOUS
 10
117.6899653979
 20
192.158304969
 40
0.5
 50
90.0
 51
180.0
  0
ARC
  8
0
 62
7
  6
CONTINUOUS
 10
137.0399653979
 20
192.158304969
 40
0.5
 50
90.0
 51
180.0
  0
ARC
  8
0
 62
7
  6
CONTINUOUS
 10
139.9899653979
 20
192.158304969
 40
0.5
 50
0.0
 51
90.0
  0
ARC
  8
0
 62
7
  6
CONTINUOUS
 10
140.1899653979
 20
192.158304969
 40
0.5
 50
0.0
 51
90.0
  0
ARC
  8
0
 62
7
  6
CONTINUOUS
 10
125.8899653979
 20
192.158304969
 40
0.5
 50
0.0
 51
90.0
  0
ARC
  8
0
 62
7
  6
CONTINUOUS
 10
27.1899653979
 20
113.4824048443
 40
0.5
 50
180.0
 51
270.0
  0
ARC
  8
0
 62
7
  6
CONTINUOUS
 10
30.1399653979
 20
113.4824048443
 40
0.5
 50
270.0
 51
360.0
  0
ARC
  8
0
 62
7
  6
CONTINUOUS
 10
41.2899653979
 20
113.4824048443
 40
0.5
 50
180.0
 51
270.0
  0
ARC
  8
0
 62
7
  6
CONTINUOUS
 10
49.4899653979
 20
113.4824048443
 40
0.5
 50
270.0
 51
360.0
  0
ARC
  8
0
 62
7
  6
CONTINUOUS
 10
26.9899653979
 20
121.572684666
 40
0.5
 50
180.0
 51
216.8698976458
  0
ARC
  8
0
 62
7
  6
CONTINUOUS
 10
26.1899653979
 20
120.972684666
 40
0.5
 50
0.0
 51
36.8698976458
  0
ARC
  8
0
 62
7
  6
CONTINUOUS
 10
31.1399647831
 20
120.3340357927
 40
0.4999996926
 50
89.9999295449
 51
180.0000704551
  0
ARC
  8
0
 62
7
  6
CONTINUOUS
 10
34.3699653979
 20
122.9324048443
 40
0.3
 50
180.0
 51
270.0
  0
ARC
  8
0
 62
7
  6
CONTINUOUS
 10
34.9499653979
 20
122.9324048443
 40
0.3
 50
270.0
 51
360.0
  0
ARC
  8
0
 62
7
  6
CONTINUOUS
 10
36.7299653979
 20
122.9324048443
 40
0.3
 50
180.0
 51
270.0
  0
ARC
  8
0
 62
7
  6
CONTINUOUS
 10
37.3099653979
 20
122.9324048443
 40
0.3
 50
270.0
 51
360.0
  0
ARC
  8
0
 62
7
  6
CONTINUOUS
 10
40.28996601
 20
120.3340357899
 40
0.499999694
 50
359.999929862
 51
90.000070138
  0
ARC
  8
0
 62
7
  6
CONTINUOUS
 10
50.4899647831
 20
120.3340357927
 40
0.4999996926
 50
89.9999295449
 51
180.0000704551
  0
ARC
  8
0
 62
7
  6
CONTINUOUS
 10
53.4699653979
 20
122.9324048443
 40
0.3
 50
180.0
 51
270.0
  0
ARC
  8
0
 62
7
  6
CONTINUOUS
 10
54.0499653979
 20
122.9324048443
 40
0.3
 50
270.0
 51
360.0
  0
ARC
  8
0
 62
7
  6
CONTINUOUS
 10
43.9199653979
 20
122.9324048443
 40
0.3
 50
180.0
 51
270.0
  0
ARC
  8
0
 62
7
  6
CONTINUOUS
 10
44.4999653979
 20
122.9324048443
 40
0.3
 50
270.0
 51
360.0
  0
ARC
  8
0
 62
7
  6
CONTINUOUS
 10
46.2799653979
 20
122.9324048443
 40
0.3
 50
180.0
 51
270.0
  0
ARC
  8
0
 62
7
  6
CONTINUOUS
 10
46.8599653979
 20
122.9324048443
 40
0.3
 50
270.0
 51
360.0
  0
ARC
  8
0
 62
7
  6
CONTINUOUS
 10
79.4899653979
 20
113.4824048443
 40
0.5
 50
180.0
 51
270.0
  0
ARC
  8
0
 62
7
  6
CONTINUOUS
 10
60.3899653979
 20
113.4824048443
 40
0.5
 50
180.0
 51
270.0
  0
ARC
  8
0
 62
7
  6
CONTINUOUS
 10
68.5899653979
 20
113.4824048443
 40
0.5
 50
270.0
 51
360.0
  0
ARC
  8
0
 62
7
  6
CONTINUOUS
 10
59.3899653979
 20
120.3340351779
 40
0.5
 50
0.0
 51
90.0
  0
ARC
  8
0
 62
7
  6
CONTINUOUS
 10
63.0199653979
 20
122.9324048443
 40
0.3
 50
180.0
 51
270.0
  0
ARC
  8
0
 62
7
  6
CONTINUOUS
 10
63.5999653979
 20
122.9324048443
 40
0.3
 50
270.0
 51
360.0
  0
ARC
  8
0
 62
7
  6
CONTINUOUS
 10
65.3799653979
 20
122.9324048443
 40
0.3
 50
180.0
 51
270.0
  0
ARC
  8
0
 62
7
  6
CONTINUOUS
 10
65.9599653979
 20
122.9324048443
 40
0.3
 50
270.0
 51
360.0
  0
ARC
  8
0
 62
7
  6
CONTINUOUS
 10
55.8299653979
 20
122.9324048443
 40
0.3
 50
180.0
 51
270.0
  0
ARC
  8
0
 62
7
  6
CONTINUOUS
 10
56.4099653979
 20
122.9324048443
 40
0.3
 50
270.0
 51
360.0
  0
ARC
  8
0
 62
7
  6
CONTINUOUS
 10
78.4899653979
 20
120.3340351779
 40
0.5
 50
0.0
 51
90.0
  0
ARC
  8
0
 62
7
  6
CONTINUOUS
 10
69.5899647831
 20
120.3340357927
 40
0.4999996926
 50
89.9999295449
 51
180.0000704551
  0
ARC
  8
0
 62
7
  6
CONTINUOUS
 10
82.1199653979
 20
122.9324048443
 40
0.3
 50
180.0
 51
270.0
  0
ARC
  8
0
 62
7
  6
CONTINUOUS
 10
82.6999653979
 20
122.9324048443
 40
0.3
 50
270.0
 51
360.0
  0
ARC
  8
0
 62
7
  6
CONTINUOUS
 10
72.5699653979
 20
122.9324048443
 40
0.3
 50
180.0
 51
270.0
  0
ARC
  8
0
 62
7
  6
CONTINUOUS
 10
73.1499653979
 20
122.9324048443
 40
0.3
 50
270.0
 51
360.0
  0
ARC
  8
0
 62
7
  6
CONTINUOUS
 10
74.9299653979
 20
122.9324048443
 40
0.3
 50
180.0
 51
270.0
  0
ARC
  8
0
 62
7
  6
CONTINUOUS
 10
75.5099653979
 20
122.9324048443
 40
0.3
 50
270.0
 51
360.0
  0
ARC
  8
0
 62
7
  6
CONTINUOUS
 10
26.9899653979
 20
130.6392576586
 40
0.5
 50
146.3320887789
 51
180.0
  0
ARC
  8
0
 62
7
  6
CONTINUOUS
 10
26.1899653979
 20
131.2420737346
 40
0.5
 50
326.3320887789
 51
360.0
  0
ARC
  8
0
 62
7
  6
CONTINUOUS
 10
34.9499653979
 20
130.5624048443
 40
0.3
 50
0.0
 51
90.0
  0
ARC
  8
0
 62
7
  6
CONTINUOUS
 10
34.3699653979
 20
130.5624048443
 40
0.3
 50
90.0
 51
180.0
  0
ARC
  8
0
 62
7
  6
CONTINUOUS
 10
37.3099653979
 20
130.5624048443
 40
0.3
 50
0.0
 51
90.0
  0
ARC
  8
0
 62
7
  6
CONTINUOUS
 10
36.7299653979
 20
130.5624048443
 40
0.3
 50
90.0
 51
180.0
  0
ARC
  8
0
 62
7
  6
CONTINUOUS
 10
31.1899653979
 20
133.1607745107
 40
0.5
 50
270.0
 51
360.0
  0
ARC
  8
0
 62
7
  6
CONTINUOUS
 10
54.0499653979
 20
130.5624048443
 40
0.3
 50
0.0
 51
90.0
  0
ARC
  8
0
 62
7
  6
CONTINUOUS
 10
53.4699653979
 20
130.5624048443
 40
0.3
 50
90.0
 51
180.0
  0
ARC
  8
0
 62
7
  6
CONTINUOUS
 10
44.4999653979
 20
130.5624048443
 40
0.3
 50
0.0
 51
90.0
  0
ARC
  8
0
 62
7
  6
CONTINUOUS
 10
43.9199653979
 20
130.5624048443
 40
0.3
 50
90.0
 51
180.0
  0
ARC
  8
0
 62
7
  6
CONTINUOUS
 10
46.8599653979
 20
130.5624048443
 40
0.3
 50
0.0
 51
90.0
  0
ARC
  8
0
 62
7
  6
CONTINUOUS
 10
46.2799653979
 20
130.5624048443
 40
0.3
 50
90.0
 51
180.0
  0
ARC
  8
0
 62
7
  6
CONTINUOUS
 10
40.9399653979
 20
133.1607745107
 40
0.5
 50
180.0
 51
270.0
  0
ARC
  8
0
 62
7
  6
CONTINUOUS
 10
49.8399653979
 20
133.1607745107
 40
0.5
 50
270.0
 51
360.0
  0
ARC
  8
0
 62
7
  6
CONTINUOUS
 10
32.1899653979
 20
140.0124048443
 40
0.5
 50
90.0
 51
180.0
  0
ARC
  8
0
 62
7
  6
CONTINUOUS
 10
39.9399653979
 20
140.0124048443
 40
0.5
 50
0.0
 51
90.0
  0
ARC
  8
0
 62
7
  6
CONTINUOUS
 10
50.8399653979
 20
140.0124048443
 40
0.5
 50
90.0
 51
180.0
  0
ARC
  8
0
 62
7
  6
CONTINUOUS
 10
63.5999653979
 20
130.5624048443
 40
0.3
 50
0.0
 51
90.0
  0
ARC
  8
0
 62
7
  6
CONTINUOUS
 10
63.0199653979
 20
130.5624048443
 40
0.3
 50
90.0
 51
180.0
  0
ARC
  8
0
 62
7
  6
CONTINUOUS
 10
65.9599653979
 20
130.5624048443
 40
0.3
 50
0.0
 51
90.0
  0
ARC
  8
0
 62
7
  6
CONTINUOUS
 10
65.3799653979
 20
130.5624048443
 40
0.3
 50
90.0
 51
180.0
  0
ARC
  8
0
 62
7
  6
CONTINUOUS
 10
56.4099653979
 20
130.5624048443
 40
0.3
 50
0.0
 51
90.0
  0
ARC
  8
0
 62
7
  6
CONTINUOUS
 10
55.8299653979
 20
130.5624048443
 40
0.3
 50
90.0
 51
180.0
  0
ARC
  8
0
 62
7
  6
CONTINUOUS
 10
60.0399653979
 20
133.1607745107
 40
0.5
 50
180.0
 51
270.0
  0
ARC
  8
0
 62
7
  6
CONTINUOUS
 10
68.9399653979
 20
133.1607745107
 40
0.5
 50
270.0
 51
360.0
  0
ARC
  8
0
 62
7
  6
CONTINUOUS
 10
82.6999653979
 20
130.5624048443
 40
0.3
 50
0.0
 51
90.0
  0
ARC
  8
0
 62
7
  6
CONTINUOUS
 10
82.1199653979
 20
130.5624048443
 40
0.3
 50
90.0
 51
180.0
  0
ARC
  8
0
 62
7
  6
CONTINUOUS
 10
73.1499653979
 20
130.5624048443
 40
0.3
 50
0.0
 51
90.0
  0
ARC
  8
0
 62
7
  6
CONTINUOUS
 10
72.5699653979
 20
130.5624048443
 40
0.3
 50
90.0
 51
180.0
  0
ARC
  8
0
 62
7
  6
CONTINUOUS
 10
75.5099653979
 20
130.5624048443
 40
0.3
 50
0.0
 51
90.0
  0
ARC
  8
0
 62
7
  6
CONTINUOUS
 10
74.9299653979
 20
130.5624048443
 40
0.3
 50
90.0
 51
180.0
  0
ARC
  8
0
 62
7
  6
CONTINUOUS
 10
79.1399653979
 20
133.1607745107
 40
0.5
 50
180.0
 51
270.0
  0
ARC
  8
0
 62
7
  6
CONTINUOUS
 10
59.0399653979
 20
140.0124048443
 40
0.5
 50
0.0
 51
90.0
  0
ARC
  8
0
 62
7
  6
CONTINUOUS
 10
69.9399653979
 20
140.0124048443
 40
0.5
 50
90.0
 51
180.0
  0
ARC
  8
0
 62
7
  6
CONTINUOUS
 10
78.1399653979
 20
140.0124048443
 40
0.5
 50
0.0
 51
90.0
  0
ARC
  8
0
 62
7
  6
CONTINUOUS
 10
87.6899653979
 20
113.4824048443
 40
0.5
 50
270.0
 51
360.0
  0
ARC
  8
0
 62
7
  6
CONTINUOUS
 10
98.5899653979
 20
113.4824048443
 40
0.5
 50
180.0
 51
270.0
  0
ARC
  8
0
 62
7
  6
CONTINUOUS
 10
106.7899653979
 20
113.4824048443
 40
0.5
 50
270.0
 51
360.0
  0
ARC
  8
0
 62
7
  6
CONTINUOUS
 10
97.5899653979
 20
120.3340351779
 40
0.5
 50
0.0
 51
90.0
  0
ARC
  8
0
 62
7
  6
CONTINUOUS
 10
88.6899647831
 20
120.3340357927
 40
0.4999996926
 50
89.9999295449
 51
180.0000704551
  0
ARC
  8
0
 62
7
  6
CONTINUOUS
 10
91.6699653979
 20
122.9324048443
 40
0.3
 50
180.0
 51
270.0
  0
ARC
  8
0
 62
7
  6
CONTINUOUS
 10
92.2499653979
 20
122.9324048443
 40
0.3
 50
270.0
 51
360.0
  0
ARC
  8
0
 62
7
  6
CONTINUOUS
 10
94.0299653979
 20
122.9324048443
 40
0.3
 50
180.0
 51
270.0
  0
ARC
  8
0
 62
7
  6
CONTINUOUS
 10
94.6099653979
 20
122.9324048443
 40
0.3
 50
270.0
 51
360.0
  0
ARC
  8
0
 62
7
  6
CONTINUOUS
 10
84.4799653979
 20
122.9324048443
 40
0.3
 50
180.0
 51
270.0
  0
ARC
  8
0
 62
7
  6
CONTINUOUS
 10
85.0599653979
 20
122.9324048443
 40
0.3
 50
270.0
 51
360.0
  0
ARC
  8
0
 62
7
  6
CONTINUOUS
 10
107.7899647831
 20
120.3340357927
 40
0.4999996926
 50
89.9999295449
 51
180.0000704551
  0
ARC
  8
0
 62
7
  6
CONTINUOUS
 10
110.7699653979
 20
122.9324048443
 40
0.3
 50
180.0
 51
270.0
  0
ARC
  8
0
 62
7
  6
CONTINUOUS
 10
111.3499653979
 20
122.9324048443
 40
0.3
 50
270.0
 51
360.0
  0
ARC
  8
0
 62
7
  6
CONTINUOUS
 10
101.2199653979
 20
122.9324048443
 40
0.3
 50
180.0
 51
270.0
  0
ARC
  8
0
 62
7
  6
CONTINUOUS
 10
101.7999653979
 20
122.9324048443
 40
0.3
 50
270.0
 51
360.0
  0
ARC
  8
0
 62
7
  6
CONTINUOUS
 10
103.5799653979
 20
122.9324048443
 40
0.3
 50
180.0
 51
270.0
  0
ARC
  8
0
 62
7
  6
CONTINUOUS
 10
104.1599653979
 20
122.9324048443
 40
0.3
 50
270.0
 51
360.0
  0
ARC
  8
0
 62
7
  6
CONTINUOUS
 10
117.6899653979
 20
113.4824048443
 40
0.5
 50
180.0
 51
270.0
  0
ARC
  8
0
 62
7
  6
CONTINUOUS
 10
137.0399653979
 20
113.4824048443
 40
0.5
 50
180.0
 51
270.0
  0
ARC
  8
0
 62
7
  6
CONTINUOUS
 10
139.9899653979
 20
113.4824048443
 40
0.5
 50
270.0
 51
360.0
  0
ARC
  8
0
 62
7
  6
CONTINUOUS
 10
125.8899653979
 20
113.4824048443
 40
0.5
 50
270.0
 51
360.0
  0
ARC
  8
0
 62
7
  6
CONTINUOUS
 10
116.6899653979
 20
120.3340351779
 40
0.5
 50
0.0
 51
90.0
  0
ARC
  8
0
 62
7
  6
CONTINUOUS
 10
126.8899647831
 20
120.3340357927
 40
0.4999996926
 50
89.9999295449
 51
180.0000704551
  0
ARC
  8
0
 62
7
  6
CONTINUOUS
 10
120.3199653979
 20
122.9324048443
 40
0.3
 50
180.0
 51
270.0
  0
ARC
  8
0
 62
7
  6
CONTINUOUS
 10
120.8999653979
 20
122.9324048443
 40
0.3
 50
270.0
 51
360.0
  0
ARC
  8
0
 62
7
  6
CONTINUOUS
 10
122.6799653979
 20
122.9324048443
 40
0.3
 50
180.0
 51
270.0
  0
ARC
  8
0
 62
7
  6
CONTINUOUS
 10
123.2599653979
 20
122.9324048443
 40
0.3
 50
270.0
 51
360.0
  0
ARC
  8
0
 62
7
  6
CONTINUOUS
 10
113.1299653979
 20
122.9324048443
 40
0.3
 50
180.0
 51
270.0
  0
ARC
  8
0
 62
7
  6
CONTINUOUS
 10
113.7099653979
 20
122.9324048443
 40
0.3
 50
270.0
 51
360.0
  0
ARC
  8
0
 62
7
  6
CONTINUOUS
 10
140.1899653979
 20
121.572684666
 40
0.5
 50
323.1301023542
 51
360.0
  0
ARC
  8
0
 62
7
  6
CONTINUOUS
 10
140.9899653979
 20
120.972684666
 40
0.5
 50
143.1301023542
 51
180.0
  0
ARC
  8
0
 62
7
  6
CONTINUOUS
 10
136.0399653979
 20
120.3340351779
 40
0.5
 50
0.0
 51
90.0
  0
ARC
  8
0
 62
7
  6
CONTINUOUS
 10
129.8699653979
 20
122.9324048443
 40
0.3
 50
180.0
 51
270.0
  0
ARC
  8
0
 62
7
  6
CONTINUOUS
 10
130.4499653979
 20
122.9324048443
 40
0.3
 50
270.0
 51
360.0
  0
ARC
  8
0
 62
7
  6
CONTINUOUS
 10
132.2299653979
 20
122.9324048443
 40
0.3
 50
180.0
 51
270.0
  0
ARC
  8
0
 62
7
  6
CONTINUOUS
 10
132.8099653979
 20
122.9324048443
 40
0.3
 50
270.0
 51
360.0
  0
ARC
  8
0
 62
7
  6
CONTINUOUS
 10
92.2499653979
 20
130.5624048443
 40
0.3
 50
0.0
 51
90.0
  0
ARC
  8
0
 62
7
  6
CONTINUOUS
 10
91.6699653979
 20
130.5624048443
 40
0.3
 50
90.0
 51
180.0
  0
ARC
  8
0
 62
7
  6
CONTINUOUS
 10
94.6099653979
 20
130.5624048443
 40
0.3
 50
0.0
 51
90.0
  0
ARC
  8
0
 62
7
  6
CONTINUOUS
 10
94.0299653979
 20
130.5624048443
 40
0.3
 50
90.0
 51
180.0
  0
ARC
  8
0
 62
7
  6
CONTINUOUS
 10
85.0599653979
 20
130.5624048443
 40
0.3
 50
0.0
 51
90.0
  0
ARC
  8
0
 62
7
  6
CONTINUOUS
 10
84.4799653979
 20
130.5624048443
 40
0.3
 50
90.0
 51
180.0
  0
ARC
  8
0
 62
7
  6
CONTINUOUS
 10
88.0399653979
 20
133.1607745107
 40
0.5
 50
270.0
 51
360.0
  0
ARC
  8
0
 62
7
  6
CONTINUOUS
 10
111.3499653979
 20
130.5624048443
 40
0.3
 50
0.0
 51
90.0
  0
ARC
  8
0
 62
7
  6
CONTINUOUS
 10
110.7699653979
 20
130.5624048443
 40
0.3
 50
90.0
 51
180.0
  0
ARC
  8
0
 62
7
  6
CONTINUOUS
 10
101.7999653979
 20
130.5624048443
 40
0.3
 50
0.0
 51
90.0
  0
ARC
  8
0
 62
7
  6
CONTINUOUS
 10
101.2199653979
 20
130.5624048443
 40
0.3
 50
90.0
 51
180.0
  0
ARC
  8
0
 62
7
  6
CONTINUOUS
 10
104.1599653979
 20
130.5624048443
 40
0.3
 50
0.0
 51
90.0
  0
ARC
  8
0
 62
7
  6
CONTINUOUS
 10
103.5799653979
 20
130.5624048443
 40
0.3
 50
90.0
 51
180.0
  0
ARC
  8
0
 62
7
  6
CONTINUOUS
 10
98.2399653979
 20
133.1607745107
 40
0.5
 50
180.0
 51
270.0
  0
ARC
  8
0
 62
7
  6
CONTINUOUS
 10
107.1399653979
 20
133.1607745107
 40
0.5
 50
270.0
 51
360.0
  0
ARC
  8
0
 62
7
  6
CONTINUOUS
 10
89.0399653979
 20
140.0124048443
 40
0.5
 50
90.0
 51
180.0
  0
ARC
  8
0
 62
7
  6
CONTINUOUS
 10
97.2399653979
 20
140.0124048443
 40
0.5
 50
0.0
 51
90.0
  0
ARC
  8
0
 62
7
  6
CONTINUOUS
 10
108.1399653979
 20
140.0124048443
 40
0.5
 50
90.0
 51
180.0
  0
ARC
  8
0
 62
7
  6
CONTINUOUS
 10
120.8999653979
 20
130.5624048443
 40
0.3
 50
0.0
 51
90.0
  0
ARC
  8
0
 62
7
  6
CONTINUOUS
 10
120.3199653979
 20
130.5624048443
 40
0.3
 50
90.0
 51
180.0
  0
ARC
  8
0
 62
7
  6
CONTINUOUS
 10
123.2599653979
 20
130.5624048443
 40
0.3
 50
0.0
 51
90.0
  0
ARC
  8
0
 62
7
  6
CONTINUOUS
 10
122.6799653979
 20
130.5624048443
 40
0.3
 50
90.0
 51
180.0
  0
ARC
  8
0
 62
7
  6
CONTINUOUS
 10
113.7099653979
 20
130.5624048443
 40
0.3
 50
0.0
 51
90.0
  0
ARC
  8
0
 62
7
  6
CONTINUOUS
 10
113.1299653979
 20
130.5624048443
 40
0.3
 50
90.0
 51
180.0
  0
ARC
  8
0
 62
7
  6
CONTINUOUS
 10
126.2399653979
 20
133.1607745107
 40
0.5
 50
270.0
 51
360.0
  0
ARC
  8
0
 62
7
  6
CONTINUOUS
 10
117.3399653979
 20
133.1607745107
 40
0.5
 50
180.0
 51
270.0
  0
ARC
  8
0
 62
7
  6
CONTINUOUS
 10
140.1899653979
 20
130.6392576586
 40
0.5
 50
0.0
 51
33.6679112211
  0
ARC
  8
0
 62
7
  6
CONTINUOUS
 10
140.9899653979
 20
131.2420737346
 40
0.5
 50
180.0
 51
213.6679112211
  0
ARC
  8
0
 62
7
  6
CONTINUOUS
 10
130.4499653979
 20
130.5624048443
 40
0.3
 50
0.0
 51
90.0
  0
ARC
  8
0
 62
7
  6
CONTINUOUS
 10
129.8699653979
 20
130.5624048443
 40
0.3
 50
90.0
 51
180.0
  0
ARC
  8
0
 62
7
  6
CONTINUOUS
 10
132.8099653979
 20
130.5624048443
 40
0.3
 50
0.0
 51
90.0
  0
ARC
  8
0
 62
7
  6
CONTINUOUS
 10
132.2299653979
 20
130.5624048443
 40
0.3
 50
90.0
 51
180.0
  0
ARC
  8
0
 62
7
  6
CONTINUOUS
 10
135.9899653979
 20
133.1607745107
 40
0.5
 50
180.0
 51
270.0
  0
ARC
  8
0
 62
7
  6
CONTINUOUS
 10
116.3399653979
 20
140.0124048443
 40
0.5
 50
0.0
 51
90.0
  0
ARC
  8
0
 62
7
  6
CONTINUOUS
 10
127.2399653979
 20
140.0124048443
 40
0.5
 50
90.0
 51
180.0
  0
ARC
  8
0
 62
7
  6
CONTINUOUS
 10
134.9899653979
 20
140.0124048443
 40
0.5
 50
0.0
 51
90.0
  0
ARC
  8
0
 62
7
  6
CONTINUOUS
 10
169.2631492596
 20
120.9102226272
 40
0.5
 50
310.5027493696
 51
360.0
  0
ARC
  8
0
 62
7
  6
CONTINUOUS
 10
172.4131492596
 20
117.2224048443
 40
4.35
 50
282.9124542829
 51
342.5584061437
  0
ARC
  8
0
 62
7
  6
CONTINUOUS
 10
172.4131492596
 20
117.2224048443
 40
4.35
 50
130.5027493696
 51
257.0875457171
  0
CIRCLE
  8
2_FEATURE
 62
7
  6
CONTINUOUS
 10
172.4131492596
 20
117.2224048443
 40
2.6
  0
ARC
  8
0
 62
7
  6
CONTINUOUS
 10
172.4131492596
 20
136.2724048443
 40
4.998
 50
293.803024964
 51
311.59628875
  0
ARC
  8
2_FEATURE
 62
7
  6
CONTINUOUS
 10
172.4131492596
 20
136.2724048443
 40
4.35
 50
157.5792552943
 51
161.0827469789
  0
ARC
  8
1_AXIS
 62
7
  6
CONTINUOUS
 10
172.4131492596
 20
136.2724048443
 40
4.35
 50
167.9921339638
 51
171.2578503355
  0
ARC
  8
0
 62
7
  6
CONTINUOUS
 10
172.4131492596
 20
136.2724048443
 40
4.35
 50
102.9124542829
 51
180.0
  0
ARC
  8
2_FEATURE
 62
7
  6
CONTINUOUS
 10
172.4131492596
 20
136.2724048443
 40
4.35
 50
178.7486193829
 51
179.7365952629
  0
ARC
  8
0
 62
7
  6
CONTINUOUS
 10
172.4131492596
 20
136.2724048443
 40
4.35
 50
17.4415938563
 51
77.0875457171
  0
CIRCLE
  8
0
 62
7
  6
CONTINUOUS
 10
172.4131492596
 20
136.2724048443
 40
2.6
  0
ARC
  8
0
 62
7
  6
CONTINUOUS
 10
170.2631491711
 20
131.0907914472
 40
0.4999999557
 50
90.0
 51
180.0
  0
ARC
  8
0
 62
7
  6
CONTINUOUS
 10
174.0702893856
 20
132.0907914472
 40
0.5
 50
269.9997914618
 51
291.6182724084
  0
ARC
  8
0
 62
7
  6
CONTINUOUS
 10
176.0631492596
 20
132.1607745107
 40
0.5
 50
0.0
 51
131.59628875
  0
ENDSEC
  0
EOF
