  0
SECTION
  2
HEADER
  9
$EXTMAX
 10
210.0
 20
297.0
 30
0.0
  9
$EXTMIN
 10
0.0
 20
0.0
 30
0.0
  9
$LIMMIN
 10
0.0
 20
0.0
  9
$LIMMAX
 10
210.0
 20
297.0
  9
$VIEWCTR
 10
105.0
 20
148.5
  9
$VIEWSIZE
 40
297.0
  9
$CLAYER
  8
0
  9
$LTSCALE
 40
19.36
  9
$CELTYPE
  6
BYLAYER
  9
$DIMSCALE
 40
1.0
  9
$DIMASZ
 40
3.5
  9
$DIMEXO
 40
1.0
  9
$DIMDLI
 40
13.376
  9
$DIMEXE
 40
2.0
  9
$DIMCEN
 40
3.168
  9
$DIMLFAC
 40
1.0
  9
$DIMBLK
  1
_FILLED
  9
$DIMTXT
 40
3.5
  9
$PDMODE
 70
3
  9
$PDSIZE
 40
0.3125
  9
$TILEMODE
 70
1
  0
ENDSEC
  0
SECTION
  2
TABLES
  0
TABLE
  2
LTYPE
 70
6
  0
LTYPE
  2
BYBLOCK
 70
0
  3

 72
65
 73
0
 40
0.0
  0
LTYPE
  2
BYLAYER
 70
0
  3

 72
65
 73
0
 40
0.0
  0
LTYPE
  2
CONTINUOUS
 70
64
  3
Solid line
 72
65
 73
0
 40
0.0
  0
LTYPE
  2
CENTER
 70
64
  3
____ _ ____ _ ____ _ ____ _ ____ _ ____ _ ____
 72
65
 73
4
 40
0.6
 49
0.375
 49
-0.075
 49
0.075
 49
-0.075
  0
LTYPE
  2
HIDDEN
 70
64
  3
- - - - - - - - - - - - - - - - - - - -
 72
65
 73
2
 40
0.2
 49
0.1
 49
-0.1
  0
LTYPE
  2
PHANTOM
 70
64
  3
_____ _ _ _____ _ _ _____ _ _ _____
 72
65
 73
6
 40
0.8
 49
0.45
 49
-0.05
 49
0.1
 49
-0.05
 49
0.1
 49
-0.05
  0
LTYPE
  2
DOT
 70
64
  3
. . . . . . . . . . . . . . . . . . . .
 72
65
 73
2
 40
0.2
 49
0.1
 49
-0.1
  0
LTYPE
  2
DASHED
 70
64
  3
- - - - - - - - - - - - - - - - - - - -
 72
65
 73
2
 40
0.2
 49
0.1
 49
-0.1
  0
ENDTAB
  0
TABLE
  2
LAYER
 70
36
  0
LAYER
  2
0
 70
0
 62
7
  6
CONTINUOUS
  0
LAYER
  2
DEFAULT_1
 70
0
 62
7
  6
CENTER
  0
LAYER
  2
DEFAULT_2
 70
0
 62
8
  6
HIDDEN
  0
LAYER
  2
DEFAULT_3
 70
0
 62
7
  6
PHANTOM
  0
LAYER
  2
1_AXIS
 70
0
 62
7
  6
CONTINUOUS
  0
LAYER
  2
1_DATUMPLANE
 70
0
 62
7
  6
CONTINUOUS
  0
LAYER
  2
1_DATUM_PLANES
 70
0
 62
7
  6
CONTINUOUS
  0
LAYER
  2
2_FEATURE
 70
0
 62
7
  6
CONTINUOUS
  0
LAYER
  2
3_CURVE
 70
0
 62
7
  6
CONTINUOUS
  0
LAYER
  2
4_QUILT
 70
0
 62
7
  6
CONTINUOUS
  0
LAYER
  2
4_SURFACE
 70
0
 62
7
  6
CONTINUOUS
  0
LAYER
  2
6_DIM
 70
0
 62
7
  6
CONTINUOUS
  0
LAYER
  2
6_NOTE
 70
0
 62
7
  6
CONTINUOUS
  0
LAYER
  2
CSYS
 70
0
 62
7
  6
CONTINUOUS
  0
LAYER
  2
CURVE
 70
0
 62
7
  6
CONTINUOUS
  0
LAYER
  2
NOTES
 70
0
 62
7
  6
CONTINUOUS
  0
LAYER
  2
SURFACE
 70
0
 62
7
  6
CONTINUOUS
  0
ENDTAB
  0
TABLE
  2
STYLE
 70
1
  0
STYLE
  2
STANDARD
 70
0
 40
0.0
 41
0.8
 50
0.0
 71
0
 42
0.2
  3
txt
  4

  0
STYLE
  2
TEXTSTYLE_1
 70
0
 40
0.0
 41
0.8
 50
0.0
 71
0
 42
0.2
  3
gdt
  4

  0
STYLE
  2
TEXTSTYLE_2
 70
0
 40
0.0
 41
0.6
 50
0.0
 71
0
 42
0.2
  3
txt
  4

  0
STYLE
  2
TEXTSTYLE_3
 70
0
 40
0.0
 41
1.0
 50
0.0
 71
0
 42
0.2
  3
ftb_____.ttf
  4

  0
STYLE
  2
TEXTSTYLE_4
 70
0
 40
0.0
 41
1.0
 50
0.0
 71
0
 42
0.2
  3
fti_____.ttf
  4

  0
STYLE
  2
TEXTSTYLE_5
 70
0
 40
0.0
 41
1.0
 50
0.0
 71
0
 42
0.2
  3
frutiger light.ttf
  4

  0
ENDTAB
  0
ENDSEC
  0
SECTION
  2
BLOCKS
  0
BLOCK
  8
0
 62
2
  6
CONTINUOUS
  2
SYMBOL_8_BL1
 70
64
 10
173.5956734183
 20
35.5937998301
  0
TEXT
  8
0
 62
7
  6
CONTINUOUS
 10
164.6539584268
 20
30.6865562072
  7
TEXTSTYLE_4
 40
1.0655737705
  1
The brand for plastic modular belts and chains
 41
1.0
 72
0
  0
LINE
  8
0
 62
7
  6
CONTINUOUS
 10
149.5737418074
 20
36.1675703219
 11
149.5737418074
 21
34.0364227809
  0
LINE
  8
0
 62
7
  6
CONTINUOUS
 10
149.8628043005
 20
31.0454914852
 11
149.8628043005
 21
31.1422825445
  0
LINE
  8
0
 62
7
  6
CONTINUOUS
 10
149.5737418074
 20
31.1100188581
 11
149.6315543091
 21
30.9164367395
  0
LINE
  8
0
 62
7
  6
CONTINUOUS
 10
150.9671844304
 20
33.9544555678
 11
150.9671844304
 21
36.1675703219
  0
LINE
  8
0
 62
7
  6
CONTINUOUS
 10
151.8862417523
 20
32.1101932727
 11
151.8862417523
 21
30.5937998301
  0
LINE
  8
0
 62
7
  6
CONTINUOUS
 10
152.1753043074
 20
30.5937998301
 11
152.1753043074
 21
31.3358647082
  0
LINE
  8
0
 62
7
  6
CONTINUOUS
 10
152.1753043074
 20
31.4649194539
 11
152.1753043074
 21
32.1101932727
  0
LINE
  8
0
 62
7
  6
CONTINUOUS
 10
149.6315543091
 20
31.3036010218
 11
149.5737418074
 21
31.1100188581
  0
LINE
  8
0
 62
7
  6
CONTINUOUS
 10
149.9784292936
 20
30.8841730531
 11
149.8628043005
 21
31.0454914852
  0
LINE
  8
0
 62
7
  6
CONTINUOUS
 10
151.0768668626
 20
31.400392081
 11
151.1346793074
 21
31.3036010218
  0
LINE
  8
0
 62
7
  6
CONTINUOUS
 10
151.4237418626
 20
31.3036010218
 11
151.3659292523
 21
31.4326557675
  0
LINE
  8
0
 62
7
  6
CONTINUOUS
 10
152.852430332
 20
36.1675703219
 11
152.852430332
 21
34.3642916334
  0
LINE
  8
0
 62
7
  6
CONTINUOUS
 10
152.852430332
 20
33.0528162235
 11
152.852430332
 21
32.3970785186
  0
LINE
  8
0
 62
7
  6
CONTINUOUS
 10
153.2159293074
 20
31.2390736489
 11
153.2159293074
 21
30.5937998301
  0
LINE
  8
0
 62
7
  6
CONTINUOUS
 10
153.5049916972
 20
30.5937998301
 11
153.5049916972
 21
31.2390736489
  0
LINE
  8
0
 62
7
  6
CONTINUOUS
 10
149.8628043005
 20
31.1422825445
 11
149.9206168074
 21
31.2713373354
  0
LINE
  8
0
 62
7
  6
CONTINUOUS
 10
149.6315543091
 20
30.9164367395
 11
149.7471793074
 21
30.7873819712
  0
LINE
  8
0
 62
7
  6
CONTINUOUS
 10
153.1581166972
 20
31.3681283946
 11
153.2159293074
 21
31.2390736489
  0
LINE
  8
0
 62
7
  6
CONTINUOUS
 10
153.9674919177
 20
30.8841730531
 11
154.0253041972
 21
30.7551182848
  0
LINE
  8
0
 62
7
  6
CONTINUOUS
 10
153.5049916972
 20
31.2390736489
 11
153.4471794177
 21
31.400392081
  0
LINE
  8
0
 62
7
  6
CONTINUOUS
 10
153.9674919177
 20
31.4326557675
 11
153.9674919177
 21
31.3681283946
  0
LINE
  8
0
 62
7
  6
CONTINUOUS
 10
153.9674919177
 20
30.9809641124
 11
153.9674919177
 21
30.8841730531
  0
LINE
  8
0
 62
7
  6
CONTINUOUS
 10
154.245872955
 20
32.3970785186
 11
154.245872955
 21
36.1675703219
  0
LINE
  8
0
 62
7
  6
CONTINUOUS
 10
154.2565543074
 20
30.8519093441
 11
154.2565543074
 21
30.9164367395
  0
LINE
  8
0
 62
7
  6
CONTINUOUS
 10
154.5737418074
 20
36.1675703219
 11
154.5737418074
 21
32.3970785186
  0
LINE
  8
0
 62
7
  6
CONTINUOUS
 10
151.3659292523
 20
30.7873819712
 11
151.4237418626
 21
30.9164367395
  0
LINE
  8
0
 62
7
  6
CONTINUOUS
 10
155.759679528
 20
30.6905909007
 11
155.7018665869
 21
30.8519093441
  0
LINE
  8
0
 62
7
  6
CONTINUOUS
 10
155.412804528
 20
31.3681283946
 11
155.412804528
 21
31.2713373354
  0
LINE
  8
0
 62
7
  6
CONTINUOUS
 10
155.412804528
 20
31.1422825445
 11
155.412804528
 21
30.9487004259
  0
LINE
  8
0
 62
7
  6
CONTINUOUS
 10
155.7018665869
 20
30.8519093441
 11
155.7018665869
 21
31.3681283946
  0
LINE
  8
0
 62
7
  6
CONTINUOUS
 10
155.9671844304
 20
32.3970785186
 11
155.9671844304
 21
34.2003572071
  0
LINE
  8
0
 62
7
  6
CONTINUOUS
 10
155.9671844304
 20
35.511832617
 11
155.9671844304
 21
36.1675703219
  0
LINE
  8
0
 62
7
  6
CONTINUOUS
 10
156.279992028
 20
32.1101932727
 11
156.279992028
 21
31.9488748406
  0
LINE
  8
0
 62
7
  6
CONTINUOUS
 10
156.279992028
 20
31.626237886
 11
156.279992028
 21
30.5937998301
  0
LINE
  8
0
 62
7
  6
CONTINUOUS
 10
156.5690540869
 20
30.5937998301
 11
156.5690540869
 21
31.626237886
  0
LINE
  8
0
 62
7
  6
CONTINUOUS
 10
156.5690540869
 20
31.9488748406
 11
156.5690540869
 21
32.1101932727
  0
LINE
  8
0
 62
7
  6
CONTINUOUS
 10
151.1346793074
 20
30.9164367395
 11
151.0768668626
 21
30.8196456577
  0
LINE
  8
0
 62
7
  6
CONTINUOUS
 10
153.4471794177
 20
31.400392081
 11
153.3893668074
 21
31.4649194539
  0
LINE
  8
0
 62
7
  6
CONTINUOUS
 10
154.3143669177
 20
30.7873819712
 11
154.2565543074
 21
30.8519093441
  0
LINE
  8
0
 62
7
  6
CONTINUOUS
 10
155.4706168074
 20
30.6583272086
 11
155.5284290869
 21
30.5937998301
  0
LINE
  8
0
 62
7
  6
CONTINUOUS
 10
155.412804528
 20
30.7551182848
 11
155.4706168074
 21
30.6583272086
  0
LINE
  8
0
 62
7
  6
CONTINUOUS
 10
155.8174918074
 20
30.5937998301
 11
155.759679528
 21
30.6905909007
  0
LINE
  8
0
 62
7
  6
CONTINUOUS
 10
155.7018665869
 20
31.3681283946
 11
155.6440543074
 21
31.4649194539
  0
LINE
  8
0
 62
7
  6
CONTINUOUS
 10
157.0315543074
 20
31.626237886
 11
157.0315543074
 21
30.5937998301
  0
LINE
  8
0
 62
7
  6
CONTINUOUS
 10
157.320617028
 20
30.5937998301
 11
157.320617028
 21
31.3358647082
  0
LINE
  8
0
 62
7
  6
CONTINUOUS
 10
157.320617028
 20
31.4649194539
 11
157.320617028
 21
31.626237886
  0
LINE
  8
0
 62
7
  6
CONTINUOUS
 10
157.852430332
 20
34.6101932727
 11
157.852430332
 21
32.3970785186
  0
LINE
  8
0
 62
7
  6
CONTINUOUS
 10
149.7471793074
 20
31.4326557675
 11
149.6315543091
 21
31.3036010218
  0
LINE
  8
0
 62
7
  6
CONTINUOUS
 10
149.9206168074
 20
31.2713373354
 11
149.9784292936
 21
31.3358647082
  0
LINE
  8
0
 62
7
  6
CONTINUOUS
 10
149.7471793074
 20
30.7873819712
 11
149.8628043005
 21
30.7228545871
  0
LINE
  8
0
 62
7
  6
CONTINUOUS
 10
150.1518667936
 20
30.7873819712
 11
149.9784292936
 21
30.8841730531
  0
LINE
  8
0
 62
7
  6
CONTINUOUS
 10
155.3549915869
 20
31.4326557675
 11
155.412804528
 21
31.3681283946
  0
LINE
  8
0
 62
7
  6
CONTINUOUS
 10
158.3034290869
 20
31.3681283946
 11
158.361242028
 21
31.2068099625
  0
LINE
  8
0
 62
7
  6
CONTINUOUS
 10
158.6503040869
 20
31.2068099625
 11
158.5924918074
 21
31.3681283946
  0
LINE
  8
0
 62
7
  6
CONTINUOUS
 10
158.361242028
 20
31.2068099625
 11
158.361242028
 21
30.5937998301
  0
LINE
  8
0
 62
7
  6
CONTINUOUS
 10
158.6503040869
 20
30.5937998301
 11
158.6503040869
 21
31.2068099625
  0
LINE
  8
0
 62
7
  6
CONTINUOUS
 10
159.1128043074
 20
31.4326557675
 11
159.1128043074
 21
31.3681283946
  0
LINE
  8
0
 62
7
  6
CONTINUOUS
 10
159.245872955
 20
32.3970785186
 11
159.245872955
 21
34.5282260596
  0
LINE
  8
0
 62
7
  6
CONTINUOUS
 10
159.5737418074
 20
36.1675703219
 11
159.5737418074
 21
32.3970785186
  0
LINE
  8
0
 62
7
  6
CONTINUOUS
 10
154.2565543074
 20
30.9164367395
 11
154.3143669177
 21
31.0132277988
  0
LINE
  8
0
 62
7
  6
CONTINUOUS
 10
149.8628043005
 20
30.7228545871
 11
150.0362418212
 21
30.6583272086
  0
LINE
  8
0
 62
7
  6
CONTINUOUS
 10
151.3659292523
 20
31.4326557675
 11
151.1924917523
 21
31.5294468267
  0
LINE
  8
0
 62
7
  6
CONTINUOUS
 10
154.0253041972
 20
30.7551182848
 11
154.1987416972
 21
30.6583272086
  0
LINE
  8
0
 62
7
  6
CONTINUOUS
 10
153.0424918074
 20
31.4326557675
 11
153.1581166972
 21
31.3681283946
  0
LINE
  8
0
 62
7
  6
CONTINUOUS
 10
153.3893668074
 20
31.4649194539
 11
153.2737419177
 21
31.5294468267
  0
LINE
  8
0
 62
7
  6
CONTINUOUS
 10
159.1128043074
 20
30.8519093441
 11
159.228429528
 21
30.7228545871
  0
LINE
  8
0
 62
7
  6
CONTINUOUS
 10
159.4596793074
 20
30.7873819712
 11
159.401867028
 21
30.8519093441
  0
LINE
  8
0
 62
7
  6
CONTINUOUS
 10
159.1128043074
 20
31.3681283946
 11
159.228429528
 21
31.2390736489
  0
LINE
  8
0
 62
7
  6
CONTINUOUS
 10
158.5924918074
 20
31.3681283946
 11
158.534679528
 21
31.4649194539
  0
LINE
  8
0
 62
7
  6
CONTINUOUS
 10
160.9628038663
 20
30.7873819712
 11
160.9628038663
 21
30.8519093441
  0
LINE
  8
0
 62
7
  6
CONTINUOUS
 10
160.9671844304
 20
32.3970785186
 11
160.9671844304
 21
36.1675703219
  0
LINE
  8
0
 62
7
  6
CONTINUOUS
 10
154.0253041972
 20
31.4971831403
 11
153.9674919177
 21
31.4326557675
  0
LINE
  8
0
 62
7
  6
CONTINUOUS
 10
150.9034292799
 20
31.4649194539
 11
151.0768668626
 21
31.400392081
  0
LINE
  8
0
 62
7
  6
CONTINUOUS
 10
155.6440543074
 20
31.4649194539
 11
155.5284290869
 21
31.5294468267
  0
LINE
  8
0
 62
7
  6
CONTINUOUS
 10
159.4596793074
 20
31.3036010218
 11
159.401867028
 21
31.3681283946
  0
LINE
  8
0
 62
7
  6
CONTINUOUS
 10
160.615929528
 20
30.9164367395
 11
160.6737418074
 21
30.8519093441
  0
LINE
  8
0
 62
7
  6
CONTINUOUS
 10
160.9628038663
 20
30.8519093441
 11
160.8471793074
 21
30.9809641124
  0
LINE
  8
0
 62
7
  6
CONTINUOUS
 10
160.615929528
 20
31.4326557675
 11
160.6737418074
 21
31.3681283946
  0
LINE
  8
0
 62
7
  6
CONTINUOUS
 10
160.9628038663
 20
31.3681283946
 11
160.8471793074
 21
31.4971831403
  0
LINE
  8
0
 62
7
  6
CONTINUOUS
 10
154.2565543074
 20
31.3681283946
 11
154.3143669177
 21
31.4326557675
  0
LINE
  8
0
 62
7
  6
CONTINUOUS
 10
154.0831168074
 20
31.1100188581
 11
153.9674919177
 21
30.9809641124
  0
LINE
  8
0
 62
7
  6
CONTINUOUS
 10
155.412804528
 20
30.9487004259
 11
155.3549915869
 21
30.8841730531
  0
LINE
  8
0
 62
7
  6
CONTINUOUS
 10
155.3549915869
 20
30.6905909007
 11
155.412804528
 21
30.7551182848
  0
LINE
  8
0
 62
7
  6
CONTINUOUS
 10
154.1987416972
 20
30.6583272086
 11
154.3143669177
 21
30.6260635193
  0
LINE
  8
0
 62
7
  6
CONTINUOUS
 10
151.1924917523
 20
31.5294468267
 11
150.9612418074
 21
31.5939741996
  0
LINE
  8
0
 62
7
  6
CONTINUOUS
 10
154.5456166972
 20
30.7228545871
 11
154.3143669177
 21
30.7873819712
  0
LINE
  8
0
 62
7
  6
CONTINUOUS
 10
153.2737419177
 20
31.5294468267
 11
153.1003044177
 21
31.5939741996
  0
LINE
  8
0
 62
7
  6
CONTINUOUS
 10
155.5284290869
 20
31.5294468267
 11
155.3549915869
 21
31.5939741996
  0
LINE
  8
0
 62
7
  6
CONTINUOUS
 10
158.187804528
 20
31.4326557675
 11
158.3034290869
 21
31.3681283946
  0
LINE
  8
0
 62
7
  6
CONTINUOUS
 10
158.534679528
 20
31.4649194539
 11
158.4190543074
 21
31.5294468267
  0
LINE
  8
0
 62
7
  6
CONTINUOUS
 10
150.0362418212
 20
30.6583272086
 11
150.2096793212
 21
30.6260635193
  0
LINE
  8
0
 62
7
  6
CONTINUOUS
 10
150.498741835
 20
30.7228545871
 11
150.1518667936
 21
30.7873819712
  0
LINE
  8
0
 62
7
  6
CONTINUOUS
 10
152.9268669177
 20
31.4649194539
 11
153.0424918074
 21
31.4326557675
  0
LINE
  8
0
 62
7
  6
CONTINUOUS
 10
155.239367028
 20
31.4649194539
 11
155.3549915869
 21
31.4326557675
  0
LINE
  8
0
 62
7
  6
CONTINUOUS
 10
159.575304528
 20
30.7551182848
 11
159.4596793074
 21
30.7873819712
  0
LINE
  8
0
 62
7
  6
CONTINUOUS
 10
158.0721793074
 20
31.4649194539
 11
158.187804528
 21
31.4326557675
  0
LINE
  8
0
 62
7
  6
CONTINUOUS
 10
159.228429528
 20
30.7228545871
 11
159.401867028
 21
30.6583272086
  0
LINE
  8
0
 62
7
  6
CONTINUOUS
 10
158.4190543074
 20
31.5294468267
 11
158.2456168074
 21
31.5939741996
  0
LINE
  8
0
 62
7
  6
CONTINUOUS
 10
159.6331168074
 20
31.2390736489
 11
159.4596793074
 21
31.3036010218
  0
LINE
  8
0
 62
7
  6
CONTINUOUS
 10
160.442492028
 20
30.9809641124
 11
160.615929528
 21
30.9164367395
  0
LINE
  8
0
 62
7
  6
CONTINUOUS
 10
160.8471793074
 20
31.4971831403
 11
160.6737418074
 21
31.5617105132
  0
LINE
  8
0
 62
7
  6
CONTINUOUS
 10
159.228429528
 20
31.2390736489
 11
159.4596793074
 21
31.1422825445
  0
LINE
  8
0
 62
7
  6
CONTINUOUS
 10
160.8471793074
 20
30.9809641124
 11
160.615929528
 21
31.0777551716
  0
LINE
  8
0
 62
7
  6
CONTINUOUS
 10
159.401867028
 20
31.3681283946
 11
159.4596793074
 21
31.4326557675
  0
LINE
  8
0
 62
7
  6
CONTINUOUS
 10
149.8628043005
 20
31.4971831403
 11
149.7471793074
 21
31.4326557675
  0
LINE
  8
0
 62
7
  6
CONTINUOUS
 10
149.9784292936
 20
31.3358647082
 11
150.1518667936
 21
31.4326557675
  0
LINE
  8
0
 62
7
  6
CONTINUOUS
 10
152.2909293626
 20
31.5294468267
 11
152.1753043074
 21
31.4649194539
  0
LINE
  8
0
 62
7
  6
CONTINUOUS
 10
152.1753043074
 20
31.3358647082
 11
152.2909293626
 21
31.400392081
  0
LINE
  8
0
 62
7
  6
CONTINUOUS
 10
151.1924917523
 20
30.6905909007
 11
151.3659292523
 21
30.7873819712
  0
LINE
  8
0
 62
7
  6
CONTINUOUS
 10
150.2096793212
 20
30.6260635193
 11
150.5565542799
 21
30.5937998301
  0
LINE
  8
0
 62
7
  6
CONTINUOUS
 10
154.3143669177
 20
30.6260635193
 11
154.5456166972
 21
30.5937998301
  0
LINE
  8
0
 62
7
  6
CONTINUOUS
 10
152.6956168074
 20
31.4971831403
 11
152.9268669177
 21
31.4649194539
  0
LINE
  8
0
 62
7
  6
CONTINUOUS
 10
155.0081169177
 20
31.4971831403
 11
155.239367028
 21
31.4649194539
  0
LINE
  8
0
 62
7
  6
CONTINUOUS
 10
159.4596793074
 20
31.1422825445
 11
160.442492028
 21
30.9809641124
  0
LINE
  8
0
 62
7
  6
CONTINUOUS
 10
160.615929528
 20
31.0777551716
 11
159.6331168074
 21
31.2390736489
  0
LINE
  8
0
 62
7
  6
CONTINUOUS
 10
153.1003044177
 20
31.5939741996
 11
152.9268669177
 21
31.626237886
  0
LINE
  8
0
 62
7
  6
CONTINUOUS
 10
159.401867028
 20
30.6583272086
 11
159.575304528
 21
30.6260635193
  0
LINE
  8
0
 62
7
  6
CONTINUOUS
 10
158.2456168074
 20
31.5939741996
 11
158.0721793074
 21
31.626237886
  0
LINE
  8
0
 62
7
  6
CONTINUOUS
 10
160.5003043074
 20
31.4649194539
 11
160.615929528
 21
31.4326557675
  0
LINE
  8
0
 62
7
  6
CONTINUOUS
 10
160.6737418074
 20
30.8519093441
 11
160.615929528
 21
30.7873819712
  0
LINE
  8
0
 62
7
  6
CONTINUOUS
 10
159.228429528
 20
31.5294468267
 11
159.1128043074
 21
31.4326557675
  0
LINE
  8
0
 62
7
  6
CONTINUOUS
 10
154.1409294177
 20
31.5617105132
 11
154.0253041972
 21
31.4971831403
  0
LINE
  8
0
 62
7
  6
CONTINUOUS
 10
154.1987416972
 20
31.1745462761
 11
154.0831168074
 21
31.1100188581
  0
LINE
  8
0
 62
7
  6
CONTINUOUS
 10
154.3143669177
 20
31.0132277988
 11
154.4299918074
 21
31.0777551716
  0
LINE
  8
0
 62
7
  6
CONTINUOUS
 10
151.8862417523
 20
30.5937998301
 11
152.1753043074
 21
30.5937998301
  0
LINE
  8
0
 62
7
  6
CONTINUOUS
 10
153.2159293074
 20
30.5937998301
 11
153.5049916972
 21
30.5937998301
  0
LINE
  8
0
 62
7
  6
CONTINUOUS
 10
154.5456166972
 20
30.5937998301
 11
154.8924916972
 21
30.5937998301
  0
LINE
  8
0
 62
7
  6
CONTINUOUS
 10
155.5284290869
 20
30.5937998301
 11
155.8174918074
 21
30.5937998301
  0
LINE
  8
0
 62
7
  6
CONTINUOUS
 10
156.279992028
 20
30.5937998301
 11
156.5690540869
 21
30.5937998301
  0
LINE
  8
0
 62
7
  6
CONTINUOUS
 10
157.0315543074
 20
30.5937998301
 11
157.320617028
 21
30.5937998301
  0
LINE
  8
0
 62
7
  6
CONTINUOUS
 10
158.361242028
 20
30.5937998301
 11
158.6503040869
 21
30.5937998301
  0
LINE
  8
0
 62
7
  6
CONTINUOUS
 10
159.922179528
 20
30.5937998301
 11
160.269054528
 21
30.5937998301
  0
LINE
  8
0
 62
7
  6
CONTINUOUS
 10
160.269054528
 20
30.7228545871
 11
159.922179528
 21
30.7228545871
  0
LINE
  8
0
 62
7
  6
CONTINUOUS
 10
154.8924916972
 20
30.7228545871
 11
154.5456166972
 21
30.7228545871
  0
LINE
  8
0
 62
7
  6
CONTINUOUS
 10
159.401867028
 20
30.8519093441
 11
159.1128043074
 21
30.8519093441
  0
LINE
  8
0
 62
7
  6
CONTINUOUS
 10
151.4237418626
 20
30.9164367395
 11
151.1346793074
 21
30.9164367395
  0
LINE
  8
0
 62
7
  6
CONTINUOUS
 10
150.498741835
 20
31.4971831403
 11
150.9034292799
 21
31.4649194539
  0
LINE
  8
0
 62
7
  6
CONTINUOUS
 10
150.9612418074
 20
31.5939741996
 11
150.5565542799
 21
31.626237886
  0
LINE
  8
0
 62
7
  6
CONTINUOUS
 10
159.575304528
 20
30.6260635193
 11
159.922179528
 21
30.5937998301
  0
LINE
  8
0
 62
7
  6
CONTINUOUS
 10
159.922179528
 20
30.7228545871
 11
159.575304528
 21
30.7551182848
  0
LINE
  8
0
 62
7
  6
CONTINUOUS
 10
155.3549915869
 20
31.5939741996
 11
155.0081169177
 21
31.626237886
  0
LINE
  8
0
 62
7
  6
CONTINUOUS
 10
160.1534293074
 20
31.4971831403
 11
160.5003043074
 21
31.4649194539
  0
LINE
  8
0
 62
7
  6
CONTINUOUS
 10
160.5003043074
 20
31.5939741996
 11
160.1534293074
 21
31.626237886
  0
LINE
  8
0
 62
7
  6
CONTINUOUS
 10
157.840929528
 20
31.4971831403
 11
158.0721793074
 21
31.4649194539
  0
LINE
  8
0
 62
7
  6
CONTINUOUS
 10
160.6737418074
 20
31.5617105132
 11
160.5003043074
 21
31.5939741996
  0
LINE
  8
0
 62
7
  6
CONTINUOUS
 10
160.8471793074
 20
30.6905909007
 11
160.9628038663
 21
30.7873819712
  0
LINE
  8
0
 62
7
  6
CONTINUOUS
 10
155.3549915869
 20
30.8841730531
 11
155.1815540869
 21
30.7873819712
  0
LINE
  8
0
 62
7
  6
CONTINUOUS
 10
157.4362415869
 20
31.5294468267
 11
157.320617028
 21
31.4649194539
  0
LINE
  8
0
 62
7
  6
CONTINUOUS
 10
157.320617028
 20
31.3358647082
 11
157.4362415869
 21
31.400392081
  0
LINE
  8
0
 62
7
  6
CONTINUOUS
 10
150.0362418212
 20
31.5617105132
 11
149.8628043005
 21
31.4971831403
  0
LINE
  8
0
 62
7
  6
CONTINUOUS
 10
152.4643666972
 20
31.5939741996
 11
152.2909293626
 21
31.5294468267
  0
LINE
  8
0
 62
7
  6
CONTINUOUS
 10
152.2909293626
 20
31.400392081
 11
152.4643666972
 21
31.4649194539
  0
LINE
  8
0
 62
7
  6
CONTINUOUS
 10
151.0768668626
 20
30.8196456577
 11
150.9034292799
 21
30.7551182848
  0
LINE
  8
0
 62
7
  6
CONTINUOUS
 10
160.5003043074
 20
30.7551182848
 11
160.269054528
 21
30.7228545871
  0
LINE
  8
0
 62
7
  6
CONTINUOUS
 10
154.8924916972
 20
30.5937998301
 11
155.1815540869
 21
30.6260635193
  0
LINE
  8
0
 62
7
  6
CONTINUOUS
 10
160.269054528
 20
30.5937998301
 11
160.615929528
 21
30.6260635193
  0
LINE
  8
0
 62
7
  6
CONTINUOUS
 10
150.5565542799
 20
30.5937998301
 11
150.9612418074
 21
30.6260635193
  0
LINE
  8
0
 62
7
  6
CONTINUOUS
 10
150.9034292799
 20
30.7551182848
 11
150.498741835
 21
30.7228545871
  0
LINE
  8
0
 62
7
  6
CONTINUOUS
 10
154.7768668074
 20
31.1422825445
 11
155.412804528
 21
31.1422825445
  0
LINE
  8
0
 62
7
  6
CONTINUOUS
 10
155.412804528
 20
31.2713373354
 11
154.7768668074
 21
31.2713373354
  0
LINE
  8
0
 62
7
  6
CONTINUOUS
 10
151.1346793074
 20
31.3036010218
 11
151.4237418626
 21
31.3036010218
  0
LINE
  8
0
 62
7
  6
CONTINUOUS
 10
153.9674919177
 20
31.3681283946
 11
154.2565543074
 21
31.3681283946
  0
LINE
  8
0
 62
7
  6
CONTINUOUS
 10
160.6737418074
 20
31.3681283946
 11
160.9628038663
 21
31.3681283946
  0
LINE
  8
0
 62
7
  6
CONTINUOUS
 10
154.6612419177
 20
31.4971831403
 11
155.0081169177
 21
31.4971831403
  0
LINE
  8
0
 62
7
  6
CONTINUOUS
 10
159.8065543074
 20
31.4971831403
 11
160.1534293074
 21
31.4971831403
  0
LINE
  8
0
 62
7
  6
CONTINUOUS
 10
160.1534293074
 20
31.626237886
 11
159.8065543074
 21
31.626237886
  0
LINE
  8
0
 62
7
  6
CONTINUOUS
 10
158.0721793074
 20
31.626237886
 11
157.840929528
 21
31.626237886
  0
LINE
  8
0
 62
7
  6
CONTINUOUS
 10
157.320617028
 20
31.626237886
 11
157.0315543074
 21
31.626237886
  0
LINE
  8
0
 62
7
  6
CONTINUOUS
 10
156.5690540869
 20
31.626237886
 11
156.279992028
 21
31.626237886
  0
LINE
  8
0
 62
7
  6
CONTINUOUS
 10
155.0081169177
 20
31.626237886
 11
154.6612419177
 21
31.626237886
  0
LINE
  8
0
 62
7
  6
CONTINUOUS
 10
152.9268669177
 20
31.626237886
 11
152.6956168074
 21
31.626237886
  0
LINE
  8
0
 62
7
  6
CONTINUOUS
 10
156.279992028
 20
31.9488748406
 11
156.5690540869
 21
31.9488748406
  0
LINE
  8
0
 62
7
  6
CONTINUOUS
 10
156.5690540869
 20
32.1101932727
 11
156.279992028
 21
32.1101932727
  0
LINE
  8
0
 62
7
  6
CONTINUOUS
 10
152.1753043074
 20
32.1101932727
 11
151.8862417523
 21
32.1101932727
  0
LINE
  8
0
 62
7
  6
CONTINUOUS
 10
151.2130860697
 20
32.3970785186
 11
151.6256574183
 21
32.3970785186
  0
LINE
  8
0
 62
7
  6
CONTINUOUS
 10
152.852430332
 20
32.3970785186
 11
154.245872955
 21
32.3970785186
  0
LINE
  8
0
 62
7
  6
CONTINUOUS
 10
154.5737418074
 20
32.3970785186
 11
155.9671844304
 21
32.3970785186
  0
LINE
  8
0
 62
7
  6
CONTINUOUS
 10
157.852430332
 20
32.3970785186
 11
159.245872955
 21
32.3970785186
  0
LINE
  8
0
 62
7
  6
CONTINUOUS
 10
159.5737418074
 20
32.3970785186
 11
160.9671844304
 21
32.3970785186
  0
LINE
  8
0
 62
7
  6
CONTINUOUS
 10
157.6096790869
 20
31.5939741996
 11
157.4362415869
 21
31.5294468267
  0
LINE
  8
0
 62
7
  6
CONTINUOUS
 10
155.1815540869
 20
30.6260635193
 11
155.3549915869
 21
30.6905909007
  0
LINE
  8
0
 62
7
  6
CONTINUOUS
 10
160.615929528
 20
30.6260635193
 11
160.8471793074
 21
30.6905909007
  0
LINE
  8
0
 62
7
  6
CONTINUOUS
 10
160.615929528
 20
30.7873819712
 11
160.5003043074
 21
30.7551182848
  0
LINE
  8
0
 62
7
  6
CONTINUOUS
 10
159.575304528
 20
31.4649194539
 11
159.8065543074
 21
31.4971831403
  0
LINE
  8
0
 62
7
  6
CONTINUOUS
 10
157.6096790869
 20
31.4649194539
 11
157.840929528
 21
31.4971831403
  0
LINE
  8
0
 62
7
  6
CONTINUOUS
 10
154.5456166972
 20
31.1100188581
 11
154.7768668074
 21
31.1422825445
  0
LINE
  8
0
 62
7
  6
CONTINUOUS
 10
157.840929528
 20
31.626237886
 11
157.6096790869
 21
31.5939741996
  0
LINE
  8
0
 62
7
  6
CONTINUOUS
 10
154.4299918074
 20
31.4649194539
 11
154.6612419177
 21
31.4971831403
  0
LINE
  8
0
 62
7
  6
CONTINUOUS
 10
159.8065543074
 20
31.626237886
 11
159.4596793074
 21
31.5939741996
  0
LINE
  8
0
 62
7
  6
CONTINUOUS
 10
154.7768668074
 20
31.2713373354
 11
154.4299918074
 21
31.2390736489
  0
LINE
  8
0
 62
7
  6
CONTINUOUS
 10
150.5565542799
 20
31.626237886
 11
150.2096793212
 21
31.5939741996
  0
LINE
  8
0
 62
7
  6
CONTINUOUS
 10
154.6612419177
 20
31.626237886
 11
154.2565543074
 21
31.5939741996
  0
LINE
  8
0
 62
7
  6
CONTINUOUS
 10
152.0327582009
 20
33.5446195022
 11
151.3770204959
 21
33.5446195022
  0
LINE
  8
0
 62
7
  6
CONTINUOUS
 10
157.4362415869
 20
31.400392081
 11
157.6096790869
 21
31.4649194539
  0
LINE
  8
0
 62
7
  6
CONTINUOUS
 10
159.4596793074
 20
31.4326557675
 11
159.575304528
 21
31.4649194539
  0
LINE
  8
0
 62
7
  6
CONTINUOUS
 10
159.4596793074
 20
31.5939741996
 11
159.228429528
 21
31.5294468267
  0
LINE
  8
0
 62
7
  6
CONTINUOUS
 10
155.1815540869
 20
30.7873819712
 11
154.8924916972
 21
30.7228545871
  0
LINE
  8
0
 62
7
  6
CONTINUOUS
 10
152.4643666972
 20
31.4649194539
 11
152.6956168074
 21
31.4971831403
  0
LINE
  8
0
 62
7
  6
CONTINUOUS
 10
152.6956168074
 20
31.626237886
 11
152.4643666972
 21
31.5939741996
  0
LINE
  8
0
 62
7
  6
CONTINUOUS
 10
150.2674918074
 20
31.4649194539
 11
150.498741835
 21
31.4971831403
  0
LINE
  8
0
 62
7
  6
CONTINUOUS
 10
156.7868565615
 20
35.0200293383
 11
157.4425942664
 21
35.0200293383
  0
LINE
  8
0
 62
7
  6
CONTINUOUS
 10
154.4299918074
 20
31.0777551716
 11
154.5456166972
 21
31.1100188581
  0
LINE
  8
0
 62
7
  6
CONTINUOUS
 10
154.4299918074
 20
31.2390736489
 11
154.1987416972
 21
31.1745462761
  0
LINE
  8
0
 62
7
  6
CONTINUOUS
 10
154.3143669177
 20
31.4326557675
 11
154.4299918074
 21
31.4649194539
  0
LINE
  8
0
 62
7
  6
CONTINUOUS
 10
150.9612418074
 20
30.6260635193
 11
151.1924917523
 21
30.6905909007
  0
LINE
  8
0
 62
7
  6
CONTINUOUS
 10
154.2565543074
 20
31.5939741996
 11
154.1409294177
 21
31.5617105132
  0
LINE
  8
0
 62
7
  6
CONTINUOUS
 10
150.2096793212
 20
31.5939741996
 11
150.0362418212
 21
31.5617105132
  0
LINE
  8
0
 62
7
  6
CONTINUOUS
 10
160.9671844304
 20
36.1675703219
 11
159.5737418074
 21
36.1675703219
  0
LINE
  8
0
 62
7
  6
CONTINUOUS
 10
157.6065286927
 20
36.1675703219
 11
157.1939573441
 21
36.1675703219
  0
LINE
  8
0
 62
7
  6
CONTINUOUS
 10
155.9671844304
 20
36.1675703219
 11
154.5737418074
 21
36.1675703219
  0
LINE
  8
0
 62
7
  6
CONTINUOUS
 10
154.245872955
 20
36.1675703219
 11
152.852430332
 21
36.1675703219
  0
LINE
  8
0
 62
7
  6
CONTINUOUS
 10
150.9671844304
 20
36.1675703219
 11
149.5737418074
 21
36.1675703219
  0
LINE
  8
0
 62
7
  6
CONTINUOUS
 10
150.1518667936
 20
31.4326557675
 11
150.2674918074
 21
31.4649194539
  0
CIRCLE
  8
0
 62
7
  6
CONTINUOUS
 10
160.2704631189
 20
38.5036358957
 40
2.0901639344
  0
ARC
  8
0
 62
7
  6
CONTINUOUS
 10
151.2130860697
 20
34.0364227809
 40
1.6393442623
 50
180.0
 51
270.0
  0
ARC
  8
0
 62
7
  6
CONTINUOUS
 10
157.6065286927
 20
34.5282260596
 40
1.6393442623
 50
0.0
 51
90.0
  0
ARC
  8
0
 62
7
  6
CONTINUOUS
 10
151.6256574183
 20
33.8724883547
 40
1.4754098361
 50
270.0
 51
326.2510114041
  0
ARC
  8
0
 62
7
  6
CONTINUOUS
 10
157.1939573441
 20
34.6921604858
 40
1.4754098361
 50
90.0
 51
146.2510114041
  0
ARC
  8
0
 62
7
  6
CONTINUOUS
 10
152.0327582009
 20
34.3642916334
 40
0.8196721311
 50
270.0
 51
360.0
  0
ARC
  8
0
 62
7
  6
CONTINUOUS
 10
156.7868565615
 20
34.2003572071
 40
0.8196721311
 50
90.0
 51
180.0
  0
ARC
  8
0
 62
7
  6
CONTINUOUS
 10
151.3770204959
 20
33.9544555678
 40
0.4098360656
 50
180.0
 51
270.0
  0
ARC
  8
0
 62
7
  6
CONTINUOUS
 10
157.4425942664
 20
34.6101932727
 40
0.4098360656
 50
0.0
 51
90.0
  0
SOLID
  8
0
 62
7
  6
CONTINUOUS
 10
156.279992028
 20
31.9488752009
 11
156.279992028
 21
32.1101936845
 12
156.5690540869
 22
31.9488752009
 13
156.5690540869
 23
32.1101936845
  0
SOLID
  8
0
 62
7
  6
CONTINUOUS
 10
150.5565542799
 20
31.6262382337
 11
150.9612418074
 21
31.5939740028
 12
150.2096793212
 22
31.5939740028
 13
150.2096793212
 23
31.5939740028
  0
SOLID
  8
0
 62
7
  6
CONTINUOUS
 10
150.0362418212
 20
31.5617111435
 11
150.2096793212
 21
31.5939740028
 12
150.9612418074
 22
31.5939740028
 13
150.9612418074
 23
31.5939740028
  0
SOLID
  8
0
 62
7
  6
CONTINUOUS
 10
150.9612418074
 20
31.5939740028
 11
151.1924917523
 21
31.5294468402
 12
150.0362418212
 22
31.5617111435
 13
150.0362418212
 23
31.5617111435
  0
SOLID
  8
0
 62
7
  6
CONTINUOUS
 10
149.8628043005
 20
31.49718259
 11
150.0362418212
 21
31.5617111435
 12
151.1924917523
 22
31.5294468402
 13
151.1924917523
 23
31.5294468402
  0
SOLID
  8
0
 62
7
  6
CONTINUOUS
 10
149.8628043005
 20
31.49718259
 11
151.1924917523
 21
31.5294468402
 12
150.498741835
 22
31.49718259
 13
150.498741835
 23
31.49718259
  0
SOLID
  8
0
 62
7
  6
CONTINUOUS
 10
150.498741835
 20
31.49718259
 11
151.1924917523
 21
31.5294468402
 12
150.9034292799
 22
31.4649197501
 13
150.9034292799
 23
31.4649197501
  0
SOLID
  8
0
 62
7
  6
CONTINUOUS
 10
151.1924917523
 20
31.5294468402
 11
151.3659292523
 21
31.4326554468
 12
150.9034292799
 22
31.4649197501
 13
150.9034292799
 23
31.4649197501
  0
SOLID
  8
0
 62
7
  6
CONTINUOUS
 10
151.0768668626
 20
31.4003926599
 11
150.9034292799
 21
31.4649197501
 12
151.3659292523
 22
31.4326554468
 13
151.3659292523
 23
31.4326554468
  0
SOLID
  8
0
 62
7
  6
CONTINUOUS
 10
151.0768668626
 20
31.4003926599
 11
151.3659292523
 21
31.4326554468
 12
151.1346793074
 22
31.3036013776
 13
151.1346793074
 23
31.3036013776
  0
SOLID
  8
0
 62
7
  6
CONTINUOUS
 10
151.3659292523
 20
31.4326554468
 11
151.4237418626
 21
31.3036013776
 12
151.1346793074
 22
31.3036013776
 13
151.1346793074
 23
31.3036013776
  0
SOLID
  8
0
 62
7
  6
CONTINUOUS
 10
152.4643666972
 20
31.5939739754
 11
152.6956168074
 21
31.6262382787
 12
152.9268669177
 22
31.6262382787
 13
152.9268669177
 23
31.6262382787
  0
SOLID
  8
0
 62
7
  6
CONTINUOUS
 10
152.9268669177
 20
31.6262382787
 11
153.1003044177
 21
31.5939739754
 12
152.4643666972
 22
31.5939739754
 13
152.4643666972
 23
31.5939739754
  0
SOLID
  8
0
 62
7
  6
CONTINUOUS
 10
152.2909293626
 20
31.5294468852
 11
152.4643666972
 21
31.5939739754
 12
153.1003044177
 22
31.5939739754
 13
153.1003044177
 23
31.5939739754
  0
SOLID
  8
0
 62
7
  6
CONTINUOUS
 10
153.1003044177
 20
31.5939739754
 11
153.2737419177
 21
31.5294468852
 12
152.2909293626
 22
31.5294468852
 13
152.2909293626
 23
31.5294468852
  0
SOLID
  8
0
 62
7
  6
CONTINUOUS
 10
153.2737419177
 20
31.5294468852
 11
152.6956168074
 21
31.4971825369
 12
152.2909293626
 22
31.5294468852
 13
152.2909293626
 23
31.5294468852
  0
SOLID
  8
0
 62
7
  6
CONTINUOUS
 10
152.1753043074
 20
31.4649197951
 11
152.2909293626
 21
31.5294468852
 12
152.6956168074
 22
31.4971825369
 13
152.6956168074
 23
31.4971825369
  0
SOLID
  8
0
 62
7
  6
CONTINUOUS
 10
152.6956168074
 20
31.4971825369
 11
152.4643666972
 21
31.4649197951
 12
152.1753043074
 22
31.4649197951
 13
152.1753043074
 23
31.4649197951
  0
SOLID
  8
0
 62
7
  6
CONTINUOUS
 10
152.6956168074
 20
31.4971825369
 11
153.2737419177
 21
31.5294468852
 12
152.9268669177
 22
31.4649197951
 13
152.9268669177
 23
31.4649197951
  0
SOLID
  8
0
 62
7
  6
CONTINUOUS
 10
153.2737419177
 20
31.5294468852
 11
153.3893668074
 21
31.4649197951
 12
152.9268669177
 22
31.4649197951
 13
152.9268669177
 23
31.4649197951
  0
SOLID
  8
0
 62
7
  6
CONTINUOUS
 10
153.0424918074
 20
31.4326554468
 11
152.9268669177
 21
31.4649197951
 12
153.3893668074
 22
31.4649197951
 13
153.3893668074
 23
31.4649197951
  0
SOLID
  8
0
 62
7
  6
CONTINUOUS
 10
153.3893668074
 20
31.4649197951
 11
153.4471794177
 21
31.4003927049
 12
153.0424918074
 22
31.4326554468
 13
153.0424918074
 23
31.4326554468
  0
SOLID
  8
0
 62
7
  6
CONTINUOUS
 10
153.1581166972
 20
31.3681283566
 11
153.0424918074
 21
31.4326554468
 12
153.4471794177
 22
31.4003927049
 13
153.4471794177
 23
31.4003927049
  0
SOLID
  8
0
 62
7
  6
CONTINUOUS
 10
153.1581166972
 20
31.3681283566
 11
153.4471794177
 21
31.4003927049
 12
153.2159293074
 22
31.2390742213
 13
153.2159293074
 23
31.2390742213
  0
SOLID
  8
0
 62
7
  6
CONTINUOUS
 10
153.4471794177
 20
31.4003927049
 11
153.5049916972
 21
31.2390742213
 12
153.2159293074
 22
31.2390742213
 13
153.2159293074
 23
31.2390742213
  0
SOLID
  8
0
 62
7
  6
CONTINUOUS
 10
152.4643666972
 20
31.4649197951
 11
152.2909293626
 21
31.4003927049
 12
152.1753043074
 22
31.4649197951
 13
152.1753043074
 23
31.4649197951
  0
SOLID
  8
0
 62
7
  6
CONTINUOUS
 10
152.2909293626
 20
31.4003927049
 11
152.1753043074
 21
31.3358640533
 12
152.1753043074
 22
31.4649197951
 13
152.1753043074
 23
31.4649197951
  0
SOLID
  8
0
 62
7
  6
CONTINUOUS
 10
152.1753043074
 20
31.3358640533
 11
151.8862417523
 21
30.5938002869
 12
152.1753043074
 22
31.4649197951
 13
152.1753043074
 23
31.4649197951
  0
SOLID
  8
0
 62
7
  6
CONTINUOUS
 10
152.1753043074
 20
31.4649197951
 11
151.8862417523
 21
30.5938002869
 12
152.1753043074
 22
32.1101937295
 13
152.1753043074
 23
32.1101937295
  0
SOLID
  8
0
 62
7
  6
CONTINUOUS
 10
151.8862417523
 20
30.5938002869
 11
151.8862417523
 21
32.1101937295
 12
152.1753043074
 22
32.1101937295
 13
152.1753043074
 23
32.1101937295
  0
SOLID
  8
0
 62
7
  6
CONTINUOUS
 10
152.1753043074
 20
31.3358640533
 11
152.1753043074
 21
30.5938002869
 12
151.8862417523
 22
30.5938002869
 13
151.8862417523
 23
30.5938002869
  0
SOLID
  8
0
 62
7
  6
CONTINUOUS
 10
153.2159293074
 20
30.5938002869
 11
153.2159293074
 21
31.2390742213
 12
153.5049916972
 22
31.2390742213
 13
153.5049916972
 23
31.2390742213
  0
SOLID
  8
0
 62
7
  6
CONTINUOUS
 10
153.5049916972
 20
31.2390742213
 11
153.5049916972
 21
30.5938002869
 12
153.2159293074
 22
30.5938002869
 13
153.2159293074
 23
30.5938002869
  0
SOLID
  8
0
 62
7
  6
CONTINUOUS
 10
154.2565543074
 20
31.5939738288
 11
154.6612419177
 21
31.6262385959
 12
155.0081169177
 22
31.6262385959
 13
155.0081169177
 23
31.6262385959
  0
SOLID
  8
0
 62
7
  6
CONTINUOUS
 10
155.0081169177
 20
31.6262385959
 11
155.3549915869
 21
31.5939738288
 12
154.2565543074
 22
31.5939738288
 13
154.2565543074
 23
31.5939738288
  0
SOLID
  8
0
 62
7
  6
CONTINUOUS
 10
154.1409294177
 20
31.5617111435
 11
154.2565543074
 21
31.5939738288
 12
155.3549915869
 22
31.5939738288
 13
155.3549915869
 23
31.5939738288
  0
SOLID
  8
0
 62
7
  6
CONTINUOUS
 10
155.3549915869
 20
31.5939738288
 11
155.5284290869
 21
31.5294468402
 12
154.1409294177
 22
31.5617111435
 13
154.1409294177
 23
31.5617111435
  0
SOLID
  8
0
 62
7
  6
CONTINUOUS
 10
154.0253041972
 20
31.4971826249
 11
154.1409294177
 21
31.5617111435
 12
155.5284290869
 22
31.5294468402
 13
155.5284290869
 23
31.5294468402
  0
SOLID
  8
0
 62
7
  6
CONTINUOUS
 10
154.0253041972
 20
31.4971826249
 11
155.5284290869
 21
31.5294468402
 12
154.6612419177
 22
31.4971826249
 13
154.6612419177
 23
31.4971826249
  0
SOLID
  8
0
 62
7
  6
CONTINUOUS
 10
154.6612419177
 20
31.4971826249
 11
155.5284290869
 21
31.5294468402
 12
155.0081169177
 22
31.4971826249
 13
155.0081169177
 23
31.4971826249
  0
SOLID
  8
0
 62
7
  6
CONTINUOUS
 10
155.0081169177
 20
31.4971826249
 11
155.5284290869
 21
31.5294468402
 12
155.239367028
 22
31.4649194065
 13
155.239367028
 23
31.4649194065
  0
SOLID
  8
0
 62
7
  6
CONTINUOUS
 10
155.5284290869
 20
31.5294468402
 11
155.6440543074
 21
31.4649194065
 12
155.239367028
 22
31.4649194065
 13
155.239367028
 23
31.4649194065
  0
SOLID
  8
0
 62
7
  6
CONTINUOUS
 10
153.9674919177
 20
31.4326554138
 11
154.0253041972
 21
31.4971826249
 12
154.6612419177
 22
31.4971826249
 13
154.6612419177
 23
31.4971826249
  0
SOLID
  8
0
 62
7
  6
CONTINUOUS
 10
155.3549915869
 20
31.4326554138
 11
155.239367028
 21
31.4649194065
 12
155.6440543074
 22
31.4649194065
 13
155.6440543074
 23
31.4649194065
  0
SOLID
  8
0
 62
7
  6
CONTINUOUS
 10
155.3549915869
 20
31.4326554138
 11
155.6440543074
 21
31.4649194065
 12
155.412804528
 22
31.3681282026
 13
155.412804528
 23
31.3681282026
  0
SOLID
  8
0
 62
7
  6
CONTINUOUS
 10
155.6440543074
 20
31.4649194065
 11
155.7018665869
 21
31.3681282026
 12
155.412804528
 22
31.3681282026
 13
155.412804528
 23
31.3681282026
  0
SOLID
  8
0
 62
7
  6
CONTINUOUS
 10
155.412804528
 20
31.2713369632
 11
155.412804528
 21
31.3681282026
 12
155.7018665869
 22
31.3681282026
 13
155.7018665869
 23
31.3681282026
  0
SOLID
  8
0
 62
7
  6
CONTINUOUS
 10
155.412804528
 20
31.2713369632
 11
155.7018665869
 21
31.3681282026
 12
155.412804528
 22
31.1422827828
 13
155.412804528
 23
31.1422827828
  0
SOLID
  8
0
 62
7
  6
CONTINUOUS
 10
155.412804528
 20
31.1422827828
 11
155.7018665869
 21
31.3681282026
 12
155.412804528
 22
30.9487004259
 13
155.412804528
 23
30.9487004259
  0
SOLID
  8
0
 62
7
  6
CONTINUOUS
 10
155.7018665869
 20
31.3681282026
 11
155.7018665869
 21
30.8519086025
 12
155.412804528
 22
30.9487004259
 13
155.412804528
 23
30.9487004259
  0
SOLID
  8
0
 62
7
  6
CONTINUOUS
 10
157.6096790869
 20
31.5939736268
 11
157.840929528
 21
31.6262383465
 12
158.0721793074
 22
31.6262383465
 13
158.0721793074
 23
31.6262383465
  0
SOLID
  8
0
 62
7
  6
CONTINUOUS
 10
158.0721793074
 20
31.6262383465
 11
158.2456168074
 21
31.5939736268
 12
157.6096790869
 22
31.5939736268
 13
157.6096790869
 23
31.5939736268
  0
SOLID
  8
0
 62
7
  6
CONTINUOUS
 10
157.4362415869
 20
31.5294472848
 11
157.6096790869
 21
31.5939736268
 12
158.2456168074
 22
31.5939736268
 13
158.2456168074
 23
31.5939736268
  0
SOLID
  8
0
 62
7
  6
CONTINUOUS
 10
158.2456168074
 20
31.5939736268
 11
158.4190543074
 21
31.5294472848
 12
157.4362415869
 22
31.5294472848
 13
157.4362415869
 23
31.5294472848
  0
SOLID
  8
0
 62
7
  6
CONTINUOUS
 10
158.4190543074
 20
31.5294472848
 11
157.840929528
 21
31.4971825369
 12
157.4362415869
 22
31.5294472848
 13
157.4362415869
 23
31.5294472848
  0
SOLID
  8
0
 62
7
  6
CONTINUOUS
 10
157.320617028
 20
31.4649199103
 11
157.4362415869
 21
31.5294472848
 12
157.840929528
 22
31.4971825369
 13
157.840929528
 23
31.4971825369
  0
SOLID
  8
0
 62
7
  6
CONTINUOUS
 10
157.840929528
 20
31.4971825369
 11
157.6096790869
 21
31.4649199103
 12
157.320617028
 22
31.4649199103
 13
157.320617028
 23
31.4649199103
  0
SOLID
  8
0
 62
7
  6
CONTINUOUS
 10
157.840929528
 20
31.4971825369
 11
158.4190543074
 21
31.5294472848
 12
158.0721793074
 22
31.4649199103
 13
158.0721793074
 23
31.4649199103
  0
SOLID
  8
0
 62
7
  6
CONTINUOUS
 10
158.4190543074
 20
31.5294472848
 11
158.534679528
 21
31.4649199103
 12
158.0721793074
 22
31.4649199103
 13
158.0721793074
 23
31.4649199103
  0
SOLID
  8
0
 62
7
  6
CONTINUOUS
 10
158.187804528
 20
31.4326554468
 11
158.0721793074
 21
31.4649199103
 12
158.534679528
 22
31.4649199103
 13
158.534679528
 23
31.4649199103
  0
SOLID
  8
0
 62
7
  6
CONTINUOUS
 10
158.187804528
 20
31.4326554468
 11
158.534679528
 21
31.4649199103
 12
158.3034290869
 22
31.3681288486
 13
158.3034290869
 23
31.3681288486
  0
SOLID
  8
0
 62
7
  6
CONTINUOUS
 10
158.534679528
 20
31.4649199103
 11
158.5924918074
 21
31.3681288486
 12
158.3034290869
 22
31.3681288486
 13
158.3034290869
 23
31.3681288486
  0
SOLID
  8
0
 62
7
  6
CONTINUOUS
 10
158.361242028
 20
31.2068093799
 11
158.3034290869
 21
31.3681288486
 12
158.5924918074
 22
31.3681288486
 13
158.5924918074
 23
31.3681288486
  0
SOLID
  8
0
 62
7
  6
CONTINUOUS
 10
158.5924918074
 20
31.3681288486
 11
158.6503040869
 21
31.2068093799
 12
158.361242028
 22
31.2068093799
 13
158.361242028
 23
31.2068093799
  0
SOLID
  8
0
 62
7
  6
CONTINUOUS
 10
157.6096790869
 20
31.4649199103
 11
157.4362415869
 21
31.4003926599
 12
157.320617028
 22
31.4649199103
 13
157.320617028
 23
31.4649199103
  0
SOLID
  8
0
 62
7
  6
CONTINUOUS
 10
157.4362415869
 20
31.4003926599
 11
157.320617028
 21
31.3358640533
 12
157.320617028
 22
31.4649199103
 13
157.320617028
 23
31.4649199103
  0
SOLID
  8
0
 62
7
  6
CONTINUOUS
 10
157.320617028
 20
31.3358640533
 11
157.0315543074
 21
30.5938003547
 12
157.320617028
 22
31.4649199103
 13
157.320617028
 23
31.4649199103
  0
SOLID
  8
0
 62
7
  6
CONTINUOUS
 10
157.320617028
 20
31.4649199103
 11
157.0315543074
 21
30.5938003547
 12
157.320617028
 22
31.6262383465
 13
157.320617028
 23
31.6262383465
  0
SOLID
  8
0
 62
7
  6
CONTINUOUS
 10
157.0315543074
 20
30.5938003547
 11
157.0315543074
 21
31.6262383465
 12
157.320617028
 22
31.6262383465
 13
157.320617028
 23
31.6262383465
  0
SOLID
  8
0
 62
7
  6
CONTINUOUS
 10
157.320617028
 20
31.3358640533
 11
157.320617028
 21
30.5938003547
 12
157.0315543074
 22
30.5938003547
 13
157.0315543074
 23
30.5938003547
  0
SOLID
  8
0
 62
7
  6
CONTINUOUS
 10
158.361242028
 20
30.5938003547
 11
158.361242028
 21
31.2068093799
 12
158.6503040869
 22
31.2068093799
 13
158.6503040869
 23
31.2068093799
  0
SOLID
  8
0
 62
7
  6
CONTINUOUS
 10
158.6503040869
 20
31.2068093799
 11
158.6503040869
 21
30.5938003547
 12
158.361242028
 22
30.5938003547
 13
158.361242028
 23
30.5938003547
  0
SOLID
  8
0
 62
7
  6
CONTINUOUS
 10
159.4596793074
 20
31.5939739474
 11
159.8065543074
 21
31.6262381969
 12
160.1534293074
 22
31.6262381969
 13
160.1534293074
 23
31.6262381969
  0
SOLID
  8
0
 62
7
  6
CONTINUOUS
 10
160.1534293074
 20
31.6262381969
 11
160.5003043074
 21
31.5939739474
 12
159.4596793074
 22
31.5939739474
 13
159.4596793074
 23
31.5939739474
  0
SOLID
  8
0
 62
7
  6
CONTINUOUS
 10
159.228429528
 20
31.5294468402
 11
159.4596793074
 21
31.5939739474
 12
160.5003043074
 22
31.5939739474
 13
160.5003043074
 23
31.5939739474
  0
SOLID
  8
0
 62
7
  6
CONTINUOUS
 10
159.228429528
 20
31.5294468402
 11
160.5003043074
 21
31.5939739304
 12
160.6737418074
 22
31.5617111435
 13
160.6737418074
 23
31.5617111435
  0
SOLID
  8
0
 62
7
  6
CONTINUOUS
 10
159.228429528
 20
31.5294468402
 11
160.6737418074
 21
31.5617111435
 12
159.8065543074
 22
31.4971825592
 13
159.8065543074
 23
31.4971825592
  0
SOLID
  8
0
 62
7
  6
CONTINUOUS
 10
159.8065543074
 20
31.4971825592
 11
160.6737418074
 21
31.5617111435
 12
160.1534293074
 22
31.4971825592
 13
160.1534293074
 23
31.4971825592
  0
SOLID
  8
0
 62
7
  6
CONTINUOUS
 10
160.6737418074
 20
31.5617111435
 11
160.8471793074
 21
31.4971825592
 12
160.1534293074
 22
31.4971825592
 13
160.1534293074
 23
31.4971825592
  0
SOLID
  8
0
 62
7
  6
CONTINUOUS
 10
160.5003043074
 20
31.4649197501
 11
160.1534293074
 21
31.4971825592
 12
160.8471793074
 22
31.4971825592
 13
160.8471793074
 23
31.4971825592
  0
SOLID
  8
0
 62
7
  6
CONTINUOUS
 10
159.1128043074
 20
31.4326555427
 11
159.228429528
 21
31.5294468402
 12
159.8065543074
 22
31.4971825592
 13
159.8065543074
 23
31.4971825592
  0
SOLID
  8
0
 62
7
  6
CONTINUOUS
 10
160.5003043074
 20
31.4649197501
 11
160.8471793074
 21
31.4971825592
 12
160.615929528
 22
31.4326555427
 13
160.615929528
 23
31.4326555427
  0
SOLID
  8
0
 62
7
  6
CONTINUOUS
 10
160.615929528
 20
31.4326555427
 11
160.8471793074
 21
31.4971825592
 12
160.6737418074
 22
31.3681283005
 13
160.6737418074
 23
31.3681283005
  0
SOLID
  8
0
 62
7
  6
CONTINUOUS
 10
160.8471793074
 20
31.4971825592
 11
160.9628038663
 21
31.3681283005
 12
160.6737418074
 22
31.3681283005
 13
160.6737418074
 23
31.3681283005
  0
SOLID
  8
0
 62
7
  6
CONTINUOUS
 10
150.2674918074
 20
31.4649197501
 11
149.7471793074
 21
31.4326554237
 12
150.498741835
 22
31.4971824493
 13
150.498741835
 23
31.4971824493
  0
SOLID
  8
0
 62
7
  6
CONTINUOUS
 10
149.7471793074
 20
31.4326554237
 11
149.8628043005
 21
31.4971824493
 12
150.498741835
 22
31.4971824493
 13
150.498741835
 23
31.4971824493
  0
SOLID
  8
0
 62
7
  6
CONTINUOUS
 10
150.2674918074
 20
31.4649197501
 11
150.1518667936
 21
31.4326554237
 12
149.7471793074
 22
31.4326554237
 13
149.7471793074
 23
31.4326554237
  0
SOLID
  8
0
 62
7
  6
CONTINUOUS
 10
149.6315543091
 20
31.3036012664
 11
149.7471793074
 21
31.4326554237
 12
150.1518667936
 22
31.4326554237
 13
150.1518667936
 23
31.4326554237
  0
SOLID
  8
0
 62
7
  6
CONTINUOUS
 10
153.9674919177
 20
31.4326554237
 11
154.6612419177
 21
31.4971825369
 12
154.4299918074
 22
31.4649197501
 13
154.4299918074
 23
31.4649197501
  0
SOLID
  8
0
 62
7
  6
CONTINUOUS
 10
154.4299918074
 20
31.4649197501
 11
154.3143669177
 21
31.4326554237
 12
153.9674919177
 22
31.4326554237
 13
153.9674919177
 23
31.4326554237
  0
SOLID
  8
0
 62
7
  6
CONTINUOUS
 10
153.9674919177
 20
31.3681283335
 11
153.9674919177
 21
31.4326554237
 12
154.3143669177
 22
31.4326554237
 13
154.3143669177
 23
31.4326554237
  0
SOLID
  8
0
 62
7
  6
CONTINUOUS
 10
154.3143669177
 20
31.4326554237
 11
154.2565543074
 21
31.3681283335
 12
153.9674919177
 22
31.3681283335
 13
153.9674919177
 23
31.3681283335
  0
SOLID
  8
0
 62
7
  6
CONTINUOUS
 10
159.1128043074
 20
31.4326555528
 11
159.8065543074
 21
31.4971825369
 12
159.575304528
 22
31.4649197501
 13
159.575304528
 23
31.4649197501
  0
SOLID
  8
0
 62
7
  6
CONTINUOUS
 10
159.575304528
 20
31.4649197501
 11
159.4596793074
 21
31.4326555528
 12
159.1128043074
 22
31.4326555528
 13
159.1128043074
 23
31.4326555528
  0
SOLID
  8
0
 62
7
  6
CONTINUOUS
 10
159.1128043074
 20
31.3681284626
 11
159.1128043074
 21
31.4326555528
 12
159.4596793074
 22
31.4326555528
 13
159.4596793074
 23
31.4326555528
  0
SOLID
  8
0
 62
7
  6
CONTINUOUS
 10
159.4596793074
 20
31.4326555528
 11
159.401867028
 21
31.3681284626
 12
159.1128043074
 22
31.3681284626
 13
159.1128043074
 23
31.3681284626
  0
SOLID
  8
0
 62
7
  6
CONTINUOUS
 10
159.228429528
 20
31.2390741763
 11
159.1128043074
 21
31.3681284626
 12
159.401867028
 22
31.3681284626
 13
159.401867028
 23
31.3681284626
  0
SOLID
  8
0
 62
7
  6
CONTINUOUS
 10
149.6315543091
 20
31.3036012664
 11
150.1518667936
 21
31.4326554468
 12
149.9784292936
 22
31.3358640533
 13
149.9784292936
 23
31.3358640533
  0
SOLID
  8
0
 62
7
  6
CONTINUOUS
 10
149.9784292936
 20
31.3358640533
 11
149.9206168074
 21
31.2713369632
 12
149.6315543091
 22
31.3036012664
 13
149.6315543091
 23
31.3036012664
  0
SOLID
  8
0
 62
7
  6
CONTINUOUS
 10
149.5737418074
 20
31.1100184796
 11
149.6315543091
 21
31.3036012664
 12
149.9206168074
 22
31.2713369632
 13
149.9206168074
 23
31.2713369632
  0
SOLID
  8
0
 62
7
  6
CONTINUOUS
 10
154.4299918074
 20
31.2390741763
 11
154.7768668074
 21
31.271336924
 12
155.412804528
 22
31.271336924
 13
155.412804528
 23
31.271336924
  0
SOLID
  8
0
 62
7
  6
CONTINUOUS
 10
154.4299918074
 20
31.2390741763
 11
155.412804528
 21
31.271336924
 12
154.1987416972
 22
31.1745462761
 13
154.1987416972
 23
31.1745462761
  0
SOLID
  8
0
 62
7
  6
CONTINUOUS
 10
154.1987416972
 20
31.1745462761
 11
155.412804528
 21
31.271336924
 12
154.7768668074
 22
31.1422827436
 13
154.7768668074
 23
31.1422827436
  0
SOLID
  8
0
 62
7
  6
CONTINUOUS
 10
155.412804528
 20
31.271336924
 11
155.412804528
 21
31.1422827436
 12
154.7768668074
 22
31.1422827436
 13
154.7768668074
 23
31.1422827436
  0
SOLID
  8
0
 62
7
  6
CONTINUOUS
 10
159.228429528
 20
31.2390745501
 11
159.401867028
 21
31.3681283566
 12
159.4596793074
 22
31.3036012664
 13
159.4596793074
 23
31.3036012664
  0
SOLID
  8
0
 62
7
  6
CONTINUOUS
 10
159.4596793074
 20
31.3036012664
 11
159.6331168074
 21
31.2390745501
 12
159.228429528
 22
31.2390745501
 13
159.228429528
 23
31.2390745501
  0
SOLID
  8
0
 62
7
  6
CONTINUOUS
 10
159.4596793074
 20
31.1422827828
 11
159.228429528
 21
31.2390745501
 12
159.6331168074
 22
31.2390745501
 13
159.6331168074
 23
31.2390745501
  0
SOLID
  8
0
 62
7
  6
CONTINUOUS
 10
159.6331168074
 20
31.2390745501
 11
160.615929528
 21
31.0777556927
 12
159.4596793074
 22
31.1422827828
 13
159.4596793074
 23
31.1422827828
  0
SOLID
  8
0
 62
7
  6
CONTINUOUS
 10
160.442492028
 20
30.9809646623
 11
159.4596793074
 21
31.1422827828
 12
160.615929528
 22
31.0777556927
 13
160.615929528
 23
31.0777556927
  0
SOLID
  8
0
 62
7
  6
CONTINUOUS
 10
160.615929528
 20
31.0777556927
 11
160.8471793074
 21
30.9809646623
 12
160.442492028
 22
30.9809646623
 13
160.442492028
 23
30.9809646623
  0
SOLID
  8
0
 62
7
  6
CONTINUOUS
 10
160.615929528
 20
30.9164372091
 11
160.442492028
 21
30.9809646623
 12
160.8471793074
 22
30.9809646623
 13
160.8471793074
 23
30.9809646623
  0
SOLID
  8
0
 62
7
  6
CONTINUOUS
 10
160.615929528
 20
30.9164372091
 11
160.8471793074
 21
30.9809646623
 12
160.6737418074
 22
30.8519089441
 13
160.6737418074
 23
30.8519089441
  0
SOLID
  8
0
 62
7
  6
CONTINUOUS
 10
160.8471793074
 20
30.9809646623
 11
160.9628038663
 21
30.8519089441
 12
160.6737418074
 22
30.8519089441
 13
160.6737418074
 23
30.8519089441
  0
SOLID
  8
0
 62
7
  6
CONTINUOUS
 10
160.615929528
 20
30.7873818593
 11
160.6737418074
 21
30.8519089441
 12
160.9628038663
 22
30.8519089441
 13
160.9628038663
 23
30.8519089441
  0
SOLID
  8
0
 62
7
  6
CONTINUOUS
 10
160.9628038663
 20
30.8519089441
 11
160.9628038663
 21
30.7873818593
 12
160.615929528
 22
30.7873818593
 13
160.615929528
 23
30.7873818593
  0
SOLID
  8
0
 62
7
  6
CONTINUOUS
 10
160.5003043074
 20
30.7551187255
 11
160.615929528
 21
30.7873818593
 12
160.9628038663
 22
30.7873818593
 13
160.9628038663
 23
30.7873818593
  0
SOLID
  8
0
 62
7
  6
CONTINUOUS
 10
160.5003043074
 20
30.7551187255
 11
160.9628038663
 21
30.7873818593
 12
160.269054528
 22
30.7228547745
 13
160.269054528
 23
30.7228547745
  0
SOLID
  8
0
 62
7
  6
CONTINUOUS
 10
160.9628038663
 20
30.7873818593
 11
160.8471793074
 21
30.6905916353
 12
160.269054528
 22
30.7228547745
 13
160.269054528
 23
30.7228547745
  0
SOLID
  8
0
 62
7
  6
CONTINUOUS
 10
160.8471793074
 20
30.6905916353
 11
159.401867028
 21
30.658327332
 12
160.269054528
 22
30.7228547745
 13
160.269054528
 23
30.7228547745
  0
SOLID
  8
0
 62
7
  6
CONTINUOUS
 10
160.269054528
 20
30.7228547745
 11
159.401867028
 21
30.658327332
 12
159.922179528
 22
30.7228547745
 13
159.922179528
 23
30.7228547745
  0
SOLID
  8
0
 62
7
  6
CONTINUOUS
 10
159.401867028
 20
30.658327332
 11
159.228429528
 21
30.7228547745
 12
159.922179528
 22
30.7228547745
 13
159.922179528
 23
30.7228547745
  0
SOLID
  8
0
 62
7
  6
CONTINUOUS
 10
159.401867028
 20
30.658327332
 11
160.8471793074
 21
30.6905916353
 12
159.575304528
 22
30.6260629858
 13
159.575304528
 23
30.6260629858
  0
SOLID
  8
0
 62
7
  6
CONTINUOUS
 10
160.8471793074
 20
30.6905916353
 11
160.615929528
 21
30.6260629858
 12
159.575304528
 22
30.6260629858
 13
159.575304528
 23
30.6260629858
  0
SOLID
  8
0
 62
7
  6
CONTINUOUS
 10
159.922179528
 20
30.5938006049
 11
159.575304528
 21
30.6260629858
 12
160.615929528
 22
30.6260629858
 13
160.615929528
 23
30.6260629858
  0
SOLID
  8
0
 62
7
  6
CONTINUOUS
 10
160.615929528
 20
30.6260629858
 11
160.269054528
 21
30.5938006049
 12
159.922179528
 22
30.5938006049
 13
159.922179528
 23
30.5938006049
  0
SOLID
  8
0
 62
7
  6
CONTINUOUS
 10
149.5737418074
 20
31.1100184796
 11
149.9206168074
 21
31.2713369632
 12
149.8628043005
 22
31.1422827828
 13
149.8628043005
 23
31.1422827828
  0
SOLID
  8
0
 62
7
  6
CONTINUOUS
 10
149.8628043005
 20
31.1422827828
 11
149.8628043005
 21
31.0454914852
 12
149.5737418074
 22
31.1100184796
 13
149.5737418074
 23
31.1100184796
  0
SOLID
  8
0
 62
7
  6
CONTINUOUS
 10
149.6315543091
 20
30.9164372091
 11
149.5737418074
 21
31.1100184796
 12
149.8628043005
 22
31.0454914852
 13
149.8628043005
 23
31.0454914852
  0
SOLID
  8
0
 62
7
  6
CONTINUOUS
 10
149.8628043005
 20
31.0454914852
 11
149.9784292936
 21
30.8841729058
 12
149.6315543091
 22
30.9164372091
 13
149.6315543091
 23
30.9164372091
  0
SOLID
  8
0
 62
7
  6
CONTINUOUS
 10
149.7471793074
 20
30.7873813202
 11
149.6315543091
 21
30.9164372091
 12
149.9784292936
 22
30.8841729058
 13
149.9784292936
 23
30.8841729058
  0
SOLID
  8
0
 62
7
  6
CONTINUOUS
 10
149.9784292936
 20
30.8841729058
 11
150.1518667936
 21
30.7873813202
 12
149.7471793074
 22
30.7873813202
 13
149.7471793074
 23
30.7873813202
  0
SOLID
  8
0
 62
7
  6
CONTINUOUS
 10
149.8628043005
 20
30.7228547004
 11
149.7471793074
 21
30.7873813202
 12
150.1518667936
 22
30.7873813202
 13
150.1518667936
 23
30.7873813202
  0
SOLID
  8
0
 62
7
  6
CONTINUOUS
 10
150.1518667936
 20
30.7873813202
 11
150.498741835
 21
30.7228547004
 12
149.8628043005
 22
30.7228547004
 13
149.8628043005
 23
30.7228547004
  0
SOLID
  8
0
 62
7
  6
CONTINUOUS
 10
150.0362418212
 20
30.658327332
 11
149.8628043005
 21
30.7228547004
 12
150.498741835
 22
30.7228547004
 13
150.498741835
 23
30.7228547004
  0
SOLID
  8
0
 62
7
  6
CONTINUOUS
 10
154.0831168074
 20
31.1100184386
 11
154.1987416972
 21
31.1745462761
 12
154.7768668074
 22
31.1422827828
 13
154.7768668074
 23
31.1422827828
  0
SOLID
  8
0
 62
7
  6
CONTINUOUS
 10
154.7768668074
 20
31.1422827828
 11
154.5456166972
 21
31.1100184386
 12
154.0831168074
 22
31.1100184386
 13
154.0831168074
 23
31.1100184386
  0
SOLID
  8
0
 62
7
  6
CONTINUOUS
 10
153.9674919177
 20
30.9809642992
 11
154.0831168074
 21
31.1100184386
 12
154.5456166972
 22
31.1100184386
 13
154.5456166972
 23
31.1100184386
  0
SOLID
  8
0
 62
7
  6
CONTINUOUS
 10
154.3143669177
 20
31.0132277988
 11
153.9674919177
 21
30.9809642992
 12
154.4299918074
 22
31.0777556927
 13
154.4299918074
 23
31.0777556927
  0
SOLID
  8
0
 62
7
  6
CONTINUOUS
 10
153.9674919177
 20
30.9809642992
 11
154.5456166972
 21
31.1100184796
 12
154.4299918074
 22
31.0777556927
 13
154.4299918074
 23
31.0777556927
  0
SOLID
  8
0
 62
7
  6
CONTINUOUS
 10
154.3143669177
 20
31.0132277988
 11
154.2565543074
 21
30.9164372091
 12
153.9674919177
 22
30.9809642992
 13
153.9674919177
 23
30.9809642992
  0
SOLID
  8
0
 62
7
  6
CONTINUOUS
 10
153.9674919177
 20
30.8841729058
 11
153.9674919177
 21
30.9809642992
 12
154.2565543074
 22
30.9164372091
 13
154.2565543074
 23
30.9164372091
  0
SOLID
  8
0
 62
7
  6
CONTINUOUS
 10
154.2565543074
 20
30.9164372091
 11
154.2565543074
 21
30.8519086025
 12
153.9674919177
 22
30.8841729058
 13
153.9674919177
 23
30.8841729058
  0
SOLID
  8
0
 62
7
  6
CONTINUOUS
 10
154.0253041972
 20
30.7551187255
 11
153.9674919177
 21
30.8841729058
 12
154.2565543074
 22
30.8519086025
 13
154.2565543074
 23
30.8519086025
  0
SOLID
  8
0
 62
7
  6
CONTINUOUS
 10
155.412804528
 20
30.9487004259
 11
155.7018665869
 21
30.8519086025
 12
155.3549915869
 22
30.8841729058
 13
155.3549915869
 23
30.8841729058
  0
SOLID
  8
0
 62
7
  6
CONTINUOUS
 10
155.1815540869
 20
30.7873815123
 11
155.3549915869
 21
30.8841729058
 12
155.7018665869
 22
30.8519086025
 13
155.7018665869
 23
30.8519086025
  0
SOLID
  8
0
 62
7
  6
CONTINUOUS
 10
155.1815540869
 20
30.7873815123
 11
155.7018665869
 21
30.8519086025
 12
155.412804528
 22
30.7551187255
 13
155.412804528
 23
30.7551187255
  0
SOLID
  8
0
 62
7
  6
CONTINUOUS
 10
155.7018665869
 20
30.8519086025
 11
155.759679528
 21
30.6905916353
 12
155.412804528
 22
30.7551187255
 13
155.412804528
 23
30.7551187255
  0
SOLID
  8
0
 62
7
  6
CONTINUOUS
 10
155.4706168074
 20
30.658327332
 11
155.412804528
 21
30.7551187255
 12
155.759679528
 22
30.6905916353
 13
155.759679528
 23
30.6905916353
  0
SOLID
  8
0
 62
7
  6
CONTINUOUS
 10
155.4706168074
 20
30.658327332
 11
155.759679528
 21
30.6905916353
 12
155.5284290869
 22
30.5938002079
 13
155.5284290869
 23
30.5938002079
  0
SOLID
  8
0
 62
7
  6
CONTINUOUS
 10
155.759679528
 20
30.6905916353
 11
155.8174918074
 21
30.5938002079
 12
155.5284290869
 22
30.5938002079
 13
155.5284290869
 23
30.5938002079
  0
SOLID
  8
0
 62
7
  6
CONTINUOUS
 10
151.0768668626
 20
30.8196456577
 11
151.1346793074
 21
30.9164373395
 12
151.4237418626
 22
30.9164373395
 13
151.4237418626
 23
30.9164373395
  0
SOLID
  8
0
 62
7
  6
CONTINUOUS
 10
151.4237418626
 20
30.9164373395
 11
151.3659292523
 21
30.7873815123
 12
151.0768668626
 22
30.8196456577
 13
151.0768668626
 23
30.8196456577
  0
SOLID
  8
0
 62
7
  6
CONTINUOUS
 10
150.9034292799
 20
30.7551187255
 11
151.0768668626
 21
30.8196456577
 12
151.3659292523
 22
30.7873815123
 13
151.3659292523
 23
30.7873815123
  0
SOLID
  8
0
 62
7
  6
CONTINUOUS
 10
150.9034292799
 20
30.7551187255
 11
151.3659292523
 21
30.7873815123
 12
150.498741835
 22
30.7228544222
 13
150.498741835
 23
30.7228544222
  0
SOLID
  8
0
 62
7
  6
CONTINUOUS
 10
151.3659292523
 20
30.7873815123
 11
151.1924917523
 21
30.6905916353
 12
150.498741835
 22
30.7228544222
 13
150.498741835
 23
30.7228544222
  0
SOLID
  8
0
 62
7
  6
CONTINUOUS
 10
150.0362418212
 20
30.658327332
 11
150.498741835
 21
30.7228544222
 12
151.1924917523
 22
30.6905916353
 13
151.1924917523
 23
30.6905916353
  0
SOLID
  8
0
 62
7
  6
CONTINUOUS
 10
150.0362418212
 20
30.658327332
 11
151.1924917523
 21
30.6905916353
 12
150.2096793212
 22
30.6260631011
 13
150.2096793212
 23
30.6260631011
  0
SOLID
  8
0
 62
7
  6
CONTINUOUS
 10
151.1924917523
 20
30.6905916353
 11
150.9612418074
 21
30.6260631011
 12
150.2096793212
 22
30.6260631011
 13
150.2096793212
 23
30.6260631011
  0
SOLID
  8
0
 62
7
  6
CONTINUOUS
 10
150.5565542799
 20
30.5938002419
 11
150.2096793212
 21
30.6260631011
 12
150.9612418074
 22
30.6260631011
 13
150.9612418074
 23
30.6260631011
  0
SOLID
  8
0
 62
7
  6
CONTINUOUS
 10
154.0253041972
 20
30.7551187255
 11
154.2565543074
 21
30.8519086025
 12
154.3143669177
 22
30.7873815123
 13
154.3143669177
 23
30.7873815123
  0
SOLID
  8
0
 62
7
  6
CONTINUOUS
 10
154.3143669177
 20
30.7873815123
 11
154.5456166972
 21
30.7228544222
 12
154.0253041972
 22
30.7551187255
 13
154.0253041972
 23
30.7551187255
  0
SOLID
  8
0
 62
7
  6
CONTINUOUS
 10
154.1987416972
 20
30.658327332
 11
154.0253041972
 21
30.7551187255
 12
154.5456166972
 22
30.7228544222
 13
154.5456166972
 23
30.7228544222
  0
SOLID
  8
0
 62
7
  6
CONTINUOUS
 10
154.8924916972
 20
30.7228544637
 11
155.1815540869
 21
30.7873815123
 12
155.412804528
 22
30.7551187255
 13
155.412804528
 23
30.7551187255
  0
SOLID
  8
0
 62
7
  6
CONTINUOUS
 10
155.412804528
 20
30.7551187255
 11
155.3549915869
 21
30.6905916353
 12
154.8924916972
 22
30.7228544637
 13
154.8924916972
 23
30.7228544637
  0
SOLID
  8
0
 62
7
  6
CONTINUOUS
 10
155.3549915869
 20
30.6905916353
 11
154.1987416972
 21
30.658327332
 12
154.8924916972
 22
30.7228544637
 13
154.8924916972
 23
30.7228544637
  0
SOLID
  8
0
 62
7
  6
CONTINUOUS
 10
154.1987416972
 20
30.658327332
 11
154.5456166972
 21
30.7228544637
 12
154.8924916972
 22
30.7228544637
 13
154.8924916972
 23
30.7228544637
  0
SOLID
  8
0
 62
7
  6
CONTINUOUS
 10
154.1987416972
 20
30.658327332
 11
155.3549915869
 21
30.6905916353
 12
154.3143669177
 22
30.6260630541
 13
154.3143669177
 23
30.6260630541
  0
SOLID
  8
0
 62
7
  6
CONTINUOUS
 10
155.3549915869
 20
30.6905916353
 11
155.1815540869
 21
30.6260630541
 12
154.3143669177
 22
30.6260630541
 13
154.3143669177
 23
30.6260630541
  0
SOLID
  8
0
 62
7
  6
CONTINUOUS
 10
154.5456166972
 20
30.5938002188
 11
154.3143669177
 21
30.6260630541
 12
155.1815540869
 22
30.6260630541
 13
155.1815540869
 23
30.6260630541
  0
SOLID
  8
0
 62
7
  6
CONTINUOUS
 10
155.1815540869
 20
30.6260630541
 11
154.8924916972
 21
30.5938002188
 12
154.5456166972
 22
30.5938002188
 13
154.5456166972
 23
30.5938002188
  0
SOLID
  8
0
 62
7
  6
CONTINUOUS
 10
159.575304528
 20
30.7551187255
 11
159.228429528
 21
30.7228544637
 12
159.4596793074
 22
30.7873815123
 13
159.4596793074
 23
30.7873815123
  0
SOLID
  8
0
 62
7
  6
CONTINUOUS
 10
159.4596793074
 20
30.7873815123
 11
159.228429528
 21
30.7228544637
 12
159.401867028
 22
30.851908644
 13
159.401867028
 23
30.851908644
  0
SOLID
  8
0
 62
7
  6
CONTINUOUS
 10
159.228429528
 20
30.7228544637
 11
159.1128043074
 21
30.851908644
 12
159.401867028
 22
30.851908644
 13
159.401867028
 23
30.851908644
  0
SOLID
  8
0
 62
7
  6
CONTINUOUS
 10
159.575304528
 20
30.7551187255
 11
159.922179528
 21
30.7228544637
 12
159.228429528
 22
30.7228544637
 13
159.228429528
 23
30.7228544637
  0
SOLID
  8
0
 62
7
  6
CONTINUOUS
 10
156.279992028
 20
30.5938002419
 11
156.279992028
 21
31.6262382337
 12
156.5690540869
 22
30.5938002419
 13
156.5690540869
 23
31.6262382337
  0
ENDBLK
  8
0
  6
BYBLOCK
 62
0
  0
BLOCK
  8
0
 62
2
  6
CONTINUOUS
  2
SYMBOL_3_BL0
 70
64
 10
32.1213064866
 20
19.8534310916
  0
TEXT
  8
0
 62
7
  6
CONTINUOUS
 10
18.3860103289
 20
19.2268451992
  7
TEXTSTYLE_3
 40
2.7338706658
  1
Ammeraal Beltech
 41
1.0
 51
15.0
 72
0
  0
TEXT
  8
0
 62
7
  6
CONTINUOUS
 10
29.1868111546
 20
16.9533085264
  7
TEXTSTYLE_4
 40
1.0935482663
  1
Innovation & Service in Belting
 41
1.0
 72
0
  0
LINE
  8
0
 62
7
  6
CONTINUOUS
 10
12.3614696776
 20
19.9934385078
 11
13.1396216709
 21
23.6543558055
  0
LINE
  8
0
 62
7
  6
CONTINUOUS
 10
23.2347899607
 20
27.3177497171
 11
13.6274394139
 21
24.1961322958
  0
LINE
  8
0
 62
7
  6
CONTINUOUS
 10
12.5867530099
 20
19.3000877048
 11
20.093828271
 21
12.5406867788
  0
LINE
  8
0
 62
7
  6
CONTINUOUS
 10
12.8492874206
 20
20.5352149982
 11
23.6575567857
 21
24.0470345971
  0
LINE
  8
0
 62
7
  6
CONTINUOUS
 10
23.6533516486
 20
13.6972460334
 11
15.2078919798
 21
21.3015720751
  0
LINE
  8
0
 62
7
  6
CONTINUOUS
 10
24.1731743684
 20
26.4728246013
 11
23.1966148312
 21
21.8784731989
  0
LINE
  8
0
 62
7
  6
CONTINUOUS
 10
22.4968128835
 20
18.5861638851
 11
21.810364672
 21
15.3566789607
  0
LINE
  8
0
 62
7
  6
CONTINUOUS
 10
24.8542704669
 20
14.087448211
 11
25.8105020025
 21
18.5861638851
  0
LINE
  8
0
 62
7
  6
CONTINUOUS
 10
26.5103039502
 20
21.8784731989
 11
26.9545457526
 21
23.9684665583
  0
LINE
  8
0
 62
7
  6
CONTINUOUS
 10
20.8069293463
 20
12.3891124661
 11
24.3664527239
 21
13.5456717207
  0
LINE
  8
0
 62
7
  6
CONTINUOUS
 10
23.9478910361
 20
27.1661754044
 11
26.7292624203
 21
24.6618173613
  0
ARC
  8
0
 62
7
  6
CONTINUOUS
 10
13.8527227462
 20
23.5027814928
 40
0.7290321776
 50
108.0
 51
168.0
  0
ARC
  8
0
 62
7
  6
CONTINUOUS
 10
23.4600732931
 20
26.624398914
 40
0.7290321776
 50
348.0
 51
108.0
  0
ARC
  8
0
 62
7
  6
CONTINUOUS
 10
26.2414446773
 20
24.120040871
 40
0.7290321776
 50
348.0
 51
48.0
  0
ARC
  8
0
 62
7
  6
CONTINUOUS
 10
20.581646014
 20
13.0824632691
 40
0.7290321776
 50
228.0
 51
288.0
  0
ARC
  8
0
 62
7
  6
CONTINUOUS
 10
13.0745707529
 20
19.8418641951
 40
0.7290321776
 50
108.0
 51
228.0
  0
ARC
  8
0
 62
7
  6
CONTINUOUS
 10
24.1411693916
 20
14.2390225237
 40
0.7290321776
 50
228.0
 51
348.0
  0
ENDBLK
  8
0
  6
BYBLOCK
 62
0
  0
ENDSEC
  0
SECTION
  2
ENTITIES
  0
TEXT
  8
0
 62
5
  6
CONTINUOUS
 10
96.0
 20
25.636
  7
TEXTSTYLE_2
 40
2.8
  1
Scale :
 41
0.6
 51
0.000019
 72
0
  0
TEXT
  8
0
 62
5
  6
CONTINUOUS
 10
116.0
 20
25.636
  7
TEXTSTYLE_2
 40
2.8
  1
Belt type:
 41
0.6
 51
0.000019
 72
0
  0
INSERT
  8
0
 62
2
  6
CONTINUOUS
  2
SYMBOL_3_BL0
 10
32.1213064866
 20
19.8534310916
  0
INSERT
  8
0
 62
2
  6
CONTINUOUS
  2
SYMBOL_8_BL1
 10
173.5956734183
 20
35.5937998301
  0
LINE
  8
0
 62
2
  6
CONTINUOUS
 10
10.0
 20
30.0
 11
200.0
 21
30.0
  0
LINE
  8
0
 62
2
  6
CONTINUOUS
 10
10.0
 20
30.0
 11
10.0
 21
10.0
  0
LINE
  8
0
 62
2
  6
CONTINUOUS
 10
10.0
 20
10.0
 11
200.0
 21
10.0
  0
LINE
  8
0
 62
2
  6
CONTINUOUS
 10
95.0
 20
30.0
 11
95.0
 21
10.0
  0
LINE
  8
0
 62
2
  6
CONTINUOUS
 10
115.0
 20
30.0
 11
115.0
 21
10.0
  0
LINE
  8
0
 62
2
  6
CONTINUOUS
 10
200.0
 20
30.0
 11
200.0
 21
10.0
  0
TEXT
  8
0
 62
5
  6
CONTINUOUS
 10
13.0
 20
23.303
  7
TEXTSTYLE_5
 40
1.52
  1
                                                                     Ammeraal Beltech Modular A/S
 41
1.0
 72
0
  0
TEXT
  8
0
 62
5
  6
CONTINUOUS
 10
13.0
 20
20.595
  7
TEXTSTYLE_5
 40
1.5
  1
                                                                      Hjulmagervej 21 DK-7100 Vejle
 41
1.0
 72
0
  0
TEXT
  8
0
 62
5
  6
CONTINUOUS
 10
13.0
 20
17.881
  7
TEXTSTYLE_5
 40
1.495
  1
                                                                      tel: 
 41
1.0
 72
0
  0
TEXT
  8
0
 62
5
  6
CONTINUOUS
 10
57.9869465649
 20
17.881
  7
TEXTSTYLE_5
 40
1.51
  1
+45 75723100     fax: +45 75723348
 41
1.0
 72
0
  0
TEXT
  8
0
 62
5
  6
CONTINUOUS
 10
13.0
 20
15.177
  7
TEXTSTYLE_5
 40
1.5
  1
                                                                      admin@unichains.dk  www.unichains.com
 41
1.0
 72
0
  0
TEXT
  8
0
 62
5
  6
CONTINUOUS
 10
98.0
 20
13.75
  7
TEXTSTYLE_5
 40
5.0
  1
1:1
 41
1.0
 72
0
  0
TEXT
  8
0
 62
5
  6
CONTINUOUS
 10
118.0
 20
13.75
  7
TEXTSTYLE_5
 40
4.5
  1
uni Light 00 K300
 41
1.0
 72
0
  0
LINE
  8
0
 62
7
  6
CONTINUOUS
 10
210.0
 20
0.0
 11
0.0
 21
0.0
  0
LINE
  8
0
 62
7
  6
CONTINUOUS
 10
10.0
 20
10.0
 11
200.0
 21
10.0
  0
LINE
  8
0
 62
7
  6
CONTINUOUS
 10
10.0
 20
30.0
 11
200.0
 21
30.0
  0
LINE
  8
0
 62
7
  6
CONTINUOUS
 10
0.0
 20
0.0
 11
0.0
 21
297.0
  0
LINE
  8
0
 62
7
  6
CONTINUOUS
 10
10.0
 20
10.0
 11
10.0
 21
287.0
  0
LINE
  8
0
 62
7
  6
CONTINUOUS
 10
200.0
 20
287.0
 11
200.0
 21
10.0
  0
LINE
  8
0
 62
7
  6
CONTINUOUS
 10
210.0
 20
0.0
 11
210.0
 21
297.0
  0
LINE
  8
0
 62
7
  6
CONTINUOUS
 10
10.0
 20
287.0
 11
200.0
 21
287.0
  0
LINE
  8
0
 62
7
  6
CONTINUOUS
 10
0.0
 20
297.0
 11
210.0
 21
297.0
  0
LINE
  8
0
 62
7
  6
CONTINUOUS
 10
43.9997037915
 20
113.1665120492
 11
43.9997037915
 21
122.2330850418
  0
LINE
  8
0
 62
7
  6
CONTINUOUS
 10
44.1997037915
 20
105.0762322275
 11
44.1997037915
 21
112.5665120492
  0
LINE
  8
0
 62
7
  6
CONTINUOUS
 10
44.1997037915
 20
122.8359011178
 11
44.1997037915
 21
123.7546018939
  0
LINE
  8
0
 62
7
  6
CONTINUOUS
 10
44.4997037915
 20
113.1665120492
 11
44.4997037915
 21
122.2330850418
  0
LINE
  8
0
 62
7
  6
CONTINUOUS
 10
44.6997037915
 20
104.5762322275
 11
44.6997037915
 21
112.5665120492
  0
LINE
  8
0
 62
7
  6
CONTINUOUS
 10
44.6997037915
 20
122.8359011178
 11
44.6997037915
 21
124.2546018939
  0
LINE
  8
0
 62
7
  6
CONTINUOUS
 10
47.6497037915
 20
104.5762322275
 11
47.6497037915
 21
112.9278625611
  0
LINE
  8
0
 62
7
  6
CONTINUOUS
 10
48.1497037915
 20
105.0762322275
 11
48.1497037915
 21
111.9278625611
  0
LINE
  8
0
 62
7
  6
CONTINUOUS
 10
49.1997037915
 20
124.7546018939
 11
49.1997037915
 21
131.6062322275
  0
LINE
  8
0
 62
7
  6
CONTINUOUS
 10
49.6997037915
 20
132.1062322275
 11
49.6997037915
 21
123.7546018939
  0
LINE
  8
0
 62
7
  6
CONTINUOUS
 10
44.083571424
 20
122.510274242
 11
44.1158361589
 21
122.5587119175
  0
LINE
  8
0
 62
7
  6
CONTINUOUS
 10
44.4997037915
 20
122.2330850418
 11
44.5319685264
 21
122.2815227173
  0
POLYLINE
  8
0
 62
7
  6
CONTINUOUS
 66
1
 70
0
  0
VERTEX
  8
0
 62
7
  6
CONTINUOUS
 10
49.1997037915
 20
129.0909770989
  0
VERTEX
  8
0
 62
7
  6
CONTINUOUS
 10
49.2164759146
 20
129.1117709196
  0
VERTEX
  8
0
 62
7
  6
CONTINUOUS
 10
49.2658675831
 20
129.130916882
  0
VERTEX
  8
0
 62
7
  6
CONTINUOUS
 10
49.3448539601
 20
129.1472087579
  0
VERTEX
  8
0
 62
7
  6
CONTINUOUS
 10
49.4483212121
 20
129.1596326328
  0
VERTEX
  8
0
 62
7
  6
CONTINUOUS
 10
49.5693515232
 20
129.1674177359
  0
VERTEX
  8
0
 62
7
  6
CONTINUOUS
 10
49.6997037915
 20
129.1700727085
  0
SEQEND
  0
LINE
  8
0
 62
7
  6
CONTINUOUS
 10
48.1497037915
 20
111.9278625611
 11
47.6497037915
 21
112.9278625611
  0
LINE
  8
0
 62
7
  6
CONTINUOUS
 10
57.4497037915
 20
123.7546018939
 11
57.4497037915
 21
132.1062322275
  0
LINE
  8
0
 62
7
  6
CONTINUOUS
 10
57.9497037915
 20
124.7546018939
 11
57.9497037915
 21
131.6062322275
  0
LINE
  8
0
 62
7
  6
CONTINUOUS
 10
57.4497037915
 20
123.7546018939
 11
57.9497037915
 21
124.7546018939
  0
POLYLINE
  8
0
 62
7
  6
CONTINUOUS
 66
1
 70
0
  0
VERTEX
  8
0
 62
7
  6
CONTINUOUS
 10
58.2997037915
 20
107.5914873561
  0
VERTEX
  8
0
 62
7
  6
CONTINUOUS
 10
58.3164759146
 20
107.5706935354
  0
VERTEX
  8
0
 62
7
  6
CONTINUOUS
 10
58.3658675831
 20
107.551547573
  0
VERTEX
  8
0
 62
7
  6
CONTINUOUS
 10
58.4448539601
 20
107.5352556971
  0
VERTEX
  8
0
 62
7
  6
CONTINUOUS
 10
58.5483212121
 20
107.5228318222
  0
VERTEX
  8
0
 62
7
  6
CONTINUOUS
 10
58.6693515232
 20
107.515046719
  0
VERTEX
  8
0
 62
7
  6
CONTINUOUS
 10
58.7997037915
 20
107.5123917464
  0
SEQEND
  0
LINE
  8
0
 62
7
  6
CONTINUOUS
 10
49.1997037915
 20
124.7546018939
 11
49.6997037915
 21
123.7546018939
  0
LINE
  8
0
 62
7
  6
CONTINUOUS
 10
58.2997037915
 20
111.9278625611
 11
58.2997037915
 21
105.0762322275
  0
LINE
  8
0
 62
7
  6
CONTINUOUS
 10
58.7997037915
 20
112.9278625611
 11
58.7997037915
 21
104.5762322275
  0
POLYLINE
  8
0
 62
7
  6
CONTINUOUS
 66
1
 70
0
  0
VERTEX
  8
0
 62
7
  6
CONTINUOUS
 10
48.1497037915
 20
107.5914873561
  0
VERTEX
  8
0
 62
7
  6
CONTINUOUS
 10
48.1329316684
 20
107.5706935354
  0
VERTEX
  8
0
 62
7
  6
CONTINUOUS
 10
48.0835399999
 20
107.551547573
  0
VERTEX
  8
0
 62
7
  6
CONTINUOUS
 10
48.0045536228
 20
107.5352556971
  0
VERTEX
  8
0
 62
7
  6
CONTINUOUS
 10
47.9010863709
 20
107.5228318222
  0
VERTEX
  8
0
 62
7
  6
CONTINUOUS
 10
47.7800560597
 20
107.515046719
  0
VERTEX
  8
0
 62
7
  6
CONTINUOUS
 10
47.6497037915
 20
107.5123917464
  0
SEQEND
  0
LINE
  8
0
 62
7
  6
CONTINUOUS
 10
48.6497037915
 20
112.4278625611
 11
47.6497037915
 21
112.9278625611
  0
LINE
  8
0
 62
7
  6
CONTINUOUS
 10
58.7997037915
 20
112.9278625611
 11
58.2997037915
 21
111.9278625611
  0
POLYLINE
  8
0
 62
7
  6
CONTINUOUS
 66
1
 70
0
  0
VERTEX
  8
0
 62
7
  6
CONTINUOUS
 10
67.8497037915
 20
129.0909770989
  0
VERTEX
  8
0
 62
7
  6
CONTINUOUS
 10
67.8664759146
 20
129.1117709196
  0
VERTEX
  8
0
 62
7
  6
CONTINUOUS
 10
67.9158675831
 20
129.130916882
  0
VERTEX
  8
0
 62
7
  6
CONTINUOUS
 10
67.9948539601
 20
129.1472087579
  0
VERTEX
  8
0
 62
7
  6
CONTINUOUS
 10
68.0983212121
 20
129.1596326328
  0
VERTEX
  8
0
 62
7
  6
CONTINUOUS
 10
68.2193515232
 20
129.1674177359
  0
VERTEX
  8
0
 62
7
  6
CONTINUOUS
 10
68.3497037915
 20
129.1700727085
  0
SEQEND
  0
LINE
  8
0
 62
7
  6
CONTINUOUS
 10
44.0997037915
 20
112.8665120492
 11
44.4997037915
 21
113.1665120492
  0
LINE
  8
0
 62
7
  6
CONTINUOUS
 10
57.4497037915
 20
123.7546018939
 11
58.4497037915
 21
124.2546018939
  0
LINE
  8
0
 62
7
  6
CONTINUOUS
 10
44.083571424
 20
122.510274242
 11
44.4997037915
 21
122.2330850418
  0
LINE
  8
0
 62
7
  6
CONTINUOUS
 10
44.1158361589
 20
122.5587119175
 11
44.5319685264
 21
122.2815227173
  0
LINE
  8
0
 62
7
  6
CONTINUOUS
 10
67.4997037915
 20
111.9278625611
 11
66.9997037915
 21
112.9278625611
  0
LINE
  8
0
 62
7
  6
CONTINUOUS
 10
66.9997037915
 20
104.5762322275
 11
66.9997037915
 21
112.9278625611
  0
LINE
  8
0
 62
7
  6
CONTINUOUS
 10
67.4997037915
 20
111.9278625611
 11
67.4997037915
 21
105.0762322275
  0
LINE
  8
0
 62
7
  6
CONTINUOUS
 10
67.8497037915
 20
124.7546017762
 11
67.8497037915
 21
131.6062322275
  0
LINE
  8
0
 62
7
  6
CONTINUOUS
 10
68.3497037915
 20
123.7546018939
 11
68.3497037915
 21
132.1062322275
  0
LINE
  8
0
 62
7
  6
CONTINUOUS
 10
44.6997037915
 20
104.5762322275
 11
47.6497037915
 21
104.5762322275
  0
LINE
  8
0
 62
7
  6
CONTINUOUS
 10
58.7997037915
 20
104.5762322275
 11
66.9997037915
 21
104.5762322275
  0
LINE
  8
0
 62
7
  6
CONTINUOUS
 10
77.8997037915
 20
104.5762322275
 11
86.0997037915
 21
104.5762322275
  0
LINE
  8
0
 62
7
  6
CONTINUOUS
 10
96.9997037915
 20
104.5762322275
 11
105.1997037915
 21
104.5762322275
  0
LINE
  8
0
 62
7
  6
CONTINUOUS
 10
116.3497037915
 20
104.5762322275
 11
119.2997037915
 21
104.5762322275
  0
POLYLINE
  8
0
 62
7
  6
CONTINUOUS
 66
1
 70
0
  0
VERTEX
  8
0
 62
7
  6
CONTINUOUS
 10
119.2997037915
 20
107.5123917464
  0
VERTEX
  8
0
 62
7
  6
CONTINUOUS
 10
119.4300560597
 20
107.515046719
  0
VERTEX
  8
0
 62
7
  6
CONTINUOUS
 10
119.5510863709
 20
107.5228318222
  0
VERTEX
  8
0
 62
7
  6
CONTINUOUS
 10
119.6545536228
 20
107.5352556971
  0
VERTEX
  8
0
 62
7
  6
CONTINUOUS
 10
119.7335399999
 20
107.551547573
  0
VERTEX
  8
0
 62
7
  6
CONTINUOUS
 10
119.7829316684
 20
107.5706935354
  0
VERTEX
  8
0
 62
7
  6
CONTINUOUS
 10
119.7997037915
 20
107.5914873561
  0
SEQEND
  0
LINE
  8
0
 62
7
  6
CONTINUOUS
 10
44.6997037915
 20
107.5123917464
 11
47.6497037915
 21
107.5123917464
  0
LINE
  8
0
 62
7
  6
CONTINUOUS
 10
58.7997037915
 20
107.5123917464
 11
66.9997037915
 21
107.5123917464
  0
LINE
  8
0
 62
7
  6
CONTINUOUS
 10
77.8997037915
 20
107.5123917464
 11
86.0997037915
 21
107.5123917464
  0
LINE
  8
0
 62
7
  6
CONTINUOUS
 10
96.9997037915
 20
107.5123917464
 11
105.1997037915
 21
107.5123917464
  0
LINE
  8
0
 62
7
  6
CONTINUOUS
 10
116.3497037915
 20
107.5123917464
 11
119.2997037915
 21
107.5123917464
  0
POLYLINE
  8
0
 62
7
  6
CONTINUOUS
 66
1
 70
0
  0
VERTEX
  8
0
 62
7
  6
CONTINUOUS
 10
44.6997037915
 20
107.5123917464
  0
VERTEX
  8
0
 62
7
  6
CONTINUOUS
 10
44.5693515232
 20
107.515046719
  0
VERTEX
  8
0
 62
7
  6
CONTINUOUS
 10
44.4483212121
 20
107.5228318222
  0
VERTEX
  8
0
 62
7
  6
CONTINUOUS
 10
44.3448539601
 20
107.5352556971
  0
VERTEX
  8
0
 62
7
  6
CONTINUOUS
 10
44.2658675831
 20
107.551547573
  0
VERTEX
  8
0
 62
7
  6
CONTINUOUS
 10
44.2164759146
 20
107.5706935354
  0
VERTEX
  8
0
 62
7
  6
CONTINUOUS
 10
44.1997037915
 20
107.5914873561
  0
SEQEND
  0
LINE
  8
0
 62
7
  6
CONTINUOUS
 10
67.9997037915
 20
112.4278625611
 11
66.9997037915
 21
112.9278625611
  0
POLYLINE
  8
0
 62
7
  6
CONTINUOUS
 66
1
 70
0
  0
VERTEX
  8
0
 62
7
  6
CONTINUOUS
 10
57.9497037915
 20
129.0909770989
  0
VERTEX
  8
0
 62
7
  6
CONTINUOUS
 10
57.9329316684
 20
129.1117709196
  0
VERTEX
  8
0
 62
7
  6
CONTINUOUS
 10
57.8835399999
 20
129.130916882
  0
VERTEX
  8
0
 62
7
  6
CONTINUOUS
 10
57.8045536228
 20
129.1472087579
  0
VERTEX
  8
0
 62
7
  6
CONTINUOUS
 10
57.7010863709
 20
129.1596326328
  0
VERTEX
  8
0
 62
7
  6
CONTINUOUS
 10
57.5800560597
 20
129.1674177359
  0
VERTEX
  8
0
 62
7
  6
CONTINUOUS
 10
57.4497037915
 20
129.1700727085
  0
SEQEND
  0
LINE
  8
1_AXIS
 62
7
  6
CENTER
 10
64.6955980578
 20
108.8162322275
 11
39.7778408304
 21
108.8162322275
  0
LINE
  8
1_AXIS
 62
7
  6
CENTER
 10
81.7955980578
 20
108.8162322275
 11
122.9131764706
 21
108.8162322275
  0
LINE
  8
0
 62
7
  6
CONTINUOUS
 10
48.6997037915
 20
124.2546018939
 11
49.6997037915
 21
123.7546018939
  0
POLYLINE
  8
0
 62
7
  6
CONTINUOUS
 66
1
 70
0
  0
VERTEX
  8
0
 62
7
  6
CONTINUOUS
 10
77.3997037915
 20
107.5914873561
  0
VERTEX
  8
0
 62
7
  6
CONTINUOUS
 10
77.4164759146
 20
107.5706935354
  0
VERTEX
  8
0
 62
7
  6
CONTINUOUS
 10
77.4658675831
 20
107.551547573
  0
VERTEX
  8
0
 62
7
  6
CONTINUOUS
 10
77.5448539601
 20
107.5352556971
  0
VERTEX
  8
0
 62
7
  6
CONTINUOUS
 10
77.6483212121
 20
107.5228318222
  0
VERTEX
  8
0
 62
7
  6
CONTINUOUS
 10
77.7693515232
 20
107.515046719
  0
VERTEX
  8
0
 62
7
  6
CONTINUOUS
 10
77.8997037915
 20
107.5123917464
  0
SEQEND
  0
LINE
  8
0
 62
7
  6
CONTINUOUS
 10
68.3497037915
 20
123.7546018939
 11
67.8497037915
 21
124.7546020476
  0
LINE
  8
0
 62
7
  6
CONTINUOUS
 10
76.5497037915
 20
123.7546018939
 11
76.5497037915
 21
132.1062322275
  0
LINE
  8
0
 62
7
  6
CONTINUOUS
 10
76.5497037915
 20
123.7546018939
 11
77.0497037915
 21
124.7546018939
  0
LINE
  8
0
 62
7
  6
CONTINUOUS
 10
76.5497037915
 20
123.7546018939
 11
77.5497037915
 21
124.2546018939
  0
LINE
  8
0
 62
7
  6
CONTINUOUS
 10
58.7997037915
 20
112.9278625611
 11
57.7997037915
 21
112.4278625611
  0
LINE
  8
0
 62
7
  6
CONTINUOUS
 10
115.3497037915
 20
112.4278625611
 11
106.1997037915
 21
112.4278625611
  0
LINE
  8
0
 62
7
  6
CONTINUOUS
 10
95.9997037915
 20
112.4278625611
 11
87.0997037915
 21
112.4278625611
  0
LINE
  8
0
 62
7
  6
CONTINUOUS
 10
76.8997037915
 20
112.4278625611
 11
67.9997037915
 21
112.4278625611
  0
LINE
  8
0
 62
7
  6
CONTINUOUS
 10
57.7997037915
 20
112.4278625611
 11
48.6497037915
 21
112.4278625611
  0
LINE
  8
0
 62
7
  6
CONTINUOUS
 10
119.7997037915
 20
112.5665120492
 11
119.2997037915
 21
112.5665120492
  0
LINE
  8
0
 62
7
  6
CONTINUOUS
 10
44.1997037915
 20
112.5665120492
 11
44.6997037915
 21
112.5665120492
  0
LINE
  8
0
 62
7
  6
CONTINUOUS
 10
116.3497037915
 20
112.9278625611
 11
105.1997037915
 21
112.9278625611
  0
LINE
  8
0
 62
7
  6
CONTINUOUS
 10
96.9997037915
 20
112.9278625611
 11
86.0997037915
 21
112.9278625611
  0
LINE
  8
0
 62
7
  6
CONTINUOUS
 10
77.8997037915
 20
112.9278625611
 11
66.9997037915
 21
112.9278625611
  0
LINE
  8
0
 62
7
  6
CONTINUOUS
 10
58.7997037915
 20
112.9278625611
 11
47.6497037915
 21
112.9278625611
  0
LINE
  8
0
 62
7
  6
CONTINUOUS
 10
119.9997037915
 20
113.1665120492
 11
119.4997037915
 21
113.1665120492
  0
LINE
  8
0
 62
7
  6
CONTINUOUS
 10
43.9997037915
 20
113.1665120492
 11
44.4997037915
 21
113.1665120492
  0
LINE
  8
0
 62
7
  6
CONTINUOUS
 10
77.0497037915
 20
124.7546018939
 11
77.0497037915
 21
131.6062322275
  0
LINE
  8
0
 62
7
  6
CONTINUOUS
 10
77.3997037915
 20
105.0762322275
 11
77.3997037915
 21
111.9278625611
  0
LINE
  8
0
 62
7
  6
CONTINUOUS
 10
77.8997037915
 20
104.5762322275
 11
77.8997037915
 21
112.9278625611
  0
POLYLINE
  8
0
 62
7
  6
CONTINUOUS
 66
1
 70
0
  0
VERTEX
  8
0
 62
7
  6
CONTINUOUS
 10
67.4997037915
 20
107.5914873561
  0
VERTEX
  8
0
 62
7
  6
CONTINUOUS
 10
67.4829316684
 20
107.5706935354
  0
VERTEX
  8
0
 62
7
  6
CONTINUOUS
 10
67.4335399999
 20
107.551547573
  0
VERTEX
  8
0
 62
7
  6
CONTINUOUS
 10
67.3545536228
 20
107.5352556971
  0
VERTEX
  8
0
 62
7
  6
CONTINUOUS
 10
67.2510863709
 20
107.5228318222
  0
VERTEX
  8
0
 62
7
  6
CONTINUOUS
 10
67.1300560597
 20
107.515046719
  0
VERTEX
  8
0
 62
7
  6
CONTINUOUS
 10
66.9997037915
 20
107.5123917464
  0
SEQEND
  0
POLYLINE
  8
0
 62
7
  6
CONTINUOUS
 66
1
 70
0
  0
VERTEX
  8
0
 62
7
  6
CONTINUOUS
 10
86.9497037915
 20
129.0909770989
  0
VERTEX
  8
0
 62
7
  6
CONTINUOUS
 10
86.9664759146
 20
129.1117709196
  0
VERTEX
  8
0
 62
7
  6
CONTINUOUS
 10
87.0158675831
 20
129.130916882
  0
VERTEX
  8
0
 62
7
  6
CONTINUOUS
 10
87.0948539601
 20
129.1472087579
  0
VERTEX
  8
0
 62
7
  6
CONTINUOUS
 10
87.1983212121
 20
129.1596326328
  0
VERTEX
  8
0
 62
7
  6
CONTINUOUS
 10
87.3193515232
 20
129.1674177359
  0
VERTEX
  8
0
 62
7
  6
CONTINUOUS
 10
87.4497037915
 20
129.1700727085
  0
SEQEND
  0
LINE
  8
0
 62
7
  6
CONTINUOUS
 10
87.0997037915
 20
112.4278625611
 11
86.0997037915
 21
112.9278625611
  0
LINE
  8
1_AXIS
 62
7
  6
CENTER
 10
81.9997037915
 20
131.222615917
 11
81.9997037915
 21
120.3413322275
  0
LINE
  8
1_AXIS
 62
2
  6
CONTINUOUS
 10
81.9997037915
 20
119.2212322275
 11
81.9997037915
 21
117.4612322275
  0
LINE
  8
1_AXIS
 62
7
  6
CENTER
 10
81.9997037915
 20
101.7569273356
 11
81.9997037915
 21
116.3411322275
  0
LINE
  8
0
 62
7
  6
CONTINUOUS
 10
77.8997037915
 20
112.9278625611
 11
77.3997037915
 21
111.9278625611
  0
LINE
  8
1_AXIS
 62
7
  6
CENTER
 10
123.9655224913
 20
118.3412322275
 11
83.9998037915
 21
118.3412322275
  0
LINE
  8
1_AXIS
 62
2
  6
CONTINUOUS
 10
82.8797037915
 20
118.3412322275
 11
81.1197037915
 21
118.3412322275
  0
LINE
  8
1_AXIS
 62
7
  6
CENTER
 10
38.7254948097
 20
118.3412322275
 11
79.9996037915
 21
118.3412322275
  0
LINE
  8
0
 62
7
  6
CONTINUOUS
 10
68.3497037915
 20
123.7546018939
 11
67.3497037915
 21
124.2546018939
  0
LINE
  8
0
 62
7
  6
CONTINUOUS
 10
95.6497037915
 20
123.7546018939
 11
96.6497037915
 21
124.2546018939
  0
LINE
  8
0
 62
7
  6
CONTINUOUS
 10
77.8997037915
 20
112.9278625611
 11
76.8997037915
 21
112.4278625611
  0
POLYLINE
  8
0
 62
7
  6
CONTINUOUS
 66
1
 70
0
  0
VERTEX
  8
0
 62
7
  6
CONTINUOUS
 10
77.0497037915
 20
129.0909770989
  0
VERTEX
  8
0
 62
7
  6
CONTINUOUS
 10
77.0329316684
 20
129.1117709196
  0
VERTEX
  8
0
 62
7
  6
CONTINUOUS
 10
76.9835399999
 20
129.130916882
  0
VERTEX
  8
0
 62
7
  6
CONTINUOUS
 10
76.9045536228
 20
129.1472087579
  0
VERTEX
  8
0
 62
7
  6
CONTINUOUS
 10
76.8010863709
 20
129.1596326328
  0
VERTEX
  8
0
 62
7
  6
CONTINUOUS
 10
76.6800560597
 20
129.1674177359
  0
VERTEX
  8
0
 62
7
  6
CONTINUOUS
 10
76.5497037915
 20
129.1700727085
  0
SEQEND
  0
LINE
  8
0
 62
7
  6
CONTINUOUS
 10
86.5997037915
 20
111.9278625611
 11
86.0997037915
 21
112.9278625611
  0
LINE
  8
0
 62
7
  6
CONTINUOUS
 10
86.0997037915
 20
104.5762322275
 11
86.0997037915
 21
112.9278625611
  0
LINE
  8
0
 62
7
  6
CONTINUOUS
 10
86.5997037915
 20
111.9278625611
 11
86.5997037915
 21
105.0762322275
  0
LINE
  8
0
 62
7
  6
CONTINUOUS
 10
86.9497037915
 20
124.7546017762
 11
86.9497037915
 21
131.6062322275
  0
LINE
  8
0
 62
7
  6
CONTINUOUS
 10
87.4497037915
 20
123.7546018939
 11
87.4497037915
 21
132.1062322275
  0
LINE
  8
0
 62
7
  6
CONTINUOUS
 10
119.9997037915
 20
122.2330850418
 11
119.4997037915
 21
122.2330850418
  0
LINE
  8
0
 62
7
  6
CONTINUOUS
 10
43.9997037915
 20
122.2330850418
 11
44.4997037915
 21
122.2330850418
  0
LINE
  8
0
 62
7
  6
CONTINUOUS
 10
119.7997037915
 20
122.8359011178
 11
119.2997037915
 21
122.8359011178
  0
LINE
  8
0
 62
7
  6
CONTINUOUS
 10
44.1997037915
 20
122.8359011178
 11
44.6997037915
 21
122.8359011178
  0
LINE
  8
0
 62
7
  6
CONTINUOUS
 10
44.1997037915
 20
123.7546018939
 11
49.6997037915
 21
123.7546018939
  0
LINE
  8
0
 62
7
  6
CONTINUOUS
 10
57.4497037915
 20
123.7546018939
 11
68.3497037915
 21
123.7546018939
  0
LINE
  8
0
 62
7
  6
CONTINUOUS
 10
76.5497037915
 20
123.7546018939
 11
87.4497037915
 21
123.7546018939
  0
LINE
  8
0
 62
7
  6
CONTINUOUS
 10
95.6497037915
 20
123.7546018939
 11
106.5497037915
 21
123.7546018939
  0
LINE
  8
0
 62
7
  6
CONTINUOUS
 10
114.2997037915
 20
123.7546018939
 11
119.7997037915
 21
123.7546018939
  0
LINE
  8
0
 62
7
  6
CONTINUOUS
 10
106.1997037915
 20
112.4278625611
 11
105.1997037915
 21
112.9278625611
  0
POLYLINE
  8
0
 62
7
  6
CONTINUOUS
 66
1
 70
0
  0
VERTEX
  8
0
 62
7
  6
CONTINUOUS
 10
96.4997037915
 20
107.5914873561
  0
VERTEX
  8
0
 62
7
  6
CONTINUOUS
 10
96.5164759146
 20
107.5706935354
  0
VERTEX
  8
0
 62
7
  6
CONTINUOUS
 10
96.5658675831
 20
107.551547573
  0
VERTEX
  8
0
 62
7
  6
CONTINUOUS
 10
96.6448539601
 20
107.5352556971
  0
VERTEX
  8
0
 62
7
  6
CONTINUOUS
 10
96.7483212121
 20
107.5228318222
  0
VERTEX
  8
0
 62
7
  6
CONTINUOUS
 10
96.8693515232
 20
107.515046719
  0
VERTEX
  8
0
 62
7
  6
CONTINUOUS
 10
96.9997037915
 20
107.5123917464
  0
SEQEND
  0
LINE
  8
0
 62
7
  6
CONTINUOUS
 10
44.6997037915
 20
124.2546018939
 11
48.6997037915
 21
124.2546018939
  0
LINE
  8
0
 62
7
  6
CONTINUOUS
 10
58.4497037915
 20
124.2546018939
 11
67.3497037915
 21
124.2546018939
  0
LINE
  8
0
 62
7
  6
CONTINUOUS
 10
77.5497037915
 20
124.2546018939
 11
86.4497037915
 21
124.2546018939
  0
LINE
  8
0
 62
7
  6
CONTINUOUS
 10
96.6497037915
 20
124.2546018939
 11
105.5497037915
 21
124.2546018939
  0
LINE
  8
0
 62
7
  6
CONTINUOUS
 10
115.2997037915
 20
124.2546018939
 11
119.2997037915
 21
124.2546018939
  0
LINE
  8
0
 62
7
  6
CONTINUOUS
 10
87.4497037915
 20
123.7546018939
 11
86.4497037915
 21
124.2546018939
  0
LINE
  8
0
 62
7
  6
CONTINUOUS
 10
87.4497037915
 20
123.7546018939
 11
86.9497037915
 21
124.7546020476
  0
LINE
  8
0
 62
7
  6
CONTINUOUS
 10
95.6497037915
 20
123.7546018939
 11
96.1497037915
 21
124.7546018939
  0
POLYLINE
  8
0
 62
7
  6
CONTINUOUS
 66
1
 70
0
  0
VERTEX
  8
0
 62
7
  6
CONTINUOUS
 10
86.5997037915
 20
107.5914873561
  0
VERTEX
  8
0
 62
7
  6
CONTINUOUS
 10
86.5829316684
 20
107.5706935354
  0
VERTEX
  8
0
 62
7
  6
CONTINUOUS
 10
86.5335399999
 20
107.551547573
  0
VERTEX
  8
0
 62
7
  6
CONTINUOUS
 10
86.4545536228
 20
107.5352556971
  0
VERTEX
  8
0
 62
7
  6
CONTINUOUS
 10
86.3510863709
 20
107.5228318222
  0
VERTEX
  8
0
 62
7
  6
CONTINUOUS
 10
86.2300560597
 20
107.515046719
  0
VERTEX
  8
0
 62
7
  6
CONTINUOUS
 10
86.0997037915
 20
107.5123917464
  0
SEQEND
  0
LINE
  8
0
 62
7
  6
CONTINUOUS
 10
114.2997037915
 20
123.7546018939
 11
115.2997037915
 21
124.2546018939
  0
POLYLINE
  8
0
 62
7
  6
CONTINUOUS
 66
1
 70
0
  0
VERTEX
  8
0
 62
7
  6
CONTINUOUS
 10
44.6997037915
 20
124.2546018939
  0
VERTEX
  8
0
 62
7
  6
CONTINUOUS
 10
44.5693854961
 20
124.2373203853
  0
VERTEX
  8
0
 62
7
  6
CONTINUOUS
 10
44.4487829175
 20
124.1870816218
  0
VERTEX
  8
0
 62
7
  6
CONTINUOUS
 10
44.3459829347
 20
124.107987739
  0
VERTEX
  8
0
 62
7
  6
CONTINUOUS
 10
44.2670076874
 20
124.0051494573
  0
VERTEX
  8
0
 62
7
  6
CONTINUOUS
 10
44.216939992
 20
123.8847522452
  0
VERTEX
  8
0
 62
7
  6
CONTINUOUS
 10
44.1997037915
 20
123.7546018939
  0
SEQEND
  0
LINE
  8
1_AXIS
 62
7
  6
CENTER
 10
41.0055778547
 20
127.8662322275
 11
59.9213794911
 21
127.8662322275
  0
LINE
  8
1_AXIS
 62
7
  6
CENTER
 10
72.2455980578
 20
127.8662322275
 11
88.9497037915
 21
127.8662322275
  0
LINE
  8
1_AXIS
 62
7
  6
CENTER
 10
91.3455980578
 20
127.8662322275
 11
122.7377854671
 21
127.8662322275
  0
LINE
  8
0
 62
7
  6
CONTINUOUS
 10
49.6997037915
 20
129.1700727085
 11
57.4497037915
 21
129.1700727085
  0
LINE
  8
0
 62
7
  6
CONTINUOUS
 10
68.3497037915
 20
129.1700727085
 11
76.5497037915
 21
129.1700727085
  0
LINE
  8
0
 62
7
  6
CONTINUOUS
 10
87.4497037915
 20
129.1700727085
 11
95.6497037915
 21
129.1700727085
  0
LINE
  8
0
 62
7
  6
CONTINUOUS
 10
106.5497037915
 20
129.1700727085
 11
114.2997037915
 21
129.1700727085
  0
POLYLINE
  8
0
 62
7
  6
CONTINUOUS
 66
1
 70
0
  0
VERTEX
  8
0
 62
7
  6
CONTINUOUS
 10
119.2997037915
 20
124.2546018939
  0
VERTEX
  8
0
 62
7
  6
CONTINUOUS
 10
119.4300220868
 20
124.2373203853
  0
VERTEX
  8
0
 62
7
  6
CONTINUOUS
 10
119.5506246654
 20
124.1870816218
  0
VERTEX
  8
0
 62
7
  6
CONTINUOUS
 10
119.6534246482
 20
124.107987739
  0
VERTEX
  8
0
 62
7
  6
CONTINUOUS
 10
119.7323998955
 20
124.0051494573
  0
VERTEX
  8
0
 62
7
  6
CONTINUOUS
 10
119.7824675909
 20
123.8847522452
  0
VERTEX
  8
0
 62
7
  6
CONTINUOUS
 10
119.7997037915
 20
123.7546018939
  0
SEQEND
  0
LINE
  8
0
 62
7
  6
CONTINUOUS
 10
95.6497037915
 20
123.7546018939
 11
95.6497037915
 21
132.1062322275
  0
POLYLINE
  8
0
 62
7
  6
CONTINUOUS
 66
1
 70
0
  0
VERTEX
  8
0
 62
7
  6
CONTINUOUS
 10
106.0497037915
 20
129.0909770989
  0
VERTEX
  8
0
 62
7
  6
CONTINUOUS
 10
106.0664759146
 20
129.1117709196
  0
VERTEX
  8
0
 62
7
  6
CONTINUOUS
 10
106.1158675831
 20
129.130916882
  0
VERTEX
  8
0
 62
7
  6
CONTINUOUS
 10
106.1948539601
 20
129.1472087579
  0
VERTEX
  8
0
 62
7
  6
CONTINUOUS
 10
106.2983212121
 20
129.1596326328
  0
VERTEX
  8
0
 62
7
  6
CONTINUOUS
 10
106.4193515232
 20
129.1674177359
  0
VERTEX
  8
0
 62
7
  6
CONTINUOUS
 10
106.5497037915
 20
129.1700727085
  0
SEQEND
  0
LINE
  8
0
 62
7
  6
CONTINUOUS
 10
96.9997037915
 20
112.9278625611
 11
95.9997037915
 21
112.4278625611
  0
LINE
  8
0
 62
7
  6
CONTINUOUS
 10
49.6997037915
 20
132.1062322275
 11
57.4497037915
 21
132.1062322275
  0
LINE
  8
0
 62
7
  6
CONTINUOUS
 10
68.3497037915
 20
132.1062322275
 11
76.5497037915
 21
132.1062322275
  0
LINE
  8
0
 62
7
  6
CONTINUOUS
 10
87.4497037915
 20
132.1062322275
 11
95.6497037915
 21
132.1062322275
  0
LINE
  8
0
 62
7
  6
CONTINUOUS
 10
106.5497037915
 20
132.1062322275
 11
114.2997037915
 21
132.1062322275
  0
LINE
  8
0
 62
7
  6
CONTINUOUS
 10
96.1497037915
 20
124.7546018939
 11
96.1497037915
 21
131.6062322275
  0
LINE
  8
0
 62
7
  6
CONTINUOUS
 10
96.4997037915
 20
111.9278625611
 11
96.4997037915
 21
105.0762322275
  0
LINE
  8
0
 62
7
  6
CONTINUOUS
 10
96.9997037915
 20
104.5762322275
 11
96.9997037915
 21
112.9278625611
  0
LINE
  8
0
 62
7
  6
CONTINUOUS
 10
96.9997037915
 20
112.9278625611
 11
96.4997037915
 21
111.9278625611
  0
LINE
  8
0
 62
7
  6
CONTINUOUS
 10
106.5497037915
 20
123.7546018939
 11
105.5497037915
 21
124.2546018939
  0
LINE
  8
0
 62
7
  6
CONTINUOUS
 10
119.883571424
 20
122.5587119175
 11
119.4674390565
 21
122.2815227173
  0
LINE
  8
0
 62
7
  6
CONTINUOUS
 10
119.9158361589
 20
122.510274242
 11
119.4997037915
 21
122.2330850418
  0
LINE
  8
0
 62
7
  6
CONTINUOUS
 10
119.8997037915
 20
112.8665120492
 11
119.4997037915
 21
113.1665120492
  0
POLYLINE
  8
0
 62
7
  6
CONTINUOUS
 66
1
 70
0
  0
VERTEX
  8
0
 62
7
  6
CONTINUOUS
 10
96.1497037915
 20
129.0909770989
  0
VERTEX
  8
0
 62
7
  6
CONTINUOUS
 10
96.1329316684
 20
129.1117709196
  0
VERTEX
  8
0
 62
7
  6
CONTINUOUS
 10
96.0835399999
 20
129.130916882
  0
VERTEX
  8
0
 62
7
  6
CONTINUOUS
 10
96.0045536228
 20
129.1472087579
  0
VERTEX
  8
0
 62
7
  6
CONTINUOUS
 10
95.9010863709
 20
129.1596326328
  0
VERTEX
  8
0
 62
7
  6
CONTINUOUS
 10
95.7800560597
 20
129.1674177359
  0
VERTEX
  8
0
 62
7
  6
CONTINUOUS
 10
95.6497037915
 20
129.1700727085
  0
SEQEND
  0
LINE
  8
0
 62
7
  6
CONTINUOUS
 10
105.6997037915
 20
111.9278625611
 11
105.1997037915
 21
112.9278625611
  0
LINE
  8
0
 62
7
  6
CONTINUOUS
 10
116.3497037915
 20
112.9278625611
 11
115.3497037915
 21
112.4278625611
  0
POLYLINE
  8
0
 62
7
  6
CONTINUOUS
 66
1
 70
0
  0
VERTEX
  8
0
 62
7
  6
CONTINUOUS
 10
115.8497037915
 20
107.5914873561
  0
VERTEX
  8
0
 62
7
  6
CONTINUOUS
 10
115.8664759146
 20
107.5706935354
  0
VERTEX
  8
0
 62
7
  6
CONTINUOUS
 10
115.9158675831
 20
107.551547573
  0
VERTEX
  8
0
 62
7
  6
CONTINUOUS
 10
115.9948539601
 20
107.5352556971
  0
VERTEX
  8
0
 62
7
  6
CONTINUOUS
 10
116.0983212121
 20
107.5228318222
  0
VERTEX
  8
0
 62
7
  6
CONTINUOUS
 10
116.2193515232
 20
107.515046719
  0
VERTEX
  8
0
 62
7
  6
CONTINUOUS
 10
116.3497037915
 20
107.5123917464
  0
SEQEND
  0
LINE
  8
0
 62
7
  6
CONTINUOUS
 10
105.1997037915
 20
104.5762322275
 11
105.1997037915
 21
112.9278625611
  0
LINE
  8
0
 62
7
  6
CONTINUOUS
 10
105.6997037915
 20
105.0762322275
 11
105.6997037915
 21
111.9278625611
  0
LINE
  8
0
 62
7
  6
CONTINUOUS
 10
106.0497037915
 20
124.7546017762
 11
106.0497037915
 21
131.6062322275
  0
LINE
  8
0
 62
7
  6
CONTINUOUS
 10
106.5497037915
 20
123.7546018939
 11
106.5497037915
 21
132.1062322275
  0
LINE
  8
0
 62
7
  6
CONTINUOUS
 10
106.5497037915
 20
123.7546018939
 11
106.0497037915
 21
124.7546020476
  0
LINE
  8
0
 62
7
  6
CONTINUOUS
 10
114.2997037915
 20
123.7546018939
 11
114.7997037915
 21
124.7546018939
  0
POLYLINE
  8
0
 62
7
  6
CONTINUOUS
 66
1
 70
0
  0
VERTEX
  8
0
 62
7
  6
CONTINUOUS
 10
105.6997037915
 20
107.5914873561
  0
VERTEX
  8
0
 62
7
  6
CONTINUOUS
 10
105.6829316684
 20
107.5706935354
  0
VERTEX
  8
0
 62
7
  6
CONTINUOUS
 10
105.6335399999
 20
107.551547573
  0
VERTEX
  8
0
 62
7
  6
CONTINUOUS
 10
105.5545536228
 20
107.5352556971
  0
VERTEX
  8
0
 62
7
  6
CONTINUOUS
 10
105.4510863709
 20
107.5228318222
  0
VERTEX
  8
0
 62
7
  6
CONTINUOUS
 10
105.3300560597
 20
107.515046719
  0
VERTEX
  8
0
 62
7
  6
CONTINUOUS
 10
105.1997037915
 20
107.5123917464
  0
SEQEND
  0
LINE
  8
0
 62
7
  6
CONTINUOUS
 10
114.2997037915
 20
123.7546018939
 11
114.2997037915
 21
132.1062322275
  0
POLYLINE
  8
0
 62
7
  6
CONTINUOUS
 66
1
 70
0
  0
VERTEX
  8
0
 62
7
  6
CONTINUOUS
 10
114.7997037915
 20
129.0909770989
  0
VERTEX
  8
0
 62
7
  6
CONTINUOUS
 10
114.7829316684
 20
129.1117709196
  0
VERTEX
  8
0
 62
7
  6
CONTINUOUS
 10
114.7335399999
 20
129.130916882
  0
VERTEX
  8
0
 62
7
  6
CONTINUOUS
 10
114.6545536228
 20
129.1472087579
  0
VERTEX
  8
0
 62
7
  6
CONTINUOUS
 10
114.5510863709
 20
129.1596326328
  0
VERTEX
  8
0
 62
7
  6
CONTINUOUS
 10
114.4300560597
 20
129.1674177359
  0
VERTEX
  8
0
 62
7
  6
CONTINUOUS
 10
114.2997037915
 20
129.1700727085
  0
SEQEND
  0
LINE
  8
0
 62
7
  6
CONTINUOUS
 10
114.7997037915
 20
124.7546018939
 11
114.7997037915
 21
131.6062322275
  0
LINE
  8
0
 62
7
  6
CONTINUOUS
 10
115.8497037915
 20
111.9278625611
 11
115.8497037915
 21
105.0762322275
  0
LINE
  8
0
 62
7
  6
CONTINUOUS
 10
116.3497037915
 20
112.9278625611
 11
116.3497037915
 21
104.5762322275
  0
LINE
  8
0
 62
7
  6
CONTINUOUS
 10
116.3497037915
 20
112.9278625611
 11
115.8497037915
 21
111.9278625611
  0
LINE
  8
0
 62
7
  6
CONTINUOUS
 10
119.4674390565
 20
122.2815227173
 11
119.4997037915
 21
122.2330850418
  0
LINE
  8
0
 62
7
  6
CONTINUOUS
 10
119.883571424
 20
122.5587119175
 11
119.9158361589
 21
122.510274242
  0
LINE
  8
0
 62
7
  6
CONTINUOUS
 10
119.2997037915
 20
124.2546018939
 11
119.2997037915
 21
122.8359011178
  0
LINE
  8
0
 62
7
  6
CONTINUOUS
 10
119.2997037915
 20
112.5665120492
 11
119.2997037915
 21
104.5762322275
  0
LINE
  8
0
 62
7
  6
CONTINUOUS
 10
119.4997037915
 20
122.2330850418
 11
119.4997037915
 21
113.1665120492
  0
LINE
  8
0
 62
7
  6
CONTINUOUS
 10
119.7997037915
 20
123.7546018939
 11
119.7997037915
 21
122.8359011178
  0
LINE
  8
0
 62
7
  6
CONTINUOUS
 10
119.7997037915
 20
112.5665120492
 11
119.7997037915
 21
105.0762322275
  0
LINE
  8
0
 62
7
  6
CONTINUOUS
 10
119.9997037915
 20
122.2330850418
 11
119.9997037915
 21
113.1665120492
  0
LINE
  8
0
 62
7
  6
CONTINUOUS
 10
43.9997037915
 20
169.0755932644
 11
43.9997037915
 21
174.8755932644
  0
LINE
  8
0
 62
7
  6
CONTINUOUS
 10
44.1997037915
 20
167.375596079
 11
44.1997037915
 21
174.8755932644
  0
POLYLINE
  8
0
 62
7
  6
CONTINUOUS
 66
1
 70
0
  0
VERTEX
  8
0
 62
7
  6
CONTINUOUS
 10
48.1497037915
 20
172.6108699598
  0
VERTEX
  8
0
 62
7
  6
CONTINUOUS
 10
48.1517520064
 20
172.566791111
  0
VERTEX
  8
0
 62
7
  6
CONTINUOUS
 10
48.157943182
 20
172.521615734
  0
VERTEX
  8
0
 62
7
  6
CONTINUOUS
 10
48.1683513056
 20
172.4755932644
  0
SEQEND
  0
LINE
  8
0
 62
7
  6
CONTINUOUS
 10
48.1497037915
 20
167.3755932644
 11
48.1497037915
 21
174.8755932644
  0
LINE
  8
0
 62
7
  6
CONTINUOUS
 10
50.7997037915
 20
172.4755932644
 11
50.7997037915
 21
167.3755932644
  0
LINE
  8
2_FEATURE
 62
7
  6
CONTINUOUS
 10
55.9497037915
 20
168.0816097812
 11
55.9497037915
 21
166.8755932644
  0
LINE
  8
0
 62
7
  6
CONTINUOUS
 10
56.3497037915
 20
170.6186750675
 11
56.3497037915
 21
167.3755932644
  0
POLYLINE
  8
2_FEATURE
 62
7
  6
CONTINUOUS
 66
1
 70
0
  0
VERTEX
  8
2_FEATURE
 62
7
  6
CONTINUOUS
 10
55.9497037915
 20
168.0816097812
  0
VERTEX
  8
2_FEATURE
 62
7
  6
CONTINUOUS
 10
55.9601729611
 20
168.1488025116
  0
VERTEX
  8
2_FEATURE
 62
7
  6
CONTINUOUS
 10
55.9846029122
 20
168.1970095007
  0
VERTEX
  8
2_FEATURE
 62
7
  6
CONTINUOUS
 10
56.0164150475
 20
168.2272148311
  0
VERTEX
  8
2_FEATURE
 62
7
  6
CONTINUOUS
 10
56.0512779964
 20
168.2403460546
  0
VERTEX
  8
2_FEATURE
 62
7
  6
CONTINUOUS
 10
56.0865928447
 20
168.2385068752
  0
VERTEX
  8
2_FEATURE
 62
7
  6
CONTINUOUS
 10
56.1248297724
 20
168.2217303784
  0
VERTEX
  8
2_FEATURE
 62
7
  6
CONTINUOUS
 10
56.1660754229
 20
168.1870403667
  0
VERTEX
  8
2_FEATURE
 62
7
  6
CONTINUOUS
 10
56.2071858372
 20
168.1343640613
  0
VERTEX
  8
2_FEATURE
 62
7
  6
CONTINUOUS
 10
56.2474576253
 20
168.0622487339
  0
VERTEX
  8
2_FEATURE
 62
7
  6
CONTINUOUS
 10
56.2852088273
 20
167.9698610339
  0
SEQEND
  0
POLYLINE
  8
2_FEATURE
 62
7
  6
CONTINUOUS
 66
1
 70
0
  0
VERTEX
  8
2_FEATURE
 62
7
  6
CONTINUOUS
 10
56.2852088273
 20
167.9698610339
  0
VERTEX
  8
2_FEATURE
 62
7
  6
CONTINUOUS
 10
56.332369758
 20
167.7927180248
  0
VERTEX
  8
2_FEATURE
 62
7
  6
CONTINUOUS
 10
56.3497037915
 20
167.6097395444
  0
SEQEND
  0
LINE
  8
0
 62
7
  6
CONTINUOUS
 10
58.2997037915
 20
174.8755932644
 11
58.2997037915
 21
167.3755932644
  0
POLYLINE
  8
0
 62
7
  6
CONTINUOUS
 66
1
 70
0
  0
VERTEX
  8
0
 62
7
  6
CONTINUOUS
 10
58.2894655408
 20
172.4755932644
  0
VERTEX
  8
0
 62
7
  6
CONTINUOUS
 10
58.295168664
 20
172.5095304918
  0
VERTEX
  8
0
 62
7
  6
CONTINUOUS
 10
58.2985738652
 20
172.5431232472
  0
VERTEX
  8
0
 62
7
  6
CONTINUOUS
 10
58.2997037915
 20
172.5762581983
  0
SEQEND
  0
POLYLINE
  8
0
 62
7
  6
CONTINUOUS
 66
1
 70
0
  0
VERTEX
  8
0
 62
7
  6
CONTINUOUS
 10
48.1497037915
 20
170.3118646395
  0
VERTEX
  8
0
 62
7
  6
CONTINUOUS
 10
48.13281222
 20
170.2964805966
  0
VERTEX
  8
0
 62
7
  6
CONTINUOUS
 10
48.0831680448
 20
170.2823395468
  0
VERTEX
  8
0
 62
7
  6
CONTINUOUS
 10
48.003966508
 20
170.270331321
  0
VERTEX
  8
0
 62
7
  6
CONTINUOUS
 10
47.9004584004
 20
170.2611935791
  0
VERTEX
  8
0
 62
7
  6
CONTINUOUS
 10
47.7796266427
 20
170.2554790874
  0
VERTEX
  8
0
 62
7
  6
CONTINUOUS
 10
47.6497037915
 20
170.2535335955
  0
SEQEND
  0
POLYLINE
  8
0
 62
7
  6
CONTINUOUS
 66
1
 70
0
  0
VERTEX
  8
0
 62
7
  6
CONTINUOUS
 10
48.1497037915
 20
172.1393218894
  0
VERTEX
  8
0
 62
7
  6
CONTINUOUS
 10
48.13281222
 20
172.1547059323
  0
VERTEX
  8
0
 62
7
  6
CONTINUOUS
 10
48.0831680448
 20
172.168846982
  0
VERTEX
  8
0
 62
7
  6
CONTINUOUS
 10
48.003966508
 20
172.1808552078
  0
VERTEX
  8
0
 62
7
  6
CONTINUOUS
 10
47.9004584004
 20
172.1899929498
  0
VERTEX
  8
0
 62
7
  6
CONTINUOUS
 10
47.7796266427
 20
172.1957074414
  0
VERTEX
  8
0
 62
7
  6
CONTINUOUS
 10
47.6497037915
 20
172.1976529334
  0
SEQEND
  0
POLYLINE
  8
0
 62
7
  6
CONTINUOUS
 66
1
 70
0
  0
VERTEX
  8
0
 62
7
  6
CONTINUOUS
 10
58.2997037915
 20
172.1393218894
  0
VERTEX
  8
0
 62
7
  6
CONTINUOUS
 10
58.3165953629
 20
172.1547059323
  0
VERTEX
  8
0
 62
7
  6
CONTINUOUS
 10
58.3662395381
 20
172.168846982
  0
VERTEX
  8
0
 62
7
  6
CONTINUOUS
 10
58.4454410749
 20
172.1808552078
  0
VERTEX
  8
0
 62
7
  6
CONTINUOUS
 10
58.5489491825
 20
172.1899929498
  0
VERTEX
  8
0
 62
7
  6
CONTINUOUS
 10
58.6697809403
 20
172.1957074414
  0
VERTEX
  8
0
 62
7
  6
CONTINUOUS
 10
58.7997037915
 20
172.1976529334
  0
SEQEND
  0
POLYLINE
  8
0
 62
7
  6
CONTINUOUS
 66
1
 70
0
  0
VERTEX
  8
0
 62
7
  6
CONTINUOUS
 10
58.2997037915
 20
170.3118646395
  0
VERTEX
  8
0
 62
7
  6
CONTINUOUS
 10
58.3165953629
 20
170.2964805966
  0
VERTEX
  8
0
 62
7
  6
CONTINUOUS
 10
58.3662395381
 20
170.2823395468
  0
VERTEX
  8
0
 62
7
  6
CONTINUOUS
 10
58.4454410749
 20
170.270331321
  0
VERTEX
  8
0
 62
7
  6
CONTINUOUS
 10
58.5489491825
 20
170.2611935791
  0
VERTEX
  8
0
 62
7
  6
CONTINUOUS
 10
58.6697809403
 20
170.2554790874
  0
VERTEX
  8
0
 62
7
  6
CONTINUOUS
 10
58.7997037915
 20
170.2535335955
  0
SEQEND
  0
POLYLINE
  8
0
 62
7
  6
CONTINUOUS
 66
1
 70
0
  0
VERTEX
  8
0
 62
7
  6
CONTINUOUS
 10
67.4997037915
 20
172.5762581983
  0
VERTEX
  8
0
 62
7
  6
CONTINUOUS
 10
67.500833902
 20
172.543120529
  0
VERTEX
  8
0
 62
7
  6
CONTINUOUS
 10
67.5042393254
 20
172.5095274736
  0
VERTEX
  8
0
 62
7
  6
CONTINUOUS
 10
67.5099420422
 20
172.4755932644
  0
SEQEND
  0
LINE
  8
0
 62
7
  6
CONTINUOUS
 10
67.4997037915
 20
167.3755932644
 11
67.4997037915
 21
174.8755932644
  0
LINE
  8
0
 62
7
  6
CONTINUOUS
 10
69.4497037915
 20
170.6186820888
 11
69.4497037915
 21
167.3755932644
  0
POLYLINE
  8
0
 62
7
  6
CONTINUOUS
 66
1
 70
0
  0
VERTEX
  8
0
 62
7
  6
CONTINUOUS
 10
67.4997037915
 20
170.3118646395
  0
VERTEX
  8
0
 62
7
  6
CONTINUOUS
 10
67.48281222
 20
170.2964805966
  0
VERTEX
  8
0
 62
7
  6
CONTINUOUS
 10
67.4331680448
 20
170.2823395468
  0
VERTEX
  8
0
 62
7
  6
CONTINUOUS
 10
67.353966508
 20
170.270331321
  0
VERTEX
  8
0
 62
7
  6
CONTINUOUS
 10
67.2504584004
 20
170.2611935791
  0
VERTEX
  8
0
 62
7
  6
CONTINUOUS
 10
67.1296266427
 20
170.2554790874
  0
VERTEX
  8
0
 62
7
  6
CONTINUOUS
 10
66.9997037915
 20
170.2535335955
  0
SEQEND
  0
POLYLINE
  8
0
 62
7
  6
CONTINUOUS
 66
1
 70
0
  0
VERTEX
  8
0
 62
7
  6
CONTINUOUS
 10
67.4997037915
 20
172.1393218894
  0
VERTEX
  8
0
 62
7
  6
CONTINUOUS
 10
67.48281222
 20
172.1547059323
  0
VERTEX
  8
0
 62
7
  6
CONTINUOUS
 10
67.4331680448
 20
172.168846982
  0
VERTEX
  8
0
 62
7
  6
CONTINUOUS
 10
67.353966508
 20
172.1808552078
  0
VERTEX
  8
0
 62
7
  6
CONTINUOUS
 10
67.2504584004
 20
172.1899929498
  0
VERTEX
  8
0
 62
7
  6
CONTINUOUS
 10
67.1296266427
 20
172.1957074414
  0
VERTEX
  8
0
 62
7
  6
CONTINUOUS
 10
66.9997037915
 20
172.1976529334
  0
SEQEND
  0
POLYLINE
  8
1_AXIS
 62
7
  6
CONTINUOUS
 66
1
 70
0
  0
VERTEX
  8
1_AXIS
 62
7
  6
CONTINUOUS
 10
73.2597037915
 20
166.9398640383
  0
VERTEX
  8
1_AXIS
 62
7
  6
CONTINUOUS
 10
73.2648614695
 20
166.9253900387
  0
VERTEX
  8
1_AXIS
 62
7
  6
CONTINUOUS
 10
73.3054852342
 20
166.9026398792
  0
VERTEX
  8
1_AXIS
 62
7
  6
CONTINUOUS
 10
73.3844670186
 20
166.887847559
  0
VERTEX
  8
1_AXIS
 62
7
  6
CONTINUOUS
 10
73.4980508595
 20
166.8797511064
  0
VERTEX
  8
1_AXIS
 62
7
  6
CONTINUOUS
 10
73.6405390164
 20
166.8763938733
  0
VERTEX
  8
1_AXIS
 62
7
  6
CONTINUOUS
 10
73.8042179199
 20
166.8756111171
  0
SEQEND
  0
LINE
  8
0
 62
7
  6
CONTINUOUS
 10
75.4497037915
 20
170.6186820888
 11
75.4497037915
 21
167.3755932644
  0
POLYLINE
  8
0
 62
7
  6
CONTINUOUS
 66
1
 70
0
  0
VERTEX
  8
0
 62
7
  6
CONTINUOUS
 10
77.3894655408
 20
172.4755932644
  0
VERTEX
  8
0
 62
7
  6
CONTINUOUS
 10
77.395168664
 20
172.5095304918
  0
VERTEX
  8
0
 62
7
  6
CONTINUOUS
 10
77.3985738652
 20
172.5431232472
  0
VERTEX
  8
0
 62
7
  6
CONTINUOUS
 10
77.3997037915
 20
172.5762581983
  0
SEQEND
  0
POLYLINE
  8
1_AXIS
 62
7
  6
CONTINUOUS
 66
1
 70
0
  0
VERTEX
  8
1_AXIS
 62
7
  6
CONTINUOUS
 10
73.2597037915
 20
166.9398640383
  0
VERTEX
  8
1_AXIS
 62
7
  6
CONTINUOUS
 10
73.2649329958
 20
166.9563481002
  0
VERTEX
  8
1_AXIS
 62
7
  6
CONTINUOUS
 10
73.3067872964
 20
166.9942882919
  0
VERTEX
  8
1_AXIS
 62
7
  6
CONTINUOUS
 10
73.3889715695
 20
167.0360375981
  0
VERTEX
  8
1_AXIS
 62
7
  6
CONTINUOUS
 10
73.506624331
 20
167.0768602923
  0
VERTEX
  8
1_AXIS
 62
7
  6
CONTINUOUS
 10
73.6509187373
 20
167.111295975
  0
VERTEX
  8
1_AXIS
 62
7
  6
CONTINUOUS
 10
73.8121553089
 20
167.1350607642
  0
VERTEX
  8
1_AXIS
 62
7
  6
CONTINUOUS
 10
73.981832562
 20
167.1456387008
  0
VERTEX
  8
1_AXIS
 62
7
  6
CONTINUOUS
 10
74.0674879413
 20
167.1456405065
  0
VERTEX
  8
1_AXIS
 62
7
  6
CONTINUOUS
 10
74.2371693159
 20
167.135069443
  0
VERTEX
  8
1_AXIS
 62
7
  6
CONTINUOUS
 10
74.3984073156
 20
167.1113116476
  0
VERTEX
  8
1_AXIS
 62
7
  6
CONTINUOUS
 10
74.5427467065
 20
167.0768708958
  0
VERTEX
  8
1_AXIS
 62
7
  6
CONTINUOUS
 10
74.6604248535
 20
167.0360422563
  0
VERTEX
  8
1_AXIS
 62
7
  6
CONTINUOUS
 10
74.7426188755
 20
166.9942892063
  0
VERTEX
  8
1_AXIS
 62
7
  6
CONTINUOUS
 10
74.7844740584
 20
166.9563489793
  0
VERTEX
  8
1_AXIS
 62
7
  6
CONTINUOUS
 10
74.7897037915
 20
166.9398640383
  0
SEQEND
  0
LINE
  8
2_FEATURE
 62
7
  6
CONTINUOUS
 10
93.0309537915
 20
166.9012265276
 11
92.9434538749
 21
166.8875723853
  0
LINE
  8
2_FEATURE
 62
7
  6
CONTINUOUS
 10
91.0622037915
 20
166.9012265276
 11
90.9747037497
 21
166.8875723853
  0
LINE
  8
2_FEATURE
 62
7
  6
CONTINUOUS
 10
93.2934537915
 20
166.8937539431
 11
93.1622037915
 21
166.8767245678
  0
LINE
  8
2_FEATURE
 62
7
  6
CONTINUOUS
 10
91.3247037915
 20
166.8937539431
 11
91.1934537915
 21
166.8767245678
  0
POLYLINE
  8
2_FEATURE
 62
7
  6
CONTINUOUS
 66
1
 70
0
  0
VERTEX
  8
2_FEATURE
 62
7
  6
CONTINUOUS
 10
93.1622037915
 20
167.0767791037
  0
VERTEX
  8
2_FEATURE
 62
7
  6
CONTINUOUS
 10
93.2060243677
 20
167.0803505739
  0
VERTEX
  8
2_FEATURE
 62
7
  6
CONTINUOUS
 10
93.2172512489
 20
167.0818779497
  0
SEQEND
  0
POLYLINE
  8
2_FEATURE
 62
7
  6
CONTINUOUS
 66
1
 70
0
  0
VERTEX
  8
2_FEATURE
 62
7
  6
CONTINUOUS
 10
91.1934537915
 20
167.0767791037
  0
VERTEX
  8
2_FEATURE
 62
7
  6
CONTINUOUS
 10
91.2372743677
 20
167.0803505739
  0
VERTEX
  8
2_FEATURE
 62
7
  6
CONTINUOUS
 10
91.2485012489
 20
167.0818779497
  0
SEQEND
  0
LINE
  8
0
 62
7
  6
CONTINUOUS
 10
77.3997037915
 20
167.3755932644
 11
77.3997037915
 21
174.8755932644
  0
POLYLINE
  8
0
 62
7
  6
CONTINUOUS
 66
1
 70
0
  0
VERTEX
  8
0
 62
7
  6
CONTINUOUS
 10
77.3997037915
 20
172.1393218894
  0
VERTEX
  8
0
 62
7
  6
CONTINUOUS
 10
77.4165953629
 20
172.1547059323
  0
VERTEX
  8
0
 62
7
  6
CONTINUOUS
 10
77.4662395381
 20
172.168846982
  0
VERTEX
  8
0
 62
7
  6
CONTINUOUS
 10
77.5454410749
 20
172.1808552078
  0
VERTEX
  8
0
 62
7
  6
CONTINUOUS
 10
77.6489491825
 20
172.1899929498
  0
VERTEX
  8
0
 62
7
  6
CONTINUOUS
 10
77.7697809403
 20
172.1957074414
  0
VERTEX
  8
0
 62
7
  6
CONTINUOUS
 10
77.8997037915
 20
172.1976529334
  0
SEQEND
  0
LINE
  8
2_FEATURE
 62
7
  6
CONTINUOUS
 10
92.9434538749
 20
166.8875723853
 11
92.8122038749
 21
166.8826763414
  0
LINE
  8
2_FEATURE
 62
7
  6
CONTINUOUS
 10
90.9747037497
 20
166.8875723853
 11
90.8434537497
 21
166.8826763414
  0
LINE
  8
2_FEATURE
 62
7
  6
CONTINUOUS
 10
93.1038703959
 20
167.0756669724
 11
93.1622037915
 21
167.0767791037
  0
LINE
  8
2_FEATURE
 62
7
  6
CONTINUOUS
 10
91.1351204377
 20
167.0756669724
 11
91.1934537915
 21
167.0767791037
  0
POLYLINE
  8
2_FEATURE
 62
7
  6
CONTINUOUS
 66
1
 70
0
  0
VERTEX
  8
2_FEATURE
 62
7
  6
CONTINUOUS
 10
93.1622037915
 20
166.8767245678
  0
VERTEX
  8
2_FEATURE
 62
7
  6
CONTINUOUS
 10
93.1038702733
 20
166.8756635826
  0
VERTEX
  8
2_FEATURE
 62
7
  6
CONTINUOUS
 10
93.0844956206
 20
166.8755932843
  0
SEQEND
  0
POLYLINE
  8
2_FEATURE
 62
7
  6
CONTINUOUS
 66
1
 70
0
  0
VERTEX
  8
2_FEATURE
 62
7
  6
CONTINUOUS
 10
91.1934537915
 20
166.8767245678
  0
VERTEX
  8
2_FEATURE
 62
7
  6
CONTINUOUS
 10
91.135120315
 20
166.8756635826
  0
VERTEX
  8
2_FEATURE
 62
7
  6
CONTINUOUS
 10
91.1157456762
 20
166.8755932843
  0
SEQEND
  0
POLYLINE
  8
1_AXIS
 62
7
  6
CONTINUOUS
 66
1
 70
0
  0
VERTEX
  8
1_AXIS
 62
7
  6
CONTINUOUS
 10
74.2452736583
 20
167.0756120534
  0
VERTEX
  8
1_AXIS
 62
7
  6
CONTINUOUS
 10
74.4089547947
 20
167.0764334721
  0
VERTEX
  8
1_AXIS
 62
7
  6
CONTINUOUS
 10
74.5318510277
 20
167.0794707084
  0
SEQEND
  0
POLYLINE
  8
1_AXIS
 62
7
  6
CONTINUOUS
 66
1
 70
0
  0
VERTEX
  8
1_AXIS
 62
7
  6
CONTINUOUS
 10
74.2451854948
 20
166.8756111135
  0
VERTEX
  8
1_AXIS
 62
7
  6
CONTINUOUS
 10
74.4088651897
 20
166.8763938357
  0
VERTEX
  8
1_AXIS
 62
7
  6
CONTINUOUS
 10
74.5513542299
 20
166.8797510028
  0
VERTEX
  8
1_AXIS
 62
7
  6
CONTINUOUS
 10
74.6649390346
 20
166.887847383
  0
VERTEX
  8
1_AXIS
 62
7
  6
CONTINUOUS
 10
74.7439217093
 20
166.9026396815
  0
VERTEX
  8
1_AXIS
 62
7
  6
CONTINUOUS
 10
74.7845460344
 20
166.9253899354
  0
VERTEX
  8
1_AXIS
 62
7
  6
CONTINUOUS
 10
74.7897037915
 20
166.9398640383
  0
SEQEND
  0
LINE
  8
2_FEATURE
 62
7
  6
CONTINUOUS
 10
108.1497037915
 20
166.8755932644
 11
108.0497037915
 21
166.8755932644
  0
LINE
  8
2_FEATURE
 62
7
  6
CONTINUOUS
 10
55.9497037915
 20
166.8755932644
 11
55.8497037915
 21
166.8755932644
  0
LINE
  8
0
 62
7
  6
CONTINUOUS
 10
44.6997037915
 20
166.8755932644
 11
55.8497037915
 21
166.8755932644
  0
LINE
  8
0
 62
7
  6
CONTINUOUS
 10
56.8497037915
 20
166.8755932644
 11
73.856526063
 21
166.8755932644
  0
LINE
  8
0
 62
7
  6
CONTINUOUS
 10
74.1928812805
 20
166.8755932644
 11
89.7497037915
 21
166.8755932644
  0
LINE
  8
0
 62
7
  6
CONTINUOUS
 10
91.1934537915
 20
166.8755932644
 11
91.7184537915
 21
166.8755932644
  0
LINE
  8
0
 62
7
  6
CONTINUOUS
 10
93.1622037915
 20
166.8755932644
 11
107.1497037915
 21
166.8755932644
  0
LINE
  8
0
 62
7
  6
CONTINUOUS
 10
108.1497037915
 20
166.8755932644
 11
119.2997037915
 21
166.8755932644
  0
LINE
  8
2_FEATURE
 62
7
  6
CONTINUOUS
 10
90.0122037915
 20
166.8801323964
 11
90.7997037915
 21
166.8801323964
  0
LINE
  8
2_FEATURE
 62
7
  6
CONTINUOUS
 10
91.9809537915
 20
166.8801323964
 11
92.7684537915
 21
166.8801323964
  0
LINE
  8
2_FEATURE
 62
7
  6
CONTINUOUS
 10
90.0122037915
 20
166.8826763414
 11
90.8434537497
 21
166.8826763414
  0
LINE
  8
2_FEATURE
 62
7
  6
CONTINUOUS
 10
91.9809537915
 20
166.8826763414
 11
92.8122038749
 21
166.8826763414
  0
LINE
  8
2_FEATURE
 62
7
  6
CONTINUOUS
 10
89.7497037915
 20
167.0755932644
 11
90.0122037915
 21
167.0755932644
  0
LINE
  8
2_FEATURE
 62
7
  6
CONTINUOUS
 10
91.1059537497
 20
167.0755932644
 11
91.1351204377
 21
167.0756669724
  0
LINE
  8
2_FEATURE
 62
7
  6
CONTINUOUS
 10
91.7184537915
 20
167.0755932644
 11
91.9809537915
 21
167.0755932644
  0
LINE
  8
2_FEATURE
 62
7
  6
CONTINUOUS
 10
93.0747038749
 20
167.0755932644
 11
93.1038703959
 21
167.0756669724
  0
LINE
  8
2_FEATURE
 62
7
  6
CONTINUOUS
 10
90.0122037915
 20
167.0953584993
 11
90.8434537497
 21
167.0953584993
  0
LINE
  8
2_FEATURE
 62
7
  6
CONTINUOUS
 10
91.9809537915
 20
167.0953584993
 11
92.8122038749
 21
167.0953584993
  0
LINE
  8
2_FEATURE
 62
7
  6
CONTINUOUS
 10
89.7497037915
 20
167.2376622532
 11
90.7997037915
 21
167.2376622532
  0
LINE
  8
2_FEATURE
 62
7
  6
CONTINUOUS
 10
91.7184537915
 20
167.2376622532
 11
92.7684537915
 21
167.2376622532
  0
LINE
  8
1_AXIS
 62
7
  6
CONTINUOUS
 10
73.8042179199
 20
166.8756111171
 11
74.2451854948
 21
166.8756111135
  0
POLYLINE
  8
2_FEATURE
 62
7
  6
CONTINUOUS
 66
1
 70
0
  0
VERTEX
  8
2_FEATURE
 62
7
  6
CONTINUOUS
 10
91.1157456762
 20
166.8755932843
  0
VERTEX
  8
2_FEATURE
 62
7
  6
CONTINUOUS
 10
91.0767785872
 20
166.8758777062
  0
VERTEX
  8
2_FEATURE
 62
7
  6
CONTINUOUS
 10
91.0184538332
 20
166.8773667484
  0
SEQEND
  0
POLYLINE
  8
2_FEATURE
 62
7
  6
CONTINUOUS
 66
1
 70
0
  0
VERTEX
  8
2_FEATURE
 62
7
  6
CONTINUOUS
 10
93.0844956206
 20
166.8755932843
  0
VERTEX
  8
2_FEATURE
 62
7
  6
CONTINUOUS
 10
93.0455285038
 20
166.8758777062
  0
VERTEX
  8
2_FEATURE
 62
7
  6
CONTINUOUS
 10
92.987203708
 20
166.8773667484
  0
SEQEND
  0
LINE
  8
2_FEATURE
 62
7
  6
CONTINUOUS
 10
91.0184538332
 20
166.8773667484
 11
90.7997037915
 21
166.8801323964
  0
LINE
  8
2_FEATURE
 62
7
  6
CONTINUOUS
 10
92.987203708
 20
166.8773667484
 11
92.7684537915
 21
166.8801323964
  0
POLYLINE
  8
1_AXIS
 62
7
  6
CONTINUOUS
 66
1
 70
0
  0
VERTEX
  8
1_AXIS
 62
7
  6
CONTINUOUS
 10
73.5175621209
 20
167.0794705824
  0
VERTEX
  8
1_AXIS
 62
7
  6
CONTINUOUS
 10
73.6404515648
 20
167.0764334864
  0
VERTEX
  8
1_AXIS
 62
7
  6
CONTINUOUS
 10
73.8041323972
 20
167.0756120548
  0
VERTEX
  8
1_AXIS
 62
7
  6
CONTINUOUS
 10
74.2452736583
 20
167.0756120534
  0
SEQEND
  0
LINE
  8
2_FEATURE
 62
7
  6
CONTINUOUS
 10
90.7997037915
 20
167.2376622532
 11
91.0184538332
 21
167.2060379631
  0
LINE
  8
2_FEATURE
 62
7
  6
CONTINUOUS
 10
92.7684537915
 20
167.2376622532
 11
92.987203708
 21
167.2060379631
  0
LINE
  8
2_FEATURE
 62
7
  6
CONTINUOUS
 10
90.8434537497
 20
167.0953584993
 11
90.9747037497
 21
167.0714850157
  0
POLYLINE
  8
0
 62
7
  6
CONTINUOUS
 66
1
 70
0
  0
VERTEX
  8
0
 62
7
  6
CONTINUOUS
 10
77.3997037915
 20
170.3118646395
  0
VERTEX
  8
0
 62
7
  6
CONTINUOUS
 10
77.4165953629
 20
170.2964805966
  0
VERTEX
  8
0
 62
7
  6
CONTINUOUS
 10
77.4662395381
 20
170.2823395468
  0
VERTEX
  8
0
 62
7
  6
CONTINUOUS
 10
77.5454410749
 20
170.270331321
  0
VERTEX
  8
0
 62
7
  6
CONTINUOUS
 10
77.6489491825
 20
170.2611935791
  0
VERTEX
  8
0
 62
7
  6
CONTINUOUS
 10
77.7697809403
 20
170.2554790874
  0
VERTEX
  8
0
 62
7
  6
CONTINUOUS
 10
77.8997037915
 20
170.2535335955
  0
SEQEND
  0
LINE
  8
1_AXIS
 62
7
  6
CENTER
 10
81.9997037915
 20
164.3755926948
 11
81.9997037915
 21
177.8755939264
  0
POLYLINE
  8
0
 62
7
  6
CONTINUOUS
 66
1
 70
0
  0
VERTEX
  8
0
 62
7
  6
CONTINUOUS
 10
119.2997037915
 20
170.2535335955
  0
VERTEX
  8
0
 62
7
  6
CONTINUOUS
 10
119.4296266427
 20
170.2554790874
  0
VERTEX
  8
0
 62
7
  6
CONTINUOUS
 10
119.5504584004
 20
170.2611935791
  0
VERTEX
  8
0
 62
7
  6
CONTINUOUS
 10
119.653966508
 20
170.270331321
  0
VERTEX
  8
0
 62
7
  6
CONTINUOUS
 10
119.7331680448
 20
170.2823395468
  0
VERTEX
  8
0
 62
7
  6
CONTINUOUS
 10
119.78281222
 20
170.2964805966
  0
VERTEX
  8
0
 62
7
  6
CONTINUOUS
 10
119.7997037915
 20
170.3118646395
  0
SEQEND
  0
LINE
  8
0
 62
7
  6
CONTINUOUS
 10
44.6997037915
 20
170.2535335955
 11
47.6497037915
 21
170.2535335955
  0
LINE
  8
0
 62
7
  6
CONTINUOUS
 10
58.7997037915
 20
170.2535335955
 11
66.9997037915
 21
170.2535335955
  0
LINE
  8
0
 62
7
  6
CONTINUOUS
 10
77.8997037915
 20
170.2535335955
 11
86.0997037915
 21
170.2535335955
  0
LINE
  8
0
 62
7
  6
CONTINUOUS
 10
96.9997037915
 20
170.2535335955
 11
105.1997037915
 21
170.2535335955
  0
LINE
  8
0
 62
7
  6
CONTINUOUS
 10
116.3497037915
 20
170.2535335955
 11
119.2997037915
 21
170.2535335955
  0
LINE
  8
1_AXIS
 62
7
  6
CENTER
 10
53.1455980578
 20
171.2255932644
 11
110.6445140986
 21
171.2255932644
  0
POLYLINE
  8
0
 62
7
  6
CONTINUOUS
 66
1
 70
0
  0
VERTEX
  8
0
 62
7
  6
CONTINUOUS
 10
44.6997037915
 20
170.2535335955
  0
VERTEX
  8
0
 62
7
  6
CONTINUOUS
 10
44.5697809403
 20
170.2554790874
  0
VERTEX
  8
0
 62
7
  6
CONTINUOUS
 10
44.4489491825
 20
170.2611935791
  0
VERTEX
  8
0
 62
7
  6
CONTINUOUS
 10
44.3454410749
 20
170.270331321
  0
VERTEX
  8
0
 62
7
  6
CONTINUOUS
 10
44.2662395381
 20
170.2823395468
  0
VERTEX
  8
0
 62
7
  6
CONTINUOUS
 10
44.2165953629
 20
170.2964805966
  0
VERTEX
  8
0
 62
7
  6
CONTINUOUS
 10
44.1997037915
 20
170.3118646395
  0
SEQEND
  0
LINE
  8
2_FEATURE
 62
7
  6
CONTINUOUS
 10
92.8122038749
 20
167.0953584993
 11
92.9434538749
 21
167.0714850157
  0
LINE
  8
0
 62
7
  6
CONTINUOUS
 10
106.2130660569
 20
172.9748483368
 11
106.2413892289
 21
172.9755932644
  0
LINE
  8
0
 62
7
  6
CONTINUOUS
 10
87.1130660569
 20
172.9748483368
 11
87.1413892289
 21
172.9755932644
  0
LINE
  8
0
 62
7
  6
CONTINUOUS
 10
68.0130660569
 20
172.9748483368
 11
68.0413892289
 21
172.9755932644
  0
POLYLINE
  8
0
 62
7
  6
CONTINUOUS
 66
1
 70
0
  0
VERTEX
  8
0
 62
7
  6
CONTINUOUS
 10
44.6997037915
 20
172.1976529334
  0
VERTEX
  8
0
 62
7
  6
CONTINUOUS
 10
44.5697809403
 20
172.1957074414
  0
VERTEX
  8
0
 62
7
  6
CONTINUOUS
 10
44.4489491825
 20
172.1899929498
  0
VERTEX
  8
0
 62
7
  6
CONTINUOUS
 10
44.3454410749
 20
172.1808552078
  0
VERTEX
  8
0
 62
7
  6
CONTINUOUS
 10
44.2662395381
 20
172.168846982
  0
VERTEX
  8
0
 62
7
  6
CONTINUOUS
 10
44.2165953629
 20
172.1547059323
  0
VERTEX
  8
0
 62
7
  6
CONTINUOUS
 10
44.1997037915
 20
172.1393218894
  0
SEQEND
  0
LINE
  8
0
 62
7
  6
CONTINUOUS
 10
44.6997037915
 20
172.1976529334
 11
47.6497037915
 21
172.1976529334
  0
LINE
  8
0
 62
7
  6
CONTINUOUS
 10
58.7997037915
 20
172.1976529334
 11
66.9997037915
 21
172.1976529334
  0
LINE
  8
0
 62
7
  6
CONTINUOUS
 10
77.8997037915
 20
172.1976529334
 11
86.0997037915
 21
172.1976529334
  0
LINE
  8
0
 62
7
  6
CONTINUOUS
 10
96.9997037915
 20
172.1976529334
 11
105.1997037915
 21
172.1976529334
  0
LINE
  8
0
 62
7
  6
CONTINUOUS
 10
116.3497037915
 20
172.1976529334
 11
119.2997037915
 21
172.1976529334
  0
LINE
  8
0
 62
7
  6
CONTINUOUS
 10
48.7117793795
 20
172.9755932644
 11
57.7580183556
 21
172.9755932644
  0
LINE
  8
0
 62
7
  6
CONTINUOUS
 10
68.0413894598
 20
172.9755932644
 11
76.8580183556
 21
172.9755932644
  0
LINE
  8
0
 62
7
  6
CONTINUOUS
 10
87.1413892331
 20
172.9755932644
 11
95.9580183556
 21
172.9755932644
  0
LINE
  8
0
 62
7
  6
CONTINUOUS
 10
106.2413894598
 20
172.9755932644
 11
115.2876284798
 21
172.9755932644
  0
POLYLINE
  8
0
 62
7
  6
CONTINUOUS
 66
1
 70
0
  0
VERTEX
  8
0
 62
7
  6
CONTINUOUS
 10
119.2997037915
 20
172.1976529334
  0
VERTEX
  8
0
 62
7
  6
CONTINUOUS
 10
119.4296266427
 20
172.1957074414
  0
VERTEX
  8
0
 62
7
  6
CONTINUOUS
 10
119.5504584004
 20
172.1899929498
  0
VERTEX
  8
0
 62
7
  6
CONTINUOUS
 10
119.653966508
 20
172.1808552078
  0
VERTEX
  8
0
 62
7
  6
CONTINUOUS
 10
119.7331680448
 20
172.168846982
  0
VERTEX
  8
0
 62
7
  6
CONTINUOUS
 10
119.78281222
 20
172.1547059323
  0
VERTEX
  8
0
 62
7
  6
CONTINUOUS
 10
119.7997037915
 20
172.1393218894
  0
SEQEND
  0
LINE
  8
0
 62
7
  6
CONTINUOUS
 10
57.7580183599
 20
172.9755932644
 11
57.7863415261
 21
172.9748483368
  0
LINE
  8
0
 62
7
  6
CONTINUOUS
 10
76.8580183599
 20
172.9755932644
 11
76.8863415261
 21
172.9748483368
  0
LINE
  8
0
 62
7
  6
CONTINUOUS
 10
95.9580183599
 20
172.9755932644
 11
95.9863415261
 21
172.9748483368
  0
LINE
  8
2_FEATURE
 62
7
  6
CONTINUOUS
 10
91.0184538332
 20
167.2060379631
 11
91.1934537915
 21
167.1207215125
  0
LINE
  8
2_FEATURE
 62
7
  6
CONTINUOUS
 10
92.987203708
 20
167.2060379631
 11
93.1622037915
 21
167.1207215125
  0
LINE
  8
2_FEATURE
 62
7
  6
CONTINUOUS
 10
90.9747037497
 20
167.0714850157
 11
91.0622037915
 21
167.0281065606
  0
LINE
  8
2_FEATURE
 62
7
  6
CONTINUOUS
 10
92.9434538749
 20
167.0714850157
 11
93.0309537915
 21
167.0281065606
  0
LINE
  8
2_FEATURE
 62
7
  6
CONTINUOUS
 10
91.1934537915
 20
167.1207215125
 11
91.3247037915
 21
167.0281065606
  0
POLYLINE
  8
0
 62
7
  6
CONTINUOUS
 66
1
 70
0
  0
VERTEX
  8
0
 62
7
  6
CONTINUOUS
 10
86.5997037915
 20
172.5762581983
  0
VERTEX
  8
0
 62
7
  6
CONTINUOUS
 10
86.600833902
 20
172.543120529
  0
VERTEX
  8
0
 62
7
  6
CONTINUOUS
 10
86.6042393254
 20
172.5095274736
  0
VERTEX
  8
0
 62
7
  6
CONTINUOUS
 10
86.6099420422
 20
172.4755932644
  0
SEQEND
  0
LINE
  8
0
 62
7
  6
CONTINUOUS
 10
86.5997037915
 20
167.3755932644
 11
86.5997037915
 21
174.8755932644
  0
POLYLINE
  8
0
 62
7
  6
CONTINUOUS
 66
1
 70
0
  0
VERTEX
  8
0
 62
7
  6
CONTINUOUS
 10
86.5997037915
 20
170.3118646395
  0
VERTEX
  8
0
 62
7
  6
CONTINUOUS
 10
86.58281222
 20
170.2964805966
  0
VERTEX
  8
0
 62
7
  6
CONTINUOUS
 10
86.5331680448
 20
170.2823395468
  0
VERTEX
  8
0
 62
7
  6
CONTINUOUS
 10
86.453966508
 20
170.270331321
  0
VERTEX
  8
0
 62
7
  6
CONTINUOUS
 10
86.3504584004
 20
170.2611935791
  0
VERTEX
  8
0
 62
7
  6
CONTINUOUS
 10
86.2296266427
 20
170.2554790874
  0
VERTEX
  8
0
 62
7
  6
CONTINUOUS
 10
86.0997037915
 20
170.2535335955
  0
SEQEND
  0
LINE
  8
0
 62
7
  6
CONTINUOUS
 10
44.4997037915
 20
175.3755932644
 11
119.4997037915
 21
175.3755932644
  0
LINE
  8
2_FEATURE
 62
7
  6
CONTINUOUS
 10
93.1622037915
 20
167.1207215125
 11
93.2934537915
 21
167.0281065606
  0
POLYLINE
  8
0
 62
7
  6
CONTINUOUS
 66
1
 70
0
  0
VERTEX
  8
0
 62
7
  6
CONTINUOUS
 10
86.5997037915
 20
172.1393218894
  0
VERTEX
  8
0
 62
7
  6
CONTINUOUS
 10
86.58281222
 20
172.1547059323
  0
VERTEX
  8
0
 62
7
  6
CONTINUOUS
 10
86.5331680448
 20
172.168846982
  0
VERTEX
  8
0
 62
7
  6
CONTINUOUS
 10
86.453966508
 20
172.1808552078
  0
VERTEX
  8
0
 62
7
  6
CONTINUOUS
 10
86.3504584004
 20
172.1899929498
  0
VERTEX
  8
0
 62
7
  6
CONTINUOUS
 10
86.2296266427
 20
172.1957074414
  0
VERTEX
  8
0
 62
7
  6
CONTINUOUS
 10
86.0997037915
 20
172.1976529334
  0
SEQEND
  0
LINE
  8
2_FEATURE
 62
7
  6
CONTINUOUS
 10
91.0622037915
 20
167.0281065606
 11
91.1059537497
 21
166.9736371094
  0
LINE
  8
2_FEATURE
 62
7
  6
CONTINUOUS
 10
91.3247037915
 20
167.0281065606
 11
91.3684537497
 21
166.9736371094
  0
LINE
  8
0
 62
7
  6
CONTINUOUS
 10
88.5497037915
 20
170.6186751061
 11
88.5497037915
 21
167.3755932644
  0
LINE
  8
2_FEATURE
 62
7
  6
CONTINUOUS
 10
89.7497037915
 20
167.2376622532
 11
89.7497037915
 21
166.8755964972
  0
LINE
  8
2_FEATURE
 62
7
  6
CONTINUOUS
 10
93.0309537915
 20
167.0281065606
 11
93.0747038749
 21
166.9736371094
  0
LINE
  8
2_FEATURE
 62
7
  6
CONTINUOUS
 10
93.2934537915
 20
167.0281065606
 11
93.3372038749
 21
166.9736371094
  0
LINE
  8
2_FEATURE
 62
7
  6
CONTINUOUS
 10
90.0122037915
 20
166.8801323964
 11
90.0122037915
 21
167.2376622532
  0
LINE
  8
2_FEATURE
 62
7
  6
CONTINUOUS
 10
90.7997037915
 20
166.8801323964
 11
90.7997037915
 21
166.8826763414
  0
LINE
  8
2_FEATURE
 62
7
  6
CONTINUOUS
 10
90.8434537497
 20
167.0953584993
 11
90.8434537497
 21
167.2313374025
  0
LINE
  8
2_FEATURE
 62
7
  6
CONTINUOUS
 10
90.9747037497
 20
167.0714850157
 11
90.9747037497
 21
167.212362832
  0
LINE
  8
2_FEATURE
 62
7
  6
CONTINUOUS
 10
91.0184538332
 20
166.8773667484
 11
91.0184538332
 21
166.8943994662
  0
LINE
  8
2_FEATURE
 62
7
  6
CONTINUOUS
 10
91.0622037915
 20
167.0281065606
 11
91.0622037915
 21
167.1847088657
  0
LINE
  8
2_FEATURE
 62
7
  6
CONTINUOUS
 10
91.1059537497
 20
166.9314636611
 11
91.1059537497
 21
167.1633797683
  0
LINE
  8
2_FEATURE
 62
7
  6
CONTINUOUS
 10
91.1934537915
 20
166.8767245678
 11
91.1934537915
 21
167.0767791037
  0
LINE
  8
2_FEATURE
 62
7
  6
CONTINUOUS
 10
91.3247037915
 20
166.8937539431
 11
91.3247037915
 21
167.0281065606
  0
LINE
  8
2_FEATURE
 62
7
  6
CONTINUOUS
 10
91.3684537497
 20
166.9736371094
 11
91.3684537497
 21
166.9200728258
  0
LINE
  8
2_FEATURE
 62
7
  6
CONTINUOUS
 10
91.7184537915
 20
167.2376622532
 11
91.7184537915
 21
166.8755964972
  0
LINE
  8
2_FEATURE
 62
7
  6
CONTINUOUS
 10
91.9809537915
 20
166.8801323964
 11
91.9809537915
 21
167.2376622532
  0
POLYLINE
  8
0
 62
7
  6
CONTINUOUS
 66
1
 70
0
  0
VERTEX
  8
0
 62
7
  6
CONTINUOUS
 10
96.4997037915
 20
172.1393218894
  0
VERTEX
  8
0
 62
7
  6
CONTINUOUS
 10
96.5165953629
 20
172.1547059323
  0
VERTEX
  8
0
 62
7
  6
CONTINUOUS
 10
96.5662395381
 20
172.168846982
  0
VERTEX
  8
0
 62
7
  6
CONTINUOUS
 10
96.6454410749
 20
172.1808552078
  0
VERTEX
  8
0
 62
7
  6
CONTINUOUS
 10
96.7489491825
 20
172.1899929498
  0
VERTEX
  8
0
 62
7
  6
CONTINUOUS
 10
96.8697809403
 20
172.1957074414
  0
VERTEX
  8
0
 62
7
  6
CONTINUOUS
 10
96.9997037915
 20
172.1976529334
  0
SEQEND
  0
LINE
  8
2_FEATURE
 62
7
  6
CONTINUOUS
 10
91.1059537497
 20
166.9314636611
 11
91.0622037915
 21
166.9012265276
  0
LINE
  8
2_FEATURE
 62
7
  6
CONTINUOUS
 10
93.0747038749
 20
166.9314636611
 11
93.0309537915
 21
166.9012265276
  0
LINE
  8
2_FEATURE
 62
7
  6
CONTINUOUS
 10
91.3684537497
 20
166.9200728258
 11
91.3247037915
 21
166.8937539431
  0
LINE
  8
2_FEATURE
 62
7
  6
CONTINUOUS
 10
93.3372038749
 20
166.9200728258
 11
93.2934537915
 21
166.8937539431
  0
POLYLINE
  8
0
 62
7
  6
CONTINUOUS
 66
1
 70
0
  0
VERTEX
  8
0
 62
7
  6
CONTINUOUS
 10
96.4997037915
 20
170.3118646395
  0
VERTEX
  8
0
 62
7
  6
CONTINUOUS
 10
96.5165953629
 20
170.2964805966
  0
VERTEX
  8
0
 62
7
  6
CONTINUOUS
 10
96.5662395381
 20
170.2823395468
  0
VERTEX
  8
0
 62
7
  6
CONTINUOUS
 10
96.6454410749
 20
170.270331321
  0
VERTEX
  8
0
 62
7
  6
CONTINUOUS
 10
96.7489491825
 20
170.2611935791
  0
VERTEX
  8
0
 62
7
  6
CONTINUOUS
 10
96.8697809403
 20
170.2554790874
  0
VERTEX
  8
0
 62
7
  6
CONTINUOUS
 10
96.9997037915
 20
170.2535335955
  0
SEQEND
  0
LINE
  8
2_FEATURE
 62
7
  6
CONTINUOUS
 10
92.7684537915
 20
166.8801323964
 11
92.7684537915
 21
166.8826763414
  0
LINE
  8
2_FEATURE
 62
7
  6
CONTINUOUS
 10
92.8122038749
 20
167.0953584993
 11
92.8122038749
 21
167.2313373807
  0
LINE
  8
2_FEATURE
 62
7
  6
CONTINUOUS
 10
92.9434538749
 20
167.0714850157
 11
92.9434538749
 21
167.2123627994
  0
LINE
  8
2_FEATURE
 62
7
  6
CONTINUOUS
 10
92.987203708
 20
166.8773667484
 11
92.987203708
 21
166.8943994369
  0
LINE
  8
2_FEATURE
 62
7
  6
CONTINUOUS
 10
93.0309537915
 20
167.0281065606
 11
93.0309537915
 21
167.1847088199
  0
LINE
  8
2_FEATURE
 62
7
  6
CONTINUOUS
 10
93.0747038749
 20
166.9314636611
 11
93.0747038749
 21
167.1633796768
  0
LINE
  8
2_FEATURE
 62
7
  6
CONTINUOUS
 10
93.1622037915
 20
166.8767245678
 11
93.1622037915
 21
167.0767791037
  0
LINE
  8
2_FEATURE
 62
7
  6
CONTINUOUS
 10
93.2934537915
 20
166.8937539431
 11
93.2934537915
 21
167.0281065606
  0
LINE
  8
2_FEATURE
 62
7
  6
CONTINUOUS
 10
93.3372038749
 20
166.9736371094
 11
93.3372038749
 21
166.9200728258
  0
LINE
  8
0
 62
7
  6
CONTINUOUS
 10
94.5497037915
 20
170.6186820888
 11
94.5497037915
 21
167.3755932644
  0
LINE
  8
0
 62
7
  6
CONTINUOUS
 10
96.4997037915
 20
167.3755932644
 11
96.4997037915
 21
174.8755932644
  0
POLYLINE
  8
0
 62
7
  6
CONTINUOUS
 66
1
 70
0
  0
VERTEX
  8
0
 62
7
  6
CONTINUOUS
 10
96.4894655408
 20
172.4755932644
  0
VERTEX
  8
0
 62
7
  6
CONTINUOUS
 10
96.495168664
 20
172.5095304918
  0
VERTEX
  8
0
 62
7
  6
CONTINUOUS
 10
96.4985738652
 20
172.5431232472
  0
VERTEX
  8
0
 62
7
  6
CONTINUOUS
 10
96.4997037915
 20
172.5762581983
  0
SEQEND
  0
POLYLINE
  8
0
 62
7
  6
CONTINUOUS
 66
1
 70
0
  0
VERTEX
  8
0
 62
7
  6
CONTINUOUS
 10
105.6997037915
 20
170.3118646395
  0
VERTEX
  8
0
 62
7
  6
CONTINUOUS
 10
105.68281222
 20
170.2964805966
  0
VERTEX
  8
0
 62
7
  6
CONTINUOUS
 10
105.6331680448
 20
170.2823395468
  0
VERTEX
  8
0
 62
7
  6
CONTINUOUS
 10
105.553966508
 20
170.270331321
  0
VERTEX
  8
0
 62
7
  6
CONTINUOUS
 10
105.4504584004
 20
170.2611935791
  0
VERTEX
  8
0
 62
7
  6
CONTINUOUS
 10
105.3296266427
 20
170.2554790874
  0
VERTEX
  8
0
 62
7
  6
CONTINUOUS
 10
105.1997037915
 20
170.2535335955
  0
SEQEND
  0
POLYLINE
  8
0
 62
7
  6
CONTINUOUS
 66
1
 70
0
  0
VERTEX
  8
0
 62
7
  6
CONTINUOUS
 10
105.6997037915
 20
172.1393218894
  0
VERTEX
  8
0
 62
7
  6
CONTINUOUS
 10
105.68281222
 20
172.1547059323
  0
VERTEX
  8
0
 62
7
  6
CONTINUOUS
 10
105.6331680448
 20
172.168846982
  0
VERTEX
  8
0
 62
7
  6
CONTINUOUS
 10
105.553966508
 20
172.1808552078
  0
VERTEX
  8
0
 62
7
  6
CONTINUOUS
 10
105.4504584004
 20
172.1899929498
  0
VERTEX
  8
0
 62
7
  6
CONTINUOUS
 10
105.3296266427
 20
172.1957074414
  0
VERTEX
  8
0
 62
7
  6
CONTINUOUS
 10
105.1997037915
 20
172.1976529334
  0
SEQEND
  0
POLYLINE
  8
0
 62
7
  6
CONTINUOUS
 66
1
 70
0
  0
VERTEX
  8
0
 62
7
  6
CONTINUOUS
 10
115.8497037915
 20
172.1393218894
  0
VERTEX
  8
0
 62
7
  6
CONTINUOUS
 10
115.8665953629
 20
172.1547059323
  0
VERTEX
  8
0
 62
7
  6
CONTINUOUS
 10
115.9162395381
 20
172.168846982
  0
VERTEX
  8
0
 62
7
  6
CONTINUOUS
 10
115.9954410749
 20
172.1808552078
  0
VERTEX
  8
0
 62
7
  6
CONTINUOUS
 10
116.0989491825
 20
172.1899929498
  0
VERTEX
  8
0
 62
7
  6
CONTINUOUS
 10
116.2197809403
 20
172.1957074414
  0
VERTEX
  8
0
 62
7
  6
CONTINUOUS
 10
116.3497037915
 20
172.1976529334
  0
SEQEND
  0
POLYLINE
  8
0
 62
7
  6
CONTINUOUS
 66
1
 70
0
  0
VERTEX
  8
0
 62
7
  6
CONTINUOUS
 10
115.8497037915
 20
170.3118646395
  0
VERTEX
  8
0
 62
7
  6
CONTINUOUS
 10
115.8665953629
 20
170.2964805966
  0
VERTEX
  8
0
 62
7
  6
CONTINUOUS
 10
115.9162395381
 20
170.2823395468
  0
VERTEX
  8
0
 62
7
  6
CONTINUOUS
 10
115.9954410749
 20
170.270331321
  0
VERTEX
  8
0
 62
7
  6
CONTINUOUS
 10
116.0989491825
 20
170.2611935791
  0
VERTEX
  8
0
 62
7
  6
CONTINUOUS
 10
116.2197809403
 20
170.2554790874
  0
VERTEX
  8
0
 62
7
  6
CONTINUOUS
 10
116.3497037915
 20
170.2535335955
  0
SEQEND
  0
POLYLINE
  8
0
 62
7
  6
CONTINUOUS
 66
1
 70
0
  0
VERTEX
  8
0
 62
7
  6
CONTINUOUS
 10
105.6997037915
 20
172.5762581983
  0
VERTEX
  8
0
 62
7
  6
CONTINUOUS
 10
105.700833902
 20
172.543120529
  0
VERTEX
  8
0
 62
7
  6
CONTINUOUS
 10
105.7042393254
 20
172.5095274736
  0
VERTEX
  8
0
 62
7
  6
CONTINUOUS
 10
105.7099420422
 20
172.4755932644
  0
SEQEND
  0
LINE
  8
0
 62
7
  6
CONTINUOUS
 10
105.6997037915
 20
167.3755932644
 11
105.6997037915
 21
174.8755932644
  0
LINE
  8
0
 62
7
  6
CONTINUOUS
 10
107.6497037915
 20
170.618675535
 11
107.6497037915
 21
167.3755932644
  0
POLYLINE
  8
2_FEATURE
 62
7
  6
CONTINUOUS
 66
1
 70
0
  0
VERTEX
  8
2_FEATURE
 62
7
  6
CONTINUOUS
 10
107.7141987556
 20
167.9698610339
  0
VERTEX
  8
2_FEATURE
 62
7
  6
CONTINUOUS
 10
107.7518928595
 20
168.0621294848
  0
VERTEX
  8
2_FEATURE
 62
7
  6
CONTINUOUS
 10
107.7917878617
 20
168.1337031972
  0
VERTEX
  8
2_FEATURE
 62
7
  6
CONTINUOUS
 10
107.8325576507
 20
168.1862207775
  0
VERTEX
  8
2_FEATURE
 62
7
  6
CONTINUOUS
 10
107.8732387677
 20
168.2208753814
  0
VERTEX
  8
2_FEATURE
 62
7
  6
CONTINUOUS
 10
107.911381517
 20
168.2381475281
  0
VERTEX
  8
2_FEATURE
 62
7
  6
CONTINUOUS
 10
107.9473594725
 20
168.2404565919
  0
VERTEX
  8
2_FEATURE
 62
7
  6
CONTINUOUS
 10
107.9824355324
 20
168.2275636518
  0
VERTEX
  8
2_FEATURE
 62
7
  6
CONTINUOUS
 10
108.0144750087
 20
168.1974530586
  0
VERTEX
  8
2_FEATURE
 62
7
  6
CONTINUOUS
 10
108.0391306964
 20
168.1491177311
  0
VERTEX
  8
2_FEATURE
 62
7
  6
CONTINUOUS
 10
108.0497037915
 20
168.0816097812
  0
SEQEND
  0
LINE
  8
2_FEATURE
 62
7
  6
CONTINUOUS
 10
108.0497037915
 20
168.0816097812
 11
108.0497037915
 21
166.8755932644
  0
POLYLINE
  8
2_FEATURE
 62
7
  6
CONTINUOUS
 66
1
 70
0
  0
VERTEX
  8
2_FEATURE
 62
7
  6
CONTINUOUS
 10
107.6497037915
 20
167.6097395444
  0
VERTEX
  8
2_FEATURE
 62
7
  6
CONTINUOUS
 10
107.6671756983
 20
167.7934649368
  0
VERTEX
  8
2_FEATURE
 62
7
  6
CONTINUOUS
 10
107.7141987556
 20
167.9698610339
  0
SEQEND
  0
LINE
  8
0
 62
7
  6
CONTINUOUS
 10
113.1997037915
 20
167.3755932644
 11
113.1997037915
 21
172.4755932644
  0
POLYLINE
  8
0
 62
7
  6
CONTINUOUS
 66
1
 70
0
  0
VERTEX
  8
0
 62
7
  6
CONTINUOUS
 10
115.8310562774
 20
172.4755932644
  0
VERTEX
  8
0
 62
7
  6
CONTINUOUS
 10
115.841464401
 20
172.521615734
  0
VERTEX
  8
0
 62
7
  6
CONTINUOUS
 10
115.8476555765
 20
172.566791111
  0
VERTEX
  8
0
 62
7
  6
CONTINUOUS
 10
115.8497037915
 20
172.6108699598
  0
SEQEND
  0
LINE
  8
0
 62
7
  6
CONTINUOUS
 10
115.8497037915
 20
174.8755932644
 11
115.8497037915
 21
167.3755932644
  0
LINE
  8
0
 62
7
  6
CONTINUOUS
 10
119.7997037915
 20
167.3755960523
 11
119.7997037915
 21
174.8755932644
  0
LINE
  8
0
 62
7
  6
CONTINUOUS
 10
119.9997037915
 20
169.0755932644
 11
119.9997037915
 21
174.8755932644
  0
LINE
  8
0
 62
7
  6
CONTINUOUS
 10
165.1916260125
 20
104.5762322275
 11
167.1357453504
 21
104.5762322275
  0
LINE
  8
1_AXIS
 62
2
  6
CONTINUOUS
 10
167.0436856815
 20
108.8162322275
 11
165.2836856815
 21
108.8162322275
  0
LINE
  8
1_AXIS
 62
7
  6
CENTER
 10
161.7636856815
 20
108.8162322275
 11
159.9236856815
 21
108.8162322275
  0
LINE
  8
1_AXIS
 62
7
  6
CENTER
 10
170.5636856815
 20
108.8162322275
 11
172.4036856815
 21
108.8162322275
  0
LINE
  8
0
 62
7
  6
CONTINUOUS
 10
170.3136856815
 20
107.5123917464
 11
170.1659378599
 21
107.5352556971
  0
POLYLINE
  8
0
 62
7
  6
CONTINUOUS
 66
1
 70
0
  0
VERTEX
  8
0
 62
7
  6
CONTINUOUS
 10
170.1659378599
 20
107.5352556971
  0
VERTEX
  8
0
 62
7
  6
CONTINUOUS
 10
169.9421022653
 20
107.5706935354
  0
VERTEX
  8
0
 62
7
  6
CONTINUOUS
 10
169.8136856815
 20
107.5914873561
  0
SEQEND
  0
LINE
  8
0
 62
7
  6
CONTINUOUS
 10
161.8136856815
 20
127.8662322275
 11
161.8136856815
 21
108.8162718749
  0
LINE
  8
0
 62
7
  6
CONTINUOUS
 10
168.1808465024
 20
123.2933702984
 11
168.0050343586
 21
123.2197885283
  0
LINE
  8
0
 62
7
  6
CONTINUOUS
 10
163.5136856815
 20
122.6846188304
 11
163.5136856815
 21
112.4994373535
  0
LINE
  8
1_AXIS
 62
2
  6
CONTINUOUS
 10
166.1636856815
 20
128.7462322275
 11
166.1636856815
 21
126.9862322275
  0
LINE
  8
1_AXIS
 62
7
  6
CENTER
 10
166.1636856815
 20
123.4662322275
 11
166.1636856815
 21
121.6262322275
  0
LINE
  8
1_AXIS
 62
2
  6
CONTINUOUS
 10
166.1636856815
 20
109.6962322275
 11
166.1636856815
 21
107.9362322275
  0
LINE
  8
1_AXIS
 62
7
  6
CENTER
 10
166.1636856815
 20
104.4162322275
 11
166.1636856815
 21
102.5762322275
  0
LINE
  8
1_AXIS
 62
7
  6
CENTER
 10
166.1636856815
 20
113.2162322275
 11
166.1636856815
 21
115.0562322275
  0
LINE
  8
1_AXIS
 62
7
  6
CENTER
 10
166.1636856815
 20
132.2662322275
 11
166.1636856815
 21
134.1062322275
  0
LINE
  8
0
 62
7
  6
CONTINUOUS
 10
167.1069393991
 20
131.8554484811
 11
167.1357453504
 21
132.1062322275
  0
LINE
  8
0
 62
7
  6
CONTINUOUS
 10
167.0774143064
 20
131.6062322275
 11
167.1069393991
 21
131.8554484811
  0
LINE
  8
0
 62
7
  6
CONTINUOUS
 10
167.1069393991
 20
104.8270159739
 11
167.0774143064
 21
105.0762322275
  0
LINE
  8
0
 62
7
  6
CONTINUOUS
 10
167.1357453504
 20
104.5762322275
 11
167.1069393991
 21
104.8270159739
  0
LINE
  8
0
 62
7
  6
CONTINUOUS
 10
165.1916260125
 20
104.5762322275
 11
165.2204319639
 21
104.8270159739
  0
LINE
  8
0
 62
7
  6
CONTINUOUS
 10
165.2204319639
 20
104.8270159739
 11
165.2499570566
 21
105.0762322275
  0
LINE
  8
0
 62
7
  6
CONTINUOUS
 10
165.2499570566
 20
131.6062322275
 11
165.2204319639
 21
131.8554484811
  0
LINE
  8
0
 62
7
  6
CONTINUOUS
 10
165.2204319639
 20
131.8554484811
 11
165.1916260125
 21
132.1062322275
  0
LINE
  8
0
 62
7
  6
CONTINUOUS
 10
170.3136856815
 20
107.5123917464
 11
170.3136856815
 21
129.1700727085
  0
LINE
  8
0
 62
7
  6
CONTINUOUS
 10
167.8208258075
 20
123.1846188304
 11
164.0025301106
 21
123.1846188304
  0
LINE
  8
1_AXIS
 62
2
  6
CONTINUOUS
 10
167.0436856815
 20
127.8662322275
 11
165.2836856815
 21
127.8662322275
  0
LINE
  8
1_AXIS
 62
7
  6
CENTER
 10
161.7636856815
 20
127.8662322275
 11
159.9236856815
 21
127.8662322275
  0
LINE
  8
1_AXIS
 62
7
  6
CENTER
 10
170.5636856815
 20
127.8662322275
 11
172.4036856815
 21
127.8662322275
  0
LINE
  8
0
 62
7
  6
CONTINUOUS
 10
169.8136856815
 20
129.0909770989
 11
170.0622538699
 21
129.130916882
  0
POLYLINE
  8
0
 62
7
  6
CONTINUOUS
 66
1
 70
0
  0
VERTEX
  8
0
 62
7
  6
CONTINUOUS
 10
170.0622538699
 20
129.130916882
  0
VERTEX
  8
0
 62
7
  6
CONTINUOUS
 10
170.296395
 20
129.1674177359
  0
VERTEX
  8
0
 62
7
  6
CONTINUOUS
 10
170.3136856815
 20
129.1700727085
  0
SEQEND
  0
LINE
  8
0
 62
7
  6
CONTINUOUS
 10
165.1916260125
 20
132.1062322275
 11
167.1357453504
 21
132.1062322275
  0
ARC
  8
0
 62
7
  6
CONTINUOUS
 10
44.6997037915
 20
105.0762322275
 40
0.5
 50
180.0
 51
270.0
  0
ARC
  8
0
 62
7
  6
CONTINUOUS
 10
58.7997037915
 20
105.0762322275
 40
0.5
 50
180.0
 51
270.0
  0
ARC
  8
0
 62
7
  6
CONTINUOUS
 10
47.6497037915
 20
105.0762322275
 40
0.5
 50
270.0
 51
360.0
  0
ARC
  8
0
 62
7
  6
CONTINUOUS
 10
48.6497031777
 20
111.9278631748
 40
0.4999996931
 50
89.9999296723
 51
180.0000703277
  0
ARC
  8
0
 62
7
  6
CONTINUOUS
 10
43.6997037915
 20
112.5665120492
 40
0.999999971
 50
0.0
 51
36.8698976458
  0
ARC
  8
0
 62
7
  6
CONTINUOUS
 10
44.4997037915
 20
113.1665120492
 40
0.5
 50
180.0
 51
216.8698976458
  0
ARC
  8
0
 62
7
  6
CONTINUOUS
 10
43.6997037915
 20
112.5665120492
 40
0.5
 50
0.0
 51
36.8698976458
  0
ARC
  8
0
 62
7
  6
CONTINUOUS
 10
57.7997037915
 20
111.9278625611
 40
0.5
 50
0.0
 51
90.0
  0
ARC
  8
0
 62
7
  6
CONTINUOUS
 10
66.9997037915
 20
105.0762322275
 40
0.5
 50
270.0
 51
360.0
  0
ARC
  8
0
 62
7
  6
CONTINUOUS
 10
77.8997037915
 20
105.0762322275
 40
0.5
 50
180.0
 51
270.0
  0
ARC
  8
0
 62
7
  6
CONTINUOUS
 10
76.8997037915
 20
111.9278625611
 40
0.5
 50
0.0
 51
90.0
  0
ARC
  8
0
 62
7
  6
CONTINUOUS
 10
67.9997031777
 20
111.9278631748
 40
0.4999996931
 50
89.9999296723
 51
180.0000703277
  0
ARC
  8
0
 62
7
  6
CONTINUOUS
 10
43.6997037915
 20
122.8359011178
 40
0.9999999814
 50
326.3320887789
 51
360.0
  0
ARC
  8
0
 62
7
  6
CONTINUOUS
 10
44.4997037915
 20
122.2330850418
 40
0.5
 50
146.3320887789
 51
180.0
  0
ARC
  8
0
 62
7
  6
CONTINUOUS
 10
43.6997037915
 20
122.8359011178
 40
0.5
 50
326.3320887789
 51
360.0
  0
ARC
  8
0
 62
7
  6
CONTINUOUS
 10
48.699704405
 20
124.7546012804
 40
0.4999996932
 50
269.999929696
 51
0.000070304
  0
ARC
  8
0
 62
7
  6
CONTINUOUS
 10
58.4497037915
 20
124.7546018939
 40
0.5
 50
180.0
 51
270.0
  0
ARC
  8
0
 62
7
  6
CONTINUOUS
 10
49.6997037915
 20
131.6062322275
 40
0.5
 50
90.0
 51
180.0
  0
ARC
  8
0
 62
7
  6
CONTINUOUS
 10
57.4497037915
 20
131.6062322275
 40
0.5
 50
0.0
 51
90.0
  0
ARC
  8
0
 62
7
  6
CONTINUOUS
 10
67.3497037915
 20
124.7546018939
 40
0.5
 50
270.0
 51
360.0
  0
ARC
  8
0
 62
7
  6
CONTINUOUS
 10
77.5497037915
 20
124.7546018939
 40
0.5
 50
180.0
 51
270.0
  0
ARC
  8
0
 62
7
  6
CONTINUOUS
 10
76.5497037915
 20
131.6062322275
 40
0.5
 50
0.0
 51
90.0
  0
ARC
  8
0
 62
7
  6
CONTINUOUS
 10
68.3497037915
 20
131.6062322275
 40
0.5
 50
90.0
 51
180.0
  0
ARC
  8
0
 62
7
  6
CONTINUOUS
 10
96.9997037915
 20
105.0762322275
 40
0.5
 50
180.0
 51
270.0
  0
ARC
  8
0
 62
7
  6
CONTINUOUS
 10
86.0997037915
 20
105.0762322275
 40
0.5
 50
270.0
 51
360.0
  0
ARC
  8
0
 62
7
  6
CONTINUOUS
 10
95.9997037915
 20
111.9278625611
 40
0.5
 50
0.0
 51
90.0
  0
ARC
  8
0
 62
7
  6
CONTINUOUS
 10
87.0997031777
 20
111.9278631748
 40
0.4999996931
 50
89.9999296723
 51
180.0000703277
  0
ARC
  8
0
 62
7
  6
CONTINUOUS
 10
119.2997037915
 20
105.0762322275
 40
0.5
 50
270.0
 51
360.0
  0
ARC
  8
0
 62
7
  6
CONTINUOUS
 10
105.1997037915
 20
105.0762322275
 40
0.5
 50
270.0
 51
360.0
  0
ARC
  8
0
 62
7
  6
CONTINUOUS
 10
116.3497037915
 20
105.0762322275
 40
0.5
 50
180.0
 51
270.0
  0
ARC
  8
0
 62
7
  6
CONTINUOUS
 10
106.1997031777
 20
111.9278631748
 40
0.4999996931
 50
89.9999296723
 51
180.0000703277
  0
ARC
  8
0
 62
7
  6
CONTINUOUS
 10
115.3497037915
 20
111.9278625611
 40
0.5
 50
0.0
 51
90.0
  0
ARC
  8
0
 62
7
  6
CONTINUOUS
 10
120.2997037915
 20
112.5665120492
 40
0.999999971
 50
143.1301023542
 51
180.0
  0
ARC
  8
0
 62
7
  6
CONTINUOUS
 10
119.4997037915
 20
113.1665120492
 40
0.5
 50
323.1301023542
 51
360.0
  0
ARC
  8
0
 62
7
  6
CONTINUOUS
 10
120.2997037915
 20
112.5665120492
 40
0.5
 50
143.1301023542
 51
180.0
  0
ARC
  8
0
 62
7
  6
CONTINUOUS
 10
86.4497037915
 20
124.7546018939
 40
0.5
 50
270.0
 51
360.0
  0
ARC
  8
0
 62
7
  6
CONTINUOUS
 10
96.6497037915
 20
124.7546018939
 40
0.5
 50
180.0
 51
270.0
  0
ARC
  8
0
 62
7
  6
CONTINUOUS
 10
87.4497037915
 20
131.6062322275
 40
0.5
 50
90.0
 51
180.0
  0
ARC
  8
0
 62
7
  6
CONTINUOUS
 10
95.6497037915
 20
131.6062322275
 40
0.5
 50
0.0
 51
90.0
  0
ARC
  8
0
 62
7
  6
CONTINUOUS
 10
105.5497037915
 20
124.7546018939
 40
0.5
 50
270.0
 51
360.0
  0
ARC
  8
0
 62
7
  6
CONTINUOUS
 10
120.2997037915
 20
122.8359011178
 40
0.9999999814
 50
180.0
 51
213.6679112211
  0
ARC
  8
0
 62
7
  6
CONTINUOUS
 10
119.4997037915
 20
122.2330850418
 40
0.5
 50
0.0
 51
33.6679112211
  0
ARC
  8
0
 62
7
  6
CONTINUOUS
 10
120.2997037915
 20
122.8359011178
 40
0.5
 50
180.0
 51
213.6679112211
  0
ARC
  8
0
 62
7
  6
CONTINUOUS
 10
115.2997037915
 20
124.7546018939
 40
0.5
 50
180.0
 51
270.0
  0
ARC
  8
0
 62
7
  6
CONTINUOUS
 10
106.5497037915
 20
131.6062322275
 40
0.5
 50
90.0
 51
180.0
  0
ARC
  8
0
 62
7
  6
CONTINUOUS
 10
114.2997037915
 20
131.6062322275
 40
0.5
 50
0.0
 51
90.0
  0
ARC
  8
0
 62
7
  6
CONTINUOUS
 10
44.6997037915
 20
167.3755932644
 40
0.5
 50
180.0
 51
270.0
  0
ARC
  8
0
 62
7
  6
CONTINUOUS
 10
44.4997037915
 20
169.0755932644
 40
0.5
 50
180.0
 51
232.7573575348
  0
ARC
  8
0
 62
7
  6
CONTINUOUS
 10
66.9997037915
 20
167.3755932644
 40
0.5
 50
270.0
 51
360.0
  0
ARC
  8
0
 62
7
  6
CONTINUOUS
 10
68.9497037915
 20
167.3755932644
 40
0.5
 50
270.0
 51
360.0
  0
ARC
  8
0
 62
7
  6
CONTINUOUS
 10
77.8997037915
 20
167.3755932644
 40
0.5
 50
180.0
 51
270.0
  0
ARC
  8
0
 62
7
  6
CONTINUOUS
 10
75.9497037915
 20
167.3755932644
 40
0.5
 50
180.0
 51
270.0
  0
ARC
  8
0
 62
7
  6
CONTINUOUS
 10
58.7997037915
 20
167.3755932644
 40
0.5
 50
180.0
 51
270.0
  0
ARC
  8
0
 62
7
  6
CONTINUOUS
 10
56.8497037915
 20
167.3755932644
 40
0.5
 50
180.0
 51
270.0
  0
ARC
  8
0
 62
7
  6
CONTINUOUS
 10
47.6497037915
 20
167.3755932644
 40
0.5
 50
270.0
 51
360.0
  0
ARC
  8
0
 62
7
  6
CONTINUOUS
 10
50.2997037915
 20
167.3755932644
 40
0.5
 50
270.0
 51
360.0
  0
ARC
  8
0
 62
7
  6
CONTINUOUS
 10
51.2997037915
 20
172.4755932644
 40
0.5
 50
94.2492579576
 51
180.0
  0
ARC
  8
0
 62
7
  6
CONTINUOUS
 10
44.4997037915
 20
174.8755932644
 40
0.5
 50
90.0
 51
180.0
  0
ARC
  8
0
 62
7
  6
CONTINUOUS
 10
44.6997037915
 20
174.8755932644
 40
0.5
 50
90.0
 51
180.0
  0
ARC
  8
0
 62
7
  6
CONTINUOUS
 10
58.7997037915
 20
174.8755932644
 40
0.5
 50
90.0
 51
180.0
  0
ARC
  8
0
 62
7
  6
CONTINUOUS
 10
47.6497037915
 20
174.8755932644
 40
0.5
 50
0.0
 51
90.0
  0
ARC
  8
0
 62
7
  6
CONTINUOUS
 10
66.9997037915
 20
174.8755932644
 40
0.5
 50
0.0
 51
90.0
  0
ARC
  8
0
 62
7
  6
CONTINUOUS
 10
77.8997037915
 20
174.8755932644
 40
0.5
 50
90.0
 51
180.0
  0
ARC
  8
0
 62
7
  6
CONTINUOUS
 10
119.2997037915
 20
167.3755932644
 40
0.5
 50
270.0
 51
360.0
  0
ARC
  8
0
 62
7
  6
CONTINUOUS
 10
119.4997037915
 20
169.0755932644
 40
0.5
 50
307.2426432547
 51
360.0
  0
ARC
  8
0
 62
7
  6
CONTINUOUS
 10
96.9997037915
 20
167.3755932644
 40
0.5
 50
180.0
 51
270.0
  0
ARC
  8
0
 62
7
  6
CONTINUOUS
 10
95.0497037915
 20
167.3755932644
 40
0.5
 50
180.0
 51
270.0
  0
ARC
  8
0
 62
7
  6
CONTINUOUS
 10
86.0997037915
 20
167.3755932644
 40
0.5
 50
270.0
 51
360.0
  0
ARC
  8
0
 62
7
  6
CONTINUOUS
 10
88.0497037915
 20
167.3755932644
 40
0.5
 50
270.0
 51
360.0
  0
ARC
  8
0
 62
7
  6
CONTINUOUS
 10
105.1997037915
 20
167.3755932644
 40
0.5
 50
270.0
 51
360.0
  0
ARC
  8
0
 62
7
  6
CONTINUOUS
 10
107.1497037915
 20
167.3755932644
 40
0.5
 50
270.0
 51
360.0
  0
ARC
  8
0
 62
7
  6
CONTINUOUS
 10
116.3497037915
 20
167.3755932644
 40
0.5
 50
180.0
 51
270.0
  0
ARC
  8
0
 62
7
  6
CONTINUOUS
 10
113.6997037915
 20
167.3755932644
 40
0.5
 50
180.0
 51
270.0
  0
ARC
  8
0
 62
7
  6
CONTINUOUS
 10
96.9997037915
 20
174.8755932644
 40
0.5
 50
90.0
 51
180.0
  0
ARC
  8
0
 62
7
  6
CONTINUOUS
 10
86.0997037915
 20
174.8755932644
 40
0.5
 50
0.0
 51
90.0
  0
ARC
  8
0
 62
7
  6
CONTINUOUS
 10
112.6997037915
 20
172.4755932644
 40
0.5
 50
0.0
 51
85.7507563391
  0
ARC
  8
0
 62
7
  6
CONTINUOUS
 10
119.2997037915
 20
174.8755932644
 40
0.5
 50
0.0
 51
90.0
  0
ARC
  8
0
 62
7
  6
CONTINUOUS
 10
119.4997037915
 20
174.8755932644
 40
0.5
 50
0.0
 51
90.0
  0
ARC
  8
0
 62
7
  6
CONTINUOUS
 10
105.1997037915
 20
174.8755932644
 40
0.5
 50
0.0
 51
90.0
  0
ARC
  8
0
 62
7
  6
CONTINUOUS
 10
116.3497037915
 20
174.8755932644
 40
0.5
 50
90.0
 51
180.0
  0
ARC
  8
0
 62
7
  6
CONTINUOUS
 10
163.0236856815
 20
112.4994373535
 40
0.49
 50
310.4482011909
 51
360.0
  0
ARC
  8
0
 62
7
  6
CONTINUOUS
 10
166.1636856815
 20
108.8162322275
 40
4.35
 50
129.7340531963
 51
257.0875457171
  0
ARC
  8
0
 62
7
  6
CONTINUOUS
 10
166.1636856815
 20
108.8162322275
 40
4.35
 50
282.9124542829
 51
342.5584061437
  0
CIRCLE
  8
2_FEATURE
 62
7
  6
CONTINUOUS
 10
166.1636856815
 20
108.8162322275
 40
2.6
  0
ARC
  8
0
 62
7
  6
CONTINUOUS
 10
164.013685593
 20
122.6846188304
 40
0.4999999557
 50
90.0
 51
180.0
  0
ARC
  8
0
 62
7
  6
CONTINUOUS
 10
166.1636856815
 20
127.8662322275
 40
4.998
 50
293.803024964
 51
311.59628875
  0
ARC
  8
0
 62
7
  6
CONTINUOUS
 10
166.1636856815
 20
127.8662322275
 40
4.35
 50
102.9124542829
 51
180.0
  0
ARC
  8
2_FEATURE
 62
7
  6
CONTINUOUS
 10
166.1636856815
 20
127.8662322275
 40
4.35
 50
178.7486193829
 51
179.7366062701
  0
ARC
  8
0
 62
7
  6
CONTINUOUS
 10
166.1636856815
 20
127.8662322275
 40
4.35
 50
17.4415938563
 51
77.0875457171
  0
ARC
  8
1_AXIS
 62
7
  6
CONTINUOUS
 10
166.1636856815
 20
127.8662322275
 40
4.35
 50
167.9921339638
 51
170.4913910924
  0
ARC
  8
2_FEATURE
 62
7
  6
CONTINUOUS
 10
166.1636856815
 20
127.8662322275
 40
4.35
 50
141.3964691506
 51
144.799304322
  0
CIRCLE
  8
0
 62
7
  6
CONTINUOUS
 10
166.1636856815
 20
127.8662322275
 40
2.6
  0
ARC
  8
0
 62
7
  6
CONTINUOUS
 10
167.8208258075
 20
123.6846188304
 40
0.5
 50
270.0
 51
291.6180289573
  0
ARC
  8
0
 62
7
  6
CONTINUOUS
 10
169.8136856815
 20
123.7546018939
 40
0.5
 50
0.0
 51
131.59628875
  0
ENDSEC
  0
EOF
