  0
SECTION
  2
HEADER
  9
$EXTMAX
 10
420.0
 20
297.0
 30
0.0
  9
$EXTMIN
 10
0.0
 20
0.0
 30
0.0
  9
$LIMMIN
 10
0.0
 20
0.0
  9
$LIMMAX
 10
420.0
 20
297.0
  9
$VIEWCTR
 10
210.0
 20
148.5
  9
$VIEWSIZE
 40
297.0
  9
$CLAYER
  8
0
  9
$LTSCALE
 40
23.1
  9
$CELTYPE
  6
BYLAYER
  9
$DIMSCALE
 40
1.0
  9
$DIMASZ
 40
3.5
  9
$DIMEXO
 40
1.0
  9
$DIMDLI
 40
15.96
  9
$DIMEXE
 40
2.0
  9
$DIMCEN
 40
3.78
  9
$DIMLFAC
 40
1.0
  9
$DIMBLK
  1
_FILLED
  9
$DIMTXT
 40
3.5
  9
$PDMODE
 70
3
  9
$PDSIZE
 40
0.3125
  9
$TILEMODE
 70
1
  0
ENDSEC
  0
SECTION
  2
TABLES
  0
TABLE
  2
LTYPE
 70
6
  0
LTYPE
  2
BYBLOCK
 70
0
  3

 72
65
 73
0
 40
0.0
  0
LTYPE
  2
BYLAYER
 70
0
  3

 72
65
 73
0
 40
0.0
  0
LTYPE
  2
CONTINUOUS
 70
64
  3
Solid line
 72
65
 73
0
 40
0.0
  0
LTYPE
  2
CENTER
 70
64
  3
____ _ ____ _ ____ _ ____ _ ____ _ ____ _ ____
 72
65
 73
4
 40
0.6
 49
0.375
 49
-0.075
 49
0.075
 49
-0.075
  0
LTYPE
  2
HIDDEN
 70
64
  3
- - - - - - - - - - - - - - - - - - - -
 72
65
 73
2
 40
0.2
 49
0.1
 49
-0.1
  0
LTYPE
  2
PHANTOM
 70
64
  3
_____ _ _ _____ _ _ _____ _ _ _____
 72
65
 73
6
 40
0.8
 49
0.45
 49
-0.05
 49
0.1
 49
-0.05
 49
0.1
 49
-0.05
  0
LTYPE
  2
DOT
 70
64
  3
. . . . . . . . . . . . . . . . . . . .
 72
65
 73
2
 40
0.2
 49
0.1
 49
-0.1
  0
LTYPE
  2
DASHED
 70
64
  3
- - - - - - - - - - - - - - - - - - - -
 72
65
 73
2
 40
0.2
 49
0.1
 49
-0.1
  0
ENDTAB
  0
TABLE
  2
LAYER
 70
36
  0
LAYER
  2
0
 70
0
 62
7
  6
CONTINUOUS
  0
LAYER
  2
DEFAULT_1
 70
0
 62
7
  6
CENTER
  0
LAYER
  2
DEFAULT_2
 70
0
 62
8
  6
HIDDEN
  0
LAYER
  2
DEFAULT_3
 70
0
 62
7
  6
PHANTOM
  0
LAYER
  2
1_AXIS
 70
0
 62
7
  6
CONTINUOUS
  0
LAYER
  2
1_DATUMPLANE
 70
0
 62
7
  6
CONTINUOUS
  0
LAYER
  2
1_DATUM_PLANES
 70
0
 62
7
  6
CONTINUOUS
  0
LAYER
  2
2_FEATURE
 70
0
 62
7
  6
CONTINUOUS
  0
LAYER
  2
3_CURVE
 70
0
 62
7
  6
CONTINUOUS
  0
LAYER
  2
4_QUILT
 70
0
 62
7
  6
CONTINUOUS
  0
LAYER
  2
4_SURFACE
 70
0
 62
7
  6
CONTINUOUS
  0
LAYER
  2
6_DIM
 70
0
 62
7
  6
CONTINUOUS
  0
LAYER
  2
CSYS
 70
0
 62
7
  6
CONTINUOUS
  0
LAYER
  2
CURVE
 70
0
 62
7
  6
CONTINUOUS
  0
LAYER
  2
SURFACE
 70
0
 62
7
  6
CONTINUOUS
  0
ENDTAB
  0
TABLE
  2
STYLE
 70
1
  0
STYLE
  2
STANDARD
 70
0
 40
0.0
 41
0.8
 50
0.0
 71
0
 42
0.2
  3
txt
  4

  0
STYLE
  2
TEXTSTYLE_1
 70
0
 40
0.0
 41
0.8
 50
0.0
 71
0
 42
0.2
  3
gdt
  4

  0
STYLE
  2
TEXTSTYLE_2
 70
0
 40
0.0
 41
0.6
 50
0.0
 71
0
 42
0.2
  3
txt
  4

  0
STYLE
  2
TEXTSTYLE_3
 70
0
 40
0.0
 41
1.0
 50
0.0
 71
0
 42
0.2
  3
ftb_____.ttf
  4

  0
STYLE
  2
TEXTSTYLE_4
 70
0
 40
0.0
 41
1.0
 50
0.0
 71
0
 42
0.2
  3
fti_____.ttf
  4

  0
STYLE
  2
TEXTSTYLE_5
 70
0
 40
0.0
 41
1.0
 50
0.0
 71
0
 42
0.2
  3
frutiger light.ttf
  4

  0
STYLE
  2
TEXTSTYLE_6
 70
0
 40
0.0
 41
0.7
 50
0.0
 71
0
 42
0.2
  3
txt
  4

  0
STYLE
  2
TEXTSTYLE_7
 70
0
 40
0.0
 41
0.5
 50
0.0
 71
0
 42
0.2
  3
txt
  4

  0
ENDTAB
  0
ENDSEC
  0
SECTION
  2
BLOCKS
  0
BLOCK
  8
0
 62
2
  6
CONTINUOUS
  2
SYMBOL_5_BL1
 70
64
 10
382.7840918555
 20
35.5067593403
  0
TEXT
  8
0
 62
7
  6
CONTINUOUS
 10
373.842376864
 20
30.5995157174
  7
TEXTSTYLE_4
 40
1.0655737705
  1
The brand for plastic modular belts and chains
 41
1.0
 72
0
  0
LINE
  8
0
 62
7
  6
CONTINUOUS
 10
358.7621602445
 20
36.0805298321
 11
358.7621602445
 21
33.9493822911
  0
LINE
  8
0
 62
7
  6
CONTINUOUS
 10
359.0512227376
 20
30.9584509954
 11
359.0512227376
 21
31.0552420547
  0
LINE
  8
0
 62
7
  6
CONTINUOUS
 10
358.7621602445
 20
31.0229783683
 11
358.8199727462
 21
30.8293962497
  0
LINE
  8
0
 62
7
  6
CONTINUOUS
 10
360.1556028675
 20
33.867415078
 11
360.1556028675
 21
36.0805298321
  0
LINE
  8
0
 62
7
  6
CONTINUOUS
 10
361.0746601894
 20
32.0231527829
 11
361.0746601894
 21
30.5067593403
  0
LINE
  8
0
 62
7
  6
CONTINUOUS
 10
361.3637227445
 20
30.5067593403
 11
361.3637227445
 21
31.2488242184
  0
LINE
  8
0
 62
7
  6
CONTINUOUS
 10
361.3637227445
 20
31.3778789641
 11
361.3637227445
 21
32.0231527829
  0
LINE
  8
0
 62
7
  6
CONTINUOUS
 10
358.8199727462
 20
31.216560532
 11
358.7621602445
 21
31.0229783683
  0
LINE
  8
0
 62
7
  6
CONTINUOUS
 10
359.1668477307
 20
30.7971325633
 11
359.0512227376
 21
30.9584509954
  0
LINE
  8
0
 62
7
  6
CONTINUOUS
 10
360.2652852997
 20
31.3133515913
 11
360.3230977445
 21
31.216560532
  0
LINE
  8
0
 62
7
  6
CONTINUOUS
 10
360.6121602997
 20
31.216560532
 11
360.5543476894
 21
31.3456152777
  0
LINE
  8
0
 62
7
  6
CONTINUOUS
 10
362.0408487691
 20
36.0805298321
 11
362.0408487691
 21
34.2772511436
  0
LINE
  8
0
 62
7
  6
CONTINUOUS
 10
362.0408487691
 20
32.9657757338
 11
362.0408487691
 21
32.3100380288
  0
LINE
  8
0
 62
7
  6
CONTINUOUS
 10
362.4043477445
 20
31.1520331591
 11
362.4043477445
 21
30.5067593403
  0
LINE
  8
0
 62
7
  6
CONTINUOUS
 10
362.6934101343
 20
30.5067593403
 11
362.6934101343
 21
31.1520331591
  0
LINE
  8
0
 62
7
  6
CONTINUOUS
 10
359.0512227376
 20
31.0552420547
 11
359.1090352445
 21
31.1842968456
  0
LINE
  8
0
 62
7
  6
CONTINUOUS
 10
358.8199727462
 20
30.8293962497
 11
358.9355977445
 21
30.7003414814
  0
LINE
  8
0
 62
7
  6
CONTINUOUS
 10
362.3465351343
 20
31.2810879048
 11
362.4043477445
 21
31.1520331591
  0
LINE
  8
0
 62
7
  6
CONTINUOUS
 10
363.1559103548
 20
30.7971325633
 11
363.2137226343
 21
30.668077795
  0
LINE
  8
0
 62
7
  6
CONTINUOUS
 10
362.6934101343
 20
31.1520331591
 11
362.6355978548
 21
31.3133515913
  0
LINE
  8
0
 62
7
  6
CONTINUOUS
 10
363.1559103548
 20
31.3456152777
 11
363.1559103548
 21
31.2810879048
  0
LINE
  8
0
 62
7
  6
CONTINUOUS
 10
363.1559103548
 20
30.8939236226
 11
363.1559103548
 21
30.7971325633
  0
LINE
  8
0
 62
7
  6
CONTINUOUS
 10
363.4342913921
 20
32.3100380288
 11
363.4342913921
 21
36.0805298321
  0
LINE
  8
0
 62
7
  6
CONTINUOUS
 10
363.4449727445
 20
30.7648688543
 11
363.4449727445
 21
30.8293962497
  0
LINE
  8
0
 62
7
  6
CONTINUOUS
 10
363.7621602445
 20
36.0805298321
 11
363.7621602445
 21
32.3100380288
  0
LINE
  8
0
 62
7
  6
CONTINUOUS
 10
360.5543476894
 20
30.7003414814
 11
360.6121602997
 21
30.8293962497
  0
LINE
  8
0
 62
7
  6
CONTINUOUS
 10
364.9480979651
 20
30.6035504109
 11
364.890285024
 21
30.7648688543
  0
LINE
  8
0
 62
7
  6
CONTINUOUS
 10
364.6012229651
 20
31.2810879048
 11
364.6012229651
 21
31.1842968456
  0
LINE
  8
0
 62
7
  6
CONTINUOUS
 10
364.6012229651
 20
31.0552420547
 11
364.6012229651
 21
30.8616599362
  0
LINE
  8
0
 62
7
  6
CONTINUOUS
 10
364.890285024
 20
30.7648688543
 11
364.890285024
 21
31.2810879048
  0
LINE
  8
0
 62
7
  6
CONTINUOUS
 10
365.1556028675
 20
32.3100380288
 11
365.1556028675
 21
34.1133167174
  0
LINE
  8
0
 62
7
  6
CONTINUOUS
 10
365.1556028675
 20
35.4247921272
 11
365.1556028675
 21
36.0805298321
  0
LINE
  8
0
 62
7
  6
CONTINUOUS
 10
365.4684104651
 20
32.0231527829
 11
365.4684104651
 21
31.8618343508
  0
LINE
  8
0
 62
7
  6
CONTINUOUS
 10
365.4684104651
 20
31.5391973962
 11
365.4684104651
 21
30.5067593403
  0
LINE
  8
0
 62
7
  6
CONTINUOUS
 10
365.757472524
 20
30.5067593403
 11
365.757472524
 21
31.5391973962
  0
LINE
  8
0
 62
7
  6
CONTINUOUS
 10
365.757472524
 20
31.8618343508
 11
365.757472524
 21
32.0231527829
  0
LINE
  8
0
 62
7
  6
CONTINUOUS
 10
360.3230977445
 20
30.8293962497
 11
360.2652852997
 21
30.7326051679
  0
LINE
  8
0
 62
7
  6
CONTINUOUS
 10
362.6355978548
 20
31.3133515913
 11
362.5777852445
 21
31.3778789641
  0
LINE
  8
0
 62
7
  6
CONTINUOUS
 10
363.5027853548
 20
30.7003414814
 11
363.4449727445
 21
30.7648688543
  0
LINE
  8
0
 62
7
  6
CONTINUOUS
 10
364.6590352445
 20
30.5712867188
 11
364.716847524
 21
30.5067593403
  0
LINE
  8
0
 62
7
  6
CONTINUOUS
 10
364.6012229651
 20
30.668077795
 11
364.6590352445
 21
30.5712867188
  0
LINE
  8
0
 62
7
  6
CONTINUOUS
 10
365.0059102445
 20
30.5067593403
 11
364.9480979651
 21
30.6035504109
  0
LINE
  8
0
 62
7
  6
CONTINUOUS
 10
364.890285024
 20
31.2810879048
 11
364.8324727445
 21
31.3778789641
  0
LINE
  8
0
 62
7
  6
CONTINUOUS
 10
366.2199727445
 20
31.5391973962
 11
366.2199727445
 21
30.5067593403
  0
LINE
  8
0
 62
7
  6
CONTINUOUS
 10
366.5090354651
 20
30.5067593403
 11
366.5090354651
 21
31.2488242184
  0
LINE
  8
0
 62
7
  6
CONTINUOUS
 10
366.5090354651
 20
31.3778789641
 11
366.5090354651
 21
31.5391973962
  0
LINE
  8
0
 62
7
  6
CONTINUOUS
 10
367.0408487691
 20
34.5231527829
 11
367.0408487691
 21
32.3100380288
  0
LINE
  8
0
 62
7
  6
CONTINUOUS
 10
358.9355977445
 20
31.3456152777
 11
358.8199727462
 21
31.216560532
  0
LINE
  8
0
 62
7
  6
CONTINUOUS
 10
359.1090352445
 20
31.1842968456
 11
359.1668477307
 21
31.2488242184
  0
LINE
  8
0
 62
7
  6
CONTINUOUS
 10
358.9355977445
 20
30.7003414814
 11
359.0512227376
 21
30.6358140973
  0
LINE
  8
0
 62
7
  6
CONTINUOUS
 10
359.3402852307
 20
30.7003414814
 11
359.1668477307
 21
30.7971325633
  0
LINE
  8
0
 62
7
  6
CONTINUOUS
 10
364.543410024
 20
31.3456152777
 11
364.6012229651
 21
31.2810879048
  0
LINE
  8
0
 62
7
  6
CONTINUOUS
 10
367.491847524
 20
31.2810879048
 11
367.5496604651
 21
31.1197694727
  0
LINE
  8
0
 62
7
  6
CONTINUOUS
 10
367.838722524
 20
31.1197694727
 11
367.7809102445
 21
31.2810879048
  0
LINE
  8
0
 62
7
  6
CONTINUOUS
 10
367.5496604651
 20
31.1197694727
 11
367.5496604651
 21
30.5067593403
  0
LINE
  8
0
 62
7
  6
CONTINUOUS
 10
367.838722524
 20
30.5067593403
 11
367.838722524
 21
31.1197694727
  0
LINE
  8
0
 62
7
  6
CONTINUOUS
 10
368.3012227445
 20
31.3456152777
 11
368.3012227445
 21
31.2810879048
  0
LINE
  8
0
 62
7
  6
CONTINUOUS
 10
368.4342913921
 20
32.3100380288
 11
368.4342913921
 21
34.4411855698
  0
LINE
  8
0
 62
7
  6
CONTINUOUS
 10
368.7621602445
 20
36.0805298321
 11
368.7621602445
 21
32.3100380288
  0
LINE
  8
0
 62
7
  6
CONTINUOUS
 10
363.4449727445
 20
30.8293962497
 11
363.5027853548
 21
30.926187309
  0
LINE
  8
0
 62
7
  6
CONTINUOUS
 10
359.0512227376
 20
30.6358140973
 11
359.2246602583
 21
30.5712867188
  0
LINE
  8
0
 62
7
  6
CONTINUOUS
 10
360.5543476894
 20
31.3456152777
 11
360.3809101894
 21
31.4424063369
  0
LINE
  8
0
 62
7
  6
CONTINUOUS
 10
363.2137226343
 20
30.668077795
 11
363.3871601343
 21
30.5712867188
  0
LINE
  8
0
 62
7
  6
CONTINUOUS
 10
362.2309102445
 20
31.3456152777
 11
362.3465351343
 21
31.2810879048
  0
LINE
  8
0
 62
7
  6
CONTINUOUS
 10
362.5777852445
 20
31.3778789641
 11
362.4621603548
 21
31.4424063369
  0
LINE
  8
0
 62
7
  6
CONTINUOUS
 10
368.3012227445
 20
30.7648688543
 11
368.4168479651
 21
30.6358140973
  0
LINE
  8
0
 62
7
  6
CONTINUOUS
 10
368.6480977445
 20
30.7003414814
 11
368.5902854651
 21
30.7648688543
  0
LINE
  8
0
 62
7
  6
CONTINUOUS
 10
368.3012227445
 20
31.2810879048
 11
368.4168479651
 21
31.1520331591
  0
LINE
  8
0
 62
7
  6
CONTINUOUS
 10
367.7809102445
 20
31.2810879048
 11
367.7230979651
 21
31.3778789641
  0
LINE
  8
0
 62
7
  6
CONTINUOUS
 10
370.1512223035
 20
30.7003414814
 11
370.1512223035
 21
30.7648688543
  0
LINE
  8
0
 62
7
  6
CONTINUOUS
 10
370.1556028675
 20
32.3100380288
 11
370.1556028675
 21
36.0805298321
  0
LINE
  8
0
 62
7
  6
CONTINUOUS
 10
363.2137226343
 20
31.4101426505
 11
363.1559103548
 21
31.3456152777
  0
LINE
  8
0
 62
7
  6
CONTINUOUS
 10
360.091847717
 20
31.3778789641
 11
360.2652852997
 21
31.3133515913
  0
LINE
  8
0
 62
7
  6
CONTINUOUS
 10
364.8324727445
 20
31.3778789641
 11
364.716847524
 21
31.4424063369
  0
LINE
  8
0
 62
7
  6
CONTINUOUS
 10
368.6480977445
 20
31.216560532
 11
368.5902854651
 21
31.2810879048
  0
LINE
  8
0
 62
7
  6
CONTINUOUS
 10
369.8043479651
 20
30.8293962497
 11
369.8621602445
 21
30.7648688543
  0
LINE
  8
0
 62
7
  6
CONTINUOUS
 10
370.1512223035
 20
30.7648688543
 11
370.0355977445
 21
30.8939236226
  0
LINE
  8
0
 62
7
  6
CONTINUOUS
 10
369.8043479651
 20
31.3456152777
 11
369.8621602445
 21
31.2810879048
  0
LINE
  8
0
 62
7
  6
CONTINUOUS
 10
370.1512223035
 20
31.2810879048
 11
370.0355977445
 21
31.4101426505
  0
LINE
  8
0
 62
7
  6
CONTINUOUS
 10
363.4449727445
 20
31.2810879048
 11
363.5027853548
 21
31.3456152777
  0
LINE
  8
0
 62
7
  6
CONTINUOUS
 10
363.2715352445
 20
31.0229783683
 11
363.1559103548
 21
30.8939236226
  0
LINE
  8
0
 62
7
  6
CONTINUOUS
 10
364.6012229651
 20
30.8616599362
 11
364.543410024
 21
30.7971325633
  0
LINE
  8
0
 62
7
  6
CONTINUOUS
 10
364.543410024
 20
30.6035504109
 11
364.6012229651
 21
30.668077795
  0
LINE
  8
0
 62
7
  6
CONTINUOUS
 10
363.3871601343
 20
30.5712867188
 11
363.5027853548
 21
30.5390230296
  0
LINE
  8
0
 62
7
  6
CONTINUOUS
 10
360.3809101894
 20
31.4424063369
 11
360.1496602445
 21
31.5069337098
  0
LINE
  8
0
 62
7
  6
CONTINUOUS
 10
363.7340351343
 20
30.6358140973
 11
363.5027853548
 21
30.7003414814
  0
LINE
  8
0
 62
7
  6
CONTINUOUS
 10
362.4621603548
 20
31.4424063369
 11
362.2887228548
 21
31.5069337098
  0
LINE
  8
0
 62
7
  6
CONTINUOUS
 10
364.716847524
 20
31.4424063369
 11
364.543410024
 21
31.5069337098
  0
LINE
  8
0
 62
7
  6
CONTINUOUS
 10
367.3762229651
 20
31.3456152777
 11
367.491847524
 21
31.2810879048
  0
LINE
  8
0
 62
7
  6
CONTINUOUS
 10
367.7230979651
 20
31.3778789641
 11
367.6074727445
 21
31.4424063369
  0
LINE
  8
0
 62
7
  6
CONTINUOUS
 10
359.2246602583
 20
30.5712867188
 11
359.3980977583
 21
30.5390230296
  0
LINE
  8
0
 62
7
  6
CONTINUOUS
 10
359.6871602721
 20
30.6358140973
 11
359.3402852307
 21
30.7003414814
  0
LINE
  8
0
 62
7
  6
CONTINUOUS
 10
362.1152853548
 20
31.3778789641
 11
362.2309102445
 21
31.3456152777
  0
LINE
  8
0
 62
7
  6
CONTINUOUS
 10
364.4277854651
 20
31.3778789641
 11
364.543410024
 21
31.3456152777
  0
LINE
  8
0
 62
7
  6
CONTINUOUS
 10
368.7637229651
 20
30.668077795
 11
368.6480977445
 21
30.7003414814
  0
LINE
  8
0
 62
7
  6
CONTINUOUS
 10
367.2605977445
 20
31.3778789641
 11
367.3762229651
 21
31.3456152777
  0
LINE
  8
0
 62
7
  6
CONTINUOUS
 10
368.4168479651
 20
30.6358140973
 11
368.5902854651
 21
30.5712867188
  0
LINE
  8
0
 62
7
  6
CONTINUOUS
 10
367.6074727445
 20
31.4424063369
 11
367.4340352445
 21
31.5069337098
  0
LINE
  8
0
 62
7
  6
CONTINUOUS
 10
368.8215352445
 20
31.1520331591
 11
368.6480977445
 21
31.216560532
  0
LINE
  8
0
 62
7
  6
CONTINUOUS
 10
369.6309104651
 20
30.8939236226
 11
369.8043479651
 21
30.8293962497
  0
LINE
  8
0
 62
7
  6
CONTINUOUS
 10
370.0355977445
 20
31.4101426505
 11
369.8621602445
 21
31.4746700234
  0
LINE
  8
0
 62
7
  6
CONTINUOUS
 10
368.4168479651
 20
31.1520331591
 11
368.6480977445
 21
31.0552420547
  0
LINE
  8
0
 62
7
  6
CONTINUOUS
 10
370.0355977445
 20
30.8939236226
 11
369.8043479651
 21
30.9907146818
  0
LINE
  8
0
 62
7
  6
CONTINUOUS
 10
368.5902854651
 20
31.2810879048
 11
368.6480977445
 21
31.3456152777
  0
LINE
  8
0
 62
7
  6
CONTINUOUS
 10
359.0512227376
 20
31.4101426505
 11
358.9355977445
 21
31.3456152777
  0
LINE
  8
0
 62
7
  6
CONTINUOUS
 10
359.1668477307
 20
31.2488242184
 11
359.3402852307
 21
31.3456152777
  0
LINE
  8
0
 62
7
  6
CONTINUOUS
 10
361.4793477997
 20
31.4424063369
 11
361.3637227445
 21
31.3778789641
  0
LINE
  8
0
 62
7
  6
CONTINUOUS
 10
361.3637227445
 20
31.2488242184
 11
361.4793477997
 21
31.3133515913
  0
LINE
  8
0
 62
7
  6
CONTINUOUS
 10
360.3809101894
 20
30.6035504109
 11
360.5543476894
 21
30.7003414814
  0
LINE
  8
0
 62
7
  6
CONTINUOUS
 10
359.3980977583
 20
30.5390230296
 11
359.744972717
 21
30.5067593403
  0
LINE
  8
0
 62
7
  6
CONTINUOUS
 10
363.5027853548
 20
30.5390230296
 11
363.7340351343
 21
30.5067593403
  0
LINE
  8
0
 62
7
  6
CONTINUOUS
 10
361.8840352445
 20
31.4101426505
 11
362.1152853548
 21
31.3778789641
  0
LINE
  8
0
 62
7
  6
CONTINUOUS
 10
364.1965353548
 20
31.4101426505
 11
364.4277854651
 21
31.3778789641
  0
LINE
  8
0
 62
7
  6
CONTINUOUS
 10
368.6480977445
 20
31.0552420547
 11
369.6309104651
 21
30.8939236226
  0
LINE
  8
0
 62
7
  6
CONTINUOUS
 10
369.8043479651
 20
30.9907146818
 11
368.8215352445
 21
31.1520331591
  0
LINE
  8
0
 62
7
  6
CONTINUOUS
 10
362.2887228548
 20
31.5069337098
 11
362.1152853548
 21
31.5391973962
  0
LINE
  8
0
 62
7
  6
CONTINUOUS
 10
368.5902854651
 20
30.5712867188
 11
368.7637229651
 21
30.5390230296
  0
LINE
  8
0
 62
7
  6
CONTINUOUS
 10
367.4340352445
 20
31.5069337098
 11
367.2605977445
 21
31.5391973962
  0
LINE
  8
0
 62
7
  6
CONTINUOUS
 10
369.6887227445
 20
31.3778789641
 11
369.8043479651
 21
31.3456152777
  0
LINE
  8
0
 62
7
  6
CONTINUOUS
 10
369.8621602445
 20
30.7648688543
 11
369.8043479651
 21
30.7003414814
  0
LINE
  8
0
 62
7
  6
CONTINUOUS
 10
368.4168479651
 20
31.4424063369
 11
368.3012227445
 21
31.3456152777
  0
LINE
  8
0
 62
7
  6
CONTINUOUS
 10
363.3293478548
 20
31.4746700234
 11
363.2137226343
 21
31.4101426505
  0
LINE
  8
0
 62
7
  6
CONTINUOUS
 10
363.3871601343
 20
31.0875057863
 11
363.2715352445
 21
31.0229783683
  0
LINE
  8
0
 62
7
  6
CONTINUOUS
 10
363.5027853548
 20
30.926187309
 11
363.6184102445
 21
30.9907146818
  0
LINE
  8
0
 62
7
  6
CONTINUOUS
 10
361.0746601894
 20
30.5067593403
 11
361.3637227445
 21
30.5067593403
  0
LINE
  8
0
 62
7
  6
CONTINUOUS
 10
362.4043477445
 20
30.5067593403
 11
362.6934101343
 21
30.5067593403
  0
LINE
  8
0
 62
7
  6
CONTINUOUS
 10
363.7340351343
 20
30.5067593403
 11
364.0809101343
 21
30.5067593403
  0
LINE
  8
0
 62
7
  6
CONTINUOUS
 10
364.716847524
 20
30.5067593403
 11
365.0059102445
 21
30.5067593403
  0
LINE
  8
0
 62
7
  6
CONTINUOUS
 10
365.4684104651
 20
30.5067593403
 11
365.757472524
 21
30.5067593403
  0
LINE
  8
0
 62
7
  6
CONTINUOUS
 10
366.2199727445
 20
30.5067593403
 11
366.5090354651
 21
30.5067593403
  0
LINE
  8
0
 62
7
  6
CONTINUOUS
 10
367.5496604651
 20
30.5067593403
 11
367.838722524
 21
30.5067593403
  0
LINE
  8
0
 62
7
  6
CONTINUOUS
 10
369.1105979651
 20
30.5067593403
 11
369.4574729651
 21
30.5067593403
  0
LINE
  8
0
 62
7
  6
CONTINUOUS
 10
369.4574729651
 20
30.6358140973
 11
369.1105979651
 21
30.6358140973
  0
LINE
  8
0
 62
7
  6
CONTINUOUS
 10
364.0809101343
 20
30.6358140973
 11
363.7340351343
 21
30.6358140973
  0
LINE
  8
0
 62
7
  6
CONTINUOUS
 10
368.5902854651
 20
30.7648688543
 11
368.3012227445
 21
30.7648688543
  0
LINE
  8
0
 62
7
  6
CONTINUOUS
 10
360.6121602997
 20
30.8293962497
 11
360.3230977445
 21
30.8293962497
  0
LINE
  8
0
 62
7
  6
CONTINUOUS
 10
359.6871602721
 20
31.4101426505
 11
360.091847717
 21
31.3778789641
  0
LINE
  8
0
 62
7
  6
CONTINUOUS
 10
360.1496602445
 20
31.5069337098
 11
359.744972717
 21
31.5391973962
  0
LINE
  8
0
 62
7
  6
CONTINUOUS
 10
368.7637229651
 20
30.5390230296
 11
369.1105979651
 21
30.5067593403
  0
LINE
  8
0
 62
7
  6
CONTINUOUS
 10
369.1105979651
 20
30.6358140973
 11
368.7637229651
 21
30.668077795
  0
LINE
  8
0
 62
7
  6
CONTINUOUS
 10
364.543410024
 20
31.5069337098
 11
364.1965353548
 21
31.5391973962
  0
LINE
  8
0
 62
7
  6
CONTINUOUS
 10
369.3418477445
 20
31.4101426505
 11
369.6887227445
 21
31.3778789641
  0
LINE
  8
0
 62
7
  6
CONTINUOUS
 10
369.6887227445
 20
31.5069337098
 11
369.3418477445
 21
31.5391973962
  0
LINE
  8
0
 62
7
  6
CONTINUOUS
 10
367.0293479651
 20
31.4101426505
 11
367.2605977445
 21
31.3778789641
  0
LINE
  8
0
 62
7
  6
CONTINUOUS
 10
369.8621602445
 20
31.4746700234
 11
369.6887227445
 21
31.5069337098
  0
LINE
  8
0
 62
7
  6
CONTINUOUS
 10
370.0355977445
 20
30.6035504109
 11
370.1512223035
 21
30.7003414814
  0
LINE
  8
0
 62
7
  6
CONTINUOUS
 10
364.543410024
 20
30.7971325633
 11
364.369972524
 21
30.7003414814
  0
LINE
  8
0
 62
7
  6
CONTINUOUS
 10
366.624660024
 20
31.4424063369
 11
366.5090354651
 21
31.3778789641
  0
LINE
  8
0
 62
7
  6
CONTINUOUS
 10
366.5090354651
 20
31.2488242184
 11
366.624660024
 21
31.3133515913
  0
LINE
  8
0
 62
7
  6
CONTINUOUS
 10
359.2246602583
 20
31.4746700234
 11
359.0512227376
 21
31.4101426505
  0
LINE
  8
0
 62
7
  6
CONTINUOUS
 10
361.6527851343
 20
31.5069337098
 11
361.4793477997
 21
31.4424063369
  0
LINE
  8
0
 62
7
  6
CONTINUOUS
 10
361.4793477997
 20
31.3133515913
 11
361.6527851343
 21
31.3778789641
  0
LINE
  8
0
 62
7
  6
CONTINUOUS
 10
360.2652852997
 20
30.7326051679
 11
360.091847717
 21
30.668077795
  0
LINE
  8
0
 62
7
  6
CONTINUOUS
 10
369.6887227445
 20
30.668077795
 11
369.4574729651
 21
30.6358140973
  0
LINE
  8
0
 62
7
  6
CONTINUOUS
 10
364.0809101343
 20
30.5067593403
 11
364.369972524
 21
30.5390230296
  0
LINE
  8
0
 62
7
  6
CONTINUOUS
 10
369.4574729651
 20
30.5067593403
 11
369.8043479651
 21
30.5390230296
  0
LINE
  8
0
 62
7
  6
CONTINUOUS
 10
359.744972717
 20
30.5067593403
 11
360.1496602445
 21
30.5390230296
  0
LINE
  8
0
 62
7
  6
CONTINUOUS
 10
360.091847717
 20
30.668077795
 11
359.6871602721
 21
30.6358140973
  0
LINE
  8
0
 62
7
  6
CONTINUOUS
 10
363.9652852445
 20
31.0552420547
 11
364.6012229651
 21
31.0552420547
  0
LINE
  8
0
 62
7
  6
CONTINUOUS
 10
364.6012229651
 20
31.1842968456
 11
363.9652852445
 21
31.1842968456
  0
LINE
  8
0
 62
7
  6
CONTINUOUS
 10
360.3230977445
 20
31.216560532
 11
360.6121602997
 21
31.216560532
  0
LINE
  8
0
 62
7
  6
CONTINUOUS
 10
363.1559103548
 20
31.2810879048
 11
363.4449727445
 21
31.2810879048
  0
LINE
  8
0
 62
7
  6
CONTINUOUS
 10
369.8621602445
 20
31.2810879048
 11
370.1512223035
 21
31.2810879048
  0
LINE
  8
0
 62
7
  6
CONTINUOUS
 10
363.8496603548
 20
31.4101426505
 11
364.1965353548
 21
31.4101426505
  0
LINE
  8
0
 62
7
  6
CONTINUOUS
 10
368.9949727445
 20
31.4101426505
 11
369.3418477445
 21
31.4101426505
  0
LINE
  8
0
 62
7
  6
CONTINUOUS
 10
369.3418477445
 20
31.5391973962
 11
368.9949727445
 21
31.5391973962
  0
LINE
  8
0
 62
7
  6
CONTINUOUS
 10
367.2605977445
 20
31.5391973962
 11
367.0293479651
 21
31.5391973962
  0
LINE
  8
0
 62
7
  6
CONTINUOUS
 10
366.5090354651
 20
31.5391973962
 11
366.2199727445
 21
31.5391973962
  0
LINE
  8
0
 62
7
  6
CONTINUOUS
 10
365.757472524
 20
31.5391973962
 11
365.4684104651
 21
31.5391973962
  0
LINE
  8
0
 62
7
  6
CONTINUOUS
 10
364.1965353548
 20
31.5391973962
 11
363.8496603548
 21
31.5391973962
  0
LINE
  8
0
 62
7
  6
CONTINUOUS
 10
362.1152853548
 20
31.5391973962
 11
361.8840352445
 21
31.5391973962
  0
LINE
  8
0
 62
7
  6
CONTINUOUS
 10
365.4684104651
 20
31.8618343508
 11
365.757472524
 21
31.8618343508
  0
LINE
  8
0
 62
7
  6
CONTINUOUS
 10
365.757472524
 20
32.0231527829
 11
365.4684104651
 21
32.0231527829
  0
LINE
  8
0
 62
7
  6
CONTINUOUS
 10
361.3637227445
 20
32.0231527829
 11
361.0746601894
 21
32.0231527829
  0
LINE
  8
0
 62
7
  6
CONTINUOUS
 10
360.4015045068
 20
32.3100380288
 11
360.8140758554
 21
32.3100380288
  0
LINE
  8
0
 62
7
  6
CONTINUOUS
 10
362.0408487691
 20
32.3100380288
 11
363.4342913921
 21
32.3100380288
  0
LINE
  8
0
 62
7
  6
CONTINUOUS
 10
363.7621602445
 20
32.3100380288
 11
365.1556028675
 21
32.3100380288
  0
LINE
  8
0
 62
7
  6
CONTINUOUS
 10
367.0408487691
 20
32.3100380288
 11
368.4342913921
 21
32.3100380288
  0
LINE
  8
0
 62
7
  6
CONTINUOUS
 10
368.7621602445
 20
32.3100380288
 11
370.1556028675
 21
32.3100380288
  0
LINE
  8
0
 62
7
  6
CONTINUOUS
 10
366.798097524
 20
31.5069337098
 11
366.624660024
 21
31.4424063369
  0
LINE
  8
0
 62
7
  6
CONTINUOUS
 10
364.369972524
 20
30.5390230296
 11
364.543410024
 21
30.6035504109
  0
LINE
  8
0
 62
7
  6
CONTINUOUS
 10
369.8043479651
 20
30.5390230296
 11
370.0355977445
 21
30.6035504109
  0
LINE
  8
0
 62
7
  6
CONTINUOUS
 10
369.8043479651
 20
30.7003414814
 11
369.6887227445
 21
30.668077795
  0
LINE
  8
0
 62
7
  6
CONTINUOUS
 10
368.7637229651
 20
31.3778789641
 11
368.9949727445
 21
31.4101426505
  0
LINE
  8
0
 62
7
  6
CONTINUOUS
 10
366.798097524
 20
31.3778789641
 11
367.0293479651
 21
31.4101426505
  0
LINE
  8
0
 62
7
  6
CONTINUOUS
 10
363.7340351343
 20
31.0229783683
 11
363.9652852445
 21
31.0552420547
  0
LINE
  8
0
 62
7
  6
CONTINUOUS
 10
367.0293479651
 20
31.5391973962
 11
366.798097524
 21
31.5069337098
  0
LINE
  8
0
 62
7
  6
CONTINUOUS
 10
363.6184102445
 20
31.3778789641
 11
363.8496603548
 21
31.4101426505
  0
LINE
  8
0
 62
7
  6
CONTINUOUS
 10
368.9949727445
 20
31.5391973962
 11
368.6480977445
 21
31.5069337098
  0
LINE
  8
0
 62
7
  6
CONTINUOUS
 10
363.9652852445
 20
31.1842968456
 11
363.6184102445
 21
31.1520331591
  0
LINE
  8
0
 62
7
  6
CONTINUOUS
 10
359.744972717
 20
31.5391973962
 11
359.3980977583
 21
31.5069337098
  0
LINE
  8
0
 62
7
  6
CONTINUOUS
 10
363.8496603548
 20
31.5391973962
 11
363.4449727445
 21
31.5069337098
  0
LINE
  8
0
 62
7
  6
CONTINUOUS
 10
361.221176638
 20
33.4575790124
 11
360.565438933
 21
33.4575790124
  0
LINE
  8
0
 62
7
  6
CONTINUOUS
 10
366.624660024
 20
31.3133515913
 11
366.798097524
 21
31.3778789641
  0
LINE
  8
0
 62
7
  6
CONTINUOUS
 10
368.6480977445
 20
31.3456152777
 11
368.7637229651
 21
31.3778789641
  0
LINE
  8
0
 62
7
  6
CONTINUOUS
 10
368.6480977445
 20
31.5069337098
 11
368.4168479651
 21
31.4424063369
  0
LINE
  8
0
 62
7
  6
CONTINUOUS
 10
364.369972524
 20
30.7003414814
 11
364.0809101343
 21
30.6358140973
  0
LINE
  8
0
 62
7
  6
CONTINUOUS
 10
361.6527851343
 20
31.3778789641
 11
361.8840352445
 21
31.4101426505
  0
LINE
  8
0
 62
7
  6
CONTINUOUS
 10
361.8840352445
 20
31.5391973962
 11
361.6527851343
 21
31.5069337098
  0
LINE
  8
0
 62
7
  6
CONTINUOUS
 10
359.4559102445
 20
31.3778789641
 11
359.6871602721
 21
31.4101426505
  0
LINE
  8
0
 62
7
  6
CONTINUOUS
 10
365.9752749986
 20
34.9329888485
 11
366.6310127035
 21
34.9329888485
  0
LINE
  8
0
 62
7
  6
CONTINUOUS
 10
363.6184102445
 20
30.9907146818
 11
363.7340351343
 21
31.0229783683
  0
LINE
  8
0
 62
7
  6
CONTINUOUS
 10
363.6184102445
 20
31.1520331591
 11
363.3871601343
 21
31.0875057863
  0
LINE
  8
0
 62
7
  6
CONTINUOUS
 10
363.5027853548
 20
31.3456152777
 11
363.6184102445
 21
31.3778789641
  0
LINE
  8
0
 62
7
  6
CONTINUOUS
 10
360.1496602445
 20
30.5390230296
 11
360.3809101894
 21
30.6035504109
  0
LINE
  8
0
 62
7
  6
CONTINUOUS
 10
363.4449727445
 20
31.5069337098
 11
363.3293478548
 21
31.4746700234
  0
LINE
  8
0
 62
7
  6
CONTINUOUS
 10
359.3980977583
 20
31.5069337098
 11
359.2246602583
 21
31.4746700234
  0
LINE
  8
0
 62
7
  6
CONTINUOUS
 10
370.1556028675
 20
36.0805298321
 11
368.7621602445
 21
36.0805298321
  0
LINE
  8
0
 62
7
  6
CONTINUOUS
 10
366.7949471298
 20
36.0805298321
 11
366.3823757812
 21
36.0805298321
  0
LINE
  8
0
 62
7
  6
CONTINUOUS
 10
365.1556028675
 20
36.0805298321
 11
363.7621602445
 21
36.0805298321
  0
LINE
  8
0
 62
7
  6
CONTINUOUS
 10
363.4342913921
 20
36.0805298321
 11
362.0408487691
 21
36.0805298321
  0
LINE
  8
0
 62
7
  6
CONTINUOUS
 10
360.1556028675
 20
36.0805298321
 11
358.7621602445
 21
36.0805298321
  0
LINE
  8
0
 62
7
  6
CONTINUOUS
 10
359.3402852307
 20
31.3456152777
 11
359.4559102445
 21
31.3778789641
  0
CIRCLE
  8
0
 62
7
  6
CONTINUOUS
 10
369.458881556
 20
38.4165954059
 40
2.0901639344
  0
ARC
  8
0
 62
7
  6
CONTINUOUS
 10
360.4015045068
 20
33.9493822911
 40
1.6393442623
 50
180.0
 51
270.0
  0
ARC
  8
0
 62
7
  6
CONTINUOUS
 10
366.7949471298
 20
34.4411855698
 40
1.6393442623
 50
0.0
 51
90.0
  0
ARC
  8
0
 62
7
  6
CONTINUOUS
 10
360.8140758554
 20
33.7854478649
 40
1.4754098361
 50
270.0
 51
326.2510114041
  0
ARC
  8
0
 62
7
  6
CONTINUOUS
 10
366.3823757812
 20
34.6051199961
 40
1.4754098361
 50
90.0
 51
146.2510114041
  0
ARC
  8
0
 62
7
  6
CONTINUOUS
 10
361.221176638
 20
34.2772511436
 40
0.8196721311
 50
270.0
 51
360.0
  0
ARC
  8
0
 62
7
  6
CONTINUOUS
 10
365.9752749986
 20
34.1133167174
 40
0.8196721311
 50
90.0
 51
180.0
  0
ARC
  8
0
 62
7
  6
CONTINUOUS
 10
360.565438933
 20
33.867415078
 40
0.4098360656
 50
180.0
 51
270.0
  0
ARC
  8
0
 62
7
  6
CONTINUOUS
 10
366.6310127035
 20
34.5231527829
 40
0.4098360656
 50
0.0
 51
90.0
  0
SOLID
  8
0
 62
7
  6
CONTINUOUS
 10
365.4684104651
 20
31.8618347111
 11
365.4684104651
 21
32.0231531947
 12
365.757472524
 22
31.8618347111
 13
365.757472524
 23
32.0231531947
  0
SOLID
  8
0
 62
7
  6
CONTINUOUS
 10
359.744972717
 20
31.5391977439
 11
360.1496602445
 21
31.5069333244
 12
359.3980977583
 22
31.5069333244
 13
359.3980977583
 23
31.5069333244
  0
SOLID
  8
0
 62
7
  6
CONTINUOUS
 10
359.2246602583
 20
31.4746706537
 11
359.3980977583
 21
31.5069333244
 12
360.1496602445
 22
31.5069333244
 13
360.1496602445
 23
31.5069333244
  0
SOLID
  8
0
 62
7
  6
CONTINUOUS
 10
360.1496602445
 20
31.5069333244
 11
360.3809101894
 21
31.4424063504
 12
359.2246602583
 22
31.4746706537
 13
359.2246602583
 23
31.4746706537
  0
SOLID
  8
0
 62
7
  6
CONTINUOUS
 10
359.0512227376
 20
31.4101419116
 11
359.2246602583
 21
31.4746706537
 12
360.3809101894
 22
31.4424063504
 13
360.3809101894
 23
31.4424063504
  0
SOLID
  8
0
 62
7
  6
CONTINUOUS
 10
359.0512227376
 20
31.4101419116
 11
360.3809101894
 21
31.4424063504
 12
359.6871602721
 22
31.4101419116
 13
359.6871602721
 23
31.4101419116
  0
SOLID
  8
0
 62
7
  6
CONTINUOUS
 10
359.6871602721
 20
31.4101419116
 11
360.3809101894
 21
31.4424063504
 12
360.091847717
 22
31.3778792603
 13
360.091847717
 23
31.3778792603
  0
SOLID
  8
0
 62
7
  6
CONTINUOUS
 10
360.3809101894
 20
31.4424063504
 11
360.5543476894
 21
31.345614957
 12
360.091847717
 22
31.3778792603
 13
360.091847717
 23
31.3778792603
  0
SOLID
  8
0
 62
7
  6
CONTINUOUS
 10
360.2652852997
 20
31.3133521701
 11
360.091847717
 21
31.3778792603
 12
360.5543476894
 22
31.345614957
 13
360.5543476894
 23
31.345614957
  0
SOLID
  8
0
 62
7
  6
CONTINUOUS
 10
360.2652852997
 20
31.3133521701
 11
360.5543476894
 21
31.345614957
 12
360.3230977445
 22
31.2165606992
 13
360.3230977445
 23
31.2165606992
  0
SOLID
  8
0
 62
7
  6
CONTINUOUS
 10
360.5543476894
 20
31.345614957
 11
360.6121602997
 21
31.2165606992
 12
360.3230977445
 22
31.2165606992
 13
360.3230977445
 23
31.2165606992
  0
SOLID
  8
0
 62
7
  6
CONTINUOUS
 10
361.6527851343
 20
31.5069329918
 11
361.8840352445
 21
31.5391972951
 12
362.1152853548
 22
31.5391972951
 13
362.1152853548
 23
31.5391972951
  0
SOLID
  8
0
 62
7
  6
CONTINUOUS
 10
362.1152853548
 20
31.5391972951
 11
362.2887228548
 21
31.5069329918
 12
361.6527851343
 22
31.5069329918
 13
361.6527851343
 23
31.5069329918
  0
SOLID
  8
0
 62
7
  6
CONTINUOUS
 10
361.4793477997
 20
31.4424059016
 11
361.6527851343
 21
31.5069329918
 12
362.2887228548
 22
31.5069329918
 13
362.2887228548
 23
31.5069329918
  0
SOLID
  8
0
 62
7
  6
CONTINUOUS
 10
362.2887228548
 20
31.5069329918
 11
362.4621603548
 21
31.4424059016
 12
361.4793477997
 22
31.4424059016
 13
361.4793477997
 23
31.4424059016
  0
SOLID
  8
0
 62
7
  6
CONTINUOUS
 10
362.4621603548
 20
31.4424059016
 11
361.8840352445
 21
31.4101420472
 12
361.4793477997
 22
31.4424059016
 13
361.4793477997
 23
31.4424059016
  0
SOLID
  8
0
 62
7
  6
CONTINUOUS
 10
361.3637227445
 20
31.3778788115
 11
361.4793477997
 21
31.4424059016
 12
361.8840352445
 22
31.4101420472
 13
361.8840352445
 23
31.4101420472
  0
SOLID
  8
0
 62
7
  6
CONTINUOUS
 10
361.8840352445
 20
31.4101420472
 11
361.6527851343
 21
31.3778788115
 12
361.3637227445
 22
31.3778788115
 13
361.3637227445
 23
31.3778788115
  0
SOLID
  8
0
 62
7
  6
CONTINUOUS
 10
361.8840352445
 20
31.4101420472
 11
362.4621603548
 21
31.4424059016
 12
362.1152853548
 22
31.3778788115
 13
362.1152853548
 23
31.3778788115
  0
SOLID
  8
0
 62
7
  6
CONTINUOUS
 10
362.4621603548
 20
31.4424059016
 11
362.5777852445
 21
31.3778788115
 12
362.1152853548
 22
31.3778788115
 13
362.1152853548
 23
31.3778788115
  0
SOLID
  8
0
 62
7
  6
CONTINUOUS
 10
362.2309102445
 20
31.345614957
 11
362.1152853548
 21
31.3778788115
 12
362.5777852445
 22
31.3778788115
 13
362.5777852445
 23
31.3778788115
  0
SOLID
  8
0
 62
7
  6
CONTINUOUS
 10
362.5777852445
 20
31.3778788115
 11
362.6355978548
 21
31.3133517213
 12
362.2309102445
 22
31.345614957
 13
362.2309102445
 23
31.345614957
  0
SOLID
  8
0
 62
7
  6
CONTINUOUS
 10
362.3465351343
 20
31.2810878668
 11
362.2309102445
 21
31.345614957
 12
362.6355978548
 22
31.3133517213
 13
362.6355978548
 23
31.3133517213
  0
SOLID
  8
0
 62
7
  6
CONTINUOUS
 10
362.3465351343
 20
31.2810878668
 11
362.6355978548
 21
31.3133517213
 12
362.4043477445
 22
31.1520332377
 13
362.4043477445
 23
31.1520332377
  0
SOLID
  8
0
 62
7
  6
CONTINUOUS
 10
362.6355978548
 20
31.3133517213
 11
362.6934101343
 21
31.1520332377
 12
362.4043477445
 22
31.1520332377
 13
362.4043477445
 23
31.1520332377
  0
SOLID
  8
0
 62
7
  6
CONTINUOUS
 10
361.6527851343
 20
31.3778788115
 11
361.4793477997
 21
31.3133517213
 12
361.3637227445
 22
31.3778788115
 13
361.3637227445
 23
31.3778788115
  0
SOLID
  8
0
 62
7
  6
CONTINUOUS
 10
361.4793477997
 20
31.3133517213
 11
361.3637227445
 21
31.2488235635
 12
361.3637227445
 22
31.3778788115
 13
361.3637227445
 23
31.3778788115
  0
SOLID
  8
0
 62
7
  6
CONTINUOUS
 10
361.3637227445
 20
31.2488235635
 11
361.0746601894
 21
30.5067593033
 12
361.3637227445
 22
31.3778788115
 13
361.3637227445
 23
31.3778788115
  0
SOLID
  8
0
 62
7
  6
CONTINUOUS
 10
361.3637227445
 20
31.3778788115
 11
361.0746601894
 21
30.5067593033
 12
361.3637227445
 22
32.0231527459
 13
361.3637227445
 23
32.0231527459
  0
SOLID
  8
0
 62
7
  6
CONTINUOUS
 10
361.0746601894
 20
30.5067593033
 11
361.0746601894
 21
32.0231527459
 12
361.3637227445
 22
32.0231527459
 13
361.3637227445
 23
32.0231527459
  0
SOLID
  8
0
 62
7
  6
CONTINUOUS
 10
361.3637227445
 20
31.2488235635
 11
361.3637227445
 21
30.5067593033
 12
361.0746601894
 22
30.5067593033
 13
361.0746601894
 23
30.5067593033
  0
SOLID
  8
0
 62
7
  6
CONTINUOUS
 10
362.4043477445
 20
30.5067593033
 11
362.4043477445
 21
31.1520332377
 12
362.6934101343
 22
31.1520332377
 13
362.6934101343
 23
31.1520332377
  0
SOLID
  8
0
 62
7
  6
CONTINUOUS
 10
362.6934101343
 20
31.1520332377
 11
362.6934101343
 21
30.5067593033
 12
362.4043477445
 22
30.5067593033
 13
362.4043477445
 23
30.5067593033
  0
SOLID
  8
0
 62
7
  6
CONTINUOUS
 10
363.4449727445
 20
31.506933758
 11
363.8496603548
 21
31.5391977507
 12
364.1965353548
 22
31.5391977507
 13
364.1965353548
 23
31.5391977507
  0
SOLID
  8
0
 62
7
  6
CONTINUOUS
 10
364.1965353548
 20
31.5391977507
 11
364.543410024
 21
31.506933758
 12
363.4449727445
 22
31.506933758
 13
363.4449727445
 23
31.506933758
  0
SOLID
  8
0
 62
7
  6
CONTINUOUS
 10
363.3293478548
 20
31.4746706537
 11
363.4449727445
 21
31.506933758
 12
364.543410024
 22
31.506933758
 13
364.543410024
 23
31.506933758
  0
SOLID
  8
0
 62
7
  6
CONTINUOUS
 10
364.543410024
 20
31.506933758
 11
364.716847524
 21
31.4424063504
 12
363.3293478548
 22
31.4746706537
 13
363.3293478548
 23
31.4746706537
  0
SOLID
  8
0
 62
7
  6
CONTINUOUS
 10
363.2137226343
 20
31.4101417797
 11
363.3293478548
 21
31.4746706537
 12
364.716847524
 22
31.4424063504
 13
364.716847524
 23
31.4424063504
  0
SOLID
  8
0
 62
7
  6
CONTINUOUS
 10
363.2137226343
 20
31.4101417797
 11
364.716847524
 21
31.4424063504
 12
363.8496603548
 22
31.4101417797
 13
363.8496603548
 23
31.4101417797
  0
SOLID
  8
0
 62
7
  6
CONTINUOUS
 10
363.8496603548
 20
31.4101417797
 11
364.716847524
 21
31.4424063504
 12
364.1965353548
 22
31.4101417797
 13
364.1965353548
 23
31.4101417797
  0
SOLID
  8
0
 62
7
  6
CONTINUOUS
 10
364.1965353548
 20
31.4101417797
 11
364.716847524
 21
31.4424063504
 12
364.4277854651
 22
31.3778793357
 13
364.4277854651
 23
31.3778793357
  0
SOLID
  8
0
 62
7
  6
CONTINUOUS
 10
364.716847524
 20
31.4424063504
 11
364.8324727445
 21
31.3778793357
 12
364.4277854651
 22
31.3778793357
 13
364.4277854651
 23
31.3778793357
  0
SOLID
  8
0
 62
7
  6
CONTINUOUS
 10
363.1559103548
 20
31.3456153429
 11
363.2137226343
 21
31.4101417797
 12
363.8496603548
 22
31.4101417797
 13
363.8496603548
 23
31.4101417797
  0
SOLID
  8
0
 62
7
  6
CONTINUOUS
 10
364.543410024
 20
31.3456153429
 11
364.4277854651
 21
31.3778793357
 12
364.8324727445
 22
31.3778793357
 13
364.8324727445
 23
31.3778793357
  0
SOLID
  8
0
 62
7
  6
CONTINUOUS
 10
364.543410024
 20
31.3456153429
 11
364.8324727445
 21
31.3778793357
 12
364.6012229651
 22
31.2810881318
 13
364.6012229651
 23
31.2810881318
  0
SOLID
  8
0
 62
7
  6
CONTINUOUS
 10
364.8324727445
 20
31.3778793357
 11
364.890285024
 21
31.2810881318
 12
364.6012229651
 22
31.2810881318
 13
364.6012229651
 23
31.2810881318
  0
SOLID
  8
0
 62
7
  6
CONTINUOUS
 10
364.6012229651
 20
31.1842964734
 11
364.6012229651
 21
31.2810881318
 12
364.890285024
 22
31.2810881318
 13
364.890285024
 23
31.2810881318
  0
SOLID
  8
0
 62
7
  6
CONTINUOUS
 10
364.6012229651
 20
31.1842964734
 11
364.890285024
 21
31.2810881318
 12
364.6012229651
 22
31.0552422931
 13
364.6012229651
 23
31.0552422931
  0
SOLID
  8
0
 62
7
  6
CONTINUOUS
 10
364.6012229651
 20
31.0552422931
 11
364.890285024
 21
31.2810881318
 12
364.6012229651
 22
30.8616599362
 13
364.6012229651
 23
30.8616599362
  0
SOLID
  8
0
 62
7
  6
CONTINUOUS
 10
364.890285024
 20
31.2810881318
 11
364.890285024
 21
30.7648681127
 12
364.6012229651
 22
30.8616599362
 13
364.6012229651
 23
30.8616599362
  0
SOLID
  8
0
 62
7
  6
CONTINUOUS
 10
366.798097524
 20
31.5069339419
 11
367.0293479651
 21
31.5391976292
 12
367.2605977445
 22
31.5391976292
 13
367.2605977445
 23
31.5391976292
  0
SOLID
  8
0
 62
7
  6
CONTINUOUS
 10
367.2605977445
 20
31.5391976292
 11
367.4340352445
 21
31.5069339419
 12
366.798097524
 22
31.5069339419
 13
366.798097524
 23
31.5069339419
  0
SOLID
  8
0
 62
7
  6
CONTINUOUS
 10
366.624660024
 20
31.4424065674
 11
366.798097524
 21
31.5069339419
 12
367.4340352445
 22
31.5069339419
 13
367.4340352445
 23
31.5069339419
  0
SOLID
  8
0
 62
7
  6
CONTINUOUS
 10
367.4340352445
 20
31.5069339419
 11
367.6074727445
 21
31.4424065674
 12
366.624660024
 22
31.4424065674
 13
366.624660024
 23
31.4424065674
  0
SOLID
  8
0
 62
7
  6
CONTINUOUS
 10
367.6074727445
 20
31.4424065674
 11
367.0293479651
 21
31.4101420472
 12
366.624660024
 22
31.4424065674
 13
366.624660024
 23
31.4424065674
  0
SOLID
  8
0
 62
7
  6
CONTINUOUS
 10
366.5090354651
 20
31.377879193
 11
366.624660024
 21
31.4424065674
 12
367.0293479651
 22
31.4101420472
 13
367.0293479651
 23
31.4101420472
  0
SOLID
  8
0
 62
7
  6
CONTINUOUS
 10
367.0293479651
 20
31.4101420472
 11
366.798097524
 21
31.377879193
 12
366.5090354651
 22
31.377879193
 13
366.5090354651
 23
31.377879193
  0
SOLID
  8
0
 62
7
  6
CONTINUOUS
 10
367.0293479651
 20
31.4101420472
 11
367.6074727445
 21
31.4424065674
 12
367.2605977445
 22
31.377879193
 13
367.2605977445
 23
31.377879193
  0
SOLID
  8
0
 62
7
  6
CONTINUOUS
 10
367.6074727445
 20
31.4424065674
 11
367.7230979651
 21
31.377879193
 12
367.2605977445
 22
31.377879193
 13
367.2605977445
 23
31.377879193
  0
SOLID
  8
0
 62
7
  6
CONTINUOUS
 10
367.3762229651
 20
31.345614957
 11
367.2605977445
 21
31.377879193
 12
367.7230979651
 22
31.377879193
 13
367.7230979651
 23
31.377879193
  0
SOLID
  8
0
 62
7
  6
CONTINUOUS
 10
367.3762229651
 20
31.345614957
 11
367.7230979651
 21
31.377879193
 12
367.491847524
 22
31.2810881312
 13
367.491847524
 23
31.2810881312
  0
SOLID
  8
0
 62
7
  6
CONTINUOUS
 10
367.7230979651
 20
31.377879193
 11
367.7809102445
 21
31.2810881312
 12
367.491847524
 22
31.2810881312
 13
367.491847524
 23
31.2810881312
  0
SOLID
  8
0
 62
7
  6
CONTINUOUS
 10
367.5496604651
 20
31.119769695
 11
367.491847524
 21
31.2810881312
 12
367.7809102445
 22
31.2810881312
 13
367.7809102445
 23
31.2810881312
  0
SOLID
  8
0
 62
7
  6
CONTINUOUS
 10
367.7809102445
 20
31.2810881312
 11
367.838722524
 21
31.119769695
 12
367.5496604651
 22
31.119769695
 13
367.5496604651
 23
31.119769695
  0
SOLID
  8
0
 62
7
  6
CONTINUOUS
 10
366.798097524
 20
31.377879193
 11
366.624660024
 21
31.3133521701
 12
366.5090354651
 22
31.377879193
 13
366.5090354651
 23
31.377879193
  0
SOLID
  8
0
 62
7
  6
CONTINUOUS
 10
366.624660024
 20
31.3133521701
 11
366.5090354651
 21
31.2488235635
 12
366.5090354651
 22
31.377879193
 13
366.5090354651
 23
31.377879193
  0
SOLID
  8
0
 62
7
  6
CONTINUOUS
 10
366.5090354651
 20
31.2488235635
 11
366.2199727445
 21
30.5067596374
 12
366.5090354651
 22
31.377879193
 13
366.5090354651
 23
31.377879193
  0
SOLID
  8
0
 62
7
  6
CONTINUOUS
 10
366.5090354651
 20
31.377879193
 11
366.2199727445
 21
30.5067596374
 12
366.5090354651
 22
31.5391976292
 13
366.5090354651
 23
31.5391976292
  0
SOLID
  8
0
 62
7
  6
CONTINUOUS
 10
366.2199727445
 20
30.5067596374
 11
366.2199727445
 21
31.5391976292
 12
366.5090354651
 22
31.5391976292
 13
366.5090354651
 23
31.5391976292
  0
SOLID
  8
0
 62
7
  6
CONTINUOUS
 10
366.5090354651
 20
31.2488235635
 11
366.5090354651
 21
30.5067596374
 12
366.2199727445
 22
30.5067596374
 13
366.2199727445
 23
30.5067596374
  0
SOLID
  8
0
 62
7
  6
CONTINUOUS
 10
367.5496604651
 20
30.5067596374
 11
367.5496604651
 21
31.119769695
 12
367.838722524
 22
31.119769695
 13
367.838722524
 23
31.119769695
  0
SOLID
  8
0
 62
7
  6
CONTINUOUS
 10
367.838722524
 20
31.119769695
 11
367.838722524
 21
30.5067596374
 12
367.5496604651
 22
30.5067596374
 13
367.5496604651
 23
30.5067596374
  0
SOLID
  8
0
 62
7
  6
CONTINUOUS
 10
368.6480977445
 20
31.5069334157
 11
368.9949727445
 21
31.539197762
 12
369.3418477445
 22
31.539197762
 13
369.3418477445
 23
31.539197762
  0
SOLID
  8
0
 62
7
  6
CONTINUOUS
 10
369.3418477445
 20
31.539197762
 11
369.6887227445
 21
31.5069334157
 12
368.6480977445
 22
31.5069334157
 13
368.6480977445
 23
31.5069334157
  0
SOLID
  8
0
 62
7
  6
CONTINUOUS
 10
368.4168479651
 20
31.4424063504
 11
368.6480977445
 21
31.5069334157
 12
369.6887227445
 22
31.5069334157
 13
369.6887227445
 23
31.5069334157
  0
SOLID
  8
0
 62
7
  6
CONTINUOUS
 10
368.4168479651
 20
31.4424063504
 11
369.6887227445
 21
31.5069334406
 12
369.8621602445
 22
31.4746706537
 13
369.8621602445
 23
31.4746706537
  0
SOLID
  8
0
 62
7
  6
CONTINUOUS
 10
368.4168479651
 20
31.4424063504
 11
369.8621602445
 21
31.4746706537
 12
368.9949727445
 22
31.4101421267
 13
368.9949727445
 23
31.4101421267
  0
SOLID
  8
0
 62
7
  6
CONTINUOUS
 10
368.9949727445
 20
31.4101421267
 11
369.8621602445
 21
31.4746706537
 12
369.3418477445
 22
31.4101421267
 13
369.3418477445
 23
31.4101421267
  0
SOLID
  8
0
 62
7
  6
CONTINUOUS
 10
369.8621602445
 20
31.4746706537
 11
370.0355977445
 21
31.4101421267
 12
369.3418477445
 22
31.4101421267
 13
369.3418477445
 23
31.4101421267
  0
SOLID
  8
0
 62
7
  6
CONTINUOUS
 10
369.6887227445
 20
31.3778792603
 11
369.3418477445
 21
31.4101421267
 12
370.0355977445
 22
31.4101421267
 13
370.0355977445
 23
31.4101421267
  0
SOLID
  8
0
 62
7
  6
CONTINUOUS
 10
368.3012227445
 20
31.3456148845
 11
368.4168479651
 21
31.4424063504
 12
368.9949727445
 22
31.4101421267
 13
368.9949727445
 23
31.4101421267
  0
SOLID
  8
0
 62
7
  6
CONTINUOUS
 10
369.6887227445
 20
31.3778792603
 11
370.0355977445
 21
31.4101421267
 12
369.8043479651
 22
31.3456148845
 13
369.8043479651
 23
31.3456148845
  0
SOLID
  8
0
 62
7
  6
CONTINUOUS
 10
369.8043479651
 20
31.3456148845
 11
370.0355977445
 21
31.4101421267
 12
369.8621602445
 22
31.281087868
 13
369.8621602445
 23
31.281087868
  0
SOLID
  8
0
 62
7
  6
CONTINUOUS
 10
370.0355977445
 20
31.4101421267
 11
370.1512223035
 21
31.281087868
 12
369.8621602445
 22
31.281087868
 13
369.8621602445
 23
31.281087868
  0
SOLID
  8
0
 62
7
  6
CONTINUOUS
 10
359.4559102445
 20
31.3778792603
 11
358.9355977445
 21
31.3456148963
 12
359.6871602721
 22
31.4101421155
 13
359.6871602721
 23
31.4101421155
  0
SOLID
  8
0
 62
7
  6
CONTINUOUS
 10
358.9355977445
 20
31.3456148963
 11
359.0512227376
 21
31.4101421155
 12
359.6871602721
 22
31.4101421155
 13
359.6871602721
 23
31.4101421155
  0
SOLID
  8
0
 62
7
  6
CONTINUOUS
 10
359.4559102445
 20
31.3778792603
 11
359.3402852307
 21
31.3456148963
 12
358.9355977445
 22
31.3456148963
 13
358.9355977445
 23
31.3456148963
  0
SOLID
  8
0
 62
7
  6
CONTINUOUS
 10
358.8199727462
 20
31.2165607767
 11
358.9355977445
 21
31.3456148963
 12
359.3402852307
 22
31.3456148963
 13
359.3402852307
 23
31.3456148963
  0
SOLID
  8
0
 62
7
  6
CONTINUOUS
 10
363.1559103548
 20
31.3456149608
 11
363.8496603548
 21
31.4101420472
 12
363.6184102445
 22
31.3778792603
 13
363.6184102445
 23
31.3778792603
  0
SOLID
  8
0
 62
7
  6
CONTINUOUS
 10
363.6184102445
 20
31.3778792603
 11
363.5027853548
 21
31.3456149608
 12
363.1559103548
 22
31.3456149608
 13
363.1559103548
 23
31.3456149608
  0
SOLID
  8
0
 62
7
  6
CONTINUOUS
 10
363.1559103548
 20
31.2810878707
 11
363.1559103548
 21
31.3456149608
 12
363.5027853548
 22
31.3456149608
 13
363.5027853548
 23
31.3456149608
  0
SOLID
  8
0
 62
7
  6
CONTINUOUS
 10
363.5027853548
 20
31.3456149608
 11
363.4449727445
 21
31.2810878707
 12
363.1559103548
 22
31.2810878707
 13
363.1559103548
 23
31.2810878707
  0
SOLID
  8
0
 62
7
  6
CONTINUOUS
 10
368.3012227445
 20
31.3456149608
 11
368.9949727445
 21
31.4101420472
 12
368.7637229651
 22
31.3778792603
 13
368.7637229651
 23
31.3778792603
  0
SOLID
  8
0
 62
7
  6
CONTINUOUS
 10
368.7637229651
 20
31.3778792603
 11
368.6480977445
 21
31.3456149608
 12
368.3012227445
 22
31.3456149608
 13
368.3012227445
 23
31.3456149608
  0
SOLID
  8
0
 62
7
  6
CONTINUOUS
 10
368.3012227445
 20
31.2810878707
 11
368.3012227445
 21
31.3456149608
 12
368.6480977445
 22
31.3456149608
 13
368.6480977445
 23
31.3456149608
  0
SOLID
  8
0
 62
7
  6
CONTINUOUS
 10
368.6480977445
 20
31.3456149608
 11
368.5902854651
 21
31.2810878707
 12
368.3012227445
 22
31.2810878707
 13
368.3012227445
 23
31.2810878707
  0
SOLID
  8
0
 62
7
  6
CONTINUOUS
 10
368.4168479651
 20
31.1520336865
 11
368.3012227445
 21
31.2810878707
 12
368.5902854651
 22
31.2810878707
 13
368.5902854651
 23
31.2810878707
  0
SOLID
  8
0
 62
7
  6
CONTINUOUS
 10
358.8199727462
 20
31.2165607767
 11
359.3402852307
 21
31.345614957
 12
359.1668477307
 22
31.2488235635
 13
359.1668477307
 23
31.2488235635
  0
SOLID
  8
0
 62
7
  6
CONTINUOUS
 10
359.1668477307
 20
31.2488235635
 11
359.1090352445
 21
31.1842964734
 12
358.8199727462
 22
31.2165607767
 13
358.8199727462
 23
31.2165607767
  0
SOLID
  8
0
 62
7
  6
CONTINUOUS
 10
358.7621602445
 20
31.0229779898
 11
358.8199727462
 21
31.2165607767
 12
359.1090352445
 22
31.1842964734
 13
359.1090352445
 23
31.1842964734
  0
SOLID
  8
0
 62
7
  6
CONTINUOUS
 10
363.6184102445
 20
31.1520336865
 11
363.9652852445
 21
31.1842964611
 12
364.6012229651
 22
31.1842964611
 13
364.6012229651
 23
31.1842964611
  0
SOLID
  8
0
 62
7
  6
CONTINUOUS
 10
363.6184102445
 20
31.1520336865
 11
364.6012229651
 21
31.1842964611
 12
363.3871601343
 22
31.0875057863
 13
363.3871601343
 23
31.0875057863
  0
SOLID
  8
0
 62
7
  6
CONTINUOUS
 10
363.3871601343
 20
31.0875057863
 11
364.6012229651
 21
31.1842964611
 12
363.9652852445
 22
31.0552422808
 13
363.9652852445
 23
31.0552422808
  0
SOLID
  8
0
 62
7
  6
CONTINUOUS
 10
364.6012229651
 20
31.1842964611
 11
364.6012229651
 21
31.0552422808
 12
363.9652852445
 22
31.0552422808
 13
363.9652852445
 23
31.0552422808
  0
SOLID
  8
0
 62
7
  6
CONTINUOUS
 10
368.4168479651
 20
31.1520338754
 11
368.5902854651
 21
31.2810878668
 12
368.6480977445
 22
31.2165607767
 13
368.6480977445
 23
31.2165607767
  0
SOLID
  8
0
 62
7
  6
CONTINUOUS
 10
368.6480977445
 20
31.2165607767
 11
368.8215352445
 21
31.1520338754
 12
368.4168479651
 22
31.1520338754
 13
368.4168479651
 23
31.1520338754
  0
SOLID
  8
0
 62
7
  6
CONTINUOUS
 10
368.6480977445
 20
31.0552422931
 11
368.4168479651
 21
31.1520338754
 12
368.8215352445
 22
31.1520338754
 13
368.8215352445
 23
31.1520338754
  0
SOLID
  8
0
 62
7
  6
CONTINUOUS
 10
368.8215352445
 20
31.1520338754
 11
369.8043479651
 21
30.9907152029
 12
368.6480977445
 22
31.0552422931
 13
368.6480977445
 23
31.0552422931
  0
SOLID
  8
0
 62
7
  6
CONTINUOUS
 10
369.6309104651
 20
30.8939239876
 11
368.6480977445
 21
31.0552422931
 12
369.8043479651
 22
30.9907152029
 13
369.8043479651
 23
30.9907152029
  0
SOLID
  8
0
 62
7
  6
CONTINUOUS
 10
369.8043479651
 20
30.9907152029
 11
370.0355977445
 21
30.8939239876
 12
369.6309104651
 22
30.8939239876
 13
369.6309104651
 23
30.8939239876
  0
SOLID
  8
0
 62
7
  6
CONTINUOUS
 10
369.8043479651
 20
30.8293967193
 11
369.6309104651
 21
30.8939239876
 12
370.0355977445
 22
30.8939239876
 13
370.0355977445
 23
30.8939239876
  0
SOLID
  8
0
 62
7
  6
CONTINUOUS
 10
369.8043479651
 20
30.8293967193
 11
370.0355977445
 21
30.8939239876
 12
369.8621602445
 22
30.7648682694
 13
369.8621602445
 23
30.7648682694
  0
SOLID
  8
0
 62
7
  6
CONTINUOUS
 10
370.0355977445
 20
30.8939239876
 11
370.1512223035
 21
30.7648682694
 12
369.8621602445
 22
30.7648682694
 13
369.8621602445
 23
30.7648682694
  0
SOLID
  8
0
 62
7
  6
CONTINUOUS
 10
369.8043479651
 20
30.7003411846
 11
369.8621602445
 21
30.7648682694
 12
370.1512223035
 22
30.7648682694
 13
370.1512223035
 23
30.7648682694
  0
SOLID
  8
0
 62
7
  6
CONTINUOUS
 10
370.1512223035
 20
30.7648682694
 11
370.1512223035
 21
30.7003411846
 12
369.8043479651
 22
30.7003411846
 13
369.8043479651
 23
30.7003411846
  0
SOLID
  8
0
 62
7
  6
CONTINUOUS
 10
369.6887227445
 20
30.6680782357
 11
369.8043479651
 21
30.7003411846
 12
370.1512223035
 22
30.7003411846
 13
370.1512223035
 23
30.7003411846
  0
SOLID
  8
0
 62
7
  6
CONTINUOUS
 10
369.6887227445
 20
30.6680782357
 11
370.1512223035
 21
30.7003411846
 12
369.4574729651
 22
30.6358140998
 13
369.4574729651
 23
30.6358140998
  0
SOLID
  8
0
 62
7
  6
CONTINUOUS
 10
370.1512223035
 20
30.7003411846
 11
370.0355977445
 21
30.6035511455
 12
369.4574729651
 22
30.6358140998
 13
369.4574729651
 23
30.6358140998
  0
SOLID
  8
0
 62
7
  6
CONTINUOUS
 10
370.0355977445
 20
30.6035511455
 11
368.5902854651
 21
30.5712868422
 12
369.4574729651
 22
30.6358140998
 13
369.4574729651
 23
30.6358140998
  0
SOLID
  8
0
 62
7
  6
CONTINUOUS
 10
369.4574729651
 20
30.6358140998
 11
368.5902854651
 21
30.5712868422
 12
369.1105979651
 22
30.6358140998
 13
369.1105979651
 23
30.6358140998
  0
SOLID
  8
0
 62
7
  6
CONTINUOUS
 10
368.5902854651
 20
30.5712868422
 11
368.4168479651
 21
30.6358140998
 12
369.1105979651
 22
30.6358140998
 13
369.1105979651
 23
30.6358140998
  0
SOLID
  8
0
 62
7
  6
CONTINUOUS
 10
368.5902854651
 20
30.5712868422
 11
370.0355977445
 21
30.6035511455
 12
368.7637229651
 22
30.5390223111
 13
368.7637229651
 23
30.5390223111
  0
SOLID
  8
0
 62
7
  6
CONTINUOUS
 10
370.0355977445
 20
30.6035511455
 11
369.8043479651
 21
30.5390223111
 12
368.7637229651
 22
30.5390223111
 13
368.7637229651
 23
30.5390223111
  0
SOLID
  8
0
 62
7
  6
CONTINUOUS
 10
369.1105979651
 20
30.5067599302
 11
368.7637229651
 21
30.5390223111
 12
369.8043479651
 22
30.5390223111
 13
369.8043479651
 23
30.5390223111
  0
SOLID
  8
0
 62
7
  6
CONTINUOUS
 10
369.8043479651
 20
30.5390223111
 11
369.4574729651
 21
30.5067599302
 12
369.1105979651
 22
30.5067599302
 13
369.1105979651
 23
30.5067599302
  0
SOLID
  8
0
 62
7
  6
CONTINUOUS
 10
358.7621602445
 20
31.0229779898
 11
359.1090352445
 21
31.1842964734
 12
359.0512227376
 22
31.0552422931
 13
359.0512227376
 23
31.0552422931
  0
SOLID
  8
0
 62
7
  6
CONTINUOUS
 10
359.0512227376
 20
31.0552422931
 11
359.0512227376
 21
30.9584509954
 12
358.7621602445
 22
31.0229779898
 13
358.7621602445
 23
31.0229779898
  0
SOLID
  8
0
 62
7
  6
CONTINUOUS
 10
358.8199727462
 20
30.8293967193
 11
358.7621602445
 21
31.0229779898
 12
359.0512227376
 22
30.9584509954
 13
359.0512227376
 23
30.9584509954
  0
SOLID
  8
0
 62
7
  6
CONTINUOUS
 10
359.0512227376
 20
30.9584509954
 11
359.1668477307
 21
30.797132416
 12
358.8199727462
 22
30.8293967193
 13
358.8199727462
 23
30.8293967193
  0
SOLID
  8
0
 62
7
  6
CONTINUOUS
 10
358.9355977445
 20
30.7003413087
 11
358.8199727462
 21
30.8293967193
 12
359.1668477307
 22
30.797132416
 13
359.1668477307
 23
30.797132416
  0
SOLID
  8
0
 62
7
  6
CONTINUOUS
 10
359.1668477307
 20
30.797132416
 11
359.3402852307
 21
30.7003413087
 12
358.9355977445
 22
30.7003413087
 13
358.9355977445
 23
30.7003413087
  0
SOLID
  8
0
 62
7
  6
CONTINUOUS
 10
359.0512227376
 20
30.6358140759
 11
358.9355977445
 21
30.7003413087
 12
359.3402852307
 22
30.7003413087
 13
359.3402852307
 23
30.7003413087
  0
SOLID
  8
0
 62
7
  6
CONTINUOUS
 10
359.3402852307
 20
30.7003413087
 11
359.6871602721
 21
30.6358140759
 12
359.0512227376
 22
30.6358140759
 13
359.0512227376
 23
30.6358140759
  0
SOLID
  8
0
 62
7
  6
CONTINUOUS
 10
359.2246602583
 20
30.5712868422
 11
359.0512227376
 21
30.6358140759
 12
359.6871602721
 22
30.6358140759
 13
359.6871602721
 23
30.6358140759
  0
SOLID
  8
0
 62
7
  6
CONTINUOUS
 10
363.2715352445
 20
31.0229779808
 11
363.3871601343
 21
31.0875057863
 12
363.9652852445
 22
31.0552422931
 13
363.9652852445
 23
31.0552422931
  0
SOLID
  8
0
 62
7
  6
CONTINUOUS
 10
363.9652852445
 20
31.0552422931
 11
363.7340351343
 21
31.0229779808
 12
363.2715352445
 22
31.0229779808
 13
363.2715352445
 23
31.0229779808
  0
SOLID
  8
0
 62
7
  6
CONTINUOUS
 10
363.1559103548
 20
30.8939238094
 11
363.2715352445
 21
31.0229779808
 12
363.7340351343
 22
31.0229779808
 13
363.7340351343
 23
31.0229779808
  0
SOLID
  8
0
 62
7
  6
CONTINUOUS
 10
363.5027853548
 20
30.926187309
 11
363.1559103548
 21
30.8939238094
 12
363.6184102445
 22
30.9907152029
 13
363.6184102445
 23
30.9907152029
  0
SOLID
  8
0
 62
7
  6
CONTINUOUS
 10
363.1559103548
 20
30.8939238094
 11
363.7340351343
 21
31.0229779898
 12
363.6184102445
 22
30.9907152029
 13
363.6184102445
 23
30.9907152029
  0
SOLID
  8
0
 62
7
  6
CONTINUOUS
 10
363.5027853548
 20
30.926187309
 11
363.4449727445
 21
30.8293967193
 12
363.1559103548
 22
30.8939238094
 13
363.1559103548
 23
30.8939238094
  0
SOLID
  8
0
 62
7
  6
CONTINUOUS
 10
363.1559103548
 20
30.797132416
 11
363.1559103548
 21
30.8939238094
 12
363.4449727445
 22
30.8293967193
 13
363.4449727445
 23
30.8293967193
  0
SOLID
  8
0
 62
7
  6
CONTINUOUS
 10
363.4449727445
 20
30.8293967193
 11
363.4449727445
 21
30.7648681127
 12
363.1559103548
 22
30.797132416
 13
363.1559103548
 23
30.797132416
  0
SOLID
  8
0
 62
7
  6
CONTINUOUS
 10
363.2137226343
 20
30.6680782357
 11
363.1559103548
 21
30.797132416
 12
363.4449727445
 22
30.7648681127
 13
363.4449727445
 23
30.7648681127
  0
SOLID
  8
0
 62
7
  6
CONTINUOUS
 10
364.6012229651
 20
30.8616599362
 11
364.890285024
 21
30.7648681127
 12
364.543410024
 22
30.797132416
 13
364.543410024
 23
30.797132416
  0
SOLID
  8
0
 62
7
  6
CONTINUOUS
 10
364.369972524
 20
30.7003410226
 11
364.543410024
 21
30.797132416
 12
364.890285024
 22
30.7648681127
 13
364.890285024
 23
30.7648681127
  0
SOLID
  8
0
 62
7
  6
CONTINUOUS
 10
364.369972524
 20
30.7003410226
 11
364.890285024
 21
30.7648681127
 12
364.6012229651
 22
30.6680782357
 13
364.6012229651
 23
30.6680782357
  0
SOLID
  8
0
 62
7
  6
CONTINUOUS
 10
364.890285024
 20
30.7648681127
 11
364.9480979651
 21
30.6035511455
 12
364.6012229651
 22
30.6680782357
 13
364.6012229651
 23
30.6680782357
  0
SOLID
  8
0
 62
7
  6
CONTINUOUS
 10
364.6590352445
 20
30.5712868422
 11
364.6012229651
 21
30.6680782357
 12
364.9480979651
 22
30.6035511455
 13
364.9480979651
 23
30.6035511455
  0
SOLID
  8
0
 62
7
  6
CONTINUOUS
 10
364.6590352445
 20
30.5712868422
 11
364.9480979651
 21
30.6035511455
 12
364.716847524
 22
30.5067598731
 13
364.716847524
 23
30.5067598731
  0
SOLID
  8
0
 62
7
  6
CONTINUOUS
 10
364.9480979651
 20
30.6035511455
 11
365.0059102445
 21
30.5067598731
 12
364.716847524
 22
30.5067598731
 13
364.716847524
 23
30.5067598731
  0
SOLID
  8
0
 62
7
  6
CONTINUOUS
 10
360.2652852997
 20
30.7326051679
 11
360.3230977445
 21
30.8293966612
 12
360.6121602997
 22
30.8293966612
 13
360.6121602997
 23
30.8293966612
  0
SOLID
  8
0
 62
7
  6
CONTINUOUS
 10
360.6121602997
 20
30.8293966612
 11
360.5543476894
 21
30.7003410226
 12
360.2652852997
 22
30.7326051679
 13
360.2652852997
 23
30.7326051679
  0
SOLID
  8
0
 62
7
  6
CONTINUOUS
 10
360.091847717
 20
30.6680782357
 11
360.2652852997
 21
30.7326051679
 12
360.5543476894
 22
30.7003410226
 13
360.5543476894
 23
30.7003410226
  0
SOLID
  8
0
 62
7
  6
CONTINUOUS
 10
360.091847717
 20
30.6680782357
 11
360.5543476894
 21
30.7003410226
 12
359.6871602721
 22
30.6358139324
 13
359.6871602721
 23
30.6358139324
  0
SOLID
  8
0
 62
7
  6
CONTINUOUS
 10
360.5543476894
 20
30.7003410226
 11
360.3809101894
 21
30.6035511455
 12
359.6871602721
 22
30.6358139324
 13
359.6871602721
 23
30.6358139324
  0
SOLID
  8
0
 62
7
  6
CONTINUOUS
 10
359.2246602583
 20
30.5712868422
 11
359.6871602721
 21
30.6358139324
 12
360.3809101894
 22
30.6035511455
 13
360.3809101894
 23
30.6035511455
  0
SOLID
  8
0
 62
7
  6
CONTINUOUS
 10
359.2246602583
 20
30.5712868422
 11
360.3809101894
 21
30.6035511455
 12
359.3980977583
 22
30.5390224228
 13
359.3980977583
 23
30.5390224228
  0
SOLID
  8
0
 62
7
  6
CONTINUOUS
 10
360.3809101894
 20
30.6035511455
 11
360.1496602445
 21
30.5390224228
 12
359.3980977583
 22
30.5390224228
 13
359.3980977583
 23
30.5390224228
  0
SOLID
  8
0
 62
7
  6
CONTINUOUS
 10
359.744972717
 20
30.5067597521
 11
359.3980977583
 21
30.5390224228
 12
360.1496602445
 22
30.5390224228
 13
360.1496602445
 23
30.5390224228
  0
SOLID
  8
0
 62
7
  6
CONTINUOUS
 10
363.2137226343
 20
30.6680782357
 11
363.4449727445
 21
30.7648681127
 12
363.5027853548
 22
30.7003410226
 13
363.5027853548
 23
30.7003410226
  0
SOLID
  8
0
 62
7
  6
CONTINUOUS
 10
363.5027853548
 20
30.7003410226
 11
363.7340351343
 21
30.6358139324
 12
363.2137226343
 22
30.6680782357
 13
363.2137226343
 23
30.6680782357
  0
SOLID
  8
0
 62
7
  6
CONTINUOUS
 10
363.3871601343
 20
30.5712868422
 11
363.2137226343
 21
30.6680782357
 12
363.7340351343
 22
30.6358139324
 13
363.7340351343
 23
30.6358139324
  0
SOLID
  8
0
 62
7
  6
CONTINUOUS
 10
364.0809101343
 20
30.6358139363
 11
364.369972524
 21
30.7003410226
 12
364.6012229651
 22
30.6680782357
 13
364.6012229651
 23
30.6680782357
  0
SOLID
  8
0
 62
7
  6
CONTINUOUS
 10
364.6012229651
 20
30.6680782357
 11
364.543410024
 21
30.6035511455
 12
364.0809101343
 22
30.6358139363
 13
364.0809101343
 23
30.6358139363
  0
SOLID
  8
0
 62
7
  6
CONTINUOUS
 10
364.543410024
 20
30.6035511455
 11
363.3871601343
 21
30.5712868422
 12
364.0809101343
 22
30.6358139363
 13
364.0809101343
 23
30.6358139363
  0
SOLID
  8
0
 62
7
  6
CONTINUOUS
 10
363.3871601343
 20
30.5712868422
 11
363.7340351343
 21
30.6358139363
 12
364.0809101343
 22
30.6358139363
 13
364.0809101343
 23
30.6358139363
  0
SOLID
  8
0
 62
7
  6
CONTINUOUS
 10
363.3871601343
 20
30.5712868422
 11
364.543410024
 21
30.6035511455
 12
363.5027853548
 22
30.5390225267
 13
363.5027853548
 23
30.5390225267
  0
SOLID
  8
0
 62
7
  6
CONTINUOUS
 10
364.543410024
 20
30.6035511455
 11
364.369972524
 21
30.5390225267
 12
363.5027853548
 22
30.5390225267
 13
363.5027853548
 23
30.5390225267
  0
SOLID
  8
0
 62
7
  6
CONTINUOUS
 10
363.7340351343
 20
30.5067596914
 11
363.5027853548
 21
30.5390225267
 12
364.369972524
 22
30.5390225267
 13
364.369972524
 23
30.5390225267
  0
SOLID
  8
0
 62
7
  6
CONTINUOUS
 10
364.369972524
 20
30.5390225267
 11
364.0809101343
 21
30.5067596914
 12
363.7340351343
 22
30.5067596914
 13
363.7340351343
 23
30.5067596914
  0
SOLID
  8
0
 62
7
  6
CONTINUOUS
 10
368.7637229651
 20
30.6680782357
 11
368.4168479651
 21
30.6358138717
 12
368.6480977445
 22
30.7003410226
 13
368.6480977445
 23
30.7003410226
  0
SOLID
  8
0
 62
7
  6
CONTINUOUS
 10
368.6480977445
 20
30.7003410226
 11
368.4168479651
 21
30.6358138717
 12
368.5902854651
 22
30.7648680521
 13
368.5902854651
 23
30.7648680521
  0
SOLID
  8
0
 62
7
  6
CONTINUOUS
 10
368.4168479651
 20
30.6358138717
 11
368.3012227445
 21
30.7648680521
 12
368.5902854651
 22
30.7648680521
 13
368.5902854651
 23
30.7648680521
  0
SOLID
  8
0
 62
7
  6
CONTINUOUS
 10
368.7637229651
 20
30.6680782357
 11
369.1105979651
 21
30.6358138717
 12
368.4168479651
 22
30.6358138717
 13
368.4168479651
 23
30.6358138717
  0
SOLID
  8
0
 62
7
  6
CONTINUOUS
 10
365.4684104651
 20
30.5067597521
 11
365.4684104651
 21
31.5391977439
 12
365.757472524
 22
30.5067597521
 13
365.757472524
 23
31.5391977439
  0
ENDBLK
  8
0
  6
BYBLOCK
 62
0
  0
BLOCK
  8
0
 62
2
  6
CONTINUOUS
  2
SYMBOL_0_BL0
 70
64
 10
240.8592468615
 20
19.762288695
  0
TEXT
  8
0
 62
7
  6
CONTINUOUS
 10
227.1239507038
 20
19.1357028027
  7
TEXTSTYLE_3
 40
2.7338706658
  1
Ammeraal Beltech
 41
1.0
 51
15.0
 72
0
  0
TEXT
  8
0
 62
7
  6
CONTINUOUS
 10
237.9247515296
 20
16.8621661299
  7
TEXTSTYLE_4
 40
1.0935482663
  1
Innovation & Service in Belting
 41
1.0
 72
0
  0
LINE
  8
0
 62
7
  6
CONTINUOUS
 10
221.0994100525
 20
19.9022961113
 11
221.8775620458
 21
23.5632134089
  0
LINE
  8
0
 62
7
  6
CONTINUOUS
 10
231.9727303357
 20
27.2266073205
 11
222.3653797889
 21
24.1049898993
  0
LINE
  8
0
 62
7
  6
CONTINUOUS
 10
221.3246933848
 20
19.2089453082
 11
228.8317686459
 21
12.4495443822
  0
LINE
  8
0
 62
7
  6
CONTINUOUS
 10
221.5872277955
 20
20.4440726016
 11
232.3954971607
 21
23.9558922005
  0
LINE
  8
0
 62
7
  6
CONTINUOUS
 10
232.3912920235
 20
13.6061036368
 11
223.9458323548
 21
21.2104296785
  0
LINE
  8
0
 62
7
  6
CONTINUOUS
 10
232.9111147433
 20
26.3816822048
 11
231.9345552061
 21
21.7873308023
  0
LINE
  8
0
 62
7
  6
CONTINUOUS
 10
231.2347532584
 20
18.4950214885
 11
230.5483050469
 21
15.2655365641
  0
LINE
  8
0
 62
7
  6
CONTINUOUS
 10
233.5922108419
 20
13.9963058145
 11
234.5484423775
 21
18.4950214885
  0
LINE
  8
0
 62
7
  6
CONTINUOUS
 10
235.2482443252
 20
21.7873308023
 11
235.6924861276
 21
23.8773241617
  0
LINE
  8
0
 62
7
  6
CONTINUOUS
 10
229.5448697213
 20
12.2979700695
 11
233.1043930989
 21
13.4545293241
  0
LINE
  8
0
 62
7
  6
CONTINUOUS
 10
232.685831411
 20
27.0750330078
 11
235.4672027953
 21
24.5706749648
  0
ARC
  8
0
 62
7
  6
CONTINUOUS
 10
222.5906631212
 20
23.4116390962
 40
0.7290321776
 50
108.0
 51
168.0
  0
ARC
  8
0
 62
7
  6
CONTINUOUS
 10
232.198013668
 20
26.5332565175
 40
0.7290321776
 50
348.0
 51
108.0
  0
ARC
  8
0
 62
7
  6
CONTINUOUS
 10
234.9793850522
 20
24.0288984744
 40
0.7290321776
 50
348.0
 51
48.0
  0
ARC
  8
0
 62
7
  6
CONTINUOUS
 10
229.319586389
 20
12.9913208726
 40
0.7290321776
 50
228.0
 51
288.0
  0
ARC
  8
0
 62
7
  6
CONTINUOUS
 10
221.8125111278
 20
19.7507217986
 40
0.7290321776
 50
108.0
 51
228.0
  0
ARC
  8
0
 62
7
  6
CONTINUOUS
 10
232.8791097665
 20
14.1478801272
 40
0.7290321776
 50
228.0
 51
348.0
  0
ENDBLK
  8
0
  6
BYBLOCK
 62
0
  0
ENDSEC
  0
SECTION
  2
ENTITIES
  0
TEXT
  8
0
 62
5
  6
CONTINUOUS
 10
304.937007874
 20
25.636
  7
TEXTSTYLE_2
 40
2.8
  1
Scale :
 41
0.6
 51
0.000019
 72
0
  0
TEXT
  8
0
 62
5
  6
CONTINUOUS
 10
324.937007874
 20
25.636
  7
TEXTSTYLE_2
 40
2.8
  1
Belt type:
 41
0.6
 51
0.000019
 72
0
  0
INSERT
  8
0
 62
2
  6
CONTINUOUS
  2
SYMBOL_0_BL0
 10
240.8592468615
 20
19.762288695
  0
INSERT
  8
0
 62
2
  6
CONTINUOUS
  2
SYMBOL_5_BL1
 10
382.7840918555
 20
35.5067593403
  0
LINE
  8
0
 62
2
  6
CONTINUOUS
 10
218.937007874
 20
30.0
 11
408.937007874
 21
30.0
  0
LINE
  8
0
 62
2
  6
CONTINUOUS
 10
218.937007874
 20
30.0
 11
218.937007874
 21
10.0
  0
LINE
  8
0
 62
2
  6
CONTINUOUS
 10
218.937007874
 20
10.0
 11
408.937007874
 21
10.0
  0
LINE
  8
0
 62
2
  6
CONTINUOUS
 10
303.937007874
 20
30.0
 11
303.937007874
 21
10.0
  0
LINE
  8
0
 62
2
  6
CONTINUOUS
 10
323.937007874
 20
30.0
 11
323.937007874
 21
10.0
  0
LINE
  8
0
 62
2
  6
CONTINUOUS
 10
408.937007874
 20
30.0
 11
408.937007874
 21
10.0
  0
TEXT
  8
0
 62
5
  6
CONTINUOUS
 10
221.937007874
 20
23.303
  7
TEXTSTYLE_5
 40
1.52
  1
                                                                     Ammeraal Beltech Modular A/S
 41
1.0
 72
0
  0
TEXT
  8
0
 62
5
  6
CONTINUOUS
 10
221.937007874
 20
20.595
  7
TEXTSTYLE_5
 40
1.5
  1
                                                                      Hjulmagervej 21, 7100 Vejle,  DK
 41
1.0
 72
0
  0
TEXT
  8
0
 62
5
  6
CONTINUOUS
 10
221.937007874
 20
17.881
  7
TEXTSTYLE_5
 40
1.495
  1
                                                                      tel: 
 41
1.0
 72
0
  0
TEXT
  8
0
 62
5
  6
CONTINUOUS
 10
266.9239544389
 20
17.881
  7
TEXTSTYLE_5
 40
1.51
  1
+45 75723100     fax: +45 75723348
 41
1.0
 72
0
  0
TEXT
  8
0
 62
5
  6
CONTINUOUS
 10
221.937007874
 20
15.177
  7
TEXTSTYLE_5
 40
1.5
  1
                                                                      admin@unichains.dk  www.unichains.com
 41
1.0
 72
0
  0
TEXT
  8
0
 62
5
  6
CONTINUOUS
 10
308.687007874
 20
13.75
  7
TEXTSTYLE_6
 40
5.0
  1
1:1
 41
0.7
 72
1
 11
313.937007874
 21
13.75
  0
TEXT
  8
0
 62
5
  6
CONTINUOUS
 10
326.937007874
 20
13.75
  7
TEXTSTYLE_7
 40
7.5
  1
uni Light-18-K600
 41
0.3590686275
 72
0
  0
LINE
  8
0
 62
7
  6
CONTINUOUS
 10
0.0
 20
0.0
 11
0.0
 21
297.0
  0
LINE
  8
0
 62
7
  6
CONTINUOUS
 10
8.937007874
 20
10.0
 11
8.937007874
 21
287.0
  0
LINE
  8
0
 62
7
  6
CONTINUOUS
 10
0.0
 20
0.0
 11
420.0
 21
0.0
  0
LINE
  8
0
 62
7
  6
CONTINUOUS
 10
408.937007874
 20
10.0
 11
8.937007874
 21
10.0
  0
LINE
  8
0
 62
7
  6
CONTINUOUS
 10
218.937007874
 20
30.0
 11
408.937007874
 21
30.0
  0
LINE
  8
0
 62
7
  6
CONTINUOUS
 10
210.0
 20
297.0
 11
210.0
 21
292.0
  0
LINE
  8
0
 62
7
  6
CONTINUOUS
 10
210.0
 20
0.0
 11
210.0
 21
5.0
  0
LINE
  8
0
 62
7
  6
CONTINUOUS
 10
8.937007874
 20
287.0
 11
408.937007874
 21
287.0
  0
LINE
  8
0
 62
7
  6
CONTINUOUS
 10
0.0
 20
297.0
 11
420.0
 21
297.0
  0
LINE
  8
0
 62
7
  6
CONTINUOUS
 10
408.937007874
 20
287.0
 11
408.937007874
 21
10.0
  0
LINE
  8
0
 62
7
  6
CONTINUOUS
 10
420.0
 20
0.0
 11
420.0
 21
297.0
  0
LINE
  8
0
 62
7
  6
CONTINUOUS
 10
99.2138765245
 20
97.5962843611
 11
99.2138765245
 21
103.3962843611
  0
LINE
  8
0
 62
7
  6
CONTINUOUS
 10
99.4138765245
 20
103.3962843611
 11
99.4138765245
 21
101.9652419828
  0
LINE
  8
0
 62
7
  6
CONTINUOUS
 10
99.4138765245
 20
95.8962857556
 11
99.4138765245
 21
97.1979888423
  0
LINE
  8
0
 62
7
  6
CONTINUOUS
 10
101.7638765245
 20
95.8962843611
 11
101.7638765245
 21
97.0962843611
  0
LINE
  8
0
 62
7
  6
CONTINUOUS
 10
104.4138765245
 20
95.8962843611
 11
104.4138765245
 21
103.3962843611
  0
POLYLINE
  8
2_FEATURE
 62
7
  6
CONTINUOUS
 66
1
 70
0
  0
VERTEX
  8
2_FEATURE
 62
7
  6
CONTINUOUS
 10
111.5638765245
 20
96.130430641
  0
VERTEX
  8
2_FEATURE
 62
7
  6
CONTINUOUS
 10
111.5546099089
 20
96.2631325818
  0
VERTEX
  8
2_FEATURE
 62
7
  6
CONTINUOUS
 10
111.5420224341
 20
96.3365803318
  0
VERTEX
  8
2_FEATURE
 62
7
  6
CONTINUOUS
 10
111.4993815603
 20
96.4905521306
  0
SEQEND
  0
POLYLINE
  8
0
 62
7
  6
CONTINUOUS
 66
1
 70
0
  0
VERTEX
  8
0
 62
7
  6
CONTINUOUS
 10
113.1638765245
 20
101.096949295
  0
VERTEX
  8
0
 62
7
  6
CONTINUOUS
 10
113.165005526
 20
101.0638279825
  0
VERTEX
  8
0
 62
7
  6
CONTINUOUS
 10
113.168410897
 20
101.0302271935
  0
VERTEX
  8
0
 62
7
  6
CONTINUOUS
 10
113.1741147751
 20
100.9962843611
  0
SEQEND
  0
LINE
  8
2_FEATURE
 62
7
  6
CONTINUOUS
 10
111.1638765245
 20
95.3962843611
 11
111.1638765245
 21
96.6163255365
  0
LINE
  8
0
 62
7
  6
CONTINUOUS
 10
111.5638765245
 20
95.8962843611
 11
111.5638765245
 21
96.130430641
  0
LINE
  8
0
 62
7
  6
CONTINUOUS
 10
113.1638765245
 20
95.8962843611
 11
113.1638765245
 21
103.3962843611
  0
POLYLINE
  8
0
 62
7
  6
CONTINUOUS
 66
1
 70
0
  0
VERTEX
  8
0
 62
7
  6
CONTINUOUS
 10
113.1638765245
 20
96.9534363524
  0
VERTEX
  8
0
 62
7
  6
CONTINUOUS
 10
113.151356982
 20
96.8061585086
  0
VERTEX
  8
0
 62
7
  6
CONTINUOUS
 10
113.1191300901
 20
96.6888163494
  0
VERTEX
  8
0
 62
7
  6
CONTINUOUS
 10
113.0723545636
 20
96.595763625
  0
VERTEX
  8
0
 62
7
  6
CONTINUOUS
 10
113.0152307218
 20
96.5250936944
  0
VERTEX
  8
0
 62
7
  6
CONTINUOUS
 10
112.9834732831
 20
96.497227904
  0
VERTEX
  8
0
 62
7
  6
CONTINUOUS
 10
112.9144458015
 20
96.4554677697
  0
VERTEX
  8
0
 62
7
  6
CONTINUOUS
 10
112.8382856584
 20
96.4318247713
  0
VERTEX
  8
0
 62
7
  6
CONTINUOUS
 10
112.7542357682
 20
96.4272483291
  0
VERTEX
  8
0
 62
7
  6
CONTINUOUS
 10
112.6638765245
 20
96.44441212
  0
SEQEND
  0
POLYLINE
  8
2_FEATURE
 62
7
  6
CONTINUOUS
 66
1
 70
0
  0
VERTEX
  8
2_FEATURE
 62
7
  6
CONTINUOUS
 10
111.1638765245
 20
96.6163255365
  0
VERTEX
  8
2_FEATURE
 62
7
  6
CONTINUOUS
 10
111.1741349024
 20
96.6863209861
  0
VERTEX
  8
2_FEATURE
 62
7
  6
CONTINUOUS
 10
111.2024915565
 20
96.750891713
  0
VERTEX
  8
2_FEATURE
 62
7
  6
CONTINUOUS
 10
111.2434057524
 20
96.803774255
  0
VERTEX
  8
2_FEATURE
 62
7
  6
CONTINUOUS
 10
111.2900653867
 20
96.8415879835
  0
VERTEX
  8
2_FEATURE
 62
7
  6
CONTINUOUS
 10
111.313692275
 20
96.8548636687
  0
VERTEX
  8
2_FEATURE
 62
7
  6
CONTINUOUS
 10
111.3605668115
 20
96.8720413864
  0
VERTEX
  8
2_FEATURE
 62
7
  6
CONTINUOUS
 10
111.406785344
 20
96.8784718602
  0
VERTEX
  8
2_FEATURE
 62
7
  6
CONTINUOUS
 10
111.4527865837
 20
96.8751154075
  0
VERTEX
  8
2_FEATURE
 62
7
  6
CONTINUOUS
 10
111.4993815603
 20
96.8614805537
  0
SEQEND
  0
POLYLINE
  8
2_FEATURE
 62
7
  6
CONTINUOUS
 66
1
 70
0
  0
VERTEX
  8
2_FEATURE
 62
7
  6
CONTINUOUS
 10
111.4993815603
 20
96.4905521306
  0
VERTEX
  8
2_FEATURE
 62
7
  6
CONTINUOUS
 10
111.4630970147
 20
96.5798596468
  0
VERTEX
  8
2_FEATURE
 62
7
  6
CONTINUOUS
 10
111.4253008738
 20
96.6489644464
  0
VERTEX
  8
2_FEATURE
 62
7
  6
CONTINUOUS
 10
111.3875040377
 20
96.6998023891
  0
VERTEX
  8
2_FEATURE
 62
7
  6
CONTINUOUS
 10
111.3514109812
 20
96.7338075275
  0
VERTEX
  8
2_FEATURE
 62
7
  6
CONTINUOUS
 10
111.3174933773
 20
96.7536845012
  0
VERTEX
  8
2_FEATURE
 62
7
  6
CONTINUOUS
 10
111.284504679
 20
96.7617535089
  0
VERTEX
  8
2_FEATURE
 62
7
  6
CONTINUOUS
 10
111.2534425092
 20
96.7583703176
  0
VERTEX
  8
2_FEATURE
 62
7
  6
CONTINUOUS
 10
111.2230902587
 20
96.7426942497
  0
VERTEX
  8
2_FEATURE
 62
7
  6
CONTINUOUS
 10
111.1945343874
 20
96.7116571523
  0
VERTEX
  8
2_FEATURE
 62
7
  6
CONTINUOUS
 10
111.1728752449
 20
96.6648262047
  0
VERTEX
  8
2_FEATURE
 62
7
  6
CONTINUOUS
 10
111.16585401
 20
96.6160409344
  0
SEQEND
  0
LINE
  8
0
 62
7
  6
CONTINUOUS
 10
115.1138765245
 20
99.1393667358
 11
115.1138765245
 21
95.8962843611
  0
LINE
  8
0
 62
7
  6
CONTINUOUS
 10
121.1138765245
 20
99.1393717737
 11
121.1138765245
 21
95.8962843611
  0
LINE
  8
0
 62
7
  6
CONTINUOUS
 10
123.0638765245
 20
95.8962843611
 11
123.0638765245
 21
103.3962843611
  0
POLYLINE
  8
0
 62
7
  6
CONTINUOUS
 66
1
 70
0
  0
VERTEX
  8
0
 62
7
  6
CONTINUOUS
 10
123.0536382738
 20
100.9962843611
  0
VERTEX
  8
0
 62
7
  6
CONTINUOUS
 10
123.059341397
 20
101.0302215884
  0
VERTEX
  8
0
 62
7
  6
CONTINUOUS
 10
123.0627465982
 20
101.0638143438
  0
VERTEX
  8
0
 62
7
  6
CONTINUOUS
 10
123.0638765245
 20
101.096949295
  0
SEQEND
  0
POLYLINE
  8
0
 62
7
  6
CONTINUOUS
 66
1
 70
0
  0
VERTEX
  8
0
 62
7
  6
CONTINUOUS
 10
104.4138765245
 20
100.660012986
  0
VERTEX
  8
0
 62
7
  6
CONTINUOUS
 10
104.4263024928
 20
100.6732530552
  0
VERTEX
  8
0
 62
7
  6
CONTINUOUS
 10
104.4630319726
 20
100.6856790313
  0
VERTEX
  8
0
 62
7
  6
CONTINUOUS
 10
104.522343791
 20
100.6967123286
  0
VERTEX
  8
0
 62
7
  6
CONTINUOUS
 10
104.6013703942
 20
100.7058507437
  0
VERTEX
  8
0
 62
7
  6
CONTINUOUS
 10
104.6962189592
 20
100.7126852075
  0
VERTEX
  8
0
 62
7
  6
CONTINUOUS
 10
104.8021605858
 20
100.7169125856
  0
VERTEX
  8
0
 62
7
  6
CONTINUOUS
 10
104.9138765245
 20
100.7183440301
  0
SEQEND
  0
POLYLINE
  8
0
 62
7
  6
CONTINUOUS
 66
1
 70
0
  0
VERTEX
  8
0
 62
7
  6
CONTINUOUS
 10
104.4138765245
 20
98.8325557362
  0
VERTEX
  8
0
 62
7
  6
CONTINUOUS
 10
104.4263024928
 20
98.819315667
  0
VERTEX
  8
0
 62
7
  6
CONTINUOUS
 10
104.4630319726
 20
98.8068896909
  0
VERTEX
  8
0
 62
7
  6
CONTINUOUS
 10
104.522343791
 20
98.7958563936
  0
VERTEX
  8
0
 62
7
  6
CONTINUOUS
 10
104.6013703942
 20
98.7867179785
  0
VERTEX
  8
0
 62
7
  6
CONTINUOUS
 10
104.6962189592
 20
98.7798835147
  0
VERTEX
  8
0
 62
7
  6
CONTINUOUS
 10
104.8021605858
 20
98.7756561366
  0
VERTEX
  8
0
 62
7
  6
CONTINUOUS
 10
104.9138765245
 20
98.7742246922
  0
SEQEND
  0
POLYLINE
  8
0
 62
7
  6
CONTINUOUS
 66
1
 70
0
  0
VERTEX
  8
0
 62
7
  6
CONTINUOUS
 10
132.2638765245
 20
101.096949295
  0
VERTEX
  8
0
 62
7
  6
CONTINUOUS
 10
132.2650056478
 20
101.0638261853
  0
VERTEX
  8
0
 62
7
  6
CONTINUOUS
 10
132.2684114404
 20
101.0302231585
  0
VERTEX
  8
0
 62
7
  6
CONTINUOUS
 10
132.2741147751
 20
100.9962843611
  0
SEQEND
  0
LINE
  8
0
 62
7
  6
CONTINUOUS
 10
132.2638765245
 20
95.8962843611
 11
132.2638765245
 21
103.3962843611
  0
LINE
  8
0
 62
7
  6
CONTINUOUS
 10
134.2138765245
 20
99.1393667358
 11
134.2138765245
 21
95.8962843611
  0
POLYLINE
  8
0
 62
7
  6
CONTINUOUS
 66
1
 70
0
  0
VERTEX
  8
0
 62
7
  6
CONTINUOUS
 10
113.1638765245
 20
98.8325557362
  0
VERTEX
  8
0
 62
7
  6
CONTINUOUS
 10
113.1514505561
 20
98.819315667
  0
VERTEX
  8
0
 62
7
  6
CONTINUOUS
 10
113.1147210763
 20
98.8068896909
  0
VERTEX
  8
0
 62
7
  6
CONTINUOUS
 10
113.0554092579
 20
98.7958563936
  0
VERTEX
  8
0
 62
7
  6
CONTINUOUS
 10
112.9763826547
 20
98.7867179785
  0
VERTEX
  8
0
 62
7
  6
CONTINUOUS
 10
112.8815340897
 20
98.7798835147
  0
VERTEX
  8
0
 62
7
  6
CONTINUOUS
 10
112.7755924631
 20
98.7756561366
  0
VERTEX
  8
0
 62
7
  6
CONTINUOUS
 10
112.6638765245
 20
98.7742246922
  0
SEQEND
  0
POLYLINE
  8
0
 62
7
  6
CONTINUOUS
 66
1
 70
0
  0
VERTEX
  8
0
 62
7
  6
CONTINUOUS
 10
113.1638765245
 20
100.660012986
  0
VERTEX
  8
0
 62
7
  6
CONTINUOUS
 10
113.1514505561
 20
100.6732530552
  0
VERTEX
  8
0
 62
7
  6
CONTINUOUS
 10
113.1147210763
 20
100.6856790313
  0
VERTEX
  8
0
 62
7
  6
CONTINUOUS
 10
113.0554092579
 20
100.6967123286
  0
VERTEX
  8
0
 62
7
  6
CONTINUOUS
 10
112.9763826547
 20
100.7058507437
  0
VERTEX
  8
0
 62
7
  6
CONTINUOUS
 10
112.8815340897
 20
100.7126852075
  0
VERTEX
  8
0
 62
7
  6
CONTINUOUS
 10
112.7755924631
 20
100.7169125856
  0
VERTEX
  8
0
 62
7
  6
CONTINUOUS
 10
112.6638765245
 20
100.7183440301
  0
SEQEND
  0
LINE
  8
0
 62
7
  6
CONTINUOUS
 10
140.2138765245
 20
99.1393717737
 11
140.2138765245
 21
95.8962843611
  0
POLYLINE
  8
0
 62
7
  6
CONTINUOUS
 66
1
 70
0
  0
VERTEX
  8
0
 62
7
  6
CONTINUOUS
 10
123.0638765245
 20
100.660012986
  0
VERTEX
  8
0
 62
7
  6
CONTINUOUS
 10
123.0763024928
 20
100.6732530552
  0
VERTEX
  8
0
 62
7
  6
CONTINUOUS
 10
123.1130319726
 20
100.6856790313
  0
VERTEX
  8
0
 62
7
  6
CONTINUOUS
 10
123.172343791
 20
100.6967123286
  0
VERTEX
  8
0
 62
7
  6
CONTINUOUS
 10
123.2513703942
 20
100.7058507437
  0
VERTEX
  8
0
 62
7
  6
CONTINUOUS
 10
123.3462189592
 20
100.7126852075
  0
VERTEX
  8
0
 62
7
  6
CONTINUOUS
 10
123.4521605858
 20
100.7169125856
  0
VERTEX
  8
0
 62
7
  6
CONTINUOUS
 10
123.5638765245
 20
100.7183440301
  0
SEQEND
  0
POLYLINE
  8
0
 62
7
  6
CONTINUOUS
 66
1
 70
0
  0
VERTEX
  8
0
 62
7
  6
CONTINUOUS
 10
123.0638765245
 20
98.8325557362
  0
VERTEX
  8
0
 62
7
  6
CONTINUOUS
 10
123.0763024928
 20
98.819315667
  0
VERTEX
  8
0
 62
7
  6
CONTINUOUS
 10
123.1130319726
 20
98.8068896909
  0
VERTEX
  8
0
 62
7
  6
CONTINUOUS
 10
123.172343791
 20
98.7958563936
  0
VERTEX
  8
0
 62
7
  6
CONTINUOUS
 10
123.2513703942
 20
98.7867179785
  0
VERTEX
  8
0
 62
7
  6
CONTINUOUS
 10
123.3462189592
 20
98.7798835147
  0
VERTEX
  8
0
 62
7
  6
CONTINUOUS
 10
123.4521605858
 20
98.7756561366
  0
VERTEX
  8
0
 62
7
  6
CONTINUOUS
 10
123.5638765245
 20
98.7742246922
  0
SEQEND
  0
LINE
  8
0
 62
7
  6
CONTINUOUS
 10
142.1638765245
 20
95.8962843611
 11
142.1638765245
 21
103.3962843611
  0
POLYLINE
  8
0
 62
7
  6
CONTINUOUS
 66
1
 70
0
  0
VERTEX
  8
0
 62
7
  6
CONTINUOUS
 10
142.1536382738
 20
100.9962843611
  0
VERTEX
  8
0
 62
7
  6
CONTINUOUS
 10
142.159341397
 20
101.0302215884
  0
VERTEX
  8
0
 62
7
  6
CONTINUOUS
 10
142.1627465982
 20
101.0638143438
  0
VERTEX
  8
0
 62
7
  6
CONTINUOUS
 10
142.1638765245
 20
101.096949295
  0
SEQEND
  0
POLYLINE
  8
0
 62
7
  6
CONTINUOUS
 66
1
 70
0
  0
VERTEX
  8
0
 62
7
  6
CONTINUOUS
 10
132.2638765245
 20
98.8325557362
  0
VERTEX
  8
0
 62
7
  6
CONTINUOUS
 10
132.2514505561
 20
98.819315667
  0
VERTEX
  8
0
 62
7
  6
CONTINUOUS
 10
132.2147210763
 20
98.8068896909
  0
VERTEX
  8
0
 62
7
  6
CONTINUOUS
 10
132.1554092579
 20
98.7958563936
  0
VERTEX
  8
0
 62
7
  6
CONTINUOUS
 10
132.0763826547
 20
98.7867179785
  0
VERTEX
  8
0
 62
7
  6
CONTINUOUS
 10
131.9815340897
 20
98.7798835147
  0
VERTEX
  8
0
 62
7
  6
CONTINUOUS
 10
131.8755924631
 20
98.7756561366
  0
VERTEX
  8
0
 62
7
  6
CONTINUOUS
 10
131.7638765245
 20
98.7742246922
  0
SEQEND
  0
POLYLINE
  8
0
 62
7
  6
CONTINUOUS
 66
1
 70
0
  0
VERTEX
  8
0
 62
7
  6
CONTINUOUS
 10
132.2638765245
 20
100.660012986
  0
VERTEX
  8
0
 62
7
  6
CONTINUOUS
 10
132.2514505561
 20
100.6732530552
  0
VERTEX
  8
0
 62
7
  6
CONTINUOUS
 10
132.2147210763
 20
100.6856790313
  0
VERTEX
  8
0
 62
7
  6
CONTINUOUS
 10
132.1554092579
 20
100.6967123286
  0
VERTEX
  8
0
 62
7
  6
CONTINUOUS
 10
132.0763826547
 20
100.7058507437
  0
VERTEX
  8
0
 62
7
  6
CONTINUOUS
 10
131.9815340897
 20
100.7126852075
  0
VERTEX
  8
0
 62
7
  6
CONTINUOUS
 10
131.8755924631
 20
100.7169125856
  0
VERTEX
  8
0
 62
7
  6
CONTINUOUS
 10
131.7638765245
 20
100.7183440301
  0
SEQEND
  0
POLYLINE
  8
0
 62
7
  6
CONTINUOUS
 66
1
 70
0
  0
VERTEX
  8
0
 62
7
  6
CONTINUOUS
 10
142.1638765245
 20
100.660012986
  0
VERTEX
  8
0
 62
7
  6
CONTINUOUS
 10
142.1763024928
 20
100.6732530552
  0
VERTEX
  8
0
 62
7
  6
CONTINUOUS
 10
142.2130319726
 20
100.6856790313
  0
VERTEX
  8
0
 62
7
  6
CONTINUOUS
 10
142.272343791
 20
100.6967123286
  0
VERTEX
  8
0
 62
7
  6
CONTINUOUS
 10
142.3513703942
 20
100.7058507437
  0
VERTEX
  8
0
 62
7
  6
CONTINUOUS
 10
142.4462189592
 20
100.7126852075
  0
VERTEX
  8
0
 62
7
  6
CONTINUOUS
 10
142.5521605858
 20
100.7169125856
  0
VERTEX
  8
0
 62
7
  6
CONTINUOUS
 10
142.6638765245
 20
100.7183440301
  0
SEQEND
  0
POLYLINE
  8
0
 62
7
  6
CONTINUOUS
 66
1
 70
0
  0
VERTEX
  8
0
 62
7
  6
CONTINUOUS
 10
103.7205466685
 20
97.0866895944
  0
VERTEX
  8
0
 62
7
  6
CONTINUOUS
 10
103.8064606504
 20
97.0580559434
  0
VERTEX
  8
0
 62
7
  6
CONTINUOUS
 10
103.8717460771
 20
97.0200077906
  0
VERTEX
  8
0
 62
7
  6
CONTINUOUS
 10
103.9154998791
 20
96.9825612519
  0
VERTEX
  8
0
 62
7
  6
CONTINUOUS
 10
103.9393210414
 20
96.9549649848
  0
VERTEX
  8
0
 62
7
  6
CONTINUOUS
 10
103.9487325465
 20
96.9409787461
  0
VERTEX
  8
0
 62
7
  6
CONTINUOUS
 10
103.9493006479
 20
96.9399801986
  0
SEQEND
  0
POLYLINE
  8
0
 62
7
  6
CONTINUOUS
 66
1
 70
0
  0
VERTEX
  8
0
 62
7
  6
CONTINUOUS
 10
142.1638765245
 20
98.8325557362
  0
VERTEX
  8
0
 62
7
  6
CONTINUOUS
 10
142.1763024928
 20
98.819315667
  0
VERTEX
  8
0
 62
7
  6
CONTINUOUS
 10
142.2130319726
 20
98.8068896909
  0
VERTEX
  8
0
 62
7
  6
CONTINUOUS
 10
142.272343791
 20
98.7958563936
  0
VERTEX
  8
0
 62
7
  6
CONTINUOUS
 10
142.3513703942
 20
98.7867179785
  0
VERTEX
  8
0
 62
7
  6
CONTINUOUS
 10
142.4462189592
 20
98.7798835147
  0
VERTEX
  8
0
 62
7
  6
CONTINUOUS
 10
142.5521605858
 20
98.7756561366
  0
VERTEX
  8
0
 62
7
  6
CONTINUOUS
 10
142.6638765245
 20
98.7742246922
  0
SEQEND
  0
POLYLINE
  8
0
 62
7
  6
CONTINUOUS
 66
1
 70
0
  0
VERTEX
  8
0
 62
7
  6
CONTINUOUS
 10
151.3638765245
 20
101.096949295
  0
VERTEX
  8
0
 62
7
  6
CONTINUOUS
 10
151.3650056478
 20
101.0638261853
  0
VERTEX
  8
0
 62
7
  6
CONTINUOUS
 10
151.3684114404
 20
101.0302231585
  0
VERTEX
  8
0
 62
7
  6
CONTINUOUS
 10
151.3741147751
 20
100.9962843611
  0
SEQEND
  0
LINE
  8
0
 62
7
  6
CONTINUOUS
 10
151.3638765245
 20
95.8962843611
 11
151.3638765245
 21
103.3962843611
  0
LINE
  8
0
 62
7
  6
CONTINUOUS
 10
153.3138765245
 20
99.1393731854
 11
153.3138765245
 21
95.8962843611
  0
POLYLINE
  8
0
 62
7
  6
CONTINUOUS
 66
1
 70
0
  0
VERTEX
  8
0
 62
7
  6
CONTINUOUS
 10
112.6638765245
 20
96.44441212
  0
VERTEX
  8
0
 62
7
  6
CONTINUOUS
 10
112.2402161508
 20
96.5831846398
  0
VERTEX
  8
0
 62
7
  6
CONTINUOUS
 10
111.8528431603
 20
96.7225014231
  0
VERTEX
  8
0
 62
7
  6
CONTINUOUS
 10
111.4993815603
 20
96.8614805537
  0
SEQEND
  0
LINE
  8
0
 62
7
  6
CONTINUOUS
 10
159.3138765245
 20
99.1393731854
 11
159.3138765245
 21
95.8962843611
  0
POLYLINE
  8
0
 62
7
  6
CONTINUOUS
 66
1
 70
0
  0
VERTEX
  8
0
 62
7
  6
CONTINUOUS
 10
151.3638765245
 20
98.8325557362
  0
VERTEX
  8
0
 62
7
  6
CONTINUOUS
 10
151.3514505561
 20
98.819315667
  0
VERTEX
  8
0
 62
7
  6
CONTINUOUS
 10
151.3147210763
 20
98.8068896909
  0
VERTEX
  8
0
 62
7
  6
CONTINUOUS
 10
151.2554092579
 20
98.7958563936
  0
VERTEX
  8
0
 62
7
  6
CONTINUOUS
 10
151.1763826547
 20
98.7867179785
  0
VERTEX
  8
0
 62
7
  6
CONTINUOUS
 10
151.0815340897
 20
98.7798835147
  0
VERTEX
  8
0
 62
7
  6
CONTINUOUS
 10
150.9755924631
 20
98.7756561366
  0
VERTEX
  8
0
 62
7
  6
CONTINUOUS
 10
150.8638765245
 20
98.7742246922
  0
SEQEND
  0
POLYLINE
  8
0
 62
7
  6
CONTINUOUS
 66
1
 70
0
  0
VERTEX
  8
0
 62
7
  6
CONTINUOUS
 10
238.1638765245
 20
96.44441212
  0
VERTEX
  8
0
 62
7
  6
CONTINUOUS
 10
238.0735143365
 20
96.427248133
  0
VERTEX
  8
0
 62
7
  6
CONTINUOUS
 10
237.9894496234
 20
96.4318279865
  0
VERTEX
  8
0
 62
7
  6
CONTINUOUS
 10
237.9132913587
 20
96.4554749283
  0
VERTEX
  8
0
 62
7
  6
CONTINUOUS
 10
237.8442708081
 20
96.4972348826
  0
VERTEX
  8
0
 62
7
  6
CONTINUOUS
 10
237.8125148619
 20
96.5251010404
  0
VERTEX
  8
0
 62
7
  6
CONTINUOUS
 10
237.755396068
 20
96.5957673736
  0
VERTEX
  8
0
 62
7
  6
CONTINUOUS
 10
237.708622924
 20
96.6888164399
  0
VERTEX
  8
0
 62
7
  6
CONTINUOUS
 10
237.676394371
 20
96.8061679696
  0
VERTEX
  8
0
 62
7
  6
CONTINUOUS
 10
237.6638765245
 20
96.9534363524
  0
SEQEND
  0
POLYLINE
  8
0
 62
7
  6
CONTINUOUS
 66
1
 70
0
  0
VERTEX
  8
0
 62
7
  6
CONTINUOUS
 10
151.3638765245
 20
100.660012986
  0
VERTEX
  8
0
 62
7
  6
CONTINUOUS
 10
151.3514505561
 20
100.6732530552
  0
VERTEX
  8
0
 62
7
  6
CONTINUOUS
 10
151.3147210763
 20
100.6856790313
  0
VERTEX
  8
0
 62
7
  6
CONTINUOUS
 10
151.2554092579
 20
100.6967123286
  0
VERTEX
  8
0
 62
7
  6
CONTINUOUS
 10
151.1763826547
 20
100.7058507437
  0
VERTEX
  8
0
 62
7
  6
CONTINUOUS
 10
151.0815340897
 20
100.7126852075
  0
VERTEX
  8
0
 62
7
  6
CONTINUOUS
 10
150.9755924631
 20
100.7169125856
  0
VERTEX
  8
0
 62
7
  6
CONTINUOUS
 10
150.8638765245
 20
100.7183440301
  0
SEQEND
  0
LINE
  8
0
 62
7
  6
CONTINUOUS
 10
161.2638765245
 20
95.8962843611
 11
161.2638765245
 21
103.3962843611
  0
LINE
  8
2_FEATURE
 62
7
  6
CONTINUOUS
 10
165.4326265245
 20
95.4008234931
 11
165.4326265245
 21
95.7693390824
  0
LINE
  8
2_FEATURE
 62
7
  6
CONTINUOUS
 10
165.6951265245
 20
95.3962860088
 11
165.6951265245
 21
95.7693390824
  0
POLYLINE
  8
0
 62
7
  6
CONTINUOUS
 66
1
 70
0
  0
VERTEX
  8
0
 62
7
  6
CONTINUOUS
 10
161.2536382738
 20
100.9962843611
  0
VERTEX
  8
0
 62
7
  6
CONTINUOUS
 10
161.259341397
 20
101.0302215884
  0
VERTEX
  8
0
 62
7
  6
CONTINUOUS
 10
161.2627465982
 20
101.0638143438
  0
VERTEX
  8
0
 62
7
  6
CONTINUOUS
 10
161.2638765245
 20
101.096949295
  0
SEQEND
  0
POLYLINE
  8
0
 62
7
  6
CONTINUOUS
 66
1
 70
0
  0
VERTEX
  8
0
 62
7
  6
CONTINUOUS
 10
161.2638765245
 20
100.660012986
  0
VERTEX
  8
0
 62
7
  6
CONTINUOUS
 10
161.2763024928
 20
100.6732530552
  0
VERTEX
  8
0
 62
7
  6
CONTINUOUS
 10
161.3130319726
 20
100.6856790313
  0
VERTEX
  8
0
 62
7
  6
CONTINUOUS
 10
161.372343791
 20
100.6967123286
  0
VERTEX
  8
0
 62
7
  6
CONTINUOUS
 10
161.4513703942
 20
100.7058507437
  0
VERTEX
  8
0
 62
7
  6
CONTINUOUS
 10
161.5462189592
 20
100.7126852075
  0
VERTEX
  8
0
 62
7
  6
CONTINUOUS
 10
161.6521605858
 20
100.7169125856
  0
VERTEX
  8
0
 62
7
  6
CONTINUOUS
 10
161.7638765245
 20
100.7183440301
  0
SEQEND
  0
LINE
  8
0
 62
7
  6
CONTINUOUS
 10
103.6306498319
 20
97.0962845194
 11
103.7205466685
 21
97.0866895944
  0
POLYLINE
  8
0
 62
7
  6
CONTINUOUS
 66
1
 70
0
  0
VERTEX
  8
0
 62
7
  6
CONTINUOUS
 10
161.2638765245
 20
98.8325557362
  0
VERTEX
  8
0
 62
7
  6
CONTINUOUS
 10
161.2763024928
 20
98.819315667
  0
VERTEX
  8
0
 62
7
  6
CONTINUOUS
 10
161.3130319726
 20
98.8068896909
  0
VERTEX
  8
0
 62
7
  6
CONTINUOUS
 10
161.372343791
 20
98.7958563936
  0
VERTEX
  8
0
 62
7
  6
CONTINUOUS
 10
161.4513703942
 20
98.7867179785
  0
VERTEX
  8
0
 62
7
  6
CONTINUOUS
 10
161.5462189592
 20
98.7798835147
  0
VERTEX
  8
0
 62
7
  6
CONTINUOUS
 10
161.6521605858
 20
98.7756561366
  0
VERTEX
  8
0
 62
7
  6
CONTINUOUS
 10
161.7638765245
 20
98.7742246922
  0
SEQEND
  0
POLYLINE
  8
0
 62
7
  6
CONTINUOUS
 66
1
 70
0
  0
VERTEX
  8
0
 62
7
  6
CONTINUOUS
 10
170.4638765245
 20
101.096949295
  0
VERTEX
  8
0
 62
7
  6
CONTINUOUS
 10
170.4650056478
 20
101.0638261853
  0
VERTEX
  8
0
 62
7
  6
CONTINUOUS
 10
170.4684114404
 20
101.0302231585
  0
VERTEX
  8
0
 62
7
  6
CONTINUOUS
 10
170.4741147751
 20
100.9962843611
  0
SEQEND
  0
LINE
  8
2_FEATURE
 62
7
  6
CONTINUOUS
 10
167.4013765245
 20
95.4008234931
 11
167.4013765245
 21
95.7693390824
  0
LINE
  8
2_FEATURE
 62
7
  6
CONTINUOUS
 10
167.6638765245
 20
95.3962860088
 11
167.6638765245
 21
95.7693390824
  0
LINE
  8
0
 62
7
  6
CONTINUOUS
 10
170.4638765245
 20
95.8962843611
 11
170.4638765245
 21
103.3962843611
  0
POLYLINE
  8
1_AXIS
 62
7
  6
CONTINUOUS
 66
1
 70
0
  0
VERTEX
  8
1_AXIS
 62
7
  6
CONTINUOUS
 10
184.9638765245
 20
95.4092029692
  0
VERTEX
  8
1_AXIS
 62
7
  6
CONTINUOUS
 10
184.8966004103
 20
95.4036638293
  0
VERTEX
  8
1_AXIS
 62
7
  6
CONTINUOUS
 10
184.8147682939
 20
95.4002720234
  0
VERTEX
  8
1_AXIS
 62
7
  6
CONTINUOUS
 10
184.7210403806
 20
95.3984159863
  0
VERTEX
  8
1_AXIS
 62
7
  6
CONTINUOUS
 10
184.619605794
 20
95.3975618247
  0
SEQEND
  0
POLYLINE
  8
1_AXIS
 62
7
  6
CONTINUOUS
 66
1
 70
0
  0
VERTEX
  8
1_AXIS
 62
7
  6
CONTINUOUS
 10
186.4038765245
 20
95.5261569934
  0
VERTEX
  8
1_AXIS
 62
7
  6
CONTINUOUS
 10
186.3330003377
 20
95.524042983
  0
VERTEX
  8
1_AXIS
 62
7
  6
CONTINUOUS
 10
186.2659708451
 20
95.5179050079
  0
VERTEX
  8
1_AXIS
 62
7
  6
CONTINUOUS
 10
186.206238765
 20
95.5082739068
  0
VERTEX
  8
1_AXIS
 62
7
  6
CONTINUOUS
 10
186.1804736637
 20
95.5024606256
  0
VERTEX
  8
1_AXIS
 62
7
  6
CONTINUOUS
 10
186.1387370488
 20
95.4894275808
  0
VERTEX
  8
1_AXIS
 62
7
  6
CONTINUOUS
 10
186.1127013899
 20
95.4756647296
  0
VERTEX
  8
1_AXIS
 62
7
  6
CONTINUOUS
 10
186.1038765245
 20
95.4623054863
  0
SEQEND
  0
LINE
  8
0
 62
7
  6
CONTINUOUS
 10
172.4138765245
 20
99.1393731854
 11
172.4138765245
 21
95.8962843611
  0
LINE
  8
1_AXIS
 62
2
  6
CENTER
 10
175.4138765245
 20
92.8962839973
 11
175.4138765245
 21
106.3962848274
  0
POLYLINE
  8
0
 62
7
  6
CONTINUOUS
 66
1
 70
0
  0
VERTEX
  8
0
 62
7
  6
CONTINUOUS
 10
170.4638765245
 20
98.8325557362
  0
VERTEX
  8
0
 62
7
  6
CONTINUOUS
 10
170.4514505561
 20
98.819315667
  0
VERTEX
  8
0
 62
7
  6
CONTINUOUS
 10
170.4147210763
 20
98.8068896909
  0
VERTEX
  8
0
 62
7
  6
CONTINUOUS
 10
170.3554092579
 20
98.7958563936
  0
VERTEX
  8
0
 62
7
  6
CONTINUOUS
 10
170.2763826547
 20
98.7867179785
  0
VERTEX
  8
0
 62
7
  6
CONTINUOUS
 10
170.1815340897
 20
98.7798835147
  0
VERTEX
  8
0
 62
7
  6
CONTINUOUS
 10
170.0755924631
 20
98.7756561366
  0
VERTEX
  8
0
 62
7
  6
CONTINUOUS
 10
169.9638765245
 20
98.7742246922
  0
SEQEND
  0
LINE
  8
0
 62
7
  6
CONTINUOUS
 10
228.2772387898
 20
101.4955394335
 11
228.305561956
 21
101.4962843611
  0
POLYLINE
  8
2_FEATURE
 62
7
  6
CONTINUOUS
 66
1
 70
0
  0
VERTEX
  8
2_FEATURE
 62
7
  6
CONTINUOUS
 10
166.3951264827
 20
95.3980578451
  0
VERTEX
  8
2_FEATURE
 62
7
  6
CONTINUOUS
 10
166.3368017287
 20
95.3965688029
  0
VERTEX
  8
2_FEATURE
 62
7
  6
CONTINUOUS
 10
166.2978346397
 20
95.396284381
  0
SEQEND
  0
POLYLINE
  8
2_FEATURE
 62
7
  6
CONTINUOUS
 66
1
 70
0
  0
VERTEX
  8
2_FEATURE
 62
7
  6
CONTINUOUS
 10
164.4263766079
 20
95.3980578451
  0
VERTEX
  8
2_FEATURE
 62
7
  6
CONTINUOUS
 10
164.3680518121
 20
95.3965688029
  0
VERTEX
  8
2_FEATURE
 62
7
  6
CONTINUOUS
 10
164.3290846953
 20
95.396284381
  0
SEQEND
  0
POLYLINE
  8
1_AXIS
 62
7
  6
CONTINUOUS
 66
1
 70
0
  0
VERTEX
  8
1_AXIS
 62
7
  6
CONTINUOUS
 10
184.6638765245
 20
95.4268775731
  0
VERTEX
  8
1_AXIS
 62
7
  6
CONTINUOUS
 10
184.735640594
 20
95.4279249581
  0
VERTEX
  8
1_AXIS
 62
7
  6
CONTINUOUS
 10
184.8030155902
 20
95.431094898
  0
VERTEX
  8
1_AXIS
 62
7
  6
CONTINUOUS
 10
184.86263122
 20
95.436520686
  0
VERTEX
  8
1_AXIS
 62
7
  6
CONTINUOUS
 10
184.8881923891
 20
95.4400916368
  0
VERTEX
  8
1_AXIS
 62
7
  6
CONTINUOUS
 10
184.9294384535
 20
95.4490433662
  0
VERTEX
  8
1_AXIS
 62
7
  6
CONTINUOUS
 10
184.9551323356
 20
95.4602247532
  0
VERTEX
  8
1_AXIS
 62
7
  6
CONTINUOUS
 10
184.9638765245
 20
95.4733140827
  0
SEQEND
  0
LINE
  8
2_FEATURE
 62
7
  6
CONTINUOUS
 10
166.3951264827
 20
95.3980578451
 11
166.6138765245
 21
95.4008234931
  0
LINE
  8
2_FEATURE
 62
7
  6
CONTINUOUS
 10
164.4263766079
 20
95.3980578451
 11
164.6451265245
 21
95.4008234931
  0
LINE
  8
0
 62
7
  6
CONTINUOUS
 10
238.7638765245
 20
95.3962843611
 11
238.1638765245
 21
95.3962843611
  0
LINE
  8
0
 62
7
  6
CONTINUOUS
 10
166.2978346258
 20
95.3962843611
 11
165.6951265245
 21
95.3962843611
  0
LINE
  8
0
 62
7
  6
CONTINUOUS
 10
99.9138765245
 20
95.3962843611
 11
111.1638765245
 21
95.3962843611
  0
LINE
  8
2_FEATURE
 62
7
  6
CONTINUOUS
 10
111.0638765245
 20
95.3962843611
 11
111.1638765245
 21
95.3962843611
  0
LINE
  8
0
 62
7
  6
CONTINUOUS
 10
112.0638765245
 20
95.3962843611
 11
112.6638765245
 21
95.3962843611
  0
LINE
  8
0
 62
7
  6
CONTINUOUS
 10
112.6843530258
 20
95.3962843611
 11
164.3290846813
 21
95.3962843611
  0
LINE
  8
0
 62
7
  6
CONTINUOUS
 10
167.6638765245
 20
95.3962843611
 11
183.2187747954
 21
95.3962843611
  0
LINE
  8
0
 62
7
  6
CONTINUOUS
 10
183.5589814381
 20
95.3962843611
 11
238.1434000231
 21
95.3962843611
  0
LINE
  8
2_FEATURE
 62
7
  6
CONTINUOUS
 10
239.6638765245
 20
95.3962843611
 11
239.7638765245
 21
95.3962843611
  0
LINE
  8
0
 62
7
  6
CONTINUOUS
 10
239.7638765245
 20
95.3962843611
 11
250.9138765245
 21
95.3962843611
  0
LINE
  8
1_AXIS
 62
7
  6
CONTINUOUS
 10
183.5591659955
 20
95.3962844355
 11
183.2185899443
 21
95.3962844356
  0
LINE
  8
1_AXIS
 62
7
  6
CONTINUOUS
 10
187.3038765245
 20
95.3973218411
 11
186.7938765245
 21
95.3973218411
  0
LINE
  8
1_AXIS
 62
7
  6
CONTINUOUS
 10
186.1038765245
 20
95.3973218411
 11
185.5938765245
 21
95.3973218411
  0
LINE
  8
1_AXIS
 62
7
  6
CONTINUOUS
 10
185.4738765245
 20
95.3973218411
 11
184.9638765245
 21
95.3973218411
  0
LINE
  8
1_AXIS
 62
7
  6
CONTINUOUS
 10
184.619605794
 20
95.3975618247
 11
184.3638765245
 21
95.3973218411
  0
LINE
  8
1_AXIS
 62
7
  6
CONTINUOUS
 10
183.6438765245
 20
95.3976753881
 11
183.1338765245
 21
95.3976753881
  0
LINE
  8
2_FEATURE
 62
7
  6
CONTINUOUS
 10
167.4013765245
 20
95.4008234931
 11
166.6138765245
 21
95.4008234931
  0
LINE
  8
2_FEATURE
 62
7
  6
CONTINUOUS
 10
165.4326265245
 20
95.4008234931
 11
164.6451265245
 21
95.4008234931
  0
LINE
  8
1_AXIS
 62
7
  6
CONTINUOUS
 10
184.6638765245
 20
95.4268775731
 11
184.4238765245
 21
95.4268775731
  0
LINE
  8
1_AXIS
 62
7
  6
CONTINUOUS
 10
186.6438765245
 20
95.5261569934
 11
186.4038765245
 21
95.5261569934
  0
LINE
  8
2_FEATURE
 62
7
  6
CONTINUOUS
 10
167.6638765245
 20
95.5962843611
 11
167.4013765245
 21
95.5962843611
  0
LINE
  8
2_FEATURE
 62
7
  6
CONTINUOUS
 10
165.6951265245
 20
95.5962843611
 11
165.4326265245
 21
95.5962843611
  0
LINE
  8
1_AXIS
 62
7
  6
CONTINUOUS
 10
184.9638765245
 20
95.597371853
 11
185.4738765245
 21
95.597371853
  0
LINE
  8
1_AXIS
 62
7
  6
CONTINUOUS
 10
185.5938765245
 20
95.597371853
 11
186.1038765245
 21
95.597371853
  0
LINE
  8
1_AXIS
 62
7
  6
CONTINUOUS
 10
186.7938765245
 20
95.597371853
 11
187.1193963355
 21
95.597371853
  0
LINE
  8
1_AXIS
 62
7
  6
CONTINUOUS
 10
183.1338765245
 20
95.5977424486
 11
183.6438765245
 21
95.5977424486
  0
LINE
  8
1_AXIS
 62
7
  6
CONTINUOUS
 10
186.7038765245
 20
95.6539897725
 11
186.5538765245
 21
95.6539897725
  0
LINE
  8
1_AXIS
 62
7
  6
CONTINUOUS
 10
186.1038765245
 20
95.6539897725
 11
185.5938765245
 21
95.6539897725
  0
LINE
  8
1_AXIS
 62
7
  6
CONTINUOUS
 10
185.4738765245
 20
95.6539897725
 11
184.9638765245
 21
95.6539897725
  0
LINE
  8
1_AXIS
 62
7
  6
CONTINUOUS
 10
184.2738765245
 20
95.6539897725
 11
183.7638765245
 21
95.6539897725
  0
LINE
  8
1_AXIS
 62
7
  6
CONTINUOUS
 10
183.6438765245
 20
95.6539897725
 11
183.1338765245
 21
95.6539897725
  0
LINE
  8
2_FEATURE
 62
7
  6
CONTINUOUS
 10
167.6638765245
 20
95.7693390824
 11
167.4013765245
 21
95.7693390824
  0
LINE
  8
2_FEATURE
 62
7
  6
CONTINUOUS
 10
165.6951265245
 20
95.7693390824
 11
165.4326265245
 21
95.7693390824
  0
LINE
  8
0
 62
7
  6
CONTINUOUS
 10
99.7138765245
 20
97.0962843611
 11
103.7591563557
 21
97.0962843611
  0
LINE
  8
0
 62
7
  6
CONTINUOUS
 10
247.0685966928
 20
97.0962843611
 11
251.1138765245
 21
97.0962843611
  0
LINE
  8
0
 62
7
  6
CONTINUOUS
 10
245.9138765245
 20
98.7742246922
 11
238.1638765245
 21
98.7742246922
  0
LINE
  8
0
 62
7
  6
CONTINUOUS
 10
227.2638765245
 20
98.7742246922
 11
219.0638765245
 21
98.7742246922
  0
LINE
  8
0
 62
7
  6
CONTINUOUS
 10
208.1638765245
 20
98.7742246922
 11
199.9638765245
 21
98.7742246922
  0
LINE
  8
0
 62
7
  6
CONTINUOUS
 10
189.0638765245
 20
98.7742246922
 11
180.8638765245
 21
98.7742246922
  0
LINE
  8
0
 62
7
  6
CONTINUOUS
 10
169.9638765245
 20
98.7742246922
 11
161.7638765245
 21
98.7742246922
  0
LINE
  8
0
 62
7
  6
CONTINUOUS
 10
150.8638765245
 20
98.7742246922
 11
142.6638765245
 21
98.7742246922
  0
LINE
  8
0
 62
7
  6
CONTINUOUS
 10
131.7638765245
 20
98.7742246922
 11
123.5638765245
 21
98.7742246922
  0
LINE
  8
0
 62
7
  6
CONTINUOUS
 10
112.6638765245
 20
98.7742246922
 11
104.9138765245
 21
98.7742246922
  0
LINE
  8
1_AXIS
 62
2
  6
CENTER
 10
90.4444204152
 20
99.7462843611
 11
266.2013408304
 21
99.7462843611
  0
POLYLINE
  8
1_AXIS
 62
7
  6
CONTINUOUS
 66
1
 70
0
  0
VERTEX
  8
1_AXIS
 62
7
  6
CONTINUOUS
 10
184.3638765245
 20
95.3973218411
  0
VERTEX
  8
1_AXIS
 62
7
  6
CONTINUOUS
 10
184.2464255733
 20
95.397590907
  0
VERTEX
  8
1_AXIS
 62
7
  6
CONTINUOUS
 10
184.1337650975
 20
95.3985662511
  0
VERTEX
  8
1_AXIS
 62
7
  6
CONTINUOUS
 10
184.0299137358
 20
95.4007263319
  0
VERTEX
  8
1_AXIS
 62
7
  6
CONTINUOUS
 10
183.939137079
 20
95.4047472903
  0
VERTEX
  8
1_AXIS
 62
7
  6
CONTINUOUS
 10
183.8647411445
 20
95.4113762097
  0
VERTEX
  8
1_AXIS
 62
7
  6
CONTINUOUS
 10
183.8094829385
 20
95.4212682791
  0
VERTEX
  8
1_AXIS
 62
7
  6
CONTINUOUS
 10
183.7754252661
 20
95.4348351522
  0
VERTEX
  8
1_AXIS
 62
7
  6
CONTINUOUS
 10
183.7638765245
 20
95.45216338
  0
SEQEND
  0
LINE
  8
0
 62
7
  6
CONTINUOUS
 10
122.522191087
 20
101.4962843611
 11
122.5505142591
 21
101.4955394335
  0
POLYLINE
  8
1_AXIS
 62
7
  6
CONTINUOUS
 66
1
 70
0
  0
VERTEX
  8
1_AXIS
 62
7
  6
CONTINUOUS
 10
186.7038765245
 20
95.6539897725
  0
VERTEX
  8
1_AXIS
 62
7
  6
CONTINUOUS
 10
186.8174011052
 20
95.6500996883
  0
VERTEX
  8
1_AXIS
 62
7
  6
CONTINUOUS
 10
186.92798491
 20
95.638597203
  0
VERTEX
  8
1_AXIS
 62
7
  6
CONTINUOUS
 10
187.0312498645
 20
95.6202553392
  0
VERTEX
  8
1_AXIS
 62
7
  6
CONTINUOUS
 10
187.1231268021
 20
95.5964033958
  0
VERTEX
  8
1_AXIS
 62
7
  6
CONTINUOUS
 10
187.1995344214
 20
95.568863311
  0
VERTEX
  8
1_AXIS
 62
7
  6
CONTINUOUS
 10
187.2568349943
 20
95.5397318943
  0
VERTEX
  8
1_AXIS
 62
7
  6
CONTINUOUS
 10
187.2920683129
 20
95.51124517
  0
VERTEX
  8
1_AXIS
 62
7
  6
CONTINUOUS
 10
187.3038765245
 20
95.4851958851
  0
SEQEND
  0
POLYLINE
  8
0
 62
7
  6
CONTINUOUS
 66
1
 70
0
  0
VERTEX
  8
0
 62
7
  6
CONTINUOUS
 10
170.4638765245
 20
100.660012986
  0
VERTEX
  8
0
 62
7
  6
CONTINUOUS
 10
170.4514505561
 20
100.6732530552
  0
VERTEX
  8
0
 62
7
  6
CONTINUOUS
 10
170.4147210763
 20
100.6856790313
  0
VERTEX
  8
0
 62
7
  6
CONTINUOUS
 10
170.3554092579
 20
100.6967123286
  0
VERTEX
  8
0
 62
7
  6
CONTINUOUS
 10
170.2763826547
 20
100.7058507437
  0
VERTEX
  8
0
 62
7
  6
CONTINUOUS
 10
170.1815340897
 20
100.7126852075
  0
VERTEX
  8
0
 62
7
  6
CONTINUOUS
 10
170.0755924631
 20
100.7169125856
  0
VERTEX
  8
0
 62
7
  6
CONTINUOUS
 10
169.9638765245
 20
100.7183440301
  0
SEQEND
  0
LINE
  8
0
 62
7
  6
CONTINUOUS
 10
178.4138765245
 20
99.1393717737
 11
178.4138765245
 21
95.8962843611
  0
LINE
  8
0
 62
7
  6
CONTINUOUS
 10
180.3638765245
 20
95.8962843611
 11
180.3638765245
 21
103.3962843611
  0
POLYLINE
  8
0
 62
7
  6
CONTINUOUS
 66
1
 70
0
  0
VERTEX
  8
0
 62
7
  6
CONTINUOUS
 10
180.3536382738
 20
100.9962843611
  0
VERTEX
  8
0
 62
7
  6
CONTINUOUS
 10
180.359341397
 20
101.0302215884
  0
VERTEX
  8
0
 62
7
  6
CONTINUOUS
 10
180.3627465982
 20
101.0638143438
  0
VERTEX
  8
0
 62
7
  6
CONTINUOUS
 10
180.3638765245
 20
101.096949295
  0
SEQEND
  0
POLYLINE
  8
0
 62
7
  6
CONTINUOUS
 66
1
 70
0
  0
VERTEX
  8
0
 62
7
  6
CONTINUOUS
 10
180.3638765245
 20
100.660012986
  0
VERTEX
  8
0
 62
7
  6
CONTINUOUS
 10
180.3763024928
 20
100.6732530552
  0
VERTEX
  8
0
 62
7
  6
CONTINUOUS
 10
180.4130319726
 20
100.6856790313
  0
VERTEX
  8
0
 62
7
  6
CONTINUOUS
 10
180.472343791
 20
100.6967123286
  0
VERTEX
  8
0
 62
7
  6
CONTINUOUS
 10
180.5513703942
 20
100.7058507437
  0
VERTEX
  8
0
 62
7
  6
CONTINUOUS
 10
180.6462189592
 20
100.7126852075
  0
VERTEX
  8
0
 62
7
  6
CONTINUOUS
 10
180.7521605858
 20
100.7169125856
  0
VERTEX
  8
0
 62
7
  6
CONTINUOUS
 10
180.8638765245
 20
100.7183440301
  0
SEQEND
  0
LINE
  8
0
 62
7
  6
CONTINUOUS
 10
209.1772387898
 20
101.4955394335
 11
209.205561956
 21
101.4962843611
  0
LINE
  8
0
 62
7
  6
CONTINUOUS
 10
190.0772387898
 20
101.4955394335
 11
190.105561956
 21
101.4962843611
  0
LINE
  8
0
 62
7
  6
CONTINUOUS
 10
170.9772387898
 20
101.4955394335
 11
171.005561956
 21
101.4962843611
  0
LINE
  8
0
 62
7
  6
CONTINUOUS
 10
151.8772387898
 20
101.4955394335
 11
151.905561956
 21
101.4962843611
  0
LINE
  8
0
 62
7
  6
CONTINUOUS
 10
132.7772387898
 20
101.4955394335
 11
132.805561956
 21
101.4962843611
  0
LINE
  8
0
 62
7
  6
CONTINUOUS
 10
113.6772387898
 20
101.4955394335
 11
113.705561956
 21
101.4962843611
  0
LINE
  8
0
 62
7
  6
CONTINUOUS
 10
245.9138765245
 20
100.7183440301
 11
238.1638765245
 21
100.7183440301
  0
LINE
  8
0
 62
7
  6
CONTINUOUS
 10
227.2638765245
 20
100.7183440301
 11
219.0638765245
 21
100.7183440301
  0
LINE
  8
0
 62
7
  6
CONTINUOUS
 10
208.1638765245
 20
100.7183440301
 11
199.9638765245
 21
100.7183440301
  0
LINE
  8
0
 62
7
  6
CONTINUOUS
 10
189.0638765245
 20
100.7183440301
 11
180.8638765245
 21
100.7183440301
  0
LINE
  8
0
 62
7
  6
CONTINUOUS
 10
169.9638765245
 20
100.7183440301
 11
161.7638765245
 21
100.7183440301
  0
LINE
  8
0
 62
7
  6
CONTINUOUS
 10
150.8638765245
 20
100.7183440301
 11
142.6638765245
 21
100.7183440301
  0
LINE
  8
0
 62
7
  6
CONTINUOUS
 10
131.7638765245
 20
100.7183440301
 11
123.5638765245
 21
100.7183440301
  0
LINE
  8
0
 62
7
  6
CONTINUOUS
 10
112.6638765245
 20
100.7183440301
 11
104.9138765245
 21
100.7183440301
  0
LINE
  8
0
 62
7
  6
CONTINUOUS
 10
113.7055619603
 20
101.4962843611
 11
122.5221910828
 21
101.4962843611
  0
LINE
  8
0
 62
7
  6
CONTINUOUS
 10
132.8055619603
 20
101.4962843611
 11
141.6221910828
 21
101.4962843611
  0
LINE
  8
0
 62
7
  6
CONTINUOUS
 10
151.9055619603
 20
101.4962843611
 11
160.7221910828
 21
101.4962843611
  0
LINE
  8
0
 62
7
  6
CONTINUOUS
 10
171.0055619603
 20
101.4962843611
 11
179.8221910828
 21
101.4962843611
  0
LINE
  8
0
 62
7
  6
CONTINUOUS
 10
190.1055619603
 20
101.4962843611
 11
198.9221910828
 21
101.4962843611
  0
LINE
  8
0
 62
7
  6
CONTINUOUS
 10
209.2055619603
 20
101.4962843611
 11
218.0221910828
 21
101.4962843611
  0
LINE
  8
0
 62
7
  6
CONTINUOUS
 10
228.3055619603
 20
101.4962843611
 11
237.1221910828
 21
101.4962843611
  0
LINE
  8
0
 62
7
  6
CONTINUOUS
 10
251.1138765245
 20
103.8962843611
 11
99.7138765245
 21
103.8962843611
  0
LINE
  8
0
 62
7
  6
CONTINUOUS
 10
141.622191087
 20
101.4962843611
 11
141.6505142591
 21
101.4955394335
  0
LINE
  8
0
 62
7
  6
CONTINUOUS
 10
160.722191087
 20
101.4962843611
 11
160.7505142591
 21
101.4955394335
  0
LINE
  8
0
 62
7
  6
CONTINUOUS
 10
179.822191087
 20
101.4962843611
 11
179.8505142591
 21
101.4955394335
  0
LINE
  8
0
 62
7
  6
CONTINUOUS
 10
198.922191087
 20
101.4962843611
 11
198.9505142591
 21
101.4955394335
  0
LINE
  8
0
 62
7
  6
CONTINUOUS
 10
218.022191087
 20
101.4962843611
 11
218.0505142591
 21
101.4955394335
  0
LINE
  8
0
 62
7
  6
CONTINUOUS
 10
237.122191087
 20
101.4962843611
 11
237.1505142591
 21
101.4955394335
  0
POLYLINE
  8
0
 62
7
  6
CONTINUOUS
 66
1
 70
0
  0
VERTEX
  8
0
 62
7
  6
CONTINUOUS
 10
180.3638765245
 20
98.8325557362
  0
VERTEX
  8
0
 62
7
  6
CONTINUOUS
 10
180.3763024928
 20
98.819315667
  0
VERTEX
  8
0
 62
7
  6
CONTINUOUS
 10
180.4130319726
 20
98.8068896909
  0
VERTEX
  8
0
 62
7
  6
CONTINUOUS
 10
180.472343791
 20
98.7958563936
  0
VERTEX
  8
0
 62
7
  6
CONTINUOUS
 10
180.5513703942
 20
98.7867179785
  0
VERTEX
  8
0
 62
7
  6
CONTINUOUS
 10
180.6462189592
 20
98.7798835147
  0
VERTEX
  8
0
 62
7
  6
CONTINUOUS
 10
180.7521605858
 20
98.7756561366
  0
VERTEX
  8
0
 62
7
  6
CONTINUOUS
 10
180.8638765245
 20
98.7742246922
  0
SEQEND
  0
LINE
  8
1_AXIS
 62
7
  6
CONTINUOUS
 10
183.1338765245
 20
95.3976753881
 11
183.1338765245
 21
95.6539897725
  0
LINE
  8
1_AXIS
 62
7
  6
CONTINUOUS
 10
183.6438765245
 20
95.3976753881
 11
183.6438765245
 21
95.6539897725
  0
LINE
  8
1_AXIS
 62
7
  6
CONTINUOUS
 10
183.7638765245
 20
95.45216338
 11
183.7638765245
 21
95.6539897725
  0
LINE
  8
1_AXIS
 62
7
  6
CONTINUOUS
 10
184.2738765245
 20
95.4474153238
 11
184.2738765245
 21
95.6539897725
  0
LINE
  8
1_AXIS
 62
7
  6
CONTINUOUS
 10
184.9638765245
 20
95.3973218411
 11
184.9638765245
 21
95.6539897725
  0
LINE
  8
1_AXIS
 62
7
  6
CONTINUOUS
 10
185.4738765245
 20
95.3973218411
 11
185.4738765245
 21
95.6539897725
  0
LINE
  8
1_AXIS
 62
7
  6
CONTINUOUS
 10
185.5938765245
 20
95.3973218411
 11
185.5938765245
 21
95.6539897725
  0
LINE
  8
1_AXIS
 62
7
  6
CONTINUOUS
 10
186.1038765245
 20
95.3973218411
 11
186.1038765245
 21
95.6539897725
  0
POLYLINE
  8
1_AXIS
 62
7
  6
CONTINUOUS
 66
1
 70
0
  0
VERTEX
  8
1_AXIS
 62
7
  6
CONTINUOUS
 10
186.1038765245
 20
95.5752802853
  0
VERTEX
  8
1_AXIS
 62
7
  6
CONTINUOUS
 10
186.1731825922
 20
95.6009955968
  0
VERTEX
  8
1_AXIS
 62
7
  6
CONTINUOUS
 10
186.2563128586
 20
95.6229921274
  0
VERTEX
  8
1_AXIS
 62
7
  6
CONTINUOUS
 10
186.3502616152
 20
95.6398938298
  0
VERTEX
  8
1_AXIS
 62
7
  6
CONTINUOUS
 10
186.4506354174
 20
95.6504257168
  0
VERTEX
  8
1_AXIS
 62
7
  6
CONTINUOUS
 10
186.5538765245
 20
95.6539897725
  0
SEQEND
  0
POLYLINE
  8
1_AXIS
 62
7
  6
CONTINUOUS
 66
1
 70
0
  0
VERTEX
  8
1_AXIS
 62
7
  6
CONTINUOUS
 10
184.2738765245
 20
95.4474153238
  0
VERTEX
  8
1_AXIS
 62
7
  6
CONTINUOUS
 10
184.2754074931
 20
95.4441629601
  0
VERTEX
  8
1_AXIS
 62
7
  6
CONTINUOUS
 10
184.2875101572
 20
95.4382135494
  0
VERTEX
  8
1_AXIS
 62
7
  6
CONTINUOUS
 10
184.3105597481
 20
95.4333583869
  0
VERTEX
  8
1_AXIS
 62
7
  6
CONTINUOUS
 10
184.325826304
 20
95.4313838154
  0
VERTEX
  8
1_AXIS
 62
7
  6
CONTINUOUS
 10
184.3616876121
 20
95.4285084441
  0
VERTEX
  8
1_AXIS
 62
7
  6
CONTINUOUS
 10
184.4026493168
 20
95.4270578266
  0
VERTEX
  8
1_AXIS
 62
7
  6
CONTINUOUS
 10
184.4238765245
 20
95.4268775731
  0
SEQEND
  0
POLYLINE
  8
1_AXIS
 62
7
  6
CONTINUOUS
 66
1
 70
0
  0
VERTEX
  8
1_AXIS
 62
7
  6
CONTINUOUS
 10
186.7938765245
 20
95.4914665037
  0
VERTEX
  8
1_AXIS
 62
7
  6
CONTINUOUS
 10
186.7923204973
 20
95.4961072157
  0
VERTEX
  8
1_AXIS
 62
7
  6
CONTINUOUS
 10
186.7800854836
 20
95.5053160011
  0
VERTEX
  8
1_AXIS
 62
7
  6
CONTINUOUS
 10
186.7568786238
 20
95.5136492631
  0
VERTEX
  8
1_AXIS
 62
7
  6
CONTINUOUS
 10
186.7415537095
 20
95.5172811171
  0
VERTEX
  8
1_AXIS
 62
7
  6
CONTINUOUS
 10
186.7056737621
 20
95.5228491214
  0
VERTEX
  8
1_AXIS
 62
7
  6
CONTINUOUS
 10
186.6648535074
 20
95.5257887725
  0
VERTEX
  8
1_AXIS
 62
7
  6
CONTINUOUS
 10
186.6438765245
 20
95.5261569934
  0
SEQEND
  0
POLYLINE
  8
1_AXIS
 62
7
  6
CONTINUOUS
 66
1
 70
0
  0
VERTEX
  8
1_AXIS
 62
7
  6
CONTINUOUS
 10
183.7641694323
 20
95.6539897725
  0
VERTEX
  8
1_AXIS
 62
7
  6
CONTINUOUS
 10
183.7671716946
 20
95.6447214655
  0
VERTEX
  8
1_AXIS
 62
7
  6
CONTINUOUS
 10
183.7931889244
 20
95.6277106139
  0
VERTEX
  8
1_AXIS
 62
7
  6
CONTINUOUS
 10
183.8439477364
 20
95.6151773479
  0
VERTEX
  8
1_AXIS
 62
7
  6
CONTINUOUS
 10
183.9173463651
 20
95.6067282899
  0
VERTEX
  8
1_AXIS
 62
7
  6
CONTINUOUS
 10
183.961676473
 20
95.6038070881
  0
VERTEX
  8
1_AXIS
 62
7
  6
CONTINUOUS
 10
184.0631065696
 20
95.6000108785
  0
VERTEX
  8
1_AXIS
 62
7
  6
CONTINUOUS
 10
184.1778961414
 20
95.5981538326
  0
VERTEX
  8
1_AXIS
 62
7
  6
CONTINUOUS
 10
184.2738765245
 20
95.5976040347
  0
SEQEND
  0
POLYLINE
  8
0
 62
7
  6
CONTINUOUS
 66
1
 70
0
  0
VERTEX
  8
0
 62
7
  6
CONTINUOUS
 10
189.5638765245
 20
101.096949295
  0
VERTEX
  8
0
 62
7
  6
CONTINUOUS
 10
189.5650056478
 20
101.0638261853
  0
VERTEX
  8
0
 62
7
  6
CONTINUOUS
 10
189.5684114404
 20
101.0302231585
  0
VERTEX
  8
0
 62
7
  6
CONTINUOUS
 10
189.5741147751
 20
100.9962843611
  0
SEQEND
  0
LINE
  8
1_AXIS
 62
7
  6
CONTINUOUS
 10
186.7938765245
 20
95.3973218411
 11
186.7938765245
 21
95.6509057921
  0
LINE
  8
1_AXIS
 62
7
  6
CONTINUOUS
 10
187.3038765245
 20
95.3973218411
 11
187.3038765245
 21
95.4851958851
  0
LINE
  8
0
 62
7
  6
CONTINUOUS
 10
189.5638765245
 20
95.8962843611
 11
189.5638765245
 21
103.3962843611
  0
POLYLINE
  8
0
 62
7
  6
CONTINUOUS
 66
1
 70
0
  0
VERTEX
  8
0
 62
7
  6
CONTINUOUS
 10
189.5638765245
 20
98.8325557362
  0
VERTEX
  8
0
 62
7
  6
CONTINUOUS
 10
189.5514505561
 20
98.819315667
  0
VERTEX
  8
0
 62
7
  6
CONTINUOUS
 10
189.5147210763
 20
98.8068896909
  0
VERTEX
  8
0
 62
7
  6
CONTINUOUS
 10
189.4554092579
 20
98.7958563936
  0
VERTEX
  8
0
 62
7
  6
CONTINUOUS
 10
189.3763826547
 20
98.7867179785
  0
VERTEX
  8
0
 62
7
  6
CONTINUOUS
 10
189.2815340897
 20
98.7798835147
  0
VERTEX
  8
0
 62
7
  6
CONTINUOUS
 10
189.1755924631
 20
98.7756561366
  0
VERTEX
  8
0
 62
7
  6
CONTINUOUS
 10
189.0638765245
 20
98.7742246922
  0
SEQEND
  0
POLYLINE
  8
0
 62
7
  6
CONTINUOUS
 66
1
 70
0
  0
VERTEX
  8
0
 62
7
  6
CONTINUOUS
 10
189.5638765245
 20
100.660012986
  0
VERTEX
  8
0
 62
7
  6
CONTINUOUS
 10
189.5514505561
 20
100.6732530552
  0
VERTEX
  8
0
 62
7
  6
CONTINUOUS
 10
189.5147210763
 20
100.6856790313
  0
VERTEX
  8
0
 62
7
  6
CONTINUOUS
 10
189.4554092579
 20
100.6967123286
  0
VERTEX
  8
0
 62
7
  6
CONTINUOUS
 10
189.3763826547
 20
100.7058507437
  0
VERTEX
  8
0
 62
7
  6
CONTINUOUS
 10
189.2815340897
 20
100.7126852075
  0
VERTEX
  8
0
 62
7
  6
CONTINUOUS
 10
189.1755924631
 20
100.7169125856
  0
VERTEX
  8
0
 62
7
  6
CONTINUOUS
 10
189.0638765245
 20
100.7183440301
  0
SEQEND
  0
LINE
  8
0
 62
7
  6
CONTINUOUS
 10
191.5138765245
 20
99.1393667358
 11
191.5138765245
 21
95.8962843611
  0
POLYLINE
  8
0
 62
7
  6
CONTINUOUS
 66
1
 70
0
  0
VERTEX
  8
0
 62
7
  6
CONTINUOUS
 10
199.4638765245
 20
100.660012986
  0
VERTEX
  8
0
 62
7
  6
CONTINUOUS
 10
199.4763024928
 20
100.6732530552
  0
VERTEX
  8
0
 62
7
  6
CONTINUOUS
 10
199.5130319726
 20
100.6856790313
  0
VERTEX
  8
0
 62
7
  6
CONTINUOUS
 10
199.572343791
 20
100.6967123286
  0
VERTEX
  8
0
 62
7
  6
CONTINUOUS
 10
199.6513703942
 20
100.7058507437
  0
VERTEX
  8
0
 62
7
  6
CONTINUOUS
 10
199.7462189592
 20
100.7126852075
  0
VERTEX
  8
0
 62
7
  6
CONTINUOUS
 10
199.8521605858
 20
100.7169125856
  0
VERTEX
  8
0
 62
7
  6
CONTINUOUS
 10
199.9638765245
 20
100.7183440301
  0
SEQEND
  0
POLYLINE
  8
2_FEATURE
 62
7
  6
CONTINUOUS
 66
1
 70
0
  0
VERTEX
  8
2_FEATURE
 62
7
  6
CONTINUOUS
 10
239.3283714886
 20
96.8614805537
  0
VERTEX
  8
2_FEATURE
 62
7
  6
CONTINUOUS
 10
239.3749538485
 20
96.8751131446
  0
VERTEX
  8
2_FEATURE
 62
7
  6
CONTINUOUS
 10
239.4209375673
 20
96.8784728335
  0
VERTEX
  8
2_FEATURE
 62
7
  6
CONTINUOUS
 10
239.4671796003
 20
96.8720430319
  0
VERTEX
  8
2_FEATURE
 62
7
  6
CONTINUOUS
 10
239.5141338851
 20
96.8548277098
  0
VERTEX
  8
2_FEATURE
 62
7
  6
CONTINUOUS
 10
239.5377454599
 20
96.8415512425
  0
VERTEX
  8
2_FEATURE
 62
7
  6
CONTINUOUS
 10
239.5843847571
 20
96.8037362255
  0
VERTEX
  8
2_FEATURE
 62
7
  6
CONTINUOUS
 10
239.6252812835
 20
96.7508587018
  0
VERTEX
  8
2_FEATURE
 62
7
  6
CONTINUOUS
 10
239.6536237383
 20
96.6863018736
  0
VERTEX
  8
2_FEATURE
 62
7
  6
CONTINUOUS
 10
239.6638765245
 20
96.6163255365
  0
SEQEND
  0
POLYLINE
  8
0
 62
7
  6
CONTINUOUS
 66
1
 70
0
  0
VERTEX
  8
0
 62
7
  6
CONTINUOUS
 10
199.4638765245
 20
98.8325557362
  0
VERTEX
  8
0
 62
7
  6
CONTINUOUS
 10
199.4763024928
 20
98.819315667
  0
VERTEX
  8
0
 62
7
  6
CONTINUOUS
 10
199.5130319726
 20
98.8068896909
  0
VERTEX
  8
0
 62
7
  6
CONTINUOUS
 10
199.572343791
 20
98.7958563936
  0
VERTEX
  8
0
 62
7
  6
CONTINUOUS
 10
199.6513703942
 20
98.7867179785
  0
VERTEX
  8
0
 62
7
  6
CONTINUOUS
 10
199.7462189592
 20
98.7798835147
  0
VERTEX
  8
0
 62
7
  6
CONTINUOUS
 10
199.8521605858
 20
98.7756561366
  0
VERTEX
  8
0
 62
7
  6
CONTINUOUS
 10
199.9638765245
 20
98.7742246922
  0
SEQEND
  0
LINE
  8
0
 62
7
  6
CONTINUOUS
 10
197.5138765245
 20
99.1393717737
 11
197.5138765245
 21
95.8962843611
  0
LINE
  8
0
 62
7
  6
CONTINUOUS
 10
199.4638765245
 20
95.8962843611
 11
199.4638765245
 21
103.3962843611
  0
POLYLINE
  8
0
 62
7
  6
CONTINUOUS
 66
1
 70
0
  0
VERTEX
  8
0
 62
7
  6
CONTINUOUS
 10
199.4536382738
 20
100.9962843611
  0
VERTEX
  8
0
 62
7
  6
CONTINUOUS
 10
199.459341397
 20
101.0302215884
  0
VERTEX
  8
0
 62
7
  6
CONTINUOUS
 10
199.4627465982
 20
101.0638143438
  0
VERTEX
  8
0
 62
7
  6
CONTINUOUS
 10
199.4638765245
 20
101.096949295
  0
SEQEND
  0
POLYLINE
  8
0
 62
7
  6
CONTINUOUS
 66
1
 70
0
  0
VERTEX
  8
0
 62
7
  6
CONTINUOUS
 10
208.6638765245
 20
98.8325557362
  0
VERTEX
  8
0
 62
7
  6
CONTINUOUS
 10
208.6514505561
 20
98.819315667
  0
VERTEX
  8
0
 62
7
  6
CONTINUOUS
 10
208.6147210763
 20
98.8068896909
  0
VERTEX
  8
0
 62
7
  6
CONTINUOUS
 10
208.5554092579
 20
98.7958563936
  0
VERTEX
  8
0
 62
7
  6
CONTINUOUS
 10
208.4763826547
 20
98.7867179785
  0
VERTEX
  8
0
 62
7
  6
CONTINUOUS
 10
208.3815340897
 20
98.7798835147
  0
VERTEX
  8
0
 62
7
  6
CONTINUOUS
 10
208.2755924631
 20
98.7756561366
  0
VERTEX
  8
0
 62
7
  6
CONTINUOUS
 10
208.1638765245
 20
98.7742246922
  0
SEQEND
  0
POLYLINE
  8
0
 62
7
  6
CONTINUOUS
 66
1
 70
0
  0
VERTEX
  8
0
 62
7
  6
CONTINUOUS
 10
247.0211210643
 20
97.0579769217
  0
VERTEX
  8
0
 62
7
  6
CONTINUOUS
 10
247.1070978056
 20
97.0866660887
  0
VERTEX
  8
0
 62
7
  6
CONTINUOUS
 10
247.1971033356
 20
97.0962845245
  0
SEQEND
  0
POLYLINE
  8
0
 62
7
  6
CONTINUOUS
 66
1
 70
0
  0
VERTEX
  8
0
 62
7
  6
CONTINUOUS
 10
238.1638765245
 20
96.44441212
  0
VERTEX
  8
0
 62
7
  6
CONTINUOUS
 10
238.5875368981
 20
96.5831846398
  0
VERTEX
  8
0
 62
7
  6
CONTINUOUS
 10
238.9749098886
 20
96.7225014231
  0
VERTEX
  8
0
 62
7
  6
CONTINUOUS
 10
239.3283714886
 20
96.8614805537
  0
SEQEND
  0
POLYLINE
  8
0
 62
7
  6
CONTINUOUS
 66
1
 70
0
  0
VERTEX
  8
0
 62
7
  6
CONTINUOUS
 10
208.6638765245
 20
100.660012986
  0
VERTEX
  8
0
 62
7
  6
CONTINUOUS
 10
208.6514505561
 20
100.6732530552
  0
VERTEX
  8
0
 62
7
  6
CONTINUOUS
 10
208.6147210763
 20
100.6856790313
  0
VERTEX
  8
0
 62
7
  6
CONTINUOUS
 10
208.5554092579
 20
100.6967123286
  0
VERTEX
  8
0
 62
7
  6
CONTINUOUS
 10
208.4763826547
 20
100.7058507437
  0
VERTEX
  8
0
 62
7
  6
CONTINUOUS
 10
208.3815340897
 20
100.7126852075
  0
VERTEX
  8
0
 62
7
  6
CONTINUOUS
 10
208.2755924631
 20
100.7169125856
  0
VERTEX
  8
0
 62
7
  6
CONTINUOUS
 10
208.1638765245
 20
100.7183440301
  0
SEQEND
  0
POLYLINE
  8
0
 62
7
  6
CONTINUOUS
 66
1
 70
0
  0
VERTEX
  8
0
 62
7
  6
CONTINUOUS
 10
218.5638765245
 20
100.660012986
  0
VERTEX
  8
0
 62
7
  6
CONTINUOUS
 10
218.5763024928
 20
100.6732530552
  0
VERTEX
  8
0
 62
7
  6
CONTINUOUS
 10
218.6130319726
 20
100.6856790313
  0
VERTEX
  8
0
 62
7
  6
CONTINUOUS
 10
218.672343791
 20
100.6967123286
  0
VERTEX
  8
0
 62
7
  6
CONTINUOUS
 10
218.7513703942
 20
100.7058507437
  0
VERTEX
  8
0
 62
7
  6
CONTINUOUS
 10
218.8462189592
 20
100.7126852075
  0
VERTEX
  8
0
 62
7
  6
CONTINUOUS
 10
218.9521605858
 20
100.7169125856
  0
VERTEX
  8
0
 62
7
  6
CONTINUOUS
 10
219.0638765245
 20
100.7183440301
  0
SEQEND
  0
POLYLINE
  8
0
 62
7
  6
CONTINUOUS
 66
1
 70
0
  0
VERTEX
  8
0
 62
7
  6
CONTINUOUS
 10
218.5638765245
 20
98.8325557362
  0
VERTEX
  8
0
 62
7
  6
CONTINUOUS
 10
218.5763024928
 20
98.819315667
  0
VERTEX
  8
0
 62
7
  6
CONTINUOUS
 10
218.6130319726
 20
98.8068896909
  0
VERTEX
  8
0
 62
7
  6
CONTINUOUS
 10
218.672343791
 20
98.7958563936
  0
VERTEX
  8
0
 62
7
  6
CONTINUOUS
 10
218.7513703942
 20
98.7867179785
  0
VERTEX
  8
0
 62
7
  6
CONTINUOUS
 10
218.8462189592
 20
98.7798835147
  0
VERTEX
  8
0
 62
7
  6
CONTINUOUS
 10
218.9521605858
 20
98.7756561366
  0
VERTEX
  8
0
 62
7
  6
CONTINUOUS
 10
219.0638765245
 20
98.7742246922
  0
SEQEND
  0
POLYLINE
  8
0
 62
7
  6
CONTINUOUS
 66
1
 70
0
  0
VERTEX
  8
0
 62
7
  6
CONTINUOUS
 10
208.6638765245
 20
101.096949295
  0
VERTEX
  8
0
 62
7
  6
CONTINUOUS
 10
208.6650056478
 20
101.0638261853
  0
VERTEX
  8
0
 62
7
  6
CONTINUOUS
 10
208.6684114404
 20
101.0302231585
  0
VERTEX
  8
0
 62
7
  6
CONTINUOUS
 10
208.6741147751
 20
100.9962843611
  0
SEQEND
  0
LINE
  8
0
 62
7
  6
CONTINUOUS
 10
208.6638765245
 20
95.8962843611
 11
208.6638765245
 21
103.3962843611
  0
LINE
  8
0
 62
7
  6
CONTINUOUS
 10
210.6138765245
 20
99.1393667358
 11
210.6138765245
 21
95.8962843611
  0
LINE
  8
0
 62
7
  6
CONTINUOUS
 10
216.6138765245
 20
99.1393717737
 11
216.6138765245
 21
95.8962843611
  0
POLYLINE
  8
0
 62
7
  6
CONTINUOUS
 66
1
 70
0
  0
VERTEX
  8
0
 62
7
  6
CONTINUOUS
 10
227.7638765245
 20
98.8325557362
  0
VERTEX
  8
0
 62
7
  6
CONTINUOUS
 10
227.7514505561
 20
98.819315667
  0
VERTEX
  8
0
 62
7
  6
CONTINUOUS
 10
227.7147210763
 20
98.8068896909
  0
VERTEX
  8
0
 62
7
  6
CONTINUOUS
 10
227.6554092579
 20
98.7958563936
  0
VERTEX
  8
0
 62
7
  6
CONTINUOUS
 10
227.5763826547
 20
98.7867179785
  0
VERTEX
  8
0
 62
7
  6
CONTINUOUS
 10
227.4815340897
 20
98.7798835147
  0
VERTEX
  8
0
 62
7
  6
CONTINUOUS
 10
227.3755924631
 20
98.7756561366
  0
VERTEX
  8
0
 62
7
  6
CONTINUOUS
 10
227.2638765245
 20
98.7742246922
  0
SEQEND
  0
POLYLINE
  8
0
 62
7
  6
CONTINUOUS
 66
1
 70
0
  0
VERTEX
  8
0
 62
7
  6
CONTINUOUS
 10
227.7638765245
 20
100.660012986
  0
VERTEX
  8
0
 62
7
  6
CONTINUOUS
 10
227.7514505561
 20
100.6732530552
  0
VERTEX
  8
0
 62
7
  6
CONTINUOUS
 10
227.7147210763
 20
100.6856790313
  0
VERTEX
  8
0
 62
7
  6
CONTINUOUS
 10
227.6554092579
 20
100.6967123286
  0
VERTEX
  8
0
 62
7
  6
CONTINUOUS
 10
227.5763826547
 20
100.7058507437
  0
VERTEX
  8
0
 62
7
  6
CONTINUOUS
 10
227.4815340897
 20
100.7126852075
  0
VERTEX
  8
0
 62
7
  6
CONTINUOUS
 10
227.3755924631
 20
100.7169125856
  0
VERTEX
  8
0
 62
7
  6
CONTINUOUS
 10
227.2638765245
 20
100.7183440301
  0
SEQEND
  0
LINE
  8
0
 62
7
  6
CONTINUOUS
 10
218.5638765245
 20
95.8962843611
 11
218.5638765245
 21
103.3962843611
  0
POLYLINE
  8
0
 62
7
  6
CONTINUOUS
 66
1
 70
0
  0
VERTEX
  8
0
 62
7
  6
CONTINUOUS
 10
218.5536382738
 20
100.9962843611
  0
VERTEX
  8
0
 62
7
  6
CONTINUOUS
 10
218.559341397
 20
101.0302215884
  0
VERTEX
  8
0
 62
7
  6
CONTINUOUS
 10
218.5627465982
 20
101.0638143438
  0
VERTEX
  8
0
 62
7
  6
CONTINUOUS
 10
218.5638765245
 20
101.096949295
  0
SEQEND
  0
POLYLINE
  8
0
 62
7
  6
CONTINUOUS
 66
1
 70
0
  0
VERTEX
  8
0
 62
7
  6
CONTINUOUS
 10
237.6638765245
 20
100.660012986
  0
VERTEX
  8
0
 62
7
  6
CONTINUOUS
 10
237.6763024928
 20
100.6732530552
  0
VERTEX
  8
0
 62
7
  6
CONTINUOUS
 10
237.7130319726
 20
100.6856790313
  0
VERTEX
  8
0
 62
7
  6
CONTINUOUS
 10
237.772343791
 20
100.6967123286
  0
VERTEX
  8
0
 62
7
  6
CONTINUOUS
 10
237.8513703942
 20
100.7058507437
  0
VERTEX
  8
0
 62
7
  6
CONTINUOUS
 10
237.9462189592
 20
100.7126852075
  0
VERTEX
  8
0
 62
7
  6
CONTINUOUS
 10
238.0521605858
 20
100.7169125856
  0
VERTEX
  8
0
 62
7
  6
CONTINUOUS
 10
238.1638765245
 20
100.7183440301
  0
SEQEND
  0
POLYLINE
  8
0
 62
7
  6
CONTINUOUS
 66
1
 70
0
  0
VERTEX
  8
0
 62
7
  6
CONTINUOUS
 10
237.6638765245
 20
98.8325557362
  0
VERTEX
  8
0
 62
7
  6
CONTINUOUS
 10
237.6763024928
 20
98.819315667
  0
VERTEX
  8
0
 62
7
  6
CONTINUOUS
 10
237.7130319726
 20
98.8068896909
  0
VERTEX
  8
0
 62
7
  6
CONTINUOUS
 10
237.772343791
 20
98.7958563936
  0
VERTEX
  8
0
 62
7
  6
CONTINUOUS
 10
237.8513703942
 20
98.7867179785
  0
VERTEX
  8
0
 62
7
  6
CONTINUOUS
 10
237.9462189592
 20
98.7798835147
  0
VERTEX
  8
0
 62
7
  6
CONTINUOUS
 10
238.0521605858
 20
98.7756561366
  0
VERTEX
  8
0
 62
7
  6
CONTINUOUS
 10
238.1638765245
 20
98.7742246922
  0
SEQEND
  0
POLYLINE
  8
0
 62
7
  6
CONTINUOUS
 66
1
 70
0
  0
VERTEX
  8
0
 62
7
  6
CONTINUOUS
 10
227.7638765245
 20
101.096949295
  0
VERTEX
  8
0
 62
7
  6
CONTINUOUS
 10
227.7650056478
 20
101.0638261853
  0
VERTEX
  8
0
 62
7
  6
CONTINUOUS
 10
227.7684114404
 20
101.0302231585
  0
VERTEX
  8
0
 62
7
  6
CONTINUOUS
 10
227.7741147751
 20
100.9962843611
  0
SEQEND
  0
LINE
  8
0
 62
7
  6
CONTINUOUS
 10
227.7638765245
 20
95.8962843611
 11
227.7638765245
 21
103.3962843611
  0
LINE
  8
0
 62
7
  6
CONTINUOUS
 10
229.7138765245
 20
99.1393667358
 11
229.7138765245
 21
95.8962843611
  0
POLYLINE
  8
0
 62
7
  6
CONTINUOUS
 66
1
 70
0
  0
VERTEX
  8
0
 62
7
  6
CONTINUOUS
 10
246.8788425014
 20
96.9407700484
  0
VERTEX
  8
0
 62
7
  6
CONTINUOUS
 10
246.8789938762
 20
96.9409329445
  0
VERTEX
  8
0
 62
7
  6
CONTINUOUS
 10
246.8883428626
 20
96.9548450958
  0
VERTEX
  8
0
 62
7
  6
CONTINUOUS
 10
246.912103698
 20
96.9824089733
  0
VERTEX
  8
0
 62
7
  6
CONTINUOUS
 10
246.9558214042
 20
97.0198734511
  0
VERTEX
  8
0
 62
7
  6
CONTINUOUS
 10
247.0211210643
 20
97.0579769217
  0
SEQEND
  0
POLYLINE
  8
0
 62
7
  6
CONTINUOUS
 66
1
 70
0
  0
VERTEX
  8
0
 62
7
  6
CONTINUOUS
 10
246.4138765245
 20
98.8325557362
  0
VERTEX
  8
0
 62
7
  6
CONTINUOUS
 10
246.4014505561
 20
98.819315667
  0
VERTEX
  8
0
 62
7
  6
CONTINUOUS
 10
246.3647210763
 20
98.8068896909
  0
VERTEX
  8
0
 62
7
  6
CONTINUOUS
 10
246.3054092579
 20
98.7958563936
  0
VERTEX
  8
0
 62
7
  6
CONTINUOUS
 10
246.2263826547
 20
98.7867179785
  0
VERTEX
  8
0
 62
7
  6
CONTINUOUS
 10
246.1315340897
 20
98.7798835147
  0
VERTEX
  8
0
 62
7
  6
CONTINUOUS
 10
246.0255924631
 20
98.7756561366
  0
VERTEX
  8
0
 62
7
  6
CONTINUOUS
 10
245.9138765245
 20
98.7742246922
  0
SEQEND
  0
POLYLINE
  8
0
 62
7
  6
CONTINUOUS
 66
1
 70
0
  0
VERTEX
  8
0
 62
7
  6
CONTINUOUS
 10
246.4138765245
 20
100.660012986
  0
VERTEX
  8
0
 62
7
  6
CONTINUOUS
 10
246.4014505561
 20
100.6732530552
  0
VERTEX
  8
0
 62
7
  6
CONTINUOUS
 10
246.3647210763
 20
100.6856790313
  0
VERTEX
  8
0
 62
7
  6
CONTINUOUS
 10
246.3054092579
 20
100.6967123286
  0
VERTEX
  8
0
 62
7
  6
CONTINUOUS
 10
246.2263826547
 20
100.7058507437
  0
VERTEX
  8
0
 62
7
  6
CONTINUOUS
 10
246.1315340897
 20
100.7126852075
  0
VERTEX
  8
0
 62
7
  6
CONTINUOUS
 10
246.0255924631
 20
100.7169125856
  0
VERTEX
  8
0
 62
7
  6
CONTINUOUS
 10
245.9138765245
 20
100.7183440301
  0
SEQEND
  0
LINE
  8
0
 62
7
  6
CONTINUOUS
 10
235.7138765245
 20
99.1393717737
 11
235.7138765245
 21
95.8962843611
  0
POLYLINE
  8
0
 62
7
  6
CONTINUOUS
 66
1
 70
0
  0
VERTEX
  8
0
 62
7
  6
CONTINUOUS
 10
237.6536382738
 20
100.9962843611
  0
VERTEX
  8
0
 62
7
  6
CONTINUOUS
 10
237.6593422223
 20
101.0302277156
  0
VERTEX
  8
0
 62
7
  6
CONTINUOUS
 10
237.6627476596
 20
101.0638299992
  0
VERTEX
  8
0
 62
7
  6
CONTINUOUS
 10
237.6638765245
 20
101.096949295
  0
SEQEND
  0
LINE
  8
0
 62
7
  6
CONTINUOUS
 10
237.6638765245
 20
95.8962843611
 11
237.6638765245
 21
103.3962843611
  0
LINE
  8
0
 62
7
  6
CONTINUOUS
 10
239.2638765245
 20
95.8962843611
 11
239.2638765245
 21
96.130430641
  0
LINE
  8
2_FEATURE
 62
7
  6
CONTINUOUS
 10
239.6638765245
 20
95.3962843611
 11
239.6638765245
 21
96.6163255365
  0
POLYLINE
  8
2_FEATURE
 62
7
  6
CONTINUOUS
 66
1
 70
0
  0
VERTEX
  8
2_FEATURE
 62
7
  6
CONTINUOUS
 10
239.3283714886
 20
96.4905521306
  0
VERTEX
  8
2_FEATURE
 62
7
  6
CONTINUOUS
 10
239.2857272342
 20
96.3365639104
  0
VERTEX
  8
2_FEATURE
 62
7
  6
CONTINUOUS
 10
239.273138929
 20
96.2631017177
  0
VERTEX
  8
2_FEATURE
 62
7
  6
CONTINUOUS
 10
239.2638765245
 20
96.130430641
  0
SEQEND
  0
POLYLINE
  8
2_FEATURE
 62
7
  6
CONTINUOUS
 66
1
 70
0
  0
VERTEX
  8
2_FEATURE
 62
7
  6
CONTINUOUS
 10
239.6618677174
 20
96.6160316487
  0
VERTEX
  8
2_FEATURE
 62
7
  6
CONTINUOUS
 10
239.6545913263
 20
96.6657678633
  0
VERTEX
  8
2_FEATURE
 62
7
  6
CONTINUOUS
 10
239.63266636
 20
96.7124813461
  0
VERTEX
  8
2_FEATURE
 62
7
  6
CONTINUOUS
 10
239.604579086
 20
96.7427579549
  0
VERTEX
  8
2_FEATURE
 62
7
  6
CONTINUOUS
 10
239.5744491275
 20
96.758328882
  0
VERTEX
  8
2_FEATURE
 62
7
  6
CONTINUOUS
 10
239.5434044733
 20
96.7617642494
  0
VERTEX
  8
2_FEATURE
 62
7
  6
CONTINUOUS
 10
239.510384612
 20
96.7537362888
  0
VERTEX
  8
2_FEATURE
 62
7
  6
CONTINUOUS
 10
239.4765093605
 20
96.7339339834
  0
VERTEX
  8
2_FEATURE
 62
7
  6
CONTINUOUS
 10
239.440347966
 20
96.6999143241
  0
VERTEX
  8
2_FEATURE
 62
7
  6
CONTINUOUS
 10
239.4024010922
 20
96.648884248
  0
VERTEX
  8
2_FEATURE
 62
7
  6
CONTINUOUS
 10
239.3646675456
 20
96.5798839613
  0
VERTEX
  8
2_FEATURE
 62
7
  6
CONTINUOUS
 10
239.3283714886
 20
96.4905521306
  0
SEQEND
  0
LINE
  8
0
 62
7
  6
CONTINUOUS
 10
246.4138765245
 20
95.8962843611
 11
246.4138765245
 21
103.3962843611
  0
LINE
  8
0
 62
7
  6
CONTINUOUS
 10
249.0638765245
 20
97.0962843611
 11
249.0638765245
 21
95.8962843611
  0
LINE
  8
0
 62
7
  6
CONTINUOUS
 10
251.4138765245
 20
103.3962843611
 11
251.4138765245
 21
101.9652419828
  0
LINE
  8
0
 62
7
  6
CONTINUOUS
 10
251.4138765245
 20
97.1979888425
 11
251.4138765245
 21
95.8962857556
  0
LINE
  8
0
 62
7
  6
CONTINUOUS
 10
251.6138765245
 20
97.5962843611
 11
251.6138765245
 21
103.3962843611
  0
LINE
  8
0
 62
7
  6
CONTINUOUS
 10
99.2138765245
 20
171.9223682831
 11
99.2138765245
 21
180.9889412757
  0
LINE
  8
0
 62
7
  6
CONTINUOUS
 10
99.4138765245
 20
182.5104581278
 11
99.4138765245
 21
181.5917573517
  0
LINE
  8
0
 62
7
  6
CONTINUOUS
 10
99.4138765245
 20
163.8320884614
 11
99.4138765245
 21
171.3223682831
  0
LINE
  8
0
 62
7
  6
CONTINUOUS
 10
100.7138765245
 20
179.0204750643
 11
100.7138765245
 21
171.9195034014
  0
LINE
  8
0
 62
7
  6
CONTINUOUS
 10
101.7638765245
 20
170.5216647021
 11
101.7638765245
 21
172.4237203847
  0
LINE
  8
0
 62
7
  6
CONTINUOUS
 10
101.9138765245
 20
179.0970884614
 11
101.9138765245
 21
177.0970884614
  0
LINE
  8
0
 62
7
  6
CONTINUOUS
 10
102.1638765245
 20
177.4375139527
 11
102.1638765245
 21
179.0970884614
  0
LINE
  8
0
 62
7
  6
CONTINUOUS
 10
102.4138765245
 20
177.3949607663
 11
102.4138765245
 21
177.7353863769
  0
LINE
  8
0
 62
7
  6
CONTINUOUS
 10
103.3638765245
 20
163.8320884614
 11
103.3638765245
 21
172.2031648599
  0
LINE
  8
0
 62
7
  6
CONTINUOUS
 10
99.4122357825
 20
181.5512845229
 11
99.4138765245
 21
181.5917573517
  0
LINE
  8
0
 62
7
  6
CONTINUOUS
 10
104.4138765245
 20
181.9910120629
 11
104.4138765245
 21
190.3620884614
  0
LINE
  8
0
 62
7
  6
CONTINUOUS
 10
104.5888765245
 20
173.6588045467
 11
104.5888765245
 21
174.7829185371
  0
LINE
  8
0
 62
7
  6
CONTINUOUS
 10
106.0138765245
 20
181.7704565381
 11
106.0138765245
 21
183.6725184184
  0
LINE
  8
0
 62
7
  6
CONTINUOUS
 10
107.0388765245
 20
180.5353723761
 11
107.0388765245
 21
178.4588045467
  0
LINE
  8
0
 62
7
  6
CONTINUOUS
 10
107.0388765245
 20
175.7353723761
 11
107.0388765245
 21
173.6588045467
  0
POLYLINE
  8
0
 62
7
  6
CONTINUOUS
 66
1
 70
0
  0
VERTEX
  8
0
 62
7
  6
CONTINUOUS
 10
107.0388765245
 20
178.4588045467
  0
VERTEX
  8
0
 62
7
  6
CONTINUOUS
 10
107.0368991908
 20
178.4302594357
  0
VERTEX
  8
0
 62
7
  6
CONTINUOUS
 10
107.0219609901
 20
178.3782325372
  0
VERTEX
  8
0
 62
7
  6
CONTINUOUS
 10
106.9942580048
 20
178.3347508468
  0
VERTEX
  8
0
 62
7
  6
CONTINUOUS
 10
106.9762197958
 20
178.3167118709
  0
VERTEX
  8
0
 62
7
  6
CONTINUOUS
 10
106.9327363269
 20
178.2890057453
  0
VERTEX
  8
0
 62
7
  6
CONTINUOUS
 10
106.8807062444
 20
178.2740658926
  0
VERTEX
  8
0
 62
7
  6
CONTINUOUS
 10
106.8521604392
 20
178.2720884614
  0
SEQEND
  0
POLYLINE
  8
0
 62
7
  6
CONTINUOUS
 66
1
 70
0
  0
VERTEX
  8
0
 62
7
  6
CONTINUOUS
 10
107.0388765245
 20
173.6588045467
  0
VERTEX
  8
0
 62
7
  6
CONTINUOUS
 10
107.0368991908
 20
173.6302594357
  0
VERTEX
  8
0
 62
7
  6
CONTINUOUS
 10
107.0219609901
 20
173.5782325372
  0
VERTEX
  8
0
 62
7
  6
CONTINUOUS
 10
106.9942580048
 20
173.5347508468
  0
VERTEX
  8
0
 62
7
  6
CONTINUOUS
 10
106.9762197958
 20
173.5167118709
  0
VERTEX
  8
0
 62
7
  6
CONTINUOUS
 10
106.9327363269
 20
173.4890057453
  0
VERTEX
  8
0
 62
7
  6
CONTINUOUS
 10
106.8807062444
 20
173.4740658926
  0
VERTEX
  8
0
 62
7
  6
CONTINUOUS
 10
106.8521604392
 20
173.4720884614
  0
SEQEND
  0
LINE
  8
0
 62
7
  6
CONTINUOUS
 10
101.7825240385
 20
172.5589970801
 11
104.3952290104
 21
181.8557353675
  0
LINE
  8
0
 62
7
  6
CONTINUOUS
 10
103.3825240385
 20
172.3384415552
 11
105.9952290104
 21
181.6351798427
  0
LINE
  8
0
 62
7
  6
CONTINUOUS
 10
104.5888765245
 20
174.7829185371
 11
104.9090226696
 21
175.9220884614
  0
LINE
  8
0
 62
7
  6
CONTINUOUS
 10
105.5694539406
 20
178.2720884614
 11
106.25798867
 21
180.7220884614
  0
LINE
  8
0
 62
7
  6
CONTINUOUS
 10
111.5741147751
 20
181.7095466769
 11
111.5638765245
 21
181.8102116109
  0
LINE
  8
0
 62
7
  6
CONTINUOUS
 10
113.5036382738
 20
172.3219002814
 11
113.5138765245
 21
172.2212353475
  0
LINE
  8
0
 62
7
  6
CONTINUOUS
 10
113.1741147751
 20
181.8722766414
 11
113.1638765245
 21
181.9729415753
  0
LINE
  8
0
 62
7
  6
CONTINUOUS
 10
109.3888765245
 20
173.6588045467
 11
109.3888765245
 21
175.7353723761
  0
LINE
  8
0
 62
7
  6
CONTINUOUS
 10
109.3888765245
 20
178.4588045467
 11
109.3888765245
 21
180.5353723761
  0
LINE
  8
2_FEATURE
 62
7
  6
CONTINUOUS
 10
111.1638765245
 20
183.6011849945
 11
111.1638765245
 21
189.6429919282
  0
LINE
  8
0
 62
7
  6
CONTINUOUS
 10
111.5638765245
 20
183.3897360866
 11
111.5638765245
 21
181.8102116108
  0
LINE
  8
0
 62
7
  6
CONTINUOUS
 10
111.8388765245
 20
175.7353723761
 11
111.8388765245
 21
173.6588045467
  0
LINE
  8
0
 62
7
  6
CONTINUOUS
 10
113.1638765245
 20
190.3620884614
 11
113.1638765245
 21
189.2720884614
  0
LINE
  8
2_FEATURE
 62
7
  6
CONTINUOUS
 10
113.1638765245
 20
189.2720884614
 11
113.1638765245
 21
183.9720884614
  0
LINE
  8
0
 62
7
  6
CONTINUOUS
 10
113.1638765245
 20
181.9729415753
 11
113.1638765245
 21
183.9720884614
  0
LINE
  8
0
 62
7
  6
CONTINUOUS
 10
113.5138765245
 20
172.2212353475
 11
113.5138765245
 21
163.8320884614
  0
POLYLINE
  8
0
 62
7
  6
CONTINUOUS
 66
1
 70
0
  0
VERTEX
  8
0
 62
7
  6
CONTINUOUS
 10
109.3888765245
 20
180.5353723761
  0
VERTEX
  8
0
 62
7
  6
CONTINUOUS
 10
109.3908538581
 20
180.5639174871
  0
VERTEX
  8
0
 62
7
  6
CONTINUOUS
 10
109.4057920588
 20
180.6159443856
  0
VERTEX
  8
0
 62
7
  6
CONTINUOUS
 10
109.4334950441
 20
180.659426076
  0
VERTEX
  8
0
 62
7
  6
CONTINUOUS
 10
109.4515332531
 20
180.6774650519
  0
VERTEX
  8
0
 62
7
  6
CONTINUOUS
 10
109.495016722
 20
180.7051711775
  0
VERTEX
  8
0
 62
7
  6
CONTINUOUS
 10
109.5470468045
 20
180.7201110302
  0
VERTEX
  8
0
 62
7
  6
CONTINUOUS
 10
109.5755926097
 20
180.7220884614
  0
SEQEND
  0
POLYLINE
  8
0
 62
7
  6
CONTINUOUS
 66
1
 70
0
  0
VERTEX
  8
0
 62
7
  6
CONTINUOUS
 10
109.3888765245
 20
175.7353723761
  0
VERTEX
  8
0
 62
7
  6
CONTINUOUS
 10
109.3908538581
 20
175.7639174871
  0
VERTEX
  8
0
 62
7
  6
CONTINUOUS
 10
109.4057920588
 20
175.8159443856
  0
VERTEX
  8
0
 62
7
  6
CONTINUOUS
 10
109.4334950441
 20
175.859426076
  0
VERTEX
  8
0
 62
7
  6
CONTINUOUS
 10
109.4515332531
 20
175.8774650519
  0
VERTEX
  8
0
 62
7
  6
CONTINUOUS
 10
109.495016722
 20
175.9051711775
  0
VERTEX
  8
0
 62
7
  6
CONTINUOUS
 10
109.5470468045
 20
175.9201110302
  0
VERTEX
  8
0
 62
7
  6
CONTINUOUS
 10
109.5755926097
 20
175.9220884614
  0
SEQEND
  0
POLYLINE
  8
0
 62
7
  6
CONTINUOUS
 66
1
 70
0
  0
VERTEX
  8
0
 62
7
  6
CONTINUOUS
 10
111.8388765245
 20
173.6588045467
  0
VERTEX
  8
0
 62
7
  6
CONTINUOUS
 10
111.8368991908
 20
173.6302594357
  0
VERTEX
  8
0
 62
7
  6
CONTINUOUS
 10
111.8219609901
 20
173.5782325372
  0
VERTEX
  8
0
 62
7
  6
CONTINUOUS
 10
111.7942580048
 20
173.5347508468
  0
VERTEX
  8
0
 62
7
  6
CONTINUOUS
 10
111.7762197958
 20
173.5167118709
  0
VERTEX
  8
0
 62
7
  6
CONTINUOUS
 10
111.7327363269
 20
173.4890057453
  0
VERTEX
  8
0
 62
7
  6
CONTINUOUS
 10
111.6807062444
 20
173.4740658926
  0
VERTEX
  8
0
 62
7
  6
CONTINUOUS
 10
111.6521604392
 20
173.4720884614
  0
SEQEND
  0
POLYLINE
  8
0
 62
7
  6
CONTINUOUS
 66
1
 70
0
  0
VERTEX
  8
0
 62
7
  6
CONTINUOUS
 10
114.1888765245
 20
180.5353723761
  0
VERTEX
  8
0
 62
7
  6
CONTINUOUS
 10
114.1908538581
 20
180.5639174871
  0
VERTEX
  8
0
 62
7
  6
CONTINUOUS
 10
114.2057920588
 20
180.6159443856
  0
VERTEX
  8
0
 62
7
  6
CONTINUOUS
 10
114.2334950441
 20
180.659426076
  0
VERTEX
  8
0
 62
7
  6
CONTINUOUS
 10
114.2515332531
 20
180.6774650519
  0
VERTEX
  8
0
 62
7
  6
CONTINUOUS
 10
114.295016722
 20
180.7051711775
  0
VERTEX
  8
0
 62
7
  6
CONTINUOUS
 10
114.3470468045
 20
180.7201110302
  0
VERTEX
  8
0
 62
7
  6
CONTINUOUS
 10
114.3755926097
 20
180.7220884614
  0
SEQEND
  0
LINE
  8
0
 62
7
  6
CONTINUOUS
 10
99.297744157
 20
181.2661304759
 11
99.3300088919
 21
181.3145681514
  0
LINE
  8
0
 62
7
  6
CONTINUOUS
 10
111.2666232567
 20
180.7220884614
 11
111.7631330535
 21
178.3064358882
  0
LINE
  8
0
 62
7
  6
CONTINUOUS
 10
111.5732102182
 20
181.7139475878
 11
113.5036382738
 21
172.3219002814
  0
LINE
  8
0
 62
7
  6
CONTINUOUS
 10
115.1036382738
 20
172.4846302459
 11
115.1138765245
 21
172.3839653119
  0
LINE
  8
0
 62
7
  6
CONTINUOUS
 10
114.1888765245
 20
179.4186765657
 11
114.1888765245
 21
180.5353723761
  0
LINE
  8
0
 62
7
  6
CONTINUOUS
 10
115.1138765245
 20
170.5216584895
 11
115.1138765245
 21
172.3839653119
  0
LINE
  8
0
 62
7
  6
CONTINUOUS
 10
116.6388765245
 20
180.5353723761
 11
116.6388765245
 21
178.4588045467
  0
LINE
  8
0
 62
7
  6
CONTINUOUS
 10
116.6388765245
 20
175.7353723761
 11
116.6388765245
 21
173.6588045467
  0
LINE
  8
0
 62
7
  6
CONTINUOUS
 10
118.9888765245
 20
173.6588045467
 11
118.9888765245
 21
175.7353723761
  0
LINE
  8
0
 62
7
  6
CONTINUOUS
 10
118.9888765245
 20
178.4588045467
 11
118.9888765245
 21
180.5353723761
  0
POLYLINE
  8
0
 62
7
  6
CONTINUOUS
 66
1
 70
0
  0
VERTEX
  8
0
 62
7
  6
CONTINUOUS
 10
116.6388765245
 20
178.4588045467
  0
VERTEX
  8
0
 62
7
  6
CONTINUOUS
 10
116.6368991908
 20
178.4302594357
  0
VERTEX
  8
0
 62
7
  6
CONTINUOUS
 10
116.6219609901
 20
178.3782325372
  0
VERTEX
  8
0
 62
7
  6
CONTINUOUS
 10
116.5942580048
 20
178.3347508468
  0
VERTEX
  8
0
 62
7
  6
CONTINUOUS
 10
116.5762197958
 20
178.3167118709
  0
VERTEX
  8
0
 62
7
  6
CONTINUOUS
 10
116.5327363269
 20
178.2890057453
  0
VERTEX
  8
0
 62
7
  6
CONTINUOUS
 10
116.4807062444
 20
178.2740658926
  0
VERTEX
  8
0
 62
7
  6
CONTINUOUS
 10
116.4521604392
 20
178.2720884614
  0
SEQEND
  0
POLYLINE
  8
0
 62
7
  6
CONTINUOUS
 66
1
 70
0
  0
VERTEX
  8
0
 62
7
  6
CONTINUOUS
 10
116.6388765245
 20
173.6588045467
  0
VERTEX
  8
0
 62
7
  6
CONTINUOUS
 10
116.6368991908
 20
173.6302594357
  0
VERTEX
  8
0
 62
7
  6
CONTINUOUS
 10
116.6219609901
 20
173.5782325372
  0
VERTEX
  8
0
 62
7
  6
CONTINUOUS
 10
116.5942580048
 20
173.5347508468
  0
VERTEX
  8
0
 62
7
  6
CONTINUOUS
 10
116.5762197958
 20
173.5167118709
  0
VERTEX
  8
0
 62
7
  6
CONTINUOUS
 10
116.5327363269
 20
173.4890057453
  0
VERTEX
  8
0
 62
7
  6
CONTINUOUS
 10
116.4807062444
 20
173.4740658926
  0
VERTEX
  8
0
 62
7
  6
CONTINUOUS
 10
116.4521604392
 20
173.4720884614
  0
SEQEND
  0
POLYLINE
  8
0
 62
7
  6
CONTINUOUS
 66
1
 70
0
  0
VERTEX
  8
0
 62
7
  6
CONTINUOUS
 10
118.9888765245
 20
180.5353723761
  0
VERTEX
  8
0
 62
7
  6
CONTINUOUS
 10
118.9908538581
 20
180.5639174871
  0
VERTEX
  8
0
 62
7
  6
CONTINUOUS
 10
119.0057920588
 20
180.6159443856
  0
VERTEX
  8
0
 62
7
  6
CONTINUOUS
 10
119.0334950441
 20
180.659426076
  0
VERTEX
  8
0
 62
7
  6
CONTINUOUS
 10
119.0515332531
 20
180.6774650519
  0
VERTEX
  8
0
 62
7
  6
CONTINUOUS
 10
119.095016722
 20
180.7051711775
  0
VERTEX
  8
0
 62
7
  6
CONTINUOUS
 10
119.1470468045
 20
180.7201110302
  0
VERTEX
  8
0
 62
7
  6
CONTINUOUS
 10
119.1755926097
 20
180.7220884614
  0
SEQEND
  0
POLYLINE
  8
0
 62
7
  6
CONTINUOUS
 66
1
 70
0
  0
VERTEX
  8
0
 62
7
  6
CONTINUOUS
 10
118.9888765245
 20
175.7353723761
  0
VERTEX
  8
0
 62
7
  6
CONTINUOUS
 10
118.9908538581
 20
175.7639174871
  0
VERTEX
  8
0
 62
7
  6
CONTINUOUS
 10
119.0057920588
 20
175.8159443856
  0
VERTEX
  8
0
 62
7
  6
CONTINUOUS
 10
119.0334950441
 20
175.859426076
  0
VERTEX
  8
0
 62
7
  6
CONTINUOUS
 10
119.0515332531
 20
175.8774650519
  0
VERTEX
  8
0
 62
7
  6
CONTINUOUS
 10
119.095016722
 20
175.9051711775
  0
VERTEX
  8
0
 62
7
  6
CONTINUOUS
 10
119.1470468045
 20
175.9201110302
  0
VERTEX
  8
0
 62
7
  6
CONTINUOUS
 10
119.1755926097
 20
175.9220884614
  0
SEQEND
  0
LINE
  8
0
 62
7
  6
CONTINUOUS
 10
102.4138765245
 20
177.7353863769
 11
102.1638765245
 21
177.4375139527
  0
LINE
  8
0
 62
7
  6
CONTINUOUS
 10
102.1638765245
 20
177.0970884614
 11
102.4138765245
 21
177.3949607663
  0
LINE
  8
2_FEATURE
 62
7
  6
CONTINUOUS
 10
111.0638765245
 20
186.6220884614
 11
111.1638765245
 21
186.3254575476
  0
LINE
  8
0
 62
7
  6
CONTINUOUS
 10
115.1045428307
 20
172.480229335
 11
113.1741147751
 21
181.8722766414
  0
LINE
  8
0
 62
7
  6
CONTINUOUS
 10
115.4111297922
 20
173.4720884614
 11
114.9075602741
 21
175.9220884614
  0
LINE
  8
0
 62
7
  6
CONTINUOUS
 10
114.4245446139
 20
178.2720884614
 11
114.1888765245
 21
179.4186765657
  0
LINE
  8
0
 62
7
  6
CONTINUOUS
 10
121.1138765245
 20
170.5216647021
 11
121.1138765245
 21
172.3839653119
  0
LINE
  8
0
 62
7
  6
CONTINUOUS
 10
121.4388765245
 20
180.5353723761
 11
121.4388765245
 21
178.4588045467
  0
LINE
  8
0
 62
7
  6
CONTINUOUS
 10
122.7138765245
 20
172.2212353475
 11
122.7138765245
 21
163.8320884614
  0
LINE
  8
0
 62
7
  6
CONTINUOUS
 10
123.0638765245
 20
181.9729415753
 11
123.0638765245
 21
190.3620884614
  0
LINE
  8
0
 62
7
  6
CONTINUOUS
 10
123.7888765245
 20
173.6588045467
 11
123.7888765245
 21
175.0187636913
  0
POLYLINE
  8
0
 62
7
  6
CONTINUOUS
 66
1
 70
0
  0
VERTEX
  8
0
 62
7
  6
CONTINUOUS
 10
121.4388765245
 20
178.4588045467
  0
VERTEX
  8
0
 62
7
  6
CONTINUOUS
 10
121.4368991908
 20
178.4302594357
  0
VERTEX
  8
0
 62
7
  6
CONTINUOUS
 10
121.4219609901
 20
178.3782325372
  0
VERTEX
  8
0
 62
7
  6
CONTINUOUS
 10
121.3942580048
 20
178.3347508468
  0
VERTEX
  8
0
 62
7
  6
CONTINUOUS
 10
121.3762197958
 20
178.3167118709
  0
VERTEX
  8
0
 62
7
  6
CONTINUOUS
 10
121.3327363269
 20
178.2890057453
  0
VERTEX
  8
0
 62
7
  6
CONTINUOUS
 10
121.2807062444
 20
178.2740658926
  0
VERTEX
  8
0
 62
7
  6
CONTINUOUS
 10
121.2521604392
 20
178.2720884614
  0
SEQEND
  0
LINE
  8
0
 62
7
  6
CONTINUOUS
 10
123.0638765245
 20
181.9729415753
 11
123.0536382738
 21
181.8722766414
  0
LINE
  8
0
 62
7
  6
CONTINUOUS
 10
121.3179331501
 20
175.9110947845
 11
120.8166232567
 21
173.4720884614
  0
LINE
  8
0
 62
7
  6
CONTINUOUS
 10
121.1232102182
 20
172.480229335
 11
123.0536382738
 21
181.8722766414
  0
LINE
  8
0
 62
7
  6
CONTINUOUS
 10
124.6638765245
 20
183.6725122206
 11
124.6638765245
 21
181.8102116108
  0
LINE
  8
0
 62
7
  6
CONTINUOUS
 10
126.2388765245
 20
180.5353723761
 11
126.2388765245
 21
178.4588045467
  0
LINE
  8
0
 62
7
  6
CONTINUOUS
 10
126.2388765245
 20
175.7353723761
 11
126.2388765245
 21
173.6588045467
  0
LINE
  8
0
 62
7
  6
CONTINUOUS
 10
128.5888765245
 20
173.6588045467
 11
128.5888765245
 21
175.7353723761
  0
LINE
  8
0
 62
7
  6
CONTINUOUS
 10
128.5888765245
 20
178.4588045467
 11
128.5888765245
 21
180.5353723761
  0
POLYLINE
  8
0
 62
7
  6
CONTINUOUS
 66
1
 70
0
  0
VERTEX
  8
0
 62
7
  6
CONTINUOUS
 10
126.2388765245
 20
178.4588045467
  0
VERTEX
  8
0
 62
7
  6
CONTINUOUS
 10
126.2368991908
 20
178.4302594357
  0
VERTEX
  8
0
 62
7
  6
CONTINUOUS
 10
126.2219609901
 20
178.3782325372
  0
VERTEX
  8
0
 62
7
  6
CONTINUOUS
 10
126.1942580048
 20
178.3347508468
  0
VERTEX
  8
0
 62
7
  6
CONTINUOUS
 10
126.1762197958
 20
178.3167118709
  0
VERTEX
  8
0
 62
7
  6
CONTINUOUS
 10
126.1327363269
 20
178.2890057453
  0
VERTEX
  8
0
 62
7
  6
CONTINUOUS
 10
126.0807062444
 20
178.2740658926
  0
VERTEX
  8
0
 62
7
  6
CONTINUOUS
 10
126.0521604392
 20
178.2720884614
  0
SEQEND
  0
POLYLINE
  8
0
 62
7
  6
CONTINUOUS
 66
1
 70
0
  0
VERTEX
  8
0
 62
7
  6
CONTINUOUS
 10
126.2388765245
 20
173.6588045467
  0
VERTEX
  8
0
 62
7
  6
CONTINUOUS
 10
126.2368991908
 20
173.6302594357
  0
VERTEX
  8
0
 62
7
  6
CONTINUOUS
 10
126.2219609901
 20
173.5782325372
  0
VERTEX
  8
0
 62
7
  6
CONTINUOUS
 10
126.1942580048
 20
173.5347508468
  0
VERTEX
  8
0
 62
7
  6
CONTINUOUS
 10
126.1762197958
 20
173.5167118709
  0
VERTEX
  8
0
 62
7
  6
CONTINUOUS
 10
126.1327363269
 20
173.4890057453
  0
VERTEX
  8
0
 62
7
  6
CONTINUOUS
 10
126.0807062444
 20
173.4740658926
  0
VERTEX
  8
0
 62
7
  6
CONTINUOUS
 10
126.0521604392
 20
173.4720884614
  0
SEQEND
  0
POLYLINE
  8
0
 62
7
  6
CONTINUOUS
 66
1
 70
0
  0
VERTEX
  8
0
 62
7
  6
CONTINUOUS
 10
128.5888765245
 20
180.5353723761
  0
VERTEX
  8
0
 62
7
  6
CONTINUOUS
 10
128.5908538581
 20
180.5639174871
  0
VERTEX
  8
0
 62
7
  6
CONTINUOUS
 10
128.6057920588
 20
180.6159443856
  0
VERTEX
  8
0
 62
7
  6
CONTINUOUS
 10
128.6334950441
 20
180.659426076
  0
VERTEX
  8
0
 62
7
  6
CONTINUOUS
 10
128.6515332531
 20
180.6774650519
  0
VERTEX
  8
0
 62
7
  6
CONTINUOUS
 10
128.695016722
 20
180.7051711775
  0
VERTEX
  8
0
 62
7
  6
CONTINUOUS
 10
128.7470468045
 20
180.7201110302
  0
VERTEX
  8
0
 62
7
  6
CONTINUOUS
 10
128.7755926097
 20
180.7220884614
  0
SEQEND
  0
POLYLINE
  8
0
 62
7
  6
CONTINUOUS
 66
1
 70
0
  0
VERTEX
  8
0
 62
7
  6
CONTINUOUS
 10
128.5888765245
 20
175.7353723761
  0
VERTEX
  8
0
 62
7
  6
CONTINUOUS
 10
128.5908538581
 20
175.7639174871
  0
VERTEX
  8
0
 62
7
  6
CONTINUOUS
 10
128.6057920588
 20
175.8159443856
  0
VERTEX
  8
0
 62
7
  6
CONTINUOUS
 10
128.6334950441
 20
175.859426076
  0
VERTEX
  8
0
 62
7
  6
CONTINUOUS
 10
128.6515332531
 20
175.8774650519
  0
VERTEX
  8
0
 62
7
  6
CONTINUOUS
 10
128.695016722
 20
175.9051711775
  0
VERTEX
  8
0
 62
7
  6
CONTINUOUS
 10
128.7470468045
 20
175.9201110302
  0
VERTEX
  8
0
 62
7
  6
CONTINUOUS
 10
128.7755926097
 20
175.9220884614
  0
SEQEND
  0
LINE
  8
0
 62
7
  6
CONTINUOUS
 10
124.6545428307
 20
181.7139475878
 11
122.7241147751
 21
172.3219002814
  0
LINE
  8
0
 62
7
  6
CONTINUOUS
 10
123.7888765245
 20
175.0187636913
 11
123.9745440773
 21
175.9220858507
  0
LINE
  8
0
 62
7
  6
CONTINUOUS
 10
124.4575602741
 20
178.2720884614
 11
124.9611297922
 21
180.7220884614
  0
LINE
  8
0
 62
7
  6
CONTINUOUS
 10
130.6638765245
 20
181.8102116109
 11
130.6741147751
 21
181.7095466769
  0
LINE
  8
0
 62
7
  6
CONTINUOUS
 10
132.6036382738
 20
172.3219002814
 11
132.6138765245
 21
172.2212353475
  0
LINE
  8
0
 62
7
  6
CONTINUOUS
 10
132.2741147751
 20
181.8722766414
 11
132.2638765245
 21
181.9729415753
  0
LINE
  8
0
 62
7
  6
CONTINUOUS
 10
130.6638765245
 20
181.8102116108
 11
130.6638765245
 21
183.6725122206
  0
LINE
  8
0
 62
7
  6
CONTINUOUS
 10
131.0388765245
 20
175.7353723761
 11
131.0388765245
 21
173.6588045467
  0
LINE
  8
0
 62
7
  6
CONTINUOUS
 10
132.2638765245
 20
190.3620884614
 11
132.2638765245
 21
181.9729415753
  0
LINE
  8
0
 62
7
  6
CONTINUOUS
 10
132.6138765245
 20
163.8320884614
 11
132.6138765245
 21
172.2212353475
  0
LINE
  8
0
 62
7
  6
CONTINUOUS
 10
133.3888765245
 20
178.9321498972
 11
133.3888765245
 21
180.5353723761
  0
LINE
  8
0
 62
7
  6
CONTINUOUS
 10
134.2138765245
 20
172.3839653119
 11
134.2138765245
 21
170.5216647021
  0
POLYLINE
  8
0
 62
7
  6
CONTINUOUS
 66
1
 70
0
  0
VERTEX
  8
0
 62
7
  6
CONTINUOUS
 10
131.0388765245
 20
173.6588045467
  0
VERTEX
  8
0
 62
7
  6
CONTINUOUS
 10
131.0368991908
 20
173.6302594357
  0
VERTEX
  8
0
 62
7
  6
CONTINUOUS
 10
131.0219609901
 20
173.5782325372
  0
VERTEX
  8
0
 62
7
  6
CONTINUOUS
 10
130.9942580048
 20
173.5347508468
  0
VERTEX
  8
0
 62
7
  6
CONTINUOUS
 10
130.9762197958
 20
173.5167118709
  0
VERTEX
  8
0
 62
7
  6
CONTINUOUS
 10
130.9327363269
 20
173.4890057453
  0
VERTEX
  8
0
 62
7
  6
CONTINUOUS
 10
130.8807062444
 20
173.4740658926
  0
VERTEX
  8
0
 62
7
  6
CONTINUOUS
 10
130.8521604392
 20
173.4720884614
  0
SEQEND
  0
POLYLINE
  8
0
 62
7
  6
CONTINUOUS
 66
1
 70
0
  0
VERTEX
  8
0
 62
7
  6
CONTINUOUS
 10
133.3888765245
 20
180.5353723761
  0
VERTEX
  8
0
 62
7
  6
CONTINUOUS
 10
133.3908538581
 20
180.5639174871
  0
VERTEX
  8
0
 62
7
  6
CONTINUOUS
 10
133.4057920588
 20
180.6159443856
  0
VERTEX
  8
0
 62
7
  6
CONTINUOUS
 10
133.4334950441
 20
180.659426076
  0
VERTEX
  8
0
 62
7
  6
CONTINUOUS
 10
133.4515332531
 20
180.6774650519
  0
VERTEX
  8
0
 62
7
  6
CONTINUOUS
 10
133.495016722
 20
180.7051711775
  0
VERTEX
  8
0
 62
7
  6
CONTINUOUS
 10
133.5470468045
 20
180.7201110302
  0
VERTEX
  8
0
 62
7
  6
CONTINUOUS
 10
133.5755926097
 20
180.7220884614
  0
SEQEND
  0
LINE
  8
0
 62
7
  6
CONTINUOUS
 10
130.3666232567
 20
180.7220884614
 11
130.8700349287
 21
178.2728564248
  0
LINE
  8
0
 62
7
  6
CONTINUOUS
 10
132.6036382738
 20
172.3219002814
 11
130.6732102182
 21
181.7139475878
  0
LINE
  8
0
 62
7
  6
CONTINUOUS
 10
134.2045428307
 20
172.480229335
 11
132.2741147751
 21
181.8722766414
  0
LINE
  8
0
 62
7
  6
CONTINUOUS
 10
134.5111297922
 20
173.4720884614
 11
134.0075602741
 21
175.9220884614
  0
LINE
  8
0
 62
7
  6
CONTINUOUS
 10
133.5231342939
 20
178.2789500445
 11
133.3888765245
 21
178.9321498972
  0
LINE
  8
0
 62
7
  6
CONTINUOUS
 10
135.8388765245
 20
180.5353723761
 11
135.8388765245
 21
178.4588045467
  0
LINE
  8
0
 62
7
  6
CONTINUOUS
 10
135.8388765245
 20
175.7353723761
 11
135.8388765245
 21
173.6588045467
  0
LINE
  8
0
 62
7
  6
CONTINUOUS
 10
138.1888765245
 20
173.6588045467
 11
138.1888765245
 21
175.7353723761
  0
LINE
  8
0
 62
7
  6
CONTINUOUS
 10
138.1888765245
 20
178.4588045467
 11
138.1888765245
 21
180.5353723761
  0
POLYLINE
  8
0
 62
7
  6
CONTINUOUS
 66
1
 70
0
  0
VERTEX
  8
0
 62
7
  6
CONTINUOUS
 10
135.8388765245
 20
178.4588045467
  0
VERTEX
  8
0
 62
7
  6
CONTINUOUS
 10
135.8368991908
 20
178.4302594357
  0
VERTEX
  8
0
 62
7
  6
CONTINUOUS
 10
135.8219609901
 20
178.3782325372
  0
VERTEX
  8
0
 62
7
  6
CONTINUOUS
 10
135.7942580048
 20
178.3347508468
  0
VERTEX
  8
0
 62
7
  6
CONTINUOUS
 10
135.7762197958
 20
178.3167118709
  0
VERTEX
  8
0
 62
7
  6
CONTINUOUS
 10
135.7327363269
 20
178.2890057453
  0
VERTEX
  8
0
 62
7
  6
CONTINUOUS
 10
135.6807062444
 20
178.2740658926
  0
VERTEX
  8
0
 62
7
  6
CONTINUOUS
 10
135.6521604392
 20
178.2720884614
  0
SEQEND
  0
POLYLINE
  8
0
 62
7
  6
CONTINUOUS
 66
1
 70
0
  0
VERTEX
  8
0
 62
7
  6
CONTINUOUS
 10
135.8388765245
 20
173.6588045467
  0
VERTEX
  8
0
 62
7
  6
CONTINUOUS
 10
135.8368991908
 20
173.6302594357
  0
VERTEX
  8
0
 62
7
  6
CONTINUOUS
 10
135.8219609901
 20
173.5782325372
  0
VERTEX
  8
0
 62
7
  6
CONTINUOUS
 10
135.7942580048
 20
173.5347508468
  0
VERTEX
  8
0
 62
7
  6
CONTINUOUS
 10
135.7762197958
 20
173.5167118709
  0
VERTEX
  8
0
 62
7
  6
CONTINUOUS
 10
135.7327363269
 20
173.4890057453
  0
VERTEX
  8
0
 62
7
  6
CONTINUOUS
 10
135.6807062444
 20
173.4740658926
  0
VERTEX
  8
0
 62
7
  6
CONTINUOUS
 10
135.6521604392
 20
173.4720884614
  0
SEQEND
  0
POLYLINE
  8
0
 62
7
  6
CONTINUOUS
 66
1
 70
0
  0
VERTEX
  8
0
 62
7
  6
CONTINUOUS
 10
138.1888765245
 20
180.5353723761
  0
VERTEX
  8
0
 62
7
  6
CONTINUOUS
 10
138.1908538581
 20
180.5639174871
  0
VERTEX
  8
0
 62
7
  6
CONTINUOUS
 10
138.2057920588
 20
180.6159443856
  0
VERTEX
  8
0
 62
7
  6
CONTINUOUS
 10
138.2334950441
 20
180.659426076
  0
VERTEX
  8
0
 62
7
  6
CONTINUOUS
 10
138.2515332531
 20
180.6774650519
  0
VERTEX
  8
0
 62
7
  6
CONTINUOUS
 10
138.295016722
 20
180.7051711775
  0
VERTEX
  8
0
 62
7
  6
CONTINUOUS
 10
138.3470468045
 20
180.7201110302
  0
VERTEX
  8
0
 62
7
  6
CONTINUOUS
 10
138.3755926097
 20
180.7220884614
  0
SEQEND
  0
POLYLINE
  8
0
 62
7
  6
CONTINUOUS
 66
1
 70
0
  0
VERTEX
  8
0
 62
7
  6
CONTINUOUS
 10
138.1888765245
 20
175.7353723761
  0
VERTEX
  8
0
 62
7
  6
CONTINUOUS
 10
138.1908538581
 20
175.7639174871
  0
VERTEX
  8
0
 62
7
  6
CONTINUOUS
 10
138.2057920588
 20
175.8159443856
  0
VERTEX
  8
0
 62
7
  6
CONTINUOUS
 10
138.2334950441
 20
175.859426076
  0
VERTEX
  8
0
 62
7
  6
CONTINUOUS
 10
138.2515332531
 20
175.8774650519
  0
VERTEX
  8
0
 62
7
  6
CONTINUOUS
 10
138.295016722
 20
175.9051711775
  0
VERTEX
  8
0
 62
7
  6
CONTINUOUS
 10
138.3470468045
 20
175.9201110302
  0
VERTEX
  8
0
 62
7
  6
CONTINUOUS
 10
138.3755926097
 20
175.9220884614
  0
SEQEND
  0
LINE
  8
0
 62
7
  6
CONTINUOUS
 10
140.2138765245
 20
170.521658763
 11
140.2138765245
 21
172.3839653119
  0
LINE
  8
0
 62
7
  6
CONTINUOUS
 10
140.6388765245
 20
180.5353723761
 11
140.6388765245
 21
178.4588045467
  0
LINE
  8
0
 62
7
  6
CONTINUOUS
 10
141.8138765245
 20
172.2212353475
 11
141.8138765245
 21
163.8320884614
  0
LINE
  8
0
 62
7
  6
CONTINUOUS
 10
142.1638765245
 20
181.9729415753
 11
142.1638765245
 21
190.3620884614
  0
LINE
  8
0
 62
7
  6
CONTINUOUS
 10
142.9888765245
 20
173.6588045467
 11
142.9888765245
 21
175.5052903598
  0
LINE
  8
0
 62
7
  6
CONTINUOUS
 10
143.7638765245
 20
183.6725122206
 11
143.7638765245
 21
181.8102116108
  0
POLYLINE
  8
0
 62
7
  6
CONTINUOUS
 66
1
 70
0
  0
VERTEX
  8
0
 62
7
  6
CONTINUOUS
 10
140.6388765245
 20
178.4588045467
  0
VERTEX
  8
0
 62
7
  6
CONTINUOUS
 10
140.6368991908
 20
178.4302594357
  0
VERTEX
  8
0
 62
7
  6
CONTINUOUS
 10
140.6219609901
 20
178.3782325372
  0
VERTEX
  8
0
 62
7
  6
CONTINUOUS
 10
140.5942580048
 20
178.3347508468
  0
VERTEX
  8
0
 62
7
  6
CONTINUOUS
 10
140.5762197958
 20
178.3167118709
  0
VERTEX
  8
0
 62
7
  6
CONTINUOUS
 10
140.5327363269
 20
178.2890057453
  0
VERTEX
  8
0
 62
7
  6
CONTINUOUS
 10
140.4807062444
 20
178.2740658926
  0
VERTEX
  8
0
 62
7
  6
CONTINUOUS
 10
140.4521604392
 20
178.2720884614
  0
SEQEND
  0
LINE
  8
0
 62
7
  6
CONTINUOUS
 10
142.1638765245
 20
181.9729415753
 11
142.1536382738
 21
181.8722766414
  0
LINE
  8
0
 62
7
  6
CONTINUOUS
 10
141.8138765245
 20
172.2212353475
 11
141.8241147751
 21
172.3219002814
  0
LINE
  8
0
 62
7
  6
CONTINUOUS
 10
140.4201927748
 20
175.9220884614
 11
139.9166232567
 21
173.4720884614
  0
LINE
  8
0
 62
7
  6
CONTINUOUS
 10
140.2232102182
 20
172.480229335
 11
142.1536382738
 21
181.8722766414
  0
LINE
  8
0
 62
7
  6
CONTINUOUS
 10
143.7545428307
 20
181.7139475878
 11
141.8241147751
 21
172.3219002814
  0
LINE
  8
0
 62
7
  6
CONTINUOUS
 10
142.9888765245
 20
175.5052903598
 11
143.0679621037
 21
175.8900627939
  0
LINE
  8
0
 62
7
  6
CONTINUOUS
 10
143.5575602741
 20
178.2720884614
 11
144.0611297922
 21
180.7220884614
  0
POLYLINE
  8
0
 62
7
  6
CONTINUOUS
 66
1
 70
0
  0
VERTEX
  8
0
 62
7
  6
CONTINUOUS
 10
111.7631330535
 20
178.3064358882
  0
VERTEX
  8
0
 62
7
  6
CONTINUOUS
 10
111.7232121668
 20
178.2850261951
  0
VERTEX
  8
0
 62
7
  6
CONTINUOUS
 10
111.7008410537
 20
178.2779687619
  0
VERTEX
  8
0
 62
7
  6
CONTINUOUS
 10
111.6521604392
 20
178.2720884614
  0
SEQEND
  0
LINE
  8
0
 62
7
  6
CONTINUOUS
 10
145.4388765245
 20
180.5353723761
 11
145.4388765245
 21
178.4588045467
  0
LINE
  8
0
 62
7
  6
CONTINUOUS
 10
145.4388765245
 20
175.7353723761
 11
145.4388765245
 21
173.6588045467
  0
LINE
  8
0
 62
7
  6
CONTINUOUS
 10
147.7888765245
 20
173.6588045467
 11
147.7888765245
 21
175.7353723761
  0
LINE
  8
0
 62
7
  6
CONTINUOUS
 10
147.7888765245
 20
178.4588045467
 11
147.7888765245
 21
180.5353723761
  0
LINE
  8
0
 62
7
  6
CONTINUOUS
 10
149.7638765245
 20
181.8102116108
 11
149.7638765245
 21
183.6725122206
  0
LINE
  8
0
 62
7
  6
CONTINUOUS
 10
150.2388765245
 20
175.7353723761
 11
150.2388765245
 21
173.6588045467
  0
POLYLINE
  8
0
 62
7
  6
CONTINUOUS
 66
1
 70
0
  0
VERTEX
  8
0
 62
7
  6
CONTINUOUS
 10
145.4388765245
 20
178.4588045467
  0
VERTEX
  8
0
 62
7
  6
CONTINUOUS
 10
145.4368991908
 20
178.4302594357
  0
VERTEX
  8
0
 62
7
  6
CONTINUOUS
 10
145.4219609901
 20
178.3782325372
  0
VERTEX
  8
0
 62
7
  6
CONTINUOUS
 10
145.3942580048
 20
178.3347508468
  0
VERTEX
  8
0
 62
7
  6
CONTINUOUS
 10
145.3762197958
 20
178.3167118709
  0
VERTEX
  8
0
 62
7
  6
CONTINUOUS
 10
145.3327363269
 20
178.2890057453
  0
VERTEX
  8
0
 62
7
  6
CONTINUOUS
 10
145.2807062444
 20
178.2740658926
  0
VERTEX
  8
0
 62
7
  6
CONTINUOUS
 10
145.2521604392
 20
178.2720884614
  0
SEQEND
  0
POLYLINE
  8
0
 62
7
  6
CONTINUOUS
 66
1
 70
0
  0
VERTEX
  8
0
 62
7
  6
CONTINUOUS
 10
145.4388765245
 20
173.6588045467
  0
VERTEX
  8
0
 62
7
  6
CONTINUOUS
 10
145.4368991908
 20
173.6302594357
  0
VERTEX
  8
0
 62
7
  6
CONTINUOUS
 10
145.4219609901
 20
173.5782325372
  0
VERTEX
  8
0
 62
7
  6
CONTINUOUS
 10
145.3942580048
 20
173.5347508468
  0
VERTEX
  8
0
 62
7
  6
CONTINUOUS
 10
145.3762197958
 20
173.5167118709
  0
VERTEX
  8
0
 62
7
  6
CONTINUOUS
 10
145.3327363269
 20
173.4890057453
  0
VERTEX
  8
0
 62
7
  6
CONTINUOUS
 10
145.2807062444
 20
173.4740658926
  0
VERTEX
  8
0
 62
7
  6
CONTINUOUS
 10
145.2521604392
 20
173.4720884614
  0
SEQEND
  0
POLYLINE
  8
0
 62
7
  6
CONTINUOUS
 66
1
 70
0
  0
VERTEX
  8
0
 62
7
  6
CONTINUOUS
 10
147.7888765245
 20
180.5353723761
  0
VERTEX
  8
0
 62
7
  6
CONTINUOUS
 10
147.7908538581
 20
180.5639174871
  0
VERTEX
  8
0
 62
7
  6
CONTINUOUS
 10
147.8057920588
 20
180.6159443856
  0
VERTEX
  8
0
 62
7
  6
CONTINUOUS
 10
147.8334950441
 20
180.659426076
  0
VERTEX
  8
0
 62
7
  6
CONTINUOUS
 10
147.8515332531
 20
180.6774650519
  0
VERTEX
  8
0
 62
7
  6
CONTINUOUS
 10
147.895016722
 20
180.7051711775
  0
VERTEX
  8
0
 62
7
  6
CONTINUOUS
 10
147.9470468045
 20
180.7201110302
  0
VERTEX
  8
0
 62
7
  6
CONTINUOUS
 10
147.9755926097
 20
180.7220884614
  0
SEQEND
  0
POLYLINE
  8
0
 62
7
  6
CONTINUOUS
 66
1
 70
0
  0
VERTEX
  8
0
 62
7
  6
CONTINUOUS
 10
147.7888765245
 20
175.7353723761
  0
VERTEX
  8
0
 62
7
  6
CONTINUOUS
 10
147.7908538581
 20
175.7639174871
  0
VERTEX
  8
0
 62
7
  6
CONTINUOUS
 10
147.8057920588
 20
175.8159443856
  0
VERTEX
  8
0
 62
7
  6
CONTINUOUS
 10
147.8334950441
 20
175.859426076
  0
VERTEX
  8
0
 62
7
  6
CONTINUOUS
 10
147.8515332531
 20
175.8774650519
  0
VERTEX
  8
0
 62
7
  6
CONTINUOUS
 10
147.895016722
 20
175.9051711775
  0
VERTEX
  8
0
 62
7
  6
CONTINUOUS
 10
147.9470468045
 20
175.9201110302
  0
VERTEX
  8
0
 62
7
  6
CONTINUOUS
 10
147.9755926097
 20
175.9220884614
  0
SEQEND
  0
LINE
  8
2_FEATURE
 62
7
  6
CONTINUOUS
 10
111.5638765245
 20
183.3897360866
 11
111.4993815603
 21
183.3662618394
  0
LINE
  8
0
 62
7
  6
CONTINUOUS
 10
111.5638765245
 20
183.3897360866
 11
113.1638765245
 21
183.9720884614
  0
LINE
  8
0
 62
7
  6
CONTINUOUS
 10
151.7036382738
 20
172.3219002814
 11
151.7138765245
 21
172.2212353475
  0
LINE
  8
0
 62
7
  6
CONTINUOUS
 10
151.3741147751
 20
181.8722766414
 11
151.3638765245
 21
181.9729415753
  0
LINE
  8
0
 62
7
  6
CONTINUOUS
 10
152.5888765245
 20
178.4588045467
 11
152.5892061076
 21
178.4446657648
  0
LINE
  8
0
 62
7
  6
CONTINUOUS
 10
151.3638765245
 20
190.3620884614
 11
151.3638765245
 21
181.9729415753
  0
LINE
  8
0
 62
7
  6
CONTINUOUS
 10
151.7138765245
 20
163.8320884614
 11
151.7138765245
 21
172.2212353475
  0
LINE
  8
0
 62
7
  6
CONTINUOUS
 10
152.5888765245
 20
178.4588045467
 11
152.5888765245
 21
180.5353723761
  0
LINE
  8
0
 62
7
  6
CONTINUOUS
 10
153.3138765245
 20
172.3839653119
 11
153.3138765245
 21
170.5216647021
  0
LINE
  8
0
 62
7
  6
CONTINUOUS
 10
155.0388765245
 20
180.5353723761
 11
155.0388765245
 21
178.4588045467
  0
LINE
  8
0
 62
7
  6
CONTINUOUS
 10
155.0388765245
 20
175.7353723761
 11
155.0388765245
 21
173.6588045467
  0
POLYLINE
  8
0
 62
7
  6
CONTINUOUS
 66
1
 70
0
  0
VERTEX
  8
0
 62
7
  6
CONTINUOUS
 10
150.2388765245
 20
173.6588045467
  0
VERTEX
  8
0
 62
7
  6
CONTINUOUS
 10
150.2368991908
 20
173.6302594357
  0
VERTEX
  8
0
 62
7
  6
CONTINUOUS
 10
150.2219609901
 20
173.5782325372
  0
VERTEX
  8
0
 62
7
  6
CONTINUOUS
 10
150.1942580048
 20
173.5347508468
  0
VERTEX
  8
0
 62
7
  6
CONTINUOUS
 10
150.1762197958
 20
173.5167118709
  0
VERTEX
  8
0
 62
7
  6
CONTINUOUS
 10
150.1327363269
 20
173.4890057453
  0
VERTEX
  8
0
 62
7
  6
CONTINUOUS
 10
150.0807062444
 20
173.4740658926
  0
VERTEX
  8
0
 62
7
  6
CONTINUOUS
 10
150.0521604392
 20
173.4720884614
  0
SEQEND
  0
POLYLINE
  8
0
 62
7
  6
CONTINUOUS
 66
1
 70
0
  0
VERTEX
  8
0
 62
7
  6
CONTINUOUS
 10
152.5888765245
 20
180.5353723761
  0
VERTEX
  8
0
 62
7
  6
CONTINUOUS
 10
152.5908538581
 20
180.5639174871
  0
VERTEX
  8
0
 62
7
  6
CONTINUOUS
 10
152.6057920588
 20
180.6159443856
  0
VERTEX
  8
0
 62
7
  6
CONTINUOUS
 10
152.6334950441
 20
180.659426076
  0
VERTEX
  8
0
 62
7
  6
CONTINUOUS
 10
152.6515332531
 20
180.6774650519
  0
VERTEX
  8
0
 62
7
  6
CONTINUOUS
 10
152.695016722
 20
180.7051711775
  0
VERTEX
  8
0
 62
7
  6
CONTINUOUS
 10
152.7470468045
 20
180.7201110302
  0
VERTEX
  8
0
 62
7
  6
CONTINUOUS
 10
152.7755926097
 20
180.7220884614
  0
SEQEND
  0
POLYLINE
  8
0
 62
7
  6
CONTINUOUS
 66
1
 70
0
  0
VERTEX
  8
0
 62
7
  6
CONTINUOUS
 10
155.0388765245
 20
178.4588045467
  0
VERTEX
  8
0
 62
7
  6
CONTINUOUS
 10
155.0368991908
 20
178.4302594357
  0
VERTEX
  8
0
 62
7
  6
CONTINUOUS
 10
155.0219609901
 20
178.3782325372
  0
VERTEX
  8
0
 62
7
  6
CONTINUOUS
 10
154.9942580048
 20
178.3347508468
  0
VERTEX
  8
0
 62
7
  6
CONTINUOUS
 10
154.9762197958
 20
178.3167118709
  0
VERTEX
  8
0
 62
7
  6
CONTINUOUS
 10
154.9327363269
 20
178.2890057453
  0
VERTEX
  8
0
 62
7
  6
CONTINUOUS
 10
154.8807062444
 20
178.2740658926
  0
VERTEX
  8
0
 62
7
  6
CONTINUOUS
 10
154.8521604392
 20
178.2720884614
  0
SEQEND
  0
POLYLINE
  8
0
 62
7
  6
CONTINUOUS
 66
1
 70
0
  0
VERTEX
  8
0
 62
7
  6
CONTINUOUS
 10
155.0388765245
 20
173.6588045467
  0
VERTEX
  8
0
 62
7
  6
CONTINUOUS
 10
155.0368991908
 20
173.6302594357
  0
VERTEX
  8
0
 62
7
  6
CONTINUOUS
 10
155.0219609901
 20
173.5782325372
  0
VERTEX
  8
0
 62
7
  6
CONTINUOUS
 10
154.9942580048
 20
173.5347508468
  0
VERTEX
  8
0
 62
7
  6
CONTINUOUS
 10
154.9762197958
 20
173.5167118709
  0
VERTEX
  8
0
 62
7
  6
CONTINUOUS
 10
154.9327363269
 20
173.4890057453
  0
VERTEX
  8
0
 62
7
  6
CONTINUOUS
 10
154.8807062444
 20
173.4740658926
  0
VERTEX
  8
0
 62
7
  6
CONTINUOUS
 10
154.8521604392
 20
173.4720884614
  0
SEQEND
  0
LINE
  8
0
 62
7
  6
CONTINUOUS
 10
149.4666232567
 20
180.7220884614
 11
149.9701927748
 21
178.2720884614
  0
LINE
  8
0
 62
7
  6
CONTINUOUS
 10
151.7036382738
 20
172.3219002814
 11
149.7732102182
 21
181.7139475878
  0
LINE
  8
0
 62
7
  6
CONTINUOUS
 10
153.3045428307
 20
172.480229335
 11
151.3741147751
 21
181.8722766414
  0
LINE
  8
0
 62
7
  6
CONTINUOUS
 10
153.6111297922
 20
173.4720884614
 11
153.1075602741
 21
175.9220884614
  0
LINE
  8
0
 62
7
  6
CONTINUOUS
 10
152.5994188941
 20
178.3943317887
 11
152.5895123475
 21
178.4425297802
  0
LINE
  8
0
 62
7
  6
CONTINUOUS
 10
152.5890837668
 20
178.4456362919
 11
152.5895123475
 21
178.4425297802
  0
LINE
  8
0
 62
7
  6
CONTINUOUS
 10
157.3888765245
 20
173.6588045467
 11
157.3888765245
 21
175.7353723761
  0
LINE
  8
0
 62
7
  6
CONTINUOUS
 10
157.3888765245
 20
178.4588045467
 11
157.3888765245
 21
180.5353723761
  0
LINE
  8
0
 62
7
  6
CONTINUOUS
 10
159.3138765245
 20
170.5216647021
 11
159.3138765245
 21
172.3839653119
  0
LINE
  8
0
 62
7
  6
CONTINUOUS
 10
159.8388765245
 20
180.5353723761
 11
159.8388765245
 21
178.4588045467
  0
POLYLINE
  8
0
 62
7
  6
CONTINUOUS
 66
1
 70
0
  0
VERTEX
  8
0
 62
7
  6
CONTINUOUS
 10
157.3888765245
 20
180.5353723761
  0
VERTEX
  8
0
 62
7
  6
CONTINUOUS
 10
157.3908538581
 20
180.5639174871
  0
VERTEX
  8
0
 62
7
  6
CONTINUOUS
 10
157.4057920588
 20
180.6159443856
  0
VERTEX
  8
0
 62
7
  6
CONTINUOUS
 10
157.4334950441
 20
180.659426076
  0
VERTEX
  8
0
 62
7
  6
CONTINUOUS
 10
157.4515332531
 20
180.6774650519
  0
VERTEX
  8
0
 62
7
  6
CONTINUOUS
 10
157.495016722
 20
180.7051711775
  0
VERTEX
  8
0
 62
7
  6
CONTINUOUS
 10
157.5470468045
 20
180.7201110302
  0
VERTEX
  8
0
 62
7
  6
CONTINUOUS
 10
157.5755926097
 20
180.7220884614
  0
SEQEND
  0
POLYLINE
  8
0
 62
7
  6
CONTINUOUS
 66
1
 70
0
  0
VERTEX
  8
0
 62
7
  6
CONTINUOUS
 10
157.3888765245
 20
175.7353723761
  0
VERTEX
  8
0
 62
7
  6
CONTINUOUS
 10
157.3908538581
 20
175.7639174871
  0
VERTEX
  8
0
 62
7
  6
CONTINUOUS
 10
157.4057920588
 20
175.8159443856
  0
VERTEX
  8
0
 62
7
  6
CONTINUOUS
 10
157.4334950441
 20
175.859426076
  0
VERTEX
  8
0
 62
7
  6
CONTINUOUS
 10
157.4515332531
 20
175.8774650519
  0
VERTEX
  8
0
 62
7
  6
CONTINUOUS
 10
157.495016722
 20
175.9051711775
  0
VERTEX
  8
0
 62
7
  6
CONTINUOUS
 10
157.5470468045
 20
175.9201110302
  0
VERTEX
  8
0
 62
7
  6
CONTINUOUS
 10
157.5755926097
 20
175.9220884614
  0
SEQEND
  0
POLYLINE
  8
0
 62
7
  6
CONTINUOUS
 66
1
 70
0
  0
VERTEX
  8
0
 62
7
  6
CONTINUOUS
 10
159.8388765245
 20
178.4588045467
  0
VERTEX
  8
0
 62
7
  6
CONTINUOUS
 10
159.8368991908
 20
178.4302594357
  0
VERTEX
  8
0
 62
7
  6
CONTINUOUS
 10
159.8219609901
 20
178.3782325372
  0
VERTEX
  8
0
 62
7
  6
CONTINUOUS
 10
159.7942580048
 20
178.3347508468
  0
VERTEX
  8
0
 62
7
  6
CONTINUOUS
 10
159.7762197958
 20
178.3167118709
  0
VERTEX
  8
0
 62
7
  6
CONTINUOUS
 10
159.7327363269
 20
178.2890057453
  0
VERTEX
  8
0
 62
7
  6
CONTINUOUS
 10
159.6807062444
 20
178.2740658926
  0
VERTEX
  8
0
 62
7
  6
CONTINUOUS
 10
159.6521604392
 20
178.2720884614
  0
SEQEND
  0
LINE
  8
0
 62
7
  6
CONTINUOUS
 10
159.5201927748
 20
175.9220884614
 11
159.0166232567
 21
173.4720884614
  0
LINE
  8
0
 62
7
  6
CONTINUOUS
 10
159.3232102182
 20
172.480229335
 11
161.2536382738
 21
181.8722766414
  0
LINE
  8
0
 62
7
  6
CONTINUOUS
 10
160.9138765245
 20
172.2212353475
 11
160.9138765245
 21
163.8320884614
  0
LINE
  8
0
 62
7
  6
CONTINUOUS
 10
161.2638765245
 20
181.9729415753
 11
161.2638765245
 21
190.3620884614
  0
LINE
  8
0
 62
7
  6
CONTINUOUS
 10
162.1888765245
 20
173.6588045467
 11
162.1888765245
 21
175.7353723761
  0
LINE
  8
0
 62
7
  6
CONTINUOUS
 10
162.8638765245
 20
183.6725122206
 11
162.8638765245
 21
181.8102116108
  0
LINE
  8
2_FEATURE
 62
7
  6
CONTINUOUS
 10
164.076376441
 20
185.7037372999
 11
164.076376441
 21
186.0016098134
  0
LINE
  8
2_FEATURE
 62
7
  6
CONTINUOUS
 10
164.338876441
 20
185.7037372999
 11
164.338876441
 21
185.9271417372
  0
LINE
  8
0
 62
7
  6
CONTINUOUS
 10
164.6388765245
 20
180.5353723761
 11
164.6388765245
 21
178.4588045467
  0
LINE
  8
0
 62
7
  6
CONTINUOUS
 10
164.6388765245
 20
175.7353723761
 11
164.6388765245
 21
173.6588045467
  0
LINE
  8
2_FEATURE
 62
7
  6
CONTINUOUS
 10
165.4326265245
 20
185.2569288425
 11
165.4326265245
 21
186.3739501946
  0
LINE
  8
2_FEATURE
 62
7
  6
CONTINUOUS
 10
165.4326265245
 20
186.820758652
 11
165.4326265245
 21
188.3845884614
  0
LINE
  8
2_FEATURE
 62
7
  6
CONTINUOUS
 10
165.6951265245
 20
184.8845884614
 11
165.6951265245
 21
188.3845884614
  0
POLYLINE
  8
0
 62
7
  6
CONTINUOUS
 66
1
 70
0
  0
VERTEX
  8
0
 62
7
  6
CONTINUOUS
 10
162.1888765245
 20
175.7353723761
  0
VERTEX
  8
0
 62
7
  6
CONTINUOUS
 10
162.1908538581
 20
175.7639174871
  0
VERTEX
  8
0
 62
7
  6
CONTINUOUS
 10
162.2057920588
 20
175.8159443856
  0
VERTEX
  8
0
 62
7
  6
CONTINUOUS
 10
162.2334950441
 20
175.859426076
  0
VERTEX
  8
0
 62
7
  6
CONTINUOUS
 10
162.2515332531
 20
175.8774650519
  0
VERTEX
  8
0
 62
7
  6
CONTINUOUS
 10
162.295016722
 20
175.9051711775
  0
VERTEX
  8
0
 62
7
  6
CONTINUOUS
 10
162.3470468045
 20
175.9201110302
  0
VERTEX
  8
0
 62
7
  6
CONTINUOUS
 10
162.3755926097
 20
175.9220884614
  0
SEQEND
  0
POLYLINE
  8
0
 62
7
  6
CONTINUOUS
 66
1
 70
0
  0
VERTEX
  8
0
 62
7
  6
CONTINUOUS
 10
164.6388765245
 20
178.4588045467
  0
VERTEX
  8
0
 62
7
  6
CONTINUOUS
 10
164.6368991908
 20
178.4302594357
  0
VERTEX
  8
0
 62
7
  6
CONTINUOUS
 10
164.6219609901
 20
178.3782325372
  0
VERTEX
  8
0
 62
7
  6
CONTINUOUS
 10
164.5942580048
 20
178.3347508468
  0
VERTEX
  8
0
 62
7
  6
CONTINUOUS
 10
164.5762197958
 20
178.3167118709
  0
VERTEX
  8
0
 62
7
  6
CONTINUOUS
 10
164.5327363269
 20
178.2890057453
  0
VERTEX
  8
0
 62
7
  6
CONTINUOUS
 10
164.4807062444
 20
178.2740658926
  0
VERTEX
  8
0
 62
7
  6
CONTINUOUS
 10
164.4521604392
 20
178.2720884614
  0
SEQEND
  0
POLYLINE
  8
0
 62
7
  6
CONTINUOUS
 66
1
 70
0
  0
VERTEX
  8
0
 62
7
  6
CONTINUOUS
 10
164.6388765245
 20
173.6588045467
  0
VERTEX
  8
0
 62
7
  6
CONTINUOUS
 10
164.6368991908
 20
173.6302594357
  0
VERTEX
  8
0
 62
7
  6
CONTINUOUS
 10
164.6219609901
 20
173.5782325372
  0
VERTEX
  8
0
 62
7
  6
CONTINUOUS
 10
164.5942580048
 20
173.5347508468
  0
VERTEX
  8
0
 62
7
  6
CONTINUOUS
 10
164.5762197958
 20
173.5167118709
  0
VERTEX
  8
0
 62
7
  6
CONTINUOUS
 10
164.5327363269
 20
173.4890057453
  0
VERTEX
  8
0
 62
7
  6
CONTINUOUS
 10
164.4807062444
 20
173.4740658926
  0
VERTEX
  8
0
 62
7
  6
CONTINUOUS
 10
164.4521604392
 20
173.4720884614
  0
SEQEND
  0
LINE
  8
0
 62
7
  6
CONTINUOUS
 10
161.2638765245
 20
181.9729415753
 11
161.2536382738
 21
181.8722766414
  0
LINE
  8
0
 62
7
  6
CONTINUOUS
 10
160.9138765245
 20
172.2212353475
 11
160.9241147751
 21
172.3219002814
  0
LINE
  8
2_FEATURE
 62
7
  6
CONTINUOUS
 10
164.076376441
 20
186.0016098134
 11
164.1201265245
 21
186.2250140421
  0
LINE
  8
2_FEATURE
 62
7
  6
CONTINUOUS
 10
164.338876441
 20
185.9271417372
 11
164.3826265245
 21
186.1505459659
  0
LINE
  8
2_FEATURE
 62
7
  6
CONTINUOUS
 10
166.0451265662
 20
186.0016098134
 11
166.0888765245
 21
186.2250140421
  0
LINE
  8
2_FEATURE
 62
7
  6
CONTINUOUS
 10
166.3076265662
 20
185.9271417372
 11
166.3513765245
 21
186.1505459659
  0
LINE
  8
0
 62
7
  6
CONTINUOUS
 10
162.8545428307
 20
181.7139475878
 11
160.9241147751
 21
172.3219002814
  0
LINE
  8
0
 62
7
  6
CONTINUOUS
 10
162.6575602741
 20
178.2720884614
 11
163.1611297922
 21
180.7220884614
  0
LINE
  8
2_FEATURE
 62
7
  6
CONTINUOUS
 10
164.1201265245
 20
186.2250140421
 11
164.2513765245
 21
186.5228863471
  0
LINE
  8
2_FEATURE
 62
7
  6
CONTINUOUS
 10
166.0888765245
 20
186.2250140421
 11
166.2201265245
 21
186.5228863471
  0
LINE
  8
2_FEATURE
 62
7
  6
CONTINUOUS
 10
164.3826265245
 20
186.1505459659
 11
164.470126441
 21
186.2994821184
  0
LINE
  8
2_FEATURE
 62
7
  6
CONTINUOUS
 10
166.3513765245
 20
186.1505459659
 11
166.4388765662
 21
186.2994821184
  0
LINE
  8
2_FEATURE
 62
7
  6
CONTINUOUS
 10
164.4263766079
 20
186.7462905757
 11
164.2513765245
 21
186.5228863471
  0
LINE
  8
2_FEATURE
 62
7
  6
CONTINUOUS
 10
166.3951264827
 20
186.7462905757
 11
166.2201265245
 21
186.5228863471
  0
LINE
  8
2_FEATURE
 62
7
  6
CONTINUOUS
 10
164.470126441
 20
186.2994821184
 11
164.601376441
 21
186.3739501946
  0
LINE
  8
2_FEATURE
 62
7
  6
CONTINUOUS
 10
166.4388765662
 20
186.2994821184
 11
166.5701265662
 21
186.3739501946
  0
POLYLINE
  8
0
 62
7
  6
CONTINUOUS
 66
1
 70
0
  0
VERTEX
  8
0
 62
7
  6
CONTINUOUS
 10
143.0679621037
 20
175.8900627939
  0
VERTEX
  8
0
 62
7
  6
CONTINUOUS
 10
143.1069102303
 20
175.9100456063
  0
VERTEX
  8
0
 62
7
  6
CONTINUOUS
 10
143.1285960884
 20
175.9166194297
  0
VERTEX
  8
0
 62
7
  6
CONTINUOUS
 10
143.1755926097
 20
175.9220884614
  0
SEQEND
  0
LINE
  8
2_FEATURE
 62
7
  6
CONTINUOUS
 10
164.4263766079
 20
186.7462905757
 11
164.6451265245
 21
186.820758652
  0
LINE
  8
2_FEATURE
 62
7
  6
CONTINUOUS
 10
166.3951264827
 20
186.7462905757
 11
166.6138765245
 21
186.820758652
  0
LINE
  8
0
 62
7
  6
CONTINUOUS
 10
250.9138765245
 20
163.3320884614
 11
247.9638765245
 21
163.3320884614
  0
LINE
  8
0
 62
7
  6
CONTINUOUS
 10
236.8138765245
 20
163.3320884614
 11
228.6138765245
 21
163.3320884614
  0
LINE
  8
0
 62
7
  6
CONTINUOUS
 10
217.7138765245
 20
163.3320884614
 11
209.5138765245
 21
163.3320884614
  0
LINE
  8
0
 62
7
  6
CONTINUOUS
 10
198.6138765245
 20
163.3320884614
 11
190.4138765245
 21
163.3320884614
  0
LINE
  8
0
 62
7
  6
CONTINUOUS
 10
179.5138765245
 20
163.3320884614
 11
171.3138765245
 21
163.3320884614
  0
LINE
  8
0
 62
7
  6
CONTINUOUS
 10
160.4138765245
 20
163.3320884614
 11
152.2138765245
 21
163.3320884614
  0
LINE
  8
0
 62
7
  6
CONTINUOUS
 10
141.3138765245
 20
163.3320884614
 11
133.1138765245
 21
163.3320884614
  0
LINE
  8
0
 62
7
  6
CONTINUOUS
 10
122.2138765245
 20
163.3320884614
 11
114.0138765245
 21
163.3320884614
  0
LINE
  8
0
 62
7
  6
CONTINUOUS
 10
102.8638765245
 20
163.3320884614
 11
99.9138765245
 21
163.3320884614
  0
LINE
  8
0
 62
7
  6
CONTINUOUS
 10
113.1638765245
 20
189.2720884614
 11
111.4993815603
 21
189.8779150834
  0
LINE
  8
0
 62
7
  6
CONTINUOUS
 10
170.8036382738
 20
172.3219002814
 11
170.8138765245
 21
172.2212353475
  0
LINE
  8
2_FEATURE
 62
7
  6
CONTINUOUS
 10
166.0451265662
 20
185.7037372999
 11
166.0451265662
 21
186.0016098134
  0
LINE
  8
2_FEATURE
 62
7
  6
CONTINUOUS
 10
166.3076265662
 20
185.7037372999
 11
166.3076265662
 21
185.9271417372
  0
LINE
  8
0
 62
7
  6
CONTINUOUS
 10
166.9888765245
 20
173.6588045467
 11
166.9888765245
 21
175.7353723761
  0
LINE
  8
0
 62
7
  6
CONTINUOUS
 10
166.9888765245
 20
178.4588045467
 11
166.9888765245
 21
180.5353723761
  0
LINE
  8
2_FEATURE
 62
7
  6
CONTINUOUS
 10
167.4013765245
 20
185.2569288425
 11
167.4013765245
 21
186.3739501946
  0
LINE
  8
2_FEATURE
 62
7
  6
CONTINUOUS
 10
167.4013765245
 20
186.820758652
 11
167.4013765245
 21
188.3845884614
  0
LINE
  8
2_FEATURE
 62
7
  6
CONTINUOUS
 10
167.6638765245
 20
184.8845884614
 11
167.6638765245
 21
188.3845884614
  0
LINE
  8
0
 62
7
  6
CONTINUOUS
 10
168.8638765245
 20
181.8102116108
 11
168.8638765245
 21
183.6725122206
  0
LINE
  8
0
 62
7
  6
CONTINUOUS
 10
169.4388765245
 20
175.7353723761
 11
169.4388765245
 21
173.6588045467
  0
LINE
  8
0
 62
7
  6
CONTINUOUS
 10
170.4638765245
 20
190.3620884614
 11
170.4638765245
 21
181.9729415753
  0
LINE
  8
0
 62
7
  6
CONTINUOUS
 10
170.8138765245
 20
163.8320884614
 11
170.8138765245
 21
172.2212353475
  0
POLYLINE
  8
0
 62
7
  6
CONTINUOUS
 66
1
 70
0
  0
VERTEX
  8
0
 62
7
  6
CONTINUOUS
 10
166.9888765245
 20
180.5353723761
  0
VERTEX
  8
0
 62
7
  6
CONTINUOUS
 10
166.9908538581
 20
180.5639174871
  0
VERTEX
  8
0
 62
7
  6
CONTINUOUS
 10
167.0057920588
 20
180.6159443856
  0
VERTEX
  8
0
 62
7
  6
CONTINUOUS
 10
167.0334950441
 20
180.659426076
  0
VERTEX
  8
0
 62
7
  6
CONTINUOUS
 10
167.0515332531
 20
180.6774650519
  0
VERTEX
  8
0
 62
7
  6
CONTINUOUS
 10
167.095016722
 20
180.7051711775
  0
VERTEX
  8
0
 62
7
  6
CONTINUOUS
 10
167.1470468045
 20
180.7201110302
  0
VERTEX
  8
0
 62
7
  6
CONTINUOUS
 10
167.1755926097
 20
180.7220884614
  0
SEQEND
  0
POLYLINE
  8
0
 62
7
  6
CONTINUOUS
 66
1
 70
0
  0
VERTEX
  8
0
 62
7
  6
CONTINUOUS
 10
166.9888765245
 20
175.7353723761
  0
VERTEX
  8
0
 62
7
  6
CONTINUOUS
 10
166.9908538581
 20
175.7639174871
  0
VERTEX
  8
0
 62
7
  6
CONTINUOUS
 10
167.0057920588
 20
175.8159443856
  0
VERTEX
  8
0
 62
7
  6
CONTINUOUS
 10
167.0334950441
 20
175.859426076
  0
VERTEX
  8
0
 62
7
  6
CONTINUOUS
 10
167.0515332531
 20
175.8774650519
  0
VERTEX
  8
0
 62
7
  6
CONTINUOUS
 10
167.095016722
 20
175.9051711775
  0
VERTEX
  8
0
 62
7
  6
CONTINUOUS
 10
167.1470468045
 20
175.9201110302
  0
VERTEX
  8
0
 62
7
  6
CONTINUOUS
 10
167.1755926097
 20
175.9220884614
  0
SEQEND
  0
POLYLINE
  8
0
 62
7
  6
CONTINUOUS
 66
1
 70
0
  0
VERTEX
  8
0
 62
7
  6
CONTINUOUS
 10
169.4388765245
 20
173.6588045467
  0
VERTEX
  8
0
 62
7
  6
CONTINUOUS
 10
169.4368991908
 20
173.6302594357
  0
VERTEX
  8
0
 62
7
  6
CONTINUOUS
 10
169.4219609901
 20
173.5782325372
  0
VERTEX
  8
0
 62
7
  6
CONTINUOUS
 10
169.3942580048
 20
173.5347508468
  0
VERTEX
  8
0
 62
7
  6
CONTINUOUS
 10
169.3762197958
 20
173.5167118709
  0
VERTEX
  8
0
 62
7
  6
CONTINUOUS
 10
169.3327363269
 20
173.4890057453
  0
VERTEX
  8
0
 62
7
  6
CONTINUOUS
 10
169.2807062444
 20
173.4740658926
  0
VERTEX
  8
0
 62
7
  6
CONTINUOUS
 10
169.2521604392
 20
173.4720884614
  0
SEQEND
  0
POLYLINE
  8
0
 62
7
  6
CONTINUOUS
 66
1
 70
0
  0
VERTEX
  8
0
 62
7
  6
CONTINUOUS
 10
101.2138764647
 20
171.1806042736
  0
VERTEX
  8
0
 62
7
  6
CONTINUOUS
 10
101.1899828522
 20
171.1805286048
  0
VERTEX
  8
0
 62
7
  6
CONTINUOUS
 10
101.1483102109
 20
171.1797101267
  0
VERTEX
  8
0
 62
7
  6
CONTINUOUS
 10
101.1124972452
 20
171.1786775393
  0
SEQEND
  0
LINE
  8
1_AXIS
 62
2
  6
CENTER
 10
84.7221020761
 20
167.5720884614
 11
263.3401816609
 21
167.5720884614
  0
LINE
  8
0
 62
7
  6
CONTINUOUS
 10
103.8638765245
 20
171.183718795
 11
113.0138765245
 21
171.183718795
  0
LINE
  8
0
 62
7
  6
CONTINUOUS
 10
123.2138765245
 20
171.183718795
 11
132.1138765245
 21
171.183718795
  0
LINE
  8
0
 62
7
  6
CONTINUOUS
 10
142.3138765245
 20
171.183718795
 11
151.2138765245
 21
171.183718795
  0
LINE
  8
0
 62
7
  6
CONTINUOUS
 10
161.4138765245
 20
171.183718795
 11
170.3138765245
 21
171.183718795
  0
LINE
  8
0
 62
7
  6
CONTINUOUS
 10
180.5138765245
 20
171.183718795
 11
189.4138765245
 21
171.183718795
  0
LINE
  8
0
 62
7
  6
CONTINUOUS
 10
199.6138765245
 20
171.183718795
 11
208.5138765245
 21
171.183718795
  0
LINE
  8
0
 62
7
  6
CONTINUOUS
 10
218.7138765245
 20
171.183718795
 11
227.6138765245
 21
171.183718795
  0
LINE
  8
0
 62
7
  6
CONTINUOUS
 10
237.8138765245
 20
171.183718795
 11
246.9638765245
 21
171.183718795
  0
LINE
  8
0
 62
7
  6
CONTINUOUS
 10
249.6138765245
 20
171.9220884614
 11
249.5638765245
 21
171.9220884614
  0
LINE
  8
0
 62
7
  6
CONTINUOUS
 10
235.2138765245
 20
171.9220884614
 11
230.2138765245
 21
171.9220884614
  0
LINE
  8
0
 62
7
  6
CONTINUOUS
 10
216.1138765245
 20
171.9220884614
 11
211.1138765245
 21
171.9220884614
  0
LINE
  8
0
 62
7
  6
CONTINUOUS
 10
197.0138765245
 20
171.9220884614
 11
192.0138765245
 21
171.9220884614
  0
LINE
  8
0
 62
7
  6
CONTINUOUS
 10
177.9138765245
 20
171.9220884614
 11
172.9138765245
 21
171.9220884614
  0
LINE
  8
0
 62
7
  6
CONTINUOUS
 10
158.8138765245
 20
171.9220884614
 11
153.8138765245
 21
171.9220884614
  0
LINE
  8
0
 62
7
  6
CONTINUOUS
 10
139.7138765245
 20
171.9220884614
 11
134.7138765245
 21
171.9220884614
  0
LINE
  8
0
 62
7
  6
CONTINUOUS
 10
120.6138765245
 20
171.9220884614
 11
115.6138765245
 21
171.9220884614
  0
LINE
  8
0
 62
7
  6
CONTINUOUS
 10
101.2638765245
 20
171.9220884614
 11
101.2138765245
 21
171.9220884614
  0
POLYLINE
  8
0
 62
7
  6
CONTINUOUS
 66
1
 70
0
  0
VERTEX
  8
0
 62
7
  6
CONTINUOUS
 10
104.7755926097
 20
173.4720884614
  0
VERTEX
  8
0
 62
7
  6
CONTINUOUS
 10
104.7470474987
 20
173.4740657951
  0
VERTEX
  8
0
 62
7
  6
CONTINUOUS
 10
104.6950206002
 20
173.4890039958
  0
VERTEX
  8
0
 62
7
  6
CONTINUOUS
 10
104.6515389098
 20
173.516706981
  0
VERTEX
  8
0
 62
7
  6
CONTINUOUS
 10
104.633499934
 20
173.53474519
  0
VERTEX
  8
0
 62
7
  6
CONTINUOUS
 10
104.6057938083
 20
173.578228659
  0
VERTEX
  8
0
 62
7
  6
CONTINUOUS
 10
104.5908539556
 20
173.6302587414
  0
VERTEX
  8
0
 62
7
  6
CONTINUOUS
 10
104.5888765245
 20
173.6588045467
  0
SEQEND
  0
POLYLINE
  8
0
 62
7
  6
CONTINUOUS
 66
1
 70
0
  0
VERTEX
  8
0
 62
7
  6
CONTINUOUS
 10
109.5755926097
 20
173.4720884614
  0
VERTEX
  8
0
 62
7
  6
CONTINUOUS
 10
109.5470474987
 20
173.4740657951
  0
VERTEX
  8
0
 62
7
  6
CONTINUOUS
 10
109.4950206002
 20
173.4890039958
  0
VERTEX
  8
0
 62
7
  6
CONTINUOUS
 10
109.4515389098
 20
173.516706981
  0
VERTEX
  8
0
 62
7
  6
CONTINUOUS
 10
109.433499934
 20
173.53474519
  0
VERTEX
  8
0
 62
7
  6
CONTINUOUS
 10
109.4057938083
 20
173.578228659
  0
VERTEX
  8
0
 62
7
  6
CONTINUOUS
 10
109.3908539556
 20
173.6302587414
  0
VERTEX
  8
0
 62
7
  6
CONTINUOUS
 10
109.3888765245
 20
173.6588045467
  0
SEQEND
  0
POLYLINE
  8
0
 62
7
  6
CONTINUOUS
 66
1
 70
0
  0
VERTEX
  8
0
 62
7
  6
CONTINUOUS
 10
119.1755926097
 20
173.4720884614
  0
VERTEX
  8
0
 62
7
  6
CONTINUOUS
 10
119.1470474987
 20
173.4740657951
  0
VERTEX
  8
0
 62
7
  6
CONTINUOUS
 10
119.0950206002
 20
173.4890039958
  0
VERTEX
  8
0
 62
7
  6
CONTINUOUS
 10
119.0515389098
 20
173.516706981
  0
VERTEX
  8
0
 62
7
  6
CONTINUOUS
 10
119.033499934
 20
173.53474519
  0
VERTEX
  8
0
 62
7
  6
CONTINUOUS
 10
119.0057938083
 20
173.578228659
  0
VERTEX
  8
0
 62
7
  6
CONTINUOUS
 10
118.9908539556
 20
173.6302587414
  0
VERTEX
  8
0
 62
7
  6
CONTINUOUS
 10
118.9888765245
 20
173.6588045467
  0
SEQEND
  0
POLYLINE
  8
0
 62
7
  6
CONTINUOUS
 66
1
 70
0
  0
VERTEX
  8
0
 62
7
  6
CONTINUOUS
 10
123.9755926097
 20
173.4720884614
  0
VERTEX
  8
0
 62
7
  6
CONTINUOUS
 10
123.9470474987
 20
173.4740657951
  0
VERTEX
  8
0
 62
7
  6
CONTINUOUS
 10
123.8950206002
 20
173.4890039958
  0
VERTEX
  8
0
 62
7
  6
CONTINUOUS
 10
123.8515389098
 20
173.516706981
  0
VERTEX
  8
0
 62
7
  6
CONTINUOUS
 10
123.833499934
 20
173.53474519
  0
VERTEX
  8
0
 62
7
  6
CONTINUOUS
 10
123.8057938083
 20
173.578228659
  0
VERTEX
  8
0
 62
7
  6
CONTINUOUS
 10
123.7908539556
 20
173.6302587414
  0
VERTEX
  8
0
 62
7
  6
CONTINUOUS
 10
123.7888765245
 20
173.6588045467
  0
SEQEND
  0
POLYLINE
  8
0
 62
7
  6
CONTINUOUS
 66
1
 70
0
  0
VERTEX
  8
0
 62
7
  6
CONTINUOUS
 10
128.7755926097
 20
173.4720884614
  0
VERTEX
  8
0
 62
7
  6
CONTINUOUS
 10
128.7470474987
 20
173.4740657951
  0
VERTEX
  8
0
 62
7
  6
CONTINUOUS
 10
128.6950206002
 20
173.4890039958
  0
VERTEX
  8
0
 62
7
  6
CONTINUOUS
 10
128.6515389098
 20
173.516706981
  0
VERTEX
  8
0
 62
7
  6
CONTINUOUS
 10
128.633499934
 20
173.53474519
  0
VERTEX
  8
0
 62
7
  6
CONTINUOUS
 10
128.6057938083
 20
173.578228659
  0
VERTEX
  8
0
 62
7
  6
CONTINUOUS
 10
128.5908539556
 20
173.6302587414
  0
VERTEX
  8
0
 62
7
  6
CONTINUOUS
 10
128.5888765245
 20
173.6588045467
  0
SEQEND
  0
POLYLINE
  8
0
 62
7
  6
CONTINUOUS
 66
1
 70
0
  0
VERTEX
  8
0
 62
7
  6
CONTINUOUS
 10
138.3755926097
 20
173.4720884614
  0
VERTEX
  8
0
 62
7
  6
CONTINUOUS
 10
138.3470474987
 20
173.4740657951
  0
VERTEX
  8
0
 62
7
  6
CONTINUOUS
 10
138.2950206002
 20
173.4890039958
  0
VERTEX
  8
0
 62
7
  6
CONTINUOUS
 10
138.2515389098
 20
173.516706981
  0
VERTEX
  8
0
 62
7
  6
CONTINUOUS
 10
138.233499934
 20
173.53474519
  0
VERTEX
  8
0
 62
7
  6
CONTINUOUS
 10
138.2057938083
 20
173.578228659
  0
VERTEX
  8
0
 62
7
  6
CONTINUOUS
 10
138.1908539556
 20
173.6302587414
  0
VERTEX
  8
0
 62
7
  6
CONTINUOUS
 10
138.1888765245
 20
173.6588045467
  0
SEQEND
  0
POLYLINE
  8
0
 62
7
  6
CONTINUOUS
 66
1
 70
0
  0
VERTEX
  8
0
 62
7
  6
CONTINUOUS
 10
106.8521604392
 20
175.9220884614
  0
VERTEX
  8
0
 62
7
  6
CONTINUOUS
 10
106.8807055502
 20
175.9201111277
  0
VERTEX
  8
0
 62
7
  6
CONTINUOUS
 10
106.9327324487
 20
175.905172927
  0
VERTEX
  8
0
 62
7
  6
CONTINUOUS
 10
106.9762141391
 20
175.8774699418
  0
VERTEX
  8
0
 62
7
  6
CONTINUOUS
 10
106.9942531149
 20
175.8594317328
  0
VERTEX
  8
0
 62
7
  6
CONTINUOUS
 10
107.0219592406
 20
175.8159482638
  0
VERTEX
  8
0
 62
7
  6
CONTINUOUS
 10
107.0368990933
 20
175.7639181814
  0
VERTEX
  8
0
 62
7
  6
CONTINUOUS
 10
107.0388765245
 20
175.7353723761
  0
SEQEND
  0
POLYLINE
  8
0
 62
7
  6
CONTINUOUS
 66
1
 70
0
  0
VERTEX
  8
0
 62
7
  6
CONTINUOUS
 10
143.1755926097
 20
173.4720884614
  0
VERTEX
  8
0
 62
7
  6
CONTINUOUS
 10
143.1470474987
 20
173.4740657951
  0
VERTEX
  8
0
 62
7
  6
CONTINUOUS
 10
143.0950206002
 20
173.4890039958
  0
VERTEX
  8
0
 62
7
  6
CONTINUOUS
 10
143.0515389098
 20
173.516706981
  0
VERTEX
  8
0
 62
7
  6
CONTINUOUS
 10
143.033499934
 20
173.53474519
  0
VERTEX
  8
0
 62
7
  6
CONTINUOUS
 10
143.0057938083
 20
173.578228659
  0
VERTEX
  8
0
 62
7
  6
CONTINUOUS
 10
142.9908539556
 20
173.6302587414
  0
VERTEX
  8
0
 62
7
  6
CONTINUOUS
 10
142.9888765245
 20
173.6588045467
  0
SEQEND
  0
POLYLINE
  8
0
 62
7
  6
CONTINUOUS
 66
1
 70
0
  0
VERTEX
  8
0
 62
7
  6
CONTINUOUS
 10
111.6521604392
 20
175.9220884614
  0
VERTEX
  8
0
 62
7
  6
CONTINUOUS
 10
111.6807055502
 20
175.9201111277
  0
VERTEX
  8
0
 62
7
  6
CONTINUOUS
 10
111.7327324487
 20
175.905172927
  0
VERTEX
  8
0
 62
7
  6
CONTINUOUS
 10
111.7762141391
 20
175.8774699418
  0
VERTEX
  8
0
 62
7
  6
CONTINUOUS
 10
111.7942531149
 20
175.8594317328
  0
VERTEX
  8
0
 62
7
  6
CONTINUOUS
 10
111.8219592406
 20
175.8159482638
  0
VERTEX
  8
0
 62
7
  6
CONTINUOUS
 10
111.8368990933
 20
175.7639181814
  0
VERTEX
  8
0
 62
7
  6
CONTINUOUS
 10
111.8388765245
 20
175.7353723761
  0
SEQEND
  0
POLYLINE
  8
0
 62
7
  6
CONTINUOUS
 66
1
 70
0
  0
VERTEX
  8
0
 62
7
  6
CONTINUOUS
 10
147.9755926097
 20
173.4720884614
  0
VERTEX
  8
0
 62
7
  6
CONTINUOUS
 10
147.9470474987
 20
173.4740657951
  0
VERTEX
  8
0
 62
7
  6
CONTINUOUS
 10
147.8950206002
 20
173.4890039958
  0
VERTEX
  8
0
 62
7
  6
CONTINUOUS
 10
147.8515389098
 20
173.516706981
  0
VERTEX
  8
0
 62
7
  6
CONTINUOUS
 10
147.833499934
 20
173.53474519
  0
VERTEX
  8
0
 62
7
  6
CONTINUOUS
 10
147.8057938083
 20
173.578228659
  0
VERTEX
  8
0
 62
7
  6
CONTINUOUS
 10
147.7908539556
 20
173.6302587414
  0
VERTEX
  8
0
 62
7
  6
CONTINUOUS
 10
147.7888765245
 20
173.6588045467
  0
SEQEND
  0
POLYLINE
  8
0
 62
7
  6
CONTINUOUS
 66
1
 70
0
  0
VERTEX
  8
0
 62
7
  6
CONTINUOUS
 10
116.4521604392
 20
175.9220884614
  0
VERTEX
  8
0
 62
7
  6
CONTINUOUS
 10
116.4807055502
 20
175.9201111277
  0
VERTEX
  8
0
 62
7
  6
CONTINUOUS
 10
116.5327324487
 20
175.905172927
  0
VERTEX
  8
0
 62
7
  6
CONTINUOUS
 10
116.5762141391
 20
175.8774699418
  0
VERTEX
  8
0
 62
7
  6
CONTINUOUS
 10
116.5942531149
 20
175.8594317328
  0
VERTEX
  8
0
 62
7
  6
CONTINUOUS
 10
116.6219592406
 20
175.8159482638
  0
VERTEX
  8
0
 62
7
  6
CONTINUOUS
 10
116.6368990933
 20
175.7639181814
  0
VERTEX
  8
0
 62
7
  6
CONTINUOUS
 10
116.6388765245
 20
175.7353723761
  0
SEQEND
  0
POLYLINE
  8
0
 62
7
  6
CONTINUOUS
 66
1
 70
0
  0
VERTEX
  8
0
 62
7
  6
CONTINUOUS
 10
157.5755926097
 20
173.4720884614
  0
VERTEX
  8
0
 62
7
  6
CONTINUOUS
 10
157.5470474987
 20
173.4740657951
  0
VERTEX
  8
0
 62
7
  6
CONTINUOUS
 10
157.4950206002
 20
173.4890039958
  0
VERTEX
  8
0
 62
7
  6
CONTINUOUS
 10
157.4515389098
 20
173.516706981
  0
VERTEX
  8
0
 62
7
  6
CONTINUOUS
 10
157.433499934
 20
173.53474519
  0
VERTEX
  8
0
 62
7
  6
CONTINUOUS
 10
157.4057938083
 20
173.578228659
  0
VERTEX
  8
0
 62
7
  6
CONTINUOUS
 10
157.3908539556
 20
173.6302587414
  0
VERTEX
  8
0
 62
7
  6
CONTINUOUS
 10
157.3888765245
 20
173.6588045467
  0
SEQEND
  0
POLYLINE
  8
0
 62
7
  6
CONTINUOUS
 66
1
 70
0
  0
VERTEX
  8
0
 62
7
  6
CONTINUOUS
 10
126.0521604392
 20
175.9220884614
  0
VERTEX
  8
0
 62
7
  6
CONTINUOUS
 10
126.0807055502
 20
175.9201111277
  0
VERTEX
  8
0
 62
7
  6
CONTINUOUS
 10
126.1327324487
 20
175.905172927
  0
VERTEX
  8
0
 62
7
  6
CONTINUOUS
 10
126.1762141391
 20
175.8774699418
  0
VERTEX
  8
0
 62
7
  6
CONTINUOUS
 10
126.1942531149
 20
175.8594317328
  0
VERTEX
  8
0
 62
7
  6
CONTINUOUS
 10
126.2219592406
 20
175.8159482638
  0
VERTEX
  8
0
 62
7
  6
CONTINUOUS
 10
126.2368990933
 20
175.7639181814
  0
VERTEX
  8
0
 62
7
  6
CONTINUOUS
 10
126.2388765245
 20
175.7353723761
  0
SEQEND
  0
POLYLINE
  8
0
 62
7
  6
CONTINUOUS
 66
1
 70
0
  0
VERTEX
  8
0
 62
7
  6
CONTINUOUS
 10
162.3755926097
 20
173.4720884614
  0
VERTEX
  8
0
 62
7
  6
CONTINUOUS
 10
162.3470474987
 20
173.4740657951
  0
VERTEX
  8
0
 62
7
  6
CONTINUOUS
 10
162.2950206002
 20
173.4890039958
  0
VERTEX
  8
0
 62
7
  6
CONTINUOUS
 10
162.2515389098
 20
173.516706981
  0
VERTEX
  8
0
 62
7
  6
CONTINUOUS
 10
162.233499934
 20
173.53474519
  0
VERTEX
  8
0
 62
7
  6
CONTINUOUS
 10
162.2057938083
 20
173.578228659
  0
VERTEX
  8
0
 62
7
  6
CONTINUOUS
 10
162.1908539556
 20
173.6302587414
  0
VERTEX
  8
0
 62
7
  6
CONTINUOUS
 10
162.1888765245
 20
173.6588045467
  0
SEQEND
  0
LINE
  8
2_FEATURE
 62
7
  6
CONTINUOUS
 10
164.470126441
 20
185.3313969188
 11
164.3826265245
 21
185.4803330712
  0
LINE
  8
2_FEATURE
 62
7
  6
CONTINUOUS
 10
164.2513765245
 20
185.1824607663
 11
164.1201265245
 21
185.4803330712
  0
LINE
  8
2_FEATURE
 62
7
  6
CONTINUOUS
 10
166.2201265245
 20
185.1824607663
 11
166.0888765245
 21
185.4803330712
  0
LINE
  8
0
 62
7
  6
CONTINUOUS
 10
168.5666232567
 20
180.7220884614
 11
169.0701927748
 21
178.2720884614
  0
LINE
  8
0
 62
7
  6
CONTINUOUS
 10
170.8036382738
 20
172.3219002814
 11
168.8732102182
 21
181.7139475878
  0
LINE
  8
2_FEATURE
 62
7
  6
CONTINUOUS
 10
164.1201265245
 20
185.4803330712
 11
164.076376441
 21
185.7037372999
  0
LINE
  8
2_FEATURE
 62
7
  6
CONTINUOUS
 10
164.3826265245
 20
185.4803330712
 11
164.338876441
 21
185.7037372999
  0
LINE
  8
2_FEATURE
 62
7
  6
CONTINUOUS
 10
166.0888765245
 20
185.4803330712
 11
166.0451265662
 21
185.7037372999
  0
LINE
  8
2_FEATURE
 62
7
  6
CONTINUOUS
 10
166.3513765245
 20
185.4803330712
 11
166.3076265662
 21
185.7037372999
  0
LINE
  8
0
 62
7
  6
CONTINUOUS
 10
170.4741147751
 20
181.8722766414
 11
170.4638765245
 21
181.9729415753
  0
LINE
  8
0
 62
7
  6
CONTINUOUS
 10
171.7888765245
 20
178.4588045467
 11
171.7888765245
 21
180.5353723761
  0
LINE
  8
0
 62
7
  6
CONTINUOUS
 10
172.4138765245
 20
172.3839653119
 11
172.4138765245
 21
170.5216647021
  0
LINE
  8
0
 62
7
  6
CONTINUOUS
 10
174.2388765245
 20
180.5353723761
 11
174.2388765245
 21
178.4588045467
  0
LINE
  8
0
 62
7
  6
CONTINUOUS
 10
174.2388765245
 20
175.7353723761
 11
174.2388765245
 21
173.6588045467
  0
LINE
  8
1_AXIS
 62
2
  6
CENTER
 10
175.4138765245
 20
203.112099959
 11
175.4138765245
 21
179.0971884614
  0
LINE
  8
1_AXIS
 62
2
  6
CONTINUOUS
 10
175.4138765245
 20
178.1470884614
 11
175.4138765245
 21
176.0470884614
  0
LINE
  8
1_AXIS
 62
2
  6
CENTER
 10
175.4138765245
 20
156.4730966803
 11
175.4138765245
 21
175.0969884614
  0
POLYLINE
  8
0
 62
7
  6
CONTINUOUS
 66
1
 70
0
  0
VERTEX
  8
0
 62
7
  6
CONTINUOUS
 10
171.7888765245
 20
180.5353723761
  0
VERTEX
  8
0
 62
7
  6
CONTINUOUS
 10
171.7908538581
 20
180.5639174871
  0
VERTEX
  8
0
 62
7
  6
CONTINUOUS
 10
171.8057920588
 20
180.6159443856
  0
VERTEX
  8
0
 62
7
  6
CONTINUOUS
 10
171.8334950441
 20
180.659426076
  0
VERTEX
  8
0
 62
7
  6
CONTINUOUS
 10
171.8515332531
 20
180.6774650519
  0
VERTEX
  8
0
 62
7
  6
CONTINUOUS
 10
171.895016722
 20
180.7051711775
  0
VERTEX
  8
0
 62
7
  6
CONTINUOUS
 10
171.9470468045
 20
180.7201110302
  0
VERTEX
  8
0
 62
7
  6
CONTINUOUS
 10
171.9755926097
 20
180.7220884614
  0
SEQEND
  0
POLYLINE
  8
0
 62
7
  6
CONTINUOUS
 66
1
 70
0
  0
VERTEX
  8
0
 62
7
  6
CONTINUOUS
 10
174.2388765245
 20
178.4588045467
  0
VERTEX
  8
0
 62
7
  6
CONTINUOUS
 10
174.2368991908
 20
178.4302594357
  0
VERTEX
  8
0
 62
7
  6
CONTINUOUS
 10
174.2219609901
 20
178.3782325372
  0
VERTEX
  8
0
 62
7
  6
CONTINUOUS
 10
174.1942580048
 20
178.3347508468
  0
VERTEX
  8
0
 62
7
  6
CONTINUOUS
 10
174.1762197958
 20
178.3167118709
  0
VERTEX
  8
0
 62
7
  6
CONTINUOUS
 10
174.1327363269
 20
178.2890057453
  0
VERTEX
  8
0
 62
7
  6
CONTINUOUS
 10
174.0807062444
 20
178.2740658926
  0
VERTEX
  8
0
 62
7
  6
CONTINUOUS
 10
174.0521604392
 20
178.2720884614
  0
SEQEND
  0
POLYLINE
  8
0
 62
7
  6
CONTINUOUS
 66
1
 70
0
  0
VERTEX
  8
0
 62
7
  6
CONTINUOUS
 10
174.2388765245
 20
173.6588045467
  0
VERTEX
  8
0
 62
7
  6
CONTINUOUS
 10
174.2368991908
 20
173.6302594357
  0
VERTEX
  8
0
 62
7
  6
CONTINUOUS
 10
174.2219609901
 20
173.5782325372
  0
VERTEX
  8
0
 62
7
  6
CONTINUOUS
 10
174.1942580048
 20
173.5347508468
  0
VERTEX
  8
0
 62
7
  6
CONTINUOUS
 10
174.1762197958
 20
173.5167118709
  0
VERTEX
  8
0
 62
7
  6
CONTINUOUS
 10
174.1327363269
 20
173.4890057453
  0
VERTEX
  8
0
 62
7
  6
CONTINUOUS
 10
174.0807062444
 20
173.4740658926
  0
VERTEX
  8
0
 62
7
  6
CONTINUOUS
 10
174.0521604392
 20
173.4720884614
  0
SEQEND
  0
LINE
  8
0
 62
7
  6
CONTINUOUS
 10
217.304618755
 20
178.2789500445
 11
217.2521604392
 21
178.2720884614
  0
POLYLINE
  8
0
 62
7
  6
CONTINUOUS
 66
1
 70
0
  0
VERTEX
  8
0
 62
7
  6
CONTINUOUS
 10
101.1124972452
 20
171.1786775393
  0
VERTEX
  8
0
 62
7
  6
CONTINUOUS
 10
101.0140655813
 20
171.1754530184
  0
VERTEX
  8
0
 62
7
  6
CONTINUOUS
 10
100.9658871458
 20
171.1744953031
  0
VERTEX
  8
0
 62
7
  6
CONTINUOUS
 10
100.9089294449
 20
171.1744638525
  0
VERTEX
  8
0
 62
7
  6
CONTINUOUS
 10
100.8758363548
 20
171.1751209307
  0
SEQEND
  0
LINE
  8
0
 62
7
  6
CONTINUOUS
 10
246.0521604392
 20
173.4720884614
 11
243.9755926097
 21
173.4720884614
  0
LINE
  8
0
 62
7
  6
CONTINUOUS
 10
241.2521604392
 20
173.4720884614
 11
239.1755926097
 21
173.4720884614
  0
LINE
  8
0
 62
7
  6
CONTINUOUS
 10
235.4166232567
 20
173.4720884614
 11
234.3755926097
 21
173.4720884614
  0
LINE
  8
0
 62
7
  6
CONTINUOUS
 10
231.6521604392
 20
173.4720884614
 11
230.0111297922
 21
173.4720884614
  0
LINE
  8
0
 62
7
  6
CONTINUOUS
 10
226.8521604392
 20
173.4720884614
 11
224.7755926097
 21
173.4720884614
  0
LINE
  8
0
 62
7
  6
CONTINUOUS
 10
222.0521604392
 20
173.4720884614
 11
219.9755926097
 21
173.4720884614
  0
LINE
  8
0
 62
7
  6
CONTINUOUS
 10
216.3166232567
 20
173.4720884614
 11
215.1755926097
 21
173.4720884614
  0
LINE
  8
0
 62
7
  6
CONTINUOUS
 10
212.4521604392
 20
173.4720884614
 11
210.9111297922
 21
173.4720884614
  0
LINE
  8
0
 62
7
  6
CONTINUOUS
 10
207.6521604392
 20
173.4720884614
 11
205.5755926097
 21
173.4720884614
  0
LINE
  8
0
 62
7
  6
CONTINUOUS
 10
202.8521604392
 20
173.4720884614
 11
200.7755926097
 21
173.4720884614
  0
LINE
  8
0
 62
7
  6
CONTINUOUS
 10
197.2166232567
 20
173.4720884614
 11
195.9755926097
 21
173.4720884614
  0
LINE
  8
0
 62
7
  6
CONTINUOUS
 10
193.2521604392
 20
173.4720884614
 11
191.8111297922
 21
173.4720884614
  0
LINE
  8
0
 62
7
  6
CONTINUOUS
 10
188.4521604392
 20
173.4720884614
 11
186.3755926097
 21
173.4720884614
  0
LINE
  8
0
 62
7
  6
CONTINUOUS
 10
183.6521604392
 20
173.4720884614
 11
181.5755926097
 21
173.4720884614
  0
LINE
  8
0
 62
7
  6
CONTINUOUS
 10
178.1166232567
 20
173.4720884614
 11
176.7755926097
 21
173.4720884614
  0
LINE
  8
0
 62
7
  6
CONTINUOUS
 10
174.0521604392
 20
173.4720884614
 11
172.7111297922
 21
173.4720884614
  0
LINE
  8
0
 62
7
  6
CONTINUOUS
 10
169.2521604392
 20
173.4720884614
 11
167.1755926097
 21
173.4720884614
  0
LINE
  8
0
 62
7
  6
CONTINUOUS
 10
164.4521604392
 20
173.4720884614
 11
162.3755926097
 21
173.4720884614
  0
LINE
  8
0
 62
7
  6
CONTINUOUS
 10
159.0166232567
 20
173.4720884614
 11
157.5755926097
 21
173.4720884614
  0
LINE
  8
0
 62
7
  6
CONTINUOUS
 10
154.8521604392
 20
173.4720884614
 11
153.6111297922
 21
173.4720884614
  0
LINE
  8
0
 62
7
  6
CONTINUOUS
 10
150.0521604392
 20
173.4720884614
 11
147.9755926097
 21
173.4720884614
  0
LINE
  8
0
 62
7
  6
CONTINUOUS
 10
145.2521604392
 20
173.4720884614
 11
143.1755926097
 21
173.4720884614
  0
LINE
  8
0
 62
7
  6
CONTINUOUS
 10
139.9166232567
 20
173.4720884614
 11
138.3755926097
 21
173.4720884614
  0
LINE
  8
0
 62
7
  6
CONTINUOUS
 10
135.6521604392
 20
173.4720884614
 11
134.5111297922
 21
173.4720884614
  0
LINE
  8
0
 62
7
  6
CONTINUOUS
 10
130.8521604392
 20
173.4720884614
 11
128.7755926097
 21
173.4720884614
  0
LINE
  8
0
 62
7
  6
CONTINUOUS
 10
126.0521604392
 20
173.4720884614
 11
123.9755926097
 21
173.4720884614
  0
LINE
  8
0
 62
7
  6
CONTINUOUS
 10
120.8166232567
 20
173.4720884614
 11
119.1755926097
 21
173.4720884614
  0
LINE
  8
0
 62
7
  6
CONTINUOUS
 10
116.4521604392
 20
173.4720884614
 11
115.4111297922
 21
173.4720884614
  0
LINE
  8
0
 62
7
  6
CONTINUOUS
 10
111.6521604392
 20
173.4720884614
 11
109.5755926097
 21
173.4720884614
  0
LINE
  8
0
 62
7
  6
CONTINUOUS
 10
106.8521604392
 20
173.4720884614
 11
104.7755926097
 21
173.4720884614
  0
LINE
  8
0
 62
7
  6
CONTINUOUS
 10
104.9090226696
 20
175.9220884614
 11
106.8521604392
 21
175.9220884614
  0
LINE
  8
0
 62
7
  6
CONTINUOUS
 10
109.5755926097
 20
175.9220884614
 11
111.6521604392
 21
175.9220884614
  0
LINE
  8
0
 62
7
  6
CONTINUOUS
 10
114.9075602741
 20
175.9220884614
 11
116.4521604392
 21
175.9220884614
  0
LINE
  8
0
 62
7
  6
CONTINUOUS
 10
119.1755926097
 20
175.9220884614
 11
121.2521604392
 21
175.9220884614
  0
LINE
  8
0
 62
7
  6
CONTINUOUS
 10
123.9745440773
 20
175.9220858507
 11
126.0521604392
 21
175.9220884614
  0
LINE
  8
0
 62
7
  6
CONTINUOUS
 10
128.7755926097
 20
175.9220884614
 11
130.8521604392
 21
175.9220884614
  0
LINE
  8
0
 62
7
  6
CONTINUOUS
 10
134.0075602741
 20
175.9220884614
 11
135.6521604392
 21
175.9220884614
  0
LINE
  8
0
 62
7
  6
CONTINUOUS
 10
138.3755926097
 20
175.9220884614
 11
140.4201927748
 21
175.9220884614
  0
LINE
  8
0
 62
7
  6
CONTINUOUS
 10
143.1755926097
 20
175.9220884614
 11
145.2521604392
 21
175.9220884614
  0
LINE
  8
0
 62
7
  6
CONTINUOUS
 10
147.9755926097
 20
175.9220884614
 11
150.0521604392
 21
175.9220884614
  0
LINE
  8
0
 62
7
  6
CONTINUOUS
 10
153.1075602741
 20
175.9220884614
 11
154.8521604392
 21
175.9220884614
  0
LINE
  8
0
 62
7
  6
CONTINUOUS
 10
157.5755926097
 20
175.9220884614
 11
159.5201927748
 21
175.9220884614
  0
LINE
  8
0
 62
7
  6
CONTINUOUS
 10
162.3755926097
 20
175.9220884614
 11
164.4521604392
 21
175.9220884614
  0
LINE
  8
0
 62
7
  6
CONTINUOUS
 10
167.1755926097
 20
175.9220884614
 11
169.2521604392
 21
175.9220884614
  0
LINE
  8
0
 62
7
  6
CONTINUOUS
 10
172.2075602741
 20
175.9220884614
 11
174.0521604392
 21
175.9220884614
  0
LINE
  8
0
 62
7
  6
CONTINUOUS
 10
176.7755926097
 20
175.9220884614
 11
178.6201927748
 21
175.9220884614
  0
LINE
  8
0
 62
7
  6
CONTINUOUS
 10
181.5755926097
 20
175.9220884614
 11
183.6521604392
 21
175.9220884614
  0
LINE
  8
0
 62
7
  6
CONTINUOUS
 10
186.3755926097
 20
175.9220884614
 11
188.4521604392
 21
175.9220884614
  0
LINE
  8
0
 62
7
  6
CONTINUOUS
 10
191.3075602741
 20
175.9220884614
 11
193.2521604392
 21
175.9220884614
  0
LINE
  8
0
 62
7
  6
CONTINUOUS
 10
195.9755926097
 20
175.9220884614
 11
197.7201927748
 21
175.9220884614
  0
LINE
  8
0
 62
7
  6
CONTINUOUS
 10
200.7755926097
 20
175.9220884614
 11
202.8521604392
 21
175.9220884614
  0
LINE
  8
0
 62
7
  6
CONTINUOUS
 10
205.5755926097
 20
175.9220884614
 11
207.6521604392
 21
175.9220884614
  0
LINE
  8
0
 62
7
  6
CONTINUOUS
 10
210.4075602741
 20
175.9220884614
 11
212.4521604392
 21
175.9220884614
  0
LINE
  8
0
 62
7
  6
CONTINUOUS
 10
215.1755926097
 20
175.9220884614
 11
216.8201927748
 21
175.9220884614
  0
LINE
  8
0
 62
7
  6
CONTINUOUS
 10
219.9755926097
 20
175.9220884614
 11
222.0521604392
 21
175.9220884614
  0
LINE
  8
0
 62
7
  6
CONTINUOUS
 10
229.5755926097
 20
175.9220884614
 11
231.6521604392
 21
175.9220884614
  0
LINE
  8
0
 62
7
  6
CONTINUOUS
 10
234.3755926097
 20
175.9220884614
 11
235.9201927748
 21
175.9220884614
  0
LINE
  8
0
 62
7
  6
CONTINUOUS
 10
239.1755926097
 20
175.9220884614
 11
241.2521604392
 21
175.9220884614
  0
LINE
  8
0
 62
7
  6
CONTINUOUS
 10
243.9755926097
 20
175.9220884614
 11
245.9187303793
 21
175.9220884614
  0
LINE
  8
1_AXIS
 62
2
  6
CENTER
 10
256.0642031557
 20
177.0970884614
 11
177.4139765245
 21
177.0970884614
  0
LINE
  8
1_AXIS
 62
2
  6
CONTINUOUS
 10
176.4638765245
 20
177.0970884614
 11
174.3638765245
 21
177.0970884614
  0
LINE
  8
1_AXIS
 62
2
  6
CENTER
 10
92.3517834836
 20
177.0970884614
 11
173.4137765245
 21
177.0970884614
  0
LINE
  8
0
 62
7
  6
CONTINUOUS
 10
101.9138765245
 20
177.0970884614
 11
102.1638765245
 21
177.0970884614
  0
LINE
  8
0
 62
7
  6
CONTINUOUS
 10
224.7755926097
 20
175.9220884614
 11
226.8532089716
 21
175.9220858507
  0
POLYLINE
  8
0
 62
7
  6
CONTINUOUS
 66
1
 70
0
  0
VERTEX
  8
0
 62
7
  6
CONTINUOUS
 10
121.2521604392
 20
175.9220884614
  0
VERTEX
  8
0
 62
7
  6
CONTINUOUS
 10
121.2751233902
 20
175.9208154734
  0
VERTEX
  8
0
 62
7
  6
CONTINUOUS
 10
121.2970965096
 20
175.9171009534
  0
VERTEX
  8
0
 62
7
  6
CONTINUOUS
 10
121.3179331501
 20
175.9110947845
  0
SEQEND
  0
POLYLINE
  8
0
 62
7
  6
CONTINUOUS
 66
1
 70
0
  0
VERTEX
  8
0
 62
7
  6
CONTINUOUS
 10
130.8521604392
 20
175.9220884614
  0
VERTEX
  8
0
 62
7
  6
CONTINUOUS
 10
130.8807055502
 20
175.9201111277
  0
VERTEX
  8
0
 62
7
  6
CONTINUOUS
 10
130.9327324487
 20
175.905172927
  0
VERTEX
  8
0
 62
7
  6
CONTINUOUS
 10
130.9762141391
 20
175.8774699418
  0
VERTEX
  8
0
 62
7
  6
CONTINUOUS
 10
130.9942531149
 20
175.8594317328
  0
VERTEX
  8
0
 62
7
  6
CONTINUOUS
 10
131.0219592406
 20
175.8159482638
  0
VERTEX
  8
0
 62
7
  6
CONTINUOUS
 10
131.0368990933
 20
175.7639181814
  0
VERTEX
  8
0
 62
7
  6
CONTINUOUS
 10
131.0388765245
 20
175.7353723761
  0
SEQEND
  0
POLYLINE
  8
0
 62
7
  6
CONTINUOUS
 66
1
 70
0
  0
VERTEX
  8
0
 62
7
  6
CONTINUOUS
 10
167.1755926097
 20
173.4720884614
  0
VERTEX
  8
0
 62
7
  6
CONTINUOUS
 10
167.1470474987
 20
173.4740657951
  0
VERTEX
  8
0
 62
7
  6
CONTINUOUS
 10
167.0950206002
 20
173.4890039958
  0
VERTEX
  8
0
 62
7
  6
CONTINUOUS
 10
167.0515389098
 20
173.516706981
  0
VERTEX
  8
0
 62
7
  6
CONTINUOUS
 10
167.033499934
 20
173.53474519
  0
VERTEX
  8
0
 62
7
  6
CONTINUOUS
 10
167.0057938083
 20
173.578228659
  0
VERTEX
  8
0
 62
7
  6
CONTINUOUS
 10
166.9908539556
 20
173.6302587414
  0
VERTEX
  8
0
 62
7
  6
CONTINUOUS
 10
166.9888765245
 20
173.6588045467
  0
SEQEND
  0
POLYLINE
  8
0
 62
7
  6
CONTINUOUS
 66
1
 70
0
  0
VERTEX
  8
0
 62
7
  6
CONTINUOUS
 10
135.6521604392
 20
175.9220884614
  0
VERTEX
  8
0
 62
7
  6
CONTINUOUS
 10
135.6807055502
 20
175.9201111277
  0
VERTEX
  8
0
 62
7
  6
CONTINUOUS
 10
135.7327324487
 20
175.905172927
  0
VERTEX
  8
0
 62
7
  6
CONTINUOUS
 10
135.7762141391
 20
175.8774699418
  0
VERTEX
  8
0
 62
7
  6
CONTINUOUS
 10
135.7942531149
 20
175.8594317328
  0
VERTEX
  8
0
 62
7
  6
CONTINUOUS
 10
135.8219592406
 20
175.8159482638
  0
VERTEX
  8
0
 62
7
  6
CONTINUOUS
 10
135.8368990933
 20
175.7639181814
  0
VERTEX
  8
0
 62
7
  6
CONTINUOUS
 10
135.8388765245
 20
175.7353723761
  0
SEQEND
  0
POLYLINE
  8
0
 62
7
  6
CONTINUOUS
 66
1
 70
0
  0
VERTEX
  8
0
 62
7
  6
CONTINUOUS
 10
176.7755926097
 20
173.4720884614
  0
VERTEX
  8
0
 62
7
  6
CONTINUOUS
 10
176.7470474987
 20
173.4740657951
  0
VERTEX
  8
0
 62
7
  6
CONTINUOUS
 10
176.6950206002
 20
173.4890039958
  0
VERTEX
  8
0
 62
7
  6
CONTINUOUS
 10
176.6515389098
 20
173.516706981
  0
VERTEX
  8
0
 62
7
  6
CONTINUOUS
 10
176.633499934
 20
173.53474519
  0
VERTEX
  8
0
 62
7
  6
CONTINUOUS
 10
176.6057938083
 20
173.578228659
  0
VERTEX
  8
0
 62
7
  6
CONTINUOUS
 10
176.5908539556
 20
173.6302587414
  0
VERTEX
  8
0
 62
7
  6
CONTINUOUS
 10
176.5888765245
 20
173.6588045467
  0
SEQEND
  0
POLYLINE
  8
0
 62
7
  6
CONTINUOUS
 66
1
 70
0
  0
VERTEX
  8
0
 62
7
  6
CONTINUOUS
 10
109.5755926097
 20
178.2720884614
  0
VERTEX
  8
0
 62
7
  6
CONTINUOUS
 10
109.5470474987
 20
178.2740657951
  0
VERTEX
  8
0
 62
7
  6
CONTINUOUS
 10
109.4950206002
 20
178.2890039958
  0
VERTEX
  8
0
 62
7
  6
CONTINUOUS
 10
109.4515389098
 20
178.316706981
  0
VERTEX
  8
0
 62
7
  6
CONTINUOUS
 10
109.433499934
 20
178.33474519
  0
VERTEX
  8
0
 62
7
  6
CONTINUOUS
 10
109.4057938083
 20
178.378228659
  0
VERTEX
  8
0
 62
7
  6
CONTINUOUS
 10
109.3908539556
 20
178.4302587414
  0
VERTEX
  8
0
 62
7
  6
CONTINUOUS
 10
109.3888765245
 20
178.4588045467
  0
SEQEND
  0
POLYLINE
  8
0
 62
7
  6
CONTINUOUS
 66
1
 70
0
  0
VERTEX
  8
0
 62
7
  6
CONTINUOUS
 10
145.2521604392
 20
175.9220884614
  0
VERTEX
  8
0
 62
7
  6
CONTINUOUS
 10
145.2807055502
 20
175.9201111277
  0
VERTEX
  8
0
 62
7
  6
CONTINUOUS
 10
145.3327324487
 20
175.905172927
  0
VERTEX
  8
0
 62
7
  6
CONTINUOUS
 10
145.3762141391
 20
175.8774699418
  0
VERTEX
  8
0
 62
7
  6
CONTINUOUS
 10
145.3942531149
 20
175.8594317328
  0
VERTEX
  8
0
 62
7
  6
CONTINUOUS
 10
145.4219592406
 20
175.8159482638
  0
VERTEX
  8
0
 62
7
  6
CONTINUOUS
 10
145.4368990933
 20
175.7639181814
  0
VERTEX
  8
0
 62
7
  6
CONTINUOUS
 10
145.4388765245
 20
175.7353723761
  0
SEQEND
  0
POLYLINE
  8
0
 62
7
  6
CONTINUOUS
 66
1
 70
0
  0
VERTEX
  8
0
 62
7
  6
CONTINUOUS
 10
181.5755926097
 20
173.4720884614
  0
VERTEX
  8
0
 62
7
  6
CONTINUOUS
 10
181.5470474987
 20
173.4740657951
  0
VERTEX
  8
0
 62
7
  6
CONTINUOUS
 10
181.4950206002
 20
173.4890039958
  0
VERTEX
  8
0
 62
7
  6
CONTINUOUS
 10
181.4515389098
 20
173.516706981
  0
VERTEX
  8
0
 62
7
  6
CONTINUOUS
 10
181.433499934
 20
173.53474519
  0
VERTEX
  8
0
 62
7
  6
CONTINUOUS
 10
181.4057938083
 20
173.578228659
  0
VERTEX
  8
0
 62
7
  6
CONTINUOUS
 10
181.3908539556
 20
173.6302587414
  0
VERTEX
  8
0
 62
7
  6
CONTINUOUS
 10
181.3888765245
 20
173.6588045467
  0
SEQEND
  0
POLYLINE
  8
0
 62
7
  6
CONTINUOUS
 66
1
 70
0
  0
VERTEX
  8
0
 62
7
  6
CONTINUOUS
 10
150.0521604392
 20
175.9220884614
  0
VERTEX
  8
0
 62
7
  6
CONTINUOUS
 10
150.0807055502
 20
175.9201111277
  0
VERTEX
  8
0
 62
7
  6
CONTINUOUS
 10
150.1327324487
 20
175.905172927
  0
VERTEX
  8
0
 62
7
  6
CONTINUOUS
 10
150.1762141391
 20
175.8774699418
  0
VERTEX
  8
0
 62
7
  6
CONTINUOUS
 10
150.1942531149
 20
175.8594317328
  0
VERTEX
  8
0
 62
7
  6
CONTINUOUS
 10
150.2219592406
 20
175.8159482638
  0
VERTEX
  8
0
 62
7
  6
CONTINUOUS
 10
150.2368990933
 20
175.7639181814
  0
VERTEX
  8
0
 62
7
  6
CONTINUOUS
 10
150.2388765245
 20
175.7353723761
  0
SEQEND
  0
POLYLINE
  8
0
 62
7
  6
CONTINUOUS
 66
1
 70
0
  0
VERTEX
  8
0
 62
7
  6
CONTINUOUS
 10
186.3755926097
 20
173.4720884614
  0
VERTEX
  8
0
 62
7
  6
CONTINUOUS
 10
186.3470474987
 20
173.4740657951
  0
VERTEX
  8
0
 62
7
  6
CONTINUOUS
 10
186.2950206002
 20
173.4890039958
  0
VERTEX
  8
0
 62
7
  6
CONTINUOUS
 10
186.2515389098
 20
173.516706981
  0
VERTEX
  8
0
 62
7
  6
CONTINUOUS
 10
186.233499934
 20
173.53474519
  0
VERTEX
  8
0
 62
7
  6
CONTINUOUS
 10
186.2057938083
 20
173.578228659
  0
VERTEX
  8
0
 62
7
  6
CONTINUOUS
 10
186.1908539556
 20
173.6302587414
  0
VERTEX
  8
0
 62
7
  6
CONTINUOUS
 10
186.1888765245
 20
173.6588045467
  0
SEQEND
  0
POLYLINE
  8
0
 62
7
  6
CONTINUOUS
 66
1
 70
0
  0
VERTEX
  8
0
 62
7
  6
CONTINUOUS
 10
119.1755926097
 20
178.2720884614
  0
VERTEX
  8
0
 62
7
  6
CONTINUOUS
 10
119.1470474987
 20
178.2740657951
  0
VERTEX
  8
0
 62
7
  6
CONTINUOUS
 10
119.0950206002
 20
178.2890039958
  0
VERTEX
  8
0
 62
7
  6
CONTINUOUS
 10
119.0515389098
 20
178.316706981
  0
VERTEX
  8
0
 62
7
  6
CONTINUOUS
 10
119.033499934
 20
178.33474519
  0
VERTEX
  8
0
 62
7
  6
CONTINUOUS
 10
119.0057938083
 20
178.378228659
  0
VERTEX
  8
0
 62
7
  6
CONTINUOUS
 10
118.9908539556
 20
178.4302587414
  0
VERTEX
  8
0
 62
7
  6
CONTINUOUS
 10
118.9888765245
 20
178.4588045467
  0
SEQEND
  0
POLYLINE
  8
0
 62
7
  6
CONTINUOUS
 66
1
 70
0
  0
VERTEX
  8
0
 62
7
  6
CONTINUOUS
 10
154.8521604392
 20
175.9220884614
  0
VERTEX
  8
0
 62
7
  6
CONTINUOUS
 10
154.8807055502
 20
175.9201111277
  0
VERTEX
  8
0
 62
7
  6
CONTINUOUS
 10
154.9327324487
 20
175.905172927
  0
VERTEX
  8
0
 62
7
  6
CONTINUOUS
 10
154.9762141391
 20
175.8774699418
  0
VERTEX
  8
0
 62
7
  6
CONTINUOUS
 10
154.9942531149
 20
175.8594317328
  0
VERTEX
  8
0
 62
7
  6
CONTINUOUS
 10
155.0219592406
 20
175.8159482638
  0
VERTEX
  8
0
 62
7
  6
CONTINUOUS
 10
155.0368990933
 20
175.7639181814
  0
VERTEX
  8
0
 62
7
  6
CONTINUOUS
 10
155.0388765245
 20
175.7353723761
  0
SEQEND
  0
POLYLINE
  8
0
 62
7
  6
CONTINUOUS
 66
1
 70
0
  0
VERTEX
  8
0
 62
7
  6
CONTINUOUS
 10
195.9755926097
 20
173.4720884614
  0
VERTEX
  8
0
 62
7
  6
CONTINUOUS
 10
195.9470474987
 20
173.4740657951
  0
VERTEX
  8
0
 62
7
  6
CONTINUOUS
 10
195.8950206002
 20
173.4890039958
  0
VERTEX
  8
0
 62
7
  6
CONTINUOUS
 10
195.8515389098
 20
173.516706981
  0
VERTEX
  8
0
 62
7
  6
CONTINUOUS
 10
195.833499934
 20
173.53474519
  0
VERTEX
  8
0
 62
7
  6
CONTINUOUS
 10
195.8057938083
 20
173.578228659
  0
VERTEX
  8
0
 62
7
  6
CONTINUOUS
 10
195.7908539556
 20
173.6302587414
  0
VERTEX
  8
0
 62
7
  6
CONTINUOUS
 10
195.7888765245
 20
173.6588045467
  0
SEQEND
  0
POLYLINE
  8
0
 62
7
  6
CONTINUOUS
 66
1
 70
0
  0
VERTEX
  8
0
 62
7
  6
CONTINUOUS
 10
128.7755926097
 20
178.2720884614
  0
VERTEX
  8
0
 62
7
  6
CONTINUOUS
 10
128.7470474987
 20
178.2740657951
  0
VERTEX
  8
0
 62
7
  6
CONTINUOUS
 10
128.6950206002
 20
178.2890039958
  0
VERTEX
  8
0
 62
7
  6
CONTINUOUS
 10
128.6515389098
 20
178.316706981
  0
VERTEX
  8
0
 62
7
  6
CONTINUOUS
 10
128.633499934
 20
178.33474519
  0
VERTEX
  8
0
 62
7
  6
CONTINUOUS
 10
128.6057938083
 20
178.378228659
  0
VERTEX
  8
0
 62
7
  6
CONTINUOUS
 10
128.5908539556
 20
178.4302587414
  0
VERTEX
  8
0
 62
7
  6
CONTINUOUS
 10
128.5888765245
 20
178.4588045467
  0
SEQEND
  0
POLYLINE
  8
0
 62
7
  6
CONTINUOUS
 66
1
 70
0
  0
VERTEX
  8
0
 62
7
  6
CONTINUOUS
 10
164.4521604392
 20
175.9220884614
  0
VERTEX
  8
0
 62
7
  6
CONTINUOUS
 10
164.4807055502
 20
175.9201111277
  0
VERTEX
  8
0
 62
7
  6
CONTINUOUS
 10
164.5327324487
 20
175.905172927
  0
VERTEX
  8
0
 62
7
  6
CONTINUOUS
 10
164.5762141391
 20
175.8774699418
  0
VERTEX
  8
0
 62
7
  6
CONTINUOUS
 10
164.5942531149
 20
175.8594317328
  0
VERTEX
  8
0
 62
7
  6
CONTINUOUS
 10
164.6219592406
 20
175.8159482638
  0
VERTEX
  8
0
 62
7
  6
CONTINUOUS
 10
164.6368990933
 20
175.7639181814
  0
VERTEX
  8
0
 62
7
  6
CONTINUOUS
 10
164.6388765245
 20
175.7353723761
  0
SEQEND
  0
POLYLINE
  8
0
 62
7
  6
CONTINUOUS
 66
1
 70
0
  0
VERTEX
  8
0
 62
7
  6
CONTINUOUS
 10
200.7755926097
 20
173.4720884614
  0
VERTEX
  8
0
 62
7
  6
CONTINUOUS
 10
200.7470474987
 20
173.4740657951
  0
VERTEX
  8
0
 62
7
  6
CONTINUOUS
 10
200.6950206002
 20
173.4890039958
  0
VERTEX
  8
0
 62
7
  6
CONTINUOUS
 10
200.6515389098
 20
173.516706981
  0
VERTEX
  8
0
 62
7
  6
CONTINUOUS
 10
200.633499934
 20
173.53474519
  0
VERTEX
  8
0
 62
7
  6
CONTINUOUS
 10
200.6057938083
 20
173.578228659
  0
VERTEX
  8
0
 62
7
  6
CONTINUOUS
 10
200.5908539556
 20
173.6302587414
  0
VERTEX
  8
0
 62
7
  6
CONTINUOUS
 10
200.5888765245
 20
173.6588045467
  0
SEQEND
  0
POLYLINE
  8
0
 62
7
  6
CONTINUOUS
 66
1
 70
0
  0
VERTEX
  8
0
 62
7
  6
CONTINUOUS
 10
169.2521604392
 20
175.9220884614
  0
VERTEX
  8
0
 62
7
  6
CONTINUOUS
 10
169.2807055502
 20
175.9201111277
  0
VERTEX
  8
0
 62
7
  6
CONTINUOUS
 10
169.3327324487
 20
175.905172927
  0
VERTEX
  8
0
 62
7
  6
CONTINUOUS
 10
169.3762141391
 20
175.8774699418
  0
VERTEX
  8
0
 62
7
  6
CONTINUOUS
 10
169.3942531149
 20
175.8594317328
  0
VERTEX
  8
0
 62
7
  6
CONTINUOUS
 10
169.4219592406
 20
175.8159482638
  0
VERTEX
  8
0
 62
7
  6
CONTINUOUS
 10
169.4368990933
 20
175.7639181814
  0
VERTEX
  8
0
 62
7
  6
CONTINUOUS
 10
169.4388765245
 20
175.7353723761
  0
SEQEND
  0
POLYLINE
  8
0
 62
7
  6
CONTINUOUS
 66
1
 70
0
  0
VERTEX
  8
0
 62
7
  6
CONTINUOUS
 10
205.5755926097
 20
173.4720884614
  0
VERTEX
  8
0
 62
7
  6
CONTINUOUS
 10
205.5470474987
 20
173.4740657951
  0
VERTEX
  8
0
 62
7
  6
CONTINUOUS
 10
205.4950206002
 20
173.4890039958
  0
VERTEX
  8
0
 62
7
  6
CONTINUOUS
 10
205.4515389098
 20
173.516706981
  0
VERTEX
  8
0
 62
7
  6
CONTINUOUS
 10
205.433499934
 20
173.53474519
  0
VERTEX
  8
0
 62
7
  6
CONTINUOUS
 10
205.4057938083
 20
173.578228659
  0
VERTEX
  8
0
 62
7
  6
CONTINUOUS
 10
205.3908539556
 20
173.6302587414
  0
VERTEX
  8
0
 62
7
  6
CONTINUOUS
 10
205.3888765245
 20
173.6588045467
  0
SEQEND
  0
POLYLINE
  8
0
 62
7
  6
CONTINUOUS
 66
1
 70
0
  0
VERTEX
  8
0
 62
7
  6
CONTINUOUS
 10
138.3755926097
 20
178.2720884614
  0
VERTEX
  8
0
 62
7
  6
CONTINUOUS
 10
138.3470474987
 20
178.2740657951
  0
VERTEX
  8
0
 62
7
  6
CONTINUOUS
 10
138.2950206002
 20
178.2890039958
  0
VERTEX
  8
0
 62
7
  6
CONTINUOUS
 10
138.2515389098
 20
178.316706981
  0
VERTEX
  8
0
 62
7
  6
CONTINUOUS
 10
138.233499934
 20
178.33474519
  0
VERTEX
  8
0
 62
7
  6
CONTINUOUS
 10
138.2057938083
 20
178.378228659
  0
VERTEX
  8
0
 62
7
  6
CONTINUOUS
 10
138.1908539556
 20
178.4302587414
  0
VERTEX
  8
0
 62
7
  6
CONTINUOUS
 10
138.1888765245
 20
178.4588045467
  0
SEQEND
  0
POLYLINE
  8
0
 62
7
  6
CONTINUOUS
 66
1
 70
0
  0
VERTEX
  8
0
 62
7
  6
CONTINUOUS
 10
174.0521604392
 20
175.9220884614
  0
VERTEX
  8
0
 62
7
  6
CONTINUOUS
 10
174.0807055502
 20
175.9201111277
  0
VERTEX
  8
0
 62
7
  6
CONTINUOUS
 10
174.1327324487
 20
175.905172927
  0
VERTEX
  8
0
 62
7
  6
CONTINUOUS
 10
174.1762141391
 20
175.8774699418
  0
VERTEX
  8
0
 62
7
  6
CONTINUOUS
 10
174.1942531149
 20
175.8594317328
  0
VERTEX
  8
0
 62
7
  6
CONTINUOUS
 10
174.2219592406
 20
175.8159482638
  0
VERTEX
  8
0
 62
7
  6
CONTINUOUS
 10
174.2368990933
 20
175.7639181814
  0
VERTEX
  8
0
 62
7
  6
CONTINUOUS
 10
174.2388765245
 20
175.7353723761
  0
SEQEND
  0
POLYLINE
  8
0
 62
7
  6
CONTINUOUS
 66
1
 70
0
  0
VERTEX
  8
0
 62
7
  6
CONTINUOUS
 10
106.8521604392
 20
180.7220884614
  0
VERTEX
  8
0
 62
7
  6
CONTINUOUS
 10
106.8807055502
 20
180.7201111277
  0
VERTEX
  8
0
 62
7
  6
CONTINUOUS
 10
106.9327324487
 20
180.705172927
  0
VERTEX
  8
0
 62
7
  6
CONTINUOUS
 10
106.9762141391
 20
180.6774699418
  0
VERTEX
  8
0
 62
7
  6
CONTINUOUS
 10
106.9942531149
 20
180.6594317328
  0
VERTEX
  8
0
 62
7
  6
CONTINUOUS
 10
107.0219592406
 20
180.6159482638
  0
VERTEX
  8
0
 62
7
  6
CONTINUOUS
 10
107.0368990933
 20
180.5639181814
  0
VERTEX
  8
0
 62
7
  6
CONTINUOUS
 10
107.0388765245
 20
180.5353723761
  0
SEQEND
  0
POLYLINE
  8
0
 62
7
  6
CONTINUOUS
 66
1
 70
0
  0
VERTEX
  8
0
 62
7
  6
CONTINUOUS
 10
215.1755926097
 20
173.4720884614
  0
VERTEX
  8
0
 62
7
  6
CONTINUOUS
 10
215.1470474987
 20
173.4740657951
  0
VERTEX
  8
0
 62
7
  6
CONTINUOUS
 10
215.0950206002
 20
173.4890039958
  0
VERTEX
  8
0
 62
7
  6
CONTINUOUS
 10
215.0515389098
 20
173.516706981
  0
VERTEX
  8
0
 62
7
  6
CONTINUOUS
 10
215.033499934
 20
173.53474519
  0
VERTEX
  8
0
 62
7
  6
CONTINUOUS
 10
215.0057938083
 20
173.578228659
  0
VERTEX
  8
0
 62
7
  6
CONTINUOUS
 10
214.9908539556
 20
173.6302587414
  0
VERTEX
  8
0
 62
7
  6
CONTINUOUS
 10
214.9888765245
 20
173.6588045467
  0
SEQEND
  0
POLYLINE
  8
0
 62
7
  6
CONTINUOUS
 66
1
 70
0
  0
VERTEX
  8
0
 62
7
  6
CONTINUOUS
 10
147.9755926097
 20
178.2720884614
  0
VERTEX
  8
0
 62
7
  6
CONTINUOUS
 10
147.9470474987
 20
178.2740657951
  0
VERTEX
  8
0
 62
7
  6
CONTINUOUS
 10
147.8950206002
 20
178.2890039958
  0
VERTEX
  8
0
 62
7
  6
CONTINUOUS
 10
147.8515389098
 20
178.316706981
  0
VERTEX
  8
0
 62
7
  6
CONTINUOUS
 10
147.833499934
 20
178.33474519
  0
VERTEX
  8
0
 62
7
  6
CONTINUOUS
 10
147.8057938083
 20
178.378228659
  0
VERTEX
  8
0
 62
7
  6
CONTINUOUS
 10
147.7908539556
 20
178.4302587414
  0
VERTEX
  8
0
 62
7
  6
CONTINUOUS
 10
147.7888765245
 20
178.4588045467
  0
SEQEND
  0
POLYLINE
  8
0
 62
7
  6
CONTINUOUS
 66
1
 70
0
  0
VERTEX
  8
0
 62
7
  6
CONTINUOUS
 10
183.6521604392
 20
175.9220884614
  0
VERTEX
  8
0
 62
7
  6
CONTINUOUS
 10
183.6807055502
 20
175.9201111277
  0
VERTEX
  8
0
 62
7
  6
CONTINUOUS
 10
183.7327324487
 20
175.905172927
  0
VERTEX
  8
0
 62
7
  6
CONTINUOUS
 10
183.7762141391
 20
175.8774699418
  0
VERTEX
  8
0
 62
7
  6
CONTINUOUS
 10
183.7942531149
 20
175.8594317328
  0
VERTEX
  8
0
 62
7
  6
CONTINUOUS
 10
183.8219592406
 20
175.8159482638
  0
VERTEX
  8
0
 62
7
  6
CONTINUOUS
 10
183.8368990933
 20
175.7639181814
  0
VERTEX
  8
0
 62
7
  6
CONTINUOUS
 10
183.8388765245
 20
175.7353723761
  0
SEQEND
  0
POLYLINE
  8
0
 62
7
  6
CONTINUOUS
 66
1
 70
0
  0
VERTEX
  8
0
 62
7
  6
CONTINUOUS
 10
219.9755926097
 20
173.4720884614
  0
VERTEX
  8
0
 62
7
  6
CONTINUOUS
 10
219.9470474987
 20
173.4740657951
  0
VERTEX
  8
0
 62
7
  6
CONTINUOUS
 10
219.8950206002
 20
173.4890039958
  0
VERTEX
  8
0
 62
7
  6
CONTINUOUS
 10
219.8515389098
 20
173.516706981
  0
VERTEX
  8
0
 62
7
  6
CONTINUOUS
 10
219.833499934
 20
173.53474519
  0
VERTEX
  8
0
 62
7
  6
CONTINUOUS
 10
219.8057938083
 20
173.578228659
  0
VERTEX
  8
0
 62
7
  6
CONTINUOUS
 10
219.7908539556
 20
173.6302587414
  0
VERTEX
  8
0
 62
7
  6
CONTINUOUS
 10
219.7888765245
 20
173.6588045467
  0
SEQEND
  0
POLYLINE
  8
0
 62
7
  6
CONTINUOUS
 66
1
 70
0
  0
VERTEX
  8
0
 62
7
  6
CONTINUOUS
 10
116.4521604392
 20
180.7220884614
  0
VERTEX
  8
0
 62
7
  6
CONTINUOUS
 10
116.4807055502
 20
180.7201111277
  0
VERTEX
  8
0
 62
7
  6
CONTINUOUS
 10
116.5327324487
 20
180.705172927
  0
VERTEX
  8
0
 62
7
  6
CONTINUOUS
 10
116.5762141391
 20
180.6774699418
  0
VERTEX
  8
0
 62
7
  6
CONTINUOUS
 10
116.5942531149
 20
180.6594317328
  0
VERTEX
  8
0
 62
7
  6
CONTINUOUS
 10
116.6219592406
 20
180.6159482638
  0
VERTEX
  8
0
 62
7
  6
CONTINUOUS
 10
116.6368990933
 20
180.5639181814
  0
VERTEX
  8
0
 62
7
  6
CONTINUOUS
 10
116.6388765245
 20
180.5353723761
  0
SEQEND
  0
POLYLINE
  8
0
 62
7
  6
CONTINUOUS
 66
1
 70
0
  0
VERTEX
  8
0
 62
7
  6
CONTINUOUS
 10
188.4521604392
 20
175.9220884614
  0
VERTEX
  8
0
 62
7
  6
CONTINUOUS
 10
188.4807055502
 20
175.9201111277
  0
VERTEX
  8
0
 62
7
  6
CONTINUOUS
 10
188.5327324487
 20
175.905172927
  0
VERTEX
  8
0
 62
7
  6
CONTINUOUS
 10
188.5762141391
 20
175.8774699418
  0
VERTEX
  8
0
 62
7
  6
CONTINUOUS
 10
188.5942531149
 20
175.8594317328
  0
VERTEX
  8
0
 62
7
  6
CONTINUOUS
 10
188.6219592406
 20
175.8159482638
  0
VERTEX
  8
0
 62
7
  6
CONTINUOUS
 10
188.6368990933
 20
175.7639181814
  0
VERTEX
  8
0
 62
7
  6
CONTINUOUS
 10
188.6388765245
 20
175.7353723761
  0
SEQEND
  0
POLYLINE
  8
0
 62
7
  6
CONTINUOUS
 66
1
 70
0
  0
VERTEX
  8
0
 62
7
  6
CONTINUOUS
 10
224.7755926097
 20
173.4720884614
  0
VERTEX
  8
0
 62
7
  6
CONTINUOUS
 10
224.7470474987
 20
173.4740657951
  0
VERTEX
  8
0
 62
7
  6
CONTINUOUS
 10
224.6950206002
 20
173.4890039958
  0
VERTEX
  8
0
 62
7
  6
CONTINUOUS
 10
224.6515389098
 20
173.516706981
  0
VERTEX
  8
0
 62
7
  6
CONTINUOUS
 10
224.633499934
 20
173.53474519
  0
VERTEX
  8
0
 62
7
  6
CONTINUOUS
 10
224.6057938083
 20
173.578228659
  0
VERTEX
  8
0
 62
7
  6
CONTINUOUS
 10
224.5908539556
 20
173.6302587414
  0
VERTEX
  8
0
 62
7
  6
CONTINUOUS
 10
224.5888765245
 20
173.6588045467
  0
SEQEND
  0
POLYLINE
  8
0
 62
7
  6
CONTINUOUS
 66
1
 70
0
  0
VERTEX
  8
0
 62
7
  6
CONTINUOUS
 10
121.2521604392
 20
180.7220884614
  0
VERTEX
  8
0
 62
7
  6
CONTINUOUS
 10
121.2807055502
 20
180.7201111277
  0
VERTEX
  8
0
 62
7
  6
CONTINUOUS
 10
121.3327324487
 20
180.705172927
  0
VERTEX
  8
0
 62
7
  6
CONTINUOUS
 10
121.3762141391
 20
180.6774699418
  0
VERTEX
  8
0
 62
7
  6
CONTINUOUS
 10
121.3942531149
 20
180.6594317328
  0
VERTEX
  8
0
 62
7
  6
CONTINUOUS
 10
121.4219592406
 20
180.6159482638
  0
VERTEX
  8
0
 62
7
  6
CONTINUOUS
 10
121.4368990933
 20
180.5639181814
  0
VERTEX
  8
0
 62
7
  6
CONTINUOUS
 10
121.4388765245
 20
180.5353723761
  0
SEQEND
  0
POLYLINE
  8
0
 62
7
  6
CONTINUOUS
 66
1
 70
0
  0
VERTEX
  8
0
 62
7
  6
CONTINUOUS
 10
157.5755926097
 20
178.2720884614
  0
VERTEX
  8
0
 62
7
  6
CONTINUOUS
 10
157.5470474987
 20
178.2740657951
  0
VERTEX
  8
0
 62
7
  6
CONTINUOUS
 10
157.4950206002
 20
178.2890039958
  0
VERTEX
  8
0
 62
7
  6
CONTINUOUS
 10
157.4515389098
 20
178.316706981
  0
VERTEX
  8
0
 62
7
  6
CONTINUOUS
 10
157.433499934
 20
178.33474519
  0
VERTEX
  8
0
 62
7
  6
CONTINUOUS
 10
157.4057938083
 20
178.378228659
  0
VERTEX
  8
0
 62
7
  6
CONTINUOUS
 10
157.3908539556
 20
178.4302587414
  0
VERTEX
  8
0
 62
7
  6
CONTINUOUS
 10
157.3888765245
 20
178.4588045467
  0
SEQEND
  0
POLYLINE
  8
0
 62
7
  6
CONTINUOUS
 66
1
 70
0
  0
VERTEX
  8
0
 62
7
  6
CONTINUOUS
 10
193.2521604392
 20
175.9220884614
  0
VERTEX
  8
0
 62
7
  6
CONTINUOUS
 10
193.2807055502
 20
175.9201111277
  0
VERTEX
  8
0
 62
7
  6
CONTINUOUS
 10
193.3327324487
 20
175.905172927
  0
VERTEX
  8
0
 62
7
  6
CONTINUOUS
 10
193.3762141391
 20
175.8774699418
  0
VERTEX
  8
0
 62
7
  6
CONTINUOUS
 10
193.3942531149
 20
175.8594317328
  0
VERTEX
  8
0
 62
7
  6
CONTINUOUS
 10
193.4219592406
 20
175.8159482638
  0
VERTEX
  8
0
 62
7
  6
CONTINUOUS
 10
193.4368990933
 20
175.7639181814
  0
VERTEX
  8
0
 62
7
  6
CONTINUOUS
 10
193.4388765245
 20
175.7353723761
  0
SEQEND
  0
POLYLINE
  8
0
 62
7
  6
CONTINUOUS
 66
1
 70
0
  0
VERTEX
  8
0
 62
7
  6
CONTINUOUS
 10
126.0521604392
 20
180.7220884614
  0
VERTEX
  8
0
 62
7
  6
CONTINUOUS
 10
126.0807055502
 20
180.7201111277
  0
VERTEX
  8
0
 62
7
  6
CONTINUOUS
 10
126.1327324487
 20
180.705172927
  0
VERTEX
  8
0
 62
7
  6
CONTINUOUS
 10
126.1762141391
 20
180.6774699418
  0
VERTEX
  8
0
 62
7
  6
CONTINUOUS
 10
126.1942531149
 20
180.6594317328
  0
VERTEX
  8
0
 62
7
  6
CONTINUOUS
 10
126.2219592406
 20
180.6159482638
  0
VERTEX
  8
0
 62
7
  6
CONTINUOUS
 10
126.2368990933
 20
180.5639181814
  0
VERTEX
  8
0
 62
7
  6
CONTINUOUS
 10
126.2388765245
 20
180.5353723761
  0
SEQEND
  0
POLYLINE
  8
0
 62
7
  6
CONTINUOUS
 66
1
 70
0
  0
VERTEX
  8
0
 62
7
  6
CONTINUOUS
 10
234.3755926097
 20
173.4720884614
  0
VERTEX
  8
0
 62
7
  6
CONTINUOUS
 10
234.3470474987
 20
173.4740657951
  0
VERTEX
  8
0
 62
7
  6
CONTINUOUS
 10
234.2950206002
 20
173.4890039958
  0
VERTEX
  8
0
 62
7
  6
CONTINUOUS
 10
234.2515389098
 20
173.516706981
  0
VERTEX
  8
0
 62
7
  6
CONTINUOUS
 10
234.233499934
 20
173.53474519
  0
VERTEX
  8
0
 62
7
  6
CONTINUOUS
 10
234.2057938083
 20
173.578228659
  0
VERTEX
  8
0
 62
7
  6
CONTINUOUS
 10
234.1908539556
 20
173.6302587414
  0
VERTEX
  8
0
 62
7
  6
CONTINUOUS
 10
234.1888765245
 20
173.6588045467
  0
SEQEND
  0
POLYLINE
  8
0
 62
7
  6
CONTINUOUS
 66
1
 70
0
  0
VERTEX
  8
0
 62
7
  6
CONTINUOUS
 10
167.1755926097
 20
178.2720884614
  0
VERTEX
  8
0
 62
7
  6
CONTINUOUS
 10
167.1470474987
 20
178.2740657951
  0
VERTEX
  8
0
 62
7
  6
CONTINUOUS
 10
167.0950206002
 20
178.2890039958
  0
VERTEX
  8
0
 62
7
  6
CONTINUOUS
 10
167.0515389098
 20
178.316706981
  0
VERTEX
  8
0
 62
7
  6
CONTINUOUS
 10
167.033499934
 20
178.33474519
  0
VERTEX
  8
0
 62
7
  6
CONTINUOUS
 10
167.0057938083
 20
178.378228659
  0
VERTEX
  8
0
 62
7
  6
CONTINUOUS
 10
166.9908539556
 20
178.4302587414
  0
VERTEX
  8
0
 62
7
  6
CONTINUOUS
 10
166.9888765245
 20
178.4588045467
  0
SEQEND
  0
LINE
  8
0
 62
7
  6
CONTINUOUS
 10
133.5755926097
 20
178.2720884614
 11
133.5231342939
 21
178.2789500445
  0
POLYLINE
  8
0
 62
7
  6
CONTINUOUS
 66
1
 70
0
  0
VERTEX
  8
0
 62
7
  6
CONTINUOUS
 10
152.7755926097
 20
178.2720884614
  0
VERTEX
  8
0
 62
7
  6
CONTINUOUS
 10
152.7221040523
 20
178.279231938
  0
VERTEX
  8
0
 62
7
  6
CONTINUOUS
 10
152.6755037484
 20
178.2992739504
  0
VERTEX
  8
0
 62
7
  6
CONTINUOUS
 10
152.6553266641
 20
178.3135246958
  0
VERTEX
  8
0
 62
7
  6
CONTINUOUS
 10
152.6220501185
 20
178.3495012111
  0
VERTEX
  8
0
 62
7
  6
CONTINUOUS
 10
152.5994188941
 20
178.3943317887
  0
SEQEND
  0
LINE
  8
2_FEATURE
 62
7
  6
CONTINUOUS
 10
164.4263766079
 20
184.9590565376
 11
164.2513765245
 21
185.1824607663
  0
LINE
  8
2_FEATURE
 62
7
  6
CONTINUOUS
 10
166.3951264827
 20
184.9590565376
 11
166.2201265245
 21
185.1824607663
  0
LINE
  8
2_FEATURE
 62
7
  6
CONTINUOUS
 10
166.4388765662
 20
185.3313969188
 11
166.3513765245
 21
185.4803330712
  0
LINE
  8
0
 62
7
  6
CONTINUOUS
 10
172.4045428307
 20
172.480229335
 11
170.4741147751
 21
181.8722766414
  0
LINE
  8
0
 62
7
  6
CONTINUOUS
 10
172.7111297922
 20
173.4720884614
 11
172.2075602741
 21
175.9220884614
  0
LINE
  8
0
 62
7
  6
CONTINUOUS
 10
176.5888765245
 20
173.6588045467
 11
176.5888765245
 21
175.7353723761
  0
LINE
  8
0
 62
7
  6
CONTINUOUS
 10
176.5888765245
 20
178.4588045467
 11
176.5888765245
 21
180.5353723761
  0
LINE
  8
0
 62
7
  6
CONTINUOUS
 10
178.4138765245
 20
170.5216647021
 11
178.4138765245
 21
172.3839653119
  0
LINE
  8
0
 62
7
  6
CONTINUOUS
 10
179.0388765245
 20
180.5353723761
 11
179.0388765245
 21
178.4588045467
  0
LINE
  8
0
 62
7
  6
CONTINUOUS
 10
180.0138765245
 20
172.2212353475
 11
180.0138765245
 21
163.8320884614
  0
LINE
  8
0
 62
7
  6
CONTINUOUS
 10
180.3638765245
 20
181.9729415753
 11
180.3638765245
 21
190.3620884614
  0
POLYLINE
  8
0
 62
7
  6
CONTINUOUS
 66
1
 70
0
  0
VERTEX
  8
0
 62
7
  6
CONTINUOUS
 10
176.5888765245
 20
180.5353723761
  0
VERTEX
  8
0
 62
7
  6
CONTINUOUS
 10
176.5908538581
 20
180.5639174871
  0
VERTEX
  8
0
 62
7
  6
CONTINUOUS
 10
176.6057920588
 20
180.6159443856
  0
VERTEX
  8
0
 62
7
  6
CONTINUOUS
 10
176.6334950441
 20
180.659426076
  0
VERTEX
  8
0
 62
7
  6
CONTINUOUS
 10
176.6515332531
 20
180.6774650519
  0
VERTEX
  8
0
 62
7
  6
CONTINUOUS
 10
176.695016722
 20
180.7051711775
  0
VERTEX
  8
0
 62
7
  6
CONTINUOUS
 10
176.7470468045
 20
180.7201110302
  0
VERTEX
  8
0
 62
7
  6
CONTINUOUS
 10
176.7755926097
 20
180.7220884614
  0
SEQEND
  0
POLYLINE
  8
0
 62
7
  6
CONTINUOUS
 66
1
 70
0
  0
VERTEX
  8
0
 62
7
  6
CONTINUOUS
 10
176.5888765245
 20
175.7353723761
  0
VERTEX
  8
0
 62
7
  6
CONTINUOUS
 10
176.5908538581
 20
175.7639174871
  0
VERTEX
  8
0
 62
7
  6
CONTINUOUS
 10
176.6057920588
 20
175.8159443856
  0
VERTEX
  8
0
 62
7
  6
CONTINUOUS
 10
176.6334950441
 20
175.859426076
  0
VERTEX
  8
0
 62
7
  6
CONTINUOUS
 10
176.6515332531
 20
175.8774650519
  0
VERTEX
  8
0
 62
7
  6
CONTINUOUS
 10
176.695016722
 20
175.9051711775
  0
VERTEX
  8
0
 62
7
  6
CONTINUOUS
 10
176.7470468045
 20
175.9201110302
  0
VERTEX
  8
0
 62
7
  6
CONTINUOUS
 10
176.7755926097
 20
175.9220884614
  0
SEQEND
  0
POLYLINE
  8
0
 62
7
  6
CONTINUOUS
 66
1
 70
0
  0
VERTEX
  8
0
 62
7
  6
CONTINUOUS
 10
179.0388765245
 20
178.4588045467
  0
VERTEX
  8
0
 62
7
  6
CONTINUOUS
 10
179.0368991908
 20
178.4302594357
  0
VERTEX
  8
0
 62
7
  6
CONTINUOUS
 10
179.0219609901
 20
178.3782325372
  0
VERTEX
  8
0
 62
7
  6
CONTINUOUS
 10
178.9942580048
 20
178.3347508468
  0
VERTEX
  8
0
 62
7
  6
CONTINUOUS
 10
178.9762197958
 20
178.3167118709
  0
VERTEX
  8
0
 62
7
  6
CONTINUOUS
 10
178.9327363269
 20
178.2890057453
  0
VERTEX
  8
0
 62
7
  6
CONTINUOUS
 10
178.8807062444
 20
178.2740658926
  0
VERTEX
  8
0
 62
7
  6
CONTINUOUS
 10
178.8521604392
 20
178.2720884614
  0
SEQEND
  0
LINE
  8
0
 62
7
  6
CONTINUOUS
 10
180.3638765245
 20
181.9729415753
 11
180.3536382738
 21
181.8722766414
  0
LINE
  8
0
 62
7
  6
CONTINUOUS
 10
180.0138765245
 20
172.2212353475
 11
180.0241147751
 21
172.3219002814
  0
LINE
  8
0
 62
7
  6
CONTINUOUS
 10
178.6201927748
 20
175.9220884614
 11
178.1166232567
 21
173.4720884614
  0
LINE
  8
0
 62
7
  6
CONTINUOUS
 10
178.4232102182
 20
172.480229335
 11
180.3536382738
 21
181.8722766414
  0
LINE
  8
0
 62
7
  6
CONTINUOUS
 10
181.9545428307
 20
181.7139475878
 11
180.0241147751
 21
172.3219002814
  0
LINE
  8
0
 62
7
  6
CONTINUOUS
 10
130.8700349286
 20
178.2728564248
 11
130.8521604392
 21
178.2720884614
  0
LINE
  8
0
 62
7
  6
CONTINUOUS
 10
245.2582991083
 20
178.2720884614
 11
243.9755926097
 21
178.2720884614
  0
LINE
  8
0
 62
7
  6
CONTINUOUS
 10
241.2521604392
 20
178.2720884614
 11
239.1755926097
 21
178.2720884614
  0
LINE
  8
0
 62
7
  6
CONTINUOUS
 10
236.403208435
 20
178.2720884614
 11
234.3755926097
 21
178.2720884614
  0
LINE
  8
0
 62
7
  6
CONTINUOUS
 10
231.6521604392
 20
178.2720884614
 11
229.5755926097
 21
178.2720884614
  0
LINE
  8
0
 62
7
  6
CONTINUOUS
 10
226.3701927748
 20
178.2720884614
 11
224.7755926097
 21
178.2720884614
  0
LINE
  8
0
 62
7
  6
CONTINUOUS
 10
222.0521604392
 20
178.2720884614
 11
219.9755926097
 21
178.2720884614
  0
LINE
  8
0
 62
7
  6
CONTINUOUS
 10
217.2521604392
 20
178.2720884614
 11
215.1755926097
 21
178.2720884614
  0
LINE
  8
0
 62
7
  6
CONTINUOUS
 10
212.4521604392
 20
178.2720884614
 11
210.3755926097
 21
178.2720884614
  0
LINE
  8
0
 62
7
  6
CONTINUOUS
 10
207.2701927748
 20
178.2720884614
 11
205.5755926097
 21
178.2720884614
  0
LINE
  8
0
 62
7
  6
CONTINUOUS
 10
202.8521604392
 20
178.2720884614
 11
200.8575602741
 21
178.2720884614
  0
LINE
  8
0
 62
7
  6
CONTINUOUS
 10
198.0521604392
 20
178.2720884614
 11
195.9755926097
 21
178.2720884614
  0
LINE
  8
0
 62
7
  6
CONTINUOUS
 10
193.2521604392
 20
178.2720884614
 11
191.1755926097
 21
178.2720884614
  0
LINE
  8
0
 62
7
  6
CONTINUOUS
 10
188.1701927748
 20
178.2720884614
 11
186.3755926097
 21
178.2720884614
  0
LINE
  8
0
 62
7
  6
CONTINUOUS
 10
183.6521604392
 20
178.2720884614
 11
181.7575602741
 21
178.2720884614
  0
LINE
  8
0
 62
7
  6
CONTINUOUS
 10
178.8521604392
 20
178.2720884614
 11
176.7755926097
 21
178.2720884614
  0
LINE
  8
0
 62
7
  6
CONTINUOUS
 10
174.0521604392
 20
178.2720884614
 11
171.9755926097
 21
178.2720884614
  0
LINE
  8
0
 62
7
  6
CONTINUOUS
 10
169.0701927748
 20
178.2720884614
 11
167.1755926097
 21
178.2720884614
  0
LINE
  8
0
 62
7
  6
CONTINUOUS
 10
164.4521604392
 20
178.2720884614
 11
162.6575602741
 21
178.2720884614
  0
LINE
  8
0
 62
7
  6
CONTINUOUS
 10
159.6521604392
 20
178.2720884614
 11
157.5755926097
 21
178.2720884614
  0
LINE
  8
0
 62
7
  6
CONTINUOUS
 10
154.8521604392
 20
178.2720884614
 11
152.7755926097
 21
178.2720884614
  0
LINE
  8
0
 62
7
  6
CONTINUOUS
 10
149.9701927748
 20
178.2720884614
 11
147.9755926097
 21
178.2720884614
  0
LINE
  8
0
 62
7
  6
CONTINUOUS
 10
145.2521604392
 20
178.2720884614
 11
143.5575602741
 21
178.2720884614
  0
LINE
  8
0
 62
7
  6
CONTINUOUS
 10
140.4521604392
 20
178.2720884614
 11
138.3755926097
 21
178.2720884614
  0
LINE
  8
0
 62
7
  6
CONTINUOUS
 10
135.6521604392
 20
178.2720884614
 11
133.5755926097
 21
178.2720884614
  0
LINE
  8
0
 62
7
  6
CONTINUOUS
 10
130.8521604392
 20
178.2720884614
 11
128.7755926097
 21
178.2720884614
  0
LINE
  8
0
 62
7
  6
CONTINUOUS
 10
126.0521604392
 20
178.2720884614
 11
124.4575602741
 21
178.2720884614
  0
LINE
  8
0
 62
7
  6
CONTINUOUS
 10
121.2521604392
 20
178.2720884614
 11
119.1755926097
 21
178.2720884614
  0
LINE
  8
0
 62
7
  6
CONTINUOUS
 10
116.4521604392
 20
178.2720884614
 11
114.4245446139
 21
178.2720884614
  0
LINE
  8
0
 62
7
  6
CONTINUOUS
 10
111.6521604392
 20
178.2720884614
 11
109.5755926097
 21
178.2720884614
  0
LINE
  8
0
 62
7
  6
CONTINUOUS
 10
106.8521604392
 20
178.2720884614
 11
105.5694539406
 21
178.2720884614
  0
LINE
  8
0
 62
7
  6
CONTINUOUS
 10
102.1638765245
 20
179.0970884614
 11
101.9138765245
 21
179.0970884614
  0
LINE
  8
0
 62
7
  6
CONTINUOUS
 10
248.6138765245
 20
180.5204750643
 11
247.467665569
 21
180.5204750643
  0
LINE
  8
0
 62
7
  6
CONTINUOUS
 10
103.3600874799
 20
180.5204750643
 11
102.2138765245
 21
180.5204750643
  0
LINE
  8
0
 62
7
  6
CONTINUOUS
 10
106.25798867
 20
180.7220884614
 11
106.8521604392
 21
180.7220884614
  0
LINE
  8
0
 62
7
  6
CONTINUOUS
 10
109.5755926097
 20
180.7220884614
 11
111.2666232567
 21
180.7220884614
  0
LINE
  8
0
 62
7
  6
CONTINUOUS
 10
114.3755926097
 20
180.7220884614
 11
116.4521604392
 21
180.7220884614
  0
LINE
  8
0
 62
7
  6
CONTINUOUS
 10
119.1755926097
 20
180.7220884614
 11
121.2521604392
 21
180.7220884614
  0
LINE
  8
0
 62
7
  6
CONTINUOUS
 10
124.9611297922
 20
180.7220884614
 11
126.0521604392
 21
180.7220884614
  0
LINE
  8
0
 62
7
  6
CONTINUOUS
 10
128.7755926097
 20
180.7220884614
 11
130.3666232567
 21
180.7220884614
  0
LINE
  8
0
 62
7
  6
CONTINUOUS
 10
133.5755926097
 20
180.7220884614
 11
135.6521604392
 21
180.7220884614
  0
LINE
  8
0
 62
7
  6
CONTINUOUS
 10
138.3755926097
 20
180.7220884614
 11
140.4521604392
 21
180.7220884614
  0
LINE
  8
0
 62
7
  6
CONTINUOUS
 10
144.0611297922
 20
180.7220884614
 11
145.2521604392
 21
180.7220884614
  0
LINE
  8
0
 62
7
  6
CONTINUOUS
 10
147.9755926097
 20
180.7220884614
 11
149.4666232567
 21
180.7220884614
  0
LINE
  8
0
 62
7
  6
CONTINUOUS
 10
152.7755926097
 20
180.7220884614
 11
154.8521604392
 21
180.7220884614
  0
LINE
  8
0
 62
7
  6
CONTINUOUS
 10
157.5755926097
 20
180.7220884614
 11
159.6521604392
 21
180.7220884614
  0
LINE
  8
0
 62
7
  6
CONTINUOUS
 10
163.1611297922
 20
180.7220884614
 11
164.4521604392
 21
180.7220884614
  0
LINE
  8
0
 62
7
  6
CONTINUOUS
 10
167.1755926097
 20
180.7220884614
 11
168.5666232567
 21
180.7220884614
  0
LINE
  8
0
 62
7
  6
CONTINUOUS
 10
171.9755926097
 20
180.7220884614
 11
174.0521604392
 21
180.7220884614
  0
LINE
  8
0
 62
7
  6
CONTINUOUS
 10
176.7755926097
 20
180.7220884614
 11
178.8521604392
 21
180.7220884614
  0
LINE
  8
0
 62
7
  6
CONTINUOUS
 10
182.2611297922
 20
180.7220884614
 11
183.6521604392
 21
180.7220884614
  0
LINE
  8
0
 62
7
  6
CONTINUOUS
 10
186.3755926097
 20
180.7220884614
 11
187.6666232567
 21
180.7220884614
  0
LINE
  8
0
 62
7
  6
CONTINUOUS
 10
191.1755926097
 20
180.7220884614
 11
193.2521604392
 21
180.7220884614
  0
LINE
  8
0
 62
7
  6
CONTINUOUS
 10
195.9755926097
 20
180.7220884614
 11
198.0521604392
 21
180.7220884614
  0
LINE
  8
0
 62
7
  6
CONTINUOUS
 10
201.3611297922
 20
180.7220884614
 11
202.8521604392
 21
180.7220884614
  0
LINE
  8
0
 62
7
  6
CONTINUOUS
 10
205.5755926097
 20
180.7220884614
 11
206.7666232567
 21
180.7220884614
  0
LINE
  8
0
 62
7
  6
CONTINUOUS
 10
210.3755926097
 20
180.7220884614
 11
212.4521604392
 21
180.7220884614
  0
LINE
  8
0
 62
7
  6
CONTINUOUS
 10
215.1755926097
 20
180.7220884614
 11
217.2521604392
 21
180.7220884614
  0
LINE
  8
0
 62
7
  6
CONTINUOUS
 10
220.4611297922
 20
180.7220884614
 11
222.0521604392
 21
180.7220884614
  0
LINE
  8
0
 62
7
  6
CONTINUOUS
 10
224.7755926097
 20
180.7220884614
 11
225.8666232567
 21
180.7220884614
  0
LINE
  8
0
 62
7
  6
CONTINUOUS
 10
229.5755926097
 20
180.7220884614
 11
231.6521604392
 21
180.7220884614
  0
LINE
  8
0
 62
7
  6
CONTINUOUS
 10
234.3755926097
 20
180.7220884614
 11
236.4521604392
 21
180.7220884614
  0
LINE
  8
0
 62
7
  6
CONTINUOUS
 10
239.5611297922
 20
180.7220884614
 11
241.2521604392
 21
180.7220884614
  0
LINE
  8
0
 62
7
  6
CONTINUOUS
 10
243.9755926097
 20
180.7220884614
 11
244.5697643789
 21
180.7220884614
  0
LINE
  8
0
 62
7
  6
CONTINUOUS
 10
250.9253859228
 20
181.9404750643
 11
246.9138725428
 21
181.9404750643
  0
LINE
  8
0
 62
7
  6
CONTINUOUS
 10
103.9138805057
 20
181.9404750643
 11
99.9023671261
 21
181.9404750643
  0
LINE
  8
0
 62
7
  6
CONTINUOUS
 10
244.3138765245
 20
182.2720884614
 11
239.7638765245
 21
182.2720884614
  0
LINE
  8
0
 62
7
  6
CONTINUOUS
 10
225.6638765245
 20
182.2720884614
 11
220.6638765245
 21
182.2720884614
  0
LINE
  8
0
 62
7
  6
CONTINUOUS
 10
206.5638765245
 20
182.2720884614
 11
201.5638765245
 21
182.2720884614
  0
LINE
  8
0
 62
7
  6
CONTINUOUS
 10
187.4638765245
 20
182.2720884614
 11
182.4638765245
 21
182.2720884614
  0
LINE
  8
0
 62
7
  6
CONTINUOUS
 10
168.3638765245
 20
182.2720884614
 11
163.3638765245
 21
182.2720884614
  0
LINE
  8
0
 62
7
  6
CONTINUOUS
 10
149.2638765245
 20
182.2720884614
 11
144.2638765245
 21
182.2720884614
  0
LINE
  8
0
 62
7
  6
CONTINUOUS
 10
130.1638765245
 20
182.2720884614
 11
125.1638765245
 21
182.2720884614
  0
LINE
  8
0
 62
7
  6
CONTINUOUS
 10
111.0638765245
 20
182.2720884614
 11
106.5138765245
 21
182.2720884614
  0
LINE
  8
0
 62
7
  6
CONTINUOUS
 10
219.9755926097
 20
178.2720884614
 11
219.9577181203
 21
178.2728564248
  0
POLYLINE
  8
0
 62
7
  6
CONTINUOUS
 66
1
 70
0
  0
VERTEX
  8
0
 62
7
  6
CONTINUOUS
 10
202.8521604392
 20
175.9220884614
  0
VERTEX
  8
0
 62
7
  6
CONTINUOUS
 10
202.8807055502
 20
175.9201111277
  0
VERTEX
  8
0
 62
7
  6
CONTINUOUS
 10
202.9327324487
 20
175.905172927
  0
VERTEX
  8
0
 62
7
  6
CONTINUOUS
 10
202.9762141391
 20
175.8774699418
  0
VERTEX
  8
0
 62
7
  6
CONTINUOUS
 10
202.9942531149
 20
175.8594317328
  0
VERTEX
  8
0
 62
7
  6
CONTINUOUS
 10
203.0219592406
 20
175.8159482638
  0
VERTEX
  8
0
 62
7
  6
CONTINUOUS
 10
203.0368990933
 20
175.7639181814
  0
VERTEX
  8
0
 62
7
  6
CONTINUOUS
 10
203.0388765245
 20
175.7353723761
  0
SEQEND
  0
POLYLINE
  8
0
 62
7
  6
CONTINUOUS
 66
1
 70
0
  0
VERTEX
  8
0
 62
7
  6
CONTINUOUS
 10
239.1755926097
 20
173.4720884614
  0
VERTEX
  8
0
 62
7
  6
CONTINUOUS
 10
239.1470474987
 20
173.4740657951
  0
VERTEX
  8
0
 62
7
  6
CONTINUOUS
 10
239.0950206002
 20
173.4890039958
  0
VERTEX
  8
0
 62
7
  6
CONTINUOUS
 10
239.0515389098
 20
173.516706981
  0
VERTEX
  8
0
 62
7
  6
CONTINUOUS
 10
239.033499934
 20
173.53474519
  0
VERTEX
  8
0
 62
7
  6
CONTINUOUS
 10
239.0057938083
 20
173.578228659
  0
VERTEX
  8
0
 62
7
  6
CONTINUOUS
 10
238.9908539556
 20
173.6302587414
  0
VERTEX
  8
0
 62
7
  6
CONTINUOUS
 10
238.9888765245
 20
173.6588045467
  0
SEQEND
  0
POLYLINE
  8
0
 62
7
  6
CONTINUOUS
 66
1
 70
0
  0
VERTEX
  8
0
 62
7
  6
CONTINUOUS
 10
135.6521604392
 20
180.7220884614
  0
VERTEX
  8
0
 62
7
  6
CONTINUOUS
 10
135.6807055502
 20
180.7201111277
  0
VERTEX
  8
0
 62
7
  6
CONTINUOUS
 10
135.7327324487
 20
180.705172927
  0
VERTEX
  8
0
 62
7
  6
CONTINUOUS
 10
135.7762141391
 20
180.6774699418
  0
VERTEX
  8
0
 62
7
  6
CONTINUOUS
 10
135.7942531149
 20
180.6594317328
  0
VERTEX
  8
0
 62
7
  6
CONTINUOUS
 10
135.8219592406
 20
180.6159482638
  0
VERTEX
  8
0
 62
7
  6
CONTINUOUS
 10
135.8368990933
 20
180.5639181814
  0
VERTEX
  8
0
 62
7
  6
CONTINUOUS
 10
135.8388765245
 20
180.5353723761
  0
SEQEND
  0
POLYLINE
  8
0
 62
7
  6
CONTINUOUS
 66
1
 70
0
  0
VERTEX
  8
0
 62
7
  6
CONTINUOUS
 10
171.9755926097
 20
178.2720884614
  0
VERTEX
  8
0
 62
7
  6
CONTINUOUS
 10
171.9470474987
 20
178.2740657951
  0
VERTEX
  8
0
 62
7
  6
CONTINUOUS
 10
171.8950206002
 20
178.2890039958
  0
VERTEX
  8
0
 62
7
  6
CONTINUOUS
 10
171.8515389098
 20
178.316706981
  0
VERTEX
  8
0
 62
7
  6
CONTINUOUS
 10
171.833499934
 20
178.33474519
  0
VERTEX
  8
0
 62
7
  6
CONTINUOUS
 10
171.8057938083
 20
178.378228659
  0
VERTEX
  8
0
 62
7
  6
CONTINUOUS
 10
171.7908539556
 20
178.4302587414
  0
VERTEX
  8
0
 62
7
  6
CONTINUOUS
 10
171.7888765245
 20
178.4588045467
  0
SEQEND
  0
POLYLINE
  8
0
 62
7
  6
CONTINUOUS
 66
1
 70
0
  0
VERTEX
  8
0
 62
7
  6
CONTINUOUS
 10
243.9755926097
 20
173.4720884614
  0
VERTEX
  8
0
 62
7
  6
CONTINUOUS
 10
243.9470474987
 20
173.4740657951
  0
VERTEX
  8
0
 62
7
  6
CONTINUOUS
 10
243.8950206002
 20
173.4890039958
  0
VERTEX
  8
0
 62
7
  6
CONTINUOUS
 10
243.8515389098
 20
173.516706981
  0
VERTEX
  8
0
 62
7
  6
CONTINUOUS
 10
243.833499934
 20
173.53474519
  0
VERTEX
  8
0
 62
7
  6
CONTINUOUS
 10
243.8057938083
 20
173.578228659
  0
VERTEX
  8
0
 62
7
  6
CONTINUOUS
 10
243.7908539556
 20
173.6302587414
  0
VERTEX
  8
0
 62
7
  6
CONTINUOUS
 10
243.7888765245
 20
173.6588045467
  0
SEQEND
  0
POLYLINE
  8
0
 62
7
  6
CONTINUOUS
 66
1
 70
0
  0
VERTEX
  8
0
 62
7
  6
CONTINUOUS
 10
140.4521604392
 20
180.7220884614
  0
VERTEX
  8
0
 62
7
  6
CONTINUOUS
 10
140.4807055502
 20
180.7201111277
  0
VERTEX
  8
0
 62
7
  6
CONTINUOUS
 10
140.5327324487
 20
180.705172927
  0
VERTEX
  8
0
 62
7
  6
CONTINUOUS
 10
140.5762141391
 20
180.6774699418
  0
VERTEX
  8
0
 62
7
  6
CONTINUOUS
 10
140.5942531149
 20
180.6594317328
  0
VERTEX
  8
0
 62
7
  6
CONTINUOUS
 10
140.6219592406
 20
180.6159482638
  0
VERTEX
  8
0
 62
7
  6
CONTINUOUS
 10
140.6368990933
 20
180.5639181814
  0
VERTEX
  8
0
 62
7
  6
CONTINUOUS
 10
140.6388765245
 20
180.5353723761
  0
SEQEND
  0
POLYLINE
  8
0
 62
7
  6
CONTINUOUS
 66
1
 70
0
  0
VERTEX
  8
0
 62
7
  6
CONTINUOUS
 10
176.7755926097
 20
178.2720884614
  0
VERTEX
  8
0
 62
7
  6
CONTINUOUS
 10
176.7470474987
 20
178.2740657951
  0
VERTEX
  8
0
 62
7
  6
CONTINUOUS
 10
176.6950206002
 20
178.2890039958
  0
VERTEX
  8
0
 62
7
  6
CONTINUOUS
 10
176.6515389098
 20
178.316706981
  0
VERTEX
  8
0
 62
7
  6
CONTINUOUS
 10
176.633499934
 20
178.33474519
  0
VERTEX
  8
0
 62
7
  6
CONTINUOUS
 10
176.6057938083
 20
178.378228659
  0
VERTEX
  8
0
 62
7
  6
CONTINUOUS
 10
176.5908539556
 20
178.4302587414
  0
VERTEX
  8
0
 62
7
  6
CONTINUOUS
 10
176.5888765245
 20
178.4588045467
  0
SEQEND
  0
POLYLINE
  8
0
 62
7
  6
CONTINUOUS
 66
1
 70
0
  0
VERTEX
  8
0
 62
7
  6
CONTINUOUS
 10
212.4521604392
 20
175.9220884614
  0
VERTEX
  8
0
 62
7
  6
CONTINUOUS
 10
212.4807055502
 20
175.9201111277
  0
VERTEX
  8
0
 62
7
  6
CONTINUOUS
 10
212.5327324487
 20
175.905172927
  0
VERTEX
  8
0
 62
7
  6
CONTINUOUS
 10
212.5762141391
 20
175.8774699418
  0
VERTEX
  8
0
 62
7
  6
CONTINUOUS
 10
212.5942531149
 20
175.8594317328
  0
VERTEX
  8
0
 62
7
  6
CONTINUOUS
 10
212.6219592406
 20
175.8159482638
  0
VERTEX
  8
0
 62
7
  6
CONTINUOUS
 10
212.6368990933
 20
175.7639181814
  0
VERTEX
  8
0
 62
7
  6
CONTINUOUS
 10
212.6388765245
 20
175.7353723761
  0
SEQEND
  0
POLYLINE
  8
0
 62
7
  6
CONTINUOUS
 66
1
 70
0
  0
VERTEX
  8
0
 62
7
  6
CONTINUOUS
 10
145.2521604392
 20
180.7220884614
  0
VERTEX
  8
0
 62
7
  6
CONTINUOUS
 10
145.2807055502
 20
180.7201111277
  0
VERTEX
  8
0
 62
7
  6
CONTINUOUS
 10
145.3327324487
 20
180.705172927
  0
VERTEX
  8
0
 62
7
  6
CONTINUOUS
 10
145.3762141391
 20
180.6774699418
  0
VERTEX
  8
0
 62
7
  6
CONTINUOUS
 10
145.3942531149
 20
180.6594317328
  0
VERTEX
  8
0
 62
7
  6
CONTINUOUS
 10
145.4219592406
 20
180.6159482638
  0
VERTEX
  8
0
 62
7
  6
CONTINUOUS
 10
145.4368990933
 20
180.5639181814
  0
VERTEX
  8
0
 62
7
  6
CONTINUOUS
 10
145.4388765245
 20
180.5353723761
  0
SEQEND
  0
POLYLINE
  8
0
 62
7
  6
CONTINUOUS
 66
1
 70
0
  0
VERTEX
  8
0
 62
7
  6
CONTINUOUS
 10
186.3755926097
 20
178.2720884614
  0
VERTEX
  8
0
 62
7
  6
CONTINUOUS
 10
186.3470474987
 20
178.2740657951
  0
VERTEX
  8
0
 62
7
  6
CONTINUOUS
 10
186.2950206002
 20
178.2890039958
  0
VERTEX
  8
0
 62
7
  6
CONTINUOUS
 10
186.2515389098
 20
178.316706981
  0
VERTEX
  8
0
 62
7
  6
CONTINUOUS
 10
186.233499934
 20
178.33474519
  0
VERTEX
  8
0
 62
7
  6
CONTINUOUS
 10
186.2057938083
 20
178.378228659
  0
VERTEX
  8
0
 62
7
  6
CONTINUOUS
 10
186.1908539556
 20
178.4302587414
  0
VERTEX
  8
0
 62
7
  6
CONTINUOUS
 10
186.1888765245
 20
178.4588045467
  0
SEQEND
  0
POLYLINE
  8
0
 62
7
  6
CONTINUOUS
 66
1
 70
0
  0
VERTEX
  8
0
 62
7
  6
CONTINUOUS
 10
222.0521604392
 20
175.9220884614
  0
VERTEX
  8
0
 62
7
  6
CONTINUOUS
 10
222.0807055502
 20
175.9201111277
  0
VERTEX
  8
0
 62
7
  6
CONTINUOUS
 10
222.1327324487
 20
175.905172927
  0
VERTEX
  8
0
 62
7
  6
CONTINUOUS
 10
222.1762141391
 20
175.8774699418
  0
VERTEX
  8
0
 62
7
  6
CONTINUOUS
 10
222.1942531149
 20
175.8594317328
  0
VERTEX
  8
0
 62
7
  6
CONTINUOUS
 10
222.2219592406
 20
175.8159482638
  0
VERTEX
  8
0
 62
7
  6
CONTINUOUS
 10
222.2368990933
 20
175.7639181814
  0
VERTEX
  8
0
 62
7
  6
CONTINUOUS
 10
222.2388765245
 20
175.7353723761
  0
SEQEND
  0
POLYLINE
  8
0
 62
7
  6
CONTINUOUS
 66
1
 70
0
  0
VERTEX
  8
0
 62
7
  6
CONTINUOUS
 10
154.8521604392
 20
180.7220884614
  0
VERTEX
  8
0
 62
7
  6
CONTINUOUS
 10
154.8807055502
 20
180.7201111277
  0
VERTEX
  8
0
 62
7
  6
CONTINUOUS
 10
154.9327324487
 20
180.705172927
  0
VERTEX
  8
0
 62
7
  6
CONTINUOUS
 10
154.9762141391
 20
180.6774699418
  0
VERTEX
  8
0
 62
7
  6
CONTINUOUS
 10
154.9942531149
 20
180.6594317328
  0
VERTEX
  8
0
 62
7
  6
CONTINUOUS
 10
155.0219592406
 20
180.6159482638
  0
VERTEX
  8
0
 62
7
  6
CONTINUOUS
 10
155.0368990933
 20
180.5639181814
  0
VERTEX
  8
0
 62
7
  6
CONTINUOUS
 10
155.0388765245
 20
180.5353723761
  0
SEQEND
  0
POLYLINE
  8
0
 62
7
  6
CONTINUOUS
 66
1
 70
0
  0
VERTEX
  8
0
 62
7
  6
CONTINUOUS
 10
191.1755926097
 20
178.2720884614
  0
VERTEX
  8
0
 62
7
  6
CONTINUOUS
 10
191.1470474987
 20
178.2740657951
  0
VERTEX
  8
0
 62
7
  6
CONTINUOUS
 10
191.0950206002
 20
178.2890039958
  0
VERTEX
  8
0
 62
7
  6
CONTINUOUS
 10
191.0515389098
 20
178.316706981
  0
VERTEX
  8
0
 62
7
  6
CONTINUOUS
 10
191.033499934
 20
178.33474519
  0
VERTEX
  8
0
 62
7
  6
CONTINUOUS
 10
191.0057938083
 20
178.378228659
  0
VERTEX
  8
0
 62
7
  6
CONTINUOUS
 10
190.9908539556
 20
178.4302587414
  0
VERTEX
  8
0
 62
7
  6
CONTINUOUS
 10
190.9888765245
 20
178.4588045467
  0
SEQEND
  0
POLYLINE
  8
0
 62
7
  6
CONTINUOUS
 66
1
 70
0
  0
VERTEX
  8
0
 62
7
  6
CONTINUOUS
 10
159.6521604392
 20
180.7220884614
  0
VERTEX
  8
0
 62
7
  6
CONTINUOUS
 10
159.6807055502
 20
180.7201111277
  0
VERTEX
  8
0
 62
7
  6
CONTINUOUS
 10
159.7327324487
 20
180.705172927
  0
VERTEX
  8
0
 62
7
  6
CONTINUOUS
 10
159.7762141391
 20
180.6774699418
  0
VERTEX
  8
0
 62
7
  6
CONTINUOUS
 10
159.7942531149
 20
180.6594317328
  0
VERTEX
  8
0
 62
7
  6
CONTINUOUS
 10
159.8219592406
 20
180.6159482638
  0
VERTEX
  8
0
 62
7
  6
CONTINUOUS
 10
159.8368990933
 20
180.5639181814
  0
VERTEX
  8
0
 62
7
  6
CONTINUOUS
 10
159.8388765245
 20
180.5353723761
  0
SEQEND
  0
POLYLINE
  8
0
 62
7
  6
CONTINUOUS
 66
1
 70
0
  0
VERTEX
  8
0
 62
7
  6
CONTINUOUS
 10
195.9755926097
 20
178.2720884614
  0
VERTEX
  8
0
 62
7
  6
CONTINUOUS
 10
195.9470474987
 20
178.2740657951
  0
VERTEX
  8
0
 62
7
  6
CONTINUOUS
 10
195.8950206002
 20
178.2890039958
  0
VERTEX
  8
0
 62
7
  6
CONTINUOUS
 10
195.8515389098
 20
178.316706981
  0
VERTEX
  8
0
 62
7
  6
CONTINUOUS
 10
195.833499934
 20
178.33474519
  0
VERTEX
  8
0
 62
7
  6
CONTINUOUS
 10
195.8057938083
 20
178.378228659
  0
VERTEX
  8
0
 62
7
  6
CONTINUOUS
 10
195.7908539556
 20
178.4302587414
  0
VERTEX
  8
0
 62
7
  6
CONTINUOUS
 10
195.7888765245
 20
178.4588045467
  0
SEQEND
  0
POLYLINE
  8
0
 62
7
  6
CONTINUOUS
 66
1
 70
0
  0
VERTEX
  8
0
 62
7
  6
CONTINUOUS
 10
231.6521604392
 20
175.9220884614
  0
VERTEX
  8
0
 62
7
  6
CONTINUOUS
 10
231.6807055502
 20
175.9201111277
  0
VERTEX
  8
0
 62
7
  6
CONTINUOUS
 10
231.7327324487
 20
175.905172927
  0
VERTEX
  8
0
 62
7
  6
CONTINUOUS
 10
231.7762141391
 20
175.8774699418
  0
VERTEX
  8
0
 62
7
  6
CONTINUOUS
 10
231.7942531149
 20
175.8594317328
  0
VERTEX
  8
0
 62
7
  6
CONTINUOUS
 10
231.8219592406
 20
175.8159482638
  0
VERTEX
  8
0
 62
7
  6
CONTINUOUS
 10
231.8368990933
 20
175.7639181814
  0
VERTEX
  8
0
 62
7
  6
CONTINUOUS
 10
231.8388765245
 20
175.7353723761
  0
SEQEND
  0
POLYLINE
  8
0
 62
7
  6
CONTINUOUS
 66
1
 70
0
  0
VERTEX
  8
0
 62
7
  6
CONTINUOUS
 10
164.4521604392
 20
180.7220884614
  0
VERTEX
  8
0
 62
7
  6
CONTINUOUS
 10
164.4807055502
 20
180.7201111277
  0
VERTEX
  8
0
 62
7
  6
CONTINUOUS
 10
164.5327324487
 20
180.705172927
  0
VERTEX
  8
0
 62
7
  6
CONTINUOUS
 10
164.5762141391
 20
180.6774699418
  0
VERTEX
  8
0
 62
7
  6
CONTINUOUS
 10
164.5942531149
 20
180.6594317328
  0
VERTEX
  8
0
 62
7
  6
CONTINUOUS
 10
164.6219592406
 20
180.6159482638
  0
VERTEX
  8
0
 62
7
  6
CONTINUOUS
 10
164.6368990933
 20
180.5639181814
  0
VERTEX
  8
0
 62
7
  6
CONTINUOUS
 10
164.6388765245
 20
180.5353723761
  0
SEQEND
  0
POLYLINE
  8
0
 62
7
  6
CONTINUOUS
 66
1
 70
0
  0
VERTEX
  8
0
 62
7
  6
CONTINUOUS
 10
205.5755926097
 20
178.2720884614
  0
VERTEX
  8
0
 62
7
  6
CONTINUOUS
 10
205.5470474987
 20
178.2740657951
  0
VERTEX
  8
0
 62
7
  6
CONTINUOUS
 10
205.4950206002
 20
178.2890039958
  0
VERTEX
  8
0
 62
7
  6
CONTINUOUS
 10
205.4515389098
 20
178.316706981
  0
VERTEX
  8
0
 62
7
  6
CONTINUOUS
 10
205.433499934
 20
178.33474519
  0
VERTEX
  8
0
 62
7
  6
CONTINUOUS
 10
205.4057938083
 20
178.378228659
  0
VERTEX
  8
0
 62
7
  6
CONTINUOUS
 10
205.3908539556
 20
178.4302587414
  0
VERTEX
  8
0
 62
7
  6
CONTINUOUS
 10
205.3888765245
 20
178.4588045467
  0
SEQEND
  0
POLYLINE
  8
0
 62
7
  6
CONTINUOUS
 66
1
 70
0
  0
VERTEX
  8
0
 62
7
  6
CONTINUOUS
 10
241.2521604392
 20
175.9220884614
  0
VERTEX
  8
0
 62
7
  6
CONTINUOUS
 10
241.2807055502
 20
175.9201111277
  0
VERTEX
  8
0
 62
7
  6
CONTINUOUS
 10
241.3327324487
 20
175.905172927
  0
VERTEX
  8
0
 62
7
  6
CONTINUOUS
 10
241.3762141391
 20
175.8774699418
  0
VERTEX
  8
0
 62
7
  6
CONTINUOUS
 10
241.3942531149
 20
175.8594317328
  0
VERTEX
  8
0
 62
7
  6
CONTINUOUS
 10
241.4219592406
 20
175.8159482638
  0
VERTEX
  8
0
 62
7
  6
CONTINUOUS
 10
241.4368990933
 20
175.7639181814
  0
VERTEX
  8
0
 62
7
  6
CONTINUOUS
 10
241.4388765245
 20
175.7353723761
  0
SEQEND
  0
POLYLINE
  8
0
 62
7
  6
CONTINUOUS
 66
1
 70
0
  0
VERTEX
  8
0
 62
7
  6
CONTINUOUS
 10
174.0521604392
 20
180.7220884614
  0
VERTEX
  8
0
 62
7
  6
CONTINUOUS
 10
174.0807055502
 20
180.7201111277
  0
VERTEX
  8
0
 62
7
  6
CONTINUOUS
 10
174.1327324487
 20
180.705172927
  0
VERTEX
  8
0
 62
7
  6
CONTINUOUS
 10
174.1762141391
 20
180.6774699418
  0
VERTEX
  8
0
 62
7
  6
CONTINUOUS
 10
174.1942531149
 20
180.6594317328
  0
VERTEX
  8
0
 62
7
  6
CONTINUOUS
 10
174.2219592406
 20
180.6159482638
  0
VERTEX
  8
0
 62
7
  6
CONTINUOUS
 10
174.2368990933
 20
180.5639181814
  0
VERTEX
  8
0
 62
7
  6
CONTINUOUS
 10
174.2388765245
 20
180.5353723761
  0
SEQEND
  0
POLYLINE
  8
0
 62
7
  6
CONTINUOUS
 66
1
 70
0
  0
VERTEX
  8
0
 62
7
  6
CONTINUOUS
 10
210.3755926097
 20
178.2720884614
  0
VERTEX
  8
0
 62
7
  6
CONTINUOUS
 10
210.3470474987
 20
178.2740657951
  0
VERTEX
  8
0
 62
7
  6
CONTINUOUS
 10
210.2950206002
 20
178.2890039958
  0
VERTEX
  8
0
 62
7
  6
CONTINUOUS
 10
210.2515389098
 20
178.316706981
  0
VERTEX
  8
0
 62
7
  6
CONTINUOUS
 10
210.233499934
 20
178.33474519
  0
VERTEX
  8
0
 62
7
  6
CONTINUOUS
 10
210.2057938083
 20
178.378228659
  0
VERTEX
  8
0
 62
7
  6
CONTINUOUS
 10
210.1908539556
 20
178.4302587414
  0
VERTEX
  8
0
 62
7
  6
CONTINUOUS
 10
210.1888765245
 20
178.4588045467
  0
SEQEND
  0
POLYLINE
  8
0
 62
7
  6
CONTINUOUS
 66
1
 70
0
  0
VERTEX
  8
0
 62
7
  6
CONTINUOUS
 10
178.8521604392
 20
180.7220884614
  0
VERTEX
  8
0
 62
7
  6
CONTINUOUS
 10
178.8807055502
 20
180.7201111277
  0
VERTEX
  8
0
 62
7
  6
CONTINUOUS
 10
178.9327324487
 20
180.705172927
  0
VERTEX
  8
0
 62
7
  6
CONTINUOUS
 10
178.9762141391
 20
180.6774699418
  0
VERTEX
  8
0
 62
7
  6
CONTINUOUS
 10
178.9942531149
 20
180.6594317328
  0
VERTEX
  8
0
 62
7
  6
CONTINUOUS
 10
179.0219592406
 20
180.6159482638
  0
VERTEX
  8
0
 62
7
  6
CONTINUOUS
 10
179.0368990933
 20
180.5639181814
  0
VERTEX
  8
0
 62
7
  6
CONTINUOUS
 10
179.0388765245
 20
180.5353723761
  0
SEQEND
  0
POLYLINE
  8
0
 62
7
  6
CONTINUOUS
 66
1
 70
0
  0
VERTEX
  8
0
 62
7
  6
CONTINUOUS
 10
215.1755926097
 20
178.2720884614
  0
VERTEX
  8
0
 62
7
  6
CONTINUOUS
 10
215.1470474987
 20
178.2740657951
  0
VERTEX
  8
0
 62
7
  6
CONTINUOUS
 10
215.0950206002
 20
178.2890039958
  0
VERTEX
  8
0
 62
7
  6
CONTINUOUS
 10
215.0515389098
 20
178.316706981
  0
VERTEX
  8
0
 62
7
  6
CONTINUOUS
 10
215.033499934
 20
178.33474519
  0
VERTEX
  8
0
 62
7
  6
CONTINUOUS
 10
215.0057938083
 20
178.378228659
  0
VERTEX
  8
0
 62
7
  6
CONTINUOUS
 10
214.9908539556
 20
178.4302587414
  0
VERTEX
  8
0
 62
7
  6
CONTINUOUS
 10
214.9888765245
 20
178.4588045467
  0
SEQEND
  0
POLYLINE
  8
0
 62
7
  6
CONTINUOUS
 66
1
 70
0
  0
VERTEX
  8
0
 62
7
  6
CONTINUOUS
 10
183.6521604392
 20
180.7220884614
  0
VERTEX
  8
0
 62
7
  6
CONTINUOUS
 10
183.6807055502
 20
180.7201111277
  0
VERTEX
  8
0
 62
7
  6
CONTINUOUS
 10
183.7327324487
 20
180.705172927
  0
VERTEX
  8
0
 62
7
  6
CONTINUOUS
 10
183.7762141391
 20
180.6774699418
  0
VERTEX
  8
0
 62
7
  6
CONTINUOUS
 10
183.7942531149
 20
180.6594317328
  0
VERTEX
  8
0
 62
7
  6
CONTINUOUS
 10
183.8219592406
 20
180.6159482638
  0
VERTEX
  8
0
 62
7
  6
CONTINUOUS
 10
183.8368990933
 20
180.5639181814
  0
VERTEX
  8
0
 62
7
  6
CONTINUOUS
 10
183.8388765245
 20
180.5353723761
  0
SEQEND
  0
POLYLINE
  8
0
 62
7
  6
CONTINUOUS
 66
1
 70
0
  0
VERTEX
  8
0
 62
7
  6
CONTINUOUS
 10
224.7755926097
 20
178.2720884614
  0
VERTEX
  8
0
 62
7
  6
CONTINUOUS
 10
224.7470474987
 20
178.2740657951
  0
VERTEX
  8
0
 62
7
  6
CONTINUOUS
 10
224.6950206002
 20
178.2890039958
  0
VERTEX
  8
0
 62
7
  6
CONTINUOUS
 10
224.6515389098
 20
178.316706981
  0
VERTEX
  8
0
 62
7
  6
CONTINUOUS
 10
224.633499934
 20
178.33474519
  0
VERTEX
  8
0
 62
7
  6
CONTINUOUS
 10
224.6057938083
 20
178.378228659
  0
VERTEX
  8
0
 62
7
  6
CONTINUOUS
 10
224.5908539556
 20
178.4302587414
  0
VERTEX
  8
0
 62
7
  6
CONTINUOUS
 10
224.5888765245
 20
178.4588045467
  0
SEQEND
  0
POLYLINE
  8
0
 62
7
  6
CONTINUOUS
 66
1
 70
0
  0
VERTEX
  8
0
 62
7
  6
CONTINUOUS
 10
193.2521604392
 20
180.7220884614
  0
VERTEX
  8
0
 62
7
  6
CONTINUOUS
 10
193.2807055502
 20
180.7201111277
  0
VERTEX
  8
0
 62
7
  6
CONTINUOUS
 10
193.3327324487
 20
180.705172927
  0
VERTEX
  8
0
 62
7
  6
CONTINUOUS
 10
193.3762141391
 20
180.6774699418
  0
VERTEX
  8
0
 62
7
  6
CONTINUOUS
 10
193.3942531149
 20
180.6594317328
  0
VERTEX
  8
0
 62
7
  6
CONTINUOUS
 10
193.4219592406
 20
180.6159482638
  0
VERTEX
  8
0
 62
7
  6
CONTINUOUS
 10
193.4368990933
 20
180.5639181814
  0
VERTEX
  8
0
 62
7
  6
CONTINUOUS
 10
193.4388765245
 20
180.5353723761
  0
SEQEND
  0
POLYLINE
  8
0
 62
7
  6
CONTINUOUS
 66
1
 70
0
  0
VERTEX
  8
0
 62
7
  6
CONTINUOUS
 10
229.5755926097
 20
178.2720884614
  0
VERTEX
  8
0
 62
7
  6
CONTINUOUS
 10
229.5470474987
 20
178.2740657951
  0
VERTEX
  8
0
 62
7
  6
CONTINUOUS
 10
229.4950206002
 20
178.2890039958
  0
VERTEX
  8
0
 62
7
  6
CONTINUOUS
 10
229.4515389098
 20
178.316706981
  0
VERTEX
  8
0
 62
7
  6
CONTINUOUS
 10
229.433499934
 20
178.33474519
  0
VERTEX
  8
0
 62
7
  6
CONTINUOUS
 10
229.4057938083
 20
178.378228659
  0
VERTEX
  8
0
 62
7
  6
CONTINUOUS
 10
229.3908539556
 20
178.4302587414
  0
VERTEX
  8
0
 62
7
  6
CONTINUOUS
 10
229.3888765245
 20
178.4588045467
  0
SEQEND
  0
POLYLINE
  8
0
 62
7
  6
CONTINUOUS
 66
1
 70
0
  0
VERTEX
  8
0
 62
7
  6
CONTINUOUS
 10
198.0521604392
 20
180.7220884614
  0
VERTEX
  8
0
 62
7
  6
CONTINUOUS
 10
198.0807055502
 20
180.7201111277
  0
VERTEX
  8
0
 62
7
  6
CONTINUOUS
 10
198.1327324487
 20
180.705172927
  0
VERTEX
  8
0
 62
7
  6
CONTINUOUS
 10
198.1762141391
 20
180.6774699418
  0
VERTEX
  8
0
 62
7
  6
CONTINUOUS
 10
198.1942531149
 20
180.6594317328
  0
VERTEX
  8
0
 62
7
  6
CONTINUOUS
 10
198.2219592406
 20
180.6159482638
  0
VERTEX
  8
0
 62
7
  6
CONTINUOUS
 10
198.2368990933
 20
180.5639181814
  0
VERTEX
  8
0
 62
7
  6
CONTINUOUS
 10
198.2388765245
 20
180.5353723761
  0
SEQEND
  0
POLYLINE
  8
0
 62
7
  6
CONTINUOUS
 66
1
 70
0
  0
VERTEX
  8
0
 62
7
  6
CONTINUOUS
 10
234.3755926097
 20
178.2720884614
  0
VERTEX
  8
0
 62
7
  6
CONTINUOUS
 10
234.3470474987
 20
178.2740657951
  0
VERTEX
  8
0
 62
7
  6
CONTINUOUS
 10
234.2950206002
 20
178.2890039958
  0
VERTEX
  8
0
 62
7
  6
CONTINUOUS
 10
234.2515389098
 20
178.316706981
  0
VERTEX
  8
0
 62
7
  6
CONTINUOUS
 10
234.233499934
 20
178.33474519
  0
VERTEX
  8
0
 62
7
  6
CONTINUOUS
 10
234.2057938083
 20
178.378228659
  0
VERTEX
  8
0
 62
7
  6
CONTINUOUS
 10
234.1908539556
 20
178.4302587414
  0
VERTEX
  8
0
 62
7
  6
CONTINUOUS
 10
234.1888765245
 20
178.4588045467
  0
SEQEND
  0
POLYLINE
  8
0
 62
7
  6
CONTINUOUS
 66
1
 70
0
  0
VERTEX
  8
0
 62
7
  6
CONTINUOUS
 10
202.8521604392
 20
180.7220884614
  0
VERTEX
  8
0
 62
7
  6
CONTINUOUS
 10
202.8807055502
 20
180.7201111277
  0
VERTEX
  8
0
 62
7
  6
CONTINUOUS
 10
202.9327324487
 20
180.705172927
  0
VERTEX
  8
0
 62
7
  6
CONTINUOUS
 10
202.9762141391
 20
180.6774699418
  0
VERTEX
  8
0
 62
7
  6
CONTINUOUS
 10
202.9942531149
 20
180.6594317328
  0
VERTEX
  8
0
 62
7
  6
CONTINUOUS
 10
203.0219592406
 20
180.6159482638
  0
VERTEX
  8
0
 62
7
  6
CONTINUOUS
 10
203.0368990933
 20
180.5639181814
  0
VERTEX
  8
0
 62
7
  6
CONTINUOUS
 10
203.0388765245
 20
180.5353723761
  0
SEQEND
  0
POLYLINE
  8
0
 62
7
  6
CONTINUOUS
 66
1
 70
0
  0
VERTEX
  8
0
 62
7
  6
CONTINUOUS
 10
207.6521604392
 20
175.9220884614
  0
VERTEX
  8
0
 62
7
  6
CONTINUOUS
 10
207.6991581624
 20
175.9166191418
  0
VERTEX
  8
0
 62
7
  6
CONTINUOUS
 10
207.7208436625
 20
175.9100452941
  0
VERTEX
  8
0
 62
7
  6
CONTINUOUS
 10
207.7597909452
 20
175.8900627939
  0
SEQEND
  0
LINE
  8
2_FEATURE
 62
7
  6
CONTINUOUS
 10
164.6451265245
 20
184.8845884614
 11
164.4263766079
 21
184.9590565376
  0
LINE
  8
2_FEATURE
 62
7
  6
CONTINUOUS
 10
166.6138765245
 20
184.8845884614
 11
166.3951264827
 21
184.9590565376
  0
LINE
  8
2_FEATURE
 62
7
  6
CONTINUOUS
 10
164.601376441
 20
185.2569288425
 11
164.470126441
 21
185.3313969188
  0
LINE
  8
2_FEATURE
 62
7
  6
CONTINUOUS
 10
166.5701265662
 20
185.2569288425
 11
166.4388765662
 21
185.3313969188
  0
LINE
  8
0
 62
7
  6
CONTINUOUS
 10
181.3888765245
 20
173.6588045467
 11
181.3888765245
 21
175.7353723761
  0
LINE
  8
0
 62
7
  6
CONTINUOUS
 10
181.9638765245
 20
183.6725122206
 11
181.9638765245
 21
181.8102116108
  0
LINE
  8
1_AXIS
 62
7
  6
CONTINUOUS
 10
183.1338765245
 20
186.7320884614
 11
183.1338765245
 21
188.0970884614
  0
LINE
  8
1_AXIS
 62
7
  6
CONTINUOUS
 10
183.6438765245
 20
186.7320884614
 11
183.6438765245
 21
188.0970884614
  0
LINE
  8
1_AXIS
 62
7
  6
CONTINUOUS
 10
183.7638765245
 20
187.3170884614
 11
183.7638765245
 21
188.0970884614
  0
LINE
  8
0
 62
7
  6
CONTINUOUS
 10
183.8388765245
 20
180.5353723761
 11
183.8388765245
 21
178.4588045467
  0
LINE
  8
0
 62
7
  6
CONTINUOUS
 10
183.8388765245
 20
175.7353723761
 11
183.8388765245
 21
173.6588045467
  0
LINE
  8
1_AXIS
 62
7
  6
CONTINUOUS
 10
184.2738765245
 20
187.2870884614
 11
184.2738765245
 21
188.0970884614
  0
LINE
  8
1_AXIS
 62
7
  6
CONTINUOUS
 10
184.9638765245
 20
186.7170884614
 11
184.9638765245
 21
186.9570884614
  0
LINE
  8
1_AXIS
 62
7
  6
CONTINUOUS
 10
184.9638765245
 20
187.4370884614
 11
184.9638765245
 21
188.0970884614
  0
LINE
  8
1_AXIS
 62
7
  6
CONTINUOUS
 10
185.4738765245
 20
186.7170884614
 11
185.4738765245
 21
188.0970884614
  0
LINE
  8
1_AXIS
 62
7
  6
CONTINUOUS
 10
185.5938765245
 20
186.7170884614
 11
185.5938765245
 21
188.0970884614
  0
LINE
  8
1_AXIS
 62
7
  6
CONTINUOUS
 10
186.1038765245
 20
186.7170884614
 11
186.1038765245
 21
187.3770884614
  0
LINE
  8
1_AXIS
 62
7
  6
CONTINUOUS
 10
186.1038765245
 20
187.8570884614
 11
186.1038765245
 21
188.0970884614
  0
LINE
  8
0
 62
7
  6
CONTINUOUS
 10
186.1888765245
 20
173.6588045467
 11
186.1888765245
 21
175.7353723761
  0
LINE
  8
0
 62
7
  6
CONTINUOUS
 10
186.1888765245
 20
178.4588045467
 11
186.1888765245
 21
180.5353723761
  0
POLYLINE
  8
0
 62
7
  6
CONTINUOUS
 66
1
 70
0
  0
VERTEX
  8
0
 62
7
  6
CONTINUOUS
 10
181.3888765245
 20
175.7353723761
  0
VERTEX
  8
0
 62
7
  6
CONTINUOUS
 10
181.3908538581
 20
175.7639174871
  0
VERTEX
  8
0
 62
7
  6
CONTINUOUS
 10
181.4057920588
 20
175.8159443856
  0
VERTEX
  8
0
 62
7
  6
CONTINUOUS
 10
181.4334950441
 20
175.859426076
  0
VERTEX
  8
0
 62
7
  6
CONTINUOUS
 10
181.4515332531
 20
175.8774650519
  0
VERTEX
  8
0
 62
7
  6
CONTINUOUS
 10
181.495016722
 20
175.9051711775
  0
VERTEX
  8
0
 62
7
  6
CONTINUOUS
 10
181.5470468045
 20
175.9201110302
  0
VERTEX
  8
0
 62
7
  6
CONTINUOUS
 10
181.5755926097
 20
175.9220884614
  0
SEQEND
  0
POLYLINE
  8
0
 62
7
  6
CONTINUOUS
 66
1
 70
0
  0
VERTEX
  8
0
 62
7
  6
CONTINUOUS
 10
183.8388765245
 20
178.4588045467
  0
VERTEX
  8
0
 62
7
  6
CONTINUOUS
 10
183.8368991908
 20
178.4302594357
  0
VERTEX
  8
0
 62
7
  6
CONTINUOUS
 10
183.8219609901
 20
178.3782325372
  0
VERTEX
  8
0
 62
7
  6
CONTINUOUS
 10
183.7942580048
 20
178.3347508468
  0
VERTEX
  8
0
 62
7
  6
CONTINUOUS
 10
183.7762197958
 20
178.3167118709
  0
VERTEX
  8
0
 62
7
  6
CONTINUOUS
 10
183.7327363269
 20
178.2890057453
  0
VERTEX
  8
0
 62
7
  6
CONTINUOUS
 10
183.6807062444
 20
178.2740658926
  0
VERTEX
  8
0
 62
7
  6
CONTINUOUS
 10
183.6521604392
 20
178.2720884614
  0
SEQEND
  0
POLYLINE
  8
0
 62
7
  6
CONTINUOUS
 66
1
 70
0
  0
VERTEX
  8
0
 62
7
  6
CONTINUOUS
 10
183.8388765245
 20
173.6588045467
  0
VERTEX
  8
0
 62
7
  6
CONTINUOUS
 10
183.8368991908
 20
173.6302594357
  0
VERTEX
  8
0
 62
7
  6
CONTINUOUS
 10
183.8219609901
 20
173.5782325372
  0
VERTEX
  8
0
 62
7
  6
CONTINUOUS
 10
183.7942580048
 20
173.5347508468
  0
VERTEX
  8
0
 62
7
  6
CONTINUOUS
 10
183.7762197958
 20
173.5167118709
  0
VERTEX
  8
0
 62
7
  6
CONTINUOUS
 10
183.7327363269
 20
173.4890057453
  0
VERTEX
  8
0
 62
7
  6
CONTINUOUS
 10
183.6807062444
 20
173.4740658926
  0
VERTEX
  8
0
 62
7
  6
CONTINUOUS
 10
183.6521604392
 20
173.4720884614
  0
SEQEND
  0
POLYLINE
  8
0
 62
7
  6
CONTINUOUS
 66
1
 70
0
  0
VERTEX
  8
0
 62
7
  6
CONTINUOUS
 10
186.1888765245
 20
180.5353723761
  0
VERTEX
  8
0
 62
7
  6
CONTINUOUS
 10
186.1908538581
 20
180.5639174871
  0
VERTEX
  8
0
 62
7
  6
CONTINUOUS
 10
186.2057920588
 20
180.6159443856
  0
VERTEX
  8
0
 62
7
  6
CONTINUOUS
 10
186.2334950441
 20
180.659426076
  0
VERTEX
  8
0
 62
7
  6
CONTINUOUS
 10
186.2515332531
 20
180.6774650519
  0
VERTEX
  8
0
 62
7
  6
CONTINUOUS
 10
186.295016722
 20
180.7051711775
  0
VERTEX
  8
0
 62
7
  6
CONTINUOUS
 10
186.3470468045
 20
180.7201110302
  0
VERTEX
  8
0
 62
7
  6
CONTINUOUS
 10
186.3755926097
 20
180.7220884614
  0
SEQEND
  0
POLYLINE
  8
0
 62
7
  6
CONTINUOUS
 66
1
 70
0
  0
VERTEX
  8
0
 62
7
  6
CONTINUOUS
 10
186.1888765245
 20
175.7353723761
  0
VERTEX
  8
0
 62
7
  6
CONTINUOUS
 10
186.1908538581
 20
175.7639174871
  0
VERTEX
  8
0
 62
7
  6
CONTINUOUS
 10
186.2057920588
 20
175.8159443856
  0
VERTEX
  8
0
 62
7
  6
CONTINUOUS
 10
186.2334950441
 20
175.859426076
  0
VERTEX
  8
0
 62
7
  6
CONTINUOUS
 10
186.2515332531
 20
175.8774650519
  0
VERTEX
  8
0
 62
7
  6
CONTINUOUS
 10
186.295016722
 20
175.9051711775
  0
VERTEX
  8
0
 62
7
  6
CONTINUOUS
 10
186.3470468045
 20
175.9201110302
  0
VERTEX
  8
0
 62
7
  6
CONTINUOUS
 10
186.3755926097
 20
175.9220884614
  0
SEQEND
  0
LINE
  8
0
 62
7
  6
CONTINUOUS
 10
181.7575602741
 20
178.2720884614
 11
182.2611297922
 21
180.7220884614
  0
LINE
  8
0
 62
7
  6
CONTINUOUS
 10
237.6638765245
 20
189.2720884614
 11
239.3283714886
 21
189.8779150834
  0
POLYLINE
  8
0
 62
7
  6
CONTINUOUS
 66
1
 70
0
  0
VERTEX
  8
0
 62
7
  6
CONTINUOUS
 10
99.9138765245
 20
183.0104581278
  0
VERTEX
  8
0
 62
7
  6
CONTINUOUS
 10
99.8610812131
 20
183.00766297
  0
VERTEX
  8
0
 62
7
  6
CONTINUOUS
 10
99.7583466896
 20
182.9856533198
  0
VERTEX
  8
0
 62
7
  6
CONTINUOUS
 10
99.6629556505
 20
182.9429378557
  0
VERTEX
  8
0
 62
7
  6
CONTINUOUS
 10
99.5788102722
 20
182.8815788718
  0
VERTEX
  8
0
 62
7
  6
CONTINUOUS
 10
99.5423390626
 20
182.8450622438
  0
VERTEX
  8
0
 62
7
  6
CONTINUOUS
 10
99.4811804204
 20
182.7610056912
  0
VERTEX
  8
0
 62
7
  6
CONTINUOUS
 10
99.4386118629
 20
182.6657755496
  0
VERTEX
  8
0
 62
7
  6
CONTINUOUS
 10
99.4166649456
 20
182.563189957
  0
VERTEX
  8
0
 62
7
  6
CONTINUOUS
 10
99.4138765245
 20
182.5104581278
  0
SEQEND
  0
LINE
  8
0
 62
7
  6
CONTINUOUS
 10
250.9138765245
 20
183.0104581278
 11
246.9138765245
 21
183.0104581278
  0
LINE
  8
0
 62
7
  6
CONTINUOUS
 10
237.1638765245
 20
183.0104581278
 11
228.2638765245
 21
183.0104581278
  0
LINE
  8
0
 62
7
  6
CONTINUOUS
 10
218.0638765245
 20
183.0104581278
 11
209.1638765245
 21
183.0104581278
  0
LINE
  8
0
 62
7
  6
CONTINUOUS
 10
198.9638765245
 20
183.0104581278
 11
190.0638765245
 21
183.0104581278
  0
LINE
  8
0
 62
7
  6
CONTINUOUS
 10
179.8638765245
 20
183.0104581278
 11
170.9638765245
 21
183.0104581278
  0
LINE
  8
0
 62
7
  6
CONTINUOUS
 10
160.7638765245
 20
183.0104581278
 11
151.8638765245
 21
183.0104581278
  0
LINE
  8
0
 62
7
  6
CONTINUOUS
 10
141.6638765245
 20
183.0104581278
 11
132.7638765245
 21
183.0104581278
  0
LINE
  8
0
 62
7
  6
CONTINUOUS
 10
122.5638765245
 20
183.0104581278
 11
113.6638765245
 21
183.0104581278
  0
LINE
  8
0
 62
7
  6
CONTINUOUS
 10
103.9138765245
 20
183.0104581278
 11
99.9138765245
 21
183.0104581278
  0
LINE
  8
2_FEATURE
 62
7
  6
CONTINUOUS
 10
167.6638765245
 20
184.8845884614
 11
166.6138765245
 21
184.8845884614
  0
LINE
  8
2_FEATURE
 62
7
  6
CONTINUOUS
 10
165.6951265245
 20
184.8845884614
 11
164.6451265245
 21
184.8845884614
  0
LINE
  8
2_FEATURE
 62
7
  6
CONTINUOUS
 10
167.4013765245
 20
185.2569288425
 11
166.5701265662
 21
185.2569288425
  0
LINE
  8
2_FEATURE
 62
7
  6
CONTINUOUS
 10
165.4326265245
 20
185.2569288425
 11
164.601376441
 21
185.2569288425
  0
LINE
  8
2_FEATURE
 62
7
  6
CONTINUOUS
 10
167.4013765245
 20
186.3739501946
 11
166.5701265662
 21
186.3739501946
  0
LINE
  8
2_FEATURE
 62
7
  6
CONTINUOUS
 10
165.4326265245
 20
186.3739501946
 11
164.601376441
 21
186.3739501946
  0
LINE
  8
1_AXIS
 62
2
  6
CENTER
 10
85.5395761246
 20
186.6220884614
 11
263.3401816609
 21
186.6220884614
  0
LINE
  8
1_AXIS
 62
7
  6
CONTINUOUS
 10
187.3038765245
 20
186.7170884614
 11
186.7938765245
 21
186.7170884614
  0
LINE
  8
1_AXIS
 62
7
  6
CONTINUOUS
 10
186.1038765245
 20
186.7170884614
 11
185.5938765245
 21
186.7170884614
  0
LINE
  8
1_AXIS
 62
7
  6
CONTINUOUS
 10
185.4738765245
 20
186.7170884614
 11
184.9638765245
 21
186.7170884614
  0
LINE
  8
1_AXIS
 62
7
  6
CONTINUOUS
 10
184.5138765245
 20
186.7170884614
 11
184.3638765245
 21
186.7170884614
  0
LINE
  8
1_AXIS
 62
7
  6
CONTINUOUS
 10
183.6438765245
 20
186.7320884614
 11
183.1338765245
 21
186.7320884614
  0
LINE
  8
2_FEATURE
 62
7
  6
CONTINUOUS
 10
167.4013765245
 20
186.820758652
 11
166.6138765245
 21
186.820758652
  0
LINE
  8
2_FEATURE
 62
7
  6
CONTINUOUS
 10
165.4326265245
 20
186.820758652
 11
164.6451265245
 21
186.820758652
  0
LINE
  8
1_AXIS
 62
7
  6
CONTINUOUS
 10
184.6638765245
 20
187.1370884614
 11
184.4238765245
 21
187.1370884614
  0
LINE
  8
1_AXIS
 62
7
  6
CONTINUOUS
 10
186.6438765245
 20
187.6770884614
 11
186.4038765245
 21
187.6770884614
  0
LINE
  8
1_AXIS
 62
7
  6
CONTINUOUS
 10
186.7038765245
 20
188.0970884614
 11
186.5538765245
 21
188.0970884614
  0
LINE
  8
1_AXIS
 62
7
  6
CONTINUOUS
 10
186.1038765245
 20
188.0970884614
 11
185.5938765245
 21
188.0970884614
  0
LINE
  8
1_AXIS
 62
7
  6
CONTINUOUS
 10
185.4738765245
 20
188.0970884614
 11
184.9638765245
 21
188.0970884614
  0
LINE
  8
1_AXIS
 62
7
  6
CONTINUOUS
 10
184.2738765245
 20
188.0970884614
 11
183.7638765245
 21
188.0970884614
  0
LINE
  8
1_AXIS
 62
7
  6
CONTINUOUS
 10
183.6438765245
 20
188.0970884614
 11
183.1338765245
 21
188.0970884614
  0
POLYLINE
  8
0
 62
7
  6
CONTINUOUS
 66
1
 70
0
  0
VERTEX
  8
0
 62
7
  6
CONTINUOUS
 10
250.9138765245
 20
183.0104581278
  0
VERTEX
  8
0
 62
7
  6
CONTINUOUS
 10
250.9666718358
 20
183.00766297
  0
VERTEX
  8
0
 62
7
  6
CONTINUOUS
 10
251.0694063593
 20
182.9856533198
  0
VERTEX
  8
0
 62
7
  6
CONTINUOUS
 10
251.1647973984
 20
182.9429378557
  0
VERTEX
  8
0
 62
7
  6
CONTINUOUS
 10
251.2489427767
 20
182.8815788718
  0
VERTEX
  8
0
 62
7
  6
CONTINUOUS
 10
251.2854139863
 20
182.8450622438
  0
VERTEX
  8
0
 62
7
  6
CONTINUOUS
 10
251.3465726285
 20
182.7610056912
  0
VERTEX
  8
0
 62
7
  6
CONTINUOUS
 10
251.389141186
 20
182.6657755496
  0
VERTEX
  8
0
 62
7
  6
CONTINUOUS
 10
251.4110881033
 20
182.563189957
  0
VERTEX
  8
0
 62
7
  6
CONTINUOUS
 10
251.4138765245
 20
182.5104581278
  0
SEQEND
  0
POLYLINE
  8
0
 62
7
  6
CONTINUOUS
 66
1
 70
0
  0
VERTEX
  8
0
 62
7
  6
CONTINUOUS
 10
243.9755926097
 20
178.2720884614
  0
VERTEX
  8
0
 62
7
  6
CONTINUOUS
 10
243.9470474987
 20
178.2740657951
  0
VERTEX
  8
0
 62
7
  6
CONTINUOUS
 10
243.8950206002
 20
178.2890039958
  0
VERTEX
  8
0
 62
7
  6
CONTINUOUS
 10
243.8515389098
 20
178.316706981
  0
VERTEX
  8
0
 62
7
  6
CONTINUOUS
 10
243.833499934
 20
178.33474519
  0
VERTEX
  8
0
 62
7
  6
CONTINUOUS
 10
243.8057938083
 20
178.378228659
  0
VERTEX
  8
0
 62
7
  6
CONTINUOUS
 10
243.7908539556
 20
178.4302587414
  0
VERTEX
  8
0
 62
7
  6
CONTINUOUS
 10
243.7888765245
 20
178.4588045467
  0
SEQEND
  0
POLYLINE
  8
0
 62
7
  6
CONTINUOUS
 66
1
 70
0
  0
VERTEX
  8
0
 62
7
  6
CONTINUOUS
 10
212.4521604392
 20
180.7220884614
  0
VERTEX
  8
0
 62
7
  6
CONTINUOUS
 10
212.4807055502
 20
180.7201111277
  0
VERTEX
  8
0
 62
7
  6
CONTINUOUS
 10
212.5327324487
 20
180.705172927
  0
VERTEX
  8
0
 62
7
  6
CONTINUOUS
 10
212.5762141391
 20
180.6774699418
  0
VERTEX
  8
0
 62
7
  6
CONTINUOUS
 10
212.5942531149
 20
180.6594317328
  0
VERTEX
  8
0
 62
7
  6
CONTINUOUS
 10
212.6219592406
 20
180.6159482638
  0
VERTEX
  8
0
 62
7
  6
CONTINUOUS
 10
212.6368990933
 20
180.5639181814
  0
VERTEX
  8
0
 62
7
  6
CONTINUOUS
 10
212.6388765245
 20
180.5353723761
  0
SEQEND
  0
POLYLINE
  8
0
 62
7
  6
CONTINUOUS
 66
1
 70
0
  0
VERTEX
  8
0
 62
7
  6
CONTINUOUS
 10
217.2521604392
 20
180.7220884614
  0
VERTEX
  8
0
 62
7
  6
CONTINUOUS
 10
217.2807055502
 20
180.7201111277
  0
VERTEX
  8
0
 62
7
  6
CONTINUOUS
 10
217.3327324487
 20
180.705172927
  0
VERTEX
  8
0
 62
7
  6
CONTINUOUS
 10
217.3762141391
 20
180.6774699418
  0
VERTEX
  8
0
 62
7
  6
CONTINUOUS
 10
217.3942531149
 20
180.6594317328
  0
VERTEX
  8
0
 62
7
  6
CONTINUOUS
 10
217.4219592406
 20
180.6159482638
  0
VERTEX
  8
0
 62
7
  6
CONTINUOUS
 10
217.4368990933
 20
180.5639181814
  0
VERTEX
  8
0
 62
7
  6
CONTINUOUS
 10
217.4388765245
 20
180.5353723761
  0
SEQEND
  0
POLYLINE
  8
0
 62
7
  6
CONTINUOUS
 66
1
 70
0
  0
VERTEX
  8
0
 62
7
  6
CONTINUOUS
 10
222.0521604392
 20
180.7220884614
  0
VERTEX
  8
0
 62
7
  6
CONTINUOUS
 10
222.0807055502
 20
180.7201111277
  0
VERTEX
  8
0
 62
7
  6
CONTINUOUS
 10
222.1327324487
 20
180.705172927
  0
VERTEX
  8
0
 62
7
  6
CONTINUOUS
 10
222.1762141391
 20
180.6774699418
  0
VERTEX
  8
0
 62
7
  6
CONTINUOUS
 10
222.1942531149
 20
180.6594317328
  0
VERTEX
  8
0
 62
7
  6
CONTINUOUS
 10
222.2219592406
 20
180.6159482638
  0
VERTEX
  8
0
 62
7
  6
CONTINUOUS
 10
222.2368990933
 20
180.5639181814
  0
VERTEX
  8
0
 62
7
  6
CONTINUOUS
 10
222.2388765245
 20
180.5353723761
  0
SEQEND
  0
POLYLINE
  8
0
 62
7
  6
CONTINUOUS
 66
1
 70
0
  0
VERTEX
  8
0
 62
7
  6
CONTINUOUS
 10
231.6521604392
 20
180.7220884614
  0
VERTEX
  8
0
 62
7
  6
CONTINUOUS
 10
231.6807055502
 20
180.7201111277
  0
VERTEX
  8
0
 62
7
  6
CONTINUOUS
 10
231.7327324487
 20
180.705172927
  0
VERTEX
  8
0
 62
7
  6
CONTINUOUS
 10
231.7762141391
 20
180.6774699418
  0
VERTEX
  8
0
 62
7
  6
CONTINUOUS
 10
231.7942531149
 20
180.6594317328
  0
VERTEX
  8
0
 62
7
  6
CONTINUOUS
 10
231.8219592406
 20
180.6159482638
  0
VERTEX
  8
0
 62
7
  6
CONTINUOUS
 10
231.8368990933
 20
180.5639181814
  0
VERTEX
  8
0
 62
7
  6
CONTINUOUS
 10
231.8388765245
 20
180.5353723761
  0
SEQEND
  0
POLYLINE
  8
0
 62
7
  6
CONTINUOUS
 66
1
 70
0
  0
VERTEX
  8
0
 62
7
  6
CONTINUOUS
 10
236.4521604392
 20
180.7220884614
  0
VERTEX
  8
0
 62
7
  6
CONTINUOUS
 10
236.4807055502
 20
180.7201111277
  0
VERTEX
  8
0
 62
7
  6
CONTINUOUS
 10
236.5327324487
 20
180.705172927
  0
VERTEX
  8
0
 62
7
  6
CONTINUOUS
 10
236.5762141391
 20
180.6774699418
  0
VERTEX
  8
0
 62
7
  6
CONTINUOUS
 10
236.5942531149
 20
180.6594317328
  0
VERTEX
  8
0
 62
7
  6
CONTINUOUS
 10
236.6219592406
 20
180.6159482638
  0
VERTEX
  8
0
 62
7
  6
CONTINUOUS
 10
236.6368990933
 20
180.5639181814
  0
VERTEX
  8
0
 62
7
  6
CONTINUOUS
 10
236.6388765245
 20
180.5353723761
  0
SEQEND
  0
POLYLINE
  8
0
 62
7
  6
CONTINUOUS
 66
1
 70
0
  0
VERTEX
  8
0
 62
7
  6
CONTINUOUS
 10
241.2521604392
 20
180.7220884614
  0
VERTEX
  8
0
 62
7
  6
CONTINUOUS
 10
241.2807055502
 20
180.7201111277
  0
VERTEX
  8
0
 62
7
  6
CONTINUOUS
 10
241.3327324487
 20
180.705172927
  0
VERTEX
  8
0
 62
7
  6
CONTINUOUS
 10
241.3762141391
 20
180.6774699418
  0
VERTEX
  8
0
 62
7
  6
CONTINUOUS
 10
241.3942531149
 20
180.6594317328
  0
VERTEX
  8
0
 62
7
  6
CONTINUOUS
 10
241.4219592406
 20
180.6159482638
  0
VERTEX
  8
0
 62
7
  6
CONTINUOUS
 10
241.4368990933
 20
180.5639181814
  0
VERTEX
  8
0
 62
7
  6
CONTINUOUS
 10
241.4388765245
 20
180.5353723761
  0
SEQEND
  0
POLYLINE
  8
0
 62
7
  6
CONTINUOUS
 66
1
 70
0
  0
VERTEX
  8
0
 62
7
  6
CONTINUOUS
 10
239.1755926097
 20
178.2720884614
  0
VERTEX
  8
0
 62
7
  6
CONTINUOUS
 10
239.1269107933
 20
178.2779690611
  0
VERTEX
  8
0
 62
7
  6
CONTINUOUS
 10
239.1045401174
 20
178.2850264898
  0
VERTEX
  8
0
 62
7
  6
CONTINUOUS
 10
239.0646199954
 20
178.3064358882
  0
SEQEND
  0
LINE
  8
0
 62
7
  6
CONTINUOUS
 10
189.9036382738
 20
172.3219002814
 11
189.9138765245
 21
172.2212353475
  0
LINE
  8
0
 62
7
  6
CONTINUOUS
 10
189.5741147751
 20
181.8722766414
 11
189.5638765245
 21
181.9729415753
  0
LINE
  8
1_AXIS
 62
7
  6
CONTINUOUS
 10
186.7938765245
 20
186.7170884614
 11
186.7938765245
 21
187.5270884614
  0
LINE
  8
1_AXIS
 62
7
  6
CONTINUOUS
 10
187.3038765245
 20
186.7170884614
 11
187.3038765245
 21
187.4970884614
  0
LINE
  8
0
 62
7
  6
CONTINUOUS
 10
187.9638765245
 20
181.8102116108
 11
187.9638765245
 21
183.6725122206
  0
LINE
  8
0
 62
7
  6
CONTINUOUS
 10
188.6388765245
 20
175.7353723761
 11
188.6388765245
 21
173.6588045467
  0
LINE
  8
0
 62
7
  6
CONTINUOUS
 10
189.5638765245
 20
190.3620884614
 11
189.5638765245
 21
181.9729415753
  0
LINE
  8
0
 62
7
  6
CONTINUOUS
 10
189.9138765245
 20
163.8320884614
 11
189.9138765245
 21
172.2212353475
  0
LINE
  8
0
 62
7
  6
CONTINUOUS
 10
190.9888765245
 20
178.4588045467
 11
190.9888765245
 21
180.5353723761
  0
LINE
  8
0
 62
7
  6
CONTINUOUS
 10
191.5138765245
 20
172.3839653119
 11
191.5138765245
 21
170.5216647021
  0
POLYLINE
  8
0
 62
7
  6
CONTINUOUS
 66
1
 70
0
  0
VERTEX
  8
0
 62
7
  6
CONTINUOUS
 10
188.6388765245
 20
173.6588045467
  0
VERTEX
  8
0
 62
7
  6
CONTINUOUS
 10
188.6368991908
 20
173.6302594357
  0
VERTEX
  8
0
 62
7
  6
CONTINUOUS
 10
188.6219609901
 20
173.5782325372
  0
VERTEX
  8
0
 62
7
  6
CONTINUOUS
 10
188.5942580048
 20
173.5347508468
  0
VERTEX
  8
0
 62
7
  6
CONTINUOUS
 10
188.5762197958
 20
173.5167118709
  0
VERTEX
  8
0
 62
7
  6
CONTINUOUS
 10
188.5327363269
 20
173.4890057453
  0
VERTEX
  8
0
 62
7
  6
CONTINUOUS
 10
188.4807062444
 20
173.4740658926
  0
VERTEX
  8
0
 62
7
  6
CONTINUOUS
 10
188.4521604392
 20
173.4720884614
  0
SEQEND
  0
POLYLINE
  8
0
 62
7
  6
CONTINUOUS
 66
1
 70
0
  0
VERTEX
  8
0
 62
7
  6
CONTINUOUS
 10
190.9888765245
 20
180.5353723761
  0
VERTEX
  8
0
 62
7
  6
CONTINUOUS
 10
190.9908538581
 20
180.5639174871
  0
VERTEX
  8
0
 62
7
  6
CONTINUOUS
 10
191.0057920588
 20
180.6159443856
  0
VERTEX
  8
0
 62
7
  6
CONTINUOUS
 10
191.0334950441
 20
180.659426076
  0
VERTEX
  8
0
 62
7
  6
CONTINUOUS
 10
191.0515332531
 20
180.6774650519
  0
VERTEX
  8
0
 62
7
  6
CONTINUOUS
 10
191.095016722
 20
180.7051711775
  0
VERTEX
  8
0
 62
7
  6
CONTINUOUS
 10
191.1470468045
 20
180.7201110302
  0
VERTEX
  8
0
 62
7
  6
CONTINUOUS
 10
191.1755926097
 20
180.7220884614
  0
SEQEND
  0
POLYLINE
  8
0
 62
7
  6
CONTINUOUS
 66
1
 70
0
  0
VERTEX
  8
0
 62
7
  6
CONTINUOUS
 10
229.5098198988
 20
175.9110947845
  0
VERTEX
  8
0
 62
7
  6
CONTINUOUS
 10
229.5306570738
 20
175.9171010752
  0
VERTEX
  8
0
 62
7
  6
CONTINUOUS
 10
229.5526301607
 20
175.9208155296
  0
VERTEX
  8
0
 62
7
  6
CONTINUOUS
 10
229.5755926097
 20
175.9220884614
  0
SEQEND
  0
LINE
  8
2_FEATURE
 62
7
  6
CONTINUOUS
 10
167.6638765245
 20
188.3845884614
 11
167.4013765245
 21
188.3845884614
  0
LINE
  8
2_FEATURE
 62
7
  6
CONTINUOUS
 10
165.6951265245
 20
188.3845884614
 11
165.4326265245
 21
188.3845884614
  0
LINE
  8
0
 62
7
  6
CONTINUOUS
 10
245.9138765245
 20
190.8620884614
 11
238.1638765245
 21
190.8620884614
  0
LINE
  8
0
 62
7
  6
CONTINUOUS
 10
227.2638765245
 20
190.8620884614
 11
219.0638765245
 21
190.8620884614
  0
LINE
  8
0
 62
7
  6
CONTINUOUS
 10
208.1638765245
 20
190.8620884614
 11
199.9638765245
 21
190.8620884614
  0
LINE
  8
0
 62
7
  6
CONTINUOUS
 10
189.0638765245
 20
190.8620884614
 11
180.8638765245
 21
190.8620884614
  0
LINE
  8
0
 62
7
  6
CONTINUOUS
 10
169.9638765245
 20
190.8620884614
 11
161.7638765245
 21
190.8620884614
  0
LINE
  8
0
 62
7
  6
CONTINUOUS
 10
150.8638765245
 20
190.8620884614
 11
142.6638765245
 21
190.8620884614
  0
LINE
  8
0
 62
7
  6
CONTINUOUS
 10
131.7638765245
 20
190.8620884614
 11
123.5638765245
 21
190.8620884614
  0
LINE
  8
0
 62
7
  6
CONTINUOUS
 10
112.6638765245
 20
190.8620884614
 11
104.9138765245
 21
190.8620884614
  0
LINE
  8
0
 62
7
  6
CONTINUOUS
 10
187.6666232567
 20
180.7220884614
 11
188.1701927748
 21
178.2720884614
  0
LINE
  8
0
 62
7
  6
CONTINUOUS
 10
189.9036382738
 20
172.3219002814
 11
187.9732102182
 21
181.7139475878
  0
LINE
  8
0
 62
7
  6
CONTINUOUS
 10
191.5045428307
 20
172.480229335
 11
189.5741147751
 21
181.8722766414
  0
LINE
  8
0
 62
7
  6
CONTINUOUS
 10
191.8111297922
 20
173.4720884614
 11
191.3075602741
 21
175.9220884614
  0
LINE
  8
0
 62
7
  6
CONTINUOUS
 10
193.4388765245
 20
180.5353723761
 11
193.4388765245
 21
178.4588045467
  0
LINE
  8
0
 62
7
  6
CONTINUOUS
 10
193.4388765245
 20
175.7353723761
 11
193.4388765245
 21
173.6588045467
  0
LINE
  8
0
 62
7
  6
CONTINUOUS
 10
195.7888765245
 20
173.6588045467
 11
195.7888765245
 21
175.7353723761
  0
LINE
  8
0
 62
7
  6
CONTINUOUS
 10
195.7888765245
 20
178.4588045467
 11
195.7888765245
 21
180.5353723761
  0
POLYLINE
  8
0
 62
7
  6
CONTINUOUS
 66
1
 70
0
  0
VERTEX
  8
0
 62
7
  6
CONTINUOUS
 10
193.4388765245
 20
178.4588045467
  0
VERTEX
  8
0
 62
7
  6
CONTINUOUS
 10
193.4368991908
 20
178.4302594357
  0
VERTEX
  8
0
 62
7
  6
CONTINUOUS
 10
193.4219609901
 20
178.3782325372
  0
VERTEX
  8
0
 62
7
  6
CONTINUOUS
 10
193.3942580048
 20
178.3347508468
  0
VERTEX
  8
0
 62
7
  6
CONTINUOUS
 10
193.3762197958
 20
178.3167118709
  0
VERTEX
  8
0
 62
7
  6
CONTINUOUS
 10
193.3327363269
 20
178.2890057453
  0
VERTEX
  8
0
 62
7
  6
CONTINUOUS
 10
193.2807062444
 20
178.2740658926
  0
VERTEX
  8
0
 62
7
  6
CONTINUOUS
 10
193.2521604392
 20
178.2720884614
  0
SEQEND
  0
POLYLINE
  8
0
 62
7
  6
CONTINUOUS
 66
1
 70
0
  0
VERTEX
  8
0
 62
7
  6
CONTINUOUS
 10
193.4388765245
 20
173.6588045467
  0
VERTEX
  8
0
 62
7
  6
CONTINUOUS
 10
193.4368991908
 20
173.6302594357
  0
VERTEX
  8
0
 62
7
  6
CONTINUOUS
 10
193.4219609901
 20
173.5782325372
  0
VERTEX
  8
0
 62
7
  6
CONTINUOUS
 10
193.3942580048
 20
173.5347508468
  0
VERTEX
  8
0
 62
7
  6
CONTINUOUS
 10
193.3762197958
 20
173.5167118709
  0
VERTEX
  8
0
 62
7
  6
CONTINUOUS
 10
193.3327363269
 20
173.4890057453
  0
VERTEX
  8
0
 62
7
  6
CONTINUOUS
 10
193.2807062444
 20
173.4740658926
  0
VERTEX
  8
0
 62
7
  6
CONTINUOUS
 10
193.2521604392
 20
173.4720884614
  0
SEQEND
  0
POLYLINE
  8
0
 62
7
  6
CONTINUOUS
 66
1
 70
0
  0
VERTEX
  8
0
 62
7
  6
CONTINUOUS
 10
195.7888765245
 20
180.5353723761
  0
VERTEX
  8
0
 62
7
  6
CONTINUOUS
 10
195.7908538581
 20
180.5639174871
  0
VERTEX
  8
0
 62
7
  6
CONTINUOUS
 10
195.8057920588
 20
180.6159443856
  0
VERTEX
  8
0
 62
7
  6
CONTINUOUS
 10
195.8334950441
 20
180.659426076
  0
VERTEX
  8
0
 62
7
  6
CONTINUOUS
 10
195.8515332531
 20
180.6774650519
  0
VERTEX
  8
0
 62
7
  6
CONTINUOUS
 10
195.895016722
 20
180.7051711775
  0
VERTEX
  8
0
 62
7
  6
CONTINUOUS
 10
195.9470468045
 20
180.7201110302
  0
VERTEX
  8
0
 62
7
  6
CONTINUOUS
 10
195.9755926097
 20
180.7220884614
  0
SEQEND
  0
POLYLINE
  8
0
 62
7
  6
CONTINUOUS
 66
1
 70
0
  0
VERTEX
  8
0
 62
7
  6
CONTINUOUS
 10
195.7888765245
 20
175.7353723761
  0
VERTEX
  8
0
 62
7
  6
CONTINUOUS
 10
195.7908538581
 20
175.7639174871
  0
VERTEX
  8
0
 62
7
  6
CONTINUOUS
 10
195.8057920588
 20
175.8159443856
  0
VERTEX
  8
0
 62
7
  6
CONTINUOUS
 10
195.8334950441
 20
175.859426076
  0
VERTEX
  8
0
 62
7
  6
CONTINUOUS
 10
195.8515332531
 20
175.8774650519
  0
VERTEX
  8
0
 62
7
  6
CONTINUOUS
 10
195.895016722
 20
175.9051711775
  0
VERTEX
  8
0
 62
7
  6
CONTINUOUS
 10
195.9470468045
 20
175.9201110302
  0
VERTEX
  8
0
 62
7
  6
CONTINUOUS
 10
195.9755926097
 20
175.9220884614
  0
SEQEND
  0
POLYLINE
  8
0
 62
7
  6
CONTINUOUS
 66
1
 70
0
  0
VERTEX
  8
0
 62
7
  6
CONTINUOUS
 10
198.2283341548
 20
178.3943317887
  0
VERTEX
  8
0
 62
7
  6
CONTINUOUS
 10
198.2084740156
 20
178.3536114906
  0
VERTEX
  8
0
 62
7
  6
CONTINUOUS
 10
198.1798672953
 20
178.3199544414
  0
VERTEX
  8
0
 62
7
  6
CONTINUOUS
 10
198.1435770521
 20
178.2943343719
  0
VERTEX
  8
0
 62
7
  6
CONTINUOUS
 10
198.1005830909
 20
178.2779047261
  0
VERTEX
  8
0
 62
7
  6
CONTINUOUS
 10
198.0521604392
 20
178.2720884614
  0
SEQEND
  0
LINE
  8
0
 62
7
  6
CONTINUOUS
 10
197.5138765245
 20
170.5216647021
 11
197.5138765245
 21
172.3839653119
  0
LINE
  8
0
 62
7
  6
CONTINUOUS
 10
198.2388765245
 20
180.5353723761
 11
198.2388765245
 21
178.4588045467
  0
LINE
  8
0
 62
7
  6
CONTINUOUS
 10
199.1138765245
 20
172.2212353475
 11
199.1138765245
 21
163.8320884614
  0
LINE
  8
0
 62
7
  6
CONTINUOUS
 10
199.4638765245
 20
181.9729415753
 11
199.4638765245
 21
190.3620884614
  0
LINE
  8
0
 62
7
  6
CONTINUOUS
 10
200.5888765245
 20
173.6588045467
 11
200.5888765245
 21
175.7353723761
  0
LINE
  8
0
 62
7
  6
CONTINUOUS
 10
201.0638765245
 20
183.6725122206
 11
201.0638765245
 21
181.8102116108
  0
LINE
  8
0
 62
7
  6
CONTINUOUS
 10
198.2388765245
 20
178.4588045467
 11
198.2385469473
 21
178.4446658289
  0
POLYLINE
  8
0
 62
7
  6
CONTINUOUS
 66
1
 70
0
  0
VERTEX
  8
0
 62
7
  6
CONTINUOUS
 10
200.5888765245
 20
175.7353723761
  0
VERTEX
  8
0
 62
7
  6
CONTINUOUS
 10
200.5908538581
 20
175.7639174871
  0
VERTEX
  8
0
 62
7
  6
CONTINUOUS
 10
200.6057920588
 20
175.8159443856
  0
VERTEX
  8
0
 62
7
  6
CONTINUOUS
 10
200.6334950441
 20
175.859426076
  0
VERTEX
  8
0
 62
7
  6
CONTINUOUS
 10
200.6515332531
 20
175.8774650519
  0
VERTEX
  8
0
 62
7
  6
CONTINUOUS
 10
200.695016722
 20
175.9051711775
  0
VERTEX
  8
0
 62
7
  6
CONTINUOUS
 10
200.7470468045
 20
175.9201110302
  0
VERTEX
  8
0
 62
7
  6
CONTINUOUS
 10
200.7755926097
 20
175.9220884614
  0
SEQEND
  0
LINE
  8
0
 62
7
  6
CONTINUOUS
 10
199.4638765245
 20
181.9729415753
 11
199.4536382738
 21
181.8722766414
  0
LINE
  8
0
 62
7
  6
CONTINUOUS
 10
199.1138765245
 20
172.2212353475
 11
199.1241147751
 21
172.3219002814
  0
LINE
  8
0
 62
7
  6
CONTINUOUS
 10
198.2386692861
 20
178.4456363562
 11
198.2382407014
 21
178.4425297802
  0
LINE
  8
0
 62
7
  6
CONTINUOUS
 10
198.2382407014
 20
178.4425297802
 11
198.2283341548
 21
178.3943317887
  0
LINE
  8
0
 62
7
  6
CONTINUOUS
 10
197.7201927748
 20
175.9220884614
 11
197.2166232567
 21
173.4720884614
  0
LINE
  8
0
 62
7
  6
CONTINUOUS
 10
197.5232102182
 20
172.480229335
 11
199.4536382738
 21
181.8722766414
  0
LINE
  8
0
 62
7
  6
CONTINUOUS
 10
201.0545428307
 20
181.7139475878
 11
199.1241147751
 21
172.3219002814
  0
LINE
  8
0
 62
7
  6
CONTINUOUS
 10
200.8575602741
 20
178.2720884614
 11
201.3611297922
 21
180.7220884614
  0
LINE
  8
0
 62
7
  6
CONTINUOUS
 10
203.0388765245
 20
180.5353723761
 11
203.0388765245
 21
178.4588045467
  0
LINE
  8
0
 62
7
  6
CONTINUOUS
 10
203.0388765245
 20
175.7353723761
 11
203.0388765245
 21
173.6588045467
  0
LINE
  8
0
 62
7
  6
CONTINUOUS
 10
205.3888765245
 20
173.6588045467
 11
205.3888765245
 21
175.7353723761
  0
LINE
  8
0
 62
7
  6
CONTINUOUS
 10
205.3888765245
 20
178.4588045467
 11
205.3888765245
 21
180.5353723761
  0
LINE
  8
0
 62
7
  6
CONTINUOUS
 10
207.0638765245
 20
181.8102116108
 11
207.0638765245
 21
183.6725122206
  0
POLYLINE
  8
0
 62
7
  6
CONTINUOUS
 66
1
 70
0
  0
VERTEX
  8
0
 62
7
  6
CONTINUOUS
 10
203.0388765245
 20
178.4588045467
  0
VERTEX
  8
0
 62
7
  6
CONTINUOUS
 10
203.0368991908
 20
178.4302594357
  0
VERTEX
  8
0
 62
7
  6
CONTINUOUS
 10
203.0219609901
 20
178.3782325372
  0
VERTEX
  8
0
 62
7
  6
CONTINUOUS
 10
202.9942580048
 20
178.3347508468
  0
VERTEX
  8
0
 62
7
  6
CONTINUOUS
 10
202.9762197958
 20
178.3167118709
  0
VERTEX
  8
0
 62
7
  6
CONTINUOUS
 10
202.9327363269
 20
178.2890057453
  0
VERTEX
  8
0
 62
7
  6
CONTINUOUS
 10
202.8807062444
 20
178.2740658926
  0
VERTEX
  8
0
 62
7
  6
CONTINUOUS
 10
202.8521604392
 20
178.2720884614
  0
SEQEND
  0
POLYLINE
  8
0
 62
7
  6
CONTINUOUS
 66
1
 70
0
  0
VERTEX
  8
0
 62
7
  6
CONTINUOUS
 10
203.0388765245
 20
173.6588045467
  0
VERTEX
  8
0
 62
7
  6
CONTINUOUS
 10
203.0368991908
 20
173.6302594357
  0
VERTEX
  8
0
 62
7
  6
CONTINUOUS
 10
203.0219609901
 20
173.5782325372
  0
VERTEX
  8
0
 62
7
  6
CONTINUOUS
 10
202.9942580048
 20
173.5347508468
  0
VERTEX
  8
0
 62
7
  6
CONTINUOUS
 10
202.9762197958
 20
173.5167118709
  0
VERTEX
  8
0
 62
7
  6
CONTINUOUS
 10
202.9327363269
 20
173.4890057453
  0
VERTEX
  8
0
 62
7
  6
CONTINUOUS
 10
202.8807062444
 20
173.4740658926
  0
VERTEX
  8
0
 62
7
  6
CONTINUOUS
 10
202.8521604392
 20
173.4720884614
  0
SEQEND
  0
POLYLINE
  8
0
 62
7
  6
CONTINUOUS
 66
1
 70
0
  0
VERTEX
  8
0
 62
7
  6
CONTINUOUS
 10
205.3888765245
 20
180.5353723761
  0
VERTEX
  8
0
 62
7
  6
CONTINUOUS
 10
205.3908538581
 20
180.5639174871
  0
VERTEX
  8
0
 62
7
  6
CONTINUOUS
 10
205.4057920588
 20
180.6159443856
  0
VERTEX
  8
0
 62
7
  6
CONTINUOUS
 10
205.4334950441
 20
180.659426076
  0
VERTEX
  8
0
 62
7
  6
CONTINUOUS
 10
205.4515332531
 20
180.6774650519
  0
VERTEX
  8
0
 62
7
  6
CONTINUOUS
 10
205.495016722
 20
180.7051711775
  0
VERTEX
  8
0
 62
7
  6
CONTINUOUS
 10
205.5470468045
 20
180.7201110302
  0
VERTEX
  8
0
 62
7
  6
CONTINUOUS
 10
205.5755926097
 20
180.7220884614
  0
SEQEND
  0
POLYLINE
  8
0
 62
7
  6
CONTINUOUS
 66
1
 70
0
  0
VERTEX
  8
0
 62
7
  6
CONTINUOUS
 10
205.3888765245
 20
175.7353723761
  0
VERTEX
  8
0
 62
7
  6
CONTINUOUS
 10
205.3908538581
 20
175.7639174871
  0
VERTEX
  8
0
 62
7
  6
CONTINUOUS
 10
205.4057920588
 20
175.8159443856
  0
VERTEX
  8
0
 62
7
  6
CONTINUOUS
 10
205.4334950441
 20
175.859426076
  0
VERTEX
  8
0
 62
7
  6
CONTINUOUS
 10
205.4515332531
 20
175.8774650519
  0
VERTEX
  8
0
 62
7
  6
CONTINUOUS
 10
205.495016722
 20
175.9051711775
  0
VERTEX
  8
0
 62
7
  6
CONTINUOUS
 10
205.5470468045
 20
175.9201110302
  0
VERTEX
  8
0
 62
7
  6
CONTINUOUS
 10
205.5755926097
 20
175.9220884614
  0
SEQEND
  0
LINE
  8
2_FEATURE
 62
7
  6
CONTINUOUS
 10
239.3283714886
 20
183.3662618394
 11
239.2638765245
 21
183.3897360866
  0
LINE
  8
0
 62
7
  6
CONTINUOUS
 10
237.6638765245
 20
183.9720884614
 11
239.2638765245
 21
183.3897360866
  0
LINE
  8
0
 62
7
  6
CONTINUOUS
 10
206.7666232567
 20
180.7220884614
 11
207.2701927748
 21
178.2720884614
  0
LINE
  8
0
 62
7
  6
CONTINUOUS
 10
207.7597909452
 20
175.8900627939
 11
207.8388765245
 21
175.5052903598
  0
LINE
  8
0
 62
7
  6
CONTINUOUS
 10
209.0036382738
 20
172.3219002814
 11
209.0138765245
 21
172.2212353475
  0
LINE
  8
0
 62
7
  6
CONTINUOUS
 10
208.6741147751
 20
181.8722766414
 11
208.6638765245
 21
181.9729415753
  0
LINE
  8
0
 62
7
  6
CONTINUOUS
 10
207.8388765245
 20
175.5052903598
 11
207.8388765245
 21
173.6588045467
  0
LINE
  8
0
 62
7
  6
CONTINUOUS
 10
208.6638765245
 20
190.3620884614
 11
208.6638765245
 21
181.9729415753
  0
LINE
  8
0
 62
7
  6
CONTINUOUS
 10
209.0138765245
 20
163.8320884614
 11
209.0138765245
 21
172.2212353475
  0
LINE
  8
0
 62
7
  6
CONTINUOUS
 10
210.1888765245
 20
178.4588045467
 11
210.1888765245
 21
180.5353723761
  0
LINE
  8
0
 62
7
  6
CONTINUOUS
 10
210.6138765245
 20
172.3839653119
 11
210.6138765245
 21
170.5216647021
  0
POLYLINE
  8
0
 62
7
  6
CONTINUOUS
 66
1
 70
0
  0
VERTEX
  8
0
 62
7
  6
CONTINUOUS
 10
207.8388765245
 20
173.6588045467
  0
VERTEX
  8
0
 62
7
  6
CONTINUOUS
 10
207.8368991908
 20
173.6302594357
  0
VERTEX
  8
0
 62
7
  6
CONTINUOUS
 10
207.8219609901
 20
173.5782325372
  0
VERTEX
  8
0
 62
7
  6
CONTINUOUS
 10
207.7942580048
 20
173.5347508468
  0
VERTEX
  8
0
 62
7
  6
CONTINUOUS
 10
207.7762197958
 20
173.5167118709
  0
VERTEX
  8
0
 62
7
  6
CONTINUOUS
 10
207.7327363269
 20
173.4890057453
  0
VERTEX
  8
0
 62
7
  6
CONTINUOUS
 10
207.6807062444
 20
173.4740658926
  0
VERTEX
  8
0
 62
7
  6
CONTINUOUS
 10
207.6521604392
 20
173.4720884614
  0
SEQEND
  0
POLYLINE
  8
0
 62
7
  6
CONTINUOUS
 66
1
 70
0
  0
VERTEX
  8
0
 62
7
  6
CONTINUOUS
 10
210.1888765245
 20
180.5353723761
  0
VERTEX
  8
0
 62
7
  6
CONTINUOUS
 10
210.1908538581
 20
180.5639174871
  0
VERTEX
  8
0
 62
7
  6
CONTINUOUS
 10
210.2057920588
 20
180.6159443856
  0
VERTEX
  8
0
 62
7
  6
CONTINUOUS
 10
210.2334950441
 20
180.659426076
  0
VERTEX
  8
0
 62
7
  6
CONTINUOUS
 10
210.2515332531
 20
180.6774650519
  0
VERTEX
  8
0
 62
7
  6
CONTINUOUS
 10
210.295016722
 20
180.7051711775
  0
VERTEX
  8
0
 62
7
  6
CONTINUOUS
 10
210.3470468045
 20
180.7201110302
  0
VERTEX
  8
0
 62
7
  6
CONTINUOUS
 10
210.3755926097
 20
180.7220884614
  0
SEQEND
  0
LINE
  8
0
 62
7
  6
CONTINUOUS
 10
209.0036382738
 20
172.3219002814
 11
207.0732102182
 21
181.7139475878
  0
LINE
  8
0
 62
7
  6
CONTINUOUS
 10
210.6045428307
 20
172.480229335
 11
208.6741147751
 21
181.8722766414
  0
LINE
  8
0
 62
7
  6
CONTINUOUS
 10
210.9111297922
 20
173.4720884614
 11
210.4075602741
 21
175.9220884614
  0
LINE
  8
0
 62
7
  6
CONTINUOUS
 10
212.6388765245
 20
180.5353723761
 11
212.6388765245
 21
178.4588045467
  0
LINE
  8
0
 62
7
  6
CONTINUOUS
 10
212.6388765245
 20
175.7353723761
 11
212.6388765245
 21
173.6588045467
  0
LINE
  8
0
 62
7
  6
CONTINUOUS
 10
214.9888765245
 20
173.6588045467
 11
214.9888765245
 21
175.7353723761
  0
LINE
  8
0
 62
7
  6
CONTINUOUS
 10
214.9888765245
 20
178.4588045467
 11
214.9888765245
 21
180.5353723761
  0
LINE
  8
0
 62
7
  6
CONTINUOUS
 10
216.6138765245
 20
170.5216647021
 11
216.6138765245
 21
172.3839653119
  0
POLYLINE
  8
0
 62
7
  6
CONTINUOUS
 66
1
 70
0
  0
VERTEX
  8
0
 62
7
  6
CONTINUOUS
 10
212.6388765245
 20
178.4588045467
  0
VERTEX
  8
0
 62
7
  6
CONTINUOUS
 10
212.6368991908
 20
178.4302594357
  0
VERTEX
  8
0
 62
7
  6
CONTINUOUS
 10
212.6219609901
 20
178.3782325372
  0
VERTEX
  8
0
 62
7
  6
CONTINUOUS
 10
212.5942580048
 20
178.3347508468
  0
VERTEX
  8
0
 62
7
  6
CONTINUOUS
 10
212.5762197958
 20
178.3167118709
  0
VERTEX
  8
0
 62
7
  6
CONTINUOUS
 10
212.5327363269
 20
178.2890057453
  0
VERTEX
  8
0
 62
7
  6
CONTINUOUS
 10
212.4807062444
 20
178.2740658926
  0
VERTEX
  8
0
 62
7
  6
CONTINUOUS
 10
212.4521604392
 20
178.2720884614
  0
SEQEND
  0
POLYLINE
  8
0
 62
7
  6
CONTINUOUS
 66
1
 70
0
  0
VERTEX
  8
0
 62
7
  6
CONTINUOUS
 10
212.6388765245
 20
173.6588045467
  0
VERTEX
  8
0
 62
7
  6
CONTINUOUS
 10
212.6368991908
 20
173.6302594357
  0
VERTEX
  8
0
 62
7
  6
CONTINUOUS
 10
212.6219609901
 20
173.5782325372
  0
VERTEX
  8
0
 62
7
  6
CONTINUOUS
 10
212.5942580048
 20
173.5347508468
  0
VERTEX
  8
0
 62
7
  6
CONTINUOUS
 10
212.5762197958
 20
173.5167118709
  0
VERTEX
  8
0
 62
7
  6
CONTINUOUS
 10
212.5327363269
 20
173.4890057453
  0
VERTEX
  8
0
 62
7
  6
CONTINUOUS
 10
212.4807062444
 20
173.4740658926
  0
VERTEX
  8
0
 62
7
  6
CONTINUOUS
 10
212.4521604392
 20
173.4720884614
  0
SEQEND
  0
POLYLINE
  8
0
 62
7
  6
CONTINUOUS
 66
1
 70
0
  0
VERTEX
  8
0
 62
7
  6
CONTINUOUS
 10
214.9888765245
 20
180.5353723761
  0
VERTEX
  8
0
 62
7
  6
CONTINUOUS
 10
214.9908538581
 20
180.5639174871
  0
VERTEX
  8
0
 62
7
  6
CONTINUOUS
 10
215.0057920588
 20
180.6159443856
  0
VERTEX
  8
0
 62
7
  6
CONTINUOUS
 10
215.0334950441
 20
180.659426076
  0
VERTEX
  8
0
 62
7
  6
CONTINUOUS
 10
215.0515332531
 20
180.6774650519
  0
VERTEX
  8
0
 62
7
  6
CONTINUOUS
 10
215.095016722
 20
180.7051711775
  0
VERTEX
  8
0
 62
7
  6
CONTINUOUS
 10
215.1470468045
 20
180.7201110302
  0
VERTEX
  8
0
 62
7
  6
CONTINUOUS
 10
215.1755926097
 20
180.7220884614
  0
SEQEND
  0
POLYLINE
  8
0
 62
7
  6
CONTINUOUS
 66
1
 70
0
  0
VERTEX
  8
0
 62
7
  6
CONTINUOUS
 10
214.9888765245
 20
175.7353723761
  0
VERTEX
  8
0
 62
7
  6
CONTINUOUS
 10
214.9908538581
 20
175.7639174871
  0
VERTEX
  8
0
 62
7
  6
CONTINUOUS
 10
215.0057920588
 20
175.8159443856
  0
VERTEX
  8
0
 62
7
  6
CONTINUOUS
 10
215.0334950441
 20
175.859426076
  0
VERTEX
  8
0
 62
7
  6
CONTINUOUS
 10
215.0515332531
 20
175.8774650519
  0
VERTEX
  8
0
 62
7
  6
CONTINUOUS
 10
215.095016722
 20
175.9051711775
  0
VERTEX
  8
0
 62
7
  6
CONTINUOUS
 10
215.1470468045
 20
175.9201110302
  0
VERTEX
  8
0
 62
7
  6
CONTINUOUS
 10
215.1755926097
 20
175.9220884614
  0
SEQEND
  0
LINE
  8
0
 62
7
  6
CONTINUOUS
 10
217.4388765245
 20
178.9321498972
 11
217.304618755
 21
178.2789500445
  0
LINE
  8
0
 62
7
  6
CONTINUOUS
 10
216.8201927748
 20
175.9220884614
 11
216.3166232567
 21
173.4720884614
  0
LINE
  8
0
 62
7
  6
CONTINUOUS
 10
216.6232102182
 20
172.480229335
 11
218.5536382738
 21
181.8722766414
  0
LINE
  8
0
 62
7
  6
CONTINUOUS
 10
217.4388765245
 20
180.5353723761
 11
217.4388765245
 21
178.9321498972
  0
LINE
  8
0
 62
7
  6
CONTINUOUS
 10
218.2138765245
 20
172.2212353475
 11
218.2138765245
 21
163.8320884614
  0
LINE
  8
0
 62
7
  6
CONTINUOUS
 10
218.5638765245
 20
181.9729415753
 11
218.5638765245
 21
190.3620884614
  0
LINE
  8
0
 62
7
  6
CONTINUOUS
 10
219.7888765245
 20
173.6588045467
 11
219.7888765245
 21
175.7353723761
  0
LINE
  8
0
 62
7
  6
CONTINUOUS
 10
220.1638765245
 20
183.6725122206
 11
220.1638765245
 21
181.8102116108
  0
LINE
  8
0
 62
7
  6
CONTINUOUS
 10
222.2388765245
 20
180.5353723761
 11
222.2388765245
 21
178.4588045467
  0
LINE
  8
0
 62
7
  6
CONTINUOUS
 10
222.2388765245
 20
175.7353723761
 11
222.2388765245
 21
173.6588045467
  0
POLYLINE
  8
0
 62
7
  6
CONTINUOUS
 66
1
 70
0
  0
VERTEX
  8
0
 62
7
  6
CONTINUOUS
 10
219.7888765245
 20
175.7353723761
  0
VERTEX
  8
0
 62
7
  6
CONTINUOUS
 10
219.7908538581
 20
175.7639174871
  0
VERTEX
  8
0
 62
7
  6
CONTINUOUS
 10
219.8057920588
 20
175.8159443856
  0
VERTEX
  8
0
 62
7
  6
CONTINUOUS
 10
219.8334950441
 20
175.859426076
  0
VERTEX
  8
0
 62
7
  6
CONTINUOUS
 10
219.8515332531
 20
175.8774650519
  0
VERTEX
  8
0
 62
7
  6
CONTINUOUS
 10
219.895016722
 20
175.9051711775
  0
VERTEX
  8
0
 62
7
  6
CONTINUOUS
 10
219.9470468045
 20
175.9201110302
  0
VERTEX
  8
0
 62
7
  6
CONTINUOUS
 10
219.9755926097
 20
175.9220884614
  0
SEQEND
  0
POLYLINE
  8
0
 62
7
  6
CONTINUOUS
 66
1
 70
0
  0
VERTEX
  8
0
 62
7
  6
CONTINUOUS
 10
222.2388765245
 20
178.4588045467
  0
VERTEX
  8
0
 62
7
  6
CONTINUOUS
 10
222.2368991908
 20
178.4302594357
  0
VERTEX
  8
0
 62
7
  6
CONTINUOUS
 10
222.2219609901
 20
178.3782325372
  0
VERTEX
  8
0
 62
7
  6
CONTINUOUS
 10
222.1942580048
 20
178.3347508468
  0
VERTEX
  8
0
 62
7
  6
CONTINUOUS
 10
222.1762197958
 20
178.3167118709
  0
VERTEX
  8
0
 62
7
  6
CONTINUOUS
 10
222.1327363269
 20
178.2890057453
  0
VERTEX
  8
0
 62
7
  6
CONTINUOUS
 10
222.0807062444
 20
178.2740658926
  0
VERTEX
  8
0
 62
7
  6
CONTINUOUS
 10
222.0521604392
 20
178.2720884614
  0
SEQEND
  0
POLYLINE
  8
0
 62
7
  6
CONTINUOUS
 66
1
 70
0
  0
VERTEX
  8
0
 62
7
  6
CONTINUOUS
 10
222.2388765245
 20
173.6588045467
  0
VERTEX
  8
0
 62
7
  6
CONTINUOUS
 10
222.2368991908
 20
173.6302594357
  0
VERTEX
  8
0
 62
7
  6
CONTINUOUS
 10
222.2219609901
 20
173.5782325372
  0
VERTEX
  8
0
 62
7
  6
CONTINUOUS
 10
222.1942580048
 20
173.5347508468
  0
VERTEX
  8
0
 62
7
  6
CONTINUOUS
 10
222.1762197958
 20
173.5167118709
  0
VERTEX
  8
0
 62
7
  6
CONTINUOUS
 10
222.1327363269
 20
173.4890057453
  0
VERTEX
  8
0
 62
7
  6
CONTINUOUS
 10
222.0807062444
 20
173.4740658926
  0
VERTEX
  8
0
 62
7
  6
CONTINUOUS
 10
222.0521604392
 20
173.4720884614
  0
SEQEND
  0
LINE
  8
0
 62
7
  6
CONTINUOUS
 10
218.5638765245
 20
181.9729415753
 11
218.5536382738
 21
181.8722766414
  0
LINE
  8
0
 62
7
  6
CONTINUOUS
 10
218.2138765245
 20
172.2212353475
 11
218.2241147751
 21
172.3219002814
  0
LINE
  8
0
 62
7
  6
CONTINUOUS
 10
220.1545428307
 20
181.7139475878
 11
218.2241147751
 21
172.3219002814
  0
LINE
  8
0
 62
7
  6
CONTINUOUS
 10
219.9577181202
 20
178.2728564248
 11
220.4611297922
 21
180.7220884614
  0
LINE
  8
0
 62
7
  6
CONTINUOUS
 10
228.1036382738
 20
172.3219002814
 11
228.1138765245
 21
172.2212353475
  0
LINE
  8
0
 62
7
  6
CONTINUOUS
 10
224.5888765245
 20
173.6588045467
 11
224.5888765245
 21
175.7353723761
  0
LINE
  8
0
 62
7
  6
CONTINUOUS
 10
224.5888765245
 20
178.4588045467
 11
224.5888765245
 21
180.5353723761
  0
LINE
  8
0
 62
7
  6
CONTINUOUS
 10
226.1638765245
 20
181.8102116108
 11
226.1638765245
 21
183.6725122206
  0
LINE
  8
0
 62
7
  6
CONTINUOUS
 10
227.0388765245
 20
175.0187636913
 11
227.0388765245
 21
173.6588045467
  0
POLYLINE
  8
0
 62
7
  6
CONTINUOUS
 66
1
 70
0
  0
VERTEX
  8
0
 62
7
  6
CONTINUOUS
 10
224.5888765245
 20
180.5353723761
  0
VERTEX
  8
0
 62
7
  6
CONTINUOUS
 10
224.5908538581
 20
180.5639174871
  0
VERTEX
  8
0
 62
7
  6
CONTINUOUS
 10
224.6057920588
 20
180.6159443856
  0
VERTEX
  8
0
 62
7
  6
CONTINUOUS
 10
224.6334950441
 20
180.659426076
  0
VERTEX
  8
0
 62
7
  6
CONTINUOUS
 10
224.6515332531
 20
180.6774650519
  0
VERTEX
  8
0
 62
7
  6
CONTINUOUS
 10
224.695016722
 20
180.7051711775
  0
VERTEX
  8
0
 62
7
  6
CONTINUOUS
 10
224.7470468045
 20
180.7201110302
  0
VERTEX
  8
0
 62
7
  6
CONTINUOUS
 10
224.7755926097
 20
180.7220884614
  0
SEQEND
  0
POLYLINE
  8
0
 62
7
  6
CONTINUOUS
 66
1
 70
0
  0
VERTEX
  8
0
 62
7
  6
CONTINUOUS
 10
224.5888765245
 20
175.7353723761
  0
VERTEX
  8
0
 62
7
  6
CONTINUOUS
 10
224.5908538581
 20
175.7639174871
  0
VERTEX
  8
0
 62
7
  6
CONTINUOUS
 10
224.6057920588
 20
175.8159443856
  0
VERTEX
  8
0
 62
7
  6
CONTINUOUS
 10
224.6334950441
 20
175.859426076
  0
VERTEX
  8
0
 62
7
  6
CONTINUOUS
 10
224.6515332531
 20
175.8774650519
  0
VERTEX
  8
0
 62
7
  6
CONTINUOUS
 10
224.695016722
 20
175.9051711775
  0
VERTEX
  8
0
 62
7
  6
CONTINUOUS
 10
224.7470468045
 20
175.9201110302
  0
VERTEX
  8
0
 62
7
  6
CONTINUOUS
 10
224.7755926097
 20
175.9220884614
  0
SEQEND
  0
POLYLINE
  8
0
 62
7
  6
CONTINUOUS
 66
1
 70
0
  0
VERTEX
  8
0
 62
7
  6
CONTINUOUS
 10
227.0388765245
 20
173.6588045467
  0
VERTEX
  8
0
 62
7
  6
CONTINUOUS
 10
227.0368991908
 20
173.6302594357
  0
VERTEX
  8
0
 62
7
  6
CONTINUOUS
 10
227.0219609901
 20
173.5782325372
  0
VERTEX
  8
0
 62
7
  6
CONTINUOUS
 10
226.9942580048
 20
173.5347508468
  0
VERTEX
  8
0
 62
7
  6
CONTINUOUS
 10
226.9762197958
 20
173.5167118709
  0
VERTEX
  8
0
 62
7
  6
CONTINUOUS
 10
226.9327363269
 20
173.4890057453
  0
VERTEX
  8
0
 62
7
  6
CONTINUOUS
 10
226.8807062444
 20
173.4740658926
  0
VERTEX
  8
0
 62
7
  6
CONTINUOUS
 10
226.8521604392
 20
173.4720884614
  0
SEQEND
  0
LINE
  8
0
 62
7
  6
CONTINUOUS
 10
225.8666232567
 20
180.7220884614
 11
226.3701927748
 21
178.2720884614
  0
LINE
  8
0
 62
7
  6
CONTINUOUS
 10
226.8532089716
 20
175.9220858507
 11
227.0388765245
 21
175.0187636913
  0
LINE
  8
0
 62
7
  6
CONTINUOUS
 10
228.1036382738
 20
172.3219002814
 11
226.1732102182
 21
181.7139475878
  0
LINE
  8
0
 62
7
  6
CONTINUOUS
 10
229.7045428307
 20
172.480229335
 11
227.7741147751
 21
181.8722766414
  0
LINE
  8
0
 62
7
  6
CONTINUOUS
 10
227.7741147751
 20
181.8722766414
 11
227.7638765245
 21
181.9729415753
  0
LINE
  8
0
 62
7
  6
CONTINUOUS
 10
227.7638765245
 20
190.3620884614
 11
227.7638765245
 21
181.9729415753
  0
LINE
  8
0
 62
7
  6
CONTINUOUS
 10
228.1138765245
 20
163.8320884614
 11
228.1138765245
 21
172.2212353475
  0
LINE
  8
0
 62
7
  6
CONTINUOUS
 10
229.3888765245
 20
178.4588045467
 11
229.3888765245
 21
180.5353723761
  0
LINE
  8
0
 62
7
  6
CONTINUOUS
 10
229.7138765245
 20
172.3839653119
 11
229.7138765245
 21
170.5216647021
  0
LINE
  8
0
 62
7
  6
CONTINUOUS
 10
231.8388765245
 20
180.5353723761
 11
231.8388765245
 21
178.4588045467
  0
LINE
  8
0
 62
7
  6
CONTINUOUS
 10
231.8388765245
 20
175.7353723761
 11
231.8388765245
 21
173.6588045467
  0
POLYLINE
  8
0
 62
7
  6
CONTINUOUS
 66
1
 70
0
  0
VERTEX
  8
0
 62
7
  6
CONTINUOUS
 10
229.3888765245
 20
180.5353723761
  0
VERTEX
  8
0
 62
7
  6
CONTINUOUS
 10
229.3908538581
 20
180.5639174871
  0
VERTEX
  8
0
 62
7
  6
CONTINUOUS
 10
229.4057920588
 20
180.6159443856
  0
VERTEX
  8
0
 62
7
  6
CONTINUOUS
 10
229.4334950441
 20
180.659426076
  0
VERTEX
  8
0
 62
7
  6
CONTINUOUS
 10
229.4515332531
 20
180.6774650519
  0
VERTEX
  8
0
 62
7
  6
CONTINUOUS
 10
229.495016722
 20
180.7051711775
  0
VERTEX
  8
0
 62
7
  6
CONTINUOUS
 10
229.5470468045
 20
180.7201110302
  0
VERTEX
  8
0
 62
7
  6
CONTINUOUS
 10
229.5755926097
 20
180.7220884614
  0
SEQEND
  0
POLYLINE
  8
0
 62
7
  6
CONTINUOUS
 66
1
 70
0
  0
VERTEX
  8
0
 62
7
  6
CONTINUOUS
 10
231.8388765245
 20
178.4588045467
  0
VERTEX
  8
0
 62
7
  6
CONTINUOUS
 10
231.8368991908
 20
178.4302594357
  0
VERTEX
  8
0
 62
7
  6
CONTINUOUS
 10
231.8219609901
 20
178.3782325372
  0
VERTEX
  8
0
 62
7
  6
CONTINUOUS
 10
231.7942580048
 20
178.3347508468
  0
VERTEX
  8
0
 62
7
  6
CONTINUOUS
 10
231.7762197958
 20
178.3167118709
  0
VERTEX
  8
0
 62
7
  6
CONTINUOUS
 10
231.7327363269
 20
178.2890057453
  0
VERTEX
  8
0
 62
7
  6
CONTINUOUS
 10
231.6807062444
 20
178.2740658926
  0
VERTEX
  8
0
 62
7
  6
CONTINUOUS
 10
231.6521604392
 20
178.2720884614
  0
SEQEND
  0
POLYLINE
  8
0
 62
7
  6
CONTINUOUS
 66
1
 70
0
  0
VERTEX
  8
0
 62
7
  6
CONTINUOUS
 10
231.8388765245
 20
173.6588045467
  0
VERTEX
  8
0
 62
7
  6
CONTINUOUS
 10
231.8368991908
 20
173.6302594357
  0
VERTEX
  8
0
 62
7
  6
CONTINUOUS
 10
231.8219609901
 20
173.5782325372
  0
VERTEX
  8
0
 62
7
  6
CONTINUOUS
 10
231.7942580048
 20
173.5347508468
  0
VERTEX
  8
0
 62
7
  6
CONTINUOUS
 10
231.7762197958
 20
173.5167118709
  0
VERTEX
  8
0
 62
7
  6
CONTINUOUS
 10
231.7327363269
 20
173.4890057453
  0
VERTEX
  8
0
 62
7
  6
CONTINUOUS
 10
231.6807062444
 20
173.4740658926
  0
VERTEX
  8
0
 62
7
  6
CONTINUOUS
 10
231.6521604392
 20
173.4720884614
  0
SEQEND
  0
LINE
  8
0
 62
7
  6
CONTINUOUS
 10
230.0111297922
 20
173.4720884614
 11
229.5098198988
 21
175.9110947845
  0
LINE
  8
0
 62
7
  6
CONTINUOUS
 10
234.1888765245
 20
173.6588045467
 11
234.1888765245
 21
175.7353723761
  0
LINE
  8
0
 62
7
  6
CONTINUOUS
 10
234.1888765245
 20
178.4588045467
 11
234.1888765245
 21
180.5353723761
  0
LINE
  8
0
 62
7
  6
CONTINUOUS
 10
235.7138765245
 20
172.3839653119
 11
235.7138765245
 21
170.5216615449
  0
LINE
  8
0
 62
7
  6
CONTINUOUS
 10
236.6388765245
 20
180.5353723761
 11
236.6388765245
 21
179.4186765657
  0
LINE
  8
0
 62
7
  6
CONTINUOUS
 10
237.3138765245
 20
163.8320884614
 11
237.3138765245
 21
172.2212353475
  0
LINE
  8
0
 62
7
  6
CONTINUOUS
 10
237.6638765245
 20
183.9720884614
 11
237.6638765245
 21
181.9729415753
  0
LINE
  8
2_FEATURE
 62
7
  6
CONTINUOUS
 10
237.6638765245
 20
183.9720884614
 11
237.6638765245
 21
189.2720884614
  0
LINE
  8
0
 62
7
  6
CONTINUOUS
 10
237.6638765245
 20
189.2720884614
 11
237.6638765245
 21
190.3620884614
  0
POLYLINE
  8
0
 62
7
  6
CONTINUOUS
 66
1
 70
0
  0
VERTEX
  8
0
 62
7
  6
CONTINUOUS
 10
234.1888765245
 20
180.5353723761
  0
VERTEX
  8
0
 62
7
  6
CONTINUOUS
 10
234.1908538581
 20
180.5639174871
  0
VERTEX
  8
0
 62
7
  6
CONTINUOUS
 10
234.2057920588
 20
180.6159443856
  0
VERTEX
  8
0
 62
7
  6
CONTINUOUS
 10
234.2334950441
 20
180.659426076
  0
VERTEX
  8
0
 62
7
  6
CONTINUOUS
 10
234.2515332531
 20
180.6774650519
  0
VERTEX
  8
0
 62
7
  6
CONTINUOUS
 10
234.295016722
 20
180.7051711775
  0
VERTEX
  8
0
 62
7
  6
CONTINUOUS
 10
234.3470468045
 20
180.7201110302
  0
VERTEX
  8
0
 62
7
  6
CONTINUOUS
 10
234.3755926097
 20
180.7220884614
  0
SEQEND
  0
POLYLINE
  8
0
 62
7
  6
CONTINUOUS
 66
1
 70
0
  0
VERTEX
  8
0
 62
7
  6
CONTINUOUS
 10
234.1888765245
 20
175.7353723761
  0
VERTEX
  8
0
 62
7
  6
CONTINUOUS
 10
234.1908538581
 20
175.7639174871
  0
VERTEX
  8
0
 62
7
  6
CONTINUOUS
 10
234.2057920588
 20
175.8159443856
  0
VERTEX
  8
0
 62
7
  6
CONTINUOUS
 10
234.2334950441
 20
175.859426076
  0
VERTEX
  8
0
 62
7
  6
CONTINUOUS
 10
234.2515332531
 20
175.8774650519
  0
VERTEX
  8
0
 62
7
  6
CONTINUOUS
 10
234.295016722
 20
175.9051711775
  0
VERTEX
  8
0
 62
7
  6
CONTINUOUS
 10
234.3470468045
 20
175.9201110302
  0
VERTEX
  8
0
 62
7
  6
CONTINUOUS
 10
234.3755926097
 20
175.9220884614
  0
SEQEND
  0
LINE
  8
0
 62
7
  6
CONTINUOUS
 10
237.6638765245
 20
181.9729415753
 11
237.6536382738
 21
181.8722766414
  0
LINE
  8
0
 62
7
  6
CONTINUOUS
 10
237.3138765245
 20
172.2212353475
 11
237.3241147751
 21
172.3219002814
  0
LINE
  8
0
 62
7
  6
CONTINUOUS
 10
236.6388765245
 20
179.4186765657
 11
236.403208435
 21
178.2720884614
  0
LINE
  8
0
 62
7
  6
CONTINUOUS
 10
235.9201927748
 20
175.9220884614
 11
235.4166232567
 21
173.4720884614
  0
LINE
  8
0
 62
7
  6
CONTINUOUS
 10
237.6536382738
 20
181.8722766414
 11
235.7232102182
 21
172.480229335
  0
LINE
  8
0
 62
7
  6
CONTINUOUS
 10
237.3241147751
 20
172.3219002814
 11
239.2545428307
 21
181.7139475878
  0
LINE
  8
0
 62
7
  6
CONTINUOUS
 10
239.0646199954
 20
178.3064358882
 11
239.5611297922
 21
180.7220884614
  0
LINE
  8
2_FEATURE
 62
7
  6
CONTINUOUS
 10
239.6638765245
 20
186.3254575476
 11
239.7638765245
 21
186.6220884614
  0
LINE
  8
0
 62
7
  6
CONTINUOUS
 10
238.9888765245
 20
173.6588045467
 11
238.9888765245
 21
175.7353723761
  0
LINE
  8
0
 62
7
  6
CONTINUOUS
 10
239.2638765245
 20
181.8102116108
 11
239.2638765245
 21
183.3897360866
  0
LINE
  8
2_FEATURE
 62
7
  6
CONTINUOUS
 10
239.6638765245
 20
183.6011849945
 11
239.6638765245
 21
189.6429919282
  0
LINE
  8
0
 62
7
  6
CONTINUOUS
 10
241.4388765245
 20
180.5353723761
 11
241.4388765245
 21
178.4588045467
  0
LINE
  8
0
 62
7
  6
CONTINUOUS
 10
241.4388765245
 20
175.7353723761
 11
241.4388765245
 21
173.6588045467
  0
POLYLINE
  8
0
 62
7
  6
CONTINUOUS
 66
1
 70
0
  0
VERTEX
  8
0
 62
7
  6
CONTINUOUS
 10
238.9888765245
 20
175.7353723761
  0
VERTEX
  8
0
 62
7
  6
CONTINUOUS
 10
238.9908538581
 20
175.7639174871
  0
VERTEX
  8
0
 62
7
  6
CONTINUOUS
 10
239.0057920588
 20
175.8159443856
  0
VERTEX
  8
0
 62
7
  6
CONTINUOUS
 10
239.0334950441
 20
175.859426076
  0
VERTEX
  8
0
 62
7
  6
CONTINUOUS
 10
239.0515332531
 20
175.8774650519
  0
VERTEX
  8
0
 62
7
  6
CONTINUOUS
 10
239.095016722
 20
175.9051711775
  0
VERTEX
  8
0
 62
7
  6
CONTINUOUS
 10
239.1470468045
 20
175.9201110302
  0
VERTEX
  8
0
 62
7
  6
CONTINUOUS
 10
239.1755926097
 20
175.9220884614
  0
SEQEND
  0
POLYLINE
  8
0
 62
7
  6
CONTINUOUS
 66
1
 70
0
  0
VERTEX
  8
0
 62
7
  6
CONTINUOUS
 10
241.4388765245
 20
178.4588045467
  0
VERTEX
  8
0
 62
7
  6
CONTINUOUS
 10
241.4368991908
 20
178.4302594357
  0
VERTEX
  8
0
 62
7
  6
CONTINUOUS
 10
241.4219609901
 20
178.3782325372
  0
VERTEX
  8
0
 62
7
  6
CONTINUOUS
 10
241.3942580048
 20
178.3347508468
  0
VERTEX
  8
0
 62
7
  6
CONTINUOUS
 10
241.3762197958
 20
178.3167118709
  0
VERTEX
  8
0
 62
7
  6
CONTINUOUS
 10
241.3327363269
 20
178.2890057453
  0
VERTEX
  8
0
 62
7
  6
CONTINUOUS
 10
241.2807062444
 20
178.2740658926
  0
VERTEX
  8
0
 62
7
  6
CONTINUOUS
 10
241.2521604392
 20
178.2720884614
  0
SEQEND
  0
POLYLINE
  8
0
 62
7
  6
CONTINUOUS
 66
1
 70
0
  0
VERTEX
  8
0
 62
7
  6
CONTINUOUS
 10
241.4388765245
 20
173.6588045467
  0
VERTEX
  8
0
 62
7
  6
CONTINUOUS
 10
241.4368991908
 20
173.6302594357
  0
VERTEX
  8
0
 62
7
  6
CONTINUOUS
 10
241.4219609901
 20
173.5782325372
  0
VERTEX
  8
0
 62
7
  6
CONTINUOUS
 10
241.3942580048
 20
173.5347508468
  0
VERTEX
  8
0
 62
7
  6
CONTINUOUS
 10
241.3762197958
 20
173.5167118709
  0
VERTEX
  8
0
 62
7
  6
CONTINUOUS
 10
241.3327363269
 20
173.4890057453
  0
VERTEX
  8
0
 62
7
  6
CONTINUOUS
 10
241.2807062444
 20
173.4740658926
  0
VERTEX
  8
0
 62
7
  6
CONTINUOUS
 10
241.2521604392
 20
173.4720884614
  0
SEQEND
  0
LINE
  8
0
 62
7
  6
CONTINUOUS
 10
239.2638765245
 20
181.8102116108
 11
239.2536382738
 21
181.7095466769
  0
LINE
  8
0
 62
7
  6
CONTINUOUS
 10
251.497744157
 20
181.3145681514
 11
251.5300088919
 21
181.2661304759
  0
LINE
  8
0
 62
7
  6
CONTINUOUS
 10
244.5697643789
 20
180.7220884614
 11
245.2582991083
 21
178.2720884614
  0
LINE
  8
0
 62
7
  6
CONTINUOUS
 10
245.9187303793
 20
175.9220884614
 11
246.2388765245
 21
174.7829185371
  0
LINE
  8
0
 62
7
  6
CONTINUOUS
 10
251.4138765245
 20
181.5917573517
 11
251.4155172665
 21
181.5512845207
  0
LINE
  8
0
 62
7
  6
CONTINUOUS
 10
243.7888765245
 20
173.6588045467
 11
243.7888765245
 21
175.7353723761
  0
LINE
  8
0
 62
7
  6
CONTINUOUS
 10
243.7888765245
 20
178.4588045467
 11
243.7888765245
 21
180.5353723761
  0
LINE
  8
0
 62
7
  6
CONTINUOUS
 10
244.8138765245
 20
183.6725154194
 11
244.8138765245
 21
181.7704565381
  0
LINE
  8
0
 62
7
  6
CONTINUOUS
 10
246.2388765245
 20
174.7829185371
 11
246.2388765245
 21
173.6588045467
  0
LINE
  8
0
 62
7
  6
CONTINUOUS
 10
246.4138765245
 20
190.3620884614
 11
246.4138765245
 21
181.9910120629
  0
LINE
  8
0
 62
7
  6
CONTINUOUS
 10
247.4638765245
 20
172.2031648599
 11
247.4638765245
 21
163.8320884614
  0
LINE
  8
0
 62
7
  6
CONTINUOUS
 10
249.0638765245
 20
172.4237203847
 11
249.0638765245
 21
170.5216647021
  0
LINE
  8
0
 62
7
  6
CONTINUOUS
 10
250.1138765245
 20
171.9195014853
 11
250.1138765245
 21
179.0204750643
  0
LINE
  8
0
 62
7
  6
CONTINUOUS
 10
251.4138765245
 20
182.5104581278
 11
251.4138765245
 21
181.5917573517
  0
LINE
  8
0
 62
7
  6
CONTINUOUS
 10
251.4138765245
 20
171.3223682831
 11
251.4138765245
 21
163.8320884614
  0
LINE
  8
0
 62
7
  6
CONTINUOUS
 10
251.6138765245
 20
180.9889412757
 11
251.6138765245
 21
171.9223682831
  0
POLYLINE
  8
0
 62
7
  6
CONTINUOUS
 66
1
 70
0
  0
VERTEX
  8
0
 62
7
  6
CONTINUOUS
 10
243.7888765245
 20
180.5353723761
  0
VERTEX
  8
0
 62
7
  6
CONTINUOUS
 10
243.7908538581
 20
180.5639174871
  0
VERTEX
  8
0
 62
7
  6
CONTINUOUS
 10
243.8057920588
 20
180.6159443856
  0
VERTEX
  8
0
 62
7
  6
CONTINUOUS
 10
243.8334950441
 20
180.659426076
  0
VERTEX
  8
0
 62
7
  6
CONTINUOUS
 10
243.8515332531
 20
180.6774650519
  0
VERTEX
  8
0
 62
7
  6
CONTINUOUS
 10
243.895016722
 20
180.7051711775
  0
VERTEX
  8
0
 62
7
  6
CONTINUOUS
 10
243.9470468045
 20
180.7201110302
  0
VERTEX
  8
0
 62
7
  6
CONTINUOUS
 10
243.9755926097
 20
180.7220884614
  0
SEQEND
  0
POLYLINE
  8
0
 62
7
  6
CONTINUOUS
 66
1
 70
0
  0
VERTEX
  8
0
 62
7
  6
CONTINUOUS
 10
243.7888765245
 20
175.7353723761
  0
VERTEX
  8
0
 62
7
  6
CONTINUOUS
 10
243.7908538581
 20
175.7639174871
  0
VERTEX
  8
0
 62
7
  6
CONTINUOUS
 10
243.8057920588
 20
175.8159443856
  0
VERTEX
  8
0
 62
7
  6
CONTINUOUS
 10
243.8334950441
 20
175.859426076
  0
VERTEX
  8
0
 62
7
  6
CONTINUOUS
 10
243.8515332531
 20
175.8774650519
  0
VERTEX
  8
0
 62
7
  6
CONTINUOUS
 10
243.895016722
 20
175.9051711775
  0
VERTEX
  8
0
 62
7
  6
CONTINUOUS
 10
243.9470468045
 20
175.9201110302
  0
VERTEX
  8
0
 62
7
  6
CONTINUOUS
 10
243.9755926097
 20
175.9220884614
  0
SEQEND
  0
POLYLINE
  8
0
 62
7
  6
CONTINUOUS
 66
1
 70
0
  0
VERTEX
  8
0
 62
7
  6
CONTINUOUS
 10
246.2388765245
 20
173.6588045467
  0
VERTEX
  8
0
 62
7
  6
CONTINUOUS
 10
246.2368991908
 20
173.6302594357
  0
VERTEX
  8
0
 62
7
  6
CONTINUOUS
 10
246.2219609901
 20
173.5782325372
  0
VERTEX
  8
0
 62
7
  6
CONTINUOUS
 10
246.1942580048
 20
173.5347508468
  0
VERTEX
  8
0
 62
7
  6
CONTINUOUS
 10
246.1762197958
 20
173.5167118709
  0
VERTEX
  8
0
 62
7
  6
CONTINUOUS
 10
246.1327363269
 20
173.4890057453
  0
VERTEX
  8
0
 62
7
  6
CONTINUOUS
 10
246.0807062444
 20
173.4740658926
  0
VERTEX
  8
0
 62
7
  6
CONTINUOUS
 10
246.0521604392
 20
173.4720884614
  0
SEQEND
  0
LINE
  8
0
 62
7
  6
CONTINUOUS
 10
244.8325240385
 20
181.6351798427
 11
247.4452290104
 21
172.3384415552
  0
LINE
  8
0
 62
7
  6
CONTINUOUS
 10
246.4325240385
 20
181.8557353675
 11
249.0452290104
 21
172.5589970801
  0
LINE
  8
0
 62
7
  6
CONTINUOUS
 10
338.5193703037
 20
163.3320884614
 11
340.4634896416
 21
163.3320884614
  0
LINE
  8
0
 62
7
  6
CONTINUOUS
 10
335.5796575359
 20
166.3053173792
 11
335.8414299726
 21
166.34734359
  0
LINE
  8
0
 62
7
  6
CONTINUOUS
 10
335.3414299726
 20
166.2682479804
 11
335.5796575359
 21
166.3053173792
  0
LINE
  8
1_AXIS
 62
2
  6
CONTINUOUS
 10
340.5414299726
 20
167.5720884614
 11
338.4414299726
 21
167.5720884614
  0
LINE
  8
1_AXIS
 62
2
  6
CENTER
 10
334.2414299726
 20
167.5720884614
 11
333.2514299726
 21
167.5720884614
  0
LINE
  8
1_AXIS
 62
2
  6
CENTER
 10
344.7414299726
 20
167.5720884614
 11
345.7314299726
 21
167.5720884614
  0
LINE
  8
0
 62
7
  6
CONTINUOUS
 10
335.3414299726
 20
166.2682479804
 11
335.3414299726
 21
187.9259289424
  0
LINE
  8
1_AXIS
 62
2
  6
CONTINUOUS
 10
339.4914299726
 20
187.6720884614
 11
339.4914299726
 21
185.5720884614
  0
LINE
  8
1_AXIS
 62
2
  6
CENTER
 10
339.4914299726
 20
181.3720884614
 11
339.4914299726
 21
180.3820884614
  0
LINE
  8
1_AXIS
 62
2
  6
CONTINUOUS
 10
339.4914299726
 20
168.6220884614
 11
339.4914299726
 21
166.5220884614
  0
LINE
  8
1_AXIS
 62
2
  6
CENTER
 10
339.4914299726
 20
162.3220884614
 11
339.4914299726
 21
161.3320884614
  0
LINE
  8
1_AXIS
 62
2
  6
CENTER
 10
339.4914299726
 20
172.8220884614
 11
339.4914299726
 21
173.8120884614
  0
LINE
  8
1_AXIS
 62
2
  6
CENTER
 10
339.4914299726
 20
191.8720884614
 11
339.4914299726
 21
192.8620884614
  0
LINE
  8
0
 62
7
  6
CONTINUOUS
 10
340.4308246428
 20
190.5782809451
 11
340.4634896416
 21
190.8620884614
  0
LINE
  8
0
 62
7
  6
CONTINUOUS
 10
340.4051585975
 20
190.3620884614
 11
340.4308246428
 21
190.5782809451
  0
LINE
  8
1_AXIS
 62
2
  6
CENTER
 10
332.8414295063
 20
177.0970884614
 11
346.3414303365
 21
177.0970884614
  0
LINE
  8
0
 62
7
  6
CONTINUOUS
 10
340.4051585975
 20
163.8320884614
 11
340.4308246428
 21
163.6158959777
  0
POLYLINE
  8
0
 62
7
  6
CONTINUOUS
 66
1
 70
0
  0
VERTEX
  8
0
 62
7
  6
CONTINUOUS
 10
340.4308246428
 20
163.6158959777
  0
VERTEX
  8
0
 62
7
  6
CONTINUOUS
 10
340.4620581971
 20
163.3447286877
  0
VERTEX
  8
0
 62
7
  6
CONTINUOUS
 10
340.4634896416
 20
163.3320884614
  0
SEQEND
  0
LINE
  8
0
 62
7
  6
CONTINUOUS
 10
338.5193703037
 20
163.3320884614
 11
338.5410020051
 21
163.5211188187
  0
POLYLINE
  8
0
 62
7
  6
CONTINUOUS
 66
1
 70
0
  0
VERTEX
  8
0
 62
7
  6
CONTINUOUS
 10
338.5410020051
 20
163.5211188187
  0
VERTEX
  8
0
 62
7
  6
CONTINUOUS
 10
338.5644612785
 20
163.7213113715
  0
VERTEX
  8
0
 62
7
  6
CONTINUOUS
 10
338.5777013477
 20
163.8320884614
  0
SEQEND
  0
LINE
  8
0
 62
7
  6
CONTINUOUS
 10
338.5777013477
 20
190.3620884614
 11
338.5520353024
 21
190.5782809451
  0
POLYLINE
  8
0
 62
7
  6
CONTINUOUS
 66
1
 70
0
  0
VERTEX
  8
0
 62
7
  6
CONTINUOUS
 10
338.5520353024
 20
190.5782809451
  0
VERTEX
  8
0
 62
7
  6
CONTINUOUS
 10
338.5208017481
 20
190.8494482351
  0
VERTEX
  8
0
 62
7
  6
CONTINUOUS
 10
338.5193703037
 20
190.8620884614
  0
SEQEND
  0
LINE
  8
0
 62
7
  6
CONTINUOUS
 10
342.1414299726
 20
171.2599062443
 11
342.1414299726
 21
181.4404750643
  0
LINE
  8
0
 62
7
  6
CONTINUOUS
 10
337.6500812955
 20
181.9756447623
 11
337.4742691517
 21
182.0492265323
  0
LINE
  8
0
 62
7
  6
CONTINUOUS
 10
343.8414299726
 20
167.5720884614
 11
343.8414299726
 21
186.6220884614
  0
LINE
  8
0
 62
7
  6
CONTINUOUS
 10
341.6525856713
 20
181.9404750643
 11
337.8342898466
 21
181.9404750643
  0
LINE
  8
1_AXIS
 62
2
  6
CONTINUOUS
 10
340.5414299726
 20
186.6220884614
 11
338.4414299726
 21
186.6220884614
  0
LINE
  8
1_AXIS
 62
2
  6
CENTER
 10
334.2414299726
 20
186.6220884614
 11
333.2514299726
 21
186.6220884614
  0
LINE
  8
1_AXIS
 62
2
  6
CENTER
 10
344.7414299726
 20
186.6220884614
 11
345.7314299726
 21
186.6220884614
  0
LINE
  8
0
 62
7
  6
CONTINUOUS
 10
335.5796575359
 20
187.8888595436
 11
335.3414299726
 21
187.9259289424
  0
LINE
  8
0
 62
7
  6
CONTINUOUS
 10
335.8414299726
 20
187.8468333328
 11
335.5796575359
 21
187.8888595436
  0
LINE
  8
0
 62
7
  6
CONTINUOUS
 10
338.5193703037
 20
190.8620884614
 11
340.4634896416
 21
190.8620884614
  0
ARC
  8
0
 62
7
  6
CONTINUOUS
 10
99.9138765245
 20
95.8962843611
 40
0.5
 50
180.0
 51
270.0
  0
ARC
  8
0
 62
7
  6
CONTINUOUS
 10
112.0638765245
 20
95.8962843611
 40
0.5
 50
180.0
 51
270.0
  0
ARC
  8
0
 62
7
  6
CONTINUOUS
 10
112.6638765245
 20
95.8962843611
 40
0.5
 50
270.0
 51
360.0
  0
ARC
  8
0
 62
7
  6
CONTINUOUS
 10
114.6138765245
 20
95.8962843611
 40
0.5
 50
270.0
 51
360.0
  0
ARC
  8
0
 62
7
  6
CONTINUOUS
 10
102.2638765245
 20
95.8962843611
 40
0.5
 50
180.0
 51
270.0
  0
ARC
  8
0
 62
7
  6
CONTINUOUS
 10
104.9138765245
 20
95.8962843611
 40
0.5
 50
180.0
 51
270.0
  0
ARC
  8
0
 62
7
  6
CONTINUOUS
 10
103.9138765245
 20
96.5962843611
 40
0.5
 50
0.1660268107
 51
26.7099714732
  0
ARC
  8
0
 62
7
  6
CONTINUOUS
 10
123.5638765245
 20
95.8962843611
 40
0.5
 50
180.0
 51
270.0
  0
ARC
  8
0
 62
7
  6
CONTINUOUS
 10
121.6138765245
 20
95.8962843611
 40
0.5
 50
180.0
 51
270.0
  0
ARC
  8
0
 62
7
  6
CONTINUOUS
 10
133.7138765245
 20
95.8962843611
 40
0.5
 50
270.0
 51
360.0
  0
ARC
  8
0
 62
7
  6
CONTINUOUS
 10
131.7638765245
 20
95.8962843611
 40
0.5
 50
270.0
 51
360.0
  0
ARC
  8
0
 62
7
  6
CONTINUOUS
 10
99.7138765245
 20
97.5962843611
 40
0.5
 50
180.0
 51
270.0
  0
ARC
  8
0
 62
7
  6
CONTINUOUS
 10
140.7138765245
 20
95.8962843611
 40
0.5
 50
180.0
 51
270.0
  0
ARC
  8
0
 62
7
  6
CONTINUOUS
 10
142.6638765245
 20
95.8962843611
 40
0.5
 50
180.0
 51
270.0
  0
ARC
  8
0
 62
7
  6
CONTINUOUS
 10
159.8138765245
 20
95.8962843611
 40
0.5
 50
180.0
 51
270.0
  0
ARC
  8
0
 62
7
  6
CONTINUOUS
 10
161.7638765245
 20
95.8962843611
 40
0.5
 50
180.0
 51
270.0
  0
ARC
  8
0
 62
7
  6
CONTINUOUS
 10
152.8138765245
 20
95.8962843611
 40
0.5
 50
270.0
 51
360.0
  0
ARC
  8
0
 62
7
  6
CONTINUOUS
 10
150.8638765245
 20
95.8962843611
 40
0.5
 50
270.0
 51
360.0
  0
ARC
  8
0
 62
7
  6
CONTINUOUS
 10
171.9138765245
 20
95.8962843611
 40
0.5
 50
270.0
 51
360.0
  0
ARC
  8
0
 62
7
  6
CONTINUOUS
 10
169.9638765245
 20
95.8962843611
 40
0.5
 50
270.0
 51
360.0
  0
ARC
  8
0
 62
7
  6
CONTINUOUS
 10
150.8638765245
 20
103.3962843611
 40
0.5
 50
0.0
 51
90.0
  0
ARC
  8
0
 62
7
  6
CONTINUOUS
 10
123.5638765245
 20
103.3962843611
 40
0.5
 50
90.0
 51
180.0
  0
ARC
  8
0
 62
7
  6
CONTINUOUS
 10
142.6638765245
 20
103.3962843611
 40
0.5
 50
90.0
 51
180.0
  0
ARC
  8
0
 62
7
  6
CONTINUOUS
 10
161.7638765245
 20
103.3962843611
 40
0.5
 50
90.0
 51
180.0
  0
ARC
  8
0
 62
7
  6
CONTINUOUS
 10
131.7638765245
 20
103.3962843611
 40
0.5
 50
0.0
 51
90.0
  0
ARC
  8
0
 62
7
  6
CONTINUOUS
 10
169.9638765245
 20
103.3962843611
 40
0.5
 50
0.0
 51
90.0
  0
ARC
  8
0
 62
7
  6
CONTINUOUS
 10
112.6638765245
 20
103.3962843611
 40
0.5
 50
0.0
 51
90.0
  0
ARC
  8
0
 62
7
  6
CONTINUOUS
 10
104.9138765245
 20
103.3962843611
 40
0.5
 50
90.0
 51
180.0
  0
ARC
  8
0
 62
7
  6
CONTINUOUS
 10
99.7138765245
 20
103.3962843611
 40
0.5
 50
90.0
 51
180.0
  0
ARC
  8
0
 62
7
  6
CONTINUOUS
 10
99.9138765245
 20
103.3962843611
 40
0.5
 50
90.0
 51
180.0
  0
ARC
  8
0
 62
7
  6
CONTINUOUS
 10
199.9638765245
 20
95.8962843611
 40
0.5
 50
180.0
 51
270.0
  0
ARC
  8
0
 62
7
  6
CONTINUOUS
 10
178.9138765245
 20
95.8962843611
 40
0.5
 50
180.0
 51
270.0
  0
ARC
  8
0
 62
7
  6
CONTINUOUS
 10
180.8638765245
 20
95.8962843611
 40
0.5
 50
180.0
 51
270.0
  0
ARC
  8
0
 62
7
  6
CONTINUOUS
 10
198.0138765245
 20
95.8962843611
 40
0.5
 50
180.0
 51
270.0
  0
ARC
  8
0
 62
7
  6
CONTINUOUS
 10
191.0138765245
 20
95.8962843611
 40
0.5
 50
270.0
 51
360.0
  0
ARC
  8
0
 62
7
  6
CONTINUOUS
 10
189.0638765245
 20
95.8962843611
 40
0.5
 50
270.0
 51
360.0
  0
ARC
  8
0
 62
7
  6
CONTINUOUS
 10
210.1138765245
 20
95.8962843611
 40
0.5
 50
270.0
 51
360.0
  0
ARC
  8
0
 62
7
  6
CONTINUOUS
 10
208.1638765245
 20
95.8962843611
 40
0.5
 50
270.0
 51
360.0
  0
ARC
  8
0
 62
7
  6
CONTINUOUS
 10
217.1138765245
 20
95.8962843611
 40
0.5
 50
180.0
 51
270.0
  0
ARC
  8
0
 62
7
  6
CONTINUOUS
 10
219.0638765245
 20
95.8962843611
 40
0.5
 50
180.0
 51
270.0
  0
ARC
  8
0
 62
7
  6
CONTINUOUS
 10
229.2138765245
 20
95.8962843611
 40
0.5
 50
270.0
 51
360.0
  0
ARC
  8
0
 62
7
  6
CONTINUOUS
 10
227.2638765245
 20
95.8962843611
 40
0.5
 50
270.0
 51
360.0
  0
ARC
  8
0
 62
7
  6
CONTINUOUS
 10
250.9138765245
 20
95.8962843611
 40
0.5
 50
270.0
 51
360.0
  0
ARC
  8
0
 62
7
  6
CONTINUOUS
 10
238.7638765245
 20
95.8962843611
 40
0.5
 50
270.0
 51
360.0
  0
ARC
  8
0
 62
7
  6
CONTINUOUS
 10
238.1638765245
 20
95.8962843611
 40
0.5
 50
180.0
 51
270.0
  0
ARC
  8
0
 62
7
  6
CONTINUOUS
 10
248.5638765245
 20
95.8962843611
 40
0.5
 50
270.0
 51
360.0
  0
ARC
  8
0
 62
7
  6
CONTINUOUS
 10
245.9138765245
 20
95.8962843611
 40
0.5
 50
270.0
 51
360.0
  0
ARC
  8
0
 62
7
  6
CONTINUOUS
 10
236.2138765245
 20
95.8962843611
 40
0.5
 50
180.0
 51
270.0
  0
ARC
  8
0
 62
7
  6
CONTINUOUS
 10
246.9138765245
 20
96.5962843611
 40
0.5
 50
153.2900529627
 51
180.0
  0
ARC
  8
0
 62
7
  6
CONTINUOUS
 10
251.1138765245
 20
97.5962843611
 40
0.5
 50
270.0
 51
360.0
  0
ARC
  8
0
 62
7
  6
CONTINUOUS
 10
189.0638765245
 20
103.3962843611
 40
0.5
 50
0.0
 51
90.0
  0
ARC
  8
0
 62
7
  6
CONTINUOUS
 10
180.8638765245
 20
103.3962843611
 40
0.5
 50
90.0
 51
180.0
  0
ARC
  8
0
 62
7
  6
CONTINUOUS
 10
199.9638765245
 20
103.3962843611
 40
0.5
 50
90.0
 51
180.0
  0
ARC
  8
0
 62
7
  6
CONTINUOUS
 10
219.0638765245
 20
103.3962843611
 40
0.5
 50
90.0
 51
180.0
  0
ARC
  8
0
 62
7
  6
CONTINUOUS
 10
208.1638765245
 20
103.3962843611
 40
0.5
 50
0.0
 51
90.0
  0
ARC
  8
0
 62
7
  6
CONTINUOUS
 10
227.2638765245
 20
103.3962843611
 40
0.5
 50
0.0
 51
90.0
  0
ARC
  8
0
 62
7
  6
CONTINUOUS
 10
245.9138765245
 20
103.3962843611
 40
0.5
 50
0.0
 51
90.0
  0
ARC
  8
0
 62
7
  6
CONTINUOUS
 10
238.1638765245
 20
103.3962843611
 40
0.5
 50
90.0
 51
180.0
  0
ARC
  8
0
 62
7
  6
CONTINUOUS
 10
250.9138765245
 20
103.3962843611
 40
0.5
 50
0.0
 51
90.0
  0
ARC
  8
0
 62
7
  6
CONTINUOUS
 10
251.1138765245
 20
103.3962843611
 40
0.5
 50
0.0
 51
90.0
  0
ARC
  8
0
 62
7
  6
CONTINUOUS
 10
102.8638765245
 20
163.8320884614
 40
0.5
 50
270.0
 51
360.0
  0
ARC
  8
0
 62
7
  6
CONTINUOUS
 10
99.9138765245
 20
163.8320884614
 40
0.5
 50
180.0
 51
270.0
  0
ARC
  8
0
 62
7
  6
CONTINUOUS
 10
133.1138765245
 20
163.8320884614
 40
0.5
 50
180.0
 51
270.0
  0
ARC
  8
0
 62
7
  6
CONTINUOUS
 10
122.2138765245
 20
163.8320884614
 40
0.5
 50
270.0
 51
360.0
  0
ARC
  8
0
 62
7
  6
CONTINUOUS
 10
114.0138765245
 20
163.8320884614
 40
0.5
 50
180.0
 51
270.0
  0
ARC
  8
0
 62
7
  6
CONTINUOUS
 10
103.8638765245
 20
170.683718795
 40
0.5
 50
90.0
 51
180.0
  0
ARC
  8
0
 62
7
  6
CONTINUOUS
 10
98.9138765245
 20
171.3223682831
 40
0.5
 50
0.0
 51
36.8698976458
  0
ARC
  8
0
 62
7
  6
CONTINUOUS
 10
113.0138768227
 20
170.6837190932
 40
0.4999998509
 50
359.9999658243
 51
90.0000341757
  0
ARC
  8
0
 62
7
  6
CONTINUOUS
 10
99.7138765245
 20
171.9223682831
 40
0.5
 50
180.0
 51
216.8698976458
  0
ARC
  8
0
 62
7
  6
CONTINUOUS
 10
101.2638765245
 20
172.4220884614
 40
0.5
 50
270.0
 51
360.0
  0
ARC
  8
0
 62
7
  6
CONTINUOUS
 10
102.2638765245
 20
172.4237203847
 40
0.5
 50
164.3028005322
 51
180.0
  0
ARC
  8
0
 62
7
  6
CONTINUOUS
 10
101.2138765245
 20
172.4220884614
 40
0.5
 50
180.0
 51
270.0
  0
ARC
  8
0
 62
7
  6
CONTINUOUS
 10
103.8638765245
 20
172.2031648599
 40
0.5
 50
164.3028005322
 51
180.0
  0
ARC
  8
0
 62
7
  6
CONTINUOUS
 10
115.6138765245
 20
172.4220884614
 40
0.5
 50
182.4371840855
 51
270.0
  0
ARC
  8
0
 62
7
  6
CONTINUOUS
 10
113.0138765245
 20
172.2212353475
 40
0.5
 50
0.0
 51
11.6147368593
  0
ARC
  8
0
 62
7
  6
CONTINUOUS
 10
114.6147810004
 20
172.3795647954
 40
0.5
 50
2.4371385497
 51
11.6146907329
  0
ARC
  8
0
 62
7
  6
CONTINUOUS
 10
114.6138765245
 20
172.3839653119
 40
0.5
 50
0.0
 51
11.6147368593
  0
ARC
  8
0
 62
7
  6
CONTINUOUS
 10
123.2138765245
 20
170.683718795
 40
0.5
 50
90.0
 51
180.0
  0
ARC
  8
0
 62
7
  6
CONTINUOUS
 10
132.1138768227
 20
170.6837190932
 40
0.4999998509
 50
359.9999658243
 51
90.0000341757
  0
ARC
  8
0
 62
7
  6
CONTINUOUS
 10
123.2138765245
 20
172.2212353475
 40
0.5
 50
168.3852631407
 51
180.0
  0
ARC
  8
0
 62
7
  6
CONTINUOUS
 10
120.6138765245
 20
172.4220884614
 40
0.5
 50
270.0
 51
357.5628159145
  0
ARC
  8
0
 62
7
  6
CONTINUOUS
 10
121.6129721467
 20
172.379565273
 40
0.5
 50
168.3853651393
 51
177.5629166073
  0
ARC
  8
0
 62
7
  6
CONTINUOUS
 10
121.6138765245
 20
172.3839653119
 40
0.5
 50
168.3852631407
 51
180.0
  0
ARC
  8
0
 62
7
  6
CONTINUOUS
 10
132.1138765245
 20
172.2212353475
 40
0.5
 50
0.0
 51
11.6147368593
  0
ARC
  8
0
 62
7
  6
CONTINUOUS
 10
134.7138765245
 20
172.4220884614
 40
0.5
 50
182.4371840855
 51
270.0
  0
ARC
  8
0
 62
7
  6
CONTINUOUS
 10
133.7147810004
 20
172.3795647954
 40
0.5
 50
2.4371385497
 51
11.6146907329
  0
ARC
  8
0
 62
7
  6
CONTINUOUS
 10
133.7138765245
 20
172.3839653119
 40
0.5
 50
0.0
 51
11.6147368593
  0
ARC
  8
0
 62
7
  6
CONTINUOUS
 10
152.2138765245
 20
163.8320884614
 40
0.5
 50
180.0
 51
270.0
  0
ARC
  8
0
 62
7
  6
CONTINUOUS
 10
171.3138765245
 20
163.8320884614
 40
0.5
 50
180.0
 51
270.0
  0
ARC
  8
0
 62
7
  6
CONTINUOUS
 10
141.3138765245
 20
163.8320884614
 40
0.5
 50
270.0
 51
360.0
  0
ARC
  8
0
 62
7
  6
CONTINUOUS
 10
160.4138765245
 20
163.8320884614
 40
0.5
 50
270.0
 51
360.0
  0
ARC
  8
0
 62
7
  6
CONTINUOUS
 10
142.3138765245
 20
170.683718795
 40
0.5
 50
90.0
 51
180.0
  0
ARC
  8
0
 62
7
  6
CONTINUOUS
 10
151.2138768227
 20
170.6837190932
 40
0.4999998509
 50
359.9999658243
 51
90.0000341757
  0
ARC
  8
0
 62
7
  6
CONTINUOUS
 10
153.8138765245
 20
172.4220884614
 40
0.5
 50
182.4371840855
 51
270.0
  0
ARC
  8
0
 62
7
  6
CONTINUOUS
 10
139.7138765245
 20
172.4220884614
 40
0.5
 50
270.0
 51
357.5628159145
  0
ARC
  8
0
 62
7
  6
CONTINUOUS
 10
151.2138765245
 20
172.2212353475
 40
0.5
 50
0.0
 51
11.6147368593
  0
ARC
  8
0
 62
7
  6
CONTINUOUS
 10
142.3138765245
 20
172.2212353475
 40
0.5
 50
168.3852631407
 51
180.0
  0
ARC
  8
0
 62
7
  6
CONTINUOUS
 10
140.7129721467
 20
172.379565273
 40
0.5
 50
168.3853651393
 51
177.5629166073
  0
ARC
  8
0
 62
7
  6
CONTINUOUS
 10
140.7138765245
 20
172.3839653119
 40
0.5
 50
168.3852631407
 51
180.0
  0
ARC
  8
0
 62
7
  6
CONTINUOUS
 10
152.8147810004
 20
172.3795647954
 40
0.5
 50
2.4371385497
 51
11.6146907329
  0
ARC
  8
0
 62
7
  6
CONTINUOUS
 10
152.8138765245
 20
172.3839653119
 40
0.5
 50
0.0
 51
11.6147368593
  0
ARC
  8
0
 62
7
  6
CONTINUOUS
 10
161.4138765245
 20
170.683718795
 40
0.5
 50
90.0
 51
180.0
  0
ARC
  8
0
 62
7
  6
CONTINUOUS
 10
170.3138768227
 20
170.6837190932
 40
0.4999998509
 50
359.9999658243
 51
90.0000341757
  0
ARC
  8
0
 62
7
  6
CONTINUOUS
 10
172.9138765245
 20
172.4220884614
 40
0.5
 50
182.4371840855
 51
270.0
  0
ARC
  8
0
 62
7
  6
CONTINUOUS
 10
158.8138765245
 20
172.4220884614
 40
0.5
 50
270.0
 51
357.5628159145
  0
ARC
  8
0
 62
7
  6
CONTINUOUS
 10
170.3138765245
 20
172.2212353475
 40
0.5
 50
0.0
 51
11.6147368593
  0
ARC
  8
0
 62
7
  6
CONTINUOUS
 10
161.4138765245
 20
172.2212353475
 40
0.5
 50
168.3852631407
 51
180.0
  0
ARC
  8
0
 62
7
  6
CONTINUOUS
 10
159.8129721467
 20
172.379565273
 40
0.5
 50
168.3853651393
 51
177.5629166073
  0
ARC
  8
0
 62
7
  6
CONTINUOUS
 10
159.8138765245
 20
172.3839653119
 40
0.5
 50
168.3852631407
 51
180.0
  0
ARC
  8
0
 62
7
  6
CONTINUOUS
 10
171.9147810004
 20
172.3795647954
 40
0.5
 50
2.4371385497
 51
11.6146907329
  0
ARC
  8
0
 62
7
  6
CONTINUOUS
 10
171.9138765245
 20
172.3839653119
 40
0.5
 50
0.0
 51
11.6147368593
  0
ARC
  8
0
 62
7
  6
CONTINUOUS
 10
102.2138765245
 20
179.0204750643
 40
1.5
 50
90.0
 51
180.0
  0
ARC
  8
0
 62
7
  6
CONTINUOUS
 10
99.7138765245
 20
180.9889412757
 40
0.5
 50
146.3320887789
 51
180.0
  0
ARC
  8
0
 62
7
  6
CONTINUOUS
 10
103.3600874799
 20
180.0204750643
 40
0.5
 50
344.3028005322
 51
90.0
  0
ARC
  8
0
 62
7
  6
CONTINUOUS
 10
103.9138765245
 20
181.9910120629
 40
0.5
 50
344.3028005322
 51
360.0
  0
ARC
  8
0
 62
7
  6
CONTINUOUS
 10
105.5138765245
 20
181.7704565381
 40
0.5
 50
344.3028005322
 51
360.0
  0
ARC
  8
0
 62
7
  6
CONTINUOUS
 10
99.9023671261
 20
181.4404750643
 40
0.5
 50
90.0
 51
171.2987557026
  0
ARC
  8
0
 62
7
  6
CONTINUOUS
 10
98.9138765245
 20
181.5917573517
 40
0.5
 50
326.3320887789
 51
355.3570757819
  0
ARC
  8
0
 62
7
  6
CONTINUOUS
 10
103.9138765245
 20
182.4404750643
 40
0.5
 50
270.0004562218
 51
360.0
  0
ARC
  8
0
 62
7
  6
CONTINUOUS
 10
103.9138765245
 20
183.5104581278
 40
0.5
 50
270.0
 51
360.0
  0
ARC
  8
0
 62
7
  6
CONTINUOUS
 10
106.5138765245
 20
181.7720884614
 40
0.5
 50
90.0
 51
180.0
  0
ARC
  8
0
 62
7
  6
CONTINUOUS
 10
111.0638765245
 20
181.7720884614
 40
0.5
 50
2.4371840855
 51
90.0
  0
ARC
  8
0
 62
7
  6
CONTINUOUS
 10
112.0629720697
 20
181.8146120244
 40
0.5
 50
182.4371266527
 51
191.6146786817
  0
ARC
  8
0
 62
7
  6
CONTINUOUS
 10
112.0638765245
 20
181.8102116108
 40
0.5
 50
180.0
 51
191.6147368593
  0
ARC
  8
0
 62
7
  6
CONTINUOUS
 10
113.6638765245
 20
181.9729415753
 40
0.5
 50
180.0
 51
191.6147368593
  0
ARC
  8
0
 62
7
  6
CONTINUOUS
 10
113.6638765245
 20
183.5104581278
 40
0.5
 50
180.0
 51
270.0
  0
ARC
  8
2_FEATURE
 62
7
  6
CONTINUOUS
 10
111.4138765245
 20
183.6011849945
 40
0.25
 50
180.0
 51
290.0
  0
ARC
  8
0
 62
7
  6
CONTINUOUS
 10
125.1638765245
 20
181.7720884614
 40
0.5
 50
90.0
 51
177.5628159145
  0
ARC
  8
0
 62
7
  6
CONTINUOUS
 10
122.5638765245
 20
181.9729415753
 40
0.5
 50
348.3852631407
 51
360.0
  0
ARC
  8
0
 62
7
  6
CONTINUOUS
 10
124.1647809891
 20
181.8146120724
 40
0.5
 50
348.3853157025
 51
357.5628678034
  0
ARC
  8
0
 62
7
  6
CONTINUOUS
 10
124.1638765245
 20
181.8102116108
 40
0.5
 50
348.3852631407
 51
360.0
  0
ARC
  8
0
 62
7
  6
CONTINUOUS
 10
122.5638765245
 20
183.5104581278
 40
0.5
 50
270.0
 51
360.0
  0
ARC
  8
0
 62
7
  6
CONTINUOUS
 10
130.1638765245
 20
181.7720884614
 40
0.5
 50
2.4371840855
 51
90.0
  0
ARC
  8
0
 62
7
  6
CONTINUOUS
 10
132.7638765245
 20
181.9729415753
 40
0.5
 50
180.0
 51
191.6147368593
  0
ARC
  8
0
 62
7
  6
CONTINUOUS
 10
131.1629720697
 20
181.8146120244
 40
0.5
 50
182.4371266527
 51
191.6146786817
  0
ARC
  8
0
 62
7
  6
CONTINUOUS
 10
131.1638765245
 20
181.8102116108
 40
0.5
 50
180.0
 51
191.6147368593
  0
ARC
  8
0
 62
7
  6
CONTINUOUS
 10
132.7638765245
 20
183.5104581278
 40
0.5
 50
180.0
 51
270.0
  0
ARC
  8
0
 62
7
  6
CONTINUOUS
 10
123.5638765245
 20
190.3620884614
 40
0.5
 50
90.0
 51
180.0
  0
ARC
  8
0
 62
7
  6
CONTINUOUS
 10
131.7638765245
 20
190.3620884614
 40
0.5
 50
0.0
 51
90.0
  0
ARC
  8
0
 62
7
  6
CONTINUOUS
 10
112.6638765245
 20
190.3620884614
 40
0.5
 50
0.0
 51
90.0
  0
ARC
  8
0
 62
7
  6
CONTINUOUS
 10
104.9138765245
 20
190.3620884614
 40
0.5
 50
90.0
 51
180.0
  0
ARC
  8
2_FEATURE
 62
7
  6
CONTINUOUS
 10
111.4138765245
 20
189.6429919282
 40
0.25
 50
70.0
 51
180.0
  0
ARC
  8
0
 62
7
  6
CONTINUOUS
 10
144.2638765245
 20
181.7720884614
 40
0.5
 50
90.0
 51
177.5628159145
  0
ARC
  8
0
 62
7
  6
CONTINUOUS
 10
143.2647809891
 20
181.8146120724
 40
0.5
 50
348.3853157025
 51
357.5628678034
  0
ARC
  8
0
 62
7
  6
CONTINUOUS
 10
143.2638765245
 20
181.8102116108
 40
0.5
 50
348.3852631407
 51
360.0
  0
ARC
  8
0
 62
7
  6
CONTINUOUS
 10
141.6638765245
 20
181.9729415753
 40
0.5
 50
348.3852631407
 51
360.0
  0
ARC
  8
0
 62
7
  6
CONTINUOUS
 10
149.2638765245
 20
181.7720884614
 40
0.5
 50
2.4371840855
 51
90.0
  0
ARC
  8
0
 62
7
  6
CONTINUOUS
 10
150.2629720697
 20
181.8146120244
 40
0.5
 50
182.4371266527
 51
191.6146786817
  0
ARC
  8
0
 62
7
  6
CONTINUOUS
 10
150.2638765245
 20
181.8102116108
 40
0.5
 50
180.0
 51
191.6147368593
  0
ARC
  8
0
 62
7
  6
CONTINUOUS
 10
151.8638765245
 20
181.9729415753
 40
0.5
 50
180.0
 51
191.6147368593
  0
ARC
  8
0
 62
7
  6
CONTINUOUS
 10
141.6638765245
 20
183.5104581278
 40
0.5
 50
270.0
 51
360.0
  0
ARC
  8
0
 62
7
  6
CONTINUOUS
 10
151.8638765245
 20
183.5104581278
 40
0.5
 50
180.0
 51
270.0
  0
ARC
  8
0
 62
7
  6
CONTINUOUS
 10
163.3638765245
 20
181.7720884614
 40
0.5
 50
90.0
 51
177.5628159145
  0
ARC
  8
0
 62
7
  6
CONTINUOUS
 10
168.3638765245
 20
181.7720884614
 40
0.5
 50
2.4371840855
 51
90.0
  0
ARC
  8
0
 62
7
  6
CONTINUOUS
 10
160.7638765245
 20
181.9729415753
 40
0.5
 50
348.3852631407
 51
360.0
  0
ARC
  8
0
 62
7
  6
CONTINUOUS
 10
170.9638765245
 20
181.9729415753
 40
0.5
 50
180.0
 51
191.6147368593
  0
ARC
  8
0
 62
7
  6
CONTINUOUS
 10
162.3647809891
 20
181.8146120724
 40
0.5
 50
348.3853157025
 51
357.5628678034
  0
ARC
  8
0
 62
7
  6
CONTINUOUS
 10
162.3638765245
 20
181.8102116108
 40
0.5
 50
348.3852631407
 51
360.0
  0
ARC
  8
0
 62
7
  6
CONTINUOUS
 10
169.3629720697
 20
181.8146120244
 40
0.5
 50
182.4371266527
 51
191.6146786817
  0
ARC
  8
0
 62
7
  6
CONTINUOUS
 10
169.3638765245
 20
181.8102116108
 40
0.5
 50
180.0
 51
191.6147368593
  0
ARC
  8
0
 62
7
  6
CONTINUOUS
 10
160.7638765245
 20
183.5104581278
 40
0.5
 50
270.0
 51
360.0
  0
ARC
  8
0
 62
7
  6
CONTINUOUS
 10
170.9638765245
 20
183.5104581278
 40
0.5
 50
180.0
 51
270.0
  0
ARC
  8
0
 62
7
  6
CONTINUOUS
 10
142.6638765245
 20
190.3620884614
 40
0.5
 50
90.0
 51
180.0
  0
ARC
  8
0
 62
7
  6
CONTINUOUS
 10
161.7638765245
 20
190.3620884614
 40
0.5
 50
90.0
 51
180.0
  0
ARC
  8
0
 62
7
  6
CONTINUOUS
 10
150.8638765245
 20
190.3620884614
 40
0.5
 50
0.0
 51
90.0
  0
ARC
  8
0
 62
7
  6
CONTINUOUS
 10
169.9638765245
 20
190.3620884614
 40
0.5
 50
0.0
 51
90.0
  0
ARC
  8
0
 62
7
  6
CONTINUOUS
 10
209.5138765245
 20
163.8320884614
 40
0.5
 50
180.0
 51
270.0
  0
ARC
  8
0
 62
7
  6
CONTINUOUS
 10
190.4138765245
 20
163.8320884614
 40
0.5
 50
180.0
 51
270.0
  0
ARC
  8
0
 62
7
  6
CONTINUOUS
 10
179.5138765245
 20
163.8320884614
 40
0.5
 50
270.0
 51
360.0
  0
ARC
  8
0
 62
7
  6
CONTINUOUS
 10
198.6138765245
 20
163.8320884614
 40
0.5
 50
270.0
 51
360.0
  0
ARC
  8
0
 62
7
  6
CONTINUOUS
 10
180.5138765245
 20
170.683718795
 40
0.5
 50
90.0
 51
180.0
  0
ARC
  8
0
 62
7
  6
CONTINUOUS
 10
189.4138768227
 20
170.6837190932
 40
0.4999998509
 50
359.9999658243
 51
90.0000341757
  0
ARC
  8
0
 62
7
  6
CONTINUOUS
 10
192.0138765245
 20
172.4220884614
 40
0.5
 50
182.4371840855
 51
270.0
  0
ARC
  8
0
 62
7
  6
CONTINUOUS
 10
177.9138765245
 20
172.4220884614
 40
0.5
 50
270.0
 51
357.5628159145
  0
ARC
  8
0
 62
7
  6
CONTINUOUS
 10
189.4138765245
 20
172.2212353475
 40
0.5
 50
0.0
 51
11.6147368593
  0
ARC
  8
0
 62
7
  6
CONTINUOUS
 10
180.5138765245
 20
172.2212353475
 40
0.5
 50
168.3852631407
 51
180.0
  0
ARC
  8
0
 62
7
  6
CONTINUOUS
 10
191.0147810004
 20
172.3795647954
 40
0.5
 50
2.4371385497
 51
11.6146907329
  0
ARC
  8
0
 62
7
  6
CONTINUOUS
 10
191.0138765245
 20
172.3839653119
 40
0.5
 50
0.0
 51
11.6147368593
  0
ARC
  8
0
 62
7
  6
CONTINUOUS
 10
178.9129721467
 20
172.379565273
 40
0.5
 50
168.3853651393
 51
177.5629166073
  0
ARC
  8
0
 62
7
  6
CONTINUOUS
 10
178.9138765245
 20
172.3839653119
 40
0.5
 50
168.3852631407
 51
180.0
  0
ARC
  8
0
 62
7
  6
CONTINUOUS
 10
199.6138765245
 20
170.683718795
 40
0.5
 50
90.0
 51
180.0
  0
ARC
  8
0
 62
7
  6
CONTINUOUS
 10
208.5138768227
 20
170.6837190932
 40
0.4999998509
 50
359.9999658243
 51
90.0000341757
  0
ARC
  8
0
 62
7
  6
CONTINUOUS
 10
211.1138765245
 20
172.4220884614
 40
0.5
 50
182.4371840855
 51
270.0
  0
ARC
  8
0
 62
7
  6
CONTINUOUS
 10
197.0138765245
 20
172.4220884614
 40
0.5
 50
270.0
 51
357.5628159145
  0
ARC
  8
0
 62
7
  6
CONTINUOUS
 10
208.5138765245
 20
172.2212353475
 40
0.5
 50
0.0
 51
11.6147368593
  0
ARC
  8
0
 62
7
  6
CONTINUOUS
 10
199.6138765245
 20
172.2212353475
 40
0.5
 50
168.3852631407
 51
180.0
  0
ARC
  8
0
 62
7
  6
CONTINUOUS
 10
198.0129721467
 20
172.379565273
 40
0.5
 50
168.3853651393
 51
177.5629166073
  0
ARC
  8
0
 62
7
  6
CONTINUOUS
 10
198.0138765245
 20
172.3839653119
 40
0.5
 50
168.3852631407
 51
180.0
  0
ARC
  8
0
 62
7
  6
CONTINUOUS
 10
210.1147810004
 20
172.3795647954
 40
0.5
 50
2.4371385497
 51
11.6146907329
  0
ARC
  8
0
 62
7
  6
CONTINUOUS
 10
210.1138765245
 20
172.3839653119
 40
0.5
 50
0.0
 51
11.6147368593
  0
ARC
  8
0
 62
7
  6
CONTINUOUS
 10
250.9138765245
 20
163.8320884614
 40
0.5
 50
270.0
 51
360.0
  0
ARC
  8
0
 62
7
  6
CONTINUOUS
 10
247.9638765245
 20
163.8320884614
 40
0.5
 50
180.0
 51
270.0
  0
ARC
  8
0
 62
7
  6
CONTINUOUS
 10
228.6138765245
 20
163.8320884614
 40
0.5
 50
180.0
 51
270.0
  0
ARC
  8
0
 62
7
  6
CONTINUOUS
 10
217.7138765245
 20
163.8320884614
 40
0.5
 50
270.0
 51
360.0
  0
ARC
  8
0
 62
7
  6
CONTINUOUS
 10
236.8138765245
 20
163.8320884614
 40
0.5
 50
270.0
 51
360.0
  0
ARC
  8
0
 62
7
  6
CONTINUOUS
 10
218.7138765245
 20
170.683718795
 40
0.5
 50
90.0
 51
180.0
  0
ARC
  8
0
 62
7
  6
CONTINUOUS
 10
227.6138768227
 20
170.6837190932
 40
0.4999998509
 50
359.9999658243
 51
90.0000341757
  0
ARC
  8
0
 62
7
  6
CONTINUOUS
 10
230.2138765245
 20
172.4220884614
 40
0.5
 50
182.4371840855
 51
270.0
  0
ARC
  8
0
 62
7
  6
CONTINUOUS
 10
216.1138765245
 20
172.4220884614
 40
0.5
 50
270.0
 51
357.5628159145
  0
ARC
  8
0
 62
7
  6
CONTINUOUS
 10
227.6138765245
 20
172.2212353475
 40
0.5
 50
0.0
 51
11.6147368593
  0
ARC
  8
0
 62
7
  6
CONTINUOUS
 10
218.7138765245
 20
172.2212353475
 40
0.5
 50
168.3852631407
 51
180.0
  0
ARC
  8
0
 62
7
  6
CONTINUOUS
 10
229.2147810004
 20
172.3795647954
 40
0.5
 50
2.4371385497
 51
11.6146907329
  0
ARC
  8
0
 62
7
  6
CONTINUOUS
 10
229.2138765245
 20
172.3839653119
 40
0.5
 50
0.0
 51
11.6147368593
  0
ARC
  8
0
 62
7
  6
CONTINUOUS
 10
217.1129721467
 20
172.379565273
 40
0.5
 50
168.3853651393
 51
177.5629166073
  0
ARC
  8
0
 62
7
  6
CONTINUOUS
 10
217.1138765245
 20
172.3839653119
 40
0.5
 50
168.3852631407
 51
180.0
  0
ARC
  8
0
 62
7
  6
CONTINUOUS
 10
237.8138765245
 20
170.683718795
 40
0.5
 50
90.0
 51
180.0
  0
ARC
  8
0
 62
7
  6
CONTINUOUS
 10
246.9638768227
 20
170.6837190932
 40
0.4999998509
 50
359.9999658243
 51
90.0000341757
  0
ARC
  8
0
 62
7
  6
CONTINUOUS
 10
251.9138765245
 20
171.3223682831
 40
0.5
 50
143.1301023542
 51
180.0
  0
ARC
  8
0
 62
7
  6
CONTINUOUS
 10
235.2138765245
 20
172.4220884614
 40
0.5
 50
270.0
 51
357.5628159145
  0
ARC
  8
0
 62
7
  6
CONTINUOUS
 10
237.8138765245
 20
172.2212353475
 40
0.5
 50
168.3852631407
 51
180.0
  0
ARC
  8
0
 62
7
  6
CONTINUOUS
 10
236.2129721467
 20
172.379565273
 40
0.5
 50
168.3853651393
 51
177.5629166073
  0
ARC
  8
0
 62
7
  6
CONTINUOUS
 10
236.2138765245
 20
172.3839653119
 40
0.5
 50
168.3852631407
 51
180.0
  0
ARC
  8
0
 62
7
  6
CONTINUOUS
 10
251.1138765245
 20
171.9223682831
 40
0.5
 50
323.1301023542
 51
360.0
  0
ARC
  8
0
 62
7
  6
CONTINUOUS
 10
246.9638765245
 20
172.2031648599
 40
0.5
 50
0.0
 51
15.6971994678
  0
ARC
  8
0
 62
7
  6
CONTINUOUS
 10
249.5638765245
 20
172.4220884614
 40
0.5
 50
180.0
 51
270.0
  0
ARC
  8
0
 62
7
  6
CONTINUOUS
 10
248.5638765245
 20
172.4237203847
 40
0.5
 50
0.0
 51
15.6971994678
  0
ARC
  8
0
 62
7
  6
CONTINUOUS
 10
249.6138765245
 20
172.4220884614
 40
0.5
 50
270.0
 51
360.0
  0
ARC
  8
0
 62
7
  6
CONTINUOUS
 10
182.4638765245
 20
181.7720884614
 40
0.5
 50
90.0
 51
177.5628159145
  0
ARC
  8
0
 62
7
  6
CONTINUOUS
 10
187.4638765245
 20
181.7720884614
 40
0.5
 50
2.4371840855
 51
90.0
  0
ARC
  8
0
 62
7
  6
CONTINUOUS
 10
179.8638765245
 20
181.9729415753
 40
0.5
 50
348.3852631407
 51
360.0
  0
ARC
  8
0
 62
7
  6
CONTINUOUS
 10
190.0638765245
 20
181.9729415753
 40
0.5
 50
180.0
 51
191.6147368593
  0
ARC
  8
0
 62
7
  6
CONTINUOUS
 10
188.4629720697
 20
181.8146120244
 40
0.5
 50
182.4371266527
 51
191.6146786817
  0
ARC
  8
0
 62
7
  6
CONTINUOUS
 10
188.4638765245
 20
181.8102116108
 40
0.5
 50
180.0
 51
191.6147368593
  0
ARC
  8
0
 62
7
  6
CONTINUOUS
 10
181.4647809891
 20
181.8146120724
 40
0.5
 50
348.3853157025
 51
357.5628678034
  0
ARC
  8
0
 62
7
  6
CONTINUOUS
 10
181.4638765245
 20
181.8102116108
 40
0.5
 50
348.3852631407
 51
360.0
  0
ARC
  8
0
 62
7
  6
CONTINUOUS
 10
179.8638765245
 20
183.5104581278
 40
0.5
 50
270.0
 51
360.0
  0
ARC
  8
0
 62
7
  6
CONTINUOUS
 10
190.0638765245
 20
183.5104581278
 40
0.5
 50
180.0
 51
270.0
  0
ARC
  8
0
 62
7
  6
CONTINUOUS
 10
201.5638765245
 20
181.7720884614
 40
0.5
 50
90.0
 51
177.5628159145
  0
ARC
  8
0
 62
7
  6
CONTINUOUS
 10
206.5638765245
 20
181.7720884614
 40
0.5
 50
2.4371840855
 51
90.0
  0
ARC
  8
0
 62
7
  6
CONTINUOUS
 10
198.9638765245
 20
181.9729415753
 40
0.5
 50
348.3852631407
 51
360.0
  0
ARC
  8
0
 62
7
  6
CONTINUOUS
 10
209.1638765245
 20
181.9729415753
 40
0.5
 50
180.0
 51
191.6147368593
  0
ARC
  8
0
 62
7
  6
CONTINUOUS
 10
200.5647809891
 20
181.8146120724
 40
0.5
 50
348.3853157025
 51
357.5628678034
  0
ARC
  8
0
 62
7
  6
CONTINUOUS
 10
200.5638765245
 20
181.8102116108
 40
0.5
 50
348.3852631407
 51
360.0
  0
ARC
  8
0
 62
7
  6
CONTINUOUS
 10
207.5629720697
 20
181.8146120244
 40
0.5
 50
182.4371266527
 51
191.6146786817
  0
ARC
  8
0
 62
7
  6
CONTINUOUS
 10
207.5638765245
 20
181.8102116108
 40
0.5
 50
180.0
 51
191.6147368593
  0
ARC
  8
0
 62
7
  6
CONTINUOUS
 10
198.9638765245
 20
183.5104581278
 40
0.5
 50
270.0
 51
360.0
  0
ARC
  8
0
 62
7
  6
CONTINUOUS
 10
209.1638765245
 20
183.5104581278
 40
0.5
 50
180.0
 51
270.0
  0
CIRCLE
  8
1_AXIS
 62
7
  6
CONTINUOUS
 10
183.3888765245
 20
185.8770884614
 40
0.765
  0
ARC
  8
1_AXIS
 62
7
  6
CONTINUOUS
 10
186.7038765245
 20
187.4970884614
 40
0.6
 50
0.0
 51
90.0
  0
ARC
  8
1_AXIS
 62
7
  6
CONTINUOUS
 10
184.3638765245
 20
187.3170884614
 40
0.6
 50
180.0
 51
270.0
  0
ARC
  8
1_AXIS
 62
7
  6
CONTINUOUS
 10
186.5538765245
 20
187.5552134614
 40
0.541875
 50
90.0
 51
146.1449738717
  0
ARC
  8
1_AXIS
 62
7
  6
CONTINUOUS
 10
184.5138765245
 20
187.2589634614
 40
0.541875
 50
270.0
 51
326.1449738717
  0
ARC
  8
0
 62
7
  6
CONTINUOUS
 10
199.9638765245
 20
190.3620884614
 40
0.5
 50
90.0
 51
180.0
  0
ARC
  8
0
 62
7
  6
CONTINUOUS
 10
180.8638765245
 20
190.3620884614
 40
0.5
 50
90.0
 51
180.0
  0
ARC
  8
0
 62
7
  6
CONTINUOUS
 10
189.0638765245
 20
190.3620884614
 40
0.5
 50
0.0
 51
90.0
  0
ARC
  8
0
 62
7
  6
CONTINUOUS
 10
208.1638765245
 20
190.3620884614
 40
0.5
 50
0.0
 51
90.0
  0
ARC
  8
1_AXIS
 62
7
  6
CONTINUOUS
 10
186.4038765245
 20
187.3770884614
 40
0.3
 50
90.0
 51
180.0
  0
ARC
  8
1_AXIS
 62
7
  6
CONTINUOUS
 10
184.6638765245
 20
187.4370884614
 40
0.3
 50
270.0
 51
360.0
  0
ARC
  8
1_AXIS
 62
7
  6
CONTINUOUS
 10
186.6438765245
 20
187.5270884614
 40
0.15
 50
0.0
 51
90.0
  0
ARC
  8
1_AXIS
 62
7
  6
CONTINUOUS
 10
184.4238765245
 20
187.2870884614
 40
0.15
 50
180.0
 51
270.0
  0
ARC
  8
0
 62
7
  6
CONTINUOUS
 10
220.6638765245
 20
181.7720884614
 40
0.5
 50
90.0
 51
177.5628159145
  0
ARC
  8
0
 62
7
  6
CONTINUOUS
 10
218.0638765245
 20
181.9729415753
 40
0.5
 50
348.3852631407
 51
360.0
  0
ARC
  8
0
 62
7
  6
CONTINUOUS
 10
219.6647809891
 20
181.8146120724
 40
0.5
 50
348.3853157025
 51
357.5628678034
  0
ARC
  8
0
 62
7
  6
CONTINUOUS
 10
219.6638765245
 20
181.8102116108
 40
0.5
 50
348.3852631407
 51
360.0
  0
ARC
  8
0
 62
7
  6
CONTINUOUS
 10
218.0638765245
 20
183.5104581278
 40
0.5
 50
270.0
 51
360.0
  0
ARC
  8
0
 62
7
  6
CONTINUOUS
 10
225.6638765245
 20
181.7720884614
 40
0.5
 50
2.4371840855
 51
90.0
  0
ARC
  8
0
 62
7
  6
CONTINUOUS
 10
228.2638765245
 20
181.9729415753
 40
0.5
 50
180.0
 51
191.6147368593
  0
ARC
  8
0
 62
7
  6
CONTINUOUS
 10
226.6629720697
 20
181.8146120244
 40
0.5
 50
182.4371266527
 51
191.6146786817
  0
ARC
  8
0
 62
7
  6
CONTINUOUS
 10
226.6638765245
 20
181.8102116108
 40
0.5
 50
180.0
 51
191.6147368593
  0
ARC
  8
0
 62
7
  6
CONTINUOUS
 10
228.2638765245
 20
183.5104581278
 40
0.5
 50
180.0
 51
270.0
  0
ARC
  8
0
 62
7
  6
CONTINUOUS
 10
248.6138765245
 20
179.0204750643
 40
1.5
 50
0.0
 51
90.0
  0
ARC
  8
0
 62
7
  6
CONTINUOUS
 10
251.1138765245
 20
180.9889412757
 40
0.5
 50
0.0
 51
33.6679112211
  0
ARC
  8
0
 62
7
  6
CONTINUOUS
 10
247.467665569
 20
180.0204750643
 40
0.5
 50
90.0
 51
195.6971994678
  0
ARC
  8
0
 62
7
  6
CONTINUOUS
 10
239.7638765245
 20
181.7720884614
 40
0.5
 50
90.0
 51
177.5628159145
  0
ARC
  8
0
 62
7
  6
CONTINUOUS
 10
238.7647809891
 20
181.8146120724
 40
0.5
 50
348.3853157025
 51
357.5628678034
  0
ARC
  8
0
 62
7
  6
CONTINUOUS
 10
238.7638765245
 20
181.8102116108
 40
0.5
 50
348.3852631407
 51
360.0
  0
ARC
  8
0
 62
7
  6
CONTINUOUS
 10
237.1638765245
 20
181.9729415753
 40
0.5
 50
348.3852631407
 51
360.0
  0
ARC
  8
0
 62
7
  6
CONTINUOUS
 10
244.3138765245
 20
181.7720884614
 40
0.5
 50
0.0
 51
90.0
  0
ARC
  8
0
 62
7
  6
CONTINUOUS
 10
237.1638765245
 20
183.5104581278
 40
0.5
 50
270.0
 51
360.0
  0
ARC
  8
2_FEATURE
 62
7
  6
CONTINUOUS
 10
239.4138765245
 20
183.6011849945
 40
0.25
 50
250.0
 51
360.0
  0
ARC
  8
0
 62
7
  6
CONTINUOUS
 10
246.9138765245
 20
181.9910120629
 40
0.5
 50
180.0
 51
195.6971994678
  0
ARC
  8
0
 62
7
  6
CONTINUOUS
 10
245.3138765245
 20
181.7704565381
 40
0.5
 50
180.0
 51
195.6971994678
  0
ARC
  8
0
 62
7
  6
CONTINUOUS
 10
251.9138765245
 20
181.5917573517
 40
0.5
 50
179.9999999998
 51
213.6679112211
  0
ARC
  8
0
 62
7
  6
CONTINUOUS
 10
246.9138765245
 20
182.4404750643
 40
0.5
 50
179.997439548
 51
269.9995437327
  0
ARC
  8
0
 62
7
  6
CONTINUOUS
 10
250.9253859228
 20
181.4404750643
 40
0.5
 50
8.7012442974
 51
90.0
  0
ARC
  8
0
 62
7
  6
CONTINUOUS
 10
246.9138765245
 20
183.5104581278
 40
0.5
 50
180.0
 51
270.0
  0
ARC
  8
0
 62
7
  6
CONTINUOUS
 10
238.1638765245
 20
190.3620884614
 40
0.5
 50
90.0
 51
180.0
  0
ARC
  8
0
 62
7
  6
CONTINUOUS
 10
219.0638765245
 20
190.3620884614
 40
0.5
 50
90.0
 51
180.0
  0
ARC
  8
0
 62
7
  6
CONTINUOUS
 10
227.2638765245
 20
190.3620884614
 40
0.5
 50
0.0
 51
90.0
  0
ARC
  8
0
 62
7
  6
CONTINUOUS
 10
245.9138765245
 20
190.3620884614
 40
0.5
 50
0.0
 51
90.0
  0
ARC
  8
2_FEATURE
 62
7
  6
CONTINUOUS
 10
239.4138765245
 20
189.6429919282
 40
0.25
 50
0.0
 51
110.0
  0
ARC
  8
0
 62
7
  6
CONTINUOUS
 10
335.8414299726
 20
182.5104581278
 40
0.5
 50
48.40371125
 51
180.0
  0
ARC
  8
0
 62
7
  6
CONTINUOUS
 10
337.8342898466
 20
182.4404750643
 40
0.5
 50
248.3817529699
 51
270.0002488877
  0
ARC
  8
0
 62
7
  6
CONTINUOUS
 10
339.4914299726
 20
167.5720884614
 40
4.35
 50
197.4415938563
 51
257.0875457171
  0
ARC
  8
0
 62
7
  6
CONTINUOUS
 10
339.4914299726
 20
167.5720884614
 40
4.35
 50
282.9124542829
 51
49.4972506304
  0
CIRCLE
  8
2_FEATURE
 62
7
  6
CONTINUOUS
 10
339.4914299726
 20
167.5720884614
 40
2.6
  0
ARC
  8
0
 62
7
  6
CONTINUOUS
 10
342.6414299726
 20
171.2599062443
 40
0.5
 50
180.0
 51
229.4972506304
  0
ARC
  8
0
 62
7
  6
CONTINUOUS
 10
339.4914299726
 20
186.6220884614
 40
4.998
 50
228.40371125
 51
246.196975036
  0
ARC
  8
2_FEATURE
 62
7
  6
CONTINUOUS
 10
339.4914299726
 20
186.6220884614
 40
4.35
 50
0.7220806611
 51
6.0741569074
  0
ARC
  8
2_FEATURE
 62
7
  6
CONTINUOUS
 10
339.4914299726
 20
186.6220884614
 40
4.35
 50
9.4302465944
 51
12.8727158898
  0
ARC
  8
2_FEATURE
 62
7
  6
CONTINUOUS
 10
339.4914299726
 20
186.6220884614
 40
4.35
 50
16.2281325442
 51
19.671241276
  0
ARC
  8
0
 62
7
  6
CONTINUOUS
 10
339.4914299726
 20
186.6220884614
 40
4.35
 50
0.0
 51
77.0875457171
  0
ARC
  8
0
 62
7
  6
CONTINUOUS
 10
339.4914299726
 20
186.6220884614
 40
4.35
 50
102.9124542829
 51
162.5584061437
  0
ARC
  8
2_FEATURE
 62
7
  6
CONTINUOUS
 10
339.4914299726
 20
186.6220884614
 40
4.35
 50
37.5416444405
 51
38.0639678859
  0
CIRCLE
  8
0
 62
7
  6
CONTINUOUS
 10
339.4914299726
 20
186.6220884614
 40
2.6
  0
ARC
  8
0
 62
7
  6
CONTINUOUS
 10
341.6414299726
 20
181.4404750643
 40
0.5
 50
0.0
 51
90.0
  0
ENDSEC
  0
EOF
