  0
SECTION
  2
HEADER
  9
$EXTMAX
 10
420.0
 20
297.0
 30
0.0
  9
$EXTMIN
 10
0.0
 20
0.0
 30
0.0
  9
$LIMMIN
 10
0.0
 20
0.0
  9
$LIMMAX
 10
420.0
 20
297.0
  9
$VIEWCTR
 10
210.0
 20
148.5
  9
$VIEWSIZE
 40
297.0
  9
$CLAYER
  8
0
  9
$LTSCALE
 40
23.1
  9
$CELTYPE
  6
BYLAYER
  9
$DIMSCALE
 40
1.0
  9
$DIMASZ
 40
3.5
  9
$DIMEXO
 40
1.0
  9
$DIMDLI
 40
15.96
  9
$DIMEXE
 40
2.0
  9
$DIMCEN
 40
3.78
  9
$DIMLFAC
 40
1.0
  9
$DIMBLK
  1
_FILLED
  9
$DIMTXT
 40
3.5
  9
$PDMODE
 70
3
  9
$PDSIZE
 40
0.3125
  9
$TILEMODE
 70
1
  0
ENDSEC
  0
SECTION
  2
TABLES
  0
TABLE
  2
LTYPE
 70
6
  0
LTYPE
  2
BYBLOCK
 70
0
  3

 72
65
 73
0
 40
0.0
  0
LTYPE
  2
BYLAYER
 70
0
  3

 72
65
 73
0
 40
0.0
  0
LTYPE
  2
CONTINUOUS
 70
64
  3
Solid line
 72
65
 73
0
 40
0.0
  0
LTYPE
  2
CENTER
 70
64
  3
____ _ ____ _ ____ _ ____ _ ____ _ ____ _ ____
 72
65
 73
4
 40
0.6
 49
0.375
 49
-0.075
 49
0.075
 49
-0.075
  0
LTYPE
  2
HIDDEN
 70
64
  3
- - - - - - - - - - - - - - - - - - - -
 72
65
 73
2
 40
0.2
 49
0.1
 49
-0.1
  0
LTYPE
  2
PHANTOM
 70
64
  3
_____ _ _ _____ _ _ _____ _ _ _____
 72
65
 73
6
 40
0.8
 49
0.45
 49
-0.05
 49
0.1
 49
-0.05
 49
0.1
 49
-0.05
  0
LTYPE
  2
DOT
 70
64
  3
. . . . . . . . . . . . . . . . . . . .
 72
65
 73
2
 40
0.2
 49
0.1
 49
-0.1
  0
LTYPE
  2
DASHED
 70
64
  3
- - - - - - - - - - - - - - - - - - - -
 72
65
 73
2
 40
0.2
 49
0.1
 49
-0.1
  0
ENDTAB
  0
TABLE
  2
LAYER
 70
36
  0
LAYER
  2
0
 70
0
 62
7
  6
CONTINUOUS
  0
LAYER
  2
DEFAULT_1
 70
0
 62
7
  6
CENTER
  0
LAYER
  2
DEFAULT_2
 70
0
 62
8
  6
HIDDEN
  0
LAYER
  2
DEFAULT_3
 70
0
 62
7
  6
PHANTOM
  0
LAYER
  2
1_AXIS
 70
0
 62
7
  6
CONTINUOUS
  0
LAYER
  2
1_DATUMPLANE
 70
0
 62
7
  6
CONTINUOUS
  0
LAYER
  2
1_DATUM_PLANES
 70
0
 62
7
  6
CONTINUOUS
  0
LAYER
  2
2_FEATURE
 70
0
 62
7
  6
CONTINUOUS
  0
LAYER
  2
3_CURVE
 70
0
 62
7
  6
CONTINUOUS
  0
LAYER
  2
4_QUILT
 70
0
 62
7
  6
CONTINUOUS
  0
LAYER
  2
4_SURFACE
 70
0
 62
7
  6
CONTINUOUS
  0
LAYER
  2
6_DIM
 70
0
 62
7
  6
CONTINUOUS
  0
LAYER
  2
COPY_GEO
 70
0
 62
7
  6
CONTINUOUS
  0
LAYER
  2
CSYS
 70
0
 62
7
  6
CONTINUOUS
  0
LAYER
  2
CURVE
 70
0
 62
7
  6
CONTINUOUS
  0
LAYER
  2
NOTES
 70
0
 62
7
  6
CONTINUOUS
  0
LAYER
  2
SURFACE
 70
0
 62
7
  6
CONTINUOUS
  0
ENDTAB
  0
TABLE
  2
STYLE
 70
1
  0
STYLE
  2
STANDARD
 70
0
 40
0.0
 41
0.8
 50
0.0
 71
0
 42
0.2
  3
txt
  4

  0
STYLE
  2
TEXTSTYLE_1
 70
0
 40
0.0
 41
0.8
 50
0.0
 71
0
 42
0.2
  3
gdt
  4

  0
STYLE
  2
TEXTSTYLE_2
 70
0
 40
0.0
 41
0.6
 50
0.0
 71
0
 42
0.2
  3
txt
  4

  0
STYLE
  2
TEXTSTYLE_3
 70
0
 40
0.0
 41
1.0
 50
0.0
 71
0
 42
0.2
  3
ftb_____.ttf
  4

  0
STYLE
  2
TEXTSTYLE_4
 70
0
 40
0.0
 41
1.0
 50
0.0
 71
0
 42
0.2
  3
fti_____.ttf
  4

  0
STYLE
  2
TEXTSTYLE_5
 70
0
 40
0.0
 41
1.0
 50
0.0
 71
0
 42
0.2
  3
frutiger light.ttf
  4

  0
STYLE
  2
TEXTSTYLE_6
 70
0
 40
0.0
 41
0.7
 50
0.0
 71
0
 42
0.2
  3
txt
  4

  0
STYLE
  2
TEXTSTYLE_7
 70
0
 40
0.0
 41
0.7
 50
0.0
 71
0
 42
0.2
  3
txt
  4

  0
ENDTAB
  0
ENDSEC
  0
SECTION
  2
BLOCKS
  0
BLOCK
  8
0
 62
2
  6
CONTINUOUS
  2
SYMBOL_5_BL1
 70
64
 10
382.7840918555
 20
35.5067593403
  0
TEXT
  8
0
 62
7
  6
CONTINUOUS
 10
373.842376864
 20
30.5995157174
  7
TEXTSTYLE_4
 40
1.0655737705
  1
The brand for plastic modular belts and chains
 41
1.0
 72
0
  0
LINE
  8
0
 62
7
  6
CONTINUOUS
 10
358.7621602445
 20
36.0805298321
 11
358.7621602445
 21
33.9493822911
  0
LINE
  8
0
 62
7
  6
CONTINUOUS
 10
359.0512227376
 20
30.9584509954
 11
359.0512227376
 21
31.0552420547
  0
LINE
  8
0
 62
7
  6
CONTINUOUS
 10
358.7621602445
 20
31.0229783683
 11
358.8199727462
 21
30.8293962497
  0
LINE
  8
0
 62
7
  6
CONTINUOUS
 10
360.1556028675
 20
33.867415078
 11
360.1556028675
 21
36.0805298321
  0
LINE
  8
0
 62
7
  6
CONTINUOUS
 10
361.0746601894
 20
32.0231527829
 11
361.0746601894
 21
30.5067593403
  0
LINE
  8
0
 62
7
  6
CONTINUOUS
 10
361.3637227445
 20
30.5067593403
 11
361.3637227445
 21
31.2488242184
  0
LINE
  8
0
 62
7
  6
CONTINUOUS
 10
361.3637227445
 20
31.3778789641
 11
361.3637227445
 21
32.0231527829
  0
LINE
  8
0
 62
7
  6
CONTINUOUS
 10
358.8199727462
 20
31.216560532
 11
358.7621602445
 21
31.0229783683
  0
LINE
  8
0
 62
7
  6
CONTINUOUS
 10
359.1668477307
 20
30.7971325633
 11
359.0512227376
 21
30.9584509954
  0
LINE
  8
0
 62
7
  6
CONTINUOUS
 10
360.2652852997
 20
31.3133515913
 11
360.3230977445
 21
31.216560532
  0
LINE
  8
0
 62
7
  6
CONTINUOUS
 10
360.6121602997
 20
31.216560532
 11
360.5543476894
 21
31.3456152777
  0
LINE
  8
0
 62
7
  6
CONTINUOUS
 10
362.0408487691
 20
36.0805298321
 11
362.0408487691
 21
34.2772511436
  0
LINE
  8
0
 62
7
  6
CONTINUOUS
 10
362.0408487691
 20
32.9657757338
 11
362.0408487691
 21
32.3100380288
  0
LINE
  8
0
 62
7
  6
CONTINUOUS
 10
362.4043477445
 20
31.1520331591
 11
362.4043477445
 21
30.5067593403
  0
LINE
  8
0
 62
7
  6
CONTINUOUS
 10
362.6934101343
 20
30.5067593403
 11
362.6934101343
 21
31.1520331591
  0
LINE
  8
0
 62
7
  6
CONTINUOUS
 10
359.0512227376
 20
31.0552420547
 11
359.1090352445
 21
31.1842968456
  0
LINE
  8
0
 62
7
  6
CONTINUOUS
 10
358.8199727462
 20
30.8293962497
 11
358.9355977445
 21
30.7003414814
  0
LINE
  8
0
 62
7
  6
CONTINUOUS
 10
362.3465351343
 20
31.2810879048
 11
362.4043477445
 21
31.1520331591
  0
LINE
  8
0
 62
7
  6
CONTINUOUS
 10
363.1559103548
 20
30.7971325633
 11
363.2137226343
 21
30.668077795
  0
LINE
  8
0
 62
7
  6
CONTINUOUS
 10
362.6934101343
 20
31.1520331591
 11
362.6355978548
 21
31.3133515913
  0
LINE
  8
0
 62
7
  6
CONTINUOUS
 10
363.1559103548
 20
31.3456152777
 11
363.1559103548
 21
31.2810879048
  0
LINE
  8
0
 62
7
  6
CONTINUOUS
 10
363.1559103548
 20
30.8939236226
 11
363.1559103548
 21
30.7971325633
  0
LINE
  8
0
 62
7
  6
CONTINUOUS
 10
363.4342913921
 20
32.3100380288
 11
363.4342913921
 21
36.0805298321
  0
LINE
  8
0
 62
7
  6
CONTINUOUS
 10
363.4449727445
 20
30.7648688543
 11
363.4449727445
 21
30.8293962497
  0
LINE
  8
0
 62
7
  6
CONTINUOUS
 10
363.7621602445
 20
36.0805298321
 11
363.7621602445
 21
32.3100380288
  0
LINE
  8
0
 62
7
  6
CONTINUOUS
 10
360.5543476894
 20
30.7003414814
 11
360.6121602997
 21
30.8293962497
  0
LINE
  8
0
 62
7
  6
CONTINUOUS
 10
364.9480979651
 20
30.6035504109
 11
364.890285024
 21
30.7648688543
  0
LINE
  8
0
 62
7
  6
CONTINUOUS
 10
364.6012229651
 20
31.2810879048
 11
364.6012229651
 21
31.1842968456
  0
LINE
  8
0
 62
7
  6
CONTINUOUS
 10
364.6012229651
 20
31.0552420547
 11
364.6012229651
 21
30.8616599362
  0
LINE
  8
0
 62
7
  6
CONTINUOUS
 10
364.890285024
 20
30.7648688543
 11
364.890285024
 21
31.2810879048
  0
LINE
  8
0
 62
7
  6
CONTINUOUS
 10
365.1556028675
 20
32.3100380288
 11
365.1556028675
 21
34.1133167174
  0
LINE
  8
0
 62
7
  6
CONTINUOUS
 10
365.1556028675
 20
35.4247921272
 11
365.1556028675
 21
36.0805298321
  0
LINE
  8
0
 62
7
  6
CONTINUOUS
 10
365.4684104651
 20
32.0231527829
 11
365.4684104651
 21
31.8618343508
  0
LINE
  8
0
 62
7
  6
CONTINUOUS
 10
365.4684104651
 20
31.5391973962
 11
365.4684104651
 21
30.5067593403
  0
LINE
  8
0
 62
7
  6
CONTINUOUS
 10
365.757472524
 20
30.5067593403
 11
365.757472524
 21
31.5391973962
  0
LINE
  8
0
 62
7
  6
CONTINUOUS
 10
365.757472524
 20
31.8618343508
 11
365.757472524
 21
32.0231527829
  0
LINE
  8
0
 62
7
  6
CONTINUOUS
 10
360.3230977445
 20
30.8293962497
 11
360.2652852997
 21
30.7326051679
  0
LINE
  8
0
 62
7
  6
CONTINUOUS
 10
362.6355978548
 20
31.3133515913
 11
362.5777852445
 21
31.3778789641
  0
LINE
  8
0
 62
7
  6
CONTINUOUS
 10
363.5027853548
 20
30.7003414814
 11
363.4449727445
 21
30.7648688543
  0
LINE
  8
0
 62
7
  6
CONTINUOUS
 10
364.6590352445
 20
30.5712867188
 11
364.716847524
 21
30.5067593403
  0
LINE
  8
0
 62
7
  6
CONTINUOUS
 10
364.6012229651
 20
30.668077795
 11
364.6590352445
 21
30.5712867188
  0
LINE
  8
0
 62
7
  6
CONTINUOUS
 10
365.0059102445
 20
30.5067593403
 11
364.9480979651
 21
30.6035504109
  0
LINE
  8
0
 62
7
  6
CONTINUOUS
 10
364.890285024
 20
31.2810879048
 11
364.8324727445
 21
31.3778789641
  0
LINE
  8
0
 62
7
  6
CONTINUOUS
 10
366.2199727445
 20
31.5391973962
 11
366.2199727445
 21
30.5067593403
  0
LINE
  8
0
 62
7
  6
CONTINUOUS
 10
366.5090354651
 20
30.5067593403
 11
366.5090354651
 21
31.2488242184
  0
LINE
  8
0
 62
7
  6
CONTINUOUS
 10
366.5090354651
 20
31.3778789641
 11
366.5090354651
 21
31.5391973962
  0
LINE
  8
0
 62
7
  6
CONTINUOUS
 10
367.0408487691
 20
34.5231527829
 11
367.0408487691
 21
32.3100380288
  0
LINE
  8
0
 62
7
  6
CONTINUOUS
 10
358.9355977445
 20
31.3456152777
 11
358.8199727462
 21
31.216560532
  0
LINE
  8
0
 62
7
  6
CONTINUOUS
 10
359.1090352445
 20
31.1842968456
 11
359.1668477307
 21
31.2488242184
  0
LINE
  8
0
 62
7
  6
CONTINUOUS
 10
358.9355977445
 20
30.7003414814
 11
359.0512227376
 21
30.6358140973
  0
LINE
  8
0
 62
7
  6
CONTINUOUS
 10
359.3402852307
 20
30.7003414814
 11
359.1668477307
 21
30.7971325633
  0
LINE
  8
0
 62
7
  6
CONTINUOUS
 10
364.543410024
 20
31.3456152777
 11
364.6012229651
 21
31.2810879048
  0
LINE
  8
0
 62
7
  6
CONTINUOUS
 10
367.491847524
 20
31.2810879048
 11
367.5496604651
 21
31.1197694727
  0
LINE
  8
0
 62
7
  6
CONTINUOUS
 10
367.838722524
 20
31.1197694727
 11
367.7809102445
 21
31.2810879048
  0
LINE
  8
0
 62
7
  6
CONTINUOUS
 10
367.5496604651
 20
31.1197694727
 11
367.5496604651
 21
30.5067593403
  0
LINE
  8
0
 62
7
  6
CONTINUOUS
 10
367.838722524
 20
30.5067593403
 11
367.838722524
 21
31.1197694727
  0
LINE
  8
0
 62
7
  6
CONTINUOUS
 10
368.3012227445
 20
31.3456152777
 11
368.3012227445
 21
31.2810879048
  0
LINE
  8
0
 62
7
  6
CONTINUOUS
 10
368.4342913921
 20
32.3100380288
 11
368.4342913921
 21
34.4411855698
  0
LINE
  8
0
 62
7
  6
CONTINUOUS
 10
368.7621602445
 20
36.0805298321
 11
368.7621602445
 21
32.3100380288
  0
LINE
  8
0
 62
7
  6
CONTINUOUS
 10
363.4449727445
 20
30.8293962497
 11
363.5027853548
 21
30.926187309
  0
LINE
  8
0
 62
7
  6
CONTINUOUS
 10
359.0512227376
 20
30.6358140973
 11
359.2246602583
 21
30.5712867188
  0
LINE
  8
0
 62
7
  6
CONTINUOUS
 10
360.5543476894
 20
31.3456152777
 11
360.3809101894
 21
31.4424063369
  0
LINE
  8
0
 62
7
  6
CONTINUOUS
 10
363.2137226343
 20
30.668077795
 11
363.3871601343
 21
30.5712867188
  0
LINE
  8
0
 62
7
  6
CONTINUOUS
 10
362.2309102445
 20
31.3456152777
 11
362.3465351343
 21
31.2810879048
  0
LINE
  8
0
 62
7
  6
CONTINUOUS
 10
362.5777852445
 20
31.3778789641
 11
362.4621603548
 21
31.4424063369
  0
LINE
  8
0
 62
7
  6
CONTINUOUS
 10
368.3012227445
 20
30.7648688543
 11
368.4168479651
 21
30.6358140973
  0
LINE
  8
0
 62
7
  6
CONTINUOUS
 10
368.6480977445
 20
30.7003414814
 11
368.5902854651
 21
30.7648688543
  0
LINE
  8
0
 62
7
  6
CONTINUOUS
 10
368.3012227445
 20
31.2810879048
 11
368.4168479651
 21
31.1520331591
  0
LINE
  8
0
 62
7
  6
CONTINUOUS
 10
367.7809102445
 20
31.2810879048
 11
367.7230979651
 21
31.3778789641
  0
LINE
  8
0
 62
7
  6
CONTINUOUS
 10
370.1512223035
 20
30.7003414814
 11
370.1512223035
 21
30.7648688543
  0
LINE
  8
0
 62
7
  6
CONTINUOUS
 10
370.1556028675
 20
32.3100380288
 11
370.1556028675
 21
36.0805298321
  0
LINE
  8
0
 62
7
  6
CONTINUOUS
 10
363.2137226343
 20
31.4101426505
 11
363.1559103548
 21
31.3456152777
  0
LINE
  8
0
 62
7
  6
CONTINUOUS
 10
360.091847717
 20
31.3778789641
 11
360.2652852997
 21
31.3133515913
  0
LINE
  8
0
 62
7
  6
CONTINUOUS
 10
364.8324727445
 20
31.3778789641
 11
364.716847524
 21
31.4424063369
  0
LINE
  8
0
 62
7
  6
CONTINUOUS
 10
368.6480977445
 20
31.216560532
 11
368.5902854651
 21
31.2810879048
  0
LINE
  8
0
 62
7
  6
CONTINUOUS
 10
369.8043479651
 20
30.8293962497
 11
369.8621602445
 21
30.7648688543
  0
LINE
  8
0
 62
7
  6
CONTINUOUS
 10
370.1512223035
 20
30.7648688543
 11
370.0355977445
 21
30.8939236226
  0
LINE
  8
0
 62
7
  6
CONTINUOUS
 10
369.8043479651
 20
31.3456152777
 11
369.8621602445
 21
31.2810879048
  0
LINE
  8
0
 62
7
  6
CONTINUOUS
 10
370.1512223035
 20
31.2810879048
 11
370.0355977445
 21
31.4101426505
  0
LINE
  8
0
 62
7
  6
CONTINUOUS
 10
363.4449727445
 20
31.2810879048
 11
363.5027853548
 21
31.3456152777
  0
LINE
  8
0
 62
7
  6
CONTINUOUS
 10
363.2715352445
 20
31.0229783683
 11
363.1559103548
 21
30.8939236226
  0
LINE
  8
0
 62
7
  6
CONTINUOUS
 10
364.6012229651
 20
30.8616599362
 11
364.543410024
 21
30.7971325633
  0
LINE
  8
0
 62
7
  6
CONTINUOUS
 10
364.543410024
 20
30.6035504109
 11
364.6012229651
 21
30.668077795
  0
LINE
  8
0
 62
7
  6
CONTINUOUS
 10
363.3871601343
 20
30.5712867188
 11
363.5027853548
 21
30.5390230296
  0
LINE
  8
0
 62
7
  6
CONTINUOUS
 10
360.3809101894
 20
31.4424063369
 11
360.1496602445
 21
31.5069337098
  0
LINE
  8
0
 62
7
  6
CONTINUOUS
 10
363.7340351343
 20
30.6358140973
 11
363.5027853548
 21
30.7003414814
  0
LINE
  8
0
 62
7
  6
CONTINUOUS
 10
362.4621603548
 20
31.4424063369
 11
362.2887228548
 21
31.5069337098
  0
LINE
  8
0
 62
7
  6
CONTINUOUS
 10
364.716847524
 20
31.4424063369
 11
364.543410024
 21
31.5069337098
  0
LINE
  8
0
 62
7
  6
CONTINUOUS
 10
367.3762229651
 20
31.3456152777
 11
367.491847524
 21
31.2810879048
  0
LINE
  8
0
 62
7
  6
CONTINUOUS
 10
367.7230979651
 20
31.3778789641
 11
367.6074727445
 21
31.4424063369
  0
LINE
  8
0
 62
7
  6
CONTINUOUS
 10
359.2246602583
 20
30.5712867188
 11
359.3980977583
 21
30.5390230296
  0
LINE
  8
0
 62
7
  6
CONTINUOUS
 10
359.6871602721
 20
30.6358140973
 11
359.3402852307
 21
30.7003414814
  0
LINE
  8
0
 62
7
  6
CONTINUOUS
 10
362.1152853548
 20
31.3778789641
 11
362.2309102445
 21
31.3456152777
  0
LINE
  8
0
 62
7
  6
CONTINUOUS
 10
364.4277854651
 20
31.3778789641
 11
364.543410024
 21
31.3456152777
  0
LINE
  8
0
 62
7
  6
CONTINUOUS
 10
368.7637229651
 20
30.668077795
 11
368.6480977445
 21
30.7003414814
  0
LINE
  8
0
 62
7
  6
CONTINUOUS
 10
367.2605977445
 20
31.3778789641
 11
367.3762229651
 21
31.3456152777
  0
LINE
  8
0
 62
7
  6
CONTINUOUS
 10
368.4168479651
 20
30.6358140973
 11
368.5902854651
 21
30.5712867188
  0
LINE
  8
0
 62
7
  6
CONTINUOUS
 10
367.6074727445
 20
31.4424063369
 11
367.4340352445
 21
31.5069337098
  0
LINE
  8
0
 62
7
  6
CONTINUOUS
 10
368.8215352445
 20
31.1520331591
 11
368.6480977445
 21
31.216560532
  0
LINE
  8
0
 62
7
  6
CONTINUOUS
 10
369.6309104651
 20
30.8939236226
 11
369.8043479651
 21
30.8293962497
  0
LINE
  8
0
 62
7
  6
CONTINUOUS
 10
370.0355977445
 20
31.4101426505
 11
369.8621602445
 21
31.4746700234
  0
LINE
  8
0
 62
7
  6
CONTINUOUS
 10
368.4168479651
 20
31.1520331591
 11
368.6480977445
 21
31.0552420547
  0
LINE
  8
0
 62
7
  6
CONTINUOUS
 10
370.0355977445
 20
30.8939236226
 11
369.8043479651
 21
30.9907146818
  0
LINE
  8
0
 62
7
  6
CONTINUOUS
 10
368.5902854651
 20
31.2810879048
 11
368.6480977445
 21
31.3456152777
  0
LINE
  8
0
 62
7
  6
CONTINUOUS
 10
359.0512227376
 20
31.4101426505
 11
358.9355977445
 21
31.3456152777
  0
LINE
  8
0
 62
7
  6
CONTINUOUS
 10
359.1668477307
 20
31.2488242184
 11
359.3402852307
 21
31.3456152777
  0
LINE
  8
0
 62
7
  6
CONTINUOUS
 10
361.4793477997
 20
31.4424063369
 11
361.3637227445
 21
31.3778789641
  0
LINE
  8
0
 62
7
  6
CONTINUOUS
 10
361.3637227445
 20
31.2488242184
 11
361.4793477997
 21
31.3133515913
  0
LINE
  8
0
 62
7
  6
CONTINUOUS
 10
360.3809101894
 20
30.6035504109
 11
360.5543476894
 21
30.7003414814
  0
LINE
  8
0
 62
7
  6
CONTINUOUS
 10
359.3980977583
 20
30.5390230296
 11
359.744972717
 21
30.5067593403
  0
LINE
  8
0
 62
7
  6
CONTINUOUS
 10
363.5027853548
 20
30.5390230296
 11
363.7340351343
 21
30.5067593403
  0
LINE
  8
0
 62
7
  6
CONTINUOUS
 10
361.8840352445
 20
31.4101426505
 11
362.1152853548
 21
31.3778789641
  0
LINE
  8
0
 62
7
  6
CONTINUOUS
 10
364.1965353548
 20
31.4101426505
 11
364.4277854651
 21
31.3778789641
  0
LINE
  8
0
 62
7
  6
CONTINUOUS
 10
368.6480977445
 20
31.0552420547
 11
369.6309104651
 21
30.8939236226
  0
LINE
  8
0
 62
7
  6
CONTINUOUS
 10
369.8043479651
 20
30.9907146818
 11
368.8215352445
 21
31.1520331591
  0
LINE
  8
0
 62
7
  6
CONTINUOUS
 10
362.2887228548
 20
31.5069337098
 11
362.1152853548
 21
31.5391973962
  0
LINE
  8
0
 62
7
  6
CONTINUOUS
 10
368.5902854651
 20
30.5712867188
 11
368.7637229651
 21
30.5390230296
  0
LINE
  8
0
 62
7
  6
CONTINUOUS
 10
367.4340352445
 20
31.5069337098
 11
367.2605977445
 21
31.5391973962
  0
LINE
  8
0
 62
7
  6
CONTINUOUS
 10
369.6887227445
 20
31.3778789641
 11
369.8043479651
 21
31.3456152777
  0
LINE
  8
0
 62
7
  6
CONTINUOUS
 10
369.8621602445
 20
30.7648688543
 11
369.8043479651
 21
30.7003414814
  0
LINE
  8
0
 62
7
  6
CONTINUOUS
 10
368.4168479651
 20
31.4424063369
 11
368.3012227445
 21
31.3456152777
  0
LINE
  8
0
 62
7
  6
CONTINUOUS
 10
363.3293478548
 20
31.4746700234
 11
363.2137226343
 21
31.4101426505
  0
LINE
  8
0
 62
7
  6
CONTINUOUS
 10
363.3871601343
 20
31.0875057863
 11
363.2715352445
 21
31.0229783683
  0
LINE
  8
0
 62
7
  6
CONTINUOUS
 10
363.5027853548
 20
30.926187309
 11
363.6184102445
 21
30.9907146818
  0
LINE
  8
0
 62
7
  6
CONTINUOUS
 10
361.0746601894
 20
30.5067593403
 11
361.3637227445
 21
30.5067593403
  0
LINE
  8
0
 62
7
  6
CONTINUOUS
 10
362.4043477445
 20
30.5067593403
 11
362.6934101343
 21
30.5067593403
  0
LINE
  8
0
 62
7
  6
CONTINUOUS
 10
363.7340351343
 20
30.5067593403
 11
364.0809101343
 21
30.5067593403
  0
LINE
  8
0
 62
7
  6
CONTINUOUS
 10
364.716847524
 20
30.5067593403
 11
365.0059102445
 21
30.5067593403
  0
LINE
  8
0
 62
7
  6
CONTINUOUS
 10
365.4684104651
 20
30.5067593403
 11
365.757472524
 21
30.5067593403
  0
LINE
  8
0
 62
7
  6
CONTINUOUS
 10
366.2199727445
 20
30.5067593403
 11
366.5090354651
 21
30.5067593403
  0
LINE
  8
0
 62
7
  6
CONTINUOUS
 10
367.5496604651
 20
30.5067593403
 11
367.838722524
 21
30.5067593403
  0
LINE
  8
0
 62
7
  6
CONTINUOUS
 10
369.1105979651
 20
30.5067593403
 11
369.4574729651
 21
30.5067593403
  0
LINE
  8
0
 62
7
  6
CONTINUOUS
 10
369.4574729651
 20
30.6358140973
 11
369.1105979651
 21
30.6358140973
  0
LINE
  8
0
 62
7
  6
CONTINUOUS
 10
364.0809101343
 20
30.6358140973
 11
363.7340351343
 21
30.6358140973
  0
LINE
  8
0
 62
7
  6
CONTINUOUS
 10
368.5902854651
 20
30.7648688543
 11
368.3012227445
 21
30.7648688543
  0
LINE
  8
0
 62
7
  6
CONTINUOUS
 10
360.6121602997
 20
30.8293962497
 11
360.3230977445
 21
30.8293962497
  0
LINE
  8
0
 62
7
  6
CONTINUOUS
 10
359.6871602721
 20
31.4101426505
 11
360.091847717
 21
31.3778789641
  0
LINE
  8
0
 62
7
  6
CONTINUOUS
 10
360.1496602445
 20
31.5069337098
 11
359.744972717
 21
31.5391973962
  0
LINE
  8
0
 62
7
  6
CONTINUOUS
 10
368.7637229651
 20
30.5390230296
 11
369.1105979651
 21
30.5067593403
  0
LINE
  8
0
 62
7
  6
CONTINUOUS
 10
369.1105979651
 20
30.6358140973
 11
368.7637229651
 21
30.668077795
  0
LINE
  8
0
 62
7
  6
CONTINUOUS
 10
364.543410024
 20
31.5069337098
 11
364.1965353548
 21
31.5391973962
  0
LINE
  8
0
 62
7
  6
CONTINUOUS
 10
369.3418477445
 20
31.4101426505
 11
369.6887227445
 21
31.3778789641
  0
LINE
  8
0
 62
7
  6
CONTINUOUS
 10
369.6887227445
 20
31.5069337098
 11
369.3418477445
 21
31.5391973962
  0
LINE
  8
0
 62
7
  6
CONTINUOUS
 10
367.0293479651
 20
31.4101426505
 11
367.2605977445
 21
31.3778789641
  0
LINE
  8
0
 62
7
  6
CONTINUOUS
 10
369.8621602445
 20
31.4746700234
 11
369.6887227445
 21
31.5069337098
  0
LINE
  8
0
 62
7
  6
CONTINUOUS
 10
370.0355977445
 20
30.6035504109
 11
370.1512223035
 21
30.7003414814
  0
LINE
  8
0
 62
7
  6
CONTINUOUS
 10
364.543410024
 20
30.7971325633
 11
364.369972524
 21
30.7003414814
  0
LINE
  8
0
 62
7
  6
CONTINUOUS
 10
366.624660024
 20
31.4424063369
 11
366.5090354651
 21
31.3778789641
  0
LINE
  8
0
 62
7
  6
CONTINUOUS
 10
366.5090354651
 20
31.2488242184
 11
366.624660024
 21
31.3133515913
  0
LINE
  8
0
 62
7
  6
CONTINUOUS
 10
359.2246602583
 20
31.4746700234
 11
359.0512227376
 21
31.4101426505
  0
LINE
  8
0
 62
7
  6
CONTINUOUS
 10
361.6527851343
 20
31.5069337098
 11
361.4793477997
 21
31.4424063369
  0
LINE
  8
0
 62
7
  6
CONTINUOUS
 10
361.4793477997
 20
31.3133515913
 11
361.6527851343
 21
31.3778789641
  0
LINE
  8
0
 62
7
  6
CONTINUOUS
 10
360.2652852997
 20
30.7326051679
 11
360.091847717
 21
30.668077795
  0
LINE
  8
0
 62
7
  6
CONTINUOUS
 10
369.6887227445
 20
30.668077795
 11
369.4574729651
 21
30.6358140973
  0
LINE
  8
0
 62
7
  6
CONTINUOUS
 10
364.0809101343
 20
30.5067593403
 11
364.369972524
 21
30.5390230296
  0
LINE
  8
0
 62
7
  6
CONTINUOUS
 10
369.4574729651
 20
30.5067593403
 11
369.8043479651
 21
30.5390230296
  0
LINE
  8
0
 62
7
  6
CONTINUOUS
 10
359.744972717
 20
30.5067593403
 11
360.1496602445
 21
30.5390230296
  0
LINE
  8
0
 62
7
  6
CONTINUOUS
 10
360.091847717
 20
30.668077795
 11
359.6871602721
 21
30.6358140973
  0
LINE
  8
0
 62
7
  6
CONTINUOUS
 10
363.9652852445
 20
31.0552420547
 11
364.6012229651
 21
31.0552420547
  0
LINE
  8
0
 62
7
  6
CONTINUOUS
 10
364.6012229651
 20
31.1842968456
 11
363.9652852445
 21
31.1842968456
  0
LINE
  8
0
 62
7
  6
CONTINUOUS
 10
360.3230977445
 20
31.216560532
 11
360.6121602997
 21
31.216560532
  0
LINE
  8
0
 62
7
  6
CONTINUOUS
 10
363.1559103548
 20
31.2810879048
 11
363.4449727445
 21
31.2810879048
  0
LINE
  8
0
 62
7
  6
CONTINUOUS
 10
369.8621602445
 20
31.2810879048
 11
370.1512223035
 21
31.2810879048
  0
LINE
  8
0
 62
7
  6
CONTINUOUS
 10
363.8496603548
 20
31.4101426505
 11
364.1965353548
 21
31.4101426505
  0
LINE
  8
0
 62
7
  6
CONTINUOUS
 10
368.9949727445
 20
31.4101426505
 11
369.3418477445
 21
31.4101426505
  0
LINE
  8
0
 62
7
  6
CONTINUOUS
 10
369.3418477445
 20
31.5391973962
 11
368.9949727445
 21
31.5391973962
  0
LINE
  8
0
 62
7
  6
CONTINUOUS
 10
367.2605977445
 20
31.5391973962
 11
367.0293479651
 21
31.5391973962
  0
LINE
  8
0
 62
7
  6
CONTINUOUS
 10
366.5090354651
 20
31.5391973962
 11
366.2199727445
 21
31.5391973962
  0
LINE
  8
0
 62
7
  6
CONTINUOUS
 10
365.757472524
 20
31.5391973962
 11
365.4684104651
 21
31.5391973962
  0
LINE
  8
0
 62
7
  6
CONTINUOUS
 10
364.1965353548
 20
31.5391973962
 11
363.8496603548
 21
31.5391973962
  0
LINE
  8
0
 62
7
  6
CONTINUOUS
 10
362.1152853548
 20
31.5391973962
 11
361.8840352445
 21
31.5391973962
  0
LINE
  8
0
 62
7
  6
CONTINUOUS
 10
365.4684104651
 20
31.8618343508
 11
365.757472524
 21
31.8618343508
  0
LINE
  8
0
 62
7
  6
CONTINUOUS
 10
365.757472524
 20
32.0231527829
 11
365.4684104651
 21
32.0231527829
  0
LINE
  8
0
 62
7
  6
CONTINUOUS
 10
361.3637227445
 20
32.0231527829
 11
361.0746601894
 21
32.0231527829
  0
LINE
  8
0
 62
7
  6
CONTINUOUS
 10
360.4015045068
 20
32.3100380288
 11
360.8140758554
 21
32.3100380288
  0
LINE
  8
0
 62
7
  6
CONTINUOUS
 10
362.0408487691
 20
32.3100380288
 11
363.4342913921
 21
32.3100380288
  0
LINE
  8
0
 62
7
  6
CONTINUOUS
 10
363.7621602445
 20
32.3100380288
 11
365.1556028675
 21
32.3100380288
  0
LINE
  8
0
 62
7
  6
CONTINUOUS
 10
367.0408487691
 20
32.3100380288
 11
368.4342913921
 21
32.3100380288
  0
LINE
  8
0
 62
7
  6
CONTINUOUS
 10
368.7621602445
 20
32.3100380288
 11
370.1556028675
 21
32.3100380288
  0
LINE
  8
0
 62
7
  6
CONTINUOUS
 10
366.798097524
 20
31.5069337098
 11
366.624660024
 21
31.4424063369
  0
LINE
  8
0
 62
7
  6
CONTINUOUS
 10
364.369972524
 20
30.5390230296
 11
364.543410024
 21
30.6035504109
  0
LINE
  8
0
 62
7
  6
CONTINUOUS
 10
369.8043479651
 20
30.5390230296
 11
370.0355977445
 21
30.6035504109
  0
LINE
  8
0
 62
7
  6
CONTINUOUS
 10
369.8043479651
 20
30.7003414814
 11
369.6887227445
 21
30.668077795
  0
LINE
  8
0
 62
7
  6
CONTINUOUS
 10
368.7637229651
 20
31.3778789641
 11
368.9949727445
 21
31.4101426505
  0
LINE
  8
0
 62
7
  6
CONTINUOUS
 10
366.798097524
 20
31.3778789641
 11
367.0293479651
 21
31.4101426505
  0
LINE
  8
0
 62
7
  6
CONTINUOUS
 10
363.7340351343
 20
31.0229783683
 11
363.9652852445
 21
31.0552420547
  0
LINE
  8
0
 62
7
  6
CONTINUOUS
 10
367.0293479651
 20
31.5391973962
 11
366.798097524
 21
31.5069337098
  0
LINE
  8
0
 62
7
  6
CONTINUOUS
 10
363.6184102445
 20
31.3778789641
 11
363.8496603548
 21
31.4101426505
  0
LINE
  8
0
 62
7
  6
CONTINUOUS
 10
368.9949727445
 20
31.5391973962
 11
368.6480977445
 21
31.5069337098
  0
LINE
  8
0
 62
7
  6
CONTINUOUS
 10
363.9652852445
 20
31.1842968456
 11
363.6184102445
 21
31.1520331591
  0
LINE
  8
0
 62
7
  6
CONTINUOUS
 10
359.744972717
 20
31.5391973962
 11
359.3980977583
 21
31.5069337098
  0
LINE
  8
0
 62
7
  6
CONTINUOUS
 10
363.8496603548
 20
31.5391973962
 11
363.4449727445
 21
31.5069337098
  0
LINE
  8
0
 62
7
  6
CONTINUOUS
 10
361.221176638
 20
33.4575790124
 11
360.565438933
 21
33.4575790124
  0
LINE
  8
0
 62
7
  6
CONTINUOUS
 10
366.624660024
 20
31.3133515913
 11
366.798097524
 21
31.3778789641
  0
LINE
  8
0
 62
7
  6
CONTINUOUS
 10
368.6480977445
 20
31.3456152777
 11
368.7637229651
 21
31.3778789641
  0
LINE
  8
0
 62
7
  6
CONTINUOUS
 10
368.6480977445
 20
31.5069337098
 11
368.4168479651
 21
31.4424063369
  0
LINE
  8
0
 62
7
  6
CONTINUOUS
 10
364.369972524
 20
30.7003414814
 11
364.0809101343
 21
30.6358140973
  0
LINE
  8
0
 62
7
  6
CONTINUOUS
 10
361.6527851343
 20
31.3778789641
 11
361.8840352445
 21
31.4101426505
  0
LINE
  8
0
 62
7
  6
CONTINUOUS
 10
361.8840352445
 20
31.5391973962
 11
361.6527851343
 21
31.5069337098
  0
LINE
  8
0
 62
7
  6
CONTINUOUS
 10
359.4559102445
 20
31.3778789641
 11
359.6871602721
 21
31.4101426505
  0
LINE
  8
0
 62
7
  6
CONTINUOUS
 10
365.9752749986
 20
34.9329888485
 11
366.6310127035
 21
34.9329888485
  0
LINE
  8
0
 62
7
  6
CONTINUOUS
 10
363.6184102445
 20
30.9907146818
 11
363.7340351343
 21
31.0229783683
  0
LINE
  8
0
 62
7
  6
CONTINUOUS
 10
363.6184102445
 20
31.1520331591
 11
363.3871601343
 21
31.0875057863
  0
LINE
  8
0
 62
7
  6
CONTINUOUS
 10
363.5027853548
 20
31.3456152777
 11
363.6184102445
 21
31.3778789641
  0
LINE
  8
0
 62
7
  6
CONTINUOUS
 10
360.1496602445
 20
30.5390230296
 11
360.3809101894
 21
30.6035504109
  0
LINE
  8
0
 62
7
  6
CONTINUOUS
 10
363.4449727445
 20
31.5069337098
 11
363.3293478548
 21
31.4746700234
  0
LINE
  8
0
 62
7
  6
CONTINUOUS
 10
359.3980977583
 20
31.5069337098
 11
359.2246602583
 21
31.4746700234
  0
LINE
  8
0
 62
7
  6
CONTINUOUS
 10
370.1556028675
 20
36.0805298321
 11
368.7621602445
 21
36.0805298321
  0
LINE
  8
0
 62
7
  6
CONTINUOUS
 10
366.7949471298
 20
36.0805298321
 11
366.3823757812
 21
36.0805298321
  0
LINE
  8
0
 62
7
  6
CONTINUOUS
 10
365.1556028675
 20
36.0805298321
 11
363.7621602445
 21
36.0805298321
  0
LINE
  8
0
 62
7
  6
CONTINUOUS
 10
363.4342913921
 20
36.0805298321
 11
362.0408487691
 21
36.0805298321
  0
LINE
  8
0
 62
7
  6
CONTINUOUS
 10
360.1556028675
 20
36.0805298321
 11
358.7621602445
 21
36.0805298321
  0
LINE
  8
0
 62
7
  6
CONTINUOUS
 10
359.3402852307
 20
31.3456152777
 11
359.4559102445
 21
31.3778789641
  0
CIRCLE
  8
0
 62
7
  6
CONTINUOUS
 10
369.458881556
 20
38.4165954059
 40
2.0901639344
  0
ARC
  8
0
 62
7
  6
CONTINUOUS
 10
360.4015045068
 20
33.9493822911
 40
1.6393442623
 50
180.0
 51
270.0
  0
ARC
  8
0
 62
7
  6
CONTINUOUS
 10
366.7949471298
 20
34.4411855698
 40
1.6393442623
 50
0.0
 51
90.0
  0
ARC
  8
0
 62
7
  6
CONTINUOUS
 10
360.8140758554
 20
33.7854478649
 40
1.4754098361
 50
270.0
 51
326.2510114041
  0
ARC
  8
0
 62
7
  6
CONTINUOUS
 10
366.3823757812
 20
34.6051199961
 40
1.4754098361
 50
90.0
 51
146.2510114041
  0
ARC
  8
0
 62
7
  6
CONTINUOUS
 10
361.221176638
 20
34.2772511436
 40
0.8196721311
 50
270.0
 51
360.0
  0
ARC
  8
0
 62
7
  6
CONTINUOUS
 10
365.9752749986
 20
34.1133167174
 40
0.8196721311
 50
90.0
 51
180.0
  0
ARC
  8
0
 62
7
  6
CONTINUOUS
 10
360.565438933
 20
33.867415078
 40
0.4098360656
 50
180.0
 51
270.0
  0
ARC
  8
0
 62
7
  6
CONTINUOUS
 10
366.6310127035
 20
34.5231527829
 40
0.4098360656
 50
0.0
 51
90.0
  0
SOLID
  8
0
 62
7
  6
CONTINUOUS
 10
365.4684104651
 20
31.8618347111
 11
365.4684104651
 21
32.0231531947
 12
365.757472524
 22
31.8618347111
 13
365.757472524
 23
32.0231531947
  0
SOLID
  8
0
 62
7
  6
CONTINUOUS
 10
359.744972717
 20
31.5391977439
 11
360.1496602445
 21
31.5069333244
 12
359.3980977583
 22
31.5069333244
 13
359.3980977583
 23
31.5069333244
  0
SOLID
  8
0
 62
7
  6
CONTINUOUS
 10
359.2246602583
 20
31.4746706537
 11
359.3980977583
 21
31.5069333244
 12
360.1496602445
 22
31.5069333244
 13
360.1496602445
 23
31.5069333244
  0
SOLID
  8
0
 62
7
  6
CONTINUOUS
 10
360.1496602445
 20
31.5069333244
 11
360.3809101894
 21
31.4424063504
 12
359.2246602583
 22
31.4746706537
 13
359.2246602583
 23
31.4746706537
  0
SOLID
  8
0
 62
7
  6
CONTINUOUS
 10
359.0512227376
 20
31.4101419116
 11
359.2246602583
 21
31.4746706537
 12
360.3809101894
 22
31.4424063504
 13
360.3809101894
 23
31.4424063504
  0
SOLID
  8
0
 62
7
  6
CONTINUOUS
 10
359.0512227376
 20
31.4101419116
 11
360.3809101894
 21
31.4424063504
 12
359.6871602721
 22
31.4101419116
 13
359.6871602721
 23
31.4101419116
  0
SOLID
  8
0
 62
7
  6
CONTINUOUS
 10
359.6871602721
 20
31.4101419116
 11
360.3809101894
 21
31.4424063504
 12
360.091847717
 22
31.3778792603
 13
360.091847717
 23
31.3778792603
  0
SOLID
  8
0
 62
7
  6
CONTINUOUS
 10
360.3809101894
 20
31.4424063504
 11
360.5543476894
 21
31.345614957
 12
360.091847717
 22
31.3778792603
 13
360.091847717
 23
31.3778792603
  0
SOLID
  8
0
 62
7
  6
CONTINUOUS
 10
360.2652852997
 20
31.3133521701
 11
360.091847717
 21
31.3778792603
 12
360.5543476894
 22
31.345614957
 13
360.5543476894
 23
31.345614957
  0
SOLID
  8
0
 62
7
  6
CONTINUOUS
 10
360.2652852997
 20
31.3133521701
 11
360.5543476894
 21
31.345614957
 12
360.3230977445
 22
31.2165606992
 13
360.3230977445
 23
31.2165606992
  0
SOLID
  8
0
 62
7
  6
CONTINUOUS
 10
360.5543476894
 20
31.345614957
 11
360.6121602997
 21
31.2165606992
 12
360.3230977445
 22
31.2165606992
 13
360.3230977445
 23
31.2165606992
  0
SOLID
  8
0
 62
7
  6
CONTINUOUS
 10
361.6527851343
 20
31.5069329918
 11
361.8840352445
 21
31.5391972951
 12
362.1152853548
 22
31.5391972951
 13
362.1152853548
 23
31.5391972951
  0
SOLID
  8
0
 62
7
  6
CONTINUOUS
 10
362.1152853548
 20
31.5391972951
 11
362.2887228548
 21
31.5069329918
 12
361.6527851343
 22
31.5069329918
 13
361.6527851343
 23
31.5069329918
  0
SOLID
  8
0
 62
7
  6
CONTINUOUS
 10
361.4793477997
 20
31.4424059016
 11
361.6527851343
 21
31.5069329918
 12
362.2887228548
 22
31.5069329918
 13
362.2887228548
 23
31.5069329918
  0
SOLID
  8
0
 62
7
  6
CONTINUOUS
 10
362.2887228548
 20
31.5069329918
 11
362.4621603548
 21
31.4424059016
 12
361.4793477997
 22
31.4424059016
 13
361.4793477997
 23
31.4424059016
  0
SOLID
  8
0
 62
7
  6
CONTINUOUS
 10
362.4621603548
 20
31.4424059016
 11
361.8840352445
 21
31.4101420472
 12
361.4793477997
 22
31.4424059016
 13
361.4793477997
 23
31.4424059016
  0
SOLID
  8
0
 62
7
  6
CONTINUOUS
 10
361.3637227445
 20
31.3778788115
 11
361.4793477997
 21
31.4424059016
 12
361.8840352445
 22
31.4101420472
 13
361.8840352445
 23
31.4101420472
  0
SOLID
  8
0
 62
7
  6
CONTINUOUS
 10
361.8840352445
 20
31.4101420472
 11
361.6527851343
 21
31.3778788115
 12
361.3637227445
 22
31.3778788115
 13
361.3637227445
 23
31.3778788115
  0
SOLID
  8
0
 62
7
  6
CONTINUOUS
 10
361.8840352445
 20
31.4101420472
 11
362.4621603548
 21
31.4424059016
 12
362.1152853548
 22
31.3778788115
 13
362.1152853548
 23
31.3778788115
  0
SOLID
  8
0
 62
7
  6
CONTINUOUS
 10
362.4621603548
 20
31.4424059016
 11
362.5777852445
 21
31.3778788115
 12
362.1152853548
 22
31.3778788115
 13
362.1152853548
 23
31.3778788115
  0
SOLID
  8
0
 62
7
  6
CONTINUOUS
 10
362.2309102445
 20
31.345614957
 11
362.1152853548
 21
31.3778788115
 12
362.5777852445
 22
31.3778788115
 13
362.5777852445
 23
31.3778788115
  0
SOLID
  8
0
 62
7
  6
CONTINUOUS
 10
362.5777852445
 20
31.3778788115
 11
362.6355978548
 21
31.3133517213
 12
362.2309102445
 22
31.345614957
 13
362.2309102445
 23
31.345614957
  0
SOLID
  8
0
 62
7
  6
CONTINUOUS
 10
362.3465351343
 20
31.2810878668
 11
362.2309102445
 21
31.345614957
 12
362.6355978548
 22
31.3133517213
 13
362.6355978548
 23
31.3133517213
  0
SOLID
  8
0
 62
7
  6
CONTINUOUS
 10
362.3465351343
 20
31.2810878668
 11
362.6355978548
 21
31.3133517213
 12
362.4043477445
 22
31.1520332377
 13
362.4043477445
 23
31.1520332377
  0
SOLID
  8
0
 62
7
  6
CONTINUOUS
 10
362.6355978548
 20
31.3133517213
 11
362.6934101343
 21
31.1520332377
 12
362.4043477445
 22
31.1520332377
 13
362.4043477445
 23
31.1520332377
  0
SOLID
  8
0
 62
7
  6
CONTINUOUS
 10
361.6527851343
 20
31.3778788115
 11
361.4793477997
 21
31.3133517213
 12
361.3637227445
 22
31.3778788115
 13
361.3637227445
 23
31.3778788115
  0
SOLID
  8
0
 62
7
  6
CONTINUOUS
 10
361.4793477997
 20
31.3133517213
 11
361.3637227445
 21
31.2488235635
 12
361.3637227445
 22
31.3778788115
 13
361.3637227445
 23
31.3778788115
  0
SOLID
  8
0
 62
7
  6
CONTINUOUS
 10
361.3637227445
 20
31.2488235635
 11
361.0746601894
 21
30.5067593033
 12
361.3637227445
 22
31.3778788115
 13
361.3637227445
 23
31.3778788115
  0
SOLID
  8
0
 62
7
  6
CONTINUOUS
 10
361.3637227445
 20
31.3778788115
 11
361.0746601894
 21
30.5067593033
 12
361.3637227445
 22
32.0231527459
 13
361.3637227445
 23
32.0231527459
  0
SOLID
  8
0
 62
7
  6
CONTINUOUS
 10
361.0746601894
 20
30.5067593033
 11
361.0746601894
 21
32.0231527459
 12
361.3637227445
 22
32.0231527459
 13
361.3637227445
 23
32.0231527459
  0
SOLID
  8
0
 62
7
  6
CONTINUOUS
 10
361.3637227445
 20
31.2488235635
 11
361.3637227445
 21
30.5067593033
 12
361.0746601894
 22
30.5067593033
 13
361.0746601894
 23
30.5067593033
  0
SOLID
  8
0
 62
7
  6
CONTINUOUS
 10
362.4043477445
 20
30.5067593033
 11
362.4043477445
 21
31.1520332377
 12
362.6934101343
 22
31.1520332377
 13
362.6934101343
 23
31.1520332377
  0
SOLID
  8
0
 62
7
  6
CONTINUOUS
 10
362.6934101343
 20
31.1520332377
 11
362.6934101343
 21
30.5067593033
 12
362.4043477445
 22
30.5067593033
 13
362.4043477445
 23
30.5067593033
  0
SOLID
  8
0
 62
7
  6
CONTINUOUS
 10
363.4449727445
 20
31.506933758
 11
363.8496603548
 21
31.5391977507
 12
364.1965353548
 22
31.5391977507
 13
364.1965353548
 23
31.5391977507
  0
SOLID
  8
0
 62
7
  6
CONTINUOUS
 10
364.1965353548
 20
31.5391977507
 11
364.543410024
 21
31.506933758
 12
363.4449727445
 22
31.506933758
 13
363.4449727445
 23
31.506933758
  0
SOLID
  8
0
 62
7
  6
CONTINUOUS
 10
363.3293478548
 20
31.4746706537
 11
363.4449727445
 21
31.506933758
 12
364.543410024
 22
31.506933758
 13
364.543410024
 23
31.506933758
  0
SOLID
  8
0
 62
7
  6
CONTINUOUS
 10
364.543410024
 20
31.506933758
 11
364.716847524
 21
31.4424063504
 12
363.3293478548
 22
31.4746706537
 13
363.3293478548
 23
31.4746706537
  0
SOLID
  8
0
 62
7
  6
CONTINUOUS
 10
363.2137226343
 20
31.4101417797
 11
363.3293478548
 21
31.4746706537
 12
364.716847524
 22
31.4424063504
 13
364.716847524
 23
31.4424063504
  0
SOLID
  8
0
 62
7
  6
CONTINUOUS
 10
363.2137226343
 20
31.4101417797
 11
364.716847524
 21
31.4424063504
 12
363.8496603548
 22
31.4101417797
 13
363.8496603548
 23
31.4101417797
  0
SOLID
  8
0
 62
7
  6
CONTINUOUS
 10
363.8496603548
 20
31.4101417797
 11
364.716847524
 21
31.4424063504
 12
364.1965353548
 22
31.4101417797
 13
364.1965353548
 23
31.4101417797
  0
SOLID
  8
0
 62
7
  6
CONTINUOUS
 10
364.1965353548
 20
31.4101417797
 11
364.716847524
 21
31.4424063504
 12
364.4277854651
 22
31.3778793357
 13
364.4277854651
 23
31.3778793357
  0
SOLID
  8
0
 62
7
  6
CONTINUOUS
 10
364.716847524
 20
31.4424063504
 11
364.8324727445
 21
31.3778793357
 12
364.4277854651
 22
31.3778793357
 13
364.4277854651
 23
31.3778793357
  0
SOLID
  8
0
 62
7
  6
CONTINUOUS
 10
363.1559103548
 20
31.3456153429
 11
363.2137226343
 21
31.4101417797
 12
363.8496603548
 22
31.4101417797
 13
363.8496603548
 23
31.4101417797
  0
SOLID
  8
0
 62
7
  6
CONTINUOUS
 10
364.543410024
 20
31.3456153429
 11
364.4277854651
 21
31.3778793357
 12
364.8324727445
 22
31.3778793357
 13
364.8324727445
 23
31.3778793357
  0
SOLID
  8
0
 62
7
  6
CONTINUOUS
 10
364.543410024
 20
31.3456153429
 11
364.8324727445
 21
31.3778793357
 12
364.6012229651
 22
31.2810881318
 13
364.6012229651
 23
31.2810881318
  0
SOLID
  8
0
 62
7
  6
CONTINUOUS
 10
364.8324727445
 20
31.3778793357
 11
364.890285024
 21
31.2810881318
 12
364.6012229651
 22
31.2810881318
 13
364.6012229651
 23
31.2810881318
  0
SOLID
  8
0
 62
7
  6
CONTINUOUS
 10
364.6012229651
 20
31.1842964734
 11
364.6012229651
 21
31.2810881318
 12
364.890285024
 22
31.2810881318
 13
364.890285024
 23
31.2810881318
  0
SOLID
  8
0
 62
7
  6
CONTINUOUS
 10
364.6012229651
 20
31.1842964734
 11
364.890285024
 21
31.2810881318
 12
364.6012229651
 22
31.0552422931
 13
364.6012229651
 23
31.0552422931
  0
SOLID
  8
0
 62
7
  6
CONTINUOUS
 10
364.6012229651
 20
31.0552422931
 11
364.890285024
 21
31.2810881318
 12
364.6012229651
 22
30.8616599362
 13
364.6012229651
 23
30.8616599362
  0
SOLID
  8
0
 62
7
  6
CONTINUOUS
 10
364.890285024
 20
31.2810881318
 11
364.890285024
 21
30.7648681127
 12
364.6012229651
 22
30.8616599362
 13
364.6012229651
 23
30.8616599362
  0
SOLID
  8
0
 62
7
  6
CONTINUOUS
 10
366.798097524
 20
31.5069339419
 11
367.0293479651
 21
31.5391976292
 12
367.2605977445
 22
31.5391976292
 13
367.2605977445
 23
31.5391976292
  0
SOLID
  8
0
 62
7
  6
CONTINUOUS
 10
367.2605977445
 20
31.5391976292
 11
367.4340352445
 21
31.5069339419
 12
366.798097524
 22
31.5069339419
 13
366.798097524
 23
31.5069339419
  0
SOLID
  8
0
 62
7
  6
CONTINUOUS
 10
366.624660024
 20
31.4424065674
 11
366.798097524
 21
31.5069339419
 12
367.4340352445
 22
31.5069339419
 13
367.4340352445
 23
31.5069339419
  0
SOLID
  8
0
 62
7
  6
CONTINUOUS
 10
367.4340352445
 20
31.5069339419
 11
367.6074727445
 21
31.4424065674
 12
366.624660024
 22
31.4424065674
 13
366.624660024
 23
31.4424065674
  0
SOLID
  8
0
 62
7
  6
CONTINUOUS
 10
367.6074727445
 20
31.4424065674
 11
367.0293479651
 21
31.4101420472
 12
366.624660024
 22
31.4424065674
 13
366.624660024
 23
31.4424065674
  0
SOLID
  8
0
 62
7
  6
CONTINUOUS
 10
366.5090354651
 20
31.377879193
 11
366.624660024
 21
31.4424065674
 12
367.0293479651
 22
31.4101420472
 13
367.0293479651
 23
31.4101420472
  0
SOLID
  8
0
 62
7
  6
CONTINUOUS
 10
367.0293479651
 20
31.4101420472
 11
366.798097524
 21
31.377879193
 12
366.5090354651
 22
31.377879193
 13
366.5090354651
 23
31.377879193
  0
SOLID
  8
0
 62
7
  6
CONTINUOUS
 10
367.0293479651
 20
31.4101420472
 11
367.6074727445
 21
31.4424065674
 12
367.2605977445
 22
31.377879193
 13
367.2605977445
 23
31.377879193
  0
SOLID
  8
0
 62
7
  6
CONTINUOUS
 10
367.6074727445
 20
31.4424065674
 11
367.7230979651
 21
31.377879193
 12
367.2605977445
 22
31.377879193
 13
367.2605977445
 23
31.377879193
  0
SOLID
  8
0
 62
7
  6
CONTINUOUS
 10
367.3762229651
 20
31.345614957
 11
367.2605977445
 21
31.377879193
 12
367.7230979651
 22
31.377879193
 13
367.7230979651
 23
31.377879193
  0
SOLID
  8
0
 62
7
  6
CONTINUOUS
 10
367.3762229651
 20
31.345614957
 11
367.7230979651
 21
31.377879193
 12
367.491847524
 22
31.2810881312
 13
367.491847524
 23
31.2810881312
  0
SOLID
  8
0
 62
7
  6
CONTINUOUS
 10
367.7230979651
 20
31.377879193
 11
367.7809102445
 21
31.2810881312
 12
367.491847524
 22
31.2810881312
 13
367.491847524
 23
31.2810881312
  0
SOLID
  8
0
 62
7
  6
CONTINUOUS
 10
367.5496604651
 20
31.119769695
 11
367.491847524
 21
31.2810881312
 12
367.7809102445
 22
31.2810881312
 13
367.7809102445
 23
31.2810881312
  0
SOLID
  8
0
 62
7
  6
CONTINUOUS
 10
367.7809102445
 20
31.2810881312
 11
367.838722524
 21
31.119769695
 12
367.5496604651
 22
31.119769695
 13
367.5496604651
 23
31.119769695
  0
SOLID
  8
0
 62
7
  6
CONTINUOUS
 10
366.798097524
 20
31.377879193
 11
366.624660024
 21
31.3133521701
 12
366.5090354651
 22
31.377879193
 13
366.5090354651
 23
31.377879193
  0
SOLID
  8
0
 62
7
  6
CONTINUOUS
 10
366.624660024
 20
31.3133521701
 11
366.5090354651
 21
31.2488235635
 12
366.5090354651
 22
31.377879193
 13
366.5090354651
 23
31.377879193
  0
SOLID
  8
0
 62
7
  6
CONTINUOUS
 10
366.5090354651
 20
31.2488235635
 11
366.2199727445
 21
30.5067596374
 12
366.5090354651
 22
31.377879193
 13
366.5090354651
 23
31.377879193
  0
SOLID
  8
0
 62
7
  6
CONTINUOUS
 10
366.5090354651
 20
31.377879193
 11
366.2199727445
 21
30.5067596374
 12
366.5090354651
 22
31.5391976292
 13
366.5090354651
 23
31.5391976292
  0
SOLID
  8
0
 62
7
  6
CONTINUOUS
 10
366.2199727445
 20
30.5067596374
 11
366.2199727445
 21
31.5391976292
 12
366.5090354651
 22
31.5391976292
 13
366.5090354651
 23
31.5391976292
  0
SOLID
  8
0
 62
7
  6
CONTINUOUS
 10
366.5090354651
 20
31.2488235635
 11
366.5090354651
 21
30.5067596374
 12
366.2199727445
 22
30.5067596374
 13
366.2199727445
 23
30.5067596374
  0
SOLID
  8
0
 62
7
  6
CONTINUOUS
 10
367.5496604651
 20
30.5067596374
 11
367.5496604651
 21
31.119769695
 12
367.838722524
 22
31.119769695
 13
367.838722524
 23
31.119769695
  0
SOLID
  8
0
 62
7
  6
CONTINUOUS
 10
367.838722524
 20
31.119769695
 11
367.838722524
 21
30.5067596374
 12
367.5496604651
 22
30.5067596374
 13
367.5496604651
 23
30.5067596374
  0
SOLID
  8
0
 62
7
  6
CONTINUOUS
 10
368.6480977445
 20
31.5069334157
 11
368.9949727445
 21
31.539197762
 12
369.3418477445
 22
31.539197762
 13
369.3418477445
 23
31.539197762
  0
SOLID
  8
0
 62
7
  6
CONTINUOUS
 10
369.3418477445
 20
31.539197762
 11
369.6887227445
 21
31.5069334157
 12
368.6480977445
 22
31.5069334157
 13
368.6480977445
 23
31.5069334157
  0
SOLID
  8
0
 62
7
  6
CONTINUOUS
 10
368.4168479651
 20
31.4424063504
 11
368.6480977445
 21
31.5069334157
 12
369.6887227445
 22
31.5069334157
 13
369.6887227445
 23
31.5069334157
  0
SOLID
  8
0
 62
7
  6
CONTINUOUS
 10
368.4168479651
 20
31.4424063504
 11
369.6887227445
 21
31.5069334406
 12
369.8621602445
 22
31.4746706537
 13
369.8621602445
 23
31.4746706537
  0
SOLID
  8
0
 62
7
  6
CONTINUOUS
 10
368.4168479651
 20
31.4424063504
 11
369.8621602445
 21
31.4746706537
 12
368.9949727445
 22
31.4101421267
 13
368.9949727445
 23
31.4101421267
  0
SOLID
  8
0
 62
7
  6
CONTINUOUS
 10
368.9949727445
 20
31.4101421267
 11
369.8621602445
 21
31.4746706537
 12
369.3418477445
 22
31.4101421267
 13
369.3418477445
 23
31.4101421267
  0
SOLID
  8
0
 62
7
  6
CONTINUOUS
 10
369.8621602445
 20
31.4746706537
 11
370.0355977445
 21
31.4101421267
 12
369.3418477445
 22
31.4101421267
 13
369.3418477445
 23
31.4101421267
  0
SOLID
  8
0
 62
7
  6
CONTINUOUS
 10
369.6887227445
 20
31.3778792603
 11
369.3418477445
 21
31.4101421267
 12
370.0355977445
 22
31.4101421267
 13
370.0355977445
 23
31.4101421267
  0
SOLID
  8
0
 62
7
  6
CONTINUOUS
 10
368.3012227445
 20
31.3456148845
 11
368.4168479651
 21
31.4424063504
 12
368.9949727445
 22
31.4101421267
 13
368.9949727445
 23
31.4101421267
  0
SOLID
  8
0
 62
7
  6
CONTINUOUS
 10
369.6887227445
 20
31.3778792603
 11
370.0355977445
 21
31.4101421267
 12
369.8043479651
 22
31.3456148845
 13
369.8043479651
 23
31.3456148845
  0
SOLID
  8
0
 62
7
  6
CONTINUOUS
 10
369.8043479651
 20
31.3456148845
 11
370.0355977445
 21
31.4101421267
 12
369.8621602445
 22
31.281087868
 13
369.8621602445
 23
31.281087868
  0
SOLID
  8
0
 62
7
  6
CONTINUOUS
 10
370.0355977445
 20
31.4101421267
 11
370.1512223035
 21
31.281087868
 12
369.8621602445
 22
31.281087868
 13
369.8621602445
 23
31.281087868
  0
SOLID
  8
0
 62
7
  6
CONTINUOUS
 10
359.4559102445
 20
31.3778792603
 11
358.9355977445
 21
31.3456148963
 12
359.6871602721
 22
31.4101421155
 13
359.6871602721
 23
31.4101421155
  0
SOLID
  8
0
 62
7
  6
CONTINUOUS
 10
358.9355977445
 20
31.3456148963
 11
359.0512227376
 21
31.4101421155
 12
359.6871602721
 22
31.4101421155
 13
359.6871602721
 23
31.4101421155
  0
SOLID
  8
0
 62
7
  6
CONTINUOUS
 10
359.4559102445
 20
31.3778792603
 11
359.3402852307
 21
31.3456148963
 12
358.9355977445
 22
31.3456148963
 13
358.9355977445
 23
31.3456148963
  0
SOLID
  8
0
 62
7
  6
CONTINUOUS
 10
358.8199727462
 20
31.2165607767
 11
358.9355977445
 21
31.3456148963
 12
359.3402852307
 22
31.3456148963
 13
359.3402852307
 23
31.3456148963
  0
SOLID
  8
0
 62
7
  6
CONTINUOUS
 10
363.1559103548
 20
31.3456149608
 11
363.8496603548
 21
31.4101420472
 12
363.6184102445
 22
31.3778792603
 13
363.6184102445
 23
31.3778792603
  0
SOLID
  8
0
 62
7
  6
CONTINUOUS
 10
363.6184102445
 20
31.3778792603
 11
363.5027853548
 21
31.3456149608
 12
363.1559103548
 22
31.3456149608
 13
363.1559103548
 23
31.3456149608
  0
SOLID
  8
0
 62
7
  6
CONTINUOUS
 10
363.1559103548
 20
31.2810878707
 11
363.1559103548
 21
31.3456149608
 12
363.5027853548
 22
31.3456149608
 13
363.5027853548
 23
31.3456149608
  0
SOLID
  8
0
 62
7
  6
CONTINUOUS
 10
363.5027853548
 20
31.3456149608
 11
363.4449727445
 21
31.2810878707
 12
363.1559103548
 22
31.2810878707
 13
363.1559103548
 23
31.2810878707
  0
SOLID
  8
0
 62
7
  6
CONTINUOUS
 10
368.3012227445
 20
31.3456149608
 11
368.9949727445
 21
31.4101420472
 12
368.7637229651
 22
31.3778792603
 13
368.7637229651
 23
31.3778792603
  0
SOLID
  8
0
 62
7
  6
CONTINUOUS
 10
368.7637229651
 20
31.3778792603
 11
368.6480977445
 21
31.3456149608
 12
368.3012227445
 22
31.3456149608
 13
368.3012227445
 23
31.3456149608
  0
SOLID
  8
0
 62
7
  6
CONTINUOUS
 10
368.3012227445
 20
31.2810878707
 11
368.3012227445
 21
31.3456149608
 12
368.6480977445
 22
31.3456149608
 13
368.6480977445
 23
31.3456149608
  0
SOLID
  8
0
 62
7
  6
CONTINUOUS
 10
368.6480977445
 20
31.3456149608
 11
368.5902854651
 21
31.2810878707
 12
368.3012227445
 22
31.2810878707
 13
368.3012227445
 23
31.2810878707
  0
SOLID
  8
0
 62
7
  6
CONTINUOUS
 10
368.4168479651
 20
31.1520336865
 11
368.3012227445
 21
31.2810878707
 12
368.5902854651
 22
31.2810878707
 13
368.5902854651
 23
31.2810878707
  0
SOLID
  8
0
 62
7
  6
CONTINUOUS
 10
358.8199727462
 20
31.2165607767
 11
359.3402852307
 21
31.345614957
 12
359.1668477307
 22
31.2488235635
 13
359.1668477307
 23
31.2488235635
  0
SOLID
  8
0
 62
7
  6
CONTINUOUS
 10
359.1668477307
 20
31.2488235635
 11
359.1090352445
 21
31.1842964734
 12
358.8199727462
 22
31.2165607767
 13
358.8199727462
 23
31.2165607767
  0
SOLID
  8
0
 62
7
  6
CONTINUOUS
 10
358.7621602445
 20
31.0229779898
 11
358.8199727462
 21
31.2165607767
 12
359.1090352445
 22
31.1842964734
 13
359.1090352445
 23
31.1842964734
  0
SOLID
  8
0
 62
7
  6
CONTINUOUS
 10
363.6184102445
 20
31.1520336865
 11
363.9652852445
 21
31.1842964611
 12
364.6012229651
 22
31.1842964611
 13
364.6012229651
 23
31.1842964611
  0
SOLID
  8
0
 62
7
  6
CONTINUOUS
 10
363.6184102445
 20
31.1520336865
 11
364.6012229651
 21
31.1842964611
 12
363.3871601343
 22
31.0875057863
 13
363.3871601343
 23
31.0875057863
  0
SOLID
  8
0
 62
7
  6
CONTINUOUS
 10
363.3871601343
 20
31.0875057863
 11
364.6012229651
 21
31.1842964611
 12
363.9652852445
 22
31.0552422808
 13
363.9652852445
 23
31.0552422808
  0
SOLID
  8
0
 62
7
  6
CONTINUOUS
 10
364.6012229651
 20
31.1842964611
 11
364.6012229651
 21
31.0552422808
 12
363.9652852445
 22
31.0552422808
 13
363.9652852445
 23
31.0552422808
  0
SOLID
  8
0
 62
7
  6
CONTINUOUS
 10
368.4168479651
 20
31.1520338754
 11
368.5902854651
 21
31.2810878668
 12
368.6480977445
 22
31.2165607767
 13
368.6480977445
 23
31.2165607767
  0
SOLID
  8
0
 62
7
  6
CONTINUOUS
 10
368.6480977445
 20
31.2165607767
 11
368.8215352445
 21
31.1520338754
 12
368.4168479651
 22
31.1520338754
 13
368.4168479651
 23
31.1520338754
  0
SOLID
  8
0
 62
7
  6
CONTINUOUS
 10
368.6480977445
 20
31.0552422931
 11
368.4168479651
 21
31.1520338754
 12
368.8215352445
 22
31.1520338754
 13
368.8215352445
 23
31.1520338754
  0
SOLID
  8
0
 62
7
  6
CONTINUOUS
 10
368.8215352445
 20
31.1520338754
 11
369.8043479651
 21
30.9907152029
 12
368.6480977445
 22
31.0552422931
 13
368.6480977445
 23
31.0552422931
  0
SOLID
  8
0
 62
7
  6
CONTINUOUS
 10
369.6309104651
 20
30.8939239876
 11
368.6480977445
 21
31.0552422931
 12
369.8043479651
 22
30.9907152029
 13
369.8043479651
 23
30.9907152029
  0
SOLID
  8
0
 62
7
  6
CONTINUOUS
 10
369.8043479651
 20
30.9907152029
 11
370.0355977445
 21
30.8939239876
 12
369.6309104651
 22
30.8939239876
 13
369.6309104651
 23
30.8939239876
  0
SOLID
  8
0
 62
7
  6
CONTINUOUS
 10
369.8043479651
 20
30.8293967193
 11
369.6309104651
 21
30.8939239876
 12
370.0355977445
 22
30.8939239876
 13
370.0355977445
 23
30.8939239876
  0
SOLID
  8
0
 62
7
  6
CONTINUOUS
 10
369.8043479651
 20
30.8293967193
 11
370.0355977445
 21
30.8939239876
 12
369.8621602445
 22
30.7648682694
 13
369.8621602445
 23
30.7648682694
  0
SOLID
  8
0
 62
7
  6
CONTINUOUS
 10
370.0355977445
 20
30.8939239876
 11
370.1512223035
 21
30.7648682694
 12
369.8621602445
 22
30.7648682694
 13
369.8621602445
 23
30.7648682694
  0
SOLID
  8
0
 62
7
  6
CONTINUOUS
 10
369.8043479651
 20
30.7003411846
 11
369.8621602445
 21
30.7648682694
 12
370.1512223035
 22
30.7648682694
 13
370.1512223035
 23
30.7648682694
  0
SOLID
  8
0
 62
7
  6
CONTINUOUS
 10
370.1512223035
 20
30.7648682694
 11
370.1512223035
 21
30.7003411846
 12
369.8043479651
 22
30.7003411846
 13
369.8043479651
 23
30.7003411846
  0
SOLID
  8
0
 62
7
  6
CONTINUOUS
 10
369.6887227445
 20
30.6680782357
 11
369.8043479651
 21
30.7003411846
 12
370.1512223035
 22
30.7003411846
 13
370.1512223035
 23
30.7003411846
  0
SOLID
  8
0
 62
7
  6
CONTINUOUS
 10
369.6887227445
 20
30.6680782357
 11
370.1512223035
 21
30.7003411846
 12
369.4574729651
 22
30.6358140998
 13
369.4574729651
 23
30.6358140998
  0
SOLID
  8
0
 62
7
  6
CONTINUOUS
 10
370.1512223035
 20
30.7003411846
 11
370.0355977445
 21
30.6035511455
 12
369.4574729651
 22
30.6358140998
 13
369.4574729651
 23
30.6358140998
  0
SOLID
  8
0
 62
7
  6
CONTINUOUS
 10
370.0355977445
 20
30.6035511455
 11
368.5902854651
 21
30.5712868422
 12
369.4574729651
 22
30.6358140998
 13
369.4574729651
 23
30.6358140998
  0
SOLID
  8
0
 62
7
  6
CONTINUOUS
 10
369.4574729651
 20
30.6358140998
 11
368.5902854651
 21
30.5712868422
 12
369.1105979651
 22
30.6358140998
 13
369.1105979651
 23
30.6358140998
  0
SOLID
  8
0
 62
7
  6
CONTINUOUS
 10
368.5902854651
 20
30.5712868422
 11
368.4168479651
 21
30.6358140998
 12
369.1105979651
 22
30.6358140998
 13
369.1105979651
 23
30.6358140998
  0
SOLID
  8
0
 62
7
  6
CONTINUOUS
 10
368.5902854651
 20
30.5712868422
 11
370.0355977445
 21
30.6035511455
 12
368.7637229651
 22
30.5390223111
 13
368.7637229651
 23
30.5390223111
  0
SOLID
  8
0
 62
7
  6
CONTINUOUS
 10
370.0355977445
 20
30.6035511455
 11
369.8043479651
 21
30.5390223111
 12
368.7637229651
 22
30.5390223111
 13
368.7637229651
 23
30.5390223111
  0
SOLID
  8
0
 62
7
  6
CONTINUOUS
 10
369.1105979651
 20
30.5067599302
 11
368.7637229651
 21
30.5390223111
 12
369.8043479651
 22
30.5390223111
 13
369.8043479651
 23
30.5390223111
  0
SOLID
  8
0
 62
7
  6
CONTINUOUS
 10
369.8043479651
 20
30.5390223111
 11
369.4574729651
 21
30.5067599302
 12
369.1105979651
 22
30.5067599302
 13
369.1105979651
 23
30.5067599302
  0
SOLID
  8
0
 62
7
  6
CONTINUOUS
 10
358.7621602445
 20
31.0229779898
 11
359.1090352445
 21
31.1842964734
 12
359.0512227376
 22
31.0552422931
 13
359.0512227376
 23
31.0552422931
  0
SOLID
  8
0
 62
7
  6
CONTINUOUS
 10
359.0512227376
 20
31.0552422931
 11
359.0512227376
 21
30.9584509954
 12
358.7621602445
 22
31.0229779898
 13
358.7621602445
 23
31.0229779898
  0
SOLID
  8
0
 62
7
  6
CONTINUOUS
 10
358.8199727462
 20
30.8293967193
 11
358.7621602445
 21
31.0229779898
 12
359.0512227376
 22
30.9584509954
 13
359.0512227376
 23
30.9584509954
  0
SOLID
  8
0
 62
7
  6
CONTINUOUS
 10
359.0512227376
 20
30.9584509954
 11
359.1668477307
 21
30.797132416
 12
358.8199727462
 22
30.8293967193
 13
358.8199727462
 23
30.8293967193
  0
SOLID
  8
0
 62
7
  6
CONTINUOUS
 10
358.9355977445
 20
30.7003413087
 11
358.8199727462
 21
30.8293967193
 12
359.1668477307
 22
30.797132416
 13
359.1668477307
 23
30.797132416
  0
SOLID
  8
0
 62
7
  6
CONTINUOUS
 10
359.1668477307
 20
30.797132416
 11
359.3402852307
 21
30.7003413087
 12
358.9355977445
 22
30.7003413087
 13
358.9355977445
 23
30.7003413087
  0
SOLID
  8
0
 62
7
  6
CONTINUOUS
 10
359.0512227376
 20
30.6358140759
 11
358.9355977445
 21
30.7003413087
 12
359.3402852307
 22
30.7003413087
 13
359.3402852307
 23
30.7003413087
  0
SOLID
  8
0
 62
7
  6
CONTINUOUS
 10
359.3402852307
 20
30.7003413087
 11
359.6871602721
 21
30.6358140759
 12
359.0512227376
 22
30.6358140759
 13
359.0512227376
 23
30.6358140759
  0
SOLID
  8
0
 62
7
  6
CONTINUOUS
 10
359.2246602583
 20
30.5712868422
 11
359.0512227376
 21
30.6358140759
 12
359.6871602721
 22
30.6358140759
 13
359.6871602721
 23
30.6358140759
  0
SOLID
  8
0
 62
7
  6
CONTINUOUS
 10
363.2715352445
 20
31.0229779808
 11
363.3871601343
 21
31.0875057863
 12
363.9652852445
 22
31.0552422931
 13
363.9652852445
 23
31.0552422931
  0
SOLID
  8
0
 62
7
  6
CONTINUOUS
 10
363.9652852445
 20
31.0552422931
 11
363.7340351343
 21
31.0229779808
 12
363.2715352445
 22
31.0229779808
 13
363.2715352445
 23
31.0229779808
  0
SOLID
  8
0
 62
7
  6
CONTINUOUS
 10
363.1559103548
 20
30.8939238094
 11
363.2715352445
 21
31.0229779808
 12
363.7340351343
 22
31.0229779808
 13
363.7340351343
 23
31.0229779808
  0
SOLID
  8
0
 62
7
  6
CONTINUOUS
 10
363.5027853548
 20
30.926187309
 11
363.1559103548
 21
30.8939238094
 12
363.6184102445
 22
30.9907152029
 13
363.6184102445
 23
30.9907152029
  0
SOLID
  8
0
 62
7
  6
CONTINUOUS
 10
363.1559103548
 20
30.8939238094
 11
363.7340351343
 21
31.0229779898
 12
363.6184102445
 22
30.9907152029
 13
363.6184102445
 23
30.9907152029
  0
SOLID
  8
0
 62
7
  6
CONTINUOUS
 10
363.5027853548
 20
30.926187309
 11
363.4449727445
 21
30.8293967193
 12
363.1559103548
 22
30.8939238094
 13
363.1559103548
 23
30.8939238094
  0
SOLID
  8
0
 62
7
  6
CONTINUOUS
 10
363.1559103548
 20
30.797132416
 11
363.1559103548
 21
30.8939238094
 12
363.4449727445
 22
30.8293967193
 13
363.4449727445
 23
30.8293967193
  0
SOLID
  8
0
 62
7
  6
CONTINUOUS
 10
363.4449727445
 20
30.8293967193
 11
363.4449727445
 21
30.7648681127
 12
363.1559103548
 22
30.797132416
 13
363.1559103548
 23
30.797132416
  0
SOLID
  8
0
 62
7
  6
CONTINUOUS
 10
363.2137226343
 20
30.6680782357
 11
363.1559103548
 21
30.797132416
 12
363.4449727445
 22
30.7648681127
 13
363.4449727445
 23
30.7648681127
  0
SOLID
  8
0
 62
7
  6
CONTINUOUS
 10
364.6012229651
 20
30.8616599362
 11
364.890285024
 21
30.7648681127
 12
364.543410024
 22
30.797132416
 13
364.543410024
 23
30.797132416
  0
SOLID
  8
0
 62
7
  6
CONTINUOUS
 10
364.369972524
 20
30.7003410226
 11
364.543410024
 21
30.797132416
 12
364.890285024
 22
30.7648681127
 13
364.890285024
 23
30.7648681127
  0
SOLID
  8
0
 62
7
  6
CONTINUOUS
 10
364.369972524
 20
30.7003410226
 11
364.890285024
 21
30.7648681127
 12
364.6012229651
 22
30.6680782357
 13
364.6012229651
 23
30.6680782357
  0
SOLID
  8
0
 62
7
  6
CONTINUOUS
 10
364.890285024
 20
30.7648681127
 11
364.9480979651
 21
30.6035511455
 12
364.6012229651
 22
30.6680782357
 13
364.6012229651
 23
30.6680782357
  0
SOLID
  8
0
 62
7
  6
CONTINUOUS
 10
364.6590352445
 20
30.5712868422
 11
364.6012229651
 21
30.6680782357
 12
364.9480979651
 22
30.6035511455
 13
364.9480979651
 23
30.6035511455
  0
SOLID
  8
0
 62
7
  6
CONTINUOUS
 10
364.6590352445
 20
30.5712868422
 11
364.9480979651
 21
30.6035511455
 12
364.716847524
 22
30.5067598731
 13
364.716847524
 23
30.5067598731
  0
SOLID
  8
0
 62
7
  6
CONTINUOUS
 10
364.9480979651
 20
30.6035511455
 11
365.0059102445
 21
30.5067598731
 12
364.716847524
 22
30.5067598731
 13
364.716847524
 23
30.5067598731
  0
SOLID
  8
0
 62
7
  6
CONTINUOUS
 10
360.2652852997
 20
30.7326051679
 11
360.3230977445
 21
30.8293966612
 12
360.6121602997
 22
30.8293966612
 13
360.6121602997
 23
30.8293966612
  0
SOLID
  8
0
 62
7
  6
CONTINUOUS
 10
360.6121602997
 20
30.8293966612
 11
360.5543476894
 21
30.7003410226
 12
360.2652852997
 22
30.7326051679
 13
360.2652852997
 23
30.7326051679
  0
SOLID
  8
0
 62
7
  6
CONTINUOUS
 10
360.091847717
 20
30.6680782357
 11
360.2652852997
 21
30.7326051679
 12
360.5543476894
 22
30.7003410226
 13
360.5543476894
 23
30.7003410226
  0
SOLID
  8
0
 62
7
  6
CONTINUOUS
 10
360.091847717
 20
30.6680782357
 11
360.5543476894
 21
30.7003410226
 12
359.6871602721
 22
30.6358139324
 13
359.6871602721
 23
30.6358139324
  0
SOLID
  8
0
 62
7
  6
CONTINUOUS
 10
360.5543476894
 20
30.7003410226
 11
360.3809101894
 21
30.6035511455
 12
359.6871602721
 22
30.6358139324
 13
359.6871602721
 23
30.6358139324
  0
SOLID
  8
0
 62
7
  6
CONTINUOUS
 10
359.2246602583
 20
30.5712868422
 11
359.6871602721
 21
30.6358139324
 12
360.3809101894
 22
30.6035511455
 13
360.3809101894
 23
30.6035511455
  0
SOLID
  8
0
 62
7
  6
CONTINUOUS
 10
359.2246602583
 20
30.5712868422
 11
360.3809101894
 21
30.6035511455
 12
359.3980977583
 22
30.5390224228
 13
359.3980977583
 23
30.5390224228
  0
SOLID
  8
0
 62
7
  6
CONTINUOUS
 10
360.3809101894
 20
30.6035511455
 11
360.1496602445
 21
30.5390224228
 12
359.3980977583
 22
30.5390224228
 13
359.3980977583
 23
30.5390224228
  0
SOLID
  8
0
 62
7
  6
CONTINUOUS
 10
359.744972717
 20
30.5067597521
 11
359.3980977583
 21
30.5390224228
 12
360.1496602445
 22
30.5390224228
 13
360.1496602445
 23
30.5390224228
  0
SOLID
  8
0
 62
7
  6
CONTINUOUS
 10
363.2137226343
 20
30.6680782357
 11
363.4449727445
 21
30.7648681127
 12
363.5027853548
 22
30.7003410226
 13
363.5027853548
 23
30.7003410226
  0
SOLID
  8
0
 62
7
  6
CONTINUOUS
 10
363.5027853548
 20
30.7003410226
 11
363.7340351343
 21
30.6358139324
 12
363.2137226343
 22
30.6680782357
 13
363.2137226343
 23
30.6680782357
  0
SOLID
  8
0
 62
7
  6
CONTINUOUS
 10
363.3871601343
 20
30.5712868422
 11
363.2137226343
 21
30.6680782357
 12
363.7340351343
 22
30.6358139324
 13
363.7340351343
 23
30.6358139324
  0
SOLID
  8
0
 62
7
  6
CONTINUOUS
 10
364.0809101343
 20
30.6358139363
 11
364.369972524
 21
30.7003410226
 12
364.6012229651
 22
30.6680782357
 13
364.6012229651
 23
30.6680782357
  0
SOLID
  8
0
 62
7
  6
CONTINUOUS
 10
364.6012229651
 20
30.6680782357
 11
364.543410024
 21
30.6035511455
 12
364.0809101343
 22
30.6358139363
 13
364.0809101343
 23
30.6358139363
  0
SOLID
  8
0
 62
7
  6
CONTINUOUS
 10
364.543410024
 20
30.6035511455
 11
363.3871601343
 21
30.5712868422
 12
364.0809101343
 22
30.6358139363
 13
364.0809101343
 23
30.6358139363
  0
SOLID
  8
0
 62
7
  6
CONTINUOUS
 10
363.3871601343
 20
30.5712868422
 11
363.7340351343
 21
30.6358139363
 12
364.0809101343
 22
30.6358139363
 13
364.0809101343
 23
30.6358139363
  0
SOLID
  8
0
 62
7
  6
CONTINUOUS
 10
363.3871601343
 20
30.5712868422
 11
364.543410024
 21
30.6035511455
 12
363.5027853548
 22
30.5390225267
 13
363.5027853548
 23
30.5390225267
  0
SOLID
  8
0
 62
7
  6
CONTINUOUS
 10
364.543410024
 20
30.6035511455
 11
364.369972524
 21
30.5390225267
 12
363.5027853548
 22
30.5390225267
 13
363.5027853548
 23
30.5390225267
  0
SOLID
  8
0
 62
7
  6
CONTINUOUS
 10
363.7340351343
 20
30.5067596914
 11
363.5027853548
 21
30.5390225267
 12
364.369972524
 22
30.5390225267
 13
364.369972524
 23
30.5390225267
  0
SOLID
  8
0
 62
7
  6
CONTINUOUS
 10
364.369972524
 20
30.5390225267
 11
364.0809101343
 21
30.5067596914
 12
363.7340351343
 22
30.5067596914
 13
363.7340351343
 23
30.5067596914
  0
SOLID
  8
0
 62
7
  6
CONTINUOUS
 10
368.7637229651
 20
30.6680782357
 11
368.4168479651
 21
30.6358138717
 12
368.6480977445
 22
30.7003410226
 13
368.6480977445
 23
30.7003410226
  0
SOLID
  8
0
 62
7
  6
CONTINUOUS
 10
368.6480977445
 20
30.7003410226
 11
368.4168479651
 21
30.6358138717
 12
368.5902854651
 22
30.7648680521
 13
368.5902854651
 23
30.7648680521
  0
SOLID
  8
0
 62
7
  6
CONTINUOUS
 10
368.4168479651
 20
30.6358138717
 11
368.3012227445
 21
30.7648680521
 12
368.5902854651
 22
30.7648680521
 13
368.5902854651
 23
30.7648680521
  0
SOLID
  8
0
 62
7
  6
CONTINUOUS
 10
368.7637229651
 20
30.6680782357
 11
369.1105979651
 21
30.6358138717
 12
368.4168479651
 22
30.6358138717
 13
368.4168479651
 23
30.6358138717
  0
SOLID
  8
0
 62
7
  6
CONTINUOUS
 10
365.4684104651
 20
30.5067597521
 11
365.4684104651
 21
31.5391977439
 12
365.757472524
 22
30.5067597521
 13
365.757472524
 23
31.5391977439
  0
ENDBLK
  8
0
  6
BYBLOCK
 62
0
  0
BLOCK
  8
0
 62
2
  6
CONTINUOUS
  2
SYMBOL_0_BL0
 70
64
 10
240.8592468615
 20
19.762288695
  0
TEXT
  8
0
 62
7
  6
CONTINUOUS
 10
227.1239507038
 20
19.1357028027
  7
TEXTSTYLE_3
 40
2.7338706658
  1
Ammeraal Beltech
 41
1.0
 51
15.0
 72
0
  0
TEXT
  8
0
 62
7
  6
CONTINUOUS
 10
237.9247515296
 20
16.8621661299
  7
TEXTSTYLE_4
 40
1.0935482663
  1
Innovation & Service in Belting
 41
1.0
 72
0
  0
LINE
  8
0
 62
7
  6
CONTINUOUS
 10
221.0994100525
 20
19.9022961113
 11
221.8775620458
 21
23.5632134089
  0
LINE
  8
0
 62
7
  6
CONTINUOUS
 10
231.9727303357
 20
27.2266073205
 11
222.3653797889
 21
24.1049898993
  0
LINE
  8
0
 62
7
  6
CONTINUOUS
 10
221.3246933848
 20
19.2089453082
 11
228.8317686459
 21
12.4495443822
  0
LINE
  8
0
 62
7
  6
CONTINUOUS
 10
221.5872277955
 20
20.4440726016
 11
232.3954971607
 21
23.9558922005
  0
LINE
  8
0
 62
7
  6
CONTINUOUS
 10
232.3912920235
 20
13.6061036368
 11
223.9458323548
 21
21.2104296785
  0
LINE
  8
0
 62
7
  6
CONTINUOUS
 10
232.9111147433
 20
26.3816822048
 11
231.9345552061
 21
21.7873308023
  0
LINE
  8
0
 62
7
  6
CONTINUOUS
 10
231.2347532584
 20
18.4950214885
 11
230.5483050469
 21
15.2655365641
  0
LINE
  8
0
 62
7
  6
CONTINUOUS
 10
233.5922108419
 20
13.9963058145
 11
234.5484423775
 21
18.4950214885
  0
LINE
  8
0
 62
7
  6
CONTINUOUS
 10
235.2482443252
 20
21.7873308023
 11
235.6924861276
 21
23.8773241617
  0
LINE
  8
0
 62
7
  6
CONTINUOUS
 10
229.5448697213
 20
12.2979700695
 11
233.1043930989
 21
13.4545293241
  0
LINE
  8
0
 62
7
  6
CONTINUOUS
 10
232.685831411
 20
27.0750330078
 11
235.4672027953
 21
24.5706749648
  0
ARC
  8
0
 62
7
  6
CONTINUOUS
 10
222.5906631212
 20
23.4116390962
 40
0.7290321776
 50
108.0
 51
168.0
  0
ARC
  8
0
 62
7
  6
CONTINUOUS
 10
232.198013668
 20
26.5332565175
 40
0.7290321776
 50
348.0
 51
108.0
  0
ARC
  8
0
 62
7
  6
CONTINUOUS
 10
234.9793850522
 20
24.0288984744
 40
0.7290321776
 50
348.0
 51
48.0
  0
ARC
  8
0
 62
7
  6
CONTINUOUS
 10
229.319586389
 20
12.9913208726
 40
0.7290321776
 50
228.0
 51
288.0
  0
ARC
  8
0
 62
7
  6
CONTINUOUS
 10
221.8125111278
 20
19.7507217986
 40
0.7290321776
 50
108.0
 51
228.0
  0
ARC
  8
0
 62
7
  6
CONTINUOUS
 10
232.8791097665
 20
14.1478801272
 40
0.7290321776
 50
228.0
 51
348.0
  0
ENDBLK
  8
0
  6
BYBLOCK
 62
0
  0
ENDSEC
  0
SECTION
  2
ENTITIES
  0
TEXT
  8
0
 62
5
  6
CONTINUOUS
 10
304.937007874
 20
25.636
  7
TEXTSTYLE_2
 40
2.8
  1
Scale :
 41
0.6
 51
0.000019
 72
0
  0
TEXT
  8
0
 62
5
  6
CONTINUOUS
 10
324.937007874
 20
25.636
  7
TEXTSTYLE_2
 40
2.8
  1
Belt type:
 41
0.6
 51
0.000019
 72
0
  0
INSERT
  8
0
 62
2
  6
CONTINUOUS
  2
SYMBOL_0_BL0
 10
240.8592468615
 20
19.762288695
  0
INSERT
  8
0
 62
2
  6
CONTINUOUS
  2
SYMBOL_5_BL1
 10
382.7840918555
 20
35.5067593403
  0
LINE
  8
0
 62
2
  6
CONTINUOUS
 10
218.937007874
 20
30.0
 11
408.937007874
 21
30.0
  0
LINE
  8
0
 62
2
  6
CONTINUOUS
 10
218.937007874
 20
30.0
 11
218.937007874
 21
10.0
  0
LINE
  8
0
 62
2
  6
CONTINUOUS
 10
218.937007874
 20
10.0
 11
408.937007874
 21
10.0
  0
LINE
  8
0
 62
2
  6
CONTINUOUS
 10
303.937007874
 20
30.0
 11
303.937007874
 21
10.0
  0
LINE
  8
0
 62
2
  6
CONTINUOUS
 10
323.937007874
 20
30.0
 11
323.937007874
 21
10.0
  0
LINE
  8
0
 62
2
  6
CONTINUOUS
 10
408.937007874
 20
30.0
 11
408.937007874
 21
10.0
  0
TEXT
  8
0
 62
5
  6
CONTINUOUS
 10
221.937007874
 20
23.303
  7
TEXTSTYLE_5
 40
1.52
  1
                                                                     Ammeraal Beltech Modular A/S
 41
1.0
 72
0
  0
TEXT
  8
0
 62
5
  6
CONTINUOUS
 10
221.937007874
 20
20.595
  7
TEXTSTYLE_5
 40
1.5
  1
                                                                      Hjulmagervej 21, 7100 Vejle,  DK
 41
1.0
 72
0
  0
TEXT
  8
0
 62
5
  6
CONTINUOUS
 10
221.937007874
 20
17.881
  7
TEXTSTYLE_5
 40
1.495
  1
                                                                      tel: 
 41
1.0
 72
0
  0
TEXT
  8
0
 62
5
  6
CONTINUOUS
 10
266.9239544389
 20
17.881
  7
TEXTSTYLE_5
 40
1.51
  1
+45 75723100     fax: +45 75723348
 41
1.0
 72
0
  0
TEXT
  8
0
 62
5
  6
CONTINUOUS
 10
221.937007874
 20
15.177
  7
TEXTSTYLE_5
 40
1.5
  1
                                                                      admin@unichains.dk  www.unichains.com
 41
1.0
 72
0
  0
TEXT
  8
0
 62
5
  6
CONTINUOUS
 10
308.687007874
 20
13.75
  7
TEXTSTYLE_6
 40
5.0
  1
1:1
 41
0.7
 72
1
 11
313.937007874
 21
13.75
  0
TEXT
  8
0
 62
5
  6
CONTINUOUS
 10
326.937007874
 20
13.75
  7
TEXTSTYLE_7
 40
7.5
  1
uni Light-10-SR-K600
 41
0.5089583333
 72
0
  0
LINE
  8
0
 62
7
  6
CONTINUOUS
 10
0.0
 20
0.0
 11
0.0
 21
297.0
  0
LINE
  8
0
 62
7
  6
CONTINUOUS
 10
8.937007874
 20
10.0
 11
8.937007874
 21
287.0
  0
LINE
  8
0
 62
7
  6
CONTINUOUS
 10
0.0
 20
0.0
 11
420.0
 21
0.0
  0
LINE
  8
0
 62
7
  6
CONTINUOUS
 10
408.937007874
 20
10.0
 11
8.937007874
 21
10.0
  0
LINE
  8
0
 62
7
  6
CONTINUOUS
 10
218.937007874
 20
30.0
 11
408.937007874
 21
30.0
  0
LINE
  8
0
 62
7
  6
CONTINUOUS
 10
210.0
 20
297.0
 11
210.0
 21
292.0
  0
LINE
  8
0
 62
7
  6
CONTINUOUS
 10
210.0
 20
0.0
 11
210.0
 21
5.0
  0
LINE
  8
0
 62
7
  6
CONTINUOUS
 10
8.937007874
 20
287.0
 11
408.937007874
 21
287.0
  0
LINE
  8
0
 62
7
  6
CONTINUOUS
 10
0.0
 20
297.0
 11
420.0
 21
297.0
  0
LINE
  8
0
 62
7
  6
CONTINUOUS
 10
408.937007874
 20
287.0
 11
408.937007874
 21
10.0
  0
LINE
  8
0
 62
7
  6
CONTINUOUS
 10
420.0
 20
0.0
 11
420.0
 21
297.0
  0
LINE
  8
0
 62
7
  6
CONTINUOUS
 10
66.1540224913
 20
203.6037633478
 11
66.1540224913
 21
209.4037633478
  0
LINE
  8
0
 62
7
  6
CONTINUOUS
 10
66.3540224913
 20
201.9037647424
 11
66.3540224913
 21
209.4037633478
  0
POLYLINE
  8
0
 62
7
  6
CONTINUOUS
 66
1
 70
0
  0
VERTEX
  8
0
 62
7
  6
CONTINUOUS
 10
70.3040224913
 20
207.1390400432
  0
VERTEX
  8
0
 62
7
  6
CONTINUOUS
 10
70.3060677686
 20
207.094993149
  0
VERTEX
  8
0
 62
7
  6
CONTINUOUS
 10
70.3122751035
 20
207.0497130247
  0
VERTEX
  8
0
 62
7
  6
CONTINUOUS
 10
70.3226700054
 20
207.0037633478
  0
SEQEND
  0
LINE
  8
0
 62
7
  6
CONTINUOUS
 10
70.0940224913
 20
209.9037633478
 11
70.0940224913
 21
212.6037633478
  0
LINE
  8
0
 62
7
  6
CONTINUOUS
 10
70.3040224913
 20
201.9037633478
 11
70.3040224913
 21
209.4037633478
  0
LINE
  8
0
 62
7
  6
CONTINUOUS
 10
71.2940224913
 20
212.6037614765
 11
71.2940224913
 21
209.9037633478
  0
LINE
  8
0
 62
7
  6
CONTINUOUS
 10
72.9540224913
 20
207.0037633478
 11
72.9540224913
 21
201.9037633478
  0
LINE
  8
2_FEATURE
 62
7
  6
CONTINUOUS
 10
78.1040224913
 20
202.6097798646
 11
78.1040224913
 21
201.4037633478
  0
LINE
  8
0
 62
7
  6
CONTINUOUS
 10
78.5040224913
 20
205.1468455558
 11
78.5040224913
 21
201.9037633478
  0
LINE
  8
0
 62
7
  6
CONTINUOUS
 10
80.4540224913
 20
209.4037633478
 11
80.4540224913
 21
201.9037633478
  0
POLYLINE
  8
2_FEATURE
 62
7
  6
CONTINUOUS
 66
1
 70
0
  0
VERTEX
  8
2_FEATURE
 62
7
  6
CONTINUOUS
 10
78.1040224913
 20
202.6097798646
  0
VERTEX
  8
2_FEATURE
 62
7
  6
CONTINUOUS
 10
78.1133076895
 20
202.67324685
  0
VERTEX
  8
2_FEATURE
 62
7
  6
CONTINUOUS
 10
78.1352326558
 20
202.7199603329
  0
VERTEX
  8
2_FEATURE
 62
7
  6
CONTINUOUS
 10
78.1633199298
 20
202.7502369416
  0
VERTEX
  8
2_FEATURE
 62
7
  6
CONTINUOUS
 10
78.1934498883
 20
202.7658078688
  0
VERTEX
  8
2_FEATURE
 62
7
  6
CONTINUOUS
 10
78.2244945425
 20
202.7692432361
  0
VERTEX
  8
2_FEATURE
 62
7
  6
CONTINUOUS
 10
78.2575144038
 20
202.7612152755
  0
VERTEX
  8
2_FEATURE
 62
7
  6
CONTINUOUS
 10
78.2913896553
 20
202.7414129701
  0
VERTEX
  8
2_FEATURE
 62
7
  6
CONTINUOUS
 10
78.3275510498
 20
202.7073933109
  0
VERTEX
  8
2_FEATURE
 62
7
  6
CONTINUOUS
 10
78.3654979236
 20
202.6563632347
  0
VERTEX
  8
2_FEATURE
 62
7
  6
CONTINUOUS
 10
78.4032314702
 20
202.587362948
  0
VERTEX
  8
2_FEATURE
 62
7
  6
CONTINUOUS
 10
78.4395275272
 20
202.4980311173
  0
SEQEND
  0
POLYLINE
  8
0
 62
7
  6
CONTINUOUS
 66
1
 70
0
  0
VERTEX
  8
0
 62
7
  6
CONTINUOUS
 10
80.4437842407
 20
207.0037633478
  0
VERTEX
  8
0
 62
7
  6
CONTINUOUS
 10
80.4494873639
 20
207.0377005752
  0
VERTEX
  8
0
 62
7
  6
CONTINUOUS
 10
80.4528925651
 20
207.0712933306
  0
VERTEX
  8
0
 62
7
  6
CONTINUOUS
 10
80.4540224913
 20
207.1044282817
  0
SEQEND
  0
POLYLINE
  8
2_FEATURE
 62
7
  6
CONTINUOUS
 66
1
 70
0
  0
VERTEX
  8
2_FEATURE
 62
7
  6
CONTINUOUS
 10
78.4395275272
 20
202.4980311173
  0
VERTEX
  8
2_FEATURE
 62
7
  6
CONTINUOUS
 10
78.4821717816
 20
202.3440428971
  0
VERTEX
  8
2_FEATURE
 62
7
  6
CONTINUOUS
 10
78.4947600868
 20
202.2705807044
  0
VERTEX
  8
2_FEATURE
 62
7
  6
CONTINUOUS
 10
78.5040224913
 20
202.1379096278
  0
SEQEND
  0
POLYLINE
  8
0
 62
7
  6
CONTINUOUS
 66
1
 70
0
  0
VERTEX
  8
0
 62
7
  6
CONTINUOUS
 10
89.6540224913
 20
207.1044282817
  0
VERTEX
  8
0
 62
7
  6
CONTINUOUS
 10
89.6551516147
 20
207.071305172
  0
VERTEX
  8
0
 62
7
  6
CONTINUOUS
 10
89.6585574073
 20
207.0377021453
  0
VERTEX
  8
0
 62
7
  6
CONTINUOUS
 10
89.664260742
 20
207.0037633478
  0
SEQEND
  0
LINE
  8
0
 62
7
  6
CONTINUOUS
 10
89.1940224913
 20
209.9037633478
 11
89.1940224913
 21
212.6037633478
  0
LINE
  8
0
 62
7
  6
CONTINUOUS
 10
89.6540224913
 20
201.9037633478
 11
89.6540224913
 21
209.4037633478
  0
LINE
  8
0
 62
7
  6
CONTINUOUS
 10
90.3940224913
 20
212.6037614765
 11
90.3940224913
 21
209.9037633478
  0
LINE
  8
0
 62
7
  6
CONTINUOUS
 10
91.6040224913
 20
205.1468458059
 11
91.6040224913
 21
201.9037633478
  0
POLYLINE
  8
0
 62
7
  6
CONTINUOUS
 66
1
 70
0
  0
VERTEX
  8
0
 62
7
  6
CONTINUOUS
 10
70.3040224913
 20
204.8400347229
  0
VERTEX
  8
0
 62
7
  6
CONTINUOUS
 10
70.291596523
 20
204.8267946538
  0
VERTEX
  8
0
 62
7
  6
CONTINUOUS
 10
70.2548670432
 20
204.8143686776
  0
VERTEX
  8
0
 62
7
  6
CONTINUOUS
 10
70.1955552248
 20
204.8033353803
  0
VERTEX
  8
0
 62
7
  6
CONTINUOUS
 10
70.1165286216
 20
204.7941969652
  0
VERTEX
  8
0
 62
7
  6
CONTINUOUS
 10
70.0216800566
 20
204.7873625015
  0
VERTEX
  8
0
 62
7
  6
CONTINUOUS
 10
69.91573843
 20
204.7831351233
  0
VERTEX
  8
0
 62
7
  6
CONTINUOUS
 10
69.8040224913
 20
204.7817036789
  0
SEQEND
  0
POLYLINE
  8
0
 62
7
  6
CONTINUOUS
 66
1
 70
0
  0
VERTEX
  8
0
 62
7
  6
CONTINUOUS
 10
70.3040224913
 20
206.6674919728
  0
VERTEX
  8
0
 62
7
  6
CONTINUOUS
 10
70.291596523
 20
206.6807320419
  0
VERTEX
  8
0
 62
7
  6
CONTINUOUS
 10
70.2548670432
 20
206.693158018
  0
VERTEX
  8
0
 62
7
  6
CONTINUOUS
 10
70.1955552248
 20
206.7041913153
  0
VERTEX
  8
0
 62
7
  6
CONTINUOUS
 10
70.1165286216
 20
206.7133297305
  0
VERTEX
  8
0
 62
7
  6
CONTINUOUS
 10
70.0216800566
 20
206.7201641942
  0
VERTEX
  8
0
 62
7
  6
CONTINUOUS
 10
69.91573843
 20
206.7243915723
  0
VERTEX
  8
0
 62
7
  6
CONTINUOUS
 10
69.8040224913
 20
206.7258230168
  0
SEQEND
  0
POLYLINE
  8
0
 62
7
  6
CONTINUOUS
 66
1
 70
0
  0
VERTEX
  8
0
 62
7
  6
CONTINUOUS
 10
80.4540224913
 20
204.8400347229
  0
VERTEX
  8
0
 62
7
  6
CONTINUOUS
 10
80.4664484597
 20
204.8267946538
  0
VERTEX
  8
0
 62
7
  6
CONTINUOUS
 10
80.5031779395
 20
204.8143686776
  0
VERTEX
  8
0
 62
7
  6
CONTINUOUS
 10
80.5624897579
 20
204.8033353803
  0
VERTEX
  8
0
 62
7
  6
CONTINUOUS
 10
80.6415163611
 20
204.7941969652
  0
VERTEX
  8
0
 62
7
  6
CONTINUOUS
 10
80.7363649261
 20
204.7873625015
  0
VERTEX
  8
0
 62
7
  6
CONTINUOUS
 10
80.8423065527
 20
204.7831351233
  0
VERTEX
  8
0
 62
7
  6
CONTINUOUS
 10
80.9540224913
 20
204.7817036789
  0
SEQEND
  0
LINE
  8
0
 62
7
  6
CONTINUOUS
 10
97.6040224913
 20
205.146845373
 11
97.6040224913
 21
201.9037633478
  0
LINE
  8
0
 62
7
  6
CONTINUOUS
 10
99.5540224913
 20
201.9037633478
 11
99.5540224913
 21
209.4037633478
  0
POLYLINE
  8
0
 62
7
  6
CONTINUOUS
 66
1
 70
0
  0
VERTEX
  8
0
 62
7
  6
CONTINUOUS
 10
99.5437842407
 20
207.0037633478
  0
VERTEX
  8
0
 62
7
  6
CONTINUOUS
 10
99.5494873639
 20
207.0377005752
  0
VERTEX
  8
0
 62
7
  6
CONTINUOUS
 10
99.5528925651
 20
207.0712933306
  0
VERTEX
  8
0
 62
7
  6
CONTINUOUS
 10
99.5540224913
 20
207.1044282817
  0
SEQEND
  0
POLYLINE
  8
0
 62
7
  6
CONTINUOUS
 66
1
 70
0
  0
VERTEX
  8
0
 62
7
  6
CONTINUOUS
 10
80.4540224913
 20
206.6674919728
  0
VERTEX
  8
0
 62
7
  6
CONTINUOUS
 10
80.4664484597
 20
206.6807320419
  0
VERTEX
  8
0
 62
7
  6
CONTINUOUS
 10
80.5031779395
 20
206.693158018
  0
VERTEX
  8
0
 62
7
  6
CONTINUOUS
 10
80.5624897579
 20
206.7041913153
  0
VERTEX
  8
0
 62
7
  6
CONTINUOUS
 10
80.6415163611
 20
206.7133297305
  0
VERTEX
  8
0
 62
7
  6
CONTINUOUS
 10
80.7363649261
 20
206.7201641942
  0
VERTEX
  8
0
 62
7
  6
CONTINUOUS
 10
80.8423065527
 20
206.7243915723
  0
VERTEX
  8
0
 62
7
  6
CONTINUOUS
 10
80.9540224913
 20
206.7258230168
  0
SEQEND
  0
POLYLINE
  8
0
 62
7
  6
CONTINUOUS
 66
1
 70
0
  0
VERTEX
  8
0
 62
7
  6
CONTINUOUS
 10
89.6540224913
 20
204.8400347229
  0
VERTEX
  8
0
 62
7
  6
CONTINUOUS
 10
89.641596523
 20
204.8267946538
  0
VERTEX
  8
0
 62
7
  6
CONTINUOUS
 10
89.6048670432
 20
204.8143686776
  0
VERTEX
  8
0
 62
7
  6
CONTINUOUS
 10
89.5455552248
 20
204.8033353803
  0
VERTEX
  8
0
 62
7
  6
CONTINUOUS
 10
89.4665286216
 20
204.7941969652
  0
VERTEX
  8
0
 62
7
  6
CONTINUOUS
 10
89.3716800566
 20
204.7873625015
  0
VERTEX
  8
0
 62
7
  6
CONTINUOUS
 10
89.26573843
 20
204.7831351233
  0
VERTEX
  8
0
 62
7
  6
CONTINUOUS
 10
89.1540224913
 20
204.7817036789
  0
SEQEND
  0
POLYLINE
  8
0
 62
7
  6
CONTINUOUS
 66
1
 70
0
  0
VERTEX
  8
0
 62
7
  6
CONTINUOUS
 10
89.6540224913
 20
206.6674919728
  0
VERTEX
  8
0
 62
7
  6
CONTINUOUS
 10
89.641596523
 20
206.6807320419
  0
VERTEX
  8
0
 62
7
  6
CONTINUOUS
 10
89.6048670432
 20
206.693158018
  0
VERTEX
  8
0
 62
7
  6
CONTINUOUS
 10
89.5455552248
 20
206.7041913153
  0
VERTEX
  8
0
 62
7
  6
CONTINUOUS
 10
89.4665286216
 20
206.7133297305
  0
VERTEX
  8
0
 62
7
  6
CONTINUOUS
 10
89.3716800566
 20
206.7201641942
  0
VERTEX
  8
0
 62
7
  6
CONTINUOUS
 10
89.26573843
 20
206.7243915723
  0
VERTEX
  8
0
 62
7
  6
CONTINUOUS
 10
89.1540224913
 20
206.7258230168
  0
SEQEND
  0
POLYLINE
  8
0
 62
7
  6
CONTINUOUS
 66
1
 70
0
  0
VERTEX
  8
0
 62
7
  6
CONTINUOUS
 10
108.7540224913
 20
207.1044282817
  0
VERTEX
  8
0
 62
7
  6
CONTINUOUS
 10
108.7551516147
 20
207.071305172
  0
VERTEX
  8
0
 62
7
  6
CONTINUOUS
 10
108.7585574073
 20
207.0377021453
  0
VERTEX
  8
0
 62
7
  6
CONTINUOUS
 10
108.764260742
 20
207.0037633478
  0
SEQEND
  0
LINE
  8
0
 62
7
  6
CONTINUOUS
 10
108.2940224913
 20
209.9037633478
 11
108.2940224913
 21
212.6037633478
  0
LINE
  8
0
 62
7
  6
CONTINUOUS
 10
108.7540224913
 20
201.9037633478
 11
108.7540224913
 21
209.4037633478
  0
LINE
  8
0
 62
7
  6
CONTINUOUS
 10
109.4940224913
 20
212.6037614765
 11
109.4940224913
 21
209.9037633478
  0
LINE
  8
0
 62
7
  6
CONTINUOUS
 10
110.7040224913
 20
205.1468458059
 11
110.7040224913
 21
201.9037633478
  0
POLYLINE
  8
0
 62
7
  6
CONTINUOUS
 66
1
 70
0
  0
VERTEX
  8
0
 62
7
  6
CONTINUOUS
 10
99.5540224913
 20
206.6674919728
  0
VERTEX
  8
0
 62
7
  6
CONTINUOUS
 10
99.5664484597
 20
206.6807320419
  0
VERTEX
  8
0
 62
7
  6
CONTINUOUS
 10
99.6031779395
 20
206.693158018
  0
VERTEX
  8
0
 62
7
  6
CONTINUOUS
 10
99.6624897579
 20
206.7041913153
  0
VERTEX
  8
0
 62
7
  6
CONTINUOUS
 10
99.7415163611
 20
206.7133297305
  0
VERTEX
  8
0
 62
7
  6
CONTINUOUS
 10
99.8363649261
 20
206.7201641942
  0
VERTEX
  8
0
 62
7
  6
CONTINUOUS
 10
99.9423065527
 20
206.7243915723
  0
VERTEX
  8
0
 62
7
  6
CONTINUOUS
 10
100.0540224913
 20
206.7258230168
  0
SEQEND
  0
POLYLINE
  8
0
 62
7
  6
CONTINUOUS
 66
1
 70
0
  0
VERTEX
  8
0
 62
7
  6
CONTINUOUS
 10
99.5540224913
 20
204.8400347229
  0
VERTEX
  8
0
 62
7
  6
CONTINUOUS
 10
99.5664484597
 20
204.8267946538
  0
VERTEX
  8
0
 62
7
  6
CONTINUOUS
 10
99.6031779395
 20
204.8143686776
  0
VERTEX
  8
0
 62
7
  6
CONTINUOUS
 10
99.6624897579
 20
204.8033353803
  0
VERTEX
  8
0
 62
7
  6
CONTINUOUS
 10
99.7415163611
 20
204.7941969652
  0
VERTEX
  8
0
 62
7
  6
CONTINUOUS
 10
99.8363649261
 20
204.7873625015
  0
VERTEX
  8
0
 62
7
  6
CONTINUOUS
 10
99.9423065527
 20
204.7831351233
  0
VERTEX
  8
0
 62
7
  6
CONTINUOUS
 10
100.0540224913
 20
204.7817036789
  0
SEQEND
  0
LINE
  8
0
 62
7
  6
CONTINUOUS
 10
116.7040224913
 20
205.146845373
 11
116.7040224913
 21
201.9037633478
  0
POLYLINE
  8
0
 62
7
  6
CONTINUOUS
 66
1
 70
0
  0
VERTEX
  8
0
 62
7
  6
CONTINUOUS
 10
108.7540224913
 20
206.6674919728
  0
VERTEX
  8
0
 62
7
  6
CONTINUOUS
 10
108.741596523
 20
206.6807320419
  0
VERTEX
  8
0
 62
7
  6
CONTINUOUS
 10
108.7048670432
 20
206.693158018
  0
VERTEX
  8
0
 62
7
  6
CONTINUOUS
 10
108.6455552248
 20
206.7041913153
  0
VERTEX
  8
0
 62
7
  6
CONTINUOUS
 10
108.5665286216
 20
206.7133297305
  0
VERTEX
  8
0
 62
7
  6
CONTINUOUS
 10
108.4716800566
 20
206.7201641942
  0
VERTEX
  8
0
 62
7
  6
CONTINUOUS
 10
108.36573843
 20
206.7243915723
  0
VERTEX
  8
0
 62
7
  6
CONTINUOUS
 10
108.2540224913
 20
206.7258230168
  0
SEQEND
  0
LINE
  8
0
 62
7
  6
CONTINUOUS
 10
118.6540224913
 20
201.9037633478
 11
118.6540224913
 21
209.4037633478
  0
POLYLINE
  8
0
 62
7
  6
CONTINUOUS
 66
1
 70
0
  0
VERTEX
  8
0
 62
7
  6
CONTINUOUS
 10
118.6437842407
 20
207.0037633478
  0
VERTEX
  8
0
 62
7
  6
CONTINUOUS
 10
118.6494873639
 20
207.0377005752
  0
VERTEX
  8
0
 62
7
  6
CONTINUOUS
 10
118.6528925651
 20
207.0712933306
  0
VERTEX
  8
0
 62
7
  6
CONTINUOUS
 10
118.6540224913
 20
207.1044282817
  0
SEQEND
  0
POLYLINE
  8
0
 62
7
  6
CONTINUOUS
 66
1
 70
0
  0
VERTEX
  8
0
 62
7
  6
CONTINUOUS
 10
108.7540224913
 20
204.8400347229
  0
VERTEX
  8
0
 62
7
  6
CONTINUOUS
 10
108.741596523
 20
204.8267946538
  0
VERTEX
  8
0
 62
7
  6
CONTINUOUS
 10
108.7048670432
 20
204.8143686776
  0
VERTEX
  8
0
 62
7
  6
CONTINUOUS
 10
108.6455552248
 20
204.8033353803
  0
VERTEX
  8
0
 62
7
  6
CONTINUOUS
 10
108.5665286216
 20
204.7941969652
  0
VERTEX
  8
0
 62
7
  6
CONTINUOUS
 10
108.4716800566
 20
204.7873625015
  0
VERTEX
  8
0
 62
7
  6
CONTINUOUS
 10
108.36573843
 20
204.7831351233
  0
VERTEX
  8
0
 62
7
  6
CONTINUOUS
 10
108.2540224913
 20
204.7817036789
  0
SEQEND
  0
LINE
  8
0
 62
7
  6
CONTINUOUS
 10
127.3940224913
 20
209.9037633478
 11
127.3940224913
 21
212.6037633478
  0
POLYLINE
  8
0
 62
7
  6
CONTINUOUS
 66
1
 70
0
  0
VERTEX
  8
0
 62
7
  6
CONTINUOUS
 10
118.6540224913
 20
206.6674919728
  0
VERTEX
  8
0
 62
7
  6
CONTINUOUS
 10
118.6664484597
 20
206.6807320419
  0
VERTEX
  8
0
 62
7
  6
CONTINUOUS
 10
118.7031779395
 20
206.693158018
  0
VERTEX
  8
0
 62
7
  6
CONTINUOUS
 10
118.7624897579
 20
206.7041913153
  0
VERTEX
  8
0
 62
7
  6
CONTINUOUS
 10
118.8415163611
 20
206.7133297305
  0
VERTEX
  8
0
 62
7
  6
CONTINUOUS
 10
118.9363649261
 20
206.7201641942
  0
VERTEX
  8
0
 62
7
  6
CONTINUOUS
 10
119.0423065527
 20
206.7243915723
  0
VERTEX
  8
0
 62
7
  6
CONTINUOUS
 10
119.1540224913
 20
206.7258230168
  0
SEQEND
  0
POLYLINE
  8
0
 62
7
  6
CONTINUOUS
 66
1
 70
0
  0
VERTEX
  8
0
 62
7
  6
CONTINUOUS
 10
118.6540224913
 20
204.8400347229
  0
VERTEX
  8
0
 62
7
  6
CONTINUOUS
 10
118.6664484597
 20
204.8267946538
  0
VERTEX
  8
0
 62
7
  6
CONTINUOUS
 10
118.7031779395
 20
204.8143686776
  0
VERTEX
  8
0
 62
7
  6
CONTINUOUS
 10
118.7624897579
 20
204.8033353803
  0
VERTEX
  8
0
 62
7
  6
CONTINUOUS
 10
118.8415163611
 20
204.7941969652
  0
VERTEX
  8
0
 62
7
  6
CONTINUOUS
 10
118.9363649261
 20
204.7873625015
  0
VERTEX
  8
0
 62
7
  6
CONTINUOUS
 10
119.0423065527
 20
204.7831351233
  0
VERTEX
  8
0
 62
7
  6
CONTINUOUS
 10
119.1540224913
 20
204.7817036789
  0
SEQEND
  0
POLYLINE
  8
0
 62
7
  6
CONTINUOUS
 66
1
 70
0
  0
VERTEX
  8
0
 62
7
  6
CONTINUOUS
 10
127.8540224913
 20
207.1044282817
  0
VERTEX
  8
0
 62
7
  6
CONTINUOUS
 10
127.8551516147
 20
207.071305172
  0
VERTEX
  8
0
 62
7
  6
CONTINUOUS
 10
127.8585574073
 20
207.0377021453
  0
VERTEX
  8
0
 62
7
  6
CONTINUOUS
 10
127.864260742
 20
207.0037633478
  0
SEQEND
  0
LINE
  8
0
 62
7
  6
CONTINUOUS
 10
127.8540224913
 20
201.9037633478
 11
127.8540224913
 21
209.4037633478
  0
LINE
  8
0
 62
7
  6
CONTINUOUS
 10
128.5940224913
 20
212.6037614765
 11
128.5940224913
 21
209.9037633478
  0
LINE
  8
0
 62
7
  6
CONTINUOUS
 10
129.8040224913
 20
205.1468458059
 11
129.8040224913
 21
201.9037633478
  0
POLYLINE
  8
0
 62
7
  6
CONTINUOUS
 66
1
 70
0
  0
VERTEX
  8
0
 62
7
  6
CONTINUOUS
 10
127.8540224913
 20
206.6674919728
  0
VERTEX
  8
0
 62
7
  6
CONTINUOUS
 10
127.841596523
 20
206.6807320419
  0
VERTEX
  8
0
 62
7
  6
CONTINUOUS
 10
127.8048670432
 20
206.693158018
  0
VERTEX
  8
0
 62
7
  6
CONTINUOUS
 10
127.7455552248
 20
206.7041913153
  0
VERTEX
  8
0
 62
7
  6
CONTINUOUS
 10
127.6665286216
 20
206.7133297305
  0
VERTEX
  8
0
 62
7
  6
CONTINUOUS
 10
127.5716800566
 20
206.7201641942
  0
VERTEX
  8
0
 62
7
  6
CONTINUOUS
 10
127.46573843
 20
206.7243915723
  0
VERTEX
  8
0
 62
7
  6
CONTINUOUS
 10
127.3540224913
 20
206.7258230168
  0
SEQEND
  0
POLYLINE
  8
1_AXIS
 62
7
  6
CONTINUOUS
 66
1
 70
0
  0
VERTEX
  8
1_AXIS
 62
7
  6
CONTINUOUS
 10
133.6140224913
 20
201.4680341217
  0
VERTEX
  8
1_AXIS
 62
7
  6
CONTINUOUS
 10
133.6179379879
 20
201.4553127577
  0
VERTEX
  8
1_AXIS
 62
7
  6
CONTINUOUS
 10
133.6488591264
 20
201.4345686117
  0
VERTEX
  8
1_AXIS
 62
7
  6
CONTINUOUS
 10
133.7093124528
 20
201.4199791105
  0
VERTEX
  8
1_AXIS
 62
7
  6
CONTINUOUS
 10
133.7971057815
 20
201.4108621714
  0
VERTEX
  8
1_AXIS
 62
7
  6
CONTINUOUS
 10
133.9090118692
 20
201.406062595
  0
VERTEX
  8
1_AXIS
 62
7
  6
CONTINUOUS
 10
134.0405890132
 20
201.4041625743
  0
VERTEX
  8
1_AXIS
 62
7
  6
CONTINUOUS
 10
134.1863334262
 20
201.4037658492
  0
VERTEX
  8
1_AXIS
 62
7
  6
CONTINUOUS
 10
134.5493090715
 20
201.4037634223
  0
SEQEND
  0
LINE
  8
0
 62
7
  6
CONTINUOUS
 10
135.8040224913
 20
205.1468521722
 11
135.8040224913
 21
201.9037633478
  0
LINE
  8
0
 62
7
  6
CONTINUOUS
 10
137.7540224913
 20
201.9037633478
 11
137.7540224913
 21
209.4037633478
  0
POLYLINE
  8
0
 62
7
  6
CONTINUOUS
 66
1
 70
0
  0
VERTEX
  8
0
 62
7
  6
CONTINUOUS
 10
137.7437842407
 20
207.0037633478
  0
VERTEX
  8
0
 62
7
  6
CONTINUOUS
 10
137.7494873639
 20
207.0377005752
  0
VERTEX
  8
0
 62
7
  6
CONTINUOUS
 10
137.7528925651
 20
207.0712933306
  0
VERTEX
  8
0
 62
7
  6
CONTINUOUS
 10
137.7540224913
 20
207.1044282817
  0
SEQEND
  0
POLYLINE
  8
1_AXIS
 62
7
  6
CONTINUOUS
 66
1
 70
0
  0
VERTEX
  8
1_AXIS
 62
7
  6
CONTINUOUS
 10
133.6140224913
 20
201.4680341217
  0
VERTEX
  8
1_AXIS
 62
7
  6
CONTINUOUS
 10
133.6289650369
 20
201.4969279274
  0
VERTEX
  8
1_AXIS
 62
7
  6
CONTINUOUS
 10
133.6736514973
 20
201.5301860327
  0
VERTEX
  8
1_AXIS
 62
7
  6
CONTINUOUS
 10
133.7466788659
 20
201.5656133191
  0
VERTEX
  8
1_AXIS
 62
7
  6
CONTINUOUS
 10
133.8447226401
 20
201.6002152686
  0
VERTEX
  8
1_AXIS
 62
7
  6
CONTINUOUS
 10
133.9626453229
 20
201.6307306623
  0
VERTEX
  8
1_AXIS
 62
7
  6
CONTINUOUS
 10
134.0945218369
 20
201.6543612971
  0
VERTEX
  8
1_AXIS
 62
7
  6
CONTINUOUS
 10
134.2348282329
 20
201.6692041915
  0
VERTEX
  8
1_AXIS
 62
7
  6
CONTINUOUS
 10
134.3790184859
 20
201.6742535734
  0
VERTEX
  8
1_AXIS
 62
7
  6
CONTINUOUS
 10
134.5232109324
 20
201.6692046005
  0
VERTEX
  8
1_AXIS
 62
7
  6
CONTINUOUS
 10
134.6635199076
 20
201.6543617576
  0
VERTEX
  8
1_AXIS
 62
7
  6
CONTINUOUS
 10
134.795397042
 20
201.6307312335
  0
VERTEX
  8
1_AXIS
 62
7
  6
CONTINUOUS
 10
134.9133191316
 20
201.6002162437
  0
VERTEX
  8
1_AXIS
 62
7
  6
CONTINUOUS
 10
135.0113626212
 20
201.5656147601
  0
VERTEX
  8
1_AXIS
 62
7
  6
CONTINUOUS
 10
135.0843907503
 20
201.5301876387
  0
VERTEX
  8
1_AXIS
 62
7
  6
CONTINUOUS
 10
135.1290797348
 20
201.4969281486
  0
VERTEX
  8
1_AXIS
 62
7
  6
CONTINUOUS
 10
135.1440224913
 20
201.4680341217
  0
SEQEND
  0
POLYLINE
  8
0
 62
7
  6
CONTINUOUS
 66
1
 70
0
  0
VERTEX
  8
0
 62
7
  6
CONTINUOUS
 10
127.8540224913
 20
204.8400347229
  0
VERTEX
  8
0
 62
7
  6
CONTINUOUS
 10
127.841596523
 20
204.8267946538
  0
VERTEX
  8
0
 62
7
  6
CONTINUOUS
 10
127.8048670432
 20
204.8143686776
  0
VERTEX
  8
0
 62
7
  6
CONTINUOUS
 10
127.7455552248
 20
204.8033353803
  0
VERTEX
  8
0
 62
7
  6
CONTINUOUS
 10
127.6665286216
 20
204.7941969652
  0
VERTEX
  8
0
 62
7
  6
CONTINUOUS
 10
127.5716800566
 20
204.7873625015
  0
VERTEX
  8
0
 62
7
  6
CONTINUOUS
 10
127.46573843
 20
204.7831351233
  0
VERTEX
  8
0
 62
7
  6
CONTINUOUS
 10
127.3540224913
 20
204.7817036789
  0
SEQEND
  0
LINE
  8
2_FEATURE
 62
7
  6
CONTINUOUS
 10
153.3852724913
 20
201.429396611
 11
153.2977725748
 21
201.4157424687
  0
LINE
  8
2_FEATURE
 62
7
  6
CONTINUOUS
 10
151.4165224913
 20
201.429396611
 11
151.3290224496
 21
201.4157424687
  0
LINE
  8
2_FEATURE
 62
7
  6
CONTINUOUS
 10
153.6477724913
 20
201.4219240265
 11
153.5165224913
 21
201.4048946512
  0
LINE
  8
2_FEATURE
 62
7
  6
CONTINUOUS
 10
151.6790224913
 20
201.4219240265
 11
151.5477724913
 21
201.4048946512
  0
POLYLINE
  8
2_FEATURE
 62
7
  6
CONTINUOUS
 66
1
 70
0
  0
VERTEX
  8
2_FEATURE
 62
7
  6
CONTINUOUS
 10
153.5165224913
 20
201.6049491871
  0
VERTEX
  8
2_FEATURE
 62
7
  6
CONTINUOUS
 10
153.5603430676
 20
201.6085206573
  0
VERTEX
  8
2_FEATURE
 62
7
  6
CONTINUOUS
 10
153.5715699488
 20
201.6100480331
  0
SEQEND
  0
POLYLINE
  8
2_FEATURE
 62
7
  6
CONTINUOUS
 66
1
 70
0
  0
VERTEX
  8
2_FEATURE
 62
7
  6
CONTINUOUS
 10
151.5477724913
 20
201.6049491871
  0
VERTEX
  8
2_FEATURE
 62
7
  6
CONTINUOUS
 10
151.5915930676
 20
201.6085206573
  0
VERTEX
  8
2_FEATURE
 62
7
  6
CONTINUOUS
 10
151.6028199488
 20
201.6100480331
  0
SEQEND
  0
LINE
  8
2_FEATURE
 62
7
  6
CONTINUOUS
 10
153.2977725748
 20
201.4157424687
 11
153.1665225748
 21
201.4108464248
  0
LINE
  8
2_FEATURE
 62
7
  6
CONTINUOUS
 10
151.3290224496
 20
201.4157424687
 11
151.1977724496
 21
201.4108464248
  0
LINE
  8
2_FEATURE
 62
7
  6
CONTINUOUS
 10
153.4581890958
 20
201.6038370558
 11
153.5165224913
 21
201.6049491871
  0
LINE
  8
2_FEATURE
 62
7
  6
CONTINUOUS
 10
151.4894391375
 20
201.6038370558
 11
151.5477724913
 21
201.6049491871
  0
POLYLINE
  8
1_AXIS
 62
7
  6
CONTINUOUS
 66
1
 70
0
  0
VERTEX
  8
1_AXIS
 62
7
  6
CONTINUOUS
 10
134.7175721333
 20
201.6041826305
  0
VERTEX
  8
1_AXIS
 62
7
  6
CONTINUOUS
 10
134.8491399674
 20
201.6061763034
  0
VERTEX
  8
1_AXIS
 62
7
  6
CONTINUOUS
 10
134.8841921895
 20
201.6077534943
  0
SEQEND
  0
POLYLINE
  8
1_AXIS
 62
7
  6
CONTINUOUS
 66
1
 70
0
  0
VERTEX
  8
1_AXIS
 62
7
  6
CONTINUOUS
 10
134.7174804356
 20
201.4041627379
  0
VERTEX
  8
1_AXIS
 62
7
  6
CONTINUOUS
 10
134.8490520781
 20
201.4060630754
  0
VERTEX
  8
1_AXIS
 62
7
  6
CONTINUOUS
 10
134.960952563
 20
201.4108630671
  0
VERTEX
  8
1_AXIS
 62
7
  6
CONTINUOUS
 10
135.0487403274
 20
201.4199803335
  0
VERTEX
  8
1_AXIS
 62
7
  6
CONTINUOUS
 10
135.1091888399
 20
201.4345697538
  0
VERTEX
  8
1_AXIS
 62
7
  6
CONTINUOUS
 10
135.1401073634
 20
201.4553133215
  0
VERTEX
  8
1_AXIS
 62
7
  6
CONTINUOUS
 10
135.1440224913
 20
201.4680341217
  0
SEQEND
  0
POLYLINE
  8
2_FEATURE
 62
7
  6
CONTINUOUS
 66
1
 70
0
  0
VERTEX
  8
2_FEATURE
 62
7
  6
CONTINUOUS
 10
153.4388143205
 20
201.4037633677
  0
VERTEX
  8
2_FEATURE
 62
7
  6
CONTINUOUS
 10
153.4581889732
 20
201.403833666
  0
VERTEX
  8
2_FEATURE
 62
7
  6
CONTINUOUS
 10
153.5165224913
 20
201.4048946512
  0
SEQEND
  0
POLYLINE
  8
2_FEATURE
 62
7
  6
CONTINUOUS
 66
1
 70
0
  0
VERTEX
  8
2_FEATURE
 62
7
  6
CONTINUOUS
 10
151.4700643761
 20
201.4037633677
  0
VERTEX
  8
2_FEATURE
 62
7
  6
CONTINUOUS
 10
151.4894390149
 20
201.403833666
  0
VERTEX
  8
2_FEATURE
 62
7
  6
CONTINUOUS
 10
151.5477724913
 20
201.4048946512
  0
SEQEND
  0
LINE
  8
2_FEATURE
 62
7
  6
CONTINUOUS
 10
206.7040224913
 20
201.4037633478
 11
206.6040224913
 21
201.4037633478
  0
LINE
  8
2_FEATURE
 62
7
  6
CONTINUOUS
 10
78.1040224913
 20
201.4037633478
 11
78.0040224913
 21
201.4037633478
  0
LINE
  8
0
 62
7
  6
CONTINUOUS
 10
66.8540224913
 20
201.4037633478
 11
78.0040224913
 21
201.4037633478
  0
LINE
  8
0
 62
7
  6
CONTINUOUS
 10
79.0040224913
 20
201.4037633478
 11
134.2089175777
 21
201.4037633478
  0
LINE
  8
0
 62
7
  6
CONTINUOUS
 10
134.5491242204
 20
201.4037633478
 11
150.1040224913
 21
201.4037633478
  0
LINE
  8
0
 62
7
  6
CONTINUOUS
 10
151.5477724913
 20
201.4037633478
 11
152.0727724913
 21
201.4037633478
  0
LINE
  8
0
 62
7
  6
CONTINUOUS
 10
153.5165224913
 20
201.4037633478
 11
205.7040224913
 21
201.4037633478
  0
LINE
  8
0
 62
7
  6
CONTINUOUS
 10
206.7040224913
 20
201.4037633478
 11
217.8540224913
 21
201.4037633478
  0
LINE
  8
1_AXIS
 62
7
  6
CONTINUOUS
 10
134.5493090715
 20
201.4037634223
 11
134.7174804356
 21
201.4041627379
  0
LINE
  8
2_FEATURE
 62
7
  6
CONTINUOUS
 10
150.3665224913
 20
201.4083024798
 11
151.1540224913
 21
201.4083024798
  0
LINE
  8
2_FEATURE
 62
7
  6
CONTINUOUS
 10
152.3352724913
 20
201.4083024798
 11
153.1227724913
 21
201.4083024798
  0
LINE
  8
2_FEATURE
 62
7
  6
CONTINUOUS
 10
150.3665224913
 20
201.4108464248
 11
151.1977724496
 21
201.4108464248
  0
LINE
  8
2_FEATURE
 62
7
  6
CONTINUOUS
 10
152.3352724913
 20
201.4108464248
 11
153.1665225748
 21
201.4108464248
  0
LINE
  8
2_FEATURE
 62
7
  6
CONTINUOUS
 10
150.1040224913
 20
201.6037633478
 11
150.3665224913
 21
201.6037633478
  0
LINE
  8
2_FEATURE
 62
7
  6
CONTINUOUS
 10
151.4602724496
 20
201.6037633478
 11
151.4894391375
 21
201.6038370558
  0
LINE
  8
2_FEATURE
 62
7
  6
CONTINUOUS
 10
152.0727724913
 20
201.6037633478
 11
152.3352724913
 21
201.6037633478
  0
LINE
  8
2_FEATURE
 62
7
  6
CONTINUOUS
 10
153.4290225748
 20
201.6037633478
 11
153.4581890958
 21
201.6038370558
  0
LINE
  8
1_AXIS
 62
7
  6
CONTINUOUS
 10
134.5493013461
 20
201.6037634259
 11
134.7175721333
 21
201.6041826305
  0
LINE
  8
2_FEATURE
 62
7
  6
CONTINUOUS
 10
150.3665224913
 20
201.6235285827
 11
151.1977724496
 21
201.6235285827
  0
LINE
  8
2_FEATURE
 62
7
  6
CONTINUOUS
 10
152.3352724913
 20
201.6235285827
 11
153.1665225748
 21
201.6235285827
  0
LINE
  8
2_FEATURE
 62
7
  6
CONTINUOUS
 10
150.1040224913
 20
201.7658323366
 11
151.1540224913
 21
201.7658323366
  0
LINE
  8
2_FEATURE
 62
7
  6
CONTINUOUS
 10
152.0727724913
 20
201.7658323366
 11
153.1227724913
 21
201.7658323366
  0
LINE
  8
2_FEATURE
 62
7
  6
CONTINUOUS
 10
151.3727725331
 20
201.4055368318
 11
151.1540224913
 21
201.4083024798
  0
LINE
  8
2_FEATURE
 62
7
  6
CONTINUOUS
 10
153.3415224079
 20
201.4055368318
 11
153.1227724913
 21
201.4083024798
  0
POLYLINE
  8
2_FEATURE
 62
7
  6
CONTINUOUS
 66
1
 70
0
  0
VERTEX
  8
2_FEATURE
 62
7
  6
CONTINUOUS
 10
151.3727725331
 20
201.4055368318
  0
VERTEX
  8
2_FEATURE
 62
7
  6
CONTINUOUS
 10
151.4310972871
 20
201.4040477896
  0
VERTEX
  8
2_FEATURE
 62
7
  6
CONTINUOUS
 10
151.4700643761
 20
201.4037633677
  0
SEQEND
  0
POLYLINE
  8
2_FEATURE
 62
7
  6
CONTINUOUS
 66
1
 70
0
  0
VERTEX
  8
2_FEATURE
 62
7
  6
CONTINUOUS
 10
153.3415224079
 20
201.4055368318
  0
VERTEX
  8
2_FEATURE
 62
7
  6
CONTINUOUS
 10
153.3998472037
 20
201.4040477896
  0
VERTEX
  8
2_FEATURE
 62
7
  6
CONTINUOUS
 10
153.4388143205
 20
201.4037633677
  0
SEQEND
  0
POLYLINE
  8
1_AXIS
 62
7
  6
CONTINUOUS
 66
1
 70
0
  0
VERTEX
  8
1_AXIS
 62
7
  6
CONTINUOUS
 10
133.8738530457
 20
201.6077534773
  0
VERTEX
  8
1_AXIS
 62
7
  6
CONTINUOUS
 10
133.908904254
 20
201.6061763236
  0
VERTEX
  8
1_AXIS
 62
7
  6
CONTINUOUS
 10
134.0404718563
 20
201.6041826374
  0
VERTEX
  8
1_AXIS
 62
7
  6
CONTINUOUS
 10
134.1862363404
 20
201.6037659983
  0
VERTEX
  8
1_AXIS
 62
7
  6
CONTINUOUS
 10
134.5491116506
 20
201.6037633478
  0
SEQEND
  0
POLYLINE
  8
0
 62
7
  6
CONTINUOUS
 66
1
 70
0
  0
VERTEX
  8
0
 62
7
  6
CONTINUOUS
 10
137.7540224913
 20
204.8400347229
  0
VERTEX
  8
0
 62
7
  6
CONTINUOUS
 10
137.7664484597
 20
204.8267946538
  0
VERTEX
  8
0
 62
7
  6
CONTINUOUS
 10
137.8031779395
 20
204.8143686776
  0
VERTEX
  8
0
 62
7
  6
CONTINUOUS
 10
137.8624897579
 20
204.8033353803
  0
VERTEX
  8
0
 62
7
  6
CONTINUOUS
 10
137.9415163611
 20
204.7941969652
  0
VERTEX
  8
0
 62
7
  6
CONTINUOUS
 10
138.0363649261
 20
204.7873625015
  0
VERTEX
  8
0
 62
7
  6
CONTINUOUS
 10
138.1423065527
 20
204.7831351233
  0
VERTEX
  8
0
 62
7
  6
CONTINUOUS
 10
138.2540224913
 20
204.7817036789
  0
SEQEND
  0
LINE
  8
1_AXIS
 62
2
  6
CENTER
 10
142.3540224913
 20
198.903762984
 11
142.3540224913
 21
214.9037633478
  0
POLYLINE
  8
0
 62
7
  6
CONTINUOUS
 66
1
 70
0
  0
VERTEX
  8
0
 62
7
  6
CONTINUOUS
 10
137.7540224913
 20
206.6674919728
  0
VERTEX
  8
0
 62
7
  6
CONTINUOUS
 10
137.7664484597
 20
206.6807320419
  0
VERTEX
  8
0
 62
7
  6
CONTINUOUS
 10
137.8031779395
 20
206.693158018
  0
VERTEX
  8
0
 62
7
  6
CONTINUOUS
 10
137.8624897579
 20
206.7041913153
  0
VERTEX
  8
0
 62
7
  6
CONTINUOUS
 10
137.9415163611
 20
206.7133297305
  0
VERTEX
  8
0
 62
7
  6
CONTINUOUS
 10
138.0363649261
 20
206.7201641942
  0
VERTEX
  8
0
 62
7
  6
CONTINUOUS
 10
138.1423065527
 20
206.7243915723
  0
VERTEX
  8
0
 62
7
  6
CONTINUOUS
 10
138.2540224913
 20
206.7258230168
  0
SEQEND
  0
LINE
  8
0
 62
7
  6
CONTINUOUS
 10
204.7673847567
 20
207.5030184202
 11
204.7957079288
 21
207.5037633478
  0
LINE
  8
0
 62
7
  6
CONTINUOUS
 10
185.6673847567
 20
207.5030184202
 11
185.6957079288
 21
207.5037633478
  0
LINE
  8
0
 62
7
  6
CONTINUOUS
 10
166.5673847567
 20
207.5030184202
 11
166.5957079288
 21
207.5037633478
  0
LINE
  8
0
 62
7
  6
CONTINUOUS
 10
147.4673847567
 20
207.5030184202
 11
147.4957079288
 21
207.5037633478
  0
POLYLINE
  8
0
 62
7
  6
CONTINUOUS
 66
1
 70
0
  0
VERTEX
  8
0
 62
7
  6
CONTINUOUS
 10
66.8540224913
 20
206.7258230168
  0
VERTEX
  8
0
 62
7
  6
CONTINUOUS
 10
66.7423065527
 20
206.7243915723
  0
VERTEX
  8
0
 62
7
  6
CONTINUOUS
 10
66.6363649261
 20
206.7201641942
  0
VERTEX
  8
0
 62
7
  6
CONTINUOUS
 10
66.5415163611
 20
206.7133297305
  0
VERTEX
  8
0
 62
7
  6
CONTINUOUS
 10
66.4624897579
 20
206.7041913153
  0
VERTEX
  8
0
 62
7
  6
CONTINUOUS
 10
66.4031779395
 20
206.693158018
  0
VERTEX
  8
0
 62
7
  6
CONTINUOUS
 10
66.3664484597
 20
206.6807320419
  0
VERTEX
  8
0
 62
7
  6
CONTINUOUS
 10
66.3540224913
 20
206.6674919728
  0
SEQEND
  0
LINE
  8
0
 62
7
  6
CONTINUOUS
 10
66.8540224913
 20
204.7817036789
 11
69.8040224913
 21
204.7817036789
  0
LINE
  8
0
 62
7
  6
CONTINUOUS
 10
80.9540224913
 20
204.7817036789
 11
89.1540224913
 21
204.7817036789
  0
LINE
  8
0
 62
7
  6
CONTINUOUS
 10
100.0540224913
 20
204.7817036789
 11
108.2540224913
 21
204.7817036789
  0
LINE
  8
0
 62
7
  6
CONTINUOUS
 10
119.1540224913
 20
204.7817036789
 11
127.3540224913
 21
204.7817036789
  0
LINE
  8
0
 62
7
  6
CONTINUOUS
 10
138.2540224913
 20
204.7817036789
 11
146.4540224913
 21
204.7817036789
  0
LINE
  8
0
 62
7
  6
CONTINUOUS
 10
157.3540224913
 20
204.7817036789
 11
165.5540224913
 21
204.7817036789
  0
LINE
  8
0
 62
7
  6
CONTINUOUS
 10
176.4540224913
 20
204.7817036789
 11
184.6540224913
 21
204.7817036789
  0
LINE
  8
0
 62
7
  6
CONTINUOUS
 10
195.5540224913
 20
204.7817036789
 11
203.7540224913
 21
204.7817036789
  0
LINE
  8
0
 62
7
  6
CONTINUOUS
 10
214.9040224913
 20
204.7817036789
 11
217.8540224913
 21
204.7817036789
  0
LINE
  8
1_AXIS
 62
2
  6
CENTER
 10
58.61446609
 20
205.7537633478
 11
226.4516979239
 21
205.7537633478
  0
LINE
  8
0
 62
7
  6
CONTINUOUS
 10
66.8540224913
 20
206.7258230168
 11
69.8040224913
 21
206.7258230168
  0
LINE
  8
0
 62
7
  6
CONTINUOUS
 10
80.9540224913
 20
206.7258230168
 11
89.1540224913
 21
206.7258230168
  0
LINE
  8
0
 62
7
  6
CONTINUOUS
 10
100.0540224913
 20
206.7258230168
 11
108.2540224913
 21
206.7258230168
  0
LINE
  8
0
 62
7
  6
CONTINUOUS
 10
119.1540224913
 20
206.7258230168
 11
127.3540224913
 21
206.7258230168
  0
LINE
  8
0
 62
7
  6
CONTINUOUS
 10
138.2540224913
 20
206.7258230168
 11
146.4540224913
 21
206.7258230168
  0
LINE
  8
0
 62
7
  6
CONTINUOUS
 10
157.3540224913
 20
206.7258230168
 11
165.5540224913
 21
206.7258230168
  0
LINE
  8
0
 62
7
  6
CONTINUOUS
 10
176.4540224913
 20
206.7258230168
 11
184.6540224913
 21
206.7258230168
  0
LINE
  8
0
 62
7
  6
CONTINUOUS
 10
195.5540224913
 20
206.7258230168
 11
203.7540224913
 21
206.7258230168
  0
LINE
  8
0
 62
7
  6
CONTINUOUS
 10
214.9040224913
 20
206.7258230168
 11
217.8540224913
 21
206.7258230168
  0
LINE
  8
0
 62
7
  6
CONTINUOUS
 10
70.8660978028
 20
207.5037633478
 11
79.9123370555
 21
207.5037633478
  0
LINE
  8
0
 62
7
  6
CONTINUOUS
 10
90.195707933
 20
207.5037633478
 11
99.0123370555
 21
207.5037633478
  0
LINE
  8
0
 62
7
  6
CONTINUOUS
 10
109.295707933
 20
207.5037633478
 11
118.1123370555
 21
207.5037633478
  0
LINE
  8
0
 62
7
  6
CONTINUOUS
 10
128.395707933
 20
207.5037633478
 11
137.2123370555
 21
207.5037633478
  0
LINE
  8
0
 62
7
  6
CONTINUOUS
 10
147.495707933
 20
207.5037633478
 11
156.3123370555
 21
207.5037633478
  0
LINE
  8
0
 62
7
  6
CONTINUOUS
 10
166.595707933
 20
207.5037633478
 11
175.4123370555
 21
207.5037633478
  0
LINE
  8
0
 62
7
  6
CONTINUOUS
 10
185.695707933
 20
207.5037633478
 11
194.5123370555
 21
207.5037633478
  0
LINE
  8
0
 62
7
  6
CONTINUOUS
 10
204.795707933
 20
207.5037633478
 11
213.8419471797
 21
207.5037633478
  0
POLYLINE
  8
0
 62
7
  6
CONTINUOUS
 66
1
 70
0
  0
VERTEX
  8
0
 62
7
  6
CONTINUOUS
 10
66.8540224913
 20
204.7817036789
  0
VERTEX
  8
0
 62
7
  6
CONTINUOUS
 10
66.7423065527
 20
204.7831351233
  0
VERTEX
  8
0
 62
7
  6
CONTINUOUS
 10
66.6363649261
 20
204.7873625015
  0
VERTEX
  8
0
 62
7
  6
CONTINUOUS
 10
66.5415163611
 20
204.7941969652
  0
VERTEX
  8
0
 62
7
  6
CONTINUOUS
 10
66.4624897579
 20
204.8033353803
  0
VERTEX
  8
0
 62
7
  6
CONTINUOUS
 10
66.4031779395
 20
204.8143686776
  0
VERTEX
  8
0
 62
7
  6
CONTINUOUS
 10
66.3664484597
 20
204.8267946538
  0
VERTEX
  8
0
 62
7
  6
CONTINUOUS
 10
66.3540224913
 20
204.8400347229
  0
SEQEND
  0
POLYLINE
  8
0
 62
7
  6
CONTINUOUS
 66
1
 70
0
  0
VERTEX
  8
0
 62
7
  6
CONTINUOUS
 10
217.8540224913
 20
206.7258230168
  0
VERTEX
  8
0
 62
7
  6
CONTINUOUS
 10
217.96573843
 20
206.7243915723
  0
VERTEX
  8
0
 62
7
  6
CONTINUOUS
 10
218.0716800566
 20
206.7201641942
  0
VERTEX
  8
0
 62
7
  6
CONTINUOUS
 10
218.1665286216
 20
206.7133297305
  0
VERTEX
  8
0
 62
7
  6
CONTINUOUS
 10
218.2455552248
 20
206.7041913153
  0
VERTEX
  8
0
 62
7
  6
CONTINUOUS
 10
218.3048670432
 20
206.693158018
  0
VERTEX
  8
0
 62
7
  6
CONTINUOUS
 10
218.341596523
 20
206.6807320419
  0
VERTEX
  8
0
 62
7
  6
CONTINUOUS
 10
218.3540224913
 20
206.6674919728
  0
SEQEND
  0
LINE
  8
0
 62
7
  6
CONTINUOUS
 10
79.9123370598
 20
207.5037633478
 11
79.940660226
 21
207.5030184202
  0
LINE
  8
0
 62
7
  6
CONTINUOUS
 10
99.0123370598
 20
207.5037633478
 11
99.040660226
 21
207.5030184202
  0
LINE
  8
0
 62
7
  6
CONTINUOUS
 10
118.1123370598
 20
207.5037633478
 11
118.140660226
 21
207.5030184202
  0
LINE
  8
0
 62
7
  6
CONTINUOUS
 10
137.2123370598
 20
207.5037633478
 11
137.240660226
 21
207.5030184202
  0
LINE
  8
2_FEATURE
 62
7
  6
CONTINUOUS
 10
151.1540224913
 20
201.7658323366
 11
151.3727725331
 21
201.7342080465
  0
LINE
  8
2_FEATURE
 62
7
  6
CONTINUOUS
 10
153.1227724913
 20
201.7658323366
 11
153.3415224079
 21
201.7342080465
  0
LINE
  8
2_FEATURE
 62
7
  6
CONTINUOUS
 10
151.1977724496
 20
201.6235285827
 11
151.3290224496
 21
201.5996550991
  0
LINE
  8
2_FEATURE
 62
7
  6
CONTINUOUS
 10
153.1665225748
 20
201.6235285827
 11
153.2977725748
 21
201.5996550991
  0
LINE
  8
2_FEATURE
 62
7
  6
CONTINUOUS
 10
151.3727725331
 20
201.7342080465
 11
151.5477724913
 21
201.6488915959
  0
LINE
  8
2_FEATURE
 62
7
  6
CONTINUOUS
 10
153.3415224079
 20
201.7342080465
 11
153.5165224913
 21
201.6488915959
  0
LINE
  8
2_FEATURE
 62
7
  6
CONTINUOUS
 10
151.3290224496
 20
201.5996550991
 11
151.4165224913
 21
201.556276644
  0
LINE
  8
2_FEATURE
 62
7
  6
CONTINUOUS
 10
153.2977725748
 20
201.5996550991
 11
153.3852724913
 21
201.556276644
  0
POLYLINE
  8
0
 62
7
  6
CONTINUOUS
 66
1
 70
0
  0
VERTEX
  8
0
 62
7
  6
CONTINUOUS
 10
146.9540224913
 20
207.1044282817
  0
VERTEX
  8
0
 62
7
  6
CONTINUOUS
 10
146.9551516147
 20
207.071305172
  0
VERTEX
  8
0
 62
7
  6
CONTINUOUS
 10
146.9585574073
 20
207.0377021453
  0
VERTEX
  8
0
 62
7
  6
CONTINUOUS
 10
146.964260742
 20
207.0037633478
  0
SEQEND
  0
LINE
  8
0
 62
7
  6
CONTINUOUS
 10
146.4940224913
 20
209.9037633478
 11
146.4940224913
 21
212.6037633478
  0
LINE
  8
0
 62
7
  6
CONTINUOUS
 10
146.9540224913
 20
201.9037633478
 11
146.9540224913
 21
209.4037633478
  0
LINE
  8
0
 62
7
  6
CONTINUOUS
 10
147.6940224913
 20
212.6037614765
 11
147.6940224913
 21
209.9037633478
  0
POLYLINE
  8
0
 62
7
  6
CONTINUOUS
 66
1
 70
0
  0
VERTEX
  8
0
 62
7
  6
CONTINUOUS
 10
146.9540224913
 20
204.8400347229
  0
VERTEX
  8
0
 62
7
  6
CONTINUOUS
 10
146.941596523
 20
204.8267946538
  0
VERTEX
  8
0
 62
7
  6
CONTINUOUS
 10
146.9048670432
 20
204.8143686776
  0
VERTEX
  8
0
 62
7
  6
CONTINUOUS
 10
146.8455552248
 20
204.8033353803
  0
VERTEX
  8
0
 62
7
  6
CONTINUOUS
 10
146.7665286216
 20
204.7941969652
  0
VERTEX
  8
0
 62
7
  6
CONTINUOUS
 10
146.6716800566
 20
204.7873625015
  0
VERTEX
  8
0
 62
7
  6
CONTINUOUS
 10
146.56573843
 20
204.7831351233
  0
VERTEX
  8
0
 62
7
  6
CONTINUOUS
 10
146.4540224913
 20
204.7817036789
  0
SEQEND
  0
LINE
  8
0
 62
7
  6
CONTINUOUS
 10
128.3673847567
 20
207.5030184202
 11
128.3957079288
 21
207.5037633478
  0
LINE
  8
0
 62
7
  6
CONTINUOUS
 10
109.2673847567
 20
207.5030184202
 11
109.2957079288
 21
207.5037633478
  0
LINE
  8
0
 62
7
  6
CONTINUOUS
 10
90.1673847567
 20
207.5030184202
 11
90.1957079288
 21
207.5037633478
  0
LINE
  8
0
 62
7
  6
CONTINUOUS
 10
66.6540224913
 20
209.9037633478
 11
218.0540224913
 21
209.9037633478
  0
LINE
  8
0
 62
7
  6
CONTINUOUS
 10
70.3940224913
 20
212.9037633478
 11
70.9940224913
 21
212.9037633478
  0
LINE
  8
0
 62
7
  6
CONTINUOUS
 10
89.4940224913
 20
212.9037633478
 11
90.0940224913
 21
212.9037633478
  0
LINE
  8
0
 62
7
  6
CONTINUOUS
 10
108.5940224913
 20
212.9037633478
 11
109.1940224913
 21
212.9037633478
  0
LINE
  8
0
 62
7
  6
CONTINUOUS
 10
127.6940224913
 20
212.9037633478
 11
128.2940224913
 21
212.9037633478
  0
LINE
  8
0
 62
7
  6
CONTINUOUS
 10
146.7940224913
 20
212.9037633478
 11
147.3940224913
 21
212.9037633478
  0
LINE
  8
0
 62
7
  6
CONTINUOUS
 10
165.8940224913
 20
212.9037633478
 11
166.4940224913
 21
212.9037633478
  0
LINE
  8
0
 62
7
  6
CONTINUOUS
 10
184.9940224913
 20
212.9037633478
 11
185.5940224913
 21
212.9037633478
  0
LINE
  8
0
 62
7
  6
CONTINUOUS
 10
204.1040224913
 20
212.9037633478
 11
204.7040224913
 21
212.9037633478
  0
LINE
  8
0
 62
7
  6
CONTINUOUS
 10
156.3123370598
 20
207.5037633478
 11
156.340660226
 21
207.5030184202
  0
LINE
  8
0
 62
7
  6
CONTINUOUS
 10
175.4123370598
 20
207.5037633478
 11
175.440660226
 21
207.5030184202
  0
LINE
  8
0
 62
7
  6
CONTINUOUS
 10
194.5123370598
 20
207.5037633478
 11
194.540660226
 21
207.5030184202
  0
LINE
  8
2_FEATURE
 62
7
  6
CONTINUOUS
 10
151.5477724913
 20
201.6488915959
 11
151.6790224913
 21
201.556276644
  0
LINE
  8
2_FEATURE
 62
7
  6
CONTINUOUS
 10
153.5165224913
 20
201.6488915959
 11
153.6477724913
 21
201.556276644
  0
POLYLINE
  8
0
 62
7
  6
CONTINUOUS
 66
1
 70
0
  0
VERTEX
  8
0
 62
7
  6
CONTINUOUS
 10
146.9540224913
 20
206.6674919728
  0
VERTEX
  8
0
 62
7
  6
CONTINUOUS
 10
146.941596523
 20
206.6807320419
  0
VERTEX
  8
0
 62
7
  6
CONTINUOUS
 10
146.9048670432
 20
206.693158018
  0
VERTEX
  8
0
 62
7
  6
CONTINUOUS
 10
146.8455552248
 20
206.7041913153
  0
VERTEX
  8
0
 62
7
  6
CONTINUOUS
 10
146.7665286216
 20
206.7133297305
  0
VERTEX
  8
0
 62
7
  6
CONTINUOUS
 10
146.6716800566
 20
206.7201641942
  0
VERTEX
  8
0
 62
7
  6
CONTINUOUS
 10
146.56573843
 20
206.7243915723
  0
VERTEX
  8
0
 62
7
  6
CONTINUOUS
 10
146.4540224913
 20
206.7258230168
  0
SEQEND
  0
LINE
  8
2_FEATURE
 62
7
  6
CONTINUOUS
 10
151.4165224913
 20
201.556276644
 11
151.4602724496
 21
201.5018071928
  0
LINE
  8
2_FEATURE
 62
7
  6
CONTINUOUS
 10
151.6790224913
 20
201.556276644
 11
151.7227724496
 21
201.5018071928
  0
LINE
  8
2_FEATURE
 62
7
  6
CONTINUOUS
 10
153.3852724913
 20
201.556276644
 11
153.4290225748
 21
201.5018071928
  0
LINE
  8
2_FEATURE
 62
7
  6
CONTINUOUS
 10
153.6477724913
 20
201.556276644
 11
153.6915225748
 21
201.5018071928
  0
LINE
  8
0
 62
7
  6
CONTINUOUS
 10
148.9040224913
 20
205.1468458059
 11
148.9040224913
 21
201.9037633478
  0
LINE
  8
2_FEATURE
 62
7
  6
CONTINUOUS
 10
150.1040224913
 20
201.7658323366
 11
150.1040224913
 21
201.4037649955
  0
LINE
  8
2_FEATURE
 62
7
  6
CONTINUOUS
 10
150.3665224913
 20
201.4083024798
 11
150.3665224913
 21
201.7658323366
  0
LINE
  8
2_FEATURE
 62
7
  6
CONTINUOUS
 10
151.1540224913
 20
201.4083024798
 11
151.1540224913
 21
201.4108464248
  0
LINE
  8
2_FEATURE
 62
7
  6
CONTINUOUS
 10
151.1977724496
 20
201.6235285827
 11
151.1977724496
 21
201.7595074859
  0
LINE
  8
2_FEATURE
 62
7
  6
CONTINUOUS
 10
151.3290224496
 20
201.5996550991
 11
151.3290224496
 21
201.7405329154
  0
LINE
  8
2_FEATURE
 62
7
  6
CONTINUOUS
 10
151.3727725331
 20
201.4055368318
 11
151.3727725331
 21
201.4225695496
  0
LINE
  8
2_FEATURE
 62
7
  6
CONTINUOUS
 10
151.4165224913
 20
201.556276644
 11
151.4165224913
 21
201.7128789491
  0
LINE
  8
2_FEATURE
 62
7
  6
CONTINUOUS
 10
151.4602724496
 20
201.4596337445
 11
151.4602724496
 21
201.6915498517
  0
LINE
  8
2_FEATURE
 62
7
  6
CONTINUOUS
 10
151.5477724913
 20
201.4048946512
 11
151.5477724913
 21
201.6049491871
  0
LINE
  8
2_FEATURE
 62
7
  6
CONTINUOUS
 10
151.6790224913
 20
201.4219240265
 11
151.6790224913
 21
201.556276644
  0
LINE
  8
2_FEATURE
 62
7
  6
CONTINUOUS
 10
151.7227724496
 20
201.5018071928
 11
151.7227724496
 21
201.4482429092
  0
LINE
  8
2_FEATURE
 62
7
  6
CONTINUOUS
 10
152.0727724913
 20
201.7658323366
 11
152.0727724913
 21
201.4037649955
  0
LINE
  8
2_FEATURE
 62
7
  6
CONTINUOUS
 10
152.3352724913
 20
201.4083024798
 11
152.3352724913
 21
201.7658323366
  0
LINE
  8
2_FEATURE
 62
7
  6
CONTINUOUS
 10
153.1227724913
 20
201.4083024798
 11
153.1227724913
 21
201.4108464248
  0
LINE
  8
2_FEATURE
 62
7
  6
CONTINUOUS
 10
153.1665225748
 20
201.6235285827
 11
153.1665225748
 21
201.7595074641
  0
LINE
  8
2_FEATURE
 62
7
  6
CONTINUOUS
 10
151.4602724496
 20
201.4596337445
 11
151.4165224913
 21
201.429396611
  0
LINE
  8
2_FEATURE
 62
7
  6
CONTINUOUS
 10
151.7227724496
 20
201.4482429092
 11
151.6790224913
 21
201.4219240265
  0
LINE
  8
2_FEATURE
 62
7
  6
CONTINUOUS
 10
153.6915225748
 20
201.4482429092
 11
153.6477724913
 21
201.4219240265
  0
POLYLINE
  8
0
 62
7
  6
CONTINUOUS
 66
1
 70
0
  0
VERTEX
  8
0
 62
7
  6
CONTINUOUS
 10
156.8540224913
 20
204.8400347229
  0
VERTEX
  8
0
 62
7
  6
CONTINUOUS
 10
156.8664484597
 20
204.8267946538
  0
VERTEX
  8
0
 62
7
  6
CONTINUOUS
 10
156.9031779395
 20
204.8143686776
  0
VERTEX
  8
0
 62
7
  6
CONTINUOUS
 10
156.9624897579
 20
204.8033353803
  0
VERTEX
  8
0
 62
7
  6
CONTINUOUS
 10
157.0415163611
 20
204.7941969652
  0
VERTEX
  8
0
 62
7
  6
CONTINUOUS
 10
157.1363649261
 20
204.7873625015
  0
VERTEX
  8
0
 62
7
  6
CONTINUOUS
 10
157.2423065527
 20
204.7831351233
  0
VERTEX
  8
0
 62
7
  6
CONTINUOUS
 10
157.3540224913
 20
204.7817036789
  0
SEQEND
  0
LINE
  8
2_FEATURE
 62
7
  6
CONTINUOUS
 10
153.2977725748
 20
201.5996550991
 11
153.2977725748
 21
201.7405328828
  0
LINE
  8
2_FEATURE
 62
7
  6
CONTINUOUS
 10
153.3415224079
 20
201.4055368318
 11
153.3415224079
 21
201.4225695203
  0
LINE
  8
2_FEATURE
 62
7
  6
CONTINUOUS
 10
153.3852724913
 20
201.556276644
 11
153.3852724913
 21
201.7128789033
  0
LINE
  8
2_FEATURE
 62
7
  6
CONTINUOUS
 10
153.4290225748
 20
201.4596337445
 11
153.4290225748
 21
201.6915497602
  0
LINE
  8
2_FEATURE
 62
7
  6
CONTINUOUS
 10
153.5165224913
 20
201.4048946512
 11
153.5165224913
 21
201.6049491871
  0
LINE
  8
2_FEATURE
 62
7
  6
CONTINUOUS
 10
153.6477724913
 20
201.4219240265
 11
153.6477724913
 21
201.556276644
  0
LINE
  8
2_FEATURE
 62
7
  6
CONTINUOUS
 10
153.6915225748
 20
201.5018071928
 11
153.6915225748
 21
201.4482429092
  0
LINE
  8
0
 62
7
  6
CONTINUOUS
 10
154.9040224913
 20
205.1468521722
 11
154.9040224913
 21
201.9037633478
  0
LINE
  8
0
 62
7
  6
CONTINUOUS
 10
156.8540224913
 20
201.9037633478
 11
156.8540224913
 21
209.4037633478
  0
POLYLINE
  8
0
 62
7
  6
CONTINUOUS
 66
1
 70
0
  0
VERTEX
  8
0
 62
7
  6
CONTINUOUS
 10
156.8437842407
 20
207.0037633478
  0
VERTEX
  8
0
 62
7
  6
CONTINUOUS
 10
156.8494873639
 20
207.0377005752
  0
VERTEX
  8
0
 62
7
  6
CONTINUOUS
 10
156.8528925651
 20
207.0712933306
  0
VERTEX
  8
0
 62
7
  6
CONTINUOUS
 10
156.8540224913
 20
207.1044282817
  0
SEQEND
  0
POLYLINE
  8
0
 62
7
  6
CONTINUOUS
 66
1
 70
0
  0
VERTEX
  8
0
 62
7
  6
CONTINUOUS
 10
156.8540224913
 20
206.6674919728
  0
VERTEX
  8
0
 62
7
  6
CONTINUOUS
 10
156.8664484597
 20
206.6807320419
  0
VERTEX
  8
0
 62
7
  6
CONTINUOUS
 10
156.9031779395
 20
206.693158018
  0
VERTEX
  8
0
 62
7
  6
CONTINUOUS
 10
156.9624897579
 20
206.7041913153
  0
VERTEX
  8
0
 62
7
  6
CONTINUOUS
 10
157.0415163611
 20
206.7133297305
  0
VERTEX
  8
0
 62
7
  6
CONTINUOUS
 10
157.1363649261
 20
206.7201641942
  0
VERTEX
  8
0
 62
7
  6
CONTINUOUS
 10
157.2423065527
 20
206.7243915723
  0
VERTEX
  8
0
 62
7
  6
CONTINUOUS
 10
157.3540224913
 20
206.7258230168
  0
SEQEND
  0
LINE
  8
2_FEATURE
 62
7
  6
CONTINUOUS
 10
153.4290225748
 20
201.4596337445
 11
153.3852724913
 21
201.429396611
  0
POLYLINE
  8
0
 62
7
  6
CONTINUOUS
 66
1
 70
0
  0
VERTEX
  8
0
 62
7
  6
CONTINUOUS
 10
166.0540224913
 20
204.8400347229
  0
VERTEX
  8
0
 62
7
  6
CONTINUOUS
 10
166.041596523
 20
204.8267946538
  0
VERTEX
  8
0
 62
7
  6
CONTINUOUS
 10
166.0048670432
 20
204.8143686776
  0
VERTEX
  8
0
 62
7
  6
CONTINUOUS
 10
165.9455552248
 20
204.8033353803
  0
VERTEX
  8
0
 62
7
  6
CONTINUOUS
 10
165.8665286216
 20
204.7941969652
  0
VERTEX
  8
0
 62
7
  6
CONTINUOUS
 10
165.7716800566
 20
204.7873625015
  0
VERTEX
  8
0
 62
7
  6
CONTINUOUS
 10
165.66573843
 20
204.7831351233
  0
VERTEX
  8
0
 62
7
  6
CONTINUOUS
 10
165.5540224913
 20
204.7817036789
  0
SEQEND
  0
POLYLINE
  8
0
 62
7
  6
CONTINUOUS
 66
1
 70
0
  0
VERTEX
  8
0
 62
7
  6
CONTINUOUS
 10
166.0540224913
 20
206.6674919728
  0
VERTEX
  8
0
 62
7
  6
CONTINUOUS
 10
166.041596523
 20
206.6807320419
  0
VERTEX
  8
0
 62
7
  6
CONTINUOUS
 10
166.0048670432
 20
206.693158018
  0
VERTEX
  8
0
 62
7
  6
CONTINUOUS
 10
165.9455552248
 20
206.7041913153
  0
VERTEX
  8
0
 62
7
  6
CONTINUOUS
 10
165.8665286216
 20
206.7133297305
  0
VERTEX
  8
0
 62
7
  6
CONTINUOUS
 10
165.7716800566
 20
206.7201641942
  0
VERTEX
  8
0
 62
7
  6
CONTINUOUS
 10
165.66573843
 20
206.7243915723
  0
VERTEX
  8
0
 62
7
  6
CONTINUOUS
 10
165.5540224913
 20
206.7258230168
  0
SEQEND
  0
POLYLINE
  8
0
 62
7
  6
CONTINUOUS
 66
1
 70
0
  0
VERTEX
  8
0
 62
7
  6
CONTINUOUS
 10
166.0540224913
 20
207.1044282817
  0
VERTEX
  8
0
 62
7
  6
CONTINUOUS
 10
166.0551516147
 20
207.071305172
  0
VERTEX
  8
0
 62
7
  6
CONTINUOUS
 10
166.0585574073
 20
207.0377021453
  0
VERTEX
  8
0
 62
7
  6
CONTINUOUS
 10
166.064260742
 20
207.0037633478
  0
SEQEND
  0
LINE
  8
0
 62
7
  6
CONTINUOUS
 10
165.5940224913
 20
209.9037633478
 11
165.5940224913
 21
212.6037633478
  0
LINE
  8
0
 62
7
  6
CONTINUOUS
 10
166.0540224913
 20
201.9037633478
 11
166.0540224913
 21
209.4037633478
  0
LINE
  8
0
 62
7
  6
CONTINUOUS
 10
166.7940224913
 20
212.6037614765
 11
166.7940224913
 21
209.9037633478
  0
LINE
  8
0
 62
7
  6
CONTINUOUS
 10
168.0040224913
 20
205.1468521722
 11
168.0040224913
 21
201.9037633478
  0
POLYLINE
  8
0
 62
7
  6
CONTINUOUS
 66
1
 70
0
  0
VERTEX
  8
0
 62
7
  6
CONTINUOUS
 10
175.9540224913
 20
206.6674919728
  0
VERTEX
  8
0
 62
7
  6
CONTINUOUS
 10
175.9664484597
 20
206.6807320419
  0
VERTEX
  8
0
 62
7
  6
CONTINUOUS
 10
176.0031779395
 20
206.693158018
  0
VERTEX
  8
0
 62
7
  6
CONTINUOUS
 10
176.0624897579
 20
206.7041913153
  0
VERTEX
  8
0
 62
7
  6
CONTINUOUS
 10
176.1415163611
 20
206.7133297305
  0
VERTEX
  8
0
 62
7
  6
CONTINUOUS
 10
176.2363649261
 20
206.7201641942
  0
VERTEX
  8
0
 62
7
  6
CONTINUOUS
 10
176.3423065527
 20
206.7243915723
  0
VERTEX
  8
0
 62
7
  6
CONTINUOUS
 10
176.4540224913
 20
206.7258230168
  0
SEQEND
  0
POLYLINE
  8
0
 62
7
  6
CONTINUOUS
 66
1
 70
0
  0
VERTEX
  8
0
 62
7
  6
CONTINUOUS
 10
175.9540224913
 20
204.8400347229
  0
VERTEX
  8
0
 62
7
  6
CONTINUOUS
 10
175.9664484597
 20
204.8267946538
  0
VERTEX
  8
0
 62
7
  6
CONTINUOUS
 10
176.0031779395
 20
204.8143686776
  0
VERTEX
  8
0
 62
7
  6
CONTINUOUS
 10
176.0624897579
 20
204.8033353803
  0
VERTEX
  8
0
 62
7
  6
CONTINUOUS
 10
176.1415163611
 20
204.7941969652
  0
VERTEX
  8
0
 62
7
  6
CONTINUOUS
 10
176.2363649261
 20
204.7873625015
  0
VERTEX
  8
0
 62
7
  6
CONTINUOUS
 10
176.3423065527
 20
204.7831351233
  0
VERTEX
  8
0
 62
7
  6
CONTINUOUS
 10
176.4540224913
 20
204.7817036789
  0
SEQEND
  0
POLYLINE
  8
0
 62
7
  6
CONTINUOUS
 66
1
 70
0
  0
VERTEX
  8
0
 62
7
  6
CONTINUOUS
 10
185.1540224913
 20
206.6674919728
  0
VERTEX
  8
0
 62
7
  6
CONTINUOUS
 10
185.141596523
 20
206.6807320419
  0
VERTEX
  8
0
 62
7
  6
CONTINUOUS
 10
185.1048670432
 20
206.693158018
  0
VERTEX
  8
0
 62
7
  6
CONTINUOUS
 10
185.0455552248
 20
206.7041913153
  0
VERTEX
  8
0
 62
7
  6
CONTINUOUS
 10
184.9665286216
 20
206.7133297305
  0
VERTEX
  8
0
 62
7
  6
CONTINUOUS
 10
184.8716800566
 20
206.7201641942
  0
VERTEX
  8
0
 62
7
  6
CONTINUOUS
 10
184.76573843
 20
206.7243915723
  0
VERTEX
  8
0
 62
7
  6
CONTINUOUS
 10
184.6540224913
 20
206.7258230168
  0
SEQEND
  0
LINE
  8
0
 62
7
  6
CONTINUOUS
 10
174.0040224913
 20
205.146845373
 11
174.0040224913
 21
201.9037633478
  0
LINE
  8
0
 62
7
  6
CONTINUOUS
 10
175.9540224913
 20
201.9037633478
 11
175.9540224913
 21
209.4037633478
  0
POLYLINE
  8
0
 62
7
  6
CONTINUOUS
 66
1
 70
0
  0
VERTEX
  8
0
 62
7
  6
CONTINUOUS
 10
175.9437842407
 20
207.0037633478
  0
VERTEX
  8
0
 62
7
  6
CONTINUOUS
 10
175.9494873639
 20
207.0377005752
  0
VERTEX
  8
0
 62
7
  6
CONTINUOUS
 10
175.9528925651
 20
207.0712933306
  0
VERTEX
  8
0
 62
7
  6
CONTINUOUS
 10
175.9540224913
 20
207.1044282817
  0
SEQEND
  0
POLYLINE
  8
0
 62
7
  6
CONTINUOUS
 66
1
 70
0
  0
VERTEX
  8
0
 62
7
  6
CONTINUOUS
 10
185.1540224913
 20
204.8400347229
  0
VERTEX
  8
0
 62
7
  6
CONTINUOUS
 10
185.141596523
 20
204.8267946538
  0
VERTEX
  8
0
 62
7
  6
CONTINUOUS
 10
185.1048670432
 20
204.8143686776
  0
VERTEX
  8
0
 62
7
  6
CONTINUOUS
 10
185.0455552248
 20
204.8033353803
  0
VERTEX
  8
0
 62
7
  6
CONTINUOUS
 10
184.9665286216
 20
204.7941969652
  0
VERTEX
  8
0
 62
7
  6
CONTINUOUS
 10
184.8716800566
 20
204.7873625015
  0
VERTEX
  8
0
 62
7
  6
CONTINUOUS
 10
184.76573843
 20
204.7831351233
  0
VERTEX
  8
0
 62
7
  6
CONTINUOUS
 10
184.6540224913
 20
204.7817036789
  0
SEQEND
  0
POLYLINE
  8
0
 62
7
  6
CONTINUOUS
 66
1
 70
0
  0
VERTEX
  8
0
 62
7
  6
CONTINUOUS
 10
195.0540224913
 20
206.6674919728
  0
VERTEX
  8
0
 62
7
  6
CONTINUOUS
 10
195.0664484597
 20
206.6807320419
  0
VERTEX
  8
0
 62
7
  6
CONTINUOUS
 10
195.1031779395
 20
206.693158018
  0
VERTEX
  8
0
 62
7
  6
CONTINUOUS
 10
195.1624897579
 20
206.7041913153
  0
VERTEX
  8
0
 62
7
  6
CONTINUOUS
 10
195.2415163611
 20
206.7133297305
  0
VERTEX
  8
0
 62
7
  6
CONTINUOUS
 10
195.3363649261
 20
206.7201641942
  0
VERTEX
  8
0
 62
7
  6
CONTINUOUS
 10
195.4423065527
 20
206.7243915723
  0
VERTEX
  8
0
 62
7
  6
CONTINUOUS
 10
195.5540224913
 20
206.7258230168
  0
SEQEND
  0
POLYLINE
  8
0
 62
7
  6
CONTINUOUS
 66
1
 70
0
  0
VERTEX
  8
0
 62
7
  6
CONTINUOUS
 10
195.0540224913
 20
204.8400347229
  0
VERTEX
  8
0
 62
7
  6
CONTINUOUS
 10
195.0664484597
 20
204.8267946538
  0
VERTEX
  8
0
 62
7
  6
CONTINUOUS
 10
195.1031779395
 20
204.8143686776
  0
VERTEX
  8
0
 62
7
  6
CONTINUOUS
 10
195.1624897579
 20
204.8033353803
  0
VERTEX
  8
0
 62
7
  6
CONTINUOUS
 10
195.2415163611
 20
204.7941969652
  0
VERTEX
  8
0
 62
7
  6
CONTINUOUS
 10
195.3363649261
 20
204.7873625015
  0
VERTEX
  8
0
 62
7
  6
CONTINUOUS
 10
195.4423065527
 20
204.7831351233
  0
VERTEX
  8
0
 62
7
  6
CONTINUOUS
 10
195.5540224913
 20
204.7817036789
  0
SEQEND
  0
POLYLINE
  8
0
 62
7
  6
CONTINUOUS
 66
1
 70
0
  0
VERTEX
  8
0
 62
7
  6
CONTINUOUS
 10
185.1540224913
 20
207.1044282817
  0
VERTEX
  8
0
 62
7
  6
CONTINUOUS
 10
185.1551516147
 20
207.071305172
  0
VERTEX
  8
0
 62
7
  6
CONTINUOUS
 10
185.1585574073
 20
207.0377021453
  0
VERTEX
  8
0
 62
7
  6
CONTINUOUS
 10
185.164260742
 20
207.0037633478
  0
SEQEND
  0
LINE
  8
0
 62
7
  6
CONTINUOUS
 10
184.6940224913
 20
209.9037633478
 11
184.6940224913
 21
212.6037633478
  0
LINE
  8
0
 62
7
  6
CONTINUOUS
 10
185.1540224913
 20
201.9037633478
 11
185.1540224913
 21
209.4037633478
  0
LINE
  8
0
 62
7
  6
CONTINUOUS
 10
185.8940224913
 20
212.6037614765
 11
185.8940224913
 21
209.9037633478
  0
LINE
  8
0
 62
7
  6
CONTINUOUS
 10
187.1040224913
 20
205.1468521722
 11
187.1040224913
 21
201.9037633478
  0
POLYLINE
  8
0
 62
7
  6
CONTINUOUS
 66
1
 70
0
  0
VERTEX
  8
0
 62
7
  6
CONTINUOUS
 10
204.2540224913
 20
206.6674919728
  0
VERTEX
  8
0
 62
7
  6
CONTINUOUS
 10
204.241596523
 20
206.6807320419
  0
VERTEX
  8
0
 62
7
  6
CONTINUOUS
 10
204.2048670432
 20
206.693158018
  0
VERTEX
  8
0
 62
7
  6
CONTINUOUS
 10
204.1455552248
 20
206.7041913153
  0
VERTEX
  8
0
 62
7
  6
CONTINUOUS
 10
204.0665286216
 20
206.7133297305
  0
VERTEX
  8
0
 62
7
  6
CONTINUOUS
 10
203.9716800566
 20
206.7201641942
  0
VERTEX
  8
0
 62
7
  6
CONTINUOUS
 10
203.86573843
 20
206.7243915723
  0
VERTEX
  8
0
 62
7
  6
CONTINUOUS
 10
203.7540224913
 20
206.7258230168
  0
SEQEND
  0
LINE
  8
0
 62
7
  6
CONTINUOUS
 10
193.1040224913
 20
205.146845373
 11
193.1040224913
 21
201.9037633478
  0
POLYLINE
  8
0
 62
7
  6
CONTINUOUS
 66
1
 70
0
  0
VERTEX
  8
0
 62
7
  6
CONTINUOUS
 10
204.2540224913
 20
204.8400347229
  0
VERTEX
  8
0
 62
7
  6
CONTINUOUS
 10
204.241596523
 20
204.8267946538
  0
VERTEX
  8
0
 62
7
  6
CONTINUOUS
 10
204.2048670432
 20
204.8143686776
  0
VERTEX
  8
0
 62
7
  6
CONTINUOUS
 10
204.1455552248
 20
204.8033353803
  0
VERTEX
  8
0
 62
7
  6
CONTINUOUS
 10
204.0665286216
 20
204.7941969652
  0
VERTEX
  8
0
 62
7
  6
CONTINUOUS
 10
203.9716800566
 20
204.7873625015
  0
VERTEX
  8
0
 62
7
  6
CONTINUOUS
 10
203.86573843
 20
204.7831351233
  0
VERTEX
  8
0
 62
7
  6
CONTINUOUS
 10
203.7540224913
 20
204.7817036789
  0
SEQEND
  0
POLYLINE
  8
0
 62
7
  6
CONTINUOUS
 66
1
 70
0
  0
VERTEX
  8
0
 62
7
  6
CONTINUOUS
 10
214.4040224913
 20
204.8400347229
  0
VERTEX
  8
0
 62
7
  6
CONTINUOUS
 10
214.4164484597
 20
204.8267946538
  0
VERTEX
  8
0
 62
7
  6
CONTINUOUS
 10
214.4531779395
 20
204.8143686776
  0
VERTEX
  8
0
 62
7
  6
CONTINUOUS
 10
214.5124897579
 20
204.8033353803
  0
VERTEX
  8
0
 62
7
  6
CONTINUOUS
 10
214.5915163611
 20
204.7941969652
  0
VERTEX
  8
0
 62
7
  6
CONTINUOUS
 10
214.6863649261
 20
204.7873625015
  0
VERTEX
  8
0
 62
7
  6
CONTINUOUS
 10
214.7923065527
 20
204.7831351233
  0
VERTEX
  8
0
 62
7
  6
CONTINUOUS
 10
214.9040224913
 20
204.7817036789
  0
SEQEND
  0
LINE
  8
0
 62
7
  6
CONTINUOUS
 10
195.0540224913
 20
201.9037633478
 11
195.0540224913
 21
209.4037633478
  0
POLYLINE
  8
0
 62
7
  6
CONTINUOUS
 66
1
 70
0
  0
VERTEX
  8
0
 62
7
  6
CONTINUOUS
 10
195.0437842407
 20
207.0037633478
  0
VERTEX
  8
0
 62
7
  6
CONTINUOUS
 10
195.0494873639
 20
207.0377005752
  0
VERTEX
  8
0
 62
7
  6
CONTINUOUS
 10
195.0528925651
 20
207.0712933306
  0
VERTEX
  8
0
 62
7
  6
CONTINUOUS
 10
195.0540224913
 20
207.1044282817
  0
SEQEND
  0
POLYLINE
  8
0
 62
7
  6
CONTINUOUS
 66
1
 70
0
  0
VERTEX
  8
0
 62
7
  6
CONTINUOUS
 10
214.4040224913
 20
206.6674919728
  0
VERTEX
  8
0
 62
7
  6
CONTINUOUS
 10
214.4164484597
 20
206.6807320419
  0
VERTEX
  8
0
 62
7
  6
CONTINUOUS
 10
214.4531779395
 20
206.693158018
  0
VERTEX
  8
0
 62
7
  6
CONTINUOUS
 10
214.5124897579
 20
206.7041913153
  0
VERTEX
  8
0
 62
7
  6
CONTINUOUS
 10
214.5915163611
 20
206.7133297305
  0
VERTEX
  8
0
 62
7
  6
CONTINUOUS
 10
214.6863649261
 20
206.7201641942
  0
VERTEX
  8
0
 62
7
  6
CONTINUOUS
 10
214.7923065527
 20
206.7243915723
  0
VERTEX
  8
0
 62
7
  6
CONTINUOUS
 10
214.9040224913
 20
206.7258230168
  0
SEQEND
  0
LINE
  8
0
 62
7
  6
CONTINUOUS
 10
203.8040224913
 20
209.9037633478
 11
203.8040224913
 21
212.6037633478
  0
POLYLINE
  8
2_FEATURE
 62
7
  6
CONTINUOUS
 66
1
 70
0
  0
VERTEX
  8
2_FEATURE
 62
7
  6
CONTINUOUS
 10
206.2685174555
 20
202.4980311173
  0
VERTEX
  8
2_FEATURE
 62
7
  6
CONTINUOUS
 10
206.3048020011
 20
202.5873386335
  0
VERTEX
  8
2_FEATURE
 62
7
  6
CONTINUOUS
 10
206.342598142
 20
202.6564434332
  0
VERTEX
  8
2_FEATURE
 62
7
  6
CONTINUOUS
 10
206.3803949781
 20
202.7072813759
  0
VERTEX
  8
2_FEATURE
 62
7
  6
CONTINUOUS
 10
206.4164880346
 20
202.7412865142
  0
VERTEX
  8
2_FEATURE
 62
7
  6
CONTINUOUS
 10
206.4504056385
 20
202.761163488
  0
VERTEX
  8
2_FEATURE
 62
7
  6
CONTINUOUS
 10
206.4833943368
 20
202.7692324956
  0
VERTEX
  8
2_FEATURE
 62
7
  6
CONTINUOUS
 10
206.5144565066
 20
202.7658493043
  0
VERTEX
  8
2_FEATURE
 62
7
  6
CONTINUOUS
 10
206.5448087571
 20
202.7501732365
  0
VERTEX
  8
2_FEATURE
 62
7
  6
CONTINUOUS
 10
206.5733646284
 20
202.719136139
  0
VERTEX
  8
2_FEATURE
 62
7
  6
CONTINUOUS
 10
206.5950237709
 20
202.6723051915
  0
VERTEX
  8
2_FEATURE
 62
7
  6
CONTINUOUS
 10
206.6040224913
 20
202.6097798646
  0
SEQEND
  0
POLYLINE
  8
0
 62
7
  6
CONTINUOUS
 66
1
 70
0
  0
VERTEX
  8
0
 62
7
  6
CONTINUOUS
 10
218.3540224913
 20
204.8400347229
  0
VERTEX
  8
0
 62
7
  6
CONTINUOUS
 10
218.341596523
 20
204.8267946538
  0
VERTEX
  8
0
 62
7
  6
CONTINUOUS
 10
218.3048670432
 20
204.8143686776
  0
VERTEX
  8
0
 62
7
  6
CONTINUOUS
 10
218.2455552248
 20
204.8033353803
  0
VERTEX
  8
0
 62
7
  6
CONTINUOUS
 10
218.1665286216
 20
204.7941969652
  0
VERTEX
  8
0
 62
7
  6
CONTINUOUS
 10
218.0716800566
 20
204.7873625015
  0
VERTEX
  8
0
 62
7
  6
CONTINUOUS
 10
217.96573843
 20
204.7831351233
  0
VERTEX
  8
0
 62
7
  6
CONTINUOUS
 10
217.8540224913
 20
204.7817036789
  0
SEQEND
  0
POLYLINE
  8
0
 62
7
  6
CONTINUOUS
 66
1
 70
0
  0
VERTEX
  8
0
 62
7
  6
CONTINUOUS
 10
204.2540224913
 20
207.1044282817
  0
VERTEX
  8
0
 62
7
  6
CONTINUOUS
 10
204.2551516147
 20
207.071305172
  0
VERTEX
  8
0
 62
7
  6
CONTINUOUS
 10
204.2585574073
 20
207.0377021453
  0
VERTEX
  8
0
 62
7
  6
CONTINUOUS
 10
204.264260742
 20
207.0037633478
  0
SEQEND
  0
LINE
  8
0
 62
7
  6
CONTINUOUS
 10
204.2540224913
 20
201.9037633478
 11
204.2540224913
 21
209.4037633478
  0
LINE
  8
0
 62
7
  6
CONTINUOUS
 10
205.0040224913
 20
212.6037614765
 11
205.0040224913
 21
209.9037633478
  0
LINE
  8
0
 62
7
  6
CONTINUOUS
 10
206.2040224913
 20
205.146845977
 11
206.2040224913
 21
201.9037633478
  0
LINE
  8
2_FEATURE
 62
7
  6
CONTINUOUS
 10
206.6040224913
 20
202.6097798646
 11
206.6040224913
 21
201.4037633478
  0
POLYLINE
  8
2_FEATURE
 62
7
  6
CONTINUOUS
 66
1
 70
0
  0
VERTEX
  8
2_FEATURE
 62
7
  6
CONTINUOUS
 10
206.2040224913
 20
202.1379096278
  0
VERTEX
  8
2_FEATURE
 62
7
  6
CONTINUOUS
 10
206.2132891069
 20
202.2706115686
  0
VERTEX
  8
2_FEATURE
 62
7
  6
CONTINUOUS
 10
206.2258765817
 20
202.3440593185
  0
VERTEX
  8
2_FEATURE
 62
7
  6
CONTINUOUS
 10
206.2685174555
 20
202.4980311173
  0
SEQEND
  0
LINE
  8
0
 62
7
  6
CONTINUOUS
 10
211.7540224913
 20
201.9037633478
 11
211.7540224913
 21
207.0037633478
  0
LINE
  8
0
 62
7
  6
CONTINUOUS
 10
214.4040224913
 20
209.4037633478
 11
214.4040224913
 21
201.9037633478
  0
LINE
  8
0
 62
7
  6
CONTINUOUS
 10
218.3540224913
 20
209.4037633478
 11
218.3540224913
 21
201.9037647424
  0
LINE
  8
0
 62
7
  6
CONTINUOUS
 10
218.5540224913
 20
203.6037633478
 11
218.5540224913
 21
209.4037633478
  0
POLYLINE
  8
0
 62
7
  6
CONTINUOUS
 66
1
 70
0
  0
VERTEX
  8
0
 62
7
  6
CONTINUOUS
 10
214.3853749773
 20
207.0037633478
  0
VERTEX
  8
0
 62
7
  6
CONTINUOUS
 10
214.3957756677
 20
207.0497448869
  0
VERTEX
  8
0
 62
7
  6
CONTINUOUS
 10
214.4019771193
 20
207.0949921174
  0
VERTEX
  8
0
 62
7
  6
CONTINUOUS
 10
214.4040224913
 20
207.1390400432
  0
SEQEND
  0
LINE
  8
0
 62
7
  6
CONTINUOUS
 10
66.1540224913
 20
106.3345791297
 11
66.1540224913
 21
115.4011521222
  0
LINE
  8
0
 62
7
  6
CONTINUOUS
 10
66.3540224913
 20
98.244299308
 11
66.3540224913
 21
105.7345791297
  0
LINE
  8
0
 62
7
  6
CONTINUOUS
 10
66.3540224913
 20
116.0039681983
 11
66.3540224913
 21
116.9226689744
  0
LINE
  8
0
 62
7
  6
CONTINUOUS
 10
70.0940224913
 20
107.909299308
 11
70.0940224913
 21
115.109299308
  0
LINE
  8
0
 62
7
  6
CONTINUOUS
 10
70.3040224913
 20
98.244299308
 11
70.3040224913
 21
105.0959296415
  0
POLYLINE
  8
0
 62
7
  6
CONTINUOUS
 66
1
 70
0
  0
VERTEX
  8
0
 62
7
  6
CONTINUOUS
 10
70.0940224913
 20
115.109299308
  0
VERTEX
  8
0
 62
7
  6
CONTINUOUS
 10
70.1061559546
 20
115.2219076322
  0
VERTEX
  8
0
 62
7
  6
CONTINUOUS
 10
70.1396947247
 20
115.3214518196
  0
VERTEX
  8
0
 62
7
  6
CONTINUOUS
 10
70.1879675266
 20
115.4000190324
  0
VERTEX
  8
0
 62
7
  6
CONTINUOUS
 10
70.2154247583
 20
115.4306930776
  0
VERTEX
  8
0
 62
7
  6
CONTINUOUS
 10
70.273641209
 20
115.47568307
  0
VERTEX
  8
0
 62
7
  6
CONTINUOUS
 10
70.3336477503
 20
115.5011153433
  0
VERTEX
  8
0
 62
7
  6
CONTINUOUS
 10
70.3940224913
 20
115.509299308
  0
SEQEND
  0
LINE
  8
0
 62
7
  6
CONTINUOUS
 10
71.2940224913
 20
115.109299308
 11
71.2940224913
 21
107.909299308
  0
LINE
  8
0
 62
7
  6
CONTINUOUS
 10
71.3540224913
 20
117.9226689514
 11
71.3540224913
 21
124.774299308
  0
LINE
  8
0
 62
7
  6
CONTINUOUS
 10
73.7340224913
 20
115.324299308
 11
73.7340224913
 21
107.694299308
  0
LINE
  8
0
 62
7
  6
CONTINUOUS
 10
74.9140224913
 20
107.694299308
 11
74.9140224913
 21
115.324299308
  0
POLYLINE
  8
0
 62
7
  6
CONTINUOUS
 66
1
 70
0
  0
VERTEX
  8
0
 62
7
  6
CONTINUOUS
 10
71.2940224913
 20
107.909299308
  0
VERTEX
  8
0
 62
7
  6
CONTINUOUS
 10
71.2818890281
 20
107.7966909837
  0
VERTEX
  8
0
 62
7
  6
CONTINUOUS
 10
71.248350258
 20
107.6971467963
  0
VERTEX
  8
0
 62
7
  6
CONTINUOUS
 10
71.2000774561
 20
107.6185795835
  0
VERTEX
  8
0
 62
7
  6
CONTINUOUS
 10
71.1726202244
 20
107.5879055384
  0
VERTEX
  8
0
 62
7
  6
CONTINUOUS
 10
71.1144037737
 20
107.5429155459
  0
VERTEX
  8
0
 62
7
  6
CONTINUOUS
 10
71.0543972324
 20
107.5174832726
  0
VERTEX
  8
0
 62
7
  6
CONTINUOUS
 10
70.9940224913
 20
107.509299308
  0
SEQEND
  0
POLYLINE
  8
0
 62
7
  6
CONTINUOUS
 66
1
 70
0
  0
VERTEX
  8
0
 62
7
  6
CONTINUOUS
 10
71.3540224913
 20
122.2590441794
  0
VERTEX
  8
0
 62
7
  6
CONTINUOUS
 10
71.3623960308
 20
122.2738352085
  0
VERTEX
  8
0
 62
7
  6
CONTINUOUS
 10
71.3873050926
 20
122.2879936165
  0
VERTEX
  8
0
 62
7
  6
CONTINUOUS
 10
71.4280234404
 20
122.3010703901
  0
VERTEX
  8
0
 62
7
  6
CONTINUOUS
 10
71.4832839327
 20
122.3126559213
  0
VERTEX
  8
0
 62
7
  6
CONTINUOUS
 10
71.5158289095
 20
122.3177747668
  0
VERTEX
  8
0
 62
7
  6
CONTINUOUS
 10
71.5894078992
 20
122.3264663959
  0
VERTEX
  8
0
 62
7
  6
CONTINUOUS
 10
71.6722123561
 20
122.3328790907
  0
VERTEX
  8
0
 62
7
  6
CONTINUOUS
 10
71.7614342546
 20
122.3368126694
  0
VERTEX
  8
0
 62
7
  6
CONTINUOUS
 10
71.8540224913
 20
122.338139789
  0
SEQEND
  0
LINE
  8
0
 62
7
  6
CONTINUOUS
 10
76.0940224913
 20
115.324299308
 11
76.0940224913
 21
107.694299308
  0
LINE
  8
0
 62
7
  6
CONTINUOUS
 10
77.2740224913
 20
107.694299308
 11
77.2740224913
 21
115.324299308
  0
LINE
  8
0
 62
7
  6
CONTINUOUS
 10
80.1040224913
 20
117.9226689744
 11
80.1040224913
 21
124.774299308
  0
LINE
  8
0
 62
7
  6
CONTINUOUS
 10
80.4540224913
 20
105.0959296415
 11
80.4540224913
 21
98.244299308
  0
LINE
  8
0
 62
7
  6
CONTINUOUS
 10
66.2378901239
 20
115.6783413225
 11
66.2701548588
 21
115.726778998
  0
LINE
  8
0
 62
7
  6
CONTINUOUS
 10
83.2840224913
 20
115.324299308
 11
83.2840224913
 21
107.694299308
  0
LINE
  8
0
 62
7
  6
CONTINUOUS
 10
84.4640224913
 20
107.694299308
 11
84.4640224913
 21
115.324299308
  0
LINE
  8
0
 62
7
  6
CONTINUOUS
 10
85.6440224913
 20
115.324299308
 11
85.6440224913
 21
107.694299308
  0
POLYLINE
  8
0
 62
7
  6
CONTINUOUS
 66
1
 70
0
  0
VERTEX
  8
0
 62
7
  6
CONTINUOUS
 10
70.3040224913
 20
100.7595544366
  0
VERTEX
  8
0
 62
7
  6
CONTINUOUS
 10
70.2956489519
 20
100.7447634074
  0
VERTEX
  8
0
 62
7
  6
CONTINUOUS
 10
70.2707398901
 20
100.7306049994
  0
VERTEX
  8
0
 62
7
  6
CONTINUOUS
 10
70.2300215423
 20
100.7175282258
  0
VERTEX
  8
0
 62
7
  6
CONTINUOUS
 10
70.17476105
 20
100.7059426946
  0
VERTEX
  8
0
 62
7
  6
CONTINUOUS
 10
70.1422160732
 20
100.7008238491
  0
VERTEX
  8
0
 62
7
  6
CONTINUOUS
 10
70.0686370835
 20
100.69213222
  0
VERTEX
  8
0
 62
7
  6
CONTINUOUS
 10
69.9858326266
 20
100.6857195252
  0
VERTEX
  8
0
 62
7
  6
CONTINUOUS
 10
69.8966107281
 20
100.6817859466
  0
VERTEX
  8
0
 62
7
  6
CONTINUOUS
 10
69.8040224913
 20
100.6804588269
  0
SEQEND
  0
POLYLINE
  8
0
 62
7
  6
CONTINUOUS
 66
1
 70
0
  0
VERTEX
  8
0
 62
7
  6
CONTINUOUS
 10
80.4540224913
 20
100.7595544366
  0
VERTEX
  8
0
 62
7
  6
CONTINUOUS
 10
80.4623960308
 20
100.7447634074
  0
VERTEX
  8
0
 62
7
  6
CONTINUOUS
 10
80.4873050926
 20
100.7306049994
  0
VERTEX
  8
0
 62
7
  6
CONTINUOUS
 10
80.5280234404
 20
100.7175282258
  0
VERTEX
  8
0
 62
7
  6
CONTINUOUS
 10
80.5832839327
 20
100.7059426946
  0
VERTEX
  8
0
 62
7
  6
CONTINUOUS
 10
80.6158289095
 20
100.7008238491
  0
VERTEX
  8
0
 62
7
  6
CONTINUOUS
 10
80.6894078992
 20
100.69213222
  0
VERTEX
  8
0
 62
7
  6
CONTINUOUS
 10
80.7722123561
 20
100.6857195252
  0
VERTEX
  8
0
 62
7
  6
CONTINUOUS
 10
80.8614342546
 20
100.6817859466
  0
VERTEX
  8
0
 62
7
  6
CONTINUOUS
 10
80.9540224913
 20
100.6804588269
  0
SEQEND
  0
LINE
  8
0
 62
7
  6
CONTINUOUS
 10
86.8240224913
 20
107.694299308
 11
86.8240224913
 21
115.324299308
  0
LINE
  8
0
 62
7
  6
CONTINUOUS
 10
89.1940224913
 20
107.909299308
 11
89.1940224913
 21
115.109299308
  0
LINE
  8
0
 62
7
  6
CONTINUOUS
 10
89.6540224913
 20
105.0959296415
 11
89.6540224913
 21
98.244299308
  0
LINE
  8
0
 62
7
  6
CONTINUOUS
 10
90.0040224913
 20
117.9226689514
 11
90.0040224913
 21
124.774299308
  0
LINE
  8
0
 62
7
  6
CONTINUOUS
 10
90.3940224913
 20
115.109299308
 11
90.3940224913
 21
107.909299308
  0
POLYLINE
  8
0
 62
7
  6
CONTINUOUS
 66
1
 70
0
  0
VERTEX
  8
0
 62
7
  6
CONTINUOUS
 10
89.1940224913
 20
115.109299308
  0
VERTEX
  8
0
 62
7
  6
CONTINUOUS
 10
89.2061559546
 20
115.2219076322
  0
VERTEX
  8
0
 62
7
  6
CONTINUOUS
 10
89.2396947247
 20
115.3214518196
  0
VERTEX
  8
0
 62
7
  6
CONTINUOUS
 10
89.2879675266
 20
115.4000190324
  0
VERTEX
  8
0
 62
7
  6
CONTINUOUS
 10
89.3154247583
 20
115.4306930776
  0
VERTEX
  8
0
 62
7
  6
CONTINUOUS
 10
89.373641209
 20
115.47568307
  0
VERTEX
  8
0
 62
7
  6
CONTINUOUS
 10
89.4336477503
 20
115.5011153433
  0
VERTEX
  8
0
 62
7
  6
CONTINUOUS
 10
89.4940224913
 20
115.509299308
  0
SEQEND
  0
POLYLINE
  8
0
 62
7
  6
CONTINUOUS
 66
1
 70
0
  0
VERTEX
  8
0
 62
7
  6
CONTINUOUS
 10
90.3940224913
 20
107.909299308
  0
VERTEX
  8
0
 62
7
  6
CONTINUOUS
 10
90.3818890281
 20
107.7966909837
  0
VERTEX
  8
0
 62
7
  6
CONTINUOUS
 10
90.348350258
 20
107.6971467963
  0
VERTEX
  8
0
 62
7
  6
CONTINUOUS
 10
90.3000774561
 20
107.6185795835
  0
VERTEX
  8
0
 62
7
  6
CONTINUOUS
 10
90.2726202244
 20
107.5879055384
  0
VERTEX
  8
0
 62
7
  6
CONTINUOUS
 10
90.2144037737
 20
107.5429155459
  0
VERTEX
  8
0
 62
7
  6
CONTINUOUS
 10
90.1543972324
 20
107.5174832726
  0
VERTEX
  8
0
 62
7
  6
CONTINUOUS
 10
90.0940224913
 20
107.509299308
  0
SEQEND
  0
LINE
  8
0
 62
7
  6
CONTINUOUS
 10
92.8340224913
 20
115.324299308
 11
92.8340224913
 21
107.694299308
  0
LINE
  8
0
 62
7
  6
CONTINUOUS
 10
94.0140224913
 20
107.694299308
 11
94.0140224913
 21
115.324299308
  0
LINE
  8
0
 62
7
  6
CONTINUOUS
 10
95.1940224913
 20
115.324299308
 11
95.1940224913
 21
107.694299308
  0
LINE
  8
0
 62
7
  6
CONTINUOUS
 10
96.3740224913
 20
107.694299308
 11
96.3740224913
 21
115.324299308
  0
POLYLINE
  8
0
 62
7
  6
CONTINUOUS
 66
1
 70
0
  0
VERTEX
  8
0
 62
7
  6
CONTINUOUS
 10
90.0040224913
 20
122.2590441794
  0
VERTEX
  8
0
 62
7
  6
CONTINUOUS
 10
90.0123960308
 20
122.2738352085
  0
VERTEX
  8
0
 62
7
  6
CONTINUOUS
 10
90.0373050926
 20
122.2879936165
  0
VERTEX
  8
0
 62
7
  6
CONTINUOUS
 10
90.0780234404
 20
122.3010703901
  0
VERTEX
  8
0
 62
7
  6
CONTINUOUS
 10
90.1332839327
 20
122.3126559213
  0
VERTEX
  8
0
 62
7
  6
CONTINUOUS
 10
90.1658289095
 20
122.3177747668
  0
VERTEX
  8
0
 62
7
  6
CONTINUOUS
 10
90.2394078992
 20
122.3264663959
  0
VERTEX
  8
0
 62
7
  6
CONTINUOUS
 10
90.3222123561
 20
122.3328790907
  0
VERTEX
  8
0
 62
7
  6
CONTINUOUS
 10
90.4114342546
 20
122.3368126694
  0
VERTEX
  8
0
 62
7
  6
CONTINUOUS
 10
90.5040224913
 20
122.338139789
  0
SEQEND
  0
POLYLINE
  8
0
 62
7
  6
CONTINUOUS
 66
1
 70
0
  0
VERTEX
  8
0
 62
7
  6
CONTINUOUS
 10
80.1040224913
 20
122.2590441794
  0
VERTEX
  8
0
 62
7
  6
CONTINUOUS
 10
80.0956489519
 20
122.2738352085
  0
VERTEX
  8
0
 62
7
  6
CONTINUOUS
 10
80.0707398901
 20
122.2879936165
  0
VERTEX
  8
0
 62
7
  6
CONTINUOUS
 10
80.0300215423
 20
122.3010703901
  0
VERTEX
  8
0
 62
7
  6
CONTINUOUS
 10
79.97476105
 20
122.3126559213
  0
VERTEX
  8
0
 62
7
  6
CONTINUOUS
 10
79.9422160732
 20
122.3177747668
  0
VERTEX
  8
0
 62
7
  6
CONTINUOUS
 10
79.8686370835
 20
122.3264663959
  0
VERTEX
  8
0
 62
7
  6
CONTINUOUS
 10
79.7858326266
 20
122.3328790907
  0
VERTEX
  8
0
 62
7
  6
CONTINUOUS
 10
79.6966107281
 20
122.3368126694
  0
VERTEX
  8
0
 62
7
  6
CONTINUOUS
 10
79.6040224913
 20
122.338139789
  0
SEQEND
  0
LINE
  8
0
 62
7
  6
CONTINUOUS
 10
99.2040224913
 20
117.9226689744
 11
99.2040224913
 21
124.774299308
  0
LINE
  8
0
 62
7
  6
CONTINUOUS
 10
99.5540224913
 20
105.0959296415
 11
99.5540224913
 21
98.244299308
  0
POLYLINE
  8
0
 62
7
  6
CONTINUOUS
 66
1
 70
0
  0
VERTEX
  8
0
 62
7
  6
CONTINUOUS
 10
99.5540224913
 20
100.7595544366
  0
VERTEX
  8
0
 62
7
  6
CONTINUOUS
 10
99.5623960308
 20
100.7447634074
  0
VERTEX
  8
0
 62
7
  6
CONTINUOUS
 10
99.5873050926
 20
100.7306049994
  0
VERTEX
  8
0
 62
7
  6
CONTINUOUS
 10
99.6280234404
 20
100.7175282258
  0
VERTEX
  8
0
 62
7
  6
CONTINUOUS
 10
99.6832839327
 20
100.7059426946
  0
VERTEX
  8
0
 62
7
  6
CONTINUOUS
 10
99.7158289095
 20
100.7008238491
  0
VERTEX
  8
0
 62
7
  6
CONTINUOUS
 10
99.7894078992
 20
100.69213222
  0
VERTEX
  8
0
 62
7
  6
CONTINUOUS
 10
99.8722123561
 20
100.6857195252
  0
VERTEX
  8
0
 62
7
  6
CONTINUOUS
 10
99.9614342546
 20
100.6817859466
  0
VERTEX
  8
0
 62
7
  6
CONTINUOUS
 10
100.0540224913
 20
100.6804588269
  0
SEQEND
  0
LINE
  8
0
 62
7
  6
CONTINUOUS
 10
102.3840224913
 20
115.324299308
 11
102.3840224913
 21
107.694299308
  0
LINE
  8
0
 62
7
  6
CONTINUOUS
 10
103.5640224913
 20
107.694299308
 11
103.5640224913
 21
115.324299308
  0
LINE
  8
0
 62
7
  6
CONTINUOUS
 10
104.7440224913
 20
115.324299308
 11
104.7440224913
 21
107.694299308
  0
LINE
  8
0
 62
7
  6
CONTINUOUS
 10
105.9240224913
 20
107.694299308
 11
105.9240224913
 21
115.324299308
  0
POLYLINE
  8
0
 62
7
  6
CONTINUOUS
 66
1
 70
0
  0
VERTEX
  8
0
 62
7
  6
CONTINUOUS
 10
89.6540224913
 20
100.7595544366
  0
VERTEX
  8
0
 62
7
  6
CONTINUOUS
 10
89.6456489519
 20
100.7447634074
  0
VERTEX
  8
0
 62
7
  6
CONTINUOUS
 10
89.6207398901
 20
100.7306049994
  0
VERTEX
  8
0
 62
7
  6
CONTINUOUS
 10
89.5800215423
 20
100.7175282258
  0
VERTEX
  8
0
 62
7
  6
CONTINUOUS
 10
89.52476105
 20
100.7059426946
  0
VERTEX
  8
0
 62
7
  6
CONTINUOUS
 10
89.4922160732
 20
100.7008238491
  0
VERTEX
  8
0
 62
7
  6
CONTINUOUS
 10
89.4186370835
 20
100.69213222
  0
VERTEX
  8
0
 62
7
  6
CONTINUOUS
 10
89.3358326266
 20
100.6857195252
  0
VERTEX
  8
0
 62
7
  6
CONTINUOUS
 10
89.2466107281
 20
100.6817859466
  0
VERTEX
  8
0
 62
7
  6
CONTINUOUS
 10
89.1540224913
 20
100.6804588269
  0
SEQEND
  0
LINE
  8
0
 62
7
  6
CONTINUOUS
 10
108.2940224913
 20
107.909299308
 11
108.2940224913
 21
115.109299308
  0
LINE
  8
0
 62
7
  6
CONTINUOUS
 10
108.7540224913
 20
105.0959296415
 11
108.7540224913
 21
98.244299308
  0
LINE
  8
0
 62
7
  6
CONTINUOUS
 10
109.1040224913
 20
117.9226689514
 11
109.1040224913
 21
124.774299308
  0
LINE
  8
0
 62
7
  6
CONTINUOUS
 10
109.4940224913
 20
115.109299308
 11
109.4940224913
 21
107.909299308
  0
LINE
  8
0
 62
7
  6
CONTINUOUS
 10
111.9340224913
 20
115.324299308
 11
111.9340224913
 21
107.694299308
  0
POLYLINE
  8
0
 62
7
  6
CONTINUOUS
 66
1
 70
0
  0
VERTEX
  8
0
 62
7
  6
CONTINUOUS
 10
108.2940224913
 20
115.109299308
  0
VERTEX
  8
0
 62
7
  6
CONTINUOUS
 10
108.3061559546
 20
115.2219076322
  0
VERTEX
  8
0
 62
7
  6
CONTINUOUS
 10
108.3396947247
 20
115.3214518196
  0
VERTEX
  8
0
 62
7
  6
CONTINUOUS
 10
108.3879675266
 20
115.4000190324
  0
VERTEX
  8
0
 62
7
  6
CONTINUOUS
 10
108.4154247583
 20
115.4306930776
  0
VERTEX
  8
0
 62
7
  6
CONTINUOUS
 10
108.473641209
 20
115.47568307
  0
VERTEX
  8
0
 62
7
  6
CONTINUOUS
 10
108.5336477503
 20
115.5011153433
  0
VERTEX
  8
0
 62
7
  6
CONTINUOUS
 10
108.5940224913
 20
115.509299308
  0
SEQEND
  0
POLYLINE
  8
0
 62
7
  6
CONTINUOUS
 66
1
 70
0
  0
VERTEX
  8
0
 62
7
  6
CONTINUOUS
 10
109.4940224913
 20
107.909299308
  0
VERTEX
  8
0
 62
7
  6
CONTINUOUS
 10
109.4818890281
 20
107.7966909837
  0
VERTEX
  8
0
 62
7
  6
CONTINUOUS
 10
109.448350258
 20
107.6971467963
  0
VERTEX
  8
0
 62
7
  6
CONTINUOUS
 10
109.4000774561
 20
107.6185795835
  0
VERTEX
  8
0
 62
7
  6
CONTINUOUS
 10
109.3726202244
 20
107.5879055384
  0
VERTEX
  8
0
 62
7
  6
CONTINUOUS
 10
109.3144037737
 20
107.5429155459
  0
VERTEX
  8
0
 62
7
  6
CONTINUOUS
 10
109.2543972324
 20
107.5174832726
  0
VERTEX
  8
0
 62
7
  6
CONTINUOUS
 10
109.1940224913
 20
107.509299308
  0
SEQEND
  0
POLYLINE
  8
0
 62
7
  6
CONTINUOUS
 66
1
 70
0
  0
VERTEX
  8
0
 62
7
  6
CONTINUOUS
 10
109.1040224913
 20
122.2590441794
  0
VERTEX
  8
0
 62
7
  6
CONTINUOUS
 10
109.1123960308
 20
122.2738352085
  0
VERTEX
  8
0
 62
7
  6
CONTINUOUS
 10
109.1373050926
 20
122.2879936165
  0
VERTEX
  8
0
 62
7
  6
CONTINUOUS
 10
109.1780234404
 20
122.3010703901
  0
VERTEX
  8
0
 62
7
  6
CONTINUOUS
 10
109.2332839327
 20
122.3126559213
  0
VERTEX
  8
0
 62
7
  6
CONTINUOUS
 10
109.2658289095
 20
122.3177747668
  0
VERTEX
  8
0
 62
7
  6
CONTINUOUS
 10
109.3394078992
 20
122.3264663959
  0
VERTEX
  8
0
 62
7
  6
CONTINUOUS
 10
109.4222123561
 20
122.3328790907
  0
VERTEX
  8
0
 62
7
  6
CONTINUOUS
 10
109.5114342546
 20
122.3368126694
  0
VERTEX
  8
0
 62
7
  6
CONTINUOUS
 10
109.6040224913
 20
122.338139789
  0
SEQEND
  0
POLYLINE
  8
0
 62
7
  6
CONTINUOUS
 66
1
 70
0
  0
VERTEX
  8
0
 62
7
  6
CONTINUOUS
 10
99.2040224913
 20
122.2590441794
  0
VERTEX
  8
0
 62
7
  6
CONTINUOUS
 10
99.1956489519
 20
122.2738352085
  0
VERTEX
  8
0
 62
7
  6
CONTINUOUS
 10
99.1707398901
 20
122.2879936165
  0
VERTEX
  8
0
 62
7
  6
CONTINUOUS
 10
99.1300215423
 20
122.3010703901
  0
VERTEX
  8
0
 62
7
  6
CONTINUOUS
 10
99.07476105
 20
122.3126559213
  0
VERTEX
  8
0
 62
7
  6
CONTINUOUS
 10
99.0422160732
 20
122.3177747668
  0
VERTEX
  8
0
 62
7
  6
CONTINUOUS
 10
98.9686370835
 20
122.3264663959
  0
VERTEX
  8
0
 62
7
  6
CONTINUOUS
 10
98.8858326266
 20
122.3328790907
  0
VERTEX
  8
0
 62
7
  6
CONTINUOUS
 10
98.7966107281
 20
122.3368126694
  0
VERTEX
  8
0
 62
7
  6
CONTINUOUS
 10
98.7040224913
 20
122.338139789
  0
SEQEND
  0
LINE
  8
0
 62
7
  6
CONTINUOUS
 10
113.1140224913
 20
107.694299308
 11
113.1140224913
 21
115.324299308
  0
LINE
  8
0
 62
7
  6
CONTINUOUS
 10
114.2940224913
 20
115.324299308
 11
114.2940224913
 21
107.694299308
  0
LINE
  8
0
 62
7
  6
CONTINUOUS
 10
115.4740224913
 20
107.694299308
 11
115.4740224913
 21
115.324299308
  0
POLYLINE
  8
0
 62
7
  6
CONTINUOUS
 66
1
 70
0
  0
VERTEX
  8
0
 62
7
  6
CONTINUOUS
 10
118.6540224913
 20
100.7595544366
  0
VERTEX
  8
0
 62
7
  6
CONTINUOUS
 10
118.6623960308
 20
100.7447634074
  0
VERTEX
  8
0
 62
7
  6
CONTINUOUS
 10
118.6873050926
 20
100.7306049994
  0
VERTEX
  8
0
 62
7
  6
CONTINUOUS
 10
118.7280234404
 20
100.7175282258
  0
VERTEX
  8
0
 62
7
  6
CONTINUOUS
 10
118.7832839327
 20
100.7059426946
  0
VERTEX
  8
0
 62
7
  6
CONTINUOUS
 10
118.8158289095
 20
100.7008238491
  0
VERTEX
  8
0
 62
7
  6
CONTINUOUS
 10
118.8894078992
 20
100.69213222
  0
VERTEX
  8
0
 62
7
  6
CONTINUOUS
 10
118.9722123561
 20
100.6857195252
  0
VERTEX
  8
0
 62
7
  6
CONTINUOUS
 10
119.0614342546
 20
100.6817859466
  0
VERTEX
  8
0
 62
7
  6
CONTINUOUS
 10
119.1540224913
 20
100.6804588269
  0
SEQEND
  0
LINE
  8
0
 62
7
  6
CONTINUOUS
 10
118.3040224913
 20
117.9226689744
 11
118.3040224913
 21
124.774299308
  0
LINE
  8
0
 62
7
  6
CONTINUOUS
 10
118.6540224913
 20
105.0959296415
 11
118.6540224913
 21
98.244299308
  0
LINE
  8
0
 62
7
  6
CONTINUOUS
 10
121.4840224913
 20
115.324299308
 11
121.4840224913
 21
107.694299308
  0
POLYLINE
  8
0
 62
7
  6
CONTINUOUS
 66
1
 70
0
  0
VERTEX
  8
0
 62
7
  6
CONTINUOUS
 10
108.7540224913
 20
100.7595544366
  0
VERTEX
  8
0
 62
7
  6
CONTINUOUS
 10
108.7456489519
 20
100.7447634074
  0
VERTEX
  8
0
 62
7
  6
CONTINUOUS
 10
108.7207398901
 20
100.7306049994
  0
VERTEX
  8
0
 62
7
  6
CONTINUOUS
 10
108.6800215423
 20
100.7175282258
  0
VERTEX
  8
0
 62
7
  6
CONTINUOUS
 10
108.62476105
 20
100.7059426946
  0
VERTEX
  8
0
 62
7
  6
CONTINUOUS
 10
108.5922160732
 20
100.7008238491
  0
VERTEX
  8
0
 62
7
  6
CONTINUOUS
 10
108.5186370835
 20
100.69213222
  0
VERTEX
  8
0
 62
7
  6
CONTINUOUS
 10
108.4358326266
 20
100.6857195252
  0
VERTEX
  8
0
 62
7
  6
CONTINUOUS
 10
108.3466107281
 20
100.6817859466
  0
VERTEX
  8
0
 62
7
  6
CONTINUOUS
 10
108.2540224913
 20
100.6804588269
  0
SEQEND
  0
LINE
  8
0
 62
7
  6
CONTINUOUS
 10
122.6640224913
 20
107.694299308
 11
122.6640224913
 21
115.324299308
  0
LINE
  8
0
 62
7
  6
CONTINUOUS
 10
123.8440224913
 20
115.324299308
 11
123.8440224913
 21
107.694299308
  0
LINE
  8
0
 62
7
  6
CONTINUOUS
 10
125.0240224913
 20
107.694299308
 11
125.0240224913
 21
115.324299308
  0
LINE
  8
0
 62
7
  6
CONTINUOUS
 10
127.3940224913
 20
107.909299308
 11
127.3940224913
 21
115.109299308
  0
POLYLINE
  8
0
 62
7
  6
CONTINUOUS
 66
1
 70
0
  0
VERTEX
  8
0
 62
7
  6
CONTINUOUS
 10
127.3940224913
 20
115.109299308
  0
VERTEX
  8
0
 62
7
  6
CONTINUOUS
 10
127.4061559546
 20
115.2219076322
  0
VERTEX
  8
0
 62
7
  6
CONTINUOUS
 10
127.4396947247
 20
115.3214518196
  0
VERTEX
  8
0
 62
7
  6
CONTINUOUS
 10
127.4879675266
 20
115.4000190324
  0
VERTEX
  8
0
 62
7
  6
CONTINUOUS
 10
127.5154247583
 20
115.4306930776
  0
VERTEX
  8
0
 62
7
  6
CONTINUOUS
 10
127.573641209
 20
115.47568307
  0
VERTEX
  8
0
 62
7
  6
CONTINUOUS
 10
127.6336477503
 20
115.5011153433
  0
VERTEX
  8
0
 62
7
  6
CONTINUOUS
 10
127.6940224913
 20
115.509299308
  0
SEQEND
  0
POLYLINE
  8
0
 62
7
  6
CONTINUOUS
 66
1
 70
0
  0
VERTEX
  8
0
 62
7
  6
CONTINUOUS
 10
128.2040224913
 20
122.2590441794
  0
VERTEX
  8
0
 62
7
  6
CONTINUOUS
 10
128.2123960308
 20
122.2738352085
  0
VERTEX
  8
0
 62
7
  6
CONTINUOUS
 10
128.2373050926
 20
122.2879936165
  0
VERTEX
  8
0
 62
7
  6
CONTINUOUS
 10
128.2780234404
 20
122.3010703901
  0
VERTEX
  8
0
 62
7
  6
CONTINUOUS
 10
128.3332839327
 20
122.3126559213
  0
VERTEX
  8
0
 62
7
  6
CONTINUOUS
 10
128.3658289095
 20
122.3177747668
  0
VERTEX
  8
0
 62
7
  6
CONTINUOUS
 10
128.4394078992
 20
122.3264663959
  0
VERTEX
  8
0
 62
7
  6
CONTINUOUS
 10
128.5222123561
 20
122.3328790907
  0
VERTEX
  8
0
 62
7
  6
CONTINUOUS
 10
128.6114342546
 20
122.3368126694
  0
VERTEX
  8
0
 62
7
  6
CONTINUOUS
 10
128.7040224913
 20
122.338139789
  0
SEQEND
  0
POLYLINE
  8
0
 62
7
  6
CONTINUOUS
 66
1
 70
0
  0
VERTEX
  8
0
 62
7
  6
CONTINUOUS
 10
118.3040224913
 20
122.2590441794
  0
VERTEX
  8
0
 62
7
  6
CONTINUOUS
 10
118.2956489519
 20
122.2738352085
  0
VERTEX
  8
0
 62
7
  6
CONTINUOUS
 10
118.2707398901
 20
122.2879936165
  0
VERTEX
  8
0
 62
7
  6
CONTINUOUS
 10
118.2300215423
 20
122.3010703901
  0
VERTEX
  8
0
 62
7
  6
CONTINUOUS
 10
118.17476105
 20
122.3126559213
  0
VERTEX
  8
0
 62
7
  6
CONTINUOUS
 10
118.1422160732
 20
122.3177747668
  0
VERTEX
  8
0
 62
7
  6
CONTINUOUS
 10
118.0686370835
 20
122.3264663959
  0
VERTEX
  8
0
 62
7
  6
CONTINUOUS
 10
117.9858326266
 20
122.3328790907
  0
VERTEX
  8
0
 62
7
  6
CONTINUOUS
 10
117.8966107281
 20
122.3368126694
  0
VERTEX
  8
0
 62
7
  6
CONTINUOUS
 10
117.8040224913
 20
122.338139789
  0
SEQEND
  0
LINE
  8
0
 62
7
  6
CONTINUOUS
 10
127.8540224913
 20
105.0959296415
 11
127.8540224913
 21
98.244299308
  0
LINE
  8
0
 62
7
  6
CONTINUOUS
 10
128.2040224913
 20
117.9226689514
 11
128.2040224913
 21
124.774299308
  0
LINE
  8
0
 62
7
  6
CONTINUOUS
 10
128.5940224913
 20
115.109299308
 11
128.5940224913
 21
107.909299308
  0
LINE
  8
0
 62
7
  6
CONTINUOUS
 10
131.0340224913
 20
115.324299308
 11
131.0340224913
 21
107.694299308
  0
LINE
  8
0
 62
7
  6
CONTINUOUS
 10
132.2140224913
 20
107.694299308
 11
132.2140224913
 21
115.324299308
  0
POLYLINE
  8
0
 62
7
  6
CONTINUOUS
 66
1
 70
0
  0
VERTEX
  8
0
 62
7
  6
CONTINUOUS
 10
128.5940224913
 20
107.909299308
  0
VERTEX
  8
0
 62
7
  6
CONTINUOUS
 10
128.5818890281
 20
107.7966909837
  0
VERTEX
  8
0
 62
7
  6
CONTINUOUS
 10
128.548350258
 20
107.6971467963
  0
VERTEX
  8
0
 62
7
  6
CONTINUOUS
 10
128.5000774561
 20
107.6185795835
  0
VERTEX
  8
0
 62
7
  6
CONTINUOUS
 10
128.4726202244
 20
107.5879055384
  0
VERTEX
  8
0
 62
7
  6
CONTINUOUS
 10
128.4144037737
 20
107.5429155459
  0
VERTEX
  8
0
 62
7
  6
CONTINUOUS
 10
128.3543972324
 20
107.5174832726
  0
VERTEX
  8
0
 62
7
  6
CONTINUOUS
 10
128.2940224913
 20
107.509299308
  0
SEQEND
  0
POLYLINE
  8
0
 62
7
  6
CONTINUOUS
 66
1
 70
0
  0
VERTEX
  8
0
 62
7
  6
CONTINUOUS
 10
217.8540224913
 20
100.6804588269
  0
VERTEX
  8
0
 62
7
  6
CONTINUOUS
 10
217.9466107281
 20
100.6817859466
  0
VERTEX
  8
0
 62
7
  6
CONTINUOUS
 10
218.0358326266
 20
100.6857195252
  0
VERTEX
  8
0
 62
7
  6
CONTINUOUS
 10
218.1186370835
 20
100.69213222
  0
VERTEX
  8
0
 62
7
  6
CONTINUOUS
 10
218.1922160732
 20
100.7008238491
  0
VERTEX
  8
0
 62
7
  6
CONTINUOUS
 10
218.22476105
 20
100.7059426946
  0
VERTEX
  8
0
 62
7
  6
CONTINUOUS
 10
218.2800215423
 20
100.7175282258
  0
VERTEX
  8
0
 62
7
  6
CONTINUOUS
 10
218.3207398901
 20
100.7306049994
  0
VERTEX
  8
0
 62
7
  6
CONTINUOUS
 10
218.3456489519
 20
100.7447634074
  0
VERTEX
  8
0
 62
7
  6
CONTINUOUS
 10
218.3540224913
 20
100.7595544366
  0
SEQEND
  0
LINE
  8
0
 62
7
  6
CONTINUOUS
 10
66.8540224913
 20
97.744299308
 11
69.8040224913
 21
97.744299308
  0
LINE
  8
0
 62
7
  6
CONTINUOUS
 10
80.9540224913
 20
97.744299308
 11
89.1540224913
 21
97.744299308
  0
LINE
  8
0
 62
7
  6
CONTINUOUS
 10
100.0540224913
 20
97.744299308
 11
108.2540224913
 21
97.744299308
  0
LINE
  8
0
 62
7
  6
CONTINUOUS
 10
119.1540224913
 20
97.744299308
 11
127.3540224913
 21
97.744299308
  0
LINE
  8
0
 62
7
  6
CONTINUOUS
 10
138.2540224913
 20
97.744299308
 11
146.4540224913
 21
97.744299308
  0
LINE
  8
0
 62
7
  6
CONTINUOUS
 10
157.3540224913
 20
97.744299308
 11
165.5540224913
 21
97.744299308
  0
LINE
  8
0
 62
7
  6
CONTINUOUS
 10
176.4540224913
 20
97.744299308
 11
184.6540224913
 21
97.744299308
  0
LINE
  8
0
 62
7
  6
CONTINUOUS
 10
195.5540224913
 20
97.744299308
 11
203.7540224913
 21
97.744299308
  0
LINE
  8
0
 62
7
  6
CONTINUOUS
 10
214.9040224913
 20
97.744299308
 11
217.8540224913
 21
97.744299308
  0
LINE
  8
0
 62
7
  6
CONTINUOUS
 10
66.8540224913
 20
100.6804588269
 11
69.8040224913
 21
100.6804588269
  0
LINE
  8
0
 62
7
  6
CONTINUOUS
 10
80.9540224913
 20
100.6804588269
 11
89.1540224913
 21
100.6804588269
  0
LINE
  8
0
 62
7
  6
CONTINUOUS
 10
100.0540224913
 20
100.6804588269
 11
108.2540224913
 21
100.6804588269
  0
LINE
  8
0
 62
7
  6
CONTINUOUS
 10
119.1540224913
 20
100.6804588269
 11
127.3540224913
 21
100.6804588269
  0
LINE
  8
0
 62
7
  6
CONTINUOUS
 10
138.2540224913
 20
100.6804588269
 11
146.4540224913
 21
100.6804588269
  0
LINE
  8
0
 62
7
  6
CONTINUOUS
 10
157.3540224913
 20
100.6804588269
 11
165.5540224913
 21
100.6804588269
  0
LINE
  8
0
 62
7
  6
CONTINUOUS
 10
176.4540224913
 20
100.6804588269
 11
184.6540224913
 21
100.6804588269
  0
LINE
  8
0
 62
7
  6
CONTINUOUS
 10
195.5540224913
 20
100.6804588269
 11
203.7540224913
 21
100.6804588269
  0
LINE
  8
0
 62
7
  6
CONTINUOUS
 10
214.9040224913
 20
100.6804588269
 11
217.8540224913
 21
100.6804588269
  0
POLYLINE
  8
0
 62
7
  6
CONTINUOUS
 66
1
 70
0
  0
VERTEX
  8
0
 62
7
  6
CONTINUOUS
 10
66.8540224913
 20
100.6804588269
  0
VERTEX
  8
0
 62
7
  6
CONTINUOUS
 10
66.7614342546
 20
100.6817859466
  0
VERTEX
  8
0
 62
7
  6
CONTINUOUS
 10
66.6722123561
 20
100.6857195252
  0
VERTEX
  8
0
 62
7
  6
CONTINUOUS
 10
66.5894078992
 20
100.69213222
  0
VERTEX
  8
0
 62
7
  6
CONTINUOUS
 10
66.5158289095
 20
100.7008238491
  0
VERTEX
  8
0
 62
7
  6
CONTINUOUS
 10
66.4832839327
 20
100.7059426946
  0
VERTEX
  8
0
 62
7
  6
CONTINUOUS
 10
66.4280234404
 20
100.7175282258
  0
VERTEX
  8
0
 62
7
  6
CONTINUOUS
 10
66.3873050926
 20
100.7306049994
  0
VERTEX
  8
0
 62
7
  6
CONTINUOUS
 10
66.3623960308
 20
100.7447634074
  0
VERTEX
  8
0
 62
7
  6
CONTINUOUS
 10
66.3540224913
 20
100.7595544366
  0
SEQEND
  0
POLYLINE
  8
0
 62
7
  6
CONTINUOUS
 66
1
 70
0
  0
VERTEX
  8
0
 62
7
  6
CONTINUOUS
 10
70.3940224913
 20
107.509299308
  0
VERTEX
  8
0
 62
7
  6
CONTINUOUS
 10
70.3336477503
 20
107.5174832726
  0
VERTEX
  8
0
 62
7
  6
CONTINUOUS
 10
70.273641209
 20
107.5429155459
  0
VERTEX
  8
0
 62
7
  6
CONTINUOUS
 10
70.2154247583
 20
107.5879055384
  0
VERTEX
  8
0
 62
7
  6
CONTINUOUS
 10
70.1879675266
 20
107.6185795835
  0
VERTEX
  8
0
 62
7
  6
CONTINUOUS
 10
70.1396947247
 20
107.6971467963
  0
VERTEX
  8
0
 62
7
  6
CONTINUOUS
 10
70.1061559546
 20
107.7966909837
  0
VERTEX
  8
0
 62
7
  6
CONTINUOUS
 10
70.0940224913
 20
107.909299308
  0
SEQEND
  0
POLYLINE
  8
0
 62
7
  6
CONTINUOUS
 66
1
 70
0
  0
VERTEX
  8
0
 62
7
  6
CONTINUOUS
 10
89.4940224913
 20
107.509299308
  0
VERTEX
  8
0
 62
7
  6
CONTINUOUS
 10
89.4336477503
 20
107.5174832726
  0
VERTEX
  8
0
 62
7
  6
CONTINUOUS
 10
89.373641209
 20
107.5429155459
  0
VERTEX
  8
0
 62
7
  6
CONTINUOUS
 10
89.3154247583
 20
107.5879055384
  0
VERTEX
  8
0
 62
7
  6
CONTINUOUS
 10
89.2879675266
 20
107.6185795835
  0
VERTEX
  8
0
 62
7
  6
CONTINUOUS
 10
89.2396947247
 20
107.6971467963
  0
VERTEX
  8
0
 62
7
  6
CONTINUOUS
 10
89.2061559546
 20
107.7966909837
  0
VERTEX
  8
0
 62
7
  6
CONTINUOUS
 10
89.1940224913
 20
107.909299308
  0
SEQEND
  0
LINE
  8
0
 62
7
  6
CONTINUOUS
 10
133.3940224913
 20
115.324299308
 11
133.3940224913
 21
107.694299308
  0
LINE
  8
0
 62
7
  6
CONTINUOUS
 10
134.5740224913
 20
107.694299308
 11
134.5740224913
 21
115.324299308
  0
LINE
  8
0
 62
7
  6
CONTINUOUS
 10
137.4040224913
 20
117.9226689744
 11
137.4040224913
 21
124.774299308
  0
LINE
  8
0
 62
7
  6
CONTINUOUS
 10
137.7540224913
 20
98.244299308
 11
137.7540224913
 21
105.0959296415
  0
POLYLINE
  8
0
 62
7
  6
CONTINUOUS
 66
1
 70
0
  0
VERTEX
  8
0
 62
7
  6
CONTINUOUS
 10
127.8540224913
 20
100.7595544366
  0
VERTEX
  8
0
 62
7
  6
CONTINUOUS
 10
127.8456489519
 20
100.7447634074
  0
VERTEX
  8
0
 62
7
  6
CONTINUOUS
 10
127.8207398901
 20
100.7306049994
  0
VERTEX
  8
0
 62
7
  6
CONTINUOUS
 10
127.7800215423
 20
100.7175282258
  0
VERTEX
  8
0
 62
7
  6
CONTINUOUS
 10
127.72476105
 20
100.7059426946
  0
VERTEX
  8
0
 62
7
  6
CONTINUOUS
 10
127.6922160732
 20
100.7008238491
  0
VERTEX
  8
0
 62
7
  6
CONTINUOUS
 10
127.6186370835
 20
100.69213222
  0
VERTEX
  8
0
 62
7
  6
CONTINUOUS
 10
127.5358326266
 20
100.6857195252
  0
VERTEX
  8
0
 62
7
  6
CONTINUOUS
 10
127.4466107281
 20
100.6817859466
  0
VERTEX
  8
0
 62
7
  6
CONTINUOUS
 10
127.3540224913
 20
100.6804588269
  0
SEQEND
  0
LINE
  8
1_AXIS
 62
2
  6
CENTER
 10
62.1721131488
 20
101.984299308
 11
225.4053311419
 21
101.984299308
  0
LINE
  8
0
 62
7
  6
CONTINUOUS
 10
213.9040224913
 20
105.5959296415
 11
204.7540224913
 21
105.5959296415
  0
LINE
  8
0
 62
7
  6
CONTINUOUS
 10
194.5540224913
 20
105.5959296415
 11
185.6540224913
 21
105.5959296415
  0
LINE
  8
0
 62
7
  6
CONTINUOUS
 10
175.4540224913
 20
105.5959296415
 11
166.5540224913
 21
105.5959296415
  0
LINE
  8
0
 62
7
  6
CONTINUOUS
 10
156.3540224913
 20
105.5959296415
 11
147.4540224913
 21
105.5959296415
  0
LINE
  8
0
 62
7
  6
CONTINUOUS
 10
137.2540224913
 20
105.5959296415
 11
128.3540224913
 21
105.5959296415
  0
LINE
  8
0
 62
7
  6
CONTINUOUS
 10
118.1540224913
 20
105.5959296415
 11
109.2540224913
 21
105.5959296415
  0
LINE
  8
0
 62
7
  6
CONTINUOUS
 10
99.0540224913
 20
105.5959296415
 11
90.1540224913
 21
105.5959296415
  0
LINE
  8
0
 62
7
  6
CONTINUOUS
 10
79.9540224913
 20
105.5959296415
 11
70.8040224913
 21
105.5959296415
  0
POLYLINE
  8
0
 62
7
  6
CONTINUOUS
 66
1
 70
0
  0
VERTEX
  8
0
 62
7
  6
CONTINUOUS
 10
108.5940224913
 20
107.509299308
  0
VERTEX
  8
0
 62
7
  6
CONTINUOUS
 10
108.5336477503
 20
107.5174832726
  0
VERTEX
  8
0
 62
7
  6
CONTINUOUS
 10
108.473641209
 20
107.5429155459
  0
VERTEX
  8
0
 62
7
  6
CONTINUOUS
 10
108.4154247583
 20
107.5879055384
  0
VERTEX
  8
0
 62
7
  6
CONTINUOUS
 10
108.3879675266
 20
107.6185795835
  0
VERTEX
  8
0
 62
7
  6
CONTINUOUS
 10
108.3396947247
 20
107.6971467963
  0
VERTEX
  8
0
 62
7
  6
CONTINUOUS
 10
108.3061559546
 20
107.7966909837
  0
VERTEX
  8
0
 62
7
  6
CONTINUOUS
 10
108.2940224913
 20
107.909299308
  0
SEQEND
  0
POLYLINE
  8
0
 62
7
  6
CONTINUOUS
 66
1
 70
0
  0
VERTEX
  8
0
 62
7
  6
CONTINUOUS
 10
127.6940224913
 20
107.509299308
  0
VERTEX
  8
0
 62
7
  6
CONTINUOUS
 10
127.6336477503
 20
107.5174832726
  0
VERTEX
  8
0
 62
7
  6
CONTINUOUS
 10
127.573641209
 20
107.5429155459
  0
VERTEX
  8
0
 62
7
  6
CONTINUOUS
 10
127.5154247583
 20
107.5879055384
  0
VERTEX
  8
0
 62
7
  6
CONTINUOUS
 10
127.4879675266
 20
107.6185795835
  0
VERTEX
  8
0
 62
7
  6
CONTINUOUS
 10
127.4396947247
 20
107.6971467963
  0
VERTEX
  8
0
 62
7
  6
CONTINUOUS
 10
127.4061559546
 20
107.7966909837
  0
VERTEX
  8
0
 62
7
  6
CONTINUOUS
 10
127.3940224913
 20
107.909299308
  0
SEQEND
  0
POLYLINE
  8
0
 62
7
  6
CONTINUOUS
 66
1
 70
0
  0
VERTEX
  8
0
 62
7
  6
CONTINUOUS
 10
70.9940224913
 20
115.509299308
  0
VERTEX
  8
0
 62
7
  6
CONTINUOUS
 10
71.0543972324
 20
115.5011153433
  0
VERTEX
  8
0
 62
7
  6
CONTINUOUS
 10
71.1144037737
 20
115.47568307
  0
VERTEX
  8
0
 62
7
  6
CONTINUOUS
 10
71.1726202244
 20
115.4306930776
  0
VERTEX
  8
0
 62
7
  6
CONTINUOUS
 10
71.2000774561
 20
115.4000190324
  0
VERTEX
  8
0
 62
7
  6
CONTINUOUS
 10
71.248350258
 20
115.3214518196
  0
VERTEX
  8
0
 62
7
  6
CONTINUOUS
 10
71.2818890281
 20
115.2219076322
  0
VERTEX
  8
0
 62
7
  6
CONTINUOUS
 10
71.2940224913
 20
115.109299308
  0
SEQEND
  0
POLYLINE
  8
0
 62
7
  6
CONTINUOUS
 66
1
 70
0
  0
VERTEX
  8
0
 62
7
  6
CONTINUOUS
 10
137.7540224913
 20
100.7595544366
  0
VERTEX
  8
0
 62
7
  6
CONTINUOUS
 10
137.7623960308
 20
100.7447634074
  0
VERTEX
  8
0
 62
7
  6
CONTINUOUS
 10
137.7873050926
 20
100.7306049994
  0
VERTEX
  8
0
 62
7
  6
CONTINUOUS
 10
137.8280234404
 20
100.7175282258
  0
VERTEX
  8
0
 62
7
  6
CONTINUOUS
 10
137.8832839327
 20
100.7059426946
  0
VERTEX
  8
0
 62
7
  6
CONTINUOUS
 10
137.9158289095
 20
100.7008238491
  0
VERTEX
  8
0
 62
7
  6
CONTINUOUS
 10
137.9894078992
 20
100.69213222
  0
VERTEX
  8
0
 62
7
  6
CONTINUOUS
 10
138.0722123561
 20
100.6857195252
  0
VERTEX
  8
0
 62
7
  6
CONTINUOUS
 10
138.1614342546
 20
100.6817859466
  0
VERTEX
  8
0
 62
7
  6
CONTINUOUS
 10
138.2540224913
 20
100.6804588269
  0
SEQEND
  0
LINE
  8
0
 62
7
  6
CONTINUOUS
 10
140.5840224913
 20
115.324299308
 11
140.5840224913
 21
107.694299308
  0
LINE
  8
0
 62
7
  6
CONTINUOUS
 10
141.7640224913
 20
107.694299308
 11
141.7640224913
 21
115.324299308
  0
LINE
  8
1_AXIS
 62
2
  6
CENTER
 10
142.3540224913
 20
129.9358183391
 11
142.3540224913
 21
113.509399308
  0
LINE
  8
1_AXIS
 62
2
  6
CONTINUOUS
 10
142.3540224913
 20
112.559299308
 11
142.3540224913
 21
110.459299308
  0
LINE
  8
1_AXIS
 62
2
  6
CENTER
 10
142.3540224913
 20
92.0573408304
 11
142.3540224913
 21
109.509199308
  0
LINE
  8
0
 62
7
  6
CONTINUOUS
 10
142.9440224913
 20
115.324299308
 11
142.9440224913
 21
107.694299308
  0
POLYLINE
  8
0
 62
7
  6
CONTINUOUS
 66
1
 70
0
  0
VERTEX
  8
0
 62
7
  6
CONTINUOUS
 10
147.3040224913
 20
122.2590441794
  0
VERTEX
  8
0
 62
7
  6
CONTINUOUS
 10
147.3123960308
 20
122.2738352085
  0
VERTEX
  8
0
 62
7
  6
CONTINUOUS
 10
147.3373050926
 20
122.2879936165
  0
VERTEX
  8
0
 62
7
  6
CONTINUOUS
 10
147.3780234404
 20
122.3010703901
  0
VERTEX
  8
0
 62
7
  6
CONTINUOUS
 10
147.4332839327
 20
122.3126559213
  0
VERTEX
  8
0
 62
7
  6
CONTINUOUS
 10
147.4658289095
 20
122.3177747668
  0
VERTEX
  8
0
 62
7
  6
CONTINUOUS
 10
147.5394078992
 20
122.3264663959
  0
VERTEX
  8
0
 62
7
  6
CONTINUOUS
 10
147.6222123561
 20
122.3328790907
  0
VERTEX
  8
0
 62
7
  6
CONTINUOUS
 10
147.7114342546
 20
122.3368126694
  0
VERTEX
  8
0
 62
7
  6
CONTINUOUS
 10
147.8040224913
 20
122.338139789
  0
SEQEND
  0
LINE
  8
0
 62
7
  6
CONTINUOUS
 10
74.0340224913
 20
107.394299308
 11
74.6140224913
 21
107.394299308
  0
LINE
  8
0
 62
7
  6
CONTINUOUS
 10
76.3940224913
 20
107.394299308
 11
76.9740224913
 21
107.394299308
  0
LINE
  8
0
 62
7
  6
CONTINUOUS
 10
83.5840224913
 20
107.394299308
 11
84.1640224913
 21
107.394299308
  0
LINE
  8
0
 62
7
  6
CONTINUOUS
 10
85.9440224913
 20
107.394299308
 11
86.5240224913
 21
107.394299308
  0
LINE
  8
0
 62
7
  6
CONTINUOUS
 10
93.1340224913
 20
107.394299308
 11
93.7140224913
 21
107.394299308
  0
LINE
  8
0
 62
7
  6
CONTINUOUS
 10
95.4940224913
 20
107.394299308
 11
96.0740224913
 21
107.394299308
  0
LINE
  8
0
 62
7
  6
CONTINUOUS
 10
102.6840224913
 20
107.394299308
 11
103.2640224913
 21
107.394299308
  0
LINE
  8
0
 62
7
  6
CONTINUOUS
 10
105.0440224913
 20
107.394299308
 11
105.6240224913
 21
107.394299308
  0
LINE
  8
0
 62
7
  6
CONTINUOUS
 10
112.2340224913
 20
107.394299308
 11
112.8140224913
 21
107.394299308
  0
LINE
  8
0
 62
7
  6
CONTINUOUS
 10
114.5940224913
 20
107.394299308
 11
115.1740224913
 21
107.394299308
  0
LINE
  8
0
 62
7
  6
CONTINUOUS
 10
121.7840224913
 20
107.394299308
 11
122.3640224913
 21
107.394299308
  0
LINE
  8
0
 62
7
  6
CONTINUOUS
 10
124.1440224913
 20
107.394299308
 11
124.7240224913
 21
107.394299308
  0
LINE
  8
0
 62
7
  6
CONTINUOUS
 10
131.3340224913
 20
107.394299308
 11
131.9140224913
 21
107.394299308
  0
LINE
  8
0
 62
7
  6
CONTINUOUS
 10
133.6940224913
 20
107.394299308
 11
134.2740224913
 21
107.394299308
  0
LINE
  8
0
 62
7
  6
CONTINUOUS
 10
140.8840224913
 20
107.394299308
 11
141.4640224913
 21
107.394299308
  0
LINE
  8
0
 62
7
  6
CONTINUOUS
 10
143.2440224913
 20
107.394299308
 11
143.8240224913
 21
107.394299308
  0
LINE
  8
0
 62
7
  6
CONTINUOUS
 10
150.4340224913
 20
107.394299308
 11
151.0140224913
 21
107.394299308
  0
LINE
  8
0
 62
7
  6
CONTINUOUS
 10
152.7940224913
 20
107.394299308
 11
153.3740224913
 21
107.394299308
  0
LINE
  8
0
 62
7
  6
CONTINUOUS
 10
159.9840224913
 20
107.394299308
 11
160.5640224913
 21
107.394299308
  0
LINE
  8
0
 62
7
  6
CONTINUOUS
 10
162.3440224913
 20
107.394299308
 11
162.9240224913
 21
107.394299308
  0
LINE
  8
0
 62
7
  6
CONTINUOUS
 10
169.5340224913
 20
107.394299308
 11
170.1140224913
 21
107.394299308
  0
LINE
  8
0
 62
7
  6
CONTINUOUS
 10
171.8940224913
 20
107.394299308
 11
172.4740224913
 21
107.394299308
  0
LINE
  8
0
 62
7
  6
CONTINUOUS
 10
179.0840224913
 20
107.394299308
 11
179.6640224913
 21
107.394299308
  0
LINE
  8
0
 62
7
  6
CONTINUOUS
 10
181.4440224913
 20
107.394299308
 11
182.0240224913
 21
107.394299308
  0
LINE
  8
0
 62
7
  6
CONTINUOUS
 10
188.6340224913
 20
107.394299308
 11
189.2140224913
 21
107.394299308
  0
LINE
  8
0
 62
7
  6
CONTINUOUS
 10
190.9940224913
 20
107.394299308
 11
191.5740224913
 21
107.394299308
  0
LINE
  8
0
 62
7
  6
CONTINUOUS
 10
198.1840224913
 20
107.394299308
 11
198.7640224913
 21
107.394299308
  0
LINE
  8
0
 62
7
  6
CONTINUOUS
 10
200.5440224913
 20
107.394299308
 11
201.1240224913
 21
107.394299308
  0
LINE
  8
0
 62
7
  6
CONTINUOUS
 10
207.7340224913
 20
107.394299308
 11
208.3140224913
 21
107.394299308
  0
LINE
  8
0
 62
7
  6
CONTINUOUS
 10
210.0940224913
 20
107.394299308
 11
210.6740224913
 21
107.394299308
  0
LINE
  8
0
 62
7
  6
CONTINUOUS
 10
70.3940224913
 20
107.509299308
 11
70.9940224913
 21
107.509299308
  0
LINE
  8
0
 62
7
  6
CONTINUOUS
 10
89.4940224913
 20
107.509299308
 11
90.0940224913
 21
107.509299308
  0
LINE
  8
0
 62
7
  6
CONTINUOUS
 10
108.5940224913
 20
107.509299308
 11
109.1940224913
 21
107.509299308
  0
LINE
  8
0
 62
7
  6
CONTINUOUS
 10
127.6940224913
 20
107.509299308
 11
128.2940224913
 21
107.509299308
  0
LINE
  8
0
 62
7
  6
CONTINUOUS
 10
146.7940224913
 20
107.509299308
 11
147.3940224913
 21
107.509299308
  0
LINE
  8
0
 62
7
  6
CONTINUOUS
 10
165.8940224913
 20
107.509299308
 11
166.4940224913
 21
107.509299308
  0
LINE
  8
0
 62
7
  6
CONTINUOUS
 10
184.9940224913
 20
107.509299308
 11
185.5940224913
 21
107.509299308
  0
LINE
  8
0
 62
7
  6
CONTINUOUS
 10
204.1040224913
 20
107.509299308
 11
204.7040224913
 21
107.509299308
  0
LINE
  8
1_AXIS
 62
2
  6
CENTER
 10
224.1496910035
 20
111.509299308
 11
144.3541224913
 21
111.509299308
  0
LINE
  8
1_AXIS
 62
2
  6
CONTINUOUS
 10
143.4040224913
 20
111.509299308
 11
141.3040224913
 21
111.509299308
  0
LINE
  8
1_AXIS
 62
2
  6
CENTER
 10
64.0555733564
 20
111.509299308
 11
140.3539224913
 21
111.509299308
  0
POLYLINE
  8
0
 62
7
  6
CONTINUOUS
 66
1
 70
0
  0
VERTEX
  8
0
 62
7
  6
CONTINUOUS
 10
146.7940224913
 20
107.509299308
  0
VERTEX
  8
0
 62
7
  6
CONTINUOUS
 10
146.7336477503
 20
107.5174832726
  0
VERTEX
  8
0
 62
7
  6
CONTINUOUS
 10
146.673641209
 20
107.5429155459
  0
VERTEX
  8
0
 62
7
  6
CONTINUOUS
 10
146.6154247583
 20
107.5879055384
  0
VERTEX
  8
0
 62
7
  6
CONTINUOUS
 10
146.5879675266
 20
107.6185795835
  0
VERTEX
  8
0
 62
7
  6
CONTINUOUS
 10
146.5396947247
 20
107.6971467963
  0
VERTEX
  8
0
 62
7
  6
CONTINUOUS
 10
146.5061559546
 20
107.7966909837
  0
VERTEX
  8
0
 62
7
  6
CONTINUOUS
 10
146.4940224913
 20
107.909299308
  0
SEQEND
  0
POLYLINE
  8
0
 62
7
  6
CONTINUOUS
 66
1
 70
0
  0
VERTEX
  8
0
 62
7
  6
CONTINUOUS
 10
90.0940224913
 20
115.509299308
  0
VERTEX
  8
0
 62
7
  6
CONTINUOUS
 10
90.1543972324
 20
115.5011153433
  0
VERTEX
  8
0
 62
7
  6
CONTINUOUS
 10
90.2144037737
 20
115.47568307
  0
VERTEX
  8
0
 62
7
  6
CONTINUOUS
 10
90.2726202244
 20
115.4306930776
  0
VERTEX
  8
0
 62
7
  6
CONTINUOUS
 10
90.3000774561
 20
115.4000190324
  0
VERTEX
  8
0
 62
7
  6
CONTINUOUS
 10
90.348350258
 20
115.3214518196
  0
VERTEX
  8
0
 62
7
  6
CONTINUOUS
 10
90.3818890281
 20
115.2219076322
  0
VERTEX
  8
0
 62
7
  6
CONTINUOUS
 10
90.3940224913
 20
115.109299308
  0
SEQEND
  0
POLYLINE
  8
0
 62
7
  6
CONTINUOUS
 66
1
 70
0
  0
VERTEX
  8
0
 62
7
  6
CONTINUOUS
 10
165.8940224913
 20
107.509299308
  0
VERTEX
  8
0
 62
7
  6
CONTINUOUS
 10
165.8336477503
 20
107.5174832726
  0
VERTEX
  8
0
 62
7
  6
CONTINUOUS
 10
165.773641209
 20
107.5429155459
  0
VERTEX
  8
0
 62
7
  6
CONTINUOUS
 10
165.7154247583
 20
107.5879055384
  0
VERTEX
  8
0
 62
7
  6
CONTINUOUS
 10
165.6879675266
 20
107.6185795835
  0
VERTEX
  8
0
 62
7
  6
CONTINUOUS
 10
165.6396947247
 20
107.6971467963
  0
VERTEX
  8
0
 62
7
  6
CONTINUOUS
 10
165.6061559546
 20
107.7966909837
  0
VERTEX
  8
0
 62
7
  6
CONTINUOUS
 10
165.5940224913
 20
107.909299308
  0
SEQEND
  0
POLYLINE
  8
0
 62
7
  6
CONTINUOUS
 66
1
 70
0
  0
VERTEX
  8
0
 62
7
  6
CONTINUOUS
 10
109.1940224913
 20
115.509299308
  0
VERTEX
  8
0
 62
7
  6
CONTINUOUS
 10
109.2543972324
 20
115.5011153433
  0
VERTEX
  8
0
 62
7
  6
CONTINUOUS
 10
109.3144037737
 20
115.47568307
  0
VERTEX
  8
0
 62
7
  6
CONTINUOUS
 10
109.3726202244
 20
115.4306930776
  0
VERTEX
  8
0
 62
7
  6
CONTINUOUS
 10
109.4000774561
 20
115.4000190324
  0
VERTEX
  8
0
 62
7
  6
CONTINUOUS
 10
109.448350258
 20
115.3214518196
  0
VERTEX
  8
0
 62
7
  6
CONTINUOUS
 10
109.4818890281
 20
115.2219076322
  0
VERTEX
  8
0
 62
7
  6
CONTINUOUS
 10
109.4940224913
 20
115.109299308
  0
SEQEND
  0
LINE
  8
0
 62
7
  6
CONTINUOUS
 10
144.1240224913
 20
107.694299308
 11
144.1240224913
 21
115.324299308
  0
LINE
  8
0
 62
7
  6
CONTINUOUS
 10
146.4940224913
 20
107.909299308
 11
146.4940224913
 21
115.109299308
  0
LINE
  8
0
 62
7
  6
CONTINUOUS
 10
146.9540224913
 20
105.0959296415
 11
146.9540224913
 21
98.244299308
  0
LINE
  8
0
 62
7
  6
CONTINUOUS
 10
147.3040224913
 20
117.9226689514
 11
147.3040224913
 21
124.774299308
  0
LINE
  8
0
 62
7
  6
CONTINUOUS
 10
147.6940224913
 20
115.109299308
 11
147.6940224913
 21
107.909299308
  0
POLYLINE
  8
0
 62
7
  6
CONTINUOUS
 66
1
 70
0
  0
VERTEX
  8
0
 62
7
  6
CONTINUOUS
 10
146.4940224913
 20
115.109299308
  0
VERTEX
  8
0
 62
7
  6
CONTINUOUS
 10
146.5061559546
 20
115.2219076322
  0
VERTEX
  8
0
 62
7
  6
CONTINUOUS
 10
146.5396947247
 20
115.3214518196
  0
VERTEX
  8
0
 62
7
  6
CONTINUOUS
 10
146.5879675266
 20
115.4000190324
  0
VERTEX
  8
0
 62
7
  6
CONTINUOUS
 10
146.6154247583
 20
115.4306930776
  0
VERTEX
  8
0
 62
7
  6
CONTINUOUS
 10
146.673641209
 20
115.47568307
  0
VERTEX
  8
0
 62
7
  6
CONTINUOUS
 10
146.7336477503
 20
115.5011153433
  0
VERTEX
  8
0
 62
7
  6
CONTINUOUS
 10
146.7940224913
 20
115.509299308
  0
SEQEND
  0
POLYLINE
  8
0
 62
7
  6
CONTINUOUS
 66
1
 70
0
  0
VERTEX
  8
0
 62
7
  6
CONTINUOUS
 10
147.6940224913
 20
107.909299308
  0
VERTEX
  8
0
 62
7
  6
CONTINUOUS
 10
147.6818890281
 20
107.7966909837
  0
VERTEX
  8
0
 62
7
  6
CONTINUOUS
 10
147.648350258
 20
107.6971467963
  0
VERTEX
  8
0
 62
7
  6
CONTINUOUS
 10
147.6000774561
 20
107.6185795835
  0
VERTEX
  8
0
 62
7
  6
CONTINUOUS
 10
147.5726202244
 20
107.5879055384
  0
VERTEX
  8
0
 62
7
  6
CONTINUOUS
 10
147.5144037737
 20
107.5429155459
  0
VERTEX
  8
0
 62
7
  6
CONTINUOUS
 10
147.4543972324
 20
107.5174832726
  0
VERTEX
  8
0
 62
7
  6
CONTINUOUS
 10
147.3940224913
 20
107.509299308
  0
SEQEND
  0
LINE
  8
0
 62
7
  6
CONTINUOUS
 10
70.3940224913
 20
115.509299308
 11
70.9940224913
 21
115.509299308
  0
LINE
  8
0
 62
7
  6
CONTINUOUS
 10
89.4940224913
 20
115.509299308
 11
90.0940224913
 21
115.509299308
  0
LINE
  8
0
 62
7
  6
CONTINUOUS
 10
108.5940224913
 20
115.509299308
 11
109.1940224913
 21
115.509299308
  0
LINE
  8
0
 62
7
  6
CONTINUOUS
 10
127.6940224913
 20
115.509299308
 11
128.2940224913
 21
115.509299308
  0
LINE
  8
0
 62
7
  6
CONTINUOUS
 10
146.7940224913
 20
115.509299308
 11
147.3940224913
 21
115.509299308
  0
LINE
  8
0
 62
7
  6
CONTINUOUS
 10
165.8940224913
 20
115.509299308
 11
166.4940224913
 21
115.509299308
  0
LINE
  8
0
 62
7
  6
CONTINUOUS
 10
184.9940224913
 20
115.509299308
 11
185.5940224913
 21
115.509299308
  0
LINE
  8
0
 62
7
  6
CONTINUOUS
 10
204.1040224913
 20
115.509299308
 11
204.7040224913
 21
115.509299308
  0
LINE
  8
0
 62
7
  6
CONTINUOUS
 10
210.6740224913
 20
115.624299308
 11
210.0940224913
 21
115.624299308
  0
LINE
  8
0
 62
7
  6
CONTINUOUS
 10
208.3140224913
 20
115.624299308
 11
207.7340224913
 21
115.624299308
  0
LINE
  8
0
 62
7
  6
CONTINUOUS
 10
201.1240224913
 20
115.624299308
 11
200.5440224913
 21
115.624299308
  0
LINE
  8
0
 62
7
  6
CONTINUOUS
 10
198.7640224913
 20
115.624299308
 11
198.1840224913
 21
115.624299308
  0
LINE
  8
0
 62
7
  6
CONTINUOUS
 10
191.5740224913
 20
115.624299308
 11
190.9940224913
 21
115.624299308
  0
LINE
  8
0
 62
7
  6
CONTINUOUS
 10
189.2140224913
 20
115.624299308
 11
188.6340224913
 21
115.624299308
  0
LINE
  8
0
 62
7
  6
CONTINUOUS
 10
182.0240224913
 20
115.624299308
 11
181.4440224913
 21
115.624299308
  0
LINE
  8
0
 62
7
  6
CONTINUOUS
 10
179.6640224913
 20
115.624299308
 11
179.0840224913
 21
115.624299308
  0
LINE
  8
0
 62
7
  6
CONTINUOUS
 10
172.4740224913
 20
115.624299308
 11
171.8940224913
 21
115.624299308
  0
LINE
  8
0
 62
7
  6
CONTINUOUS
 10
170.1140224913
 20
115.624299308
 11
169.5340224913
 21
115.624299308
  0
LINE
  8
0
 62
7
  6
CONTINUOUS
 10
162.9240224913
 20
115.624299308
 11
162.3440224913
 21
115.624299308
  0
LINE
  8
0
 62
7
  6
CONTINUOUS
 10
160.5640224913
 20
115.624299308
 11
159.9840224913
 21
115.624299308
  0
LINE
  8
0
 62
7
  6
CONTINUOUS
 10
153.3740224913
 20
115.624299308
 11
152.7940224913
 21
115.624299308
  0
LINE
  8
0
 62
7
  6
CONTINUOUS
 10
151.0140224913
 20
115.624299308
 11
150.4340224913
 21
115.624299308
  0
LINE
  8
0
 62
7
  6
CONTINUOUS
 10
143.8240224913
 20
115.624299308
 11
143.2440224913
 21
115.624299308
  0
LINE
  8
0
 62
7
  6
CONTINUOUS
 10
141.4640224913
 20
115.624299308
 11
140.8840224913
 21
115.624299308
  0
LINE
  8
0
 62
7
  6
CONTINUOUS
 10
134.2740224913
 20
115.624299308
 11
133.6940224913
 21
115.624299308
  0
LINE
  8
0
 62
7
  6
CONTINUOUS
 10
131.9140224913
 20
115.624299308
 11
131.3340224913
 21
115.624299308
  0
LINE
  8
0
 62
7
  6
CONTINUOUS
 10
124.7240224913
 20
115.624299308
 11
124.1440224913
 21
115.624299308
  0
LINE
  8
0
 62
7
  6
CONTINUOUS
 10
122.3640224913
 20
115.624299308
 11
121.7840224913
 21
115.624299308
  0
LINE
  8
0
 62
7
  6
CONTINUOUS
 10
115.1740224913
 20
115.624299308
 11
114.5940224913
 21
115.624299308
  0
LINE
  8
0
 62
7
  6
CONTINUOUS
 10
112.8140224913
 20
115.624299308
 11
112.2340224913
 21
115.624299308
  0
LINE
  8
0
 62
7
  6
CONTINUOUS
 10
105.6240224913
 20
115.624299308
 11
105.0440224913
 21
115.624299308
  0
LINE
  8
0
 62
7
  6
CONTINUOUS
 10
103.2640224913
 20
115.624299308
 11
102.6840224913
 21
115.624299308
  0
LINE
  8
0
 62
7
  6
CONTINUOUS
 10
96.0740224913
 20
115.624299308
 11
95.4940224913
 21
115.624299308
  0
LINE
  8
0
 62
7
  6
CONTINUOUS
 10
93.7140224913
 20
115.624299308
 11
93.1340224913
 21
115.624299308
  0
LINE
  8
0
 62
7
  6
CONTINUOUS
 10
86.5240224913
 20
115.624299308
 11
85.9440224913
 21
115.624299308
  0
LINE
  8
0
 62
7
  6
CONTINUOUS
 10
84.1640224913
 20
115.624299308
 11
83.5840224913
 21
115.624299308
  0
LINE
  8
0
 62
7
  6
CONTINUOUS
 10
76.9740224913
 20
115.624299308
 11
76.3940224913
 21
115.624299308
  0
LINE
  8
0
 62
7
  6
CONTINUOUS
 10
74.6140224913
 20
115.624299308
 11
74.0340224913
 21
115.624299308
  0
POLYLINE
  8
0
 62
7
  6
CONTINUOUS
 66
1
 70
0
  0
VERTEX
  8
0
 62
7
  6
CONTINUOUS
 10
184.9940224913
 20
107.509299308
  0
VERTEX
  8
0
 62
7
  6
CONTINUOUS
 10
184.9336477503
 20
107.5174832726
  0
VERTEX
  8
0
 62
7
  6
CONTINUOUS
 10
184.873641209
 20
107.5429155459
  0
VERTEX
  8
0
 62
7
  6
CONTINUOUS
 10
184.8154247583
 20
107.5879055384
  0
VERTEX
  8
0
 62
7
  6
CONTINUOUS
 10
184.7879675266
 20
107.6185795835
  0
VERTEX
  8
0
 62
7
  6
CONTINUOUS
 10
184.7396947247
 20
107.6971467963
  0
VERTEX
  8
0
 62
7
  6
CONTINUOUS
 10
184.7061559546
 20
107.7966909837
  0
VERTEX
  8
0
 62
7
  6
CONTINUOUS
 10
184.6940224913
 20
107.909299308
  0
SEQEND
  0
POLYLINE
  8
0
 62
7
  6
CONTINUOUS
 66
1
 70
0
  0
VERTEX
  8
0
 62
7
  6
CONTINUOUS
 10
128.2940224913
 20
115.509299308
  0
VERTEX
  8
0
 62
7
  6
CONTINUOUS
 10
128.3543972324
 20
115.5011153433
  0
VERTEX
  8
0
 62
7
  6
CONTINUOUS
 10
128.4144037737
 20
115.47568307
  0
VERTEX
  8
0
 62
7
  6
CONTINUOUS
 10
128.4726202244
 20
115.4306930776
  0
VERTEX
  8
0
 62
7
  6
CONTINUOUS
 10
128.5000774561
 20
115.4000190324
  0
VERTEX
  8
0
 62
7
  6
CONTINUOUS
 10
128.548350258
 20
115.3214518196
  0
VERTEX
  8
0
 62
7
  6
CONTINUOUS
 10
128.5818890281
 20
115.2219076322
  0
VERTEX
  8
0
 62
7
  6
CONTINUOUS
 10
128.5940224913
 20
115.109299308
  0
SEQEND
  0
POLYLINE
  8
0
 62
7
  6
CONTINUOUS
 66
1
 70
0
  0
VERTEX
  8
0
 62
7
  6
CONTINUOUS
 10
204.1040224913
 20
107.509299308
  0
VERTEX
  8
0
 62
7
  6
CONTINUOUS
 10
204.0436477503
 20
107.5174832726
  0
VERTEX
  8
0
 62
7
  6
CONTINUOUS
 10
203.983641209
 20
107.5429155459
  0
VERTEX
  8
0
 62
7
  6
CONTINUOUS
 10
203.9254247583
 20
107.5879055384
  0
VERTEX
  8
0
 62
7
  6
CONTINUOUS
 10
203.8979675266
 20
107.6185795835
  0
VERTEX
  8
0
 62
7
  6
CONTINUOUS
 10
203.8496947247
 20
107.6971467963
  0
VERTEX
  8
0
 62
7
  6
CONTINUOUS
 10
203.8161559546
 20
107.7966909837
  0
VERTEX
  8
0
 62
7
  6
CONTINUOUS
 10
203.8040224913
 20
107.909299308
  0
SEQEND
  0
POLYLINE
  8
0
 62
7
  6
CONTINUOUS
 66
1
 70
0
  0
VERTEX
  8
0
 62
7
  6
CONTINUOUS
 10
147.3940224913
 20
115.509299308
  0
VERTEX
  8
0
 62
7
  6
CONTINUOUS
 10
147.4543972324
 20
115.5011153433
  0
VERTEX
  8
0
 62
7
  6
CONTINUOUS
 10
147.5144037737
 20
115.47568307
  0
VERTEX
  8
0
 62
7
  6
CONTINUOUS
 10
147.5726202244
 20
115.4306930776
  0
VERTEX
  8
0
 62
7
  6
CONTINUOUS
 10
147.6000774561
 20
115.4000190324
  0
VERTEX
  8
0
 62
7
  6
CONTINUOUS
 10
147.648350258
 20
115.3214518196
  0
VERTEX
  8
0
 62
7
  6
CONTINUOUS
 10
147.6818890281
 20
115.2219076322
  0
VERTEX
  8
0
 62
7
  6
CONTINUOUS
 10
147.6940224913
 20
115.109299308
  0
SEQEND
  0
POLYLINE
  8
0
 62
7
  6
CONTINUOUS
 66
1
 70
0
  0
VERTEX
  8
0
 62
7
  6
CONTINUOUS
 10
137.4040224913
 20
122.2590441794
  0
VERTEX
  8
0
 62
7
  6
CONTINUOUS
 10
137.3956489519
 20
122.2738352085
  0
VERTEX
  8
0
 62
7
  6
CONTINUOUS
 10
137.3707398901
 20
122.2879936165
  0
VERTEX
  8
0
 62
7
  6
CONTINUOUS
 10
137.3300215423
 20
122.3010703901
  0
VERTEX
  8
0
 62
7
  6
CONTINUOUS
 10
137.27476105
 20
122.3126559213
  0
VERTEX
  8
0
 62
7
  6
CONTINUOUS
 10
137.2422160732
 20
122.3177747668
  0
VERTEX
  8
0
 62
7
  6
CONTINUOUS
 10
137.1686370835
 20
122.3264663959
  0
VERTEX
  8
0
 62
7
  6
CONTINUOUS
 10
137.0858326266
 20
122.3328790907
  0
VERTEX
  8
0
 62
7
  6
CONTINUOUS
 10
136.9966107281
 20
122.3368126694
  0
VERTEX
  8
0
 62
7
  6
CONTINUOUS
 10
136.9040224913
 20
122.338139789
  0
SEQEND
  0
LINE
  8
0
 62
7
  6
CONTINUOUS
 10
150.1340224913
 20
115.324299308
 11
150.1340224913
 21
107.694299308
  0
LINE
  8
0
 62
7
  6
CONTINUOUS
 10
151.3140224913
 20
107.694299308
 11
151.3140224913
 21
115.324299308
  0
LINE
  8
0
 62
7
  6
CONTINUOUS
 10
152.4940224913
 20
115.324299308
 11
152.4940224913
 21
107.694299308
  0
POLYLINE
  8
0
 62
7
  6
CONTINUOUS
 66
1
 70
0
  0
VERTEX
  8
0
 62
7
  6
CONTINUOUS
 10
146.9540224913
 20
100.7595544366
  0
VERTEX
  8
0
 62
7
  6
CONTINUOUS
 10
146.9456489519
 20
100.7447634074
  0
VERTEX
  8
0
 62
7
  6
CONTINUOUS
 10
146.9207398901
 20
100.7306049994
  0
VERTEX
  8
0
 62
7
  6
CONTINUOUS
 10
146.8800215423
 20
100.7175282258
  0
VERTEX
  8
0
 62
7
  6
CONTINUOUS
 10
146.82476105
 20
100.7059426946
  0
VERTEX
  8
0
 62
7
  6
CONTINUOUS
 10
146.7922160732
 20
100.7008238491
  0
VERTEX
  8
0
 62
7
  6
CONTINUOUS
 10
146.7186370835
 20
100.69213222
  0
VERTEX
  8
0
 62
7
  6
CONTINUOUS
 10
146.6358326266
 20
100.6857195252
  0
VERTEX
  8
0
 62
7
  6
CONTINUOUS
 10
146.5466107281
 20
100.6817859466
  0
VERTEX
  8
0
 62
7
  6
CONTINUOUS
 10
146.4540224913
 20
100.6804588269
  0
SEQEND
  0
POLYLINE
  8
0
 62
7
  6
CONTINUOUS
 66
1
 70
0
  0
VERTEX
  8
0
 62
7
  6
CONTINUOUS
 10
66.8540224913
 20
117.4226689744
  0
VERTEX
  8
0
 62
7
  6
CONTINUOUS
 10
66.80122718
 20
117.4198738166
  0
VERTEX
  8
0
 62
7
  6
CONTINUOUS
 10
66.6984926565
 20
117.3978641663
  0
VERTEX
  8
0
 62
7
  6
CONTINUOUS
 10
66.6031016174
 20
117.3551487023
  0
VERTEX
  8
0
 62
7
  6
CONTINUOUS
 10
66.5189562391
 20
117.2937897183
  0
VERTEX
  8
0
 62
7
  6
CONTINUOUS
 10
66.4824850295
 20
117.2572730904
  0
VERTEX
  8
0
 62
7
  6
CONTINUOUS
 10
66.4213263873
 20
117.1732165378
  0
VERTEX
  8
0
 62
7
  6
CONTINUOUS
 10
66.3787578298
 20
117.0779863962
  0
VERTEX
  8
0
 62
7
  6
CONTINUOUS
 10
66.3568109125
 20
116.9754008036
  0
VERTEX
  8
0
 62
7
  6
CONTINUOUS
 10
66.3540224913
 20
116.9226689744
  0
SEQEND
  0
LINE
  8
0
 62
7
  6
CONTINUOUS
 10
66.8540224913
 20
117.4226689744
 11
70.8540224913
 21
117.4226689744
  0
LINE
  8
0
 62
7
  6
CONTINUOUS
 10
80.6040224913
 20
117.4226689744
 11
89.5040224913
 21
117.4226689744
  0
LINE
  8
0
 62
7
  6
CONTINUOUS
 10
99.7040224913
 20
117.4226689744
 11
108.6040224913
 21
117.4226689744
  0
LINE
  8
0
 62
7
  6
CONTINUOUS
 10
118.8040224913
 20
117.4226689744
 11
127.7040224913
 21
117.4226689744
  0
LINE
  8
0
 62
7
  6
CONTINUOUS
 10
137.9040224913
 20
117.4226689744
 11
146.8040224913
 21
117.4226689744
  0
LINE
  8
0
 62
7
  6
CONTINUOUS
 10
157.0040224913
 20
117.4226689744
 11
165.9040224913
 21
117.4226689744
  0
LINE
  8
0
 62
7
  6
CONTINUOUS
 10
176.1040224913
 20
117.4226689744
 11
185.0040224913
 21
117.4226689744
  0
LINE
  8
0
 62
7
  6
CONTINUOUS
 10
195.2040224913
 20
117.4226689744
 11
204.1040224913
 21
117.4226689744
  0
LINE
  8
0
 62
7
  6
CONTINUOUS
 10
213.8540224913
 20
117.4226689744
 11
217.8540224913
 21
117.4226689744
  0
LINE
  8
1_AXIS
 62
2
  6
CENTER
 10
61.5442930796
 20
121.034299308
 11
224.7775110727
 21
121.034299308
  0
LINE
  8
0
 62
7
  6
CONTINUOUS
 10
71.8540224913
 20
122.338139789
 11
79.6040224913
 21
122.338139789
  0
LINE
  8
0
 62
7
  6
CONTINUOUS
 10
90.5040224913
 20
122.338139789
 11
98.7040224913
 21
122.338139789
  0
LINE
  8
0
 62
7
  6
CONTINUOUS
 10
109.6040224913
 20
122.338139789
 11
117.8040224913
 21
122.338139789
  0
LINE
  8
0
 62
7
  6
CONTINUOUS
 10
128.7040224913
 20
122.338139789
 11
136.9040224913
 21
122.338139789
  0
LINE
  8
0
 62
7
  6
CONTINUOUS
 10
147.8040224913
 20
122.338139789
 11
156.0040224913
 21
122.338139789
  0
LINE
  8
0
 62
7
  6
CONTINUOUS
 10
166.9040224913
 20
122.338139789
 11
175.1040224913
 21
122.338139789
  0
LINE
  8
0
 62
7
  6
CONTINUOUS
 10
186.0040224913
 20
122.338139789
 11
194.2040224913
 21
122.338139789
  0
LINE
  8
0
 62
7
  6
CONTINUOUS
 10
205.1040224913
 20
122.338139789
 11
212.8540224913
 21
122.338139789
  0
POLYLINE
  8
0
 62
7
  6
CONTINUOUS
 66
1
 70
0
  0
VERTEX
  8
0
 62
7
  6
CONTINUOUS
 10
217.8540224913
 20
117.4226689744
  0
VERTEX
  8
0
 62
7
  6
CONTINUOUS
 10
217.9068178027
 20
117.4198738166
  0
VERTEX
  8
0
 62
7
  6
CONTINUOUS
 10
218.0095523262
 20
117.3978641663
  0
VERTEX
  8
0
 62
7
  6
CONTINUOUS
 10
218.1049433653
 20
117.3551487023
  0
VERTEX
  8
0
 62
7
  6
CONTINUOUS
 10
218.1890887436
 20
117.2937897183
  0
VERTEX
  8
0
 62
7
  6
CONTINUOUS
 10
218.2255599532
 20
117.2572730904
  0
VERTEX
  8
0
 62
7
  6
CONTINUOUS
 10
218.2867185954
 20
117.1732165378
  0
VERTEX
  8
0
 62
7
  6
CONTINUOUS
 10
218.3292871529
 20
117.0779863962
  0
VERTEX
  8
0
 62
7
  6
CONTINUOUS
 10
218.3512340702
 20
116.9754008036
  0
VERTEX
  8
0
 62
7
  6
CONTINUOUS
 10
218.3540224913
 20
116.9226689744
  0
SEQEND
  0
POLYLINE
  8
0
 62
7
  6
CONTINUOUS
 66
1
 70
0
  0
VERTEX
  8
0
 62
7
  6
CONTINUOUS
 10
166.4940224913
 20
115.509299308
  0
VERTEX
  8
0
 62
7
  6
CONTINUOUS
 10
166.5543972324
 20
115.5011153433
  0
VERTEX
  8
0
 62
7
  6
CONTINUOUS
 10
166.6144037737
 20
115.47568307
  0
VERTEX
  8
0
 62
7
  6
CONTINUOUS
 10
166.6726202244
 20
115.4306930776
  0
VERTEX
  8
0
 62
7
  6
CONTINUOUS
 10
166.7000774561
 20
115.4000190324
  0
VERTEX
  8
0
 62
7
  6
CONTINUOUS
 10
166.748350258
 20
115.3214518196
  0
VERTEX
  8
0
 62
7
  6
CONTINUOUS
 10
166.7818890281
 20
115.2219076322
  0
VERTEX
  8
0
 62
7
  6
CONTINUOUS
 10
166.7940224913
 20
115.109299308
  0
SEQEND
  0
POLYLINE
  8
0
 62
7
  6
CONTINUOUS
 66
1
 70
0
  0
VERTEX
  8
0
 62
7
  6
CONTINUOUS
 10
185.5940224913
 20
115.509299308
  0
VERTEX
  8
0
 62
7
  6
CONTINUOUS
 10
185.6543972324
 20
115.5011153433
  0
VERTEX
  8
0
 62
7
  6
CONTINUOUS
 10
185.7144037737
 20
115.47568307
  0
VERTEX
  8
0
 62
7
  6
CONTINUOUS
 10
185.7726202244
 20
115.4306930776
  0
VERTEX
  8
0
 62
7
  6
CONTINUOUS
 10
185.8000774561
 20
115.4000190324
  0
VERTEX
  8
0
 62
7
  6
CONTINUOUS
 10
185.848350258
 20
115.3214518196
  0
VERTEX
  8
0
 62
7
  6
CONTINUOUS
 10
185.8818890281
 20
115.2219076322
  0
VERTEX
  8
0
 62
7
  6
CONTINUOUS
 10
185.8940224913
 20
115.109299308
  0
SEQEND
  0
POLYLINE
  8
0
 62
7
  6
CONTINUOUS
 66
1
 70
0
  0
VERTEX
  8
0
 62
7
  6
CONTINUOUS
 10
156.8540224913
 20
100.7595544366
  0
VERTEX
  8
0
 62
7
  6
CONTINUOUS
 10
156.8623960308
 20
100.7447634074
  0
VERTEX
  8
0
 62
7
  6
CONTINUOUS
 10
156.8873050926
 20
100.7306049994
  0
VERTEX
  8
0
 62
7
  6
CONTINUOUS
 10
156.9280234404
 20
100.7175282258
  0
VERTEX
  8
0
 62
7
  6
CONTINUOUS
 10
156.9832839327
 20
100.7059426946
  0
VERTEX
  8
0
 62
7
  6
CONTINUOUS
 10
157.0158289095
 20
100.7008238491
  0
VERTEX
  8
0
 62
7
  6
CONTINUOUS
 10
157.0894078992
 20
100.69213222
  0
VERTEX
  8
0
 62
7
  6
CONTINUOUS
 10
157.1722123561
 20
100.6857195252
  0
VERTEX
  8
0
 62
7
  6
CONTINUOUS
 10
157.2614342546
 20
100.6817859466
  0
VERTEX
  8
0
 62
7
  6
CONTINUOUS
 10
157.3540224913
 20
100.6804588269
  0
SEQEND
  0
LINE
  8
0
 62
7
  6
CONTINUOUS
 10
153.6740224913
 20
107.694299308
 11
153.6740224913
 21
115.324299308
  0
LINE
  8
0
 62
7
  6
CONTINUOUS
 10
156.5040224913
 20
117.9226689744
 11
156.5040224913
 21
124.774299308
  0
LINE
  8
0
 62
7
  6
CONTINUOUS
 10
156.8540224913
 20
105.0959296415
 11
156.8540224913
 21
98.244299308
  0
POLYLINE
  8
0
 62
7
  6
CONTINUOUS
 66
1
 70
0
  0
VERTEX
  8
0
 62
7
  6
CONTINUOUS
 10
166.4040224913
 20
122.2590441794
  0
VERTEX
  8
0
 62
7
  6
CONTINUOUS
 10
166.4123960308
 20
122.2738352085
  0
VERTEX
  8
0
 62
7
  6
CONTINUOUS
 10
166.4373050926
 20
122.2879936165
  0
VERTEX
  8
0
 62
7
  6
CONTINUOUS
 10
166.4780234404
 20
122.3010703901
  0
VERTEX
  8
0
 62
7
  6
CONTINUOUS
 10
166.5332839327
 20
122.3126559213
  0
VERTEX
  8
0
 62
7
  6
CONTINUOUS
 10
166.5658289095
 20
122.3177747668
  0
VERTEX
  8
0
 62
7
  6
CONTINUOUS
 10
166.6394078992
 20
122.3264663959
  0
VERTEX
  8
0
 62
7
  6
CONTINUOUS
 10
166.7222123561
 20
122.3328790907
  0
VERTEX
  8
0
 62
7
  6
CONTINUOUS
 10
166.8114342546
 20
122.3368126694
  0
VERTEX
  8
0
 62
7
  6
CONTINUOUS
 10
166.9040224913
 20
122.338139789
  0
SEQEND
  0
LINE
  8
0
 62
7
  6
CONTINUOUS
 10
71.8540224913
 20
125.274299308
 11
79.6040224913
 21
125.274299308
  0
LINE
  8
0
 62
7
  6
CONTINUOUS
 10
90.5040224913
 20
125.274299308
 11
98.7040224913
 21
125.274299308
  0
LINE
  8
0
 62
7
  6
CONTINUOUS
 10
109.6040224913
 20
125.274299308
 11
117.8040224913
 21
125.274299308
  0
LINE
  8
0
 62
7
  6
CONTINUOUS
 10
128.7040224913
 20
125.274299308
 11
136.9040224913
 21
125.274299308
  0
LINE
  8
0
 62
7
  6
CONTINUOUS
 10
147.8040224913
 20
125.274299308
 11
156.0040224913
 21
125.274299308
  0
LINE
  8
0
 62
7
  6
CONTINUOUS
 10
166.9040224913
 20
125.274299308
 11
175.1040224913
 21
125.274299308
  0
LINE
  8
0
 62
7
  6
CONTINUOUS
 10
186.0040224913
 20
125.274299308
 11
194.2040224913
 21
125.274299308
  0
LINE
  8
0
 62
7
  6
CONTINUOUS
 10
205.1040224913
 20
125.274299308
 11
212.8540224913
 21
125.274299308
  0
POLYLINE
  8
0
 62
7
  6
CONTINUOUS
 66
1
 70
0
  0
VERTEX
  8
0
 62
7
  6
CONTINUOUS
 10
204.7040224913
 20
115.509299308
  0
VERTEX
  8
0
 62
7
  6
CONTINUOUS
 10
204.7643972324
 20
115.5011153433
  0
VERTEX
  8
0
 62
7
  6
CONTINUOUS
 10
204.8244037737
 20
115.47568307
  0
VERTEX
  8
0
 62
7
  6
CONTINUOUS
 10
204.8826202244
 20
115.4306930776
  0
VERTEX
  8
0
 62
7
  6
CONTINUOUS
 10
204.9100774561
 20
115.4000190324
  0
VERTEX
  8
0
 62
7
  6
CONTINUOUS
 10
204.958350258
 20
115.3214518196
  0
VERTEX
  8
0
 62
7
  6
CONTINUOUS
 10
204.9918890281
 20
115.2219076322
  0
VERTEX
  8
0
 62
7
  6
CONTINUOUS
 10
205.0040224913
 20
115.109299308
  0
SEQEND
  0
LINE
  8
0
 62
7
  6
CONTINUOUS
 10
159.6840224913
 20
115.324299308
 11
159.6840224913
 21
107.694299308
  0
LINE
  8
0
 62
7
  6
CONTINUOUS
 10
160.8640224913
 20
107.694299308
 11
160.8640224913
 21
115.324299308
  0
LINE
  8
0
 62
7
  6
CONTINUOUS
 10
162.0440224913
 20
115.324299308
 11
162.0440224913
 21
107.694299308
  0
LINE
  8
0
 62
7
  6
CONTINUOUS
 10
163.2240224913
 20
107.694299308
 11
163.2240224913
 21
115.324299308
  0
POLYLINE
  8
0
 62
7
  6
CONTINUOUS
 66
1
 70
0
  0
VERTEX
  8
0
 62
7
  6
CONTINUOUS
 10
156.5040224913
 20
122.2590441794
  0
VERTEX
  8
0
 62
7
  6
CONTINUOUS
 10
156.4956489519
 20
122.2738352085
  0
VERTEX
  8
0
 62
7
  6
CONTINUOUS
 10
156.4707398901
 20
122.2879936165
  0
VERTEX
  8
0
 62
7
  6
CONTINUOUS
 10
156.4300215423
 20
122.3010703901
  0
VERTEX
  8
0
 62
7
  6
CONTINUOUS
 10
156.37476105
 20
122.3126559213
  0
VERTEX
  8
0
 62
7
  6
CONTINUOUS
 10
156.3422160732
 20
122.3177747668
  0
VERTEX
  8
0
 62
7
  6
CONTINUOUS
 10
156.2686370835
 20
122.3264663959
  0
VERTEX
  8
0
 62
7
  6
CONTINUOUS
 10
156.1858326266
 20
122.3328790907
  0
VERTEX
  8
0
 62
7
  6
CONTINUOUS
 10
156.0966107281
 20
122.3368126694
  0
VERTEX
  8
0
 62
7
  6
CONTINUOUS
 10
156.0040224913
 20
122.338139789
  0
SEQEND
  0
LINE
  8
0
 62
7
  6
CONTINUOUS
 10
165.5940224913
 20
107.909299308
 11
165.5940224913
 21
115.109299308
  0
LINE
  8
0
 62
7
  6
CONTINUOUS
 10
166.0540224913
 20
105.0959296415
 11
166.0540224913
 21
98.244299308
  0
LINE
  8
0
 62
7
  6
CONTINUOUS
 10
166.4040224913
 20
117.9226689514
 11
166.4040224913
 21
124.774299308
  0
LINE
  8
0
 62
7
  6
CONTINUOUS
 10
166.7940224913
 20
115.109299308
 11
166.7940224913
 21
107.909299308
  0
POLYLINE
  8
0
 62
7
  6
CONTINUOUS
 66
1
 70
0
  0
VERTEX
  8
0
 62
7
  6
CONTINUOUS
 10
165.5940224913
 20
115.109299308
  0
VERTEX
  8
0
 62
7
  6
CONTINUOUS
 10
165.6061559546
 20
115.2219076322
  0
VERTEX
  8
0
 62
7
  6
CONTINUOUS
 10
165.6396947247
 20
115.3214518196
  0
VERTEX
  8
0
 62
7
  6
CONTINUOUS
 10
165.6879675266
 20
115.4000190324
  0
VERTEX
  8
0
 62
7
  6
CONTINUOUS
 10
165.7154247583
 20
115.4306930776
  0
VERTEX
  8
0
 62
7
  6
CONTINUOUS
 10
165.773641209
 20
115.47568307
  0
VERTEX
  8
0
 62
7
  6
CONTINUOUS
 10
165.8336477503
 20
115.5011153433
  0
VERTEX
  8
0
 62
7
  6
CONTINUOUS
 10
165.8940224913
 20
115.509299308
  0
SEQEND
  0
POLYLINE
  8
0
 62
7
  6
CONTINUOUS
 66
1
 70
0
  0
VERTEX
  8
0
 62
7
  6
CONTINUOUS
 10
166.7940224913
 20
107.909299308
  0
VERTEX
  8
0
 62
7
  6
CONTINUOUS
 10
166.7818890281
 20
107.7966909837
  0
VERTEX
  8
0
 62
7
  6
CONTINUOUS
 10
166.748350258
 20
107.6971467963
  0
VERTEX
  8
0
 62
7
  6
CONTINUOUS
 10
166.7000774561
 20
107.6185795835
  0
VERTEX
  8
0
 62
7
  6
CONTINUOUS
 10
166.6726202244
 20
107.5879055384
  0
VERTEX
  8
0
 62
7
  6
CONTINUOUS
 10
166.6144037737
 20
107.5429155459
  0
VERTEX
  8
0
 62
7
  6
CONTINUOUS
 10
166.5543972324
 20
107.5174832726
  0
VERTEX
  8
0
 62
7
  6
CONTINUOUS
 10
166.4940224913
 20
107.509299308
  0
SEQEND
  0
POLYLINE
  8
0
 62
7
  6
CONTINUOUS
 66
1
 70
0
  0
VERTEX
  8
0
 62
7
  6
CONTINUOUS
 10
166.0540224913
 20
100.7595544366
  0
VERTEX
  8
0
 62
7
  6
CONTINUOUS
 10
166.0456489519
 20
100.7447634074
  0
VERTEX
  8
0
 62
7
  6
CONTINUOUS
 10
166.0207398901
 20
100.7306049994
  0
VERTEX
  8
0
 62
7
  6
CONTINUOUS
 10
165.9800215423
 20
100.7175282258
  0
VERTEX
  8
0
 62
7
  6
CONTINUOUS
 10
165.92476105
 20
100.7059426946
  0
VERTEX
  8
0
 62
7
  6
CONTINUOUS
 10
165.8922160732
 20
100.7008238491
  0
VERTEX
  8
0
 62
7
  6
CONTINUOUS
 10
165.8186370835
 20
100.69213222
  0
VERTEX
  8
0
 62
7
  6
CONTINUOUS
 10
165.7358326266
 20
100.6857195252
  0
VERTEX
  8
0
 62
7
  6
CONTINUOUS
 10
165.6466107281
 20
100.6817859466
  0
VERTEX
  8
0
 62
7
  6
CONTINUOUS
 10
165.5540224913
 20
100.6804588269
  0
SEQEND
  0
POLYLINE
  8
0
 62
7
  6
CONTINUOUS
 66
1
 70
0
  0
VERTEX
  8
0
 62
7
  6
CONTINUOUS
 10
175.9540224913
 20
100.7595544366
  0
VERTEX
  8
0
 62
7
  6
CONTINUOUS
 10
175.9623960308
 20
100.7447634074
  0
VERTEX
  8
0
 62
7
  6
CONTINUOUS
 10
175.9873050926
 20
100.7306049994
  0
VERTEX
  8
0
 62
7
  6
CONTINUOUS
 10
176.0280234404
 20
100.7175282258
  0
VERTEX
  8
0
 62
7
  6
CONTINUOUS
 10
176.0832839327
 20
100.7059426946
  0
VERTEX
  8
0
 62
7
  6
CONTINUOUS
 10
176.1158289095
 20
100.7008238491
  0
VERTEX
  8
0
 62
7
  6
CONTINUOUS
 10
176.1894078992
 20
100.69213222
  0
VERTEX
  8
0
 62
7
  6
CONTINUOUS
 10
176.2722123561
 20
100.6857195252
  0
VERTEX
  8
0
 62
7
  6
CONTINUOUS
 10
176.3614342546
 20
100.6817859466
  0
VERTEX
  8
0
 62
7
  6
CONTINUOUS
 10
176.4540224913
 20
100.6804588269
  0
SEQEND
  0
LINE
  8
0
 62
7
  6
CONTINUOUS
 10
169.2340224913
 20
115.324299308
 11
169.2340224913
 21
107.694299308
  0
LINE
  8
0
 62
7
  6
CONTINUOUS
 10
170.4140224913
 20
107.694299308
 11
170.4140224913
 21
115.324299308
  0
LINE
  8
0
 62
7
  6
CONTINUOUS
 10
171.5940224913
 20
115.324299308
 11
171.5940224913
 21
107.694299308
  0
LINE
  8
0
 62
7
  6
CONTINUOUS
 10
172.7740224913
 20
107.694299308
 11
172.7740224913
 21
115.324299308
  0
LINE
  8
0
 62
7
  6
CONTINUOUS
 10
175.6040224913
 20
117.9226689744
 11
175.6040224913
 21
124.774299308
  0
LINE
  8
0
 62
7
  6
CONTINUOUS
 10
175.9540224913
 20
105.0959296415
 11
175.9540224913
 21
98.244299308
  0
LINE
  8
0
 62
7
  6
CONTINUOUS
 10
178.7840224913
 20
115.324299308
 11
178.7840224913
 21
107.694299308
  0
POLYLINE
  8
0
 62
7
  6
CONTINUOUS
 66
1
 70
0
  0
VERTEX
  8
0
 62
7
  6
CONTINUOUS
 10
185.5040224913
 20
122.2590441794
  0
VERTEX
  8
0
 62
7
  6
CONTINUOUS
 10
185.5123960308
 20
122.2738352085
  0
VERTEX
  8
0
 62
7
  6
CONTINUOUS
 10
185.5373050926
 20
122.2879936165
  0
VERTEX
  8
0
 62
7
  6
CONTINUOUS
 10
185.5780234404
 20
122.3010703901
  0
VERTEX
  8
0
 62
7
  6
CONTINUOUS
 10
185.6332839327
 20
122.3126559213
  0
VERTEX
  8
0
 62
7
  6
CONTINUOUS
 10
185.6658289095
 20
122.3177747668
  0
VERTEX
  8
0
 62
7
  6
CONTINUOUS
 10
185.7394078992
 20
122.3264663959
  0
VERTEX
  8
0
 62
7
  6
CONTINUOUS
 10
185.8222123561
 20
122.3328790907
  0
VERTEX
  8
0
 62
7
  6
CONTINUOUS
 10
185.9114342546
 20
122.3368126694
  0
VERTEX
  8
0
 62
7
  6
CONTINUOUS
 10
186.0040224913
 20
122.338139789
  0
SEQEND
  0
POLYLINE
  8
0
 62
7
  6
CONTINUOUS
 66
1
 70
0
  0
VERTEX
  8
0
 62
7
  6
CONTINUOUS
 10
175.6040224913
 20
122.2590441794
  0
VERTEX
  8
0
 62
7
  6
CONTINUOUS
 10
175.5956489519
 20
122.2738352085
  0
VERTEX
  8
0
 62
7
  6
CONTINUOUS
 10
175.5707398901
 20
122.2879936165
  0
VERTEX
  8
0
 62
7
  6
CONTINUOUS
 10
175.5300215423
 20
122.3010703901
  0
VERTEX
  8
0
 62
7
  6
CONTINUOUS
 10
175.47476105
 20
122.3126559213
  0
VERTEX
  8
0
 62
7
  6
CONTINUOUS
 10
175.4422160732
 20
122.3177747668
  0
VERTEX
  8
0
 62
7
  6
CONTINUOUS
 10
175.3686370835
 20
122.3264663959
  0
VERTEX
  8
0
 62
7
  6
CONTINUOUS
 10
175.2858326266
 20
122.3328790907
  0
VERTEX
  8
0
 62
7
  6
CONTINUOUS
 10
175.1966107281
 20
122.3368126694
  0
VERTEX
  8
0
 62
7
  6
CONTINUOUS
 10
175.1040224913
 20
122.338139789
  0
SEQEND
  0
LINE
  8
0
 62
7
  6
CONTINUOUS
 10
179.9640224913
 20
107.694299308
 11
179.9640224913
 21
115.324299308
  0
LINE
  8
0
 62
7
  6
CONTINUOUS
 10
181.1440224913
 20
115.324299308
 11
181.1440224913
 21
107.694299308
  0
LINE
  8
0
 62
7
  6
CONTINUOUS
 10
182.3240224913
 20
107.694299308
 11
182.3240224913
 21
115.324299308
  0
POLYLINE
  8
0
 62
7
  6
CONTINUOUS
 66
1
 70
0
  0
VERTEX
  8
0
 62
7
  6
CONTINUOUS
 10
184.6940224913
 20
115.109299308
  0
VERTEX
  8
0
 62
7
  6
CONTINUOUS
 10
184.7061559546
 20
115.2219076322
  0
VERTEX
  8
0
 62
7
  6
CONTINUOUS
 10
184.7396947247
 20
115.3214518196
  0
VERTEX
  8
0
 62
7
  6
CONTINUOUS
 10
184.7879675266
 20
115.4000190324
  0
VERTEX
  8
0
 62
7
  6
CONTINUOUS
 10
184.8154247583
 20
115.4306930776
  0
VERTEX
  8
0
 62
7
  6
CONTINUOUS
 10
184.873641209
 20
115.47568307
  0
VERTEX
  8
0
 62
7
  6
CONTINUOUS
 10
184.9336477503
 20
115.5011153433
  0
VERTEX
  8
0
 62
7
  6
CONTINUOUS
 10
184.9940224913
 20
115.509299308
  0
SEQEND
  0
POLYLINE
  8
0
 62
7
  6
CONTINUOUS
 66
1
 70
0
  0
VERTEX
  8
0
 62
7
  6
CONTINUOUS
 10
195.0540224913
 20
100.7595544366
  0
VERTEX
  8
0
 62
7
  6
CONTINUOUS
 10
195.0623960308
 20
100.7447634074
  0
VERTEX
  8
0
 62
7
  6
CONTINUOUS
 10
195.0873050926
 20
100.7306049994
  0
VERTEX
  8
0
 62
7
  6
CONTINUOUS
 10
195.1280234404
 20
100.7175282258
  0
VERTEX
  8
0
 62
7
  6
CONTINUOUS
 10
195.1832839327
 20
100.7059426946
  0
VERTEX
  8
0
 62
7
  6
CONTINUOUS
 10
195.2158289095
 20
100.7008238491
  0
VERTEX
  8
0
 62
7
  6
CONTINUOUS
 10
195.2894078992
 20
100.69213222
  0
VERTEX
  8
0
 62
7
  6
CONTINUOUS
 10
195.3722123561
 20
100.6857195252
  0
VERTEX
  8
0
 62
7
  6
CONTINUOUS
 10
195.4614342546
 20
100.6817859466
  0
VERTEX
  8
0
 62
7
  6
CONTINUOUS
 10
195.5540224913
 20
100.6804588269
  0
SEQEND
  0
LINE
  8
0
 62
7
  6
CONTINUOUS
 10
184.6940224913
 20
107.909299308
 11
184.6940224913
 21
115.109299308
  0
LINE
  8
0
 62
7
  6
CONTINUOUS
 10
185.1540224913
 20
105.0959296415
 11
185.1540224913
 21
98.244299308
  0
LINE
  8
0
 62
7
  6
CONTINUOUS
 10
185.5040224913
 20
117.9226689514
 11
185.5040224913
 21
124.774299308
  0
LINE
  8
0
 62
7
  6
CONTINUOUS
 10
185.8940224913
 20
115.109299308
 11
185.8940224913
 21
107.909299308
  0
LINE
  8
0
 62
7
  6
CONTINUOUS
 10
188.3340224913
 20
115.324299308
 11
188.3340224913
 21
107.694299308
  0
POLYLINE
  8
0
 62
7
  6
CONTINUOUS
 66
1
 70
0
  0
VERTEX
  8
0
 62
7
  6
CONTINUOUS
 10
185.8940224913
 20
107.909299308
  0
VERTEX
  8
0
 62
7
  6
CONTINUOUS
 10
185.8818890281
 20
107.7966909837
  0
VERTEX
  8
0
 62
7
  6
CONTINUOUS
 10
185.848350258
 20
107.6971467963
  0
VERTEX
  8
0
 62
7
  6
CONTINUOUS
 10
185.8000774561
 20
107.6185795835
  0
VERTEX
  8
0
 62
7
  6
CONTINUOUS
 10
185.7726202244
 20
107.5879055384
  0
VERTEX
  8
0
 62
7
  6
CONTINUOUS
 10
185.7144037737
 20
107.5429155459
  0
VERTEX
  8
0
 62
7
  6
CONTINUOUS
 10
185.6543972324
 20
107.5174832726
  0
VERTEX
  8
0
 62
7
  6
CONTINUOUS
 10
185.5940224913
 20
107.509299308
  0
SEQEND
  0
POLYLINE
  8
0
 62
7
  6
CONTINUOUS
 66
1
 70
0
  0
VERTEX
  8
0
 62
7
  6
CONTINUOUS
 10
185.1540224913
 20
100.7595544366
  0
VERTEX
  8
0
 62
7
  6
CONTINUOUS
 10
185.1456489519
 20
100.7447634074
  0
VERTEX
  8
0
 62
7
  6
CONTINUOUS
 10
185.1207398901
 20
100.7306049994
  0
VERTEX
  8
0
 62
7
  6
CONTINUOUS
 10
185.0800215423
 20
100.7175282258
  0
VERTEX
  8
0
 62
7
  6
CONTINUOUS
 10
185.02476105
 20
100.7059426946
  0
VERTEX
  8
0
 62
7
  6
CONTINUOUS
 10
184.9922160732
 20
100.7008238491
  0
VERTEX
  8
0
 62
7
  6
CONTINUOUS
 10
184.9186370835
 20
100.69213222
  0
VERTEX
  8
0
 62
7
  6
CONTINUOUS
 10
184.8358326266
 20
100.6857195252
  0
VERTEX
  8
0
 62
7
  6
CONTINUOUS
 10
184.7466107281
 20
100.6817859466
  0
VERTEX
  8
0
 62
7
  6
CONTINUOUS
 10
184.6540224913
 20
100.6804588269
  0
SEQEND
  0
LINE
  8
0
 62
7
  6
CONTINUOUS
 10
189.5140224913
 20
107.694299308
 11
189.5140224913
 21
115.324299308
  0
LINE
  8
0
 62
7
  6
CONTINUOUS
 10
190.6940224913
 20
115.324299308
 11
190.6940224913
 21
107.694299308
  0
LINE
  8
0
 62
7
  6
CONTINUOUS
 10
191.8740224913
 20
107.694299308
 11
191.8740224913
 21
115.324299308
  0
POLYLINE
  8
0
 62
7
  6
CONTINUOUS
 66
1
 70
0
  0
VERTEX
  8
0
 62
7
  6
CONTINUOUS
 10
204.6040224913
 20
122.2590441794
  0
VERTEX
  8
0
 62
7
  6
CONTINUOUS
 10
204.6123960308
 20
122.2738352085
  0
VERTEX
  8
0
 62
7
  6
CONTINUOUS
 10
204.6373050926
 20
122.2879936165
  0
VERTEX
  8
0
 62
7
  6
CONTINUOUS
 10
204.6780234404
 20
122.3010703901
  0
VERTEX
  8
0
 62
7
  6
CONTINUOUS
 10
204.7332839327
 20
122.3126559213
  0
VERTEX
  8
0
 62
7
  6
CONTINUOUS
 10
204.7658289095
 20
122.3177747668
  0
VERTEX
  8
0
 62
7
  6
CONTINUOUS
 10
204.8394078992
 20
122.3264663959
  0
VERTEX
  8
0
 62
7
  6
CONTINUOUS
 10
204.9222123561
 20
122.3328790907
  0
VERTEX
  8
0
 62
7
  6
CONTINUOUS
 10
205.0114342546
 20
122.3368126694
  0
VERTEX
  8
0
 62
7
  6
CONTINUOUS
 10
205.1040224913
 20
122.338139789
  0
SEQEND
  0
POLYLINE
  8
0
 62
7
  6
CONTINUOUS
 66
1
 70
0
  0
VERTEX
  8
0
 62
7
  6
CONTINUOUS
 10
194.7040224913
 20
122.2590441794
  0
VERTEX
  8
0
 62
7
  6
CONTINUOUS
 10
194.6956489519
 20
122.2738352085
  0
VERTEX
  8
0
 62
7
  6
CONTINUOUS
 10
194.6707398901
 20
122.2879936165
  0
VERTEX
  8
0
 62
7
  6
CONTINUOUS
 10
194.6300215423
 20
122.3010703901
  0
VERTEX
  8
0
 62
7
  6
CONTINUOUS
 10
194.57476105
 20
122.3126559213
  0
VERTEX
  8
0
 62
7
  6
CONTINUOUS
 10
194.5422160732
 20
122.3177747668
  0
VERTEX
  8
0
 62
7
  6
CONTINUOUS
 10
194.4686370835
 20
122.3264663959
  0
VERTEX
  8
0
 62
7
  6
CONTINUOUS
 10
194.3858326266
 20
122.3328790907
  0
VERTEX
  8
0
 62
7
  6
CONTINUOUS
 10
194.2966107281
 20
122.3368126694
  0
VERTEX
  8
0
 62
7
  6
CONTINUOUS
 10
194.2040224913
 20
122.338139789
  0
SEQEND
  0
LINE
  8
0
 62
7
  6
CONTINUOUS
 10
194.7040224913
 20
117.9226689744
 11
194.7040224913
 21
124.774299308
  0
LINE
  8
0
 62
7
  6
CONTINUOUS
 10
195.0540224913
 20
98.244299308
 11
195.0540224913
 21
105.0959296415
  0
LINE
  8
0
 62
7
  6
CONTINUOUS
 10
197.8840224913
 20
115.324299308
 11
197.8840224913
 21
107.694299308
  0
LINE
  8
0
 62
7
  6
CONTINUOUS
 10
199.0640224913
 20
107.694299308
 11
199.0640224913
 21
115.324299308
  0
POLYLINE
  8
0
 62
7
  6
CONTINUOUS
 66
1
 70
0
  0
VERTEX
  8
0
 62
7
  6
CONTINUOUS
 10
214.4040224913
 20
100.7595544366
  0
VERTEX
  8
0
 62
7
  6
CONTINUOUS
 10
214.4123960308
 20
100.7447634074
  0
VERTEX
  8
0
 62
7
  6
CONTINUOUS
 10
214.4373050926
 20
100.7306049994
  0
VERTEX
  8
0
 62
7
  6
CONTINUOUS
 10
214.4780234404
 20
100.7175282258
  0
VERTEX
  8
0
 62
7
  6
CONTINUOUS
 10
214.5332839327
 20
100.7059426946
  0
VERTEX
  8
0
 62
7
  6
CONTINUOUS
 10
214.5658289095
 20
100.7008238491
  0
VERTEX
  8
0
 62
7
  6
CONTINUOUS
 10
214.6394078992
 20
100.69213222
  0
VERTEX
  8
0
 62
7
  6
CONTINUOUS
 10
214.7222123561
 20
100.6857195252
  0
VERTEX
  8
0
 62
7
  6
CONTINUOUS
 10
214.8114342546
 20
100.6817859466
  0
VERTEX
  8
0
 62
7
  6
CONTINUOUS
 10
214.9040224913
 20
100.6804588269
  0
SEQEND
  0
LINE
  8
0
 62
7
  6
CONTINUOUS
 10
200.2440224913
 20
115.324299308
 11
200.2440224913
 21
107.694299308
  0
LINE
  8
0
 62
7
  6
CONTINUOUS
 10
201.4240224913
 20
107.694299308
 11
201.4240224913
 21
115.324299308
  0
LINE
  8
0
 62
7
  6
CONTINUOUS
 10
203.8040224913
 20
107.909299308
 11
203.8040224913
 21
115.109299308
  0
LINE
  8
0
 62
7
  6
CONTINUOUS
 10
204.2540224913
 20
98.244299308
 11
204.2540224913
 21
105.0959296415
  0
LINE
  8
0
 62
7
  6
CONTINUOUS
 10
204.6040224913
 20
117.9226689514
 11
204.6040224913
 21
124.774299308
  0
POLYLINE
  8
0
 62
7
  6
CONTINUOUS
 66
1
 70
0
  0
VERTEX
  8
0
 62
7
  6
CONTINUOUS
 10
203.8040224913
 20
115.109299308
  0
VERTEX
  8
0
 62
7
  6
CONTINUOUS
 10
203.8161559546
 20
115.2219076322
  0
VERTEX
  8
0
 62
7
  6
CONTINUOUS
 10
203.8496947247
 20
115.3214518196
  0
VERTEX
  8
0
 62
7
  6
CONTINUOUS
 10
203.8979675266
 20
115.4000190324
  0
VERTEX
  8
0
 62
7
  6
CONTINUOUS
 10
203.9254247583
 20
115.4306930776
  0
VERTEX
  8
0
 62
7
  6
CONTINUOUS
 10
203.983641209
 20
115.47568307
  0
VERTEX
  8
0
 62
7
  6
CONTINUOUS
 10
204.0436477503
 20
115.5011153433
  0
VERTEX
  8
0
 62
7
  6
CONTINUOUS
 10
204.1040224913
 20
115.509299308
  0
SEQEND
  0
POLYLINE
  8
0
 62
7
  6
CONTINUOUS
 66
1
 70
0
  0
VERTEX
  8
0
 62
7
  6
CONTINUOUS
 10
204.2540224913
 20
100.7595544366
  0
VERTEX
  8
0
 62
7
  6
CONTINUOUS
 10
204.2456489519
 20
100.7447634074
  0
VERTEX
  8
0
 62
7
  6
CONTINUOUS
 10
204.2207398901
 20
100.7306049994
  0
VERTEX
  8
0
 62
7
  6
CONTINUOUS
 10
204.1800215423
 20
100.7175282258
  0
VERTEX
  8
0
 62
7
  6
CONTINUOUS
 10
204.12476105
 20
100.7059426946
  0
VERTEX
  8
0
 62
7
  6
CONTINUOUS
 10
204.0922160732
 20
100.7008238491
  0
VERTEX
  8
0
 62
7
  6
CONTINUOUS
 10
204.0186370835
 20
100.69213222
  0
VERTEX
  8
0
 62
7
  6
CONTINUOUS
 10
203.9358326266
 20
100.6857195252
  0
VERTEX
  8
0
 62
7
  6
CONTINUOUS
 10
203.8466107281
 20
100.6817859466
  0
VERTEX
  8
0
 62
7
  6
CONTINUOUS
 10
203.7540224913
 20
100.6804588269
  0
SEQEND
  0
LINE
  8
0
 62
7
  6
CONTINUOUS
 10
205.0040224913
 20
115.109299308
 11
205.0040224913
 21
107.909299308
  0
LINE
  8
0
 62
7
  6
CONTINUOUS
 10
207.4340224913
 20
115.324299308
 11
207.4340224913
 21
107.694299308
  0
LINE
  8
0
 62
7
  6
CONTINUOUS
 10
208.6140224913
 20
107.694299308
 11
208.6140224913
 21
115.324299308
  0
LINE
  8
0
 62
7
  6
CONTINUOUS
 10
209.7940224913
 20
115.324299308
 11
209.7940224913
 21
107.694299308
  0
POLYLINE
  8
0
 62
7
  6
CONTINUOUS
 66
1
 70
0
  0
VERTEX
  8
0
 62
7
  6
CONTINUOUS
 10
205.0040224913
 20
107.909299308
  0
VERTEX
  8
0
 62
7
  6
CONTINUOUS
 10
204.9918890281
 20
107.7966909837
  0
VERTEX
  8
0
 62
7
  6
CONTINUOUS
 10
204.958350258
 20
107.6971467963
  0
VERTEX
  8
0
 62
7
  6
CONTINUOUS
 10
204.9100774561
 20
107.6185795835
  0
VERTEX
  8
0
 62
7
  6
CONTINUOUS
 10
204.8826202244
 20
107.5879055384
  0
VERTEX
  8
0
 62
7
  6
CONTINUOUS
 10
204.8244037737
 20
107.5429155459
  0
VERTEX
  8
0
 62
7
  6
CONTINUOUS
 10
204.7643972324
 20
107.5174832726
  0
VERTEX
  8
0
 62
7
  6
CONTINUOUS
 10
204.7040224913
 20
107.509299308
  0
SEQEND
  0
LINE
  8
0
 62
7
  6
CONTINUOUS
 10
218.4378901239
 20
115.726778998
 11
218.4701548588
 21
115.6783413225
  0
POLYLINE
  8
0
 62
7
  6
CONTINUOUS
 66
1
 70
0
  0
VERTEX
  8
0
 62
7
  6
CONTINUOUS
 10
213.3540224913
 20
122.2590441794
  0
VERTEX
  8
0
 62
7
  6
CONTINUOUS
 10
213.3456489519
 20
122.2738352085
  0
VERTEX
  8
0
 62
7
  6
CONTINUOUS
 10
213.3207398901
 20
122.2879936165
  0
VERTEX
  8
0
 62
7
  6
CONTINUOUS
 10
213.2800215423
 20
122.3010703901
  0
VERTEX
  8
0
 62
7
  6
CONTINUOUS
 10
213.22476105
 20
122.3126559213
  0
VERTEX
  8
0
 62
7
  6
CONTINUOUS
 10
213.1922160732
 20
122.3177747668
  0
VERTEX
  8
0
 62
7
  6
CONTINUOUS
 10
213.1186370835
 20
122.3264663959
  0
VERTEX
  8
0
 62
7
  6
CONTINUOUS
 10
213.0358326266
 20
122.3328790907
  0
VERTEX
  8
0
 62
7
  6
CONTINUOUS
 10
212.9466107281
 20
122.3368126694
  0
VERTEX
  8
0
 62
7
  6
CONTINUOUS
 10
212.8540224913
 20
122.338139789
  0
SEQEND
  0
LINE
  8
0
 62
7
  6
CONTINUOUS
 10
210.9740224913
 20
107.694299308
 11
210.9740224913
 21
115.324299308
  0
LINE
  8
0
 62
7
  6
CONTINUOUS
 10
213.3540224913
 20
117.9226689744
 11
213.3540224913
 21
124.774299308
  0
LINE
  8
0
 62
7
  6
CONTINUOUS
 10
214.4040224913
 20
105.0959296415
 11
214.4040224913
 21
98.244299308
  0
LINE
  8
0
 62
7
  6
CONTINUOUS
 10
218.3540224913
 20
116.9226689744
 11
218.3540224913
 21
116.0039681983
  0
LINE
  8
0
 62
7
  6
CONTINUOUS
 10
218.3540224913
 20
105.7345791297
 11
218.3540224913
 21
98.244299308
  0
LINE
  8
0
 62
7
  6
CONTINUOUS
 10
218.5540224913
 20
115.4011521222
 11
218.5540224913
 21
106.3345791297
  0
LINE
  8
0
 62
7
  6
CONTINUOUS
 10
279.361288454
 20
97.744299308
 11
281.3054077919
 21
97.744299308
  0
LINE
  8
0
 62
7
  6
CONTINUOUS
 10
284.4833481229
 20
100.6804588269
 11
284.3188372004
 21
100.7059426946
  0
LINE
  8
0
 62
7
  6
CONTINUOUS
 10
284.3188372004
 20
100.7059426946
 11
284.162721671
 21
100.7306049994
  0
LINE
  8
0
 62
7
  6
CONTINUOUS
 10
284.162721671
 20
100.7306049994
 11
283.9833481229
 21
100.7595544366
  0
LINE
  8
1_AXIS
 62
2
  6
CONTINUOUS
 10
281.3833481229
 20
101.984299308
 11
279.2833481229
 21
101.984299308
  0
LINE
  8
1_AXIS
 62
2
  6
CENTER
 10
275.0833481229
 20
101.984299308
 11
274.0933481229
 21
101.984299308
  0
LINE
  8
1_AXIS
 62
2
  6
CENTER
 10
285.5833481229
 20
101.984299308
 11
286.5733481229
 21
101.984299308
  0
LINE
  8
0
 62
7
  6
CONTINUOUS
 10
275.9833481229
 20
121.034299308
 11
275.9833481229
 21
101.984299308
  0
LINE
  8
0
 62
7
  6
CONTINUOUS
 10
277.6833481229
 20
115.8526859108
 11
277.6833481229
 21
105.6721170909
  0
LINE
  8
0
 62
7
  6
CONTINUOUS
 10
282.3505089438
 20
116.4614373789
 11
282.1746968
 21
116.3878556088
  0
LINE
  8
0
 62
7
  6
CONTINUOUS
 10
281.2727427931
 20
124.9904917917
 11
281.3054077919
 21
125.274299308
  0
LINE
  8
0
 62
7
  6
CONTINUOUS
 10
281.2470767478
 20
124.774299308
 11
281.2727427931
 21
124.9904917917
  0
LINE
  8
0
 62
7
  6
CONTINUOUS
 10
281.2837760904
 20
97.9333296653
 11
281.2470767478
 21
98.244299308
  0
LINE
  8
0
 62
7
  6
CONTINUOUS
 10
281.3054077919
 20
97.744299308
 11
281.2837760904
 21
97.9333296653
  0
LINE
  8
1_AXIS
 62
2
  6
CONTINUOUS
 10
280.3333481229
 20
122.084299308
 11
280.3333481229
 21
119.984299308
  0
LINE
  8
1_AXIS
 62
2
  6
CENTER
 10
280.3333481229
 20
115.784299308
 11
280.3333481229
 21
114.794299308
  0
LINE
  8
1_AXIS
 62
2
  6
CONTINUOUS
 10
280.3333481229
 20
103.034299308
 11
280.3333481229
 21
100.934299308
  0
LINE
  8
1_AXIS
 62
2
  6
CENTER
 10
280.3333481229
 20
96.734299308
 11
280.3333481229
 21
95.744299308
  0
LINE
  8
1_AXIS
 62
2
  6
CENTER
 10
280.3333481229
 20
107.234299308
 11
280.3333481229
 21
108.224299308
  0
LINE
  8
1_AXIS
 62
2
  6
CENTER
 10
280.3333481229
 20
126.284299308
 11
280.3333481229
 21
127.274299308
  0
LINE
  8
0
 62
7
  6
CONTINUOUS
 10
279.361288454
 20
97.744299308
 11
279.3829201554
 21
97.9333296653
  0
POLYLINE
  8
0
 62
7
  6
CONTINUOUS
 66
1
 70
0
  0
VERTEX
  8
0
 62
7
  6
CONTINUOUS
 10
279.3829201554
 20
97.9333296653
  0
VERTEX
  8
0
 62
7
  6
CONTINUOUS
 10
279.4063794288
 20
98.133522218
  0
VERTEX
  8
0
 62
7
  6
CONTINUOUS
 10
279.419619498
 20
98.244299308
  0
SEQEND
  0
LINE
  8
1_AXIS
 62
2
  6
CENTER
 10
273.4833477591
 20
111.509299308
 11
289.4833481229
 21
111.509299308
  0
LINE
  8
0
 62
7
  6
CONTINUOUS
 10
279.419619498
 20
124.774299308
 11
279.3939534527
 21
124.9904917917
  0
POLYLINE
  8
0
 62
7
  6
CONTINUOUS
 66
1
 70
0
  0
VERTEX
  8
0
 62
7
  6
CONTINUOUS
 10
279.3939534527
 20
124.9904917917
  0
VERTEX
  8
0
 62
7
  6
CONTINUOUS
 10
279.3627198984
 20
125.2616590817
  0
VERTEX
  8
0
 62
7
  6
CONTINUOUS
 10
279.361288454
 20
125.274299308
  0
SEQEND
  0
LINE
  8
0
 62
7
  6
CONTINUOUS
 10
284.4833481229
 20
100.6804588269
 11
284.4833481229
 21
122.338139789
  0
LINE
  8
0
 62
7
  6
CONTINUOUS
 10
284.4833481229
 20
107.509299308
 11
286.4676616062
 21
109.259299308
  0
LINE
  8
0
 62
7
  6
CONTINUOUS
 10
281.9904882489
 20
116.3526859108
 11
278.1721924242
 21
116.3526859108
  0
LINE
  8
0
 62
7
  6
CONTINUOUS
 10
286.4676616062
 20
113.759299308
 11
284.4833481229
 21
115.509299308
  0
LINE
  8
1_AXIS
 62
2
  6
CONTINUOUS
 10
281.3833481229
 20
121.034299308
 11
279.2833481229
 21
121.034299308
  0
LINE
  8
1_AXIS
 62
2
  6
CENTER
 10
275.0833481229
 20
121.034299308
 11
274.0933481229
 21
121.034299308
  0
LINE
  8
1_AXIS
 62
2
  6
CENTER
 10
285.5833481229
 20
121.034299308
 11
286.5733481229
 21
121.034299308
  0
LINE
  8
0
 62
7
  6
CONTINUOUS
 10
283.9833481229
 20
122.2590441794
 11
284.162721671
 21
122.2879936165
  0
LINE
  8
0
 62
7
  6
CONTINUOUS
 10
284.162721671
 20
122.2879936165
 11
284.3516212569
 21
122.3177747668
  0
LINE
  8
0
 62
7
  6
CONTINUOUS
 10
284.3516212569
 20
122.3177747668
 11
284.4833481229
 21
122.338139789
  0
LINE
  8
0
 62
7
  6
CONTINUOUS
 10
279.361288454
 20
125.274299308
 11
281.3054077919
 21
125.274299308
  0
ARC
  8
0
 62
7
  6
CONTINUOUS
 10
66.8540224913
 20
201.9037633478
 40
0.5
 50
180.0
 51
270.0
  0
ARC
  8
0
 62
7
  6
CONTINUOUS
 10
72.4540224913
 20
201.9037633478
 40
0.5
 50
270.0
 51
360.0
  0
ARC
  8
0
 62
7
  6
CONTINUOUS
 10
69.8040224913
 20
201.9037633478
 40
0.5
 50
270.0
 51
360.0
  0
ARC
  8
0
 62
7
  6
CONTINUOUS
 10
80.9540224913
 20
201.9037633478
 40
0.5
 50
180.0
 51
270.0
  0
ARC
  8
0
 62
7
  6
CONTINUOUS
 10
79.0040224913
 20
201.9037633478
 40
0.5
 50
180.0
 51
270.0
  0
ARC
  8
0
 62
7
  6
CONTINUOUS
 10
66.6540224913
 20
203.6037633478
 40
0.5
 50
180.0
 51
233.0214072817
  0
ARC
  8
0
 62
7
  6
CONTINUOUS
 10
91.1040224913
 20
201.9037633478
 40
0.5
 50
270.0
 51
360.0
  0
ARC
  8
0
 62
7
  6
CONTINUOUS
 10
89.1540224913
 20
201.9037633478
 40
0.5
 50
270.0
 51
360.0
  0
ARC
  8
0
 62
7
  6
CONTINUOUS
 10
100.0540224913
 20
201.9037633478
 40
0.5
 50
180.0
 51
270.0
  0
ARC
  8
0
 62
7
  6
CONTINUOUS
 10
98.1040224913
 20
201.9037633478
 40
0.5
 50
180.0
 51
270.0
  0
ARC
  8
0
 62
7
  6
CONTINUOUS
 10
73.4540224913
 20
207.0037633478
 40
0.5
 50
94.2557468194
 51
180.0
  0
ARC
  8
0
 62
7
  6
CONTINUOUS
 10
110.2040224913
 20
201.9037633478
 40
0.5
 50
270.0
 51
360.0
  0
ARC
  8
0
 62
7
  6
CONTINUOUS
 10
108.2540224913
 20
201.9037633478
 40
0.5
 50
270.0
 51
360.0
  0
ARC
  8
0
 62
7
  6
CONTINUOUS
 10
129.3040224913
 20
201.9037633478
 40
0.5
 50
270.0
 51
360.0
  0
ARC
  8
0
 62
7
  6
CONTINUOUS
 10
127.3540224913
 20
201.9037633478
 40
0.5
 50
270.0
 51
360.0
  0
ARC
  8
0
 62
7
  6
CONTINUOUS
 10
136.3040224913
 20
201.9037633478
 40
0.5
 50
180.0
 51
270.0
  0
ARC
  8
0
 62
7
  6
CONTINUOUS
 10
138.2540224913
 20
201.9037633478
 40
0.5
 50
180.0
 51
270.0
  0
ARC
  8
0
 62
7
  6
CONTINUOUS
 10
117.2040224913
 20
201.9037633478
 40
0.5
 50
180.0
 51
270.0
  0
ARC
  8
0
 62
7
  6
CONTINUOUS
 10
119.1540224913
 20
201.9037633478
 40
0.5
 50
180.0
 51
270.0
  0
ARC
  8
0
 62
7
  6
CONTINUOUS
 10
100.0540224913
 20
209.4037633478
 40
0.5
 50
90.0
 51
180.0
  0
ARC
  8
0
 62
7
  6
CONTINUOUS
 10
119.1540224913
 20
209.4037633478
 40
0.5
 50
90.0
 51
180.0
  0
ARC
  8
0
 62
7
  6
CONTINUOUS
 10
108.2540224913
 20
209.4037633478
 40
0.5
 50
0.0
 51
90.0
  0
ARC
  8
0
 62
7
  6
CONTINUOUS
 10
66.8540224913
 20
209.4037633478
 40
0.5
 50
90.0
 51
180.0
  0
ARC
  8
0
 62
7
  6
CONTINUOUS
 10
66.6540224913
 20
209.4037633478
 40
0.5
 50
90.0
 51
180.0
  0
ARC
  8
0
 62
7
  6
CONTINUOUS
 10
69.8040224913
 20
209.4037633478
 40
0.5
 50
0.0
 51
90.0
  0
ARC
  8
0
 62
7
  6
CONTINUOUS
 10
89.1540224913
 20
209.4037633478
 40
0.5
 50
0.0
 51
90.0
  0
ARC
  8
0
 62
7
  6
CONTINUOUS
 10
127.3540224913
 20
209.4037633478
 40
0.5
 50
0.0
 51
90.0
  0
ARC
  8
0
 62
7
  6
CONTINUOUS
 10
80.9540224913
 20
209.4037633478
 40
0.5
 50
90.0
 51
180.0
  0
ARC
  8
0
 62
7
  6
CONTINUOUS
 10
138.2540224913
 20
209.4037633478
 40
0.5
 50
90.0
 51
180.0
  0
ARC
  8
0
 62
7
  6
CONTINUOUS
 10
70.9940224913
 20
212.6037633478
 40
0.3
 50
0.0
 51
90.0
  0
ARC
  8
0
 62
7
  6
CONTINUOUS
 10
70.3940224913
 20
212.6037633478
 40
0.3
 50
90.0
 51
180.0
  0
ARC
  8
0
 62
7
  6
CONTINUOUS
 10
90.0940224913
 20
212.6037633478
 40
0.3
 50
0.0
 51
90.0
  0
ARC
  8
0
 62
7
  6
CONTINUOUS
 10
89.4940224913
 20
212.6037633478
 40
0.3
 50
90.0
 51
180.0
  0
ARC
  8
0
 62
7
  6
CONTINUOUS
 10
109.1940224913
 20
212.6037633478
 40
0.3
 50
0.0
 51
90.0
  0
ARC
  8
0
 62
7
  6
CONTINUOUS
 10
108.5940224913
 20
212.6037633478
 40
0.3
 50
90.0
 51
180.0
  0
ARC
  8
0
 62
7
  6
CONTINUOUS
 10
128.2940224913
 20
212.6037633478
 40
0.3
 50
0.0
 51
90.0
  0
ARC
  8
0
 62
7
  6
CONTINUOUS
 10
127.6940224913
 20
212.6037633478
 40
0.3
 50
90.0
 51
180.0
  0
ARC
  8
0
 62
7
  6
CONTINUOUS
 10
165.5540224913
 20
201.9037633478
 40
0.5
 50
270.0
 51
360.0
  0
ARC
  8
0
 62
7
  6
CONTINUOUS
 10
146.4540224913
 20
201.9037633478
 40
0.5
 50
270.0
 51
360.0
  0
ARC
  8
0
 62
7
  6
CONTINUOUS
 10
148.4040224913
 20
201.9037633478
 40
0.5
 50
270.0
 51
360.0
  0
ARC
  8
0
 62
7
  6
CONTINUOUS
 10
167.5040224913
 20
201.9037633478
 40
0.5
 50
270.0
 51
360.0
  0
ARC
  8
0
 62
7
  6
CONTINUOUS
 10
174.5040224913
 20
201.9037633478
 40
0.5
 50
180.0
 51
270.0
  0
ARC
  8
0
 62
7
  6
CONTINUOUS
 10
176.4540224913
 20
201.9037633478
 40
0.5
 50
180.0
 51
270.0
  0
ARC
  8
0
 62
7
  6
CONTINUOUS
 10
155.4040224913
 20
201.9037633478
 40
0.5
 50
180.0
 51
270.0
  0
ARC
  8
0
 62
7
  6
CONTINUOUS
 10
157.3540224913
 20
201.9037633478
 40
0.5
 50
180.0
 51
270.0
  0
ARC
  8
0
 62
7
  6
CONTINUOUS
 10
186.6040224913
 20
201.9037633478
 40
0.5
 50
270.0
 51
360.0
  0
ARC
  8
0
 62
7
  6
CONTINUOUS
 10
184.6540224913
 20
201.9037633478
 40
0.5
 50
270.0
 51
360.0
  0
ARC
  8
0
 62
7
  6
CONTINUOUS
 10
193.6040224913
 20
201.9037633478
 40
0.5
 50
180.0
 51
270.0
  0
ARC
  8
0
 62
7
  6
CONTINUOUS
 10
195.5540224913
 20
201.9037633478
 40
0.5
 50
180.0
 51
270.0
  0
ARC
  8
0
 62
7
  6
CONTINUOUS
 10
217.8540224913
 20
201.9037633478
 40
0.5
 50
270.0
 51
360.0
  0
ARC
  8
0
 62
7
  6
CONTINUOUS
 10
203.7540224913
 20
201.9037633478
 40
0.5
 50
270.0
 51
360.0
  0
ARC
  8
0
 62
7
  6
CONTINUOUS
 10
205.7040224913
 20
201.9037633478
 40
0.5
 50
270.0
 51
360.0
  0
ARC
  8
0
 62
7
  6
CONTINUOUS
 10
212.2540224913
 20
201.9037633478
 40
0.5
 50
180.0
 51
270.0
  0
ARC
  8
0
 62
7
  6
CONTINUOUS
 10
214.9040224913
 20
201.9037633478
 40
0.5
 50
180.0
 51
270.0
  0
ARC
  8
0
 62
7
  6
CONTINUOUS
 10
218.0540224913
 20
203.6037633478
 40
0.5
 50
306.9785926752
 51
360.0
  0
ARC
  8
0
 62
7
  6
CONTINUOUS
 10
211.2540224913
 20
207.0037633478
 40
0.5
 50
0.0
 51
85.7442597039
  0
ARC
  8
0
 62
7
  6
CONTINUOUS
 10
157.3540224913
 20
209.4037633478
 40
0.5
 50
90.0
 51
180.0
  0
ARC
  8
0
 62
7
  6
CONTINUOUS
 10
176.4540224913
 20
209.4037633478
 40
0.5
 50
90.0
 51
180.0
  0
ARC
  8
0
 62
7
  6
CONTINUOUS
 10
214.9040224913
 20
209.4037633478
 40
0.5
 50
90.0
 51
180.0
  0
ARC
  8
0
 62
7
  6
CONTINUOUS
 10
165.5540224913
 20
209.4037633478
 40
0.5
 50
0.0
 51
90.0
  0
ARC
  8
0
 62
7
  6
CONTINUOUS
 10
146.4540224913
 20
209.4037633478
 40
0.5
 50
0.0
 51
90.0
  0
ARC
  8
0
 62
7
  6
CONTINUOUS
 10
218.0540224913
 20
209.4037633478
 40
0.5
 50
0.0
 51
90.0
  0
ARC
  8
0
 62
7
  6
CONTINUOUS
 10
217.8540224913
 20
209.4037633478
 40
0.5
 50
0.0
 51
90.0
  0
ARC
  8
0
 62
7
  6
CONTINUOUS
 10
203.7540224913
 20
209.4037633478
 40
0.5
 50
0.0
 51
90.0
  0
ARC
  8
0
 62
7
  6
CONTINUOUS
 10
184.6540224913
 20
209.4037633478
 40
0.5
 50
0.0
 51
90.0
  0
ARC
  8
0
 62
7
  6
CONTINUOUS
 10
195.5540224913
 20
209.4037633478
 40
0.5
 50
90.0
 51
180.0
  0
ARC
  8
0
 62
7
  6
CONTINUOUS
 10
147.3940224913
 20
212.6037633478
 40
0.3
 50
0.0
 51
90.0
  0
ARC
  8
0
 62
7
  6
CONTINUOUS
 10
146.7940224913
 20
212.6037633478
 40
0.3
 50
90.0
 51
180.0
  0
ARC
  8
0
 62
7
  6
CONTINUOUS
 10
166.4940224913
 20
212.6037633478
 40
0.3
 50
0.0
 51
90.0
  0
ARC
  8
0
 62
7
  6
CONTINUOUS
 10
165.8940224913
 20
212.6037633478
 40
0.3
 50
90.0
 51
180.0
  0
ARC
  8
0
 62
7
  6
CONTINUOUS
 10
185.5940224913
 20
212.6037633478
 40
0.3
 50
0.0
 51
90.0
  0
ARC
  8
0
 62
7
  6
CONTINUOUS
 10
184.9940224913
 20
212.6037633478
 40
0.3
 50
90.0
 51
180.0
  0
ARC
  8
0
 62
7
  6
CONTINUOUS
 10
204.7040224913
 20
212.6037633478
 40
0.3
 50
0.0
 51
90.0
  0
ARC
  8
0
 62
7
  6
CONTINUOUS
 10
204.1040224913
 20
212.6037633478
 40
0.3
 50
90.0
 51
180.0
  0
ARC
  8
0
 62
7
  6
CONTINUOUS
 10
100.0540224913
 20
98.244299308
 40
0.5
 50
180.0
 51
270.0
  0
ARC
  8
0
 62
7
  6
CONTINUOUS
 10
66.8540224913
 20
98.244299308
 40
0.5
 50
180.0
 51
270.0
  0
ARC
  8
0
 62
7
  6
CONTINUOUS
 10
80.9540224913
 20
98.244299308
 40
0.5
 50
180.0
 51
270.0
  0
ARC
  8
0
 62
7
  6
CONTINUOUS
 10
89.1540224913
 20
98.244299308
 40
0.5
 50
270.0
 51
360.0
  0
ARC
  8
0
 62
7
  6
CONTINUOUS
 10
69.8040224913
 20
98.244299308
 40
0.5
 50
270.0
 51
360.0
  0
ARC
  8
0
 62
7
  6
CONTINUOUS
 10
70.8040221931
 20
105.0959299398
 40
0.4999998509
 50
89.9999658243
 51
180.0000341757
  0
ARC
  8
0
 62
7
  6
CONTINUOUS
 10
66.6540224913
 20
106.3345791297
 40
0.5
 50
180.0
 51
216.8698976458
  0
ARC
  8
0
 62
7
  6
CONTINUOUS
 10
65.8540224913
 20
105.7345791297
 40
0.5
 50
0.0
 51
36.8698976458
  0
ARC
  8
0
 62
7
  6
CONTINUOUS
 10
79.9540224913
 20
105.0959296415
 40
0.5
 50
0.0
 51
90.0
  0
ARC
  8
0
 62
7
  6
CONTINUOUS
 10
83.5840224913
 20
107.694299308
 40
0.3
 50
180.0
 51
270.0
  0
ARC
  8
0
 62
7
  6
CONTINUOUS
 10
84.1640224913
 20
107.694299308
 40
0.3
 50
270.0
 51
360.0
  0
ARC
  8
0
 62
7
  6
CONTINUOUS
 10
74.0340224913
 20
107.694299308
 40
0.3
 50
180.0
 51
270.0
  0
ARC
  8
0
 62
7
  6
CONTINUOUS
 10
74.6140224913
 20
107.694299308
 40
0.3
 50
270.0
 51
360.0
  0
ARC
  8
0
 62
7
  6
CONTINUOUS
 10
76.3940224913
 20
107.694299308
 40
0.3
 50
180.0
 51
270.0
  0
ARC
  8
0
 62
7
  6
CONTINUOUS
 10
76.9740224913
 20
107.694299308
 40
0.3
 50
270.0
 51
360.0
  0
ARC
  8
0
 62
7
  6
CONTINUOUS
 10
99.0540224913
 20
105.0959296415
 40
0.5
 50
0.0
 51
90.0
  0
ARC
  8
0
 62
7
  6
CONTINUOUS
 10
90.1540221931
 20
105.0959299398
 40
0.4999998509
 50
89.9999658243
 51
180.0000341757
  0
ARC
  8
0
 62
7
  6
CONTINUOUS
 10
102.6840224913
 20
107.694299308
 40
0.3
 50
180.0
 51
270.0
  0
ARC
  8
0
 62
7
  6
CONTINUOUS
 10
103.2640224913
 20
107.694299308
 40
0.3
 50
270.0
 51
360.0
  0
ARC
  8
0
 62
7
  6
CONTINUOUS
 10
93.1340224913
 20
107.694299308
 40
0.3
 50
180.0
 51
270.0
  0
ARC
  8
0
 62
7
  6
CONTINUOUS
 10
93.7140224913
 20
107.694299308
 40
0.3
 50
270.0
 51
360.0
  0
ARC
  8
0
 62
7
  6
CONTINUOUS
 10
95.4940224913
 20
107.694299308
 40
0.3
 50
180.0
 51
270.0
  0
ARC
  8
0
 62
7
  6
CONTINUOUS
 10
96.0740224913
 20
107.694299308
 40
0.3
 50
270.0
 51
360.0
  0
ARC
  8
0
 62
7
  6
CONTINUOUS
 10
85.9440224913
 20
107.694299308
 40
0.3
 50
180.0
 51
270.0
  0
ARC
  8
0
 62
7
  6
CONTINUOUS
 10
86.5240224913
 20
107.694299308
 40
0.3
 50
270.0
 51
360.0
  0
ARC
  8
0
 62
7
  6
CONTINUOUS
 10
119.1540224913
 20
98.244299308
 40
0.5
 50
180.0
 51
270.0
  0
ARC
  8
0
 62
7
  6
CONTINUOUS
 10
108.2540224913
 20
98.244299308
 40
0.5
 50
270.0
 51
360.0
  0
ARC
  8
0
 62
7
  6
CONTINUOUS
 10
138.2540224913
 20
98.244299308
 40
0.5
 50
180.0
 51
270.0
  0
ARC
  8
0
 62
7
  6
CONTINUOUS
 10
127.3540224913
 20
98.244299308
 40
0.5
 50
270.0
 51
360.0
  0
ARC
  8
0
 62
7
  6
CONTINUOUS
 10
118.1540224913
 20
105.0959296415
 40
0.5
 50
0.0
 51
90.0
  0
ARC
  8
0
 62
7
  6
CONTINUOUS
 10
109.2540221931
 20
105.0959299398
 40
0.4999998509
 50
89.9999658243
 51
180.0000341757
  0
ARC
  8
0
 62
7
  6
CONTINUOUS
 10
121.7840224913
 20
107.694299308
 40
0.3
 50
180.0
 51
270.0
  0
ARC
  8
0
 62
7
  6
CONTINUOUS
 10
122.3640224913
 20
107.694299308
 40
0.3
 50
270.0
 51
360.0
  0
ARC
  8
0
 62
7
  6
CONTINUOUS
 10
112.2340224913
 20
107.694299308
 40
0.3
 50
180.0
 51
270.0
  0
ARC
  8
0
 62
7
  6
CONTINUOUS
 10
112.8140224913
 20
107.694299308
 40
0.3
 50
270.0
 51
360.0
  0
ARC
  8
0
 62
7
  6
CONTINUOUS
 10
114.5940224913
 20
107.694299308
 40
0.3
 50
180.0
 51
270.0
  0
ARC
  8
0
 62
7
  6
CONTINUOUS
 10
115.1740224913
 20
107.694299308
 40
0.3
 50
270.0
 51
360.0
  0
ARC
  8
0
 62
7
  6
CONTINUOUS
 10
105.0440224913
 20
107.694299308
 40
0.3
 50
180.0
 51
270.0
  0
ARC
  8
0
 62
7
  6
CONTINUOUS
 10
105.6240224913
 20
107.694299308
 40
0.3
 50
270.0
 51
360.0
  0
ARC
  8
0
 62
7
  6
CONTINUOUS
 10
137.2540224913
 20
105.0959296415
 40
0.5
 50
0.0
 51
90.0
  0
ARC
  8
0
 62
7
  6
CONTINUOUS
 10
128.3540221931
 20
105.0959299398
 40
0.4999998509
 50
89.9999658243
 51
180.0000341757
  0
ARC
  8
0
 62
7
  6
CONTINUOUS
 10
140.8840224913
 20
107.694299308
 40
0.3
 50
180.0
 51
270.0
  0
ARC
  8
0
 62
7
  6
CONTINUOUS
 10
141.4640224913
 20
107.694299308
 40
0.3
 50
270.0
 51
360.0
  0
ARC
  8
0
 62
7
  6
CONTINUOUS
 10
131.3340224913
 20
107.694299308
 40
0.3
 50
180.0
 51
270.0
  0
ARC
  8
0
 62
7
  6
CONTINUOUS
 10
131.9140224913
 20
107.694299308
 40
0.3
 50
270.0
 51
360.0
  0
ARC
  8
0
 62
7
  6
CONTINUOUS
 10
133.6940224913
 20
107.694299308
 40
0.3
 50
180.0
 51
270.0
  0
ARC
  8
0
 62
7
  6
CONTINUOUS
 10
134.2740224913
 20
107.694299308
 40
0.3
 50
270.0
 51
360.0
  0
ARC
  8
0
 62
7
  6
CONTINUOUS
 10
124.1440224913
 20
107.694299308
 40
0.3
 50
180.0
 51
270.0
  0
ARC
  8
0
 62
7
  6
CONTINUOUS
 10
124.7240224913
 20
107.694299308
 40
0.3
 50
270.0
 51
360.0
  0
ARC
  8
0
 62
7
  6
CONTINUOUS
 10
66.6540224913
 20
115.4011521222
 40
0.5
 50
146.3320887789
 51
180.0
  0
ARC
  8
0
 62
7
  6
CONTINUOUS
 10
65.8540224913
 20
116.0039681983
 40
0.5
 50
326.3320887789
 51
360.0
  0
ARC
  8
0
 62
7
  6
CONTINUOUS
 10
84.1640224913
 20
115.324299308
 40
0.3
 50
0.0
 51
90.0
  0
ARC
  8
0
 62
7
  6
CONTINUOUS
 10
83.5840224913
 20
115.324299308
 40
0.3
 50
90.0
 51
180.0
  0
ARC
  8
0
 62
7
  6
CONTINUOUS
 10
74.6140224913
 20
115.324299308
 40
0.3
 50
0.0
 51
90.0
  0
ARC
  8
0
 62
7
  6
CONTINUOUS
 10
74.0340224913
 20
115.324299308
 40
0.3
 50
90.0
 51
180.0
  0
ARC
  8
0
 62
7
  6
CONTINUOUS
 10
76.9740224913
 20
115.324299308
 40
0.3
 50
0.0
 51
90.0
  0
ARC
  8
0
 62
7
  6
CONTINUOUS
 10
76.3940224913
 20
115.324299308
 40
0.3
 50
90.0
 51
180.0
  0
ARC
  8
0
 62
7
  6
CONTINUOUS
 10
70.8540224913
 20
117.9226689744
 40
0.5
 50
270.0
 51
360.0
  0
ARC
  8
0
 62
7
  6
CONTINUOUS
 10
80.6040224913
 20
117.9226689744
 40
0.5
 50
180.0
 51
270.0
  0
ARC
  8
0
 62
7
  6
CONTINUOUS
 10
103.2640224913
 20
115.324299308
 40
0.3
 50
0.0
 51
90.0
  0
ARC
  8
0
 62
7
  6
CONTINUOUS
 10
102.6840224913
 20
115.324299308
 40
0.3
 50
90.0
 51
180.0
  0
ARC
  8
0
 62
7
  6
CONTINUOUS
 10
93.7140224913
 20
115.324299308
 40
0.3
 50
0.0
 51
90.0
  0
ARC
  8
0
 62
7
  6
CONTINUOUS
 10
93.1340224913
 20
115.324299308
 40
0.3
 50
90.0
 51
180.0
  0
ARC
  8
0
 62
7
  6
CONTINUOUS
 10
96.0740224913
 20
115.324299308
 40
0.3
 50
0.0
 51
90.0
  0
ARC
  8
0
 62
7
  6
CONTINUOUS
 10
95.4940224913
 20
115.324299308
 40
0.3
 50
90.0
 51
180.0
  0
ARC
  8
0
 62
7
  6
CONTINUOUS
 10
86.5240224913
 20
115.324299308
 40
0.3
 50
0.0
 51
90.0
  0
ARC
  8
0
 62
7
  6
CONTINUOUS
 10
85.9440224913
 20
115.324299308
 40
0.3
 50
90.0
 51
180.0
  0
ARC
  8
0
 62
7
  6
CONTINUOUS
 10
99.7040224913
 20
117.9226689744
 40
0.5
 50
180.0
 51
270.0
  0
ARC
  8
0
 62
7
  6
CONTINUOUS
 10
89.5040224913
 20
117.9226689744
 40
0.5
 50
270.0
 51
360.0
  0
ARC
  8
0
 62
7
  6
CONTINUOUS
 10
79.6040224913
 20
124.774299308
 40
0.5
 50
0.0
 51
90.0
  0
ARC
  8
0
 62
7
  6
CONTINUOUS
 10
71.8540224913
 20
124.774299308
 40
0.5
 50
90.0
 51
180.0
  0
ARC
  8
0
 62
7
  6
CONTINUOUS
 10
90.5040224913
 20
124.774299308
 40
0.5
 50
90.0
 51
180.0
  0
ARC
  8
0
 62
7
  6
CONTINUOUS
 10
98.7040224913
 20
124.774299308
 40
0.5
 50
0.0
 51
90.0
  0
ARC
  8
0
 62
7
  6
CONTINUOUS
 10
122.3640224913
 20
115.324299308
 40
0.3
 50
0.0
 51
90.0
  0
ARC
  8
0
 62
7
  6
CONTINUOUS
 10
121.7840224913
 20
115.324299308
 40
0.3
 50
90.0
 51
180.0
  0
ARC
  8
0
 62
7
  6
CONTINUOUS
 10
112.8140224913
 20
115.324299308
 40
0.3
 50
0.0
 51
90.0
  0
ARC
  8
0
 62
7
  6
CONTINUOUS
 10
112.2340224913
 20
115.324299308
 40
0.3
 50
90.0
 51
180.0
  0
ARC
  8
0
 62
7
  6
CONTINUOUS
 10
115.1740224913
 20
115.324299308
 40
0.3
 50
0.0
 51
90.0
  0
ARC
  8
0
 62
7
  6
CONTINUOUS
 10
114.5940224913
 20
115.324299308
 40
0.3
 50
90.0
 51
180.0
  0
ARC
  8
0
 62
7
  6
CONTINUOUS
 10
105.6240224913
 20
115.324299308
 40
0.3
 50
0.0
 51
90.0
  0
ARC
  8
0
 62
7
  6
CONTINUOUS
 10
105.0440224913
 20
115.324299308
 40
0.3
 50
90.0
 51
180.0
  0
ARC
  8
0
 62
7
  6
CONTINUOUS
 10
118.8040224913
 20
117.9226689744
 40
0.5
 50
180.0
 51
270.0
  0
ARC
  8
0
 62
7
  6
CONTINUOUS
 10
108.6040224913
 20
117.9226689744
 40
0.5
 50
270.0
 51
360.0
  0
ARC
  8
0
 62
7
  6
CONTINUOUS
 10
141.4640224913
 20
115.324299308
 40
0.3
 50
0.0
 51
90.0
  0
ARC
  8
0
 62
7
  6
CONTINUOUS
 10
140.8840224913
 20
115.324299308
 40
0.3
 50
90.0
 51
180.0
  0
ARC
  8
0
 62
7
  6
CONTINUOUS
 10
131.9140224913
 20
115.324299308
 40
0.3
 50
0.0
 51
90.0
  0
ARC
  8
0
 62
7
  6
CONTINUOUS
 10
131.3340224913
 20
115.324299308
 40
0.3
 50
90.0
 51
180.0
  0
ARC
  8
0
 62
7
  6
CONTINUOUS
 10
134.2740224913
 20
115.324299308
 40
0.3
 50
0.0
 51
90.0
  0
ARC
  8
0
 62
7
  6
CONTINUOUS
 10
133.6940224913
 20
115.324299308
 40
0.3
 50
90.0
 51
180.0
  0
ARC
  8
0
 62
7
  6
CONTINUOUS
 10
124.7240224913
 20
115.324299308
 40
0.3
 50
0.0
 51
90.0
  0
ARC
  8
0
 62
7
  6
CONTINUOUS
 10
124.1440224913
 20
115.324299308
 40
0.3
 50
90.0
 51
180.0
  0
ARC
  8
0
 62
7
  6
CONTINUOUS
 10
137.9040224913
 20
117.9226689744
 40
0.5
 50
180.0
 51
270.0
  0
ARC
  8
0
 62
7
  6
CONTINUOUS
 10
127.7040224913
 20
117.9226689744
 40
0.5
 50
270.0
 51
360.0
  0
ARC
  8
0
 62
7
  6
CONTINUOUS
 10
128.7040224913
 20
124.774299308
 40
0.5
 50
90.0
 51
180.0
  0
ARC
  8
0
 62
7
  6
CONTINUOUS
 10
109.6040224913
 20
124.774299308
 40
0.5
 50
90.0
 51
180.0
  0
ARC
  8
0
 62
7
  6
CONTINUOUS
 10
117.8040224913
 20
124.774299308
 40
0.5
 50
0.0
 51
90.0
  0
ARC
  8
0
 62
7
  6
CONTINUOUS
 10
136.9040224913
 20
124.774299308
 40
0.5
 50
0.0
 51
90.0
  0
ARC
  8
0
 62
7
  6
CONTINUOUS
 10
157.3540224913
 20
98.244299308
 40
0.5
 50
180.0
 51
270.0
  0
ARC
  8
0
 62
7
  6
CONTINUOUS
 10
176.4540224913
 20
98.244299308
 40
0.5
 50
180.0
 51
270.0
  0
ARC
  8
0
 62
7
  6
CONTINUOUS
 10
165.5540224913
 20
98.244299308
 40
0.5
 50
270.0
 51
360.0
  0
ARC
  8
0
 62
7
  6
CONTINUOUS
 10
146.4540224913
 20
98.244299308
 40
0.5
 50
270.0
 51
360.0
  0
ARC
  8
0
 62
7
  6
CONTINUOUS
 10
156.3540224913
 20
105.0959296415
 40
0.5
 50
0.0
 51
90.0
  0
ARC
  8
0
 62
7
  6
CONTINUOUS
 10
147.4540221931
 20
105.0959299398
 40
0.4999998509
 50
89.9999658243
 51
180.0000341757
  0
ARC
  8
0
 62
7
  6
CONTINUOUS
 10
159.9840224913
 20
107.694299308
 40
0.3
 50
180.0
 51
270.0
  0
ARC
  8
0
 62
7
  6
CONTINUOUS
 10
160.5640224913
 20
107.694299308
 40
0.3
 50
270.0
 51
360.0
  0
ARC
  8
0
 62
7
  6
CONTINUOUS
 10
150.4340224913
 20
107.694299308
 40
0.3
 50
180.0
 51
270.0
  0
ARC
  8
0
 62
7
  6
CONTINUOUS
 10
151.0140224913
 20
107.694299308
 40
0.3
 50
270.0
 51
360.0
  0
ARC
  8
0
 62
7
  6
CONTINUOUS
 10
152.7940224913
 20
107.694299308
 40
0.3
 50
180.0
 51
270.0
  0
ARC
  8
0
 62
7
  6
CONTINUOUS
 10
153.3740224913
 20
107.694299308
 40
0.3
 50
270.0
 51
360.0
  0
ARC
  8
0
 62
7
  6
CONTINUOUS
 10
143.2440224913
 20
107.694299308
 40
0.3
 50
180.0
 51
270.0
  0
ARC
  8
0
 62
7
  6
CONTINUOUS
 10
143.8240224913
 20
107.694299308
 40
0.3
 50
270.0
 51
360.0
  0
ARC
  8
0
 62
7
  6
CONTINUOUS
 10
175.4540224913
 20
105.0959296415
 40
0.5
 50
0.0
 51
90.0
  0
ARC
  8
0
 62
7
  6
CONTINUOUS
 10
166.5540221931
 20
105.0959299398
 40
0.4999998509
 50
89.9999658243
 51
180.0000341757
  0
ARC
  8
0
 62
7
  6
CONTINUOUS
 10
179.0840224913
 20
107.694299308
 40
0.3
 50
180.0
 51
270.0
  0
ARC
  8
0
 62
7
  6
CONTINUOUS
 10
179.6640224913
 20
107.694299308
 40
0.3
 50
270.0
 51
360.0
  0
ARC
  8
0
 62
7
  6
CONTINUOUS
 10
169.5340224913
 20
107.694299308
 40
0.3
 50
180.0
 51
270.0
  0
ARC
  8
0
 62
7
  6
CONTINUOUS
 10
170.1140224913
 20
107.694299308
 40
0.3
 50
270.0
 51
360.0
  0
ARC
  8
0
 62
7
  6
CONTINUOUS
 10
171.8940224913
 20
107.694299308
 40
0.3
 50
180.0
 51
270.0
  0
ARC
  8
0
 62
7
  6
CONTINUOUS
 10
172.4740224913
 20
107.694299308
 40
0.3
 50
270.0
 51
360.0
  0
ARC
  8
0
 62
7
  6
CONTINUOUS
 10
162.3440224913
 20
107.694299308
 40
0.3
 50
180.0
 51
270.0
  0
ARC
  8
0
 62
7
  6
CONTINUOUS
 10
162.9240224913
 20
107.694299308
 40
0.3
 50
270.0
 51
360.0
  0
ARC
  8
0
 62
7
  6
CONTINUOUS
 10
214.9040224913
 20
98.244299308
 40
0.5
 50
180.0
 51
270.0
  0
ARC
  8
0
 62
7
  6
CONTINUOUS
 10
217.8540224913
 20
98.244299308
 40
0.5
 50
270.0
 51
360.0
  0
ARC
  8
0
 62
7
  6
CONTINUOUS
 10
203.7540224913
 20
98.244299308
 40
0.5
 50
270.0
 51
360.0
  0
ARC
  8
0
 62
7
  6
CONTINUOUS
 10
195.5540224913
 20
98.244299308
 40
0.5
 50
180.0
 51
270.0
  0
ARC
  8
0
 62
7
  6
CONTINUOUS
 10
184.6540224913
 20
98.244299308
 40
0.5
 50
270.0
 51
360.0
  0
ARC
  8
0
 62
7
  6
CONTINUOUS
 10
194.5540224913
 20
105.0959296415
 40
0.5
 50
0.0
 51
90.0
  0
ARC
  8
0
 62
7
  6
CONTINUOUS
 10
185.6540221931
 20
105.0959299398
 40
0.4999998509
 50
89.9999658243
 51
180.0000341757
  0
ARC
  8
0
 62
7
  6
CONTINUOUS
 10
198.1840224913
 20
107.694299308
 40
0.3
 50
180.0000000001
 51
270.0
  0
ARC
  8
0
 62
7
  6
CONTINUOUS
 10
198.7640224913
 20
107.694299308
 40
0.3
 50
270.0
 51
360.0
  0
ARC
  8
0
 62
7
  6
CONTINUOUS
 10
188.6340224913
 20
107.694299308
 40
0.3
 50
180.0
 51
270.0
  0
ARC
  8
0
 62
7
  6
CONTINUOUS
 10
189.2140224913
 20
107.694299308
 40
0.3
 50
270.0
 51
360.0
  0
ARC
  8
0
 62
7
  6
CONTINUOUS
 10
190.9940224913
 20
107.694299308
 40
0.3
 50
180.0
 51
270.0
  0
ARC
  8
0
 62
7
  6
CONTINUOUS
 10
191.5740224913
 20
107.694299308
 40
0.3
 50
270.0
 51
360.0
  0
ARC
  8
0
 62
7
  6
CONTINUOUS
 10
181.4440224913
 20
107.694299308
 40
0.3
 50
180.0
 51
270.0
  0
ARC
  8
0
 62
7
  6
CONTINUOUS
 10
182.0240224913
 20
107.694299308
 40
0.3
 50
270.0
 51
360.0
  0
ARC
  8
0
 62
7
  6
CONTINUOUS
 10
204.7540221931
 20
105.0959299398
 40
0.4999998509
 50
89.9999658243
 51
180.0000341757
  0
ARC
  8
0
 62
7
  6
CONTINUOUS
 10
213.9040224913
 20
105.0959296415
 40
0.5
 50
0.0
 51
90.0
  0
ARC
  8
0
 62
7
  6
CONTINUOUS
 10
218.0540224913
 20
106.3345791297
 40
0.5
 50
323.1301023542
 51
360.0
  0
ARC
  8
0
 62
7
  6
CONTINUOUS
 10
218.8540224913
 20
105.7345791297
 40
0.5
 50
143.1301023542
 51
180.0
  0
ARC
  8
0
 62
7
  6
CONTINUOUS
 10
207.7340224913
 20
107.694299308
 40
0.3
 50
179.9999999999
 51
270.0
  0
ARC
  8
0
 62
7
  6
CONTINUOUS
 10
208.3140224913
 20
107.694299308
 40
0.3
 50
270.0
 51
360.0
  0
ARC
  8
0
 62
7
  6
CONTINUOUS
 10
210.0940224913
 20
107.694299308
 40
0.3
 50
180.0
 51
270.0
  0
ARC
  8
0
 62
7
  6
CONTINUOUS
 10
210.6740224913
 20
107.694299308
 40
0.3
 50
270.0
 51
359.9999999999
  0
ARC
  8
0
 62
7
  6
CONTINUOUS
 10
200.5440224913
 20
107.694299308
 40
0.3
 50
180.0000000001
 51
270.0
  0
ARC
  8
0
 62
7
  6
CONTINUOUS
 10
201.1240224913
 20
107.694299308
 40
0.3
 50
270.0
 51
359.9999999999
  0
ARC
  8
0
 62
7
  6
CONTINUOUS
 10
160.5640224913
 20
115.324299308
 40
0.3
 50
0.0
 51
90.0
  0
ARC
  8
0
 62
7
  6
CONTINUOUS
 10
159.9840224913
 20
115.324299308
 40
0.3
 50
90.0
 51
180.0
  0
ARC
  8
0
 62
7
  6
CONTINUOUS
 10
151.0140224913
 20
115.324299308
 40
0.3
 50
0.0
 51
90.0
  0
ARC
  8
0
 62
7
  6
CONTINUOUS
 10
150.4340224913
 20
115.324299308
 40
0.3
 50
90.0
 51
180.0
  0
ARC
  8
0
 62
7
  6
CONTINUOUS
 10
153.3740224913
 20
115.324299308
 40
0.3
 50
0.0
 51
90.0
  0
ARC
  8
0
 62
7
  6
CONTINUOUS
 10
152.7940224913
 20
115.324299308
 40
0.3
 50
90.0
 51
180.0000000001
  0
ARC
  8
0
 62
7
  6
CONTINUOUS
 10
143.8240224913
 20
115.324299308
 40
0.3
 50
0.0
 51
90.0
  0
ARC
  8
0
 62
7
  6
CONTINUOUS
 10
143.2440224913
 20
115.324299308
 40
0.3
 50
90.0
 51
180.0
  0
ARC
  8
0
 62
7
  6
CONTINUOUS
 10
157.0040224913
 20
117.9226689744
 40
0.5
 50
180.0
 51
270.0
  0
ARC
  8
0
 62
7
  6
CONTINUOUS
 10
146.8040224913
 20
117.9226689744
 40
0.5
 50
270.0
 51
360.0
  0
ARC
  8
0
 62
7
  6
CONTINUOUS
 10
179.6640224913
 20
115.324299308
 40
0.3
 50
0.0
 51
90.0
  0
ARC
  8
0
 62
7
  6
CONTINUOUS
 10
179.0840224913
 20
115.324299308
 40
0.3
 50
90.0
 51
180.0
  0
ARC
  8
0
 62
7
  6
CONTINUOUS
 10
170.1140224913
 20
115.324299308
 40
0.3
 50
0.0
 51
90.0
  0
ARC
  8
0
 62
7
  6
CONTINUOUS
 10
169.5340224913
 20
115.324299308
 40
0.3
 50
90.0
 51
180.0
  0
ARC
  8
0
 62
7
  6
CONTINUOUS
 10
172.4740224913
 20
115.324299308
 40
0.3
 50
0.0
 51
90.0
  0
ARC
  8
0
 62
7
  6
CONTINUOUS
 10
171.8940224913
 20
115.324299308
 40
0.3
 50
90.0
 51
180.0
  0
ARC
  8
0
 62
7
  6
CONTINUOUS
 10
162.9240224913
 20
115.324299308
 40
0.3
 50
0.0
 51
90.0
  0
ARC
  8
0
 62
7
  6
CONTINUOUS
 10
162.3440224913
 20
115.324299308
 40
0.3
 50
90.0
 51
180.0
  0
ARC
  8
0
 62
7
  6
CONTINUOUS
 10
176.1040224913
 20
117.9226689744
 40
0.5
 50
180.0
 51
270.0
  0
ARC
  8
0
 62
7
  6
CONTINUOUS
 10
165.9040224913
 20
117.9226689744
 40
0.5
 50
270.0
 51
360.0
  0
ARC
  8
0
 62
7
  6
CONTINUOUS
 10
166.9040224913
 20
124.774299308
 40
0.5
 50
90.0
 51
180.0
  0
ARC
  8
0
 62
7
  6
CONTINUOUS
 10
147.8040224913
 20
124.774299308
 40
0.5
 50
90.0
 51
180.0
  0
ARC
  8
0
 62
7
  6
CONTINUOUS
 10
156.0040224913
 20
124.774299308
 40
0.5
 50
0.0
 51
90.0
  0
ARC
  8
0
 62
7
  6
CONTINUOUS
 10
175.1040224913
 20
124.774299308
 40
0.5
 50
0.0
 51
90.0
  0
ARC
  8
0
 62
7
  6
CONTINUOUS
 10
198.7640224913
 20
115.324299308
 40
0.3
 50
0.0
 51
90.0
  0
ARC
  8
0
 62
7
  6
CONTINUOUS
 10
198.1840224913
 20
115.324299308
 40
0.3
 50
90.0
 51
179.9999999999
  0
ARC
  8
0
 62
7
  6
CONTINUOUS
 10
189.2140224913
 20
115.324299308
 40
0.3
 50
0.0000000001
 51
90.0
  0
ARC
  8
0
 62
7
  6
CONTINUOUS
 10
188.6340224913
 20
115.324299308
 40
0.3
 50
90.0
 51
180.0
  0
ARC
  8
0
 62
7
  6
CONTINUOUS
 10
191.5740224913
 20
115.324299308
 40
0.3
 50
0.0
 51
90.0
  0
ARC
  8
0
 62
7
  6
CONTINUOUS
 10
190.9940224913
 20
115.324299308
 40
0.3
 50
90.0
 51
180.0
  0
ARC
  8
0
 62
7
  6
CONTINUOUS
 10
182.0240224913
 20
115.324299308
 40
0.3
 50
0.0
 51
90.0
  0
ARC
  8
0
 62
7
  6
CONTINUOUS
 10
181.4440224913
 20
115.324299308
 40
0.3
 50
90.0
 51
180.0
  0
ARC
  8
0
 62
7
  6
CONTINUOUS
 10
195.2040224913
 20
117.9226689744
 40
0.5
 50
180.0
 51
270.0
  0
ARC
  8
0
 62
7
  6
CONTINUOUS
 10
185.0040224913
 20
117.9226689744
 40
0.5
 50
270.0
 51
360.0
  0
ARC
  8
0
 62
7
  6
CONTINUOUS
 10
218.0540224913
 20
115.4011521222
 40
0.5
 50
0.0
 51
33.6679112211
  0
ARC
  8
0
 62
7
  6
CONTINUOUS
 10
218.8540224913
 20
116.0039681983
 40
0.5
 50
180.0
 51
213.6679112211
  0
ARC
  8
0
 62
7
  6
CONTINUOUS
 10
208.3140224913
 20
115.324299308
 40
0.3
 50
0.0
 51
90.0
  0
ARC
  8
0
 62
7
  6
CONTINUOUS
 10
207.7340224913
 20
115.324299308
 40
0.3
 50
90.0
 51
180.0000000001
  0
ARC
  8
0
 62
7
  6
CONTINUOUS
 10
210.6740224913
 20
115.324299308
 40
0.3
 50
0.0000000001
 51
90.0
  0
ARC
  8
0
 62
7
  6
CONTINUOUS
 10
210.0940224913
 20
115.324299308
 40
0.3
 50
90.0
 51
180.0
  0
ARC
  8
0
 62
7
  6
CONTINUOUS
 10
201.1240224913
 20
115.324299308
 40
0.3
 50
0.0000000001
 51
90.0
  0
ARC
  8
0
 62
7
  6
CONTINUOUS
 10
200.5440224913
 20
115.324299308
 40
0.3
 50
90.0
 51
179.9999999999
  0
ARC
  8
0
 62
7
  6
CONTINUOUS
 10
213.8540224913
 20
117.9226689744
 40
0.5
 50
180.0
 51
270.0
  0
ARC
  8
0
 62
7
  6
CONTINUOUS
 10
204.1040224913
 20
117.9226689744
 40
0.5
 50
270.0
 51
360.0
  0
ARC
  8
0
 62
7
  6
CONTINUOUS
 10
212.8540224913
 20
124.774299308
 40
0.5
 50
0.0
 51
90.0
  0
ARC
  8
0
 62
7
  6
CONTINUOUS
 10
205.1040224913
 20
124.774299308
 40
0.5
 50
90.0
 51
180.0
  0
ARC
  8
0
 62
7
  6
CONTINUOUS
 10
186.0040224913
 20
124.774299308
 40
0.5
 50
90.0
 51
180.0
  0
ARC
  8
0
 62
7
  6
CONTINUOUS
 10
194.2040224913
 20
124.774299308
 40
0.5
 50
0.0
 51
90.0
  0
ARC
  8
0
 62
7
  6
CONTINUOUS
 10
277.1833481229
 20
105.6721170909
 40
0.5
 50
310.5027493696
 51
360.0
  0
ARC
  8
0
 62
7
  6
CONTINUOUS
 10
280.3333481229
 20
101.984299308
 40
4.35
 50
282.9124542829
 51
342.5584061437
  0
ARC
  8
0
 62
7
  6
CONTINUOUS
 10
280.3333481229
 20
101.984299308
 40
4.35
 50
130.5027493696
 51
257.0875457171
  0
CIRCLE
  8
2_FEATURE
 62
7
  6
CONTINUOUS
 10
280.3333481229
 20
101.984299308
 40
2.6
  0
ARC
  8
0
 62
7
  6
CONTINUOUS
 10
278.1833481229
 20
115.8526859108
 40
0.5
 50
90.0
 51
180.0
  0
ARC
  8
0
 62
7
  6
CONTINUOUS
 10
280.3333481229
 20
121.034299308
 40
4.998
 50
293.803024964
 51
311.59628875
  0
ARC
  8
2_FEATURE
 62
7
  6
CONTINUOUS
 10
280.3333481229
 20
121.034299308
 40
4.35
 50
158.2655051901
 51
159.1045638183
  0
ARC
  8
1_AXIS
 62
7
  6
CONTINUOUS
 10
280.3333481229
 20
121.034299308
 40
4.35
 50
167.9921339638
 51
171.6775248428
  0
ARC
  8
0
 62
7
  6
CONTINUOUS
 10
280.3333481229
 20
121.034299308
 40
4.35
 50
102.9124542829
 51
180.0
  0
ARC
  8
0
 62
7
  6
CONTINUOUS
 10
280.3333481229
 20
121.034299308
 40
4.35
 50
17.4415938563
 51
77.0875457171
  0
CIRCLE
  8
0
 62
7
  6
CONTINUOUS
 10
280.3333481229
 20
121.034299308
 40
2.6
  0
ARC
  8
0
 62
7
  6
CONTINUOUS
 10
284.4833481229
 20
111.509299308
 40
3.0
 50
311.4096221093
 51
48.5903778907
  0
ARC
  8
0
 62
7
  6
CONTINUOUS
 10
281.9904882489
 20
116.8526859108
 40
0.5
 50
269.9997759608
 51
291.6182654695
  0
ARC
  8
0
 62
7
  6
CONTINUOUS
 10
283.9833481229
 20
116.9226689744
 40
0.5
 50
0.0
 51
131.59628875
  0
ENDSEC
  0
EOF
